  0
SECTION
  2
HEADER
  9
$ACADVER
  1
AC1015
  9
$DWGCODEPAGE
  3
ANSI_1252
  9
$EXTMAX
 10
297.0
 20
210.0
 30
0.0
  9
$EXTMIN
 10
0.0
 20
0.0
 30
0.0
  9
$LIMMIN
 10
0.0
 20
0.0
  9
$LIMMAX
 10
297.0
 20
210.0
  9
$VIEWCTR
 10
148.5
 20
105.0
  9
$VIEWSIZE
 40
210.0
  9
$CLAYER
  8
0
  9
$LTSCALE
 40
16.335
  9
$CELTYPE
  6
BYLAYER
  9
$DIMSCALE
 40
1.0
  9
$DIMASZ
 40
3.0
  9
$DIMEXO
 40
1.85625
  9
$DIMDLI
 40
11.286
  9
$DIMEXE
 40
5.346
  9
$DIMCEN
 40
2.673
  9
$DIMLFAC
 40
1.0
  9
$DIMBLK
  1
_FILLED
  9
$DIMTXT
 40
3.0
  9
$DIMTOL
 70
1
  9
$DIMLIM
 70
0
  9
$DIMTFAC
 40
1.0
  9
$DIMTP
 40
0.01
  9
$DIMTM
 40
0.01
  9
$PDMODE
 70
3
  9
$PDSIZE
 40
3.0
  9
$HANDSEED
  5
45D
  9
$TILEMODE
 70
1
  9
$MEASUREMENT
 70
1
  9
$INSUNITS
 70
4
  0
ENDSEC
  0
SECTION
  2
CLASSES
  0
CLASS
  1
ACDBDICTIONARYWDFLT
  2
AcDbDictionaryWithDefault
  3
AutoCAD 2000
 90
0
280
0
281
0
  0
CLASS
  1
ACDBPLACEHOLDER
  2
AcDbPlaceHolder
  3
AutoCAD 2000
 90
0
280
0
281
0
  0
CLASS
  1
LAYOUT
  2
AcDbLayout
  3
AutoCAD 2000
 90
0
280
0
281
0
  0
ENDSEC
  0
SECTION
  2
TABLES
  0
TABLE
  2
VPORT
  5
8
100
AcDbSymbolTable
 70
2
  0
VPORT
  5
1F4
100
AcDbSymbolTableRecord
100
AcDbViewportTableRecord
  2
*ACTIVE
 70
0
 10
0.0
 20
0.0
 11
1.0
 21
1.0
 12
148.5
 22
105.0
 13
0.0
 23
0.0
 14
1.0
 24
1.0
 15
0.0
 25
0.0
 16
0.0
 26
0.0
 36
1.0
 17
0.0
 27
0.0
 37
0.0
 40
210.0
 41
1.4142857143
 42
50.0
 43
0.0
 44
0.0
 50
0.0
 51
0.0
 71
0
 72
100
 73
1
 74
1
 75
0
 76
0
 77
0
 78
0
  0
ENDTAB
  0
TABLE
  2
LTYPE
  5
5
100
AcDbSymbolTable
 70
6
  0
LTYPE
  5
14
100
AcDbSymbolTableRecord
100
AcDbLinetypeTableRecord
  2
BYBLOCK
 70
0
  3

 72
65
 73
0
 40
0.0
  0
LTYPE
  5
15
100
AcDbSymbolTableRecord
100
AcDbLinetypeTableRecord
  2
BYLAYER
 70
0
  3

 72
65
 73
0
 40
0.0
  0
LTYPE
  5
16
100
AcDbSymbolTableRecord
100
AcDbLinetypeTableRecord
  2
CONTINUOUS
 70
64
  3
Solid line
 72
65
 73
0
 40
0.0
  0
LTYPE
  5
1F5
100
AcDbSymbolTableRecord
100
AcDbLinetypeTableRecord
  2
CENTER
 70
64
  3
____ _ ____ _ ____ _ ____ _ ____ _ ____ _ ____
 72
65
 73
4
 40
0.6
 49
0.375
 74
0
 49
-0.075
 74
0
 49
0.075
 74
0
 49
-0.075
 74
0
  0
LTYPE
  5
1F6
100
AcDbSymbolTableRecord
100
AcDbLinetypeTableRecord
  2
HIDDEN
 70
64
  3
- - - - - - - - - - - - - - - - - - - -
 72
65
 73
2
 40
0.2
 49
0.1
 74
0
 49
-0.1
 74
0
  0
LTYPE
  5
1F7
100
AcDbSymbolTableRecord
100
AcDbLinetypeTableRecord
  2
PHANTOM
 70
64
  3
_____ _ _ _____ _ _ _____ _ _ _____
 72
65
 73
6
 40
0.8
 49
0.45
 74
0
 49
-0.05
 74
0
 49
0.1
 74
0
 49
-0.05
 74
0
 49
0.1
 74
0
 49
-0.05
 74
0
  0
LTYPE
  5
1F8
100
AcDbSymbolTableRecord
100
AcDbLinetypeTableRecord
  2
DOT
 70
64
  3
. . . . . . . . . . . . . . . . . . . .
 72
65
 73
2
 40
0.2
 49
0.1
 74
0
 49
-0.1
 74
0
  0
LTYPE
  5
1F9
100
AcDbSymbolTableRecord
100
AcDbLinetypeTableRecord
  2
DASHED
 70
64
  3
- - - - - - - - - - - - - - - - - - - -
 72
65
 73
2
 40
0.2
 49
0.1
 74
0
 49
-0.1
 74
0
  0
ENDTAB
  0
TABLE
  2
LAYER
  5
2
100
AcDbSymbolTable
 70
36
  0
LAYER
  5
10
100
AcDbSymbolTableRecord
100
AcDbLayerTableRecord
  2
0
 70
0
 62
7
  6
CONTINUOUS
370
-3
390
F
  0
LAYER
  5
1FA
100
AcDbSymbolTableRecord
100
AcDbLayerTableRecord
  2
DEFAULT_1
 70
0
 62
7
  6
CENTER
370
-3
390
F
  0
LAYER
  5
1FB
100
AcDbSymbolTableRecord
100
AcDbLayerTableRecord
  2
DEFAULT_2
 70
0
 62
7
  6
HIDDEN
370
-3
390
F
  0
LAYER
  5
1FC
100
AcDbSymbolTableRecord
100
AcDbLayerTableRecord
  2
DEFAULT_3
 70
0
 62
7
  6
PHANTOM
370
-3
390
F
  0
LAYER
  5
1FD
100
AcDbSymbolTableRecord
100
AcDbLayerTableRecord
  2
ASSI
 70
0
 62
7
  6
CONTINUOUS
370
-3
390
F
  0
LAYER
  5
1FE
100
AcDbSymbolTableRecord
100
AcDbLayerTableRecord
  2
COORDINATE
 70
0
 62
7
  6
CONTINUOUS
370
-3
390
F
  0
LAYER
  5
1FF
100
AcDbSymbolTableRecord
100
AcDbLayerTableRecord
  2
COORD_ORIGINE
 70
0
 62
7
  6
CONTINUOUS
370
-3
390
F
  0
LAYER
  5
200
100
AcDbSymbolTableRecord
100
AcDbLayerTableRecord
  2
COPY_PUBLISH
 70
0
 62
7
  6
CONTINUOUS
370
-3
390
F
  0
LAYER
  5
201
100
AcDbSymbolTableRecord
100
AcDbLayerTableRecord
  2
COSMETIC
 70
0
 62
7
  6
CONTINUOUS
370
-3
390
F
  0
LAYER
  5
202
100
AcDbSymbolTableRecord
100
AcDbLayerTableRecord
  2
COSMETICI
 70
0
 62
7
  6
CONTINUOUS
370
-3
390
F
  0
LAYER
  5
203
100
AcDbSymbolTableRecord
100
AcDbLayerTableRecord
  2
CURVE
 70
0
 62
7
  6
CONTINUOUS
370
-3
390
F
  0
LAYER
  5
204
100
AcDbSymbolTableRecord
100
AcDbLayerTableRecord
  2
DRAFT
 70
0
 62
7
  6
CONTINUOUS
370
-3
390
F
  0
LAYER
  5
205
100
AcDbSymbolTableRecord
100
AcDbLayerTableRecord
  2
IMPORT_IGES
 70
0
 62
7
  6
CONTINUOUS
370
-3
390
F
  0
LAYER
  5
206
100
AcDbSymbolTableRecord
100
AcDbLayerTableRecord
  2
PIANI
 70
0
 62
7
  6
CONTINUOUS
370
-3
390
F
  0
LAYER
  5
207
100
AcDbSymbolTableRecord
100
AcDbLayerTableRecord
  2
PIANI_ORIGINE
 70
0
 62
7
  6
CONTINUOUS
370
-3
390
F
  0
LAYER
  5
208
100
AcDbSymbolTableRecord
100
AcDbLayerTableRecord
  2
PIANI_RIFERIMENTO
 70
0
 62
7
  6
CONTINUOUS
370
-3
390
F
  0
LAYER
  5
209
100
AcDbSymbolTableRecord
100
AcDbLayerTableRecord
  2
RACCORDO
 70
0
 62
7
  6
CONTINUOUS
370
-3
390
F
  0
LAYER
  5
20A
100
AcDbSymbolTableRecord
100
AcDbLayerTableRecord
  2
SMUSSO
 70
0
 62
7
  6
CONTINUOUS
370
-3
390
F
  0
LAYER
  5
20B
100
AcDbSymbolTableRecord
100
AcDbLayerTableRecord
  2
SNAPLINE
 70
0
 62
7
  6
CONTINUOUS
370
-3
390
F
  0
LAYER
  5
20C
100
AcDbSymbolTableRecord
100
AcDbLayerTableRecord
  2
SUPERFICI
 70
0
 62
7
  6
CONTINUOUS
370
-3
390
F
  0
LAYER
  5
20D
100
AcDbSymbolTableRecord
100
AcDbLayerTableRecord
  2
TRASH
 70
0
 62
7
  6
CONTINUOUS
370
-3
390
F
  0
LAYER
  5
20E
100
AcDbSymbolTableRecord
100
AcDbLayerTableRecord
  2
XSEC_DATUMS
 70
0
 62
7
  6
CONTINUOUS
370
-3
390
F
  0
ENDTAB
  0
TABLE
  2
STYLE
  5
3
100
AcDbSymbolTable
 70
1
  0
STYLE
  5
11
100
AcDbSymbolTableRecord
100
AcDbTextStyleTableRecord
  2
STANDARD
 70
0
 40
0.0
 41
0.8
 50
0.0
 71
0
 42
0.2
  3
txt
  4

  0
STYLE
  5
20F
100
AcDbSymbolTableRecord
100
AcDbTextStyleTableRecord
  2
TEXTSTYLE_1
 70
0
 40
0.0
 41
0.8
 50
0.0
 71
0
 42
0.2
  3
gdt
  4

  0
ENDTAB
  0
TABLE
  2
VIEW
  5
6
100
AcDbSymbolTable
 70
0
  0
ENDTAB
  0
TABLE
  2
UCS
  5
7
100
AcDbSymbolTable
 70
0
  0
ENDTAB
  0
TABLE
  2
APPID
  5
9
100
AcDbSymbolTable
 70
1
  0
APPID
  5
210
100
AcDbSymbolTableRecord
100
AcDbRegAppTableRecord
  2
ACAD
 70
0
  0
ENDTAB
  0
TABLE
  2
BLOCK_RECORD
  5
1
100
AcDbSymbolTable
 70
0
  0
BLOCK_RECORD
  5
211
100
AcDbSymbolTableRecord
100
AcDbBlockTableRecord
  2
*Model_Space
  0
BLOCK_RECORD
  5
212
100
AcDbSymbolTableRecord
100
AcDbBlockTableRecord
  2
*Paper_Space
  0
ENDTAB
  0
TABLE
  2
DIMSTYLE
  5
A
100
AcDbSymbolTable
 70
1
100
AcDbDimStyleTable
 71
0
  0
DIMSTYLE
105
213
100
AcDbSymbolTableRecord
100
AcDbDimStyleTableRecord
  2
STANDARD
 70
0
  3

  4

 40
1.0
 41
3.0
 42
0.0625
 43
0.38
 44
0.18
 45
0.0
 46
0.0
 47
0.01
 48
0.01
140
3.0
141
0.09
142
0.0
143
25.4
144
1.0
145
0.0
146
1.0
147
0.09
 71
1.0
 72
0.0
 73
0
 74
0
 75
0
 76
0
 77
1
 78
8
170
0
171
2
172
0
173
0
174
0
175
0
176
0
177
0
178
0
270
2
271
2
272
2
273
2
274
2
275
0
280
0
281
0
282
0
283
1
284
8
285
0
286
0
287
3
288
0
340
11
  0
ENDTAB
  0
ENDSEC
  0
SECTION
  2
BLOCKS
  0
BLOCK
  5
20
100
AcDbEntity
  8
0
100
AcDbBlockBegin
  2
*Model_Space
 70
0
 10
0.0
 20
0.0
 30
0.0
  3
*Model_Space
  1

  0
ENDBLK
  5
21
100
AcDbEntity
  8
0
100
AcDbBlockEnd
  0
BLOCK
  5
1C
100
AcDbEntity
  8
0
100
AcDbBlockBegin
  2
*Paper_Space
 70
0
 10
0.0
 20
0.0
 30
0.0
  3
*Paper_Space
  1

  0
ENDBLK
  5
1D
100
AcDbEntity
  8
0
100
AcDbBlockEnd
  0
ENDSEC
  0
SECTION
  2
ENTITIES
  0
LINE
  5
214
100
AcDbEntity
  8
RACCORDO
100
AcDbLine
 62
7
  6
CONTINUOUS
 10
-10.5001713375
 20
-22.1
 11
10.5001713375
 21
-22.1
  0
LINE
  5
215
100
AcDbEntity
  8
RACCORDO
100
AcDbLine
 62
7
  6
CONTINUOUS
 10
-9.5001028025
 20
-20.6
 11
-7.5
 21
-20.6
  0
LINE
  5
216
100
AcDbEntity
  8
DRAFT
100
AcDbLine
 62
7
  6
CONTINUOUS
 10
7.5
 20
-20.6
 11
-7.5
 21
-20.6
  0
LINE
  5
217
100
AcDbEntity
  8
RACCORDO
100
AcDbLine
 62
7
  6
CONTINUOUS
 10
7.5
 20
-20.6
 11
9.5001028025
 21
-20.6
  0
LINE
  5
218
100
AcDbEntity
  8
RACCORDO
100
AcDbLine
 62
253
  6
CONTINUOUS
 10
-9.4095764515
 20
-20.509473649
 11
-7.409473649
 21
-20.509473649
  0
LINE
  5
219
100
AcDbEntity
  8
RACCORDO
100
AcDbLine
 62
253
  6
CONTINUOUS
 10
-6.0
 20
-20.509473649
 11
6.0
 21
-20.509473649
  0
LINE
  5
21A
100
AcDbEntity
  8
RACCORDO
100
AcDbLine
 62
253
  6
CONTINUOUS
 10
7.409473649
 20
-20.509473649
 11
9.4095764515
 21
-20.509473649
  0
LINE
  5
21B
100
AcDbEntity
  8
RACCORDO
100
AcDbLine
 62
253
  6
CONTINUOUS
 10
-9.4095764515
 20
-20.2517243354
 11
-7.1517243354
 21
-20.2517243354
  0
LINE
  5
21C
100
AcDbEntity
  8
RACCORDO
100
AcDbLine
 62
253
  6
CONTINUOUS
 10
-6.0
 20
-20.2517243354
 11
6.0
 21
-20.2517243354
  0
LINE
  5
21D
100
AcDbEntity
  8
RACCORDO
100
AcDbLine
 62
253
  6
CONTINUOUS
 10
7.1517243354
 20
-20.2517243354
 11
9.4095764515
 21
-20.2517243354
  0
LINE
  5
21E
100
AcDbEntity
  8
0
100
AcDbLine
 62
7
  6
CONTINUOUS
 10
6.0
 20
-20.0
 11
6.9
 21
-20.0
  0
LINE
  5
21F
100
AcDbEntity
  8
0
100
AcDbLine
 62
7
  6
CONTINUOUS
 10
-6.0
 20
-20.0
 11
-6.9
 21
-20.0
  0
LINE
  5
220
100
AcDbEntity
  8
0
100
AcDbLine
 62
7
  6
CONTINUOUS
 10
-6.3241621608
 20
-17.9023300011
 11
6.3241621608
 21
-17.9023300011
  0
LINE
  5
221
100
AcDbEntity
  8
0
100
AcDbLine
 62
7
  6
CONTINUOUS
 10
6.3241621608
 20
-17.25
 11
-6.3241621608
 21
-17.25
  0
LINE
  5
222
100
AcDbEntity
  8
ASSI
100
AcDbLine
 62
7
  6
CONTINUOUS
 10
6.1191413457
 20
-17.1530070922
 11
-6.1191413457
 21
-17.1530070922
  0
LINE
  5
223
100
AcDbEntity
  8
RACCORDO
100
AcDbLine
 62
7
  6
CONTINUOUS
 10
6.1191413457
 20
-17.1530070922
 11
-6.1191413457
 21
-17.1530070922
  0
LINE
  5
224
100
AcDbEntity
  8
RACCORDO
100
AcDbLine
 62
7
  6
CONTINUOUS
 10
9.3977720681
 20
-16.4726759637
 11
7.8452914063
 21
-16.4726759637
  0
LINE
  5
225
100
AcDbEntity
  8
RACCORDO
100
AcDbLine
 62
7
  6
CONTINUOUS
 10
-7.8452914063
 20
-16.4726759637
 11
-9.3977720681
 21
-16.4726759637
  0
LINE
  5
226
100
AcDbEntity
  8
RACCORDO
100
AcDbLine
 62
7
  6
CONTINUOUS
 10
-4.2870319667
 20
20.509473649
 11
-4.2632529738
 21
20.5451466669
  0
LINE
  5
227
100
AcDbEntity
  8
0
100
AcDbLine
 62
253
  6
CONTINUOUS
 10
7.2519394902
 20
-16.6231343284
 11
7.7484313101
 21
-16.8228138591
  0
LINE
  5
228
100
AcDbEntity
  8
RACCORDO
100
AcDbLine
 62
7
  6
CONTINUOUS
 10
-11.0
 20
21.6001713375
 11
-11.0
 21
-21.6001713375
  0
LINE
  5
229
100
AcDbEntity
  8
0
100
AcDbLine
 62
7
  6
CONTINUOUS
 10
-10.5
 20
6.0
 11
-10.5
 21
-6.0
  0
LINE
  5
22A
100
AcDbEntity
  8
RACCORDO
100
AcDbLine
 62
7
  6
CONTINUOUS
 10
-9.8
 20
20.3001028025
 11
-9.8
 21
6.0
  0
LINE
  5
22B
100
AcDbEntity
  8
RACCORDO
100
AcDbLine
 62
7
  6
CONTINUOUS
 10
-9.8
 20
-6.0
 11
-9.8
 21
-20.3001028025
  0
LINE
  5
22C
100
AcDbEntity
  8
DRAFT
100
AcDbLine
 62
7
  6
CONTINUOUS
 10
-9.7811769562
 20
6.0
 11
-9.7811769562
 21
-6.0
  0
LINE
  5
22D
100
AcDbEntity
  8
RACCORDO
100
AcDbLine
 62
253
  6
CONTINUOUS
 10
-9.6976692656
 20
16.4579449064
 11
-9.6976692656
 21
2.4343622029
  0
LINE
  5
22E
100
AcDbEntity
  8
RACCORDO
100
AcDbLine
 62
253
  6
CONTINUOUS
 10
-9.6976692656
 20
-2.4343622029
 11
-9.6976692656
 21
-16.4579449064
  0
LINE
  5
22F
100
AcDbEntity
  8
RACCORDO
100
AcDbLine
 62
253
  6
CONTINUOUS
 10
-4.295431777
 20
18.8138531253
 11
-4.2841990517
 21
18.8475787052
  0
LINE
  5
230
100
AcDbEntity
  8
0
100
AcDbLine
 62
253
  6
CONTINUOUS
 10
-7.2519394902
 20
-8.3768656716
 11
-7.7158281549
 21
-8.1902985075
  0
LINE
  5
231
100
AcDbEntity
  8
RACCORDO
100
AcDbLine
 62
253
  6
CONTINUOUS
 10
-9.4095764515
 20
20.509473649
 11
-9.4095764515
 21
20.2517243354
  0
LINE
  5
232
100
AcDbEntity
  8
RACCORDO
100
AcDbLine
 62
253
  6
CONTINUOUS
 10
-9.4095764515
 20
-20.509473649
 11
-9.4095764515
 21
-20.2517243354
  0
LINE
  5
233
100
AcDbEntity
  8
RACCORDO
100
AcDbLine
 62
253
  6
CONTINUOUS
 10
-9.3977720681
 20
16.4726759638
 11
-9.3977720681
 21
1.7578395831
  0
LINE
  5
234
100
AcDbEntity
  8
RACCORDO
100
AcDbLine
 62
253
  6
CONTINUOUS
 10
-9.3977720681
 20
-1.7578395831
 11
-9.3977720681
 21
-16.4726759637
  0
LINE
  5
235
100
AcDbEntity
  8
RACCORDO
100
AcDbLine
 62
253
  6
CONTINUOUS
 10
-3.9963114172
 20
18.5117603839
 11
-3.9842447432
 21
18.5479898447
  0
LINE
  5
236
100
AcDbEntity
  8
RACCORDO
100
AcDbLine
 62
7
  6
CONTINUOUS
 10
3.5129680333
 20
20.509473649
 11
3.5367470262
 21
20.5451466669
  0
LINE
  5
237
100
AcDbEntity
  8
DRAFT
100
AcDbLine
 62
7
  6
CONTINUOUS
 10
7.5
 20
20.6
 11
6.9
 21
20.0
  0
LINE
  5
238
100
AcDbEntity
  8
0
100
AcDbLine
 62
7
  6
CONTINUOUS
 10
-0.276826
 20
12.049272
 11
-1.251832
 21
11.090385
  0
LINE
  5
239
100
AcDbEntity
  8
0
100
AcDbLine
 62
7
  6
CONTINUOUS
 10
-0.696042
 20
11.144293
 11
0.249811
 21
12.049272
  0
LINE
  5
23A
100
AcDbEntity
  8
0
100
AcDbLine
 62
7
  6
CONTINUOUS
 10
-1.251832
 20
10.612197
 11
-0.970962
 21
10.874142
  0
LINE
  5
23B
100
AcDbEntity
  8
ASSI
100
AcDbLine
 62
7
  6
CONTINUOUS
 10
1.5
 20
-8.5530070922
 11
-1.5
 21
-8.5530070922
  0
LINE
  5
23C
100
AcDbEntity
  8
DRAFT
100
AcDbLine
 62
7
  6
CONTINUOUS
 10
1.5
 20
-8.5530070922
 11
-1.5
 21
-8.5530070922
  0
LINE
  5
23D
100
AcDbEntity
  8
RACCORDO
100
AcDbLine
 62
253
  6
CONTINUOUS
 10
-1.1947330149
 20
-8.3447025539
 11
1.1947330149
 21
-8.3447025539
  0
LINE
  5
23E
100
AcDbEntity
  8
RACCORDO
100
AcDbLine
 62
253
  6
CONTINUOUS
 10
1.3947025539
 20
-8.1447330149
 11
-1.3947025539
 21
-8.1447330149
  0
LINE
  5
23F
100
AcDbEntity
  8
DRAFT
100
AcDbLine
 62
7
  6
CONTINUOUS
 10
7.5
 20
-20.6
 11
6.9
 21
-20.0
  0
LINE
  5
240
100
AcDbEntity
  8
RACCORDO
100
AcDbLine
 62
253
  6
CONTINUOUS
 10
-4.2841990517
 20
19.7607860213
 11
-4.2632529738
 21
19.929435023
  0
LINE
  5
241
100
AcDbEntity
  8
ASSI
100
AcDbLine
 62
7
  6
CONTINUOUS
 10
-3.848299
 20
14.105729
 11
-3.350874
 21
15.655045
  0
LINE
  5
242
100
AcDbEntity
  8
ASSI
100
AcDbLine
 62
7
  6
CONTINUOUS
 10
-2.900852
 20
15.655045
 11
-3.623288
 21
13.404944
  0
LINE
  5
243
100
AcDbEntity
  8
0
100
AcDbLine
 62
7
  6
CONTINUOUS
 10
-2.8125
 20
7.4042553306
 11
-2.9374999981
 21
7.2765957713
  0
LINE
  5
244
100
AcDbEntity
  8
RACCORDO
100
AcDbLine
 62
253
  6
CONTINUOUS
 10
9.4095764515
 20
20.509473649
 11
9.5001028025
 21
20.6
  0
LINE
  5
245
100
AcDbEntity
  8
RACCORDO
100
AcDbLine
 62
253
  6
CONTINUOUS
 10
9.709473649
 20
20.2095764515
 11
9.8
 21
20.3001028025
  0
LINE
  5
246
100
AcDbEntity
  8
0
100
AcDbLine
 62
7
  6
CONTINUOUS
 10
-2.1250000298
 20
6.9574467838
 11
-3.0
 21
6.1595744714
  0
LINE
  5
247
100
AcDbEntity
  8
0
100
AcDbLine
 62
7
  6
CONTINUOUS
 10
-2.7499999925
 20
6.1595744714
 11
-1.96875
 21
6.8617021143
  0
LINE
  5
248
100
AcDbEntity
  8
0
100
AcDbLine
 62
7
  6
CONTINUOUS
 10
-2.7499999925
 20
7.2446808815
 11
-2.6562499925
 21
7.3085106611
  0
LINE
  5
249
100
AcDbEntity
  8
0
100
AcDbLine
 62
7
  6
CONTINUOUS
 10
-1.3125
 20
7.2446808815
 11
-1.21875
 21
7.3085106611
  0
LINE
  5
24A
100
AcDbEntity
  8
0
100
AcDbLine
 62
7
  6
CONTINUOUS
 10
-1.2500000596
 20
7.4680851102
 11
-1.40625
 21
7.3723404408
  0
LINE
  5
24B
100
AcDbEntity
  8
0
100
AcDbLine
 62
7
  6
CONTINUOUS
 10
-2.6875000075
 20
7.4680851102
 11
-2.8125
 21
7.4042553306
  0
LINE
  5
24C
100
AcDbEntity
  8
ASSI
100
AcDbLine
 62
7
  6
CONTINUOUS
 10
-6.1191413457
 20
-7.8530070922
 11
-1.699969539
 21
-7.8530070922
  0
LINE
  5
24D
100
AcDbEntity
  8
RACCORDO
100
AcDbLine
 62
7
  6
CONTINUOUS
 10
-6.1191413457
 20
-7.8530070922
 11
-1.699969539
 21
-7.8530070922
  0
LINE
  5
24E
100
AcDbEntity
  8
ASSI
100
AcDbLine
 62
7
  6
CONTINUOUS
 10
1.699969539
 20
-7.8530070922
 11
6.1191413457
 21
-7.8530070922
  0
LINE
  5
24F
100
AcDbEntity
  8
RACCORDO
100
AcDbLine
 62
7
  6
CONTINUOUS
 10
1.699969539
 20
-7.8530070922
 11
6.1191413457
 21
-7.8530070922
  0
LINE
  5
250
100
AcDbEntity
  8
DRAFT
100
AcDbLine
 62
7
  6
CONTINUOUS
 10
-6.3241621608
 20
-7.75
 11
-1.4
 21
-7.75
  0
LINE
  5
251
100
AcDbEntity
  8
DRAFT
100
AcDbLine
 62
7
  6
CONTINUOUS
 10
1.4
 20
-7.75
 11
6.3241621608
 21
-7.75
  0
LINE
  5
252
100
AcDbEntity
  8
RACCORDO
100
AcDbLine
 62
7
  6
CONTINUOUS
 10
-6.3241621608
 20
-7.25
 11
-1.1947330149
 21
-7.25
  0
LINE
  5
253
100
AcDbEntity
  8
RACCORDO
100
AcDbLine
 62
7
  6
CONTINUOUS
 10
1.1947330149
 20
-7.25
 11
6.3241621608
 21
-7.25
  0
LINE
  5
254
100
AcDbEntity
  8
RACCORDO
100
AcDbLine
 62
253
  6
CONTINUOUS
 10
9.5001028025
 20
-20.6
 11
9.4095764515
 21
-20.509473649
  0
LINE
  5
255
100
AcDbEntity
  8
RACCORDO
100
AcDbLine
 62
253
  6
CONTINUOUS
 10
9.8
 20
-20.3001028025
 11
9.709473649
 21
-20.2095764515
  0
LINE
  5
256
100
AcDbEntity
  8
0
100
AcDbLine
 62
253
  6
CONTINUOUS
 10
-6.3241621608
 20
-17.25
 11
-6.3241621608
 21
-17.9023300011
  0
LINE
  5
257
100
AcDbEntity
  8
0
100
AcDbLine
 62
253
  6
CONTINUOUS
 10
-6.3241621608
 20
-7.75
 11
-6.3241621608
 21
-7.25
  0
LINE
  5
258
100
AcDbEntity
  8
DRAFT
100
AcDbLine
 62
7
  6
CONTINUOUS
 10
-6.0
 20
-20.6
 11
-6.0
 21
-20.0
  0
LINE
  5
259
100
AcDbEntity
  8
DRAFT
100
AcDbLine
 62
7
  6
CONTINUOUS
 10
-6.0
 20
20.0
 11
-6.0
 21
20.6
  0
LINE
  5
25A
100
AcDbEntity
  8
RACCORDO
100
AcDbLine
 62
253
  6
CONTINUOUS
 10
-3.9797370063
 20
19.5
 11
-3.9632986652
 21
19.6323546024
  0
LINE
  5
25B
100
AcDbEntity
  8
0
100
AcDbLine
 62
7
  6
CONTINUOUS
 10
-2.0625
 20
7.085106343
 11
-2.1250000298
 21
6.9574467838
  0
LINE
  5
25C
100
AcDbEntity
  8
0
100
AcDbLine
 62
7
  6
CONTINUOUS
 10
-2.8125
 20
7.1489362121
 11
-2.7499999925
 21
7.2446808815
  0
LINE
  5
25D
100
AcDbEntity
  8
0
100
AcDbLine
 62
7
  6
CONTINUOUS
 10
-1.96875
 20
6.8617021143
 11
-1.9062499702
 21
6.9574467838
  0
LINE
  5
25E
100
AcDbEntity
  8
0
100
AcDbLine
 62
7
  6
CONTINUOUS
 10
-1.4375000596
 20
7.0531914532
 11
-1.3125
 21
7.2446808815
  0
LINE
  5
25F
100
AcDbEntity
  8
0
100
AcDbLine
 62
7
  6
CONTINUOUS
 10
-1.40625
 20
7.3723404408
 11
-1.5
 21
7.2765957713
  0
LINE
  5
260
100
AcDbEntity
  8
0
100
AcDbLine
 62
7
  6
CONTINUOUS
 10
-0.0312500596
 20
7.3723404408
 11
-0.1250000596
 21
7.2765957713
  0
LINE
  5
261
100
AcDbEntity
  8
0
100
AcDbLine
 62
7
  6
CONTINUOUS
 10
-0.7187499404
 20
6.1276595704
 11
-0.6249999404
 21
6.223404251
  0
LINE
  5
262
100
AcDbEntity
  8
0
100
AcDbLine
 62
7
  6
CONTINUOUS
 10
0.0625001192
 20
7.2446808815
 11
0.1562501192
 21
7.3085106611
  0
LINE
  5
263
100
AcDbEntity
  8
0
100
AcDbLine
 62
7
  6
CONTINUOUS
 10
-0.8124999404
 20
6.2553191409
 11
-0.9062499404
 21
6.1914893612
  0
LINE
  5
264
100
AcDbEntity
  8
0
100
AcDbLine
 62
7
  6
CONTINUOUS
 10
1.3750001192
 20
7.2446808815
 11
1.4687501192
 21
7.3085106611
  0
LINE
  5
265
100
AcDbEntity
  8
0
100
AcDbLine
 62
7
  6
CONTINUOUS
 10
0.5625
 20
6.2553191409
 11
0.46875
 21
6.1914893612
  0
LINE
  5
266
100
AcDbEntity
  8
0
100
AcDbLine
 62
7
  6
CONTINUOUS
 10
0.1249998808
 20
7.4680851102
 11
-0.0312500596
 21
7.3723404408
  0
LINE
  5
267
100
AcDbEntity
  8
0
100
AcDbLine
 62
7
  6
CONTINUOUS
 10
-0.8750000596
 20
6.0319148926
 11
-0.7187499404
 21
6.1276595704
  0
LINE
  5
268
100
AcDbEntity
  8
0
100
AcDbLine
 62
7
  6
CONTINUOUS
 10
0.4999998808
 20
6.0319148926
 11
0.65625
 21
6.1276595704
  0
LINE
  5
269
100
AcDbEntity
  8
0
100
AcDbLine
 62
7
  6
CONTINUOUS
 10
1.4374998808
 20
7.4680851102
 11
1.3125
 21
7.4042553306
  0
LINE
  5
26A
100
AcDbEntity
  8
0
100
AcDbLine
 62
7
  6
CONTINUOUS
 10
1.9375001192
 20
6.8936170042
 11
1.7500001192
 21
6.8297872245
  0
LINE
  5
26B
100
AcDbEntity
  8
DRAFT
100
AcDbLine
 62
7
  6
CONTINUOUS
 10
10.5
 20
-6.0
 11
9.7811769562
 21
-6.0
  0
LINE
  5
26C
100
AcDbEntity
  8
DRAFT
100
AcDbLine
 62
7
  6
CONTINUOUS
 10
-9.7811769562
 20
-6.0
 11
-10.5
 21
-6.0
  0
LINE
  5
26D
100
AcDbEntity
  8
0
100
AcDbLine
 62
7
  6
CONTINUOUS
 10
-4.54
 20
12.049272
 11
-4.54
 21
9.85
  0
LINE
  5
26E
100
AcDbEntity
  8
RACCORDO
100
AcDbLine
 62
253
  6
CONTINUOUS
 10
-4.2841990517
 20
18.8475787052
 11
-4.2841990517
 21
19.7607860213
  0
LINE
  5
26F
100
AcDbEntity
  8
RACCORDO
100
AcDbLine
 62
253
  6
CONTINUOUS
 10
-4.2632529738
 20
19.929435023
 11
-4.2632529738
 21
20.5451466669
  0
LINE
  5
270
100
AcDbEntity
  8
0
100
AcDbLine
 62
7
  6
CONTINUOUS
 10
-4.14724
 20
10.199038
 11
-4.14724
 21
10.804296
  0
LINE
  5
271
100
AcDbEntity
  8
0
100
AcDbLine
 62
7
  6
CONTINUOUS
 10
-4.14724
 20
11.153369
 11
-4.14724
 21
11.700227
  0
LINE
  5
272
100
AcDbEntity
  8
RACCORDO
100
AcDbLine
 62
253
  6
CONTINUOUS
 10
-3.9842447432
 20
18.5479898447
 11
-3.9842447432
 21
19.5
  0
LINE
  5
273
100
AcDbEntity
  8
RACCORDO
100
AcDbLine
 62
253
  6
CONTINUOUS
 10
-3.9632986652
 20
19.6323546024
 11
-3.9632986652
 21
20.5528653412
  0
LINE
  5
274
100
AcDbEntity
  8
RACCORDO
100
AcDbLine
 62
253
  6
CONTINUOUS
 10
-3.8367013348
 20
19.6323546024
 11
-3.8367013348
 21
20.5528653412
  0
LINE
  5
275
100
AcDbEntity
  8
RACCORDO
100
AcDbLine
 62
253
  6
CONTINUOUS
 10
-3.8157552568
 20
18.5479898447
 11
-3.8157552568
 21
19.5
  0
LINE
  5
276
100
AcDbEntity
  8
ASSI
100
AcDbLine
 62
7
  6
CONTINUOUS
 10
-3.8
 20
1.7578395831
 11
-3.8
 21
-1.7578395831
  0
LINE
  5
277
100
AcDbEntity
  8
RACCORDO
100
AcDbLine
 62
253
  6
CONTINUOUS
 10
-3.5367470262
 20
20.5451466669
 11
-3.5367470262
 21
19.929435023
  0
LINE
  5
278
100
AcDbEntity
  8
RACCORDO
100
AcDbLine
 62
253
  6
CONTINUOUS
 10
-3.5158009483
 20
19.7607860213
 11
-3.5158009483
 21
18.8475787052
  0
LINE
  5
279
100
AcDbEntity
  8
0
100
AcDbLine
 62
7
  6
CONTINUOUS
 10
-2.9374999981
 20
7.2765957713
 11
-2.9687499991
 21
7.1489362121
  0
LINE
  5
27A
100
AcDbEntity
  8
0
100
AcDbLine
 62
7
  6
CONTINUOUS
 10
-1.9062499702
 20
6.9574467838
 11
-1.875
 21
7.085106343
  0
LINE
  5
27B
100
AcDbEntity
  8
ASSI
100
AcDbLine
 62
7
  6
CONTINUOUS
 10
-0.600339
 20
14.189699
 11
-0.180158
 21
15.655045
  0
LINE
  5
27C
100
AcDbEntity
  8
ASSI
100
AcDbLine
 62
7
  6
CONTINUOUS
 10
0.050124
 20
14.888734
 11
-0.375339
 21
13.404949
  0
LINE
  5
27D
100
AcDbEntity
  8
ASSI
100
AcDbLine
 62
7
  6
CONTINUOUS
 10
0.800156
 20
13.404944
 11
1.522581
 21
15.655051
  0
LINE
  5
27E
100
AcDbEntity
  8
0
100
AcDbLine
 62
7
  6
CONTINUOUS
 10
-1.5625000298
 20
7.1489362121
 11
-1.59375
 21
7.0531914532
  0
LINE
  5
27F
100
AcDbEntity
  8
0
100
AcDbLine
 62
7
  6
CONTINUOUS
 10
-1.5
 20
7.2765957713
 11
-1.5625000298
 21
7.1489362121
  0
LINE
  5
280
100
AcDbEntity
  8
0
100
AcDbLine
 62
7
  6
CONTINUOUS
 10
-0.1250000596
 20
7.2765957713
 11
-0.1875
 21
7.1489362121
  0
LINE
  5
281
100
AcDbEntity
  8
0
100
AcDbLine
 62
7
  6
CONTINUOUS
 10
-0.6249999404
 20
6.223404251
 11
-0.5625
 21
6.3510638326
  0
LINE
  5
282
100
AcDbEntity
  8
0
100
AcDbLine
 62
7
  6
CONTINUOUS
 10
-0.6875000596
 20
6.4468085021
 11
-0.8124999404
 21
6.2553191409
  0
LINE
  5
283
100
AcDbEntity
  8
0
100
AcDbLine
 62
7
  6
CONTINUOUS
 10
-0.0624999404
 20
7.0531914532
 11
0.0625001192
 21
7.2446808815
  0
LINE
  5
284
100
AcDbEntity
  8
0
100
AcDbLine
 62
7
  6
CONTINUOUS
 10
1.3125
 20
7.4042553306
 11
1.1875001192
 21
7.2765957713
  0
LINE
  5
285
100
AcDbEntity
  8
0
100
AcDbLine
 62
7
  6
CONTINUOUS
 10
0.65625
 20
6.1276595704
 11
0.75
 21
6.223404251
  0
LINE
  5
286
100
AcDbEntity
  8
0
100
AcDbLine
 62
7
  6
CONTINUOUS
 10
1.9999998808
 20
6.9574467838
 11
1.9375001192
 21
6.8936170042
  0
LINE
  5
287
100
AcDbEntity
  8
0
100
AcDbLine
 62
7
  6
CONTINUOUS
 10
1.9999998808
 20
6.7659574449
 11
2.1250001192
 21
6.8617021143
  0
LINE
  5
288
100
AcDbEntity
  8
0
100
AcDbLine
 62
7
  6
CONTINUOUS
 10
2.0625
 20
6.0957446806
 11
2.15625
 21
6.1595744714
  0
LINE
  5
289
100
AcDbEntity
  8
0
100
AcDbLine
 62
7
  6
CONTINUOUS
 10
1.9999998808
 20
6.223404251
 11
1.9375001192
 21
6.1914893612
  0
LINE
  5
28A
100
AcDbEntity
  8
0
100
AcDbLine
 62
7
  6
CONTINUOUS
 10
1.9375001192
 20
6.0319148926
 11
2.0625
 21
6.0957446806
  0
LINE
  5
28B
100
AcDbEntity
  8
0
100
AcDbLine
 62
7
  6
CONTINUOUS
 10
-3.064484
 20
10.804304
 11
-3.064484
 21
11.153361
  0
LINE
  5
28C
100
AcDbEntity
  8
0
100
AcDbLine
 62
7
  6
CONTINUOUS
 10
-3.0
 20
6.1595744714
 11
-3.0
 21
6.0
  0
LINE
  5
28D
100
AcDbEntity
  8
0
100
AcDbLine
 62
7
  6
CONTINUOUS
 10
-2.985676
 20
11.700223
 11
-2.985676
 21
12.049272
  0
LINE
  5
28E
100
AcDbEntity
  8
0
100
AcDbLine
 62
7
  6
CONTINUOUS
 10
-2.976836
 20
9.85
 11
-2.976836
 21
10.199049
  0
LINE
  5
28F
100
AcDbEntity
  8
ASSI
100
AcDbLine
 62
7
  6
CONTINUOUS
 10
-2.600848
 20
13.404938
 11
-2.600843
 21
15.655045
  0
LINE
  5
290
100
AcDbEntity
  8
0
100
AcDbLine
 62
7
  6
CONTINUOUS
 10
-2.504472
 20
12.049272
 11
-2.504472
 21
9.85
  0
LINE
  5
291
100
AcDbEntity
  8
ASSI
100
AcDbLine
 62
7
  6
CONTINUOUS
 10
-2.150826
 20
15.655045
 11
-2.150831
 21
13.404944
  0
LINE
  5
292
100
AcDbEntity
  8
0
100
AcDbLine
 62
7
  6
CONTINUOUS
 10
-2.111689
 20
9.85
 11
-2.111689
 21
12.049272
  0
LINE
  5
293
100
AcDbEntity
  8
0
100
AcDbLine
 62
7
  6
CONTINUOUS
 10
-2.0625
 20
7.1489362121
 11
-2.0625
 21
7.085106343
  0
LINE
  5
294
100
AcDbEntity
  8
0
100
AcDbLine
 62
7
  6
CONTINUOUS
 10
-1.875
 20
6.0
 11
-1.875
 21
6.1595744714
  0
LINE
  5
295
100
AcDbEntity
  8
0
100
AcDbLine
 62
7
  6
CONTINUOUS
 10
-1.875
 20
7.085106343
 11
-1.875
 21
7.1489362121
  0
LINE
  5
296
100
AcDbEntity
  8
ASSI
100
AcDbLine
 62
7
  6
CONTINUOUS
 10
-1.700826
 20
13.404944
 11
-1.700826
 21
15.655045
  0
LINE
  5
297
100
AcDbEntity
  8
0
100
AcDbLine
 62
7
  6
CONTINUOUS
 10
-1.644591
 20
12.049272
 11
-1.644591
 21
9.85
  0
LINE
  5
298
100
AcDbEntity
  8
0
100
AcDbLine
 62
7
  6
CONTINUOUS
 10
-1.6249999702
 20
6.8936170042
 11
-1.6249999702
 21
6.6063829958
  0
LINE
  5
299
100
AcDbEntity
  8
ASSI
100
AcDbLine
 62
7
  6
CONTINUOUS
 10
-1.5
 20
-8.0529766312
 11
-1.5
 21
-8.5530070922
  0
LINE
  5
29A
100
AcDbEntity
  8
RACCORDO
100
AcDbLine
 62
7
  6
CONTINUOUS
 10
-1.5
 20
-8.0529766312
 11
-1.5
 21
-8.5530070922
  0
LINE
  5
29B
100
AcDbEntity
  8
0
100
AcDbLine
 62
7
  6
CONTINUOUS
 10
-1.4687499404
 20
6.6382978857
 11
-1.4687499404
 21
6.8617021143
  0
LINE
  5
29C
100
AcDbEntity
  8
0
100
AcDbLine
 62
7
  6
CONTINUOUS
 10
-1.4687499404
 20
6.8617021143
 11
-1.4375000596
 21
7.0531914532
  0
LINE
  5
29D
100
AcDbEntity
  8
0
100
AcDbLine
 62
7
  6
CONTINUOUS
 10
-0.65625
 20
6.6382978857
 11
-0.6875000596
 21
6.4468085021
  0
LINE
  5
29E
100
AcDbEntity
  8
0
100
AcDbLine
 62
7
  6
CONTINUOUS
 10
-1.59375
 20
7.0531914532
 11
-1.6249999702
 21
6.8936170042
  0
LINE
  5
29F
100
AcDbEntity
  8
0
100
AcDbLine
 62
7
  6
CONTINUOUS
 10
-0.5312499404
 20
6.4468085021
 11
-0.5000000596
 21
6.6063829958
  0
LINE
  5
2A0
100
AcDbEntity
  8
0
100
AcDbLine
 62
7
  6
CONTINUOUS
 10
-0.2187500596
 20
7.0531914532
 11
-0.2499999404
 21
6.8936170042
  0
LINE
  5
2A1
100
AcDbEntity
  8
ASSI
100
AcDbLine
 62
7
  6
CONTINUOUS
 10
1.392244
 20
13.847446
 11
1.250173
 21
13.404949
  0
LINE
  5
2A2
100
AcDbEntity
  8
ASSI
100
AcDbLine
 62
7
  6
CONTINUOUS
 10
1.747598
 20
14.95426
 11
1.529511
 21
14.274962
  0
LINE
  5
2A3
100
AcDbEntity
  8
0
100
AcDbLine
 62
7
  6
CONTINUOUS
 10
-0.5625
 20
6.3510638326
 11
-0.5312499404
 21
6.4468085021
  0
LINE
  5
2A4
100
AcDbEntity
  8
0
100
AcDbLine
 62
7
  6
CONTINUOUS
 10
-0.1875
 20
7.1489362121
 11
-0.2187500596
 21
7.0531914532
  0
LINE
  5
2A5
100
AcDbEntity
  8
RACCORDO
100
AcDbLine
 62
253
  6
CONTINUOUS
 10
3.504568223
 20
18.8138531253
 11
3.5158009483
 21
18.8475787052
  0
LINE
  5
2A6
100
AcDbEntity
  8
RACCORDO
100
AcDbLine
 62
253
  6
CONTINUOUS
 10
3.8036885828
 20
18.5117603839
 11
3.8157552568
 21
18.5479898447
  0
LINE
  5
2A7
100
AcDbEntity
  8
0
100
AcDbLine
 62
7
  6
CONTINUOUS
 10
0.75
 20
6.223404251
 11
0.8125001192
 21
6.3510638326
  0
LINE
  5
2A8
100
AcDbEntity
  8
0
100
AcDbLine
 62
7
  6
CONTINUOUS
 10
0.6874998808
 20
6.4468085021
 11
0.5625
 21
6.2553191409
  0
LINE
  5
2A9
100
AcDbEntity
  8
0
100
AcDbLine
 62
7
  6
CONTINUOUS
 10
1.3125
 20
7.1489362121
 11
1.3750001192
 21
7.2446808815
  0
LINE
  5
2AA
100
AcDbEntity
  8
0
100
AcDbLine
 62
7
  6
CONTINUOUS
 10
2.1250001192
 20
6.8617021143
 11
2.1874998808
 21
6.9574467838
  0
LINE
  5
2AB
100
AcDbEntity
  8
0
100
AcDbLine
 62
7
  6
CONTINUOUS
 10
2.15625
 20
6.1595744714
 11
2.2187501192
 21
6.2553191409
  0
LINE
  5
2AC
100
AcDbEntity
  8
0
100
AcDbLine
 62
7
  6
CONTINUOUS
 10
2.6875001192
 20
7.5
 11
2.5000001192
 21
7.2765957713
  0
LINE
  5
2AD
100
AcDbEntity
  8
0
100
AcDbLine
 62
7
  6
CONTINUOUS
 10
2.5000001192
 20
7.0212765634
 11
2.6875001192
 21
7.2446808815
  0
LINE
  5
2AE
100
AcDbEntity
  8
0
100
AcDbLine
 62
7
  6
CONTINUOUS
 10
2.0625
 20
6.287234053
 11
1.9999998808
 21
6.223404251
  0
LINE
  5
2AF
100
AcDbEntity
  8
RACCORDO
100
AcDbLine
 62
7
  6
CONTINUOUS
 10
3.8
 20
-1.7578395831
 11
9.3977720681
 21
-1.7578395831
  0
LINE
  5
2B0
100
AcDbEntity
  8
RACCORDO
100
AcDbLine
 62
7
  6
CONTINUOUS
 10
-3.8
 20
-1.7578395831
 11
-9.3977720681
 21
-1.7578395831
  0
LINE
  5
2B1
100
AcDbEntity
  8
RACCORDO
100
AcDbLine
 62
7
  6
CONTINUOUS
 10
-1.4
 20
-7.75
 11
-1.4
 21
-8.150030461
  0
LINE
  5
2B2
100
AcDbEntity
  8
RACCORDO
100
AcDbLine
 62
253
  6
CONTINUOUS
 10
-1.3947025539
 20
-7.4465095187
 11
-1.3947025539
 21
-8.1447330149
  0
LINE
  5
2B3
100
AcDbEntity
  8
0
100
AcDbLine
 62
7
  6
CONTINUOUS
 10
-1.251832
 20
11.090385
 11
-1.251824
 21
12.049272
  0
LINE
  5
2B4
100
AcDbEntity
  8
0
100
AcDbLine
 62
7
  6
CONTINUOUS
 10
-1.251824
 20
9.85
 11
-1.251832
 21
10.612197
  0
LINE
  5
2B5
100
AcDbEntity
  8
ASSI
100
AcDbLine
 62
7
  6
CONTINUOUS
 10
-1.250809
 20
14.888734
 11
-1.250809
 21
13.404944
  0
LINE
  5
2B6
100
AcDbEntity
  8
RACCORDO
100
AcDbLine
 62
253
  6
CONTINUOUS
 10
-1.1947330149
 20
-7.25
 11
-1.1947330149
 21
-8.3447025539
  0
LINE
  5
2B7
100
AcDbEntity
  8
0
100
AcDbLine
 62
7
  6
CONTINUOUS
 10
-0.65625
 20
6.8617021143
 11
-0.65625
 21
6.6382978857
  0
LINE
  5
2B8
100
AcDbEntity
  8
0
100
AcDbLine
 62
7
  6
CONTINUOUS
 10
-0.5000000596
 20
6.6063829958
 11
-0.5000000596
 21
6.8936170042
  0
LINE
  5
2B9
100
AcDbEntity
  8
0
100
AcDbLine
 62
7
  6
CONTINUOUS
 10
-0.2499999404
 20
6.8936170042
 11
-0.2499999404
 21
6.6063829958
  0
LINE
  5
2BA
100
AcDbEntity
  8
0
100
AcDbLine
 62
7
  6
CONTINUOUS
 10
-0.09375
 20
6.6382978857
 11
-0.09375
 21
6.8617021143
  0
LINE
  5
2BB
100
AcDbEntity
  8
ASSI
100
AcDbLine
 62
7
  6
CONTINUOUS
 10
0.05013
 20
13.404944
 11
0.050124
 21
14.888734
  0
LINE
  5
2BC
100
AcDbEntity
  8
RACCORDO
100
AcDbLine
 62
7
  6
CONTINUOUS
 10
-1.4
 20
-7.75
 11
-1.3947025539
 21
-7.4465095187
  0
LINE
  5
2BD
100
AcDbEntity
  8
0
100
AcDbLine
 62
7
  6
CONTINUOUS
 10
-0.09375
 20
6.8617021143
 11
-0.0624999404
 21
7.0531914532
  0
LINE
  5
2BE
100
AcDbEntity
  8
0
100
AcDbLine
 62
7
  6
CONTINUOUS
 10
0.7187501192
 20
6.6382978857
 11
0.6874998808
 21
6.4468085021
  0
LINE
  5
2BF
100
AcDbEntity
  8
0
100
AcDbLine
 62
7
  6
CONTINUOUS
 10
0.84375
 20
6.4468085021
 11
0.8749998808
 21
6.6063829958
  0
LINE
  5
2C0
100
AcDbEntity
  8
0
100
AcDbLine
 62
7
  6
CONTINUOUS
 10
1.1875001192
 20
7.2765957713
 11
1.1562498808
 21
7.1489362121
  0
LINE
  5
2C1
100
AcDbEntity
  8
0
100
AcDbLine
 62
7
  6
CONTINUOUS
 10
0.8125001192
 20
6.3510638326
 11
0.84375
 21
6.4468085021
  0
LINE
  5
2C2
100
AcDbEntity
  8
0
100
AcDbLine
 62
7
  6
CONTINUOUS
 10
2.2187501192
 20
6.2553191409
 11
2.25
 21
6.3510638326
  0
LINE
  5
2C3
100
AcDbEntity
  8
0
100
AcDbLine
 62
7
  6
CONTINUOUS
 10
2.0625
 20
7.085106343
 11
1.9999998808
 21
6.9574467838
  0
LINE
  5
2C4
100
AcDbEntity
  8
0
100
AcDbLine
 62
7
  6
CONTINUOUS
 10
2.0937498808
 20
6.3510638326
 11
2.0625
 21
6.287234053
  0
LINE
  5
2C5
100
AcDbEntity
  8
ASSI
100
AcDbLine
 62
7
  6
CONTINUOUS
 10
-4.073321
 20
13.404938
 11
-4.795751
 21
15.655045
  0
LINE
  5
2C6
100
AcDbEntity
  8
0
100
AcDbLine
 62
7
  6
CONTINUOUS
 10
-1.875
 20
7.1489362121
 11
-1.9062499702
 21
7.2765957713
  0
LINE
  5
2C7
100
AcDbEntity
  8
0
100
AcDbLine
 62
7
  6
CONTINUOUS
 10
-1.6249999702
 20
6.6063829958
 11
-1.59375
 21
6.4468085021
  0
LINE
  5
2C8
100
AcDbEntity
  8
0
100
AcDbLine
 62
7
  6
CONTINUOUS
 10
-1.4375000596
 20
6.4468085021
 11
-1.4687499404
 21
6.6382978857
  0
LINE
  5
2C9
100
AcDbEntity
  8
RACCORDO
100
AcDbLine
 62
253
  6
CONTINUOUS
 10
-3.8367013348
 20
19.6323546024
 11
-3.8202629937
 21
19.5
  0
LINE
  5
2CA
100
AcDbEntity
  8
RACCORDO
100
AcDbLine
 62
253
  6
CONTINUOUS
 10
-3.5367470262
 20
19.929435023
 11
-3.5158009483
 21
19.7607860213
  0
LINE
  5
2CB
100
AcDbEntity
  8
RACCORDO
100
AcDbLine
 62
7
  6
CONTINUOUS
 10
1.4
 20
-7.75
 11
1.3947025539
 21
-7.4465095187
  0
LINE
  5
2CC
100
AcDbEntity
  8
ASSI
100
AcDbLine
 62
7
  6
CONTINUOUS
 10
0.500147
 20
15.655045
 11
0.500147
 21
13.404944
  0
LINE
  5
2CD
100
AcDbEntity
  8
0
100
AcDbLine
 62
7
  6
CONTINUOUS
 10
0.7187501192
 20
6.8617021143
 11
0.7187501192
 21
6.6382978857
  0
LINE
  5
2CE
100
AcDbEntity
  8
0
100
AcDbLine
 62
7
  6
CONTINUOUS
 10
0.8749998808
 20
6.6063829958
 11
0.8749998808
 21
6.8936170042
  0
LINE
  5
2CF
100
AcDbEntity
  8
RACCORDO
100
AcDbLine
 62
253
  6
CONTINUOUS
 10
1.1947330149
 20
-8.3447025539
 11
1.1947330149
 21
-7.25
  0
LINE
  5
2D0
100
AcDbEntity
  8
RACCORDO
100
AcDbLine
 62
253
  6
CONTINUOUS
 10
1.3947025539
 20
-8.1447330149
 11
1.3947025539
 21
-7.4465095187
  0
LINE
  5
2D1
100
AcDbEntity
  8
RACCORDO
100
AcDbLine
 62
7
  6
CONTINUOUS
 10
1.4
 20
-7.75
 11
1.4
 21
-8.150030461
  0
LINE
  5
2D2
100
AcDbEntity
  8
ASSI
100
AcDbLine
 62
7
  6
CONTINUOUS
 10
1.5
 20
-8.0529766312
 11
1.5
 21
-8.5530070922
  0
LINE
  5
2D3
100
AcDbEntity
  8
RACCORDO
100
AcDbLine
 62
7
  6
CONTINUOUS
 10
1.5
 20
-8.0529766312
 11
1.5
 21
-8.5530070922
  0
LINE
  5
2D4
100
AcDbEntity
  8
0
100
AcDbLine
 62
7
  6
CONTINUOUS
 10
1.6249998808
 20
6.8297872245
 11
1.6249998808
 21
6.7021276653
  0
LINE
  5
2D5
100
AcDbEntity
  8
RACCORDO
100
AcDbLine
 62
253
  6
CONTINUOUS
 10
3.5158009483
 20
19.7607860213
 11
3.5367470262
 21
19.929435023
  0
LINE
  5
2D6
100
AcDbEntity
  8
RACCORDO
100
AcDbLine
 62
253
  6
CONTINUOUS
 10
3.8202629937
 20
19.5
 11
3.8367013348
 21
19.6323546024
  0
LINE
  5
2D7
100
AcDbEntity
  8
0
100
AcDbLine
 62
7
  6
CONTINUOUS
 10
2.1874998808
 20
6.9574467838
 11
2.2187501192
 21
7.085106343
  0
LINE
  5
2D8
100
AcDbEntity
  8
RACCORDO
100
AcDbLine
 62
7
  6
CONTINUOUS
 10
3.8
 20
1.7578395831
 11
9.3977720681
 21
1.7578395831
  0
LINE
  5
2D9
100
AcDbEntity
  8
RACCORDO
100
AcDbLine
 62
7
  6
CONTINUOUS
 10
-3.8
 20
1.7578395831
 11
-9.3977720681
 21
1.7578395831
  0
LINE
  5
2DA
100
AcDbEntity
  8
0
100
AcDbLine
 62
7
  6
CONTINUOUS
 10
-1.5625000298
 20
6.3510638326
 11
-1.5
 21
6.223404251
  0
LINE
  5
2DB
100
AcDbEntity
  8
0
100
AcDbLine
 62
7
  6
CONTINUOUS
 10
-1.59375
 20
6.4468085021
 11
-1.5625000298
 21
6.3510638326
  0
LINE
  5
2DC
100
AcDbEntity
  8
0
100
AcDbLine
 62
7
  6
CONTINUOUS
 10
-0.5312499404
 20
7.0531914532
 11
-0.5625
 21
7.1489362121
  0
LINE
  5
2DD
100
AcDbEntity
  8
0
100
AcDbLine
 62
7
  6
CONTINUOUS
 10
-0.2187500596
 20
6.4468085021
 11
-0.1875
 21
6.3510638326
  0
LINE
  5
2DE
100
AcDbEntity
  8
ASSI
100
AcDbLine
 62
7
  6
CONTINUOUS
 10
-4.345729
 20
15.655045
 11
-3.848299
 21
14.105729
  0
LINE
  5
2DF
100
AcDbEntity
  8
0
100
AcDbLine
 62
7
  6
CONTINUOUS
 10
-0.5000000596
 20
6.8936170042
 11
-0.5312499404
 21
7.0531914532
  0
LINE
  5
2E0
100
AcDbEntity
  8
0
100
AcDbLine
 62
7
  6
CONTINUOUS
 10
-0.2499999404
 20
6.6063829958
 11
-0.2187500596
 21
6.4468085021
  0
LINE
  5
2E1
100
AcDbEntity
  8
0
100
AcDbLine
 62
7
  6
CONTINUOUS
 10
-0.6875000596
 20
7.0531914532
 11
-0.65625
 21
6.8617021143
  0
LINE
  5
2E2
100
AcDbEntity
  8
0
100
AcDbLine
 62
7
  6
CONTINUOUS
 10
-0.0624999404
 20
6.4468085021
 11
-0.09375
 21
6.6382978857
  0
LINE
  5
2E3
100
AcDbEntity
  8
0
100
AcDbLine
 62
7
  6
CONTINUOUS
 10
0.6874998808
 20
7.0531914532
 11
0.7187501192
 21
6.8617021143
  0
LINE
  5
2E4
100
AcDbEntity
  8
0
100
AcDbLine
 62
7
  6
CONTINUOUS
 10
2.0625
 20
7.1489362121
 11
2.0625
 21
7.085106343
  0
LINE
  5
2E5
100
AcDbEntity
  8
0
100
AcDbLine
 62
7
  6
CONTINUOUS
 10
2.0937498808
 20
6.4787233919
 11
2.0937498808
 21
6.3510638326
  0
LINE
  5
2E6
100
AcDbEntity
  8
0
100
AcDbLine
 62
7
  6
CONTINUOUS
 10
2.2187501192
 20
7.085106343
 11
2.2187501192
 21
7.1489362121
  0
LINE
  5
2E7
100
AcDbEntity
  8
0
100
AcDbLine
 62
7
  6
CONTINUOUS
 10
2.25
 20
6.3510638326
 11
2.25
 21
6.4787233919
  0
LINE
  5
2E8
100
AcDbEntity
  8
0
100
AcDbLine
 62
7
  6
CONTINUOUS
 10
2.5000001192
 20
7.2765957713
 11
2.5000001192
 21
7.0212765634
  0
LINE
  5
2E9
100
AcDbEntity
  8
0
100
AcDbLine
 62
7
  6
CONTINUOUS
 10
2.6875001192
 20
7.2446808815
 11
2.6875001192
 21
6.0
  0
LINE
  5
2EA
100
AcDbEntity
  8
0
100
AcDbLine
 62
7
  6
CONTINUOUS
 10
2.760163
 20
12.049272
 11
2.760163
 21
9.85
  0
LINE
  5
2EB
100
AcDbEntity
  8
0
100
AcDbLine
 62
7
  6
CONTINUOUS
 10
2.8750001192
 20
6.0
 11
2.8750001192
 21
7.5
  0
LINE
  5
2EC
100
AcDbEntity
  8
ASSI
100
AcDbLine
 62
7
  6
CONTINUOUS
 10
2.995065
 20
13.404949
 11
2.995065
 21
15.655051
  0
LINE
  5
2ED
100
AcDbEntity
  8
ASSI
100
AcDbLine
 62
7
  6
CONTINUOUS
 10
3.438878
 20
15.238784
 11
3.438883
 21
14.691235
  0
LINE
  5
2EE
100
AcDbEntity
  8
ASSI
100
AcDbLine
 62
7
  6
CONTINUOUS
 10
3.445138
 20
14.274968
 11
3.445088
 21
13.404949
  0
LINE
  5
2EF
100
AcDbEntity
  8
0
100
AcDbLine
 62
7
  6
CONTINUOUS
 10
3.13827
 20
9.85
 11
3.143598
 21
11.38635
  0
LINE
  5
2F0
100
AcDbEntity
  8
0
100
AcDbLine
 62
7
  6
CONTINUOUS
 10
-1.5
 20
6.223404251
 11
-1.40625
 21
6.1276595704
  0
LINE
  5
2F1
100
AcDbEntity
  8
0
100
AcDbLine
 62
7
  6
CONTINUOUS
 10
-2.1250000298
 20
7.2446808815
 11
-2.0625
 21
7.1489362121
  0
LINE
  5
2F2
100
AcDbEntity
  8
0
100
AcDbLine
 62
7
  6
CONTINUOUS
 10
-1.3125
 20
6.2553191409
 11
-1.4375000596
 21
6.4468085021
  0
LINE
  5
2F3
100
AcDbEntity
  8
0
100
AcDbLine
 62
7
  6
CONTINUOUS
 10
-0.8124999404
 20
7.2446808815
 11
-0.6875000596
 21
7.0531914532
  0
LINE
  5
2F4
100
AcDbEntity
  8
0
100
AcDbLine
 62
7
  6
CONTINUOUS
 10
0.0625001192
 20
6.2553191409
 11
-0.0624999404
 21
6.4468085021
  0
LINE
  5
2F5
100
AcDbEntity
  8
0
100
AcDbLine
 62
7
  6
CONTINUOUS
 10
-0.1875
 20
6.3510638326
 11
-0.1250000596
 21
6.223404251
  0
LINE
  5
2F6
100
AcDbEntity
  8
0
100
AcDbLine
 62
7
  6
CONTINUOUS
 10
-0.5625
 20
7.1489362121
 11
-0.6249999404
 21
7.2765957713
  0
LINE
  5
2F7
100
AcDbEntity
  8
RACCORDO
100
AcDbLine
 62
253
  6
CONTINUOUS
 10
-3.8157552568
 20
18.5479898447
 11
-3.8036885828
 21
18.5117603839
  0
LINE
  5
2F8
100
AcDbEntity
  8
RACCORDO
100
AcDbLine
 62
253
  6
CONTINUOUS
 10
-3.5158009483
 20
18.8475787052
 11
-3.504568223
 21
18.8138531253
  0
LINE
  5
2F9
100
AcDbEntity
  8
0
100
AcDbLine
 62
7
  6
CONTINUOUS
 10
0.84375
 20
7.0531914532
 11
0.8125001192
 21
7.1489362121
  0
LINE
  5
2FA
100
AcDbEntity
  8
0
100
AcDbLine
 62
7
  6
CONTINUOUS
 10
1.125
 20
6.3510638326
 11
1.1562498808
 21
6.2553191409
  0
LINE
  5
2FB
100
AcDbEntity
  8
ASSI
100
AcDbLine
 62
7
  6
CONTINUOUS
 10
-0.825345
 20
13.404944
 11
-1.250809
 21
14.888734
  0
LINE
  5
2FC
100
AcDbEntity
  8
ASSI
100
AcDbLine
 62
7
  6
CONTINUOUS
 10
-1.020521
 20
15.655045
 11
-0.600339
 21
14.189699
  0
LINE
  5
2FD
100
AcDbEntity
  8
0
100
AcDbLine
 62
7
  6
CONTINUOUS
 10
0.8749998808
 20
6.8936170042
 11
0.84375
 21
7.0531914532
  0
LINE
  5
2FE
100
AcDbEntity
  8
RACCORDO
100
AcDbLine
 62
253
  6
CONTINUOUS
 10
3.5158009483
 20
18.8475787052
 11
3.5158009483
 21
19.7607860213
  0
LINE
  5
2FF
100
AcDbEntity
  8
RACCORDO
100
AcDbLine
 62
253
  6
CONTINUOUS
 10
3.5367470262
 20
19.929435023
 11
3.5367470262
 21
20.5451466669
  0
LINE
  5
300
100
AcDbEntity
  8
ASSI
100
AcDbLine
 62
7
  6
CONTINUOUS
 10
3.8
 20
-1.7578395831
 11
3.8
 21
1.7578395831
  0
LINE
  5
301
100
AcDbEntity
  8
RACCORDO
100
AcDbLine
 62
253
  6
CONTINUOUS
 10
3.8157552568
 20
18.5479898447
 11
3.8157552568
 21
19.5
  0
LINE
  5
302
100
AcDbEntity
  8
RACCORDO
100
AcDbLine
 62
253
  6
CONTINUOUS
 10
3.8367013348
 20
19.6323546024
 11
3.8367013348
 21
20.5528653412
  0
LINE
  5
303
100
AcDbEntity
  8
RACCORDO
100
AcDbLine
 62
253
  6
CONTINUOUS
 10
3.9632986652
 20
19.6323546024
 11
3.9632986652
 21
20.5528653412
  0
LINE
  5
304
100
AcDbEntity
  8
RACCORDO
100
AcDbLine
 62
253
  6
CONTINUOUS
 10
3.9842447432
 20
18.5479898447
 11
3.9842447432
 21
19.5
  0
LINE
  5
305
100
AcDbEntity
  8
0
100
AcDbLine
 62
7
  6
CONTINUOUS
 10
4.158123
 20
12.049272
 11
4.158115
 21
10.495969
  0
LINE
  5
306
100
AcDbEntity
  8
RACCORDO
100
AcDbLine
 62
253
  6
CONTINUOUS
 10
4.2632529738
 20
20.5451466669
 11
4.2632529738
 21
19.929435023
  0
LINE
  5
307
100
AcDbEntity
  8
RACCORDO
100
AcDbLine
 62
253
  6
CONTINUOUS
 10
4.2841990517
 20
19.7607860213
 11
4.2841990517
 21
18.8475787052
  0
LINE
  5
308
100
AcDbEntity
  8
0
100
AcDbLine
 62
7
  6
CONTINUOUS
 10
4.536234
 20
9.85
 11
4.536234
 21
12.049272
  0
LINE
  5
309
100
AcDbEntity
  8
0
100
AcDbLine
 62
7
  6
CONTINUOUS
 10
-1.40625
 20
6.1276595704
 11
-1.2500000596
 21
6.0319148926
  0
LINE
  5
30A
100
AcDbEntity
  8
0
100
AcDbLine
 62
7
  6
CONTINUOUS
 10
-1.21875
 20
6.1914893612
 11
-1.3125
 21
6.2553191409
  0
LINE
  5
30B
100
AcDbEntity
  8
0
100
AcDbLine
 62
7
  6
CONTINUOUS
 10
-2.2187500298
 20
7.3085106611
 11
-2.1250000298
 21
7.2446808815
  0
LINE
  5
30C
100
AcDbEntity
  8
0
100
AcDbLine
 62
7
  6
CONTINUOUS
 10
-1.9062499702
 20
7.2765957713
 11
-2.0312500298
 21
7.4042553306
  0
LINE
  5
30D
100
AcDbEntity
  8
0
100
AcDbLine
 62
7
  6
CONTINUOUS
 10
-0.1250000596
 20
6.223404251
 11
-0.0312500596
 21
6.1276595704
  0
LINE
  5
30E
100
AcDbEntity
  8
0
100
AcDbLine
 62
7
  6
CONTINUOUS
 10
-0.6249999404
 20
7.2765957713
 11
-0.7187499404
 21
7.3723404408
  0
LINE
  5
30F
100
AcDbEntity
  8
0
100
AcDbLine
 62
7
  6
CONTINUOUS
 10
1.1562498808
 20
6.2553191409
 11
1.21875
 21
6.1595744714
  0
LINE
  5
310
100
AcDbEntity
  8
0
100
AcDbLine
 62
7
  6
CONTINUOUS
 10
0.5625
 20
7.2446808815
 11
0.6874998808
 21
7.0531914532
  0
LINE
  5
311
100
AcDbEntity
  8
0
100
AcDbLine
 62
7
  6
CONTINUOUS
 10
0.8125001192
 20
7.1489362121
 11
0.75
 21
7.2765957713
  0
LINE
  5
312
100
AcDbEntity
  8
0
100
AcDbLine
 62
7
  6
CONTINUOUS
 10
1.3125
 20
6.287234053
 11
1.2812501192
 21
6.3510638326
  0
LINE
  5
313
100
AcDbEntity
  8
0
100
AcDbLine
 62
7
  6
CONTINUOUS
 10
2.0312501192
 20
6.6063829958
 11
2.0937498808
 21
6.4787233919
  0
LINE
  5
314
100
AcDbEntity
  8
0
100
AcDbLine
 62
7
  6
CONTINUOUS
 10
2.25
 20
6.4787233919
 11
2.2187501192
 21
6.6063829958
  0
LINE
  5
315
100
AcDbEntity
  8
0
100
AcDbLine
 62
7
  6
CONTINUOUS
 10
2.2187501192
 20
7.1489362121
 11
2.1874998808
 21
7.2765957713
  0
LINE
  5
316
100
AcDbEntity
  8
DRAFT
100
AcDbLine
 62
7
  6
CONTINUOUS
 10
6.0
 20
20.6
 11
6.0
 21
20.0
  0
LINE
  5
317
100
AcDbEntity
  8
DRAFT
100
AcDbLine
 62
7
  6
CONTINUOUS
 10
6.0
 20
-20.0
 11
6.0
 21
-20.6
  0
LINE
  5
318
100
AcDbEntity
  8
0
100
AcDbLine
 62
253
  6
CONTINUOUS
 10
6.3241621608
 20
-17.25
 11
6.3241621608
 21
-17.9023300011
  0
LINE
  5
319
100
AcDbEntity
  8
0
100
AcDbLine
 62
253
  6
CONTINUOUS
 10
6.3241621608
 20
-7.75
 11
6.3241621608
 21
-7.25
  0
LINE
  5
31A
100
AcDbEntity
  8
0
100
AcDbLine
 62
7
  6
CONTINUOUS
 10
1.8124998808
 20
6.0
 11
1.9375001192
 21
6.0319148926
  0
LINE
  5
31B
100
AcDbEntity
  8
0
100
AcDbLine
 62
7
  6
CONTINUOUS
 10
1.9375001192
 20
6.1914893612
 11
1.78125
 21
6.1595744714
  0
LINE
  5
31C
100
AcDbEntity
  8
0
100
AcDbLine
 62
7
  6
CONTINUOUS
 10
0.46875
 20
6.1914893612
 11
0.3124998808
 21
6.1595744714
  0
LINE
  5
31D
100
AcDbEntity
  8
0
100
AcDbLine
 62
7
  6
CONTINUOUS
 10
-0.9062499404
 20
6.1914893612
 11
-1.0625000596
 21
6.1595744714
  0
LINE
  5
31E
100
AcDbEntity
  8
0
100
AcDbLine
 62
7
  6
CONTINUOUS
 10
0.3124998808
 20
6.0
 11
0.4999998808
 21
6.0319148926
  0
LINE
  5
31F
100
AcDbEntity
  8
0
100
AcDbLine
 62
7
  6
CONTINUOUS
 10
-1.0625000596
 20
6.0
 11
-0.8750000596
 21
6.0319148926
  0
LINE
  5
320
100
AcDbEntity
  8
DRAFT
100
AcDbLine
 62
7
  6
CONTINUOUS
 10
10.5
 20
6.0
 11
9.7811769562
 21
6.0
  0
LINE
  5
321
100
AcDbEntity
  8
0
100
AcDbLine
 62
7
  6
CONTINUOUS
 10
-3.0
 20
6.0
 11
-1.875
 21
6.0
  0
LINE
  5
322
100
AcDbEntity
  8
0
100
AcDbLine
 62
7
  6
CONTINUOUS
 10
1.5625001192
 20
6.0
 11
1.8124998808
 21
6.0
  0
LINE
  5
323
100
AcDbEntity
  8
0
100
AcDbLine
 62
7
  6
CONTINUOUS
 10
2.6875001192
 20
6.0
 11
2.8750001192
 21
6.0
  0
LINE
  5
324
100
AcDbEntity
  8
DRAFT
100
AcDbLine
 62
7
  6
CONTINUOUS
 10
-9.7811769562
 20
6.0
 11
-10.5
 21
6.0
  0
LINE
  5
325
100
AcDbEntity
  8
0
100
AcDbLine
 62
7
  6
CONTINUOUS
 10
1.78125
 20
6.1595744714
 11
1.59375
 21
6.1595744714
  0
LINE
  5
326
100
AcDbEntity
  8
0
100
AcDbLine
 62
7
  6
CONTINUOUS
 10
-1.875
 20
6.1595744714
 11
-2.7499999925
 21
6.1595744714
  0
LINE
  5
327
100
AcDbEntity
  8
0
100
AcDbLine
 62
7
  6
CONTINUOUS
 10
1.2812501192
 20
6.3510638326
 11
1.125
 21
6.3510638326
  0
LINE
  5
328
100
AcDbEntity
  8
0
100
AcDbLine
 62
7
  6
CONTINUOUS
 10
1.6249998808
 20
6.7021276653
 11
1.7500001192
 21
6.7021276653
  0
LINE
  5
329
100
AcDbEntity
  8
0
100
AcDbLine
 62
7
  6
CONTINUOUS
 10
-1.2500000596
 20
6.0319148926
 11
-1.0625000596
 21
6.0
  0
LINE
  5
32A
100
AcDbEntity
  8
0
100
AcDbLine
 62
7
  6
CONTINUOUS
 10
0.1249998808
 20
6.0319148926
 11
0.3124998808
 21
6.0
  0
LINE
  5
32B
100
AcDbEntity
  8
0
100
AcDbLine
 62
7
  6
CONTINUOUS
 10
-1.0625000596
 20
6.1595744714
 11
-1.21875
 21
6.1914893612
  0
LINE
  5
32C
100
AcDbEntity
  8
0
100
AcDbLine
 62
7
  6
CONTINUOUS
 10
0.3124998808
 20
6.1595744714
 11
0.1562501192
 21
6.1914893612
  0
LINE
  5
32D
100
AcDbEntity
  8
0
100
AcDbLine
 62
7
  6
CONTINUOUS
 10
1.59375
 20
6.1595744714
 11
1.4374998808
 21
6.1914893612
  0
LINE
  5
32E
100
AcDbEntity
  8
0
100
AcDbLine
 62
7
  6
CONTINUOUS
 10
-2.3750000149
 20
7.3404255509
 11
-2.2187500298
 21
7.3085106611
  0
LINE
  5
32F
100
AcDbEntity
  8
0
100
AcDbLine
 62
7
  6
CONTINUOUS
 10
1.4374998808
 20
6.0319148926
 11
1.5625001192
 21
6.0
  0
LINE
  5
330
100
AcDbEntity
  8
0
100
AcDbLine
 62
7
  6
CONTINUOUS
 10
-2.0312500298
 20
7.4042553306
 11
-2.15625
 21
7.4680851102
  0
LINE
  5
331
100
AcDbEntity
  8
0
100
AcDbLine
 62
7
  6
CONTINUOUS
 10
1.3125
 20
6.0957446806
 11
1.4374998808
 21
6.0319148926
  0
LINE
  5
332
100
AcDbEntity
  8
0
100
AcDbLine
 62
7
  6
CONTINUOUS
 10
1.4374998808
 20
6.1914893612
 11
1.3750001192
 21
6.223404251
  0
LINE
  5
333
100
AcDbEntity
  8
0
100
AcDbLine
 62
7
  6
CONTINUOUS
 10
-0.0312500596
 20
6.1276595704
 11
0.1249998808
 21
6.0319148926
  0
LINE
  5
334
100
AcDbEntity
  8
0
100
AcDbLine
 62
7
  6
CONTINUOUS
 10
-0.7187499404
 20
7.3723404408
 11
-0.8750000596
 21
7.4680851102
  0
LINE
  5
335
100
AcDbEntity
  8
0
100
AcDbLine
 62
7
  6
CONTINUOUS
 10
0.65625
 20
7.3723404408
 11
0.4999998808
 21
7.4680851102
  0
LINE
  5
336
100
AcDbEntity
  8
0
100
AcDbLine
 62
7
  6
CONTINUOUS
 10
0.1562501192
 20
6.1914893612
 11
0.0625001192
 21
6.2553191409
  0
LINE
  5
337
100
AcDbEntity
  8
0
100
AcDbLine
 62
7
  6
CONTINUOUS
 10
-0.9062499404
 20
7.3085106611
 11
-0.8124999404
 21
7.2446808815
  0
LINE
  5
338
100
AcDbEntity
  8
0
100
AcDbLine
 62
7
  6
CONTINUOUS
 10
1.21875
 20
6.1595744714
 11
1.3125
 21
6.0957446806
  0
LINE
  5
339
100
AcDbEntity
  8
0
100
AcDbLine
 62
7
  6
CONTINUOUS
 10
0.46875
 20
7.3085106611
 11
0.5625
 21
7.2446808815
  0
LINE
  5
33A
100
AcDbEntity
  8
0
100
AcDbLine
 62
7
  6
CONTINUOUS
 10
1.9375001192
 20
6.6702127755
 11
2.0312501192
 21
6.6063829958
  0
LINE
  5
33B
100
AcDbEntity
  8
0
100
AcDbLine
 62
7
  6
CONTINUOUS
 10
1.3750001192
 20
6.223404251
 11
1.3125
 21
6.287234053
  0
LINE
  5
33C
100
AcDbEntity
  8
0
100
AcDbLine
 62
7
  6
CONTINUOUS
 10
0.75
 20
7.2765957713
 11
0.65625
 21
7.3723404408
  0
LINE
  5
33D
100
AcDbEntity
  8
0
100
AcDbLine
 62
7
  6
CONTINUOUS
 10
2.1874998808
 20
7.2765957713
 11
2.0625
 21
7.4042553306
  0
LINE
  5
33E
100
AcDbEntity
  8
0
100
AcDbLine
 62
7
  6
CONTINUOUS
 10
0.254995
 20
9.85
 11
-0.696042
 21
11.144293
  0
LINE
  5
33F
100
AcDbEntity
  8
0
100
AcDbLine
 62
7
  6
CONTINUOUS
 10
-0.970962
 20
10.874142
 11
-0.239088
 21
9.85
  0
LINE
  5
340
100
AcDbEntity
  8
0
100
AcDbLine
 62
7
  6
CONTINUOUS
 10
2.2187501192
 20
6.6063829958
 11
2.15625
 21
6.7021276653
  0
LINE
  5
341
100
AcDbEntity
  8
0
100
AcDbLine
 62
7
  6
CONTINUOUS
 10
1.9999998808
 20
7.2446808815
 11
2.0625
 21
7.1489362121
  0
LINE
  5
342
100
AcDbEntity
  8
ASSI
100
AcDbLine
 62
7
  6
CONTINUOUS
 10
2.245033
 20
13.404949
 11
2.102968
 21
13.847446
  0
LINE
  5
343
100
AcDbEntity
  8
ASSI
100
AcDbLine
 62
7
  6
CONTINUOUS
 10
1.965696
 20
14.274962
 11
1.747598
 21
14.95426
  0
LINE
  5
344
100
AcDbEntity
  8
ASSI
100
AcDbLine
 62
7
  6
CONTINUOUS
 10
1.97262
 20
15.655051
 11
2.695056
 21
13.404944
  0
LINE
  5
345
100
AcDbEntity
  8
RACCORDO
100
AcDbLine
 62
253
  6
CONTINUOUS
 10
3.9632986652
 20
19.6323546024
 11
3.9797370063
 21
19.5
  0
LINE
  5
346
100
AcDbEntity
  8
RACCORDO
100
AcDbLine
 62
253
  6
CONTINUOUS
 10
4.2632529738
 20
19.929435023
 11
4.2841990517
 21
19.7607860213
  0
LINE
  5
347
100
AcDbEntity
  8
RACCORDO
100
AcDbLine
 62
253
  6
CONTINUOUS
 10
-9.709473649
 20
-20.2095764515
 11
-9.8
 21
-20.3001028025
  0
LINE
  5
348
100
AcDbEntity
  8
RACCORDO
100
AcDbLine
 62
253
  6
CONTINUOUS
 10
-9.4095764515
 20
-20.509473649
 11
-9.5001028025
 21
-20.6
  0
LINE
  5
349
100
AcDbEntity
  8
0
100
AcDbLine
 62
7
  6
CONTINUOUS
 10
1.4687501192
 20
7.3085106611
 11
1.6249998808
 21
7.3404255509
  0
LINE
  5
34A
100
AcDbEntity
  8
0
100
AcDbLine
 62
7
  6
CONTINUOUS
 10
0.1562501192
 20
7.3085106611
 11
0.3124998808
 21
7.3404255509
  0
LINE
  5
34B
100
AcDbEntity
  8
0
100
AcDbLine
 62
7
  6
CONTINUOUS
 10
-1.21875
 20
7.3085106611
 11
-1.0625000596
 21
7.3404255509
  0
LINE
  5
34C
100
AcDbEntity
  8
0
100
AcDbLine
 62
7
  6
CONTINUOUS
 10
-2.6562499925
 20
7.3085106611
 11
-2.4999999851
 21
7.3404255509
  0
LINE
  5
34D
100
AcDbEntity
  8
0
100
AcDbLine
 62
7
  6
CONTINUOUS
 10
0.3124998808
 20
7.5
 11
0.1249998808
 21
7.4680851102
  0
LINE
  5
34E
100
AcDbEntity
  8
0
100
AcDbLine
 62
7
  6
CONTINUOUS
 10
-1.0625000596
 20
7.5
 11
-1.2500000596
 21
7.4680851102
  0
LINE
  5
34F
100
AcDbEntity
  8
0
100
AcDbLine
 62
7
  6
CONTINUOUS
 10
1.6562501192
 20
7.5
 11
1.4374998808
 21
7.4680851102
  0
LINE
  5
350
100
AcDbEntity
  8
0
100
AcDbLine
 62
7
  6
CONTINUOUS
 10
-2.4687500149
 20
7.5
 11
-2.6875000075
 21
7.4680851102
  0
LINE
  5
351
100
AcDbEntity
  8
0
100
AcDbLine
 62
7
  6
CONTINUOUS
 10
1.7500001192
 20
6.8297872245
 11
1.6249998808
 21
6.8297872245
  0
LINE
  5
352
100
AcDbEntity
  8
0
100
AcDbLine
 62
7
  6
CONTINUOUS
 10
-2.9687499991
 20
7.1489362121
 11
-2.8125
 21
7.1489362121
  0
LINE
  5
353
100
AcDbEntity
  8
0
100
AcDbLine
 62
7
  6
CONTINUOUS
 10
1.1562498808
 20
7.1489362121
 11
1.3125
 21
7.1489362121
  0
LINE
  5
354
100
AcDbEntity
  8
0
100
AcDbLine
 62
7
  6
CONTINUOUS
 10
-2.4999999851
 20
7.3404255509
 11
-2.3750000149
 21
7.3404255509
  0
LINE
  5
355
100
AcDbEntity
  8
0
100
AcDbLine
 62
7
  6
CONTINUOUS
 10
1.6249998808
 20
7.3404255509
 11
1.7500001192
 21
7.3404255509
  0
LINE
  5
356
100
AcDbEntity
  8
0
100
AcDbLine
 62
7
  6
CONTINUOUS
 10
2.8750001192
 20
7.5
 11
2.6875001192
 21
7.5
  0
LINE
  5
357
100
AcDbEntity
  8
0
100
AcDbLine
 62
7
  6
CONTINUOUS
 10
1.7187498808
 20
7.5
 11
1.6562501192
 21
7.5
  0
LINE
  5
358
100
AcDbEntity
  8
0
100
AcDbLine
 62
7
  6
CONTINUOUS
 10
-2.34375
 20
7.5
 11
-2.4687500149
 21
7.5
  0
LINE
  5
359
100
AcDbEntity
  8
0
100
AcDbLine
 62
7
  6
CONTINUOUS
 10
1.9375001192
 20
7.4680851102
 11
1.7187498808
 21
7.5
  0
LINE
  5
35A
100
AcDbEntity
  8
0
100
AcDbLine
 62
7
  6
CONTINUOUS
 10
1.7500001192
 20
6.7021276653
 11
1.9375001192
 21
6.6702127755
  0
LINE
  5
35B
100
AcDbEntity
  8
0
100
AcDbLine
 62
7
  6
CONTINUOUS
 10
-2.15625
 20
7.4680851102
 11
-2.34375
 21
7.5
  0
LINE
  5
35C
100
AcDbEntity
  8
0
100
AcDbLine
 62
7
  6
CONTINUOUS
 10
-0.8750000596
 20
7.4680851102
 11
-1.0625000596
 21
7.5
  0
LINE
  5
35D
100
AcDbEntity
  8
0
100
AcDbLine
 62
7
  6
CONTINUOUS
 10
0.4999998808
 20
7.4680851102
 11
0.3124998808
 21
7.5
  0
LINE
  5
35E
100
AcDbEntity
  8
0
100
AcDbLine
 62
7
  6
CONTINUOUS
 10
-1.0625000596
 20
7.3404255509
 11
-0.9062499404
 21
7.3085106611
  0
LINE
  5
35F
100
AcDbEntity
  8
0
100
AcDbLine
 62
7
  6
CONTINUOUS
 10
0.3124998808
 20
7.3404255509
 11
0.46875
 21
7.3085106611
  0
LINE
  5
360
100
AcDbEntity
  8
0
100
AcDbLine
 62
7
  6
CONTINUOUS
 10
1.7500001192
 20
7.3404255509
 11
1.9062498808
 21
7.3085106611
  0
LINE
  5
361
100
AcDbEntity
  8
0
100
AcDbLine
 62
7
  6
CONTINUOUS
 10
2.15625
 20
6.7021276653
 11
1.9999998808
 21
6.7659574449
  0
LINE
  5
362
100
AcDbEntity
  8
0
100
AcDbLine
 62
7
  6
CONTINUOUS
 10
2.0625
 20
7.4042553306
 11
1.9375001192
 21
7.4680851102
  0
LINE
  5
363
100
AcDbEntity
  8
0
100
AcDbLine
 62
7
  6
CONTINUOUS
 10
1.9062498808
 20
7.3085106611
 11
1.9999998808
 21
7.2446808815
  0
LINE
  5
364
100
AcDbEntity
  8
RACCORDO
100
AcDbLine
 62
253
  6
CONTINUOUS
 10
-9.8
 20
20.3001028025
 11
-9.709473649
 21
20.2095764515
  0
LINE
  5
365
100
AcDbEntity
  8
RACCORDO
100
AcDbLine
 62
253
  6
CONTINUOUS
 10
-9.5001028025
 20
20.6
 11
-9.4095764515
 21
20.509473649
  0
LINE
  5
366
100
AcDbEntity
  8
RACCORDO
100
AcDbLine
 62
253
  6
CONTINUOUS
 10
9.3977720681
 20
-16.4726759637
 11
9.3977720681
 21
-1.7578395831
  0
LINE
  5
367
100
AcDbEntity
  8
RACCORDO
100
AcDbLine
 62
253
  6
CONTINUOUS
 10
9.3977720681
 20
1.7578395831
 11
9.3977720681
 21
16.4726759638
  0
LINE
  5
368
100
AcDbEntity
  8
RACCORDO
100
AcDbLine
 62
253
  6
CONTINUOUS
 10
9.4095764515
 20
20.509473649
 11
9.4095764515
 21
20.2517243354
  0
LINE
  5
369
100
AcDbEntity
  8
RACCORDO
100
AcDbLine
 62
253
  6
CONTINUOUS
 10
9.4095764515
 20
-20.509473649
 11
9.4095764515
 21
-20.2517243354
  0
LINE
  5
36A
100
AcDbEntity
  8
RACCORDO
100
AcDbLine
 62
253
  6
CONTINUOUS
 10
9.6976692656
 20
-16.4579449064
 11
9.6976692656
 21
-2.4343622029
  0
LINE
  5
36B
100
AcDbEntity
  8
RACCORDO
100
AcDbLine
 62
253
  6
CONTINUOUS
 10
9.6976692656
 20
2.4343622029
 11
9.6976692656
 21
16.4579449064
  0
LINE
  5
36C
100
AcDbEntity
  8
DRAFT
100
AcDbLine
 62
7
  6
CONTINUOUS
 10
9.7811769562
 20
6.0
 11
9.7811769562
 21
-6.0
  0
LINE
  5
36D
100
AcDbEntity
  8
RACCORDO
100
AcDbLine
 62
7
  6
CONTINUOUS
 10
9.8
 20
20.3001028025
 11
9.8
 21
6.0
  0
LINE
  5
36E
100
AcDbEntity
  8
RACCORDO
100
AcDbLine
 62
7
  6
CONTINUOUS
 10
9.8
 20
-6.0
 11
9.8
 21
-20.3001028025
  0
LINE
  5
36F
100
AcDbEntity
  8
DRAFT
100
AcDbLine
 62
7
  6
CONTINUOUS
 10
-6.9
 20
-20.0
 11
-7.5
 21
-20.6
  0
LINE
  5
370
100
AcDbEntity
  8
0
100
AcDbLine
 62
7
  6
CONTINUOUS
 10
-4.54
 20
9.85
 11
-2.976836
 21
9.85
  0
LINE
  5
371
100
AcDbEntity
  8
0
100
AcDbLine
 62
7
  6
CONTINUOUS
 10
-2.504472
 20
9.85
 11
-2.111689
 21
9.85
  0
LINE
  5
372
100
AcDbEntity
  8
0
100
AcDbLine
 62
7
  6
CONTINUOUS
 10
-1.644591
 20
9.85
 11
-1.251824
 21
9.85
  0
LINE
  5
373
100
AcDbEntity
  8
0
100
AcDbLine
 62
7
  6
CONTINUOUS
 10
-0.239088
 20
9.85
 11
0.254995
 21
9.85
  0
LINE
  5
374
100
AcDbEntity
  8
0
100
AcDbLine
 62
7
  6
CONTINUOUS
 10
2.760163
 20
9.85
 11
3.13827
 21
9.85
  0
LINE
  5
375
100
AcDbEntity
  8
0
100
AcDbLine
 62
7
  6
CONTINUOUS
 10
4.143761
 20
9.85
 11
4.536234
 21
9.85
  0
LINE
  5
376
100
AcDbEntity
  8
DRAFT
100
AcDbLine
 62
7
  6
CONTINUOUS
 10
-6.9
 20
20.0
 11
-7.5
 21
20.6
  0
LINE
  5
377
100
AcDbEntity
  8
RACCORDO
100
AcDbLine
 62
7
  6
CONTINUOUS
 10
-3.5129680333
 20
20.509473649
 11
-3.5367470262
 21
20.5451466669
  0
LINE
  5
378
100
AcDbEntity
  8
0
100
AcDbLine
 62
7
  6
CONTINUOUS
 10
4.158115
 20
10.495969
 11
3.143935
 21
12.049272
  0
LINE
  5
379
100
AcDbEntity
  8
0
100
AcDbLine
 62
7
  6
CONTINUOUS
 10
3.143598
 20
11.38635
 11
4.143761
 21
9.85
  0
LINE
  5
37A
100
AcDbEntity
  8
ASSI
100
AcDbLine
 62
7
  6
CONTINUOUS
 10
4.288877
 20
13.404949
 11
3.837904
 21
14.274962
  0
LINE
  5
37B
100
AcDbEntity
  8
RACCORDO
100
AcDbLine
 62
253
  6
CONTINUOUS
 10
3.9842447432
 20
18.5479898447
 11
3.9963114172
 21
18.5117603839
  0
LINE
  5
37C
100
AcDbEntity
  8
RACCORDO
100
AcDbLine
 62
253
  6
CONTINUOUS
 10
4.2841990517
 20
18.8475787052
 11
4.295431777
 21
18.8138531253
  0
LINE
  5
37D
100
AcDbEntity
  8
0
100
AcDbLine
 62
7
  6
CONTINUOUS
 10
10.5
 20
6.0
 11
10.5
 21
-6.0
  0
LINE
  5
37E
100
AcDbEntity
  8
RACCORDO
100
AcDbLine
 62
7
  6
CONTINUOUS
 10
11.0
 20
21.6001713375
 11
11.0
 21
-21.6001713375
  0
LINE
  5
37F
100
AcDbEntity
  8
0
100
AcDbLine
 62
253
  6
CONTINUOUS
 10
7.2519394902
 20
-8.3768656716
 11
7.7158281549
 21
-8.1902985075
  0
LINE
  5
380
100
AcDbEntity
  8
0
100
AcDbLine
 62
7
  6
CONTINUOUS
 10
-2.976836
 20
10.199049
 11
-4.14724
 21
10.199038
  0
LINE
  5
381
100
AcDbEntity
  8
0
100
AcDbLine
 62
7
  6
CONTINUOUS
 10
-4.14724
 20
10.804296
 11
-3.064484
 21
10.804304
  0
LINE
  5
382
100
AcDbEntity
  8
0
100
AcDbLine
 62
7
  6
CONTINUOUS
 10
-3.064484
 20
11.153361
 11
-4.14724
 21
11.153369
  0
LINE
  5
383
100
AcDbEntity
  8
0
100
AcDbLine
 62
7
  6
CONTINUOUS
 10
-4.14724
 20
11.700227
 11
-2.985676
 21
11.700223
  0
LINE
  5
384
100
AcDbEntity
  8
ASSI
100
AcDbLine
 62
7
  6
CONTINUOUS
 10
4.3167311121
 20
14.329082713
 11
4.795751
 21
13.404955
  0
LINE
  5
385
100
AcDbEntity
  8
0
100
AcDbLine
 62
253
  6
CONTINUOUS
 10
-7.2519394902
 20
-16.6231343284
 11
-7.7484313101
 21
-16.8228138591
  0
LINE
  5
386
100
AcDbEntity
  8
0
100
AcDbLine
 62
7
  6
CONTINUOUS
 10
4.536234
 20
12.049272
 11
4.158123
 21
12.049272
  0
LINE
  5
387
100
AcDbEntity
  8
0
100
AcDbLine
 62
7
  6
CONTINUOUS
 10
3.143935
 20
12.049272
 11
2.760163
 21
12.049272
  0
LINE
  5
388
100
AcDbEntity
  8
0
100
AcDbLine
 62
7
  6
CONTINUOUS
 10
0.249811
 20
12.049272
 11
-0.276826
 21
12.049272
  0
LINE
  5
389
100
AcDbEntity
  8
0
100
AcDbLine
 62
7
  6
CONTINUOUS
 10
-1.251824
 20
12.049272
 11
-1.644591
 21
12.049272
  0
LINE
  5
38A
100
AcDbEntity
  8
0
100
AcDbLine
 62
7
  6
CONTINUOUS
 10
-2.111689
 20
12.049272
 11
-2.504472
 21
12.049272
  0
LINE
  5
38B
100
AcDbEntity
  8
0
100
AcDbLine
 62
7
  6
CONTINUOUS
 10
-2.985676
 20
12.049272
 11
-4.54
 21
12.049272
  0
LINE
  5
38C
100
AcDbEntity
  8
ASSI
100
AcDbLine
 62
7
  6
CONTINUOUS
 10
4.795751
 20
13.404955
 11
4.288877
 21
13.404949
  0
LINE
  5
38D
100
AcDbEntity
  8
ASSI
100
AcDbLine
 62
7
  6
CONTINUOUS
 10
1.250173
 20
13.404949
 11
0.800156
 21
13.404944
  0
LINE
  5
38E
100
AcDbEntity
  8
ASSI
100
AcDbLine
 62
7
  6
CONTINUOUS
 10
0.500147
 20
13.404944
 11
0.05013
 21
13.404944
  0
LINE
  5
38F
100
AcDbEntity
  8
ASSI
100
AcDbLine
 62
7
  6
CONTINUOUS
 10
-1.250809
 20
13.404944
 11
-1.700826
 21
13.404944
  0
LINE
  5
390
100
AcDbEntity
  8
ASSI
100
AcDbLine
 62
7
  6
CONTINUOUS
 10
3.445088
 20
13.404949
 11
2.995065
 21
13.404949
  0
LINE
  5
391
100
AcDbEntity
  8
ASSI
100
AcDbLine
 62
7
  6
CONTINUOUS
 10
-0.375339
 20
13.404949
 11
-0.825345
 21
13.404944
  0
LINE
  5
392
100
AcDbEntity
  8
ASSI
100
AcDbLine
 62
7
  6
CONTINUOUS
 10
-2.150831
 20
13.404944
 11
-2.600848
 21
13.404938
  0
LINE
  5
393
100
AcDbEntity
  8
ASSI
100
AcDbLine
 62
7
  6
CONTINUOUS
 10
2.695056
 20
13.404944
 11
2.245033
 21
13.404949
  0
LINE
  5
394
100
AcDbEntity
  8
ASSI
100
AcDbLine
 62
7
  6
CONTINUOUS
 10
-3.623288
 20
13.404944
 11
-4.073321
 21
13.404938
  0
LINE
  5
395
100
AcDbEntity
  8
ASSI
100
AcDbLine
 62
7
  6
CONTINUOUS
 10
2.102968
 20
13.847446
 11
1.392244
 21
13.847446
  0
LINE
  5
396
100
AcDbEntity
  8
ASSI
100
AcDbLine
 62
7
  6
CONTINUOUS
 10
1.529511
 20
14.274962
 11
1.965696
 21
14.274962
  0
LINE
  5
397
100
AcDbEntity
  8
ASSI
100
AcDbLine
 62
7
  6
CONTINUOUS
 10
3.837904
 20
14.274962
 11
3.445138
 21
14.274968
  0
LINE
  5
398
100
AcDbEntity
  8
ASSI
100
AcDbLine
 62
7
  6
CONTINUOUS
 10
3.438883
 20
14.691235
 11
3.9863997626
 21
14.691235
  0
LINE
  5
399
100
AcDbEntity
  8
RACCORDO
100
AcDbLine
 62
7
  6
CONTINUOUS
 10
4.2870319667
 20
20.509473649
 11
4.2632529738
 21
20.5451466669
  0
LINE
  5
39A
100
AcDbEntity
  8
ASSI
100
AcDbLine
 62
7
  6
CONTINUOUS
 10
3.9863866187
 20
15.238784
 11
3.438878
 21
15.238784
  0
LINE
  5
39B
100
AcDbEntity
  8
ASSI
100
AcDbLine
 62
7
  6
CONTINUOUS
 10
-4.795751
 20
15.655045
 11
-4.345729
 21
15.655045
  0
LINE
  5
39C
100
AcDbEntity
  8
ASSI
100
AcDbLine
 62
7
  6
CONTINUOUS
 10
-3.350874
 20
15.655045
 11
-2.900852
 21
15.655045
  0
LINE
  5
39D
100
AcDbEntity
  8
ASSI
100
AcDbLine
 62
7
  6
CONTINUOUS
 10
-2.600843
 20
15.655045
 11
-2.150826
 21
15.655045
  0
LINE
  5
39E
100
AcDbEntity
  8
ASSI
100
AcDbLine
 62
7
  6
CONTINUOUS
 10
-1.700826
 20
15.655045
 11
-1.020521
 21
15.655045
  0
LINE
  5
39F
100
AcDbEntity
  8
ASSI
100
AcDbLine
 62
7
  6
CONTINUOUS
 10
-0.180158
 20
15.655045
 11
0.500147
 21
15.655045
  0
LINE
  5
3A0
100
AcDbEntity
  8
ASSI
100
AcDbLine
 62
7
  6
CONTINUOUS
 10
1.522581
 20
15.655051
 11
1.97262
 21
15.655051
  0
LINE
  5
3A1
100
AcDbEntity
  8
ASSI
100
AcDbLine
 62
7
  6
CONTINUOUS
 10
2.995065
 20
15.655051
 11
4.0488568486
 21
15.655051
  0
LINE
  5
3A2
100
AcDbEntity
  8
RACCORDO
100
AcDbLine
 62
7
  6
CONTINUOUS
 10
9.3977720681
 20
16.4726759638
 11
-9.3977720681
 21
16.4726759638
  0
LINE
  5
3A3
100
AcDbEntity
  8
RACCORDO
100
AcDbLine
 62
7
  6
CONTINUOUS
 10
-3.9963114172
 20
18.5117603839
 11
-3.8036885828
 21
18.5117603839
  0
LINE
  5
3A4
100
AcDbEntity
  8
RACCORDO
100
AcDbLine
 62
7
  6
CONTINUOUS
 10
3.8036885828
 20
18.5117603839
 11
3.9963114172
 21
18.5117603839
  0
LINE
  5
3A5
100
AcDbEntity
  8
RACCORDO
100
AcDbLine
 62
253
  6
CONTINUOUS
 10
3.9842447432
 20
18.5479898447
 11
3.8157552568
 21
18.5479898447
  0
LINE
  5
3A6
100
AcDbEntity
  8
RACCORDO
100
AcDbLine
 62
253
  6
CONTINUOUS
 10
-3.8157552568
 20
18.5479898447
 11
-3.9842447432
 21
18.5479898447
  0
LINE
  5
3A7
100
AcDbEntity
  8
RACCORDO
100
AcDbLine
 62
253
  6
CONTINUOUS
 10
3.5158009483
 20
18.8475787052
 11
4.2841990517
 21
18.8475787052
  0
LINE
  5
3A8
100
AcDbEntity
  8
RACCORDO
100
AcDbLine
 62
253
  6
CONTINUOUS
 10
-3.5158009483
 20
18.8475787052
 11
-4.2841990517
 21
18.8475787052
  0
LINE
  5
3A9
100
AcDbEntity
  8
RACCORDO
100
AcDbLine
 62
7
  6
CONTINUOUS
 10
-3.9842447432
 20
19.5
 11
-3.8157552568
 21
19.5
  0
LINE
  5
3AA
100
AcDbEntity
  8
RACCORDO
100
AcDbLine
 62
7
  6
CONTINUOUS
 10
3.8157552568
 20
19.5
 11
3.9842447432
 21
19.5
  0
LINE
  5
3AB
100
AcDbEntity
  8
RACCORDO
100
AcDbLine
 62
253
  6
CONTINUOUS
 10
-3.9632986652
 20
19.6323546024
 11
-3.8367013348
 21
19.6323546024
  0
LINE
  5
3AC
100
AcDbEntity
  8
RACCORDO
100
AcDbLine
 62
253
  6
CONTINUOUS
 10
3.8367013348
 20
19.6323546024
 11
3.9632986652
 21
19.6323546024
  0
LINE
  5
3AD
100
AcDbEntity
  8
RACCORDO
100
AcDbLine
 62
253
  6
CONTINUOUS
 10
-3.5367470262
 20
19.929435023
 11
-4.2632529738
 21
19.929435023
  0
LINE
  5
3AE
100
AcDbEntity
  8
RACCORDO
100
AcDbLine
 62
253
  6
CONTINUOUS
 10
3.5367470262
 20
19.929435023
 11
4.2632529738
 21
19.929435023
  0
LINE
  5
3AF
100
AcDbEntity
  8
0
100
AcDbLine
 62
7
  6
CONTINUOUS
 10
6.0
 20
20.0
 11
6.9
 21
20.0
  0
LINE
  5
3B0
100
AcDbEntity
  8
0
100
AcDbLine
 62
7
  6
CONTINUOUS
 10
-6.0
 20
20.0
 11
-6.9
 21
20.0
  0
LINE
  5
3B1
100
AcDbEntity
  8
RACCORDO
100
AcDbLine
 62
253
  6
CONTINUOUS
 10
9.4095764515
 20
20.2517243354
 11
7.1517243354
 21
20.2517243354
  0
LINE
  5
3B2
100
AcDbEntity
  8
RACCORDO
100
AcDbLine
 62
253
  6
CONTINUOUS
 10
6.0
 20
20.2517243354
 11
4.2920794726
 21
20.2517243354
  0
LINE
  5
3B3
100
AcDbEntity
  8
RACCORDO
100
AcDbLine
 62
253
  6
CONTINUOUS
 10
3.5079205274
 20
20.2517243354
 11
-3.5079205274
 21
20.2517243354
  0
LINE
  5
3B4
100
AcDbEntity
  8
RACCORDO
100
AcDbLine
 62
253
  6
CONTINUOUS
 10
-4.2920794726
 20
20.2517243354
 11
-6.0
 21
20.2517243354
  0
LINE
  5
3B5
100
AcDbEntity
  8
RACCORDO
100
AcDbLine
 62
253
  6
CONTINUOUS
 10
-7.1517243354
 20
20.2517243354
 11
-9.4095764515
 21
20.2517243354
  0
LINE
  5
3B6
100
AcDbEntity
  8
RACCORDO
100
AcDbLine
 62
253
  6
CONTINUOUS
 10
9.4095764515
 20
20.509473649
 11
7.409473649
 21
20.509473649
  0
LINE
  5
3B7
100
AcDbEntity
  8
RACCORDO
100
AcDbLine
 62
253
  6
CONTINUOUS
 10
6.0
 20
20.509473649
 11
4.2870319667
 21
20.509473649
  0
LINE
  5
3B8
100
AcDbEntity
  8
RACCORDO
100
AcDbLine
 62
253
  6
CONTINUOUS
 10
3.5129680333
 20
20.509473649
 11
-3.5129680333
 21
20.509473649
  0
LINE
  5
3B9
100
AcDbEntity
  8
RACCORDO
100
AcDbLine
 62
253
  6
CONTINUOUS
 10
-4.2870319667
 20
20.509473649
 11
-6.0
 21
20.509473649
  0
LINE
  5
3BA
100
AcDbEntity
  8
RACCORDO
100
AcDbLine
 62
253
  6
CONTINUOUS
 10
-7.409473649
 20
20.509473649
 11
-9.4095764515
 21
20.509473649
  0
LINE
  5
3BB
100
AcDbEntity
  8
RACCORDO
100
AcDbLine
 62
7
  6
CONTINUOUS
 10
3.9632986652
 20
20.5528653412
 11
3.8367013348
 21
20.5528653412
  0
LINE
  5
3BC
100
AcDbEntity
  8
RACCORDO
100
AcDbLine
 62
7
  6
CONTINUOUS
 10
-3.8367013348
 20
20.5528653412
 11
-3.9632986652
 21
20.5528653412
  0
LINE
  5
3BD
100
AcDbEntity
  8
RACCORDO
100
AcDbLine
 62
7
  6
CONTINUOUS
 10
-9.5001028025
 20
20.6
 11
-7.5
 21
20.6
  0
LINE
  5
3BE
100
AcDbEntity
  8
RACCORDO
100
AcDbLine
 62
7
  6
CONTINUOUS
 10
7.5
 20
20.6
 11
9.5001028025
 21
20.6
  0
LINE
  5
3BF
100
AcDbEntity
  8
DRAFT
100
AcDbLine
 62
7
  6
CONTINUOUS
 10
7.5
 20
20.6
 11
-7.5
 21
20.6
  0
LINE
  5
3C0
100
AcDbEntity
  8
RACCORDO
100
AcDbLine
 62
7
  6
CONTINUOUS
 10
-10.5001713375
 20
22.1
 11
10.5001713375
 21
22.1
  0
ARC
  5
3C1
100
AcDbEntity
  8
ASSI
100
AcDbCircle
 62
7
  6
CONTINUOUS
 10
-6.1159122924
 20
-15.9482924714
 40
1.2056702709
100
AcDbArc
 50
228.4709219315
 51
242.2371334878
  0
ARC
  5
3C2
100
AcDbEntity
  8
ASSI
100
AcDbCircle
 62
7
  6
CONTINUOUS
 10
-6.1142859803
 20
-15.9502662058
 40
1.2055759183
100
AcDbArc
 50
200.7513317148
 51
214.4920560778
  0
ARC
  5
3C3
100
AcDbEntity
  8
RACCORDO
100
AcDbCircle
 62
7
  6
CONTINUOUS
 10
-6.1160465007
 20
-15.9484870089
 40
1.2054356882
100
AcDbArc
 50
228.4695669312
 51
242.2384710584
  0
ARC
  5
3C4
100
AcDbEntity
  8
RACCORDO
100
AcDbCircle
 62
7
  6
CONTINUOUS
 10
-6.1144142595
 20
-15.95033494
 40
1.2054316076
100
AcDbArc
 50
200.7504369736
 51
214.4928162897
  0
ARC
  5
3C5
100
AcDbEntity
  8
ASSI
100
AcDbCircle
 62
7
  6
CONTINUOUS
 10
-6.118512259
 20
-15.9479098102
 40
1.2050974462
100
AcDbArc
 50
256.2241635319
 51
269.9700903768
  0
ARC
  5
3C6
100
AcDbEntity
  8
RACCORDO
100
AcDbCircle
 62
7
  6
CONTINUOUS
 10
-6.1185307699
 20
-15.9480516808
 40
1.2049555661
100
AcDbArc
 50
256.2234119673
 51
269.9709670472
  0
ARC
  5
3C7
100
AcDbEntity
  8
RACCORDO
100
AcDbCircle
 62
7
  6
CONTINUOUS
 10
-6.1164791552
 20
-15.9505310784
 40
1.2036190745
100
AcDbArc
 50
214.5407857427
 51
228.4204708162
  0
ARC
  5
3C8
100
AcDbEntity
  8
ASSI
100
AcDbCircle
 62
7
  6
CONTINUOUS
 10
-6.1166699861
 20
-15.9507015065
 40
1.2033649105
100
AcDbArc
 50
214.5392532276
 51
228.4218821711
  0
ARC
  5
3C9
100
AcDbEntity
  8
RACCORDO
100
AcDbCircle
 62
7
  6
CONTINUOUS
 10
-6.1179287588
 20
-15.9498439768
 40
1.2033586175
100
AcDbArc
 50
242.2876809108
 51
256.1752510232
  0
ARC
  5
3CA
100
AcDbEntity
  8
ASSI
100
AcDbCircle
 62
7
  6
CONTINUOUS
 10
-6.1180230154
 20
-15.9500897044
 40
1.2030971685
100
AcDbArc
 50
242.2862128236
 51
256.1768135431
  0
ARC
  5
3CB
100
AcDbEntity
  8
0
100
AcDbCircle
 62
7
  6
CONTINUOUS
 10
-6.3241621608
 20
-16.25
 40
1.0
100
AcDbArc
 50
201.9090497881
 51
270.0
  0
ARC
  5
3CC
100
AcDbEntity
  8
RACCORDO
100
AcDbCircle
 62
253
  6
CONTINUOUS
 10
-9.4093329038
 20
-20.2093329038
 40
0.3001412949
100
AcDbArc
 50
180.0464923617
 51
269.9535076383
  0
ARC
  5
3CD
100
AcDbEntity
  8
0
100
AcDbCircle
 62
7
  6
CONTINUOUS
 10
-6.3241621608
 20
-8.75
 40
1.5
100
AcDbArc
 50
90.0
 51
158.0909502119
  0
ARC
  5
3CE
100
AcDbEntity
  8
ASSI
100
AcDbCircle
 62
7
  6
CONTINUOUS
 10
-6.1159128572
 20
-9.0577220211
 40
1.2056702032
100
AcDbArc
 50
117.7544959104
 51
131.5207573693
  0
ARC
  5
3CF
100
AcDbEntity
  8
ASSI
100
AcDbCircle
 62
7
  6
CONTINUOUS
 10
-6.1142859
 20
-9.0557480972
 40
1.205576031
100
AcDbArc
 50
145.5051512179
 51
159.248662613
  0
ARC
  5
3D0
100
AcDbEntity
  8
RACCORDO
100
AcDbCircle
 62
7
  6
CONTINUOUS
 10
-6.1160472846
 20
-9.0575276013
 40
1.2054355929
100
AcDbArc
 50
117.7531448972
 51
131.5220992534
  0
ARC
  5
3D1
100
AcDbEntity
  8
RACCORDO
100
AcDbCircle
 62
7
  6
CONTINUOUS
 10
-6.1144126686
 20
-9.0556802344
 40
1.2054334416
100
AcDbArc
 50
145.5043972043
 51
159.2495440617
  0
ARC
  5
3D2
100
AcDbEntity
  8
ASSI
100
AcDbCircle
 62
7
  6
CONTINUOUS
 10
-6.1185123825
 20
-9.0581040995
 40
1.2050971714
100
AcDbArc
 50
90.0299037617
 51
103.7729187565
  0
ARC
  5
3D3
100
AcDbEntity
  8
RACCORDO
100
AcDbCircle
 62
7
  6
CONTINUOUS
 10
-6.1185312056
 20
-9.0579602709
 40
1.2049533332
100
AcDbArc
 50
90.0290122892
 51
103.7736777268
  0
ARC
  5
3D4
100
AcDbEntity
  8
RACCORDO
100
AcDbCircle
 62
7
  6
CONTINUOUS
 10
-6.1164733595
 20
-9.0554885361
 40
1.2036269388
100
AcDbArc
 50
131.5712590474
 51
145.4563630304
  0
ARC
  5
3D5
100
AcDbEntity
  8
ASSI
100
AcDbCircle
 62
7
  6
CONTINUOUS
 10
-6.1166685888
 20
-9.0553144711
 40
1.2033671059
100
AcDbArc
 50
131.5698041705
 51
145.4579188241
  0
ARC
  5
3D6
100
AcDbEntity
  8
RACCORDO
100
AcDbCircle
 62
7
  6
CONTINUOUS
 10
-6.117931738
 20
-9.056163002
 40
1.2033508966
100
AcDbArc
 50
103.8217738674
 51
117.703996957
  0
ARC
  5
3D7
100
AcDbEntity
  8
ASSI
100
AcDbCircle
 62
7
  6
CONTINUOUS
 10
-6.1180242459
 20
-9.0559224274
 40
1.2030948522
100
AcDbArc
 50
103.8202329349
 51
117.7054228735
  0
ARC
  5
3D8
100
AcDbEntity
  8
0
100
AcDbCircle
 62
7
  6
CONTINUOUS
 10
-6.3241621608
 20
-8.75
 40
1.0
100
AcDbArc
 50
90.0
 51
158.0909502119
  0
ARC
  5
3D9
100
AcDbEntity
  8
0
100
AcDbCircle
 62
7
  6
CONTINUOUS
 10
-4.647306197
 20
-13.2052632999
 40
12.9128223248
100
AcDbArc
 50
343.7307345319
 51
345.3427427446
  0
ARC
  5
3DA
100
AcDbEntity
  8
0
100
AcDbCircle
 62
7
  6
CONTINUOUS
 10
-3.0
 20
-12.5
 40
11.55
100
AcDbArc
 50
339.8820045084
 51
21.9090497881
  0
ARC
  5
3DB
100
AcDbEntity
  8
0
100
AcDbCircle
 62
7
  6
CONTINUOUS
 10
-3.0
 20
-12.5
 40
11.05
100
AcDbArc
 50
338.0909502119
 51
21.9090497881
  0
ARC
  5
3DC
100
AcDbEntity
  8
ASSI
100
AcDbCircle
 62
7
  6
CONTINUOUS
 10
-3.0
 20
-12.5030070922
 40
10.95
100
AcDbArc
 50
339.2784041022
 51
20.7215957051
  0
ARC
  5
3DD
100
AcDbEntity
  8
RACCORDO
100
AcDbCircle
 62
7
  6
CONTINUOUS
 10
-3.0
 20
-12.5030070922
 40
10.95
100
AcDbArc
 50
339.2784041022
 51
20.7215957051
  0
ARC
  5
3DE
100
AcDbEntity
  8
RACCORDO
100
AcDbCircle
 62
7
  6
CONTINUOUS
 10
-1.1946598414
 20
-8.1446598414
 40
0.2000430909
100
AcDbArc
 50
180.020958193
 51
269.979041807
  0
CIRCLE
  5
3DF
100
AcDbEntity
  8
ASSI
100
AcDbCircle
 62
7
  6
CONTINUOUS
 10
-5.25
 20
7.6
 40
1.5
  0
CIRCLE
  5
3E0
100
AcDbEntity
  8
ASSI
100
AcDbCircle
 62
7
  6
CONTINUOUS
 10
-5.25
 20
7.6
 40
1.0
  0
ARC
  5
3E1
100
AcDbEntity
  8
RACCORDO
100
AcDbCircle
 62
253
  6
CONTINUOUS
 10
-9.4093294632
 20
20.2093294632
 40
0.3001454801
100
AcDbArc
 50
90.0471486253
 51
179.9528513747
  0
ARC
  5
3E2
100
AcDbEntity
  8
RACCORDO
100
AcDbCircle
 62
253
  6
CONTINUOUS
 10
-3.8158843678
 20
18.8480989918
 40
0.300097064
100
AcDbArc
 50
270.0246494095
 51
359.9006602842
  0
ARC
  5
3E3
100
AcDbEntity
  8
RACCORDO
100
AcDbCircle
 62
253
  6
CONTINUOUS
 10
-3.9841159682
 20
18.8480989375
 40
0.3000968843
100
AcDbArc
 50
180.099329446
 51
269.9754147433
  0
ARC
  5
3E4
100
AcDbEntity
  8
0
100
AcDbCircle
 62
7
  6
CONTINUOUS
 10
4.647306197
 20
-13.2052632999
 40
12.9128223248
100
AcDbArc
 50
194.6572572554
 51
196.2692654681
  0
ARC
  5
3E5
100
AcDbEntity
  8
0
100
AcDbCircle
 62
7
  6
CONTINUOUS
 10
3.0
 20
-12.5
 40
11.55
100
AcDbArc
 50
158.0909502119
 51
200.1179954916
  0
ARC
  5
3E6
100
AcDbEntity
  8
0
100
AcDbCircle
 62
7
  6
CONTINUOUS
 10
3.0
 20
-12.5
 40
11.05
100
AcDbArc
 50
158.0909502119
 51
201.9090497881
  0
ARC
  5
3E7
100
AcDbEntity
  8
ASSI
100
AcDbCircle
 62
7
  6
CONTINUOUS
 10
3.0
 20
-12.5030070922
 40
10.95
100
AcDbArc
 50
159.2784041022
 51
200.721595705
  0
ARC
  5
3E8
100
AcDbEntity
  8
RACCORDO
100
AcDbCircle
 62
7
  6
CONTINUOUS
 10
3.0
 20
-12.5030070922
 40
10.95
100
AcDbArc
 50
159.2784041022
 51
200.721595705
  0
CIRCLE
  5
3E9
100
AcDbEntity
  8
ASSI
100
AcDbCircle
 62
7
  6
CONTINUOUS
 10
0.0
 20
-6.0
 40
1.5
  0
CIRCLE
  5
3EA
100
AcDbEntity
  8
ASSI
100
AcDbCircle
 62
7
  6
CONTINUOUS
 10
0.0
 20
-6.0
 40
1.0
  0
ARC
  5
3EB
100
AcDbEntity
  8
RACCORDO
100
AcDbCircle
 62
7
  6
CONTINUOUS
 10
1.1946598905
 20
-8.1446598905
 40
0.2000430909
100
AcDbArc
 50
270.020944126
 51
359.979055874
  0
ARC
  5
3EC
100
AcDbEntity
  8
ASSI
100
AcDbCircle
 62
7
  6
CONTINUOUS
 10
6.1159128572
 20
-15.9482921633
 40
1.2056702032
100
AcDbArc
 50
297.7544959104
 51
311.5207573693
  0
ARC
  5
3ED
100
AcDbEntity
  8
ASSI
100
AcDbCircle
 62
7
  6
CONTINUOUS
 10
6.1142859
 20
-15.9502660872
 40
1.205576031
100
AcDbArc
 50
325.505151218
 51
339.248662613
  0
ARC
  5
3EE
100
AcDbEntity
  8
RACCORDO
100
AcDbCircle
 62
7
  6
CONTINUOUS
 10
6.1160472846
 20
-15.9484865831
 40
1.2054355929
100
AcDbArc
 50
297.7531448972
 51
311.5220992534
  0
ARC
  5
3EF
100
AcDbEntity
  8
RACCORDO
100
AcDbCircle
 62
7
  6
CONTINUOUS
 10
6.1144126686
 20
-15.95033395
 40
1.2054334416
100
AcDbArc
 50
325.5043972043
 51
339.2495440617
  0
ARC
  5
3F0
100
AcDbEntity
  8
ASSI
100
AcDbCircle
 62
7
  6
CONTINUOUS
 10
6.1185123825
 20
-15.9479100849
 40
1.2050971714
100
AcDbArc
 50
270.0299037617
 51
283.7729187565
  0
ARC
  5
3F1
100
AcDbEntity
  8
RACCORDO
100
AcDbCircle
 62
7
  6
CONTINUOUS
 10
6.1185312056
 20
-15.9480539135
 40
1.2049533332
100
AcDbArc
 50
270.0290122892
 51
283.7736777268
  0
ARC
  5
3F2
100
AcDbEntity
  8
RACCORDO
100
AcDbCircle
 62
7
  6
CONTINUOUS
 10
6.1164733595
 20
-15.9505256483
 40
1.2036269388
100
AcDbArc
 50
311.5712590474
 51
325.4563630304
  0
ARC
  5
3F3
100
AcDbEntity
  8
ASSI
100
AcDbCircle
 62
7
  6
CONTINUOUS
 10
6.1166685888
 20
-15.9506997133
 40
1.2033671059
100
AcDbArc
 50
311.5698041705
 51
325.4579188241
  0
ARC
  5
3F4
100
AcDbEntity
  8
RACCORDO
100
AcDbCircle
 62
7
  6
CONTINUOUS
 10
6.117931738
 20
-15.9498511824
 40
1.2033508966
100
AcDbArc
 50
283.8217738674
 51
297.703996957
  0
ARC
  5
3F5
100
AcDbEntity
  8
ASSI
100
AcDbCircle
 62
7
  6
CONTINUOUS
 10
6.1180242459
 20
-15.950091757
 40
1.2030948522
100
AcDbArc
 50
283.8202329349
 51
297.7054228735
  0
ARC
  5
3F6
100
AcDbEntity
  8
0
100
AcDbCircle
 62
7
  6
CONTINUOUS
 10
6.3241621608
 20
-16.25
 40
1.0
100
AcDbArc
 50
270.0
 51
338.0909502119
  0
ARC
  5
3F7
100
AcDbEntity
  8
RACCORDO
100
AcDbCircle
 62
253
  6
CONTINUOUS
 10
9.4093329038
 20
-20.2093329038
 40
0.3001412948
100
AcDbArc
 50
270.046492359
 51
359.953507641
  0
ARC
  5
3F8
100
AcDbEntity
  8
0
100
AcDbCircle
 62
7
  6
CONTINUOUS
 10
6.3241621608
 20
-8.75
 40
1.5
100
AcDbArc
 50
21.9090497881
 51
90.0
  0
ARC
  5
3F9
100
AcDbEntity
  8
ASSI
100
AcDbCircle
 62
7
  6
CONTINUOUS
 10
6.1159122924
 20
-9.057721713
 40
1.2056702709
100
AcDbArc
 50
48.4709219317
 51
62.2371334879
  0
ARC
  5
3FA
100
AcDbEntity
  8
ASSI
100
AcDbCircle
 62
7
  6
CONTINUOUS
 10
6.1142859803
 20
-9.0557479785
 40
1.2055759182
100
AcDbArc
 50
20.7513317148
 51
34.492056078
  0
ARC
  5
3FB
100
AcDbEntity
  8
RACCORDO
100
AcDbCircle
 62
7
  6
CONTINUOUS
 10
6.1160465007
 20
-9.0575271755
 40
1.2054356882
100
AcDbArc
 50
48.4695669315
 51
62.2384710586
  0
ARC
  5
3FC
100
AcDbEntity
  8
RACCORDO
100
AcDbCircle
 62
7
  6
CONTINUOUS
 10
6.1144142596
 20
-9.0556792443
 40
1.2054316075
100
AcDbArc
 50
20.7504369736
 51
34.4928162899
  0
ARC
  5
3FD
100
AcDbEntity
  8
ASSI
100
AcDbCircle
 62
7
  6
CONTINUOUS
 10
6.118512259
 20
-9.0581043741
 40
1.2050974462
100
AcDbArc
 50
76.2241635319
 51
89.9700903768
  0
ARC
  5
3FE
100
AcDbEntity
  8
RACCORDO
100
AcDbCircle
 62
7
  6
CONTINUOUS
 10
6.1185307699
 20
-9.0579625036
 40
1.2049555661
100
AcDbArc
 50
76.2234119674
 51
89.9709670472
  0
ARC
  5
3FF
100
AcDbEntity
  8
RACCORDO
100
AcDbCircle
 62
7
  6
CONTINUOUS
 10
6.1164791552
 20
-9.055483106
 40
1.2036190745
100
AcDbArc
 50
34.5407857429
 51
48.4204708165
  0
ARC
  5
400
100
AcDbEntity
  8
ASSI
100
AcDbCircle
 62
7
  6
CONTINUOUS
 10
6.1166699861
 20
-9.0553126779
 40
1.2033649105
100
AcDbArc
 50
34.5392532278
 51
48.4218821714
  0
ARC
  5
401
100
AcDbEntity
  8
RACCORDO
100
AcDbCircle
 62
7
  6
CONTINUOUS
 10
6.1179287588
 20
-9.0561702076
 40
1.2033586175
100
AcDbArc
 50
62.287680911
 51
76.1752510233
  0
ARC
  5
402
100
AcDbEntity
  8
ASSI
100
AcDbCircle
 62
7
  6
CONTINUOUS
 10
6.1180230154
 20
-9.05592448
 40
1.2030971685
100
AcDbArc
 50
62.2862128238
 51
76.1768135432
  0
ARC
  5
403
100
AcDbEntity
  8
0
100
AcDbCircle
 62
7
  6
CONTINUOUS
 10
6.3241621608
 20
-8.75
 40
1.0
100
AcDbArc
 50
21.9090497881
 51
90.0
  0
CIRCLE
  5
404
100
AcDbEntity
  8
ASSI
100
AcDbCircle
 62
7
  6
CONTINUOUS
 10
5.25
 20
7.6
 40
1.5
  0
CIRCLE
  5
405
100
AcDbEntity
  8
ASSI
100
AcDbCircle
 62
7
  6
CONTINUOUS
 10
5.25
 20
7.6
 40
1.0
  0
ARC
  5
406
100
AcDbEntity
  8
ASSI
100
AcDbCircle
 62
7
  6
CONTINUOUS
 10
4.048852
 20
14.965008
 40
0.6900438394
100
AcDbArc
 50
292.8429211273
 51
89.9995974084
  0
ARC
  5
407
100
AcDbEntity
  8
RACCORDO
100
AcDbCircle
 62
253
  6
CONTINUOUS
 10
9.4093294632
 20
20.2093294632
 40
0.3001454801
100
AcDbArc
 50
0.0471486253
 51
89.9528513747
  0
ARC
  5
408
100
AcDbEntity
  8
RACCORDO
100
AcDbCircle
 62
253
  6
CONTINUOUS
 10
3.9841156322
 20
18.8480989918
 40
0.300097064
100
AcDbArc
 50
270.0246494083
 51
359.9006602853
  0
ARC
  5
409
100
AcDbEntity
  8
RACCORDO
100
AcDbCircle
 62
253
  6
CONTINUOUS
 10
3.8158840318
 20
18.8480989375
 40
0.3000968843
100
AcDbArc
 50
180.0993294526
 51
269.9754147367
  0
ARC
  5
40A
100
AcDbEntity
  8
ASSI
100
AcDbCircle
 62
7
  6
CONTINUOUS
 10
3.986391
 20
14.965008
 40
0.273775
100
AcDbArc
 50
270.0018338493
 51
90.0009169146
  0
SPLINE
  5
40B
100
AcDbEntity
  8
0
100
AcDbSpline
 62
7
  6
CONTINUOUS
 70
0
 71
3
 72
8
 73
4
 74
2
 42
0.0000001
 43
0.0000001
 44
0.0000000001
 12
0.3942889025
 22
-0.4303921441
 32
0.0
 13
0.0
 23
-0.722154378
 33
0.0
 40
0.0
 40
0.0
 40
0.0
 40
0.0
 40
1.0
 40
1.0
 40
1.0
 40
1.0
 10
1.7722416719
 20
11.561937981
 30
0.0
 10
1.903671306
 20
11.4184739329
 30
0.0
 10
1.9784273619
 20
11.1903621398
 30
0.0
 10
1.9784273619
 20
10.9496440138
 30
0.0
 11
1.7722416719
 21
11.561937981
 31
0.0
 11
1.9784273619
 21
10.9496440138
 31
0.0
  0
SPLINE
  5
40C
100
AcDbEntity
  8
0
100
AcDbSpline
 62
7
  6
CONTINUOUS
 70
0
 71
3
 72
8
 73
4
 74
2
 42
0.0000001
 43
0.0000001
 44
0.0000000001
 12
0.0
 22
-0.7221194537
 32
0.0
 13
-0.3942844394
 23
-0.4303729499
 33
0.0
 40
0.0
 40
0.0
 40
0.0
 40
0.0
 40
1.0
 40
1.0
 40
1.0
 40
1.0
 10
1.9784273619
 20
10.9496440138
 30
0.0
 10
1.9784273619
 20
10.7089375293
 30
0.0
 10
1.9036698183
 20
10.480819338
 30
0.0
 10
1.7722416719
 20
10.3373616881
 30
0.0
 11
1.9784273619
 21
10.9496440138
 31
0.0
 11
1.7722416719
 21
10.3373616881
 31
0.0
  0
SPLINE
  5
40D
100
AcDbEntity
  8
0
100
AcDbSpline
 62
7
  6
CONTINUOUS
 70
0
 71
3
 72
8
 73
4
 74
2
 42
0.0000001
 43
0.0000001
 44
0.0000000001
 12
-0.3450647679
 22
-0.3766482449
 32
0.0
 13
-0.522561632
 23
0.0
 33
0.0
 40
0.0
 40
0.0
 40
0.0
 40
0.0
 40
1.0
 40
1.0
 40
1.0
 40
1.0
 10
1.7722416719
 20
10.3373616881
 30
0.0
 10
1.6572200826
 20
10.2118122731
 30
0.0
 10
1.4912829164
 20
10.1494297995
 30
0.0
 10
1.3170957057
 20
10.1494297995
 30
0.0
 11
1.7722416719
 21
10.3373616881
 31
0.0
 11
1.3170957057
 21
10.1494297995
 31
0.0
  0
SPLINE
  5
40E
100
AcDbEntity
  8
0
100
AcDbSpline
 62
7
  6
CONTINUOUS
 70
0
 71
3
 72
8
 73
4
 74
2
 42
0.0000001
 43
0.0000001
 44
0.0000000001
 12
-0.5231437048
 22
0.0
 32
0.0
 13
-0.3446918411
 23
0.37628675
 33
0.0
 40
0.0
 40
0.0
 40
0.0
 40
0.0
 40
1.0
 40
1.0
 40
1.0
 40
1.0
 10
1.3170957057
 20
10.1494297995
 30
0.0
 10
1.1427144708
 20
10.1494297995
 30
0.0
 10
0.9746739484
 20
10.2119327714
 30
0.0
 10
0.859776668
 20
10.3373616881
 30
0.0
 11
1.3170957057
 21
10.1494297995
 31
0.0
 11
0.859776668
 21
10.3373616881
 31
0.0
  0
SPLINE
  5
40F
100
AcDbEntity
  8
0
100
AcDbSpline
 62
7
  6
CONTINUOUS
 70
0
 71
3
 72
8
 73
4
 74
2
 42
0.0000001
 43
0.0000001
 44
0.0000000001
 12
-0.3942637913
 22
0.4304025305
 32
0.0
 13
-0.0
 23
0.7221194537
 33
0.0
 40
0.0
 40
0.0
 40
0.0
 40
0.0
 40
1.0
 40
1.0
 40
1.0
 40
1.0
 10
0.859776668
 20
10.3373616881
 30
0.0
 10
0.7283554042
 20
10.4808291983
 30
0.0
 10
0.6535870975
 20
10.7089375293
 30
0.0
 10
0.6535870975
 20
10.9496440138
 30
0.0
 11
0.859776668
 21
10.3373616881
 31
0.0
 11
0.6535870975
 21
10.9496440138
 31
0.0
  0
SPLINE
  5
410
100
AcDbEntity
  8
0
100
AcDbSpline
 62
7
  6
CONTINUOUS
 70
0
 71
3
 72
8
 73
4
 74
2
 42
0.0000001
 43
0.0000001
 44
0.0000000001
 12
-0.0
 22
0.722154378
 32
0.0
 13
0.3942960808
 23
0.4303962328
 33
0.0
 40
0.0
 40
0.0
 40
0.0
 40
0.0
 40
1.0
 40
1.0
 40
1.0
 40
1.0
 10
0.6535870975
 20
10.9496440138
 30
0.0
 10
0.6535870975
 20
11.1903621398
 30
0.0
 10
0.728344641
 20
11.4184725701
 30
0.0
 10
0.859776668
 20
11.561937981
 30
0.0
 11
0.6535870975
 21
10.9496440138
 31
0.0
 11
0.859776668
 21
11.561937981
 31
0.0
  0
SPLINE
  5
411
100
AcDbEntity
  8
0
100
AcDbSpline
 62
7
  6
CONTINUOUS
 70
0
 71
3
 72
8
 73
4
 74
2
 42
0.0000001
 43
0.0000001
 44
0.0000000001
 12
0.3446918411
 22
0.3762751085
 32
0.0
 13
0.5231437048
 23
0.0
 33
0.0
 40
0.0
 40
0.0
 40
0.0
 40
0.0
 40
1.0
 40
1.0
 40
1.0
 40
1.0
 10
0.859776668
 20
11.561937981
 30
0.0
 10
0.9746739484
 20
11.6873630172
 30
0.0
 10
1.1427144708
 20
11.7498698695
 30
0.0
 10
1.3170957057
 20
11.7498698695
 30
0.0
 11
0.859776668
 21
11.561937981
 31
0.0
 11
1.3170957057
 21
11.7498698695
 31
0.0
  0
SPLINE
  5
412
100
AcDbEntity
  8
0
100
AcDbSpline
 62
7
  6
CONTINUOUS
 70
0
 71
3
 72
8
 73
4
 74
2
 42
0.0000001
 43
0.0000001
 44
0.0000000001
 12
0.522561632
 22
0.0
 32
0.0
 13
0.3450527262
 23
-0.3766476351
 33
0.0
 40
0.0
 40
0.0
 40
0.0
 40
0.0
 40
1.0
 40
1.0
 40
1.0
 40
1.0
 10
1.3170957057
 20
11.7498698695
 30
0.0
 10
1.4912829164
 20
11.7498698695
 30
0.0
 10
1.6572240965
 20
11.6874871927
 30
0.0
 10
1.7722416719
 20
11.561937981
 30
0.0
 11
1.3170957057
 21
11.7498698695
 31
0.0
 11
1.7722416719
 21
11.561937981
 31
0.0
  0
SPLINE
  5
413
100
AcDbEntity
  8
0
100
AcDbSpline
 62
7
  6
CONTINUOUS
 70
0
 71
3
 72
8
 73
4
 74
2
 42
0.0000001
 43
0.0000001
 44
0.0000000001
 12
0.9097913497
 22
0.0
 32
0.0
 13
0.5862753153
 23
0.6886851949
 33
0.0
 40
0.0
 40
0.0
 40
0.0
 40
0.0
 40
1.0
 40
1.0
 40
1.0
 40
1.0
 10
1.3160712577
 20
9.80123
 30
0.0
 10
1.6193350409
 20
9.80123
 30
0.0
 10
1.9033981844
 20
9.9102250627
 30
0.0
 10
2.0988232895
 20
10.1397867943
 30
0.0
 11
1.3160712577
 21
9.80123
 31
0.0
 11
2.0988232895
 21
10.1397867943
 31
0.0
  0
SPLINE
  5
414
100
AcDbEntity
  8
0
100
AcDbSpline
 62
7
  6
CONTINUOUS
 70
0
 71
3
 72
8
 73
4
 74
2
 42
0.0000001
 43
0.0000001
 44
0.0000000001
 12
0.5284319884
 22
0.620737864
 32
0.0
 13
-0.0
 23
0.8936330102
 33
0.0
 40
0.0
 40
0.0
 40
0.0
 40
0.0
 40
1.0
 40
1.0
 40
1.0
 40
1.0
 10
2.0988232895
 20
10.1397867943
 30
0.0
 10
2.2749672856
 20
10.3466994156
 30
0.0
 10
2.3736508786
 20
10.6519797704
 30
0.0
 10
2.3736508786
 20
10.9498574405
 30
0.0
 11
2.0988232895
 21
10.1397867943
 31
0.0
 11
2.3736508786
 21
10.9498574405
 31
0.0
  0
SPLINE
  5
415
100
AcDbEntity
  8
0
100
AcDbSpline
 62
7
  6
CONTINUOUS
 70
0
 71
3
 72
8
 73
4
 74
2
 42
0.0000001
 43
0.0000001
 44
0.0000000001
 12
-0.0
 22
0.8936679345
 32
0.0
 13
-0.5284638497
 23
0.6207223806
 33
0.0
 40
0.0
 40
0.0
 40
0.0
 40
0.0
 40
1.0
 40
1.0
 40
1.0
 40
1.0
 10
2.3736508786
 20
10.9498574405
 30
0.0
 10
2.3736508786
 20
11.247746752
 30
0.0
 10
2.274977906
 20
11.5530245069
 30
0.0
 10
2.0988232895
 20
11.7599319671
 30
0.0
 11
2.3736508786
 21
10.9498574405
 31
0.0
 11
2.0988232895
 21
11.7599319671
 31
0.0
  0
SPLINE
  5
416
100
AcDbEntity
  8
0
100
AcDbSpline
 62
7
  6
CONTINUOUS
 70
0
 71
3
 72
8
 73
4
 74
2
 42
0.0000001
 43
0.0000001
 44
0.0000000001
 12
-0.5863140729
 22
0.6886720205
 32
0.0
 13
-0.9098146326
 23
0.0
 33
0.0
 40
0.0
 40
0.0
 40
0.0
 40
0.0
 40
1.0
 40
1.0
 40
1.0
 40
1.0
 10
2.0988232895
 20
11.7599319671
 30
0.0
 10
1.9033852652
 20
11.9894893073
 30
0.0
 10
1.6193428019
 20
12.098484881
 30
0.0
 10
1.3160712577
 20
12.098484881
 30
0.0
 11
2.0988232895
 21
11.7599319671
 31
0.0
 11
1.3160712577
 21
12.098484881
 31
0.0
  0
SPLINE
  5
417
100
AcDbEntity
  8
0
100
AcDbSpline
 62
7
  6
CONTINUOUS
 70
0
 71
3
 72
8
 73
4
 74
2
 42
0.0000001
 43
0.0000001
 44
0.0000000001
 12
-0.9097913497
 22
0.0
 32
0.0
 13
-0.5863218811
 23
-0.6887084778
 33
0.0
 40
0.0
 40
0.0
 40
0.0
 40
0.0
 40
1.0
 40
1.0
 40
1.0
 40
1.0
 10
1.3160712577
 20
12.098484881
 30
0.0
 10
1.0128074745
 20
12.098484881
 30
0.0
 10
0.7286434384
 20
11.9895014597
 30
0.0
 10
0.5332028114
 20
11.7599319671
 30
0.0
 11
1.3160712577
 21
12.098484881
 31
0.0
 11
0.5332028114
 21
11.7599319671
 31
0.0
  0
SPLINE
  5
418
100
AcDbEntity
  8
0
100
AcDbSpline
 62
7
  6
CONTINUOUS
 70
0
 71
3
 72
8
 73
4
 74
2
 42
0.0000001
 43
0.0000001
 44
0.0000000001
 12
-0.5284522083
 22
-0.6206990977
 32
0.0
 13
0.0
 23
-0.8936330102
 33
0.0
 40
0.0
 40
0.0
 40
0.0
 40
0.0
 40
1.0
 40
1.0
 40
1.0
 40
1.0
 10
0.5332028114
 20
11.7599319671
 30
0.0
 10
0.3570520753
 20
11.5530322679
 30
0.0
 10
0.2583635808
 20
11.2477351105
 30
0.0
 10
0.2583635808
 20
10.9498574405
 30
0.0
 11
0.5332028114
 21
11.7599319671
 31
0.0
 11
0.2583635808
 21
10.9498574405
 31
0.0
  0
SPLINE
  5
419
100
AcDbEntity
  8
0
100
AcDbSpline
 62
7
  6
CONTINUOUS
 70
0
 71
3
 72
8
 73
4
 74
2
 42
0.0000001
 43
0.0000001
 44
0.0000000001
 12
0.0
 22
-0.8936097273
 32
0.0
 13
0.5284522083
 23
-0.6206758148
 33
0.0
 40
0.0
 40
0.0
 40
0.0
 40
0.0
 40
1.0
 40
1.0
 40
1.0
 40
1.0
 10
0.2583635808
 20
10.9498574405
 30
0.0
 10
0.2583635808
 20
10.6519875314
 30
0.0
 10
0.3570520753
 20
10.3466787326
 30
0.0
 10
0.5332028114
 20
10.1397867943
 30
0.0
 11
0.2583635808
 21
10.9498574405
 31
0.0
 11
0.5332028114
 21
10.1397867943
 31
0.0
  0
SPLINE
  5
41A
100
AcDbEntity
  8
0
100
AcDbSpline
 62
7
  6
CONTINUOUS
 70
0
 71
3
 72
8
 73
4
 74
2
 42
0.0000001
 43
0.0000001
 44
0.0000000001
 12
0.5863435793
 22
-0.6886701827
 32
0.0
 13
0.9097680668
 23
0.0
 33
0.0
 40
0.0
 40
0.0
 40
0.0
 40
0.0
 40
1.0
 40
1.0
 40
1.0
 40
1.0
 10
0.5332028114
 20
10.1397867943
 30
0.0
 10
0.7286506711
 20
9.9102300667
 30
0.0
 10
1.0128152354
 20
9.80123
 30
0.0
 10
1.3160712577
 20
9.80123
 30
0.0
 11
0.5332028114
 21
10.1397867943
 31
0.0
 11
1.3160712577
 21
9.80123
 31
0.0
  0
SPLINE
  5
41B
100
AcDbEntity
  8
RACCORDO
100
AcDbSpline
 62
7
  6
CONTINUOUS
 70
0
 71
3
 72
11
 73
7
 74
5
 42
0.0000001
 43
0.0000001
 44
0.0000000001
 12
-0.469366545
 22
0.0
 32
0.0
 13
0.0010261778
 23
0.4693654233
 33
0.0
 40
0.0
 40
0.0
 40
0.0
 40
0.0
 40
0.2508407362
 40
0.5011873906
 40
0.7508419943
 40
1.0
 40
1.0
 40
1.0
 40
1.0
 10
-3.9963114172
 20
18.5117603839
 30
0.0
 10
-4.0355568338
 20
18.5117603839
 30
0.0
 10
-4.1148562656
 20
18.5276817949
 30
0.0
 10
-4.2144388825
 20
18.595509764
 30
0.0
 10
-4.2803558335
 20
18.6959583387
 30
0.0
 10
-4.2955170038
 20
18.7748710743
 30
0.0
 10
-4.295431777
 20
18.8138531253
 30
0.0
 11
-3.9963114172
 21
18.5117603839
 31
0.0
 11
-4.1117211178
 21
18.5350504142
 31
0.0
 11
-4.2089351932
 21
18.601055675
 31
0.0
 11
-4.2732031446
 21
18.6990386839
 31
0.0
 11
-4.295431777
 21
18.8138531253
 31
0.0
  0
SPLINE
  5
41C
100
AcDbEntity
  8
RACCORDO
100
AcDbSpline
 62
253
  6
CONTINUOUS
 70
0
 71
3
 72
11
 73
7
 74
5
 42
0.0000001
 43
0.0000001
 44
0.0000000001
 12
0.0011417499
 22
-0.4655639069
 32
0.0
 13
0.4655639598
 23
-0.0011199765
 33
0.0
 40
0.0
 40
0.0
 40
0.0
 40
0.0
 40
0.2487755422
 40
0.4984070311
 40
0.7489637461
 40
1.0
 40
1.0
 40
1.0
 40
1.0
 10
-4.2632529738
 20
19.929435023
 30
0.0
 10
-4.263158294
 20
19.8908280519
 30
0.0
 10
-4.247339296
 20
19.8126705234
 30
0.0
 10
-4.1804516911
 20
19.7140571292
 30
0.0
 10
-4.0808935933
 20
19.6480171777
 30
0.0
 10
-4.002256476
 20
19.6324483206
 30
0.0
 10
-3.9632986652
 20
19.6323546024
 30
0.0
 11
-4.2632529738
 21
19.929435023
 31
0.0
 11
-4.2402180363
 21
19.8159275064
 31
0.0
 11
-4.1751496503
 21
19.7196303729
 31
0.0
 11
-4.0779224258
 21
19.6551772178
 31
0.0
 11
-3.9632986652
 21
19.6323546024
 31
0.0
  0
SPLINE
  5
41D
100
AcDbEntity
  8
RACCORDO
100
AcDbSpline
 62
7
  6
CONTINUOUS
 70
0
 71
3
 72
12
 73
8
 74
6
 42
0.0000001
 43
0.0000001
 44
0.0000000001
 12
0.0087613033
 22
-0.4364009173
 32
0.0
 13
0.4364888556
 23
0.0
 33
0.0
 40
0.0
 40
0.0
 40
0.0
 40
0.0
 40
0.2070660253
 40
0.4337157954
 40
0.6966521576
 40
0.845013743
 40
1.0
 40
1.0
 40
1.0
 40
1.0
 10
-4.2841990517
 20
19.7607860213
 30
0.0
 10
-4.283594329
 20
19.7306647536
 30
0.0
 10
-4.2692969266
 20
19.6672372801
 30
0.0
 10
-4.2096036564
 20
19.5824424228
 30
0.0
 10
-4.1298461033
 20
19.5303998958
 30
0.0
 10
-4.0510266497
 20
19.5053691049
 30
0.0
 10
-4.0067946678
 20
19.5
 30
0.0
 10
-3.9842447432
 20
19.5
 30
0.0
 11
-4.2841990517
 21
19.7607860213
 31
0.0
 11
-4.2647306033
 21
19.672525681
 31
0.0
 11
-4.2085855336
 21
19.5910708125
 31
0.0
 11
-4.1131407133
 21
19.5273357212
 31
0.0
 11
-4.051467956
 21
19.5075849566
 31
0.0
 11
-3.9842447432
 21
19.5
 31
0.0
  0
SPLINE
  5
41E
100
AcDbEntity
  8
RACCORDO
100
AcDbSpline
 62
253
  6
CONTINUOUS
 70
0
 71
3
 72
11
 73
7
 74
5
 42
0.0000001
 43
0.0000001
 44
0.0000000001
 12
-0.0011417496
 22
-0.4655637538
 32
0.0
 13
-0.4655638067
 23
-0.0011199761
 33
0.0
 40
0.0
 40
0.0
 40
0.0
 40
0.0
 40
0.2488076262
 40
0.4984314966
 40
0.748973283
 40
1.0
 40
1.0
 40
1.0
 40
1.0
 10
-3.5367470262
 20
19.929435023
 30
0.0
 10
-3.5368417182
 20
19.8908230855
 30
0.0
 10
-3.55266468
 20
19.8126617386
 30
0.0
 10
-3.6195564183
 20
19.7140499477
 30
0.0
 10
-3.7191117707
 20
19.6480154304
 30
0.0
 10
-3.7977450168
 20
19.632448317
 30
0.0
 10
-3.8367013348
 20
19.6323546024
 30
0.0
 11
-3.5367470262
 21
19.929435023
 31
0.0
 11
-3.5597884376
 21
19.8159136175
 31
0.0
 11
-3.624858726
 21
19.7196220964
 31
0.0
 11
-3.7220817492
 21
19.655175252
 31
0.0
 11
-3.8367013348
 21
19.6323546024
 31
0.0
  0
SPLINE
  5
41F
100
AcDbEntity
  8
RACCORDO
100
AcDbSpline
 62
7
  6
CONTINUOUS
 70
0
 71
3
 72
11
 73
7
 74
5
 42
0.0000001
 43
0.0000001
 44
0.0000000001
 12
-0.0088377716
 22
-0.4402098092
 32
0.0
 13
-0.440298515
 23
0.0
 33
0.0
 40
0.0
 40
0.0
 40
0.0
 40
0.0
 40
0.206801351
 40
0.4335194186
 40
0.6970838653
 40
1.0
 40
1.0
 40
1.0
 40
1.0
 10
-3.5158009483
 20
19.7607860213
 30
0.0
 10
-3.5164101693
 20
19.7304406936
 30
0.0
 10
-3.5309000059
 20
19.6664781551
 30
0.0
 10
-3.5916855513
 20
19.5811537323
 30
0.0
 10
-3.6916899055
 20
19.5165195588
 30
0.0
 10
-3.7758051522
 20
19.5
 30
0.0
 10
-3.8202629937
 20
19.5
 30
0.0
 11
-3.5158009483
 21
19.7607860213
 31
0.0
 11
-3.5355393335
 21
19.6718968389
 31
0.0
 11
-3.5925484678
 21
19.5899534718
 31
0.0
 11
-3.6894766521
 21
19.5261424908
 31
0.0
 11
-3.8202629937
 21
19.5
 31
0.0
  0
SPLINE
  5
420
100
AcDbEntity
  8
RACCORDO
100
AcDbSpline
 62
7
  6
CONTINUOUS
 70
0
 71
3
 72
11
 73
7
 74
5
 42
0.0000001
 43
0.0000001
 44
0.0000000001
 12
0.0010261778
 22
-0.4693654234
 32
0.0
 13
-0.4693665452
 23
0.0
 33
0.0
 40
0.0
 40
0.0
 40
0.0
 40
0.0
 40
0.2491581771
 40
0.4988129476
 40
0.74915944
 40
1.0
 40
1.0
 40
1.0
 40
1.0
 10
-3.504568223
 20
18.8138531253
 30
0.0
 10
-3.5044829962
 20
18.7748710475
 30
0.0
 10
-3.5196441858
 20
18.6959582568
 30
0.0
 10
-3.5855611975
 20
18.5955096818
 30
0.0
 10
-3.6851438171
 20
18.5276817744
 30
0.0
 10
-3.7644431938
 20
18.5117603839
 30
0.0
 10
-3.8036885828
 20
18.5117603839
 30
0.0
 11
-3.504568223
 21
18.8138531253
 31
0.0
 11
-3.5267968851
 21
18.6990386077
 31
0.0
 11
-3.5910649198
 21
18.6010555597
 31
0.0
 11
-3.6882789602
 21
18.5350503826
 31
0.0
 11
-3.8036885828
 21
18.5117603839
 31
0.0
  0
SPLINE
  5
421
100
AcDbEntity
  8
RACCORDO
100
AcDbSpline
 62
253
  6
CONTINUOUS
 70
0
 71
3
 72
11
 73
7
 74
5
 42
0.0000001
 43
0.0000001
 44
0.0000000001
 12
-0.0011417496
 22
-0.4655637538
 32
0.0
 13
-0.4655638067
 23
-0.0011199761
 33
0.0
 40
0.0
 40
0.0
 40
0.0
 40
0.0
 40
0.2488076262
 40
0.4984314966
 40
0.748973283
 40
1.0
 40
1.0
 40
1.0
 40
1.0
 10
4.2632529738
 20
19.929435023
 30
0.0
 10
4.2631582818
 20
19.8908230855
 30
0.0
 10
4.24733532
 20
19.8126617386
 30
0.0
 10
4.1804435817
 20
19.7140499477
 30
0.0
 10
4.0808882293
 20
19.6480154304
 30
0.0
 10
4.0022549832
 20
19.632448317
 30
0.0
 10
3.9632986652
 20
19.6323546024
 30
0.0
 11
4.2632529738
 21
19.929435023
 31
0.0
 11
4.2402115624
 21
19.8159136175
 31
0.0
 11
4.175141274
 21
19.7196220964
 31
0.0
 11
4.0779182508
 21
19.655175252
 31
0.0
 11
3.9632986652
 21
19.6323546024
 31
0.0
  0
SPLINE
  5
422
100
AcDbEntity
  8
RACCORDO
100
AcDbSpline
 62
7
  6
CONTINUOUS
 70
0
 71
3
 72
12
 73
8
 74
6
 42
0.0000001
 43
0.0000001
 44
0.0000000001
 12
-0.0087613033
 22
-0.4364009173
 32
0.0
 13
-0.4364888556
 23
0.0
 33
0.0
 40
0.0
 40
0.0
 40
0.0
 40
0.0
 40
0.2070660253
 40
0.4337157954
 40
0.6966521576
 40
0.845013743
 40
1.0
 40
1.0
 40
1.0
 40
1.0
 10
4.2841990517
 20
19.7607860213
 30
0.0
 10
4.283594329
 20
19.7306647536
 30
0.0
 10
4.2692969266
 20
19.6672372801
 30
0.0
 10
4.2096036564
 20
19.5824424228
 30
0.0
 10
4.1298461033
 20
19.5303998958
 30
0.0
 10
4.0510266497
 20
19.5053691049
 30
0.0
 10
4.0067946678
 20
19.5
 30
0.0
 10
3.9842447432
 20
19.5
 30
0.0
 11
4.2841990517
 21
19.7607860213
 31
0.0
 11
4.2647306033
 21
19.672525681
 31
0.0
 11
4.2085855336
 21
19.5910708125
 31
0.0
 11
4.1131407133
 21
19.5273357212
 31
0.0
 11
4.051467956
 21
19.5075849566
 31
0.0
 11
3.9842447432
 21
19.5
 31
0.0
  0
SPLINE
  5
423
100
AcDbEntity
  8
RACCORDO
100
AcDbSpline
 62
7
  6
CONTINUOUS
 70
0
 71
3
 72
11
 73
7
 74
5
 42
0.0000001
 43
0.0000001
 44
0.0000000001
 12
0.0010261778
 22
-0.4693654234
 32
0.0
 13
-0.4693665452
 23
0.0
 33
0.0
 40
0.0
 40
0.0
 40
0.0
 40
0.0
 40
0.2491581771
 40
0.4988129476
 40
0.74915944
 40
1.0
 40
1.0
 40
1.0
 40
1.0
 10
4.295431777
 20
18.8138531253
 30
0.0
 10
4.2955170038
 20
18.7748710475
 30
0.0
 10
4.2803558142
 20
18.6959582568
 30
0.0
 10
4.2144388025
 20
18.5955096818
 30
0.0
 10
4.1148561829
 20
18.5276817744
 30
0.0
 10
4.0355568062
 20
18.5117603839
 30
0.0
 10
3.9963114172
 20
18.5117603839
 30
0.0
 11
4.295431777
 21
18.8138531253
 31
0.0
 11
4.2732031149
 21
18.6990386077
 31
0.0
 11
4.2089350802
 21
18.6010555597
 31
0.0
 11
4.1117210398
 21
18.5350503826
 31
0.0
 11
3.9963114172
 21
18.5117603839
 31
0.0
  0
SPLINE
  5
424
100
AcDbEntity
  8
RACCORDO
100
AcDbSpline
 62
7
  6
CONTINUOUS
 70
0
 71
3
 72
11
 73
7
 74
5
 42
0.0000001
 43
0.0000001
 44
0.0000000001
 12
-0.469366545
 22
0.0
 32
0.0
 13
0.0010261778
 23
0.4693654233
 33
0.0
 40
0.0
 40
0.0
 40
0.0
 40
0.0
 40
0.2508407362
 40
0.5011873906
 40
0.7508419943
 40
1.0
 40
1.0
 40
1.0
 40
1.0
 10
3.8036885828
 20
18.5117603839
 30
0.0
 10
3.7644431662
 20
18.5117603839
 30
0.0
 10
3.6851437344
 20
18.5276817949
 30
0.0
 10
3.5855611175
 20
18.595509764
 30
0.0
 10
3.5196441665
 20
18.6959583387
 30
0.0
 10
3.5044829962
 20
18.7748710743
 30
0.0
 10
3.504568223
 20
18.8138531253
 30
0.0
 11
3.8036885828
 21
18.5117603839
 31
0.0
 11
3.6882788822
 21
18.5350504142
 31
0.0
 11
3.5910648068
 21
18.601055675
 31
0.0
 11
3.5267968554
 21
18.6990386839
 31
0.0
 11
3.504568223
 21
18.8138531253
 31
0.0
  0
SPLINE
  5
425
100
AcDbEntity
  8
RACCORDO
100
AcDbSpline
 62
253
  6
CONTINUOUS
 70
0
 71
3
 72
11
 73
7
 74
5
 42
0.0000001
 43
0.0000001
 44
0.0000000001
 12
0.0011417499
 22
-0.4655639069
 32
0.0
 13
0.4655639598
 23
-0.0011199765
 33
0.0
 40
0.0
 40
0.0
 40
0.0
 40
0.0
 40
0.2487755422
 40
0.4984070311
 40
0.7489637461
 40
1.0
 40
1.0
 40
1.0
 40
1.0
 10
3.5367470262
 20
19.929435023
 30
0.0
 10
3.536841706
 20
19.8908280519
 30
0.0
 10
3.552660704
 20
19.8126705234
 30
0.0
 10
3.6195483089
 20
19.7140571292
 30
0.0
 10
3.7191064067
 20
19.6480171777
 30
0.0
 10
3.797743524
 20
19.6324483206
 30
0.0
 10
3.8367013348
 20
19.6323546024
 30
0.0
 11
3.5367470262
 21
19.929435023
 31
0.0
 11
3.5597819637
 21
19.8159275064
 31
0.0
 11
3.6248503497
 21
19.7196303729
 31
0.0
 11
3.7220775742
 21
19.6551772178
 31
0.0
 11
3.8367013348
 21
19.6323546024
 31
0.0
  0
SPLINE
  5
426
100
AcDbEntity
  8
RACCORDO
100
AcDbSpline
 62
7
  6
CONTINUOUS
 70
0
 71
3
 72
11
 73
7
 74
5
 42
0.0000001
 43
0.0000001
 44
0.0000000001
 12
0.0088377716
 22
-0.4402098092
 32
0.0
 13
0.440298515
 23
0.0
 33
0.0
 40
0.0
 40
0.0
 40
0.0
 40
0.0
 40
0.206801351
 40
0.4335194186
 40
0.6970838653
 40
1.0
 40
1.0
 40
1.0
 40
1.0
 10
3.5158009483
 20
19.7607860213
 30
0.0
 10
3.5164101693
 20
19.7304406936
 30
0.0
 10
3.5309000059
 20
19.6664781551
 30
0.0
 10
3.5916855513
 20
19.5811537323
 30
0.0
 10
3.6916899055
 20
19.5165195588
 30
0.0
 10
3.7758051522
 20
19.5
 30
0.0
 10
3.8202629937
 20
19.5
 30
0.0
 11
3.5158009483
 21
19.7607860213
 31
0.0
 11
3.5355393335
 21
19.6718968389
 31
0.0
 11
3.5925484678
 21
19.5899534718
 31
0.0
 11
3.6894766521
 21
19.5261424908
 31
0.0
 11
3.8202629937
 21
19.5
 31
0.0
  0
SPLINE
  5
427
100
AcDbEntity
  8
0
100
AcDbSpline
 62
7
  6
CONTINUOUS
 70
0
 71
3
 72
11
 73
7
 74
5
 42
0.0000001
 43
0.0000001
 44
0.0000000001
 12
-1.9085319551
 22
0.0
 32
0.0
 13
-0.5346889809
 23
1.8321031405
 33
0.0
 40
0.0
 40
0.0
 40
0.0
 40
0.0
 40
0.2505013847
 40
0.50070862
 40
0.7505090049
 40
1.0
 40
1.0
 40
1.0
 40
1.0
 10
-6.3241621608
 20
-17.9023300011
 30
0.0
 10
-6.4835254599
 20
-17.9023300011
 30
0.0
 10
-6.804493293
 20
-17.8493014415
 30
0.0
 10
-7.2326137206
 20
-17.6200723667
 30
0.0
 10
-7.565940657
 20
-17.2681492531
 30
0.0
 10
-7.7039646148
 20
-16.975178271
 30
0.0
 10
-7.7484313101
 20
-16.8228138591
 30
0.0
 11
-6.3241621608
 21
-17.9023300011
 31
0.0
 11
-6.795835576
 21
-17.8242650318
 31
0.0
 11
-7.2171066238
 21
-17.5994002363
 31
0.0
 11
-7.5450453337
 21
-17.2533530021
 31
0.0
 11
-7.7484313101
 21
-16.8228138591
 31
0.0
  0
SPLINE
  5
428
100
AcDbEntity
  8
0
100
AcDbSpline
 62
7
  6
CONTINUOUS
 70
0
 71
3
 72
11
 73
7
 74
5
 42
0.0000001
 43
0.0000001
 44
0.0000000001
 12
-0.5346889881
 22
-1.8321031654
 32
0.0
 13
-1.9085319811
 23
-0.0
 33
0.0
 40
0.0
 40
0.0
 40
0.0
 40
0.0
 40
0.2494935396
 40
0.4992959243
 40
0.7495015809
 40
1.0
 40
1.0
 40
1.0
 40
1.0
 10
7.7484313101
 20
-16.8228138591
 30
0.0
 10
7.7039641607
 20
-16.9751798269
 30
0.0
 10
7.5659384995
 20
-17.2681534065
 30
0.0
 10
7.2326085012
 20
-17.6200765081
 30
0.0
 10
6.8044884167
 20
-17.8493024907
 30
0.0
 10
6.4835235755
 20
-17.9023300011
 30
0.0
 10
6.3241621608
 20
-17.9023300011
 30
0.0
 11
7.7484313101
 21
-16.8228138591
 31
0.0
 11
7.5450426107
 21
-17.2533570936
 31
0.0
 11
7.2170996819
 21
-17.5994055969
 31
0.0
 11
6.7958301446
 21
-17.8242668377
 31
0.0
 11
6.3241621608
 21
-17.9023300011
 31
0.0
  0
SPLINE
  5
429
100
AcDbEntity
  8
RACCORDO
100
AcDbSpline
 62
253
  6
CONTINUOUS
 70
0
 71
3
 72
14
 73
10
 74
8
 42
0.0000001
 43
0.0000001
 44
0.0000000001
 12
-0.0757279074
 22
0.2975436108
 32
0.0
 13
-0.3069744808
 23
-0.0057952076
 33
0.0
 40
0.0
 40
0.0
 40
0.0
 40
0.0
 40
0.0130312984
 40
0.0336946321
 40
0.0983621888
 40
0.1933319383
 40
0.3165230437
 40
0.6318016198
 40
1.0
 40
1.0
 40
1.0
 40
1.0
 10
9.709473649
 20
20.2095764515
 30
0.0
 10
9.7091447047
 20
20.2108689114
 30
0.0
 10
9.7068727648
 20
20.2137034215
 30
0.0
 10
9.6988932886
 20
20.2197512349
 30
0.0
 10
9.6816566501
 20
20.2271452099
 30
0.0
 10
9.653521461
 20
20.233890111
 30
0.0
 10
9.5995070981
 20
20.242269566
 30
0.0
 10
9.5172262587
 20
20.2492243418
 30
0.0
 10
9.447252287
 20
20.2524355974
 30
0.0
 10
9.4095764515
 20
20.2517243354
 30
0.0
 11
9.709473649
 21
20.2095764515
 31
0.0
 11
9.7073183471
 21
20.2129472949
 31
0.0
 11
9.702390627
 21
20.2169431724
 31
0.0
 11
9.6844519201
 21
20.2254529867
 31
0.0
 11
9.6562553222
 21
20.2328805748
 31
0.0
 11
9.6189315047
 21
20.239006906
 31
0.0
 11
9.5225690702
 21
20.248197523
 31
0.0
 11
9.4095764515
 21
20.2517243354
 31
0.0
  0
SPLINE
  5
42A
100
AcDbEntity
  8
RACCORDO
100
AcDbSpline
 62
253
  6
CONTINUOUS
 70
0
 71
3
 72
9
 73
5
 74
3
 42
0.0000001
 43
0.0000001
 44
0.0000000001
 12
0.0097006445
 22
3.7790545895
 32
0.0
 13
0.0139946295
 23
3.7790411275
 33
0.0
 40
0.0
 40
0.0
 40
0.0
 40
0.0
 40
0.2504684914
 40
1.0
 40
1.0
 40
1.0
 40
1.0
 10
9.3977343402
 20
16.4726759638
 30
0.0
 10
9.3985442421
 20
16.788187331
 30
0.0
 10
9.40195576
 20
18.0478717307
 30
0.0
 10
9.4060799365
 20
19.3075542029
 30
0.0
 10
9.4095764085
 20
20.2517243354
 30
0.0
 11
9.3977343402
 21
16.4726759638
 31
0.0
 11
9.4002979059
 21
17.4192097124
 31
0.0
 11
9.4095764085
 21
20.2517243354
 31
0.0
  0
SPLINE
  5
42B
100
AcDbEntity
  8
RACCORDO
100
AcDbSpline
 62
253
  6
CONTINUOUS
 70
0
 71
3
 72
9
 73
5
 74
3
 42
0.0000001
 43
0.0000001
 44
0.0000000001
 12
0.0096794506
 22
3.7516377426
 32
0.0
 13
0.0139402475
 23
3.75162433
 33
0.0
 40
0.0
 40
0.0
 40
0.0
 40
0.0
 40
0.2504670694
 40
1.0
 40
1.0
 40
1.0
 40
1.0
 10
9.6976692656
 20
16.4579449064
 30
0.0
 10
9.6984773935
 20
16.7711654767
 30
0.0
 10
9.7018804697
 20
18.0217109287
 30
0.0
 10
9.7059907575
 20
19.2722544587
 30
0.0
 10
9.709473649
 20
20.2095764515
 30
0.0
 11
9.6976692656
 21
16.4579449064
 31
0.0
 11
9.7002264766
 21
17.3976062652
 31
0.0
 11
9.709473649
 21
20.2095764515
 31
0.0
  0
SPLINE
  5
42C
100
AcDbEntity
  8
RACCORDO
100
AcDbSpline
 62
7
  6
CONTINUOUS
 70
0
 71
3
 72
17
 73
13
 74
11
 42
0.0000001
 43
0.0000001
 44
0.0000000001
 12
-0.141453141
 22
0.2656582925
 32
0.0
 13
-0.3009706289
 23
-0.0000000003
 33
0.0
 40
0.0
 40
0.0
 40
0.0
 40
0.0
 40
0.0085725263
 40
0.0255980612
 40
0.0513911338
 40
0.0858766578
 40
0.1798714291
 40
0.3040292416
 40
0.4539921992
 40
0.624357764
 40
0.8090042274
 40
1.0
 40
1.0
 40
1.0
 40
1.0
 10
9.6976692656
 20
16.4579448753
 30
0.0
 10
9.697265062
 20
16.4587039962
 30
0.0
 10
9.69460006
 20
16.4597507374
 30
0.0
 10
9.6898182471
 20
16.4610440006
 30
0.0
 10
9.6820602778
 20
16.4623426337
 30
0.0
 10
9.666763024
 20
16.4642842656
 30
0.0
 10
9.6414516561
 20
16.4663616018
 30
0.0
 10
9.6046003296
 20
16.4684779905
 30
0.0
 10
9.5600326968
 20
16.4702222472
 30
0.0
 10
9.5093912057
 20
16.4715690163
 30
0.0
 10
9.4546192819
 20
16.4724551809
 30
0.0
 10
9.4169334407
 20
16.4726759638
 30
0.0
 10
9.3977720681
 20
16.4726759638
 30
0.0
 11
9.6976692656
 21
16.4579448753
 31
0.0
 11
9.6955118563
 21
16.4593599339
 31
0.0
 11
9.690584564
 21
16.4607667287
 31
0.0
 11
9.6829458619
 21
16.4621501072
 31
0.0
 11
9.6726542233
 21
16.4634949166
 31
0.0
 11
9.6444768861
 21
16.466013416
 31
0.0
 11
9.6071746526
 21
16.468226999
 31
0.0
 11
9.5620771965
 21
16.4700539201
 31
0.0
 11
9.5108210542
 21
16.4714455746
 31
0.0
 11
9.4552552669
 21
16.4723509147
 31
0.0
 11
9.3977720681
 21
16.4726759638
 31
0.0
  0
SPLINE
  5
42D
100
AcDbEntity
  8
RACCORDO
100
AcDbSpline
 62
7
  6
CONTINUOUS
 70
0
 71
3
 72
17
 73
13
 74
11
 42
0.0000001
 43
0.0000001
 44
0.0000000001
 12
0.7851656081
 22
0.0
 32
0.0
 13
0.0106304492
 23
-0.7850936413
 33
0.0
 40
0.0
 40
0.0
 40
0.0
 40
0.0
 40
0.0667872255
 40
0.1325218418
 40
0.1973159146
 40
0.2614010182
 40
0.3249851288
 40
0.3881345963
 40
0.513268345
 40
0.6370117171
 40
0.7593987758
 40
1.0
 40
1.0
 40
1.0
 40
1.0
 10
9.3977720681
 20
-1.7578395831
 30
0.0
 10
9.4152517456
 20
-1.7578395831
 30
0.0
 10
9.4501557432
 20
-1.7672099327
 30
0.0
 10
9.4921768653
 20
-1.7981963273
 30
0.0
 10
9.526311778
 20
-1.8362775632
 30
0.0
 10
9.5548386833
 20
-1.8779071219
 30
0.0
 10
9.5792149822
 20
-1.9215534046
 30
0.0
 10
9.6073516537
 20
-1.9812079384
 30
0.0
 10
9.636001773
 20
-2.0578299984
 30
0.0
 10
9.6623522772
 20
-2.1514582546
 30
0.0
 10
9.6877376839
 20
-2.2763547626
 30
0.0
 10
9.6968166993
 20
-2.3713973725
 30
0.0
 10
9.6976692656
 20
-2.4343622029
 30
0.0
 11
9.3977720681
 21
-1.7578395831
 31
0.0
 11
9.4487359264
 21
-1.7701901816
 31
0.0
 11
9.4911335949
 21
-1.7996230553
 31
0.0
 11
9.525550792
 21
-1.8370880832
 31
0.0
 11
9.5542543233
 21
-1.8784154346
 31
0.0
 11
9.5787590168
 21
-1.921911773
 31
0.0
 11
9.6000059177
 21
-1.9667115751
 31
0.0
 11
9.6348179817
 21
-2.0585882499
 31
0.0
 11
9.6612776845
 21
-2.1520749504
 31
0.0
 11
9.6804521989
 21
-2.2462365979
 31
0.0
 11
9.6976692656
 21
-2.4343622029
 31
0.0
  0
SPLINE
  5
42E
100
AcDbEntity
  8
RACCORDO
100
AcDbSpline
 62
253
  6
CONTINUOUS
 70
0
 71
3
 72
9
 73
5
 74
3
 42
0.0000001
 43
0.0000001
 44
0.0000000001
 12
-0.0139402473
 22
3.7516243303
 32
0.0
 13
-0.0096794515
 23
3.7516377429
 33
0.0
 40
0.0
 40
0.0
 40
0.0
 40
0.0
 40
0.2495039655
 40
1.0
 40
1.0
 40
1.0
 40
1.0
 10
9.709473649
 20
-20.2095764515
 30
0.0
 10
9.7083142667
 20
-19.8975614024
 30
0.0
 10
9.7038461584
 20
-18.6470193013
 30
0.0
 10
9.7000907289
 20
-17.3964746561
 30
0.0
 10
9.6976692656
 20
-16.4579449064
 30
0.0
 11
9.709473649
 21
-20.2095764515
 31
0.0
 11
9.7061290111
 21
-19.2735308176
 31
0.0
 11
9.6976692656
 21
-16.4579449064
 31
0.0
  0
SPLINE
  5
42F
100
AcDbEntity
  8
RACCORDO
100
AcDbSpline
 62
253
  6
CONTINUOUS
 70
0
 71
3
 72
13
 73
9
 74
7
 42
0.0000001
 43
0.0000001
 44
0.0000000001
 12
-0.0556969706
 22
-0.3020226723
 32
0.0
 13
-0.3071133254
 23
-0.0011191662
 33
0.0
 40
0.0
 40
0.0
 40
0.0
 40
0.0
 40
0.0349678354
 40
0.0986720825
 40
0.1934261471
 40
0.3166827175
 40
0.6318630074
 40
1.0
 40
1.0
 40
1.0
 40
1.0
 10
9.709473649
 20
-20.2095764515
 30
0.0
 10
9.7088244482
 20
-20.2130968112
 30
0.0
 10
9.699778208
 20
-20.220186385
 30
0.0
 10
9.6817512878
 20
-20.2267459611
 30
0.0
 10
9.6533986247
 20
-20.233717394
 30
0.0
 10
9.5996367244
 20
-20.2423691654
 30
0.0
 10
9.5171826225
 20
-20.2495320502
 30
0.0
 10
9.4472630435
 20
-20.2515869999
 30
0.0
 10
9.4095764515
 20
-20.2517243354
 30
0.0
 11
9.709473649
 21
-20.2095764515
 31
0.0
 11
9.7023939449
 21
-20.2176515575
 31
0.0
 11
9.6844543911
 21
-20.2254582306
 31
0.0
 11
9.6562594891
 21
-20.2326611797
 31
0.0
 11
9.6189400756
 21
-20.2390003968
 31
0.0
 11
9.522582281
 21
-20.2482079161
 31
0.0
 11
9.4095764515
 21
-20.2517243354
 31
0.0
  0
SPLINE
  5
430
100
AcDbEntity
  8
RACCORDO
100
AcDbSpline
 62
253
  6
CONTINUOUS
 70
0
 71
3
 72
9
 73
5
 74
3
 42
0.0000001
 43
0.0000001
 44
0.0000000001
 12
-0.0139946293
 22
3.7790411278
 32
0.0
 13
-0.0097006455
 23
3.7790545898
 33
0.0
 40
0.0
 40
0.0
 40
0.0
 40
0.0
 40
0.2495023178
 40
1.0
 40
1.0
 40
1.0
 40
1.0
 10
9.4095764087
 20
-20.2517243354
 30
0.0
 10
9.4084125112
 20
-19.9374311619
 30
0.0
 10
9.4039277476
 20
-18.6777501251
 30
0.0
 10
9.4001611108
 20
-17.4180665339
 30
0.0
 10
9.3977343402
 20
-16.4726759637
 30
0.0
 11
9.4095764087
 21
-20.2517243354
 31
0.0
 11
9.4062192978
 21
-19.3088443261
 31
0.0
 11
9.3977343402
 21
-16.4726759637
 31
0.0
  0
SPLINE
  5
431
100
AcDbEntity
  8
RACCORDO
100
AcDbSpline
 62
7
  6
CONTINUOUS
 70
0
 71
3
 72
17
 73
13
 74
11
 42
0.0000001
 43
0.0000001
 44
0.0000000001
 12
-0.1414531453
 22
-0.265658292
 32
0.0
 13
-0.3009706305
 23
0.0000000007
 33
0.0
 40
0.0
 40
0.0
 40
0.0
 40
0.0
 40
0.0085725058
 40
0.0255979915
 40
0.0513910193
 40
0.0858765358
 40
0.1798713397
 40
0.3040292454
 40
0.4539924066
 40
0.6243580262
 40
0.8090043257
 40
1.0
 40
1.0
 40
1.0
 40
1.0
 10
9.6976692656
 20
-16.4579448563
 30
0.0
 10
9.697265063
 20
-16.4587039753
 30
0.0
 10
9.6946000719
 20
-16.4597507191
 30
0.0
 10
9.6898182682
 20
-16.4610439803
 30
0.0
 10
9.6820603101
 20
-16.4623426134
 30
0.0
 10
9.6667630575
 20
-16.4642842428
 30
0.0
 10
9.6414516781
 20
-16.4663615824
 30
0.0
 10
9.6046003183
 20
-16.468477974
 30
0.0
 10
9.5600326499
 20
-16.4702222263
 30
0.0
 10
9.509391149
 20
-16.471568995
 30
0.0
 10
9.4546192461
 20
-16.4724551735
 30
0.0
 10
9.416933431
 20
-16.4726759638
 30
0.0
 10
9.3977720681
 20
-16.4726759637
 30
0.0
 11
9.6976692656
 21
-16.4579448563
 31
0.0
 11
9.6955118635
 21
-16.4593599145
 31
0.0
 11
9.6905845862
 21
-16.4607667084
 31
0.0
 11
9.6829458976
 21
-16.4621500858
 31
0.0
 11
9.6726542612
 21
-16.4634948944
 31
0.0
 11
9.6444769141
 21
-16.4660133956
 31
0.0
 11
9.6071746524
 21
-16.4682269809
 31
0.0
 11
9.5620771347
 21
-16.4700539007
 31
0.0
 11
9.5108209757
 21
-16.4714455561
 31
0.0
 11
9.4552552376
 21
-16.4723509066
 31
0.0
 11
9.3977720681
 21
-16.4726759637
 31
0.0
  0
SPLINE
  5
432
100
AcDbEntity
  8
RACCORDO
100
AcDbSpline
 62
253
  6
CONTINUOUS
 70
0
 71
3
 72
9
 73
5
 74
3
 42
0.0000001
 43
0.0000001
 44
0.0000000001
 12
-0.0096794515
 22
-3.7516377426
 32
0.0
 13
-0.0139402473
 23
-3.75162433
 33
0.0
 40
0.0
 40
0.0
 40
0.0
 40
0.0
 40
0.2504670694
 40
1.0
 40
1.0
 40
1.0
 40
1.0
 10
-9.6976692656
 20
-16.4579449064
 30
0.0
 10
-9.6984773936
 20
-16.7711654767
 30
0.0
 10
-9.7018804695
 20
-18.0217109287
 30
0.0
 10
-9.7059907575
 20
-19.2722544587
 30
0.0
 10
-9.709473649
 20
-20.2095764515
 30
0.0
 11
-9.6976692656
 21
-16.4579449064
 31
0.0
 11
-9.7002264766
 21
-17.3976062653
 31
0.0
 11
-9.709473649
 21
-20.2095764515
 31
0.0
  0
SPLINE
  5
433
100
AcDbEntity
  8
RACCORDO
100
AcDbSpline
 62
7
  6
CONTINUOUS
 70
0
 71
3
 72
17
 73
13
 74
11
 42
0.0000001
 43
0.0000001
 44
0.0000000001
 12
0.1414531453
 22
-0.265658292
 32
0.0
 13
0.3009706305
 23
0.0000000007
 33
0.0
 40
0.0
 40
0.0
 40
0.0
 40
0.0
 40
0.0085725058
 40
0.0255979915
 40
0.0513910193
 40
0.0858765358
 40
0.1798713397
 40
0.3040292454
 40
0.4539924066
 40
0.6243580262
 40
0.8090043257
 40
1.0
 40
1.0
 40
1.0
 40
1.0
 10
-9.6976692656
 20
-16.4579448563
 30
0.0
 10
-9.697265063
 20
-16.4587039753
 30
0.0
 10
-9.6946000719
 20
-16.4597507191
 30
0.0
 10
-9.6898182682
 20
-16.4610439803
 30
0.0
 10
-9.6820603101
 20
-16.4623426134
 30
0.0
 10
-9.6667630575
 20
-16.4642842428
 30
0.0
 10
-9.6414516781
 20
-16.4663615824
 30
0.0
 10
-9.6046003183
 20
-16.468477974
 30
0.0
 10
-9.5600326499
 20
-16.4702222263
 30
0.0
 10
-9.509391149
 20
-16.471568995
 30
0.0
 10
-9.4546192461
 20
-16.4724551735
 30
0.0
 10
-9.416933431
 20
-16.4726759638
 30
0.0
 10
-9.3977720681
 20
-16.4726759637
 30
0.0
 11
-9.6976692656
 21
-16.4579448563
 31
0.0
 11
-9.6955118635
 21
-16.4593599145
 31
0.0
 11
-9.6905845862
 21
-16.4607667084
 31
0.0
 11
-9.6829458976
 21
-16.4621500858
 31
0.0
 11
-9.6726542612
 21
-16.4634948944
 31
0.0
 11
-9.6444769141
 21
-16.4660133956
 31
0.0
 11
-9.6071746524
 21
-16.4682269809
 31
0.0
 11
-9.5620771347
 21
-16.4700539007
 31
0.0
 11
-9.5108209757
 21
-16.4714455561
 31
0.0
 11
-9.4552552376
 21
-16.4723509066
 31
0.0
 11
-9.3977720681
 21
-16.4726759637
 31
0.0
  0
SPLINE
  5
434
100
AcDbEntity
  8
RACCORDO
100
AcDbSpline
 62
253
  6
CONTINUOUS
 70
0
 71
3
 72
9
 73
5
 74
3
 42
0.0000001
 43
0.0000001
 44
0.0000000001
 12
-0.0097006455
 22
-3.7790545895
 32
0.0
 13
-0.0139946293
 23
-3.7790411275
 33
0.0
 40
0.0
 40
0.0
 40
0.0
 40
0.0
 40
0.2504684913
 40
1.0
 40
1.0
 40
1.0
 40
1.0
 10
-9.3977343402
 20
-16.4726759637
 30
0.0
 10
-9.3985442422
 20
-16.788187331
 30
0.0
 10
-9.4019557598
 20
-18.0478717307
 30
0.0
 10
-9.4060799368
 20
-19.3075542029
 30
0.0
 10
-9.4095764087
 20
-20.2517243354
 30
0.0
 11
-9.3977343402
 21
-16.4726759637
 31
0.0
 11
-9.4002979058
 21
-17.4192097124
 31
0.0
 11
-9.4095764087
 21
-20.2517243354
 31
0.0
  0
SPLINE
  5
435
100
AcDbEntity
  8
RACCORDO
100
AcDbSpline
 62
253
  6
CONTINUOUS
 70
0
 71
3
 72
14
 73
10
 74
8
 42
0.0000001
 43
0.0000001
 44
0.0000000001
 12
0.0757279996
 22
-0.2975435799
 32
0.0
 13
0.3069744743
 23
0.0057951676
 33
0.0
 40
0.0
 40
0.0
 40
0.0
 40
0.0
 40
0.0130312888
 40
0.0336946167
 40
0.0983621683
 40
0.1933319176
 40
0.3165230254
 40
0.6318016101
 40
1.0
 40
1.0
 40
1.0
 40
1.0
 10
-9.709473649
 20
-20.2095764515
 30
0.0
 10
-9.7091447045
 20
-20.2108689103
 30
0.0
 10
-9.7068727638
 20
-20.2137034178
 30
0.0
 10
-9.6988932877
 20
-20.2197512267
 30
0.0
 10
-9.6816566492
 20
-20.2271451977
 30
0.0
 10
-9.6535214606
 20
-20.2338900961
 30
0.0
 10
-9.5995070977
 20
-20.2422695499
 30
0.0
 10
-9.5172262587
 20
-20.2492243299
 30
0.0
 10
-9.4472522872
 20
-20.2524355925
 30
0.0
 10
-9.4095764515
 20
-20.2517243354
 30
0.0
 11
-9.709473649
 21
-20.2095764515
 31
0.0
 11
-9.7073183471
 21
-20.2129472913
 31
0.0
 11
-9.702390627
 21
-20.2169431657
 31
0.0
 11
-9.68445192
 21
-20.2254529753
 31
0.0
 11
-9.6562553221
 21
-20.2328805604
 31
0.0
 11
-9.6189315046
 21
-20.2390068905
 31
0.0
 11
-9.5225690702
 21
-20.2481975115
 31
0.0
 11
-9.4095764515
 21
-20.2517243354
 31
0.0
  0
SPLINE
  5
436
100
AcDbEntity
  8
RACCORDO
100
AcDbSpline
 62
7
  6
CONTINUOUS
 70
0
 71
3
 72
17
 73
13
 74
11
 42
0.0000001
 43
0.0000001
 44
0.0000000001
 12
0.0106304493
 22
0.7850936444
 32
0.0
 13
0.7851656112
 23
0.0
 33
0.0
 40
0.0
 40
0.0
 40
0.0
 40
0.0
 40
0.2406012637
 40
0.3629883337
 40
0.4867317157
 40
0.6118654716
 40
0.6750149433
 40
0.738599057
 40
0.8026841666
 40
0.8674782213
 40
0.9332128253
 40
1.0
 40
1.0
 40
1.0
 40
1.0
 10
-9.6976692656
 20
-2.4343622029
 30
0.0
 10
-9.6968166991
 20
-2.3713973619
 30
0.0
 10
-9.687737683
 20
-2.276354738
 30
0.0
 10
-9.6623522687
 20
-2.151458215
 30
0.0
 10
-9.6360017607
 20
-2.0578299512
 30
0.0
 10
-9.6073516277
 20
-1.9812078909
 30
0.0
 10
-9.5792149599
 20
-1.92155335
 30
0.0
 10
-9.554838645
 20
-1.8779070738
 30
0.0
 10
-9.5263117566
 20
-1.836277501
 30
0.0
 10
-9.49217679
 20
-1.7981963303
 30
0.0
 10
-9.4501557323
 20
-1.767209877
 30
0.0
 10
-9.4152517324
 20
-1.7578395831
 30
0.0
 10
-9.3977720681
 20
-1.7578395831
 30
0.0
 11
-9.6976692656
 21
-2.4343622029
 31
0.0
 11
-9.6804521949
 21
-2.2462365663
 31
0.0
 11
-9.6612776761
 21
-2.1520749104
 31
0.0
 11
-9.6348179671
 21
-2.0585882031
 31
0.0
 11
-9.6000058939
 21
-1.9667115254
 31
0.0
 11
-9.5787589913
 21
-1.9219117201
 31
0.0
 11
-9.5542542903
 21
-1.8784153829
 31
0.0
 11
-9.5255507546
 21
-1.8370880286
 31
0.0
 11
-9.4911335385
 21
-1.7996230372
 31
0.0
 11
-9.4487358945
 21
-1.7701901449
 31
0.0
 11
-9.3977720681
 21
-1.7578395831
 31
0.0
  0
SPLINE
  5
437
100
AcDbEntity
  8
RACCORDO
100
AcDbSpline
 62
7
  6
CONTINUOUS
 70
0
 71
3
 72
17
 73
13
 74
11
 42
0.0000001
 43
0.0000001
 44
0.0000000001
 12
-0.7851656081
 22
0.0
 32
0.0
 13
-0.0106304492
 23
0.7850936413
 33
0.0
 40
0.0
 40
0.0
 40
0.0
 40
0.0
 40
0.0667872255
 40
0.1325218418
 40
0.1973159146
 40
0.2614010182
 40
0.3249851288
 40
0.3881345963
 40
0.513268345
 40
0.6370117171
 40
0.7593987758
 40
1.0
 40
1.0
 40
1.0
 40
1.0
 10
-9.3977720681
 20
1.7578395831
 30
0.0
 10
-9.4152517456
 20
1.7578395831
 30
0.0
 10
-9.4501557432
 20
1.7672099327
 30
0.0
 10
-9.4921768653
 20
1.7981963273
 30
0.0
 10
-9.526311778
 20
1.8362775632
 30
0.0
 10
-9.5548386833
 20
1.8779071219
 30
0.0
 10
-9.5792149822
 20
1.9215534046
 30
0.0
 10
-9.6073516537
 20
1.9812079384
 30
0.0
 10
-9.636001773
 20
2.0578299984
 30
0.0
 10
-9.6623522772
 20
2.1514582546
 30
0.0
 10
-9.6877376839
 20
2.2763547626
 30
0.0
 10
-9.6968166993
 20
2.3713973725
 30
0.0
 10
-9.6976692656
 20
2.4343622029
 30
0.0
 11
-9.3977720681
 21
1.7578395831
 31
0.0
 11
-9.4487359264
 21
1.7701901816
 31
0.0
 11
-9.4911335949
 21
1.7996230553
 31
0.0
 11
-9.525550792
 21
1.8370880832
 31
0.0
 11
-9.5542543233
 21
1.8784154346
 31
0.0
 11
-9.5787590168
 21
1.921911773
 31
0.0
 11
-9.6000059177
 21
1.9667115751
 31
0.0
 11
-9.6348179817
 21
2.0585882499
 31
0.0
 11
-9.6612776845
 21
2.1520749504
 31
0.0
 11
-9.6804521989
 21
2.2462365979
 31
0.0
 11
-9.6976692656
 21
2.4343622029
 31
0.0
  0
SPLINE
  5
438
100
AcDbEntity
  8
RACCORDO
100
AcDbSpline
 62
253
  6
CONTINUOUS
 70
0
 71
3
 72
9
 73
5
 74
3
 42
0.0000001
 43
0.0000001
 44
0.0000000001
 12
0.0139402475
 22
-3.7516243303
 32
0.0
 13
0.0096794506
 23
-3.7516377429
 33
0.0
 40
0.0
 40
0.0
 40
0.0
 40
0.0
 40
0.2495039654
 40
1.0
 40
1.0
 40
1.0
 40
1.0
 10
-9.709473649
 20
20.2095764515
 30
0.0
 10
-9.7083142667
 20
19.8975614025
 30
0.0
 10
-9.7038461584
 20
18.6470193014
 30
0.0
 10
-9.7000907287
 20
17.3964746561
 30
0.0
 10
-9.6976692656
 20
16.4579449064
 30
0.0
 11
-9.709473649
 21
20.2095764515
 31
0.0
 11
-9.706129011
 21
19.2735308178
 31
0.0
 11
-9.6976692656
 21
16.4579449064
 31
0.0
  0
SPLINE
  5
439
100
AcDbEntity
  8
RACCORDO
100
AcDbSpline
 62
253
  6
CONTINUOUS
 70
0
 71
3
 72
13
 73
9
 74
7
 42
0.0000001
 43
0.0000001
 44
0.0000000001
 12
0.0556969307
 22
0.3020226868
 32
0.0
 13
0.3071133324
 23
0.001119134
 33
0.0
 40
0.0
 40
0.0
 40
0.0
 40
0.0
 40
0.0349678496
 40
0.0986721022
 40
0.1934261671
 40
0.3166827352
 40
0.6318630167
 40
1.0
 40
1.0
 40
1.0
 40
1.0
 10
-9.709473649
 20
20.2095764515
 30
0.0
 10
-9.7088244484
 20
20.2130968128
 30
0.0
 10
-9.6997782107
 20
20.2201863924
 30
0.0
 10
-9.6817512882
 20
20.2267459735
 30
0.0
 10
-9.6533986252
 20
20.2337174091
 30
0.0
 10
-9.5996367245
 20
20.2423691814
 30
0.0
 10
-9.5171826225
 20
20.2495320625
 30
0.0
 10
-9.4472630434
 20
20.2515870039
 30
0.0
 10
-9.4095764515
 20
20.2517243354
 30
0.0
 11
-9.709473649
 21
20.2095764515
 31
0.0
 11
-9.702393945
 21
20.2176515637
 31
0.0
 11
-9.6844543911
 21
20.2254582421
 31
0.0
 11
-9.6562594891
 21
20.2326611942
 31
0.0
 11
-9.6189400756
 21
20.2390004123
 31
0.0
 11
-9.522582281
 21
20.2482079275
 31
0.0
 11
-9.4095764515
 21
20.2517243354
 31
0.0
  0
SPLINE
  5
43A
100
AcDbEntity
  8
RACCORDO
100
AcDbSpline
 62
253
  6
CONTINUOUS
 70
0
 71
3
 72
9
 73
5
 74
3
 42
0.0000001
 43
0.0000001
 44
0.0000000001
 12
0.0139946295
 22
-3.7790411278
 32
0.0
 13
0.0097006445
 23
-3.7790545898
 33
0.0
 40
0.0
 40
0.0
 40
0.0
 40
0.0
 40
0.2495023178
 40
1.0
 40
1.0
 40
1.0
 40
1.0
 10
-9.4095764085
 20
20.2517243354
 30
0.0
 10
-9.408412511
 20
19.9374311619
 30
0.0
 10
-9.4039277477
 20
18.6777501251
 30
0.0
 10
-9.4001611106
 20
17.4180665339
 30
0.0
 10
-9.3977343402
 20
16.4726759638
 30
0.0
 11
-9.4095764085
 21
20.2517243354
 31
0.0
 11
-9.4062192977
 21
19.3088443261
 31
0.0
 11
-9.3977343402
 21
16.4726759638
 31
0.0
  0
SPLINE
  5
43B
100
AcDbEntity
  8
RACCORDO
100
AcDbSpline
 62
7
  6
CONTINUOUS
 70
0
 71
3
 72
17
 73
13
 74
11
 42
0.0000001
 43
0.0000001
 44
0.0000000001
 12
0.1414531415
 22
0.2656582936
 32
0.0
 13
0.3009706301
 23
-0.0000000003
 33
0.0
 40
0.0
 40
0.0
 40
0.0
 40
0.0
 40
0.0085725055
 40
0.0255979912
 40
0.051391019
 40
0.0858765355
 40
0.1798713393
 40
0.3040292451
 40
0.4539924065
 40
0.6243580261
 40
0.8090043255
 40
1.0
 40
1.0
 40
1.0
 40
1.0
 10
-9.6976692656
 20
16.4579448753
 30
0.0
 10
-9.697265063
 20
16.4587039944
 30
0.0
 10
-9.6946000719
 20
16.459750738
 30
0.0
 10
-9.6898182683
 20
16.4610439992
 30
0.0
 10
-9.6820603101
 20
16.4623426322
 30
0.0
 10
-9.6667630575
 20
16.4642842612
 30
0.0
 10
-9.6414516781
 20
16.4663615998
 30
0.0
 10
-9.6046003183
 20
16.4684779918
 30
0.0
 10
-9.5600326501
 20
16.4702222474
 30
0.0
 10
-9.5093911492
 20
16.4715690145
 30
0.0
 10
-9.454619246
 20
16.4724551797
 30
0.0
 10
-9.416933431
 20
16.4726759638
 30
0.0
 10
-9.3977720681
 20
16.4726759638
 30
0.0
 11
-9.6976692656
 21
16.4579448753
 31
0.0
 11
-9.6955118635
 21
16.4593599335
 31
0.0
 11
-9.6905845863
 21
16.4607667273
 31
0.0
 11
-9.6829458976
 21
16.4621501046
 31
0.0
 11
-9.6726542612
 21
16.4634949129
 31
0.0
 11
-9.6444769141
 21
16.4660134133
 31
0.0
 11
-9.6071746524
 21
16.468226999
 31
0.0
 11
-9.5620771348
 21
16.4700539209
 31
0.0
 11
-9.5108209758
 21
16.4714455739
 31
0.0
 11
-9.4552552376
 21
16.4723509137
 31
0.0
 11
-9.3977720681
 21
16.4726759638
 31
0.0
  0
SPLINE
  5
43C
100
AcDbEntity
  8
RACCORDO
100
AcDbSpline
 62
7
  6
CONTINUOUS
 70
0
 71
3
 72
17
 73
13
 74
11
 42
0.0000001
 43
0.0000001
 44
0.0000000001
 12
-0.0106304493
 22
-0.7850936444
 32
0.0
 13
-0.7851656112
 23
0.0
 33
0.0
 40
0.0
 40
0.0
 40
0.0
 40
0.0
 40
0.2406012637
 40
0.3629883337
 40
0.4867317157
 40
0.6118654716
 40
0.6750149433
 40
0.738599057
 40
0.8026841666
 40
0.8674782213
 40
0.9332128253
 40
1.0
 40
1.0
 40
1.0
 40
1.0
 10
9.6976692656
 20
2.4343622029
 30
0.0
 10
9.6968166991
 20
2.3713973619
 30
0.0
 10
9.687737683
 20
2.276354738
 30
0.0
 10
9.6623522687
 20
2.151458215
 30
0.0
 10
9.6360017607
 20
2.0578299512
 30
0.0
 10
9.6073516277
 20
1.9812078909
 30
0.0
 10
9.5792149599
 20
1.92155335
 30
0.0
 10
9.554838645
 20
1.8779070738
 30
0.0
 10
9.5263117566
 20
1.836277501
 30
0.0
 10
9.49217679
 20
1.7981963303
 30
0.0
 10
9.4501557323
 20
1.767209877
 30
0.0
 10
9.4152517324
 20
1.7578395831
 30
0.0
 10
9.3977720681
 20
1.7578395831
 30
0.0
 11
9.6976692656
 21
2.4343622029
 31
0.0
 11
9.6804521949
 21
2.2462365663
 31
0.0
 11
9.6612776761
 21
2.1520749104
 31
0.0
 11
9.6348179671
 21
2.0585882031
 31
0.0
 11
9.6000058939
 21
1.9667115254
 31
0.0
 11
9.5787589913
 21
1.9219117201
 31
0.0
 11
9.5542542903
 21
1.8784153829
 31
0.0
 11
9.5255507546
 21
1.8370880286
 31
0.0
 11
9.4911335385
 21
1.7996230372
 31
0.0
 11
9.4487358945
 21
1.7701901449
 31
0.0
 11
9.3977720681
 21
1.7578395831
 31
0.0
  0
ELLIPSE
  5
43D
100
AcDbEntity
  8
ASSI
100
AcDbEllipse
 62
7
  6
CONTINUOUS
 10
-1.7000304656
 20
-8.0530375578
 30
0.0
 11
0.1414644378
 21
0.1414644378
 31
0.0
 40
0.9996954599
 41
5.497939437
 42
7.0684311773
  0
ELLIPSE
  5
43E
100
AcDbEntity
  8
ASSI
100
AcDbEllipse
 62
7
  6
CONTINUOUS
 10
1.7000304656
 20
-8.0530375578
 30
0.0
 11
0.1414644378
 21
-0.1414644378
 31
0.0
 40
0.9996954599
 41
8.6395320906
 42
10.2100238309
  0
ELLIPSE
  5
43F
100
AcDbEntity
  8
RACCORDO
100
AcDbEllipse
 62
7
  6
CONTINUOUS
 10
1.7000304656
 20
-8.0530375578
 30
0.0
 11
0.1414644378
 21
-0.1414644378
 31
0.0
 40
0.9996954599
 41
2.3563467834
 42
3.9268385237
  0
ELLIPSE
  5
440
100
AcDbEntity
  8
RACCORDO
100
AcDbEllipse
 62
7
  6
CONTINUOUS
 10
-1.7000304656
 20
-8.0530375578
 30
0.0
 11
0.1414644378
 21
0.1414644378
 31
0.0
 40
0.9996954599
 41
-0.7852458701
 42
0.7852458701
  0
ELLIPSE
  5
441
100
AcDbEntity
  8
RACCORDO
100
AcDbEllipse
 62
7
  6
CONTINUOUS
 10
10.4998286038
 20
-21.5998286038
 30
0.0
 11
-0.35379574
 21
0.35379574
 31
0.0
 40
0.999315002
 41
2.3565371065
 42
3.9266482006
  0
ELLIPSE
  5
442
100
AcDbEntity
  8
RACCORDO
100
AcDbEllipse
 62
7
  6
CONTINUOUS
 10
10.4998286038
 20
21.5998286038
 30
0.0
 11
0.35379574
 21
0.35379574
 31
0.0
 40
0.999315002
 41
-0.7850555471
 42
0.7850555471
  0
ELLIPSE
  5
443
100
AcDbEntity
  8
RACCORDO
100
AcDbEllipse
 62
7
  6
CONTINUOUS
 10
-10.4998286038
 20
-21.5998286038
 30
0.0
 11
-0.35379574
 21
-0.35379574
 31
0.0
 40
0.999315002
 41
-0.7850555471
 42
0.7850555471
  0
ELLIPSE
  5
444
100
AcDbEntity
  8
RACCORDO
100
AcDbEllipse
 62
7
  6
CONTINUOUS
 10
-10.4998286038
 20
21.5998286038
 30
0.0
 11
0.35379574
 21
-0.35379574
 31
0.0
 40
0.999315002
 41
2.3565371065
 42
3.9266482006
  0
ELLIPSE
  5
445
100
AcDbEntity
  8
RACCORDO
100
AcDbEllipse
 62
7
  6
CONTINUOUS
 10
-3.9632986652
 20
20.5450095647
 30
0.0
 11
0.3
 21
0.0
 31
0.0
 40
0.0261859216
 41
1.5707963268
 42
3.1241393611
  0
ELLIPSE
  5
446
100
AcDbEntity
  8
RACCORDO
100
AcDbEllipse
 62
7
  6
CONTINUOUS
 10
-3.8367013348
 20
20.5450095647
 30
0.0
 11
0.3
 21
0.0
 31
0.0
 40
0.0261859216
 41
0.0174532925
 42
1.5707963268
  0
ELLIPSE
  5
447
100
AcDbEntity
  8
RACCORDO
100
AcDbEllipse
 62
7
  6
CONTINUOUS
 10
3.9632986652
 20
20.5450095647
 30
0.0
 11
0.3
 21
-0.0
 31
0.0
 40
0.0261859216
 41
0.0174532925
 42
1.5707963268
  0
ELLIPSE
  5
448
100
AcDbEntity
  8
RACCORDO
100
AcDbEllipse
 62
7
  6
CONTINUOUS
 10
9.8209487373
 20
0.0
 30
0.0
 11
-0.0
 21
5.3
 31
0.0
 40
0.0261859216
 41
1.0935739911
 42
2.0480186625
  0
ELLIPSE
  5
449
100
AcDbEntity
  8
RACCORDO
100
AcDbEllipse
 62
7
  6
CONTINUOUS
 10
-9.8209487373
 20
0.0
 30
0.0
 11
-0.0
 21
5.3
 31
0.0
 40
0.0261859216
 41
-2.0480186625
 42
-1.0935739911
  0
ELLIPSE
  5
44A
100
AcDbEntity
  8
RACCORDO
100
AcDbEllipse
 62
7
  6
CONTINUOUS
 10
-5.0408286054
 20
7.79
 30
0.0
 11
-0.0
 21
88.7
 31
0.0
 40
0.0174550649
 41
-1.4461916873
 42
-1.4298370452
  0
ELLIPSE
  5
44B
100
AcDbEntity
  8
RACCORDO
100
AcDbEllipse
 62
7
  6
CONTINUOUS
 10
-2.7591713946
 20
7.79
 30
0.0
 11
-0.0
 21
88.7
 31
0.0
 40
0.0174550649
 41
1.4298370452
 42
1.4461916873
  0
ELLIPSE
  5
44C
100
AcDbEntity
  8
RACCORDO
100
AcDbEllipse
 62
7
  6
CONTINUOUS
 10
5.0408286054
 20
7.79
 30
0.0
 11
-0.0
 21
88.7
 31
0.0
 40
0.0174550649
 41
1.4298370452
 42
1.4461916873
  0
ELLIPSE
  5
44D
100
AcDbEntity
  8
RACCORDO
100
AcDbEllipse
 62
7
  6
CONTINUOUS
 10
2.7591713946
 20
7.79
 30
0.0
 11
-0.0
 21
88.7
 31
0.0
 40
0.0174550649
 41
-1.4461916873
 42
-1.4298370452
  0
ELLIPSE
  5
44E
100
AcDbEntity
  8
RACCORDO
100
AcDbEllipse
 62
7
  6
CONTINUOUS
 10
3.8367013348
 20
20.5450095647
 30
0.0
 11
0.3
 21
-0.0
 31
0.0
 40
0.0261859216
 41
1.5707963268
 42
3.1241393611
  0
ELLIPSE
  5
44F
100
AcDbEntity
  8
RACCORDO
100
AcDbEllipse
 62
7
  6
CONTINUOUS
 10
-3.5131051094
 20
20.2095764515
 30
0.0
 11
-0.0
 21
0.3
 31
0.0
 40
0.0174550649
 41
-1.4298370452
 42
-0.0261799388
  0
ELLIPSE
  5
450
100
AcDbEntity
  8
RACCORDO
100
AcDbEllipse
 62
7
  6
CONTINUOUS
 10
3.5131051094
 20
20.2095764515
 30
0.0
 11
-0.0
 21
0.3
 31
0.0
 40
0.0174550649
 41
0.0261799388
 42
1.4298370452
  0
ELLIPSE
  5
451
100
AcDbEntity
  8
RACCORDO
100
AcDbEllipse
 62
7
  6
CONTINUOUS
 10
4.2868948906
 20
20.2095764515
 30
0.0
 11
-0.0
 21
0.3
 31
0.0
 40
0.0174550649
 41
-1.4298370452
 42
-0.0261799388
  0
ELLIPSE
  5
452
100
AcDbEntity
  8
RACCORDO
100
AcDbEllipse
 62
7
  6
CONTINUOUS
 10
9.4998971623
 20
20.2998971623
 30
0.0
 11
0.212277444
 21
0.212277444
 31
0.0
 40
0.999315002
 41
-0.7850555471
 42
0.7850555471
  0
ELLIPSE
  5
453
100
AcDbEntity
  8
RACCORDO
100
AcDbEllipse
 62
7
  6
CONTINUOUS
 10
9.4998971623
 20
-20.2998971623
 30
0.0
 11
0.212277444
 21
-0.212277444
 31
0.0
 40
0.999315002
 41
-0.7850555471
 42
0.7850555471
  0
ELLIPSE
  5
454
100
AcDbEntity
  8
RACCORDO
100
AcDbEllipse
 62
7
  6
CONTINUOUS
 10
-9.4998971623
 20
-20.2998971623
 30
0.0
 11
0.212277444
 21
0.212277444
 31
0.0
 40
0.999315002
 41
2.3565371065
 42
3.9266482007
  0
ELLIPSE
  5
455
100
AcDbEntity
  8
RACCORDO
100
AcDbEllipse
 62
7
  6
CONTINUOUS
 10
-9.4998971623
 20
20.2998971623
 30
0.0
 11
-0.212277444
 21
0.212277444
 31
0.0
 40
0.999315002
 41
-0.7850555471
 42
0.7850555471
  0
ELLIPSE
  5
456
100
AcDbEntity
  8
RACCORDO
100
AcDbEllipse
 62
7
  6
CONTINUOUS
 10
-1.1999695344
 20
-8.1499695344
 30
0.0
 11
0.1414644378
 21
0.1414644378
 31
0.0
 40
0.9996954599
 41
-3.9268385237
 42
-2.3563467834
  0
ELLIPSE
  5
457
100
AcDbEntity
  8
RACCORDO
100
AcDbEllipse
 62
7
  6
CONTINUOUS
 10
1.1999695344
 20
-8.1499695344
 30
0.0
 11
-0.1414644378
 21
0.1414644378
 31
0.0
 40
0.9996954599
 41
-3.9268385237
 42
-2.3563467834
  0
ELLIPSE
  5
458
100
AcDbEntity
  8
RACCORDO
100
AcDbEllipse
 62
7
  6
CONTINUOUS
 10
1.1947330149
 20
-7.45
 30
0.0
 11
0.008142953
 21
0.199834162
 31
0.0
 40
1.0
 41
-1.5126170121
 42
0.0407260222
  0
ELLIPSE
  5
459
100
AcDbEntity
  8
RACCORDO
100
AcDbEllipse
 62
7
  6
CONTINUOUS
 10
-1.1947330149
 20
-7.45
 30
0.0
 11
0.1971289088
 21
0.0337667489
 31
0.0
 40
1.0
 41
1.4011500196
 42
2.9544930538
  0
ELLIPSE
  5
45A
100
AcDbEntity
  8
RACCORDO
100
AcDbEllipse
 62
7
  6
CONTINUOUS
 10
-4.2868948906
 20
20.2095764515
 30
0.0
 11
0.0
 21
0.3
 31
0.0
 40
0.0174550649
 41
0.0261799388
 42
1.4298370452
  0
ENDSEC
  0
SECTION
  2
OBJECTS
  0
DICTIONARY
  5
C
100
AcDbDictionary
280
0
281
1
  3
ACAD_GROUP
350
D
  3
ACAD_MLINESTYLE
350
17
  3
ACAD_LAYOUT
350
1A
  3
ACAD_PLOTSETTINGS
350
19
  3
ACAD_PLOTSTYLENAME
350
E
  0
DICTIONARY
  5
D
102
{ACAD_REACTORS
330
C
102
}
100
AcDbDictionary
280
0
281
1
  0
ACDBDICTIONARYWDFLT
  5
E
102
{ACAD_REACTORS
330
C
102
}
100
AcDbDictionary
281
1
  3
Normal
350
F
100
AcDbDictionaryWithDefault
340
F
  0
DICTIONARY
  5
17
102
{ACAD_REACTORS
330
C
102
}
100
AcDbDictionary
280
0
281
1
  3
Standard
350
18
  0
DICTIONARY
  5
19
102
{ACAD_REACTORS
330
C
102
}
100
AcDbDictionary
281
1
  0
DICTIONARY
  5
1A
102
{ACAD_REACTORS
330
C
102
}
100
AcDbDictionary
281
1
  3
Model
350
45B
  3
Layout1
350
45C
  0
ACDBPLACEHOLDER
  5
F
102
{ACAD_REACTORS
330
E
102
}
  0
MLINESTYLE
  5
18
102
{ACAD_REACTORS
330
17
102
}
100
AcDbMlineStyle
  2
STANDARD
 70
0
  3

 62
256
 51
90.0
 52
90.0
 71
2
 49
0.5
 62
256
  6
BYLAYER
 49
-0.5
 62
256
  6
BYLAYER
  0
LAYOUT
  5
45B
102
{ACAD_REACTORS
330
1A
102
}
100
AcDbPlotSettings
  1

  2
none_device
  4
ISO_A4_(297.00_x_210.00_MM)
  6

 40
0.0
 41
0.0
 42
0.0
 43
0.0
 44
297.0
 45
210.0
 46
0.0
 47
0.0
 48
0.0
 49
0.0
140
0.0
141
0.0
142
1.0
143
1.0
 70
1024
 72
1
 73
0
 74
0
  7

 75
0
147
1.0
148
0.0
149
0.0
100
AcDbLayout
  1
Model
 70
0
 71
0
 10
0.0
 20
0.0
 11
297.0
 21
210.0
 12
0.0
 22
0.0
 32
0.0
 14
0.0
 24
0.0
 34
0.0
 15
0.0
 25
0.0
 35
0.0
146
0.0
 13
0.0
 23
0.0
 33
0.0
 16
1.0
 26
0.0
 36
0.0
 17
0.0
 27
1.0
 37
0.0
 76
0
330
211
345
0
346
0
  0
LAYOUT
  5
45C
102
{ACAD_REACTORS
330
1A
102
}
100
AcDbPlotSettings
  1

  2
none_device
  4
ISO_A4_(297.00_x_210.00_MM)
  6

 40
0.0
 41
0.0
 42
0.0
 43
0.0
 44
297.0
 45
210.0
 46
0.0
 47
0.0
 48
0.0
 49
0.0
140
0.0
141
0.0
142
1.0
143
1.0
 70
0
 72
1
 73
0
 74
0
  7

 75
0
147
1.0
148
0.0
149
0.0
100
AcDbLayout
  1
Layout1
 70
0
 71
1
 10
0.0
 20
0.0
 11
297.0
 21
210.0
 12
0.0
 22
0.0
 32
0.0
 14
0.0
 24
0.0
 34
0.0
 15
0.0
 25
0.0
 35
0.0
146
0.0
 13
0.0
 23
0.0
 33
0.0
 16
1.0
 26
0.0
 36
0.0
 17
0.0
 27
1.0
 37
0.0
 76
0
330
212
345
0
346
0
  0
ENDSEC
  0
EOF
