  0
SECTION
  2
HEADER
  9
$ACADVER
  1
AC1015
  9
$DWGCODEPAGE
  3
ANSI_1252
  9
$EXTMAX
 10
297.0
 20
210.0
 30
0.0
  9
$EXTMIN
 10
0.0
 20
0.0
 30
0.0
  9
$LIMMIN
 10
0.0
 20
0.0
  9
$LIMMAX
 10
297.0
 20
210.0
  9
$VIEWCTR
 10
148.5
 20
105.0
  9
$VIEWSIZE
 40
210.0
  9
$CLAYER
  8
0
  9
$LTSCALE
 40
16.335
  9
$CELTYPE
  6
BYLAYER
  9
$DIMSCALE
 40
1.0
  9
$DIMASZ
 40
3.0
  9
$DIMEXO
 40
1.85625
  9
$DIMDLI
 40
11.286
  9
$DIMEXE
 40
5.346
  9
$DIMCEN
 40
2.673
  9
$DIMLFAC
 40
1.0
  9
$DIMBLK
  1
_FILLED
  9
$DIMTXT
 40
3.0
  9
$DIMTOL
 70
1
  9
$DIMLIM
 70
0
  9
$DIMTFAC
 40
1.0
  9
$DIMTP
 40
0.01
  9
$DIMTM
 40
0.01
  9
$PDMODE
 70
3
  9
$PDSIZE
 40
3.0
  9
$HANDSEED
  5
8DD
  9
$TILEMODE
 70
1
  9
$MEASUREMENT
 70
1
  9
$INSUNITS
 70
4
  0
ENDSEC
  0
SECTION
  2
CLASSES
  0
CLASS
  1
ACDBDICTIONARYWDFLT
  2
AcDbDictionaryWithDefault
  3
AutoCAD 2000
 90
0
280
0
281
0
  0
CLASS
  1
ACDBPLACEHOLDER
  2
AcDbPlaceHolder
  3
AutoCAD 2000
 90
0
280
0
281
0
  0
CLASS
  1
LAYOUT
  2
AcDbLayout
  3
AutoCAD 2000
 90
0
280
0
281
0
  0
ENDSEC
  0
SECTION
  2
TABLES
  0
TABLE
  2
VPORT
  5
8
100
AcDbSymbolTable
 70
2
  0
VPORT
  5
1F4
100
AcDbSymbolTableRecord
100
AcDbViewportTableRecord
  2
*ACTIVE
 70
0
 10
0.0
 20
0.0
 11
1.0
 21
1.0
 12
148.5
 22
105.0
 13
0.0
 23
0.0
 14
1.0
 24
1.0
 15
0.0
 25
0.0
 16
0.0
 26
0.0
 36
1.0
 17
0.0
 27
0.0
 37
0.0
 40
210.0
 41
1.4142857143
 42
50.0
 43
0.0
 44
0.0
 50
0.0
 51
0.0
 71
0
 72
100
 73
1
 74
1
 75
0
 76
0
 77
0
 78
0
  0
ENDTAB
  0
TABLE
  2
LTYPE
  5
5
100
AcDbSymbolTable
 70
6
  0
LTYPE
  5
14
100
AcDbSymbolTableRecord
100
AcDbLinetypeTableRecord
  2
BYBLOCK
 70
0
  3

 72
65
 73
0
 40
0.0
  0
LTYPE
  5
15
100
AcDbSymbolTableRecord
100
AcDbLinetypeTableRecord
  2
BYLAYER
 70
0
  3

 72
65
 73
0
 40
0.0
  0
LTYPE
  5
16
100
AcDbSymbolTableRecord
100
AcDbLinetypeTableRecord
  2
CONTINUOUS
 70
64
  3
Solid line
 72
65
 73
0
 40
0.0
  0
LTYPE
  5
1F5
100
AcDbSymbolTableRecord
100
AcDbLinetypeTableRecord
  2
CENTER
 70
64
  3
____ _ ____ _ ____ _ ____ _ ____ _ ____ _ ____
 72
65
 73
4
 40
0.6
 49
0.375
 74
0
 49
-0.075
 74
0
 49
0.075
 74
0
 49
-0.075
 74
0
  0
LTYPE
  5
1F6
100
AcDbSymbolTableRecord
100
AcDbLinetypeTableRecord
  2
HIDDEN
 70
64
  3
- - - - - - - - - - - - - - - - - - - -
 72
65
 73
2
 40
0.2
 49
0.1
 74
0
 49
-0.1
 74
0
  0
LTYPE
  5
1F7
100
AcDbSymbolTableRecord
100
AcDbLinetypeTableRecord
  2
PHANTOM
 70
64
  3
_____ _ _ _____ _ _ _____ _ _ _____
 72
65
 73
6
 40
0.8
 49
0.45
 74
0
 49
-0.05
 74
0
 49
0.1
 74
0
 49
-0.05
 74
0
 49
0.1
 74
0
 49
-0.05
 74
0
  0
LTYPE
  5
1F8
100
AcDbSymbolTableRecord
100
AcDbLinetypeTableRecord
  2
DOT
 70
64
  3
. . . . . . . . . . . . . . . . . . . .
 72
65
 73
2
 40
0.2
 49
0.1
 74
0
 49
-0.1
 74
0
  0
LTYPE
  5
1F9
100
AcDbSymbolTableRecord
100
AcDbLinetypeTableRecord
  2
DASHED
 70
64
  3
- - - - - - - - - - - - - - - - - - - -
 72
65
 73
2
 40
0.2
 49
0.1
 74
0
 49
-0.1
 74
0
  0
ENDTAB
  0
TABLE
  2
LAYER
  5
2
100
AcDbSymbolTable
 70
36
  0
LAYER
  5
10
100
AcDbSymbolTableRecord
100
AcDbLayerTableRecord
  2
0
 70
0
 62
7
  6
CONTINUOUS
370
-3
390
F
  0
LAYER
  5
1FA
100
AcDbSymbolTableRecord
100
AcDbLayerTableRecord
  2
DEFAULT_1
 70
0
 62
7
  6
CENTER
370
-3
390
F
  0
LAYER
  5
1FB
100
AcDbSymbolTableRecord
100
AcDbLayerTableRecord
  2
DEFAULT_2
 70
0
 62
7
  6
HIDDEN
370
-3
390
F
  0
LAYER
  5
1FC
100
AcDbSymbolTableRecord
100
AcDbLayerTableRecord
  2
DEFAULT_3
 70
0
 62
7
  6
PHANTOM
370
-3
390
F
  0
LAYER
  5
1FD
100
AcDbSymbolTableRecord
100
AcDbLayerTableRecord
  2
ASSI
 70
0
 62
7
  6
CONTINUOUS
370
-3
390
F
  0
LAYER
  5
1FE
100
AcDbSymbolTableRecord
100
AcDbLayerTableRecord
  2
COORDINATE
 70
0
 62
7
  6
CONTINUOUS
370
-3
390
F
  0
LAYER
  5
1FF
100
AcDbSymbolTableRecord
100
AcDbLayerTableRecord
  2
COORD_ORIGINE
 70
0
 62
7
  6
CONTINUOUS
370
-3
390
F
  0
LAYER
  5
200
100
AcDbSymbolTableRecord
100
AcDbLayerTableRecord
  2
CURVE
 70
0
 62
7
  6
CONTINUOUS
370
-3
390
F
  0
LAYER
  5
201
100
AcDbSymbolTableRecord
100
AcDbLayerTableRecord
  2
DRAFT
 70
0
 62
7
  6
CONTINUOUS
370
-3
390
F
  0
LAYER
  5
202
100
AcDbSymbolTableRecord
100
AcDbLayerTableRecord
  2
NOTE
 70
0
 62
7
  6
CONTINUOUS
370
-3
390
F
  0
LAYER
  5
203
100
AcDbSymbolTableRecord
100
AcDbLayerTableRecord
  2
PIANI
 70
0
 62
7
  6
CONTINUOUS
370
-3
390
F
  0
LAYER
  5
204
100
AcDbSymbolTableRecord
100
AcDbLayerTableRecord
  2
PIANI_ORIGINE
 70
0
 62
7
  6
CONTINUOUS
370
-3
390
F
  0
LAYER
  5
205
100
AcDbSymbolTableRecord
100
AcDbLayerTableRecord
  2
PIANI_RIFERIMENTO
 70
0
 62
7
  6
CONTINUOUS
370
-3
390
F
  0
LAYER
  5
206
100
AcDbSymbolTableRecord
100
AcDbLayerTableRecord
  2
PUNTI
 70
0
 62
7
  6
CONTINUOUS
370
-3
390
F
  0
LAYER
  5
207
100
AcDbSymbolTableRecord
100
AcDbLayerTableRecord
  2
RACCORDO
 70
0
 62
7
  6
CONTINUOUS
370
-3
390
F
  0
LAYER
  5
208
100
AcDbSymbolTableRecord
100
AcDbLayerTableRecord
  2
SMUSSO
 70
0
 62
7
  6
CONTINUOUS
370
-3
390
F
  0
LAYER
  5
209
100
AcDbSymbolTableRecord
100
AcDbLayerTableRecord
  2
SNAPLINE
 70
0
 62
7
  6
CONTINUOUS
370
-3
390
F
  0
LAYER
  5
20A
100
AcDbSymbolTableRecord
100
AcDbLayerTableRecord
  2
SUPERFICI
 70
0
 62
7
  6
CONTINUOUS
370
-3
390
F
  0
LAYER
  5
20B
100
AcDbSymbolTableRecord
100
AcDbLayerTableRecord
  2
TRASH
 70
0
 62
7
  6
CONTINUOUS
370
-3
390
F
  0
LAYER
  5
20C
100
AcDbSymbolTableRecord
100
AcDbLayerTableRecord
  2
XSEC_DATUMS
 70
0
 62
7
  6
CONTINUOUS
370
-3
390
F
  0
ENDTAB
  0
TABLE
  2
STYLE
  5
3
100
AcDbSymbolTable
 70
1
  0
STYLE
  5
11
100
AcDbSymbolTableRecord
100
AcDbTextStyleTableRecord
  2
STANDARD
 70
0
 40
0.0
 41
0.8
 50
0.0
 71
0
 42
0.2
  3
txt
  4

  0
STYLE
  5
20D
100
AcDbSymbolTableRecord
100
AcDbTextStyleTableRecord
  2
TEXTSTYLE_1
 70
0
 40
0.0
 41
0.8
 50
0.0
 71
0
 42
0.2
  3
gdt
  4

  0
ENDTAB
  0
TABLE
  2
VIEW
  5
6
100
AcDbSymbolTable
 70
0
  0
ENDTAB
  0
TABLE
  2
UCS
  5
7
100
AcDbSymbolTable
 70
0
  0
ENDTAB
  0
TABLE
  2
APPID
  5
9
100
AcDbSymbolTable
 70
1
  0
APPID
  5
20E
100
AcDbSymbolTableRecord
100
AcDbRegAppTableRecord
  2
ACAD
 70
0
  0
ENDTAB
  0
TABLE
  2
BLOCK_RECORD
  5
1
100
AcDbSymbolTable
 70
0
  0
BLOCK_RECORD
  5
20F
100
AcDbSymbolTableRecord
100
AcDbBlockTableRecord
  2
*Model_Space
  0
BLOCK_RECORD
  5
210
100
AcDbSymbolTableRecord
100
AcDbBlockTableRecord
  2
*Paper_Space
  0
ENDTAB
  0
TABLE
  2
DIMSTYLE
  5
A
100
AcDbSymbolTable
 70
1
100
AcDbDimStyleTable
 71
0
  0
DIMSTYLE
105
211
100
AcDbSymbolTableRecord
100
AcDbDimStyleTableRecord
  2
STANDARD
 70
0
  3

  4

 40
1.0
 41
3.0
 42
0.0625
 43
0.38
 44
0.18
 45
0.0
 46
0.0
 47
0.01
 48
0.01
140
3.0
141
0.09
142
0.0
143
25.4
144
1.0
145
0.0
146
1.0
147
0.09
 71
1.0
 72
0.0
 73
0
 74
0
 75
0
 76
0
 77
1
 78
8
170
0
171
2
172
0
173
0
174
0
175
0
176
0
177
0
178
0
270
2
271
2
272
2
273
2
274
2
275
0
280
0
281
0
282
0
283
1
284
8
285
0
286
0
287
3
288
0
340
11
  0
ENDTAB
  0
ENDSEC
  0
SECTION
  2
BLOCKS
  0
BLOCK
  5
20
100
AcDbEntity
  8
0
100
AcDbBlockBegin
  2
*Model_Space
 70
0
 10
0.0
 20
0.0
 30
0.0
  3
*Model_Space
  1

  0
ENDBLK
  5
21
100
AcDbEntity
  8
0
100
AcDbBlockEnd
  0
BLOCK
  5
1C
100
AcDbEntity
  8
0
100
AcDbBlockBegin
  2
*Paper_Space
 70
0
 10
0.0
 20
0.0
 30
0.0
  3
*Paper_Space
  1

  0
ENDBLK
  5
1D
100
AcDbEntity
  8
0
100
AcDbBlockEnd
  0
ENDSEC
  0
SECTION
  2
ENTITIES
  0
LINE
  5
212
100
AcDbEntity
  8
SMUSSO
100
AcDbLine
 62
7
  6
CONTINUOUS
 10
-20.85
 20
20.1990396502
 11
-20.1498936624
 21
20.9
  0
LINE
  5
213
100
AcDbEntity
  8
0
100
AcDbLine
 62
7
  6
CONTINUOUS
 10
-20.85
 20
20.1990396502
 11
-20.1498936624
 21
20.9
  0
LINE
  5
214
100
AcDbEntity
  8
DRAFT
100
AcDbLine
 62
7
  6
CONTINUOUS
 10
-18.5558178298
 20
22.3441821702
 11
-19.5
 21
21.4
  0
LINE
  5
215
100
AcDbEntity
  8
0
100
AcDbLine
 62
7
  6
CONTINUOUS
 10
-18.5558178298
 20
22.3441821702
 11
-19.5
 21
21.4
  0
LINE
  5
216
100
AcDbEntity
  8
DRAFT
100
AcDbLine
 62
7
  6
CONTINUOUS
 10
-22.3412731322
 20
18.5587268678
 11
-21.4
 21
19.5
  0
LINE
  5
217
100
AcDbEntity
  8
0
100
AcDbLine
 62
7
  6
CONTINUOUS
 10
-22.3412731322
 20
18.5587268678
 11
-21.4
 21
19.5
  0
LINE
  5
218
100
AcDbEntity
  8
ASSI
100
AcDbLine
 62
7
  6
CONTINUOUS
 10
-14.75
 20
23.8
 11
-14.8067703336
 21
23.7659383532
  0
LINE
  5
219
100
AcDbEntity
  8
0
100
AcDbLine
 62
7
  6
CONTINUOUS
 10
-14.75
 20
23.8
 11
-14.8067703336
 21
23.7659383532
  0
LINE
  5
21A
100
AcDbEntity
  8
ASSI
100
AcDbLine
 62
7
  6
CONTINUOUS
 10
-19.3165695018
 20
20.9917082642
 11
-19.5
 21
20.9
  0
LINE
  5
21B
100
AcDbEntity
  8
0
100
AcDbLine
 62
7
  6
CONTINUOUS
 10
-19.3165695018
 20
20.9917082642
 11
-19.5
 21
20.9
  0
LINE
  5
21C
100
AcDbEntity
  8
ASSI
100
AcDbLine
 62
7
  6
CONTINUOUS
 10
-19.3165695018
 20
-20.9917082642
 11
-19.5
 21
-20.9
  0
LINE
  5
21D
100
AcDbEntity
  8
0
100
AcDbLine
 62
7
  6
CONTINUOUS
 10
-19.3165695018
 20
-20.9917082642
 11
-19.5
 21
-20.9
  0
LINE
  5
21E
100
AcDbEntity
  8
ASSI
100
AcDbLine
 62
7
  6
CONTINUOUS
 10
-14.75
 20
-23.8
 11
-14.8067703336
 21
-23.7659383532
  0
LINE
  5
21F
100
AcDbEntity
  8
0
100
AcDbLine
 62
7
  6
CONTINUOUS
 10
-14.75
 20
-23.8
 11
-14.8067703336
 21
-23.7659383532
  0
LINE
  5
220
100
AcDbEntity
  8
DRAFT
100
AcDbLine
 62
7
  6
CONTINUOUS
 10
-22.3412731322
 20
-18.5587268678
 11
-21.4
 21
-19.5
  0
LINE
  5
221
100
AcDbEntity
  8
0
100
AcDbLine
 62
7
  6
CONTINUOUS
 10
-22.3412731322
 20
-18.5587268678
 11
-21.4
 21
-19.5
  0
LINE
  5
222
100
AcDbEntity
  8
DRAFT
100
AcDbLine
 62
7
  6
CONTINUOUS
 10
-18.5558178298
 20
-22.3441821702
 11
-19.5
 21
-21.4
  0
LINE
  5
223
100
AcDbEntity
  8
0
100
AcDbLine
 62
7
  6
CONTINUOUS
 10
-18.5558178298
 20
-22.3441821702
 11
-19.5
 21
-21.4
  0
LINE
  5
224
100
AcDbEntity
  8
SMUSSO
100
AcDbLine
 62
7
  6
CONTINUOUS
 10
-20.85
 20
-20.1990396502
 11
-20.1498936624
 21
-20.9
  0
LINE
  5
225
100
AcDbEntity
  8
0
100
AcDbLine
 62
7
  6
CONTINUOUS
 10
-20.85
 20
-20.1990396502
 11
-20.1498936624
 21
-20.9
  0
LINE
  5
226
100
AcDbEntity
  8
DRAFT
100
AcDbLine
 62
7
  6
CONTINUOUS
 10
-22.3849101299
 20
-18.1473460386
 11
-22.35
 21
-18.5
  0
LINE
  5
227
100
AcDbEntity
  8
0
100
AcDbLine
 62
7
  6
CONTINUOUS
 10
-22.3849101299
 20
-18.1473460386
 11
-22.35
 21
-18.5
  0
LINE
  5
228
100
AcDbEntity
  8
DRAFT
100
AcDbLine
 62
7
  6
CONTINUOUS
 10
-22.35
 20
18.5
 11
-22.3849101299
 21
18.1473460386
  0
LINE
  5
229
100
AcDbEntity
  8
0
100
AcDbLine
 62
7
  6
CONTINUOUS
 10
-22.35
 20
18.5
 11
-22.3849101299
 21
18.1473460386
  0
LINE
  5
22A
100
AcDbEntity
  8
DRAFT
100
AcDbLine
 62
7
  6
CONTINUOUS
 10
-14.25
 20
21.7
 11
-14.3262444645
 21
21.6237555355
  0
LINE
  5
22B
100
AcDbEntity
  8
0
100
AcDbLine
 62
7
  6
CONTINUOUS
 10
-14.25
 20
21.7
 11
-14.3262444645
 21
21.6237555355
  0
LINE
  5
22C
100
AcDbEntity
  8
RACCORDO
100
AcDbLine
 62
7
  6
CONTINUOUS
 10
-14.75
 20
22.3441821702
 11
-14.8075937104
 21
22.3057869048
  0
LINE
  5
22D
100
AcDbEntity
  8
0
100
AcDbLine
 62
7
  6
CONTINUOUS
 10
-14.75
 20
22.3441821702
 11
-14.8075937104
 21
22.3057869048
  0
LINE
  5
22E
100
AcDbEntity
  8
DRAFT
100
AcDbLine
 62
7
  6
CONTINUOUS
 10
-14.3373194485
 20
22.2859700255
 11
-14.25
 21
22.3441821702
  0
LINE
  5
22F
100
AcDbEntity
  8
0
100
AcDbLine
 62
7
  6
CONTINUOUS
 10
-14.3373194485
 20
22.2859700255
 11
-14.25
 21
22.3441821702
  0
LINE
  5
230
100
AcDbEntity
  8
ASSI
100
AcDbLine
 62
7
  6
CONTINUOUS
 10
-19.3165695018
 20
21.4537354271
 11
-19.5
 21
21.4
  0
LINE
  5
231
100
AcDbEntity
  8
0
100
AcDbLine
 62
7
  6
CONTINUOUS
 10
-19.3165695018
 20
21.4537354271
 11
-19.5
 21
21.4
  0
LINE
  5
232
100
AcDbEntity
  8
RACCORDO
100
AcDbLine
 62
7
  6
CONTINUOUS
 10
-21.1500034269
 20
-24.5
 11
-18.7499965731
 21
-24.5
  0
LINE
  5
233
100
AcDbEntity
  8
0
100
AcDbLine
 62
7
  6
CONTINUOUS
 10
-21.1500034269
 20
-24.5
 11
-18.7499965731
 21
-24.5
  0
LINE
  5
234
100
AcDbEntity
  8
RACCORDO
100
AcDbLine
 62
7
  6
CONTINUOUS
 10
21.1500034269
 20
-24.5
 11
18.7499965731
 21
-24.5
  0
LINE
  5
235
100
AcDbEntity
  8
0
100
AcDbLine
 62
7
  6
CONTINUOUS
 10
21.1500034269
 20
-24.5
 11
18.7499965731
 21
-24.5
  0
LINE
  5
236
100
AcDbEntity
  8
RACCORDO
100
AcDbLine
 62
7
  6
CONTINUOUS
 10
1.3499965731
 20
-24.5
 11
3.7500034269
 21
-24.5
  0
LINE
  5
237
100
AcDbEntity
  8
0
100
AcDbLine
 62
7
  6
CONTINUOUS
 10
1.3499965731
 20
-24.5
 11
3.7500034269
 21
-24.5
  0
LINE
  5
238
100
AcDbEntity
  8
RACCORDO
100
AcDbLine
 62
7
  6
CONTINUOUS
 10
-1.3499965731
 20
-24.5
 11
-3.7500034269
 21
-24.5
  0
LINE
  5
239
100
AcDbEntity
  8
0
100
AcDbLine
 62
7
  6
CONTINUOUS
 10
-1.3499965731
 20
-24.5
 11
-3.7500034269
 21
-24.5
  0
LINE
  5
23A
100
AcDbEntity
  8
RACCORDO
100
AcDbLine
 62
7
  6
CONTINUOUS
 10
-15.65
 20
-24.0
 11
-12.449998477
 21
-24.0
  0
LINE
  5
23B
100
AcDbEntity
  8
0
100
AcDbLine
 62
7
  6
CONTINUOUS
 10
-15.65
 20
-24.0
 11
-12.449998477
 21
-24.0
  0
LINE
  5
23C
100
AcDbEntity
  8
RACCORDO
100
AcDbLine
 62
7
  6
CONTINUOUS
 10
-10.050001523
 20
-24.0
 11
-6.85
 21
-24.0
  0
LINE
  5
23D
100
AcDbEntity
  8
0
100
AcDbLine
 62
7
  6
CONTINUOUS
 10
-10.050001523
 20
-24.0
 11
-6.85
 21
-24.0
  0
LINE
  5
23E
100
AcDbEntity
  8
RACCORDO
100
AcDbLine
 62
7
  6
CONTINUOUS
 10
6.85
 20
-24.0
 11
10.050001523
 21
-24.0
  0
LINE
  5
23F
100
AcDbEntity
  8
0
100
AcDbLine
 62
7
  6
CONTINUOUS
 10
6.85
 20
-24.0
 11
10.050001523
 21
-24.0
  0
LINE
  5
240
100
AcDbEntity
  8
RACCORDO
100
AcDbLine
 62
7
  6
CONTINUOUS
 10
12.449998477
 20
-24.0
 11
15.65
 21
-24.0
  0
LINE
  5
241
100
AcDbEntity
  8
0
100
AcDbLine
 62
7
  6
CONTINUOUS
 10
12.449998477
 20
-24.0
 11
15.65
 21
-24.0
  0
LINE
  5
242
100
AcDbEntity
  8
DRAFT
100
AcDbLine
 62
7
  6
CONTINUOUS
 10
-21.4
 20
-23.8
 11
-18.5
 21
-23.8
  0
LINE
  5
243
100
AcDbEntity
  8
0
100
AcDbLine
 62
7
  6
CONTINUOUS
 10
-21.4
 20
-23.8
 11
-18.5
 21
-23.8
  0
LINE
  5
244
100
AcDbEntity
  8
DRAFT
100
AcDbLine
 62
7
  6
CONTINUOUS
 10
21.4
 20
-23.8
 11
18.5
 21
-23.8
  0
LINE
  5
245
100
AcDbEntity
  8
0
100
AcDbLine
 62
7
  6
CONTINUOUS
 10
21.4
 20
-23.8
 11
18.5
 21
-23.8
  0
LINE
  5
246
100
AcDbEntity
  8
DRAFT
100
AcDbLine
 62
7
  6
CONTINUOUS
 10
-15.65
 20
-23.8
 11
-14.75
 21
-23.8
  0
LINE
  5
247
100
AcDbEntity
  8
0
100
AcDbLine
 62
7
  6
CONTINUOUS
 10
-15.65
 20
-23.8
 11
-14.75
 21
-23.8
  0
LINE
  5
248
100
AcDbEntity
  8
DRAFT
100
AcDbLine
 62
7
  6
CONTINUOUS
 10
-7.75
 20
-23.8
 11
-6.85
 21
-23.8
  0
LINE
  5
249
100
AcDbEntity
  8
0
100
AcDbLine
 62
7
  6
CONTINUOUS
 10
-7.75
 20
-23.8
 11
-6.85
 21
-23.8
  0
LINE
  5
24A
100
AcDbEntity
  8
DRAFT
100
AcDbLine
 62
7
  6
CONTINUOUS
 10
1.1
 20
-23.8
 11
4.0
 21
-23.8
  0
LINE
  5
24B
100
AcDbEntity
  8
0
100
AcDbLine
 62
7
  6
CONTINUOUS
 10
1.1
 20
-23.8
 11
4.0
 21
-23.8
  0
LINE
  5
24C
100
AcDbEntity
  8
DRAFT
100
AcDbLine
 62
7
  6
CONTINUOUS
 10
-1.1
 20
-23.8
 11
-4.0
 21
-23.8
  0
LINE
  5
24D
100
AcDbEntity
  8
0
100
AcDbLine
 62
7
  6
CONTINUOUS
 10
-1.1
 20
-23.8
 11
-4.0
 21
-23.8
  0
LINE
  5
24E
100
AcDbEntity
  8
DRAFT
100
AcDbLine
 62
7
  6
CONTINUOUS
 10
6.85
 20
-23.8
 11
7.75
 21
-23.8
  0
LINE
  5
24F
100
AcDbEntity
  8
0
100
AcDbLine
 62
7
  6
CONTINUOUS
 10
6.85
 20
-23.8
 11
7.75
 21
-23.8
  0
LINE
  5
250
100
AcDbEntity
  8
DRAFT
100
AcDbLine
 62
7
  6
CONTINUOUS
 10
14.75
 20
-23.8
 11
15.65
 21
-23.8
  0
LINE
  5
251
100
AcDbEntity
  8
0
100
AcDbLine
 62
7
  6
CONTINUOUS
 10
14.75
 20
-23.8
 11
15.65
 21
-23.8
  0
LINE
  5
252
100
AcDbEntity
  8
ASSI
100
AcDbLine
 62
7
  6
CONTINUOUS
 10
-15.6159383532
 20
-23.7659383532
 11
-14.8067703336
 21
-23.7659383532
  0
LINE
  5
253
100
AcDbEntity
  8
0
100
AcDbLine
 62
7
  6
CONTINUOUS
 10
-15.6159383532
 20
-23.7659383532
 11
-14.8067703336
 21
-23.7659383532
  0
LINE
  5
254
100
AcDbEntity
  8
ASSI
100
AcDbLine
 62
7
  6
CONTINUOUS
 10
-7.6932296664
 20
-23.7659383532
 11
-6.8840616468
 21
-23.7659383532
  0
LINE
  5
255
100
AcDbEntity
  8
0
100
AcDbLine
 62
7
  6
CONTINUOUS
 10
-7.6932296664
 20
-23.7659383532
 11
-6.8840616468
 21
-23.7659383532
  0
LINE
  5
256
100
AcDbEntity
  8
ASSI
100
AcDbLine
 62
7
  6
CONTINUOUS
 10
6.8840616468
 20
-23.7659383532
 11
7.6932296664
 21
-23.7659383532
  0
LINE
  5
257
100
AcDbEntity
  8
0
100
AcDbLine
 62
7
  6
CONTINUOUS
 10
6.8840616468
 20
-23.7659383532
 11
7.6932296664
 21
-23.7659383532
  0
LINE
  5
258
100
AcDbEntity
  8
ASSI
100
AcDbLine
 62
7
  6
CONTINUOUS
 10
14.8067703336
 20
-23.7659383532
 11
15.6159383532
 21
-23.7659383532
  0
LINE
  5
259
100
AcDbEntity
  8
0
100
AcDbLine
 62
7
  6
CONTINUOUS
 10
14.8067703336
 20
-23.7659383532
 11
15.6159383532
 21
-23.7659383532
  0
LINE
  5
25A
100
AcDbEntity
  8
ASSI
100
AcDbLine
 62
7
  6
CONTINUOUS
 10
-19.3165695018
 20
-21.4537354271
 11
-19.5
 21
-21.4
  0
LINE
  5
25B
100
AcDbEntity
  8
0
100
AcDbLine
 62
7
  6
CONTINUOUS
 10
-19.3165695018
 20
-21.4537354271
 11
-19.5
 21
-21.4
  0
LINE
  5
25C
100
AcDbEntity
  8
RACCORDO
100
AcDbLine
 62
7
  6
CONTINUOUS
 10
-14.75
 20
-22.3441821702
 11
-14.8075937104
 21
-22.3057869048
  0
LINE
  5
25D
100
AcDbEntity
  8
0
100
AcDbLine
 62
7
  6
CONTINUOUS
 10
-14.75
 20
-22.3441821702
 11
-14.8075937104
 21
-22.3057869048
  0
LINE
  5
25E
100
AcDbEntity
  8
DRAFT
100
AcDbLine
 62
7
  6
CONTINUOUS
 10
-14.3373194485
 20
-22.2859700255
 11
-14.25
 21
-22.3441821702
  0
LINE
  5
25F
100
AcDbEntity
  8
0
100
AcDbLine
 62
7
  6
CONTINUOUS
 10
-14.3373194485
 20
-22.2859700255
 11
-14.25
 21
-22.3441821702
  0
LINE
  5
260
100
AcDbEntity
  8
DRAFT
100
AcDbLine
 62
7
  6
CONTINUOUS
 10
-14.25
 20
-21.7
 11
-14.3262444645
 21
-21.6237555355
  0
LINE
  5
261
100
AcDbEntity
  8
0
100
AcDbLine
 62
7
  6
CONTINUOUS
 10
-14.25
 20
-21.7
 11
-14.3262444645
 21
-21.6237555355
  0
LINE
  5
262
100
AcDbEntity
  8
DRAFT
100
AcDbLine
 62
7
  6
CONTINUOUS
 10
-22.35
 20
18.5
 11
-22.3325462644
 21
18.1473460386
  0
LINE
  5
263
100
AcDbEntity
  8
0
100
AcDbLine
 62
7
  6
CONTINUOUS
 10
-22.35
 20
18.5
 11
-22.3325462644
 21
18.1473460386
  0
LINE
  5
264
100
AcDbEntity
  8
DRAFT
100
AcDbLine
 62
7
  6
CONTINUOUS
 10
-21.4
 20
23.8
 11
-21.3947639644
 21
23.2226497308
  0
LINE
  5
265
100
AcDbEntity
  8
0
100
AcDbLine
 62
7
  6
CONTINUOUS
 10
-21.4
 20
23.8
 11
-21.3947639644
 21
23.2226497308
  0
LINE
  5
266
100
AcDbEntity
  8
DRAFT
100
AcDbLine
 62
7
  6
CONTINUOUS
 10
-22.3849101299
 20
18.1473460386
 11
-22.3849101299
 21
-18.1473460386
  0
LINE
  5
267
100
AcDbEntity
  8
0
100
AcDbLine
 62
7
  6
CONTINUOUS
 10
-22.3849101299
 20
18.1473460386
 11
-22.3849101299
 21
-18.1473460386
  0
LINE
  5
268
100
AcDbEntity
  8
RACCORDO
100
AcDbLine
 62
7
  6
CONTINUOUS
 10
-22.35
 20
21.850016923
 11
-22.35
 21
18.5
  0
LINE
  5
269
100
AcDbEntity
  8
0
100
AcDbLine
 62
7
  6
CONTINUOUS
 10
-22.35
 20
21.850016923
 11
-22.35
 21
18.5
  0
LINE
  5
26A
100
AcDbEntity
  8
RACCORDO
100
AcDbLine
 62
7
  6
CONTINUOUS
 10
-22.35
 20
-21.850016923
 11
-22.35
 21
-18.5
  0
LINE
  5
26B
100
AcDbEntity
  8
0
100
AcDbLine
 62
7
  6
CONTINUOUS
 10
-22.35
 20
-21.850016923
 11
-22.35
 21
-18.5
  0
LINE
  5
26C
100
AcDbEntity
  8
RACCORDO
100
AcDbLine
 62
7
  6
CONTINUOUS
 10
-22.3412731322
 20
21.8441990932
 11
-22.3412731322
 21
18.5587268678
  0
LINE
  5
26D
100
AcDbEntity
  8
0
100
AcDbLine
 62
7
  6
CONTINUOUS
 10
-22.3412731322
 20
21.8441990932
 11
-22.3412731322
 21
18.5587268678
  0
LINE
  5
26E
100
AcDbEntity
  8
RACCORDO
100
AcDbLine
 62
7
  6
CONTINUOUS
 10
-22.3412731322
 20
-18.5587268678
 11
-22.3412731322
 21
-21.8441990932
  0
LINE
  5
26F
100
AcDbEntity
  8
0
100
AcDbLine
 62
7
  6
CONTINUOUS
 10
-22.3412731322
 20
-18.5587268678
 11
-22.3412731322
 21
-21.8441990932
  0
LINE
  5
270
100
AcDbEntity
  8
DRAFT
100
AcDbLine
 62
7
  6
CONTINUOUS
 10
-22.3325462644
 20
18.5674537356
 11
-22.3325462644
 21
18.1473460386
  0
LINE
  5
271
100
AcDbEntity
  8
0
100
AcDbLine
 62
7
  6
CONTINUOUS
 10
-22.3325462644
 20
18.5674537356
 11
-22.3325462644
 21
18.1473460386
  0
LINE
  5
272
100
AcDbEntity
  8
DRAFT
100
AcDbLine
 62
7
  6
CONTINUOUS
 10
-22.3325462644
 20
-18.1473460386
 11
-22.3325462644
 21
-18.5674537356
  0
LINE
  5
273
100
AcDbEntity
  8
0
100
AcDbLine
 62
7
  6
CONTINUOUS
 10
-22.3325462644
 20
-18.1473460386
 11
-22.3325462644
 21
-18.5674537356
  0
LINE
  5
274
100
AcDbEntity
  8
RACCORDO
100
AcDbLine
 62
7
  6
CONTINUOUS
 10
-21.4
 20
24.2500034269
 11
-21.4
 21
23.8
  0
LINE
  5
275
100
AcDbEntity
  8
0
100
AcDbLine
 62
7
  6
CONTINUOUS
 10
-21.4
 20
24.2500034269
 11
-21.4
 21
23.8
  0
LINE
  5
276
100
AcDbEntity
  8
RACCORDO
100
AcDbLine
 62
7
  6
CONTINUOUS
 10
-21.4
 20
-23.8
 11
-21.4
 21
-24.2500034269
  0
LINE
  5
277
100
AcDbEntity
  8
0
100
AcDbLine
 62
7
  6
CONTINUOUS
 10
-21.4
 20
-23.8
 11
-21.4
 21
-24.2500034269
  0
LINE
  5
278
100
AcDbEntity
  8
DRAFT
100
AcDbLine
 62
7
  6
CONTINUOUS
 10
-21.3947639644
 20
23.2226497308
 11
-21.3947639644
 21
22.35
  0
LINE
  5
279
100
AcDbEntity
  8
0
100
AcDbLine
 62
7
  6
CONTINUOUS
 10
-21.3947639644
 20
23.2226497308
 11
-21.3947639644
 21
22.35
  0
LINE
  5
27A
100
AcDbEntity
  8
DRAFT
100
AcDbLine
 62
7
  6
CONTINUOUS
 10
-21.3947639644
 20
-22.35
 11
-21.3947639644
 21
-23.2226497308
  0
LINE
  5
27B
100
AcDbEntity
  8
0
100
AcDbLine
 62
7
  6
CONTINUOUS
 10
-21.3947639644
 20
-22.35
 11
-21.3947639644
 21
-23.2226497308
  0
LINE
  5
27C
100
AcDbEntity
  8
DRAFT
100
AcDbLine
 62
7
  6
CONTINUOUS
 10
-20.8674550649
 20
-19.5
 11
-20.8674550649
 21
19.5
  0
LINE
  5
27D
100
AcDbEntity
  8
0
100
AcDbLine
 62
7
  6
CONTINUOUS
 10
-20.8674550649
 20
-19.5
 11
-20.8674550649
 21
19.5
  0
LINE
  5
27E
100
AcDbEntity
  8
SMUSSO
100
AcDbLine
 62
7
  6
CONTINUOUS
 10
-20.85
 20
20.1990396502
 11
-20.85
 21
19.5
  0
LINE
  5
27F
100
AcDbEntity
  8
0
100
AcDbLine
 62
7
  6
CONTINUOUS
 10
-20.85
 20
20.1990396502
 11
-20.85
 21
19.5
  0
LINE
  5
280
100
AcDbEntity
  8
SMUSSO
100
AcDbLine
 62
7
  6
CONTINUOUS
 10
-20.85
 20
-19.5
 11
-20.85
 21
-20.1990396502
  0
LINE
  5
281
100
AcDbEntity
  8
0
100
AcDbLine
 62
7
  6
CONTINUOUS
 10
-20.85
 20
-19.5
 11
-20.85
 21
-20.1990396502
  0
LINE
  5
282
100
AcDbEntity
  8
DRAFT
100
AcDbLine
 62
7
  6
CONTINUOUS
 10
-20.7155960001
 20
-12.5
 11
-20.7155960001
 21
12.5
  0
LINE
  5
283
100
AcDbEntity
  8
0
100
AcDbLine
 62
7
  6
CONTINUOUS
 10
-20.7155960001
 20
-12.5
 11
-20.7155960001
 21
12.5
  0
LINE
  5
284
100
AcDbEntity
  8
0
100
AcDbLine
 62
7
  6
CONTINUOUS
 10
-20.4
 20
12.0
 11
-20.4
 21
-12.0
  0
LINE
  5
285
100
AcDbEntity
  8
0
100
AcDbLine
 62
7
  6
CONTINUOUS
 10
-19.799125
 20
0.0
 11
-19.799125
 21
-0.48124
  0
LINE
  5
286
100
AcDbEntity
  8
0
100
AcDbLine
 62
7
  6
CONTINUOUS
 10
-19.799125
 20
-1.772049
 11
-19.799125
 21
-2.260495
  0
LINE
  5
287
100
AcDbEntity
  8
0
100
AcDbLine
 62
7
  6
CONTINUOUS
 10
-19.799125
 20
-5.455546
 11
-19.799125
 21
-6.125823
  0
LINE
  5
288
100
AcDbEntity
  8
0
100
AcDbLine
 62
7
  6
CONTINUOUS
 10
-19.799125
 20
-7.366753
 11
-19.799125
 21
-7.866647
  0
LINE
  5
289
100
AcDbEntity
  8
0
100
AcDbLine
 62
7
  6
CONTINUOUS
 10
-19.799125
 20
-8.461146
 11
-19.799125
 21
-8.961061
  0
LINE
  5
28A
100
AcDbEntity
  8
0
100
AcDbLine
 62
7
  6
CONTINUOUS
 10
-19.799125
 20
-9.573513
 11
-19.799125
 21
-11.55178
  0
LINE
  5
28B
100
AcDbEntity
  8
0
100
AcDbLine
 62
7
  6
CONTINUOUS
 10
-19.5
 20
9.875
 11
-19.5
 21
9.7083330154
  0
LINE
  5
28C
100
AcDbEntity
  8
0
100
AcDbLine
 62
7
  6
CONTINUOUS
 10
-19.5
 20
8.25
 11
-19.5
 21
8.0
  0
LINE
  5
28D
100
AcDbEntity
  8
0
100
AcDbLine
 62
7
  6
CONTINUOUS
 10
-19.5
 20
2.375
 11
-19.5
 21
2.2083333135
  0
LINE
  5
28E
100
AcDbEntity
  8
DRAFT
100
AcDbLine
 62
7
  6
CONTINUOUS
 10
-19.5
 20
-21.4
 11
-19.5
 21
-20.9
  0
LINE
  5
28F
100
AcDbEntity
  8
0
100
AcDbLine
 62
7
  6
CONTINUOUS
 10
-19.5
 20
-21.4
 11
-19.5
 21
-20.9
  0
LINE
  5
290
100
AcDbEntity
  8
DRAFT
100
AcDbLine
 62
7
  6
CONTINUOUS
 10
-19.5
 20
20.9
 11
-19.5
 21
21.4
  0
LINE
  5
291
100
AcDbEntity
  8
0
100
AcDbLine
 62
7
  6
CONTINUOUS
 10
-19.5
 20
20.9
 11
-19.5
 21
21.4
  0
LINE
  5
292
100
AcDbEntity
  8
0
100
AcDbLine
 62
7
  6
CONTINUOUS
 10
-19.354877
 20
-11.051895
 11
-19.354872
 21
-9.573513
  0
LINE
  5
293
100
AcDbEntity
  8
DRAFT
100
AcDbLine
 62
7
  6
CONTINUOUS
 10
-21.3947639644
 20
-23.2226497308
 11
-21.4
 21
-23.8
  0
LINE
  5
294
100
AcDbEntity
  8
0
100
AcDbLine
 62
7
  6
CONTINUOUS
 10
-21.3947639644
 20
-23.2226497308
 11
-21.4
 21
-23.8
  0
LINE
  5
295
100
AcDbEntity
  8
DRAFT
100
AcDbLine
 62
7
  6
CONTINUOUS
 10
-22.3325462644
 20
-18.1473460386
 11
-22.35
 21
-18.5
  0
LINE
  5
296
100
AcDbEntity
  8
0
100
AcDbLine
 62
7
  6
CONTINUOUS
 10
-22.3325462644
 20
-18.1473460386
 11
-22.35
 21
-18.5
  0
LINE
  5
297
100
AcDbEntity
  8
0
100
AcDbLine
 62
7
  6
CONTINUOUS
 10
-19.4574468136
 20
10.125
 11
-19.5
 21
9.875
  0
LINE
  5
298
100
AcDbEntity
  8
0
100
AcDbLine
 62
7
  6
CONTINUOUS
 10
-19.4574468136
 20
6.1666665077
 11
-19.5
 21
5.9166665077
  0
LINE
  5
299
100
AcDbEntity
  8
0
100
AcDbLine
 62
7
  6
CONTINUOUS
 10
-19.4574468136
 20
4.3333332539
 11
-19.5
 21
4.0833332539
  0
LINE
  5
29A
100
AcDbEntity
  8
0
100
AcDbLine
 62
7
  6
CONTINUOUS
 10
-19.4574468136
 20
2.625
 11
-19.5
 21
2.375
  0
LINE
  5
29B
100
AcDbEntity
  8
0
100
AcDbLine
 62
7
  6
CONTINUOUS
 10
-19.2872340679
 20
9.8333330154
 11
-19.2446808815
 21
10.0416669846
  0
LINE
  5
29C
100
AcDbEntity
  8
0
100
AcDbLine
 62
7
  6
CONTINUOUS
 10
-19.2872340679
 20
5.9166665077
 11
-19.2446808815
 21
6.125
  0
LINE
  5
29D
100
AcDbEntity
  8
0
100
AcDbLine
 62
7
  6
CONTINUOUS
 10
-19.2872340679
 20
4.0833332539
 11
-19.2446808815
 21
4.2916667461
  0
LINE
  5
29E
100
AcDbEntity
  8
0
100
AcDbLine
 62
7
  6
CONTINUOUS
 10
-19.2872340679
 20
2.3333333135
 11
-19.2446808815
 21
2.5416666269
  0
LINE
  5
29F
100
AcDbEntity
  8
0
100
AcDbLine
 62
7
  6
CONTINUOUS
 10
-19.3723404408
 20
10.2916669846
 11
-19.4574468136
 21
10.125
  0
LINE
  5
2A0
100
AcDbEntity
  8
0
100
AcDbLine
 62
7
  6
CONTINUOUS
 10
-19.3297872543
 20
6.375
 11
-19.4574468136
 21
6.1666665077
  0
LINE
  5
2A1
100
AcDbEntity
  8
0
100
AcDbLine
 62
7
  6
CONTINUOUS
 10
-19.2446808815
 20
10.0416669846
 11
-19.1595745087
 21
10.1666669846
  0
LINE
  5
2A2
100
AcDbEntity
  8
0
100
AcDbLine
 62
7
  6
CONTINUOUS
 10
-19.2446808815
 20
6.125
 11
-19.1595745087
 21
6.25
  0
LINE
  5
2A3
100
AcDbEntity
  8
RACCORDO
100
AcDbLine
 62
7
  6
CONTINUOUS
 10
-6.8845482821
 20
22.3057951078
 11
-6.8447639644
 21
22.35
  0
LINE
  5
2A4
100
AcDbEntity
  8
0
100
AcDbLine
 62
7
  6
CONTINUOUS
 10
-6.8845482821
 20
22.3057951078
 11
-6.8447639644
 21
22.35
  0
LINE
  5
2A5
100
AcDbEntity
  8
ASSI
100
AcDbLine
 62
7
  6
CONTINUOUS
 10
-6.8840616468
 20
23.7659383532
 11
-6.85
 21
23.8
  0
LINE
  5
2A6
100
AcDbEntity
  8
0
100
AcDbLine
 62
7
  6
CONTINUOUS
 10
-6.8840616468
 20
23.7659383532
 11
-6.85
 21
23.8
  0
LINE
  5
2A7
100
AcDbEntity
  8
DRAFT
100
AcDbLine
 62
7
  6
CONTINUOUS
 10
-15.2262038896
 20
12.4737961104
 11
-15.2
 21
12.5
  0
LINE
  5
2A8
100
AcDbEntity
  8
0
100
AcDbLine
 62
7
  6
CONTINUOUS
 10
-19.2021276951
 20
10.4583330154
 11
-19.3723404408
 21
10.2916669846
  0
LINE
  5
2A9
100
AcDbEntity
  8
ASSI
100
AcDbLine
 62
7
  6
CONTINUOUS
 10
3.1834304982
 20
21.4537354271
 11
3.0174550649
 21
21.4051134101
  0
LINE
  5
2AA
100
AcDbEntity
  8
0
100
AcDbLine
 62
7
  6
CONTINUOUS
 10
3.1834304982
 20
21.4537354271
 11
3.0174550649
 21
21.4051134101
  0
LINE
  5
2AB
100
AcDbEntity
  8
DRAFT
100
AcDbLine
 62
7
  6
CONTINUOUS
 10
-21.3947639644
 20
-23.2226497308
 11
-18.5052360356
 21
-23.2226497308
  0
LINE
  5
2AC
100
AcDbEntity
  8
0
100
AcDbLine
 62
7
  6
CONTINUOUS
 10
-21.3947639644
 20
-23.2226497308
 11
-18.5052360356
 21
-23.2226497308
  0
LINE
  5
2AD
100
AcDbEntity
  8
DRAFT
100
AcDbLine
 62
7
  6
CONTINUOUS
 10
21.3947639644
 20
-23.2226497308
 11
18.5052360356
 21
-23.2226497308
  0
LINE
  5
2AE
100
AcDbEntity
  8
0
100
AcDbLine
 62
7
  6
CONTINUOUS
 10
21.3947639644
 20
-23.2226497308
 11
18.5052360356
 21
-23.2226497308
  0
LINE
  5
2AF
100
AcDbEntity
  8
DRAFT
100
AcDbLine
 62
7
  6
CONTINUOUS
 10
1.1052360356
 20
-23.2226497308
 11
3.9947639644
 21
-23.2226497308
  0
LINE
  5
2B0
100
AcDbEntity
  8
0
100
AcDbLine
 62
7
  6
CONTINUOUS
 10
1.1052360356
 20
-23.2226497308
 11
3.9947639644
 21
-23.2226497308
  0
LINE
  5
2B1
100
AcDbEntity
  8
DRAFT
100
AcDbLine
 62
7
  6
CONTINUOUS
 10
-1.1052360356
 20
-23.2226497308
 11
-3.9947639644
 21
-23.2226497308
  0
LINE
  5
2B2
100
AcDbEntity
  8
0
100
AcDbLine
 62
7
  6
CONTINUOUS
 10
-1.1052360356
 20
-23.2226497308
 11
-3.9947639644
 21
-23.2226497308
  0
LINE
  5
2B3
100
AcDbEntity
  8
DRAFT
100
AcDbLine
 62
7
  6
CONTINUOUS
 10
-12.25
 20
-22.4024077793
 11
-10.25
 21
-22.4024077793
  0
LINE
  5
2B4
100
AcDbEntity
  8
0
100
AcDbLine
 62
7
  6
CONTINUOUS
 10
-12.25
 20
-22.4024077793
 11
-10.25
 21
-22.4024077793
  0
LINE
  5
2B5
100
AcDbEntity
  8
DRAFT
100
AcDbLine
 62
7
  6
CONTINUOUS
 10
10.25
 20
-22.4024077793
 11
12.25
 21
-22.4024077793
  0
LINE
  5
2B6
100
AcDbEntity
  8
0
100
AcDbLine
 62
7
  6
CONTINUOUS
 10
10.25
 20
-22.4024077793
 11
12.25
 21
-22.4024077793
  0
LINE
  5
2B7
100
AcDbEntity
  8
DRAFT
100
AcDbLine
 62
7
  6
CONTINUOUS
 10
-21.8503805997
 20
-22.35
 11
-15.6552360356
 21
-22.35
  0
LINE
  5
2B8
100
AcDbEntity
  8
0
100
AcDbLine
 62
7
  6
CONTINUOUS
 10
-21.8503805997
 20
-22.35
 11
-15.6552360356
 21
-22.35
  0
LINE
  5
2B9
100
AcDbEntity
  8
DRAFT
100
AcDbLine
 62
7
  6
CONTINUOUS
 10
-6.8447639644
 20
-22.35
 11
6.8447639644
 21
-22.35
  0
LINE
  5
2BA
100
AcDbEntity
  8
0
100
AcDbLine
 62
7
  6
CONTINUOUS
 10
-6.8447639644
 20
-22.35
 11
6.8447639644
 21
-22.35
  0
LINE
  5
2BB
100
AcDbEntity
  8
DRAFT
100
AcDbLine
 62
7
  6
CONTINUOUS
 10
15.6552360356
 20
-22.35
 11
21.8503805997
 21
-22.35
  0
LINE
  5
2BC
100
AcDbEntity
  8
0
100
AcDbLine
 62
7
  6
CONTINUOUS
 10
15.6552360356
 20
-22.35
 11
21.8503805997
 21
-22.35
  0
LINE
  5
2BD
100
AcDbEntity
  8
RACCORDO
100
AcDbLine
 62
7
  6
CONTINUOUS
 10
-21.8412794783
 20
-22.3441821702
 11
-18.5558178298
 21
-22.3441821702
  0
LINE
  5
2BE
100
AcDbEntity
  8
0
100
AcDbLine
 62
7
  6
CONTINUOUS
 10
-21.8412794783
 20
-22.3441821702
 11
-18.5558178298
 21
-22.3441821702
  0
LINE
  5
2BF
100
AcDbEntity
  8
DRAFT
100
AcDbLine
 62
7
  6
CONTINUOUS
 10
-14.75
 20
-22.3441821702
 11
-14.25
 21
-22.3441821702
  0
LINE
  5
2C0
100
AcDbEntity
  8
0
100
AcDbLine
 62
7
  6
CONTINUOUS
 10
-14.75
 20
-22.3441821702
 11
-14.25
 21
-22.3441821702
  0
LINE
  5
2C1
100
AcDbEntity
  8
DRAFT
100
AcDbLine
 62
7
  6
CONTINUOUS
 10
-8.25
 20
-22.3441821702
 11
-7.75
 21
-22.3441821702
  0
LINE
  5
2C2
100
AcDbEntity
  8
0
100
AcDbLine
 62
7
  6
CONTINUOUS
 10
-8.25
 20
-22.3441821702
 11
-7.75
 21
-22.3441821702
  0
LINE
  5
2C3
100
AcDbEntity
  8
DRAFT
100
AcDbLine
 62
7
  6
CONTINUOUS
 10
7.75
 20
-22.3441821702
 11
8.25
 21
-22.3441821702
  0
LINE
  5
2C4
100
AcDbEntity
  8
0
100
AcDbLine
 62
7
  6
CONTINUOUS
 10
7.75
 20
-22.3441821702
 11
8.25
 21
-22.3441821702
  0
LINE
  5
2C5
100
AcDbEntity
  8
DRAFT
100
AcDbLine
 62
7
  6
CONTINUOUS
 10
14.25
 20
-22.3441821702
 11
14.75
 21
-22.3441821702
  0
LINE
  5
2C6
100
AcDbEntity
  8
0
100
AcDbLine
 62
7
  6
CONTINUOUS
 10
14.25
 20
-22.3441821702
 11
14.75
 21
-22.3441821702
  0
LINE
  5
2C7
100
AcDbEntity
  8
RACCORDO
100
AcDbLine
 62
7
  6
CONTINUOUS
 10
18.5558178298
 20
-22.3441821702
 11
21.8412794783
 21
-22.3441821702
  0
LINE
  5
2C8
100
AcDbEntity
  8
0
100
AcDbLine
 62
7
  6
CONTINUOUS
 10
18.5558178298
 20
-22.3441821702
 11
21.8412794783
 21
-22.3441821702
  0
LINE
  5
2C9
100
AcDbEntity
  8
DRAFT
100
AcDbLine
 62
7
  6
CONTINUOUS
 10
3.9507059952
 20
-22.3383643404
 11
-3.9507059952
 21
-22.3383643404
  0
LINE
  5
2CA
100
AcDbEntity
  8
0
100
AcDbLine
 62
7
  6
CONTINUOUS
 10
3.9507059952
 20
-22.3383643404
 11
-3.9507059952
 21
-22.3383643404
  0
LINE
  5
2CB
100
AcDbEntity
  8
DRAFT
100
AcDbLine
 62
253
  6
CONTINUOUS
 10
-18.4905416262
 20
-22.2859700255
 11
-14.3373194485
 21
-22.2859700255
  0
LINE
  5
2CC
100
AcDbEntity
  8
0
100
AcDbLine
 62
253
  6
CONTINUOUS
 10
-18.4905416262
 20
-22.2859700255
 11
-14.3373194485
 21
-22.2859700255
  0
LINE
  5
2CD
100
AcDbEntity
  8
DRAFT
100
AcDbLine
 62
253
  6
CONTINUOUS
 10
-8.1626805515
 20
-22.2859700255
 11
-4.0094583738
 21
-22.2859700255
  0
LINE
  5
2CE
100
AcDbEntity
  8
0
100
AcDbLine
 62
253
  6
CONTINUOUS
 10
-8.1626805515
 20
-22.2859700255
 11
-4.0094583738
 21
-22.2859700255
  0
LINE
  5
2CF
100
AcDbEntity
  8
DRAFT
100
AcDbLine
 62
253
  6
CONTINUOUS
 10
4.0094583738
 20
-22.2859700255
 11
8.1626805515
 21
-22.2859700255
  0
LINE
  5
2D0
100
AcDbEntity
  8
0
100
AcDbLine
 62
253
  6
CONTINUOUS
 10
4.0094583738
 20
-22.2859700255
 11
8.1626805515
 21
-22.2859700255
  0
LINE
  5
2D1
100
AcDbEntity
  8
DRAFT
100
AcDbLine
 62
253
  6
CONTINUOUS
 10
14.3373194485
 20
-22.2859700255
 11
18.4905416262
 21
-22.2859700255
  0
LINE
  5
2D2
100
AcDbEntity
  8
0
100
AcDbLine
 62
253
  6
CONTINUOUS
 10
14.3373194485
 20
-22.2859700255
 11
18.4905416262
 21
-22.2859700255
  0
LINE
  5
2D3
100
AcDbEntity
  8
DRAFT
100
AcDbLine
 62
7
  6
CONTINUOUS
 10
8.25
 20
-21.7
 11
14.25
 21
-21.7
  0
LINE
  5
2D4
100
AcDbEntity
  8
0
100
AcDbLine
 62
7
  6
CONTINUOUS
 10
8.25
 20
-21.7
 11
14.25
 21
-21.7
  0
LINE
  5
2D5
100
AcDbEntity
  8
DRAFT
100
AcDbLine
 62
7
  6
CONTINUOUS
 10
-8.25
 20
-21.7
 11
-14.25
 21
-21.7
  0
LINE
  5
2D6
100
AcDbEntity
  8
0
100
AcDbLine
 62
7
  6
CONTINUOUS
 10
-8.25
 20
-21.7
 11
-14.25
 21
-21.7
  0
LINE
  5
2D7
100
AcDbEntity
  8
DRAFT
100
AcDbLine
 62
7
  6
CONTINUOUS
 10
14.3262444645
 20
-21.6237555355
 11
8.1737555355
 21
-21.6237555355
  0
LINE
  5
2D8
100
AcDbEntity
  8
0
100
AcDbLine
 62
7
  6
CONTINUOUS
 10
14.3262444645
 20
-21.6237555355
 11
8.1737555355
 21
-21.6237555355
  0
LINE
  5
2D9
100
AcDbEntity
  8
DRAFT
100
AcDbLine
 62
7
  6
CONTINUOUS
 10
-8.1737555355
 20
-21.6237555355
 11
-14.3262444645
 21
-21.6237555355
  0
LINE
  5
2DA
100
AcDbEntity
  8
0
100
AcDbLine
 62
7
  6
CONTINUOUS
 10
-8.1737555355
 20
-21.6237555355
 11
-14.3262444645
 21
-21.6237555355
  0
LINE
  5
2DB
100
AcDbEntity
  8
DRAFT
100
AcDbLine
 62
253
  6
CONTINUOUS
 10
-18.8166456542
 20
-21.2859869487
 11
-14.3459955457
 21
-21.2859869487
  0
LINE
  5
2DC
100
AcDbEntity
  8
0
100
AcDbLine
 62
253
  6
CONTINUOUS
 10
-18.8166456542
 20
-21.2859869487
 11
-14.3459955457
 21
-21.2859869487
  0
LINE
  5
2DD
100
AcDbEntity
  8
DRAFT
100
AcDbLine
 62
253
  6
CONTINUOUS
 10
-8.1540044543
 20
-21.2859869487
 11
-3.6833543458
 21
-21.2859869487
  0
LINE
  5
2DE
100
AcDbEntity
  8
0
100
AcDbLine
 62
253
  6
CONTINUOUS
 10
-8.1540044543
 20
-21.2859869487
 11
-3.6833543458
 21
-21.2859869487
  0
LINE
  5
2DF
100
AcDbEntity
  8
DRAFT
100
AcDbLine
 62
253
  6
CONTINUOUS
 10
3.6833543458
 20
-21.2859869487
 11
8.1540044543
 21
-21.2859869487
  0
LINE
  5
2E0
100
AcDbEntity
  8
0
100
AcDbLine
 62
253
  6
CONTINUOUS
 10
3.6833543458
 20
-21.2859869487
 11
8.1540044543
 21
-21.2859869487
  0
LINE
  5
2E1
100
AcDbEntity
  8
DRAFT
100
AcDbLine
 62
253
  6
CONTINUOUS
 10
14.3459955457
 20
-21.2859869487
 11
18.8166456542
 21
-21.2859869487
  0
LINE
  5
2E2
100
AcDbEntity
  8
0
100
AcDbLine
 62
253
  6
CONTINUOUS
 10
14.3459955457
 20
-21.2859869487
 11
18.8166456542
 21
-21.2859869487
  0
LINE
  5
2E3
100
AcDbEntity
  8
ASSI
100
AcDbLine
 62
7
  6
CONTINUOUS
 10
-18.8166456542
 20
-20.9959955457
 11
-18.55
 21
-20.9959955457
  0
LINE
  5
2E4
100
AcDbEntity
  8
ASSI
100
AcDbLine
 62
7
  6
CONTINUOUS
 10
18.8166456542
 20
-20.9959955457
 11
18.55
 21
-20.9959955457
  0
LINE
  5
2E5
100
AcDbEntity
  8
DRAFT
100
AcDbLine
 62
7
  6
CONTINUOUS
 10
18.8166456542
 20
-20.9959955457
 11
18.55
 21
-20.9959955457
  0
LINE
  5
2E6
100
AcDbEntity
  8
DRAFT
100
AcDbLine
 62
7
  6
CONTINUOUS
 10
3.95
 20
-20.9959955457
 11
3.6833543458
 21
-20.9959955457
  0
LINE
  5
2E7
100
AcDbEntity
  8
ASSI
100
AcDbLine
 62
7
  6
CONTINUOUS
 10
3.6833543458
 20
-20.9959955457
 11
3.95
 21
-20.9959955457
  0
LINE
  5
2E8
100
AcDbEntity
  8
ASSI
100
AcDbLine
 62
7
  6
CONTINUOUS
 10
-3.6833543458
 20
-20.9959955457
 11
-3.95
 21
-20.9959955457
  0
LINE
  5
2E9
100
AcDbEntity
  8
DRAFT
100
AcDbLine
 62
7
  6
CONTINUOUS
 10
-3.6833543458
 20
-20.9959955457
 11
-3.95
 21
-20.9959955457
  0
LINE
  5
2EA
100
AcDbEntity
  8
DRAFT
100
AcDbLine
 62
7
  6
CONTINUOUS
 10
-18.55
 20
-20.9959955457
 11
-18.8166456542
 21
-20.9959955457
  0
LINE
  5
2EB
100
AcDbEntity
  8
DRAFT
100
AcDbLine
 62
7
  6
CONTINUOUS
 10
-3.0174550649
 20
-20.9087268678
 11
3.0174550649
 21
-20.9087268678
  0
LINE
  5
2EC
100
AcDbEntity
  8
0
100
AcDbLine
 62
7
  6
CONTINUOUS
 10
-3.0174550649
 20
-20.9087268678
 11
3.0174550649
 21
-20.9087268678
  0
LINE
  5
2ED
100
AcDbEntity
  8
SMUSSO
100
AcDbLine
 62
7
  6
CONTINUOUS
 10
-20.1498936624
 20
-20.9
 11
-19.5
 21
-20.9
  0
LINE
  5
2EE
100
AcDbEntity
  8
0
100
AcDbLine
 62
7
  6
CONTINUOUS
 10
-20.1498936624
 20
-20.9
 11
-19.5
 21
-20.9
  0
LINE
  5
2EF
100
AcDbEntity
  8
DRAFT
100
AcDbLine
 62
7
  6
CONTINUOUS
 10
-19.5
 20
-20.9
 11
-18.55
 21
-20.9
  0
LINE
  5
2F0
100
AcDbEntity
  8
DRAFT
100
AcDbLine
 62
7
  6
CONTINUOUS
 10
-3.95
 20
-20.9
 11
3.95
 21
-20.9
  0
LINE
  5
2F1
100
AcDbEntity
  8
DRAFT
100
AcDbLine
 62
7
  6
CONTINUOUS
 10
18.55
 20
-20.9
 11
19.5
 21
-20.9
  0
LINE
  5
2F2
100
AcDbEntity
  8
SMUSSO
100
AcDbLine
 62
7
  6
CONTINUOUS
 10
19.5
 20
-20.9
 11
20.1498936624
 21
-20.9
  0
LINE
  5
2F3
100
AcDbEntity
  8
0
100
AcDbLine
 62
7
  6
CONTINUOUS
 10
19.5
 20
-20.9
 11
20.1498936624
 21
-20.9
  0
LINE
  5
2F4
100
AcDbEntity
  8
DRAFT
100
AcDbLine
 62
7
  6
CONTINUOUS
 10
-14.3459955457
 20
-20.8
 11
-8.1540044543
 21
-20.8
  0
LINE
  5
2F5
100
AcDbEntity
  8
0
100
AcDbLine
 62
7
  6
CONTINUOUS
 10
-14.3459955457
 20
-20.8
 11
-8.1540044543
 21
-20.8
  0
LINE
  5
2F6
100
AcDbEntity
  8
DRAFT
100
AcDbLine
 62
7
  6
CONTINUOUS
 10
8.1540044543
 20
-20.8
 11
14.3459955457
 21
-20.8
  0
LINE
  5
2F7
100
AcDbEntity
  8
0
100
AcDbLine
 62
7
  6
CONTINUOUS
 10
8.1540044543
 20
-20.8
 11
14.3459955457
 21
-20.8
  0
LINE
  5
2F8
100
AcDbEntity
  8
DRAFT
100
AcDbLine
 62
7
  6
CONTINUOUS
 10
-20.0293058381
 20
-20.5379423332
 11
-18.55
 21
-20.5379423332
  0
LINE
  5
2F9
100
AcDbEntity
  8
SMUSSO
100
AcDbLine
 62
7
  6
CONTINUOUS
 10
20.0293058381
 20
-20.5379423332
 11
18.55
 21
-20.5379423332
  0
LINE
  5
2FA
100
AcDbEntity
  8
DRAFT
100
AcDbLine
 62
7
  6
CONTINUOUS
 10
-3.95
 20
-20.5379423332
 11
3.95
 21
-20.5379423332
  0
LINE
  5
2FB
100
AcDbEntity
  8
0
100
AcDbLine
 62
7
  6
CONTINUOUS
 10
3.95
 20
-20.5379423332
 11
-3.95
 21
-20.5379423332
  0
LINE
  5
2FC
100
AcDbEntity
  8
DRAFT
100
AcDbLine
 62
7
  6
CONTINUOUS
 10
18.55
 20
-20.5379423332
 11
20.0293058381
 21
-20.5379423332
  0
LINE
  5
2FD
100
AcDbEntity
  8
SMUSSO
100
AcDbLine
 62
7
  6
CONTINUOUS
 10
-18.55
 20
-20.5379423332
 11
-20.0293058381
 21
-20.5379423332
  0
LINE
  5
2FE
100
AcDbEntity
  8
0
100
AcDbLine
 62
7
  6
CONTINUOUS
 10
-17.75
 20
-20.0
 11
-4.75
 21
-20.0
  0
LINE
  5
2FF
100
AcDbEntity
  8
0
100
AcDbLine
 62
7
  6
CONTINUOUS
 10
4.75
 20
-20.0
 11
17.75
 21
-20.0
  0
LINE
  5
300
100
AcDbEntity
  8
0
100
AcDbLine
 62
7
  6
CONTINUOUS
 10
-18.55
 20
-19.7
 11
-17.75
 21
-19.7
  0
LINE
  5
301
100
AcDbEntity
  8
0
100
AcDbLine
 62
7
  6
CONTINUOUS
 10
-4.75
 20
-19.7
 11
-3.95
 21
-19.7
  0
LINE
  5
302
100
AcDbEntity
  8
0
100
AcDbLine
 62
7
  6
CONTINUOUS
 10
3.95
 20
-19.7
 11
4.75
 21
-19.7
  0
LINE
  5
303
100
AcDbEntity
  8
0
100
AcDbLine
 62
7
  6
CONTINUOUS
 10
17.75
 20
-19.7
 11
18.55
 21
-19.7
  0
LINE
  5
304
100
AcDbEntity
  8
DRAFT
100
AcDbLine
 62
7
  6
CONTINUOUS
 10
-4.5887391864
 20
-19.5
 11
-4.1112608136
 21
-19.5
  0
LINE
  5
305
100
AcDbEntity
  8
DRAFT
100
AcDbLine
 62
7
  6
CONTINUOUS
 10
4.5887391864
 20
-19.5
 11
4.1112608136
 21
-19.5
  0
LINE
  5
306
100
AcDbEntity
  8
DRAFT
100
AcDbLine
 62
7
  6
CONTINUOUS
 10
20.85
 20
-19.5
 11
21.4
 21
-19.5
  0
LINE
  5
307
100
AcDbEntity
  8
DRAFT
100
AcDbLine
 62
7
  6
CONTINUOUS
 10
-20.85
 20
-19.5
 11
-21.4
 21
-19.5
  0
LINE
  5
308
100
AcDbEntity
  8
0
100
AcDbLine
 62
7
  6
CONTINUOUS
 10
-20.85
 20
-19.5
 11
-21.4
 21
-19.5
  0
LINE
  5
309
100
AcDbEntity
  8
0
100
AcDbLine
 62
7
  6
CONTINUOUS
 10
20.85
 20
-19.5
 11
21.4
 21
-19.5
  0
LINE
  5
30A
100
AcDbEntity
  8
ASSI
100
AcDbLine
 62
7
  6
CONTINUOUS
 10
3.1834304982
 20
-21.4537354271
 11
3.0174550649
 21
-21.4051134101
  0
LINE
  5
30B
100
AcDbEntity
  8
0
100
AcDbLine
 62
7
  6
CONTINUOUS
 10
3.1834304982
 20
-21.4537354271
 11
3.0174550649
 21
-21.4051134101
  0
LINE
  5
30C
100
AcDbEntity
  8
ASSI
100
AcDbLine
 62
7
  6
CONTINUOUS
 10
-6.8840616468
 20
-23.7659383532
 11
-6.85
 21
-23.8
  0
LINE
  5
30D
100
AcDbEntity
  8
0
100
AcDbLine
 62
7
  6
CONTINUOUS
 10
-6.8840616468
 20
-23.7659383532
 11
-6.85
 21
-23.8
  0
LINE
  5
30E
100
AcDbEntity
  8
DRAFT
100
AcDbLine
 62
7
  6
CONTINUOUS
 10
-15.2262038896
 20
-12.4737961104
 11
-15.2
 21
-12.5
  0
LINE
  5
30F
100
AcDbEntity
  8
RACCORDO
100
AcDbLine
 62
7
  6
CONTINUOUS
 10
-6.8447639644
 20
-22.35
 11
-6.8845482821
 21
-22.3057951078
  0
LINE
  5
310
100
AcDbEntity
  8
0
100
AcDbLine
 62
7
  6
CONTINUOUS
 10
-6.8447639644
 20
-22.35
 11
-6.8845482821
 21
-22.3057951078
  0
LINE
  5
311
100
AcDbEntity
  8
DRAFT
100
AcDbLine
 62
7
  6
CONTINUOUS
 10
-18.55
 20
-15.6417138602
 11
-18.3887391864
 21
-18.9
  0
LINE
  5
312
100
AcDbEntity
  8
DRAFT
100
AcDbLine
 62
7
  6
CONTINUOUS
 10
-17.9112608136
 20
18.9
 11
-17.75
 21
15.6417138602
  0
LINE
  5
313
100
AcDbEntity
  8
DRAFT
100
AcDbLine
 62
7
  6
CONTINUOUS
 10
-18.5052360356
 20
-23.2226497308
 11
-18.5
 21
-23.8
  0
LINE
  5
314
100
AcDbEntity
  8
0
100
AcDbLine
 62
7
  6
CONTINUOUS
 10
-18.5052360356
 20
-23.2226497308
 11
-18.5
 21
-23.8
  0
LINE
  5
315
100
AcDbEntity
  8
ASSI
100
AcDbLine
 62
7
  6
CONTINUOUS
 10
-15.65
 20
-23.8
 11
-15.6532134755
 21
-23.4456668619
  0
LINE
  5
316
100
AcDbEntity
  8
0
100
AcDbLine
 62
7
  6
CONTINUOUS
 10
-15.65
 20
-23.8
 11
-15.6532134755
 21
-23.4456668619
  0
LINE
  5
317
100
AcDbEntity
  8
ASSI
100
AcDbLine
 62
253
  6
CONTINUOUS
 10
-19.3165695018
 20
-21.4537354271
 11
-19.3165695018
 21
-20.9917082642
  0
LINE
  5
318
100
AcDbEntity
  8
0
100
AcDbLine
 62
253
  6
CONTINUOUS
 10
-19.3165695018
 20
-21.4537354271
 11
-19.3165695018
 21
-20.9917082642
  0
LINE
  5
319
100
AcDbEntity
  8
ASSI
100
AcDbLine
 62
253
  6
CONTINUOUS
 10
-19.3165695018
 20
20.9917082642
 11
-19.3165695018
 21
21.4537354271
  0
LINE
  5
31A
100
AcDbEntity
  8
0
100
AcDbLine
 62
253
  6
CONTINUOUS
 10
-19.3165695018
 20
20.9917082642
 11
-19.3165695018
 21
21.4537354271
  0
LINE
  5
31B
100
AcDbEntity
  8
0
100
AcDbLine
 62
7
  6
CONTINUOUS
 10
-19.2872340679
 20
2.1666666865
 11
-19.2872340679
 21
2.3333333135
  0
LINE
  5
31C
100
AcDbEntity
  8
0
100
AcDbLine
 62
7
  6
CONTINUOUS
 10
-19.2872340679
 20
9.6666669846
 11
-19.2872340679
 21
9.8333330154
  0
LINE
  5
31D
100
AcDbEntity
  8
0
100
AcDbLine
 62
7
  6
CONTINUOUS
 10
-19.0319149494
 20
1.5416666679
 11
-19.0319149494
 21
1.75
  0
LINE
  5
31E
100
AcDbEntity
  8
0
100
AcDbLine
 62
7
  6
CONTINUOUS
 10
-19.0319149494
 20
9.0416665077
 11
-19.0319149494
 21
9.25
  0
LINE
  5
31F
100
AcDbEntity
  8
RACCORDO
100
AcDbLine
 62
253
  6
CONTINUOUS
 10
-18.8166456542
 20
-21.2859869487
 11
-18.8166456542
 21
-20.9959955457
  0
LINE
  5
320
100
AcDbEntity
  8
0
100
AcDbLine
 62
253
  6
CONTINUOUS
 10
-18.8166456542
 20
-21.2859869487
 11
-18.8166456542
 21
-20.9959955457
  0
LINE
  5
321
100
AcDbEntity
  8
RACCORDO
100
AcDbLine
 62
253
  6
CONTINUOUS
 10
-18.8166456542
 20
20.9959955457
 11
-18.8166456542
 21
21.2859869487
  0
LINE
  5
322
100
AcDbEntity
  8
0
100
AcDbLine
 62
253
  6
CONTINUOUS
 10
-18.8166456542
 20
20.9959955457
 11
-18.8166456542
 21
21.2859869487
  0
LINE
  5
323
100
AcDbEntity
  8
0
100
AcDbLine
 62
7
  6
CONTINUOUS
 10
-18.658854
 20
-9.673816
 11
-18.658864
 21
-11.051895
  0
LINE
  5
324
100
AcDbEntity
  8
DRAFT
100
AcDbLine
 62
7
  6
CONTINUOUS
 10
-18.55
 20
20.9959955457
 11
-18.55
 21
19.7
  0
LINE
  5
325
100
AcDbEntity
  8
DRAFT
100
AcDbLine
 62
7
  6
CONTINUOUS
 10
-18.55
 20
-19.7
 11
-18.55
 21
-20.9959955457
  0
LINE
  5
326
100
AcDbEntity
  8
DRAFT
100
AcDbLine
 62
7
  6
CONTINUOUS
 10
-18.5052360356
 20
23.2226497308
 11
-18.5052360356
 21
22.35
  0
LINE
  5
327
100
AcDbEntity
  8
0
100
AcDbLine
 62
7
  6
CONTINUOUS
 10
-18.5052360356
 20
23.2226497308
 11
-18.5052360356
 21
22.35
  0
LINE
  5
328
100
AcDbEntity
  8
DRAFT
100
AcDbLine
 62
7
  6
CONTINUOUS
 10
-18.5052360356
 20
-22.35
 11
-18.5052360356
 21
-23.2226497308
  0
LINE
  5
329
100
AcDbEntity
  8
0
100
AcDbLine
 62
7
  6
CONTINUOUS
 10
-18.5052360356
 20
-22.35
 11
-18.5052360356
 21
-23.2226497308
  0
LINE
  5
32A
100
AcDbEntity
  8
RACCORDO
100
AcDbLine
 62
7
  6
CONTINUOUS
 10
-18.5
 20
-24.2500034269
 11
-18.5
 21
-23.8
  0
LINE
  5
32B
100
AcDbEntity
  8
0
100
AcDbLine
 62
7
  6
CONTINUOUS
 10
-18.5
 20
-24.2500034269
 11
-18.5
 21
-23.8
  0
LINE
  5
32C
100
AcDbEntity
  8
RACCORDO
100
AcDbLine
 62
7
  6
CONTINUOUS
 10
-18.5
 20
23.8
 11
-18.5
 21
24.2500034269
  0
LINE
  5
32D
100
AcDbEntity
  8
0
100
AcDbLine
 62
7
  6
CONTINUOUS
 10
-18.5
 20
23.8
 11
-18.5
 21
24.2500034269
  0
LINE
  5
32E
100
AcDbEntity
  8
DRAFT
100
AcDbLine
 62
7
  6
CONTINUOUS
 10
-18.3887391864
 20
-19.7
 11
-18.3887391864
 21
-18.9
  0
LINE
  5
32F
100
AcDbEntity
  8
DRAFT
100
AcDbLine
 62
7
  6
CONTINUOUS
 10
-18.3887391864
 20
18.9
 11
-18.3887391864
 21
19.7
  0
LINE
  5
330
100
AcDbEntity
  8
0
100
AcDbLine
 62
7
  6
CONTINUOUS
 10
-18.3510638475
 20
8.6666665077
 11
-18.3510638475
 21
8.25
  0
LINE
  5
331
100
AcDbEntity
  8
0
100
AcDbLine
 62
7
  6
CONTINUOUS
 10
-18.3510638475
 20
8.0
 11
-18.3510638475
 21
7.2916665077
  0
LINE
  5
332
100
AcDbEntity
  8
0
100
AcDbLine
 62
7
  6
CONTINUOUS
 10
-18.214581
 20
-11.051895
 11
-18.214591
 21
-9.673816
  0
LINE
  5
333
100
AcDbEntity
  8
0
100
AcDbLine
 62
7
  6
CONTINUOUS
 10
-18.0957446694
 20
7.0
 11
-18.0957446694
 21
8.0
  0
LINE
  5
334
100
AcDbEntity
  8
0
100
AcDbLine
 62
7
  6
CONTINUOUS
 10
-18.0957446694
 20
8.25
 11
-18.0957446694
 21
8.6666665077
  0
LINE
  5
335
100
AcDbEntity
  8
DRAFT
100
AcDbLine
 62
7
  6
CONTINUOUS
 10
-17.9112608136
 20
20.1612608136
 11
-17.9112608136
 21
18.9
  0
LINE
  5
336
100
AcDbEntity
  8
DRAFT
100
AcDbLine
 62
7
  6
CONTINUOUS
 10
-17.9112608136
 20
-18.9
 11
-17.9112608136
 21
-19.7
  0
LINE
  5
337
100
AcDbEntity
  8
0
100
AcDbLine
 62
7
  6
CONTINUOUS
 10
-17.75
 20
20.0
 11
-17.75
 21
19.7
  0
LINE
  5
338
100
AcDbEntity
  8
0
100
AcDbLine
 62
7
  6
CONTINUOUS
 10
-17.75
 20
-19.7
 11
-17.75
 21
-20.0
  0
LINE
  5
339
100
AcDbEntity
  8
0
100
AcDbLine
 62
7
  6
CONTINUOUS
 10
-17.7127659619
 20
10.5
 11
-17.7127659619
 21
9.3333334923
  0
LINE
  5
33A
100
AcDbEntity
  8
0
100
AcDbLine
 62
7
  6
CONTINUOUS
 10
-17.7127659619
 20
3.0
 11
-17.7127659619
 21
1.8333333433
  0
LINE
  5
33B
100
AcDbEntity
  8
0
100
AcDbLine
 62
7
  6
CONTINUOUS
 10
-17.5
 20
1.5
 11
-17.5
 21
3.0
  0
LINE
  5
33C
100
AcDbEntity
  8
0
100
AcDbLine
 62
7
  6
CONTINUOUS
 10
-17.5
 20
8.0
 11
-17.5
 21
8.25
  0
LINE
  5
33D
100
AcDbEntity
  8
0
100
AcDbLine
 62
7
  6
CONTINUOUS
 10
-17.5
 20
9.0
 11
-17.5
 21
10.5
  0
LINE
  5
33E
100
AcDbEntity
  8
0
100
AcDbLine
 62
7
  6
CONTINUOUS
 10
-17.444253
 20
-9.562262
 11
-17.444238
 21
-11.051895
  0
LINE
  5
33F
100
AcDbEntity
  8
0
100
AcDbLine
 62
7
  6
CONTINUOUS
 10
-17.0
 20
-11.55178
 11
-17.0
 21
-9.562262
  0
LINE
  5
340
100
AcDbEntity
  8
0
100
AcDbLine
 62
7
  6
CONTINUOUS
 10
-17.0
 20
-8.961061
 11
-17.0
 21
-8.461146
  0
LINE
  5
341
100
AcDbEntity
  8
0
100
AcDbLine
 62
7
  6
CONTINUOUS
 10
-17.0
 20
-7.866647
 11
-17.0
 21
-7.366753
  0
LINE
  5
342
100
AcDbEntity
  8
0
100
AcDbLine
 62
7
  6
CONTINUOUS
 10
-17.0
 20
-6.077792
 11
-17.0
 21
-5.448948
  0
LINE
  5
343
100
AcDbEntity
  8
0
100
AcDbLine
 62
7
  6
CONTINUOUS
 10
-17.0
 20
-2.260495
 11
-17.0
 21
-1.779259
  0
LINE
  5
344
100
AcDbEntity
  8
0
100
AcDbLine
 62
7
  6
CONTINUOUS
 10
-17.0
 20
-0.499519
 11
-17.0
 21
0.0
  0
LINE
  5
345
100
AcDbEntity
  8
0
100
AcDbLine
 62
7
  6
CONTINUOUS
 10
-16.4
 20
-12.0
 11
-16.4
 21
12.0
  0
LINE
  5
346
100
AcDbEntity
  8
DRAFT
100
AcDbLine
 62
7
  6
CONTINUOUS
 10
-16.0
 20
-12.5
 11
-16.0
 21
12.5
  0
LINE
  5
347
100
AcDbEntity
  8
DRAFT
100
AcDbLine
 62
7
  6
CONTINUOUS
 10
-15.9737961104
 20
12.4737961104
 11
-15.9737961104
 21
-12.4737961104
  0
LINE
  5
348
100
AcDbEntity
  8
ASSI
100
AcDbLine
 62
7
  6
CONTINUOUS
 10
-15.6552360356
 20
-22.35
 11
-15.6552360356
 21
-22.85711136
  0
LINE
  5
349
100
AcDbEntity
  8
0
100
AcDbLine
 62
7
  6
CONTINUOUS
 10
-15.6552360356
 20
-22.35
 11
-15.6552360356
 21
-22.85711136
  0
LINE
  5
34A
100
AcDbEntity
  8
ASSI
100
AcDbLine
 62
7
  6
CONTINUOUS
 10
-15.6552360356
 20
22.35
 11
-15.6552360356
 21
22.85711136
  0
LINE
  5
34B
100
AcDbEntity
  8
0
100
AcDbLine
 62
7
  6
CONTINUOUS
 10
-15.6552360356
 20
22.35
 11
-15.6552360356
 21
22.85711136
  0
LINE
  5
34C
100
AcDbEntity
  8
DRAFT
100
AcDbLine
 62
7
  6
CONTINUOUS
 10
-15.65
 20
24.0
 11
-15.65
 21
23.8
  0
LINE
  5
34D
100
AcDbEntity
  8
0
100
AcDbLine
 62
7
  6
CONTINUOUS
 10
-15.65
 20
24.0
 11
-15.65
 21
23.8
  0
LINE
  5
34E
100
AcDbEntity
  8
DRAFT
100
AcDbLine
 62
7
  6
CONTINUOUS
 10
-15.65
 20
-23.8
 11
-15.65
 21
-24.0
  0
LINE
  5
34F
100
AcDbEntity
  8
0
100
AcDbLine
 62
7
  6
CONTINUOUS
 10
-15.65
 20
-23.8
 11
-15.65
 21
-24.0
  0
LINE
  5
350
100
AcDbEntity
  8
ASSI
100
AcDbLine
 62
7
  6
CONTINUOUS
 10
-15.6159657686
 20
23.4906890903
 11
-15.6159657686
 21
22.8093109097
  0
LINE
  5
351
100
AcDbEntity
  8
0
100
AcDbLine
 62
7
  6
CONTINUOUS
 10
-15.6159657686
 20
23.4906890903
 11
-15.6159657686
 21
22.8093109097
  0
LINE
  5
352
100
AcDbEntity
  8
ASSI
100
AcDbLine
 62
7
  6
CONTINUOUS
 10
-15.6159657686
 20
-23.4906890903
 11
-15.6159657686
 21
-22.8093109097
  0
LINE
  5
353
100
AcDbEntity
  8
0
100
AcDbLine
 62
7
  6
CONTINUOUS
 10
-15.6159657686
 20
-23.4906890903
 11
-15.6159657686
 21
-22.8093109097
  0
LINE
  5
354
100
AcDbEntity
  8
ASSI
100
AcDbLine
 62
253
  6
CONTINUOUS
 10
-15.6154517179
 20
-22.3057951078
 11
-15.6154517179
 21
-23.7562325953
  0
LINE
  5
355
100
AcDbEntity
  8
0
100
AcDbLine
 62
253
  6
CONTINUOUS
 10
-15.6154517179
 20
-22.3057951078
 11
-15.6154517179
 21
-23.7562325953
  0
LINE
  5
356
100
AcDbEntity
  8
ASSI
100
AcDbLine
 62
253
  6
CONTINUOUS
 10
-15.6154517179
 20
22.3057951078
 11
-15.6154517179
 21
23.7562325953
  0
LINE
  5
357
100
AcDbEntity
  8
0
100
AcDbLine
 62
253
  6
CONTINUOUS
 10
-15.6154517179
 20
22.3057951078
 11
-15.6154517179
 21
23.7562325953
  0
LINE
  5
358
100
AcDbEntity
  8
DRAFT
100
AcDbLine
 62
7
  6
CONTINUOUS
 10
-18.5
 20
23.8
 11
-18.5052360356
 21
23.2226497308
  0
LINE
  5
359
100
AcDbEntity
  8
0
100
AcDbLine
 62
7
  6
CONTINUOUS
 10
-18.5
 20
23.8
 11
-18.5052360356
 21
23.2226497308
  0
LINE
  5
35A
100
AcDbEntity
  8
ASSI
100
AcDbLine
 62
7
  6
CONTINUOUS
 10
-15.6532134755
 20
23.4456668619
 11
-15.65
 21
23.8
  0
LINE
  5
35B
100
AcDbEntity
  8
0
100
AcDbLine
 62
7
  6
CONTINUOUS
 10
-15.6532134755
 20
23.4456668619
 11
-15.65
 21
23.8
  0
LINE
  5
35C
100
AcDbEntity
  8
DRAFT
100
AcDbLine
 62
7
  6
CONTINUOUS
 10
-18.3887391864
 20
18.9
 11
-18.55
 21
15.6417138602
  0
LINE
  5
35D
100
AcDbEntity
  8
DRAFT
100
AcDbLine
 62
7
  6
CONTINUOUS
 10
-17.75
 20
-15.6417138602
 11
-17.9112608136
 21
-18.9
  0
LINE
  5
35E
100
AcDbEntity
  8
0
100
AcDbLine
 62
7
  6
CONTINUOUS
 10
-17.5425531901
 20
5.6666665077
 11
-17.5
 21
5.9166665077
  0
LINE
  5
35F
100
AcDbEntity
  8
0
100
AcDbLine
 62
7
  6
CONTINUOUS
 10
-17.5425531901
 20
3.8333332539
 11
-17.5
 21
4.0833332539
  0
LINE
  5
360
100
AcDbEntity
  8
0
100
AcDbLine
 62
7
  6
CONTINUOUS
 10
-17.7127659619
 20
5.9166665077
 11
-17.7553191483
 21
5.7083334923
  0
LINE
  5
361
100
AcDbEntity
  8
0
100
AcDbLine
 62
7
  6
CONTINUOUS
 10
-17.7127659619
 20
4.0833332539
 11
-17.7553191483
 21
3.875
  0
LINE
  5
362
100
AcDbEntity
  8
0
100
AcDbLine
 62
7
  6
CONTINUOUS
 10
-14.921512
 20
17.808274
 11
-15.471489
 21
15.881152
  0
LINE
  5
363
100
AcDbEntity
  8
0
100
AcDbLine
 62
7
  6
CONTINUOUS
 10
-15.23744
 20
15.008571
 11
-14.337503
 21
17.808274
  0
LINE
  5
364
100
AcDbEntity
  8
0
100
AcDbLine
 62
7
  6
CONTINUOUS
 10
-11.222249
 20
17.808274
 11
-11.806657
 21
16.25387
  0
LINE
  5
365
100
AcDbEntity
  8
0
100
AcDbLine
 62
7
  6
CONTINUOUS
 10
-11.768867
 20
15.008571
 11
-11.074006
 21
16.829103
  0
LINE
  5
366
100
AcDbEntity
  8
0
100
AcDbLine
 62
7
  6
CONTINUOUS
 10
-19.3723404408
 20
2.7916666269
 11
-19.4574468136
 21
2.625
  0
LINE
  5
367
100
AcDbEntity
  8
0
100
AcDbLine
 62
7
  6
CONTINUOUS
 10
-19.3297872543
 20
4.5416667461
 11
-19.4574468136
 21
4.3333332539
  0
LINE
  5
368
100
AcDbEntity
  8
0
100
AcDbLine
 62
7
  6
CONTINUOUS
 10
-17.6702127606
 20
5.4583332539
 11
-17.5425531901
 21
5.6666665077
  0
LINE
  5
369
100
AcDbEntity
  8
0
100
AcDbLine
 62
7
  6
CONTINUOUS
 10
-17.6702127606
 20
3.625
 11
-17.5425531901
 21
3.8333332539
  0
LINE
  5
36A
100
AcDbEntity
  8
0
100
AcDbLine
 62
7
  6
CONTINUOUS
 10
-19.2446808815
 20
4.2916667461
 11
-19.1595745087
 21
4.4166667461
  0
LINE
  5
36B
100
AcDbEntity
  8
0
100
AcDbLine
 62
7
  6
CONTINUOUS
 10
-17.7553191483
 20
5.7083334923
 11
-17.8404255211
 21
5.5833334923
  0
LINE
  5
36C
100
AcDbEntity
  8
0
100
AcDbLine
 62
7
  6
CONTINUOUS
 10
-19.2446808815
 20
2.5416666269
 11
-19.1595745087
 21
2.6666666269
  0
LINE
  5
36D
100
AcDbEntity
  8
0
100
AcDbLine
 62
7
  6
CONTINUOUS
 10
-17.7553191483
 20
3.875
 11
-17.8404255211
 21
3.75
  0
LINE
  5
36E
100
AcDbEntity
  8
DRAFT
100
AcDbLine
 62
7
  6
CONTINUOUS
 10
-4.5887391864
 20
20.1612608136
 11
-4.7456836915
 21
20.0043163085
  0
LINE
  5
36F
100
AcDbEntity
  8
0
100
AcDbLine
 62
7
  6
CONTINUOUS
 10
-19.2021276951
 20
6.5
 11
-19.3297872543
 21
6.375
  0
LINE
  5
370
100
AcDbEntity
  8
0
100
AcDbLine
 62
7
  6
CONTINUOUS
 10
-19.2021276951
 20
4.6666667461
 11
-19.3297872543
 21
4.5416667461
  0
LINE
  5
371
100
AcDbEntity
  8
0
100
AcDbLine
 62
7
  6
CONTINUOUS
 10
-17.7978723347
 20
5.3333332539
 11
-17.6702127606
 21
5.4583332539
  0
LINE
  5
372
100
AcDbEntity
  8
0
100
AcDbLine
 62
7
  6
CONTINUOUS
 10
-19.2021276951
 20
2.9583333731
 11
-19.3723404408
 21
2.7916666269
  0
LINE
  5
373
100
AcDbEntity
  8
RACCORDO
100
AcDbLine
 62
7
  6
CONTINUOUS
 10
-4.0094583738
 20
22.2859700255
 11
-3.9507059952
 21
22.3383643404
  0
LINE
  5
374
100
AcDbEntity
  8
0
100
AcDbLine
 62
7
  6
CONTINUOUS
 10
-4.0094583738
 20
22.2859700255
 11
-3.9507059952
 21
22.3383643404
  0
LINE
  5
375
100
AcDbEntity
  8
0
100
AcDbLine
 62
7
  6
CONTINUOUS
 10
-19.1595745087
 20
10.1666669846
 11
-19.0319149494
 21
10.25
  0
LINE
  5
376
100
AcDbEntity
  8
0
100
AcDbLine
 62
7
  6
CONTINUOUS
 10
-19.1595745087
 20
6.25
 11
-18.904255271
 21
6.4166665077
  0
LINE
  5
377
100
AcDbEntity
  8
ASSI
100
AcDbLine
 62
7
  6
CONTINUOUS
 10
7.6932296664
 20
23.7659383532
 11
7.75
 21
23.8
  0
LINE
  5
378
100
AcDbEntity
  8
0
100
AcDbLine
 62
7
  6
CONTINUOUS
 10
7.6932296664
 20
23.7659383532
 11
7.75
 21
23.8
  0
LINE
  5
379
100
AcDbEntity
  8
ASSI
100
AcDbLine
 62
7
  6
CONTINUOUS
 10
3.1834304982
 20
20.9917082642
 11
3.0174550649
 21
20.9087268678
  0
LINE
  5
37A
100
AcDbEntity
  8
0
100
AcDbLine
 62
7
  6
CONTINUOUS
 10
3.1834304982
 20
20.9917082642
 11
3.0174550649
 21
20.9087268678
  0
LINE
  5
37B
100
AcDbEntity
  8
DRAFT
100
AcDbLine
 62
7
  6
CONTINUOUS
 10
-18.3887391864
 20
-18.9
 11
-17.9112608136
 21
-18.9
  0
LINE
  5
37C
100
AcDbEntity
  8
DRAFT
100
AcDbLine
 62
7
  6
CONTINUOUS
 10
18.3887391864
 20
-18.9
 11
17.9112608136
 21
-18.9
  0
LINE
  5
37D
100
AcDbEntity
  8
DRAFT
100
AcDbLine
 62
7
  6
CONTINUOUS
 10
-22.3849101299
 20
-18.1473460386
 11
-22.3325462644
 21
-18.1473460386
  0
LINE
  5
37E
100
AcDbEntity
  8
DRAFT
100
AcDbLine
 62
7
  6
CONTINUOUS
 10
22.3849101299
 20
-18.1473460386
 11
22.3325462644
 21
-18.1473460386
  0
LINE
  5
37F
100
AcDbEntity
  8
0
100
AcDbLine
 62
7
  6
CONTINUOUS
 10
-22.3849101299
 20
-18.1473460386
 11
-22.3325462644
 21
-18.1473460386
  0
LINE
  5
380
100
AcDbEntity
  8
0
100
AcDbLine
 62
7
  6
CONTINUOUS
 10
22.3849101299
 20
-18.1473460386
 11
22.3325462644
 21
-18.1473460386
  0
LINE
  5
381
100
AcDbEntity
  8
ASSI
100
AcDbLine
 62
7
  6
CONTINUOUS
 10
7.458087
 20
-17.970433
 11
6.546068
 21
-17.970433
  0
LINE
  5
382
100
AcDbEntity
  8
DRAFT
100
AcDbLine
 62
7
  6
CONTINUOUS
 10
-4.7480009438
 20
-17.9033677788
 11
-3.9519990562
 21
-17.9033677788
  0
LINE
  5
383
100
AcDbEntity
  8
DRAFT
100
AcDbLine
 62
7
  6
CONTINUOUS
 10
3.9519990562
 20
-17.9033677788
 11
4.7480009438
 21
-17.9033677788
  0
LINE
  5
384
100
AcDbEntity
  8
ASSI
100
AcDbLine
 62
7
  6
CONTINUOUS
 10
6.546068
 20
-17.649006
 11
6.830922
 21
-17.649006
  0
LINE
  5
385
100
AcDbEntity
  8
ASSI
100
AcDbLine
 62
7
  6
CONTINUOUS
 10
7.173343
 20
-17.649006
 11
7.458087
 21
-17.649006
  0
LINE
  5
386
100
AcDbEntity
  8
ASSI
100
AcDbLine
 62
7
  6
CONTINUOUS
 10
16.635112
 20
-17.32696
 11
15.174611
 21
-17.32696
  0
LINE
  5
387
100
AcDbEntity
  8
ASSI
100
AcDbLine
 62
7
  6
CONTINUOUS
 10
15.174607888
 20
-16.57696
 11
16.635112
 21
-16.57696
  0
LINE
  5
388
100
AcDbEntity
  8
DRAFT
100
AcDbLine
 62
7
  6
CONTINUOUS
 10
-18.55
 20
-15.6417138602
 11
-17.75
 21
-15.6417138602
  0
LINE
  5
389
100
AcDbEntity
  8
DRAFT
100
AcDbLine
 62
7
  6
CONTINUOUS
 10
17.75
 20
-15.6417138602
 11
18.55
 21
-15.6417138602
  0
LINE
  5
38A
100
AcDbEntity
  8
ASSI
100
AcDbLine
 62
7
  6
CONTINUOUS
 10
3.1834304982
 20
-20.9917082642
 11
3.0174550649
 21
-20.9087268678
  0
LINE
  5
38B
100
AcDbEntity
  8
0
100
AcDbLine
 62
7
  6
CONTINUOUS
 10
3.1834304982
 20
-20.9917082642
 11
3.0174550649
 21
-20.9087268678
  0
LINE
  5
38C
100
AcDbEntity
  8
ASSI
100
AcDbLine
 62
7
  6
CONTINUOUS
 10
7.6932296664
 20
-23.7659383532
 11
7.75
 21
-23.8
  0
LINE
  5
38D
100
AcDbEntity
  8
0
100
AcDbLine
 62
7
  6
CONTINUOUS
 10
7.6932296664
 20
-23.7659383532
 11
7.75
 21
-23.8
  0
LINE
  5
38E
100
AcDbEntity
  8
RACCORDO
100
AcDbLine
 62
7
  6
CONTINUOUS
 10
-4.0094583738
 20
-22.2859700255
 11
-3.9507059952
 21
-22.3383643404
  0
LINE
  5
38F
100
AcDbEntity
  8
0
100
AcDbLine
 62
7
  6
CONTINUOUS
 10
-4.0094583738
 20
-22.2859700255
 11
-3.9507059952
 21
-22.3383643404
  0
LINE
  5
390
100
AcDbEntity
  8
0
100
AcDbLine
 62
7
  6
CONTINUOUS
 10
-19.799125
 20
-6.125823
 11
-18.578701
 21
-7.366763
  0
LINE
  5
391
100
AcDbEntity
  8
0
100
AcDbLine
 62
7
  6
CONTINUOUS
 10
-18.647312
 20
-6.659381
 11
-19.799125
 21
-5.455546
  0
LINE
  5
392
100
AcDbEntity
  8
0
100
AcDbLine
 62
7
  6
CONTINUOUS
 10
-17.970087
 20
-7.366763
 11
-18.303477
 21
-7.009286
  0
LINE
  5
393
100
AcDbEntity
  8
0
100
AcDbLine
 62
7
  6
CONTINUOUS
 10
-19.4574468136
 20
1.9166666567
 11
-19.3723404408
 21
1.75
  0
LINE
  5
394
100
AcDbEntity
  8
0
100
AcDbLine
 62
7
  6
CONTINUOUS
 10
-19.2446808815
 20
1.9583333433
 11
-19.2872340679
 21
2.1666666865
  0
LINE
  5
395
100
AcDbEntity
  8
0
100
AcDbLine
 62
7
  6
CONTINUOUS
 10
-19.2446808815
 20
3.875
 11
-19.2872340679
 21
4.0833332539
  0
LINE
  5
396
100
AcDbEntity
  8
0
100
AcDbLine
 62
7
  6
CONTINUOUS
 10
-19.2446808815
 20
5.7083334923
 11
-19.2872340679
 21
5.9166665077
  0
LINE
  5
397
100
AcDbEntity
  8
0
100
AcDbLine
 62
7
  6
CONTINUOUS
 10
-19.2446808815
 20
9.4583334923
 11
-19.2872340679
 21
9.6666669846
  0
LINE
  5
398
100
AcDbEntity
  8
0
100
AcDbLine
 62
7
  6
CONTINUOUS
 10
-17.7553191483
 20
4.2916667461
 11
-17.7127659619
 21
4.0833332539
  0
LINE
  5
399
100
AcDbEntity
  8
0
100
AcDbLine
 62
7
  6
CONTINUOUS
 10
-17.7553191483
 20
6.125
 11
-17.7127659619
 21
5.9166665077
  0
LINE
  5
39A
100
AcDbEntity
  8
0
100
AcDbLine
 62
7
  6
CONTINUOUS
 10
-19.5
 20
4.0833332539
 11
-19.4574468136
 21
3.8333332539
  0
LINE
  5
39B
100
AcDbEntity
  8
0
100
AcDbLine
 62
7
  6
CONTINUOUS
 10
-19.5
 20
5.9166665077
 11
-19.4574468136
 21
5.6666665077
  0
LINE
  5
39C
100
AcDbEntity
  8
0
100
AcDbLine
 62
7
  6
CONTINUOUS
 10
-17.5
 20
4.0833332539
 11
-17.5425531901
 21
4.3333332539
  0
LINE
  5
39D
100
AcDbEntity
  8
0
100
AcDbLine
 62
7
  6
CONTINUOUS
 10
-17.5
 20
5.9166665077
 11
-17.5425531901
 21
6.1666665077
  0
LINE
  5
39E
100
AcDbEntity
  8
0
100
AcDbLine
 62
7
  6
CONTINUOUS
 10
-19.5
 20
2.2083333135
 11
-19.4574468136
 21
1.9166666567
  0
LINE
  5
39F
100
AcDbEntity
  8
0
100
AcDbLine
 62
7
  6
CONTINUOUS
 10
-19.5
 20
9.7083330154
 11
-19.4574468136
 21
9.4166665077
  0
LINE
  5
3A0
100
AcDbEntity
  8
DRAFT
100
AcDbLine
 62
7
  6
CONTINUOUS
 10
-14.3262444645
 20
-21.6237555355
 11
-14.3459955457
 21
-20.8
  0
LINE
  5
3A1
100
AcDbEntity
  8
0
100
AcDbLine
 62
7
  6
CONTINUOUS
 10
-14.3262444645
 20
-21.6237555355
 11
-14.3459955457
 21
-20.8
  0
LINE
  5
3A2
100
AcDbEntity
  8
DRAFT
100
AcDbLine
 62
7
  6
CONTINUOUS
 10
-15.2262038896
 20
12.4737961104
 11
-15.2262038896
 21
4.7737961104
  0
LINE
  5
3A3
100
AcDbEntity
  8
DRAFT
100
AcDbLine
 62
7
  6
CONTINUOUS
 10
-15.2262038896
 20
-12.4737961104
 11
-15.2262038896
 21
-4.7737961104
  0
LINE
  5
3A4
100
AcDbEntity
  8
DRAFT
100
AcDbLine
 62
7
  6
CONTINUOUS
 10
-15.2262038896
 20
-4.0262038896
 11
-15.2262038896
 21
4.0262038896
  0
LINE
  5
3A5
100
AcDbEntity
  8
DRAFT
100
AcDbLine
 62
7
  6
CONTINUOUS
 10
-15.2
 20
12.5
 11
-15.2
 21
4.8
  0
LINE
  5
3A6
100
AcDbEntity
  8
DRAFT
100
AcDbLine
 62
7
  6
CONTINUOUS
 10
-15.2
 20
4.0
 11
-15.2
 21
-4.0
  0
LINE
  5
3A7
100
AcDbEntity
  8
DRAFT
100
AcDbLine
 62
7
  6
CONTINUOUS
 10
-15.2
 20
-4.8
 11
-15.2
 21
-12.5
  0
LINE
  5
3A8
100
AcDbEntity
  8
ASSI
100
AcDbLine
 62
253
  6
CONTINUOUS
 10
-14.8075937104
 20
-22.3057869048
 11
-14.8075937104
 21
-23.755948138
  0
LINE
  5
3A9
100
AcDbEntity
  8
0
100
AcDbLine
 62
253
  6
CONTINUOUS
 10
-14.8075937104
 20
-22.3057869048
 11
-14.8075937104
 21
-23.755948138
  0
LINE
  5
3AA
100
AcDbEntity
  8
ASSI
100
AcDbLine
 62
253
  6
CONTINUOUS
 10
-14.8075937104
 20
22.3057869048
 11
-14.8075937104
 21
23.755948138
  0
LINE
  5
3AB
100
AcDbEntity
  8
0
100
AcDbLine
 62
253
  6
CONTINUOUS
 10
-14.8075937104
 20
22.3057869048
 11
-14.8075937104
 21
23.755948138
  0
LINE
  5
3AC
100
AcDbEntity
  8
DRAFT
100
AcDbLine
 62
7
  6
CONTINUOUS
 10
-14.75
 20
23.8
 11
-14.75
 21
22.3441821702
  0
LINE
  5
3AD
100
AcDbEntity
  8
0
100
AcDbLine
 62
7
  6
CONTINUOUS
 10
-14.75
 20
23.8
 11
-14.75
 21
22.3441821702
  0
LINE
  5
3AE
100
AcDbEntity
  8
DRAFT
100
AcDbLine
 62
7
  6
CONTINUOUS
 10
-14.75
 20
-22.3441821702
 11
-14.75
 21
-23.8
  0
LINE
  5
3AF
100
AcDbEntity
  8
0
100
AcDbLine
 62
7
  6
CONTINUOUS
 10
-14.75
 20
-22.3441821702
 11
-14.75
 21
-23.8
  0
LINE
  5
3B0
100
AcDbEntity
  8
DRAFT
100
AcDbLine
 62
7
  6
CONTINUOUS
 10
-14.3459955457
 20
-21.2859869487
 11
-14.3459955457
 21
-20.8
  0
LINE
  5
3B1
100
AcDbEntity
  8
0
100
AcDbLine
 62
7
  6
CONTINUOUS
 10
-14.3459955457
 20
-21.2859869487
 11
-14.3459955457
 21
-20.8
  0
LINE
  5
3B2
100
AcDbEntity
  8
DRAFT
100
AcDbLine
 62
7
  6
CONTINUOUS
 10
-14.3459955457
 20
20.8
 11
-14.3459955457
 21
21.2859869487
  0
LINE
  5
3B3
100
AcDbEntity
  8
0
100
AcDbLine
 62
7
  6
CONTINUOUS
 10
-14.3459955457
 20
20.8
 11
-14.3459955457
 21
21.2859869487
  0
LINE
  5
3B4
100
AcDbEntity
  8
DRAFT
100
AcDbLine
 62
7
  6
CONTINUOUS
 10
-14.25
 20
22.3441821702
 11
-14.25
 21
21.7
  0
LINE
  5
3B5
100
AcDbEntity
  8
0
100
AcDbLine
 62
7
  6
CONTINUOUS
 10
-14.25
 20
22.3441821702
 11
-14.25
 21
21.7
  0
LINE
  5
3B6
100
AcDbEntity
  8
DRAFT
100
AcDbLine
 62
7
  6
CONTINUOUS
 10
-14.25
 20
-21.7
 11
-14.25
 21
-22.3441821702
  0
LINE
  5
3B7
100
AcDbEntity
  8
0
100
AcDbLine
 62
7
  6
CONTINUOUS
 10
-14.25
 20
-21.7
 11
-14.25
 21
-22.3441821702
  0
LINE
  5
3B8
100
AcDbEntity
  8
0
100
AcDbLine
 62
7
  6
CONTINUOUS
 10
-14.120628
 20
17.808442
 11
-14.120628
 21
15.008571
  0
LINE
  5
3B9
100
AcDbEntity
  8
0
100
AcDbLine
 62
7
  6
CONTINUOUS
 10
-13.53622
 20
15.008571
 11
-13.53622
 21
17.808442
  0
LINE
  5
3BA
100
AcDbEntity
  8
RACCORDO
100
AcDbLine
 62
7
  6
CONTINUOUS
 10
-12.25
 20
23.8000063969
 11
-12.25
 21
22.4024077793
  0
LINE
  5
3BB
100
AcDbEntity
  8
0
100
AcDbLine
 62
7
  6
CONTINUOUS
 10
-12.25
 20
23.8000063969
 11
-12.25
 21
22.4024077793
  0
LINE
  5
3BC
100
AcDbEntity
  8
RACCORDO
100
AcDbLine
 62
7
  6
CONTINUOUS
 10
-12.25
 20
-22.4024077793
 11
-12.25
 21
-23.8000063969
  0
LINE
  5
3BD
100
AcDbEntity
  8
0
100
AcDbLine
 62
7
  6
CONTINUOUS
 10
-12.25
 20
-22.4024077793
 11
-12.25
 21
-23.8000063969
  0
LINE
  5
3BE
100
AcDbEntity
  8
DRAFT
100
AcDbLine
 62
7
  6
CONTINUOUS
 10
-14.3459955457
 20
20.8
 11
-14.3262444645
 21
21.6237555355
  0
LINE
  5
3BF
100
AcDbEntity
  8
0
100
AcDbLine
 62
7
  6
CONTINUOUS
 10
-14.3459955457
 20
20.8
 11
-14.3262444645
 21
21.6237555355
  0
LINE
  5
3C0
100
AcDbEntity
  8
0
100
AcDbLine
 62
7
  6
CONTINUOUS
 10
-12.662526
 20
15.008571
 11
-12.536411
 21
16.836724
  0
LINE
  5
3C1
100
AcDbEntity
  8
0
100
AcDbLine
 62
7
  6
CONTINUOUS
 10
-12.968818
 20
17.808274
 11
-13.221615
 21
15.008571
  0
LINE
  5
3C2
100
AcDbEntity
  8
0
100
AcDbLine
 62
7
  6
CONTINUOUS
 10
-9.431592
 20
15.999981
 11
-9.140606
 21
17.038987
  0
LINE
  5
3C3
100
AcDbEntity
  8
0
100
AcDbLine
 62
7
  6
CONTINUOUS
 10
-9.712396
 20
15.008571
 11
-9.551136
 21
15.567491
  0
LINE
  5
3C4
100
AcDbEntity
  8
0
100
AcDbLine
 62
7
  6
CONTINUOUS
 10
-9.412298
 20
17.808274
 11
-10.290463
 21
15.008571
  0
LINE
  5
3C5
100
AcDbEntity
  8
SMUSSO
100
AcDbLine
 62
7
  6
CONTINUOUS
 10
-20.85
 20
-20.1990396502
 11
-20.7276785679
 21
-19.8317769306
  0
LINE
  5
3C6
100
AcDbEntity
  8
0
100
AcDbLine
 62
7
  6
CONTINUOUS
 10
-20.85
 20
-20.1990396502
 11
-20.7276785679
 21
-19.8317769306
  0
LINE
  5
3C7
100
AcDbEntity
  8
SMUSSO
100
AcDbLine
 62
7
  6
CONTINUOUS
 10
-20.1498936624
 20
-20.9
 11
-20.0293058381
 21
-20.5379423332
  0
LINE
  5
3C8
100
AcDbEntity
  8
0
100
AcDbLine
 62
7
  6
CONTINUOUS
 10
-20.1498936624
 20
-20.9
 11
-20.0293058381
 21
-20.5379423332
  0
LINE
  5
3C9
100
AcDbEntity
  8
DRAFT
100
AcDbLine
 62
7
  6
CONTINUOUS
 10
-15.2262038896
 20
4.7737961104
 11
-15.2
 21
4.8
  0
LINE
  5
3CA
100
AcDbEntity
  8
DRAFT
100
AcDbLine
 62
7
  6
CONTINUOUS
 10
3.0174550649
 20
21.4051134101
 11
3.9507059952
 21
22.3383643404
  0
LINE
  5
3CB
100
AcDbEntity
  8
0
100
AcDbLine
 62
7
  6
CONTINUOUS
 10
3.0174550649
 20
21.4051134101
 11
3.9507059952
 21
22.3383643404
  0
LINE
  5
3CC
100
AcDbEntity
  8
DRAFT
100
AcDbLine
 62
7
  6
CONTINUOUS
 10
-4.8262038896
 20
12.4737961104
 11
-4.8
 21
12.5
  0
LINE
  5
3CD
100
AcDbEntity
  8
0
100
AcDbLine
 62
7
  6
CONTINUOUS
 10
-17.7978723347
 20
3.5
 11
-17.6702127606
 21
3.625
  0
LINE
  5
3CE
100
AcDbEntity
  8
RACCORDO
100
AcDbLine
 62
7
  6
CONTINUOUS
 10
7.75
 20
22.3441821702
 11
7.6924062896
 21
22.3057869048
  0
LINE
  5
3CF
100
AcDbEntity
  8
0
100
AcDbLine
 62
7
  6
CONTINUOUS
 10
7.75
 20
22.3441821702
 11
7.6924062896
 21
22.3057869048
  0
LINE
  5
3D0
100
AcDbEntity
  8
DRAFT
100
AcDbLine
 62
7
  6
CONTINUOUS
 10
8.1626805515
 20
22.2859700255
 11
8.25
 21
22.3441821702
  0
LINE
  5
3D1
100
AcDbEntity
  8
0
100
AcDbLine
 62
7
  6
CONTINUOUS
 10
8.1626805515
 20
22.2859700255
 11
8.25
 21
22.3441821702
  0
LINE
  5
3D2
100
AcDbEntity
  8
0
100
AcDbLine
 62
7
  6
CONTINUOUS
 10
-17.8404255211
 20
5.5833334923
 11
-18.0957446694
 21
5.4166667461
  0
LINE
  5
3D3
100
AcDbEntity
  8
0
100
AcDbLine
 62
7
  6
CONTINUOUS
 10
-19.1595745087
 20
4.4166667461
 11
-18.904255271
 21
4.5833332539
  0
LINE
  5
3D4
100
AcDbEntity
  8
0
100
AcDbLine
 62
7
  6
CONTINUOUS
 10
-17.8404255211
 20
3.75
 11
-18.0957446694
 21
3.5833332539
  0
LINE
  5
3D5
100
AcDbEntity
  8
0
100
AcDbLine
 62
7
  6
CONTINUOUS
 10
-19.1595745087
 20
2.6666666269
 11
-19.0319149494
 21
2.75
  0
LINE
  5
3D6
100
AcDbEntity
  8
0
100
AcDbLine
 62
7
  6
CONTINUOUS
 10
-19.0319149494
 20
6.5833334923
 11
-19.2021276951
 21
6.5
  0
LINE
  5
3D7
100
AcDbEntity
  8
0
100
AcDbLine
 62
7
  6
CONTINUOUS
 10
-19.0319149494
 20
4.75
 11
-19.2021276951
 21
4.6666667461
  0
LINE
  5
3D8
100
AcDbEntity
  8
0
100
AcDbLine
 62
7
  6
CONTINUOUS
 10
-17.9680851102
 20
5.25
 11
-17.7978723347
 21
5.3333332539
  0
LINE
  5
3D9
100
AcDbEntity
  8
0
100
AcDbLine
 62
7
  6
CONTINUOUS
 10
-18.904255271
 20
6.625
 11
-19.0319149494
 21
6.5833334923
  0
LINE
  5
3DA
100
AcDbEntity
  8
ASSI
100
AcDbLine
 62
7
  6
CONTINUOUS
 10
7.44759
 20
-15.365424
 11
7.173343
 21
-15.365424
  0
LINE
  5
3DB
100
AcDbEntity
  8
ASSI
100
AcDbLine
 62
7
  6
CONTINUOUS
 10
6.830922
 20
-15.365424
 11
6.556565
 21
-15.365424
  0
LINE
  5
3DC
100
AcDbEntity
  8
ASSI
100
AcDbLine
 62
7
  6
CONTINUOUS
 10
6.556565
 20
-15.042229
 11
7.44759
 21
-15.042229
  0
LINE
  5
3DD
100
AcDbEntity
  8
DRAFT
100
AcDbLine
 62
7
  6
CONTINUOUS
 10
20.7155960001
 20
-12.5
 11
-20.7155960001
 21
-12.5
  0
LINE
  5
3DE
100
AcDbEntity
  8
DRAFT
100
AcDbLine
 62
7
  6
CONTINUOUS
 10
-15.9737961104
 20
-12.4737961104
 11
-15.2262038896
 21
-12.4737961104
  0
LINE
  5
3DF
100
AcDbEntity
  8
DRAFT
100
AcDbLine
 62
7
  6
CONTINUOUS
 10
15.9737961104
 20
-12.4737961104
 11
15.2262038896
 21
-12.4737961104
  0
LINE
  5
3E0
100
AcDbEntity
  8
DRAFT
100
AcDbLine
 62
7
  6
CONTINUOUS
 10
-5.5737961104
 20
-12.4737961104
 11
-4.8262038896
 21
-12.4737961104
  0
LINE
  5
3E1
100
AcDbEntity
  8
DRAFT
100
AcDbLine
 62
7
  6
CONTINUOUS
 10
4.8262038896
 20
-12.4737961104
 11
5.5737961104
 21
-12.4737961104
  0
LINE
  5
3E2
100
AcDbEntity
  8
0
100
AcDbLine
 62
7
  6
CONTINUOUS
 10
-20.4
 20
-12.0
 11
-16.4
 21
-12.0
  0
LINE
  5
3E3
100
AcDbEntity
  8
0
100
AcDbLine
 62
7
  6
CONTINUOUS
 10
-19.799125
 20
-11.55178
 11
-17.0
 21
-11.55178
  0
LINE
  5
3E4
100
AcDbEntity
  8
RACCORDO
100
AcDbLine
 62
7
  6
CONTINUOUS
 10
7.75
 20
-22.3441821702
 11
7.6924062896
 21
-22.3057869048
  0
LINE
  5
3E5
100
AcDbEntity
  8
0
100
AcDbLine
 62
7
  6
CONTINUOUS
 10
7.75
 20
-22.3441821702
 11
7.6924062896
 21
-22.3057869048
  0
LINE
  5
3E6
100
AcDbEntity
  8
DRAFT
100
AcDbLine
 62
7
  6
CONTINUOUS
 10
8.1626805515
 20
-22.2859700255
 11
8.25
 21
-22.3441821702
  0
LINE
  5
3E7
100
AcDbEntity
  8
0
100
AcDbLine
 62
7
  6
CONTINUOUS
 10
8.1626805515
 20
-22.2859700255
 11
8.25
 21
-22.3441821702
  0
LINE
  5
3E8
100
AcDbEntity
  8
0
100
AcDbLine
 62
7
  6
CONTINUOUS
 10
-19.3723404408
 20
1.75
 11
-19.2021276951
 21
1.5833333358
  0
LINE
  5
3E9
100
AcDbEntity
  8
DRAFT
100
AcDbLine
 62
7
  6
CONTINUOUS
 10
-15.2262038896
 20
-4.7737961104
 11
-15.2
 21
-4.8
  0
LINE
  5
3EA
100
AcDbEntity
  8
DRAFT
100
AcDbLine
 62
7
  6
CONTINUOUS
 10
3.9507059952
 20
-22.3383643404
 11
3.0174550649
 21
-21.4051134101
  0
LINE
  5
3EB
100
AcDbEntity
  8
0
100
AcDbLine
 62
7
  6
CONTINUOUS
 10
3.9507059952
 20
-22.3383643404
 11
3.0174550649
 21
-21.4051134101
  0
LINE
  5
3EC
100
AcDbEntity
  8
DRAFT
100
AcDbLine
 62
7
  6
CONTINUOUS
 10
-4.8262038896
 20
-12.4737961104
 11
-4.8
 21
-12.5
  0
LINE
  5
3ED
100
AcDbEntity
  8
0
100
AcDbLine
 62
7
  6
CONTINUOUS
 10
-18.7765957117
 20
2.6666666269
 11
-17.7127659619
 21
1.5
  0
LINE
  5
3EE
100
AcDbEntity
  8
0
100
AcDbLine
 62
7
  6
CONTINUOUS
 10
-17.7127659619
 20
1.8333333433
 11
-18.6489361525
 21
2.875
  0
LINE
  5
3EF
100
AcDbEntity
  8
0
100
AcDbLine
 62
7
  6
CONTINUOUS
 10
-19.1595745087
 20
1.8333333433
 11
-19.2446808815
 21
1.9583333433
  0
LINE
  5
3F0
100
AcDbEntity
  8
0
100
AcDbLine
 62
7
  6
CONTINUOUS
 10
-19.1595745087
 20
3.75
 11
-19.2446808815
 21
3.875
  0
LINE
  5
3F1
100
AcDbEntity
  8
0
100
AcDbLine
 62
7
  6
CONTINUOUS
 10
-19.1595745087
 20
5.5833334923
 11
-19.2446808815
 21
5.7083334923
  0
LINE
  5
3F2
100
AcDbEntity
  8
0
100
AcDbLine
 62
7
  6
CONTINUOUS
 10
-17.8404255211
 20
4.4166667461
 11
-17.7553191483
 21
4.2916667461
  0
LINE
  5
3F3
100
AcDbEntity
  8
0
100
AcDbLine
 62
7
  6
CONTINUOUS
 10
-19.4574468136
 20
3.8333332539
 11
-19.3297872543
 21
3.625
  0
LINE
  5
3F4
100
AcDbEntity
  8
0
100
AcDbLine
 62
7
  6
CONTINUOUS
 10
-19.4574468136
 20
5.6666665077
 11
-19.3297872543
 21
5.4583332539
  0
LINE
  5
3F5
100
AcDbEntity
  8
0
100
AcDbLine
 62
7
  6
CONTINUOUS
 10
-17.5425531901
 20
4.3333332539
 11
-17.6702127606
 21
4.5416667461
  0
LINE
  5
3F6
100
AcDbEntity
  8
0
100
AcDbLine
 62
7
  6
CONTINUOUS
 10
-17.5425531901
 20
6.1666665077
 11
-17.6702127606
 21
6.375
  0
LINE
  5
3F7
100
AcDbEntity
  8
0
100
AcDbLine
 62
7
  6
CONTINUOUS
 10
-19.4574468136
 20
9.4166665077
 11
-19.3723404408
 21
9.25
  0
LINE
  5
3F8
100
AcDbEntity
  8
SMUSSO
100
AcDbLine
 62
7
  6
CONTINUOUS
 10
-20.7276785679
 20
19.8317769306
 11
-20.85
 21
20.1990396502
  0
LINE
  5
3F9
100
AcDbEntity
  8
0
100
AcDbLine
 62
7
  6
CONTINUOUS
 10
-20.7276785679
 20
19.8317769306
 11
-20.85
 21
20.1990396502
  0
LINE
  5
3FA
100
AcDbEntity
  8
SMUSSO
100
AcDbLine
 62
7
  6
CONTINUOUS
 10
-20.0293058381
 20
20.5379423332
 11
-20.1498936624
 21
20.9
  0
LINE
  5
3FB
100
AcDbEntity
  8
0
100
AcDbLine
 62
7
  6
CONTINUOUS
 10
-20.0293058381
 20
20.5379423332
 11
-20.1498936624
 21
20.9
  0
LINE
  5
3FC
100
AcDbEntity
  8
0
100
AcDbLine
 62
7
  6
CONTINUOUS
 10
-10.382231
 20
15.008571
 11
-10.644035
 21
17.808274
  0
LINE
  5
3FD
100
AcDbEntity
  8
0
100
AcDbLine
 62
7
  6
CONTINUOUS
 10
-11.074006
 20
16.829103
 11
-10.953937
 21
15.008571
  0
LINE
  5
3FE
100
AcDbEntity
  8
DRAFT
100
AcDbLine
 62
7
  6
CONTINUOUS
 10
-8.1540044543
 20
20.8
 11
-8.1737555355
 21
21.6237555355
  0
LINE
  5
3FF
100
AcDbEntity
  8
0
100
AcDbLine
 62
7
  6
CONTINUOUS
 10
-8.1540044543
 20
20.8
 11
-8.1737555355
 21
21.6237555355
  0
LINE
  5
400
100
AcDbEntity
  8
RACCORDO
100
AcDbLine
 62
7
  6
CONTINUOUS
 10
-10.25
 20
23.8000063969
 11
-10.25
 21
22.4024077793
  0
LINE
  5
401
100
AcDbEntity
  8
0
100
AcDbLine
 62
7
  6
CONTINUOUS
 10
-10.25
 20
23.8000063969
 11
-10.25
 21
22.4024077793
  0
LINE
  5
402
100
AcDbEntity
  8
RACCORDO
100
AcDbLine
 62
7
  6
CONTINUOUS
 10
-10.25
 20
-22.4024077793
 11
-10.25
 21
-23.8000063969
  0
LINE
  5
403
100
AcDbEntity
  8
0
100
AcDbLine
 62
7
  6
CONTINUOUS
 10
-10.25
 20
-22.4024077793
 11
-10.25
 21
-23.8000063969
  0
LINE
  5
404
100
AcDbEntity
  8
DRAFT
100
AcDbLine
 62
7
  6
CONTINUOUS
 10
-8.25
 20
-22.3441821702
 11
-8.25
 21
-21.7
  0
LINE
  5
405
100
AcDbEntity
  8
0
100
AcDbLine
 62
7
  6
CONTINUOUS
 10
-8.25
 20
-22.3441821702
 11
-8.25
 21
-21.7
  0
LINE
  5
406
100
AcDbEntity
  8
DRAFT
100
AcDbLine
 62
7
  6
CONTINUOUS
 10
-8.25
 20
21.7
 11
-8.25
 21
22.3441821702
  0
LINE
  5
407
100
AcDbEntity
  8
0
100
AcDbLine
 62
7
  6
CONTINUOUS
 10
-8.25
 20
21.7
 11
-8.25
 21
22.3441821702
  0
LINE
  5
408
100
AcDbEntity
  8
DRAFT
100
AcDbLine
 62
7
  6
CONTINUOUS
 10
-8.1540044543
 20
-21.2859869487
 11
-8.1540044543
 21
-20.8
  0
LINE
  5
409
100
AcDbEntity
  8
0
100
AcDbLine
 62
7
  6
CONTINUOUS
 10
-8.1540044543
 20
-21.2859869487
 11
-8.1540044543
 21
-20.8
  0
LINE
  5
40A
100
AcDbEntity
  8
DRAFT
100
AcDbLine
 62
7
  6
CONTINUOUS
 10
-8.1540044543
 20
20.8
 11
-8.1540044543
 21
21.2859869487
  0
LINE
  5
40B
100
AcDbEntity
  8
0
100
AcDbLine
 62
7
  6
CONTINUOUS
 10
-8.1540044543
 20
20.8
 11
-8.1540044543
 21
21.2859869487
  0
LINE
  5
40C
100
AcDbEntity
  8
0
100
AcDbLine
 62
7
  6
CONTINUOUS
 10
-7.8163241553
 20
17.7755645719
 11
-7.8163241553
 21
15.0085705585
  0
LINE
  5
40D
100
AcDbEntity
  8
DRAFT
100
AcDbLine
 62
7
  6
CONTINUOUS
 10
-7.75
 20
-23.8
 11
-7.75
 21
-22.3441821702
  0
LINE
  5
40E
100
AcDbEntity
  8
0
100
AcDbLine
 62
7
  6
CONTINUOUS
 10
-7.75
 20
-23.8
 11
-7.75
 21
-22.3441821702
  0
LINE
  5
40F
100
AcDbEntity
  8
DRAFT
100
AcDbLine
 62
7
  6
CONTINUOUS
 10
-7.75
 20
22.3441821702
 11
-7.75
 21
23.8
  0
LINE
  5
410
100
AcDbEntity
  8
0
100
AcDbLine
 62
7
  6
CONTINUOUS
 10
-7.75
 20
22.3441821702
 11
-7.75
 21
23.8
  0
LINE
  5
411
100
AcDbEntity
  8
ASSI
100
AcDbLine
 62
253
  6
CONTINUOUS
 10
-7.6924062896
 20
-22.3057869048
 11
-7.6924062896
 21
-23.755948138
  0
LINE
  5
412
100
AcDbEntity
  8
0
100
AcDbLine
 62
253
  6
CONTINUOUS
 10
-7.6924062896
 20
-22.3057869048
 11
-7.6924062896
 21
-23.755948138
  0
LINE
  5
413
100
AcDbEntity
  8
ASSI
100
AcDbLine
 62
253
  6
CONTINUOUS
 10
-7.6924062896
 20
22.3057869048
 11
-7.6924062896
 21
23.755948138
  0
LINE
  5
414
100
AcDbEntity
  8
0
100
AcDbLine
 62
253
  6
CONTINUOUS
 10
-7.6924062896
 20
22.3057869048
 11
-7.6924062896
 21
23.755948138
  0
LINE
  5
415
100
AcDbEntity
  8
DRAFT
100
AcDbLine
 62
7
  6
CONTINUOUS
 10
-8.1737555355
 20
-21.6237555355
 11
-8.1540044543
 21
-20.8
  0
LINE
  5
416
100
AcDbEntity
  8
0
100
AcDbLine
 62
7
  6
CONTINUOUS
 10
-8.1737555355
 20
-21.6237555355
 11
-8.1540044543
 21
-20.8
  0
LINE
  5
417
100
AcDbEntity
  8
0
100
AcDbLine
 62
7
  6
CONTINUOUS
 10
-2.181666
 20
18.313558
 11
-1.787712
 21
19.488965
  0
LINE
  5
418
100
AcDbEntity
  8
0
100
AcDbLine
 62
7
  6
CONTINUOUS
 10
-1.873546
 20
19.713176
 11
-2.273327
 21
18.523961
  0
LINE
  5
419
100
AcDbEntity
  8
0
100
AcDbLine
 62
7
  6
CONTINUOUS
 10
-1.036832
 20
18.888805
 11
-0.810619
 21
19.510322
  0
LINE
  5
41A
100
AcDbEntity
  8
0
100
AcDbLine
 62
7
  6
CONTINUOUS
 10
-0.910119
 20
19.713176
 11
-1.436675
 21
18.313558
  0
LINE
  5
41B
100
AcDbEntity
  8
DRAFT
100
AcDbLine
 62
7
  6
CONTINUOUS
 10
8.25
 20
21.7
 11
8.1737555355
 21
21.6237555355
  0
LINE
  5
41C
100
AcDbEntity
  8
0
100
AcDbLine
 62
7
  6
CONTINUOUS
 10
8.25
 20
21.7
 11
8.1737555355
 21
21.6237555355
  0
LINE
  5
41D
100
AcDbEntity
  8
DRAFT
100
AcDbLine
 62
7
  6
CONTINUOUS
 10
-15.2262038896
 20
-4.0262038896
 11
-15.2
 21
-4.0
  0
LINE
  5
41E
100
AcDbEntity
  8
0
100
AcDbLine
 62
7
  6
CONTINUOUS
 10
-17.822157
 20
-0.48125
 11
-19.799125
 21
-1.772049
  0
LINE
  5
41F
100
AcDbEntity
  8
0
100
AcDbLine
 62
7
  6
CONTINUOUS
 10
-18.95539
 20
-1.772478
 11
-17.0
 21
-0.499519
  0
LINE
  5
420
100
AcDbEntity
  8
0
100
AcDbLine
 62
7
  6
CONTINUOUS
 10
-17.9680851102
 20
3.4166666269
 11
-17.7978723347
 21
3.5
  0
LINE
  5
421
100
AcDbEntity
  8
0
100
AcDbLine
 62
7
  6
CONTINUOUS
 10
-18.0957446694
 20
5.2083332539
 11
-17.9680851102
 21
5.25
  0
LINE
  5
422
100
AcDbEntity
  8
0
100
AcDbLine
 62
7
  6
CONTINUOUS
 10
-18.904255271
 20
4.7916667461
 11
-19.0319149494
 21
4.75
  0
LINE
  5
423
100
AcDbEntity
  8
0
100
AcDbLine
 62
7
  6
CONTINUOUS
 10
-18.0957446694
 20
3.375
 11
-17.9680851102
 21
3.4166666269
  0
LINE
  5
424
100
AcDbEntity
  8
0
100
AcDbLine
 62
7
  6
CONTINUOUS
 10
-17.444238
 20
-11.051895
 11
-18.214581
 21
-11.051895
  0
LINE
  5
425
100
AcDbEntity
  8
0
100
AcDbLine
 62
7
  6
CONTINUOUS
 10
-18.658864
 20
-11.051895
 11
-19.354877
 21
-11.051895
  0
LINE
  5
426
100
AcDbEntity
  8
0
100
AcDbLine
 62
7
  6
CONTINUOUS
 10
-18.214591
 20
-9.673816
 11
-18.658854
 21
-9.673816
  0
LINE
  5
427
100
AcDbEntity
  8
0
100
AcDbLine
 62
7
  6
CONTINUOUS
 10
-19.354872
 20
-9.573513
 11
-19.799125
 21
-9.573513
  0
LINE
  5
428
100
AcDbEntity
  8
0
100
AcDbLine
 62
7
  6
CONTINUOUS
 10
-17.0
 20
-9.562262
 11
-17.444253
 21
-9.562262
  0
LINE
  5
429
100
AcDbEntity
  8
0
100
AcDbLine
 62
7
  6
CONTINUOUS
 10
-19.799125
 20
-8.961061
 11
-17.0
 21
-8.961061
  0
LINE
  5
42A
100
AcDbEntity
  8
0
100
AcDbLine
 62
7
  6
CONTINUOUS
 10
-17.0
 20
-8.461146
 11
-19.799125
 21
-8.461146
  0
LINE
  5
42B
100
AcDbEntity
  8
0
100
AcDbLine
 62
7
  6
CONTINUOUS
 10
-19.799125
 20
-7.866647
 11
-17.0
 21
-7.866647
  0
LINE
  5
42C
100
AcDbEntity
  8
0
100
AcDbLine
 62
7
  6
CONTINUOUS
 10
-19.0319149494
 20
1.75
 11
-19.1595745087
 21
1.8333333433
  0
LINE
  5
42D
100
AcDbEntity
  8
0
100
AcDbLine
 62
7
  6
CONTINUOUS
 10
-18.6489361525
 20
2.875
 11
-18.7765957117
 21
2.9583333731
  0
LINE
  5
42E
100
AcDbEntity
  8
ASSI
100
AcDbLine
 62
7
  6
CONTINUOUS
 10
6.830922
 20
-16.58329
 11
5.966644
 21
-15.854957
  0
LINE
  5
42F
100
AcDbEntity
  8
ASSI
100
AcDbLine
 62
7
  6
CONTINUOUS
 10
5.926751
 20
-15.423008
 11
6.830922
 21
-16.184959
  0
LINE
  5
430
100
AcDbEntity
  8
0
100
AcDbLine
 62
7
  6
CONTINUOUS
 10
-19.3297872543
 20
3.625
 11
-19.2021276951
 21
3.5
  0
LINE
  5
431
100
AcDbEntity
  8
0
100
AcDbLine
 62
7
  6
CONTINUOUS
 10
-19.3297872543
 20
5.4583332539
 11
-19.2021276951
 21
5.3333332539
  0
LINE
  5
432
100
AcDbEntity
  8
0
100
AcDbLine
 62
7
  6
CONTINUOUS
 10
-17.6702127606
 20
4.5416667461
 11
-17.7978723347
 21
4.6666667461
  0
LINE
  5
433
100
AcDbEntity
  8
0
100
AcDbLine
 62
7
  6
CONTINUOUS
 10
-17.6702127606
 20
6.375
 11
-17.7978723347
 21
6.5
  0
LINE
  5
434
100
AcDbEntity
  8
DRAFT
100
AcDbLine
 62
7
  6
CONTINUOUS
 10
8.25
 20
-21.7
 11
8.1737555355
 21
-21.6237555355
  0
LINE
  5
435
100
AcDbEntity
  8
0
100
AcDbLine
 62
7
  6
CONTINUOUS
 10
8.25
 20
-21.7
 11
8.1737555355
 21
-21.6237555355
  0
LINE
  5
436
100
AcDbEntity
  8
DRAFT
100
AcDbLine
 62
7
  6
CONTINUOUS
 10
-15.2262038896
 20
4.0262038896
 11
-15.2
 21
4.0
  0
LINE
  5
437
100
AcDbEntity
  8
0
100
AcDbLine
 62
7
  6
CONTINUOUS
 10
-17.8404255211
 20
6.25
 11
-17.7553191483
 21
6.125
  0
LINE
  5
438
100
AcDbEntity
  8
0
100
AcDbLine
 62
7
  6
CONTINUOUS
 10
-19.1595745087
 20
9.3333334923
 11
-19.2446808815
 21
9.4583334923
  0
LINE
  5
439
100
AcDbEntity
  8
0
100
AcDbLine
 62
7
  6
CONTINUOUS
 10
-16.640011
 20
17.808274
 11
-15.75245
 21
15.008571
  0
LINE
  5
43A
100
AcDbEntity
  8
0
100
AcDbLine
 62
7
  6
CONTINUOUS
 10
-15.471489
 20
15.881152
 11
-16.005163
 21
17.808274
  0
LINE
  5
43B
100
AcDbEntity
  8
DRAFT
100
AcDbLine
 62
7
  6
CONTINUOUS
 10
-4.7480009438
 20
-17.9033677788
 11
-4.5887391864
 21
-19.5
  0
LINE
  5
43C
100
AcDbEntity
  8
ASSI
100
AcDbLine
 62
7
  6
CONTINUOUS
 10
-6.8467865245
 20
23.4456668619
 11
-6.85
 21
23.8
  0
LINE
  5
43D
100
AcDbEntity
  8
0
100
AcDbLine
 62
7
  6
CONTINUOUS
 10
-6.8467865245
 20
23.4456668619
 11
-6.85
 21
23.8
  0
LINE
  5
43E
100
AcDbEntity
  8
DRAFT
100
AcDbLine
 62
7
  6
CONTINUOUS
 10
-3.9947639644
 20
23.2226497308
 11
-4.0
 21
23.8
  0
LINE
  5
43F
100
AcDbEntity
  8
0
100
AcDbLine
 62
7
  6
CONTINUOUS
 10
-3.9947639644
 20
23.2226497308
 11
-4.0
 21
23.8
  0
LINE
  5
440
100
AcDbEntity
  8
0
100
AcDbLine
 62
7
  6
CONTINUOUS
 10
-7.2536457035
 20
16.5627438263
 11
-7.2536457035
 21
17.331317117
  0
LINE
  5
441
100
AcDbEntity
  8
0
100
AcDbLine
 62
7
  6
CONTINUOUS
 10
-7.2342676127
 20
15.0085705585
 11
-7.2342676127
 21
16.1042199882
  0
LINE
  5
442
100
AcDbEntity
  8
ASSI
100
AcDbLine
 62
253
  6
CONTINUOUS
 10
-6.8845482821
 20
-22.3057951078
 11
-6.8845482821
 21
-23.7562325953
  0
LINE
  5
443
100
AcDbEntity
  8
0
100
AcDbLine
 62
253
  6
CONTINUOUS
 10
-6.8845482821
 20
-22.3057951078
 11
-6.8845482821
 21
-23.7562325953
  0
LINE
  5
444
100
AcDbEntity
  8
ASSI
100
AcDbLine
 62
253
  6
CONTINUOUS
 10
-6.8845482821
 20
22.3057951078
 11
-6.8845482821
 21
23.7562325953
  0
LINE
  5
445
100
AcDbEntity
  8
0
100
AcDbLine
 62
253
  6
CONTINUOUS
 10
-6.8845482821
 20
22.3057951078
 11
-6.8845482821
 21
23.7562325953
  0
LINE
  5
446
100
AcDbEntity
  8
ASSI
100
AcDbLine
 62
7
  6
CONTINUOUS
 10
-6.8840342314
 20
23.4906890903
 11
-6.8840342314
 21
22.8093109097
  0
LINE
  5
447
100
AcDbEntity
  8
0
100
AcDbLine
 62
7
  6
CONTINUOUS
 10
-6.8840342314
 20
23.4906890903
 11
-6.8840342314
 21
22.8093109097
  0
LINE
  5
448
100
AcDbEntity
  8
ASSI
100
AcDbLine
 62
7
  6
CONTINUOUS
 10
-6.8840342314
 20
-23.4906890903
 11
-6.8840342314
 21
-22.8093109097
  0
LINE
  5
449
100
AcDbEntity
  8
0
100
AcDbLine
 62
7
  6
CONTINUOUS
 10
-6.8840342314
 20
-23.4906890903
 11
-6.8840342314
 21
-22.8093109097
  0
LINE
  5
44A
100
AcDbEntity
  8
DRAFT
100
AcDbLine
 62
7
  6
CONTINUOUS
 10
-6.85
 20
-24.0
 11
-6.85
 21
-23.8
  0
LINE
  5
44B
100
AcDbEntity
  8
0
100
AcDbLine
 62
7
  6
CONTINUOUS
 10
-6.85
 20
-24.0
 11
-6.85
 21
-23.8
  0
LINE
  5
44C
100
AcDbEntity
  8
DRAFT
100
AcDbLine
 62
7
  6
CONTINUOUS
 10
-6.85
 20
23.8
 11
-6.85
 21
24.0
  0
LINE
  5
44D
100
AcDbEntity
  8
0
100
AcDbLine
 62
7
  6
CONTINUOUS
 10
-6.85
 20
23.8
 11
-6.85
 21
24.0
  0
LINE
  5
44E
100
AcDbEntity
  8
ASSI
100
AcDbLine
 62
7
  6
CONTINUOUS
 10
-6.8447639644
 20
-22.35
 11
-6.8447639644
 21
-22.85711136
  0
LINE
  5
44F
100
AcDbEntity
  8
0
100
AcDbLine
 62
7
  6
CONTINUOUS
 10
-6.8447639644
 20
-22.35
 11
-6.8447639644
 21
-22.85711136
  0
LINE
  5
450
100
AcDbEntity
  8
ASSI
100
AcDbLine
 62
7
  6
CONTINUOUS
 10
-6.8447639644
 20
22.35
 11
-6.8447639644
 21
22.85711136
  0
LINE
  5
451
100
AcDbEntity
  8
0
100
AcDbLine
 62
7
  6
CONTINUOUS
 10
-6.8447639644
 20
22.35
 11
-6.8447639644
 21
22.85711136
  0
LINE
  5
452
100
AcDbEntity
  8
0
100
AcDbLine
 62
7
  6
CONTINUOUS
 10
-6.3138397927
 20
16.3154474761
 11
-6.3138397927
 21
16.3319912849
  0
LINE
  5
453
100
AcDbEntity
  8
DRAFT
100
AcDbLine
 62
7
  6
CONTINUOUS
 10
-5.6
 20
-12.5
 11
-5.6
 21
-4.8
  0
LINE
  5
454
100
AcDbEntity
  8
DRAFT
100
AcDbLine
 62
7
  6
CONTINUOUS
 10
-5.6
 20
-4.0
 11
-5.6
 21
4.0
  0
LINE
  5
455
100
AcDbEntity
  8
DRAFT
100
AcDbLine
 62
7
  6
CONTINUOUS
 10
-5.6
 20
4.8
 11
-5.6
 21
12.5
  0
LINE
  5
456
100
AcDbEntity
  8
DRAFT
100
AcDbLine
 62
7
  6
CONTINUOUS
 10
-5.5737961104
 20
12.4737961104
 11
-5.5737961104
 21
4.7737961104
  0
LINE
  5
457
100
AcDbEntity
  8
DRAFT
100
AcDbLine
 62
7
  6
CONTINUOUS
 10
-5.5737961104
 20
4.0262038896
 11
-5.5737961104
 21
-4.0262038896
  0
LINE
  5
458
100
AcDbEntity
  8
DRAFT
100
AcDbLine
 62
7
  6
CONTINUOUS
 10
-5.5737961104
 20
-12.4737961104
 11
-5.5737961104
 21
-4.7737961104
  0
LINE
  5
459
100
AcDbEntity
  8
DRAFT
100
AcDbLine
 62
7
  6
CONTINUOUS
 10
-4.8262038896
 20
12.4737961104
 11
-4.8262038896
 21
4.7737961104
  0
LINE
  5
45A
100
AcDbEntity
  8
DRAFT
100
AcDbLine
 62
7
  6
CONTINUOUS
 10
-4.8262038896
 20
-12.4737961104
 11
-4.8262038896
 21
-4.7737961104
  0
LINE
  5
45B
100
AcDbEntity
  8
DRAFT
100
AcDbLine
 62
7
  6
CONTINUOUS
 10
-4.8262038896
 20
-4.0262038896
 11
-4.8262038896
 21
4.0262038896
  0
LINE
  5
45C
100
AcDbEntity
  8
DRAFT
100
AcDbLine
 62
7
  6
CONTINUOUS
 10
-4.8
 20
12.5
 11
-4.8
 21
4.8
  0
LINE
  5
45D
100
AcDbEntity
  8
DRAFT
100
AcDbLine
 62
7
  6
CONTINUOUS
 10
-4.8
 20
4.0
 11
-4.8
 21
-4.0
  0
LINE
  5
45E
100
AcDbEntity
  8
DRAFT
100
AcDbLine
 62
7
  6
CONTINUOUS
 10
-4.8
 20
-4.8
 11
-4.8
 21
-12.5
  0
LINE
  5
45F
100
AcDbEntity
  8
0
100
AcDbLine
 62
7
  6
CONTINUOUS
 10
-4.75
 20
-20.0
 11
-4.75
 21
-19.7
  0
LINE
  5
460
100
AcDbEntity
  8
0
100
AcDbLine
 62
7
  6
CONTINUOUS
 10
-4.75
 20
19.7
 11
-4.75
 21
20.0
  0
LINE
  5
461
100
AcDbEntity
  8
DRAFT
100
AcDbLine
 62
7
  6
CONTINUOUS
 10
-4.5887391864
 20
-19.7
 11
-4.5887391864
 21
-19.5
  0
LINE
  5
462
100
AcDbEntity
  8
DRAFT
100
AcDbLine
 62
7
  6
CONTINUOUS
 10
-4.5887391864
 20
19.5
 11
-4.5887391864
 21
20.1612608136
  0
LINE
  5
463
100
AcDbEntity
  8
DRAFT
100
AcDbLine
 62
7
  6
CONTINUOUS
 10
-4.1112608136
 20
20.9959955457
 11
-4.1112608136
 21
19.5
  0
LINE
  5
464
100
AcDbEntity
  8
DRAFT
100
AcDbLine
 62
7
  6
CONTINUOUS
 10
-4.1112608136
 20
-19.5
 11
-4.1112608136
 21
-19.7
  0
LINE
  5
465
100
AcDbEntity
  8
RACCORDO
100
AcDbLine
 62
7
  6
CONTINUOUS
 10
-4.0
 20
24.2500034269
 11
-4.0
 21
23.8
  0
LINE
  5
466
100
AcDbEntity
  8
0
100
AcDbLine
 62
7
  6
CONTINUOUS
 10
-4.0
 20
24.2500034269
 11
-4.0
 21
23.8
  0
LINE
  5
467
100
AcDbEntity
  8
RACCORDO
100
AcDbLine
 62
7
  6
CONTINUOUS
 10
-4.0
 20
-23.8
 11
-4.0
 21
-24.2500034269
  0
LINE
  5
468
100
AcDbEntity
  8
0
100
AcDbLine
 62
7
  6
CONTINUOUS
 10
-4.0
 20
-23.8
 11
-4.0
 21
-24.2500034269
  0
LINE
  5
469
100
AcDbEntity
  8
DRAFT
100
AcDbLine
 62
7
  6
CONTINUOUS
 10
-3.9947639644
 20
23.2226497308
 11
-3.9947639644
 21
22.35
  0
LINE
  5
46A
100
AcDbEntity
  8
0
100
AcDbLine
 62
7
  6
CONTINUOUS
 10
-3.9947639644
 20
23.2226497308
 11
-3.9947639644
 21
22.35
  0
LINE
  5
46B
100
AcDbEntity
  8
DRAFT
100
AcDbLine
 62
7
  6
CONTINUOUS
 10
-3.9947639644
 20
-22.35
 11
-3.9947639644
 21
-23.2226497308
  0
LINE
  5
46C
100
AcDbEntity
  8
0
100
AcDbLine
 62
7
  6
CONTINUOUS
 10
-3.9947639644
 20
-22.35
 11
-3.9947639644
 21
-23.2226497308
  0
LINE
  5
46D
100
AcDbEntity
  8
DRAFT
100
AcDbLine
 62
7
  6
CONTINUOUS
 10
-3.95
 20
-20.9959955457
 11
-3.95
 21
-19.7
  0
LINE
  5
46E
100
AcDbEntity
  8
DRAFT
100
AcDbLine
 62
7
  6
CONTINUOUS
 10
-3.95
 20
19.7
 11
-3.95
 21
20.9959955457
  0
LINE
  5
46F
100
AcDbEntity
  8
RACCORDO
100
AcDbLine
 62
253
  6
CONTINUOUS
 10
-3.6833543458
 20
-21.2859869487
 11
-3.6833543458
 21
-20.9959955457
  0
LINE
  5
470
100
AcDbEntity
  8
0
100
AcDbLine
 62
253
  6
CONTINUOUS
 10
-3.6833543458
 20
-21.2859869487
 11
-3.6833543458
 21
-20.9959955457
  0
LINE
  5
471
100
AcDbEntity
  8
RACCORDO
100
AcDbLine
 62
253
  6
CONTINUOUS
 10
-3.6833543458
 20
20.9959955457
 11
-3.6833543458
 21
21.2859869487
  0
LINE
  5
472
100
AcDbEntity
  8
0
100
AcDbLine
 62
253
  6
CONTINUOUS
 10
-3.6833543458
 20
20.9959955457
 11
-3.6833543458
 21
21.2859869487
  0
LINE
  5
473
100
AcDbEntity
  8
ASSI
100
AcDbLine
 62
7
  6
CONTINUOUS
 10
-6.85
 20
-23.8
 11
-6.8467865245
 21
-23.4456668619
  0
LINE
  5
474
100
AcDbEntity
  8
0
100
AcDbLine
 62
7
  6
CONTINUOUS
 10
-6.85
 20
-23.8
 11
-6.8467865245
 21
-23.4456668619
  0
LINE
  5
475
100
AcDbEntity
  8
DRAFT
100
AcDbLine
 62
7
  6
CONTINUOUS
 10
-4.0
 20
-23.8
 11
-3.9947639644
 21
-23.2226497308
  0
LINE
  5
476
100
AcDbEntity
  8
0
100
AcDbLine
 62
7
  6
CONTINUOUS
 10
-4.0
 20
-23.8
 11
-3.9947639644
 21
-23.2226497308
  0
LINE
  5
477
100
AcDbEntity
  8
DRAFT
100
AcDbLine
 62
7
  6
CONTINUOUS
 10
-4.5887391864
 20
19.5
 11
-4.7480009438
 21
17.9033677788
  0
LINE
  5
478
100
AcDbEntity
  8
0
100
AcDbLine
 62
7
  6
CONTINUOUS
 10
-1.241679
 20
18.313558
 11
-1.095376
 21
18.721214
  0
LINE
  5
479
100
AcDbEntity
  8
0
100
AcDbLine
 62
7
  6
CONTINUOUS
 10
-0.878979
 20
14.286824
 11
-0.732676
 21
14.69448
  0
LINE
  5
47A
100
AcDbEntity
  8
0
100
AcDbLine
 62
7
  6
CONTINUOUS
 10
-0.674245
 20
14.862072
 11
-0.447918
 21
15.483586
  0
LINE
  5
47B
100
AcDbEntity
  8
0
100
AcDbLine
 62
7
  6
CONTINUOUS
 10
-0.547419
 20
15.687575
 11
-1.073974
 21
14.286824
  0
LINE
  5
47C
100
AcDbEntity
  8
0
100
AcDbLine
 62
7
  6
CONTINUOUS
 10
2.042441
 20
15.687575
 11
1.640674
 21
15.014943
  0
LINE
  5
47D
100
AcDbEntity
  8
0
100
AcDbLine
 62
7
  6
CONTINUOUS
 10
1.736246
 20
14.850748
 11
2.264727
 21
15.687575
  0
LINE
  5
47E
100
AcDbEntity
  8
DRAFT
100
AcDbLine
 62
7
  6
CONTINUOUS
 10
-5.5737961104
 20
4.0262038896
 11
-5.6
 21
4.0
  0
LINE
  5
47F
100
AcDbEntity
  8
DRAFT
100
AcDbLine
 62
7
  6
CONTINUOUS
 10
-4.8262038896
 20
4.7737961104
 11
-4.8
 21
4.8
  0
LINE
  5
480
100
AcDbEntity
  8
ASSI
100
AcDbLine
 62
7
  6
CONTINUOUS
 10
15.6159383532
 20
23.7659383532
 11
15.65
 21
23.8
  0
LINE
  5
481
100
AcDbEntity
  8
0
100
AcDbLine
 62
7
  6
CONTINUOUS
 10
15.6159383532
 20
23.7659383532
 11
15.65
 21
23.8
  0
LINE
  5
482
100
AcDbEntity
  8
DRAFT
100
AcDbLine
 62
7
  6
CONTINUOUS
 10
5.5737961104
 20
12.4737961104
 11
5.6
 21
12.5
  0
LINE
  5
483
100
AcDbEntity
  8
RACCORDO
100
AcDbLine
 62
7
  6
CONTINUOUS
 10
18.4905416262
 20
22.2859700255
 11
18.5558178298
 21
22.3441821702
  0
LINE
  5
484
100
AcDbEntity
  8
0
100
AcDbLine
 62
7
  6
CONTINUOUS
 10
18.4905416262
 20
22.2859700255
 11
18.5558178298
 21
22.3441821702
  0
LINE
  5
485
100
AcDbEntity
  8
0
100
AcDbLine
 62
7
  6
CONTINUOUS
 10
-17.0
 20
-5.448948
 11
-18.647312
 21
-6.659381
  0
LINE
  5
486
100
AcDbEntity
  8
0
100
AcDbLine
 62
7
  6
CONTINUOUS
 10
-18.303477
 20
-7.009286
 11
-17.0
 21
-6.077792
  0
LINE
  5
487
100
AcDbEntity
  8
RACCORDO
100
AcDbLine
 62
253
  6
CONTINUOUS
 10
21.8500063461
 20
22.35
 11
21.8412794783
 21
22.3441821702
  0
LINE
  5
488
100
AcDbEntity
  8
0
100
AcDbLine
 62
253
  6
CONTINUOUS
 10
21.8500063461
 20
22.35
 11
21.8412794783
 21
22.3441821702
  0
LINE
  5
489
100
AcDbEntity
  8
RACCORDO
100
AcDbLine
 62
253
  6
CONTINUOUS
 10
22.35
 20
21.850016923
 11
22.3412731322
 21
21.8441990932
  0
LINE
  5
48A
100
AcDbEntity
  8
0
100
AcDbLine
 62
253
  6
CONTINUOUS
 10
22.35
 20
21.850016923
 11
22.3412731322
 21
21.8441990932
  0
LINE
  5
48B
100
AcDbEntity
  8
0
100
AcDbLine
 62
7
  6
CONTINUOUS
 10
-18.578701
 20
-7.366763
 11
-19.799125
 21
-7.366753
  0
LINE
  5
48C
100
AcDbEntity
  8
0
100
AcDbLine
 62
7
  6
CONTINUOUS
 10
-17.0
 20
-7.366753
 11
-17.970087
 21
-7.366763
  0
LINE
  5
48D
100
AcDbEntity
  8
DRAFT
100
AcDbLine
 62
7
  6
CONTINUOUS
 10
15.2
 20
-4.8
 11
5.6
 21
-4.8
  0
LINE
  5
48E
100
AcDbEntity
  8
DRAFT
100
AcDbLine
 62
7
  6
CONTINUOUS
 10
4.8
 20
-4.8
 11
-4.8
 21
-4.8
  0
LINE
  5
48F
100
AcDbEntity
  8
DRAFT
100
AcDbLine
 62
7
  6
CONTINUOUS
 10
-5.6
 20
-4.8
 11
-15.2
 21
-4.8
  0
LINE
  5
490
100
AcDbEntity
  8
DRAFT
100
AcDbLine
 62
7
  6
CONTINUOUS
 10
-15.2262038896
 20
-4.7737961104
 11
-5.5737961104
 21
-4.7737961104
  0
LINE
  5
491
100
AcDbEntity
  8
DRAFT
100
AcDbLine
 62
7
  6
CONTINUOUS
 10
-4.8262038896
 20
-4.7737961104
 11
4.8262038896
 21
-4.7737961104
  0
LINE
  5
492
100
AcDbEntity
  8
DRAFT
100
AcDbLine
 62
7
  6
CONTINUOUS
 10
5.5737961104
 20
-4.7737961104
 11
15.2262038896
 21
-4.7737961104
  0
LINE
  5
493
100
AcDbEntity
  8
DRAFT
100
AcDbLine
 62
7
  6
CONTINUOUS
 10
15.2262038896
 20
-4.0262038896
 11
5.5737961104
 21
-4.0262038896
  0
LINE
  5
494
100
AcDbEntity
  8
DRAFT
100
AcDbLine
 62
7
  6
CONTINUOUS
 10
4.8262038896
 20
-4.0262038896
 11
-4.8262038896
 21
-4.0262038896
  0
LINE
  5
495
100
AcDbEntity
  8
DRAFT
100
AcDbLine
 62
7
  6
CONTINUOUS
 10
-5.5737961104
 20
-4.0262038896
 11
-15.2262038896
 21
-4.0262038896
  0
LINE
  5
496
100
AcDbEntity
  8
DRAFT
100
AcDbLine
 62
7
  6
CONTINUOUS
 10
-15.2
 20
-4.0
 11
-5.6
 21
-4.0
  0
LINE
  5
497
100
AcDbEntity
  8
DRAFT
100
AcDbLine
 62
7
  6
CONTINUOUS
 10
-4.8
 20
-4.0
 11
4.8
 21
-4.0
  0
LINE
  5
498
100
AcDbEntity
  8
DRAFT
100
AcDbLine
 62
7
  6
CONTINUOUS
 10
5.6
 20
-4.0
 11
15.2
 21
-4.0
  0
LINE
  5
499
100
AcDbEntity
  8
0
100
AcDbLine
 62
7
  6
CONTINUOUS
 10
-18.9468084574
 20
2.75
 11
-18.7765957117
 21
2.6666666269
  0
LINE
  5
49A
100
AcDbEntity
  8
0
100
AcDbLine
 62
7
  6
CONTINUOUS
 10
-19.2021276951
 20
3.5
 11
-19.0319149494
 21
3.4166666269
  0
LINE
  5
49B
100
AcDbEntity
  8
0
100
AcDbLine
 62
7
  6
CONTINUOUS
 10
-19.2021276951
 20
5.3333332539
 11
-19.0319149494
 21
5.25
  0
LINE
  5
49C
100
AcDbEntity
  8
0
100
AcDbLine
 62
7
  6
CONTINUOUS
 10
-17.7978723347
 20
4.6666667461
 11
-17.9680851102
 21
4.75
  0
LINE
  5
49D
100
AcDbEntity
  8
0
100
AcDbLine
 62
7
  6
CONTINUOUS
 10
-18.904255271
 20
3.5833332539
 11
-19.1595745087
 21
3.75
  0
LINE
  5
49E
100
AcDbEntity
  8
0
100
AcDbLine
 62
7
  6
CONTINUOUS
 10
-18.0957446694
 20
4.5833332539
 11
-17.8404255211
 21
4.4166667461
  0
LINE
  5
49F
100
AcDbEntity
  8
0
100
AcDbLine
 62
7
  6
CONTINUOUS
 10
-18.904255271
 20
5.4166667461
 11
-19.1595745087
 21
5.5833334923
  0
LINE
  5
4A0
100
AcDbEntity
  8
0
100
AcDbLine
 62
7
  6
CONTINUOUS
 10
-18.0957446694
 20
6.4166665077
 11
-17.8404255211
 21
6.25
  0
LINE
  5
4A1
100
AcDbEntity
  8
RACCORDO
100
AcDbLine
 62
253
  6
CONTINUOUS
 10
21.8412794783
 20
-22.3441821702
 11
21.8500063461
 21
-22.35
  0
LINE
  5
4A2
100
AcDbEntity
  8
0
100
AcDbLine
 62
253
  6
CONTINUOUS
 10
21.8412794783
 20
-22.3441821702
 11
21.8500063461
 21
-22.35
  0
LINE
  5
4A3
100
AcDbEntity
  8
RACCORDO
100
AcDbLine
 62
253
  6
CONTINUOUS
 10
22.3412731322
 20
-21.8441990932
 11
22.35
 21
-21.850016923
  0
LINE
  5
4A4
100
AcDbEntity
  8
0
100
AcDbLine
 62
253
  6
CONTINUOUS
 10
22.3412731322
 20
-21.8441990932
 11
22.35
 21
-21.850016923
  0
LINE
  5
4A5
100
AcDbEntity
  8
0
100
AcDbLine
 62
7
  6
CONTINUOUS
 10
-19.5
 20
8.0
 11
-18.3510638475
 21
7.0
  0
LINE
  5
4A6
100
AcDbEntity
  8
0
100
AcDbLine
 62
7
  6
CONTINUOUS
 10
-18.3510638475
 20
7.2916665077
 11
-19.1595745087
 21
8.0
  0
LINE
  5
4A7
100
AcDbEntity
  8
RACCORDO
100
AcDbLine
 62
7
  6
CONTINUOUS
 10
18.4905416262
 20
-22.2859700255
 11
18.5558178298
 21
-22.3441821702
  0
LINE
  5
4A8
100
AcDbEntity
  8
0
100
AcDbLine
 62
7
  6
CONTINUOUS
 10
18.4905416262
 20
-22.2859700255
 11
18.5558178298
 21
-22.3441821702
  0
LINE
  5
4A9
100
AcDbEntity
  8
0
100
AcDbLine
 62
7
  6
CONTINUOUS
 10
-19.3723404408
 20
9.25
 11
-19.2021276951
 21
9.0833334923
  0
LINE
  5
4AA
100
AcDbEntity
  8
DRAFT
100
AcDbLine
 62
7
  6
CONTINUOUS
 10
-4.8262038896
 20
-4.7737961104
 11
-4.8
 21
-4.8
  0
LINE
  5
4AB
100
AcDbEntity
  8
DRAFT
100
AcDbLine
 62
7
  6
CONTINUOUS
 10
-5.5737961104
 20
-4.0262038896
 11
-5.6
 21
-4.0
  0
LINE
  5
4AC
100
AcDbEntity
  8
ASSI
100
AcDbLine
 62
7
  6
CONTINUOUS
 10
15.6159383532
 20
-23.7659383532
 11
15.65
 21
-23.8
  0
LINE
  5
4AD
100
AcDbEntity
  8
0
100
AcDbLine
 62
7
  6
CONTINUOUS
 10
15.6159383532
 20
-23.7659383532
 11
15.65
 21
-23.8
  0
LINE
  5
4AE
100
AcDbEntity
  8
DRAFT
100
AcDbLine
 62
7
  6
CONTINUOUS
 10
5.5737961104
 20
-12.4737961104
 11
5.6
 21
-12.5
  0
LINE
  5
4AF
100
AcDbEntity
  8
0
100
AcDbLine
 62
7
  6
CONTINUOUS
 10
-18.7765957117
 20
10.1666669846
 11
-17.7127659619
 21
9.0
  0
LINE
  5
4B0
100
AcDbEntity
  8
0
100
AcDbLine
 62
7
  6
CONTINUOUS
 10
-17.7127659619
 20
9.3333334923
 11
-18.6489361525
 21
10.375
  0
LINE
  5
4B1
100
AcDbEntity
  8
0
100
AcDbLine
 62
7
  6
CONTINUOUS
 10
-12.536411
 20
16.836724
 11
-11.85083
 21
15.008571
  0
LINE
  5
4B2
100
AcDbEntity
  8
0
100
AcDbLine
 62
7
  6
CONTINUOUS
 10
-11.806657
 20
16.25387
 11
-12.384893
 21
17.808274
  0
LINE
  5
4B3
100
AcDbEntity
  8
0
100
AcDbLine
 62
7
  6
CONTINUOUS
 10
-8.755269
 20
15.567491
 11
-8.603877
 21
15.008571
  0
LINE
  5
4B4
100
AcDbEntity
  8
0
100
AcDbLine
 62
7
  6
CONTINUOUS
 10
-9.140606
 20
17.038987
 11
-8.872063
 21
15.999981
  0
LINE
  5
4B5
100
AcDbEntity
  8
DRAFT
100
AcDbLine
 62
7
  6
CONTINUOUS
 10
-4.1112608136
 20
19.5
 11
-3.9519990562
 21
17.9033677788
  0
LINE
  5
4B6
100
AcDbEntity
  8
DRAFT
100
AcDbLine
 62
7
  6
CONTINUOUS
 10
-1.1
 20
-23.8
 11
-1.1052360356
 21
-23.2226497308
  0
LINE
  5
4B7
100
AcDbEntity
  8
0
100
AcDbLine
 62
7
  6
CONTINUOUS
 10
-1.1
 20
-23.8
 11
-1.1052360356
 21
-23.2226497308
  0
LINE
  5
4B8
100
AcDbEntity
  8
ASSI
100
AcDbLine
 62
253
  6
CONTINUOUS
 10
-3.1834304982
 20
-21.4537354271
 11
-3.1834304982
 21
-20.9917082642
  0
LINE
  5
4B9
100
AcDbEntity
  8
0
100
AcDbLine
 62
253
  6
CONTINUOUS
 10
-3.1834304982
 20
-21.4537354271
 11
-3.1834304982
 21
-20.9917082642
  0
LINE
  5
4BA
100
AcDbEntity
  8
ASSI
100
AcDbLine
 62
253
  6
CONTINUOUS
 10
-3.1834304982
 20
20.9917082642
 11
-3.1834304982
 21
21.4537354271
  0
LINE
  5
4BB
100
AcDbEntity
  8
0
100
AcDbLine
 62
253
  6
CONTINUOUS
 10
-3.1834304982
 20
20.9917082642
 11
-3.1834304982
 21
21.4537354271
  0
LINE
  5
4BC
100
AcDbEntity
  8
DRAFT
100
AcDbLine
 62
7
  6
CONTINUOUS
 10
-3.0174550649
 20
21.4051134101
 11
-3.0174550649
 21
20.9087268678
  0
LINE
  5
4BD
100
AcDbEntity
  8
0
100
AcDbLine
 62
7
  6
CONTINUOUS
 10
-3.0174550649
 20
21.4051134101
 11
-3.0174550649
 21
20.9087268678
  0
LINE
  5
4BE
100
AcDbEntity
  8
DRAFT
100
AcDbLine
 62
7
  6
CONTINUOUS
 10
-3.0174550649
 20
-20.9087268678
 11
-3.0174550649
 21
-21.4051134101
  0
LINE
  5
4BF
100
AcDbEntity
  8
0
100
AcDbLine
 62
7
  6
CONTINUOUS
 10
-3.0174550649
 20
-20.9087268678
 11
-3.0174550649
 21
-21.4051134101
  0
LINE
  5
4C0
100
AcDbEntity
  8
0
100
AcDbLine
 62
7
  6
CONTINUOUS
 10
-2.946134
 20
19.713176
 11
-2.946134
 21
18.313558
  0
LINE
  5
4C1
100
AcDbEntity
  8
0
100
AcDbLine
 62
7
  6
CONTINUOUS
 10
-2.762802
 20
18.313558
 11
-2.762802
 21
19.486701
  0
LINE
  5
4C2
100
AcDbEntity
  8
0
100
AcDbLine
 62
7
  6
CONTINUOUS
 10
-2.657604
 20
15.687575
 11
-2.657604
 21
14.286824
  0
LINE
  5
4C3
100
AcDbEntity
  8
0
100
AcDbLine
 62
7
  6
CONTINUOUS
 10
-2.468384
 20
14.286824
 11
-2.468384
 21
15.687575
  0
LINE
  5
4C4
100
AcDbEntity
  8
0
100
AcDbLine
 62
7
  6
CONTINUOUS
 10
-2.265462
 20
15.687575
 11
-2.265462
 21
15.519983
  0
LINE
  5
4C5
100
AcDbEntity
  8
0
100
AcDbLine
 62
7
  6
CONTINUOUS
 10
-1.791562
 20
15.519983
 11
-1.791562
 21
14.286824
  0
LINE
  5
4C6
100
AcDbEntity
  8
0
100
AcDbLine
 62
7
  6
CONTINUOUS
 10
-1.787712
 20
19.488965
 11
-1.787712
 21
18.313558
  0
LINE
  5
4C7
100
AcDbEntity
  8
0
100
AcDbLine
 62
7
  6
CONTINUOUS
 10
-1.60438
 20
18.313558
 11
-1.60438
 21
19.713176
  0
LINE
  5
4C8
100
AcDbEntity
  8
0
100
AcDbLine
 62
7
  6
CONTINUOUS
 10
-1.602455
 20
14.286824
 11
-1.602455
 21
15.519983
  0
LINE
  5
4C9
100
AcDbEntity
  8
0
100
AcDbLine
 62
7
  6
CONTINUOUS
 10
-1.128555
 20
15.519983
 11
-1.128555
 21
15.687575
  0
LINE
  5
4CA
100
AcDbEntity
  8
DRAFT
100
AcDbLine
 62
7
  6
CONTINUOUS
 10
-1.1052360356
 20
23.2226497308
 11
-1.1052360356
 21
22.35
  0
LINE
  5
4CB
100
AcDbEntity
  8
0
100
AcDbLine
 62
7
  6
CONTINUOUS
 10
-1.1052360356
 20
23.2226497308
 11
-1.1052360356
 21
22.35
  0
LINE
  5
4CC
100
AcDbEntity
  8
DRAFT
100
AcDbLine
 62
7
  6
CONTINUOUS
 10
-1.1052360356
 20
-22.35
 11
-1.1052360356
 21
-23.2226497308
  0
LINE
  5
4CD
100
AcDbEntity
  8
0
100
AcDbLine
 62
7
  6
CONTINUOUS
 10
-1.1052360356
 20
-22.35
 11
-1.1052360356
 21
-23.2226497308
  0
LINE
  5
4CE
100
AcDbEntity
  8
RACCORDO
100
AcDbLine
 62
7
  6
CONTINUOUS
 10
-1.1
 20
-24.2500034269
 11
-1.1
 21
-23.8
  0
LINE
  5
4CF
100
AcDbEntity
  8
0
100
AcDbLine
 62
7
  6
CONTINUOUS
 10
-1.1
 20
-24.2500034269
 11
-1.1
 21
-23.8
  0
LINE
  5
4D0
100
AcDbEntity
  8
RACCORDO
100
AcDbLine
 62
7
  6
CONTINUOUS
 10
-1.1
 20
23.8
 11
-1.1
 21
24.2500034269
  0
LINE
  5
4D1
100
AcDbEntity
  8
0
100
AcDbLine
 62
7
  6
CONTINUOUS
 10
-1.1
 20
23.8
 11
-1.1
 21
24.2500034269
  0
LINE
  5
4D2
100
AcDbEntity
  8
0
100
AcDbLine
 62
7
  6
CONTINUOUS
 10
-1.069105
 20
17.699809
 11
-1.069105
 21
16.300191
  0
LINE
  5
4D3
100
AcDbEntity
  8
0
100
AcDbLine
 62
7
  6
CONTINUOUS
 10
-0.879885
 20
16.300191
 11
-0.879885
 21
17.699809
  0
LINE
  5
4D4
100
AcDbEntity
  8
0
100
AcDbLine
 62
7
  6
CONTINUOUS
 10
-0.556251
 20
17.699809
 11
-0.556251
 21
16.300191
  0
LINE
  5
4D5
100
AcDbEntity
  8
0
100
AcDbLine
 62
7
  6
CONTINUOUS
 10
-0.372806
 20
16.300191
 11
-0.372806
 21
17.437554
  0
LINE
  5
4D6
100
AcDbEntity
  8
0
100
AcDbLine
 62
7
  6
CONTINUOUS
 10
-0.005237
 20
19.713176
 11
-0.005237
 21
18.313558
  0
LINE
  5
4D7
100
AcDbEntity
  8
0
100
AcDbLine
 62
7
  6
CONTINUOUS
 10
0.18387
 20
18.475488
 11
0.18387
 21
19.551246
  0
LINE
  5
4D8
100
AcDbEntity
  8
0
100
AcDbLine
 62
7
  6
CONTINUOUS
 10
0.347725
 20
15.687575
 11
0.347725
 21
14.286824
  0
LINE
  5
4D9
100
AcDbEntity
  8
0
100
AcDbLine
 62
7
  6
CONTINUOUS
 10
0.372185
 20
17.699809
 11
0.372185
 21
16.563299
  0
LINE
  5
4DA
100
AcDbEntity
  8
DRAFT
100
AcDbLine
 62
7
  6
CONTINUOUS
 10
-1.1052360356
 20
23.2226497308
 11
-1.1
 21
23.8
  0
LINE
  5
4DB
100
AcDbEntity
  8
0
100
AcDbLine
 62
7
  6
CONTINUOUS
 10
-1.1052360356
 20
23.2226497308
 11
-1.1
 21
23.8
  0
LINE
  5
4DC
100
AcDbEntity
  8
DRAFT
100
AcDbLine
 62
7
  6
CONTINUOUS
 10
-3.9519990562
 20
-17.9033677788
 11
-4.1112608136
 21
-19.5
  0
LINE
  5
4DD
100
AcDbEntity
  8
RACCORDO
100
AcDbLine
 62
7
  6
CONTINUOUS
 10
15.6154517179
 20
22.3057951078
 11
15.6552360356
 21
22.35
  0
LINE
  5
4DE
100
AcDbEntity
  8
0
100
AcDbLine
 62
7
  6
CONTINUOUS
 10
15.6154517179
 20
22.3057951078
 11
15.6552360356
 21
22.35
  0
LINE
  5
4DF
100
AcDbEntity
  8
DRAFT
100
AcDbLine
 62
7
  6
CONTINUOUS
 10
-15.9737961104
 20
-12.4737961104
 11
-16.0
 21
-12.5
  0
LINE
  5
4E0
100
AcDbEntity
  8
DRAFT
100
AcDbLine
 62
7
  6
CONTINUOUS
 10
-5.5737961104
 20
-4.7737961104
 11
-5.6
 21
-4.8
  0
LINE
  5
4E1
100
AcDbEntity
  8
DRAFT
100
AcDbLine
 62
7
  6
CONTINUOUS
 10
-4.8262038896
 20
-4.0262038896
 11
-4.8
 21
-4.0
  0
LINE
  5
4E2
100
AcDbEntity
  8
0
100
AcDbLine
 62
7
  6
CONTINUOUS
 10
-19.799125
 20
-2.260495
 11
-17.0
 21
-2.260495
  0
LINE
  5
4E3
100
AcDbEntity
  8
0
100
AcDbLine
 62
7
  6
CONTINUOUS
 10
-19.799125
 20
-0.48124
 11
-17.822157
 21
-0.48125
  0
LINE
  5
4E4
100
AcDbEntity
  8
0
100
AcDbLine
 62
7
  6
CONTINUOUS
 10
-17.0
 20
0.0
 11
-19.799125
 21
0.0
  0
LINE
  5
4E5
100
AcDbEntity
  8
0
100
AcDbLine
 62
7
  6
CONTINUOUS
 10
-17.0
 20
-1.779259
 11
-18.95539
 21
-1.772478
  0
LINE
  5
4E6
100
AcDbEntity
  8
0
100
AcDbLine
 62
7
  6
CONTINUOUS
 10
-18.6489361525
 20
3.5416667461
 11
-18.904255271
 21
3.5833332539
  0
LINE
  5
4E7
100
AcDbEntity
  8
0
100
AcDbLine
 62
7
  6
CONTINUOUS
 10
-18.904255271
 20
3.375
 11
-18.6914893389
 21
3.3333333731
  0
LINE
  5
4E8
100
AcDbEntity
  8
0
100
AcDbLine
 62
7
  6
CONTINUOUS
 10
-19.2021276951
 20
1.5833333358
 11
-19.0319149494
 21
1.5416666679
  0
LINE
  5
4E9
100
AcDbEntity
  8
0
100
AcDbLine
 62
7
  6
CONTINUOUS
 10
-18.7765957117
 20
2.9583333731
 11
-18.9468084574
 21
3.0
  0
LINE
  5
4EA
100
AcDbEntity
  8
0
100
AcDbLine
 62
7
  6
CONTINUOUS
 10
-19.0319149494
 20
3.4166666269
 11
-18.904255271
 21
3.375
  0
LINE
  5
4EB
100
AcDbEntity
  8
0
100
AcDbLine
 62
7
  6
CONTINUOUS
 10
-17.9680851102
 20
4.75
 11
-18.0957446694
 21
4.7916667461
  0
LINE
  5
4EC
100
AcDbEntity
  8
0
100
AcDbLine
 62
7
  6
CONTINUOUS
 10
-19.0319149494
 20
5.25
 11
-18.904255271
 21
5.2083332539
  0
LINE
  5
4ED
100
AcDbEntity
  8
0
100
AcDbLine
 62
7
  6
CONTINUOUS
 10
-17.7978723347
 20
6.5
 11
-17.9680851102
 21
6.5833334923
  0
LINE
  5
4EE
100
AcDbEntity
  8
0
100
AcDbLine
 62
7
  6
CONTINUOUS
 10
-19.0319149494
 20
9.25
 11
-19.1595745087
 21
9.3333334923
  0
LINE
  5
4EF
100
AcDbEntity
  8
0
100
AcDbLine
 62
7
  6
CONTINUOUS
 10
-18.6489361525
 20
10.375
 11
-18.7765957117
 21
10.4583330154
  0
LINE
  5
4F0
100
AcDbEntity
  8
DRAFT
100
AcDbLine
 62
7
  6
CONTINUOUS
 10
-15.9737961104
 20
12.4737961104
 11
-16.0
 21
12.5
  0
LINE
  5
4F1
100
AcDbEntity
  8
DRAFT
100
AcDbLine
 62
7
  6
CONTINUOUS
 10
-4.8262038896
 20
4.0262038896
 11
-4.8
 21
4.0
  0
LINE
  5
4F2
100
AcDbEntity
  8
DRAFT
100
AcDbLine
 62
7
  6
CONTINUOUS
 10
-5.5737961104
 20
4.7737961104
 11
-5.6
 21
4.8
  0
LINE
  5
4F3
100
AcDbEntity
  8
RACCORDO
100
AcDbLine
 62
7
  6
CONTINUOUS
 10
15.6552360356
 20
-22.35
 11
15.6154517179
 21
-22.3057951078
  0
LINE
  5
4F4
100
AcDbEntity
  8
0
100
AcDbLine
 62
7
  6
CONTINUOUS
 10
15.6552360356
 20
-22.35
 11
15.6154517179
 21
-22.3057951078
  0
LINE
  5
4F5
100
AcDbEntity
  8
ASSI
100
AcDbLine
 62
7
  6
CONTINUOUS
 10
7.744178
 20
-17.825886
 11
7.596221
 21
-17.562274
  0
LINE
  5
4F6
100
AcDbEntity
  8
0
100
AcDbLine
 62
7
  6
CONTINUOUS
 10
-7.987935
 20
15.008571
 11
-8.846953
 21
17.808274
  0
LINE
  5
4F7
100
AcDbEntity
  8
DRAFT
100
AcDbLine
 62
7
  6
CONTINUOUS
 10
-3.9549759476
 20
20.5379423332
 11
-4.0152652679
 21
20.9
  0
LINE
  5
4F8
100
AcDbEntity
  8
DRAFT
100
AcDbLine
 62
7
  6
CONTINUOUS
 10
3.9519990562
 20
-17.9033677788
 11
4.1112608136
 21
-19.5
  0
LINE
  5
4F9
100
AcDbEntity
  8
DRAFT
100
AcDbLine
 62
7
  6
CONTINUOUS
 10
1.1
 20
23.8
 11
1.1052360356
 21
23.2226497308
  0
LINE
  5
4FA
100
AcDbEntity
  8
0
100
AcDbLine
 62
7
  6
CONTINUOUS
 10
1.1
 20
23.8
 11
1.1052360356
 21
23.2226497308
  0
LINE
  5
4FB
100
AcDbEntity
  8
DRAFT
100
AcDbLine
 62
7
  6
CONTINUOUS
 10
3.9947639644
 20
-23.2226497308
 11
4.0
 21
-23.8
  0
LINE
  5
4FC
100
AcDbEntity
  8
0
100
AcDbLine
 62
7
  6
CONTINUOUS
 10
3.9947639644
 20
-23.2226497308
 11
4.0
 21
-23.8
  0
LINE
  5
4FD
100
AcDbEntity
  8
0
100
AcDbLine
 62
7
  6
CONTINUOUS
 10
0.536832
 20
14.454416
 11
0.536832
 21
15.687575
  0
LINE
  5
4FE
100
AcDbEntity
  8
0
100
AcDbLine
 62
7
  6
CONTINUOUS
 10
0.555403
 20
16.300191
 11
0.555403
 21
17.699809
  0
LINE
  5
4FF
100
AcDbEntity
  8
RACCORDO
100
AcDbLine
 62
7
  6
CONTINUOUS
 10
1.1
 20
24.2500034269
 11
1.1
 21
23.8
  0
LINE
  5
500
100
AcDbEntity
  8
0
100
AcDbLine
 62
7
  6
CONTINUOUS
 10
1.1
 20
24.2500034269
 11
1.1
 21
23.8
  0
LINE
  5
501
100
AcDbEntity
  8
RACCORDO
100
AcDbLine
 62
7
  6
CONTINUOUS
 10
1.1
 20
-23.8
 11
1.1
 21
-24.2500034269
  0
LINE
  5
502
100
AcDbEntity
  8
0
100
AcDbLine
 62
7
  6
CONTINUOUS
 10
1.1
 20
-23.8
 11
1.1
 21
-24.2500034269
  0
LINE
  5
503
100
AcDbEntity
  8
DRAFT
100
AcDbLine
 62
7
  6
CONTINUOUS
 10
1.1052360356
 20
23.2226497308
 11
1.1052360356
 21
22.35
  0
LINE
  5
504
100
AcDbEntity
  8
0
100
AcDbLine
 62
7
  6
CONTINUOUS
 10
1.1052360356
 20
23.2226497308
 11
1.1052360356
 21
22.35
  0
LINE
  5
505
100
AcDbEntity
  8
DRAFT
100
AcDbLine
 62
7
  6
CONTINUOUS
 10
1.1052360356
 20
-22.35
 11
1.1052360356
 21
-23.2226497308
  0
LINE
  5
506
100
AcDbEntity
  8
0
100
AcDbLine
 62
7
  6
CONTINUOUS
 10
1.1052360356
 20
-22.35
 11
1.1052360356
 21
-23.2226497308
  0
LINE
  5
507
100
AcDbEntity
  8
0
100
AcDbLine
 62
7
  6
CONTINUOUS
 10
1.24672
 20
14.286824
 11
1.24672
 21
14.454416
  0
LINE
  5
508
100
AcDbEntity
  8
0
100
AcDbLine
 62
7
  6
CONTINUOUS
 10
1.4125
 20
19.713176
 11
1.4125
 21
18.313558
  0
LINE
  5
509
100
AcDbEntity
  8
0
100
AcDbLine
 62
7
  6
CONTINUOUS
 10
1.547139
 20
14.850748
 11
1.547139
 21
14.286824
  0
LINE
  5
50A
100
AcDbEntity
  8
0
100
AcDbLine
 62
7
  6
CONTINUOUS
 10
1.60172
 20
18.48115
 11
1.60172
 21
18.948821
  0
LINE
  5
50B
100
AcDbEntity
  8
0
100
AcDbLine
 62
7
  6
CONTINUOUS
 10
1.60172
 20
19.116413
 11
1.60172
 21
19.545584
  0
LINE
  5
50C
100
AcDbEntity
  8
0
100
AcDbLine
 62
7
  6
CONTINUOUS
 10
1.736246
 20
14.286824
 11
1.736246
 21
14.850748
  0
LINE
  5
50D
100
AcDbEntity
  8
0
100
AcDbLine
 62
7
  6
CONTINUOUS
 10
2.368113
 20
18.948821
 11
2.368113
 21
19.116413
  0
LINE
  5
50E
100
AcDbEntity
  8
0
100
AcDbLine
 62
7
  6
CONTINUOUS
 10
2.432432
 20
19.545584
 11
2.432432
 21
19.713176
  0
LINE
  5
50F
100
AcDbEntity
  8
0
100
AcDbLine
 62
7
  6
CONTINUOUS
 10
2.446134
 20
18.313558
 11
2.446134
 21
18.48115
  0
LINE
  5
510
100
AcDbEntity
  8
DRAFT
100
AcDbLine
 62
7
  6
CONTINUOUS
 10
3.0174550649
 20
-21.4051134101
 11
3.0174550649
 21
-20.9087268678
  0
LINE
  5
511
100
AcDbEntity
  8
0
100
AcDbLine
 62
7
  6
CONTINUOUS
 10
3.0174550649
 20
-21.4051134101
 11
3.0174550649
 21
-20.9087268678
  0
LINE
  5
512
100
AcDbEntity
  8
DRAFT
100
AcDbLine
 62
7
  6
CONTINUOUS
 10
3.0174550649
 20
20.9087268678
 11
3.0174550649
 21
21.4051134101
  0
LINE
  5
513
100
AcDbEntity
  8
0
100
AcDbLine
 62
7
  6
CONTINUOUS
 10
3.0174550649
 20
20.9087268678
 11
3.0174550649
 21
21.4051134101
  0
LINE
  5
514
100
AcDbEntity
  8
ASSI
100
AcDbLine
 62
253
  6
CONTINUOUS
 10
3.1834304982
 20
21.4537354271
 11
3.1834304982
 21
20.9917082642
  0
LINE
  5
515
100
AcDbEntity
  8
0
100
AcDbLine
 62
253
  6
CONTINUOUS
 10
3.1834304982
 20
21.4537354271
 11
3.1834304982
 21
20.9917082642
  0
LINE
  5
516
100
AcDbEntity
  8
ASSI
100
AcDbLine
 62
253
  6
CONTINUOUS
 10
3.1834304982
 20
-20.9917082642
 11
3.1834304982
 21
-21.4537354271
  0
LINE
  5
517
100
AcDbEntity
  8
0
100
AcDbLine
 62
253
  6
CONTINUOUS
 10
3.1834304982
 20
-20.9917082642
 11
3.1834304982
 21
-21.4537354271
  0
LINE
  5
518
100
AcDbEntity
  8
RACCORDO
100
AcDbLine
 62
253
  6
CONTINUOUS
 10
3.6833543458
 20
21.2859869487
 11
3.6833543458
 21
20.9959955457
  0
LINE
  5
519
100
AcDbEntity
  8
0
100
AcDbLine
 62
253
  6
CONTINUOUS
 10
3.6833543458
 20
21.2859869487
 11
3.6833543458
 21
20.9959955457
  0
LINE
  5
51A
100
AcDbEntity
  8
RACCORDO
100
AcDbLine
 62
253
  6
CONTINUOUS
 10
3.6833543458
 20
-20.9959955457
 11
3.6833543458
 21
-21.2859869487
  0
LINE
  5
51B
100
AcDbEntity
  8
0
100
AcDbLine
 62
253
  6
CONTINUOUS
 10
3.6833543458
 20
-20.9959955457
 11
3.6833543458
 21
-21.2859869487
  0
LINE
  5
51C
100
AcDbEntity
  8
DRAFT
100
AcDbLine
 62
7
  6
CONTINUOUS
 10
3.95
 20
20.9959955457
 11
3.95
 21
19.7
  0
LINE
  5
51D
100
AcDbEntity
  8
DRAFT
100
AcDbLine
 62
7
  6
CONTINUOUS
 10
3.95
 20
-19.7
 11
3.95
 21
-20.9959955457
  0
LINE
  5
51E
100
AcDbEntity
  8
DRAFT
100
AcDbLine
 62
7
  6
CONTINUOUS
 10
3.9947639644
 20
23.2226497308
 11
3.9947639644
 21
22.35
  0
LINE
  5
51F
100
AcDbEntity
  8
0
100
AcDbLine
 62
7
  6
CONTINUOUS
 10
3.9947639644
 20
23.2226497308
 11
3.9947639644
 21
22.35
  0
LINE
  5
520
100
AcDbEntity
  8
DRAFT
100
AcDbLine
 62
7
  6
CONTINUOUS
 10
3.9947639644
 20
-22.35
 11
3.9947639644
 21
-23.2226497308
  0
LINE
  5
521
100
AcDbEntity
  8
0
100
AcDbLine
 62
7
  6
CONTINUOUS
 10
3.9947639644
 20
-22.35
 11
3.9947639644
 21
-23.2226497308
  0
LINE
  5
522
100
AcDbEntity
  8
RACCORDO
100
AcDbLine
 62
7
  6
CONTINUOUS
 10
4.0
 20
-24.2500034269
 11
4.0
 21
-23.8
  0
LINE
  5
523
100
AcDbEntity
  8
0
100
AcDbLine
 62
7
  6
CONTINUOUS
 10
4.0
 20
-24.2500034269
 11
4.0
 21
-23.8
  0
LINE
  5
524
100
AcDbEntity
  8
RACCORDO
100
AcDbLine
 62
7
  6
CONTINUOUS
 10
4.0
 20
23.8
 11
4.0
 21
24.2500034269
  0
LINE
  5
525
100
AcDbEntity
  8
0
100
AcDbLine
 62
7
  6
CONTINUOUS
 10
4.0
 20
23.8
 11
4.0
 21
24.2500034269
  0
LINE
  5
526
100
AcDbEntity
  8
DRAFT
100
AcDbLine
 62
7
  6
CONTINUOUS
 10
4.1112608136
 20
19.7
 11
4.1112608136
 21
19.5
  0
LINE
  5
527
100
AcDbEntity
  8
DRAFT
100
AcDbLine
 62
7
  6
CONTINUOUS
 10
4.1112608136
 20
-19.5
 11
4.1112608136
 21
-19.7
  0
LINE
  5
528
100
AcDbEntity
  8
DRAFT
100
AcDbLine
 62
7
  6
CONTINUOUS
 10
1.1052360356
 20
-23.2226497308
 11
1.1
 21
-23.8
  0
LINE
  5
529
100
AcDbEntity
  8
0
100
AcDbLine
 62
7
  6
CONTINUOUS
 10
1.1052360356
 20
-23.2226497308
 11
1.1
 21
-23.8
  0
LINE
  5
52A
100
AcDbEntity
  8
DRAFT
100
AcDbLine
 62
7
  6
CONTINUOUS
 10
4.0
 20
23.8
 11
3.9947639644
 21
23.2226497308
  0
LINE
  5
52B
100
AcDbEntity
  8
0
100
AcDbLine
 62
7
  6
CONTINUOUS
 10
4.0
 20
23.8
 11
3.9947639644
 21
23.2226497308
  0
LINE
  5
52C
100
AcDbEntity
  8
DRAFT
100
AcDbLine
 62
7
  6
CONTINUOUS
 10
4.1112608136
 20
19.5
 11
3.9519990562
 21
17.9033677788
  0
LINE
  5
52D
100
AcDbEntity
  8
RACCORDO
100
AcDbLine
 62
7
  6
CONTINUOUS
 10
-15.6154517179
 20
-22.3057951078
 11
-15.6552360356
 21
-22.35
  0
LINE
  5
52E
100
AcDbEntity
  8
0
100
AcDbLine
 62
7
  6
CONTINUOUS
 10
-15.6154517179
 20
-22.3057951078
 11
-15.6552360356
 21
-22.35
  0
LINE
  5
52F
100
AcDbEntity
  8
DRAFT
100
AcDbLine
 62
7
  6
CONTINUOUS
 10
4.8262038896
 20
4.0262038896
 11
4.8
 21
4.0
  0
LINE
  5
530
100
AcDbEntity
  8
DRAFT
100
AcDbLine
 62
7
  6
CONTINUOUS
 10
5.5737961104
 20
4.7737961104
 11
5.6
 21
4.8
  0
LINE
  5
531
100
AcDbEntity
  8
DRAFT
100
AcDbLine
 62
7
  6
CONTINUOUS
 10
15.9737961104
 20
12.4737961104
 11
16.0
 21
12.5
  0
LINE
  5
532
100
AcDbEntity
  8
RACCORDO
100
AcDbLine
 62
7
  6
CONTINUOUS
 10
-18.4905416262
 20
-22.2859700255
 11
-18.5558178298
 21
-22.3441821702
  0
LINE
  5
533
100
AcDbEntity
  8
0
100
AcDbLine
 62
7
  6
CONTINUOUS
 10
-18.4905416262
 20
-22.2859700255
 11
-18.5558178298
 21
-22.3441821702
  0
LINE
  5
534
100
AcDbEntity
  8
0
100
AcDbLine
 62
7
  6
CONTINUOUS
 10
-17.7127659619
 20
1.5
 11
-17.5
 21
1.5
  0
LINE
  5
535
100
AcDbEntity
  8
0
100
AcDbLine
 62
7
  6
CONTINUOUS
 10
-19.0319149494
 20
2.75
 11
-18.9468084574
 21
2.75
  0
LINE
  5
536
100
AcDbEntity
  8
0
100
AcDbLine
 62
7
  6
CONTINUOUS
 10
-17.5
 20
3.0
 11
-17.7127659619
 21
3.0
  0
LINE
  5
537
100
AcDbEntity
  8
0
100
AcDbLine
 62
7
  6
CONTINUOUS
 10
-18.9468084574
 20
3.0
 11
-19.0319149494
 21
3.0
  0
LINE
  5
538
100
AcDbEntity
  8
0
100
AcDbLine
 62
7
  6
CONTINUOUS
 10
-18.6914893389
 20
3.3333333731
 11
-18.3085106611
 21
3.3333333731
  0
LINE
  5
539
100
AcDbEntity
  8
0
100
AcDbLine
 62
7
  6
CONTINUOUS
 10
-18.3510638475
 20
3.5416667461
 11
-18.6489361525
 21
3.5416667461
  0
LINE
  5
53A
100
AcDbEntity
  8
DRAFT
100
AcDbLine
 62
7
  6
CONTINUOUS
 10
15.2
 20
4.0
 11
5.6
 21
4.0
  0
LINE
  5
53B
100
AcDbEntity
  8
DRAFT
100
AcDbLine
 62
7
  6
CONTINUOUS
 10
4.8
 20
4.0
 11
-4.8
 21
4.0
  0
LINE
  5
53C
100
AcDbEntity
  8
DRAFT
100
AcDbLine
 62
7
  6
CONTINUOUS
 10
-5.6
 20
4.0
 11
-15.2
 21
4.0
  0
LINE
  5
53D
100
AcDbEntity
  8
DRAFT
100
AcDbLine
 62
7
  6
CONTINUOUS
 10
-15.2262038896
 20
4.0262038896
 11
-5.5737961104
 21
4.0262038896
  0
LINE
  5
53E
100
AcDbEntity
  8
DRAFT
100
AcDbLine
 62
7
  6
CONTINUOUS
 10
-4.8262038896
 20
4.0262038896
 11
4.8262038896
 21
4.0262038896
  0
LINE
  5
53F
100
AcDbEntity
  8
DRAFT
100
AcDbLine
 62
7
  6
CONTINUOUS
 10
5.5737961104
 20
4.0262038896
 11
15.2262038896
 21
4.0262038896
  0
LINE
  5
540
100
AcDbEntity
  8
0
100
AcDbLine
 62
7
  6
CONTINUOUS
 10
-18.3510638475
 20
4.625
 11
-18.0957446694
 21
4.5833332539
  0
LINE
  5
541
100
AcDbEntity
  8
0
100
AcDbLine
 62
7
  6
CONTINUOUS
 10
-18.6489361525
 20
5.375
 11
-18.904255271
 21
5.4166667461
  0
LINE
  5
542
100
AcDbEntity
  8
0
100
AcDbLine
 62
7
  6
CONTINUOUS
 10
-18.3510638475
 20
6.4583334923
 11
-18.0957446694
 21
6.4166665077
  0
LINE
  5
543
100
AcDbEntity
  8
0
100
AcDbLine
 62
7
  6
CONTINUOUS
 10
-18.0957446694
 20
4.7916667461
 11
-18.3085106611
 21
4.8333332539
  0
LINE
  5
544
100
AcDbEntity
  8
0
100
AcDbLine
 62
7
  6
CONTINUOUS
 10
-18.904255271
 20
5.2083332539
 11
-18.6914893389
 21
5.1666667461
  0
LINE
  5
545
100
AcDbEntity
  8
0
100
AcDbLine
 62
7
  6
CONTINUOUS
 10
-18.0957446694
 20
6.625
 11
-18.3085106611
 21
6.6666665077
  0
LINE
  5
546
100
AcDbEntity
  8
0
100
AcDbLine
 62
7
  6
CONTINUOUS
 10
-19.2021276951
 20
9.0833334923
 11
-19.0319149494
 21
9.0416665077
  0
LINE
  5
547
100
AcDbEntity
  8
0
100
AcDbLine
 62
7
  6
CONTINUOUS
 10
-17.9680851102
 20
6.5833334923
 11
-18.0957446694
 21
6.625
  0
LINE
  5
548
100
AcDbEntity
  8
0
100
AcDbLine
 62
7
  6
CONTINUOUS
 10
-18.9468084574
 20
10.25
 11
-18.7765957117
 21
10.1666669846
  0
LINE
  5
549
100
AcDbEntity
  8
RACCORDO
100
AcDbLine
 62
7
  6
CONTINUOUS
 10
-18.4905416262
 20
22.2859700255
 11
-18.5558178298
 21
22.3441821702
  0
LINE
  5
54A
100
AcDbEntity
  8
0
100
AcDbLine
 62
7
  6
CONTINUOUS
 10
-18.4905416262
 20
22.2859700255
 11
-18.5558178298
 21
22.3441821702
  0
LINE
  5
54B
100
AcDbEntity
  8
DRAFT
100
AcDbLine
 62
7
  6
CONTINUOUS
 10
5.5737961104
 20
-4.7737961104
 11
5.6
 21
-4.8
  0
LINE
  5
54C
100
AcDbEntity
  8
DRAFT
100
AcDbLine
 62
7
  6
CONTINUOUS
 10
4.8262038896
 20
-4.0262038896
 11
4.8
 21
-4.0
  0
LINE
  5
54D
100
AcDbEntity
  8
DRAFT
100
AcDbLine
 62
7
  6
CONTINUOUS
 10
-17.9112608136
 20
20.1612608136
 11
-17.7543163085
 21
20.0043163085
  0
LINE
  5
54E
100
AcDbEntity
  8
DRAFT
100
AcDbLine
 62
7
  6
CONTINUOUS
 10
15.9737961104
 20
-12.4737961104
 11
16.0
 21
-12.5
  0
LINE
  5
54F
100
AcDbEntity
  8
RACCORDO
100
AcDbLine
 62
7
  6
CONTINUOUS
 10
-15.6552360356
 20
22.35
 11
-15.6154517179
 21
22.3057951078
  0
LINE
  5
550
100
AcDbEntity
  8
0
100
AcDbLine
 62
7
  6
CONTINUOUS
 10
-15.6552360356
 20
22.35
 11
-15.6154517179
 21
22.3057951078
  0
LINE
  5
551
100
AcDbEntity
  8
0
100
AcDbLine
 62
7
  6
CONTINUOUS
 10
-2.273327
 20
18.523961
 11
-2.675043
 21
19.713176
  0
LINE
  5
552
100
AcDbEntity
  8
0
100
AcDbLine
 62
7
  6
CONTINUOUS
 10
-2.762802
 20
19.486701
 11
-2.368848
 21
18.313558
  0
LINE
  5
553
100
AcDbEntity
  8
0
100
AcDbLine
 62
7
  6
CONTINUOUS
 10
-0.447918
 20
15.483586
 11
-0.239299
 21
14.862072
  0
LINE
  5
554
100
AcDbEntity
  8
DRAFT
100
AcDbLine
 62
7
  6
CONTINUOUS
 10
4.5887391864
 20
19.5
 11
4.7480009438
 21
17.9033677788
  0
LINE
  5
555
100
AcDbEntity
  8
DRAFT
100
AcDbLine
 62
7
  6
CONTINUOUS
 10
8.1737555355
 20
-21.6237555355
 11
8.1540044543
 21
-20.8
  0
LINE
  5
556
100
AcDbEntity
  8
0
100
AcDbLine
 62
7
  6
CONTINUOUS
 10
8.1737555355
 20
-21.6237555355
 11
8.1540044543
 21
-20.8
  0
LINE
  5
557
100
AcDbEntity
  8
ASSI
100
AcDbLine
 62
7
  6
CONTINUOUS
 10
6.85
 20
-23.8
 11
6.8467865245
 21
-23.4456668619
  0
LINE
  5
558
100
AcDbEntity
  8
0
100
AcDbLine
 62
7
  6
CONTINUOUS
 10
6.85
 20
-23.8
 11
6.8467865245
 21
-23.4456668619
  0
LINE
  5
559
100
AcDbEntity
  8
DRAFT
100
AcDbLine
 62
7
  6
CONTINUOUS
 10
4.5887391864
 20
19.7
 11
4.5887391864
 21
19.5
  0
LINE
  5
55A
100
AcDbEntity
  8
DRAFT
100
AcDbLine
 62
7
  6
CONTINUOUS
 10
4.5887391864
 20
-19.5
 11
4.5887391864
 21
-19.7
  0
LINE
  5
55B
100
AcDbEntity
  8
0
100
AcDbLine
 62
7
  6
CONTINUOUS
 10
4.75
 20
20.0
 11
4.75
 21
19.7
  0
LINE
  5
55C
100
AcDbEntity
  8
0
100
AcDbLine
 62
7
  6
CONTINUOUS
 10
4.75
 20
-19.7
 11
4.75
 21
-20.0
  0
LINE
  5
55D
100
AcDbEntity
  8
DRAFT
100
AcDbLine
 62
7
  6
CONTINUOUS
 10
4.8
 20
-12.5
 11
4.8
 21
-4.8
  0
LINE
  5
55E
100
AcDbEntity
  8
DRAFT
100
AcDbLine
 62
7
  6
CONTINUOUS
 10
4.8
 20
-4.0
 11
4.8
 21
4.0
  0
LINE
  5
55F
100
AcDbEntity
  8
DRAFT
100
AcDbLine
 62
7
  6
CONTINUOUS
 10
4.8
 20
4.8
 11
4.8
 21
12.5
  0
LINE
  5
560
100
AcDbEntity
  8
DRAFT
100
AcDbLine
 62
7
  6
CONTINUOUS
 10
4.8262038896
 20
12.4737961104
 11
4.8262038896
 21
4.7737961104
  0
LINE
  5
561
100
AcDbEntity
  8
DRAFT
100
AcDbLine
 62
7
  6
CONTINUOUS
 10
4.8262038896
 20
4.0262038896
 11
4.8262038896
 21
-4.0262038896
  0
LINE
  5
562
100
AcDbEntity
  8
DRAFT
100
AcDbLine
 62
7
  6
CONTINUOUS
 10
4.8262038896
 20
-12.4737961104
 11
4.8262038896
 21
-4.7737961104
  0
LINE
  5
563
100
AcDbEntity
  8
DRAFT
100
AcDbLine
 62
7
  6
CONTINUOUS
 10
5.5737961104
 20
12.4737961104
 11
5.5737961104
 21
4.7737961104
  0
LINE
  5
564
100
AcDbEntity
  8
DRAFT
100
AcDbLine
 62
7
  6
CONTINUOUS
 10
5.5737961104
 20
-12.4737961104
 11
5.5737961104
 21
-4.7737961104
  0
LINE
  5
565
100
AcDbEntity
  8
DRAFT
100
AcDbLine
 62
7
  6
CONTINUOUS
 10
5.5737961104
 20
-4.0262038896
 11
5.5737961104
 21
4.0262038896
  0
LINE
  5
566
100
AcDbEntity
  8
DRAFT
100
AcDbLine
 62
7
  6
CONTINUOUS
 10
5.6
 20
12.5
 11
5.6
 21
4.8
  0
LINE
  5
567
100
AcDbEntity
  8
DRAFT
100
AcDbLine
 62
7
  6
CONTINUOUS
 10
5.6
 20
4.0
 11
5.6
 21
-4.0
  0
LINE
  5
568
100
AcDbEntity
  8
DRAFT
100
AcDbLine
 62
7
  6
CONTINUOUS
 10
5.6
 20
-4.8
 11
5.6
 21
-12.5
  0
LINE
  5
569
100
AcDbEntity
  8
ASSI
100
AcDbLine
 62
7
  6
CONTINUOUS
 10
6.546068
 20
-17.970433
 11
6.546068
 21
-17.649006
  0
LINE
  5
56A
100
AcDbEntity
  8
ASSI
100
AcDbLine
 62
7
  6
CONTINUOUS
 10
6.556565
 20
-15.365424
 11
6.556565
 21
-15.042229
  0
LINE
  5
56B
100
AcDbEntity
  8
ASSI
100
AcDbLine
 62
7
  6
CONTINUOUS
 10
6.830922
 20
-17.649006
 11
6.830922
 21
-16.58329
  0
LINE
  5
56C
100
AcDbEntity
  8
ASSI
100
AcDbLine
 62
7
  6
CONTINUOUS
 10
6.830922
 20
-16.184959
 11
6.830922
 21
-15.365424
  0
LINE
  5
56D
100
AcDbEntity
  8
ASSI
100
AcDbLine
 62
7
  6
CONTINUOUS
 10
6.8447639644
 20
-22.35
 11
6.8447639644
 21
-22.85711136
  0
LINE
  5
56E
100
AcDbEntity
  8
0
100
AcDbLine
 62
7
  6
CONTINUOUS
 10
6.8447639644
 20
-22.35
 11
6.8447639644
 21
-22.85711136
  0
LINE
  5
56F
100
AcDbEntity
  8
ASSI
100
AcDbLine
 62
7
  6
CONTINUOUS
 10
6.8447639644
 20
22.35
 11
6.8447639644
 21
22.85711136
  0
LINE
  5
570
100
AcDbEntity
  8
0
100
AcDbLine
 62
7
  6
CONTINUOUS
 10
6.8447639644
 20
22.35
 11
6.8447639644
 21
22.85711136
  0
LINE
  5
571
100
AcDbEntity
  8
DRAFT
100
AcDbLine
 62
7
  6
CONTINUOUS
 10
6.85
 20
24.0
 11
6.85
 21
23.8
  0
LINE
  5
572
100
AcDbEntity
  8
0
100
AcDbLine
 62
7
  6
CONTINUOUS
 10
6.85
 20
24.0
 11
6.85
 21
23.8
  0
LINE
  5
573
100
AcDbEntity
  8
DRAFT
100
AcDbLine
 62
7
  6
CONTINUOUS
 10
6.85
 20
-23.8
 11
6.85
 21
-24.0
  0
LINE
  5
574
100
AcDbEntity
  8
0
100
AcDbLine
 62
7
  6
CONTINUOUS
 10
6.85
 20
-23.8
 11
6.85
 21
-24.0
  0
LINE
  5
575
100
AcDbEntity
  8
ASSI
100
AcDbLine
 62
7
  6
CONTINUOUS
 10
6.8840342314
 20
23.4906890903
 11
6.8840342314
 21
22.8093109097
  0
LINE
  5
576
100
AcDbEntity
  8
0
100
AcDbLine
 62
7
  6
CONTINUOUS
 10
6.8840342314
 20
23.4906890903
 11
6.8840342314
 21
22.8093109097
  0
LINE
  5
577
100
AcDbEntity
  8
ASSI
100
AcDbLine
 62
7
  6
CONTINUOUS
 10
6.8840342314
 20
-23.4906890903
 11
6.8840342314
 21
-22.8093109097
  0
LINE
  5
578
100
AcDbEntity
  8
0
100
AcDbLine
 62
7
  6
CONTINUOUS
 10
6.8840342314
 20
-23.4906890903
 11
6.8840342314
 21
-22.8093109097
  0
LINE
  5
579
100
AcDbEntity
  8
ASSI
100
AcDbLine
 62
253
  6
CONTINUOUS
 10
6.8845482821
 20
-22.3057951078
 11
6.8845482821
 21
-23.7562325953
  0
LINE
  5
57A
100
AcDbEntity
  8
0
100
AcDbLine
 62
253
  6
CONTINUOUS
 10
6.8845482821
 20
-22.3057951078
 11
6.8845482821
 21
-23.7562325953
  0
LINE
  5
57B
100
AcDbEntity
  8
ASSI
100
AcDbLine
 62
253
  6
CONTINUOUS
 10
6.8845482821
 20
22.3057951078
 11
6.8845482821
 21
23.7562325953
  0
LINE
  5
57C
100
AcDbEntity
  8
0
100
AcDbLine
 62
253
  6
CONTINUOUS
 10
6.8845482821
 20
22.3057951078
 11
6.8845482821
 21
23.7562325953
  0
LINE
  5
57D
100
AcDbEntity
  8
ASSI
100
AcDbLine
 62
7
  6
CONTINUOUS
 10
7.173343
 20
-15.365424
 11
7.173343
 21
-16.184959
  0
LINE
  5
57E
100
AcDbEntity
  8
ASSI
100
AcDbLine
 62
7
  6
CONTINUOUS
 10
7.173343
 20
-16.579696
 11
7.173343
 21
-17.649006
  0
LINE
  5
57F
100
AcDbEntity
  8
ASSI
100
AcDbLine
 62
7
  6
CONTINUOUS
 10
7.44759
 20
-15.042229
 11
7.44759
 21
-15.365424
  0
LINE
  5
580
100
AcDbEntity
  8
ASSI
100
AcDbLine
 62
7
  6
CONTINUOUS
 10
7.458087
 20
-17.649006
 11
7.458087
 21
-17.970433
  0
LINE
  5
581
100
AcDbEntity
  8
ASSI
100
AcDbLine
 62
253
  6
CONTINUOUS
 10
7.6924062896
 20
-22.3057869048
 11
7.6924062896
 21
-23.755948138
  0
LINE
  5
582
100
AcDbEntity
  8
0
100
AcDbLine
 62
253
  6
CONTINUOUS
 10
7.6924062896
 20
-22.3057869048
 11
7.6924062896
 21
-23.755948138
  0
LINE
  5
583
100
AcDbEntity
  8
ASSI
100
AcDbLine
 62
253
  6
CONTINUOUS
 10
7.6924062896
 20
22.3057869048
 11
7.6924062896
 21
23.755948138
  0
LINE
  5
584
100
AcDbEntity
  8
0
100
AcDbLine
 62
253
  6
CONTINUOUS
 10
7.6924062896
 20
22.3057869048
 11
7.6924062896
 21
23.755948138
  0
LINE
  5
585
100
AcDbEntity
  8
DRAFT
100
AcDbLine
 62
7
  6
CONTINUOUS
 10
7.75
 20
-23.8
 11
7.75
 21
-22.3441821702
  0
LINE
  5
586
100
AcDbEntity
  8
0
100
AcDbLine
 62
7
  6
CONTINUOUS
 10
7.75
 20
-23.8
 11
7.75
 21
-22.3441821702
  0
LINE
  5
587
100
AcDbEntity
  8
DRAFT
100
AcDbLine
 62
7
  6
CONTINUOUS
 10
7.75
 20
22.3441821702
 11
7.75
 21
23.8
  0
LINE
  5
588
100
AcDbEntity
  8
0
100
AcDbLine
 62
7
  6
CONTINUOUS
 10
7.75
 20
22.3441821702
 11
7.75
 21
23.8
  0
LINE
  5
589
100
AcDbEntity
  8
DRAFT
100
AcDbLine
 62
7
  6
CONTINUOUS
 10
8.1540044543
 20
-21.2859869487
 11
8.1540044543
 21
-20.8
  0
LINE
  5
58A
100
AcDbEntity
  8
0
100
AcDbLine
 62
7
  6
CONTINUOUS
 10
8.1540044543
 20
-21.2859869487
 11
8.1540044543
 21
-20.8
  0
LINE
  5
58B
100
AcDbEntity
  8
DRAFT
100
AcDbLine
 62
7
  6
CONTINUOUS
 10
8.1540044543
 20
20.8
 11
8.1540044543
 21
21.2859869487
  0
LINE
  5
58C
100
AcDbEntity
  8
0
100
AcDbLine
 62
7
  6
CONTINUOUS
 10
8.1540044543
 20
20.8
 11
8.1540044543
 21
21.2859869487
  0
LINE
  5
58D
100
AcDbEntity
  8
DRAFT
100
AcDbLine
 62
7
  6
CONTINUOUS
 10
8.25
 20
-22.3441821702
 11
8.25
 21
-21.7
  0
LINE
  5
58E
100
AcDbEntity
  8
0
100
AcDbLine
 62
7
  6
CONTINUOUS
 10
8.25
 20
-22.3441821702
 11
8.25
 21
-21.7
  0
LINE
  5
58F
100
AcDbEntity
  8
DRAFT
100
AcDbLine
 62
7
  6
CONTINUOUS
 10
8.25
 20
21.7
 11
8.25
 21
22.3441821702
  0
LINE
  5
590
100
AcDbEntity
  8
0
100
AcDbLine
 62
7
  6
CONTINUOUS
 10
8.25
 20
21.7
 11
8.25
 21
22.3441821702
  0
LINE
  5
591
100
AcDbEntity
  8
ASSI
100
AcDbLine
 62
7
  6
CONTINUOUS
 10
6.8467865245
 20
23.4456668619
 11
6.85
 21
23.8
  0
LINE
  5
592
100
AcDbEntity
  8
0
100
AcDbLine
 62
7
  6
CONTINUOUS
 10
6.8467865245
 20
23.4456668619
 11
6.85
 21
23.8
  0
LINE
  5
593
100
AcDbEntity
  8
DRAFT
100
AcDbLine
 62
7
  6
CONTINUOUS
 10
8.1540044543
 20
20.8
 11
8.1737555355
 21
21.6237555355
  0
LINE
  5
594
100
AcDbEntity
  8
0
100
AcDbLine
 62
7
  6
CONTINUOUS
 10
8.1540044543
 20
20.8
 11
8.1737555355
 21
21.6237555355
  0
LINE
  5
595
100
AcDbEntity
  8
DRAFT
100
AcDbLine
 62
7
  6
CONTINUOUS
 10
4.7480009438
 20
-17.9033677788
 11
4.5887391864
 21
-19.5
  0
LINE
  5
596
100
AcDbEntity
  8
DRAFT
100
AcDbLine
 62
7
  6
CONTINUOUS
 10
-5.5737961104
 20
-12.4737961104
 11
-5.6
 21
-12.5
  0
LINE
  5
597
100
AcDbEntity
  8
ASSI
100
AcDbLine
 62
7
  6
CONTINUOUS
 10
-15.6159383532
 20
-23.7659383532
 11
-15.65
 21
-23.8
  0
LINE
  5
598
100
AcDbEntity
  8
0
100
AcDbLine
 62
7
  6
CONTINUOUS
 10
-15.6159383532
 20
-23.7659383532
 11
-15.65
 21
-23.8
  0
LINE
  5
599
100
AcDbEntity
  8
DRAFT
100
AcDbLine
 62
7
  6
CONTINUOUS
 10
4.8262038896
 20
-4.7737961104
 11
4.8
 21
-4.8
  0
LINE
  5
59A
100
AcDbEntity
  8
DRAFT
100
AcDbLine
 62
7
  6
CONTINUOUS
 10
5.5737961104
 20
-4.0262038896
 11
5.6
 21
-4.0
  0
LINE
  5
59B
100
AcDbEntity
  8
DRAFT
100
AcDbLine
 62
7
  6
CONTINUOUS
 10
15.2262038896
 20
4.0262038896
 11
15.2
 21
4.0
  0
LINE
  5
59C
100
AcDbEntity
  8
RACCORDO
100
AcDbLine
 62
253
  6
CONTINUOUS
 10
-22.35
 20
-21.850016923
 11
-22.3412731322
 21
-21.8441990932
  0
LINE
  5
59D
100
AcDbEntity
  8
0
100
AcDbLine
 62
253
  6
CONTINUOUS
 10
-22.35
 20
-21.850016923
 11
-22.3412731322
 21
-21.8441990932
  0
LINE
  5
59E
100
AcDbEntity
  8
RACCORDO
100
AcDbLine
 62
253
  6
CONTINUOUS
 10
-21.8500063461
 20
-22.35
 11
-21.8412794783
 21
-22.3441821702
  0
LINE
  5
59F
100
AcDbEntity
  8
0
100
AcDbLine
 62
253
  6
CONTINUOUS
 10
-21.8500063461
 20
-22.35
 11
-21.8412794783
 21
-22.3441821702
  0
LINE
  5
5A0
100
AcDbEntity
  8
0
100
AcDbLine
 62
7
  6
CONTINUOUS
 10
-19.0319149494
 20
3.0
 11
-19.2021276951
 21
2.9583333731
  0
LINE
  5
5A1
100
AcDbEntity
  8
0
100
AcDbLine
 62
7
  6
CONTINUOUS
 10
-18.3085106611
 20
3.3333333731
 11
-18.0957446694
 21
3.375
  0
LINE
  5
5A2
100
AcDbEntity
  8
0
100
AcDbLine
 62
7
  6
CONTINUOUS
 10
-18.6914893389
 20
4.8333332539
 11
-18.904255271
 21
4.7916667461
  0
LINE
  5
5A3
100
AcDbEntity
  8
0
100
AcDbLine
 62
7
  6
CONTINUOUS
 10
-18.0957446694
 20
3.5833332539
 11
-18.3510638475
 21
3.5416667461
  0
LINE
  5
5A4
100
AcDbEntity
  8
0
100
AcDbLine
 62
7
  6
CONTINUOUS
 10
-18.904255271
 20
4.5833332539
 11
-18.6489361525
 21
4.625
  0
LINE
  5
5A5
100
AcDbEntity
  8
0
100
AcDbLine
 62
7
  6
CONTINUOUS
 10
-18.0957446694
 20
5.4166667461
 11
-18.3510638475
 21
5.375
  0
LINE
  5
5A6
100
AcDbEntity
  8
0
100
AcDbLine
 62
7
  6
CONTINUOUS
 10
-18.6489361525
 20
4.625
 11
-18.3510638475
 21
4.625
  0
LINE
  5
5A7
100
AcDbEntity
  8
DRAFT
100
AcDbLine
 62
7
  6
CONTINUOUS
 10
15.2262038896
 20
4.7737961104
 11
5.5737961104
 21
4.7737961104
  0
LINE
  5
5A8
100
AcDbEntity
  8
DRAFT
100
AcDbLine
 62
7
  6
CONTINUOUS
 10
4.8262038896
 20
4.7737961104
 11
-4.8262038896
 21
4.7737961104
  0
LINE
  5
5A9
100
AcDbEntity
  8
DRAFT
100
AcDbLine
 62
7
  6
CONTINUOUS
 10
-5.5737961104
 20
4.7737961104
 11
-15.2262038896
 21
4.7737961104
  0
LINE
  5
5AA
100
AcDbEntity
  8
DRAFT
100
AcDbLine
 62
7
  6
CONTINUOUS
 10
-15.2
 20
4.8
 11
-5.6
 21
4.8
  0
LINE
  5
5AB
100
AcDbEntity
  8
DRAFT
100
AcDbLine
 62
7
  6
CONTINUOUS
 10
-4.8
 20
4.8
 11
4.8
 21
4.8
  0
LINE
  5
5AC
100
AcDbEntity
  8
DRAFT
100
AcDbLine
 62
7
  6
CONTINUOUS
 10
5.6
 20
4.8
 11
15.2
 21
4.8
  0
LINE
  5
5AD
100
AcDbEntity
  8
0
100
AcDbLine
 62
7
  6
CONTINUOUS
 10
-18.3085106611
 20
4.8333332539
 11
-18.6914893389
 21
4.8333332539
  0
LINE
  5
5AE
100
AcDbEntity
  8
0
100
AcDbLine
 62
7
  6
CONTINUOUS
 10
-18.6914893389
 20
5.1666667461
 11
-18.3085106611
 21
5.1666667461
  0
LINE
  5
5AF
100
AcDbEntity
  8
0
100
AcDbLine
 62
7
  6
CONTINUOUS
 10
-18.3510638475
 20
5.375
 11
-18.6489361525
 21
5.375
  0
LINE
  5
5B0
100
AcDbEntity
  8
0
100
AcDbLine
 62
7
  6
CONTINUOUS
 10
-18.6489361525
 20
6.4583334923
 11
-18.3510638475
 21
6.4583334923
  0
LINE
  5
5B1
100
AcDbEntity
  8
0
100
AcDbLine
 62
7
  6
CONTINUOUS
 10
-18.3085106611
 20
6.6666665077
 11
-18.6914893389
 21
6.6666665077
  0
LINE
  5
5B2
100
AcDbEntity
  8
0
100
AcDbLine
 62
7
  6
CONTINUOUS
 10
-18.3510638475
 20
7.0
 11
-18.0957446694
 21
7.0
  0
LINE
  5
5B3
100
AcDbEntity
  8
0
100
AcDbLine
 62
7
  6
CONTINUOUS
 10
-19.1595745087
 20
8.0
 11
-18.3510638475
 21
8.0
  0
LINE
  5
5B4
100
AcDbEntity
  8
0
100
AcDbLine
 62
7
  6
CONTINUOUS
 10
-18.0957446694
 20
8.0
 11
-17.5
 21
8.0
  0
LINE
  5
5B5
100
AcDbEntity
  8
0
100
AcDbLine
 62
7
  6
CONTINUOUS
 10
-17.5
 20
8.25
 11
-18.0957446694
 21
8.25
  0
LINE
  5
5B6
100
AcDbEntity
  8
0
100
AcDbLine
 62
7
  6
CONTINUOUS
 10
-18.3510638475
 20
8.25
 11
-19.5
 21
8.25
  0
LINE
  5
5B7
100
AcDbEntity
  8
0
100
AcDbLine
 62
7
  6
CONTINUOUS
 10
-18.7765957117
 20
10.4583330154
 11
-18.9468084574
 21
10.5
  0
LINE
  5
5B8
100
AcDbEntity
  8
RACCORDO
100
AcDbLine
 62
253
  6
CONTINUOUS
 10
-22.3412731322
 20
21.8441990932
 11
-22.35
 21
21.850016923
  0
LINE
  5
5B9
100
AcDbEntity
  8
0
100
AcDbLine
 62
253
  6
CONTINUOUS
 10
-22.3412731322
 20
21.8441990932
 11
-22.35
 21
21.850016923
  0
LINE
  5
5BA
100
AcDbEntity
  8
RACCORDO
100
AcDbLine
 62
253
  6
CONTINUOUS
 10
-21.8412794783
 20
22.3441821702
 11
-21.8500063461
 21
22.35
  0
LINE
  5
5BB
100
AcDbEntity
  8
0
100
AcDbLine
 62
253
  6
CONTINUOUS
 10
-21.8412794783
 20
22.3441821702
 11
-21.8500063461
 21
22.35
  0
LINE
  5
5BC
100
AcDbEntity
  8
DRAFT
100
AcDbLine
 62
7
  6
CONTINUOUS
 10
-5.5737961104
 20
12.4737961104
 11
-5.6
 21
12.5
  0
LINE
  5
5BD
100
AcDbEntity
  8
ASSI
100
AcDbLine
 62
7
  6
CONTINUOUS
 10
-15.6159383532
 20
23.7659383532
 11
-15.65
 21
23.8
  0
LINE
  5
5BE
100
AcDbEntity
  8
0
100
AcDbLine
 62
7
  6
CONTINUOUS
 10
-15.6159383532
 20
23.7659383532
 11
-15.65
 21
23.8
  0
LINE
  5
5BF
100
AcDbEntity
  8
DRAFT
100
AcDbLine
 62
7
  6
CONTINUOUS
 10
5.5737961104
 20
4.0262038896
 11
5.6
 21
4.0
  0
LINE
  5
5C0
100
AcDbEntity
  8
DRAFT
100
AcDbLine
 62
7
  6
CONTINUOUS
 10
4.8262038896
 20
4.7737961104
 11
4.8
 21
4.8
  0
LINE
  5
5C1
100
AcDbEntity
  8
DRAFT
100
AcDbLine
 62
7
  6
CONTINUOUS
 10
15.2262038896
 20
-4.0262038896
 11
15.2
 21
-4.0
  0
LINE
  5
5C2
100
AcDbEntity
  8
0
100
AcDbLine
 62
7
  6
CONTINUOUS
 10
-0.188569
 20
18.313558
 11
-0.695647
 21
19.713176
  0
LINE
  5
5C3
100
AcDbEntity
  8
0
100
AcDbLine
 62
7
  6
CONTINUOUS
 10
0.174132
 20
14.286824
 11
-0.332947
 21
15.687575
  0
LINE
  5
5C4
100
AcDbEntity
  8
0
100
AcDbLine
 62
7
  6
CONTINUOUS
 10
-0.171017
 20
14.69448
 11
-0.032527
 21
14.286824
  0
LINE
  5
5C5
100
AcDbEntity
  8
0
100
AcDbLine
 62
7
  6
CONTINUOUS
 10
-0.533717
 20
18.721214
 11
-0.395227
 21
18.313558
  0
LINE
  5
5C6
100
AcDbEntity
  8
0
100
AcDbLine
 62
7
  6
CONTINUOUS
 10
-0.810619
 20
19.510322
 11
-0.602
 21
18.888805
  0
LINE
  5
5C7
100
AcDbEntity
  8
RACCORDO
100
AcDbLine
 62
7
  6
CONTINUOUS
 10
10.25
 20
23.8000063969
 11
10.25
 21
22.4024077793
  0
LINE
  5
5C8
100
AcDbEntity
  8
0
100
AcDbLine
 62
7
  6
CONTINUOUS
 10
10.25
 20
23.8000063969
 11
10.25
 21
22.4024077793
  0
LINE
  5
5C9
100
AcDbEntity
  8
RACCORDO
100
AcDbLine
 62
7
  6
CONTINUOUS
 10
10.25
 20
-22.4024077793
 11
10.25
 21
-23.8000063969
  0
LINE
  5
5CA
100
AcDbEntity
  8
0
100
AcDbLine
 62
7
  6
CONTINUOUS
 10
10.25
 20
-22.4024077793
 11
10.25
 21
-23.8000063969
  0
LINE
  5
5CB
100
AcDbEntity
  8
RACCORDO
100
AcDbLine
 62
7
  6
CONTINUOUS
 10
12.25
 20
23.8000063969
 11
12.25
 21
22.4024077793
  0
LINE
  5
5CC
100
AcDbEntity
  8
0
100
AcDbLine
 62
7
  6
CONTINUOUS
 10
12.25
 20
23.8000063969
 11
12.25
 21
22.4024077793
  0
LINE
  5
5CD
100
AcDbEntity
  8
RACCORDO
100
AcDbLine
 62
7
  6
CONTINUOUS
 10
12.25
 20
-22.4024077793
 11
12.25
 21
-23.8000063969
  0
LINE
  5
5CE
100
AcDbEntity
  8
0
100
AcDbLine
 62
7
  6
CONTINUOUS
 10
12.25
 20
-22.4024077793
 11
12.25
 21
-23.8000063969
  0
LINE
  5
5CF
100
AcDbEntity
  8
DRAFT
100
AcDbLine
 62
7
  6
CONTINUOUS
 10
-8.25
 20
-21.7
 11
-8.1737555355
 21
-21.6237555355
  0
LINE
  5
5D0
100
AcDbEntity
  8
0
100
AcDbLine
 62
7
  6
CONTINUOUS
 10
-8.25
 20
-21.7
 11
-8.1737555355
 21
-21.6237555355
  0
LINE
  5
5D1
100
AcDbEntity
  8
DRAFT
100
AcDbLine
 62
7
  6
CONTINUOUS
 10
4.8262038896
 20
-12.4737961104
 11
4.8
 21
-12.5
  0
LINE
  5
5D2
100
AcDbEntity
  8
0
100
AcDbLine
 62
7
  6
CONTINUOUS
 10
-18.3085106611
 20
5.1666667461
 11
-18.0957446694
 21
5.2083332539
  0
LINE
  5
5D3
100
AcDbEntity
  8
0
100
AcDbLine
 62
7
  6
CONTINUOUS
 10
-18.6914893389
 20
6.6666665077
 11
-18.904255271
 21
6.625
  0
LINE
  5
5D4
100
AcDbEntity
  8
0
100
AcDbLine
 62
7
  6
CONTINUOUS
 10
-18.904255271
 20
6.4166665077
 11
-18.6489361525
 21
6.4583334923
  0
LINE
  5
5D5
100
AcDbEntity
  8
0
100
AcDbLine
 62
7
  6
CONTINUOUS
 10
-18.0957446694
 20
8.6666665077
 11
-18.3510638475
 21
8.6666665077
  0
LINE
  5
5D6
100
AcDbEntity
  8
0
100
AcDbLine
 62
7
  6
CONTINUOUS
 10
-17.7127659619
 20
9.0
 11
-17.5
 21
9.0
  0
LINE
  5
5D7
100
AcDbEntity
  8
0
100
AcDbLine
 62
7
  6
CONTINUOUS
 10
-19.0319149494
 20
10.25
 11
-18.9468084574
 21
10.25
  0
LINE
  5
5D8
100
AcDbEntity
  8
0
100
AcDbLine
 62
7
  6
CONTINUOUS
 10
-17.5
 20
10.5
 11
-17.7127659619
 21
10.5
  0
LINE
  5
5D9
100
AcDbEntity
  8
0
100
AcDbLine
 62
7
  6
CONTINUOUS
 10
-18.9468084574
 20
10.5
 11
-19.0319149494
 21
10.5
  0
LINE
  5
5DA
100
AcDbEntity
  8
0
100
AcDbLine
 62
7
  6
CONTINUOUS
 10
-16.4
 20
12.0
 11
-20.4
 21
12.0
  0
LINE
  5
5DB
100
AcDbEntity
  8
DRAFT
100
AcDbLine
 62
7
  6
CONTINUOUS
 10
-8.25
 20
21.7
 11
-8.1737555355
 21
21.6237555355
  0
LINE
  5
5DC
100
AcDbEntity
  8
0
100
AcDbLine
 62
7
  6
CONTINUOUS
 10
-8.25
 20
21.7
 11
-8.1737555355
 21
21.6237555355
  0
LINE
  5
5DD
100
AcDbEntity
  8
DRAFT
100
AcDbLine
 62
7
  6
CONTINUOUS
 10
-4.1112608136
 20
20.9959955457
 11
-4.0152652679
 21
20.9
  0
LINE
  5
5DE
100
AcDbEntity
  8
DRAFT
100
AcDbLine
 62
7
  6
CONTINUOUS
 10
4.8262038896
 20
12.4737961104
 11
4.8
 21
12.5
  0
LINE
  5
5DF
100
AcDbEntity
  8
0
100
AcDbLine
 62
7
  6
CONTINUOUS
 10
1.018546
 20
15.687575
 11
1.547139
 21
14.850748
  0
LINE
  5
5E0
100
AcDbEntity
  8
0
100
AcDbLine
 62
7
  6
CONTINUOUS
 10
-0.372806
 20
17.437554
 11
0.342856
 21
16.300191
  0
LINE
  5
5E1
100
AcDbEntity
  8
0
100
AcDbLine
 62
7
  6
CONTINUOUS
 10
0.372185
 20
16.563299
 11
-0.331928
 21
17.699809
  0
LINE
  5
5E2
100
AcDbEntity
  8
0
100
AcDbLine
 62
7
  6
CONTINUOUS
 10
1.640674
 20
15.014943
 11
1.238906
 21
15.687575
  0
LINE
  5
5E3
100
AcDbEntity
  8
DRAFT
100
AcDbLine
 62
7
  6
CONTINUOUS
 10
14.3459955457
 20
20.8
 11
14.3262444645
 21
21.6237555355
  0
LINE
  5
5E4
100
AcDbEntity
  8
0
100
AcDbLine
 62
7
  6
CONTINUOUS
 10
14.3459955457
 20
20.8
 11
14.3262444645
 21
21.6237555355
  0
LINE
  5
5E5
100
AcDbEntity
  8
ASSI
100
AcDbLine
 62
7
  6
CONTINUOUS
 10
15.6532134755
 20
23.4456668619
 11
15.65
 21
23.8
  0
LINE
  5
5E6
100
AcDbEntity
  8
0
100
AcDbLine
 62
7
  6
CONTINUOUS
 10
15.6532134755
 20
23.4456668619
 11
15.65
 21
23.8
  0
LINE
  5
5E7
100
AcDbEntity
  8
ASSI
100
AcDbLine
 62
7
  6
CONTINUOUS
 10
12.650002
 20
-14.4039230392
 11
12.650002
 21
-15.15474
  0
LINE
  5
5E8
100
AcDbEntity
  8
ASSI
100
AcDbLine
 62
7
  6
CONTINUOUS
 10
12.650002
 20
-18.74918
 11
12.650002
 21
-19.4999969608
  0
LINE
  5
5E9
100
AcDbEntity
  8
DRAFT
100
AcDbLine
 62
7
  6
CONTINUOUS
 10
14.25
 20
22.3441821702
 11
14.25
 21
21.7
  0
LINE
  5
5EA
100
AcDbEntity
  8
0
100
AcDbLine
 62
7
  6
CONTINUOUS
 10
14.25
 20
22.3441821702
 11
14.25
 21
21.7
  0
LINE
  5
5EB
100
AcDbEntity
  8
DRAFT
100
AcDbLine
 62
7
  6
CONTINUOUS
 10
14.25
 20
-21.7
 11
14.25
 21
-22.3441821702
  0
LINE
  5
5EC
100
AcDbEntity
  8
0
100
AcDbLine
 62
7
  6
CONTINUOUS
 10
14.25
 20
-21.7
 11
14.25
 21
-22.3441821702
  0
LINE
  5
5ED
100
AcDbEntity
  8
DRAFT
100
AcDbLine
 62
7
  6
CONTINUOUS
 10
14.3459955457
 20
-21.2859869487
 11
14.3459955457
 21
-20.8
  0
LINE
  5
5EE
100
AcDbEntity
  8
0
100
AcDbLine
 62
7
  6
CONTINUOUS
 10
14.3459955457
 20
-21.2859869487
 11
14.3459955457
 21
-20.8
  0
LINE
  5
5EF
100
AcDbEntity
  8
DRAFT
100
AcDbLine
 62
7
  6
CONTINUOUS
 10
14.3459955457
 20
20.8
 11
14.3459955457
 21
21.2859869487
  0
LINE
  5
5F0
100
AcDbEntity
  8
0
100
AcDbLine
 62
7
  6
CONTINUOUS
 10
14.3459955457
 20
20.8
 11
14.3459955457
 21
21.2859869487
  0
LINE
  5
5F1
100
AcDbEntity
  8
DRAFT
100
AcDbLine
 62
7
  6
CONTINUOUS
 10
14.75
 20
23.8
 11
14.75
 21
22.3441821702
  0
LINE
  5
5F2
100
AcDbEntity
  8
0
100
AcDbLine
 62
7
  6
CONTINUOUS
 10
14.75
 20
23.8
 11
14.75
 21
22.3441821702
  0
LINE
  5
5F3
100
AcDbEntity
  8
DRAFT
100
AcDbLine
 62
7
  6
CONTINUOUS
 10
14.75
 20
-22.3441821702
 11
14.75
 21
-23.8
  0
LINE
  5
5F4
100
AcDbEntity
  8
0
100
AcDbLine
 62
7
  6
CONTINUOUS
 10
14.75
 20
-22.3441821702
 11
14.75
 21
-23.8
  0
LINE
  5
5F5
100
AcDbEntity
  8
ASSI
100
AcDbLine
 62
253
  6
CONTINUOUS
 10
14.8075937104
 20
-22.3057869048
 11
14.8075937104
 21
-23.755948138
  0
LINE
  5
5F6
100
AcDbEntity
  8
0
100
AcDbLine
 62
253
  6
CONTINUOUS
 10
14.8075937104
 20
-22.3057869048
 11
14.8075937104
 21
-23.755948138
  0
LINE
  5
5F7
100
AcDbEntity
  8
ASSI
100
AcDbLine
 62
253
  6
CONTINUOUS
 10
14.8075937104
 20
22.3057869048
 11
14.8075937104
 21
23.755948138
  0
LINE
  5
5F8
100
AcDbEntity
  8
0
100
AcDbLine
 62
253
  6
CONTINUOUS
 10
14.8075937104
 20
22.3057869048
 11
14.8075937104
 21
23.755948138
  0
LINE
  5
5F9
100
AcDbEntity
  8
DRAFT
100
AcDbLine
 62
7
  6
CONTINUOUS
 10
15.2
 20
-12.5
 11
15.2
 21
-4.8
  0
LINE
  5
5FA
100
AcDbEntity
  8
DRAFT
100
AcDbLine
 62
7
  6
CONTINUOUS
 10
15.2
 20
-4.0
 11
15.2
 21
4.0
  0
LINE
  5
5FB
100
AcDbEntity
  8
DRAFT
100
AcDbLine
 62
7
  6
CONTINUOUS
 10
15.2
 20
4.8
 11
15.2
 21
12.5
  0
LINE
  5
5FC
100
AcDbEntity
  8
DRAFT
100
AcDbLine
 62
7
  6
CONTINUOUS
 10
15.2262038896
 20
12.4737961104
 11
15.2262038896
 21
4.7737961104
  0
LINE
  5
5FD
100
AcDbEntity
  8
DRAFT
100
AcDbLine
 62
7
  6
CONTINUOUS
 10
15.2262038896
 20
4.0262038896
 11
15.2262038896
 21
-4.0262038896
  0
LINE
  5
5FE
100
AcDbEntity
  8
DRAFT
100
AcDbLine
 62
7
  6
CONTINUOUS
 10
15.2262038896
 20
-12.4737961104
 11
15.2262038896
 21
-4.7737961104
  0
LINE
  5
5FF
100
AcDbEntity
  8
ASSI
100
AcDbLine
 62
253
  6
CONTINUOUS
 10
15.6154517179
 20
-22.3057951078
 11
15.6154517179
 21
-23.7562325953
  0
LINE
  5
600
100
AcDbEntity
  8
0
100
AcDbLine
 62
253
  6
CONTINUOUS
 10
15.6154517179
 20
-22.3057951078
 11
15.6154517179
 21
-23.7562325953
  0
LINE
  5
601
100
AcDbEntity
  8
ASSI
100
AcDbLine
 62
253
  6
CONTINUOUS
 10
15.6154517179
 20
22.3057951078
 11
15.6154517179
 21
23.7562325953
  0
LINE
  5
602
100
AcDbEntity
  8
0
100
AcDbLine
 62
253
  6
CONTINUOUS
 10
15.6154517179
 20
22.3057951078
 11
15.6154517179
 21
23.7562325953
  0
LINE
  5
603
100
AcDbEntity
  8
ASSI
100
AcDbLine
 62
7
  6
CONTINUOUS
 10
15.6159657686
 20
23.4906890903
 11
15.6159657686
 21
22.8093109097
  0
LINE
  5
604
100
AcDbEntity
  8
0
100
AcDbLine
 62
7
  6
CONTINUOUS
 10
15.6159657686
 20
23.4906890903
 11
15.6159657686
 21
22.8093109097
  0
LINE
  5
605
100
AcDbEntity
  8
ASSI
100
AcDbLine
 62
7
  6
CONTINUOUS
 10
15.6159657686
 20
-23.4906890903
 11
15.6159657686
 21
-22.8093109097
  0
LINE
  5
606
100
AcDbEntity
  8
0
100
AcDbLine
 62
7
  6
CONTINUOUS
 10
15.6159657686
 20
-23.4906890903
 11
15.6159657686
 21
-22.8093109097
  0
LINE
  5
607
100
AcDbEntity
  8
DRAFT
100
AcDbLine
 62
7
  6
CONTINUOUS
 10
15.65
 20
-24.0
 11
15.65
 21
-23.8
  0
LINE
  5
608
100
AcDbEntity
  8
0
100
AcDbLine
 62
7
  6
CONTINUOUS
 10
15.65
 20
-24.0
 11
15.65
 21
-23.8
  0
LINE
  5
609
100
AcDbEntity
  8
DRAFT
100
AcDbLine
 62
7
  6
CONTINUOUS
 10
15.65
 20
23.8
 11
15.65
 21
24.0
  0
LINE
  5
60A
100
AcDbEntity
  8
0
100
AcDbLine
 62
7
  6
CONTINUOUS
 10
15.65
 20
23.8
 11
15.65
 21
24.0
  0
LINE
  5
60B
100
AcDbEntity
  8
ASSI
100
AcDbLine
 62
7
  6
CONTINUOUS
 10
15.6552360356
 20
-22.35
 11
15.6552360356
 21
-22.85711136
  0
LINE
  5
60C
100
AcDbEntity
  8
0
100
AcDbLine
 62
7
  6
CONTINUOUS
 10
15.6552360356
 20
-22.35
 11
15.6552360356
 21
-22.85711136
  0
LINE
  5
60D
100
AcDbEntity
  8
ASSI
100
AcDbLine
 62
7
  6
CONTINUOUS
 10
15.6552360356
 20
22.35
 11
15.6552360356
 21
22.85711136
  0
LINE
  5
60E
100
AcDbEntity
  8
0
100
AcDbLine
 62
7
  6
CONTINUOUS
 10
15.6552360356
 20
22.35
 11
15.6552360356
 21
22.85711136
  0
LINE
  5
60F
100
AcDbEntity
  8
DRAFT
100
AcDbLine
 62
7
  6
CONTINUOUS
 10
15.9737961104
 20
12.4737961104
 11
15.9737961104
 21
-12.4737961104
  0
LINE
  5
610
100
AcDbEntity
  8
DRAFT
100
AcDbLine
 62
7
  6
CONTINUOUS
 10
16.0
 20
12.5
 11
16.0
 21
-12.5
  0
LINE
  5
611
100
AcDbEntity
  8
ASSI
100
AcDbLine
 62
7
  6
CONTINUOUS
 10
15.65
 20
-23.8
 11
15.6532134755
 21
-23.4456668619
  0
LINE
  5
612
100
AcDbEntity
  8
0
100
AcDbLine
 62
7
  6
CONTINUOUS
 10
15.65
 20
-23.8
 11
15.6532134755
 21
-23.4456668619
  0
LINE
  5
613
100
AcDbEntity
  8
DRAFT
100
AcDbLine
 62
7
  6
CONTINUOUS
 10
14.3262444645
 20
-21.6237555355
 11
14.3459955457
 21
-20.8
  0
LINE
  5
614
100
AcDbEntity
  8
0
100
AcDbLine
 62
7
  6
CONTINUOUS
 10
14.3262444645
 20
-21.6237555355
 11
14.3459955457
 21
-20.8
  0
LINE
  5
615
100
AcDbEntity
  8
SMUSSO
100
AcDbLine
 62
7
  6
CONTINUOUS
 10
20.0293058381
 20
20.5379423332
 11
20.1498936624
 21
20.9
  0
LINE
  5
616
100
AcDbEntity
  8
0
100
AcDbLine
 62
7
  6
CONTINUOUS
 10
20.0293058381
 20
20.5379423332
 11
20.1498936624
 21
20.9
  0
LINE
  5
617
100
AcDbEntity
  8
SMUSSO
100
AcDbLine
 62
7
  6
CONTINUOUS
 10
20.7276785679
 20
19.8317769306
 11
20.85
 21
20.1990396502
  0
LINE
  5
618
100
AcDbEntity
  8
0
100
AcDbLine
 62
7
  6
CONTINUOUS
 10
20.7276785679
 20
19.8317769306
 11
20.85
 21
20.1990396502
  0
LINE
  5
619
100
AcDbEntity
  8
ASSI
100
AcDbLine
 62
7
  6
CONTINUOUS
 10
6.4037790879
 20
-17.5622738435
 11
6.2558219029
 21
-17.825886173
  0
LINE
  5
61A
100
AcDbEntity
  8
DRAFT
100
AcDbLine
 62
7
  6
CONTINUOUS
 10
-3.0174550649
 20
-21.4051134101
 11
-3.9507059952
 21
-22.3383643404
  0
LINE
  5
61B
100
AcDbEntity
  8
0
100
AcDbLine
 62
7
  6
CONTINUOUS
 10
-3.0174550649
 20
-21.4051134101
 11
-3.9507059952
 21
-22.3383643404
  0
LINE
  5
61C
100
AcDbEntity
  8
DRAFT
100
AcDbLine
 62
7
  6
CONTINUOUS
 10
15.2262038896
 20
-4.7737961104
 11
15.2
 21
-4.8
  0
LINE
  5
61D
100
AcDbEntity
  8
DRAFT
100
AcDbLine
 62
7
  6
CONTINUOUS
 10
-8.1626805515
 20
-22.2859700255
 11
-8.25
 21
-22.3441821702
  0
LINE
  5
61E
100
AcDbEntity
  8
0
100
AcDbLine
 62
7
  6
CONTINUOUS
 10
-8.1626805515
 20
-22.2859700255
 11
-8.25
 21
-22.3441821702
  0
LINE
  5
61F
100
AcDbEntity
  8
RACCORDO
100
AcDbLine
 62
7
  6
CONTINUOUS
 10
-7.75
 20
-22.3441821702
 11
-7.6924062896
 21
-22.3057869048
  0
LINE
  5
620
100
AcDbEntity
  8
0
100
AcDbLine
 62
7
  6
CONTINUOUS
 10
-7.75
 20
-22.3441821702
 11
-7.6924062896
 21
-22.3057869048
  0
LINE
  5
621
100
AcDbEntity
  8
ASSI
100
AcDbLine
 62
7
  6
CONTINUOUS
 10
-7.75
 20
-23.8
 11
-7.6932296664
 21
-23.7659383532
  0
LINE
  5
622
100
AcDbEntity
  8
0
100
AcDbLine
 62
7
  6
CONTINUOUS
 10
-7.75
 20
-23.8
 11
-7.6932296664
 21
-23.7659383532
  0
LINE
  5
623
100
AcDbEntity
  8
0
100
AcDbLine
 62
7
  6
CONTINUOUS
 10
-19.0319149494
 20
10.5
 11
-19.2021276951
 21
10.4583330154
  0
LINE
  5
624
100
AcDbEntity
  8
DRAFT
100
AcDbLine
 62
7
  6
CONTINUOUS
 10
-15.9737961104
 20
12.4737961104
 11
-15.2262038896
 21
12.4737961104
  0
LINE
  5
625
100
AcDbEntity
  8
DRAFT
100
AcDbLine
 62
7
  6
CONTINUOUS
 10
15.9737961104
 20
12.4737961104
 11
15.2262038896
 21
12.4737961104
  0
LINE
  5
626
100
AcDbEntity
  8
DRAFT
100
AcDbLine
 62
7
  6
CONTINUOUS
 10
5.5737961104
 20
12.4737961104
 11
4.8262038896
 21
12.4737961104
  0
LINE
  5
627
100
AcDbEntity
  8
DRAFT
100
AcDbLine
 62
7
  6
CONTINUOUS
 10
-4.8262038896
 20
12.4737961104
 11
-5.5737961104
 21
12.4737961104
  0
LINE
  5
628
100
AcDbEntity
  8
DRAFT
100
AcDbLine
 62
7
  6
CONTINUOUS
 10
20.7155960001
 20
12.5
 11
-20.7155960001
 21
12.5
  0
LINE
  5
629
100
AcDbEntity
  8
0
100
AcDbLine
 62
7
  6
CONTINUOUS
 10
-2.657604
 20
14.286824
 11
-2.468384
 21
14.286824
  0
LINE
  5
62A
100
AcDbEntity
  8
0
100
AcDbLine
 62
7
  6
CONTINUOUS
 10
-1.791562
 20
14.286824
 11
-1.602455
 21
14.286824
  0
LINE
  5
62B
100
AcDbEntity
  8
0
100
AcDbLine
 62
7
  6
CONTINUOUS
 10
-1.073974
 20
14.286824
 11
-0.878979
 21
14.286824
  0
LINE
  5
62C
100
AcDbEntity
  8
0
100
AcDbLine
 62
7
  6
CONTINUOUS
 10
-0.032527
 20
14.286824
 11
0.174132
 21
14.286824
  0
LINE
  5
62D
100
AcDbEntity
  8
0
100
AcDbLine
 62
7
  6
CONTINUOUS
 10
0.347725
 20
14.286824
 11
1.24672
 21
14.286824
  0
LINE
  5
62E
100
AcDbEntity
  8
0
100
AcDbLine
 62
7
  6
CONTINUOUS
 10
1.547139
 20
14.286824
 11
1.736246
 21
14.286824
  0
LINE
  5
62F
100
AcDbEntity
  8
0
100
AcDbLine
 62
7
  6
CONTINUOUS
 10
1.24672
 20
14.454416
 11
0.536832
 21
14.454416
  0
LINE
  5
630
100
AcDbEntity
  8
0
100
AcDbLine
 62
7
  6
CONTINUOUS
 10
-0.732676
 20
14.69448
 11
-0.171017
 21
14.69448
  0
LINE
  5
631
100
AcDbEntity
  8
0
100
AcDbLine
 62
7
  6
CONTINUOUS
 10
-0.239299
 20
14.862072
 11
-0.674245
 21
14.862072
  0
LINE
  5
632
100
AcDbEntity
  8
0
100
AcDbLine
 62
7
  6
CONTINUOUS
 10
-15.75245
 20
15.008571
 11
-15.23744
 21
15.008571
  0
LINE
  5
633
100
AcDbEntity
  8
0
100
AcDbLine
 62
7
  6
CONTINUOUS
 10
-14.120628
 20
15.008571
 11
-13.53622
 21
15.008571
  0
LINE
  5
634
100
AcDbEntity
  8
0
100
AcDbLine
 62
7
  6
CONTINUOUS
 10
-13.221615
 20
15.008571
 11
-12.662526
 21
15.008571
  0
LINE
  5
635
100
AcDbEntity
  8
0
100
AcDbLine
 62
7
  6
CONTINUOUS
 10
-11.85083
 20
15.008571
 11
-11.768867
 21
15.008571
  0
LINE
  5
636
100
AcDbEntity
  8
0
100
AcDbLine
 62
7
  6
CONTINUOUS
 10
-10.953937
 20
15.008571
 11
-10.382231
 21
15.008571
  0
LINE
  5
637
100
AcDbEntity
  8
0
100
AcDbLine
 62
7
  6
CONTINUOUS
 10
-10.290463
 20
15.008571
 11
-9.712396
 21
15.008571
  0
LINE
  5
638
100
AcDbEntity
  8
0
100
AcDbLine
 62
7
  6
CONTINUOUS
 10
-8.603877
 20
15.008571
 11
-7.987935
 21
15.008571
  0
LINE
  5
639
100
AcDbEntity
  8
0
100
AcDbLine
 62
7
  6
CONTINUOUS
 10
-7.8163241553
 20
15.0085705585
 11
-7.2342676127
 21
15.0085705585
  0
LINE
  5
63A
100
AcDbEntity
  8
0
100
AcDbLine
 62
7
  6
CONTINUOUS
 10
-6.3393273357
 20
15.0085705585
 11
-5.7771947456
 21
15.0085705585
  0
LINE
  5
63B
100
AcDbEntity
  8
0
100
AcDbLine
 62
7
  6
CONTINUOUS
 10
-2.265462
 20
15.519983
 11
-1.791562
 21
15.519983
  0
LINE
  5
63C
100
AcDbEntity
  8
0
100
AcDbLine
 62
7
  6
CONTINUOUS
 10
-1.602455
 20
15.519983
 11
-1.128555
 21
15.519983
  0
LINE
  5
63D
100
AcDbEntity
  8
0
100
AcDbLine
 62
7
  6
CONTINUOUS
 10
-9.551136
 20
15.567491
 11
-8.755269
 21
15.567491
  0
LINE
  5
63E
100
AcDbEntity
  8
DRAFT
100
AcDbLine
 62
7
  6
CONTINUOUS
 10
-18.55
 20
15.6417138602
 11
-17.75
 21
15.6417138602
  0
LINE
  5
63F
100
AcDbEntity
  8
DRAFT
100
AcDbLine
 62
7
  6
CONTINUOUS
 10
17.75
 20
15.6417138602
 11
18.55
 21
15.6417138602
  0
LINE
  5
640
100
AcDbEntity
  8
0
100
AcDbLine
 62
7
  6
CONTINUOUS
 10
2.264727
 20
15.687575
 11
2.042441
 21
15.687575
  0
LINE
  5
641
100
AcDbEntity
  8
0
100
AcDbLine
 62
7
  6
CONTINUOUS
 10
1.238906
 20
15.687575
 11
1.018546
 21
15.687575
  0
LINE
  5
642
100
AcDbEntity
  8
0
100
AcDbLine
 62
7
  6
CONTINUOUS
 10
0.536832
 20
15.687575
 11
0.347725
 21
15.687575
  0
LINE
  5
643
100
AcDbEntity
  8
0
100
AcDbLine
 62
7
  6
CONTINUOUS
 10
-0.332947
 20
15.687575
 11
-0.547419
 21
15.687575
  0
LINE
  5
644
100
AcDbEntity
  8
0
100
AcDbLine
 62
7
  6
CONTINUOUS
 10
-1.128555
 20
15.687575
 11
-2.265462
 21
15.687575
  0
LINE
  5
645
100
AcDbEntity
  8
0
100
AcDbLine
 62
7
  6
CONTINUOUS
 10
-2.468384
 20
15.687575
 11
-2.657604
 21
15.687575
  0
LINE
  5
646
100
AcDbEntity
  8
0
100
AcDbLine
 62
7
  6
CONTINUOUS
 10
-8.872063
 20
15.999981
 11
-9.431592
 21
15.999981
  0
LINE
  5
647
100
AcDbEntity
  8
0
100
AcDbLine
 62
7
  6
CONTINUOUS
 10
-7.2342676127
 20
16.1042199882
 11
-6.9209219953
 21
16.1042199882
  0
LINE
  5
648
100
AcDbEntity
  8
0
100
AcDbLine
 62
7
  6
CONTINUOUS
 10
-1.069105
 20
16.300191
 11
-0.879885
 21
16.300191
  0
LINE
  5
649
100
AcDbEntity
  8
0
100
AcDbLine
 62
7
  6
CONTINUOUS
 10
-0.556251
 20
16.300191
 11
-0.372806
 21
16.300191
  0
LINE
  5
64A
100
AcDbEntity
  8
0
100
AcDbLine
 62
7
  6
CONTINUOUS
 10
0.342856
 20
16.300191
 11
0.555403
 21
16.300191
  0
LINE
  5
64B
100
AcDbEntity
  8
ASSI
100
AcDbLine
 62
7
  6
CONTINUOUS
 10
-7.75
 20
23.8
 11
-7.6932296664
 21
23.7659383532
  0
LINE
  5
64C
100
AcDbEntity
  8
0
100
AcDbLine
 62
7
  6
CONTINUOUS
 10
-7.75
 20
23.8
 11
-7.6932296664
 21
23.7659383532
  0
LINE
  5
64D
100
AcDbEntity
  8
DRAFT
100
AcDbLine
 62
7
  6
CONTINUOUS
 10
-8.1626805515
 20
22.2859700255
 11
-8.25
 21
22.3441821702
  0
LINE
  5
64E
100
AcDbEntity
  8
0
100
AcDbLine
 62
7
  6
CONTINUOUS
 10
-8.1626805515
 20
22.2859700255
 11
-8.25
 21
22.3441821702
  0
LINE
  5
64F
100
AcDbEntity
  8
RACCORDO
100
AcDbLine
 62
7
  6
CONTINUOUS
 10
-7.75
 20
22.3441821702
 11
-7.6924062896
 21
22.3057869048
  0
LINE
  5
650
100
AcDbEntity
  8
0
100
AcDbLine
 62
7
  6
CONTINUOUS
 10
-7.75
 20
22.3441821702
 11
-7.6924062896
 21
22.3057869048
  0
LINE
  5
651
100
AcDbEntity
  8
DRAFT
100
AcDbLine
 62
7
  6
CONTINUOUS
 10
-3.9507059952
 20
22.3383643404
 11
-3.0174550649
 21
21.4051134101
  0
LINE
  5
652
100
AcDbEntity
  8
0
100
AcDbLine
 62
7
  6
CONTINUOUS
 10
-3.9507059952
 20
22.3383643404
 11
-3.0174550649
 21
21.4051134101
  0
LINE
  5
653
100
AcDbEntity
  8
DRAFT
100
AcDbLine
 62
7
  6
CONTINUOUS
 10
15.2262038896
 20
4.7737961104
 11
15.2
 21
4.8
  0
LINE
  5
654
100
AcDbEntity
  8
SMUSSO
100
AcDbLine
 62
7
  6
CONTINUOUS
 10
20.1498936624
 20
-20.9
 11
20.0293058381
 21
-20.5379423332
  0
LINE
  5
655
100
AcDbEntity
  8
0
100
AcDbLine
 62
7
  6
CONTINUOUS
 10
20.1498936624
 20
-20.9
 11
20.0293058381
 21
-20.5379423332
  0
LINE
  5
656
100
AcDbEntity
  8
SMUSSO
100
AcDbLine
 62
7
  6
CONTINUOUS
 10
20.85
 20
-20.1990396502
 11
20.7276785679
 21
-19.8317769306
  0
LINE
  5
657
100
AcDbEntity
  8
0
100
AcDbLine
 62
7
  6
CONTINUOUS
 10
20.85
 20
-20.1990396502
 11
20.7276785679
 21
-19.8317769306
  0
LINE
  5
658
100
AcDbEntity
  8
DRAFT
100
AcDbLine
 62
7
  6
CONTINUOUS
 10
17.75
 20
-15.6417138602
 11
17.9112608136
 21
-18.9
  0
LINE
  5
659
100
AcDbEntity
  8
DRAFT
100
AcDbLine
 62
7
  6
CONTINUOUS
 10
18.3887391864
 20
18.9
 11
18.55
 21
15.6417138602
  0
LINE
  5
65A
100
AcDbEntity
  8
DRAFT
100
AcDbLine
 62
7
  6
CONTINUOUS
 10
18.5052360356
 20
23.2226497308
 11
18.5
 21
23.8
  0
LINE
  5
65B
100
AcDbEntity
  8
0
100
AcDbLine
 62
7
  6
CONTINUOUS
 10
18.5052360356
 20
23.2226497308
 11
18.5
 21
23.8
  0
LINE
  5
65C
100
AcDbEntity
  8
ASSI
100
AcDbLine
 62
7
  6
CONTINUOUS
 10
16.635112
 20
-16.57696
 11
16.635112
 21
-17.32696
  0
LINE
  5
65D
100
AcDbEntity
  8
ASSI
100
AcDbLine
 62
7
  6
CONTINUOUS
 10
17.035112
 20
-14.4039228823
 11
17.035112
 21
-15.15474
  0
LINE
  5
65E
100
AcDbEntity
  8
ASSI
100
AcDbLine
 62
7
  6
CONTINUOUS
 10
17.035112
 20
-18.7491769516
 11
17.035112
 21
-19.4999971177
  0
LINE
  5
65F
100
AcDbEntity
  8
0
100
AcDbLine
 62
7
  6
CONTINUOUS
 10
17.75
 20
-20.0
 11
17.75
 21
-19.7
  0
LINE
  5
660
100
AcDbEntity
  8
0
100
AcDbLine
 62
7
  6
CONTINUOUS
 10
17.75
 20
19.7
 11
17.75
 21
20.0
  0
LINE
  5
661
100
AcDbEntity
  8
DRAFT
100
AcDbLine
 62
7
  6
CONTINUOUS
 10
17.9112608136
 20
19.7
 11
17.9112608136
 21
18.9
  0
LINE
  5
662
100
AcDbEntity
  8
DRAFT
100
AcDbLine
 62
7
  6
CONTINUOUS
 10
17.9112608136
 20
-18.9
 11
17.9112608136
 21
-19.7
  0
LINE
  5
663
100
AcDbEntity
  8
DRAFT
100
AcDbLine
 62
7
  6
CONTINUOUS
 10
18.3887391864
 20
19.7
 11
18.3887391864
 21
18.9
  0
LINE
  5
664
100
AcDbEntity
  8
DRAFT
100
AcDbLine
 62
7
  6
CONTINUOUS
 10
18.3887391864
 20
-18.9
 11
18.3887391864
 21
-19.7
  0
LINE
  5
665
100
AcDbEntity
  8
RACCORDO
100
AcDbLine
 62
7
  6
CONTINUOUS
 10
18.5
 20
24.2500034269
 11
18.5
 21
23.8
  0
LINE
  5
666
100
AcDbEntity
  8
0
100
AcDbLine
 62
7
  6
CONTINUOUS
 10
18.5
 20
24.2500034269
 11
18.5
 21
23.8
  0
LINE
  5
667
100
AcDbEntity
  8
RACCORDO
100
AcDbLine
 62
7
  6
CONTINUOUS
 10
18.5
 20
-23.8
 11
18.5
 21
-24.2500034269
  0
LINE
  5
668
100
AcDbEntity
  8
0
100
AcDbLine
 62
7
  6
CONTINUOUS
 10
18.5
 20
-23.8
 11
18.5
 21
-24.2500034269
  0
LINE
  5
669
100
AcDbEntity
  8
DRAFT
100
AcDbLine
 62
7
  6
CONTINUOUS
 10
18.5052360356
 20
23.2226497308
 11
18.5052360356
 21
22.35
  0
LINE
  5
66A
100
AcDbEntity
  8
0
100
AcDbLine
 62
7
  6
CONTINUOUS
 10
18.5052360356
 20
23.2226497308
 11
18.5052360356
 21
22.35
  0
LINE
  5
66B
100
AcDbEntity
  8
DRAFT
100
AcDbLine
 62
7
  6
CONTINUOUS
 10
18.5052360356
 20
-22.35
 11
18.5052360356
 21
-23.2226497308
  0
LINE
  5
66C
100
AcDbEntity
  8
0
100
AcDbLine
 62
7
  6
CONTINUOUS
 10
18.5052360356
 20
-22.35
 11
18.5052360356
 21
-23.2226497308
  0
LINE
  5
66D
100
AcDbEntity
  8
DRAFT
100
AcDbLine
 62
7
  6
CONTINUOUS
 10
18.55
 20
-20.9959955457
 11
18.55
 21
-19.7
  0
LINE
  5
66E
100
AcDbEntity
  8
DRAFT
100
AcDbLine
 62
7
  6
CONTINUOUS
 10
18.55
 20
19.7
 11
18.55
 21
20.9959955457
  0
LINE
  5
66F
100
AcDbEntity
  8
RACCORDO
100
AcDbLine
 62
253
  6
CONTINUOUS
 10
18.8166456542
 20
21.2859869487
 11
18.8166456542
 21
20.9959955457
  0
LINE
  5
670
100
AcDbEntity
  8
0
100
AcDbLine
 62
253
  6
CONTINUOUS
 10
18.8166456542
 20
21.2859869487
 11
18.8166456542
 21
20.9959955457
  0
LINE
  5
671
100
AcDbEntity
  8
RACCORDO
100
AcDbLine
 62
253
  6
CONTINUOUS
 10
18.8166456542
 20
-20.9959955457
 11
18.8166456542
 21
-21.2859869487
  0
LINE
  5
672
100
AcDbEntity
  8
0
100
AcDbLine
 62
253
  6
CONTINUOUS
 10
18.8166456542
 20
-20.9959955457
 11
18.8166456542
 21
-21.2859869487
  0
LINE
  5
673
100
AcDbEntity
  8
ASSI
100
AcDbLine
 62
253
  6
CONTINUOUS
 10
19.3165695018
 20
21.4537354271
 11
19.3165695018
 21
20.9917082642
  0
LINE
  5
674
100
AcDbEntity
  8
0
100
AcDbLine
 62
253
  6
CONTINUOUS
 10
19.3165695018
 20
21.4537354271
 11
19.3165695018
 21
20.9917082642
  0
LINE
  5
675
100
AcDbEntity
  8
ASSI
100
AcDbLine
 62
253
  6
CONTINUOUS
 10
19.3165695018
 20
-20.9917082642
 11
19.3165695018
 21
-21.4537354271
  0
LINE
  5
676
100
AcDbEntity
  8
0
100
AcDbLine
 62
253
  6
CONTINUOUS
 10
19.3165695018
 20
-20.9917082642
 11
19.3165695018
 21
-21.4537354271
  0
LINE
  5
677
100
AcDbEntity
  8
DRAFT
100
AcDbLine
 62
7
  6
CONTINUOUS
 10
19.5
 20
21.4
 11
19.5
 21
20.9
  0
LINE
  5
678
100
AcDbEntity
  8
0
100
AcDbLine
 62
7
  6
CONTINUOUS
 10
19.5
 20
21.4
 11
19.5
 21
20.9
  0
LINE
  5
679
100
AcDbEntity
  8
DRAFT
100
AcDbLine
 62
7
  6
CONTINUOUS
 10
19.5
 20
-20.9
 11
19.5
 21
-21.4
  0
LINE
  5
67A
100
AcDbEntity
  8
0
100
AcDbLine
 62
7
  6
CONTINUOUS
 10
19.5
 20
-20.9
 11
19.5
 21
-21.4
  0
LINE
  5
67B
100
AcDbEntity
  8
DRAFT
100
AcDbLine
 62
7
  6
CONTINUOUS
 10
18.5
 20
-23.8
 11
18.5052360356
 21
-23.2226497308
  0
LINE
  5
67C
100
AcDbEntity
  8
0
100
AcDbLine
 62
7
  6
CONTINUOUS
 10
18.5
 20
-23.8
 11
18.5052360356
 21
-23.2226497308
  0
LINE
  5
67D
100
AcDbEntity
  8
DRAFT
100
AcDbLine
 62
7
  6
CONTINUOUS
 10
17.9112608136
 20
18.9
 11
17.75
 21
15.6417138602
  0
LINE
  5
67E
100
AcDbEntity
  8
DRAFT
100
AcDbLine
 62
7
  6
CONTINUOUS
 10
18.55
 20
-15.6417138602
 11
18.3887391864
 21
-18.9
  0
LINE
  5
67F
100
AcDbEntity
  8
ASSI
100
AcDbLine
 62
7
  6
CONTINUOUS
 10
8.331763
 20
-18.753173
 11
8.164033
 21
-18.990956
  0
LINE
  5
680
100
AcDbEntity
  8
RACCORDO
100
AcDbLine
 62
7
  6
CONTINUOUS
 10
6.8845482821
 20
-22.3057951078
 11
6.8447639644
 21
-22.35
  0
LINE
  5
681
100
AcDbEntity
  8
0
100
AcDbLine
 62
7
  6
CONTINUOUS
 10
6.8845482821
 20
-22.3057951078
 11
6.8447639644
 21
-22.35
  0
LINE
  5
682
100
AcDbEntity
  8
DRAFT
100
AcDbLine
 62
7
  6
CONTINUOUS
 10
15.2262038896
 20
-12.4737961104
 11
15.2
 21
-12.5
  0
LINE
  5
683
100
AcDbEntity
  8
RACCORDO
100
AcDbLine
 62
7
  6
CONTINUOUS
 10
4.0094583738
 20
-22.2859700255
 11
3.9507059952
 21
-22.3383643404
  0
LINE
  5
684
100
AcDbEntity
  8
0
100
AcDbLine
 62
7
  6
CONTINUOUS
 10
4.0094583738
 20
-22.2859700255
 11
3.9507059952
 21
-22.3383643404
  0
LINE
  5
685
100
AcDbEntity
  8
ASSI
100
AcDbLine
 62
7
  6
CONTINUOUS
 10
7.173343
 20
-16.184959
 11
8.0752015271
 21
-15.4249575558
  0
LINE
  5
686
100
AcDbEntity
  8
ASSI
100
AcDbLine
 62
7
  6
CONTINUOUS
 10
8.0333561387
 20
-15.8549568831
 11
7.173343
 21
-16.579696
  0
LINE
  5
687
100
AcDbEntity
  8
ASSI
100
AcDbLine
 62
7
  6
CONTINUOUS
 10
-3.0174550649
 20
-20.9087268678
 11
-3.1834304982
 21
-20.9917082642
  0
LINE
  5
688
100
AcDbEntity
  8
0
100
AcDbLine
 62
7
  6
CONTINUOUS
 10
-3.0174550649
 20
-20.9087268678
 11
-3.1834304982
 21
-20.9917082642
  0
LINE
  5
689
100
AcDbEntity
  8
ASSI
100
AcDbLine
 62
7
  6
CONTINUOUS
 10
-3.1834304982
 20
-21.4537354271
 11
-3.0174550649
 21
-21.4051134101
  0
LINE
  5
68A
100
AcDbEntity
  8
0
100
AcDbLine
 62
7
  6
CONTINUOUS
 10
-3.1834304982
 20
-21.4537354271
 11
-3.0174550649
 21
-21.4051134101
  0
LINE
  5
68B
100
AcDbEntity
  8
0
100
AcDbLine
 62
7
  6
CONTINUOUS
 10
-6.9196623144
 20
16.5627438263
 11
-7.2536457035
 21
16.5627438263
  0
LINE
  5
68C
100
AcDbEntity
  8
0
100
AcDbLine
 62
7
  6
CONTINUOUS
 10
0.555403
 20
17.699809
 11
0.372185
 21
17.699809
  0
LINE
  5
68D
100
AcDbEntity
  8
0
100
AcDbLine
 62
7
  6
CONTINUOUS
 10
-0.331928
 20
17.699809
 11
-0.556251
 21
17.699809
  0
LINE
  5
68E
100
AcDbEntity
  8
0
100
AcDbLine
 62
7
  6
CONTINUOUS
 10
-0.879885
 20
17.699809
 11
-1.069105
 21
17.699809
  0
LINE
  5
68F
100
AcDbEntity
  8
0
100
AcDbLine
 62
7
  6
CONTINUOUS
 10
-8.846953
 20
17.808274
 11
-9.412298
 21
17.808274
  0
LINE
  5
690
100
AcDbEntity
  8
0
100
AcDbLine
 62
7
  6
CONTINUOUS
 10
-10.644035
 20
17.808274
 11
-11.222249
 21
17.808274
  0
LINE
  5
691
100
AcDbEntity
  8
0
100
AcDbLine
 62
7
  6
CONTINUOUS
 10
-12.384893
 20
17.808274
 11
-12.968818
 21
17.808274
  0
LINE
  5
692
100
AcDbEntity
  8
0
100
AcDbLine
 62
7
  6
CONTINUOUS
 10
-14.337503
 20
17.808274
 11
-14.921512
 21
17.808274
  0
LINE
  5
693
100
AcDbEntity
  8
0
100
AcDbLine
 62
7
  6
CONTINUOUS
 10
-16.005163
 20
17.808274
 11
-16.640011
 21
17.808274
  0
LINE
  5
694
100
AcDbEntity
  8
0
100
AcDbLine
 62
7
  6
CONTINUOUS
 10
-13.53622
 20
17.808442
 11
-14.120628
 21
17.808442
  0
LINE
  5
695
100
AcDbEntity
  8
DRAFT
100
AcDbLine
 62
7
  6
CONTINUOUS
 10
-4.7480009438
 20
17.9033677788
 11
-3.9519990562
 21
17.9033677788
  0
LINE
  5
696
100
AcDbEntity
  8
DRAFT
100
AcDbLine
 62
7
  6
CONTINUOUS
 10
3.9519990562
 20
17.9033677788
 11
4.7480009438
 21
17.9033677788
  0
LINE
  5
697
100
AcDbEntity
  8
DRAFT
100
AcDbLine
 62
7
  6
CONTINUOUS
 10
-22.3849101299
 20
18.1473460386
 11
-22.3325462644
 21
18.1473460386
  0
LINE
  5
698
100
AcDbEntity
  8
DRAFT
100
AcDbLine
 62
7
  6
CONTINUOUS
 10
22.3849101299
 20
18.1473460386
 11
22.3325462644
 21
18.1473460386
  0
LINE
  5
699
100
AcDbEntity
  8
0
100
AcDbLine
 62
7
  6
CONTINUOUS
 10
22.3849101299
 20
18.1473460386
 11
22.3325462644
 21
18.1473460386
  0
LINE
  5
69A
100
AcDbEntity
  8
0
100
AcDbLine
 62
7
  6
CONTINUOUS
 10
-22.3849101299
 20
18.1473460386
 11
-22.3325462644
 21
18.1473460386
  0
LINE
  5
69B
100
AcDbEntity
  8
0
100
AcDbLine
 62
7
  6
CONTINUOUS
 10
-2.946134
 20
18.313558
 11
-2.762802
 21
18.313558
  0
LINE
  5
69C
100
AcDbEntity
  8
0
100
AcDbLine
 62
7
  6
CONTINUOUS
 10
-2.368848
 20
18.313558
 11
-2.181666
 21
18.313558
  0
LINE
  5
69D
100
AcDbEntity
  8
0
100
AcDbLine
 62
7
  6
CONTINUOUS
 10
-1.787712
 20
18.313558
 11
-1.60438
 21
18.313558
  0
LINE
  5
69E
100
AcDbEntity
  8
0
100
AcDbLine
 62
7
  6
CONTINUOUS
 10
-1.436675
 20
18.313558
 11
-1.241679
 21
18.313558
  0
LINE
  5
69F
100
AcDbEntity
  8
0
100
AcDbLine
 62
7
  6
CONTINUOUS
 10
-0.395227
 20
18.313558
 11
-0.188569
 21
18.313558
  0
LINE
  5
6A0
100
AcDbEntity
  8
0
100
AcDbLine
 62
7
  6
CONTINUOUS
 10
-0.005237
 20
18.313558
 11
0.5621976348
 21
18.313558
  0
LINE
  5
6A1
100
AcDbEntity
  8
0
100
AcDbLine
 62
7
  6
CONTINUOUS
 10
1.4125
 20
18.313558
 11
2.446134
 21
18.313558
  0
LINE
  5
6A2
100
AcDbEntity
  8
0
100
AcDbLine
 62
7
  6
CONTINUOUS
 10
0.5368323828
 20
18.475488
 11
0.18387
 21
18.475488
  0
LINE
  5
6A3
100
AcDbEntity
  8
0
100
AcDbLine
 62
7
  6
CONTINUOUS
 10
2.446134
 20
18.48115
 11
1.60172
 21
18.48115
  0
LINE
  5
6A4
100
AcDbEntity
  8
0
100
AcDbLine
 62
7
  6
CONTINUOUS
 10
-1.095376
 20
18.721214
 11
-0.533717
 21
18.721214
  0
LINE
  5
6A5
100
AcDbEntity
  8
0
100
AcDbLine
 62
7
  6
CONTINUOUS
 10
-0.602
 20
18.888805
 11
-1.036832
 21
18.888805
  0
LINE
  5
6A6
100
AcDbEntity
  8
DRAFT
100
AcDbLine
 62
7
  6
CONTINUOUS
 10
-18.3887391864
 20
18.9
 11
-17.9112608136
 21
18.9
  0
LINE
  5
6A7
100
AcDbEntity
  8
DRAFT
100
AcDbLine
 62
7
  6
CONTINUOUS
 10
18.3887391864
 20
18.9
 11
17.9112608136
 21
18.9
  0
LINE
  5
6A8
100
AcDbEntity
  8
0
100
AcDbLine
 62
7
  6
CONTINUOUS
 10
1.60172
 20
18.948821
 11
2.368113
 21
18.948821
  0
LINE
  5
6A9
100
AcDbEntity
  8
0
100
AcDbLine
 62
7
  6
CONTINUOUS
 10
2.368113
 20
19.116413
 11
1.60172
 21
19.116413
  0
LINE
  5
6AA
100
AcDbEntity
  8
DRAFT
100
AcDbLine
 62
7
  6
CONTINUOUS
 10
-4.5887391864
 20
19.5
 11
-4.1112608136
 21
19.5
  0
LINE
  5
6AB
100
AcDbEntity
  8
DRAFT
100
AcDbLine
 62
7
  6
CONTINUOUS
 10
4.5887391864
 20
19.5
 11
4.1112608136
 21
19.5
  0
LINE
  5
6AC
100
AcDbEntity
  8
DRAFT
100
AcDbLine
 62
7
  6
CONTINUOUS
 10
20.85
 20
19.5
 11
21.4
 21
19.5
  0
LINE
  5
6AD
100
AcDbEntity
  8
0
100
AcDbLine
 62
7
  6
CONTINUOUS
 10
20.85
 20
19.5
 11
21.4
 21
19.5
  0
LINE
  5
6AE
100
AcDbEntity
  8
DRAFT
100
AcDbLine
 62
7
  6
CONTINUOUS
 10
-20.85
 20
19.5
 11
-21.4
 21
19.5
  0
LINE
  5
6AF
100
AcDbEntity
  8
0
100
AcDbLine
 62
7
  6
CONTINUOUS
 10
-20.85
 20
19.5
 11
-21.4
 21
19.5
  0
LINE
  5
6B0
100
AcDbEntity
  8
0
100
AcDbLine
 62
7
  6
CONTINUOUS
 10
1.60172
 20
19.545584
 11
2.432432
 21
19.545584
  0
LINE
  5
6B1
100
AcDbEntity
  8
0
100
AcDbLine
 62
7
  6
CONTINUOUS
 10
0.18387
 20
19.551246
 11
0.5368323828
 21
19.551246
  0
LINE
  5
6B2
100
AcDbEntity
  8
0
100
AcDbLine
 62
7
  6
CONTINUOUS
 10
18.55
 20
19.7
 11
17.75
 21
19.7
  0
LINE
  5
6B3
100
AcDbEntity
  8
0
100
AcDbLine
 62
7
  6
CONTINUOUS
 10
4.75
 20
19.7
 11
3.95
 21
19.7
  0
LINE
  5
6B4
100
AcDbEntity
  8
0
100
AcDbLine
 62
7
  6
CONTINUOUS
 10
-3.95
 20
19.7
 11
-4.75
 21
19.7
  0
LINE
  5
6B5
100
AcDbEntity
  8
0
100
AcDbLine
 62
7
  6
CONTINUOUS
 10
-17.75
 20
19.7
 11
-18.55
 21
19.7
  0
LINE
  5
6B6
100
AcDbEntity
  8
0
100
AcDbLine
 62
7
  6
CONTINUOUS
 10
2.432432
 20
19.713176
 11
1.4125
 21
19.713176
  0
LINE
  5
6B7
100
AcDbEntity
  8
0
100
AcDbLine
 62
7
  6
CONTINUOUS
 10
0.5621976348
 20
19.713176
 11
-0.005237
 21
19.713176
  0
LINE
  5
6B8
100
AcDbEntity
  8
0
100
AcDbLine
 62
7
  6
CONTINUOUS
 10
-0.695647
 20
19.713176
 11
-0.910119
 21
19.713176
  0
LINE
  5
6B9
100
AcDbEntity
  8
0
100
AcDbLine
 62
7
  6
CONTINUOUS
 10
-1.60438
 20
19.713176
 11
-1.873546
 21
19.713176
  0
LINE
  5
6BA
100
AcDbEntity
  8
0
100
AcDbLine
 62
7
  6
CONTINUOUS
 10
-2.675043
 20
19.713176
 11
-2.946134
 21
19.713176
  0
LINE
  5
6BB
100
AcDbEntity
  8
0
100
AcDbLine
 62
7
  6
CONTINUOUS
 10
17.75
 20
20.0
 11
4.75
 21
20.0
  0
LINE
  5
6BC
100
AcDbEntity
  8
0
100
AcDbLine
 62
7
  6
CONTINUOUS
 10
-4.75
 20
20.0
 11
-17.75
 21
20.0
  0
LINE
  5
6BD
100
AcDbEntity
  8
DRAFT
100
AcDbLine
 62
7
  6
CONTINUOUS
 10
-17.7543163085
 20
20.0043163085
 11
-17.75
 21
20.0043163085
  0
LINE
  5
6BE
100
AcDbEntity
  8
DRAFT
100
AcDbLine
 62
7
  6
CONTINUOUS
 10
-4.75
 20
20.0043163085
 11
-4.7456836915
 21
20.0043163085
  0
LINE
  5
6BF
100
AcDbEntity
  8
DRAFT
100
AcDbLine
 62
7
  6
CONTINUOUS
 10
-4.5887391864
 20
20.1612608136
 11
-17.9112608136
 21
20.1612608136
  0
LINE
  5
6C0
100
AcDbEntity
  8
ASSI
100
AcDbLine
 62
7
  6
CONTINUOUS
 10
-3.1834304982
 20
21.4537354271
 11
-3.0174550649
 21
21.4051134101
  0
LINE
  5
6C1
100
AcDbEntity
  8
0
100
AcDbLine
 62
7
  6
CONTINUOUS
 10
-3.1834304982
 20
21.4537354271
 11
-3.0174550649
 21
21.4051134101
  0
LINE
  5
6C2
100
AcDbEntity
  8
ASSI
100
AcDbLine
 62
7
  6
CONTINUOUS
 10
-3.0174550649
 20
20.9087268678
 11
-3.1834304982
 21
20.9917082642
  0
LINE
  5
6C3
100
AcDbEntity
  8
0
100
AcDbLine
 62
7
  6
CONTINUOUS
 10
-3.0174550649
 20
20.9087268678
 11
-3.1834304982
 21
20.9917082642
  0
LINE
  5
6C4
100
AcDbEntity
  8
RACCORDO
100
AcDbLine
 62
7
  6
CONTINUOUS
 10
4.0094583738
 20
22.2859700255
 11
3.9507059952
 21
22.3383643404
  0
LINE
  5
6C5
100
AcDbEntity
  8
0
100
AcDbLine
 62
7
  6
CONTINUOUS
 10
4.0094583738
 20
22.2859700255
 11
3.9507059952
 21
22.3383643404
  0
LINE
  5
6C6
100
AcDbEntity
  8
DRAFT
100
AcDbLine
 62
7
  6
CONTINUOUS
 10
15.2262038896
 20
12.4737961104
 11
15.2
 21
12.5
  0
LINE
  5
6C7
100
AcDbEntity
  8
RACCORDO
100
AcDbLine
 62
7
  6
CONTINUOUS
 10
6.8447639644
 20
22.35
 11
6.8845482821
 21
22.3057951078
  0
LINE
  5
6C8
100
AcDbEntity
  8
0
100
AcDbLine
 62
7
  6
CONTINUOUS
 10
6.8447639644
 20
22.35
 11
6.8845482821
 21
22.3057951078
  0
LINE
  5
6C9
100
AcDbEntity
  8
DRAFT
100
AcDbLine
 62
7
  6
CONTINUOUS
 10
22.35
 20
18.5
 11
22.3849101299
 21
18.1473460386
  0
LINE
  5
6CA
100
AcDbEntity
  8
0
100
AcDbLine
 62
7
  6
CONTINUOUS
 10
22.35
 20
18.5
 11
22.3849101299
 21
18.1473460386
  0
LINE
  5
6CB
100
AcDbEntity
  8
DRAFT
100
AcDbLine
 62
7
  6
CONTINUOUS
 10
22.3325462644
 20
-18.1473460386
 11
22.35
 21
-18.5
  0
LINE
  5
6CC
100
AcDbEntity
  8
0
100
AcDbLine
 62
7
  6
CONTINUOUS
 10
22.3325462644
 20
-18.1473460386
 11
22.35
 21
-18.5
  0
LINE
  5
6CD
100
AcDbEntity
  8
DRAFT
100
AcDbLine
 62
7
  6
CONTINUOUS
 10
21.4
 20
-23.8
 11
21.3947639644
 21
-23.2226497308
  0
LINE
  5
6CE
100
AcDbEntity
  8
0
100
AcDbLine
 62
7
  6
CONTINUOUS
 10
21.4
 20
-23.8
 11
21.3947639644
 21
-23.2226497308
  0
LINE
  5
6CF
100
AcDbEntity
  8
DRAFT
100
AcDbLine
 62
7
  6
CONTINUOUS
 10
20.7155960001
 20
-12.5
 11
20.7155960001
 21
12.5
  0
LINE
  5
6D0
100
AcDbEntity
  8
0
100
AcDbLine
 62
7
  6
CONTINUOUS
 10
20.7155960001
 20
-12.5
 11
20.7155960001
 21
12.5
  0
LINE
  5
6D1
100
AcDbEntity
  8
SMUSSO
100
AcDbLine
 62
7
  6
CONTINUOUS
 10
20.85
 20
20.1990396502
 11
20.85
 21
19.5
  0
LINE
  5
6D2
100
AcDbEntity
  8
0
100
AcDbLine
 62
7
  6
CONTINUOUS
 10
20.85
 20
20.1990396502
 11
20.85
 21
19.5
  0
LINE
  5
6D3
100
AcDbEntity
  8
SMUSSO
100
AcDbLine
 62
7
  6
CONTINUOUS
 10
20.85
 20
-19.5
 11
20.85
 21
-20.1990396502
  0
LINE
  5
6D4
100
AcDbEntity
  8
0
100
AcDbLine
 62
7
  6
CONTINUOUS
 10
20.85
 20
-19.5
 11
20.85
 21
-20.1990396502
  0
LINE
  5
6D5
100
AcDbEntity
  8
DRAFT
100
AcDbLine
 62
7
  6
CONTINUOUS
 10
20.8674550649
 20
19.5
 11
20.8674550649
 21
-19.5
  0
LINE
  5
6D6
100
AcDbEntity
  8
0
100
AcDbLine
 62
7
  6
CONTINUOUS
 10
20.8674550649
 20
19.5
 11
20.8674550649
 21
-19.5
  0
LINE
  5
6D7
100
AcDbEntity
  8
DRAFT
100
AcDbLine
 62
7
  6
CONTINUOUS
 10
21.3947639644
 20
23.2226497308
 11
21.3947639644
 21
22.35
  0
LINE
  5
6D8
100
AcDbEntity
  8
0
100
AcDbLine
 62
7
  6
CONTINUOUS
 10
21.3947639644
 20
23.2226497308
 11
21.3947639644
 21
22.35
  0
LINE
  5
6D9
100
AcDbEntity
  8
DRAFT
100
AcDbLine
 62
7
  6
CONTINUOUS
 10
21.3947639644
 20
-22.35
 11
21.3947639644
 21
-23.2226497308
  0
LINE
  5
6DA
100
AcDbEntity
  8
0
100
AcDbLine
 62
7
  6
CONTINUOUS
 10
21.3947639644
 20
-22.35
 11
21.3947639644
 21
-23.2226497308
  0
LINE
  5
6DB
100
AcDbEntity
  8
RACCORDO
100
AcDbLine
 62
7
  6
CONTINUOUS
 10
21.4
 20
-24.2500034269
 11
21.4
 21
-23.8
  0
LINE
  5
6DC
100
AcDbEntity
  8
0
100
AcDbLine
 62
7
  6
CONTINUOUS
 10
21.4
 20
-24.2500034269
 11
21.4
 21
-23.8
  0
LINE
  5
6DD
100
AcDbEntity
  8
RACCORDO
100
AcDbLine
 62
7
  6
CONTINUOUS
 10
21.4
 20
23.8
 11
21.4
 21
24.2500034269
  0
LINE
  5
6DE
100
AcDbEntity
  8
0
100
AcDbLine
 62
7
  6
CONTINUOUS
 10
21.4
 20
23.8
 11
21.4
 21
24.2500034269
  0
LINE
  5
6DF
100
AcDbEntity
  8
DRAFT
100
AcDbLine
 62
7
  6
CONTINUOUS
 10
22.3325462644
 20
-18.5674537356
 11
22.3325462644
 21
-18.1473460386
  0
LINE
  5
6E0
100
AcDbEntity
  8
0
100
AcDbLine
 62
7
  6
CONTINUOUS
 10
22.3325462644
 20
-18.5674537356
 11
22.3325462644
 21
-18.1473460386
  0
LINE
  5
6E1
100
AcDbEntity
  8
DRAFT
100
AcDbLine
 62
7
  6
CONTINUOUS
 10
22.3325462644
 20
18.1473460386
 11
22.3325462644
 21
18.5674537356
  0
LINE
  5
6E2
100
AcDbEntity
  8
0
100
AcDbLine
 62
7
  6
CONTINUOUS
 10
22.3325462644
 20
18.1473460386
 11
22.3325462644
 21
18.5674537356
  0
LINE
  5
6E3
100
AcDbEntity
  8
RACCORDO
100
AcDbLine
 62
7
  6
CONTINUOUS
 10
22.3412731322
 20
21.8441990932
 11
22.3412731322
 21
18.5587268678
  0
LINE
  5
6E4
100
AcDbEntity
  8
0
100
AcDbLine
 62
7
  6
CONTINUOUS
 10
22.3412731322
 20
21.8441990932
 11
22.3412731322
 21
18.5587268678
  0
LINE
  5
6E5
100
AcDbEntity
  8
RACCORDO
100
AcDbLine
 62
7
  6
CONTINUOUS
 10
22.3412731322
 20
-18.5587268678
 11
22.3412731322
 21
-21.8441990932
  0
LINE
  5
6E6
100
AcDbEntity
  8
0
100
AcDbLine
 62
7
  6
CONTINUOUS
 10
22.3412731322
 20
-18.5587268678
 11
22.3412731322
 21
-21.8441990932
  0
LINE
  5
6E7
100
AcDbEntity
  8
RACCORDO
100
AcDbLine
 62
7
  6
CONTINUOUS
 10
22.35
 20
21.850016923
 11
22.35
 21
18.5
  0
LINE
  5
6E8
100
AcDbEntity
  8
0
100
AcDbLine
 62
7
  6
CONTINUOUS
 10
22.35
 20
21.850016923
 11
22.35
 21
18.5
  0
LINE
  5
6E9
100
AcDbEntity
  8
RACCORDO
100
AcDbLine
 62
7
  6
CONTINUOUS
 10
22.35
 20
-21.850016923
 11
22.35
 21
-18.5
  0
LINE
  5
6EA
100
AcDbEntity
  8
0
100
AcDbLine
 62
7
  6
CONTINUOUS
 10
22.35
 20
-21.850016923
 11
22.35
 21
-18.5
  0
LINE
  5
6EB
100
AcDbEntity
  8
DRAFT
100
AcDbLine
 62
7
  6
CONTINUOUS
 10
22.3849101299
 20
-18.1473460386
 11
22.3849101299
 21
18.1473460386
  0
LINE
  5
6EC
100
AcDbEntity
  8
0
100
AcDbLine
 62
7
  6
CONTINUOUS
 10
22.3849101299
 20
-18.1473460386
 11
22.3849101299
 21
18.1473460386
  0
LINE
  5
6ED
100
AcDbEntity
  8
DRAFT
100
AcDbLine
 62
7
  6
CONTINUOUS
 10
21.3947639644
 20
23.2226497308
 11
21.4
 21
23.8
  0
LINE
  5
6EE
100
AcDbEntity
  8
0
100
AcDbLine
 62
7
  6
CONTINUOUS
 10
21.3947639644
 20
23.2226497308
 11
21.4
 21
23.8
  0
LINE
  5
6EF
100
AcDbEntity
  8
DRAFT
100
AcDbLine
 62
7
  6
CONTINUOUS
 10
22.35
 20
18.5
 11
22.3325462644
 21
18.1473460386
  0
LINE
  5
6F0
100
AcDbEntity
  8
0
100
AcDbLine
 62
7
  6
CONTINUOUS
 10
22.35
 20
18.5
 11
22.3325462644
 21
18.1473460386
  0
LINE
  5
6F1
100
AcDbEntity
  8
DRAFT
100
AcDbLine
 62
7
  6
CONTINUOUS
 10
22.3849101299
 20
-18.1473460386
 11
22.35
 21
-18.5
  0
LINE
  5
6F2
100
AcDbEntity
  8
0
100
AcDbLine
 62
7
  6
CONTINUOUS
 10
22.3849101299
 20
-18.1473460386
 11
22.35
 21
-18.5
  0
LINE
  5
6F3
100
AcDbEntity
  8
ASSI
100
AcDbLine
 62
7
  6
CONTINUOUS
 10
6.8840616468
 20
-23.7659383532
 11
6.85
 21
-23.8
  0
LINE
  5
6F4
100
AcDbEntity
  8
0
100
AcDbLine
 62
7
  6
CONTINUOUS
 10
6.8840616468
 20
-23.7659383532
 11
6.85
 21
-23.8
  0
LINE
  5
6F5
100
AcDbEntity
  8
SMUSSO
100
AcDbLine
 62
7
  6
CONTINUOUS
 10
20.0293058381
 20
20.5379423332
 11
18.55
 21
20.5379423332
  0
LINE
  5
6F6
100
AcDbEntity
  8
0
100
AcDbLine
 62
7
  6
CONTINUOUS
 10
3.95
 20
20.5379423332
 11
-3.95
 21
20.5379423332
  0
LINE
  5
6F7
100
AcDbEntity
  8
DRAFT
100
AcDbLine
 62
7
  6
CONTINUOUS
 10
3.95
 20
20.5379423332
 11
-3.95
 21
20.5379423332
  0
LINE
  5
6F8
100
AcDbEntity
  8
DRAFT
100
AcDbLine
 62
7
  6
CONTINUOUS
 10
18.55
 20
20.5379423332
 11
20.0293058381
 21
20.5379423332
  0
LINE
  5
6F9
100
AcDbEntity
  8
SMUSSO
100
AcDbLine
 62
7
  6
CONTINUOUS
 10
-18.55
 20
20.5379423332
 11
-20.0293058381
 21
20.5379423332
  0
LINE
  5
6FA
100
AcDbEntity
  8
DRAFT
100
AcDbLine
 62
7
  6
CONTINUOUS
 10
-18.55
 20
20.5379423332
 11
-20.0293058381
 21
20.5379423332
  0
LINE
  5
6FB
100
AcDbEntity
  8
DRAFT
100
AcDbLine
 62
7
  6
CONTINUOUS
 10
14.3459955457
 20
20.8
 11
8.1540044543
 21
20.8
  0
LINE
  5
6FC
100
AcDbEntity
  8
0
100
AcDbLine
 62
7
  6
CONTINUOUS
 10
14.3459955457
 20
20.8
 11
8.1540044543
 21
20.8
  0
LINE
  5
6FD
100
AcDbEntity
  8
DRAFT
100
AcDbLine
 62
7
  6
CONTINUOUS
 10
-8.1540044543
 20
20.8
 11
-14.3459955457
 21
20.8
  0
LINE
  5
6FE
100
AcDbEntity
  8
0
100
AcDbLine
 62
7
  6
CONTINUOUS
 10
-8.1540044543
 20
20.8
 11
-14.3459955457
 21
20.8
  0
LINE
  5
6FF
100
AcDbEntity
  8
SMUSSO
100
AcDbLine
 62
7
  6
CONTINUOUS
 10
-20.1498936624
 20
20.9
 11
-19.5
 21
20.9
  0
LINE
  5
700
100
AcDbEntity
  8
0
100
AcDbLine
 62
7
  6
CONTINUOUS
 10
-20.1498936624
 20
20.9
 11
-19.5
 21
20.9
  0
LINE
  5
701
100
AcDbEntity
  8
DRAFT
100
AcDbLine
 62
7
  6
CONTINUOUS
 10
19.5
 20
20.9
 11
18.55
 21
20.9
  0
LINE
  5
702
100
AcDbEntity
  8
DRAFT
100
AcDbLine
 62
7
  6
CONTINUOUS
 10
-3.95
 20
20.9
 11
3.95
 21
20.9
  0
LINE
  5
703
100
AcDbEntity
  8
SMUSSO
100
AcDbLine
 62
7
  6
CONTINUOUS
 10
19.5
 20
20.9
 11
20.1498936624
 21
20.9
  0
LINE
  5
704
100
AcDbEntity
  8
DRAFT
100
AcDbLine
 62
7
  6
CONTINUOUS
 10
-18.55
 20
20.9
 11
-19.5
 21
20.9
  0
LINE
  5
705
100
AcDbEntity
  8
0
100
AcDbLine
 62
7
  6
CONTINUOUS
 10
19.5
 20
20.9
 11
20.1498936624
 21
20.9
  0
LINE
  5
706
100
AcDbEntity
  8
DRAFT
100
AcDbLine
 62
7
  6
CONTINUOUS
 10
3.0174550649
 20
20.9087268678
 11
-3.0174550649
 21
20.9087268678
  0
LINE
  5
707
100
AcDbEntity
  8
0
100
AcDbLine
 62
7
  6
CONTINUOUS
 10
3.0174550649
 20
20.9087268678
 11
-3.0174550649
 21
20.9087268678
  0
LINE
  5
708
100
AcDbEntity
  8
ASSI
100
AcDbLine
 62
7
  6
CONTINUOUS
 10
-18.8166456542
 20
20.9959955457
 11
-18.55
 21
20.9959955457
  0
LINE
  5
709
100
AcDbEntity
  8
DRAFT
100
AcDbLine
 62
7
  6
CONTINUOUS
 10
-18.8166456542
 20
20.9959955457
 11
-18.55
 21
20.9959955457
  0
LINE
  5
70A
100
AcDbEntity
  8
ASSI
100
AcDbLine
 62
7
  6
CONTINUOUS
 10
18.8166456542
 20
20.9959955457
 11
18.55
 21
20.9959955457
  0
LINE
  5
70B
100
AcDbEntity
  8
DRAFT
100
AcDbLine
 62
7
  6
CONTINUOUS
 10
-4.1112608136
 20
20.9959955457
 11
-3.6833543458
 21
20.9959955457
  0
LINE
  5
70C
100
AcDbEntity
  8
ASSI
100
AcDbLine
 62
7
  6
CONTINUOUS
 10
3.6833543458
 20
20.9959955457
 11
3.95
 21
20.9959955457
  0
LINE
  5
70D
100
AcDbEntity
  8
DRAFT
100
AcDbLine
 62
7
  6
CONTINUOUS
 10
3.6833543458
 20
20.9959955457
 11
3.95
 21
20.9959955457
  0
LINE
  5
70E
100
AcDbEntity
  8
ASSI
100
AcDbLine
 62
7
  6
CONTINUOUS
 10
-3.6833543458
 20
20.9959955457
 11
-3.95
 21
20.9959955457
  0
LINE
  5
70F
100
AcDbEntity
  8
DRAFT
100
AcDbLine
 62
7
  6
CONTINUOUS
 10
18.55
 20
20.9959955457
 11
18.8166456542
 21
20.9959955457
  0
LINE
  5
710
100
AcDbEntity
  8
DRAFT
100
AcDbLine
 62
253
  6
CONTINUOUS
 10
18.8166456542
 20
21.2859869487
 11
14.3459955457
 21
21.2859869487
  0
LINE
  5
711
100
AcDbEntity
  8
0
100
AcDbLine
 62
253
  6
CONTINUOUS
 10
18.8166456542
 20
21.2859869487
 11
14.3459955457
 21
21.2859869487
  0
LINE
  5
712
100
AcDbEntity
  8
DRAFT
100
AcDbLine
 62
253
  6
CONTINUOUS
 10
8.1540044543
 20
21.2859869487
 11
3.6833543458
 21
21.2859869487
  0
LINE
  5
713
100
AcDbEntity
  8
0
100
AcDbLine
 62
253
  6
CONTINUOUS
 10
8.1540044543
 20
21.2859869487
 11
3.6833543458
 21
21.2859869487
  0
LINE
  5
714
100
AcDbEntity
  8
DRAFT
100
AcDbLine
 62
253
  6
CONTINUOUS
 10
-3.6833543458
 20
21.2859869487
 11
-8.1540044543
 21
21.2859869487
  0
LINE
  5
715
100
AcDbEntity
  8
0
100
AcDbLine
 62
253
  6
CONTINUOUS
 10
-3.6833543458
 20
21.2859869487
 11
-8.1540044543
 21
21.2859869487
  0
LINE
  5
716
100
AcDbEntity
  8
DRAFT
100
AcDbLine
 62
253
  6
CONTINUOUS
 10
-14.3459955457
 20
21.2859869487
 11
-18.8166456542
 21
21.2859869487
  0
LINE
  5
717
100
AcDbEntity
  8
0
100
AcDbLine
 62
253
  6
CONTINUOUS
 10
-14.3459955457
 20
21.2859869487
 11
-18.8166456542
 21
21.2859869487
  0
LINE
  5
718
100
AcDbEntity
  8
DRAFT
100
AcDbLine
 62
7
  6
CONTINUOUS
 10
-14.3262444645
 20
21.6237555355
 11
-8.1737555355
 21
21.6237555355
  0
LINE
  5
719
100
AcDbEntity
  8
0
100
AcDbLine
 62
7
  6
CONTINUOUS
 10
-14.3262444645
 20
21.6237555355
 11
-8.1737555355
 21
21.6237555355
  0
LINE
  5
71A
100
AcDbEntity
  8
DRAFT
100
AcDbLine
 62
7
  6
CONTINUOUS
 10
8.1737555355
 20
21.6237555355
 11
14.3262444645
 21
21.6237555355
  0
LINE
  5
71B
100
AcDbEntity
  8
0
100
AcDbLine
 62
7
  6
CONTINUOUS
 10
8.1737555355
 20
21.6237555355
 11
14.3262444645
 21
21.6237555355
  0
LINE
  5
71C
100
AcDbEntity
  8
DRAFT
100
AcDbLine
 62
7
  6
CONTINUOUS
 10
-14.25
 20
21.7
 11
-8.25
 21
21.7
  0
LINE
  5
71D
100
AcDbEntity
  8
0
100
AcDbLine
 62
7
  6
CONTINUOUS
 10
-14.25
 20
21.7
 11
-8.25
 21
21.7
  0
LINE
  5
71E
100
AcDbEntity
  8
DRAFT
100
AcDbLine
 62
7
  6
CONTINUOUS
 10
14.25
 20
21.7
 11
8.25
 21
21.7
  0
LINE
  5
71F
100
AcDbEntity
  8
0
100
AcDbLine
 62
7
  6
CONTINUOUS
 10
14.25
 20
21.7
 11
8.25
 21
21.7
  0
LINE
  5
720
100
AcDbEntity
  8
DRAFT
100
AcDbLine
 62
253
  6
CONTINUOUS
 10
18.4905416262
 20
22.2859700255
 11
14.3373194485
 21
22.2859700255
  0
LINE
  5
721
100
AcDbEntity
  8
0
100
AcDbLine
 62
253
  6
CONTINUOUS
 10
18.4905416262
 20
22.2859700255
 11
14.3373194485
 21
22.2859700255
  0
LINE
  5
722
100
AcDbEntity
  8
DRAFT
100
AcDbLine
 62
253
  6
CONTINUOUS
 10
8.1626805515
 20
22.2859700255
 11
4.0094583738
 21
22.2859700255
  0
LINE
  5
723
100
AcDbEntity
  8
0
100
AcDbLine
 62
253
  6
CONTINUOUS
 10
8.1626805515
 20
22.2859700255
 11
4.0094583738
 21
22.2859700255
  0
LINE
  5
724
100
AcDbEntity
  8
DRAFT
100
AcDbLine
 62
253
  6
CONTINUOUS
 10
-4.0094583738
 20
22.2859700255
 11
-8.1626805515
 21
22.2859700255
  0
LINE
  5
725
100
AcDbEntity
  8
0
100
AcDbLine
 62
253
  6
CONTINUOUS
 10
-4.0094583738
 20
22.2859700255
 11
-8.1626805515
 21
22.2859700255
  0
LINE
  5
726
100
AcDbEntity
  8
DRAFT
100
AcDbLine
 62
253
  6
CONTINUOUS
 10
-14.3373194485
 20
22.2859700255
 11
-18.4905416262
 21
22.2859700255
  0
LINE
  5
727
100
AcDbEntity
  8
0
100
AcDbLine
 62
253
  6
CONTINUOUS
 10
-14.3373194485
 20
22.2859700255
 11
-18.4905416262
 21
22.2859700255
  0
LINE
  5
728
100
AcDbEntity
  8
DRAFT
100
AcDbLine
 62
7
  6
CONTINUOUS
 10
-3.9507059952
 20
22.3383643404
 11
3.9507059952
 21
22.3383643404
  0
LINE
  5
729
100
AcDbEntity
  8
0
100
AcDbLine
 62
7
  6
CONTINUOUS
 10
-3.9507059952
 20
22.3383643404
 11
3.9507059952
 21
22.3383643404
  0
LINE
  5
72A
100
AcDbEntity
  8
RACCORDO
100
AcDbLine
 62
7
  6
CONTINUOUS
 10
-21.8412794783
 20
22.3441821702
 11
-18.5558178298
 21
22.3441821702
  0
LINE
  5
72B
100
AcDbEntity
  8
0
100
AcDbLine
 62
7
  6
CONTINUOUS
 10
-21.8412794783
 20
22.3441821702
 11
-18.5558178298
 21
22.3441821702
  0
LINE
  5
72C
100
AcDbEntity
  8
DRAFT
100
AcDbLine
 62
7
  6
CONTINUOUS
 10
14.75
 20
22.3441821702
 11
14.25
 21
22.3441821702
  0
LINE
  5
72D
100
AcDbEntity
  8
0
100
AcDbLine
 62
7
  6
CONTINUOUS
 10
14.75
 20
22.3441821702
 11
14.25
 21
22.3441821702
  0
LINE
  5
72E
100
AcDbEntity
  8
DRAFT
100
AcDbLine
 62
7
  6
CONTINUOUS
 10
8.25
 20
22.3441821702
 11
7.75
 21
22.3441821702
  0
LINE
  5
72F
100
AcDbEntity
  8
0
100
AcDbLine
 62
7
  6
CONTINUOUS
 10
8.25
 20
22.3441821702
 11
7.75
 21
22.3441821702
  0
LINE
  5
730
100
AcDbEntity
  8
DRAFT
100
AcDbLine
 62
7
  6
CONTINUOUS
 10
-7.75
 20
22.3441821702
 11
-8.25
 21
22.3441821702
  0
LINE
  5
731
100
AcDbEntity
  8
0
100
AcDbLine
 62
7
  6
CONTINUOUS
 10
-7.75
 20
22.3441821702
 11
-8.25
 21
22.3441821702
  0
LINE
  5
732
100
AcDbEntity
  8
DRAFT
100
AcDbLine
 62
7
  6
CONTINUOUS
 10
-14.25
 20
22.3441821702
 11
-14.75
 21
22.3441821702
  0
LINE
  5
733
100
AcDbEntity
  8
0
100
AcDbLine
 62
7
  6
CONTINUOUS
 10
-14.25
 20
22.3441821702
 11
-14.75
 21
22.3441821702
  0
LINE
  5
734
100
AcDbEntity
  8
RACCORDO
100
AcDbLine
 62
7
  6
CONTINUOUS
 10
18.5558178298
 20
22.3441821702
 11
21.8412794783
 21
22.3441821702
  0
LINE
  5
735
100
AcDbEntity
  8
0
100
AcDbLine
 62
7
  6
CONTINUOUS
 10
18.5558178298
 20
22.3441821702
 11
21.8412794783
 21
22.3441821702
  0
LINE
  5
736
100
AcDbEntity
  8
DRAFT
100
AcDbLine
 62
7
  6
CONTINUOUS
 10
21.8503805997
 20
22.35
 11
15.6552360356
 21
22.35
  0
LINE
  5
737
100
AcDbEntity
  8
0
100
AcDbLine
 62
7
  6
CONTINUOUS
 10
21.8503805997
 20
22.35
 11
15.6552360356
 21
22.35
  0
LINE
  5
738
100
AcDbEntity
  8
DRAFT
100
AcDbLine
 62
7
  6
CONTINUOUS
 10
6.8447639644
 20
22.35
 11
-6.8447639644
 21
22.35
  0
LINE
  5
739
100
AcDbEntity
  8
0
100
AcDbLine
 62
7
  6
CONTINUOUS
 10
6.8447639644
 20
22.35
 11
-6.8447639644
 21
22.35
  0
LINE
  5
73A
100
AcDbEntity
  8
DRAFT
100
AcDbLine
 62
7
  6
CONTINUOUS
 10
-15.6552360356
 20
22.35
 11
-21.8503805997
 21
22.35
  0
LINE
  5
73B
100
AcDbEntity
  8
0
100
AcDbLine
 62
7
  6
CONTINUOUS
 10
-15.6552360356
 20
22.35
 11
-21.8503805997
 21
22.35
  0
LINE
  5
73C
100
AcDbEntity
  8
DRAFT
100
AcDbLine
 62
7
  6
CONTINUOUS
 10
-12.25
 20
22.4024077793
 11
-10.25
 21
22.4024077793
  0
LINE
  5
73D
100
AcDbEntity
  8
0
100
AcDbLine
 62
7
  6
CONTINUOUS
 10
-12.25
 20
22.4024077793
 11
-10.25
 21
22.4024077793
  0
LINE
  5
73E
100
AcDbEntity
  8
DRAFT
100
AcDbLine
 62
7
  6
CONTINUOUS
 10
10.25
 20
22.4024077793
 11
12.25
 21
22.4024077793
  0
LINE
  5
73F
100
AcDbEntity
  8
0
100
AcDbLine
 62
7
  6
CONTINUOUS
 10
10.25
 20
22.4024077793
 11
12.25
 21
22.4024077793
  0
LINE
  5
740
100
AcDbEntity
  8
DRAFT
100
AcDbLine
 62
7
  6
CONTINUOUS
 10
-21.3947639644
 20
23.2226497308
 11
-18.5052360356
 21
23.2226497308
  0
LINE
  5
741
100
AcDbEntity
  8
0
100
AcDbLine
 62
7
  6
CONTINUOUS
 10
-21.3947639644
 20
23.2226497308
 11
-18.5052360356
 21
23.2226497308
  0
LINE
  5
742
100
AcDbEntity
  8
DRAFT
100
AcDbLine
 62
7
  6
CONTINUOUS
 10
21.3947639644
 20
23.2226497308
 11
18.5052360356
 21
23.2226497308
  0
LINE
  5
743
100
AcDbEntity
  8
0
100
AcDbLine
 62
7
  6
CONTINUOUS
 10
21.3947639644
 20
23.2226497308
 11
18.5052360356
 21
23.2226497308
  0
LINE
  5
744
100
AcDbEntity
  8
DRAFT
100
AcDbLine
 62
7
  6
CONTINUOUS
 10
1.1052360356
 20
23.2226497308
 11
3.9947639644
 21
23.2226497308
  0
LINE
  5
745
100
AcDbEntity
  8
0
100
AcDbLine
 62
7
  6
CONTINUOUS
 10
1.1052360356
 20
23.2226497308
 11
3.9947639644
 21
23.2226497308
  0
LINE
  5
746
100
AcDbEntity
  8
DRAFT
100
AcDbLine
 62
7
  6
CONTINUOUS
 10
-1.1052360356
 20
23.2226497308
 11
-3.9947639644
 21
23.2226497308
  0
LINE
  5
747
100
AcDbEntity
  8
0
100
AcDbLine
 62
7
  6
CONTINUOUS
 10
-1.1052360356
 20
23.2226497308
 11
-3.9947639644
 21
23.2226497308
  0
LINE
  5
748
100
AcDbEntity
  8
ASSI
100
AcDbLine
 62
7
  6
CONTINUOUS
 10
-15.6159383532
 20
23.7659383532
 11
-14.8067703336
 21
23.7659383532
  0
LINE
  5
749
100
AcDbEntity
  8
0
100
AcDbLine
 62
7
  6
CONTINUOUS
 10
-15.6159383532
 20
23.7659383532
 11
-14.8067703336
 21
23.7659383532
  0
LINE
  5
74A
100
AcDbEntity
  8
ASSI
100
AcDbLine
 62
7
  6
CONTINUOUS
 10
-7.6932296664
 20
23.7659383532
 11
-6.8840616468
 21
23.7659383532
  0
LINE
  5
74B
100
AcDbEntity
  8
0
100
AcDbLine
 62
7
  6
CONTINUOUS
 10
-7.6932296664
 20
23.7659383532
 11
-6.8840616468
 21
23.7659383532
  0
LINE
  5
74C
100
AcDbEntity
  8
ASSI
100
AcDbLine
 62
7
  6
CONTINUOUS
 10
6.8840616468
 20
23.7659383532
 11
7.6932296664
 21
23.7659383532
  0
LINE
  5
74D
100
AcDbEntity
  8
0
100
AcDbLine
 62
7
  6
CONTINUOUS
 10
6.8840616468
 20
23.7659383532
 11
7.6932296664
 21
23.7659383532
  0
LINE
  5
74E
100
AcDbEntity
  8
ASSI
100
AcDbLine
 62
7
  6
CONTINUOUS
 10
14.8067703336
 20
23.7659383532
 11
15.6159383532
 21
23.7659383532
  0
LINE
  5
74F
100
AcDbEntity
  8
0
100
AcDbLine
 62
7
  6
CONTINUOUS
 10
14.8067703336
 20
23.7659383532
 11
15.6159383532
 21
23.7659383532
  0
LINE
  5
750
100
AcDbEntity
  8
DRAFT
100
AcDbLine
 62
7
  6
CONTINUOUS
 10
-21.4
 20
23.8
 11
-18.5
 21
23.8
  0
LINE
  5
751
100
AcDbEntity
  8
0
100
AcDbLine
 62
7
  6
CONTINUOUS
 10
-21.4
 20
23.8
 11
-18.5
 21
23.8
  0
LINE
  5
752
100
AcDbEntity
  8
DRAFT
100
AcDbLine
 62
7
  6
CONTINUOUS
 10
21.4
 20
23.8
 11
18.5
 21
23.8
  0
LINE
  5
753
100
AcDbEntity
  8
0
100
AcDbLine
 62
7
  6
CONTINUOUS
 10
21.4
 20
23.8
 11
18.5
 21
23.8
  0
LINE
  5
754
100
AcDbEntity
  8
DRAFT
100
AcDbLine
 62
7
  6
CONTINUOUS
 10
-15.65
 20
23.8
 11
-14.75
 21
23.8
  0
LINE
  5
755
100
AcDbEntity
  8
0
100
AcDbLine
 62
7
  6
CONTINUOUS
 10
-15.65
 20
23.8
 11
-14.75
 21
23.8
  0
LINE
  5
756
100
AcDbEntity
  8
DRAFT
100
AcDbLine
 62
7
  6
CONTINUOUS
 10
-7.75
 20
23.8
 11
-6.85
 21
23.8
  0
LINE
  5
757
100
AcDbEntity
  8
0
100
AcDbLine
 62
7
  6
CONTINUOUS
 10
-7.75
 20
23.8
 11
-6.85
 21
23.8
  0
LINE
  5
758
100
AcDbEntity
  8
DRAFT
100
AcDbLine
 62
7
  6
CONTINUOUS
 10
1.1
 20
23.8
 11
4.0
 21
23.8
  0
LINE
  5
759
100
AcDbEntity
  8
0
100
AcDbLine
 62
7
  6
CONTINUOUS
 10
1.1
 20
23.8
 11
4.0
 21
23.8
  0
LINE
  5
75A
100
AcDbEntity
  8
DRAFT
100
AcDbLine
 62
7
  6
CONTINUOUS
 10
-1.1
 20
23.8
 11
-4.0
 21
23.8
  0
LINE
  5
75B
100
AcDbEntity
  8
0
100
AcDbLine
 62
7
  6
CONTINUOUS
 10
-1.1
 20
23.8
 11
-4.0
 21
23.8
  0
LINE
  5
75C
100
AcDbEntity
  8
DRAFT
100
AcDbLine
 62
7
  6
CONTINUOUS
 10
6.85
 20
23.8
 11
7.75
 21
23.8
  0
LINE
  5
75D
100
AcDbEntity
  8
0
100
AcDbLine
 62
7
  6
CONTINUOUS
 10
6.85
 20
23.8
 11
7.75
 21
23.8
  0
LINE
  5
75E
100
AcDbEntity
  8
DRAFT
100
AcDbLine
 62
7
  6
CONTINUOUS
 10
14.75
 20
23.8
 11
15.65
 21
23.8
  0
LINE
  5
75F
100
AcDbEntity
  8
0
100
AcDbLine
 62
7
  6
CONTINUOUS
 10
14.75
 20
23.8
 11
15.65
 21
23.8
  0
LINE
  5
760
100
AcDbEntity
  8
RACCORDO
100
AcDbLine
 62
7
  6
CONTINUOUS
 10
15.65
 20
24.0
 11
12.449998477
 21
24.0
  0
LINE
  5
761
100
AcDbEntity
  8
0
100
AcDbLine
 62
7
  6
CONTINUOUS
 10
15.65
 20
24.0
 11
12.449998477
 21
24.0
  0
LINE
  5
762
100
AcDbEntity
  8
RACCORDO
100
AcDbLine
 62
7
  6
CONTINUOUS
 10
10.050001523
 20
24.0
 11
6.85
 21
24.0
  0
LINE
  5
763
100
AcDbEntity
  8
0
100
AcDbLine
 62
7
  6
CONTINUOUS
 10
10.050001523
 20
24.0
 11
6.85
 21
24.0
  0
LINE
  5
764
100
AcDbEntity
  8
RACCORDO
100
AcDbLine
 62
7
  6
CONTINUOUS
 10
-6.85
 20
24.0
 11
-10.050001523
 21
24.0
  0
LINE
  5
765
100
AcDbEntity
  8
0
100
AcDbLine
 62
7
  6
CONTINUOUS
 10
-6.85
 20
24.0
 11
-10.050001523
 21
24.0
  0
LINE
  5
766
100
AcDbEntity
  8
RACCORDO
100
AcDbLine
 62
7
  6
CONTINUOUS
 10
-12.449998477
 20
24.0
 11
-15.65
 21
24.0
  0
LINE
  5
767
100
AcDbEntity
  8
0
100
AcDbLine
 62
7
  6
CONTINUOUS
 10
-12.449998477
 20
24.0
 11
-15.65
 21
24.0
  0
LINE
  5
768
100
AcDbEntity
  8
ASSI
100
AcDbLine
 62
7
  6
CONTINUOUS
 10
6.8840616468
 20
23.7659383532
 11
6.85
 21
23.8
  0
LINE
  5
769
100
AcDbEntity
  8
0
100
AcDbLine
 62
7
  6
CONTINUOUS
 10
6.8840616468
 20
23.7659383532
 11
6.85
 21
23.8
  0
LINE
  5
76A
100
AcDbEntity
  8
DRAFT
100
AcDbLine
 62
7
  6
CONTINUOUS
 10
14.25
 20
-21.7
 11
14.3262444645
 21
-21.6237555355
  0
LINE
  5
76B
100
AcDbEntity
  8
0
100
AcDbLine
 62
7
  6
CONTINUOUS
 10
14.25
 20
-21.7
 11
14.3262444645
 21
-21.6237555355
  0
LINE
  5
76C
100
AcDbEntity
  8
DRAFT
100
AcDbLine
 62
7
  6
CONTINUOUS
 10
14.3373194485
 20
-22.2859700255
 11
14.25
 21
-22.3441821702
  0
LINE
  5
76D
100
AcDbEntity
  8
0
100
AcDbLine
 62
7
  6
CONTINUOUS
 10
14.3373194485
 20
-22.2859700255
 11
14.25
 21
-22.3441821702
  0
LINE
  5
76E
100
AcDbEntity
  8
RACCORDO
100
AcDbLine
 62
7
  6
CONTINUOUS
 10
14.75
 20
-22.3441821702
 11
14.8075937104
 21
-22.3057869048
  0
LINE
  5
76F
100
AcDbEntity
  8
0
100
AcDbLine
 62
7
  6
CONTINUOUS
 10
14.75
 20
-22.3441821702
 11
14.8075937104
 21
-22.3057869048
  0
LINE
  5
770
100
AcDbEntity
  8
ASSI
100
AcDbLine
 62
7
  6
CONTINUOUS
 10
14.8067703336
 20
-23.7659383532
 11
14.75
 21
-23.8
  0
LINE
  5
771
100
AcDbEntity
  8
0
100
AcDbLine
 62
7
  6
CONTINUOUS
 10
14.8067703336
 20
-23.7659383532
 11
14.75
 21
-23.8
  0
LINE
  5
772
100
AcDbEntity
  8
ASSI
100
AcDbLine
 62
7
  6
CONTINUOUS
 10
19.3165695018
 20
-20.9917082642
 11
19.5
 21
-20.9
  0
LINE
  5
773
100
AcDbEntity
  8
0
100
AcDbLine
 62
7
  6
CONTINUOUS
 10
19.3165695018
 20
-20.9917082642
 11
19.5
 21
-20.9
  0
LINE
  5
774
100
AcDbEntity
  8
ASSI
100
AcDbLine
 62
7
  6
CONTINUOUS
 10
19.3165695018
 20
-21.4537354271
 11
19.5
 21
-21.4
  0
LINE
  5
775
100
AcDbEntity
  8
0
100
AcDbLine
 62
7
  6
CONTINUOUS
 10
19.3165695018
 20
-21.4537354271
 11
19.5
 21
-21.4
  0
LINE
  5
776
100
AcDbEntity
  8
RACCORDO
100
AcDbLine
 62
7
  6
CONTINUOUS
 10
-21.1500034269
 20
24.5
 11
-18.7499965731
 21
24.5
  0
LINE
  5
777
100
AcDbEntity
  8
0
100
AcDbLine
 62
7
  6
CONTINUOUS
 10
-21.1500034269
 20
24.5
 11
-18.7499965731
 21
24.5
  0
LINE
  5
778
100
AcDbEntity
  8
RACCORDO
100
AcDbLine
 62
7
  6
CONTINUOUS
 10
21.1500034269
 20
24.5
 11
18.7499965731
 21
24.5
  0
LINE
  5
779
100
AcDbEntity
  8
0
100
AcDbLine
 62
7
  6
CONTINUOUS
 10
21.1500034269
 20
24.5
 11
18.7499965731
 21
24.5
  0
LINE
  5
77A
100
AcDbEntity
  8
RACCORDO
100
AcDbLine
 62
7
  6
CONTINUOUS
 10
1.3499965731
 20
24.5
 11
3.7500034269
 21
24.5
  0
LINE
  5
77B
100
AcDbEntity
  8
0
100
AcDbLine
 62
7
  6
CONTINUOUS
 10
1.3499965731
 20
24.5
 11
3.7500034269
 21
24.5
  0
LINE
  5
77C
100
AcDbEntity
  8
RACCORDO
100
AcDbLine
 62
7
  6
CONTINUOUS
 10
-1.3499965731
 20
24.5
 11
-3.7500034269
 21
24.5
  0
LINE
  5
77D
100
AcDbEntity
  8
0
100
AcDbLine
 62
7
  6
CONTINUOUS
 10
-1.3499965731
 20
24.5
 11
-3.7500034269
 21
24.5
  0
LINE
  5
77E
100
AcDbEntity
  8
ASSI
100
AcDbLine
 62
7
  6
CONTINUOUS
 10
19.3165695018
 20
21.4537354271
 11
19.5
 21
21.4
  0
LINE
  5
77F
100
AcDbEntity
  8
0
100
AcDbLine
 62
7
  6
CONTINUOUS
 10
19.3165695018
 20
21.4537354271
 11
19.5
 21
21.4
  0
LINE
  5
780
100
AcDbEntity
  8
ASSI
100
AcDbLine
 62
7
  6
CONTINUOUS
 10
19.3165695018
 20
20.9917082642
 11
19.5
 21
20.9
  0
LINE
  5
781
100
AcDbEntity
  8
0
100
AcDbLine
 62
7
  6
CONTINUOUS
 10
19.3165695018
 20
20.9917082642
 11
19.5
 21
20.9
  0
LINE
  5
782
100
AcDbEntity
  8
ASSI
100
AcDbLine
 62
7
  6
CONTINUOUS
 10
14.8067703336
 20
23.7659383532
 11
14.75
 21
23.8
  0
LINE
  5
783
100
AcDbEntity
  8
0
100
AcDbLine
 62
7
  6
CONTINUOUS
 10
14.8067703336
 20
23.7659383532
 11
14.75
 21
23.8
  0
LINE
  5
784
100
AcDbEntity
  8
DRAFT
100
AcDbLine
 62
7
  6
CONTINUOUS
 10
14.3373194485
 20
22.2859700255
 11
14.25
 21
22.3441821702
  0
LINE
  5
785
100
AcDbEntity
  8
0
100
AcDbLine
 62
7
  6
CONTINUOUS
 10
14.3373194485
 20
22.2859700255
 11
14.25
 21
22.3441821702
  0
LINE
  5
786
100
AcDbEntity
  8
RACCORDO
100
AcDbLine
 62
7
  6
CONTINUOUS
 10
14.75
 20
22.3441821702
 11
14.8075937104
 21
22.3057869048
  0
LINE
  5
787
100
AcDbEntity
  8
0
100
AcDbLine
 62
7
  6
CONTINUOUS
 10
14.75
 20
22.3441821702
 11
14.8075937104
 21
22.3057869048
  0
LINE
  5
788
100
AcDbEntity
  8
DRAFT
100
AcDbLine
 62
7
  6
CONTINUOUS
 10
14.25
 20
21.7
 11
14.3262444645
 21
21.6237555355
  0
LINE
  5
789
100
AcDbEntity
  8
0
100
AcDbLine
 62
7
  6
CONTINUOUS
 10
14.25
 20
21.7
 11
14.3262444645
 21
21.6237555355
  0
LINE
  5
78A
100
AcDbEntity
  8
SMUSSO
100
AcDbLine
 62
7
  6
CONTINUOUS
 10
20.85
 20
-20.1990396502
 11
20.1498936624
 21
-20.9
  0
LINE
  5
78B
100
AcDbEntity
  8
0
100
AcDbLine
 62
7
  6
CONTINUOUS
 10
20.85
 20
-20.1990396502
 11
20.1498936624
 21
-20.9
  0
LINE
  5
78C
100
AcDbEntity
  8
DRAFT
100
AcDbLine
 62
7
  6
CONTINUOUS
 10
18.5558178298
 20
-22.3441821702
 11
19.5
 21
-21.4
  0
LINE
  5
78D
100
AcDbEntity
  8
0
100
AcDbLine
 62
7
  6
CONTINUOUS
 10
18.5558178298
 20
-22.3441821702
 11
19.5
 21
-21.4
  0
LINE
  5
78E
100
AcDbEntity
  8
DRAFT
100
AcDbLine
 62
7
  6
CONTINUOUS
 10
21.4
 20
-19.5
 11
22.3412731322
 21
-18.5587268678
  0
LINE
  5
78F
100
AcDbEntity
  8
0
100
AcDbLine
 62
7
  6
CONTINUOUS
 10
21.4
 20
-19.5
 11
22.3412731322
 21
-18.5587268678
  0
LINE
  5
790
100
AcDbEntity
  8
DRAFT
100
AcDbLine
 62
7
  6
CONTINUOUS
 10
18.5558178298
 20
22.3441821702
 11
19.5
 21
21.4
  0
LINE
  5
791
100
AcDbEntity
  8
0
100
AcDbLine
 62
7
  6
CONTINUOUS
 10
18.5558178298
 20
22.3441821702
 11
19.5
 21
21.4
  0
LINE
  5
792
100
AcDbEntity
  8
DRAFT
100
AcDbLine
 62
7
  6
CONTINUOUS
 10
22.3412731322
 20
18.5587268678
 11
21.4
 21
19.5
  0
LINE
  5
793
100
AcDbEntity
  8
0
100
AcDbLine
 62
7
  6
CONTINUOUS
 10
22.3412731322
 20
18.5587268678
 11
21.4
 21
19.5
  0
LINE
  5
794
100
AcDbEntity
  8
SMUSSO
100
AcDbLine
 62
7
  6
CONTINUOUS
 10
20.85
 20
20.1990396502
 11
20.1498936624
 21
20.9
  0
LINE
  5
795
100
AcDbEntity
  8
0
100
AcDbLine
 62
7
  6
CONTINUOUS
 10
20.85
 20
20.1990396502
 11
20.1498936624
 21
20.9
  0
CIRCLE
  5
796
100
AcDbEntity
  8
ASSI
100
AcDbCircle
 62
7
  6
CONTINUOUS
 10
-10.4
 20
-10.0
 40
0.8660254038
  0
ARC
  5
797
100
AcDbEntity
  8
ASSI
100
AcDbCircle
 62
7
  6
CONTINUOUS
 10
-7.25
 20
-23.15
 40
0.5
100
AcDbArc
 50
317.04856697
 51
42.95143303
  0
ARC
  5
798
100
AcDbEntity
  8
ASSI
100
AcDbCircle
 62
7
  6
CONTINUOUS
 10
-15.25
 20
-23.15
 40
0.5
100
AcDbArc
 50
137.04856697
 51
222.95143303
  0
ARC
  5
799
100
AcDbEntity
  8
0
100
AcDbCircle
 62
7
  6
CONTINUOUS
 10
-15.25
 20
-23.15
 40
0.5
100
AcDbArc
 50
137.04856697
 51
222.95143303
  0
ARC
  5
79A
100
AcDbEntity
  8
0
100
AcDbCircle
 62
7
  6
CONTINUOUS
 10
-7.25
 20
-23.15
 40
0.5
100
AcDbArc
 50
317.04856697
 51
42.95143303
  0
ARC
  5
79B
100
AcDbEntity
  8
RACCORDO
100
AcDbCircle
 62
7
  6
CONTINUOUS
 10
-21.85003796
 20
-21.8500492892
 40
0.4999540432
100
AcDbArc
 50
179.9681249369
 51
269.9607325142
  0
ARC
  5
79C
100
AcDbEntity
  8
0
100
AcDbCircle
 62
7
  6
CONTINUOUS
 10
-21.85003796
 20
-21.8500492892
 40
0.4999540432
100
AcDbArc
 50
179.9681249369
 51
269.9607325142
  0
CIRCLE
  5
79D
100
AcDbEntity
  8
ASSI
100
AcDbCircle
 62
7
  6
CONTINUOUS
 10
-10.4
 20
0.0
 40
0.8660254038
  0
CIRCLE
  5
79E
100
AcDbEntity
  8
ASSI
100
AcDbCircle
 62
7
  6
CONTINUOUS
 10
-10.4
 20
10.0
 40
0.8660254038
  0
ARC
  5
79F
100
AcDbEntity
  8
ASSI
100
AcDbCircle
 62
7
  6
CONTINUOUS
 10
-7.25
 20
23.15
 40
0.5
100
AcDbArc
 50
317.04856697
 51
42.95143303
  0
ARC
  5
7A0
100
AcDbEntity
  8
ASSI
100
AcDbCircle
 62
7
  6
CONTINUOUS
 10
-15.25
 20
23.15
 40
0.5
100
AcDbArc
 50
137.04856697
 51
222.95143303
  0
ARC
  5
7A1
100
AcDbEntity
  8
0
100
AcDbCircle
 62
7
  6
CONTINUOUS
 10
-15.25
 20
23.15
 40
0.5
100
AcDbArc
 50
137.04856697
 51
222.95143303
  0
ARC
  5
7A2
100
AcDbEntity
  8
0
100
AcDbCircle
 62
7
  6
CONTINUOUS
 10
-7.25
 20
23.15
 40
0.5
100
AcDbArc
 50
317.04856697
 51
42.95143303
  0
ARC
  5
7A3
100
AcDbEntity
  8
RACCORDO
100
AcDbCircle
 62
7
  6
CONTINUOUS
 10
-21.8500392229
 20
21.8500505725
 40
0.4999524068
100
AcDbArc
 50
90.0391228519
 51
180.0320222078
  0
ARC
  5
7A4
100
AcDbEntity
  8
0
100
AcDbCircle
 62
7
  6
CONTINUOUS
 10
-21.8500392229
 20
21.8500505725
 40
0.4999524068
100
AcDbArc
 50
90.0391228519
 51
180.0320222078
  0
ARC
  5
7A5
100
AcDbEntity
  8
ASSI
100
AcDbCircle
 62
7
  6
CONTINUOUS
 10
16.935112
 20
-16.95196
 40
2.5499986575
100
AcDbArc
 50
87.752529198
 51
272.247470802
  0
ARC
  5
7A6
100
AcDbEntity
  8
ASSI
100
AcDbCircle
 62
7
  6
CONTINUOUS
 10
12.550002
 20
-16.95196
 40
2.5499985007
100
AcDbArc
 50
87.7525290597
 51
272.2474709403
  0
ARC
  5
7A7
100
AcDbEntity
  8
ASSI
100
AcDbCircle
 62
7
  6
CONTINUOUS
 10
7.0
 20
-16.5
 40
2.0240299518
100
AcDbArc
 50
292.0885283167
 51
273.4299000434
  0
ARC
  5
7A8
100
AcDbEntity
  8
ASSI
100
AcDbCircle
 62
7
  6
CONTINUOUS
 10
6.938781
 20
-20.315557
 40
1.8043863978
100
AcDbArc
 50
47.231266101
 51
84.2010647067
  0
ARC
  5
7A9
100
AcDbEntity
  8
ASSI
100
AcDbCircle
 62
7
  6
CONTINUOUS
 10
16.935112
 20
-16.95196
 40
1.7999999246
100
AcDbArc
 50
86.8152613297
 51
167.9753003079
  0
ARC
  5
7AA
100
AcDbEntity
  8
ASSI
100
AcDbCircle
 62
7
  6
CONTINUOUS
 10
12.550002
 20
-16.95196
 40
1.7999999246
100
AcDbArc
 50
86.8152613297
 51
273.1847386703
  0
ARC
  5
7AB
100
AcDbEntity
  8
ASSI
100
AcDbCircle
 62
7
  6
CONTINUOUS
 10
16.935112
 20
-16.95196
 40
1.7999968808
100
AcDbArc
 50
192.0247203293
 51
273.1847440612
  0
ARC
  5
7AC
100
AcDbEntity
  8
ASSI
100
AcDbCircle
 62
7
  6
CONTINUOUS
 10
7.080786
 20
-20.023287
 40
1.7827319001
100
AcDbArc
 50
45.4349102329
 51
67.565881117
  0
CIRCLE
  5
7AD
100
AcDbEntity
  8
ASSI
100
AcDbCircle
 62
7
  6
CONTINUOUS
 10
7.0
 20
-16.5
 40
1.700044
  0
ARC
  5
7AE
100
AcDbEntity
  8
ASSI
100
AcDbCircle
 62
7
  6
CONTINUOUS
 10
7.0
 20
-16.5
 40
1.5204522959
100
AcDbArc
 50
134.9002633258
 51
240.6958764731
  0
ARC
  5
7AF
100
AcDbEntity
  8
ASSI
100
AcDbCircle
 62
7
  6
CONTINUOUS
 10
7.0
 20
-16.5
 40
1.5204520975
100
AcDbArc
 50
299.3041235269
 51
44.9957610488
  0
ARC
  5
7B0
100
AcDbEntity
  8
ASSI
100
AcDbCircle
 62
7
  6
CONTINUOUS
 10
7.0
 20
-16.5
 40
1.2181566122
100
AcDbArc
 50
299.3041277351
 51
31.9732965665
  0
ARC
  5
7B1
100
AcDbEntity
  8
ASSI
100
AcDbCircle
 62
7
  6
CONTINUOUS
 10
7.0
 20
-16.5
 40
1.2181564327
100
AcDbArc
 50
148.0267046423
 51
240.6958722649
  0
CIRCLE
  5
7B2
100
AcDbEntity
  8
ASSI
100
AcDbCircle
 62
7
  6
CONTINUOUS
 10
0.0
 20
-10.0
 40
0.8660254038
  0
CIRCLE
  5
7B3
100
AcDbEntity
  8
ASSI
100
AcDbCircle
 62
7
  6
CONTINUOUS
 10
10.4
 20
-10.0
 40
0.8660254038
  0
ARC
  5
7B4
100
AcDbEntity
  8
ASSI
100
AcDbCircle
 62
7
  6
CONTINUOUS
 10
15.25
 20
-23.15
 40
0.5
100
AcDbArc
 50
317.04856697
 51
42.95143303
  0
ARC
  5
7B5
100
AcDbEntity
  8
ASSI
100
AcDbCircle
 62
7
  6
CONTINUOUS
 10
7.25
 20
-23.15
 40
0.5
100
AcDbArc
 50
137.04856697
 51
222.95143303
  0
ARC
  5
7B6
100
AcDbEntity
  8
0
100
AcDbCircle
 62
7
  6
CONTINUOUS
 10
7.25
 20
-23.15
 40
0.5
100
AcDbArc
 50
137.04856697
 51
222.95143303
  0
ARC
  5
7B7
100
AcDbEntity
  8
0
100
AcDbCircle
 62
7
  6
CONTINUOUS
 10
15.25
 20
-23.15
 40
0.5
100
AcDbArc
 50
317.04856697
 51
42.95143303
  0
ARC
  5
7B8
100
AcDbEntity
  8
RACCORDO
100
AcDbCircle
 62
7
  6
CONTINUOUS
 10
21.8500379269
 20
-21.8500492562
 40
0.4999540432
100
AcDbArc
 50
270.0392712812
 51
0.0318712707
  0
ARC
  5
7B9
100
AcDbEntity
  8
0
100
AcDbCircle
 62
7
  6
CONTINUOUS
 10
21.8500379269
 20
-21.8500492562
 40
0.4999540432
100
AcDbArc
 50
270.0392712812
 51
0.0318712707
  0
CIRCLE
  5
7BA
100
AcDbEntity
  8
ASSI
100
AcDbCircle
 62
7
  6
CONTINUOUS
 10
0.0
 20
0.0
 40
0.8660254038
  0
CIRCLE
  5
7BB
100
AcDbEntity
  8
ASSI
100
AcDbCircle
 62
7
  6
CONTINUOUS
 10
10.4
 20
0.0
 40
0.8660254038
  0
CIRCLE
  5
7BC
100
AcDbEntity
  8
ASSI
100
AcDbCircle
 62
7
  6
CONTINUOUS
 10
0.0
 20
10.0
 40
0.8660254038
  0
CIRCLE
  5
7BD
100
AcDbEntity
  8
ASSI
100
AcDbCircle
 62
7
  6
CONTINUOUS
 10
10.4
 20
10.0
 40
0.8660254038
  0
ARC
  5
7BE
100
AcDbEntity
  8
ASSI
100
AcDbCircle
 62
7
  6
CONTINUOUS
 10
15.25
 20
23.15
 40
0.5
100
AcDbArc
 50
317.04856697
 51
42.95143303
  0
ARC
  5
7BF
100
AcDbEntity
  8
ASSI
100
AcDbCircle
 62
7
  6
CONTINUOUS
 10
7.25
 20
23.15
 40
0.5
100
AcDbArc
 50
137.04856697
 51
222.95143303
  0
ARC
  5
7C0
100
AcDbEntity
  8
0
100
AcDbCircle
 62
7
  6
CONTINUOUS
 10
7.25
 20
23.15
 40
0.5
100
AcDbArc
 50
137.04856697
 51
222.95143303
  0
ARC
  5
7C1
100
AcDbEntity
  8
0
100
AcDbCircle
 62
7
  6
CONTINUOUS
 10
15.25
 20
23.15
 40
0.5
100
AcDbArc
 50
317.04856697
 51
42.95143303
  0
ARC
  5
7C2
100
AcDbEntity
  8
RACCORDO
100
AcDbCircle
 62
7
  6
CONTINUOUS
 10
21.850037962
 20
21.850049221
 40
0.4999540432
100
AcDbArc
 50
359.9681327532
 51
89.9607327441
  0
ARC
  5
7C3
100
AcDbEntity
  8
0
100
AcDbCircle
 62
7
  6
CONTINUOUS
 10
21.850037962
 20
21.850049221
 40
0.4999540432
100
AcDbArc
 50
359.9681327532
 51
89.9607327441
  0
LINE
  5
7C4
100
AcDbEntity
  8
SMUSSO
100
AcDbLine
 62
7
  6
CONTINUOUS
 10
-20.7276785679
 20
-19.8317769306
 11
-20.0293058381
 21
-20.5379423332
  0
LINE
  5
7C5
100
AcDbEntity
  8
SMUSSO
100
AcDbLine
 62
7
  6
CONTINUOUS
 10
20.7276785679
 20
-19.8317769306
 11
20.0293058381
 21
-20.5379423332
  0
LINE
  5
7C6
100
AcDbEntity
  8
SMUSSO
100
AcDbLine
 62
7
  6
CONTINUOUS
 10
20.7276785679
 20
19.8317769306
 11
20.0293058381
 21
20.5379423332
  0
SPLINE
  5
7C7
100
AcDbEntity
  8
ASSI
100
AcDbSpline
 62
7
  6
CONTINUOUS
 70
0
 71
3
 72
20
 73
16
 74
14
 42
0.0000001
 43
0.0000001
 44
0.0000000001
 12
-0.0273309181
 22
-0.6365193453
 32
0.0
 13
-0.4258925635
 23
-0.4738347605
 33
0.0
 40
0.0
 40
0.0
 40
0.0
 40
0.0
 40
0.0159872484
 40
0.0395353773
 40
0.0717217246
 40
0.1137514476
 40
0.1665212875
 40
0.2308718837
 40
0.3073208095
 40
0.3963993416
 40
0.4984579746
 40
0.6131144546
 40
0.7377879217
 40
0.8681762794
 40
1.0
 40
1.0
 40
1.0
 40
1.0
 10
7.6924062896
 20
23.755948138
 30
0.0
 10
7.6922606409
 20
23.7525560737
 30
0.0
 10
7.6897883306
 20
23.744355054
 30
0.0
 10
7.68298245
 20
23.7307527793
 30
0.0
 10
7.6719733766
 20
23.7131017683
 30
0.0
 10
7.6564341864
 20
23.6910620202
 30
0.0
 10
7.6359527346
 20
23.6641654387
 30
0.0
 10
7.6102306176
 20
23.632097012
 30
0.0
 10
7.579008701
 20
23.5945644085
 30
0.0
 10
7.5421045125
 20
23.5513499719
 30
0.0
 10
7.49946648
 20
23.5023660579
 30
0.0
 10
7.4514927078
 20
23.4480074951
 30
0.0
 10
7.3992599117
 20
23.3893848428
 30
0.0
 10
7.3444212719
 20
23.328201642
 30
0.0
 10
7.3071964551
 20
23.2867866556
 30
0.0
 10
7.2884822077
 20
23.2659657686
 30
0.0
 11
7.6924062896
 21
23.755948138
 31
0.0
 11
7.6900519477
 21
23.7460384005
 31
0.0
 11
7.6836258995
 21
23.7324816521
 31
0.0
 11
7.6729455731
 21
23.7149764764
 31
0.0
 11
7.657630621
 21
23.6930110391
 31
0.0
 11
7.6373434573
 21
23.6662018318
 31
0.0
 11
7.6117519249
 21
23.6341718299
 31
0.0
 11
7.5806500518
 21
23.5966891203
 31
0.0
 11
7.543831613
 21
23.5535006551
 31
0.0
 11
7.5011705918
 21
23.5044301196
 31
0.0
 11
7.4528590502
 21
23.4496391438
 31
0.0
 11
7.4000388641
 21
23.3903164354
 31
0.0
 11
7.3446104157
 21
23.3284414903
 31
0.0
 11
7.2884822077
 21
23.2659657686
 31
0.0
  0
LINE
  5
7C8
100
AcDbEntity
  8
SMUSSO
100
AcDbLine
 62
7
  6
CONTINUOUS
 10
-20.7276785679
 20
19.8317769306
 11
-20.0293058381
 21
20.5379423332
  0
SPLINE
  5
7C9
100
AcDbEntity
  8
ASSI
100
AcDbSpline
 62
7
  6
CONTINUOUS
 70
0
 71
3
 72
20
 73
16
 74
14
 42
0.0000001
 43
0.0000001
 44
0.0000000001
 12
-0.4260808566
 22
0.4740442496
 32
0.0
 13
-0.0166604566
 23
0.6371697389
 33
0.0
 40
0.0
 40
0.0
 40
0.0
 40
0.0
 40
0.1322409039
 40
0.2628730871
 40
0.3876885393
 40
0.502485347
 40
0.6046497038
 40
0.6937562087
 40
0.7701488815
 40
0.8343750395
 40
0.8869820922
 40
0.9288315508
 40
0.9608390866
 40
0.9841980846
 40
1.0
 40
1.0
 40
1.0
 40
1.0
 10
7.2884822077
 20
23.2659657686
 30
0.0
 10
7.2697004352
 20
23.2868617819
 30
0.0
 10
7.2323652778
 20
23.328399526
 30
0.0
 10
7.1773890957
 20
23.3897373344
 30
0.0
 10
7.1250603551
 20
23.448470717
 30
0.0
 10
7.0770136428
 20
23.5029176218
 30
0.0
 10
7.0343231995
 20
23.5519711841
 30
0.0
 10
6.9973990741
 20
23.5952232796
 30
0.0
 10
6.9661941008
 20
23.6327559236
 30
0.0
 10
6.9405198516
 20
23.6647924403
 30
0.0
 10
6.9201075259
 20
23.6916360085
 30
0.0
 10
6.9046495646
 20
23.7136113771
 30
0.0
 10
6.8937304347
 20
23.7311943894
 30
0.0
 10
6.8870236047
 20
23.7447193828
 30
0.0
 10
6.8846360378
 20
23.7528764279
 30
0.0
 10
6.8845482821
 20
23.7562325953
 30
0.0
 11
7.2884822077
 21
23.2659657686
 31
0.0
 11
7.2321515832
 21
23.328667012
 31
0.0
 11
7.1765956094
 21
23.3906856763
 31
0.0
 11
7.1236935404
 21
23.4501036717
 31
0.0
 11
7.0753045281
 21
23.5049886426
 31
0.0
 11
7.0325854106
 21
23.554136055
 31
0.0
 11
6.9957466136
 21
23.5973635639
 31
0.0
 11
6.9646644727
 21
23.6348440345
 31
0.0
 11
6.9391255449
 21
23.6668377394
 31
0.0
 11
6.9189113449
 21
23.6935906712
 31
0.0
 11
6.9036816532
 21
23.7154898942
 31
0.0
 11
6.8930935814
 21
23.7329284106
 31
0.0
 11
6.8867750066
 21
23.7464098795
 31
0.0
 11
6.8845482821
 21
23.7562325953
 31
0.0
  0
SPLINE
  5
7CA
100
AcDbEntity
  8
ASSI
100
AcDbSpline
 62
7
  6
CONTINUOUS
 70
0
 71
3
 72
20
 73
16
 74
14
 42
0.0000001
 43
0.0000001
 44
0.0000000001
 12
-0.0166604572
 22
-0.6371697617
 32
0.0
 13
-0.4260808719
 23
-0.4740442666
 33
0.0
 40
0.0
 40
0.0
 40
0.0
 40
0.0
 40
0.0157966061
 40
0.0391513397
 40
0.0711523361
 40
0.1130071515
 40
0.1656255935
 40
0.2298658313
 40
0.3062635936
 40
0.3953610635
 40
0.4975091774
 40
0.6123111915
 40
0.7371681441
 40
0.8678171632
 40
1.0
 40
1.0
 40
1.0
 40
1.0
 10
15.6154517179
 20
23.7562325953
 30
0.0
 10
15.6153639917
 20
23.7528775554
 30
0.0
 10
15.612977568
 20
23.7447224155
 30
0.0
 10
15.6062727631
 20
23.7312001639
 30
0.0
 10
15.5953547954
 20
23.7136178191
 30
0.0
 10
15.5798958487
 20
23.6916404705
 30
0.0
 10
15.5594796126
 20
23.6647916464
 30
0.0
 10
15.5338012015
 20
23.6327501396
 30
0.0
 10
15.5025947219
 20
23.5952159466
 30
0.0
 10
15.4656733054
 20
23.5519671759
 30
0.0
 10
15.4229856572
 20
23.5029168317
 30
0.0
 10
15.374934666
 20
23.4484650669
 30
0.0
 10
15.322596896
 20
23.3897216437
 30
0.0
 10
15.2676206208
 20
23.3283838379
 30
0.0
 10
15.2302913184
 20
23.2868526072
 30
0.0
 10
15.2115177923
 20
23.2659657686
 30
0.0
 11
15.6154517179
 21
23.7562325953
 31
0.0
 11
15.6132261667
 21
23.7464130831
 31
0.0
 11
15.6069093563
 21
23.7329337884
 31
0.0
 11
15.5963239914
 21
23.7154985041
 31
0.0
 11
15.5810927033
 21
23.6935962311
 31
0.0
 11
15.5608742191
 21
23.6668374363
 31
0.0
 11
15.535329614
 21
23.6348367786
 31
0.0
 11
15.5042452691
 21
23.5973539191
 31
0.0
 11
15.4674101193
 21
23.5541308655
 31
0.0
 11
15.4246977792
 21
23.5049912766
 31
0.0
 11
15.3763065793
 21
23.4501038068
 31
0.0
 11
15.3233868839
 21
23.3906660841
 31
0.0
 11
15.267823697
 21
23.3286394704
 31
0.0
 11
15.2115177923
 21
23.2659657686
 31
0.0
  0
SPLINE
  5
7CB
100
AcDbEntity
  8
ASSI
100
AcDbSpline
 62
7
  6
CONTINUOUS
 70
0
 71
3
 72
20
 73
16
 74
14
 42
0.0000001
 43
0.0000001
 44
0.0000000001
 12
-0.4258925497
 22
0.4738347451
 32
0.0
 13
-0.0273309172
 23
0.6365193246
 33
0.0
 40
0.0
 40
0.0
 40
0.0
 40
0.0
 40
0.1318826192
 40
0.2622539236
 40
0.3868859902
 40
0.5015377921
 40
0.603612993
 40
0.6927007188
 40
0.7691443518
 40
0.8334803957
 40
0.8862385626
 40
0.9282628168
 40
0.9604553999
 40
0.9840076025
 40
1.0
 40
1.0
 40
1.0
 40
1.0
 10
15.2115177923
 20
23.2659657686
 30
0.0
 10
15.192795184
 20
23.2867959577
 30
0.0
 10
15.1555644275
 20
23.3282175517
 30
0.0
 10
15.1007257799
 20
23.3894008687
 30
0.0
 10
15.0485019521
 20
23.4480135511
 30
0.0
 10
15.0005323255
 20
23.5023674105
 30
0.0
 10
14.9578913628
 20
23.5513547077
 30
0.0
 10
14.9209844353
 20
23.5945725196
 30
0.0
 10
14.8897641058
 20
23.6321034999
 30
0.0
 10
14.864046291
 20
23.6641667919
 30
0.0
 10
14.8435688781
 20
23.691057987
 30
0.0
 10
14.828030779
 20
23.7130956504
 30
0.0
 10
14.8170206419
 20
23.7307472336
 30
0.0
 10
14.8102128159
 20
23.7443521377
 30
0.0
 10
14.807739406
 20
23.7525549813
 30
0.0
 10
14.8075937104
 20
23.755948138
 30
0.0
 11
15.2115177923
 21
23.2659657686
 31
0.0
 11
15.1553645212
 21
23.3284694141
 31
0.0
 11
15.0999433756
 21
23.3903363108
 31
0.0
 11
15.0471407672
 21
23.4496393498
 31
0.0
 11
14.9988311923
 21
23.5044280831
 31
0.0
 11
14.9561632656
 21
23.5535065991
 31
0.0
 11
14.9193411232
 21
23.5966996015
 31
0.0
 11
14.8882415477
 21
23.6341798336
 31
0.0
 11
14.8626558942
 21
23.6662026638
 31
0.0
 11
14.8423731416
 21
23.6930058815
 31
0.0
 11
14.8270598525
 21
23.7149682297
 31
0.0
 11
14.8163769445
 21
23.7324764833
 31
0.0
 11
14.8099492097
 21
23.746035304
 31
0.0
 11
14.8075937104
 21
23.755948138
 31
0.0
  0
SPLINE
  5
7CC
100
AcDbEntity
  8
ASSI
100
AcDbSpline
 62
7
  6
CONTINUOUS
 70
0
 71
3
 72
20
 73
16
 74
14
 42
0.0000001
 43
0.0000001
 44
0.0000000001
 12
0.0166604588
 22
0.6371698225
 32
0.0
 13
0.4260809125
 23
0.4740443118
 33
0.0
 40
0.0
 40
0.0
 40
0.0
 40
0.0
 40
0.0157781165
 40
0.0391100726
 40
0.0711401266
 40
0.1130912899
 40
0.1658303468
 40
0.2301807718
 40
0.3066231278
 40
0.395769823
 40
0.4980103582
 40
0.6130115042
 40
0.7379985251
 40
0.8684772219
 40
1.0
 40
1.0
 40
1.0
 40
1.0
 10
6.8845482821
 20
-23.7562325953
 30
0.0
 10
6.8846359057
 20
-23.7528814821
 30
0.0
 10
6.8870178565
 20
-23.7447346195
 30
0.0
 10
6.8937193383
 20
-23.7312133779
 30
0.0
 10
6.9046481325
 20
-23.7136120044
 30
0.0
 10
6.9201383779
 20
-23.6915927237
 30
0.0
 10
6.9405991296
 20
-23.6646904019
 30
0.0
 10
6.9663169604
 20
-23.6326054993
 30
0.0
 10
6.9975536533
 20
-23.5950400596
 30
0.0
 10
7.0345028274
 20
-23.5517629539
 30
0.0
 10
7.0772397942
 20
-23.502659542
 30
0.0
 10
7.1253517496
 20
-23.4481420958
 30
0.0
 10
7.1777133732
 20
-23.3893747065
 30
0.0
 10
7.2325910595
 20
-23.328148335
 30
0.0
 10
7.2698024259
 20
-23.2867483102
 30
0.0
 10
7.2884822077
 20
-23.2659657686
 30
0.0
 11
6.8845482821
 21
-23.7562325953
 31
0.0
 11
6.8867697484
 21
-23.7464242403
 31
0.0
 11
6.8930779883
 21
-23.7329569612
 31
0.0
 11
6.9036717007
 21
-23.7155050754
 31
0.0
 11
6.9189388309
 21
-23.693552924
 31
0.0
 11
6.9392059325
 21
-23.6667345037
 31
0.0
 11
6.9647971799
 21
-23.6346812093
 31
0.0
 11
6.9959022718
 21
-23.5971786236
 31
0.0
 11
7.0327598986
 21
-23.5539334947
 31
0.0
 11
7.0755126958
 21
-23.5047510121
 31
0.0
 11
7.1239895184
 21
-23.4497698124
 31
0.0
 11
7.1769657675
 21
-23.39027143
 31
0.0
 11
7.2324573161
 21
-23.3283263816
 31
0.0
 11
7.2884822077
 21
-23.2659657686
 31
0.0
  0
SPLINE
  5
7CD
100
AcDbEntity
  8
ASSI
100
AcDbSpline
 62
7
  6
CONTINUOUS
 70
0
 71
3
 72
20
 73
16
 74
14
 42
0.0000001
 43
0.0000001
 44
0.0000000001
 12
0.4258925876
 22
-0.4738347873
 32
0.0
 13
0.0273309197
 23
-0.6365193811
 33
0.0
 40
0.0
 40
0.0
 40
0.0
 40
0.0
 40
0.1312225557
 40
0.2614220709
 40
0.3861825708
 40
0.5010332171
 40
0.603201725
 40
0.6923386883
 40
0.7688264237
 40
0.8332713088
 40
0.8861504123
 40
0.9282720388
 40
0.9604959628
 40
0.9840265574
 40
1.0
 40
1.0
 40
1.0
 40
1.0
 10
7.2884822077
 20
-23.2659657686
 30
0.0
 10
7.3071111123
 20
-23.2866917058
 30
0.0
 10
7.3442237757
 20
-23.3279819192
 30
0.0
 10
7.3989634331
 20
-23.3890533632
 30
0.0
 10
7.4512106212
 20
-23.4476894665
 30
0.0
 10
7.4992410409
 20
-23.502108811
 30
0.0
 10
7.5419313905
 20
-23.5511492451
 30
0.0
 10
7.578866122
 20
-23.5943954418
 30
0.0
 10
7.610116411
 20
-23.6319573493
 30
0.0
 10
7.6358734535
 20
-23.6640637431
 30
0.0
 10
7.6563954332
 20
-23.6910083541
 30
0.0
 10
7.6719653724
 20
-23.7130884801
 30
0.0
 10
7.6829869616
 20
-23.7307598115
 30
0.0
 10
7.6897918264
 20
-23.7443642376
 30
0.0
 10
7.6922607667
 20
-23.7525590027
 30
0.0
 10
7.6924062896
 20
-23.755948138
 30
0.0
 11
7.2884822077
 21
-23.2659657686
 31
0.0
 11
7.3443545863
 21
-23.3281564621
 31
0.0
 11
7.3997034969
 21
-23.3899411368
 31
0.0
 11
7.4525619386
 21
-23.4493040325
 31
0.0
 11
7.500956981
 21
-23.5041863127
 31
0.0
 11
7.5436657209
 21
-23.5533081251
 31
0.0
 11
7.580510337
 21
-23.5965231965
 31
0.0
 11
7.611630455
 21
-23.6340229
 31
0.0
 11
7.6372622313
 21
-23.666097642
 31
0.0
 11
7.6575937884
 21
-23.6929605553
 31
0.0
 11
7.6729434157
 21
-23.714973197
 31
0.0
 11
7.6836355581
 21
-23.7324992093
 31
0.0
 11
7.6900550502
 21
-23.7460467034
 31
0.0
 11
7.6924062896
 21
-23.755948138
 31
0.0
  0
SPLINE
  5
7CE
100
AcDbEntity
  8
ASSI
100
AcDbSpline
 62
7
  6
CONTINUOUS
 70
0
 71
3
 72
20
 73
16
 74
14
 42
0.0000001
 43
0.0000001
 44
0.0000000001
 12
-0.0273309181
 22
-0.6365193453
 32
0.0
 13
-0.4258925635
 23
-0.4738347605
 33
0.0
 40
0.0
 40
0.0
 40
0.0
 40
0.0
 40
0.0159872484
 40
0.0395353773
 40
0.0717217246
 40
0.1137514476
 40
0.1665212875
 40
0.2308718837
 40
0.3073208095
 40
0.3963993416
 40
0.4984579746
 40
0.6131144546
 40
0.7377879217
 40
0.8681762794
 40
1.0
 40
1.0
 40
1.0
 40
1.0
 10
-14.8075937104
 20
23.755948138
 30
0.0
 10
-14.8077393591
 20
23.7525560737
 30
0.0
 10
-14.8102116694
 20
23.744355054
 30
0.0
 10
-14.81701755
 20
23.7307527793
 30
0.0
 10
-14.8280266234
 20
23.7131017683
 30
0.0
 10
-14.8435658136
 20
23.6910620202
 30
0.0
 10
-14.8640472654
 20
23.6641654387
 30
0.0
 10
-14.8897693824
 20
23.632097012
 30
0.0
 10
-14.920991299
 20
23.5945644085
 30
0.0
 10
-14.9578954875
 20
23.5513499719
 30
0.0
 10
-15.00053352
 20
23.5023660579
 30
0.0
 10
-15.0485072922
 20
23.4480074951
 30
0.0
 10
-15.1007400883
 20
23.3893848428
 30
0.0
 10
-15.1555787281
 20
23.328201642
 30
0.0
 10
-15.1928035449
 20
23.2867866556
 30
0.0
 10
-15.2115177923
 20
23.2659657686
 30
0.0
 11
-14.8075937104
 21
23.755948138
 31
0.0
 11
-14.8099480523
 21
23.7460384005
 31
0.0
 11
-14.8163741005
 21
23.7324816521
 31
0.0
 11
-14.8270544269
 21
23.7149764764
 31
0.0
 11
-14.842369379
 21
23.6930110391
 31
0.0
 11
-14.8626565427
 21
23.6662018318
 31
0.0
 11
-14.8882480751
 21
23.6341718299
 31
0.0
 11
-14.9193499482
 21
23.5966891203
 31
0.0
 11
-14.956168387
 21
23.5535006551
 31
0.0
 11
-14.9988294082
 21
23.5044301196
 31
0.0
 11
-15.0471409499
 21
23.4496391438
 31
0.0
 11
-15.0999611359
 21
23.3903164354
 31
0.0
 11
-15.1553895843
 21
23.3284414903
 31
0.0
 11
-15.2115177923
 21
23.2659657686
 31
0.0
  0
SPLINE
  5
7CF
100
AcDbEntity
  8
ASSI
100
AcDbSpline
 62
7
  6
CONTINUOUS
 70
0
 71
3
 72
20
 73
16
 74
14
 42
0.0000001
 43
0.0000001
 44
0.0000000001
 12
0.0273309204
 22
0.6365193985
 32
0.0
 13
0.4258925992
 23
0.4738348002
 33
0.0
 40
0.0
 40
0.0
 40
0.0
 40
0.0
 40
0.0159689408
 40
0.039495951
 40
0.0717158176
 40
0.1138445699
 40
0.1667373501
 40
0.2311988604
 40
0.3076914735
 40
0.3968178397
 40
0.4989691974
 40
0.6138264744
 40
0.7386299247
 40
0.8688458992
 40
1.0
 40
1.0
 40
1.0
 40
1.0
 10
14.8075937104
 20
-23.755948138
 30
0.0
 10
14.8077391923
 20
-23.7525599578
 30
0.0
 10
14.8102071702
 20
-23.7443667921
 30
0.0
 10
14.8170104636
 20
-23.7307644042
 30
0.0
 10
14.8280315788
 20
-23.7130929233
 30
0.0
 10
14.8436034199
 20
-23.69100977
 30
0.0
 10
14.8641302709
 20
-23.6640588752
 30
0.0
 10
14.8898921863
 20
-23.6319468087
 30
0.0
 10
14.9211441603
 20
-23.5943832897
 30
0.0
 10
14.9580758619
 20
-23.5511408909
 30
0.0
 10
15.0007633024
 20
-23.5021038683
 30
0.0
 10
15.0487982991
 20
-23.4476793745
 30
0.0
 10
15.1010548833
 20
-23.3890328557
 30
0.0
 10
15.1557933228
 20
-23.3279628967
 30
0.0
 10
15.1928986053
 20
-23.2866808943
 30
0.0
 10
15.2115177923
 20
-23.2659657686
 30
0.0
 11
14.8075937104
 21
-23.755948138
 31
0.0
 11
14.8099439384
 21
-23.7460494109
 31
0.0
 11
14.8163619492
 21
-23.7325037413
 31
0.0
 11
14.8270523215
 21
-23.7149796767
 31
0.0
 11
14.8424043175
 21
-23.6929631511
 31
0.0
 11
14.8627411518
 21
-23.6660933029
 31
0.0
 11
14.8883797187
 21
-23.6340104275
 31
0.0
 11
14.9195020331
 21
-23.5965085067
 31
0.0
 11
14.956342409
 21
-23.5532986902
 31
0.0
 11
14.999044027
 21
-23.5041851623
 31
0.0
 11
15.04744188
 21
-23.4492997255
 31
0.0
 11
15.1003185735
 21
-23.3899164391
 31
0.0
 11
15.1556745441
 21
-23.3281240072
 31
0.0
 11
15.2115177923
 21
-23.2659657686
 31
0.0
  0
SPLINE
  5
7D0
100
AcDbEntity
  8
ASSI
100
AcDbSpline
 62
7
  6
CONTINUOUS
 70
0
 71
3
 72
20
 73
16
 74
14
 42
0.0000001
 43
0.0000001
 44
0.0000000001
 12
0.4260808996
 22
-0.4740442974
 32
0.0
 13
0.0166604583
 23
-0.6371698032
 33
0.0
 40
0.0
 40
0.0
 40
0.0
 40
0.0
 40
0.1315901813
 40
0.2620527276
 40
0.386996807
 40
0.5019908922
 40
0.6042482501
 40
0.6934053592
 40
0.7698429769
 40
0.8341772544
 40
0.8869029406
 40
0.9288470955
 40
0.9608815698
 40
0.9842172113
 40
1.0
 40
1.0
 40
1.0
 40
1.0
 10
15.2115177923
 20
-23.2659657686
 30
0.0
 10
15.2302071466
 20
-23.2867589602
 30
0.0
 10
15.2674257915
 20
-23.3281670822
 30
0.0
 10
15.3223045926
 20
-23.3893948225
 30
0.0
 10
15.3746568012
 20
-23.4481517726
 30
0.0
 10
15.4227640747
 20
-23.5026639455
 30
0.0
 10
15.4655038249
 20
-23.5517706156
 30
0.0
 10
15.5024559856
 20
-23.5950514549
 30
0.0
 10
15.5336910623
 20
-23.6326153442
 30
0.0
 10
15.5594041549
 20
-23.6646947127
 30
0.0
 10
15.5798601674
 20
-23.6915908866
 30
0.0
 10
15.5953486262
 20
-23.7136072598
 30
0.0
 10
15.6062779886
 20
-23.7312085748
 30
0.0
 10
15.6129811162
 20
-23.7447319644
 30
0.0
 10
15.6153640684
 20
-23.7528804899
 30
0.0
 10
15.6154517179
 20
-23.7562325953
 30
0.0
 11
15.2115177923
 21
-23.2659657686
 31
0.0
 11
15.2675713791
 21
-23.3283583519
 31
0.0
 11
15.3230559963
 21
-23.3902957855
 31
0.0
 11
15.3760139909
 21
-23.4497737707
 31
0.0
 11
15.4244878229
 21
-23.5047516043
 31
0.0
 11
15.4672476123
 21
-23.5539422136
 31
0.0
 11
15.5041094124
 21
-23.5971925049
 31
0.0
 11
15.5352123746
 21
-23.6346929312
 31
0.0
 11
15.5607970343
 21
-23.6667383134
 31
0.0
 11
15.5810589936
 21
-23.6935499365
 31
0.0
 11
15.5963238223
 21
-23.7154982463
 31
0.0
 11
15.6069194478
 21
-23.7329522659
 31
0.0
 11
15.6132292196
 21
-23.746421421
 31
0.0
 11
15.6154517179
 21
-23.7562325953
 31
0.0
  0
SPLINE
  5
7D1
100
AcDbEntity
  8
ASSI
100
AcDbSpline
 62
7
  6
CONTINUOUS
 70
0
 71
3
 72
20
 73
16
 74
14
 42
0.0000001
 43
0.0000001
 44
0.0000000001
 12
-0.4260808566
 22
0.4740442496
 32
0.0
 13
-0.0166604566
 23
0.6371697389
 33
0.0
 40
0.0
 40
0.0
 40
0.0
 40
0.0
 40
0.1322409039
 40
0.2628730871
 40
0.3876885393
 40
0.502485347
 40
0.6046497038
 40
0.6937562087
 40
0.7701488815
 40
0.8343750395
 40
0.8869820922
 40
0.9288315508
 40
0.9608390866
 40
0.9841980846
 40
1.0
 40
1.0
 40
1.0
 40
1.0
 10
-15.2115177923
 20
23.2659657686
 30
0.0
 10
-15.2302995648
 20
23.2868617819
 30
0.0
 10
-15.2676347222
 20
23.328399526
 30
0.0
 10
-15.3226109043
 20
23.3897373344
 30
0.0
 10
-15.3749396449
 20
23.4484707169
 30
0.0
 10
-15.4229863572
 20
23.5029176218
 30
0.0
 10
-15.4656768005
 20
23.5519711841
 30
0.0
 10
-15.5026009259
 20
23.5952232796
 30
0.0
 10
-15.5338058992
 20
23.6327559236
 30
0.0
 10
-15.5594801484
 20
23.6647924403
 30
0.0
 10
-15.5798924741
 20
23.6916360085
 30
0.0
 10
-15.5953504354
 20
23.7136113771
 30
0.0
 10
-15.6062695653
 20
23.7311943894
 30
0.0
 10
-15.6129763953
 20
23.7447193828
 30
0.0
 10
-15.6153639622
 20
23.7528764279
 30
0.0
 10
-15.6154517179
 20
23.7562325953
 30
0.0
 11
-15.2115177923
 21
23.2659657686
 31
0.0
 11
-15.2678484168
 21
23.328667012
 31
0.0
 11
-15.3234043906
 21
23.3906856763
 31
0.0
 11
-15.3763064596
 21
23.4501036717
 31
0.0
 11
-15.4246954719
 21
23.5049886426
 31
0.0
 11
-15.4674145894
 21
23.554136055
 31
0.0
 11
-15.5042533864
 21
23.5973635639
 31
0.0
 11
-15.5353355273
 21
23.6348440345
 31
0.0
 11
-15.5608744551
 21
23.6668377394
 31
0.0
 11
-15.5810886551
 21
23.6935906712
 31
0.0
 11
-15.5963183468
 21
23.7154898942
 31
0.0
 11
-15.6069064186
 21
23.7329284106
 31
0.0
 11
-15.6132249934
 21
23.7464098795
 31
0.0
 11
-15.6154517179
 21
23.7562325953
 31
0.0
  0
SPLINE
  5
7D2
100
AcDbEntity
  8
ASSI
100
AcDbSpline
 62
7
  6
CONTINUOUS
 70
0
 71
3
 72
20
 73
16
 74
14
 42
0.0000001
 43
0.0000001
 44
0.0000000001
 12
-0.0166604572
 22
-0.6371697617
 32
0.0
 13
-0.4260808719
 23
-0.4740442666
 33
0.0
 40
0.0
 40
0.0
 40
0.0
 40
0.0
 40
0.0157966061
 40
0.0391513397
 40
0.0711523361
 40
0.1130071515
 40
0.1656255935
 40
0.2298658313
 40
0.3062635936
 40
0.3953610635
 40
0.4975091774
 40
0.6123111915
 40
0.7371681441
 40
0.8678171631
 40
1.0
 40
1.0
 40
1.0
 40
1.0
 10
-6.8845482821
 20
23.7562325953
 30
0.0
 10
-6.8846360083
 20
23.7528775554
 30
0.0
 10
-6.887022432
 20
23.7447224155
 30
0.0
 10
-6.8937272369
 20
23.7312001639
 30
0.0
 10
-6.9046452046
 20
23.7136178191
 30
0.0
 10
-6.9201041513
 20
23.6916404705
 30
0.0
 10
-6.9405203874
 20
23.6647916464
 30
0.0
 10
-6.9661987984
 20
23.6327501396
 30
0.0
 10
-6.9974052781
 20
23.5952159466
 30
0.0
 10
-7.0343266946
 20
23.5519671759
 30
0.0
 10
-7.0770143428
 20
23.5029168317
 30
0.0
 10
-7.125065334
 20
23.4484650669
 30
0.0
 10
-7.177403104
 20
23.3897216437
 30
0.0
 10
-7.2323793792
 20
23.328383838
 30
0.0
 10
-7.2697086816
 20
23.2868526072
 30
0.0
 10
-7.2884822077
 20
23.2659657686
 30
0.0
 11
-6.8845482821
 21
23.7562325953
 31
0.0
 11
-6.8867738333
 21
23.7464130831
 31
0.0
 11
-6.8930906437
 21
23.7329337884
 31
0.0
 11
-6.9036760086
 21
23.7154985041
 31
0.0
 11
-6.9189072967
 21
23.6935962311
 31
0.0
 11
-6.9391257809
 21
23.6668374363
 31
0.0
 11
-6.964670386
 21
23.6348367786
 31
0.0
 11
-6.9957547309
 21
23.5973539191
 31
0.0
 11
-7.0325898807
 21
23.5541308655
 31
0.0
 11
-7.0753022208
 21
23.5049912766
 31
0.0
 11
-7.1236934206
 21
23.4501038068
 31
0.0
 11
-7.176613116
 21
23.3906660841
 31
0.0
 11
-7.232176303
 21
23.3286394704
 31
0.0
 11
-7.2884822077
 21
23.2659657686
 31
0.0
  0
SPLINE
  5
7D3
100
AcDbEntity
  8
ASSI
100
AcDbSpline
 62
7
  6
CONTINUOUS
 70
0
 71
3
 72
20
 73
16
 74
14
 42
0.0000001
 43
0.0000001
 44
0.0000000001
 12
-0.4258925497
 22
0.4738347451
 32
0.0
 13
-0.0273309172
 23
0.6365193246
 33
0.0
 40
0.0
 40
0.0
 40
0.0
 40
0.0
 40
0.1318826192
 40
0.2622539236
 40
0.3868859902
 40
0.5015377921
 40
0.603612993
 40
0.6927007189
 40
0.7691443518
 40
0.8334803957
 40
0.8862385626
 40
0.9282628168
 40
0.9604553999
 40
0.9840076025
 40
1.0
 40
1.0
 40
1.0
 40
1.0
 10
-7.2884822077
 20
23.2659657686
 30
0.0
 10
-7.307204816
 20
23.2867959577
 30
0.0
 10
-7.3444355725
 20
23.3282175517
 30
0.0
 10
-7.3992742201
 20
23.3894008687
 30
0.0
 10
-7.4514980479
 20
23.4480135511
 30
0.0
 10
-7.4994676745
 20
23.5023674105
 30
0.0
 10
-7.5421086372
 20
23.5513547077
 30
0.0
 10
-7.5790155647
 20
23.5945725196
 30
0.0
 10
-7.6102358942
 20
23.6321034999
 30
0.0
 10
-7.635953709
 20
23.6641667919
 30
0.0
 10
-7.6564311219
 20
23.691057987
 30
0.0
 10
-7.671969221
 20
23.7130956504
 30
0.0
 10
-7.6829793581
 20
23.7307472336
 30
0.0
 10
-7.6897871841
 20
23.7443521377
 30
0.0
 10
-7.692260594
 20
23.7525549813
 30
0.0
 10
-7.6924062896
 20
23.755948138
 30
0.0
 11
-7.2884822077
 21
23.2659657686
 31
0.0
 11
-7.3446354788
 21
23.3284694141
 31
0.0
 11
-7.4000566244
 21
23.3903363108
 31
0.0
 11
-7.4528592328
 21
23.4496393498
 31
0.0
 11
-7.5011688077
 21
23.5044280831
 31
0.0
 11
-7.5438367344
 21
23.5535065991
 31
0.0
 11
-7.5806588768
 21
23.5966996015
 31
0.0
 11
-7.6117584523
 21
23.6341798336
 31
0.0
 11
-7.6373441058
 21
23.6662026638
 31
0.0
 11
-7.6576268584
 21
23.6930058815
 31
0.0
 11
-7.6729401475
 21
23.7149682297
 31
0.0
 11
-7.6836230555
 21
23.7324764833
 31
0.0
 11
-7.6900507903
 21
23.746035304
 31
0.0
 11
-7.6924062896
 21
23.755948138
 31
0.0
  0
SPLINE
  5
7D4
100
AcDbEntity
  8
ASSI
100
AcDbSpline
 62
7
  6
CONTINUOUS
 70
0
 71
3
 72
20
 73
16
 74
14
 42
0.0000001
 43
0.0000001
 44
0.0000000001
 12
0.0273309204
 22
0.6365193985
 32
0.0
 13
0.4258925992
 23
0.4738348002
 33
0.0
 40
0.0
 40
0.0
 40
0.0
 40
0.0
 40
0.0159689408
 40
0.039495951
 40
0.0717158176
 40
0.1138445699
 40
0.1667373501
 40
0.2311988604
 40
0.3076914735
 40
0.3968178397
 40
0.4989691974
 40
0.6138264744
 40
0.7386299247
 40
0.8688458992
 40
1.0
 40
1.0
 40
1.0
 40
1.0
 10
-7.6924062896
 20
-23.755948138
 30
0.0
 10
-7.6922608077
 20
-23.7525599578
 30
0.0
 10
-7.6897928298
 20
-23.7443667921
 30
0.0
 10
-7.6829895364
 20
-23.7307644042
 30
0.0
 10
-7.6719684212
 20
-23.7130929233
 30
0.0
 10
-7.6563965801
 20
-23.69100977
 30
0.0
 10
-7.6358697291
 20
-23.6640588752
 30
0.0
 10
-7.6101078137
 20
-23.6319468087
 30
0.0
 10
-7.5788558397
 20
-23.5943832897
 30
0.0
 10
-7.5419241381
 20
-23.5511408909
 30
0.0
 10
-7.4992366976
 20
-23.5021038683
 30
0.0
 10
-7.4512017009
 20
-23.4476793745
 30
0.0
 10
-7.3989451167
 20
-23.3890328557
 30
0.0
 10
-7.3442066772
 20
-23.3279628967
 30
0.0
 10
-7.3071013947
 20
-23.2866808943
 30
0.0
 10
-7.2884822077
 20
-23.2659657686
 30
0.0
 11
-7.6924062896
 21
-23.755948138
 31
0.0
 11
-7.6900560616
 21
-23.7460494109
 31
0.0
 11
-7.6836380508
 21
-23.7325037413
 31
0.0
 11
-7.6729476785
 21
-23.7149796767
 31
0.0
 11
-7.6575956825
 21
-23.6929631511
 31
0.0
 11
-7.6372588482
 21
-23.6660933029
 31
0.0
 11
-7.6116202813
 21
-23.6340104275
 31
0.0
 11
-7.5804979669
 21
-23.5965085067
 31
0.0
 11
-7.543657591
 21
-23.5532986902
 31
0.0
 11
-7.500955973
 21
-23.5041851623
 31
0.0
 11
-7.45255812
 21
-23.4492997255
 31
0.0
 11
-7.3996814265
 21
-23.3899164391
 31
0.0
 11
-7.3443254559
 21
-23.3281240072
 31
0.0
 11
-7.2884822077
 21
-23.2659657686
 31
0.0
  0
SPLINE
  5
7D5
100
AcDbEntity
  8
ASSI
100
AcDbSpline
 62
7
  6
CONTINUOUS
 70
0
 71
3
 72
20
 73
16
 74
14
 42
0.0000001
 43
0.0000001
 44
0.0000000001
 12
0.4260808996
 22
-0.4740442974
 32
0.0
 13
0.0166604583
 23
-0.6371698032
 33
0.0
 40
0.0
 40
0.0
 40
0.0
 40
0.0
 40
0.1315901813
 40
0.2620527276
 40
0.386996807
 40
0.5019908922
 40
0.6042482501
 40
0.6934053592
 40
0.7698429769
 40
0.8341772544
 40
0.8869029406
 40
0.9288470955
 40
0.9608815698
 40
0.9842172113
 40
1.0
 40
1.0
 40
1.0
 40
1.0
 10
-7.2884822077
 20
-23.2659657686
 30
0.0
 10
-7.2697928534
 20
-23.2867589602
 30
0.0
 10
-7.2325742085
 20
-23.3281670822
 30
0.0
 10
-7.1776954074
 20
-23.3893948225
 30
0.0
 10
-7.1253431988
 20
-23.4481517726
 30
0.0
 10
-7.0772359253
 20
-23.5026639455
 30
0.0
 10
-7.0344961751
 20
-23.5517706156
 30
0.0
 10
-6.9975440144
 20
-23.5950514549
 30
0.0
 10
-6.9663089377
 20
-23.6326153442
 30
0.0
 10
-6.9405958451
 20
-23.6646947127
 30
0.0
 10
-6.9201398326
 20
-23.6915908866
 30
0.0
 10
-6.9046513738
 20
-23.7136072598
 30
0.0
 10
-6.8937220114
 20
-23.7312085748
 30
0.0
 10
-6.8870188838
 20
-23.7447319644
 30
0.0
 10
-6.8846359316
 20
-23.7528804899
 30
0.0
 10
-6.8845482821
 20
-23.7562325953
 30
0.0
 11
-7.2884822077
 21
-23.2659657686
 31
0.0
 11
-7.2324286209
 21
-23.3283583519
 31
0.0
 11
-7.1769440037
 21
-23.3902957855
 31
0.0
 11
-7.1239860091
 21
-23.4497737707
 31
0.0
 11
-7.0755121771
 21
-23.5047516043
 31
0.0
 11
-7.0327523877
 21
-23.5539422136
 31
0.0
 11
-6.9958905876
 21
-23.5971925049
 31
0.0
 11
-6.9647876254
 21
-23.6346929312
 31
0.0
 11
-6.9392029657
 21
-23.6667383134
 31
0.0
 11
-6.9189410064
 21
-23.6935499365
 31
0.0
 11
-6.9036761777
 21
-23.7154982463
 31
0.0
 11
-6.8930805522
 21
-23.7329522659
 31
0.0
 11
-6.8867707804
 21
-23.746421421
 31
0.0
 11
-6.8845482821
 21
-23.7562325953
 31
0.0
  0
SPLINE
  5
7D6
100
AcDbEntity
  8
SMUSSO
100
AcDbSpline
 62
7
  6
CONTINUOUS
 70
0
 71
3
 72
11
 73
7
 74
5
 42
0.0000001
 43
0.0000001
 44
0.0000000001
 12
-0.0174745221
 22
7.3317666764
 32
0.0
 13
-0.006732848
 23
7.3317844093
 33
0.0
 40
0.0
 40
0.0
 40
0.0
 40
0.0
 40
0.2492020661
 40
0.4990117301
 40
0.7493125057
 40
1.0
 40
1.0
 40
1.0
 40
1.0
 10
20.7276785679
 20
-19.8317769306
 30
0.0
 10
20.7262270055
 20
-19.2227464627
 30
0.0
 10
20.7235459785
 20
-18.0032000551
 30
0.0
 10
20.7201933142
 20
-16.1719363968
 30
0.0
 10
20.7175055437
 20
-14.3370413568
 30
0.0
 10
20.7161586137
 20
-13.1126622208
 30
0.0
 10
20.7155960001
 20
-12.5
 30
0.0
 11
20.7276785679
 21
-19.8317769306
 31
0.0
 11
20.7236610423
 21
-18.0046847543
 31
0.0
 11
20.7203071212
 21
-16.1731364527
 31
0.0
 11
20.7176183935
 21
-14.3379863247
 31
0.0
 11
20.7155960001
 21
-12.5
 31
0.0
  0
SPLINE
  5
7D7
100
AcDbEntity
  8
SMUSSO
100
AcDbSpline
 62
7
  6
CONTINUOUS
 70
0
 71
3
 72
11
 73
7
 74
5
 42
0.0000001
 43
0.0000001
 44
0.0000000001
 12
0.006732848
 22
7.3317844093
 32
0.0
 13
0.0174745221
 23
7.3317666764
 33
0.0
 40
0.0
 40
0.0
 40
0.0
 40
0.0
 40
0.2506874943
 40
0.5009882699
 40
0.7507979339
 40
1.0
 40
1.0
 40
1.0
 40
1.0
 10
20.7155960001
 20
12.5
 30
0.0
 10
20.7161586137
 20
13.1126622208
 30
0.0
 10
20.7175055437
 20
14.3370413568
 30
0.0
 10
20.7201933142
 20
16.1719363968
 30
0.0
 10
20.7235459785
 20
18.0032000551
 30
0.0
 10
20.7262270055
 20
19.2227464627
 30
0.0
 10
20.7276785679
 20
19.8317769306
 30
0.0
 11
20.7155960001
 21
12.5
 31
0.0
 11
20.7176183935
 21
14.3379863247
 31
0.0
 11
20.7203071212
 21
16.1731364527
 31
0.0
 11
20.7236610423
 21
18.0046847543
 31
0.0
 11
20.7276785679
 21
19.8317769306
 31
0.0
  0
SPLINE
  5
7D8
100
AcDbEntity
  8
SMUSSO
100
AcDbSpline
 62
7
  6
CONTINUOUS
 70
0
 71
3
 72
11
 73
7
 74
5
 42
0.0000001
 43
0.0000001
 44
0.0000000001
 12
-0.006732848
 22
7.3317844093
 32
0.0
 13
-0.0174745221
 23
7.3317666764
 33
0.0
 40
0.0
 40
0.0
 40
0.0
 40
0.0
 40
0.2506874943
 40
0.5009882699
 40
0.7507979339
 40
1.0
 40
1.0
 40
1.0
 40
1.0
 10
-20.7155960001
 20
12.5
 30
0.0
 10
-20.7161586137
 20
13.1126622208
 30
0.0
 10
-20.7175055437
 20
14.3370413568
 30
0.0
 10
-20.7201933142
 20
16.1719363968
 30
0.0
 10
-20.7235459785
 20
18.0032000551
 30
0.0
 10
-20.7262270055
 20
19.2227464627
 30
0.0
 10
-20.7276785679
 20
19.8317769306
 30
0.0
 11
-20.7155960001
 21
12.5
 31
0.0
 11
-20.7176183935
 21
14.3379863247
 31
0.0
 11
-20.7203071212
 21
16.1731364527
 31
0.0
 11
-20.7236610423
 21
18.0046847543
 31
0.0
 11
-20.7276785679
 21
19.8317769306
 31
0.0
  0
SPLINE
  5
7D9
100
AcDbEntity
  8
SMUSSO
100
AcDbSpline
 62
7
  6
CONTINUOUS
 70
0
 71
3
 72
11
 73
7
 74
5
 42
0.0000001
 43
0.0000001
 44
0.0000000001
 12
0.0174745221
 22
7.3317666764
 32
0.0
 13
0.006732848
 23
7.3317844093
 33
0.0
 40
0.0
 40
0.0
 40
0.0
 40
0.0
 40
0.2492020661
 40
0.4990117301
 40
0.7493125057
 40
1.0
 40
1.0
 40
1.0
 40
1.0
 10
-20.7276785679
 20
-19.8317769306
 30
0.0
 10
-20.7262270055
 20
-19.2227464627
 30
0.0
 10
-20.7235459785
 20
-18.0032000551
 30
0.0
 10
-20.7201933142
 20
-16.1719363968
 30
0.0
 10
-20.7175055437
 20
-14.3370413568
 30
0.0
 10
-20.7161586137
 20
-13.1126622208
 30
0.0
 10
-20.7155960001
 20
-12.5
 30
0.0
 11
-20.7276785679
 21
-19.8317769306
 31
0.0
 11
-20.7236610423
 21
-18.0046847543
 31
0.0
 11
-20.7203071212
 21
-16.1731364527
 31
0.0
 11
-20.7176183935
 21
-14.3379863247
 31
0.0
 11
-20.7155960001
 21
-12.5
 31
0.0
  0
SPLINE
  5
7DA
100
AcDbEntity
  8
ASSI
100
AcDbSpline
 62
7
  6
CONTINUOUS
 70
0
 71
3
 72
20
 73
16
 74
14
 42
0.0000001
 43
0.0000001
 44
0.0000000001
 12
0.0166604588
 22
0.6371698225
 32
0.0
 13
0.4260809125
 23
0.4740443118
 33
0.0
 40
0.0
 40
0.0
 40
0.0
 40
0.0
 40
0.0157781165
 40
0.0391100726
 40
0.0711401266
 40
0.1130912899
 40
0.1658303468
 40
0.2301807718
 40
0.3066231278
 40
0.3957698229
 40
0.4980103582
 40
0.6130115042
 40
0.737998525
 40
0.8684772219
 40
1.0
 40
1.0
 40
1.0
 40
1.0
 10
-15.6154517179
 20
-23.7562325953
 30
0.0
 10
-15.6153640943
 20
-23.7528814821
 30
0.0
 10
-15.6129821435
 20
-23.7447346195
 30
0.0
 10
-15.6062806617
 20
-23.7312133779
 30
0.0
 10
-15.5953518675
 20
-23.7136120044
 30
0.0
 10
-15.5798616221
 20
-23.6915927237
 30
0.0
 10
-15.5594008704
 20
-23.6646904019
 30
0.0
 10
-15.5336830396
 20
-23.6326054993
 30
0.0
 10
-15.5024463467
 20
-23.5950400596
 30
0.0
 10
-15.4654971726
 20
-23.5517629539
 30
0.0
 10
-15.4227602058
 20
-23.502659542
 30
0.0
 10
-15.3746482504
 20
-23.4481420958
 30
0.0
 10
-15.3222866268
 20
-23.3893747065
 30
0.0
 10
-15.2674089405
 20
-23.328148335
 30
0.0
 10
-15.2301975741
 20
-23.2867483102
 30
0.0
 10
-15.2115177923
 20
-23.2659657686
 30
0.0
 11
-15.6154517179
 21
-23.7562325953
 31
0.0
 11
-15.6132302516
 21
-23.7464242403
 31
0.0
 11
-15.6069220117
 21
-23.7329569612
 31
0.0
 11
-15.5963282993
 21
-23.7155050754
 31
0.0
 11
-15.5810611691
 21
-23.693552924
 31
0.0
 11
-15.5607940675
 21
-23.6667345037
 31
0.0
 11
-15.5352028201
 21
-23.6346812093
 31
0.0
 11
-15.5040977282
 21
-23.5971786236
 31
0.0
 11
-15.4672401014
 21
-23.5539334947
 31
0.0
 11
-15.4244873042
 21
-23.5047510121
 31
0.0
 11
-15.3760104816
 21
-23.4497698124
 31
0.0
 11
-15.3230342325
 21
-23.39027143
 31
0.0
 11
-15.2675426839
 21
-23.3283263816
 31
0.0
 11
-15.2115177923
 21
-23.2659657686
 31
0.0
  0
SPLINE
  5
7DB
100
AcDbEntity
  8
RACCORDO
100
AcDbSpline
 62
7
  6
CONTINUOUS
 70
0
 71
3
 72
11
 73
7
 74
5
 42
0.0000001
 43
0.0000001
 44
0.0000000001
 12
0.2749508858
 22
-0.3888392717
 32
0.0
 13
0.2622191459
 23
-0.3975362729
 33
0.0
 40
0.0
 40
0.0
 40
0.0
 40
0.0
 40
0.2543981344
 40
0.507132827
 40
0.756345386
 40
1.0
 40
1.0
 40
1.0
 40
1.0
 10
-3.6833543458
 20
-21.2859869487
 30
0.0
 10
-3.6600386816
 20
-21.3189602771
 30
0.0
 10
-3.6135595411
 20
-21.3846911358
 30
0.0
 10
-3.5445818579
 20
-21.4829648185
 30
0.0
 10
-3.4772988815
 20
-21.5803413031
 30
0.0
 10
-3.4336033229
 20
-21.6452463485
 30
0.0
 10
-3.4123063547
 20
-21.6775335309
 30
0.0
 11
-3.6833543458
 21
-21.2859869487
 31
0.0
 11
-3.613464789
 21
-21.3849475221
 31
0.0
 11
-3.5443826602
 21
-21.4835075774
 31
0.0
 11
-3.4769969315
 21
-21.5812042191
 31
0.0
 11
-3.4123063547
 21
-21.6775335309
 31
0.0
  0
SPLINE
  5
7DC
100
AcDbEntity
  8
ASSI
100
AcDbSpline
 62
7
  6
CONTINUOUS
 70
0
 71
3
 72
20
 73
16
 74
14
 42
0.0000001
 43
0.0000001
 44
0.0000000001
 12
0.4258925876
 22
-0.4738347873
 32
0.0
 13
0.0273309197
 23
-0.6365193811
 33
0.0
 40
0.0
 40
0.0
 40
0.0
 40
0.0
 40
0.1312225557
 40
0.2614220709
 40
0.3861825708
 40
0.5010332171
 40
0.603201725
 40
0.6923386883
 40
0.7688264237
 40
0.8332713088
 40
0.8861504123
 40
0.9282720388
 40
0.9604959628
 40
0.9840265574
 40
1.0
 40
1.0
 40
1.0
 40
1.0
 10
-15.2115177923
 20
-23.2659657686
 30
0.0
 10
-15.1928888877
 20
-23.2866917058
 30
0.0
 10
-15.1557762243
 20
-23.3279819192
 30
0.0
 10
-15.1010365669
 20
-23.3890533632
 30
0.0
 10
-15.0487893788
 20
-23.4476894665
 30
0.0
 10
-15.0007589591
 20
-23.502108811
 30
0.0
 10
-14.9580686095
 20
-23.5511492451
 30
0.0
 10
-14.921133878
 20
-23.5943954418
 30
0.0
 10
-14.8898835889
 20
-23.6319573493
 30
0.0
 10
-14.8641265465
 20
-23.6640637431
 30
0.0
 10
-14.8436045668
 20
-23.6910083541
 30
0.0
 10
-14.8280346276
 20
-23.7130884801
 30
0.0
 10
-14.8170130384
 20
-23.7307598115
 30
0.0
 10
-14.8102081736
 20
-23.7443642376
 30
0.0
 10
-14.8077392333
 20
-23.7525590027
 30
0.0
 10
-14.8075937104
 20
-23.755948138
 30
0.0
 11
-15.2115177923
 21
-23.2659657686
 31
0.0
 11
-15.1556454137
 21
-23.3281564621
 31
0.0
 11
-15.1002965031
 21
-23.3899411368
 31
0.0
 11
-15.0474380614
 21
-23.4493040325
 31
0.0
 11
-14.999043019
 21
-23.5041863127
 31
0.0
 11
-14.9563342791
 21
-23.5533081251
 31
0.0
 11
-14.919489663
 21
-23.5965231965
 31
0.0
 11
-14.888369545
 21
-23.6340229
 31
0.0
 11
-14.8627377687
 21
-23.666097642
 31
0.0
 11
-14.8424062116
 21
-23.6929605553
 31
0.0
 11
-14.8270565843
 21
-23.714973197
 31
0.0
 11
-14.8163644419
 21
-23.7324992093
 31
0.0
 11
-14.8099449498
 21
-23.7460467034
 31
0.0
 11
-14.8075937104
 21
-23.755948138
 31
0.0
  0
SPLINE
  5
7DD
100
AcDbEntity
  8
RACCORDO
100
AcDbSpline
 62
7
  6
CONTINUOUS
 70
0
 71
3
 72
11
 73
7
 74
5
 42
0.0000001
 43
0.0000001
 44
0.0000000001
 12
0.2622191459
 22
0.3975362729
 32
0.0
 13
0.2749508858
 23
0.3888392717
 33
0.0
 40
0.0
 40
0.0
 40
0.0
 40
0.0
 40
0.243654614
 40
0.492867173
 40
0.7456018656
 40
1.0
 40
1.0
 40
1.0
 40
1.0
 10
-19.0876936453
 20
-21.6775335309
 30
0.0
 10
-19.0663966771
 20
-21.6452463485
 30
0.0
 10
-19.0227011185
 20
-21.5803413031
 30
0.0
 10
-18.9554181421
 20
-21.4829648185
 30
0.0
 10
-18.8864404589
 20
-21.3846911358
 30
0.0
 10
-18.8399613184
 20
-21.3189602771
 30
0.0
 10
-18.8166456542
 20
-21.2859869487
 30
0.0
 11
-19.0876936453
 21
-21.6775335309
 31
0.0
 11
-19.0230030685
 21
-21.5812042191
 31
0.0
 11
-18.9556173398
 21
-21.4835075774
 31
0.0
 11
-18.886535211
 21
-21.3849475221
 31
0.0
 11
-18.8166456542
 21
-21.2859869487
 31
0.0
  0
SPLINE
  5
7DE
100
AcDbEntity
  8
RACCORDO
100
AcDbSpline
 62
7
  6
CONTINUOUS
 70
0
 71
3
 72
11
 73
7
 74
5
 42
0.0000001
 43
0.0000001
 44
0.0000000001
 12
-0.2749508858
 22
0.3888392717
 32
0.0
 13
-0.2622191459
 23
0.3975362729
 33
0.0
 40
0.0
 40
0.0
 40
0.0
 40
0.0
 40
0.2543981344
 40
0.507132827
 40
0.756345386
 40
1.0
 40
1.0
 40
1.0
 40
1.0
 10
-18.8166456542
 20
21.2859869487
 30
0.0
 10
-18.8399613184
 20
21.3189602771
 30
0.0
 10
-18.8864404589
 20
21.3846911358
 30
0.0
 10
-18.9554181421
 20
21.4829648185
 30
0.0
 10
-19.0227011185
 20
21.5803413031
 30
0.0
 10
-19.0663966771
 20
21.6452463485
 30
0.0
 10
-19.0876936453
 20
21.6775335309
 30
0.0
 11
-18.8166456542
 21
21.2859869487
 31
0.0
 11
-18.886535211
 21
21.3849475221
 31
0.0
 11
-18.9556173398
 21
21.4835075774
 31
0.0
 11
-19.0230030685
 21
21.5812042191
 31
0.0
 11
-19.0876936453
 21
21.6775335309
 31
0.0
  0
SPLINE
  5
7DF
100
AcDbEntity
  8
RACCORDO
100
AcDbSpline
 62
7
  6
CONTINUOUS
 70
0
 71
3
 72
11
 73
7
 74
5
 42
0.0000001
 43
0.0000001
 44
0.0000000001
 12
-0.2622191459
 22
-0.3975362729
 32
0.0
 13
-0.2749508858
 23
-0.3888392717
 33
0.0
 40
0.0
 40
0.0
 40
0.0
 40
0.0
 40
0.243654614
 40
0.492867173
 40
0.7456018656
 40
1.0
 40
1.0
 40
1.0
 40
1.0
 10
-3.4123063547
 20
21.6775335309
 30
0.0
 10
-3.4336033229
 20
21.6452463485
 30
0.0
 10
-3.4772988815
 20
21.5803413031
 30
0.0
 10
-3.5445818579
 20
21.4829648185
 30
0.0
 10
-3.6135595411
 20
21.3846911358
 30
0.0
 10
-3.6600386816
 20
21.3189602771
 30
0.0
 10
-3.6833543458
 20
21.2859869487
 30
0.0
 11
-3.4123063547
 21
21.6775335309
 31
0.0
 11
-3.4769969315
 21
21.5812042191
 31
0.0
 11
-3.5443826602
 21
21.4835075774
 31
0.0
 11
-3.613464789
 21
21.3849475221
 31
0.0
 11
-3.6833543458
 21
21.2859869487
 31
0.0
  0
SPLINE
  5
7E0
100
AcDbEntity
  8
RACCORDO
100
AcDbSpline
 62
7
  6
CONTINUOUS
 70
0
 71
3
 72
11
 73
7
 74
5
 42
0.0000001
 43
0.0000001
 44
0.0000000001
 12
0.2622191459
 22
0.3975362729
 32
0.0
 13
0.2749508858
 23
0.3888392717
 33
0.0
 40
0.0
 40
0.0
 40
0.0
 40
0.0
 40
0.243654614
 40
0.492867173
 40
0.7456018656
 40
1.0
 40
1.0
 40
1.0
 40
1.0
 10
3.4123063547
 20
-21.6775335309
 30
0.0
 10
3.4336033229
 20
-21.6452463485
 30
0.0
 10
3.4772988815
 20
-21.5803413031
 30
0.0
 10
3.5445818579
 20
-21.4829648185
 30
0.0
 10
3.6135595411
 20
-21.3846911358
 30
0.0
 10
3.6600386816
 20
-21.3189602771
 30
0.0
 10
3.6833543458
 20
-21.2859869487
 30
0.0
 11
3.4123063547
 21
-21.6775335309
 31
0.0
 11
3.4769969315
 21
-21.5812042191
 31
0.0
 11
3.5443826602
 21
-21.4835075774
 31
0.0
 11
3.613464789
 21
-21.3849475221
 31
0.0
 11
3.6833543458
 21
-21.2859869487
 31
0.0
  0
SPLINE
  5
7E1
100
AcDbEntity
  8
RACCORDO
100
AcDbSpline
 62
7
  6
CONTINUOUS
 70
0
 71
3
 72
11
 73
7
 74
5
 42
0.0000001
 43
0.0000001
 44
0.0000000001
 12
0.2749508858
 22
-0.3888392717
 32
0.0
 13
0.2622191459
 23
-0.3975362729
 33
0.0
 40
0.0
 40
0.0
 40
0.0
 40
0.0
 40
0.2543981344
 40
0.507132827
 40
0.756345386
 40
1.0
 40
1.0
 40
1.0
 40
1.0
 10
18.8166456542
 20
-21.2859869487
 30
0.0
 10
18.8399613184
 20
-21.3189602771
 30
0.0
 10
18.8864404589
 20
-21.3846911358
 30
0.0
 10
18.9554181421
 20
-21.4829648185
 30
0.0
 10
19.0227011185
 20
-21.5803413031
 30
0.0
 10
19.0663966771
 20
-21.6452463485
 30
0.0
 10
19.0876936453
 20
-21.6775335309
 30
0.0
 11
18.8166456542
 21
-21.2859869487
 31
0.0
 11
18.886535211
 21
-21.3849475221
 31
0.0
 11
18.9556173398
 21
-21.4835075774
 31
0.0
 11
19.0230030685
 21
-21.5812042191
 31
0.0
 11
19.0876936453
 21
-21.6775335309
 31
0.0
  0
SPLINE
  5
7E2
100
AcDbEntity
  8
RACCORDO
100
AcDbSpline
 62
7
  6
CONTINUOUS
 70
0
 71
3
 72
11
 73
7
 74
5
 42
0.0000001
 43
0.0000001
 44
0.0000000001
 12
-0.2622191459
 22
-0.3975362729
 32
0.0
 13
-0.2749508858
 23
-0.3888392717
 33
0.0
 40
0.0
 40
0.0
 40
0.0
 40
0.0
 40
0.243654614
 40
0.492867173
 40
0.7456018656
 40
1.0
 40
1.0
 40
1.0
 40
1.0
 10
19.0876936453
 20
21.6775335309
 30
0.0
 10
19.0663966771
 20
21.6452463485
 30
0.0
 10
19.0227011185
 20
21.5803413031
 30
0.0
 10
18.9554181421
 20
21.4829648185
 30
0.0
 10
18.8864404589
 20
21.3846911358
 30
0.0
 10
18.8399613184
 20
21.3189602771
 30
0.0
 10
18.8166456542
 20
21.2859869487
 30
0.0
 11
19.0876936453
 21
21.6775335309
 31
0.0
 11
19.0230030685
 21
21.5812042191
 31
0.0
 11
18.9556173398
 21
21.4835075774
 31
0.0
 11
18.886535211
 21
21.3849475221
 31
0.0
 11
18.8166456542
 21
21.2859869487
 31
0.0
  0
SPLINE
  5
7E3
100
AcDbEntity
  8
RACCORDO
100
AcDbSpline
 62
7
  6
CONTINUOUS
 70
0
 71
3
 72
11
 73
7
 74
5
 42
0.0000001
 43
0.0000001
 44
0.0000000001
 12
-0.2749508858
 22
0.3888392717
 32
0.0
 13
-0.2622191459
 23
0.3975362729
 33
0.0
 40
0.0
 40
0.0
 40
0.0
 40
0.0
 40
0.2543981344
 40
0.507132827
 40
0.756345386
 40
1.0
 40
1.0
 40
1.0
 40
1.0
 10
3.6833543458
 20
21.2859869487
 30
0.0
 10
3.6600386816
 20
21.3189602771
 30
0.0
 10
3.6135595411
 20
21.3846911358
 30
0.0
 10
3.5445818579
 20
21.4829648185
 30
0.0
 10
3.4772988815
 20
21.5803413031
 30
0.0
 10
3.4336033229
 20
21.6452463485
 30
0.0
 10
3.4123063547
 20
21.6775335309
 30
0.0
 11
3.6833543458
 21
21.2859869487
 31
0.0
 11
3.613464789
 21
21.3849475221
 31
0.0
 11
3.5443826602
 21
21.4835075774
 31
0.0
 11
3.4769969315
 21
21.5812042191
 31
0.0
 11
3.4123063547
 21
21.6775335309
 31
0.0
  0
SPLINE
  5
7E4
100
AcDbEntity
  8
0
100
AcDbSpline
 62
7
  6
CONTINUOUS
 70
0
 71
3
 72
13
 73
9
 74
7
 42
0.0000001
 43
0.0000001
 44
0.0000000001
 12
0.771602341
 22
0.0
 32
0.0
 13
-0.0000007914
 23
-0.7716023414
 33
0.0
 40
0.0
 40
0.0
 40
0.0
 40
0.0
 40
0.1573102008
 40
0.3022020736
 40
0.4829357996
 40
0.6858833639
 40
0.8294036795
 40
1.0
 40
1.0
 40
1.0
 40
1.0
 10
0.5368323828
 20
19.5512461083
 30
0.0
 10
0.5772926892
 20
19.5512461083
 30
0.0
 10
0.6554777352
 20
19.5427715626
 30
0.0
 10
0.7723229855
 20
19.4944442117
 30
0.0
 10
0.8704726176
 20
19.3950772978
 30
0.0
 10
0.9280865527
 20
19.2694935094
 30
0.0
 10
0.950850144
 20
19.1380318825
 30
0.0
 10
0.9564582472
 20
19.0572434143
 30
0.0
 10
0.9564582022
 20
19.0133659075
 30
0.0
 11
0.5368323828
 21
19.5512461083
 31
0.0
 11
0.6573173299
 21
19.5365252031
 31
0.0
 11
0.7600239531
 21
19.4923624875
 31
0.0
 11
0.8598430141
 21
19.3949780378
 31
0.0
 11
0.9268231327
 21
19.2534308724
 31
0.0
 11
0.9479419698
 21
19.1447226494
 31
0.0
 11
0.9564582022
 21
19.0133659075
 31
0.0
  0
SPLINE
  5
7E5
100
AcDbEntity
  8
0
100
AcDbSpline
 62
7
  6
CONTINUOUS
 70
0
 71
3
 72
13
 73
9
 74
7
 42
0.0000001
 43
0.0000001
 44
0.0000000001
 12
-0.0000007914
 22
-0.7716003957
 32
0.0
 13
-0.771600396
 23
0.0
 33
0.0
 40
0.0
 40
0.0
 40
0.0
 40
0.0
 40
0.1705942299
 40
0.3141149072
 40
0.5170629831
 40
0.6977971646
 40
0.8426894027
 40
1.0
 40
1.0
 40
1.0
 40
1.0
 10
0.9564582022
 20
19.0133659075
 30
0.0
 10
0.9564581572
 20
18.9694890491
 30
0.0
 10
0.950850033
 20
18.8887012366
 30
0.0
 10
0.9280865527
 20
18.7572402506
 30
0.0
 10
0.8704726176
 20
18.6316564622
 30
0.0
 10
0.7723229855
 20
18.5322895482
 30
0.0
 10
0.6554777352
 20
18.4839621974
 30
0.0
 10
0.5772926892
 20
18.4754876516
 30
0.0
 10
0.5368323828
 20
18.4754876516
 30
0.0
 11
0.9564582022
 21
19.0133659075
 31
0.0
 11
0.9479419698
 21
18.8820111105
 31
0.0
 11
0.9268231327
 21
18.7733028875
 31
0.0
 11
0.8598430141
 21
18.6317557222
 31
0.0
 11
0.7600239531
 21
18.5343712724
 31
0.0
 11
0.6573173299
 21
18.4902085568
 31
0.0
 11
0.5368323828
 21
18.4754876516
 31
0.0
  0
SPLINE
  5
7E6
100
AcDbEntity
  8
0
100
AcDbSpline
 62
7
  6
CONTINUOUS
 70
0
 71
3
 72
13
 73
9
 74
7
 42
0.0000001
 43
0.0000001
 44
0.0000000001
 12
1.0281145102
 22
0.0
 32
0.0
 13
0.0000006181
 23
1.0281146834
 33
0.0
 40
0.0
 40
0.0
 40
0.0
 40
0.0
 40
0.2440859479
 40
0.395169161
 40
0.5865972427
 40
0.7510207143
 40
0.8853929384
 40
1.0
 40
1.0
 40
1.0
 40
1.0
 10
0.5621976348
 20
18.3135576945
 30
0.0
 10
0.6458470697
 20
18.3135576945
 30
0.0
 10
0.7841446665
 20
18.3389156787
 30
0.0
 10
0.9561978516
 20
18.448531859
 30
0.0
 10
1.063620482
 20
18.5903128839
 30
0.0
 10
1.1232503001
 20
18.7485962224
 30
0.0
 10
1.149775187
 20
18.8885416293
 30
0.0
 10
1.1505553498
 20
18.9740866044
 30
0.0
 10
1.1505553734
 20
19.0133630053
 30
0.0
 11
0.5621976348
 21
18.3135576945
 31
0.0
 11
0.8081499893
 21
18.3633822967
 31
0.0
 11
0.9389395701
 21
18.4471782186
 31
0.0
 11
1.0600473248
 21
18.6023139118
 31
0.0
 11
1.12170527
 21
18.7597143597
 31
0.0
 11
1.1466175711
 21
18.8955996384
 31
0.0
 11
1.1505553734
 21
19.0133630053
 31
0.0
  0
SPLINE
  5
7E7
100
AcDbEntity
  8
0
100
AcDbSpline
 62
7
  6
CONTINUOUS
 70
0
 71
3
 72
13
 73
9
 74
7
 42
0.0000001
 43
0.0000001
 44
0.0000000001
 12
0.000000618
 22
1.0281220863
 32
0.0
 13
-1.0281222595
 23
-0.0
 33
0.0
 40
0.0
 40
0.0
 40
0.0
 40
0.0
 40
0.1146137351
 40
0.2489849464
 40
0.4134071787
 40
0.6048338176
 40
0.7559158919
 40
1.0
 40
1.0
 40
1.0
 40
1.0
 10
1.1505553734
 20
19.0133630053
 30
0.0
 10
1.150555397
 20
19.0526419761
 30
0.0
 10
1.1497756706
 20
19.1381895791
 30
0.0
 10
1.1232503001
 20
19.2781375376
 30
0.0
 10
1.063620482
 20
19.436420876
 30
0.0
 10
0.9561978516
 20
19.5782019009
 30
0.0
 10
0.7841446665
 20
19.6878180812
 30
0.0
 10
0.6458470697
 20
19.7131760655
 30
0.0
 10
0.5621976348
 20
19.7131760655
 30
0.0
 11
1.1505553734
 21
19.0133630053
 31
0.0
 11
1.1466175711
 21
19.1311341216
 31
0.0
 11
1.12170527
 21
19.2670194003
 31
0.0
 11
1.0600473248
 21
19.4244198482
 31
0.0
 11
0.9389395701
 21
19.5795555414
 31
0.0
 11
0.8081499893
 21
19.6633514633
 31
0.0
 11
0.5621976348
 21
19.7131760655
 31
0.0
  0
SPLINE
  5
7E8
100
AcDbEntity
  8
0
100
AcDbSpline
 62
7
  6
CONTINUOUS
 70
0
 71
3
 72
9
 73
5
 74
3
 42
0.0000001
 43
0.0000001
 44
0.0000000001
 12
0.0
 22
-0.6430474239
 32
0.0
 13
-0.4741742328
 23
-0.4343602035
 33
0.0
 40
0.0
 40
0.0
 40
0.0
 40
0.0
 40
0.5053341372
 40
1.0
 40
1.0
 40
1.0
 40
1.0
 10
-17.3810995378
 20
-4.0971590178
 30
0.0
 10
-17.3810995378
 20
-4.2054769562
 30
0.0
 10
-17.4183353568
 20
-4.4223301794
 30
0.0
 10
-17.5421039913
 20
-4.6075909573
 30
0.0
 10
-17.6202899267
 20
-4.6792120122
 30
0.0
 11
-17.3810995378
 21
-4.0971590178
 31
0.0
 11
-17.4408298426
 21
-4.4165761004
 31
0.0
 11
-17.6202899267
 21
-4.6792120122
 31
0.0
  0
SPLINE
  5
7E9
100
AcDbEntity
  8
0
100
AcDbSpline
 62
7
  6
CONTINUOUS
 70
0
 71
3
 72
9
 73
5
 74
3
 42
0.0000001
 43
0.0000001
 44
0.0000000001
 12
-0.6132827643
 22
-0.5617884902
 32
0.0
 13
-0.8316982966
 23
0.0
 33
0.0
 40
0.0
 40
0.0
 40
0.0
 40
0.0
 40
0.728257811
 40
1.0
 40
1.0
 40
1.0
 40
1.0
 10
-17.6202899267
 20
-4.6792120122
 30
0.0
 10
-17.7691659145
 20
-4.8155876309
 30
0.0
 10
-18.0488277575
 20
-4.9209870316
 30
0.0
 10
-18.3242366714
 20
-4.9416398733
 30
0.0
 10
-18.39957251
 20
-4.9416398733
 30
0.0
 11
-17.6202899267
 21
-4.6792120122
 31
0.0
 11
-18.1742421766
 21
-4.9241573671
 31
0.0
 11
-18.39957251
 21
-4.9416398733
 31
0.0
  0
SPLINE
  5
7EA
100
AcDbEntity
  8
0
100
AcDbSpline
 62
7
  6
CONTINUOUS
 70
0
 71
3
 72
9
 73
5
 74
3
 42
0.0000001
 43
0.0000001
 44
0.0000000001
 12
-0.8331324126
 22
0.0
 32
0.0
 13
-0.6143132041
 23
0.5627867307
 33
0.0
 40
0.0
 40
0.0
 40
0.0
 40
0.0
 40
0.7700703141
 40
1.0
 40
1.0
 40
1.0
 40
1.0
 10
-18.39957251
 20
-4.9416398733
 30
0.0
 10
-18.6134293562
 20
-4.9416398733
 30
0.0
 10
-18.9024136547
 20
-4.8828780162
 30
0.0
 10
-19.1317869627
 20
-4.7223458043
 30
0.0
 10
-19.17886991
 20
-4.6792120122
 30
0.0
 11
-18.39957251
 21
-4.9416398733
 31
0.0
 11
-19.0231560037
 21
-4.7907876858
 31
0.0
 11
-19.17886991
 21
-4.6792120122
 31
0.0
  0
SPLINE
  5
7EB
100
AcDbEntity
  8
0
100
AcDbSpline
 62
7
  6
CONTINUOUS
 70
0
 71
3
 72
9
 73
5
 74
3
 42
0.0000001
 43
0.0000001
 44
0.0000000001
 12
-0.4741670199
 22
0.4343670346
 32
0.0
 13
0.0
 23
0.6430467195
 33
0.0
 40
0.0
 40
0.0
 40
0.0
 40
0.0
 40
0.4946647797
 40
1.0
 40
1.0
 40
1.0
 40
1.0
 10
-19.17886991
 20
-4.6792120122
 30
0.0
 10
-19.2570544848
 20
-4.6075899877
 30
0.0
 10
-19.380821821
 20
-4.4223297487
 30
0.0
 10
-19.4180602989
 20
-4.2054770697
 30
0.0
 10
-19.4180602989
 20
-4.0971590178
 30
0.0
 11
-19.17886991
 21
-4.6792120122
 31
0.0
 11
-19.3583281419
 21
-4.4165761004
 31
0.0
 11
-19.4180602989
 21
-4.0971590178
 31
0.0
  0
SPLINE
  5
7EC
100
AcDbEntity
  8
0
100
AcDbSpline
 62
7
  6
CONTINUOUS
 70
0
 71
3
 72
9
 73
5
 74
3
 42
0.0000001
 43
0.0000001
 44
0.0000000001
 12
0.0
 22
0.6405454953
 32
0.0
 13
0.4723104188
 23
0.4326908825
 33
0.0
 40
0.0
 40
0.0
 40
0.0
 40
0.0
 40
0.5049392329
 40
1.0
 40
1.0
 40
1.0
 40
1.0
 10
-19.4180602989
 20
-4.0971590178
 30
0.0
 10
-19.4180602989
 20
-3.9893468341
 30
0.0
 10
-19.3809364634
 20
-3.7731895151
 30
0.0
 10
-19.2568106961
 20
-3.5892745612
 30
0.0
 10
-19.17886991
 20
-3.5178718011
 30
0.0
 11
-19.4180602989
 21
-4.0971590178
 31
0.0
 11
-19.3583874086
 21
-3.7792748428
 31
0.0
 11
-19.17886991
 21
-3.5178718011
 31
0.0
  0
SPLINE
  5
7ED
100
AcDbEntity
  8
0
100
AcDbSpline
 62
7
  6
CONTINUOUS
 70
0
 71
3
 72
9
 73
5
 74
3
 42
0.0000001
 43
0.0000001
 44
0.0000000001
 12
0.6132678145
 22
0.5618241337
 32
0.0
 13
0.8317113499
 23
0.0
 33
0.0
 40
0.0
 40
0.0
 40
0.0
 40
0.0
 40
0.7282512758
 40
1.0
 40
1.0
 40
1.0
 40
1.0
 10
-19.17886991
 20
-3.5178718011
 30
0.0
 10
-19.0299988872
 20
-3.3814887537
 30
0.0
 10
-18.7503236343
 20
-3.2760968509
 30
0.0
 10
-18.4749113427
 20
-3.2554488789
 30
0.0
 10
-18.39957251
 20
-3.2554488789
 30
0.0
 11
-19.17886991
 21
-3.5178718011
 31
0.0
 11
-18.6249120289
 21
-3.2729291153
 31
0.0
 11
-18.39957251
 21
-3.2554488789
 31
0.0
  0
SPLINE
  5
7EE
100
AcDbEntity
  8
0
100
AcDbSpline
 62
7
  6
CONTINUOUS
 70
0
 71
3
 72
9
 73
5
 74
3
 42
0.0000001
 43
0.0000001
 44
0.0000000001
 12
0.8331165582
 22
0.0
 32
0.0
 13
0.6142946257
 23
-0.5627835396
 33
0.0
 40
0.0
 40
0.0
 40
0.0
 40
0.0
 40
0.7700722265
 40
1.0
 40
1.0
 40
1.0
 40
1.0
 10
-18.39957251
 20
-3.2554488789
 30
0.0
 10
-18.1857192024
 20
-3.2554488789
 30
0.0
 10
-17.8967411099
 20
-3.3142106314
 30
0.0
 10
-17.6673710585
 20
-3.4747386124
 30
0.0
 10
-17.6202899267
 20
-3.5178718011
 30
0.0
 11
-18.39957251
 21
-3.2554488789
 31
0.0
 11
-17.7759994342
 21
-3.4062989828
 31
0.0
 11
-17.6202899267
 21
-3.5178718011
 31
0.0
  0
SPLINE
  5
7EF
100
AcDbEntity
  8
0
100
AcDbSpline
 62
7
  6
CONTINUOUS
 70
0
 71
3
 72
9
 73
5
 74
3
 42
0.0000001
 43
0.0000001
 44
0.0000000001
 12
0.47230305
 22
-0.4326985312
 32
0.0
 13
0.0
 23
-0.6405452286
 33
0.0
 40
0.0
 40
0.0
 40
0.0
 40
0.0
 40
0.4950635243
 40
1.0
 40
1.0
 40
1.0
 40
1.0
 10
-17.6202899267
 20
-3.5178718011
 30
0.0
 10
-17.5423499225
 20
-3.5892762211
 30
0.0
 10
-17.4182236744
 20
-3.7731899852
 30
0.0
 10
-17.3810995378
 20
-3.9893474677
 30
0.0
 10
-17.3810995378
 20
-4.0971590178
 30
0.0
 11
-17.6202899267
 21
-3.5178718011
 31
0.0
 11
-17.440772331
 21
-3.7792767585
 31
0.0
 11
-17.3810995378
 21
-4.0971590178
 31
0.0
  0
SPLINE
  5
7F0
100
AcDbEntity
  8
0
100
AcDbSpline
 62
7
  6
CONTINUOUS
 70
0
 71
3
 72
9
 73
5
 74
3
 42
0.0000001
 43
0.0000001
 44
0.0000000001
 12
0.0
 22
1.1120902668
 32
0.0
 13
-0.846803278
 23
0.7208806905
 33
0.0
 40
0.0
 40
0.0
 40
0.0
 40
0.0
 40
0.5032865907
 40
1.0
 40
1.0
 40
1.0
 40
1.0
 10
-16.9379280989
 20
-4.0984628844
 30
0.0
 10
-16.9379280989
 20
-3.9118961781
 30
0.0
 10
-17.002434983
 20
-3.5355412208
 30
0.0
 10
-17.2286202178
 20
-3.2215719474
 30
0.0
 10
-17.3688263989
 20
-3.1022149122
 30
0.0
 11
-16.9379280989
 21
-4.0984628844
 31
0.0
 11
-17.0438117031
 21
-3.5488695025
 31
0.0
 11
-17.3688263989
 21
-3.1022149122
 31
0.0
  0
SPLINE
  5
7F1
100
AcDbEntity
  8
0
100
AcDbSpline
 62
7
  6
CONTINUOUS
 70
0
 71
3
 72
9
 73
5
 74
3
 42
0.0000001
 43
0.0000001
 44
0.0000000001
 12
-0.8377932457
 22
0.7132104812
 32
0.0
 13
-1.1002575667
 23
0.0
 33
0.0
 40
0.0
 40
0.0
 40
0.0
 40
0.0
 40
0.7410185991
 40
1.0
 40
1.0
 40
1.0
 40
1.0
 10
-17.3688263989
 20
-3.1022149122
 30
0.0
 10
-17.5757665246
 20
-2.9260475017
 30
0.0
 10
-17.9397884412
 20
-2.782345555
 30
0.0
 10
-18.3048620669
 20
-2.7524279844
 30
0.0
 10
-18.3998441489
 20
-2.7524279844
 30
0.0
 11
-17.3688263989
 21
-3.1022149122
 31
0.0
 11
-18.1158380484
 21
-2.7755558467
 31
0.0
 11
-18.3998441489
 21
-2.7524279844
 31
0.0
  0
SPLINE
  5
7F2
100
AcDbEntity
  8
0
100
AcDbSpline
 62
7
  6
CONTINUOUS
 70
0
 71
3
 72
9
 73
5
 74
3
 42
0.0000001
 43
0.0000001
 44
0.0000000001
 12
-1.1014543555
 22
0.0
 32
0.0
 13
-0.8386745034
 23
-0.7140215506
 33
0.0
 40
0.0
 40
0.0
 40
0.0
 40
0.0
 40
0.7594862769
 40
1.0
 40
1.0
 40
1.0
 40
1.0
 10
-18.3998441489
 20
-2.7524279844
 30
0.0
 10
-18.6786906381
 20
-2.7524279844
 30
0.0
 10
-19.05700823
 20
-2.8394813747
 30
0.0
 10
-19.363629262
 20
-3.0449709184
 30
0.0
 10
-19.4308668378
 20
-3.1022149122
 30
0.0
 11
-18.3998441489
 21
-2.7524279844
 31
0.0
 11
-19.2119887098
 21
-2.9529759665
 31
0.0
 11
-19.4308668378
 21
-3.1022149122
 31
0.0
  0
SPLINE
  5
7F3
100
AcDbEntity
  8
0
100
AcDbSpline
 62
7
  6
CONTINUOUS
 70
0
 71
3
 72
9
 73
5
 74
3
 42
0.0000001
 43
0.0000001
 44
0.0000000001
 12
-0.8467705244
 22
-0.7209142527
 32
0.0
 13
0.0
 23
-1.1120870832
 33
0.0
 40
0.0
 40
0.0
 40
0.0
 40
0.0
 40
0.4967142059
 40
1.0
 40
1.0
 40
1.0
 40
1.0
 10
-19.4308668378
 20
-3.1022149122
 30
0.0
 10
-19.5710678206
 20
-3.2215776957
 30
0.0
 10
-19.7972537283
 20
-3.5355417243
 30
0.0
 10
-19.8617601989
 20
-3.9118970075
 30
0.0
 10
-19.8617601989
 20
-4.0984628844
 30
0.0
 11
-19.4308668378
 21
-3.1022149122
 31
0.0
 11
-19.7558769682
 21
-3.5488719644
 31
0.0
 11
-19.8617601989
 21
-4.0984628844
 31
0.0
  0
SPLINE
  5
7F4
100
AcDbEntity
  8
0
100
AcDbSpline
 62
7
  6
CONTINUOUS
 70
0
 71
3
 72
9
 73
5
 74
3
 42
0.0000001
 43
0.0000001
 44
0.0000000001
 12
0.0
 22
-1.1122211917
 32
0.0
 13
0.8468867377
 23
-0.7209846272
 33
0.0
 40
0.0
 40
0.0
 40
0.0
 40
0.0
 40
0.5032851617
 40
1.0
 40
1.0
 40
1.0
 40
1.0
 10
-19.8617601989
 20
-4.0984628844
 30
0.0
 10
-19.8617601989
 20
-4.2850510252
 30
0.0
 10
-19.7972551216
 20
-4.6614431273
 30
0.0
 10
-19.5710872408
 20
-4.9754844358
 30
0.0
 10
-19.4308668378
 20
-5.0948590233
 30
0.0
 11
-19.8617601989
 21
-4.0984628844
 31
0.0
 11
-19.7558827683
 21
-4.6481229414
 31
0.0
 11
-19.4308668378
 21
-5.0948590233
 31
0.0
  0
SPLINE
  5
7F5
100
AcDbEntity
  8
0
100
AcDbSpline
 62
7
  6
CONTINUOUS
 70
0
 71
3
 72
9
 73
5
 74
3
 42
0.0000001
 43
0.0000001
 44
0.0000000001
 12
0.8377656736
 22
-0.7132588429
 32
0.0
 13
1.1002679223
 23
0.0
 33
0.0
 40
0.0
 40
0.0
 40
0.0
 40
0.0
 40
0.7410181606
 40
1.0
 40
1.0
 40
1.0
 40
1.0
 10
-19.4308668378
 20
-5.0948590233
 30
0.0
 10
-19.223933645
 20
-5.2710382753
 30
0.0
 10
-18.8599034758
 20
-5.414740964
 30
0.0
 10
-18.4948272857
 20
-5.4446607678
 30
0.0
 10
-18.3998441489
 20
-5.4446607678
 30
0.0
 11
-19.4308668378
 21
-5.0948590233
 31
0.0
 11
-18.6838533339
 21
-5.4215317968
 31
0.0
 11
-18.3998441489
 21
-5.4446607678
 31
0.0
  0
SPLINE
  5
7F6
100
AcDbEntity
  8
0
100
AcDbSpline
 62
7
  6
CONTINUOUS
 70
0
 71
3
 72
9
 73
5
 74
3
 42
0.0000001
 43
0.0000001
 44
0.0000000001
 12
1.1014540025
 22
0.0
 32
0.0
 13
0.8386555576
 23
0.7140432587
 33
0.0
 40
0.0
 40
0.0
 40
0.0
 40
0.0
 40
0.7594903071
 40
1.0
 40
1.0
 40
1.0
 40
1.0
 10
-18.3998441489
 20
-5.4446607678
 30
0.0
 10
-18.1209962693
 20
-5.4446607678
 30
0.0
 10
-17.7426819114
 20
-5.3575935206
 30
0.0
 10
-17.4360613291
 20
-5.1521037983
 30
0.0
 10
-17.3688263989
 20
-5.0948590233
 30
0.0
 11
-18.3998441489
 21
-5.4446607678
 31
0.0
 11
-17.5876988934
 21
-5.2440982006
 31
0.0
 11
-17.3688263989
 21
-5.0948590233
 31
0.0
  0
SPLINE
  5
7F7
100
AcDbEntity
  8
0
100
AcDbSpline
 62
7
  6
CONTINUOUS
 70
0
 71
3
 72
9
 73
5
 74
3
 42
0.0000001
 43
0.0000001
 44
0.0000000001
 12
0.8468524442
 22
0.7210222045
 32
0.0
 13
0.0
 23
1.1122194395
 33
0.0
 40
0.0
 40
0.0
 40
0.0
 40
0.0
 40
0.4967189073
 40
1.0
 40
1.0
 40
1.0
 40
1.0
 10
-17.3688263989
 20
-5.0948590233
 30
0.0
 10
-17.2286105253
 20
-4.9754772361
 30
0.0
 10
-17.0024478784
 20
-4.6614389668
 30
0.0
 10
-16.9379280989
 20
-4.2850492227
 30
0.0
 10
-16.9379280989
 20
-4.0984628844
 30
0.0
 11
-17.3688263989
 21
-5.0948590233
 31
0.0
 11
-17.0438140914
 21
-4.6481157852
 31
0.0
 11
-16.9379280989
 21
-4.0984628844
 31
0.0
  0
SPLINE
  5
7F8
100
AcDbEntity
  8
0
100
AcDbSpline
 62
7
  6
CONTINUOUS
 70
0
 71
3
 72
9
 73
5
 74
3
 42
0.0000001
 43
0.0000001
 44
0.0000000001
 12
0.4529420129
 22
0.0772875072
 32
0.0
 13
0.4564242747
 23
-0.0529783657
 33
0.0
 40
0.0
 40
0.0
 40
0.0
 40
0.0
 40
0.5157390107
 40
1.0
 40
1.0
 40
1.0
 40
1.0
 10
-7.2536457035
 20
17.331317117
 30
0.0
 10
-7.1757790816
 20
17.3446038445
 30
0.0
 10
-7.0232407278
 20
17.3641042136
 30
0.0
 10
-6.8694908467
 20
17.356349727
 30
0.0
 10
-6.7958146898
 20
17.3477979417
 30
0.0
 11
-7.2536457035
 21
17.331317117
 31
0.0
 11
-7.0181168721
 21
17.3574686168
 31
0.0
 11
-6.7958146898
 21
17.3477979417
 31
0.0
  0
SPLINE
  5
7F9
100
AcDbEntity
  8
0
100
AcDbSpline
 62
7
  6
CONTINUOUS
 70
0
 71
3
 72
10
 73
6
 74
4
 42
0.0000001
 43
0.0000001
 44
0.0000000001
 12
0.5175457361
 22
-0.0600869426
 32
0.0
 13
0.0077222452
 23
-0.5209336738
 33
0.0
 40
0.0
 40
0.0
 40
0.0
 40
0.0
 40
0.4964876759
 40
0.7407608184
 40
1.0
 40
1.0
 40
1.0
 40
1.0
 10
-6.7958146898
 20
17.3477979417
 30
0.0
 10
-6.7101629966
 20
17.3378537996
 30
0.0
 10
-6.5806397989
 20
17.2791941658
 30
0.0
 10
-6.4835992806
 20
17.1308960469
 30
0.0
 10
-6.4663570154
 20
17.0425294642
 30
0.0
 10
-6.4656897126
 20
16.9975139911
 30
0.0
 11
-6.7958146898
 21
17.3477979417
 31
0.0
 11
-6.5624325645
 21
17.2362243327
 31
0.0
 11
-6.4924933766
 21
17.1298918489
 31
0.0
 11
-6.4656897126
 21
16.9975139911
 31
0.0
  0
SPLINE
  5
7FA
100
AcDbEntity
  8
0
100
AcDbSpline
 62
7
  6
CONTINUOUS
 70
0
 71
3
 72
10
 73
6
 74
4
 42
0.0000001
 43
0.0000001
 44
0.0000000001
 12
0.0106363896
 22
-0.7074905322
 32
0.0
 13
-0.7073330599
 23
-0.0157987992
 33
0.0
 40
0.0
 40
0.0
 40
0.0
 40
0.0
 40
0.2926185832
 40
0.5273917329
 40
1.0
 40
1.0
 40
1.0
 40
1.0
 10
-6.4656897126
 20
16.9975139911
 30
0.0
 10
-6.4646522442
 20
16.9285056987
 30
0.0
 10
-6.4795957237
 20
16.8002186738
 30
0.0
 10
-6.6260178762
 20
16.6017005331
 30
0.0
 10
-6.8082318305
 20
16.5652327074
 30
0.0
 10
-6.9196623144
 20
16.5627438263
 30
0.0
 11
-6.4656897126
 21
16.9975139911
 31
0.0
 11
-6.5004070592
 21
16.7934100928
 31
0.0
 11
-6.5998555838
 21
16.6603664697
 31
0.0
 11
-6.9196623144
 21
16.5627438263
 31
0.0
  0
SPLINE
  5
7FB
100
AcDbEntity
  8
0
100
AcDbSpline
 62
7
  6
CONTINUOUS
 70
0
 71
3
 72
10
 73
6
 74
4
 42
0.0000001
 43
0.0000001
 44
0.0000000001
 12
0.4337185134
 22
0.0
 32
0.0
 13
0.1528913062
 23
-0.4059514653
 33
0.0
 40
0.0
 40
0.0
 40
0.0
 40
0.0
 40
0.3522580258
 40
0.6311458666
 40
1.0
 40
1.0
 40
1.0
 40
1.0
 10
-6.9209219953
 20
16.1042199882
 30
0.0
 10
-6.8699950529
 20
16.1042199882
 30
0.0
 10
-6.7767806809
 20
16.0836299401
 30
0.0
 10
-6.6602846471
 20
15.9926461777
 30
0.0
 10
-6.6139002005
 20
15.9080496552
 30
0.0
 10
-6.5951020037
 20
15.8581373632
 30
0.0
 11
-6.9209219953
 21
16.1042199882
 31
0.0
 11
-6.7720775783
 21
16.0697624676
 31
0.0
 11
-6.6761551761
 21
15.9960744169
 31
0.0
 11
-6.5951020037
 21
15.8581373632
 31
0.0
  0
SPLINE
  5
7FC
100
AcDbEntity
  8
0
100
AcDbSpline
 62
7
  6
CONTINUOUS
 70
0
 71
3
 72
11
 73
7
 74
5
 42
0.0000001
 43
0.0000001
 44
0.0000000001
 12
0.3124440968
 22
-0.8304691554
 32
0.0
 13
0.2451682211
 23
-0.85274712
 33
0.0
 40
0.0
 40
0.0
 40
0.0
 40
0.0
 40
0.2227998711
 40
0.5589561198
 40
0.8658324662
 40
1.0
 40
1.0
 40
1.0
 40
1.0
 10
-6.5951020037
 20
15.8581373632
 30
0.0
 10
-6.5718978356
 20
15.796461223
 30
0.0
 10
-6.5249847449
 20
15.6377420835
 30
0.0
 10
-6.4507173035
 20
15.3927683772
 30
0.0
 10
-6.3865940021
 20
15.1719962761
 30
0.0
 10
-6.3502918742
 20
15.0467075512
 30
0.0
 10
-6.3393273357
 20
15.0085705585
 30
0.0
 11
-6.5951020037
 21
15.8581373632
 31
0.0
 11
-6.5343347921
 21
15.6700211125
 31
0.0
 11
-6.448780482
 21
15.3842861253
 31
0.0
 11
-6.3723864137
 21
15.1229338359
 31
0.0
 11
-6.3393273357
 21
15.0085705585
 31
0.0
  0
SPLINE
  5
7FD
100
AcDbEntity
  8
0
100
AcDbSpline
 62
7
  6
CONTINUOUS
 70
0
 71
3
 72
9
 73
5
 74
3
 42
0.0000001
 43
0.0000001
 44
0.0000000001
 12
-0.2053978623
 22
0.7562592206
 32
0.0
 13
-0.2059945995
 23
0.7560968956
 33
0.0
 40
0.0
 40
0.0
 40
0.0
 40
0.0
 40
0.1980141723
 40
1.0
 40
1.0
 40
1.0
 40
1.0
 10
-5.7771947456
 20
15.0085705585
 30
0.0
 10
-5.7907519749
 20
15.0584872398
 30
0.0
 10
-5.8571085372
 20
15.3111402704
 30
0.0
 10
-5.9219118825
 20
15.5642052568
 30
0.0
 10
-5.9769801323
 20
15.7663315884
 30
0.0
 11
-5.7771947456
 21
15.0085705585
 31
0.0
 11
-5.8169701534
 21
15.1585611539
 31
0.0
 11
-5.9769801323
 21
15.7663315884
 31
0.0
  0
SPLINE
  5
7FE
100
AcDbEntity
  8
0
100
AcDbSpline
 62
7
  6
CONTINUOUS
 70
0
 71
3
 72
10
 73
6
 74
4
 42
0.0000001
 43
0.0000001
 44
0.0000000001
 12
-0.175170713
 22
0.6429932004
 32
0.0
 13
-0.6190284601
 23
0.2468375985
 33
0.0
 40
0.0
 40
0.0
 40
0.0
 40
0.0
 40
0.4939032387
 40
0.7479365287
 40
1.0
 40
1.0
 40
1.0
 40
1.0
 10
-5.9769801323
 20
15.7663315884
 30
0.0
 10
-6.0058192598
 20
15.8721903964
 30
0.0
 10
-6.0489535171
 20
16.0343753237
 30
0.0
 10
-6.1672488627
 20
16.2257701728
 30
0.0
 10
-6.2618283052
 20
16.2947078954
 30
0.0
 10
-6.3138397927
 20
16.3154474761
 30
0.0
 11
-5.9769801323
 21
15.7663315884
 31
0.0
 11
-6.0825597599
 21
16.078089483
 31
0.0
 11
-6.1762272022
 21
16.2191110849
 31
0.0
 11
-6.3138397927
 21
16.3154474761
 31
0.0
  0
SPLINE
  5
7FF
100
AcDbEntity
  8
0
100
AcDbSpline
 62
7
  6
CONTINUOUS
 70
0
 71
3
 72
24
 73
20
 74
18
 42
0.0000001
 43
0.0000001
 44
0.0000000001
 12
1.732284408
 22
0.2235205688
 32
0.0
 13
-1.6421001289
 23
0.5951462205
 33
0.0
 40
0.0
 40
0.0
 40
0.0
 40
0.0
 40
0.0193979276
 40
0.0561067798
 40
0.1068645913
 40
0.1689835515
 40
0.240715158
 40
0.3215952789
 40
0.3657995498
 40
0.4128469595
 40
0.4631378499
 40
0.5171651256
 40
0.5607500765
 40
0.6019057046
 40
0.6780102423
 40
0.7473748184
 40
0.8109762383
 40
0.9205238865
 40
1.0
 40
1.0
 40
1.0
 40
1.0
 10
-6.3138397927
 20
16.3319912849
 30
0.0
 10
-6.3026388835
 20
16.3334365635
 30
0.0
 10
-6.2730579995
 20
16.3495775052
 30
0.0
 10
-6.2207501946
 20
16.3821754411
 30
0.0
 10
-6.1539168253
 20
16.4389938824
 30
0.0
 10
-6.0812373688
 20
16.5184416052
 30
0.0
 10
-6.0116101867
 20
16.6230045606
 30
0.0
 10
-5.9652465148
 20
16.7285414977
 30
0.0
 10
-5.938034089
 20
16.8251298544
 30
0.0
 10
-5.9234900269
 20
16.9063864244
 30
0.0
 10
-5.9166011446
 20
16.9943823613
 30
0.0
 10
-5.918167124
 20
17.080615378
 30
0.0
 10
-5.9266571887
 20
17.161055689
 30
0.0
 10
-5.9445006264
 20
17.2530828026
 30
0.0
 10
-5.9786248242
 20
17.3568491941
 30
0.0
 10
-6.0358934374
 20
17.4648763376
 30
0.0
 10
-6.1210528219
 20
17.5781316483
 30
0.0
 10
-6.232555097
 20
17.6763529949
 30
0.0
 10
-6.329978201
 20
17.730099477
 30
0.0
 10
-6.3734807797
 20
17.7458661132
 30
0.0
 11
-6.3138397927
 21
16.3319912849
 31
0.0
 11
-6.2824379
 21
16.3447138593
 31
0.0
 11
-6.2282844984
 21
16.3790423338
 31
0.0
 11
-6.1602047339
 21
16.4358315523
 31
0.0
 11
-6.087023754
 21
16.5159361845
 31
0.0
 11
-6.0175667056
 21
16.6202109435
 31
0.0
 11
-5.9606587359
 21
16.7495105423
 31
0.0
 11
-5.939668514
 21
16.8238117546
 31
0.0
 11
-5.9251249918
 21
16.9046896943
 31
0.0
 11
-5.9181313129
 21
16.9922512005
 31
0.0
 11
-5.9197906206
 21
17.0866031125
 31
0.0
 11
-5.9279211594
 21
17.1622951506
 31
0.0
 11
-5.9416623218
 21
17.2328538662
 31
0.0
 11
-5.9834832348
 21
17.3590314084
 31
0.0
 11
-6.0402667946
 21
17.4660558965
 31
0.0
 11
-6.1070264365
 21
17.5548474881
 31
0.0
 11
-6.2505277071
 21
17.6814126117
 31
0.0
 11
-6.3734807797
 21
17.7458661132
 31
0.0
  0
SPLINE
  5
800
100
AcDbEntity
  8
0
100
AcDbSpline
 62
7
  6
CONTINUOUS
 70
0
 71
3
 72
10
 73
6
 74
4
 42
0.0000001
 43
0.0000001
 44
0.0000000001
 12
-1.3674889598
 22
0.4949032572
 32
0.0
 13
-1.4387917159
 23
-0.2116707611
 33
0.0
 40
0.0
 40
0.0
 40
0.0
 40
0.0
 40
0.2957399575
 40
0.5850600175
 40
1.0
 40
1.0
 40
1.0
 40
1.0
 10
-6.3734807797
 20
17.7458661132
 30
0.0
 10
-6.508287822
 20
17.7946536693
 30
0.0
 10
-6.7920718729
 20
17.8420101237
 30
0.0
 10
-7.2770110164
 20
17.841919108
 30
0.0
 10
-7.6173200854
 20
17.8048414592
 30
0.0
 10
-7.8163241553
 20
17.7755645719
 30
0.0
 11
-6.3734807797
 21
17.7458661132
 31
0.0
 11
-6.7951691034
 21
17.830415801
 31
0.0
 11
-7.2158880815
 21
17.8356838257
 31
0.0
 11
-7.8163241553
 21
17.7755645719
 31
0.0
  0
SPLINE
  5
801
100
AcDbEntity
  8
0
100
AcDbSpline
 62
7
  6
CONTINUOUS
 70
0
 71
3
 72
11
 73
7
 74
5
 42
0.0000001
 43
0.0000001
 44
0.0000000001
 12
0.2622191459
 22
0.3975362729
 32
0.0
 13
0.2749508858
 23
0.3888392717
 33
0.0
 40
0.0
 40
0.0
 40
0.0
 40
0.0
 40
0.243654614
 40
0.492867173
 40
0.7456018656
 40
1.0
 40
1.0
 40
1.0
 40
1.0
 10
3.4123063547
 20
-21.6775335309
 30
0.0
 10
3.4336033229
 20
-21.6452463485
 30
0.0
 10
3.4772988815
 20
-21.5803413031
 30
0.0
 10
3.5445818579
 20
-21.4829648185
 30
0.0
 10
3.6135595411
 20
-21.3846911358
 30
0.0
 10
3.6600386816
 20
-21.3189602771
 30
0.0
 10
3.6833543458
 20
-21.2859869487
 30
0.0
 11
3.4123063547
 21
-21.6775335309
 31
0.0
 11
3.4769969315
 21
-21.5812042191
 31
0.0
 11
3.5443826602
 21
-21.4835075774
 31
0.0
 11
3.613464789
 21
-21.3849475221
 31
0.0
 11
3.6833543458
 21
-21.2859869487
 31
0.0
  0
SPLINE
  5
802
100
AcDbEntity
  8
0
100
AcDbSpline
 62
7
  6
CONTINUOUS
 70
0
 71
3
 72
11
 73
7
 74
5
 42
0.0000001
 43
0.0000001
 44
0.0000000001
 12
-0.2749508858
 22
0.3888392717
 32
0.0
 13
-0.2622191459
 23
0.3975362729
 33
0.0
 40
0.0
 40
0.0
 40
0.0
 40
0.0
 40
0.2543981344
 40
0.507132827
 40
0.756345386
 40
1.0
 40
1.0
 40
1.0
 40
1.0
 10
3.6833543458
 20
21.2859869487
 30
0.0
 10
3.6600386816
 20
21.3189602771
 30
0.0
 10
3.6135595411
 20
21.3846911358
 30
0.0
 10
3.5445818579
 20
21.4829648185
 30
0.0
 10
3.4772988815
 20
21.5803413031
 30
0.0
 10
3.4336033229
 20
21.6452463485
 30
0.0
 10
3.4123063547
 20
21.6775335309
 30
0.0
 11
3.6833543458
 21
21.2859869487
 31
0.0
 11
3.613464789
 21
21.3849475221
 31
0.0
 11
3.5443826602
 21
21.4835075774
 31
0.0
 11
3.4769969315
 21
21.5812042191
 31
0.0
 11
3.4123063547
 21
21.6775335309
 31
0.0
  0
SPLINE
  5
803
100
AcDbEntity
  8
0
100
AcDbSpline
 62
7
  6
CONTINUOUS
 70
0
 71
3
 72
11
 73
7
 74
5
 42
0.0000001
 43
0.0000001
 44
0.0000000001
 12
-0.2622191459
 22
-0.3975362729
 32
0.0
 13
-0.2749508858
 23
-0.3888392717
 33
0.0
 40
0.0
 40
0.0
 40
0.0
 40
0.0
 40
0.243654614
 40
0.492867173
 40
0.7456018656
 40
1.0
 40
1.0
 40
1.0
 40
1.0
 10
19.0876936453
 20
21.6775335309
 30
0.0
 10
19.0663966771
 20
21.6452463485
 30
0.0
 10
19.0227011185
 20
21.5803413031
 30
0.0
 10
18.9554181421
 20
21.4829648185
 30
0.0
 10
18.8864404589
 20
21.3846911358
 30
0.0
 10
18.8399613184
 20
21.3189602771
 30
0.0
 10
18.8166456542
 20
21.2859869487
 30
0.0
 11
19.0876936453
 21
21.6775335309
 31
0.0
 11
19.0230030685
 21
21.5812042191
 31
0.0
 11
18.9556173398
 21
21.4835075774
 31
0.0
 11
18.886535211
 21
21.3849475221
 31
0.0
 11
18.8166456542
 21
21.2859869487
 31
0.0
  0
SPLINE
  5
804
100
AcDbEntity
  8
0
100
AcDbSpline
 62
7
  6
CONTINUOUS
 70
0
 71
3
 72
11
 73
7
 74
5
 42
0.0000001
 43
0.0000001
 44
0.0000000001
 12
0.2749508858
 22
-0.3888392717
 32
0.0
 13
0.2622191459
 23
-0.3975362729
 33
0.0
 40
0.0
 40
0.0
 40
0.0
 40
0.0
 40
0.2543981344
 40
0.507132827
 40
0.756345386
 40
1.0
 40
1.0
 40
1.0
 40
1.0
 10
18.8166456542
 20
-21.2859869487
 30
0.0
 10
18.8399613184
 20
-21.3189602771
 30
0.0
 10
18.8864404589
 20
-21.3846911358
 30
0.0
 10
18.9554181421
 20
-21.4829648185
 30
0.0
 10
19.0227011185
 20
-21.5803413031
 30
0.0
 10
19.0663966771
 20
-21.6452463485
 30
0.0
 10
19.0876936453
 20
-21.6775335309
 30
0.0
 11
18.8166456542
 21
-21.2859869487
 31
0.0
 11
18.886535211
 21
-21.3849475221
 31
0.0
 11
18.9556173398
 21
-21.4835075774
 31
0.0
 11
19.0230030685
 21
-21.5812042191
 31
0.0
 11
19.0876936453
 21
-21.6775335309
 31
0.0
  0
SPLINE
  5
805
100
AcDbEntity
  8
0
100
AcDbSpline
 62
7
  6
CONTINUOUS
 70
0
 71
3
 72
11
 73
7
 74
5
 42
0.0000001
 43
0.0000001
 44
0.0000000001
 12
-0.0174745221
 22
7.3317666764
 32
0.0
 13
-0.006732848
 23
7.3317844093
 33
0.0
 40
0.0
 40
0.0
 40
0.0
 40
0.0
 40
0.2492020661
 40
0.4990117301
 40
0.7493125057
 40
1.0
 40
1.0
 40
1.0
 40
1.0
 10
20.7276785679
 20
-19.8317769306
 30
0.0
 10
20.7262270055
 20
-19.2227464627
 30
0.0
 10
20.7235459785
 20
-18.0032000551
 30
0.0
 10
20.7201933142
 20
-16.1719363968
 30
0.0
 10
20.7175055437
 20
-14.3370413568
 30
0.0
 10
20.7161586137
 20
-13.1126622208
 30
0.0
 10
20.7155960001
 20
-12.5
 30
0.0
 11
20.7276785679
 21
-19.8317769306
 31
0.0
 11
20.7236610423
 21
-18.0046847543
 31
0.0
 11
20.7203071212
 21
-16.1731364527
 31
0.0
 11
20.7176183935
 21
-14.3379863247
 31
0.0
 11
20.7155960001
 21
-12.5
 31
0.0
  0
SPLINE
  5
806
100
AcDbEntity
  8
0
100
AcDbSpline
 62
7
  6
CONTINUOUS
 70
0
 71
3
 72
11
 73
7
 74
5
 42
0.0000001
 43
0.0000001
 44
0.0000000001
 12
0.006732848
 22
7.3317844093
 32
0.0
 13
0.0174745221
 23
7.3317666764
 33
0.0
 40
0.0
 40
0.0
 40
0.0
 40
0.0
 40
0.2506874943
 40
0.5009882699
 40
0.7507979339
 40
1.0
 40
1.0
 40
1.0
 40
1.0
 10
20.7155960001
 20
12.5
 30
0.0
 10
20.7161586137
 20
13.1126622208
 30
0.0
 10
20.7175055437
 20
14.3370413568
 30
0.0
 10
20.7201933142
 20
16.1719363968
 30
0.0
 10
20.7235459785
 20
18.0032000551
 30
0.0
 10
20.7262270055
 20
19.2227464627
 30
0.0
 10
20.7276785679
 20
19.8317769306
 30
0.0
 11
20.7155960001
 21
12.5
 31
0.0
 11
20.7176183935
 21
14.3379863247
 31
0.0
 11
20.7203071212
 21
16.1731364527
 31
0.0
 11
20.7236610423
 21
18.0046847543
 31
0.0
 11
20.7276785679
 21
19.8317769306
 31
0.0
  0
SPLINE
  5
807
100
AcDbEntity
  8
0
100
AcDbSpline
 62
7
  6
CONTINUOUS
 70
0
 71
3
 72
11
 73
7
 74
5
 42
0.0000001
 43
0.0000001
 44
0.0000000001
 12
-0.006732848
 22
7.3317844093
 32
0.0
 13
-0.0174745221
 23
7.3317666764
 33
0.0
 40
0.0
 40
0.0
 40
0.0
 40
0.0
 40
0.2506874943
 40
0.5009882699
 40
0.7507979339
 40
1.0
 40
1.0
 40
1.0
 40
1.0
 10
-20.7155960001
 20
12.5
 30
0.0
 10
-20.7161586137
 20
13.1126622208
 30
0.0
 10
-20.7175055437
 20
14.3370413568
 30
0.0
 10
-20.7201933142
 20
16.1719363968
 30
0.0
 10
-20.7235459785
 20
18.0032000551
 30
0.0
 10
-20.7262270055
 20
19.2227464627
 30
0.0
 10
-20.7276785679
 20
19.8317769306
 30
0.0
 11
-20.7155960001
 21
12.5
 31
0.0
 11
-20.7176183935
 21
14.3379863247
 31
0.0
 11
-20.7203071212
 21
16.1731364527
 31
0.0
 11
-20.7236610423
 21
18.0046847543
 31
0.0
 11
-20.7276785679
 21
19.8317769306
 31
0.0
  0
SPLINE
  5
808
100
AcDbEntity
  8
0
100
AcDbSpline
 62
7
  6
CONTINUOUS
 70
0
 71
3
 72
11
 73
7
 74
5
 42
0.0000001
 43
0.0000001
 44
0.0000000001
 12
0.0174745221
 22
7.3317666764
 32
0.0
 13
0.006732848
 23
7.3317844093
 33
0.0
 40
0.0
 40
0.0
 40
0.0
 40
0.0
 40
0.2492020661
 40
0.4990117301
 40
0.7493125057
 40
1.0
 40
1.0
 40
1.0
 40
1.0
 10
-20.7276785679
 20
-19.8317769306
 30
0.0
 10
-20.7262270055
 20
-19.2227464627
 30
0.0
 10
-20.7235459785
 20
-18.0032000551
 30
0.0
 10
-20.7201933142
 20
-16.1719363968
 30
0.0
 10
-20.7175055437
 20
-14.3370413568
 30
0.0
 10
-20.7161586137
 20
-13.1126622208
 30
0.0
 10
-20.7155960001
 20
-12.5
 30
0.0
 11
-20.7276785679
 21
-19.8317769306
 31
0.0
 11
-20.7236610423
 21
-18.0046847543
 31
0.0
 11
-20.7203071212
 21
-16.1731364527
 31
0.0
 11
-20.7176183935
 21
-14.3379863247
 31
0.0
 11
-20.7155960001
 21
-12.5
 31
0.0
  0
LINE
  5
809
100
AcDbEntity
  8
0
100
AcDbLine
 62
7
  6
CONTINUOUS
 10
-20.7276785679
 20
19.8317769306
 11
-20.0293058381
 21
20.5379423332
  0
LINE
  5
80A
100
AcDbEntity
  8
0
100
AcDbLine
 62
7
  6
CONTINUOUS
 10
20.7276785679
 20
19.8317769306
 11
20.0293058381
 21
20.5379423332
  0
LINE
  5
80B
100
AcDbEntity
  8
0
100
AcDbLine
 62
7
  6
CONTINUOUS
 10
20.7276785679
 20
-19.8317769306
 11
20.0293058381
 21
-20.5379423332
  0
LINE
  5
80C
100
AcDbEntity
  8
0
100
AcDbLine
 62
7
  6
CONTINUOUS
 10
-20.7276785679
 20
-19.8317769306
 11
-20.0293058381
 21
-20.5379423332
  0
SPLINE
  5
80D
100
AcDbEntity
  8
0
100
AcDbSpline
 62
7
  6
CONTINUOUS
 70
0
 71
3
 72
20
 73
16
 74
14
 42
0.0000001
 43
0.0000001
 44
0.0000000001
 12
-0.0273309181
 22
-0.6365193453
 32
0.0
 13
-0.4258925635
 23
-0.4738347605
 33
0.0
 40
0.0
 40
0.0
 40
0.0
 40
0.0
 40
0.0159872484
 40
0.0395353773
 40
0.0717217246
 40
0.1137514476
 40
0.1665212875
 40
0.2308718837
 40
0.3073208095
 40
0.3963993416
 40
0.4984579746
 40
0.6131144546
 40
0.7377879217
 40
0.8681762794
 40
1.0
 40
1.0
 40
1.0
 40
1.0
 10
-14.8075937104
 20
23.755948138
 30
0.0
 10
-14.8077393591
 20
23.7525560737
 30
0.0
 10
-14.8102116694
 20
23.744355054
 30
0.0
 10
-14.81701755
 20
23.7307527793
 30
0.0
 10
-14.8280266234
 20
23.7131017683
 30
0.0
 10
-14.8435658136
 20
23.6910620202
 30
0.0
 10
-14.8640472654
 20
23.6641654387
 30
0.0
 10
-14.8897693824
 20
23.632097012
 30
0.0
 10
-14.920991299
 20
23.5945644085
 30
0.0
 10
-14.9578954875
 20
23.5513499719
 30
0.0
 10
-15.00053352
 20
23.5023660579
 30
0.0
 10
-15.0485072922
 20
23.4480074951
 30
0.0
 10
-15.1007400883
 20
23.3893848428
 30
0.0
 10
-15.1555787281
 20
23.328201642
 30
0.0
 10
-15.1928035449
 20
23.2867866556
 30
0.0
 10
-15.2115177923
 20
23.2659657686
 30
0.0
 11
-14.8075937104
 21
23.755948138
 31
0.0
 11
-14.8099480523
 21
23.7460384005
 31
0.0
 11
-14.8163741005
 21
23.7324816521
 31
0.0
 11
-14.8270544269
 21
23.7149764764
 31
0.0
 11
-14.842369379
 21
23.6930110391
 31
0.0
 11
-14.8626565427
 21
23.6662018318
 31
0.0
 11
-14.8882480751
 21
23.6341718299
 31
0.0
 11
-14.9193499482
 21
23.5966891203
 31
0.0
 11
-14.956168387
 21
23.5535006551
 31
0.0
 11
-14.9988294082
 21
23.5044301196
 31
0.0
 11
-15.0471409499
 21
23.4496391438
 31
0.0
 11
-15.0999611359
 21
23.3903164354
 31
0.0
 11
-15.1553895843
 21
23.3284414903
 31
0.0
 11
-15.2115177923
 21
23.2659657686
 31
0.0
  0
SPLINE
  5
80E
100
AcDbEntity
  8
0
100
AcDbSpline
 62
7
  6
CONTINUOUS
 70
0
 71
3
 72
20
 73
16
 74
14
 42
0.0000001
 43
0.0000001
 44
0.0000000001
 12
-0.4260808566
 22
0.4740442496
 32
0.0
 13
-0.0166604566
 23
0.6371697389
 33
0.0
 40
0.0
 40
0.0
 40
0.0
 40
0.0
 40
0.1322409039
 40
0.2628730871
 40
0.3876885393
 40
0.502485347
 40
0.6046497038
 40
0.6937562087
 40
0.7701488815
 40
0.8343750395
 40
0.8869820922
 40
0.9288315508
 40
0.9608390866
 40
0.9841980846
 40
1.0
 40
1.0
 40
1.0
 40
1.0
 10
-15.2115177923
 20
23.2659657686
 30
0.0
 10
-15.2302995648
 20
23.2868617819
 30
0.0
 10
-15.2676347222
 20
23.328399526
 30
0.0
 10
-15.3226109043
 20
23.3897373344
 30
0.0
 10
-15.3749396449
 20
23.4484707169
 30
0.0
 10
-15.4229863572
 20
23.5029176218
 30
0.0
 10
-15.4656768005
 20
23.5519711841
 30
0.0
 10
-15.5026009259
 20
23.5952232796
 30
0.0
 10
-15.5338058992
 20
23.6327559236
 30
0.0
 10
-15.5594801484
 20
23.6647924403
 30
0.0
 10
-15.5798924741
 20
23.6916360085
 30
0.0
 10
-15.5953504354
 20
23.7136113771
 30
0.0
 10
-15.6062695653
 20
23.7311943894
 30
0.0
 10
-15.6129763953
 20
23.7447193828
 30
0.0
 10
-15.6153639622
 20
23.7528764279
 30
0.0
 10
-15.6154517179
 20
23.7562325953
 30
0.0
 11
-15.2115177923
 21
23.2659657686
 31
0.0
 11
-15.2678484168
 21
23.328667012
 31
0.0
 11
-15.3234043906
 21
23.3906856763
 31
0.0
 11
-15.3763064596
 21
23.4501036717
 31
0.0
 11
-15.4246954719
 21
23.5049886426
 31
0.0
 11
-15.4674145894
 21
23.554136055
 31
0.0
 11
-15.5042533864
 21
23.5973635639
 31
0.0
 11
-15.5353355273
 21
23.6348440345
 31
0.0
 11
-15.5608744551
 21
23.6668377394
 31
0.0
 11
-15.5810886551
 21
23.6935906712
 31
0.0
 11
-15.5963183468
 21
23.7154898942
 31
0.0
 11
-15.6069064186
 21
23.7329284106
 31
0.0
 11
-15.6132249934
 21
23.7464098795
 31
0.0
 11
-15.6154517179
 21
23.7562325953
 31
0.0
  0
SPLINE
  5
80F
100
AcDbEntity
  8
0
100
AcDbSpline
 62
7
  6
CONTINUOUS
 70
0
 71
3
 72
20
 73
16
 74
14
 42
0.0000001
 43
0.0000001
 44
0.0000000001
 12
-0.0166604572
 22
-0.6371697617
 32
0.0
 13
-0.4260808719
 23
-0.4740442666
 33
0.0
 40
0.0
 40
0.0
 40
0.0
 40
0.0
 40
0.0157966061
 40
0.0391513397
 40
0.0711523361
 40
0.1130071515
 40
0.1656255935
 40
0.2298658313
 40
0.3062635936
 40
0.3953610635
 40
0.4975091774
 40
0.6123111915
 40
0.7371681441
 40
0.8678171631
 40
1.0
 40
1.0
 40
1.0
 40
1.0
 10
-6.8845482821
 20
23.7562325953
 30
0.0
 10
-6.8846360083
 20
23.7528775554
 30
0.0
 10
-6.887022432
 20
23.7447224155
 30
0.0
 10
-6.8937272369
 20
23.7312001639
 30
0.0
 10
-6.9046452046
 20
23.7136178191
 30
0.0
 10
-6.9201041513
 20
23.6916404705
 30
0.0
 10
-6.9405203874
 20
23.6647916464
 30
0.0
 10
-6.9661987984
 20
23.6327501396
 30
0.0
 10
-6.9974052781
 20
23.5952159466
 30
0.0
 10
-7.0343266946
 20
23.5519671759
 30
0.0
 10
-7.0770143428
 20
23.5029168317
 30
0.0
 10
-7.125065334
 20
23.4484650669
 30
0.0
 10
-7.177403104
 20
23.3897216437
 30
0.0
 10
-7.2323793792
 20
23.328383838
 30
0.0
 10
-7.2697086816
 20
23.2868526072
 30
0.0
 10
-7.2884822077
 20
23.2659657686
 30
0.0
 11
-6.8845482821
 21
23.7562325953
 31
0.0
 11
-6.8867738333
 21
23.7464130831
 31
0.0
 11
-6.8930906437
 21
23.7329337884
 31
0.0
 11
-6.9036760086
 21
23.7154985041
 31
0.0
 11
-6.9189072967
 21
23.6935962311
 31
0.0
 11
-6.9391257809
 21
23.6668374363
 31
0.0
 11
-6.964670386
 21
23.6348367786
 31
0.0
 11
-6.9957547309
 21
23.5973539191
 31
0.0
 11
-7.0325898807
 21
23.5541308655
 31
0.0
 11
-7.0753022208
 21
23.5049912766
 31
0.0
 11
-7.1236934206
 21
23.4501038068
 31
0.0
 11
-7.176613116
 21
23.3906660841
 31
0.0
 11
-7.232176303
 21
23.3286394704
 31
0.0
 11
-7.2884822077
 21
23.2659657686
 31
0.0
  0
SPLINE
  5
810
100
AcDbEntity
  8
0
100
AcDbSpline
 62
7
  6
CONTINUOUS
 70
0
 71
3
 72
20
 73
16
 74
14
 42
0.0000001
 43
0.0000001
 44
0.0000000001
 12
-0.4258925497
 22
0.4738347451
 32
0.0
 13
-0.0273309172
 23
0.6365193246
 33
0.0
 40
0.0
 40
0.0
 40
0.0
 40
0.0
 40
0.1318826192
 40
0.2622539236
 40
0.3868859902
 40
0.5015377921
 40
0.603612993
 40
0.6927007189
 40
0.7691443518
 40
0.8334803957
 40
0.8862385626
 40
0.9282628168
 40
0.9604553999
 40
0.9840076025
 40
1.0
 40
1.0
 40
1.0
 40
1.0
 10
-7.2884822077
 20
23.2659657686
 30
0.0
 10
-7.307204816
 20
23.2867959577
 30
0.0
 10
-7.3444355725
 20
23.3282175517
 30
0.0
 10
-7.3992742201
 20
23.3894008687
 30
0.0
 10
-7.4514980479
 20
23.4480135511
 30
0.0
 10
-7.4994676745
 20
23.5023674105
 30
0.0
 10
-7.5421086372
 20
23.5513547077
 30
0.0
 10
-7.5790155647
 20
23.5945725196
 30
0.0
 10
-7.6102358942
 20
23.6321034999
 30
0.0
 10
-7.635953709
 20
23.6641667919
 30
0.0
 10
-7.6564311219
 20
23.691057987
 30
0.0
 10
-7.671969221
 20
23.7130956504
 30
0.0
 10
-7.6829793581
 20
23.7307472336
 30
0.0
 10
-7.6897871841
 20
23.7443521377
 30
0.0
 10
-7.692260594
 20
23.7525549813
 30
0.0
 10
-7.6924062896
 20
23.755948138
 30
0.0
 11
-7.2884822077
 21
23.2659657686
 31
0.0
 11
-7.3446354788
 21
23.3284694141
 31
0.0
 11
-7.4000566244
 21
23.3903363108
 31
0.0
 11
-7.4528592328
 21
23.4496393498
 31
0.0
 11
-7.5011688077
 21
23.5044280831
 31
0.0
 11
-7.5438367344
 21
23.5535065991
 31
0.0
 11
-7.5806588768
 21
23.5966996015
 31
0.0
 11
-7.6117584523
 21
23.6341798336
 31
0.0
 11
-7.6373441058
 21
23.6662026638
 31
0.0
 11
-7.6576268584
 21
23.6930058815
 31
0.0
 11
-7.6729401475
 21
23.7149682297
 31
0.0
 11
-7.6836230555
 21
23.7324764833
 31
0.0
 11
-7.6900507903
 21
23.746035304
 31
0.0
 11
-7.6924062896
 21
23.755948138
 31
0.0
  0
SPLINE
  5
811
100
AcDbEntity
  8
0
100
AcDbSpline
 62
7
  6
CONTINUOUS
 70
0
 71
3
 72
20
 73
16
 74
14
 42
0.0000001
 43
0.0000001
 44
0.0000000001
 12
0.0273309204
 22
0.6365193985
 32
0.0
 13
0.4258925992
 23
0.4738348002
 33
0.0
 40
0.0
 40
0.0
 40
0.0
 40
0.0
 40
0.0159689408
 40
0.039495951
 40
0.0717158176
 40
0.1138445699
 40
0.1667373501
 40
0.2311988604
 40
0.3076914735
 40
0.3968178397
 40
0.4989691974
 40
0.6138264744
 40
0.7386299247
 40
0.8688458992
 40
1.0
 40
1.0
 40
1.0
 40
1.0
 10
-7.6924062896
 20
-23.755948138
 30
0.0
 10
-7.6922608077
 20
-23.7525599578
 30
0.0
 10
-7.6897928298
 20
-23.7443667921
 30
0.0
 10
-7.6829895364
 20
-23.7307644042
 30
0.0
 10
-7.6719684212
 20
-23.7130929233
 30
0.0
 10
-7.6563965801
 20
-23.69100977
 30
0.0
 10
-7.6358697291
 20
-23.6640588752
 30
0.0
 10
-7.6101078137
 20
-23.6319468087
 30
0.0
 10
-7.5788558397
 20
-23.5943832897
 30
0.0
 10
-7.5419241381
 20
-23.5511408909
 30
0.0
 10
-7.4992366976
 20
-23.5021038683
 30
0.0
 10
-7.4512017009
 20
-23.4476793745
 30
0.0
 10
-7.3989451167
 20
-23.3890328557
 30
0.0
 10
-7.3442066772
 20
-23.3279628967
 30
0.0
 10
-7.3071013947
 20
-23.2866808943
 30
0.0
 10
-7.2884822077
 20
-23.2659657686
 30
0.0
 11
-7.6924062896
 21
-23.755948138
 31
0.0
 11
-7.6900560616
 21
-23.7460494109
 31
0.0
 11
-7.6836380508
 21
-23.7325037413
 31
0.0
 11
-7.6729476785
 21
-23.7149796767
 31
0.0
 11
-7.6575956825
 21
-23.6929631511
 31
0.0
 11
-7.6372588482
 21
-23.6660933029
 31
0.0
 11
-7.6116202813
 21
-23.6340104275
 31
0.0
 11
-7.5804979669
 21
-23.5965085067
 31
0.0
 11
-7.543657591
 21
-23.5532986902
 31
0.0
 11
-7.500955973
 21
-23.5041851623
 31
0.0
 11
-7.45255812
 21
-23.4492997255
 31
0.0
 11
-7.3996814265
 21
-23.3899164391
 31
0.0
 11
-7.3443254559
 21
-23.3281240072
 31
0.0
 11
-7.2884822077
 21
-23.2659657686
 31
0.0
  0
SPLINE
  5
812
100
AcDbEntity
  8
0
100
AcDbSpline
 62
7
  6
CONTINUOUS
 70
0
 71
3
 72
20
 73
16
 74
14
 42
0.0000001
 43
0.0000001
 44
0.0000000001
 12
0.4260808996
 22
-0.4740442974
 32
0.0
 13
0.0166604583
 23
-0.6371698032
 33
0.0
 40
0.0
 40
0.0
 40
0.0
 40
0.0
 40
0.1315901813
 40
0.2620527276
 40
0.386996807
 40
0.5019908922
 40
0.6042482501
 40
0.6934053592
 40
0.7698429769
 40
0.8341772544
 40
0.8869029406
 40
0.9288470955
 40
0.9608815698
 40
0.9842172113
 40
1.0
 40
1.0
 40
1.0
 40
1.0
 10
-7.2884822077
 20
-23.2659657686
 30
0.0
 10
-7.2697928534
 20
-23.2867589602
 30
0.0
 10
-7.2325742085
 20
-23.3281670822
 30
0.0
 10
-7.1776954074
 20
-23.3893948225
 30
0.0
 10
-7.1253431988
 20
-23.4481517726
 30
0.0
 10
-7.0772359253
 20
-23.5026639455
 30
0.0
 10
-7.0344961751
 20
-23.5517706156
 30
0.0
 10
-6.9975440144
 20
-23.5950514549
 30
0.0
 10
-6.9663089377
 20
-23.6326153442
 30
0.0
 10
-6.9405958451
 20
-23.6646947127
 30
0.0
 10
-6.9201398326
 20
-23.6915908866
 30
0.0
 10
-6.9046513738
 20
-23.7136072598
 30
0.0
 10
-6.8937220114
 20
-23.7312085748
 30
0.0
 10
-6.8870188838
 20
-23.7447319644
 30
0.0
 10
-6.8846359316
 20
-23.7528804899
 30
0.0
 10
-6.8845482821
 20
-23.7562325953
 30
0.0
 11
-7.2884822077
 21
-23.2659657686
 31
0.0
 11
-7.2324286209
 21
-23.3283583519
 31
0.0
 11
-7.1769440037
 21
-23.3902957855
 31
0.0
 11
-7.1239860091
 21
-23.4497737707
 31
0.0
 11
-7.0755121771
 21
-23.5047516043
 31
0.0
 11
-7.0327523877
 21
-23.5539422136
 31
0.0
 11
-6.9958905876
 21
-23.5971925049
 31
0.0
 11
-6.9647876254
 21
-23.6346929312
 31
0.0
 11
-6.9392029657
 21
-23.6667383134
 31
0.0
 11
-6.9189410064
 21
-23.6935499365
 31
0.0
 11
-6.9036761777
 21
-23.7154982463
 31
0.0
 11
-6.8930805522
 21
-23.7329522659
 31
0.0
 11
-6.8867707804
 21
-23.746421421
 31
0.0
 11
-6.8845482821
 21
-23.7562325953
 31
0.0
  0
SPLINE
  5
813
100
AcDbEntity
  8
0
100
AcDbSpline
 62
7
  6
CONTINUOUS
 70
0
 71
3
 72
20
 73
16
 74
14
 42
0.0000001
 43
0.0000001
 44
0.0000000001
 12
0.0166604588
 22
0.6371698225
 32
0.0
 13
0.4260809125
 23
0.4740443118
 33
0.0
 40
0.0
 40
0.0
 40
0.0
 40
0.0
 40
0.0157781165
 40
0.0391100726
 40
0.0711401266
 40
0.1130912899
 40
0.1658303468
 40
0.2301807718
 40
0.3066231278
 40
0.3957698229
 40
0.4980103582
 40
0.6130115042
 40
0.737998525
 40
0.8684772219
 40
1.0
 40
1.0
 40
1.0
 40
1.0
 10
-15.6154517179
 20
-23.7562325953
 30
0.0
 10
-15.6153640943
 20
-23.7528814821
 30
0.0
 10
-15.6129821435
 20
-23.7447346195
 30
0.0
 10
-15.6062806617
 20
-23.7312133779
 30
0.0
 10
-15.5953518675
 20
-23.7136120044
 30
0.0
 10
-15.5798616221
 20
-23.6915927237
 30
0.0
 10
-15.5594008704
 20
-23.6646904019
 30
0.0
 10
-15.5336830396
 20
-23.6326054993
 30
0.0
 10
-15.5024463467
 20
-23.5950400596
 30
0.0
 10
-15.4654971726
 20
-23.5517629539
 30
0.0
 10
-15.4227602058
 20
-23.502659542
 30
0.0
 10
-15.3746482504
 20
-23.4481420958
 30
0.0
 10
-15.3222866268
 20
-23.3893747065
 30
0.0
 10
-15.2674089405
 20
-23.328148335
 30
0.0
 10
-15.2301975741
 20
-23.2867483102
 30
0.0
 10
-15.2115177923
 20
-23.2659657686
 30
0.0
 11
-15.6154517179
 21
-23.7562325953
 31
0.0
 11
-15.6132302516
 21
-23.7464242403
 31
0.0
 11
-15.6069220117
 21
-23.7329569612
 31
0.0
 11
-15.5963282993
 21
-23.7155050754
 31
0.0
 11
-15.5810611691
 21
-23.693552924
 31
0.0
 11
-15.5607940675
 21
-23.6667345037
 31
0.0
 11
-15.5352028201
 21
-23.6346812093
 31
0.0
 11
-15.5040977282
 21
-23.5971786236
 31
0.0
 11
-15.4672401014
 21
-23.5539334947
 31
0.0
 11
-15.4244873042
 21
-23.5047510121
 31
0.0
 11
-15.3760104816
 21
-23.4497698124
 31
0.0
 11
-15.3230342325
 21
-23.39027143
 31
0.0
 11
-15.2675426839
 21
-23.3283263816
 31
0.0
 11
-15.2115177923
 21
-23.2659657686
 31
0.0
  0
SPLINE
  5
814
100
AcDbEntity
  8
0
100
AcDbSpline
 62
7
  6
CONTINUOUS
 70
0
 71
3
 72
20
 73
16
 74
14
 42
0.0000001
 43
0.0000001
 44
0.0000000001
 12
0.4258925876
 22
-0.4738347873
 32
0.0
 13
0.0273309197
 23
-0.6365193811
 33
0.0
 40
0.0
 40
0.0
 40
0.0
 40
0.0
 40
0.1312225557
 40
0.2614220709
 40
0.3861825708
 40
0.5010332171
 40
0.603201725
 40
0.6923386883
 40
0.7688264237
 40
0.8332713088
 40
0.8861504123
 40
0.9282720388
 40
0.9604959628
 40
0.9840265574
 40
1.0
 40
1.0
 40
1.0
 40
1.0
 10
-15.2115177923
 20
-23.2659657686
 30
0.0
 10
-15.1928888877
 20
-23.2866917058
 30
0.0
 10
-15.1557762243
 20
-23.3279819192
 30
0.0
 10
-15.1010365669
 20
-23.3890533632
 30
0.0
 10
-15.0487893788
 20
-23.4476894665
 30
0.0
 10
-15.0007589591
 20
-23.502108811
 30
0.0
 10
-14.9580686095
 20
-23.5511492451
 30
0.0
 10
-14.921133878
 20
-23.5943954418
 30
0.0
 10
-14.8898835889
 20
-23.6319573493
 30
0.0
 10
-14.8641265465
 20
-23.6640637431
 30
0.0
 10
-14.8436045668
 20
-23.6910083541
 30
0.0
 10
-14.8280346276
 20
-23.7130884801
 30
0.0
 10
-14.8170130384
 20
-23.7307598115
 30
0.0
 10
-14.8102081736
 20
-23.7443642376
 30
0.0
 10
-14.8077392333
 20
-23.7525590027
 30
0.0
 10
-14.8075937104
 20
-23.755948138
 30
0.0
 11
-15.2115177923
 21
-23.2659657686
 31
0.0
 11
-15.1556454137
 21
-23.3281564621
 31
0.0
 11
-15.1002965031
 21
-23.3899411368
 31
0.0
 11
-15.0474380614
 21
-23.4493040325
 31
0.0
 11
-14.999043019
 21
-23.5041863127
 31
0.0
 11
-14.9563342791
 21
-23.5533081251
 31
0.0
 11
-14.919489663
 21
-23.5965231965
 31
0.0
 11
-14.888369545
 21
-23.6340229
 31
0.0
 11
-14.8627377687
 21
-23.666097642
 31
0.0
 11
-14.8424062116
 21
-23.6929605553
 31
0.0
 11
-14.8270565843
 21
-23.714973197
 31
0.0
 11
-14.8163644419
 21
-23.7324992093
 31
0.0
 11
-14.8099449498
 21
-23.7460467034
 31
0.0
 11
-14.8075937104
 21
-23.755948138
 31
0.0
  0
SPLINE
  5
815
100
AcDbEntity
  8
0
100
AcDbSpline
 62
7
  6
CONTINUOUS
 70
0
 71
3
 72
20
 73
16
 74
14
 42
0.0000001
 43
0.0000001
 44
0.0000000001
 12
-0.0273309181
 22
-0.6365193453
 32
0.0
 13
-0.4258925635
 23
-0.4738347605
 33
0.0
 40
0.0
 40
0.0
 40
0.0
 40
0.0
 40
0.0159872484
 40
0.0395353773
 40
0.0717217246
 40
0.1137514476
 40
0.1665212875
 40
0.2308718837
 40
0.3073208095
 40
0.3963993416
 40
0.4984579746
 40
0.6131144546
 40
0.7377879217
 40
0.8681762794
 40
1.0
 40
1.0
 40
1.0
 40
1.0
 10
7.6924062896
 20
23.755948138
 30
0.0
 10
7.6922606409
 20
23.7525560737
 30
0.0
 10
7.6897883306
 20
23.744355054
 30
0.0
 10
7.68298245
 20
23.7307527793
 30
0.0
 10
7.6719733766
 20
23.7131017683
 30
0.0
 10
7.6564341864
 20
23.6910620202
 30
0.0
 10
7.6359527346
 20
23.6641654387
 30
0.0
 10
7.6102306176
 20
23.632097012
 30
0.0
 10
7.579008701
 20
23.5945644085
 30
0.0
 10
7.5421045125
 20
23.5513499719
 30
0.0
 10
7.49946648
 20
23.5023660579
 30
0.0
 10
7.4514927078
 20
23.4480074951
 30
0.0
 10
7.3992599117
 20
23.3893848428
 30
0.0
 10
7.3444212719
 20
23.328201642
 30
0.0
 10
7.3071964551
 20
23.2867866556
 30
0.0
 10
7.2884822077
 20
23.2659657686
 30
0.0
 11
7.6924062896
 21
23.755948138
 31
0.0
 11
7.6900519477
 21
23.7460384005
 31
0.0
 11
7.6836258995
 21
23.7324816521
 31
0.0
 11
7.6729455731
 21
23.7149764764
 31
0.0
 11
7.657630621
 21
23.6930110391
 31
0.0
 11
7.6373434573
 21
23.6662018318
 31
0.0
 11
7.6117519249
 21
23.6341718299
 31
0.0
 11
7.5806500518
 21
23.5966891203
 31
0.0
 11
7.543831613
 21
23.5535006551
 31
0.0
 11
7.5011705918
 21
23.5044301196
 31
0.0
 11
7.4528590502
 21
23.4496391438
 31
0.0
 11
7.4000388641
 21
23.3903164354
 31
0.0
 11
7.3446104157
 21
23.3284414903
 31
0.0
 11
7.2884822077
 21
23.2659657686
 31
0.0
  0
SPLINE
  5
816
100
AcDbEntity
  8
0
100
AcDbSpline
 62
7
  6
CONTINUOUS
 70
0
 71
3
 72
20
 73
16
 74
14
 42
0.0000001
 43
0.0000001
 44
0.0000000001
 12
-0.4260808566
 22
0.4740442496
 32
0.0
 13
-0.0166604566
 23
0.6371697389
 33
0.0
 40
0.0
 40
0.0
 40
0.0
 40
0.0
 40
0.1322409039
 40
0.2628730871
 40
0.3876885393
 40
0.502485347
 40
0.6046497038
 40
0.6937562087
 40
0.7701488815
 40
0.8343750395
 40
0.8869820922
 40
0.9288315508
 40
0.9608390866
 40
0.9841980846
 40
1.0
 40
1.0
 40
1.0
 40
1.0
 10
7.2884822077
 20
23.2659657686
 30
0.0
 10
7.2697004352
 20
23.2868617819
 30
0.0
 10
7.2323652778
 20
23.328399526
 30
0.0
 10
7.1773890957
 20
23.3897373344
 30
0.0
 10
7.1250603551
 20
23.448470717
 30
0.0
 10
7.0770136428
 20
23.5029176218
 30
0.0
 10
7.0343231995
 20
23.5519711841
 30
0.0
 10
6.9973990741
 20
23.5952232796
 30
0.0
 10
6.9661941008
 20
23.6327559236
 30
0.0
 10
6.9405198516
 20
23.6647924403
 30
0.0
 10
6.9201075259
 20
23.6916360085
 30
0.0
 10
6.9046495646
 20
23.7136113771
 30
0.0
 10
6.8937304347
 20
23.7311943894
 30
0.0
 10
6.8870236047
 20
23.7447193828
 30
0.0
 10
6.8846360378
 20
23.7528764279
 30
0.0
 10
6.8845482821
 20
23.7562325953
 30
0.0
 11
7.2884822077
 21
23.2659657686
 31
0.0
 11
7.2321515832
 21
23.328667012
 31
0.0
 11
7.1765956094
 21
23.3906856763
 31
0.0
 11
7.1236935404
 21
23.4501036717
 31
0.0
 11
7.0753045281
 21
23.5049886426
 31
0.0
 11
7.0325854106
 21
23.554136055
 31
0.0
 11
6.9957466136
 21
23.5973635639
 31
0.0
 11
6.9646644727
 21
23.6348440345
 31
0.0
 11
6.9391255449
 21
23.6668377394
 31
0.0
 11
6.9189113449
 21
23.6935906712
 31
0.0
 11
6.9036816532
 21
23.7154898942
 31
0.0
 11
6.8930935814
 21
23.7329284106
 31
0.0
 11
6.8867750066
 21
23.7464098795
 31
0.0
 11
6.8845482821
 21
23.7562325953
 31
0.0
  0
SPLINE
  5
817
100
AcDbEntity
  8
0
100
AcDbSpline
 62
7
  6
CONTINUOUS
 70
0
 71
3
 72
20
 73
16
 74
14
 42
0.0000001
 43
0.0000001
 44
0.0000000001
 12
-0.0166604572
 22
-0.6371697617
 32
0.0
 13
-0.4260808719
 23
-0.4740442666
 33
0.0
 40
0.0
 40
0.0
 40
0.0
 40
0.0
 40
0.0157966061
 40
0.0391513397
 40
0.0711523361
 40
0.1130071515
 40
0.1656255935
 40
0.2298658313
 40
0.3062635936
 40
0.3953610635
 40
0.4975091774
 40
0.6123111915
 40
0.7371681441
 40
0.8678171632
 40
1.0
 40
1.0
 40
1.0
 40
1.0
 10
15.6154517179
 20
23.7562325953
 30
0.0
 10
15.6153639917
 20
23.7528775554
 30
0.0
 10
15.612977568
 20
23.7447224155
 30
0.0
 10
15.6062727631
 20
23.7312001639
 30
0.0
 10
15.5953547954
 20
23.7136178191
 30
0.0
 10
15.5798958487
 20
23.6916404705
 30
0.0
 10
15.5594796126
 20
23.6647916464
 30
0.0
 10
15.5338012015
 20
23.6327501396
 30
0.0
 10
15.5025947219
 20
23.5952159466
 30
0.0
 10
15.4656733054
 20
23.5519671759
 30
0.0
 10
15.4229856572
 20
23.5029168317
 30
0.0
 10
15.374934666
 20
23.4484650669
 30
0.0
 10
15.322596896
 20
23.3897216437
 30
0.0
 10
15.2676206208
 20
23.3283838379
 30
0.0
 10
15.2302913184
 20
23.2868526072
 30
0.0
 10
15.2115177923
 20
23.2659657686
 30
0.0
 11
15.6154517179
 21
23.7562325953
 31
0.0
 11
15.6132261667
 21
23.7464130831
 31
0.0
 11
15.6069093563
 21
23.7329337884
 31
0.0
 11
15.5963239914
 21
23.7154985041
 31
0.0
 11
15.5810927033
 21
23.6935962311
 31
0.0
 11
15.5608742191
 21
23.6668374363
 31
0.0
 11
15.535329614
 21
23.6348367786
 31
0.0
 11
15.5042452691
 21
23.5973539191
 31
0.0
 11
15.4674101193
 21
23.5541308655
 31
0.0
 11
15.4246977792
 21
23.5049912766
 31
0.0
 11
15.3763065793
 21
23.4501038068
 31
0.0
 11
15.3233868839
 21
23.3906660841
 31
0.0
 11
15.267823697
 21
23.3286394704
 31
0.0
 11
15.2115177923
 21
23.2659657686
 31
0.0
  0
SPLINE
  5
818
100
AcDbEntity
  8
0
100
AcDbSpline
 62
7
  6
CONTINUOUS
 70
0
 71
3
 72
20
 73
16
 74
14
 42
0.0000001
 43
0.0000001
 44
0.0000000001
 12
-0.4258925497
 22
0.4738347451
 32
0.0
 13
-0.0273309172
 23
0.6365193246
 33
0.0
 40
0.0
 40
0.0
 40
0.0
 40
0.0
 40
0.1318826192
 40
0.2622539236
 40
0.3868859902
 40
0.5015377921
 40
0.603612993
 40
0.6927007188
 40
0.7691443518
 40
0.8334803957
 40
0.8862385626
 40
0.9282628168
 40
0.9604553999
 40
0.9840076025
 40
1.0
 40
1.0
 40
1.0
 40
1.0
 10
15.2115177923
 20
23.2659657686
 30
0.0
 10
15.192795184
 20
23.2867959577
 30
0.0
 10
15.1555644275
 20
23.3282175517
 30
0.0
 10
15.1007257799
 20
23.3894008687
 30
0.0
 10
15.0485019521
 20
23.4480135511
 30
0.0
 10
15.0005323255
 20
23.5023674105
 30
0.0
 10
14.9578913628
 20
23.5513547077
 30
0.0
 10
14.9209844353
 20
23.5945725196
 30
0.0
 10
14.8897641058
 20
23.6321034999
 30
0.0
 10
14.864046291
 20
23.6641667919
 30
0.0
 10
14.8435688781
 20
23.691057987
 30
0.0
 10
14.828030779
 20
23.7130956504
 30
0.0
 10
14.8170206419
 20
23.7307472336
 30
0.0
 10
14.8102128159
 20
23.7443521377
 30
0.0
 10
14.807739406
 20
23.7525549813
 30
0.0
 10
14.8075937104
 20
23.755948138
 30
0.0
 11
15.2115177923
 21
23.2659657686
 31
0.0
 11
15.1553645212
 21
23.3284694141
 31
0.0
 11
15.0999433756
 21
23.3903363108
 31
0.0
 11
15.0471407672
 21
23.4496393498
 31
0.0
 11
14.9988311923
 21
23.5044280831
 31
0.0
 11
14.9561632656
 21
23.5535065991
 31
0.0
 11
14.9193411232
 21
23.5966996015
 31
0.0
 11
14.8882415477
 21
23.6341798336
 31
0.0
 11
14.8626558942
 21
23.6662026638
 31
0.0
 11
14.8423731416
 21
23.6930058815
 31
0.0
 11
14.8270598525
 21
23.7149682297
 31
0.0
 11
14.8163769445
 21
23.7324764833
 31
0.0
 11
14.8099492097
 21
23.746035304
 31
0.0
 11
14.8075937104
 21
23.755948138
 31
0.0
  0
SPLINE
  5
819
100
AcDbEntity
  8
0
100
AcDbSpline
 62
7
  6
CONTINUOUS
 70
0
 71
3
 72
20
 73
16
 74
14
 42
0.0000001
 43
0.0000001
 44
0.0000000001
 12
0.0166604588
 22
0.6371698225
 32
0.0
 13
0.4260809125
 23
0.4740443118
 33
0.0
 40
0.0
 40
0.0
 40
0.0
 40
0.0
 40
0.0157781165
 40
0.0391100726
 40
0.0711401266
 40
0.1130912899
 40
0.1658303468
 40
0.2301807718
 40
0.3066231278
 40
0.395769823
 40
0.4980103582
 40
0.6130115042
 40
0.7379985251
 40
0.8684772219
 40
1.0
 40
1.0
 40
1.0
 40
1.0
 10
6.8845482821
 20
-23.7562325953
 30
0.0
 10
6.8846359057
 20
-23.7528814821
 30
0.0
 10
6.8870178565
 20
-23.7447346195
 30
0.0
 10
6.8937193383
 20
-23.7312133779
 30
0.0
 10
6.9046481325
 20
-23.7136120044
 30
0.0
 10
6.9201383779
 20
-23.6915927237
 30
0.0
 10
6.9405991296
 20
-23.6646904019
 30
0.0
 10
6.9663169604
 20
-23.6326054993
 30
0.0
 10
6.9975536533
 20
-23.5950400596
 30
0.0
 10
7.0345028274
 20
-23.5517629539
 30
0.0
 10
7.0772397942
 20
-23.502659542
 30
0.0
 10
7.1253517496
 20
-23.4481420958
 30
0.0
 10
7.1777133732
 20
-23.3893747065
 30
0.0
 10
7.2325910595
 20
-23.328148335
 30
0.0
 10
7.2698024259
 20
-23.2867483102
 30
0.0
 10
7.2884822077
 20
-23.2659657686
 30
0.0
 11
6.8845482821
 21
-23.7562325953
 31
0.0
 11
6.8867697484
 21
-23.7464242403
 31
0.0
 11
6.8930779883
 21
-23.7329569612
 31
0.0
 11
6.9036717007
 21
-23.7155050754
 31
0.0
 11
6.9189388309
 21
-23.693552924
 31
0.0
 11
6.9392059325
 21
-23.6667345037
 31
0.0
 11
6.9647971799
 21
-23.6346812093
 31
0.0
 11
6.9959022718
 21
-23.5971786236
 31
0.0
 11
7.0327598986
 21
-23.5539334947
 31
0.0
 11
7.0755126958
 21
-23.5047510121
 31
0.0
 11
7.1239895184
 21
-23.4497698124
 31
0.0
 11
7.1769657675
 21
-23.39027143
 31
0.0
 11
7.2324573161
 21
-23.3283263816
 31
0.0
 11
7.2884822077
 21
-23.2659657686
 31
0.0
  0
SPLINE
  5
81A
100
AcDbEntity
  8
0
100
AcDbSpline
 62
7
  6
CONTINUOUS
 70
0
 71
3
 72
20
 73
16
 74
14
 42
0.0000001
 43
0.0000001
 44
0.0000000001
 12
0.4258925876
 22
-0.4738347873
 32
0.0
 13
0.0273309197
 23
-0.6365193811
 33
0.0
 40
0.0
 40
0.0
 40
0.0
 40
0.0
 40
0.1312225557
 40
0.2614220709
 40
0.3861825708
 40
0.5010332171
 40
0.603201725
 40
0.6923386883
 40
0.7688264237
 40
0.8332713088
 40
0.8861504123
 40
0.9282720388
 40
0.9604959628
 40
0.9840265574
 40
1.0
 40
1.0
 40
1.0
 40
1.0
 10
7.2884822077
 20
-23.2659657686
 30
0.0
 10
7.3071111123
 20
-23.2866917058
 30
0.0
 10
7.3442237757
 20
-23.3279819192
 30
0.0
 10
7.3989634331
 20
-23.3890533632
 30
0.0
 10
7.4512106212
 20
-23.4476894665
 30
0.0
 10
7.4992410409
 20
-23.502108811
 30
0.0
 10
7.5419313905
 20
-23.5511492451
 30
0.0
 10
7.578866122
 20
-23.5943954418
 30
0.0
 10
7.610116411
 20
-23.6319573493
 30
0.0
 10
7.6358734535
 20
-23.6640637431
 30
0.0
 10
7.6563954332
 20
-23.6910083541
 30
0.0
 10
7.6719653724
 20
-23.7130884801
 30
0.0
 10
7.6829869616
 20
-23.7307598115
 30
0.0
 10
7.6897918264
 20
-23.7443642376
 30
0.0
 10
7.6922607667
 20
-23.7525590027
 30
0.0
 10
7.6924062896
 20
-23.755948138
 30
0.0
 11
7.2884822077
 21
-23.2659657686
 31
0.0
 11
7.3443545863
 21
-23.3281564621
 31
0.0
 11
7.3997034969
 21
-23.3899411368
 31
0.0
 11
7.4525619386
 21
-23.4493040325
 31
0.0
 11
7.500956981
 21
-23.5041863127
 31
0.0
 11
7.5436657209
 21
-23.5533081251
 31
0.0
 11
7.580510337
 21
-23.5965231965
 31
0.0
 11
7.611630455
 21
-23.6340229
 31
0.0
 11
7.6372622313
 21
-23.666097642
 31
0.0
 11
7.6575937884
 21
-23.6929605553
 31
0.0
 11
7.6729434157
 21
-23.714973197
 31
0.0
 11
7.6836355581
 21
-23.7324992093
 31
0.0
 11
7.6900550502
 21
-23.7460467034
 31
0.0
 11
7.6924062896
 21
-23.755948138
 31
0.0
  0
SPLINE
  5
81B
100
AcDbEntity
  8
0
100
AcDbSpline
 62
7
  6
CONTINUOUS
 70
0
 71
3
 72
20
 73
16
 74
14
 42
0.0000001
 43
0.0000001
 44
0.0000000001
 12
0.0273309204
 22
0.6365193985
 32
0.0
 13
0.4258925992
 23
0.4738348002
 33
0.0
 40
0.0
 40
0.0
 40
0.0
 40
0.0
 40
0.0159689408
 40
0.039495951
 40
0.0717158176
 40
0.1138445699
 40
0.1667373501
 40
0.2311988604
 40
0.3076914735
 40
0.3968178397
 40
0.4989691974
 40
0.6138264744
 40
0.7386299247
 40
0.8688458992
 40
1.0
 40
1.0
 40
1.0
 40
1.0
 10
14.8075937104
 20
-23.755948138
 30
0.0
 10
14.8077391923
 20
-23.7525599578
 30
0.0
 10
14.8102071702
 20
-23.7443667921
 30
0.0
 10
14.8170104636
 20
-23.7307644042
 30
0.0
 10
14.8280315788
 20
-23.7130929233
 30
0.0
 10
14.8436034199
 20
-23.69100977
 30
0.0
 10
14.8641302709
 20
-23.6640588752
 30
0.0
 10
14.8898921863
 20
-23.6319468087
 30
0.0
 10
14.9211441603
 20
-23.5943832897
 30
0.0
 10
14.9580758619
 20
-23.5511408909
 30
0.0
 10
15.0007633024
 20
-23.5021038683
 30
0.0
 10
15.0487982991
 20
-23.4476793745
 30
0.0
 10
15.1010548833
 20
-23.3890328557
 30
0.0
 10
15.1557933228
 20
-23.3279628967
 30
0.0
 10
15.1928986053
 20
-23.2866808943
 30
0.0
 10
15.2115177923
 20
-23.2659657686
 30
0.0
 11
14.8075937104
 21
-23.755948138
 31
0.0
 11
14.8099439384
 21
-23.7460494109
 31
0.0
 11
14.8163619492
 21
-23.7325037413
 31
0.0
 11
14.8270523215
 21
-23.7149796767
 31
0.0
 11
14.8424043175
 21
-23.6929631511
 31
0.0
 11
14.8627411518
 21
-23.6660933029
 31
0.0
 11
14.8883797187
 21
-23.6340104275
 31
0.0
 11
14.9195020331
 21
-23.5965085067
 31
0.0
 11
14.956342409
 21
-23.5532986902
 31
0.0
 11
14.999044027
 21
-23.5041851623
 31
0.0
 11
15.04744188
 21
-23.4492997255
 31
0.0
 11
15.1003185735
 21
-23.3899164391
 31
0.0
 11
15.1556745441
 21
-23.3281240072
 31
0.0
 11
15.2115177923
 21
-23.2659657686
 31
0.0
  0
SPLINE
  5
81C
100
AcDbEntity
  8
0
100
AcDbSpline
 62
7
  6
CONTINUOUS
 70
0
 71
3
 72
20
 73
16
 74
14
 42
0.0000001
 43
0.0000001
 44
0.0000000001
 12
0.4260808996
 22
-0.4740442974
 32
0.0
 13
0.0166604583
 23
-0.6371698032
 33
0.0
 40
0.0
 40
0.0
 40
0.0
 40
0.0
 40
0.1315901813
 40
0.2620527276
 40
0.386996807
 40
0.5019908922
 40
0.6042482501
 40
0.6934053592
 40
0.7698429769
 40
0.8341772544
 40
0.8869029406
 40
0.9288470955
 40
0.9608815698
 40
0.9842172113
 40
1.0
 40
1.0
 40
1.0
 40
1.0
 10
15.2115177923
 20
-23.2659657686
 30
0.0
 10
15.2302071466
 20
-23.2867589602
 30
0.0
 10
15.2674257915
 20
-23.3281670822
 30
0.0
 10
15.3223045926
 20
-23.3893948225
 30
0.0
 10
15.3746568012
 20
-23.4481517726
 30
0.0
 10
15.4227640747
 20
-23.5026639455
 30
0.0
 10
15.4655038249
 20
-23.5517706156
 30
0.0
 10
15.5024559856
 20
-23.5950514549
 30
0.0
 10
15.5336910623
 20
-23.6326153442
 30
0.0
 10
15.5594041549
 20
-23.6646947127
 30
0.0
 10
15.5798601674
 20
-23.6915908866
 30
0.0
 10
15.5953486262
 20
-23.7136072598
 30
0.0
 10
15.6062779886
 20
-23.7312085748
 30
0.0
 10
15.6129811162
 20
-23.7447319644
 30
0.0
 10
15.6153640684
 20
-23.7528804899
 30
0.0
 10
15.6154517179
 20
-23.7562325953
 30
0.0
 11
15.2115177923
 21
-23.2659657686
 31
0.0
 11
15.2675713791
 21
-23.3283583519
 31
0.0
 11
15.3230559963
 21
-23.3902957855
 31
0.0
 11
15.3760139909
 21
-23.4497737707
 31
0.0
 11
15.4244878229
 21
-23.5047516043
 31
0.0
 11
15.4672476123
 21
-23.5539422136
 31
0.0
 11
15.5041094124
 21
-23.5971925049
 31
0.0
 11
15.5352123746
 21
-23.6346929312
 31
0.0
 11
15.5607970343
 21
-23.6667383134
 31
0.0
 11
15.5810589936
 21
-23.6935499365
 31
0.0
 11
15.5963238223
 21
-23.7154982463
 31
0.0
 11
15.6069194478
 21
-23.7329522659
 31
0.0
 11
15.6132292196
 21
-23.746421421
 31
0.0
 11
15.6154517179
 21
-23.7562325953
 31
0.0
  0
SPLINE
  5
81D
100
AcDbEntity
  8
0
100
AcDbSpline
 62
7
  6
CONTINUOUS
 70
0
 71
3
 72
11
 73
7
 74
5
 42
0.0000001
 43
0.0000001
 44
0.0000000001
 12
-0.2622191459
 22
-0.3975362729
 32
0.0
 13
-0.2749508858
 23
-0.3888392717
 33
0.0
 40
0.0
 40
0.0
 40
0.0
 40
0.0
 40
0.243654614
 40
0.492867173
 40
0.7456018656
 40
1.0
 40
1.0
 40
1.0
 40
1.0
 10
-3.4123063547
 20
21.6775335309
 30
0.0
 10
-3.4336033229
 20
21.6452463485
 30
0.0
 10
-3.4772988815
 20
21.5803413031
 30
0.0
 10
-3.5445818579
 20
21.4829648185
 30
0.0
 10
-3.6135595411
 20
21.3846911358
 30
0.0
 10
-3.6600386816
 20
21.3189602771
 30
0.0
 10
-3.6833543458
 20
21.2859869487
 30
0.0
 11
-3.4123063547
 21
21.6775335309
 31
0.0
 11
-3.4769969315
 21
21.5812042191
 31
0.0
 11
-3.5443826602
 21
21.4835075774
 31
0.0
 11
-3.613464789
 21
21.3849475221
 31
0.0
 11
-3.6833543458
 21
21.2859869487
 31
0.0
  0
SPLINE
  5
81E
100
AcDbEntity
  8
0
100
AcDbSpline
 62
7
  6
CONTINUOUS
 70
0
 71
3
 72
11
 73
7
 74
5
 42
0.0000001
 43
0.0000001
 44
0.0000000001
 12
-0.2749508858
 22
0.3888392717
 32
0.0
 13
-0.2622191459
 23
0.3975362729
 33
0.0
 40
0.0
 40
0.0
 40
0.0
 40
0.0
 40
0.2543981344
 40
0.507132827
 40
0.756345386
 40
1.0
 40
1.0
 40
1.0
 40
1.0
 10
-18.8166456542
 20
21.2859869487
 30
0.0
 10
-18.8399613184
 20
21.3189602771
 30
0.0
 10
-18.8864404589
 20
21.3846911358
 30
0.0
 10
-18.9554181421
 20
21.4829648185
 30
0.0
 10
-19.0227011185
 20
21.5803413031
 30
0.0
 10
-19.0663966771
 20
21.6452463485
 30
0.0
 10
-19.0876936453
 20
21.6775335309
 30
0.0
 11
-18.8166456542
 21
21.2859869487
 31
0.0
 11
-18.886535211
 21
21.3849475221
 31
0.0
 11
-18.9556173398
 21
21.4835075774
 31
0.0
 11
-19.0230030685
 21
21.5812042191
 31
0.0
 11
-19.0876936453
 21
21.6775335309
 31
0.0
  0
SPLINE
  5
81F
100
AcDbEntity
  8
0
100
AcDbSpline
 62
7
  6
CONTINUOUS
 70
0
 71
3
 72
11
 73
7
 74
5
 42
0.0000001
 43
0.0000001
 44
0.0000000001
 12
0.2622191459
 22
0.3975362729
 32
0.0
 13
0.2749508858
 23
0.3888392717
 33
0.0
 40
0.0
 40
0.0
 40
0.0
 40
0.0
 40
0.243654614
 40
0.492867173
 40
0.7456018656
 40
1.0
 40
1.0
 40
1.0
 40
1.0
 10
-19.0876936453
 20
-21.6775335309
 30
0.0
 10
-19.0663966771
 20
-21.6452463485
 30
0.0
 10
-19.0227011185
 20
-21.5803413031
 30
0.0
 10
-18.9554181421
 20
-21.4829648185
 30
0.0
 10
-18.8864404589
 20
-21.3846911358
 30
0.0
 10
-18.8399613184
 20
-21.3189602771
 30
0.0
 10
-18.8166456542
 20
-21.2859869487
 30
0.0
 11
-19.0876936453
 21
-21.6775335309
 31
0.0
 11
-19.0230030685
 21
-21.5812042191
 31
0.0
 11
-18.9556173398
 21
-21.4835075774
 31
0.0
 11
-18.886535211
 21
-21.3849475221
 31
0.0
 11
-18.8166456542
 21
-21.2859869487
 31
0.0
  0
SPLINE
  5
820
100
AcDbEntity
  8
0
100
AcDbSpline
 62
7
  6
CONTINUOUS
 70
0
 71
3
 72
11
 73
7
 74
5
 42
0.0000001
 43
0.0000001
 44
0.0000000001
 12
0.2749508858
 22
-0.3888392717
 32
0.0
 13
0.2622191459
 23
-0.3975362729
 33
0.0
 40
0.0
 40
0.0
 40
0.0
 40
0.0
 40
0.2543981344
 40
0.507132827
 40
0.756345386
 40
1.0
 40
1.0
 40
1.0
 40
1.0
 10
-3.6833543458
 20
-21.2859869487
 30
0.0
 10
-3.6600386816
 20
-21.3189602771
 30
0.0
 10
-3.6135595411
 20
-21.3846911358
 30
0.0
 10
-3.5445818579
 20
-21.4829648185
 30
0.0
 10
-3.4772988815
 20
-21.5803413031
 30
0.0
 10
-3.4336033229
 20
-21.6452463485
 30
0.0
 10
-3.4123063547
 20
-21.6775335309
 30
0.0
 11
-3.6833543458
 21
-21.2859869487
 31
0.0
 11
-3.613464789
 21
-21.3849475221
 31
0.0
 11
-3.5443826602
 21
-21.4835075774
 31
0.0
 11
-3.4769969315
 21
-21.5812042191
 31
0.0
 11
-3.4123063547
 21
-21.6775335309
 31
0.0
  0
ELLIPSE
  5
821
100
AcDbEntity
  8
RACCORDO
100
AcDbEllipse
 62
7
  6
CONTINUOUS
 10
12.4500076157
 20
-23.7999972584
 30
0.0
 11
-0.1715082039
 21
-0.1029032505
 31
-0.0
 40
0.9999482169
 41
-0.540389487
 42
1.0303611479
  0
ELLIPSE
  5
822
100
AcDbEntity
  8
RACCORDO
100
AcDbEllipse
 62
7
  6
CONTINUOUS
 10
10.0499923843
 20
-23.7999972584
 30
0.0
 11
0.1715082039
 21
-0.1029032505
 31
-0.0
 40
0.9999482169
 41
-1.0303611479
 42
0.540389487
  0
ELLIPSE
  5
823
100
AcDbEntity
  8
RACCORDO
100
AcDbEllipse
 62
7
  6
CONTINUOUS
 10
10.0499923843
 20
23.7999972584
 30
0.0
 11
0.1715082039
 21
0.1029032505
 31
0.0
 40
0.9999482169
 41
-0.540389487
 42
1.0303611479
  0
ELLIPSE
  5
824
100
AcDbEntity
  8
RACCORDO
100
AcDbEllipse
 62
7
  6
CONTINUOUS
 10
12.4500076157
 20
23.7999972584
 30
0.0
 11
-0.1715082039
 21
0.1029032505
 31
0.0
 40
0.9999482169
 41
-1.0303611479
 42
0.540389487
  0
ELLIPSE
  5
825
100
AcDbEntity
  8
RACCORDO
100
AcDbEllipse
 62
7
  6
CONTINUOUS
 10
-10.0499923843
 20
-23.7999972584
 30
0.0
 11
-0.1715082039
 21
-0.1029032505
 31
-0.0
 40
0.9999482169
 41
-0.540389487
 42
1.0303611479
  0
ELLIPSE
  5
826
100
AcDbEntity
  8
RACCORDO
100
AcDbEllipse
 62
7
  6
CONTINUOUS
 10
-12.4500076157
 20
-23.7999972584
 30
0.0
 11
0.1715082039
 21
-0.1029032505
 31
-0.0
 40
0.9999482169
 41
-1.0303611479
 42
0.540389487
  0
ELLIPSE
  5
827
100
AcDbEntity
  8
RACCORDO
100
AcDbEllipse
 62
7
  6
CONTINUOUS
 10
-12.4500076157
 20
23.7999972584
 30
0.0
 11
0.1715082039
 21
0.1029032505
 31
0.0
 40
0.9999482169
 41
-0.540389487
 42
1.0303611479
  0
ELLIPSE
  5
828
100
AcDbEntity
  8
RACCORDO
100
AcDbEllipse
 62
7
  6
CONTINUOUS
 10
-10.0499923843
 20
23.7999972584
 30
0.0
 11
-0.1715082039
 21
0.1029032505
 31
0.0
 40
0.9999482169
 41
-1.0303611479
 42
0.540389487
  0
ELLIPSE
  5
829
100
AcDbEntity
  8
RACCORDO
100
AcDbEllipse
 62
7
  6
CONTINUOUS
 10
-3.749996573
 20
24.249996573
 30
0.0
 11
0.1767815418
 21
-0.1767815418
 31
-0.0
 40
0.9999725851
 41
2.3562081979
 42
3.9269771093
  0
ELLIPSE
  5
82A
100
AcDbEntity
  8
RACCORDO
100
AcDbEllipse
 62
7
  6
CONTINUOUS
 10
-1.350003427
 20
24.249996573
 30
0.0
 11
-0.1767815418
 21
-0.1767815418
 31
-0.0
 40
0.9999725851
 41
2.3562081979
 42
3.9269771093
  0
ELLIPSE
  5
82B
100
AcDbEntity
  8
RACCORDO
100
AcDbEllipse
 62
7
  6
CONTINUOUS
 10
-21.149996573
 20
24.249996573
 30
0.0
 11
0.1767815418
 21
-0.1767815418
 31
-0.0
 40
0.9999725851
 41
2.3562081979
 42
3.9269771093
  0
ELLIPSE
  5
82C
100
AcDbEntity
  8
RACCORDO
100
AcDbEllipse
 62
7
  6
CONTINUOUS
 10
-18.750003427
 20
24.249996573
 30
0.0
 11
-0.1767815418
 21
-0.1767815418
 31
-0.0
 40
0.9999725851
 41
2.3562081979
 42
3.9269771093
  0
ELLIPSE
  5
82D
100
AcDbEntity
  8
RACCORDO
100
AcDbEllipse
 62
7
  6
CONTINUOUS
 10
-1.350003427
 20
-24.249996573
 30
0.0
 11
-0.1767815418
 21
0.1767815418
 31
0.0
 40
0.9999725851
 41
2.3562081979
 42
3.9269771093
  0
ELLIPSE
  5
82E
100
AcDbEntity
  8
RACCORDO
100
AcDbEllipse
 62
7
  6
CONTINUOUS
 10
-3.749996573
 20
-24.249996573
 30
0.0
 11
0.1767815418
 21
0.1767815418
 31
0.0
 40
0.9999725851
 41
2.3562081979
 42
3.9269771093
  0
ELLIPSE
  5
82F
100
AcDbEntity
  8
RACCORDO
100
AcDbEllipse
 62
7
  6
CONTINUOUS
 10
-18.750003427
 20
-24.249996573
 30
0.0
 11
-0.1767815418
 21
0.1767815418
 31
0.0
 40
0.9999725851
 41
2.3562081979
 42
3.9269771093
  0
ELLIPSE
  5
830
100
AcDbEntity
  8
RACCORDO
100
AcDbEllipse
 62
7
  6
CONTINUOUS
 10
-21.149996573
 20
-24.249996573
 30
0.0
 11
0.1767815418
 21
0.1767815418
 31
0.0
 40
0.9999725851
 41
2.3562081979
 42
3.9269771093
  0
ELLIPSE
  5
831
100
AcDbEntity
  8
RACCORDO
100
AcDbEllipse
 62
7
  6
CONTINUOUS
 10
3.749996573
 20
-24.249996573
 30
0.0
 11
-0.1767815418
 21
0.1767815418
 31
0.0
 40
0.9999725851
 41
2.3562081979
 42
3.9269771093
  0
ELLIPSE
  5
832
100
AcDbEntity
  8
RACCORDO
100
AcDbEllipse
 62
7
  6
CONTINUOUS
 10
1.350003427
 20
-24.249996573
 30
0.0
 11
0.1767815418
 21
0.1767815418
 31
0.0
 40
0.9999725851
 41
2.3562081979
 42
3.9269771093
  0
ELLIPSE
  5
833
100
AcDbEntity
  8
RACCORDO
100
AcDbEllipse
 62
7
  6
CONTINUOUS
 10
21.149996573
 20
-24.249996573
 30
0.0
 11
-0.1767815418
 21
0.1767815418
 31
0.0
 40
0.9999725851
 41
2.3562081979
 42
3.9269771093
  0
ELLIPSE
  5
834
100
AcDbEntity
  8
RACCORDO
100
AcDbEllipse
 62
7
  6
CONTINUOUS
 10
18.750003427
 20
-24.249996573
 30
0.0
 11
0.1767815418
 21
0.1767815418
 31
0.0
 40
0.9999725851
 41
2.3562081979
 42
3.9269771093
  0
ELLIPSE
  5
835
100
AcDbEntity
  8
RACCORDO
100
AcDbEllipse
 62
7
  6
CONTINUOUS
 10
3.749996573
 20
24.249996573
 30
0.0
 11
-0.1767815418
 21
-0.1767815418
 31
-0.0
 40
0.9999725851
 41
2.3562081979
 42
3.9269771093
  0
ELLIPSE
  5
836
100
AcDbEntity
  8
RACCORDO
100
AcDbEllipse
 62
7
  6
CONTINUOUS
 10
1.350003427
 20
24.249996573
 30
0.0
 11
0.1767815418
 21
-0.1767815418
 31
-0.0
 40
0.9999725851
 41
2.3562081979
 42
3.9269771093
  0
ELLIPSE
  5
837
100
AcDbEntity
  8
RACCORDO
100
AcDbEllipse
 62
7
  6
CONTINUOUS
 10
21.149996573
 20
24.249996573
 30
0.0
 11
-0.1767815418
 21
-0.1767815418
 31
-0.0
 40
0.9999725851
 41
2.3562081979
 42
3.9269771093
  0
ELLIPSE
  5
838
100
AcDbEntity
  8
RACCORDO
100
AcDbEllipse
 62
7
  6
CONTINUOUS
 10
18.750003427
 20
24.249996573
 30
0.0
 11
0.1767815418
 21
-0.1767815418
 31
-0.0
 40
0.9999725851
 41
2.3562081979
 42
3.9269771093
  0
ELLIPSE
  5
839
100
AcDbEntity
  8
DRAFT
100
AcDbEllipse
 62
7
  6
CONTINUOUS
 10
8.1627313221
 20
21.2859869487
 30
0.0
 11
0.0
 21
1.0
 31
0.0
 40
0.0087268678
 41
0.0058177642
 42
1.5707963268
  0
ELLIPSE
  5
83A
100
AcDbEntity
  8
ASSI
100
AcDbEllipse
 62
7
  6
CONTINUOUS
 10
-14.8067246406
 20
-23.2659657686
 30
0.0
 11
0.0
 21
0.5
 31
0.0
 40
0.0087268678
 41
-3.3421046127
 42
-3.1520646291
  0
ELLIPSE
  5
83B
100
AcDbEntity
  8
RACCORDO
100
AcDbEllipse
 62
7
  6
CONTINUOUS
 10
7.2884822077
 20
22.3058074126
 30
0.0
 11
0.4039394627
 21
0.0
 31
0.0
 40
0.0058178298
 41
-3.1363566658
 42
-0.0087266463
  0
ELLIPSE
  5
83C
100
AcDbEntity
  8
RACCORDO
100
AcDbEllipse
 62
7
  6
CONTINUOUS
 10
15.2115177923
 20
22.3058074126
 30
0.0
 11
0.4039394627
 21
0.0
 31
0.0
 40
0.0058178298
 41
-3.1328660073
 42
-0.0052359878
  0
ELLIPSE
  5
83D
100
AcDbEntity
  8
ASSI
100
AcDbEllipse
 62
7
  6
CONTINUOUS
 10
-18.8166456542
 20
20.9916321118
 30
0.0
 11
0.5
 21
0.0
 31
0.0
 40
0.0087268678
 41
1.5707963268
 42
3.1241393611
  0
ELLIPSE
  5
83E
100
AcDbEntity
  8
ASSI
100
AcDbEllipse
 62
7
  6
CONTINUOUS
 10
-18.8166456542
 20
-20.9916321118
 30
0.0
 11
0.5
 21
-0.0
 31
0.0
 40
0.0087268678
 41
-3.1241393611
 42
-1.5707963268
  0
ELLIPSE
  5
83F
100
AcDbEntity
  8
ASSI
100
AcDbEllipse
 62
7
  6
CONTINUOUS
 10
-15.6159657686
 20
-23.2659657686
 30
0.0
 11
-0.0
 21
0.5
 31
0.0
 40
0.0052360356
 41
-3.1311206781
 42
-2.9439574705
  0
ELLIPSE
  5
840
100
AcDbEntity
  8
RACCORDO
100
AcDbEllipse
 62
7
  6
CONTINUOUS
 10
-15.2115177923
 20
22.3058074126
 30
0.0
 11
0.4039394627
 21
0.0
 31
0.0
 40
0.0058178298
 41
-3.1363566658
 42
-0.0087266463
  0
ELLIPSE
  5
841
100
AcDbEntity
  8
RACCORDO
100
AcDbEllipse
 62
7
  6
CONTINUOUS
 10
7.2884822077
 20
-22.3058074126
 30
0.0
 11
0.4039394627
 21
-0.0
 31
0.0
 40
0.0058178298
 41
0.0087266463
 42
3.1363566658
  0
ELLIPSE
  5
842
100
AcDbEntity
  8
ASSI
100
AcDbEllipse
 62
7
  6
CONTINUOUS
 10
-6.8840342314
 20
-23.2659657686
 30
0.0
 11
-0.0
 21
0.5
 31
0.0
 40
0.0052360356
 41
-3.3392278367
 42
-3.1520646291
  0
ELLIPSE
  5
843
100
AcDbEntity
  8
ASSI
100
AcDbEllipse
 62
7
  6
CONTINUOUS
 10
-6.8840342314
 20
23.2659657686
 30
0.0
 11
0.0
 21
0.5
 31
0.0
 40
0.0052360356
 41
0.0104719755
 42
0.1976351831
  0
ELLIPSE
  5
844
100
AcDbEntity
  8
RACCORDO
100
AcDbEllipse
 62
7
  6
CONTINUOUS
 10
15.2115177923
 20
-22.3058074126
 30
0.0
 11
0.4039394627
 21
-0.0
 31
0.0
 40
0.0058178298
 41
0.0052359878
 42
3.1328660073
  0
ELLIPSE
  5
845
100
AcDbEntity
  8
ASSI
100
AcDbEllipse
 62
7
  6
CONTINUOUS
 10
-15.6159657686
 20
23.2659657686
 30
0.0
 11
-0.0
 21
0.5
 31
0.0
 40
0.0052360356
 41
-0.1976351831
 42
-0.0104719755
  0
ELLIPSE
  5
846
100
AcDbEntity
  8
ASSI
100
AcDbEllipse
 62
7
  6
CONTINUOUS
 10
7.6932753594
 20
23.2659657686
 30
0.0
 11
-0.0
 21
0.5
 31
0.0
 40
0.0087268678
 41
0.0104719755
 42
0.2005119591
  0
ELLIPSE
  5
847
100
AcDbEntity
  8
ASSI
100
AcDbEllipse
 62
7
  6
CONTINUOUS
 10
14.8067246406
 20
23.2659657686
 30
0.0
 11
0.0
 21
0.5
 31
0.0
 40
0.0087268678
 41
-0.2005119591
 42
-0.0104719755
  0
ELLIPSE
  5
848
100
AcDbEntity
  8
RACCORDO
100
AcDbEllipse
 62
7
  6
CONTINUOUS
 10
-7.2884822077
 20
22.3058074126
 30
0.0
 11
0.4039394627
 21
0.0
 31
0.0
 40
0.0058178298
 41
-3.1328660073
 42
-0.0052359878
  0
ELLIPSE
  5
849
100
AcDbEntity
  8
ASSI
100
AcDbEllipse
 62
7
  6
CONTINUOUS
 10
18.8166456542
 20
20.9916321118
 30
0.0
 11
0.5
 21
-0.0
 31
0.0
 40
0.0087268678
 41
0.0174532925
 42
1.5707963268
  0
ELLIPSE
  5
84A
100
AcDbEntity
  8
ASSI
100
AcDbEllipse
 62
7
  6
CONTINUOUS
 10
3.6833543458
 20
20.9916321118
 30
0.0
 11
0.5
 21
-0.0
 31
0.0
 40
0.0087268678
 41
1.5707963268
 42
3.1241393611
  0
ELLIPSE
  5
84B
100
AcDbEntity
  8
ASSI
100
AcDbEllipse
 62
7
  6
CONTINUOUS
 10
-3.6833543458
 20
20.9916321118
 30
0.0
 11
0.5
 21
0.0
 31
0.0
 40
0.0087268678
 41
0.0174532925
 42
1.5707963268
  0
ELLIPSE
  5
84C
100
AcDbEntity
  8
ASSI
100
AcDbEllipse
 62
7
  6
CONTINUOUS
 10
3.6833543458
 20
-20.9916321118
 30
0.0
 11
0.5
 21
0.0
 31
0.0
 40
0.0087268678
 41
-3.1241393611
 42
-1.5707963268
  0
ELLIPSE
  5
84D
100
AcDbEntity
  8
ASSI
100
AcDbEllipse
 62
7
  6
CONTINUOUS
 10
-3.6833543458
 20
-20.9916321118
 30
0.0
 11
0.5
 21
0.0
 31
0.0
 40
0.0087268678
 41
-1.5707963268
 42
-0.0174532925
  0
ELLIPSE
  5
84E
100
AcDbEntity
  8
ASSI
100
AcDbEllipse
 62
7
  6
CONTINUOUS
 10
18.8166456542
 20
-20.9916321118
 30
0.0
 11
0.5
 21
0.0
 31
0.0
 40
0.0087268678
 41
-1.5707963268
 42
-0.0174532925
  0
ELLIPSE
  5
84F
100
AcDbEntity
  8
ASSI
100
AcDbEllipse
 62
7
  6
CONTINUOUS
 10
6.8840342314
 20
-23.2659657686
 30
0.0
 11
0.0
 21
0.5
 31
0.0
 40
0.0052360356
 41
-3.1311206781
 42
-2.9439574705
  0
ELLIPSE
  5
850
100
AcDbEntity
  8
ASSI
100
AcDbEllipse
 62
7
  6
CONTINUOUS
 10
15.6159657686
 20
-23.2659657686
 30
0.0
 11
0.0
 21
0.5
 31
0.0
 40
0.0052360356
 41
-3.3392278367
 42
-3.1520646291
  0
ELLIPSE
  5
851
100
AcDbEntity
  8
ASSI
100
AcDbEllipse
 62
7
  6
CONTINUOUS
 10
15.6159657686
 20
23.2659657686
 30
0.0
 11
0.0
 21
0.5
 31
0.0
 40
0.0052360356
 41
0.0104719755
 42
0.1976351831
  0
ELLIPSE
  5
852
100
AcDbEntity
  8
ASSI
100
AcDbEllipse
 62
7
  6
CONTINUOUS
 10
6.8840342314
 20
23.2659657686
 30
0.0
 11
-0.0
 21
0.5
 31
0.0
 40
0.0052360356
 41
-0.1976351831
 42
-0.0104719755
  0
ELLIPSE
  5
853
100
AcDbEntity
  8
RACCORDO
100
AcDbEllipse
 62
7
  6
CONTINUOUS
 10
-7.2884822077
 20
-22.3058074126
 30
0.0
 11
0.4039394627
 21
0.0
 31
0.0
 40
0.0058178298
 41
0.0052359878
 42
3.1328660073
  0
ELLIPSE
  5
854
100
AcDbEntity
  8
RACCORDO
100
AcDbEllipse
 62
7
  6
CONTINUOUS
 10
-15.2115177923
 20
-22.3058074126
 30
0.0
 11
0.4039394627
 21
0.0
 31
0.0
 40
0.0058178298
 41
0.0087266463
 42
3.1363566658
  0
ELLIPSE
  5
855
100
AcDbEntity
  8
RACCORDO
100
AcDbEllipse
 62
7
  6
CONTINUOUS
 10
18.8166456542
 20
-21.9537669705
 30
0.0
 11
0.4999904798
 21
0.5000285596
 31
0.0
 40
0.0061705924
 41
0.0112823085
 42
0.9916959574
  0
ELLIPSE
  5
856
100
AcDbEntity
  8
RACCORDO
100
AcDbEllipse
 62
7
  6
CONTINUOUS
 10
3.6833543458
 20
-21.9537669705
 30
0.0
 11
-0.4999904798
 21
0.5000285596
 31
0.0
 40
0.0061705924
 41
-0.9916959574
 42
-0.0112823085
  0
ELLIPSE
  5
857
100
AcDbEntity
  8
RACCORDO
100
AcDbEllipse
 62
7
  6
CONTINUOUS
 10
3.6833543458
 20
21.9537669705
 30
0.0
 11
0.4999904798
 21
0.5000285596
 31
0.0
 40
0.0061705924
 41
-3.1303103451
 42
-2.1498966962
  0
ELLIPSE
  5
858
100
AcDbEntity
  8
RACCORDO
100
AcDbEllipse
 62
7
  6
CONTINUOUS
 10
18.8166456542
 20
21.9537669705
 30
0.0
 11
-0.4999904798
 21
0.5000285596
 31
0.0
 40
0.0061705924
 41
-4.133288611
 42
-3.1528749621
  0
ELLIPSE
  5
859
100
AcDbEntity
  8
RACCORDO
100
AcDbEllipse
 62
7
  6
CONTINUOUS
 10
-3.6833543458
 20
-21.9537669705
 30
0.0
 11
0.4999904798
 21
0.5000285596
 31
0.0
 40
0.0061705924
 41
0.0112823085
 42
0.9916959574
  0
ELLIPSE
  5
85A
100
AcDbEntity
  8
RACCORDO
100
AcDbEllipse
 62
7
  6
CONTINUOUS
 10
-18.8166456542
 20
-21.9537669705
 30
0.0
 11
-0.4999904798
 21
0.5000285596
 31
0.0
 40
0.0061705924
 41
-0.9916959574
 42
-0.0112823085
  0
ELLIPSE
  5
85B
100
AcDbEntity
  8
RACCORDO
100
AcDbEllipse
 62
7
  6
CONTINUOUS
 10
-18.8166456542
 20
21.9537669705
 30
0.0
 11
0.4999904798
 21
0.5000285596
 31
0.0
 40
0.0061705924
 41
-3.1303103451
 42
-2.1498966962
  0
ELLIPSE
  5
85C
100
AcDbEntity
  8
RACCORDO
100
AcDbEllipse
 62
7
  6
CONTINUOUS
 10
-3.6833543458
 20
21.9537669705
 30
0.0
 11
-0.4999904798
 21
0.5000285596
 31
0.0
 40
0.0061705924
 41
-4.133288611
 42
-3.1528749621
  0
ELLIPSE
  5
85D
100
AcDbEntity
  8
ASSI
100
AcDbEllipse
 62
7
  6
CONTINUOUS
 10
14.8067246406
 20
-23.2659657686
 30
0.0
 11
-0.0
 21
0.5
 31
0.0
 40
0.0087268678
 41
-3.1311206781
 42
-2.9410806945
  0
ELLIPSE
  5
85E
100
AcDbEntity
  8
ASSI
100
AcDbEllipse
 62
7
  6
CONTINUOUS
 10
7.6932753594
 20
-23.2659657686
 30
0.0
 11
-0.0
 21
0.5
 31
0.0
 40
0.0087268678
 41
-3.3421046127
 42
-3.1520646291
  0
ELLIPSE
  5
85F
100
AcDbEntity
  8
DRAFT
100
AcDbEllipse
 62
7
  6
CONTINUOUS
 10
-8.1627313221
 20
-21.2859869487
 30
0.0
 11
-0.0
 21
1.0
 31
0.0
 40
0.0087268678
 41
-3.1357748894
 42
-1.5707963268
  0
ELLIPSE
  5
860
100
AcDbEntity
  8
RACCORDO
100
AcDbEllipse
 62
7
  6
CONTINUOUS
 10
-3.0094034965
 20
-21.2859869487
 30
0.0
 11
1.0000571192
 21
0.9999809595
 31
0.0
 40
0.0061705924
 41
1.9792790821
 42
3.1419458735
  0
ELLIPSE
  5
861
100
AcDbEntity
  8
RACCORDO
100
AcDbEllipse
 62
7
  6
CONTINUOUS
 10
-19.4905965035
 20
-21.2859869487
 30
0.0
 11
1.0000571192
 21
-0.9999809595
 31
0.0
 40
0.0061705924
 41
-0.0003532199
 42
1.1623135715
  0
ELLIPSE
  5
862
100
AcDbEntity
  8
DRAFT
100
AcDbEllipse
 62
7
  6
CONTINUOUS
 10
-14.3372686779
 20
-21.2859869487
 30
0.0
 11
0.0
 21
1.0
 31
0.0
 40
0.0087268678
 41
-4.7123889804
 42
-3.1474104178
  0
ELLIPSE
  5
863
100
AcDbEntity
  8
DRAFT
100
AcDbEllipse
 62
7
  6
CONTINUOUS
 10
-14.3372686779
 20
21.2859869487
 30
0.0
 11
0.0
 21
1.0
 31
0.0
 40
0.0087268678
 41
0.0058177642
 42
1.5707963268
  0
ELLIPSE
  5
864
100
AcDbEntity
  8
RACCORDO
100
AcDbEllipse
 62
7
  6
CONTINUOUS
 10
-19.4905965035
 20
21.2859869487
 30
0.0
 11
1.0000571192
 21
0.9999809595
 31
0.0
 40
0.0061705924
 41
-1.1623135715
 42
0.0003532199
  0
ELLIPSE
  5
865
100
AcDbEntity
  8
RACCORDO
100
AcDbEllipse
 62
7
  6
CONTINUOUS
 10
-3.0094034965
 20
21.2859869487
 30
0.0
 11
1.0000571192
 21
-0.9999809595
 31
0.0
 40
0.0061705924
 41
3.1412394337
 42
4.303906225
  0
ELLIPSE
  5
866
100
AcDbEntity
  8
DRAFT
100
AcDbEllipse
 62
7
  6
CONTINUOUS
 10
-8.1627313221
 20
21.2859869487
 30
0.0
 11
0.0
 21
1.0
 31
0.0
 40
0.0087268678
 41
-1.5707963268
 42
-0.0058177642
  0
ELLIPSE
  5
867
100
AcDbEntity
  8
RACCORDO
100
AcDbEllipse
 62
7
  6
CONTINUOUS
 10
21.841254093
 20
21.8441737085
 30
0.0
 11
-0.4160498344
 21
-0.2773626446
 31
-0.0
 40
0.9999450019
 41
2.5536219432
 42
4.1243675013
  0
ELLIPSE
  5
868
100
AcDbEntity
  8
RACCORDO
100
AcDbEllipse
 62
7
  6
CONTINUOUS
 10
21.841254093
 20
-21.8441737085
 30
0.0
 11
0.4160498344
 21
-0.2773626446
 31
-0.0
 40
0.9999450019
 41
-0.9827748477
 42
0.5879707104
  0
ELLIPSE
  5
869
100
AcDbEntity
  8
RACCORDO
100
AcDbEllipse
 62
7
  6
CONTINUOUS
 10
3.0094034965
 20
-21.2859869487
 30
0.0
 11
1.0000571192
 21
-0.9999809595
 31
0.0
 40
0.0061705924
 41
-0.0003532199
 42
1.1623135715
  0
ELLIPSE
  5
86A
100
AcDbEntity
  8
ASSI
100
AcDbEllipse
 62
7
  6
CONTINUOUS
 10
-14.8067246406
 20
23.2659657686
 30
0.0
 11
-0.0
 21
0.5
 31
0.0
 40
0.0087268678
 41
0.0104719755
 42
0.2005119591
  0
ELLIPSE
  5
86B
100
AcDbEntity
  8
ASSI
100
AcDbEllipse
 62
7
  6
CONTINUOUS
 10
-7.6932753594
 20
23.2659657686
 30
0.0
 11
-0.0
 21
0.5
 31
0.0
 40
0.0087268678
 41
-0.2005119591
 42
-0.0104719755
  0
ELLIPSE
  5
86C
100
AcDbEntity
  8
RACCORDO
100
AcDbEllipse
 62
7
  6
CONTINUOUS
 10
-21.841254093
 20
-21.8441737085
 30
0.0
 11
0.4160498344
 21
0.2773626446
 31
0.0
 40
0.9999450019
 41
2.5536219432
 42
4.1243675013
  0
ELLIPSE
  5
86D
100
AcDbEntity
  8
RACCORDO
100
AcDbEllipse
 62
7
  6
CONTINUOUS
 10
-21.841254093
 20
21.8441737085
 30
0.0
 11
-0.4160498344
 21
0.2773626446
 31
0.0
 40
0.9999450019
 41
-0.9827748477
 42
0.5879707104
  0
ELLIPSE
  5
86E
100
AcDbEntity
  8
ASSI
100
AcDbEllipse
 62
7
  6
CONTINUOUS
 10
-7.6932753594
 20
-23.2659657686
 30
0.0
 11
-0.0
 21
0.5
 31
0.0
 40
0.0087268678
 41
-3.1311206781
 42
-2.9410806945
  0
ELLIPSE
  5
86F
100
AcDbEntity
  8
DRAFT
100
AcDbEllipse
 62
7
  6
CONTINUOUS
 10
8.1627313221
 20
-21.2859869487
 30
0.0
 11
0.0
 21
1.0
 31
0.0
 40
0.0087268678
 41
-4.7123889804
 42
-3.1474104178
  0
ELLIPSE
  5
870
100
AcDbEntity
  8
RACCORDO
100
AcDbEllipse
 62
7
  6
CONTINUOUS
 10
19.4905965035
 20
-21.2859869487
 30
0.0
 11
1.0000571192
 21
0.9999809595
 31
0.0
 40
0.0061705924
 41
1.9792790821
 42
3.1419458735
  0
ELLIPSE
  5
871
100
AcDbEntity
  8
DRAFT
100
AcDbEllipse
 62
7
  6
CONTINUOUS
 10
14.3372686779
 20
-21.2859869487
 30
0.0
 11
-0.0
 21
1.0
 31
0.0
 40
0.0087268678
 41
-3.1357748894
 42
-1.5707963268
  0
ELLIPSE
  5
872
100
AcDbEntity
  8
RACCORDO
100
AcDbEllipse
 62
7
  6
CONTINUOUS
 10
19.4905965035
 20
21.2859869487
 30
0.0
 11
1.0000571192
 21
-0.9999809595
 31
0.0
 40
0.0061705924
 41
3.1412394337
 42
4.303906225
  0
ELLIPSE
  5
873
100
AcDbEntity
  8
DRAFT
100
AcDbEllipse
 62
7
  6
CONTINUOUS
 10
14.3372686779
 20
21.2859869487
 30
0.0
 11
0.0
 21
1.0
 31
0.0
 40
0.0087268678
 41
-1.5707963268
 42
-0.0058177642
  0
ELLIPSE
  5
874
100
AcDbEntity
  8
RACCORDO
100
AcDbEllipse
 62
7
  6
CONTINUOUS
 10
3.0094034965
 20
21.2859869487
 30
0.0
 11
1.0000571192
 21
0.9999809595
 31
0.0
 40
0.0061705924
 41
-1.1623135715
 42
0.0003532199
  0
ELLIPSE
  5
875
100
AcDbEntity
  8
0
100
AcDbEllipse
 62
7
  6
CONTINUOUS
 10
12.4500076157
 20
-23.7999972584
 30
0.0
 11
-0.1715082039
 21
-0.1029032505
 31
-0.0
 40
0.9999482169
 41
-0.540389487
 42
1.0303611479
  0
ELLIPSE
  5
876
100
AcDbEntity
  8
0
100
AcDbEllipse
 62
7
  6
CONTINUOUS
 10
10.0499923843
 20
-23.7999972584
 30
0.0
 11
0.1715082039
 21
-0.1029032505
 31
-0.0
 40
0.9999482169
 41
-1.0303611479
 42
0.540389487
  0
ELLIPSE
  5
877
100
AcDbEntity
  8
0
100
AcDbEllipse
 62
7
  6
CONTINUOUS
 10
10.0499923843
 20
23.7999972584
 30
0.0
 11
0.1715082039
 21
0.1029032505
 31
0.0
 40
0.9999482169
 41
-0.540389487
 42
1.0303611479
  0
ELLIPSE
  5
878
100
AcDbEntity
  8
0
100
AcDbEllipse
 62
7
  6
CONTINUOUS
 10
12.4500076157
 20
23.7999972584
 30
0.0
 11
-0.1715082039
 21
0.1029032505
 31
0.0
 40
0.9999482169
 41
-1.0303611479
 42
0.540389487
  0
ELLIPSE
  5
879
100
AcDbEntity
  8
0
100
AcDbEllipse
 62
7
  6
CONTINUOUS
 10
18.750003427
 20
24.249996573
 30
0.0
 11
0.1767815418
 21
-0.1767815418
 31
-0.0
 40
0.9999725851
 41
2.3562081979
 42
3.9269771093
  0
ELLIPSE
  5
87A
100
AcDbEntity
  8
0
100
AcDbEllipse
 62
7
  6
CONTINUOUS
 10
21.149996573
 20
24.249996573
 30
0.0
 11
-0.1767815418
 21
-0.1767815418
 31
-0.0
 40
0.9999725851
 41
2.3562081979
 42
3.9269771093
  0
ELLIPSE
  5
87B
100
AcDbEntity
  8
0
100
AcDbEllipse
 62
7
  6
CONTINUOUS
 10
1.350003427
 20
24.249996573
 30
0.0
 11
0.1767815418
 21
-0.1767815418
 31
-0.0
 40
0.9999725851
 41
2.3562081979
 42
3.9269771093
  0
ELLIPSE
  5
87C
100
AcDbEntity
  8
0
100
AcDbEllipse
 62
7
  6
CONTINUOUS
 10
3.749996573
 20
24.249996573
 30
0.0
 11
-0.1767815418
 21
-0.1767815418
 31
-0.0
 40
0.9999725851
 41
2.3562081979
 42
3.9269771093
  0
ELLIPSE
  5
87D
100
AcDbEntity
  8
0
100
AcDbEllipse
 62
7
  6
CONTINUOUS
 10
18.750003427
 20
-24.249996573
 30
0.0
 11
0.1767815418
 21
0.1767815418
 31
0.0
 40
0.9999725851
 41
2.3562081979
 42
3.9269771093
  0
ELLIPSE
  5
87E
100
AcDbEntity
  8
0
100
AcDbEllipse
 62
7
  6
CONTINUOUS
 10
21.149996573
 20
-24.249996573
 30
0.0
 11
-0.1767815418
 21
0.1767815418
 31
0.0
 40
0.9999725851
 41
2.3562081979
 42
3.9269771093
  0
ELLIPSE
  5
87F
100
AcDbEntity
  8
0
100
AcDbEllipse
 62
7
  6
CONTINUOUS
 10
1.350003427
 20
-24.249996573
 30
0.0
 11
0.1767815418
 21
0.1767815418
 31
0.0
 40
0.9999725851
 41
2.3562081979
 42
3.9269771093
  0
ELLIPSE
  5
880
100
AcDbEntity
  8
0
100
AcDbEllipse
 62
7
  6
CONTINUOUS
 10
3.749996573
 20
-24.249996573
 30
0.0
 11
-0.1767815418
 21
0.1767815418
 31
0.0
 40
0.9999725851
 41
2.3562081979
 42
3.9269771093
  0
ELLIPSE
  5
881
100
AcDbEntity
  8
0
100
AcDbEllipse
 62
7
  6
CONTINUOUS
 10
-10.0499923843
 20
-23.7999972584
 30
0.0
 11
-0.1715082039
 21
-0.1029032505
 31
-0.0
 40
0.9999482169
 41
-0.540389487
 42
1.0303611479
  0
ELLIPSE
  5
882
100
AcDbEntity
  8
0
100
AcDbEllipse
 62
7
  6
CONTINUOUS
 10
-12.4500076157
 20
-23.7999972584
 30
0.0
 11
0.1715082039
 21
-0.1029032505
 31
-0.0
 40
0.9999482169
 41
-1.0303611479
 42
0.540389487
  0
ELLIPSE
  5
883
100
AcDbEntity
  8
0
100
AcDbEllipse
 62
7
  6
CONTINUOUS
 10
-12.4500076157
 20
23.7999972584
 30
0.0
 11
0.1715082039
 21
0.1029032505
 31
0.0
 40
0.9999482169
 41
-0.540389487
 42
1.0303611479
  0
ELLIPSE
  5
884
100
AcDbEntity
  8
0
100
AcDbEllipse
 62
7
  6
CONTINUOUS
 10
-10.0499923843
 20
23.7999972584
 30
0.0
 11
-0.1715082039
 21
0.1029032505
 31
0.0
 40
0.9999482169
 41
-1.0303611479
 42
0.540389487
  0
ELLIPSE
  5
885
100
AcDbEntity
  8
0
100
AcDbEllipse
 62
7
  6
CONTINUOUS
 10
-21.149996573
 20
-24.249996573
 30
0.0
 11
0.1767815418
 21
0.1767815418
 31
0.0
 40
0.9999725851
 41
2.3562081979
 42
3.9269771093
  0
ELLIPSE
  5
886
100
AcDbEntity
  8
0
100
AcDbEllipse
 62
7
  6
CONTINUOUS
 10
-18.750003427
 20
-24.249996573
 30
0.0
 11
-0.1767815418
 21
0.1767815418
 31
0.0
 40
0.9999725851
 41
2.3562081979
 42
3.9269771093
  0
ELLIPSE
  5
887
100
AcDbEntity
  8
0
100
AcDbEllipse
 62
7
  6
CONTINUOUS
 10
-3.749996573
 20
-24.249996573
 30
0.0
 11
0.1767815418
 21
0.1767815418
 31
0.0
 40
0.9999725851
 41
2.3562081979
 42
3.9269771093
  0
ELLIPSE
  5
888
100
AcDbEntity
  8
0
100
AcDbEllipse
 62
7
  6
CONTINUOUS
 10
-1.350003427
 20
-24.249996573
 30
0.0
 11
-0.1767815418
 21
0.1767815418
 31
0.0
 40
0.9999725851
 41
2.3562081979
 42
3.9269771093
  0
ELLIPSE
  5
889
100
AcDbEntity
  8
0
100
AcDbEllipse
 62
7
  6
CONTINUOUS
 10
-18.750003427
 20
24.249996573
 30
0.0
 11
-0.1767815418
 21
-0.1767815418
 31
-0.0
 40
0.9999725851
 41
2.3562081979
 42
3.9269771093
  0
ELLIPSE
  5
88A
100
AcDbEntity
  8
0
100
AcDbEllipse
 62
7
  6
CONTINUOUS
 10
-21.149996573
 20
24.249996573
 30
0.0
 11
0.1767815418
 21
-0.1767815418
 31
-0.0
 40
0.9999725851
 41
2.3562081979
 42
3.9269771093
  0
ELLIPSE
  5
88B
100
AcDbEntity
  8
0
100
AcDbEllipse
 62
7
  6
CONTINUOUS
 10
-1.350003427
 20
24.249996573
 30
0.0
 11
-0.1767815418
 21
-0.1767815418
 31
-0.0
 40
0.9999725851
 41
2.3562081979
 42
3.9269771093
  0
ELLIPSE
  5
88C
100
AcDbEntity
  8
0
100
AcDbEllipse
 62
7
  6
CONTINUOUS
 10
-3.749996573
 20
24.249996573
 30
0.0
 11
0.1767815418
 21
-0.1767815418
 31
-0.0
 40
0.9999725851
 41
2.3562081979
 42
3.9269771093
  0
ELLIPSE
  5
88D
100
AcDbEntity
  8
0
100
AcDbEllipse
 62
7
  6
CONTINUOUS
 10
8.1627313221
 20
-21.2859869487
 30
0.0
 11
0.0
 21
1.0
 31
0.0
 40
0.0087268678
 41
-4.7123889804
 42
-3.1474104178
  0
ELLIPSE
  5
88E
100
AcDbEntity
  8
0
100
AcDbEllipse
 62
7
  6
CONTINUOUS
 10
3.0094034965
 20
-21.2859869487
 30
0.0
 11
1.0000571192
 21
-0.9999809595
 31
0.0
 40
0.0061705924
 41
-0.0003532199
 42
1.1623135715
  0
ELLIPSE
  5
88F
100
AcDbEntity
  8
0
100
AcDbEllipse
 62
7
  6
CONTINUOUS
 10
8.1627313221
 20
21.2859869487
 30
0.0
 11
0.0
 21
1.0
 31
0.0
 40
0.0087268678
 41
0.0058177642
 42
1.5707963268
  0
ELLIPSE
  5
890
100
AcDbEntity
  8
0
100
AcDbEllipse
 62
7
  6
CONTINUOUS
 10
3.0094034965
 20
21.2859869487
 30
0.0
 11
1.0000571192
 21
0.9999809595
 31
0.0
 40
0.0061705924
 41
-1.1623135715
 42
0.0003532199
  0
ELLIPSE
  5
891
100
AcDbEntity
  8
0
100
AcDbEllipse
 62
7
  6
CONTINUOUS
 10
14.3372686779
 20
21.2859869487
 30
0.0
 11
0.0
 21
1.0
 31
0.0
 40
0.0087268678
 41
-1.5707963268
 42
-0.0058177642
  0
ELLIPSE
  5
892
100
AcDbEntity
  8
0
100
AcDbEllipse
 62
7
  6
CONTINUOUS
 10
19.4905965035
 20
21.2859869487
 30
0.0
 11
1.0000571192
 21
-0.9999809595
 31
0.0
 40
0.0061705924
 41
3.1412394337
 42
4.303906225
  0
ELLIPSE
  5
893
100
AcDbEntity
  8
0
100
AcDbEllipse
 62
7
  6
CONTINUOUS
 10
14.3372686779
 20
-21.2859869487
 30
0.0
 11
-0.0
 21
1.0
 31
0.0
 40
0.0087268678
 41
-3.1357748894
 42
-1.5707963268
  0
ELLIPSE
  5
894
100
AcDbEntity
  8
0
100
AcDbEllipse
 62
7
  6
CONTINUOUS
 10
21.841254093
 20
21.8441737085
 30
0.0
 11
-0.4160498344
 21
-0.2773626446
 31
-0.0
 40
0.9999450019
 41
2.5536219432
 42
4.1243675013
  0
ELLIPSE
  5
895
100
AcDbEntity
  8
0
100
AcDbEllipse
 62
7
  6
CONTINUOUS
 10
21.841254093
 20
-21.8441737085
 30
0.0
 11
0.4160498344
 21
-0.2773626446
 31
-0.0
 40
0.9999450019
 41
-0.9827748477
 42
0.5879707104
  0
ELLIPSE
  5
896
100
AcDbEntity
  8
0
100
AcDbEllipse
 62
7
  6
CONTINUOUS
 10
-21.841254093
 20
-21.8441737085
 30
0.0
 11
0.4160498344
 21
0.2773626446
 31
0.0
 40
0.9999450019
 41
2.5536219432
 42
4.1243675013
  0
ELLIPSE
  5
897
100
AcDbEntity
  8
0
100
AcDbEllipse
 62
7
  6
CONTINUOUS
 10
-21.841254093
 20
21.8441737085
 30
0.0
 11
-0.4160498344
 21
0.2773626446
 31
0.0
 40
0.9999450019
 41
-0.9827748477
 42
0.5879707104
  0
ELLIPSE
  5
898
100
AcDbEntity
  8
0
100
AcDbEllipse
 62
7
  6
CONTINUOUS
 10
18.8166456542
 20
-21.9537669705
 30
0.0
 11
0.4999904798
 21
0.5000285596
 31
0.0
 40
0.0061705924
 41
0.0112823085
 42
0.9916959574
  0
ELLIPSE
  5
899
100
AcDbEntity
  8
0
100
AcDbEllipse
 62
7
  6
CONTINUOUS
 10
3.6833543458
 20
-21.9537669705
 30
0.0
 11
-0.4999904798
 21
0.5000285596
 31
0.0
 40
0.0061705924
 41
-0.9916959574
 42
-0.0112823085
  0
ELLIPSE
  5
89A
100
AcDbEntity
  8
0
100
AcDbEllipse
 62
7
  6
CONTINUOUS
 10
3.6833543458
 20
21.9537669705
 30
0.0
 11
0.4999904798
 21
0.5000285596
 31
0.0
 40
0.0061705924
 41
-3.1303103451
 42
-2.1498966962
  0
ELLIPSE
  5
89B
100
AcDbEntity
  8
0
100
AcDbEllipse
 62
7
  6
CONTINUOUS
 10
18.8166456542
 20
21.9537669705
 30
0.0
 11
-0.4999904798
 21
0.5000285596
 31
0.0
 40
0.0061705924
 41
-4.133288611
 42
-3.1528749621
  0
ELLIPSE
  5
89C
100
AcDbEntity
  8
0
100
AcDbEllipse
 62
7
  6
CONTINUOUS
 10
-3.6833543458
 20
-21.9537669705
 30
0.0
 11
0.4999904798
 21
0.5000285596
 31
0.0
 40
0.0061705924
 41
0.0112823085
 42
0.9916959574
  0
ELLIPSE
  5
89D
100
AcDbEntity
  8
0
100
AcDbEllipse
 62
7
  6
CONTINUOUS
 10
-18.8166456542
 20
-21.9537669705
 30
0.0
 11
-0.4999904798
 21
0.5000285596
 31
0.0
 40
0.0061705924
 41
-0.9916959574
 42
-0.0112823085
  0
ELLIPSE
  5
89E
100
AcDbEntity
  8
0
100
AcDbEllipse
 62
7
  6
CONTINUOUS
 10
-18.8166456542
 20
21.9537669705
 30
0.0
 11
0.4999904798
 21
0.5000285596
 31
0.0
 40
0.0061705924
 41
-3.1303103451
 42
-2.1498966962
  0
ELLIPSE
  5
89F
100
AcDbEntity
  8
0
100
AcDbEllipse
 62
7
  6
CONTINUOUS
 10
-3.6833543458
 20
21.9537669705
 30
0.0
 11
-0.4999904798
 21
0.5000285596
 31
0.0
 40
0.0061705924
 41
-4.133288611
 42
-3.1528749621
  0
ELLIPSE
  5
8A0
100
AcDbEntity
  8
0
100
AcDbEllipse
 62
7
  6
CONTINUOUS
 10
18.8166456542
 20
-20.9916321118
 30
0.0
 11
0.5
 21
0.0
 31
0.0
 40
0.0087268678
 41
-1.5707963268
 42
-0.0174532925
  0
ELLIPSE
  5
8A1
100
AcDbEntity
  8
0
100
AcDbEllipse
 62
7
  6
CONTINUOUS
 10
3.6833543458
 20
-20.9916321118
 30
0.0
 11
0.5
 21
0.0
 31
0.0
 40
0.0087268678
 41
-3.1241393611
 42
-1.5707963268
  0
ELLIPSE
  5
8A2
100
AcDbEntity
  8
0
100
AcDbEllipse
 62
7
  6
CONTINUOUS
 10
-3.6833543458
 20
-20.9916321118
 30
0.0
 11
0.5
 21
0.0
 31
0.0
 40
0.0087268678
 41
-1.5707963268
 42
-0.0174532925
  0
ELLIPSE
  5
8A3
100
AcDbEntity
  8
0
100
AcDbEllipse
 62
7
  6
CONTINUOUS
 10
-3.6833543458
 20
20.9916321118
 30
0.0
 11
0.5
 21
0.0
 31
0.0
 40
0.0087268678
 41
0.0174532925
 42
1.5707963268
  0
ELLIPSE
  5
8A4
100
AcDbEntity
  8
0
100
AcDbEllipse
 62
7
  6
CONTINUOUS
 10
3.6833543458
 20
20.9916321118
 30
0.0
 11
0.5
 21
-0.0
 31
0.0
 40
0.0087268678
 41
1.5707963268
 42
3.1241393611
  0
ELLIPSE
  5
8A5
100
AcDbEntity
  8
0
100
AcDbEllipse
 62
7
  6
CONTINUOUS
 10
18.8166456542
 20
20.9916321118
 30
0.0
 11
0.5
 21
-0.0
 31
0.0
 40
0.0087268678
 41
0.0174532925
 42
1.5707963268
  0
ELLIPSE
  5
8A6
100
AcDbEntity
  8
0
100
AcDbEllipse
 62
7
  6
CONTINUOUS
 10
-18.8166456542
 20
-20.9916321118
 30
0.0
 11
0.5
 21
-0.0
 31
0.0
 40
0.0087268678
 41
-3.1241393611
 42
-1.5707963268
  0
ELLIPSE
  5
8A7
100
AcDbEntity
  8
0
100
AcDbEllipse
 62
7
  6
CONTINUOUS
 10
-18.8166456542
 20
20.9916321118
 30
0.0
 11
0.5
 21
0.0
 31
0.0
 40
0.0087268678
 41
1.5707963268
 42
3.1241393611
  0
ELLIPSE
  5
8A8
100
AcDbEntity
  8
DRAFT
100
AcDbEllipse
 62
7
  6
CONTINUOUS
 10
-17.7797989454
 20
7.8451982827
 30
0.0
 11
-0.0
 21
88.6
 31
0.0
 40
0.0087268678
 41
1.4365918781
 42
1.4826855732
  0
ELLIPSE
  5
8A9
100
AcDbEntity
  8
DRAFT
100
AcDbEllipse
 62
7
  6
CONTINUOUS
 10
-17.7797989454
 20
-7.8451982827
 30
0.0
 11
-0.0
 21
88.6
 31
0.0
 40
0.0087268678
 41
-4.6242782268
 42
-4.5781845317
  0
ELLIPSE
  5
8AA
100
AcDbEntity
  8
DRAFT
100
AcDbEllipse
 62
7
  6
CONTINUOUS
 10
-4.7202010546
 20
-7.8451982827
 30
0.0
 11
-0.0
 21
88.6
 31
0.0
 40
0.0087268678
 41
-1.7050002216
 42
-1.6845649493
  0
ELLIPSE
  5
8AB
100
AcDbEntity
  8
DRAFT
100
AcDbEllipse
 62
7
  6
CONTINUOUS
 10
-4.7202010546
 20
7.8451982827
 30
0.0
 11
-0.0
 21
88.6
 31
0.0
 40
0.0087268678
 41
-1.4570277043
 42
-1.436592432
  0
ELLIPSE
  5
8AC
100
AcDbEntity
  8
DRAFT
100
AcDbEllipse
 62
7
  6
CONTINUOUS
 10
-18.5202010546
 20
-7.8451982827
 30
0.0
 11
-0.0
 21
88.6
 31
0.0
 40
0.0087268678
 41
-1.7050006127
 42
-1.6589070804
  0
ELLIPSE
  5
8AD
100
AcDbEntity
  8
DRAFT
100
AcDbEllipse
 62
7
  6
CONTINUOUS
 10
-18.5202010546
 20
7.8451982827
 30
0.0
 11
-0.0
 21
88.6
 31
0.0
 40
0.0087268678
 41
-1.4331749826
 42
-1.433125761
  0
ELLIPSE
  5
8AE
100
AcDbEntity
  8
DRAFT
100
AcDbEllipse
 62
7
  6
CONTINUOUS
 10
-18.5202010546
 20
7.8451982827
 30
0.0
 11
-0.0
 21
88.6
 31
0.0
 40
0.0087268678
 41
-1.4826855732
 42
-1.4365920409
  0
ELLIPSE
  5
8AF
100
AcDbEntity
  8
DRAFT
100
AcDbEllipse
 62
7
  6
CONTINUOUS
 10
-3.9797989454
 20
7.8451982827
 30
0.0
 11
-0.0
 21
88.6
 31
0.0
 40
0.0087268678
 41
1.4365924171
 42
1.4570277043
  0
ELLIPSE
  5
8B0
100
AcDbEntity
  8
DRAFT
100
AcDbEllipse
 62
7
  6
CONTINUOUS
 10
-3.9797989454
 20
7.8451982827
 30
0.0
 11
-0.0
 21
88.6
 31
0.0
 40
0.0087268678
 41
1.433125761
 42
1.4331749929
  0
ELLIPSE
  5
8B1
100
AcDbEntity
  8
DRAFT
100
AcDbEllipse
 62
7
  6
CONTINUOUS
 10
-3.9797989454
 20
-7.8451982827
 30
0.0
 11
-0.0
 21
88.6
 31
0.0
 40
0.0087268678
 41
-4.5986203579
 42
-4.5781850707
  0
ELLIPSE
  5
8B2
100
AcDbEntity
  8
DRAFT
100
AcDbEllipse
 62
7
  6
CONTINUOUS
 10
4.7202010546
 20
-7.8451982827
 30
0.0
 11
-0.0
 21
88.6
 31
0.0
 40
0.0087268678
 41
-4.5986203579
 42
-4.5781850856
  0
ELLIPSE
  5
8B3
100
AcDbEntity
  8
DRAFT
100
AcDbEllipse
 62
7
  6
CONTINUOUS
 10
4.7202010546
 20
7.8451982827
 30
0.0
 11
-0.0
 21
88.6
 31
0.0
 40
0.0087268678
 41
1.436592432
 42
1.4570277043
  0
ELLIPSE
  5
8B4
100
AcDbEntity
  8
DRAFT
100
AcDbEllipse
 62
7
  6
CONTINUOUS
 10
3.9797989454
 20
-7.8451982827
 30
0.0
 11
-0.0
 21
88.6
 31
0.0
 40
0.0087268678
 41
-1.7050002365
 42
-1.6845649493
  0
ELLIPSE
  5
8B5
100
AcDbEntity
  8
DRAFT
100
AcDbEllipse
 62
7
  6
CONTINUOUS
 10
3.9797989454
 20
7.8451982827
 30
0.0
 11
-0.0
 21
88.6
 31
0.0
 40
0.0087268678
 41
-1.4570277043
 42
-1.4365924171
  0
ELLIPSE
  5
8B6
100
AcDbEntity
  8
DRAFT
100
AcDbEllipse
 62
7
  6
CONTINUOUS
 10
18.5202010546
 20
-7.8451982827
 30
0.0
 11
-0.0
 21
88.6
 31
0.0
 40
0.0087268678
 41
-4.6242782268
 42
-4.5781846945
  0
ELLIPSE
  5
8B7
100
AcDbEntity
  8
DRAFT
100
AcDbEllipse
 62
7
  6
CONTINUOUS
 10
18.5202010546
 20
7.8451982827
 30
0.0
 11
-0.0
 21
88.6
 31
0.0
 40
0.0087268678
 41
1.4365920409
 42
1.4826855732
  0
ELLIPSE
  5
8B8
100
AcDbEntity
  8
DRAFT
100
AcDbEllipse
 62
7
  6
CONTINUOUS
 10
17.7797989454
 20
-7.8451982827
 30
0.0
 11
-0.0
 21
88.6
 31
0.0
 40
0.0087268678
 41
-1.7050007755
 42
-1.6589070804
  0
ELLIPSE
  5
8B9
100
AcDbEntity
  8
DRAFT
100
AcDbEllipse
 62
7
  6
CONTINUOUS
 10
17.7797989454
 20
7.8451982827
 30
0.0
 11
-0.0
 21
88.6
 31
0.0
 40
0.0087268678
 41
-1.4826855732
 42
-1.4365918781
  0
ELLIPSE
  5
8BA
100
AcDbEntity
  8
0
100
AcDbEllipse
 62
7
  6
CONTINUOUS
 10
-15.2115177923
 20
22.3058074126
 30
0.0
 11
0.4039394627
 21
0.0
 31
0.0
 40
0.0058178298
 41
-3.1363566658
 42
-0.0087266463
  0
ELLIPSE
  5
8BB
100
AcDbEntity
  8
0
100
AcDbEllipse
 62
7
  6
CONTINUOUS
 10
-7.2884822077
 20
22.3058074126
 30
0.0
 11
0.4039394627
 21
0.0
 31
0.0
 40
0.0058178298
 41
-3.1328660073
 42
-0.0052359878
  0
ELLIPSE
  5
8BC
100
AcDbEntity
  8
0
100
AcDbEllipse
 62
7
  6
CONTINUOUS
 10
6.8840342314
 20
23.2659657686
 30
0.0
 11
-0.0
 21
0.5
 31
0.0
 40
0.0052360356
 41
-0.1976351831
 42
-0.0104719755
  0
ELLIPSE
  5
8BD
100
AcDbEntity
  8
0
100
AcDbEllipse
 62
7
  6
CONTINUOUS
 10
19.4905965035
 20
-21.2859869487
 30
0.0
 11
1.0000571192
 21
0.9999809595
 31
0.0
 40
0.0061705924
 41
1.9792790821
 42
3.1419458735
  0
ELLIPSE
  5
8BE
100
AcDbEntity
  8
0
100
AcDbEllipse
 62
7
  6
CONTINUOUS
 10
15.6159657686
 20
23.2659657686
 30
0.0
 11
0.0
 21
0.5
 31
0.0
 40
0.0052360356
 41
0.0104719755
 42
0.1976351831
  0
ELLIPSE
  5
8BF
100
AcDbEntity
  8
0
100
AcDbEllipse
 62
7
  6
CONTINUOUS
 10
-7.2884822077
 20
-22.3058074126
 30
0.0
 11
0.4039394627
 21
0.0
 31
0.0
 40
0.0058178298
 41
0.0052359878
 42
3.1328660073
  0
ELLIPSE
  5
8C0
100
AcDbEntity
  8
0
100
AcDbEllipse
 62
7
  6
CONTINUOUS
 10
15.6159657686
 20
-23.2659657686
 30
0.0
 11
0.0
 21
0.5
 31
0.0
 40
0.0052360356
 41
-3.3392278367
 42
-3.1520646291
  0
ELLIPSE
  5
8C1
100
AcDbEntity
  8
0
100
AcDbEllipse
 62
7
  6
CONTINUOUS
 10
-15.2115177923
 20
-22.3058074126
 30
0.0
 11
0.4039394627
 21
0.0
 31
0.0
 40
0.0058178298
 41
0.0087266463
 42
3.1363566658
  0
ELLIPSE
  5
8C2
100
AcDbEntity
  8
0
100
AcDbEllipse
 62
7
  6
CONTINUOUS
 10
6.8840342314
 20
-23.2659657686
 30
0.0
 11
0.0
 21
0.5
 31
0.0
 40
0.0052360356
 41
-3.1311206781
 42
-2.9439574705
  0
ELLIPSE
  5
8C3
100
AcDbEntity
  8
0
100
AcDbEllipse
 62
7
  6
CONTINUOUS
 10
7.2884822077
 20
22.3058074126
 30
0.0
 11
0.4039394627
 21
0.0
 31
0.0
 40
0.0058178298
 41
-3.1363566658
 42
-0.0087266463
  0
ELLIPSE
  5
8C4
100
AcDbEntity
  8
0
100
AcDbEllipse
 62
7
  6
CONTINUOUS
 10
15.2115177923
 20
22.3058074126
 30
0.0
 11
0.4039394627
 21
0.0
 31
0.0
 40
0.0058178298
 41
-3.1328660073
 42
-0.0052359878
  0
ELLIPSE
  5
8C5
100
AcDbEntity
  8
0
100
AcDbEllipse
 62
7
  6
CONTINUOUS
 10
7.2884822077
 20
-22.3058074126
 30
0.0
 11
0.4039394627
 21
-0.0
 31
0.0
 40
0.0058178298
 41
0.0087266463
 42
3.1363566658
  0
ELLIPSE
  5
8C6
100
AcDbEntity
  8
0
100
AcDbEllipse
 62
7
  6
CONTINUOUS
 10
15.2115177923
 20
-22.3058074126
 30
0.0
 11
0.4039394627
 21
-0.0
 31
0.0
 40
0.0058178298
 41
0.0052359878
 42
3.1328660073
  0
ELLIPSE
  5
8C7
100
AcDbEntity
  8
0
100
AcDbEllipse
 62
7
  6
CONTINUOUS
 10
-14.8067246406
 20
23.2659657686
 30
0.0
 11
-0.0
 21
0.5
 31
0.0
 40
0.0087268678
 41
0.0104719755
 42
0.2005119591
  0
ELLIPSE
  5
8C8
100
AcDbEntity
  8
0
100
AcDbEllipse
 62
7
  6
CONTINUOUS
 10
-15.6159657686
 20
23.2659657686
 30
0.0
 11
-0.0
 21
0.5
 31
0.0
 40
0.0052360356
 41
-0.1976351831
 42
-0.0104719755
  0
ELLIPSE
  5
8C9
100
AcDbEntity
  8
0
100
AcDbEllipse
 62
7
  6
CONTINUOUS
 10
-7.6932753594
 20
23.2659657686
 30
0.0
 11
-0.0
 21
0.5
 31
0.0
 40
0.0087268678
 41
-0.2005119591
 42
-0.0104719755
  0
ELLIPSE
  5
8CA
100
AcDbEntity
  8
0
100
AcDbEllipse
 62
7
  6
CONTINUOUS
 10
-6.8840342314
 20
23.2659657686
 30
0.0
 11
0.0
 21
0.5
 31
0.0
 40
0.0052360356
 41
0.0104719755
 42
0.1976351831
  0
ELLIPSE
  5
8CB
100
AcDbEntity
  8
0
100
AcDbEllipse
 62
7
  6
CONTINUOUS
 10
-6.8840342314
 20
-23.2659657686
 30
0.0
 11
-0.0
 21
0.5
 31
0.0
 40
0.0052360356
 41
-3.3392278367
 42
-3.1520646291
  0
ELLIPSE
  5
8CC
100
AcDbEntity
  8
0
100
AcDbEllipse
 62
7
  6
CONTINUOUS
 10
-7.6932753594
 20
-23.2659657686
 30
0.0
 11
-0.0
 21
0.5
 31
0.0
 40
0.0087268678
 41
-3.1311206781
 42
-2.9410806945
  0
ELLIPSE
  5
8CD
100
AcDbEntity
  8
0
100
AcDbEllipse
 62
7
  6
CONTINUOUS
 10
-15.6159657686
 20
-23.2659657686
 30
0.0
 11
-0.0
 21
0.5
 31
0.0
 40
0.0052360356
 41
-3.1311206781
 42
-2.9439574705
  0
ELLIPSE
  5
8CE
100
AcDbEntity
  8
0
100
AcDbEllipse
 62
7
  6
CONTINUOUS
 10
-14.8067246406
 20
-23.2659657686
 30
0.0
 11
0.0
 21
0.5
 31
0.0
 40
0.0087268678
 41
-3.3421046127
 42
-3.1520646291
  0
ELLIPSE
  5
8CF
100
AcDbEntity
  8
0
100
AcDbEllipse
 62
7
  6
CONTINUOUS
 10
-8.1627313221
 20
21.2859869487
 30
0.0
 11
0.0
 21
1.0
 31
0.0
 40
0.0087268678
 41
-1.5707963268
 42
-0.0058177642
  0
ELLIPSE
  5
8D0
100
AcDbEntity
  8
0
100
AcDbEllipse
 62
7
  6
CONTINUOUS
 10
-3.0094034965
 20
21.2859869487
 30
0.0
 11
1.0000571192
 21
-0.9999809595
 31
0.0
 40
0.0061705924
 41
3.1412394337
 42
4.303906225
  0
ELLIPSE
  5
8D1
100
AcDbEntity
  8
0
100
AcDbEllipse
 62
7
  6
CONTINUOUS
 10
-19.4905965035
 20
21.2859869487
 30
0.0
 11
1.0000571192
 21
0.9999809595
 31
0.0
 40
0.0061705924
 41
-1.1623135715
 42
0.0003532199
  0
ELLIPSE
  5
8D2
100
AcDbEntity
  8
0
100
AcDbEllipse
 62
7
  6
CONTINUOUS
 10
-14.3372686779
 20
21.2859869487
 30
0.0
 11
0.0
 21
1.0
 31
0.0
 40
0.0087268678
 41
0.0058177642
 42
1.5707963268
  0
ELLIPSE
  5
8D3
100
AcDbEntity
  8
0
100
AcDbEllipse
 62
7
  6
CONTINUOUS
 10
-14.3372686779
 20
-21.2859869487
 30
0.0
 11
0.0
 21
1.0
 31
0.0
 40
0.0087268678
 41
-4.7123889804
 42
-3.1474104178
  0
ELLIPSE
  5
8D4
100
AcDbEntity
  8
0
100
AcDbEllipse
 62
7
  6
CONTINUOUS
 10
-19.4905965035
 20
-21.2859869487
 30
0.0
 11
1.0000571192
 21
-0.9999809595
 31
0.0
 40
0.0061705924
 41
-0.0003532199
 42
1.1623135715
  0
ELLIPSE
  5
8D5
100
AcDbEntity
  8
0
100
AcDbEllipse
 62
7
  6
CONTINUOUS
 10
-3.0094034965
 20
-21.2859869487
 30
0.0
 11
1.0000571192
 21
0.9999809595
 31
0.0
 40
0.0061705924
 41
1.9792790821
 42
3.1419458735
  0
ELLIPSE
  5
8D6
100
AcDbEntity
  8
0
100
AcDbEllipse
 62
7
  6
CONTINUOUS
 10
-8.1627313221
 20
-21.2859869487
 30
0.0
 11
-0.0
 21
1.0
 31
0.0
 40
0.0087268678
 41
-3.1357748894
 42
-1.5707963268
  0
ELLIPSE
  5
8D7
100
AcDbEntity
  8
0
100
AcDbEllipse
 62
7
  6
CONTINUOUS
 10
7.6932753594
 20
23.2659657686
 30
0.0
 11
-0.0
 21
0.5
 31
0.0
 40
0.0087268678
 41
0.0104719755
 42
0.2005119591
  0
ELLIPSE
  5
8D8
100
AcDbEntity
  8
0
100
AcDbEllipse
 62
7
  6
CONTINUOUS
 10
14.8067246406
 20
23.2659657686
 30
0.0
 11
0.0
 21
0.5
 31
0.0
 40
0.0087268678
 41
-0.2005119591
 42
-0.0104719755
  0
ELLIPSE
  5
8D9
100
AcDbEntity
  8
0
100
AcDbEllipse
 62
7
  6
CONTINUOUS
 10
14.8067246406
 20
-23.2659657686
 30
0.0
 11
-0.0
 21
0.5
 31
0.0
 40
0.0087268678
 41
-3.1311206781
 42
-2.9410806945
  0
ELLIPSE
  5
8DA
100
AcDbEntity
  8
0
100
AcDbEllipse
 62
7
  6
CONTINUOUS
 10
7.6932753594
 20
-23.2659657686
 30
0.0
 11
-0.0
 21
0.5
 31
0.0
 40
0.0087268678
 41
-3.3421046127
 42
-3.1520646291
  0
ENDSEC
  0
SECTION
  2
OBJECTS
  0
DICTIONARY
  5
C
100
AcDbDictionary
280
0
281
1
  3
ACAD_GROUP
350
D
  3
ACAD_MLINESTYLE
350
17
  3
ACAD_LAYOUT
350
1A
  3
ACAD_PLOTSETTINGS
350
19
  3
ACAD_PLOTSTYLENAME
350
E
  0
DICTIONARY
  5
D
102
{ACAD_REACTORS
330
C
102
}
100
AcDbDictionary
280
0
281
1
  0
ACDBDICTIONARYWDFLT
  5
E
102
{ACAD_REACTORS
330
C
102
}
100
AcDbDictionary
281
1
  3
Normal
350
F
100
AcDbDictionaryWithDefault
340
F
  0
DICTIONARY
  5
17
102
{ACAD_REACTORS
330
C
102
}
100
AcDbDictionary
280
0
281
1
  3
Standard
350
18
  0
DICTIONARY
  5
19
102
{ACAD_REACTORS
330
C
102
}
100
AcDbDictionary
281
1
  0
DICTIONARY
  5
1A
102
{ACAD_REACTORS
330
C
102
}
100
AcDbDictionary
281
1
  3
Model
350
8DB
  3
Layout1
350
8DC
  0
ACDBPLACEHOLDER
  5
F
102
{ACAD_REACTORS
330
E
102
}
  0
MLINESTYLE
  5
18
102
{ACAD_REACTORS
330
17
102
}
100
AcDbMlineStyle
  2
STANDARD
 70
0
  3

 62
256
 51
90.0
 52
90.0
 71
2
 49
0.5
 62
256
  6
BYLAYER
 49
-0.5
 62
256
  6
BYLAYER
  0
LAYOUT
  5
8DB
102
{ACAD_REACTORS
330
1A
102
}
100
AcDbPlotSettings
  1

  2
none_device
  4
ISO_A4_(297.00_x_210.00_MM)
  6

 40
0.0
 41
0.0
 42
0.0
 43
0.0
 44
297.0
 45
210.0
 46
0.0
 47
0.0
 48
0.0
 49
0.0
140
0.0
141
0.0
142
1.0
143
1.0
 70
1024
 72
1
 73
0
 74
0
  7

 75
0
147
1.0
148
0.0
149
0.0
100
AcDbLayout
  1
Model
 70
0
 71
0
 10
0.0
 20
0.0
 11
297.0
 21
210.0
 12
0.0
 22
0.0
 32
0.0
 14
0.0
 24
0.0
 34
0.0
 15
0.0
 25
0.0
 35
0.0
146
0.0
 13
0.0
 23
0.0
 33
0.0
 16
1.0
 26
0.0
 36
0.0
 17
0.0
 27
1.0
 37
0.0
 76
0
330
20F
345
0
346
0
  0
LAYOUT
  5
8DC
102
{ACAD_REACTORS
330
1A
102
}
100
AcDbPlotSettings
  1

  2
none_device
  4
ISO_A4_(297.00_x_210.00_MM)
  6

 40
0.0
 41
0.0
 42
0.0
 43
0.0
 44
297.0
 45
210.0
 46
0.0
 47
0.0
 48
0.0
 49
0.0
140
0.0
141
0.0
142
1.0
143
1.0
 70
0
 72
1
 73
0
 74
0
  7

 75
0
147
1.0
148
0.0
149
0.0
100
AcDbLayout
  1
Layout1
 70
0
 71
1
 10
0.0
 20
0.0
 11
297.0
 21
210.0
 12
0.0
 22
0.0
 32
0.0
 14
0.0
 24
0.0
 34
0.0
 15
0.0
 25
0.0
 35
0.0
146
0.0
 13
0.0
 23
0.0
 33
0.0
 16
1.0
 26
0.0
 36
0.0
 17
0.0
 27
1.0
 37
0.0
 76
0
330
210
345
0
346
0
  0
ENDSEC
  0
EOF
