  0
SECTION
  2
HEADER
  9
$ACADVER
  1
AC1015
  9
$DWGCODEPAGE
  3
ANSI_1252
  9
$EXTMAX
 10
297.0
 20
210.0
 30
0.0
  9
$EXTMIN
 10
0.0
 20
0.0
 30
0.0
  9
$LIMMIN
 10
0.0
 20
0.0
  9
$LIMMAX
 10
297.0
 20
210.0
  9
$VIEWCTR
 10
148.5
 20
105.0
  9
$VIEWSIZE
 40
210.0
  9
$CLAYER
  8
0
  9
$LTSCALE
 40
16.335
  9
$CELTYPE
  6
BYLAYER
  9
$DIMSCALE
 40
1.0
  9
$DIMASZ
 40
3.0
  9
$DIMEXO
 40
1.85625
  9
$DIMDLI
 40
11.286
  9
$DIMEXE
 40
5.346
  9
$DIMCEN
 40
2.673
  9
$DIMLFAC
 40
1.0
  9
$DIMBLK
  1
_FILLED
  9
$DIMTXT
 40
3.0
  9
$DIMTOL
 70
1
  9
$DIMLIM
 70
0
  9
$DIMTFAC
 40
1.0
  9
$DIMTP
 40
0.01
  9
$DIMTM
 40
0.01
  9
$PDMODE
 70
3
  9
$PDSIZE
 40
3.0
  9
$HANDSEED
  5
432
  9
$TILEMODE
 70
1
  9
$MEASUREMENT
 70
1
  9
$INSUNITS
 70
4
  0
ENDSEC
  0
SECTION
  2
CLASSES
  0
CLASS
  1
ACDBDICTIONARYWDFLT
  2
AcDbDictionaryWithDefault
  3
AutoCAD 2000
 90
0
280
0
281
0
  0
CLASS
  1
ACDBPLACEHOLDER
  2
AcDbPlaceHolder
  3
AutoCAD 2000
 90
0
280
0
281
0
  0
CLASS
  1
LAYOUT
  2
AcDbLayout
  3
AutoCAD 2000
 90
0
280
0
281
0
  0
ENDSEC
  0
SECTION
  2
TABLES
  0
TABLE
  2
VPORT
  5
8
100
AcDbSymbolTable
 70
2
  0
VPORT
  5
1F4
100
AcDbSymbolTableRecord
100
AcDbViewportTableRecord
  2
*ACTIVE
 70
0
 10
0.0
 20
0.0
 11
1.0
 21
1.0
 12
148.5
 22
105.0
 13
0.0
 23
0.0
 14
1.0
 24
1.0
 15
0.0
 25
0.0
 16
0.0
 26
0.0
 36
1.0
 17
0.0
 27
0.0
 37
0.0
 40
210.0
 41
1.4142857143
 42
50.0
 43
0.0
 44
0.0
 50
0.0
 51
0.0
 71
0
 72
100
 73
1
 74
1
 75
0
 76
0
 77
0
 78
0
  0
ENDTAB
  0
TABLE
  2
LTYPE
  5
5
100
AcDbSymbolTable
 70
6
  0
LTYPE
  5
14
100
AcDbSymbolTableRecord
100
AcDbLinetypeTableRecord
  2
BYBLOCK
 70
0
  3

 72
65
 73
0
 40
0.0
  0
LTYPE
  5
15
100
AcDbSymbolTableRecord
100
AcDbLinetypeTableRecord
  2
BYLAYER
 70
0
  3

 72
65
 73
0
 40
0.0
  0
LTYPE
  5
16
100
AcDbSymbolTableRecord
100
AcDbLinetypeTableRecord
  2
CONTINUOUS
 70
64
  3
Solid line
 72
65
 73
0
 40
0.0
  0
LTYPE
  5
1F5
100
AcDbSymbolTableRecord
100
AcDbLinetypeTableRecord
  2
CENTER
 70
64
  3
____ _ ____ _ ____ _ ____ _ ____ _ ____ _ ____
 72
65
 73
4
 40
0.6
 49
0.375
 74
0
 49
-0.075
 74
0
 49
0.075
 74
0
 49
-0.075
 74
0
  0
LTYPE
  5
1F6
100
AcDbSymbolTableRecord
100
AcDbLinetypeTableRecord
  2
HIDDEN
 70
64
  3
- - - - - - - - - - - - - - - - - - - -
 72
65
 73
2
 40
0.2
 49
0.1
 74
0
 49
-0.1
 74
0
  0
LTYPE
  5
1F7
100
AcDbSymbolTableRecord
100
AcDbLinetypeTableRecord
  2
PHANTOM
 70
64
  3
_____ _ _ _____ _ _ _____ _ _ _____
 72
65
 73
6
 40
0.8
 49
0.45
 74
0
 49
-0.05
 74
0
 49
0.1
 74
0
 49
-0.05
 74
0
 49
0.1
 74
0
 49
-0.05
 74
0
  0
LTYPE
  5
1F8
100
AcDbSymbolTableRecord
100
AcDbLinetypeTableRecord
  2
DOT
 70
64
  3
. . . . . . . . . . . . . . . . . . . .
 72
65
 73
2
 40
0.2
 49
0.1
 74
0
 49
-0.1
 74
0
  0
LTYPE
  5
1F9
100
AcDbSymbolTableRecord
100
AcDbLinetypeTableRecord
  2
DASHED
 70
64
  3
- - - - - - - - - - - - - - - - - - - -
 72
65
 73
2
 40
0.2
 49
0.1
 74
0
 49
-0.1
 74
0
  0
ENDTAB
  0
TABLE
  2
LAYER
  5
2
100
AcDbSymbolTable
 70
36
  0
LAYER
  5
10
100
AcDbSymbolTableRecord
100
AcDbLayerTableRecord
  2
0
 70
0
 62
7
  6
CONTINUOUS
370
-3
390
F
  0
LAYER
  5
1FA
100
AcDbSymbolTableRecord
100
AcDbLayerTableRecord
  2
DEFAULT_1
 70
0
 62
7
  6
CENTER
370
-3
390
F
  0
LAYER
  5
1FB
100
AcDbSymbolTableRecord
100
AcDbLayerTableRecord
  2
DEFAULT_2
 70
0
 62
7
  6
HIDDEN
370
-3
390
F
  0
LAYER
  5
1FC
100
AcDbSymbolTableRecord
100
AcDbLayerTableRecord
  2
DEFAULT_3
 70
0
 62
7
  6
PHANTOM
370
-3
390
F
  0
LAYER
  5
1FD
100
AcDbSymbolTableRecord
100
AcDbLayerTableRecord
  2
ASSI
 70
0
 62
7
  6
CONTINUOUS
370
-3
390
F
  0
LAYER
  5
1FE
100
AcDbSymbolTableRecord
100
AcDbLayerTableRecord
  2
COLOR9
 70
0
 62
7
  6
CONTINUOUS
370
-3
390
F
  0
LAYER
  5
1FF
100
AcDbSymbolTableRecord
100
AcDbLayerTableRecord
  2
COORDINATE
 70
0
 62
7
  6
CONTINUOUS
370
-3
390
F
  0
LAYER
  5
200
100
AcDbSymbolTableRecord
100
AcDbLayerTableRecord
  2
COORD_ORIGINE
 70
0
 62
7
  6
CONTINUOUS
370
-3
390
F
  0
LAYER
  5
201
100
AcDbSymbolTableRecord
100
AcDbLayerTableRecord
  2
COSMETICI
 70
0
 62
7
  6
CONTINUOUS
370
-3
390
F
  0
LAYER
  5
202
100
AcDbSymbolTableRecord
100
AcDbLayerTableRecord
  2
CURVE
 70
0
 62
7
  6
CONTINUOUS
370
-3
390
F
  0
LAYER
  5
203
100
AcDbSymbolTableRecord
100
AcDbLayerTableRecord
  2
DRAFT
 70
0
 62
7
  6
CONTINUOUS
370
-3
390
F
  0
LAYER
  5
204
100
AcDbSymbolTableRecord
100
AcDbLayerTableRecord
  2
IMPORT_IGES
 70
0
 62
7
  6
CONTINUOUS
370
-3
390
F
  0
LAYER
  5
205
100
AcDbSymbolTableRecord
100
AcDbLayerTableRecord
  2
INTF_1
 70
0
 62
7
  6
CONTINUOUS
370
-3
390
F
  0
LAYER
  5
206
100
AcDbSymbolTableRecord
100
AcDbLayerTableRecord
  2
INTF_8
 70
0
 62
7
  6
CONTINUOUS
370
-3
390
F
  0
LAYER
  5
207
100
AcDbSymbolTableRecord
100
AcDbLayerTableRecord
  2
INTF_YELLOW
 70
0
 62
7
  6
CONTINUOUS
370
-3
390
F
  0
LAYER
  5
208
100
AcDbSymbolTableRecord
100
AcDbLayerTableRecord
  2
NOTE
 70
0
 62
7
  6
CONTINUOUS
370
-3
390
F
  0
LAYER
  5
209
100
AcDbSymbolTableRecord
100
AcDbLayerTableRecord
  2
PIANI
 70
0
 62
7
  6
CONTINUOUS
370
-3
390
F
  0
LAYER
  5
20A
100
AcDbSymbolTableRecord
100
AcDbLayerTableRecord
  2
PIANI_ORIGINE
 70
0
 62
7
  6
CONTINUOUS
370
-3
390
F
  0
LAYER
  5
20B
100
AcDbSymbolTableRecord
100
AcDbLayerTableRecord
  2
PIANI_RIFERIMENTO
 70
0
 62
7
  6
CONTINUOUS
370
-3
390
F
  0
LAYER
  5
20C
100
AcDbSymbolTableRecord
100
AcDbLayerTableRecord
  2
PUNTI
 70
0
 62
7
  6
CONTINUOUS
370
-3
390
F
  0
LAYER
  5
20D
100
AcDbSymbolTableRecord
100
AcDbLayerTableRecord
  2
RACCORDO
 70
0
 62
7
  6
CONTINUOUS
370
-3
390
F
  0
LAYER
  5
20E
100
AcDbSymbolTableRecord
100
AcDbLayerTableRecord
  2
RGB__255__255__255__
 70
0
 62
7
  6
CONTINUOUS
370
-3
390
F
  0
LAYER
  5
20F
100
AcDbSymbolTableRecord
100
AcDbLayerTableRecord
  2
RGB____0____0____0__
 70
0
 62
7
  6
CONTINUOUS
370
-3
390
F
  0
LAYER
  5
210
100
AcDbSymbolTableRecord
100
AcDbLayerTableRecord
  2
SIMBOLI
 70
0
 62
7
  6
CONTINUOUS
370
-3
390
F
  0
LAYER
  5
211
100
AcDbSymbolTableRecord
100
AcDbLayerTableRecord
  2
SMUSSO
 70
0
 62
7
  6
CONTINUOUS
370
-3
390
F
  0
LAYER
  5
212
100
AcDbSymbolTableRecord
100
AcDbLayerTableRecord
  2
SNAPLINE
 70
0
 62
7
  6
CONTINUOUS
370
-3
390
F
  0
LAYER
  5
213
100
AcDbSymbolTableRecord
100
AcDbLayerTableRecord
  2
SUPERFICI
 70
0
 62
7
  6
CONTINUOUS
370
-3
390
F
  0
LAYER
  5
214
100
AcDbSymbolTableRecord
100
AcDbLayerTableRecord
  2
TRASH
 70
0
 62
7
  6
CONTINUOUS
370
-3
390
F
  0
LAYER
  5
215
100
AcDbSymbolTableRecord
100
AcDbLayerTableRecord
  2
XSEC_DATUMS
 70
0
 62
7
  6
CONTINUOUS
370
-3
390
F
  0
ENDTAB
  0
TABLE
  2
STYLE
  5
3
100
AcDbSymbolTable
 70
1
  0
STYLE
  5
11
100
AcDbSymbolTableRecord
100
AcDbTextStyleTableRecord
  2
STANDARD
 70
0
 40
0.0
 41
0.8
 50
0.0
 71
0
 42
0.2
  3
txt
  4

  0
STYLE
  5
216
100
AcDbSymbolTableRecord
100
AcDbTextStyleTableRecord
  2
TEXTSTYLE_1
 70
0
 40
0.0
 41
0.8
 50
0.0
 71
0
 42
0.2
  3
gdt
  4

  0
ENDTAB
  0
TABLE
  2
VIEW
  5
6
100
AcDbSymbolTable
 70
0
  0
ENDTAB
  0
TABLE
  2
UCS
  5
7
100
AcDbSymbolTable
 70
0
  0
ENDTAB
  0
TABLE
  2
APPID
  5
9
100
AcDbSymbolTable
 70
1
  0
APPID
  5
217
100
AcDbSymbolTableRecord
100
AcDbRegAppTableRecord
  2
ACAD
 70
0
  0
ENDTAB
  0
TABLE
  2
BLOCK_RECORD
  5
1
100
AcDbSymbolTable
 70
0
  0
BLOCK_RECORD
  5
218
100
AcDbSymbolTableRecord
100
AcDbBlockTableRecord
  2
*Model_Space
  0
BLOCK_RECORD
  5
219
100
AcDbSymbolTableRecord
100
AcDbBlockTableRecord
  2
*Paper_Space
  0
ENDTAB
  0
TABLE
  2
DIMSTYLE
  5
A
100
AcDbSymbolTable
 70
1
100
AcDbDimStyleTable
 71
0
  0
DIMSTYLE
105
21A
100
AcDbSymbolTableRecord
100
AcDbDimStyleTableRecord
  2
STANDARD
 70
0
  3

  4

 40
1.0
 41
3.0
 42
0.0625
 43
0.38
 44
0.18
 45
0.0
 46
0.0
 47
0.01
 48
0.01
140
3.0
141
0.09
142
0.0
143
25.4
144
1.0
145
0.0
146
1.0
147
0.09
 71
1.0
 72
0.0
 73
0
 74
0
 75
0
 76
0
 77
1
 78
8
170
0
171
2
172
0
173
0
174
0
175
0
176
0
177
0
178
0
270
2
271
2
272
2
273
2
274
2
275
0
280
0
281
0
282
0
283
1
284
8
285
0
286
0
287
3
288
0
340
11
  0
ENDTAB
  0
ENDSEC
  0
SECTION
  2
BLOCKS
  0
BLOCK
  5
20
100
AcDbEntity
  8
0
100
AcDbBlockBegin
  2
*Model_Space
 70
0
 10
0.0
 20
0.0
 30
0.0
  3
*Model_Space
  1

  0
ENDBLK
  5
21
100
AcDbEntity
  8
0
100
AcDbBlockEnd
  0
BLOCK
  5
1C
100
AcDbEntity
  8
0
100
AcDbBlockBegin
  2
*Paper_Space
 70
0
 10
0.0
 20
0.0
 30
0.0
  3
*Paper_Space
  1

  0
ENDBLK
  5
1D
100
AcDbEntity
  8
0
100
AcDbBlockEnd
  0
ENDSEC
  0
SECTION
  2
ENTITIES
  0
LWPOLYLINE
  5
21B
100
AcDbEntity
  8
RACCORDO
100
AcDbPolyline
 62
7
  6
CONTINUOUS
 90
25
 70
0
 10
-21.0506086115
 20
-20.610711414
 10
-21.0500521071
 20
-20.6302495834
 10
-21.0482327852
 20
-20.6497112685
 10
-21.0451572646
 20
-20.6690146875
 10
-21.0408385455
 20
-20.6880761499
 10
-21.0352931053
 20
-20.7068177559
 10
-21.0285390657
 20
-20.725167205
 10
-21.0206015453
 20
-20.7430478997
 10
-21.0115123222
 20
-20.7603812934
 10
-21.0013051123
 20
-20.7770939389
 10
-20.990020653
 20
-20.7931129217
 10
-20.9777042477
 20
-20.8083684661
 10
-20.9644026311
 20
-20.8227950608
 10
-20.9501674022
 20
-20.8363303321
 10
-20.9350589652
 20
-20.8489110266
 10
-20.9191438982
 20
-20.8604759703
 10
-20.9024890521
 20
-20.8709728767
 10
-20.8851647147
 20
-20.8803540998
 10
-20.8672490348
 20
-20.8885738446
 10
-20.8488174183
 20
-20.8955951402
 10
-20.8299502357
 20
-20.9013852617
 10
-20.8107377527
 20
-20.9059151249
 10
-20.7912662665
 20
-20.9091644494
 10
-20.7716171403
 20
-20.9111198621
 10
-20.7518754742
 20
-20.9117726717
  0
LINE
  5
21C
100
AcDbEntity
  8
0
100
AcDbLine
 62
7
  6
CONTINUOUS
 10
-22.3014422353
 20
21.6116135728
 11
-22.3014422353
 21
-21.6116135728
  0
LINE
  5
21D
100
AcDbEntity
  8
0
100
AcDbLine
 62
7
  6
CONTINUOUS
 10
-21.3
 20
3.25
 11
-21.3
 21
1.3228756555
  0
LINE
  5
21E
100
AcDbEntity
  8
0
100
AcDbLine
 62
7
  6
CONTINUOUS
 10
-21.3
 20
-1.3228756555
 11
-21.3
 21
-3.25
  0
LINE
  5
21F
100
AcDbEntity
  8
0
100
AcDbLine
 62
7
  6
CONTINUOUS
 10
-21.0714422353
 20
-20.6315450378
 11
-21.0714422353
 21
-3.25
  0
LINE
  5
220
100
AcDbEntity
  8
0
100
AcDbLine
 62
7
  6
CONTINUOUS
 10
-21.0714422353
 20
3.25
 11
-21.0714422353
 21
20.6315450378
  0
LINE
  5
221
100
AcDbEntity
  8
0
100
AcDbLine
 62
7
  6
CONTINUOUS
 10
-21.0321633529
 20
10.4
 11
-21.0321633529
 21
9.6
  0
LINE
  5
222
100
AcDbEntity
  8
0
100
AcDbLine
 62
7
  6
CONTINUOUS
 10
-21.0321633529
 20
-9.6
 11
-21.0321633529
 21
-10.4
  0
LWPOLYLINE
  5
223
100
AcDbEntity
  8
RACCORDO
100
AcDbPolyline
 62
7
  6
CONTINUOUS
 90
25
 70
0
 10
20.7518754742
 20
-20.9117726717
 10
20.771618732
 20
-20.9111197583
 10
20.7912704248
 20
-20.9091638975
 10
20.8107453996
 20
-20.905913587
 10
20.8299625241
 20
-20.9013819301
 10
20.8488350761
 20
-20.8955890733
 10
20.867271772
 20
-20.8885643089
 10
20.8851922294
 20
-20.8803403543
 10
20.9025209053
 20
-20.8709542371
 10
20.9191786125
 20
-20.8604524508
 10
20.9350949514
 20
-20.8488830131
 10
20.9502033683
 20
-20.8362983136
 10
20.9644370723
 20
-20.8227600789
 10
20.9777356598
 20
-20.8083320639
 10
20.9900480317
 20
-20.7930766336
 10
21.001328015
 20
-20.7770590501
 10
21.0115304133
 20
-20.7603493691
 10
21.0206148427
 20
-20.7430203949
 10
21.0285482577
 20
-20.725144532
 10
21.035298931
 20
-20.7068001846
 10
21.0408417308
 20
-20.6880639426
 10
21.0451587256
 20
-20.6690071053
 10
21.0482333035
 20
-20.6497071568
 10
21.0500522018
 20
-20.6302480161
 10
21.0506086115
 20
-20.610711414
  0
LINE
  5
224
100
AcDbEntity
  8
0
100
AcDbLine
 62
7
  6
CONTINUOUS
 10
-21.8016135728
 20
-22.1114422353
 11
21.8016135728
 21
-22.1114422353
  0
LINE
  5
225
100
AcDbEntity
  8
RACCORDO
100
AcDbLine
 62
7
  6
CONTINUOUS
 10
20.7715450378
 20
-20.9314422353
 11
-20.7715450378
 21
-20.9314422353
  0
LINE
  5
226
100
AcDbEntity
  8
RACCORDO
100
AcDbLine
 62
7
  6
CONTINUOUS
 10
-20.7518754742
 20
-20.9117726717
 11
20.7518754742
 21
-20.9117726717
  0
LINE
  5
227
100
AcDbEntity
  8
0
100
AcDbLine
 62
7
  6
CONTINUOUS
 10
-20.2674550649
 20
3.25
 11
-20.2674550649
 21
-3.25
  0
LINE
  5
228
100
AcDbEntity
  8
0
100
AcDbLine
 62
253
  6
CONTINUOUS
 10
-20.2551451296
 20
-3.25
 11
-20.2551451296
 21
3.25
  0
LINE
  5
229
100
AcDbEntity
  8
0
100
AcDbLine
 62
253
  6
CONTINUOUS
 10
-19.9551908211
 20
-3.25
 11
-19.9551908211
 21
3.25
  0
LINE
  5
22A
100
AcDbEntity
  8
0
100
AcDbLine
 62
7
  6
CONTINUOUS
 10
-21.0272527777
 20
10.4032733012
 11
-21.0321633529
 21
10.4
  0
LINE
  5
22B
100
AcDbEntity
  8
0
100
AcDbLine
 62
7
  6
CONTINUOUS
 10
-21.0272527777
 20
-10.4032733012
 11
-21.0321633529
 21
-10.4
  0
LINE
  5
22C
100
AcDbEntity
  8
0
100
AcDbLine
 62
7
  6
CONTINUOUS
 10
-13.8698659872
 20
9.711153461
 11
-13.9810194482
 21
9.6
  0
LINE
  5
22D
100
AcDbEntity
  8
0
100
AcDbLine
 62
7
  6
CONTINUOUS
 10
1.1224998808
 20
-16.75
 11
1.2475001192
 21
-16.7180851074
  0
LINE
  5
22E
100
AcDbEntity
  8
0
100
AcDbLine
 62
7
  6
CONTINUOUS
 10
-3.5
 20
-17.5
 11
3.5
 21
-17.5
  0
LINE
  5
22F
100
AcDbEntity
  8
0
100
AcDbLine
 62
7
  6
CONTINUOUS
 10
-2.94
 20
-16.75
 11
-1.815
 21
-16.75
  0
LINE
  5
230
100
AcDbEntity
  8
0
100
AcDbLine
 62
7
  6
CONTINUOUS
 10
-0.0024999404
 20
-16.75
 11
0.1849998808
 21
-16.75
  0
LINE
  5
231
100
AcDbEntity
  8
0
100
AcDbLine
 62
7
  6
CONTINUOUS
 10
0.8725001192
 20
-16.75
 11
1.1224998808
 21
-16.75
  0
LINE
  5
232
100
AcDbEntity
  8
0
100
AcDbLine
 62
7
  6
CONTINUOUS
 10
1.8100001192
 20
-16.75
 11
2.9350001192
 21
-16.75
  0
LINE
  5
233
100
AcDbEntity
  8
0
100
AcDbLine
 62
7
  6
CONTINUOUS
 10
2.9350001192
 20
-16.5904255286
 11
2.0599998808
 21
-16.5904255286
  0
LINE
  5
234
100
AcDbEntity
  8
0
100
AcDbLine
 62
7
  6
CONTINUOUS
 10
1.09125
 20
-16.5904255286
 11
0.90375
 21
-16.5904255286
  0
LINE
  5
235
100
AcDbEntity
  8
0
100
AcDbLine
 62
7
  6
CONTINUOUS
 10
-1.815
 20
-16.5904255286
 11
-2.6899999925
 21
-16.5904255286
  0
LINE
  5
236
100
AcDbEntity
  8
0
100
AcDbLine
 62
7
  6
CONTINUOUS
 10
-1.1900000596
 20
-16.7180851074
 11
-1.0025000596
 21
-16.75
  0
LINE
  5
237
100
AcDbEntity
  8
0
100
AcDbLine
 62
7
  6
CONTINUOUS
 10
-13.8698659872
 20
-9.711153461
 11
-13.9810194482
 21
-9.6
  0
LINE
  5
238
100
AcDbEntity
  8
0
100
AcDbLine
 62
7
  6
CONTINUOUS
 10
-12.85
 20
13.2962124327
 11
-12.8521427854
 21
13.2897788489
  0
LINE
  5
239
100
AcDbEntity
  8
0
100
AcDbLine
 62
7
  6
CONTINUOUS
 10
-21.0267229342
 20
-9.5891116965
 11
-21.0321633529
 21
-9.6
  0
LWPOLYLINE
  5
23A
100
AcDbEntity
  8
0
100
AcDbPolyline
 62
7
  6
CONTINUOUS
 90
7
 70
0
 10
3.2864526086
 20
17.4795638075
 10
3.2925995548
 20
17.4814685546
 10
3.2987952065
 20
17.4838337567
 10
3.3050395636
 20
17.4866594098
 10
3.3113204293
 20
17.4900289965
 10
3.3176500005
 20
17.4938590228
 10
3.3305775217
 20
17.5020399877
  0
LINE
  5
23B
100
AcDbEntity
  8
0
100
AcDbLine
 62
7
  6
CONTINUOUS
 10
1.2475001192
 20
-16.5585106388
 11
1.09125
 21
-16.5904255286
  0
LINE
  5
23C
100
AcDbEntity
  8
0
100
AcDbLine
 62
7
  6
CONTINUOUS
 10
-0.8462499404
 20
-16.5585106388
 11
-1.0025000596
 21
-16.5904255286
  0
LINE
  5
23D
100
AcDbEntity
  8
0
100
AcDbLine
 62
7
  6
CONTINUOUS
 10
2.1537498808
 20
-15.4414893389
 11
2.31
 21
-15.4095744491
  0
LINE
  5
23E
100
AcDbEntity
  8
0
100
AcDbLine
 62
7
  6
CONTINUOUS
 10
0.7787501192
 20
-15.4414893389
 11
0.9349998808
 21
-15.4095744491
  0
LINE
  5
23F
100
AcDbEntity
  8
0
100
AcDbLine
 62
7
  6
CONTINUOUS
 10
-1.15875
 20
-15.4414893389
 11
-1.0025000596
 21
-15.4095744491
  0
LINE
  5
240
100
AcDbEntity
  8
0
100
AcDbLine
 62
7
  6
CONTINUOUS
 10
-2.5962499925
 20
-15.4414893389
 11
-2.4399999851
 21
-15.4095744491
  0
LINE
  5
241
100
AcDbEntity
  8
0
100
AcDbLine
 62
7
  6
CONTINUOUS
 10
-1.0025000596
 20
-16.75
 11
-0.8150000596
 21
-16.7180851074
  0
LINE
  5
242
100
AcDbEntity
  8
0
100
AcDbLine
 62
7
  6
CONTINUOUS
 10
-1.0025000596
 20
-15.25
 11
-1.1900000596
 21
-15.2819148898
  0
LINE
  5
243
100
AcDbEntity
  8
0
100
AcDbLine
 62
7
  6
CONTINUOUS
 10
2.3412498808
 20
-15.25
 11
2.1225
 21
-15.2819148898
  0
LINE
  5
244
100
AcDbEntity
  8
0
100
AcDbLine
 62
7
  6
CONTINUOUS
 10
0.9662501192
 20
-15.25
 11
0.7474998808
 21
-15.2819148898
  0
LINE
  5
245
100
AcDbEntity
  8
0
100
AcDbLine
 62
7
  6
CONTINUOUS
 10
-2.4087500149
 20
-15.25
 11
-2.6275000075
 21
-15.2819148898
  0
LINE
  5
246
100
AcDbEntity
  8
0
100
AcDbLine
 62
7
  6
CONTINUOUS
 10
0.5912501192
 20
-16.3989361674
 11
0.435
 21
-16.3989361674
  0
LINE
  5
247
100
AcDbEntity
  8
0
100
AcDbLine
 62
7
  6
CONTINUOUS
 10
0.9349998808
 20
-16.0478723347
 11
1.0600001192
 21
-16.0478723347
  0
LINE
  5
248
100
AcDbEntity
  8
0
100
AcDbLine
 62
7
  6
CONTINUOUS
 10
1.0600001192
 20
-15.9202127755
 11
0.9349998808
 21
-15.9202127755
  0
LINE
  5
249
100
AcDbEntity
  8
0
100
AcDbLine
 62
7
  6
CONTINUOUS
 10
-2.9087499991
 20
-15.6010637879
 11
-2.7525
 21
-15.6010637879
  0
LINE
  5
24A
100
AcDbEntity
  8
0
100
AcDbLine
 62
7
  6
CONTINUOUS
 10
0.4662498808
 20
-15.6010637879
 11
0.6225
 21
-15.6010637879
  0
LINE
  5
24B
100
AcDbEntity
  8
0
100
AcDbLine
 62
7
  6
CONTINUOUS
 10
1.84125
 20
-15.6010637879
 11
1.9975001192
 21
-15.6010637879
  0
LINE
  5
24C
100
AcDbEntity
  8
0
100
AcDbLine
 62
7
  6
CONTINUOUS
 10
-2.4399999851
 20
-15.4095744491
 11
-2.3150000149
 21
-15.4095744491
  0
LINE
  5
24D
100
AcDbEntity
  8
0
100
AcDbLine
 62
7
  6
CONTINUOUS
 10
0.9349998808
 20
-15.4095744491
 11
1.0600001192
 21
-15.4095744491
  0
LINE
  5
24E
100
AcDbEntity
  8
0
100
AcDbLine
 62
7
  6
CONTINUOUS
 10
2.31
 20
-15.4095744491
 11
2.4349998808
 21
-15.4095744491
  0
LINE
  5
24F
100
AcDbEntity
  8
0
100
AcDbLine
 62
7
  6
CONTINUOUS
 10
2.4662501192
 20
-15.25
 11
2.3412498808
 21
-15.25
  0
LINE
  5
250
100
AcDbEntity
  8
0
100
AcDbLine
 62
7
  6
CONTINUOUS
 10
1.0287498808
 20
-15.25
 11
0.9662501192
 21
-15.25
  0
LINE
  5
251
100
AcDbEntity
  8
0
100
AcDbLine
 62
7
  6
CONTINUOUS
 10
0.1849998808
 20
-15.25
 11
-0.0024999404
 21
-15.25
  0
LINE
  5
252
100
AcDbEntity
  8
0
100
AcDbLine
 62
7
  6
CONTINUOUS
 10
-2.28375
 20
-15.25
 11
-2.4087500149
 21
-15.25
  0
LINE
  5
253
100
AcDbEntity
  8
0
100
AcDbLine
 62
7
  6
CONTINUOUS
 10
-3.5
 20
-14.5
 11
3.5
 21
-14.5
  0
LINE
  5
254
100
AcDbEntity
  8
0
100
AcDbLine
 62
7
  6
CONTINUOUS
 10
1.2475001192
 20
-15.2819148898
 11
1.0287498808
 21
-15.25
  0
LINE
  5
255
100
AcDbEntity
  8
0
100
AcDbLine
 62
7
  6
CONTINUOUS
 10
1.0600001192
 20
-16.0478723347
 11
1.2475001192
 21
-16.0797872245
  0
LINE
  5
256
100
AcDbEntity
  8
0
100
AcDbLine
 62
7
  6
CONTINUOUS
 10
-2.09625
 20
-15.2819148898
 11
-2.28375
 21
-15.25
  0
LINE
  5
257
100
AcDbEntity
  8
0
100
AcDbLine
 62
7
  6
CONTINUOUS
 10
-0.8150000596
 20
-15.2819148898
 11
-1.0025000596
 21
-15.25
  0
LINE
  5
258
100
AcDbEntity
  8
0
100
AcDbLine
 62
7
  6
CONTINUOUS
 10
2.6537501192
 20
-15.2819148898
 11
2.4662501192
 21
-15.25
  0
LINE
  5
259
100
AcDbEntity
  8
0
100
AcDbLine
 62
7
  6
CONTINUOUS
 10
-1.0025000596
 20
-16.5904255286
 11
-1.15875
 21
-16.5585106388
  0
LINE
  5
25A
100
AcDbEntity
  8
0
100
AcDbLine
 62
7
  6
CONTINUOUS
 10
0.90375
 20
-16.5904255286
 11
0.7474998808
 21
-16.5585106388
  0
LINE
  5
25B
100
AcDbEntity
  8
0
100
AcDbLine
 62
7
  6
CONTINUOUS
 10
-2.3150000149
 20
-15.4095744491
 11
-2.1587500298
 21
-15.4414893389
  0
LINE
  5
25C
100
AcDbEntity
  8
0
100
AcDbLine
 62
7
  6
CONTINUOUS
 10
-1.0025000596
 20
-15.4095744491
 11
-0.8462499404
 21
-15.4414893389
  0
LINE
  5
25D
100
AcDbEntity
  8
0
100
AcDbLine
 62
7
  6
CONTINUOUS
 10
1.0600001192
 20
-15.4095744491
 11
1.2162498808
 21
-15.4414893389
  0
LINE
  5
25E
100
AcDbEntity
  8
0
100
AcDbLine
 62
7
  6
CONTINUOUS
 10
2.4349998808
 20
-15.4095744491
 11
2.59125
 21
-15.4414893389
  0
LINE
  5
25F
100
AcDbEntity
  8
0
100
AcDbLine
 62
7
  6
CONTINUOUS
 10
0.7474998808
 20
-16.7180851074
 11
0.8725001192
 21
-16.75
  0
LINE
  5
260
100
AcDbEntity
  8
0
100
AcDbLine
 62
7
  6
CONTINUOUS
 10
-1.9712500298
 20
-15.3457446694
 11
-2.09625
 21
-15.2819148898
  0
LINE
  5
261
100
AcDbEntity
  8
0
100
AcDbLine
 62
7
  6
CONTINUOUS
 10
0.6225
 20
-16.6542553194
 11
0.7474998808
 21
-16.7180851074
  0
LINE
  5
262
100
AcDbEntity
  8
0
100
AcDbLine
 62
7
  6
CONTINUOUS
 10
0.7474998808
 20
-16.5585106388
 11
0.6850001192
 21
-16.526595749
  0
LINE
  5
263
100
AcDbEntity
  8
0
100
AcDbLine
 62
7
  6
CONTINUOUS
 10
-1.34625
 20
-16.6223404296
 11
-1.1900000596
 21
-16.7180851074
  0
LINE
  5
264
100
AcDbEntity
  8
0
100
AcDbLine
 62
7
  6
CONTINUOUS
 10
-21.0267229342
 20
9.5891116965
 11
-21.0321633529
 21
9.6
  0
LINE
  5
265
100
AcDbEntity
  8
0
100
AcDbLine
 62
7
  6
CONTINUOUS
 10
-12.85
 20
-13.2962124327
 11
-12.8521427854
 21
-13.2897788489
  0
LINE
  5
266
100
AcDbEntity
  8
0
100
AcDbLine
 62
7
  6
CONTINUOUS
 10
-13.9810194482
 20
10.4
 11
-13.9810194482
 21
9.6
  0
LINE
  5
267
100
AcDbEntity
  8
0
100
AcDbLine
 62
7
  6
CONTINUOUS
 10
-13.9810194482
 20
-10.4
 11
-13.9810194482
 21
-9.6
  0
LINE
  5
268
100
AcDbEntity
  8
0
100
AcDbLine
 62
253
  6
CONTINUOUS
 10
-13.8698659872
 20
-13.288846539
 11
-13.8698659872
 21
-9.711153461
  0
LINE
  5
269
100
AcDbEntity
  8
0
100
AcDbLine
 62
253
  6
CONTINUOUS
 10
-13.8698659872
 20
9.711153461
 11
-13.8698659872
 21
13.288846539
  0
LINE
  5
26A
100
AcDbEntity
  8
0
100
AcDbLine
 62
253
  6
CONTINUOUS
 10
-13.4704141733
 20
-13.2689805518
 11
-13.4704141733
 21
-9.7310194482
  0
LINE
  5
26B
100
AcDbEntity
  8
0
100
AcDbLine
 62
253
  6
CONTINUOUS
 10
-13.4704141733
 20
9.7310194482
 11
-13.4704141733
 21
13.2689805518
  0
LINE
  5
26C
100
AcDbEntity
  8
0
100
AcDbLine
 62
253
  6
CONTINUOUS
 10
-13.2524579547
 20
-13.2689805518
 11
-13.2524579547
 21
-9.7310194482
  0
LINE
  5
26D
100
AcDbEntity
  8
0
100
AcDbLine
 62
253
  6
CONTINUOUS
 10
-13.2524579547
 20
9.7310194482
 11
-13.2524579547
 21
13.2689805518
  0
LINE
  5
26E
100
AcDbEntity
  8
0
100
AcDbLine
 62
7
  6
CONTINUOUS
 10
-13.15
 20
13.4025387708
 11
-13.15
 21
13.3004252194
  0
LINE
  5
26F
100
AcDbEntity
  8
0
100
AcDbLine
 62
7
  6
CONTINUOUS
 10
-13.15
 20
-9.6
 11
-13.15
 21
-9.6995747806
  0
LINE
  5
270
100
AcDbEntity
  8
0
100
AcDbLine
 62
7
  6
CONTINUOUS
 10
-13.15
 20
-13.4025387708
 11
-13.15
 21
-13.3004252194
  0
LINE
  5
271
100
AcDbEntity
  8
0
100
AcDbLine
 62
7
  6
CONTINUOUS
 10
-13.15
 20
9.6
 11
-13.15
 21
9.6995747806
  0
LINE
  5
272
100
AcDbEntity
  8
0
100
AcDbLine
 62
253
  6
CONTINUOUS
 10
-13.1110365985
 20
-13.2720505284
 11
-13.1110365985
 21
-9.7279494716
  0
LINE
  5
273
100
AcDbEntity
  8
0
100
AcDbLine
 62
253
  6
CONTINUOUS
 10
-13.1110365985
 20
9.7279494716
 11
-13.1110365985
 21
13.2720505284
  0
LINE
  5
274
100
AcDbEntity
  8
0
100
AcDbLine
 62
253
  6
CONTINUOUS
 10
-12.9106909682
 20
-13.282550198
 11
-12.9106909682
 21
-9.717449802
  0
LINE
  5
275
100
AcDbEntity
  8
0
100
AcDbLine
 62
253
  6
CONTINUOUS
 10
-12.9106909682
 20
9.717449802
 11
-12.9106909682
 21
13.282550198
  0
LINE
  5
276
100
AcDbEntity
  8
0
100
AcDbLine
 62
253
  6
CONTINUOUS
 10
-12.8521427854
 20
-13.2897788489
 11
-12.8521427854
 21
-9.7102211511
  0
LINE
  5
277
100
AcDbEntity
  8
0
100
AcDbLine
 62
253
  6
CONTINUOUS
 10
-12.8521427854
 20
9.7102211511
 11
-12.8521427854
 21
13.2897788489
  0
LINE
  5
278
100
AcDbEntity
  8
0
100
AcDbLine
 62
7
  6
CONTINUOUS
 10
-12.85
 20
-9.7037875673
 11
-12.85
 21
-13.2962124327
  0
LINE
  5
279
100
AcDbEntity
  8
0
100
AcDbLine
 62
7
  6
CONTINUOUS
 10
-12.85
 20
9.7037875673
 11
-12.85
 21
13.2962124327
  0
LWPOLYLINE
  5
27A
100
AcDbEntity
  8
0
100
AcDbPolyline
 62
7
  6
CONTINUOUS
 90
4
 70
0
 10
3.3305775217
 20
17.5020399877
 10
3.3371754718
 20
17.5063909209
 10
3.3438578346
 20
17.5110283728
 10
3.3506279322
 20
17.5159693302
  0
LINE
  5
27B
100
AcDbEntity
  8
0
100
AcDbLine
 62
7
  6
CONTINUOUS
 10
13.1110365985
 20
-13.2720505284
 11
12.9106909682
 21
-13.282550198
  0
LINE
  5
27C
100
AcDbEntity
  8
0
100
AcDbLine
 62
7
  6
CONTINUOUS
 10
-13.15
 20
-13.3004252194
 11
-12.85
 21
-13.2962124327
  0
LINE
  5
27D
100
AcDbEntity
  8
0
100
AcDbLine
 62
7
  6
CONTINUOUS
 10
-13.983558219
 20
-13.4025387708
 11
-13.15
 21
-13.4025387708
  0
LINE
  5
27E
100
AcDbEntity
  8
0
100
AcDbLine
 62
7
  6
CONTINUOUS
 10
13.15
 20
-13.4025387708
 11
13.983558219
 21
-13.4025387708
  0
LINE
  5
27F
100
AcDbEntity
  8
0
100
AcDbLine
 62
7
  6
CONTINUOUS
 10
13.4704141733
 20
-13.2689805518
 11
13.2524579547
 21
-13.2689805518
  0
LINE
  5
280
100
AcDbEntity
  8
0
100
AcDbLine
 62
7
  6
CONTINUOUS
 10
-13.2524579547
 20
-13.2689805518
 11
-13.4704141733
 21
-13.2689805518
  0
LINE
  5
281
100
AcDbEntity
  8
0
100
AcDbLine
 62
7
  6
CONTINUOUS
 10
12.85
 20
-13.2962124327
 11
13.15
 21
-13.3004252194
  0
LINE
  5
282
100
AcDbEntity
  8
0
100
AcDbLine
 62
7
  6
CONTINUOUS
 10
-12.9106909682
 20
-13.282550198
 11
-13.1110365985
 21
-13.2720505284
  0
LINE
  5
283
100
AcDbEntity
  8
0
100
AcDbLine
 62
7
  6
CONTINUOUS
 10
1.46625
 20
-16.0478723347
 11
1.3099998808
 21
-15.9840425551
  0
LINE
  5
284
100
AcDbEntity
  8
0
100
AcDbLine
 62
7
  6
CONTINUOUS
 10
1.3725
 20
-15.3457446694
 11
1.2475001192
 21
-15.2819148898
  0
LINE
  5
285
100
AcDbEntity
  8
0
100
AcDbLine
 62
7
  6
CONTINUOUS
 10
2.77875
 20
-15.3457446694
 11
2.6537501192
 21
-15.2819148898
  0
LINE
  5
286
100
AcDbEntity
  8
0
100
AcDbLine
 62
7
  6
CONTINUOUS
 10
-0.6587499404
 20
-15.3776595592
 11
-0.8150000596
 21
-15.2819148898
  0
LINE
  5
287
100
AcDbEntity
  8
0
100
AcDbLine
 62
7
  6
CONTINUOUS
 10
-1.15875
 20
-16.5585106388
 11
-1.2525
 21
-16.4946808591
  0
LINE
  5
288
100
AcDbEntity
  8
0
100
AcDbLine
 62
7
  6
CONTINUOUS
 10
-2.1587500298
 20
-15.4414893389
 11
-2.0650000298
 21
-15.5053191185
  0
LINE
  5
289
100
AcDbEntity
  8
0
100
AcDbLine
 62
7
  6
CONTINUOUS
 10
0.52875
 20
-16.5904255286
 11
0.6225
 21
-16.6542553194
  0
LINE
  5
28A
100
AcDbEntity
  8
0
100
AcDbLine
 62
7
  6
CONTINUOUS
 10
-0.8462499404
 20
-15.4414893389
 11
-0.7524999404
 21
-15.5053191185
  0
LINE
  5
28B
100
AcDbEntity
  8
0
100
AcDbLine
 62
7
  6
CONTINUOUS
 10
1.2475001192
 20
-16.0797872245
 11
1.3412501192
 21
-16.1436170042
  0
LINE
  5
28C
100
AcDbEntity
  8
0
100
AcDbLine
 62
7
  6
CONTINUOUS
 10
-1.44
 20
-16.526595749
 11
-1.34625
 21
-16.6223404296
  0
LWPOLYLINE
  5
28D
100
AcDbEntity
  8
0
100
AcDbPolyline
 62
7
  6
CONTINUOUS
 90
10
 70
0
 10
0.7441745085
 20
15.5288156973
 10
0.7744598989
 20
15.5589457122
 10
0.808638535
 20
15.5864044104
 10
0.8467104169
 20
15.6111920081
 10
0.8893333531
 20
15.6337794937
 10
0.935849535
 20
15.6536962323
 10
0.9842855372
 20
15.6695300581
 10
1.0339835513
 20
15.6808103958
 10
1.0856013857
 20
15.6880081672
 10
1.1391390405
 20
15.6911234612
  0
LINE
  5
28E
100
AcDbEntity
  8
0
100
AcDbLine
 62
7
  6
CONTINUOUS
 10
-0.237454
 20
15.949703
 11
-1.079521
 21
15.121559
  0
LINE
  5
28F
100
AcDbEntity
  8
0
100
AcDbLine
 62
7
  6
CONTINUOUS
 10
-0.599511
 20
15.168115
 11
0.217376
 21
15.949703
  0
LINE
  5
290
100
AcDbEntity
  8
0
100
AcDbLine
 62
7
  6
CONTINUOUS
 10
-1.079521
 20
14.70857
 11
-0.836947
 21
14.934799
  0
LWPOLYLINE
  5
291
100
AcDbEntity
  8
0
100
AcDbPolyline
 62
7
  6
CONTINUOUS
 90
54
 70
0
 10
3.3506279322
 20
17.5159693302
 10
3.3574824425
 20
17.5211967956
 10
3.3644105159
 20
17.5267363411
 10
3.3714078292
 20
17.5325897479
 10
3.3784787056
 20
17.5387552213
 10
3.3856252654
 20
17.5452529678
 10
3.3928545602
 20
17.5520762547
 10
3.4001595384
 20
17.5592317981
 10
3.4075211656
 20
17.5667599754
 10
3.4149451116
 20
17.5746545666
 10
3.4224257066
 20
17.5829217701
 10
3.4299269067
 20
17.5916205864
 10
3.4374534984
 20
17.6007505121
 10
3.4450006953
 20
17.6103120215
 10
3.4525180948
 20
17.6203655766
 10
3.4600123324
 20
17.6309123255
 10
3.4674767726
 20
17.6419510814
 10
3.4748411059
 20
17.6535387979
 10
3.4821093132
 20
17.6656683086
 10
3.4892774136
 20
17.6783467301
 10
3.4962631546
 20
17.691652433
 10
3.5030795411
 20
17.7055938325
 10
3.5097135683
 20
17.7201624473
 10
3.5160439692
 20
17.7354112939
 10
3.5220757845
 20
17.7513377183
 10
3.5278039735
 20
17.7679442924
 10
3.5330921467
 20
17.7852918622
 10
3.5379488633
 20
17.8034060668
 10
3.5423655642
 20
17.8222611633
 10
3.5461801824
 20
17.8418409191
 10
3.549388604
 20
17.8621289463
 10
3.551994943
 20
17.8831415196
 10
3.5538494737
 20
17.9049113954
 10
3.5549790743
 20
17.9274114436
 10
3.5553568666
 20
17.9506686622
 10
3.5547524906
 20
17.9747969832
 10
3.5532620421
 20
17.9998340653
 10
3.5507894254
 20
18.0257420751
 10
3.5468159932
 20
18.0525216907
 10
3.5413594399
 20
18.080327031
 10
3.5344020712
 20
18.1090037723
 10
3.5253721569
 20
18.1380899756
 10
3.514151111
 20
18.1677426223
 10
3.5008575195
 20
18.197804616
 10
3.4852754103
 20
18.227343064
 10
3.4673374509
 20
18.2562732181
 10
3.4471109738
 20
18.2846799496
 10
3.4245820039
 20
18.3118849831
 10
3.3995624366
 20
18.3380152695
 10
3.3722403766
 20
18.3629441038
 10
3.3431661635
 20
18.3856129028
 10
3.3125232437
 20
18.4056689825
 10
3.2801281708
 20
18.4234654396
 10
3.2459809447
 20
18.4390024381
  0
LINE
  5
292
100
AcDbEntity
  8
0
100
AcDbLine
 62
7
  6
CONTINUOUS
 10
-21.0272527777
 20
-10.4032733012
 11
-13.9908473377
 21
-10.4032733012
  0
LINE
  5
293
100
AcDbEntity
  8
0
100
AcDbLine
 62
7
  6
CONTINUOUS
 10
13.9908473377
 20
-10.4032733012
 11
21.0272527777
 21
-10.4032733012
  0
LINE
  5
294
100
AcDbEntity
  8
0
100
AcDbLine
 62
7
  6
CONTINUOUS
 10
-21.0321633529
 20
-10.4
 11
-13.9810194482
 21
-10.4
  0
LINE
  5
295
100
AcDbEntity
  8
0
100
AcDbLine
 62
7
  6
CONTINUOUS
 10
-12.85
 20
-10.4
 11
-6.0
 21
-10.4
  0
LINE
  5
296
100
AcDbEntity
  8
0
100
AcDbLine
 62
7
  6
CONTINUOUS
 10
6.0
 20
-10.4
 11
12.85
 21
-10.4
  0
LINE
  5
297
100
AcDbEntity
  8
0
100
AcDbLine
 62
7
  6
CONTINUOUS
 10
13.9810194482
 20
-10.4
 11
21.0321633529
 21
-10.4
  0
LINE
  5
298
100
AcDbEntity
  8
0
100
AcDbLine
 62
7
  6
CONTINUOUS
 10
1.2162498808
 20
-15.4414893389
 11
1.3099998808
 21
-15.5053191185
  0
LINE
  5
299
100
AcDbEntity
  8
0
100
AcDbLine
 62
7
  6
CONTINUOUS
 10
2.59125
 20
-15.4414893389
 11
2.685
 21
-15.5053191185
  0
LINE
  5
29A
100
AcDbEntity
  8
0
100
AcDbLine
 62
7
  6
CONTINUOUS
 10
-1.8462499702
 20
-15.4734042287
 11
-1.9712500298
 21
-15.3457446694
  0
LINE
  5
29B
100
AcDbEntity
  8
0
100
AcDbLine
 62
7
  6
CONTINUOUS
 10
-0.5649999404
 20
-15.4734042287
 11
-0.6587499404
 21
-15.3776595592
  0
LINE
  5
29C
100
AcDbEntity
  8
0
100
AcDbLine
 62
7
  6
CONTINUOUS
 10
0.6850001192
 20
-16.526595749
 11
0.6225
 21
-16.462765947
  0
LINE
  5
29D
100
AcDbEntity
  8
0
100
AcDbLine
 62
7
  6
CONTINUOUS
 10
-12.85
 20
-9.7037875673
 11
-12.8521427854
 21
-9.7102211511
  0
LWPOLYLINE
  5
29E
100
AcDbEntity
  8
0
100
AcDbPolyline
 62
7
  6
CONTINUOUS
 90
10
 70
0
 10
0.4610032079
 20
15.6984891933
 10
0.4165888377
 20
15.64192279
 10
0.3762953192
 20
15.5796441716
 10
0.3401226526
 20
15.511652303
 10
0.3075101594
 20
15.4373339021
 10
0.279018518
 20
15.3572998545
 10
0.2563297632
 20
15.2733856929
 10
0.2400045732
 20
15.1862028723
 10
0.2294822698
 20
15.0951382982
 10
0.224762853
 20
15.0001910737
  0
LWPOLYLINE
  5
29F
100
AcDbEntity
  8
0
100
AcDbPolyline
 62
7
  6
CONTINUOUS
 90
10
 70
0
 10
1.5322267946
 20
14.4712078515
 10
1.5019959269
 20
14.4411024068
 10
1.4678855835
 20
14.4136532075
 10
1.4298957646
 20
14.3888604413
 10
1.3873356857
 20
14.3662427094
 10
1.3408961313
 20
14.346281713
 10
1.2926494542
 20
14.3304223332
 10
1.2432864389
 20
14.31914632
 10
1.192116301
 20
14.3119722136
 10
1.1391390405
 20
14.3089000876
  0
LINE
  5
2A0
100
AcDbEntity
  8
0
100
AcDbLine
 62
7
  6
CONTINUOUS
 10
-12.9106909682
 20
-9.717449802
 11
-13.1110365985
 21
-9.7279494716
  0
LINE
  5
2A1
100
AcDbEntity
  8
0
100
AcDbLine
 62
7
  6
CONTINUOUS
 10
12.85
 20
-9.7037875673
 11
13.15
 21
-9.6995747806
  0
LINE
  5
2A2
100
AcDbEntity
  8
0
100
AcDbLine
 62
7
  6
CONTINUOUS
 10
13.4704141733
 20
-9.7310194482
 11
13.2524579547
 21
-9.7310194482
  0
LINE
  5
2A3
100
AcDbEntity
  8
0
100
AcDbLine
 62
7
  6
CONTINUOUS
 10
-13.2524579547
 20
-9.7310194482
 11
-13.4704141733
 21
-9.7310194482
  0
LINE
  5
2A4
100
AcDbEntity
  8
0
100
AcDbLine
 62
7
  6
CONTINUOUS
 10
21.0321633529
 20
-9.6
 11
13.9810194482
 21
-9.6
  0
LINE
  5
2A5
100
AcDbEntity
  8
0
100
AcDbLine
 62
7
  6
CONTINUOUS
 10
13.15
 20
-9.6
 11
6.0
 21
-9.6
  0
LINE
  5
2A6
100
AcDbEntity
  8
0
100
AcDbLine
 62
7
  6
CONTINUOUS
 10
-6.0
 20
-9.6
 11
-13.15
 21
-9.6
  0
LINE
  5
2A7
100
AcDbEntity
  8
0
100
AcDbLine
 62
7
  6
CONTINUOUS
 10
-13.9810194482
 20
-9.6
 11
-21.0321633529
 21
-9.6
  0
LINE
  5
2A8
100
AcDbEntity
  8
0
100
AcDbLine
 62
7
  6
CONTINUOUS
 10
-21.0267229342
 20
-9.5891116965
 11
-6.0
 21
-9.5891116965
  0
LINE
  5
2A9
100
AcDbEntity
  8
0
100
AcDbLine
 62
7
  6
CONTINUOUS
 10
6.0
 20
-9.5891116965
 11
21.0267229342
 21
-9.5891116965
  0
LINE
  5
2AA
100
AcDbEntity
  8
0
100
AcDbLine
 62
253
  6
CONTINUOUS
 10
-21.0266653968
 20
-9.4772
 11
-0.2123208892
 21
-9.4772
  0
LINE
  5
2AB
100
AcDbEntity
  8
0
100
AcDbLine
 62
253
  6
CONTINUOUS
 10
0.2123208892
 20
-9.4772
 11
21.0266653968
 21
-9.4772
  0
LINE
  5
2AC
100
AcDbEntity
  8
0
100
AcDbLine
 62
7
  6
CONTINUOUS
 10
4.1
 20
-8.5
 11
1.4142135624
 21
-8.5
  0
LINE
  5
2AD
100
AcDbEntity
  8
0
100
AcDbLine
 62
7
  6
CONTINUOUS
 10
-1.4142135624
 20
-8.5
 11
-4.1
 21
-8.5
  0
LINE
  5
2AE
100
AcDbEntity
  8
0
100
AcDbLine
 62
7
  6
CONTINUOUS
 10
-13.15
 20
-9.6995747806
 11
-12.85
 21
-9.7037875673
  0
LINE
  5
2AF
100
AcDbEntity
  8
0
100
AcDbLine
 62
7
  6
CONTINUOUS
 10
13.1110365985
 20
-9.7279494716
 11
12.9106909682
 21
-9.717449802
  0
LINE
  5
2B0
100
AcDbEntity
  8
0
100
AcDbLine
 62
7
  6
CONTINUOUS
 10
1.4974998808
 20
-15.4734042287
 11
1.3725
 21
-15.3457446694
  0
LINE
  5
2B1
100
AcDbEntity
  8
0
100
AcDbLine
 62
7
  6
CONTINUOUS
 10
2.9037498808
 20
-15.4734042287
 11
2.77875
 21
-15.3457446694
  0
LINE
  5
2B2
100
AcDbEntity
  8
0
100
AcDbLine
 62
7
  6
CONTINUOUS
 10
-2.0650000298
 20
-15.5053191185
 11
-2.0025
 21
-15.6010637879
  0
LINE
  5
2B3
100
AcDbEntity
  8
0
100
AcDbLine
 62
7
  6
CONTINUOUS
 10
-1.2525
 20
-16.4946808591
 11
-1.3775000596
 21
-16.3031914979
  0
LINE
  5
2B4
100
AcDbEntity
  8
0
100
AcDbLine
 62
7
  6
CONTINUOUS
 10
-0.7524999404
 20
-15.5053191185
 11
-0.6275000596
 21
-15.6968085468
  0
LINE
  5
2B5
100
AcDbEntity
  8
0
100
AcDbLine
 62
7
  6
CONTINUOUS
 10
0.4662498808
 20
-16.4946808591
 11
0.52875
 21
-16.5904255286
  0
LINE
  5
2B6
100
AcDbEntity
  8
0
100
AcDbLine
 62
7
  6
CONTINUOUS
 10
-1.5025000298
 20
-16.3989361674
 11
-1.44
 21
-16.526595749
  0
LINE
  5
2B7
100
AcDbEntity
  8
0
100
AcDbLine
 62
7
  6
CONTINUOUS
 10
-12.85
 20
9.7037875673
 11
-12.8521427854
 21
9.7102211511
  0
LINE
  5
2B8
100
AcDbEntity
  8
0
100
AcDbLine
 62
7
  6
CONTINUOUS
 10
-2.554611
 20
18.481352
 11
-2.927819
 21
17.173629
  0
LINE
  5
2B9
100
AcDbEntity
  8
0
100
AcDbLine
 62
7
  6
CONTINUOUS
 10
-2.768996
 20
16.581506
 11
-2.15831
 21
18.481352
  0
LINE
  5
2BA
100
AcDbEntity
  8
0
100
AcDbLine
 62
7
  6
CONTINUOUS
 10
-0.044336
 20
18.481352
 11
-0.440908
 21
17.426552
  0
LINE
  5
2BB
100
AcDbEntity
  8
0
100
AcDbLine
 62
7
  6
CONTINUOUS
 10
-0.415264
 20
16.581506
 11
0.056261
 21
17.816898
  0
LWPOLYLINE
  5
2BC
100
AcDbEntity
  8
0
100
AcDbPolyline
 62
7
  6
CONTINUOUS
 90
10
 70
0
 10
1.8142796834
 20
14.3005718861
 10
1.8588897504
 20
14.3571519331
 10
1.8993636101
 20
14.4194804435
 10
1.9357012623
 20
14.4875564812
 10
1.9684668449
 20
14.5619886494
 10
1.9970962201
 20
14.6421660758
 10
2.0198969745
 20
14.7262588303
 10
2.0363049701
 20
14.8136564601
 10
2.0468843449
 20
14.9049675633
 10
2.0516350988
 20
15.0001910737
  0
LINE
  5
2BD
100
AcDbEntity
  8
0
100
AcDbLine
 62
7
  6
CONTINUOUS
 10
1.5287501192
 20
-16.1436170042
 11
1.46625
 21
-16.0478723347
  0
LINE
  5
2BE
100
AcDbEntity
  8
0
100
AcDbLine
 62
7
  6
CONTINUOUS
 10
1.3099998808
 20
-15.5053191185
 11
1.3725
 21
-15.6010637879
  0
LINE
  5
2BF
100
AcDbEntity
  8
0
100
AcDbLine
 62
7
  6
CONTINUOUS
 10
2.685
 20
-15.5053191185
 11
2.7475001192
 21
-15.6010637879
  0
LINE
  5
2C0
100
AcDbEntity
  8
0
100
AcDbLine
 62
7
  6
CONTINUOUS
 10
-0.5025
 20
-15.6010637879
 11
-0.5649999404
 21
-15.4734042287
  0
LINE
  5
2C1
100
AcDbEntity
  8
0
100
AcDbLine
 62
7
  6
CONTINUOUS
 10
0.6225
 20
-16.462765947
 11
0.5912501192
 21
-16.3989361674
  0
LINE
  5
2C2
100
AcDbEntity
  8
0
100
AcDbLine
 62
7
  6
CONTINUOUS
 10
-1.53375
 20
-16.3031914979
 11
-1.5025000298
 21
-16.3989361674
  0
LINE
  5
2C3
100
AcDbEntity
  8
0
100
AcDbLine
 62
7
  6
CONTINUOUS
 10
-6.0
 20
-10.4
 11
-6.0
 21
-9.5891116965
  0
LINE
  5
2C4
100
AcDbEntity
  8
0
100
AcDbLine
 62
7
  6
CONTINUOUS
 10
-6.0
 20
9.5891116965
 11
-6.0
 21
10.4
  0
LINE
  5
2C5
100
AcDbEntity
  8
0
100
AcDbLine
 62
7
  6
CONTINUOUS
 10
-4.6
 20
-8.0
 11
-4.6
 21
-3.75
  0
LINE
  5
2C6
100
AcDbEntity
  8
0
100
AcDbLine
 62
7
  6
CONTINUOUS
 10
-4.6
 20
3.75
 11
-4.6
 21
8.0
  0
LINE
  5
2C7
100
AcDbEntity
  8
0
100
AcDbLine
 62
7
  6
CONTINUOUS
 10
-4.5
 20
13.55
 11
-4.5
 21
19.05
  0
LINE
  5
2C8
100
AcDbEntity
  8
0
100
AcDbLine
 62
7
  6
CONTINUOUS
 10
-3.919354
 20
15.949703
 11
-3.919354
 21
14.050297
  0
LINE
  5
2C9
100
AcDbEntity
  8
0
100
AcDbLine
 62
7
  6
CONTINUOUS
 10
1.183876
 20
18.481352
 11
0.587963
 21
16.581506
  0
LINE
  5
2CA
100
AcDbEntity
  8
0
100
AcDbLine
 62
7
  6
CONTINUOUS
 10
13.9908473377
 20
10.4032733012
 11
13.9810194482
 21
10.4
  0
LINE
  5
2CB
100
AcDbEntity
  8
0
100
AcDbLine
 62
7
  6
CONTINUOUS
 10
13.9908473377
 20
-10.4032733012
 11
13.9810194482
 21
-10.4
  0
LINE
  5
2CC
100
AcDbEntity
  8
0
100
AcDbLine
 62
7
  6
CONTINUOUS
 10
1.3412501192
 20
-16.1436170042
 11
1.4037498808
 21
-16.2712766081
  0
LINE
  5
2CD
100
AcDbEntity
  8
0
100
AcDbLine
 62
7
  6
CONTINUOUS
 10
-0.4712499404
 20
-15.6968085468
 11
-0.5025
 21
-15.6010637879
  0
LINE
  5
2CE
100
AcDbEntity
  8
0
100
AcDbLine
 62
7
  6
CONTINUOUS
 10
0.435
 20
-16.3989361674
 11
0.4662498808
 21
-16.4946808591
  0
LINE
  5
2CF
100
AcDbEntity
  8
0
100
AcDbLine
 62
7
  6
CONTINUOUS
 10
-1.815
 20
-15.6010637879
 11
-1.8462499702
 21
-15.4734042287
  0
LINE
  5
2D0
100
AcDbEntity
  8
0
100
AcDbLine
 62
7
  6
CONTINUOUS
 10
-1.5649999702
 20
-16.1436170042
 11
-1.53375
 21
-16.3031914979
  0
LINE
  5
2D1
100
AcDbEntity
  8
0
100
AcDbLine
 62
7
  6
CONTINUOUS
 10
-1.3775000596
 20
-16.3031914979
 11
-1.4087499404
 21
-16.1117021143
  0
LINE
  5
2D2
100
AcDbEntity
  8
0
100
AcDbLine
 62
7
  6
CONTINUOUS
 10
-3.580146
 20
14.351743
 11
-3.580146
 21
14.874477
  0
LINE
  5
2D3
100
AcDbEntity
  8
0
100
AcDbLine
 62
7
  6
CONTINUOUS
 10
-3.580146
 20
15.175955
 11
-3.580146
 21
15.648249
  0
LINE
  5
2D4
100
AcDbEntity
  8
0
100
AcDbLine
 62
7
  6
CONTINUOUS
 10
-3.5
 20
-17.5
 11
-3.5
 21
-14.5
  0
LINE
  5
2D5
100
AcDbEntity
  8
0
100
AcDbLine
 62
7
  6
CONTINUOUS
 10
-2.94
 20
-16.5904255286
 11
-2.94
 21
-16.75
  0
LINE
  5
2D6
100
AcDbEntity
  8
0
100
AcDbLine
 62
7
  6
CONTINUOUS
 10
-2.645022
 20
14.874484
 11
-2.645022
 21
15.175948
  0
LINE
  5
2D7
100
AcDbEntity
  8
0
100
AcDbLine
 62
7
  6
CONTINUOUS
 10
-2.576958
 20
15.648245
 11
-2.576958
 21
15.949703
  0
LINE
  5
2D8
100
AcDbEntity
  8
0
100
AcDbLine
 62
7
  6
CONTINUOUS
 10
-2.569324
 20
14.050297
 11
-2.569324
 21
14.351755
  0
LINE
  5
2D9
100
AcDbEntity
  8
0
100
AcDbLine
 62
7
  6
CONTINUOUS
 10
-2.161366
 20
15.949703
 11
-2.161366
 21
14.050297
  0
LINE
  5
2DA
100
AcDbEntity
  8
0
100
AcDbLine
 62
7
  6
CONTINUOUS
 10
-2.011141
 20
18.481466
 11
-2.011141
 21
16.581506
  0
LINE
  5
2DB
100
AcDbEntity
  8
0
100
AcDbLine
 62
7
  6
CONTINUOUS
 10
-2.0025
 20
-15.6010637879
 11
-2.0025
 21
-15.664893657
  0
LINE
  5
2DC
100
AcDbEntity
  8
0
100
AcDbLine
 62
7
  6
CONTINUOUS
 10
-1.822139
 20
14.050297
 11
-1.822139
 21
15.949703
  0
LINE
  5
2DD
100
AcDbEntity
  8
0
100
AcDbLine
 62
7
  6
CONTINUOUS
 10
-1.021691
 20
16.581506
 11
-0.93611
 21
17.82207
  0
LINE
  5
2DE
100
AcDbEntity
  8
0
100
AcDbLine
 62
7
  6
CONTINUOUS
 10
-1.229536
 20
18.481352
 11
-1.401081
 21
16.581506
  0
LINE
  5
2DF
100
AcDbEntity
  8
0
100
AcDbLine
 62
7
  6
CONTINUOUS
 10
1.170783
 20
17.254266
 11
1.368243
 21
17.959323
  0
LINE
  5
2E0
100
AcDbEntity
  8
0
100
AcDbLine
 62
7
  6
CONTINUOUS
 10
0.980233
 20
16.581506
 11
1.089662
 21
16.960783
  0
LINE
  5
2E1
100
AcDbEntity
  8
0
100
AcDbLine
 62
7
  6
CONTINUOUS
 10
5.1
 20
-3.25
 11
21.3
 21
-3.25
  0
LINE
  5
2E2
100
AcDbEntity
  8
0
100
AcDbLine
 62
7
  6
CONTINUOUS
 10
-5.1
 20
-3.25
 11
-21.3
 21
-3.25
  0
LINE
  5
2E3
100
AcDbEntity
  8
0
100
AcDbLine
 62
7
  6
CONTINUOUS
 10
1.56
 20
-16.2712766081
 11
1.5287501192
 21
-16.1436170042
  0
LINE
  5
2E4
100
AcDbEntity
  8
0
100
AcDbLine
 62
7
  6
CONTINUOUS
 10
1.5287501192
 20
-15.6010637879
 11
1.4974998808
 21
-15.4734042287
  0
LINE
  5
2E5
100
AcDbEntity
  8
0
100
AcDbLine
 62
7
  6
CONTINUOUS
 10
-0.4400000596
 20
-15.8563829958
 11
-0.4712499404
 21
-15.6968085468
  0
LINE
  5
2E6
100
AcDbEntity
  8
0
100
AcDbLine
 62
7
  6
CONTINUOUS
 10
-0.6275000596
 20
-15.6968085468
 11
-0.59625
 21
-15.8882978857
  0
LINE
  5
2E7
100
AcDbEntity
  8
0
100
AcDbLine
 62
7
  6
CONTINUOUS
 10
-1.815
 20
-16.75
 11
-1.815
 21
-16.5904255286
  0
LINE
  5
2E8
100
AcDbEntity
  8
0
100
AcDbLine
 62
7
  6
CONTINUOUS
 10
-1.815
 20
-15.664893657
 11
-1.815
 21
-15.6010637879
  0
LINE
  5
2E9
100
AcDbEntity
  8
0
100
AcDbLine
 62
7
  6
CONTINUOUS
 10
-1.614569
 20
16.581506
 11
-1.614569
 21
18.481466
  0
LINE
  5
2EA
100
AcDbEntity
  8
0
100
AcDbLine
 62
7
  6
CONTINUOUS
 10
-1.5649999702
 20
-15.8563829958
 11
-1.5649999702
 21
-16.1436170042
  0
LINE
  5
2EB
100
AcDbEntity
  8
0
100
AcDbLine
 62
7
  6
CONTINUOUS
 10
-1.418727
 20
15.949703
 11
-1.418727
 21
14.050297
  0
LINE
  5
2EC
100
AcDbEntity
  8
0
100
AcDbLine
 62
7
  6
CONTINUOUS
 10
-1.4087499404
 20
-16.1117021143
 11
-1.4087499404
 21
-15.8882978857
  0
LINE
  5
2ED
100
AcDbEntity
  8
0
100
AcDbLine
 62
7
  6
CONTINUOUS
 10
-1.079521
 20
15.121559
 11
-1.079515
 21
15.949703
  0
LINE
  5
2EE
100
AcDbEntity
  8
0
100
AcDbLine
 62
7
  6
CONTINUOUS
 10
-1.079515
 20
14.050297
 11
-1.079521
 21
14.70857
  0
LINE
  5
2EF
100
AcDbEntity
  8
0
100
AcDbLine
 62
7
  6
CONTINUOUS
 10
-0.59625
 20
-15.8882978857
 11
-0.59625
 21
-16.1117021143
  0
LINE
  5
2F0
100
AcDbEntity
  8
0
100
AcDbLine
 62
7
  6
CONTINUOUS
 10
-0.4400000596
 20
-16.1436170042
 11
-0.4400000596
 21
-15.8563829958
  0
LINE
  5
2F1
100
AcDbEntity
  8
0
100
AcDbLine
 62
7
  6
CONTINUOUS
 10
-0.1899999404
 20
-15.4734042287
 11
-0.1899999404
 21
-15.7287234366
  0
LINE
  5
2F2
100
AcDbEntity
  8
0
100
AcDbLine
 62
7
  6
CONTINUOUS
 10
-0.0024999404
 20
-15.5053191185
 11
-0.0024999404
 21
-16.75
  0
LINE
  5
2F3
100
AcDbEntity
  8
0
100
AcDbLine
 62
7
  6
CONTINUOUS
 10
0.1849998808
 20
-16.75
 11
0.1849998808
 21
-15.25
  0
LWPOLYLINE
  5
2F4
100
AcDbEntity
  8
0
100
AcDbPolyline
 62
7
  6
CONTINUOUS
 90
10
 70
0
 10
0.5660984599
 20
15.0000067473
 10
0.5694624464
 20
15.0750352145
 10
0.5771814476
 20
15.146140419
 10
0.5892554637
 20
15.2133230961
 10
0.6060171006
 20
15.2767790992
 10
0.6271337524
 20
15.3363139343
 10
0.6516076008
 20
15.3913428686
 10
0.67910604
 20
15.4416714839
 10
0.7099616759
 20
15.4874955619
 10
0.7441745085
 20
15.5288156973
  0
LINE
  5
2F5
100
AcDbEntity
  8
0
100
AcDbLine
 62
7
  6
CONTINUOUS
 10
-13.8698659872
 20
-13.288846539
 11
-13.983558219
 21
-13.4025387708
  0
LINE
  5
2F6
100
AcDbEntity
  8
RACCORDO
100
AcDbLine
 62
253
  6
CONTINUOUS
 10
-21.0506086115
 20
-20.610711414
 11
-21.0714422353
 21
-20.6315450378
  0
LINE
  5
2F7
100
AcDbEntity
  8
RACCORDO
100
AcDbLine
 62
253
  6
CONTINUOUS
 10
20.7518754742
 20
20.9117726717
 11
20.7715450378
 21
20.9314422353
  0
LINE
  5
2F8
100
AcDbEntity
  8
RACCORDO
100
AcDbLine
 62
253
  6
CONTINUOUS
 10
-20.7518754742
 20
-20.9117726717
 11
-20.7715450378
 21
-20.9314422353
  0
LINE
  5
2F9
100
AcDbEntity
  8
0
100
AcDbLine
 62
7
  6
CONTINUOUS
 10
-13.8698659872
 20
13.288846539
 11
-13.983558219
 21
13.4025387708
  0
LINE
  5
2FA
100
AcDbEntity
  8
RACCORDO
100
AcDbLine
 62
253
  6
CONTINUOUS
 10
-21.0506086115
 20
20.610711414
 11
-21.0714422353
 21
20.6315450378
  0
LINE
  5
2FB
100
AcDbEntity
  8
RACCORDO
100
AcDbLine
 62
253
  6
CONTINUOUS
 10
20.7518754742
 20
-20.9117726717
 11
20.7715450378
 21
-20.9314422353
  0
LINE
  5
2FC
100
AcDbEntity
  8
RACCORDO
100
AcDbLine
 62
253
  6
CONTINUOUS
 10
-20.7518754742
 20
20.9117726717
 11
-20.7715450378
 21
20.9314422353
  0
LINE
  5
2FD
100
AcDbEntity
  8
0
100
AcDbLine
 62
7
  6
CONTINUOUS
 10
2.9350001192
 20
-15.6010637879
 11
2.9037498808
 21
-15.4734042287
  0
LINE
  5
2FE
100
AcDbEntity
  8
0
100
AcDbLine
 62
7
  6
CONTINUOUS
 10
0.525691
 20
16.581506
 11
0.348034
 21
18.481352
  0
LINE
  5
2FF
100
AcDbEntity
  8
0
100
AcDbLine
 62
7
  6
CONTINUOUS
 10
0.056261
 20
17.816898
 11
0.137738
 21
16.581506
  0
LWPOLYLINE
  5
300
100
AcDbEntity
  8
0
100
AcDbPolyline
 62
7
  6
CONTINUOUS
 90
10
 70
0
 10
0.224762853
 20
15.0001910737
 10
0.2296042154
 20
14.9037118877
 10
0.2402847174
 20
14.8115789705
 10
0.256804359
 20
14.7237935079
 10
0.2797711333
 20
14.6399071975
 10
0.3085770471
 20
14.5603704206
 10
0.3413981209
 20
14.4865325542
 10
0.3776263615
 20
14.4188442309
 10
0.417869762
 20
14.3568570338
 10
0.4621283224
 20
14.3005718862
  0
LINE
  5
301
100
AcDbEntity
  8
0
100
AcDbLine
 62
7
  6
CONTINUOUS
 10
0.9349998808
 20
-15.9202127755
 11
0.9349998808
 21
-16.0478723347
  0
LINE
  5
302
100
AcDbEntity
  8
0
100
AcDbLine
 62
7
  6
CONTINUOUS
 10
1.3725
 20
-15.6010637879
 11
1.3725
 21
-15.664893657
  0
LINE
  5
303
100
AcDbEntity
  8
0
100
AcDbLine
 62
7
  6
CONTINUOUS
 10
1.4037498808
 20
-16.2712766081
 11
1.4037498808
 21
-16.3989361674
  0
LINE
  5
304
100
AcDbEntity
  8
0
100
AcDbLine
 62
7
  6
CONTINUOUS
 10
1.5287501192
 20
-15.664893657
 11
1.5287501192
 21
-15.6010637879
  0
LINE
  5
305
100
AcDbEntity
  8
0
100
AcDbLine
 62
7
  6
CONTINUOUS
 10
1.56
 20
-16.3989361674
 11
1.56
 21
-16.2712766081
  0
LINE
  5
306
100
AcDbEntity
  8
0
100
AcDbLine
 62
7
  6
CONTINUOUS
 10
1.8100001192
 20
-16.5904255286
 11
1.8100001192
 21
-16.75
  0
LINE
  5
307
100
AcDbEntity
  8
0
100
AcDbLine
 62
7
  6
CONTINUOUS
 10
2.2668846027
 20
18.4591554587
 11
2.2668846027
 21
16.581506254
  0
LWPOLYLINE
  5
308
100
AcDbEntity
  8
0
100
AcDbPolyline
 62
7
  6
CONTINUOUS
 90
10
 70
0
 10
1.7102994918
 20
15.0000067473
 10
1.7069392361
 20
14.925001424
 10
1.6992232216
 20
14.8539099392
 10
1.6871514482
 20
14.7867330961
 10
1.6703914374
 20
14.7232757542
 10
1.6492756679
 20
14.6637344746
 10
1.6248015752
 20
14.6086976248
 10
1.5973016381
 20
14.5583617928
 10
1.5664433779
 20
14.5125316865
 10
1.5322267946
 20
14.4712078515
  0
LINE
  5
309
100
AcDbEntity
  8
0
100
AcDbLine
 62
7
  6
CONTINUOUS
 10
-1.4087499404
 20
-15.8882978857
 11
-1.3775000596
 21
-15.6968085468
  0
LINE
  5
30A
100
AcDbEntity
  8
0
100
AcDbLine
 62
7
  6
CONTINUOUS
 10
-0.59625
 20
-16.1117021143
 11
-0.6275000596
 21
-16.3031914979
  0
LINE
  5
30B
100
AcDbEntity
  8
0
100
AcDbLine
 62
7
  6
CONTINUOUS
 10
-1.53375
 20
-15.6968085468
 11
-1.5649999702
 21
-15.8563829958
  0
LINE
  5
30C
100
AcDbEntity
  8
0
100
AcDbLine
 62
7
  6
CONTINUOUS
 10
-2.8774999981
 20
-15.4734042287
 11
-2.9087499991
 21
-15.6010637879
  0
LINE
  5
30D
100
AcDbEntity
  8
0
100
AcDbLine
 62
7
  6
CONTINUOUS
 10
-1.8462499702
 20
-15.7925532162
 11
-1.815
 21
-15.664893657
  0
LINE
  5
30E
100
AcDbEntity
  8
RACCORDO
100
AcDbLine
 62
253
  6
CONTINUOUS
 10
21.0506086115
 20
20.610711414
 11
21.0714422353
 21
20.6315450378
  0
LINE
  5
30F
100
AcDbEntity
  8
0
100
AcDbLine
 62
7
  6
CONTINUOUS
 10
13.983558219
 20
13.4025387708
 11
13.8698659872
 21
13.288846539
  0
LINE
  5
310
100
AcDbEntity
  8
RACCORDO
100
AcDbLine
 62
253
  6
CONTINUOUS
 10
21.0506086115
 20
-20.610711414
 11
21.0714422353
 21
-20.6315450378
  0
LINE
  5
311
100
AcDbEntity
  8
0
100
AcDbLine
 62
7
  6
CONTINUOUS
 10
13.983558219
 20
-13.4025387708
 11
13.8698659872
 21
-13.288846539
  0
LINE
  5
312
100
AcDbEntity
  8
0
100
AcDbLine
 62
7
  6
CONTINUOUS
 10
-3.720764
 20
18.481352
 11
-3.118476
 21
16.581506
  0
LINE
  5
313
100
AcDbEntity
  8
0
100
AcDbLine
 62
7
  6
CONTINUOUS
 10
-2.927819
 20
17.173629
 11
-3.289964
 21
18.481352
  0
LWPOLYLINE
  5
314
100
AcDbEntity
  8
0
100
AcDbPolyline
 62
7
  6
CONTINUOUS
 90
10
 70
0
 10
2.0516350988
 20
15.0001910737
 10
2.0467973437
 20
15.0966631319
 10
2.0361195554
 20
15.1887890371
 10
2.019601734
 20
15.2765698147
 10
1.9966355246
 20
15.3604602076
 10
1.9678292821
 20
15.4400073713
 10
1.9350080703
 20
15.5138512207
 10
1.898780244
 20
15.5815392983
 10
1.8585374484
 20
15.6435264195
 10
1.8142796835
 20
15.6998136126
  0
LWPOLYLINE
  5
315
100
AcDbEntity
  8
0
100
AcDbPolyline
 62
7
  6
CONTINUOUS
 90
25
 70
0
 10
3.183408459
 20
17.9312194933
 10
3.1834998897
 20
17.9110930886
 10
3.1824896779
 20
17.8911132962
 10
3.1803778236
 20
17.8712801283
 10
3.1772771968
 20
17.851494334
 10
3.1730749276
 20
17.8318551839
 10
3.1674324057
 20
17.8126604953
 10
3.1602227788
 20
17.7938515005
 10
3.1515728992
 20
17.7754870314
 10
3.1415247135
 20
17.7580413592
 10
3.1300177342
 20
17.7415490252
 10
3.1171124488
 20
17.7259756107
 10
3.1030322666
 20
17.7116919966
 10
3.087723436
 20
17.6988118313
 10
3.0712397087
 20
17.687221605
 10
3.0539657489
 20
17.6769514755
 10
3.0359002067
 20
17.6680839734
 10
3.0170444319
 20
17.6605366666
 10
2.9977871384
 20
17.6540922535
 10
2.9782297587
 20
17.64875251
 10
2.9582708603
 20
17.6445157097
 10
2.9379948591
 20
17.6411592814
 10
2.9174298941
 20
17.6386090398
 10
2.8965478263
 20
17.6369391894
 10
2.8753486559
 20
17.6361497358
  0
LINE
  5
316
100
AcDbEntity
  8
0
100
AcDbLine
 62
7
  6
CONTINUOUS
 10
2.385447
 20
15.949703
 11
2.385447
 21
14.050297
  0
LINE
  5
317
100
AcDbEntity
  8
0
100
AcDbLine
 62
7
  6
CONTINUOUS
 10
2.6487115031
 20
17.6361497358
 11
2.6487115031
 21
18.1576944232
  0
LINE
  5
318
100
AcDbEntity
  8
0
100
AcDbLine
 62
7
  6
CONTINUOUS
 10
2.6618612449
 20
16.581506254
 11
2.6618612449
 21
17.3250009165
  0
LINE
  5
319
100
AcDbEntity
  8
0
100
AcDbLine
 62
7
  6
CONTINUOUS
 10
2.7475001192
 20
-15.6010637879
 11
2.7475001192
 21
-15.664893657
  0
LINE
  5
31A
100
AcDbEntity
  8
0
100
AcDbLine
 62
7
  6
CONTINUOUS
 10
2.9350001192
 20
-16.75
 11
2.9350001192
 21
-16.5904255286
  0
LINE
  5
31B
100
AcDbEntity
  8
0
100
AcDbLine
 62
7
  6
CONTINUOUS
 10
2.9350001192
 20
-15.664893657
 11
2.9350001192
 21
-15.6010637879
  0
LINE
  5
31C
100
AcDbEntity
  8
0
100
AcDbLine
 62
7
  6
CONTINUOUS
 10
3.2864526086
 20
17.4683373758
 11
3.2864526086
 21
17.4795638075
  0
LINE
  5
31D
100
AcDbEntity
  8
0
100
AcDbLine
 62
7
  6
CONTINUOUS
 10
3.5
 20
-17.5
 11
3.5
 21
-14.5
  0
LINE
  5
31E
100
AcDbEntity
  8
0
100
AcDbLine
 62
7
  6
CONTINUOUS
 10
3.592798
 20
15.949703
 11
3.592791
 21
14.608189
  0
LINE
  5
31F
100
AcDbEntity
  8
0
100
AcDbLine
 62
7
  6
CONTINUOUS
 10
3.919354
 20
14.050297
 11
3.919354
 21
15.949703
  0
LINE
  5
320
100
AcDbEntity
  8
0
100
AcDbLine
 62
7
  6
CONTINUOUS
 10
2.711999
 20
14.050297
 11
2.716602
 21
15.377168
  0
LINE
  5
321
100
AcDbEntity
  8
0
100
AcDbLine
 62
7
  6
CONTINUOUS
 10
-0.4712499404
 20
-16.3031914979
 11
-0.4400000596
 21
-16.1436170042
  0
LINE
  5
322
100
AcDbEntity
  8
0
100
AcDbLine
 62
7
  6
CONTINUOUS
 10
0.4975001192
 20
-15.4734042287
 11
0.4662498808
 21
-15.6010637879
  0
LINE
  5
323
100
AcDbEntity
  8
0
100
AcDbLine
 62
7
  6
CONTINUOUS
 10
-1.5025000298
 20
-15.6010637879
 11
-1.53375
 21
-15.6968085468
  0
LINE
  5
324
100
AcDbEntity
  8
0
100
AcDbLine
 62
7
  6
CONTINUOUS
 10
-5.1
 20
3.25
 11
-21.3
 21
3.25
  0
LINE
  5
325
100
AcDbEntity
  8
0
100
AcDbLine
 62
7
  6
CONTINUOUS
 10
5.1
 20
3.25
 11
21.3
 21
3.25
  0
LINE
  5
326
100
AcDbEntity
  8
0
100
AcDbLine
 62
7
  6
CONTINUOUS
 10
4.5
 20
13.55
 11
4.5
 21
19.05
  0
LINE
  5
327
100
AcDbEntity
  8
0
100
AcDbLine
 62
7
  6
CONTINUOUS
 10
4.6
 20
8.0
 11
4.6
 21
3.75
  0
LINE
  5
328
100
AcDbEntity
  8
0
100
AcDbLine
 62
7
  6
CONTINUOUS
 10
4.6
 20
-3.75
 11
4.6
 21
-8.0
  0
LINE
  5
329
100
AcDbEntity
  8
0
100
AcDbLine
 62
7
  6
CONTINUOUS
 10
6.0
 20
10.4
 11
6.0
 21
9.5891116965
  0
LINE
  5
32A
100
AcDbEntity
  8
0
100
AcDbLine
 62
7
  6
CONTINUOUS
 10
6.0
 20
-10.4
 11
6.0
 21
-9.5891116965
  0
LINE
  5
32B
100
AcDbEntity
  8
0
100
AcDbLine
 62
7
  6
CONTINUOUS
 10
1.4974998808
 20
-15.7925532162
 11
1.5287501192
 21
-15.664893657
  0
LINE
  5
32C
100
AcDbEntity
  8
0
100
AcDbLine
 62
7
  6
CONTINUOUS
 10
1.8724998808
 20
-15.4734042287
 11
1.84125
 21
-15.6010637879
  0
LINE
  5
32D
100
AcDbEntity
  8
0
100
AcDbLine
 62
7
  6
CONTINUOUS
 10
-0.5025
 20
-16.3989361674
 11
-0.4712499404
 21
-16.3031914979
  0
LINE
  5
32E
100
AcDbEntity
  8
0
100
AcDbLine
 62
7
  6
CONTINUOUS
 10
1.5287501192
 20
-16.4946808591
 11
1.56
 21
-16.3989361674
  0
LINE
  5
32F
100
AcDbEntity
  8
0
100
AcDbLine
 62
7
  6
CONTINUOUS
 10
-2.0025
 20
-15.664893657
 11
-2.0650000298
 21
-15.7925532162
  0
LINE
  5
330
100
AcDbEntity
  8
0
100
AcDbLine
 62
7
  6
CONTINUOUS
 10
-1.44
 20
-15.4734042287
 11
-1.5025000298
 21
-15.6010637879
  0
LINE
  5
331
100
AcDbEntity
  8
0
100
AcDbLine
 62
7
  6
CONTINUOUS
 10
-2.7525
 20
-15.6010637879
 11
-2.6899999925
 21
-15.5053191185
  0
LINE
  5
332
100
AcDbEntity
  8
0
100
AcDbLine
 62
7
  6
CONTINUOUS
 10
-13.9908473377
 20
-10.4032733012
 11
-13.9810194482
 21
-10.4
  0
LINE
  5
333
100
AcDbEntity
  8
0
100
AcDbLine
 62
7
  6
CONTINUOUS
 10
-13.9908473377
 20
10.4032733012
 11
-13.9810194482
 21
10.4
  0
LINE
  5
334
100
AcDbEntity
  8
0
100
AcDbLine
 62
7
  6
CONTINUOUS
 10
-0.93611
 20
17.82207
 11
-0.470883
 21
16.581506
  0
LINE
  5
335
100
AcDbEntity
  8
0
100
AcDbLine
 62
7
  6
CONTINUOUS
 10
-0.440908
 20
17.426552
 11
-0.833292
 21
18.481352
  0
LINE
  5
336
100
AcDbEntity
  8
0
100
AcDbLine
 62
7
  6
CONTINUOUS
 10
1.629728
 20
16.960783
 11
1.732461
 21
16.581506
  0
LINE
  5
337
100
AcDbEntity
  8
0
100
AcDbLine
 62
7
  6
CONTINUOUS
 10
1.368243
 20
17.959323
 11
1.550473
 21
17.254266
  0
LINE
  5
338
100
AcDbEntity
  8
0
100
AcDbLine
 62
7
  6
CONTINUOUS
 10
2.9037498808
 20
-15.7925532162
 11
2.9350001192
 21
-15.664893657
  0
LINE
  5
339
100
AcDbEntity
  8
0
100
AcDbLine
 62
7
  6
CONTINUOUS
 10
-0.5649999404
 20
-16.526595749
 11
-0.5025
 21
-16.3989361674
  0
LINE
  5
33A
100
AcDbEntity
  8
0
100
AcDbLine
 62
7
  6
CONTINUOUS
 10
1.3725
 20
-15.664893657
 11
1.3099998808
 21
-15.7925532162
  0
LINE
  5
33B
100
AcDbEntity
  8
0
100
AcDbLine
 62
7
  6
CONTINUOUS
 10
1.4037498808
 20
-16.3989361674
 11
1.3725
 21
-16.462765947
  0
LINE
  5
33C
100
AcDbEntity
  8
0
100
AcDbLine
 62
7
  6
CONTINUOUS
 10
-1.90875
 20
-15.8882978857
 11
-1.8462499702
 21
-15.7925532162
  0
LINE
  5
33D
100
AcDbEntity
  8
0
100
AcDbLine
 62
7
  6
CONTINUOUS
 10
-1.3775000596
 20
-15.6968085468
 11
-1.2525
 21
-15.5053191185
  0
LINE
  5
33E
100
AcDbEntity
  8
0
100
AcDbLine
 62
7
  6
CONTINUOUS
 10
-0.6275000596
 20
-16.3031914979
 11
-0.7524999404
 21
-16.4946808591
  0
LINE
  5
33F
100
AcDbEntity
  8
0
100
AcDbLine
 62
7
  6
CONTINUOUS
 10
-4.1
 20
8.5
 11
-1.4142135624
 21
8.5
  0
LINE
  5
340
100
AcDbEntity
  8
0
100
AcDbLine
 62
7
  6
CONTINUOUS
 10
1.4142135624
 20
8.5
 11
4.1
 21
8.5
  0
LINE
  5
341
100
AcDbEntity
  8
0
100
AcDbLine
 62
7
  6
CONTINUOUS
 10
0.221854
 20
14.050297
 11
-0.599511
 21
15.168115
  0
LINE
  5
342
100
AcDbEntity
  8
0
100
AcDbLine
 62
7
  6
CONTINUOUS
 10
-0.836947
 20
14.934799
 11
-0.204862
 21
14.050297
  0
LWPOLYLINE
  5
343
100
AcDbEntity
  8
0
100
AcDbPolyline
 62
7
  6
CONTINUOUS
 90
5
 70
0
 10
3.0955914198
 20
17.1580121761
 10
3.1145388559
 20
17.0993023224
 10
3.1335202845
 20
17.0392714827
 10
3.1525357056
 20
16.9779194026
 10
3.1715178973
 20
16.9152658211
  0
LINE
  5
344
100
AcDbEntity
  8
0
100
AcDbLine
 62
7
  6
CONTINUOUS
 10
2.150432
 20
16.581506
 11
1.567512
 21
18.481352
  0
LINE
  5
345
100
AcDbEntity
  8
0
100
AcDbLine
 62
7
  6
CONTINUOUS
 10
3.1715178973
 20
16.9152658211
 11
3.2293406462
 21
16.7191735075
  0
LINE
  5
346
100
AcDbEntity
  8
0
100
AcDbLine
 62
7
  6
CONTINUOUS
 10
3.2293406462
 20
16.7191735075
 11
3.2691570653
 21
16.581506254
  0
LWPOLYLINE
  5
347
100
AcDbEntity
  8
0
100
AcDbPolyline
 62
7
  6
CONTINUOUS
 90
24
 70
0
 10
3.5091804298
 20
17.1176257563
 10
3.5032959077
 20
17.1388887425
 10
3.4973879985
 20
17.159502877
 10
3.4915183881
 20
17.1794251003
 10
3.4856253907
 20
17.1986985664
 10
3.4795239483
 20
17.2174526331
 10
3.4732005264
 20
17.2356980696
 10
3.4666686595
 20
17.2534241742
 10
3.4597838935
 20
17.2707280814
 10
3.452556661
 20
17.2876246292
 10
3.4449765294
 20
17.3040990303
 10
3.4368677467
 20
17.3202039714
 10
3.4282327259
 20
17.3360042259
 10
3.419069054
 20
17.35143506
 10
3.4091937403
 20
17.3663549035
 10
3.3985697679
 20
17.3807970627
 10
3.3872341536
 20
17.3947282844
 10
3.3751149565
 20
17.4079071782
 10
3.36216405
 20
17.4203408474
 10
3.3484295607
 20
17.4320222592
 10
3.3339839279
 20
17.4426888395
 10
3.3188512983
 20
17.4522530941
 10
3.3030075252
 20
17.4608025954
 10
3.2864526086
 20
17.4683373758
  0
LINE
  5
348
100
AcDbEntity
  8
0
100
AcDbLine
 62
7
  6
CONTINUOUS
 10
3.561503122
 20
16.9215700369
 11
3.5091804298
 21
17.1176257563
  0
LINE
  5
349
100
AcDbEntity
  8
0
100
AcDbLine
 62
7
  6
CONTINUOUS
 10
3.6506135504
 20
16.581506254
 11
3.561503122
 21
16.9215700369
  0
LINE
  5
34A
100
AcDbEntity
  8
0
100
AcDbLine
 62
7
  6
CONTINUOUS
 10
12.8521427854
 20
9.7102211511
 11
12.85
 21
9.7037875673
  0
LINE
  5
34B
100
AcDbEntity
  8
0
100
AcDbLine
 62
7
  6
CONTINUOUS
 10
2.7475001192
 20
-15.664893657
 11
2.685
 21
-15.7925532162
  0
LINE
  5
34C
100
AcDbEntity
  8
0
100
AcDbLine
 62
7
  6
CONTINUOUS
 10
0.6225
 20
-15.6010637879
 11
0.6850001192
 21
-15.5053191185
  0
LINE
  5
34D
100
AcDbEntity
  8
0
100
AcDbLine
 62
7
  6
CONTINUOUS
 10
1.4350001192
 20
-15.8882978857
 11
1.4974998808
 21
-15.7925532162
  0
LINE
  5
34E
100
AcDbEntity
  8
0
100
AcDbLine
 62
7
  6
CONTINUOUS
 10
1.9975001192
 20
-15.6010637879
 11
2.0599998808
 21
-15.5053191185
  0
LINE
  5
34F
100
AcDbEntity
  8
0
100
AcDbLine
 62
7
  6
CONTINUOUS
 10
1.46625
 20
-16.5904255286
 11
1.5287501192
 21
-16.4946808591
  0
LINE
  5
350
100
AcDbEntity
  8
0
100
AcDbLine
 62
7
  6
CONTINUOUS
 10
-0.0024999404
 20
-15.25
 11
-0.1899999404
 21
-15.4734042287
  0
LINE
  5
351
100
AcDbEntity
  8
0
100
AcDbLine
 62
7
  6
CONTINUOUS
 10
-0.1899999404
 20
-15.7287234366
 11
-0.0024999404
 21
-15.5053191185
  0
LINE
  5
352
100
AcDbEntity
  8
0
100
AcDbLine
 62
7
  6
CONTINUOUS
 10
-2.7525
 20
-15.3457446694
 11
-2.8774999981
 21
-15.4734042287
  0
LINE
  5
353
100
AcDbEntity
  8
0
100
AcDbLine
 62
7
  6
CONTINUOUS
 10
-1.34625
 20
-15.3776595592
 11
-1.44
 21
-15.4734042287
  0
LINE
  5
354
100
AcDbEntity
  8
0
100
AcDbLine
 62
7
  6
CONTINUOUS
 10
-2.0650000298
 20
-15.7925532162
 11
-2.94
 21
-16.5904255286
  0
LINE
  5
355
100
AcDbEntity
  8
0
100
AcDbLine
 62
7
  6
CONTINUOUS
 10
-2.6899999925
 20
-16.5904255286
 11
-1.90875
 21
-15.8882978857
  0
LINE
  5
356
100
AcDbEntity
  8
0
100
AcDbLine
 62
7
  6
CONTINUOUS
 10
13.1110365985
 20
9.7279494716
 11
12.9106909682
 21
9.717449802
  0
LINE
  5
357
100
AcDbEntity
  8
0
100
AcDbLine
 62
7
  6
CONTINUOUS
 10
-13.15
 20
9.6995747806
 11
-12.85
 21
9.7037875673
  0
LINE
  5
358
100
AcDbEntity
  8
0
100
AcDbLine
 62
253
  6
CONTINUOUS
 10
-21.0266653968
 20
9.4772
 11
-0.2123208891
 21
9.4772
  0
LINE
  5
359
100
AcDbEntity
  8
0
100
AcDbLine
 62
253
  6
CONTINUOUS
 10
0.2123208871
 20
9.4772
 11
21.0266653968
 21
9.4772
  0
LINE
  5
35A
100
AcDbEntity
  8
0
100
AcDbLine
 62
7
  6
CONTINUOUS
 10
-21.0267229342
 20
9.5891116965
 11
-6.0
 21
9.5891116965
  0
LINE
  5
35B
100
AcDbEntity
  8
0
100
AcDbLine
 62
7
  6
CONTINUOUS
 10
6.0
 20
9.5891116965
 11
21.0267229342
 21
9.5891116965
  0
LINE
  5
35C
100
AcDbEntity
  8
0
100
AcDbLine
 62
7
  6
CONTINUOUS
 10
-21.0321633529
 20
9.6
 11
-13.9810194482
 21
9.6
  0
LINE
  5
35D
100
AcDbEntity
  8
0
100
AcDbLine
 62
7
  6
CONTINUOUS
 10
-13.15
 20
9.6
 11
-6.0
 21
9.6
  0
LINE
  5
35E
100
AcDbEntity
  8
0
100
AcDbLine
 62
7
  6
CONTINUOUS
 10
6.0
 20
9.6
 11
13.15
 21
9.6
  0
LINE
  5
35F
100
AcDbEntity
  8
0
100
AcDbLine
 62
7
  6
CONTINUOUS
 10
13.9810194482
 20
9.6
 11
21.0321633529
 21
9.6
  0
LINE
  5
360
100
AcDbEntity
  8
0
100
AcDbLine
 62
7
  6
CONTINUOUS
 10
13.4704141733
 20
9.7310194482
 11
13.2524579547
 21
9.7310194482
  0
LINE
  5
361
100
AcDbEntity
  8
0
100
AcDbLine
 62
7
  6
CONTINUOUS
 10
-13.2524579547
 20
9.7310194482
 11
-13.4704141733
 21
9.7310194482
  0
LINE
  5
362
100
AcDbEntity
  8
0
100
AcDbLine
 62
7
  6
CONTINUOUS
 10
21.0321633529
 20
10.4
 11
13.9810194482
 21
10.4
  0
LINE
  5
363
100
AcDbEntity
  8
0
100
AcDbLine
 62
7
  6
CONTINUOUS
 10
12.85
 20
10.4
 11
6.0
 21
10.4
  0
LINE
  5
364
100
AcDbEntity
  8
0
100
AcDbLine
 62
7
  6
CONTINUOUS
 10
-6.0
 20
10.4
 11
-12.85
 21
10.4
  0
LINE
  5
365
100
AcDbEntity
  8
0
100
AcDbLine
 62
7
  6
CONTINUOUS
 10
-13.9810194482
 20
10.4
 11
-21.0321633529
 21
10.4
  0
LINE
  5
366
100
AcDbEntity
  8
0
100
AcDbLine
 62
7
  6
CONTINUOUS
 10
-21.0272527777
 20
10.4032733012
 11
-13.9908473377
 21
10.4032733012
  0
LINE
  5
367
100
AcDbEntity
  8
0
100
AcDbLine
 62
7
  6
CONTINUOUS
 10
13.9908473377
 20
10.4032733012
 11
21.0272527777
 21
10.4032733012
  0
LINE
  5
368
100
AcDbEntity
  8
0
100
AcDbLine
 62
7
  6
CONTINUOUS
 10
12.85
 20
9.7037875673
 11
13.15
 21
9.6995747806
  0
LINE
  5
369
100
AcDbEntity
  8
0
100
AcDbLine
 62
7
  6
CONTINUOUS
 10
-12.9106909682
 20
9.717449802
 11
-13.1110365985
 21
9.7279494716
  0
LWPOLYLINE
  5
36A
100
AcDbEntity
  8
0
100
AcDbPolyline
 62
7
  6
CONTINUOUS
 90
13
 70
0
 10
0.4621283224
 20
14.3005718862
 10
0.4999689016
 20
14.2593597971
 10
0.5414787131
 20
14.2206858779
 10
0.5866577569
 20
14.1845503784
 10
0.6356779119
 20
14.1506506883
 10
0.6883672992
 20
14.1192898467
 10
0.744210282
 20
14.0913766185
 10
0.8032649126
 20
14.0668418554
 10
0.8654731387
 20
14.0457551434
 10
0.9301451672
 20
14.0292334285
 10
0.9970510671
 20
14.0176491515
 10
1.0664207692
 20
14.010630187
 10
1.1382542738
 20
14.0081766112
  0
LWPOLYLINE
  5
36B
100
AcDbEntity
  8
0
100
AcDbPolyline
 62
7
  6
CONTINUOUS
 90
10
 70
0
 10
0.7441745085
 20
14.4712078515
 10
0.70979392
 20
14.5126225082
 10
0.6788478839
 20
14.5585391652
 10
0.6513364001
 20
14.6089572759
 10
0.6269740849
 20
14.6640967171
 10
0.6060463221
 20
14.7237363128
 10
0.5894092631
 20
14.7872139479
 10
0.5773482916
 20
14.8543084934
 10
0.5695780239
 20
14.9252396887
 10
0.5660984599
 20
15.0000067473
  0
LINE
  5
36C
100
AcDbEntity
  8
0
100
AcDbLine
 62
7
  6
CONTINUOUS
 10
2.716602
 20
15.377168
 11
3.580395
 21
14.050297
  0
LINE
  5
36D
100
AcDbEntity
  8
0
100
AcDbLine
 62
7
  6
CONTINUOUS
 10
12.8521427854
 20
-9.7102211511
 11
12.85
 21
-9.7037875673
  0
LINE
  5
36E
100
AcDbEntity
  8
0
100
AcDbLine
 62
7
  6
CONTINUOUS
 10
12.85
 20
-9.7037875673
 11
12.85
 21
-13.2962124327
  0
LINE
  5
36F
100
AcDbEntity
  8
0
100
AcDbLine
 62
7
  6
CONTINUOUS
 10
12.85
 20
9.7037875673
 11
12.85
 21
13.2962124327
  0
LINE
  5
370
100
AcDbEntity
  8
0
100
AcDbLine
 62
253
  6
CONTINUOUS
 10
12.8521427854
 20
-13.2897788489
 11
12.8521427854
 21
-9.7102211511
  0
LINE
  5
371
100
AcDbEntity
  8
0
100
AcDbLine
 62
253
  6
CONTINUOUS
 10
12.8521427854
 20
9.7102211511
 11
12.8521427854
 21
13.2897788489
  0
LINE
  5
372
100
AcDbEntity
  8
0
100
AcDbLine
 62
7
  6
CONTINUOUS
 10
2.8412501192
 20
-15.8882978857
 11
2.9037498808
 21
-15.7925532162
  0
LINE
  5
373
100
AcDbEntity
  8
0
100
AcDbLine
 62
7
  6
CONTINUOUS
 10
-0.6587499404
 20
-16.6223404296
 11
-0.5649999404
 21
-16.526595749
  0
LINE
  5
374
100
AcDbEntity
  8
0
100
AcDbLine
 62
7
  6
CONTINUOUS
 10
0.6225
 20
-15.3457446694
 11
0.4975001192
 21
-15.4734042287
  0
LINE
  5
375
100
AcDbEntity
  8
0
100
AcDbLine
 62
7
  6
CONTINUOUS
 10
1.3099998808
 20
-15.7925532162
 11
1.2475001192
 21
-15.8563829958
  0
LINE
  5
376
100
AcDbEntity
  8
0
100
AcDbLine
 62
7
  6
CONTINUOUS
 10
1.9975001192
 20
-15.3457446694
 11
1.8724998808
 21
-15.4734042287
  0
LINE
  5
377
100
AcDbEntity
  8
0
100
AcDbLine
 62
7
  6
CONTINUOUS
 10
1.3725
 20
-16.462765947
 11
1.3099998808
 21
-16.526595749
  0
LINE
  5
378
100
AcDbEntity
  8
0
100
AcDbLine
 62
7
  6
CONTINUOUS
 10
-2.6899999925
 20
-15.5053191185
 11
-2.5962499925
 21
-15.4414893389
  0
LINE
  5
379
100
AcDbEntity
  8
0
100
AcDbLine
 62
7
  6
CONTINUOUS
 10
-1.2525
 20
-15.5053191185
 11
-1.15875
 21
-15.4414893389
  0
LINE
  5
37A
100
AcDbEntity
  8
0
100
AcDbLine
 62
7
  6
CONTINUOUS
 10
-1.1900000596
 20
-15.2819148898
 11
-1.34625
 21
-15.3776595592
  0
LINE
  5
37B
100
AcDbEntity
  8
0
100
AcDbLine
 62
7
  6
CONTINUOUS
 10
-2.6275000075
 20
-15.2819148898
 11
-2.7525
 21
-15.3457446694
  0
LWPOLYLINE
  5
37C
100
AcDbEntity
  8
0
100
AcDbPolyline
 62
7
  6
CONTINUOUS
 90
13
 70
0
 10
1.8142796835
 20
15.6998136126
 10
1.776391002
 20
15.741071724
 10
1.7348395854
 20
15.7797796869
 10
1.6896254337
 20
15.8159377955
 10
1.6405743587
 20
15.8498484263
 10
1.5878605486
 20
15.8812097195
 10
1.5320065685
 20
15.9091156761
 10
1.4729543834
 20
15.9336343824
 10
1.4107620283
 20
15.9546983077
 10
1.3461261727
 20
15.9711981345
 10
1.2792790401
 20
15.9827642548
 10
1.2099884071
 20
15.9897666885
 10
1.1382542738
 20
15.9922055362
  0
LWPOLYLINE
  5
37D
100
AcDbEntity
  8
0
100
AcDbPolyline
 62
7
  6
CONTINUOUS
 90
10
 70
0
 10
1.5322267946
 20
15.5288156973
 10
1.5666041116
 20
15.4874066404
 10
1.5975475688
 20
15.4414973518
 10
1.6250571661
 20
15.3910872366
 10
1.6494182442
 20
15.3359558267
 10
1.6703454625
 20
15.276322223
 10
1.6869827987
 20
15.2128452236
 10
1.6990449119
 20
15.1457440268
 10
1.7068171429
 20
15.0747981074
 10
1.7102994918
 20
15.0000067473
  0
LINE
  5
37E
100
AcDbEntity
  8
0
100
AcDbLine
 62
7
  6
CONTINUOUS
 10
3.592791
 20
14.608189
 11
2.716892
 21
15.949703
  0
LINE
  5
37F
100
AcDbEntity
  8
0
100
AcDbLine
 62
253
  6
CONTINUOUS
 10
12.9106909682
 20
-13.282550198
 11
12.9106909682
 21
-9.717449802
  0
LINE
  5
380
100
AcDbEntity
  8
0
100
AcDbLine
 62
253
  6
CONTINUOUS
 10
12.9106909682
 20
9.717449802
 11
12.9106909682
 21
13.282550198
  0
LINE
  5
381
100
AcDbEntity
  8
0
100
AcDbLine
 62
253
  6
CONTINUOUS
 10
13.1110365985
 20
-13.2720505284
 11
13.1110365985
 21
-9.7279494716
  0
LINE
  5
382
100
AcDbEntity
  8
0
100
AcDbLine
 62
253
  6
CONTINUOUS
 10
13.1110365985
 20
9.7279494716
 11
13.1110365985
 21
13.2720505284
  0
LINE
  5
383
100
AcDbEntity
  8
0
100
AcDbLine
 62
7
  6
CONTINUOUS
 10
13.15
 20
9.6995747806
 11
13.15
 21
9.6
  0
LINE
  5
384
100
AcDbEntity
  8
0
100
AcDbLine
 62
7
  6
CONTINUOUS
 10
13.15
 20
-13.3004252194
 11
13.15
 21
-13.4025387708
  0
LINE
  5
385
100
AcDbEntity
  8
0
100
AcDbLine
 62
7
  6
CONTINUOUS
 10
13.15
 20
-9.6995747806
 11
13.15
 21
-9.6
  0
LINE
  5
386
100
AcDbEntity
  8
0
100
AcDbLine
 62
7
  6
CONTINUOUS
 10
13.15
 20
13.3004252194
 11
13.15
 21
13.4025387708
  0
LINE
  5
387
100
AcDbEntity
  8
0
100
AcDbLine
 62
253
  6
CONTINUOUS
 10
13.2524579547
 20
-13.2689805518
 11
13.2524579547
 21
-9.7310194482
  0
LINE
  5
388
100
AcDbEntity
  8
0
100
AcDbLine
 62
253
  6
CONTINUOUS
 10
13.2524579547
 20
9.7310194482
 11
13.2524579547
 21
13.2689805518
  0
LINE
  5
389
100
AcDbEntity
  8
0
100
AcDbLine
 62
253
  6
CONTINUOUS
 10
13.4704141733
 20
-13.2689805518
 11
13.4704141733
 21
-9.7310194482
  0
LINE
  5
38A
100
AcDbEntity
  8
0
100
AcDbLine
 62
253
  6
CONTINUOUS
 10
13.4704141733
 20
9.7310194482
 11
13.4704141733
 21
13.2689805518
  0
LINE
  5
38B
100
AcDbEntity
  8
0
100
AcDbLine
 62
253
  6
CONTINUOUS
 10
13.8698659872
 20
-13.288846539
 11
13.8698659872
 21
-9.711153461
  0
LINE
  5
38C
100
AcDbEntity
  8
0
100
AcDbLine
 62
253
  6
CONTINUOUS
 10
13.8698659872
 20
9.711153461
 11
13.8698659872
 21
13.288846539
  0
LINE
  5
38D
100
AcDbEntity
  8
0
100
AcDbLine
 62
7
  6
CONTINUOUS
 10
13.9810194482
 20
10.4
 11
13.9810194482
 21
9.6
  0
LINE
  5
38E
100
AcDbEntity
  8
0
100
AcDbLine
 62
7
  6
CONTINUOUS
 10
13.9810194482
 20
-10.4
 11
13.9810194482
 21
-9.6
  0
LINE
  5
38F
100
AcDbEntity
  8
0
100
AcDbLine
 62
7
  6
CONTINUOUS
 10
21.0267229342
 20
9.5891116965
 11
21.0321633529
 21
9.6
  0
LINE
  5
390
100
AcDbEntity
  8
0
100
AcDbLine
 62
7
  6
CONTINUOUS
 10
2.685
 20
-15.7925532162
 11
1.8100001192
 21
-16.5904255286
  0
LINE
  5
391
100
AcDbEntity
  8
0
100
AcDbLine
 62
7
  6
CONTINUOUS
 10
2.0599998808
 20
-16.5904255286
 11
2.8412501192
 21
-15.8882978857
  0
LINE
  5
392
100
AcDbEntity
  8
0
100
AcDbLine
 62
7
  6
CONTINUOUS
 10
1.3099998808
 20
-15.9840425551
 11
1.4350001192
 21
-15.8882978857
  0
LINE
  5
393
100
AcDbEntity
  8
0
100
AcDbLine
 62
7
  6
CONTINUOUS
 10
0.6850001192
 20
-15.5053191185
 11
0.7787501192
 21
-15.4414893389
  0
LINE
  5
394
100
AcDbEntity
  8
0
100
AcDbLine
 62
7
  6
CONTINUOUS
 10
-0.7524999404
 20
-16.4946808591
 11
-0.8462499404
 21
-16.5585106388
  0
LINE
  5
395
100
AcDbEntity
  8
0
100
AcDbLine
 62
7
  6
CONTINUOUS
 10
2.0599998808
 20
-15.5053191185
 11
2.1537498808
 21
-15.4414893389
  0
LINE
  5
396
100
AcDbEntity
  8
0
100
AcDbLine
 62
7
  6
CONTINUOUS
 10
1.3725
 20
-16.6542553194
 11
1.46625
 21
-16.5904255286
  0
LINE
  5
397
100
AcDbEntity
  8
0
100
AcDbLine
 62
7
  6
CONTINUOUS
 10
-0.8150000596
 20
-16.7180851074
 11
-0.6587499404
 21
-16.6223404296
  0
LINE
  5
398
100
AcDbEntity
  8
0
100
AcDbLine
 62
7
  6
CONTINUOUS
 10
0.7474998808
 20
-15.2819148898
 11
0.6225
 21
-15.3457446694
  0
LINE
  5
399
100
AcDbEntity
  8
0
100
AcDbLine
 62
7
  6
CONTINUOUS
 10
2.1225
 20
-15.2819148898
 11
1.9975001192
 21
-15.3457446694
  0
LINE
  5
39A
100
AcDbEntity
  8
0
100
AcDbLine
 62
7
  6
CONTINUOUS
 10
-12.9106909682
 20
13.282550198
 11
-13.1110365985
 21
13.2720505284
  0
LWPOLYLINE
  5
39B
100
AcDbEntity
  8
0
100
AcDbPolyline
 62
7
  6
CONTINUOUS
 90
13
 70
0
 10
1.1382542738
 20
14.0081766112
 10
1.2092331321
 20
14.0112329036
 10
1.2777431509
 20
14.0183898488
 10
1.34378433
 20
14.0296473768
 10
1.4074692329
 20
14.0451576756
 10
1.4686852963
 20
14.0647682913
 10
1.5270948295
 20
14.0880221515
 10
1.5827208182
 20
14.1148613707
 10
1.6355402767
 20
14.145343393
 10
1.6851465573
 20
14.1791841317
 10
1.7314041107
 20
14.2162887032
 10
1.774448486
 20
14.2567514025
 10
1.8142796834
 20
14.3005718861
  0
LINE
  5
39C
100
AcDbEntity
  8
0
100
AcDbLine
 62
7
  6
CONTINUOUS
 10
12.85
 20
13.2962124327
 11
13.15
 21
13.3004252194
  0
LINE
  5
39D
100
AcDbEntity
  8
0
100
AcDbLine
 62
7
  6
CONTINUOUS
 10
13.4704141733
 20
13.2689805518
 11
13.2524579547
 21
13.2689805518
  0
LINE
  5
39E
100
AcDbEntity
  8
0
100
AcDbLine
 62
7
  6
CONTINUOUS
 10
-13.2524579547
 20
13.2689805518
 11
-13.4704141733
 21
13.2689805518
  0
LINE
  5
39F
100
AcDbEntity
  8
0
100
AcDbLine
 62
7
  6
CONTINUOUS
 10
-13.983558219
 20
13.4025387708
 11
-13.15
 21
13.4025387708
  0
LINE
  5
3A0
100
AcDbEntity
  8
0
100
AcDbLine
 62
7
  6
CONTINUOUS
 10
13.15
 20
13.4025387708
 11
13.983558219
 21
13.4025387708
  0
LINE
  5
3A1
100
AcDbEntity
  8
0
100
AcDbLine
 62
7
  6
CONTINUOUS
 10
-4.5
 20
13.55
 11
4.5
 21
13.55
  0
LINE
  5
3A2
100
AcDbEntity
  8
0
100
AcDbLine
 62
7
  6
CONTINUOUS
 10
-3.919354
 20
14.050297
 11
-2.569324
 21
14.050297
  0
LINE
  5
3A3
100
AcDbEntity
  8
0
100
AcDbLine
 62
7
  6
CONTINUOUS
 10
-2.161366
 20
14.050297
 11
-1.822139
 21
14.050297
  0
LINE
  5
3A4
100
AcDbEntity
  8
0
100
AcDbLine
 62
7
  6
CONTINUOUS
 10
-1.418727
 20
14.050297
 11
-1.079515
 21
14.050297
  0
LINE
  5
3A5
100
AcDbEntity
  8
0
100
AcDbLine
 62
7
  6
CONTINUOUS
 10
-0.204862
 20
14.050297
 11
0.221854
 21
14.050297
  0
LINE
  5
3A6
100
AcDbEntity
  8
0
100
AcDbLine
 62
7
  6
CONTINUOUS
 10
2.385447
 20
14.050297
 11
2.711999
 21
14.050297
  0
LINE
  5
3A7
100
AcDbEntity
  8
0
100
AcDbLine
 62
7
  6
CONTINUOUS
 10
3.580395
 20
14.050297
 11
3.919354
 21
14.050297
  0
LINE
  5
3A8
100
AcDbEntity
  8
0
100
AcDbLine
 62
7
  6
CONTINUOUS
 10
-2.569324
 20
14.351755
 11
-3.580146
 21
14.351743
  0
LINE
  5
3A9
100
AcDbEntity
  8
0
100
AcDbLine
 62
7
  6
CONTINUOUS
 10
-3.580146
 20
14.874477
 11
-2.645022
 21
14.874484
  0
LINE
  5
3AA
100
AcDbEntity
  8
0
100
AcDbLine
 62
7
  6
CONTINUOUS
 10
-13.15
 20
13.3004252194
 11
-12.85
 21
13.2962124327
  0
LINE
  5
3AB
100
AcDbEntity
  8
0
100
AcDbLine
 62
7
  6
CONTINUOUS
 10
13.1110365985
 20
13.2720505284
 11
12.9106909682
 21
13.282550198
  0
LWPOLYLINE
  5
3AC
100
AcDbEntity
  8
0
100
AcDbPolyline
 62
7
  6
CONTINUOUS
 90
10
 70
0
 10
1.1391390405
 20
14.3089000876
 10
1.0855700186
 20
14.312023181
 10
1.033932665
 20
14.3192262849
 10
0.9842269796
 20
14.3305093258
 10
0.9358004953
 20
14.3463414611
 10
0.8893056792
 20
14.3662532451
 10
0.8466999323
 20
14.3888367062
 10
0.8086357218
 20
14.4136224449
 10
0.7744605805
 20
14.4410795563
 10
0.7441745085
 20
14.4712078515
  0
LINE
  5
3AD
100
AcDbEntity
  8
0
100
AcDbLine
 62
7
  6
CONTINUOUS
 10
21.0267229342
 20
-9.5891116965
 11
21.0321633529
 21
-9.6
  0
LINE
  5
3AE
100
AcDbEntity
  8
0
100
AcDbLine
 62
7
  6
CONTINUOUS
 10
12.8521427854
 20
-13.2897788489
 11
12.85
 21
-13.2962124327
  0
LINE
  5
3AF
100
AcDbEntity
  8
0
100
AcDbLine
 62
7
  6
CONTINUOUS
 10
13.9810194482
 20
-9.6
 11
13.8698659872
 21
-9.711153461
  0
LINE
  5
3B0
100
AcDbEntity
  8
0
100
AcDbLine
 62
7
  6
CONTINUOUS
 10
1.3099998808
 20
-16.526595749
 11
1.2475001192
 21
-16.5585106388
  0
LINE
  5
3B1
100
AcDbEntity
  8
0
100
AcDbLine
 62
7
  6
CONTINUOUS
 10
1.2475001192
 20
-16.7180851074
 11
1.3725
 21
-16.6542553194
  0
LINE
  5
3B2
100
AcDbEntity
  8
0
100
AcDbLine
 62
7
  6
CONTINUOUS
 10
1.2475001192
 20
-15.8563829958
 11
1.0600001192
 21
-15.9202127755
  0
LWPOLYLINE
  5
3B3
100
AcDbEntity
  8
0
100
AcDbPolyline
 62
7
  6
CONTINUOUS
 90
13
 70
0
 10
1.1382542738
 20
15.9922055362
 10
1.067104965
 20
15.9891355279
 10
0.9984361285
 20
15.9819477916
 10
0.9322477641
 20
15.9706422342
 10
0.8684267332
 20
15.9550660931
 10
0.8070861744
 20
15.93537178
 10
0.7485655044
 20
15.912016913
 10
0.6928421128
 20
15.8850585113
 10
0.6399386099
 20
15.8544389892
 10
0.5902622433
 20
15.8204440526
 10
0.543948762
 20
15.7831687061
 10
0.5008624168
 20
15.7425172233
 10
0.4610032079
 20
15.6984891933
  0
LINE
  5
3B4
100
AcDbEntity
  8
0
100
AcDbLine
 62
7
  6
CONTINUOUS
 10
-2.645022
 20
15.175948
 11
-3.580146
 21
15.175955
  0
LINE
  5
3B5
100
AcDbEntity
  8
0
100
AcDbLine
 62
7
  6
CONTINUOUS
 10
-3.580146
 20
15.648249
 11
-2.576958
 21
15.648245
  0
LINE
  5
3B6
100
AcDbEntity
  8
0
100
AcDbLine
 62
7
  6
CONTINUOUS
 10
3.919354
 20
15.949703
 11
3.592798
 21
15.949703
  0
LINE
  5
3B7
100
AcDbEntity
  8
0
100
AcDbLine
 62
7
  6
CONTINUOUS
 10
2.716892
 20
15.949703
 11
2.385447
 21
15.949703
  0
LINE
  5
3B8
100
AcDbEntity
  8
0
100
AcDbLine
 62
7
  6
CONTINUOUS
 10
0.217376
 20
15.949703
 11
-0.237454
 21
15.949703
  0
LINE
  5
3B9
100
AcDbEntity
  8
0
100
AcDbLine
 62
7
  6
CONTINUOUS
 10
-1.079515
 20
15.949703
 11
-1.418727
 21
15.949703
  0
LINE
  5
3BA
100
AcDbEntity
  8
0
100
AcDbLine
 62
7
  6
CONTINUOUS
 10
-1.822139
 20
15.949703
 11
-2.161366
 21
15.949703
  0
LINE
  5
3BB
100
AcDbEntity
  8
0
100
AcDbLine
 62
7
  6
CONTINUOUS
 10
-2.576958
 20
15.949703
 11
-3.919354
 21
15.949703
  0
LINE
  5
3BC
100
AcDbEntity
  8
0
100
AcDbLine
 62
7
  6
CONTINUOUS
 10
-3.118476
 20
16.581506
 11
-2.768996
 21
16.581506
  0
LINE
  5
3BD
100
AcDbEntity
  8
0
100
AcDbLine
 62
7
  6
CONTINUOUS
 10
-2.011141
 20
16.581506
 11
-1.614569
 21
16.581506
  0
LINE
  5
3BE
100
AcDbEntity
  8
0
100
AcDbLine
 62
7
  6
CONTINUOUS
 10
-1.401081
 20
16.581506
 11
-1.021691
 21
16.581506
  0
LINE
  5
3BF
100
AcDbEntity
  8
0
100
AcDbLine
 62
7
  6
CONTINUOUS
 10
-0.470883
 20
16.581506
 11
-0.415264
 21
16.581506
  0
LINE
  5
3C0
100
AcDbEntity
  8
0
100
AcDbLine
 62
7
  6
CONTINUOUS
 10
0.137738
 20
16.581506
 11
0.525691
 21
16.581506
  0
LINE
  5
3C1
100
AcDbEntity
  8
0
100
AcDbLine
 62
7
  6
CONTINUOUS
 10
0.587963
 20
16.581506
 11
0.980233
 21
16.581506
  0
LINE
  5
3C2
100
AcDbEntity
  8
0
100
AcDbLine
 62
7
  6
CONTINUOUS
 10
1.732461
 20
16.581506
 11
2.150432
 21
16.581506
  0
LINE
  5
3C3
100
AcDbEntity
  8
0
100
AcDbLine
 62
7
  6
CONTINUOUS
 10
2.2668846027
 20
16.581506254
 11
2.6618612449
 21
16.581506254
  0
LINE
  5
3C4
100
AcDbEntity
  8
0
100
AcDbLine
 62
7
  6
CONTINUOUS
 10
3.2691570653
 20
16.581506254
 11
3.6506135504
 21
16.581506254
  0
LINE
  5
3C5
100
AcDbEntity
  8
0
100
AcDbLine
 62
7
  6
CONTINUOUS
 10
1.089662
 20
16.960783
 11
1.629728
 21
16.960783
  0
LWPOLYLINE
  5
3C6
100
AcDbEntity
  8
0
100
AcDbPolyline
 62
7
  6
CONTINUOUS
 90
10
 70
0
 10
1.1391390405
 20
15.6911234612
 10
1.1920881427
 20
15.6880586999
 10
1.2432409379
 20
15.680889667
 10
1.292597426
 20
15.6696162734
 10
1.340853426
 20
15.653755381
 10
1.3873131191
 20
15.6337897791
 10
1.4298890481
 20
15.6111682809
 10
1.4678853943
 20
15.5863737388
 10
1.5019979764
 20
15.5589229492
 10
1.5322267946
 20
15.5288156973
  0
LINE
  5
3C7
100
AcDbEntity
  8
0
100
AcDbLine
 62
7
  6
CONTINUOUS
 10
13.9810194482
 20
9.6
 11
13.8698659872
 21
9.711153461
  0
LINE
  5
3C8
100
AcDbEntity
  8
0
100
AcDbLine
 62
7
  6
CONTINUOUS
 10
12.8521427854
 20
13.2897788489
 11
12.85
 21
13.2962124327
  0
LWPOLYLINE
  5
3C9
100
AcDbEntity
  8
0
100
AcDbPolyline
 62
7
  6
CONTINUOUS
 90
10
 70
0
 10
2.6487115031
 20
18.1576944232
 10
2.6847647525
 20
18.1636401281
 10
2.7203155044
 20
18.1684179227
 10
2.7553637587
 20
18.1720278293
 10
2.7897506509
 20
18.1744803859
 10
2.8236350456
 20
18.1757650828
 10
2.8574935365
 20
18.175850363
 10
2.8914849881
 20
18.1747257057
 10
2.9254505359
 20
18.1724016267
 10
2.9593901799
 20
18.1688781148
  0
LINE
  5
3CA
100
AcDbEntity
  8
0
100
AcDbLine
 62
7
  6
CONTINUOUS
 10
1.550473
 20
17.254266
 11
1.170783
 21
17.254266
  0
LINE
  5
3CB
100
AcDbEntity
  8
0
100
AcDbLine
 62
7
  6
CONTINUOUS
 10
2.6618612449
 20
17.3250009165
 11
2.8744938515
 21
17.3250009165
  0
LINE
  5
3CC
100
AcDbEntity
  8
0
100
AcDbLine
 62
7
  6
CONTINUOUS
 10
2.8753486559
 20
17.6361497358
 11
2.6487115031
 21
17.6361497358
  0
LINE
  5
3CD
100
AcDbEntity
  8
0
100
AcDbLine
 62
7
  6
CONTINUOUS
 10
1.567512
 20
18.481352
 11
1.183876
 21
18.481352
  0
LINE
  5
3CE
100
AcDbEntity
  8
0
100
AcDbLine
 62
7
  6
CONTINUOUS
 10
0.348034
 20
18.481352
 11
-0.044336
 21
18.481352
  0
LINE
  5
3CF
100
AcDbEntity
  8
0
100
AcDbLine
 62
7
  6
CONTINUOUS
 10
-0.833292
 20
18.481352
 11
-1.229536
 21
18.481352
  0
LINE
  5
3D0
100
AcDbEntity
  8
0
100
AcDbLine
 62
7
  6
CONTINUOUS
 10
-2.15831
 20
18.481352
 11
-2.554611
 21
18.481352
  0
LINE
  5
3D1
100
AcDbEntity
  8
0
100
AcDbLine
 62
7
  6
CONTINUOUS
 10
-3.289964
 20
18.481352
 11
-3.720764
 21
18.481352
  0
LINE
  5
3D2
100
AcDbEntity
  8
0
100
AcDbLine
 62
7
  6
CONTINUOUS
 10
-1.614569
 20
18.481466
 11
-2.011141
 21
18.481466
  0
LINE
  5
3D3
100
AcDbEntity
  8
0
100
AcDbLine
 62
7
  6
CONTINUOUS
 10
-4.5
 20
19.05
 11
4.5
 21
19.05
  0
LWPOLYLINE
  5
3D4
100
AcDbEntity
  8
0
100
AcDbPolyline
 62
7
  6
CONTINUOUS
 90
13
 70
0
 10
2.8744938515
 20
17.3250009165
 10
2.8987600944
 20
17.3237105529
 10
2.9221508616
 20
17.3200865866
 10
2.9446661531
 20
17.3141289865
 10
2.9664277855
 20
17.3058242173
 10
2.9873139422
 20
17.2951856924
 10
3.0069591733
 20
17.2822537752
 10
3.0253323585
 20
17.2669886059
 10
3.0424646181
 20
17.2494298076
 10
3.0580838629
 20
17.2297369521
 10
3.0720993966
 20
17.207963128
 10
3.0846019156
 20
17.1840549303
 10
3.0955914198
 20
17.1580121761
  0
LWPOLYLINE
  5
3D5
100
AcDbEntity
  8
0
100
AcDbPolyline
 62
7
  6
CONTINUOUS
 90
25
 70
0
 10
2.9593901799
 20
18.1688781148
 10
2.9749493029
 20
18.1665940637
 10
2.9901908968
 20
18.1635156775
 10
3.0051149615
 20
18.1596429463
 10
3.0197627086
 20
18.1549623974
 10
3.0340929265
 20
18.1494874762
 10
3.047981981
 20
18.1432585476
 10
3.0614474307
 20
18.1362736429
 10
3.0744717169
 20
18.1285346911
 10
3.0868785299
 20
18.1200879024
 10
3.0986569718
 20
18.1109155508
 10
3.1098179404
 20
18.1010353123
 10
3.1202178191
 20
18.090546502
 10
3.129813505
 20
18.0794271577
 10
3.1386481008
 20
18.0676991891
 10
3.1467072987
 20
18.0555277285
 10
3.1539910708
 20
18.0429214691
 10
3.1604994449
 20
18.029871675
 10
3.1662181964
 20
18.0165173492
 10
3.1711615362
 20
18.0028697818
 10
3.1753152533
 20
17.9889176514
 10
3.1786224899
 20
17.974766056
 10
3.1810642935
 20
17.9604500239
 10
3.1826596165
 20
17.9459345066
 10
3.183408459
 20
17.9312194933
  0
LWPOLYLINE
  5
3D6
100
AcDbEntity
  8
0
100
AcDbPolyline
 62
7
  6
CONTINUOUS
 90
13
 70
0
 10
3.2459809447
 20
18.4390024381
 10
3.1803359518
 20
18.4590006315
 10
3.1115747781
 20
18.4752513099
 10
3.0396974235
 20
18.4877547237
 10
2.9645437258
 20
18.4962238736
 10
2.8862738473
 20
18.5009460913
 10
2.8053682744
 20
18.5027830198
 10
2.7219376
 20
18.5018655897
 10
2.6358712312
 20
18.4980628814
 10
2.5473178763
 20
18.4918437009
 10
2.4563271046
 20
18.4833642719
 10
2.3628493467
 20
18.4724682273
 10
2.2668846027
 20
18.4591554587
  0
LINE
  5
3D7
100
AcDbEntity
  8
0
100
AcDbLine
 62
253
  6
CONTINUOUS
 10
19.9551908211
 20
3.25
 11
19.9551908211
 21
-3.25
  0
LINE
  5
3D8
100
AcDbEntity
  8
0
100
AcDbLine
 62
253
  6
CONTINUOUS
 10
20.2551451296
 20
3.25
 11
20.2551451296
 21
-3.25
  0
LINE
  5
3D9
100
AcDbEntity
  8
0
100
AcDbLine
 62
7
  6
CONTINUOUS
 10
20.2674550649
 20
3.25
 11
20.2674550649
 21
-3.25
  0
LINE
  5
3DA
100
AcDbEntity
  8
0
100
AcDbLine
 62
7
  6
CONTINUOUS
 10
21.0321633529
 20
10.4
 11
21.0321633529
 21
9.6
  0
LINE
  5
3DB
100
AcDbEntity
  8
0
100
AcDbLine
 62
7
  6
CONTINUOUS
 10
21.0321633529
 20
-9.6
 11
21.0321633529
 21
-10.4
  0
LINE
  5
3DC
100
AcDbEntity
  8
0
100
AcDbLine
 62
7
  6
CONTINUOUS
 10
21.0714422353
 20
20.6315450378
 11
21.0714422353
 21
3.25
  0
LINE
  5
3DD
100
AcDbEntity
  8
0
100
AcDbLine
 62
7
  6
CONTINUOUS
 10
21.0714422353
 20
-3.25
 11
21.0714422353
 21
-20.6315450378
  0
LINE
  5
3DE
100
AcDbEntity
  8
0
100
AcDbLine
 62
7
  6
CONTINUOUS
 10
21.0272527777
 20
-10.4032733012
 11
21.0321633529
 21
-10.4
  0
LINE
  5
3DF
100
AcDbEntity
  8
RACCORDO
100
AcDbLine
 62
7
  6
CONTINUOUS
 10
-20.7518754742
 20
20.9117726717
 11
20.7518754742
 21
20.9117726717
  0
LINE
  5
3E0
100
AcDbEntity
  8
RACCORDO
100
AcDbLine
 62
7
  6
CONTINUOUS
 10
-20.7715450378
 20
20.9314422353
 11
20.7715450378
 21
20.9314422353
  0
LINE
  5
3E1
100
AcDbEntity
  8
0
100
AcDbLine
 62
7
  6
CONTINUOUS
 10
21.0272527777
 20
10.4032733012
 11
21.0321633529
 21
10.4
  0
LWPOLYLINE
  5
3E2
100
AcDbEntity
  8
RACCORDO
100
AcDbPolyline
 62
7
  6
CONTINUOUS
 90
25
 70
0
 10
21.0506086115
 20
20.610711414
 10
21.0500521071
 20
20.6302495834
 10
21.0482327852
 20
20.6497112685
 10
21.0451572646
 20
20.6690146875
 10
21.0408385455
 20
20.6880761499
 10
21.0352931053
 20
20.7068177559
 10
21.0285390657
 20
20.725167205
 10
21.0206015453
 20
20.7430478997
 10
21.0115123222
 20
20.7603812934
 10
21.0013051123
 20
20.7770939389
 10
20.990020653
 20
20.7931129217
 10
20.9777042477
 20
20.8083684661
 10
20.9644026311
 20
20.8227950608
 10
20.9501674022
 20
20.8363303321
 10
20.9350589652
 20
20.8489110266
 10
20.9191438982
 20
20.8604759703
 10
20.9024890521
 20
20.8709728767
 10
20.8851647147
 20
20.8803540998
 10
20.8672490348
 20
20.8885738446
 10
20.8488174183
 20
20.8955951402
 10
20.8299502357
 20
20.9013852617
 10
20.8107377527
 20
20.9059151249
 10
20.7912662665
 20
20.9091644494
 10
20.7716171403
 20
20.9111198621
 10
20.7518754742
 20
20.9117726717
  0
LINE
  5
3E3
100
AcDbEntity
  8
0
100
AcDbLine
 62
7
  6
CONTINUOUS
 10
21.3
 20
3.25
 11
21.3
 21
1.3228756555
  0
LINE
  5
3E4
100
AcDbEntity
  8
0
100
AcDbLine
 62
7
  6
CONTINUOUS
 10
21.3
 20
-1.3228756555
 11
21.3
 21
-3.25
  0
LINE
  5
3E5
100
AcDbEntity
  8
0
100
AcDbLine
 62
7
  6
CONTINUOUS
 10
22.3014422353
 20
21.6116135728
 11
22.3014422353
 21
-21.6116135728
  0
LWPOLYLINE
  5
3E6
100
AcDbEntity
  8
RACCORDO
100
AcDbPolyline
 62
7
  6
CONTINUOUS
 90
25
 70
0
 10
-20.7518754742
 20
20.9117726717
 10
-20.771618732
 20
20.9111197583
 10
-20.7912704248
 20
20.9091638975
 10
-20.8107453996
 20
20.905913587
 10
-20.8299625241
 20
20.9013819301
 10
-20.8488350761
 20
20.8955890733
 10
-20.867271772
 20
20.8885643089
 10
-20.8851922294
 20
20.8803403543
 10
-20.9025209053
 20
20.8709542371
 10
-20.9191786125
 20
20.8604524508
 10
-20.9350949514
 20
20.8488830131
 10
-20.9502033683
 20
20.8362983136
 10
-20.9644370723
 20
20.8227600789
 10
-20.9777356598
 20
20.8083320639
 10
-20.9900480317
 20
20.7930766336
 10
-21.001328015
 20
20.7770590501
 10
-21.0115304133
 20
20.7603493691
 10
-21.0206148427
 20
20.7430203949
 10
-21.0285482577
 20
20.725144532
 10
-21.035298931
 20
20.7068001846
 10
-21.0408417308
 20
20.6880639426
 10
-21.0451587256
 20
20.6690071053
 10
-21.0482333035
 20
20.6497071568
 10
-21.0500522018
 20
20.6302480161
 10
-21.0506086115
 20
20.610711414
  0
LINE
  5
3E7
100
AcDbEntity
  8
0
100
AcDbLine
 62
7
  6
CONTINUOUS
 10
-21.8016135728
 20
22.1114422353
 11
21.8016135728
 21
22.1114422353
  0
CIRCLE
  5
3E8
100
AcDbEntity
  8
0
100
AcDbCircle
 62
7
  6
CONTINUOUS
 10
-3.75
 20
-6.5
 40
0.5
  0
ARC
  5
3E9
100
AcDbEntity
  8
0
100
AcDbCircle
 62
7
  6
CONTINUOUS
 10
-1.4142135624
 20
-9.0
 40
0.5
100
AcDbArc
 50
19.4712206345
 51
90.0
  0
ARC
  5
3EA
100
AcDbEntity
  8
0
100
AcDbCircle
 62
7
  6
CONTINUOUS
 10
-4.1
 20
-8.0
 40
0.5
100
AcDbArc
 50
180.0
 51
270.0
  0
ARC
  5
3EB
100
AcDbEntity
  8
0
100
AcDbCircle
 62
7
  6
CONTINUOUS
 10
-5.1
 20
-3.75
 40
0.5
100
AcDbArc
 50
0.0
 51
90.0
  0
ARC
  5
3EC
100
AcDbEntity
  8
0
100
AcDbCircle
 62
7
  6
CONTINUOUS
 10
-21.8
 20
-1.3228756555
 40
0.5
100
AcDbArc
 50
0.0
 51
41.4096221093
  0
ARC
  5
3ED
100
AcDbEntity
  8
0
100
AcDbCircle
 62
7
  6
CONTINUOUS
 10
-20.3
 20
0.0
 40
1.5
100
AcDbArc
 50
138.5903778907
 51
221.4096221093
  0
CIRCLE
  5
3EE
100
AcDbEntity
  8
0
100
AcDbCircle
 62
7
  6
CONTINUOUS
 10
-3.75
 20
6.5
 40
0.5
  0
ARC
  5
3EF
100
AcDbEntity
  8
0
100
AcDbCircle
 62
7
  6
CONTINUOUS
 10
-1.4142135624
 20
9.0
 40
0.5
100
AcDbArc
 50
270.0
 51
340.5287793655
  0
ARC
  5
3F0
100
AcDbEntity
  8
0
100
AcDbCircle
 62
7
  6
CONTINUOUS
 10
-4.1
 20
8.0
 40
0.5
100
AcDbArc
 50
90.0
 51
180.0
  0
ARC
  5
3F1
100
AcDbEntity
  8
0
100
AcDbCircle
 62
7
  6
CONTINUOUS
 10
-5.1
 20
3.75
 40
0.5
100
AcDbArc
 50
270.0
 51
360.0
  0
ARC
  5
3F2
100
AcDbEntity
  8
0
100
AcDbCircle
 62
7
  6
CONTINUOUS
 10
-21.8
 20
1.3228756555
 40
0.5
100
AcDbArc
 50
318.5903778907
 51
360.0
  0
ARC
  5
3F3
100
AcDbEntity
  8
0
100
AcDbCircle
 62
7
  6
CONTINUOUS
 10
-0.0
 20
-8.5
 40
1.0
100
AcDbArc
 50
199.4712206345
 51
340.5287793655
  0
ARC
  5
3F4
100
AcDbEntity
  8
0
100
AcDbCircle
 62
7
  6
CONTINUOUS
 10
5.1
 20
-3.75
 40
0.5
100
AcDbArc
 50
90.0
 51
180.0
  0
CIRCLE
  5
3F5
100
AcDbEntity
  8
0
100
AcDbCircle
 62
7
  6
CONTINUOUS
 10
3.75
 20
-6.5
 40
0.5
  0
ARC
  5
3F6
100
AcDbEntity
  8
0
100
AcDbCircle
 62
7
  6
CONTINUOUS
 10
4.1
 20
-8.0
 40
0.5
100
AcDbArc
 50
270.0
 51
360.0
  0
ARC
  5
3F7
100
AcDbEntity
  8
0
100
AcDbCircle
 62
7
  6
CONTINUOUS
 10
1.4142135624
 20
-9.0
 40
0.5
100
AcDbArc
 50
90.0
 51
160.5287793655
  0
ARC
  5
3F8
100
AcDbEntity
  8
0
100
AcDbCircle
 62
7
  6
CONTINUOUS
 10
21.8
 20
-1.3228756555
 40
0.5
100
AcDbArc
 50
138.5903778907
 51
180.0
  0
ARC
  5
3F9
100
AcDbEntity
  8
0
100
AcDbCircle
 62
7
  6
CONTINUOUS
 10
20.3
 20
-0.0
 40
1.5
100
AcDbArc
 50
318.5903778907
 51
41.4096221093
  0
ARC
  5
3FA
100
AcDbEntity
  8
0
100
AcDbCircle
 62
7
  6
CONTINUOUS
 10
0.0
 20
8.5
 40
1.0
100
AcDbArc
 50
19.4712206345
 51
160.5287793655
  0
CIRCLE
  5
3FB
100
AcDbEntity
  8
0
100
AcDbCircle
 62
7
  6
CONTINUOUS
 10
3.75
 20
6.5
 40
0.5
  0
ARC
  5
3FC
100
AcDbEntity
  8
0
100
AcDbCircle
 62
7
  6
CONTINUOUS
 10
5.1
 20
3.75
 40
0.5
100
AcDbArc
 50
180.0
 51
270.0
  0
ARC
  5
3FD
100
AcDbEntity
  8
0
100
AcDbCircle
 62
7
  6
CONTINUOUS
 10
4.1
 20
8.0
 40
0.5
100
AcDbArc
 50
0.0
 51
90.0
  0
ARC
  5
3FE
100
AcDbEntity
  8
0
100
AcDbCircle
 62
7
  6
CONTINUOUS
 10
1.4142135624
 20
9.0
 40
0.5
100
AcDbArc
 50
199.4712206345
 51
270.0
  0
ARC
  5
3FF
100
AcDbEntity
  8
0
100
AcDbCircle
 62
7
  6
CONTINUOUS
 10
21.8
 20
1.3228756555
 40
0.5
100
AcDbArc
 50
180.0
 51
221.4096221093
  0
ELLIPSE
  5
400
100
AcDbEntity
  8
0
100
AcDbEllipse
 62
7
  6
CONTINUOUS
 10
21.801270839
 20
-21.611270839
 30
0.0
 11
-0.35379574
 21
0.35379574
 31
0.0
 40
0.999315002
 41
-3.9266482006
 42
-2.3565371065
  0
ELLIPSE
  5
401
100
AcDbEntity
  8
0
100
AcDbEllipse
 62
7
  6
CONTINUOUS
 10
21.801270839
 20
21.611270839
 30
0.0
 11
-0.35379574
 21
-0.35379574
 31
0.0
 40
0.999315002
 41
2.3565371065
 42
3.9266482006
  0
ELLIPSE
  5
402
100
AcDbEntity
  8
0
100
AcDbEllipse
 62
7
  6
CONTINUOUS
 10
-21.801270839
 20
-21.611270839
 30
0.0
 11
0.35379574
 21
0.35379574
 31
0.0
 40
0.999315002
 41
2.3565371065
 42
3.9266482006
  0
ELLIPSE
  5
403
100
AcDbEntity
  8
0
100
AcDbEllipse
 62
7
  6
CONTINUOUS
 10
-21.801270839
 20
21.611270839
 30
0.0
 11
-0.35379574
 21
0.35379574
 31
0.0
 40
0.999315002
 41
-0.7850555471
 42
0.7850555471
  0
ELLIPSE
  5
404
100
AcDbEntity
  8
0
100
AcDbEllipse
 62
7
  6
CONTINUOUS
 10
-9.3390521939
 20
7.79
 30
0.0
 11
0.0
 21
88.8
 31
0.0
 40
0.0524077793
 41
1.5075499043
 42
1.5413633239
  0
ELLIPSE
  5
405
100
AcDbEntity
  8
0
100
AcDbEllipse
 62
7
  6
CONTINUOUS
 10
-23.3515554759
 20
7.79
 30
0.0
 11
0.0
 21
88.8
 31
0.0
 40
0.0261859216
 41
-1.5413633239
 42
-1.4259125949
  0
ELLIPSE
  5
406
100
AcDbEntity
  8
0
100
AcDbEllipse
 62
7
  6
CONTINUOUS
 10
23.3515554759
 20
7.79
 30
0.0
 11
0.0
 21
88.8
 31
0.0
 40
0.0261859216
 41
1.4259125949
 42
1.5413633239
  0
ELLIPSE
  5
407
100
AcDbEntity
  8
0
100
AcDbEllipse
 62
7
  6
CONTINUOUS
 10
9.3390521939
 20
7.79
 30
0.0
 11
0.0
 21
88.8
 31
0.0
 40
0.0524077793
 41
-1.5413633239
 42
-1.5075499043
  0
ELLIPSE
  5
408
100
AcDbEntity
  8
0
100
AcDbEllipse
 62
7
  6
CONTINUOUS
 10
23.3515554759
 20
7.79
 30
0.0
 11
0.0
 21
88.8
 31
0.0
 40
0.0261859216
 41
1.5505346736
 42
1.5517951834
  0
ELLIPSE
  5
409
100
AcDbEntity
  8
0
100
AcDbEllipse
 62
7
  6
CONTINUOUS
 10
13.2524579547
 20
-13.2794621076
 30
0.0
 11
0.2
 21
0.0
 31
0.0
 40
0.0524077793
 41
1.5707963268
 42
2.3561944902
  0
ELLIPSE
  5
40A
100
AcDbEntity
  8
0
100
AcDbEllipse
 62
7
  6
CONTINUOUS
 10
13.4704141733
 20
-13.2899436635
 30
0.0
 11
0.4
 21
0.0
 31
0.0
 40
0.0524077793
 41
0.0523598776
 42
1.5707963268
  0
ELLIPSE
  5
40B
100
AcDbEntity
  8
0
100
AcDbEllipse
 62
7
  6
CONTINUOUS
 10
-23.3515554759
 20
7.79
 30
0.0
 11
0.0
 21
88.8
 31
0.0
 40
0.0261859216
 41
-1.5517951834
 42
-1.5505346736
  0
ELLIPSE
  5
40C
100
AcDbEntity
  8
0
100
AcDbEllipse
 62
7
  6
CONTINUOUS
 10
13.0521123244
 20
-13.2899617772
 30
0.0
 11
0.2
 21
-0.0
 31
0.0
 40
0.0524077793
 41
2.3561944902
 42
3.1241393611
  0
ELLIPSE
  5
40D
100
AcDbEntity
  8
0
100
AcDbEllipse
 62
7
  6
CONTINUOUS
 10
-13.2524579547
 20
-13.2794621076
 30
0.0
 11
0.2
 21
0.0
 31
0.0
 40
0.0524077793
 41
0.7853981634
 42
1.5707963268
  0
ELLIPSE
  5
40E
100
AcDbEntity
  8
0
100
AcDbEllipse
 62
7
  6
CONTINUOUS
 10
-13.0521123244
 20
-13.2899617772
 30
0.0
 11
0.2
 21
0.0
 31
0.0
 40
0.0524077793
 41
0.0174532925
 42
0.7853981634
  0
ELLIPSE
  5
40F
100
AcDbEntity
  8
0
100
AcDbEllipse
 62
7
  6
CONTINUOUS
 10
-13.4704141733
 20
-13.2899436635
 30
0.0
 11
0.4
 21
-0.0
 31
0.0
 40
0.0524077793
 41
1.5707963268
 42
3.089232776
  0
ELLIPSE
  5
410
100
AcDbEntity
  8
0
100
AcDbEllipse
 62
7
  6
CONTINUOUS
 10
9.3390521939
 20
-7.79
 30
0.0
 11
0.0
 21
88.8
 31
0.0
 40
0.0524077793
 41
-1.6340427492
 42
-1.6002293296
  0
ELLIPSE
  5
411
100
AcDbEntity
  8
0
100
AcDbEllipse
 62
7
  6
CONTINUOUS
 10
13.2524579547
 20
13.2794621076
 30
0.0
 11
0.2
 21
0.0
 31
0.0
 40
0.0524077793
 41
-2.3561944902
 42
-1.5707963268
  0
ELLIPSE
  5
412
100
AcDbEntity
  8
0
100
AcDbEllipse
 62
7
  6
CONTINUOUS
 10
13.0521123244
 20
13.2899617772
 30
0.0
 11
0.2
 21
0.0
 31
0.0
 40
0.0524077793
 41
-3.1241393611
 42
-2.3561944902
  0
ELLIPSE
  5
413
100
AcDbEntity
  8
0
100
AcDbEllipse
 62
7
  6
CONTINUOUS
 10
13.4704141733
 20
13.2899436635
 30
0.0
 11
0.4
 21
-0.0
 31
0.0
 40
0.0524077793
 41
-1.5707963268
 42
-0.0523598776
  0
ELLIPSE
  5
414
100
AcDbEntity
  8
0
100
AcDbEllipse
 62
7
  6
CONTINUOUS
 10
-13.2524579547
 20
13.2794621076
 30
0.0
 11
0.2
 21
0.0
 31
0.0
 40
0.0524077793
 41
-1.5707963268
 42
-0.7853981634
  0
ELLIPSE
  5
415
100
AcDbEntity
  8
0
100
AcDbEllipse
 62
7
  6
CONTINUOUS
 10
-13.4704141733
 20
13.2899436635
 30
0.0
 11
0.4
 21
0.0
 31
0.0
 40
0.0524077793
 41
-3.089232776
 42
-1.5707963268
  0
ELLIPSE
  5
416
100
AcDbEntity
  8
0
100
AcDbEllipse
 62
7
  6
CONTINUOUS
 10
-13.0521123244
 20
13.2899617772
 30
0.0
 11
0.2
 21
0.0
 31
0.0
 40
0.0524077793
 41
-0.7853981634
 42
-0.0174532925
  0
ELLIPSE
  5
417
100
AcDbEntity
  8
0
100
AcDbEllipse
 62
7
  6
CONTINUOUS
 10
23.3515554759
 20
-7.79
 30
0.0
 11
0.0
 21
88.8
 31
0.0
 40
0.0261859216
 41
-4.6829559775
 42
-4.5675052485
  0
ELLIPSE
  5
418
100
AcDbEntity
  8
0
100
AcDbEllipse
 62
7
  6
CONTINUOUS
 10
-23.3515554759
 20
-7.79
 30
0.0
 11
0.0
 21
88.8
 31
0.0
 40
0.0261859216
 41
-1.7156800587
 42
-1.6002293296
  0
ELLIPSE
  5
419
100
AcDbEntity
  8
RACCORDO
100
AcDbEllipse
 62
7
  6
CONTINUOUS
 10
20.7713393975
 20
-20.6313393975
 30
0.0
 11
-0.212277444
 21
0.212277444
 31
0.0
 40
0.999315002
 41
-3.9266482006
 42
-2.3565371065
  0
ELLIPSE
  5
41A
100
AcDbEntity
  8
RACCORDO
100
AcDbEllipse
 62
7
  6
CONTINUOUS
 10
-20.7713393975
 20
-20.6313393975
 30
0.0
 11
0.212277444
 21
0.212277444
 31
0.0
 40
0.999315002
 41
2.3565371065
 42
3.9266482006
  0
ELLIPSE
  5
41B
100
AcDbEntity
  8
RACCORDO
100
AcDbEllipse
 62
7
  6
CONTINUOUS
 10
20.7713393975
 20
20.6313393975
 30
0.0
 11
0.212277444
 21
0.212277444
 31
0.0
 40
0.999315002
 41
-0.7850555471
 42
0.7850555471
  0
ELLIPSE
  5
41C
100
AcDbEntity
  8
RACCORDO
100
AcDbEllipse
 62
7
  6
CONTINUOUS
 10
-20.7713393975
 20
20.6313393975
 30
0.0
 11
0.212277444
 21
-0.212277444
 31
0.0
 40
0.999315002
 41
2.3565371065
 42
3.9266482007
  0
ELLIPSE
  5
41D
100
AcDbEntity
  8
0
100
AcDbEllipse
 62
7
  6
CONTINUOUS
 10
34.0858452552
 20
0.0
 30
0.0
 11
0.0
 21
498.8
 31
0.0
 40
0.0261859216
 41
-4.7058732968
 42
-4.693387837
  0
ELLIPSE
  5
41E
100
AcDbEntity
  8
0
100
AcDbEllipse
 62
7
  6
CONTINUOUS
 10
-34.0858452552
 20
0.0
 30
0.0
 11
0.0
 21
498.8
 31
0.0
 40
0.0261859216
 41
-1.5897974701
 42
-1.5773120104
  0
ELLIPSE
  5
41F
100
AcDbEntity
  8
0
100
AcDbEllipse
 62
7
  6
CONTINUOUS
 10
-34.0858452552
 20
0.0
 30
0.0
 11
0.0
 21
498.8
 31
0.0
 40
0.0261859216
 41
-1.5642806432
 42
-1.5517951834
  0
ELLIPSE
  5
420
100
AcDbEntity
  8
0
100
AcDbEllipse
 62
7
  6
CONTINUOUS
 10
34.0858452552
 20
-0.0
 30
0.0
 11
0.0
 21
498.8
 31
0.0
 40
0.0261859216
 41
1.5517951834
 42
1.5642806432
  0
ELLIPSE
  5
421
100
AcDbEntity
  8
0
100
AcDbEllipse
 62
7
  6
CONTINUOUS
 10
13.2524579547
 20
9.7205378924
 30
0.0
 11
0.2
 21
0.0
 31
0.0
 40
0.0524077793
 41
1.5707963268
 42
2.3561944902
  0
ELLIPSE
  5
422
100
AcDbEntity
  8
0
100
AcDbEllipse
 62
7
  6
CONTINUOUS
 10
13.4704141733
 20
9.7100563365
 30
0.0
 11
0.4
 21
0.0
 31
0.0
 40
0.0524077793
 41
0.0523598776
 42
1.5707963268
  0
ELLIPSE
  5
423
100
AcDbEntity
  8
0
100
AcDbEllipse
 62
7
  6
CONTINUOUS
 10
13.0521123244
 20
9.7100382228
 30
0.0
 11
0.2
 21
-0.0
 31
0.0
 40
0.0524077793
 41
2.3561944902
 42
3.1241393611
  0
ELLIPSE
  5
424
100
AcDbEntity
  8
0
100
AcDbEllipse
 62
7
  6
CONTINUOUS
 10
-13.2524579547
 20
9.7205378924
 30
0.0
 11
0.2
 21
0.0
 31
0.0
 40
0.0524077793
 41
0.7853981634
 42
1.5707963268
  0
ELLIPSE
  5
425
100
AcDbEntity
  8
0
100
AcDbEllipse
 62
7
  6
CONTINUOUS
 10
-13.0521123244
 20
9.7100382228
 30
0.0
 11
0.2
 21
0.0
 31
0.0
 40
0.0524077793
 41
0.0174532925
 42
0.7853981634
  0
ELLIPSE
  5
426
100
AcDbEntity
  8
0
100
AcDbEllipse
 62
7
  6
CONTINUOUS
 10
-13.4704141733
 20
9.7100563365
 30
0.0
 11
0.4
 21
-0.0
 31
0.0
 40
0.0524077793
 41
1.5707963268
 42
3.089232776
  0
ELLIPSE
  5
427
100
AcDbEntity
  8
0
100
AcDbEllipse
 62
7
  6
CONTINUOUS
 10
13.2524579547
 20
-9.7205378924
 30
0.0
 11
0.2
 21
-0.0
 31
0.0
 40
0.0524077793
 41
-2.3561944902
 42
-1.5707963268
  0
ELLIPSE
  5
428
100
AcDbEntity
  8
0
100
AcDbEllipse
 62
7
  6
CONTINUOUS
 10
13.0521123244
 20
-9.7100382228
 30
0.0
 11
0.2
 21
-0.0
 31
0.0
 40
0.0524077793
 41
-3.1241393611
 42
-2.3561944902
  0
ELLIPSE
  5
429
100
AcDbEntity
  8
0
100
AcDbEllipse
 62
7
  6
CONTINUOUS
 10
13.4704141733
 20
-9.7100563365
 30
0.0
 11
0.4
 21
-0.0
 31
0.0
 40
0.0524077793
 41
-1.5707963268
 42
-0.0523598776
  0
ELLIPSE
  5
42A
100
AcDbEntity
  8
0
100
AcDbEllipse
 62
7
  6
CONTINUOUS
 10
-13.2524579547
 20
-9.7205378924
 30
0.0
 11
0.2
 21
0.0
 31
0.0
 40
0.0524077793
 41
-1.5707963268
 42
-0.7853981634
  0
ELLIPSE
  5
42B
100
AcDbEntity
  8
0
100
AcDbEllipse
 62
7
  6
CONTINUOUS
 10
-13.4704141733
 20
-9.7100563365
 30
0.0
 11
0.4
 21
0.0
 31
0.0
 40
0.0524077793
 41
-3.089232776
 42
-1.5707963268
  0
ELLIPSE
  5
42C
100
AcDbEntity
  8
0
100
AcDbEllipse
 62
7
  6
CONTINUOUS
 10
-13.0521123244
 20
-9.7100382228
 30
0.0
 11
0.2
 21
0.0
 31
0.0
 40
0.0524077793
 41
-0.7853981634
 42
-0.0174532925
  0
ELLIPSE
  5
42D
100
AcDbEntity
  8
0
100
AcDbEllipse
 62
7
  6
CONTINUOUS
 10
-9.3390521939
 20
-7.79
 30
0.0
 11
0.0
 21
88.8
 31
0.0
 40
0.0524077793
 41
-4.6829559775
 42
-4.6491425579
  0
ELLIPSE
  5
42E
100
AcDbEntity
  8
0
100
AcDbEllipse
 62
7
  6
CONTINUOUS
 10
-23.3515554759
 20
-7.79
 30
0.0
 11
0.0
 21
88.8
 31
0.0
 40
0.0261859216
 41
-1.59105798
 42
-1.5897974701
  0
ELLIPSE
  5
42F
100
AcDbEntity
  8
0
100
AcDbEllipse
 62
7
  6
CONTINUOUS
 10
23.3515554759
 20
-7.79
 30
0.0
 11
0.0
 21
88.8
 31
0.0
 40
0.0261859216
 41
-4.693387837
 42
-4.6921273272
  0
ENDSEC
  0
SECTION
  2
OBJECTS
  0
DICTIONARY
  5
C
100
AcDbDictionary
280
0
281
1
  3
ACAD_GROUP
350
D
  3
ACAD_MLINESTYLE
350
17
  3
ACAD_LAYOUT
350
1A
  3
ACAD_PLOTSETTINGS
350
19
  3
ACAD_PLOTSTYLENAME
350
E
  0
DICTIONARY
  5
D
102
{ACAD_REACTORS
330
C
102
}
100
AcDbDictionary
280
0
281
1
  0
ACDBDICTIONARYWDFLT
  5
E
102
{ACAD_REACTORS
330
C
102
}
100
AcDbDictionary
281
1
  3
Normal
350
F
100
AcDbDictionaryWithDefault
340
F
  0
DICTIONARY
  5
17
102
{ACAD_REACTORS
330
C
102
}
100
AcDbDictionary
280
0
281
1
  3
Standard
350
18
  0
DICTIONARY
  5
19
102
{ACAD_REACTORS
330
C
102
}
100
AcDbDictionary
281
1
  0
DICTIONARY
  5
1A
102
{ACAD_REACTORS
330
C
102
}
100
AcDbDictionary
281
1
  3
Model
350
430
  3
Layout1
350
431
  0
ACDBPLACEHOLDER
  5
F
102
{ACAD_REACTORS
330
E
102
}
  0
MLINESTYLE
  5
18
102
{ACAD_REACTORS
330
17
102
}
100
AcDbMlineStyle
  2
STANDARD
 70
0
  3

 62
256
 51
90.0
 52
90.0
 71
2
 49
0.5
 62
256
  6
BYLAYER
 49
-0.5
 62
256
  6
BYLAYER
  0
LAYOUT
  5
430
102
{ACAD_REACTORS
330
1A
102
}
100
AcDbPlotSettings
  1

  2
none_device
  4
ISO_A4_(297.00_x_210.00_MM)
  6

 40
0.0
 41
0.0
 42
0.0
 43
0.0
 44
297.0
 45
210.0
 46
0.0
 47
0.0
 48
0.0
 49
0.0
140
0.0
141
0.0
142
1.0
143
1.0
 70
1024
 72
1
 73
0
 74
0
  7

 75
0
147
1.0
148
0.0
149
0.0
100
AcDbLayout
  1
Model
 70
0
 71
0
 10
0.0
 20
0.0
 11
297.0
 21
210.0
 12
0.0
 22
0.0
 32
0.0
 14
0.0
 24
0.0
 34
0.0
 15
0.0
 25
0.0
 35
0.0
146
0.0
 13
0.0
 23
0.0
 33
0.0
 16
1.0
 26
0.0
 36
0.0
 17
0.0
 27
1.0
 37
0.0
 76
0
330
218
345
0
346
0
  0
LAYOUT
  5
431
102
{ACAD_REACTORS
330
1A
102
}
100
AcDbPlotSettings
  1

  2
none_device
  4
ISO_A4_(297.00_x_210.00_MM)
  6

 40
0.0
 41
0.0
 42
0.0
 43
0.0
 44
297.0
 45
210.0
 46
0.0
 47
0.0
 48
0.0
 49
0.0
140
0.0
141
0.0
142
1.0
143
1.0
 70
0
 72
1
 73
0
 74
0
  7

 75
0
147
1.0
148
0.0
149
0.0
100
AcDbLayout
  1
Layout1
 70
0
 71
1
 10
0.0
 20
0.0
 11
297.0
 21
210.0
 12
0.0
 22
0.0
 32
0.0
 14
0.0
 24
0.0
 34
0.0
 15
0.0
 25
0.0
 35
0.0
146
0.0
 13
0.0
 23
0.0
 33
0.0
 16
1.0
 26
0.0
 36
0.0
 17
0.0
 27
1.0
 37
0.0
 76
0
330
219
345
0
346
0
  0
ENDSEC
  0
EOF
