  0
SECTION
  2
HEADER
  9
$ACADVER
  1
AC1024
  9
$DWGCODEPAGE
  3
ANSI_1252
  9
$EXTMAX
 10
297.0
 20
210.0
 30
0.0
  9
$EXTMIN
 10
0.0
 20
0.0
 30
0.0
  9
$LIMMIN
 10
0.0
 20
0.0
  9
$LIMMAX
 10
297.0
 20
210.0
  9
$VIEWCTR
 10
148.5
 20
105.0
  9
$VIEWSIZE
 40
210.0
  9
$CLAYER
  8
0
  9
$LTSCALE
 40
16.335
  9
$CELTYPE
  6
BYLAYER
  9
$DIMSCALE
 40
1.0
  9
$DIMASZ
 40
3.0
  9
$DIMEXO
 40
0.5
  9
$DIMDLI
 40
11.286
  9
$DIMEXE
 40
1.5
  9
$DIMCEN
 40
2.673
  9
$DIMLFAC
 40
1.0
  9
$DIMBLK
  1
_FILLED
  9
$DIMALT
 70
0
  9
$DIMALTF
 40
0.0393700787
  9
$DIMTXT
 40
3.0
  9
$DIMTOL
 70
1
  9
$DIMLIM
 70
0
  9
$DIMTFAC
 40
1.0
  9
$DIMTP
 40
0.01
  9
$DIMTM
 40
0.01
  9
$DIMGAP
 40
0.625
  9
$DIMDSEP
 70
44
  9
$AUNITS
 70
0
  9
$PDMODE
 70
3
  9
$PDSIZE
 40
3.0
  9
$HANDSEED
  5
76B
  9
$TILEMODE
 70
1
  9
$MEASUREMENT
 70
1
  9
$INSUNITS
 70
4
  0
ENDSEC
  0
SECTION
  2
CLASSES
  0
CLASS
  1
ACDBDICTIONARYWDFLT
  2
AcDbDictionaryWithDefault
  3
AutoCAD 2000
 90
0
 91
1
280
0
281
0
  0
CLASS
  1
ACDBPLACEHOLDER
  2
AcDbPlaceHolder
  3
AutoCAD 2000
 90
0
 91
1
280
0
281
0
  0
CLASS
  1
LAYOUT
  2
AcDbLayout
  3
AutoCAD 2000
 90
0
 91
0
280
0
281
0
  0
ENDSEC
  0
SECTION
  2
TABLES
  0
TABLE
  2
VPORT
  5
8
100
AcDbSymbolTable
 70
2
  0
VPORT
  5
1F4
100
AcDbSymbolTableRecord
100
AcDbViewportTableRecord
  2
*ACTIVE
 70
0
 10
0.0
 20
0.0
 11
1.0
 21
1.0
 12
148.5
 22
105.0
 13
0.0
 23
0.0
 14
1.0
 24
1.0
 15
0.0
 25
0.0
 16
0.0
 26
0.0
 36
1.0
 17
0.0
 27
0.0
 37
0.0
 40
210.0
 41
1.4142857143
 42
50.0
 43
0.0
 44
0.0
 50
0.0
 51
0.0
 71
0
 72
100
 73
1
 74
1
 75
0
 76
0
 77
0
 78
0
  0
ENDTAB
  0
TABLE
  2
LTYPE
  5
5
100
AcDbSymbolTable
 70
6
  0
LTYPE
  5
14
100
AcDbSymbolTableRecord
100
AcDbLinetypeTableRecord
  2
BYBLOCK
 70
0
  3

 72
65
 73
0
 40
0.0
  0
LTYPE
  5
15
100
AcDbSymbolTableRecord
100
AcDbLinetypeTableRecord
  2
BYLAYER
 70
0
  3

 72
65
 73
0
 40
0.0
  0
LTYPE
  5
16
100
AcDbSymbolTableRecord
100
AcDbLinetypeTableRecord
  2
CONTINUOUS
 70
64
  3
Solid line
 72
65
 73
0
 40
0.0
  0
LTYPE
  5
1F5
100
AcDbSymbolTableRecord
100
AcDbLinetypeTableRecord
  2
CENTER
 70
64
  3
____ _ ____ _ ____ _ ____ _ ____ _ ____ _ ____
 72
65
 73
4
 40
0.6
 49
0.375
 74
0
 49
-0.075
 74
0
 49
0.075
 74
0
 49
-0.075
 74
0
  0
LTYPE
  5
1F6
100
AcDbSymbolTableRecord
100
AcDbLinetypeTableRecord
  2
HIDDEN
 70
64
  3
- - - - - - - - - - - - - - - - - - - -
 72
65
 73
2
 40
0.2
 49
0.1
 74
0
 49
-0.1
 74
0
  0
LTYPE
  5
1F7
100
AcDbSymbolTableRecord
100
AcDbLinetypeTableRecord
  2
PHANTOM
 70
64
  3
_____ _ _ _____ _ _ _____ _ _ _____
 72
65
 73
6
 40
0.8
 49
0.45
 74
0
 49
-0.05
 74
0
 49
0.1
 74
0
 49
-0.05
 74
0
 49
0.1
 74
0
 49
-0.05
 74
0
  0
LTYPE
  5
1F8
100
AcDbSymbolTableRecord
100
AcDbLinetypeTableRecord
  2
DOT
 70
64
  3
. . . . . . . . . . . . . . . . . . . .
 72
65
 73
2
 40
0.2
 49
0.1
 74
0
 49
-0.1
 74
0
  0
LTYPE
  5
1F9
100
AcDbSymbolTableRecord
100
AcDbLinetypeTableRecord
  2
DASHED
 70
64
  3
- - - - - - - - - - - - - - - - - - - -
 72
65
 73
2
 40
0.2
 49
0.1
 74
0
 49
-0.1
 74
0
  0
ENDTAB
  0
TABLE
  2
LAYER
  5
2
100
AcDbSymbolTable
 70
36
  0
LAYER
  5
10
100
AcDbSymbolTableRecord
100
AcDbLayerTableRecord
  2
0
 70
0
 62
7
  6
CONTINUOUS
370
-3
390
F
  0
LAYER
  5
1FA
100
AcDbSymbolTableRecord
100
AcDbLayerTableRecord
  2
DEFAULT_1
 70
0
 62
7
  6
CENTER
370
-3
390
F
  0
LAYER
  5
1FB
100
AcDbSymbolTableRecord
100
AcDbLayerTableRecord
  2
DEFAULT_2
 70
0
 62
7
  6
HIDDEN
370
-3
390
F
  0
LAYER
  5
1FC
100
AcDbSymbolTableRecord
100
AcDbLayerTableRecord
  2
DEFAULT_3
 70
0
 62
7
  6
PHANTOM
370
-3
390
F
  0
LAYER
  5
1FD
100
AcDbSymbolTableRecord
100
AcDbLayerTableRecord
  2
0603_C_REF_90000
 70
0
 62
7
  6
CONTINUOUS
370
-3
390
F
  0
LAYER
  5
1FE
100
AcDbSymbolTableRecord
100
AcDbLayerTableRecord
  2
0603_C_REF_90000_1
 70
0
 62
7
  6
CONTINUOUS
370
-3
390
F
  0
LAYER
  5
1FF
100
AcDbSymbolTableRecord
100
AcDbLayerTableRecord
  2
0603_C_REF_90000_2
 70
0
 62
7
  6
CONTINUOUS
370
-3
390
F
  0
LAYER
  5
200
100
AcDbSymbolTableRecord
100
AcDbLayerTableRecord
  2
0603_C_WAVE_90000
 70
0
 62
7
  6
CONTINUOUS
370
-3
390
F
  0
LAYER
  5
201
100
AcDbSymbolTableRecord
100
AcDbLayerTableRecord
  2
0603_C_WAVE_90000_1
 70
0
 62
7
  6
CONTINUOUS
370
-3
390
F
  0
LAYER
  5
202
100
AcDbSymbolTableRecord
100
AcDbLayerTableRecord
  2
0603_C_WAVE_90000_2
 70
0
 62
7
  6
CONTINUOUS
370
-3
390
F
  0
LAYER
  5
203
100
AcDbSymbolTableRecord
100
AcDbLayerTableRecord
  2
0603_C_WAVE_90000_3
 70
0
 62
7
  6
CONTINUOUS
370
-3
390
F
  0
LAYER
  5
204
100
AcDbSymbolTableRecord
100
AcDbLayerTableRecord
  2
0603_PTC_REF_80000
 70
0
 62
7
  6
CONTINUOUS
370
-3
390
F
  0
LAYER
  5
205
100
AcDbSymbolTableRecord
100
AcDbLayerTableRecord
  2
0603_R_REF_55000
 70
0
 62
7
  6
CONTINUOUS
370
-3
390
F
  0
LAYER
  5
206
100
AcDbSymbolTableRecord
100
AcDbLayerTableRecord
  2
0603_R_REF_55000_1
 70
0
 62
7
  6
CONTINUOUS
370
-3
390
F
  0
LAYER
  5
207
100
AcDbSymbolTableRecord
100
AcDbLayerTableRecord
  2
0603_R_REF_55000_10
 70
0
 62
7
  6
CONTINUOUS
370
-3
390
F
  0
LAYER
  5
208
100
AcDbSymbolTableRecord
100
AcDbLayerTableRecord
  2
0603_R_REF_55000_11
 70
0
 62
7
  6
CONTINUOUS
370
-3
390
F
  0
LAYER
  5
209
100
AcDbSymbolTableRecord
100
AcDbLayerTableRecord
  2
0603_R_REF_55000_12
 70
0
 62
7
  6
CONTINUOUS
370
-3
390
F
  0
LAYER
  5
20A
100
AcDbSymbolTableRecord
100
AcDbLayerTableRecord
  2
0603_R_REF_55000_13
 70
0
 62
7
  6
CONTINUOUS
370
-3
390
F
  0
LAYER
  5
20B
100
AcDbSymbolTableRecord
100
AcDbLayerTableRecord
  2
0603_R_REF_55000_14
 70
0
 62
7
  6
CONTINUOUS
370
-3
390
F
  0
LAYER
  5
20C
100
AcDbSymbolTableRecord
100
AcDbLayerTableRecord
  2
0603_R_REF_55000_15
 70
0
 62
7
  6
CONTINUOUS
370
-3
390
F
  0
LAYER
  5
20D
100
AcDbSymbolTableRecord
100
AcDbLayerTableRecord
  2
0603_R_REF_55000_16
 70
0
 62
7
  6
CONTINUOUS
370
-3
390
F
  0
LAYER
  5
20E
100
AcDbSymbolTableRecord
100
AcDbLayerTableRecord
  2
0603_R_REF_55000_17
 70
0
 62
7
  6
CONTINUOUS
370
-3
390
F
  0
LAYER
  5
20F
100
AcDbSymbolTableRecord
100
AcDbLayerTableRecord
  2
0603_R_REF_55000_2
 70
0
 62
7
  6
CONTINUOUS
370
-3
390
F
  0
LAYER
  5
210
100
AcDbSymbolTableRecord
100
AcDbLayerTableRecord
  2
0603_R_REF_55000_3
 70
0
 62
7
  6
CONTINUOUS
370
-3
390
F
  0
LAYER
  5
211
100
AcDbSymbolTableRecord
100
AcDbLayerTableRecord
  2
0603_R_REF_55000_4
 70
0
 62
7
  6
CONTINUOUS
370
-3
390
F
  0
LAYER
  5
212
100
AcDbSymbolTableRecord
100
AcDbLayerTableRecord
  2
0603_R_REF_55000_5
 70
0
 62
7
  6
CONTINUOUS
370
-3
390
F
  0
LAYER
  5
213
100
AcDbSymbolTableRecord
100
AcDbLayerTableRecord
  2
0603_R_REF_55000_6
 70
0
 62
7
  6
CONTINUOUS
370
-3
390
F
  0
LAYER
  5
214
100
AcDbSymbolTableRecord
100
AcDbLayerTableRecord
  2
0603_R_REF_55000_7
 70
0
 62
7
  6
CONTINUOUS
370
-3
390
F
  0
LAYER
  5
215
100
AcDbSymbolTableRecord
100
AcDbLayerTableRecord
  2
0603_R_REF_55000_8
 70
0
 62
7
  6
CONTINUOUS
370
-3
390
F
  0
LAYER
  5
216
100
AcDbSymbolTableRecord
100
AcDbLayerTableRecord
  2
0603_R_REF_55000_9
 70
0
 62
7
  6
CONTINUOUS
370
-3
390
F
  0
LAYER
  5
217
100
AcDbSymbolTableRecord
100
AcDbLayerTableRecord
  2
0603_R_WAVE_55000
 70
0
 62
7
  6
CONTINUOUS
370
-3
390
F
  0
LAYER
  5
218
100
AcDbSymbolTableRecord
100
AcDbLayerTableRecord
  2
0603_R_WAVE_55000_1
 70
0
 62
7
  6
CONTINUOUS
370
-3
390
F
  0
LAYER
  5
219
100
AcDbSymbolTableRecord
100
AcDbLayerTableRecord
  2
0603_R_WAVE_55000_2
 70
0
 62
7
  6
CONTINUOUS
370
-3
390
F
  0
LAYER
  5
21A
100
AcDbSymbolTableRecord
100
AcDbLayerTableRecord
  2
0603_R_WAVE_55000_3
 70
0
 62
7
  6
CONTINUOUS
370
-3
390
F
  0
LAYER
  5
21B
100
AcDbSymbolTableRecord
100
AcDbLayerTableRecord
  2
0603_R_WAVE_55000_4
 70
0
 62
7
  6
CONTINUOUS
370
-3
390
F
  0
LAYER
  5
21C
100
AcDbSymbolTableRecord
100
AcDbLayerTableRecord
  2
0603_R_WAVE_55000_5
 70
0
 62
7
  6
CONTINUOUS
370
-3
390
F
  0
LAYER
  5
21D
100
AcDbSymbolTableRecord
100
AcDbLayerTableRecord
  2
0603_R_WAVE_55000_6
 70
0
 62
7
  6
CONTINUOUS
370
-3
390
F
  0
LAYER
  5
21E
100
AcDbSymbolTableRecord
100
AcDbLayerTableRecord
  2
0603_R_WAVE_55000_7
 70
0
 62
7
  6
CONTINUOUS
370
-3
390
F
  0
LAYER
  5
21F
100
AcDbSymbolTableRecord
100
AcDbLayerTableRecord
  2
0603_R_WAVE_55000_8
 70
0
 62
7
  6
CONTINUOUS
370
-3
390
F
  0
LAYER
  5
220
100
AcDbSymbolTableRecord
100
AcDbLayerTableRecord
  2
0603_R_WAVE_55000_9
 70
0
 62
7
  6
CONTINUOUS
370
-3
390
F
  0
LAYER
  5
221
100
AcDbSymbolTableRecord
100
AcDbLayerTableRecord
  2
06___PRT_ALL_SURFS
 70
0
 62
7
  6
CONTINUOUS
370
-3
390
F
  0
LAYER
  5
222
100
AcDbSymbolTableRecord
100
AcDbLayerTableRecord
  2
06___PRT_ALL_SURFS_1
 70
0
 62
7
  6
CONTINUOUS
370
-3
390
F
  0
LAYER
  5
223
100
AcDbSymbolTableRecord
100
AcDbLayerTableRecord
  2
06___PRT_ALL_SURFS_10
 70
0
 62
7
  6
CONTINUOUS
370
-3
390
F
  0
LAYER
  5
224
100
AcDbSymbolTableRecord
100
AcDbLayerTableRecord
  2
06___PRT_ALL_SURFS_11
 70
0
 62
7
  6
CONTINUOUS
370
-3
390
F
  0
LAYER
  5
225
100
AcDbSymbolTableRecord
100
AcDbLayerTableRecord
  2
06___PRT_ALL_SURFS_12
 70
0
 62
7
  6
CONTINUOUS
370
-3
390
F
  0
LAYER
  5
226
100
AcDbSymbolTableRecord
100
AcDbLayerTableRecord
  2
06___PRT_ALL_SURFS_13
 70
0
 62
7
  6
CONTINUOUS
370
-3
390
F
  0
LAYER
  5
227
100
AcDbSymbolTableRecord
100
AcDbLayerTableRecord
  2
06___PRT_ALL_SURFS_14
 70
0
 62
7
  6
CONTINUOUS
370
-3
390
F
  0
LAYER
  5
228
100
AcDbSymbolTableRecord
100
AcDbLayerTableRecord
  2
06___PRT_ALL_SURFS_17
 70
0
 62
7
  6
CONTINUOUS
370
-3
390
F
  0
LAYER
  5
229
100
AcDbSymbolTableRecord
100
AcDbLayerTableRecord
  2
06___PRT_ALL_SURFS_18
 70
0
 62
7
  6
CONTINUOUS
370
-3
390
F
  0
LAYER
  5
22A
100
AcDbSymbolTableRecord
100
AcDbLayerTableRecord
  2
06___PRT_ALL_SURFS_19
 70
0
 62
7
  6
CONTINUOUS
370
-3
390
F
  0
LAYER
  5
22B
100
AcDbSymbolTableRecord
100
AcDbLayerTableRecord
  2
06___PRT_ALL_SURFS_2
 70
0
 62
7
  6
CONTINUOUS
370
-3
390
F
  0
LAYER
  5
22C
100
AcDbSymbolTableRecord
100
AcDbLayerTableRecord
  2
06___PRT_ALL_SURFS_23
 70
0
 62
7
  6
CONTINUOUS
370
-3
390
F
  0
LAYER
  5
22D
100
AcDbSymbolTableRecord
100
AcDbLayerTableRecord
  2
06___PRT_ALL_SURFS_5
 70
0
 62
7
  6
CONTINUOUS
370
-3
390
F
  0
LAYER
  5
22E
100
AcDbSymbolTableRecord
100
AcDbLayerTableRecord
  2
06___PRT_ALL_SURFS_6
 70
0
 62
7
  6
CONTINUOUS
370
-3
390
F
  0
LAYER
  5
22F
100
AcDbSymbolTableRecord
100
AcDbLayerTableRecord
  2
0805_C_WAVE_145000
 70
0
 62
7
  6
CONTINUOUS
370
-3
390
F
  0
LAYER
  5
230
100
AcDbSymbolTableRecord
100
AcDbLayerTableRecord
  2
0805_C_WAVE_145000_1
 70
0
 62
7
  6
CONTINUOUS
370
-3
390
F
  0
LAYER
  5
231
100
AcDbSymbolTableRecord
100
AcDbLayerTableRecord
  2
0805_R_REF_60000
 70
0
 62
7
  6
CONTINUOUS
370
-3
390
F
  0
LAYER
  5
232
100
AcDbSymbolTableRecord
100
AcDbLayerTableRecord
  2
0805_R_WAVE_60000
 70
0
 62
7
  6
CONTINUOUS
370
-3
390
F
  0
LAYER
  5
233
100
AcDbSymbolTableRecord
100
AcDbLayerTableRecord
  2
0805_R_WAVE_60000_1
 70
0
 62
7
  6
CONTINUOUS
370
-3
390
F
  0
LAYER
  5
234
100
AcDbSymbolTableRecord
100
AcDbLayerTableRecord
  2
0805_R_WAVE_60000_10
 70
0
 62
7
  6
CONTINUOUS
370
-3
390
F
  0
LAYER
  5
235
100
AcDbSymbolTableRecord
100
AcDbLayerTableRecord
  2
0805_R_WAVE_60000_2
 70
0
 62
7
  6
CONTINUOUS
370
-3
390
F
  0
LAYER
  5
236
100
AcDbSymbolTableRecord
100
AcDbLayerTableRecord
  2
0805_R_WAVE_60000_3
 70
0
 62
7
  6
CONTINUOUS
370
-3
390
F
  0
LAYER
  5
237
100
AcDbSymbolTableRecord
100
AcDbLayerTableRecord
  2
0805_R_WAVE_60000_4
 70
0
 62
7
  6
CONTINUOUS
370
-3
390
F
  0
LAYER
  5
238
100
AcDbSymbolTableRecord
100
AcDbLayerTableRecord
  2
0805_R_WAVE_60000_5
 70
0
 62
7
  6
CONTINUOUS
370
-3
390
F
  0
LAYER
  5
239
100
AcDbSymbolTableRecord
100
AcDbLayerTableRecord
  2
0805_R_WAVE_60000_6
 70
0
 62
7
  6
CONTINUOUS
370
-3
390
F
  0
LAYER
  5
23A
100
AcDbSymbolTableRecord
100
AcDbLayerTableRecord
  2
0805_R_WAVE_60000_7
 70
0
 62
7
  6
CONTINUOUS
370
-3
390
F
  0
LAYER
  5
23B
100
AcDbSymbolTableRecord
100
AcDbLayerTableRecord
  2
0805_R_WAVE_60000_8
 70
0
 62
7
  6
CONTINUOUS
370
-3
390
F
  0
LAYER
  5
23C
100
AcDbSymbolTableRecord
100
AcDbLayerTableRecord
  2
0805_R_WAVE_60000_9
 70
0
 62
7
  6
CONTINUOUS
370
-3
390
F
  0
LAYER
  5
23D
100
AcDbSymbolTableRecord
100
AcDbLayerTableRecord
  2
1206_C_REF_180000
 70
0
 62
7
  6
CONTINUOUS
370
-3
390
F
  0
LAYER
  5
23E
100
AcDbSymbolTableRecord
100
AcDbLayerTableRecord
  2
1206_C_WAVE_180000
 70
0
 62
7
  6
CONTINUOUS
370
-3
390
F
  0
LAYER
  5
23F
100
AcDbSymbolTableRecord
100
AcDbLayerTableRecord
  2
1206_R_REF_65000
 70
0
 62
7
  6
CONTINUOUS
370
-3
390
F
  0
LAYER
  5
240
100
AcDbSymbolTableRecord
100
AcDbLayerTableRecord
  2
1206_R_REF_65000_1
 70
0
 62
7
  6
CONTINUOUS
370
-3
390
F
  0
LAYER
  5
241
100
AcDbSymbolTableRecord
100
AcDbLayerTableRecord
  2
1206_R_WAVE_65000
 70
0
 62
7
  6
CONTINUOUS
370
-3
390
F
  0
LAYER
  5
242
100
AcDbSymbolTableRecord
100
AcDbLayerTableRecord
  2
1206_R_WAVE_65000_1
 70
0
 62
7
  6
CONTINUOUS
370
-3
390
F
  0
LAYER
  5
243
100
AcDbSymbolTableRecord
100
AcDbLayerTableRecord
  2
1206_R_WAVE_65000_2
 70
0
 62
7
  6
CONTINUOUS
370
-3
390
F
  0
LAYER
  5
244
100
AcDbSymbolTableRecord
100
AcDbLayerTableRecord
  2
224201080
 70
0
 62
7
  6
CONTINUOUS
370
-3
390
F
  0
LAYER
  5
245
100
AcDbSymbolTableRecord
100
AcDbLayerTableRecord
  2
224201090
 70
0
 62
7
  6
CONTINUOUS
370
-3
390
F
  0
LAYER
  5
246
100
AcDbSymbolTableRecord
100
AcDbLayerTableRecord
  2
2512_R_H1_REF_100000
 70
0
 62
7
  6
CONTINUOUS
370
-3
390
F
  0
LAYER
  5
247
100
AcDbSymbolTableRecord
100
AcDbLayerTableRecord
  2
268200020
 70
0
 62
7
  6
CONTINUOUS
370
-3
390
F
  0
LAYER
  5
248
100
AcDbSymbolTableRecord
100
AcDbLayerTableRecord
  2
290203180
 70
0
 62
7
  6
CONTINUOUS
370
-3
390
F
  0
LAYER
  5
249
100
AcDbSymbolTableRecord
100
AcDbLayerTableRecord
  2
290203190
 70
0
 62
7
  6
CONTINUOUS
370
-3
390
F
  0
LAYER
  5
24A
100
AcDbSymbolTableRecord
100
AcDbLayerTableRecord
  2
43001106A0
 70
0
 62
7
  6
CONTINUOUS
370
-3
390
F
  0
LAYER
  5
24B
100
AcDbSymbolTableRecord
100
AcDbLayerTableRecord
  2
43001108A0
 70
0
 62
7
  6
CONTINUOUS
370
-3
390
F
  0
LAYER
  5
24C
100
AcDbSymbolTableRecord
100
AcDbLayerTableRecord
  2
43001108B0
 70
0
 62
7
  6
CONTINUOUS
370
-3
390
F
  0
LAYER
  5
24D
100
AcDbSymbolTableRecord
100
AcDbLayerTableRecord
  2
ASSI
 70
0
 62
7
  6
CONTINUOUS
370
-3
390
F
  0
LAYER
  5
24E
100
AcDbSymbolTableRecord
100
AcDbLayerTableRecord
  2
CAP-E-SMD-6_6-6_3-8_0_810000
 70
0
 62
7
  6
CONTINUOUS
370
-3
390
F
  0
LAYER
  5
24F
100
AcDbSymbolTableRecord
100
AcDbLayerTableRecord
  2
CAPC320X160X135L50N_180000
 70
0
 62
7
  6
CONTINUOUS
370
-3
390
F
  0
LAYER
  5
250
100
AcDbSymbolTableRecord
100
AcDbLayerTableRecord
  2
CAPC320X160X135L50N_180000_1
 70
0
 62
7
  6
CONTINUOUS
370
-3
390
F
  0
LAYER
  5
251
100
AcDbSymbolTableRecord
100
AcDbLayerTableRecord
  2
CC-20MILS-VIMAR_1000
 70
0
 62
7
  6
CONTINUOUS
370
-3
390
F
  0
LAYER
  5
252
100
AcDbSymbolTableRecord
100
AcDbLayerTableRecord
  2
CC-20MILS-VIMAR_1000_1
 70
0
 62
7
  6
CONTINUOUS
370
-3
390
F
  0
LAYER
  5
253
100
AcDbSymbolTableRecord
100
AcDbLayerTableRecord
  2
CN1-REF_SQUAREHOLE12_SPEA-VIMAR
 70
0
 62
7
  6
CONTINUOUS
370
-3
390
F
  0
LAYER
  5
254
100
AcDbSymbolTableRecord
100
AcDbLayerTableRecord
  2
COLOR1
 70
0
 62
7
  6
CONTINUOUS
370
-3
390
F
  0
LAYER
  5
255
100
AcDbSymbolTableRecord
100
AcDbLayerTableRecord
  2
COLOR12
 70
0
 62
7
  6
CONTINUOUS
370
-3
390
F
  0
LAYER
  5
256
100
AcDbSymbolTableRecord
100
AcDbLayerTableRecord
  2
COLOR19
 70
0
 62
7
  6
CONTINUOUS
370
-3
390
F
  0
LAYER
  5
257
100
AcDbSymbolTableRecord
100
AcDbLayerTableRecord
  2
COLOR2
 70
0
 62
7
  6
CONTINUOUS
370
-3
390
F
  0
LAYER
  5
258
100
AcDbSymbolTableRecord
100
AcDbLayerTableRecord
  2
COLOR25
 70
0
 62
7
  6
CONTINUOUS
370
-3
390
F
  0
LAYER
  5
259
100
AcDbSymbolTableRecord
100
AcDbLayerTableRecord
  2
COLOR26
 70
0
 62
7
  6
CONTINUOUS
370
-3
390
F
  0
LAYER
  5
25A
100
AcDbSymbolTableRecord
100
AcDbLayerTableRecord
  2
COLOR27
 70
0
 62
7
  6
CONTINUOUS
370
-3
390
F
  0
LAYER
  5
25B
100
AcDbSymbolTableRecord
100
AcDbLayerTableRecord
  2
COLOR29
 70
0
 62
7
  6
CONTINUOUS
370
-3
390
F
  0
LAYER
  5
25C
100
AcDbSymbolTableRecord
100
AcDbLayerTableRecord
  2
COLOR31
 70
0
 62
7
  6
CONTINUOUS
370
-3
390
F
  0
LAYER
  5
25D
100
AcDbSymbolTableRecord
100
AcDbLayerTableRecord
  2
COLOR32
 70
0
 62
7
  6
CONTINUOUS
370
-3
390
F
  0
LAYER
  5
25E
100
AcDbSymbolTableRecord
100
AcDbLayerTableRecord
  2
COLOR33
 70
0
 62
7
  6
CONTINUOUS
370
-3
390
F
  0
LAYER
  5
25F
100
AcDbSymbolTableRecord
100
AcDbLayerTableRecord
  2
COLOR34
 70
0
 62
7
  6
CONTINUOUS
370
-3
390
F
  0
LAYER
  5
260
100
AcDbSymbolTableRecord
100
AcDbLayerTableRecord
  2
COLOR35
 70
0
 62
7
  6
CONTINUOUS
370
-3
390
F
  0
LAYER
  5
261
100
AcDbSymbolTableRecord
100
AcDbLayerTableRecord
  2
COLOR36
 70
0
 62
7
  6
CONTINUOUS
370
-3
390
F
  0
LAYER
  5
262
100
AcDbSymbolTableRecord
100
AcDbLayerTableRecord
  2
COLOR37
 70
0
 62
7
  6
CONTINUOUS
370
-3
390
F
  0
LAYER
  5
263
100
AcDbSymbolTableRecord
100
AcDbLayerTableRecord
  2
COLOR38
 70
0
 62
7
  6
CONTINUOUS
370
-3
390
F
  0
LAYER
  5
264
100
AcDbSymbolTableRecord
100
AcDbLayerTableRecord
  2
COLOR39
 70
0
 62
7
  6
CONTINUOUS
370
-3
390
F
  0
LAYER
  5
265
100
AcDbSymbolTableRecord
100
AcDbLayerTableRecord
  2
COLOR40
 70
0
 62
7
  6
CONTINUOUS
370
-3
390
F
  0
LAYER
  5
266
100
AcDbSymbolTableRecord
100
AcDbLayerTableRecord
  2
COLOR45
 70
0
 62
7
  6
CONTINUOUS
370
-3
390
F
  0
LAYER
  5
267
100
AcDbSymbolTableRecord
100
AcDbLayerTableRecord
  2
COLOR5
 70
0
 62
7
  6
CONTINUOUS
370
-3
390
F
  0
LAYER
  5
268
100
AcDbSymbolTableRecord
100
AcDbLayerTableRecord
  2
COLOR53
 70
0
 62
7
  6
CONTINUOUS
370
-3
390
F
  0
LAYER
  5
269
100
AcDbSymbolTableRecord
100
AcDbLayerTableRecord
  2
COLOR54
 70
0
 62
7
  6
CONTINUOUS
370
-3
390
F
  0
LAYER
  5
26A
100
AcDbSymbolTableRecord
100
AcDbLayerTableRecord
  2
COLOR55
 70
0
 62
7
  6
CONTINUOUS
370
-3
390
F
  0
LAYER
  5
26B
100
AcDbSymbolTableRecord
100
AcDbLayerTableRecord
  2
COLOR56
 70
0
 62
7
  6
CONTINUOUS
370
-3
390
F
  0
LAYER
  5
26C
100
AcDbSymbolTableRecord
100
AcDbLayerTableRecord
  2
COLOR57
 70
0
 62
7
  6
CONTINUOUS
370
-3
390
F
  0
LAYER
  5
26D
100
AcDbSymbolTableRecord
100
AcDbLayerTableRecord
  2
COLOR58
 70
0
 62
7
  6
CONTINUOUS
370
-3
390
F
  0
LAYER
  5
26E
100
AcDbSymbolTableRecord
100
AcDbLayerTableRecord
  2
COLOR59
 70
0
 62
7
  6
CONTINUOUS
370
-3
390
F
  0
LAYER
  5
26F
100
AcDbSymbolTableRecord
100
AcDbLayerTableRecord
  2
COLOR7
 70
0
 62
7
  6
CONTINUOUS
370
-3
390
F
  0
LAYER
  5
270
100
AcDbSymbolTableRecord
100
AcDbLayerTableRecord
  2
COLOR9
 70
0
 62
7
  6
CONTINUOUS
370
-3
390
F
  0
LAYER
  5
271
100
AcDbSymbolTableRecord
100
AcDbLayerTableRecord
  2
COORDINATE
 70
0
 62
7
  6
CONTINUOUS
370
-3
390
F
  0
LAYER
  5
272
100
AcDbSymbolTableRecord
100
AcDbLayerTableRecord
  2
COORD_ORIGINE
 70
0
 62
7
  6
CONTINUOUS
370
-3
390
F
  0
LAYER
  5
273
100
AcDbSymbolTableRecord
100
AcDbLayerTableRecord
  2
COPY
 70
0
 62
7
  6
CONTINUOUS
370
-3
390
F
  0
LAYER
  5
274
100
AcDbSymbolTableRecord
100
AcDbLayerTableRecord
  2
COPY_GEOMETRY
 70
0
 62
7
  6
CONTINUOUS
370
-3
390
F
  0
LAYER
  5
275
100
AcDbSymbolTableRecord
100
AcDbLayerTableRecord
  2
COPY_GEOMETRY_1
 70
0
 62
7
  6
CONTINUOUS
370
-3
390
F
  0
LAYER
  5
276
100
AcDbSymbolTableRecord
100
AcDbLayerTableRecord
  2
COPY_PUBLISH
 70
0
 62
7
  6
CONTINUOUS
370
-3
390
F
  0
LAYER
  5
277
100
AcDbSymbolTableRecord
100
AcDbLayerTableRecord
  2
COSMETIC
 70
0
 62
7
  6
CONTINUOUS
370
-3
390
F
  0
LAYER
  5
278
100
AcDbSymbolTableRecord
100
AcDbLayerTableRecord
  2
COSMETICI
 70
0
 62
7
  6
CONTINUOUS
370
-3
390
F
  0
LAYER
  5
279
100
AcDbSymbolTableRecord
100
AcDbLayerTableRecord
  2
CURVE
 70
0
 62
7
  6
CONTINUOUS
370
-3
390
F
  0
LAYER
  5
27A
100
AcDbSymbolTableRecord
100
AcDbLayerTableRecord
  2
DRAFT
 70
0
 62
7
  6
CONTINUOUS
370
-3
390
F
  0
LAYER
  5
27B
100
AcDbSymbolTableRecord
100
AcDbLayerTableRecord
  2
GEOMETRIA_SOLIDA
 70
0
 62
7
  6
CONTINUOUS
370
-3
390
F
  0
LAYER
  5
27C
100
AcDbSymbolTableRecord
100
AcDbLayerTableRecord
  2
GEOMETRIA_SOLIDA_1
 70
0
 62
7
  6
CONTINUOUS
370
-3
390
F
  0
LAYER
  5
27D
100
AcDbSymbolTableRecord
100
AcDbLayerTableRecord
  2
GEOMETRIA_SOLIDA_10
 70
0
 62
7
  6
CONTINUOUS
370
-3
390
F
  0
LAYER
  5
27E
100
AcDbSymbolTableRecord
100
AcDbLayerTableRecord
  2
GEOMETRIA_SOLIDA_2
 70
0
 62
7
  6
CONTINUOUS
370
-3
390
F
  0
LAYER
  5
27F
100
AcDbSymbolTableRecord
100
AcDbLayerTableRecord
  2
GEOMETRIA_SOLIDA_3
 70
0
 62
7
  6
CONTINUOUS
370
-3
390
F
  0
LAYER
  5
280
100
AcDbSymbolTableRecord
100
AcDbLayerTableRecord
  2
GEOMETRIA_SOLIDA_4
 70
0
 62
7
  6
CONTINUOUS
370
-3
390
F
  0
LAYER
  5
281
100
AcDbSymbolTableRecord
100
AcDbLayerTableRecord
  2
GEOMETRIA_SOLIDA_5
 70
0
 62
7
  6
CONTINUOUS
370
-3
390
F
  0
LAYER
  5
282
100
AcDbSymbolTableRecord
100
AcDbLayerTableRecord
  2
GEOMETRIA_SOLIDA_6
 70
0
 62
7
  6
CONTINUOUS
370
-3
390
F
  0
LAYER
  5
283
100
AcDbSymbolTableRecord
100
AcDbLayerTableRecord
  2
GEOMETRIA_SOLIDA_7
 70
0
 62
7
  6
CONTINUOUS
370
-3
390
F
  0
LAYER
  5
284
100
AcDbSymbolTableRecord
100
AcDbLayerTableRecord
  2
GEOMETRIA_SOLIDA_8
 70
0
 62
7
  6
CONTINUOUS
370
-3
390
F
  0
LAYER
  5
285
100
AcDbSymbolTableRecord
100
AcDbLayerTableRecord
  2
GEOMETRIA_SOLIDA_9
 70
0
 62
7
  6
CONTINUOUS
370
-3
390
F
  0
LAYER
  5
286
100
AcDbSymbolTableRecord
100
AcDbLayerTableRecord
  2
IGES
 70
0
 62
7
  6
CONTINUOUS
370
-3
390
F
  0
LAYER
  5
287
100
AcDbSymbolTableRecord
100
AcDbLayerTableRecord
  2
IGS
 70
0
 62
7
  6
CONTINUOUS
370
-3
390
F
  0
LAYER
  5
288
100
AcDbSymbolTableRecord
100
AcDbLayerTableRecord
  2
IGS_1
 70
0
 62
7
  6
CONTINUOUS
370
-3
390
F
  0
LAYER
  5
289
100
AcDbSymbolTableRecord
100
AcDbLayerTableRecord
  2
IGS_SCRITTE
 70
0
 62
7
  6
CONTINUOUS
370
-3
390
F
  0
LAYER
  5
28A
100
AcDbSymbolTableRecord
100
AcDbLayerTableRecord
  2
IMPORT_IGES
 70
0
 62
7
  6
CONTINUOUS
370
-3
390
F
  0
LAYER
  5
28B
100
AcDbSymbolTableRecord
100
AcDbLayerTableRecord
  2
INTFCLR_13457
 70
0
 62
7
  6
CONTINUOUS
370
-3
390
F
  0
LAYER
  5
28C
100
AcDbSymbolTableRecord
100
AcDbLayerTableRecord
  2
INTFCLR_20107
 70
0
 62
7
  6
CONTINUOUS
370
-3
390
F
  0
LAYER
  5
28D
100
AcDbSymbolTableRecord
100
AcDbLayerTableRecord
  2
INTF_1
 70
0
 62
7
  6
CONTINUOUS
370
-3
390
F
  0
LAYER
  5
28E
100
AcDbSymbolTableRecord
100
AcDbLayerTableRecord
  2
INTF_11
 70
0
 62
7
  6
CONTINUOUS
370
-3
390
F
  0
LAYER
  5
28F
100
AcDbSymbolTableRecord
100
AcDbLayerTableRecord
  2
INTF_12
 70
0
 62
7
  6
CONTINUOUS
370
-3
390
F
  0
LAYER
  5
290
100
AcDbSymbolTableRecord
100
AcDbLayerTableRecord
  2
INTF_13
 70
0
 62
7
  6
CONTINUOUS
370
-3
390
F
  0
LAYER
  5
291
100
AcDbSymbolTableRecord
100
AcDbLayerTableRecord
  2
INTF_14
 70
0
 62
7
  6
CONTINUOUS
370
-3
390
F
  0
LAYER
  5
292
100
AcDbSymbolTableRecord
100
AcDbLayerTableRecord
  2
INTF_15
 70
0
 62
7
  6
CONTINUOUS
370
-3
390
F
  0
LAYER
  5
293
100
AcDbSymbolTableRecord
100
AcDbLayerTableRecord
  2
INTF_18
 70
0
 62
7
  6
CONTINUOUS
370
-3
390
F
  0
LAYER
  5
294
100
AcDbSymbolTableRecord
100
AcDbLayerTableRecord
  2
INTF_19
 70
0
 62
7
  6
CONTINUOUS
370
-3
390
F
  0
LAYER
  5
295
100
AcDbSymbolTableRecord
100
AcDbLayerTableRecord
  2
INTF_2
 70
0
 62
7
  6
CONTINUOUS
370
-3
390
F
  0
LAYER
  5
296
100
AcDbSymbolTableRecord
100
AcDbLayerTableRecord
  2
INTF_20
 70
0
 62
7
  6
CONTINUOUS
370
-3
390
F
  0
LAYER
  5
297
100
AcDbSymbolTableRecord
100
AcDbLayerTableRecord
  2
INTF_22
 70
0
 62
7
  6
CONTINUOUS
370
-3
390
F
  0
LAYER
  5
298
100
AcDbSymbolTableRecord
100
AcDbLayerTableRecord
  2
INTF_36
 70
0
 62
7
  6
CONTINUOUS
370
-3
390
F
  0
LAYER
  5
299
100
AcDbSymbolTableRecord
100
AcDbLayerTableRecord
  2
INTF_5
 70
0
 62
7
  6
CONTINUOUS
370
-3
390
F
  0
LAYER
  5
29A
100
AcDbSymbolTableRecord
100
AcDbLayerTableRecord
  2
INTF_61
 70
0
 62
7
  6
CONTINUOUS
370
-3
390
F
  0
LAYER
  5
29B
100
AcDbSymbolTableRecord
100
AcDbLayerTableRecord
  2
INTF_89
 70
0
 62
7
  6
CONTINUOUS
370
-3
390
F
  0
LAYER
  5
29C
100
AcDbSymbolTableRecord
100
AcDbLayerTableRecord
  2
INTF_90
 70
0
 62
7
  6
CONTINUOUS
370
-3
390
F
  0
LAYER
  5
29D
100
AcDbSymbolTableRecord
100
AcDbLayerTableRecord
  2
INTF_91
 70
0
 62
7
  6
CONTINUOUS
370
-3
390
F
  0
LAYER
  5
29E
100
AcDbSymbolTableRecord
100
AcDbLayerTableRecord
  2
INTF_BLANK
 70
0
 62
7
  6
CONTINUOUS
370
-3
390
F
  0
LAYER
  5
29F
100
AcDbSymbolTableRecord
100
AcDbLayerTableRecord
  2
INTF_CYAN
 70
0
 62
7
  6
CONTINUOUS
370
-3
390
F
  0
LAYER
  5
2A0
100
AcDbSymbolTableRecord
100
AcDbLayerTableRecord
  2
INTF_YELLOW
 70
0
 62
7
  6
CONTINUOUS
370
-3
390
F
  0
LAYER
  5
2A1
100
AcDbSymbolTableRecord
100
AcDbLayerTableRecord
  2
LED_0805_120000
 70
0
 62
7
  6
CONTINUOUS
370
-3
390
F
  0
LAYER
  5
2A2
100
AcDbSymbolTableRecord
100
AcDbLayerTableRecord
  2
MINIMELF_R_REF_140000
 70
0
 62
7
  6
CONTINUOUS
370
-3
390
F
  0
LAYER
  5
2A3
100
AcDbSymbolTableRecord
100
AcDbLayerTableRecord
  2
MINIMELF_R_REF_140000_1
 70
0
 62
7
  6
CONTINUOUS
370
-3
390
F
  0
LAYER
  5
2A4
100
AcDbSymbolTableRecord
100
AcDbLayerTableRecord
  2
MINIMELF_R_REF_140000_2
 70
0
 62
7
  6
CONTINUOUS
370
-3
390
F
  0
LAYER
  5
2A5
100
AcDbSymbolTableRecord
100
AcDbLayerTableRecord
  2
NOTE
 70
0
 62
7
  6
CONTINUOUS
370
-3
390
F
  0
LAYER
  5
2A6
100
AcDbSymbolTableRecord
100
AcDbLayerTableRecord
  2
PIANI
 70
0
 62
7
  6
CONTINUOUS
370
-3
390
F
  0
LAYER
  5
2A7
100
AcDbSymbolTableRecord
100
AcDbLayerTableRecord
  2
PIANI_ORIGINE
 70
0
 62
7
  6
CONTINUOUS
370
-3
390
F
  0
LAYER
  5
2A8
100
AcDbSymbolTableRecord
100
AcDbLayerTableRecord
  2
PIANI_RIFERIMENTO
 70
0
 62
7
  6
CONTINUOUS
370
-3
390
F
  0
LAYER
  5
2A9
100
AcDbSymbolTableRecord
100
AcDbLayerTableRecord
  2
PIANI_SFORMO
 70
0
 62
7
  6
CONTINUOUS
370
-3
390
F
  0
LAYER
  5
2AA
100
AcDbSymbolTableRecord
100
AcDbLayerTableRecord
  2
PUBLISH_GEOMETRY
 70
0
 62
7
  6
CONTINUOUS
370
-3
390
F
  0
LAYER
  5
2AB
100
AcDbSymbolTableRecord
100
AcDbLayerTableRecord
  2
PUNTI
 70
0
 62
7
  6
CONTINUOUS
370
-3
390
F
  0
LAYER
  5
2AC
100
AcDbSymbolTableRecord
100
AcDbLayerTableRecord
  2
P_2P_DIP_SWITCH_7_5X7_1_H_3_5MM
 70
0
 62
7
  6
CONTINUOUS
370
-3
390
F
  0
LAYER
  5
2AD
100
AcDbSymbolTableRecord
100
AcDbLayerTableRecord
  2
RACCORDO
 70
0
 62
7
  6
CONTINUOUS
370
-3
390
F
  0
LAYER
  5
2AE
100
AcDbSymbolTableRecord
100
AcDbLayerTableRecord
  2
RGB__255__255__255__
 70
0
 62
7
  6
CONTINUOUS
370
-3
390
F
  0
LAYER
  5
2AF
100
AcDbSymbolTableRecord
100
AcDbLayerTableRecord
  2
SIMBOLI
 70
0
 62
7
  6
CONTINUOUS
370
-3
390
F
  0
LAYER
  5
2B0
100
AcDbSymbolTableRecord
100
AcDbLayerTableRecord
  2
SMUSSO
 70
0
 62
7
  6
CONTINUOUS
370
-3
390
F
  0
LAYER
  5
2B1
100
AcDbSymbolTableRecord
100
AcDbLayerTableRecord
  2
SOD80_SOD-213AA_MINIMELF_REF_16
 70
0
 62
7
  6
CONTINUOUS
370
-3
390
F
  0
LAYER
  5
2B2
100
AcDbSymbolTableRecord
100
AcDbLayerTableRecord
  2
SOD80_SOD-213AA_MINIMELF_WAVE_1
 70
0
 62
7
  6
CONTINUOUS
370
-3
390
F
  0
LAYER
  5
2B3
100
AcDbSymbolTableRecord
100
AcDbLayerTableRecord
  2
SOLIDO
 70
0
 62
7
  6
CONTINUOUS
370
-3
390
F
  0
LAYER
  5
2B4
100
AcDbSymbolTableRecord
100
AcDbLayerTableRecord
  2
SOT323_H1_1_REF_110000
 70
0
 62
7
  6
CONTINUOUS
370
-3
390
F
  0
LAYER
  5
2B5
100
AcDbSymbolTableRecord
100
AcDbLayerTableRecord
  2
SOT323_H1_1_REF_110000_1
 70
0
 62
7
  6
CONTINUOUS
370
-3
390
F
  0
LAYER
  5
2B6
100
AcDbSymbolTableRecord
100
AcDbLayerTableRecord
  2
SOT323_H1_1_REF_110000_2
 70
0
 62
7
  6
CONTINUOUS
370
-3
390
F
  0
LAYER
  5
2B7
100
AcDbSymbolTableRecord
100
AcDbLayerTableRecord
  2
SOT323_H1_1_REF_110000_3
 70
0
 62
7
  6
CONTINUOUS
370
-3
390
F
  0
LAYER
  5
2B8
100
AcDbSymbolTableRecord
100
AcDbLayerTableRecord
  2
SOT323_H1_1_REF_110000_4
 70
0
 62
7
  6
CONTINUOUS
370
-3
390
F
  0
LAYER
  5
2B9
100
AcDbSymbolTableRecord
100
AcDbLayerTableRecord
  2
SOT89_WAVE_H1_6_160000
 70
0
 62
7
  6
CONTINUOUS
370
-3
390
F
  0
LAYER
  5
2BA
100
AcDbSymbolTableRecord
100
AcDbLayerTableRecord
  2
SUB_SMA_143000
 70
0
 62
7
  6
CONTINUOUS
370
-3
390
F
  0
LAYER
  5
2BB
100
AcDbSymbolTableRecord
100
AcDbLayerTableRecord
  2
SUB_SMA_143000_1
 70
0
 62
7
  6
CONTINUOUS
370
-3
390
F
  0
LAYER
  5
2BC
100
AcDbSymbolTableRecord
100
AcDbLayerTableRecord
  2
SUB_SMA_143000_2
 70
0
 62
7
  6
CONTINUOUS
370
-3
390
F
  0
LAYER
  5
2BD
100
AcDbSymbolTableRecord
100
AcDbLayerTableRecord
  2
SUB_SMA_143000_3
 70
0
 62
7
  6
CONTINUOUS
370
-3
390
F
  0
LAYER
  5
2BE
100
AcDbSymbolTableRecord
100
AcDbLayerTableRecord
  2
SUPERFICI
 70
0
 62
7
  6
CONTINUOUS
370
-3
390
F
  0
LAYER
  5
2BF
100
AcDbSymbolTableRecord
100
AcDbLayerTableRecord
  2
SUPERFICI_1
 70
0
 62
7
  6
CONTINUOUS
370
-3
390
F
  0
LAYER
  5
2C0
100
AcDbSymbolTableRecord
100
AcDbLayerTableRecord
  2
SUPERFICI_3
 70
0
 62
7
  6
CONTINUOUS
370
-3
390
F
  0
LAYER
  5
2C1
100
AcDbSymbolTableRecord
100
AcDbLayerTableRecord
  2
SUPERFICI_4
 70
0
 62
7
  6
CONTINUOUS
370
-3
390
F
  0
LAYER
  5
2C2
100
AcDbSymbolTableRecord
100
AcDbLayerTableRecord
  2
SUPERFICI_5
 70
0
 62
7
  6
CONTINUOUS
370
-3
390
F
  0
LAYER
  5
2C3
100
AcDbSymbolTableRecord
100
AcDbLayerTableRecord
  2
SUPERFICI_6
 70
0
 62
7
  6
CONTINUOUS
370
-3
390
F
  0
LAYER
  5
2C4
100
AcDbSymbolTableRecord
100
AcDbLayerTableRecord
  2
SWITCH_SKRP_250000
 70
0
 62
7
  6
CONTINUOUS
370
-3
390
F
  0
LAYER
  5
2C5
100
AcDbSymbolTableRecord
100
AcDbLayerTableRecord
  2
SWITCH_SKRP_250000_1
 70
0
 62
7
  6
CONTINUOUS
370
-3
390
F
  0
LAYER
  5
2C6
100
AcDbSymbolTableRecord
100
AcDbLayerTableRecord
  2
T7YA_635000
 70
0
 62
7
  6
CONTINUOUS
370
-3
390
F
  0
LAYER
  5
2C7
100
AcDbSymbolTableRecord
100
AcDbLayerTableRecord
  2
TO92-H8_0-P2_54_800000
 70
0
 62
7
  6
CONTINUOUS
370
-3
390
F
  0
LAYER
  5
2C8
100
AcDbSymbolTableRecord
100
AcDbLayerTableRecord
  2
TP-RND-1_5_1000
 70
0
 62
7
  6
CONTINUOUS
370
-3
390
F
  0
LAYER
  5
2C9
100
AcDbSymbolTableRecord
100
AcDbLayerTableRecord
  2
TP-RND-1_5_1000_1
 70
0
 62
7
  6
CONTINUOUS
370
-3
390
F
  0
LAYER
  5
2CA
100
AcDbSymbolTableRecord
100
AcDbLayerTableRecord
  2
TP-RND-1_5_1000_2
 70
0
 62
7
  6
CONTINUOUS
370
-3
390
F
  0
LAYER
  5
2CB
100
AcDbSymbolTableRecord
100
AcDbLayerTableRecord
  2
TP-RND-1_5_1000_3
 70
0
 62
7
  6
CONTINUOUS
370
-3
390
F
  0
LAYER
  5
2CC
100
AcDbSymbolTableRecord
100
AcDbLayerTableRecord
  2
TP-RND-1_5_1000_4
 70
0
 62
7
  6
CONTINUOUS
370
-3
390
F
  0
LAYER
  5
2CD
100
AcDbSymbolTableRecord
100
AcDbLayerTableRecord
  2
TRASH
 70
0
 62
7
  6
CONTINUOUS
370
-3
390
F
  0
LAYER
  5
2CE
100
AcDbSymbolTableRecord
100
AcDbLayerTableRecord
  2
TSSOP16-5_0-6_4-1_1-REF_110000
 70
0
 62
7
  6
CONTINUOUS
370
-3
390
F
  0
LAYER
  5
2CF
100
AcDbSymbolTableRecord
100
AcDbLayerTableRecord
  2
VAR_S07_D9_S3_6_H11_1100000
 70
0
 62
7
  6
CONTINUOUS
370
-3
390
F
  0
LAYER
  5
2D0
100
AcDbSymbolTableRecord
100
AcDbLayerTableRecord
  2
VAR_S07_D9_S3_6_H11_1100000_1
 70
0
 62
7
  6
CONTINUOUS
370
-3
390
F
  0
LAYER
  5
2D1
100
AcDbSymbolTableRecord
100
AcDbLayerTableRecord
  2
VG_CAP-E-SMD-4_3-4_3-6_3_630000
 70
0
 62
7
  6
CONTINUOUS
370
-3
390
F
  0
LAYER
  5
2D2
100
AcDbSymbolTableRecord
100
AcDbLayerTableRecord
  2
VG_CN-THT-DINKLE-EK500VH-R1-P4-
 70
0
 62
7
  6
CONTINUOUS
370
-3
390
F
  0
LAYER
  5
2D3
100
AcDbSymbolTableRecord
100
AcDbLayerTableRecord
  2
VG_FUSE_13X3_H10_1300000
 70
0
 62
7
  6
CONTINUOUS
370
-3
390
F
  0
LAYER
  5
2D4
100
AcDbSymbolTableRecord
100
AcDbLayerTableRecord
  2
VG_SOP4_240000
 70
0
 62
7
  6
CONTINUOUS
370
-3
390
F
  0
LAYER
  5
2D5
100
AcDbSymbolTableRecord
100
AcDbLayerTableRecord
  2
VG_SOT23_H1_1_REF_110000
 70
0
 62
7
  6
CONTINUOUS
370
-3
390
F
  0
LAYER
  5
2D6
100
AcDbSymbolTableRecord
100
AcDbLayerTableRecord
  2
VG_SOT23_H1_1_WAVE_110000
 70
0
 62
7
  6
CONTINUOUS
370
-3
390
F
  0
LAYER
  5
2D7
100
AcDbSymbolTableRecord
100
AcDbLayerTableRecord
  2
VG_SOT23_H1_1_WAVE_110000_1
 70
0
 62
7
  6
CONTINUOUS
370
-3
390
F
  0
LAYER
  5
2D8
100
AcDbSymbolTableRecord
100
AcDbLayerTableRecord
  2
VG_SOT23_H1_2_REF_120000
 70
0
 62
7
  6
CONTINUOUS
370
-3
390
F
  0
LAYER
  5
2D9
100
AcDbSymbolTableRecord
100
AcDbLayerTableRecord
  2
VG_SOT23_H1_2_WAVE_120000
 70
0
 62
7
  6
CONTINUOUS
370
-3
390
F
  0
LAYER
  5
2DA
100
AcDbSymbolTableRecord
100
AcDbLayerTableRecord
  2
VG_SOT23_H1_2_WAVE_120000_1
 70
0
 62
7
  6
CONTINUOUS
370
-3
390
F
  0
LAYER
  5
2DB
100
AcDbSymbolTableRecord
100
AcDbLayerTableRecord
  2
VG_SOT23_H1_2_WAVE_120000_2
 70
0
 62
7
  6
CONTINUOUS
370
-3
390
F
  0
LAYER
  5
2DC
100
AcDbSymbolTableRecord
100
AcDbLayerTableRecord
  2
VG_TO220AB_1525000
 70
0
 62
7
  6
CONTINUOUS
370
-3
390
F
  0
LAYER
  5
2DD
100
AcDbSymbolTableRecord
100
AcDbLayerTableRecord
  2
VG_TO220F_H16_1600000
 70
0
 62
7
  6
CONTINUOUS
370
-3
390
F
  0
LAYER
  5
2DE
100
AcDbSymbolTableRecord
100
AcDbLayerTableRecord
  2
VG_TO220F_H16_1600000_1
 70
0
 62
7
  6
CONTINUOUS
370
-3
390
F
  0
LAYER
  5
2DF
100
AcDbSymbolTableRecord
100
AcDbLayerTableRecord
  2
VG_TO220F_H16_1600000_2
 70
0
 62
7
  6
CONTINUOUS
370
-3
390
F
  0
LAYER
  5
2E0
100
AcDbSymbolTableRecord
100
AcDbLayerTableRecord
  2
VG_TR-THT-H-7_0-7_0-5_8-CT6_580
 70
0
 62
7
  6
CONTINUOUS
370
-3
390
F
  0
LAYER
  5
2E1
100
AcDbSymbolTableRecord
100
AcDbLayerTableRecord
  2
WHITE
 70
0
 62
7
  6
CONTINUOUS
370
-3
390
F
  0
LAYER
  5
2E2
100
AcDbSymbolTableRecord
100
AcDbLayerTableRecord
  2
XSEC_DATUMS
 70
0
 62
7
  6
CONTINUOUS
370
-3
390
F
  0
LAYER
  5
2E3
100
AcDbSymbolTableRecord
100
AcDbLayerTableRecord
  2
___SHELL
 70
0
 62
7
  6
CONTINUOUS
370
-3
390
F
  0
ENDTAB
  0
TABLE
  2
STYLE
  5
3
100
AcDbSymbolTable
 70
1
  0
STYLE
  5
11
100
AcDbSymbolTableRecord
100
AcDbTextStyleTableRecord
  2
STANDARD
 70
0
 40
0.0
 41
0.8
 50
0.0
 71
0
 42
0.2
  3
txt
  4

  0
STYLE
  5
2E4
100
AcDbSymbolTableRecord
100
AcDbTextStyleTableRecord
  2
TEXTSTYLE_1
 70
0
 40
0.0
 41
0.8
 50
0.0
 71
0
 42
0.2
  3
gdt
  4

  0
ENDTAB
  0
TABLE
  2
VIEW
  5
6
100
AcDbSymbolTable
 70
0
  0
ENDTAB
  0
TABLE
  2
UCS
  5
7
100
AcDbSymbolTable
 70
0
  0
ENDTAB
  0
TABLE
  2
APPID
  5
9
100
AcDbSymbolTable
 70
1
  0
APPID
  5
2E5
100
AcDbSymbolTableRecord
100
AcDbRegAppTableRecord
  2
ACAD
 70
0
  0
ENDTAB
  0
TABLE
  2
BLOCK_RECORD
  5
1
100
AcDbSymbolTable
 70
0
  0
BLOCK_RECORD
  5
2E6
100
AcDbSymbolTableRecord
100
AcDbBlockTableRecord
  2
*Model_Space
  0
BLOCK_RECORD
  5
2E7
100
AcDbSymbolTableRecord
100
AcDbBlockTableRecord
  2
*Paper_Space
  0
BLOCK_RECORD
  5
2E8
100
AcDbSymbolTableRecord
100
AcDbBlockTableRecord
  2
_FILLED
  0
ENDTAB
  0
TABLE
  2
DIMSTYLE
  5
A
100
AcDbSymbolTable
 70
1
100
AcDbDimStyleTable
 71
0
  0
DIMSTYLE
105
2E9
100
AcDbSymbolTableRecord
100
AcDbDimStyleTableRecord
  2
STANDARD
 70
0
  3

  4

 40
1.0
 41
3.0
 42
0.5
 43
0.38
 44
1.5
 45
0.0
 46
0.0
 47
0.01
 48
0.01
140
3.0
141
0.0
142
0.0
143
25.4
144
1.0
145
0.0
146
1.0
147
0.625
 71
1
 72
0
 73
0
 74
0
 75
0
 76
0
 77
1
 78
8
 79
2
170
0
171
1
172
0
173
0
174
0
175
0
176
0
177
0
178
0
270
2
179
2
271
2
272
2
273
2
274
2
275
0
280
0
281
0
282
0
283
1
284
8
285
0
286
0
287
3
288
0
340
11
278
44
341
2E8
342
2E8
343
2E8
344
2E8
  0
ENDTAB
  0
ENDSEC
  0
SECTION
  2
BLOCKS
  0
BLOCK
  5
20
100
AcDbEntity
  8
0
100
AcDbBlockBegin
  2
*Model_Space
 70
0
 10
0.0
 20
0.0
 30
0.0
  3
*Model_Space
  1

  0
ENDBLK
  5
21
100
AcDbEntity
  8
0
100
AcDbBlockEnd
  0
BLOCK
  5
1C
100
AcDbEntity
  8
0
100
AcDbBlockBegin
  2
*Paper_Space
 70
0
 10
0.0
 20
0.0
 30
0.0
  3
*Paper_Space
  1

  0
ENDBLK
  5
1D
100
AcDbEntity
  8
0
100
AcDbBlockEnd
  0
BLOCK
  5
2EA
100
AcDbEntity
  8
0
100
AcDbBlockBegin
  2
_FILLED
 70
64
 10
0.0
 20
0.0
 30
0.0
  3
_FILLED
  1

  0
SOLID
  5
2EB
100
AcDbEntity
  8
0
  6
BYBLOCK
 62
0
100
AcDbTrace
 10
0.0
 20
0.0
 30
0.0
 11
-1.0
 21
0.3166666667
 31
0.0
 12
-1.0
 22
-0.3166666667
 32
0.0
 13
-1.0
 23
-0.3166666667
 33
0.0
  0
ENDBLK
  5
2EC
100
AcDbEntity
  8
0
  6
BYBLOCK
 62
0
100
AcDbBlockEnd
  0
ENDSEC
  0
SECTION
  2
ENTITIES
  0
LINE
  5
2ED
100
AcDbEntity
  8
0
100
AcDbLine
 62
7
  6
CONTINUOUS
 10
-9.8956323968
 20
-24.495628166
 30
0.0
 11
-7.5043676032
 21
-24.495628166
 31
0.0
  0
LINE
  5
2EE
100
AcDbEntity
  8
0
100
AcDbLine
 62
7
  6
CONTINUOUS
 10
7.5043676032
 20
-24.495628166
 30
0.0
 11
9.8956323968
 21
-24.495628166
 31
0.0
  0
LINE
  5
2EF
100
AcDbEntity
  8
0
100
AcDbLine
 62
250
  6
CONTINUOUS
 10
7.254371834
 20
-24.2456323968
 30
0.0
 11
10.145628166
 21
-24.2456323968
 31
0.0
  0
LINE
  5
2F0
100
AcDbEntity
  8
0
100
AcDbLine
 62
250
  6
CONTINUOUS
 10
-7.254371834
 20
-24.2456323968
 30
0.0
 11
-10.145628166
 21
-24.2456323968
 31
0.0
  0
LINE
  5
2F1
100
AcDbEntity
  8
0
100
AcDbLine
 62
7
  6
CONTINUOUS
 10
-4.45
 20
-24.0
 30
0.0
 11
-1.1999974616
 21
-24.0
 31
0.0
  0
LINE
  5
2F2
100
AcDbEntity
  8
0
100
AcDbLine
 62
7
  6
CONTINUOUS
 10
1.1999974616
 20
-24.0
 30
0.0
 11
4.45
 21
-24.0
 31
0.0
  0
LINE
  5
2F3
100
AcDbEntity
  8
0
100
AcDbLine
 62
7
  6
CONTINUOUS
 10
-3.5348577163
 20
-23.994298655
 30
0.0
 11
-1.2085495996
 21
-23.994298655
 31
0.0
  0
LINE
  5
2F4
100
AcDbEntity
  8
0
100
AcDbLine
 62
7
  6
CONTINUOUS
 10
1.2085495996
 20
-23.994298655
 30
0.0
 11
3.5348577163
 21
-23.994298655
 31
0.0
  0
LINE
  5
2F5
100
AcDbEntity
  8
0
100
AcDbLine
 62
7
  6
CONTINUOUS
 10
-4.4063493531
 20
-23.9563493531
 30
0.0
 11
-3.5345265377
 21
-23.9563493531
 31
0.0
  0
LINE
  5
2F6
100
AcDbEntity
  8
0
100
AcDbLine
 62
7
  6
CONTINUOUS
 10
3.5345265377
 20
-23.9563493531
 30
0.0
 11
4.4063493531
 21
-23.9563493531
 31
0.0
  0
LINE
  5
2F7
100
AcDbEntity
  8
0
100
AcDbLine
 62
250
  6
CONTINUOUS
 10
7.254371834
 20
-23.8443375673
 30
0.0
 11
10.145628166
 21
-23.8443375673
 31
0.0
  0
LINE
  5
2F8
100
AcDbEntity
  8
0
100
AcDbLine
 62
250
  6
CONTINUOUS
 10
-7.254371834
 20
-23.8443375673
 30
0.0
 11
-10.145628166
 21
-23.8443375673
 31
0.0
  0
LINE
  5
2F9
100
AcDbEntity
  8
0
100
AcDbLine
 62
250
  6
CONTINUOUS
 10
9.8956323968
 20
-23.6278312164
 30
0.0
 11
7.5043676032
 21
-23.6278312164
 31
0.0
  0
LINE
  5
2FA
100
AcDbEntity
  8
0
100
AcDbLine
 62
250
  6
CONTINUOUS
 10
-7.5043676032
 20
-23.6278312164
 30
0.0
 11
-9.8956323968
 21
-23.6278312164
 31
0.0
  0
LINE
  5
2FB
100
AcDbEntity
  8
0
100
AcDbLine
 62
7
  6
CONTINUOUS
 10
-9.9007229979
 20
-23.1226497308
 30
0.0
 11
-7.4992770021
 21
-23.1226497308
 31
0.0
  0
LINE
  5
2FC
100
AcDbEntity
  8
0
100
AcDbLine
 62
7
  6
CONTINUOUS
 10
9.9007229979
 20
-23.1226497308
 30
0.0
 11
7.4992770021
 21
-23.1226497308
 31
0.0
  0
LINE
  5
2FD
100
AcDbEntity
  8
0
100
AcDbLine
 62
7
  6
CONTINUOUS
 10
-8.0665695018
 20
20.9917082642
 30
0.0
 11
-8.2325449351
 21
20.9087268678
 31
0.0
  0
LINE
  5
2FE
100
AcDbEntity
  8
0
100
AcDbLine
 62
7
  6
CONTINUOUS
 10
-8.0665695018
 20
21.4537354271
 30
0.0
 11
-8.2325449351
 21
21.4051134101
 31
0.0
  0
LINE
  5
2FF
100
AcDbEntity
  8
0
100
AcDbLine
 62
7
  6
CONTINUOUS
 10
1.0
 20
-22.4
 30
0.0
 11
-1.0
 21
-22.4
 31
0.0
  0
LINE
  5
300
100
AcDbEntity
  8
0
100
AcDbLine
 62
7
  6
CONTINUOUS
 10
4.45
 20
-22.4
 30
0.0
 11
10.6503805997
 21
-22.4
 31
0.0
  0
LINE
  5
301
100
AcDbEntity
  8
0
100
AcDbLine
 62
7
  6
CONTINUOUS
 10
-4.45
 20
-22.4
 30
0.0
 11
-10.6503805997
 21
-22.4
 31
0.0
  0
LINE
  5
302
100
AcDbEntity
  8
0
100
AcDbLine
 62
7
  6
CONTINUOUS
 10
-1.0086739534
 20
-22.3947957125
 30
0.0
 11
1.0086739534
 21
-22.3947957125
 31
0.0
  0
LINE
  5
303
100
AcDbEntity
  8
0
100
AcDbLine
 62
7
  6
CONTINUOUS
 10
-10.6412794783
 20
-22.3941821702
 30
0.0
 11
-7.2558178298
 21
-22.3941821702
 31
0.0
  0
LINE
  5
304
100
AcDbEntity
  8
0
100
AcDbLine
 62
7
  6
CONTINUOUS
 10
7.2558178298
 20
-22.3941821702
 30
0.0
 11
10.6412794783
 21
-22.3941821702
 31
0.0
  0
LINE
  5
305
100
AcDbEntity
  8
0
100
AcDbLine
 62
250
  6
CONTINUOUS
 10
-7.1905416262
 20
-22.3359700255
 30
0.0
 11
-3.0055500263
 21
-22.3359700255
 31
0.0
  0
LINE
  5
306
100
AcDbEntity
  8
0
100
AcDbLine
 62
250
  6
CONTINUOUS
 10
3.0055500263
 20
-22.3359700255
 30
0.0
 11
7.1905416262
 21
-22.3359700255
 31
0.0
  0
LINE
  5
307
100
AcDbEntity
  8
0
100
AcDbLine
 62
7
  6
CONTINUOUS
 10
-3.0
 20
-21.7
 30
0.0
 11
3.0
 21
-21.7
 31
0.0
  0
LINE
  5
308
100
AcDbEntity
  8
0
100
AcDbLine
 62
250
  6
CONTINUOUS
 10
-7.5666456542
 20
-21.3359869487
 30
0.0
 11
-2.9968233062
 21
-21.3359869487
 31
0.0
  0
LINE
  5
309
100
AcDbEntity
  8
0
100
AcDbLine
 62
250
  6
CONTINUOUS
 10
2.9968233062
 20
-21.3359869487
 30
0.0
 11
7.5666456542
 21
-21.3359869487
 31
0.0
  0
LINE
  5
30A
100
AcDbEntity
  8
0
100
AcDbLine
 62
7
  6
CONTINUOUS
 10
-8.0665695018
 20
-21.4537354271
 30
0.0
 11
-8.2325449351
 21
-21.4051134101
 31
0.0
  0
LINE
  5
30B
100
AcDbEntity
  8
0
100
AcDbLine
 62
7
  6
CONTINUOUS
 10
-8.0665695018
 20
-20.9917082642
 30
0.0
 11
-8.2325449351
 21
-20.9087268678
 31
0.0
  0
LINE
  5
30C
100
AcDbEntity
  8
0
100
AcDbLine
 62
7
  6
CONTINUOUS
 10
-11.1412731322
 20
18.5087268678
 30
0.0
 11
-7.2558178298
 21
22.3941821702
 31
0.0
  0
LINE
  5
30D
100
AcDbEntity
  8
0
100
AcDbLine
 62
7
  6
CONTINUOUS
 10
-8.2325449351
 20
21.4051134101
 30
0.0
 11
-8.0665695018
 21
21.5710888434
 31
0.0
  0
LINE
  5
30E
100
AcDbEntity
  8
0
100
AcDbLine
 62
7
  6
CONTINUOUS
 10
-8.6272036731
 20
20.85
 30
0.0
 11
-10.442117326
 21
19.0350863471
 31
0.0
  0
LINE
  5
30F
100
AcDbEntity
  8
DRAFT
100
AcDbLine
 62
7
  6
CONTINUOUS
 10
-7.6433124597
 20
20.9
 30
0.0
 11
-7.6933124597
 21
20.85
 31
0.0
  0
LINE
  5
310
100
AcDbEntity
  8
DRAFT
100
AcDbLine
 62
7
  6
CONTINUOUS
 10
-7.6186291501
 20
20.9
 30
0.0
 11
-7.6686291501
 21
20.85
 31
0.0
  0
LINE
  5
311
100
AcDbEntity
  8
DRAFT
100
AcDbLine
 62
7
  6
CONTINUOUS
 10
-7.1952775865
 20
20.9959955457
 30
0.0
 11
-7.2912734645
 21
20.9000003323
 31
0.0
  0
LINE
  5
312
100
AcDbEntity
  8
ASSI
100
AcDbLine
 62
7
  6
CONTINUOUS
 10
-10.7202082353
 20
17.2983042468
 30
0.0
 11
-10.0983042468
 21
17.9202082353
 31
0.0
  0
LINE
  5
313
100
AcDbEntity
  8
0
100
AcDbLine
 62
250
  6
CONTINUOUS
 10
-1.00856737
 20
23.7942952698
 30
0.0
 11
-1.0
 21
23.8000067692
 31
0.0
  0
LINE
  5
314
100
AcDbEntity
  8
0
100
AcDbLine
 62
7
  6
CONTINUOUS
 10
-7.4366556363
 20
18.2661694676
 30
0.0
 11
-7.4541107013
 21
18.2574425998
 31
0.0
  0
LINE
  5
315
100
AcDbEntity
  8
DRAFT
100
AcDbLine
 62
7
  6
CONTINUOUS
 10
-7.5666456542
 20
-20.9959955457
 30
0.0
 11
-7.1952775865
 21
-20.9959955457
 31
0.0
  0
LINE
  5
316
100
AcDbEntity
  8
DRAFT
100
AcDbLine
 62
7
  6
CONTINUOUS
 10
7.5666456542
 20
-20.9959955457
 30
0.0
 11
7.1952775865
 21
-20.9959955457
 31
0.0
  0
LINE
  5
317
100
AcDbEntity
  8
0
100
AcDbLine
 62
7
  6
CONTINUOUS
 10
-8.2325449351
 20
-20.9087268678
 30
0.0
 11
-8.0665695018
 21
-20.9087268678
 31
0.0
  0
LINE
  5
318
100
AcDbEntity
  8
0
100
AcDbLine
 62
7
  6
CONTINUOUS
 10
8.0665695018
 20
-20.9087268678
 30
0.0
 11
8.2325449351
 21
-20.9087268678
 31
0.0
  0
LINE
  5
319
100
AcDbEntity
  8
DRAFT
100
AcDbLine
 62
7
  6
CONTINUOUS
 10
8.0665695018
 20
-20.9
 30
0.0
 11
7.6309708049
 21
-20.9
 31
0.0
  0
LINE
  5
31A
100
AcDbEntity
  8
DRAFT
100
AcDbLine
 62
7
  6
CONTINUOUS
 10
-7.6309708049
 20
-20.9
 30
0.0
 11
-8.0665695018
 21
-20.9
 31
0.0
  0
LINE
  5
31B
100
AcDbEntity
  8
0
100
AcDbLine
 62
7
  6
CONTINUOUS
 10
-8.8
 20
-20.85
 30
0.0
 11
-7.4
 21
-20.85
 31
0.0
  0
LINE
  5
31C
100
AcDbEntity
  8
0
100
AcDbLine
 62
7
  6
CONTINUOUS
 10
7.4
 20
-20.85
 30
0.0
 11
8.8
 21
-20.85
 31
0.0
  0
LINE
  5
31D
100
AcDbEntity
  8
0
100
AcDbLine
 62
7
  6
CONTINUOUS
 10
-2.992145819
 20
-20.8
 30
0.0
 11
2.992145819
 21
-20.8
 31
0.0
  0
LINE
  5
31E
100
AcDbEntity
  8
DRAFT
100
AcDbLine
 62
7
  6
CONTINUOUS
 10
-6.6047224135
 20
-20.1047224135
 30
0.0
 11
6.6047224135
 21
-20.1047224135
 31
0.0
  0
LINE
  5
31F
100
AcDbEntity
  8
DRAFT
100
AcDbLine
 62
7
  6
CONTINUOUS
 10
2.5
 20
-20.070693013
 30
0.0
 11
2.4412605819
 21
-20.070693013
 31
0.0
  0
LINE
  5
320
100
AcDbEntity
  8
DRAFT
100
AcDbLine
 62
7
  6
CONTINUOUS
 10
-2.4412605819
 20
-20.070693013
 30
0.0
 11
-2.5
 21
-20.070693013
 31
0.0
  0
LINE
  5
321
100
AcDbEntity
  8
DRAFT
100
AcDbLine
 62
7
  6
CONTINUOUS
 10
-3.5001534346
 20
-20.0175818656
 30
0.0
 11
-2.499383967
 21
-20.0175818656
 31
0.0
  0
LINE
  5
322
100
AcDbEntity
  8
DRAFT
100
AcDbLine
 62
7
  6
CONTINUOUS
 10
2.499383967
 20
-20.0175818656
 30
0.0
 11
3.5001534346
 21
-20.0175818656
 31
0.0
  0
LINE
  5
323
100
AcDbEntity
  8
DRAFT
100
AcDbLine
 62
7
  6
CONTINUOUS
 10
-6.5043634339
 20
-20.0043634339
 30
0.0
 11
-2.4993600697
 21
-20.0043634339
 31
0.0
  0
LINE
  5
324
100
AcDbEntity
  8
DRAFT
100
AcDbLine
 62
7
  6
CONTINUOUS
 10
2.4993600697
 20
-20.0043634339
 30
0.0
 11
6.5043634339
 21
-20.0043634339
 31
0.0
  0
LINE
  5
325
100
AcDbEntity
  8
DRAFT
100
AcDbLine
 62
7
  6
CONTINUOUS
 10
-7.4
 20
-20.0
 30
0.0
 11
-7.2956365661
 21
-20.0
 31
0.0
  0
LINE
  5
326
100
AcDbEntity
  8
DRAFT
100
AcDbLine
 62
7
  6
CONTINUOUS
 10
7.2956365661
 20
-20.0
 30
0.0
 11
7.4
 21
-20.0
 31
0.0
  0
LINE
  5
327
100
AcDbEntity
  8
0
100
AcDbLine
 62
7
  6
CONTINUOUS
 10
3.5
 20
-19.9
 30
0.0
 11
2.4944782802
 21
-19.9
 31
0.0
  0
LINE
  5
328
100
AcDbEntity
  8
0
100
AcDbLine
 62
7
  6
CONTINUOUS
 10
-2.4944782802
 20
-19.9
 30
0.0
 11
-3.5
 21
-19.9
 31
0.0
  0
LINE
  5
329
100
AcDbEntity
  8
0
100
AcDbLine
 62
7
  6
CONTINUOUS
 10
1.5015242349
 20
-19.8844866796
 30
0.0
 11
-1.5015242349
 21
-19.8844866796
 31
0.0
  0
LINE
  5
32A
100
AcDbEntity
  8
0
100
AcDbLine
 62
7
  6
CONTINUOUS
 10
3.4633443637
 20
-19.8633443637
 30
0.0
 11
-3.4633443637
 21
-19.8633443637
 31
0.0
  0
LINE
  5
32B
100
AcDbEntity
  8
DRAFT
100
AcDbLine
 62
7
  6
CONTINUOUS
 10
-7.1952775865
 20
-19.8047224135
 30
0.0
 11
-6.6047224135
 21
-19.8047224135
 31
0.0
  0
LINE
  5
32C
100
AcDbEntity
  8
DRAFT
100
AcDbLine
 62
7
  6
CONTINUOUS
 10
6.6047224135
 20
-19.8047224135
 30
0.0
 11
7.1952775865
 21
-19.8047224135
 31
0.0
  0
LINE
  5
32D
100
AcDbEntity
  8
DRAFT
100
AcDbLine
 62
7
  6
CONTINUOUS
 10
-7.2956365661
 20
-19.7043634339
 30
0.0
 11
-6.5043634339
 21
-19.7043634339
 31
0.0
  0
LINE
  5
32E
100
AcDbEntity
  8
DRAFT
100
AcDbLine
 62
7
  6
CONTINUOUS
 10
6.5043634339
 20
-19.7043634339
 30
0.0
 11
7.2956365661
 21
-19.7043634339
 31
0.0
  0
LINE
  5
32F
100
AcDbEntity
  8
0
100
AcDbLine
 62
7
  6
CONTINUOUS
 10
-7.4
 20
-19.7
 30
0.0
 11
-3.5
 21
-19.7
 31
0.0
  0
LINE
  5
330
100
AcDbEntity
  8
0
100
AcDbLine
 62
7
  6
CONTINUOUS
 10
3.5
 20
-19.7
 30
0.0
 11
7.4
 21
-19.7
 31
0.0
  0
LINE
  5
331
100
AcDbEntity
  8
0
100
AcDbLine
 62
7
  6
CONTINUOUS
 10
-7.4366556363
 20
-19.6633443637
 30
0.0
 11
-3.4633443637
 21
-19.6633443637
 31
0.0
  0
LINE
  5
332
100
AcDbEntity
  8
0
100
AcDbLine
 62
7
  6
CONTINUOUS
 10
3.4633443637
 20
-19.6633443637
 30
0.0
 11
7.4366556363
 21
-19.6633443637
 31
0.0
  0
LINE
  5
333
100
AcDbEntity
  8
ASSI
100
AcDbLine
 62
7
  6
CONTINUOUS
 10
-3.7131017248
 20
-19.6130903017
 30
0.0
 11
9.3912243901
 21
-19.6130903017
 31
0.0
  0
LINE
  5
334
100
AcDbEntity
  8
0
100
AcDbLine
 62
7
  6
CONTINUOUS
 10
-1.0
 20
-22.4
 30
0.0
 11
-1.0086739534
 21
-22.3947957125
 31
0.0
  0
LINE
  5
335
100
AcDbEntity
  8
0
100
AcDbLine
 62
250
  6
CONTINUOUS
 10
-1.0
 20
-23.8000067692
 30
0.0
 11
-1.00856737
 21
-23.7942952698
 31
0.0
  0
LINE
  5
336
100
AcDbEntity
  8
0
100
AcDbLine
 62
7
  6
CONTINUOUS
 10
-7.2558178298
 20
-22.3941821702
 30
0.0
 11
-11.1412731322
 21
-18.5087268678
 31
0.0
  0
LINE
  5
337
100
AcDbEntity
  8
0
100
AcDbLine
 62
7
  6
CONTINUOUS
 10
-8.2325449351
 20
-21.4051134101
 30
0.0
 11
-8.0665695018
 21
-21.5710888434
 31
0.0
  0
LINE
  5
338
100
AcDbEntity
  8
0
100
AcDbLine
 62
7
  6
CONTINUOUS
 10
-10.442117326
 20
-19.0350863471
 30
0.0
 11
-8.6272036731
 21
-20.85
 31
0.0
  0
LINE
  5
339
100
AcDbEntity
  8
DRAFT
100
AcDbLine
 62
7
  6
CONTINUOUS
 10
-7.6933124597
 20
-20.85
 30
0.0
 11
-7.6433124597
 21
-20.9
 31
0.0
  0
LINE
  5
33A
100
AcDbEntity
  8
DRAFT
100
AcDbLine
 62
7
  6
CONTINUOUS
 10
-7.6686291501
 20
-20.85
 30
0.0
 11
-7.6186291501
 21
-20.9
 31
0.0
  0
LINE
  5
33B
100
AcDbEntity
  8
DRAFT
100
AcDbLine
 62
7
  6
CONTINUOUS
 10
-7.1952775865
 20
-20.9959955457
 30
0.0
 11
-7.2912731322
 21
-20.9
 31
0.0
  0
LINE
  5
33C
100
AcDbEntity
  8
ASSI
100
AcDbLine
 62
7
  6
CONTINUOUS
 10
-10.7202082353
 20
-17.2983042468
 30
0.0
 11
-10.0983042468
 21
-17.9202082353
 31
0.0
  0
LINE
  5
33D
100
AcDbEntity
  8
0
100
AcDbLine
 62
7
  6
CONTINUOUS
 10
-7.4
 20
19.7
 30
0.0
 11
-7.4366556363
 21
19.6633443637
 31
0.0
  0
LINE
  5
33E
100
AcDbEntity
  8
DRAFT
100
AcDbLine
 62
7
  6
CONTINUOUS
 10
-7.1952775865
 20
19.8047224135
 30
0.0
 11
-7.2956365661
 21
19.7043634339
 31
0.0
  0
LINE
  5
33F
100
AcDbEntity
  8
ASSI
100
AcDbLine
 62
7
  6
CONTINUOUS
 10
-4.0130903017
 20
-18.6
 30
0.0
 11
-9.2
 21
-18.6
 31
0.0
  0
LINE
  5
340
100
AcDbEntity
  8
ASSI
100
AcDbLine
 62
7
  6
CONTINUOUS
 10
2.5
 20
-18.3
 30
0.0
 11
-2.5
 21
-18.3
 31
0.0
  0
LINE
  5
341
100
AcDbEntity
  8
ASSI
100
AcDbLine
 62
7
  6
CONTINUOUS
 10
-9.3912243901
 20
-18.2130903017
 30
0.0
 11
-4.0130903017
 21
-18.2130903017
 31
0.0
  0
LINE
  5
342
100
AcDbEntity
  8
ASSI
100
AcDbLine
 62
7
  6
CONTINUOUS
 10
-2.5
 20
-18.2
 30
0.0
 11
2.5
 21
-18.2
 31
0.0
  0
LINE
  5
343
100
AcDbEntity
  8
CURVE
100
AcDbLine
 62
250
  6
CONTINUOUS
 10
-8.5
 20
-16.6285716057
 30
0.0
 11
-7.2
 21
-16.9071425915
 31
0.0
  0
LINE
  5
344
100
AcDbEntity
  8
CURVE
100
AcDbLine
 62
250
  6
CONTINUOUS
 10
-8.5
 20
-16.0714283943
 30
0.0
 11
-7.5714285493
 21
-16.35
 31
0.0
  0
LINE
  5
345
100
AcDbEntity
  8
0
100
AcDbLine
 62
7
  6
CONTINUOUS
 10
-7.4
 20
-19.7
 30
0.0
 11
-7.4366556363
 21
-19.6633443637
 31
0.0
  0
LINE
  5
346
100
AcDbEntity
  8
DRAFT
100
AcDbLine
 62
7
  6
CONTINUOUS
 10
-7.1952775865
 20
-19.8047224135
 30
0.0
 11
-7.2956365661
 21
-19.7043634339
 31
0.0
  0
LINE
  5
347
100
AcDbEntity
  8
ASSI
100
AcDbLine
 62
7
  6
CONTINUOUS
 10
-2.5
 20
-17.5
 30
0.0
 11
2.5
 21
-17.5
 31
0.0
  0
LINE
  5
348
100
AcDbEntity
  8
ASSI
100
AcDbLine
 62
7
  6
CONTINUOUS
 10
1.5825740794
 20
-17.3
 30
0.0
 11
-1.5825740794
 21
-17.3
 31
0.0
  0
LINE
  5
349
100
AcDbEntity
  8
0
100
AcDbLine
 62
250
  6
CONTINUOUS
 10
-1.7
 20
-17.2816718427
 30
0.0
 11
1.7
 21
-17.2816718427
 31
0.0
  0
LINE
  5
34A
100
AcDbEntity
  8
0
100
AcDbLine
 62
7
  6
CONTINUOUS
 10
-1.7
 20
-17.25
 30
0.0
 11
1.7
 21
-17.25
 31
0.0
  0
LINE
  5
34B
100
AcDbEntity
  8
IMPORT_IGES
100
AcDbLine
 62
7
  6
CONTINUOUS
 10
2.5
 20
-16.8466270367
 30
0.0
 11
-2.5
 21
-16.8466270367
 31
0.0
  0
LINE
  5
34C
100
AcDbEntity
  8
IMPORT_IGES
100
AcDbLine
 62
7
  6
CONTINUOUS
 10
2.5
 20
-16.7966270367
 30
0.0
 11
-2.5
 21
-16.7966270367
 31
0.0
  0
LINE
  5
34D
100
AcDbEntity
  8
IMPORT_IGES
100
AcDbLine
 62
7
  6
CONTINUOUS
 10
-2.5
 20
-16.6469592621
 30
0.0
 11
2.5
 21
-16.6469592621
 31
0.0
  0
LINE
  5
34E
100
AcDbEntity
  8
ASSI
100
AcDbLine
 62
7
  6
CONTINUOUS
 10
-2.5
 20
-16.6
 30
0.0
 11
2.5
 21
-16.6
 31
0.0
  0
LINE
  5
34F
100
AcDbEntity
  8
CURVE
100
AcDbLine
 62
250
  6
CONTINUOUS
 10
4.019012
 20
-16.092362
 30
0.0
 11
3.0
 21
-16.092362
 31
0.0
  0
LINE
  5
350
100
AcDbEntity
  8
CURVE
100
AcDbLine
 62
250
  6
CONTINUOUS
 10
-8.128571412
 20
-15.4214287043
 30
0.0
 11
-8.314285706
 21
-15.3285712957
 31
0.0
  0
LINE
  5
351
100
AcDbEntity
  8
CURVE
100
AcDbLine
 62
250
  6
CONTINUOUS
 10
-7.5714285493
 20
-14.7714287043
 30
0.0
 11
-7.3857142746
 21
-14.8642858028
 31
0.0
  0
LINE
  5
352
100
AcDbEntity
  8
CURVE
100
AcDbLine
 62
250
  6
CONTINUOUS
 10
-8.314285706
 20
-15.3285712957
 30
0.0
 11
-8.5
 21
-15.1428570986
 31
0.0
  0
LINE
  5
353
100
AcDbEntity
  8
CURVE
100
AcDbLine
 62
250
  6
CONTINUOUS
 10
-8.5
 20
-14.2142858028
 30
0.0
 11
-8.314285706
 21
-14.4
 31
0.0
  0
LINE
  5
354
100
AcDbEntity
  8
CURVE
100
AcDbLine
 62
250
  6
CONTINUOUS
 10
-7.5714285493
 20
-15.4214287043
 30
0.0
 11
-8.128571412
 21
-15.4214287043
 31
0.0
  0
LINE
  5
355
100
AcDbEntity
  8
CURVE
100
AcDbLine
 62
250
  6
CONTINUOUS
 10
8.828795
 20
-15.417947
 30
0.0
 11
8.456331
 21
-15.417947
 31
0.0
  0
LINE
  5
356
100
AcDbEntity
  8
CURVE
100
AcDbLine
 62
250
  6
CONTINUOUS
 10
8.456331
 20
-15.067887
 30
0.0
 11
8.828795
 21
-15.067887
 31
0.0
  0
LINE
  5
357
100
AcDbEntity
  8
CURVE
100
AcDbLine
 62
250
  6
CONTINUOUS
 10
-8.128571412
 20
-14.7714287043
 30
0.0
 11
-7.5714285493
 21
-14.7714287043
 31
0.0
  0
LINE
  5
358
100
AcDbEntity
  8
CURVE
100
AcDbLine
 62
250
  6
CONTINUOUS
 10
8.363915
 20
-14.61141
 30
0.0
 11
8.148279
 21
-14.61141
 31
0.0
  0
LINE
  5
359
100
AcDbEntity
  8
CURVE
100
AcDbLine
 62
250
  6
CONTINUOUS
 10
9.678739
 20
-14.416076
 30
0.0
 11
9.461245
 21
-14.416076
 31
0.0
  0
LINE
  5
35A
100
AcDbEntity
  8
CURVE
100
AcDbLine
 62
250
  6
CONTINUOUS
 10
-8.314285706
 20
-14.4
 30
0.0
 11
-7.9428571373
 21
-14.4
 31
0.0
  0
LINE
  5
35B
100
AcDbEntity
  8
CURVE
100
AcDbLine
 62
250
  6
CONTINUOUS
 10
6.267628
 20
-14.880593
 30
0.0
 11
9.164153
 21
-15.149839
 31
0.0
  0
LINE
  5
35C
100
AcDbEntity
  8
CURVE
100
AcDbLine
 62
250
  6
CONTINUOUS
 10
-7.3857142746
 20
-14.8642858028
 30
0.0
 11
-7.2
 21
-15.05
 31
0.0
  0
LINE
  5
35D
100
AcDbEntity
  8
CURVE
100
AcDbLine
 62
250
  6
CONTINUOUS
 10
-7.5714285493
 20
-13.1
 30
0.0
 11
-7.2
 21
-13.4714287043
 31
0.0
  0
LINE
  5
35E
100
AcDbEntity
  8
CURVE
100
AcDbLine
 62
250
  6
CONTINUOUS
 10
-8.5
 20
-11.6142857254
 30
0.0
 11
-8.314285706
 21
-11.8
 31
0.0
  0
LINE
  5
35F
100
AcDbEntity
  8
0
100
AcDbLine
 62
7
  6
CONTINUOUS
 10
4.4063493531
 20
23.9563493531
 30
0.0
 11
4.45
 21
24.0
 31
0.0
  0
LINE
  5
360
100
AcDbEntity
  8
0
100
AcDbLine
 62
7
  6
CONTINUOUS
 10
4.45
 20
22.4
 30
0.0
 11
4.406077753
 21
22.356077753
 31
0.0
  0
LINE
  5
361
100
AcDbEntity
  8
0
100
AcDbLine
 62
250
  6
CONTINUOUS
 10
10.5643027805
 20
19.0856972195
 30
0.0
 11
10.442117326
 21
19.0350863471
 31
0.0
  0
LINE
  5
362
100
AcDbEntity
  8
CURVE
100
AcDbLine
 62
250
  6
CONTINUOUS
 10
-7.2
 20
-15.7928574085
 30
0.0
 11
-8.5
 21
-16.0714283943
 31
0.0
  0
LINE
  5
363
100
AcDbEntity
  8
CURVE
100
AcDbLine
 62
250
  6
CONTINUOUS
 10
9.191705
 20
-12.931124
 30
0.0
 11
5.829484
 21
-13.225174
 31
0.0
  0
LINE
  5
364
100
AcDbEntity
  8
CURVE
100
AcDbLine
 62
250
  6
CONTINUOUS
 10
9.461803
 20
-13.843073
 30
0.0
 11
9.679297
 21
-13.843073
 31
0.0
  0
LINE
  5
365
100
AcDbEntity
  8
CURVE
100
AcDbLine
 62
250
  6
CONTINUOUS
 10
-7.7571428239
 20
-13.8428570986
 30
0.0
 11
-7.2
 21
-13.8428570986
 31
0.0
  0
LINE
  5
366
100
AcDbEntity
  8
CURVE
100
AcDbLine
 62
250
  6
CONTINUOUS
 10
8.148279
 20
-13.78807
 30
0.0
 11
8.363915
 21
-13.78807
 31
0.0
  0
LINE
  5
367
100
AcDbEntity
  8
CURVE
100
AcDbLine
 62
250
  6
CONTINUOUS
 10
-7.2
 20
-13.4714287043
 30
0.0
 11
-8.5
 21
-13.4714287043
 31
0.0
  0
LINE
  5
368
100
AcDbEntity
  8
CURVE
100
AcDbLine
 62
250
  6
CONTINUOUS
 10
5.829484
 20
-13.399503
 30
0.0
 11
5.633036
 21
-13.399503
 31
0.0
  0
LINE
  5
369
100
AcDbEntity
  8
CURVE
100
AcDbLine
 62
250
  6
CONTINUOUS
 10
9.586323
 20
-13.31759
 30
0.0
 11
9.191705
 21
-13.31759
 31
0.0
  0
LINE
  5
36A
100
AcDbEntity
  8
CURVE
100
AcDbLine
 62
250
  6
CONTINUOUS
 10
5.633036
 20
-13.281883
 30
0.0
 11
5.829484
 21
-13.281883
 31
0.0
  0
LINE
  5
36B
100
AcDbEntity
  8
CURVE
100
AcDbLine
 62
250
  6
CONTINUOUS
 10
9.191705
 20
-13.218216
 30
0.0
 11
9.586323
 21
-13.218216
 31
0.0
  0
LINE
  5
36C
100
AcDbEntity
  8
0
100
AcDbLine
 62
250
  6
CONTINUOUS
 10
10.442117326
 20
-19.0350863471
 30
0.0
 11
10.5643027805
 21
-19.0856972195
 31
0.0
  0
LINE
  5
36D
100
AcDbEntity
  8
0
100
AcDbLine
 62
7
  6
CONTINUOUS
 10
4.45
 20
-24.0
 30
0.0
 11
4.4063493531
 21
-23.9563493531
 31
0.0
  0
LINE
  5
36E
100
AcDbEntity
  8
CURVE
100
AcDbLine
 62
250
  6
CONTINUOUS
 10
-7.5714285493
 20
-10.5
 30
0.0
 11
-7.2
 21
-10.871428588
 31
0.0
  0
LINE
  5
36F
100
AcDbEntity
  8
0
100
AcDbLine
 62
7
  6
CONTINUOUS
 10
4.45
 20
-22.4
 30
0.0
 11
4.406077753
 21
-22.356077753
 31
0.0
  0
LINE
  5
370
100
AcDbEntity
  8
ASSI
100
AcDbLine
 62
7
  6
CONTINUOUS
 10
-10.9505007266
 20
1.2671375469
 30
0.0
 11
-10.9493332926
 21
1.2088041819
 31
0.0
  0
LINE
  5
371
100
AcDbEntity
  8
ASSI
100
AcDbLine
 62
7
  6
CONTINUOUS
 10
-10.9505007266
 20
6.2671375469
 30
0.0
 11
-10.9493332926
 21
6.2088041819
 31
0.0
  0
LINE
  5
372
100
AcDbEntity
  8
ASSI
100
AcDbLine
 62
7
  6
CONTINUOUS
 10
-10.9505007266
 20
11.2671375469
 30
0.0
 11
-10.9493332926
 21
11.2088041819
 31
0.0
  0
LINE
  5
373
100
AcDbEntity
  8
ASSI
100
AcDbLine
 62
7
  6
CONTINUOUS
 10
-10.9505007266
 20
16.2671375469
 30
0.0
 11
-10.9493332926
 21
16.2088041819
 31
0.0
  0
LINE
  5
374
100
AcDbEntity
  8
ASSI
100
AcDbLine
 62
7
  6
CONTINUOUS
 10
-10.9493332926
 20
1.2088041819
 30
0.0
 11
-10.9481703375
 21
1.1407149317
 31
0.0
  0
LINE
  5
375
100
AcDbEntity
  8
ASSI
100
AcDbLine
 62
7
  6
CONTINUOUS
 10
-10.9493332926
 20
6.2088041819
 30
0.0
 11
-10.9481703375
 21
6.1407149317
 31
0.0
  0
LINE
  5
376
100
AcDbEntity
  8
ASSI
100
AcDbLine
 62
7
  6
CONTINUOUS
 10
-10.9493332926
 20
11.2088041819
 30
0.0
 11
-10.9481703375
 21
11.1407149317
 31
0.0
  0
LINE
  5
377
100
AcDbEntity
  8
ASSI
100
AcDbLine
 62
7
  6
CONTINUOUS
 10
-10.9493332926
 20
16.2088041819
 30
0.0
 11
-10.9481703375
 21
16.1407149317
 31
0.0
  0
LINE
  5
378
100
AcDbEntity
  8
ASSI
100
AcDbLine
 62
7
  6
CONTINUOUS
 10
-10.9481703375
 20
1.1407149317
 30
0.0
 11
-10.9470127121
 21
1.0618152406
 31
0.0
  0
LINE
  5
379
100
AcDbEntity
  8
ASSI
100
AcDbLine
 62
7
  6
CONTINUOUS
 10
-10.9481703375
 20
6.1407149317
 30
0.0
 11
-10.9470127121
 21
6.0618152406
 31
0.0
  0
LINE
  5
37A
100
AcDbEntity
  8
ASSI
100
AcDbLine
 62
7
  6
CONTINUOUS
 10
-10.9481703375
 20
11.1407149317
 30
0.0
 11
-10.9470127121
 21
11.0618152406
 31
0.0
  0
LINE
  5
37B
100
AcDbEntity
  8
ASSI
100
AcDbLine
 62
7
  6
CONTINUOUS
 10
-10.9481703375
 20
16.1407149317
 30
0.0
 11
-10.9470127121
 21
16.0618152406
 31
0.0
  0
LINE
  5
37C
100
AcDbEntity
  8
ASSI
100
AcDbLine
 62
7
  6
CONTINUOUS
 10
-10.9470127121
 20
1.0618152406
 30
0.0
 11
-10.9458695659
 21
0.9720278506
 31
0.0
  0
LINE
  5
37D
100
AcDbEntity
  8
ASSI
100
AcDbLine
 62
7
  6
CONTINUOUS
 10
-10.9470127121
 20
6.0618152406
 30
0.0
 11
-10.9458695659
 21
5.9720278506
 31
0.0
  0
LINE
  5
37E
100
AcDbEntity
  8
ASSI
100
AcDbLine
 62
7
  6
CONTINUOUS
 10
-10.9470127121
 20
11.0618152406
 30
0.0
 11
-10.9458695659
 21
10.9720278506
 31
0.0
  0
LINE
  5
37F
100
AcDbEntity
  8
ASSI
100
AcDbLine
 62
7
  6
CONTINUOUS
 10
-10.9470127121
 20
16.0618152406
 30
0.0
 11
-10.9458695659
 21
15.9720278506
 31
0.0
  0
LINE
  5
380
100
AcDbEntity
  8
ASSI
100
AcDbLine
 62
7
  6
CONTINUOUS
 10
-10.9458695659
 20
0.9720278506
 30
0.0
 11
-10.9447502343
 21
0.87141283
 31
0.0
  0
LINE
  5
381
100
AcDbEntity
  8
ASSI
100
AcDbLine
 62
7
  6
CONTINUOUS
 10
-10.9458695659
 20
5.9720278506
 30
0.0
 11
-10.9447502343
 21
5.87141283
 31
0.0
  0
LINE
  5
382
100
AcDbEntity
  8
ASSI
100
AcDbLine
 62
7
  6
CONTINUOUS
 10
-10.9458695659
 20
10.9720278506
 30
0.0
 11
-10.9447502343
 21
10.87141283
 31
0.0
  0
LINE
  5
383
100
AcDbEntity
  8
ASSI
100
AcDbLine
 62
7
  6
CONTINUOUS
 10
-10.9458695659
 20
15.9720278506
 30
0.0
 11
-10.9447502343
 21
15.87141283
 31
0.0
  0
LINE
  5
384
100
AcDbEntity
  8
ASSI
100
AcDbLine
 62
7
  6
CONTINUOUS
 10
-10.9447502343
 20
0.87141283
 30
0.0
 11
-10.9436723705
 21
0.7599873623
 31
0.0
  0
LINE
  5
385
100
AcDbEntity
  8
ASSI
100
AcDbLine
 62
7
  6
CONTINUOUS
 10
-10.9447502343
 20
5.87141283
 30
0.0
 11
-10.9436723705
 21
5.7599873623
 31
0.0
  0
LINE
  5
386
100
AcDbEntity
  8
ASSI
100
AcDbLine
 62
7
  6
CONTINUOUS
 10
-10.9447502343
 20
10.87141283
 30
0.0
 11
-10.9436723705
 21
10.7599873623
 31
0.0
  0
LINE
  5
387
100
AcDbEntity
  8
ASSI
100
AcDbLine
 62
7
  6
CONTINUOUS
 10
-10.9447502343
 20
15.87141283
 30
0.0
 11
-10.9436723705
 21
15.7599873623
 31
0.0
  0
LINE
  5
388
100
AcDbEntity
  8
ASSI
100
AcDbLine
 62
7
  6
CONTINUOUS
 10
-10.9436723705
 20
0.7599873623
 30
0.0
 11
-10.9426439115
 21
0.6378256367
 31
0.0
  0
LINE
  5
389
100
AcDbEntity
  8
ASSI
100
AcDbLine
 62
7
  6
CONTINUOUS
 10
-10.9436723705
 20
5.7599873623
 30
0.0
 11
-10.9426439115
 21
5.6378256367
 31
0.0
  0
LINE
  5
38A
100
AcDbEntity
  8
ASSI
100
AcDbLine
 62
7
  6
CONTINUOUS
 10
-10.9436723705
 20
10.7599873623
 30
0.0
 11
-10.9426439115
 21
10.6378256367
 31
0.0
  0
LINE
  5
38B
100
AcDbEntity
  8
ASSI
100
AcDbLine
 62
7
  6
CONTINUOUS
 10
-10.9436723705
 20
15.7599873623
 30
0.0
 11
-10.9426439115
 21
15.6378256367
 31
0.0
  0
LINE
  5
38C
100
AcDbEntity
  8
ASSI
100
AcDbLine
 62
7
  6
CONTINUOUS
 10
-10.9426439115
 20
0.6378256367
 30
0.0
 11
-10.9416696748
 21
0.5051401469
 31
0.0
  0
LINE
  5
38D
100
AcDbEntity
  8
ASSI
100
AcDbLine
 62
7
  6
CONTINUOUS
 10
-10.9426439115
 20
5.6378256367
 30
0.0
 11
-10.9416696748
 21
5.5051401469
 31
0.0
  0
LINE
  5
38E
100
AcDbEntity
  8
ASSI
100
AcDbLine
 62
7
  6
CONTINUOUS
 10
-10.9426439115
 20
10.6378256367
 30
0.0
 11
-10.9416696748
 21
10.5051401469
 31
0.0
  0
LINE
  5
38F
100
AcDbEntity
  8
ASSI
100
AcDbLine
 62
7
  6
CONTINUOUS
 10
-10.9426439115
 20
15.6378256367
 30
0.0
 11
-10.9416696748
 21
15.5051401469
 31
0.0
  0
LINE
  5
390
100
AcDbEntity
  8
ASSI
100
AcDbLine
 62
7
  6
CONTINUOUS
 10
-10.9416696748
 20
0.5051401469
 30
0.0
 11
-10.9407680329
 21
0.3622883386
 31
0.0
  0
LINE
  5
391
100
AcDbEntity
  8
ASSI
100
AcDbLine
 62
7
  6
CONTINUOUS
 10
-10.9416696748
 20
5.5051401469
 30
0.0
 11
-10.9407680329
 21
5.3622883386
 31
0.0
  0
LINE
  5
392
100
AcDbEntity
  8
ASSI
100
AcDbLine
 62
7
  6
CONTINUOUS
 10
-10.9416696748
 20
10.5051401469
 30
0.0
 11
-10.9407680329
 21
10.3622883386
 31
0.0
  0
LINE
  5
393
100
AcDbEntity
  8
ASSI
100
AcDbLine
 62
7
  6
CONTINUOUS
 10
-10.9416696748
 20
15.5051401469
 30
0.0
 11
-10.9407680329
 21
15.3622883386
 31
0.0
  0
LINE
  5
394
100
AcDbEntity
  8
ASSI
100
AcDbLine
 62
7
  6
CONTINUOUS
 10
-10.9407680329
 20
0.3622883386
 30
0.0
 11
-10.9399468169
 21
0.2097187901
 31
0.0
  0
LINE
  5
395
100
AcDbEntity
  8
ASSI
100
AcDbLine
 62
7
  6
CONTINUOUS
 10
-10.9407680329
 20
5.3622883386
 30
0.0
 11
-10.9399468169
 21
5.2097187901
 31
0.0
  0
LINE
  5
396
100
AcDbEntity
  8
ASSI
100
AcDbLine
 62
7
  6
CONTINUOUS
 10
-10.9407680329
 20
10.3622883386
 30
0.0
 11
-10.9399468169
 21
10.2097187901
 31
0.0
  0
LINE
  5
397
100
AcDbEntity
  8
ASSI
100
AcDbLine
 62
7
  6
CONTINUOUS
 10
-10.9407680329
 20
15.3622883386
 30
0.0
 11
-10.9399468169
 21
15.2097187901
 31
0.0
  0
LINE
  5
398
100
AcDbEntity
  8
ASSI
100
AcDbLine
 62
7
  6
CONTINUOUS
 10
-10.9399468169
 20
0.2097187901
 30
0.0
 11
-10.9392096393
 21
0.0480181864
 31
0.0
  0
LINE
  5
399
100
AcDbEntity
  8
ASSI
100
AcDbLine
 62
7
  6
CONTINUOUS
 10
-10.9399468169
 20
5.2097187901
 30
0.0
 11
-10.9392096393
 21
5.0480181864
 31
0.0
  0
LINE
  5
39A
100
AcDbEntity
  8
ASSI
100
AcDbLine
 62
7
  6
CONTINUOUS
 10
-10.9399468169
 20
10.2097187901
 30
0.0
 11
-10.9392096393
 21
10.0480181864
 31
0.0
  0
LINE
  5
39B
100
AcDbEntity
  8
ASSI
100
AcDbLine
 62
7
  6
CONTINUOUS
 10
-10.9399468169
 20
15.2097187901
 30
0.0
 11
-10.9392096393
 21
15.0480181864
 31
0.0
  0
LINE
  5
39C
100
AcDbEntity
  8
ASSI
100
AcDbLine
 62
7
  6
CONTINUOUS
 10
-10.9392096393
 20
0.0480181864
 30
0.0
 11
-10.9385749355
 21
-0.1220756782
 31
0.0
  0
LINE
  5
39D
100
AcDbEntity
  8
ASSI
100
AcDbLine
 62
7
  6
CONTINUOUS
 10
-10.9392096393
 20
5.0480181864
 30
0.0
 11
-10.9385749355
 21
4.8779243218
 31
0.0
  0
LINE
  5
39E
100
AcDbEntity
  8
ASSI
100
AcDbLine
 62
7
  6
CONTINUOUS
 10
-10.9392096393
 20
10.0480181864
 30
0.0
 11
-10.9385749355
 21
9.8779243218
 31
0.0
  0
LINE
  5
39F
100
AcDbEntity
  8
ASSI
100
AcDbLine
 62
7
  6
CONTINUOUS
 10
-10.9392096393
 20
15.0480181864
 30
0.0
 11
-10.9385749355
 21
14.8779243218
 31
0.0
  0
LINE
  5
3A0
100
AcDbEntity
  8
ASSI
100
AcDbLine
 62
7
  6
CONTINUOUS
 10
-10.9385749355
 20
-0.1220756782
 30
0.0
 11
-10.9380476161
 21
-0.2997156278
 31
0.0
  0
LINE
  5
3A1
100
AcDbEntity
  8
ASSI
100
AcDbLine
 62
7
  6
CONTINUOUS
 10
-10.9385749355
 20
4.8779243218
 30
0.0
 11
-10.9380476161
 21
4.7002843722
 31
0.0
  0
LINE
  5
3A2
100
AcDbEntity
  8
ASSI
100
AcDbLine
 62
7
  6
CONTINUOUS
 10
-10.9385749355
 20
9.8779243218
 30
0.0
 11
-10.9380476161
 21
9.7002843722
 31
0.0
  0
LINE
  5
3A3
100
AcDbEntity
  8
ASSI
100
AcDbLine
 62
7
  6
CONTINUOUS
 10
-10.9385749355
 20
14.8779243218
 30
0.0
 11
-10.9380476161
 21
14.7002843722
 31
0.0
  0
LINE
  5
3A4
100
AcDbEntity
  8
ASSI
100
AcDbLine
 62
7
  6
CONTINUOUS
 10
-10.9380476161
 20
-0.2997156278
 30
0.0
 11
-10.9376326689
 21
-0.4836514675
 31
0.0
  0
LINE
  5
3A5
100
AcDbEntity
  8
ASSI
100
AcDbLine
 62
7
  6
CONTINUOUS
 10
-10.9380476161
 20
4.7002843722
 30
0.0
 11
-10.9376326689
 21
4.5163485325
 31
0.0
  0
LINE
  5
3A6
100
AcDbEntity
  8
ASSI
100
AcDbLine
 62
7
  6
CONTINUOUS
 10
-10.9380476161
 20
9.7002843722
 30
0.0
 11
-10.9376326689
 21
9.5163485325
 31
0.0
  0
LINE
  5
3A7
100
AcDbEntity
  8
ASSI
100
AcDbLine
 62
7
  6
CONTINUOUS
 10
-10.9380476161
 20
14.7002843722
 30
0.0
 11
-10.9376326689
 21
14.5163485325
 31
0.0
  0
LINE
  5
3A8
100
AcDbEntity
  8
ASSI
100
AcDbLine
 62
7
  6
CONTINUOUS
 10
-10.9376326689
 20
-0.4836514675
 30
0.0
 11
-10.9373467547
 21
-0.6721043975
 31
0.0
  0
LINE
  5
3A9
100
AcDbEntity
  8
ASSI
100
AcDbLine
 62
7
  6
CONTINUOUS
 10
-10.9376326689
 20
4.5163485325
 30
0.0
 11
-10.9373467547
 21
4.3278956025
 31
0.0
  0
LINE
  5
3AA
100
AcDbEntity
  8
ASSI
100
AcDbLine
 62
7
  6
CONTINUOUS
 10
-10.9376326689
 20
9.5163485325
 30
0.0
 11
-10.9373467547
 21
9.3278956025
 31
0.0
  0
LINE
  5
3AB
100
AcDbEntity
  8
ASSI
100
AcDbLine
 62
7
  6
CONTINUOUS
 10
-10.9376326689
 20
14.5163485325
 30
0.0
 11
-10.9373467547
 21
14.3278956025
 31
0.0
  0
LINE
  5
3AC
100
AcDbEntity
  8
ASSI
100
AcDbLine
 62
7
  6
CONTINUOUS
 10
-10.9373467547
 20
-0.6721043975
 30
0.0
 11
-10.9371871378
 21
-0.8631832695
 31
0.0
  0
LINE
  5
3AD
100
AcDbEntity
  8
ASSI
100
AcDbLine
 62
7
  6
CONTINUOUS
 10
-10.9373467547
 20
4.3278956025
 30
0.0
 11
-10.9371871378
 21
4.1368167305
 31
0.0
  0
LINE
  5
3AE
100
AcDbEntity
  8
ASSI
100
AcDbLine
 62
7
  6
CONTINUOUS
 10
-10.9373467547
 20
9.3278956025
 30
0.0
 11
-10.9371871378
 21
9.1368167305
 31
0.0
  0
LINE
  5
3AF
100
AcDbEntity
  8
ASSI
100
AcDbLine
 62
7
  6
CONTINUOUS
 10
-10.9373467547
 20
14.3278956025
 30
0.0
 11
-10.9371871378
 21
14.1368167305
 31
0.0
  0
LINE
  5
3B0
100
AcDbEntity
  8
0
100
AcDbLine
 62
7
  6
CONTINUOUS
 10
-11.15
 20
21.900016923
 30
0.0
 11
-11.15
 21
-21.900016923
 31
0.0
  0
LINE
  5
3B1
100
AcDbEntity
  8
0
100
AcDbLine
 62
7
  6
CONTINUOUS
 10
-11.1412731322
 20
21.8941990932
 30
0.0
 11
-11.1412731322
 21
18.5087268678
 31
0.0
  0
LINE
  5
3B2
100
AcDbEntity
  8
0
100
AcDbLine
 62
7
  6
CONTINUOUS
 10
-11.1412731322
 20
-18.5087268678
 30
0.0
 11
-11.1412731322
 21
-21.8941990932
 31
0.0
  0
LINE
  5
3B3
100
AcDbEntity
  8
0
100
AcDbLine
 62
7
  6
CONTINUOUS
 10
-11.1325462644
 20
18.5174537356
 30
0.0
 11
-11.1325462644
 21
17.9192894123
 31
0.0
  0
LINE
  5
3B4
100
AcDbEntity
  8
0
100
AcDbLine
 62
7
  6
CONTINUOUS
 10
-11.1325462644
 20
-17.9192894123
 30
0.0
 11
-11.1325462644
 21
-18.5174537356
 31
0.0
  0
LINE
  5
3B5
100
AcDbEntity
  8
0
100
AcDbLine
 62
7
  6
CONTINUOUS
 10
-11.0278145455
 20
17.6210881763
 30
0.0
 11
-11.0278145455
 21
-17.6210881763
 31
0.0
  0
LINE
  5
3B6
100
AcDbEntity
  8
ASSI
100
AcDbLine
 62
7
  6
CONTINUOUS
 10
-11.0130903017
 20
16.5912243901
 30
0.0
 11
-11.0130903017
 21
16.45
 31
0.0
  0
LINE
  5
3B7
100
AcDbEntity
  8
ASSI
100
AcDbLine
 62
7
  6
CONTINUOUS
 10
-11.0130903017
 20
11.55
 30
0.0
 11
-11.0130903017
 21
11.45
 31
0.0
  0
LINE
  5
3B8
100
AcDbEntity
  8
ASSI
100
AcDbLine
 62
7
  6
CONTINUOUS
 10
-11.0130903017
 20
6.55
 30
0.0
 11
-11.0130903017
 21
6.45
 31
0.0
  0
LINE
  5
3B9
100
AcDbEntity
  8
ASSI
100
AcDbLine
 62
7
  6
CONTINUOUS
 10
-11.0130903017
 20
1.55
 30
0.0
 11
-11.0130903017
 21
1.45
 31
0.0
  0
LINE
  5
3BA
100
AcDbEntity
  8
ASSI
100
AcDbLine
 62
7
  6
CONTINUOUS
 10
-11.0130903017
 20
-3.45
 30
0.0
 11
-11.0130903017
 21
-16.5912243901
 31
0.0
  0
LINE
  5
3BB
100
AcDbEntity
  8
ASSI
100
AcDbLine
 62
7
  6
CONTINUOUS
 10
-11.0
 20
16.1850292972
 30
0.0
 11
-11.0
 21
11.636772105
 31
0.0
  0
LINE
  5
3BC
100
AcDbEntity
  8
ASSI
100
AcDbLine
 62
7
  6
CONTINUOUS
 10
-11.0
 20
11.363227895
 30
0.0
 11
-11.0
 21
6.636772105
 31
0.0
  0
LINE
  5
3BD
100
AcDbEntity
  8
ASSI
100
AcDbLine
 62
7
  6
CONTINUOUS
 10
-11.0
 20
6.363227895
 30
0.0
 11
-11.0
 21
1.636772105
 31
0.0
  0
LINE
  5
3BE
100
AcDbEntity
  8
ASSI
100
AcDbLine
 62
7
  6
CONTINUOUS
 10
-11.0
 20
1.363227895
 30
0.0
 11
-11.0
 21
-3.363227895
 31
0.0
  0
LINE
  5
3BF
100
AcDbEntity
  8
ASSI
100
AcDbLine
 62
7
  6
CONTINUOUS
 10
-10.9371871378
 20
14.1368167305
 30
0.0
 11
-10.9371573628
 21
13.9450915273
 31
0.0
  0
LINE
  5
3C0
100
AcDbEntity
  8
ASSI
100
AcDbLine
 62
7
  6
CONTINUOUS
 10
-10.9371871378
 20
9.1368167305
 30
0.0
 11
-10.9371573628
 21
8.9450915273
 31
0.0
  0
LINE
  5
3C1
100
AcDbEntity
  8
ASSI
100
AcDbLine
 62
7
  6
CONTINUOUS
 10
-10.9371871378
 20
4.1368167305
 30
0.0
 11
-10.9371573628
 21
3.9450915273
 31
0.0
  0
LINE
  5
3C2
100
AcDbEntity
  8
ASSI
100
AcDbLine
 62
7
  6
CONTINUOUS
 10
-10.9371871378
 20
-0.8631832695
 30
0.0
 11
-10.9371573628
 21
-1.0549084727
 31
0.0
  0
LINE
  5
3C3
100
AcDbEntity
  8
ASSI
100
AcDbLine
 62
7
  6
CONTINUOUS
 10
-10.9371573628
 20
13.9450915273
 30
0.0
 11
-10.9372624569
 21
13.7547172716
 31
0.0
  0
LINE
  5
3C4
100
AcDbEntity
  8
ASSI
100
AcDbLine
 62
7
  6
CONTINUOUS
 10
-10.9371573628
 20
8.9450915273
 30
0.0
 11
-10.9372624569
 21
8.7547172716
 31
0.0
  0
LINE
  5
3C5
100
AcDbEntity
  8
ASSI
100
AcDbLine
 62
7
  6
CONTINUOUS
 10
-10.9371573628
 20
3.9450915273
 30
0.0
 11
-10.9372624569
 21
3.7547172716
 31
0.0
  0
LINE
  5
3C6
100
AcDbEntity
  8
ASSI
100
AcDbLine
 62
7
  6
CONTINUOUS
 10
-10.9371573628
 20
-1.0549084727
 30
0.0
 11
-10.9372624569
 21
-1.2452827284
 31
0.0
  0
LINE
  5
3C7
100
AcDbEntity
  8
ASSI
100
AcDbLine
 62
7
  6
CONTINUOUS
 10
-10.9372624569
 20
13.7547172716
 30
0.0
 11
-10.9374888683
 21
13.5676269636
 31
0.0
  0
LINE
  5
3C8
100
AcDbEntity
  8
ASSI
100
AcDbLine
 62
7
  6
CONTINUOUS
 10
-10.9372624569
 20
8.7547172716
 30
0.0
 11
-10.9374888683
 21
8.5676269636
 31
0.0
  0
LINE
  5
3C9
100
AcDbEntity
  8
ASSI
100
AcDbLine
 62
7
  6
CONTINUOUS
 10
-10.9372624569
 20
3.7547172716
 30
0.0
 11
-10.9374888683
 21
3.5676269636
 31
0.0
  0
LINE
  5
3CA
100
AcDbEntity
  8
ASSI
100
AcDbLine
 62
7
  6
CONTINUOUS
 10
-10.9372624569
 20
-1.2452827284
 30
0.0
 11
-10.9374888683
 21
-1.4323730364
 31
0.0
  0
LINE
  5
3CB
100
AcDbEntity
  8
ASSI
100
AcDbLine
 62
7
  6
CONTINUOUS
 10
-10.9374888683
 20
13.5676269636
 30
0.0
 11
-10.9378362566
 21
13.3856663897
 31
0.0
  0
LINE
  5
3CC
100
AcDbEntity
  8
ASSI
100
AcDbLine
 62
7
  6
CONTINUOUS
 10
-10.9374888683
 20
8.5676269636
 30
0.0
 11
-10.9378362566
 21
8.3856663897
 31
0.0
  0
LINE
  5
3CD
100
AcDbEntity
  8
ASSI
100
AcDbLine
 62
7
  6
CONTINUOUS
 10
-10.9374888683
 20
3.5676269636
 30
0.0
 11
-10.9378362566
 21
3.3856663897
 31
0.0
  0
LINE
  5
3CE
100
AcDbEntity
  8
ASSI
100
AcDbLine
 62
7
  6
CONTINUOUS
 10
-10.9374888683
 20
-1.4323730364
 30
0.0
 11
-10.9378362566
 21
-1.6143336103
 31
0.0
  0
LINE
  5
3CF
100
AcDbEntity
  8
ASSI
100
AcDbLine
 62
7
  6
CONTINUOUS
 10
-10.9378362566
 20
-1.6143336103
 30
0.0
 11
-10.9380080659
 21
-1.6852903123
 31
0.0
  0
LINE
  5
3D0
100
AcDbEntity
  8
ASSI
100
AcDbLine
 62
7
  6
CONTINUOUS
 10
-10.9378362566
 20
13.3856663897
 30
0.0
 11
-10.9384004866
 21
13.1764659948
 31
0.0
  0
LINE
  5
3D1
100
AcDbEntity
  8
ASSI
100
AcDbLine
 62
7
  6
CONTINUOUS
 10
-10.9378362566
 20
8.3856663897
 30
0.0
 11
-10.9384004866
 21
8.1764659948
 31
0.0
  0
LINE
  5
3D2
100
AcDbEntity
  8
ASSI
100
AcDbLine
 62
7
  6
CONTINUOUS
 10
-10.9378362566
 20
3.3856663897
 30
0.0
 11
-10.9384004866
 21
3.1764659948
 31
0.0
  0
LINE
  5
3D3
100
AcDbEntity
  8
ASSI
100
AcDbLine
 62
7
  6
CONTINUOUS
 10
-10.9380080659
 20
-1.6852903123
 30
0.0
 11
-10.9384004866
 21
-1.8235340052
 31
0.0
  0
LINE
  5
3D4
100
AcDbEntity
  8
ASSI
100
AcDbLine
 62
7
  6
CONTINUOUS
 10
-10.9384004866
 20
13.1764659948
 30
0.0
 11
-10.9390988059
 21
12.9791564444
 31
0.0
  0
LINE
  5
3D5
100
AcDbEntity
  8
ASSI
100
AcDbLine
 62
7
  6
CONTINUOUS
 10
-10.9384004866
 20
8.1764659948
 30
0.0
 11
-10.9390988059
 21
7.9791564444
 31
0.0
  0
LINE
  5
3D6
100
AcDbEntity
  8
ASSI
100
AcDbLine
 62
7
  6
CONTINUOUS
 10
-10.9384004866
 20
3.1764659948
 30
0.0
 11
-10.9390988059
 21
2.9791564444
 31
0.0
  0
LINE
  5
3D7
100
AcDbEntity
  8
ASSI
100
AcDbLine
 62
7
  6
CONTINUOUS
 10
-10.9384004866
 20
-1.8235340052
 30
0.0
 11
-10.9390988059
 21
-2.0208435556
 31
0.0
  0
LINE
  5
3D8
100
AcDbEntity
  8
ASSI
100
AcDbLine
 62
7
  6
CONTINUOUS
 10
-10.9390988059
 20
-2.0208435556
 30
0.0
 11
-10.9393609442
 21
-2.0838374843
 31
0.0
  0
LINE
  5
3D9
100
AcDbEntity
  8
ASSI
100
AcDbLine
 62
7
  6
CONTINUOUS
 10
-10.9390988059
 20
12.9791564444
 30
0.0
 11
-10.939779782
 21
12.8243333751
 31
0.0
  0
LINE
  5
3DA
100
AcDbEntity
  8
ASSI
100
AcDbLine
 62
7
  6
CONTINUOUS
 10
-10.9390988059
 20
7.9791564444
 30
0.0
 11
-10.939779782
 21
7.8243333751
 31
0.0
  0
LINE
  5
3DB
100
AcDbEntity
  8
ASSI
100
AcDbLine
 62
7
  6
CONTINUOUS
 10
-10.9390988059
 20
2.9791564444
 30
0.0
 11
-10.939779782
 21
2.8243333751
 31
0.0
  0
LINE
  5
3DC
100
AcDbEntity
  8
ASSI
100
AcDbLine
 62
7
  6
CONTINUOUS
 10
-10.9393609442
 20
-2.0838374843
 30
0.0
 11
-10.9402258682
 21
-2.2642632494
 31
0.0
  0
LINE
  5
3DD
100
AcDbEntity
  8
ASSI
100
AcDbLine
 62
7
  6
CONTINUOUS
 10
-10.939779782
 20
12.8243333751
 30
0.0
 11
-10.9406952192
 21
12.6504110412
 31
0.0
  0
LINE
  5
3DE
100
AcDbEntity
  8
ASSI
100
AcDbLine
 62
7
  6
CONTINUOUS
 10
-10.939779782
 20
7.8243333751
 30
0.0
 11
-10.9406952192
 21
7.6504110412
 31
0.0
  0
LINE
  5
3DF
100
AcDbEntity
  8
ASSI
100
AcDbLine
 62
7
  6
CONTINUOUS
 10
-10.939779782
 20
2.8243333751
 30
0.0
 11
-10.9406952192
 21
2.6504110412
 31
0.0
  0
LINE
  5
3E0
100
AcDbEntity
  8
ASSI
100
AcDbLine
 62
7
  6
CONTINUOUS
 10
-10.9402258682
 20
-2.2642632494
 30
0.0
 11
-10.9411881835
 21
-2.4316214275
 31
0.0
  0
LINE
  5
3E1
100
AcDbEntity
  8
ASSI
100
AcDbLine
 62
7
  6
CONTINUOUS
 10
-10.9406952192
 20
12.6504110412
 30
0.0
 11
-10.9417049933
 21
12.4896492095
 31
0.0
  0
LINE
  5
3E2
100
AcDbEntity
  8
ASSI
100
AcDbLine
 62
7
  6
CONTINUOUS
 10
-10.9406952192
 20
7.6504110412
 30
0.0
 11
-10.9417049933
 21
7.4896492095
 31
0.0
  0
LINE
  5
3E3
100
AcDbEntity
  8
ASSI
100
AcDbLine
 62
7
  6
CONTINUOUS
 10
-10.9406952192
 20
2.6504110412
 30
0.0
 11
-10.9417049933
 21
2.4896492095
 31
0.0
  0
LINE
  5
3E4
100
AcDbEntity
  8
ASSI
100
AcDbLine
 62
7
  6
CONTINUOUS
 10
-10.9411881835
 20
-2.4316214275
 30
0.0
 11
-10.9420621687
 21
-2.560998621
 31
0.0
  0
LINE
  5
3E5
100
AcDbEntity
  8
ASSI
100
AcDbLine
 62
7
  6
CONTINUOUS
 10
-10.9417049933
 20
12.4896492095
 30
0.0
 11
-10.9428033306
 21
12.3421179501
 31
0.0
  0
LINE
  5
3E6
100
AcDbEntity
  8
ASSI
100
AcDbLine
 62
7
  6
CONTINUOUS
 10
-10.9417049933
 20
7.4896492095
 30
0.0
 11
-10.9428033306
 21
7.3421179501
 31
0.0
  0
LINE
  5
3E7
100
AcDbEntity
  8
ASSI
100
AcDbLine
 62
7
  6
CONTINUOUS
 10
-10.9417049933
 20
2.4896492095
 30
0.0
 11
-10.9428033306
 21
2.3421179501
 31
0.0
  0
LINE
  5
3E8
100
AcDbEntity
  8
ASSI
100
AcDbLine
 62
7
  6
CONTINUOUS
 10
-10.9420621687
 20
-2.560998621
 30
0.0
 11
-10.9431850844
 21
-2.7041154018
 31
0.0
  0
LINE
  5
3E9
100
AcDbEntity
  8
ASSI
100
AcDbLine
 62
7
  6
CONTINUOUS
 10
-10.9428033306
 20
12.3421179501
 30
0.0
 11
-10.9439687821
 21
12.2078308046
 31
0.0
  0
LINE
  5
3EA
100
AcDbEntity
  8
ASSI
100
AcDbLine
 62
7
  6
CONTINUOUS
 10
-10.9428033306
 20
7.3421179501
 30
0.0
 11
-10.9439687821
 21
7.2078308046
 31
0.0
  0
LINE
  5
3EB
100
AcDbEntity
  8
ASSI
100
AcDbLine
 62
7
  6
CONTINUOUS
 10
-10.9428033306
 20
2.3421179501
 30
0.0
 11
-10.9439687821
 21
2.2078308046
 31
0.0
  0
LINE
  5
3EC
100
AcDbEntity
  8
ASSI
100
AcDbLine
 62
7
  6
CONTINUOUS
 10
-10.9431850844
 20
-2.7041154018
 30
0.0
 11
-10.9441691185
 21
-2.8132658618
 31
0.0
  0
LINE
  5
3ED
100
AcDbEntity
  8
ASSI
100
AcDbLine
 62
7
  6
CONTINUOUS
 10
-10.9439687821
 20
12.2078308046
 30
0.0
 11
-10.9449880872
 21
12.1059850989
 31
0.0
  0
LINE
  5
3EE
100
AcDbEntity
  8
ASSI
100
AcDbLine
 62
7
  6
CONTINUOUS
 10
-10.9439687821
 20
7.2078308046
 30
0.0
 11
-10.9449880872
 21
7.1059850989
 31
0.0
  0
LINE
  5
3EF
100
AcDbEntity
  8
ASSI
100
AcDbLine
 62
7
  6
CONTINUOUS
 10
-10.9439687821
 20
2.2078308046
 30
0.0
 11
-10.9449880872
 21
2.1059850989
 31
0.0
  0
LINE
  5
3F0
100
AcDbEntity
  8
ASSI
100
AcDbLine
 62
7
  6
CONTINUOUS
 10
-10.9441691185
 20
-2.8132658618
 30
0.0
 11
-10.9451970244
 21
-2.9132956739
 31
0.0
  0
LINE
  5
3F1
100
AcDbEntity
  8
ASSI
100
AcDbLine
 62
7
  6
CONTINUOUS
 10
-10.9449880872
 20
12.1059850989
 30
0.0
 11
-10.9460472638
 21
12.0131887187
 31
0.0
  0
LINE
  5
3F2
100
AcDbEntity
  8
ASSI
100
AcDbLine
 62
7
  6
CONTINUOUS
 10
-10.9449880872
 20
7.1059850989
 30
0.0
 11
-10.9460472638
 21
7.0131887187
 31
0.0
  0
LINE
  5
3F3
100
AcDbEntity
  8
ASSI
100
AcDbLine
 62
7
  6
CONTINUOUS
 10
-10.9449880872
 20
2.1059850989
 30
0.0
 11
-10.9460472638
 21
2.0131887187
 31
0.0
  0
LINE
  5
3F4
100
AcDbEntity
  8
ASSI
100
AcDbLine
 62
7
  6
CONTINUOUS
 10
-10.9451970244
 20
-2.9132956739
 30
0.0
 11
-10.9462628976
 21
-3.0042906971
 31
0.0
  0
LINE
  5
3F5
100
AcDbEntity
  8
ASSI
100
AcDbLine
 62
7
  6
CONTINUOUS
 10
-10.9460472638
 20
12.0131887187
 30
0.0
 11
-10.9471342971
 21
11.9294024916
 31
0.0
  0
LINE
  5
3F6
100
AcDbEntity
  8
ASSI
100
AcDbLine
 62
7
  6
CONTINUOUS
 10
-10.9460472638
 20
7.0131887187
 30
0.0
 11
-10.9471342971
 21
6.9294024916
 31
0.0
  0
LINE
  5
3F7
100
AcDbEntity
  8
ASSI
100
AcDbLine
 62
7
  6
CONTINUOUS
 10
-10.9460472638
 20
2.0131887187
 30
0.0
 11
-10.9471342971
 21
1.9294024916
 31
0.0
  0
LINE
  5
3F8
100
AcDbEntity
  8
ASSI
100
AcDbLine
 62
7
  6
CONTINUOUS
 10
-10.9462628976
 20
-3.0042906971
 30
0.0
 11
-10.9473542396
 21
-3.0862603369
 31
0.0
  0
LINE
  5
3F9
100
AcDbEntity
  8
ASSI
100
AcDbLine
 62
7
  6
CONTINUOUS
 10
-10.9471342971
 20
11.9294024916
 30
0.0
 11
-10.9482417557
 21
11.8547992119
 31
0.0
  0
LINE
  5
3FA
100
AcDbEntity
  8
ASSI
100
AcDbLine
 62
7
  6
CONTINUOUS
 10
-10.9471342971
 20
6.9294024916
 30
0.0
 11
-10.9482417557
 21
6.8547992119
 31
0.0
  0
LINE
  5
3FB
100
AcDbEntity
  8
ASSI
100
AcDbLine
 62
7
  6
CONTINUOUS
 10
-10.9471342971
 20
1.9294024916
 30
0.0
 11
-10.9482417557
 21
1.8547992119
 31
0.0
  0
LINE
  5
3FC
100
AcDbEntity
  8
ASSI
100
AcDbLine
 62
7
  6
CONTINUOUS
 10
-10.9473542396
 20
-3.0862603369
 30
0.0
 11
-10.9484653277
 21
-3.1590052244
 31
0.0
  0
LINE
  5
3FD
100
AcDbEntity
  8
ASSI
100
AcDbLine
 62
7
  6
CONTINUOUS
 10
-10.9482417557
 20
11.8547992119
 30
0.0
 11
-10.9493638341
 21
11.7895040829
 31
0.0
  0
LINE
  5
3FE
100
AcDbEntity
  8
ASSI
100
AcDbLine
 62
7
  6
CONTINUOUS
 10
-10.9482417557
 20
6.8547992119
 30
0.0
 11
-10.9493638341
 21
6.7895040829
 31
0.0
  0
LINE
  5
3FF
100
AcDbEntity
  8
ASSI
100
AcDbLine
 62
7
  6
CONTINUOUS
 10
-10.9482417557
 20
1.8547992119
 30
0.0
 11
-10.9493638341
 21
1.7895040829
 31
0.0
  0
LINE
  5
400
100
AcDbEntity
  8
ASSI
100
AcDbLine
 62
7
  6
CONTINUOUS
 10
-10.9484653277
 20
-3.1590052244
 30
0.0
 11
-10.9495888668
 21
-3.2224355031
 31
0.0
  0
LINE
  5
401
100
AcDbEntity
  8
ASSI
100
AcDbLine
 62
7
  6
CONTINUOUS
 10
-10.9493638341
 20
11.7895040829
 30
0.0
 11
-10.9505005175
 21
11.7328627108
 31
0.0
  0
LINE
  5
402
100
AcDbEntity
  8
ASSI
100
AcDbLine
 62
7
  6
CONTINUOUS
 10
-10.9493638341
 20
6.7895040829
 30
0.0
 11
-10.9505005175
 21
6.7328627108
 31
0.0
  0
LINE
  5
403
100
AcDbEntity
  8
ASSI
100
AcDbLine
 62
7
  6
CONTINUOUS
 10
-10.9493638341
 20
1.7895040829
 30
0.0
 11
-10.9505005175
 21
1.7328627108
 31
0.0
  0
LINE
  5
404
100
AcDbEntity
  8
ASSI
100
AcDbLine
 62
7
  6
CONTINUOUS
 10
-10.9495888668
 20
-3.2224355031
 30
0.0
 11
-10.9505005175
 21
-3.2671372892
 31
0.0
  0
LINE
  5
405
100
AcDbEntity
  8
0
100
AcDbLine
 62
7
  6
CONTINUOUS
 10
3.4633443637
 20
19.8633443637
 30
0.0
 11
3.5
 21
19.9
 31
0.0
  0
LINE
  5
406
100
AcDbEntity
  8
0
100
AcDbLine
 62
7
  6
CONTINUOUS
 10
3.5
 20
19.7
 30
0.0
 11
3.4633443637
 21
19.6633443637
 31
0.0
  0
LINE
  5
407
100
AcDbEntity
  8
0
100
AcDbLine
 62
7
  6
CONTINUOUS
 10
7.1905416262
 20
22.3359700255
 30
0.0
 11
7.2558178298
 21
22.3941821702
 31
0.0
  0
LINE
  5
408
100
AcDbEntity
  8
0
100
AcDbLine
 62
250
  6
CONTINUOUS
 10
11.15
 20
21.900016923
 30
0.0
 11
11.1412731322
 21
21.8941990932
 31
0.0
  0
LINE
  5
409
100
AcDbEntity
  8
CURVE
100
AcDbLine
 62
250
  6
CONTINUOUS
 10
-7.2
 20
8.2130903017
 30
0.0
 11
-7.9428571373
 21
7.8416617137
 31
0.0
  0
LINE
  5
40A
100
AcDbEntity
  8
0
100
AcDbLine
 62
250
  6
CONTINUOUS
 10
11.15
 20
17.6716990487
 30
0.0
 11
11.0278145455
 21
17.6210881763
 31
0.0
  0
LINE
  5
40B
100
AcDbEntity
  8
CURVE
100
AcDbLine
 62
250
  6
CONTINUOUS
 10
3.0
 20
-11.907638
 30
0.0
 11
4.019012
 21
-11.907638
 31
0.0
  0
LINE
  5
40C
100
AcDbEntity
  8
CURVE
100
AcDbLine
 62
250
  6
CONTINUOUS
 10
-8.314285706
 20
-11.8
 30
0.0
 11
-7.9428571373
 21
-11.8
 31
0.0
  0
LINE
  5
40D
100
AcDbEntity
  8
CURVE
100
AcDbLine
 62
250
  6
CONTINUOUS
 10
-7.7571428239
 20
-11.2428571761
 30
0.0
 11
-7.2
 21
-11.2428571761
 31
0.0
  0
LINE
  5
40E
100
AcDbEntity
  8
CURVE
100
AcDbLine
 62
250
  6
CONTINUOUS
 10
-7.2
 20
-10.871428588
 30
0.0
 11
-8.5
 21
-10.871428588
 31
0.0
  0
LINE
  5
40F
100
AcDbEntity
  8
0
100
AcDbLine
 62
250
  6
CONTINUOUS
 10
11.0278145455
 20
-17.6210881763
 30
0.0
 11
11.15
 21
-17.6716990487
 31
0.0
  0
LINE
  5
410
100
AcDbEntity
  8
0
100
AcDbLine
 62
250
  6
CONTINUOUS
 10
11.1412731322
 20
-21.8941990932
 30
0.0
 11
11.15
 21
-21.900016923
 31
0.0
  0
LINE
  5
411
100
AcDbEntity
  8
0
100
AcDbLine
 62
7
  6
CONTINUOUS
 10
7.1905416262
 20
-22.3359700255
 30
0.0
 11
7.2558178298
 21
-22.3941821702
 31
0.0
  0
LINE
  5
412
100
AcDbEntity
  8
0
100
AcDbLine
 62
7
  6
CONTINUOUS
 10
3.5
 20
-19.9
 30
0.0
 11
3.4633443637
 21
-19.8633443637
 31
0.0
  0
LINE
  5
413
100
AcDbEntity
  8
0
100
AcDbLine
 62
7
  6
CONTINUOUS
 10
3.5
 20
-19.7
 30
0.0
 11
3.4633443637
 21
-19.6633443637
 31
0.0
  0
LINE
  5
414
100
AcDbEntity
  8
0
100
AcDbLine
 62
250
  6
CONTINUOUS
 10
-10.145628166
 20
-23.8443375673
 30
0.0
 11
-10.15
 21
-23.4104851482
 31
0.0
  0
LINE
  5
415
100
AcDbEntity
  8
0
100
AcDbLine
 62
250
  6
CONTINUOUS
 10
-9.8956323968
 20
-23.6278312164
 30
0.0
 11
-9.9007229979
 21
-23.1226497308
 31
0.0
  0
LINE
  5
416
100
AcDbEntity
  8
0
100
AcDbLine
 62
250
  6
CONTINUOUS
 10
-10.145628166
 20
-24.2456323968
 30
0.0
 11
-10.1456238859
 21
-24.2470868299
 31
0.0
  0
LINE
  5
417
100
AcDbEntity
  8
0
100
AcDbLine
 62
7
  6
CONTINUOUS
 10
-10.15
 20
-22.4
 30
0.0
 11
-10.15
 21
-23.8443375673
 31
0.0
  0
LINE
  5
418
100
AcDbEntity
  8
0
100
AcDbLine
 62
7
  6
CONTINUOUS
 10
-10.15
 20
22.4
 30
0.0
 11
-10.15
 21
23.8443375673
 31
0.0
  0
LINE
  5
419
100
AcDbEntity
  8
0
100
AcDbLine
 62
7
  6
CONTINUOUS
 10
-10.145628166
 20
24.2456323968
 30
0.0
 11
-10.145628166
 21
23.8443375673
 31
0.0
  0
LINE
  5
41A
100
AcDbEntity
  8
0
100
AcDbLine
 62
7
  6
CONTINUOUS
 10
-10.145628166
 20
-23.8443375673
 30
0.0
 11
-10.145628166
 21
-24.2456323968
 31
0.0
  0
LINE
  5
41B
100
AcDbEntity
  8
0
100
AcDbLine
 62
250
  6
CONTINUOUS
 10
-9.8956323968
 20
-23.6278312164
 30
0.0
 11
-9.8956323968
 21
-24.495628166
 31
0.0
  0
LINE
  5
41C
100
AcDbEntity
  8
0
100
AcDbLine
 62
250
  6
CONTINUOUS
 10
-9.8956323968
 20
23.6278312164
 30
0.0
 11
-9.8956323968
 21
24.495628166
 31
0.0
  0
LINE
  5
41D
100
AcDbEntity
  8
ASSI
100
AcDbLine
 62
7
  6
CONTINUOUS
 10
-9.8
 20
-3.15
 30
0.0
 11
-9.8
 21
1.15
 31
0.0
  0
LINE
  5
41E
100
AcDbEntity
  8
ASSI
100
AcDbLine
 62
7
  6
CONTINUOUS
 10
-9.8
 20
1.85
 30
0.0
 11
-9.8
 21
6.15
 31
0.0
  0
LINE
  5
41F
100
AcDbEntity
  8
ASSI
100
AcDbLine
 62
7
  6
CONTINUOUS
 10
-9.8
 20
6.85
 30
0.0
 11
-9.8
 21
11.15
 31
0.0
  0
LINE
  5
420
100
AcDbEntity
  8
ASSI
100
AcDbLine
 62
7
  6
CONTINUOUS
 10
-9.8
 20
11.85
 30
0.0
 11
-9.8
 21
16.15
 31
0.0
  0
LINE
  5
421
100
AcDbEntity
  8
0
100
AcDbLine
 62
7
  6
CONTINUOUS
 10
-9.39
 20
18.2500782857
 30
0.0
 11
-9.39
 21
18.2130903017
 31
0.0
  0
LINE
  5
422
100
AcDbEntity
  8
0
100
AcDbLine
 62
250
  6
CONTINUOUS
 10
-9.2
 20
-18.6
 30
0.0
 11
-9.2
 21
-18.2130903017
 31
0.0
  0
LINE
  5
423
100
AcDbEntity
  8
0
100
AcDbLine
 62
250
  6
CONTINUOUS
 10
-10.15
 20
23.4104851482
 30
0.0
 11
-10.145628166
 21
23.8443375673
 31
0.0
  0
LINE
  5
424
100
AcDbEntity
  8
0
100
AcDbLine
 62
250
  6
CONTINUOUS
 10
-9.9007229979
 20
23.1226497308
 30
0.0
 11
-9.8956323968
 21
23.6278312164
 31
0.0
  0
LINE
  5
425
100
AcDbEntity
  8
DRAFT
100
AcDbLine
 62
7
  6
CONTINUOUS
 10
6.6047224135
 20
20.1047224135
 30
0.0
 11
6.5043634339
 21
20.0043634339
 31
0.0
  0
LINE
  5
426
100
AcDbEntity
  8
DRAFT
100
AcDbLine
 62
7
  6
CONTINUOUS
 10
6.6047224135
 20
19.8047224135
 30
0.0
 11
6.5043634339
 21
19.7043634339
 31
0.0
  0
LINE
  5
427
100
AcDbEntity
  8
CURVE
100
AcDbLine
 62
250
  6
CONTINUOUS
 10
-7.2
 20
5.5202332031
 30
0.0
 11
-7.3857142746
 21
5.3345190059
 31
0.0
  0
LINE
  5
428
100
AcDbEntity
  8
IMPORT_IGES
100
AcDbLine
 62
7
  6
CONTINUOUS
 10
4.006
 20
15.75
 30
0.0
 11
3.796
 21
15.6
 31
0.0
  0
LINE
  5
429
100
AcDbEntity
  8
CURVE
100
AcDbLine
 62
250
  6
CONTINUOUS
 10
-0.5
 20
-10.1017899598
 30
0.0
 11
-3.5
 21
-10.1017899598
 31
0.0
  0
LINE
  5
42A
100
AcDbEntity
  8
CURVE
100
AcDbLine
 62
250
  6
CONTINUOUS
 10
0.5928571284
 20
-9.4446469869
 30
0.0
 11
-0.5
 21
-9.4446469869
 31
0.0
  0
LINE
  5
42B
100
AcDbEntity
  8
CURVE
100
AcDbLine
 62
250
  6
CONTINUOUS
 10
0.7142857432
 20
-8.8779804553
 30
0.0
 11
-0.5
 21
-8.8779804553
 31
0.0
  0
LINE
  5
42C
100
AcDbEntity
  8
CURVE
100
AcDbLine
 62
250
  6
CONTINUOUS
 10
3.45
 20
-8.762401574
 30
0.0
 11
4.4666670313
 21
-8.762401574
 31
0.0
  0
LINE
  5
42D
100
AcDbEntity
  8
CURVE
100
AcDbLine
 62
250
  6
CONTINUOUS
 10
8.5333340618
 20
-8.762401574
 30
0.0
 11
9.5499999985
 21
-8.762401574
 31
0.0
  0
LINE
  5
42E
100
AcDbEntity
  8
DRAFT
100
AcDbLine
 62
7
  6
CONTINUOUS
 10
6.6047224135
 20
-20.1047224135
 30
0.0
 11
6.5043634339
 21
-20.0043634339
 31
0.0
  0
LINE
  5
42F
100
AcDbEntity
  8
DRAFT
100
AcDbLine
 62
7
  6
CONTINUOUS
 10
6.6047224135
 20
-19.8047224135
 30
0.0
 11
6.5043634339
 21
-19.7043634339
 31
0.0
  0
LINE
  5
430
100
AcDbEntity
  8
0
100
AcDbLine
 62
250
  6
CONTINUOUS
 10
-7.5043676032
 20
23.6278312164
 30
0.0
 11
-7.4992770021
 21
23.1226497308
 31
0.0
  0
LINE
  5
431
100
AcDbEntity
  8
0
100
AcDbLine
 62
250
  6
CONTINUOUS
 10
-7.254371834
 20
23.8443375673
 30
0.0
 11
-7.25
 21
23.4104851482
 31
0.0
  0
LINE
  5
432
100
AcDbEntity
  8
0
100
AcDbLine
 62
7
  6
CONTINUOUS
 10
-8.6
 20
20.85
 30
0.0
 11
-8.6
 21
18.2574425998
 31
0.0
  0
LINE
  5
433
100
AcDbEntity
  8
0
100
AcDbLine
 62
7
  6
CONTINUOUS
 10
-8.6
 20
-18.6
 30
0.0
 11
-8.6
 21
-20.85
 31
0.0
  0
LINE
  5
434
100
AcDbEntity
  8
CURVE
100
AcDbLine
 62
250
  6
CONTINUOUS
 10
-8.5
 20
4.8083283674
 30
0.0
 11
-8.5
 21
4.251185466
 31
0.0
  0
LINE
  5
435
100
AcDbEntity
  8
CURVE
100
AcDbLine
 62
250
  6
CONTINUOUS
 10
-8.5
 20
-3.0845290411
 30
0.0
 11
-8.5
 21
-3.5488142241
 31
0.0
  0
LINE
  5
436
100
AcDbEntity
  8
CURVE
100
AcDbLine
 62
250
  6
CONTINUOUS
 10
-8.5
 20
-11.2428571761
 30
0.0
 11
-8.5
 21
-11.6142857254
 31
0.0
  0
LINE
  5
437
100
AcDbEntity
  8
CURVE
100
AcDbLine
 62
250
  6
CONTINUOUS
 10
-8.5
 20
-13.8428570986
 30
0.0
 11
-8.5
 21
-14.2142858028
 31
0.0
  0
LINE
  5
438
100
AcDbEntity
  8
CURVE
100
AcDbLine
 62
250
  6
CONTINUOUS
 10
-8.5
 20
-15.1428570986
 30
0.0
 11
-8.5
 21
-15.05
 31
0.0
  0
LINE
  5
439
100
AcDbEntity
  8
CURVE
100
AcDbLine
 62
250
  6
CONTINUOUS
 10
-8.5
 20
5.5202332031
 30
0.0
 11
-8.5
 21
5.984518851
 31
0.0
  0
LINE
  5
43A
100
AcDbEntity
  8
0
100
AcDbLine
 62
7
  6
CONTINUOUS
 10
-8.2325449351
 20
-21.4051134101
 30
0.0
 11
-8.2325449351
 21
-20.9087268678
 31
0.0
  0
LINE
  5
43B
100
AcDbEntity
  8
0
100
AcDbLine
 62
7
  6
CONTINUOUS
 10
-8.2325449351
 20
20.9087268678
 30
0.0
 11
-8.2325449351
 21
21.4051134101
 31
0.0
  0
LINE
  5
43C
100
AcDbEntity
  8
CURVE
100
AcDbLine
 62
250
  6
CONTINUOUS
 10
-8.128571412
 20
6.9749950599
 30
0.0
 11
-8.128571412
 21
6.4797569167
 31
0.0
  0
LINE
  5
43D
100
AcDbEntity
  8
CURVE
100
AcDbLine
 62
250
  6
CONTINUOUS
 10
-8.128571412
 20
-2.0940522898
 30
0.0
 11
-8.128571412
 21
-2.5892903555
 31
0.0
  0
LINE
  5
43E
100
AcDbEntity
  8
0
100
AcDbLine
 62
7
  6
CONTINUOUS
 10
-8.0665695018
 20
21.5834304982
 30
0.0
 11
-8.0665695018
 21
21.5710888434
 31
0.0
  0
LINE
  5
43F
100
AcDbEntity
  8
0
100
AcDbLine
 62
250
  6
CONTINUOUS
 10
-8.0665695018
 20
21.4537354271
 30
0.0
 11
-8.0665695018
 21
20.9917082642
 31
0.0
  0
LINE
  5
440
100
AcDbEntity
  8
0
100
AcDbLine
 62
7
  6
CONTINUOUS
 10
-8.0665695018
 20
20.9087268678
 30
0.0
 11
-8.0665695018
 21
20.9
 31
0.0
  0
LINE
  5
441
100
AcDbEntity
  8
0
100
AcDbLine
 62
7
  6
CONTINUOUS
 10
-8.0665695018
 20
-20.9
 30
0.0
 11
-8.0665695018
 21
-20.9087268678
 31
0.0
  0
LINE
  5
442
100
AcDbEntity
  8
0
100
AcDbLine
 62
250
  6
CONTINUOUS
 10
-8.0665695018
 20
-20.9917082642
 30
0.0
 11
-8.0665695018
 21
-21.4537354271
 31
0.0
  0
LINE
  5
443
100
AcDbEntity
  8
0
100
AcDbLine
 62
7
  6
CONTINUOUS
 10
-8.0665695018
 20
-21.5710888434
 30
0.0
 11
-8.0665695018
 21
-21.5834304982
 31
0.0
  0
LINE
  5
444
100
AcDbEntity
  8
CURVE
100
AcDbLine
 62
250
  6
CONTINUOUS
 10
-8.0357142746
 20
-12.1714285493
 30
0.0
 11
-8.0357142746
 21
-12.7285714507
 31
0.0
  0
LINE
  5
445
100
AcDbEntity
  8
CURVE
100
AcDbLine
 62
250
  6
CONTINUOUS
 10
-7.7571428239
 20
-14.2142858028
 30
0.0
 11
-7.7571428239
 21
-13.8428570986
 31
0.0
  0
LINE
  5
446
100
AcDbEntity
  8
CURVE
100
AcDbLine
 62
250
  6
CONTINUOUS
 10
-7.7571428239
 20
-11.6142857254
 30
0.0
 11
-7.7571428239
 21
-11.2428571761
 31
0.0
  0
LINE
  5
447
100
AcDbEntity
  8
CURVE
100
AcDbLine
 62
250
  6
CONTINUOUS
 10
-7.7571428239
 20
4.4368999731
 30
0.0
 11
-7.7571428239
 21
4.8083283674
 31
0.0
  0
LINE
  5
448
100
AcDbEntity
  8
0
100
AcDbLine
 62
250
  6
CONTINUOUS
 10
-7.5666456542
 20
21.3359869487
 30
0.0
 11
-7.5666456542
 21
20.9959955457
 31
0.0
  0
LINE
  5
449
100
AcDbEntity
  8
0
100
AcDbLine
 62
250
  6
CONTINUOUS
 10
-7.5666456542
 20
-20.9959955457
 30
0.0
 11
-7.5666456542
 21
-21.3359869487
 31
0.0
  0
LINE
  5
44A
100
AcDbEntity
  8
0
100
AcDbLine
 62
250
  6
CONTINUOUS
 10
-7.5043676032
 20
-23.6278312164
 30
0.0
 11
-7.5043676032
 21
-24.495628166
 31
0.0
  0
LINE
  5
44B
100
AcDbEntity
  8
0
100
AcDbLine
 62
250
  6
CONTINUOUS
 10
-7.5043676032
 20
23.6278312164
 30
0.0
 11
-7.5043676032
 21
24.495628166
 31
0.0
  0
LINE
  5
44C
100
AcDbEntity
  8
0
100
AcDbLine
 62
7
  6
CONTINUOUS
 10
-7.4541107013
 20
-20.85
 30
0.0
 11
-7.4541107013
 21
-18.6
 31
0.0
  0
LINE
  5
44D
100
AcDbEntity
  8
0
100
AcDbLine
 62
7
  6
CONTINUOUS
 10
-7.4541107013
 20
18.2574425998
 30
0.0
 11
-7.4541107013
 21
20.85
 31
0.0
  0
LINE
  5
44E
100
AcDbEntity
  8
0
100
AcDbLine
 62
7
  6
CONTINUOUS
 10
-7.4366556363
 20
19.6633443637
 30
0.0
 11
-7.4366556363
 21
18.2661694676
 31
0.0
  0
LINE
  5
44F
100
AcDbEntity
  8
0
100
AcDbLine
 62
7
  6
CONTINUOUS
 10
-7.4366556363
 20
-19.6633443637
 30
0.0
 11
-7.4366556363
 21
-18.6
 31
0.0
  0
LINE
  5
450
100
AcDbEntity
  8
0
100
AcDbLine
 62
7
  6
CONTINUOUS
 10
-7.4
 20
-20.85
 30
0.0
 11
-7.4
 21
-19.7
 31
0.0
  0
LINE
  5
451
100
AcDbEntity
  8
0
100
AcDbLine
 62
7
  6
CONTINUOUS
 10
-7.4
 20
19.7
 30
0.0
 11
-7.4
 21
20.85
 31
0.0
  0
LINE
  5
452
100
AcDbEntity
  8
DRAFT
100
AcDbLine
 62
7
  6
CONTINUOUS
 10
-7.3
 20
-20.9
 30
0.0
 11
-7.3
 21
-20.0
 31
0.0
  0
LINE
  5
453
100
AcDbEntity
  8
DRAFT
100
AcDbLine
 62
7
  6
CONTINUOUS
 10
-7.3
 20
20.0
 30
0.0
 11
-7.3
 21
20.9
 31
0.0
  0
LINE
  5
454
100
AcDbEntity
  8
DRAFT
100
AcDbLine
 62
7
  6
CONTINUOUS
 10
-7.2956365661
 20
-19.7043634339
 30
0.0
 11
-7.2956365661
 21
-20.0
 31
0.0
  0
LINE
  5
455
100
AcDbEntity
  8
DRAFT
100
AcDbLine
 62
7
  6
CONTINUOUS
 10
-7.2956365661
 20
19.7043634339
 30
0.0
 11
-7.2956365661
 21
20.0
 31
0.0
  0
LINE
  5
456
100
AcDbEntity
  8
0
100
AcDbLine
 62
7
  6
CONTINUOUS
 10
-7.254371834
 20
-24.2456323968
 30
0.0
 11
-7.254371834
 21
-23.8443375673
 31
0.0
  0
LINE
  5
457
100
AcDbEntity
  8
0
100
AcDbLine
 62
7
  6
CONTINUOUS
 10
-7.254371834
 20
23.8443375673
 30
0.0
 11
-7.254371834
 21
24.2456323968
 31
0.0
  0
LINE
  5
458
100
AcDbEntity
  8
0
100
AcDbLine
 62
7
  6
CONTINUOUS
 10
-7.25
 20
-22.4
 30
0.0
 11
-7.25
 21
-23.8443375673
 31
0.0
  0
LINE
  5
459
100
AcDbEntity
  8
0
100
AcDbLine
 62
7
  6
CONTINUOUS
 10
-7.25
 20
22.4
 30
0.0
 11
-7.25
 21
23.8443375673
 31
0.0
  0
LINE
  5
45A
100
AcDbEntity
  8
CURVE
100
AcDbLine
 62
250
  6
CONTINUOUS
 10
-7.2
 20
5.984518851
 30
0.0
 11
-7.2
 21
5.5202332031
 31
0.0
  0
LINE
  5
45B
100
AcDbEntity
  8
CURVE
100
AcDbLine
 62
250
  6
CONTINUOUS
 10
-7.2
 20
4.8083283674
 30
0.0
 11
-7.2
 21
4.251185466
 31
0.0
  0
LINE
  5
45C
100
AcDbEntity
  8
CURVE
100
AcDbLine
 62
250
  6
CONTINUOUS
 10
-7.2
 20
-0.8559574354
 30
0.0
 11
-7.2
 21
-1.5988142241
 31
0.0
  0
LINE
  5
45D
100
AcDbEntity
  8
CURVE
100
AcDbLine
 62
250
  6
CONTINUOUS
 10
-7.2
 20
-11.2428571761
 30
0.0
 11
-7.2
 21
-11.8
 31
0.0
  0
LINE
  5
45E
100
AcDbEntity
  8
CURVE
100
AcDbLine
 62
250
  6
CONTINUOUS
 10
-7.2
 20
-13.8428570986
 30
0.0
 11
-7.2
 21
-14.4
 31
0.0
  0
LINE
  5
45F
100
AcDbEntity
  8
CURVE
100
AcDbLine
 62
250
  6
CONTINUOUS
 10
-7.2
 20
-15.05
 30
0.0
 11
-7.2
 21
-15.1428570986
 31
0.0
  0
LINE
  5
460
100
AcDbEntity
  8
DRAFT
100
AcDbLine
 62
7
  6
CONTINUOUS
 10
-7.1952775865
 20
20.9959955457
 30
0.0
 11
-7.1952775865
 21
19.8047224135
 31
0.0
  0
LINE
  5
461
100
AcDbEntity
  8
DRAFT
100
AcDbLine
 62
7
  6
CONTINUOUS
 10
-7.1952775865
 20
-19.8047224135
 30
0.0
 11
-7.1952775865
 21
-20.9959955457
 31
0.0
  0
LINE
  5
462
100
AcDbEntity
  8
0
100
AcDbLine
 62
250
  6
CONTINUOUS
 10
-7.4992770021
 20
-23.1226497308
 30
0.0
 11
-7.5043676032
 21
-23.6278312164
 31
0.0
  0
LINE
  5
463
100
AcDbEntity
  8
0
100
AcDbLine
 62
250
  6
CONTINUOUS
 10
-7.25
 20
-23.4104851482
 30
0.0
 11
-7.254371834
 21
-23.8443375673
 31
0.0
  0
LINE
  5
464
100
AcDbEntity
  8
ASSI
100
AcDbLine
 62
7
  6
CONTINUOUS
 10
-0.25
 20
11.75
 30
0.0
 11
0.25
 21
12.25
 31
0.0
  0
LINE
  5
465
100
AcDbEntity
  8
ASSI
100
AcDbLine
 62
7
  6
CONTINUOUS
 10
4.75
 20
16.25
 30
0.0
 11
4.25
 21
15.75
 31
0.0
  0
LINE
  5
466
100
AcDbEntity
  8
CURVE
100
AcDbLine
 62
250
  6
CONTINUOUS
 10
9.185714294
 20
12.8642856479
 30
0.0
 11
9.371428588
 21
12.9571429014
 31
0.0
  0
LINE
  5
467
100
AcDbEntity
  8
CURVE
100
AcDbLine
 62
250
  6
CONTINUOUS
 10
-7.2
 20
6.7273759496
 30
0.0
 11
-8.5
 21
6.3559474003
 31
0.0
  0
LINE
  5
468
100
AcDbEntity
  8
CURVE
100
AcDbLine
 62
250
  6
CONTINUOUS
 10
-0.5
 20
-8.3517899598
 30
0.0
 11
0.7142857432
 21
-8.3517899598
 31
0.0
  0
LINE
  5
469
100
AcDbEntity
  8
CURVE
100
AcDbLine
 62
250
  6
CONTINUOUS
 10
0.5928571284
 20
-7.8660755004
 30
0.0
 11
-0.5
 21
-7.8660755004
 31
0.0
  0
LINE
  5
46A
100
AcDbEntity
  8
CURVE
100
AcDbLine
 62
250
  6
CONTINUOUS
 10
0.7142857432
 20
-7.2994089688
 30
0.0
 11
-0.5
 21
-7.2994089688
 31
0.0
  0
LINE
  5
46B
100
AcDbEntity
  8
CURVE
100
AcDbLine
 62
250
  6
CONTINUOUS
 10
-7.7571428239
 20
-4.2916710127
 30
0.0
 11
-7.2
 21
-4.6631006468
 31
0.0
  0
LINE
  5
46C
100
AcDbEntity
  8
DRAFT
100
AcDbLine
 62
7
  6
CONTINUOUS
 10
-6.6047224135
 20
20.1047224135
 30
0.0
 11
-6.6047224135
 21
19.8047224135
 31
0.0
  0
LINE
  5
46D
100
AcDbEntity
  8
DRAFT
100
AcDbLine
 62
7
  6
CONTINUOUS
 10
-6.6047224135
 20
-19.8047224135
 30
0.0
 11
-6.6047224135
 21
-20.1047224135
 31
0.0
  0
LINE
  5
46E
100
AcDbEntity
  8
DRAFT
100
AcDbLine
 62
7
  6
CONTINUOUS
 10
-6.5043634339
 20
20.0043634339
 30
0.0
 11
-6.5043634339
 21
19.7043634339
 31
0.0
  0
LINE
  5
46F
100
AcDbEntity
  8
DRAFT
100
AcDbLine
 62
7
  6
CONTINUOUS
 10
-6.5043634339
 20
-19.7043634339
 30
0.0
 11
-6.5043634339
 21
-20.0043634339
 31
0.0
  0
LINE
  5
470
100
AcDbEntity
  8
CURVE
100
AcDbLine
 62
250
  6
CONTINUOUS
 10
-6.382512
 20
10.43959
 30
0.0
 11
-6.382512
 21
11.928126
 31
0.0
  0
LINE
  5
471
100
AcDbEntity
  8
ASSI
100
AcDbLine
 62
250
  6
CONTINUOUS
 10
-5.7
 20
-18.6
 30
0.0
 11
-5.7
 21
-18.2130903017
 31
0.0
  0
LINE
  5
472
100
AcDbEntity
  8
CURVE
100
AcDbLine
 62
250
  6
CONTINUOUS
 10
-5.617512
 20
10.43959
 30
0.0
 11
-5.617512
 21
11.928126
 31
0.0
  0
LINE
  5
473
100
AcDbEntity
  8
IMPORT_IGES
100
AcDbLine
 62
7
  6
CONTINUOUS
 10
4.006
 20
10.75
 30
0.0
 11
3.796
 21
10.6
 31
0.0
  0
LINE
  5
474
100
AcDbEntity
  8
CURVE
100
AcDbLine
 62
250
  6
CONTINUOUS
 10
10.1142857254
 20
12.4
 30
0.0
 11
9.9285714507
 21
12.3071429014
 31
0.0
  0
LINE
  5
475
100
AcDbEntity
  8
CURVE
100
AcDbLine
 62
250
  6
CONTINUOUS
 10
-0.5
 20
-6.7732184733
 30
0.0
 11
0.7142857432
 21
-6.7732184733
 31
0.0
  0
LINE
  5
476
100
AcDbEntity
  8
ASSI
100
AcDbLine
 62
7
  6
CONTINUOUS
 10
-4.7
 20
-18.6
 30
0.0
 11
-4.7
 21
-18.2130903017
 31
0.0
  0
LINE
  5
477
100
AcDbEntity
  8
0
100
AcDbLine
 62
7
  6
CONTINUOUS
 10
-4.45
 20
24.0
 30
0.0
 11
-4.45
 21
23.3679449472
 31
0.0
  0
LINE
  5
478
100
AcDbEntity
  8
0
100
AcDbLine
 62
7
  6
CONTINUOUS
 10
-4.45
 20
22.9320550528
 30
0.0
 11
-4.45
 21
22.4
 31
0.0
  0
LINE
  5
479
100
AcDbEntity
  8
0
100
AcDbLine
 62
7
  6
CONTINUOUS
 10
-4.45
 20
-22.4
 30
0.0
 11
-4.45
 21
-22.9320550528
 31
0.0
  0
LINE
  5
47A
100
AcDbEntity
  8
0
100
AcDbLine
 62
7
  6
CONTINUOUS
 10
-4.45
 20
-23.3679449472
 30
0.0
 11
-4.45
 21
-24.0
 31
0.0
  0
LINE
  5
47B
100
AcDbEntity
  8
0
100
AcDbLine
 62
7
  6
CONTINUOUS
 10
-4.406077753
 20
-23.9538922731
 30
0.0
 11
-4.406077753
 21
-22.356077753
 31
0.0
  0
LINE
  5
47C
100
AcDbEntity
  8
0
100
AcDbLine
 62
7
  6
CONTINUOUS
 10
-4.406077753
 20
22.356077753
 30
0.0
 11
-4.406077753
 21
23.9538922731
 31
0.0
  0
LINE
  5
47D
100
AcDbEntity
  8
ASSI
100
AcDbLine
 62
7
  6
CONTINUOUS
 10
-4.0130903017
 20
19.3131017248
 30
0.0
 11
-4.0130903017
 21
18.5130788786
 31
0.0
  0
LINE
  5
47E
100
AcDbEntity
  8
ASSI
100
AcDbLine
 62
7
  6
CONTINUOUS
 10
-4.0130903017
 20
-19.3131017248
 30
0.0
 11
-4.0130903017
 21
-18.2130903017
 31
0.0
  0
LINE
  5
47F
100
AcDbEntity
  8
CURVE
100
AcDbLine
 62
250
  6
CONTINUOUS
 10
-3.5
 20
-10.1017899598
 30
0.0
 11
-3.5
 21
-15.3517899598
 31
0.0
  0
LINE
  5
480
100
AcDbEntity
  8
0
100
AcDbLine
 62
7
  6
CONTINUOUS
 10
-3.5
 20
-19.9
 30
0.0
 11
-3.5
 21
-19.7
 31
0.0
  0
LINE
  5
481
100
AcDbEntity
  8
0
100
AcDbLine
 62
7
  6
CONTINUOUS
 10
-3.5
 20
19.7
 30
0.0
 11
-3.5
 21
19.9
 31
0.0
  0
LINE
  5
482
100
AcDbEntity
  8
0
100
AcDbLine
 62
7
  6
CONTINUOUS
 10
-3.4633443637
 20
-19.8633443637
 30
0.0
 11
-3.4633443637
 21
-19.6633443637
 31
0.0
  0
LINE
  5
483
100
AcDbEntity
  8
0
100
AcDbLine
 62
7
  6
CONTINUOUS
 10
-3.4633443637
 20
19.6633443637
 30
0.0
 11
-3.4633443637
 21
19.8633443637
 31
0.0
  0
LINE
  5
484
100
AcDbEntity
  8
ASSI
100
AcDbLine
 62
7
  6
CONTINUOUS
 10
-0.25
 20
6.75
 30
0.0
 11
0.25
 21
7.25
 31
0.0
  0
LINE
  5
485
100
AcDbEntity
  8
ASSI
100
AcDbLine
 62
7
  6
CONTINUOUS
 10
4.75
 20
11.25
 30
0.0
 11
4.25
 21
10.75
 31
0.0
  0
LINE
  5
486
100
AcDbEntity
  8
CURVE
100
AcDbLine
 62
250
  6
CONTINUOUS
 10
7.65
 20
13.3214285553
 30
0.0
 11
7.3785714447
 21
13.05
 31
0.0
  0
LINE
  5
487
100
AcDbEntity
  8
CURVE
100
AcDbLine
 62
250
  6
CONTINUOUS
 10
-7.2
 20
2.0226141702
 30
0.0
 11
-8.5
 21
1.3726141702
 31
0.0
  0
LINE
  5
488
100
AcDbEntity
  8
CURVE
100
AcDbLine
 62
250
  6
CONTINUOUS
 10
7.65
 20
9.0
 30
0.0
 11
5.75
 21
8.05
 31
0.0
  0
LINE
  5
489
100
AcDbEntity
  8
CURVE
100
AcDbLine
 62
250
  6
CONTINUOUS
 10
-0.2571428463
 20
-4.9517899598
 30
0.0
 11
0.2285714358
 21
-4.9517899598
 31
0.0
  0
LINE
  5
48A
100
AcDbEntity
  8
CURVE
100
AcDbLine
 62
250
  6
CONTINUOUS
 10
-7.7571428239
 20
-4.2916710127
 30
0.0
 11
-8.5
 21
-4.2916710127
 31
0.0
  0
LINE
  5
48B
100
AcDbEntity
  8
CURVE
100
AcDbLine
 62
250
  6
CONTINUOUS
 10
0.35
 20
-4.1017899598
 30
0.0
 11
-0.2571428463
 21
-4.1017899598
 31
0.0
  0
LINE
  5
48C
100
AcDbEntity
  8
CURVE
100
AcDbLine
 62
250
  6
CONTINUOUS
 10
-1.0
 20
-4.1017899598
 30
0.0
 11
-3.0
 21
-4.1017899598
 31
0.0
  0
LINE
  5
48D
100
AcDbEntity
  8
CURVE
100
AcDbLine
 62
250
  6
CONTINUOUS
 10
9.975
 20
-3.721875
 30
0.0
 11
9.934375
 21
-3.721875
 31
0.0
  0
LINE
  5
48E
100
AcDbEntity
  8
CURVE
100
AcDbLine
 62
250
  6
CONTINUOUS
 10
9.40625
 20
-3.6
 30
0.0
 11
9.284375
 21
-3.6
 31
0.0
  0
LINE
  5
48F
100
AcDbEntity
  8
ASSI
100
AcDbLine
 62
7
  6
CONTINUOUS
 10
4.75
 20
-3.5
 30
0.0
 11
-0.25
 21
-3.5
 31
0.0
  0
LINE
  5
490
100
AcDbEntity
  8
CURVE
100
AcDbLine
 62
250
  6
CONTINUOUS
 10
-8.5
 20
-1.9702432383
 30
0.0
 11
-7.2
 21
-2.3416710127
 31
0.0
  0
LINE
  5
491
100
AcDbEntity
  8
CURVE
100
AcDbLine
 62
250
  6
CONTINUOUS
 10
4.7198736077
 20
-6.2855004023
 30
0.0
 11
3.45
 21
-5.7124015748
 31
0.0
  0
LINE
  5
492
100
AcDbEntity
  8
CURVE
100
AcDbLine
 62
250
  6
CONTINUOUS
 10
7.1272849049
 20
-7.3719747235
 30
0.0
 11
5.9013941147
 21
-6.8187252987
 31
0.0
  0
LINE
  5
493
100
AcDbEntity
  8
CURVE
100
AcDbLine
 62
250
  6
CONTINUOUS
 10
3.45
 20
-6.7290675115
 30
0.0
 11
4.0108192328
 21
-6.9994550129
 31
0.0
  0
LINE
  5
494
100
AcDbEntity
  8
CURVE
100
AcDbLine
 62
250
  6
CONTINUOUS
 10
4.9464807807
 20
-7.4505645669
 30
0.0
 11
5.4245268551
 21
-7.6810453012
 31
0.0
  0
LINE
  5
495
100
AcDbEntity
  8
CURVE
100
AcDbLine
 62
250
  6
CONTINUOUS
 10
0.8357142568
 20
-4.3446471135
 30
0.0
 11
0.35
 21
-4.1017899598
 31
0.0
  0
LINE
  5
496
100
AcDbEntity
  8
CURVE
100
AcDbLine
 62
250
  6
CONTINUOUS
 10
5.089722
 20
-11.624378
 30
0.0
 11
10.1
 21
-16.56101
 31
0.0
  0
LINE
  5
497
100
AcDbEntity
  8
CURVE
100
AcDbLine
 62
250
  6
CONTINUOUS
 10
-0.5
 20
-4.7089328314
 30
0.0
 11
-0.2571428463
 21
-4.9517899598
 31
0.0
  0
LINE
  5
498
100
AcDbEntity
  8
DRAFT
100
AcDbLine
 62
7
  6
CONTINUOUS
 10
-3.5005407234
 20
20.0619607613
 30
0.0
 11
-3.5001534346
 21
20.0175818656
 31
0.0
  0
LINE
  5
499
100
AcDbEntity
  8
0
100
AcDbLine
 62
7
  6
CONTINUOUS
 10
-3.5205544631
 20
22.355308184
 30
0.0
 11
-3.5348577163
 21
23.994298655
 31
0.0
  0
LINE
  5
49A
100
AcDbEntity
  8
0
100
AcDbLine
 62
7
  6
CONTINUOUS
 10
-2.992145819
 20
20.8
 30
0.0
 11
-3.0057033248
 21
22.3535362903
 31
0.0
  0
LINE
  5
49B
100
AcDbEntity
  8
0
100
AcDbLine
 62
250
  6
CONTINUOUS
 10
-1.5009544263
 20
-20.0696217518
 30
0.0
 11
-1.5015242349
 21
-19.8844866796
 31
0.0
  0
LINE
  5
49C
100
AcDbEntity
  8
CURVE
100
AcDbLine
 62
250
  6
CONTINUOUS
 10
-3.0
 20
-4.1017899598
 30
0.0
 11
-3.0
 21
-10.1017899598
 31
0.0
  0
LINE
  5
49D
100
AcDbEntity
  8
CURVE
100
AcDbLine
 62
250
  6
CONTINUOUS
 10
-2.9
 20
-4.1017899598
 30
0.0
 11
-2.9
 21
-10.1017899598
 31
0.0
  0
LINE
  5
49E
100
AcDbEntity
  8
CURVE
100
AcDbLine
 62
250
  6
CONTINUOUS
 10
-2.8
 20
-4.1017899598
 30
0.0
 11
-2.8
 21
-10.1017899598
 31
0.0
  0
LINE
  5
49F
100
AcDbEntity
  8
CURVE
100
AcDbLine
 62
250
  6
CONTINUOUS
 10
-2.7
 20
-4.1017899598
 30
0.0
 11
-2.7
 21
-10.1017899598
 31
0.0
  0
LINE
  5
4A0
100
AcDbEntity
  8
CURVE
100
AcDbLine
 62
250
  6
CONTINUOUS
 10
-2.6
 20
-4.1017899598
 30
0.0
 11
-2.6
 21
-10.1017899598
 31
0.0
  0
LINE
  5
4A1
100
AcDbEntity
  8
CURVE
100
AcDbLine
 62
250
  6
CONTINUOUS
 10
-2.5
 20
-4.1017899598
 30
0.0
 11
-2.5
 21
-10.1017899598
 31
0.0
  0
LINE
  5
4A2
100
AcDbEntity
  8
ASSI
100
AcDbLine
 62
7
  6
CONTINUOUS
 10
-2.5
 20
-18.3
 30
0.0
 11
-2.5
 21
-16.6
 31
0.0
  0
LINE
  5
4A3
100
AcDbEntity
  8
ASSI
100
AcDbLine
 62
7
  6
CONTINUOUS
 10
-2.5
 20
16.6
 30
0.0
 11
-2.5
 21
18.3
 31
0.0
  0
LINE
  5
4A4
100
AcDbEntity
  8
CURVE
100
AcDbLine
 62
250
  6
CONTINUOUS
 10
-2.4
 20
-4.1017899598
 30
0.0
 11
-2.4
 21
-10.1017899598
 31
0.0
  0
LINE
  5
4A5
100
AcDbEntity
  8
CURVE
100
AcDbLine
 62
250
  6
CONTINUOUS
 10
-2.3
 20
-4.1017899598
 30
0.0
 11
-2.3
 21
-10.1017899598
 31
0.0
  0
LINE
  5
4A6
100
AcDbEntity
  8
CURVE
100
AcDbLine
 62
250
  6
CONTINUOUS
 10
-2.2
 20
-4.1017899598
 30
0.0
 11
-2.2
 21
-10.1017899598
 31
0.0
  0
LINE
  5
4A7
100
AcDbEntity
  8
0
100
AcDbLine
 62
250
  6
CONTINUOUS
 10
-2.1464466094
 20
18.2325400167
 30
0.0
 11
-2.1464466094
 21
18.3
 31
0.0
  0
LINE
  5
4A8
100
AcDbEntity
  8
CURVE
100
AcDbLine
 62
250
  6
CONTINUOUS
 10
-2.1
 20
-4.1017899598
 30
0.0
 11
-2.1
 21
-10.1017899598
 31
0.0
  0
LINE
  5
4A9
100
AcDbEntity
  8
0
100
AcDbLine
 62
7
  6
CONTINUOUS
 10
-2.1
 20
18.2
 30
0.0
 11
-2.1
 21
18.232181202
 31
0.0
  0
LINE
  5
4AA
100
AcDbEntity
  8
CURVE
100
AcDbLine
 62
250
  6
CONTINUOUS
 10
-2.0
 20
-4.1017899598
 30
0.0
 11
-2.0
 21
-10.1017899598
 31
0.0
  0
LINE
  5
4AB
100
AcDbEntity
  8
0
100
AcDbLine
 62
7
  6
CONTINUOUS
 10
-2.0
 20
18.2
 30
0.0
 11
-2.0
 21
18.2330485889
 31
0.0
  0
LINE
  5
4AC
100
AcDbEntity
  8
ASSI
100
AcDbLine
 62
7
  6
CONTINUOUS
 10
-1.9825893107
 20
-18.3
 30
0.0
 11
-1.9825893107
 21
-18.2
 31
0.0
  0
LINE
  5
4AD
100
AcDbEntity
  8
ASSI
100
AcDbLine
 62
7
  6
CONTINUOUS
 10
-1.9040044543
 20
18.2
 30
0.0
 11
-1.9040044543
 21
18.3
 31
0.0
  0
LINE
  5
4AE
100
AcDbEntity
  8
CURVE
100
AcDbLine
 62
250
  6
CONTINUOUS
 10
-1.9
 20
-4.1017899598
 30
0.0
 11
-1.9
 21
-10.1017899598
 31
0.0
  0
LINE
  5
4AF
100
AcDbEntity
  8
CURVE
100
AcDbLine
 62
250
  6
CONTINUOUS
 10
-1.8
 20
-4.1017899598
 30
0.0
 11
-1.8
 21
-10.1017899598
 31
0.0
  0
LINE
  5
4B0
100
AcDbEntity
  8
CURVE
100
AcDbLine
 62
250
  6
CONTINUOUS
 10
-1.7
 20
-4.1017899598
 30
0.0
 11
-1.7
 21
-10.1017899598
 31
0.0
  0
LINE
  5
4B1
100
AcDbEntity
  8
0
100
AcDbLine
 62
250
  6
CONTINUOUS
 10
-1.7
 20
-17.3188041302
 30
0.0
 11
-1.7
 21
-17.25
 31
0.0
  0
LINE
  5
4B2
100
AcDbEntity
  8
0
100
AcDbLine
 62
250
  6
CONTINUOUS
 10
-1.7
 20
17.25
 30
0.0
 11
-1.7
 21
17.3532545999
 31
0.0
  0
LINE
  5
4B3
100
AcDbEntity
  8
CURVE
100
AcDbLine
 62
250
  6
CONTINUOUS
 10
-1.6
 20
-4.1017899598
 30
0.0
 11
-1.6
 21
-10.1017899598
 31
0.0
  0
LINE
  5
4B4
100
AcDbEntity
  8
0
100
AcDbLine
 62
250
  6
CONTINUOUS
 10
-1.5015242349
 20
19.8844866796
 30
0.0
 11
-1.5009544263
 21
20.0696217518
 31
0.0
  0
LINE
  5
4B5
100
AcDbEntity
  8
DRAFT
100
AcDbLine
 62
7
  6
CONTINUOUS
 10
-3.5005407234
 20
-20.0619607613
 30
0.0
 11
-3.5001534346
 21
-20.0175818656
 31
0.0
  0
LINE
  5
4B6
100
AcDbEntity
  8
0
100
AcDbLine
 62
7
  6
CONTINUOUS
 10
-3.5205544631
 20
-22.355308184
 30
0.0
 11
-3.5348577163
 21
-23.994298655
 31
0.0
  0
LINE
  5
4B7
100
AcDbEntity
  8
0
100
AcDbLine
 62
7
  6
CONTINUOUS
 10
-2.992145819
 20
-20.8
 30
0.0
 11
-3.0057033248
 21
-22.3535362903
 31
0.0
  0
LINE
  5
4B8
100
AcDbEntity
  8
CURVE
100
AcDbLine
 62
250
  6
CONTINUOUS
 10
10.1142857254
 20
14.35
 30
0.0
 11
10.3
 21
14.5357142746
 31
0.0
  0
LINE
  5
4B9
100
AcDbEntity
  8
CURVE
100
AcDbLine
 62
250
  6
CONTINUOUS
 10
9.0
 20
12.6785714507
 30
0.0
 11
9.185714294
 21
12.8642856479
 31
0.0
  0
LINE
  5
4BA
100
AcDbEntity
  8
CURVE
100
AcDbLine
 62
250
  6
CONTINUOUS
 10
10.1142857254
 20
13.3285714507
 30
0.0
 11
10.3
 21
13.5142856479
 31
0.0
  0
LINE
  5
4BB
100
AcDbEntity
  8
CURVE
100
AcDbLine
 62
250
  6
CONTINUOUS
 10
10.3
 20
12.5857143521
 30
0.0
 11
10.1142857254
 21
12.4
 31
0.0
  0
LINE
  5
4BC
100
AcDbEntity
  8
IMPORT_IGES
100
AcDbLine
 62
7
  6
CONTINUOUS
 10
4.006
 20
5.75
 30
0.0
 11
3.796
 21
5.6
 31
0.0
  0
LINE
  5
4BD
100
AcDbEntity
  8
CURVE
100
AcDbLine
 62
250
  6
CONTINUOUS
 10
9.185714294
 20
6.8285716057
 30
0.0
 11
9.371428588
 21
6.9214283943
 31
0.0
  0
LINE
  5
4BE
100
AcDbEntity
  8
CURVE
100
AcDbLine
 62
250
  6
CONTINUOUS
 10
10.3
 20
5.9
 30
0.0
 11
9.0
 21
5.5285716057
 31
0.0
  0
LINE
  5
4BF
100
AcDbEntity
  8
IMPORT_IGES
100
AcDbLine
 62
7
  6
CONTINUOUS
 10
0.796
 20
-2.1
 30
0.0
 11
0.25
 21
-2.2419483914
 31
0.0
  0
LINE
  5
4C0
100
AcDbEntity
  8
ASSI
100
AcDbLine
 62
7
  6
CONTINUOUS
 10
-10.7130788782
 20
-3.15
 30
0.0
 11
-9.8
 21
-3.15
 31
0.0
  0
LINE
  5
4C1
100
AcDbEntity
  8
CURVE
100
AcDbLine
 62
250
  6
CONTINUOUS
 10
-7.2
 20
-3.0845290411
 30
0.0
 11
-8.5
 21
-3.0845290411
 31
0.0
  0
LINE
  5
4C2
100
AcDbEntity
  8
ASSI
100
AcDbLine
 62
7
  6
CONTINUOUS
 10
4.25
 20
-3.0
 30
0.0
 11
0.25
 21
-3.0
 31
0.0
  0
LINE
  5
4C3
100
AcDbEntity
  8
IMPORT_IGES
100
AcDbLine
 62
7
  6
CONTINUOUS
 10
4.25
 20
-2.6
 30
0.0
 11
0.25
 21
-2.6
 31
0.0
  0
LINE
  5
4C4
100
AcDbEntity
  8
IMPORT_IGES
100
AcDbLine
 62
7
  6
CONTINUOUS
 10
3.796
 20
-2.1
 30
0.0
 11
0.796
 21
-2.1
 31
0.0
  0
LINE
  5
4C5
100
AcDbEntity
  8
CURVE
100
AcDbLine
 62
250
  6
CONTINUOUS
 10
1.2
 20
-4.7089328314
 30
0.0
 11
0.8357142568
 21
-4.3446471135
 31
0.0
  0
LINE
  5
4C6
100
AcDbEntity
  8
CURVE
100
AcDbLine
 62
250
  6
CONTINUOUS
 10
-8.314285706
 20
5.3345190059
 30
0.0
 11
-8.5
 21
5.5202332031
 31
0.0
  0
LINE
  5
4C7
100
AcDbEntity
  8
CURVE
100
AcDbLine
 62
250
  6
CONTINUOUS
 10
-1.5
 20
-4.1017899598
 30
0.0
 11
-1.5
 21
-10.1017899598
 31
0.0
  0
LINE
  5
4C8
100
AcDbEntity
  8
CURVE
100
AcDbLine
 62
250
  6
CONTINUOUS
 10
-1.4
 20
-4.1017899598
 30
0.0
 11
-1.4
 21
-10.1017899598
 31
0.0
  0
LINE
  5
4C9
100
AcDbEntity
  8
CURVE
100
AcDbLine
 62
250
  6
CONTINUOUS
 10
-1.3
 20
-4.1017899598
 30
0.0
 11
-1.3
 21
-10.1017899598
 31
0.0
  0
LINE
  5
4CA
100
AcDbEntity
  8
CURVE
100
AcDbLine
 62
250
  6
CONTINUOUS
 10
-1.2
 20
-4.1017899598
 30
0.0
 11
-1.2
 21
-10.1017899598
 31
0.0
  0
LINE
  5
4CB
100
AcDbEntity
  8
CURVE
100
AcDbLine
 62
250
  6
CONTINUOUS
 10
-1.1
 20
-4.1017899598
 30
0.0
 11
-1.1
 21
-10.1017899598
 31
0.0
  0
LINE
  5
4CC
100
AcDbEntity
  8
0
100
AcDbLine
 62
7
  6
CONTINUOUS
 10
-1.0086739534
 20
-22.3947957125
 30
0.0
 11
-1.00856737
 21
-23.7942952698
 31
0.0
  0
LINE
  5
4CD
100
AcDbEntity
  8
0
100
AcDbLine
 62
7
  6
CONTINUOUS
 10
-1.0
 20
23.8000067692
 30
0.0
 11
-1.0
 21
22.4
 31
0.0
  0
LINE
  5
4CE
100
AcDbEntity
  8
0
100
AcDbLine
 62
7
  6
CONTINUOUS
 10
-1.0
 20
-22.4
 30
0.0
 11
-1.0
 21
-23.8000067692
 31
0.0
  0
LINE
  5
4CF
100
AcDbEntity
  8
CURVE
100
AcDbLine
 62
250
  6
CONTINUOUS
 10
-1.0
 20
-10.1017899598
 30
0.0
 11
-1.0
 21
-4.1017899598
 31
0.0
  0
LINE
  5
4D0
100
AcDbEntity
  8
CURVE
100
AcDbLine
 62
250
  6
CONTINUOUS
 10
-0.5
 20
-4.3446471135
 30
0.0
 11
-0.5
 21
-4.7089328314
 31
0.0
  0
LINE
  5
4D1
100
AcDbEntity
  8
CURVE
100
AcDbLine
 62
250
  6
CONTINUOUS
 10
-0.5
 20
-15.3517899598
 30
0.0
 11
-0.5
 21
-10.1017899598
 31
0.0
  0
LINE
  5
4D2
100
AcDbEntity
  8
ASSI
100
AcDbLine
 62
7
  6
CONTINUOUS
 10
-0.25
 20
-3.5
 30
0.0
 11
-0.25
 21
1.5
 31
0.0
  0
LINE
  5
4D3
100
AcDbEntity
  8
ASSI
100
AcDbLine
 62
7
  6
CONTINUOUS
 10
-0.25
 20
1.75
 30
0.0
 11
-0.25
 21
6.25
 31
0.0
  0
LINE
  5
4D4
100
AcDbEntity
  8
ASSI
100
AcDbLine
 62
7
  6
CONTINUOUS
 10
-0.25
 20
6.75
 30
0.0
 11
-0.25
 21
11.25
 31
0.0
  0
LINE
  5
4D5
100
AcDbEntity
  8
ASSI
100
AcDbLine
 62
7
  6
CONTINUOUS
 10
-0.25
 20
11.75
 30
0.0
 11
-0.25
 21
16.25
 31
0.0
  0
LINE
  5
4D6
100
AcDbEntity
  8
0
100
AcDbLine
 62
7
  6
CONTINUOUS
 10
-1.0086739534
 20
22.3947957125
 30
0.0
 11
-1.00856737
 21
23.7942952698
 31
0.0
  0
LINE
  5
4D7
100
AcDbEntity
  8
ASSI
100
AcDbLine
 62
7
  6
CONTINUOUS
 10
-0.25
 20
1.75
 30
0.0
 11
0.25
 21
2.25
 31
0.0
  0
LINE
  5
4D8
100
AcDbEntity
  8
ASSI
100
AcDbLine
 62
7
  6
CONTINUOUS
 10
4.75
 20
6.25
 30
0.0
 11
4.25
 21
5.75
 31
0.0
  0
LINE
  5
4D9
100
AcDbEntity
  8
CURVE
100
AcDbLine
 62
250
  6
CONTINUOUS
 10
-7.2
 20
-3.9202426184
 30
0.0
 11
-7.7571428239
 21
-4.2916710127
 31
0.0
  0
LINE
  5
4DA
100
AcDbEntity
  8
CURVE
100
AcDbLine
 62
250
  6
CONTINUOUS
 10
10.1142857254
 20
6.3642858028
 30
0.0
 11
9.9285714507
 21
6.2714283943
 31
0.0
  0
LINE
  5
4DB
100
AcDbEntity
  8
CURVE
100
AcDbLine
 62
250
  6
CONTINUOUS
 10
-8.5
 20
-1.2273858298
 30
0.0
 11
-7.2
 21
-1.2273858298
 31
0.0
  0
LINE
  5
4DC
100
AcDbEntity
  8
CURVE
100
AcDbLine
 62
250
  6
CONTINUOUS
 10
7.65
 20
-1.0
 30
0.0
 11
5.75
 21
-1.0
 31
0.0
  0
LINE
  5
4DD
100
AcDbEntity
  8
CURVE
100
AcDbLine
 62
250
  6
CONTINUOUS
 10
10.3
 20
-0.8476193428
 30
0.0
 11
9.0
 21
-0.8476193428
 31
0.0
  0
LINE
  5
4DE
100
AcDbEntity
  8
CURVE
100
AcDbLine
 62
250
  6
CONTINUOUS
 10
-8.5
 20
-0.2678619612
 30
0.0
 11
-7.2
 21
-0.2678619612
 31
0.0
  0
LINE
  5
4DF
100
AcDbEntity
  8
CURVE
100
AcDbLine
 62
250
  6
CONTINUOUS
 10
9.0
 20
-0.1976193428
 30
0.0
 11
10.3
 21
-0.1976193428
 31
0.0
  0
LINE
  5
4E0
100
AcDbEntity
  8
CURVE
100
AcDbLine
 62
250
  6
CONTINUOUS
 10
9.9285714507
 20
0.1738090515
 30
0.0
 11
9.371428588
 21
0.1738090515
 31
0.0
  0
LINE
  5
4E1
100
AcDbEntity
  8
CURVE
100
AcDbLine
 62
250
  6
CONTINUOUS
 10
9.528125
 20
-3.640625
 30
0.0
 11
9.40625
 21
-3.6
 31
0.0
  0
LINE
  5
4E2
100
AcDbEntity
  8
CURVE
100
AcDbLine
 62
250
  6
CONTINUOUS
 10
10.096875
 20
-3.7625
 30
0.0
 11
9.975
 21
-3.721875
 31
0.0
  0
LINE
  5
4E3
100
AcDbEntity
  8
0
100
AcDbLine
 62
250
  6
CONTINUOUS
 10
1.5009544263
 20
20.0696217518
 30
0.0
 11
1.5015242349
 21
19.8844866796
 31
0.0
  0
LINE
  5
4E4
100
AcDbEntity
  8
ASSI
100
AcDbLine
 62
7
  6
CONTINUOUS
 10
0.25
 20
-3.0
 30
0.0
 11
0.25
 21
1.0
 31
0.0
  0
LINE
  5
4E5
100
AcDbEntity
  8
ASSI
100
AcDbLine
 62
7
  6
CONTINUOUS
 10
0.25
 20
2.25
 30
0.0
 11
0.25
 21
5.75
 31
0.0
  0
LINE
  5
4E6
100
AcDbEntity
  8
ASSI
100
AcDbLine
 62
7
  6
CONTINUOUS
 10
0.25
 20
7.25
 30
0.0
 11
0.25
 21
10.75
 31
0.0
  0
LINE
  5
4E7
100
AcDbEntity
  8
ASSI
100
AcDbLine
 62
7
  6
CONTINUOUS
 10
0.25
 20
12.25
 30
0.0
 11
0.25
 21
15.75
 31
0.0
  0
LINE
  5
4E8
100
AcDbEntity
  8
CURVE
100
AcDbLine
 62
250
  6
CONTINUOUS
 10
0.4714286149
 20
-4.7089328314
 30
0.0
 11
0.4714286149
 21
-4.1827423423
 31
0.0
  0
LINE
  5
4E9
100
AcDbEntity
  8
CURVE
100
AcDbLine
 62
250
  6
CONTINUOUS
 10
0.7142857432
 20
-6.7732184733
 30
0.0
 11
0.7142857432
 21
-7.7446469869
 31
0.0
  0
LINE
  5
4EA
100
AcDbEntity
  8
CURVE
100
AcDbLine
 62
250
  6
CONTINUOUS
 10
0.7142857432
 20
-8.3517899598
 30
0.0
 11
0.7142857432
 21
-9.3232184733
 31
0.0
  0
LINE
  5
4EB
100
AcDbEntity
  8
IMPORT_IGES
100
AcDbLine
 62
7
  6
CONTINUOUS
 10
0.796
 20
15.6
 30
0.0
 11
0.796
 21
12.9
 31
0.0
  0
LINE
  5
4EC
100
AcDbEntity
  8
IMPORT_IGES
100
AcDbLine
 62
7
  6
CONTINUOUS
 10
0.796
 20
10.6
 30
0.0
 11
0.796
 21
7.9
 31
0.0
  0
LINE
  5
4ED
100
AcDbEntity
  8
IMPORT_IGES
100
AcDbLine
 62
7
  6
CONTINUOUS
 10
0.796
 20
5.6
 30
0.0
 11
0.796
 21
2.9
 31
0.0
  0
LINE
  5
4EE
100
AcDbEntity
  8
IMPORT_IGES
100
AcDbLine
 62
7
  6
CONTINUOUS
 10
0.796
 20
0.6
 30
0.0
 11
0.796
 21
-2.1
 31
0.0
  0
LINE
  5
4EF
100
AcDbEntity
  8
0
100
AcDbLine
 62
7
  6
CONTINUOUS
 10
1.0
 20
23.8000067692
 30
0.0
 11
1.0
 21
22.4
 31
0.0
  0
LINE
  5
4F0
100
AcDbEntity
  8
0
100
AcDbLine
 62
7
  6
CONTINUOUS
 10
1.0
 20
-22.4
 30
0.0
 11
1.0
 21
-23.8000067692
 31
0.0
  0
LINE
  5
4F1
100
AcDbEntity
  8
0
100
AcDbLine
 62
7
  6
CONTINUOUS
 10
1.0086739534
 20
22.3947957125
 30
0.0
 11
1.00856737
 21
23.7942952698
 31
0.0
  0
LINE
  5
4F2
100
AcDbEntity
  8
0
100
AcDbLine
 62
250
  6
CONTINUOUS
 10
1.7
 20
17.3532437865
 30
0.0
 11
1.7
 21
17.25
 31
0.0
  0
LINE
  5
4F3
100
AcDbEntity
  8
0
100
AcDbLine
 62
250
  6
CONTINUOUS
 10
1.7
 20
-17.3178889612
 30
0.0
 11
1.7
 21
-17.25
 31
0.0
  0
LINE
  5
4F4
100
AcDbEntity
  8
ASSI
100
AcDbLine
 62
7
  6
CONTINUOUS
 10
1.9040044543
 20
18.2
 30
0.0
 11
1.9040044543
 21
18.3
 31
0.0
  0
LINE
  5
4F5
100
AcDbEntity
  8
ASSI
100
AcDbLine
 62
7
  6
CONTINUOUS
 10
1.9825893107
 20
-18.3
 30
0.0
 11
1.9825893107
 21
-18.2
 31
0.0
  0
LINE
  5
4F6
100
AcDbEntity
  8
0
100
AcDbLine
 62
7
  6
CONTINUOUS
 10
2.0
 20
18.2330485889
 30
0.0
 11
2.0
 21
18.2
 31
0.0
  0
LINE
  5
4F7
100
AcDbEntity
  8
0
100
AcDbLine
 62
7
  6
CONTINUOUS
 10
1.0086739534
 20
-22.3947957125
 30
0.0
 11
1.00856737
 21
-23.7942952698
 31
0.0
  0
LINE
  5
4F8
100
AcDbEntity
  8
0
100
AcDbLine
 62
250
  6
CONTINUOUS
 10
1.5015242349
 20
-19.8844866796
 30
0.0
 11
1.5009544263
 21
-20.0696217518
 31
0.0
  0
LINE
  5
4F9
100
AcDbEntity
  8
CURVE
100
AcDbLine
 62
250
  6
CONTINUOUS
 10
10.1142857254
 20
8.3142858028
 30
0.0
 11
10.3
 21
8.5
 31
0.0
  0
LINE
  5
4FA
100
AcDbEntity
  8
CURVE
100
AcDbLine
 62
250
  6
CONTINUOUS
 10
9.0
 20
6.6428574085
 30
0.0
 11
9.185714294
 21
6.8285716057
 31
0.0
  0
LINE
  5
4FB
100
AcDbEntity
  8
IMPORT_IGES
100
AcDbLine
 62
7
  6
CONTINUOUS
 10
4.25
 20
0.9242857143
 30
0.0
 11
3.796
 21
0.6
 31
0.0
  0
LINE
  5
4FC
100
AcDbEntity
  8
CURVE
100
AcDbLine
 62
250
  6
CONTINUOUS
 10
-7.2
 20
-2.3416710127
 30
0.0
 11
-8.5
 21
-2.7131006468
 31
0.0
  0
LINE
  5
4FD
100
AcDbEntity
  8
IMPORT_IGES
100
AcDbLine
 62
7
  6
CONTINUOUS
 10
3.796
 20
0.6
 30
0.0
 11
0.796
 21
0.6
 31
0.0
  0
LINE
  5
4FE
100
AcDbEntity
  8
CURVE
100
AcDbLine
 62
250
  6
CONTINUOUS
 10
9.371428588
 20
0.8238090515
 30
0.0
 11
9.9285714507
 21
0.8238090515
 31
0.0
  0
LINE
  5
4FF
100
AcDbEntity
  8
ASSI
100
AcDbLine
 62
7
  6
CONTINUOUS
 10
0.25
 20
1.0
 30
0.0
 11
4.25
 21
1.0
 31
0.0
  0
LINE
  5
500
100
AcDbEntity
  8
ASSI
100
AcDbLine
 62
7
  6
CONTINUOUS
 10
-10.7130788782
 20
1.15
 30
0.0
 11
-9.8
 21
1.15
 31
0.0
  0
LINE
  5
501
100
AcDbEntity
  8
CURVE
100
AcDbLine
 62
250
  6
CONTINUOUS
 10
9.185714294
 20
1.1952386856
 30
0.0
 11
9.5571428627
 21
1.1952386856
 31
0.0
  0
LINE
  5
502
100
AcDbEntity
  8
CURVE
100
AcDbLine
 62
250
  6
CONTINUOUS
 10
-8.5
 20
1.3726141702
 30
0.0
 11
-7.2
 21
1.3726141702
 31
0.0
  0
LINE
  5
503
100
AcDbEntity
  8
ASSI
100
AcDbLine
 62
7
  6
CONTINUOUS
 10
-0.25
 20
1.5
 30
0.0
 11
4.75
 21
1.5
 31
0.0
  0
LINE
  5
504
100
AcDbEntity
  8
ASSI
100
AcDbLine
 62
7
  6
CONTINUOUS
 10
4.75
 20
1.75
 30
0.0
 11
-0.25
 21
1.75
 31
0.0
  0
LINE
  5
505
100
AcDbEntity
  8
CURVE
100
AcDbLine
 62
250
  6
CONTINUOUS
 10
9.7428571761
 20
1.7523806572
 30
0.0
 11
10.3
 21
1.7523806572
 31
0.0
  0
LINE
  5
506
100
AcDbEntity
  8
ASSI
100
AcDbLine
 62
7
  6
CONTINUOUS
 10
-10.7130788782
 20
1.85
 30
0.0
 11
-9.8
 21
1.85
 31
0.0
  0
LINE
  5
507
100
AcDbEntity
  8
CURVE
100
AcDbLine
 62
250
  6
CONTINUOUS
 10
-8.5
 20
2.0226141702
 30
0.0
 11
-7.2
 21
2.0226141702
 31
0.0
  0
LINE
  5
508
100
AcDbEntity
  8
IMPORT_IGES
100
AcDbLine
 62
7
  6
CONTINUOUS
 10
0.25
 20
0.7419483914
 30
0.0
 11
0.796
 21
0.6
 31
0.0
  0
LINE
  5
509
100
AcDbEntity
  8
IMPORT_IGES
100
AcDbLine
 62
7
  6
CONTINUOUS
 10
4.25
 20
-2.4242857143
 30
0.0
 11
3.796
 21
-2.1
 31
0.0
  0
LINE
  5
50A
100
AcDbEntity
  8
ASSI
100
AcDbLine
 62
7
  6
CONTINUOUS
 10
-0.25
 20
1.5
 30
0.0
 11
0.25
 21
1.0
 31
0.0
  0
LINE
  5
50B
100
AcDbEntity
  8
ASSI
100
AcDbLine
 62
7
  6
CONTINUOUS
 10
4.75
 20
-3.5
 30
0.0
 11
4.25
 21
-3.0
 31
0.0
  0
LINE
  5
50C
100
AcDbEntity
  8
0
100
AcDbLine
 62
7
  6
CONTINUOUS
 10
2.992145819
 20
-20.8
 30
0.0
 11
3.0057033248
 21
-22.3535362903
 31
0.0
  0
LINE
  5
50D
100
AcDbEntity
  8
DRAFT
100
AcDbLine
 62
7
  6
CONTINUOUS
 10
3.5001534346
 20
-20.0175818656
 30
0.0
 11
3.5005407234
 21
-20.0619607613
 31
0.0
  0
LINE
  5
50E
100
AcDbEntity
  8
0
100
AcDbLine
 62
7
  6
CONTINUOUS
 10
3.5205544631
 20
-22.355308184
 30
0.0
 11
3.5348577163
 21
-23.994298655
 31
0.0
  0
LINE
  5
50F
100
AcDbEntity
  8
0
100
AcDbLine
 62
7
  6
CONTINUOUS
 10
2.1
 20
18.2
 30
0.0
 11
2.1
 21
18.232181202
 31
0.0
  0
LINE
  5
510
100
AcDbEntity
  8
0
100
AcDbLine
 62
250
  6
CONTINUOUS
 10
2.1464466094
 20
18.3
 30
0.0
 11
2.1464466094
 21
18.2325400167
 31
0.0
  0
LINE
  5
511
100
AcDbEntity
  8
ASSI
100
AcDbLine
 62
7
  6
CONTINUOUS
 10
2.5
 20
18.3
 30
0.0
 11
2.5
 21
16.6
 31
0.0
  0
LINE
  5
512
100
AcDbEntity
  8
ASSI
100
AcDbLine
 62
7
  6
CONTINUOUS
 10
2.5
 20
-16.6
 30
0.0
 11
2.5
 21
-18.3
 31
0.0
  0
LINE
  5
513
100
AcDbEntity
  8
CURVE
100
AcDbLine
 62
250
  6
CONTINUOUS
 10
3.0
 20
-16.092362
 30
0.0
 11
3.0
 21
-11.907638
 31
0.0
  0
LINE
  5
514
100
AcDbEntity
  8
CURVE
100
AcDbLine
 62
250
  6
CONTINUOUS
 10
3.45
 20
-5.7124015748
 30
0.0
 11
3.45
 21
-6.7290675115
 31
0.0
  0
LINE
  5
515
100
AcDbEntity
  8
0
100
AcDbLine
 62
7
  6
CONTINUOUS
 10
3.4633443637
 20
-19.8633443637
 30
0.0
 11
3.4633443637
 21
-19.6633443637
 31
0.0
  0
LINE
  5
516
100
AcDbEntity
  8
0
100
AcDbLine
 62
7
  6
CONTINUOUS
 10
3.4633443637
 20
19.6633443637
 30
0.0
 11
3.4633443637
 21
19.8633443637
 31
0.0
  0
LINE
  5
517
100
AcDbEntity
  8
0
100
AcDbLine
 62
7
  6
CONTINUOUS
 10
3.5
 20
-19.9
 30
0.0
 11
3.5
 21
-19.7
 31
0.0
  0
LINE
  5
518
100
AcDbEntity
  8
0
100
AcDbLine
 62
7
  6
CONTINUOUS
 10
3.5
 20
19.7
 30
0.0
 11
3.5
 21
19.9
 31
0.0
  0
LINE
  5
519
100
AcDbEntity
  8
IMPORT_IGES
100
AcDbLine
 62
7
  6
CONTINUOUS
 10
3.796
 20
-2.1
 30
0.0
 11
3.796
 21
0.6
 31
0.0
  0
LINE
  5
51A
100
AcDbEntity
  8
IMPORT_IGES
100
AcDbLine
 62
7
  6
CONTINUOUS
 10
3.796
 20
2.9
 30
0.0
 11
3.796
 21
5.6
 31
0.0
  0
LINE
  5
51B
100
AcDbEntity
  8
IMPORT_IGES
100
AcDbLine
 62
7
  6
CONTINUOUS
 10
3.796
 20
7.9
 30
0.0
 11
3.796
 21
10.6
 31
0.0
  0
LINE
  5
51C
100
AcDbEntity
  8
IMPORT_IGES
100
AcDbLine
 62
7
  6
CONTINUOUS
 10
3.796
 20
12.9
 30
0.0
 11
3.796
 21
15.6
 31
0.0
  0
LINE
  5
51D
100
AcDbEntity
  8
0
100
AcDbLine
 62
7
  6
CONTINUOUS
 10
2.992145819
 20
20.8
 30
0.0
 11
3.0057033248
 21
22.3535362903
 31
0.0
  0
LINE
  5
51E
100
AcDbEntity
  8
DRAFT
100
AcDbLine
 62
7
  6
CONTINUOUS
 10
3.5001534346
 20
20.0175818656
 30
0.0
 11
3.5005407234
 21
20.0619607613
 31
0.0
  0
LINE
  5
51F
100
AcDbEntity
  8
0
100
AcDbLine
 62
7
  6
CONTINUOUS
 10
3.5205544631
 20
22.355308184
 30
0.0
 11
3.5348577163
 21
23.994298655
 31
0.0
  0
LINE
  5
520
100
AcDbEntity
  8
CURVE
100
AcDbLine
 62
250
  6
CONTINUOUS
 10
7.0428571641
 20
4.3899999925
 30
0.0
 11
6.6142857164
 21
3.8185714105
 31
0.0
  0
LINE
  5
521
100
AcDbEntity
  8
ASSI
100
AcDbLine
 62
7
  6
CONTINUOUS
 10
4.75
 20
1.5
 30
0.0
 11
4.25
 21
1.0
 31
0.0
  0
LINE
  5
522
100
AcDbEntity
  8
ASSI
100
AcDbLine
 62
7
  6
CONTINUOUS
 10
-0.25
 20
-3.5
 30
0.0
 11
0.25
 21
-3.0
 31
0.0
  0
LINE
  5
523
100
AcDbEntity
  8
CURVE
100
AcDbLine
 62
250
  6
CONTINUOUS
 10
10.3
 20
6.55
 30
0.0
 11
10.1142857254
 21
6.3642858028
 31
0.0
  0
LINE
  5
524
100
AcDbEntity
  8
CURVE
100
AcDbLine
 62
250
  6
CONTINUOUS
 10
-0.2571428463
 20
-4.1017899598
 30
0.0
 11
-0.5
 21
-4.3446471135
 31
0.0
  0
LINE
  5
525
100
AcDbEntity
  8
CURVE
100
AcDbLine
 62
250
  6
CONTINUOUS
 10
-7.9428571373
 20
-11.8
 30
0.0
 11
-7.7571428239
 21
-11.6142857254
 31
0.0
  0
LINE
  5
526
100
AcDbEntity
  8
CURVE
100
AcDbLine
 62
250
  6
CONTINUOUS
 10
0.2285714358
 20
-4.9517899598
 30
0.0
 11
0.4714286149
 21
-4.7089328314
 31
0.0
  0
LINE
  5
527
100
AcDbEntity
  8
CURVE
100
AcDbLine
 62
250
  6
CONTINUOUS
 10
9.185714294
 20
0.7309522629
 30
0.0
 11
9.371428588
 21
0.8238090515
 31
0.0
  0
LINE
  5
528
100
AcDbEntity
  8
IMPORT_IGES
100
AcDbLine
 62
7
  6
CONTINUOUS
 10
0.796
 20
2.9
 30
0.0
 11
0.25
 21
2.7580516086
 31
0.0
  0
LINE
  5
529
100
AcDbEntity
  8
ASSI
100
AcDbLine
 62
7
  6
CONTINUOUS
 10
4.25
 20
2.25
 30
0.0
 11
0.25
 21
2.25
 31
0.0
  0
LINE
  5
52A
100
AcDbEntity
  8
IMPORT_IGES
100
AcDbLine
 62
7
  6
CONTINUOUS
 10
4.25
 20
2.4
 30
0.0
 11
0.25
 21
2.4
 31
0.0
  0
LINE
  5
52B
100
AcDbEntity
  8
CURVE
100
AcDbLine
 62
250
  6
CONTINUOUS
 10
-8.5
 20
2.6107096445
 30
0.0
 11
-7.2
 21
2.6107096445
 31
0.0
  0
LINE
  5
52C
100
AcDbEntity
  8
IMPORT_IGES
100
AcDbLine
 62
7
  6
CONTINUOUS
 10
3.796
 20
2.9
 30
0.0
 11
0.796
 21
2.9
 31
0.0
  0
LINE
  5
52D
100
AcDbEntity
  8
CURVE
100
AcDbLine
 62
250
  6
CONTINUOUS
 10
7.4848264889
 20
3.43
 30
0.0
 11
8.0048264889
 21
3.43
 31
0.0
  0
LINE
  5
52E
100
AcDbEntity
  8
CURVE
100
AcDbLine
 62
250
  6
CONTINUOUS
 10
-7.9428571373
 20
7.8416617137
 30
0.0
 11
-7.2
 21
7.4702331256
 31
0.0
  0
LINE
  5
52F
100
AcDbEntity
  8
CURVE
100
AcDbLine
 62
250
  6
CONTINUOUS
 10
9.9285714507
 20
-1.7761909485
 30
0.0
 11
9.0
 21
-1.2190477371
 31
0.0
  0
LINE
  5
530
100
AcDbEntity
  8
CURVE
100
AcDbLine
 62
250
  6
CONTINUOUS
 10
9.121875
 20
-4.33125
 30
0.0
 11
9.203125
 21
-4.4125
 31
0.0
  0
LINE
  5
531
100
AcDbEntity
  8
CURVE
100
AcDbLine
 62
250
  6
CONTINUOUS
 10
4.019012
 20
-11.907638
 30
0.0
 11
4.019012
 21
-16.092362
 31
0.0
  0
LINE
  5
532
100
AcDbEntity
  8
ASSI
100
AcDbLine
 62
7
  6
CONTINUOUS
 10
4.25
 20
15.75
 30
0.0
 11
4.25
 21
12.25
 31
0.0
  0
LINE
  5
533
100
AcDbEntity
  8
ASSI
100
AcDbLine
 62
7
  6
CONTINUOUS
 10
4.25
 20
10.75
 30
0.0
 11
4.25
 21
7.25
 31
0.0
  0
LINE
  5
534
100
AcDbEntity
  8
ASSI
100
AcDbLine
 62
7
  6
CONTINUOUS
 10
4.25
 20
5.75
 30
0.0
 11
4.25
 21
2.25
 31
0.0
  0
LINE
  5
535
100
AcDbEntity
  8
ASSI
100
AcDbLine
 62
7
  6
CONTINUOUS
 10
4.25
 20
1.0
 30
0.0
 11
4.25
 21
-3.0
 31
0.0
  0
LINE
  5
536
100
AcDbEntity
  8
0
100
AcDbLine
 62
7
  6
CONTINUOUS
 10
4.406077753
 20
-23.9538922731
 30
0.0
 11
4.406077753
 21
-22.356077753
 31
0.0
  0
LINE
  5
537
100
AcDbEntity
  8
0
100
AcDbLine
 62
7
  6
CONTINUOUS
 10
4.406077753
 20
22.356077753
 30
0.0
 11
4.406077753
 21
23.9538922731
 31
0.0
  0
LINE
  5
538
100
AcDbEntity
  8
0
100
AcDbLine
 62
7
  6
CONTINUOUS
 10
4.45
 20
-24.0
 30
0.0
 11
4.45
 21
-23.3679449472
 31
0.0
  0
LINE
  5
539
100
AcDbEntity
  8
0
100
AcDbLine
 62
7
  6
CONTINUOUS
 10
4.45
 20
-22.9320550528
 30
0.0
 11
4.45
 21
-22.4
 31
0.0
  0
LINE
  5
53A
100
AcDbEntity
  8
0
100
AcDbLine
 62
7
  6
CONTINUOUS
 10
4.45
 20
22.4
 30
0.0
 11
4.45
 21
22.9320550528
 31
0.0
  0
LINE
  5
53B
100
AcDbEntity
  8
0
100
AcDbLine
 62
7
  6
CONTINUOUS
 10
4.45
 20
23.3679449472
 30
0.0
 11
4.45
 21
24.0
 31
0.0
  0
LINE
  5
53C
100
AcDbEntity
  8
ASSI
100
AcDbLine
 62
7
  6
CONTINUOUS
 10
4.75
 20
16.25
 30
0.0
 11
4.75
 21
11.75
 31
0.0
  0
LINE
  5
53D
100
AcDbEntity
  8
ASSI
100
AcDbLine
 62
7
  6
CONTINUOUS
 10
4.75
 20
11.25
 30
0.0
 11
4.75
 21
6.75
 31
0.0
  0
LINE
  5
53E
100
AcDbEntity
  8
ASSI
100
AcDbLine
 62
7
  6
CONTINUOUS
 10
4.75
 20
6.25
 30
0.0
 11
4.75
 21
1.75
 31
0.0
  0
LINE
  5
53F
100
AcDbEntity
  8
ASSI
100
AcDbLine
 62
7
  6
CONTINUOUS
 10
4.75
 20
1.5
 30
0.0
 11
4.75
 21
-3.5
 31
0.0
  0
LINE
  5
540
100
AcDbEntity
  8
CURVE
100
AcDbLine
 62
250
  6
CONTINUOUS
 10
7.7448264889
 20
3.88033321
 30
0.0
 11
7.4848264889
 21
3.43
 31
0.0
  0
LINE
  5
541
100
AcDbEntity
  8
CURVE
100
AcDbLine
 62
250
  6
CONTINUOUS
 10
9.4952381045
 20
4.5690477371
 30
0.0
 11
9.3095238104
 21
4.3214283943
 31
0.0
  0
LINE
  5
542
100
AcDbEntity
  8
CURVE
100
AcDbLine
 62
250
  6
CONTINUOUS
 10
-7.9428571373
 20
-14.4
 30
0.0
 11
-7.7571428239
 21
-14.2142858028
 31
0.0
  0
LINE
  5
543
100
AcDbEntity
  8
CURVE
100
AcDbLine
 62
250
  6
CONTINUOUS
 10
-8.5
 20
-15.05
 30
0.0
 11
-8.314285706
 21
-14.8642858028
 31
0.0
  0
LINE
  5
544
100
AcDbEntity
  8
CURVE
100
AcDbLine
 62
250
  6
CONTINUOUS
 10
-7.2
 20
-15.1428570986
 30
0.0
 11
-7.3857142746
 21
-15.3285712957
 31
0.0
  0
LINE
  5
545
100
AcDbEntity
  8
CURVE
100
AcDbLine
 62
250
  6
CONTINUOUS
 10
10.1142857254
 20
0.2666670799
 30
0.0
 11
9.9285714507
 21
0.1738090515
 31
0.0
  0
LINE
  5
546
100
AcDbEntity
  8
CURVE
100
AcDbLine
 62
250
  6
CONTINUOUS
 10
-8.5
 20
4.8083283674
 30
0.0
 11
-7.2
 21
4.8083283674
 31
0.0
  0
LINE
  5
547
100
AcDbEntity
  8
CURVE
100
AcDbLine
 62
250
  6
CONTINUOUS
 10
-7.3857142746
 20
5.3345190059
 30
0.0
 11
-8.314285706
 21
5.3345190059
 31
0.0
  0
LINE
  5
548
100
AcDbEntity
  8
IMPORT_IGES
100
AcDbLine
 62
7
  6
CONTINUOUS
 10
3.796
 20
5.6
 30
0.0
 11
0.796
 21
5.6
 31
0.0
  0
LINE
  5
549
100
AcDbEntity
  8
IMPORT_IGES
100
AcDbLine
 62
7
  6
CONTINUOUS
 10
0.2480392762
 20
5.7424581379
 30
0.0
 11
0.796
 21
5.6
 31
0.0
  0
LINE
  5
54A
100
AcDbEntity
  8
CURVE
100
AcDbLine
 62
250
  6
CONTINUOUS
 10
-8.5
 20
7.0988045763
 30
0.0
 11
-7.2
 21
6.7273759496
 31
0.0
  0
LINE
  5
54B
100
AcDbEntity
  8
CURVE
100
AcDbLine
 62
250
  6
CONTINUOUS
 10
9.371428588
 20
0.1738090515
 30
0.0
 11
9.185714294
 21
0.2666670799
 31
0.0
  0
LINE
  5
54C
100
AcDbEntity
  8
CURVE
100
AcDbLine
 62
250
  6
CONTINUOUS
 10
9.9285714507
 20
0.8238090515
 30
0.0
 11
10.1142857254
 21
0.7309522629
 31
0.0
  0
LINE
  5
54D
100
AcDbEntity
  8
IMPORT_IGES
100
AcDbLine
 62
7
  6
CONTINUOUS
 10
4.25
 20
2.5757142857
 30
0.0
 11
3.796
 21
2.9
 31
0.0
  0
LINE
  5
54E
100
AcDbEntity
  8
CURVE
100
AcDbLine
 62
250
  6
CONTINUOUS
 10
9.609375
 20
-3.721875
 30
0.0
 11
9.528125
 21
-3.640625
 31
0.0
  0
LINE
  5
54F
100
AcDbEntity
  8
ASSI
100
AcDbLine
 62
7
  6
CONTINUOUS
 10
-0.25
 20
6.25
 30
0.0
 11
0.25
 21
5.75
 31
0.0
  0
LINE
  5
550
100
AcDbEntity
  8
CURVE
100
AcDbLine
 62
250
  6
CONTINUOUS
 10
10.178125
 20
-3.84375
 30
0.0
 11
10.096875
 21
-3.7625
 31
0.0
  0
LINE
  5
551
100
AcDbEntity
  8
ASSI
100
AcDbLine
 62
7
  6
CONTINUOUS
 10
4.75
 20
1.75
 30
0.0
 11
4.25
 21
2.25
 31
0.0
  0
LINE
  5
552
100
AcDbEntity
  8
CURVE
100
AcDbLine
 62
250
  6
CONTINUOUS
 10
9.040625
 20
-4.209375
 30
0.0
 11
9.121875
 21
-4.33125
 31
0.0
  0
LINE
  5
553
100
AcDbEntity
  8
0
100
AcDbLine
 62
250
  6
CONTINUOUS
 10
7.254371834
 20
-23.8443375673
 30
0.0
 11
7.25
 21
-23.4104851482
 31
0.0
  0
LINE
  5
554
100
AcDbEntity
  8
0
100
AcDbLine
 62
250
  6
CONTINUOUS
 10
7.5043676032
 20
-23.6278312164
 30
0.0
 11
7.4992770021
 21
-23.1226497308
 31
0.0
  0
LINE
  5
555
100
AcDbEntity
  8
CURVE
100
AcDbLine
 62
250
  6
CONTINUOUS
 10
5.633036
 20
-13.399503
 30
0.0
 11
5.633036
 21
-13.281883
 31
0.0
  0
LINE
  5
556
100
AcDbEntity
  8
CURVE
100
AcDbLine
 62
250
  6
CONTINUOUS
 10
5.75
 20
-1.0
 30
0.0
 11
5.75
 21
-1.6785714447
 31
0.0
  0
LINE
  5
557
100
AcDbEntity
  8
CURVE
100
AcDbLine
 62
250
  6
CONTINUOUS
 10
5.829484
 20
-13.225174
 30
0.0
 11
5.829484
 21
-14.571041
 31
0.0
  0
LINE
  5
558
100
AcDbEntity
  8
DRAFT
100
AcDbLine
 62
7
  6
CONTINUOUS
 10
6.5043634339
 20
-20.0043634339
 30
0.0
 11
6.5043634339
 21
-19.7043634339
 31
0.0
  0
LINE
  5
559
100
AcDbEntity
  8
DRAFT
100
AcDbLine
 62
7
  6
CONTINUOUS
 10
6.5043634339
 20
19.7043634339
 30
0.0
 11
6.5043634339
 21
20.0043634339
 31
0.0
  0
LINE
  5
55A
100
AcDbEntity
  8
CURVE
100
AcDbLine
 62
250
  6
CONTINUOUS
 10
6.5642857224
 20
13.3214285553
 30
0.0
 11
6.5642857224
 21
14.0
 31
0.0
  0
LINE
  5
55B
100
AcDbEntity
  8
DRAFT
100
AcDbLine
 62
7
  6
CONTINUOUS
 10
6.6047224135
 20
-20.1047224135
 30
0.0
 11
6.6047224135
 21
-19.8047224135
 31
0.0
  0
LINE
  5
55C
100
AcDbEntity
  8
DRAFT
100
AcDbLine
 62
7
  6
CONTINUOUS
 10
6.6047224135
 20
19.8047224135
 30
0.0
 11
6.6047224135
 21
20.1047224135
 31
0.0
  0
LINE
  5
55D
100
AcDbEntity
  8
DRAFT
100
AcDbLine
 62
7
  6
CONTINUOUS
 10
7.1952775865
 20
-20.9959955457
 30
0.0
 11
7.1952775865
 21
-19.8047224135
 31
0.0
  0
LINE
  5
55E
100
AcDbEntity
  8
DRAFT
100
AcDbLine
 62
7
  6
CONTINUOUS
 10
7.1952775865
 20
19.8047224135
 30
0.0
 11
7.1952775865
 21
20.9959955457
 31
0.0
  0
LINE
  5
55F
100
AcDbEntity
  8
0
100
AcDbLine
 62
7
  6
CONTINUOUS
 10
7.25
 20
-22.4
 30
0.0
 11
7.25
 21
-23.8443375673
 31
0.0
  0
LINE
  5
560
100
AcDbEntity
  8
0
100
AcDbLine
 62
7
  6
CONTINUOUS
 10
7.25
 20
22.4
 30
0.0
 11
7.25
 21
23.8443375673
 31
0.0
  0
LINE
  5
561
100
AcDbEntity
  8
0
100
AcDbLine
 62
7
  6
CONTINUOUS
 10
7.254371834
 20
24.2456323968
 30
0.0
 11
7.254371834
 21
23.8443375673
 31
0.0
  0
LINE
  5
562
100
AcDbEntity
  8
0
100
AcDbLine
 62
7
  6
CONTINUOUS
 10
7.254371834
 20
-23.8443375673
 30
0.0
 11
7.254371834
 21
-24.2456323968
 31
0.0
  0
LINE
  5
563
100
AcDbEntity
  8
DRAFT
100
AcDbLine
 62
7
  6
CONTINUOUS
 10
7.2956365661
 20
-19.7043634339
 30
0.0
 11
7.2956365661
 21
-20.0
 31
0.0
  0
LINE
  5
564
100
AcDbEntity
  8
DRAFT
100
AcDbLine
 62
7
  6
CONTINUOUS
 10
7.2956365661
 20
19.7043634339
 30
0.0
 11
7.2956365661
 21
20.0
 31
0.0
  0
LINE
  5
565
100
AcDbEntity
  8
DRAFT
100
AcDbLine
 62
7
  6
CONTINUOUS
 10
7.3
 20
20.9
 30
0.0
 11
7.3
 21
20.0
 31
0.0
  0
LINE
  5
566
100
AcDbEntity
  8
DRAFT
100
AcDbLine
 62
7
  6
CONTINUOUS
 10
7.3
 20
-20.0
 30
0.0
 11
7.3
 21
-20.9
 31
0.0
  0
LINE
  5
567
100
AcDbEntity
  8
0
100
AcDbLine
 62
7
  6
CONTINUOUS
 10
7.4
 20
20.85
 30
0.0
 11
7.4
 21
19.7
 31
0.0
  0
LINE
  5
568
100
AcDbEntity
  8
0
100
AcDbLine
 62
7
  6
CONTINUOUS
 10
7.4
 20
-19.7
 30
0.0
 11
7.4
 21
-20.85
 31
0.0
  0
LINE
  5
569
100
AcDbEntity
  8
0
100
AcDbLine
 62
250
  6
CONTINUOUS
 10
7.25
 20
23.4104851482
 30
0.0
 11
7.254371834
 21
23.8443375673
 31
0.0
  0
LINE
  5
56A
100
AcDbEntity
  8
0
100
AcDbLine
 62
250
  6
CONTINUOUS
 10
7.4992770021
 20
23.1226497308
 30
0.0
 11
7.5043676032
 21
23.6278312164
 31
0.0
  0
LINE
  5
56B
100
AcDbEntity
  8
CURVE
100
AcDbLine
 62
250
  6
CONTINUOUS
 10
9.5571428627
 20
1.1952386856
 30
0.0
 11
9.7428571761
 21
1.3809522629
 31
0.0
  0
LINE
  5
56C
100
AcDbEntity
  8
CURVE
100
AcDbLine
 62
250
  6
CONTINUOUS
 10
9.0
 20
0.5452386856
 30
0.0
 11
9.185714294
 21
0.7309522629
 31
0.0
  0
LINE
  5
56D
100
AcDbEntity
  8
CURVE
100
AcDbLine
 62
250
  6
CONTINUOUS
 10
0.7142857432
 20
-7.7446469869
 30
0.0
 11
0.5928571284
 21
-7.8660755004
 31
0.0
  0
LINE
  5
56E
100
AcDbEntity
  8
CURVE
100
AcDbLine
 62
250
  6
CONTINUOUS
 10
10.3
 20
0.4523806572
 30
0.0
 11
10.1142857254
 21
0.2666670799
 31
0.0
  0
LINE
  5
56F
100
AcDbEntity
  8
CURVE
100
AcDbLine
 62
250
  6
CONTINUOUS
 10
0.7142857432
 20
-9.3232184733
 30
0.0
 11
0.5928571284
 21
-9.4446469869
 31
0.0
  0
LINE
  5
570
100
AcDbEntity
  8
CURVE
100
AcDbLine
 62
250
  6
CONTINUOUS
 10
9.284375
 20
-3.6
 30
0.0
 11
9.1625
 21
-3.640625
 31
0.0
  0
LINE
  5
571
100
AcDbEntity
  8
ASSI
100
AcDbLine
 62
7
  6
CONTINUOUS
 10
0.25
 20
5.75
 30
0.0
 11
4.25
 21
5.75
 31
0.0
  0
LINE
  5
572
100
AcDbEntity
  8
CURVE
100
AcDbLine
 62
250
  6
CONTINUOUS
 10
-8.5
 20
5.984518851
 30
0.0
 11
-7.2
 21
5.984518851
 31
0.0
  0
LINE
  5
573
100
AcDbEntity
  8
ASSI
100
AcDbLine
 62
7
  6
CONTINUOUS
 10
-10.7130788782
 20
6.15
 30
0.0
 11
-9.8
 21
6.15
 31
0.0
  0
LINE
  5
574
100
AcDbEntity
  8
ASSI
100
AcDbLine
 62
7
  6
CONTINUOUS
 10
-0.25
 20
6.25
 30
0.0
 11
4.75
 21
6.25
 31
0.0
  0
LINE
  5
575
100
AcDbEntity
  8
CURVE
100
AcDbLine
 62
250
  6
CONTINUOUS
 10
9.9285714507
 20
6.2714283943
 30
0.0
 11
9.371428588
 21
6.2714283943
 31
0.0
  0
LINE
  5
576
100
AcDbEntity
  8
ASSI
100
AcDbLine
 62
7
  6
CONTINUOUS
 10
4.75
 20
6.75
 30
0.0
 11
-0.25
 21
6.75
 31
0.0
  0
LINE
  5
577
100
AcDbEntity
  8
ASSI
100
AcDbLine
 62
7
  6
CONTINUOUS
 10
-10.7130788782
 20
6.85
 30
0.0
 11
-9.8
 21
6.85
 31
0.0
  0
LINE
  5
578
100
AcDbEntity
  8
CURVE
100
AcDbLine
 62
250
  6
CONTINUOUS
 10
9.371428588
 20
6.9214283943
 30
0.0
 11
9.9285714507
 21
6.9214283943
 31
0.0
  0
LINE
  5
579
100
AcDbEntity
  8
ASSI
100
AcDbLine
 62
7
  6
CONTINUOUS
 10
4.25
 20
7.25
 30
0.0
 11
0.25
 21
7.25
 31
0.0
  0
LINE
  5
57A
100
AcDbEntity
  8
IMPORT_IGES
100
AcDbLine
 62
7
  6
CONTINUOUS
 10
4.25
 20
7.4
 30
0.0
 11
0.25
 21
7.4
 31
0.0
  0
LINE
  5
57B
100
AcDbEntity
  8
CURVE
100
AcDbLine
 62
250
  6
CONTINUOUS
 10
6.03
 20
4.570166605
 30
0.0
 11
8.0048264889
 21
3.43
 31
0.0
  0
LINE
  5
57C
100
AcDbEntity
  8
CURVE
100
AcDbLine
 62
250
  6
CONTINUOUS
 10
9.185714294
 20
0.2666670799
 30
0.0
 11
9.0
 21
0.4523806572
 31
0.0
  0
LINE
  5
57D
100
AcDbEntity
  8
CURVE
100
AcDbLine
 62
250
  6
CONTINUOUS
 10
9.0
 20
1.3809522629
 30
0.0
 11
9.185714294
 21
1.1952386856
 31
0.0
  0
LINE
  5
57E
100
AcDbEntity
  8
CURVE
100
AcDbLine
 62
250
  6
CONTINUOUS
 10
9.690625
 20
-3.884375
 30
0.0
 11
9.609375
 21
-3.721875
 31
0.0
  0
LINE
  5
57F
100
AcDbEntity
  8
0
100
AcDbLine
 62
7
  6
CONTINUOUS
 10
7.4366556363
 20
20.85
 30
0.0
 11
7.4366556363
 21
19.6633443637
 31
0.0
  0
LINE
  5
580
100
AcDbEntity
  8
0
100
AcDbLine
 62
7
  6
CONTINUOUS
 10
7.4366556363
 20
-19.6633443637
 30
0.0
 11
7.4366556363
 21
-20.85
 31
0.0
  0
LINE
  5
581
100
AcDbEntity
  8
0
100
AcDbLine
 62
250
  6
CONTINUOUS
 10
7.5043676032
 20
-23.6278312164
 30
0.0
 11
7.5043676032
 21
-24.495628166
 31
0.0
  0
LINE
  5
582
100
AcDbEntity
  8
0
100
AcDbLine
 62
250
  6
CONTINUOUS
 10
7.5043676032
 20
23.6278312164
 30
0.0
 11
7.5043676032
 21
24.495628166
 31
0.0
  0
LINE
  5
583
100
AcDbEntity
  8
0
100
AcDbLine
 62
250
  6
CONTINUOUS
 10
7.5666456542
 20
21.3359869487
 30
0.0
 11
7.5666456542
 21
20.9959955457
 31
0.0
  0
LINE
  5
584
100
AcDbEntity
  8
0
100
AcDbLine
 62
250
  6
CONTINUOUS
 10
7.5666456542
 20
-20.9959955457
 30
0.0
 11
7.5666456542
 21
-21.3359869487
 31
0.0
  0
LINE
  5
585
100
AcDbEntity
  8
CURVE
100
AcDbLine
 62
250
  6
CONTINUOUS
 10
7.65
 20
14.0
 30
0.0
 11
7.65
 21
13.3214285553
 31
0.0
  0
LINE
  5
586
100
AcDbEntity
  8
0
100
AcDbLine
 62
250
  6
CONTINUOUS
 10
8.0665695018
 20
21.4537354271
 30
0.0
 11
8.0665695018
 21
20.9917082642
 31
0.0
  0
LINE
  5
587
100
AcDbEntity
  8
0
100
AcDbLine
 62
7
  6
CONTINUOUS
 10
8.0665695018
 20
-21.5834304982
 30
0.0
 11
8.0665695018
 21
-21.5710888434
 31
0.0
  0
LINE
  5
588
100
AcDbEntity
  8
0
100
AcDbLine
 62
7
  6
CONTINUOUS
 10
8.0665695018
 20
-20.9087268678
 30
0.0
 11
8.0665695018
 21
-20.9
 31
0.0
  0
LINE
  5
589
100
AcDbEntity
  8
0
100
AcDbLine
 62
250
  6
CONTINUOUS
 10
8.0665695018
 20
-20.9917082642
 30
0.0
 11
8.0665695018
 21
-21.4537354271
 31
0.0
  0
LINE
  5
58A
100
AcDbEntity
  8
0
100
AcDbLine
 62
7
  6
CONTINUOUS
 10
8.0665695018
 20
20.9
 30
0.0
 11
8.0665695018
 21
20.9087268678
 31
0.0
  0
LINE
  5
58B
100
AcDbEntity
  8
0
100
AcDbLine
 62
7
  6
CONTINUOUS
 10
8.0665695018
 20
21.5710888434
 30
0.0
 11
8.0665695018
 21
21.5834304982
 31
0.0
  0
LINE
  5
58C
100
AcDbEntity
  8
CURVE
100
AcDbLine
 62
250
  6
CONTINUOUS
 10
8.148279
 20
-14.61141
 30
0.0
 11
8.148279
 21
-13.78807
 31
0.0
  0
LINE
  5
58D
100
AcDbEntity
  8
0
100
AcDbLine
 62
7
  6
CONTINUOUS
 10
8.2325449351
 20
21.4051134101
 30
0.0
 11
8.2325449351
 21
20.9087268678
 31
0.0
  0
LINE
  5
58E
100
AcDbEntity
  8
0
100
AcDbLine
 62
7
  6
CONTINUOUS
 10
8.2325449351
 20
-20.9087268678
 30
0.0
 11
8.2325449351
 21
-21.4051134101
 31
0.0
  0
LINE
  5
58F
100
AcDbEntity
  8
CURVE
100
AcDbLine
 62
250
  6
CONTINUOUS
 10
8.363915
 20
-13.78807
 30
0.0
 11
8.363915
 21
-14.61141
 31
0.0
  0
LINE
  5
590
100
AcDbEntity
  8
CURVE
100
AcDbLine
 62
250
  6
CONTINUOUS
 10
8.456331
 20
-15.417947
 30
0.0
 11
8.456331
 21
-15.067887
 31
0.0
  0
LINE
  5
591
100
AcDbEntity
  8
CURVE
100
AcDbLine
 62
250
  6
CONTINUOUS
 10
8.828795
 20
-15.067887
 30
0.0
 11
8.828795
 21
-15.417947
 31
0.0
  0
LINE
  5
592
100
AcDbEntity
  8
CURVE
100
AcDbLine
 62
250
  6
CONTINUOUS
 10
9.0
 20
1.7523806572
 30
0.0
 11
9.0
 21
1.3809522629
 31
0.0
  0
LINE
  5
593
100
AcDbEntity
  8
CURVE
100
AcDbLine
 62
250
  6
CONTINUOUS
 10
9.0
 20
-1.2190477371
 30
0.0
 11
9.0
 21
-1.7761909485
 31
0.0
  0
LINE
  5
594
100
AcDbEntity
  8
CURVE
100
AcDbLine
 62
250
  6
CONTINUOUS
 10
9.0
 20
-3.925
 30
0.0
 11
9.0
 21
-4.046875
 31
0.0
  0
LINE
  5
595
100
AcDbEntity
  8
CURVE
100
AcDbLine
 62
250
  6
CONTINUOUS
 10
9.0
 20
0.4523806572
 30
0.0
 11
9.0
 21
0.5452386856
 31
0.0
  0
LINE
  5
596
100
AcDbEntity
  8
CURVE
100
AcDbLine
 62
250
  6
CONTINUOUS
 10
9.0
 20
6.55
 30
0.0
 11
9.0
 21
6.6428574085
 31
0.0
  0
LINE
  5
597
100
AcDbEntity
  8
CURVE
100
AcDbLine
 62
250
  6
CONTINUOUS
 10
9.0
 20
8.3142858028
 30
0.0
 11
9.0
 21
8.9642858028
 31
0.0
  0
LINE
  5
598
100
AcDbEntity
  8
CURVE
100
AcDbLine
 62
250
  6
CONTINUOUS
 10
9.0
 20
12.5857143521
 30
0.0
 11
9.0
 21
12.6785714507
 31
0.0
  0
LINE
  5
599
100
AcDbEntity
  8
CURVE
100
AcDbLine
 62
250
  6
CONTINUOUS
 10
9.0
 20
13.3285714507
 30
0.0
 11
9.0
 21
13.9785714507
 31
0.0
  0
LINE
  5
59A
100
AcDbEntity
  8
CURVE
100
AcDbLine
 62
250
  6
CONTINUOUS
 10
9.0
 20
14.35
 30
0.0
 11
9.0
 21
15.0
 31
0.0
  0
LINE
  5
59B
100
AcDbEntity
  8
CURVE
100
AcDbLine
 62
250
  6
CONTINUOUS
 10
9.191705
 20
-12.690027
 30
0.0
 11
9.191705
 21
-15.127934
 31
0.0
  0
LINE
  5
59C
100
AcDbEntity
  8
CURVE
100
AcDbLine
 62
250
  6
CONTINUOUS
 10
9.1625
 20
-3.640625
 30
0.0
 11
9.08125
 21
-3.721875
 31
0.0
  0
LINE
  5
59D
100
AcDbEntity
  8
CURVE
100
AcDbLine
 62
250
  6
CONTINUOUS
 10
9.934375
 20
-3.721875
 30
0.0
 11
9.853125
 21
-3.7625
 31
0.0
  0
LINE
  5
59E
100
AcDbEntity
  8
IMPORT_IGES
100
AcDbLine
 62
7
  6
CONTINUOUS
 10
0.796
 20
7.9
 30
0.0
 11
0.25
 21
7.7580516086
 31
0.0
  0
LINE
  5
59F
100
AcDbEntity
  8
CURVE
100
AcDbLine
 62
250
  6
CONTINUOUS
 10
-7.2
 20
7.4702331256
 30
0.0
 11
-8.5
 21
7.4702331256
 31
0.0
  0
LINE
  5
5A0
100
AcDbEntity
  8
CURVE
100
AcDbLine
 62
250
  6
CONTINUOUS
 10
9.0
 20
7.5095238686
 30
0.0
 11
9.65
 21
7.5095238686
 31
0.0
  0
LINE
  5
5A1
100
AcDbEntity
  8
IMPORT_IGES
100
AcDbLine
 62
7
  6
CONTINUOUS
 10
3.796
 20
7.9
 30
0.0
 11
0.796
 21
7.9
 31
0.0
  0
LINE
  5
5A2
100
AcDbEntity
  8
CURVE
100
AcDbLine
 62
250
  6
CONTINUOUS
 10
5.75
 20
8.05
 30
0.0
 11
7.65
 21
8.05
 31
0.0
  0
LINE
  5
5A3
100
AcDbEntity
  8
CURVE
100
AcDbLine
 62
250
  6
CONTINUOUS
 10
-8.5
 20
8.2130903017
 30
0.0
 11
-7.2
 21
8.2130903017
 31
0.0
  0
LINE
  5
5A4
100
AcDbEntity
  8
CURVE
100
AcDbLine
 62
250
  6
CONTINUOUS
 10
9.9285714507
 20
8.3142858028
 30
0.0
 11
10.1142857254
 21
8.3142858028
 31
0.0
  0
LINE
  5
5A5
100
AcDbEntity
  8
CURVE
100
AcDbLine
 62
250
  6
CONTINUOUS
 10
5.75
 20
9.0
 30
0.0
 11
7.65
 21
9.0
 31
0.0
  0
LINE
  5
5A6
100
AcDbEntity
  8
CURVE
100
AcDbLine
 62
250
  6
CONTINUOUS
 10
9.0
 20
5.5285716057
 30
0.0
 11
10.3
 21
5.1571425915
 31
0.0
  0
LINE
  5
5A7
100
AcDbEntity
  8
IMPORT_IGES
100
AcDbLine
 62
7
  6
CONTINUOUS
 10
4.25
 20
7.5757142857
 30
0.0
 11
3.796
 21
7.9
 31
0.0
  0
LINE
  5
5A8
100
AcDbEntity
  8
CURVE
100
AcDbLine
 62
250
  6
CONTINUOUS
 10
10.1142857254
 20
0.7309522629
 30
0.0
 11
10.3
 21
0.5452386856
 31
0.0
  0
LINE
  5
5A9
100
AcDbEntity
  8
ASSI
100
AcDbLine
 62
7
  6
CONTINUOUS
 10
-0.25
 20
11.25
 30
0.0
 11
0.25
 21
10.75
 31
0.0
  0
LINE
  5
5AA
100
AcDbEntity
  8
ASSI
100
AcDbLine
 62
7
  6
CONTINUOUS
 10
4.75
 20
6.75
 30
0.0
 11
4.25
 21
7.25
 31
0.0
  0
LINE
  5
5AB
100
AcDbEntity
  8
CURVE
100
AcDbLine
 62
250
  6
CONTINUOUS
 10
8.0048264889
 20
3.43
 30
0.0
 11
7.7448264889
 21
3.88033321
 31
0.0
  0
LINE
  5
5AC
100
AcDbEntity
  8
CURVE
100
AcDbLine
 62
250
  6
CONTINUOUS
 10
6.8285714626
 20
4.8900000019
 30
0.0
 11
7.0428571641
 21
4.3899999925
 31
0.0
  0
LINE
  5
5AD
100
AcDbEntity
  8
CURVE
100
AcDbLine
 62
250
  6
CONTINUOUS
 10
6.6142857164
 20
3.8185714105
 30
0.0
 11
6.8285714626
 21
3.2471427837
 31
0.0
  0
LINE
  5
5AE
100
AcDbEntity
  8
CURVE
100
AcDbLine
 62
250
  6
CONTINUOUS
 10
10.21875
 20
-3.965625
 30
0.0
 11
10.178125
 21
-3.84375
 31
0.0
  0
LINE
  5
5AF
100
AcDbEntity
  8
CURVE
100
AcDbLine
 62
250
  6
CONTINUOUS
 10
9.0
 20
-4.046875
 30
0.0
 11
9.040625
 21
-4.209375
 31
0.0
  0
LINE
  5
5B0
100
AcDbEntity
  8
CURVE
100
AcDbLine
 62
250
  6
CONTINUOUS
 10
9.73125
 20
-4.046875
 30
0.0
 11
9.690625
 21
-3.884375
 31
0.0
  0
LINE
  5
5B1
100
AcDbEntity
  8
0
100
AcDbLine
 62
250
  6
CONTINUOUS
 10
9.8956323968
 20
23.6278312164
 30
0.0
 11
9.9007229979
 21
23.1226497308
 31
0.0
  0
LINE
  5
5B2
100
AcDbEntity
  8
0
100
AcDbLine
 62
250
  6
CONTINUOUS
 10
10.145628166
 20
23.8443375673
 30
0.0
 11
10.15
 21
23.4104851482
 31
0.0
  0
LINE
  5
5B3
100
AcDbEntity
  8
0
100
AcDbLine
 62
250
  6
CONTINUOUS
 10
10.145628166
 20
24.2456323968
 30
0.0
 11
10.1456238859
 21
24.2470868299
 31
0.0
  0
LINE
  5
5B4
100
AcDbEntity
  8
CURVE
100
AcDbLine
 62
250
  6
CONTINUOUS
 10
9.2785714313
 20
7.2928574085
 30
0.0
 11
9.2785714313
 21
7.9428574085
 31
0.0
  0
LINE
  5
5B5
100
AcDbEntity
  8
CURVE
100
AcDbLine
 62
250
  6
CONTINUOUS
 10
9.4642857254
 20
10.9142858028
 30
0.0
 11
9.4642857254
 21
10.3571429014
 31
0.0
  0
LINE
  5
5B6
100
AcDbEntity
  8
CURVE
100
AcDbLine
 62
250
  6
CONTINUOUS
 10
9.586323
 20
-13.218216
 30
0.0
 11
9.586323
 21
-13.31759
 31
0.0
  0
LINE
  5
5B7
100
AcDbEntity
  8
CURVE
100
AcDbLine
 62
250
  6
CONTINUOUS
 10
9.73125
 20
-4.00625
 30
0.0
 11
9.73125
 21
-4.046875
 31
0.0
  0
LINE
  5
5B8
100
AcDbEntity
  8
CURVE
100
AcDbLine
 62
250
  6
CONTINUOUS
 10
9.7428571761
 20
-0.1976193428
 30
0.0
 11
9.7428571761
 21
-0.8476193428
 31
0.0
  0
LINE
  5
5B9
100
AcDbEntity
  8
CURVE
100
AcDbLine
 62
250
  6
CONTINUOUS
 10
9.7428571761
 20
1.3809522629
 30
0.0
 11
9.7428571761
 21
1.7523806572
 31
0.0
  0
LINE
  5
5BA
100
AcDbEntity
  8
ASSI
100
AcDbLine
 62
7
  6
CONTINUOUS
 10
9.7973819397
 20
-19.5263078747
 30
0.0
 11
9.7973819397
 21
-19.6026183423
 31
0.0
  0
LINE
  5
5BB
100
AcDbEntity
  8
0
100
AcDbLine
 62
250
  6
CONTINUOUS
 10
9.8956323968
 20
-23.6278312164
 30
0.0
 11
9.8956323968
 21
-24.495628166
 31
0.0
  0
LINE
  5
5BC
100
AcDbEntity
  8
0
100
AcDbLine
 62
250
  6
CONTINUOUS
 10
9.8956323968
 20
23.6278312164
 30
0.0
 11
9.8956323968
 21
24.495628166
 31
0.0
  0
LINE
  5
5BD
100
AcDbEntity
  8
CURVE
100
AcDbLine
 62
250
  6
CONTINUOUS
 10
9.9285714507
 20
-1.2190477371
 30
0.0
 11
9.9285714507
 21
-1.7761909485
 31
0.0
  0
LINE
  5
5BE
100
AcDbEntity
  8
0
100
AcDbLine
 62
7
  6
CONTINUOUS
 10
10.145628166
 20
-24.2456323968
 30
0.0
 11
10.145628166
 21
-23.8443375673
 31
0.0
  0
LINE
  5
5BF
100
AcDbEntity
  8
0
100
AcDbLine
 62
7
  6
CONTINUOUS
 10
10.145628166
 20
23.8443375673
 30
0.0
 11
10.145628166
 21
24.2456323968
 31
0.0
  0
LINE
  5
5C0
100
AcDbEntity
  8
0
100
AcDbLine
 62
7
  6
CONTINUOUS
 10
10.15
 20
-22.4
 30
0.0
 11
10.15
 21
-23.8443375673
 31
0.0
  0
LINE
  5
5C1
100
AcDbEntity
  8
0
100
AcDbLine
 62
7
  6
CONTINUOUS
 10
10.15
 20
22.4
 30
0.0
 11
10.15
 21
23.8443375673
 31
0.0
  0
LINE
  5
5C2
100
AcDbEntity
  8
CURVE
100
AcDbLine
 62
250
  6
CONTINUOUS
 10
10.21875
 20
-4.046875
 30
0.0
 11
10.21875
 21
-3.965625
 31
0.0
  0
LINE
  5
5C3
100
AcDbEntity
  8
CURVE
100
AcDbLine
 62
250
  6
CONTINUOUS
 10
10.3
 20
12.6785714507
 30
0.0
 11
10.3
 21
12.5857143521
 31
0.0
  0
LINE
  5
5C4
100
AcDbEntity
  8
CURVE
100
AcDbLine
 62
250
  6
CONTINUOUS
 10
10.3
 20
6.6428574085
 30
0.0
 11
10.3
 21
6.55
 31
0.0
  0
LINE
  5
5C5
100
AcDbEntity
  8
CURVE
100
AcDbLine
 62
250
  6
CONTINUOUS
 10
10.3
 20
1.7523806572
 30
0.0
 11
10.3
 21
1.1952386856
 31
0.0
  0
LINE
  5
5C6
100
AcDbEntity
  8
CURVE
100
AcDbLine
 62
250
  6
CONTINUOUS
 10
10.3
 20
0.5452386856
 30
0.0
 11
10.3
 21
0.4523806572
 31
0.0
  0
LINE
  5
5C7
100
AcDbEntity
  8
CURVE
100
AcDbLine
 62
250
  6
CONTINUOUS
 10
10.3
 20
8.5
 30
0.0
 11
10.3
 21
8.7785716057
 31
0.0
  0
LINE
  5
5C8
100
AcDbEntity
  8
CURVE
100
AcDbLine
 62
250
  6
CONTINUOUS
 10
10.3
 20
13.5142856479
 30
0.0
 11
10.3
 21
13.7928571761
 31
0.0
  0
LINE
  5
5C9
100
AcDbEntity
  8
CURVE
100
AcDbLine
 62
250
  6
CONTINUOUS
 10
10.3
 20
14.5357142746
 30
0.0
 11
10.3
 21
14.814285706
 31
0.0
  0
LINE
  5
5CA
100
AcDbEntity
  8
CURVE
100
AcDbLine
 62
250
  6
CONTINUOUS
 10
9.461245
 20
-14.416076
 30
0.0
 11
9.461803
 21
-13.843073
 31
0.0
  0
LINE
  5
5CB
100
AcDbEntity
  8
CURVE
100
AcDbLine
 62
250
  6
CONTINUOUS
 10
9.679297
 20
-13.843073
 30
0.0
 11
9.678739
 21
-14.416076
 31
0.0
  0
LINE
  5
5CC
100
AcDbEntity
  8
0
100
AcDbLine
 62
250
  6
CONTINUOUS
 10
9.9007229979
 20
-23.1226497308
 30
0.0
 11
9.8956323968
 21
-23.6278312164
 31
0.0
  0
LINE
  5
5CD
100
AcDbEntity
  8
0
100
AcDbLine
 62
250
  6
CONTINUOUS
 10
10.15
 20
-23.4104851482
 30
0.0
 11
10.145628166
 21
-23.8443375673
 31
0.0
  0
LINE
  5
5CE
100
AcDbEntity
  8
CURVE
100
AcDbLine
 62
250
  6
CONTINUOUS
 10
10.178125
 20
-4.209375
 30
0.0
 11
10.21875
 21
-4.046875
 31
0.0
  0
LINE
  5
5CF
100
AcDbEntity
  8
CURVE
100
AcDbLine
 62
250
  6
CONTINUOUS
 10
9.040625
 20
-3.803125
 30
0.0
 11
9.0
 21
-3.925
 31
0.0
  0
LINE
  5
5D0
100
AcDbEntity
  8
CURVE
100
AcDbLine
 62
250
  6
CONTINUOUS
 10
9.771875
 20
-3.884375
 30
0.0
 11
9.73125
 21
-4.00625
 31
0.0
  0
LINE
  5
5D1
100
AcDbEntity
  8
CURVE
100
AcDbLine
 62
250
  6
CONTINUOUS
 10
10.1375
 20
-4.33125
 30
0.0
 11
10.178125
 21
-4.209375
 31
0.0
  0
LINE
  5
5D2
100
AcDbEntity
  8
CURVE
100
AcDbLine
 62
250
  6
CONTINUOUS
 10
9.08125
 20
-3.721875
 30
0.0
 11
9.040625
 21
-3.803125
 31
0.0
  0
LINE
  5
5D3
100
AcDbEntity
  8
CURVE
100
AcDbLine
 62
250
  6
CONTINUOUS
 10
9.8125
 20
-3.803125
 30
0.0
 11
9.771875
 21
-3.884375
 31
0.0
  0
LINE
  5
5D4
100
AcDbEntity
  8
CURVE
100
AcDbLine
 62
250
  6
CONTINUOUS
 10
10.096875
 20
-4.4125
 30
0.0
 11
10.1375
 21
-4.33125
 31
0.0
  0
LINE
  5
5D5
100
AcDbEntity
  8
DRAFT
100
AcDbLine
 62
7
  6
CONTINUOUS
 10
-6.6047224135
 20
-19.8047224135
 30
0.0
 11
-6.5043634339
 21
-19.7043634339
 31
0.0
  0
LINE
  5
5D6
100
AcDbEntity
  8
DRAFT
100
AcDbLine
 62
7
  6
CONTINUOUS
 10
-6.6047224135
 20
-20.1047224135
 30
0.0
 11
-6.5043634339
 21
-20.0043634339
 31
0.0
  0
LINE
  5
5D7
100
AcDbEntity
  8
CURVE
100
AcDbLine
 62
250
  6
CONTINUOUS
 10
9.853125
 20
-3.7625
 30
0.0
 11
9.8125
 21
-3.803125
 31
0.0
  0
LINE
  5
5D8
100
AcDbEntity
  8
CURVE
100
AcDbLine
 62
250
  6
CONTINUOUS
 10
-8.314285706
 20
-14.8642858028
 30
0.0
 11
-8.128571412
 21
-14.7714287043
 31
0.0
  0
LINE
  5
5D9
100
AcDbEntity
  8
CURVE
100
AcDbLine
 62
250
  6
CONTINUOUS
 10
-7.3857142746
 20
-15.3285712957
 30
0.0
 11
-7.5714285493
 21
-15.4214287043
 31
0.0
  0
LINE
  5
5DA
100
AcDbEntity
  8
CURVE
100
AcDbLine
 62
250
  6
CONTINUOUS
 10
-3.462794
 20
9.92959
 30
0.0
 11
-4.23332
 21
9.92959
 31
0.0
  0
LINE
  5
5DB
100
AcDbEntity
  8
CURVE
100
AcDbLine
 62
250
  6
CONTINUOUS
 10
-7.766704
 20
9.92959
 30
0.0
 11
-8.53723
 21
9.92959
 31
0.0
  0
LINE
  5
5DC
100
AcDbEntity
  8
CURVE
100
AcDbLine
 62
250
  6
CONTINUOUS
 10
-5.617512
 20
10.43959
 30
0.0
 11
-6.382512
 21
10.43959
 31
0.0
  0
LINE
  5
5DD
100
AcDbEntity
  8
IMPORT_IGES
100
AcDbLine
 62
7
  6
CONTINUOUS
 10
3.796
 20
10.6
 30
0.0
 11
0.796
 21
10.6
 31
0.0
  0
LINE
  5
5DE
100
AcDbEntity
  8
ASSI
100
AcDbLine
 62
7
  6
CONTINUOUS
 10
0.25
 20
10.75
 30
0.0
 11
4.25
 21
10.75
 31
0.0
  0
LINE
  5
5DF
100
AcDbEntity
  8
IMPORT_IGES
100
AcDbLine
 62
7
  6
CONTINUOUS
 10
0.2480392762
 20
10.7424581379
 30
0.0
 11
0.796
 21
10.6
 31
0.0
  0
LINE
  5
5E0
100
AcDbEntity
  8
CURVE
100
AcDbLine
 62
250
  6
CONTINUOUS
 10
9.2785714313
 20
7.9428574085
 30
0.0
 11
10.3
 21
7.6642858028
 31
0.0
  0
LINE
  5
5E1
100
AcDbEntity
  8
CURVE
100
AcDbLine
 62
250
  6
CONTINUOUS
 10
9.371428588
 20
6.2714283943
 30
0.0
 11
9.185714294
 21
6.3642858028
 31
0.0
  0
LINE
  5
5E2
100
AcDbEntity
  8
CURVE
100
AcDbLine
 62
250
  6
CONTINUOUS
 10
9.9285714507
 20
6.9214283943
 30
0.0
 11
10.1142857254
 21
6.8285716057
 31
0.0
  0
LINE
  5
5E3
100
AcDbEntity
  8
DRAFT
100
AcDbLine
 62
7
  6
CONTINUOUS
 10
-6.6047224135
 20
19.8047224135
 30
0.0
 11
-6.5043634339
 21
19.7043634339
 31
0.0
  0
LINE
  5
5E4
100
AcDbEntity
  8
DRAFT
100
AcDbLine
 62
7
  6
CONTINUOUS
 10
-6.6047224135
 20
20.1047224135
 30
0.0
 11
-6.5043634339
 21
20.0043634339
 31
0.0
  0
LINE
  5
5E5
100
AcDbEntity
  8
CURVE
100
AcDbLine
 62
250
  6
CONTINUOUS
 10
9.185714294
 20
6.3642858028
 30
0.0
 11
9.0
 21
6.55
 31
0.0
  0
LINE
  5
5E6
100
AcDbEntity
  8
CURVE
100
AcDbLine
 62
250
  6
CONTINUOUS
 10
9.4023809671
 20
4.7857141972
 30
0.0
 11
9.4952381045
 21
4.5690477371
 31
0.0
  0
LINE
  5
5E7
100
AcDbEntity
  8
CURVE
100
AcDbLine
 62
250
  6
CONTINUOUS
 10
9.3095238104
 20
4.3214283943
 30
0.0
 11
9.4023809671
 21
4.0738090515
 31
0.0
  0
LINE
  5
5E8
100
AcDbEntity
  8
ASSI
100
AcDbLine
 62
7
  6
CONTINUOUS
 10
11.0130903017
 20
-17.9912243901
 30
0.0
 11
11.0130903017
 21
17.9912243901
 31
0.0
  0
LINE
  5
5E9
100
AcDbEntity
  8
0
100
AcDbLine
 62
7
  6
CONTINUOUS
 10
11.0278145455
 20
-17.6210881763
 30
0.0
 11
11.0278145455
 21
17.6210881763
 31
0.0
  0
LINE
  5
5EA
100
AcDbEntity
  8
0
100
AcDbLine
 62
7
  6
CONTINUOUS
 10
11.1325462644
 20
-18.5174537356
 30
0.0
 11
11.1325462644
 21
-17.9192894123
 31
0.0
  0
LINE
  5
5EB
100
AcDbEntity
  8
0
100
AcDbLine
 62
7
  6
CONTINUOUS
 10
11.1325462644
 20
17.9192894123
 30
0.0
 11
11.1325462644
 21
18.5174537356
 31
0.0
  0
LINE
  5
5EC
100
AcDbEntity
  8
0
100
AcDbLine
 62
7
  6
CONTINUOUS
 10
11.1412731322
 20
21.8941990932
 30
0.0
 11
11.1412731322
 21
18.5087268678
 31
0.0
  0
LINE
  5
5ED
100
AcDbEntity
  8
0
100
AcDbLine
 62
7
  6
CONTINUOUS
 10
11.1412731322
 20
-18.5087268678
 30
0.0
 11
11.1412731322
 21
-21.8941990932
 31
0.0
  0
LINE
  5
5EE
100
AcDbEntity
  8
0
100
AcDbLine
 62
7
  6
CONTINUOUS
 10
11.15
 20
-21.900016923
 30
0.0
 11
11.15
 21
21.900016923
 31
0.0
  0
LINE
  5
5EF
100
AcDbEntity
  8
0
100
AcDbLine
 62
7
  6
CONTINUOUS
 10
-3.5
 20
-19.7
 30
0.0
 11
-3.4633443637
 21
-19.6633443637
 31
0.0
  0
LINE
  5
5F0
100
AcDbEntity
  8
0
100
AcDbLine
 62
7
  6
CONTINUOUS
 10
-3.5
 20
-19.9
 30
0.0
 11
-3.4633443637
 21
-19.8633443637
 31
0.0
  0
LINE
  5
5F1
100
AcDbEntity
  8
0
100
AcDbLine
 62
7
  6
CONTINUOUS
 10
-4.45
 20
-22.4
 30
0.0
 11
-4.406077753
 21
-22.356077753
 31
0.0
  0
LINE
  5
5F2
100
AcDbEntity
  8
0
100
AcDbLine
 62
7
  6
CONTINUOUS
 10
-7.1905416262
 20
-22.3359700255
 30
0.0
 11
-7.2558178298
 21
-22.3941821702
 31
0.0
  0
LINE
  5
5F3
100
AcDbEntity
  8
0
100
AcDbLine
 62
250
  6
CONTINUOUS
 10
-11.15
 20
-21.900016923
 30
0.0
 11
-11.1412731322
 21
-21.8941990932
 31
0.0
  0
LINE
  5
5F4
100
AcDbEntity
  8
0
100
AcDbLine
 62
250
  6
CONTINUOUS
 10
-11.15
 20
-17.6716990487
 30
0.0
 11
-11.0278145455
 21
-17.6210881763
 31
0.0
  0
LINE
  5
5F5
100
AcDbEntity
  8
IMPORT_IGES
100
AcDbLine
 62
7
  6
CONTINUOUS
 10
0.796
 20
12.9
 30
0.0
 11
0.25
 21
12.7580516086
 31
0.0
  0
LINE
  5
5F6
100
AcDbEntity
  8
ASSI
100
AcDbLine
 62
7
  6
CONTINUOUS
 10
-10.7130788782
 20
11.15
 30
0.0
 11
-9.8
 21
11.15
 31
0.0
  0
LINE
  5
5F7
100
AcDbEntity
  8
ASSI
100
AcDbLine
 62
7
  6
CONTINUOUS
 10
-0.25
 20
11.25
 30
0.0
 11
4.75
 21
11.25
 31
0.0
  0
LINE
  5
5F8
100
AcDbEntity
  8
ASSI
100
AcDbLine
 62
7
  6
CONTINUOUS
 10
4.75
 20
11.75
 30
0.0
 11
-0.25
 21
11.75
 31
0.0
  0
LINE
  5
5F9
100
AcDbEntity
  8
ASSI
100
AcDbLine
 62
7
  6
CONTINUOUS
 10
-10.7130788782
 20
11.85
 30
0.0
 11
-9.8
 21
11.85
 31
0.0
  0
LINE
  5
5FA
100
AcDbEntity
  8
ASSI
100
AcDbLine
 62
7
  6
CONTINUOUS
 10
4.25
 20
12.25
 30
0.0
 11
0.25
 21
12.25
 31
0.0
  0
LINE
  5
5FB
100
AcDbEntity
  8
CURVE
100
AcDbLine
 62
250
  6
CONTINUOUS
 10
9.9285714507
 20
12.3071429014
 30
0.0
 11
9.371428588
 21
12.3071429014
 31
0.0
  0
LINE
  5
5FC
100
AcDbEntity
  8
IMPORT_IGES
100
AcDbLine
 62
7
  6
CONTINUOUS
 10
4.25
 20
12.4
 30
0.0
 11
0.25
 21
12.4
 31
0.0
  0
LINE
  5
5FD
100
AcDbEntity
  8
0
100
AcDbLine
 62
250
  6
CONTINUOUS
 10
-11.0278145455
 20
17.6210881763
 30
0.0
 11
-11.15
 21
17.6716990487
 31
0.0
  0
LINE
  5
5FE
100
AcDbEntity
  8
0
100
AcDbLine
 62
250
  6
CONTINUOUS
 10
-11.1412731322
 20
21.8941990932
 30
0.0
 11
-11.15
 21
21.900016923
 31
0.0
  0
LINE
  5
5FF
100
AcDbEntity
  8
CURVE
100
AcDbLine
 62
250
  6
CONTINUOUS
 10
9.0
 20
8.9642858028
 30
0.0
 11
9.9285714507
 21
8.3142858028
 31
0.0
  0
LINE
  5
600
100
AcDbEntity
  8
IMPORT_IGES
100
AcDbLine
 62
7
  6
CONTINUOUS
 10
4.25
 20
12.5757142857
 30
0.0
 11
3.796
 21
12.9
 31
0.0
  0
LINE
  5
601
100
AcDbEntity
  8
0
100
AcDbLine
 62
7
  6
CONTINUOUS
 10
-7.1905416262
 20
22.3359700255
 30
0.0
 11
-7.2558178298
 21
22.3941821702
 31
0.0
  0
LINE
  5
602
100
AcDbEntity
  8
ASSI
100
AcDbLine
 62
7
  6
CONTINUOUS
 10
-0.25
 20
16.25
 30
0.0
 11
0.25
 21
15.75
 31
0.0
  0
LINE
  5
603
100
AcDbEntity
  8
0
100
AcDbLine
 62
7
  6
CONTINUOUS
 10
-3.5
 20
19.7
 30
0.0
 11
-3.4633443637
 21
19.6633443637
 31
0.0
  0
LINE
  5
604
100
AcDbEntity
  8
0
100
AcDbLine
 62
7
  6
CONTINUOUS
 10
-3.4633443637
 20
19.8633443637
 30
0.0
 11
-3.5
 21
19.9
 31
0.0
  0
LINE
  5
605
100
AcDbEntity
  8
ASSI
100
AcDbLine
 62
7
  6
CONTINUOUS
 10
4.75
 20
11.75
 30
0.0
 11
4.25
 21
12.25
 31
0.0
  0
LINE
  5
606
100
AcDbEntity
  8
CURVE
100
AcDbLine
 62
250
  6
CONTINUOUS
 10
10.1142857254
 20
6.8285716057
 30
0.0
 11
10.3
 21
6.6428574085
 31
0.0
  0
LINE
  5
607
100
AcDbEntity
  8
0
100
AcDbLine
 62
7
  6
CONTINUOUS
 10
-4.45
 20
22.4
 30
0.0
 11
-4.406077753
 21
22.356077753
 31
0.0
  0
LINE
  5
608
100
AcDbEntity
  8
0
100
AcDbLine
 62
7
  6
CONTINUOUS
 10
-4.4063493531
 20
-23.9563493531
 30
0.0
 11
-4.45
 21
-24.0
 31
0.0
  0
LINE
  5
609
100
AcDbEntity
  8
0
100
AcDbLine
 62
250
  6
CONTINUOUS
 10
-10.5643027805
 20
-19.0856972195
 30
0.0
 11
-10.442117326
 21
-19.0350863471
 31
0.0
  0
LINE
  5
60A
100
AcDbEntity
  8
CURVE
100
AcDbLine
 62
250
  6
CONTINUOUS
 10
-7.5714285493
 20
-16.35
 30
0.0
 11
-8.5
 21
-16.6285716057
 31
0.0
  0
LINE
  5
60B
100
AcDbEntity
  8
IMPORT_IGES
100
AcDbLine
 62
7
  6
CONTINUOUS
 10
3.796
 20
12.9
 30
0.0
 11
0.796
 21
12.9
 31
0.0
  0
LINE
  5
60C
100
AcDbEntity
  8
CURVE
100
AcDbLine
 62
250
  6
CONTINUOUS
 10
9.371428588
 20
12.9571429014
 30
0.0
 11
9.9285714507
 21
12.9571429014
 31
0.0
  0
LINE
  5
60D
100
AcDbEntity
  8
CURVE
100
AcDbLine
 62
250
  6
CONTINUOUS
 10
7.3785714447
 20
13.05
 30
0.0
 11
6.8357143342
 21
13.05
 31
0.0
  0
LINE
  5
60E
100
AcDbEntity
  8
CURVE
100
AcDbLine
 62
250
  6
CONTINUOUS
 10
9.9285714507
 20
13.3285714507
 30
0.0
 11
10.1142857254
 21
13.3285714507
 31
0.0
  0
LINE
  5
60F
100
AcDbEntity
  8
CURVE
100
AcDbLine
 62
250
  6
CONTINUOUS
 10
5.75
 20
14.0
 30
0.0
 11
7.65
 21
14.0
 31
0.0
  0
LINE
  5
610
100
AcDbEntity
  8
CURVE
100
AcDbLine
 62
250
  6
CONTINUOUS
 10
-3.462794
 20
14.26459
 30
0.0
 11
-4.23332
 21
14.26459
 31
0.0
  0
LINE
  5
611
100
AcDbEntity
  8
CURVE
100
AcDbLine
 62
250
  6
CONTINUOUS
 10
-7.766704
 20
14.26459
 30
0.0
 11
-8.53723
 21
14.26459
 31
0.0
  0
LINE
  5
612
100
AcDbEntity
  8
CURVE
100
AcDbLine
 62
250
  6
CONTINUOUS
 10
9.9285714507
 20
14.35
 30
0.0
 11
10.1142857254
 21
14.35
 31
0.0
  0
LINE
  5
613
100
AcDbEntity
  8
0
100
AcDbLine
 62
250
  6
CONTINUOUS
 10
-9.8595407725
 20
14.5655503016
 30
0.0
 11
-9.8
 21
14.5655503016
 31
0.0
  0
LINE
  5
614
100
AcDbEntity
  8
0
100
AcDbLine
 62
250
  6
CONTINUOUS
 10
-10.442117326
 20
19.0350863471
 30
0.0
 11
-10.5643027805
 21
19.0856972195
 31
0.0
  0
LINE
  5
615
100
AcDbEntity
  8
CURVE
100
AcDbLine
 62
250
  6
CONTINUOUS
 10
10.3
 20
8.7785716057
 30
0.0
 11
10.0214285493
 21
8.9642858028
 31
0.0
  0
LINE
  5
616
100
AcDbEntity
  8
0
100
AcDbLine
 62
7
  6
CONTINUOUS
 10
-4.4063493531
 20
23.9563493531
 30
0.0
 11
-4.45
 21
24.0
 31
0.0
  0
LINE
  5
617
100
AcDbEntity
  8
CURVE
100
AcDbLine
 62
250
  6
CONTINUOUS
 10
6.8357143342
 20
13.05
 30
0.0
 11
6.5642857224
 21
13.3214285553
 31
0.0
  0
LINE
  5
618
100
AcDbEntity
  8
CURVE
100
AcDbLine
 62
250
  6
CONTINUOUS
 10
10.076325
 20
-11.49987
 30
0.0
 11
5.099039
 21
-16.231556
 31
0.0
  0
LINE
  5
619
100
AcDbEntity
  8
0
100
AcDbLine
 62
250
  6
CONTINUOUS
 10
-9.8586133199
 20
14.8655046102
 30
0.0
 11
-9.8
 21
14.8655046102
 31
0.0
  0
LINE
  5
61A
100
AcDbEntity
  8
0
100
AcDbLine
 62
7
  6
CONTINUOUS
 10
-9.8585665218
 20
14.8778145455
 30
0.0
 11
-9.8
 21
14.8778145455
 31
0.0
  0
LINE
  5
61B
100
AcDbEntity
  8
IMPORT_IGES
100
AcDbLine
 62
7
  6
CONTINUOUS
 10
3.796
 20
15.6
 30
0.0
 11
0.796
 21
15.6
 31
0.0
  0
LINE
  5
61C
100
AcDbEntity
  8
ASSI
100
AcDbLine
 62
7
  6
CONTINUOUS
 10
0.25
 20
15.75
 30
0.0
 11
4.25
 21
15.75
 31
0.0
  0
LINE
  5
61D
100
AcDbEntity
  8
ASSI
100
AcDbLine
 62
7
  6
CONTINUOUS
 10
-10.7130788782
 20
16.15
 30
0.0
 11
-9.8
 21
16.15
 31
0.0
  0
LINE
  5
61E
100
AcDbEntity
  8
ASSI
100
AcDbLine
 62
250
  6
CONTINUOUS
 10
-11.0
 20
16.1850292972
 30
0.0
 11
-10.9489068548
 21
16.1850292972
 31
0.0
  0
LINE
  5
61F
100
AcDbEntity
  8
ASSI
100
AcDbLine
 62
7
  6
CONTINUOUS
 10
-0.25
 20
16.25
 30
0.0
 11
4.75
 21
16.25
 31
0.0
  0
LINE
  5
620
100
AcDbEntity
  8
IMPORT_IGES
100
AcDbLine
 62
7
  6
CONTINUOUS
 10
0.2480392762
 20
15.7424581379
 30
0.0
 11
0.796
 21
15.6
 31
0.0
  0
LINE
  5
621
100
AcDbEntity
  8
CURVE
100
AcDbLine
 62
250
  6
CONTINUOUS
 10
9.371428588
 20
12.3071429014
 30
0.0
 11
9.185714294
 21
12.4
 31
0.0
  0
LINE
  5
622
100
AcDbEntity
  8
CURVE
100
AcDbLine
 62
250
  6
CONTINUOUS
 10
9.9285714507
 20
12.9571429014
 30
0.0
 11
10.1142857254
 21
12.8642856479
 31
0.0
  0
LINE
  5
623
100
AcDbEntity
  8
CURVE
100
AcDbLine
 62
250
  6
CONTINUOUS
 10
9.185714294
 20
12.4
 30
0.0
 11
9.0
 21
12.5857143521
 31
0.0
  0
LINE
  5
624
100
AcDbEntity
  8
CURVE
100
AcDbLine
 62
250
  6
CONTINUOUS
 10
10.1142857254
 20
12.8642856479
 30
0.0
 11
10.3
 21
12.6785714507
 31
0.0
  0
LINE
  5
625
100
AcDbEntity
  8
ASSI
100
AcDbLine
 62
7
  6
CONTINUOUS
 10
2.5
 20
16.6
 30
0.0
 11
-2.5
 21
16.6
 31
0.0
  0
LINE
  5
626
100
AcDbEntity
  8
IMPORT_IGES
100
AcDbLine
 62
7
  6
CONTINUOUS
 10
2.5
 20
16.75
 30
0.0
 11
-2.5
 21
16.75
 31
0.0
  0
LINE
  5
627
100
AcDbEntity
  8
IMPORT_IGES
100
AcDbLine
 62
7
  6
CONTINUOUS
 10
-2.5
 20
16.9469592622
 30
0.0
 11
2.5
 21
16.9469592622
 31
0.0
  0
LINE
  5
628
100
AcDbEntity
  8
IMPORT_IGES
100
AcDbLine
 62
7
  6
CONTINUOUS
 10
-2.5
 20
17.0966270367
 30
0.0
 11
2.5
 21
17.0966270367
 31
0.0
  0
LINE
  5
629
100
AcDbEntity
  8
0
100
AcDbLine
 62
7
  6
CONTINUOUS
 10
-1.7
 20
17.25
 30
0.0
 11
1.7
 21
17.25
 31
0.0
  0
LINE
  5
62A
100
AcDbEntity
  8
0
100
AcDbLine
 62
250
  6
CONTINUOUS
 10
-1.7
 20
17.2816718427
 30
0.0
 11
1.7
 21
17.2816718427
 31
0.0
  0
LINE
  5
62B
100
AcDbEntity
  8
ASSI
100
AcDbLine
 62
7
  6
CONTINUOUS
 10
1.5039892229
 20
17.3
 30
0.0
 11
-1.5039892229
 21
17.3
 31
0.0
  0
LINE
  5
62C
100
AcDbEntity
  8
ASSI
100
AcDbLine
 62
7
  6
CONTINUOUS
 10
2.5
 20
17.5
 30
0.0
 11
-2.5
 21
17.5
 31
0.0
  0
LINE
  5
62D
100
AcDbEntity
  8
CURVE
100
AcDbLine
 62
250
  6
CONTINUOUS
 10
10.3
 20
13.7928571761
 30
0.0
 11
10.0214285493
 21
13.9785714507
 31
0.0
  0
LINE
  5
62E
100
AcDbEntity
  8
CURVE
100
AcDbLine
 62
250
  6
CONTINUOUS
 10
10.3
 20
14.814285706
 30
0.0
 11
10.0214285493
 21
15.0
 31
0.0
  0
LINE
  5
62F
100
AcDbEntity
  8
CURVE
100
AcDbLine
 62
250
  6
CONTINUOUS
 10
9.0
 20
13.9785714507
 30
0.0
 11
9.9285714507
 21
13.3285714507
 31
0.0
  0
LINE
  5
630
100
AcDbEntity
  8
CURVE
100
AcDbLine
 62
250
  6
CONTINUOUS
 10
9.0
 20
15.0
 30
0.0
 11
9.9285714507
 21
14.35
 31
0.0
  0
LINE
  5
631
100
AcDbEntity
  8
DRAFT
100
AcDbLine
 62
7
  6
CONTINUOUS
 10
7.1952775865
 20
-19.8047224135
 30
0.0
 11
7.2956365661
 21
-19.7043634339
 31
0.0
  0
LINE
  5
632
100
AcDbEntity
  8
0
100
AcDbLine
 62
7
  6
CONTINUOUS
 10
7.4
 20
-19.7
 30
0.0
 11
7.4366556363
 21
-19.6633443637
 31
0.0
  0
LINE
  5
633
100
AcDbEntity
  8
DRAFT
100
AcDbLine
 62
7
  6
CONTINUOUS
 10
7.1952775865
 20
-20.9959955457
 30
0.0
 11
7.2912734645
 21
-20.9000003323
 31
0.0
  0
LINE
  5
634
100
AcDbEntity
  8
0
100
AcDbLine
 62
7
  6
CONTINUOUS
 10
2.1464466094
 20
18.2325400167
 30
0.0
 11
2.5005617456
 21
18.2356303326
 31
0.0
  0
LINE
  5
635
100
AcDbEntity
  8
ASSI
100
AcDbLine
 62
7
  6
CONTINUOUS
 10
2.5
 20
18.2
 30
0.0
 11
-2.5
 21
18.2
 31
0.0
  0
LINE
  5
636
100
AcDbEntity
  8
ASSI
100
AcDbLine
 62
7
  6
CONTINUOUS
 10
-9.3912243901
 20
18.2130903017
 30
0.0
 11
-4.3130788786
 21
18.2130903017
 31
0.0
  0
LINE
  5
637
100
AcDbEntity
  8
0
100
AcDbLine
 62
7
  6
CONTINUOUS
 10
-8.6
 20
18.2574425998
 30
0.0
 11
-7.4541107013
 21
18.2574425998
 31
0.0
  0
LINE
  5
638
100
AcDbEntity
  8
0
100
AcDbLine
 62
7
  6
CONTINUOUS
 10
-4.1432823548
 20
18.2661694676
 30
0.0
 11
-7.4366556363
 21
18.2661694676
 31
0.0
  0
LINE
  5
639
100
AcDbEntity
  8
0
100
AcDbLine
 62
7
  6
CONTINUOUS
 10
-8.6
 20
18.2661694676
 30
0.0
 11
-9.2661885061
 21
18.2661694676
 31
0.0
  0
LINE
  5
63A
100
AcDbEntity
  8
ASSI
100
AcDbLine
 62
7
  6
CONTINUOUS
 10
-2.5
 20
18.3
 30
0.0
 11
2.5
 21
18.3
 31
0.0
  0
LINE
  5
63B
100
AcDbEntity
  8
ASSI
100
AcDbLine
 62
7
  6
CONTINUOUS
 10
9.3912243901
 20
19.6130903017
 30
0.0
 11
-3.7131017248
 21
19.6130903017
 31
0.0
  0
LINE
  5
63C
100
AcDbEntity
  8
0
100
AcDbLine
 62
7
  6
CONTINUOUS
 10
7.4366556363
 20
19.6633443637
 30
0.0
 11
3.4633443637
 21
19.6633443637
 31
0.0
  0
LINE
  5
63D
100
AcDbEntity
  8
0
100
AcDbLine
 62
7
  6
CONTINUOUS
 10
-3.4633443637
 20
19.6633443637
 30
0.0
 11
-7.4366556363
 21
19.6633443637
 31
0.0
  0
LINE
  5
63E
100
AcDbEntity
  8
0
100
AcDbLine
 62
7
  6
CONTINUOUS
 10
7.4
 20
19.7
 30
0.0
 11
3.5
 21
19.7
 31
0.0
  0
LINE
  5
63F
100
AcDbEntity
  8
0
100
AcDbLine
 62
7
  6
CONTINUOUS
 10
-3.5
 20
19.7
 30
0.0
 11
-7.4
 21
19.7
 31
0.0
  0
LINE
  5
640
100
AcDbEntity
  8
DRAFT
100
AcDbLine
 62
7
  6
CONTINUOUS
 10
7.2956365661
 20
19.7043634339
 30
0.0
 11
6.5043634339
 21
19.7043634339
 31
0.0
  0
LINE
  5
641
100
AcDbEntity
  8
DRAFT
100
AcDbLine
 62
7
  6
CONTINUOUS
 10
-6.5043634339
 20
19.7043634339
 30
0.0
 11
-7.2956365661
 21
19.7043634339
 31
0.0
  0
LINE
  5
642
100
AcDbEntity
  8
DRAFT
100
AcDbLine
 62
7
  6
CONTINUOUS
 10
7.1952775865
 20
19.8047224135
 30
0.0
 11
6.6047224135
 21
19.8047224135
 31
0.0
  0
LINE
  5
643
100
AcDbEntity
  8
DRAFT
100
AcDbLine
 62
7
  6
CONTINUOUS
 10
-6.6047224135
 20
19.8047224135
 30
0.0
 11
-7.1952775865
 21
19.8047224135
 31
0.0
  0
LINE
  5
644
100
AcDbEntity
  8
0
100
AcDbLine
 62
7
  6
CONTINUOUS
 10
3.4633443637
 20
19.8633443637
 30
0.0
 11
-3.4633443637
 21
19.8633443637
 31
0.0
  0
LINE
  5
645
100
AcDbEntity
  8
0
100
AcDbLine
 62
7
  6
CONTINUOUS
 10
1.5015242349
 20
19.8844866796
 30
0.0
 11
-1.5015242349
 21
19.8844866796
 31
0.0
  0
LINE
  5
646
100
AcDbEntity
  8
0
100
AcDbLine
 62
7
  6
CONTINUOUS
 10
3.5
 20
19.9
 30
0.0
 11
2.4944782802
 21
19.9
 31
0.0
  0
LINE
  5
647
100
AcDbEntity
  8
0
100
AcDbLine
 62
7
  6
CONTINUOUS
 10
-2.4944782802
 20
19.9
 30
0.0
 11
-3.5
 21
19.9
 31
0.0
  0
LINE
  5
648
100
AcDbEntity
  8
0
100
AcDbLine
 62
7
  6
CONTINUOUS
 10
-2.1464466094
 20
18.2325400167
 30
0.0
 11
-2.5005617456
 21
18.2356303326
 31
0.0
  0
LINE
  5
649
100
AcDbEntity
  8
DRAFT
100
AcDbLine
 62
7
  6
CONTINUOUS
 10
7.1952775865
 20
19.8047224135
 30
0.0
 11
7.2956365661
 21
19.7043634339
 31
0.0
  0
LINE
  5
64A
100
AcDbEntity
  8
0
100
AcDbLine
 62
7
  6
CONTINUOUS
 10
7.4
 20
19.7
 30
0.0
 11
7.4366556363
 21
19.6633443637
 31
0.0
  0
LINE
  5
64B
100
AcDbEntity
  8
DRAFT
100
AcDbLine
 62
7
  6
CONTINUOUS
 10
7.1952775865
 20
20.9959955457
 30
0.0
 11
7.2912731322
 21
20.9
 31
0.0
  0
LINE
  5
64C
100
AcDbEntity
  8
DRAFT
100
AcDbLine
 62
7
  6
CONTINUOUS
 10
7.6186291501
 20
-20.9
 30
0.0
 11
7.6686291501
 21
-20.85
 31
0.0
  0
LINE
  5
64D
100
AcDbEntity
  8
DRAFT
100
AcDbLine
 62
7
  6
CONTINUOUS
 10
7.6433124597
 20
-20.9
 30
0.0
 11
7.6933124597
 21
-20.85
 31
0.0
  0
LINE
  5
64E
100
AcDbEntity
  8
ASSI
100
AcDbLine
 62
7
  6
CONTINUOUS
 10
9.9903116728
 20
-19.4133907652
 30
0.0
 11
9.8010843877
 21
-19.6026179435
 31
0.0
  0
LINE
  5
64F
100
AcDbEntity
  8
ASSI
100
AcDbLine
 62
7
  6
CONTINUOUS
 10
10.7202082353
 20
-18.6983042468
 30
0.0
 11
10.0983042468
 21
-19.3202082353
 31
0.0
  0
LINE
  5
650
100
AcDbEntity
  8
0
100
AcDbLine
 62
7
  6
CONTINUOUS
 10
8.6272036731
 20
-20.85
 30
0.0
 11
10.442117326
 21
-19.0350863471
 31
0.0
  0
LINE
  5
651
100
AcDbEntity
  8
0
100
AcDbLine
 62
7
  6
CONTINUOUS
 10
8.2325449351
 20
-21.4051134101
 30
0.0
 11
8.0665695018
 21
-21.5710888434
 31
0.0
  0
LINE
  5
652
100
AcDbEntity
  8
0
100
AcDbLine
 62
7
  6
CONTINUOUS
 10
7.2558178298
 20
-22.3941821702
 30
0.0
 11
11.1412731322
 21
-18.5087268678
 31
0.0
  0
LINE
  5
653
100
AcDbEntity
  8
0
100
AcDbLine
 62
250
  6
CONTINUOUS
 10
1.00856737
 20
-23.7942952698
 30
0.0
 11
1.0
 21
-23.8000067692
 31
0.0
  0
LINE
  5
654
100
AcDbEntity
  8
DRAFT
100
AcDbLine
 62
7
  6
CONTINUOUS
 10
-7.4
 20
20.0
 30
0.0
 11
-7.2956365661
 21
20.0
 31
0.0
  0
LINE
  5
655
100
AcDbEntity
  8
DRAFT
100
AcDbLine
 62
7
  6
CONTINUOUS
 10
7.2956365661
 20
20.0
 30
0.0
 11
7.4
 21
20.0
 31
0.0
  0
LINE
  5
656
100
AcDbEntity
  8
DRAFT
100
AcDbLine
 62
7
  6
CONTINUOUS
 10
6.5043634339
 20
20.0043634339
 30
0.0
 11
2.4993600697
 21
20.0043634339
 31
0.0
  0
LINE
  5
657
100
AcDbEntity
  8
DRAFT
100
AcDbLine
 62
7
  6
CONTINUOUS
 10
-2.4993600697
 20
20.0043634339
 30
0.0
 11
-6.5043634339
 21
20.0043634339
 31
0.0
  0
LINE
  5
658
100
AcDbEntity
  8
DRAFT
100
AcDbLine
 62
7
  6
CONTINUOUS
 10
-3.5001534346
 20
20.0175818656
 30
0.0
 11
-2.499383967
 21
20.0175818656
 31
0.0
  0
LINE
  5
659
100
AcDbEntity
  8
DRAFT
100
AcDbLine
 62
7
  6
CONTINUOUS
 10
2.499383967
 20
20.0175818656
 30
0.0
 11
3.5001534346
 21
20.0175818656
 31
0.0
  0
LINE
  5
65A
100
AcDbEntity
  8
DRAFT
100
AcDbLine
 62
7
  6
CONTINUOUS
 10
2.5
 20
20.070693013
 30
0.0
 11
2.4412605819
 21
20.070693013
 31
0.0
  0
LINE
  5
65B
100
AcDbEntity
  8
DRAFT
100
AcDbLine
 62
7
  6
CONTINUOUS
 10
-2.4412605819
 20
20.070693013
 30
0.0
 11
-2.5
 21
20.070693013
 31
0.0
  0
LINE
  5
65C
100
AcDbEntity
  8
DRAFT
100
AcDbLine
 62
7
  6
CONTINUOUS
 10
6.6047224135
 20
20.1047224135
 30
0.0
 11
-6.6047224135
 21
20.1047224135
 31
0.0
  0
LINE
  5
65D
100
AcDbEntity
  8
0
100
AcDbLine
 62
7
  6
CONTINUOUS
 10
-2.992145819
 20
20.8
 30
0.0
 11
2.992145819
 21
20.8
 31
0.0
  0
LINE
  5
65E
100
AcDbEntity
  8
0
100
AcDbLine
 62
7
  6
CONTINUOUS
 10
7.4
 20
20.85
 30
0.0
 11
8.8
 21
20.85
 31
0.0
  0
LINE
  5
65F
100
AcDbEntity
  8
0
100
AcDbLine
 62
7
  6
CONTINUOUS
 10
-7.4
 20
20.85
 30
0.0
 11
-8.8
 21
20.85
 31
0.0
  0
LINE
  5
660
100
AcDbEntity
  8
DRAFT
100
AcDbLine
 62
7
  6
CONTINUOUS
 10
-8.0665695018
 20
20.9
 30
0.0
 11
-7.6309708049
 21
20.9
 31
0.0
  0
LINE
  5
661
100
AcDbEntity
  8
DRAFT
100
AcDbLine
 62
7
  6
CONTINUOUS
 10
7.6309708049
 20
20.9
 30
0.0
 11
8.0665695018
 21
20.9
 31
0.0
  0
LINE
  5
662
100
AcDbEntity
  8
0
100
AcDbLine
 62
7
  6
CONTINUOUS
 10
8.2325449351
 20
20.9087268678
 30
0.0
 11
8.0665695018
 21
20.9087268678
 31
0.0
  0
LINE
  5
663
100
AcDbEntity
  8
0
100
AcDbLine
 62
7
  6
CONTINUOUS
 10
-8.0665695018
 20
20.9087268678
 30
0.0
 11
-8.2325449351
 21
20.9087268678
 31
0.0
  0
LINE
  5
664
100
AcDbEntity
  8
DRAFT
100
AcDbLine
 62
7
  6
CONTINUOUS
 10
-7.5666456542
 20
20.9959955457
 30
0.0
 11
-7.1952775865
 21
20.9959955457
 31
0.0
  0
LINE
  5
665
100
AcDbEntity
  8
DRAFT
100
AcDbLine
 62
7
  6
CONTINUOUS
 10
7.5666456542
 20
20.9959955457
 30
0.0
 11
7.1952775865
 21
20.9959955457
 31
0.0
  0
LINE
  5
666
100
AcDbEntity
  8
0
100
AcDbLine
 62
250
  6
CONTINUOUS
 10
7.5666456542
 20
21.3359869487
 30
0.0
 11
2.9968233062
 21
21.3359869487
 31
0.0
  0
LINE
  5
667
100
AcDbEntity
  8
0
100
AcDbLine
 62
250
  6
CONTINUOUS
 10
-2.9968233062
 20
21.3359869487
 30
0.0
 11
-7.5666456542
 21
21.3359869487
 31
0.0
  0
LINE
  5
668
100
AcDbEntity
  8
0
100
AcDbLine
 62
7
  6
CONTINUOUS
 10
3.0
 20
21.7
 30
0.0
 11
-3.0
 21
21.7
 31
0.0
  0
LINE
  5
669
100
AcDbEntity
  8
0
100
AcDbLine
 62
250
  6
CONTINUOUS
 10
1.0
 20
23.8000067692
 30
0.0
 11
1.00856737
 21
23.7942952698
 31
0.0
  0
LINE
  5
66A
100
AcDbEntity
  8
DRAFT
100
AcDbLine
 62
7
  6
CONTINUOUS
 10
7.6686291501
 20
20.85
 30
0.0
 11
7.6186291501
 21
20.9
 31
0.0
  0
LINE
  5
66B
100
AcDbEntity
  8
DRAFT
100
AcDbLine
 62
7
  6
CONTINUOUS
 10
7.6933124597
 20
20.85
 30
0.0
 11
7.6433124597
 21
20.9
 31
0.0
  0
LINE
  5
66C
100
AcDbEntity
  8
ASSI
100
AcDbLine
 62
7
  6
CONTINUOUS
 10
10.0983042468
 20
19.3202082353
 30
0.0
 11
10.7202082353
 21
18.6983042468
 31
0.0
  0
LINE
  5
66D
100
AcDbEntity
  8
0
100
AcDbLine
 62
7
  6
CONTINUOUS
 10
10.442117326
 20
19.0350863471
 30
0.0
 11
8.6272036731
 21
20.85
 31
0.0
  0
LINE
  5
66E
100
AcDbEntity
  8
0
100
AcDbLine
 62
7
  6
CONTINUOUS
 10
8.2325449351
 20
21.4051134101
 30
0.0
 11
8.0665695018
 21
21.5710888434
 31
0.0
  0
LINE
  5
66F
100
AcDbEntity
  8
0
100
AcDbLine
 62
7
  6
CONTINUOUS
 10
11.1412731322
 20
18.5087268678
 30
0.0
 11
7.2558178298
 21
22.3941821702
 31
0.0
  0
LINE
  5
670
100
AcDbEntity
  8
0
100
AcDbLine
 62
7
  6
CONTINUOUS
 10
8.0665695018
 20
-20.9917082642
 30
0.0
 11
8.2325449351
 21
-20.9087268678
 31
0.0
  0
LINE
  5
671
100
AcDbEntity
  8
0
100
AcDbLine
 62
7
  6
CONTINUOUS
 10
8.0665695018
 20
-21.4537354271
 30
0.0
 11
8.2325449351
 21
-21.4051134101
 31
0.0
  0
LINE
  5
672
100
AcDbEntity
  8
0
100
AcDbLine
 62
250
  6
CONTINUOUS
 10
7.1905416262
 20
22.3359700255
 30
0.0
 11
3.0055500263
 21
22.3359700255
 31
0.0
  0
LINE
  5
673
100
AcDbEntity
  8
0
100
AcDbLine
 62
250
  6
CONTINUOUS
 10
-3.0055500263
 20
22.3359700255
 30
0.0
 11
-7.1905416262
 21
22.3359700255
 31
0.0
  0
LINE
  5
674
100
AcDbEntity
  8
0
100
AcDbLine
 62
7
  6
CONTINUOUS
 10
-10.6412794783
 20
22.3941821702
 30
0.0
 11
-7.2558178298
 21
22.3941821702
 31
0.0
  0
LINE
  5
675
100
AcDbEntity
  8
0
100
AcDbLine
 62
7
  6
CONTINUOUS
 10
7.2558178298
 20
22.3941821702
 30
0.0
 11
10.6412794783
 21
22.3941821702
 31
0.0
  0
LINE
  5
676
100
AcDbEntity
  8
0
100
AcDbLine
 62
7
  6
CONTINUOUS
 10
-1.0086739534
 20
22.3947957125
 30
0.0
 11
1.0086739534
 21
22.3947957125
 31
0.0
  0
LINE
  5
677
100
AcDbEntity
  8
0
100
AcDbLine
 62
7
  6
CONTINUOUS
 10
1.0
 20
22.4
 30
0.0
 11
-1.0
 21
22.4
 31
0.0
  0
LINE
  5
678
100
AcDbEntity
  8
0
100
AcDbLine
 62
7
  6
CONTINUOUS
 10
4.45
 20
22.4
 30
0.0
 11
10.6500063461
 21
22.4
 31
0.0
  0
LINE
  5
679
100
AcDbEntity
  8
0
100
AcDbLine
 62
7
  6
CONTINUOUS
 10
-4.45
 20
22.4
 30
0.0
 11
-10.6500063461
 21
22.4
 31
0.0
  0
LINE
  5
67A
100
AcDbEntity
  8
0
100
AcDbLine
 62
7
  6
CONTINUOUS
 10
-9.9007229979
 20
23.1226497308
 30
0.0
 11
-7.4992770021
 21
23.1226497308
 31
0.0
  0
LINE
  5
67B
100
AcDbEntity
  8
0
100
AcDbLine
 62
7
  6
CONTINUOUS
 10
9.9007229979
 20
23.1226497308
 30
0.0
 11
7.4992770021
 21
23.1226497308
 31
0.0
  0
LINE
  5
67C
100
AcDbEntity
  8
0
100
AcDbLine
 62
7
  6
CONTINUOUS
 10
8.0665695018
 20
21.4537354271
 30
0.0
 11
8.2325449351
 21
21.4051134101
 31
0.0
  0
LINE
  5
67D
100
AcDbEntity
  8
0
100
AcDbLine
 62
7
  6
CONTINUOUS
 10
8.0665695018
 20
20.9917082642
 30
0.0
 11
8.2325449351
 21
20.9087268678
 31
0.0
  0
LINE
  5
67E
100
AcDbEntity
  8
0
100
AcDbLine
 62
250
  6
CONTINUOUS
 10
-9.8956323968
 20
23.6278312164
 30
0.0
 11
-7.5043676032
 21
23.6278312164
 31
0.0
  0
LINE
  5
67F
100
AcDbEntity
  8
0
100
AcDbLine
 62
250
  6
CONTINUOUS
 10
7.5043676032
 20
23.6278312164
 30
0.0
 11
9.8956323968
 21
23.6278312164
 31
0.0
  0
LINE
  5
680
100
AcDbEntity
  8
0
100
AcDbLine
 62
250
  6
CONTINUOUS
 10
7.254371834
 20
23.8443375673
 30
0.0
 11
10.145628166
 21
23.8443375673
 31
0.0
  0
LINE
  5
681
100
AcDbEntity
  8
0
100
AcDbLine
 62
250
  6
CONTINUOUS
 10
-7.254371834
 20
23.8443375673
 30
0.0
 11
-10.145628166
 21
23.8443375673
 31
0.0
  0
LINE
  5
682
100
AcDbEntity
  8
0
100
AcDbLine
 62
7
  6
CONTINUOUS
 10
-4.4063493531
 20
23.9563493531
 30
0.0
 11
-3.5345265377
 21
23.9563493531
 31
0.0
  0
LINE
  5
683
100
AcDbEntity
  8
0
100
AcDbLine
 62
7
  6
CONTINUOUS
 10
3.5345265377
 20
23.9563493531
 30
0.0
 11
4.4063493531
 21
23.9563493531
 31
0.0
  0
LINE
  5
684
100
AcDbEntity
  8
0
100
AcDbLine
 62
7
  6
CONTINUOUS
 10
3.5348577163
 20
23.994298655
 30
0.0
 11
1.2085495996
 21
23.994298655
 31
0.0
  0
LINE
  5
685
100
AcDbEntity
  8
0
100
AcDbLine
 62
7
  6
CONTINUOUS
 10
-1.2085495996
 20
23.994298655
 30
0.0
 11
-3.5348577163
 21
23.994298655
 31
0.0
  0
LINE
  5
686
100
AcDbEntity
  8
0
100
AcDbLine
 62
7
  6
CONTINUOUS
 10
4.45
 20
24.0
 30
0.0
 11
1.1999974616
 21
24.0
 31
0.0
  0
LINE
  5
687
100
AcDbEntity
  8
0
100
AcDbLine
 62
7
  6
CONTINUOUS
 10
-1.1999974616
 20
24.0
 30
0.0
 11
-4.45
 21
24.0
 31
0.0
  0
LINE
  5
688
100
AcDbEntity
  8
0
100
AcDbLine
 62
250
  6
CONTINUOUS
 10
7.254371834
 20
24.2456323968
 30
0.0
 11
10.145628166
 21
24.2456323968
 31
0.0
  0
LINE
  5
689
100
AcDbEntity
  8
0
100
AcDbLine
 62
250
  6
CONTINUOUS
 10
-7.254371834
 20
24.2456323968
 30
0.0
 11
-10.145628166
 21
24.2456323968
 31
0.0
  0
LINE
  5
68A
100
AcDbEntity
  8
0
100
AcDbLine
 62
7
  6
CONTINUOUS
 10
9.8956323968
 20
24.495628166
 30
0.0
 11
7.5043676032
 21
24.495628166
 31
0.0
  0
LINE
  5
68B
100
AcDbEntity
  8
0
100
AcDbLine
 62
7
  6
CONTINUOUS
 10
-7.5043676032
 20
24.495628166
 30
0.0
 11
-9.8956323968
 21
24.495628166
 31
0.0
  0
ARC
  5
68C
100
AcDbEntity
  8
0
100
AcDbCircle
 62
7
  6
CONTINUOUS
 10
-9.2
 20
-17.2
 30
0.0
 40
1.4
100
AcDbArc
 50
189.8532892494
 51
270.0
  0
ARC
  5
68D
100
AcDbEntity
  8
CURVE
100
AcDbCircle
 62
250
  6
CONTINUOUS
 10
-2.75
 20
-15.3517899598
 30
0.0
 40
0.75
100
AcDbArc
 50
180.0
 51
360.0
  0
ARC
  5
68E
100
AcDbEntity
  8
CURVE
100
AcDbCircle
 62
250
  6
CONTINUOUS
 10
-1.25
 20
-15.3517899598
 30
0.0
 40
0.75
100
AcDbArc
 50
0.0
 51
180.0
  0
ARC
  5
68F
100
AcDbEntity
  8
0
100
AcDbCircle
 62
7
  6
CONTINUOUS
 10
-4.0
 20
-23.15
 30
0.0
 40
0.5
100
AcDbArc
 50
144.3637748935
 51
215.6362251065
  0
ARC
  5
690
100
AcDbEntity
  8
0
100
AcDbCircle
 62
7
  6
CONTINUOUS
 10
-10.6500384553
 20
-21.9000439681
 30
0.0
 40
0.4999576362
100
AcDbArc
 50
179.9687347086
 51
269.9607896944
  0
ARC
  5
691
100
AcDbEntity
  8
0
100
AcDbCircle
 62
7
  6
CONTINUOUS
 10
-1.7
 20
-17.55
 30
0.0
 40
0.3
100
AcDbArc
 50
90.0
 51
170.4020491948
  0
ARC
  5
692
100
AcDbEntity
  8
0
100
AcDbCircle
 62
7
  6
CONTINUOUS
 10
-9.8991531386
 20
-24.2497761815
 30
0.0
 40
0.250870749
100
AcDbArc
 50
188.2057126837
 51
201.7942999603
  0
ARC
  5
693
100
AcDbEntity
  8
0
100
AcDbCircle
 62
7
  6
CONTINUOUS
 10
-7.5002238185
 20
-24.2491531386
 30
0.0
 40
0.250870749
100
AcDbArc
 50
278.2057126838
 51
291.7942999602
  0
ARC
  5
694
100
AcDbEntity
  8
0
100
AcDbCircle
 62
7
  6
CONTINUOUS
 10
-9.8996231241
 20
-24.2499774933
 30
0.0
 40
0.2503768773
100
AcDbArc
 50
180.0061185554
 51
188.1754669505
  0
ARC
  5
695
100
AcDbEntity
  8
0
100
AcDbCircle
 62
7
  6
CONTINUOUS
 10
-7.5000225067
 20
-24.2496231241
 30
0.0
 40
0.2503768773
100
AcDbArc
 50
270.0061185554
 51
278.1754669505
  0
ARC
  5
696
100
AcDbEntity
  8
0
100
AcDbCircle
 62
250
  6
CONTINUOUS
 10
-9.895604537
 20
-24.2453434579
 30
0.0
 40
0.2502847096
100
AcDbArc
 50
263.8282519659
 51
269.9936222729
  0
ARC
  5
697
100
AcDbEntity
  8
0
100
AcDbCircle
 62
7
  6
CONTINUOUS
 10
-7.5043784515
 20
-24.2456215485
 30
0.0
 40
0.2500066177
100
AcDbArc
 50
270.0024861811
 51
359.9975138189
  0
ARC
  5
698
100
AcDbEntity
  8
0
100
AcDbCircle
 62
7
  6
CONTINUOUS
 10
-9.8956225687
 20
-24.2456222513
 30
0.0
 40
0.2500055938
100
AcDbArc
 50
180.3356510784
 51
263.8254913673
  0
ARC
  5
699
100
AcDbEntity
  8
0
100
AcDbCircle
 62
7
  6
CONTINUOUS
 10
-9.9000090754
 20
-24.2500091487
 30
0.0
 40
0.2499895178
100
AcDbArc
 50
201.8175568426
 51
242.7277349994
  0
ARC
  5
69A
100
AcDbEntity
  8
0
100
AcDbCircle
 62
7
  6
CONTINUOUS
 10
-1.1999932435
 20
-23.8000067566
 30
0.0
 40
0.1999932435
100
AcDbArc
 50
269.9987915599
 51
359.9999963837
  0
ARC
  5
69B
100
AcDbEntity
  8
CURVE
100
AcDbCircle
 62
250
  6
CONTINUOUS
 10
-6.000012
 20
14.51959
 30
0.0
 40
2.5500000352
100
AcDbArc
 50
354.2608296022
 51
185.7391703978
  0
ARC
  5
69C
100
AcDbEntity
  8
CURVE
100
AcDbCircle
 62
250
  6
CONTINUOUS
 10
-6.000012
 20
10.18459
 30
0.0
 40
2.5500000352
100
AcDbArc
 50
354.2608296022
 51
185.7391703978
  0
ARC
  5
69D
100
AcDbEntity
  8
CURVE
100
AcDbCircle
 62
250
  6
CONTINUOUS
 10
-6.000012
 20
10.18459
 30
0.0
 40
1.7850001745
100
AcDbArc
 50
351.7867901066
 51
77.626372977
  0
ARC
  5
69E
100
AcDbEntity
  8
CURVE
100
AcDbCircle
 62
250
  6
CONTINUOUS
 10
-6.000012
 20
14.51959
 30
0.0
 40
1.7850001745
100
AcDbArc
 50
351.7867901066
 51
188.2132098934
  0
ARC
  5
69F
100
AcDbEntity
  8
CURVE
100
AcDbCircle
 62
250
  6
CONTINUOUS
 10
-6.000012
 20
10.18459
 30
0.0
 40
1.7849997292
100
AcDbArc
 50
102.373627023
 51
188.2132098934
  0
ARC
  5
6A0
100
AcDbEntity
  8
ASSI
100
AcDbCircle
 62
7
  6
CONTINUOUS
 10
-10.29
 20
16.1850292972
 30
0.0
 40
0.71
100
AcDbArc
 50
168.573326794
 51
180.0
  0
ARC
  5
6A1
100
AcDbEntity
  8
0
100
AcDbCircle
 62
7
  6
CONTINUOUS
 10
-4.0
 20
23.15
 30
0.0
 40
0.5
100
AcDbArc
 50
144.3637748935
 51
215.6362251065
  0
ARC
  5
6A2
100
AcDbEntity
  8
0
100
AcDbCircle
 62
7
  6
CONTINUOUS
 10
-10.6500384133
 20
21.9000440102
 30
0.0
 40
0.4999576362
100
AcDbArc
 50
90.039215127
 51
180.0312701107
  0
ARC
  5
6A3
100
AcDbEntity
  8
0
100
AcDbCircle
 62
7
  6
CONTINUOUS
 10
-1.6905610827
 20
18.3040965496
 30
0.0
 40
0.3086421421
100
AcDbArc
 50
193.5817198716
 51
199.727809086
  0
ARC
  5
6A4
100
AcDbEntity
  8
0
100
AcDbCircle
 62
7
  6
CONTINUOUS
 10
-1.7
 20
17.55
 30
0.0
 40
0.3
100
AcDbArc
 50
189.5979508052
 51
270.0
  0
ARC
  5
6A5
100
AcDbEntity
  8
0
100
AcDbCircle
 62
7
  6
CONTINUOUS
 10
-9.8994853349
 20
24.248378334
 30
0.0
 40
0.2516791954
100
AcDbArc
 50
98.2460718504
 51
117.2081235185
  0
ARC
  5
6A6
100
AcDbEntity
  8
0
100
AcDbCircle
 62
7
  6
CONTINUOUS
 10
-7.5008468614
 20
24.2497761815
 30
0.0
 40
0.250870749
100
AcDbArc
 50
8.2057126837
 51
21.7942999602
  0
ARC
  5
6A7
100
AcDbEntity
  8
0
100
AcDbCircle
 62
7
  6
CONTINUOUS
 10
-9.8999774933
 20
24.2496231241
 30
0.0
 40
0.2503768773
100
AcDbArc
 50
90.0061185554
 51
98.1754669505
  0
ARC
  5
6A8
100
AcDbEntity
  8
0
100
AcDbCircle
 62
7
  6
CONTINUOUS
 10
-7.5003768759
 20
24.2499774933
 30
0.0
 40
0.2503768773
100
AcDbArc
 50
0.0061185554
 51
8.1754669505
  0
ARC
  5
6A9
100
AcDbEntity
  8
0
100
AcDbCircle
 62
250
  6
CONTINUOUS
 10
-9.895604537
 20
24.2453434579
 30
0.0
 40
0.2502847096
100
AcDbArc
 50
90.0063777271
 51
96.1717480341
  0
ARC
  5
6AA
100
AcDbEntity
  8
0
100
AcDbCircle
 62
7
  6
CONTINUOUS
 10
-7.5043784515
 20
24.2456215485
 30
0.0
 40
0.2500066177
100
AcDbArc
 50
0.0024861811
 51
89.9975138189
  0
ARC
  5
6AB
100
AcDbEntity
  8
0
100
AcDbCircle
 62
7
  6
CONTINUOUS
 10
-9.9000090754
 20
24.2500091487
 30
0.0
 40
0.2499895178
100
AcDbArc
 50
117.2722650006
 51
158.1824431574
  0
ARC
  5
6AC
100
AcDbEntity
  8
0
100
AcDbCircle
 62
7
  6
CONTINUOUS
 10
-9.8956380533
 20
24.2456873475
 30
0.0
 40
0.2499392099
100
AcDbArc
 50
96.1725845918
 51
179.997569613
  0
ARC
  5
6AD
100
AcDbEntity
  8
0
100
AcDbCircle
 62
7
  6
CONTINUOUS
 10
-1.1999932435
 20
23.8000067566
 30
0.0
 40
0.1999932435
100
AcDbArc
 50
0.0000036163
 51
90.0012084401
  0
CIRCLE
  5
6AE
100
AcDbEntity
  8
CURVE
100
AcDbCircle
 62
250
  6
CONTINUOUS
 10
6.500001
 20
-8.762401
 30
0.0
 40
0.508333
  0
ARC
  5
6AF
100
AcDbEntity
  8
0
100
AcDbCircle
 62
7
  6
CONTINUOUS
 10
4.0
 20
-23.15
 30
0.0
 40
0.5
100
AcDbArc
 50
324.3637748935
 51
35.6362251065
  0
ARC
  5
6B0
100
AcDbEntity
  8
0
100
AcDbCircle
 62
7
  6
CONTINUOUS
 10
10.6500382294
 20
-21.9000437425
 30
0.0
 40
0.4999579139
100
AcDbArc
 50
270.0392361786
 51
0.0312394204
  0
ARC
  5
6B1
100
AcDbEntity
  8
0
100
AcDbCircle
 62
250
  6
CONTINUOUS
 10
1.6997269134
 20
-17.6121627291
 30
0.0
 40
0.3304909992
100
AcDbArc
 50
80.8861957318
 51
89.9526561719
  0
CIRCLE
  5
6B2
100
AcDbEntity
  8
CURVE
100
AcDbCircle
 62
250
  6
CONTINUOUS
 10
5.950628
 20
-14.8647
 30
0.0
 40
0.317592
  0
ARC
  5
6B3
100
AcDbEntity
  8
0
100
AcDbCircle
 62
7
  6
CONTINUOUS
 10
1.7
 20
-17.55
 30
0.0
 40
0.3
100
AcDbArc
 50
9.5962250196
 51
90.0
  0
ARC
  5
6B4
100
AcDbEntity
  8
0
100
AcDbCircle
 62
7
  6
CONTINUOUS
 10
9.8994853349
 20
-24.248378334
 30
0.0
 40
0.2516791954
100
AcDbArc
 50
278.2460718503
 51
297.2081235185
  0
ARC
  5
6B5
100
AcDbEntity
  8
0
100
AcDbCircle
 62
7
  6
CONTINUOUS
 10
7.5008468614
 20
-24.2497761815
 30
0.0
 40
0.250870749
100
AcDbArc
 50
188.2057126838
 51
201.7942999602
  0
ARC
  5
6B6
100
AcDbEntity
  8
0
100
AcDbCircle
 62
7
  6
CONTINUOUS
 10
9.8999774933
 20
-24.2496231241
 30
0.0
 40
0.2503768773
100
AcDbArc
 50
270.0061185554
 51
278.1754669505
  0
ARC
  5
6B7
100
AcDbEntity
  8
0
100
AcDbCircle
 62
7
  6
CONTINUOUS
 10
7.5003768759
 20
-24.2499774933
 30
0.0
 40
0.2503768773
100
AcDbArc
 50
180.0061185554
 51
188.1754669505
  0
ARC
  5
6B8
100
AcDbEntity
  8
0
100
AcDbCircle
 62
250
  6
CONTINUOUS
 10
9.895604537
 20
-24.2453434579
 30
0.0
 40
0.2502847096
100
AcDbArc
 50
270.0063777271
 51
276.1717480341
  0
ARC
  5
6B9
100
AcDbEntity
  8
0
100
AcDbCircle
 62
7
  6
CONTINUOUS
 10
7.5043784515
 20
-24.2456215485
 30
0.0
 40
0.2500066177
100
AcDbArc
 50
180.0024861811
 51
269.9975138189
  0
ARC
  5
6BA
100
AcDbEntity
  8
0
100
AcDbCircle
 62
7
  6
CONTINUOUS
 10
9.9000090754
 20
-24.2500091487
 30
0.0
 40
0.2499895178
100
AcDbArc
 50
297.2722650006
 51
338.1824431574
  0
ARC
  5
6BB
100
AcDbEntity
  8
0
100
AcDbCircle
 62
7
  6
CONTINUOUS
 10
9.8956380533
 20
-24.2456873475
 30
0.0
 40
0.2499392099
100
AcDbArc
 50
276.1725845919
 51
359.997569613
  0
ARC
  5
6BC
100
AcDbEntity
  8
0
100
AcDbCircle
 62
7
  6
CONTINUOUS
 10
1.1999932435
 20
-23.8000067566
 30
0.0
 40
0.1999932435
100
AcDbArc
 50
180.0000036163
 51
270.0012084401
  0
CIRCLE
  5
6BD
100
AcDbEntity
  8
CURVE
100
AcDbCircle
 62
250
  6
CONTINUOUS
 10
9.296182
 20
-15.289913
 30
0.0
 40
0.192582
  0
CIRCLE
  5
6BE
100
AcDbEntity
  8
CURVE
100
AcDbCircle
 62
250
  6
CONTINUOUS
 10
5.950628
 20
-14.8647
 30
0.0
 40
0.14051
  0
ARC
  5
6BF
100
AcDbEntity
  8
0
100
AcDbCircle
 62
7
  6
CONTINUOUS
 10
4.0
 20
23.15
 30
0.0
 40
0.5
100
AcDbArc
 50
324.3637748935
 51
35.6362251065
  0
ARC
  5
6C0
100
AcDbEntity
  8
0
100
AcDbCircle
 62
7
  6
CONTINUOUS
 10
10.6500381873
 20
21.9000437846
 30
0.0
 40
0.4999579139
100
AcDbArc
 50
359.9687557531
 51
89.9607589944
  0
ARC
  5
6C1
100
AcDbEntity
  8
0
100
AcDbCircle
 62
7
  6
CONTINUOUS
 10
1.6905982218
 20
18.3040882269
 30
0.0
 40
0.3086040872
100
AcDbArc
 50
340.2705689172
 51
346.4181628852
  0
ARC
  5
6C2
100
AcDbEntity
  8
0
100
AcDbCircle
 62
7
  6
CONTINUOUS
 10
1.7
 20
17.55
 30
0.0
 40
0.3
100
AcDbArc
 50
270.0
 51
350.4020491948
  0
ARC
  5
6C3
100
AcDbEntity
  8
0
100
AcDbCircle
 62
7
  6
CONTINUOUS
 10
7.5005146651
 20
24.248378334
 30
0.0
 40
0.2516791954
100
AcDbArc
 50
98.2460718504
 51
117.2081235185
  0
ARC
  5
6C4
100
AcDbEntity
  8
0
100
AcDbCircle
 62
7
  6
CONTINUOUS
 10
9.8991531386
 20
24.2497761815
 30
0.0
 40
0.250870749
100
AcDbArc
 50
8.2057126837
 51
21.7942999603
  0
ARC
  5
6C5
100
AcDbEntity
  8
0
100
AcDbCircle
 62
7
  6
CONTINUOUS
 10
7.5000225067
 20
24.2496231241
 30
0.0
 40
0.2503768773
100
AcDbArc
 50
90.0061185554
 51
98.1754669505
  0
ARC
  5
6C6
100
AcDbEntity
  8
0
100
AcDbCircle
 62
7
  6
CONTINUOUS
 10
9.8996231241
 20
24.2499774933
 30
0.0
 40
0.2503768773
100
AcDbArc
 50
0.0061185554
 51
8.1754669505
  0
ARC
  5
6C7
100
AcDbEntity
  8
0
100
AcDbCircle
 62
250
  6
CONTINUOUS
 10
9.895604537
 20
24.2453434579
 30
0.0
 40
0.2502847096
100
AcDbArc
 50
83.8282519659
 51
89.9936222729
  0
ARC
  5
6C8
100
AcDbEntity
  8
0
100
AcDbCircle
 62
250
  6
CONTINUOUS
 10
7.504395463
 20
24.2453434579
 30
0.0
 40
0.2502847096
100
AcDbArc
 50
90.0063777271
 51
96.1717480341
  0
ARC
  5
6C9
100
AcDbEntity
  8
0
100
AcDbCircle
 62
7
  6
CONTINUOUS
 10
9.8956225687
 20
24.2456222513
 30
0.0
 40
0.2500055938
100
AcDbArc
 50
0.3356510784
 51
83.8254913673
  0
ARC
  5
6CA
100
AcDbEntity
  8
0
100
AcDbCircle
 62
7
  6
CONTINUOUS
 10
7.4999909246
 20
24.2500091487
 30
0.0
 40
0.2499895178
100
AcDbArc
 50
117.2722650006
 51
158.1824431574
  0
ARC
  5
6CB
100
AcDbEntity
  8
0
100
AcDbCircle
 62
7
  6
CONTINUOUS
 10
9.9000090754
 20
24.2500091487
 30
0.0
 40
0.2499895178
100
AcDbArc
 50
21.8175568426
 51
62.7277349994
  0
ARC
  5
6CC
100
AcDbEntity
  8
0
100
AcDbCircle
 62
7
  6
CONTINUOUS
 10
7.5043619467
 20
24.2456873475
 30
0.0
 40
0.2499392099
100
AcDbArc
 50
96.1725845918
 51
179.997569613
  0
ARC
  5
6CD
100
AcDbEntity
  8
0
100
AcDbCircle
 62
7
  6
CONTINUOUS
 10
1.1999932435
 20
23.8000067566
 30
0.0
 40
0.1999932435
100
AcDbArc
 50
89.9987915599
 51
179.9999963837
  0
SPLINE
  5
6CE
100
AcDbEntity
  8
0
100
AcDbSpline
 62
250
  6
CONTINUOUS
 70
0
 71
3
 72
10
 73
6
 74
0
 42
0.0000001
 43
0.0000001
 44
0.0000000001
 40
0.0
 40
0.0
 40
0.0
 40
0.0
 40
0.2396688893
 40
0.4872093776
 40
1.0
 40
1.0
 40
1.0
 40
1.0
 10
-1.9946216129
 20
17.4999583878
 30
0.0
 10
-1.988053053
 20
17.4693532983
 30
0.0
 10
-1.9624824043
 20
17.4091039433
 30
0.0
 10
-1.8703518983
 20
17.3135741679
 30
0.0
 10
-1.7669731929
 20
17.2816718427
 30
0.0
 10
-1.7
 20
17.2816718427
 30
0.0
  0
SPLINE
  5
6CF
100
AcDbEntity
  8
0
100
AcDbSpline
 62
250
  6
CONTINUOUS
 70
0
 71
3
 72
10
 73
6
 74
0
 42
0.0000001
 43
0.0000001
 44
0.0000000001
 40
0.0
 40
0.0
 40
0.0
 40
0.0
 40
0.2396688893
 40
0.4872093776
 40
1.0
 40
1.0
 40
1.0
 40
1.0
 10
1.9946216129
 20
17.4999583878
 30
0.0
 10
1.988053053
 20
17.4693532983
 30
0.0
 10
1.9624824043
 20
17.4091039433
 30
0.0
 10
1.8703518983
 20
17.3135741679
 30
0.0
 10
1.7669731929
 20
17.2816718427
 30
0.0
 10
1.7
 20
17.2816718427
 30
0.0
  0
SPLINE
  5
6D0
100
AcDbEntity
  8
0
100
AcDbSpline
 62
7
  6
CONTINUOUS
 70
0
 71
3
 72
13
 73
9
 74
0
 42
0.0000001
 43
0.0000001
 44
0.0000000001
 40
0.0
 40
0.0
 40
0.0
 40
0.0
 40
0.3581415354
 40
0.6685477653
 40
0.7926560018
 40
0.8911968242
 40
0.9612346858
 40
1.0
 40
1.0
 40
1.0
 40
1.0
 10
1.5015242349
 20
-19.8844866796
 30
0.0
 10
1.6202550831
 20
-19.8844866796
 30
0.0
 10
1.8418892289
 20
-19.8851888493
 30
0.0
 10
2.1046699357
 20
-19.887700228
 30
0.0
 10
2.2813467862
 20
-19.8909897108
 30
0.0
 10
2.3783729347
 20
-19.8933793955
 30
0.0
 10
2.4470044064
 20
-19.8963370669
 30
0.0
 10
2.4830956441
 20
-19.8981790568
 30
0.0
 10
2.4958174355
 20
-19.9
 30
0.0
  0
SPLINE
  5
6D1
100
AcDbEntity
  8
0
100
AcDbSpline
 62
250
  6
CONTINUOUS
 70
0
 71
3
 72
10
 73
6
 74
0
 42
0.0000001
 43
0.0000001
 44
0.0000000001
 40
0.0
 40
0.0
 40
0.0
 40
0.0
 40
0.2396688893
 40
0.4872093776
 40
1.0
 40
1.0
 40
1.0
 40
1.0
 10
-1.9946216129
 20
-17.4999583878
 30
0.0
 10
-1.988053053
 20
-17.4693532983
 30
0.0
 10
-1.9624824043
 20
-17.4091039433
 30
0.0
 10
-1.8703518983
 20
-17.3135741679
 30
0.0
 10
-1.7669731929
 20
-17.2816718427
 30
0.0
 10
-1.7
 20
-17.2816718427
 30
0.0
  0
SPLINE
  5
6D2
100
AcDbEntity
  8
0
100
AcDbSpline
 62
250
  6
CONTINUOUS
 70
0
 71
3
 72
10
 73
6
 74
0
 42
0.0000001
 43
0.0000001
 44
0.0000000001
 40
0.0
 40
0.0
 40
0.0
 40
0.0
 40
0.5126064776
 40
0.7595565261
 40
1.0
 40
1.0
 40
1.0
 40
1.0
 10
1.7520753526
 20
-17.2858439563
 30
0.0
 10
1.8095923026
 20
-17.2950368046
 30
0.0
 10
1.8941071706
 20
-17.3324512538
 30
0.0
 10
1.9680837302
 20
-17.4206268884
 30
0.0
 10
1.9888837334
 20
-17.473253602
 30
0.0
 10
1.994619162
 20
-17.4999661645
 30
0.0
  0
SPLINE
  5
6D3
100
AcDbEntity
  8
0
100
AcDbSpline
 62
7
  6
CONTINUOUS
 70
0
 71
3
 72
13
 73
9
 74
0
 42
0.0000001
 43
0.0000001
 44
0.0000000001
 40
0.0
 40
0.0
 40
0.0
 40
0.0
 40
0.3581415354
 40
0.6685477653
 40
0.7926560018
 40
0.8911968242
 40
0.9612346858
 40
1.0
 40
1.0
 40
1.0
 40
1.0
 10
-1.5015242349
 20
-19.8844866796
 30
0.0
 10
-1.6202550831
 20
-19.8844866796
 30
0.0
 10
-1.8418892289
 20
-19.8851888493
 30
0.0
 10
-2.1046699357
 20
-19.887700228
 30
0.0
 10
-2.2813467862
 20
-19.8909897108
 30
0.0
 10
-2.3783729347
 20
-19.8933793955
 30
0.0
 10
-2.4470044064
 20
-19.8963370669
 30
0.0
 10
-2.4830956441
 20
-19.8981790568
 30
0.0
 10
-2.4958174355
 20
-19.9
 30
0.0
  0
SPLINE
  5
6D4
100
AcDbEntity
  8
0
100
AcDbSpline
 62
7
  6
CONTINUOUS
 70
0
 71
3
 72
13
 73
9
 74
0
 42
0.0000001
 43
0.0000001
 44
0.0000000001
 40
0.0
 40
0.0
 40
0.0
 40
0.0
 40
0.3581415354
 40
0.6685477653
 40
0.7926560018
 40
0.8911968242
 40
0.9612346858
 40
1.0
 40
1.0
 40
1.0
 40
1.0
 10
1.5015242349
 20
19.8844866796
 30
0.0
 10
1.6202550831
 20
19.8844866796
 30
0.0
 10
1.8418892289
 20
19.8851888493
 30
0.0
 10
2.1046699357
 20
19.887700228
 30
0.0
 10
2.2813467862
 20
19.8909897108
 30
0.0
 10
2.3783729347
 20
19.8933793955
 30
0.0
 10
2.4470044064
 20
19.8963370669
 30
0.0
 10
2.4830956441
 20
19.8981790568
 30
0.0
 10
2.4958174355
 20
19.9
 30
0.0
  0
SPLINE
  5
6D5
100
AcDbEntity
  8
0
100
AcDbSpline
 62
7
  6
CONTINUOUS
 70
0
 71
3
 72
13
 73
9
 74
0
 42
0.0000001
 43
0.0000001
 44
0.0000000001
 40
0.0
 40
0.0
 40
0.0
 40
0.0
 40
0.3581415354
 40
0.6685477653
 40
0.7926560018
 40
0.8911968242
 40
0.9612346858
 40
1.0
 40
1.0
 40
1.0
 40
1.0
 10
-1.5015242349
 20
19.8844866796
 30
0.0
 10
-1.6202550831
 20
19.8844866796
 30
0.0
 10
-1.8418892289
 20
19.8851888493
 30
0.0
 10
-2.1046699357
 20
19.887700228
 30
0.0
 10
-2.2813467862
 20
19.8909897108
 30
0.0
 10
-2.3783729347
 20
19.8933793955
 30
0.0
 10
-2.4470044064
 20
19.8963370669
 30
0.0
 10
-2.4830956441
 20
19.8981790568
 30
0.0
 10
-2.4958174355
 20
19.9
 30
0.0
  0
SPLINE
  5
6D6
100
AcDbEntity
  8
0
100
AcDbSpline
 62
7
  6
CONTINUOUS
 70
0
 71
3
 72
8
 73
4
 74
0
 42
0.0000001
 43
0.0000001
 44
0.0000000001
 40
0.0
 40
0.0
 40
0.0
 40
0.0
 40
1.0
 40
1.0
 40
1.0
 40
1.0
 10
-10.0145591099
 20
-24.4722096181
 30
0.0
 10
-9.9796347354
 20
-24.4902149205
 30
0.0
 10
-9.93929676
 20
-24.5
 30
0.0
 10
-9.9000042308
 20
-24.5
 30
0.0
  0
SPLINE
  5
6D7
100
AcDbEntity
  8
0
100
AcDbSpline
 62
7
  6
CONTINUOUS
 70
0
 71
3
 72
9
 73
5
 74
0
 42
0.0000001
 43
0.0000001
 44
0.0000000001
 40
0.0
 40
0.0
 40
0.0
 40
0.0
 40
0.5
 40
1.0
 40
1.0
 40
1.0
 40
1.0
 10
-7.4070816648
 20
-24.4820923408
 30
0.0
 10
-7.37599346
 20
-24.4696475903
 30
0.0
 10
-7.3182705414
 20
-24.4317294586
 30
0.0
 10
-7.2803524097
 20
-24.37400654
 30
0.0
 10
-7.2679076592
 20
-24.3429183352
 30
0.0
  0
SPLINE
  5
6D8
100
AcDbEntity
  8
0
100
AcDbSpline
 62
7
  6
CONTINUOUS
 70
0
 71
3
 72
8
 73
4
 74
0
 42
0.0000001
 43
0.0000001
 44
0.0000000001
 40
0.0
 40
0.0
 40
0.0
 40
0.0
 40
1.0
 40
1.0
 40
1.0
 40
1.0
 10
-7.2679076592
 20
-24.3429183352
 30
0.0
 10
-7.2561858052
 20
-24.3136359964
 30
0.0
 10
-7.25
 20
-24.2815455882
 30
0.0
 10
-7.25
 20
-24.2500042308
 30
0.0
  0
SPLINE
  5
6D9
100
AcDbEntity
  8
0
100
AcDbSpline
 62
7
  6
CONTINUOUS
 70
0
 71
3
 72
8
 73
4
 74
0
 42
0.0000001
 43
0.0000001
 44
0.0000000001
 40
0.0
 40
0.0
 40
0.0
 40
0.0
 40
1.0
 40
1.0
 40
1.0
 40
1.0
 10
10.1320923408
 20
-24.3429183352
 30
0.0
 10
10.1438141948
 20
-24.3136359964
 30
0.0
 10
10.15
 20
-24.2815455882
 30
0.0
 10
10.15
 20
-24.2500042308
 30
0.0
  0
SPLINE
  5
6DA
100
AcDbEntity
  8
0
100
AcDbSpline
 62
7
  6
CONTINUOUS
 70
0
 71
3
 72
9
 73
5
 74
0
 42
0.0000001
 43
0.0000001
 44
0.0000000001
 40
0.0
 40
0.0
 40
0.0
 40
0.0
 40
0.5
 40
1.0
 40
1.0
 40
1.0
 40
1.0
 10
7.2679076592
 20
-24.3429183352
 30
0.0
 10
7.2803524097
 20
-24.37400654
 30
0.0
 10
7.3182705414
 20
-24.4317294586
 30
0.0
 10
7.37599346
 20
-24.4696475903
 30
0.0
 10
7.4070816648
 20
-24.4820923408
 30
0.0
  0
SPLINE
  5
6DB
100
AcDbEntity
  8
0
100
AcDbSpline
 62
7
  6
CONTINUOUS
 70
0
 71
3
 72
8
 73
4
 74
0
 42
0.0000001
 43
0.0000001
 44
0.0000000001
 40
0.0
 40
0.0
 40
0.0
 40
0.0
 40
1.0
 40
1.0
 40
1.0
 40
1.0
 10
7.4070816648
 20
-24.4820923408
 30
0.0
 10
7.4363640036
 20
-24.4938141948
 30
0.0
 10
7.4684544118
 20
-24.5
 30
0.0
 10
7.4999957692
 20
-24.5
 30
0.0
  0
SPLINE
  5
6DC
100
AcDbEntity
  8
0
100
AcDbSpline
 62
7
  6
CONTINUOUS
 70
0
 71
3
 72
8
 73
4
 74
0
 42
0.0000001
 43
0.0000001
 44
0.0000000001
 40
0.0
 40
0.0
 40
0.0
 40
0.0
 40
1.0
 40
1.0
 40
1.0
 40
1.0
 10
-10.1320923408
 20
24.3429183352
 30
0.0
 10
-10.1438141948
 20
24.3136359964
 30
0.0
 10
-10.15
 20
24.2815455882
 30
0.0
 10
-10.15
 20
24.2500042308
 30
0.0
  0
SPLINE
  5
6DD
100
AcDbEntity
  8
0
100
AcDbSpline
 62
7
  6
CONTINUOUS
 70
0
 71
3
 72
9
 73
5
 74
0
 42
0.0000001
 43
0.0000001
 44
0.0000000001
 40
0.0
 40
0.0
 40
0.0
 40
0.0
 40
0.5
 40
1.0
 40
1.0
 40
1.0
 40
1.0
 10
-7.2679076592
 20
24.3429183352
 30
0.0
 10
-7.2803524097
 20
24.37400654
 30
0.0
 10
-7.3182705414
 20
24.4317294586
 30
0.0
 10
-7.37599346
 20
24.4696475903
 30
0.0
 10
-7.4070816648
 20
24.4820923408
 30
0.0
  0
SPLINE
  5
6DE
100
AcDbEntity
  8
0
100
AcDbSpline
 62
7
  6
CONTINUOUS
 70
0
 71
3
 72
8
 73
4
 74
0
 42
0.0000001
 43
0.0000001
 44
0.0000000001
 40
0.0
 40
0.0
 40
0.0
 40
0.0
 40
1.0
 40
1.0
 40
1.0
 40
1.0
 10
-7.4070816648
 20
24.4820923408
 30
0.0
 10
-7.4363640036
 20
24.4938141948
 30
0.0
 10
-7.4684544118
 20
24.5
 30
0.0
 10
-7.4999957692
 20
24.5
 30
0.0
  0
SPLINE
  5
6DF
100
AcDbEntity
  8
0
100
AcDbSpline
 62
7
  6
CONTINUOUS
 70
0
 71
3
 72
8
 73
4
 74
0
 42
0.0000001
 43
0.0000001
 44
0.0000000001
 40
0.0
 40
0.0
 40
0.0
 40
0.0
 40
1.0
 40
1.0
 40
1.0
 40
1.0
 10
7.2679076592
 20
24.3429183352
 30
0.0
 10
7.2561858052
 20
24.3136359964
 30
0.0
 10
7.25
 20
24.2815455882
 30
0.0
 10
7.25
 20
24.2500042308
 30
0.0
  0
SPLINE
  5
6E0
100
AcDbEntity
  8
0
100
AcDbSpline
 62
7
  6
CONTINUOUS
 70
0
 71
3
 72
8
 73
4
 74
0
 42
0.0000001
 43
0.0000001
 44
0.0000000001
 40
0.0
 40
0.0
 40
0.0
 40
0.0
 40
1.0
 40
1.0
 40
1.0
 40
1.0
 10
10.0145591099
 20
24.4722096181
 30
0.0
 10
9.9796347354
 20
24.4902149205
 30
0.0
 10
9.93929676
 20
24.5
 30
0.0
 10
9.9000042308
 20
24.5
 30
0.0
  0
SPLINE
  5
6E1
100
AcDbEntity
  8
0
100
AcDbSpline
 62
7
  6
CONTINUOUS
 70
0
 71
3
 72
9
 73
5
 74
0
 42
0.0000001
 43
0.0000001
 44
0.0000000001
 40
0.0
 40
0.0
 40
0.0
 40
0.0
 40
0.2536987259
 40
1.0
 40
1.0
 40
1.0
 40
1.0
 10
-7.5666456542
 20
21.3359869487
 30
0.0
 10
-7.5881304357
 20
21.3663710179
 30
0.0
 10
-7.67279977
 20
21.4861432571
 30
0.0
 10
-7.7569041269
 20
21.6063467646
 30
0.0
 10
-7.8176867079
 20
21.6973892622
 30
0.0
  0
SPLINE
  5
6E2
100
AcDbEntity
  8
0
100
AcDbSpline
 62
7
  6
CONTINUOUS
 70
0
 71
3
 72
9
 73
5
 74
0
 42
0.0000001
 43
0.0000001
 44
0.0000000001
 40
0.0
 40
0.0
 40
0.0
 40
0.0
 40
0.2446707048
 40
1.0
 40
1.0
 40
1.0
 40
1.0
 10
7.8176867079
 20
21.6973892622
 30
0.0
 10
7.7977592455
 20
21.6675411394
 30
0.0
 10
7.7153744724
 20
21.5461740365
 30
0.0
 10
7.6306123698
 20
21.4264495454
 30
0.0
 10
7.5666456542
 20
21.3359869487
 30
0.0
  0
SPLINE
  5
6E3
100
AcDbEntity
  8
0
100
AcDbSpline
 62
7
  6
CONTINUOUS
 70
0
 71
3
 72
9
 73
5
 74
0
 42
0.0000001
 43
0.0000001
 44
0.0000000001
 40
0.0
 40
0.0
 40
0.0
 40
0.0
 40
0.2536987259
 40
1.0
 40
1.0
 40
1.0
 40
1.0
 10
7.5666456542
 20
-21.3359869487
 30
0.0
 10
7.5881304357
 20
-21.3663710179
 30
0.0
 10
7.67279977
 20
-21.4861432571
 30
0.0
 10
7.7569041269
 20
-21.6063467646
 30
0.0
 10
7.8176867079
 20
-21.6973892622
 30
0.0
  0
SPLINE
  5
6E4
100
AcDbEntity
  8
0
100
AcDbSpline
 62
7
  6
CONTINUOUS
 70
0
 71
3
 72
9
 73
5
 74
0
 42
0.0000001
 43
0.0000001
 44
0.0000000001
 40
0.0
 40
0.0
 40
0.0
 40
0.0
 40
0.2446707048
 40
1.0
 40
1.0
 40
1.0
 40
1.0
 10
-7.8176867079
 20
-21.6973892622
 30
0.0
 10
-7.7977592455
 20
-21.6675411394
 30
0.0
 10
-7.7153744724
 20
-21.5461740365
 30
0.0
 10
-7.6306123698
 20
-21.4264495454
 30
0.0
 10
-7.5666456542
 20
-21.3359869487
 30
0.0
  0
SPLINE
  5
6E5
100
AcDbEntity
  8
0
100
AcDbSpline
 62
250
  6
CONTINUOUS
 70
0
 71
3
 72
11
 73
7
 74
0
 42
0.0000001
 43
0.0000001
 44
0.0000000001
 40
0.0
 40
0.0
 40
0.0
 40
0.0
 40
0.2331623084
 40
0.476670585
 40
0.7338116789
 40
1.0
 40
1.0
 40
1.0
 40
1.0
 10
10.145628166
 20
23.8443375673
 30
0.0
 10
10.1455330942
 20
23.8160323825
 30
0.0
 10
10.1316032365
 20
23.7574892432
 30
0.0
 10
10.0746708123
 20
23.6858281285
 30
0.0
 10
9.9920027722
 20
23.6388299314
 30
0.0
 10
9.9279469174
 20
23.6279126229
 30
0.0
 10
9.8956323968
 20
23.6278312164
 30
0.0
  0
SPLINE
  5
6E6
100
AcDbEntity
  8
0
100
AcDbSpline
 62
250
  6
CONTINUOUS
 70
0
 71
3
 72
11
 73
7
 74
0
 42
0.0000001
 43
0.0000001
 44
0.0000000001
 40
0.0
 40
0.0
 40
0.0
 40
0.0
 40
0.2331623084
 40
0.476670585
 40
0.7338116789
 40
1.0
 40
1.0
 40
1.0
 40
1.0
 10
7.254371834
 20
23.8443375673
 30
0.0
 10
7.2544669058
 20
23.8160323825
 30
0.0
 10
7.2683967635
 20
23.7574892432
 30
0.0
 10
7.3253291877
 20
23.6858281285
 30
0.0
 10
7.4079972278
 20
23.6388299314
 30
0.0
 10
7.4720530826
 20
23.6279126229
 30
0.0
 10
7.5043676032
 20
23.6278312164
 30
0.0
  0
SPLINE
  5
6E7
100
AcDbEntity
  8
0
100
AcDbSpline
 62
250
  6
CONTINUOUS
 70
0
 71
3
 72
11
 73
7
 74
0
 42
0.0000001
 43
0.0000001
 44
0.0000000001
 40
0.0
 40
0.0
 40
0.0
 40
0.0
 40
0.2331623084
 40
0.476670585
 40
0.7338116789
 40
1.0
 40
1.0
 40
1.0
 40
1.0
 10
-7.254371834
 20
23.8443375673
 30
0.0
 10
-7.2544669058
 20
23.8160323825
 30
0.0
 10
-7.2683967635
 20
23.7574892432
 30
0.0
 10
-7.3253291877
 20
23.6858281285
 30
0.0
 10
-7.4079972278
 20
23.6388299314
 30
0.0
 10
-7.4720530826
 20
23.6279126229
 30
0.0
 10
-7.5043676032
 20
23.6278312164
 30
0.0
  0
SPLINE
  5
6E8
100
AcDbEntity
  8
0
100
AcDbSpline
 62
250
  6
CONTINUOUS
 70
0
 71
3
 72
11
 73
7
 74
0
 42
0.0000001
 43
0.0000001
 44
0.0000000001
 40
0.0
 40
0.0
 40
0.0
 40
0.0
 40
0.2331623084
 40
0.476670585
 40
0.7338116789
 40
1.0
 40
1.0
 40
1.0
 40
1.0
 10
-10.145628166
 20
23.8443375673
 30
0.0
 10
-10.1455330942
 20
23.8160323825
 30
0.0
 10
-10.1316032365
 20
23.7574892432
 30
0.0
 10
-10.0746708123
 20
23.6858281285
 30
0.0
 10
-9.9920027722
 20
23.6388299314
 30
0.0
 10
-9.9279469174
 20
23.6279126229
 30
0.0
 10
-9.8956323968
 20
23.6278312164
 30
0.0
  0
SPLINE
  5
6E9
100
AcDbEntity
  8
0
100
AcDbSpline
 62
250
  6
CONTINUOUS
 70
0
 71
3
 72
11
 73
7
 74
0
 42
0.0000001
 43
0.0000001
 44
0.0000000001
 40
0.0
 40
0.0
 40
0.0
 40
0.0
 40
0.2331623162
 40
0.4766706026
 40
0.7338117062
 40
1.0
 40
1.0
 40
1.0
 40
1.0
 10
10.145628166
 20
-23.8443375673
 30
0.0
 10
10.1455330942
 20
-23.8160323815
 30
0.0
 10
10.1316032353
 20
-23.7574892401
 30
0.0
 10
10.0746708074
 20
-23.685828124
 30
0.0
 10
9.9920027666
 20
-23.6388299294
 30
0.0
 10
9.9279469141
 20
-23.6279126229
 30
0.0
 10
9.8956323968
 20
-23.6278312164
 30
0.0
  0
SPLINE
  5
6EA
100
AcDbEntity
  8
0
100
AcDbSpline
 62
250
  6
CONTINUOUS
 70
0
 71
3
 72
11
 73
7
 74
0
 42
0.0000001
 43
0.0000001
 44
0.0000000001
 40
0.0
 40
0.0
 40
0.0
 40
0.0
 40
0.2331622206
 40
0.4766705204
 40
0.7338116472
 40
1.0
 40
1.0
 40
1.0
 40
1.0
 10
7.254371834
 20
-23.8443375673
 30
0.0
 10
7.2544669058
 20
-23.8160323931
 30
0.0
 10
7.2683967542
 20
-23.7574892617
 30
0.0
 10
7.3253291691
 20
-23.6858281428
 30
0.0
 10
7.4079972158
 20
-23.6388299344
 30
0.0
 10
7.4720530787
 20
-23.6279126229
 30
0.0
 10
7.5043676032
 20
-23.6278312164
 30
0.0
  0
SPLINE
  5
6EB
100
AcDbEntity
  8
0
100
AcDbSpline
 62
250
  6
CONTINUOUS
 70
0
 71
3
 72
11
 73
7
 74
0
 42
0.0000001
 43
0.0000001
 44
0.0000000001
 40
0.0
 40
0.0
 40
0.0
 40
0.0
 40
0.2331623162
 40
0.4766706026
 40
0.7338117062
 40
1.0
 40
1.0
 40
1.0
 40
1.0
 10
-10.145628166
 20
-23.8443375673
 30
0.0
 10
-10.1455330942
 20
-23.8160323815
 30
0.0
 10
-10.1316032353
 20
-23.7574892401
 30
0.0
 10
-10.0746708074
 20
-23.685828124
 30
0.0
 10
-9.9920027666
 20
-23.6388299294
 30
0.0
 10
-9.9279469141
 20
-23.6279126229
 30
0.0
 10
-9.8956323968
 20
-23.6278312164
 30
0.0
  0
SPLINE
  5
6EC
100
AcDbEntity
  8
0
100
AcDbSpline
 62
250
  6
CONTINUOUS
 70
0
 71
3
 72
11
 73
7
 74
0
 42
0.0000001
 43
0.0000001
 44
0.0000000001
 40
0.0
 40
0.0
 40
0.0
 40
0.0
 40
0.2331622206
 40
0.4766705204
 40
0.7338116472
 40
1.0
 40
1.0
 40
1.0
 40
1.0
 10
-7.254371834
 20
-23.8443375673
 30
0.0
 10
-7.2544669058
 20
-23.8160323931
 30
0.0
 10
-7.2683967542
 20
-23.7574892617
 30
0.0
 10
-7.3253291691
 20
-23.6858281428
 30
0.0
 10
-7.4079972158
 20
-23.6388299344
 30
0.0
 10
-7.4720530787
 20
-23.6279126229
 30
0.0
 10
-7.5043676032
 20
-23.6278312164
 30
0.0
  0
SPLINE
  5
6ED
100
AcDbEntity
  8
0
100
AcDbSpline
 62
7
  6
CONTINUOUS
 70
0
 71
3
 72
18
 73
14
 74
0
 42
0.0000001
 43
0.0000001
 44
0.0000000001
 40
0.0
 40
0.0
 40
0.0
 40
0.0
 40
0.1636809462
 40
0.3250686682
 40
0.4815234555
 40
0.6295752314
 40
0.7642664833
 40
0.8244098295
 40
0.8781868014
 40
0.9241536491
 40
0.9607162283
 40
0.9863263319
 40
1.0
 40
1.0
 40
1.0
 40
1.0
 10
3.9530427099
 20
-23.4563578147
 30
0.0
 10
3.9783861225
 20
-23.4829822572
 30
0.0
 10
4.0287181052
 20
-23.5358579668
 30
0.0
 10
4.1031953652
 20
-23.6142578457
 30
0.0
 10
4.1750872819
 20
-23.6902735024
 30
0.0
 10
4.2425633728
 20
-23.7622091613
 30
0.0
 10
4.2948567201
 20
-23.8187406273
 30
0.0
 10
4.3323068443
 20
-23.8601369737
 30
0.0
 10
4.3561383368
 20
-23.8870248736
 30
0.0
 10
4.3759699273
 20
-23.9102608154
 30
0.0
 10
4.3914505848
 20
-23.9291939255
 30
0.0
 10
4.4009847265
 20
-23.9429097734
 30
0.0
 10
4.4058988308
 20
-23.9508267815
 30
0.0
 10
4.406077753
 20
-23.9538922731
 30
0.0
  0
SPLINE
  5
6EE
100
AcDbEntity
  8
0
100
AcDbSpline
 62
7
  6
CONTINUOUS
 70
0
 71
3
 72
11
 73
7
 74
0
 42
0.0000001
 43
0.0000001
 44
0.0000000001
 40
0.0
 40
0.0
 40
0.0
 40
0.0
 40
0.1944974834
 40
0.4421487185
 40
0.7157345637
 40
1.0
 40
1.0
 40
1.0
 40
1.0
 10
3.5340842777
 20
-23.9056713724
 30
0.0
 10
3.559755107
 20
-23.8752151185
 30
0.0
 10
3.6207056578
 20
-23.8082028293
 30
0.0
 10
3.7206819929
 20
-23.7010307526
 30
0.0
 10
3.8341437611
 20
-23.5812781078
 30
0.0
 10
3.9129048929
 20
-23.4985244723
 30
0.0
 10
3.9530427099
 20
-23.4563578147
 30
0.0
  0
SPLINE
  5
6EF
100
AcDbEntity
  8
0
100
AcDbSpline
 62
7
  6
CONTINUOUS
 70
0
 71
3
 72
11
 73
7
 74
0
 42
0.0000001
 43
0.0000001
 44
0.0000000001
 40
0.0
 40
0.0
 40
0.0
 40
0.0
 40
0.2842655446
 40
0.5578513225
 40
0.8055025744
 40
1.0
 40
1.0
 40
1.0
 40
1.0
 10
-3.9530427099
 20
-23.4563578147
 30
0.0
 10
-3.9129048776
 20
-23.4985244884
 30
0.0
 10
-3.8341437399
 20
-23.5812781299
 30
0.0
 10
-3.7206819638
 20
-23.7010307834
 30
0.0
 10
-3.6207056442
 20
-23.8082028443
 30
0.0
 10
-3.5597550994
 20
-23.8752151276
 30
0.0
 10
-3.5340842777
 20
-23.9056713724
 30
0.0
  0
SPLINE
  5
6F0
100
AcDbEntity
  8
0
100
AcDbSpline
 62
7
  6
CONTINUOUS
 70
0
 71
3
 72
18
 73
14
 74
0
 42
0.0000001
 43
0.0000001
 44
0.0000000001
 40
0.0
 40
0.0
 40
0.0
 40
0.0
 40
0.0136736815
 40
0.0392838055
 40
0.0758463948
 40
0.1218132406
 40
0.1755902092
 40
0.2357335554
 40
0.370424812
 40
0.5184765738
 40
0.6749313379
 40
0.8363190669
 40
1.0
 40
1.0
 40
1.0
 40
1.0
 10
-4.406077753
 20
-23.9538922731
 30
0.0
 10
-4.4058988306
 20
-23.9508267785
 30
0.0
 10
-4.4009847206
 20
-23.9429097641
 30
0.0
 10
-4.3914505724
 20
-23.9291939093
 30
0.0
 10
-4.37596991
 20
-23.9102607947
 30
0.0
 10
-4.3561383183
 20
-23.8870248525
 30
0.0
 10
-4.3323068264
 20
-23.8601369537
 30
0.0
 10
-4.2948567016
 20
-23.8187406074
 30
0.0
 10
-4.2425633558
 20
-23.7622091428
 30
0.0
 10
-4.1750872696
 20
-23.6902734897
 30
0.0
 10
-4.1031953577
 20
-23.6142578378
 30
0.0
 10
-4.0287181022
 20
-23.5358579637
 30
0.0
 10
-3.9783861205
 20
-23.4829822551
 30
0.0
 10
-3.9530427099
 20
-23.4563578147
 30
0.0
  0
SPLINE
  5
6F1
100
AcDbEntity
  8
0
100
AcDbSpline
 62
7
  6
CONTINUOUS
 70
0
 71
3
 72
11
 73
7
 74
0
 42
0.0000001
 43
0.0000001
 44
0.0000000001
 40
0.0
 40
0.0
 40
0.0
 40
0.0
 40
0.284265502
 40
0.5578513232
 40
0.8055026207
 40
1.0
 40
1.0
 40
1.0
 40
1.0
 10
3.9530427099
 20
23.4563578147
 30
0.0
 10
3.9129048836
 20
23.4985244821
 30
0.0
 10
3.8341437457
 20
23.5812781236
 30
0.0
 10
3.7206819632
 20
23.7010307841
 30
0.0
 10
3.6207056376
 20
23.8082028513
 30
0.0
 10
3.5597550933
 20
23.8752151348
 30
0.0
 10
3.5340842777
 20
23.9056713724
 30
0.0
  0
SPLINE
  5
6F2
100
AcDbEntity
  8
0
100
AcDbSpline
 62
7
  6
CONTINUOUS
 70
0
 71
3
 72
18
 73
14
 74
0
 42
0.0000001
 43
0.0000001
 44
0.0000000001
 40
0.0
 40
0.0
 40
0.0
 40
0.0
 40
0.0136737074
 40
0.039283942
 40
0.0758466504
 40
0.1218135185
 40
0.1755904583
 40
0.2357337802
 40
0.370425014
 40
0.5184767384
 40
0.6749313802
 40
0.8363191201
 40
1.0
 40
1.0
 40
1.0
 40
1.0
 10
4.406077753
 20
23.9538922731
 30
0.0
 10
4.4058988303
 20
23.9508267727
 30
0.0
 10
4.4009846994
 20
23.9429097325
 30
0.0
 10
4.3914505164
 20
23.9291938344
 30
0.0
 10
4.3759698139
 20
23.9102606786
 30
0.0
 10
4.3561382024
 20
23.8870247202
 30
0.0
 10
4.3323067133
 20
23.8601368281
 30
0.0
 10
4.2948565984
 20
23.8187404959
 30
0.0
 10
4.2425632657
 20
23.7622090452
 30
0.0
 10
4.1750872058
 20
23.6902734234
 30
0.0
 10
4.1031953176
 20
23.6142577953
 30
0.0
 10
4.0287180874
 20
23.5358579481
 30
0.0
 10
3.9783861122
 20
23.4829822464
 30
0.0
 10
3.9530427099
 20
23.4563578147
 30
0.0
  0
SPLINE
  5
6F3
100
AcDbEntity
  8
0
100
AcDbSpline
 62
7
  6
CONTINUOUS
 70
0
 71
3
 72
18
 73
14
 74
0
 42
0.0000001
 43
0.0000001
 44
0.0000000001
 40
0.0
 40
0.0
 40
0.0
 40
0.0
 40
0.1636808643
 40
0.3250686094
 40
0.4815232246
 40
0.6295749336
 40
0.7642661706
 40
0.8244094933
 40
0.8781864304
 40
0.9241532992
 40
0.9607160206
 40
0.9863262778
 40
1.0
 40
1.0
 40
1.0
 40
1.0
 10
-3.9530427099
 20
23.4563578147
 30
0.0
 10
-3.9783861098
 20
23.4829822439
 30
0.0
 10
-4.0287180834
 20
23.5358579439
 30
0.0
 10
-4.1031953079
 20
23.6142577849
 30
0.0
 10
-4.1750871903
 20
23.6902734073
 30
0.0
 10
-4.2425632445
 20
23.7622090223
 30
0.0
 10
-4.2948565755
 20
23.8187404712
 30
0.0
 10
-4.332306691
 20
23.8601368032
 30
0.0
 10
-4.3561381802
 20
23.8870246948
 30
0.0
 10
-4.3759697938
 20
23.9102606546
 30
0.0
 10
-4.3914505026
 20
23.929193816
 30
0.0
 10
-4.4009846928
 20
23.9429097223
 30
0.0
 10
-4.4058988301
 20
23.9508267694
 30
0.0
 10
-4.406077753
 20
23.9538922731
 30
0.0
  0
SPLINE
  5
6F4
100
AcDbEntity
  8
0
100
AcDbSpline
 62
7
  6
CONTINUOUS
 70
0
 71
3
 72
11
 73
7
 74
0
 42
0.0000001
 43
0.0000001
 44
0.0000000001
 40
0.0
 40
0.0
 40
0.0
 40
0.0
 40
0.1944971801
 40
0.4421469387
 40
0.7157330912
 40
1.0
 40
1.0
 40
1.0
 40
1.0
 10
-3.5340842777
 20
23.9056713724
 30
0.0
 10
-3.559755067
 20
23.875215166
 30
0.0
 10
-3.6207053721
 20
23.8082031463
 30
0.0
 10
-3.7206814893
 20
23.7010312787
 30
0.0
 10
-3.8341433016
 20
23.58127859
 30
0.0
 10
-3.912904685
 20
23.4985246908
 30
0.0
 10
-3.9530427099
 20
23.4563578147
 30
0.0
  0
SPLINE
  5
6F5
100
AcDbEntity
  8
ASSI
100
AcDbSpline
 62
250
  6
CONTINUOUS
 70
0
 71
3
 72
13
 73
9
 74
0
 42
0.0000001
 43
0.0000001
 44
0.0000000001
 40
0.0
 40
0.0
 40
0.0
 40
0.0
 40
0.0195568313
 40
0.0677722818
 40
0.1464398142
 40
0.2557975294
 40
0.5666303916
 40
1.0
 40
1.0
 40
1.0
 40
1.0
 10
-10.6585359545
 20
6.85
 30
0.0
 10
-10.6582215104
 20
6.8500027317
 30
0.0
 10
-10.6577514966
 20
6.851372203
 30
0.0
 10
-10.6573006775
 20
6.8533751192
 30
0.0
 10
-10.6567495795
 20
6.8573027482
 30
0.0
 10
-10.6559415505
 20
6.8651837198
 30
0.0
 10
-10.6549862236
 20
6.8789531727
 30
0.0
 10
-10.6543736801
 20
6.8908764354
 30
0.0
 10
-10.6540508441
 20
6.8978371398
 30
0.0
  0
SPLINE
  5
6F6
100
AcDbEntity
  8
ASSI
100
AcDbSpline
 62
250
  6
CONTINUOUS
 70
0
 71
3
 72
33
 73
29
 74
0
 42
0.0000001
 43
0.0000001
 44
0.0000000001
 40
0.0
 40
0.0
 40
0.0
 40
0.0
 40
0.0275941974
 40
0.0707922484
 40
0.1281516788
 40
0.1977559454
 40
0.3640605944
 40
0.4552006845
 40
0.5476501427
 40
0.6383156047
 40
0.7241642311
 40
0.8023251856
 40
0.837695162
 40
0.8701857198
 40
0.8995309047
 40
0.9254776915
 40
0.9478162514
 40
0.9663544117
 40
0.9741489254
 40
0.9809399395
 40
0.9867123799
 40
0.9914517128
 40
0.9951494422
 40
0.9978019937
 40
0.9987358996
 40
0.9994088177
 40
0.9998237134
 40
1.0
 40
1.0
 40
1.0
 40
1.0
 10
-10.6540508441
 20
6.8978371398
 30
0.0
 10
-10.6522385138
 20
6.9369130027
 30
0.0
 10
-10.6496183585
 20
7.03724583
 30
0.0
 10
-10.6463375784
 20
7.2188812835
 30
0.0
 10
-10.6434606458
 20
7.4600907704
 30
0.0
 10
-10.6399384055
 20
7.8758159513
 30
0.0
 10
-10.6379373851
 20
8.3394428627
 30
0.0
 10
-10.6370984176
 20
8.8354563314
 30
0.0
 10
-10.6371544402
 20
9.2242438345
 30
0.0
 10
-10.637898508
 20
9.6055292928
 30
0.0
 10
-10.6393077985
 20
9.9665572035
 30
0.0
 10
-10.6410420268
 20
10.2491951006
 30
0.0
 10
-10.6427655216
 20
10.4561898294
 30
0.0
 10
-10.6441441193
 20
10.5939830186
 30
0.0
 10
-10.6456375198
 20
10.7184157164
 30
0.0
 10
-10.6472328832
 20
10.8284543316
 30
0.0
 10
-10.6489134959
 20
10.9231692908
 30
0.0
 10
-10.6504413855
 20
10.9921500059
 30
0.0
 10
-10.6517341535
 20
11.0390884149
 30
0.0
 10
-10.6526583997
 20
11.0679344991
 30
0.0
 10
-10.6535899755
 20
11.092442515
 30
0.0
 10
-10.6545261014
 20
11.1125733468
 30
0.0
 10
-10.6554553349
 20
11.1282448619
 30
0.0
 10
-10.6562905344
 20
11.138585239
 30
0.0
 10
-10.6569843903
 20
11.1445220929
 30
0.0
 10
-10.6574746879
 20
11.1474528409
 30
0.0
 10
-10.6578459586
 20
11.1490092596
 30
0.0
 10
-10.6582860581
 20
11.1499978019
 30
0.0
 10
-10.6585359545
 20
11.15
 30
0.0
  0
SPLINE
  5
6F7
100
AcDbEntity
  8
ASSI
100
AcDbSpline
 62
250
  6
CONTINUOUS
 70
0
 71
3
 72
13
 73
9
 74
0
 42
0.0000001
 43
0.0000001
 44
0.0000000001
 40
0.0
 40
0.0
 40
0.0
 40
0.0
 40
0.0195568313
 40
0.0677722818
 40
0.1464398142
 40
0.2557975294
 40
0.5666303916
 40
1.0
 40
1.0
 40
1.0
 40
1.0
 10
-10.6585359545
 20
1.85
 30
0.0
 10
-10.6582215104
 20
1.8500027317
 30
0.0
 10
-10.6577514966
 20
1.851372203
 30
0.0
 10
-10.6573006775
 20
1.8533751192
 30
0.0
 10
-10.6567495795
 20
1.8573027482
 30
0.0
 10
-10.6559415505
 20
1.8651837198
 30
0.0
 10
-10.6549862236
 20
1.8789531727
 30
0.0
 10
-10.6543736801
 20
1.8908764354
 30
0.0
 10
-10.6540508441
 20
1.8978371398
 30
0.0
  0
SPLINE
  5
6F8
100
AcDbEntity
  8
ASSI
100
AcDbSpline
 62
250
  6
CONTINUOUS
 70
0
 71
3
 72
33
 73
29
 74
0
 42
0.0000001
 43
0.0000001
 44
0.0000000001
 40
0.0
 40
0.0
 40
0.0
 40
0.0
 40
0.0275941974
 40
0.0707922484
 40
0.1281516788
 40
0.1977559454
 40
0.3640605944
 40
0.4552006845
 40
0.5476501427
 40
0.6383156047
 40
0.7241642311
 40
0.8023251856
 40
0.837695162
 40
0.8701857198
 40
0.8995309047
 40
0.9254776915
 40
0.9478162514
 40
0.9663544117
 40
0.9741489254
 40
0.9809399395
 40
0.9867123799
 40
0.9914517128
 40
0.9951494422
 40
0.9978019937
 40
0.9987358996
 40
0.9994088177
 40
0.9998237134
 40
1.0
 40
1.0
 40
1.0
 40
1.0
 10
-10.6540508441
 20
1.8978371398
 30
0.0
 10
-10.6522385138
 20
1.9369130027
 30
0.0
 10
-10.6496183585
 20
2.03724583
 30
0.0
 10
-10.6463375784
 20
2.2188812835
 30
0.0
 10
-10.6434606458
 20
2.4600907704
 30
0.0
 10
-10.6399384055
 20
2.8758159513
 30
0.0
 10
-10.6379373851
 20
3.3394428627
 30
0.0
 10
-10.6370984176
 20
3.8354563314
 30
0.0
 10
-10.6371544402
 20
4.2242438345
 30
0.0
 10
-10.637898508
 20
4.6055292928
 30
0.0
 10
-10.6393077985
 20
4.9665572035
 30
0.0
 10
-10.6410420268
 20
5.2491951006
 30
0.0
 10
-10.6427655216
 20
5.4561898294
 30
0.0
 10
-10.6441441193
 20
5.5939830186
 30
0.0
 10
-10.6456375198
 20
5.7184157164
 30
0.0
 10
-10.6472328832
 20
5.8284543316
 30
0.0
 10
-10.6489134959
 20
5.9231692908
 30
0.0
 10
-10.6504413855
 20
5.9921500059
 30
0.0
 10
-10.6517341535
 20
6.0390884149
 30
0.0
 10
-10.6526583997
 20
6.0679344991
 30
0.0
 10
-10.6535899755
 20
6.092442515
 30
0.0
 10
-10.6545261014
 20
6.1125733468
 30
0.0
 10
-10.6554553349
 20
6.1282448619
 30
0.0
 10
-10.6562905344
 20
6.138585239
 30
0.0
 10
-10.6569843903
 20
6.1445220929
 30
0.0
 10
-10.6574746879
 20
6.1474528409
 30
0.0
 10
-10.6578459586
 20
6.1490092596
 30
0.0
 10
-10.6582860581
 20
6.1499978019
 30
0.0
 10
-10.6585359545
 20
6.15
 30
0.0
  0
SPLINE
  5
6F9
100
AcDbEntity
  8
ASSI
100
AcDbSpline
 62
250
  6
CONTINUOUS
 70
0
 71
3
 72
13
 73
9
 74
0
 42
0.0000001
 43
0.0000001
 44
0.0000000001
 40
0.0
 40
0.0
 40
0.0
 40
0.0
 40
0.0195568313
 40
0.0677722818
 40
0.1464398142
 40
0.2557975294
 40
0.5666303916
 40
1.0
 40
1.0
 40
1.0
 40
1.0
 10
-10.6585359545
 20
-3.15
 30
0.0
 10
-10.6582215104
 20
-3.1499972683
 30
0.0
 10
-10.6577514966
 20
-3.148627797
 30
0.0
 10
-10.6573006775
 20
-3.1466248808
 30
0.0
 10
-10.6567495795
 20
-3.1426972518
 30
0.0
 10
-10.6559415505
 20
-3.1348162802
 30
0.0
 10
-10.6549862236
 20
-3.1210468273
 30
0.0
 10
-10.6543736801
 20
-3.1091235646
 30
0.0
 10
-10.6540508441
 20
-3.1021628602
 30
0.0
  0
SPLINE
  5
6FA
100
AcDbEntity
  8
ASSI
100
AcDbSpline
 62
250
  6
CONTINUOUS
 70
0
 71
3
 72
33
 73
29
 74
0
 42
0.0000001
 43
0.0000001
 44
0.0000000001
 40
0.0
 40
0.0
 40
0.0
 40
0.0
 40
0.0275941974
 40
0.0707922484
 40
0.1281516788
 40
0.1977559454
 40
0.3640605944
 40
0.4552006845
 40
0.5476501427
 40
0.6383156047
 40
0.7241642311
 40
0.8023251856
 40
0.837695162
 40
0.8701857198
 40
0.8995309047
 40
0.9254776915
 40
0.9478162514
 40
0.9663544117
 40
0.9741489254
 40
0.9809399395
 40
0.9867123799
 40
0.9914517128
 40
0.9951494422
 40
0.9978019937
 40
0.9987358996
 40
0.9994088177
 40
0.9998237134
 40
1.0
 40
1.0
 40
1.0
 40
1.0
 10
-10.6540508441
 20
-3.1021628602
 30
0.0
 10
-10.6522385138
 20
-3.0630869973
 30
0.0
 10
-10.6496183585
 20
-2.96275417
 30
0.0
 10
-10.6463375784
 20
-2.7811187165
 30
0.0
 10
-10.6434606458
 20
-2.5399092296
 30
0.0
 10
-10.6399384055
 20
-2.1241840487
 30
0.0
 10
-10.6379373851
 20
-1.6605571373
 30
0.0
 10
-10.6370984176
 20
-1.1645436686
 30
0.0
 10
-10.6371544402
 20
-0.7757561655
 30
0.0
 10
-10.637898508
 20
-0.3944707072
 30
0.0
 10
-10.6393077985
 20
-0.0334427965
 30
0.0
 10
-10.6410420268
 20
0.2491951006
 30
0.0
 10
-10.6427655216
 20
0.4561898294
 30
0.0
 10
-10.6441441193
 20
0.5939830186
 30
0.0
 10
-10.6456375198
 20
0.7184157164
 30
0.0
 10
-10.6472328832
 20
0.8284543316
 30
0.0
 10
-10.6489134959
 20
0.9231692908
 30
0.0
 10
-10.6504413855
 20
0.9921500059
 30
0.0
 10
-10.6517341535
 20
1.0390884149
 30
0.0
 10
-10.6526583997
 20
1.0679344991
 30
0.0
 10
-10.6535899755
 20
1.092442515
 30
0.0
 10
-10.6545261014
 20
1.1125733468
 30
0.0
 10
-10.6554553349
 20
1.1282448619
 30
0.0
 10
-10.6562905344
 20
1.138585239
 30
0.0
 10
-10.6569843903
 20
1.1445220929
 30
0.0
 10
-10.6574746879
 20
1.1474528409
 30
0.0
 10
-10.6578459586
 20
1.1490092596
 30
0.0
 10
-10.6582860581
 20
1.1499978019
 30
0.0
 10
-10.6585359545
 20
1.15
 30
0.0
  0
SPLINE
  5
6FB
100
AcDbEntity
  8
ASSI
100
AcDbSpline
 62
250
  6
CONTINUOUS
 70
0
 71
3
 72
13
 73
9
 74
0
 42
0.0000001
 43
0.0000001
 44
0.0000000001
 40
0.0
 40
0.0
 40
0.0
 40
0.0
 40
0.0195568313
 40
0.0677722818
 40
0.1464398142
 40
0.2557975294
 40
0.5666303916
 40
1.0
 40
1.0
 40
1.0
 40
1.0
 10
-10.6585359545
 20
11.85
 30
0.0
 10
-10.6582215104
 20
11.8500027317
 30
0.0
 10
-10.6577514966
 20
11.851372203
 30
0.0
 10
-10.6573006775
 20
11.8533751192
 30
0.0
 10
-10.6567495795
 20
11.8573027482
 30
0.0
 10
-10.6559415505
 20
11.8651837198
 30
0.0
 10
-10.6549862236
 20
11.8789531727
 30
0.0
 10
-10.6543736801
 20
11.8908764354
 30
0.0
 10
-10.6540508441
 20
11.8978371398
 30
0.0
  0
SPLINE
  5
6FC
100
AcDbEntity
  8
ASSI
100
AcDbSpline
 62
250
  6
CONTINUOUS
 70
0
 71
3
 72
33
 73
29
 74
0
 42
0.0000001
 43
0.0000001
 44
0.0000000001
 40
0.0
 40
0.0
 40
0.0
 40
0.0
 40
0.0275941974
 40
0.0707922484
 40
0.1281516788
 40
0.1977559454
 40
0.3640605944
 40
0.4552006845
 40
0.5476501427
 40
0.6383156047
 40
0.7241642311
 40
0.8023251856
 40
0.837695162
 40
0.8701857198
 40
0.8995309047
 40
0.9254776915
 40
0.9478162514
 40
0.9663544117
 40
0.9741489254
 40
0.9809399395
 40
0.9867123799
 40
0.9914517128
 40
0.9951494422
 40
0.9978019937
 40
0.9987358996
 40
0.9994088177
 40
0.9998237134
 40
1.0
 40
1.0
 40
1.0
 40
1.0
 10
-10.6540508441
 20
11.8978371398
 30
0.0
 10
-10.6522385138
 20
11.9369130027
 30
0.0
 10
-10.6496183585
 20
12.03724583
 30
0.0
 10
-10.6463375784
 20
12.2188812835
 30
0.0
 10
-10.6434606458
 20
12.4600907704
 30
0.0
 10
-10.6399384055
 20
12.8758159513
 30
0.0
 10
-10.6379373851
 20
13.3394428627
 30
0.0
 10
-10.6370984176
 20
13.8354563314
 30
0.0
 10
-10.6371544402
 20
14.2242438345
 30
0.0
 10
-10.637898508
 20
14.6055292928
 30
0.0
 10
-10.6393077985
 20
14.9665572035
 30
0.0
 10
-10.6410420268
 20
15.2491951006
 30
0.0
 10
-10.6427655216
 20
15.4561898294
 30
0.0
 10
-10.6441441193
 20
15.5939830186
 30
0.0
 10
-10.6456375198
 20
15.7184157164
 30
0.0
 10
-10.6472328832
 20
15.8284543316
 30
0.0
 10
-10.6489134959
 20
15.9231692908
 30
0.0
 10
-10.6504413855
 20
15.9921500059
 30
0.0
 10
-10.6517341535
 20
16.0390884149
 30
0.0
 10
-10.6526583997
 20
16.0679344991
 30
0.0
 10
-10.6535899755
 20
16.092442515
 30
0.0
 10
-10.6545261014
 20
16.1125733468
 30
0.0
 10
-10.6554553349
 20
16.1282448619
 30
0.0
 10
-10.6562905344
 20
16.138585239
 30
0.0
 10
-10.6569843903
 20
16.1445220929
 30
0.0
 10
-10.6574746879
 20
16.1474528409
 30
0.0
 10
-10.6578459586
 20
16.1490092596
 30
0.0
 10
-10.6582860581
 20
16.1499978019
 30
0.0
 10
-10.6585359545
 20
16.15
 30
0.0
  0
SPLINE
  5
6FD
100
AcDbEntity
  8
CURVE
100
AcDbSpline
 62
250
  6
CONTINUOUS
 70
0
 71
3
 72
9
 73
5
 74
0
 42
0.0000001
 43
0.0000001
 44
0.0000000001
 40
0.0
 40
0.0
 40
0.0
 40
0.0
 40
0.7057072392
 40
1.0
 40
1.0
 40
1.0
 40
1.0
 10
9.3448875901
 20
-15.103542891
 30
0.0
 10
9.4694548576
 20
-14.9799494041
 30
0.0
 10
9.5705726832
 20
-14.7325225721
 30
0.0
 10
9.6067127988
 20
-14.4885277581
 30
0.0
 10
9.6169950762
 20
-14.4160764381
 30
0.0
  0
SPLINE
  5
6FE
100
AcDbEntity
  8
CURVE
100
AcDbSpline
 62
250
  6
CONTINUOUS
 70
0
 71
3
 72
10
 73
6
 74
0
 42
0.0000001
 43
0.0000001
 44
0.0000000001
 40
0.0
 40
0.0
 40
0.0
 40
0.0
 40
0.3450797927
 40
0.6331185764
 40
1.0
 40
1.0
 40
1.0
 40
1.0
 10
9.6271163321
 20
-13.8430726704
 30
0.0
 10
9.6226446116
 20
-13.7183597546
 30
0.0
 10
9.5938940549
 20
-13.4855171293
 30
0.0
 10
9.5004457812
 20
-13.154167444
 30
0.0
 10
9.3243821437
 20
-12.905788157
 30
0.0
 10
9.1917048435
 20
-12.905788157
 30
0.0
  0
SPLINE
  5
6FF
100
AcDbEntity
  8
CURVE
100
AcDbSpline
 62
250
  6
CONTINUOUS
 70
0
 71
3
 72
9
 73
5
 74
0
 42
0.0000001
 43
0.0000001
 44
0.0000000001
 40
0.0
 40
0.0
 40
0.0
 40
0.0
 40
0.5065898084
 40
1.0
 40
1.0
 40
1.0
 40
1.0
 10
8.0249999989
 20
-8.762401574
 30
0.0
 10
8.0249999989
 20
-8.4708274978
 30
0.0
 10
7.8520578635
 20
-7.8821782379
 30
0.0
 10
7.3850261057
 20
-7.4881777907
 30
0.0
 10
7.1261334535
 20
-7.3714559136
 30
0.0
  0
SPLINE
  5
700
100
AcDbEntity
  8
CURVE
100
AcDbSpline
 62
250
  6
CONTINUOUS
 70
0
 71
3
 72
12
 73
8
 74
0
 42
0.0000001
 43
0.0000001
 44
0.0000000001
 40
0.0
 40
0.0
 40
0.0
 40
0.0
 40
0.160170272
 40
0.373833895
 40
0.5801046928
 40
0.7863141084
 40
1.0
 40
1.0
 40
1.0
 40
1.0
 10
5.9013941147
 20
-6.8187252987
 30
0.0
 10
6.0942368083
 20
-6.7594024684
 30
0.0
 10
6.5675007039
 20
-6.6884278723
 30
0.0
 10
7.303761718
 20
-6.8359756132
 30
0.0
 10
7.9735904963
 20
-7.2889802859
 30
0.0
 10
8.4256863582
 20
-7.9580624509
 30
0.0
 10
8.5333340618
 20
-8.4932287779
 30
0.0
 10
8.5333340618
 20
-8.762401574
 30
0.0
  0
SPLINE
  5
701
100
AcDbEntity
  8
CURVE
100
AcDbSpline
 62
250
  6
CONTINUOUS
 70
0
 71
3
 72
13
 73
9
 74
0
 42
0.0000001
 43
0.0000001
 44
0.0000000001
 40
0.0
 40
0.0
 40
0.0
 40
0.0
 40
0.1820448067
 40
0.3577131209
 40
0.5334393081
 40
0.7154636694
 40
0.860240729
 40
1.0
 40
1.0
 40
1.0
 40
1.0
 10
9.5499999985
 20
-8.762401574
 30
0.0
 10
9.5499999985
 20
-8.3586390964
 30
0.0
 10
9.3884208676
 20
-7.5559250311
 30
0.0
 10
8.7103647543
 20
-6.5522739592
 30
0.0
 10
7.7057813265
 20
-5.8726685557
 30
0.0
 10
6.5821288411
 20
-5.6480652496
 30
0.0
 10
5.5442190107
 20
-5.8122135349
 30
0.0
 10
4.9714345223
 20
-6.1043862835
 30
0.0
 10
4.7198736077
 20
-6.2855004023
 30
0.0
  0
SPLINE
  5
702
100
AcDbEntity
  8
CURVE
100
AcDbSpline
 62
250
  6
CONTINUOUS
 70
0
 71
3
 72
9
 73
5
 74
0
 42
0.0000001
 43
0.0000001
 44
0.0000000001
 40
0.0
 40
0.0
 40
0.0
 40
0.0
 40
0.2458206488
 40
1.0
 40
1.0
 40
1.0
 40
1.0
 10
4.0108192328
 20
-6.9994550129
 30
0.0
 10
3.9223165647
 20
-7.1241893856
 30
0.0
 10
3.5997874684
 20
-7.6574520573
 30
0.0
 10
3.45
 20
-8.2931732121
 30
0.0
 10
3.45
 20
-8.762401574
 30
0.0
  0
SPLINE
  5
703
100
AcDbEntity
  8
CURVE
100
AcDbSpline
 62
250
  6
CONTINUOUS
 70
0
 71
3
 72
9
 73
5
 74
0
 42
0.0000001
 43
0.0000001
 44
0.0000000001
 40
0.0
 40
0.0
 40
0.0
 40
0.0
 40
0.2600282964
 40
1.0
 40
1.0
 40
1.0
 40
1.0
 10
4.4666670313
 20
-8.762401574
 30
0.0
 10
4.4666670313
 20
-8.6398699232
 30
0.0
 10
4.5073427234
 20
-8.1690728461
 30
0.0
 10
4.7213546692
 20
-7.716773371
 30
0.0
 10
4.9464621736
 20
-7.4504780986
 30
0.0
  0
SPLINE
  5
704
100
AcDbEntity
  8
CURVE
100
AcDbSpline
 62
250
  6
CONTINUOUS
 70
0
 71
3
 72
15
 73
11
 74
0
 42
0.0000001
 43
0.0000001
 44
0.0000000001
 40
0.0
 40
0.0
 40
0.0
 40
0.0
 40
0.1231317733
 40
0.2506006842
 40
0.3776993986
 40
0.5004004562
 40
0.6231015137
 40
0.7502002281
 40
0.8772989424
 40
1.0
 40
1.0
 40
1.0
 40
1.0
 10
5.4245268551
 20
-7.6810453012
 30
0.0
 10
5.2862463366
 20
-7.8193258197
 30
0.0
 10
5.0564618773
 20
-8.158390011
 30
0.0
 10
4.9338555899
 20
-8.7616382374
 30
0.0
 10
5.0552953024
 20
-9.3652156187
 30
0.0
 10
5.3948432939
 20
-9.8675568578
 30
0.0
 10
5.8972270131
 20
-10.2070710005
 30
0.0
 10
6.5000014914
 20
-10.3285753641
 30
0.0
 10
7.1027671199
 20
-10.2058862381
 30
0.0
 10
7.4396837976
 20
-9.9820520618
 30
0.0
 10
7.5783378166
 20
-9.8407393914
 30
0.0
  0
SPLINE
  5
705
100
AcDbEntity
  8
CURVE
100
AcDbSpline
 62
250
  6
CONTINUOUS
 70
0
 71
3
 72
19
 73
15
 74
0
 42
0.0000001
 43
0.0000001
 44
0.0000000001
 40
0.0
 40
0.0
 40
0.0
 40
0.0
 40
0.0030612373
 40
0.0115806212
 40
0.0252031094
 40
0.0435651069
 40
0.0930489206
 40
0.1571129009
 40
0.2328366781
 40
0.3172995988
 40
0.5007597608
 40
0.6841268172
 40
0.8440338824
 40
1.0
 40
1.0
 40
1.0
 40
1.0
 10
-8.0006876944
 20
-8.0000105585
 30
0.0
 10
-7.999719095
 20
-8.0018078194
 30
0.0
 10
-7.9895765197
 20
-7.9990738056
 30
0.0
 10
-7.974994812
 20
-8.0024388702
 30
0.0
 10
-7.9467904098
 20
-8.0013256245
 30
0.0
 10
-7.8931354808
 20
-8.0027872702
 30
0.0
 10
-7.8046916127
 20
-8.0026514083
 30
0.0
 10
-7.6786660894
 20
-8.0032574592
 30
0.0
 10
-7.5290342315
 20
-8.0032982841
 30
0.0
 10
-7.2998720458
 20
-8.0032817561
 30
0.0
 10
-6.9988754927
 20
-8.0028309109
 30
0.0
 10
-6.647583176
 20
-8.0020358761
 30
0.0
 10
-6.3146221353
 20
-8.0010760106
 30
0.0
 10
-6.1039562767
 20
-8.000394132
 30
0.0
 10
-5.9999375788
 20
-8.0000086211
 30
0.0
  0
SPLINE
  5
706
100
AcDbEntity
  8
CURVE
100
AcDbSpline
 62
250
  6
CONTINUOUS
 70
0
 71
3
 72
9
 73
5
 74
0
 42
0.0000001
 43
0.0000001
 44
0.0000000001
 40
0.0
 40
0.0
 40
0.0
 40
0.0
 40
0.4031821218
 40
1.0
 40
1.0
 40
1.0
 40
1.0
 10
-5.9999375788
 20
-8.0000086211
 30
0.0
 10
-6.0586582566
 20
-7.8266141268
 30
0.0
 10
-6.2410305359
 20
-7.4328686098
 30
0.0
 10
-6.6101057579
 20
-7.0086530821
 30
0.0
 10
-6.8810942443
 20
-7.0093294539
 30
0.0
  0
SPLINE
  5
707
100
AcDbEntity
  8
CURVE
100
AcDbSpline
 62
250
  6
CONTINUOUS
 70
0
 71
3
 72
18
 73
14
 74
0
 42
0.0000001
 43
0.0000001
 44
0.0000000001
 40
0.0
 40
0.0
 40
0.0
 40
0.0
 40
0.0937055574
 40
0.2269426197
 40
0.38754671
 40
0.5591178453
 40
0.7241435533
 40
0.7986126801
 40
0.8647089387
 40
0.9201660496
 40
0.9627128153
 40
0.9900761834
 40
1.0
 40
1.0
 40
1.0
 40
1.0
 10
-6.8810942443
 20
-7.0093294539
 30
0.0
 10
-6.928400401
 20
-7.0094475274
 30
0.0
 10
-7.038651026
 20
-7.0571132458
 30
0.0
 10
-7.197469122
 20
-7.168575921
 30
0.0
 10
-7.3757076468
 20
-7.3232158754
 30
0.0
 10
-7.5549707047
 20
-7.4986461139
 30
0.0
 10
-7.6978467452
 20
-7.6494385709
 30
0.0
 10
-7.8010828814
 20
-7.7638066162
 30
0.0
 10
-7.8672840297
 20
-7.8380248325
 30
0.0
 10
-7.9191889224
 20
-7.9008364735
 30
0.0
 10
-7.9651400328
 20
-7.9493215267
 30
0.0
 10
-7.9804145472
 20
-7.9806763333
 30
0.0
 10
-8.0030563386
 20
-7.9955959227
 30
0.0
 10
-8.0006876944
 20
-8.0000105585
 30
0.0
  0
SPLINE
  5
708
100
AcDbEntity
  8
CURVE
100
AcDbSpline
 62
250
  6
CONTINUOUS
 70
0
 71
3
 72
19
 73
15
 74
0
 42
0.0000001
 43
0.0000001
 44
0.0000000001
 40
0.0
 40
0.0
 40
0.0
 40
0.0
 40
0.0030612239
 40
0.0115805955
 40
0.025203073
 40
0.0435650614
 40
0.0930488614
 40
0.1571128334
 40
0.232836607
 40
0.3172995282
 40
0.5007597004
 40
0.6841267747
 40
0.8440338597
 40
1.0
 40
1.0
 40
1.0
 40
1.0
 10
-7.9999098687
 20
-8.0006965358
 30
0.0
 10
-7.9981126158
 20
-7.9997279409
 30
0.0
 10
-8.0008471272
 20
-7.989585331
 30
0.0
 10
-7.9974826339
 20
-7.9750036646
 30
0.0
 10
-7.9985971464
 20
-7.946799248
 30
0.0
 10
-7.9971378323
 20
-7.8931443348
 30
0.0
 10
-7.9972775954
 20
-7.8047004701
 30
0.0
 10
-7.9966770856
 20
-7.6786749696
 30
0.0
 10
-7.9966428555
 20
-7.5290431321
 30
0.0
 10
-7.9966694856
 20
-7.2998809752
 30
0.0
 10
-7.9971336095
 20
-6.998884462
 30
0.0
 10
-7.9979441483
 20
-6.6475921958
 30
0.0
 10
-7.9989187137
 20
-6.3146312017
 30
0.0
 10
-7.9996098947
 20
-6.1039653731
 30
0.0
 10
-8.0
 20
-5.9999466909
 30
0.0
  0
SPLINE
  5
709
100
AcDbEntity
  8
CURVE
100
AcDbSpline
 62
250
  6
CONTINUOUS
 70
0
 71
3
 72
9
 73
5
 74
0
 42
0.0000001
 43
0.0000001
 44
0.0000000001
 40
0.0
 40
0.0
 40
0.0
 40
0.0
 40
0.4031853316
 40
1.0
 40
1.0
 40
1.0
 40
1.0
 10
-8.0
 20
-5.9999466909
 30
0.0
 10
-8.1733942003
 20
-6.0586672662
 30
0.0
 10
-8.5671348303
 20
-6.2410362821
 30
0.0
 10
-8.991355598
 20
-6.6101012848
 30
0.0
 10
-8.9906792363
 20
-6.8810856955
 30
0.0
  0
SPLINE
  5
70A
100
AcDbEntity
  8
CURVE
100
AcDbSpline
 62
250
  6
CONTINUOUS
 70
0
 71
3
 72
18
 73
14
 74
0
 42
0.0000001
 43
0.0000001
 44
0.0000000001
 40
0.0
 40
0.0
 40
0.0
 40
0.0
 40
0.0937015456
 40
0.2269333167
 40
0.3875318178
 40
0.559098344
 40
0.7241217776
 40
0.7985910788
 40
0.8646886196
 40
0.9201483015
 40
0.9626991175
 40
0.9900682379
 40
1.0
 40
1.0
 40
1.0
 40
1.0
 10
-8.9906792363
 20
-6.8810856955
 30
0.0
 10
-8.9905611617
 20
-6.9283923094
 30
0.0
 10
-8.9428952124
 20
-7.0386442679
 30
0.0
 10
-8.8314311812
 20
-7.1974648349
 30
0.0
 10
-8.6767878306
 20
-7.3757063425
 30
0.0
 10
-8.5013510744
 20
-7.5549730921
 30
0.0
 10
-8.3505507369
 20
-7.6978505395
 30
0.0
 10
-8.2361730689
 20
-7.8010897777
 30
0.0
 10
-8.1619476979
 20
-7.8672881429
 30
0.0
 10
-8.0991224406
 20
-7.9192061117
 30
0.0
 10
-8.0506352093
 20
-7.9651295338
 30
0.0
 10
-8.0192499259
 20
-7.9804593852
 30
0.0
 10
-8.0043398288
 20
-8.0030455324
 30
0.0
 10
-7.9999098687
 20
-8.0006965358
 30
0.0
  0
SPLINE
  5
70B
100
AcDbEntity
  8
CURVE
100
AcDbSpline
 62
250
  6
CONTINUOUS
 70
0
 71
3
 72
18
 73
14
 74
0
 42
0.0000001
 43
0.0000001
 44
0.0000000001
 40
0.0
 40
0.0
 40
0.0
 40
0.0
 40
0.0099176844
 40
0.0372768025
 40
0.0798213965
 40
0.1352781575
 40
0.2013755795
 40
0.2758470584
 40
0.4408796889
 40
0.6124583956
 40
0.7730677547
 40
0.9063044463
 40
1.0
 40
1.0
 40
1.0
 40
1.0
 10
-7.9993118654
 20
-8.0000071245
 30
0.0
 10
-7.9968962585
 20
-8.0043922169
 30
0.0
 10
-8.0196140983
 20
-8.0193867411
 30
0.0
 10
-8.0347928643
 20
-8.0506730947
 30
0.0
 10
-8.0807747713
 20
-8.0991926623
 30
0.0
 10
-8.1326505673
 20
-8.1619897623
 30
0.0
 10
-8.1988478757
 20
-8.2362126258
 30
0.0
 10
-8.3020695746
 20
-8.3505787915
 30
0.0
 10
-8.444934239
 20
-8.5013718337
 30
0.0
 10
-8.6241818325
 20
-8.6768003969
 30
0.0
 10
-8.8024035888
 20
-8.8314395791
 30
0.0
 10
-8.9611987288
 20
-8.9428987868
 30
0.0
 10
-9.0714318608
 20
-8.990569738
 30
0.0
 10
-9.1187289271
 20
-8.9906877887
 30
0.0
  0
SPLINE
  5
70C
100
AcDbEntity
  8
CURVE
100
AcDbSpline
 62
250
  6
CONTINUOUS
 70
0
 71
3
 72
9
 73
5
 74
0
 42
0.0000001
 43
0.0000001
 44
0.0000000001
 40
0.0
 40
0.0
 40
0.0
 40
0.0
 40
0.5968308685
 40
1.0
 40
1.0
 40
1.0
 40
1.0
 10
-9.1187289271
 20
-8.9906877887
 30
0.0
 10
-9.3897471459
 20
-8.9913642348
 30
0.0
 10
-9.7588830871
 20
-8.5671615974
 30
0.0
 10
-9.9413075249
 20
-8.1733911633
 30
0.0
 10
-10.0000443861
 20
-7.999991379
 30
0.0
  0
SPLINE
  5
70D
100
AcDbEntity
  8
CURVE
100
AcDbSpline
 62
250
  6
CONTINUOUS
 70
0
 71
3
 72
19
 73
15
 74
0
 42
0.0000001
 43
0.0000001
 44
0.0000000001
 40
0.0
 40
0.0
 40
0.0
 40
0.0
 40
0.1559735441
 40
0.3158871066
 40
0.4992600405
 40
0.6827236027
 40
0.7671867143
 40
0.8429093666
 40
0.9069706743
 40
0.9564500355
 40
0.9748090669
 40
0.9884280574
 40
0.9969433845
 40
1.0
 40
1.0
 40
1.0
 40
1.0
 10
-10.0000443861
 20
-7.999991379
 30
0.0
 10
-9.8960216433
 20
-7.9996067775
 30
0.0
 10
-9.6853483431
 20
-7.9989267431
 30
0.0
 10
-9.352376983
 20
-7.9979697801
 30
0.0
 10
-9.0010773114
 20
-7.9971778746
 30
0.0
 10
-8.7000767796
 20
-7.9967295216
 30
0.0
 10
-8.4709155114
 20
-7.9967152973
 30
0.0
 10
-8.3212859806
 20
-7.9967567416
 30
0.0
 10
-8.1952710942
 20
-7.9973659447
 30
0.0
 10
-8.1068255878
 20
-7.9972262734
 30
0.0
 10
-8.0531915413
 20
-7.998694961
 30
0.0
 10
-8.0249714318
 20
-7.9975706603
 30
0.0
 10
-8.0104399794
 20
-8.0009558655
 30
0.0
 10
-8.0002588962
 20
-7.9982019058
 30
0.0
 10
-7.9993118654
 20
-8.0000071245
 30
0.0
  0
SPLINE
  5
70E
100
AcDbEntity
  8
CURVE
100
AcDbSpline
 62
250
  6
CONTINUOUS
 70
0
 71
3
 72
18
 73
14
 74
0
 42
0.0000001
 43
0.0000001
 44
0.0000000001
 40
0.0
 40
0.0
 40
0.0
 40
0.0
 40
0.0099227085
 40
0.03728516
 40
0.0798312602
 40
0.1352879411
 40
0.2013839816
 40
0.2758530763
 40
0.4408791672
 40
0.6124510942
 40
0.7730561453
 40
0.9062940652
 40
1.0
 40
1.0
 40
1.0
 40
1.0
 10
-7.9999133027
 20
-7.9993207068
 30
0.0
 10
-7.9955035497
 20
-7.996944155
 30
0.0
 10
-7.980571553
 20
-8.019599162
 30
0.0
 10
-7.9492280725
 20
-8.034857904
 30
0.0
 10
-7.9007373031
 20
-8.0808150858
 30
0.0
 10
-7.8379280601
 20
-8.1327161264
 30
0.0
 10
-7.7637090652
 20
-8.1989179769
 30
0.0
 10
-7.6493412716
 20
-8.3021538854
 30
0.0
 10
-7.4985486107
 20
-8.4450312389
 30
0.0
 10
-7.3231185157
 20
-8.6242960961
 30
0.0
 10
-7.1684785959
 20
-8.8025366987
 30
0.0
 10
-7.0570160979
 20
-8.9613564282
 30
0.0
 10
-7.0093502473
 20
-9.0716077425
 30
0.0
 10
-7.0092321733
 20
-9.1189141285
 30
0.0
  0
SPLINE
  5
70F
100
AcDbEntity
  8
CURVE
100
AcDbSpline
 62
250
  6
CONTINUOUS
 70
0
 71
3
 72
9
 73
5
 74
0
 42
0.0000001
 43
0.0000001
 44
0.0000000001
 40
0.0
 40
0.0
 40
0.0
 40
0.0
 40
0.596773901
 40
1.0
 40
1.0
 40
1.0
 40
1.0
 10
-7.0092321733
 20
-9.1189141285
 30
0.0
 10
-7.0085558845
 20
-9.3898693288
 30
0.0
 10
-7.4328806293
 20
-9.7588350103
 30
0.0
 10
-7.8265943585
 20
-9.9411726437
 30
0.0
 10
-8.0
 20
-9.9998946037
 30
0.0
  0
SPLINE
  5
710
100
AcDbEntity
  8
CURVE
100
AcDbSpline
 62
250
  6
CONTINUOUS
 70
0
 71
3
 72
19
 73
15
 74
0
 42
0.0000001
 43
0.0000001
 44
0.0000000001
 40
0.0
 40
0.0
 40
0.0
 40
0.0
 40
0.1559672057
 40
0.3158752039
 40
0.4992430744
 40
0.6827036508
 40
0.7671665431
 40
0.8428900906
 40
0.9069536098
 40
0.9564367079
 40
0.9747982514
 40
0.9884202295
 40
0.9969390795
 40
1.0
 40
1.0
 40
1.0
 40
1.0
 10
-8.0
 20
-9.9998946037
 30
0.0
 10
-8.0003854899
 20
-9.8958842688
 30
0.0
 10
-8.001066153
 20
-9.6852354679
 30
0.0
 10
-8.0020226726
 20
-9.352301607
 30
0.0
 10
-8.0028116737
 20
-9.001038582
 30
0.0
 10
-8.0032543287
 20
-8.7000673483
 30
0.0
 10
-8.0032613083
 20
-8.4709253891
 30
0.0
 10
-8.0032123393
 20
-8.3213063125
 30
0.0
 10
-8.0025964766
 20
-8.1952950214
 30
0.0
 10
-8.0027232311
 20
-8.1068548748
 30
0.0
 10
-8.0012516276
 20
-8.0532132442
 30
0.0
 10
-8.0023595033
 20
-8.0249993775
 30
0.0
 10
-7.998986136
 20
-8.0104441851
 30
0.0
 10
-8.0017167161
 20
-8.0002769709
 30
0.0
 10
-7.9999133027
 20
-7.9993207068
 30
0.0
  0
SPLINE
  5
711
100
AcDbEntity
  8
CURVE
100
AcDbSpline
 62
250
  6
CONTINUOUS
 70
0
 71
3
 72
8
 73
4
 74
0
 42
0.0000001
 43
0.0000001
 44
0.0000000001
 40
0.0
 40
0.0
 40
0.0
 40
0.0
 40
1.0
 40
1.0
 40
1.0
 40
1.0
 10
7.5783378166
 20
-9.8407393914
 30
0.0
 10
7.8551572235
 20
-9.5586120511
 30
0.0
 10
8.0249999989
 20
-9.1514630592
 30
0.0
 10
8.0249999989
 20
-8.762401574
 30
0.0
  0
ELLIPSE
  5
712
100
AcDbEntity
  8
0
100
AcDbEllipse
 62
7
  6
CONTINUOUS
 10
-9.2661504284
 20
17.7661504284
 30
0.0
 11
0.3535803156
 21
-0.3535803156
 31
0.0
 40
0.9999238505
 41
2.4902938806
 42
2.8453801602
  0
ELLIPSE
  5
713
100
AcDbEntity
  8
0
100
AcDbEllipse
 62
7
  6
CONTINUOUS
 10
-9.2661504284
 20
17.7661504284
 30
0.0
 11
-0.3535803156
 21
0.3535803156
 31
0.0
 40
0.9999238505
 41
-0.7853600872
 42
-0.651298773
  0
ELLIPSE
  5
714
100
AcDbEntity
  8
0
100
AcDbEllipse
 62
7
  6
CONTINUOUS
 10
-1.7928932188
 20
18.2356254304
 30
0.0
 11
0.5
 21
-0.0
 31
0.0
 40
0.0087268678
 41
-2.3561944902
 42
-1.97725418
  0
ELLIPSE
  5
715
100
AcDbEntity
  8
0
100
AcDbEllipse
 62
7
  6
CONTINUOUS
 10
1.7928932188
 20
18.2356254304
 30
0.0
 11
0.5
 21
0.0
 31
0.0
 40
0.0087268678
 41
-1.1643384736
 42
-0.7853981634
  0
ELLIPSE
  5
716
100
AcDbEntity
  8
0
100
AcDbEllipse
 62
7
  6
CONTINUOUS
 10
-9.1496953439
 20
-17.6714466826
 30
0.0
 11
1.8480888181
 21
0.7655034529
 31
0.0
 40
0.9998215708
 41
2.7489566578
 42
3.5342286494
  0
ELLIPSE
  5
717
100
AcDbEntity
  8
0
100
AcDbEllipse
 62
7
  6
CONTINUOUS
 10
-9.1496953439
 20
17.6714466826
 30
0.0
 11
1.8480888181
 21
-0.7655034529
 31
0.0
 40
0.9998215708
 41
2.7489566578
 42
3.5342286494
  0
ELLIPSE
  5
718
100
AcDbEntity
  8
0
100
AcDbEllipse
 62
7
  6
CONTINUOUS
 10
9.1496953439
 20
17.6714466826
 30
0.0
 11
1.8480888181
 21
0.7655034529
 31
0.0
 40
0.9998215708
 41
-0.3926359958
 42
0.3926359958
  0
ELLIPSE
  5
719
100
AcDbEntity
  8
0
100
AcDbEllipse
 62
7
  6
CONTINUOUS
 10
9.1496953439
 20
-17.6714466826
 30
0.0
 11
1.8480888181
 21
-0.7655034529
 31
0.0
 40
0.9998215708
 41
-0.3926359958
 42
0.3926359958
  0
ELLIPSE
  5
71A
100
AcDbEntity
  8
0
100
AcDbEllipse
 62
7
  6
CONTINUOUS
 10
1.999923836
 20
141.875642436
 30
0.0
 11
-0.4997620717
 21
162.4815824859
 31
0.0
 40
0.000109066
 41
3.2227835669
 42
3.234898768
  0
ELLIPSE
  5
71B
100
AcDbEntity
  8
0
100
AcDbEllipse
 62
7
  6
CONTINUOUS
 10
1.999923836
 20
-141.875642436
 30
0.0
 11
0.4997620717
 21
162.4815824859
 31
0.0
 40
0.000109066
 41
-0.0933061144
 42
-0.0811909133
  0
ELLIPSE
  5
71C
100
AcDbEntity
  8
0
100
AcDbEllipse
 62
7
  6
CONTINUOUS
 10
-1.999923836
 20
141.875642436
 30
0.0
 11
0.4997620717
 21
162.4815824859
 31
0.0
 40
0.000109066
 41
-3.234898768
 42
-3.2227835669
  0
ELLIPSE
  5
71D
100
AcDbEntity
  8
0
100
AcDbEllipse
 62
7
  6
CONTINUOUS
 10
-1.999923836
 20
-141.875642436
 30
0.0
 11
-0.4997620717
 21
162.4815824859
 31
0.0
 40
0.000109066
 41
6.3643762205
 42
6.3764914216
  0
ELLIPSE
  5
71E
100
AcDbEntity
  8
0
100
AcDbEllipse
 62
7
  6
CONTINUOUS
 10
-9.0275098894
 20
-17.6208358102
 30
0.0
 11
-1.8480888181
 21
-0.7655034529
 31
0.0
 40
0.9998215708
 41
-0.3926359958
 42
0.3926359958
  0
ELLIPSE
  5
71F
100
AcDbEntity
  8
0
100
AcDbEllipse
 62
7
  6
CONTINUOUS
 10
-9.0275098894
 20
17.6208358102
 30
0.0
 11
1.8480888181
 21
-0.7655034529
 31
0.0
 40
0.9998215708
 41
2.7489566578
 42
3.5342286494
  0
ELLIPSE
  5
720
100
AcDbEntity
  8
0
100
AcDbEllipse
 62
7
  6
CONTINUOUS
 10
9.0275098894
 20
17.6208358102
 30
0.0
 11
1.8480888181
 21
0.7655034529
 31
0.0
 40
0.9998215708
 41
-0.3926359958
 42
-0.278861721
  0
ELLIPSE
  5
721
100
AcDbEntity
  8
0
100
AcDbEllipse
 62
7
  6
CONTINUOUS
 10
9.0275098894
 20
17.6208358102
 30
0.0
 11
1.8480888181
 21
0.7655034529
 31
0.0
 40
0.9998215708
 41
6.4756880539
 42
6.675821303
  0
ELLIPSE
  5
722
100
AcDbEntity
  8
0
100
AcDbEllipse
 62
7
  6
CONTINUOUS
 10
9.0275098894
 20
-17.6208358102
 30
0.0
 11
-1.8480888181
 21
0.7655034529
 31
0.0
 40
0.9998215708
 41
9.032141965
 42
9.2322752141
  0
ELLIPSE
  5
723
100
AcDbEntity
  8
0
100
AcDbEllipse
 62
7
  6
CONTINUOUS
 10
9.0275098894
 20
-17.6208358102
 30
0.0
 11
-1.8480888181
 21
0.7655034529
 31
0.0
 40
0.9998215708
 41
3.4204543746
 42
3.5342286494
  0
ELLIPSE
  5
724
100
AcDbEntity
  8
0
100
AcDbEllipse
 62
7
  6
CONTINUOUS
 10
2.5
 20
-22.3586937098
 30
0.0
 11
1.0205840068
 21
0.0
 31
0.0
 40
0.0058178298
 41
0.0000507714
 42
1.0523815008
  0
ELLIPSE
  5
725
100
AcDbEntity
  8
0
100
AcDbEllipse
 62
7
  6
CONTINUOUS
 10
-2.5
 20
-22.3586937098
 30
0.0
 11
1.0205840068
 21
0.0
 31
0.0
 40
0.0058178298
 41
8.37239646
 42
9.4247271893
  0
ELLIPSE
  5
726
100
AcDbEntity
  8
0
100
AcDbEllipse
 62
7
  6
CONTINUOUS
 10
-2.5
 20
22.3586937098
 30
0.0
 11
1.0205840068
 21
0.0
 31
0.0
 40
0.0058178298
 41
-3.1415418822
 42
-2.0892111528
  0
ELLIPSE
  5
727
100
AcDbEntity
  8
0
100
AcDbEllipse
 62
7
  6
CONTINUOUS
 10
2.5
 20
22.3586937098
 30
0.0
 11
1.0205840068
 21
-0.0
 31
0.0
 40
0.0058178298
 41
-1.0523815008
 42
-0.0000507714
  0
ELLIPSE
  5
728
100
AcDbEntity
  8
DRAFT
100
AcDbEllipse
 62
7
  6
CONTINUOUS
 10
-2.5
 20
20.0619614263
 30
0.0
 11
1.0005407263
 21
-0.0
 31
0.0
 40
0.0087268678
 41
1.5707963268
 42
3.1416688118
  0
ELLIPSE
  5
729
100
AcDbEntity
  8
DRAFT
100
AcDbEllipse
 62
7
  6
CONTINUOUS
 10
0.0
 20
20.1998353042
 30
0.0
 11
14.9982560202
 21
0.0
 31
0.0
 40
0.0087268678
 41
-1.7342933984
 42
-1.4072992552
  0
ELLIPSE
  5
72A
100
AcDbEntity
  8
DRAFT
100
AcDbEllipse
 62
7
  6
CONTINUOUS
 10
2.5
 20
20.0619614263
 30
0.0
 11
1.0005407263
 21
0.0
 31
0.0
 40
0.0087268678
 41
-0.0000761582
 42
1.5707963268
  0
ELLIPSE
  5
72B
100
AcDbEntity
  8
DRAFT
100
AcDbEllipse
 62
7
  6
CONTINUOUS
 10
2.5
 20
-20.0619614263
 30
0.0
 11
1.0005407263
 21
-0.0
 31
0.0
 40
0.0087268678
 41
-1.5707963268
 42
0.0000761582
  0
ELLIPSE
  5
72C
100
AcDbEntity
  8
DRAFT
100
AcDbEllipse
 62
7
  6
CONTINUOUS
 10
0.0
 20
-20.1998353042
 30
0.0
 11
14.9982560202
 21
0.0
 31
0.0
 40
0.0087268678
 41
1.4072992552
 42
1.7342933984
  0
ELLIPSE
  5
72D
100
AcDbEntity
  8
DRAFT
100
AcDbEllipse
 62
7
  6
CONTINUOUS
 10
-2.5
 20
-20.0619614263
 30
0.0
 11
1.0005407263
 21
-0.0
 31
0.0
 40
0.0087268678
 41
3.1415164954
 42
4.7123889804
  0
ELLIPSE
  5
72E
100
AcDbEntity
  8
0
100
AcDbEllipse
 62
7
  6
CONTINUOUS
 10
3.9530427099
 20
-22.3560930869
 30
0.0
 11
0.4530427099
 21
-0.0
 31
0.0
 40
0.0058178298
 41
0.0058177642
 42
2.8392117832
  0
ELLIPSE
  5
72F
100
AcDbEntity
  8
0
100
AcDbEllipse
 62
7
  6
CONTINUOUS
 10
-3.9530427099
 20
-22.3560930869
 30
0.0
 11
0.4530427099
 21
-0.0
 31
0.0
 40
0.0058178298
 41
0.3023808704
 42
3.1357748894
  0
ELLIPSE
  5
730
100
AcDbEntity
  8
0
100
AcDbEllipse
 62
7
  6
CONTINUOUS
 10
-3.9530427099
 20
22.3560930869
 30
0.0
 11
0.4530427099
 21
0.0
 31
0.0
 40
0.0058178298
 41
-3.1357748894
 42
-0.3023808704
  0
ELLIPSE
  5
731
100
AcDbEntity
  8
0
100
AcDbEllipse
 62
7
  6
CONTINUOUS
 10
3.9530427099
 20
22.3560930869
 30
0.0
 11
0.4530427099
 21
-0.0
 31
0.0
 40
0.0058178298
 41
-2.8392117832
 42
-0.0058177642
  0
ELLIPSE
  5
732
100
AcDbEntity
  8
0
100
AcDbEllipse
 62
7
  6
CONTINUOUS
 10
-8.1905965035
 20
21.3359869487
 30
0.0
 11
1.0000571192
 21
0.9999809595
 31
0.0
 40
0.0061705924
 41
-1.1948539202
 42
0.0003532199
  0
ELLIPSE
  5
733
100
AcDbEntity
  8
0
100
AcDbEllipse
 62
7
  6
CONTINUOUS
 10
8.1905965035
 20
21.3359869487
 30
0.0
 11
1.0000571192
 21
-0.9999809595
 31
0.0
 40
0.0061705924
 41
3.1412394337
 42
4.3364465738
  0
ELLIPSE
  5
734
100
AcDbEntity
  8
0
100
AcDbEllipse
 62
7
  6
CONTINUOUS
 10
8.1905965035
 20
-21.3359869487
 30
0.0
 11
1.0000571192
 21
0.9999809595
 31
0.0
 40
0.0061705924
 41
1.9467387334
 42
3.1419458735
  0
ELLIPSE
  5
735
100
AcDbEntity
  8
0
100
AcDbEllipse
 62
7
  6
CONTINUOUS
 10
-8.1905965035
 20
-21.3359869487
 30
0.0
 11
1.0000571192
 21
-0.9999809595
 31
0.0
 40
0.0061705924
 41
-0.0003532199
 42
1.1948539202
  0
ELLIPSE
  5
736
100
AcDbEntity
  8
0
100
AcDbEllipse
 62
7
  6
CONTINUOUS
 10
9.8999957691
 20
23.4113248654
 30
0.0
 11
-0.0029088041
 21
0.2886641433
 31
0.0
 40
0.8660144118
 41
-3.150319066
 42
-1.582431609
  0
ELLIPSE
  5
737
100
AcDbEntity
  8
0
100
AcDbEllipse
 62
7
  6
CONTINUOUS
 10
7.5000042309
 20
23.4113248654
 30
0.0
 11
0.0029088041
 21
0.2886641433
 31
0.0
 40
0.8660144118
 41
-4.7007536982
 42
-3.1328662412
  0
ELLIPSE
  5
738
100
AcDbEntity
  8
0
100
AcDbEllipse
 62
7
  6
CONTINUOUS
 10
-7.5000042309
 20
23.4113248654
 30
0.0
 11
-0.0029088041
 21
0.2886641433
 31
0.0
 40
0.8660144118
 41
-3.150319066
 42
-1.582431609
  0
ELLIPSE
  5
739
100
AcDbEntity
  8
0
100
AcDbEllipse
 62
7
  6
CONTINUOUS
 10
-9.8999957691
 20
23.4113248654
 30
0.0
 11
0.0029088041
 21
0.2886641433
 31
0.0
 40
0.8660144118
 41
-4.7007536982
 42
-3.1328662412
  0
ELLIPSE
  5
73A
100
AcDbEntity
  8
0
100
AcDbEllipse
 62
7
  6
CONTINUOUS
 10
9.8999957691
 20
-23.4113248654
 30
0.0
 11
0.0029088041
 21
0.2886641433
 31
0.0
 40
0.8660144118
 41
-1.5591610446
 42
0.0087264124
  0
ELLIPSE
  5
73B
100
AcDbEntity
  8
0
100
AcDbEllipse
 62
7
  6
CONTINUOUS
 10
7.5000042309
 20
-23.4113248654
 30
0.0
 11
-0.0029088041
 21
0.2886641433
 31
0.0
 40
0.8660144118
 41
-0.0087264124
 42
1.5591610446
  0
ELLIPSE
  5
73C
100
AcDbEntity
  8
0
100
AcDbEllipse
 62
7
  6
CONTINUOUS
 10
-9.8999957691
 20
-23.4113248654
 30
0.0
 11
-0.0029088041
 21
0.2886641433
 31
0.0
 40
0.8660144118
 41
-0.0087264124
 42
1.5591610446
  0
ELLIPSE
  5
73D
100
AcDbEntity
  8
0
100
AcDbEllipse
 62
7
  6
CONTINUOUS
 10
-7.5000042309
 20
-23.4113248654
 30
0.0
 11
0.0029088041
 21
0.2886641433
 31
0.0
 40
0.8660144118
 41
-1.5591610446
 42
0.0087264124
  0
ELLIPSE
  5
73E
100
AcDbEntity
  8
0
100
AcDbEllipse
 62
7
  6
CONTINUOUS
 10
10.641254093
 20
21.8941737085
 30
0.0
 11
-0.4160498344
 21
-0.2773626446
 31
0.0
 40
0.9999450019
 41
2.5536219432
 42
4.1243675013
  0
ELLIPSE
  5
73F
100
AcDbEntity
  8
0
100
AcDbEllipse
 62
7
  6
CONTINUOUS
 10
10.641254093
 20
-21.8941737085
 30
0.0
 11
0.4160498344
 21
-0.2773626446
 31
0.0
 40
0.9999450019
 41
-0.9827748477
 42
0.5879707104
  0
ELLIPSE
  5
740
100
AcDbEntity
  8
0
100
AcDbEllipse
 62
7
  6
CONTINUOUS
 10
-10.641254093
 20
-21.8941737085
 30
0.0
 11
0.4160498344
 21
0.2773626446
 31
0.0
 40
0.9999450019
 41
2.5536219432
 42
4.1243675013
  0
ELLIPSE
  5
741
100
AcDbEntity
  8
0
100
AcDbEllipse
 62
7
  6
CONTINUOUS
 10
-10.641254093
 20
21.8941737085
 30
0.0
 11
-0.4160498344
 21
0.2773626446
 31
0.0
 40
0.9999450019
 41
-0.9827748477
 42
0.5879707104
  0
ELLIPSE
  5
742
100
AcDbEntity
  8
0
100
AcDbEllipse
 62
7
  6
CONTINUOUS
 10
7.5666456542
 20
-21.9537669705
 30
0.0
 11
0.4999904798
 21
0.5000285596
 31
0.0
 40
0.0061705924
 41
0.0112823085
 42
1.0386206835
  0
ELLIPSE
  5
743
100
AcDbEntity
  8
0
100
AcDbEllipse
 62
7
  6
CONTINUOUS
 10
-7.5666456542
 20
-21.9537669705
 30
0.0
 11
-0.4999904798
 21
0.5000285596
 31
0.0
 40
0.0061705924
 41
-1.0386206835
 42
-0.0112823085
  0
ELLIPSE
  5
744
100
AcDbEntity
  8
0
100
AcDbEllipse
 62
7
  6
CONTINUOUS
 10
-7.5666456542
 20
21.9537669705
 30
0.0
 11
0.4999904798
 21
0.5000285596
 31
0.0
 40
0.0061705924
 41
-3.1303103451
 42
-2.1029719701
  0
ELLIPSE
  5
745
100
AcDbEntity
  8
0
100
AcDbEllipse
 62
7
  6
CONTINUOUS
 10
7.5666456542
 20
21.9537669705
 30
0.0
 11
-0.4999904798
 21
0.5000285596
 31
0.0
 40
0.0061705924
 41
-4.1802133371
 42
-3.1528749621
  0
ELLIPSE
  5
746
100
AcDbEntity
  8
0
100
AcDbEllipse
 62
7
  6
CONTINUOUS
 10
7.5666456542
 20
-20.9916321118
 30
0.0
 11
0.5
 21
-0.0
 31
0.0
 40
0.0087268678
 41
-1.5707963268
 42
-0.0174532925
  0
ELLIPSE
  5
747
100
AcDbEntity
  8
0
100
AcDbEllipse
 62
7
  6
CONTINUOUS
 10
-7.5666456542
 20
-20.9916321118
 30
0.0
 11
0.5
 21
0.0
 31
0.0
 40
0.0087268678
 41
-3.1241393611
 42
-1.5707963268
  0
ELLIPSE
  5
748
100
AcDbEntity
  8
0
100
AcDbEllipse
 62
7
  6
CONTINUOUS
 10
-7.5666456542
 20
20.9916321118
 30
0.0
 11
0.5
 21
-0.0
 31
0.0
 40
0.0087268678
 41
1.5707963268
 42
3.1241393611
  0
ELLIPSE
  5
749
100
AcDbEntity
  8
0
100
AcDbEllipse
 62
7
  6
CONTINUOUS
 10
7.5666456542
 20
20.9916321118
 30
0.0
 11
0.5
 21
-0.0
 31
0.0
 40
0.0087268678
 41
0.0174532925
 42
1.5707963268
  0
ELLIPSE
  5
74A
100
AcDbEntity
  8
0
100
AcDbEllipse
 62
7
  6
CONTINUOUS
 10
-1.2085749864
 20
23.7942851154
 30
0.0
 11
0.1243375101
 21
0.1566832125
 31
0.0
 40
0.9998696711
 41
-0.9000073419
 42
0.6707382163
  0
ELLIPSE
  5
74B
100
AcDbEntity
  8
0
100
AcDbEllipse
 62
7
  6
CONTINUOUS
 10
1.2085749864
 20
23.7942851154
 30
0.0
 11
-0.1243375101
 21
0.1566832125
 31
0.0
 40
0.9998696711
 41
-0.6707382163
 42
0.9000073418
  0
ELLIPSE
  5
74C
100
AcDbEntity
  8
0
100
AcDbEllipse
 62
7
  6
CONTINUOUS
 10
1.2085749864
 20
-23.7942851154
 30
0.0
 11
0.1243375101
 21
0.1566832125
 31
0.0
 40
0.9998696711
 41
-4.0415999954
 42
-2.4708544373
  0
ELLIPSE
  5
74D
100
AcDbEntity
  8
0
100
AcDbEllipse
 62
7
  6
CONTINUOUS
 10
-1.2085749864
 20
-23.7942851154
 30
0.0
 11
-0.1243375101
 21
0.1566832125
 31
0.0
 40
0.9998696711
 41
-3.8123308699
 42
-2.2415853118
  0
ELLIPSE
  5
74E
100
AcDbEntity
  8
ASSI
100
AcDbEllipse
 62
7
  6
CONTINUOUS
 10
-4.3131017252
 20
18.5131017252
 30
0.0
 11
0.2121481893
 21
-0.2121481893
 31
0.0
 40
0.9999238505
 41
-0.7853600872
 42
0.7853600872
  0
ELLIPSE
  5
74F
100
AcDbEntity
  8
ASSI
100
AcDbEllipse
 62
7
  6
CONTINUOUS
 10
-3.7130788782
 20
19.3130788782
 30
0.0
 11
0.2121481893
 21
-0.2121481893
 31
0.0
 40
0.9999238505
 41
2.3562325664
 42
3.9269527408
  0
ELLIPSE
  5
750
100
AcDbEntity
  8
ASSI
100
AcDbEllipse
 62
7
  6
CONTINUOUS
 10
9.3911928455
 20
18.6130522233
 30
0.0
 11
0.3827005044
 21
0.9239207481
 31
0.0
 40
0.9999553905
 41
-0.3926833098
 42
0.3926833098
  0
ELLIPSE
  5
751
100
AcDbEntity
  8
ASSI
100
AcDbEllipse
 62
7
  6
CONTINUOUS
 10
10.0130522233
 20
17.9911928455
 30
0.0
 11
0.9239207481
 21
0.3827005044
 31
0.0
 40
0.9999553905
 41
-0.3926833098
 42
0.3926833098
  0
ELLIPSE
  5
752
100
AcDbEntity
  8
ASSI
100
AcDbEllipse
 62
7
  6
CONTINUOUS
 10
10.0130522233
 20
-17.9911928455
 30
0.0
 11
0.9239207481
 21
-0.3827005044
 31
0.0
 40
0.9999553905
 41
-0.3926833098
 42
0.3926833098
  0
ELLIPSE
  5
753
100
AcDbEntity
  8
ASSI
100
AcDbEllipse
 62
7
  6
CONTINUOUS
 10
9.3911928455
 20
-18.6130522233
 30
0.0
 11
-0.3827005044
 21
0.9239207481
 31
0.0
 40
0.9999553905
 41
2.7489093438
 42
3.5342759634
  0
ELLIPSE
  5
754
100
AcDbEntity
  8
ASSI
100
AcDbEllipse
 62
7
  6
CONTINUOUS
 10
-3.7130788782
 20
-19.3130788782
 30
0.0
 11
-0.2121481893
 21
-0.2121481893
 31
0.0
 40
0.9999238505
 41
-0.7853600872
 42
0.7853600872
  0
ELLIPSE
  5
755
100
AcDbEntity
  8
ASSI
100
AcDbEllipse
 62
7
  6
CONTINUOUS
 10
-9.3911928455
 20
-17.2130522233
 30
0.0
 11
-0.3827005044
 21
-0.9239207481
 31
0.0
 40
0.9999553905
 41
-0.3926833098
 42
0.3926833098
  0
ELLIPSE
  5
756
100
AcDbEntity
  8
ASSI
100
AcDbEllipse
 62
7
  6
CONTINUOUS
 10
-10.0130522233
 20
-16.5911928455
 30
0.0
 11
0.9239207481
 21
0.3827005044
 31
0.0
 40
0.9999553905
 41
2.7489093438
 42
3.5342759634
  0
ELLIPSE
  5
757
100
AcDbEntity
  8
ASSI
100
AcDbEllipse
 62
7
  6
CONTINUOUS
 10
-10.7130788782
 20
-3.45
 30
0.0
 11
0.3000114235
 21
0.0
 31
0.0
 40
0.9999619231
 41
1.5707963268
 42
3.1415926536
  0
ELLIPSE
  5
758
100
AcDbEntity
  8
ASSI
100
AcDbEllipse
 62
7
  6
CONTINUOUS
 10
-10.7130788782
 20
1.45
 30
0.0
 11
-0.3000114235
 21
0.0
 31
0.0
 40
0.9999619231
 41
0.0
 42
1.5707963268
  0
ELLIPSE
  5
759
100
AcDbEntity
  8
ASSI
100
AcDbEllipse
 62
7
  6
CONTINUOUS
 10
-10.7130788782
 20
1.55
 30
0.0
 11
0.3000114235
 21
0.0
 31
0.0
 40
0.9999619231
 41
1.5707963268
 42
3.1415926536
  0
ELLIPSE
  5
75A
100
AcDbEntity
  8
ASSI
100
AcDbEllipse
 62
7
  6
CONTINUOUS
 10
-10.7130788782
 20
6.45
 30
0.0
 11
-0.3000114235
 21
0.0
 31
0.0
 40
0.9999619231
 41
0.0
 42
1.5707963268
  0
ELLIPSE
  5
75B
100
AcDbEntity
  8
ASSI
100
AcDbEllipse
 62
7
  6
CONTINUOUS
 10
-10.7130788782
 20
6.55
 30
0.0
 11
0.3000114235
 21
0.0
 31
0.0
 40
0.9999619231
 41
1.5707963268
 42
3.1415926536
  0
ELLIPSE
  5
75C
100
AcDbEntity
  8
ASSI
100
AcDbEllipse
 62
7
  6
CONTINUOUS
 10
-10.7130788782
 20
11.45
 30
0.0
 11
-0.3000114235
 21
0.0
 31
0.0
 40
0.9999619231
 41
0.0
 42
1.5707963268
  0
ELLIPSE
  5
75D
100
AcDbEntity
  8
ASSI
100
AcDbEllipse
 62
7
  6
CONTINUOUS
 10
-10.7130788782
 20
11.55
 30
0.0
 11
0.3000114235
 21
0.0
 31
0.0
 40
0.9999619231
 41
1.5707963268
 42
3.1415926536
  0
ELLIPSE
  5
75E
100
AcDbEntity
  8
ASSI
100
AcDbEllipse
 62
7
  6
CONTINUOUS
 10
-10.7130788782
 20
16.45
 30
0.0
 11
-0.3000114235
 21
0.0
 31
0.0
 40
0.9999619231
 41
0.0
 42
1.5707963268
  0
ELLIPSE
  5
75F
100
AcDbEntity
  8
ASSI
100
AcDbEllipse
 62
7
  6
CONTINUOUS
 10
-10.0130522233
 20
16.5911928455
 30
0.0
 11
-0.9239207481
 21
0.3827005044
 31
0.0
 40
0.9999553905
 41
-0.3926833098
 42
0.3926833098
  0
ELLIPSE
  5
760
100
AcDbEntity
  8
ASSI
100
AcDbEllipse
 62
7
  6
CONTINUOUS
 10
-9.3911928455
 20
17.2130522233
 30
0.0
 11
-0.3827005044
 21
0.9239207481
 31
0.0
 40
0.9999553905
 41
-0.3926833098
 42
0.3926833098
  0
ELLIPSE
  5
761
100
AcDbEntity
  8
ASSI
100
AcDbEllipse
 62
7
  6
CONTINUOUS
 10
-1.5825740794
 20
-17.7
 30
0.0
 11
0.4000152314
 21
0.0
 31
0.0
 40
0.9999619231
 41
1.5707963268
 42
2.6178226392
  0
ELLIPSE
  5
762
100
AcDbEntity
  8
ASSI
100
AcDbEllipse
 62
7
  6
CONTINUOUS
 10
1.5825740794
 20
-17.7
 30
0.0
 11
0.4000152314
 21
0.0
 31
0.0
 40
0.9999619231
 41
0.5237700144
 42
1.5707963268
  0
ELLIPSE
  5
763
100
AcDbEntity
  8
ASSI
100
AcDbEllipse
 62
7
  6
CONTINUOUS
 10
1.5039892229
 20
17.7
 30
0.0
 11
-0.4000152314
 21
0.0
 31
0.0
 40
0.9999619231
 41
1.5707963268
 42
2.6178226392
  0
ELLIPSE
  5
764
100
AcDbEntity
  8
ASSI
100
AcDbEllipse
 62
7
  6
CONTINUOUS
 10
-1.5039892229
 20
17.7
 30
0.0
 11
-0.4000152314
 21
0.0
 31
0.0
 40
0.9999619231
 41
0.5237700144
 42
1.5707963268
  0
ELLIPSE
  5
765
100
AcDbEntity
  8
ASSI
100
AcDbEllipse
 62
7
  6
CONTINUOUS
 10
-9.841452622
 20
14.0
 30
0.0
 11
0.0
 21
2.15
 31
0.0
 40
0.0087268678
 41
0.0
 42
3.1415926536
  0
ELLIPSE
  5
766
100
AcDbEntity
  8
ASSI
100
AcDbEllipse
 62
7
  6
CONTINUOUS
 10
-9.841452622
 20
9.0
 30
0.0
 11
0.0
 21
2.15
 31
0.0
 40
0.0087268678
 41
0.0
 42
3.1415926536
  0
ELLIPSE
  5
767
100
AcDbEntity
  8
ASSI
100
AcDbEllipse
 62
7
  6
CONTINUOUS
 10
-9.841452622
 20
4.0
 30
0.0
 11
-0.0
 21
2.15
 31
0.0
 40
0.0087268678
 41
0.0
 42
3.1415926536
  0
ELLIPSE
  5
768
100
AcDbEntity
  8
ASSI
100
AcDbEllipse
 62
7
  6
CONTINUOUS
 10
-9.841452622
 20
-1.0
 30
0.0
 11
-0.0
 21
2.15
 31
0.0
 40
0.0087268678
 41
0.0
 42
3.1415926536
  0
ENDSEC
  0
SECTION
  2
OBJECTS
  0
DICTIONARY
  5
C
100
AcDbDictionary
280
0
281
1
  3
ACAD_GROUP
350
D
  3
ACAD_MLINESTYLE
350
17
  3
ACAD_LAYOUT
350
1A
  3
ACAD_PLOTSETTINGS
350
19
  3
ACAD_PLOTSTYLENAME
350
E
  0
DICTIONARY
  5
D
102
{ACAD_REACTORS
330
C
102
}
100
AcDbDictionary
280
0
281
1
  0
ACDBDICTIONARYWDFLT
  5
E
102
{ACAD_REACTORS
330
C
102
}
100
AcDbDictionary
281
1
  3
Normal
350
F
100
AcDbDictionaryWithDefault
340
F
  0
DICTIONARY
  5
17
102
{ACAD_REACTORS
330
C
102
}
100
AcDbDictionary
280
0
281
1
  3
Standard
350
18
  0
DICTIONARY
  5
19
102
{ACAD_REACTORS
330
C
102
}
100
AcDbDictionary
281
1
  0
DICTIONARY
  5
1A
102
{ACAD_REACTORS
330
C
102
}
100
AcDbDictionary
281
1
  3
Model
350
769
  3
Layout1
350
76A
  0
ACDBPLACEHOLDER
  5
F
102
{ACAD_REACTORS
330
E
102
}
  0
MLINESTYLE
  5
18
102
{ACAD_REACTORS
330
17
102
}
100
AcDbMlineStyle
  2
STANDARD
 70
0
  3

 62
256
 51
90.0
 52
90.0
 71
2
 49
0.5
 62
256
  6
BYLAYER
 49
-0.5
 62
256
  6
BYLAYER
  0
LAYOUT
  5
769
102
{ACAD_REACTORS
330
1A
102
}
100
AcDbPlotSettings
  1

  2
none_device
  4
ISO_A4_(297.00_x_210.00_MM)
  6

 40
0.0
 41
0.0
 42
0.0
 43
0.0
 44
297.0
 45
210.0
 46
0.0
 47
0.0
 48
0.0
 49
0.0
140
0.0
141
0.0
142
1.0
143
1.0
 70
1024
 72
1
 73
0
 74
0
  7

 75
0
147
1.0
148
0.0
149
0.0
100
AcDbLayout
  1
Model
 70
0
 71
0
 10
0.0
 20
0.0
 11
297.0
 21
210.0
 12
0.0
 22
0.0
 32
0.0
 14
0.0
 24
0.0
 34
0.0
 15
0.0
 25
0.0
 35
0.0
146
0.0
 13
0.0
 23
0.0
 33
0.0
 16
1.0
 26
0.0
 36
0.0
 17
0.0
 27
1.0
 37
0.0
 76
0
330
2E6
345
0
346
0
  0
LAYOUT
  5
76A
102
{ACAD_REACTORS
330
1A
102
}
100
AcDbPlotSettings
  1

  2
none_device
  4
ISO_A4_(297.00_x_210.00_MM)
  6

 40
0.0
 41
0.0
 42
0.0
 43
0.0
 44
297.0
 45
210.0
 46
0.0
 47
0.0
 48
0.0
 49
0.0
140
0.0
141
0.0
142
1.0
143
1.0
 70
0
 72
1
 73
0
 74
0
  7

 75
0
147
1.0
148
0.0
149
0.0
100
AcDbLayout
  1
Layout1
 70
0
 71
1
 10
0.0
 20
0.0
 11
297.0
 21
210.0
 12
0.0
 22
0.0
 32
0.0
 14
0.0
 24
0.0
 34
0.0
 15
0.0
 25
0.0
 35
0.0
146
0.0
 13
0.0
 23
0.0
 33
0.0
 16
1.0
 26
0.0
 36
0.0
 17
0.0
 27
1.0
 37
0.0
 76
0
330
2E7
345
0
346
0
  0
ENDSEC
  0
EOF
