  0
SECTION
  2
HEADER
  9
$ACADVER
  1
AC1015
  9
$DWGCODEPAGE
  3
ANSI_1252
  9
$EXTMAX
 10
297.0
 20
210.0
 30
0.0
  9
$EXTMIN
 10
0.0
 20
0.0
 30
0.0
  9
$LIMMIN
 10
0.0
 20
0.0
  9
$LIMMAX
 10
297.0
 20
210.0
  9
$VIEWCTR
 10
148.5
 20
105.0
  9
$VIEWSIZE
 40
210.0
  9
$CLAYER
  8
0
  9
$LTSCALE
 40
16.335
  9
$CELTYPE
  6
BYLAYER
  9
$DIMSCALE
 40
1.0
  9
$DIMASZ
 40
3.0
  9
$DIMEXO
 40
1.85625
  9
$DIMDLI
 40
11.286
  9
$DIMEXE
 40
5.346
  9
$DIMCEN
 40
2.673
  9
$DIMLFAC
 40
1.0
  9
$DIMBLK
  1
_FILLED
  9
$DIMTXT
 40
3.0
  9
$DIMTOL
 70
1
  9
$DIMLIM
 70
0
  9
$DIMTFAC
 40
1.0
  9
$DIMTP
 40
0.01
  9
$DIMTM
 40
0.01
  9
$PDMODE
 70
3
  9
$PDSIZE
 40
3.0
  9
$HANDSEED
  5
79C
  9
$TILEMODE
 70
1
  9
$MEASUREMENT
 70
1
  9
$INSUNITS
 70
4
  0
ENDSEC
  0
SECTION
  2
CLASSES
  0
CLASS
  1
ACDBDICTIONARYWDFLT
  2
AcDbDictionaryWithDefault
  3
AutoCAD 2000
 90
0
280
0
281
0
  0
CLASS
  1
ACDBPLACEHOLDER
  2
AcDbPlaceHolder
  3
AutoCAD 2000
 90
0
280
0
281
0
  0
CLASS
  1
LAYOUT
  2
AcDbLayout
  3
AutoCAD 2000
 90
0
280
0
281
0
  0
ENDSEC
  0
SECTION
  2
TABLES
  0
TABLE
  2
VPORT
  5
8
100
AcDbSymbolTable
 70
2
  0
VPORT
  5
1F4
100
AcDbSymbolTableRecord
100
AcDbViewportTableRecord
  2
*ACTIVE
 70
0
 10
0.0
 20
0.0
 11
1.0
 21
1.0
 12
148.5
 22
105.0
 13
0.0
 23
0.0
 14
1.0
 24
1.0
 15
0.0
 25
0.0
 16
0.0
 26
0.0
 36
1.0
 17
0.0
 27
0.0
 37
0.0
 40
210.0
 41
1.4142857143
 42
50.0
 43
0.0
 44
0.0
 50
0.0
 51
0.0
 71
0
 72
100
 73
1
 74
1
 75
0
 76
0
 77
0
 78
0
  0
ENDTAB
  0
TABLE
  2
LTYPE
  5
5
100
AcDbSymbolTable
 70
6
  0
LTYPE
  5
14
100
AcDbSymbolTableRecord
100
AcDbLinetypeTableRecord
  2
BYBLOCK
 70
0
  3

 72
65
 73
0
 40
0.0
  0
LTYPE
  5
15
100
AcDbSymbolTableRecord
100
AcDbLinetypeTableRecord
  2
BYLAYER
 70
0
  3

 72
65
 73
0
 40
0.0
  0
LTYPE
  5
16
100
AcDbSymbolTableRecord
100
AcDbLinetypeTableRecord
  2
CONTINUOUS
 70
64
  3
Solid line
 72
65
 73
0
 40
0.0
  0
LTYPE
  5
1F5
100
AcDbSymbolTableRecord
100
AcDbLinetypeTableRecord
  2
CENTER
 70
64
  3
____ _ ____ _ ____ _ ____ _ ____ _ ____ _ ____
 72
65
 73
4
 40
0.6
 49
0.375
 74
0
 49
-0.075
 74
0
 49
0.075
 74
0
 49
-0.075
 74
0
  0
LTYPE
  5
1F6
100
AcDbSymbolTableRecord
100
AcDbLinetypeTableRecord
  2
HIDDEN
 70
64
  3
- - - - - - - - - - - - - - - - - - - -
 72
65
 73
2
 40
0.2
 49
0.1
 74
0
 49
-0.1
 74
0
  0
LTYPE
  5
1F7
100
AcDbSymbolTableRecord
100
AcDbLinetypeTableRecord
  2
PHANTOM
 70
64
  3
_____ _ _ _____ _ _ _____ _ _ _____
 72
65
 73
6
 40
0.8
 49
0.45
 74
0
 49
-0.05
 74
0
 49
0.1
 74
0
 49
-0.05
 74
0
 49
0.1
 74
0
 49
-0.05
 74
0
  0
LTYPE
  5
1F8
100
AcDbSymbolTableRecord
100
AcDbLinetypeTableRecord
  2
DOT
 70
64
  3
. . . . . . . . . . . . . . . . . . . .
 72
65
 73
2
 40
0.2
 49
0.1
 74
0
 49
-0.1
 74
0
  0
LTYPE
  5
1F9
100
AcDbSymbolTableRecord
100
AcDbLinetypeTableRecord
  2
DASHED
 70
64
  3
- - - - - - - - - - - - - - - - - - - -
 72
65
 73
2
 40
0.2
 49
0.1
 74
0
 49
-0.1
 74
0
  0
ENDTAB
  0
TABLE
  2
LAYER
  5
2
100
AcDbSymbolTable
 70
36
  0
LAYER
  5
10
100
AcDbSymbolTableRecord
100
AcDbLayerTableRecord
  2
0
 70
0
 62
7
  6
CONTINUOUS
370
-3
390
F
  0
LAYER
  5
1FA
100
AcDbSymbolTableRecord
100
AcDbLayerTableRecord
  2
DEFAULT_1
 70
0
 62
7
  6
CENTER
370
-3
390
F
  0
LAYER
  5
1FB
100
AcDbSymbolTableRecord
100
AcDbLayerTableRecord
  2
DEFAULT_2
 70
0
 62
7
  6
HIDDEN
370
-3
390
F
  0
LAYER
  5
1FC
100
AcDbSymbolTableRecord
100
AcDbLayerTableRecord
  2
DEFAULT_3
 70
0
 62
7
  6
PHANTOM
370
-3
390
F
  0
LAYER
  5
1FD
100
AcDbSymbolTableRecord
100
AcDbLayerTableRecord
  2
ASSI
 70
0
 62
7
  6
CONTINUOUS
370
-3
390
F
  0
LAYER
  5
1FE
100
AcDbSymbolTableRecord
100
AcDbLayerTableRecord
  2
COLOR4
 70
0
 62
7
  6
CONTINUOUS
370
-3
390
F
  0
LAYER
  5
1FF
100
AcDbSymbolTableRecord
100
AcDbLayerTableRecord
  2
COLOR9
 70
0
 62
7
  6
CONTINUOUS
370
-3
390
F
  0
LAYER
  5
200
100
AcDbSymbolTableRecord
100
AcDbLayerTableRecord
  2
COLORE_MATERIALE
 70
0
 62
7
  6
CONTINUOUS
370
-3
390
F
  0
LAYER
  5
201
100
AcDbSymbolTableRecord
100
AcDbLayerTableRecord
  2
COORDINATE
 70
0
 62
7
  6
CONTINUOUS
370
-3
390
F
  0
LAYER
  5
202
100
AcDbSymbolTableRecord
100
AcDbLayerTableRecord
  2
COORD_ORIGINE
 70
0
 62
7
  6
CONTINUOUS
370
-3
390
F
  0
LAYER
  5
203
100
AcDbSymbolTableRecord
100
AcDbLayerTableRecord
  2
COPY
 70
0
 62
7
  6
CONTINUOUS
370
-3
390
F
  0
LAYER
  5
204
100
AcDbSymbolTableRecord
100
AcDbLayerTableRecord
  2
COPY_GEOMETRY
 70
0
 62
7
  6
CONTINUOUS
370
-3
390
F
  0
LAYER
  5
205
100
AcDbSymbolTableRecord
100
AcDbLayerTableRecord
  2
COPY_PUBLISH
 70
0
 62
7
  6
CONTINUOUS
370
-3
390
F
  0
LAYER
  5
206
100
AcDbSymbolTableRecord
100
AcDbLayerTableRecord
  2
COSMETIC
 70
0
 62
7
  6
CONTINUOUS
370
-3
390
F
  0
LAYER
  5
207
100
AcDbSymbolTableRecord
100
AcDbLayerTableRecord
  2
COSMETICI
 70
0
 62
7
  6
CONTINUOUS
370
-3
390
F
  0
LAYER
  5
208
100
AcDbSymbolTableRecord
100
AcDbLayerTableRecord
  2
CURVE
 70
0
 62
7
  6
CONTINUOUS
370
-3
390
F
  0
LAYER
  5
209
100
AcDbSymbolTableRecord
100
AcDbLayerTableRecord
  2
DRAFT
 70
0
 62
7
  6
CONTINUOUS
370
-3
390
F
  0
LAYER
  5
20A
100
AcDbSymbolTableRecord
100
AcDbLayerTableRecord
  2
IGES
 70
0
 62
7
  6
CONTINUOUS
370
-3
390
F
  0
LAYER
  5
20B
100
AcDbSymbolTableRecord
100
AcDbLayerTableRecord
  2
IGS
 70
0
 62
7
  6
CONTINUOUS
370
-3
390
F
  0
LAYER
  5
20C
100
AcDbSymbolTableRecord
100
AcDbLayerTableRecord
  2
IGS_SCRITTE
 70
0
 62
7
  6
CONTINUOUS
370
-3
390
F
  0
LAYER
  5
20D
100
AcDbSymbolTableRecord
100
AcDbLayerTableRecord
  2
IMPORT_IGES
 70
0
 62
7
  6
CONTINUOUS
370
-3
390
F
  0
LAYER
  5
20E
100
AcDbSymbolTableRecord
100
AcDbLayerTableRecord
  2
INTFCLR_137
 70
0
 62
7
  6
CONTINUOUS
370
-3
390
F
  0
LAYER
  5
20F
100
AcDbSymbolTableRecord
100
AcDbLayerTableRecord
  2
INTFCLR_20107
 70
0
 62
7
  6
CONTINUOUS
370
-3
390
F
  0
LAYER
  5
210
100
AcDbSymbolTableRecord
100
AcDbLayerTableRecord
  2
INTFCLR_4627
 70
0
 62
7
  6
CONTINUOUS
370
-3
390
F
  0
LAYER
  5
211
100
AcDbSymbolTableRecord
100
AcDbLayerTableRecord
  2
INTFCLR_6275
 70
0
 62
7
  6
CONTINUOUS
370
-3
390
F
  0
LAYER
  5
212
100
AcDbSymbolTableRecord
100
AcDbLayerTableRecord
  2
INTF_1
 70
0
 62
7
  6
CONTINUOUS
370
-3
390
F
  0
LAYER
  5
213
100
AcDbSymbolTableRecord
100
AcDbLayerTableRecord
  2
INTF_11
 70
0
 62
7
  6
CONTINUOUS
370
-3
390
F
  0
LAYER
  5
214
100
AcDbSymbolTableRecord
100
AcDbLayerTableRecord
  2
INTF_12
 70
0
 62
7
  6
CONTINUOUS
370
-3
390
F
  0
LAYER
  5
215
100
AcDbSymbolTableRecord
100
AcDbLayerTableRecord
  2
INTF_6
 70
0
 62
7
  6
CONTINUOUS
370
-3
390
F
  0
LAYER
  5
216
100
AcDbSymbolTableRecord
100
AcDbLayerTableRecord
  2
INTF_YELLOW
 70
0
 62
7
  6
CONTINUOUS
370
-3
390
F
  0
LAYER
  5
217
100
AcDbSymbolTableRecord
100
AcDbLayerTableRecord
  2
NOTE
 70
0
 62
7
  6
CONTINUOUS
370
-3
390
F
  0
LAYER
  5
218
100
AcDbSymbolTableRecord
100
AcDbLayerTableRecord
  2
PIANI
 70
0
 62
7
  6
CONTINUOUS
370
-3
390
F
  0
LAYER
  5
219
100
AcDbSymbolTableRecord
100
AcDbLayerTableRecord
  2
PIANI_ORIGINE
 70
0
 62
7
  6
CONTINUOUS
370
-3
390
F
  0
LAYER
  5
21A
100
AcDbSymbolTableRecord
100
AcDbLayerTableRecord
  2
PIANI_RIFERIMENTO
 70
0
 62
7
  6
CONTINUOUS
370
-3
390
F
  0
LAYER
  5
21B
100
AcDbSymbolTableRecord
100
AcDbLayerTableRecord
  2
PIANI_SFORMO
 70
0
 62
7
  6
CONTINUOUS
370
-3
390
F
  0
LAYER
  5
21C
100
AcDbSymbolTableRecord
100
AcDbLayerTableRecord
  2
PUBLISH_GEOMETRY
 70
0
 62
7
  6
CONTINUOUS
370
-3
390
F
  0
LAYER
  5
21D
100
AcDbSymbolTableRecord
100
AcDbLayerTableRecord
  2
PUNTI
 70
0
 62
7
  6
CONTINUOUS
370
-3
390
F
  0
LAYER
  5
21E
100
AcDbSymbolTableRecord
100
AcDbLayerTableRecord
  2
RACCORDO
 70
0
 62
7
  6
CONTINUOUS
370
-3
390
F
  0
LAYER
  5
21F
100
AcDbSymbolTableRecord
100
AcDbLayerTableRecord
  2
SIMBOLI
 70
0
 62
7
  6
CONTINUOUS
370
-3
390
F
  0
LAYER
  5
220
100
AcDbSymbolTableRecord
100
AcDbLayerTableRecord
  2
SMUSSO
 70
0
 62
7
  6
CONTINUOUS
370
-3
390
F
  0
LAYER
  5
221
100
AcDbSymbolTableRecord
100
AcDbLayerTableRecord
  2
SNAPLINE
 70
0
 62
7
  6
CONTINUOUS
370
-3
390
F
  0
LAYER
  5
222
100
AcDbSymbolTableRecord
100
AcDbLayerTableRecord
  2
SOLIDO
 70
0
 62
7
  6
CONTINUOUS
370
-3
390
F
  0
LAYER
  5
223
100
AcDbSymbolTableRecord
100
AcDbLayerTableRecord
  2
SUPERFICI
 70
0
 62
7
  6
CONTINUOUS
370
-3
390
F
  0
LAYER
  5
224
100
AcDbSymbolTableRecord
100
AcDbLayerTableRecord
  2
TRASH
 70
0
 62
7
  6
CONTINUOUS
370
-3
390
F
  0
LAYER
  5
225
100
AcDbSymbolTableRecord
100
AcDbLayerTableRecord
  2
WHITE
 70
0
 62
7
  6
CONTINUOUS
370
-3
390
F
  0
LAYER
  5
226
100
AcDbSymbolTableRecord
100
AcDbLayerTableRecord
  2
XSEC_DATUMS
 70
0
 62
7
  6
CONTINUOUS
370
-3
390
F
  0
ENDTAB
  0
TABLE
  2
STYLE
  5
3
100
AcDbSymbolTable
 70
1
  0
STYLE
  5
11
100
AcDbSymbolTableRecord
100
AcDbTextStyleTableRecord
  2
STANDARD
 70
0
 40
0.0
 41
0.8
 50
0.0
 71
0
 42
0.2
  3
txt
  4

  0
STYLE
  5
227
100
AcDbSymbolTableRecord
100
AcDbTextStyleTableRecord
  2
TEXTSTYLE_1
 70
0
 40
0.0
 41
0.8
 50
0.0
 71
0
 42
0.2
  3
gdt
  4

  0
ENDTAB
  0
TABLE
  2
VIEW
  5
6
100
AcDbSymbolTable
 70
0
  0
ENDTAB
  0
TABLE
  2
UCS
  5
7
100
AcDbSymbolTable
 70
0
  0
ENDTAB
  0
TABLE
  2
APPID
  5
9
100
AcDbSymbolTable
 70
1
  0
APPID
  5
228
100
AcDbSymbolTableRecord
100
AcDbRegAppTableRecord
  2
ACAD
 70
0
  0
ENDTAB
  0
TABLE
  2
BLOCK_RECORD
  5
1
100
AcDbSymbolTable
 70
0
  0
BLOCK_RECORD
  5
229
100
AcDbSymbolTableRecord
100
AcDbBlockTableRecord
  2
*Model_Space
  0
BLOCK_RECORD
  5
22A
100
AcDbSymbolTableRecord
100
AcDbBlockTableRecord
  2
*Paper_Space
  0
ENDTAB
  0
TABLE
  2
DIMSTYLE
  5
A
100
AcDbSymbolTable
 70
1
100
AcDbDimStyleTable
 71
0
  0
DIMSTYLE
105
22B
100
AcDbSymbolTableRecord
100
AcDbDimStyleTableRecord
  2
STANDARD
 70
0
  3

  4

 40
1.0
 41
3.0
 42
0.0625
 43
0.38
 44
0.18
 45
0.0
 46
0.0
 47
0.01
 48
0.01
140
3.0
141
0.09
142
0.0
143
25.4
144
1.0
145
0.0
146
1.0
147
0.09
 71
1.0
 72
0.0
 73
0
 74
0
 75
0
 76
0
 77
1
 78
8
170
0
171
2
172
0
173
0
174
0
175
0
176
0
177
0
178
0
270
2
271
2
272
2
273
2
274
2
275
0
280
0
281
0
282
0
283
1
284
8
285
0
286
0
287
3
288
0
340
11
  0
ENDTAB
  0
ENDSEC
  0
SECTION
  2
BLOCKS
  0
BLOCK
  5
20
100
AcDbEntity
  8
0
100
AcDbBlockBegin
  2
*Model_Space
 70
0
 10
0.0
 20
0.0
 30
0.0
  3
*Model_Space
  1

  0
ENDBLK
  5
21
100
AcDbEntity
  8
0
100
AcDbBlockEnd
  0
BLOCK
  5
1C
100
AcDbEntity
  8
0
100
AcDbBlockBegin
  2
*Paper_Space
 70
0
 10
0.0
 20
0.0
 30
0.0
  3
*Paper_Space
  1

  0
ENDBLK
  5
1D
100
AcDbEntity
  8
0
100
AcDbBlockEnd
  0
ENDSEC
  0
SECTION
  2
ENTITIES
  0
LWPOLYLINE
  5
22C
100
AcDbEntity
  8
0
100
AcDbPolyline
 62
7
  6
CONTINUOUS
 90
18
 70
0
 10
-10.1268700021
 20
25.6154888991
 10
-10.1378079991
 20
25.6108050455
 10
-10.1485107404
 20
25.6056060421
 10
-10.1589539811
 20
25.5999036649
 10
-10.1691140587
 20
25.5937108314
 10
-10.1789679579
 20
25.5870415688
 10
-10.1884933566
 20
25.579910984
 10
-10.1976686719
 20
25.5723352322
 10
-10.2064731189
 20
25.5643314738
 10
-10.2148867533
 20
25.5559178394
 10
-10.2228905117
 20
25.5471133924
 10
-10.2304662635
 20
25.5379380771
 10
-10.2375968483
 20
25.5284126784
 10
-10.2442661109
 20
25.5185587792
 10
-10.2504589444
 20
25.5083987016
 10
-10.2561613216
 20
25.4979554609
 10
-10.261360325
 20
25.4872527196
 10
-10.2660441786
 20
25.4763147226
  0
LWPOLYLINE
  5
22D
100
AcDbEntity
  8
0
100
AcDbPolyline
 62
7
  6
CONTINUOUS
 90
9
 70
0
 10
-10.1268700021
 20
-23.3486963525
 10
-10.1157215266
 20
-23.352854448
 10
-10.1043878318
 20
-23.3564773684
 10
-10.0928945916
 20
-23.3595569084
 10
-10.0812678403
 20
-23.3620860944
 10
-10.0695339189
 20
-23.3640592009
 10
-10.0577194084
 20
-23.3654717609
 10
-10.0458510688
 20
-23.3663205765
 10
-10.0339557836
 20
-23.3666037267
  0
LINE
  5
22E
100
AcDbEntity
  8
RACCORDO
100
AcDbLine
 62
7
  6
CONTINUOUS
 10
-8.9339515528
 20
21.9833962733
 11
-10.6982543333
 21
20.2190934928
  0
LINE
  5
22F
100
AcDbEntity
  8
0
100
AcDbLine
 62
7
  6
CONTINUOUS
 10
-11.275224685
 20
19.6421231411
 11
-7.3897693826
 21
23.5275784435
  0
LINE
  5
230
100
AcDbEntity
  8
0
100
AcDbLine
 62
7
  6
CONTINUOUS
 10
-8.3664964879
 20
22.5385096834
 11
-8.2005210546
 21
22.7044851167
  0
LINE
  5
231
100
AcDbEntity
  8
RACCORDO
100
AcDbLine
 62
7
  6
CONTINUOUS
 10
-8.7611552259
 20
21.9833962733
 11
-10.5760688788
 21
20.1684826204
  0
LINE
  5
232
100
AcDbEntity
  8
DRAFT
100
AcDbLine
 62
7
  6
CONTINUOUS
 10
-7.7772640125
 20
22.0333962733
 11
-7.8272640125
 21
21.9833962733
  0
LINE
  5
233
100
AcDbEntity
  8
DRAFT
100
AcDbLine
 62
7
  6
CONTINUOUS
 10
-7.7525807029
 20
22.0333962733
 11
-7.8025807029
 21
21.9833962733
  0
LINE
  5
234
100
AcDbEntity
  8
DRAFT
100
AcDbLine
 62
7
  6
CONTINUOUS
 10
-7.4252250173
 20
22.0421228088
 11
-7.4339515528
 21
22.0333962733
  0
LINE
  5
235
100
AcDbEntity
  8
DRAFT
100
AcDbLine
 62
7
  6
CONTINUOUS
 10
-7.3292291393
 20
22.129391819
 11
-7.4252250173
 21
22.0333966056
  0
LINE
  5
236
100
AcDbEntity
  8
RACCORDO
100
AcDbLine
 62
7
  6
CONTINUOUS
 10
-10.8541597881
 20
18.4317005201
 11
-10.2322557996
 21
19.0536045086
  0
LINE
  5
237
100
AcDbEntity
  8
ASSI
100
AcDbLine
 62
7
  6
CONTINUOUS
 10
-10.8541597881
 20
18.4317005201
 11
-10.2322557996
 21
19.0536045086
  0
LINE
  5
238
100
AcDbEntity
  8
0
100
AcDbLine
 62
253
  6
CONTINUOUS
 10
-1.3425011524
 20
25.1276949283
 11
-1.3339490144
 21
25.1333962733
  0
LINE
  5
239
100
AcDbEntity
  8
0
100
AcDbLine
 62
7
  6
CONTINUOUS
 10
-8.2005210546
 20
22.1251045375
 11
-8.3664964879
 21
22.0421231411
  0
LINE
  5
23A
100
AcDbEntity
  8
0
100
AcDbLine
 62
7
  6
CONTINUOUS
 10
-8.2005210546
 20
22.5871317004
 11
-8.3664964879
 21
22.5385096834
  0
LWPOLYLINE
  5
23B
100
AcDbEntity
  8
0
100
AcDbPolyline
 62
7
  6
CONTINUOUS
 90
6
 70
0
 10
9.8016308133
 20
-23.3640592009
 10
9.8133647347
 20
-23.3620860944
 10
9.824991486
 20
-23.3595569084
 10
9.8364847262
 20
-23.3564773684
 10
9.847818421
 20
-23.352854448
 10
9.8589668965
 20
-23.3486963525
  0
LWPOLYLINE
  5
23C
100
AcDbEntity
  8
0
100
AcDbPolyline
 62
7
  6
CONTINUOUS
 90
4
 70
0
 10
9.766052678
 20
-23.3666037267
 10
9.7779479632
 20
-23.3663205765
 10
9.7898163028
 20
-23.3654717609
 10
9.8016308133
 20
-23.3640592009
  0
LWPOLYLINE
  5
23D
100
AcDbEntity
  8
0
100
AcDbPolyline
 62
7
  6
CONTINUOUS
 90
34
 70
0
 10
9.761680844
 20
-23.3622318927
 10
9.7735563155
 20
-23.3619492731
 10
9.7854100581
 20
-23.3611023713
 10
9.7972152336
 20
-23.3596923753
 10
9.8089467282
 20
-23.3577214293
 10
9.8205761635
 20
-23.3551934394
 10
9.8320721291
 20
-23.3521148608
 10
9.8434068942
 20
-23.348493251
 10
9.8545565062
 20
-23.3443363966
 10
9.8654959073
 20
-23.339653623
 10
9.8762004421
 20
-23.3344554377
 10
9.8866456956
 20
-23.3287536492
 10
9.8968077712
 20
-23.3225612868
 10
9.9066635559
 20
-23.3158924496
 10
9.9161908174
 20
-23.3087621962
 10
9.9253680306
 20
-23.3011866353
 10
9.9341744222
 20
-23.2931829038
 10
9.9425900084
 20
-23.2847691522
 10
9.9505957026
 20
-23.2759644566
 10
9.9581733591
 20
-23.2667887696
 10
9.9653058102
 20
-23.2572628754
 10
9.9719768902
 20
-23.2474083593
 10
9.9781714825
 20
-23.2372475471
 10
9.9838755478
 20
-23.2268034619
 10
9.9890761554
 20
-23.2160997755
 10
9.9937615198
 20
-23.205160742
 10
9.997921024
 20
-23.1940111456
 10
10.0015452412
 20
-23.1826762531
 10
10.0046259598
 20
-23.1711817421
 10
10.0071561968
 20
-23.1595536627
 10
10.0091302154
 20
-23.147818383
 10
10.0105435442
 20
-23.1360025007
 10
10.0113929843
 20
-23.1241327824
 10
10.0116766132
 20
-23.1122361235
  0
LWPOLYLINE
  5
23E
100
AcDbEntity
  8
0
100
AcDbPolyline
 62
7
  6
CONTINUOUS
 90
4
 70
0
 10
-7.633947322
 20
-23.3666037267
 10
-7.6220520368
 20
-23.3663205765
 10
-7.6101836972
 20
-23.3654717609
 10
-7.5983691867
 20
-23.3640592009
  0
LWPOLYLINE
  5
23F
100
AcDbEntity
  8
0
100
AcDbPolyline
 62
7
  6
CONTINUOUS
 90
34
 70
0
 10
-7.638319156
 20
-23.3622318927
 10
-7.6264241345
 20
-23.3619483419
 10
-7.6145560578
 20
-23.361099137
 10
-7.6027418099
 20
-23.3596862016
 10
-7.5910081527
 20
-23.3577127363
 10
-7.5793816654
 20
-23.3551832115
 10
-7.5678886848
 20
-23.3521033571
 10
-7.556555245
 20
-23.3484801497
 10
-7.5454070188
 20
-23.3443217967
 10
-7.5344692593
 20
-23.3396377176
 10
-7.5237667432
 20
-23.3344385229
 10
-7.5133237139
 20
-23.3287359901
 10
-7.5031638273
 20
-23.3225430365
 10
-7.4933100978
 20
-23.3158736907
 10
-7.4837848463
 20
-23.3087430602
 10
-7.4746096497
 20
-23.3011672974
 10
-7.4658052917
 20
-23.2931635632
 10
-7.4573917163
 20
-23.2847499878
 10
-7.4493879821
 20
-23.2759456298
 10
-7.4418122194
 20
-23.2667704332
 10
-7.4346815888
 20
-23.2572451817
 10
-7.428012243
 20
-23.2473914522
 10
-7.4218192894
 20
-23.2372315656
 10
-7.4161167566
 20
-23.2267885363
 10
-7.4109175619
 20
-23.2160860202
 10
-7.4062334828
 20
-23.2051482607
 10
-7.4020751298
 20
-23.1940000345
 10
-7.3984519224
 20
-23.1826665947
 10
-7.395372068
 20
-23.1711736141
 10
-7.3928425432
 20
-23.1595471268
 10
-7.3908690779
 20
-23.1478134696
 10
-7.3894561425
 20
-23.1359992217
 10
-7.3886069376
 20
-23.124131145
 10
-7.3883233868
 20
-23.1122361235
  0
LWPOLYLINE
  5
240
100
AcDbEntity
  8
0
100
AcDbPolyline
 62
7
  6
CONTINUOUS
 90
37
 70
0
 10
-1.3339490144
 20
-22.8666037267
 10
-1.3252253607
 20
-22.866413393
 10
-1.316518306
 20
-22.8658427478
 10
-1.3078444217
 20
-22.8648928745
 10
-1.2992202149
 20
-22.8635655789
 10
-1.2906621014
 20
-22.8618633841
 10
-1.2821863747
 20
-22.8597895253
 10
-1.2738091666
 20
-22.8573479474
 10
-1.2655464226
 20
-22.8545432951
 10
-1.2574138755
 20
-22.8513809035
 10
-1.2494270048
 20
-22.8478667897
 10
-1.2416010135
 20
-22.8440076406
 10
-1.233950804
 20
-22.8398108001
 10
-1.2264909383
 20
-22.8352842548
 10
-1.2192356167
 20
-22.8304366194
 10
-1.2121986558
 20
-22.8252771213
 10
-1.2053934506
 20
-22.8198155803
 10
-1.1988329551
 20
-22.8140623912
 10
-1.192529663
 20
-22.8080285073
 10
-1.1864955729
 20
-22.8017254133
 10
-1.1807421709
 20
-22.7951651066
 10
-1.175280413
 20
-22.7883600782
 10
-1.1701206959
 20
-22.7813232812
 10
-1.1652728409
 20
-22.7740681101
 10
-1.1607460787
 20
-22.7666083794
 10
-1.1565490259
 20
-22.7589582889
 10
-1.1526896708
 20
-22.7511324005
 10
-1.1491753606
 20
-22.7431456153
 10
-1.1460127842
 20
-22.7350131365
 10
-1.1432079606
 20
-22.7267504439
 10
-1.1407662276
 20
-22.7183732695
 10
-1.1386922323
 20
-22.7098975595
 10
-1.136989921
 20
-22.7013394466
 10
-1.1356625317
 20
-22.6927152238
 10
-1.1347125893
 20
-22.6840413078
 10
-1.1341419013
 20
-22.6753342075
 10
-1.1339515528
 20
-22.6666104959
  0
LINE
  5
241
100
AcDbEntity
  8
0
100
AcDbLine
 62
7
  6
CONTINUOUS
 10
-10.0295839496
 20
-23.3622318927
 11
-7.638319156
 21
-23.3622318927
  0
LINE
  5
242
100
AcDbEntity
  8
0
100
AcDbLine
 62
7
  6
CONTINUOUS
 10
7.3704160504
 20
-23.3622318927
 11
9.761680844
 21
-23.3622318927
  0
LINE
  5
243
100
AcDbEntity
  8
0
100
AcDbLine
 62
253
  6
CONTINUOUS
 10
7.1204202812
 20
-23.1122361235
 11
10.0116766132
 21
-23.1122361235
  0
LINE
  5
244
100
AcDbEntity
  8
0
100
AcDbLine
 62
253
  6
CONTINUOUS
 10
-7.3883233868
 20
-23.1122361235
 11
-10.2795797188
 21
-23.1122361235
  0
LINE
  5
245
100
AcDbEntity
  8
0
100
AcDbLine
 62
7
  6
CONTINUOUS
 10
-4.5839515528
 20
-22.8666037267
 11
-1.3339490144
 21
-22.8666037267
  0
LINE
  5
246
100
AcDbEntity
  8
0
100
AcDbLine
 62
7
  6
CONTINUOUS
 10
1.0660459088
 20
-22.8666037267
 11
4.3160484472
 21
-22.8666037267
  0
LINE
  5
247
100
AcDbEntity
  8
0
100
AcDbLine
 62
7
  6
CONTINUOUS
 10
-3.6688092691
 20
-22.8609023817
 11
-1.3425011524
 21
-22.8609023817
  0
LINE
  5
248
100
AcDbEntity
  8
0
100
AcDbLine
 62
7
  6
CONTINUOUS
 10
1.0745980469
 20
-22.8609023817
 11
3.4009061635
 21
-22.8609023817
  0
LINE
  5
249
100
AcDbEntity
  8
0
100
AcDbLine
 62
7
  6
CONTINUOUS
 10
-4.5403009059
 20
-22.8229530798
 11
-3.6684780905
 21
-22.8229530798
  0
LINE
  5
24A
100
AcDbEntity
  8
0
100
AcDbLine
 62
7
  6
CONTINUOUS
 10
3.4005749849
 20
-22.8229530798
 11
4.2723978003
 21
-22.8229530798
  0
LINE
  5
24B
100
AcDbEntity
  8
0
100
AcDbLine
 62
253
  6
CONTINUOUS
 10
7.1204202812
 20
-22.710941294
 11
10.0116766132
 21
-22.710941294
  0
LINE
  5
24C
100
AcDbEntity
  8
0
100
AcDbLine
 62
253
  6
CONTINUOUS
 10
-7.3883233868
 20
-22.710941294
 11
-10.2795797188
 21
-22.710941294
  0
LINE
  5
24D
100
AcDbEntity
  8
0
100
AcDbLine
 62
253
  6
CONTINUOUS
 10
9.761680844
 20
-22.4944349431
 11
7.3704160504
 21
-22.4944349431
  0
LINE
  5
24E
100
AcDbEntity
  8
0
100
AcDbLine
 62
253
  6
CONTINUOUS
 10
-7.638319156
 20
-22.4944349431
 11
-10.0295839496
 21
-22.4944349431
  0
LWPOLYLINE
  5
24F
100
AcDbEntity
  8
0
100
AcDbPolyline
 62
7
  6
CONTINUOUS
 90
37
 70
0
 10
1.0660459088
 20
-22.8666037267
 10
1.0573222551
 20
-22.866413393
 10
1.0486152004
 20
-22.8658427478
 10
1.0399413161
 20
-22.8648928745
 10
1.0313171093
 20
-22.8635655789
 10
1.0227589958
 20
-22.8618633841
 10
1.0142832691
 20
-22.8597895253
 10
1.005906061
 20
-22.8573479474
 10
0.997643317
 20
-22.8545432951
 10
0.9895107699
 20
-22.8513809035
 10
0.9815238992
 20
-22.8478667897
 10
0.9736979079
 20
-22.8440076406
 10
0.9660476984
 20
-22.8398108001
 10
0.9585878328
 20
-22.8352842548
 10
0.9513325112
 20
-22.8304366194
 10
0.9442955502
 20
-22.8252771213
 10
0.937490345
 20
-22.8198155803
 10
0.9309298495
 20
-22.8140623912
 10
0.9246265574
 20
-22.8080285073
 10
0.9185924673
 20
-22.8017254133
 10
0.9128390653
 20
-22.7951651066
 10
0.9073773074
 20
-22.7883600782
 10
0.9022175903
 20
-22.7813232812
 10
0.8973697353
 20
-22.7740681101
 10
0.8928429731
 20
-22.7666083794
 10
0.8886459203
 20
-22.7589582889
 10
0.8847865652
 20
-22.7511324005
 10
0.881272255
 20
-22.7431456153
 10
0.8781096786
 20
-22.7350131365
 10
0.875304855
 20
-22.7267504439
 10
0.872863122
 20
-22.7183732695
 10
0.8707891267
 20
-22.7098975595
 10
0.8690868154
 20
-22.7013394466
 10
0.8677594261
 20
-22.6927152238
 10
0.8668094837
 20
-22.6840413078
 10
0.8662387957
 20
-22.6753342075
 10
0.8660484472
 20
-22.6666104959
  0
LINE
  5
250
100
AcDbEntity
  8
0
100
AcDbLine
 62
7
  6
CONTINUOUS
 10
-8.2005210546
 20
-20.3203391538
 11
-8.3664964879
 21
-20.2717171368
  0
LINE
  5
251
100
AcDbEntity
  8
0
100
AcDbLine
 62
7
  6
CONTINUOUS
 10
-8.2005210546
 20
-19.8583119909
 11
-8.3664964879
 21
-19.7753305945
  0
LINE
  5
252
100
AcDbEntity
  8
0
100
AcDbLine
 62
253
  6
CONTINUOUS
 10
-1.3339490144
 20
-22.8666037267
 11
-1.3425011524
 21
-22.8609023817
  0
LINE
  5
253
100
AcDbEntity
  8
RACCORDO
100
AcDbLine
 62
7
  6
CONTINUOUS
 10
-10.6982543333
 20
-17.9523009462
 11
-8.9339515528
 21
-19.7166037267
  0
LINE
  5
254
100
AcDbEntity
  8
0
100
AcDbLine
 62
7
  6
CONTINUOUS
 10
-7.3897693826
 20
-21.2607858969
 11
-11.275224685
 21
-17.3753305945
  0
LINE
  5
255
100
AcDbEntity
  8
0
100
AcDbLine
 62
7
  6
CONTINUOUS
 10
-8.3664964879
 20
-20.2717171368
 11
-8.2005210546
 21
-20.4376925701
  0
LINE
  5
256
100
AcDbEntity
  8
RACCORDO
100
AcDbLine
 62
7
  6
CONTINUOUS
 10
-10.5760688788
 20
-17.9016900738
 11
-8.7611552259
 21
-19.7166037267
  0
LINE
  5
257
100
AcDbEntity
  8
DRAFT
100
AcDbLine
 62
7
  6
CONTINUOUS
 10
-7.8272640125
 20
-19.7166037267
 11
-7.7772640125
 21
-19.7666037267
  0
LINE
  5
258
100
AcDbEntity
  8
DRAFT
100
AcDbLine
 62
7
  6
CONTINUOUS
 10
-7.8025807029
 20
-19.7166037267
 11
-7.7525807029
 21
-19.7666037267
  0
LINE
  5
259
100
AcDbEntity
  8
DRAFT
100
AcDbLine
 62
7
  6
CONTINUOUS
 10
-7.3292291393
 20
-19.8625992724
 11
-7.425224685
 21
-19.7666037267
  0
LINE
  5
25A
100
AcDbEntity
  8
RACCORDO
100
AcDbLine
 62
7
  6
CONTINUOUS
 10
-10.8541597881
 20
-16.1649079735
 11
-10.2322557996
 21
-16.7868119621
  0
LINE
  5
25B
100
AcDbEntity
  8
ASSI
100
AcDbLine
 62
7
  6
CONTINUOUS
 10
-10.8541597881
 20
-16.1649079735
 11
-10.2322557996
 21
-16.7868119621
  0
LWPOLYLINE
  5
25C
100
AcDbEntity
  8
0
100
AcDbPolyline
 62
7
  6
CONTINUOUS
 90
18
 70
0
 10
-10.2660441786
 20
-23.209522176
 10
-10.261360325
 20
-23.220460173
 10
-10.2561613216
 20
-23.2311629143
 10
-10.2504589444
 20
-23.241606155
 10
-10.2442661109
 20
-23.2517662326
 10
-10.2375968483
 20
-23.2616201318
 10
-10.2304662635
 20
-23.2711455305
 10
-10.2228905117
 20
-23.2803208458
 10
-10.2148867533
 20
-23.2891252928
 10
-10.2064731189
 20
-23.2975389272
 10
-10.1976686719
 20
-23.3055426856
 10
-10.1884933566
 20
-23.3131184374
 10
-10.1789679579
 20
-23.3202490222
 10
-10.1691140587
 20
-23.3269182848
 10
-10.1589539811
 20
-23.3331111183
 10
-10.1485107404
 20
-23.3388134955
 10
-10.1378079991
 20
-23.3440124989
 10
-10.1268700021
 20
-23.3486963525
  0
LWPOLYLINE
  5
25D
100
AcDbEntity
  8
0
100
AcDbPolyline
 62
7
  6
CONTINUOUS
 90
9
 70
0
 10
-10.2660441786
 20
25.4763147226
 10
-10.2702022741
 20
25.4651662471
 10
-10.2738251945
 20
25.4538325523
 10
-10.2769047345
 20
25.4423393121
 10
-10.2794339205
 20
25.4307125608
 10
-10.2814070269
 20
25.4189786394
 10
-10.282819587
 20
25.4071641289
 10
-10.2836684026
 20
25.3952957893
 10
-10.2839515528
 20
25.3834005041
  0
LWPOLYLINE
  5
25E
100
AcDbEntity
  8
0
100
AcDbPolyline
 62
7
  6
CONTINUOUS
 90
5
 70
0
 10
-3.6680358305
 20
25.0390676457
 10
-3.6746207492
 20
25.0313420811
 10
-3.6818654735
 20
25.022937603
 10
-3.6897842933
 20
25.0138542114
 10
-3.6983940982
 20
25.0040964515
  0
LINE
  5
25F
100
AcDbEntity
  8
0
100
AcDbLine
 62
7
  6
CONTINUOUS
 10
-3.6983940982
 20
25.0040964515
 11
-3.7177071463
 21
24.9825305555
  0
LINE
  5
260
100
AcDbEntity
  8
0
100
AcDbLine
 62
7
  6
CONTINUOUS
 10
-3.7177071463
 20
24.9825305555
 11
-3.7398086321
 21
24.9581970837
  0
LINE
  5
261
100
AcDbEntity
  8
0
100
AcDbLine
 62
7
  6
CONTINUOUS
 10
-3.7398086321
 20
24.9581970837
 11
-3.7647412059
 21
24.9310595422
  0
LINE
  5
262
100
AcDbEntity
  8
0
100
AcDbLine
 62
7
  6
CONTINUOUS
 10
-3.7647412059
 20
24.9310595422
 11
-3.7925776499
 21
24.9010262934
  0
LINE
  5
263
100
AcDbEntity
  8
0
100
AcDbLine
 62
7
  6
CONTINUOUS
 10
-3.7925776499
 20
24.9010262934
 11
-3.8235901199
 21
24.8677972026
  0
LINE
  5
264
100
AcDbEntity
  8
0
100
AcDbLine
 62
7
  6
CONTINUOUS
 10
-3.8235901199
 20
24.8677972026
 11
-3.8759099131
 21
24.812130659
  0
LINE
  5
265
100
AcDbEntity
  8
0
100
AcDbLine
 62
7
  6
CONTINUOUS
 10
-3.8759099131
 20
24.812130659
 11
-3.9348817239
 21
24.7497577876
  0
LWPOLYLINE
  5
266
100
AcDbEntity
  8
0
100
AcDbPolyline
 62
7
  6
CONTINUOUS
 90
4
 70
0
 10
-3.9348817239
 20
24.7497577876
 10
-4.0210360491
 20
24.6590637071
 10
-4.0430173942
 20
24.6360294587
 10
-4.0869942627
 20
24.589754088
  0
LINE
  5
267
100
AcDbEntity
  8
DRAFT
100
AcDbLine
 62
7
  6
CONTINUOUS
 10
-7.5339515528
 20
20.8333962733
 11
-7.5706071891
 21
20.7967406369
  0
LINE
  5
268
100
AcDbEntity
  8
DRAFT
100
AcDbLine
 62
7
  6
CONTINUOUS
 10
-7.3292291393
 20
20.9381186868
 11
-7.4295881189
 21
20.8377597072
  0
LINE
  5
269
100
AcDbEntity
  8
0
100
AcDbLine
 62
253
  6
CONTINUOUS
 10
-1.1425189228
 20
24.9276915431
 11
-1.1339515528
 21
24.9334030425
  0
LINE
  5
26A
100
AcDbEntity
  8
0
100
AcDbLine
 62
7
  6
CONTINUOUS
 10
-1.1426255062
 20
23.5281919858
 11
-1.1339515528
 21
23.5333962733
  0
LINE
  5
26B
100
AcDbEntity
  8
DRAFT
100
AcDbLine
 62
7
  6
CONTINUOUS
 10
-7.5706071891
 20
19.3995657409
 11
-7.5880622541
 21
19.3908388731
  0
LWPOLYLINE
  5
26C
100
AcDbEntity
  8
0
100
AcDbPolyline
 62
7
  6
CONTINUOUS
 90
18
 70
0
 10
7.2731299979
 20
25.6154888991
 10
7.2621920009
 20
25.6108050455
 10
7.2514892596
 20
25.6056060421
 10
7.2410460189
 20
25.5999036649
 10
7.2308859413
 20
25.5937108314
 10
7.2210320421
 20
25.5870415688
 10
7.2115066434
 20
25.579910984
 10
7.2023313281
 20
25.5723352322
 10
7.1935268811
 20
25.5643314738
 10
7.1851132467
 20
25.5559178394
 10
7.1771094883
 20
25.5471133924
 10
7.1695337365
 20
25.5379380771
 10
7.1624031517
 20
25.5284126784
 10
7.1557338891
 20
25.5185587792
 10
7.1495410556
 20
25.5083987016
 10
7.1438386784
 20
25.4979554609
 10
7.138639675
 20
25.4872527196
 10
7.1339558214
 20
25.4763147226
  0
LWPOLYLINE
  5
26D
100
AcDbEntity
  8
0
100
AcDbPolyline
 62
7
  6
CONTINUOUS
 90
6
 70
0
 10
-7.5983691867
 20
-23.3640592009
 10
-7.5866352653
 20
-23.3620860944
 10
-7.575008514
 20
-23.3595569084
 10
-7.5635152738
 20
-23.3564773684
 10
-7.552181579
 20
-23.352854448
 10
-7.5410331035
 20
-23.3486963525
  0
LINE
  5
26E
100
AcDbEntity
  8
0
100
AcDbLine
 62
7
  6
CONTINUOUS
 10
-10.0346745507
 20
-21.9892534575
 11
-7.6332285549
 21
-21.9892534575
  0
LINE
  5
26F
100
AcDbEntity
  8
0
100
AcDbLine
 62
7
  6
CONTINUOUS
 10
9.7667714451
 20
-21.9892534575
 11
7.3653254493
 21
-21.9892534575
  0
LINE
  5
270
100
AcDbEntity
  8
0
100
AcDbLine
 62
7
  6
CONTINUOUS
 10
0.8660484472
 20
-21.2666037267
 11
-1.1339515528
 21
-21.2666037267
  0
LINE
  5
271
100
AcDbEntity
  8
0
100
AcDbLine
 62
7
  6
CONTINUOUS
 10
4.3160484472
 20
-21.2666037267
 11
10.5164290469
 21
-21.2666037267
  0
LINE
  5
272
100
AcDbEntity
  8
0
100
AcDbLine
 62
7
  6
CONTINUOUS
 10
-4.5839515528
 20
-21.2666037267
 11
-10.7843321525
 21
-21.2666037267
  0
LINE
  5
273
100
AcDbEntity
  8
0
100
AcDbLine
 62
7
  6
CONTINUOUS
 10
-1.1426255062
 20
-21.2613994392
 11
0.8747224006
 21
-21.2613994392
  0
LINE
  5
274
100
AcDbEntity
  8
0
100
AcDbLine
 62
7
  6
CONTINUOUS
 10
-10.7752310311
 20
-21.2607858969
 11
-7.3897693826
 21
-21.2607858969
  0
LINE
  5
275
100
AcDbEntity
  8
0
100
AcDbLine
 62
7
  6
CONTINUOUS
 10
7.121866277
 20
-21.2607858969
 11
10.5073279255
 21
-21.2607858969
  0
LINE
  5
276
100
AcDbEntity
  8
0
100
AcDbLine
 62
253
  6
CONTINUOUS
 10
-7.324493179
 20
-21.2025737522
 11
-3.1395015791
 21
-21.2025737522
  0
LINE
  5
277
100
AcDbEntity
  8
0
100
AcDbLine
 62
253
  6
CONTINUOUS
 10
2.8715984735
 20
-21.2025737522
 11
7.0565900734
 21
-21.2025737522
  0
LINE
  5
278
100
AcDbEntity
  8
0
100
AcDbLine
 62
7
  6
CONTINUOUS
 10
-3.1339515528
 20
-20.5666037267
 11
2.8660484472
 21
-20.5666037267
  0
LWPOLYLINE
  5
279
100
AcDbEntity
  8
0
100
AcDbPolyline
 62
7
  6
CONTINUOUS
 90
9
 70
0
 10
7.2731299979
 20
-23.3486963525
 10
7.2842784734
 20
-23.352854448
 10
7.2956121682
 20
-23.3564773684
 10
7.3071054084
 20
-23.3595569084
 10
7.3187321597
 20
-23.3620860944
 10
7.3304660811
 20
-23.3640592009
 10
7.3422805916
 20
-23.3654717609
 10
7.3541489312
 20
-23.3663205765
 10
7.3660442164
 20
-23.3666037267
  0
LINE
  5
27A
100
AcDbEntity
  8
0
100
AcDbLine
 62
7
  6
CONTINUOUS
 10
-1.1339515528
 20
-21.2666037267
 11
-1.1426255062
 21
-21.2613994392
  0
LINE
  5
27B
100
AcDbEntity
  8
0
100
AcDbLine
 62
253
  6
CONTINUOUS
 10
-1.1339515528
 20
-22.6666104959
 11
-1.1425189228
 21
-22.6608989965
  0
LINE
  5
27C
100
AcDbEntity
  8
DRAFT
100
AcDbLine
 62
7
  6
CONTINUOUS
 10
-7.5339515528
 20
-18.5666037267
 11
-7.5706071891
 21
-18.5299480904
  0
LINE
  5
27D
100
AcDbEntity
  8
DRAFT
100
AcDbLine
 62
7
  6
CONTINUOUS
 10
-7.3292291393
 20
-18.6713261402
 11
-7.4295881189
 21
-18.5709671606
  0
LINE
  5
27E
100
AcDbEntity
  8
0
100
AcDbLine
 62
7
  6
CONTINUOUS
 10
-4.0652027508
 20
-22.3459422686
 11
-3.9995893583
 21
-22.4148021579
  0
LINE
  5
27F
100
AcDbEntity
  8
0
100
AcDbLine
 62
7
  6
CONTINUOUS
 10
-4.0869942627
 20
-22.3229615414
 11
-4.0652027508
 21
-22.3459422686
  0
LINE
  5
280
100
AcDbEntity
  8
0
100
AcDbLine
 62
7
  6
CONTINUOUS
 10
-3.9995893583
 20
-22.4148021579
 11
-3.9151299889
 21
-22.5038395391
  0
LINE
  5
281
100
AcDbEntity
  8
0
100
AcDbLine
 62
7
  6
CONTINUOUS
 10
-3.9151299889
 20
-22.5038395391
 11
-3.8584324364
 21
-22.563901934
  0
LINE
  5
282
100
AcDbEntity
  8
0
100
AcDbLine
 62
7
  6
CONTINUOUS
 10
-3.8584324364
 20
-22.563901934
 11
-3.8243827113
 21
-22.6001609777
  0
LINE
  5
283
100
AcDbEntity
  8
0
100
AcDbLine
 62
7
  6
CONTINUOUS
 10
-3.8243827113
 20
-22.6001609777
 11
-3.7933117233
 21
-22.6334448083
  0
LINE
  5
284
100
AcDbEntity
  8
0
100
AcDbLine
 62
7
  6
CONTINUOUS
 10
-3.7933117233
 20
-22.6334448083
 11
-3.7650860425
 21
-22.6638883842
  0
LINE
  5
285
100
AcDbEntity
  8
0
100
AcDbLine
 62
7
  6
CONTINUOUS
 10
-3.7650860425
 20
-22.6638883842
 11
-3.7398023136
 21
-22.6914087205
  0
LINE
  5
286
100
AcDbEntity
  8
0
100
AcDbLine
 62
7
  6
CONTINUOUS
 10
-3.7398023136
 20
-22.6914087205
 11
-3.717488977
 21
-22.715979851
  0
LWPOLYLINE
  5
287
100
AcDbEntity
  8
0
100
AcDbPolyline
 62
7
  6
CONTINUOUS
 90
6
 70
0
 10
-3.717488977
 20
-22.715979851
 10
-3.6981885583
 20
-22.7375362778
 10
-3.6896198015
 20
-22.7472489506
 10
-3.6817481096
 20
-22.7562846613
 10
-3.6745593697
 20
-22.7646267108
 10
-3.6680358305
 20
-22.7722750991
  0
LWPOLYLINE
  5
288
100
AcDbEntity
  8
0
100
AcDbPolyline
 62
7
  6
CONTINUOUS
 90
13
 70
0
 10
-1.6354757877
 20
-18.7510904063
 10
-1.7583480142
 20
-18.7512325432
 10
-1.8762198423
 20
-18.7516130173
 10
-1.9890912721
 20
-18.7522318285
 10
-2.0984470546
 20
-18.7531037931
 10
-2.2028024387
 20
-18.754214095
 10
-2.2977031711
 20
-18.7555182858
 10
-2.3827712554
 20
-18.7570283078
 10
-2.4583846879
 20
-18.7587322188
 10
-2.5212232039
 20
-18.7605497437
 10
-2.5701800486
 20
-18.7624541242
 10
-2.6063619767
 20
-18.7644721185
 10
-2.6297689883
 20
-18.7666037267
  0
LINE
  5
289
100
AcDbEntity
  8
0
100
AcDbLine
 62
253
  6
CONTINUOUS
 10
-7.700597207
 20
-20.2025906754
 11
-3.130774859
 21
-20.2025906754
  0
LINE
  5
28A
100
AcDbEntity
  8
0
100
AcDbLine
 62
253
  6
CONTINUOUS
 10
2.8628717534
 20
-20.2025906754
 11
7.4326941014
 21
-20.2025906754
  0
LINE
  5
28B
100
AcDbEntity
  8
DRAFT
100
AcDbLine
 62
7
  6
CONTINUOUS
 10
-7.700597207
 20
-19.8625992724
 11
-7.3292291393
 21
-19.8625992724
  0
LINE
  5
28C
100
AcDbEntity
  8
DRAFT
100
AcDbLine
 62
7
  6
CONTINUOUS
 10
7.4326941014
 20
-19.8625992724
 11
7.0613260337
 21
-19.8625992724
  0
LINE
  5
28D
100
AcDbEntity
  8
0
100
AcDbLine
 62
7
  6
CONTINUOUS
 10
-8.3664964879
 20
-19.7753305945
 11
-8.2005210546
 21
-19.7753305945
  0
LINE
  5
28E
100
AcDbEntity
  8
0
100
AcDbLine
 62
7
  6
CONTINUOUS
 10
7.932617949
 20
-19.7753305945
 11
8.0985933823
 21
-19.7753305945
  0
LINE
  5
28F
100
AcDbEntity
  8
DRAFT
100
AcDbLine
 62
7
  6
CONTINUOUS
 10
7.932617949
 20
-19.7666037267
 11
7.4970192521
 21
-19.7666037267
  0
LINE
  5
290
100
AcDbEntity
  8
DRAFT
100
AcDbLine
 62
7
  6
CONTINUOUS
 10
7.1660484472
 20
-19.7666037267
 11
7.4846775973
 21
-19.7666037267
  0
LINE
  5
291
100
AcDbEntity
  8
DRAFT
100
AcDbLine
 62
7
  6
CONTINUOUS
 10
-7.425224685
 20
-19.7666037267
 11
-7.7525807029
 21
-19.7666037267
  0
LINE
  5
292
100
AcDbEntity
  8
DRAFT
100
AcDbLine
 62
7
  6
CONTINUOUS
 10
-7.7649223577
 20
-19.7666037267
 11
-8.2005210546
 21
-19.7666037267
  0
LINE
  5
293
100
AcDbEntity
  8
DRAFT
100
AcDbLine
 62
7
  6
CONTINUOUS
 10
-8.9339515528
 20
-19.7166037267
 11
-7.5339515528
 21
-19.7166037267
  0
LINE
  5
294
100
AcDbEntity
  8
DRAFT
100
AcDbLine
 62
7
  6
CONTINUOUS
 10
7.2660484472
 20
-19.7166037267
 11
8.6660484472
 21
-19.7166037267
  0
LINE
  5
295
100
AcDbEntity
  8
0
100
AcDbLine
 62
7
  6
CONTINUOUS
 10
-3.1260973718
 20
-19.6666037267
 11
2.8581942662
 21
-19.6666037267
  0
LINE
  5
296
100
AcDbEntity
  8
DRAFT
100
AcDbLine
 62
7
  6
CONTINUOUS
 10
-6.7386739663
 20
-18.9713261402
 11
6.4707708607
 21
-18.9713261402
  0
LINE
  5
297
100
AcDbEntity
  8
DRAFT
100
AcDbLine
 62
7
  6
CONTINUOUS
 10
2.3660484472
 20
-18.9372967397
 11
2.3073090291
 21
-18.9372967397
  0
LINE
  5
298
100
AcDbEntity
  8
DRAFT
100
AcDbLine
 62
7
  6
CONTINUOUS
 10
-2.5752121347
 20
-18.9372967397
 11
-2.6339515528
 21
-18.9372967397
  0
LINE
  5
299
100
AcDbEntity
  8
DRAFT
100
AcDbLine
 62
7
  6
CONTINUOUS
 10
-3.6341049874
 20
-18.8841855923
 11
-2.6333355198
 21
-18.8841855923
  0
LINE
  5
29A
100
AcDbEntity
  8
DRAFT
100
AcDbLine
 62
7
  6
CONTINUOUS
 10
2.3654324142
 20
-18.8841855923
 11
3.3662018818
 21
-18.8841855923
  0
LINE
  5
29B
100
AcDbEntity
  8
DRAFT
100
AcDbLine
 62
7
  6
CONTINUOUS
 10
-6.6383149867
 20
-18.8709671606
 11
-2.6333116225
 21
-18.8709671606
  0
LINE
  5
29C
100
AcDbEntity
  8
DRAFT
100
AcDbLine
 62
7
  6
CONTINUOUS
 10
2.3654085169
 20
-18.8709671606
 11
6.3704118811
 21
-18.8709671606
  0
LINE
  5
29D
100
AcDbEntity
  8
DRAFT
100
AcDbLine
 62
7
  6
CONTINUOUS
 10
-7.5339515528
 20
-18.8666037267
 11
-7.4295881189
 21
-18.8666037267
  0
LINE
  5
29E
100
AcDbEntity
  8
DRAFT
100
AcDbLine
 62
7
  6
CONTINUOUS
 10
7.1616850133
 20
-18.8666037267
 11
7.2660484472
 21
-18.8666037267
  0
LINE
  5
29F
100
AcDbEntity
  8
0
100
AcDbLine
 62
7
  6
CONTINUOUS
 10
3.3660484472
 20
-18.7666037267
 11
2.3605267274
 21
-18.7666037267
  0
LINE
  5
2A0
100
AcDbEntity
  8
0
100
AcDbLine
 62
7
  6
CONTINUOUS
 10
-2.628429833
 20
-18.7666037267
 11
-3.6339515528
 21
-18.7666037267
  0
LINE
  5
2A1
100
AcDbEntity
  8
0
100
AcDbLine
 62
7
  6
CONTINUOUS
 10
1.3675726821
 20
-18.7510904063
 11
-1.6354757877
 21
-18.7510904063
  0
LINE
  5
2A2
100
AcDbEntity
  8
DRAFT
100
AcDbLine
 62
7
  6
CONTINUOUS
 10
3.3293928109
 20
-18.7299480904
 11
-3.5972959164
 21
-18.7299480904
  0
LINE
  5
2A3
100
AcDbEntity
  8
DRAFT
100
AcDbLine
 62
7
  6
CONTINUOUS
 10
-7.3292291393
 20
-18.6713261402
 11
-6.7386739663
 21
-18.6713261402
  0
LINE
  5
2A4
100
AcDbEntity
  8
DRAFT
100
AcDbLine
 62
7
  6
CONTINUOUS
 10
6.4707708607
 20
-18.6713261402
 11
7.0613260337
 21
-18.6713261402
  0
LINE
  5
2A5
100
AcDbEntity
  8
DRAFT
100
AcDbLine
 62
7
  6
CONTINUOUS
 10
-7.4295881189
 20
-18.5709671606
 11
-6.6383149867
 21
-18.5709671606
  0
LINE
  5
2A6
100
AcDbEntity
  8
DRAFT
100
AcDbLine
 62
7
  6
CONTINUOUS
 10
6.3704118811
 20
-18.5709671606
 11
7.1616850133
 21
-18.5709671606
  0
LINE
  5
2A7
100
AcDbEntity
  8
DRAFT
100
AcDbLine
 62
7
  6
CONTINUOUS
 10
-7.5339515528
 20
-18.5666037267
 11
-3.6339515528
 21
-18.5666037267
  0
LINE
  5
2A8
100
AcDbEntity
  8
DRAFT
100
AcDbLine
 62
7
  6
CONTINUOUS
 10
3.3660484472
 20
-18.5666037267
 11
7.2660484472
 21
-18.5666037267
  0
LINE
  5
2A9
100
AcDbEntity
  8
DRAFT
100
AcDbLine
 62
7
  6
CONTINUOUS
 10
-7.5706071891
 20
-18.5299480904
 11
-3.5972959164
 21
-18.5299480904
  0
LINE
  5
2AA
100
AcDbEntity
  8
DRAFT
100
AcDbLine
 62
7
  6
CONTINUOUS
 10
3.3293928109
 20
-18.5299480904
 11
7.3027040836
 21
-18.5299480904
  0
LINE
  5
2AB
100
AcDbEntity
  8
RACCORDO
100
AcDbLine
 62
7
  6
CONTINUOUS
 10
-3.8470532776
 20
-18.4796940284
 11
9.2572728373
 21
-18.4796940284
  0
LINE
  5
2AC
100
AcDbEntity
  8
ASSI
100
AcDbLine
 62
7
  6
CONTINUOUS
 10
-3.8470532776
 20
-18.4796940284
 11
9.2572728373
 21
-18.4796940284
  0
LWPOLYLINE
  5
2AD
100
AcDbEntity
  8
0
100
AcDbPolyline
 62
7
  6
CONTINUOUS
 90
13
 70
0
 10
1.3675726821
 20
-18.7510904063
 10
1.4904449086
 20
-18.7512325432
 10
1.6083167368
 20
-18.7516130173
 10
1.7211881665
 20
-18.7522318285
 10
1.830543949
 20
-18.7531037931
 10
1.9348993331
 20
-18.754214095
 10
2.0298000655
 20
-18.7555182858
 10
2.1148681498
 20
-18.7570283078
 10
2.1904815823
 20
-18.7587322188
 10
2.2533200983
 20
-18.7605497437
 10
2.302276943
 20
-18.7624541242
 10
2.3384588711
 20
-18.7644721185
 10
2.3618658827
 20
-18.7666037267
  0
LWPOLYLINE
  5
2AE
100
AcDbEntity
  8
0
100
AcDbPolyline
 62
7
  6
CONTINUOUS
 90
6
 70
0
 10
-10.2814070269
 20
-23.1521860928
 10
-10.2794339205
 20
-23.1639200142
 10
-10.2769047345
 20
-23.1755467655
 10
-10.2738251945
 20
-23.1870400057
 10
-10.2702022741
 20
-23.1983737005
 10
-10.2660441786
 20
-23.209522176
  0
LWPOLYLINE
  5
2AF
100
AcDbEntity
  8
RACCORDO
100
AcDbPolyline
 62
253
  6
CONTINUOUS
 90
4
 70
0
 10
-10.7924875073
 20
12.9833962733
 10
-10.7909680236
 20
12.9887467194
 10
-10.7894729868
 20
13.0047363286
 10
-10.7880023969
 20
13.0312334131
  0
LWPOLYLINE
  5
2B0
100
AcDbEntity
  8
ASSI
100
AcDbPolyline
 62
253
  6
CONTINUOUS
 90
4
 70
0
 10
-10.7924875073
 20
12.9833962733
 10
-10.7909680236
 20
12.9887467194
 10
-10.7894729868
 20
13.0047363286
 10
-10.7880023969
 20
13.0312334131
  0
LWPOLYLINE
  5
2B1
100
AcDbEntity
  8
RACCORDO
100
AcDbPolyline
 62
253
  6
CONTINUOUS
 90
4
 70
0
 10
-10.7924875073
 20
7.9833962733
 10
-10.7909680236
 20
7.9887467194
 10
-10.7894729868
 20
8.0047363286
 10
-10.7880023969
 20
8.0312334131
  0
LWPOLYLINE
  5
2B2
100
AcDbEntity
  8
ASSI
100
AcDbPolyline
 62
253
  6
CONTINUOUS
 90
4
 70
0
 10
-10.7924875073
 20
7.9833962733
 10
-10.7909680236
 20
7.9887467194
 10
-10.7894729868
 20
8.0047363286
 10
-10.7880023969
 20
8.0312334131
  0
LINE
  5
2B3
100
AcDbEntity
  8
0
100
AcDbLine
 62
7
  6
CONTINUOUS
 10
4.2723978003
 20
25.0897456264
 11
4.3160484472
 21
25.1333962733
  0
LINE
  5
2B4
100
AcDbEntity
  8
ASSI
100
AcDbLine
 62
7
  6
CONTINUOUS
 10
-4.1470418545
 20
-17.4666037267
 11
-9.3339515528
 21
-17.4666037267
  0
LINE
  5
2B5
100
AcDbEntity
  8
0
100
AcDbLine
 62
7
  6
CONTINUOUS
 10
2.3660484472
 20
-17.1666037267
 11
-2.6339515528
 21
-17.1666037267
  0
LINE
  5
2B6
100
AcDbEntity
  8
ASSI
100
AcDbLine
 62
7
  6
CONTINUOUS
 10
2.3660484472
 20
-17.1666037267
 11
-2.6339515528
 21
-17.1666037267
  0
LINE
  5
2B7
100
AcDbEntity
  8
RACCORDO
100
AcDbLine
 62
7
  6
CONTINUOUS
 10
-9.5251759429
 20
-17.0796940284
 11
-4.1470418545
 21
-17.0796940284
  0
LINE
  5
2B8
100
AcDbEntity
  8
ASSI
100
AcDbLine
 62
7
  6
CONTINUOUS
 10
-9.5251759429
 20
-17.0796940284
 11
-4.1470418545
 21
-17.0796940284
  0
LINE
  5
2B9
100
AcDbEntity
  8
ASSI
100
AcDbLine
 62
7
  6
CONTINUOUS
 10
-2.6339515528
 20
-17.0666037267
 11
2.3660484472
 21
-17.0666037267
  0
LINE
  5
2BA
100
AcDbEntity
  8
RACCORDO
100
AcDbLine
 62
253
  6
CONTINUOUS
 10
1.6181429005
 20
-16.152352077
 11
1.6686544902
 21
-16.1644577373
  0
LINE
  5
2BB
100
AcDbEntity
  8
0
100
AcDbLine
 62
7
  6
CONTINUOUS
 10
4.3160484472
 20
-22.8666037267
 11
4.2723978003
 21
-22.8229530798
  0
LWPOLYLINE
  5
2BC
100
AcDbEntity
  8
0
100
AcDbPolyline
 62
7
  6
CONTINUOUS
 90
4
 70
0
 10
-10.2839515528
 20
-23.1166079575
 10
-10.2836684026
 20
-23.1285032427
 10
-10.282819587
 20
-23.1403715823
 10
-10.2814070269
 20
-23.1521860928
  0
LWPOLYLINE
  5
2BD
100
AcDbEntity
  8
0
100
AcDbPolyline
 62
7
  6
CONTINUOUS
 90
34
 70
0
 10
-10.2795797188
 20
-23.1122361235
 10
-10.2792960899
 20
-23.1241327824
 10
-10.2784466498
 20
-23.1360025007
 10
-10.277033321
 20
-23.147818383
 10
-10.2750593024
 20
-23.1595536627
 10
-10.2725290654
 20
-23.1711817421
 10
-10.2694483468
 20
-23.1826762531
 10
-10.2658241296
 20
-23.1940111456
 10
-10.2616646253
 20
-23.205160742
 10
-10.256979261
 20
-23.2160997755
 10
-10.2517786534
 20
-23.2268034619
 10
-10.2460745881
 20
-23.2372475471
 10
-10.2398799958
 20
-23.2474083593
 10
-10.2332089157
 20
-23.2572628754
 10
-10.2260764647
 20
-23.2667887696
 10
-10.2184988082
 20
-23.2759644566
 10
-10.210493114
 20
-23.2847691522
 10
-10.2020775278
 20
-23.2931829038
 10
-10.1932711362
 20
-23.3011866353
 10
-10.184093923
 20
-23.3087621962
 10
-10.1745666615
 20
-23.3158924496
 10
-10.1647108768
 20
-23.3225612868
 10
-10.1545488012
 20
-23.3287536492
 10
-10.1441035477
 20
-23.3344554377
 10
-10.1333990129
 20
-23.339653623
 10
-10.1224596118
 20
-23.3443363966
 10
-10.1113099998
 20
-23.348493251
 10
-10.0999752347
 20
-23.3521148608
 10
-10.0884792691
 20
-23.3551934394
 10
-10.0768498338
 20
-23.3577214293
 10
-10.0651183392
 20
-23.3596923753
 10
-10.0533131637
 20
-23.3611023713
 10
-10.0414594211
 20
-23.3619492731
 10
-10.0295839496
 20
-23.3622318927
  0
LWPOLYLINE
  5
2BE
100
AcDbEntity
  8
0
100
AcDbPolyline
 62
7
  6
CONTINUOUS
 90
40
 70
0
 10
-11.2839515528
 20
-20.7663748746
 10
-11.283552707
 20
-20.78650367
 10
-11.2823458791
 20
-20.8065949213
 10
-11.2803331197
 20
-20.8266162997
 10
-11.2775181422
 20
-20.8465316337
 10
-11.2739054955
 20
-20.8663128679
 10
-11.269499199
 20
-20.8859398668
 10
-11.2643049757
 20
-20.9053823829
 10
-11.2583302822
 20
-20.9246070846
 10
-11.2515817372
 20
-20.943589095
 10
-11.2440640685
 20
-20.9623076828
 10
-11.2357912938
 20
-20.9807208179
 10
-11.2267882669
 20
-20.9987733209
 10
-11.2170799989
 20
-21.0164209387
 10
-11.2066757642
 20
-21.0336520874
 10
-11.1955788617
 20
-21.0504614165
 10
-11.1837946394
 20
-21.0668357872
 10
-11.1713508973
 20
-21.0827317372
 10
-11.1582865059
 20
-21.0980999842
 10
-11.1446383925
 20
-21.1129020308
 10
-11.1304171325
 20
-21.1271310898
 10
-11.1156235631
 20
-21.1407864765
 10
-11.1002650374
 20
-21.153857259
 10
-11.0843796228
 20
-21.1663070247
 10
-11.0680151082
 20
-21.1780981736
 10
-11.0512142611
 20
-21.1892031062
 10
-11.0339907327
 20
-21.1996159264
 10
-11.016350067
 20
-21.2093332797
 10
-10.998302822
 20
-21.2183461517
 10
-10.9798941854
 20
-21.2266288519
 10
-10.9611826537
 20
-21.2341554027
 10
-10.9422133124
 20
-21.2409108853
 10
-10.9230041969
 20
-21.2468920619
 10
-10.903574782
 20
-21.2520943886
 10
-10.8839452638
 20
-21.256512312
 10
-10.8641587295
 20
-21.2601360237
 10
-10.84426942
 20
-21.2629576946
 10
-10.8243172964
 20
-21.2649754339
 10
-10.804327452
 20
-21.2661903528
 10
-10.7843321525
 20
-21.2666037267
  0
LINE
  5
2BF
100
AcDbEntity
  8
RACCORDO
100
AcDbLine
 62
7
  6
CONTINUOUS
 10
-11.084452759
 20
2.4005344115
 11
-11.0832744919
 21
2.3416399826
  0
LINE
  5
2C0
100
AcDbEntity
  8
ASSI
100
AcDbLine
 62
7
  6
CONTINUOUS
 10
-11.0844522793
 20
2.4005338202
 11
-11.0832848454
 21
2.3422004553
  0
LINE
  5
2C1
100
AcDbEntity
  8
RACCORDO
100
AcDbLine
 62
7
  6
CONTINUOUS
 10
-11.084452759
 20
7.4005344115
 11
-11.0832744919
 21
7.3416399826
  0
LINE
  5
2C2
100
AcDbEntity
  8
ASSI
100
AcDbLine
 62
7
  6
CONTINUOUS
 10
-11.0844522793
 20
7.4005338202
 11
-11.0832848454
 21
7.3422004553
  0
LINE
  5
2C3
100
AcDbEntity
  8
RACCORDO
100
AcDbLine
 62
7
  6
CONTINUOUS
 10
-11.084452759
 20
12.4005344115
 11
-11.0832744919
 21
12.3416399826
  0
LINE
  5
2C4
100
AcDbEntity
  8
ASSI
100
AcDbLine
 62
7
  6
CONTINUOUS
 10
-11.0844522793
 20
12.4005338202
 11
-11.0832848454
 21
12.3422004553
  0
LINE
  5
2C5
100
AcDbEntity
  8
RACCORDO
100
AcDbLine
 62
7
  6
CONTINUOUS
 10
-11.084452759
 20
17.4005344115
 11
-11.0832744919
 21
17.3416399826
  0
LINE
  5
2C6
100
AcDbEntity
  8
ASSI
100
AcDbLine
 62
7
  6
CONTINUOUS
 10
-11.0844522793
 20
17.4005338202
 11
-11.0832848454
 21
17.3422004553
  0
LINE
  5
2C7
100
AcDbEntity
  8
ASSI
100
AcDbLine
 62
7
  6
CONTINUOUS
 10
-11.0832848454
 20
2.3422004553
 11
-11.0821218903
 21
2.2741112051
  0
LINE
  5
2C8
100
AcDbEntity
  8
RACCORDO
100
AcDbLine
 62
7
  6
CONTINUOUS
 10
-11.0832744919
 20
2.3416399826
 11
-11.0821517582
 21
2.2759947656
  0
LINE
  5
2C9
100
AcDbEntity
  8
ASSI
100
AcDbLine
 62
7
  6
CONTINUOUS
 10
-11.0832848454
 20
7.3422004553
 11
-11.0821218903
 21
7.2741112051
  0
LINE
  5
2CA
100
AcDbEntity
  8
RACCORDO
100
AcDbLine
 62
7
  6
CONTINUOUS
 10
-11.0832744919
 20
7.3416399826
 11
-11.0821517582
 21
7.2759947656
  0
LINE
  5
2CB
100
AcDbEntity
  8
ASSI
100
AcDbLine
 62
7
  6
CONTINUOUS
 10
-11.0832848454
 20
12.3422004553
 11
-11.0821218903
 21
12.2741112051
  0
LINE
  5
2CC
100
AcDbEntity
  8
RACCORDO
100
AcDbLine
 62
7
  6
CONTINUOUS
 10
-11.0832744919
 20
12.3416399826
 11
-11.0821517582
 21
12.2759947656
  0
LINE
  5
2CD
100
AcDbEntity
  8
ASSI
100
AcDbLine
 62
7
  6
CONTINUOUS
 10
-11.0832848454
 20
17.3422004553
 11
-11.0821218903
 21
17.2741112051
  0
LINE
  5
2CE
100
AcDbEntity
  8
RACCORDO
100
AcDbLine
 62
7
  6
CONTINUOUS
 10
-11.0832744919
 20
17.3416399826
 11
-11.0821517582
 21
17.2759947656
  0
LINE
  5
2CF
100
AcDbEntity
  8
RACCORDO
100
AcDbLine
 62
7
  6
CONTINUOUS
 10
-11.0821517582
 20
2.2759947656
 11
-11.0810344303
 21
2.2003308694
  0
LINE
  5
2D0
100
AcDbEntity
  8
RACCORDO
100
AcDbLine
 62
7
  6
CONTINUOUS
 10
-11.0821517582
 20
7.2759947656
 11
-11.0810344303
 21
7.2003308694
  0
LINE
  5
2D1
100
AcDbEntity
  8
RACCORDO
100
AcDbLine
 62
7
  6
CONTINUOUS
 10
-11.0821517582
 20
12.2759947656
 11
-11.0810344303
 21
12.2003308694
  0
LINE
  5
2D2
100
AcDbEntity
  8
RACCORDO
100
AcDbLine
 62
7
  6
CONTINUOUS
 10
-11.0821517582
 20
17.2759947656
 11
-11.0810344303
 21
17.2003308694
  0
LINE
  5
2D3
100
AcDbEntity
  8
ASSI
100
AcDbLine
 62
7
  6
CONTINUOUS
 10
-11.0821218903
 20
2.2741112051
 11
-11.0809642649
 21
2.195211514
  0
LINE
  5
2D4
100
AcDbEntity
  8
ASSI
100
AcDbLine
 62
7
  6
CONTINUOUS
 10
-11.0821218903
 20
7.2741112051
 11
-11.0809642649
 21
7.195211514
  0
LINE
  5
2D5
100
AcDbEntity
  8
ASSI
100
AcDbLine
 62
7
  6
CONTINUOUS
 10
-11.0821218903
 20
12.2741112051
 11
-11.0809642649
 21
12.195211514
  0
LINE
  5
2D6
100
AcDbEntity
  8
ASSI
100
AcDbLine
 62
7
  6
CONTINUOUS
 10
-11.0821218903
 20
17.2741112051
 11
-11.0809642649
 21
17.195211514
  0
LINE
  5
2D7
100
AcDbEntity
  8
RACCORDO
100
AcDbLine
 62
7
  6
CONTINUOUS
 10
-11.0810344303
 20
2.2003308694
 11
-11.0797124379
 21
2.0962444548
  0
LINE
  5
2D8
100
AcDbEntity
  8
RACCORDO
100
AcDbLine
 62
7
  6
CONTINUOUS
 10
-11.0810344303
 20
7.2003308694
 11
-11.0797124379
 21
7.0962444548
  0
LINE
  5
2D9
100
AcDbEntity
  8
RACCORDO
100
AcDbLine
 62
7
  6
CONTINUOUS
 10
-11.0810344303
 20
12.2003308694
 11
-11.0797124379
 21
12.0962444548
  0
LINE
  5
2DA
100
AcDbEntity
  8
RACCORDO
100
AcDbLine
 62
7
  6
CONTINUOUS
 10
-11.0810344303
 20
17.2003308694
 11
-11.0797124379
 21
17.0962444548
  0
LINE
  5
2DB
100
AcDbEntity
  8
ASSI
100
AcDbLine
 62
7
  6
CONTINUOUS
 10
-11.0809642649
 20
2.195211514
 11
-11.0795947264
 21
2.0861672684
  0
LINE
  5
2DC
100
AcDbEntity
  8
ASSI
100
AcDbLine
 62
7
  6
CONTINUOUS
 10
-11.0809642649
 20
7.195211514
 11
-11.0795947264
 21
7.0861672684
  0
LINE
  5
2DD
100
AcDbEntity
  8
ASSI
100
AcDbLine
 62
7
  6
CONTINUOUS
 10
-11.0809642649
 20
12.195211514
 11
-11.0795947264
 21
12.0861672684
  0
LINE
  5
2DE
100
AcDbEntity
  8
ASSI
100
AcDbLine
 62
7
  6
CONTINUOUS
 10
-11.0809642649
 20
17.195211514
 11
-11.0795947264
 21
17.0861672684
  0
LINE
  5
2DF
100
AcDbEntity
  8
RACCORDO
100
AcDbLine
 62
7
  6
CONTINUOUS
 10
-11.0797124379
 20
2.0962444548
 11
-11.0784256509
 21
1.9777395199
  0
LINE
  5
2E0
100
AcDbEntity
  8
ASSI
100
AcDbLine
 62
7
  6
CONTINUOUS
 10
-11.0795947264
 20
2.0861672684
 11
-11.0784824636
 21
1.9833878325
  0
LINE
  5
2E1
100
AcDbEntity
  8
RACCORDO
100
AcDbLine
 62
7
  6
CONTINUOUS
 10
-11.0797124379
 20
7.0962444548
 11
-11.0784256509
 21
6.9777395199
  0
LINE
  5
2E2
100
AcDbEntity
  8
ASSI
100
AcDbLine
 62
7
  6
CONTINUOUS
 10
-11.0795947264
 20
7.0861672684
 11
-11.0784824636
 21
6.9833878325
  0
LINE
  5
2E3
100
AcDbEntity
  8
RACCORDO
100
AcDbLine
 62
7
  6
CONTINUOUS
 10
-11.0797124379
 20
12.0962444548
 11
-11.0784256509
 21
11.9777395199
  0
LINE
  5
2E4
100
AcDbEntity
  8
ASSI
100
AcDbLine
 62
7
  6
CONTINUOUS
 10
-11.0795947264
 20
12.0861672684
 11
-11.0784824636
 21
11.9833878325
  0
LINE
  5
2E5
100
AcDbEntity
  8
RACCORDO
100
AcDbLine
 62
7
  6
CONTINUOUS
 10
-11.0797124379
 20
17.0962444548
 11
-11.0784256509
 21
16.9777395199
  0
LINE
  5
2E6
100
AcDbEntity
  8
ASSI
100
AcDbLine
 62
7
  6
CONTINUOUS
 10
-11.0795947264
 20
17.0861672684
 11
-11.0784824636
 21
16.9833878325
  0
LINE
  5
2E7
100
AcDbEntity
  8
0
100
AcDbLine
 62
253
  6
CONTINUOUS
 10
-10.2795797188
 20
-22.710941294
 11
-10.2839515528
 21
-22.2770888749
  0
LINE
  5
2E8
100
AcDbEntity
  8
0
100
AcDbLine
 62
253
  6
CONTINUOUS
 10
-10.0295839496
 20
-22.4944349431
 11
-10.0346745507
 21
-21.9892534575
  0
LINE
  5
2E9
100
AcDbEntity
  8
RACCORDO
100
AcDbLine
 62
7
  6
CONTINUOUS
 10
-11.0784256509
 20
1.9777395199
 11
-11.0771983452
 21
1.844831486
  0
LINE
  5
2EA
100
AcDbEntity
  8
ASSI
100
AcDbLine
 62
7
  6
CONTINUOUS
 10
-11.0784824636
 20
1.9833878325
 11
-11.0772066035
 21
1.8457999449
  0
LINE
  5
2EB
100
AcDbEntity
  8
RACCORDO
100
AcDbLine
 62
7
  6
CONTINUOUS
 10
-11.0784256509
 20
6.9777395199
 11
-11.0771983452
 21
6.844831486
  0
LINE
  5
2EC
100
AcDbEntity
  8
ASSI
100
AcDbLine
 62
7
  6
CONTINUOUS
 10
-11.0784824636
 20
6.9833878325
 11
-11.0772066035
 21
6.8457999449
  0
LINE
  5
2ED
100
AcDbEntity
  8
RACCORDO
100
AcDbLine
 62
7
  6
CONTINUOUS
 10
-11.0784256509
 20
11.9777395199
 11
-11.0771983452
 21
11.844831486
  0
LINE
  5
2EE
100
AcDbEntity
  8
ASSI
100
AcDbLine
 62
7
  6
CONTINUOUS
 10
-11.0784824636
 20
11.9833878325
 11
-11.0772066035
 21
11.8457999449
  0
LINE
  5
2EF
100
AcDbEntity
  8
RACCORDO
100
AcDbLine
 62
7
  6
CONTINUOUS
 10
-11.0784256509
 20
16.9777395199
 11
-11.0771983452
 21
16.844831486
  0
LINE
  5
2F0
100
AcDbEntity
  8
ASSI
100
AcDbLine
 62
7
  6
CONTINUOUS
 10
-11.0784824636
 20
16.9833878325
 11
-11.0772066035
 21
16.8457999449
  0
LINE
  5
2F1
100
AcDbEntity
  8
ASSI
100
AcDbLine
 62
7
  6
CONTINUOUS
 10
-11.0772066035
 20
1.8457999449
 11
-11.0760031814
 21
1.6928526392
  0
LINE
  5
2F2
100
AcDbEntity
  8
RACCORDO
100
AcDbLine
 62
7
  6
CONTINUOUS
 10
-11.0771983452
 20
1.844831486
 11
-11.0760380452
 21
1.6976533354
  0
LINE
  5
2F3
100
AcDbEntity
  8
ASSI
100
AcDbLine
 62
7
  6
CONTINUOUS
 10
-11.0772066035
 20
6.8457999449
 11
-11.0760031814
 21
6.6928526392
  0
LINE
  5
2F4
100
AcDbEntity
  8
RACCORDO
100
AcDbLine
 62
7
  6
CONTINUOUS
 10
-11.0771983452
 20
6.844831486
 11
-11.0760380452
 21
6.6976533354
  0
LINE
  5
2F5
100
AcDbEntity
  8
ASSI
100
AcDbLine
 62
7
  6
CONTINUOUS
 10
-11.0772066035
 20
11.8457999449
 11
-11.0760031814
 21
11.6928526392
  0
LINE
  5
2F6
100
AcDbEntity
  8
RACCORDO
100
AcDbLine
 62
7
  6
CONTINUOUS
 10
-11.0771983452
 20
11.844831486
 11
-11.0760380452
 21
11.6976533354
  0
LINE
  5
2F7
100
AcDbEntity
  8
ASSI
100
AcDbLine
 62
7
  6
CONTINUOUS
 10
-11.0772066035
 20
16.8457999449
 11
-11.0760031814
 21
16.6928526392
  0
LINE
  5
2F8
100
AcDbEntity
  8
RACCORDO
100
AcDbLine
 62
7
  6
CONTINUOUS
 10
-11.0771983452
 20
16.844831486
 11
-11.0760380452
 21
16.6976533354
  0
LINE
  5
2F9
100
AcDbEntity
  8
ASSI
100
AcDbLine
 62
7
  6
CONTINUOUS
 10
-11.0760031814
 20
1.6928526392
 11
-11.0748934936
 21
1.5250480413
  0
LINE
  5
2FA
100
AcDbEntity
  8
RACCORDO
100
AcDbLine
 62
7
  6
CONTINUOUS
 10
-11.0760380452
 20
1.6976533354
 11
-11.074963437
 21
1.536595926
  0
LINE
  5
2FB
100
AcDbEntity
  8
ASSI
100
AcDbLine
 62
7
  6
CONTINUOUS
 10
-11.0760031814
 20
6.6928526392
 11
-11.0748934936
 21
6.5250480413
  0
LINE
  5
2FC
100
AcDbEntity
  8
RACCORDO
100
AcDbLine
 62
7
  6
CONTINUOUS
 10
-11.0760380452
 20
6.6976533354
 11
-11.074963437
 21
6.536595926
  0
LINE
  5
2FD
100
AcDbEntity
  8
ASSI
100
AcDbLine
 62
7
  6
CONTINUOUS
 10
-11.0760031814
 20
11.6928526392
 11
-11.0748934936
 21
11.5250480413
  0
LINE
  5
2FE
100
AcDbEntity
  8
RACCORDO
100
AcDbLine
 62
7
  6
CONTINUOUS
 10
-11.0760380452
 20
11.6976533354
 11
-11.074963437
 21
11.536595926
  0
LINE
  5
2FF
100
AcDbEntity
  8
ASSI
100
AcDbLine
 62
7
  6
CONTINUOUS
 10
-11.0760031814
 20
16.6928526392
 11
-11.0748934936
 21
16.5250480413
  0
LINE
  5
300
100
AcDbEntity
  8
RACCORDO
100
AcDbLine
 62
7
  6
CONTINUOUS
 10
-11.0760380452
 20
16.6976533354
 11
-11.074963437
 21
16.536595926
  0
LINE
  5
301
100
AcDbEntity
  8
ASSI
100
AcDbLine
 62
7
  6
CONTINUOUS
 10
-11.0748934936
 20
1.5250480413
 11
-11.0738983697
 21
1.3431150643
  0
LINE
  5
302
100
AcDbEntity
  8
RACCORDO
100
AcDbLine
 62
7
  6
CONTINUOUS
 10
-11.074963437
 20
1.536595926
 11
-11.0739943849
 21
1.3622340296
  0
LINE
  5
303
100
AcDbEntity
  8
ASSI
100
AcDbLine
 62
7
  6
CONTINUOUS
 10
-11.0748934936
 20
6.5250480413
 11
-11.0738983697
 21
6.3431150643
  0
LINE
  5
304
100
AcDbEntity
  8
RACCORDO
100
AcDbLine
 62
7
  6
CONTINUOUS
 10
-11.074963437
 20
6.536595926
 11
-11.0739943849
 21
6.3622340296
  0
LINE
  5
305
100
AcDbEntity
  8
ASSI
100
AcDbLine
 62
7
  6
CONTINUOUS
 10
-11.0748934936
 20
11.5250480413
 11
-11.0738983697
 21
11.3431150643
  0
LINE
  5
306
100
AcDbEntity
  8
RACCORDO
100
AcDbLine
 62
7
  6
CONTINUOUS
 10
-11.074963437
 20
11.536595926
 11
-11.0739943849
 21
11.3622340296
  0
LINE
  5
307
100
AcDbEntity
  8
ASSI
100
AcDbLine
 62
7
  6
CONTINUOUS
 10
-11.0748934936
 20
16.5250480413
 11
-11.0738983697
 21
16.3431150643
  0
LINE
  5
308
100
AcDbEntity
  8
RACCORDO
100
AcDbLine
 62
7
  6
CONTINUOUS
 10
-11.074963437
 20
16.536595926
 11
-11.0739943849
 21
16.3622340296
  0
LINE
  5
309
100
AcDbEntity
  8
RACCORDO
100
AcDbLine
 62
7
  6
CONTINUOUS
 10
-11.0739943849
 20
6.3622340296
 11
-11.0731361421
 21
6.1753502229
  0
LINE
  5
30A
100
AcDbEntity
  8
RACCORDO
100
AcDbLine
 62
7
  6
CONTINUOUS
 10
-11.0739943849
 20
11.3622340296
 11
-11.0731361421
 21
11.1753502229
  0
LINE
  5
30B
100
AcDbEntity
  8
RACCORDO
100
AcDbLine
 62
7
  6
CONTINUOUS
 10
-11.0739943849
 20
16.3622340296
 11
-11.0731361421
 21
16.1753502229
  0
LINE
  5
30C
100
AcDbEntity
  8
ASSI
100
AcDbLine
 62
7
  6
CONTINUOUS
 10
-11.0738983697
 20
1.3431150643
 11
-11.0730256195
 21
1.14804198
  0
LINE
  5
30D
100
AcDbEntity
  8
ASSI
100
AcDbLine
 62
7
  6
CONTINUOUS
 10
-11.0738983697
 20
6.3431150643
 11
-11.0730256195
 21
6.14804198
  0
LINE
  5
30E
100
AcDbEntity
  8
ASSI
100
AcDbLine
 62
7
  6
CONTINUOUS
 10
-11.0738983697
 20
11.3431150643
 11
-11.0730256195
 21
11.14804198
  0
LINE
  5
30F
100
AcDbEntity
  8
ASSI
100
AcDbLine
 62
7
  6
CONTINUOUS
 10
-11.0738983697
 20
16.3431150643
 11
-11.0730256195
 21
16.14804198
  0
LINE
  5
310
100
AcDbEntity
  8
RACCORDO
100
AcDbLine
 62
7
  6
CONTINUOUS
 10
-11.0739943849
 20
1.3622340296
 11
-11.0728795032
 21
1.1104483365
  0
LINE
  5
311
100
AcDbEntity
  8
ASSI
100
AcDbLine
 62
7
  6
CONTINUOUS
 10
-11.0730256195
 20
1.14804198
 11
-11.0723030196
 21
0.9411175658
  0
LINE
  5
312
100
AcDbEntity
  8
RACCORDO
100
AcDbLine
 62
7
  6
CONTINUOUS
 10
-11.0731361421
 20
6.1753502229
 11
-11.0724146024
 21
5.9769927111
  0
LINE
  5
313
100
AcDbEntity
  8
RACCORDO
100
AcDbLine
 62
7
  6
CONTINUOUS
 10
-11.0731361421
 20
11.1753502229
 11
-11.0724146024
 21
10.9769927111
  0
LINE
  5
314
100
AcDbEntity
  8
RACCORDO
100
AcDbLine
 62
7
  6
CONTINUOUS
 10
-11.0731361421
 20
16.1753502229
 11
-11.0724146024
 21
15.9769927111
  0
LINE
  5
315
100
AcDbEntity
  8
RACCORDO
100
AcDbLine
 62
7
  6
CONTINUOUS
 10
-11.0728795032
 20
1.1104483365
 11
-11.0722061803
 21
0.9085291474
  0
LINE
  5
316
100
AcDbEntity
  8
ASSI
100
AcDbLine
 62
7
  6
CONTINUOUS
 10
-11.0730256195
 20
6.14804198
 11
-11.0721976191
 21
5.9055791629
  0
LINE
  5
317
100
AcDbEntity
  8
ASSI
100
AcDbLine
 62
7
  6
CONTINUOUS
 10
-11.0730256195
 20
11.14804198
 11
-11.0721976191
 21
10.905579163
  0
LINE
  5
318
100
AcDbEntity
  8
ASSI
100
AcDbLine
 62
7
  6
CONTINUOUS
 10
-11.0730256195
 20
16.14804198
 11
-11.0721976191
 21
15.905579163
  0
LINE
  5
319
100
AcDbEntity
  8
RACCORDO
100
AcDbLine
 62
7
  6
CONTINUOUS
 10
-11.0724146024
 20
5.9769927111
 11
-11.0718365161
 21
5.7684582981
  0
LINE
  5
31A
100
AcDbEntity
  8
RACCORDO
100
AcDbLine
 62
7
  6
CONTINUOUS
 10
-11.0724146024
 20
10.9769927111
 11
-11.0718365161
 21
10.7684582981
  0
LINE
  5
31B
100
AcDbEntity
  8
RACCORDO
100
AcDbLine
 62
7
  6
CONTINUOUS
 10
-11.0724146024
 20
15.9769927111
 11
-11.0718365161
 21
15.7684582981
  0
LINE
  5
31C
100
AcDbEntity
  8
ASSI
100
AcDbLine
 62
7
  6
CONTINUOUS
 10
-11.0723030196
 20
0.9411175658
 11
-11.0717353036
 21
0.7239667211
  0
LINE
  5
31D
100
AcDbEntity
  8
RACCORDO
100
AcDbLine
 62
7
  6
CONTINUOUS
 10
-11.0722061803
 20
0.9085291474
 11
-11.0716779161
 21
0.6970360487
  0
LINE
  5
31E
100
AcDbEntity
  8
ASSI
100
AcDbLine
 62
7
  6
CONTINUOUS
 10
-11.0721976191
 20
5.9055791629
 11
-11.0716571912
 21
5.6869569579
  0
LINE
  5
31F
100
AcDbEntity
  8
ASSI
100
AcDbLine
 62
7
  6
CONTINUOUS
 10
-11.0721976191
 20
10.905579163
 11
-11.0716571912
 21
10.6869569579
  0
LINE
  5
320
100
AcDbEntity
  8
ASSI
100
AcDbLine
 62
7
  6
CONTINUOUS
 10
-11.0721976191
 20
15.905579163
 11
-11.0716571912
 21
15.6869569579
  0
LINE
  5
321
100
AcDbEntity
  8
RACCORDO
100
AcDbLine
 62
7
  6
CONTINUOUS
 10
-11.0718365161
 20
5.7684582981
 11
-11.0714187992
 21
5.5519653384
  0
LINE
  5
322
100
AcDbEntity
  8
RACCORDO
100
AcDbLine
 62
7
  6
CONTINUOUS
 10
-11.0718365161
 20
10.7684582981
 11
-11.0714187992
 21
10.5519653384
  0
LINE
  5
323
100
AcDbEntity
  8
RACCORDO
100
AcDbLine
 62
7
  6
CONTINUOUS
 10
-11.0718365161
 20
15.7684582981
 11
-11.0714187992
 21
15.5519653384
  0
LINE
  5
324
100
AcDbEntity
  8
ASSI
100
AcDbLine
 62
7
  6
CONTINUOUS
 10
-11.0717353036
 20
0.7239667211
 11
-11.071345023
 21
0.4992528471
  0
LINE
  5
325
100
AcDbEntity
  8
RACCORDO
100
AcDbLine
 62
7
  6
CONTINUOUS
 10
-11.0716779161
 20
0.6970360487
 11
-11.0713188723
 21
0.4785328602
  0
LINE
  5
326
100
AcDbEntity
  8
ASSI
100
AcDbLine
 62
7
  6
CONTINUOUS
 10
-11.0716571912
 20
5.6869569579
 11
-11.0712983075
 21
5.4612918771
  0
LINE
  5
327
100
AcDbEntity
  8
ASSI
100
AcDbLine
 62
7
  6
CONTINUOUS
 10
-11.0716571912
 20
10.6869569579
 11
-11.0712983075
 21
10.4612918771
  0
LINE
  5
328
100
AcDbEntity
  8
ASSI
100
AcDbLine
 62
7
  6
CONTINUOUS
 10
-11.0716571912
 20
15.6869569579
 11
-11.0712983075
 21
15.4612918771
  0
LINE
  5
329
100
AcDbEntity
  8
RACCORDO
100
AcDbLine
 62
7
  6
CONTINUOUS
 10
-11.0714187992
 20
5.5519653384
 11
-11.0711756748
 21
5.3304569917
  0
LINE
  5
32A
100
AcDbEntity
  8
RACCORDO
100
AcDbLine
 62
7
  6
CONTINUOUS
 10
-11.0714187992
 20
10.5519653384
 11
-11.0711756748
 21
10.3304569917
  0
LINE
  5
32B
100
AcDbEntity
  8
RACCORDO
100
AcDbLine
 62
7
  6
CONTINUOUS
 10
-11.0714187992
 20
15.5519653384
 11
-11.0711756748
 21
15.3304569917
  0
LINE
  5
32C
100
AcDbEntity
  8
ASSI
100
AcDbLine
 62
7
  6
CONTINUOUS
 10
-11.071345023
 20
0.4992528471
 11
-11.0711386906
 21
0.270213005
  0
LINE
  5
32D
100
AcDbEntity
  8
RACCORDO
100
AcDbLine
 62
7
  6
CONTINUOUS
 10
-11.0713188723
 20
0.4785328602
 11
-11.0711318548
 21
0.2560411748
  0
LINE
  5
32E
100
AcDbEntity
  8
ASSI
100
AcDbLine
 62
7
  6
CONTINUOUS
 10
-11.0712983075
 20
5.4612918771
 11
-11.0711218653
 21
5.2318583642
  0
LINE
  5
32F
100
AcDbEntity
  8
ASSI
100
AcDbLine
 62
7
  6
CONTINUOUS
 10
-11.0712983075
 20
10.4612918771
 11
-11.0711218653
 21
10.2318583642
  0
LINE
  5
330
100
AcDbEntity
  8
ASSI
100
AcDbLine
 62
7
  6
CONTINUOUS
 10
-11.0712983075
 20
15.4612918771
 11
-11.0711218653
 21
15.2318583642
  0
LINE
  5
331
100
AcDbEntity
  8
0
100
AcDbLine
 62
7
  6
CONTINUOUS
 10
-11.2839515528
 20
23.0334131963
 11
-11.2839515528
 21
18.805095322
  0
LINE
  5
332
100
AcDbEntity
  8
RACCORDO
100
AcDbLine
 62
7
  6
CONTINUOUS
 10
-11.2839515528
 20
18.805095322
 11
-11.2839515528
 21
-16.5383027754
  0
LINE
  5
333
100
AcDbEntity
  8
0
100
AcDbLine
 62
7
  6
CONTINUOUS
 10
-11.2839515528
 20
-16.5383027754
 11
-11.2839515528
 21
-20.7666206497
  0
LINE
  5
334
100
AcDbEntity
  8
0
100
AcDbLine
 62
7
  6
CONTINUOUS
 10
-11.275224685
 20
23.0275953665
 11
-11.275224685
 21
19.6421231411
  0
LINE
  5
335
100
AcDbEntity
  8
0
100
AcDbLine
 62
7
  6
CONTINUOUS
 10
-11.275224685
 20
-17.3753305945
 11
-11.275224685
 21
-20.7608028199
  0
LINE
  5
336
100
AcDbEntity
  8
0
100
AcDbLine
 62
7
  6
CONTINUOUS
 10
-11.2664978172
 20
19.6508500089
 11
-11.2664978172
 21
19.0526856856
  0
LINE
  5
337
100
AcDbEntity
  8
0
100
AcDbLine
 62
7
  6
CONTINUOUS
 10
-11.2664978172
 20
-16.785893139
 11
-11.2664978172
 21
-17.3840574623
  0
LINE
  5
338
100
AcDbEntity
  8
RACCORDO
100
AcDbLine
 62
7
  6
CONTINUOUS
 10
-11.1617660983
 20
18.7544844496
 11
-11.1617660983
 21
-16.487691903
  0
LINE
  5
339
100
AcDbEntity
  8
RACCORDO
100
AcDbLine
 62
7
  6
CONTINUOUS
 10
-11.1470418545
 20
17.7246206634
 11
-11.1470418545
 21
17.5833962733
  0
LINE
  5
33A
100
AcDbEntity
  8
ASSI
100
AcDbLine
 62
7
  6
CONTINUOUS
 10
-11.1470418545
 20
17.7246206634
 11
-11.1470418545
 21
17.5833962733
  0
LINE
  5
33B
100
AcDbEntity
  8
RACCORDO
100
AcDbLine
 62
7
  6
CONTINUOUS
 10
-11.1470418545
 20
12.6833962733
 11
-11.1470418545
 21
12.5833962733
  0
LINE
  5
33C
100
AcDbEntity
  8
ASSI
100
AcDbLine
 62
7
  6
CONTINUOUS
 10
-11.1470418545
 20
12.6833962733
 11
-11.1470418545
 21
12.5833962733
  0
LINE
  5
33D
100
AcDbEntity
  8
RACCORDO
100
AcDbLine
 62
7
  6
CONTINUOUS
 10
-11.1470418545
 20
7.6833962733
 11
-11.1470418545
 21
7.5833962733
  0
LINE
  5
33E
100
AcDbEntity
  8
ASSI
100
AcDbLine
 62
7
  6
CONTINUOUS
 10
-11.1470418545
 20
7.6833962733
 11
-11.1470418545
 21
7.5833962733
  0
LINE
  5
33F
100
AcDbEntity
  8
RACCORDO
100
AcDbLine
 62
7
  6
CONTINUOUS
 10
-11.1470418545
 20
2.6833962733
 11
-11.1470418545
 21
2.5833962733
  0
LINE
  5
340
100
AcDbEntity
  8
ASSI
100
AcDbLine
 62
7
  6
CONTINUOUS
 10
-11.1470418545
 20
2.6833962733
 11
-11.1470418545
 21
2.5833962733
  0
LINE
  5
341
100
AcDbEntity
  8
RACCORDO
100
AcDbLine
 62
7
  6
CONTINUOUS
 10
-11.1470418545
 20
-2.3166037267
 11
-11.1470418545
 21
-15.4578281168
  0
LINE
  5
342
100
AcDbEntity
  8
ASSI
100
AcDbLine
 62
7
  6
CONTINUOUS
 10
-11.1470418545
 20
-2.3166037267
 11
-11.1470418545
 21
-15.4578281168
  0
LINE
  5
343
100
AcDbEntity
  8
ASSI
100
AcDbLine
 62
7
  6
CONTINUOUS
 10
-11.1339515528
 20
17.4966241683
 11
-11.1339515528
 21
12.7701683783
  0
LINE
  5
344
100
AcDbEntity
  8
ASSI
100
AcDbLine
 62
7
  6
CONTINUOUS
 10
-11.1339515528
 20
12.4966241683
 11
-11.1339515528
 21
7.7701683783
  0
LINE
  5
345
100
AcDbEntity
  8
ASSI
100
AcDbLine
 62
7
  6
CONTINUOUS
 10
-11.1339515528
 20
7.4966241683
 11
-11.1339515528
 21
2.7701683783
  0
LINE
  5
346
100
AcDbEntity
  8
ASSI
100
AcDbLine
 62
7
  6
CONTINUOUS
 10
-11.1339515528
 20
2.4966241683
 11
-11.1339515528
 21
-2.2298316217
  0
LINE
  5
347
100
AcDbEntity
  8
0
100
AcDbLine
 62
7
  6
CONTINUOUS
 10
-10.2839515528
 20
-21.2666037267
 11
-10.2839515528
 21
-22.710941294
  0
LINE
  5
348
100
AcDbEntity
  8
0
100
AcDbLine
 62
7
  6
CONTINUOUS
 10
-10.2839515528
 20
23.5333962733
 11
-10.2839515528
 21
24.9777338406
  0
LINE
  5
349
100
AcDbEntity
  8
0
100
AcDbLine
 62
7
  6
CONTINUOUS
 10
-10.2795797188
 20
25.3790286701
 11
-10.2795797188
 21
24.9777338406
  0
LINE
  5
34A
100
AcDbEntity
  8
0
100
AcDbLine
 62
7
  6
CONTINUOUS
 10
-10.2795797188
 20
-22.710941294
 11
-10.2795797188
 21
-23.1122361235
  0
LINE
  5
34B
100
AcDbEntity
  8
RACCORDO
100
AcDbLine
 62
7
  6
CONTINUOUS
 10
-11.0711756748
 20
15.3304569917
 11
-11.071110801
 21
15.06987041
  0
LINE
  5
34C
100
AcDbEntity
  8
RACCORDO
100
AcDbLine
 62
7
  6
CONTINUOUS
 10
-11.0711756748
 20
10.3304569917
 11
-11.071110801
 21
10.06987041
  0
LINE
  5
34D
100
AcDbEntity
  8
RACCORDO
100
AcDbLine
 62
7
  6
CONTINUOUS
 10
-11.0711756748
 20
5.3304569917
 11
-11.071110801
 21
5.06987041
  0
LINE
  5
34E
100
AcDbEntity
  8
ASSI
100
AcDbLine
 62
7
  6
CONTINUOUS
 10
-11.0711386906
 20
0.270213005
 11
-11.0711193999
 21
0.0402434101
  0
LINE
  5
34F
100
AcDbEntity
  8
RACCORDO
100
AcDbLine
 62
7
  6
CONTINUOUS
 10
-11.0711318548
 20
0.2560411748
 11
-11.0711221015
 21
0.0327262025
  0
LINE
  5
350
100
AcDbEntity
  8
ASSI
100
AcDbLine
 62
7
  6
CONTINUOUS
 10
-11.0711218653
 20
15.2318583642
 11
-11.0711352839
 21
15.0020687567
  0
LINE
  5
351
100
AcDbEntity
  8
ASSI
100
AcDbLine
 62
7
  6
CONTINUOUS
 10
-11.0711218653
 20
10.2318583642
 11
-11.0711352839
 21
10.0020687567
  0
LINE
  5
352
100
AcDbEntity
  8
ASSI
100
AcDbLine
 62
7
  6
CONTINUOUS
 10
-11.0711218653
 20
5.2318583642
 11
-11.0711352839
 21
5.0020687567
  0
LINE
  5
353
100
AcDbEntity
  8
RACCORDO
100
AcDbLine
 62
7
  6
CONTINUOUS
 10
-11.071110801
 20
15.06987041
 11
-11.0712520727
 21
14.8483139898
  0
LINE
  5
354
100
AcDbEntity
  8
RACCORDO
100
AcDbLine
 62
7
  6
CONTINUOUS
 10
-11.071110801
 20
10.06987041
 11
-11.0712520727
 21
9.8483139898
  0
LINE
  5
355
100
AcDbEntity
  8
RACCORDO
100
AcDbLine
 62
7
  6
CONTINUOUS
 10
-11.071110801
 20
5.06987041
 11
-11.0712520727
 21
4.8483139898
  0
LINE
  5
356
100
AcDbEntity
  8
ASSI
100
AcDbLine
 62
7
  6
CONTINUOUS
 10
-11.0711193999
 20
0.0402434101
 11
-11.0712904956
 21
-0.1872246739
  0
LINE
  5
357
100
AcDbEntity
  8
RACCORDO
100
AcDbLine
 62
7
  6
CONTINUOUS
 10
-11.0711221015
 20
0.0327262025
 11
-11.071291628
 21
-0.1882154077
  0
LINE
  5
358
100
AcDbEntity
  8
ASSI
100
AcDbLine
 62
7
  6
CONTINUOUS
 10
-11.0711352839
 20
15.0020687567
 11
-11.0713356612
 21
14.7753451369
  0
LINE
  5
359
100
AcDbEntity
  8
ASSI
100
AcDbLine
 62
7
  6
CONTINUOUS
 10
-11.0711352839
 20
10.0020687567
 11
-11.0713356612
 21
9.7753451369
  0
LINE
  5
35A
100
AcDbEntity
  8
ASSI
100
AcDbLine
 62
7
  6
CONTINUOUS
 10
-11.0711352839
 20
5.0020687567
 11
-11.0713356612
 21
4.7753451369
  0
LINE
  5
35B
100
AcDbEntity
  8
RACCORDO
100
AcDbLine
 62
7
  6
CONTINUOUS
 10
-11.0712520727
 20
14.8483139898
 11
-11.0715571227
 21
14.6317188456
  0
LINE
  5
35C
100
AcDbEntity
  8
RACCORDO
100
AcDbLine
 62
7
  6
CONTINUOUS
 10
-11.0712520727
 20
9.8483139898
 11
-11.0715571227
 21
9.6317188456
  0
LINE
  5
35D
100
AcDbEntity
  8
RACCORDO
100
AcDbLine
 62
7
  6
CONTINUOUS
 10
-11.0712520727
 20
4.8483139898
 11
-11.0715571227
 21
4.6317188456
  0
LINE
  5
35E
100
AcDbEntity
  8
RACCORDO
100
AcDbLine
 62
7
  6
CONTINUOUS
 10
-11.071291628
 20
-0.1882154077
 11
-11.0716241012
 21
-0.4036941958
  0
LINE
  5
35F
100
AcDbEntity
  8
ASSI
100
AcDbLine
 62
7
  6
CONTINUOUS
 10
-11.0712904956
 20
-0.1872246739
 11
-11.0716343321
 21
-0.4088795525
  0
LINE
  5
360
100
AcDbEntity
  8
ASSI
100
AcDbLine
 62
7
  6
CONTINUOUS
 10
-11.0713356612
 20
14.7753451369
 11
-11.071708699
 21
14.5549644229
  0
LINE
  5
361
100
AcDbEntity
  8
ASSI
100
AcDbLine
 62
7
  6
CONTINUOUS
 10
-11.0713356612
 20
9.7753451369
 11
-11.071708699
 21
9.5549644229
  0
LINE
  5
362
100
AcDbEntity
  8
ASSI
100
AcDbLine
 62
7
  6
CONTINUOUS
 10
-11.0713356612
 20
4.7753451369
 11
-11.071708699
 21
4.5549644229
  0
LINE
  5
363
100
AcDbEntity
  8
RACCORDO
100
AcDbLine
 62
7
  6
CONTINUOUS
 10
-11.0715571227
 20
14.6317188456
 11
-11.0720253142
 21
14.4229916546
  0
LINE
  5
364
100
AcDbEntity
  8
RACCORDO
100
AcDbLine
 62
7
  6
CONTINUOUS
 10
-11.0715571227
 20
9.6317188456
 11
-11.0720253142
 21
9.4229916546
  0
LINE
  5
365
100
AcDbEntity
  8
RACCORDO
100
AcDbLine
 62
7
  6
CONTINUOUS
 10
-11.0715571227
 20
4.6317188456
 11
-11.0720253142
 21
4.4229916546
  0
LINE
  5
366
100
AcDbEntity
  8
RACCORDO
100
AcDbLine
 62
7
  6
CONTINUOUS
 10
-11.0716241012
 20
-0.4036941958
 11
-11.0721178095
 21
-0.6108456263
  0
LINE
  5
367
100
AcDbEntity
  8
ASSI
100
AcDbLine
 62
7
  6
CONTINUOUS
 10
-11.0716343321
 20
-0.4088795525
 11
-11.0721483318
 21
-0.6216628258
  0
LINE
  5
368
100
AcDbEntity
  8
ASSI
100
AcDbLine
 62
7
  6
CONTINUOUS
 10
-11.071708699
 20
14.5549644229
 11
-11.0722484169
 21
14.3439364623
  0
LINE
  5
369
100
AcDbEntity
  8
ASSI
100
AcDbLine
 62
7
  6
CONTINUOUS
 10
-11.071708699
 20
9.5549644229
 11
-11.0722484169
 21
9.3439364623
  0
LINE
  5
36A
100
AcDbEntity
  8
ASSI
100
AcDbLine
 62
7
  6
CONTINUOUS
 10
-11.071708699
 20
4.5549644229
 11
-11.0722484169
 21
4.3439364623
  0
LINE
  5
36B
100
AcDbEntity
  8
RACCORDO
100
AcDbLine
 62
7
  6
CONTINUOUS
 10
-11.0720253142
 20
14.4229916546
 11
-11.072631986
 21
14.2246597904
  0
LINE
  5
36C
100
AcDbEntity
  8
RACCORDO
100
AcDbLine
 62
7
  6
CONTINUOUS
 10
-11.0720253142
 20
9.4229916546
 11
-11.072631986
 21
9.2246597904
  0
LINE
  5
36D
100
AcDbEntity
  8
RACCORDO
100
AcDbLine
 62
7
  6
CONTINUOUS
 10
-11.0720253142
 20
4.4229916546
 11
-11.072631986
 21
4.2246597904
  0
LINE
  5
36E
100
AcDbEntity
  8
RACCORDO
100
AcDbLine
 62
7
  6
CONTINUOUS
 10
-11.0721178095
 20
-0.6108456263
 11
-11.0727451237
 21
-0.8072744517
  0
LINE
  5
36F
100
AcDbEntity
  8
ASSI
100
AcDbLine
 62
7
  6
CONTINUOUS
 10
-11.0721483318
 20
-0.6216628258
 11
-11.0728027697
 21
-0.8230545886
  0
LINE
  5
370
100
AcDbEntity
  8
ASSI
100
AcDbLine
 62
7
  6
CONTINUOUS
 10
-11.0722484169
 20
14.3439364623
 11
-11.0729247206
 21
14.1445742364
  0
LINE
  5
371
100
AcDbEntity
  8
ASSI
100
AcDbLine
 62
7
  6
CONTINUOUS
 10
-11.0722484169
 20
9.3439364623
 11
-11.0729247206
 21
9.1445742364
  0
LINE
  5
372
100
AcDbEntity
  8
ASSI
100
AcDbLine
 62
7
  6
CONTINUOUS
 10
-11.0722484169
 20
4.3439364623
 11
-11.0729247206
 21
4.1445742364
  0
LINE
  5
373
100
AcDbEntity
  8
RACCORDO
100
AcDbLine
 62
7
  6
CONTINUOUS
 10
-11.072631986
 20
14.2246597904
 11
-11.0733628496
 21
14.03798829
  0
LINE
  5
374
100
AcDbEntity
  8
RACCORDO
100
AcDbLine
 62
7
  6
CONTINUOUS
 10
-11.072631986
 20
9.2246597904
 11
-11.0733628496
 21
9.03798829
  0
LINE
  5
375
100
AcDbEntity
  8
RACCORDO
100
AcDbLine
 62
7
  6
CONTINUOUS
 10
-11.072631986
 20
4.2246597904
 11
-11.0733628496
 21
4.03798829
  0
LINE
  5
376
100
AcDbEntity
  8
ASSI
100
AcDbLine
 62
7
  6
CONTINUOUS
 10
-11.0728027697
 20
-0.8230545886
 11
-11.073312497
 21
-0.9504412105
  0
LINE
  5
377
100
AcDbEntity
  8
RACCORDO
100
AcDbLine
 62
7
  6
CONTINUOUS
 10
-11.0727451237
 20
-0.8072744517
 11
-11.0734963906
 21
-0.9919568033
  0
LINE
  5
378
100
AcDbEntity
  8
ASSI
100
AcDbLine
 62
7
  6
CONTINUOUS
 10
-11.0729247206
 20
14.1445742364
 11
-11.0737313348
 21
13.9577296489
  0
LINE
  5
379
100
AcDbEntity
  8
ASSI
100
AcDbLine
 62
7
  6
CONTINUOUS
 10
-11.0729247206
 20
9.1445742364
 11
-11.0737313348
 21
8.9577296489
  0
LINE
  5
37A
100
AcDbEntity
  8
ASSI
100
AcDbLine
 62
7
  6
CONTINUOUS
 10
-11.0729247206
 20
4.1445742364
 11
-11.0737313348
 21
3.9577296489
  0
LINE
  5
37B
100
AcDbEntity
  8
RACCORDO
100
AcDbLine
 62
7
  6
CONTINUOUS
 10
-11.0734963906
 20
-0.9919568033
 11
-11.0737726612
 21
-1.0508362178
  0
LINE
  5
37C
100
AcDbEntity
  8
RACCORDO
100
AcDbLine
 62
7
  6
CONTINUOUS
 10
-11.0733628496
 20
14.03798829
 11
-11.0742076922
 21
13.8634017821
  0
LINE
  5
37D
100
AcDbEntity
  8
RACCORDO
100
AcDbLine
 62
7
  6
CONTINUOUS
 10
-11.0733628496
 20
9.03798829
 11
-11.0742076922
 21
8.8634017821
  0
LINE
  5
37E
100
AcDbEntity
  8
RACCORDO
100
AcDbLine
 62
7
  6
CONTINUOUS
 10
-11.0733628496
 20
4.03798829
 11
-11.0742076922
 21
3.8634017821
  0
LINE
  5
37F
100
AcDbEntity
  8
ASSI
100
AcDbLine
 62
7
  6
CONTINUOUS
 10
-11.073312497
 20
-0.9504412105
 11
-11.074177421
 21
-1.1308669756
  0
LINE
  5
380
100
AcDbEntity
  8
ASSI
100
AcDbLine
 62
7
  6
CONTINUOUS
 10
-11.0737313348
 20
13.9577296489
 11
-11.0746467719
 21
13.7838073149
  0
LINE
  5
381
100
AcDbEntity
  8
ASSI
100
AcDbLine
 62
7
  6
CONTINUOUS
 10
-11.0737313348
 20
8.9577296489
 11
-11.0746467719
 21
8.7838073149
  0
LINE
  5
382
100
AcDbEntity
  8
ASSI
100
AcDbLine
 62
7
  6
CONTINUOUS
 10
-11.0737313348
 20
3.9577296489
 11
-11.0746467719
 21
3.7838073149
  0
LINE
  5
383
100
AcDbEntity
  8
RACCORDO
100
AcDbLine
 62
7
  6
CONTINUOUS
 10
-11.0737726612
 20
-1.0508362178
 11
-11.0748216179
 21
-1.2461291655
  0
LINE
  5
384
100
AcDbEntity
  8
RACCORDO
100
AcDbLine
 62
7
  6
CONTINUOUS
 10
-11.0742076922
 20
13.8634017821
 11
-11.075143479
 21
13.7011792922
  0
LINE
  5
385
100
AcDbEntity
  8
RACCORDO
100
AcDbLine
 62
7
  6
CONTINUOUS
 10
-11.0742076922
 20
8.8634017821
 11
-11.075143479
 21
8.7011792922
  0
LINE
  5
386
100
AcDbEntity
  8
RACCORDO
100
AcDbLine
 62
7
  6
CONTINUOUS
 10
-11.0742076922
 20
3.8634017821
 11
-11.075143479
 21
3.7011792922
  0
LINE
  5
387
100
AcDbEntity
  8
ASSI
100
AcDbLine
 62
7
  6
CONTINUOUS
 10
-11.074177421
 20
-1.1308669756
 11
-11.0751397363
 21
-1.2982251538
  0
LINE
  5
388
100
AcDbEntity
  8
ASSI
100
AcDbLine
 62
7
  6
CONTINUOUS
 10
-11.0746467719
 20
13.7838073149
 11
-11.0756565461
 21
13.6230454831
  0
LINE
  5
389
100
AcDbEntity
  8
ASSI
100
AcDbLine
 62
7
  6
CONTINUOUS
 10
-11.0746467719
 20
8.7838073149
 11
-11.0756565461
 21
8.6230454831
  0
LINE
  5
38A
100
AcDbEntity
  8
ASSI
100
AcDbLine
 62
7
  6
CONTINUOUS
 10
-11.0746467719
 20
3.7838073149
 11
-11.0756565461
 21
3.6230454831
  0
LINE
  5
38B
100
AcDbEntity
  8
RACCORDO
100
AcDbLine
 62
7
  6
CONTINUOUS
 10
-11.0748216179
 20
-1.2461291655
 11
-11.0758168679
 21
-1.4000410409
  0
LINE
  5
38C
100
AcDbEntity
  8
RACCORDO
100
AcDbLine
 62
7
  6
CONTINUOUS
 10
-11.075143479
 20
13.7011792922
 11
-11.0761675571
 21
13.5514288398
  0
LINE
  5
38D
100
AcDbEntity
  8
RACCORDO
100
AcDbLine
 62
7
  6
CONTINUOUS
 10
-11.075143479
 20
8.7011792922
 11
-11.0761675571
 21
8.5514288398
  0
LINE
  5
38E
100
AcDbEntity
  8
RACCORDO
100
AcDbLine
 62
7
  6
CONTINUOUS
 10
-11.075143479
 20
3.7011792922
 11
-11.0761675571
 21
3.5514288398
  0
LINE
  5
38F
100
AcDbEntity
  8
ASSI
100
AcDbLine
 62
7
  6
CONTINUOUS
 10
-11.0751397363
 20
-1.2982251538
 11
-11.0761958483
 21
-1.4523753031
  0
LINE
  5
390
100
AcDbEntity
  8
ASSI
100
AcDbLine
 62
7
  6
CONTINUOUS
 10
-11.0756565461
 20
13.6230454831
 11
-11.0767548834
 21
13.4755142237
  0
LINE
  5
391
100
AcDbEntity
  8
ASSI
100
AcDbLine
 62
7
  6
CONTINUOUS
 10
-11.0756565461
 20
8.6230454831
 11
-11.0767548834
 21
8.4755142237
  0
LINE
  5
392
100
AcDbEntity
  8
ASSI
100
AcDbLine
 62
7
  6
CONTINUOUS
 10
-11.0756565461
 20
3.6230454831
 11
-11.0767548834
 21
3.4755142237
  0
LINE
  5
393
100
AcDbEntity
  8
RACCORDO
100
AcDbLine
 62
7
  6
CONTINUOUS
 10
-11.0758168679
 20
-1.4000410409
 11
-11.0768929382
 21
-1.5414667856
  0
LINE
  5
394
100
AcDbEntity
  8
RACCORDO
100
AcDbLine
 62
7
  6
CONTINUOUS
 10
-11.0761675571
 20
13.5514288398
 11
-11.0772656
 21
13.4141664319
  0
LINE
  5
395
100
AcDbEntity
  8
RACCORDO
100
AcDbLine
 62
7
  6
CONTINUOUS
 10
-11.0761675571
 20
8.5514288398
 11
-11.0772656
 21
8.4141664319
  0
LINE
  5
396
100
AcDbEntity
  8
RACCORDO
100
AcDbLine
 62
7
  6
CONTINUOUS
 10
-11.0761675571
 20
3.5514288398
 11
-11.0772656
 21
3.4141664319
  0
LINE
  5
397
100
AcDbEntity
  8
ASSI
100
AcDbLine
 62
7
  6
CONTINUOUS
 10
-11.0761958483
 20
-1.4523753031
 11
-11.0773299671
 21
-1.5932836378
  0
LINE
  5
398
100
AcDbEntity
  8
ASSI
100
AcDbLine
 62
7
  6
CONTINUOUS
 10
-11.0767548834
 20
13.4755142237
 11
-11.0779203349
 21
13.3412270781
  0
LINE
  5
399
100
AcDbEntity
  8
ASSI
100
AcDbLine
 62
7
  6
CONTINUOUS
 10
-11.0767548834
 20
8.4755142237
 11
-11.0779203349
 21
8.3412270781
  0
LINE
  5
39A
100
AcDbEntity
  8
ASSI
100
AcDbLine
 62
7
  6
CONTINUOUS
 10
-11.0767548834
 20
3.4755142237
 11
-11.0779203349
 21
3.3412270781
  0
LINE
  5
39B
100
AcDbEntity
  8
RACCORDO
100
AcDbLine
 62
7
  6
CONTINUOUS
 10
-11.0768929382
 20
-1.5414667856
 11
-11.0780302042
 21
-1.6704113665
  0
LINE
  5
39C
100
AcDbEntity
  8
RACCORDO
100
AcDbLine
 62
7
  6
CONTINUOUS
 10
-11.0772656
 20
13.4141664319
 11
-11.07842256
 21
13.28936482
  0
LINE
  5
39D
100
AcDbEntity
  8
RACCORDO
100
AcDbLine
 62
7
  6
CONTINUOUS
 10
-11.0772656
 20
8.4141664319
 11
-11.07842256
 21
8.28936482
  0
LINE
  5
39E
100
AcDbEntity
  8
RACCORDO
100
AcDbLine
 62
7
  6
CONTINUOUS
 10
-11.0772656
 20
3.4141664319
 11
-11.07842256
 21
3.28936482
  0
LINE
  5
39F
100
AcDbEntity
  8
ASSI
100
AcDbLine
 62
7
  6
CONTINUOUS
 10
-11.0773299671
 20
-1.5932836378
 11
-11.0785267046
 21
-1.7209715546
  0
LINE
  5
3A0
100
AcDbEntity
  8
0
100
AcDbLine
 62
253
  6
CONTINUOUS
 10
-10.2839515528
 20
24.5438814215
 11
-10.2795797188
 21
24.9777338406
  0
LINE
  5
3A1
100
AcDbEntity
  8
0
100
AcDbLine
 62
253
  6
CONTINUOUS
 10
-10.0346745507
 20
24.2560460041
 11
-10.0295839496
 21
24.7612274896
  0
LINE
  5
3A2
100
AcDbEntity
  8
ASSI
100
AcDbLine
 62
7
  6
CONTINUOUS
 10
-11.0779203349
 20
13.3412270781
 11
-11.0791485772
 21
13.2201005995
  0
LINE
  5
3A3
100
AcDbEntity
  8
ASSI
100
AcDbLine
 62
7
  6
CONTINUOUS
 10
-11.0779203349
 20
8.3412270781
 11
-11.0791485772
 21
8.2201005995
  0
LINE
  5
3A4
100
AcDbEntity
  8
ASSI
100
AcDbLine
 62
7
  6
CONTINUOUS
 10
-11.0779203349
 20
3.3412270781
 11
-11.0791485772
 21
3.2201005995
  0
LINE
  5
3A5
100
AcDbEntity
  8
RACCORDO
100
AcDbLine
 62
7
  6
CONTINUOUS
 10
-11.0780302042
 20
-1.6704113665
 11
-11.0792266652
 21
-1.7869763999
  0
LINE
  5
3A6
100
AcDbEntity
  8
RACCORDO
100
AcDbLine
 62
7
  6
CONTINUOUS
 10
-11.07842256
 20
13.28936482
 11
-11.0796375558
 21
13.1768929037
  0
LINE
  5
3A7
100
AcDbEntity
  8
RACCORDO
100
AcDbLine
 62
7
  6
CONTINUOUS
 10
-11.07842256
 20
8.28936482
 11
-11.0796375558
 21
8.1768929037
  0
LINE
  5
3A8
100
AcDbEntity
  8
RACCORDO
100
AcDbLine
 62
7
  6
CONTINUOUS
 10
-11.07842256
 20
3.28936482
 11
-11.0796375558
 21
3.1768929037
  0
LINE
  5
3A9
100
AcDbEntity
  8
ASSI
100
AcDbLine
 62
7
  6
CONTINUOUS
 10
-11.0785267046
 20
-1.7209715546
 11
-11.0797842874
 21
-1.8355760043
  0
LINE
  5
3AA
100
AcDbEntity
  8
ASSI
100
AcDbLine
 62
7
  6
CONTINUOUS
 10
-11.0791485772
 20
13.2201005995
 11
-11.0804310722
 21
13.1119835095
  0
LINE
  5
3AB
100
AcDbEntity
  8
ASSI
100
AcDbLine
 62
7
  6
CONTINUOUS
 10
-11.0791485772
 20
8.2201005995
 11
-11.0804310722
 21
8.1119835095
  0
LINE
  5
3AC
100
AcDbEntity
  8
ASSI
100
AcDbLine
 62
7
  6
CONTINUOUS
 10
-11.0791485772
 20
3.2201005995
 11
-11.0804310722
 21
3.1119835095
  0
LINE
  5
3AD
100
AcDbEntity
  8
RACCORDO
100
AcDbLine
 62
7
  6
CONTINUOUS
 10
-11.0792266652
 20
-1.7869763999
 11
-11.0804733684
 21
-1.8913099428
  0
LINE
  5
3AE
100
AcDbEntity
  8
RACCORDO
100
AcDbLine
 62
7
  6
CONTINUOUS
 10
-11.0796375558
 20
13.1768929037
 11
-11.0808964585
 21
13.0766303135
  0
LINE
  5
3AF
100
AcDbEntity
  8
RACCORDO
100
AcDbLine
 62
7
  6
CONTINUOUS
 10
-11.0796375558
 20
8.1768929037
 11
-11.0808964585
 21
8.0766303135
  0
LINE
  5
3B0
100
AcDbEntity
  8
RACCORDO
100
AcDbLine
 62
7
  6
CONTINUOUS
 10
-11.0796375558
 20
3.1768929037
 11
-11.0808964585
 21
3.0766303135
  0
LINE
  5
3B1
100
AcDbEntity
  8
ASSI
100
AcDbLine
 62
7
  6
CONTINUOUS
 10
-11.0797842874
 20
-1.8355760043
 11
-11.0810858499
 21
-1.937201235
  0
LINE
  5
3B2
100
AcDbEntity
  8
ASSI
100
AcDbLine
 62
7
  6
CONTINUOUS
 10
-11.0804310722
 20
13.1119835095
 11
-11.0817480471
 21
13.0169239955
  0
LINE
  5
3B3
100
AcDbEntity
  8
ASSI
100
AcDbLine
 62
7
  6
CONTINUOUS
 10
-11.0804310722
 20
8.1119835095
 11
-11.0817480471
 21
8.0169239955
  0
LINE
  5
3B4
100
AcDbEntity
  8
ASSI
100
AcDbLine
 62
7
  6
CONTINUOUS
 10
-11.0804310722
 20
3.1119835095
 11
-11.0817480471
 21
3.0169239955
  0
LINE
  5
3B5
100
AcDbEntity
  8
RACCORDO
100
AcDbLine
 62
7
  6
CONTINUOUS
 10
-11.0804733684
 20
-1.8913099428
 11
-11.0817520975
 21
-1.9833448931
  0
LINE
  5
3B6
100
AcDbEntity
  8
RACCORDO
100
AcDbLine
 62
7
  6
CONTINUOUS
 10
-11.0808964585
 20
13.0766303135
 11
-11.0821842402
 21
12.9887640483
  0
LINE
  5
3B7
100
AcDbEntity
  8
RACCORDO
100
AcDbLine
 62
7
  6
CONTINUOUS
 10
-11.0808964585
 20
8.0766303135
 11
-11.0821842402
 21
7.9887640483
  0
LINE
  5
3B8
100
AcDbEntity
  8
RACCORDO
100
AcDbLine
 62
7
  6
CONTINUOUS
 10
-11.0808964585
 20
3.0766303135
 11
-11.0821842402
 21
2.9887640483
  0
LINE
  5
3B9
100
AcDbEntity
  8
ASSI
100
AcDbLine
 62
7
  6
CONTINUOUS
 10
-11.0810858499
 20
-1.937201235
 11
-11.0821933085
 21
-2.0118045147
  0
LINE
  5
3BA
100
AcDbEntity
  8
ASSI
100
AcDbLine
 62
7
  6
CONTINUOUS
 10
-11.0817480471
 20
13.0169239955
 11
-11.0828655283
 21
12.9478994983
  0
LINE
  5
3BB
100
AcDbEntity
  8
ASSI
100
AcDbLine
 62
7
  6
CONTINUOUS
 10
-11.0817480471
 20
8.0169239955
 11
-11.0828655283
 21
7.9478994983
  0
LINE
  5
3BC
100
AcDbEntity
  8
ASSI
100
AcDbLine
 62
7
  6
CONTINUOUS
 10
-11.0817480471
 20
3.0169239955
 11
-11.0828655283
 21
2.9478994983
  0
LINE
  5
3BD
100
AcDbEntity
  8
RACCORDO
100
AcDbLine
 62
7
  6
CONTINUOUS
 10
-11.0817520975
 20
-1.9833448931
 11
-11.0830548553
 21
-2.0628084055
  0
LINE
  5
3BE
100
AcDbEntity
  8
RACCORDO
100
AcDbLine
 62
7
  6
CONTINUOUS
 10
-11.0821842402
 20
12.9887640483
 11
-11.0832732379
 21
12.925178026
  0
LINE
  5
3BF
100
AcDbEntity
  8
RACCORDO
100
AcDbLine
 62
7
  6
CONTINUOUS
 10
-11.0821842402
 20
7.9887640483
 11
-11.0832732379
 21
7.925178026
  0
LINE
  5
3C0
100
AcDbEntity
  8
RACCORDO
100
AcDbLine
 62
7
  6
CONTINUOUS
 10
-11.0821842402
 20
2.9887640483
 11
-11.0832732379
 21
2.925178026
  0
LINE
  5
3C1
100
AcDbEntity
  8
ASSI
100
AcDbLine
 62
7
  6
CONTINUOUS
 10
-11.0821933085
 20
-2.0118045147
 11
-11.0833153869
 21
-2.0770996438
  0
LINE
  5
3C2
100
AcDbEntity
  8
ASSI
100
AcDbLine
 62
7
  6
CONTINUOUS
 10
-11.0828655283
 20
12.9478994983
 11
-11.0839900159
 21
12.8881937072
  0
LINE
  5
3C3
100
AcDbEntity
  8
ASSI
100
AcDbLine
 62
7
  6
CONTINUOUS
 10
-11.0828655283
 20
7.9478994983
 11
-11.0839900159
 21
7.8881937072
  0
LINE
  5
3C4
100
AcDbEntity
  8
ASSI
100
AcDbLine
 62
7
  6
CONTINUOUS
 10
-11.0828655283
 20
2.9478994983
 11
-11.0839900159
 21
2.8881937072
  0
LINE
  5
3C5
100
AcDbEntity
  8
RACCORDO
100
AcDbLine
 62
7
  6
CONTINUOUS
 10
-11.0830548553
 20
-2.0628084055
 11
-11.0841459745
 21
-2.1193747423
  0
LINE
  5
3C6
100
AcDbEntity
  8
RACCORDO
100
AcDbLine
 62
7
  6
CONTINUOUS
 10
-11.0832732379
 20
12.925178026
 11
-11.0844526892
 21
12.8662582211
  0
LINE
  5
3C7
100
AcDbEntity
  8
RACCORDO
100
AcDbLine
 62
7
  6
CONTINUOUS
 10
-11.0832732379
 20
7.925178026
 11
-11.0844526892
 21
7.8662582211
  0
LINE
  5
3C8
100
AcDbEntity
  8
RACCORDO
100
AcDbLine
 62
7
  6
CONTINUOUS
 10
-11.0832732379
 20
2.925178026
 11
-11.0844526892
 21
2.8662582211
  0
LINE
  5
3C9
100
AcDbEntity
  8
RACCORDO
100
AcDbLine
 62
7
  6
CONTINUOUS
 10
-11.0841459745
 20
-2.1193747423
 11
-11.0844526892
 21
-2.1337417789
  0
LINE
  5
3CA
100
AcDbEntity
  8
ASSI
100
AcDbLine
 62
7
  6
CONTINUOUS
 10
-11.0839900159
 20
12.8881937072
 11
-11.0844520703
 21
12.8662589841
  0
LINE
  5
3CB
100
AcDbEntity
  8
ASSI
100
AcDbLine
 62
7
  6
CONTINUOUS
 10
-11.0839900159
 20
7.8881937072
 11
-11.0844520703
 21
7.8662589841
  0
LINE
  5
3CC
100
AcDbEntity
  8
ASSI
100
AcDbLine
 62
7
  6
CONTINUOUS
 10
-11.0839900159
 20
2.8881937072
 11
-11.0844520703
 21
2.8662589841
  0
LINE
  5
3CD
100
AcDbEntity
  8
ASSI
100
AcDbLine
 62
7
  6
CONTINUOUS
 10
-11.0833153869
 20
-2.0770996438
 11
-11.0844520703
 21
-2.1337410159
  0
LWPOLYLINE
  5
3CE
100
AcDbEntity
  8
RACCORDO
100
AcDbPolyline
 62
253
  6
CONTINUOUS
 90
43
 70
0
 10
-10.7880023969
 20
13.0312334131
 10
-10.7865495192
 20
13.0680530921
 10
-10.7851210885
 20
13.1149640959
 10
-10.7837373085
 20
13.171695538
 10
-10.7823990745
 20
13.2379163627
 10
-10.7811054913
 20
13.313267487
 10
-10.779874077
 20
13.3973892589
 10
-10.7787057201
 20
13.4898446838
 10
-10.7775995321
 20
13.5901645331
 10
-10.7765703646
 20
13.6979131072
 10
-10.7756191619
 20
13.8125614229
 10
-10.7747449798
 20
13.9335500682
 10
-10.7739598369
 20
14.0603764168
 10
-10.7732647395
 20
14.1924581432
 10
-10.7726586814
 20
14.3291388146
 10
-10.7721506628
 20
14.4697791137
 10
-10.7717420532
 20
14.6137141508
 10
-10.7714314831
 20
14.7602391207
 10
-10.7712238448
 20
14.908629485
 10
-10.7711207726
 20
15.058198231
 10
-10.7711206321
 20
15.2081869972
 10
-10.7712234117
 20
15.3577532304
 10
-10.7714307377
 20
15.5061371364
 10
-10.7717409839
 20
15.6526535389
 10
-10.7721492602
 20
15.7965827714
 10
-10.7726569264
 20
15.9372205459
 10
-10.7732626226
 20
16.0739017148
 10
-10.7739573798
 20
16.2059901332
 10
-10.7747421965
 20
16.3328289989
 10
-10.775616074
 20
16.4538356271
 10
-10.7765670469
 20
16.5685096653
 10
-10.7775960721
 20
16.6762917039
 10
-10.7787021927
 20
16.7766501117
 10
-10.779870572
 20
16.8691469882
 10
-10.7811021077
 20
16.9533118498
 10
-10.7823959022
 20
17.028706068
 10
-10.7837344253
 20
17.0949676497
 10
-10.7851185853
 20
17.1517365381
 10
-10.7865474739
 20
17.1986801732
 10
-10.7880008359
 20
17.235525666
 10
-10.7894719196
 20
17.2620412227
 10
-10.7909674767
 20
17.2780420542
 10
-10.7924875073
 20
17.2833962733
  0
LWPOLYLINE
  5
3CF
100
AcDbEntity
  8
ASSI
100
AcDbPolyline
 62
253
  6
CONTINUOUS
 90
43
 70
0
 10
-10.7880023969
 20
13.0312334131
 10
-10.7865495192
 20
13.0680530921
 10
-10.7851210885
 20
13.1149640959
 10
-10.7837373085
 20
13.171695538
 10
-10.7823990745
 20
13.2379163627
 10
-10.7811054913
 20
13.313267487
 10
-10.779874077
 20
13.3973892589
 10
-10.7787057201
 20
13.4898446838
 10
-10.7775995321
 20
13.5901645331
 10
-10.7765703646
 20
13.6979131072
 10
-10.7756191619
 20
13.8125614229
 10
-10.7747449798
 20
13.9335500682
 10
-10.7739598369
 20
14.0603764168
 10
-10.7732647395
 20
14.1924581432
 10
-10.7726586814
 20
14.3291388146
 10
-10.7721506628
 20
14.4697791137
 10
-10.7717420532
 20
14.6137141508
 10
-10.7714314831
 20
14.7602391207
 10
-10.7712238448
 20
14.908629485
 10
-10.7711207726
 20
15.058198231
 10
-10.7711206321
 20
15.2081869972
 10
-10.7712234117
 20
15.3577532304
 10
-10.7714307377
 20
15.5061371364
 10
-10.7717409839
 20
15.6526535389
 10
-10.7721492602
 20
15.7965827714
 10
-10.7726569264
 20
15.9372205459
 10
-10.7732626226
 20
16.0739017148
 10
-10.7739573798
 20
16.2059901332
 10
-10.7747421965
 20
16.3328289989
 10
-10.775616074
 20
16.4538356271
 10
-10.7765670469
 20
16.5685096653
 10
-10.7775960721
 20
16.6762917039
 10
-10.7787021927
 20
16.7766501117
 10
-10.779870572
 20
16.8691469882
 10
-10.7811021077
 20
16.9533118498
 10
-10.7823959022
 20
17.028706068
 10
-10.7837344253
 20
17.0949676497
 10
-10.7851185853
 20
17.1517365381
 10
-10.7865474739
 20
17.1986801732
 10
-10.7880008359
 20
17.235525666
 10
-10.7894719196
 20
17.2620412227
 10
-10.7909674767
 20
17.2780420542
 10
-10.7924875073
 20
17.2833962733
  0
LWPOLYLINE
  5
3D0
100
AcDbEntity
  8
RACCORDO
100
AcDbPolyline
 62
253
  6
CONTINUOUS
 90
43
 70
0
 10
-10.7880023969
 20
8.0312334131
 10
-10.7865495192
 20
8.0680530921
 10
-10.7851210885
 20
8.1149640959
 10
-10.7837373085
 20
8.171695538
 10
-10.7823990745
 20
8.2379163627
 10
-10.7811054913
 20
8.313267487
 10
-10.779874077
 20
8.3973892589
 10
-10.7787057201
 20
8.4898446838
 10
-10.7775995321
 20
8.5901645331
 10
-10.7765703646
 20
8.6979131072
 10
-10.7756191619
 20
8.8125614229
 10
-10.7747449798
 20
8.9335500682
 10
-10.7739598369
 20
9.0603764168
 10
-10.7732647395
 20
9.1924581432
 10
-10.7726586814
 20
9.3291388146
 10
-10.7721506628
 20
9.4697791137
 10
-10.7717420532
 20
9.6137141508
 10
-10.7714314831
 20
9.7602391207
 10
-10.7712238448
 20
9.908629485
 10
-10.7711207726
 20
10.058198231
 10
-10.7711206321
 20
10.2081869972
 10
-10.7712234117
 20
10.3577532304
 10
-10.7714307377
 20
10.5061371364
 10
-10.7717409839
 20
10.6526535389
 10
-10.7721492602
 20
10.7965827714
 10
-10.7726569264
 20
10.9372205459
 10
-10.7732626226
 20
11.0739017148
 10
-10.7739573798
 20
11.2059901332
 10
-10.7747421965
 20
11.3328289989
 10
-10.775616074
 20
11.4538356271
 10
-10.7765670469
 20
11.5685096653
 10
-10.7775960721
 20
11.6762917039
 10
-10.7787021927
 20
11.7766501117
 10
-10.779870572
 20
11.8691469882
 10
-10.7811021077
 20
11.9533118498
 10
-10.7823959022
 20
12.028706068
 10
-10.7837344253
 20
12.0949676497
 10
-10.7851185853
 20
12.1517365381
 10
-10.7865474739
 20
12.1986801732
 10
-10.7880008359
 20
12.235525666
 10
-10.7894719196
 20
12.2620412227
 10
-10.7909674767
 20
12.2780420542
 10
-10.7924875073
 20
12.2833962733
  0
LWPOLYLINE
  5
3D1
100
AcDbEntity
  8
ASSI
100
AcDbPolyline
 62
253
  6
CONTINUOUS
 90
43
 70
0
 10
-10.7880023969
 20
8.0312334131
 10
-10.7865495192
 20
8.0680530921
 10
-10.7851210885
 20
8.1149640959
 10
-10.7837373085
 20
8.171695538
 10
-10.7823990745
 20
8.2379163627
 10
-10.7811054913
 20
8.313267487
 10
-10.779874077
 20
8.3973892589
 10
-10.7787057201
 20
8.4898446838
 10
-10.7775995321
 20
8.5901645331
 10
-10.7765703646
 20
8.6979131072
 10
-10.7756191619
 20
8.8125614229
 10
-10.7747449798
 20
8.9335500682
 10
-10.7739598369
 20
9.0603764168
 10
-10.7732647395
 20
9.1924581432
 10
-10.7726586814
 20
9.3291388146
 10
-10.7721506628
 20
9.4697791137
 10
-10.7717420532
 20
9.6137141508
 10
-10.7714314831
 20
9.7602391207
 10
-10.7712238448
 20
9.908629485
 10
-10.7711207726
 20
10.058198231
 10
-10.7711206321
 20
10.2081869972
 10
-10.7712234117
 20
10.3577532304
 10
-10.7714307377
 20
10.5061371364
 10
-10.7717409839
 20
10.6526535389
 10
-10.7721492602
 20
10.7965827714
 10
-10.7726569264
 20
10.9372205459
 10
-10.7732626226
 20
11.0739017148
 10
-10.7739573798
 20
11.2059901332
 10
-10.7747421965
 20
11.3328289989
 10
-10.775616074
 20
11.4538356271
 10
-10.7765670469
 20
11.5685096653
 10
-10.7775960721
 20
11.6762917039
 10
-10.7787021927
 20
11.7766501117
 10
-10.779870572
 20
11.8691469882
 10
-10.7811021077
 20
11.9533118498
 10
-10.7823959022
 20
12.028706068
 10
-10.7837344253
 20
12.0949676497
 10
-10.7851185853
 20
12.1517365381
 10
-10.7865474739
 20
12.1986801732
 10
-10.7880008359
 20
12.235525666
 10
-10.7894719196
 20
12.2620412227
 10
-10.7909674767
 20
12.2780420542
 10
-10.7924875073
 20
12.2833962733
  0
LWPOLYLINE
  5
3D2
100
AcDbEntity
  8
RACCORDO
100
AcDbPolyline
 62
253
  6
CONTINUOUS
 90
43
 70
0
 10
-10.7880023969
 20
3.0312334131
 10
-10.7865495192
 20
3.0680530921
 10
-10.7851210885
 20
3.1149640959
 10
-10.7837373085
 20
3.171695538
 10
-10.7823990745
 20
3.2379163627
 10
-10.7811054913
 20
3.313267487
 10
-10.779874077
 20
3.3973892589
 10
-10.7787057201
 20
3.4898446838
 10
-10.7775995321
 20
3.5901645331
 10
-10.7765703646
 20
3.6979131072
 10
-10.7756191619
 20
3.8125614229
 10
-10.7747449798
 20
3.9335500682
 10
-10.7739598369
 20
4.0603764168
 10
-10.7732647395
 20
4.1924581432
 10
-10.7726586814
 20
4.3291388146
 10
-10.7721506628
 20
4.4697791137
 10
-10.7717420532
 20
4.6137141508
 10
-10.7714314831
 20
4.7602391207
 10
-10.7712238448
 20
4.908629485
 10
-10.7711207726
 20
5.058198231
 10
-10.7711206321
 20
5.2081869972
 10
-10.7712234117
 20
5.3577532304
 10
-10.7714307377
 20
5.5061371364
 10
-10.7717409839
 20
5.6526535389
 10
-10.7721492602
 20
5.7965827714
 10
-10.7726569264
 20
5.9372205459
 10
-10.7732626226
 20
6.0739017148
 10
-10.7739573798
 20
6.2059901332
 10
-10.7747421965
 20
6.3328289989
 10
-10.775616074
 20
6.4538356271
 10
-10.7765670469
 20
6.5685096653
 10
-10.7775960721
 20
6.6762917039
 10
-10.7787021927
 20
6.7766501117
 10
-10.779870572
 20
6.8691469882
 10
-10.7811021077
 20
6.9533118498
 10
-10.7823959022
 20
7.028706068
 10
-10.7837344253
 20
7.0949676497
 10
-10.7851185853
 20
7.1517365381
 10
-10.7865474739
 20
7.1986801732
 10
-10.7880008359
 20
7.235525666
 10
-10.7894719196
 20
7.2620412227
 10
-10.7909674767
 20
7.2780420542
 10
-10.7924875073
 20
7.2833962733
  0
LWPOLYLINE
  5
3D3
100
AcDbEntity
  8
ASSI
100
AcDbPolyline
 62
253
  6
CONTINUOUS
 90
43
 70
0
 10
-10.7880023969
 20
3.0312334131
 10
-10.7865495192
 20
3.0680530921
 10
-10.7851210885
 20
3.1149640959
 10
-10.7837373085
 20
3.171695538
 10
-10.7823990745
 20
3.2379163627
 10
-10.7811054913
 20
3.313267487
 10
-10.779874077
 20
3.3973892589
 10
-10.7787057201
 20
3.4898446838
 10
-10.7775995321
 20
3.5901645331
 10
-10.7765703646
 20
3.6979131072
 10
-10.7756191619
 20
3.8125614229
 10
-10.7747449798
 20
3.9335500682
 10
-10.7739598369
 20
4.0603764168
 10
-10.7732647395
 20
4.1924581432
 10
-10.7726586814
 20
4.3291388146
 10
-10.7721506628
 20
4.4697791137
 10
-10.7717420532
 20
4.6137141508
 10
-10.7714314831
 20
4.7602391207
 10
-10.7712238448
 20
4.908629485
 10
-10.7711207726
 20
5.058198231
 10
-10.7711206321
 20
5.2081869972
 10
-10.7712234117
 20
5.3577532304
 10
-10.7714307377
 20
5.5061371364
 10
-10.7717409839
 20
5.6526535389
 10
-10.7721492602
 20
5.7965827714
 10
-10.7726569264
 20
5.9372205459
 10
-10.7732626226
 20
6.0739017148
 10
-10.7739573798
 20
6.2059901332
 10
-10.7747421965
 20
6.3328289989
 10
-10.775616074
 20
6.4538356271
 10
-10.7765670469
 20
6.5685096653
 10
-10.7775960721
 20
6.6762917039
 10
-10.7787021927
 20
6.7766501117
 10
-10.779870572
 20
6.8691469882
 10
-10.7811021077
 20
6.9533118498
 10
-10.7823959022
 20
7.028706068
 10
-10.7837344253
 20
7.0949676497
 10
-10.7851185853
 20
7.1517365381
 10
-10.7865474739
 20
7.1986801732
 10
-10.7880008359
 20
7.235525666
 10
-10.7894719196
 20
7.2620412227
 10
-10.7909674767
 20
7.2780420542
 10
-10.7924875073
 20
7.2833962733
  0
LWPOLYLINE
  5
3D4
100
AcDbEntity
  8
RACCORDO
100
AcDbPolyline
 62
253
  6
CONTINUOUS
 90
43
 70
0
 10
-10.7880023969
 20
-1.9687665869
 10
-10.7865495192
 20
-1.9319469079
 10
-10.7851210885
 20
-1.8850359041
 10
-10.7837373085
 20
-1.828304462
 10
-10.7823990745
 20
-1.7620836373
 10
-10.7811054913
 20
-1.686732513
 10
-10.779874077
 20
-1.6026107411
 10
-10.7787057201
 20
-1.5101553162
 10
-10.7775995321
 20
-1.4098354669
 10
-10.7765703646
 20
-1.3020868928
 10
-10.7756191619
 20
-1.1874385771
 10
-10.7747449798
 20
-1.0664499318
 10
-10.7739598369
 20
-0.9396235832
 10
-10.7732647395
 20
-0.8075418568
 10
-10.7726586814
 20
-0.6708611854
 10
-10.7721506628
 20
-0.5302208863
 10
-10.7717420532
 20
-0.3862858492
 10
-10.7714314831
 20
-0.2397608793
 10
-10.7712238448
 20
-0.091370515
 10
-10.7711207726
 20
0.058198231
 10
-10.7711206321
 20
0.2081869972
 10
-10.7712234117
 20
0.3577532304
 10
-10.7714307377
 20
0.5061371364
 10
-10.7717409839
 20
0.6526535389
 10
-10.7721492602
 20
0.7965827714
 10
-10.7726569264
 20
0.9372205459
 10
-10.7732626226
 20
1.0739017148
 10
-10.7739573798
 20
1.2059901332
 10
-10.7747421965
 20
1.3328289989
 10
-10.775616074
 20
1.4538356271
 10
-10.7765670469
 20
1.5685096653
 10
-10.7775960721
 20
1.6762917039
 10
-10.7787021927
 20
1.7766501117
 10
-10.779870572
 20
1.8691469882
 10
-10.7811021077
 20
1.9533118498
 10
-10.7823959022
 20
2.028706068
 10
-10.7837344253
 20
2.0949676497
 10
-10.7851185853
 20
2.1517365381
 10
-10.7865474739
 20
2.1986801732
 10
-10.7880008359
 20
2.235525666
 10
-10.7894719196
 20
2.2620412227
 10
-10.7909674767
 20
2.2780420542
 10
-10.7924875073
 20
2.2833962733
  0
LWPOLYLINE
  5
3D5
100
AcDbEntity
  8
ASSI
100
AcDbPolyline
 62
253
  6
CONTINUOUS
 90
43
 70
0
 10
-10.7880023969
 20
-1.9687665869
 10
-10.7865495192
 20
-1.9319469079
 10
-10.7851210885
 20
-1.8850359041
 10
-10.7837373085
 20
-1.828304462
 10
-10.7823990745
 20
-1.7620836373
 10
-10.7811054913
 20
-1.686732513
 10
-10.779874077
 20
-1.6026107411
 10
-10.7787057201
 20
-1.5101553162
 10
-10.7775995321
 20
-1.4098354669
 10
-10.7765703646
 20
-1.3020868928
 10
-10.7756191619
 20
-1.1874385771
 10
-10.7747449798
 20
-1.0664499318
 10
-10.7739598369
 20
-0.9396235832
 10
-10.7732647395
 20
-0.8075418568
 10
-10.7726586814
 20
-0.6708611854
 10
-10.7721506628
 20
-0.5302208863
 10
-10.7717420532
 20
-0.3862858492
 10
-10.7714314831
 20
-0.2397608793
 10
-10.7712238448
 20
-0.091370515
 10
-10.7711207726
 20
0.058198231
 10
-10.7711206321
 20
0.2081869972
 10
-10.7712234117
 20
0.3577532304
 10
-10.7714307377
 20
0.5061371364
 10
-10.7717409839
 20
0.6526535389
 10
-10.7721492602
 20
0.7965827714
 10
-10.7726569264
 20
0.9372205459
 10
-10.7732626226
 20
1.0739017148
 10
-10.7739573798
 20
1.2059901332
 10
-10.7747421965
 20
1.3328289989
 10
-10.775616074
 20
1.4538356271
 10
-10.7765670469
 20
1.5685096653
 10
-10.7775960721
 20
1.6762917039
 10
-10.7787021927
 20
1.7766501117
 10
-10.779870572
 20
1.8691469882
 10
-10.7811021077
 20
1.9533118498
 10
-10.7823959022
 20
2.028706068
 10
-10.7837344253
 20
2.0949676497
 10
-10.7851185853
 20
2.1517365381
 10
-10.7865474739
 20
2.1986801732
 10
-10.7880008359
 20
2.235525666
 10
-10.7894719196
 20
2.2620412227
 10
-10.7909674767
 20
2.2780420542
 10
-10.7924875073
 20
2.2833962733
  0
LWPOLYLINE
  5
3D6
100
AcDbEntity
  8
RACCORDO
100
AcDbPolyline
 62
253
  6
CONTINUOUS
 90
4
 70
0
 10
-10.7924875073
 20
2.9833962733
 10
-10.7909680236
 20
2.9887467194
 10
-10.7894729868
 20
3.0047363286
 10
-10.7880023969
 20
3.0312334131
  0
LWPOLYLINE
  5
3D7
100
AcDbEntity
  8
ASSI
100
AcDbPolyline
 62
253
  6
CONTINUOUS
 90
4
 70
0
 10
-10.7924875073
 20
2.9833962733
 10
-10.7909680236
 20
2.9887467194
 10
-10.7894729868
 20
3.0047363286
 10
-10.7880023969
 20
3.0312334131
  0
LINE
  5
3D8
100
AcDbEntity
  8
0
100
AcDbLine
 62
7
  6
CONTINUOUS
 10
4.2032920748
 20
24.9991523713
 11
4.1839694143
 21
24.9776510044
  0
LINE
  5
3D9
100
AcDbEntity
  8
0
100
AcDbLine
 62
7
  6
CONTINUOUS
 10
4.1839694143
 20
24.9776510044
 11
4.1618209265
 21
24.9533277446
  0
LINE
  5
3DA
100
AcDbEntity
  8
0
100
AcDbLine
 62
7
  6
CONTINUOUS
 10
4.1618209265
 20
24.9533277446
 11
4.1367449759
 21
24.9260742897
  0
LINE
  5
3DB
100
AcDbEntity
  8
0
100
AcDbLine
 62
7
  6
CONTINUOUS
 10
4.1367449759
 20
24.9260742897
 11
4.1086915839
 21
24.8958526409
  0
LINE
  5
3DC
100
AcDbEntity
  8
0
100
AcDbLine
 62
7
  6
CONTINUOUS
 10
4.1086915839
 20
24.8958526409
 11
4.0776607703
 21
24.8626341933
  0
LINE
  5
3DD
100
AcDbEntity
  8
0
100
AcDbLine
 62
7
  6
CONTINUOUS
 10
4.0776607703
 20
24.8626341933
 11
4.0258111445
 21
24.8075030061
  0
LINE
  5
3DE
100
AcDbEntity
  8
0
100
AcDbLine
 62
7
  6
CONTINUOUS
 10
4.0258111445
 20
24.8075030061
 11
3.9480046953
 21
24.7253179542
  0
LWPOLYLINE
  5
3DF
100
AcDbEntity
  8
0
100
AcDbPolyline
 62
7
  6
CONTINUOUS
 90
3
 70
0
 10
3.9480046953
 20
24.7253179542
 10
3.8846765152
 20
24.6586717091
 10
3.8190911571
 20
24.589754088
  0
LINE
  5
3E0
100
AcDbEntity
  8
0
100
AcDbLine
 62
7
  6
CONTINUOUS
 10
4.3160484472
 20
23.5333962733
 11
4.2721262002
 21
23.4894740262
  0
LINE
  5
3E1
100
AcDbEntity
  8
DRAFT
100
AcDbLine
 62
7
  6
CONTINUOUS
 10
3.3293928109
 20
20.9967406369
 11
3.3660484472
 21
21.0333962733
  0
LINE
  5
3E2
100
AcDbEntity
  8
0
100
AcDbLine
 62
7
  6
CONTINUOUS
 10
7.0565900734
 20
23.4693662988
 11
7.121866277
 21
23.5275784435
  0
LINE
  5
3E3
100
AcDbEntity
  8
0
100
AcDbLine
 62
253
  6
CONTINUOUS
 10
10.5160547933
 20
23.5333962733
 11
10.5073279255
 21
23.5275784435
  0
LWPOLYLINE
  5
3E4
100
AcDbEntity
  8
RACCORDO
100
AcDbPolyline
 62
253
  6
CONTINUOUS
 90
4
 70
0
 10
1.7593706379
 20
18.4782104442
 10
1.7163251039
 20
18.4511603132
 10
1.6688003838
 20
18.4312978171
 10
1.6181909125
 20
18.4191521993
  0
LINE
  5
3E5
100
AcDbEntity
  8
RACCORDO
100
AcDbLine
 62
253
  6
CONTINUOUS
 10
10.4303512277
 20
20.2190934928
 11
10.3081657732
 21
20.1684826204
  0
LINE
  5
3E6
100
AcDbEntity
  8
ASSI
100
AcDbLine
 62
7
  6
CONTINUOUS
 10
-2.6339515528
 20
-16.3666037267
 11
2.3660484472
 21
-16.3666037267
  0
LINE
  5
3E7
100
AcDbEntity
  8
RACCORDO
100
AcDbLine
 62
7
  6
CONTINUOUS
 10
1.5486263344
 20
-16.1666037267
 11
-1.81652944
 21
-16.1666037267
  0
LINE
  5
3E8
100
AcDbEntity
  8
ASSI
100
AcDbLine
 62
7
  6
CONTINUOUS
 10
1.5486263344
 20
-16.1666037267
 11
-1.81652944
 21
-16.1666037267
  0
LINE
  5
3E9
100
AcDbEntity
  8
RACCORDO
100
AcDbLine
 62
253
  6
CONTINUOUS
 10
-1.8339515528
 20
-16.1482755694
 11
1.5660484472
 21
-16.1482755694
  0
LINE
  5
3EA
100
AcDbEntity
  8
RACCORDO
100
AcDbLine
 62
7
  6
CONTINUOUS
 10
-1.8339515528
 20
-16.1166037267
 11
1.5660484472
 21
-16.1166037267
  0
LINE
  5
3EB
100
AcDbEntity
  8
0
100
AcDbLine
 62
7
  6
CONTINUOUS
 10
2.3660484472
 20
-15.9166037267
 11
-2.6339515528
 21
-15.9166037267
  0
LINE
  5
3EC
100
AcDbEntity
  8
0
100
AcDbLine
 62
7
  6
CONTINUOUS
 10
-2.6339515528
 20
-15.4666037267
 11
2.3660484472
 21
-15.4666037267
  0
LINE
  5
3ED
100
AcDbEntity
  8
ASSI
100
AcDbLine
 62
7
  6
CONTINUOUS
 10
-2.6339515528
 20
-15.4666037267
 11
2.3660484472
 21
-15.4666037267
  0
LINE
  5
3EE
100
AcDbEntity
  8
RACCORDO
100
AcDbLine
 62
253
  6
CONTINUOUS
 10
1.5660484472
 20
-16.1482755694
 11
1.6181429005
 21
-16.152352077
  0
LINE
  5
3EF
100
AcDbEntity
  8
RACCORDO
100
AcDbLine
 62
253
  6
CONTINUOUS
 10
10.3081657732
 20
-17.9016900738
 11
10.4303512277
 21
-17.9523009462
  0
LWPOLYLINE
  5
3F0
100
AcDbEntity
  8
RACCORDO
100
AcDbPolyline
 62
253
  6
CONTINUOUS
 90
3
 70
0
 10
1.6686544902
 20
-16.1644577373
 10
1.7160484472
 20
-16.1842247259
 10
1.7588847301
 20
-16.2110524329
  0
LINE
  5
3F1
100
AcDbEntity
  8
CURVE
100
AcDbLine
 62
253
  6
CONTINUOUS
 10
-7.7625229648
 20
-9.938032121
 11
-7.9482372588
 21
-9.8451753324
  0
LINE
  5
3F2
100
AcDbEntity
  8
0
100
AcDbLine
 62
253
  6
CONTINUOUS
 10
10.5073279255
 20
-21.2607858969
 11
10.5160547933
 21
-21.2666037267
  0
LINE
  5
3F3
100
AcDbEntity
  8
0
100
AcDbLine
 62
7
  6
CONTINUOUS
 10
7.0565900734
 20
-21.2025737522
 11
7.121866277
 21
-21.2607858969
  0
LINE
  5
3F4
100
AcDbEntity
  8
CURVE
100
AcDbLine
 62
253
  6
CONTINUOUS
 10
-7.9482372588
 20
-9.8451753324
 11
-8.1339515528
 21
-9.6594611352
  0
LINE
  5
3F5
100
AcDbEntity
  8
0
100
AcDbLine
 62
7
  6
CONTINUOUS
 10
4.3160484472
 20
-21.2666037267
 11
4.2721262002
 21
-21.2226814797
  0
LINE
  5
3F6
100
AcDbEntity
  8
CURVE
100
AcDbLine
 62
253
  6
CONTINUOUS
 10
-7.9482372588
 20
-8.8237466281
 11
-8.1339515528
 21
-8.638032431
  0
LINE
  5
3F7
100
AcDbEntity
  8
CURVE
100
AcDbLine
 62
253
  6
CONTINUOUS
 10
-7.0196658274
 20
-9.3808895295
 11
-6.8339515528
 21
-9.5666037267
  0
LINE
  5
3F8
100
AcDbEntity
  8
CURVE
100
AcDbLine
 62
253
  6
CONTINUOUS
 10
-8.1339515528
 20
-7.8023179239
 11
-8.0410944058
 21
-7.8951750224
  0
LINE
  5
3F9
100
AcDbEntity
  8
DRAFT
100
AcDbLine
 62
7
  6
CONTINUOUS
 10
3.3660484472
 20
-18.7666037267
 11
3.3293928109
 21
-18.7299480904
  0
LINE
  5
3FA
100
AcDbEntity
  8
CURVE
100
AcDbLine
 62
253
  6
CONTINUOUS
 10
-7.0196658274
 20
-8.3594608253
 11
-6.8339515528
 21
-8.5451750224
  0
LINE
  5
3FB
100
AcDbEntity
  8
0
100
AcDbLine
 62
7
  6
CONTINUOUS
 10
3.8411433225
 20
-22.3462078874
 11
3.9061642041
 21
-22.414457007
  0
LINE
  5
3FC
100
AcDbEntity
  8
0
100
AcDbLine
 62
7
  6
CONTINUOUS
 10
3.8190911571
 20
-22.3229615414
 11
3.8411433225
 21
-22.3462078874
  0
LINE
  5
3FD
100
AcDbEntity
  8
0
100
AcDbLine
 62
7
  6
CONTINUOUS
 10
3.9061642041
 20
-22.414457007
 11
3.9880708697
 21
-22.50079843
  0
LINE
  5
3FE
100
AcDbEntity
  8
0
100
AcDbLine
 62
7
  6
CONTINUOUS
 10
3.9880708697
 20
-22.50079843
 11
4.0438766353
 21
-22.5598891734
  0
LINE
  5
3FF
100
AcDbEntity
  8
0
100
AcDbLine
 62
7
  6
CONTINUOUS
 10
4.0438766353
 20
-22.5598891734
 11
4.0936645996
 21
-22.6129493959
  0
LINE
  5
400
100
AcDbEntity
  8
0
100
AcDbLine
 62
7
  6
CONTINUOUS
 10
4.0936645996
 20
-22.6129493959
 11
4.1232085124
 21
-22.6446690937
  0
LINE
  5
401
100
AcDbEntity
  8
0
100
AcDbLine
 62
7
  6
CONTINUOUS
 10
4.1232085124
 20
-22.6446690937
 11
4.1497688059
 21
-22.6734067095
  0
LINE
  5
402
100
AcDbEntity
  8
0
100
AcDbLine
 62
7
  6
CONTINUOUS
 10
4.1497688059
 20
-22.6734067095
 11
4.1733593861
 21
-22.6991656604
  0
LWPOLYLINE
  5
403
100
AcDbEntity
  8
0
100
AcDbPolyline
 62
7
  6
CONTINUOUS
 90
19
 70
0
 10
4.1733593861
 20
-22.6991656604
 10
4.1940855753
 20
-22.7220798487
 10
4.2034029857
 20
-22.732484019
 10
4.2120501794
 20
-22.7422351993
 10
4.2200340247
 20
-22.751327898
 10
4.227373429
 20
-22.7597676067
 10
4.2341045051
 20
-22.7676186692
 10
4.2402343762
 20
-22.7748821677
 10
4.245778274
 20
-22.78155702
 10
4.250772936
 20
-22.787704323
 10
4.2552267633
 20
-22.7933338442
 10
4.2591419276
 20
-22.7984358161
 10
4.2625345965
 20
-22.8030420328
 10
4.265409343
 20
-22.8071570206
 10
4.2677674104
 20
-22.8107762532
 10
4.2696147378
 20
-22.8139179459
 10
4.2709548237
 20
-22.8165881704
 10
4.2717905661
 20
-22.818780855
 10
4.2721262002
 20
-22.8204959998
  0
LINE
  5
404
100
AcDbEntity
  8
CURVE
100
AcDbLine
 62
253
  6
CONTINUOUS
 10
-7.3910943767
 20
-7.7094608253
 11
-7.2982372782
 21
-7.8642227596
  0
LWPOLYLINE
  5
405
100
AcDbEntity
  8
0
100
AcDbPolyline
 62
253
  6
CONTINUOUS
 90
34
 70
0
 10
-10.2795797188
 20
24.9777338406
 10
-10.2792630681
 20
24.9674510731
 10
-10.2783829063
 20
24.9571915131
 10
-10.27694122
 20
24.946978316
 10
-10.274941263
 20
24.9368345323
 10
-10.272387549
 20
24.9267830559
 10
-10.2692858416
 20
24.9168465724
 10
-10.2656431412
 20
24.9070475079
 10
-10.2614676691
 20
24.8974079783
 10
-10.2567688492
 20
24.8879497393
 10
-10.2515572864
 20
24.8786941378
 10
-10.2458447428
 20
24.8696620631
 10
-10.2396441115
 20
24.8608739
 10
-10.2329693867
 20
24.8523494829
 10
-10.2258356331
 20
24.8441080508
 10
-10.218258951
 20
24.8361682043
 10
-10.2102564405
 20
24.828547863
 10
-10.2018461629
 20
24.8212642257
 10
-10.1930470997
 20
24.8143337311
 10
-10.1838791098
 20
24.8077720209
 10
-10.1743628848
 20
24.8015939044
 10
-10.1645199023
 20
24.7958133254
 10
-10.1543723774
 20
24.7904433302
 10
-10.1439432123
 20
24.7854960387
 10
-10.1332559451
 20
24.7809826165
 10
-10.1223346964
 20
24.7769132502
 10
-10.1112041147
 20
24.7732971242
 10
-10.0998893211
 20
24.7701423997
 10
-10.0884158525
 20
24.7674561968
 10
-10.0768096037
 20
24.7652445782
 10
-10.0650967694
 20
24.7635125353
 10
-10.0533037848
 20
24.7622639772
 10
-10.0414572659
 20
24.7615017219
 10
-10.0295839496
 20
24.7612274896
  0
LWPOLYLINE
  5
406
100
AcDbEntity
  8
0
100
AcDbPolyline
 62
253
  6
CONTINUOUS
 90
34
 70
0
 10
-7.3883233868
 20
-22.710941294
 10
-7.388639514
 20
-22.7006675162
 10
-7.3895184263
 20
-22.6904146058
 10
-7.3909585178
 20
-22.6802056959
 10
-7.3929570837
 20
-22.6700630966
 10
-7.3955098996
 20
-22.660010507
 10
-7.3986108197
 20
-22.6500728863
 10
-7.4022525277
 20
-22.6402734541
 10
-7.4064270331
 20
-22.6306335183
 10
-7.4111250137
 20
-22.6211746478
 10
-7.4163359703
 20
-22.6119180808
 10
-7.4220481114
 20
-22.6028848523
 10
-7.4282484437
 20
-22.594095541
 10
-7.4349229197
 20
-22.5855700493
 10
-7.4420565175
 20
-22.5773275554
 10
-7.4496331515
 20
-22.5693866481
 10
-7.4576357338
 20
-22.5617652435
 10
-7.4660461921
 20
-22.5544805592
 10
-7.4748455245
 20
-22.5475490559
 10
-7.4840138613
 20
-22.5409863848
 10
-7.4935305132
 20
-22.5348073548
 10
-7.5033739982
 20
-22.5290259136
 10
-7.513522097
 20
-22.5236551116
 10
-7.5239519019
 20
-22.5187070726
 10
-7.5346398693
 20
-22.5141929661
 10
-7.5455618859
 20
-22.5101229772
 10
-7.5566932851
 20
-22.5065062989
 10
-7.5680088995
 20
-22.5033511052
 10
-7.5794831574
 20
-22.5006645195
 10
-7.5910901831
 20
-22.4984525929
 10
-7.6028038168
 20
-22.4967203082
 10
-7.6145976317
 20
-22.4954715743
 10
-7.6264449923
 20
-22.4947092123
 10
-7.638319156
 20
-22.4944349431
  0
LINE
  5
407
100
AcDbEntity
  8
0
100
AcDbLine
 62
253
  6
CONTINUOUS
 10
-10.0295839496
 20
-22.4944349431
 11
-10.0295839496
 21
-23.3622318927
  0
LINE
  5
408
100
AcDbEntity
  8
0
100
AcDbLine
 62
253
  6
CONTINUOUS
 10
-10.0295839496
 20
24.7612274896
 11
-10.0295839496
 21
25.6290244393
  0
LINE
  5
409
100
AcDbEntity
  8
ASSI
100
AcDbLine
 62
7
  6
CONTINUOUS
 10
-9.9339515528
 20
-2.0166037267
 11
-9.9339515528
 21
2.2833962733
  0
LINE
  5
40A
100
AcDbEntity
  8
ASSI
100
AcDbLine
 62
7
  6
CONTINUOUS
 10
-9.9339515528
 20
2.9833962733
 11
-9.9339515528
 21
7.2833962733
  0
LINE
  5
40B
100
AcDbEntity
  8
ASSI
100
AcDbLine
 62
7
  6
CONTINUOUS
 10
-9.9339515528
 20
7.9833962733
 11
-9.9339515528
 21
12.2833962733
  0
LINE
  5
40C
100
AcDbEntity
  8
ASSI
100
AcDbLine
 62
7
  6
CONTINUOUS
 10
-9.9339515528
 20
12.9833962733
 11
-9.9339515528
 21
17.2833962733
  0
LINE
  5
40D
100
AcDbEntity
  8
0
100
AcDbLine
 62
253
  6
CONTINUOUS
 10
-9.3339515528
 20
-17.4666037267
 11
-9.3339515528
 21
-17.0796940284
  0
LINE
  5
40E
100
AcDbEntity
  8
DRAFT
100
AcDbLine
 62
7
  6
CONTINUOUS
 10
-8.7339515528
 20
21.9833962733
 11
-8.7339515528
 21
19.3908388731
  0
LINE
  5
40F
100
AcDbEntity
  8
DRAFT
100
AcDbLine
 62
7
  6
CONTINUOUS
 10
-8.7339515528
 20
-17.4666037267
 11
-8.7339515528
 21
-19.7166037267
  0
LINE
  5
410
100
AcDbEntity
  8
0
100
AcDbLine
 62
7
  6
CONTINUOUS
 10
-8.3664964879
 20
-20.2717171368
 11
-8.3664964879
 21
-19.7753305945
  0
LINE
  5
411
100
AcDbEntity
  8
0
100
AcDbLine
 62
7
  6
CONTINUOUS
 10
-8.3664964879
 20
22.0421231411
 11
-8.3664964879
 21
22.5385096834
  0
LINE
  5
412
100
AcDbEntity
  8
0
100
AcDbLine
 62
7
  6
CONTINUOUS
 10
-8.2005210546
 20
22.7168267715
 11
-8.2005210546
 21
22.7044851167
  0
LINE
  5
413
100
AcDbEntity
  8
0
100
AcDbLine
 62
253
  6
CONTINUOUS
 10
-8.2005210546
 20
22.5871317004
 11
-8.2005210546
 21
22.1251045375
  0
LINE
  5
414
100
AcDbEntity
  8
0
100
AcDbLine
 62
7
  6
CONTINUOUS
 10
-8.2005210546
 20
22.0421231411
 11
-8.2005210546
 21
22.0333962733
  0
LINE
  5
415
100
AcDbEntity
  8
0
100
AcDbLine
 62
7
  6
CONTINUOUS
 10
-8.2005210546
 20
-19.7666037267
 11
-8.2005210546
 21
-19.7753305945
  0
LINE
  5
416
100
AcDbEntity
  8
0
100
AcDbLine
 62
253
  6
CONTINUOUS
 10
-8.2005210546
 20
-19.8583119909
 11
-8.2005210546
 21
-20.3203391538
  0
LINE
  5
417
100
AcDbEntity
  8
0
100
AcDbLine
 62
7
  6
CONTINUOUS
 10
-8.2005210546
 20
-20.4376925701
 11
-8.2005210546
 21
-20.4500342249
  0
LINE
  5
418
100
AcDbEntity
  8
CURVE
100
AcDbLine
 62
253
  6
CONTINUOUS
 10
-8.1339515528
 20
-7.338032431
 11
-8.1339515528
 21
-7.8023179239
  0
LINE
  5
419
100
AcDbEntity
  8
CURVE
100
AcDbLine
 62
253
  6
CONTINUOUS
 10
-8.1339515528
 20
-14.2094611352
 11
-8.1339515528
 21
-14.7666037267
  0
LINE
  5
41A
100
AcDbEntity
  8
CURVE
100
AcDbLine
 62
253
  6
CONTINUOUS
 10
-8.1339515528
 20
-9.6594611352
 11
-8.1339515528
 21
-9.5666037267
  0
LINE
  5
41B
100
AcDbEntity
  8
CURVE
100
AcDbLine
 62
253
  6
CONTINUOUS
 10
-8.1339515528
 20
-8.638032431
 11
-8.1339515528
 21
-8.5451750224
  0
LINE
  5
41C
100
AcDbEntity
  8
CURVE
100
AcDbLine
 62
253
  6
CONTINUOUS
 10
-8.1339515528
 20
-5.7594608253
 11
-8.1339515528
 21
-5.6666037267
  0
LWPOLYLINE
  5
41D
100
AcDbEntity
  8
0
100
AcDbPolyline
 62
253
  6
CONTINUOUS
 90
34
 70
0
 10
-10.2795797188
 20
-22.710941294
 10
-10.2792630568
 20
-22.7006583329
 10
-10.2783828626
 20
-22.6903985807
 10
-10.2769411227
 20
-22.680185194
 10
-10.2749410926
 20
-22.6700412302
 10
-10.2723872857
 20
-22.6599895788
 10
-10.2692854603
 20
-22.6500529101
 10
-10.2656426096
 20
-22.6402536397
 10
-10.2614669567
 20
-22.6306138985
 10
-10.2567679344
 20
-22.6211554654
 10
-10.2515561543
 20
-22.6118996962
 10
-10.2458433767
 20
-22.602867473
 10
-10.2396424935
 20
-22.5940791779
 10
-10.2329674999
 20
-22.5855546453
 10
-10.2258334623
 20
-22.5773131165
 10
-10.2182564828
 20
-22.5693731926
 10
-10.2102536632
 20
-22.5617527945
 10
-10.2018430661
 20
-22.5544691214
 10
-10.1930436735
 20
-22.5475386117
 10
-10.1838753476
 20
-22.5409769091
 10
-10.1743587802
 20
-22.5347988223
 10
-10.164515444
 20
-22.529018292
 10
-10.1543675426
 20
-22.5236483595
 10
-10.1439379917
 20
-22.5187011532
 10
-10.1332503641
 20
-22.5141878532
 10
-10.1223288042
 20
-22.5101186502
 10
-10.1111979444
 20
-22.5065027163
 10
-10.0998828809
 20
-22.5033482025
 10
-10.0884088588
 20
-22.5006621662
 10
-10.0768020615
 20
-22.4984507562
 10
-10.0650895525
 20
-22.4967190737
 10
-10.0532980756
 20
-22.495470945
 10
-10.0414539648
 20
-22.494709031
 10
-10.0295839496
 20
-22.4944349431
  0
LWPOLYLINE
  5
41E
100
AcDbEntity
  8
0
100
AcDbPolyline
 62
253
  6
CONTINUOUS
 90
34
 70
0
 10
-7.3883233868
 20
24.9777338406
 10
-7.3886400375
 20
24.9674510731
 10
-7.3895201993
 20
24.9571915131
 10
-7.3909618856
 20
24.946978316
 10
-7.3929618426
 20
24.9368345323
 10
-7.3955155566
 20
24.9267830559
 10
-7.398617264
 20
24.9168465724
 10
-7.4022599644
 20
24.9070475079
 10
-7.4064354365
 20
24.8974079783
 10
-7.4111342564
 20
24.8879497393
 10
-7.4163458192
 20
24.8786941378
 10
-7.4220583627
 20
24.8696620631
 10
-7.4282589941
 20
24.8608739
 10
-7.4349337189
 20
24.8523494829
 10
-7.4420674725
 20
24.8441080508
 10
-7.4496441546
 20
24.8361682043
 10
-7.4576466651
 20
24.828547863
 10
-7.4660569427
 20
24.8212642257
 10
-7.4748560059
 20
24.8143337311
 10
-7.4840239958
 20
24.8077720209
 10
-7.4935402208
 20
24.8015939044
 10
-7.5033832033
 20
24.7958133254
 10
-7.5135307282
 20
24.7904433302
 10
-7.5239598933
 20
24.7854960387
 10
-7.5346471604
 20
24.7809826165
 10
-7.5455684092
 20
24.7769132502
 10
-7.5566989909
 20
24.7732971242
 10
-7.5680137845
 20
24.7701423997
 10
-7.5794872531
 20
24.7674561968
 10
-7.5910935019
 20
24.7652445782
 10
-7.6028063362
 20
24.7635125353
 10
-7.6145993208
 20
24.7622639772
 10
-7.6264458397
 20
24.7615017219
 10
-7.638319156
 20
24.7612274896
  0
LWPOLYLINE
  5
41F
100
AcDbEntity
  8
RACCORDO
100
AcDbPolyline
 62
253
  6
CONTINUOUS
 90
4
 70
0
 10
-10.7924875073
 20
-2.0166037267
 10
-10.7909680236
 20
-2.0112532806
 10
-10.7894729868
 20
-1.9952636714
 10
-10.7880023969
 20
-1.9687665869
  0
LWPOLYLINE
  5
420
100
AcDbEntity
  8
ASSI
100
AcDbPolyline
 62
253
  6
CONTINUOUS
 90
4
 70
0
 10
-10.7924875073
 20
-2.0166037267
 10
-10.7909680236
 20
-2.0112532806
 10
-10.7894729868
 20
-1.9952636714
 10
-10.7880023969
 20
-1.9687665869
  0
LINE
  5
421
100
AcDbEntity
  8
DRAFT
100
AcDbLine
 62
7
  6
CONTINUOUS
 10
3.3660484472
 20
20.8333962733
 11
3.3293928109
 21
20.7967406369
  0
LINE
  5
422
100
AcDbEntity
  8
0
100
AcDbLine
 62
253
  6
CONTINUOUS
 10
11.0160484472
 20
23.0334131963
 11
11.0073215794
 21
23.0275953665
  0
LINE
  5
423
100
AcDbEntity
  8
RACCORDO
100
AcDbLine
 62
253
  6
CONTINUOUS
 10
11.0160484472
 20
18.805095322
 11
10.8938629927
 21
18.7544844496
  0
LWPOLYLINE
  5
424
100
AcDbEntity
  8
RACCORDO
100
AcDbPolyline
 62
253
  6
CONTINUOUS
 90
3
 70
0
 10
-1.9367034894
 20
-16.1645052705
 10
-1.8860940181
 20
-16.1523596527
 10
-1.8339515528
 20
-16.1482755694
  0
LINE
  5
425
100
AcDbEntity
  8
CURVE
100
AcDbLine
 62
253
  6
CONTINUOUS
 10
-8.1339515528
 20
-14.2094611352
 11
-6.8339515528
 21
-14.2094611352
  0
LINE
  5
426
100
AcDbEntity
  8
CURVE
100
AcDbLine
 62
253
  6
CONTINUOUS
 10
-4.1339515528
 20
-13.9308895295
 11
-2.8339515528
 21
-13.9308895295
  0
LINE
  5
427
100
AcDbEntity
  8
CURVE
100
AcDbLine
 62
253
  6
CONTINUOUS
 10
-8.1339515528
 20
-13.4666037267
 11
-6.8339515528
 21
-13.4666037267
  0
LINE
  5
428
100
AcDbEntity
  8
CURVE
100
AcDbLine
 62
253
  6
CONTINUOUS
 10
-2.8339515528
 20
-13.0951753324
 11
-4.1339515528
 21
-13.0951753324
  0
LINE
  5
429
100
AcDbEntity
  8
CURVE
100
AcDbLine
 62
253
  6
CONTINUOUS
 10
-8.1339515528
 20
-11.1451753324
 11
-6.8339515528
 21
-11.4237463182
  0
LINE
  5
42A
100
AcDbEntity
  8
CURVE
100
AcDbLine
 62
253
  6
CONTINUOUS
 10
-4.1339515528
 20
-11.1451753324
 11
-2.8339515528
 21
-11.4237463182
  0
LINE
  5
42B
100
AcDbEntity
  8
CURVE
100
AcDbLine
 62
253
  6
CONTINUOUS
 10
-8.1339515528
 20
-10.588032121
 11
-7.2053801021
 21
-10.8666037267
  0
LINE
  5
42C
100
AcDbEntity
  8
CURVE
100
AcDbLine
 62
253
  6
CONTINUOUS
 10
-4.1339515528
 20
-10.588032121
 11
-3.2053801021
 21
-10.8666037267
  0
LINE
  5
42D
100
AcDbEntity
  8
RACCORDO
100
AcDbLine
 62
253
  6
CONTINUOUS
 10
10.8938629927
 20
-16.487691903
 11
11.0160484472
 21
-16.5383027754
  0
LINE
  5
42E
100
AcDbEntity
  8
CURVE
100
AcDbLine
 62
253
  6
CONTINUOUS
 10
-7.2053801021
 20
-9.288032431
 11
-7.0196658274
 21
-9.3808895295
  0
LINE
  5
42F
100
AcDbEntity
  8
CURVE
100
AcDbLine
 62
253
  6
CONTINUOUS
 10
-7.7625229648
 20
-8.9166037267
 11
-7.9482372588
 21
-8.8237466281
  0
LINE
  5
430
100
AcDbEntity
  8
CURVE
100
AcDbLine
 62
253
  6
CONTINUOUS
 10
-7.2053801021
 20
-8.2666037267
 11
-7.0196658274
 21
-8.3594608253
  0
LINE
  5
431
100
AcDbEntity
  8
CURVE
100
AcDbLine
 62
253
  6
CONTINUOUS
 10
-3.7625229648
 20
-9.938032121
 11
-3.9482372588
 21
-9.8451753324
  0
LINE
  5
432
100
AcDbEntity
  8
0
100
AcDbLine
 62
253
  6
CONTINUOUS
 10
11.0073215794
 20
-20.7608028199
 11
11.0160484472
 21
-20.7666206497
  0
LWPOLYLINE
  5
433
100
AcDbEntity
  8
RACCORDO
100
AcDbPolyline
 62
253
  6
CONTINUOUS
 90
4
 70
0
 10
1.7588847301
 20
-16.2110524329
 10
1.7958617801
 20
-16.2441257119
 10
1.8258560683
 20
-16.2824396481
 10
1.8479562334
 20
-16.3248300919
  0
LINE
  5
434
100
AcDbEntity
  8
DRAFT
100
AcDbLine
 62
7
  6
CONTINUOUS
 10
3.3660484472
 20
-18.5666037267
 11
3.3293928109
 21
-18.5299480904
  0
LINE
  5
435
100
AcDbEntity
  8
CURVE
100
AcDbLine
 62
253
  6
CONTINUOUS
 10
-7.9482372588
 20
-5.9451751774
 11
-8.1339515528
 21
-5.7594608253
  0
LINE
  5
436
100
AcDbEntity
  8
CURVE
100
AcDbLine
 62
253
  6
CONTINUOUS
 10
-3.9482372588
 20
-9.8451753324
 11
-4.1339515528
 21
-9.6594611352
  0
LINE
  5
437
100
AcDbEntity
  8
CURVE
100
AcDbLine
 62
253
  6
CONTINUOUS
 10
-3.9482372588
 20
-8.8237466281
 11
-4.1339515528
 21
-8.638032431
  0
LWPOLYLINE
  5
438
100
AcDbEntity
  8
0
100
AcDbPolyline
 62
7
  6
CONTINUOUS
 90
34
 70
0
 10
-7.3883233868
 20
25.3790286701
 10
-7.3886069376
 20
25.3909236916
 10
-7.3894561425
 20
25.4027917683
 10
-7.3908690779
 20
25.4146060162
 10
-7.3928425432
 20
25.4263396734
 10
-7.395372068
 20
25.4379661607
 10
-7.3984519224
 20
25.4494591413
 10
-7.4020751298
 20
25.4607925811
 10
-7.4062334828
 20
25.4719408073
 10
-7.4109175619
 20
25.4828785667
 10
-7.4161167566
 20
25.4935810829
 10
-7.4218192894
 20
25.5040241122
 10
-7.428012243
 20
25.5141839988
 10
-7.4346815888
 20
25.5240377282
 10
-7.4418122194
 20
25.5335629797
 10
-7.4493879821
 20
25.5427381764
 10
-7.4573917163
 20
25.5515425343
 10
-7.4658052917
 20
25.5599561097
 10
-7.4746096497
 20
25.567959844
 10
-7.4837848463
 20
25.5755356067
 10
-7.4933100978
 20
25.5826662373
 10
-7.5031638273
 20
25.5893355831
 10
-7.5133237139
 20
25.5955285367
 10
-7.5237667432
 20
25.6012310695
 10
-7.5344692593
 20
25.6064302642
 10
-7.5454070188
 20
25.6111143433
 10
-7.556555245
 20
25.6152726963
 10
-7.5678886848
 20
25.6188959037
 10
-7.5793816654
 20
25.6219757581
 10
-7.5910081527
 20
25.6245052829
 10
-7.6027418099
 20
25.6264787481
 10
-7.6145560578
 20
25.6278916836
 10
-7.6264241345
 20
25.6287408885
 10
-7.638319156
 20
25.6290244393
  0
LWPOLYLINE
  5
439
100
AcDbEntity
  8
0
100
AcDbPolyline
 62
7
  6
CONTINUOUS
 90
4
 70
0
 10
-7.3839515528
 20
25.3834005041
 10
-7.384234703
 20
25.3952957893
 10
-7.3850835186
 20
25.4071641289
 10
-7.3864960786
 20
25.4189786394
  0
LINE
  5
43A
100
AcDbEntity
  8
0
100
AcDbLine
 62
253
  6
CONTINUOUS
 10
-7.638319156
 20
24.7612274896
 11
-7.6332285549
 21
24.2560460041
  0
LINE
  5
43B
100
AcDbEntity
  8
0
100
AcDbLine
 62
253
  6
CONTINUOUS
 10
-7.3883233868
 20
24.9777338406
 11
-7.3839515528
 21
24.5438814215
  0
LINE
  5
43C
100
AcDbEntity
  8
CURVE
100
AcDbLine
 62
253
  6
CONTINUOUS
 10
-7.8553801215
 20
-5.0166037267
 11
-7.8553801215
 21
-4.3666037267
  0
LINE
  5
43D
100
AcDbEntity
  8
0
100
AcDbLine
 62
253
  6
CONTINUOUS
 10
-7.700597207
 20
22.4693832219
 11
-7.700597207
 21
22.129391819
  0
LINE
  5
43E
100
AcDbEntity
  8
0
100
AcDbLine
 62
253
  6
CONTINUOUS
 10
-7.700597207
 20
-19.8625992724
 11
-7.700597207
 21
-20.2025906754
  0
LINE
  5
43F
100
AcDbEntity
  8
CURVE
100
AcDbLine
 62
253
  6
CONTINUOUS
 10
-7.6696658274
 20
-6.4094608253
 11
-7.6696658274
 21
-6.9666037267
  0
LINE
  5
440
100
AcDbEntity
  8
0
100
AcDbLine
 62
253
  6
CONTINUOUS
 10
-7.638319156
 20
-22.4944349431
 11
-7.638319156
 21
-23.3622318927
  0
LINE
  5
441
100
AcDbEntity
  8
0
100
AcDbLine
 62
253
  6
CONTINUOUS
 10
-7.638319156
 20
24.7612274896
 11
-7.638319156
 21
25.6290244393
  0
LINE
  5
442
100
AcDbEntity
  8
DRAFT
100
AcDbLine
 62
7
  6
CONTINUOUS
 10
-7.5880622541
 20
-19.7166037267
 11
-7.5880622541
 21
-17.4666037267
  0
LINE
  5
443
100
AcDbEntity
  8
DRAFT
100
AcDbLine
 62
7
  6
CONTINUOUS
 10
-7.5880622541
 20
19.3908388731
 11
-7.5880622541
 21
21.9833962733
  0
LINE
  5
444
100
AcDbEntity
  8
DRAFT
100
AcDbLine
 62
7
  6
CONTINUOUS
 10
-7.5706071891
 20
20.7967406369
 11
-7.5706071891
 21
19.3995657409
  0
LINE
  5
445
100
AcDbEntity
  8
DRAFT
100
AcDbLine
 62
7
  6
CONTINUOUS
 10
-7.5706071891
 20
-18.5299480904
 11
-7.5706071891
 21
-17.4666037267
  0
LINE
  5
446
100
AcDbEntity
  8
DRAFT
100
AcDbLine
 62
7
  6
CONTINUOUS
 10
-7.5339515528
 20
-19.7166037267
 11
-7.5339515528
 21
-18.5666037267
  0
LINE
  5
447
100
AcDbEntity
  8
DRAFT
100
AcDbLine
 62
7
  6
CONTINUOUS
 10
-7.5339515528
 20
20.8333962733
 11
-7.5339515528
 21
21.9833962733
  0
LINE
  5
448
100
AcDbEntity
  8
DRAFT
100
AcDbLine
 62
7
  6
CONTINUOUS
 10
-7.4339515528
 20
-19.7666037267
 11
-7.4339515528
 21
-18.8666037267
  0
LINE
  5
449
100
AcDbEntity
  8
DRAFT
100
AcDbLine
 62
7
  6
CONTINUOUS
 10
-7.4339515528
 20
21.1333962733
 11
-7.4339515528
 21
22.0333962733
  0
LINE
  5
44A
100
AcDbEntity
  8
DRAFT
100
AcDbLine
 62
7
  6
CONTINUOUS
 10
-7.4295881189
 20
-18.5709671606
 11
-7.4295881189
 21
-18.8666037267
  0
LINE
  5
44B
100
AcDbEntity
  8
DRAFT
100
AcDbLine
 62
7
  6
CONTINUOUS
 10
-7.4295881189
 20
20.8377597072
 11
-7.4295881189
 21
21.1333962733
  0
LINE
  5
44C
100
AcDbEntity
  8
CURVE
100
AcDbLine
 62
253
  6
CONTINUOUS
 10
-7.3910943767
 20
-14.5808895295
 11
-7.3910943767
 21
-14.2094611352
  0
LINE
  5
44D
100
AcDbEntity
  8
CURVE
100
AcDbLine
 62
253
  6
CONTINUOUS
 10
-7.3910943767
 20
-7.7094608253
 11
-7.3910943767
 21
-7.5237466281
  0
LINE
  5
44E
100
AcDbEntity
  8
0
100
AcDbLine
 62
7
  6
CONTINUOUS
 10
-7.3883233868
 20
-23.1122361235
 11
-7.3883233868
 21
-22.710941294
  0
LINE
  5
44F
100
AcDbEntity
  8
0
100
AcDbLine
 62
7
  6
CONTINUOUS
 10
-7.3883233868
 20
24.9777338406
 11
-7.3883233868
 21
25.3790286701
  0
LINE
  5
450
100
AcDbEntity
  8
0
100
AcDbLine
 62
7
  6
CONTINUOUS
 10
-7.3839515528
 20
-21.2666037267
 11
-7.3839515528
 21
-22.710941294
  0
LINE
  5
451
100
AcDbEntity
  8
0
100
AcDbLine
 62
7
  6
CONTINUOUS
 10
-7.3839515528
 20
23.5333962733
 11
-7.3839515528
 21
24.9777338406
  0
LINE
  5
452
100
AcDbEntity
  8
DRAFT
100
AcDbLine
 62
7
  6
CONTINUOUS
 10
-7.3292291393
 20
22.129391819
 11
-7.3292291393
 21
20.9381186868
  0
LINE
  5
453
100
AcDbEntity
  8
DRAFT
100
AcDbLine
 62
7
  6
CONTINUOUS
 10
-7.3292291393
 20
-18.6713261402
 11
-7.3292291393
 21
-19.8625992724
  0
LINE
  5
454
100
AcDbEntity
  8
CURVE
100
AcDbLine
 62
253
  6
CONTINUOUS
 10
-6.8339515528
 20
-5.6666037267
 11
-6.8339515528
 21
-5.7594608253
  0
LINE
  5
455
100
AcDbEntity
  8
CURVE
100
AcDbLine
 62
253
  6
CONTINUOUS
 10
-6.8339515528
 20
-8.5451750224
 11
-6.8339515528
 21
-8.638032431
  0
LINE
  5
456
100
AcDbEntity
  8
CURVE
100
AcDbLine
 62
253
  6
CONTINUOUS
 10
-6.8339515528
 20
-9.5666037267
 11
-6.8339515528
 21
-9.6594611352
  0
LINE
  5
457
100
AcDbEntity
  8
CURVE
100
AcDbLine
 62
253
  6
CONTINUOUS
 10
-6.8339515528
 20
-13.0951753324
 11
-6.8339515528
 21
-13.838032121
  0
LINE
  5
458
100
AcDbEntity
  8
CURVE
100
AcDbLine
 62
253
  6
CONTINUOUS
 10
-6.8339515528
 20
-14.2094611352
 11
-6.8339515528
 21
-14.7666037267
  0
LINE
  5
459
100
AcDbEntity
  8
CURVE
100
AcDbLine
 62
253
  6
CONTINUOUS
 10
-6.8339515528
 20
-7.7094608253
 11
-6.8339515528
 21
-7.338032431
  0
LINE
  5
45A
100
AcDbEntity
  8
DRAFT
100
AcDbLine
 62
7
  6
CONTINUOUS
 10
-6.7386739663
 20
21.2381186868
 11
-6.7386739663
 21
20.9381186868
  0
LINE
  5
45B
100
AcDbEntity
  8
DRAFT
100
AcDbLine
 62
7
  6
CONTINUOUS
 10
-6.7386739663
 20
-18.6713261402
 11
-6.7386739663
 21
-18.9713261402
  0
LINE
  5
45C
100
AcDbEntity
  8
DRAFT
100
AcDbLine
 62
7
  6
CONTINUOUS
 10
-6.6383149867
 20
21.1377597072
 11
-6.6383149867
 21
20.8377597072
  0
LINE
  5
45D
100
AcDbEntity
  8
DRAFT
100
AcDbLine
 62
7
  6
CONTINUOUS
 10
-6.6383149867
 20
-18.5709671606
 11
-6.6383149867
 21
-18.8709671606
  0
LINE
  5
45E
100
AcDbEntity
  8
0
100
AcDbLine
 62
253
  6
CONTINUOUS
 10
-7.6332285549
 20
-21.9892534575
 11
-7.638319156
 21
-22.4944349431
  0
LINE
  5
45F
100
AcDbEntity
  8
0
100
AcDbLine
 62
253
  6
CONTINUOUS
 10
-7.3839515528
 20
-22.2770888749
 11
-7.3883233868
 21
-22.710941294
  0
LINE
  5
460
100
AcDbEntity
  8
DRAFT
100
AcDbLine
 62
7
  6
CONTINUOUS
 10
6.4707708607
 20
21.2381186868
 11
6.3704118811
 21
21.1377597072
  0
LINE
  5
461
100
AcDbEntity
  8
DRAFT
100
AcDbLine
 62
7
  6
CONTINUOUS
 10
6.4707708607
 20
20.9381186868
 11
6.3704118811
 21
20.8377597072
  0
LINE
  5
462
100
AcDbEntity
  8
SMUSSO
100
AcDbLine
 62
7
  6
CONTINUOUS
 10
-0.3839515528
 20
12.8833962733
 11
0.1160484472
 21
13.3833962733
  0
LINE
  5
463
100
AcDbEntity
  8
ASSI
100
AcDbLine
 62
7
  6
CONTINUOUS
 10
-0.3839515528
 20
12.8833962733
 11
0.1160484472
 21
13.3833962733
  0
LINE
  5
464
100
AcDbEntity
  8
SMUSSO
100
AcDbLine
 62
7
  6
CONTINUOUS
 10
4.6160484472
 20
17.3833962733
 11
4.1160484472
 21
16.8833962733
  0
LINE
  5
465
100
AcDbEntity
  8
ASSI
100
AcDbLine
 62
7
  6
CONTINUOUS
 10
4.6160484472
 20
17.3833962733
 11
4.1160484472
 21
16.8833962733
  0
LINE
  5
466
100
AcDbEntity
  8
CURVE
100
AcDbLine
 62
253
  6
CONTINUOUS
 10
-3.2053801021
 20
-9.288032431
 11
-3.0196658274
 21
-9.3808895295
  0
LINE
  5
467
100
AcDbEntity
  8
CURVE
100
AcDbLine
 62
253
  6
CONTINUOUS
 10
-3.7625229648
 20
-8.9166037267
 11
-3.9482372588
 21
-8.8237466281
  0
LINE
  5
468
100
AcDbEntity
  8
CURVE
100
AcDbLine
 62
253
  6
CONTINUOUS
 10
-7.7625229648
 20
-6.038032276
 11
-7.9482372588
 21
-5.9451751774
  0
LINE
  5
469
100
AcDbEntity
  8
CURVE
100
AcDbLine
 62
253
  6
CONTINUOUS
 10
-3.2053801021
 20
-8.2666037267
 11
-3.0196658274
 21
-8.3594608253
  0
LINE
  5
46A
100
AcDbEntity
  8
CURVE
100
AcDbLine
 62
253
  6
CONTINUOUS
 10
-7.0196658274
 20
-5.4808894521
 11
-6.8339515528
 21
-5.6666037267
  0
LINE
  5
46B
100
AcDbEntity
  8
DRAFT
100
AcDbLine
 62
7
  6
CONTINUOUS
 10
6.4707708607
 20
-18.9713261402
 11
6.3704118811
 21
-18.8709671606
  0
LINE
  5
46C
100
AcDbEntity
  8
CURVE
100
AcDbLine
 62
253
  6
CONTINUOUS
 10
-3.0196658274
 20
-9.3808895295
 11
-2.8339515528
 21
-9.5666037267
  0
LINE
  5
46D
100
AcDbEntity
  8
DRAFT
100
AcDbLine
 62
7
  6
CONTINUOUS
 10
6.4707708607
 20
-18.6713261402
 11
6.3704118811
 21
-18.5709671606
  0
LINE
  5
46E
100
AcDbEntity
  8
CURVE
100
AcDbLine
 62
253
  6
CONTINUOUS
 10
-4.1339515528
 20
-7.7094608253
 11
-3.9482372588
 21
-7.8951750224
  0
LINE
  5
46F
100
AcDbEntity
  8
CURVE
100
AcDbLine
 62
253
  6
CONTINUOUS
 10
-3.0196658274
 20
-8.3594608253
 11
-2.8339515528
 21
-8.5451750224
  0
LINE
  5
470
100
AcDbEntity
  8
CURVE
100
AcDbLine
 62
253
  6
CONTINUOUS
 10
-3.9482372588
 20
-5.9451751774
 11
-4.1339515528
 21
-5.7594608253
  0
LINE
  5
471
100
AcDbEntity
  8
CURVE
100
AcDbLine
 62
253
  6
CONTINUOUS
 10
-6.0089515528
 20
10.5158402733
 11
-6.0089515528
 21
11.9763402733
  0
LINE
  5
472
100
AcDbEntity
  8
ASSI
100
AcDbLine
 62
253
  6
CONTINUOUS
 10
-5.8339515528
 20
-17.4666037267
 11
-5.8339515528
 21
-17.0796940284
  0
LINE
  5
473
100
AcDbEntity
  8
CURVE
100
AcDbLine
 62
253
  6
CONTINUOUS
 10
-5.6339515528
 20
-3.0666037267
 11
-5.6339515528
 21
-3.3666037267
  0
LINE
  5
474
100
AcDbEntity
  8
CURVE
100
AcDbLine
 62
253
  6
CONTINUOUS
 10
-5.6339515528
 20
-0.6666037267
 11
-5.6339515528
 21
-0.3666037267
  0
LINE
  5
475
100
AcDbEntity
  8
CURVE
100
AcDbLine
 62
253
  6
CONTINUOUS
 10
-5.2589515528
 20
11.9763402733
 11
-5.2589515528
 21
10.5158402733
  0
LINE
  5
476
100
AcDbEntity
  8
ASSI
100
AcDbLine
 62
7
  6
CONTINUOUS
 10
-4.8339515528
 20
-17.0796940284
 11
-4.8339515528
 21
-17.4666037267
  0
LINE
  5
477
100
AcDbEntity
  8
0
100
AcDbLine
 62
7
  6
CONTINUOUS
 10
-4.5839515528
 20
25.1333962733
 11
-4.5839515528
 21
24.5013412205
  0
LINE
  5
478
100
AcDbEntity
  8
0
100
AcDbLine
 62
7
  6
CONTINUOUS
 10
-4.5839515528
 20
24.0654513261
 11
-4.5839515528
 21
23.5333962733
  0
LINE
  5
479
100
AcDbEntity
  8
0
100
AcDbLine
 62
7
  6
CONTINUOUS
 10
-4.5839515528
 20
-21.2666037267
 11
-4.5839515528
 21
-21.7986587795
  0
LINE
  5
47A
100
AcDbEntity
  8
0
100
AcDbLine
 62
7
  6
CONTINUOUS
 10
-4.5839515528
 20
-22.2345486739
 11
-4.5839515528
 21
-22.8666037267
  0
LINE
  5
47B
100
AcDbEntity
  8
0
100
AcDbLine
 62
7
  6
CONTINUOUS
 10
-4.5400293057
 20
-22.8204959998
 11
-4.5400293057
 21
-21.2226814797
  0
LINE
  5
47C
100
AcDbEntity
  8
0
100
AcDbLine
 62
7
  6
CONTINUOUS
 10
-4.5400293057
 20
23.4894740262
 11
-4.5400293057
 21
25.0872885463
  0
LINE
  5
47D
100
AcDbEntity
  8
RACCORDO
100
AcDbLine
 62
7
  6
CONTINUOUS
 10
-4.1470418545
 20
20.4464979981
 11
-4.1470418545
 21
19.6464751519
  0
LINE
  5
47E
100
AcDbEntity
  8
ASSI
100
AcDbLine
 62
7
  6
CONTINUOUS
 10
-4.1470418545
 20
20.4464979981
 11
-4.1470418545
 21
19.6464751519
  0
LINE
  5
47F
100
AcDbEntity
  8
RACCORDO
100
AcDbLine
 62
7
  6
CONTINUOUS
 10
-4.1470418545
 20
-18.1797054515
 11
-4.1470418545
 21
-17.0796940284
  0
LINE
  5
480
100
AcDbEntity
  8
ASSI
100
AcDbLine
 62
7
  6
CONTINUOUS
 10
-4.1470418545
 20
-18.1797054515
 11
-4.1470418545
 21
-17.0796940284
  0
LINE
  5
481
100
AcDbEntity
  8
CURVE
100
AcDbLine
 62
253
  6
CONTINUOUS
 10
-4.1339515528
 20
-1.4666037267
 11
-4.1339515528
 21
-2.2666037267
  0
LINE
  5
482
100
AcDbEntity
  8
CURVE
100
AcDbLine
 62
253
  6
CONTINUOUS
 10
-4.1339515528
 20
-7.338032431
 11
-4.1339515528
 21
-7.7094608253
  0
LINE
  5
483
100
AcDbEntity
  8
CURVE
100
AcDbLine
 62
253
  6
CONTINUOUS
 10
-4.1339515528
 20
-13.0951753324
 11
-4.1339515528
 21
-13.5594611352
  0
LINE
  5
484
100
AcDbEntity
  8
CURVE
100
AcDbLine
 62
253
  6
CONTINUOUS
 10
-4.1339515528
 20
-13.9308895295
 11
-4.1339515528
 21
-14.488032121
  0
LINE
  5
485
100
AcDbEntity
  8
CURVE
100
AcDbLine
 62
253
  6
CONTINUOUS
 10
-4.1339515528
 20
-9.6594611352
 11
-4.1339515528
 21
-9.5666037267
  0
LINE
  5
486
100
AcDbEntity
  8
CURVE
100
AcDbLine
 62
253
  6
CONTINUOUS
 10
-4.1339515528
 20
-8.638032431
 11
-4.1339515528
 21
-8.5451750224
  0
LINE
  5
487
100
AcDbEntity
  8
CURVE
100
AcDbLine
 62
253
  6
CONTINUOUS
 10
-4.1339515528
 20
-5.7594608253
 11
-4.1339515528
 21
-5.6666037267
  0
LWPOLYLINE
  5
488
100
AcDbEntity
  8
0
100
AcDbPolyline
 62
7
  6
CONTINUOUS
 90
5
 70
0
 10
7.6837351551
 20
22.8307855355
 10
7.6570863037
 20
22.791388224
 10
7.6300789709
 20
22.7516554749
 10
7.6027131569
 20
22.7116653944
 10
7.5749257527
 20
22.6715342338
  0
LWPOLYLINE
  5
489
100
AcDbEntity
  8
0
100
AcDbPolyline
 62
7
  6
CONTINUOUS
 90
4
 70
0
 10
7.5749257527
 20
22.6715342338
 10
7.49004374
 20
22.5503928301
 10
7.4614534982
 20
22.5098621476
 10
7.4326941014
 20
22.4693832219
  0
LINE
  5
48A
100
AcDbEntity
  8
CURVE
100
AcDbLine
 62
253
  6
CONTINUOUS
 10
-3.2053801021
 20
-9.938032121
 11
-3.7625229648
 21
-9.938032121
  0
LINE
  5
48B
100
AcDbEntity
  8
CURVE
100
AcDbLine
 62
253
  6
CONTINUOUS
 10
-7.2053801021
 20
-9.938032121
 11
-7.7625229648
 21
-9.938032121
  0
LINE
  5
48C
100
AcDbEntity
  8
CURVE
100
AcDbLine
 62
253
  6
CONTINUOUS
 10
-7.7625229648
 20
-9.288032431
 11
-7.2053801021
 21
-9.288032431
  0
LINE
  5
48D
100
AcDbEntity
  8
CURVE
100
AcDbLine
 62
253
  6
CONTINUOUS
 10
-3.7625229648
 20
-9.288032431
 11
-3.2053801021
 21
-9.288032431
  0
LINE
  5
48E
100
AcDbEntity
  8
CURVE
100
AcDbLine
 62
253
  6
CONTINUOUS
 10
-3.2053801021
 20
-8.9166037267
 11
-3.7625229648
 21
-8.9166037267
  0
LINE
  5
48F
100
AcDbEntity
  8
CURVE
100
AcDbLine
 62
253
  6
CONTINUOUS
 10
-7.2053801021
 20
-8.9166037267
 11
-7.7625229648
 21
-8.9166037267
  0
LINE
  5
490
100
AcDbEntity
  8
CURVE
100
AcDbLine
 62
253
  6
CONTINUOUS
 10
-7.2053801021
 20
-5.388032276
 11
-7.0196658274
 21
-5.4808894521
  0
LINE
  5
491
100
AcDbEntity
  8
CURVE
100
AcDbLine
 62
253
  6
CONTINUOUS
 10
-3.7625229648
 20
-6.038032276
 11
-3.9482372588
 21
-5.9451751774
  0
LINE
  5
492
100
AcDbEntity
  8
CURVE
100
AcDbLine
 62
253
  6
CONTINUOUS
 10
-3.2053801021
 20
-5.388032276
 11
-3.0196658274
 21
-5.4808894521
  0
LINE
  5
493
100
AcDbEntity
  8
CURVE
100
AcDbLine
 62
253
  6
CONTINUOUS
 10
-3.0196658274
 20
-5.4808894521
 11
-2.8339515528
 21
-5.6666037267
  0
LINE
  5
494
100
AcDbEntity
  8
CURVE
100
AcDbLine
 62
253
  6
CONTINUOUS
 10
-6.4824796902
 20
-1.0180755893
 11
-6.6946117246
 21
-0.8059435549
  0
LWPOLYLINE
  5
495
100
AcDbEntity
  8
0
100
AcDbPolyline
 62
7
  6
CONTINUOUS
 90
3
 70
0
 10
7.4326941014
 20
-20.2025906754
 10
7.4614534982
 20
-20.2430696011
 10
7.49004374
 20
-20.2836002835
  0
LWPOLYLINE
  5
496
100
AcDbEntity
  8
0
100
AcDbPolyline
 62
7
  6
CONTINUOUS
 90
6
 70
0
 10
7.49004374
 20
-20.2836002835
 10
7.5749257527
 20
-20.4047416872
 10
7.6027131569
 20
-20.4448728478
 10
7.6300789709
 20
-20.4848629283
 10
7.6570863037
 20
-20.5245956774
 10
7.6837351551
 20
-20.5639929889
  0
LINE
  5
497
100
AcDbEntity
  8
DRAFT
100
AcDbLine
 62
7
  6
CONTINUOUS
 10
-3.6344922762
 20
21.1953570346
 11
-3.6341049874
 21
21.1509781388
  0
LINE
  5
498
100
AcDbEntity
  8
0
100
AcDbLine
 62
7
  6
CONTINUOUS
 10
-3.6545060159
 20
23.4887044572
 11
-3.6688092691
 21
25.1276949283
  0
LINE
  5
499
100
AcDbEntity
  8
0
100
AcDbLine
 62
7
  6
CONTINUOUS
 10
-3.1260973718
 20
21.9333962733
 11
-3.1396548776
 21
23.4869325635
  0
LINE
  5
49A
100
AcDbEntity
  8
CURVE
100
AcDbLine
 62
253
  6
CONTINUOUS
 10
-3.8553801215
 20
-5.0166037267
 11
-3.8553801215
 21
-4.3666037267
  0
LINE
  5
49B
100
AcDbEntity
  8
CURVE
100
AcDbLine
 62
253
  6
CONTINUOUS
 10
-3.6696658274
 20
-6.4094608253
 11
-3.6696658274
 21
-6.9666037267
  0
LINE
  5
49C
100
AcDbEntity
  8
DRAFT
100
AcDbLine
 62
7
  6
CONTINUOUS
 10
-3.6339515528
 20
-18.7666037267
 11
-3.6339515528
 21
-18.5666037267
  0
LINE
  5
49D
100
AcDbEntity
  8
DRAFT
100
AcDbLine
 62
7
  6
CONTINUOUS
 10
-3.6339515528
 20
20.8333962733
 11
-3.6339515528
 21
21.0333962733
  0
LINE
  5
49E
100
AcDbEntity
  8
DRAFT
100
AcDbLine
 62
7
  6
CONTINUOUS
 10
-3.5972959164
 20
-18.7299480904
 11
-3.5972959164
 21
-18.5299480904
  0
LINE
  5
49F
100
AcDbEntity
  8
DRAFT
100
AcDbLine
 62
7
  6
CONTINUOUS
 10
-3.5972959164
 20
20.7967406369
 11
-3.5972959164
 21
20.9967406369
  0
LINE
  5
4A0
100
AcDbEntity
  8
CURVE
100
AcDbLine
 62
253
  6
CONTINUOUS
 10
-3.3910943767
 20
-14.3023179239
 11
-3.3910943767
 21
-13.9308895295
  0
LINE
  5
4A1
100
AcDbEntity
  8
CURVE
100
AcDbLine
 62
253
  6
CONTINUOUS
 10
-3.3910943767
 20
-7.7094608253
 11
-3.3910943767
 21
-7.338032431
  0
LINE
  5
4A2
100
AcDbEntity
  8
CURVE
100
AcDbLine
 62
253
  6
CONTINUOUS
 10
-2.8339515528
 20
-5.6666037267
 11
-2.8339515528
 21
-5.7594608253
  0
LINE
  5
4A3
100
AcDbEntity
  8
CURVE
100
AcDbLine
 62
253
  6
CONTINUOUS
 10
-2.8339515528
 20
-7.338032431
 11
-2.8339515528
 21
-7.8951750224
  0
LINE
  5
4A4
100
AcDbEntity
  8
CURVE
100
AcDbLine
 62
253
  6
CONTINUOUS
 10
-2.8339515528
 20
-8.5451750224
 11
-2.8339515528
 21
-8.638032431
  0
LINE
  5
4A5
100
AcDbEntity
  8
CURVE
100
AcDbLine
 62
253
  6
CONTINUOUS
 10
-2.8339515528
 20
-9.5666037267
 11
-2.8339515528
 21
-9.6594611352
  0
LINE
  5
4A6
100
AcDbEntity
  8
CURVE
100
AcDbLine
 62
253
  6
CONTINUOUS
 10
-2.8339515528
 20
-13.9308895295
 11
-2.8339515528
 21
-14.488032121
  0
LINE
  5
4A7
100
AcDbEntity
  8
0
100
AcDbLine
 62
7
  6
CONTINUOUS
 10
-2.6339515528
 20
-17.1666037267
 11
-2.6339515528
 21
-15.4666037267
  0
LINE
  5
4A8
100
AcDbEntity
  8
ASSI
100
AcDbLine
 62
7
  6
CONTINUOUS
 10
-2.6339515528
 20
-17.1666037267
 11
-2.6339515528
 21
-15.4666037267
  0
LINE
  5
4A9
100
AcDbEntity
  8
0
100
AcDbLine
 62
7
  6
CONTINUOUS
 10
-2.6339515528
 20
17.7333962733
 11
-2.6339515528
 21
19.4333962733
  0
LINE
  5
4AA
100
AcDbEntity
  8
ASSI
100
AcDbLine
 62
7
  6
CONTINUOUS
 10
-2.6339515528
 20
17.7333962733
 11
-2.6339515528
 21
19.4333962733
  0
LINE
  5
4AB
100
AcDbEntity
  8
RACCORDO
100
AcDbLine
 62
253
  6
CONTINUOUS
 10
-2.2803981622
 20
19.3659362899
 11
-2.2803981622
 21
19.4333962733
  0
LINE
  5
4AC
100
AcDbEntity
  8
0
100
AcDbLine
 62
7
  6
CONTINUOUS
 10
-2.2339515528
 20
19.3333962733
 11
-2.2339515528
 21
19.3655774753
  0
LINE
  5
4AD
100
AcDbEntity
  8
RACCORDO
100
AcDbLine
 62
7
  6
CONTINUOUS
 10
-2.1339515528
 20
19.3333962733
 11
-2.1339515528
 21
19.3664448622
  0
LINE
  5
4AE
100
AcDbEntity
  8
DRAFT
100
AcDbLine
 62
7
  6
CONTINUOUS
 10
-3.6344922762
 20
-18.928564488
 11
-3.6341049874
 21
-18.8841855923
  0
LINE
  5
4AF
100
AcDbEntity
  8
0
100
AcDbLine
 62
7
  6
CONTINUOUS
 10
-3.6545060159
 20
-21.2219119107
 11
-3.6688092691
 21
-22.8609023817
  0
LINE
  5
4B0
100
AcDbEntity
  8
0
100
AcDbLine
 62
7
  6
CONTINUOUS
 10
-3.1260973718
 20
-19.6666037267
 11
-3.1396548776
 21
-21.220140017
  0
LWPOLYLINE
  5
4B1
100
AcDbEntity
  8
RACCORDO
100
AcDbPolyline
 62
253
  6
CONTINUOUS
 90
5
 70
0
 10
1.8615958091
 20
18.6373375553
 10
1.848294893
 20
18.5924591792
 10
1.8264336228
 20
18.5501309429
 10
1.7965083822
 20
18.5116098516
 10
1.7593706379
 20
18.4782104442
  0
LINE
  5
4B2
100
AcDbEntity
  8
RACCORDO
100
AcDbLine
 62
7
  6
CONTINUOUS
 10
1.8566207948
 20
19.3650137718
 11
1.8470519312
 21
19.3333962733
  0
LINE
  5
4B3
100
AcDbEntity
  8
SMUSSO
100
AcDbLine
 62
7
  6
CONTINUOUS
 10
-0.3839515528
 20
7.8833962733
 11
0.1160484472
 21
8.3833962733
  0
LINE
  5
4B4
100
AcDbEntity
  8
ASSI
100
AcDbLine
 62
7
  6
CONTINUOUS
 10
-0.3839515528
 20
7.8833962733
 11
0.1160484472
 21
8.3833962733
  0
LINE
  5
4B5
100
AcDbEntity
  8
SMUSSO
100
AcDbLine
 62
7
  6
CONTINUOUS
 10
4.6160484472
 20
12.3833962733
 11
4.1160484472
 21
11.8833962733
  0
LINE
  5
4B6
100
AcDbEntity
  8
ASSI
100
AcDbLine
 62
7
  6
CONTINUOUS
 10
4.6160484472
 20
12.3833962733
 11
4.1160484472
 21
11.8833962733
  0
LINE
  5
4B7
100
AcDbEntity
  8
CURVE
100
AcDbLine
 62
253
  6
CONTINUOUS
 10
9.0517627412
 20
12.5905391747
 11
9.2374770352
 21
12.6833962733
  0
LINE
  5
4B8
100
AcDbEntity
  8
CURVE
100
AcDbLine
 62
253
  6
CONTINUOUS
 10
9.9803341726
 20
12.1262533719
 11
9.7946198979
 21
12.0333962733
  0
LINE
  5
4B9
100
AcDbEntity
  8
CURVE
100
AcDbLine
 62
253
  6
CONTINUOUS
 10
10.1660484472
 20
11.661967569
 11
8.8660484472
 21
11.2905391747
  0
LINE
  5
4BA
100
AcDbEntity
  8
CURVE
100
AcDbLine
 62
253
  6
CONTINUOUS
 10
-2.8339515528
 20
-10.3094611352
 11
-4.1339515528
 21
-10.588032121
  0
LINE
  5
4BB
100
AcDbEntity
  8
CURVE
100
AcDbLine
 62
253
  6
CONTINUOUS
 10
-6.8339515528
 20
-10.3094611352
 11
-8.1339515528
 21
-10.588032121
  0
LINE
  5
4BC
100
AcDbEntity
  8
CURVE
100
AcDbLine
 62
253
  6
CONTINUOUS
 10
-7.7625229648
 20
-8.2666037267
 11
-7.2053801021
 21
-8.2666037267
  0
LINE
  5
4BD
100
AcDbEntity
  8
CURVE
100
AcDbLine
 62
253
  6
CONTINUOUS
 10
-3.7625229648
 20
-8.2666037267
 11
-3.2053801021
 21
-8.2666037267
  0
LINE
  5
4BE
100
AcDbEntity
  8
CURVE
100
AcDbLine
 62
253
  6
CONTINUOUS
 10
-8.0410944058
 20
-7.8951750224
 11
-7.5768086901
 21
-7.8951750224
  0
LINE
  5
4BF
100
AcDbEntity
  8
CURVE
100
AcDbLine
 62
253
  6
CONTINUOUS
 10
-3.9482372588
 20
-7.8951750224
 11
-3.5768086901
 21
-7.8951750224
  0
LINE
  5
4C0
100
AcDbEntity
  8
CURVE
100
AcDbLine
 62
253
  6
CONTINUOUS
 10
-7.2982372782
 20
-7.8642227596
 11
-7.0196658274
 21
-7.8642227596
  0
LINE
  5
4C1
100
AcDbEntity
  8
CURVE
100
AcDbLine
 62
253
  6
CONTINUOUS
 10
-3.3910943767
 20
-7.338032431
 11
-2.8339515528
 21
-7.338032431
  0
LINE
  5
4C2
100
AcDbEntity
  8
CURVE
100
AcDbLine
 62
253
  6
CONTINUOUS
 10
-7.8553801215
 20
-4.3666037267
 11
-6.8339515528
 21
-4.645175158
  0
LINE
  5
4C3
100
AcDbEntity
  8
CURVE
100
AcDbLine
 62
253
  6
CONTINUOUS
 10
-3.8553801215
 20
-4.3666037267
 11
-2.8339515528
 21
-4.645175158
  0
LWPOLYLINE
  5
4C4
100
AcDbEntity
  8
0
100
AcDbPolyline
 62
7
  6
CONTINUOUS
 90
18
 70
0
 10
7.1339558214
 20
-23.209522176
 10
7.138639675
 20
-23.220460173
 10
7.1438386784
 20
-23.2311629143
 10
7.1495410556
 20
-23.241606155
 10
7.1557338891
 20
-23.2517662326
 10
7.1624031517
 20
-23.2616201318
 10
7.1695337365
 20
-23.2711455305
 10
7.1771094883
 20
-23.2803208458
 10
7.1851132467
 20
-23.2891252928
 10
7.1935268811
 20
-23.2975389272
 10
7.2023313281
 20
-23.3055426856
 10
7.2115066434
 20
-23.3131184374
 10
7.2210320421
 20
-23.3202490222
 10
7.2308859413
 20
-23.3269182848
 10
7.2410460189
 20
-23.3331111183
 10
7.2514892596
 20
-23.3388134955
 10
7.2621920009
 20
-23.3440124989
 10
7.2731299979
 20
-23.3486963525
  0
LINE
  5
4C5
100
AcDbEntity
  8
RACCORDO
100
AcDbLine
 62
253
  6
CONTINUOUS
 10
1.8479562334
 20
-16.3248300919
 11
1.8614907731
 21
-16.3700090312
  0
LWPOLYLINE
  5
4C6
100
AcDbEntity
  8
0
100
AcDbPolyline
 62
7
  6
CONTINUOUS
 90
6
 70
0
 10
-7.3864960786
 20
25.4189786394
 10
-7.3884691851
 20
25.4307125608
 10
-7.3909983711
 20
25.4423393121
 10
-7.3940779111
 20
25.4538325523
 10
-7.3977008315
 20
25.4651662471
 10
-7.401858927
 20
25.4763147226
  0
LINE
  5
4C7
100
AcDbEntity
  8
0
100
AcDbLine
 62
253
  6
CONTINUOUS
 10
-1.6349059791
 20
-18.9362254785
 11
-1.6354757877
 21
-18.7510904063
  0
LINE
  5
4C8
100
AcDbEntity
  8
RACCORDO
100
AcDbLine
 62
7
  6
CONTINUOUS
 10
-2.1165408635
 20
-17.1666037267
 11
-2.1165408635
 21
-17.0666037267
  0
LINE
  5
4C9
100
AcDbEntity
  8
ASSI
100
AcDbLine
 62
7
  6
CONTINUOUS
 10
-2.1165408635
 20
-17.1666037267
 11
-2.1165408635
 21
-17.0666037267
  0
LINE
  5
4CA
100
AcDbEntity
  8
RACCORDO
100
AcDbLine
 62
7
  6
CONTINUOUS
 10
-2.0379560071
 20
19.3333962733
 11
-2.0379560071
 21
19.4333962733
  0
LINE
  5
4CB
100
AcDbEntity
  8
ASSI
100
AcDbLine
 62
7
  6
CONTINUOUS
 10
-2.0379560071
 20
19.3333962733
 11
-2.0379560071
 21
19.4333962733
  0
LINE
  5
4CC
100
AcDbEntity
  8
RACCORDO
100
AcDbLine
 62
253
  6
CONTINUOUS
 10
-1.8339515528
 20
-16.1666037267
 11
-1.8339515528
 21
-16.1166037267
  0
LINE
  5
4CD
100
AcDbEntity
  8
RACCORDO
100
AcDbLine
 62
253
  6
CONTINUOUS
 10
-1.8339515528
 20
18.3833962733
 11
-1.8339515528
 21
18.4493641917
  0
LINE
  5
4CE
100
AcDbEntity
  8
0
100
AcDbLine
 62
7
  6
CONTINUOUS
 10
-1.1426255062
 20
-21.2613994392
 11
-1.1425189228
 21
-22.6608989965
  0
LINE
  5
4CF
100
AcDbEntity
  8
0
100
AcDbLine
 62
7
  6
CONTINUOUS
 10
-1.1339515528
 20
24.9334030425
 11
-1.1339515528
 21
23.5333962733
  0
LINE
  5
4D0
100
AcDbEntity
  8
0
100
AcDbLine
 62
7
  6
CONTINUOUS
 10
-1.1339515528
 20
-21.2666037267
 11
-1.1339515528
 21
-22.6666104959
  0
LINE
  5
4D1
100
AcDbEntity
  8
SMUSSO
100
AcDbLine
 62
7
  6
CONTINUOUS
 10
-0.3839515528
 20
-2.3666037267
 11
-0.3839515528
 21
2.6333962733
  0
LINE
  5
4D2
100
AcDbEntity
  8
ASSI
100
AcDbLine
 62
7
  6
CONTINUOUS
 10
-0.3839515528
 20
-2.3666037267
 11
-0.3839515528
 21
2.6333962733
  0
LINE
  5
4D3
100
AcDbEntity
  8
SMUSSO
100
AcDbLine
 62
7
  6
CONTINUOUS
 10
-0.3839515528
 20
2.8833962733
 11
-0.3839515528
 21
7.3833962733
  0
LINE
  5
4D4
100
AcDbEntity
  8
ASSI
100
AcDbLine
 62
7
  6
CONTINUOUS
 10
-0.3839515528
 20
2.8833962733
 11
-0.3839515528
 21
7.3833962733
  0
LINE
  5
4D5
100
AcDbEntity
  8
SMUSSO
100
AcDbLine
 62
7
  6
CONTINUOUS
 10
-0.3839515528
 20
7.8833962733
 11
-0.3839515528
 21
12.3833962733
  0
LINE
  5
4D6
100
AcDbEntity
  8
ASSI
100
AcDbLine
 62
7
  6
CONTINUOUS
 10
-0.3839515528
 20
7.8833962733
 11
-0.3839515528
 21
12.3833962733
  0
LINE
  5
4D7
100
AcDbEntity
  8
SMUSSO
100
AcDbLine
 62
7
  6
CONTINUOUS
 10
-0.3839515528
 20
12.8833962733
 11
-0.3839515528
 21
17.3833962733
  0
LINE
  5
4D8
100
AcDbEntity
  8
ASSI
100
AcDbLine
 62
7
  6
CONTINUOUS
 10
-0.3839515528
 20
12.8833962733
 11
-0.3839515528
 21
17.3833962733
  0
LINE
  5
4D9
100
AcDbEntity
  8
0
100
AcDbLine
 62
7
  6
CONTINUOUS
 10
-1.1426255062
 20
23.5281919858
 11
-1.1425189228
 21
24.9276915431
  0
LINE
  5
4DA
100
AcDbEntity
  8
0
100
AcDbLine
 62
253
  6
CONTINUOUS
 10
-1.6354757877
 20
21.0178829529
 11
-1.6349059791
 21
21.2030180251
  0
LWPOLYLINE
  5
4DB
100
AcDbEntity
  8
0
100
AcDbPolyline
 62
7
  6
CONTINUOUS
 90
17
 70
0
 10
4.2721262002
 20
25.0872885463
 10
4.2717900478
 20
25.0855725203
 10
4.2709525114
 20
25.0833762402
 10
4.2696088121
 20
25.0806997059
 10
4.2677552621
 20
25.0775488167
 10
4.2653879552
 20
25.0739176733
 10
4.2625015225
 20
25.069788578
 10
4.2590942694
 20
25.0651644593
 10
4.2551619717
 20
25.0600423886
 10
4.250691878
 20
25.0543958822
 10
4.2456848537
 20
25.0482365138
 10
4.2401320723
 20
25.0415527097
 10
4.2339955549
 20
25.0342832647
 10
4.2272605023
 20
25.026429804
 10
4.2199204314
 20
25.0179907025
 10
4.2119372601
 20
25.0088998799
 10
4.2032920748
 20
24.9991523713
  0
LWPOLYLINE
  5
4DC
100
AcDbEntity
  8
0
100
AcDbPolyline
 62
7
  6
CONTINUOUS
 90
9
 70
0
 10
7.1339558214
 20
25.4763147226
 10
7.1297977259
 20
25.4651662471
 10
7.1261748055
 20
25.4538325523
 10
7.1230952655
 20
25.4423393121
 10
7.1205660795
 20
25.4307125608
 10
7.1185929731
 20
25.4189786394
 10
7.117180413
 20
25.4071641289
 10
7.1163315974
 20
25.3952957893
 10
7.1160484472
 20
25.3834005041
  0
LINE
  5
4DD
100
AcDbEntity
  8
CURVE
100
AcDbLine
 62
253
  6
CONTINUOUS
 10
9.9803341726
 20
13.9833962733
 11
10.1660484472
 21
14.1691105479
  0
LINE
  5
4DE
100
AcDbEntity
  8
CURVE
100
AcDbLine
 62
253
  6
CONTINUOUS
 10
-6.4824796902
 20
-2.7151318641
 11
-6.6946117246
 21
-2.9272638985
  0
LINE
  5
4DF
100
AcDbEntity
  8
CURVE
100
AcDbLine
 62
253
  6
CONTINUOUS
 10
9.4231913099
 20
13.0548248226
 11
9.6089056233
 21
13.2405391747
  0
LINE
  5
4E0
100
AcDbEntity
  8
CURVE
100
AcDbLine
 62
253
  6
CONTINUOUS
 10
9.9803341726
 20
13.0857772404
 11
10.1660484472
 21
13.2405391747
  0
LINE
  5
4E1
100
AcDbEntity
  8
CURVE
100
AcDbLine
 62
253
  6
CONTINUOUS
 10
-3.2053801021
 20
-6.038032276
 11
-3.7625229648
 21
-6.038032276
  0
LINE
  5
4E2
100
AcDbEntity
  8
CURVE
100
AcDbLine
 62
253
  6
CONTINUOUS
 10
-7.2053801021
 20
-6.038032276
 11
-7.7625229648
 21
-6.038032276
  0
LINE
  5
4E3
100
AcDbEntity
  8
CURVE
100
AcDbLine
 62
253
  6
CONTINUOUS
 10
-7.7625229648
 20
-5.388032276
 11
-7.2053801021
 21
-5.388032276
  0
LINE
  5
4E4
100
AcDbEntity
  8
CURVE
100
AcDbLine
 62
253
  6
CONTINUOUS
 10
-3.7625229648
 20
-5.388032276
 11
-3.2053801021
 21
-5.388032276
  0
LINE
  5
4E5
100
AcDbEntity
  8
CURVE
100
AcDbLine
 62
253
  6
CONTINUOUS
 10
-8.1339515528
 20
-4.799937073
 11
-7.4839515528
 21
-4.799937073
  0
LINE
  5
4E6
100
AcDbEntity
  8
CURVE
100
AcDbLine
 62
253
  6
CONTINUOUS
 10
-4.1339515528
 20
-4.799937073
 11
-3.4839515528
 21
-4.799937073
  0
LINE
  5
4E7
100
AcDbEntity
  8
0
100
AcDbLine
 62
253
  6
CONTINUOUS
 10
1.3670028735
 20
21.2030180251
 11
1.3675726821
 21
21.0178829529
  0
LINE
  5
4E8
100
AcDbEntity
  8
SMUSSO
100
AcDbLine
 62
7
  6
CONTINUOUS
 10
0.1160484472
 20
-1.8666037267
 11
0.1160484472
 21
2.1333962733
  0
LINE
  5
4E9
100
AcDbEntity
  8
ASSI
100
AcDbLine
 62
7
  6
CONTINUOUS
 10
0.1160484472
 20
-1.8666037267
 11
0.1160484472
 21
2.1333962733
  0
LINE
  5
4EA
100
AcDbEntity
  8
SMUSSO
100
AcDbLine
 62
7
  6
CONTINUOUS
 10
0.1160484472
 20
3.3833962733
 11
0.1160484472
 21
6.8833962733
  0
LINE
  5
4EB
100
AcDbEntity
  8
ASSI
100
AcDbLine
 62
7
  6
CONTINUOUS
 10
0.1160484472
 20
3.3833962733
 11
0.1160484472
 21
6.8833962733
  0
LINE
  5
4EC
100
AcDbEntity
  8
SMUSSO
100
AcDbLine
 62
7
  6
CONTINUOUS
 10
0.1160484472
 20
8.3833962733
 11
0.1160484472
 21
11.8833962733
  0
LINE
  5
4ED
100
AcDbEntity
  8
ASSI
100
AcDbLine
 62
7
  6
CONTINUOUS
 10
0.1160484472
 20
8.3833962733
 11
0.1160484472
 21
11.8833962733
  0
LINE
  5
4EE
100
AcDbEntity
  8
SMUSSO
100
AcDbLine
 62
7
  6
CONTINUOUS
 10
0.1160484472
 20
13.3833962733
 11
0.1160484472
 21
16.8833962733
  0
LINE
  5
4EF
100
AcDbEntity
  8
ASSI
100
AcDbLine
 62
7
  6
CONTINUOUS
 10
0.1160484472
 20
13.3833962733
 11
0.1160484472
 21
16.8833962733
  0
LINE
  5
4F0
100
AcDbEntity
  8
0
100
AcDbLine
 62
7
  6
CONTINUOUS
 10
0.4660484472
 20
16.6333962733
 11
0.4660484472
 21
13.6333962733
  0
LINE
  5
4F1
100
AcDbEntity
  8
0
100
AcDbLine
 62
7
  6
CONTINUOUS
 10
0.4660484472
 20
11.6333962733
 11
0.4660484472
 21
8.6333962733
  0
LINE
  5
4F2
100
AcDbEntity
  8
0
100
AcDbLine
 62
7
  6
CONTINUOUS
 10
0.4660484472
 20
6.6333962733
 11
0.4660484472
 21
3.6333962733
  0
LINE
  5
4F3
100
AcDbEntity
  8
0
100
AcDbLine
 62
7
  6
CONTINUOUS
 10
0.4660484472
 20
1.6333962733
 11
0.4660484472
 21
-1.3666037267
  0
LINE
  5
4F4
100
AcDbEntity
  8
0
100
AcDbLine
 62
7
  6
CONTINUOUS
 10
0.8660484472
 20
24.9334030425
 11
0.8660484472
 21
23.5333962733
  0
LINE
  5
4F5
100
AcDbEntity
  8
0
100
AcDbLine
 62
7
  6
CONTINUOUS
 10
0.8660484472
 20
-21.2666037267
 11
0.8660484472
 21
-22.6666104959
  0
LINE
  5
4F6
100
AcDbEntity
  8
0
100
AcDbLine
 62
7
  6
CONTINUOUS
 10
0.8747224006
 20
23.5281919858
 11
0.8746158172
 21
24.9276915431
  0
LINE
  5
4F7
100
AcDbEntity
  8
RACCORDO
100
AcDbLine
 62
253
  6
CONTINUOUS
 10
1.5660484472
 20
18.4493641917
 11
1.5660484472
 21
18.3833962733
  0
LINE
  5
4F8
100
AcDbEntity
  8
RACCORDO
100
AcDbLine
 62
253
  6
CONTINUOUS
 10
1.5660484472
 20
-16.1666037267
 11
1.5660484472
 21
-16.1166037267
  0
LINE
  5
4F9
100
AcDbEntity
  8
RACCORDO
100
AcDbLine
 62
7
  6
CONTINUOUS
 10
1.7700529015
 20
19.3333962733
 11
1.7700529015
 21
19.4333962733
  0
LINE
  5
4FA
100
AcDbEntity
  8
ASSI
100
AcDbLine
 62
7
  6
CONTINUOUS
 10
1.7700529015
 20
19.3333962733
 11
1.7700529015
 21
19.4333962733
  0
LINE
  5
4FB
100
AcDbEntity
  8
0
100
AcDbLine
 62
7
  6
CONTINUOUS
 10
0.8747224006
 20
-21.2613994392
 11
0.8746158172
 21
-22.6608989965
  0
LINE
  5
4FC
100
AcDbEntity
  8
0
100
AcDbLine
 62
253
  6
CONTINUOUS
 10
1.3675726821
 20
-18.7510904063
 11
1.3670028735
 21
-18.9362254785
  0
LWPOLYLINE
  5
4FD
100
AcDbEntity
  8
0
100
AcDbPolyline
 62
7
  6
CONTINUOUS
 90
17
 70
0
 10
-4.5400293057
 20
-22.8204959998
 10
-4.5396933244
 20
-22.8187795456
 10
-4.5388567141
 20
-22.8165853397
 10
-4.5375153367
 20
-22.8139133823
 10
-4.5356663853
 20
-22.8107696311
 10
-4.533306465
 20
-22.8071481283
 10
-4.5304297714
 20
-22.803031
 10
-4.5270351869
 20
-22.7984227635
 10
-4.52311825
 20
-22.7933189015
 10
-4.5186629325
 20
-22.7876879878
 10
-4.5136673376
 20
-22.7815400297
 10
-4.5081230667
 20
-22.77486502
 10
-4.5019930019
 20
-22.7676015107
 10
-4.49526177
 20
-22.7597505198
 10
-4.4879223724
 20
-22.7513110294
 10
-4.479938572
 20
-22.7422185378
 10
-4.471291473
 20
-22.7324676307
  0
LINE
  5
4FE
100
AcDbEntity
  8
CURVE
100
AcDbLine
 62
253
  6
CONTINUOUS
 10
8.8660484472
 20
12.4048248226
 11
9.0517627412
 21
12.5905391747
  0
LINE
  5
4FF
100
AcDbEntity
  8
SMUSSO
100
AcDbLine
 62
7
  6
CONTINUOUS
 10
-0.3839515528
 20
2.8833962733
 11
0.1160484472
 21
3.3833962733
  0
LINE
  5
500
100
AcDbEntity
  8
ASSI
100
AcDbLine
 62
7
  6
CONTINUOUS
 10
-0.3839515528
 20
2.8833962733
 11
0.1160484472
 21
3.3833962733
  0
LINE
  5
501
100
AcDbEntity
  8
SMUSSO
100
AcDbLine
 62
7
  6
CONTINUOUS
 10
4.6160484472
 20
7.3833962733
 11
4.1160484472
 21
6.8833962733
  0
LINE
  5
502
100
AcDbEntity
  8
ASSI
100
AcDbLine
 62
7
  6
CONTINUOUS
 10
4.6160484472
 20
7.3833962733
 11
4.1160484472
 21
6.8833962733
  0
LINE
  5
503
100
AcDbEntity
  8
CURVE
100
AcDbLine
 62
253
  6
CONTINUOUS
 10
-8.1339515528
 20
-5.6666037267
 11
-7.9482372588
 21
-5.4808894521
  0
LINE
  5
504
100
AcDbEntity
  8
CURVE
100
AcDbLine
 62
253
  6
CONTINUOUS
 10
7.7660484472
 20
9.9548248285
 11
7.494619892
 21
9.6833962733
  0
LINE
  5
505
100
AcDbEntity
  8
CURVE
100
AcDbLine
 62
253
  6
CONTINUOUS
 10
10.1660484472
 20
12.311967724
 11
9.9803341726
 21
12.1262533719
  0
LINE
  5
506
100
AcDbEntity
  8
CURVE
100
AcDbLine
 62
253
  6
CONTINUOUS
 10
-6.8339515528
 20
-5.7594608253
 11
-7.0196658274
 21
-5.9451751774
  0
LINE
  5
507
100
AcDbEntity
  8
0
100
AcDbLine
 62
7
  6
CONTINUOUS
 10
2.871751772
 20
-21.220140017
 11
2.8581942662
 21
-19.6666037267
  0
LINE
  5
508
100
AcDbEntity
  8
DRAFT
100
AcDbLine
 62
7
  6
CONTINUOUS
 10
3.3662018818
 20
-18.8841855923
 11
3.3665891706
 21
-18.928564488
  0
LINE
  5
509
100
AcDbEntity
  8
0
100
AcDbLine
 62
7
  6
CONTINUOUS
 10
3.3866029103
 20
-21.2219119107
 11
3.4009061635
 21
-22.8609023817
  0
LINE
  5
50A
100
AcDbEntity
  8
RACCORDO
100
AcDbLine
 62
7
  6
CONTINUOUS
 10
1.8486377579
 20
-17.1666037267
 11
1.8486377579
 21
-17.0666037267
  0
LINE
  5
50B
100
AcDbEntity
  8
ASSI
100
AcDbLine
 62
7
  6
CONTINUOUS
 10
1.8486377579
 20
-17.1666037267
 11
1.8486377579
 21
-17.0666037267
  0
LINE
  5
50C
100
AcDbEntity
  8
RACCORDO
100
AcDbLine
 62
7
  6
CONTINUOUS
 10
1.8660484472
 20
19.3664448622
 11
1.8660484472
 21
19.3333962733
  0
LINE
  5
50D
100
AcDbEntity
  8
0
100
AcDbLine
 62
7
  6
CONTINUOUS
 10
1.9660484472
 20
19.3333962733
 11
1.9660484472
 21
19.3655774753
  0
LINE
  5
50E
100
AcDbEntity
  8
RACCORDO
100
AcDbLine
 62
253
  6
CONTINUOUS
 10
2.0124950566
 20
19.4333962733
 11
2.0124950566
 21
19.3659362899
  0
LINE
  5
50F
100
AcDbEntity
  8
0
100
AcDbLine
 62
7
  6
CONTINUOUS
 10
2.3660484472
 20
19.4333962733
 11
2.3660484472
 21
17.7333962733
  0
LINE
  5
510
100
AcDbEntity
  8
ASSI
100
AcDbLine
 62
7
  6
CONTINUOUS
 10
2.3660484472
 20
19.4333962733
 11
2.3660484472
 21
17.7333962733
  0
LINE
  5
511
100
AcDbEntity
  8
0
100
AcDbLine
 62
7
  6
CONTINUOUS
 10
2.3660484472
 20
-15.4666037267
 11
2.3660484472
 21
-17.1666037267
  0
LINE
  5
512
100
AcDbEntity
  8
ASSI
100
AcDbLine
 62
7
  6
CONTINUOUS
 10
2.3660484472
 20
-15.4666037267
 11
2.3660484472
 21
-17.1666037267
  0
LINE
  5
513
100
AcDbEntity
  8
DRAFT
100
AcDbLine
 62
7
  6
CONTINUOUS
 10
3.3293928109
 20
-18.7299480904
 11
3.3293928109
 21
-18.5299480904
  0
LINE
  5
514
100
AcDbEntity
  8
DRAFT
100
AcDbLine
 62
7
  6
CONTINUOUS
 10
3.3293928109
 20
20.7967406369
 11
3.3293928109
 21
20.9967406369
  0
LINE
  5
515
100
AcDbEntity
  8
DRAFT
100
AcDbLine
 62
7
  6
CONTINUOUS
 10
3.3660484472
 20
-18.7666037267
 11
3.3660484472
 21
-18.5666037267
  0
LINE
  5
516
100
AcDbEntity
  8
DRAFT
100
AcDbLine
 62
7
  6
CONTINUOUS
 10
3.3660484472
 20
20.8333962733
 11
3.3660484472
 21
21.0333962733
  0
LINE
  5
517
100
AcDbEntity
  8
0
100
AcDbLine
 62
7
  6
CONTINUOUS
 10
3.4060484472
 20
-1.8666037267
 11
3.4060484472
 21
2.1333962733
  0
LINE
  5
518
100
AcDbEntity
  8
0
100
AcDbLine
 62
7
  6
CONTINUOUS
 10
3.4060484472
 20
3.3833962733
 11
3.4060484472
 21
6.8833962733
  0
LINE
  5
519
100
AcDbEntity
  8
0
100
AcDbLine
 62
7
  6
CONTINUOUS
 10
3.4060484472
 20
8.3833962733
 11
3.4060484472
 21
11.8833962733
  0
LINE
  5
51A
100
AcDbEntity
  8
0
100
AcDbLine
 62
7
  6
CONTINUOUS
 10
3.4060484472
 20
13.3833962733
 11
3.4060484472
 21
16.8833962733
  0
LINE
  5
51B
100
AcDbEntity
  8
0
100
AcDbLine
 62
7
  6
CONTINUOUS
 10
2.8581942662
 20
21.9333962733
 11
2.871751772
 21
23.4869325635
  0
LINE
  5
51C
100
AcDbEntity
  8
DRAFT
100
AcDbLine
 62
7
  6
CONTINUOUS
 10
3.3662018818
 20
21.1509781388
 11
3.3665891706
 21
21.1953570346
  0
LINE
  5
51D
100
AcDbEntity
  8
0
100
AcDbLine
 62
7
  6
CONTINUOUS
 10
3.3866029103
 20
23.4887044572
 11
3.4009061635
 21
25.1276949283
  0
LINE
  5
51E
100
AcDbEntity
  8
RACCORDO
100
AcDbLine
 62
253
  6
CONTINUOUS
 10
-2.1283308096
 20
-16.3666037267
 11
-2.1161979985
 21
-16.3256666326
  0
LWPOLYLINE
  5
51F
100
AcDbEntity
  8
0
100
AcDbPolyline
 62
7
  6
CONTINUOUS
 90
9
 70
0
 10
-7.401858927
 20
-23.209522176
 10
-7.3977008315
 20
-23.1983737005
 10
-7.3940779111
 20
-23.1870400057
 10
-7.3909983711
 20
-23.1755467655
 10
-7.3884691851
 20
-23.1639200142
 10
-7.3864960786
 20
-23.1521860928
 10
-7.3850835186
 20
-23.1403715823
 10
-7.384234703
 20
-23.1285032427
 10
-7.3839515528
 20
-23.1166079575
  0
LINE
  5
520
100
AcDbEntity
  8
CURVE
100
AcDbLine
 62
253
  6
CONTINUOUS
 10
9.3612865517
 20
10.3310153062
 11
9.1755722577
 21
10.0833962733
  0
LINE
  5
521
100
AcDbEntity
  8
CURVE
100
AcDbLine
 62
253
  6
CONTINUOUS
 10
-7.5768086901
 20
-7.8951750224
 11
-7.3910943767
 21
-7.7094608253
  0
LINE
  5
522
100
AcDbEntity
  8
CURVE
100
AcDbLine
 62
253
  6
CONTINUOUS
 10
-8.1339515528
 20
-8.5451750224
 11
-7.9482372588
 21
-8.3594608253
  0
LINE
  5
523
100
AcDbEntity
  8
CURVE
100
AcDbLine
 62
253
  6
CONTINUOUS
 10
-8.1339515528
 20
-9.5666037267
 11
-7.9482372588
 21
-9.3808895295
  0
LINE
  5
524
100
AcDbEntity
  8
CURVE
100
AcDbLine
 62
253
  6
CONTINUOUS
 10
-4.1339515528
 20
-5.6666037267
 11
-3.9482372588
 21
-5.4808894521
  0
LINE
  5
525
100
AcDbEntity
  8
CURVE
100
AcDbLine
 62
253
  6
CONTINUOUS
 10
-6.8339515528
 20
-8.638032431
 11
-7.0196658274
 21
-8.8237466281
  0
LINE
  5
526
100
AcDbEntity
  8
CURVE
100
AcDbLine
 62
253
  6
CONTINUOUS
 10
9.0517627412
 20
6.4929201419
 11
9.2374770352
 21
6.5857769305
  0
LINE
  5
527
100
AcDbEntity
  8
CURVE
100
AcDbLine
 62
253
  6
CONTINUOUS
 10
7.7660484472
 20
5.7333962733
 11
5.8660484472
 21
4.7833962733
  0
LINE
  5
528
100
AcDbEntity
  8
CURVE
100
AcDbLine
 62
253
  6
CONTINUOUS
 10
9.9803341726
 20
6.028634339
 11
9.7946198979
 21
5.9357769305
  0
LINE
  5
529
100
AcDbEntity
  8
SMUSSO
100
AcDbLine
 62
7
  6
CONTINUOUS
 10
4.6160484472
 20
-2.3666037267
 11
-0.3839515528
 21
-2.3666037267
  0
LINE
  5
52A
100
AcDbEntity
  8
ASSI
100
AcDbLine
 62
7
  6
CONTINUOUS
 10
4.6160484472
 20
-2.3666037267
 11
-0.3839515528
 21
-2.3666037267
  0
LINE
  5
52B
100
AcDbEntity
  8
CURVE
100
AcDbLine
 62
253
  6
CONTINUOUS
 10
-4.1339515528
 20
-2.2666037267
 11
-4.7174364138
 21
-2.2666037267
  0
LINE
  5
52C
100
AcDbEntity
  8
RACCORDO
100
AcDbLine
 62
7
  6
CONTINUOUS
 10
-10.847030431
 20
-2.0166037267
 11
-9.9339515528
 21
-2.0166037267
  0
LINE
  5
52D
100
AcDbEntity
  8
ASSI
100
AcDbLine
 62
7
  6
CONTINUOUS
 10
-10.847030431
 20
-2.0166037267
 11
-9.9339515528
 21
-2.0166037267
  0
LINE
  5
52E
100
AcDbEntity
  8
SMUSSO
100
AcDbLine
 62
7
  6
CONTINUOUS
 10
4.1160484472
 20
-1.8666037267
 11
0.1160484472
 21
-1.8666037267
  0
LINE
  5
52F
100
AcDbEntity
  8
ASSI
100
AcDbLine
 62
7
  6
CONTINUOUS
 10
4.1160484472
 20
-1.8666037267
 11
0.1160484472
 21
-1.8666037267
  0
LINE
  5
530
100
AcDbEntity
  8
CURVE
100
AcDbLine
 62
253
  6
CONTINUOUS
 10
-6.8339515528
 20
-1.8666037267
 11
-7.1339515528
 21
-1.8666037267
  0
LINE
  5
531
100
AcDbEntity
  8
CURVE
100
AcDbLine
 62
253
  6
CONTINUOUS
 10
-4.7174364138
 20
-1.4666037267
 11
-4.1339515528
 21
-1.4666037267
  0
LINE
  5
532
100
AcDbEntity
  8
0
100
AcDbLine
 62
7
  6
CONTINUOUS
 10
0.4660484472
 20
-1.3666037267
 11
3.4060484472
 21
-1.3666037267
  0
LINE
  5
533
100
AcDbEntity
  8
SMUSSO
100
AcDbLine
 62
7
  6
CONTINUOUS
 10
-0.3839515528
 20
2.6333962733
 11
0.1160484472
 21
2.1333962733
  0
LINE
  5
534
100
AcDbEntity
  8
ASSI
100
AcDbLine
 62
7
  6
CONTINUOUS
 10
-0.3839515528
 20
2.6333962733
 11
0.1160484472
 21
2.1333962733
  0
LINE
  5
535
100
AcDbEntity
  8
SMUSSO
100
AcDbLine
 62
7
  6
CONTINUOUS
 10
4.6160484472
 20
-2.3666037267
 11
4.1160484472
 21
-1.8666037267
  0
LINE
  5
536
100
AcDbEntity
  8
ASSI
100
AcDbLine
 62
7
  6
CONTINUOUS
 10
4.6160484472
 20
-2.3666037267
 11
4.1160484472
 21
-1.8666037267
  0
LWPOLYLINE
  5
537
100
AcDbEntity
  8
0
100
AcDbPolyline
 62
7
  6
CONTINUOUS
 90
18
 70
0
 10
-7.401858927
 20
25.4763147226
 10
-7.4065427806
 20
25.4872527196
 10
-7.411741784
 20
25.4979554609
 10
-7.4174441612
 20
25.5083987016
 10
-7.4236369947
 20
25.5185587792
 10
-7.4303062573
 20
25.5284126784
 10
-7.4374368421
 20
25.5379380771
 10
-7.4450125939
 20
25.5471133924
 10
-7.4530163523
 20
25.5559178394
 10
-7.4614299867
 20
25.5643314738
 10
-7.4702344337
 20
25.5723352322
 10
-7.479409749
 20
25.579910984
 10
-7.4889351477
 20
25.5870415688
 10
-7.4987890469
 20
25.5937108314
 10
-7.5089491245
 20
25.5999036649
 10
-7.5193923652
 20
25.6056060421
 10
-7.5300951065
 20
25.6108050455
 10
-7.5410331035
 20
25.6154888991
  0
LINE
  5
538
100
AcDbEntity
  8
RACCORDO
100
AcDbLine
 62
7
  6
CONTINUOUS
 10
-2.1149629377
 20
19.3333962733
 11
-2.1245239004
 21
19.3650137718
  0
LWPOLYLINE
  5
539
100
AcDbEntity
  8
RACCORDO
100
AcDbPolyline
 62
253
  6
CONTINUOUS
 90
5
 70
0
 10
-2.1283308096
 20
18.6333962733
 10
-2.1161979985
 20
18.5924591792
 10
-2.0943367284
 20
18.5501309429
 10
-2.0644114878
 20
18.5116098516
 10
-2.0272737435
 20
18.4782104442
  0
LWPOLYLINE
  5
53A
100
AcDbEntity
  8
0
100
AcDbPolyline
 62
7
  6
CONTINUOUS
 90
6
 70
0
 10
7.1185929731
 20
-23.1521860928
 10
7.1205660795
 20
-23.1639200142
 10
7.1230952655
 20
-23.1755467655
 10
7.1261748055
 20
-23.1870400057
 10
7.1297977259
 20
-23.1983737005
 10
7.1339558214
 20
-23.209522176
  0
LINE
  5
53B
100
AcDbEntity
  8
SMUSSO
100
AcDbLine
 62
7
  6
CONTINUOUS
 10
4.1160484472
 20
16.8833962733
 11
4.1160484472
 21
13.3833962733
  0
LINE
  5
53C
100
AcDbEntity
  8
ASSI
100
AcDbLine
 62
7
  6
CONTINUOUS
 10
4.1160484472
 20
16.8833962733
 11
4.1160484472
 21
13.3833962733
  0
LINE
  5
53D
100
AcDbEntity
  8
SMUSSO
100
AcDbLine
 62
7
  6
CONTINUOUS
 10
4.1160484472
 20
11.8833962733
 11
4.1160484472
 21
8.3833962733
  0
LINE
  5
53E
100
AcDbEntity
  8
ASSI
100
AcDbLine
 62
7
  6
CONTINUOUS
 10
4.1160484472
 20
11.8833962733
 11
4.1160484472
 21
8.3833962733
  0
LINE
  5
53F
100
AcDbEntity
  8
SMUSSO
100
AcDbLine
 62
7
  6
CONTINUOUS
 10
4.1160484472
 20
6.8833962733
 11
4.1160484472
 21
3.3833962733
  0
LINE
  5
540
100
AcDbEntity
  8
ASSI
100
AcDbLine
 62
7
  6
CONTINUOUS
 10
4.1160484472
 20
6.8833962733
 11
4.1160484472
 21
3.3833962733
  0
LINE
  5
541
100
AcDbEntity
  8
SMUSSO
100
AcDbLine
 62
7
  6
CONTINUOUS
 10
4.1160484472
 20
2.1333962733
 11
4.1160484472
 21
-1.8666037267
  0
LINE
  5
542
100
AcDbEntity
  8
ASSI
100
AcDbLine
 62
7
  6
CONTINUOUS
 10
4.1160484472
 20
2.1333962733
 11
4.1160484472
 21
-1.8666037267
  0
LINE
  5
543
100
AcDbEntity
  8
0
100
AcDbLine
 62
7
  6
CONTINUOUS
 10
4.2721262002
 20
-22.8204959998
 11
4.2721262002
 21
-21.2226814797
  0
LINE
  5
544
100
AcDbEntity
  8
0
100
AcDbLine
 62
7
  6
CONTINUOUS
 10
4.2721262002
 20
23.4894740262
 11
4.2721262002
 21
25.0872885463
  0
LINE
  5
545
100
AcDbEntity
  8
0
100
AcDbLine
 62
7
  6
CONTINUOUS
 10
4.3160484472
 20
-22.8666037267
 11
4.3160484472
 21
-22.2345486739
  0
LINE
  5
546
100
AcDbEntity
  8
0
100
AcDbLine
 62
7
  6
CONTINUOUS
 10
4.3160484472
 20
-21.7986587795
 11
4.3160484472
 21
-21.2666037267
  0
LINE
  5
547
100
AcDbEntity
  8
0
100
AcDbLine
 62
7
  6
CONTINUOUS
 10
4.3160484472
 20
23.5333962733
 11
4.3160484472
 21
24.0654513261
  0
LINE
  5
548
100
AcDbEntity
  8
0
100
AcDbLine
 62
7
  6
CONTINUOUS
 10
4.3160484472
 20
24.5013412205
 11
4.3160484472
 21
25.1333962733
  0
LINE
  5
549
100
AcDbEntity
  8
SMUSSO
100
AcDbLine
 62
7
  6
CONTINUOUS
 10
4.6160484472
 20
17.3833962733
 11
4.6160484472
 21
12.8833962733
  0
LINE
  5
54A
100
AcDbEntity
  8
ASSI
100
AcDbLine
 62
7
  6
CONTINUOUS
 10
4.6160484472
 20
17.3833962733
 11
4.6160484472
 21
12.8833962733
  0
LINE
  5
54B
100
AcDbEntity
  8
SMUSSO
100
AcDbLine
 62
7
  6
CONTINUOUS
 10
4.6160484472
 20
12.3833962733
 11
4.6160484472
 21
7.8833962733
  0
LINE
  5
54C
100
AcDbEntity
  8
ASSI
100
AcDbLine
 62
7
  6
CONTINUOUS
 10
4.6160484472
 20
12.3833962733
 11
4.6160484472
 21
7.8833962733
  0
LINE
  5
54D
100
AcDbEntity
  8
SMUSSO
100
AcDbLine
 62
7
  6
CONTINUOUS
 10
4.6160484472
 20
7.3833962733
 11
4.6160484472
 21
2.8833962733
  0
LINE
  5
54E
100
AcDbEntity
  8
ASSI
100
AcDbLine
 62
7
  6
CONTINUOUS
 10
4.6160484472
 20
7.3833962733
 11
4.6160484472
 21
2.8833962733
  0
LINE
  5
54F
100
AcDbEntity
  8
SMUSSO
100
AcDbLine
 62
7
  6
CONTINUOUS
 10
4.6160484472
 20
2.6333962733
 11
4.6160484472
 21
-2.3666037267
  0
LINE
  5
550
100
AcDbEntity
  8
ASSI
100
AcDbLine
 62
7
  6
CONTINUOUS
 10
4.6160484472
 20
2.6333962733
 11
4.6160484472
 21
-2.3666037267
  0
LINE
  5
551
100
AcDbEntity
  8
SMUSSO
100
AcDbLine
 62
7
  6
CONTINUOUS
 10
4.6160484472
 20
2.6333962733
 11
4.1160484472
 21
2.1333962733
  0
LINE
  5
552
100
AcDbEntity
  8
ASSI
100
AcDbLine
 62
7
  6
CONTINUOUS
 10
4.6160484472
 20
2.6333962733
 11
4.1160484472
 21
2.1333962733
  0
LINE
  5
553
100
AcDbEntity
  8
SMUSSO
100
AcDbLine
 62
7
  6
CONTINUOUS
 10
-0.3839515528
 20
-2.3666037267
 11
0.1160484472
 21
-1.8666037267
  0
LINE
  5
554
100
AcDbEntity
  8
ASSI
100
AcDbLine
 62
7
  6
CONTINUOUS
 10
-0.3839515528
 20
-2.3666037267
 11
0.1160484472
 21
-1.8666037267
  0
LINE
  5
555
100
AcDbEntity
  8
CURVE
100
AcDbLine
 62
253
  6
CONTINUOUS
 10
9.4231913099
 20
6.9572059447
 11
9.6089056233
 21
7.1429201419
  0
LINE
  5
556
100
AcDbEntity
  8
CURVE
100
AcDbLine
 62
253
  6
CONTINUOUS
 10
8.8660484472
 20
6.3072059447
 11
9.0517627412
 21
6.4929201419
  0
LINE
  5
557
100
AcDbEntity
  8
CURVE
100
AcDbLine
 62
253
  6
CONTINUOUS
 10
-6.8339515528
 20
-9.6594611352
 11
-7.0196658274
 21
-9.8451753324
  0
LINE
  5
558
100
AcDbEntity
  8
CURVE
100
AcDbLine
 62
253
  6
CONTINUOUS
 10
-2.8339515528
 20
-5.7594608253
 11
-3.0196658274
 21
-5.9451751774
  0
LINE
  5
559
100
AcDbEntity
  8
CURVE
100
AcDbLine
 62
253
  6
CONTINUOUS
 10
10.1660484472
 20
6.2143485362
 11
9.9803341726
 21
6.028634339
  0
LINE
  5
55A
100
AcDbEntity
  8
CURVE
100
AcDbLine
 62
253
  6
CONTINUOUS
 10
-3.5768086901
 20
-7.8951750224
 11
-3.3910943767
 21
-7.7094608253
  0
LINE
  5
55B
100
AcDbEntity
  8
CURVE
100
AcDbLine
 62
253
  6
CONTINUOUS
 10
-4.1339515528
 20
-8.5451750224
 11
-3.9482372588
 21
-8.3594608253
  0
LINE
  5
55C
100
AcDbEntity
  8
CURVE
100
AcDbLine
 62
253
  6
CONTINUOUS
 10
-7.0196658274
 20
-7.8642227596
 11
-6.8339515528
 21
-7.7094608253
  0
LINE
  5
55D
100
AcDbEntity
  8
CURVE
100
AcDbLine
 62
253
  6
CONTINUOUS
 10
-7.9482372588
 20
-5.4808894521
 11
-7.7625229648
 21
-5.388032276
  0
LINE
  5
55E
100
AcDbEntity
  8
CURVE
100
AcDbLine
 62
253
  6
CONTINUOUS
 10
7.2565929038
 20
-0.4881100777
 11
7.7565929038
 21
-0.4881100777
  0
LINE
  5
55F
100
AcDbEntity
  8
CURVE
100
AcDbLine
 62
253
  6
CONTINUOUS
 10
9.8660484472
 20
0.9458962733
 11
9.8035484472
 21
0.9458962733
  0
LINE
  5
560
100
AcDbEntity
  8
CURVE
100
AcDbLine
 62
253
  6
CONTINUOUS
 10
8.9910484472
 20
1.1333962733
 11
8.8035484472
 21
1.1333962733
  0
LINE
  5
561
100
AcDbEntity
  8
CURVE
100
AcDbLine
 62
253
  6
CONTINUOUS
 10
5.8660484472
 20
0.6033962733
 11
7.7565929038
 21
-0.4881100777
  0
LINE
  5
562
100
AcDbEntity
  8
SMUSSO
100
AcDbLine
 62
7
  6
CONTINUOUS
 10
-0.3839515528
 20
7.3833962733
 11
0.1160484472
 21
6.8833962733
  0
LINE
  5
563
100
AcDbEntity
  8
ASSI
100
AcDbLine
 62
7
  6
CONTINUOUS
 10
-0.3839515528
 20
7.3833962733
 11
0.1160484472
 21
6.8833962733
  0
LWPOLYLINE
  5
564
100
AcDbEntity
  8
0
100
AcDbPolyline
 62
7
  6
CONTINUOUS
 90
4
 70
0
 10
7.1160484472
 20
-23.1166079575
 10
7.1163315974
 20
-23.1285032427
 10
7.117180413
 20
-23.1403715823
 10
7.1185929731
 20
-23.1521860928
  0
LWPOLYLINE
  5
565
100
AcDbEntity
  8
0
100
AcDbPolyline
 62
7
  6
CONTINUOUS
 90
34
 70
0
 10
7.1204202812
 20
-23.1122361235
 10
7.120703832
 20
-23.124131145
 10
7.1215530369
 20
-23.1359992217
 10
7.1229659724
 20
-23.1478134696
 10
7.1249394376
 20
-23.1595471268
 10
7.1274689624
 20
-23.1711736141
 10
7.1305488168
 20
-23.1826665947
 10
7.1341720242
 20
-23.1940000345
 10
7.1383303772
 20
-23.2051482607
 10
7.1430144563
 20
-23.2160860202
 10
7.148213651
 20
-23.2267885363
 10
7.1539161838
 20
-23.2372315656
 10
7.1601091374
 20
-23.2473914522
 10
7.1667784832
 20
-23.2572451817
 10
7.1739091138
 20
-23.2667704332
 10
7.1814848765
 20
-23.2759456298
 10
7.1894886108
 20
-23.2847499878
 10
7.1979021862
 20
-23.2931635632
 10
7.2067065441
 20
-23.3011672974
 10
7.2158817408
 20
-23.3087430602
 10
7.2254069922
 20
-23.3158736907
 10
7.2352607217
 20
-23.3225430365
 10
7.2454206083
 20
-23.3287359901
 10
7.2558636376
 20
-23.3344385229
 10
7.2665661538
 20
-23.3396377176
 10
7.2775039132
 20
-23.3443217967
 10
7.2886521394
 20
-23.3484801497
 10
7.2999855792
 20
-23.3521033571
 10
7.3114785598
 20
-23.3551832115
 10
7.3231050471
 20
-23.3577127363
 10
7.3348387043
 20
-23.3596862016
 10
7.3466529522
 20
-23.361099137
 10
7.3585210289
 20
-23.3619483419
 10
7.3704160504
 20
-23.3622318927
  0
LINE
  5
566
100
AcDbEntity
  8
0
100
AcDbLine
 62
253
  6
CONTINUOUS
 10
7.1204202812
 20
-22.710941294
 11
7.1160484472
 21
-22.2770888749
  0
LINE
  5
567
100
AcDbEntity
  8
0
100
AcDbLine
 62
253
  6
CONTINUOUS
 10
7.3704160504
 20
-22.4944349431
 11
7.3653254493
 21
-21.9892534575
  0
LINE
  5
568
100
AcDbEntity
  8
CURVE
100
AcDbLine
 62
253
  6
CONTINUOUS
 10
5.8660484472
 20
15.3833962733
 11
5.8660484472
 21
14.7048248285
  0
LINE
  5
569
100
AcDbEntity
  8
DRAFT
100
AcDbLine
 62
7
  6
CONTINUOUS
 10
6.3704118811
 20
-18.8709671606
 11
6.3704118811
 21
-18.5709671606
  0
LINE
  5
56A
100
AcDbEntity
  8
DRAFT
100
AcDbLine
 62
7
  6
CONTINUOUS
 10
6.3704118811
 20
20.8377597072
 11
6.3704118811
 21
21.1377597072
  0
LINE
  5
56B
100
AcDbEntity
  8
DRAFT
100
AcDbLine
 62
7
  6
CONTINUOUS
 10
6.4707708607
 20
-18.9713261402
 11
6.4707708607
 21
-18.6713261402
  0
LINE
  5
56C
100
AcDbEntity
  8
DRAFT
100
AcDbLine
 62
7
  6
CONTINUOUS
 10
6.4707708607
 20
20.9381186868
 11
6.4707708607
 21
21.2381186868
  0
LINE
  5
56D
100
AcDbEntity
  8
CURVE
100
AcDbLine
 62
253
  6
CONTINUOUS
 10
6.6803341696
 20
9.9548248285
 11
6.6803341696
 21
10.6333962733
  0
LINE
  5
56E
100
AcDbEntity
  8
DRAFT
100
AcDbLine
 62
7
  6
CONTINUOUS
 10
7.0613260337
 20
-19.8625992724
 11
7.0613260337
 21
-18.6713261402
  0
LINE
  5
56F
100
AcDbEntity
  8
DRAFT
100
AcDbLine
 62
7
  6
CONTINUOUS
 10
7.0613260337
 20
20.9381186868
 11
7.0613260337
 21
22.129391819
  0
LINE
  5
570
100
AcDbEntity
  8
0
100
AcDbLine
 62
7
  6
CONTINUOUS
 10
7.1160484472
 20
-21.2666037267
 11
7.1160484472
 21
-22.710941294
  0
LINE
  5
571
100
AcDbEntity
  8
0
100
AcDbLine
 62
7
  6
CONTINUOUS
 10
7.1160484472
 20
23.5333962733
 11
7.1160484472
 21
24.9777338406
  0
LINE
  5
572
100
AcDbEntity
  8
0
100
AcDbLine
 62
7
  6
CONTINUOUS
 10
7.1204202812
 20
25.3790286701
 11
7.1204202812
 21
24.9777338406
  0
LINE
  5
573
100
AcDbEntity
  8
0
100
AcDbLine
 62
7
  6
CONTINUOUS
 10
7.1204202812
 20
-22.710941294
 11
7.1204202812
 21
-23.1122361235
  0
LINE
  5
574
100
AcDbEntity
  8
DRAFT
100
AcDbLine
 62
7
  6
CONTINUOUS
 10
7.1616850133
 20
-18.5709671606
 11
7.1616850133
 21
-18.8666037267
  0
LINE
  5
575
100
AcDbEntity
  8
DRAFT
100
AcDbLine
 62
7
  6
CONTINUOUS
 10
7.1616850133
 20
20.8377597072
 11
7.1616850133
 21
21.1333962733
  0
LINE
  5
576
100
AcDbEntity
  8
DRAFT
100
AcDbLine
 62
7
  6
CONTINUOUS
 10
7.1660484472
 20
22.0333962733
 11
7.1660484472
 21
21.1333962733
  0
LINE
  5
577
100
AcDbEntity
  8
DRAFT
100
AcDbLine
 62
7
  6
CONTINUOUS
 10
7.1660484472
 20
-18.8666037267
 11
7.1660484472
 21
-19.7666037267
  0
LINE
  5
578
100
AcDbEntity
  8
DRAFT
100
AcDbLine
 62
7
  6
CONTINUOUS
 10
7.2660484472
 20
21.9833962733
 11
7.2660484472
 21
20.8333962733
  0
LINE
  5
579
100
AcDbEntity
  8
DRAFT
100
AcDbLine
 62
7
  6
CONTINUOUS
 10
7.2660484472
 20
-18.5666037267
 11
7.2660484472
 21
-19.7166037267
  0
LINE
  5
57A
100
AcDbEntity
  8
DRAFT
100
AcDbLine
 62
7
  6
CONTINUOUS
 10
7.3027040836
 20
21.9833962733
 11
7.3027040836
 21
20.7967406369
  0
LINE
  5
57B
100
AcDbEntity
  8
DRAFT
100
AcDbLine
 62
7
  6
CONTINUOUS
 10
7.3027040836
 20
-18.5299480904
 11
7.3027040836
 21
-19.7166037267
  0
LINE
  5
57C
100
AcDbEntity
  8
0
100
AcDbLine
 62
253
  6
CONTINUOUS
 10
7.3704160504
 20
-22.4944349431
 11
7.3704160504
 21
-23.3622318927
  0
LINE
  5
57D
100
AcDbEntity
  8
0
100
AcDbLine
 62
253
  6
CONTINUOUS
 10
7.3704160504
 20
24.7612274896
 11
7.3704160504
 21
25.6290244393
  0
LINE
  5
57E
100
AcDbEntity
  8
0
100
AcDbLine
 62
253
  6
CONTINUOUS
 10
7.4326941014
 20
22.4693832219
 11
7.4326941014
 21
22.129391819
  0
LINE
  5
57F
100
AcDbEntity
  8
0
100
AcDbLine
 62
253
  6
CONTINUOUS
 10
7.4326941014
 20
-19.8625992724
 11
7.4326941014
 21
-20.2025906754
  0
LINE
  5
580
100
AcDbEntity
  8
CURVE
100
AcDbLine
 62
253
  6
CONTINUOUS
 10
7.7660484472
 20
10.6333962733
 11
7.7660484472
 21
9.9548248285
  0
LINE
  5
581
100
AcDbEntity
  8
0
100
AcDbLine
 62
253
  6
CONTINUOUS
 10
7.1160484472
 20
24.5438814215
 11
7.1204202812
 21
24.9777338406
  0
LINE
  5
582
100
AcDbEntity
  8
0
100
AcDbLine
 62
253
  6
CONTINUOUS
 10
7.3653254493
 20
24.2560460041
 11
7.3704160504
 21
24.7612274896
  0
LWPOLYLINE
  5
583
100
AcDbEntity
  8
RACCORDO
100
AcDbPolyline
 62
253
  6
CONTINUOUS
 90
4
 70
0
 10
-2.1161979985
 20
-16.3256666326
 10
-2.0943367284
 20
-16.2833383963
 10
-2.0644114878
 20
-16.244817305
 10
-2.0272737435
 20
-16.2114178976
  0
LINE
  5
584
100
AcDbEntity
  8
CURVE
100
AcDbLine
 62
253
  6
CONTINUOUS
 10
6.7490611491
 20
0.2667937329
 11
6.5990611491
 21
0.0069861118
  0
LWPOLYLINE
  5
585
100
AcDbEntity
  8
0
100
AcDbPolyline
 62
7
  6
CONTINUOUS
 90
5
 70
0
 10
-7.9516382607
 20
-20.5639929889
 10
-7.9249894093
 20
-20.5245956774
 10
-7.8979820765
 20
-20.4848629283
 10
-7.8706162625
 20
-20.4448728478
 10
-7.8428288583
 20
-20.4047416872
  0
LWPOLYLINE
  5
586
100
AcDbEntity
  8
0
100
AcDbPolyline
 62
7
  6
CONTINUOUS
 90
4
 70
0
 10
-7.8428288583
 20
-20.4047416872
 10
-7.7579468455
 20
-20.2836002835
 10
-7.7293566038
 20
-20.2430696011
 10
-7.700597207
 20
-20.2025906754
  0
LINE
  5
587
100
AcDbEntity
  8
CURVE
100
AcDbLine
 62
253
  6
CONTINUOUS
 10
-4.1339515528
 20
-9.5666037267
 11
-3.9482372588
 21
-9.3808895295
  0
LINE
  5
588
100
AcDbEntity
  8
CURVE
100
AcDbLine
 62
253
  6
CONTINUOUS
 10
-2.8339515528
 20
-8.638032431
 11
-3.0196658274
 21
-8.8237466281
  0
LINE
  5
589
100
AcDbEntity
  8
CURVE
100
AcDbLine
 62
253
  6
CONTINUOUS
 10
-2.8339515528
 20
-9.6594611352
 11
-3.0196658274
 21
-9.8451753324
  0
LINE
  5
58A
100
AcDbEntity
  8
CURVE
100
AcDbLine
 62
253
  6
CONTINUOUS
 10
8.6160484472
 20
1.0708962733
 11
8.4910484472
 21
0.9458962733
  0
LINE
  5
58B
100
AcDbEntity
  8
CURVE
100
AcDbLine
 62
253
  6
CONTINUOUS
 10
-7.0196658274
 20
-5.9451751774
 11
-7.2053801021
 21
-6.038032276
  0
LINE
  5
58C
100
AcDbEntity
  8
CURVE
100
AcDbLine
 62
253
  6
CONTINUOUS
 10
-3.9482372588
 20
-5.4808894521
 11
-3.7625229648
 21
-5.388032276
  0
LINE
  5
58D
100
AcDbEntity
  8
CURVE
100
AcDbLine
 62
253
  6
CONTINUOUS
 10
9.8035484472
 20
0.9458962733
 11
9.6785484472
 21
0.8833962733
  0
LINE
  5
58E
100
AcDbEntity
  8
CURVE
100
AcDbLine
 62
253
  6
CONTINUOUS
 10
8.8035484472
 20
1.1333962733
 11
8.6160484472
 21
1.0708962733
  0
LINE
  5
58F
100
AcDbEntity
  8
0
100
AcDbLine
 62
7
  6
CONTINUOUS
 10
3.4060484472
 20
1.6333962733
 11
0.4660484472
 21
1.6333962733
  0
LINE
  5
590
100
AcDbEntity
  8
SMUSSO
100
AcDbLine
 62
7
  6
CONTINUOUS
 10
0.1160484472
 20
2.1333962733
 11
4.1160484472
 21
2.1333962733
  0
LINE
  5
591
100
AcDbEntity
  8
ASSI
100
AcDbLine
 62
7
  6
CONTINUOUS
 10
0.1160484472
 20
2.1333962733
 11
4.1160484472
 21
2.1333962733
  0
LINE
  5
592
100
AcDbEntity
  8
RACCORDO
100
AcDbLine
 62
7
  6
CONTINUOUS
 10
-10.847030431
 20
2.2833962733
 11
-9.9339515528
 21
2.2833962733
  0
LINE
  5
593
100
AcDbEntity
  8
ASSI
100
AcDbLine
 62
7
  6
CONTINUOUS
 10
-10.847030431
 20
2.2833962733
 11
-9.9339515528
 21
2.2833962733
  0
LINE
  5
594
100
AcDbEntity
  8
SMUSSO
100
AcDbLine
 62
7
  6
CONTINUOUS
 10
-0.3839515528
 20
2.6333962733
 11
4.6160484472
 21
2.6333962733
  0
LINE
  5
595
100
AcDbEntity
  8
ASSI
100
AcDbLine
 62
7
  6
CONTINUOUS
 10
-0.3839515528
 20
2.6333962733
 11
4.6160484472
 21
2.6333962733
  0
LINE
  5
596
100
AcDbEntity
  8
SMUSSO
100
AcDbLine
 62
7
  6
CONTINUOUS
 10
4.6160484472
 20
2.8833962733
 11
-0.3839515528
 21
2.8833962733
  0
LINE
  5
597
100
AcDbEntity
  8
ASSI
100
AcDbLine
 62
7
  6
CONTINUOUS
 10
4.6160484472
 20
2.8833962733
 11
-0.3839515528
 21
2.8833962733
  0
LINE
  5
598
100
AcDbEntity
  8
RACCORDO
100
AcDbLine
 62
7
  6
CONTINUOUS
 10
-10.847030431
 20
2.9833962733
 11
-9.9339515528
 21
2.9833962733
  0
LINE
  5
599
100
AcDbEntity
  8
ASSI
100
AcDbLine
 62
7
  6
CONTINUOUS
 10
-10.847030431
 20
2.9833962733
 11
-9.9339515528
 21
2.9833962733
  0
LINE
  5
59A
100
AcDbEntity
  8
CURVE
100
AcDbLine
 62
253
  6
CONTINUOUS
 10
9.1785484472
 20
1.0708962733
 11
8.9910484472
 21
1.1333962733
  0
LINE
  5
59B
100
AcDbEntity
  8
CURVE
100
AcDbLine
 62
253
  6
CONTINUOUS
 10
10.0535484472
 20
0.8833962733
 11
9.8660484472
 21
0.9458962733
  0
LINE
  5
59C
100
AcDbEntity
  8
SMUSSO
100
AcDbLine
 62
7
  6
CONTINUOUS
 10
4.6160484472
 20
2.8833962733
 11
4.1160484472
 21
3.3833962733
  0
LINE
  5
59D
100
AcDbEntity
  8
ASSI
100
AcDbLine
 62
7
  6
CONTINUOUS
 10
4.6160484472
 20
2.8833962733
 11
4.1160484472
 21
3.3833962733
  0
LINE
  5
59E
100
AcDbEntity
  8
CURVE
100
AcDbLine
 62
253
  6
CONTINUOUS
 10
8.5535484472
 20
0.0083962733
 11
8.6785484472
 21
-0.1166037267
  0
LWPOLYLINE
  5
59F
100
AcDbEntity
  8
0
100
AcDbPolyline
 62
7
  6
CONTINUOUS
 90
3
 70
0
 10
-7.700597207
 20
22.4693832219
 10
-7.7293566038
 20
22.5098621476
 10
-7.7579468455
 20
22.5503928301
  0
LWPOLYLINE
  5
5A0
100
AcDbEntity
  8
0
100
AcDbPolyline
 62
7
  6
CONTINUOUS
 90
6
 70
0
 10
-7.7579468455
 20
22.5503928301
 10
-7.8428288583
 20
22.6715342338
 10
-7.8706162625
 20
22.7116653944
 10
-7.8979820765
 20
22.7516554749
 10
-7.9249894093
 20
22.791388224
 10
-7.9516382607
 20
22.8307855355
  0
LINE
  5
5A1
100
AcDbEntity
  8
CURVE
100
AcDbLine
 62
253
  6
CONTINUOUS
 10
8.4285484472
 20
0.1958962733
 11
8.5535484472
 21
0.0083962733
  0
LINE
  5
5A2
100
AcDbEntity
  8
CURVE
100
AcDbLine
 62
253
  6
CONTINUOUS
 10
7.7565929038
 20
-0.4881100777
 11
7.5065929038
 21
-0.0550973758
  0
LWPOLYLINE
  5
5A3
100
AcDbEntity
  8
0
100
AcDbPolyline
 62
253
  6
CONTINUOUS
 90
34
 70
0
 10
7.1204202812
 20
24.9777338406
 10
7.1207369319
 20
24.9674510731
 10
7.1216170937
 20
24.9571915131
 10
7.12305878
 20
24.946978316
 10
7.125058737
 20
24.9368345323
 10
7.127612451
 20
24.9267830559
 10
7.1307141584
 20
24.9168465724
 10
7.1343568588
 20
24.9070475079
 10
7.1385323309
 20
24.8974079783
 10
7.1432311508
 20
24.8879497393
 10
7.1484427136
 20
24.8786941378
 10
7.1541552572
 20
24.8696620631
 10
7.1603558885
 20
24.8608739
 10
7.1670306133
 20
24.8523494829
 10
7.1741643669
 20
24.8441080508
 10
7.181741049
 20
24.8361682043
 10
7.1897435595
 20
24.828547863
 10
7.1981538371
 20
24.8212642257
 10
7.2069529003
 20
24.8143337311
 10
7.2161208902
 20
24.8077720209
 10
7.2256371152
 20
24.8015939044
 10
7.2354800977
 20
24.7958133254
 10
7.2456276226
 20
24.7904433302
 10
7.2560567877
 20
24.7854960387
 10
7.2667440549
 20
24.7809826165
 10
7.2776653036
 20
24.7769132502
 10
7.2887958853
 20
24.7732971242
 10
7.3001106789
 20
24.7701423997
 10
7.3115841475
 20
24.7674561968
 10
7.3231903963
 20
24.7652445782
 10
7.3349032306
 20
24.7635125353
 10
7.3466962152
 20
24.7622639772
 10
7.3585427341
 20
24.7615017219
 10
7.3704160504
 20
24.7612274896
  0
LWPOLYLINE
  5
5A4
100
AcDbEntity
  8
0
100
AcDbPolyline
 62
253
  6
CONTINUOUS
 90
34
 70
0
 10
10.0116766132
 20
-22.710941294
 10
10.0113599512
 20
-22.7006583329
 10
10.010479757
 20
-22.6903985807
 10
10.0090380172
 20
-22.680185194
 10
10.007037987
 20
-22.6700412302
 10
10.0044841801
 20
-22.6599895788
 10
10.0013823547
 20
-22.6500529101
 10
9.997739504
 20
-22.6402536397
 10
9.9935638511
 20
-22.6306138985
 10
9.9888648288
 20
-22.6211554654
 10
9.9836530488
 20
-22.6118996962
 10
9.9779402711
 20
-22.602867473
 10
9.9717393879
 20
-22.5940791779
 10
9.9650643943
 20
-22.5855546453
 10
9.9579303567
 20
-22.5773131165
 10
9.9503533772
 20
-22.5693731926
 10
9.9423505576
 20
-22.5617527945
 10
9.9339399605
 20
-22.5544691214
 10
9.925140568
 20
-22.5475386117
 10
9.915972242
 20
-22.5409769091
 10
9.9064556746
 20
-22.5347988223
 10
9.8966123384
 20
-22.529018292
 10
9.886464437
 20
-22.5236483595
 10
9.8760348861
 20
-22.5187011532
 10
9.8653472585
 20
-22.5141878532
 10
9.8544256986
 20
-22.5101186502
 10
9.8432948388
 20
-22.5065027163
 10
9.8319797753
 20
-22.5033482025
 10
9.8205057533
 20
-22.5006621662
 10
9.8088989559
 20
-22.4984507562
 10
9.7971864469
 20
-22.4967190737
 10
9.78539497
 20
-22.495470945
 10
9.7735508592
 20
-22.494709031
 10
9.761680844
 20
-22.4944349431
  0
LINE
  5
5A5
100
AcDbEntity
  8
0
100
AcDbLine
 62
253
  6
CONTINUOUS
 10
7.932617949
 20
22.5871317004
 11
7.932617949
 21
22.1251045375
  0
LINE
  5
5A6
100
AcDbEntity
  8
0
100
AcDbLine
 62
253
  6
CONTINUOUS
 10
7.932617949
 20
-19.8583119909
 11
7.932617949
 21
-20.3203391538
  0
LINE
  5
5A7
100
AcDbEntity
  8
0
100
AcDbLine
 62
7
  6
CONTINUOUS
 10
7.932617949
 20
-20.4500342249
 11
7.932617949
 21
-20.4376925701
  0
LINE
  5
5A8
100
AcDbEntity
  8
0
100
AcDbLine
 62
7
  6
CONTINUOUS
 10
7.932617949
 20
-19.7753305945
 11
7.932617949
 21
-19.7666037267
  0
LINE
  5
5A9
100
AcDbEntity
  8
0
100
AcDbLine
 62
7
  6
CONTINUOUS
 10
7.932617949
 20
22.0333962733
 11
7.932617949
 21
22.0421231411
  0
LINE
  5
5AA
100
AcDbEntity
  8
0
100
AcDbLine
 62
7
  6
CONTINUOUS
 10
7.932617949
 20
22.7044851167
 11
7.932617949
 21
22.7168267715
  0
LINE
  5
5AB
100
AcDbEntity
  8
0
100
AcDbLine
 62
7
  6
CONTINUOUS
 10
8.0985933823
 20
22.5385096834
 11
8.0985933823
 21
22.0421231411
  0
LINE
  5
5AC
100
AcDbEntity
  8
0
100
AcDbLine
 62
7
  6
CONTINUOUS
 10
8.0985933823
 20
-19.7753305945
 11
8.0985933823
 21
-20.2717171368
  0
LINE
  5
5AD
100
AcDbEntity
  8
CURVE
100
AcDbLine
 62
253
  6
CONTINUOUS
 10
8.3660484472
 20
0.6333962733
 11
8.3660484472
 21
0.4458962733
  0
LINE
  5
5AE
100
AcDbEntity
  8
CURVE
100
AcDbLine
 62
253
  6
CONTINUOUS
 10
8.8660484472
 20
13.611967724
 11
8.8660484472
 21
13.1476819212
  0
LINE
  5
5AF
100
AcDbEntity
  8
CURVE
100
AcDbLine
 62
253
  6
CONTINUOUS
 10
8.8660484472
 20
7.5143485362
 11
8.8660484472
 21
7.1429201419
  0
LINE
  5
5B0
100
AcDbEntity
  8
CURVE
100
AcDbLine
 62
253
  6
CONTINUOUS
 10
8.8660484472
 20
4.5429201419
 11
8.8660484472
 21
3.9857769305
  0
LINE
  5
5B1
100
AcDbEntity
  8
CURVE
100
AcDbLine
 62
253
  6
CONTINUOUS
 10
8.8660484472
 20
6.2143485362
 11
8.8660484472
 21
6.3072059447
  0
LINE
  5
5B2
100
AcDbEntity
  8
CURVE
100
AcDbLine
 62
253
  6
CONTINUOUS
 10
8.8660484472
 20
12.311967724
 11
8.8660484472
 21
12.4048248226
  0
LINE
  5
5B3
100
AcDbEntity
  8
CURVE
100
AcDbLine
 62
253
  6
CONTINUOUS
 10
8.8660484472
 20
13.9833962733
 11
8.8660484472
 21
14.6333962733
  0
LINE
  5
5B4
100
AcDbEntity
  8
CURVE
100
AcDbLine
 62
253
  6
CONTINUOUS
 10
9.4910484472
 20
0.5083962733
 11
9.4910484472
 21
0.4458962733
  0
LINE
  5
5B5
100
AcDbEntity
  8
CURVE
100
AcDbLine
 62
253
  6
CONTINUOUS
 10
9.6089056233
 20
5.5643485362
 11
9.6089056233
 21
4.9143485362
  0
LINE
  5
5B6
100
AcDbEntity
  8
CURVE
100
AcDbLine
 62
253
  6
CONTINUOUS
 10
9.6089056233
 20
7.1429201419
 11
9.6089056233
 21
7.5143485362
  0
LINE
  5
5B7
100
AcDbEntity
  8
CURVE
100
AcDbLine
 62
253
  6
CONTINUOUS
 10
9.6089056233
 20
13.2405391747
 11
9.6089056233
 21
13.4262534494
  0
LINE
  5
5B8
100
AcDbEntity
  8
RACCORDO
100
AcDbLine
 62
7
  6
CONTINUOUS
 10
9.6634303869
 20
-18.3929116014
 11
9.6634303869
 21
-18.469222069
  0
LINE
  5
5B9
100
AcDbEntity
  8
ASSI
100
AcDbLine
 62
7
  6
CONTINUOUS
 10
9.6634303869
 20
-18.3929116014
 11
9.6634303869
 21
-18.469222069
  0
LINE
  5
5BA
100
AcDbEntity
  8
0
100
AcDbLine
 62
253
  6
CONTINUOUS
 10
9.761680844
 20
-22.4944349431
 11
9.761680844
 21
-23.3622318927
  0
LINE
  5
5BB
100
AcDbEntity
  8
0
100
AcDbLine
 62
253
  6
CONTINUOUS
 10
9.761680844
 20
24.7612274896
 11
9.761680844
 21
25.6290244393
  0
LWPOLYLINE
  5
5BC
100
AcDbEntity
  8
0
100
AcDbPolyline
 62
253
  6
CONTINUOUS
 90
34
 70
0
 10
7.1204202812
 20
-22.710941294
 10
7.1207364084
 20
-22.7006675162
 10
7.1216153207
 20
-22.6904146058
 10
7.1230554122
 20
-22.6802056959
 10
7.1250539781
 20
-22.6700630966
 10
7.127606794
 20
-22.660010507
 10
7.1307077141
 20
-22.6500728863
 10
7.1343494221
 20
-22.6402734541
 10
7.1385239275
 20
-22.6306335183
 10
7.1432219082
 20
-22.6211746478
 10
7.1484328647
 20
-22.6119180808
 10
7.1541450058
 20
-22.6028848523
 10
7.1603453381
 20
-22.594095541
 10
7.1670198141
 20
-22.5855700493
 10
7.1741534119
 20
-22.5773275554
 10
7.181730046
 20
-22.5693866481
 10
7.1897326282
 20
-22.5617652435
 10
7.1981430865
 20
-22.5544805592
 10
7.2069424189
 20
-22.5475490559
 10
7.2161107558
 20
-22.5409863848
 10
7.2256274076
 20
-22.5348073548
 10
7.2354708926
 20
-22.5290259136
 10
7.2456189914
 20
-22.5236551116
 10
7.2560487963
 20
-22.5187070726
 10
7.2667367637
 20
-22.5141929661
 10
7.2776587803
 20
-22.5101229772
 10
7.2887901795
 20
-22.5065062989
 10
7.3001057939
 20
-22.5033511052
 10
7.3115800518
 20
-22.5006645195
 10
7.3231870775
 20
-22.4984525929
 10
7.3349007112
 20
-22.4967203082
 10
7.3466945261
 20
-22.4954715743
 10
7.3585418867
 20
-22.4947092123
 10
7.3704160504
 20
-22.4944349431
  0
LWPOLYLINE
  5
5BD
100
AcDbEntity
  8
0
100
AcDbPolyline
 62
253
  6
CONTINUOUS
 90
34
 70
0
 10
10.0116766132
 20
24.9777338406
 10
10.0113599625
 20
24.9674510731
 10
10.0104798007
 20
24.9571915131
 10
10.0090381144
 20
24.946978316
 10
10.0070381574
 20
24.9368345323
 10
10.0044844434
 20
24.9267830559
 10
10.001382736
 20
24.9168465724
 10
9.9977400356
 20
24.9070475079
 10
9.9935645635
 20
24.8974079783
 10
9.9888657436
 20
24.8879497393
 10
9.9836541808
 20
24.8786941378
 10
9.9779416373
 20
24.8696620631
 10
9.9717410059
 20
24.8608739
 10
9.9650662811
 20
24.8523494829
 10
9.9579325275
 20
24.8441080508
 10
9.9503558454
 20
24.8361682043
 10
9.9423533349
 20
24.828547863
 10
9.9339430573
 20
24.8212642257
 10
9.9251439941
 20
24.8143337311
 10
9.9159760042
 20
24.8077720209
 10
9.9064597792
 20
24.8015939044
 10
9.8966167967
 20
24.7958133254
 10
9.8864692718
 20
24.7904433302
 10
9.8760401067
 20
24.7854960387
 10
9.8653528396
 20
24.7809826165
 10
9.8544315908
 20
24.7769132502
 10
9.8433010091
 20
24.7732971242
 10
9.8319862155
 20
24.7701423997
 10
9.8205127469
 20
24.7674561968
 10
9.8089064981
 20
24.7652445782
 10
9.7971936638
 20
24.7635125353
 10
9.7854006792
 20
24.7622639772
 10
9.7735541603
 20
24.7615017219
 10
9.761680844
 20
24.7612274896
  0
LINE
  5
5BE
100
AcDbEntity
  8
CURVE
100
AcDbLine
 62
253
  6
CONTINUOUS
 10
8.4285484472
 20
0.8208962733
 11
8.3660484472
 21
0.6333962733
  0
LINE
  5
5BF
100
AcDbEntity
  8
CURVE
100
AcDbLine
 62
253
  6
CONTINUOUS
 10
9.5535484472
 20
0.6958962733
 11
9.4910484472
 21
0.5083962733
  0
LINE
  5
5C0
100
AcDbEntity
  8
CURVE
100
AcDbLine
 62
253
  6
CONTINUOUS
 10
8.4910484472
 20
0.9458962733
 11
8.4285484472
 21
0.8208962733
  0
LINE
  5
5C1
100
AcDbEntity
  8
CURVE
100
AcDbLine
 62
253
  6
CONTINUOUS
 10
9.6160484472
 20
0.8208962733
 11
9.5535484472
 21
0.6958962733
  0
LINE
  5
5C2
100
AcDbEntity
  8
CURVE
100
AcDbLine
 62
253
  6
CONTINUOUS
 10
7.5065929038
 20
-0.0550973758
 11
7.2565929038
 21
-0.4881100777
  0
LINE
  5
5C3
100
AcDbEntity
  8
CURVE
100
AcDbLine
 62
253
  6
CONTINUOUS
 10
9.6785484472
 20
0.8833962733
 11
9.6160484472
 21
0.8208962733
  0
LINE
  5
5C4
100
AcDbEntity
  8
CURVE
100
AcDbLine
 62
253
  6
CONTINUOUS
 10
-7.9482372588
 20
-8.3594608253
 11
-7.7625229648
 21
-8.2666037267
  0
LINE
  5
5C5
100
AcDbEntity
  8
CURVE
100
AcDbLine
 62
253
  6
CONTINUOUS
 10
-3.0196658274
 20
-5.9451751774
 11
-3.2053801021
 21
-6.038032276
  0
LINE
  5
5C6
100
AcDbEntity
  8
CURVE
100
AcDbLine
 62
253
  6
CONTINUOUS
 10
-7.0196658274
 20
-8.8237466281
 11
-7.2053801021
 21
-8.9166037267
  0
LINE
  5
5C7
100
AcDbEntity
  8
CURVE
100
AcDbLine
 62
253
  6
CONTINUOUS
 10
-7.9482372588
 20
-9.3808895295
 11
-7.7625229648
 21
-9.288032431
  0
LINE
  5
5C8
100
AcDbEntity
  8
CURVE
100
AcDbLine
 62
253
  6
CONTINUOUS
 10
-7.0196658274
 20
-9.8451753324
 11
-7.2053801021
 21
-9.938032121
  0
LINE
  5
5C9
100
AcDbEntity
  8
SMUSSO
100
AcDbLine
 62
7
  6
CONTINUOUS
 10
4.1160484472
 20
3.3833962733
 11
0.1160484472
 21
3.3833962733
  0
LINE
  5
5CA
100
AcDbEntity
  8
ASSI
100
AcDbLine
 62
7
  6
CONTINUOUS
 10
4.1160484472
 20
3.3833962733
 11
0.1160484472
 21
3.3833962733
  0
LINE
  5
5CB
100
AcDbEntity
  8
0
100
AcDbLine
 62
7
  6
CONTINUOUS
 10
0.4660484472
 20
3.6333962733
 11
3.4060484472
 21
3.6333962733
  0
LINE
  5
5CC
100
AcDbEntity
  8
CURVE
100
AcDbLine
 62
253
  6
CONTINUOUS
 10
5.8660484472
 20
4.7833962733
 11
7.7660484472
 21
4.7833962733
  0
LINE
  5
5CD
100
AcDbEntity
  8
CURVE
100
AcDbLine
 62
253
  6
CONTINUOUS
 10
10.1660484472
 20
4.9143485362
 11
8.8660484472
 21
4.9143485362
  0
LINE
  5
5CE
100
AcDbEntity
  8
CURVE
100
AcDbLine
 62
253
  6
CONTINUOUS
 10
9.3035484472
 20
0.9458962733
 11
9.1785484472
 21
1.0708962733
  0
LINE
  5
5CF
100
AcDbEntity
  8
CURVE
100
AcDbLine
 62
253
  6
CONTINUOUS
 10
10.1785484472
 20
0.7583962733
 11
10.0535484472
 21
0.8833962733
  0
LINE
  5
5D0
100
AcDbEntity
  8
SMUSSO
100
AcDbLine
 62
7
  6
CONTINUOUS
 10
-0.3839515528
 20
12.3833962733
 11
0.1160484472
 21
11.8833962733
  0
LINE
  5
5D1
100
AcDbEntity
  8
ASSI
100
AcDbLine
 62
7
  6
CONTINUOUS
 10
-0.3839515528
 20
12.3833962733
 11
0.1160484472
 21
11.8833962733
  0
LINE
  5
5D2
100
AcDbEntity
  8
SMUSSO
100
AcDbLine
 62
7
  6
CONTINUOUS
 10
4.6160484472
 20
7.8833962733
 11
4.1160484472
 21
8.3833962733
  0
LINE
  5
5D3
100
AcDbEntity
  8
ASSI
100
AcDbLine
 62
7
  6
CONTINUOUS
 10
4.6160484472
 20
7.8833962733
 11
4.1160484472
 21
8.3833962733
  0
LINE
  5
5D4
100
AcDbEntity
  8
CURVE
100
AcDbLine
 62
253
  6
CONTINUOUS
 10
9.4285484472
 20
0.6958962733
 11
9.3035484472
 21
0.9458962733
  0
LINE
  5
5D5
100
AcDbEntity
  8
CURVE
100
AcDbLine
 62
253
  6
CONTINUOUS
 10
8.3660484472
 20
0.4458962733
 11
8.4285484472
 21
0.1958962733
  0
LINE
  5
5D6
100
AcDbEntity
  8
CURVE
100
AcDbLine
 62
253
  6
CONTINUOUS
 10
9.4910484472
 20
0.4458962733
 11
9.4285484472
 21
0.6958962733
  0
LWPOLYLINE
  5
5D7
100
AcDbEntity
  8
0
100
AcDbPolyline
 62
7
  6
CONTINUOUS
 90
34
 70
0
 10
10.0116766132
 20
25.3790286701
 10
10.0113929843
 20
25.390925329
 10
10.0105435442
 20
25.4027950473
 10
10.0091302154
 20
25.4146109296
 10
10.0071561968
 20
25.4263462093
 10
10.0046259598
 20
25.4379742886
 10
10.0015452412
 20
25.4494687997
 10
9.997921024
 20
25.4608036922
 10
9.9937615198
 20
25.4719532885
 10
9.9890761554
 20
25.4828923221
 10
9.9838755478
 20
25.4935960085
 10
9.9781714825
 20
25.5040400937
 10
9.9719768902
 20
25.5142009059
 10
9.9653058102
 20
25.524055422
 10
9.9581733591
 20
25.5335813162
 10
9.9505957026
 20
25.5427570032
 10
9.9425900084
 20
25.5515616988
 10
9.9341744222
 20
25.5599754503
 10
9.9253680306
 20
25.5679791819
 10
9.9161908174
 20
25.5755547428
 10
9.9066635559
 20
25.5826849962
 10
9.8968077712
 20
25.5893538334
 10
9.8866456956
 20
25.5955461958
 10
9.8762004421
 20
25.6012479843
 10
9.8654959073
 20
25.6064461696
 10
9.8545565062
 20
25.6111289432
 10
9.8434068942
 20
25.6152857976
 10
9.8320721291
 20
25.6189074074
 10
9.8205761635
 20
25.621985986
 10
9.8089467282
 20
25.6245139759
 10
9.7972152336
 20
25.6264849219
 10
9.7854100581
 20
25.6278949178
 10
9.7735563155
 20
25.6287418196
 10
9.761680844
 20
25.6290244393
  0
LWPOLYLINE
  5
5D8
100
AcDbEntity
  8
0
100
AcDbPolyline
 62
7
  6
CONTINUOUS
 90
4
 70
0
 10
10.0160484472
 20
25.3834005041
 10
10.015765297
 20
25.3952957893
 10
10.0149164814
 20
25.4071641289
 10
10.0135039214
 20
25.4189786394
  0
LWPOLYLINE
  5
5D9
100
AcDbEntity
  8
0
100
AcDbPolyline
 62
7
  6
CONTINUOUS
 90
40
 70
0
 10
11.0160484472
 20
23.0331674212
 10
11.0156496014
 20
23.0532962166
 10
11.0144427735
 20
23.0733874679
 10
11.0124300141
 20
23.0934088462
 10
11.0096150366
 20
23.1133241802
 10
11.0060023899
 20
23.1331054145
 10
11.0015960934
 20
23.1527324134
 10
10.9964018701
 20
23.1721749294
 10
10.9904271766
 20
23.1913996311
 10
10.9836786316
 20
23.2103816416
 10
10.976160963
 20
23.2291002294
 10
10.9678881882
 20
23.2475133645
 10
10.9588851613
 20
23.2655658675
 10
10.9491768933
 20
23.2832134853
 10
10.9387726586
 20
23.300444634
 10
10.9276757561
 20
23.3172539631
 10
10.9158915338
 20
23.3336283338
 10
10.9034477917
 20
23.3495242838
 10
10.8903834004
 20
23.3648925308
 10
10.876735287
 20
23.3796945774
 10
10.8625140269
 20
23.3939236364
 10
10.8477204575
 20
23.4075790231
 10
10.8323619319
 20
23.4206498056
 10
10.8164765172
 20
23.4330995713
 10
10.8001120026
 20
23.4448907201
 10
10.7833111555
 20
23.4559956527
 10
10.7660876271
 20
23.466408473
 10
10.7484469614
 20
23.4761258263
 10
10.7303997164
 20
23.4851386983
 10
10.7119910798
 20
23.4934213985
 10
10.6932795481
 20
23.5009479493
 10
10.6743102068
 20
23.5077034319
 10
10.6551010913
 20
23.5136846084
 10
10.6356716764
 20
23.5188869352
 10
10.6160421582
 20
23.5233048586
 10
10.5962556239
 20
23.5269285703
 10
10.5763663144
 20
23.5297502412
 10
10.5564141908
 20
23.5317679805
 10
10.5364243464
 20
23.5329828994
 10
10.5164290469
 20
23.5333962733
  0
LINE
  5
5DA
100
AcDbEntity
  8
0
100
AcDbLine
 62
253
  6
CONTINUOUS
 10
9.761680844
 20
24.7612274896
 11
9.7667714451
 21
24.2560460041
  0
LINE
  5
5DB
100
AcDbEntity
  8
0
100
AcDbLine
 62
253
  6
CONTINUOUS
 10
10.0116766132
 20
24.9777338406
 11
10.0160484472
 21
24.5438814215
  0
LINE
  5
5DC
100
AcDbEntity
  8
CURVE
100
AcDbLine
 62
253
  6
CONTINUOUS
 10
9.7946198979
 20
4.5429201419
 11
9.7946198979
 21
3.9857769305
  0
LINE
  5
5DD
100
AcDbEntity
  8
0
100
AcDbLine
 62
7
  6
CONTINUOUS
 10
10.0116766132
 20
-23.1122361235
 11
10.0116766132
 21
-22.710941294
  0
LINE
  5
5DE
100
AcDbEntity
  8
0
100
AcDbLine
 62
7
  6
CONTINUOUS
 10
10.0116766132
 20
24.9777338406
 11
10.0116766132
 21
25.3790286701
  0
LINE
  5
5DF
100
AcDbEntity
  8
0
100
AcDbLine
 62
7
  6
CONTINUOUS
 10
10.0160484472
 20
-21.2666037267
 11
10.0160484472
 21
-22.710941294
  0
LINE
  5
5E0
100
AcDbEntity
  8
0
100
AcDbLine
 62
7
  6
CONTINUOUS
 10
10.0160484472
 20
23.5333962733
 11
10.0160484472
 21
24.9777338406
  0
LINE
  5
5E1
100
AcDbEntity
  8
CURVE
100
AcDbLine
 62
253
  6
CONTINUOUS
 10
10.1660484472
 20
12.4048248226
 11
10.1660484472
 21
12.311967724
  0
LINE
  5
5E2
100
AcDbEntity
  8
CURVE
100
AcDbLine
 62
253
  6
CONTINUOUS
 10
10.1660484472
 20
7.5143485362
 11
10.1660484472
 21
6.9572059447
  0
LINE
  5
5E3
100
AcDbEntity
  8
CURVE
100
AcDbLine
 62
253
  6
CONTINUOUS
 10
10.1660484472
 20
6.3072059447
 11
10.1660484472
 21
6.2143485362
  0
LINE
  5
5E4
100
AcDbEntity
  8
CURVE
100
AcDbLine
 62
253
  6
CONTINUOUS
 10
10.1660484472
 20
13.2405391747
 11
10.1660484472
 21
13.611967724
  0
LINE
  5
5E5
100
AcDbEntity
  8
CURVE
100
AcDbLine
 62
253
  6
CONTINUOUS
 10
10.1660484472
 20
14.1691105479
 11
10.1660484472
 21
14.4476819793
  0
LINE
  5
5E6
100
AcDbEntity
  8
CURVE
100
AcDbLine
 62
253
  6
CONTINUOUS
 10
10.2410484472
 20
0.4458962733
 11
10.2410484472
 21
0.5708962733
  0
LINE
  5
5E7
100
AcDbEntity
  8
RACCORDO
100
AcDbLine
 62
7
  6
CONTINUOUS
 10
10.8791387489
 20
-16.8578281168
 11
10.8791387489
 21
19.1246206634
  0
LINE
  5
5E8
100
AcDbEntity
  8
ASSI
100
AcDbLine
 62
7
  6
CONTINUOUS
 10
10.8791387489
 20
-16.8578281168
 11
10.8791387489
 21
19.1246206634
  0
LINE
  5
5E9
100
AcDbEntity
  8
RACCORDO
100
AcDbLine
 62
7
  6
CONTINUOUS
 10
10.8938629927
 20
-16.487691903
 11
10.8938629927
 21
18.7544844496
  0
LINE
  5
5EA
100
AcDbEntity
  8
0
100
AcDbLine
 62
7
  6
CONTINUOUS
 10
10.9985947116
 20
-17.3840574623
 11
10.9985947116
 21
-16.785893139
  0
LINE
  5
5EB
100
AcDbEntity
  8
0
100
AcDbLine
 62
7
  6
CONTINUOUS
 10
10.9985947116
 20
19.0526856856
 11
10.9985947116
 21
19.6508500089
  0
LINE
  5
5EC
100
AcDbEntity
  8
0
100
AcDbLine
 62
7
  6
CONTINUOUS
 10
11.0073215794
 20
23.0275953665
 11
11.0073215794
 21
19.6421231411
  0
LINE
  5
5ED
100
AcDbEntity
  8
0
100
AcDbLine
 62
7
  6
CONTINUOUS
 10
11.0073215794
 20
-17.3753305945
 11
11.0073215794
 21
-20.7608028199
  0
LINE
  5
5EE
100
AcDbEntity
  8
0
100
AcDbLine
 62
7
  6
CONTINUOUS
 10
11.0160484472
 20
23.0334131963
 11
11.0160484472
 21
18.805095322
  0
LINE
  5
5EF
100
AcDbEntity
  8
0
100
AcDbLine
 62
7
  6
CONTINUOUS
 10
11.0160484472
 20
-16.5383027754
 11
11.0160484472
 21
-20.7666206497
  0
LINE
  5
5F0
100
AcDbEntity
  8
RACCORDO
100
AcDbLine
 62
7
  6
CONTINUOUS
 10
11.0160484472
 20
-16.5383027754
 11
11.0160484472
 21
18.805095322
  0
LINE
  5
5F1
100
AcDbEntity
  8
0
100
AcDbLine
 62
253
  6
CONTINUOUS
 10
9.7667714451
 20
-21.9892534575
 11
9.761680844
 21
-22.4944349431
  0
LINE
  5
5F2
100
AcDbEntity
  8
0
100
AcDbLine
 62
253
  6
CONTINUOUS
 10
10.0160484472
 20
-22.2770888749
 11
10.0116766132
 21
-22.710941294
  0
LWPOLYLINE
  5
5F3
100
AcDbEntity
  8
0
100
AcDbPolyline
 62
7
  6
CONTINUOUS
 90
40
 70
0
 10
11.0160484472
 20
-20.7663748746
 10
11.0156496014
 20
-20.78650367
 10
11.0144427735
 20
-20.8065949213
 10
11.0124300141
 20
-20.8266162997
 10
11.0096150366
 20
-20.8465316337
 10
11.0060023899
 20
-20.8663128679
 10
11.0015960934
 20
-20.8859398668
 10
10.9964018701
 20
-20.9053823829
 10
10.9904271766
 20
-20.9246070846
 10
10.9836786316
 20
-20.943589095
 10
10.976160963
 20
-20.9623076828
 10
10.9678881882
 20
-20.9807208179
 10
10.9588851613
 20
-20.9987733209
 10
10.9491768933
 20
-21.0164209387
 10
10.9387726586
 20
-21.0336520874
 10
10.9276757561
 20
-21.0504614165
 10
10.9158915338
 20
-21.0668357872
 10
10.9034477917
 20
-21.0827317372
 10
10.8903834004
 20
-21.0980999842
 10
10.876735287
 20
-21.1129020308
 10
10.8625140269
 20
-21.1271310898
 10
10.8477204575
 20
-21.1407864765
 10
10.8323619319
 20
-21.153857259
 10
10.8164765172
 20
-21.1663070247
 10
10.8001120026
 20
-21.1780981736
 10
10.7833111555
 20
-21.1892031062
 10
10.7660876271
 20
-21.1996159264
 10
10.7484469614
 20
-21.2093332797
 10
10.7303997164
 20
-21.2183461517
 10
10.7119910798
 20
-21.2266288519
 10
10.6932795481
 20
-21.2341554027
 10
10.6743102068
 20
-21.2409108853
 10
10.6551010913
 20
-21.2468920619
 10
10.6356716764
 20
-21.2520943886
 10
10.6160421582
 20
-21.256512312
 10
10.5962556239
 20
-21.2601360237
 10
10.5763663144
 20
-21.2629576946
 10
10.5564141908
 20
-21.2649754339
 10
10.5364243464
 20
-21.2661903528
 10
10.5164290469
 20
-21.2666037267
  0
LINE
  5
5F4
100
AcDbEntity
  8
CURVE
100
AcDbLine
 62
253
  6
CONTINUOUS
 10
10.1785484472
 20
0.1958962733
 11
10.2410484472
 21
0.4458962733
  0
LINE
  5
5F5
100
AcDbEntity
  8
CURVE
100
AcDbLine
 62
253
  6
CONTINUOUS
 10
10.1160484472
 20
0.0083962733
 11
10.1785484472
 21
0.1958962733
  0
LINE
  5
5F6
100
AcDbEntity
  8
CURVE
100
AcDbLine
 62
253
  6
CONTINUOUS
 10
10.0535484472
 20
-0.1166037267
 11
10.1160484472
 21
0.0083962733
  0
LINE
  5
5F7
100
AcDbEntity
  8
DRAFT
100
AcDbLine
 62
7
  6
CONTINUOUS
 10
-6.7386739663
 20
-18.6713261402
 11
-6.6383149867
 21
-18.5709671606
  0
LINE
  5
5F8
100
AcDbEntity
  8
DRAFT
100
AcDbLine
 62
7
  6
CONTINUOUS
 10
-6.7386739663
 20
-18.9713261402
 11
-6.6383149867
 21
-18.8709671606
  0
LINE
  5
5F9
100
AcDbEntity
  8
CURVE
100
AcDbLine
 62
253
  6
CONTINUOUS
 10
-3.9482372588
 20
-8.3594608253
 11
-3.7625229648
 21
-8.2666037267
  0
LINE
  5
5FA
100
AcDbEntity
  8
CURVE
100
AcDbLine
 62
253
  6
CONTINUOUS
 10
-3.0196658274
 20
-8.8237466281
 11
-3.2053801021
 21
-8.9166037267
  0
LINE
  5
5FB
100
AcDbEntity
  8
CURVE
100
AcDbLine
 62
253
  6
CONTINUOUS
 10
-3.9482372588
 20
-9.3808895295
 11
-3.7625229648
 21
-9.288032431
  0
LINE
  5
5FC
100
AcDbEntity
  8
CURVE
100
AcDbLine
 62
253
  6
CONTINUOUS
 10
-3.0196658274
 20
-9.8451753324
 11
-3.2053801021
 21
-9.938032121
  0
LINE
  5
5FD
100
AcDbEntity
  8
CURVE
100
AcDbLine
 62
253
  6
CONTINUOUS
 10
8.8660484472
 20
5.5643485362
 11
10.1660484472
 21
5.5643485362
  0
LINE
  5
5FE
100
AcDbEntity
  8
CURVE
100
AcDbLine
 62
253
  6
CONTINUOUS
 10
5.8660484472
 20
5.7333962733
 11
7.7660484472
 21
5.7333962733
  0
LINE
  5
5FF
100
AcDbEntity
  8
CURVE
100
AcDbLine
 62
253
  6
CONTINUOUS
 10
9.7946198979
 20
5.9357769305
 11
9.2374770352
 21
5.9357769305
  0
LINE
  5
600
100
AcDbEntity
  8
CURVE
100
AcDbLine
 62
253
  6
CONTINUOUS
 10
9.2374770352
 20
6.5857769305
 11
9.7946198979
 21
6.5857769305
  0
LINE
  5
601
100
AcDbEntity
  8
0
100
AcDbLine
 62
7
  6
CONTINUOUS
 10
3.4060484472
 20
6.6333962733
 11
0.4660484472
 21
6.6333962733
  0
LINE
  5
602
100
AcDbEntity
  8
SMUSSO
100
AcDbLine
 62
7
  6
CONTINUOUS
 10
0.1160484472
 20
6.8833962733
 11
4.1160484472
 21
6.8833962733
  0
LINE
  5
603
100
AcDbEntity
  8
ASSI
100
AcDbLine
 62
7
  6
CONTINUOUS
 10
0.1160484472
 20
6.8833962733
 11
4.1160484472
 21
6.8833962733
  0
LINE
  5
604
100
AcDbEntity
  8
CURVE
100
AcDbLine
 62
253
  6
CONTINUOUS
 10
9.0517627412
 20
6.9572059447
 11
9.4231913099
 21
6.9572059447
  0
LINE
  5
605
100
AcDbEntity
  8
RACCORDO
100
AcDbLine
 62
7
  6
CONTINUOUS
 10
-10.847030431
 20
7.2833962733
 11
-9.9339515528
 21
7.2833962733
  0
LINE
  5
606
100
AcDbEntity
  8
ASSI
100
AcDbLine
 62
7
  6
CONTINUOUS
 10
-10.847030431
 20
7.2833962733
 11
-9.9339515528
 21
7.2833962733
  0
LINE
  5
607
100
AcDbEntity
  8
CURVE
100
AcDbLine
 62
253
  6
CONTINUOUS
 10
9.2374770352
 20
5.9357769305
 11
9.0517627412
 21
6.028634339
  0
LINE
  5
608
100
AcDbEntity
  8
CURVE
100
AcDbLine
 62
253
  6
CONTINUOUS
 10
9.7946198979
 20
3.9857769305
 11
8.8660484472
 21
4.5429201419
  0
LINE
  5
609
100
AcDbEntity
  8
DRAFT
100
AcDbLine
 62
7
  6
CONTINUOUS
 10
-6.7386739663
 20
20.9381186868
 11
-6.6383149867
 21
20.8377597072
  0
LINE
  5
60A
100
AcDbEntity
  8
DRAFT
100
AcDbLine
 62
7
  6
CONTINUOUS
 10
-6.7386739663
 20
21.2381186868
 11
-6.6383149867
 21
21.1377597072
  0
LINE
  5
60B
100
AcDbEntity
  8
CURVE
100
AcDbLine
 62
253
  6
CONTINUOUS
 10
9.0517627412
 20
6.028634339
 11
8.8660484472
 21
6.2143485362
  0
LINE
  5
60C
100
AcDbEntity
  8
CURVE
100
AcDbLine
 62
253
  6
CONTINUOUS
 10
10.2410484472
 20
0.5708962733
 11
10.1785484472
 21
0.7583962733
  0
LINE
  5
60D
100
AcDbEntity
  8
DRAFT
100
AcDbLine
 62
7
  6
CONTINUOUS
 10
-3.6339515528
 20
-18.5666037267
 11
-3.5972959164
 21
-18.5299480904
  0
LINE
  5
60E
100
AcDbEntity
  8
DRAFT
100
AcDbLine
 62
7
  6
CONTINUOUS
 10
-3.6339515528
 20
-18.7666037267
 11
-3.5972959164
 21
-18.7299480904
  0
LINE
  5
60F
100
AcDbEntity
  8
0
100
AcDbLine
 62
7
  6
CONTINUOUS
 10
-7.324493179
 20
-21.2025737522
 11
-7.3897693826
 21
-21.2607858969
  0
LINE
  5
610
100
AcDbEntity
  8
CURVE
100
AcDbLine
 62
253
  6
CONTINUOUS
 10
-7.2053801021
 20
-10.8666037267
 11
-8.1339515528
 21
-11.1451753324
  0
LINE
  5
611
100
AcDbEntity
  8
SMUSSO
100
AcDbLine
 62
7
  6
CONTINUOUS
 10
-0.3839515528
 20
7.3833962733
 11
4.6160484472
 21
7.3833962733
  0
LINE
  5
612
100
AcDbEntity
  8
ASSI
100
AcDbLine
 62
7
  6
CONTINUOUS
 10
-0.3839515528
 20
7.3833962733
 11
4.6160484472
 21
7.3833962733
  0
LINE
  5
613
100
AcDbEntity
  8
CURVE
100
AcDbLine
 62
253
  6
CONTINUOUS
 10
9.6089056233
 20
7.5143485362
 11
10.1660484472
 21
7.5143485362
  0
LINE
  5
614
100
AcDbEntity
  8
SMUSSO
100
AcDbLine
 62
7
  6
CONTINUOUS
 10
4.6160484472
 20
7.8833962733
 11
-0.3839515528
 21
7.8833962733
  0
LINE
  5
615
100
AcDbEntity
  8
ASSI
100
AcDbLine
 62
7
  6
CONTINUOUS
 10
4.6160484472
 20
7.8833962733
 11
-0.3839515528
 21
7.8833962733
  0
LINE
  5
616
100
AcDbEntity
  8
RACCORDO
100
AcDbLine
 62
7
  6
CONTINUOUS
 10
-10.847030431
 20
7.9833962733
 11
-9.9339515528
 21
7.9833962733
  0
LINE
  5
617
100
AcDbEntity
  8
ASSI
100
AcDbLine
 62
7
  6
CONTINUOUS
 10
-10.847030431
 20
7.9833962733
 11
-9.9339515528
 21
7.9833962733
  0
LINE
  5
618
100
AcDbEntity
  8
SMUSSO
100
AcDbLine
 62
7
  6
CONTINUOUS
 10
4.1160484472
 20
8.3833962733
 11
0.1160484472
 21
8.3833962733
  0
LINE
  5
619
100
AcDbEntity
  8
ASSI
100
AcDbLine
 62
7
  6
CONTINUOUS
 10
4.1160484472
 20
8.3833962733
 11
0.1160484472
 21
8.3833962733
  0
LINE
  5
61A
100
AcDbEntity
  8
0
100
AcDbLine
 62
7
  6
CONTINUOUS
 10
0.4660484472
 20
8.6333962733
 11
3.4060484472
 21
8.6333962733
  0
LINE
  5
61B
100
AcDbEntity
  8
CURVE
100
AcDbLine
 62
253
  6
CONTINUOUS
 10
9.7946198979
 20
6.5857769305
 11
9.9803341726
 21
6.4929201419
  0
LINE
  5
61C
100
AcDbEntity
  8
0
100
AcDbLine
 62
7
  6
CONTINUOUS
 10
-7.324493179
 20
23.4693662988
 11
-7.3897693826
 21
23.5275784435
  0
LINE
  5
61D
100
AcDbEntity
  8
CURVE
100
AcDbLine
 62
253
  6
CONTINUOUS
 10
8.8660484472
 20
7.1429201419
 11
9.0517627412
 21
6.9572059447
  0
LINE
  5
61E
100
AcDbEntity
  8
CURVE
100
AcDbLine
 62
253
  6
CONTINUOUS
 10
9.9803341726
 20
6.4929201419
 11
10.1660484472
 21
6.3072059447
  0
LINE
  5
61F
100
AcDbEntity
  8
CURVE
100
AcDbLine
 62
253
  6
CONTINUOUS
 10
6.9517627815
 20
9.6833962733
 11
6.6803341696
 21
9.9548248285
  0
LINE
  5
620
100
AcDbEntity
  8
SMUSSO
100
AcDbLine
 62
7
  6
CONTINUOUS
 10
-0.3839515528
 20
17.3833962733
 11
0.1160484472
 21
16.8833962733
  0
LINE
  5
621
100
AcDbEntity
  8
ASSI
100
AcDbLine
 62
7
  6
CONTINUOUS
 10
-0.3839515528
 20
17.3833962733
 11
0.1160484472
 21
16.8833962733
  0
LINE
  5
622
100
AcDbEntity
  8
DRAFT
100
AcDbLine
 62
7
  6
CONTINUOUS
 10
-3.6339515528
 20
20.8333962733
 11
-3.5972959164
 21
20.7967406369
  0
LINE
  5
623
100
AcDbEntity
  8
DRAFT
100
AcDbLine
 62
7
  6
CONTINUOUS
 10
-3.5972959164
 20
20.9967406369
 11
-3.6339515528
 21
21.0333962733
  0
LINE
  5
624
100
AcDbEntity
  8
SMUSSO
100
AcDbLine
 62
7
  6
CONTINUOUS
 10
4.6160484472
 20
12.8833962733
 11
4.1160484472
 21
13.3833962733
  0
LINE
  5
625
100
AcDbEntity
  8
ASSI
100
AcDbLine
 62
7
  6
CONTINUOUS
 10
4.6160484472
 20
12.8833962733
 11
4.1160484472
 21
13.3833962733
  0
LINE
  5
626
100
AcDbEntity
  8
CURVE
100
AcDbLine
 62
253
  6
CONTINUOUS
 10
9.2684294143
 20
10.5476820761
 11
9.3612865517
 21
10.3310153062
  0
LINE
  5
627
100
AcDbEntity
  8
CURVE
100
AcDbLine
 62
253
  6
CONTINUOUS
 10
9.1755722577
 20
10.0833962733
 11
9.2684294143
 21
9.8357772404
  0
LINE
  5
628
100
AcDbEntity
  8
0
100
AcDbLine
 62
7
  6
CONTINUOUS
 10
-4.471291473
 20
-22.7324676307
 11
-4.4519630907
 21
-22.7109585546
  0
LINE
  5
629
100
AcDbEntity
  8
0
100
AcDbLine
 62
7
  6
CONTINUOUS
 10
-4.4519630907
 20
-22.7109585546
 11
-4.4298174237
 21
-22.686637353
  0
LINE
  5
62A
100
AcDbEntity
  8
0
100
AcDbLine
 62
7
  6
CONTINUOUS
 10
-4.4298174237
 20
-22.686637353
 11
-4.4047450268
 21
-22.6593866548
  0
LINE
  5
62B
100
AcDbEntity
  8
0
100
AcDbLine
 62
7
  6
CONTINUOUS
 10
-4.4047450268
 20
-22.6593866548
 11
-4.3766932682
 21
-22.6291659315
  0
LINE
  5
62C
100
AcDbEntity
  8
0
100
AcDbLine
 62
7
  6
CONTINUOUS
 10
-4.3766932682
 20
-22.6291659315
 11
-4.345662155
 21
-22.5959467246
  0
LINE
  5
62D
100
AcDbEntity
  8
0
100
AcDbLine
 62
7
  6
CONTINUOUS
 10
-4.345662155
 20
-22.5959467246
 11
-4.2937810354
 21
-22.5407809505
  0
LINE
  5
62E
100
AcDbEntity
  8
0
100
AcDbLine
 62
7
  6
CONTINUOUS
 10
-4.2937810354
 20
-22.5407809505
 11
-4.2559687777
 21
-22.5007928838
  0
LINE
  5
62F
100
AcDbEntity
  8
0
100
AcDbLine
 62
7
  6
CONTINUOUS
 10
-4.2559687777
 20
-22.5007928838
 11
-4.1740598876
 21
-22.4144491672
  0
LINE
  5
630
100
AcDbEntity
  8
0
100
AcDbLine
 62
7
  6
CONTINUOUS
 10
-4.1740598876
 20
-22.4144491672
 11
-4.0869942627
 21
-22.3229615414
  0
LINE
  5
631
100
AcDbEntity
  8
0
100
AcDbLine
 62
7
  6
CONTINUOUS
 10
-4.5839515528
 20
-21.2666037267
 11
-4.5400293057
 21
-21.2226814797
  0
LINE
  5
632
100
AcDbEntity
  8
0
100
AcDbLine
 62
7
  6
CONTINUOUS
 10
-4.5403009059
 20
-22.8229530798
 11
-4.5839515528
 21
-22.8666037267
  0
LINE
  5
633
100
AcDbEntity
  8
0
100
AcDbLine
 62
253
  6
CONTINUOUS
 10
-11.2839515528
 20
-20.7666206497
 11
-11.275224685
 21
-20.7608028199
  0
LINE
  5
634
100
AcDbEntity
  8
0
100
AcDbLine
 62
253
  6
CONTINUOUS
 10
-10.7839578989
 20
-21.2666037267
 11
-10.7752310311
 21
-21.2607858969
  0
LINE
  5
635
100
AcDbEntity
  8
RACCORDO
100
AcDbLine
 62
253
  6
CONTINUOUS
 10
-11.2839515528
 20
-16.5383027754
 11
-11.1617660983
 21
-16.487691903
  0
LINE
  5
636
100
AcDbEntity
  8
CURVE
100
AcDbLine
 62
253
  6
CONTINUOUS
 10
-3.2053801021
 20
-10.8666037267
 11
-4.1339515528
 21
-11.1451753324
  0
LINE
  5
637
100
AcDbEntity
  8
CURVE
100
AcDbLine
 62
253
  6
CONTINUOUS
 10
7.494619892
 20
9.6833962733
 11
6.9517627815
 21
9.6833962733
  0
LINE
  5
638
100
AcDbEntity
  8
CURVE
100
AcDbLine
 62
253
  6
CONTINUOUS
 10
-3.0859115528
 20
10.1158402733
 11
-3.8367315528
 21
10.1158402733
  0
LINE
  5
639
100
AcDbEntity
  8
CURVE
100
AcDbLine
 62
253
  6
CONTINUOUS
 10
-7.4311715528
 20
10.1158402733
 11
-8.1819915528
 21
10.1158402733
  0
LINE
  5
63A
100
AcDbEntity
  8
CURVE
100
AcDbLine
 62
253
  6
CONTINUOUS
 10
-5.2589515528
 20
10.5158402733
 11
-6.0089515528
 21
10.5158402733
  0
LINE
  5
63B
100
AcDbEntity
  8
CURVE
100
AcDbLine
 62
253
  6
CONTINUOUS
 10
5.8660484472
 20
10.6333962733
 11
7.7660484472
 21
10.6333962733
  0
LINE
  5
63C
100
AcDbEntity
  8
RACCORDO
100
AcDbLine
 62
253
  6
CONTINUOUS
 10
-11.1617660983
 20
18.7544844496
 11
-11.2839515528
 21
18.805095322
  0
LINE
  5
63D
100
AcDbEntity
  8
0
100
AcDbLine
 62
253
  6
CONTINUOUS
 10
-11.275224685
 20
23.0275953665
 11
-11.2839515528
 21
23.0334131963
  0
LINE
  5
63E
100
AcDbEntity
  8
0
100
AcDbLine
 62
253
  6
CONTINUOUS
 10
-10.7752310311
 20
23.5275784435
 11
-10.7839578989
 21
23.5333962733
  0
LINE
  5
63F
100
AcDbEntity
  8
0
100
AcDbLine
 62
7
  6
CONTINUOUS
 10
-4.5839515528
 20
23.5333962733
 11
-4.5400293057
 21
23.4894740262
  0
LINE
  5
640
100
AcDbEntity
  8
0
100
AcDbLine
 62
7
  6
CONTINUOUS
 10
-4.5403009059
 20
25.0897456264
 11
-4.5839515528
 21
25.1333962733
  0
LINE
  5
641
100
AcDbEntity
  8
0
100
AcDbLine
 62
7
  6
CONTINUOUS
 10
-4.1090214867
 20
24.6129743447
 11
-4.1740194979
 21
24.681198994
  0
LINE
  5
642
100
AcDbEntity
  8
0
100
AcDbLine
 62
7
  6
CONTINUOUS
 10
-4.0869942627
 20
24.589754088
 11
-4.1090214867
 21
24.6129743447
  0
LINE
  5
643
100
AcDbEntity
  8
0
100
AcDbLine
 62
7
  6
CONTINUOUS
 10
-4.1740194979
 20
24.681198994
 11
-4.2559215064
 21
24.7675354259
  0
LINE
  5
644
100
AcDbEntity
  8
0
100
AcDbLine
 62
7
  6
CONTINUOUS
 10
-4.2559215064
 20
24.7675354259
 11
-4.3116638573
 21
24.8265591537
  0
LINE
  5
645
100
AcDbEntity
  8
0
100
AcDbLine
 62
7
  6
CONTINUOUS
 10
-4.3116638573
 20
24.8265591537
 11
-4.3614230806
 21
24.8795871087
  0
LINE
  5
646
100
AcDbEntity
  8
0
100
AcDbLine
 62
7
  6
CONTINUOUS
 10
-4.3614230806
 20
24.8795871087
 11
-4.3909686435
 21
24.911307429
  0
LINE
  5
647
100
AcDbEntity
  8
0
100
AcDbLine
 62
7
  6
CONTINUOUS
 10
-4.3909686435
 20
24.911307429
 11
-4.417536572
 21
24.94005219
  0
LINE
  5
648
100
AcDbEntity
  8
0
100
AcDbLine
 62
7
  6
CONTINUOUS
 10
-4.417536572
 20
24.94005219
 11
-4.4411363777
 21
24.9658193377
  0
LWPOLYLINE
  5
649
100
AcDbEntity
  8
0
100
AcDbPolyline
 62
7
  6
CONTINUOUS
 90
19
 70
0
 10
-4.4411363777
 20
24.9658193377
 10
-4.4618629056
 20
24.9887327862
 10
-4.4711770392
 20
24.9991320222
 10
-4.4798223671
 20
25.0088795005
 10
-4.4878056272
 20
25.0179702489
 10
-4.4951458146
 20
25.0264092396
 10
-4.5018812756
 20
25.0342628509
 10
-4.5080184467
 20
25.0415327667
 10
-4.5135721157
 20
25.048217303
 10
-4.5185804547
 20
25.0543777859
 10
-4.5230522162
 20
25.0600258962
 10
-4.5269864016
 20
25.0651499531
 10
-4.5303957547
 20
25.0697762406
 10
-4.5332844099
 20
25.0739077727
 10
-4.5356538375
 20
25.0775415353
 10
-4.5375092049
 20
25.0806947699
 10
-4.5388543133
 20
25.0833732235
 10
-4.5396927838
 20
25.0855711489
 10
-4.5400293057
 20
25.0872885463
  0
LINE
  5
64A
100
AcDbEntity
  8
CURVE
100
AcDbLine
 62
253
  6
CONTINUOUS
 10
9.6089056233
 20
13.2405391747
 11
9.7017627218
 21
13.0857772404
  0
LWPOLYLINE
  5
64B
100
AcDbEntity
  8
0
100
AcDbPolyline
 62
7
  6
CONTINUOUS
 90
6
 70
0
 10
10.0135039214
 20
25.4189786394
 10
10.0115308149
 20
25.4307125608
 10
10.0090016289
 20
25.4423393121
 10
10.0059220889
 20
25.4538325523
 10
10.0022991685
 20
25.4651662471
 10
9.998141073
 20
25.4763147226
  0
LWPOLYLINE
  5
64C
100
AcDbEntity
  8
RACCORDO
100
AcDbPolyline
 62
253
  6
CONTINUOUS
 90
3
 70
0
 10
-2.0272737435
 20
-16.2114178976
 10
-1.9842282095
 20
-16.1843677666
 10
-1.9367034894
 20
-16.1645052705
  0
LINE
  5
64D
100
AcDbEntity
  8
RACCORDO
100
AcDbLine
 62
253
  6
CONTINUOUS
 10
-10.6982543333
 20
-17.9523009462
 11
-10.5760688788
 21
-17.9016900738
  0
LINE
  5
64E
100
AcDbEntity
  8
0
100
AcDbLine
 62
7
  6
CONTINUOUS
 10
3.4060484472
 20
11.6333962733
 11
0.4660484472
 21
11.6333962733
  0
LINE
  5
64F
100
AcDbEntity
  8
SMUSSO
100
AcDbLine
 62
7
  6
CONTINUOUS
 10
0.1160484472
 20
11.8833962733
 11
4.1160484472
 21
11.8833962733
  0
LINE
  5
650
100
AcDbEntity
  8
ASSI
100
AcDbLine
 62
7
  6
CONTINUOUS
 10
0.1160484472
 20
11.8833962733
 11
4.1160484472
 21
11.8833962733
  0
LINE
  5
651
100
AcDbEntity
  8
CURVE
100
AcDbLine
 62
253
  6
CONTINUOUS
 10
9.7946198979
 20
12.0333962733
 11
9.2374770352
 21
12.0333962733
  0
LINE
  5
652
100
AcDbEntity
  8
RACCORDO
100
AcDbLine
 62
7
  6
CONTINUOUS
 10
-10.847030431
 20
12.2833962733
 11
-9.9339515528
 21
12.2833962733
  0
LINE
  5
653
100
AcDbEntity
  8
ASSI
100
AcDbLine
 62
7
  6
CONTINUOUS
 10
-10.847030431
 20
12.2833962733
 11
-9.9339515528
 21
12.2833962733
  0
LINE
  5
654
100
AcDbEntity
  8
SMUSSO
100
AcDbLine
 62
7
  6
CONTINUOUS
 10
-0.3839515528
 20
12.3833962733
 11
4.6160484472
 21
12.3833962733
  0
LINE
  5
655
100
AcDbEntity
  8
ASSI
100
AcDbLine
 62
7
  6
CONTINUOUS
 10
-0.3839515528
 20
12.3833962733
 11
4.6160484472
 21
12.3833962733
  0
LINE
  5
656
100
AcDbEntity
  8
CURVE
100
AcDbLine
 62
253
  6
CONTINUOUS
 10
9.2374770352
 20
12.6833962733
 11
9.7946198979
 21
12.6833962733
  0
LINE
  5
657
100
AcDbEntity
  8
SMUSSO
100
AcDbLine
 62
7
  6
CONTINUOUS
 10
4.6160484472
 20
12.8833962733
 11
-0.3839515528
 21
12.8833962733
  0
LINE
  5
658
100
AcDbEntity
  8
ASSI
100
AcDbLine
 62
7
  6
CONTINUOUS
 10
4.6160484472
 20
12.8833962733
 11
-0.3839515528
 21
12.8833962733
  0
LINE
  5
659
100
AcDbEntity
  8
RACCORDO
100
AcDbLine
 62
7
  6
CONTINUOUS
 10
-10.847030431
 20
12.9833962733
 11
-9.9339515528
 21
12.9833962733
  0
LINE
  5
65A
100
AcDbEntity
  8
ASSI
100
AcDbLine
 62
7
  6
CONTINUOUS
 10
-10.847030431
 20
12.9833962733
 11
-9.9339515528
 21
12.9833962733
  0
LINE
  5
65B
100
AcDbEntity
  8
CURVE
100
AcDbLine
 62
253
  6
CONTINUOUS
 10
8.9589055942
 20
13.0548248226
 11
9.4231913099
 21
13.0548248226
  0
LINE
  5
65C
100
AcDbEntity
  8
CURVE
100
AcDbLine
 62
253
  6
CONTINUOUS
 10
9.7017627218
 20
13.0857772404
 11
9.9803341726
 21
13.0857772404
  0
LINE
  5
65D
100
AcDbEntity
  8
CURVE
100
AcDbLine
 62
253
  6
CONTINUOUS
 10
8.8660484472
 20
11.2905391747
 11
10.1660484472
 21
10.9191104705
  0
LINE
  5
65E
100
AcDbEntity
  8
RACCORDO
100
AcDbLine
 62
253
  6
CONTINUOUS
 10
-10.5760688788
 20
20.1684826204
 11
-10.6982543333
 21
20.2190934928
  0
LINE
  5
65F
100
AcDbEntity
  8
CURVE
100
AcDbLine
 62
253
  6
CONTINUOUS
 10
9.2374770352
 20
12.0333962733
 11
9.0517627412
 21
12.1262533719
  0
LWPOLYLINE
  5
660
100
AcDbEntity
  8
RACCORDO
100
AcDbPolyline
 62
253
  6
CONTINUOUS
 90
4
 70
0
 10
-2.0272737435
 20
18.4782104442
 10
-1.9842282095
 20
18.4511603132
 10
-1.9367034894
 20
18.4312978171
 10
-1.8860940181
 20
18.4191521993
  0
LINE
  5
661
100
AcDbEntity
  8
CURVE
100
AcDbLine
 62
253
  6
CONTINUOUS
 10
9.0517627412
 20
12.1262533719
 11
8.8660484472
 21
12.311967724
  0
LINE
  5
662
100
AcDbEntity
  8
CURVE
100
AcDbLine
 62
253
  6
CONTINUOUS
 10
8.8660484472
 20
13.1476819212
 11
8.9589055942
 21
13.0548248226
  0
LINE
  5
663
100
AcDbEntity
  8
CURVE
100
AcDbLine
 62
253
  6
CONTINUOUS
 10
9.9803341726
 20
12.5905391747
 11
10.1660484472
 21
12.4048248226
  0
LWPOLYLINE
  5
664
100
AcDbEntity
  8
0
100
AcDbPolyline
 62
7
  6
CONTINUOUS
 90
9
 70
0
 10
9.998141073
 20
-23.209522176
 10
10.0022991685
 20
-23.1983737005
 10
10.0059220889
 20
-23.1870400057
 10
10.0090016289
 20
-23.1755467655
 10
10.0115308149
 20
-23.1639200142
 10
10.0135039214
 20
-23.1521860928
 10
10.0149164814
 20
-23.1403715823
 10
10.015765297
 20
-23.1285032427
 10
10.0160484472
 20
-23.1166079575
  0
LWPOLYLINE
  5
665
100
AcDbEntity
  8
0
100
AcDbPolyline
 62
7
  6
CONTINUOUS
 90
5
 70
0
 10
3.4001327249
 20
-22.7722750991
 10
3.4066576518
 20
-22.7646251456
 10
3.4138481648
 20
-22.7562810635
 10
3.4217220508
 20
-22.7472428529
 10
3.4302935948
 20
-22.7375270453
  0
LINE
  5
666
100
AcDbEntity
  8
SMUSSO
100
AcDbLine
 62
7
  6
CONTINUOUS
 10
4.1160484472
 20
13.3833962733
 11
0.1160484472
 21
13.3833962733
  0
LINE
  5
667
100
AcDbEntity
  8
ASSI
100
AcDbLine
 62
7
  6
CONTINUOUS
 10
4.1160484472
 20
13.3833962733
 11
0.1160484472
 21
13.3833962733
  0
LINE
  5
668
100
AcDbEntity
  8
0
100
AcDbLine
 62
7
  6
CONTINUOUS
 10
0.4660484472
 20
13.6333962733
 11
3.4060484472
 21
13.6333962733
  0
LINE
  5
669
100
AcDbEntity
  8
CURVE
100
AcDbLine
 62
253
  6
CONTINUOUS
 10
9.7946198979
 20
13.9833962733
 11
9.9803341726
 21
13.9833962733
  0
LINE
  5
66A
100
AcDbEntity
  8
CURVE
100
AcDbLine
 62
253
  6
CONTINUOUS
 10
-3.0859115528
 20
14.5009502733
 11
-3.8367315528
 21
14.5009502733
  0
LINE
  5
66B
100
AcDbEntity
  8
CURVE
100
AcDbLine
 62
253
  6
CONTINUOUS
 10
-7.4311715528
 20
14.5009502733
 11
-8.1819915528
 21
14.5009502733
  0
LINE
  5
66C
100
AcDbEntity
  8
CURVE
100
AcDbLine
 62
253
  6
CONTINUOUS
 10
9.7946198979
 20
12.6833962733
 11
9.9803341726
 21
12.5905391747
  0
LINE
  5
66D
100
AcDbEntity
  8
CURVE
100
AcDbLine
 62
253
  6
CONTINUOUS
 10
10.1660484472
 20
14.4476819793
 11
9.8874769965
 21
14.6333962733
  0
LINE
  5
66E
100
AcDbEntity
  8
CURVE
100
AcDbLine
 62
253
  6
CONTINUOUS
 10
8.8660484472
 20
14.6333962733
 11
9.7946198979
 21
13.9833962733
  0
LWPOLYLINE
  5
66F
100
AcDbEntity
  8
0
100
AcDbPolyline
 62
7
  6
CONTINUOUS
 90
18
 70
0
 10
9.998141073
 20
25.4763147226
 10
9.9934572194
 20
25.4872527196
 10
9.988258216
 20
25.4979554609
 10
9.9825558388
 20
25.5083987016
 10
9.9763630053
 20
25.5185587792
 10
9.9696937427
 20
25.5284126784
 10
9.9625631579
 20
25.5379380771
 10
9.9549874061
 20
25.5471133924
 10
9.9469836477
 20
25.5559178394
 10
9.9385700133
 20
25.5643314738
 10
9.9297655663
 20
25.5723352322
 10
9.920590251
 20
25.579910984
 10
9.9110648523
 20
25.5870415688
 10
9.9012109531
 20
25.5937108314
 10
9.8910508755
 20
25.5999036649
 10
9.8806076348
 20
25.6056060421
 10
9.8699048935
 20
25.6108050455
 10
9.8589668965
 20
25.6154888991
  0
LINE
  5
670
100
AcDbEntity
  8
0
100
AcDbLine
 62
7
  6
CONTINUOUS
 10
3.4302935948
 20
-22.7375270453
 11
3.4496006662
 21
-22.7159634498
  0
LINE
  5
671
100
AcDbEntity
  8
0
100
AcDbLine
 62
7
  6
CONTINUOUS
 10
3.4496006662
 20
-22.7159634498
 11
3.4719209217
 21
-22.6913848456
  0
LINE
  5
672
100
AcDbEntity
  8
0
100
AcDbLine
 62
7
  6
CONTINUOUS
 10
3.4719209217
 20
-22.6913848456
 11
3.4972080217
 21
-22.6638613289
  0
LINE
  5
673
100
AcDbEntity
  8
0
100
AcDbLine
 62
7
  6
CONTINUOUS
 10
3.4972080217
 20
-22.6638613289
 11
3.5254323197
 21
-22.6334193371
  0
LINE
  5
674
100
AcDbEntity
  8
0
100
AcDbLine
 62
7
  6
CONTINUOUS
 10
3.5254323197
 20
-22.6334193371
 11
3.5564994152
 21
-22.6001399465
  0
LINE
  5
675
100
AcDbEntity
  8
0
100
AcDbLine
 62
7
  6
CONTINUOUS
 10
3.5564994152
 20
-22.6001399465
 11
3.6086858598
 21
-22.5446203105
  0
LINE
  5
676
100
AcDbEntity
  8
0
100
AcDbLine
 62
7
  6
CONTINUOUS
 10
3.6086858598
 20
-22.5446203105
 11
3.6676541127
 21
-22.4822508495
  0
LWPOLYLINE
  5
677
100
AcDbEntity
  8
0
100
AcDbPolyline
 62
7
  6
CONTINUOUS
 90
4
 70
0
 10
3.6676541127
 20
-22.4822508495
 10
3.7536438882
 20
-22.3917339846
 10
3.7754920913
 20
-22.3688395777
 10
3.8190911571
 20
-22.3229615414
  0
LINE
  5
678
100
AcDbEntity
  8
DRAFT
100
AcDbLine
 62
7
  6
CONTINUOUS
 10
7.0613260337
 20
-18.6713261402
 11
7.1616850133
 21
-18.5709671606
  0
LINE
  5
679
100
AcDbEntity
  8
DRAFT
100
AcDbLine
 62
7
  6
CONTINUOUS
 10
7.2660484472
 20
-18.5666037267
 11
7.3027040836
 21
-18.5299480904
  0
LINE
  5
67A
100
AcDbEntity
  8
DRAFT
100
AcDbLine
 62
7
  6
CONTINUOUS
 10
7.0613260337
 20
-19.8625992724
 11
7.1573219117
 21
-19.766604059
  0
LINE
  5
67B
100
AcDbEntity
  8
DRAFT
100
AcDbLine
 62
7
  6
CONTINUOUS
 10
7.1573219117
 20
-19.7753302622
 11
7.1660484472
 21
-19.7666037267
  0
LINE
  5
67C
100
AcDbEntity
  8
CURVE
100
AcDbLine
 62
253
  6
CONTINUOUS
 10
7.7660484472
 20
15.3833962733
 11
5.8660484472
 21
15.3833962733
  0
LINE
  5
67D
100
AcDbEntity
  8
RACCORDO
100
AcDbLine
 62
253
  6
CONTINUOUS
 10
-9.9934923253
 20
15.6989465749
 11
-9.9339515528
 21
15.6989465749
  0
LINE
  5
67E
100
AcDbEntity
  8
RACCORDO
100
AcDbLine
 62
253
  6
CONTINUOUS
 10
-9.9925648727
 20
15.9989008835
 11
-9.9339515528
 21
15.9989008835
  0
LINE
  5
67F
100
AcDbEntity
  8
RACCORDO
100
AcDbLine
 62
7
  6
CONTINUOUS
 10
-9.9925180746
 20
16.0112108188
 11
-9.9339515528
 21
16.0112108188
  0
LINE
  5
680
100
AcDbEntity
  8
0
100
AcDbLine
 62
7
  6
CONTINUOUS
 10
3.4060484472
 20
16.6333962733
 11
0.4660484472
 21
16.6333962733
  0
LINE
  5
681
100
AcDbEntity
  8
SMUSSO
100
AcDbLine
 62
7
  6
CONTINUOUS
 10
0.1160484472
 20
16.8833962733
 11
4.1160484472
 21
16.8833962733
  0
LINE
  5
682
100
AcDbEntity
  8
ASSI
100
AcDbLine
 62
7
  6
CONTINUOUS
 10
0.1160484472
 20
16.8833962733
 11
4.1160484472
 21
16.8833962733
  0
LINE
  5
683
100
AcDbEntity
  8
DRAFT
100
AcDbLine
 62
7
  6
CONTINUOUS
 10
7.0613260337
 20
20.9381186868
 11
7.1616850133
 21
20.8377597072
  0
LINE
  5
684
100
AcDbEntity
  8
DRAFT
100
AcDbLine
 62
7
  6
CONTINUOUS
 10
7.2660484472
 20
20.8333962733
 11
7.3027040836
 21
20.7967406369
  0
LINE
  5
685
100
AcDbEntity
  8
DRAFT
100
AcDbLine
 62
7
  6
CONTINUOUS
 10
7.0613260337
 20
22.129391819
 11
7.1573215794
 21
22.0333962733
  0
LINE
  5
686
100
AcDbEntity
  8
0
100
AcDbLine
 62
7
  6
CONTINUOUS
 10
3.7973760548
 20
24.612655222
 11
3.7317939163
 21
24.6814806726
  0
LINE
  5
687
100
AcDbEntity
  8
0
100
AcDbLine
 62
7
  6
CONTINUOUS
 10
3.8190911571
 20
24.589754088
 11
3.7973760548
 21
24.612655222
  0
LINE
  5
688
100
AcDbEntity
  8
0
100
AcDbLine
 62
7
  6
CONTINUOUS
 10
3.7317939163
 20
24.6814806726
 11
3.6472037211
 21
24.7706563927
  0
LINE
  5
689
100
AcDbEntity
  8
0
100
AcDbLine
 62
7
  6
CONTINUOUS
 10
3.6472037211
 20
24.7706563927
 11
3.5905277501
 21
24.8306964567
  0
LINE
  5
68A
100
AcDbEntity
  8
0
100
AcDbLine
 62
7
  6
CONTINUOUS
 10
3.5905277501
 20
24.8306964567
 11
3.5565010707
 21
24.8669310005
  0
LINE
  5
68B
100
AcDbEntity
  8
0
100
AcDbLine
 62
7
  6
CONTINUOUS
 10
3.5565010707
 20
24.8669310005
 11
3.5254400611
 21
24.9002035645
  0
LINE
  5
68C
100
AcDbEntity
  8
0
100
AcDbLine
 62
7
  6
CONTINUOUS
 10
3.5254400611
 20
24.9002035645
 11
3.4971847513
 21
24.9306783001
  0
LINE
  5
68D
100
AcDbEntity
  8
0
100
AcDbLine
 62
7
  6
CONTINUOUS
 10
3.4971847513
 20
24.9306783001
 11
3.4718773576
 21
24.958225076
  0
LINE
  5
68E
100
AcDbEntity
  8
0
100
AcDbLine
 62
7
  6
CONTINUOUS
 10
3.4718773576
 20
24.958225076
 11
3.4495554213
 21
24.9828061547
  0
LWPOLYLINE
  5
68F
100
AcDbEntity
  8
0
100
AcDbPolyline
 62
7
  6
CONTINUOUS
 90
6
 70
0
 10
3.4495554213
 20
24.9828061547
 10
3.4302638923
 20
25.0043533248
 10
3.4217011618
 20
25.0140591859
 10
3.4138347644
 20
25.0230891804
 10
3.4066512479
 20
25.0314253337
 10
3.4001327249
 20
25.0390676457
  0
LINE
  5
690
100
AcDbEntity
  8
DRAFT
100
AcDbLine
 62
7
  6
CONTINUOUS
 10
7.4846775973
 20
-19.7666037267
 11
7.5346775973
 21
-19.7166037267
  0
LINE
  5
691
100
AcDbEntity
  8
DRAFT
100
AcDbLine
 62
7
  6
CONTINUOUS
 10
7.5093609069
 20
-19.7666037267
 11
7.5593609069
 21
-19.7166037267
  0
LINE
  5
692
100
AcDbEntity
  8
RACCORDO
100
AcDbLine
 62
7
  6
CONTINUOUS
 10
9.85636012
 20
-18.2799944919
 11
9.6671328349
 21
-18.4692216703
  0
LINE
  5
693
100
AcDbEntity
  8
ASSI
100
AcDbLine
 62
7
  6
CONTINUOUS
 10
9.85636012
 20
-18.2799944919
 11
9.6671328349
 21
-18.4692216703
  0
LINE
  5
694
100
AcDbEntity
  8
RACCORDO
100
AcDbLine
 62
7
  6
CONTINUOUS
 10
10.5862566826
 20
-17.5649079735
 11
9.964352694
 21
-18.1868119621
  0
LINE
  5
695
100
AcDbEntity
  8
ASSI
100
AcDbLine
 62
7
  6
CONTINUOUS
 10
10.5862566826
 20
-17.5649079735
 11
9.964352694
 21
-18.1868119621
  0
LINE
  5
696
100
AcDbEntity
  8
RACCORDO
100
AcDbLine
 62
7
  6
CONTINUOUS
 10
8.4932521203
 20
-19.7166037267
 11
10.3081657732
 21
-17.9016900738
  0
LINE
  5
697
100
AcDbEntity
  8
0
100
AcDbLine
 62
7
  6
CONTINUOUS
 10
8.0985933823
 20
-20.2717171368
 11
7.932617949
 21
-20.4376925701
  0
LINE
  5
698
100
AcDbEntity
  8
RACCORDO
100
AcDbLine
 62
7
  6
CONTINUOUS
 10
8.6660484472
 20
-19.7166037267
 11
10.4303512277
 21
-17.9523009462
  0
LINE
  5
699
100
AcDbEntity
  8
0
100
AcDbLine
 62
7
  6
CONTINUOUS
 10
7.121866277
 20
-21.2607858969
 11
11.0073215794
 21
-17.3753305945
  0
LINE
  5
69A
100
AcDbEntity
  8
0
100
AcDbLine
 62
253
  6
CONTINUOUS
 10
0.8746158172
 20
-22.6608989965
 11
0.8660484472
 21
-22.6666104959
  0
LINE
  5
69B
100
AcDbEntity
  8
0
100
AcDbLine
 62
253
  6
CONTINUOUS
 10
1.0745980469
 20
-22.8609023817
 11
1.0660459088
 21
-22.8666037267
  0
LINE
  5
69C
100
AcDbEntity
  8
0
100
AcDbLine
 62
7
  6
CONTINUOUS
 10
0.8660484472
 20
-21.2666037267
 11
0.8747224006
 21
-21.2613994392
  0
LWPOLYLINE
  5
69D
100
AcDbEntity
  8
0
100
AcDbPolyline
 62
7
  6
CONTINUOUS
 90
18
 70
0
 10
-7.5410331035
 20
-23.3486963525
 10
-7.5300951065
 20
-23.3440124989
 10
-7.5193923652
 20
-23.3388134955
 10
-7.5089491245
 20
-23.3331111183
 10
-7.4987890469
 20
-23.3269182848
 10
-7.4889351477
 20
-23.3202490222
 10
-7.479409749
 20
-23.3131184374
 10
-7.4702344337
 20
-23.3055426856
 10
-7.4614299867
 20
-23.2975389272
 10
-7.4530163523
 20
-23.2891252928
 10
-7.4450125939
 20
-23.2803208458
 10
-7.4374368421
 20
-23.2711455305
 10
-7.4303062573
 20
-23.2616201318
 10
-7.4236369947
 20
-23.2517662326
 10
-7.4174441612
 20
-23.241606155
 10
-7.411741784
 20
-23.2311629143
 10
-7.4065427806
 20
-23.220460173
 10
-7.401858927
 20
-23.209522176
  0
LINE
  5
69E
100
AcDbEntity
  8
RACCORDO
100
AcDbLine
 62
253
  6
CONTINUOUS
 10
1.6181909125
 20
18.4191521993
 11
1.5660484472
 21
18.415068116
  0
LINE
  5
69F
100
AcDbEntity
  8
RACCORDO
100
AcDbLine
 62
7
  6
CONTINUOUS
 10
-10.847030431
 20
17.2833962733
 11
-9.9339515528
 21
17.2833962733
  0
LINE
  5
6A0
100
AcDbEntity
  8
ASSI
100
AcDbLine
 62
7
  6
CONTINUOUS
 10
-10.847030431
 20
17.2833962733
 11
-9.9339515528
 21
17.2833962733
  0
LINE
  5
6A1
100
AcDbEntity
  8
SMUSSO
100
AcDbLine
 62
7
  6
CONTINUOUS
 10
-0.3839515528
 20
17.3833962733
 11
4.6160484472
 21
17.3833962733
  0
LINE
  5
6A2
100
AcDbEntity
  8
ASSI
100
AcDbLine
 62
7
  6
CONTINUOUS
 10
-0.3839515528
 20
17.3833962733
 11
4.6160484472
 21
17.3833962733
  0
LINE
  5
6A3
100
AcDbEntity
  8
0
100
AcDbLine
 62
7
  6
CONTINUOUS
 10
2.3660484472
 20
17.7333962733
 11
-2.6339515528
 21
17.7333962733
  0
LINE
  5
6A4
100
AcDbEntity
  8
ASSI
100
AcDbLine
 62
7
  6
CONTINUOUS
 10
2.3660484472
 20
17.7333962733
 11
-2.6339515528
 21
17.7333962733
  0
LINE
  5
6A5
100
AcDbEntity
  8
RACCORDO
100
AcDbLine
 62
7
  6
CONTINUOUS
 10
-1.8339515528
 20
18.3833962733
 11
1.5660484472
 21
18.3833962733
  0
LINE
  5
6A6
100
AcDbEntity
  8
RACCORDO
100
AcDbLine
 62
253
  6
CONTINUOUS
 10
-1.8339515528
 20
18.415068116
 11
1.5660484472
 21
18.415068116
  0
LINE
  5
6A7
100
AcDbEntity
  8
RACCORDO
100
AcDbLine
 62
7
  6
CONTINUOUS
 10
1.470041478
 20
18.4333962733
 11
-1.7379445836
 21
18.4333962733
  0
LINE
  5
6A8
100
AcDbEntity
  8
ASSI
100
AcDbLine
 62
7
  6
CONTINUOUS
 10
1.470041478
 20
18.4333962733
 11
-1.7379445836
 21
18.4333962733
  0
LINE
  5
6A9
100
AcDbEntity
  8
ASSI
100
AcDbLine
 62
7
  6
CONTINUOUS
 10
2.3660484472
 20
18.6333962733
 11
-2.6339515528
 21
18.6333962733
  0
LINE
  5
6AA
100
AcDbEntity
  8
RACCORDO
100
AcDbLine
 62
253
  6
CONTINUOUS
 10
-1.8860940181
 20
18.4191521993
 11
-1.8339515528
 21
18.415068116
  0
LINE
  5
6AB
100
AcDbEntity
  8
0
100
AcDbLine
 62
7
  6
CONTINUOUS
 10
0.8747224006
 20
23.5281919858
 11
0.8660484472
 21
23.5333962733
  0
LINE
  5
6AC
100
AcDbEntity
  8
0
100
AcDbLine
 62
253
  6
CONTINUOUS
 10
0.8660484472
 20
24.9334030425
 11
0.8746158172
 21
24.9276915431
  0
LINE
  5
6AD
100
AcDbEntity
  8
0
100
AcDbLine
 62
253
  6
CONTINUOUS
 10
1.0660459088
 20
25.1333962733
 11
1.0745980469
 21
25.1276949283
  0
LINE
  5
6AE
100
AcDbEntity
  8
DRAFT
100
AcDbLine
 62
7
  6
CONTINUOUS
 10
7.5346775973
 20
21.9833962733
 11
7.4846775973
 21
22.0333962733
  0
LINE
  5
6AF
100
AcDbEntity
  8
DRAFT
100
AcDbLine
 62
7
  6
CONTINUOUS
 10
7.5593609069
 20
21.9833962733
 11
7.5093609069
 21
22.0333962733
  0
LINE
  5
6B0
100
AcDbEntity
  8
RACCORDO
100
AcDbLine
 62
7
  6
CONTINUOUS
 10
9.964352694
 20
20.4536045086
 11
10.5862566826
 21
19.8317005201
  0
LINE
  5
6B1
100
AcDbEntity
  8
ASSI
100
AcDbLine
 62
7
  6
CONTINUOUS
 10
9.964352694
 20
20.4536045086
 11
10.5862566826
 21
19.8317005201
  0
LINE
  5
6B2
100
AcDbEntity
  8
RACCORDO
100
AcDbLine
 62
7
  6
CONTINUOUS
 10
10.3081657732
 20
20.1684826204
 11
8.4932521203
 21
21.9833962733
  0
LINE
  5
6B3
100
AcDbEntity
  8
0
100
AcDbLine
 62
7
  6
CONTINUOUS
 10
8.0985933823
 20
22.5385096834
 11
7.932617949
 21
22.7044851167
  0
LINE
  5
6B4
100
AcDbEntity
  8
RACCORDO
100
AcDbLine
 62
7
  6
CONTINUOUS
 10
10.4303512277
 20
20.2190934928
 11
8.6660484472
 21
21.9833962733
  0
LINE
  5
6B5
100
AcDbEntity
  8
0
100
AcDbLine
 62
7
  6
CONTINUOUS
 10
11.0073215794
 20
19.6421231411
 11
7.121866277
 21
23.5275784435
  0
LINE
  5
6B6
100
AcDbEntity
  8
0
100
AcDbLine
 62
7
  6
CONTINUOUS
 10
7.932617949
 20
-19.8583119909
 11
8.0985933823
 21
-19.7753305945
  0
LINE
  5
6B7
100
AcDbEntity
  8
RACCORDO
100
AcDbLine
 62
7
  6
CONTINUOUS
 10
2.0124950566
 20
19.3659362899
 11
2.3666101928
 21
19.3690266059
  0
LWPOLYLINE
  5
6B8
100
AcDbEntity
  8
0
100
AcDbPolyline
 62
7
  6
CONTINUOUS
 90
13
 70
0
 10
1.3675726821
 20
21.0178829529
 10
1.4904449086
 20
21.0180250898
 10
1.6083167368
 20
21.0184055638
 10
1.7211881665
 20
21.0190243751
 10
1.830543949
 20
21.0198963397
 10
1.9348993331
 20
21.0210066416
 10
2.0298000655
 20
21.0223108324
 10
2.1148681498
 20
21.0238208544
 10
2.1904815823
 20
21.0255247654
 10
2.2533200983
 20
21.0273422903
 10
2.302276943
 20
21.0292466707
 10
2.3384588711
 20
21.0312646651
 10
2.3618658827
 20
21.0333962733
  0
LINE
  5
6B9
100
AcDbEntity
  8
ASSI
100
AcDbLine
 62
7
  6
CONTINUOUS
 10
2.3660484472
 20
19.3333962733
 11
-2.6339515528
 21
19.3333962733
  0
LINE
  5
6BA
100
AcDbEntity
  8
RACCORDO
100
AcDbLine
 62
7
  6
CONTINUOUS
 10
-9.5251759429
 20
19.346486575
 11
-4.4470304314
 21
19.346486575
  0
LINE
  5
6BB
100
AcDbEntity
  8
ASSI
100
AcDbLine
 62
7
  6
CONTINUOUS
 10
-9.5251759429
 20
19.346486575
 11
-4.4470304314
 21
19.346486575
  0
LINE
  5
6BC
100
AcDbEntity
  8
DRAFT
100
AcDbLine
 62
7
  6
CONTINUOUS
 10
-8.7339515528
 20
19.3908388731
 11
-7.5880622541
 21
19.3908388731
  0
LINE
  5
6BD
100
AcDbEntity
  8
DRAFT
100
AcDbLine
 62
7
  6
CONTINUOUS
 10
-4.2772339076
 20
19.3995657409
 11
-7.5706071891
 21
19.3995657409
  0
LINE
  5
6BE
100
AcDbEntity
  8
RACCORDO
100
AcDbLine
 62
7
  6
CONTINUOUS
 10
-8.7339515528
 20
19.3995657409
 11
-9.4001400589
 21
19.3995657409
  0
LINE
  5
6BF
100
AcDbEntity
  8
0
100
AcDbLine
 62
7
  6
CONTINUOUS
 10
-2.6339515528
 20
19.4333962733
 11
2.3660484472
 21
19.4333962733
  0
LINE
  5
6C0
100
AcDbEntity
  8
ASSI
100
AcDbLine
 62
7
  6
CONTINUOUS
 10
-2.6339515528
 20
19.4333962733
 11
2.3660484472
 21
19.4333962733
  0
LINE
  5
6C1
100
AcDbEntity
  8
RACCORDO
100
AcDbLine
 62
7
  6
CONTINUOUS
 10
9.2572728373
 20
20.746486575
 11
-3.8470532776
 21
20.746486575
  0
LINE
  5
6C2
100
AcDbEntity
  8
ASSI
100
AcDbLine
 62
7
  6
CONTINUOUS
 10
9.2572728373
 20
20.746486575
 11
-3.8470532776
 21
20.746486575
  0
LINE
  5
6C3
100
AcDbEntity
  8
DRAFT
100
AcDbLine
 62
7
  6
CONTINUOUS
 10
7.3027040836
 20
20.7967406369
 11
3.3293928109
 21
20.7967406369
  0
LINE
  5
6C4
100
AcDbEntity
  8
DRAFT
100
AcDbLine
 62
7
  6
CONTINUOUS
 10
-3.5972959164
 20
20.7967406369
 11
-7.5706071891
 21
20.7967406369
  0
LINE
  5
6C5
100
AcDbEntity
  8
DRAFT
100
AcDbLine
 62
7
  6
CONTINUOUS
 10
7.2660484472
 20
20.8333962733
 11
3.3660484472
 21
20.8333962733
  0
LINE
  5
6C6
100
AcDbEntity
  8
DRAFT
100
AcDbLine
 62
7
  6
CONTINUOUS
 10
-3.6339515528
 20
20.8333962733
 11
-7.5339515528
 21
20.8333962733
  0
LINE
  5
6C7
100
AcDbEntity
  8
DRAFT
100
AcDbLine
 62
7
  6
CONTINUOUS
 10
7.1616850133
 20
20.8377597072
 11
6.3704118811
 21
20.8377597072
  0
LINE
  5
6C8
100
AcDbEntity
  8
DRAFT
100
AcDbLine
 62
7
  6
CONTINUOUS
 10
-6.6383149867
 20
20.8377597072
 11
-7.4295881189
 21
20.8377597072
  0
LINE
  5
6C9
100
AcDbEntity
  8
DRAFT
100
AcDbLine
 62
7
  6
CONTINUOUS
 10
7.0613260337
 20
20.9381186868
 11
6.4707708607
 21
20.9381186868
  0
LINE
  5
6CA
100
AcDbEntity
  8
DRAFT
100
AcDbLine
 62
7
  6
CONTINUOUS
 10
-6.7386739663
 20
20.9381186868
 11
-7.3292291393
 21
20.9381186868
  0
LINE
  5
6CB
100
AcDbEntity
  8
DRAFT
100
AcDbLine
 62
7
  6
CONTINUOUS
 10
3.3293928109
 20
20.9967406369
 11
-3.5972959164
 21
20.9967406369
  0
LINE
  5
6CC
100
AcDbEntity
  8
0
100
AcDbLine
 62
7
  6
CONTINUOUS
 10
1.3675726821
 20
21.0178829529
 11
-1.6354757877
 21
21.0178829529
  0
LINE
  5
6CD
100
AcDbEntity
  8
0
100
AcDbLine
 62
7
  6
CONTINUOUS
 10
3.3660484472
 20
21.0333962733
 11
2.3605267274
 21
21.0333962733
  0
LINE
  5
6CE
100
AcDbEntity
  8
0
100
AcDbLine
 62
7
  6
CONTINUOUS
 10
-2.628429833
 20
21.0333962733
 11
-3.6339515528
 21
21.0333962733
  0
LINE
  5
6CF
100
AcDbEntity
  8
DRAFT
100
AcDbLine
 62
7
  6
CONTINUOUS
 10
-7.5339515528
 20
21.1333962733
 11
-7.4295881189
 21
21.1333962733
  0
LINE
  5
6D0
100
AcDbEntity
  8
DRAFT
100
AcDbLine
 62
7
  6
CONTINUOUS
 10
7.1616850133
 20
21.1333962733
 11
7.2660484472
 21
21.1333962733
  0
LINE
  5
6D1
100
AcDbEntity
  8
DRAFT
100
AcDbLine
 62
7
  6
CONTINUOUS
 10
6.3704118811
 20
21.1377597072
 11
2.3654085169
 21
21.1377597072
  0
LINE
  5
6D2
100
AcDbEntity
  8
DRAFT
100
AcDbLine
 62
7
  6
CONTINUOUS
 10
-2.6333116225
 20
21.1377597072
 11
-6.6383149867
 21
21.1377597072
  0
LINE
  5
6D3
100
AcDbEntity
  8
DRAFT
100
AcDbLine
 62
7
  6
CONTINUOUS
 10
-3.6341049874
 20
21.1509781388
 11
-2.6333355198
 21
21.1509781388
  0
LINE
  5
6D4
100
AcDbEntity
  8
DRAFT
100
AcDbLine
 62
7
  6
CONTINUOUS
 10
2.3654324142
 20
21.1509781388
 11
3.3662018818
 21
21.1509781388
  0
LINE
  5
6D5
100
AcDbEntity
  8
DRAFT
100
AcDbLine
 62
7
  6
CONTINUOUS
 10
2.3660484472
 20
21.2040892863
 11
2.3073090291
 21
21.2040892863
  0
LINE
  5
6D6
100
AcDbEntity
  8
DRAFT
100
AcDbLine
 62
7
  6
CONTINUOUS
 10
-2.5752121347
 20
21.2040892863
 11
-2.6339515528
 21
21.2040892863
  0
LWPOLYLINE
  5
6D7
100
AcDbEntity
  8
0
100
AcDbPolyline
 62
7
  6
CONTINUOUS
 90
13
 70
0
 10
-1.6354757877
 20
21.0178829529
 10
-1.7583480142
 20
21.0180250898
 10
-1.8762198423
 20
21.0184055638
 10
-1.9890912721
 20
21.0190243751
 10
-2.0984470546
 20
21.0198963397
 10
-2.2028024387
 20
21.0210066416
 10
-2.2977031711
 20
21.0223108324
 10
-2.3827712554
 20
21.0238208544
 10
-2.4583846879
 20
21.0255247654
 10
-2.5212232039
 20
21.0273422903
 10
-2.5701800486
 20
21.0292466707
 10
-2.6063619767
 20
21.0312646651
 10
-2.6297689883
 20
21.0333962733
  0
LINE
  5
6D8
100
AcDbEntity
  8
RACCORDO
100
AcDbLine
 62
7
  6
CONTINUOUS
 10
-2.2803981622
 20
19.3659362899
 11
-2.6345132984
 21
19.3690266059
  0
LWPOLYLINE
  5
6D9
100
AcDbEntity
  8
0
100
AcDbPolyline
 62
7
  6
CONTINUOUS
 90
9
 70
0
 10
-7.5410331035
 20
25.6154888991
 10
-7.552181579
 20
25.6196469946
 10
-7.5635152738
 20
25.623269915
 10
-7.575008514
 20
25.626349455
 10
-7.5866352653
 20
25.628878641
 10
-7.5983691867
 20
25.6308517474
 10
-7.6101836972
 20
25.6322643075
 10
-7.6220520368
 20
25.633113123
 10
-7.633947322
 20
25.6333962733
  0
LINE
  5
6DA
100
AcDbEntity
  8
0
100
AcDbLine
 62
7
  6
CONTINUOUS
 10
7.932617949
 20
22.1251045375
 11
8.0985933823
 21
22.0421231411
  0
LINE
  5
6DB
100
AcDbEntity
  8
0
100
AcDbLine
 62
7
  6
CONTINUOUS
 10
7.932617949
 20
-20.3203391538
 11
8.0985933823
 21
-20.2717171368
  0
LINE
  5
6DC
100
AcDbEntity
  8
DRAFT
100
AcDbLine
 62
7
  6
CONTINUOUS
 10
6.4707708607
 20
21.2381186868
 11
-6.7386739663
 21
21.2381186868
  0
LINE
  5
6DD
100
AcDbEntity
  8
0
100
AcDbLine
 62
7
  6
CONTINUOUS
 10
-3.1260973718
 20
21.9333962733
 11
2.8581942662
 21
21.9333962733
  0
LINE
  5
6DE
100
AcDbEntity
  8
DRAFT
100
AcDbLine
 62
7
  6
CONTINUOUS
 10
7.2660484472
 20
21.9833962733
 11
8.6660484472
 21
21.9833962733
  0
LINE
  5
6DF
100
AcDbEntity
  8
DRAFT
100
AcDbLine
 62
7
  6
CONTINUOUS
 10
-7.5339515528
 20
21.9833962733
 11
-8.9339515528
 21
21.9833962733
  0
LINE
  5
6E0
100
AcDbEntity
  8
DRAFT
100
AcDbLine
 62
7
  6
CONTINUOUS
 10
-8.2005210546
 20
22.0333962733
 11
-7.7649223577
 21
22.0333962733
  0
LINE
  5
6E1
100
AcDbEntity
  8
DRAFT
100
AcDbLine
 62
7
  6
CONTINUOUS
 10
7.1573215794
 20
22.0333962733
 11
7.4846775973
 21
22.0333962733
  0
LINE
  5
6E2
100
AcDbEntity
  8
DRAFT
100
AcDbLine
 62
7
  6
CONTINUOUS
 10
7.4970192521
 20
22.0333962733
 11
7.932617949
 21
22.0333962733
  0
LINE
  5
6E3
100
AcDbEntity
  8
DRAFT
100
AcDbLine
 62
7
  6
CONTINUOUS
 10
-7.4339515528
 20
22.0333962733
 11
-7.7525807029
 21
22.0333962733
  0
LINE
  5
6E4
100
AcDbEntity
  8
0
100
AcDbLine
 62
7
  6
CONTINUOUS
 10
8.0985933823
 20
22.0421231411
 11
7.932617949
 21
22.0421231411
  0
LINE
  5
6E5
100
AcDbEntity
  8
0
100
AcDbLine
 62
7
  6
CONTINUOUS
 10
-8.2005210546
 20
22.0421231411
 11
-8.3664964879
 21
22.0421231411
  0
LINE
  5
6E6
100
AcDbEntity
  8
DRAFT
100
AcDbLine
 62
7
  6
CONTINUOUS
 10
-7.700597207
 20
22.129391819
 11
-7.3292291393
 21
22.129391819
  0
LINE
  5
6E7
100
AcDbEntity
  8
DRAFT
100
AcDbLine
 62
7
  6
CONTINUOUS
 10
7.4326941014
 20
22.129391819
 11
7.0613260337
 21
22.129391819
  0
LINE
  5
6E8
100
AcDbEntity
  8
0
100
AcDbLine
 62
253
  6
CONTINUOUS
 10
7.4326941014
 20
22.4693832219
 11
2.8628717534
 21
22.4693832219
  0
LINE
  5
6E9
100
AcDbEntity
  8
0
100
AcDbLine
 62
253
  6
CONTINUOUS
 10
-3.130774859
 20
22.4693832219
 11
-7.700597207
 21
22.4693832219
  0
LINE
  5
6EA
100
AcDbEntity
  8
0
100
AcDbLine
 62
7
  6
CONTINUOUS
 10
2.8660484472
 20
22.8333962733
 11
-3.1339515528
 21
22.8333962733
  0
LINE
  5
6EB
100
AcDbEntity
  8
0
100
AcDbLine
 62
7
  6
CONTINUOUS
 10
7.932617949
 20
22.5871317004
 11
8.0985933823
 21
22.5385096834
  0
LWPOLYLINE
  5
6EC
100
AcDbEntity
  8
0
100
AcDbPolyline
 62
7
  6
CONTINUOUS
 90
6
 70
0
 10
7.3304660811
 20
25.6308517474
 10
7.3187321597
 20
25.628878641
 10
7.3071054084
 20
25.626349455
 10
7.2956121682
 20
25.623269915
 10
7.2842784734
 20
25.6196469946
 10
7.2731299979
 20
25.6154888991
  0
LWPOLYLINE
  5
6ED
100
AcDbEntity
  8
0
100
AcDbPolyline
 62
7
  6
CONTINUOUS
 90
40
 70
0
 10
-10.7843321525
 20
23.5333962733
 10
-10.804327452
 20
23.5329828994
 10
-10.8243172964
 20
23.5317679805
 10
-10.84426942
 20
23.5297502412
 10
-10.8641587295
 20
23.5269285703
 10
-10.8839452638
 20
23.5233048586
 10
-10.903574782
 20
23.5188869352
 10
-10.9230041969
 20
23.5136846084
 10
-10.9422133124
 20
23.5077034319
 10
-10.9611826537
 20
23.5009479493
 10
-10.9798941854
 20
23.4934213985
 10
-10.998302822
 20
23.4851386983
 10
-11.016350067
 20
23.4761258263
 10
-11.0339907327
 20
23.466408473
 10
-11.0512142611
 20
23.4559956527
 10
-11.0680151082
 20
23.4448907201
 10
-11.0843796228
 20
23.4330995713
 10
-11.1002650374
 20
23.4206498056
 10
-11.1156235631
 20
23.4075790231
 10
-11.1304171325
 20
23.3939236364
 10
-11.1446383925
 20
23.3796945774
 10
-11.1582865059
 20
23.3648925308
 10
-11.1713508973
 20
23.3495242838
 10
-11.1837946394
 20
23.3336283338
 10
-11.1955788617
 20
23.3172539631
 10
-11.2066757642
 20
23.300444634
 10
-11.2170799989
 20
23.2832134853
 10
-11.2267882669
 20
23.2655658675
 10
-11.2357912938
 20
23.2475133645
 10
-11.2440640685
 20
23.2291002294
 10
-11.2515817372
 20
23.2103816416
 10
-11.2583302822
 20
23.1913996311
 10
-11.2643049757
 20
23.1721749294
 10
-11.269499199
 20
23.1527324134
 10
-11.2739054955
 20
23.1331054145
 10
-11.2775181422
 20
23.1133241802
 10
-11.2803331197
 20
23.0934088462
 10
-11.2823458791
 20
23.0733874679
 10
-11.283552707
 20
23.0532962166
 10
-11.2839515528
 20
23.0331674212
  0
LINE
  5
6EE
100
AcDbEntity
  8
0
100
AcDbLine
 62
253
  6
CONTINUOUS
 10
7.0565900734
 20
23.4693662988
 11
2.8715984735
 21
23.4693662988
  0
LINE
  5
6EF
100
AcDbEntity
  8
0
100
AcDbLine
 62
253
  6
CONTINUOUS
 10
-3.1395015791
 20
23.4693662988
 11
-7.324493179
 21
23.4693662988
  0
LINE
  5
6F0
100
AcDbEntity
  8
0
100
AcDbLine
 62
7
  6
CONTINUOUS
 10
-10.7752310311
 20
23.5275784435
 11
-7.3897693826
 21
23.5275784435
  0
LINE
  5
6F1
100
AcDbEntity
  8
0
100
AcDbLine
 62
7
  6
CONTINUOUS
 10
7.121866277
 20
23.5275784435
 11
10.5073279255
 21
23.5275784435
  0
LINE
  5
6F2
100
AcDbEntity
  8
0
100
AcDbLine
 62
7
  6
CONTINUOUS
 10
-1.1426255062
 20
23.5281919858
 11
0.8747224006
 21
23.5281919858
  0
LINE
  5
6F3
100
AcDbEntity
  8
0
100
AcDbLine
 62
7
  6
CONTINUOUS
 10
0.8660484472
 20
23.5333962733
 11
-1.1339515528
 21
23.5333962733
  0
LINE
  5
6F4
100
AcDbEntity
  8
0
100
AcDbLine
 62
7
  6
CONTINUOUS
 10
4.3160484472
 20
23.5333962733
 11
10.5160547933
 21
23.5333962733
  0
LINE
  5
6F5
100
AcDbEntity
  8
0
100
AcDbLine
 62
7
  6
CONTINUOUS
 10
-4.5839515528
 20
23.5333962733
 11
-10.7839578989
 21
23.5333962733
  0
LINE
  5
6F6
100
AcDbEntity
  8
0
100
AcDbLine
 62
7
  6
CONTINUOUS
 10
-10.0346745507
 20
24.2560460041
 11
-7.6332285549
 21
24.2560460041
  0
LINE
  5
6F7
100
AcDbEntity
  8
0
100
AcDbLine
 62
7
  6
CONTINUOUS
 10
9.7667714451
 20
24.2560460041
 11
7.3653254493
 21
24.2560460041
  0
LINE
  5
6F8
100
AcDbEntity
  8
0
100
AcDbLine
 62
253
  6
CONTINUOUS
 10
-10.0295839496
 20
24.7612274896
 11
-7.638319156
 21
24.7612274896
  0
LINE
  5
6F9
100
AcDbEntity
  8
0
100
AcDbLine
 62
253
  6
CONTINUOUS
 10
7.3704160504
 20
24.7612274896
 11
9.761680844
 21
24.7612274896
  0
LINE
  5
6FA
100
AcDbEntity
  8
0
100
AcDbLine
 62
253
  6
CONTINUOUS
 10
7.1204202812
 20
24.9777338406
 11
10.0116766132
 21
24.9777338406
  0
LINE
  5
6FB
100
AcDbEntity
  8
0
100
AcDbLine
 62
253
  6
CONTINUOUS
 10
-7.3883233868
 20
24.9777338406
 11
-10.2795797188
 21
24.9777338406
  0
LINE
  5
6FC
100
AcDbEntity
  8
0
100
AcDbLine
 62
7
  6
CONTINUOUS
 10
-4.5403009059
 20
25.0897456264
 11
-3.6684780905
 21
25.0897456264
  0
LINE
  5
6FD
100
AcDbEntity
  8
0
100
AcDbLine
 62
7
  6
CONTINUOUS
 10
3.4005749849
 20
25.0897456264
 11
4.2723978003
 21
25.0897456264
  0
LINE
  5
6FE
100
AcDbEntity
  8
0
100
AcDbLine
 62
7
  6
CONTINUOUS
 10
3.4009061635
 20
25.1276949283
 11
1.0745980469
 21
25.1276949283
  0
LINE
  5
6FF
100
AcDbEntity
  8
0
100
AcDbLine
 62
7
  6
CONTINUOUS
 10
-1.3425011524
 20
25.1276949283
 11
-3.6688092691
 21
25.1276949283
  0
LINE
  5
700
100
AcDbEntity
  8
0
100
AcDbLine
 62
7
  6
CONTINUOUS
 10
4.3160484472
 20
25.1333962733
 11
1.0660459088
 21
25.1333962733
  0
LINE
  5
701
100
AcDbEntity
  8
0
100
AcDbLine
 62
7
  6
CONTINUOUS
 10
-1.3339490144
 20
25.1333962733
 11
-4.5839515528
 21
25.1333962733
  0
LWPOLYLINE
  5
702
100
AcDbEntity
  8
0
100
AcDbPolyline
 62
7
  6
CONTINUOUS
 90
37
 70
0
 10
-1.3339490144
 20
25.1333962733
 10
-1.3252253607
 20
25.1332059396
 10
-1.316518306
 20
25.1326352944
 10
-1.3078444217
 20
25.131685421
 10
-1.2992202149
 20
25.1303581255
 10
-1.2906621014
 20
25.1286559306
 10
-1.2821863747
 20
25.1265820719
 10
-1.2738091666
 20
25.1241404939
 10
-1.2655464226
 20
25.1213358416
 10
-1.2574138755
 20
25.1181734501
 10
-1.2494270048
 20
25.1146593363
 10
-1.2416010135
 20
25.1108001872
 10
-1.233950804
 20
25.1066033467
 10
-1.2264909383
 20
25.1020768014
 10
-1.2192356167
 20
25.097229166
 10
-1.2121986558
 20
25.0920696679
 10
-1.2053934506
 20
25.0866081268
 10
-1.1988329551
 20
25.0808549378
 10
-1.192529663
 20
25.0748210539
 10
-1.1864955729
 20
25.0685179599
 10
-1.1807421709
 20
25.0619576531
 10
-1.175280413
 20
25.0551526247
 10
-1.1701206959
 20
25.0481158278
 10
-1.1652728409
 20
25.0408606567
 10
-1.1607460787
 20
25.033400926
 10
-1.1565490259
 20
25.0257508355
 10
-1.1526896708
 20
25.0179249471
 10
-1.1491753606
 20
25.0099381619
 10
-1.1460127842
 20
25.0018056831
 10
-1.1432079606
 20
24.9935429905
 10
-1.1407662276
 20
24.9851658161
 10
-1.1386922323
 20
24.9766901061
 10
-1.136989921
 20
24.9681319931
 10
-1.1356625317
 20
24.9595077704
 10
-1.1347125893
 20
24.9508338544
 10
-1.1341419013
 20
24.9421267541
 10
-1.1339515528
 20
24.9334030425
  0
LWPOLYLINE
  5
703
100
AcDbEntity
  8
0
100
AcDbPolyline
 62
7
  6
CONTINUOUS
 90
18
 70
0
 10
9.8589668965
 20
-23.3486963525
 10
9.8699048935
 20
-23.3440124989
 10
9.8806076348
 20
-23.3388134955
 10
9.8910508755
 20
-23.3331111183
 10
9.9012109531
 20
-23.3269182848
 10
9.9110648523
 20
-23.3202490222
 10
9.920590251
 20
-23.3131184374
 10
9.9297655663
 20
-23.3055426856
 10
9.9385700133
 20
-23.2975389272
 10
9.9469836477
 20
-23.2891252928
 10
9.9549874061
 20
-23.2803208458
 10
9.9625631579
 20
-23.2711455305
 10
9.9696937427
 20
-23.2616201318
 10
9.9763630053
 20
-23.2517662326
 10
9.9825558388
 20
-23.241606155
 10
9.988258216
 20
-23.2311629143
 10
9.9934572194
 20
-23.220460173
 10
9.998141073
 20
-23.209522176
  0
LWPOLYLINE
  5
704
100
AcDbEntity
  8
0
100
AcDbPolyline
 62
7
  6
CONTINUOUS
 90
34
 70
0
 10
7.3704160504
 20
25.6290244393
 10
7.3585405789
 20
25.6287418196
 10
7.3466868363
 20
25.6278949178
 10
7.3348816608
 20
25.6264849219
 10
7.3231501662
 20
25.6245139759
 10
7.3115207309
 20
25.621985986
 10
7.3000247653
 20
25.6189074074
 10
7.2886900002
 20
25.6152857976
 10
7.2775403882
 20
25.6111289432
 10
7.2666009871
 20
25.6064461696
 10
7.2558964523
 20
25.6012479843
 10
7.2454511988
 20
25.5955461958
 10
7.2352891232
 20
25.5893538334
 10
7.2254333385
 20
25.5826849962
 10
7.215906077
 20
25.5755547428
 10
7.2067288638
 20
25.5679791819
 10
7.1979224722
 20
25.5599754503
 10
7.189506886
 20
25.5515616988
 10
7.1815011918
 20
25.5427570032
 10
7.1739235353
 20
25.5335813162
 10
7.1667910843
 20
25.524055422
 10
7.1601200042
 20
25.5142009059
 10
7.1539254119
 20
25.5040400937
 10
7.1482213466
 20
25.4935960085
 10
7.143020739
 20
25.4828923221
 10
7.1383353747
 20
25.4719532885
 10
7.1341758704
 20
25.4608036922
 10
7.1305516532
 20
25.4494687997
 10
7.1274709346
 20
25.4379742886
 10
7.1249406976
 20
25.4263462093
 10
7.122966679
 20
25.4146109296
 10
7.1215533502
 20
25.4027950473
 10
7.1207039101
 20
25.390925329
 10
7.1204202812
 20
25.3790286701
  0
LWPOLYLINE
  5
705
100
AcDbEntity
  8
0
100
AcDbPolyline
 62
7
  6
CONTINUOUS
 90
4
 70
0
 10
7.3660442164
 20
25.6333962733
 10
7.3541489312
 20
25.633113123
 10
7.3422805916
 20
25.6322643075
 10
7.3304660811
 20
25.6308517474
  0
LWPOLYLINE
  5
706
100
AcDbEntity
  8
0
100
AcDbPolyline
 62
7
  6
CONTINUOUS
 90
34
 70
0
 10
-10.0295839496
 20
25.6290244393
 10
-10.0414594211
 20
25.6287418196
 10
-10.0533131637
 20
25.6278949178
 10
-10.0651183392
 20
25.6264849219
 10
-10.0768498338
 20
25.6245139759
 10
-10.0884792691
 20
25.621985986
 10
-10.0999752347
 20
25.6189074074
 10
-10.1113099998
 20
25.6152857976
 10
-10.1224596118
 20
25.6111289432
 10
-10.1333990129
 20
25.6064461696
 10
-10.1441035477
 20
25.6012479843
 10
-10.1545488012
 20
25.5955461958
 10
-10.1647108768
 20
25.5893538334
 10
-10.1745666615
 20
25.5826849962
 10
-10.184093923
 20
25.5755547428
 10
-10.1932711362
 20
25.5679791819
 10
-10.2020775278
 20
25.5599754503
 10
-10.210493114
 20
25.5515616988
 10
-10.2184988082
 20
25.5427570032
 10
-10.2260764647
 20
25.5335813162
 10
-10.2332089157
 20
25.524055422
 10
-10.2398799958
 20
25.5142009059
 10
-10.2460745881
 20
25.5040400937
 10
-10.2517786534
 20
25.4935960085
 10
-10.256979261
 20
25.4828923221
 10
-10.2616646253
 20
25.4719532885
 10
-10.2658241296
 20
25.4608036922
 10
-10.2694483468
 20
25.4494687997
 10
-10.2725290654
 20
25.4379742886
 10
-10.2750593024
 20
25.4263462093
 10
-10.277033321
 20
25.4146109296
 10
-10.2784466498
 20
25.4027950473
 10
-10.2792960899
 20
25.390925329
 10
-10.2795797188
 20
25.3790286701
  0
LWPOLYLINE
  5
707
100
AcDbEntity
  8
0
100
AcDbPolyline
 62
7
  6
CONTINUOUS
 90
4
 70
0
 10
-10.0339557836
 20
25.6333962733
 10
-10.0458510688
 20
25.633113123
 10
-10.0577194084
 20
25.6322643075
 10
-10.0695339189
 20
25.6308517474
  0
LWPOLYLINE
  5
708
100
AcDbEntity
  8
0
100
AcDbPolyline
 62
7
  6
CONTINUOUS
 90
37
 70
0
 10
1.0660459088
 20
25.1333962733
 10
1.0573222551
 20
25.1332059396
 10
1.0486152004
 20
25.1326352944
 10
1.0399413161
 20
25.131685421
 10
1.0313171093
 20
25.1303581255
 10
1.0227589958
 20
25.1286559306
 10
1.0142832691
 20
25.1265820719
 10
1.005906061
 20
25.1241404939
 10
0.997643317
 20
25.1213358416
 10
0.9895107699
 20
25.1181734501
 10
0.9815238992
 20
25.1146593363
 10
0.9736979079
 20
25.1108001872
 10
0.9660476984
 20
25.1066033467
 10
0.9585878328
 20
25.1020768014
 10
0.9513325112
 20
25.097229166
 10
0.9442955502
 20
25.0920696679
 10
0.937490345
 20
25.0866081268
 10
0.9309298495
 20
25.0808549378
 10
0.9246265574
 20
25.0748210539
 10
0.9185924673
 20
25.0685179599
 10
0.9128390653
 20
25.0619576531
 10
0.9073773074
 20
25.0551526247
 10
0.9022175903
 20
25.0481158278
 10
0.8973697353
 20
25.0408606567
 10
0.8928429731
 20
25.033400926
 10
0.8886459203
 20
25.0257508355
 10
0.8847865652
 20
25.0179249471
 10
0.881272255
 20
25.0099381619
 10
0.8781096786
 20
25.0018056831
 10
0.875304855
 20
24.9935429905
 10
0.872863122
 20
24.9851658161
 10
0.8707891267
 20
24.9766901061
 10
0.8690868154
 20
24.9681319931
 10
0.8677594261
 20
24.9595077704
 10
0.8668094837
 20
24.9508338544
 10
0.8662387957
 20
24.9421267541
 10
0.8660484472
 20
24.9334030425
  0
LINE
  5
709
100
AcDbEntity
  8
0
100
AcDbLine
 62
253
  6
CONTINUOUS
 10
7.1204202812
 20
25.3790286701
 11
10.0116766132
 21
25.3790286701
  0
LINE
  5
70A
100
AcDbEntity
  8
0
100
AcDbLine
 62
253
  6
CONTINUOUS
 10
-7.3883233868
 20
25.3790286701
 11
-10.2795797188
 21
25.3790286701
  0
LINE
  5
70B
100
AcDbEntity
  8
0
100
AcDbLine
 62
7
  6
CONTINUOUS
 10
9.761680844
 20
25.6290244393
 11
7.3704160504
 21
25.6290244393
  0
LINE
  5
70C
100
AcDbEntity
  8
0
100
AcDbLine
 62
7
  6
CONTINUOUS
 10
-7.638319156
 20
25.6290244393
 11
-10.0295839496
 21
25.6290244393
  0
LWPOLYLINE
  5
70D
100
AcDbEntity
  8
0
100
AcDbPolyline
 62
7
  6
CONTINUOUS
 90
9
 70
0
 10
9.8589668965
 20
25.6154888991
 10
9.847818421
 20
25.6196469946
 10
9.8364847262
 20
25.623269915
 10
9.824991486
 20
25.626349455
 10
9.8133647347
 20
25.628878641
 10
9.8016308133
 20
25.6308517474
 10
9.7898163028
 20
25.6322643075
 10
9.7779479632
 20
25.633113123
 10
9.766052678
 20
25.6333962733
  0
LWPOLYLINE
  5
70E
100
AcDbEntity
  8
0
100
AcDbPolyline
 62
7
  6
CONTINUOUS
 90
6
 70
0
 10
-10.0695339189
 20
25.6308517474
 10
-10.0812678403
 20
25.628878641
 10
-10.0928945916
 20
25.626349455
 10
-10.1043878318
 20
25.623269915
 10
-10.1157215266
 20
25.6196469946
 10
-10.1268700021
 20
25.6154888991
  0
ARC
  5
70F
100
AcDbEntity
  8
0
100
AcDbCircle
 62
7
  6
CONTINUOUS
 10
-9.3339515528
 20
-16.0666037267
 40
1.4
100
AcDbArc
 50
189.8532892494
 51
270.0
  0
ARC
  5
710
100
AcDbEntity
  8
CURVE
100
AcDbCircle
 62
253
  6
CONTINUOUS
 10
-5.6339515528
 20
-1.8666037267
 40
1.0
100
AcDbArc
 50
23.5781784782
 51
336.4218215218
  0
ARC
  5
711
100
AcDbEntity
  8
ASSI
100
AcDbCircle
 62
7
  6
CONTINUOUS
 10
-9.6398599235
 20
-16.3566037267
 40
0.71
100
AcDbArc
 50
229.7010712477
 51
265.2998279782
  0
ARC
  5
712
100
AcDbEntity
  8
ASSI
100
AcDbCircle
 62
7
  6
CONTINUOUS
 10
-10.4239515528
 20
-15.5725120974
 40
0.71
100
AcDbArc
 50
184.7001961556
 51
220.2989529286
  0
ARC
  5
713
100
AcDbEntity
  8
0
100
AcDbCircle
 62
7
  6
CONTINUOUS
 10
-4.1339515528
 20
-22.0166037267
 40
0.5
100
AcDbArc
 50
144.3637748935
 51
215.6362251065
  0
ARC
  5
714
100
AcDbEntity
  8
RACCORDO
100
AcDbCircle
 62
7
  6
CONTINUOUS
 10
-1.8339515528
 20
-16.4166037267
 40
0.3
100
AcDbArc
 50
90.0
 51
170.0
  0
ARC
  5
715
100
AcDbEntity
  8
CURVE
100
AcDbCircle
 62
253
  6
CONTINUOUS
 10
-5.6339515528
 20
10.2158402733
 40
2.5499986575
100
AcDbArc
 50
357.7524617393
 51
182.2474682623
  0
ARC
  5
716
100
AcDbEntity
  8
CURVE
100
AcDbCircle
 62
253
  6
CONTINUOUS
 10
-5.6339515528
 20
14.6009502733
 40
2.5499985399
100
AcDbArc
 50
357.7525290943
 51
182.2474682623
  0
ARC
  5
717
100
AcDbEntity
  8
CURVE
100
AcDbCircle
 62
253
  6
CONTINUOUS
 10
-5.6339515528
 20
10.2158402733
 40
1.7999999246
100
AcDbArc
 50
356.8152613297
 51
77.9753174348
  0
ARC
  5
718
100
AcDbEntity
  8
CURVE
100
AcDbCircle
 62
253
  6
CONTINUOUS
 10
-5.6339515528
 20
14.6009502733
 40
1.7999999246
100
AcDbArc
 50
356.8152613297
 51
183.1847351336
  0
ARC
  5
719
100
AcDbEntity
  8
CURVE
100
AcDbCircle
 62
253
  6
CONTINUOUS
 10
-5.6339515528
 20
10.2158402733
 40
1.7999968808
100
AcDbArc
 50
102.0247203293
 51
183.1848322474
  0
ARC
  5
71A
100
AcDbEntity
  8
ASSI
100
AcDbCircle
 62
7
  6
CONTINUOUS
 10
-10.4239515528
 20
17.839304644
 40
0.71
100
AcDbArc
 50
139.7020215745
 51
175.2988538673
  0
ARC
  5
71B
100
AcDbEntity
  8
ASSI
100
AcDbCircle
 62
7
  6
CONTINUOUS
 10
-9.6398599235
 20
18.6233962733
 40
0.71
100
AcDbArc
 50
94.7020215745
 51
130.2988538673
  0
ARC
  5
71C
100
AcDbEntity
  8
0
100
AcDbCircle
 62
7
  6
CONTINUOUS
 10
-4.1339515528
 20
24.2833962733
 40
0.5
100
AcDbArc
 50
144.3637748935
 51
215.6362251065
  0
ARC
  5
71D
100
AcDbEntity
  8
RACCORDO
100
AcDbCircle
 62
7
  6
CONTINUOUS
 10
-1.8339515528
 20
18.6833962733
 40
0.3
100
AcDbArc
 50
189.5979508052
 51
270.0
  0
ARC
  5
71E
100
AcDbEntity
  8
CURVE
100
AcDbCircle
 62
253
  6
CONTINUOUS
 10
7.2918814721
 20
-0.3930138882
 40
0.8
100
AcDbArc
 50
150.0
 51
228.5903778907
  0
ARC
  5
71F
100
AcDbEntity
  8
CURVE
100
AcDbCircle
 62
253
  6
CONTINUOUS
 10
6.0562408261
 20
0.6667937329
 40
0.8
100
AcDbArc
 50
330.0
 51
48.5903778907
  0
ARC
  5
720
100
AcDbEntity
  8
ASSI
100
AcDbCircle
 62
7
  6
CONTINUOUS
 10
9.3719568179
 20
-17.7566037267
 40
0.71
100
AcDbArc
 50
289.9961491498
 51
294.2412807351
  0
ARC
  5
721
100
AcDbEntity
  8
ASSI
100
AcDbCircle
 62
7
  6
CONTINUOUS
 10
10.1560484472
 20
-16.9725120974
 40
0.71
100
AcDbArc
 50
319.7010712477
 51
355.2998279782
  0
ARC
  5
722
100
AcDbEntity
  8
0
100
AcDbCircle
 62
7
  6
CONTINUOUS
 10
3.8660484472
 20
-22.0166037267
 40
0.5
100
AcDbArc
 50
324.3637748935
 51
35.6362251065
  0
ARC
  5
723
100
AcDbEntity
  8
RACCORDO
100
AcDbCircle
 62
7
  6
CONTINUOUS
 10
1.5660484472
 20
-16.4166037267
 40
0.3
100
AcDbArc
 50
9.8838085533
 51
90.0
  0
ARC
  5
724
100
AcDbEntity
  8
ASSI
100
AcDbCircle
 62
7
  6
CONTINUOUS
 10
9.3719568179
 20
20.0233962733
 40
0.71
100
AcDbArc
 50
49.7020215745
 51
85.2988538673
  0
ARC
  5
725
100
AcDbEntity
  8
ASSI
100
AcDbCircle
 62
7
  6
CONTINUOUS
 10
10.1560484472
 20
19.239304644
 40
0.71
100
AcDbArc
 50
4.7020215745
 51
40.2988538673
  0
ARC
  5
726
100
AcDbEntity
  8
0
100
AcDbCircle
 62
7
  6
CONTINUOUS
 10
3.8660484472
 20
24.2833962733
 40
0.5
100
AcDbArc
 50
324.3637748935
 51
35.6362251065
  0
ARC
  5
727
100
AcDbEntity
  8
RACCORDO
100
AcDbCircle
 62
7
  6
CONTINUOUS
 10
1.5660484472
 20
18.6833962733
 40
0.3
100
AcDbArc
 50
270.0
 51
350.0
  0
ELLIPSE
  5
728
100
AcDbEntity
  8
RACCORDO
100
AcDbEllipse
 62
7
  6
CONTINUOUS
 10
-9.4001019812
 20
18.8995467017
 30
0.0
 11
0.3535803156
 21
-0.3535803156
 31
0.0
 40
0.9999238505
 41
2.4902938806
 42
2.8453801602
  0
ELLIPSE
  5
729
100
AcDbEntity
  8
RACCORDO
100
AcDbEllipse
 62
7
  6
CONTINUOUS
 10
-9.4001019812
 20
18.8995467017
 30
0.0
 11
-0.3535803156
 21
0.3535803156
 31
0.0
 40
0.9999238505
 41
-0.7853600872
 42
-0.651298773
  0
ELLIPSE
  5
72A
100
AcDbEntity
  8
RACCORDO
100
AcDbEllipse
 62
7
  6
CONTINUOUS
 10
-1.9268447716
 20
19.3690217036
 30
0.0
 11
0.5
 21
0.0
 31
0.0
 40
0.0087268678
 41
-2.3561944902
 42
-1.97725418
  0
ELLIPSE
  5
72B
100
AcDbEntity
  8
RACCORDO
100
AcDbEllipse
 62
7
  6
CONTINUOUS
 10
1.658941666
 20
19.3690217036
 30
0.0
 11
0.5
 21
0.0
 31
0.0
 40
0.0087268678
 41
-1.1643384736
 42
-0.7853981634
  0
ELLIPSE
  5
72C
100
AcDbEntity
  8
RACCORDO
100
AcDbEllipse
 62
7
  6
CONTINUOUS
 10
-9.2836468967
 20
-16.5380504093
 30
0.0
 11
1.8480888181
 21
0.7655034529
 31
0.0
 40
0.9998215708
 41
2.7489566578
 42
3.5342286494
  0
ELLIPSE
  5
72D
100
AcDbEntity
  8
RACCORDO
100
AcDbEllipse
 62
7
  6
CONTINUOUS
 10
-9.2836468967
 20
18.8048429559
 30
0.0
 11
1.8480888181
 21
-0.7655034529
 31
0.0
 40
0.9998215708
 41
2.7489566578
 42
3.5342286494
  0
ELLIPSE
  5
72E
100
AcDbEntity
  8
RACCORDO
100
AcDbEllipse
 62
7
  6
CONTINUOUS
 10
9.0157437911
 20
18.8048429559
 30
0.0
 11
1.8480888181
 21
0.7655034529
 31
0.0
 40
0.9998215708
 41
-0.3926359958
 42
0.3926359958
  0
ELLIPSE
  5
72F
100
AcDbEntity
  8
RACCORDO
100
AcDbEllipse
 62
7
  6
CONTINUOUS
 10
9.0157437911
 20
-16.5380504093
 30
0.0
 11
1.8480888181
 21
-0.7655034529
 31
0.0
 40
0.9998215708
 41
-0.3926359958
 42
0.3926359958
  0
ELLIPSE
  5
730
100
AcDbEntity
  8
0
100
AcDbEllipse
 62
7
  6
CONTINUOUS
 10
1.8659722832
 20
143.0090387093
 30
0.0
 11
-0.4997620717
 21
162.4815824859
 31
0.0
 40
0.000109066
 41
3.2227835669
 42
3.234898768
  0
ELLIPSE
  5
731
100
AcDbEntity
  8
0
100
AcDbEllipse
 62
7
  6
CONTINUOUS
 10
1.8659722832
 20
-140.7422461627
 30
0.0
 11
0.4997620717
 21
162.4815824859
 31
0.0
 40
0.000109066
 41
-0.0933061144
 42
-0.0811909133
  0
ELLIPSE
  5
732
100
AcDbEntity
  8
0
100
AcDbEllipse
 62
7
  6
CONTINUOUS
 10
-2.1338753888
 20
143.0090387093
 30
0.0
 11
0.4997620717
 21
162.4815824859
 31
0.0
 40
0.000109066
 41
-3.234898768
 42
-3.2227835669
  0
ELLIPSE
  5
733
100
AcDbEntity
  8
0
100
AcDbEllipse
 62
7
  6
CONTINUOUS
 10
-2.1338753888
 20
-140.7422461627
 30
0.0
 11
-0.4997620717
 21
162.4815824859
 31
0.0
 40
0.000109066
 41
6.3643762205
 42
6.3764914216
  0
ELLIPSE
  5
734
100
AcDbEntity
  8
RACCORDO
100
AcDbEllipse
 62
7
  6
CONTINUOUS
 10
-9.1614614422
 20
-16.4874395369
 30
0.0
 11
-1.8480888181
 21
-0.7655034529
 31
0.0
 40
0.9998215708
 41
-0.3926359958
 42
0.3926359958
  0
ELLIPSE
  5
735
100
AcDbEntity
  8
RACCORDO
100
AcDbEllipse
 62
7
  6
CONTINUOUS
 10
-9.1614614422
 20
18.7542320835
 30
0.0
 11
1.8480888181
 21
-0.7655034529
 31
0.0
 40
0.9998215708
 41
2.7489566578
 42
3.5342286494
  0
ELLIPSE
  5
736
100
AcDbEntity
  8
RACCORDO
100
AcDbEllipse
 62
7
  6
CONTINUOUS
 10
8.8935583366
 20
18.7542320835
 30
0.0
 11
1.8480888181
 21
0.7655034529
 31
0.0
 40
0.9998215708
 41
-0.3926359958
 42
-0.278861721
  0
ELLIPSE
  5
737
100
AcDbEntity
  8
RACCORDO
100
AcDbEllipse
 62
7
  6
CONTINUOUS
 10
8.8935583366
 20
18.7542320835
 30
0.0
 11
1.8480888181
 21
0.7655034529
 31
0.0
 40
0.9998215708
 41
6.4756880539
 42
6.675821303
  0
ELLIPSE
  5
738
100
AcDbEntity
  8
RACCORDO
100
AcDbEllipse
 62
7
  6
CONTINUOUS
 10
8.8935583366
 20
-16.4874395369
 30
0.0
 11
-1.8480888181
 21
0.7655034529
 31
0.0
 40
0.9998215708
 41
9.032141965
 42
9.2322752141
  0
ELLIPSE
  5
739
100
AcDbEntity
  8
RACCORDO
100
AcDbEllipse
 62
7
  6
CONTINUOUS
 10
8.8935583366
 20
-16.4874395369
 30
0.0
 11
-1.8480888181
 21
0.7655034529
 31
0.0
 40
0.9998215708
 41
3.4204543746
 42
3.5342286494
  0
ELLIPSE
  5
73A
100
AcDbEntity
  8
0
100
AcDbEllipse
 62
7
  6
CONTINUOUS
 10
2.3660484472
 20
-21.2252974365
 30
0.0
 11
1.0205840068
 21
0.0
 31
0.0
 40
0.0058178298
 41
0.0000507714
 42
1.0523815008
  0
ELLIPSE
  5
73B
100
AcDbEntity
  8
0
100
AcDbEllipse
 62
7
  6
CONTINUOUS
 10
-2.6339515528
 20
-21.2252974365
 30
0.0
 11
1.0205840068
 21
0.0
 31
0.0
 40
0.0058178298
 41
8.37239646
 42
9.4247271893
  0
ELLIPSE
  5
73C
100
AcDbEntity
  8
0
100
AcDbEllipse
 62
7
  6
CONTINUOUS
 10
-2.6339515528
 20
23.4920899831
 30
0.0
 11
1.0205840068
 21
0.0
 31
0.0
 40
0.0058178298
 41
-3.1415418822
 42
-2.0892111528
  0
ELLIPSE
  5
73D
100
AcDbEntity
  8
DRAFT
100
AcDbEllipse
 62
7
  6
CONTINUOUS
 10
2.3660484472
 20
-18.928565153
 30
0.0
 11
1.0005407263
 21
0.0
 31
0.0
 40
0.0087268678
 41
-1.5707963268
 42
0.0000761582
  0
ELLIPSE
  5
73E
100
AcDbEntity
  8
DRAFT
100
AcDbEllipse
 62
7
  6
CONTINUOUS
 10
2.3660484472
 20
21.1953576996
 30
0.0
 11
1.0005407263
 21
-0.0
 31
0.0
 40
0.0087268678
 41
-0.0000761582
 42
1.5707963268
  0
ELLIPSE
  5
73F
100
AcDbEntity
  8
0
100
AcDbEllipse
 62
7
  6
CONTINUOUS
 10
2.3660484472
 20
23.4920899831
 30
0.0
 11
1.0205840068
 21
0.0
 31
0.0
 40
0.0058178298
 41
-1.0523815008
 42
-0.0000507714
  0
ELLIPSE
  5
740
100
AcDbEntity
  8
DRAFT
100
AcDbEllipse
 62
7
  6
CONTINUOUS
 10
-2.6339515528
 20
21.1953576996
 30
0.0
 11
1.0005407263
 21
-0.0
 31
0.0
 40
0.0087268678
 41
1.5707963268
 42
3.1416688118
  0
ELLIPSE
  5
741
100
AcDbEntity
  8
DRAFT
100
AcDbEllipse
 62
7
  6
CONTINUOUS
 10
-0.1339515528
 20
21.3332315775
 30
0.0
 11
14.9982560202
 21
0.0
 31
0.0
 40
0.0087268678
 41
-1.7342933984
 42
-1.4072992552
  0
ELLIPSE
  5
742
100
AcDbEntity
  8
DRAFT
100
AcDbEllipse
 62
7
  6
CONTINUOUS
 10
-0.1339515528
 20
-19.0664390309
 30
0.0
 11
14.9982560202
 21
0.0
 31
0.0
 40
0.0087268678
 41
1.4072992552
 42
1.7342933984
  0
ELLIPSE
  5
743
100
AcDbEntity
  8
DRAFT
100
AcDbEllipse
 62
7
  6
CONTINUOUS
 10
-2.6339515528
 20
-18.928565153
 30
0.0
 11
1.0005407263
 21
0.0
 31
0.0
 40
0.0087268678
 41
3.1415164954
 42
4.7123889804
  0
ELLIPSE
  5
744
100
AcDbEntity
  8
0
100
AcDbEllipse
 62
7
  6
CONTINUOUS
 10
3.8190911571
 20
-21.2226968136
 30
0.0
 11
0.4530427099
 21
-0.0
 31
0.0
 40
0.0058178298
 41
0.0058177642
 42
2.8392117832
  0
ELLIPSE
  5
745
100
AcDbEntity
  8
0
100
AcDbEllipse
 62
7
  6
CONTINUOUS
 10
-4.0869942627
 20
-21.2226968136
 30
0.0
 11
0.4530427099
 21
-0.0
 31
0.0
 40
0.0058178298
 41
0.3023808704
 42
3.1357748894
  0
ELLIPSE
  5
746
100
AcDbEntity
  8
0
100
AcDbEllipse
 62
7
  6
CONTINUOUS
 10
-4.0869942627
 20
23.4894893602
 30
0.0
 11
0.4530427099
 21
0.0
 31
0.0
 40
0.0058178298
 41
-3.1357748894
 42
-0.3023808704
  0
ELLIPSE
  5
747
100
AcDbEntity
  8
0
100
AcDbEllipse
 62
7
  6
CONTINUOUS
 10
3.8190911571
 20
23.4894893602
 30
0.0
 11
0.4530427099
 21
-0.0
 31
0.0
 40
0.0058178298
 41
-2.8392117832
 42
-0.0058177642
  0
ELLIPSE
  5
748
100
AcDbEntity
  8
0
100
AcDbEllipse
 62
7
  6
CONTINUOUS
 10
-8.3245480563
 20
22.4693832219
 30
0.0
 11
1.0000571192
 21
0.9999809595
 31
0.0
 40
0.0061705924
 41
-1.1948539202
 42
0.0003532199
  0
ELLIPSE
  5
749
100
AcDbEntity
  8
0
100
AcDbEllipse
 62
7
  6
CONTINUOUS
 10
8.0566449507
 20
22.4693832219
 30
0.0
 11
1.0000571192
 21
-0.9999809595
 31
0.0
 40
0.0061705924
 41
3.1412394337
 42
4.3364465738
  0
ELLIPSE
  5
74A
100
AcDbEntity
  8
0
100
AcDbEllipse
 62
7
  6
CONTINUOUS
 10
8.0566449507
 20
-20.2025906754
 30
0.0
 11
1.0000571192
 21
0.9999809595
 31
0.0
 40
0.0061705924
 41
1.9467387334
 42
3.1419458735
  0
ELLIPSE
  5
74B
100
AcDbEntity
  8
0
100
AcDbEllipse
 62
7
  6
CONTINUOUS
 10
-8.3245480563
 20
-20.2025906754
 30
0.0
 11
1.0000571192
 21
-0.9999809595
 31
0.0
 40
0.0061705924
 41
-0.0003532199
 42
1.1948539202
  0
ELLIPSE
  5
74C
100
AcDbEntity
  8
0
100
AcDbEllipse
 62
7
  6
CONTINUOUS
 10
9.7660442163
 20
24.5447211387
 30
0.0
 11
-0.0029088041
 21
0.2886641433
 31
0.0
 40
0.8660144118
 41
-3.150319066
 42
-1.582431609
  0
ELLIPSE
  5
74D
100
AcDbEntity
  8
0
100
AcDbEllipse
 62
7
  6
CONTINUOUS
 10
7.3660526781
 20
24.5447211387
 30
0.0
 11
0.0029088041
 21
0.2886641433
 31
0.0
 40
0.8660144118
 41
-4.7007536982
 42
-3.1328662412
  0
ELLIPSE
  5
74E
100
AcDbEntity
  8
0
100
AcDbEllipse
 62
7
  6
CONTINUOUS
 10
-7.6339557837
 20
24.5447211387
 30
0.0
 11
-0.0029088041
 21
0.2886641433
 31
0.0
 40
0.8660144118
 41
-3.150319066
 42
-1.582431609
  0
ELLIPSE
  5
74F
100
AcDbEntity
  8
0
100
AcDbEllipse
 62
7
  6
CONTINUOUS
 10
-10.0339473219
 20
24.5447211387
 30
0.0
 11
0.0029088041
 21
0.2886641433
 31
0.0
 40
0.8660144118
 41
-4.7007536982
 42
-3.1328662411
  0
ELLIPSE
  5
750
100
AcDbEntity
  8
0
100
AcDbEllipse
 62
7
  6
CONTINUOUS
 10
9.7660442163
 20
-22.2779285921
 30
0.0
 11
0.0029088041
 21
0.2886641433
 31
0.0
 40
0.8660144118
 41
-1.5591610446
 42
0.0087264124
  0
ELLIPSE
  5
751
100
AcDbEntity
  8
0
100
AcDbEllipse
 62
7
  6
CONTINUOUS
 10
7.3660526781
 20
-22.2779285921
 30
0.0
 11
-0.0029088041
 21
0.2886641433
 31
0.0
 40
0.8660144118
 41
-0.0087264124
 42
1.5591610446
  0
ELLIPSE
  5
752
100
AcDbEntity
  8
0
100
AcDbEllipse
 62
7
  6
CONTINUOUS
 10
-10.0339473219
 20
-22.2779285921
 30
0.0
 11
-0.0029088041
 21
0.2886641433
 31
0.0
 40
0.8660144118
 41
-0.0087264124
 42
1.5591610446
  0
ELLIPSE
  5
753
100
AcDbEntity
  8
0
100
AcDbEllipse
 62
7
  6
CONTINUOUS
 10
-7.6339557837
 20
-22.2779285921
 30
0.0
 11
0.0029088041
 21
0.2886641433
 31
0.0
 40
0.8660144118
 41
-1.5591610446
 42
0.0087264124
  0
ELLIPSE
  5
754
100
AcDbEntity
  8
0
100
AcDbEllipse
 62
7
  6
CONTINUOUS
 10
10.5073025402
 20
23.0275699818
 30
0.0
 11
-0.4160498344
 21
-0.2773626446
 31
0.0
 40
0.9999450019
 41
2.5536219432
 42
4.1243675013
  0
ELLIPSE
  5
755
100
AcDbEntity
  8
0
100
AcDbEllipse
 62
7
  6
CONTINUOUS
 10
10.5073025402
 20
-20.7607774352
 30
0.0
 11
0.4160498344
 21
-0.2773626446
 31
0.0
 40
0.9999450019
 41
-0.9827748477
 42
0.5879707104
  0
ELLIPSE
  5
756
100
AcDbEntity
  8
0
100
AcDbEllipse
 62
7
  6
CONTINUOUS
 10
-10.7752056458
 20
-20.7607774352
 30
0.0
 11
0.4160498344
 21
0.2773626446
 31
0.0
 40
0.9999450019
 41
2.5536219432
 42
4.1243675013
  0
ELLIPSE
  5
757
100
AcDbEntity
  8
0
100
AcDbEllipse
 62
7
  6
CONTINUOUS
 10
-10.7752056458
 20
23.0275699818
 30
0.0
 11
-0.4160498344
 21
0.2773626446
 31
0.0
 40
0.9999450019
 41
-0.9827748477
 42
0.5879707104
  0
ELLIPSE
  5
758
100
AcDbEntity
  8
0
100
AcDbEllipse
 62
7
  6
CONTINUOUS
 10
7.4326941014
 20
-20.8203706972
 30
0.0
 11
0.4999904798
 21
0.5000285596
 31
0.0
 40
0.0061705924
 41
0.0112823085
 42
1.0386206835
  0
ELLIPSE
  5
759
100
AcDbEntity
  8
0
100
AcDbEllipse
 62
7
  6
CONTINUOUS
 10
-7.700597207
 20
-20.8203706972
 30
0.0
 11
-0.4999904798
 21
0.5000285596
 31
0.0
 40
0.0061705924
 41
-1.0386206835
 42
-0.0112823085
  0
ELLIPSE
  5
75A
100
AcDbEntity
  8
0
100
AcDbEllipse
 62
7
  6
CONTINUOUS
 10
-7.700597207
 20
23.0871632438
 30
0.0
 11
0.4999904798
 21
0.5000285596
 31
0.0
 40
0.0061705924
 41
-3.1303103451
 42
-2.1029719701
  0
ELLIPSE
  5
75B
100
AcDbEntity
  8
0
100
AcDbEllipse
 62
7
  6
CONTINUOUS
 10
7.4326941014
 20
23.0871632438
 30
0.0
 11
-0.4999904798
 21
0.5000285596
 31
0.0
 40
0.0061705924
 41
-4.1802133371
 42
-3.1528749621
  0
ELLIPSE
  5
75C
100
AcDbEntity
  8
0
100
AcDbEllipse
 62
7
  6
CONTINUOUS
 10
7.4326941014
 20
-19.8582358385
 30
0.0
 11
0.5
 21
0.0
 31
0.0
 40
0.0087268678
 41
-1.5707963268
 42
-0.0174532925
  0
ELLIPSE
  5
75D
100
AcDbEntity
  8
0
100
AcDbEllipse
 62
7
  6
CONTINUOUS
 10
-7.700597207
 20
-19.8582358385
 30
0.0
 11
0.5
 21
-0.0
 31
0.0
 40
0.0087268678
 41
-3.1241393611
 42
-1.5707963268
  0
ELLIPSE
  5
75E
100
AcDbEntity
  8
0
100
AcDbEllipse
 62
7
  6
CONTINUOUS
 10
-7.700597207
 20
22.1250283851
 30
0.0
 11
0.5
 21
-0.0
 31
0.0
 40
0.0087268678
 41
1.5707963268
 42
3.1241393611
  0
ELLIPSE
  5
75F
100
AcDbEntity
  8
0
100
AcDbEllipse
 62
7
  6
CONTINUOUS
 10
7.4326941014
 20
22.1250283851
 30
0.0
 11
0.5
 21
-0.0
 31
0.0
 40
0.0087268678
 41
0.0174532925
 42
1.5707963268
  0
ELLIPSE
  5
760
100
AcDbEntity
  8
0
100
AcDbEllipse
 62
7
  6
CONTINUOUS
 10
-1.3425265392
 20
24.9276813886
 30
0.0
 11
0.1243375101
 21
0.1566832125
 31
0.0
 40
0.9998696711
 41
-0.9000073418
 42
0.6707382163
  0
ELLIPSE
  5
761
100
AcDbEntity
  8
0
100
AcDbEllipse
 62
7
  6
CONTINUOUS
 10
1.0746234336
 20
24.9276813886
 30
0.0
 11
-0.1243375101
 21
0.1566832125
 31
0.0
 40
0.9998696711
 41
-0.6707382163
 42
0.9000073418
  0
ELLIPSE
  5
762
100
AcDbEntity
  8
0
100
AcDbEllipse
 62
7
  6
CONTINUOUS
 10
1.0746234336
 20
-22.6608888421
 30
0.0
 11
0.1243375101
 21
0.1566832125
 31
0.0
 40
0.9998696711
 41
-4.0415999954
 42
-2.4708544373
  0
ELLIPSE
  5
763
100
AcDbEntity
  8
0
100
AcDbEllipse
 62
7
  6
CONTINUOUS
 10
-1.3425265392
 20
-22.6608888421
 30
0.0
 11
-0.1243375101
 21
0.1566832125
 31
0.0
 40
0.9998696711
 41
-3.8123308699
 42
-2.2415853118
  0
ELLIPSE
  5
764
100
AcDbEntity
  8
RACCORDO
100
AcDbEllipse
 62
7
  6
CONTINUOUS
 10
-1.81652944
 20
-16.4666037267
 30
0.0
 11
0.3000114235
 21
0.0
 31
0.0
 40
0.9999619231
 41
1.5707963268
 42
2.80137059
  0
ELLIPSE
  5
765
100
AcDbEntity
  8
RACCORDO
100
AcDbEllipse
 62
7
  6
CONTINUOUS
 10
-10.847030431
 20
-2.3166037267
 30
0.0
 11
0.3000114235
 21
0.0
 31
0.0
 40
0.9999619231
 41
1.5707963268
 42
3.1415926536
  0
ELLIPSE
  5
766
100
AcDbEntity
  8
RACCORDO
100
AcDbEllipse
 62
7
  6
CONTINUOUS
 10
-10.847030431
 20
2.6833962733
 30
0.0
 11
0.3000114235
 21
0.0
 31
0.0
 40
0.9999619231
 41
1.5707963268
 42
3.1415926536
  0
ELLIPSE
  5
767
100
AcDbEntity
  8
DRAFT
100
AcDbEllipse
 62
7
  6
CONTINUOUS
 10
-9.9754041748
 20
0.1333962733
 30
0.0
 11
-0.0
 21
2.15
 31
0.0
 40
0.0087268678
 41
-0.0
 42
3.1415926536
  0
ELLIPSE
  5
768
100
AcDbEntity
  8
DRAFT
100
AcDbEllipse
 62
7
  6
CONTINUOUS
 10
-9.9754041748
 20
15.1333962733
 30
0.0
 11
-0.0
 21
2.15
 31
0.0
 40
0.0087268678
 41
0.0
 42
3.1415926536
  0
ELLIPSE
  5
769
100
AcDbEntity
  8
DRAFT
100
AcDbEllipse
 62
7
  6
CONTINUOUS
 10
-9.9754041748
 20
10.1333962733
 30
0.0
 11
0.0
 21
2.15
 31
0.0
 40
0.0087268678
 41
-0.0
 42
3.1415926536
  0
ELLIPSE
  5
76A
100
AcDbEntity
  8
DRAFT
100
AcDbEllipse
 62
7
  6
CONTINUOUS
 10
-9.9754041748
 20
5.1333962733
 30
0.0
 11
0.0
 21
2.15
 31
0.0
 40
0.0087268678
 41
0.0
 42
3.1415926536
  0
ELLIPSE
  5
76B
100
AcDbEntity
  8
RACCORDO
100
AcDbEllipse
 62
7
  6
CONTINUOUS
 10
-3.847030431
 20
20.4464751515
 30
0.0
 11
0.2121481893
 21
-0.2121481893
 31
0.0
 40
0.9999238505
 41
2.3562325664
 42
3.9269527408
  0
ELLIPSE
  5
76C
100
AcDbEntity
  8
RACCORDO
100
AcDbEllipse
 62
7
  6
CONTINUOUS
 10
9.2572412927
 20
19.7464484966
 30
0.0
 11
0.3827005044
 21
0.9239207481
 31
0.0
 40
0.9999553905
 41
-0.3926833098
 42
0.3926833098
  0
ELLIPSE
  5
76D
100
AcDbEntity
  8
RACCORDO
100
AcDbEllipse
 62
7
  6
CONTINUOUS
 10
9.8791006705
 20
19.1245891188
 30
0.0
 11
0.9239207481
 21
0.3827005044
 31
0.0
 40
0.9999553905
 41
-0.3926833098
 42
0.3926833098
  0
ELLIPSE
  5
76E
100
AcDbEntity
  8
RACCORDO
100
AcDbEllipse
 62
7
  6
CONTINUOUS
 10
9.8791006705
 20
-16.8577965722
 30
0.0
 11
0.9239207481
 21
-0.3827005044
 31
0.0
 40
0.9999553905
 41
-0.3926833098
 42
0.3926833098
  0
ELLIPSE
  5
76F
100
AcDbEntity
  8
RACCORDO
100
AcDbEllipse
 62
7
  6
CONTINUOUS
 10
9.2572412927
 20
-17.47965595
 30
0.0
 11
-0.3827005044
 21
0.9239207481
 31
0.0
 40
0.9999553905
 41
2.7489093438
 42
3.5342759634
  0
ELLIPSE
  5
770
100
AcDbEntity
  8
RACCORDO
100
AcDbEllipse
 62
7
  6
CONTINUOUS
 10
-3.847030431
 20
-18.1796826049
 30
0.0
 11
-0.2121481893
 21
-0.2121481893
 31
0.0
 40
0.9999238505
 41
-0.7853600872
 42
0.7853600872
  0
ELLIPSE
  5
771
100
AcDbEntity
  8
RACCORDO
100
AcDbEllipse
 62
7
  6
CONTINUOUS
 10
-9.5251443983
 20
-16.07965595
 30
0.0
 11
-0.3827005044
 21
-0.9239207481
 31
0.0
 40
0.9999553905
 41
-0.3926833098
 42
0.3926833098
  0
ELLIPSE
  5
772
100
AcDbEntity
  8
RACCORDO
100
AcDbEllipse
 62
7
  6
CONTINUOUS
 10
-10.1470037761
 20
-15.4577965722
 30
0.0
 11
0.9239207481
 21
0.3827005044
 31
0.0
 40
0.9999553905
 41
2.7489093438
 42
3.5342759634
  0
ELLIPSE
  5
773
100
AcDbEntity
  8
RACCORDO
100
AcDbEllipse
 62
7
  6
CONTINUOUS
 10
-10.847030431
 20
2.5833962733
 30
0.0
 11
-0.3000114235
 21
-0.0
 31
0.0
 40
0.9999619231
 41
0.0
 42
1.5707963268
  0
ELLIPSE
  5
774
100
AcDbEntity
  8
RACCORDO
100
AcDbEllipse
 62
7
  6
CONTINUOUS
 10
-10.847030431
 20
7.5833962733
 30
0.0
 11
-0.3000114235
 21
-0.0
 31
0.0
 40
0.9999619231
 41
0.0
 42
1.5707963268
  0
ELLIPSE
  5
775
100
AcDbEntity
  8
RACCORDO
100
AcDbEllipse
 62
7
  6
CONTINUOUS
 10
-10.847030431
 20
7.6833962733
 30
0.0
 11
0.3000114235
 21
0.0
 31
0.0
 40
0.9999619231
 41
1.5707963268
 42
3.1415926536
  0
ELLIPSE
  5
776
100
AcDbEntity
  8
RACCORDO
100
AcDbEllipse
 62
7
  6
CONTINUOUS
 10
-10.847030431
 20
12.5833962733
 30
0.0
 11
-0.3000114235
 21
-0.0
 31
0.0
 40
0.9999619231
 41
0.0
 42
1.5707963268
  0
ELLIPSE
  5
777
100
AcDbEntity
  8
RACCORDO
100
AcDbEllipse
 62
7
  6
CONTINUOUS
 10
-10.847030431
 20
12.6833962733
 30
0.0
 11
0.3000114235
 21
0.0
 31
0.0
 40
0.9999619231
 41
1.5707963268
 42
3.1415926536
  0
ELLIPSE
  5
778
100
AcDbEntity
  8
RACCORDO
100
AcDbEllipse
 62
7
  6
CONTINUOUS
 10
-10.847030431
 20
17.5833962733
 30
0.0
 11
-0.3000114235
 21
-0.0
 31
0.0
 40
0.9999619231
 41
0.0
 42
1.5707963268
  0
ELLIPSE
  5
779
100
AcDbEntity
  8
RACCORDO
100
AcDbEllipse
 62
7
  6
CONTINUOUS
 10
-10.1470037761
 20
17.7245891188
 30
0.0
 11
-0.9239207481
 21
0.3827005044
 31
0.0
 40
0.9999553905
 41
-0.3926833098
 42
0.3926833098
  0
ELLIPSE
  5
77A
100
AcDbEntity
  8
RACCORDO
100
AcDbEllipse
 62
7
  6
CONTINUOUS
 10
-9.5251443983
 20
18.3464484966
 30
0.0
 11
-0.3827005044
 21
0.9239207481
 31
0.0
 40
0.9999553905
 41
-0.3926833098
 42
0.3926833098
  0
ELLIPSE
  5
77B
100
AcDbEntity
  8
RACCORDO
100
AcDbEllipse
 62
7
  6
CONTINUOUS
 10
-4.447053278
 20
19.6464979985
 30
0.0
 11
0.2121481894
 21
-0.2121481893
 31
0.0
 40
0.9999238505
 41
-0.7853600873
 42
0.7853600871
  0
ELLIPSE
  5
77C
100
AcDbEntity
  8
RACCORDO
100
AcDbEllipse
 62
7
  6
CONTINUOUS
 10
1.5486263344
 20
-16.4666037267
 30
0.0
 11
0.3000114235
 21
0.0
 31
0.0
 40
0.9999619231
 41
0.3402220636
 42
1.5707963268
  0
ELLIPSE
  5
77D
100
AcDbEntity
  8
RACCORDO
100
AcDbEllipse
 62
7
  6
CONTINUOUS
 10
1.470041478
 20
18.7333962733
 30
0.0
 11
-0.3000114235
 21
-0.0
 31
0.0
 40
0.9999619231
 41
1.5707963268
 42
2.80137059
  0
ELLIPSE
  5
77E
100
AcDbEntity
  8
RACCORDO
100
AcDbEllipse
 62
7
  6
CONTINUOUS
 10
-1.7379445836
 20
18.7333962733
 30
0.0
 11
-0.3000114235
 21
-0.0
 31
0.0
 40
0.9999619231
 41
0.3402220636
 42
1.5707963268
  0
ELLIPSE
  5
77F
100
AcDbEntity
  8
ASSI
100
AcDbEllipse
 62
7
  6
CONTINUOUS
 10
-3.847030431
 20
20.4464751515
 30
0.0
 11
0.2121481893
 21
-0.2121481893
 31
0.0
 40
0.9999238505
 41
2.3562325664
 42
3.9269527408
  0
ELLIPSE
  5
780
100
AcDbEntity
  8
ASSI
100
AcDbEllipse
 62
7
  6
CONTINUOUS
 10
9.2572412927
 20
19.7464484966
 30
0.0
 11
0.3827005044
 21
0.9239207481
 31
0.0
 40
0.9999553905
 41
-0.3926833098
 42
0.3926833098
  0
ELLIPSE
  5
781
100
AcDbEntity
  8
ASSI
100
AcDbEllipse
 62
7
  6
CONTINUOUS
 10
9.8791006705
 20
19.1245891188
 30
0.0
 11
0.9239207481
 21
0.3827005044
 31
0.0
 40
0.9999553905
 41
-0.3926833098
 42
0.3926833098
  0
ELLIPSE
  5
782
100
AcDbEntity
  8
ASSI
100
AcDbEllipse
 62
7
  6
CONTINUOUS
 10
9.8791006705
 20
-16.8577965722
 30
0.0
 11
0.9239207481
 21
-0.3827005044
 31
0.0
 40
0.9999553905
 41
-0.3926833098
 42
0.3926833098
  0
ELLIPSE
  5
783
100
AcDbEntity
  8
ASSI
100
AcDbEllipse
 62
7
  6
CONTINUOUS
 10
9.2572412927
 20
-17.47965595
 30
0.0
 11
-0.3827005044
 21
0.9239207481
 31
0.0
 40
0.9999553905
 41
2.7489093438
 42
3.5342759634
  0
ELLIPSE
  5
784
100
AcDbEntity
  8
ASSI
100
AcDbEllipse
 62
7
  6
CONTINUOUS
 10
-3.847030431
 20
-18.1796826049
 30
0.0
 11
-0.2121481893
 21
-0.2121481893
 31
0.0
 40
0.9999238505
 41
-0.7853600872
 42
0.7853600872
  0
ELLIPSE
  5
785
100
AcDbEntity
  8
ASSI
100
AcDbEllipse
 62
7
  6
CONTINUOUS
 10
-9.5251443983
 20
-16.07965595
 30
0.0
 11
-0.3827005044
 21
-0.9239207481
 31
0.0
 40
0.9999553905
 41
-0.3926833098
 42
0.3926833098
  0
ELLIPSE
  5
786
100
AcDbEntity
  8
ASSI
100
AcDbEllipse
 62
7
  6
CONTINUOUS
 10
-10.1470037761
 20
-15.4577965722
 30
0.0
 11
0.9239207481
 21
0.3827005044
 31
0.0
 40
0.9999553905
 41
2.7489093438
 42
3.5342759634
  0
ELLIPSE
  5
787
100
AcDbEntity
  8
ASSI
100
AcDbEllipse
 62
7
  6
CONTINUOUS
 10
-10.847030431
 20
2.5833962733
 30
0.0
 11
-0.3000114235
 21
-0.0
 31
0.0
 40
0.9999619231
 41
0.0
 42
1.5707963268
  0
ELLIPSE
  5
788
100
AcDbEntity
  8
ASSI
100
AcDbEllipse
 62
7
  6
CONTINUOUS
 10
-10.847030431
 20
7.5833962733
 30
0.0
 11
-0.3000114235
 21
-0.0
 31
0.0
 40
0.9999619231
 41
0.0
 42
1.5707963268
  0
ELLIPSE
  5
789
100
AcDbEntity
  8
ASSI
100
AcDbEllipse
 62
7
  6
CONTINUOUS
 10
-10.847030431
 20
7.6833962733
 30
0.0
 11
0.3000114235
 21
0.0
 31
0.0
 40
0.9999619231
 41
1.5707963268
 42
3.1415926536
  0
ELLIPSE
  5
78A
100
AcDbEntity
  8
ASSI
100
AcDbEllipse
 62
7
  6
CONTINUOUS
 10
-10.847030431
 20
12.5833962733
 30
0.0
 11
-0.3000114235
 21
-0.0
 31
0.0
 40
0.9999619231
 41
0.0
 42
1.5707963268
  0
ELLIPSE
  5
78B
100
AcDbEntity
  8
ASSI
100
AcDbEllipse
 62
7
  6
CONTINUOUS
 10
-10.847030431
 20
12.6833962733
 30
0.0
 11
0.3000114235
 21
0.0
 31
0.0
 40
0.9999619231
 41
1.5707963268
 42
3.1415926536
  0
ELLIPSE
  5
78C
100
AcDbEntity
  8
ASSI
100
AcDbEllipse
 62
7
  6
CONTINUOUS
 10
-10.847030431
 20
17.5833962733
 30
0.0
 11
-0.3000114235
 21
-0.0
 31
0.0
 40
0.9999619231
 41
0.0
 42
1.5707963268
  0
ELLIPSE
  5
78D
100
AcDbEntity
  8
ASSI
100
AcDbEllipse
 62
7
  6
CONTINUOUS
 10
-10.1470037761
 20
17.7245891188
 30
0.0
 11
-0.9239207481
 21
0.3827005044
 31
0.0
 40
0.9999553905
 41
-0.3926833098
 42
0.3926833098
  0
ELLIPSE
  5
78E
100
AcDbEntity
  8
ASSI
100
AcDbEllipse
 62
7
  6
CONTINUOUS
 10
-9.5251443983
 20
18.3464484966
 30
0.0
 11
-0.3827005044
 21
0.9239207481
 31
0.0
 40
0.9999553905
 41
-0.3926833098
 42
0.3926833098
  0
ELLIPSE
  5
78F
100
AcDbEntity
  8
ASSI
100
AcDbEllipse
 62
7
  6
CONTINUOUS
 10
1.5486263344
 20
-16.4666037267
 30
0.0
 11
0.3000114235
 21
0.0
 31
0.0
 40
0.9999619231
 41
0.3402220636
 42
1.5707963268
  0
ELLIPSE
  5
790
100
AcDbEntity
  8
ASSI
100
AcDbEllipse
 62
7
  6
CONTINUOUS
 10
1.470041478
 20
18.7333962733
 30
0.0
 11
-0.3000114235
 21
-0.0
 31
0.0
 40
0.9999619231
 41
1.5707963268
 42
2.80137059
  0
ELLIPSE
  5
791
100
AcDbEntity
  8
ASSI
100
AcDbEllipse
 62
7
  6
CONTINUOUS
 10
-1.7379445836
 20
18.7333962733
 30
0.0
 11
-0.3000114235
 21
-0.0
 31
0.0
 40
0.9999619231
 41
0.3402220636
 42
1.5707963268
  0
ELLIPSE
  5
792
100
AcDbEntity
  8
ASSI
100
AcDbEllipse
 62
7
  6
CONTINUOUS
 10
-1.81652944
 20
-16.4666037267
 30
0.0
 11
0.3000114235
 21
0.0
 31
0.0
 40
0.9999619231
 41
1.5707963268
 42
2.80137059
  0
ELLIPSE
  5
793
100
AcDbEntity
  8
ASSI
100
AcDbEllipse
 62
7
  6
CONTINUOUS
 10
-10.847030431
 20
-2.3166037267
 30
0.0
 11
0.3000114235
 21
0.0
 31
0.0
 40
0.9999619231
 41
1.5707963268
 42
3.1415926536
  0
ELLIPSE
  5
794
100
AcDbEntity
  8
ASSI
100
AcDbEllipse
 62
7
  6
CONTINUOUS
 10
-10.847030431
 20
2.6833962733
 30
0.0
 11
0.3000114235
 21
0.0
 31
0.0
 40
0.9999619231
 41
1.5707963268
 42
3.1415926536
  0
ELLIPSE
  5
795
100
AcDbEntity
  8
ASSI
100
AcDbEllipse
 62
7
  6
CONTINUOUS
 10
-9.9754041748
 20
0.1333962733
 30
0.0
 11
-0.0
 21
2.15
 31
0.0
 40
0.0087268678
 41
-0.0
 42
3.1415926536
  0
ELLIPSE
  5
796
100
AcDbEntity
  8
ASSI
100
AcDbEllipse
 62
7
  6
CONTINUOUS
 10
-9.9754041748
 20
15.1333962733
 30
0.0
 11
-0.0
 21
2.15
 31
0.0
 40
0.0087268678
 41
0.0
 42
3.1415926536
  0
ELLIPSE
  5
797
100
AcDbEntity
  8
ASSI
100
AcDbEllipse
 62
7
  6
CONTINUOUS
 10
-9.9754041748
 20
10.1333962733
 30
0.0
 11
0.0
 21
2.15
 31
0.0
 40
0.0087268678
 41
-0.0
 42
3.1415926536
  0
ELLIPSE
  5
798
100
AcDbEntity
  8
ASSI
100
AcDbEllipse
 62
7
  6
CONTINUOUS
 10
-9.9754041748
 20
5.1333962733
 30
0.0
 11
0.0
 21
2.15
 31
0.0
 40
0.0087268678
 41
0.0
 42
3.1415926536
  0
ELLIPSE
  5
799
100
AcDbEntity
  8
ASSI
100
AcDbEllipse
 62
7
  6
CONTINUOUS
 10
-4.447053278
 20
19.6464979985
 30
0.0
 11
0.2121481894
 21
-0.2121481893
 31
0.0
 40
0.9999238505
 41
-0.7853600873
 42
0.7853600871
  0
ENDSEC
  0
SECTION
  2
OBJECTS
  0
DICTIONARY
  5
C
100
AcDbDictionary
280
0
281
1
  3
ACAD_GROUP
350
D
  3
ACAD_MLINESTYLE
350
17
  3
ACAD_LAYOUT
350
1A
  3
ACAD_PLOTSETTINGS
350
19
  3
ACAD_PLOTSTYLENAME
350
E
  0
DICTIONARY
  5
D
102
{ACAD_REACTORS
330
C
102
}
100
AcDbDictionary
280
0
281
1
  0
ACDBDICTIONARYWDFLT
  5
E
102
{ACAD_REACTORS
330
C
102
}
100
AcDbDictionary
281
1
  3
Normal
350
F
100
AcDbDictionaryWithDefault
340
F
  0
DICTIONARY
  5
17
102
{ACAD_REACTORS
330
C
102
}
100
AcDbDictionary
280
0
281
1
  3
Standard
350
18
  0
DICTIONARY
  5
19
102
{ACAD_REACTORS
330
C
102
}
100
AcDbDictionary
281
1
  0
DICTIONARY
  5
1A
102
{ACAD_REACTORS
330
C
102
}
100
AcDbDictionary
281
1
  3
Model
350
79A
  3
Layout1
350
79B
  0
ACDBPLACEHOLDER
  5
F
102
{ACAD_REACTORS
330
E
102
}
  0
MLINESTYLE
  5
18
102
{ACAD_REACTORS
330
17
102
}
100
AcDbMlineStyle
  2
STANDARD
 70
0
  3

 62
256
 51
90.0
 52
90.0
 71
2
 49
0.5
 62
256
  6
BYLAYER
 49
-0.5
 62
256
  6
BYLAYER
  0
LAYOUT
  5
79A
102
{ACAD_REACTORS
330
1A
102
}
100
AcDbPlotSettings
  1

  2
none_device
  4
ISO_A4_(297.00_x_210.00_MM)
  6

 40
0.0
 41
0.0
 42
0.0
 43
0.0
 44
297.0
 45
210.0
 46
0.0
 47
0.0
 48
0.0
 49
0.0
140
0.0
141
0.0
142
1.0
143
1.0
 70
1024
 72
1
 73
0
 74
0
  7

 75
0
147
1.0
148
0.0
149
0.0
100
AcDbLayout
  1
Model
 70
0
 71
0
 10
0.0
 20
0.0
 11
297.0
 21
210.0
 12
0.0
 22
0.0
 32
0.0
 14
0.0
 24
0.0
 34
0.0
 15
0.0
 25
0.0
 35
0.0
146
0.0
 13
0.0
 23
0.0
 33
0.0
 16
1.0
 26
0.0
 36
0.0
 17
0.0
 27
1.0
 37
0.0
 76
0
330
229
345
0
346
0
  0
LAYOUT
  5
79B
102
{ACAD_REACTORS
330
1A
102
}
100
AcDbPlotSettings
  1

  2
none_device
  4
ISO_A4_(297.00_x_210.00_MM)
  6

 40
0.0
 41
0.0
 42
0.0
 43
0.0
 44
297.0
 45
210.0
 46
0.0
 47
0.0
 48
0.0
 49
0.0
140
0.0
141
0.0
142
1.0
143
1.0
 70
0
 72
1
 73
0
 74
0
  7

 75
0
147
1.0
148
0.0
149
0.0
100
AcDbLayout
  1
Layout1
 70
0
 71
1
 10
0.0
 20
0.0
 11
297.0
 21
210.0
 12
0.0
 22
0.0
 32
0.0
 14
0.0
 24
0.0
 34
0.0
 15
0.0
 25
0.0
 35
0.0
146
0.0
 13
0.0
 23
0.0
 33
0.0
 16
1.0
 26
0.0
 36
0.0
 17
0.0
 27
1.0
 37
0.0
 76
0
330
22A
345
0
346
0
  0
ENDSEC
  0
EOF
