  0
SECTION
  2
HEADER
  9
$ACADVER
  1
AC1015
  9
$DWGCODEPAGE
  3
ANSI_1252
  9
$EXTMAX
 10
297.0
 20
210.0
 30
0.0
  9
$EXTMIN
 10
0.0
 20
0.0
 30
0.0
  9
$LIMMIN
 10
0.0
 20
0.0
  9
$LIMMAX
 10
297.0
 20
210.0
  9
$VIEWCTR
 10
148.5
 20
105.0
  9
$VIEWSIZE
 40
210.0
  9
$CLAYER
  8
0
  9
$LTSCALE
 40
16.335
  9
$CELTYPE
  6
BYLAYER
  9
$DIMSCALE
 40
1.0
  9
$DIMASZ
 40
3.0
  9
$DIMEXO
 40
0.5
  9
$DIMDLI
 40
11.286
  9
$DIMEXE
 40
1.5
  9
$DIMCEN
 40
2.673
  9
$DIMLFAC
 40
1.0
  9
$DIMBLK
  1
_FILLED
  9
$DIMTXT
 40
3.0
  9
$DIMTOL
 70
1
  9
$DIMLIM
 70
0
  9
$DIMTFAC
 40
1.0
  9
$DIMTP
 40
0.01
  9
$DIMTM
 40
0.01
  9
$DIMGAP
 40
0.625
  9
$DIMDSEP
 70
44
  9
$PDMODE
 70
3
  9
$PDSIZE
 40
3.0
  9
$HANDSEED
  5
98D
  9
$TILEMODE
 70
1
  9
$MEASUREMENT
 70
1
  9
$INSUNITS
 70
4
  0
ENDSEC
  0
SECTION
  2
CLASSES
  0
CLASS
  1
ACDBDICTIONARYWDFLT
  2
AcDbDictionaryWithDefault
  3
AutoCAD 2000
 90
0
280
0
281
0
  0
CLASS
  1
ACDBPLACEHOLDER
  2
AcDbPlaceHolder
  3
AutoCAD 2000
 90
0
280
0
281
0
  0
CLASS
  1
LAYOUT
  2
AcDbLayout
  3
AutoCAD 2000
 90
0
280
0
281
0
  0
ENDSEC
  0
SECTION
  2
TABLES
  0
TABLE
  2
VPORT
  5
8
100
AcDbSymbolTable
 70
2
  0
VPORT
  5
1F4
100
AcDbSymbolTableRecord
100
AcDbViewportTableRecord
  2
*ACTIVE
 70
0
 10
0.0
 20
0.0
 11
1.0
 21
1.0
 12
148.5
 22
105.0
 13
0.0
 23
0.0
 14
1.0
 24
1.0
 15
0.0
 25
0.0
 16
0.0
 26
0.0
 36
1.0
 17
0.0
 27
0.0
 37
0.0
 40
210.0
 41
1.4142857143
 42
50.0
 43
0.0
 44
0.0
 50
0.0
 51
0.0
 71
0
 72
100
 73
1
 74
1
 75
0
 76
0
 77
0
 78
0
  0
ENDTAB
  0
TABLE
  2
LTYPE
  5
5
100
AcDbSymbolTable
 70
6
  0
LTYPE
  5
14
100
AcDbSymbolTableRecord
100
AcDbLinetypeTableRecord
  2
BYBLOCK
 70
0
  3

 72
65
 73
0
 40
0.0
  0
LTYPE
  5
15
100
AcDbSymbolTableRecord
100
AcDbLinetypeTableRecord
  2
BYLAYER
 70
0
  3

 72
65
 73
0
 40
0.0
  0
LTYPE
  5
16
100
AcDbSymbolTableRecord
100
AcDbLinetypeTableRecord
  2
CONTINUOUS
 70
64
  3
Solid line
 72
65
 73
0
 40
0.0
  0
LTYPE
  5
1F5
100
AcDbSymbolTableRecord
100
AcDbLinetypeTableRecord
  2
CENTER
 70
64
  3
____ _ ____ _ ____ _ ____ _ ____ _ ____ _ ____
 72
65
 73
4
 40
0.6
 49
0.375
 74
0
 49
-0.075
 74
0
 49
0.075
 74
0
 49
-0.075
 74
0
  0
LTYPE
  5
1F6
100
AcDbSymbolTableRecord
100
AcDbLinetypeTableRecord
  2
HIDDEN
 70
64
  3
- - - - - - - - - - - - - - - - - - - -
 72
65
 73
2
 40
0.2
 49
0.1
 74
0
 49
-0.1
 74
0
  0
LTYPE
  5
1F7
100
AcDbSymbolTableRecord
100
AcDbLinetypeTableRecord
  2
PHANTOM
 70
64
  3
_____ _ _ _____ _ _ _____ _ _ _____
 72
65
 73
6
 40
0.8
 49
0.45
 74
0
 49
-0.05
 74
0
 49
0.1
 74
0
 49
-0.05
 74
0
 49
0.1
 74
0
 49
-0.05
 74
0
  0
LTYPE
  5
1F8
100
AcDbSymbolTableRecord
100
AcDbLinetypeTableRecord
  2
DOT
 70
64
  3
. . . . . . . . . . . . . . . . . . . .
 72
65
 73
2
 40
0.2
 49
0.1
 74
0
 49
-0.1
 74
0
  0
LTYPE
  5
1F9
100
AcDbSymbolTableRecord
100
AcDbLinetypeTableRecord
  2
DASHED
 70
64
  3
- - - - - - - - - - - - - - - - - - - -
 72
65
 73
2
 40
0.2
 49
0.1
 74
0
 49
-0.1
 74
0
  0
ENDTAB
  0
TABLE
  2
LAYER
  5
2
100
AcDbSymbolTable
 70
36
  0
LAYER
  5
10
100
AcDbSymbolTableRecord
100
AcDbLayerTableRecord
  2
0
 70
0
 62
7
  6
CONTINUOUS
370
-3
390
F
  0
LAYER
  5
1FA
100
AcDbSymbolTableRecord
100
AcDbLayerTableRecord
  2
DEFAULT_1
 70
0
 62
7
  6
CENTER
370
-3
390
F
  0
LAYER
  5
1FB
100
AcDbSymbolTableRecord
100
AcDbLayerTableRecord
  2
DEFAULT_2
 70
0
 62
7
  6
HIDDEN
370
-3
390
F
  0
LAYER
  5
1FC
100
AcDbSymbolTableRecord
100
AcDbLayerTableRecord
  2
DEFAULT_3
 70
0
 62
7
  6
PHANTOM
370
-3
390
F
  0
LAYER
  5
1FD
100
AcDbSymbolTableRecord
100
AcDbLayerTableRecord
  2
ASSI
 70
0
 62
7
  6
CONTINUOUS
370
-3
390
F
  0
LAYER
  5
1FE
100
AcDbSymbolTableRecord
100
AcDbLayerTableRecord
  2
COLOR4
 70
0
 62
7
  6
CONTINUOUS
370
-3
390
F
  0
LAYER
  5
1FF
100
AcDbSymbolTableRecord
100
AcDbLayerTableRecord
  2
COLOR9
 70
0
 62
7
  6
CONTINUOUS
370
-3
390
F
  0
LAYER
  5
200
100
AcDbSymbolTableRecord
100
AcDbLayerTableRecord
  2
COLORE_MATERIALE
 70
0
 62
7
  6
CONTINUOUS
370
-3
390
F
  0
LAYER
  5
201
100
AcDbSymbolTableRecord
100
AcDbLayerTableRecord
  2
COORDINATE
 70
0
 62
7
  6
CONTINUOUS
370
-3
390
F
  0
LAYER
  5
202
100
AcDbSymbolTableRecord
100
AcDbLayerTableRecord
  2
COORD_ORIGINE
 70
0
 62
7
  6
CONTINUOUS
370
-3
390
F
  0
LAYER
  5
203
100
AcDbSymbolTableRecord
100
AcDbLayerTableRecord
  2
COPY
 70
0
 62
7
  6
CONTINUOUS
370
-3
390
F
  0
LAYER
  5
204
100
AcDbSymbolTableRecord
100
AcDbLayerTableRecord
  2
COPY_GEOMETRY
 70
0
 62
7
  6
CONTINUOUS
370
-3
390
F
  0
LAYER
  5
205
100
AcDbSymbolTableRecord
100
AcDbLayerTableRecord
  2
COPY_PUBLISH
 70
0
 62
7
  6
CONTINUOUS
370
-3
390
F
  0
LAYER
  5
206
100
AcDbSymbolTableRecord
100
AcDbLayerTableRecord
  2
COSMETIC
 70
0
 62
7
  6
CONTINUOUS
370
-3
390
F
  0
LAYER
  5
207
100
AcDbSymbolTableRecord
100
AcDbLayerTableRecord
  2
COSMETICI
 70
0
 62
7
  6
CONTINUOUS
370
-3
390
F
  0
LAYER
  5
208
100
AcDbSymbolTableRecord
100
AcDbLayerTableRecord
  2
CURVE
 70
0
 62
7
  6
CONTINUOUS
370
-3
390
F
  0
LAYER
  5
209
100
AcDbSymbolTableRecord
100
AcDbLayerTableRecord
  2
DRAFT
 70
0
 62
7
  6
CONTINUOUS
370
-3
390
F
  0
LAYER
  5
20A
100
AcDbSymbolTableRecord
100
AcDbLayerTableRecord
  2
IGES
 70
0
 62
7
  6
CONTINUOUS
370
-3
390
F
  0
LAYER
  5
20B
100
AcDbSymbolTableRecord
100
AcDbLayerTableRecord
  2
IGS
 70
0
 62
7
  6
CONTINUOUS
370
-3
390
F
  0
LAYER
  5
20C
100
AcDbSymbolTableRecord
100
AcDbLayerTableRecord
  2
IGS_SCRITTE
 70
0
 62
7
  6
CONTINUOUS
370
-3
390
F
  0
LAYER
  5
20D
100
AcDbSymbolTableRecord
100
AcDbLayerTableRecord
  2
IMPORT_IGES
 70
0
 62
7
  6
CONTINUOUS
370
-3
390
F
  0
LAYER
  5
20E
100
AcDbSymbolTableRecord
100
AcDbLayerTableRecord
  2
INTFCLR_137
 70
0
 62
7
  6
CONTINUOUS
370
-3
390
F
  0
LAYER
  5
20F
100
AcDbSymbolTableRecord
100
AcDbLayerTableRecord
  2
INTFCLR_20107
 70
0
 62
7
  6
CONTINUOUS
370
-3
390
F
  0
LAYER
  5
210
100
AcDbSymbolTableRecord
100
AcDbLayerTableRecord
  2
INTFCLR_4627
 70
0
 62
7
  6
CONTINUOUS
370
-3
390
F
  0
LAYER
  5
211
100
AcDbSymbolTableRecord
100
AcDbLayerTableRecord
  2
INTFCLR_6275
 70
0
 62
7
  6
CONTINUOUS
370
-3
390
F
  0
LAYER
  5
212
100
AcDbSymbolTableRecord
100
AcDbLayerTableRecord
  2
INTF_1
 70
0
 62
7
  6
CONTINUOUS
370
-3
390
F
  0
LAYER
  5
213
100
AcDbSymbolTableRecord
100
AcDbLayerTableRecord
  2
INTF_11
 70
0
 62
7
  6
CONTINUOUS
370
-3
390
F
  0
LAYER
  5
214
100
AcDbSymbolTableRecord
100
AcDbLayerTableRecord
  2
INTF_12
 70
0
 62
7
  6
CONTINUOUS
370
-3
390
F
  0
LAYER
  5
215
100
AcDbSymbolTableRecord
100
AcDbLayerTableRecord
  2
INTF_6
 70
0
 62
7
  6
CONTINUOUS
370
-3
390
F
  0
LAYER
  5
216
100
AcDbSymbolTableRecord
100
AcDbLayerTableRecord
  2
INTF_YELLOW
 70
0
 62
7
  6
CONTINUOUS
370
-3
390
F
  0
LAYER
  5
217
100
AcDbSymbolTableRecord
100
AcDbLayerTableRecord
  2
NOTE
 70
0
 62
7
  6
CONTINUOUS
370
-3
390
F
  0
LAYER
  5
218
100
AcDbSymbolTableRecord
100
AcDbLayerTableRecord
  2
PIANI
 70
0
 62
7
  6
CONTINUOUS
370
-3
390
F
  0
LAYER
  5
219
100
AcDbSymbolTableRecord
100
AcDbLayerTableRecord
  2
PIANI_ORIGINE
 70
0
 62
7
  6
CONTINUOUS
370
-3
390
F
  0
LAYER
  5
21A
100
AcDbSymbolTableRecord
100
AcDbLayerTableRecord
  2
PIANI_RIFERIMENTO
 70
0
 62
7
  6
CONTINUOUS
370
-3
390
F
  0
LAYER
  5
21B
100
AcDbSymbolTableRecord
100
AcDbLayerTableRecord
  2
PIANI_SFORMO
 70
0
 62
7
  6
CONTINUOUS
370
-3
390
F
  0
LAYER
  5
21C
100
AcDbSymbolTableRecord
100
AcDbLayerTableRecord
  2
PUBLISH_GEOMETRY
 70
0
 62
7
  6
CONTINUOUS
370
-3
390
F
  0
LAYER
  5
21D
100
AcDbSymbolTableRecord
100
AcDbLayerTableRecord
  2
PUNTI
 70
0
 62
7
  6
CONTINUOUS
370
-3
390
F
  0
LAYER
  5
21E
100
AcDbSymbolTableRecord
100
AcDbLayerTableRecord
  2
RACCORDO
 70
0
 62
7
  6
CONTINUOUS
370
-3
390
F
  0
LAYER
  5
21F
100
AcDbSymbolTableRecord
100
AcDbLayerTableRecord
  2
SIMBOLI
 70
0
 62
7
  6
CONTINUOUS
370
-3
390
F
  0
LAYER
  5
220
100
AcDbSymbolTableRecord
100
AcDbLayerTableRecord
  2
SMUSSO
 70
0
 62
7
  6
CONTINUOUS
370
-3
390
F
  0
LAYER
  5
221
100
AcDbSymbolTableRecord
100
AcDbLayerTableRecord
  2
SNAPLINE
 70
0
 62
7
  6
CONTINUOUS
370
-3
390
F
  0
LAYER
  5
222
100
AcDbSymbolTableRecord
100
AcDbLayerTableRecord
  2
SOLIDO
 70
0
 62
7
  6
CONTINUOUS
370
-3
390
F
  0
LAYER
  5
223
100
AcDbSymbolTableRecord
100
AcDbLayerTableRecord
  2
SUPERFICI
 70
0
 62
7
  6
CONTINUOUS
370
-3
390
F
  0
LAYER
  5
224
100
AcDbSymbolTableRecord
100
AcDbLayerTableRecord
  2
TRASH
 70
0
 62
7
  6
CONTINUOUS
370
-3
390
F
  0
LAYER
  5
225
100
AcDbSymbolTableRecord
100
AcDbLayerTableRecord
  2
WHITE
 70
0
 62
7
  6
CONTINUOUS
370
-3
390
F
  0
LAYER
  5
226
100
AcDbSymbolTableRecord
100
AcDbLayerTableRecord
  2
XSEC_DATUMS
 70
0
 62
7
  6
CONTINUOUS
370
-3
390
F
  0
ENDTAB
  0
TABLE
  2
STYLE
  5
3
100
AcDbSymbolTable
 70
1
  0
STYLE
  5
11
100
AcDbSymbolTableRecord
100
AcDbTextStyleTableRecord
  2
STANDARD
 70
0
 40
0.0
 41
0.8
 50
0.0
 71
0
 42
0.2
  3
txt
  4

  0
STYLE
  5
227
100
AcDbSymbolTableRecord
100
AcDbTextStyleTableRecord
  2
TEXTSTYLE_1
 70
0
 40
0.0
 41
0.8
 50
0.0
 71
0
 42
0.2
  3
gdt
  4

  0
ENDTAB
  0
TABLE
  2
VIEW
  5
6
100
AcDbSymbolTable
 70
0
  0
ENDTAB
  0
TABLE
  2
UCS
  5
7
100
AcDbSymbolTable
 70
0
  0
ENDTAB
  0
TABLE
  2
APPID
  5
9
100
AcDbSymbolTable
 70
1
  0
APPID
  5
228
100
AcDbSymbolTableRecord
100
AcDbRegAppTableRecord
  2
ACAD
 70
0
  0
ENDTAB
  0
TABLE
  2
BLOCK_RECORD
  5
1
100
AcDbSymbolTable
 70
0
  0
BLOCK_RECORD
  5
229
100
AcDbSymbolTableRecord
100
AcDbBlockTableRecord
  2
*Model_Space
  0
BLOCK_RECORD
  5
22A
100
AcDbSymbolTableRecord
100
AcDbBlockTableRecord
  2
*Paper_Space
  0
ENDTAB
  0
TABLE
  2
DIMSTYLE
  5
A
100
AcDbSymbolTable
 70
1
100
AcDbDimStyleTable
 71
0
  0
DIMSTYLE
105
22B
100
AcDbSymbolTableRecord
100
AcDbDimStyleTableRecord
  2
STANDARD
 70
0
  3

  4

 40
1.0
 41
3.0
 42
0.5
 43
0.38
 44
1.5
 45
0.0
 46
0.0
 47
0.01
 48
0.01
140
3.0
141
0.09
142
0.0
143
25.4
144
1.0
145
0.0
146
1.0
147
0.625
 71
1.0
 72
0.0
 73
0
 74
0
 75
0
 76
0
 77
1
 78
8
170
0
171
2
172
0
173
0
174
0
175
0
176
0
177
0
178
0
270
2
271
2
272
2
273
2
274
2
275
0
280
0
281
0
282
0
283
1
284
8
285
0
286
0
287
3
288
0
340
11
278
44
  0
ENDTAB
  0
ENDSEC
  0
SECTION
  2
BLOCKS
  0
BLOCK
  5
20
100
AcDbEntity
  8
0
100
AcDbBlockBegin
  2
*Model_Space
 70
0
 10
0.0
 20
0.0
 30
0.0
  3
*Model_Space
  1

  0
ENDBLK
  5
21
100
AcDbEntity
  8
0
100
AcDbBlockEnd
  0
BLOCK
  5
1C
100
AcDbEntity
  8
0
100
AcDbBlockBegin
  2
*Paper_Space
 70
0
 10
0.0
 20
0.0
 30
0.0
  3
*Paper_Space
  1

  0
ENDBLK
  5
1D
100
AcDbEntity
  8
0
100
AcDbBlockEnd
  0
ENDSEC
  0
SECTION
  2
ENTITIES
  0
LWPOLYLINE
  5
22C
100
AcDbEntity
  8
0
100
AcDbPolyline
 62
7
  6
CONTINUOUS
 90
6
 70
0
 10
-2.2155120251
 20
-0.3636661445
 10
-2.2037781038
 20
-0.361693038
 10
-2.1921513524
 20
-0.359163852
 10
-2.1806581122
 20
-0.356084312
 10
-2.1693244175
 20
-0.3524613917
 10
-2.1581759419
 20
-0.3483032961
  0
LWPOLYLINE
  5
22D
100
AcDbEntity
  8
0
100
AcDbPolyline
 62
7
  6
CONTINUOUS
 90
18
 70
0
 10
-22.1440128405
 20
48.6158819555
 10
-22.1549508375
 20
48.6111981019
 10
-22.1656535788
 20
48.6059990985
 10
-22.1760968195
 20
48.6002967213
 10
-22.1862568972
 20
48.5941038878
 10
-22.1961107964
 20
48.5874346252
 10
-22.2056361951
 20
48.5803040404
 10
-22.2148115103
 20
48.5727282886
 10
-22.2236159573
 20
48.5647245302
 10
-22.2320295917
 20
48.5563108958
 10
-22.2400333501
 20
48.5475064487
 10
-22.247609102
 20
48.5383311335
 10
-22.2547396867
 20
48.5288057348
 10
-22.2614089494
 20
48.5189518356
 10
-22.2676017829
 20
48.508791758
 10
-22.2733041601
 20
48.4983485173
 10
-22.2785031634
 20
48.487645776
 10
-22.283187017
 20
48.476707779
  0
LWPOLYLINE
  5
22E
100
AcDbEntity
  8
0
100
AcDbPolyline
 62
7
  6
CONTINUOUS
 90
6
 70
0
 10
-19.6155120251
 20
-0.3636661445
 10
-19.6037781038
 20
-0.361693038
 10
-19.5921513524
 20
-0.359163852
 10
-19.5806581122
 20
-0.356084312
 10
-19.5693244175
 20
-0.3524613917
 10
-19.5581759419
 20
-0.3483032961
  0
LWPOLYLINE
  5
22F
100
AcDbEntity
  8
0
100
AcDbPolyline
 62
7
  6
CONTINUOUS
 90
4
 70
0
 10
-2.2510901605
 20
-0.3662106703
 10
-2.2391948752
 20
-0.3659275201
 10
-2.2273265357
 20
-0.3650787046
 10
-2.2155120251
 20
-0.3636661445
  0
LWPOLYLINE
  5
230
100
AcDbEntity
  8
0
100
AcDbPolyline
 62
7
  6
CONTINUOUS
 90
34
 70
0
 10
-2.2554619945
 20
-0.3618388363
 10
-2.2435865229
 20
-0.3615562167
 10
-2.2317327804
 20
-0.3607093149
 10
-2.2199276049
 20
-0.3592993189
 10
-2.2081961102
 20
-0.3573283729
 10
-2.196566675
 20
-0.354800383
 10
-2.1850707093
 20
-0.3517218044
 10
-2.1737359442
 20
-0.3481001946
 10
-2.1625863323
 20
-0.3439433403
 10
-2.1516469311
 20
-0.3392605666
 10
-2.1409423963
 20
-0.3340623813
 10
-2.1304971429
 20
-0.3283605928
 10
-2.1203350672
 20
-0.3221682304
 10
-2.1104792826
 20
-0.3154993932
 10
-2.1009520211
 20
-0.3083691398
 10
-2.0917748078
 20
-0.3007935789
 10
-2.0829684163
 20
-0.2927898474
 10
-2.07455283
 20
-0.2843760958
 10
-2.0665471359
 20
-0.2755714002
 10
-2.0589694793
 20
-0.2663957132
 10
-2.0518370283
 20
-0.256869819
 10
-2.0451659482
 20
-0.2470153029
 10
-2.0389713559
 20
-0.2368544907
 10
-2.0332672906
 20
-0.2264104055
 10
-2.028066683
 20
-0.2157067191
 10
-2.0233813187
 20
-0.2047676856
 10
-2.0192218144
 20
-0.1936180892
 10
-2.0155975973
 20
-0.1822831967
 10
-2.0125168787
 20
-0.1707886857
 10
-2.0099866416
 20
-0.1591606063
 10
-2.008012623
 20
-0.1474253266
 10
-2.0065992942
 20
-0.1356094443
 10
-2.0057498541
 20
-0.1237397261
 10
-2.0054662252
 20
-0.1118430671
  0
LWPOLYLINE
  5
231
100
AcDbEntity
  8
0
100
AcDbPolyline
 62
7
  6
CONTINUOUS
 90
4
 70
0
 10
-19.6510901605
 20
-0.3662106703
 10
-19.6391948752
 20
-0.3659275201
 10
-19.6273265357
 20
-0.3650787046
 10
-19.6155120251
 20
-0.3636661445
  0
LWPOLYLINE
  5
232
100
AcDbEntity
  8
0
100
AcDbPolyline
 62
7
  6
CONTINUOUS
 90
34
 70
0
 10
-19.6554619945
 20
-0.3618388363
 10
-19.6435865229
 20
-0.3615562167
 10
-19.6317327804
 20
-0.3607093149
 10
-19.6199276049
 20
-0.3592993189
 10
-19.6081961102
 20
-0.3573283729
 10
-19.596566675
 20
-0.354800383
 10
-19.5850707093
 20
-0.3517218044
 10
-19.5737359442
 20
-0.3481001946
 10
-19.5625863323
 20
-0.3439433403
 10
-19.5516469311
 20
-0.3392605666
 10
-19.5409423963
 20
-0.3340623813
 10
-19.5304971429
 20
-0.3283605928
 10
-19.5203350672
 20
-0.3221682304
 10
-19.5104792826
 20
-0.3154993932
 10
-19.5009520211
 20
-0.3083691398
 10
-19.4917748078
 20
-0.3007935789
 10
-19.4829684163
 20
-0.2927898474
 10
-19.47455283
 20
-0.2843760958
 10
-19.4665471359
 20
-0.2755714002
 10
-19.4589694793
 20
-0.2663957132
 10
-19.4518370283
 20
-0.256869819
 10
-19.4451659482
 20
-0.2470153029
 10
-19.4389713559
 20
-0.2368544907
 10
-19.4332672906
 20
-0.2264104055
 10
-19.428066683
 20
-0.2157067191
 10
-19.4233813187
 20
-0.2047676856
 10
-19.4192218144
 20
-0.1936180892
 10
-19.4155975973
 20
-0.1822831967
 10
-19.4125168787
 20
-0.1707886857
 10
-19.4099866416
 20
-0.1591606063
 10
-19.408012623
 20
-0.1474253266
 10
-19.4065992942
 20
-0.1356094443
 10
-19.4057498541
 20
-0.1237397261
 10
-19.4054662252
 20
-0.1118430671
  0
LWPOLYLINE
  5
233
100
AcDbEntity
  8
0
100
AcDbPolyline
 62
7
  6
CONTINUOUS
 90
37
 70
0
 10
-13.3510918528
 20
0.1337893297
 10
-13.3423681991
 20
0.1339796634
 10
-13.3336611444
 20
0.1345503086
 10
-13.3249872602
 20
0.1355001819
 10
-13.3163630533
 20
0.1368274775
 10
-13.3078049398
 20
0.1385296723
 10
-13.2993292131
 20
0.140603531
 10
-13.2909520051
 20
0.143045109
 10
-13.2826892611
 20
0.1458497613
 10
-13.2745567139
 20
0.1490121528
 10
-13.2665698433
 20
0.1525262666
 10
-13.2587438519
 20
0.1563854158
 10
-13.2510936424
 20
0.1605822563
 10
-13.2436337768
 20
0.1651088016
 10
-13.2363784552
 20
0.169956437
 10
-13.2293414942
 20
0.1751159351
 10
-13.222536289
 20
0.1805774761
 10
-13.2159757936
 20
0.1863306652
 10
-13.2096725015
 20
0.1923645491
 10
-13.2036384114
 20
0.1986676431
 10
-13.1978850093
 20
0.2052279498
 10
-13.1924232515
 20
0.2120329782
 10
-13.1872635344
 20
0.2190697752
 10
-13.1824156794
 20
0.2263249463
 10
-13.1778889172
 20
0.233784677
 10
-13.1736918643
 20
0.2414347675
 10
-13.1698325092
 20
0.2492606559
 10
-13.166318199
 20
0.2572474411
 10
-13.1631556227
 20
0.2653799199
 10
-13.160350799
 20
0.2736426125
 10
-13.157909066
 20
0.2820197869
 10
-13.1558350707
 20
0.2904954969
 10
-13.1541327595
 20
0.2990536098
 10
-13.1528053702
 20
0.3076778326
 10
-13.1518554278
 20
0.3163517486
 10
-13.1512847397
 20
0.3250588489
 10
-13.1510943912
 20
0.3337825605
  0
LINE
  5
234
100
AcDbEntity
  8
0
100
AcDbLine
 62
7
  6
CONTINUOUS
 10
-22.046726788
 20
-0.3618388363
 11
-19.6554619945
 21
-0.3618388363
  0
LINE
  5
235
100
AcDbEntity
  8
0
100
AcDbLine
 62
7
  6
CONTINUOUS
 10
-4.646726788
 20
-0.3618388363
 11
-2.2554619945
 21
-0.3618388363
  0
LINE
  5
236
100
AcDbEntity
  8
0
100
AcDbLine
 62
253
  6
CONTINUOUS
 10
-2.0054662252
 20
-0.1118430671
 11
-4.8967225572
 21
-0.1118430671
  0
LINE
  5
237
100
AcDbEntity
  8
0
100
AcDbLine
 62
253
  6
CONTINUOUS
 10
-19.4054662252
 20
-0.1118430671
 11
-22.2967225572
 21
-0.1118430671
  0
LINE
  5
238
100
AcDbEntity
  8
0
100
AcDbLine
 62
7
  6
CONTINUOUS
 10
-16.6010943912
 20
0.1337893297
 11
-13.3510918528
 21
0.1337893297
  0
LINE
  5
239
100
AcDbEntity
  8
0
100
AcDbLine
 62
7
  6
CONTINUOUS
 10
-10.9510969297
 20
0.1337893297
 11
-7.7010943912
 21
0.1337893297
  0
LINE
  5
23A
100
AcDbEntity
  8
0
100
AcDbLine
 62
7
  6
CONTINUOUS
 10
-15.6859521075
 20
0.1394906747
 11
-13.3596439909
 21
0.1394906747
  0
LINE
  5
23B
100
AcDbEntity
  8
0
100
AcDbLine
 62
7
  6
CONTINUOUS
 10
-10.9425447916
 20
0.1394906747
 11
-8.616236675
 21
0.1394906747
  0
LINE
  5
23C
100
AcDbEntity
  8
0
100
AcDbLine
 62
7
  6
CONTINUOUS
 10
-7.7447450381
 20
0.1774399766
 11
-8.6165678535
 21
0.1774399766
  0
LINE
  5
23D
100
AcDbEntity
  8
0
100
AcDbLine
 62
7
  6
CONTINUOUS
 10
-15.685620929
 20
0.1774399766
 11
-16.5574437444
 21
0.1774399766
  0
LINE
  5
23E
100
AcDbEntity
  8
0
100
AcDbLine
 62
253
  6
CONTINUOUS
 10
-2.0054662252
 20
0.2894517624
 11
-4.8967225572
 21
0.2894517624
  0
LINE
  5
23F
100
AcDbEntity
  8
0
100
AcDbLine
 62
253
  6
CONTINUOUS
 10
-19.4054662252
 20
0.2894517624
 11
-22.2967225572
 21
0.2894517624
  0
LINE
  5
240
100
AcDbEntity
  8
0
100
AcDbLine
 62
253
  6
CONTINUOUS
 10
-2.2554619945
 20
0.5059581133
 11
-4.646726788
 21
0.5059581133
  0
LINE
  5
241
100
AcDbEntity
  8
0
100
AcDbLine
 62
253
  6
CONTINUOUS
 10
-19.6554619945
 20
0.5059581133
 11
-22.046726788
 21
0.5059581133
  0
LWPOLYLINE
  5
242
100
AcDbEntity
  8
0
100
AcDbPolyline
 62
7
  6
CONTINUOUS
 90
37
 70
0
 10
-10.9510969297
 20
0.1337893297
 10
-10.9598205834
 20
0.1339796634
 10
-10.9685276381
 20
0.1345503086
 10
-10.9772015223
 20
0.1355001819
 10
-10.9858257292
 20
0.1368274775
 10
-10.9943838427
 20
0.1385296723
 10
-11.0028595694
 20
0.140603531
 10
-11.0112367774
 20
0.143045109
 10
-11.0194995214
 20
0.1458497613
 10
-11.0276320685
 20
0.1490121528
 10
-11.0356189392
 20
0.1525262666
 10
-11.0434449306
 20
0.1563854158
 10
-11.0510951401
 20
0.1605822563
 10
-11.0585550057
 20
0.1651088016
 10
-11.0658103273
 20
0.169956437
 10
-11.0728472883
 20
0.1751159351
 10
-11.0796524935
 20
0.1805774761
 10
-11.0862129889
 20
0.1863306652
 10
-11.092516281
 20
0.1923645491
 10
-11.0985503711
 20
0.1986676431
 10
-11.1043037731
 20
0.2052279498
 10
-11.109765531
 20
0.2120329782
 10
-11.1149252481
 20
0.2190697752
 10
-11.1197731031
 20
0.2263249463
 10
-11.1242998653
 20
0.233784677
 10
-11.1284969182
 20
0.2414347675
 10
-11.1323562733
 20
0.2492606559
 10
-11.1358705835
 20
0.2572474411
 10
-11.1390331598
 20
0.2653799199
 10
-11.1418379835
 20
0.2736426125
 10
-11.1442797165
 20
0.2820197869
 10
-11.1463537118
 20
0.2904954969
 10
-11.148056023
 20
0.2990536098
 10
-11.1493834123
 20
0.3076778326
 10
-11.1503333547
 20
0.3163517486
 10
-11.1509040428
 20
0.3250588489
 10
-11.1510943912
 20
0.3337825605
  0
LWPOLYLINE
  5
243
100
AcDbEntity
  8
0
100
AcDbPolyline
 62
7
  6
CONTINUOUS
 90
9
 70
0
 10
-22.1440128405
 20
-0.3483032961
 10
-22.132864365
 20
-0.3524613917
 10
-22.1215306702
 20
-0.356084312
 10
-22.11003743
 20
-0.359163852
 10
-22.0984106787
 20
-0.361693038
 10
-22.0866767574
 20
-0.3636661445
 10
-22.0748622468
 20
-0.3650787046
 10
-22.0629939073
 20
-0.3659275201
 10
-22.051098622
 20
-0.3662106703
  0
LWPOLYLINE
  5
244
100
AcDbEntity
  8
0
100
AcDbPolyline
 62
7
  6
CONTINUOUS
 90
40
 70
0
 10
-1.5007137915
 20
1.7337893297
 10
-1.480718492
 20
1.7342027036
 10
-1.4607286476
 20
1.7354176225
 10
-1.440776524
 20
1.7374353618
 10
-1.4208872146
 20
1.7402570327
 10
-1.4011006803
 20
1.7438807444
 10
-1.381471162
 20
1.7482986678
 10
-1.3620417471
 20
1.7535009945
 10
-1.3428326317
 20
1.7594821711
 10
-1.3238632904
 20
1.7662376537
 10
-1.3051517587
 20
1.7737642045
 10
-1.2867431221
 20
1.7820469047
 10
-1.2686958771
 20
1.7910597767
 10
-1.2510552113
 20
1.80077713
 10
-1.233831683
 20
1.8111899502
 10
-1.2170308359
 20
1.8222948828
 10
-1.2006663212
 20
1.8340860316
 10
-1.1847809066
 20
1.8465357974
 10
-1.169422381
 20
1.8596065799
 10
-1.1546288115
 20
1.8732619666
 10
-1.1404075515
 20
1.8874910256
 10
-1.1267594381
 20
1.9022930722
 10
-1.1136950467
 20
1.9176613192
 10
-1.1012513046
 20
1.9335572692
 10
-1.0894670823
 20
1.9499316399
 10
-1.0783701798
 20
1.966740969
 10
-1.0679659452
 20
1.9839721177
 10
-1.0582576771
 20
2.0016197355
 10
-1.0492546502
 20
2.0196722385
 10
-1.0409818755
 20
2.0380853736
 10
-1.0334642068
 20
2.0568039614
 10
-1.0267156618
 20
2.0757859718
 10
-1.0207409683
 20
2.0950106735
 10
-1.015546745
 20
2.1144531896
 10
-1.0111404486
 20
2.1340801885
 10
-1.0075278018
 20
2.1538614227
 10
-1.0047128243
 20
2.1737767567
 10
-1.002700065
 20
2.1937981351
 10
-1.001493237
 20
2.2138893864
 10
-1.0010943912
 20
2.2340181818
  0
LINE
  5
245
100
AcDbEntity
  8
0
100
AcDbLine
 62
7
  6
CONTINUOUS
 10
-22.0518173891
 20
1.0111395989
 11
-19.6503713934
 21
1.0111395989
  0
LINE
  5
246
100
AcDbEntity
  8
0
100
AcDbLine
 62
7
  6
CONTINUOUS
 10
-2.2503713934
 20
1.0111395989
 11
-4.6518173891
 21
1.0111395989
  0
LINE
  5
247
100
AcDbEntity
  8
0
100
AcDbLine
 62
7
  6
CONTINUOUS
 10
-13.1510943912
 20
1.7337893297
 11
-11.1510943912
 21
1.7337893297
  0
LINE
  5
248
100
AcDbEntity
  8
0
100
AcDbLine
 62
7
  6
CONTINUOUS
 10
-1.5010880452
 20
1.7337893297
 11
-7.7010943912
 21
1.7337893297
  0
LINE
  5
249
100
AcDbEntity
  8
0
100
AcDbLine
 62
7
  6
CONTINUOUS
 10
-16.6010943912
 20
1.7337893297
 11
-22.8011007373
 21
1.7337893297
  0
LINE
  5
24A
100
AcDbEntity
  8
0
100
AcDbLine
 62
7
  6
CONTINUOUS
 10
-11.1424204379
 20
1.7389936172
 11
-13.1597683446
 21
1.7389936172
  0
LINE
  5
24B
100
AcDbEntity
  8
0
100
AcDbLine
 62
7
  6
CONTINUOUS
 10
-1.5098149129
 20
1.7396071595
 11
-4.8952765614
 21
1.7396071595
  0
LINE
  5
24C
100
AcDbEntity
  8
0
100
AcDbLine
 62
7
  6
CONTINUOUS
 10
-19.4069122211
 20
1.7396071595
 11
-22.7923738695
 21
1.7396071595
  0
LINE
  5
24D
100
AcDbEntity
  8
0
100
AcDbLine
 62
253
  6
CONTINUOUS
 10
-19.3416360174
 20
1.7978193042
 11
-15.1566444176
 21
1.7978193042
  0
LINE
  5
24E
100
AcDbEntity
  8
0
100
AcDbLine
 62
253
  6
CONTINUOUS
 10
-9.1455443649
 20
1.7978193042
 11
-4.9605527651
 21
1.7978193042
  0
LINE
  5
24F
100
AcDbEntity
  8
0
100
AcDbLine
 62
7
  6
CONTINUOUS
 10
-15.1510943912
 20
2.4337893297
 11
-9.1510943912
 21
2.4337893297
  0
LINE
  5
250
100
AcDbEntity
  8
0
100
AcDbLine
 62
7
  6
CONTINUOUS
 10
-20.2176638931
 20
45.1254975939
 11
-20.3836393263
 21
45.0425161975
  0
LINE
  5
251
100
AcDbEntity
  8
0
100
AcDbLine
 62
7
  6
CONTINUOUS
 10
-20.2176638931
 20
45.5875247568
 11
-20.3836393263
 21
45.5389027398
  0
LWPOLYLINE
  5
252
100
AcDbEntity
  8
0
100
AcDbPolyline
 62
7
  6
CONTINUOUS
 90
13
 70
0
 10
-13.6526186261
 20
4.2493026501
 10
-13.7754908526
 20
4.2491605132
 10
-13.8933626808
 20
4.2487800391
 10
-14.0062341106
 20
4.2481612278
 10
-14.1155898931
 20
4.2472892632
 10
-14.2199452772
 20
4.2461789614
 10
-14.3148460095
 20
4.2448747706
 10
-14.3999140938
 20
4.2433647486
 10
-14.4755275264
 20
4.2416608376
 10
-14.5383660424
 20
4.2398433127
 10
-14.587322887
 20
4.2379389322
 10
-14.6235048151
 20
4.2359209379
 10
-14.6469118267
 20
4.2337893297
  0
LINE
  5
253
100
AcDbEntity
  8
0
100
AcDbLine
 62
253
  6
CONTINUOUS
 10
-19.7177400455
 20
2.797802381
 11
-15.1479176975
 21
2.797802381
  0
LINE
  5
254
100
AcDbEntity
  8
0
100
AcDbLine
 62
253
  6
CONTINUOUS
 10
-9.154271085
 20
2.797802381
 11
-4.584448737
 21
2.797802381
  0
LINE
  5
255
100
AcDbEntity
  8
DRAFT
100
AcDbLine
 62
7
  6
CONTINUOUS
 10
-19.7177400455
 20
3.137793784
 11
-19.3463719778
 21
3.137793784
  0
LINE
  5
256
100
AcDbEntity
  8
DRAFT
100
AcDbLine
 62
7
  6
CONTINUOUS
 10
-4.584448737
 20
3.137793784
 11
-4.9558168047
 21
3.137793784
  0
LINE
  5
257
100
AcDbEntity
  8
0
100
AcDbLine
 62
7
  6
CONTINUOUS
 10
-20.3836393263
 20
3.2250624619
 11
-20.2176638931
 21
3.2250624619
  0
LINE
  5
258
100
AcDbEntity
  8
0
100
AcDbLine
 62
7
  6
CONTINUOUS
 10
-4.0845248894
 20
3.2250624619
 11
-3.9185494562
 21
3.2250624619
  0
LINE
  5
259
100
AcDbEntity
  8
DRAFT
100
AcDbLine
 62
7
  6
CONTINUOUS
 10
-4.8510943912
 20
3.2337893297
 11
-4.5324652411
 21
3.2337893297
  0
LINE
  5
25A
100
AcDbEntity
  8
DRAFT
100
AcDbLine
 62
7
  6
CONTINUOUS
 10
-4.0845248894
 20
3.2337893297
 11
-4.5201235864
 21
3.2337893297
  0
LINE
  5
25B
100
AcDbEntity
  8
DRAFT
100
AcDbLine
 62
7
  6
CONTINUOUS
 10
-19.4423675235
 20
3.2337893297
 11
-19.7697235413
 21
3.2337893297
  0
LINE
  5
25C
100
AcDbEntity
  8
DRAFT
100
AcDbLine
 62
7
  6
CONTINUOUS
 10
-19.7820651961
 20
3.2337893297
 11
-20.2176638931
 21
3.2337893297
  0
LINE
  5
25D
100
AcDbEntity
  8
0
100
AcDbLine
 62
7
  6
CONTINUOUS
 10
-3.3510943912
 20
3.2837893297
 11
-4.7510943912
 21
3.2837893297
  0
LINE
  5
25E
100
AcDbEntity
  8
DRAFT
100
AcDbLine
 62
7
  6
CONTINUOUS
 10
-3.3510943912
 20
3.2837893297
 11
-4.7510943912
 21
3.2837893297
  0
LINE
  5
25F
100
AcDbEntity
  8
0
100
AcDbLine
 62
7
  6
CONTINUOUS
 10
-19.5510943912
 20
3.2837893297
 11
-20.9510943912
 21
3.2837893297
  0
LINE
  5
260
100
AcDbEntity
  8
DRAFT
100
AcDbLine
 62
7
  6
CONTINUOUS
 10
-19.5510943912
 20
3.2837893297
 11
-20.9510943912
 21
3.2837893297
  0
LINE
  5
261
100
AcDbEntity
  8
0
100
AcDbLine
 62
7
  6
CONTINUOUS
 10
-9.1589485723
 20
3.3337893297
 11
-15.1432402102
 21
3.3337893297
  0
LINE
  5
262
100
AcDbEntity
  8
DRAFT
100
AcDbLine
 62
7
  6
CONTINUOUS
 10
-18.7558168047
 20
4.0290669162
 11
-5.5463719778
 21
4.0290669162
  0
LINE
  5
263
100
AcDbEntity
  8
DRAFT
100
AcDbLine
 62
7
  6
CONTINUOUS
 10
-14.6510943912
 20
4.0630963167
 11
-14.5923549731
 21
4.0630963167
  0
LINE
  5
264
100
AcDbEntity
  8
DRAFT
100
AcDbLine
 62
7
  6
CONTINUOUS
 10
-9.7098338094
 20
4.0630963167
 11
-9.6510943912
 21
4.0630963167
  0
LINE
  5
265
100
AcDbEntity
  8
DRAFT
100
AcDbLine
 62
7
  6
CONTINUOUS
 10
-8.6509409566
 20
4.1162074641
 11
-9.6517104242
 21
4.1162074641
  0
LINE
  5
266
100
AcDbEntity
  8
DRAFT
100
AcDbLine
 62
7
  6
CONTINUOUS
 10
-14.6504783582
 20
4.1162074641
 11
-15.6512478259
 21
4.1162074641
  0
LINE
  5
267
100
AcDbEntity
  8
DRAFT
100
AcDbLine
 62
7
  6
CONTINUOUS
 10
-18.6554578251
 20
4.1294258958
 11
-14.6504544609
 21
4.1294258958
  0
LINE
  5
268
100
AcDbEntity
  8
DRAFT
100
AcDbLine
 62
7
  6
CONTINUOUS
 10
-9.6517343216
 20
4.1294258958
 11
-5.6467309573
 21
4.1294258958
  0
LINE
  5
269
100
AcDbEntity
  8
DRAFT
100
AcDbLine
 62
7
  6
CONTINUOUS
 10
-4.7510943912
 20
4.1337893297
 11
-4.8554578251
 21
4.1337893297
  0
LINE
  5
26A
100
AcDbEntity
  8
DRAFT
100
AcDbLine
 62
7
  6
CONTINUOUS
 10
-19.4467309573
 20
4.1337893297
 11
-19.5510943912
 21
4.1337893297
  0
LINE
  5
26B
100
AcDbEntity
  8
0
100
AcDbLine
 62
7
  6
CONTINUOUS
 10
-15.6510943912
 20
4.2337893297
 11
-14.6455726715
 21
4.2337893297
  0
LINE
  5
26C
100
AcDbEntity
  8
0
100
AcDbLine
 62
7
  6
CONTINUOUS
 10
-9.656616111
 20
4.2337893297
 11
-8.6510943912
 21
4.2337893297
  0
LINE
  5
26D
100
AcDbEntity
  8
0
100
AcDbLine
 62
7
  6
CONTINUOUS
 10
-13.6526186261
 20
4.2493026501
 11
-10.6495701564
 21
4.2493026501
  0
LINE
  5
26E
100
AcDbEntity
  8
0
100
AcDbLine
 62
7
  6
CONTINUOUS
 10
-15.6144387549
 20
4.270444966
 11
-8.6877500276
 21
4.270444966
  0
LINE
  5
26F
100
AcDbEntity
  8
DRAFT
100
AcDbLine
 62
7
  6
CONTINUOUS
 10
-15.6144387549
 20
4.270444966
 11
-8.6877500276
 21
4.270444966
  0
LINE
  5
270
100
AcDbEntity
  8
DRAFT
100
AcDbLine
 62
7
  6
CONTINUOUS
 10
-19.3463719778
 20
4.3290669162
 11
-18.7558168047
 21
4.3290669162
  0
LINE
  5
271
100
AcDbEntity
  8
DRAFT
100
AcDbLine
 62
7
  6
CONTINUOUS
 10
-5.5463719778
 20
4.3290669162
 11
-4.9558168047
 21
4.3290669162
  0
LINE
  5
272
100
AcDbEntity
  8
DRAFT
100
AcDbLine
 62
7
  6
CONTINUOUS
 10
-19.4467309573
 20
4.4294258958
 11
-18.6554578251
 21
4.4294258958
  0
LINE
  5
273
100
AcDbEntity
  8
DRAFT
100
AcDbLine
 62
7
  6
CONTINUOUS
 10
-5.6467309573
 20
4.4294258958
 11
-4.8554578251
 21
4.4294258958
  0
LINE
  5
274
100
AcDbEntity
  8
0
100
AcDbLine
 62
7
  6
CONTINUOUS
 10
-19.5510943912
 20
4.4337893297
 11
-15.6510943912
 21
4.4337893297
  0
LINE
  5
275
100
AcDbEntity
  8
DRAFT
100
AcDbLine
 62
7
  6
CONTINUOUS
 10
-19.5510943912
 20
4.4337893297
 11
-15.6510943912
 21
4.4337893297
  0
LINE
  5
276
100
AcDbEntity
  8
0
100
AcDbLine
 62
7
  6
CONTINUOUS
 10
-8.6510943912
 20
4.4337893297
 11
-4.7510943912
 21
4.4337893297
  0
LINE
  5
277
100
AcDbEntity
  8
DRAFT
100
AcDbLine
 62
7
  6
CONTINUOUS
 10
-8.6510943912
 20
4.4337893297
 11
-4.7510943912
 21
4.4337893297
  0
LINE
  5
278
100
AcDbEntity
  8
0
100
AcDbLine
 62
7
  6
CONTINUOUS
 10
-19.5877500276
 20
4.470444966
 11
-15.6144387549
 21
4.470444966
  0
LINE
  5
279
100
AcDbEntity
  8
DRAFT
100
AcDbLine
 62
7
  6
CONTINUOUS
 10
-19.5877500276
 20
4.470444966
 11
-15.6144387549
 21
4.470444966
  0
LINE
  5
27A
100
AcDbEntity
  8
0
100
AcDbLine
 62
7
  6
CONTINUOUS
 10
-8.6877500276
 20
4.470444966
 11
-4.7144387549
 21
4.470444966
  0
LINE
  5
27B
100
AcDbEntity
  8
DRAFT
100
AcDbLine
 62
7
  6
CONTINUOUS
 10
-8.6877500276
 20
4.470444966
 11
-4.7144387549
 21
4.470444966
  0
LINE
  5
27C
100
AcDbEntity
  8
RACCORDO
100
AcDbLine
 62
7
  6
CONTINUOUS
 10
-21.5423187813
 20
4.520699028
 11
-8.4379926665
 21
4.520699028
  0
LINE
  5
27D
100
AcDbEntity
  8
ASSI
100
AcDbLine
 62
7
  6
CONTINUOUS
 10
-21.5423187813
 20
4.520699028
 11
-8.4379926665
 21
4.520699028
  0
LWPOLYLINE
  5
27E
100
AcDbEntity
  8
0
100
AcDbPolyline
 62
7
  6
CONTINUOUS
 90
13
 70
0
 10
-10.6495701564
 20
4.2493026501
 10
-10.5266979298
 20
4.2491605132
 10
-10.4088261017
 20
4.2487800391
 10
-10.2959546719
 20
4.2481612278
 10
-10.1865988894
 20
4.2472892632
 10
-10.0822435053
 20
4.2461789614
 10
-9.987342773
 20
4.2448747706
 10
-9.9022746887
 20
4.2433647486
 10
-9.8266612561
 20
4.2416608376
 10
-9.7638227401
 20
4.2398433127
 10
-9.7148658955
 20
4.2379389322
 10
-9.6786839674
 20
4.2359209379
 10
-9.6552769557
 20
4.2337893297
  0
LINE
  5
27F
100
AcDbEntity
  8
0
100
AcDbLine
 62
7
  6
CONTINUOUS
 10
-20.2176638931
 20
2.6800539025
 11
-20.3836393263
 21
2.7286759195
  0
LINE
  5
280
100
AcDbEntity
  8
0
100
AcDbLine
 62
7
  6
CONTINUOUS
 10
-20.2176638931
 20
3.1420810655
 11
-20.3836393263
 21
3.2250624619
  0
LINE
  5
281
100
AcDbEntity
  8
0
100
AcDbLine
 62
7
  6
CONTINUOUS
 10
-14.2975410007
 20
5.901249313
 11
-14.6516561368
 21
5.8981589971
  0
LINE
  5
282
100
AcDbEntity
  8
RACCORDO
100
AcDbLine
 62
7
  6
CONTINUOUS
 10
-14.2975410007
 20
5.901249313
 11
-14.6516561368
 21
5.8981589971
  0
LINE
  5
283
100
AcDbEntity
  8
0
100
AcDbLine
 62
7
  6
CONTINUOUS
 10
-9.6510943912
 20
5.8337893297
 11
-14.6510943912
 21
5.8337893297
  0
LINE
  5
284
100
AcDbEntity
  8
ASSI
100
AcDbLine
 62
7
  6
CONTINUOUS
 10
-9.6510943912
 20
5.8337893297
 11
-14.6510943912
 21
5.8337893297
  0
LINE
  5
285
100
AcDbEntity
  8
0
100
AcDbLine
 62
7
  6
CONTINUOUS
 10
-8.0078120364
 20
5.8676198621
 11
-4.7144387549
 21
5.8676198621
  0
LINE
  5
286
100
AcDbEntity
  8
DRAFT
100
AcDbLine
 62
7
  6
CONTINUOUS
 10
-8.0078120364
 20
5.8676198621
 11
-4.7144387549
 21
5.8676198621
  0
LINE
  5
287
100
AcDbEntity
  8
0
100
AcDbLine
 62
7
  6
CONTINUOUS
 10
-3.5510943912
 20
5.8676198621
 11
-2.8849058852
 21
5.8676198621
  0
LINE
  5
288
100
AcDbEntity
  8
RACCORDO
100
AcDbLine
 62
7
  6
CONTINUOUS
 10
-3.5510943912
 20
5.8676198621
 11
-2.8849058852
 21
5.8676198621
  0
LINE
  5
289
100
AcDbEntity
  8
0
100
AcDbLine
 62
7
  6
CONTINUOUS
 10
-3.5510943912
 20
5.8763467299
 11
-4.69698369
 21
5.8763467299
  0
LINE
  5
28A
100
AcDbEntity
  8
DRAFT
100
AcDbLine
 62
7
  6
CONTINUOUS
 10
-3.5510943912
 20
5.8763467299
 11
-4.69698369
 21
5.8763467299
  0
LINE
  5
28B
100
AcDbEntity
  8
RACCORDO
100
AcDbLine
 62
7
  6
CONTINUOUS
 10
-2.7598700011
 20
5.920699028
 11
-7.8380155126
 21
5.920699028
  0
LINE
  5
28C
100
AcDbEntity
  8
ASSI
100
AcDbLine
 62
7
  6
CONTINUOUS
 10
-2.7598700011
 20
5.920699028
 11
-7.8380155126
 21
5.920699028
  0
LINE
  5
28D
100
AcDbEntity
  8
ASSI
100
AcDbLine
 62
7
  6
CONTINUOUS
 10
-14.6510943912
 20
5.9337893297
 11
-9.6510943912
 21
5.9337893297
  0
LINE
  5
28E
100
AcDbEntity
  8
0
100
AcDbLine
 62
7
  6
CONTINUOUS
 10
-10.0046477818
 20
5.901249313
 11
-9.6505326457
 21
5.8981589971
  0
LINE
  5
28F
100
AcDbEntity
  8
RACCORDO
100
AcDbLine
 62
7
  6
CONTINUOUS
 10
-10.0046477818
 20
5.901249313
 11
-9.6505326457
 21
5.8981589971
  0
LWPOLYLINE
  5
290
100
AcDbEntity
  8
0
100
AcDbPolyline
 62
7
  6
CONTINUOUS
 90
9
 70
0
 10
-4.7440128405
 20
-0.3483032961
 10
-4.732864365
 20
-0.3524613917
 10
-4.7215306702
 20
-0.356084312
 10
-4.71003743
 20
-0.359163852
 10
-4.6984106787
 20
-0.361693038
 10
-4.6866767574
 20
-0.3636661445
 10
-4.6748622468
 20
-0.3650787046
 10
-4.6629939073
 20
-0.3659275201
 10
-4.651098622
 20
-0.3662106703
  0
LINE
  5
291
100
AcDbEntity
  8
RACCORDO
100
AcDbLine
 62
7
  6
CONTINUOUS
 10
-20.9510943912
 20
44.9837893297
 11
-22.7153971717
 21
43.2194865492
  0
LINE
  5
292
100
AcDbEntity
  8
0
100
AcDbLine
 62
7
  6
CONTINUOUS
 10
-23.2923675235
 20
42.6425161975
 11
-19.4069122211
 21
46.5279714999
  0
LINE
  5
293
100
AcDbEntity
  8
0
100
AcDbLine
 62
7
  6
CONTINUOUS
 10
-20.3836393263
 20
45.5389027398
 11
-20.2176638931
 21
45.7048781731
  0
LINE
  5
294
100
AcDbEntity
  8
0
100
AcDbLine
 62
7
  6
CONTINUOUS
 10
-20.7782980644
 20
44.9837893297
 11
-22.5932117172
 21
43.1688756768
  0
LINE
  5
295
100
AcDbEntity
  8
RACCORDO
100
AcDbLine
 62
7
  6
CONTINUOUS
 10
-20.7782980644
 20
44.9837893297
 11
-22.5932117172
 21
43.1688756768
  0
LINE
  5
296
100
AcDbEntity
  8
RACCORDO
100
AcDbLine
 62
7
  6
CONTINUOUS
 10
-22.8713026266
 20
42.8320935765
 11
-22.2493986381
 21
43.453997565
  0
LINE
  5
297
100
AcDbEntity
  8
ASSI
100
AcDbLine
 62
7
  6
CONTINUOUS
 10
-22.8713026266
 20
42.8320935765
 11
-22.2493986381
 21
43.453997565
  0
LINE
  5
298
100
AcDbEntity
  8
RACCORDO
100
AcDbLine
 62
7
  6
CONTINUOUS
 10
-22.141406064
 20
43.5471800949
 11
-21.952178779
 21
43.7364072732
  0
LINE
  5
299
100
AcDbEntity
  8
ASSI
100
AcDbLine
 62
7
  6
CONTINUOUS
 10
-22.141406064
 20
43.5471800949
 11
-21.952178779
 21
43.7364072732
  0
LINE
  5
29A
100
AcDbEntity
  8
DRAFT
100
AcDbLine
 62
7
  6
CONTINUOUS
 10
-19.7944068509
 20
45.0337893297
 11
-19.8444068509
 21
44.9837893297
  0
LINE
  5
29B
100
AcDbEntity
  8
DRAFT
100
AcDbLine
 62
7
  6
CONTINUOUS
 10
-19.7697235413
 20
45.0337893297
 11
-19.8197235413
 21
44.9837893297
  0
LINE
  5
29C
100
AcDbEntity
  8
DRAFT
100
AcDbLine
 62
7
  6
CONTINUOUS
 10
-19.4423678557
 20
45.0425158652
 11
-19.4510943912
 21
45.0337893297
  0
LINE
  5
29D
100
AcDbEntity
  8
DRAFT
100
AcDbLine
 62
7
  6
CONTINUOUS
 10
-19.3463719778
 20
45.1297848754
 11
-19.4423678557
 21
45.033789662
  0
LINE
  5
29E
100
AcDbEntity
  8
0
100
AcDbLine
 62
253
  6
CONTINUOUS
 10
-13.3596439909
 20
48.1280879847
 11
-13.3510918528
 21
48.1337893297
  0
LINE
  5
29F
100
AcDbEntity
  8
0
100
AcDbLine
 62
253
  6
CONTINUOUS
 10
-13.1596617612
 20
47.9280845995
 11
-13.1510943912
 21
47.9337960989
  0
LINE
  5
2A0
100
AcDbEntity
  8
0
100
AcDbLine
 62
7
  6
CONTINUOUS
 10
-13.1510943912
 20
46.5337893297
 11
-13.1597683446
 21
46.5285850422
  0
LWPOLYLINE
  5
2A1
100
AcDbEntity
  8
0
100
AcDbPolyline
 62
7
  6
CONTINUOUS
 90
18
 70
0
 10
-4.7440128405
 20
48.6158819555
 10
-4.7549508375
 20
48.6111981019
 10
-4.7656535788
 20
48.6059990985
 10
-4.7760968195
 20
48.6002967213
 10
-4.7862568972
 20
48.5941038878
 10
-4.7961107964
 20
48.5874346252
 10
-4.8056361951
 20
48.5803040404
 10
-4.8148115103
 20
48.5727282886
 10
-4.8236159573
 20
48.5647245302
 10
-4.8320295917
 20
48.5563108958
 10
-4.8400333501
 20
48.5475064487
 10
-4.847609102
 20
48.5383311335
 10
-4.8547396867
 20
48.5288057348
 10
-4.8614089494
 20
48.5189518356
 10
-4.8676017829
 20
48.508791758
 10
-4.8733041601
 20
48.4983485173
 10
-4.8785031634
 20
48.487645776
 10
-4.883187017
 20
48.476707779
  0
LINE
  5
2A2
100
AcDbEntity
  8
0
100
AcDbLine
 62
253
  6
CONTINUOUS
 10
-13.9032368566
 20
6.8480334037
 11
-13.8510943912
 21
6.852117487
  0
LINE
  5
2A3
100
AcDbEntity
  8
RACCORDO
100
AcDbLine
 62
253
  6
CONTINUOUS
 10
-13.9032368566
 20
6.8480334037
 11
-13.8510943912
 21
6.852117487
  0
LINE
  5
2A4
100
AcDbEntity
  8
ASSI
100
AcDbLine
 62
7
  6
CONTINUOUS
 10
-14.6510943912
 20
6.6337893297
 11
-9.6510943912
 21
6.6337893297
  0
LINE
  5
2A5
100
AcDbEntity
  8
RACCORDO
100
AcDbLine
 62
7
  6
CONTINUOUS
 10
-13.755087422
 20
6.8337893297
 11
-10.5471013605
 21
6.8337893297
  0
LINE
  5
2A6
100
AcDbEntity
  8
ASSI
100
AcDbLine
 62
7
  6
CONTINUOUS
 10
-13.755087422
 20
6.8337893297
 11
-10.5471013605
 21
6.8337893297
  0
LINE
  5
2A7
100
AcDbEntity
  8
0
100
AcDbLine
 62
253
  6
CONTINUOUS
 10
-10.4510943912
 20
6.852117487
 11
-13.8510943912
 21
6.852117487
  0
LINE
  5
2A8
100
AcDbEntity
  8
RACCORDO
100
AcDbLine
 62
253
  6
CONTINUOUS
 10
-10.4510943912
 20
6.852117487
 11
-13.8510943912
 21
6.852117487
  0
LINE
  5
2A9
100
AcDbEntity
  8
0
100
AcDbLine
 62
7
  6
CONTINUOUS
 10
-10.4510943912
 20
6.8837893297
 11
-13.8510943912
 21
6.8837893297
  0
LINE
  5
2AA
100
AcDbEntity
  8
RACCORDO
100
AcDbLine
 62
7
  6
CONTINUOUS
 10
-10.4510943912
 20
6.8837893297
 11
-13.8510943912
 21
6.8837893297
  0
LINE
  5
2AB
100
AcDbEntity
  8
CURVE
100
AcDbLine
 62
253
  6
CONTINUOUS
 10
-1.0943401051
 20
6.9980746557
 11
-1.1085513505
 21
6.9980746557
  0
LINE
  5
2AC
100
AcDbEntity
  8
CURVE
100
AcDbLine
 62
7
  6
CONTINUOUS
 10
-1.0272969785
 20
7.1323523297
 11
-1.0778854393
 21
7.1323523297
  0
LINE
  5
2AD
100
AcDbEntity
  8
0
100
AcDbLine
 62
7
  6
CONTINUOUS
 10
-14.6510943912
 20
7.5337893297
 11
-9.6510943912
 21
7.5337893297
  0
LINE
  5
2AE
100
AcDbEntity
  8
ASSI
100
AcDbLine
 62
7
  6
CONTINUOUS
 10
-14.6510943912
 20
7.5337893297
 11
-9.6510943912
 21
7.5337893297
  0
LINE
  5
2AF
100
AcDbEntity
  8
SMUSSO
100
AcDbLine
 62
7
  6
CONTINUOUS
 10
-11.9010943912
 20
7.8837893297
 11
-16.9010943912
 21
7.8837893297
  0
LINE
  5
2B0
100
AcDbEntity
  8
ASSI
100
AcDbLine
 62
7
  6
CONTINUOUS
 10
-11.9010943912
 20
7.8837893297
 11
-16.9010943912
 21
7.8837893297
  0
LINE
  5
2B1
100
AcDbEntity
  8
CURVE
100
AcDbLine
 62
253
  6
CONTINUOUS
 10
-1.1085513505
 20
7.9480746557
 11
-1.0943401051
 21
7.9480746557
  0
LINE
  5
2B2
100
AcDbEntity
  8
RACCORDO
100
AcDbLine
 62
7
  6
CONTINUOUS
 10
-1.4380155131
 20
7.9837893297
 11
-2.3510943912
 21
7.9837893297
  0
LINE
  5
2B3
100
AcDbEntity
  8
ASSI
100
AcDbLine
 62
7
  6
CONTINUOUS
 10
-1.4380155131
 20
7.9837893297
 11
-2.3510943912
 21
7.9837893297
  0
LINE
  5
2B4
100
AcDbEntity
  8
SMUSSO
100
AcDbLine
 62
7
  6
CONTINUOUS
 10
-12.4010943912
 20
8.3837893297
 11
-16.4010943912
 21
8.3837893297
  0
LINE
  5
2B5
100
AcDbEntity
  8
ASSI
100
AcDbLine
 62
7
  6
CONTINUOUS
 10
-12.4010943912
 20
8.3837893297
 11
-16.4010943912
 21
8.3837893297
  0
LINE
  5
2B6
100
AcDbEntity
  8
CURVE
100
AcDbLine
 62
253
  6
CONTINUOUS
 10
-1.0943401051
 20
8.4909324457
 11
-1.0896030236
 21
8.4909324457
  0
LINE
  5
2B7
100
AcDbEntity
  8
CURVE
100
AcDbLine
 62
7
  6
CONTINUOUS
 10
-1.0630266296
 20
7.6307903297
 11
-1.0272969785
 21
7.6307803297
  0
LINE
  5
2B8
100
AcDbEntity
  8
0
100
AcDbLine
 62
253
  6
CONTINUOUS
 10
-10.3989519259
 20
6.8480334037
 11
-10.4510943912
 21
6.852117487
  0
LINE
  5
2B9
100
AcDbEntity
  8
RACCORDO
100
AcDbLine
 62
253
  6
CONTINUOUS
 10
-10.3989519259
 20
6.8480334037
 11
-10.4510943912
 21
6.852117487
  0
LINE
  5
2BA
100
AcDbEntity
  8
0
100
AcDbLine
 62
7
  6
CONTINUOUS
 10
-13.1597683446
 20
1.7389936172
 11
-13.1510943912
 21
1.7337893297
  0
LINE
  5
2BB
100
AcDbEntity
  8
0
100
AcDbLine
 62
253
  6
CONTINUOUS
 10
-13.3510918528
 20
0.1337893297
 11
-13.3596439909
 21
0.1394906747
  0
LINE
  5
2BC
100
AcDbEntity
  8
0
100
AcDbLine
 62
253
  6
CONTINUOUS
 10
-13.1510943912
 20
0.3337825605
 11
-13.1596617612
 21
0.3394940599
  0
LINE
  5
2BD
100
AcDbEntity
  8
RACCORDO
100
AcDbLine
 62
7
  6
CONTINUOUS
 10
-22.7153971717
 20
5.0480921102
 11
-20.9510943912
 21
3.2837893297
  0
LINE
  5
2BE
100
AcDbEntity
  8
0
100
AcDbLine
 62
7
  6
CONTINUOUS
 10
-19.4069122211
 20
1.7396071595
 11
-23.2923675235
 21
5.6250624619
  0
LINE
  5
2BF
100
AcDbEntity
  8
0
100
AcDbLine
 62
7
  6
CONTINUOUS
 10
-20.3836393263
 20
2.7286759195
 11
-20.2176638931
 21
2.5627004863
  0
LINE
  5
2C0
100
AcDbEntity
  8
0
100
AcDbLine
 62
7
  6
CONTINUOUS
 10
-22.5932117172
 20
5.0987029825
 11
-20.7782980644
 21
3.2837893297
  0
LINE
  5
2C1
100
AcDbEntity
  8
RACCORDO
100
AcDbLine
 62
7
  6
CONTINUOUS
 10
-22.5932117172
 20
5.0987029825
 11
-20.7782980644
 21
3.2837893297
  0
LINE
  5
2C2
100
AcDbEntity
  8
RACCORDO
100
AcDbLine
 62
7
  6
CONTINUOUS
 10
-22.2493986381
 20
4.8135810943
 11
-22.8713026266
 21
5.4354850829
  0
LINE
  5
2C3
100
AcDbEntity
  8
ASSI
100
AcDbLine
 62
7
  6
CONTINUOUS
 10
-22.2493986381
 20
4.8135810943
 11
-22.8713026266
 21
5.4354850829
  0
LINE
  5
2C4
100
AcDbEntity
  8
DRAFT
100
AcDbLine
 62
7
  6
CONTINUOUS
 10
-19.8444068509
 20
3.2837893297
 11
-19.7944068509
 21
3.2337893297
  0
LINE
  5
2C5
100
AcDbEntity
  8
DRAFT
100
AcDbLine
 62
7
  6
CONTINUOUS
 10
-19.8197235413
 20
3.2837893297
 11
-19.7697235413
 21
3.2337893297
  0
LINE
  5
2C6
100
AcDbEntity
  8
DRAFT
100
AcDbLine
 62
7
  6
CONTINUOUS
 10
-19.3463719778
 20
3.137793784
 11
-19.4423675235
 21
3.2337893297
  0
LWPOLYLINE
  5
2C7
100
AcDbEntity
  8
0
100
AcDbPolyline
 62
7
  6
CONTINUOUS
 90
5
 70
0
 10
-15.6851786689
 20
48.0394607021
 10
-15.6917035958
 20
48.0318107486
 10
-15.6988941089
 20
48.0234666665
 10
-15.7067679949
 20
48.0144284559
 10
-15.7153395389
 20
48.0047126482
  0
LINE
  5
2C8
100
AcDbEntity
  8
0
100
AcDbLine
 62
7
  6
CONTINUOUS
 10
-15.7153395389
 20
48.0047126482
 11
-15.7346466102
 21
47.9831490527
  0
LINE
  5
2C9
100
AcDbEntity
  8
0
100
AcDbLine
 62
7
  6
CONTINUOUS
 10
-15.7346466102
 20
47.9831490527
 11
-15.7569668657
 21
47.9585704485
  0
LINE
  5
2CA
100
AcDbEntity
  8
0
100
AcDbLine
 62
7
  6
CONTINUOUS
 10
-15.7569668657
 20
47.9585704485
 11
-15.7822539657
 21
47.9310469319
  0
LINE
  5
2CB
100
AcDbEntity
  8
0
100
AcDbLine
 62
7
  6
CONTINUOUS
 10
-15.7822539657
 20
47.9310469319
 11
-15.8104782637
 21
47.9006049401
  0
LINE
  5
2CC
100
AcDbEntity
  8
0
100
AcDbLine
 62
7
  6
CONTINUOUS
 10
-15.8104782637
 20
47.9006049401
 11
-15.8415453592
 21
47.8673255494
  0
LINE
  5
2CD
100
AcDbEntity
  8
0
100
AcDbLine
 62
7
  6
CONTINUOUS
 10
-15.8415453592
 20
47.8673255494
 11
-15.8937318038
 21
47.8118059135
  0
LINE
  5
2CE
100
AcDbEntity
  8
0
100
AcDbLine
 62
7
  6
CONTINUOUS
 10
-15.8937318038
 20
47.8118059135
 11
-15.9527000568
 21
47.7494364525
  0
LWPOLYLINE
  5
2CF
100
AcDbEntity
  8
0
100
AcDbPolyline
 62
7
  6
CONTINUOUS
 90
4
 70
0
 10
-15.9527000568
 20
47.7494364525
 10
-16.0386898323
 20
47.6589195876
 10
-16.0605380354
 20
47.6360251807
 10
-16.1041371012
 20
47.5901471444
  0
LINE
  5
2D0
100
AcDbEntity
  8
0
100
AcDbLine
 62
7
  6
CONTINUOUS
 10
-19.5510943912
 20
43.8337893297
 11
-19.5877500276
 21
43.7971336933
  0
LINE
  5
2D1
100
AcDbEntity
  8
DRAFT
100
AcDbLine
 62
7
  6
CONTINUOUS
 10
-19.5510943912
 20
43.8337893297
 11
-19.5877500276
 21
43.7971336933
  0
LINE
  5
2D2
100
AcDbEntity
  8
DRAFT
100
AcDbLine
 62
7
  6
CONTINUOUS
 10
-19.3463719778
 20
43.9385117432
 11
-19.4467309573
 21
43.8381527636
  0
LINE
  5
2D3
100
AcDbEntity
  8
0
100
AcDbLine
 62
7
  6
CONTINUOUS
 10
-15.6910943912
 20
8.6337893297
 11
-12.7510943912
 21
8.6337893297
  0
LINE
  5
2D4
100
AcDbEntity
  8
0
100
AcDbLine
 62
7
  6
CONTINUOUS
 10
-2.2925278695
 20
9.2559747842
 11
-2.3510943912
 21
9.2559747842
  0
LINE
  5
2D5
100
AcDbEntity
  8
RACCORDO
100
AcDbLine
 62
7
  6
CONTINUOUS
 10
-2.2925278695
 20
9.2559747842
 11
-2.3510943912
 21
9.2559747842
  0
LINE
  5
2D6
100
AcDbEntity
  8
0
100
AcDbLine
 62
253
  6
CONTINUOUS
 10
-2.2924810713
 20
9.2682847195
 11
-2.3510943912
 21
9.2682847195
  0
LINE
  5
2D7
100
AcDbEntity
  8
RACCORDO
100
AcDbLine
 62
253
  6
CONTINUOUS
 10
-2.2924810713
 20
9.2682847195
 11
-2.3510943912
 21
9.2682847195
  0
LINE
  5
2D8
100
AcDbEntity
  8
CURVE
100
AcDbLine
 62
7
  6
CONTINUOUS
 10
-1.0778854393
 20
9.4735793297
 11
-1.0272969785
 21
9.4735793297
  0
LINE
  5
2D9
100
AcDbEntity
  8
0
100
AcDbLine
 62
253
  6
CONTINUOUS
 10
-2.2915536187
 20
9.568239028
 11
-2.3510943912
 21
9.568239028
  0
LINE
  5
2DA
100
AcDbEntity
  8
RACCORDO
100
AcDbLine
 62
253
  6
CONTINUOUS
 10
-2.2915536187
 20
9.568239028
 11
-2.3510943912
 21
9.568239028
  0
LINE
  5
2DB
100
AcDbEntity
  8
CURVE
100
AcDbLine
 62
253
  6
CONTINUOUS
 10
-20.0510943912
 20
9.8337893297
 11
-18.1510943912
 21
9.8337893297
  0
LINE
  5
2DC
100
AcDbEntity
  8
CURVE
100
AcDbLine
 62
253
  6
CONTINUOUS
 10
-1.0848659421
 20
9.9837893297
 11
-1.1180255144
 21
9.9837893297
  0
LINE
  5
2DD
100
AcDbEntity
  8
0
100
AcDbLine
 62
7
  6
CONTINUOUS
 10
-19.5510943912
 20
4.4337893297
 11
-19.5877500276
 21
4.470444966
  0
LINE
  5
2DE
100
AcDbEntity
  8
DRAFT
100
AcDbLine
 62
7
  6
CONTINUOUS
 10
-19.5510943912
 20
4.4337893297
 11
-19.5877500276
 21
4.470444966
  0
LINE
  5
2DF
100
AcDbEntity
  8
DRAFT
100
AcDbLine
 62
7
  6
CONTINUOUS
 10
-19.3463719778
 20
4.3290669162
 11
-19.4467309573
 21
4.4294258958
  0
LINE
  5
2E0
100
AcDbEntity
  8
0
100
AcDbLine
 62
7
  6
CONTINUOUS
 10
-16.0824219989
 20
0.654530381
 11
-16.0168398603
 21
0.5857049304
  0
LINE
  5
2E1
100
AcDbEntity
  8
0
100
AcDbLine
 62
7
  6
CONTINUOUS
 10
-16.1041371012
 20
0.677431515
 11
-16.0824219989
 21
0.654530381
  0
LINE
  5
2E2
100
AcDbEntity
  8
0
100
AcDbLine
 62
7
  6
CONTINUOUS
 10
-16.0168398603
 20
0.5857049304
 11
-15.9322496651
 21
0.4965292103
  0
LINE
  5
2E3
100
AcDbEntity
  8
0
100
AcDbLine
 62
7
  6
CONTINUOUS
 10
-15.9322496651
 20
0.4965292103
 11
-15.8755736941
 21
0.4364891463
  0
LINE
  5
2E4
100
AcDbEntity
  8
0
100
AcDbLine
 62
7
  6
CONTINUOUS
 10
-15.8755736941
 20
0.4364891463
 11
-15.8415470147
 21
0.4002546025
  0
LINE
  5
2E5
100
AcDbEntity
  8
0
100
AcDbLine
 62
7
  6
CONTINUOUS
 10
-15.8415470147
 20
0.4002546025
 11
-15.8104860052
 21
0.3669820385
  0
LINE
  5
2E6
100
AcDbEntity
  8
0
100
AcDbLine
 62
7
  6
CONTINUOUS
 10
-15.8104860052
 20
0.3669820385
 11
-15.7822306953
 21
0.3365073029
  0
LINE
  5
2E7
100
AcDbEntity
  8
0
100
AcDbLine
 62
7
  6
CONTINUOUS
 10
-15.7822306953
 20
0.3365073029
 11
-15.7569233016
 21
0.3089605269
  0
LINE
  5
2E8
100
AcDbEntity
  8
0
100
AcDbLine
 62
7
  6
CONTINUOUS
 10
-15.7569233016
 20
0.3089605269
 11
-15.7346013653
 21
0.2843794483
  0
LWPOLYLINE
  5
2E9
100
AcDbEntity
  8
0
100
AcDbPolyline
 62
7
  6
CONTINUOUS
 90
6
 70
0
 10
-15.7346013653
 20
0.2843794483
 10
-15.7153098364
 20
0.2628322782
 10
-15.7067471058
 20
0.253126417
 10
-15.6988807085
 20
0.2440964225
 10
-15.691697192
 20
0.2357602693
 10
-15.6851786689
 20
0.2281179573
  0
LWPOLYLINE
  5
2EA
100
AcDbEntity
  8
0
100
AcDbPolyline
 62
7
  6
CONTINUOUS
 90
18
 70
0
 10
-22.283187017
 20
-0.2091291196
 10
-22.2785031634
 20
-0.2200671166
 10
-22.2733041601
 20
-0.2307698579
 10
-22.2676017829
 20
-0.2412130986
 10
-22.2614089494
 20
-0.2513731762
 10
-22.2547396867
 20
-0.2612270754
 10
-22.247609102
 20
-0.2707524742
 10
-22.2400333501
 20
-0.2799277894
 10
-22.2320295917
 20
-0.2887322364
 10
-22.2236159573
 20
-0.2971458708
 10
-22.2148115103
 20
-0.3051496292
 10
-22.2056361951
 20
-0.312725381
 10
-22.1961107964
 20
-0.3198559658
 10
-22.1862568972
 20
-0.3265252284
 10
-22.1760968195
 20
-0.332718062
 10
-22.1656535788
 20
-0.3384204391
 10
-22.1549508375
 20
-0.3436194425
 10
-22.1440128405
 20
-0.3483032961
  0
LWPOLYLINE
  5
2EB
100
AcDbEntity
  8
0
100
AcDbPolyline
 62
7
  6
CONTINUOUS
 90
9
 70
0
 10
-22.283187017
 20
48.476707779
 10
-22.2873451126
 20
48.4655593035
 10
-22.290968033
 20
48.4542256087
 10
-22.294047573
 20
48.4427323685
 10
-22.296576759
 20
48.4311056172
 10
-22.2985498654
 20
48.4193716958
 10
-22.2999624255
 20
48.4075571853
 10
-22.300811241
 20
48.3956888457
 10
-22.3010943912
 20
48.3837935605
  0
LINE
  5
2EC
100
AcDbEntity
  8
CURVE
100
AcDbLine
 62
253
  6
CONTINUOUS
 10
-22.4510943912
 20
11.0052179177
 11
-21.1510943912
 21
11.0052179177
  0
LINE
  5
2ED
100
AcDbEntity
  8
0
100
AcDbLine
 62
7
  6
CONTINUOUS
 10
-12.7510943912
 20
11.6337893297
 11
-15.6910943912
 21
11.6337893297
  0
LINE
  5
2EE
100
AcDbEntity
  8
SMUSSO
100
AcDbLine
 62
7
  6
CONTINUOUS
 10
-16.4010943912
 20
11.8837893297
 11
-12.4010943912
 21
11.8837893297
  0
LINE
  5
2EF
100
AcDbEntity
  8
ASSI
100
AcDbLine
 62
7
  6
CONTINUOUS
 10
-16.4010943912
 20
11.8837893297
 11
-12.4010943912
 21
11.8837893297
  0
LINE
  5
2F0
100
AcDbEntity
  8
CURVE
100
AcDbLine
 62
253
  6
CONTINUOUS
 10
-22.079665842
 20
12.0266464283
 11
-22.2653801166
 21
12.0266464283
  0
LINE
  5
2F1
100
AcDbEntity
  8
CURVE
100
AcDbLine
 62
253
  6
CONTINUOUS
 10
-1.1132884324
 20
12.1552177717
 11
-1.103814269
 21
12.1552177717
  0
LINE
  5
2F2
100
AcDbEntity
  8
RACCORDO
100
AcDbLine
 62
7
  6
CONTINUOUS
 10
-1.4380155131
 20
12.2837893297
 11
-2.3510943912
 21
12.2837893297
  0
LINE
  5
2F3
100
AcDbEntity
  8
ASSI
100
AcDbLine
 62
7
  6
CONTINUOUS
 10
-1.4380155131
 20
12.2837893297
 11
-2.3510943912
 21
12.2837893297
  0
LINE
  5
2F4
100
AcDbEntity
  8
SMUSSO
100
AcDbLine
 62
7
  6
CONTINUOUS
 10
-16.9010943912
 20
12.3837893297
 11
-11.9010943912
 21
12.3837893297
  0
LINE
  5
2F5
100
AcDbEntity
  8
ASSI
100
AcDbLine
 62
7
  6
CONTINUOUS
 10
-16.9010943912
 20
12.3837893297
 11
-11.9010943912
 21
12.3837893297
  0
LINE
  5
2F6
100
AcDbEntity
  8
CURVE
100
AcDbLine
 62
253
  6
CONTINUOUS
 10
-21.5225229793
 20
12.3980749776
 11
-22.079665842
 21
12.3980749776
  0
LINE
  5
2F7
100
AcDbEntity
  8
CURVE
100
AcDbLine
 62
253
  6
CONTINUOUS
 10
-22.079665842
 20
12.3980749776
 11
-22.2653801166
 21
12.4909322311
  0
LINE
  5
2F8
100
AcDbEntity
  8
CURVE
100
AcDbLine
 62
253
  6
CONTINUOUS
 10
-22.4510943912
 20
11.5623607804
 11
-22.1725229405
 21
11.3766465058
  0
LINE
  5
2F9
100
AcDbEntity
  8
CURVE
100
AcDbLine
 62
253
  6
CONTINUOUS
 10
-21.1510943912
 20
11.3766465058
 11
-22.079665842
 21
12.0266464283
  0
LINE
  5
2FA
100
AcDbEntity
  8
CURVE
100
AcDbLine
 62
253
  6
CONTINUOUS
 10
-22.079665842
 20
10.6337893297
 11
-22.4510943912
 21
11.0052179177
  0
LINE
  5
2FB
100
AcDbEntity
  8
0
100
AcDbLine
 62
7
  6
CONTINUOUS
 10
-7.7447450381
 20
48.0901386828
 11
-7.7010943912
 21
48.1337893297
  0
LWPOLYLINE
  5
2FC
100
AcDbEntity
  8
0
100
AcDbPolyline
 62
253
  6
CONTINUOUS
 90
3
 70
0
 10
-10.2577722005
 20
41.4786035006
 10
-10.3008177346
 20
41.4515533696
 10
-10.3483424546
 20
41.4316908735
  0
LWPOLYLINE
  5
2FD
100
AcDbEntity
  8
RACCORDO
100
AcDbPolyline
 62
253
  6
CONTINUOUS
 90
3
 70
0
 10
-10.2577722005
 20
41.4786035006
 10
-10.3008177346
 20
41.4515533696
 10
-10.3483424546
 20
41.4316908735
  0
LINE
  5
2FE
100
AcDbEntity
  8
0
100
AcDbLine
 62
253
  6
CONTINUOUS
 10
-1.5867916108
 20
43.2194865492
 11
-1.7089770653
 21
43.1688756768
  0
LINE
  5
2FF
100
AcDbEntity
  8
RACCORDO
100
AcDbLine
 62
253
  6
CONTINUOUS
 10
-1.5867916108
 20
43.2194865492
 11
-1.7089770653
 21
43.1688756768
  0
LINE
  5
300
100
AcDbEntity
  8
0
100
AcDbLine
 62
253
  6
CONTINUOUS
 10
-1.0010943912
 20
41.8054883784
 11
-1.1232798457
 21
41.754877506
  0
LINE
  5
301
100
AcDbEntity
  8
RACCORDO
100
AcDbLine
 62
253
  6
CONTINUOUS
 10
-1.0010943912
 20
41.8054883784
 11
-1.1232798457
 21
41.754877506
  0
LINE
  5
302
100
AcDbEntity
  8
SMUSSO
100
AcDbLine
 62
7
  6
CONTINUOUS
 10
-11.9010943912
 20
12.8837893297
 11
-16.9010943912
 21
12.8837893297
  0
LINE
  5
303
100
AcDbEntity
  8
ASSI
100
AcDbLine
 62
7
  6
CONTINUOUS
 10
-11.9010943912
 20
12.8837893297
 11
-16.9010943912
 21
12.8837893297
  0
LINE
  5
304
100
AcDbEntity
  8
RACCORDO
100
AcDbLine
 62
7
  6
CONTINUOUS
 10
-1.4380155131
 20
12.9837893297
 11
-2.3510943912
 21
12.9837893297
  0
LINE
  5
305
100
AcDbEntity
  8
ASSI
100
AcDbLine
 62
7
  6
CONTINUOUS
 10
-1.4380155131
 20
12.9837893297
 11
-2.3510943912
 21
12.9837893297
  0
LINE
  5
306
100
AcDbEntity
  8
CURVE
100
AcDbLine
 62
253
  6
CONTINUOUS
 10
-22.079665842
 20
13.0480749776
 11
-21.5225229793
 21
13.0480749776
  0
LINE
  5
307
100
AcDbEntity
  8
CURVE
100
AcDbLine
 62
253
  6
CONTINUOUS
 10
-1.1014457283
 20
13.1052177717
 11
-1.1132884324
 21
13.1052177717
  0
LINE
  5
308
100
AcDbEntity
  8
SMUSSO
100
AcDbLine
 62
7
  6
CONTINUOUS
 10
-12.4010943912
 20
13.3837893297
 11
-16.4010943912
 21
13.3837893297
  0
LINE
  5
309
100
AcDbEntity
  8
ASSI
100
AcDbLine
 62
7
  6
CONTINUOUS
 10
-12.4010943912
 20
13.3837893297
 11
-16.4010943912
 21
13.3837893297
  0
LINE
  5
30A
100
AcDbEntity
  8
0
100
AcDbLine
 62
7
  6
CONTINUOUS
 10
-15.6910943912
 20
13.6337893297
 11
-12.7510943912
 21
13.6337893297
  0
LINE
  5
30B
100
AcDbEntity
  8
CURVE
100
AcDbLine
 62
253
  6
CONTINUOUS
 10
-1.1156569734
 20
13.6480751087
 11
-1.103814269
 21
13.6480751087
  0
LINE
  5
30C
100
AcDbEntity
  8
CURVE
100
AcDbLine
 62
253
  6
CONTINUOUS
 10
-1.0967086468
 20
13.6933130314
 11
-1.0896030236
 21
13.6933130314
  0
LINE
  5
30D
100
AcDbEntity
  8
CURVE
100
AcDbLine
 62
7
  6
CONTINUOUS
 10
-1.0425457552
 20
8.9681333297
 11
-1.0778854393
 21
8.9751573297
  0
LINE
  5
30E
100
AcDbEntity
  8
CURVE
100
AcDbLine
 62
253
  6
CONTINUOUS
 10
-21.1510943912
 20
13.7909322311
 11
-22.4510943912
 21
14.1623606254
  0
LINE
  5
30F
100
AcDbEntity
  8
0
100
AcDbLine
 62
253
  6
CONTINUOUS
 10
-1.7089770653
 20
5.0987029825
 11
-1.5867916108
 21
5.0480921102
  0
LINE
  5
310
100
AcDbEntity
  8
RACCORDO
100
AcDbLine
 62
253
  6
CONTINUOUS
 10
-1.7089770653
 20
5.0987029825
 11
-1.5867916108
 21
5.0480921102
  0
LINE
  5
311
100
AcDbEntity
  8
0
100
AcDbLine
 62
253
  6
CONTINUOUS
 10
-1.1232798457
 20
6.5127011533
 11
-1.0010943912
 21
6.462090281
  0
LINE
  5
312
100
AcDbEntity
  8
RACCORDO
100
AcDbLine
 62
253
  6
CONTINUOUS
 10
-1.1232798457
 20
6.5127011533
 11
-1.0010943912
 21
6.462090281
  0
LINE
  5
313
100
AcDbEntity
  8
CURVE
100
AcDbLine
 62
253
  6
CONTINUOUS
 10
-21.5225229793
 20
13.0480749776
 11
-21.3368086853
 21
12.955217879
  0
LWPOLYLINE
  5
314
100
AcDbEntity
  8
0
100
AcDbPolyline
 62
253
  6
CONTINUOUS
 90
4
 70
0
 10
-10.2577722005
 20
6.7889751588
 10
-10.3008177346
 20
6.8160252898
 10
-10.3483424546
 20
6.8358877859
 10
-10.3989519259
 20
6.8480334037
  0
LWPOLYLINE
  5
315
100
AcDbEntity
  8
RACCORDO
100
AcDbPolyline
 62
253
  6
CONTINUOUS
 90
4
 70
0
 10
-10.2577722005
 20
6.7889751588
 10
-10.3008177346
 20
6.8160252898
 10
-10.3483424546
 20
6.8358877859
 10
-10.3989519259
 20
6.8480334037
  0
LINE
  5
316
100
AcDbEntity
  8
CURVE
100
AcDbLine
 62
253
  6
CONTINUOUS
 10
-22.2653801166
 20
12.4909322311
 11
-22.4510943912
 21
12.6766464283
  0
LINE
  5
317
100
AcDbEntity
  8
CURVE
100
AcDbLine
 62
253
  6
CONTINUOUS
 10
-21.3368086853
 20
12.955217879
 11
-21.1510943912
 21
12.7695036818
  0
LINE
  5
318
100
AcDbEntity
  8
0
100
AcDbLine
 62
7
  6
CONTINUOUS
 10
-7.7447450381
 20
0.1774399766
 11
-7.7010943912
 21
0.1337893297
  0
LINE
  5
319
100
AcDbEntity
  8
0
100
AcDbLine
 62
7
  6
CONTINUOUS
 10
-7.8137544711
 20
47.9996532337
 11
-7.8330828534
 21
47.9781441576
  0
LINE
  5
31A
100
AcDbEntity
  8
0
100
AcDbLine
 62
7
  6
CONTINUOUS
 10
-7.8330828534
 20
47.9781441576
 11
-7.8552285204
 21
47.953822956
  0
LINE
  5
31B
100
AcDbEntity
  8
0
100
AcDbLine
 62
7
  6
CONTINUOUS
 10
-7.8552285204
 20
47.953822956
 11
-7.8803009172
 21
47.9265722578
  0
LINE
  5
31C
100
AcDbEntity
  8
0
100
AcDbLine
 62
7
  6
CONTINUOUS
 10
-7.8803009172
 20
47.9265722578
 11
-7.9083526758
 21
47.8963515345
  0
LINE
  5
31D
100
AcDbEntity
  8
0
100
AcDbLine
 62
7
  6
CONTINUOUS
 10
-7.9083526758
 20
47.8963515345
 11
-7.939383789
 21
47.8631323275
  0
LINE
  5
31E
100
AcDbEntity
  8
0
100
AcDbLine
 62
7
  6
CONTINUOUS
 10
-7.939383789
 20
47.8631323275
 11
-7.9912649086
 21
47.8079665535
  0
LINE
  5
31F
100
AcDbEntity
  8
0
100
AcDbLine
 62
7
  6
CONTINUOUS
 10
-7.9912649086
 20
47.8079665535
 11
-8.0691169571
 21
47.7257333357
  0
LWPOLYLINE
  5
320
100
AcDbEntity
  8
0
100
AcDbPolyline
 62
7
  6
CONTINUOUS
 90
3
 70
0
 10
-8.0691169571
 20
47.7257333357
 10
-8.1324323299
 20
47.6591005039
 10
-8.1980516813
 20
47.5901471444
  0
LINE
  5
321
100
AcDbEntity
  8
0
100
AcDbLine
 62
7
  6
CONTINUOUS
 10
-7.7010943912
 20
46.5337893297
 11
-7.7450166383
 21
46.4898670826
  0
LINE
  5
322
100
AcDbEntity
  8
0
100
AcDbLine
 62
7
  6
CONTINUOUS
 10
-4.9605527651
 20
46.4697593552
 11
-4.8952765614
 21
46.5279714999
  0
LINE
  5
323
100
AcDbEntity
  8
0
100
AcDbLine
 62
253
  6
CONTINUOUS
 10
-1.5010880452
 20
46.5337893297
 11
-1.5098149129
 21
46.5279714999
  0
LINE
  5
324
100
AcDbEntity
  8
0
100
AcDbLine
 62
253
  6
CONTINUOUS
 10
-1.0010943912
 20
46.0338062527
 11
-1.009821259
 21
46.0279884229
  0
LINE
  5
325
100
AcDbEntity
  8
CURVE
100
AcDbLine
 62
253
  6
CONTINUOUS
 10
-9.079665842
 20
36.1337893297
 11
-8.1510943912
 21
36.4123609354
  0
LINE
  5
326
100
AcDbEntity
  8
CURVE
100
AcDbLine
 62
253
  6
CONTINUOUS
 10
-5.079665842
 20
36.1337893297
 11
-4.1510943912
 21
36.4123609354
  0
LINE
  5
327
100
AcDbEntity
  8
CURVE
100
AcDbLine
 62
7
  6
CONTINUOUS
 10
-1.0603531013
 20
14.7622143297
 11
-1.0778854393
 21
14.7622043297
  0
LINE
  5
328
100
AcDbEntity
  8
CURVE
100
AcDbLine
 62
253
  6
CONTINUOUS
 10
-18.1510943912
 20
14.6337893297
 11
-20.0510943912
 21
14.6337893297
  0
LINE
  5
329
100
AcDbEntity
  8
CURVE
100
AcDbLine
 62
253
  6
CONTINUOUS
 10
-1.0848659421
 20
15.0052179982
 11
-1.1180255144
 21
15.0052179982
  0
LINE
  5
32A
100
AcDbEntity
  8
CURVE
100
AcDbLine
 62
7
  6
CONTINUOUS
 10
-1.0778854393
 20
15.2799513297
 11
-1.0272969785
 21
15.2799513297
  0
LINE
  5
32B
100
AcDbEntity
  8
CURVE
100
AcDbLine
 62
253
  6
CONTINUOUS
 10
-19.779665836
 20
15.5837893297
 11
-19.2368087255
 21
15.5837893297
  0
LINE
  5
32C
100
AcDbEntity
  8
CURVE
100
AcDbLine
 62
7
  6
CONTINUOUS
 10
-1.0272969785
 20
15.8956823297
 11
-1.0778854393
 21
15.8956823297
  0
LINE
  5
32D
100
AcDbEntity
  8
CURVE
100
AcDbLine
 62
253
  6
CONTINUOUS
 10
-1.0943401051
 20
16.0909322192
 11
-1.1085513505
 21
16.0909322192
  0
LINE
  5
32E
100
AcDbEntity
  8
CURVE
100
AcDbLine
 62
7
  6
CONTINUOUS
 10
-1.0778854393
 20
16.4134513297
 11
-1.0272969785
 21
16.4134513297
  0
LINE
  5
32F
100
AcDbEntity
  8
CURVE
100
AcDbLine
 62
7
  6
CONTINUOUS
 10
-1.0272969785
 20
14.7622043297
 11
-1.049353635
 21
14.7622143297
  0
LINE
  5
330
100
AcDbEntity
  8
0
100
AcDbLine
 62
253
  6
CONTINUOUS
 10
-1.5098149129
 20
1.7396071595
 11
-1.5010880452
 21
1.7337893297
  0
LINE
  5
331
100
AcDbEntity
  8
0
100
AcDbLine
 62
253
  6
CONTINUOUS
 10
-1.009821259
 20
2.2395902365
 11
-1.0010943912
 21
2.2337724067
  0
LINE
  5
332
100
AcDbEntity
  8
0
100
AcDbLine
 62
7
  6
CONTINUOUS
 10
-4.9605527651
 20
1.7978193042
 11
-4.8952765614
 21
1.7396071595
  0
LINE
  5
333
100
AcDbEntity
  8
0
100
AcDbLine
 62
7
  6
CONTINUOUS
 10
-7.7010943912
 20
1.7337893297
 11
-7.7450166383
 21
1.7777115767
  0
LINE
  5
334
100
AcDbEntity
  8
0
100
AcDbLine
 62
7
  6
CONTINUOUS
 10
-8.1760244573
 20
0.6542112583
 11
-8.1110264462
 21
0.585986609
  0
LINE
  5
335
100
AcDbEntity
  8
0
100
AcDbLine
 62
7
  6
CONTINUOUS
 10
-8.1980516813
 20
0.677431515
 11
-8.1760244573
 21
0.6542112583
  0
LINE
  5
336
100
AcDbEntity
  8
0
100
AcDbLine
 62
7
  6
CONTINUOUS
 10
-8.1110264462
 20
0.585986609
 11
-8.0291244376
 21
0.4996501771
  0
LINE
  5
337
100
AcDbEntity
  8
0
100
AcDbLine
 62
7
  6
CONTINUOUS
 10
-8.0291244376
 20
0.4996501771
 11
-7.9733820868
 21
0.4406264493
  0
LINE
  5
338
100
AcDbEntity
  8
0
100
AcDbLine
 62
7
  6
CONTINUOUS
 10
-7.9733820868
 20
0.4406264493
 11
-7.9236228634
 21
0.3875984943
  0
LINE
  5
339
100
AcDbEntity
  8
0
100
AcDbLine
 62
7
  6
CONTINUOUS
 10
-7.9236228634
 20
0.3875984943
 11
-7.8940773005
 21
0.355878174
  0
LINE
  5
33A
100
AcDbEntity
  8
0
100
AcDbLine
 62
7
  6
CONTINUOUS
 10
-7.8940773005
 20
0.355878174
 11
-7.8675093721
 21
0.327133413
  0
LINE
  5
33B
100
AcDbEntity
  8
0
100
AcDbLine
 62
7
  6
CONTINUOUS
 10
-7.8675093721
 20
0.327133413
 11
-7.8439095664
 21
0.3013662653
  0
LWPOLYLINE
  5
33C
100
AcDbEntity
  8
0
100
AcDbPolyline
 62
7
  6
CONTINUOUS
 90
19
 70
0
 10
-7.8439095664
 20
0.3013662653
 10
-7.8231830385
 20
0.2784528168
 10
-7.8138689049
 20
0.2680535808
 10
-7.8052235769
 20
0.2583061025
 10
-7.7972403168
 20
0.2492153541
 10
-7.7899001294
 20
0.2407763634
 10
-7.7831646685
 20
0.2329227521
 10
-7.7770274974
 20
0.2256528363
 10
-7.7714738283
 20
0.2189683
 10
-7.7664654893
 20
0.212807817
 10
-7.7619937278
 20
0.2071597068
 10
-7.7580595424
 20
0.2020356498
 10
-7.7546501894
 20
0.1974093624
 10
-7.7517615341
 20
0.1932778303
 10
-7.7493921065
 20
0.1896440676
 10
-7.7475367392
 20
0.1864908331
 10
-7.7461916308
 20
0.1838123795
 10
-7.7453531602
 20
0.181614454
 10
-7.7450166383
 20
0.1798970566
  0
LWPOLYLINE
  5
33D
100
AcDbEntity
  8
0
100
AcDbPolyline
 62
7
  6
CONTINUOUS
 90
6
 70
0
 10
-22.2985498654
 20
-0.1517930365
 10
-22.296576759
 20
-0.1635269578
 10
-22.294047573
 20
-0.1751537091
 10
-22.290968033
 20
-0.1866469493
 10
-22.2873451126
 20
-0.1979806441
 10
-22.283187017
 20
-0.2091291196
  0
LWPOLYLINE
  5
33E
100
AcDbEntity
  8
0
100
AcDbPolyline
 62
7
  6
CONTINUOUS
 90
40
 70
0
 10
-23.3010943912
 20
2.2340181818
 10
-23.3006955454
 20
2.2138893864
 10
-23.2994887175
 20
2.1937981351
 10
-23.2974759582
 20
2.1737767567
 10
-23.2946609807
 20
2.1538614227
 10
-23.2910483339
 20
2.1340801885
 10
-23.2866420374
 20
2.1144531896
 10
-23.2814478141
 20
2.0950106735
 10
-23.2754731206
 20
2.0757859718
 10
-23.2687245757
 20
2.0568039614
 10
-23.261206907
 20
2.0380853736
 10
-23.2529341323
 20
2.0196722385
 10
-23.2439311054
 20
2.0016197355
 10
-23.2342228373
 20
1.9839721177
 10
-23.2238186027
 20
1.966740969
 10
-23.2127217002
 20
1.9499316399
 10
-23.2009374779
 20
1.9335572692
 10
-23.1884937358
 20
1.9176613192
 10
-23.1754293444
 20
1.9022930722
 10
-23.161781231
 20
1.8874910256
 10
-23.147559971
 20
1.8732619666
 10
-23.1327664015
 20
1.8596065799
 10
-23.1174078759
 20
1.8465357974
 10
-23.1015224613
 20
1.8340860316
 10
-23.0851579466
 20
1.8222948828
 10
-23.0683570995
 20
1.8111899502
 10
-23.0511335712
 20
1.80077713
 10
-23.0334929054
 20
1.7910597767
 10
-23.0154456604
 20
1.7820469047
 10
-22.9970370238
 20
1.7737642045
 10
-22.9783254921
 20
1.7662376537
 10
-22.9593561508
 20
1.7594821711
 10
-22.9401470354
 20
1.7535009945
 10
-22.9207176205
 20
1.7482986678
 10
-22.9010881022
 20
1.7438807444
 10
-22.8813015679
 20
1.7402570327
 10
-22.8614122584
 20
1.7374353618
 10
-22.8414601348
 20
1.7354176225
 10
-22.8214702905
 20
1.7342027036
 10
-22.801474991
 20
1.7337893297
  0
LWPOLYLINE
  5
33F
100
AcDbEntity
  8
0
100
AcDbPolyline
 62
7
  6
CONTINUOUS
 90
40
 70
0
 10
-23.3010943912
 20
46.0335604776
 10
-23.3006955454
 20
46.053689273
 10
-23.2994887175
 20
46.0737805243
 10
-23.2974759582
 20
46.0938019026
 10
-23.2946609807
 20
46.1137172366
 10
-23.2910483339
 20
46.1334984709
 10
-23.2866420374
 20
46.1531254698
 10
-23.2814478141
 20
46.1725679858
 10
-23.2754731206
 20
46.1917926875
 10
-23.2687245757
 20
46.210774698
 10
-23.261206907
 20
46.2294932858
 10
-23.2529341323
 20
46.2479064209
 10
-23.2439311054
 20
46.2659589239
 10
-23.2342228373
 20
46.2836065417
 10
-23.2238186027
 20
46.3008376904
 10
-23.2127217002
 20
46.3176470195
 10
-23.2009374779
 20
46.3340213902
 10
-23.1884937358
 20
46.3499173401
 10
-23.1754293444
 20
46.3652855872
 10
-23.161781231
 20
46.3800876338
 10
-23.147559971
 20
46.3943166928
 10
-23.1327664015
 20
46.4079720795
 10
-23.1174078759
 20
46.4210428619
 10
-23.1015224613
 20
46.4334926277
 10
-23.0851579466
 20
46.4452837765
 10
-23.0683570995
 20
46.4563887091
 10
-23.0511335712
 20
46.4668015294
 10
-23.0334929054
 20
46.4765188827
 10
-23.0154456604
 20
46.4855317547
 10
-22.9970370238
 20
46.4938144549
 10
-22.9783254921
 20
46.5013410057
 10
-22.9593561508
 20
46.5080964883
 10
-22.9401470354
 20
46.5140776648
 10
-22.9207176205
 20
46.5192799916
 10
-22.9010881022
 20
46.523697915
 10
-22.8813015679
 20
46.5273216267
 10
-22.8614122584
 20
46.5301432975
 10
-22.8414601348
 20
46.5321610369
 10
-22.8214702905
 20
46.5333759558
 10
-22.801474991
 20
46.5337893297
  0
LINE
  5
340
100
AcDbEntity
  8
0
100
AcDbLine
 62
7
  6
CONTINUOUS
 10
-8.6510943912
 20
44.0337893297
 11
-8.6877500276
 21
43.9971336933
  0
LINE
  5
341
100
AcDbEntity
  8
DRAFT
100
AcDbLine
 62
7
  6
CONTINUOUS
 10
-8.6510943912
 20
44.0337893297
 11
-8.6877500276
 21
43.9971336933
  0
LINE
  5
342
100
AcDbEntity
  8
0
100
AcDbLine
 62
7
  6
CONTINUOUS
 10
-8.6510943912
 20
43.8337893297
 11
-8.6877500276
 21
43.7971336933
  0
LINE
  5
343
100
AcDbEntity
  8
DRAFT
100
AcDbLine
 62
7
  6
CONTINUOUS
 10
-8.6510943912
 20
43.8337893297
 11
-8.6877500276
 21
43.7971336933
  0
LINE
  5
344
100
AcDbEntity
  8
CURVE
100
AcDbLine
 62
253
  6
CONTINUOUS
 10
-9.2653801166
 20
35.1123609354
 11
-9.079665842
 21
35.205217724
  0
LINE
  5
345
100
AcDbEntity
  8
0
100
AcDbLine
 62
7
  6
CONTINUOUS
 10
-12.7510943912
 20
16.6337893297
 11
-15.6910943912
 21
16.6337893297
  0
LINE
  5
346
100
AcDbEntity
  8
SMUSSO
100
AcDbLine
 62
7
  6
CONTINUOUS
 10
-16.4010943912
 20
16.8837893297
 11
-12.4010943912
 21
16.8837893297
  0
LINE
  5
347
100
AcDbEntity
  8
ASSI
100
AcDbLine
 62
7
  6
CONTINUOUS
 10
-16.4010943912
 20
16.8837893297
 11
-12.4010943912
 21
16.8837893297
  0
LINE
  5
348
100
AcDbEntity
  8
CURVE
100
AcDbLine
 62
7
  6
CONTINUOUS
 10
-1.0698564611
 20
17.0361233297
 11
-1.0778854393
 21
17.0361233297
  0
LINE
  5
349
100
AcDbEntity
  8
CURVE
100
AcDbLine
 62
253
  6
CONTINUOUS
 10
-1.1085513505
 20
17.0409322192
 11
-1.0943401051
 21
17.0409322192
  0
LINE
  5
34A
100
AcDbEntity
  8
CURVE
100
AcDbLine
 62
7
  6
CONTINUOUS
 10
-1.0272969785
 20
17.0477763297
 11
-1.0353259568
 21
17.0477763297
  0
LINE
  5
34B
100
AcDbEntity
  8
CURVE
100
AcDbLine
 62
7
  6
CONTINUOUS
 10
-1.0479050266
 20
17.1516623297
 11
-1.0559341794
 21
17.1516623297
  0
LINE
  5
34C
100
AcDbEntity
  8
RACCORDO
100
AcDbLine
 62
7
  6
CONTINUOUS
 10
-1.4380155131
 20
17.2837893297
 11
-2.3510943912
 21
17.2837893297
  0
LINE
  5
34D
100
AcDbEntity
  8
ASSI
100
AcDbLine
 62
7
  6
CONTINUOUS
 10
-1.4380155131
 20
17.2837893297
 11
-2.3510943912
 21
17.2837893297
  0
LINE
  5
34E
100
AcDbEntity
  8
SMUSSO
100
AcDbLine
 62
7
  6
CONTINUOUS
 10
-16.9010943912
 20
17.3837893297
 11
-11.9010943912
 21
17.3837893297
  0
LINE
  5
34F
100
AcDbEntity
  8
ASSI
100
AcDbLine
 62
7
  6
CONTINUOUS
 10
-16.9010943912
 20
17.3837893297
 11
-11.9010943912
 21
17.3837893297
  0
LINE
  5
350
100
AcDbEntity
  8
CURVE
100
AcDbLine
 62
253
  6
CONTINUOUS
 10
-21.8010943912
 20
17.5671228696
 11
-21.3368086853
 21
17.5671228696
  0
LINE
  5
351
100
AcDbEntity
  8
CURVE
100
AcDbLine
 62
253
  6
CONTINUOUS
 10
-1.0943401051
 20
17.5837893297
 11
-1.0896030236
 21
17.5837893297
  0
LINE
  5
352
100
AcDbEntity
  8
SMUSSO
100
AcDbLine
 62
7
  6
CONTINUOUS
 10
-11.9010943912
 20
17.8837893297
 11
-16.9010943912
 21
17.8837893297
  0
LINE
  5
353
100
AcDbEntity
  8
ASSI
100
AcDbLine
 62
7
  6
CONTINUOUS
 10
-11.9010943912
 20
17.8837893297
 11
-16.9010943912
 21
17.8837893297
  0
LINE
  5
354
100
AcDbEntity
  8
RACCORDO
100
AcDbLine
 62
7
  6
CONTINUOUS
 10
-1.4380155131
 20
17.9837893297
 11
-2.3510943912
 21
17.9837893297
  0
LINE
  5
355
100
AcDbEntity
  8
ASSI
100
AcDbLine
 62
7
  6
CONTINUOUS
 10
-1.4380155131
 20
17.9837893297
 11
-2.3510943912
 21
17.9837893297
  0
LINE
  5
356
100
AcDbEntity
  8
CURVE
100
AcDbLine
 62
253
  6
CONTINUOUS
 10
-21.3368086853
 20
18.2171228696
 11
-21.7082372539
 21
18.2171228696
  0
LINE
  5
357
100
AcDbEntity
  8
SMUSSO
100
AcDbLine
 62
7
  6
CONTINUOUS
 10
-12.4010943912
 20
18.3837893297
 11
-16.4010943912
 21
18.3837893297
  0
LINE
  5
358
100
AcDbEntity
  8
ASSI
100
AcDbLine
 62
7
  6
CONTINUOUS
 10
-12.4010943912
 20
18.3837893297
 11
-16.4010943912
 21
18.3837893297
  0
LINE
  5
359
100
AcDbEntity
  8
CURVE
100
AcDbLine
 62
253
  6
CONTINUOUS
 10
-22.1725229405
 20
17.7528370668
 11
-21.8010943912
 21
17.5671228696
  0
LINE
  5
35A
100
AcDbEntity
  8
CURVE
100
AcDbLine
 62
253
  6
CONTINUOUS
 10
-22.079665842
 20
18.588551264
 11
-22.2653801166
 21
18.6814086725
  0
LINE
  5
35B
100
AcDbEntity
  8
CURVE
100
AcDbLine
 62
253
  6
CONTINUOUS
 10
-21.5225229793
 20
19.238551264
 11
-21.3368086853
 21
19.1456938554
  0
LINE
  5
35C
100
AcDbEntity
  8
SMUSSO
100
AcDbLine
 62
7
  6
CONTINUOUS
 10
-16.9010943912
 20
12.3837893297
 11
-16.4010943912
 21
11.8837893297
  0
LINE
  5
35D
100
AcDbEntity
  8
ASSI
100
AcDbLine
 62
7
  6
CONTINUOUS
 10
-16.9010943912
 20
12.3837893297
 11
-16.4010943912
 21
11.8837893297
  0
LINE
  5
35E
100
AcDbEntity
  8
CURVE
100
AcDbLine
 62
253
  6
CONTINUOUS
 10
-22.4510943912
 20
18.0314086725
 11
-22.1725229405
 21
17.7528370668
  0
LINE
  5
35F
100
AcDbEntity
  8
0
100
AcDbLine
 62
7
  6
CONTINUOUS
 10
-8.6877500276
 20
4.270444966
 11
-8.6510943912
 21
4.2337893297
  0
LINE
  5
360
100
AcDbEntity
  8
DRAFT
100
AcDbLine
 62
7
  6
CONTINUOUS
 10
-8.6877500276
 20
4.270444966
 11
-8.6510943912
 21
4.2337893297
  0
LINE
  5
361
100
AcDbEntity
  8
0
100
AcDbLine
 62
7
  6
CONTINUOUS
 10
-8.6510943912
 20
4.4337893297
 11
-8.6877500276
 21
4.470444966
  0
LINE
  5
362
100
AcDbEntity
  8
DRAFT
100
AcDbLine
 62
7
  6
CONTINUOUS
 10
-8.6510943912
 20
4.4337893297
 11
-8.6877500276
 21
4.470444966
  0
LINE
  5
363
100
AcDbEntity
  8
SMUSSO
100
AcDbLine
 62
7
  6
CONTINUOUS
 10
-11.9010943912
 20
7.8837893297
 11
-12.4010943912
 21
8.3837893297
  0
LINE
  5
364
100
AcDbEntity
  8
ASSI
100
AcDbLine
 62
7
  6
CONTINUOUS
 10
-11.9010943912
 20
7.8837893297
 11
-12.4010943912
 21
8.3837893297
  0
LINE
  5
365
100
AcDbEntity
  8
CURVE
100
AcDbLine
 62
253
  6
CONTINUOUS
 10
-19.2368087255
 20
15.5837893297
 11
-18.9653801136
 21
15.3123607744
  0
LINE
  5
366
100
AcDbEntity
  8
CURVE
100
AcDbLine
 62
253
  6
CONTINUOUS
 10
-22.2653801166
 20
18.6814086725
 11
-22.4510943912
 21
18.8671228696
  0
LINE
  5
367
100
AcDbEntity
  8
CURVE
100
AcDbLine
 62
253
  6
CONTINUOUS
 10
-21.1510943912
 20
18.0314086725
 11
-21.3368086853
 21
18.2171228696
  0
LINE
  5
368
100
AcDbEntity
  8
CURVE
100
AcDbLine
 62
253
  6
CONTINUOUS
 10
-21.3368086853
 20
19.1456938554
 11
-21.1510943912
 21
18.9599796583
  0
LINE
  5
369
100
AcDbEntity
  8
CURVE
100
AcDbLine
 62
253
  6
CONTINUOUS
 10
-21.5534753584
 20
14.5337893297
 11
-21.6463324957
 21
14.7504560997
  0
LINE
  5
36A
100
AcDbEntity
  8
CURVE
100
AcDbLine
 62
253
  6
CONTINUOUS
 10
-21.4606182017
 20
14.9980751325
 11
-21.5534753584
 21
15.2456941654
  0
LWPOLYLINE
  5
36B
100
AcDbEntity
  8
0
100
AcDbPolyline
 62
253
  6
CONTINUOUS
 90
34
 70
0
 10
-22.2967225572
 20
47.978126897
 10
-22.2964058952
 20
47.9678439359
 10
-22.295525701
 20
47.9575841837
 10
-22.2940839612
 20
47.947370797
 10
-22.2920839311
 20
47.9372268332
 10
-22.2895301241
 20
47.9271751818
 10
-22.2864282987
 20
47.9172385131
 10
-22.2827854481
 20
47.9074392427
 10
-22.2786097951
 20
47.8977995014
 10
-22.2739107728
 20
47.8883410683
 10
-22.2686989928
 20
47.8790852992
 10
-22.2629862151
 20
47.8700530759
 10
-22.256785332
 20
47.8612647809
 10
-22.2501103383
 20
47.8527402483
 10
-22.2429763008
 20
47.8444987194
 10
-22.2353993212
 20
47.8365587955
 10
-22.2273965016
 20
47.8289383975
 10
-22.2189859046
 20
47.8216547243
 10
-22.210186512
 20
47.8147242147
 10
-22.2010181861
 20
47.8081625121
 10
-22.1915016186
 20
47.8019844253
 10
-22.1816582825
 20
47.796203895
 10
-22.1715103811
 20
47.7908339625
 10
-22.1610808302
 20
47.7858867562
 10
-22.1503932025
 20
47.7813734562
 10
-22.1394716426
 20
47.7773042532
 10
-22.1283407829
 20
47.7736883193
 10
-22.1170257193
 20
47.7705338054
 10
-22.1055516973
 20
47.7678477692
 10
-22.0939448999
 20
47.7656363592
 10
-22.082232391
 20
47.7639046766
 10
-22.070440914
 20
47.762656548
 10
-22.0585968033
 20
47.761894634
 10
-22.046726788
 20
47.761620546
  0
LWPOLYLINE
  5
36C
100
AcDbEntity
  8
0
100
AcDbPolyline
 62
7
  6
CONTINUOUS
 90
4
 70
0
 10
-22.3010943912
 20
-0.1162149011
 10
-22.300811241
 20
-0.1281101863
 10
-22.2999624255
 20
-0.1399785259
 10
-22.2985498654
 20
-0.1517930365
  0
LWPOLYLINE
  5
36D
100
AcDbEntity
  8
0
100
AcDbPolyline
 62
7
  6
CONTINUOUS
 90
34
 70
0
 10
-22.2967225572
 20
-0.1118430671
 10
-22.2964389284
 20
-0.1237397261
 10
-22.2955894883
 20
-0.1356094443
 10
-22.2941761595
 20
-0.1474253266
 10
-22.2922021409
 20
-0.1591606063
 10
-22.2896719038
 20
-0.1707886857
 10
-22.2865911852
 20
-0.1822831967
 10
-22.2829669681
 20
-0.1936180892
 10
-22.2788074638
 20
-0.2047676856
 10
-22.2741220995
 20
-0.2157067191
 10
-22.2689214919
 20
-0.2264104055
 10
-22.2632174266
 20
-0.2368544907
 10
-22.2570228343
 20
-0.2470153029
 10
-22.2503517542
 20
-0.256869819
 10
-22.2432193032
 20
-0.2663957132
 10
-22.2356416466
 20
-0.2755714002
 10
-22.2276359525
 20
-0.2843760958
 10
-22.2192203662
 20
-0.2927898474
 10
-22.2104139747
 20
-0.3007935789
 10
-22.2012367614
 20
-0.3083691398
 10
-22.1917094999
 20
-0.3154993932
 10
-22.1818537152
 20
-0.3221682304
 10
-22.1716916396
 20
-0.3283605928
 10
-22.1612463862
 20
-0.3340623813
 10
-22.1505418514
 20
-0.3392605666
 10
-22.1396024502
 20
-0.3439433403
 10
-22.1284528383
 20
-0.3481001946
 10
-22.1171180732
 20
-0.3517218044
 10
-22.1056221075
 20
-0.354800383
 10
-22.0939926723
 20
-0.3573283729
 10
-22.0822611776
 20
-0.3592993189
 10
-22.0704560021
 20
-0.3607093149
 10
-22.0586022596
 20
-0.3615562167
 10
-22.046726788
 20
-0.3618388363
  0
LINE
  5
36E
100
AcDbEntity
  8
0
100
AcDbLine
 62
253
  6
CONTINUOUS
 10
-22.2967225572
 20
0.2894517624
 11
-22.3010943912
 21
0.7233041815
  0
LINE
  5
36F
100
AcDbEntity
  8
0
100
AcDbLine
 62
253
  6
CONTINUOUS
 10
-22.046726788
 20
0.5059581133
 11
-22.0518173891
 21
1.0111395989
  0
LINE
  5
370
100
AcDbEntity
  8
RACCORDO
100
AcDbLine
 62
7
  6
CONTINUOUS
 10
-23.3010943912
 20
41.8054883784
 11
-23.3010943912
 21
6.462090281
  0
LINE
  5
371
100
AcDbEntity
  8
0
100
AcDbLine
 62
7
  6
CONTINUOUS
 10
-23.3010943912
 20
2.2337724067
 11
-23.3010943912
 21
46.0338062527
  0
LINE
  5
372
100
AcDbEntity
  8
0
100
AcDbLine
 62
7
  6
CONTINUOUS
 10
-23.2923675235
 20
2.2395902365
 11
-23.2923675235
 21
5.6250624619
  0
LINE
  5
373
100
AcDbEntity
  8
0
100
AcDbLine
 62
7
  6
CONTINUOUS
 10
-23.2923675235
 20
42.6425161975
 11
-23.2923675235
 21
46.0279884229
  0
LINE
  5
374
100
AcDbEntity
  8
0
100
AcDbLine
 62
7
  6
CONTINUOUS
 10
-23.2836406557
 20
42.6512430653
 11
-23.2836406557
 21
42.053078742
  0
LINE
  5
375
100
AcDbEntity
  8
0
100
AcDbLine
 62
7
  6
CONTINUOUS
 10
-23.2836406557
 20
6.2144999174
 11
-23.2836406557
 21
5.6163355941
  0
LINE
  5
376
100
AcDbEntity
  8
0
100
AcDbLine
 62
7
  6
CONTINUOUS
 10
-23.1789089367
 20
41.754877506
 11
-23.1789089367
 21
6.5127011533
  0
LINE
  5
377
100
AcDbEntity
  8
RACCORDO
100
AcDbLine
 62
7
  6
CONTINUOUS
 10
-23.1789089367
 20
41.754877506
 11
-23.1789089367
 21
6.5127011533
  0
LINE
  5
378
100
AcDbEntity
  8
RACCORDO
100
AcDbLine
 62
7
  6
CONTINUOUS
 10
-23.1641846929
 20
42.1250137198
 11
-23.1641846929
 21
6.1425649396
  0
LINE
  5
379
100
AcDbEntity
  8
ASSI
100
AcDbLine
 62
7
  6
CONTINUOUS
 10
-23.1641846929
 20
42.1250137198
 11
-23.1641846929
 21
6.1425649396
  0
LINE
  5
37A
100
AcDbEntity
  8
CURVE
100
AcDbLine
 62
253
  6
CONTINUOUS
 10
-22.5260943912
 20
24.8212893297
 11
-22.5260943912
 21
24.6962893297
  0
LINE
  5
37B
100
AcDbEntity
  8
CURVE
100
AcDbLine
 62
253
  6
CONTINUOUS
 10
-22.4510943912
 20
11.8409321536
 11
-22.4510943912
 21
11.5623607804
  0
LINE
  5
37C
100
AcDbEntity
  8
CURVE
100
AcDbLine
 62
253
  6
CONTINUOUS
 10
-22.4510943912
 20
12.6766464283
 11
-22.4510943912
 21
12.7695036818
  0
LINE
  5
37D
100
AcDbEntity
  8
CURVE
100
AcDbLine
 62
253
  6
CONTINUOUS
 10
-22.4510943912
 20
18.8671228696
 11
-22.4510943912
 21
18.9599796583
  0
LINE
  5
37E
100
AcDbEntity
  8
0
100
AcDbLine
 62
7
  6
CONTINUOUS
 10
-22.3010943912
 20
0.2894517624
 11
-22.3010943912
 21
1.7337893297
  0
LINE
  5
37F
100
AcDbEntity
  8
0
100
AcDbLine
 62
7
  6
CONTINUOUS
 10
-22.3010943912
 20
46.5337893297
 11
-22.3010943912
 21
47.978126897
  0
LINE
  5
380
100
AcDbEntity
  8
0
100
AcDbLine
 62
7
  6
CONTINUOUS
 10
-22.2967225572
 20
48.3794217265
 11
-22.2967225572
 21
47.978126897
  0
LINE
  5
381
100
AcDbEntity
  8
0
100
AcDbLine
 62
7
  6
CONTINUOUS
 10
-22.2967225572
 20
0.2894517624
 11
-22.2967225572
 21
-0.1118430671
  0
LINE
  5
382
100
AcDbEntity
  8
CURVE
100
AcDbLine
 62
253
  6
CONTINUOUS
 10
-22.079665842
 20
20.6314086725
 11
-22.079665842
 21
21.1885506441
  0
LINE
  5
383
100
AcDbEntity
  8
0
100
AcDbLine
 62
253
  6
CONTINUOUS
 10
-22.046726788
 20
-0.3618388363
 11
-22.046726788
 21
0.5059581133
  0
LINE
  5
384
100
AcDbEntity
  8
0
100
AcDbLine
 62
253
  6
CONTINUOUS
 10
-22.046726788
 20
47.761620546
 11
-22.046726788
 21
48.6294174957
  0
LINE
  5
385
100
AcDbEntity
  8
RACCORDO
100
AcDbLine
 62
7
  6
CONTINUOUS
 10
-21.9484763309
 20
43.6600972044
 11
-21.9484763309
 21
43.736407672
  0
LINE
  5
386
100
AcDbEntity
  8
ASSI
100
AcDbLine
 62
7
  6
CONTINUOUS
 10
-21.9484763309
 20
43.6600972044
 11
-21.9484763309
 21
43.736407672
  0
LINE
  5
387
100
AcDbEntity
  8
CURVE
100
AcDbLine
 62
253
  6
CONTINUOUS
 10
-21.8939515673
 20
18.0314086725
 11
-21.8939515673
 21
17.6290273954
  0
LINE
  5
388
100
AcDbEntity
  8
CURVE
100
AcDbLine
 62
253
  6
CONTINUOUS
 10
-21.8939515673
 20
19.6099796583
 11
-21.8939515673
 21
20.2599796583
  0
LINE
  5
389
100
AcDbEntity
  8
CURVE
100
AcDbLine
 62
253
  6
CONTINUOUS
 10
-21.7760943912
 20
24.7587893297
 11
-21.7760943912
 21
24.8212893297
  0
LINE
  5
38A
100
AcDbEntity
  8
0
100
AcDbLine
 62
253
  6
CONTINUOUS
 10
-22.3010943912
 20
47.5442744779
 11
-22.2967225572
 21
47.978126897
  0
LINE
  5
38B
100
AcDbEntity
  8
0
100
AcDbLine
 62
253
  6
CONTINUOUS
 10
-22.0518173891
 20
47.2564390605
 11
-22.046726788
 21
47.761620546
  0
LWPOLYLINE
  5
38C
100
AcDbEntity
  8
0
100
AcDbPolyline
 62
253
  6
CONTINUOUS
 90
34
 70
0
 10
-22.2967225572
 20
0.2894517624
 10
-22.2964059065
 20
0.2997345299
 10
-22.2955257448
 20
0.3099940899
 10
-22.2940840585
 20
0.320207287
 10
-22.2920841014
 20
0.3303510707
 10
-22.2895303874
 20
0.3404025471
 10
-22.28642868
 20
0.3503390306
 10
-22.2827859796
 20
0.3601380951
 10
-22.2786105076
 20
0.3697776247
 10
-22.2739116876
 20
0.3792358636
 10
-22.2687001248
 20
0.3884914651
 10
-22.2629875813
 20
0.3975235399
 10
-22.2567869499
 20
0.406311703
 10
-22.2501122252
 20
0.4148361201
 10
-22.2429784715
 20
0.4230775522
 10
-22.2354017894
 20
0.4310173987
 10
-22.227399279
 20
0.4386377399
 10
-22.2189890014
 20
0.4459213773
 10
-22.2101899381
 20
0.4528518719
 10
-22.2010219482
 20
0.4594135821
 10
-22.1915057232
 20
0.4655916986
 10
-22.1816627408
 20
0.4713722776
 10
-22.1715152158
 20
0.4767422727
 10
-22.1610860508
 20
0.4816895643
 10
-22.1503987836
 20
0.4862029865
 10
-22.1394775349
 20
0.4902723527
 10
-22.1283469532
 20
0.4938884788
 10
-22.1170321596
 20
0.4970432033
 10
-22.1055586909
 20
0.4997294061
 10
-22.0939524421
 20
0.5019410248
 10
-22.0822396078
 20
0.5036730677
 10
-22.0704466232
 20
0.5049216258
 10
-22.0586001043
 20
0.5056838811
 10
-22.046726788
 20
0.5059581133
  0
LINE
  5
38D
100
AcDbEntity
  8
CURVE
100
AcDbLine
 62
253
  6
CONTINUOUS
 10
-22.4635943912
 20
25.0712893297
 11
-22.5260943912
 21
24.8212893297
  0
LINE
  5
38E
100
AcDbEntity
  8
CURVE
100
AcDbLine
 62
253
  6
CONTINUOUS
 10
-22.4010943912
 20
25.2587893297
 11
-22.4635943912
 21
25.0712893297
  0
LINE
  5
38F
100
AcDbEntity
  8
CURVE
100
AcDbLine
 62
253
  6
CONTINUOUS
 10
-21.8385943912
 20
24.5712893297
 11
-21.7760943912
 21
24.7587893297
  0
LINE
  5
390
100
AcDbEntity
  8
CURVE
100
AcDbLine
 62
253
  6
CONTINUOUS
 10
-22.3385943912
 20
25.3837893297
 11
-22.4010943912
 21
25.2587893297
  0
LINE
  5
391
100
AcDbEntity
  8
CURVE
100
AcDbLine
 62
253
  6
CONTINUOUS
 10
-21.9010943912
 20
24.4462893297
 11
-21.8385943912
 21
24.5712893297
  0
LINE
  5
392
100
AcDbEntity
  8
DRAFT
100
AcDbLine
 62
7
  6
CONTINUOUS
 10
-5.5463719778
 20
44.2385117432
 11
-5.6467309573
 21
44.1381527636
  0
LINE
  5
393
100
AcDbEntity
  8
DRAFT
100
AcDbLine
 62
7
  6
CONTINUOUS
 10
-5.5463719778
 20
43.9385117432
 11
-5.6467309573
 21
43.8381527636
  0
LINE
  5
394
100
AcDbEntity
  8
CURVE
100
AcDbLine
 62
253
  6
CONTINUOUS
 10
-8.3368086853
 20
34.6480751325
 11
-8.5225229793
 21
34.5552180339
  0
LINE
  5
395
100
AcDbEntity
  8
CURVE
100
AcDbLine
 62
253
  6
CONTINUOUS
 10
-9.2653801166
 20
34.0909322311
 11
-9.079665842
 21
34.1837893297
  0
LINE
  5
396
100
AcDbEntity
  8
CURVE
100
AcDbLine
 62
253
  6
CONTINUOUS
 10
-8.3368086853
 20
33.6266464283
 11
-8.5225229793
 21
33.5337893297
  0
LINE
  5
397
100
AcDbEntity
  8
CURVE
100
AcDbLine
 62
253
  6
CONTINUOUS
 10
-5.2653801166
 20
35.1123609354
 11
-5.079665842
 21
35.205217724
  0
LINE
  5
398
100
AcDbEntity
  8
CURVE
100
AcDbLine
 62
7
  6
CONTINUOUS
 10
-1.0559343539
 20
18.5789573297
 11
-1.0698567403
 21
18.5789573297
  0
LINE
  5
399
100
AcDbEntity
  8
CURVE
100
AcDbLine
 62
7
  6
CONTINUOUS
 10
-1.0353258521
 20
18.5789573297
 11
-1.0479048522
 21
18.5789573297
  0
LINE
  5
39A
100
AcDbEntity
  8
CURVE
100
AcDbLine
 62
253
  6
CONTINUOUS
 10
-21.5225229793
 20
18.588551264
 11
-22.079665842
 21
18.588551264
  0
LINE
  5
39B
100
AcDbEntity
  8
0
100
AcDbLine
 62
7
  6
CONTINUOUS
 10
-15.6910943912
 20
18.6337893297
 11
-12.7510943912
 21
18.6337893297
  0
LINE
  5
39C
100
AcDbEntity
  8
CURVE
100
AcDbLine
 62
7
  6
CONTINUOUS
 10
-1.0778854393
 20
19.0966953297
 11
-1.0272969785
 21
19.0966953297
  0
LINE
  5
39D
100
AcDbEntity
  8
CURVE
100
AcDbLine
 62
253
  6
CONTINUOUS
 10
-22.079665842
 20
19.238551264
 11
-21.5225229793
 21
19.238551264
  0
LINE
  5
39E
100
AcDbEntity
  8
CURVE
100
AcDbLine
 62
253
  6
CONTINUOUS
 10
-18.1510943912
 20
19.5337893297
 11
-20.0510943912
 21
19.5337893297
  0
LINE
  5
39F
100
AcDbEntity
  8
CURVE
100
AcDbLine
 62
253
  6
CONTINUOUS
 10
-21.1510943912
 20
19.6099796583
 11
-22.4510943912
 21
19.6099796583
  0
LINE
  5
3A0
100
AcDbEntity
  8
CURVE
100
AcDbLine
 62
253
  6
CONTINUOUS
 10
-22.4510943912
 20
20.2599796583
 11
-21.1510943912
 21
20.2599796583
  0
LWPOLYLINE
  5
3A1
100
AcDbEntity
  8
CURVE
100
AcDbPolyline
 62
7
  6
CONTINUOUS
 90
17
 70
0
 10
-1.0525910233
 20
10.5040673808
 10
-1.0530437336
 20
10.5042814894
 10
-1.0534974967
 20
10.5049275468
 10
-1.0539520389
 20
10.5060111511
 10
-1.0544070864
 20
10.5075378998
 10
-1.0548623654
 20
10.509513391
 10
-1.0553176023
 20
10.5119432223
 10
-1.0557725232
 20
10.5148329916
 10
-1.0562268544
 20
10.5181882967
 10
-1.0566803222
 20
10.5220147355
 10
-1.0571326529
 20
10.5263179056
 10
-1.0575835726
 20
10.531103405
 10
-1.0580328076
 20
10.5363768314
 10
-1.0584800843
 20
10.5421437827
 10
-1.0589251288
 20
10.5484098566
 10
-1.0593676674
 20
10.555180651
 10
-1.0598074264
 20
10.5624617637
  0
LINE
  5
3A2
100
AcDbEntity
  8
CURVE
100
AcDbLine
 62
253
  6
CONTINUOUS
 10
-22.079665842
 20
21.1885506441
 11
-21.1510943912
 21
20.6314086725
  0
LINE
  5
3A3
100
AcDbEntity
  8
DRAFT
100
AcDbLine
 62
7
  6
CONTINUOUS
 10
-5.5463719778
 20
4.0290669162
 11
-5.6467309573
 21
4.1294258958
  0
LINE
  5
3A4
100
AcDbEntity
  8
DRAFT
100
AcDbLine
 62
7
  6
CONTINUOUS
 10
-5.5463719778
 20
4.3290669162
 11
-5.6467309573
 21
4.4294258958
  0
LINE
  5
3A5
100
AcDbEntity
  8
SMUSSO
100
AcDbLine
 62
7
  6
CONTINUOUS
 10
-16.9010943912
 20
17.3837893297
 11
-16.4010943912
 21
16.8837893297
  0
LINE
  5
3A6
100
AcDbEntity
  8
ASSI
100
AcDbLine
 62
7
  6
CONTINUOUS
 10
-16.9010943912
 20
17.3837893297
 11
-16.4010943912
 21
16.8837893297
  0
LINE
  5
3A7
100
AcDbEntity
  8
SMUSSO
100
AcDbLine
 62
7
  6
CONTINUOUS
 10
-11.9010943912
 20
12.8837893297
 11
-12.4010943912
 21
13.3837893297
  0
LINE
  5
3A8
100
AcDbEntity
  8
ASSI
100
AcDbLine
 62
7
  6
CONTINUOUS
 10
-11.9010943912
 20
12.8837893297
 11
-12.4010943912
 21
13.3837893297
  0
LINE
  5
3A9
100
AcDbEntity
  8
CURVE
100
AcDbLine
 62
253
  6
CONTINUOUS
 10
-22.5260943912
 20
24.6962893297
 11
-22.4635943912
 21
24.5087893297
  0
LWPOLYLINE
  5
3AA
100
AcDbEntity
  8
0
100
AcDbPolyline
 62
253
  6
CONTINUOUS
 90
34
 70
0
 10
-19.4054662252
 20
0.2894517624
 10
-19.405782876
 20
0.2997345299
 10
-19.4066630377
 20
0.3099940899
 10
-19.408104724
 20
0.320207287
 10
-19.4101046811
 20
0.3303510707
 10
-19.4126583951
 20
0.3404025471
 10
-19.4157601025
 20
0.3503390306
 10
-19.4194028029
 20
0.3601380951
 10
-19.4235782749
 20
0.3697776247
 10
-19.4282770948
 20
0.3792358636
 10
-19.4334886577
 20
0.3884914651
 10
-19.4392012012
 20
0.3975235399
 10
-19.4454018326
 20
0.406311703
 10
-19.4520765573
 20
0.4148361201
 10
-19.459210311
 20
0.4230775522
 10
-19.4667869931
 20
0.4310173987
 10
-19.4747895035
 20
0.4386377399
 10
-19.4831997811
 20
0.4459213773
 10
-19.4919988444
 20
0.4528518719
 10
-19.5011668343
 20
0.4594135821
 10
-19.5106830592
 20
0.4655916986
 10
-19.5205260417
 20
0.4713722776
 10
-19.5306735667
 20
0.4767422727
 10
-19.5411027317
 20
0.4816895643
 10
-19.5517899989
 20
0.4862029865
 10
-19.5627112476
 20
0.4902723527
 10
-19.5738418293
 20
0.4938884788
 10
-19.5851566229
 20
0.4970432033
 10
-19.5966300916
 20
0.4997294061
 10
-19.6082363404
 20
0.5019410248
 10
-19.6199491747
 20
0.5036730677
 10
-19.6317421593
 20
0.5049216258
 10
-19.6435886782
 20
0.5056838811
 10
-19.6554619945
 20
0.5059581133
  0
LINE
  5
3AB
100
AcDbEntity
  8
CURVE
100
AcDbLine
 62
253
  6
CONTINUOUS
 10
-21.1510943912
 20
18.9599796583
 11
-21.1510943912
 21
18.8671228696
  0
LINE
  5
3AC
100
AcDbEntity
  8
CURVE
100
AcDbLine
 62
253
  6
CONTINUOUS
 10
-21.1510943912
 20
12.7695036818
 11
-21.1510943912
 21
12.6766464283
  0
LINE
  5
3AD
100
AcDbEntity
  8
CURVE
100
AcDbLine
 62
253
  6
CONTINUOUS
 10
-21.1510943912
 20
12.0266464283
 11
-21.1510943912
 21
11.3766465058
  0
LINE
  5
3AE
100
AcDbEntity
  8
CURVE
100
AcDbLine
 62
253
  6
CONTINUOUS
 10
-21.1510943912
 20
17.7528370668
 11
-21.1510943912
 21
18.0314086725
  0
LINE
  5
3AF
100
AcDbEntity
  8
CURVE
100
AcDbLine
 62
253
  6
CONTINUOUS
 10
-21.1510943912
 20
20.6314086725
 11
-21.1510943912
 21
21.1885506441
  0
LINE
  5
3B0
100
AcDbEntity
  8
CURVE
100
AcDbLine
 62
253
  6
CONTINUOUS
 10
-20.6510943912
 20
24.6337893297
 11
-20.6510943912
 21
24.8212893297
  0
LINE
  5
3B1
100
AcDbEntity
  8
0
100
AcDbLine
 62
7
  6
CONTINUOUS
 10
-20.3836393263
 20
2.7286759195
 11
-20.3836393263
 21
3.2250624619
  0
LINE
  5
3B2
100
AcDbEntity
  8
0
100
AcDbLine
 62
7
  6
CONTINUOUS
 10
-20.3836393263
 20
45.0425161975
 11
-20.3836393263
 21
45.5389027398
  0
LINE
  5
3B3
100
AcDbEntity
  8
0
100
AcDbLine
 62
7
  6
CONTINUOUS
 10
-20.2176638931
 20
45.7172198279
 11
-20.2176638931
 21
45.7048781731
  0
LINE
  5
3B4
100
AcDbEntity
  8
0
100
AcDbLine
 62
7
  6
CONTINUOUS
 10
-20.2176638931
 20
45.0425161975
 11
-20.2176638931
 21
45.0337893297
  0
LINE
  5
3B5
100
AcDbEntity
  8
0
100
AcDbLine
 62
7
  6
CONTINUOUS
 10
-20.2176638931
 20
3.2337893297
 11
-20.2176638931
 21
3.2250624619
  0
LINE
  5
3B6
100
AcDbEntity
  8
0
100
AcDbLine
 62
7
  6
CONTINUOUS
 10
-20.2176638931
 20
2.5627004863
 11
-20.2176638931
 21
2.5503588315
  0
LINE
  5
3B7
100
AcDbEntity
  8
0
100
AcDbLine
 62
253
  6
CONTINUOUS
 10
-20.2176638931
 20
2.6800539025
 11
-20.2176638931
 21
3.1420810655
  0
LINE
  5
3B8
100
AcDbEntity
  8
0
100
AcDbLine
 62
253
  6
CONTINUOUS
 10
-20.2176638931
 20
45.1254975939
 11
-20.2176638931
 21
45.5875247568
  0
LINE
  5
3B9
100
AcDbEntity
  8
CURVE
100
AcDbLine
 62
253
  6
CONTINUOUS
 10
-20.0510943912
 20
14.6337893297
 11
-20.0510943912
 21
15.3123607744
  0
LINE
  5
3BA
100
AcDbEntity
  8
0
100
AcDbLine
 62
253
  6
CONTINUOUS
 10
-19.7177400455
 20
2.797802381
 11
-19.7177400455
 21
3.137793784
  0
LINE
  5
3BB
100
AcDbEntity
  8
0
100
AcDbLine
 62
253
  6
CONTINUOUS
 10
-19.7177400455
 20
45.1297848754
 11
-19.7177400455
 21
45.4697762783
  0
LINE
  5
3BC
100
AcDbEntity
  8
0
100
AcDbLine
 62
253
  6
CONTINUOUS
 10
-19.6554619945
 20
-0.3618388363
 11
-19.6554619945
 21
0.5059581133
  0
LINE
  5
3BD
100
AcDbEntity
  8
0
100
AcDbLine
 62
253
  6
CONTINUOUS
 10
-19.6554619945
 20
47.761620546
 11
-19.6554619945
 21
48.6294174957
  0
LINE
  5
3BE
100
AcDbEntity
  8
0
100
AcDbLine
 62
7
  6
CONTINUOUS
 10
-19.5877500276
 20
3.2837893297
 11
-19.5877500276
 21
4.470444966
  0
LINE
  5
3BF
100
AcDbEntity
  8
DRAFT
100
AcDbLine
 62
7
  6
CONTINUOUS
 10
-19.5877500276
 20
3.2837893297
 11
-19.5877500276
 21
4.470444966
  0
LINE
  5
3C0
100
AcDbEntity
  8
0
100
AcDbLine
 62
7
  6
CONTINUOUS
 10
-19.5877500276
 20
43.7971336933
 11
-19.5877500276
 21
44.9837893297
  0
LINE
  5
3C1
100
AcDbEntity
  8
DRAFT
100
AcDbLine
 62
7
  6
CONTINUOUS
 10
-19.5877500276
 20
43.7971336933
 11
-19.5877500276
 21
44.9837893297
  0
LINE
  5
3C2
100
AcDbEntity
  8
0
100
AcDbLine
 62
7
  6
CONTINUOUS
 10
-19.5510943912
 20
3.2837893297
 11
-19.5510943912
 21
4.4337893297
  0
LINE
  5
3C3
100
AcDbEntity
  8
DRAFT
100
AcDbLine
 62
7
  6
CONTINUOUS
 10
-19.5510943912
 20
3.2837893297
 11
-19.5510943912
 21
4.4337893297
  0
LINE
  5
3C4
100
AcDbEntity
  8
0
100
AcDbLine
 62
7
  6
CONTINUOUS
 10
-19.5510943912
 20
43.8337893297
 11
-19.5510943912
 21
44.9837893297
  0
LINE
  5
3C5
100
AcDbEntity
  8
DRAFT
100
AcDbLine
 62
7
  6
CONTINUOUS
 10
-19.5510943912
 20
43.8337893297
 11
-19.5510943912
 21
44.9837893297
  0
LWPOLYLINE
  5
3C6
100
AcDbEntity
  8
0
100
AcDbPolyline
 62
253
  6
CONTINUOUS
 90
34
 70
0
 10
-19.4054662252
 20
47.978126897
 10
-19.4057823524
 20
47.9678531192
 10
-19.4066612647
 20
47.9576002088
 10
-19.4081013562
 20
47.9473912989
 10
-19.4100999222
 20
47.9372486996
 10
-19.4126527381
 20
47.92719611
 10
-19.4157536582
 20
47.9172584893
 10
-19.4193953662
 20
47.9074590571
 10
-19.4235698716
 20
47.8978191213
 10
-19.4282678522
 20
47.8883602507
 10
-19.4334788087
 20
47.8791036838
 10
-19.4391909499
 20
47.8700704553
 10
-19.4453912821
 20
47.861281144
 10
-19.4520657582
 20
47.8527556523
 10
-19.459199356
 20
47.8445131584
 10
-19.46677599
 20
47.8365722511
 10
-19.4747785722
 20
47.8289508464
 10
-19.4831890305
 20
47.8216661621
 10
-19.4919883629
 20
47.8147346589
 10
-19.5011566998
 20
47.8081719878
 10
-19.5106733516
 20
47.8019929578
 10
-19.5205168367
 20
47.7962115165
 10
-19.5306649355
 20
47.7908407146
 10
-19.5410947403
 20
47.7858926756
 10
-19.5517827077
 20
47.7813785691
 10
-19.5627047244
 20
47.7773085802
 10
-19.5738361235
 20
47.7736919018
 10
-19.5851517379
 20
47.7705367082
 10
-19.5966259958
 20
47.7678501224
 10
-19.6082330215
 20
47.7656381959
 10
-19.6199466552
 20
47.7639059111
 10
-19.6317404701
 20
47.7626571773
 10
-19.6435878307
 20
47.7618948153
 10
-19.6554619945
 20
47.761620546
  0
LINE
  5
3C7
100
AcDbEntity
  8
CURVE
100
AcDbLine
 62
253
  6
CONTINUOUS
 10
-20.7135943912
 20
24.4462893297
 11
-20.6510943912
 21
24.6337893297
  0
LINE
  5
3C8
100
AcDbEntity
  8
CURVE
100
AcDbLine
 62
253
  6
CONTINUOUS
 10
-20.7760943912
 20
24.3212893297
 11
-20.7135943912
 21
24.4462893297
  0
LINE
  5
3C9
100
AcDbEntity
  8
CURVE
100
AcDbLine
 62
253
  6
CONTINUOUS
 10
-19.7916388479
 20
25.3222829787
 11
-19.5416388479
 21
25.7552956806
  0
LINE
  5
3CA
100
AcDbEntity
  8
CURVE
100
AcDbLine
 62
253
  6
CONTINUOUS
 10
-21.9635943912
 20
24.3837893297
 11
-21.9010943912
 21
24.4462893297
  0
LINE
  5
3CB
100
AcDbEntity
  8
CURVE
100
AcDbLine
 62
253
  6
CONTINUOUS
 10
-20.9010943912
 20
24.1962893297
 11
-20.7760943912
 21
24.3212893297
  0
LINE
  5
3CC
100
AcDbEntity
  8
CURVE
100
AcDbLine
 62
253
  6
CONTINUOUS
 10
-4.3368086853
 20
34.6480751325
 11
-4.5225229793
 21
34.5552180339
  0
LINE
  5
3CD
100
AcDbEntity
  8
CURVE
100
AcDbLine
 62
253
  6
CONTINUOUS
 10
-5.2653801166
 20
34.0909322311
 11
-5.079665842
 21
34.1837893297
  0
LINE
  5
3CE
100
AcDbEntity
  8
CURVE
100
AcDbLine
 62
253
  6
CONTINUOUS
 10
-9.2653801166
 20
31.2123607804
 11
-9.079665842
 21
31.305217879
  0
LINE
  5
3CF
100
AcDbEntity
  8
CURVE
100
AcDbLine
 62
253
  6
CONTINUOUS
 10
-4.3368086853
 20
33.6266464283
 11
-4.5225229793
 21
33.5337893297
  0
LINE
  5
3D0
100
AcDbEntity
  8
CURVE
100
AcDbLine
 62
253
  6
CONTINUOUS
 10
-22.0885943912
 20
24.3212893297
 11
-21.9635943912
 21
24.3837893297
  0
LINE
  5
3D1
100
AcDbEntity
  8
CURVE
100
AcDbLine
 62
253
  6
CONTINUOUS
 10
-18.1510943912
 20
20.4837893297
 11
-20.0510943912
 21
20.4837893297
  0
LINE
  5
3D2
100
AcDbEntity
  8
0
100
AcDbLine
 62
7
  6
CONTINUOUS
 10
-12.7510943912
 20
21.6337893297
 11
-15.6910943912
 21
21.6337893297
  0
LINE
  5
3D3
100
AcDbEntity
  8
SMUSSO
100
AcDbLine
 62
7
  6
CONTINUOUS
 10
-16.4010943912
 20
21.8837893297
 11
-12.4010943912
 21
21.8837893297
  0
LINE
  5
3D4
100
AcDbEntity
  8
ASSI
100
AcDbLine
 62
7
  6
CONTINUOUS
 10
-16.4010943912
 20
21.8837893297
 11
-12.4010943912
 21
21.8837893297
  0
LINE
  5
3D5
100
AcDbEntity
  8
RACCORDO
100
AcDbLine
 62
7
  6
CONTINUOUS
 10
-1.4380155131
 20
22.2837893297
 11
-2.3510943912
 21
22.2837893297
  0
LINE
  5
3D6
100
AcDbEntity
  8
ASSI
100
AcDbLine
 62
7
  6
CONTINUOUS
 10
-1.4380155131
 20
22.2837893297
 11
-2.3510943912
 21
22.2837893297
  0
LINE
  5
3D7
100
AcDbEntity
  8
CURVE
100
AcDbLine
 62
253
  6
CONTINUOUS
 10
-1.105060869
 20
22.3099796732
 11
-1.1180255144
 21
22.3099796732
  0
LINE
  5
3D8
100
AcDbEntity
  8
SMUSSO
100
AcDbLine
 62
7
  6
CONTINUOUS
 10
-16.9010943912
 20
22.3837893297
 11
-11.9010943912
 21
22.3837893297
  0
LINE
  5
3D9
100
AcDbEntity
  8
ASSI
100
AcDbLine
 62
7
  6
CONTINUOUS
 10
-16.9010943912
 20
22.3837893297
 11
-11.9010943912
 21
22.3837893297
  0
LWPOLYLINE
  5
3DA
100
AcDbEntity
  8
CURVE
100
AcDbPolyline
 62
7
  6
CONTINUOUS
 90
18
 70
0
 10
-1.0525910233
 20
12.2504794822
 10
-1.0521383043
 20
12.2502653732
 10
-1.0516845324
 20
12.2496193135
 10
-1.0512299814
 20
12.2485357045
 10
-1.0507749249
 20
12.2470089472
 10
-1.0503196369
 20
12.245033443
 10
-1.049864391
 20
12.242603593
 10
-1.049409461
 20
12.2397137985
 10
-1.0489551206
 20
12.2363584606
 10
-1.0485016437
 20
12.2325319806
 10
-1.048049304
 20
12.2282287597
 10
-1.0475983753
 20
12.2234431991
 10
-1.0471491313
 20
12.2181697001
 10
-1.0467018458
 20
12.2124026637
 10
-1.0462567925
 20
12.2061364913
 10
-1.0458142453
 20
12.1993655841
 10
-1.0453744778
 20
12.1920843432
 10
-1.0449377639
 20
12.18428717
  0
LINE
  5
3DB
100
AcDbEntity
  8
CURVE
100
AcDbLine
 62
253
  6
CONTINUOUS
 10
-22.4635943912
 20
24.5087893297
 11
-22.3385943912
 21
24.3837893297
  0
LINE
  5
3DC
100
AcDbEntity
  8
CURVE
100
AcDbLine
 62
253
  6
CONTINUOUS
 10
-21.5885943912
 20
24.3212893297
 11
-21.4635943912
 21
24.1962893297
  0
LINE
  5
3DD
100
AcDbEntity
  8
CURVE
100
AcDbLine
 62
253
  6
CONTINUOUS
 10
-20.7135943912
 20
25.0712893297
 11
-20.8385943912
 21
25.2587893297
  0
LINE
  5
3DE
100
AcDbEntity
  8
CURVE
100
AcDbLine
 62
253
  6
CONTINUOUS
 10
-21.7135943912
 20
24.5712893297
 11
-21.5885943912
 21
24.3212893297
  0
LINE
  5
3DF
100
AcDbEntity
  8
CURVE
100
AcDbLine
 62
253
  6
CONTINUOUS
 10
-21.7760943912
 20
24.8212893297
 11
-21.7135943912
 21
24.5712893297
  0
LINE
  5
3E0
100
AcDbEntity
  8
CURVE
100
AcDbLine
 62
253
  6
CONTINUOUS
 10
-20.6510943912
 20
24.8212893297
 11
-20.7135943912
 21
25.0712893297
  0
LWPOLYLINE
  5
3E1
100
AcDbEntity
  8
0
100
AcDbPolyline
 62
7
  6
CONTINUOUS
 90
34
 70
0
 10
-19.4054662252
 20
48.3794217265
 10
-19.4057497761
 20
48.391316748
 10
-19.406598981
 20
48.4031848247
 10
-19.4080119164
 20
48.4149990726
 10
-19.4099853817
 20
48.4267327298
 10
-19.4125149065
 20
48.438359217
 10
-19.4155947608
 20
48.4498521977
 10
-19.4192179682
 20
48.4611856375
 10
-19.4233763213
 20
48.4723338637
 10
-19.4280604004
 20
48.4832716231
 10
-19.433259595
 20
48.4939741393
 10
-19.4389621279
 20
48.5044171686
 10
-19.4451550814
 20
48.5145770551
 10
-19.4518244273
 20
48.5244307846
 10
-19.4589550578
 20
48.5339560361
 10
-19.4665308206
 20
48.5431312328
 10
-19.4745345548
 20
48.5519355907
 10
-19.4829481302
 20
48.5603491661
 10
-19.4917524881
 20
48.5683529004
 10
-19.5009276848
 20
48.5759286631
 10
-19.5104529363
 20
48.5830592937
 10
-19.5203066658
 20
48.5897286395
 10
-19.5304665524
 20
48.5959215931
 10
-19.5409095816
 20
48.6016241259
 10
-19.5516120978
 20
48.6068233206
 10
-19.5625498572
 20
48.6115073997
 10
-19.5736980835
 20
48.6156657527
 10
-19.5850315233
 20
48.6192889601
 10
-19.5965245039
 20
48.6223688145
 10
-19.6081509911
 20
48.6248983393
 10
-19.6198846484
 20
48.6268718045
 10
-19.6316988963
 20
48.6282847399
 10
-19.6435669729
 20
48.6291339449
 10
-19.6554619945
 20
48.6294174957
  0
LWPOLYLINE
  5
3E2
100
AcDbEntity
  8
0
100
AcDbPolyline
 62
7
  6
CONTINUOUS
 90
4
 70
0
 10
-19.4010943912
 20
48.3837935605
 10
-19.4013775415
 20
48.3956888457
 10
-19.402226357
 20
48.4075571853
 10
-19.4036389171
 20
48.4193716958
  0
LINE
  5
3E3
100
AcDbEntity
  8
0
100
AcDbLine
 62
253
  6
CONTINUOUS
 10
-19.6554619945
 20
47.761620546
 11
-19.6503713934
 21
47.2564390605
  0
LINE
  5
3E4
100
AcDbEntity
  8
0
100
AcDbLine
 62
253
  6
CONTINUOUS
 10
-19.4054662252
 20
47.978126897
 11
-19.4010943912
 21
47.5442744779
  0
LINE
  5
3E5
100
AcDbEntity
  8
DRAFT
100
AcDbLine
 62
7
  6
CONTINUOUS
 10
-19.4510943912
 20
3.2337893297
 11
-19.4510943912
 21
4.1337893297
  0
LINE
  5
3E6
100
AcDbEntity
  8
DRAFT
100
AcDbLine
 62
7
  6
CONTINUOUS
 10
-19.4510943912
 20
44.1337893297
 11
-19.4510943912
 21
45.0337893297
  0
LINE
  5
3E7
100
AcDbEntity
  8
DRAFT
100
AcDbLine
 62
7
  6
CONTINUOUS
 10
-19.4467309573
 20
4.4294258958
 11
-19.4467309573
 21
4.1337893297
  0
LINE
  5
3E8
100
AcDbEntity
  8
DRAFT
100
AcDbLine
 62
7
  6
CONTINUOUS
 10
-19.4467309573
 20
43.8381527636
 11
-19.4467309573
 21
44.1337893297
  0
LINE
  5
3E9
100
AcDbEntity
  8
0
100
AcDbLine
 62
7
  6
CONTINUOUS
 10
-19.4054662252
 20
-0.1118430671
 11
-19.4054662252
 21
0.2894517624
  0
LINE
  5
3EA
100
AcDbEntity
  8
0
100
AcDbLine
 62
7
  6
CONTINUOUS
 10
-19.4054662252
 20
47.978126897
 11
-19.4054662252
 21
48.3794217265
  0
LINE
  5
3EB
100
AcDbEntity
  8
0
100
AcDbLine
 62
7
  6
CONTINUOUS
 10
-19.4010943912
 20
0.2894517624
 11
-19.4010943912
 21
1.7337893297
  0
LINE
  5
3EC
100
AcDbEntity
  8
0
100
AcDbLine
 62
7
  6
CONTINUOUS
 10
-19.4010943912
 20
46.5337893297
 11
-19.4010943912
 21
47.978126897
  0
LINE
  5
3ED
100
AcDbEntity
  8
DRAFT
100
AcDbLine
 62
7
  6
CONTINUOUS
 10
-19.3463719778
 20
45.1297848754
 11
-19.3463719778
 21
43.9385117432
  0
LINE
  5
3EE
100
AcDbEntity
  8
DRAFT
100
AcDbLine
 62
7
  6
CONTINUOUS
 10
-19.3463719778
 20
4.3290669162
 11
-19.3463719778
 21
3.137793784
  0
LINE
  5
3EF
100
AcDbEntity
  8
CURVE
100
AcDbLine
 62
253
  6
CONTINUOUS
 10
-18.9653801136
 20
15.3123607744
 11
-18.9653801136
 21
14.6337893297
  0
LINE
  5
3F0
100
AcDbEntity
  8
DRAFT
100
AcDbLine
 62
7
  6
CONTINUOUS
 10
-18.7558168047
 20
44.2385117432
 11
-18.7558168047
 21
43.9385117432
  0
LINE
  5
3F1
100
AcDbEntity
  8
DRAFT
100
AcDbLine
 62
7
  6
CONTINUOUS
 10
-18.7558168047
 20
4.3290669162
 11
-18.7558168047
 21
4.0290669162
  0
LINE
  5
3F2
100
AcDbEntity
  8
DRAFT
100
AcDbLine
 62
7
  6
CONTINUOUS
 10
-18.6554578251
 20
44.1381527636
 11
-18.6554578251
 21
43.8381527636
  0
LINE
  5
3F3
100
AcDbEntity
  8
DRAFT
100
AcDbLine
 62
7
  6
CONTINUOUS
 10
-18.6554578251
 20
4.4294258958
 11
-18.6554578251
 21
4.1294258958
  0
LINE
  5
3F4
100
AcDbEntity
  8
CURVE
100
AcDbLine
 62
253
  6
CONTINUOUS
 10
-18.1510943912
 20
9.8337893297
 11
-18.1510943912
 21
10.5123607744
  0
LINE
  5
3F5
100
AcDbEntity
  8
0
100
AcDbLine
 62
253
  6
CONTINUOUS
 10
-19.6503713934
 20
1.0111395989
 11
-19.6554619945
 21
0.5059581133
  0
LINE
  5
3F6
100
AcDbEntity
  8
0
100
AcDbLine
 62
253
  6
CONTINUOUS
 10
-19.4010943912
 20
0.7233041815
 11
-19.4054662252
 21
0.2894517624
  0
LWPOLYLINE
  5
3F7
100
AcDbEntity
  8
0
100
AcDbPolyline
 62
253
  6
CONTINUOUS
 90
4
 70
0
 10
-10.1688479455
 20
41.5928522356
 10
-10.1907092157
 20
41.5505239993
 10
-10.2206344562
 20
41.512002908
 10
-10.2577722005
 20
41.4786035006
  0
LWPOLYLINE
  5
3F8
100
AcDbEntity
  8
RACCORDO
100
AcDbPolyline
 62
253
  6
CONTINUOUS
 90
4
 70
0
 10
-10.1688479455
 20
41.5928522356
 10
-10.1907092157
 20
41.5505239993
 10
-10.2206344562
 20
41.512002908
 10
-10.2577722005
 20
41.4786035006
  0
LINE
  5
3F9
100
AcDbEntity
  8
CURVE
100
AcDbLine
 62
253
  6
CONTINUOUS
 10
-19.0341070931
 20
25.0003918701
 11
-18.8841070931
 21
25.2601994912
  0
LWPOLYLINE
  5
3FA
100
AcDbEntity
  8
0
100
AcDbPolyline
 62
7
  6
CONTINUOUS
 90
5
 70
0
 10
-4.3334076834
 20
45.8311785919
 10
-4.3600565348
 20
45.7917812804
 10
-4.3870638675
 20
45.7520485313
 10
-4.4144296816
 20
45.7120584508
 10
-4.4422170857
 20
45.6719272902
  0
LWPOLYLINE
  5
3FB
100
AcDbEntity
  8
0
100
AcDbPolyline
 62
7
  6
CONTINUOUS
 90
4
 70
0
 10
-4.4422170857
 20
45.6719272902
 10
-4.5270990985
 20
45.5507858864
 10
-4.5556893402
 20
45.510255204
 10
-4.584448737
 20
45.4697762783
  0
LINE
  5
3FC
100
AcDbEntity
  8
CURVE
100
AcDbLine
 62
253
  6
CONTINUOUS
 10
-9.4510943912
 20
34.9266467382
 11
-9.2653801166
 21
35.1123609354
  0
LINE
  5
3FD
100
AcDbEntity
  8
CURVE
100
AcDbLine
 62
253
  6
CONTINUOUS
 10
-9.4510943912
 20
33.9052180339
 11
-9.2653801166
 21
34.0909322311
  0
LINE
  5
3FE
100
AcDbEntity
  8
CURVE
100
AcDbLine
 62
253
  6
CONTINUOUS
 10
-8.1510943912
 20
34.8337893297
 11
-8.3368086853
 21
34.6480751325
  0
LINE
  5
3FF
100
AcDbEntity
  8
CURVE
100
AcDbLine
 62
253
  6
CONTINUOUS
 10
-8.1510943912
 20
33.8123606254
 11
-8.3368086853
 21
33.6266464283
  0
LINE
  5
400
100
AcDbEntity
  8
CURVE
100
AcDbLine
 62
253
  6
CONTINUOUS
 10
-8.7082372539
 20
33.1623606254
 11
-8.8939515673
 21
32.9766464283
  0
LINE
  5
401
100
AcDbEntity
  8
CURVE
100
AcDbLine
 62
253
  6
CONTINUOUS
 10
-8.3368086853
 20
30.748075055
 11
-8.5225229793
 21
30.655217879
  0
LINE
  5
402
100
AcDbEntity
  8
CURVE
100
AcDbLine
 62
253
  6
CONTINUOUS
 10
-5.2653801166
 20
31.2123607804
 11
-5.079665842
 21
31.305217879
  0
LINE
  5
403
100
AcDbEntity
  8
CURVE
100
AcDbLine
 62
253
  6
CONTINUOUS
 10
-4.3368086853
 20
30.748075055
 11
-4.5225229793
 21
30.655217879
  0
LINE
  5
404
100
AcDbEntity
  8
CURVE
100
AcDbLine
 62
253
  6
CONTINUOUS
 10
-21.0885943912
 20
24.1337893297
 11
-20.9010943912
 21
24.1962893297
  0
LINE
  5
405
100
AcDbEntity
  8
SMUSSO
100
AcDbLine
 62
7
  6
CONTINUOUS
 10
-11.9010943912
 20
22.6337893297
 11
-16.9010943912
 21
22.6337893297
  0
LINE
  5
406
100
AcDbEntity
  8
ASSI
100
AcDbLine
 62
7
  6
CONTINUOUS
 10
-11.9010943912
 20
22.6337893297
 11
-16.9010943912
 21
22.6337893297
  0
LINE
  5
407
100
AcDbEntity
  8
CURVE
100
AcDbLine
 62
253
  6
CONTINUOUS
 10
-1.0586873325
 20
22.8992654921
 11
-1.0359992041
 21
22.8992654921
  0
LINE
  5
408
100
AcDbEntity
  8
RACCORDO
100
AcDbLine
 62
7
  6
CONTINUOUS
 10
-1.4380155131
 20
22.9837893297
 11
-2.3510943912
 21
22.9837893297
  0
LINE
  5
409
100
AcDbEntity
  8
ASSI
100
AcDbLine
 62
7
  6
CONTINUOUS
 10
-1.4380155131
 20
22.9837893297
 11
-2.3510943912
 21
22.9837893297
  0
LINE
  5
40A
100
AcDbEntity
  8
SMUSSO
100
AcDbLine
 62
7
  6
CONTINUOUS
 10
-12.4010943912
 20
23.1337893297
 11
-16.4010943912
 21
23.1337893297
  0
LINE
  5
40B
100
AcDbEntity
  8
ASSI
100
AcDbLine
 62
7
  6
CONTINUOUS
 10
-12.4010943912
 20
23.1337893297
 11
-16.4010943912
 21
23.1337893297
  0
LINE
  5
40C
100
AcDbEntity
  8
CURVE
100
AcDbLine
 62
253
  6
CONTINUOUS
 10
-1.0392403651
 20
23.3991465987
 11
-1.0554461711
 21
23.3991465987
  0
LINE
  5
40D
100
AcDbEntity
  8
CURVE
100
AcDbLine
 62
253
  6
CONTINUOUS
 10
-1.095337386
 20
23.5171225746
 11
-1.1180255144
 21
23.5171225746
  0
LINE
  5
40E
100
AcDbEntity
  8
0
100
AcDbLine
 62
7
  6
CONTINUOUS
 10
-15.6910943912
 20
23.6337893297
 11
-12.7510943912
 21
23.6337893297
  0
LINE
  5
40F
100
AcDbEntity
  8
CURVE
100
AcDbLine
 62
253
  6
CONTINUOUS
 10
-1.0883564234
 20
23.6956940253
 11
-1.0656682951
 21
23.6956940253
  0
LINE
  5
410
100
AcDbEntity
  8
CURVE
100
AcDbLine
 62
253
  6
CONTINUOUS
 10
-1.0586873325
 20
24.0166464515
 11
-1.0359992041
 21
24.0166464515
  0
LINE
  5
411
100
AcDbEntity
  8
CURVE
100
AcDbLine
 62
253
  6
CONTINUOUS
 10
-21.2760943912
 20
24.1337893297
 11
-21.0885943912
 21
24.1337893297
  0
LINE
  5
412
100
AcDbEntity
  8
CURVE
100
AcDbLine
 62
253
  6
CONTINUOUS
 10
-22.1510943912
 20
24.3212893297
 11
-22.0885943912
 21
24.3212893297
  0
LINE
  5
413
100
AcDbEntity
  8
CURVE
100
AcDbLine
 62
253
  6
CONTINUOUS
 10
-1.0883564234
 20
24.3456941028
 11
-1.0656682951
 21
24.3456941028
  0
LINE
  5
414
100
AcDbEntity
  8
CURVE
100
AcDbLine
 62
253
  6
CONTINUOUS
 10
-22.3385943912
 20
24.3837893297
 11
-22.1510943912
 21
24.3212893297
  0
LINE
  5
415
100
AcDbEntity
  8
CURVE
100
AcDbLine
 62
253
  6
CONTINUOUS
 10
-21.4635943912
 20
24.1962893297
 11
-21.2760943912
 21
24.1337893297
  0
LINE
  5
416
100
AcDbEntity
  8
CURVE
100
AcDbLine
 62
253
  6
CONTINUOUS
 10
-20.8385943912
 20
25.2587893297
 11
-20.9635943912
 21
25.3837893297
  0
LINE
  5
417
100
AcDbEntity
  8
SMUSSO
100
AcDbLine
 62
7
  6
CONTINUOUS
 10
-16.9010943912
 20
22.3837893297
 11
-16.4010943912
 21
21.8837893297
  0
LINE
  5
418
100
AcDbEntity
  8
ASSI
100
AcDbLine
 62
7
  6
CONTINUOUS
 10
-16.9010943912
 20
22.3837893297
 11
-16.4010943912
 21
21.8837893297
  0
LINE
  5
419
100
AcDbEntity
  8
SMUSSO
100
AcDbLine
 62
7
  6
CONTINUOUS
 10
-11.9010943912
 20
17.8837893297
 11
-12.4010943912
 21
18.3837893297
  0
LINE
  5
41A
100
AcDbEntity
  8
ASSI
100
AcDbLine
 62
7
  6
CONTINUOUS
 10
-11.9010943912
 20
17.8837893297
 11
-12.4010943912
 21
18.3837893297
  0
LWPOLYLINE
  5
41B
100
AcDbEntity
  8
0
100
AcDbPolyline
 62
7
  6
CONTINUOUS
 90
3
 70
0
 10
-4.584448737
 20
2.797802381
 10
-4.5556893402
 20
2.7573234553
 10
-4.5270990985
 20
2.7167927729
  0
LWPOLYLINE
  5
41C
100
AcDbEntity
  8
0
100
AcDbPolyline
 62
7
  6
CONTINUOUS
 90
6
 70
0
 10
-4.5270990985
 20
2.7167927729
 10
-4.4422170857
 20
2.5956513692
 10
-4.4144296816
 20
2.5555202085
 10
-4.3870638675
 20
2.5155301281
 10
-4.3600565348
 20
2.475797379
 10
-4.3334076834
 20
2.4364000675
  0
LINE
  5
41D
100
AcDbEntity
  8
CURVE
100
AcDbLine
 62
253
  6
CONTINUOUS
 10
-20.0416388479
 20
25.7552956806
 11
-19.7916388479
 21
25.3222829787
  0
LINE
  5
41E
100
AcDbEntity
  8
SMUSSO
100
AcDbLine
 62
7
  6
CONTINUOUS
 10
-16.9010943912
 20
7.8837893297
 11
-16.9010943912
 21
12.3837893297
  0
LINE
  5
41F
100
AcDbEntity
  8
ASSI
100
AcDbLine
 62
7
  6
CONTINUOUS
 10
-16.9010943912
 20
7.8837893297
 11
-16.9010943912
 21
12.3837893297
  0
LINE
  5
420
100
AcDbEntity
  8
SMUSSO
100
AcDbLine
 62
7
  6
CONTINUOUS
 10
-16.9010943912
 20
12.8837893297
 11
-16.9010943912
 21
17.3837893297
  0
LINE
  5
421
100
AcDbEntity
  8
ASSI
100
AcDbLine
 62
7
  6
CONTINUOUS
 10
-16.9010943912
 20
12.8837893297
 11
-16.9010943912
 21
17.3837893297
  0
LINE
  5
422
100
AcDbEntity
  8
SMUSSO
100
AcDbLine
 62
7
  6
CONTINUOUS
 10
-16.9010943912
 20
17.8837893297
 11
-16.9010943912
 21
22.3837893297
  0
LINE
  5
423
100
AcDbEntity
  8
ASSI
100
AcDbLine
 62
7
  6
CONTINUOUS
 10
-16.9010943912
 20
17.8837893297
 11
-16.9010943912
 21
22.3837893297
  0
LINE
  5
424
100
AcDbEntity
  8
SMUSSO
100
AcDbLine
 62
7
  6
CONTINUOUS
 10
-16.9010943912
 20
22.6337893297
 11
-16.9010943912
 21
27.6337893297
  0
LINE
  5
425
100
AcDbEntity
  8
ASSI
100
AcDbLine
 62
7
  6
CONTINUOUS
 10
-16.9010943912
 20
22.6337893297
 11
-16.9010943912
 21
27.6337893297
  0
LINE
  5
426
100
AcDbEntity
  8
0
100
AcDbLine
 62
7
  6
CONTINUOUS
 10
-16.6010943912
 20
48.1337893297
 11
-16.6010943912
 21
47.5017342769
  0
LINE
  5
427
100
AcDbEntity
  8
0
100
AcDbLine
 62
7
  6
CONTINUOUS
 10
-16.6010943912
 20
47.0658443825
 11
-16.6010943912
 21
46.5337893297
  0
LINE
  5
428
100
AcDbEntity
  8
0
100
AcDbLine
 62
7
  6
CONTINUOUS
 10
-16.6010943912
 20
1.7337893297
 11
-16.6010943912
 21
1.2017342769
  0
LINE
  5
429
100
AcDbEntity
  8
0
100
AcDbLine
 62
7
  6
CONTINUOUS
 10
-16.6010943912
 20
0.7658443825
 11
-16.6010943912
 21
0.1337893297
  0
LINE
  5
42A
100
AcDbEntity
  8
0
100
AcDbLine
 62
7
  6
CONTINUOUS
 10
-16.5571721442
 20
48.0876816027
 11
-16.5571721442
 21
46.4898670826
  0
LINE
  5
42B
100
AcDbEntity
  8
0
100
AcDbLine
 62
7
  6
CONTINUOUS
 10
-16.5571721442
 20
1.7777115767
 11
-16.5571721442
 21
0.1798970566
  0
LINE
  5
42C
100
AcDbEntity
  8
SMUSSO
100
AcDbLine
 62
7
  6
CONTINUOUS
 10
-16.4010943912
 20
8.3837893297
 11
-16.4010943912
 21
11.8837893297
  0
LINE
  5
42D
100
AcDbEntity
  8
ASSI
100
AcDbLine
 62
7
  6
CONTINUOUS
 10
-16.4010943912
 20
8.3837893297
 11
-16.4010943912
 21
11.8837893297
  0
LINE
  5
42E
100
AcDbEntity
  8
SMUSSO
100
AcDbLine
 62
7
  6
CONTINUOUS
 10
-16.4010943912
 20
13.3837893297
 11
-16.4010943912
 21
16.8837893297
  0
LINE
  5
42F
100
AcDbEntity
  8
ASSI
100
AcDbLine
 62
7
  6
CONTINUOUS
 10
-16.4010943912
 20
13.3837893297
 11
-16.4010943912
 21
16.8837893297
  0
LINE
  5
430
100
AcDbEntity
  8
SMUSSO
100
AcDbLine
 62
7
  6
CONTINUOUS
 10
-16.4010943912
 20
18.3837893297
 11
-16.4010943912
 21
21.8837893297
  0
LINE
  5
431
100
AcDbEntity
  8
ASSI
100
AcDbLine
 62
7
  6
CONTINUOUS
 10
-16.4010943912
 20
18.3837893297
 11
-16.4010943912
 21
21.8837893297
  0
LINE
  5
432
100
AcDbEntity
  8
SMUSSO
100
AcDbLine
 62
7
  6
CONTINUOUS
 10
-16.4010943912
 20
23.1337893297
 11
-16.4010943912
 21
27.1337893297
  0
LINE
  5
433
100
AcDbEntity
  8
ASSI
100
AcDbLine
 62
7
  6
CONTINUOUS
 10
-16.4010943912
 20
23.1337893297
 11
-16.4010943912
 21
27.1337893297
  0
LINE
  5
434
100
AcDbEntity
  8
0
100
AcDbLine
 62
7
  6
CONTINUOUS
 10
-15.6910943912
 20
27.1337893297
 11
-15.6910943912
 21
23.1337893297
  0
LINE
  5
435
100
AcDbEntity
  8
0
100
AcDbLine
 62
7
  6
CONTINUOUS
 10
-15.6910943912
 20
21.8837893297
 11
-15.6910943912
 21
18.3837893297
  0
LINE
  5
436
100
AcDbEntity
  8
0
100
AcDbLine
 62
7
  6
CONTINUOUS
 10
-15.6910943912
 20
16.8837893297
 11
-15.6910943912
 21
13.3837893297
  0
LINE
  5
437
100
AcDbEntity
  8
0
100
AcDbLine
 62
7
  6
CONTINUOUS
 10
-15.6910943912
 20
11.8837893297
 11
-15.6910943912
 21
8.3837893297
  0
LINE
  5
438
100
AcDbEntity
  8
0
100
AcDbLine
 62
7
  6
CONTINUOUS
 10
-15.6510943912
 20
44.0337893297
 11
-15.6510943912
 21
43.8337893297
  0
LINE
  5
439
100
AcDbEntity
  8
DRAFT
100
AcDbLine
 62
7
  6
CONTINUOUS
 10
-15.6510943912
 20
44.0337893297
 11
-15.6510943912
 21
43.8337893297
  0
LINE
  5
43A
100
AcDbEntity
  8
0
100
AcDbLine
 62
7
  6
CONTINUOUS
 10
-15.6510943912
 20
4.4337893297
 11
-15.6510943912
 21
4.2337893297
  0
LINE
  5
43B
100
AcDbEntity
  8
DRAFT
100
AcDbLine
 62
7
  6
CONTINUOUS
 10
-15.6510943912
 20
4.4337893297
 11
-15.6510943912
 21
4.2337893297
  0
LINE
  5
43C
100
AcDbEntity
  8
0
100
AcDbLine
 62
7
  6
CONTINUOUS
 10
-15.6144387549
 20
43.9971336933
 11
-15.6144387549
 21
43.7971336933
  0
LINE
  5
43D
100
AcDbEntity
  8
DRAFT
100
AcDbLine
 62
7
  6
CONTINUOUS
 10
-15.6144387549
 20
43.9971336933
 11
-15.6144387549
 21
43.7971336933
  0
LINE
  5
43E
100
AcDbEntity
  8
0
100
AcDbLine
 62
7
  6
CONTINUOUS
 10
-15.6144387549
 20
4.470444966
 11
-15.6144387549
 21
4.270444966
  0
LINE
  5
43F
100
AcDbEntity
  8
DRAFT
100
AcDbLine
 62
7
  6
CONTINUOUS
 10
-15.6144387549
 20
4.470444966
 11
-15.6144387549
 21
4.270444966
  0
LINE
  5
440
100
AcDbEntity
  8
CURVE
100
AcDbLine
 62
253
  6
CONTINUOUS
 10
-22.4510943912
 20
18.9599796583
 11
-22.2653801166
 21
19.1456938554
  0
LINE
  5
441
100
AcDbEntity
  8
CURVE
100
AcDbLine
 62
253
  6
CONTINUOUS
 10
-9.4510943912
 20
31.0266464283
 11
-9.2653801166
 21
31.2123607804
  0
LINE
  5
442
100
AcDbEntity
  8
CURVE
100
AcDbLine
 62
253
  6
CONTINUOUS
 10
-5.4510943912
 20
34.9266467382
 11
-5.2653801166
 21
35.1123609354
  0
LINE
  5
443
100
AcDbEntity
  8
CURVE
100
AcDbLine
 62
253
  6
CONTINUOUS
 10
-21.1510943912
 20
18.8671228696
 11
-21.3368086853
 21
18.6814086725
  0
LINE
  5
444
100
AcDbEntity
  8
CURVE
100
AcDbLine
 62
253
  6
CONTINUOUS
 10
-21.7082372539
 20
18.2171228696
 11
-21.8939515673
 21
18.0314086725
  0
LINE
  5
445
100
AcDbEntity
  8
SMUSSO
100
AcDbLine
 62
7
  6
CONTINUOUS
 10
-11.9010943912
 20
27.6337893297
 11
-12.4010943912
 21
27.1337893297
  0
LINE
  5
446
100
AcDbEntity
  8
ASSI
100
AcDbLine
 62
7
  6
CONTINUOUS
 10
-11.9010943912
 20
27.6337893297
 11
-12.4010943912
 21
27.1337893297
  0
LINE
  5
447
100
AcDbEntity
  8
SMUSSO
100
AcDbLine
 62
7
  6
CONTINUOUS
 10
-16.9010943912
 20
22.6337893297
 11
-16.4010943912
 21
23.1337893297
  0
LINE
  5
448
100
AcDbEntity
  8
ASSI
100
AcDbLine
 62
7
  6
CONTINUOUS
 10
-16.9010943912
 20
22.6337893297
 11
-16.4010943912
 21
23.1337893297
  0
LINE
  5
449
100
AcDbEntity
  8
CURVE
100
AcDbLine
 62
253
  6
CONTINUOUS
 10
-5.4510943912
 20
33.9052180339
 11
-5.2653801166
 21
34.0909322311
  0
LINE
  5
44A
100
AcDbEntity
  8
CURVE
100
AcDbLine
 62
253
  6
CONTINUOUS
 10
-8.1510943912
 20
30.9337893297
 11
-8.3368086853
 21
30.748075055
  0
LINE
  5
44B
100
AcDbEntity
  8
CURVE
100
AcDbLine
 62
253
  6
CONTINUOUS
 10
-4.1510943912
 20
34.8337893297
 11
-4.3368086853
 21
34.6480751325
  0
LINE
  5
44C
100
AcDbEntity
  8
CURVE
100
AcDbLine
 62
253
  6
CONTINUOUS
 10
-21.3368086853
 20
17.5671228696
 11
-21.1510943912
 21
17.7528370668
  0
LINE
  5
44D
100
AcDbEntity
  8
CURVE
100
AcDbLine
 62
253
  6
CONTINUOUS
 10
-5.2653801166
 20
33.1314083625
 11
-5.4510943912
 21
32.9766464283
  0
LINE
  5
44E
100
AcDbEntity
  8
CURVE
100
AcDbLine
 62
253
  6
CONTINUOUS
 10
-1.0883564234
 20
24.9337893252
 11
-1.0656682951
 21
24.9337893252
  0
LINE
  5
44F
100
AcDbEntity
  8
CURVE
100
AcDbLine
 62
253
  6
CONTINUOUS
 10
-1.1180255144
 20
25.3742655535
 11
-1.095337386
 21
25.3742655535
  0
LINE
  5
450
100
AcDbEntity
  8
CURVE
100
AcDbLine
 62
253
  6
CONTINUOUS
 10
-1.0359992041
 20
25.4280750124
 11
-1.0586873325
 21
25.4280750124
  0
LINE
  5
451
100
AcDbEntity
  8
CURVE
100
AcDbLine
 62
253
  6
CONTINUOUS
 10
-19.5416388479
 20
25.7552956806
 11
-20.0416388479
 21
25.7552956806
  0
LINE
  5
452
100
AcDbEntity
  8
CURVE
100
AcDbLine
 62
253
  6
CONTINUOUS
 10
-1.0586873325
 20
26.1337893297
 11
-1.0359992041
 21
26.1337893297
  0
LINE
  5
453
100
AcDbEntity
  8
CURVE
100
AcDbLine
 62
253
  6
CONTINUOUS
 10
-1.1180255144
 20
26.3337893252
 11
-1.095337386
 21
26.3337893252
  0
LINE
  5
454
100
AcDbEntity
  8
CURVE
100
AcDbLine
 62
253
  6
CONTINUOUS
 10
-18.1510943912
 20
24.6637893297
 11
-20.0416388479
 21
25.7552956806
  0
LINE
  5
455
100
AcDbEntity
  8
0
100
AcDbLine
 62
7
  6
CONTINUOUS
 10
-10.1700830064
 20
5.9337893297
 11
-10.1605220436
 21
5.9021718312
  0
LINE
  5
456
100
AcDbEntity
  8
RACCORDO
100
AcDbLine
 62
7
  6
CONTINUOUS
 10
-10.1700830064
 20
5.9337893297
 11
-10.1605220436
 21
5.9021718312
  0
LINE
  5
457
100
AcDbEntity
  8
DRAFT
100
AcDbLine
 62
7
  6
CONTINUOUS
 10
-15.6512478259
 20
44.1513711952
 11
-15.6516351146
 21
44.195750091
  0
LINE
  5
458
100
AcDbEntity
  8
0
100
AcDbLine
 62
7
  6
CONTINUOUS
 10
-15.6716488544
 20
46.4890975136
 11
-15.6859521075
 21
48.1280879847
  0
LINE
  5
459
100
AcDbEntity
  8
0
100
AcDbLine
 62
7
  6
CONTINUOUS
 10
-15.1432402102
 20
44.9337893297
 11
-15.156797716
 21
46.4873256199
  0
LINE
  5
45A
100
AcDbEntity
  8
0
100
AcDbLine
 62
253
  6
CONTINUOUS
 10
-13.6520488176
 20
4.0641675779
 11
-13.6526186261
 21
4.2493026501
  0
LINE
  5
45B
100
AcDbEntity
  8
0
100
AcDbLine
 62
7
  6
CONTINUOUS
 10
-14.6510943912
 20
5.8337893297
 11
-14.6510943912
 21
7.5337893297
  0
LINE
  5
45C
100
AcDbEntity
  8
ASSI
100
AcDbLine
 62
7
  6
CONTINUOUS
 10
-14.6510943912
 20
5.8337893297
 11
-14.6510943912
 21
7.5337893297
  0
LINE
  5
45D
100
AcDbEntity
  8
0
100
AcDbLine
 62
7
  6
CONTINUOUS
 10
-14.6510943912
 20
40.7337893297
 11
-14.6510943912
 21
42.4337893297
  0
LINE
  5
45E
100
AcDbEntity
  8
ASSI
100
AcDbLine
 62
7
  6
CONTINUOUS
 10
-14.6510943912
 20
40.7337893297
 11
-14.6510943912
 21
42.4337893297
  0
LINE
  5
45F
100
AcDbEntity
  8
0
100
AcDbLine
 62
253
  6
CONTINUOUS
 10
-14.2975410007
 20
5.8337893297
 11
-14.2975410007
 21
5.901249313
  0
LINE
  5
460
100
AcDbEntity
  8
RACCORDO
100
AcDbLine
 62
253
  6
CONTINUOUS
 10
-14.2975410007
 20
5.8337893297
 11
-14.2975410007
 21
5.901249313
  0
LINE
  5
461
100
AcDbEntity
  8
0
100
AcDbLine
 62
7
  6
CONTINUOUS
 10
-14.2510943912
 20
5.9337893297
 11
-14.2510943912
 21
5.9016081276
  0
LINE
  5
462
100
AcDbEntity
  8
0
100
AcDbLine
 62
7
  6
CONTINUOUS
 10
-14.1510943912
 20
5.9007407408
 11
-14.1510943912
 21
5.9337893297
  0
LINE
  5
463
100
AcDbEntity
  8
RACCORDO
100
AcDbLine
 62
7
  6
CONTINUOUS
 10
-14.1510943912
 20
5.9007407408
 11
-14.1510943912
 21
5.9337893297
  0
LINE
  5
464
100
AcDbEntity
  8
RACCORDO
100
AcDbLine
 62
7
  6
CONTINUOUS
 10
-14.133683702
 20
42.4337893297
 11
-14.133683702
 21
42.3337893297
  0
LINE
  5
465
100
AcDbEntity
  8
ASSI
100
AcDbLine
 62
7
  6
CONTINUOUS
 10
-14.133683702
 20
42.4337893297
 11
-14.133683702
 21
42.3337893297
  0
LINE
  5
466
100
AcDbEntity
  8
RACCORDO
100
AcDbLine
 62
7
  6
CONTINUOUS
 10
-14.0550988455
 20
5.9337893297
 11
-14.0550988455
 21
5.8337893297
  0
LINE
  5
467
100
AcDbEntity
  8
ASSI
100
AcDbLine
 62
7
  6
CONTINUOUS
 10
-14.0550988455
 20
5.9337893297
 11
-14.0550988455
 21
5.8337893297
  0
LINE
  5
468
100
AcDbEntity
  8
0
100
AcDbLine
 62
253
  6
CONTINUOUS
 10
-13.8510943912
 20
6.8178214113
 11
-13.8510943912
 21
6.8837893297
  0
LINE
  5
469
100
AcDbEntity
  8
RACCORDO
100
AcDbLine
 62
253
  6
CONTINUOUS
 10
-13.8510943912
 20
6.8178214113
 11
-13.8510943912
 21
6.8837893297
  0
LINE
  5
46A
100
AcDbEntity
  8
0
100
AcDbLine
 62
253
  6
CONTINUOUS
 10
-13.8510943912
 20
41.3837893297
 11
-13.8510943912
 21
41.4337893297
  0
LINE
  5
46B
100
AcDbEntity
  8
RACCORDO
100
AcDbLine
 62
253
  6
CONTINUOUS
 10
-13.8510943912
 20
41.3837893297
 11
-13.8510943912
 21
41.4337893297
  0
LINE
  5
46C
100
AcDbEntity
  8
0
100
AcDbLine
 62
253
  6
CONTINUOUS
 10
-13.6526186261
 20
44.0182760093
 11
-13.6520488176
 21
44.2034110815
  0
LINE
  5
46D
100
AcDbEntity
  8
DRAFT
100
AcDbLine
 62
7
  6
CONTINUOUS
 10
-15.6512478259
 20
4.1162074641
 11
-15.6516351146
 21
4.0718285684
  0
LINE
  5
46E
100
AcDbEntity
  8
0
100
AcDbLine
 62
7
  6
CONTINUOUS
 10
-15.6859521075
 20
0.1394906747
 11
-15.6716488544
 21
1.7784811457
  0
LINE
  5
46F
100
AcDbEntity
  8
0
100
AcDbLine
 62
7
  6
CONTINUOUS
 10
-15.156797716
 20
1.7802530394
 11
-15.1432402102
 21
3.3337893297
  0
LINE
  5
470
100
AcDbEntity
  8
0
100
AcDbLine
 62
253
  6
CONTINUOUS
 10
-10.1555470294
 20
41.6377306117
 11
-10.1688479455
 21
41.5928522356
  0
LINE
  5
471
100
AcDbEntity
  8
RACCORDO
100
AcDbLine
 62
253
  6
CONTINUOUS
 10
-10.1555470294
 20
41.6377306117
 11
-10.1688479455
 21
41.5928522356
  0
LWPOLYLINE
  5
472
100
AcDbEntity
  8
0
100
AcDbPolyline
 62
7
  6
CONTINUOUS
 90
9
 70
0
 10
-4.883187017
 20
48.476707779
 10
-4.8873451126
 20
48.4655593035
 10
-4.890968033
 20
48.4542256087
 10
-4.894047573
 20
48.4427323685
 10
-4.896576759
 20
48.4311056172
 10
-4.8985498654
 20
48.4193716958
 10
-4.8999624255
 20
48.4075571853
 10
-4.900811241
 20
48.3956888457
 10
-4.9010943912
 20
48.3837935605
  0
LINE
  5
473
100
AcDbEntity
  8
CURVE
100
AcDbLine
 62
253
  6
CONTINUOUS
 10
-21.6463324957
 20
14.7504560997
 11
-21.4606182017
 21
14.9980751325
  0
LINE
  5
474
100
AcDbEntity
  8
CURVE
100
AcDbLine
 62
253
  6
CONTINUOUS
 10
-4.1510943912
 20
33.8123606254
 11
-4.3368086853
 21
33.6266464283
  0
LINE
  5
475
100
AcDbEntity
  8
CURVE
100
AcDbLine
 62
253
  6
CONTINUOUS
 10
-4.7082372539
 20
33.1623606254
 11
-4.8939515673
 21
32.9766464283
  0
LINE
  5
476
100
AcDbEntity
  8
CURVE
100
AcDbLine
 62
253
  6
CONTINUOUS
 10
-5.4510943912
 20
31.0266464283
 11
-5.2653801166
 21
31.2123607804
  0
LINE
  5
477
100
AcDbEntity
  8
CURVE
100
AcDbLine
 62
253
  6
CONTINUOUS
 10
-22.2653801166
 20
19.1456938554
 11
-22.079665842
 21
19.238551264
  0
LINE
  5
478
100
AcDbEntity
  8
CURVE
100
AcDbLine
 62
253
  6
CONTINUOUS
 10
-20.0510943912
 20
19.5337893297
 11
-18.1510943912
 21
20.4837893297
  0
LINE
  5
479
100
AcDbEntity
  8
CURVE
100
AcDbLine
 62
253
  6
CONTINUOUS
 10
-21.3368086853
 20
18.6814086725
 11
-21.5225229793
 21
18.588551264
  0
LWPOLYLINE
  5
47A
100
AcDbEntity
  8
CURVE
100
AcDbPolyline
 62
7
  6
CONTINUOUS
 90
15
 70
0
 10
-1.0418059596
 20
30.5965093558
 10
-1.0420251848
 20
30.5964701302
 10
-1.0422460743
 20
30.5967392197
 10
-1.0424683247
 20
30.5973176859
 10
-1.0426916327
 20
30.5982065904
 10
-1.0429156947
 20
30.5994069948
 10
-1.0431402073
 20
30.6009199608
 10
-1.0433648672
 20
30.60274655
 10
-1.0435893709
 20
30.604887824
 10
-1.043813415
 20
30.6073448445
 10
-1.0440366961
 20
30.6101186732
 10
-1.0442589108
 20
30.6132103715
 10
-1.0444797556
 20
30.6166210012
 10
-1.0446989272
 20
30.6203516239
 10
-1.0449161221
 20
30.6244033012
  0
LINE
  5
47B
100
AcDbEntity
  8
0
100
AcDbLine
 62
7
  6
CONTINUOUS
 10
-12.7510943912
 20
26.6337893297
 11
-15.6910943912
 21
26.6337893297
  0
LINE
  5
47C
100
AcDbEntity
  8
CURVE
100
AcDbLine
 62
253
  6
CONTINUOUS
 10
-7.5676095302
 20
26.7337893297
 11
-8.1510943912
 21
26.7337893297
  0
LINE
  5
47D
100
AcDbEntity
  8
SMUSSO
100
AcDbLine
 62
7
  6
CONTINUOUS
 10
-16.4010943912
 20
27.1337893297
 11
-12.4010943912
 21
27.1337893297
  0
LINE
  5
47E
100
AcDbEntity
  8
ASSI
100
AcDbLine
 62
7
  6
CONTINUOUS
 10
-16.4010943912
 20
27.1337893297
 11
-12.4010943912
 21
27.1337893297
  0
LINE
  5
47F
100
AcDbEntity
  8
CURVE
100
AcDbLine
 62
253
  6
CONTINUOUS
 10
-5.4510943912
 20
27.1337893297
 11
-5.1510943912
 21
27.1337893297
  0
LINE
  5
480
100
AcDbEntity
  8
RACCORDO
100
AcDbLine
 62
7
  6
CONTINUOUS
 10
-1.4380155131
 20
27.2837893297
 11
-2.3510943912
 21
27.2837893297
  0
LINE
  5
481
100
AcDbEntity
  8
ASSI
100
AcDbLine
 62
7
  6
CONTINUOUS
 10
-1.4380155131
 20
27.2837893297
 11
-2.3510943912
 21
27.2837893297
  0
LINE
  5
482
100
AcDbEntity
  8
CURVE
100
AcDbLine
 62
253
  6
CONTINUOUS
 10
-8.1510943912
 20
27.5337893297
 11
-7.5676095302
 21
27.5337893297
  0
LINE
  5
483
100
AcDbEntity
  8
SMUSSO
100
AcDbLine
 62
7
  6
CONTINUOUS
 10
-16.9010943912
 20
27.6337893297
 11
-11.9010943912
 21
27.6337893297
  0
LINE
  5
484
100
AcDbEntity
  8
ASSI
100
AcDbLine
 62
7
  6
CONTINUOUS
 10
-16.9010943912
 20
27.6337893297
 11
-11.9010943912
 21
27.6337893297
  0
LINE
  5
485
100
AcDbEntity
  8
SMUSSO
100
AcDbLine
 62
7
  6
CONTINUOUS
 10
-16.9010943912
 20
27.6337893297
 11
-16.4010943912
 21
27.1337893297
  0
LINE
  5
486
100
AcDbEntity
  8
ASSI
100
AcDbLine
 62
7
  6
CONTINUOUS
 10
-16.9010943912
 20
27.6337893297
 11
-16.4010943912
 21
27.1337893297
  0
LINE
  5
487
100
AcDbEntity
  8
SMUSSO
100
AcDbLine
 62
7
  6
CONTINUOUS
 10
-11.9010943912
 20
22.6337893297
 11
-12.4010943912
 21
23.1337893297
  0
LINE
  5
488
100
AcDbEntity
  8
ASSI
100
AcDbLine
 62
7
  6
CONTINUOUS
 10
-11.9010943912
 20
22.6337893297
 11
-12.4010943912
 21
23.1337893297
  0
LWPOLYLINE
  5
489
100
AcDbEntity
  8
0
100
AcDbPolyline
 62
7
  6
CONTINUOUS
 90
18
 70
0
 10
-4.883187017
 20
-0.2091291196
 10
-4.8785031634
 20
-0.2200671166
 10
-4.8733041601
 20
-0.2307698579
 10
-4.8676017829
 20
-0.2412130986
 10
-4.8614089494
 20
-0.2513731762
 10
-4.8547396867
 20
-0.2612270754
 10
-4.847609102
 20
-0.2707524742
 10
-4.8400333501
 20
-0.2799277894
 10
-4.8320295917
 20
-0.2887322364
 10
-4.8236159573
 20
-0.2971458708
 10
-4.8148115103
 20
-0.3051496292
 10
-4.8056361951
 20
-0.312725381
 10
-4.7961107964
 20
-0.3198559658
 10
-4.7862568972
 20
-0.3265252284
 10
-4.7760968195
 20
-0.332718062
 10
-4.7656535788
 20
-0.3384204391
 10
-4.7549508375
 20
-0.3436194425
 10
-4.7440128405
 20
-0.3483032961
  0
LWPOLYLINE
  5
48A
100
AcDbEntity
  8
0
100
AcDbPolyline
 62
253
  6
CONTINUOUS
 90
5
 70
0
 10
-10.1555470294
 20
6.6298480477
 10
-10.1688479455
 20
6.6747264238
 10
-10.1907092157
 20
6.7170546601
 10
-10.2206344562
 20
6.7555757514
 10
-10.2577722005
 20
6.7889751588
  0
LWPOLYLINE
  5
48B
100
AcDbEntity
  8
RACCORDO
100
AcDbPolyline
 62
253
  6
CONTINUOUS
 90
5
 70
0
 10
-10.1555470294
 20
6.6298480477
 10
-10.1688479455
 20
6.6747264238
 10
-10.1907092157
 20
6.7170546601
 10
-10.2206344562
 20
6.7555757514
 10
-10.2577722005
 20
6.7889751588
  0
LWPOLYLINE
  5
48C
100
AcDbEntity
  8
0
100
AcDbPolyline
 62
7
  6
CONTINUOUS
 90
6
 70
0
 10
-19.4036389171
 20
48.4193716958
 10
-19.4056120235
 20
48.4311056172
 10
-19.4081412095
 20
48.4427323685
 10
-19.4112207495
 20
48.4542256087
 10
-19.4148436699
 20
48.4655593035
 10
-19.4190017655
 20
48.476707779
  0
LINE
  5
48D
100
AcDbEntity
  8
0
100
AcDbLine
 62
7
  6
CONTINUOUS
 10
-13.1597683446
 20
1.7389936172
 11
-13.1596617612
 21
0.3394940599
  0
LINE
  5
48E
100
AcDbEntity
  8
0
100
AcDbLine
 62
7
  6
CONTINUOUS
 10
-13.1510943912
 20
0.3337825605
 11
-13.1510943912
 21
1.7337893297
  0
LINE
  5
48F
100
AcDbEntity
  8
0
100
AcDbLine
 62
7
  6
CONTINUOUS
 10
-13.1510943912
 20
46.5337893297
 11
-13.1510943912
 21
47.9337960989
  0
LINE
  5
490
100
AcDbEntity
  8
0
100
AcDbLine
 62
7
  6
CONTINUOUS
 10
-12.7510943912
 20
8.6337893297
 11
-12.7510943912
 21
11.6337893297
  0
LINE
  5
491
100
AcDbEntity
  8
0
100
AcDbLine
 62
7
  6
CONTINUOUS
 10
-12.7510943912
 20
13.6337893297
 11
-12.7510943912
 21
16.6337893297
  0
LINE
  5
492
100
AcDbEntity
  8
0
100
AcDbLine
 62
7
  6
CONTINUOUS
 10
-12.7510943912
 20
18.6337893297
 11
-12.7510943912
 21
21.6337893297
  0
LINE
  5
493
100
AcDbEntity
  8
0
100
AcDbLine
 62
7
  6
CONTINUOUS
 10
-12.7510943912
 20
23.6337893297
 11
-12.7510943912
 21
26.6337893297
  0
LINE
  5
494
100
AcDbEntity
  8
SMUSSO
100
AcDbLine
 62
7
  6
CONTINUOUS
 10
-12.4010943912
 20
27.1337893297
 11
-12.4010943912
 21
23.1337893297
  0
LINE
  5
495
100
AcDbEntity
  8
ASSI
100
AcDbLine
 62
7
  6
CONTINUOUS
 10
-12.4010943912
 20
27.1337893297
 11
-12.4010943912
 21
23.1337893297
  0
LINE
  5
496
100
AcDbEntity
  8
SMUSSO
100
AcDbLine
 62
7
  6
CONTINUOUS
 10
-12.4010943912
 20
21.8837893297
 11
-12.4010943912
 21
18.3837893297
  0
LINE
  5
497
100
AcDbEntity
  8
ASSI
100
AcDbLine
 62
7
  6
CONTINUOUS
 10
-12.4010943912
 20
21.8837893297
 11
-12.4010943912
 21
18.3837893297
  0
LINE
  5
498
100
AcDbEntity
  8
SMUSSO
100
AcDbLine
 62
7
  6
CONTINUOUS
 10
-12.4010943912
 20
16.8837893297
 11
-12.4010943912
 21
13.3837893297
  0
LINE
  5
499
100
AcDbEntity
  8
ASSI
100
AcDbLine
 62
7
  6
CONTINUOUS
 10
-12.4010943912
 20
16.8837893297
 11
-12.4010943912
 21
13.3837893297
  0
LINE
  5
49A
100
AcDbEntity
  8
SMUSSO
100
AcDbLine
 62
7
  6
CONTINUOUS
 10
-12.4010943912
 20
11.8837893297
 11
-12.4010943912
 21
8.3837893297
  0
LINE
  5
49B
100
AcDbEntity
  8
ASSI
100
AcDbLine
 62
7
  6
CONTINUOUS
 10
-12.4010943912
 20
11.8837893297
 11
-12.4010943912
 21
8.3837893297
  0
LINE
  5
49C
100
AcDbEntity
  8
SMUSSO
100
AcDbLine
 62
7
  6
CONTINUOUS
 10
-11.9010943912
 20
27.6337893297
 11
-11.9010943912
 21
22.6337893297
  0
LINE
  5
49D
100
AcDbEntity
  8
ASSI
100
AcDbLine
 62
7
  6
CONTINUOUS
 10
-11.9010943912
 20
27.6337893297
 11
-11.9010943912
 21
22.6337893297
  0
LINE
  5
49E
100
AcDbEntity
  8
SMUSSO
100
AcDbLine
 62
7
  6
CONTINUOUS
 10
-11.9010943912
 20
22.3837893297
 11
-11.9010943912
 21
17.8837893297
  0
LINE
  5
49F
100
AcDbEntity
  8
ASSI
100
AcDbLine
 62
7
  6
CONTINUOUS
 10
-11.9010943912
 20
22.3837893297
 11
-11.9010943912
 21
17.8837893297
  0
LINE
  5
4A0
100
AcDbEntity
  8
SMUSSO
100
AcDbLine
 62
7
  6
CONTINUOUS
 10
-11.9010943912
 20
17.3837893297
 11
-11.9010943912
 21
12.8837893297
  0
LINE
  5
4A1
100
AcDbEntity
  8
ASSI
100
AcDbLine
 62
7
  6
CONTINUOUS
 10
-11.9010943912
 20
17.3837893297
 11
-11.9010943912
 21
12.8837893297
  0
LINE
  5
4A2
100
AcDbEntity
  8
SMUSSO
100
AcDbLine
 62
7
  6
CONTINUOUS
 10
-11.9010943912
 20
12.3837893297
 11
-11.9010943912
 21
7.8837893297
  0
LINE
  5
4A3
100
AcDbEntity
  8
ASSI
100
AcDbLine
 62
7
  6
CONTINUOUS
 10
-11.9010943912
 20
12.3837893297
 11
-11.9010943912
 21
7.8837893297
  0
LINE
  5
4A4
100
AcDbEntity
  8
0
100
AcDbLine
 62
7
  6
CONTINUOUS
 10
-13.1597683446
 20
46.5285850422
 11
-13.1596617612
 21
47.9280845995
  0
LWPOLYLINE
  5
4A5
100
AcDbEntity
  8
0
100
AcDbPolyline
 62
7
  6
CONTINUOUS
 90
17
 70
0
 10
-7.7450166383
 20
48.0876816027
 10
-7.7453526196
 20
48.0859651485
 10
-7.7461892299
 20
48.0837709427
 10
-7.7475306073
 20
48.0810989852
 10
-7.7493795587
 20
48.0779552341
 10
-7.7517394791
 20
48.0743337313
 10
-7.7546161726
 20
48.070216603
 10
-7.7580107571
 20
48.0656083665
 10
-7.761927694
 20
48.0605045045
 10
-7.7663830115
 20
48.0548735908
 10
-7.7713786065
 20
48.0487256327
 10
-7.7769228774
 20
48.042050623
 10
-7.7830529422
 20
48.0347871137
 10
-7.789784174
 20
48.0269361228
 10
-7.7971235716
 20
48.0184966324
 10
-7.8051073721
 20
48.0094041408
 10
-7.8137544711
 20
47.9996532337
  0
LWPOLYLINE
  5
4A6
100
AcDbEntity
  8
0
100
AcDbPolyline
 62
7
  6
CONTINUOUS
 90
17
 70
0
 10
-16.5571721442
 20
0.1798970566
 10
-16.5568359918
 20
0.1816130826
 10
-16.5559984554
 20
0.1838093628
 10
-16.5546547561
 20
0.1864858971
 10
-16.5528012061
 20
0.1896367863
 10
-16.5504338992
 20
0.1932679296
 10
-16.5475474665
 20
0.197397025
 10
-16.5441402134
 20
0.2020211437
 10
-16.5402079158
 20
0.2071432144
 10
-16.535737822
 20
0.2127897208
 10
-16.5307307977
 20
0.2189490892
 10
-16.5251780163
 20
0.2256328933
 10
-16.5190414989
 20
0.2329023383
 10
-16.5123064464
 20
0.2407557989
 10
-16.5049663755
 20
0.2491949004
 10
-16.4969832041
 20
0.2582857231
 10
-16.4883380188
 20
0.2680332317
  0
LINE
  5
4A7
100
AcDbEntity
  8
CURVE
100
AcDbLine
 62
253
  6
CONTINUOUS
 10
-20.0510943912
 20
15.3123607744
 11
-19.779665836
 21
15.5837893297
  0
LINE
  5
4A8
100
AcDbEntity
  8
CURVE
100
AcDbLine
 62
253
  6
CONTINUOUS
 10
-22.4510943912
 20
12.7695036818
 11
-22.2653801166
 21
12.955217879
  0
LINE
  5
4A9
100
AcDbEntity
  8
CURVE
100
AcDbLine
 62
253
  6
CONTINUOUS
 10
-4.1510943912
 20
30.9337893297
 11
-4.3368086853
 21
30.748075055
  0
LINE
  5
4AA
100
AcDbEntity
  8
SMUSSO
100
AcDbLine
 62
7
  6
CONTINUOUS
 10
-16.9010943912
 20
17.8837893297
 11
-16.4010943912
 21
18.3837893297
  0
LINE
  5
4AB
100
AcDbEntity
  8
ASSI
100
AcDbLine
 62
7
  6
CONTINUOUS
 10
-16.9010943912
 20
17.8837893297
 11
-16.4010943912
 21
18.3837893297
  0
LINE
  5
4AC
100
AcDbEntity
  8
CURVE
100
AcDbLine
 62
253
  6
CONTINUOUS
 10
-22.2653801166
 20
12.0266464283
 11
-22.4510943912
 21
11.8409321536
  0
LINE
  5
4AD
100
AcDbEntity
  8
SMUSSO
100
AcDbLine
 62
7
  6
CONTINUOUS
 10
-11.9010943912
 20
22.3837893297
 11
-12.4010943912
 21
21.8837893297
  0
LINE
  5
4AE
100
AcDbEntity
  8
ASSI
100
AcDbLine
 62
7
  6
CONTINUOUS
 10
-11.9010943912
 20
22.3837893297
 11
-12.4010943912
 21
21.8837893297
  0
LINE
  5
4AF
100
AcDbEntity
  8
CURVE
100
AcDbLine
 62
253
  6
CONTINUOUS
 10
-21.1510943912
 20
12.6766464283
 11
-21.3368086853
 21
12.4909322311
  0
LINE
  5
4B0
100
AcDbEntity
  8
CURVE
100
AcDbLine
 62
253
  6
CONTINUOUS
 10
-5.8025662538
 20
27.9823174671
 11
-5.5904342195
 21
28.1944495015
  0
LINE
  5
4B1
100
AcDbEntity
  8
CURVE
100
AcDbLine
 62
253
  6
CONTINUOUS
 10
-1.098578547
 20
28.636766081
 11
-1.105060869
 21
28.636766081
  0
LINE
  5
4B2
100
AcDbEntity
  8
CURVE
100
AcDbLine
 62
253
  6
CONTINUOUS
 10
-1.1180255144
 20
29.254266081
 11
-1.095337386
 21
29.254266081
  0
LINE
  5
4B3
100
AcDbEntity
  8
CURVE
100
AcDbLine
 62
253
  6
CONTINUOUS
 10
-4.1510943912
 20
30.0671226759
 11
-4.8010943912
 21
30.0671226759
  0
LINE
  5
4B4
100
AcDbEntity
  8
CURVE
100
AcDbLine
 62
253
  6
CONTINUOUS
 10
-8.1510943912
 20
30.0671226759
 11
-8.8010943912
 21
30.0671226759
  0
LINE
  5
4B5
100
AcDbEntity
  8
CURVE
100
AcDbLine
 62
253
  6
CONTINUOUS
 10
-1.1180255144
 20
30.1364079286
 11
-1.095337386
 21
30.1364079286
  0
LINE
  5
4B6
100
AcDbEntity
  8
0
100
AcDbLine
 62
253
  6
CONTINUOUS
 10
-10.6501399649
 20
44.2034110815
 11
-10.6495701564
 21
44.0182760093
  0
LINE
  5
4B7
100
AcDbEntity
  8
0
100
AcDbLine
 62
7
  6
CONTINUOUS
 10
-11.1510943912
 20
0.3337825605
 11
-11.1510943912
 21
1.7337893297
  0
LINE
  5
4B8
100
AcDbEntity
  8
0
100
AcDbLine
 62
7
  6
CONTINUOUS
 10
-11.1510943912
 20
46.5337893297
 11
-11.1510943912
 21
47.9337960989
  0
LINE
  5
4B9
100
AcDbEntity
  8
0
100
AcDbLine
 62
7
  6
CONTINUOUS
 10
-11.1424204379
 20
46.5285850422
 11
-11.1425270213
 21
47.9280845995
  0
LINE
  5
4BA
100
AcDbEntity
  8
0
100
AcDbLine
 62
253
  6
CONTINUOUS
 10
-10.4510943912
 20
41.4337893297
 11
-10.4510943912
 21
41.3837893297
  0
LINE
  5
4BB
100
AcDbEntity
  8
RACCORDO
100
AcDbLine
 62
253
  6
CONTINUOUS
 10
-10.4510943912
 20
41.4337893297
 11
-10.4510943912
 21
41.3837893297
  0
LINE
  5
4BC
100
AcDbEntity
  8
0
100
AcDbLine
 62
253
  6
CONTINUOUS
 10
-10.4510943912
 20
6.8178214113
 11
-10.4510943912
 21
6.8837893297
  0
LINE
  5
4BD
100
AcDbEntity
  8
RACCORDO
100
AcDbLine
 62
253
  6
CONTINUOUS
 10
-10.4510943912
 20
6.8178214113
 11
-10.4510943912
 21
6.8837893297
  0
LINE
  5
4BE
100
AcDbEntity
  8
RACCORDO
100
AcDbLine
 62
7
  6
CONTINUOUS
 10
-10.2470899369
 20
5.9337893297
 11
-10.2470899369
 21
5.8337893297
  0
LINE
  5
4BF
100
AcDbEntity
  8
ASSI
100
AcDbLine
 62
7
  6
CONTINUOUS
 10
-10.2470899369
 20
5.9337893297
 11
-10.2470899369
 21
5.8337893297
  0
LINE
  5
4C0
100
AcDbEntity
  8
RACCORDO
100
AcDbLine
 62
7
  6
CONTINUOUS
 10
-10.1685050805
 20
42.4337893297
 11
-10.1685050805
 21
42.3337893297
  0
LINE
  5
4C1
100
AcDbEntity
  8
ASSI
100
AcDbLine
 62
7
  6
CONTINUOUS
 10
-10.1685050805
 20
42.4337893297
 11
-10.1685050805
 21
42.3337893297
  0
LINE
  5
4C2
100
AcDbEntity
  8
0
100
AcDbLine
 62
7
  6
CONTINUOUS
 10
-10.1510943912
 20
5.9337893297
 11
-10.1510943912
 21
5.9007407408
  0
LINE
  5
4C3
100
AcDbEntity
  8
RACCORDO
100
AcDbLine
 62
7
  6
CONTINUOUS
 10
-10.1510943912
 20
5.9337893297
 11
-10.1510943912
 21
5.9007407408
  0
LINE
  5
4C4
100
AcDbEntity
  8
0
100
AcDbLine
 62
7
  6
CONTINUOUS
 10
-10.0510943912
 20
5.9337893297
 11
-10.0510943912
 21
5.9016081276
  0
LINE
  5
4C5
100
AcDbEntity
  8
0
100
AcDbLine
 62
253
  6
CONTINUOUS
 10
-10.0046477818
 20
5.901249313
 11
-10.0046477818
 21
5.8337893297
  0
LINE
  5
4C6
100
AcDbEntity
  8
RACCORDO
100
AcDbLine
 62
253
  6
CONTINUOUS
 10
-10.0046477818
 20
5.901249313
 11
-10.0046477818
 21
5.8337893297
  0
LINE
  5
4C7
100
AcDbEntity
  8
0
100
AcDbLine
 62
7
  6
CONTINUOUS
 10
-9.6510943912
 20
42.4337893297
 11
-9.6510943912
 21
40.7337893297
  0
LINE
  5
4C8
100
AcDbEntity
  8
ASSI
100
AcDbLine
 62
7
  6
CONTINUOUS
 10
-9.6510943912
 20
42.4337893297
 11
-9.6510943912
 21
40.7337893297
  0
LINE
  5
4C9
100
AcDbEntity
  8
0
100
AcDbLine
 62
7
  6
CONTINUOUS
 10
-9.6510943912
 20
7.5337893297
 11
-9.6510943912
 21
5.8337893297
  0
LINE
  5
4CA
100
AcDbEntity
  8
ASSI
100
AcDbLine
 62
7
  6
CONTINUOUS
 10
-9.6510943912
 20
7.5337893297
 11
-9.6510943912
 21
5.8337893297
  0
LINE
  5
4CB
100
AcDbEntity
  8
0
100
AcDbLine
 62
7
  6
CONTINUOUS
 10
-11.1424204379
 20
1.7389936172
 11
-11.1425270213
 21
0.3394940599
  0
LINE
  5
4CC
100
AcDbEntity
  8
0
100
AcDbLine
 62
253
  6
CONTINUOUS
 10
-10.6495701564
 20
4.2493026501
 11
-10.6501399649
 21
4.0641675779
  0
LWPOLYLINE
  5
4CD
100
AcDbEntity
  8
0
100
AcDbPolyline
 62
7
  6
CONTINUOUS
 90
9
 70
0
 10
-19.4190017655
 20
-0.2091291196
 10
-19.4148436699
 20
-0.1979806441
 10
-19.4112207495
 20
-0.1866469493
 10
-19.4081412095
 20
-0.1751537091
 10
-19.4056120235
 20
-0.1635269578
 10
-19.4036389171
 20
-0.1517930365
 10
-19.402226357
 20
-0.1399785259
 10
-19.4013775415
 20
-0.1281101863
 10
-19.4010943912
 20
-0.1162149011
  0
LINE
  5
4CE
100
AcDbEntity
  8
CURVE
100
AcDbLine
 62
253
  6
CONTINUOUS
 10
-22.2653801166
 20
12.955217879
 11
-22.079665842
 21
13.0480749776
  0
LINE
  5
4CF
100
AcDbEntity
  8
CURVE
100
AcDbLine
 62
7
  6
CONTINUOUS
 10
-1.0541382151
 20
30.4392336197
 11
-1.0538392237
 21
30.4392336197
  0
LINE
  5
4D0
100
AcDbEntity
  8
CURVE
100
AcDbLine
 62
253
  6
CONTINUOUS
 10
-1.095337386
 20
30.489266081
 11
-1.1180255144
 21
30.489266081
  0
LINE
  5
4D1
100
AcDbEntity
  8
CURVE
100
AcDbLine
 62
253
  6
CONTINUOUS
 10
-4.5225229793
 20
30.655217879
 11
-5.079665842
 21
30.655217879
  0
LINE
  5
4D2
100
AcDbEntity
  8
CURVE
100
AcDbLine
 62
253
  6
CONTINUOUS
 10
-8.5225229793
 20
30.655217879
 11
-9.079665842
 21
30.655217879
  0
LINE
  5
4D3
100
AcDbEntity
  8
CURVE
100
AcDbLine
 62
253
  6
CONTINUOUS
 10
-1.1180255144
 20
31.1949800302
 11
-1.095337386
 21
31.1949800302
  0
LINE
  5
4D4
100
AcDbEntity
  8
CURVE
100
AcDbLine
 62
253
  6
CONTINUOUS
 10
-9.079665842
 20
31.305217879
 11
-8.5225229793
 21
31.305217879
  0
LINE
  5
4D5
100
AcDbEntity
  8
CURVE
100
AcDbLine
 62
253
  6
CONTINUOUS
 10
-5.079665842
 20
31.305217879
 11
-4.5225229793
 21
31.305217879
  0
LINE
  5
4D6
100
AcDbEntity
  8
CURVE
100
AcDbLine
 62
7
  6
CONTINUOUS
 10
-1.0777570153
 20
31.3925207129
 11
-1.0579556671
 21
31.3925207129
  0
LINE
  5
4D7
100
AcDbEntity
  8
CURVE
100
AcDbLine
 62
7
  6
CONTINUOUS
 10
-1.0496689013
 20
31.4125906015
 11
-1.0357787034
 21
31.4125906015
  0
LINE
  5
4D8
100
AcDbEntity
  8
CURVE
100
AcDbLine
 62
253
  6
CONTINUOUS
 10
-1.095337386
 20
31.5478370048
 11
-1.1180255144
 21
31.5478370048
  0
LINE
  5
4D9
100
AcDbEntity
  8
CURVE
100
AcDbLine
 62
7
  6
CONTINUOUS
 10
-1.0277499505
 20
31.995356674
 11
-1.0777570153
 21
31.995356674
  0
LINE
  5
4DA
100
AcDbEntity
  8
CURVE
100
AcDbLine
 62
253
  6
CONTINUOUS
 10
-1.1180255144
 20
32.253550954
 11
-1.095337386
 21
32.253550954
  0
LINE
  5
4DB
100
AcDbEntity
  8
CURVE
100
AcDbLine
 62
253
  6
CONTINUOUS
 10
-8.4296658226
 20
29.6337893297
 11
-9.4510943912
 21
29.912360761
  0
LWPOLYLINE
  5
4DC
100
AcDbEntity
  8
0
100
AcDbPolyline
 62
7
  6
CONTINUOUS
 90
18
 70
0
 10
-19.4190017655
 20
48.476707779
 10
-19.4236856191
 20
48.487645776
 10
-19.4288846224
 20
48.4983485173
 10
-19.4345869996
 20
48.508791758
 10
-19.4407798331
 20
48.5189518356
 10
-19.4474490958
 20
48.5288057348
 10
-19.4545796805
 20
48.5383311335
 10
-19.4621554324
 20
48.5475064487
 10
-19.4701591908
 20
48.5563108958
 10
-19.4785728252
 20
48.5647245302
 10
-19.4873772722
 20
48.5727282886
 10
-19.4965525874
 20
48.5803040404
 10
-19.5060779861
 20
48.5874346252
 10
-19.5159318853
 20
48.5941038878
 10
-19.526091963
 20
48.6002967213
 10
-19.5365352036
 20
48.6059990985
 10
-19.5472379449
 20
48.6111981019
 10
-19.5581759419
 20
48.6158819555
  0
LINE
  5
4DD
100
AcDbEntity
  8
0
100
AcDbLine
 62
7
  6
CONTINUOUS
 10
-9.1453910664
 20
1.7802530394
 11
-9.1589485723
 21
3.3337893297
  0
LINE
  5
4DE
100
AcDbEntity
  8
0
100
AcDbLine
 62
7
  6
CONTINUOUS
 10
-8.616236675
 20
0.1394906747
 11
-8.6305399281
 21
1.7784811457
  0
LINE
  5
4DF
100
AcDbEntity
  8
DRAFT
100
AcDbLine
 62
7
  6
CONTINUOUS
 10
-8.6505536679
 20
4.0718285684
 11
-8.6509409566
 21
4.1162074641
  0
LINE
  5
4E0
100
AcDbEntity
  8
CURVE
100
AcDbLine
 62
253
  6
CONTINUOUS
 10
-9.4510943912
 20
30.9337893297
 11
-9.4510943912
 21
31.0266464283
  0
LINE
  5
4E1
100
AcDbEntity
  8
CURVE
100
AcDbLine
 62
253
  6
CONTINUOUS
 10
-9.4510943912
 20
32.6052180339
 11
-9.4510943912
 21
33.1623606254
  0
LINE
  5
4E2
100
AcDbEntity
  8
CURVE
100
AcDbLine
 62
253
  6
CONTINUOUS
 10
-9.4510943912
 20
33.8123606254
 11
-9.4510943912
 21
33.9052180339
  0
LINE
  5
4E3
100
AcDbEntity
  8
CURVE
100
AcDbLine
 62
253
  6
CONTINUOUS
 10
-9.4510943912
 20
34.8337893297
 11
-9.4510943912
 21
34.9266467382
  0
LINE
  5
4E4
100
AcDbEntity
  8
CURVE
100
AcDbLine
 62
253
  6
CONTINUOUS
 10
-9.4510943912
 20
39.1980751325
 11
-9.4510943912
 21
39.755217724
  0
LINE
  5
4E5
100
AcDbEntity
  8
CURVE
100
AcDbLine
 62
253
  6
CONTINUOUS
 10
-8.8939515673
 20
39.5695035268
 11
-8.8939515673
 21
39.1980751325
  0
LINE
  5
4E6
100
AcDbEntity
  8
CURVE
100
AcDbLine
 62
253
  6
CONTINUOUS
 10
-8.8939515673
 20
32.9766464283
 11
-8.8939515673
 21
32.6052180339
  0
LINE
  5
4E7
100
AcDbEntity
  8
0
100
AcDbLine
 62
7
  6
CONTINUOUS
 10
-8.6877500276
 20
43.9971336933
 11
-8.6877500276
 21
43.7971336933
  0
LINE
  5
4E8
100
AcDbEntity
  8
DRAFT
100
AcDbLine
 62
7
  6
CONTINUOUS
 10
-8.6877500276
 20
43.9971336933
 11
-8.6877500276
 21
43.7971336933
  0
LINE
  5
4E9
100
AcDbEntity
  8
0
100
AcDbLine
 62
7
  6
CONTINUOUS
 10
-8.6877500276
 20
4.470444966
 11
-8.6877500276
 21
4.270444966
  0
LINE
  5
4EA
100
AcDbEntity
  8
DRAFT
100
AcDbLine
 62
7
  6
CONTINUOUS
 10
-8.6877500276
 20
4.470444966
 11
-8.6877500276
 21
4.270444966
  0
LINE
  5
4EB
100
AcDbEntity
  8
0
100
AcDbLine
 62
7
  6
CONTINUOUS
 10
-8.6510943912
 20
44.0337893297
 11
-8.6510943912
 21
43.8337893297
  0
LINE
  5
4EC
100
AcDbEntity
  8
DRAFT
100
AcDbLine
 62
7
  6
CONTINUOUS
 10
-8.6510943912
 20
44.0337893297
 11
-8.6510943912
 21
43.8337893297
  0
LINE
  5
4ED
100
AcDbEntity
  8
0
100
AcDbLine
 62
7
  6
CONTINUOUS
 10
-8.6510943912
 20
4.4337893297
 11
-8.6510943912
 21
4.2337893297
  0
LINE
  5
4EE
100
AcDbEntity
  8
DRAFT
100
AcDbLine
 62
7
  6
CONTINUOUS
 10
-8.6510943912
 20
4.4337893297
 11
-8.6510943912
 21
4.2337893297
  0
LINE
  5
4EF
100
AcDbEntity
  8
CURVE
100
AcDbLine
 62
253
  6
CONTINUOUS
 10
-8.6153801166
 20
31.6766464283
 11
-8.6153801166
 21
32.2337893297
  0
LINE
  5
4F0
100
AcDbEntity
  8
CURVE
100
AcDbLine
 62
253
  6
CONTINUOUS
 10
-8.4296658226
 20
30.2837893297
 11
-8.4296658226
 21
29.6337893297
  0
LINE
  5
4F1
100
AcDbEntity
  8
CURVE
100
AcDbLine
 62
253
  6
CONTINUOUS
 10
-8.1510943912
 20
34.9266467382
 11
-8.1510943912
 21
34.8337893297
  0
LINE
  5
4F2
100
AcDbEntity
  8
CURVE
100
AcDbLine
 62
253
  6
CONTINUOUS
 10
-8.1510943912
 20
33.9052180339
 11
-8.1510943912
 21
33.8123606254
  0
LINE
  5
4F3
100
AcDbEntity
  8
CURVE
100
AcDbLine
 62
253
  6
CONTINUOUS
 10
-8.1510943912
 20
31.0266464283
 11
-8.1510943912
 21
30.9337893297
  0
LINE
  5
4F4
100
AcDbEntity
  8
CURVE
100
AcDbLine
 62
253
  6
CONTINUOUS
 10
-8.1510943912
 20
26.7337893297
 11
-8.1510943912
 21
27.5337893297
  0
LINE
  5
4F5
100
AcDbEntity
  8
CURVE
100
AcDbLine
 62
253
  6
CONTINUOUS
 10
-8.1510943912
 20
32.6052180339
 11
-8.1510943912
 21
32.9766464283
  0
LINE
  5
4F6
100
AcDbEntity
  8
CURVE
100
AcDbLine
 62
253
  6
CONTINUOUS
 10
-8.1510943912
 20
38.3623609354
 11
-8.1510943912
 21
38.8266467382
  0
LINE
  5
4F7
100
AcDbEntity
  8
CURVE
100
AcDbLine
 62
253
  6
CONTINUOUS
 10
-8.1510943912
 20
39.1980751325
 11
-8.1510943912
 21
39.755217724
  0
LINE
  5
4F8
100
AcDbEntity
  8
RACCORDO
100
AcDbLine
 62
7
  6
CONTINUOUS
 10
-8.1380040896
 20
43.4468910545
 11
-8.1380040896
 21
42.3468796314
  0
LINE
  5
4F9
100
AcDbEntity
  8
ASSI
100
AcDbLine
 62
7
  6
CONTINUOUS
 10
-8.1380040896
 20
43.4468910545
 11
-8.1380040896
 21
42.3468796314
  0
LINE
  5
4FA
100
AcDbEntity
  8
RACCORDO
100
AcDbLine
 62
7
  6
CONTINUOUS
 10
-8.1380040896
 20
4.8206876049
 11
-8.1380040896
 21
5.6207104511
  0
LINE
  5
4FB
100
AcDbEntity
  8
ASSI
100
AcDbLine
 62
7
  6
CONTINUOUS
 10
-8.1380040896
 20
4.8206876049
 11
-8.1380040896
 21
5.6207104511
  0
LINE
  5
4FC
100
AcDbEntity
  8
0
100
AcDbLine
 62
7
  6
CONTINUOUS
 10
-7.7450166383
 20
48.0876816027
 11
-7.7450166383
 21
46.4898670826
  0
LINE
  5
4FD
100
AcDbEntity
  8
0
100
AcDbLine
 62
7
  6
CONTINUOUS
 10
-7.7450166383
 20
1.7777115767
 11
-7.7450166383
 21
0.1798970566
  0
LINE
  5
4FE
100
AcDbEntity
  8
0
100
AcDbLine
 62
7
  6
CONTINUOUS
 10
-7.7010943912
 20
0.1337893297
 11
-7.7010943912
 21
0.7658443825
  0
LINE
  5
4FF
100
AcDbEntity
  8
0
100
AcDbLine
 62
7
  6
CONTINUOUS
 10
-7.7010943912
 20
1.2017342769
 11
-7.7010943912
 21
1.7337893297
  0
LINE
  5
500
100
AcDbEntity
  8
0
100
AcDbLine
 62
7
  6
CONTINUOUS
 10
-7.7010943912
 20
46.5337893297
 11
-7.7010943912
 21
47.0658443825
  0
LINE
  5
501
100
AcDbEntity
  8
0
100
AcDbLine
 62
7
  6
CONTINUOUS
 10
-7.7010943912
 20
47.5017342769
 11
-7.7010943912
 21
48.1337893297
  0
LINE
  5
502
100
AcDbEntity
  8
0
100
AcDbLine
 62
7
  6
CONTINUOUS
 10
-9.1589485723
 20
44.9337893297
 11
-9.1453910664
 21
46.4873256199
  0
LINE
  5
503
100
AcDbEntity
  8
DRAFT
100
AcDbLine
 62
7
  6
CONTINUOUS
 10
-8.6505536679
 20
44.195750091
 11
-8.6509409566
 21
44.1513711952
  0
LINE
  5
504
100
AcDbEntity
  8
0
100
AcDbLine
 62
7
  6
CONTINUOUS
 10
-8.6305399281
 20
46.4890975136
 11
-8.616236675
 21
48.1280879847
  0
LWPOLYLINE
  5
505
100
AcDbEntity
  8
0
100
AcDbPolyline
 62
253
  6
CONTINUOUS
 90
5
 70
0
 10
-14.1466417531
 20
6.6298480477
 10
-14.133340837
 20
6.6747264238
 10
-14.1114795668
 20
6.7170546601
 10
-14.0815543263
 20
6.7555757514
 10
-14.044416582
 20
6.7889751588
  0
LWPOLYLINE
  5
506
100
AcDbEntity
  8
RACCORDO
100
AcDbPolyline
 62
253
  6
CONTINUOUS
 90
5
 70
0
 10
-14.1466417531
 20
6.6298480477
 10
-14.133340837
 20
6.6747264238
 10
-14.1114795668
 20
6.7170546601
 10
-14.0815543263
 20
6.7555757514
 10
-14.044416582
 20
6.7889751588
  0
LINE
  5
507
100
AcDbEntity
  8
0
100
AcDbLine
 62
7
  6
CONTINUOUS
 10
-14.1416667389
 20
5.9021718312
 11
-14.1320978752
 21
5.9337893297
  0
LINE
  5
508
100
AcDbEntity
  8
RACCORDO
100
AcDbLine
 62
7
  6
CONTINUOUS
 10
-14.1416667389
 20
5.9021718312
 11
-14.1320978752
 21
5.9337893297
  0
LINE
  5
509
100
AcDbEntity
  8
SMUSSO
100
AcDbLine
 62
7
  6
CONTINUOUS
 10
-16.9010943912
 20
12.8837893297
 11
-16.4010943912
 21
13.3837893297
  0
LINE
  5
50A
100
AcDbEntity
  8
ASSI
100
AcDbLine
 62
7
  6
CONTINUOUS
 10
-16.9010943912
 20
12.8837893297
 11
-16.4010943912
 21
13.3837893297
  0
LINE
  5
50B
100
AcDbEntity
  8
SMUSSO
100
AcDbLine
 62
7
  6
CONTINUOUS
 10
-11.9010943912
 20
17.3837893297
 11
-12.4010943912
 21
16.8837893297
  0
LINE
  5
50C
100
AcDbEntity
  8
ASSI
100
AcDbLine
 62
7
  6
CONTINUOUS
 10
-11.9010943912
 20
17.3837893297
 11
-12.4010943912
 21
16.8837893297
  0
LINE
  5
50D
100
AcDbEntity
  8
CURVE
100
AcDbLine
 62
253
  6
CONTINUOUS
 10
-21.3368086853
 20
12.4909322311
 11
-21.5225229793
 21
12.3980749776
  0
LINE
  5
50E
100
AcDbEntity
  8
CURVE
100
AcDbLine
 62
253
  6
CONTINUOUS
 10
-22.4510943912
 20
13.4195035268
 11
-21.1510943912
 21
13.7909322311
  0
LINE
  5
50F
100
AcDbEntity
  8
CURVE
100
AcDbLine
 62
253
  6
CONTINUOUS
 10
-5.4510943912
 20
35.5766467382
 11
-4.1510943912
 21
35.855217724
  0
LINE
  5
510
100
AcDbEntity
  8
CURVE
100
AcDbLine
 62
253
  6
CONTINUOUS
 10
-9.4510943912
 20
35.5766467382
 11
-8.1510943912
 21
35.855217724
  0
LINE
  5
511
100
AcDbEntity
  8
CURVE
100
AcDbLine
 62
253
  6
CONTINUOUS
 10
-8.8939515673
 20
32.6052180339
 11
-9.4510943912
 21
32.6052180339
  0
LINE
  5
512
100
AcDbEntity
  8
CURVE
100
AcDbLine
 62
253
  6
CONTINUOUS
 10
-1.1180255144
 20
32.8122416546
 11
-1.095337386
 21
32.8122416546
  0
LINE
  5
513
100
AcDbEntity
  8
CURVE
100
AcDbLine
 62
253
  6
CONTINUOUS
 10
-4.9868086659
 20
33.1314083625
 11
-5.2653801166
 21
33.1314083625
  0
LINE
  5
514
100
AcDbEntity
  8
CURVE
100
AcDbLine
 62
253
  6
CONTINUOUS
 10
-4.2439515383
 20
33.1623606254
 11
-4.7082372539
 21
33.1623606254
  0
LINE
  5
515
100
AcDbEntity
  8
CURVE
100
AcDbLine
 62
253
  6
CONTINUOUS
 10
-8.3368086853
 20
33.1623606254
 11
-8.7082372539
 21
33.1623606254
  0
LINE
  5
516
100
AcDbEntity
  8
CURVE
100
AcDbLine
 62
253
  6
CONTINUOUS
 10
-4.5225229793
 20
33.5337893297
 11
-5.079665842
 21
33.5337893297
  0
LINE
  5
517
100
AcDbEntity
  8
CURVE
100
AcDbLine
 62
253
  6
CONTINUOUS
 10
-8.5225229793
 20
33.5337893297
 11
-9.079665842
 21
33.5337893297
  0
LINE
  5
518
100
AcDbEntity
  8
CURVE
100
AcDbLine
 62
253
  6
CONTINUOUS
 10
-1.098578547
 20
33.5473608424
 11
-1.114784353
 21
33.5473608424
  0
LINE
  5
519
100
AcDbEntity
  8
CURVE
100
AcDbLine
 62
253
  6
CONTINUOUS
 10
-1.1180255144
 20
34.1648608424
 11
-1.095337386
 21
34.1648608424
  0
LINE
  5
51A
100
AcDbEntity
  8
CURVE
100
AcDbLine
 62
253
  6
CONTINUOUS
 10
-9.079665842
 20
34.1837893297
 11
-8.5225229793
 21
34.1837893297
  0
LINE
  5
51B
100
AcDbEntity
  8
CURVE
100
AcDbLine
 62
253
  6
CONTINUOUS
 10
-5.079665842
 20
34.1837893297
 11
-4.5225229793
 21
34.1837893297
  0
LINE
  5
51C
100
AcDbEntity
  8
CURVE
100
AcDbLine
 62
253
  6
CONTINUOUS
 10
-4.4296658226
 20
29.6337893297
 11
-5.4510943912
 21
29.912360761
  0
LINE
  5
51D
100
AcDbEntity
  8
CURVE
100
AcDbLine
 62
253
  6
CONTINUOUS
 10
-9.079665842
 20
30.655217879
 11
-9.2653801166
 21
30.748075055
  0
LINE
  5
51E
100
AcDbEntity
  8
CURVE
100
AcDbLine
 62
253
  6
CONTINUOUS
 10
-5.8025662538
 20
26.2852611923
 11
-5.5904342195
 21
26.0731291579
  0
LINE
  5
51F
100
AcDbEntity
  8
0
100
AcDbLine
 62
253
  6
CONTINUOUS
 10
-14.1330021775
 20
41.5920156949
 11
-14.1465367171
 21
41.6371946342
  0
LINE
  5
520
100
AcDbEntity
  8
RACCORDO
100
AcDbLine
 62
253
  6
CONTINUOUS
 10
-14.1330021775
 20
41.5920156949
 11
-14.1465367171
 21
41.6371946342
  0
LWPOLYLINE
  5
521
100
AcDbEntity
  8
0
100
AcDbPolyline
 62
7
  6
CONTINUOUS
 90
6
 70
0
 10
-4.8985498654
 20
-0.1517930365
 10
-4.896576759
 20
-0.1635269578
 10
-4.894047573
 20
-0.1751537091
 10
-4.890968033
 20
-0.1866469493
 10
-4.8873451126
 20
-0.1979806441
 10
-4.883187017
 20
-0.2091291196
  0
LINE
  5
522
100
AcDbEntity
  8
ASSI
100
AcDbLine
 62
7
  6
CONTINUOUS
 10
-7.4510943912
 20
42.7337893297
 11
-7.4510943912
 21
42.3468796314
  0
LINE
  5
523
100
AcDbEntity
  8
CURVE
100
AcDbLine
 62
253
  6
CONTINUOUS
 10
-6.6510943912
 20
25.9337893297
 11
-6.6510943912
 21
25.6337893297
  0
LINE
  5
524
100
AcDbEntity
  8
CURVE
100
AcDbLine
 62
253
  6
CONTINUOUS
 10
-6.6510943912
 20
28.3337893297
 11
-6.6510943912
 21
28.6337893297
  0
LINE
  5
525
100
AcDbEntity
  8
ASSI
100
AcDbLine
 62
253
  6
CONTINUOUS
 10
-6.4510943912
 20
42.7337893297
 11
-6.4510943912
 21
42.3468796314
  0
LWPOLYLINE
  5
526
100
AcDbEntity
  8
0
100
AcDbPolyline
 62
7
  6
CONTINUOUS
 90
5
 70
0
 10
-19.9687810991
 20
2.4364000675
 10
-19.9421322477
 20
2.475797379
 10
-19.915124915
 20
2.5155301281
 10
-19.8877591009
 20
2.5555202085
 10
-19.8599716968
 20
2.5956513692
  0
LWPOLYLINE
  5
527
100
AcDbEntity
  8
0
100
AcDbPolyline
 62
7
  6
CONTINUOUS
 90
4
 70
0
 10
-19.8599716968
 20
2.5956513692
 10
-19.775089684
 20
2.7167927729
 10
-19.7464994422
 20
2.7573234553
 10
-19.7177400455
 20
2.797802381
  0
LINE
  5
528
100
AcDbEntity
  8
SMUSSO
100
AcDbLine
 62
7
  6
CONTINUOUS
 10
-16.9010943912
 20
7.8837893297
 11
-16.4010943912
 21
8.3837893297
  0
LINE
  5
529
100
AcDbEntity
  8
ASSI
100
AcDbLine
 62
7
  6
CONTINUOUS
 10
-16.9010943912
 20
7.8837893297
 11
-16.4010943912
 21
8.3837893297
  0
LINE
  5
52A
100
AcDbEntity
  8
CURVE
100
AcDbLine
 62
253
  6
CONTINUOUS
 10
-4.5225229793
 20
34.5552180339
 11
-5.079665842
 21
34.5552180339
  0
LINE
  5
52B
100
AcDbEntity
  8
CURVE
100
AcDbLine
 62
253
  6
CONTINUOUS
 10
-8.5225229793
 20
34.5552180339
 11
-9.079665842
 21
34.5552180339
  0
LINE
  5
52C
100
AcDbEntity
  8
CURVE
100
AcDbLine
 62
253
  6
CONTINUOUS
 10
-9.079665842
 20
35.205217724
 11
-8.5225229793
 21
35.205217724
  0
LINE
  5
52D
100
AcDbEntity
  8
CURVE
100
AcDbLine
 62
253
  6
CONTINUOUS
 10
-5.079665842
 20
35.205217724
 11
-4.5225229793
 21
35.205217724
  0
LINE
  5
52E
100
AcDbEntity
  8
CURVE
100
AcDbLine
 62
253
  6
CONTINUOUS
 10
-1.098578547
 20
35.4880747916
 11
-1.105060869
 21
35.4880747916
  0
LINE
  5
52F
100
AcDbEntity
  8
CURVE
100
AcDbLine
 62
253
  6
CONTINUOUS
 10
-1.1180255144
 20
36.1055747916
 11
-1.095337386
 21
36.1055747916
  0
LINE
  5
530
100
AcDbEntity
  8
CURVE
100
AcDbLine
 62
253
  6
CONTINUOUS
 10
-8.5225229793
 20
31.305217879
 11
-8.3368086853
 21
31.2123607804
  0
LINE
  5
531
100
AcDbEntity
  8
CURVE
100
AcDbLine
 62
253
  6
CONTINUOUS
 10
-5.079665842
 20
30.655217879
 11
-5.2653801166
 21
30.748075055
  0
LINE
  5
532
100
AcDbEntity
  8
CURVE
100
AcDbLine
 62
253
  6
CONTINUOUS
 10
-9.2653801166
 20
30.748075055
 11
-9.4510943912
 21
30.9337893297
  0
LINE
  5
533
100
AcDbEntity
  8
CURVE
100
AcDbLine
 62
253
  6
CONTINUOUS
 10
-8.3368086853
 20
31.2123607804
 11
-8.1510943912
 21
31.0266464283
  0
LWPOLYLINE
  5
534
100
AcDbEntity
  8
0
100
AcDbPolyline
 62
7
  6
CONTINUOUS
 90
3
 70
0
 10
-19.7177400455
 20
45.4697762783
 10
-19.7464994422
 20
45.510255204
 10
-19.775089684
 20
45.5507858864
  0
LWPOLYLINE
  5
535
100
AcDbEntity
  8
0
100
AcDbPolyline
 62
7
  6
CONTINUOUS
 90
6
 70
0
 10
-19.775089684
 20
45.5507858864
 10
-19.8599716968
 20
45.6719272902
 10
-19.8877591009
 20
45.7120584508
 10
-19.915124915
 20
45.7520485313
 10
-19.9421322477
 20
45.7917812804
 10
-19.9687810991
 20
45.8311785919
  0
LWPOLYLINE
  5
536
100
AcDbEntity
  8
0
100
AcDbPolyline
 62
253
  6
CONTINUOUS
 90
34
 70
0
 10
-4.8967225572
 20
47.978126897
 10
-4.8964064301
 20
47.9678531192
 10
-4.8955275178
 20
47.9576002088
 10
-4.8940874262
 20
47.9473912989
 10
-4.8920888603
 20
47.9372486996
 10
-4.8895360444
 20
47.92719611
 10
-4.8864351243
 20
47.9172584893
 10
-4.8827934163
 20
47.9074590571
 10
-4.8786189109
 20
47.8978191213
 10
-4.8739209303
 20
47.8883602507
 10
-4.8687099738
 20
47.8791036838
 10
-4.8629978326
 20
47.8700704553
 10
-4.8567975003
 20
47.861281144
 10
-4.8501230243
 20
47.8527556523
 10
-4.8429894265
 20
47.8445131584
 10
-4.8354127925
 20
47.8365722511
 10
-4.8274102102
 20
47.8289508464
 10
-4.818999752
 20
47.8216661621
 10
-4.8102004195
 20
47.8147346589
 10
-4.8010320827
 20
47.8081719878
 10
-4.7915154309
 20
47.8019929578
 10
-4.7816719458
 20
47.7962115165
 10
-4.771523847
 20
47.7908407146
 10
-4.7610940421
 20
47.7858926756
 10
-4.7504060748
 20
47.7813785691
 10
-4.7394840581
 20
47.7773085802
 10
-4.728352659
 20
47.7736919018
 10
-4.7170370446
 20
47.7705367082
 10
-4.7055627867
 20
47.7678501224
 10
-4.693955761
 20
47.7656381959
 10
-4.6822421273
 20
47.7639059111
 10
-4.6704483124
 20
47.7626571773
 10
-4.6586009518
 20
47.7618948153
 10
-4.646726788
 20
47.761620546
  0
LWPOLYLINE
  5
537
100
AcDbEntity
  8
0
100
AcDbPolyline
 62
7
  6
CONTINUOUS
 90
4
 70
0
 10
-4.9010943912
 20
-0.1162149011
 10
-4.900811241
 20
-0.1281101863
 10
-4.8999624255
 20
-0.1399785259
 10
-4.8985498654
 20
-0.1517930365
  0
LWPOLYLINE
  5
538
100
AcDbEntity
  8
0
100
AcDbPolyline
 62
7
  6
CONTINUOUS
 90
34
 70
0
 10
-4.8967225572
 20
-0.1118430671
 10
-4.8964390064
 20
-0.1237380886
 10
-4.8955898015
 20
-0.1356061653
 10
-4.8941768661
 20
-0.1474204132
 10
-4.8922034008
 20
-0.1591540705
 10
-4.889673876
 20
-0.1707805577
 10
-4.8865940217
 20
-0.1822735383
 10
-4.8829708143
 20
-0.1936069781
 10
-4.8788124612
 20
-0.2047552043
 10
-4.8741283821
 20
-0.2156929638
 10
-4.8689291875
 20
-0.2263954799
 10
-4.8632266546
 20
-0.2368385092
 10
-4.8570337011
 20
-0.2469983958
 10
-4.8503643552
 20
-0.2568521253
 10
-4.8432337247
 20
-0.2663773768
 10
-4.8356579619
 20
-0.2755525734
 10
-4.8276542277
 20
-0.2843569314
 10
-4.8192406523
 20
-0.2927705068
 10
-4.8104362943
 20
-0.300774241
 10
-4.8012610977
 20
-0.3083500038
 10
-4.7917358462
 20
-0.3154806343
 10
-4.7818821167
 20
-0.3221499801
 10
-4.7717222301
 20
-0.3283429337
 10
-4.7612792008
 20
-0.3340454666
 10
-4.7505766847
 20
-0.3392446612
 10
-4.7396389253
 20
-0.3439287403
 10
-4.728490699
 20
-0.3480870933
 10
-4.7171572592
 20
-0.3517103007
 10
-4.7056642786
 20
-0.3547901551
 10
-4.6940377914
 20
-0.3573196799
 10
-4.6823041341
 20
-0.3592931452
 10
-4.6704898862
 20
-0.3607060806
 10
-4.6586218096
 20
-0.3615552855
 10
-4.646726788
 20
-0.3618388363
  0
LINE
  5
539
100
AcDbEntity
  8
0
100
AcDbLine
 62
253
  6
CONTINUOUS
 10
-4.8967225572
 20
0.2894517624
 11
-4.9010943912
 21
0.7233041815
  0
LINE
  5
53A
100
AcDbEntity
  8
0
100
AcDbLine
 62
253
  6
CONTINUOUS
 10
-4.646726788
 20
0.5059581133
 11
-4.6518173891
 21
1.0111395989
  0
LINE
  5
53B
100
AcDbEntity
  8
DRAFT
100
AcDbLine
 62
7
  6
CONTINUOUS
 10
-5.6467309573
 20
4.1294258958
 11
-5.6467309573
 21
4.4294258958
  0
LINE
  5
53C
100
AcDbEntity
  8
DRAFT
100
AcDbLine
 62
7
  6
CONTINUOUS
 10
-5.6467309573
 20
43.8381527636
 11
-5.6467309573
 21
44.1381527636
  0
LINE
  5
53D
100
AcDbEntity
  8
DRAFT
100
AcDbLine
 62
7
  6
CONTINUOUS
 10
-5.5463719778
 20
4.0290669162
 11
-5.5463719778
 21
4.3290669162
  0
LINE
  5
53E
100
AcDbEntity
  8
DRAFT
100
AcDbLine
 62
7
  6
CONTINUOUS
 10
-5.5463719778
 20
43.9385117432
 11
-5.5463719778
 21
44.2385117432
  0
LINE
  5
53F
100
AcDbEntity
  8
CURVE
100
AcDbLine
 62
253
  6
CONTINUOUS
 10
-5.4510943912
 20
32.9766464283
 11
-5.4510943912
 21
32.6052180339
  0
LINE
  5
540
100
AcDbEntity
  8
CURVE
100
AcDbLine
 62
253
  6
CONTINUOUS
 10
-5.4510943912
 20
30.9337893297
 11
-5.4510943912
 21
31.0266464283
  0
LINE
  5
541
100
AcDbEntity
  8
CURVE
100
AcDbLine
 62
253
  6
CONTINUOUS
 10
-5.4510943912
 20
33.8123606254
 11
-5.4510943912
 21
33.9052180339
  0
LINE
  5
542
100
AcDbEntity
  8
CURVE
100
AcDbLine
 62
253
  6
CONTINUOUS
 10
-5.4510943912
 20
34.8337893297
 11
-5.4510943912
 21
34.9266467382
  0
LINE
  5
543
100
AcDbEntity
  8
CURVE
100
AcDbLine
 62
253
  6
CONTINUOUS
 10
-5.4510943912
 20
38.3623609354
 11
-5.4510943912
 21
39.105217724
  0
LINE
  5
544
100
AcDbEntity
  8
CURVE
100
AcDbLine
 62
253
  6
CONTINUOUS
 10
-5.4510943912
 20
39.4766467382
 11
-5.4510943912
 21
40.0337893297
  0
LINE
  5
545
100
AcDbEntity
  8
DRAFT
100
AcDbLine
 62
7
  6
CONTINUOUS
 10
-4.9558168047
 20
3.137793784
 11
-4.9558168047
 21
4.3290669162
  0
LINE
  5
546
100
AcDbEntity
  8
DRAFT
100
AcDbLine
 62
7
  6
CONTINUOUS
 10
-4.9558168047
 20
43.9385117432
 11
-4.9558168047
 21
45.1297848754
  0
LINE
  5
547
100
AcDbEntity
  8
0
100
AcDbLine
 62
7
  6
CONTINUOUS
 10
-4.9010943912
 20
0.2894517624
 11
-4.9010943912
 21
1.7337893297
  0
LINE
  5
548
100
AcDbEntity
  8
0
100
AcDbLine
 62
7
  6
CONTINUOUS
 10
-4.9010943912
 20
46.5337893297
 11
-4.9010943912
 21
47.978126897
  0
LINE
  5
549
100
AcDbEntity
  8
0
100
AcDbLine
 62
7
  6
CONTINUOUS
 10
-4.8967225572
 20
48.3794217265
 11
-4.8967225572
 21
47.978126897
  0
LINE
  5
54A
100
AcDbEntity
  8
0
100
AcDbLine
 62
7
  6
CONTINUOUS
 10
-4.8967225572
 20
0.2894517624
 11
-4.8967225572
 21
-0.1118430671
  0
LINE
  5
54B
100
AcDbEntity
  8
CURVE
100
AcDbLine
 62
253
  6
CONTINUOUS
 10
-4.8939515673
 20
39.8480751325
 11
-4.8939515673
 21
39.4766467382
  0
LINE
  5
54C
100
AcDbEntity
  8
CURVE
100
AcDbLine
 62
253
  6
CONTINUOUS
 10
-4.8939515673
 20
32.9766464283
 11
-4.8939515673
 21
32.7909322311
  0
LINE
  5
54D
100
AcDbEntity
  8
DRAFT
100
AcDbLine
 62
7
  6
CONTINUOUS
 10
-4.8554578251
 20
4.4294258958
 11
-4.8554578251
 21
4.1337893297
  0
LINE
  5
54E
100
AcDbEntity
  8
DRAFT
100
AcDbLine
 62
7
  6
CONTINUOUS
 10
-4.8554578251
 20
43.8381527636
 11
-4.8554578251
 21
44.1337893297
  0
LINE
  5
54F
100
AcDbEntity
  8
DRAFT
100
AcDbLine
 62
7
  6
CONTINUOUS
 10
-4.8510943912
 20
45.0337893297
 11
-4.8510943912
 21
44.1337893297
  0
LINE
  5
550
100
AcDbEntity
  8
DRAFT
100
AcDbLine
 62
7
  6
CONTINUOUS
 10
-4.8510943912
 20
4.1337893297
 11
-4.8510943912
 21
3.2337893297
  0
LINE
  5
551
100
AcDbEntity
  8
0
100
AcDbLine
 62
7
  6
CONTINUOUS
 10
-4.7510943912
 20
44.9837893297
 11
-4.7510943912
 21
43.8337893297
  0
LINE
  5
552
100
AcDbEntity
  8
DRAFT
100
AcDbLine
 62
7
  6
CONTINUOUS
 10
-4.7510943912
 20
44.9837893297
 11
-4.7510943912
 21
43.8337893297
  0
LINE
  5
553
100
AcDbEntity
  8
0
100
AcDbLine
 62
7
  6
CONTINUOUS
 10
-4.7510943912
 20
4.4337893297
 11
-4.7510943912
 21
3.2837893297
  0
LINE
  5
554
100
AcDbEntity
  8
DRAFT
100
AcDbLine
 62
7
  6
CONTINUOUS
 10
-4.7510943912
 20
4.4337893297
 11
-4.7510943912
 21
3.2837893297
  0
LINE
  5
555
100
AcDbEntity
  8
0
100
AcDbLine
 62
7
  6
CONTINUOUS
 10
-4.7144387549
 20
43.7971336933
 11
-4.7144387549
 21
42.7337893297
  0
LINE
  5
556
100
AcDbEntity
  8
DRAFT
100
AcDbLine
 62
7
  6
CONTINUOUS
 10
-4.7144387549
 20
43.7971336933
 11
-4.7144387549
 21
42.7337893297
  0
LINE
  5
557
100
AcDbEntity
  8
0
100
AcDbLine
 62
7
  6
CONTINUOUS
 10
-4.7144387549
 20
4.470444966
 11
-4.7144387549
 21
5.8676198621
  0
LINE
  5
558
100
AcDbEntity
  8
DRAFT
100
AcDbLine
 62
7
  6
CONTINUOUS
 10
-4.7144387549
 20
4.470444966
 11
-4.7144387549
 21
5.8676198621
  0
LINE
  5
559
100
AcDbEntity
  8
0
100
AcDbLine
 62
7
  6
CONTINUOUS
 10
-4.69698369
 20
44.9837893297
 11
-4.69698369
 21
42.7337893297
  0
LINE
  5
55A
100
AcDbEntity
  8
DRAFT
100
AcDbLine
 62
7
  6
CONTINUOUS
 10
-4.69698369
 20
44.9837893297
 11
-4.69698369
 21
42.7337893297
  0
LINE
  5
55B
100
AcDbEntity
  8
0
100
AcDbLine
 62
7
  6
CONTINUOUS
 10
-4.69698369
 20
5.8763467299
 11
-4.69698369
 21
3.2837893297
  0
LINE
  5
55C
100
AcDbEntity
  8
DRAFT
100
AcDbLine
 62
7
  6
CONTINUOUS
 10
-4.69698369
 20
5.8763467299
 11
-4.69698369
 21
3.2837893297
  0
LINE
  5
55D
100
AcDbEntity
  8
0
100
AcDbLine
 62
253
  6
CONTINUOUS
 10
-4.646726788
 20
-0.3618388363
 11
-4.646726788
 21
0.5059581133
  0
LINE
  5
55E
100
AcDbEntity
  8
0
100
AcDbLine
 62
253
  6
CONTINUOUS
 10
-4.646726788
 20
47.761620546
 11
-4.646726788
 21
48.6294174957
  0
LINE
  5
55F
100
AcDbEntity
  8
CURVE
100
AcDbLine
 62
253
  6
CONTINUOUS
 10
-4.6153801166
 20
31.6766464283
 11
-4.6153801166
 21
32.2337893297
  0
LINE
  5
560
100
AcDbEntity
  8
0
100
AcDbLine
 62
253
  6
CONTINUOUS
 10
-4.584448737
 20
2.797802381
 11
-4.584448737
 21
3.137793784
  0
LINE
  5
561
100
AcDbEntity
  8
0
100
AcDbLine
 62
253
  6
CONTINUOUS
 10
-4.584448737
 20
45.1297848754
 11
-4.584448737
 21
45.4697762783
  0
LINE
  5
562
100
AcDbEntity
  8
CURVE
100
AcDbLine
 62
253
  6
CONTINUOUS
 10
-4.4296658226
 20
30.2837893297
 11
-4.4296658226
 21
29.6337893297
  0
LINE
  5
563
100
AcDbEntity
  8
CURVE
100
AcDbLine
 62
253
  6
CONTINUOUS
 10
-4.1510943912
 20
34.9266467382
 11
-4.1510943912
 21
34.8337893297
  0
LINE
  5
564
100
AcDbEntity
  8
CURVE
100
AcDbLine
 62
253
  6
CONTINUOUS
 10
-4.1510943912
 20
33.9052180339
 11
-4.1510943912
 21
33.8123606254
  0
LINE
  5
565
100
AcDbEntity
  8
CURVE
100
AcDbLine
 62
253
  6
CONTINUOUS
 10
-4.1510943912
 20
31.0266464283
 11
-4.1510943912
 21
30.9337893297
  0
LINE
  5
566
100
AcDbEntity
  8
CURVE
100
AcDbLine
 62
253
  6
CONTINUOUS
 10
-4.1510943912
 20
32.6052180339
 11
-4.1510943912
 21
33.0695035268
  0
LINE
  5
567
100
AcDbEntity
  8
CURVE
100
AcDbLine
 62
253
  6
CONTINUOUS
 10
-4.1510943912
 20
39.4766467382
 11
-4.1510943912
 21
40.0337893297
  0
LINE
  5
568
100
AcDbEntity
  8
0
100
AcDbLine
 62
7
  6
CONTINUOUS
 10
-4.0845248894
 20
2.5503588315
 11
-4.0845248894
 21
2.5627004863
  0
LINE
  5
569
100
AcDbEntity
  8
0
100
AcDbLine
 62
253
  6
CONTINUOUS
 10
-4.0845248894
 20
2.6800539025
 11
-4.0845248894
 21
3.1420810655
  0
LINE
  5
56A
100
AcDbEntity
  8
0
100
AcDbLine
 62
7
  6
CONTINUOUS
 10
-4.0845248894
 20
3.2250624619
 11
-4.0845248894
 21
3.2337893297
  0
LINE
  5
56B
100
AcDbEntity
  8
0
100
AcDbLine
 62
7
  6
CONTINUOUS
 10
-4.0845248894
 20
45.0337893297
 11
-4.0845248894
 21
45.0425161975
  0
LINE
  5
56C
100
AcDbEntity
  8
0
100
AcDbLine
 62
253
  6
CONTINUOUS
 10
-4.0845248894
 20
45.1254975939
 11
-4.0845248894
 21
45.5875247568
  0
LINE
  5
56D
100
AcDbEntity
  8
0
100
AcDbLine
 62
7
  6
CONTINUOUS
 10
-4.0845248894
 20
45.7048781731
 11
-4.0845248894
 21
45.7172198279
  0
LINE
  5
56E
100
AcDbEntity
  8
0
100
AcDbLine
 62
7
  6
CONTINUOUS
 10
-3.9185494562
 20
45.5389027398
 11
-3.9185494562
 21
45.0425161975
  0
LINE
  5
56F
100
AcDbEntity
  8
0
100
AcDbLine
 62
7
  6
CONTINUOUS
 10
-3.9185494562
 20
3.2250624619
 11
-3.9185494562
 21
2.7286759195
  0
LINE
  5
570
100
AcDbEntity
  8
0
100
AcDbLine
 62
253
  6
CONTINUOUS
 10
-4.9010943912
 20
47.5442744779
 11
-4.8967225572
 21
47.978126897
  0
LINE
  5
571
100
AcDbEntity
  8
0
100
AcDbLine
 62
253
  6
CONTINUOUS
 10
-4.6518173891
 20
47.2564390605
 11
-4.646726788
 21
47.761620546
  0
LWPOLYLINE
  5
572
100
AcDbEntity
  8
0
100
AcDbPolyline
 62
253
  6
CONTINUOUS
 90
34
 70
0
 10
-4.8967225572
 20
0.2894517624
 10
-4.8964059065
 20
0.2997345299
 10
-4.8955257448
 20
0.3099940899
 10
-4.8940840585
 20
0.320207287
 10
-4.8920841014
 20
0.3303510707
 10
-4.8895303874
 20
0.3404025471
 10
-4.88642868
 20
0.3503390306
 10
-4.8827859796
 20
0.3601380951
 10
-4.8786105076
 20
0.3697776247
 10
-4.8739116876
 20
0.3792358636
 10
-4.8687001248
 20
0.3884914651
 10
-4.8629875813
 20
0.3975235399
 10
-4.8567869499
 20
0.406311703
 10
-4.8501122252
 20
0.4148361201
 10
-4.8429784715
 20
0.4230775522
 10
-4.8354017894
 20
0.4310173987
 10
-4.827399279
 20
0.4386377399
 10
-4.8189890014
 20
0.4459213773
 10
-4.8101899381
 20
0.4528518719
 10
-4.8010219482
 20
0.4594135821
 10
-4.7915057232
 20
0.4655916986
 10
-4.7816627408
 20
0.4713722776
 10
-4.7715152158
 20
0.4767422727
 10
-4.7610860508
 20
0.4816895643
 10
-4.7503987836
 20
0.4862029865
 10
-4.7394775349
 20
0.4902723527
 10
-4.7283469532
 20
0.4938884788
 10
-4.7170321596
 20
0.4970432033
 10
-4.7055586909
 20
0.4997294061
 10
-4.6939524421
 20
0.5019410248
 10
-4.6822396078
 20
0.5036730677
 10
-4.6704466232
 20
0.5049216258
 10
-4.6586001043
 20
0.5056838811
 10
-4.646726788
 20
0.5059581133
  0
LINE
  5
573
100
AcDbEntity
  8
CURVE
100
AcDbLine
 62
7
  6
CONTINUOUS
 10
-1.0777570091
 20
35.2449823297
 11
-1.0448550549
 21
35.3693373297
  0
LINE
  5
574
100
AcDbEntity
  8
SMUSSO
100
AcDbLine
 62
7
  6
CONTINUOUS
 10
-11.9010943912
 20
12.3837893297
 11
-12.4010943912
 21
11.8837893297
  0
LINE
  5
575
100
AcDbEntity
  8
ASSI
100
AcDbLine
 62
7
  6
CONTINUOUS
 10
-11.9010943912
 20
12.3837893297
 11
-12.4010943912
 21
11.8837893297
  0
LINE
  5
576
100
AcDbEntity
  8
DRAFT
100
AcDbLine
 62
7
  6
CONTINUOUS
 10
-18.7558168047
 20
4.3290669162
 11
-18.6554578251
 21
4.4294258958
  0
LINE
  5
577
100
AcDbEntity
  8
DRAFT
100
AcDbLine
 62
7
  6
CONTINUOUS
 10
-18.7558168047
 20
4.0290669162
 11
-18.6554578251
 21
4.1294258958
  0
LINE
  5
578
100
AcDbEntity
  8
CURVE
100
AcDbLine
 62
253
  6
CONTINUOUS
 10
-1.1180255144
 20
36.987717817
 11
-1.095337386
 21
36.987717817
  0
LINE
  5
579
100
AcDbEntity
  8
CURVE
100
AcDbLine
 62
253
  6
CONTINUOUS
 10
-1.1180255144
 20
37.6934320606
 11
-1.095337386
 21
37.6934320606
  0
LINE
  5
57A
100
AcDbEntity
  8
CURVE
100
AcDbLine
 62
7
  6
CONTINUOUS
 10
-1.0777570091
 20
37.9194533297
 11
-1.0271557577
 21
37.9194533297
  0
LINE
  5
57B
100
AcDbEntity
  8
CURVE
100
AcDbLine
 62
253
  6
CONTINUOUS
 10
-8.1510943912
 20
36.4123609354
 11
-9.4510943912
 21
36.6909319212
  0
LINE
  5
57C
100
AcDbEntity
  8
CURVE
100
AcDbLine
 62
253
  6
CONTINUOUS
 10
-8.1510943912
 20
35.855217724
 11
-9.079665842
 21
36.1337893297
  0
LINE
  5
57D
100
AcDbEntity
  8
CURVE
100
AcDbLine
 62
253
  6
CONTINUOUS
 10
-9.079665842
 20
33.5337893297
 11
-9.2653801166
 21
33.6266464283
  0
LINE
  5
57E
100
AcDbEntity
  8
CURVE
100
AcDbLine
 62
253
  6
CONTINUOUS
 10
-4.5225229793
 20
31.305217879
 11
-4.3368086853
 21
31.2123607804
  0
LINE
  5
57F
100
AcDbEntity
  8
CURVE
100
AcDbLine
 62
253
  6
CONTINUOUS
 10
-8.5225229793
 20
34.1837893297
 11
-8.3368086853
 21
34.0909322311
  0
LINE
  5
580
100
AcDbEntity
  8
CURVE
100
AcDbLine
 62
253
  6
CONTINUOUS
 10
-9.079665842
 20
34.5552180339
 11
-9.2653801166
 21
34.6480751325
  0
LINE
  5
581
100
AcDbEntity
  8
CURVE
100
AcDbLine
 62
253
  6
CONTINUOUS
 10
-8.5225229793
 20
35.205217724
 11
-8.3368086853
 21
35.1123609354
  0
LINE
  5
582
100
AcDbEntity
  8
CURVE
100
AcDbLine
 62
253
  6
CONTINUOUS
 10
-5.079665842
 20
33.5337893297
 11
-5.2653801166
 21
33.6266464283
  0
LINE
  5
583
100
AcDbEntity
  8
CURVE
100
AcDbLine
 62
253
  6
CONTINUOUS
 10
-9.2653801166
 20
33.6266464283
 11
-9.4510943912
 21
33.8123606254
  0
LINE
  5
584
100
AcDbEntity
  8
CURVE
100
AcDbLine
 62
253
  6
CONTINUOUS
 10
-8.1510943912
 20
32.9766464283
 11
-8.3368086853
 21
33.1623606254
  0
LINE
  5
585
100
AcDbEntity
  8
DRAFT
100
AcDbLine
 62
7
  6
CONTINUOUS
 10
-18.7558168047
 20
43.9385117432
 11
-18.6554578251
 21
43.8381527636
  0
LINE
  5
586
100
AcDbEntity
  8
CURVE
100
AcDbLine
 62
253
  6
CONTINUOUS
 10
-9.2653801166
 20
34.6480751325
 11
-9.4510943912
 21
34.8337893297
  0
LINE
  5
587
100
AcDbEntity
  8
DRAFT
100
AcDbLine
 62
7
  6
CONTINUOUS
 10
-18.7558168047
 20
44.2385117432
 11
-18.6554578251
 21
44.1381527636
  0
LINE
  5
588
100
AcDbEntity
  8
CURVE
100
AcDbLine
 62
253
  6
CONTINUOUS
 10
-5.2653801166
 20
30.748075055
 11
-5.4510943912
 21
30.9337893297
  0
LINE
  5
589
100
AcDbEntity
  8
CURVE
100
AcDbLine
 62
253
  6
CONTINUOUS
 10
-8.3368086853
 20
34.0909322311
 11
-8.1510943912
 21
33.9052180339
  0
LWPOLYLINE
  5
58A
100
AcDbEntity
  8
CURVE
100
AcDbPolyline
 62
7
  6
CONTINUOUS
 90
16
 70
0
 10
-1.0613477067
 20
10.0529032056
 10
-1.060771593
 20
10.0438722725
 10
-1.0601926123
 20
10.0354707068
 10
-1.0596111628
 20
10.0276975385
 10
-1.0590276426
 20
10.0205517977
 10
-1.0584424497
 20
10.0140325144
 10
-1.0578559824
 20
10.0081387186
 10
-1.0572686387
 20
10.0028694405
 10
-1.0566808168
 20
9.99822371
 10
-1.0560929147
 20
9.9942005571
 10
-1.0555053306
 20
9.9907990121
 10
-1.0549184626
 20
9.9880181048
 10
-1.0543327088
 20
9.9858568653
 10
-1.0537484674
 20
9.9843143238
 10
-1.0531661364
 20
9.9833895101
 10
-1.052586114
 20
9.9830814545
  0
LWPOLYLINE
  5
58B
100
AcDbEntity
  8
CURVE
100
AcDbPolyline
 62
7
  6
CONTINUOUS
 90
17
 70
0
 10
-1.0432515503
 20
12.6919811368
 10
-1.0438244061
 20
12.7016426635
 10
-1.0444005274
 20
12.7106738161
 10
-1.0449795161
 20
12.7190755672
 10
-1.0455609738
 20
12.7268488898
 10
-1.0461445024
 20
12.7339947565
 10
-1.0467297038
 20
12.74051414
 10
-1.0473161797
 20
12.7464080132
 10
-1.0479035319
 20
12.7516773487
 10
-1.0484913623
 20
12.7563231194
 10
-1.0490792726
 20
12.7603462979
 10
-1.0496668646
 20
12.7637478571
 10
-1.0502537401
 20
12.7665287697
 10
-1.0508395011
 20
12.7686900083
 10
-1.0514237491
 20
12.7702325459
 10
-1.0520060862
 20
12.7711573551
 10
-1.052586114
 20
12.7714654086
  0
LINE
  5
58C
100
AcDbEntity
  8
CURVE
100
AcDbLine
 62
7
  6
CONTINUOUS
 10
-1.0624897408
 20
10.0728570536
 11
-1.0613477067
 21
10.0529032056
  0
LWPOLYLINE
  5
58D
100
AcDbEntity
  8
CURVE
100
AcDbPolyline
 62
7
  6
CONTINUOUS
 90
3
 70
0
 10
-1.0598074264
 20
10.5624617637
 10
-1.0606775104
 20
10.5785773352
 10
-1.0611072879
 20
10.5874229896
  0
LWPOLYLINE
  5
58E
100
AcDbEntity
  8
CURVE
100
AcDbPolyline
 62
7
  6
CONTINUOUS
 90
3
 70
0
 10
-1.0641713369
 20
10.1075323299
 10
-1.0636155297
 20
10.0953400106
 10
-1.0624897408
 20
10.0728570536
  0
LINE
  5
58F
100
AcDbEntity
  8
CURVE
100
AcDbLine
 62
253
  6
CONTINUOUS
 10
-1.1085513505
 20
6.9980746557
 11
-1.1132884324
 21
7.1337893297
  0
LWPOLYLINE
  5
590
100
AcDbEntity
  8
0
100
AcDbPolyline
 62
253
  6
CONTINUOUS
 90
34
 70
0
 10
-2.0054662252
 20
0.2894517624
 10
-2.005782876
 20
0.2997345299
 10
-2.0066630377
 20
0.3099940899
 10
-2.008104724
 20
0.320207287
 10
-2.0101046811
 20
0.3303510707
 10
-2.0126583951
 20
0.3404025471
 10
-2.0157601025
 20
0.3503390306
 10
-2.0194028029
 20
0.3601380951
 10
-2.0235782749
 20
0.3697776247
 10
-2.0282770948
 20
0.3792358636
 10
-2.0334886577
 20
0.3884914651
 10
-2.0392012012
 20
0.3975235399
 10
-2.0454018326
 20
0.406311703
 10
-2.0520765573
 20
0.4148361201
 10
-2.059210311
 20
0.4230775522
 10
-2.0667869931
 20
0.4310173987
 10
-2.0747895035
 20
0.4386377399
 10
-2.0831997811
 20
0.4459213773
 10
-2.0919988444
 20
0.4528518719
 10
-2.1011668343
 20
0.4594135821
 10
-2.1106830592
 20
0.4655916986
 10
-2.1205260417
 20
0.4713722776
 10
-2.1306735667
 20
0.4767422727
 10
-2.1411027317
 20
0.4816895643
 10
-2.1517899989
 20
0.4862029865
 10
-2.1627112476
 20
0.4902723527
 10
-2.1738418293
 20
0.4938884788
 10
-2.1851566229
 20
0.4970432033
 10
-2.1966300916
 20
0.4997294061
 10
-2.2082363404
 20
0.5019410248
 10
-2.2199491747
 20
0.5036730677
 10
-2.2317421593
 20
0.5049216258
 10
-2.2435886782
 20
0.5056838811
 10
-2.2554619945
 20
0.5059581133
  0
LINE
  5
591
100
AcDbEntity
  8
0
100
AcDbLine
 62
253
  6
CONTINUOUS
 10
-2.2554619945
 20
47.761620546
 11
-2.2503713934
 21
47.2564390605
  0
LINE
  5
592
100
AcDbEntity
  8
0
100
AcDbLine
 62
253
  6
CONTINUOUS
 10
-2.0054662252
 20
47.978126897
 11
-2.0010943912
 21
47.5442744779
  0
LINE
  5
593
100
AcDbEntity
  8
0
100
AcDbLine
 62
7
  6
CONTINUOUS
 10
-3.5510943912
 20
3.2837893297
 11
-3.5510943912
 21
5.8763467299
  0
LINE
  5
594
100
AcDbEntity
  8
DRAFT
100
AcDbLine
 62
7
  6
CONTINUOUS
 10
-3.5510943912
 20
3.2837893297
 11
-3.5510943912
 21
5.8763467299
  0
LINE
  5
595
100
AcDbEntity
  8
0
100
AcDbLine
 62
7
  6
CONTINUOUS
 10
-3.5510943912
 20
42.7337893297
 11
-3.5510943912
 21
44.9837893297
  0
LINE
  5
596
100
AcDbEntity
  8
DRAFT
100
AcDbLine
 62
7
  6
CONTINUOUS
 10
-3.5510943912
 20
42.7337893297
 11
-3.5510943912
 21
44.9837893297
  0
LINE
  5
597
100
AcDbEntity
  8
0
100
AcDbLine
 62
253
  6
CONTINUOUS
 10
-2.9510943912
 20
42.7337893297
 11
-2.9510943912
 21
42.3468796314
  0
LINE
  5
598
100
AcDbEntity
  8
ASSI
100
AcDbLine
 62
7
  6
CONTINUOUS
 10
-2.3510943912
 20
27.2837893297
 11
-2.3510943912
 21
22.9837893297
  0
LINE
  5
599
100
AcDbEntity
  8
ASSI
100
AcDbLine
 62
7
  6
CONTINUOUS
 10
-2.3510943912
 20
22.2837893297
 11
-2.3510943912
 21
17.9837893297
  0
LINE
  5
59A
100
AcDbEntity
  8
ASSI
100
AcDbLine
 62
7
  6
CONTINUOUS
 10
-2.3510943912
 20
17.2837893297
 11
-2.3510943912
 21
12.9837893297
  0
LINE
  5
59B
100
AcDbEntity
  8
ASSI
100
AcDbLine
 62
7
  6
CONTINUOUS
 10
-2.3510943912
 20
12.2837893297
 11
-2.3510943912
 21
7.9837893297
  0
LINE
  5
59C
100
AcDbEntity
  8
0
100
AcDbLine
 62
253
  6
CONTINUOUS
 10
-2.2554619945
 20
-0.3618388363
 11
-2.2554619945
 21
0.5059581133
  0
LINE
  5
59D
100
AcDbEntity
  8
0
100
AcDbLine
 62
253
  6
CONTINUOUS
 10
-2.2554619945
 20
47.761620546
 11
-2.2554619945
 21
48.6294174957
  0
LINE
  5
59E
100
AcDbEntity
  8
0
100
AcDbLine
 62
7
  6
CONTINUOUS
 10
-2.0054662252
 20
-0.1118430671
 11
-2.0054662252
 21
0.2894517624
  0
LINE
  5
59F
100
AcDbEntity
  8
0
100
AcDbLine
 62
7
  6
CONTINUOUS
 10
-2.0054662252
 20
47.978126897
 11
-2.0054662252
 21
48.3794217265
  0
LINE
  5
5A0
100
AcDbEntity
  8
0
100
AcDbLine
 62
7
  6
CONTINUOUS
 10
-2.0010943912
 20
0.2894517624
 11
-2.0010943912
 21
1.7337893297
  0
LINE
  5
5A1
100
AcDbEntity
  8
0
100
AcDbLine
 62
7
  6
CONTINUOUS
 10
-2.0010943912
 20
46.5337893297
 11
-2.0010943912
 21
47.978126897
  0
LINE
  5
5A2
100
AcDbEntity
  8
0
100
AcDbLine
 62
253
  6
CONTINUOUS
 10
-2.2503713934
 20
1.0111395989
 11
-2.2554619945
 21
0.5059581133
  0
LINE
  5
5A3
100
AcDbEntity
  8
0
100
AcDbLine
 62
253
  6
CONTINUOUS
 10
-2.0010943912
 20
0.7233041815
 11
-2.0054662252
 21
0.2894517624
  0
LWPOLYLINE
  5
5A4
100
AcDbEntity
  8
0
100
AcDbPolyline
 62
253
  6
CONTINUOUS
 90
34
 70
0
 10
-2.0054662252
 20
47.978126897
 10
-2.0057828872
 20
47.9678439359
 10
-2.0066630815
 20
47.9575841837
 10
-2.0081048213
 20
47.947370797
 10
-2.0101048514
 20
47.9372268332
 10
-2.0126586584
 20
47.9271751818
 10
-2.0157604837
 20
47.9172385131
 10
-2.0194033344
 20
47.9074392427
 10
-2.0235789874
 20
47.8977995014
 10
-2.0282780096
 20
47.8883410683
 10
-2.0334897897
 20
47.8790852992
 10
-2.0392025674
 20
47.8700530759
 10
-2.0454034505
 20
47.8612647809
 10
-2.0520784442
 20
47.8527402483
 10
-2.0592124817
 20
47.8444987194
 10
-2.0667894613
 20
47.8365587955
 10
-2.0747922808
 20
47.8289383975
 10
-2.0832028779
 20
47.8216547243
 10
-2.0920022705
 20
47.8147242147
 10
-2.1011705964
 20
47.8081625121
 10
-2.1106871639
 20
47.8019844253
 10
-2.1205305
 20
47.796203895
 10
-2.1306784014
 20
47.7908339625
 10
-2.1411079523
 20
47.7858867562
 10
-2.15179558
 20
47.7813734562
 10
-2.1627171399
 20
47.7773042532
 10
-2.1738479996
 20
47.7736883193
 10
-2.1851630632
 20
47.7705338054
 10
-2.1966370852
 20
47.7678477692
 10
-2.2082438826
 20
47.7656363592
 10
-2.2199563915
 20
47.7639046766
 10
-2.2317478685
 20
47.762656548
 10
-2.2435919792
 20
47.761894634
 10
-2.2554619945
 20
47.761620546
  0
LINE
  5
5A5
100
AcDbEntity
  8
CURVE
100
AcDbLine
 62
253
  6
CONTINUOUS
 10
-1.095337386
 20
41.1337893297
 11
-1.1083020307
 21
40.7809321711
  0
LINE
  5
5A6
100
AcDbEntity
  8
CURVE
100
AcDbLine
 62
7
  6
CONTINUOUS
 10
-1.0777570091
 20
40.2148023297
 11
-1.027158794
 21
41.1340493297
  0
LINE
  5
5A7
100
AcDbEntity
  8
CURVE
100
AcDbLine
 62
7
  6
CONTINUOUS
 10
-1.027158794
 20
40.4765373297
 11
-1.0619871132
 21
39.9238103297
  0
LINE
  5
5A8
100
AcDbEntity
  8
CURVE
100
AcDbLine
 62
253
  6
CONTINUOUS
 10
-1.095337386
 20
39.7223606952
 11
-1.1180255144
 21
39.3695035733
  0
LINE
  5
5A9
100
AcDbEntity
  8
CURVE
100
AcDbLine
 62
7
  6
CONTINUOUS
 10
-1.027158794
 20
34.9240163297
 11
-1.0777570091
 21
34.6528663297
  0
LWPOLYLINE
  5
5AA
100
AcDbEntity
  8
RACCORDO
100
AcDbPolyline
 62
253
  6
CONTINUOUS
 90
4
 70
0
 10
-1.4925584368
 20
27.2837893297
 10
-1.4940779204
 20
27.2784388836
 10
-1.4955729572
 20
27.2624492744
 10
-1.4970435471
 20
27.2359521899
  0
LWPOLYLINE
  5
5AB
100
AcDbEntity
  8
ASSI
100
AcDbPolyline
 62
253
  6
CONTINUOUS
 90
4
 70
0
 10
-1.4925584368
 20
27.2837893297
 10
-1.4940779204
 20
27.2784388836
 10
-1.4955729572
 20
27.2624492744
 10
-1.4970435471
 20
27.2359521899
  0
LINE
  5
5AC
100
AcDbEntity
  8
0
100
AcDbLine
 62
7
  6
CONTINUOUS
 10
-15.6510943912
 20
4.4337893297
 11
-15.6144387549
 21
4.470444966
  0
LINE
  5
5AD
100
AcDbEntity
  8
DRAFT
100
AcDbLine
 62
7
  6
CONTINUOUS
 10
-15.6510943912
 20
4.4337893297
 11
-15.6144387549
 21
4.470444966
  0
LINE
  5
5AE
100
AcDbEntity
  8
0
100
AcDbLine
 62
7
  6
CONTINUOUS
 10
-15.6144387549
 20
4.270444966
 11
-15.6510943912
 21
4.2337893297
  0
LINE
  5
5AF
100
AcDbEntity
  8
DRAFT
100
AcDbLine
 62
7
  6
CONTINUOUS
 10
-15.6144387549
 20
4.270444966
 11
-15.6510943912
 21
4.2337893297
  0
LINE
  5
5B0
100
AcDbEntity
  8
0
100
AcDbLine
 62
7
  6
CONTINUOUS
 10
-19.3416360174
 20
1.7978193042
 11
-19.4069122211
 21
1.7396071595
  0
LINE
  5
5B1
100
AcDbEntity
  8
0
100
AcDbLine
 62
253
  6
CONTINUOUS
 10
-23.3010943912
 20
2.2337724067
 11
-23.2923675235
 21
2.2395902365
  0
LINE
  5
5B2
100
AcDbEntity
  8
0
100
AcDbLine
 62
253
  6
CONTINUOUS
 10
-22.8011007373
 20
1.7337893297
 11
-22.7923738695
 21
1.7396071595
  0
LINE
  5
5B3
100
AcDbEntity
  8
0
100
AcDbLine
 62
253
  6
CONTINUOUS
 10
-23.3010943912
 20
6.462090281
 11
-23.1789089367
 21
6.5127011533
  0
LINE
  5
5B4
100
AcDbEntity
  8
RACCORDO
100
AcDbLine
 62
253
  6
CONTINUOUS
 10
-23.3010943912
 20
6.462090281
 11
-23.1789089367
 21
6.5127011533
  0
LINE
  5
5B5
100
AcDbEntity
  8
0
100
AcDbLine
 62
253
  6
CONTINUOUS
 10
-22.7153971717
 20
5.0480921102
 11
-22.5932117172
 21
5.0987029825
  0
LINE
  5
5B6
100
AcDbEntity
  8
RACCORDO
100
AcDbLine
 62
253
  6
CONTINUOUS
 10
-22.7153971717
 20
5.0480921102
 11
-22.5932117172
 21
5.0987029825
  0
LWPOLYLINE
  5
5B7
100
AcDbEntity
  8
0
100
AcDbPolyline
 62
253
  6
CONTINUOUS
 90
3
 70
0
 10
-10.3483424546
 20
41.4316908735
 10
-10.3989519259
 20
41.4195452557
 10
-10.4510943912
 20
41.4154611724
  0
LWPOLYLINE
  5
5B8
100
AcDbEntity
  8
RACCORDO
100
AcDbPolyline
 62
253
  6
CONTINUOUS
 90
3
 70
0
 10
-10.3483424546
 20
41.4316908735
 10
-10.3989519259
 20
41.4195452557
 10
-10.4510943912
 20
41.4154611724
  0
LINE
  5
5B9
100
AcDbEntity
  8
CURVE
100
AcDbLine
 62
253
  6
CONTINUOUS
 10
-9.4510943912
 20
38.3623609354
 11
-8.1510943912
 21
38.3623609354
  0
LINE
  5
5BA
100
AcDbEntity
  8
CURVE
100
AcDbLine
 62
253
  6
CONTINUOUS
 10
-1.114784353
 20
38.3991465987
 11
-1.1115431917
 21
38.3991465987
  0
LINE
  5
5BB
100
AcDbEntity
  8
CURVE
100
AcDbLine
 62
7
  6
CONTINUOUS
 10
-1.0271557577
 20
38.5247243297
 11
-1.0777570091
 21
38.5247243297
  0
LINE
  5
5BC
100
AcDbEntity
  8
CURVE
100
AcDbLine
 62
253
  6
CONTINUOUS
 10
-4.1510943912
 20
38.7337893297
 11
-5.4510943912
 21
38.7337893297
  0
LINE
  5
5BD
100
AcDbEntity
  8
CURVE
100
AcDbLine
 62
253
  6
CONTINUOUS
 10
-1.101819708
 20
39.0166464515
 11
-1.098578547
 21
39.0166464515
  0
LINE
  5
5BE
100
AcDbEntity
  8
CURVE
100
AcDbLine
 62
253
  6
CONTINUOUS
 10
-8.1510943912
 20
39.1980751325
 11
-9.4510943912
 21
39.1980751325
  0
LINE
  5
5BF
100
AcDbEntity
  8
CURVE
100
AcDbLine
 62
253
  6
CONTINUOUS
 10
-4.1510943912
 20
39.4766467382
 11
-5.4510943912
 21
39.4766467382
  0
LINE
  5
5C0
100
AcDbEntity
  8
CURVE
100
AcDbLine
 62
253
  6
CONTINUOUS
 10
-4.1510943912
 20
36.4123609354
 11
-5.4510943912
 21
36.6909319212
  0
LINE
  5
5C1
100
AcDbEntity
  8
CURVE
100
AcDbLine
 62
253
  6
CONTINUOUS
 10
-4.1510943912
 20
35.855217724
 11
-5.079665842
 21
36.1337893297
  0
LINE
  5
5C2
100
AcDbEntity
  8
0
100
AcDbLine
 62
253
  6
CONTINUOUS
 10
-23.1789089367
 20
41.754877506
 11
-23.3010943912
 21
41.8054883784
  0
LINE
  5
5C3
100
AcDbEntity
  8
RACCORDO
100
AcDbLine
 62
253
  6
CONTINUOUS
 10
-23.1789089367
 20
41.754877506
 11
-23.3010943912
 21
41.8054883784
  0
LINE
  5
5C4
100
AcDbEntity
  8
0
100
AcDbLine
 62
253
  6
CONTINUOUS
 10
-22.5932117172
 20
43.1688756768
 11
-22.7153971717
 21
43.2194865492
  0
LINE
  5
5C5
100
AcDbEntity
  8
RACCORDO
100
AcDbLine
 62
253
  6
CONTINUOUS
 10
-22.5932117172
 20
43.1688756768
 11
-22.7153971717
 21
43.2194865492
  0
LINE
  5
5C6
100
AcDbEntity
  8
CURVE
100
AcDbLine
 62
253
  6
CONTINUOUS
 10
-4.5225229793
 20
34.1837893297
 11
-4.3368086853
 21
34.0909322311
  0
LINE
  5
5C7
100
AcDbEntity
  8
CURVE
100
AcDbLine
 62
253
  6
CONTINUOUS
 10
-5.079665842
 20
34.5552180339
 11
-5.2653801166
 21
34.6480751325
  0
LINE
  5
5C8
100
AcDbEntity
  8
CURVE
100
AcDbLine
 62
253
  6
CONTINUOUS
 10
-4.5225229793
 20
35.205217724
 11
-4.3368086853
 21
35.1123609354
  0
LINE
  5
5C9
100
AcDbEntity
  8
0
100
AcDbLine
 62
253
  6
CONTINUOUS
 10
-23.2923675235
 20
46.0279884229
 11
-23.3010943912
 21
46.0338062527
  0
LINE
  5
5CA
100
AcDbEntity
  8
0
100
AcDbLine
 62
253
  6
CONTINUOUS
 10
-22.7923738695
 20
46.5279714999
 11
-22.8011007373
 21
46.5337893297
  0
LINE
  5
5CB
100
AcDbEntity
  8
0
100
AcDbLine
 62
7
  6
CONTINUOUS
 10
-19.3416360174
 20
46.4697593552
 11
-19.4069122211
 21
46.5279714999
  0
LWPOLYLINE
  5
5CC
100
AcDbEntity
  8
0
100
AcDbPolyline
 62
253
  6
CONTINUOUS
 90
4
 70
0
 10
-14.0439306742
 20
41.4782380359
 10
-14.0809077242
 20
41.5113113148
 10
-14.1109020124
 20
41.549625251
 10
-14.1330021775
 20
41.5920156949
  0
LWPOLYLINE
  5
5CD
100
AcDbEntity
  8
RACCORDO
100
AcDbPolyline
 62
253
  6
CONTINUOUS
 90
4
 70
0
 10
-14.0439306742
 20
41.4782380359
 10
-14.0809077242
 20
41.5113113148
 10
-14.1109020124
 20
41.549625251
 10
-14.1330021775
 20
41.5920156949
  0
LINE
  5
5CE
100
AcDbEntity
  8
CURVE
100
AcDbLine
 62
253
  6
CONTINUOUS
 10
-8.3368086853
 20
35.1123609354
 11
-8.1510943912
 21
34.9266467382
  0
LINE
  5
5CF
100
AcDbEntity
  8
CURVE
100
AcDbLine
 62
253
  6
CONTINUOUS
 10
-4.3368086853
 20
31.2123607804
 11
-4.1510943912
 21
31.0266464283
  0
LINE
  5
5D0
100
AcDbEntity
  8
0
100
AcDbLine
 62
7
  6
CONTINUOUS
 10
-15.6510943912
 20
43.8337893297
 11
-15.6144387549
 21
43.7971336933
  0
LINE
  5
5D1
100
AcDbEntity
  8
DRAFT
100
AcDbLine
 62
7
  6
CONTINUOUS
 10
-15.6510943912
 20
43.8337893297
 11
-15.6144387549
 21
43.7971336933
  0
LINE
  5
5D2
100
AcDbEntity
  8
CURVE
100
AcDbLine
 62
253
  6
CONTINUOUS
 10
-5.2653801166
 20
33.6266464283
 11
-5.4510943912
 21
33.8123606254
  0
LINE
  5
5D3
100
AcDbEntity
  8
0
100
AcDbLine
 62
7
  6
CONTINUOUS
 10
-15.6510943912
 20
44.0337893297
 11
-15.6144387549
 21
43.9971336933
  0
LINE
  5
5D4
100
AcDbEntity
  8
DRAFT
100
AcDbLine
 62
7
  6
CONTINUOUS
 10
-15.6510943912
 20
44.0337893297
 11
-15.6144387549
 21
43.9971336933
  0
LINE
  5
5D5
100
AcDbEntity
  8
CURVE
100
AcDbLine
 62
253
  6
CONTINUOUS
 10
-4.1510943912
 20
33.0695035268
 11
-4.2439515383
 21
33.1623606254
  0
LINE
  5
5D6
100
AcDbEntity
  8
CURVE
100
AcDbLine
 62
253
  6
CONTINUOUS
 10
-4.8939515673
 20
32.9766464283
 11
-4.9868086659
 21
33.1314083625
  0
LINE
  5
5D7
100
AcDbEntity
  8
CURVE
100
AcDbLine
 62
253
  6
CONTINUOUS
 10
-1.0586873325
 20
25.0752178906
 11
-1.0359992041
 21
24.7223606952
  0
LINE
  5
5D8
100
AcDbEntity
  8
CURVE
100
AcDbLine
 62
253
  6
CONTINUOUS
 10
-1.1180255144
 20
40.0752178906
 11
-1.095337386
 21
39.7223606952
  0
LINE
  5
5D9
100
AcDbEntity
  8
CURVE
100
AcDbLine
 62
7
  6
CONTINUOUS
 10
-1.0410618984
 20
33.3669153297
 11
-1.0598395377
 21
33.6682893297
  0
LINE
  5
5DA
100
AcDbEntity
  8
CURVE
100
AcDbLine
 62
7
  6
CONTINUOUS
 10
-1.0619871132
 20
39.9238103297
 11
-1.027158794
 21
39.3541993297
  0
LINE
  5
5DB
100
AcDbEntity
  8
CURVE
100
AcDbLine
 62
253
  6
CONTINUOUS
 10
-1.1180255144
 20
24.6314083774
 11
-1.095337386
 21
24.2599798282
  0
LINE
  5
5DC
100
AcDbEntity
  8
CURVE
100
AcDbLine
 62
7
  6
CONTINUOUS
 10
-1.0676558035
 20
33.7921013297
 11
-1.0777570091
 21
33.9591183297
  0
LINE
  5
5DD
100
AcDbEntity
  8
CURVE
100
AcDbLine
 62
7
  6
CONTINUOUS
 10
-1.0777570091
 20
34.5578223297
 11
-1.027158794
 21
33.6483063297
  0
LINE
  5
5DE
100
AcDbEntity
  8
CURVE
100
AcDbLine
 62
7
  6
CONTINUOUS
 10
-1.027158794
 20
38.7493413297
 11
-1.0777570091
 21
39.6814063297
  0
LINE
  5
5DF
100
AcDbEntity
  8
CURVE
100
AcDbLine
 62
7
  6
CONTINUOUS
 10
-1.0421172279
 20
12.67076307
 11
-1.0432515503
 21
12.6919811368
  0
LINE
  5
5E0
100
AcDbEntity
  8
CURVE
100
AcDbLine
 62
7
  6
CONTINUOUS
 10
-1.0449377639
 20
12.18428717
 11
-1.0440745919
 21
12.167122631
  0
LWPOLYLINE
  5
5E1
100
AcDbEntity
  8
CURVE
100
AcDbPolyline
 62
7
  6
CONTINUOUS
 90
26
 70
0
 10
-1.0470201562
 20
30.0886723202
 10
-1.0465557567
 20
30.0786876859
 10
-1.0460855684
 20
30.069611933
 10
-1.0456102717
 20
30.0614519054
 10
-1.045130547
 20
30.0542144472
 10
-1.0446470747
 20
30.0479064027
 10
-1.0441629424
 20
30.0425550885
 10
-1.0436762082
 20
30.0381126942
 10
-1.0431873069
 20
30.0345612487
 10
-1.0426966733
 20
30.0318827811
 10
-1.0422047422
 20
30.0300593203
 10
-1.0417119484
 20
30.0290728952
 10
-1.0412187265
 20
30.028905535
 10
-1.0407255115
 20
30.0295392686
 10
-1.0402327015
 20
30.0309630985
 10
-1.0397408499
 20
30.0331929748
 10
-1.0392504738
 20
30.0362516614
 10
-1.0387620898
 20
30.0401619224
 10
-1.0382762149
 20
30.0449465218
 10
-1.0377933659
 20
30.0506282237
 10
-1.0373140597
 20
30.0572297921
 10
-1.0368388131
 20
30.064773991
 10
-1.0363678029
 20
30.0732852929
 10
-1.0359021129
 20
30.0827531896
 10
-1.0354424796
 20
30.0931673283
 10
-1.0345443281
 20
30.1167929198
  0
LINE
  5
5E2
100
AcDbEntity
  8
CURVE
100
AcDbLine
 62
7
  6
CONTINUOUS
 10
-1.0552510741
 20
36.1281443297
 11
-1.027158794
 21
35.5228733297
  0
LINE
  5
5E3
100
AcDbEntity
  8
CURVE
100
AcDbLine
 62
7
  6
CONTINUOUS
 10
-1.0448550549
 20
35.3693373297
 11
-1.0777570091
 21
36.0890053297
  0
LINE
  5
5E4
100
AcDbEntity
  8
CURVE
100
AcDbLine
 62
7
  6
CONTINUOUS
 10
-1.0410007459
 20
12.6470118338
 11
-1.0421172279
 21
12.67076307
  0
LINE
  5
5E5
100
AcDbEntity
  8
CURVE
100
AcDbLine
 62
7
  6
CONTINUOUS
 10
-1.0449161221
 20
30.6244033012
 11
-1.0453433681
 21
30.6334740663
  0
LINE
  5
5E6
100
AcDbEntity
  8
CURVE
100
AcDbLine
 62
7
  6
CONTINUOUS
 10
-1.0611072879
 20
10.5874229896
 11
-1.0619549454
 21
10.6067180248
  0
LINE
  5
5E7
100
AcDbEntity
  8
CURVE
100
AcDbLine
 62
7
  6
CONTINUOUS
 10
-1.0440745919
 20
12.167122631
 11
-1.0432269191
 21
12.147827177
  0
LINE
  5
5E8
100
AcDbEntity
  8
CURVE
100
AcDbLine
 62
7
  6
CONTINUOUS
 10
-1.0652667861
 20
10.1338234995
 11
-1.0641713369
 21
10.1075323299
  0
LINE
  5
5E9
100
AcDbEntity
  8
CURVE
100
AcDbLine
 62
7
  6
CONTINUOUS
 10
-1.0399052898
 20
12.6207196459
 11
-1.0410007459
 21
12.6470118338
  0
LINE
  5
5EA
100
AcDbEntity
  8
CURVE
100
AcDbLine
 62
7
  6
CONTINUOUS
 10
-1.0453433681
 20
30.6334740663
 11
-1.0457590665
 21
30.6438417895
  0
LINE
  5
5EB
100
AcDbEntity
  8
CURVE
100
AcDbLine
 62
7
  6
CONTINUOUS
 10
-1.0479288678
 20
30.1113408561
 11
-1.0470201562
 21
30.0886723202
  0
LINE
  5
5EC
100
AcDbEntity
  8
CURVE
100
AcDbLine
 62
7
  6
CONTINUOUS
 10
-1.0619549454
 20
10.6067180248
 11
-1.0627849145
 21
10.6281886805
  0
LINE
  5
5ED
100
AcDbEntity
  8
CURVE
100
AcDbLine
 62
7
  6
CONTINUOUS
 10
-1.0432269191
 20
12.147827177
 11
-1.0423969359
 21
12.1263560176
  0
LINE
  5
5EE
100
AcDbEntity
  8
CURVE
100
AcDbLine
 62
253
  6
CONTINUOUS
 10
-1.0489638488
 20
25.7809321711
 11
-1.0359992041
 21
25.4280750124
  0
LINE
  5
5EF
100
AcDbEntity
  8
CURVE
100
AcDbLine
 62
253
  6
CONTINUOUS
 10
-1.1083020307
 20
30.8421230556
 11
-1.095337386
 21
30.489266081
  0
LINE
  5
5F0
100
AcDbEntity
  8
CURVE
100
AcDbLine
 62
253
  6
CONTINUOUS
 10
-1.1083020307
 20
31.9006939794
 11
-1.095337386
 21
31.5478370048
  0
LINE
  5
5F1
100
AcDbEntity
  8
CURVE
100
AcDbLine
 62
253
  6
CONTINUOUS
 10
-1.1083020307
 20
40.7809321711
 11
-1.095337386
 21
40.4280750124
  0
LINE
  5
5F2
100
AcDbEntity
  8
CURVE
100
AcDbLine
 62
253
  6
CONTINUOUS
 10
-1.0943401051
 20
7.9480746557
 11
-1.0896030236
 21
7.8123608877
  0
LINE
  5
5F3
100
AcDbEntity
  8
CURVE
100
AcDbLine
 62
253
  6
CONTINUOUS
 10
-1.0919715653
 20
12.8337893297
 11
-1.1014457283
 21
13.1052177717
  0
LINE
  5
5F4
100
AcDbEntity
  8
CURVE
100
AcDbLine
 62
253
  6
CONTINUOUS
 10
-1.1085513505
 20
16.0909322192
 11
-1.1132884324
 21
16.2266464402
  0
LINE
  5
5F5
100
AcDbEntity
  8
CURVE
100
AcDbLine
 62
253
  6
CONTINUOUS
 10
-1.0943401051
 20
17.0409322192
 11
-1.0896030236
 21
16.9052178849
  0
LINE
  5
5F6
100
AcDbEntity
  8
CURVE
100
AcDbLine
 62
7
  6
CONTINUOUS
 10
-1.0668635756
 20
10.1780411314
 11
-1.0652667861
 21
10.1338234995
  0
LINE
  5
5F7
100
AcDbEntity
  8
CURVE
100
AcDbLine
 62
7
  6
CONTINUOUS
 10
-1.0383084976
 20
12.576500057
 11
-1.0399052898
 21
12.6207196459
  0
LINE
  5
5F8
100
AcDbEntity
  8
CURVE
100
AcDbLine
 62
7
  6
CONTINUOUS
 10
-1.0457590665
 20
30.6438417895
 11
-1.0461607897
 21
30.6555149638
  0
LINE
  5
5F9
100
AcDbEntity
  8
CURVE
100
AcDbLine
 62
7
  6
CONTINUOUS
 10
-1.048805979
 20
30.1375595388
 11
-1.0479288678
 21
30.1113408561
  0
LINE
  5
5FA
100
AcDbEntity
  8
CURVE
100
AcDbLine
 62
7
  6
CONTINUOUS
 10
-1.0627849145
 20
10.6281886805
 11
-1.0639258296
 21
10.6624078711
  0
LINE
  5
5FB
100
AcDbEntity
  8
CURVE
100
AcDbLine
 62
7
  6
CONTINUOUS
 10
-1.0423969359
 20
12.1263560176
 11
-1.0412560026
 21
12.0921359547
  0
LINE
  5
5FC
100
AcDbEntity
  8
CURVE
100
AcDbLine
 62
7
  6
CONTINUOUS
 10
-1.0683951488
 20
10.2280190951
 11
-1.0668635756
 21
10.1780411314
  0
LINE
  5
5FD
100
AcDbEntity
  8
CURVE
100
AcDbLine
 62
7
  6
CONTINUOUS
 10
-1.0367769325
 20
12.5265195533
 11
-1.0383084976
 21
12.576500057
  0
LINE
  5
5FE
100
AcDbEntity
  8
CURVE
100
AcDbLine
 62
7
  6
CONTINUOUS
 10
-1.0639258296
 20
10.6624078711
 11
-1.0648919513
 21
10.6964104204
  0
LINE
  5
5FF
100
AcDbEntity
  8
CURVE
100
AcDbLine
 62
7
  6
CONTINUOUS
 10
-1.0412560026
 20
12.0921359547
 11
-1.0402898661
 21
12.058132545
  0
LINE
  5
600
100
AcDbEntity
  8
CURVE
100
AcDbLine
 62
7
  6
CONTINUOUS
 10
-1.0496459185
 20
30.1674064351
 11
-1.048805979
 21
30.1375595388
  0
LINE
  5
601
100
AcDbEntity
  8
CURVE
100
AcDbLine
 62
7
  6
CONTINUOUS
 10
-1.0461607897
 20
30.6555149638
 11
-1.0467318615
 21
30.6754910249
  0
LINE
  5
602
100
AcDbEntity
  8
CURVE
100
AcDbLine
 62
253
  6
CONTINUOUS
 10
-1.0848659421
 20
9.1695040037
 11
-1.0919715653
 21
9.4409324457
  0
LINE
  5
603
100
AcDbEntity
  8
CURVE
100
AcDbLine
 62
253
  6
CONTINUOUS
 10
-1.0848659421
 20
18.2623607461
 11
-1.0919715653
 21
18.5337893297
  0
LINE
  5
604
100
AcDbEntity
  8
CURVE
100
AcDbLine
 62
253
  6
CONTINUOUS
 10
-1.105060869
 20
22.3099796732
 11
-1.095337386
 21
21.9385512789
  0
LINE
  5
605
100
AcDbEntity
  8
CURVE
100
AcDbLine
 62
253
  6
CONTINUOUS
 10
-1.1180255144
 20
9.4409324457
 11
-1.0943401051
 21
8.4909324457
  0
LINE
  5
606
100
AcDbEntity
  8
CURVE
100
AcDbLine
 62
253
  6
CONTINUOUS
 10
-1.1180255144
 20
18.5337893297
 11
-1.0943401051
 21
17.5837893297
  0
LWPOLYLINE
  5
607
100
AcDbEntity
  8
0
100
AcDbPolyline
 62
7
  6
CONTINUOUS
 90
34
 70
0
 10
-2.0054662252
 20
48.3794217265
 10
-2.0057498541
 20
48.3913183854
 10
-2.0065992942
 20
48.4031881037
 10
-2.008012623
 20
48.415003986
 10
-2.0099866416
 20
48.4267392657
 10
-2.0125168787
 20
48.438367345
 10
-2.0155975973
 20
48.4498618561
 10
-2.0192218144
 20
48.4611967486
 10
-2.0233813187
 20
48.4723463449
 10
-2.028066683
 20
48.4832853784
 10
-2.0332672906
 20
48.4939890649
 10
-2.0389713559
 20
48.5044331501
 10
-2.0451659482
 20
48.5145939623
 10
-2.0518370283
 20
48.5244484784
 10
-2.0589694793
 20
48.5339743726
 10
-2.0665471359
 20
48.5431500596
 10
-2.07455283
 20
48.5519547551
 10
-2.0829684163
 20
48.5603685067
 10
-2.0917748078
 20
48.5683722383
 10
-2.1009520211
 20
48.5759477992
 10
-2.1104792826
 20
48.5830780526
 10
-2.1203350672
 20
48.5897468898
 10
-2.1304971429
 20
48.5959392522
 10
-2.1409423963
 20
48.6016410407
 10
-2.1516469311
 20
48.606839226
 10
-2.1625863323
 20
48.6115219996
 10
-2.1737359442
 20
48.615678854
 10
-2.1850707093
 20
48.6193004638
 10
-2.196566675
 20
48.6223790424
 10
-2.2081961102
 20
48.6249070323
 10
-2.2199276049
 20
48.6268779783
 10
-2.2317327804
 20
48.6282879742
 10
-2.2435865229
 20
48.629134876
 10
-2.2554619945
 20
48.6294174957
  0
LWPOLYLINE
  5
608
100
AcDbEntity
  8
0
100
AcDbPolyline
 62
7
  6
CONTINUOUS
 90
4
 70
0
 10
-2.0010943912
 20
48.3837935605
 10
-2.0013775415
 20
48.3956888457
 10
-2.002226357
 20
48.4075571853
 10
-2.0036389171
 20
48.4193716958
  0
LINE
  5
609
100
AcDbEntity
  8
CURVE
100
AcDbLine
 62
7
  6
CONTINUOUS
 10
-1.0703172202
 20
10.3036621604
 11
-1.0683951488
 21
10.2280190951
  0
LINE
  5
60A
100
AcDbEntity
  8
CURVE
100
AcDbLine
 62
7
  6
CONTINUOUS
 10
-1.0348548926
 20
12.4508720638
 11
-1.0367769325
 21
12.5265195533
  0
LINE
  5
60B
100
AcDbEntity
  8
CURVE
100
AcDbLine
 62
7
  6
CONTINUOUS
 10
-1.0648919513
 20
10.6964104204
 11
-1.0658113934
 21
10.734172113
  0
LINE
  5
60C
100
AcDbEntity
  8
CURVE
100
AcDbLine
 62
7
  6
CONTINUOUS
 10
-1.0402898661
 20
12.058132545
 11
-1.0393704071
 21
12.0203700948
  0
LINE
  5
60D
100
AcDbEntity
  8
CURVE
100
AcDbLine
 62
7
  6
CONTINUOUS
 10
-1.0467318615
 20
30.6754910249
 11
-1.0472578357
 21
30.6984521244
  0
LINE
  5
60E
100
AcDbEntity
  8
CURVE
100
AcDbLine
 62
7
  6
CONTINUOUS
 10
-1.0508132622
 20
30.2187587233
 11
-1.0496459185
 21
30.1674064351
  0
LWPOLYLINE
  5
60F
100
AcDbEntity
  8
0
100
AcDbPolyline
 62
7
  6
CONTINUOUS
 90
40
 70
0
 10
-1.0010943912
 20
46.0335604776
 10
-1.001493237
 20
46.053689273
 10
-1.002700065
 20
46.0737805243
 10
-1.0047128243
 20
46.0938019026
 10
-1.0075278018
 20
46.1137172366
 10
-1.0111404486
 20
46.1334984709
 10
-1.015546745
 20
46.1531254698
 10
-1.0207409683
 20
46.1725679858
 10
-1.0267156618
 20
46.1917926875
 10
-1.0334642068
 20
46.210774698
 10
-1.0409818755
 20
46.2294932858
 10
-1.0492546502
 20
46.2479064209
 10
-1.0582576771
 20
46.2659589239
 10
-1.0679659452
 20
46.2836065417
 10
-1.0783701798
 20
46.3008376904
 10
-1.0894670823
 20
46.3176470195
 10
-1.1012513046
 20
46.3340213902
 10
-1.1136950467
 20
46.3499173401
 10
-1.1267594381
 20
46.3652855872
 10
-1.1404075515
 20
46.3800876338
 10
-1.1546288115
 20
46.3943166928
 10
-1.169422381
 20
46.4079720795
 10
-1.1847809066
 20
46.4210428619
 10
-1.2006663212
 20
46.4334926277
 10
-1.2170308359
 20
46.4452837765
 10
-1.233831683
 20
46.4563887091
 10
-1.2510552113
 20
46.4668015294
 10
-1.2686958771
 20
46.4765188827
 10
-1.2867431221
 20
46.4855317547
 10
-1.3051517587
 20
46.4938144549
 10
-1.3238632904
 20
46.5013410057
 10
-1.3428326317
 20
46.5080964883
 10
-1.3620417471
 20
46.5140776648
 10
-1.381471162
 20
46.5192799916
 10
-1.4011006803
 20
46.523697915
 10
-1.4208872146
 20
46.5273216267
 10
-1.440776524
 20
46.5301432975
 10
-1.4607286476
 20
46.5321610369
 10
-1.480718492
 20
46.5333759558
 10
-1.5007137915
 20
46.5337893297
  0
LINE
  5
610
100
AcDbEntity
  8
CURVE
100
AcDbLine
 62
7
  6
CONTINUOUS
 10
-1.0658113934
 20
10.734172113
 11
-1.0666749613
 21
10.7758625503
  0
LINE
  5
611
100
AcDbEntity
  8
CURVE
100
AcDbLine
 62
7
  6
CONTINUOUS
 10
-1.0393704071
 20
12.0203700948
 11
-1.0385068175
 21
11.9786791975
  0
LINE
  5
612
100
AcDbEntity
  8
ASSI
100
AcDbLine
 62
7
  6
CONTINUOUS
 10
-1.2005936647
 20
7.8666517828
 11
-1.2017610986
 21
7.9249851477
  0
LINE
  5
613
100
AcDbEntity
  8
RACCORDO
100
AcDbLine
 62
7
  6
CONTINUOUS
 10
-1.2005931851
 20
7.8666511915
 11
-1.2017714521
 21
7.9255456204
  0
LINE
  5
614
100
AcDbEntity
  8
ASSI
100
AcDbLine
 62
7
  6
CONTINUOUS
 10
-1.2005936647
 20
12.8666517828
 11
-1.2017610986
 21
12.9249851477
  0
LINE
  5
615
100
AcDbEntity
  8
RACCORDO
100
AcDbLine
 62
7
  6
CONTINUOUS
 10
-1.2005931851
 20
12.8666511915
 11
-1.2017714521
 21
12.9255456204
  0
LINE
  5
616
100
AcDbEntity
  8
CURVE
100
AcDbLine
 62
7
  6
CONTINUOUS
 10
-1.0719877476
 20
10.3851101099
 11
-1.0703172202
 21
10.3036621604
  0
LINE
  5
617
100
AcDbEntity
  8
ASSI
100
AcDbLine
 62
7
  6
CONTINUOUS
 10
-1.2005936647
 20
17.8666517828
 11
-1.2017610986
 21
17.9249851477
  0
LINE
  5
618
100
AcDbEntity
  8
RACCORDO
100
AcDbLine
 62
7
  6
CONTINUOUS
 10
-1.2005931851
 20
17.8666511915
 11
-1.2017714521
 21
17.9255456204
  0
LINE
  5
619
100
AcDbEntity
  8
CURVE
100
AcDbLine
 62
7
  6
CONTINUOUS
 10
-1.0331843183
 20
12.3694153794
 11
-1.0348548926
 21
12.4508720638
  0
LINE
  5
61A
100
AcDbEntity
  8
ASSI
100
AcDbLine
 62
7
  6
CONTINUOUS
 10
-1.2005936647
 20
22.8666517828
 11
-1.2017610986
 21
22.9249851477
  0
LINE
  5
61B
100
AcDbEntity
  8
RACCORDO
100
AcDbLine
 62
7
  6
CONTINUOUS
 10
-1.2005931851
 20
22.8666511915
 11
-1.2017714521
 21
22.9255456204
  0
LINE
  5
61C
100
AcDbEntity
  8
CURVE
100
AcDbLine
 62
253
  6
CONTINUOUS
 10
-1.0554461711
 20
23.3991465987
 11
-1.0586873325
 21
23.575575086
  0
LINE
  5
61D
100
AcDbEntity
  8
CURVE
100
AcDbLine
 62
253
  6
CONTINUOUS
 10
-1.105060869
 20
28.636766081
 11
-1.1083020307
 21
28.8131939794
  0
LINE
  5
61E
100
AcDbEntity
  8
CURVE
100
AcDbLine
 62
253
  6
CONTINUOUS
 10
-1.105060869
 20
35.4880747916
 11
-1.1083020307
 21
35.6645038678
  0
LINE
  5
61F
100
AcDbEntity
  8
CURVE
100
AcDbLine
 62
253
  6
CONTINUOUS
 10
-1.098578547
 20
39.0166464515
 11
-1.095337386
 21
38.8402179642
  0
LINE
  5
620
100
AcDbEntity
  8
CURVE
100
AcDbLine
 62
253
  6
CONTINUOUS
 10
-1.0896030236
 20
7.8123608877
 11
-1.0848659421
 21
7.5409324457
  0
LINE
  5
621
100
AcDbEntity
  8
CURVE
100
AcDbLine
 62
253
  6
CONTINUOUS
 10
-1.0943401051
 20
10.5266462137
 11
-1.0848659421
 21
9.9837893297
  0
LINE
  5
622
100
AcDbEntity
  8
CURVE
100
AcDbLine
 62
253
  6
CONTINUOUS
 10
-1.0848659421
 20
12.4266466667
 11
-1.0919715653
 21
12.8337893297
  0
LINE
  5
623
100
AcDbEntity
  8
CURVE
100
AcDbLine
 62
253
  6
CONTINUOUS
 10
-1.0943401051
 20
15.5480751087
 11
-1.0848659421
 21
15.0052179982
  0
LINE
  5
624
100
AcDbEntity
  8
CURVE
100
AcDbLine
 62
253
  6
CONTINUOUS
 10
-1.0896030236
 20
16.9052178849
 11
-1.0848659421
 21
16.6337893297
  0
LINE
  5
625
100
AcDbEntity
  8
CURVE
100
AcDbLine
 62
7
  6
CONTINUOUS
 10
-1.049353635
 20
14.7622143297
 11
-1.0272969785
 21
13.4769533297
  0
LINE
  5
626
100
AcDbEntity
  8
CURVE
100
AcDbLine
 62
7
  6
CONTINUOUS
 10
-1.0272969785
 20
12.7827393297
 11
-1.0481136558
 21
14.0295693297
  0
LINE
  5
627
100
AcDbEntity
  8
CURVE
100
AcDbLine
 62
7
  6
CONTINUOUS
 10
-1.054327773
 20
14.3919703297
 11
-1.0603531013
 21
14.7622143297
  0
LINE
  5
628
100
AcDbEntity
  8
RACCORDO
100
AcDbLine
 62
7
  6
CONTINUOUS
 10
-1.2017714521
 20
7.9255456204
 11
-1.2028941858
 21
7.9911908374
  0
LINE
  5
629
100
AcDbEntity
  8
ASSI
100
AcDbLine
 62
7
  6
CONTINUOUS
 10
-1.2017610986
 20
7.9249851477
 11
-1.2029240537
 21
7.9930743978
  0
LINE
  5
62A
100
AcDbEntity
  8
RACCORDO
100
AcDbLine
 62
7
  6
CONTINUOUS
 10
-1.2017714521
 20
12.9255456204
 11
-1.2028941858
 21
12.9911908374
  0
LINE
  5
62B
100
AcDbEntity
  8
ASSI
100
AcDbLine
 62
7
  6
CONTINUOUS
 10
-1.2017610986
 20
12.9249851477
 11
-1.2029240537
 21
12.9930743978
  0
LINE
  5
62C
100
AcDbEntity
  8
RACCORDO
100
AcDbLine
 62
7
  6
CONTINUOUS
 10
-1.2017714521
 20
17.9255456204
 11
-1.2028941858
 21
17.9911908374
  0
LINE
  5
62D
100
AcDbEntity
  8
ASSI
100
AcDbLine
 62
7
  6
CONTINUOUS
 10
-1.2017610986
 20
17.9249851477
 11
-1.2029240537
 21
17.9930743978
  0
LINE
  5
62E
100
AcDbEntity
  8
RACCORDO
100
AcDbLine
 62
7
  6
CONTINUOUS
 10
-1.2017714521
 20
22.9255456204
 11
-1.2028941858
 21
22.9911908374
  0
LINE
  5
62F
100
AcDbEntity
  8
ASSI
100
AcDbLine
 62
7
  6
CONTINUOUS
 10
-1.2017610986
 20
22.9249851477
 11
-1.2029240537
 21
22.9930743978
  0
LINE
  5
630
100
AcDbEntity
  8
CURVE
100
AcDbLine
 62
7
  6
CONTINUOUS
 10
-1.0666749613
 20
10.7758625503
 11
-1.0675338752
 21
10.8263272638
  0
LINE
  5
631
100
AcDbEntity
  8
CURVE
100
AcDbLine
 62
7
  6
CONTINUOUS
 10
-1.0385068175
 20
11.9786791975
 11
-1.0376449429
 21
11.9279968691
  0
LINE
  5
632
100
AcDbEntity
  8
CURVE
100
AcDbLine
 62
7
  6
CONTINUOUS
 10
-1.0472578357
 20
30.6984521244
 11
-1.0478737512
 21
30.7336800964
  0
LINE
  5
633
100
AcDbEntity
  8
CURVE
100
AcDbLine
 62
7
  6
CONTINUOUS
 10
-1.0525239759
 20
30.3192597514
 11
-1.0508132622
 21
30.2187587233
  0
LINE
  5
634
100
AcDbEntity
  8
CURVE
100
AcDbLine
 62
7
  6
CONTINUOUS
 10
-1.0737464455
 20
10.495726089
 11
-1.0719877476
 21
10.3851101099
  0
LINE
  5
635
100
AcDbEntity
  8
CURVE
100
AcDbLine
 62
7
  6
CONTINUOUS
 10
-1.0314255101
 20
12.2587821716
 11
-1.0331843183
 21
12.3694153794
  0
LINE
  5
636
100
AcDbEntity
  8
RACCORDO
100
AcDbLine
 62
7
  6
CONTINUOUS
 10
-1.2028941858
 20
7.9911908374
 11
-1.2040115137
 21
8.0668547335
  0
LINE
  5
637
100
AcDbEntity
  8
RACCORDO
100
AcDbLine
 62
7
  6
CONTINUOUS
 10
-1.2028941858
 20
12.9911908374
 11
-1.2040115137
 21
13.0668547335
  0
LINE
  5
638
100
AcDbEntity
  8
RACCORDO
100
AcDbLine
 62
7
  6
CONTINUOUS
 10
-1.2028941858
 20
17.9911908374
 11
-1.2040115137
 21
18.0668547335
  0
LINE
  5
639
100
AcDbEntity
  8
RACCORDO
100
AcDbLine
 62
7
  6
CONTINUOUS
 10
-1.2028941858
 20
22.9911908374
 11
-1.2040115137
 21
23.0668547335
  0
LINE
  5
63A
100
AcDbEntity
  8
ASSI
100
AcDbLine
 62
7
  6
CONTINUOUS
 10
-1.2029240537
 20
7.9930743978
 11
-1.2040816791
 21
8.071974089
  0
LINE
  5
63B
100
AcDbEntity
  8
ASSI
100
AcDbLine
 62
7
  6
CONTINUOUS
 10
-1.2029240537
 20
12.9930743978
 11
-1.2040816791
 21
13.071974089
  0
LINE
  5
63C
100
AcDbEntity
  8
ASSI
100
AcDbLine
 62
7
  6
CONTINUOUS
 10
-1.2029240537
 20
17.9930743978
 11
-1.2040816791
 21
18.071974089
  0
LINE
  5
63D
100
AcDbEntity
  8
ASSI
100
AcDbLine
 62
7
  6
CONTINUOUS
 10
-1.2029240537
 20
22.9930743978
 11
-1.2040816791
 21
23.071974089
  0
LINE
  5
63E
100
AcDbEntity
  8
CURVE
100
AcDbLine
 62
7
  6
CONTINUOUS
 10
-1.0675338752
 20
10.8263272638
 11
-1.0683032386
 21
10.8823405736
  0
LINE
  5
63F
100
AcDbEntity
  8
CURVE
100
AcDbLine
 62
7
  6
CONTINUOUS
 10
-1.0376449429
 20
11.9279968691
 11
-1.0368739674
 21
11.8717195773
  0
LINE
  5
640
100
AcDbEntity
  8
RACCORDO
100
AcDbLine
 62
7
  6
CONTINUOUS
 10
-1.2040115137
 20
8.0668547335
 11
-1.2053335061
 21
8.1709411482
  0
LINE
  5
641
100
AcDbEntity
  8
RACCORDO
100
AcDbLine
 62
7
  6
CONTINUOUS
 10
-1.2040115137
 20
13.0668547335
 11
-1.2053335061
 21
13.1709411482
  0
LINE
  5
642
100
AcDbEntity
  8
RACCORDO
100
AcDbLine
 62
7
  6
CONTINUOUS
 10
-1.2040115137
 20
18.0668547335
 11
-1.2053335061
 21
18.1709411482
  0
LINE
  5
643
100
AcDbEntity
  8
RACCORDO
100
AcDbLine
 62
7
  6
CONTINUOUS
 10
-1.2040115137
 20
23.0668547335
 11
-1.2053335061
 21
23.1709411482
  0
LINE
  5
644
100
AcDbEntity
  8
ASSI
100
AcDbLine
 62
7
  6
CONTINUOUS
 10
-1.2040816791
 20
8.071974089
 11
-1.2054512176
 21
8.1810183346
  0
LINE
  5
645
100
AcDbEntity
  8
ASSI
100
AcDbLine
 62
7
  6
CONTINUOUS
 10
-1.2040816791
 20
13.071974089
 11
-1.2054512176
 21
13.1810183346
  0
LINE
  5
646
100
AcDbEntity
  8
ASSI
100
AcDbLine
 62
7
  6
CONTINUOUS
 10
-1.2040816791
 20
18.071974089
 11
-1.2054512176
 21
18.1810183346
  0
LINE
  5
647
100
AcDbEntity
  8
ASSI
100
AcDbLine
 62
7
  6
CONTINUOUS
 10
-1.2040816791
 20
23.071974089
 11
-1.2054512176
 21
23.1810183346
  0
LINE
  5
648
100
AcDbEntity
  8
CURVE
100
AcDbLine
 62
7
  6
CONTINUOUS
 10
-1.0535281309
 20
30.3917131439
 11
-1.0525239759
 21
30.3192597514
  0
LINE
  5
649
100
AcDbEntity
  8
CURVE
100
AcDbLine
 62
7
  6
CONTINUOUS
 10
-1.0478737512
 20
30.7336800964
 11
-1.0483819956
 21
30.7737175124
  0
LINE
  5
64A
100
AcDbEntity
  8
CURVE
100
AcDbLine
 62
7
  6
CONTINUOUS
 10
-1.0755422972
 20
10.6463711672
 11
-1.0737464455
 21
10.495726089
  0
LINE
  5
64B
100
AcDbEntity
  8
CURVE
100
AcDbLine
 62
253
  6
CONTINUOUS
 10
-1.0990771865
 20
13.9195035507
 11
-1.0967086468
 21
13.6933130314
  0
LINE
  5
64C
100
AcDbEntity
  8
CURVE
100
AcDbLine
 62
7
  6
CONTINUOUS
 10
-1.029629635
 20
12.1081132671
 11
-1.0314255101
 21
12.2587821716
  0
LINE
  5
64D
100
AcDbEntity
  8
ASSI
100
AcDbLine
 62
7
  6
CONTINUOUS
 10
-1.2054512176
 20
8.1810183346
 11
-1.2065634804
 21
8.2837977705
  0
LINE
  5
64E
100
AcDbEntity
  8
RACCORDO
100
AcDbLine
 62
7
  6
CONTINUOUS
 10
-1.2053335061
 20
8.1709411482
 11
-1.2066202931
 21
8.2894460831
  0
LINE
  5
64F
100
AcDbEntity
  8
ASSI
100
AcDbLine
 62
7
  6
CONTINUOUS
 10
-1.2054512176
 20
13.1810183346
 11
-1.2065634804
 21
13.2837977705
  0
LINE
  5
650
100
AcDbEntity
  8
RACCORDO
100
AcDbLine
 62
7
  6
CONTINUOUS
 10
-1.2053335061
 20
13.1709411482
 11
-1.2066202931
 21
13.2894460831
  0
LINE
  5
651
100
AcDbEntity
  8
ASSI
100
AcDbLine
 62
7
  6
CONTINUOUS
 10
-1.2054512176
 20
18.1810183346
 11
-1.2065634804
 21
18.2837977705
  0
LINE
  5
652
100
AcDbEntity
  8
RACCORDO
100
AcDbLine
 62
7
  6
CONTINUOUS
 10
-1.2053335061
 20
18.1709411482
 11
-1.2066202931
 21
18.2894460831
  0
LINE
  5
653
100
AcDbEntity
  8
ASSI
100
AcDbLine
 62
7
  6
CONTINUOUS
 10
-1.2054512176
 20
23.1810183346
 11
-1.2065634804
 21
23.2837977705
  0
LINE
  5
654
100
AcDbEntity
  8
RACCORDO
100
AcDbLine
 62
7
  6
CONTINUOUS
 10
-1.2053335061
 20
23.1709411482
 11
-1.2066202931
 21
23.2894460831
  0
LINE
  5
655
100
AcDbEntity
  8
CURVE
100
AcDbLine
 62
7
  6
CONTINUOUS
 10
-1.0683032386
 20
10.8823405736
 11
-1.0691356228
 21
10.9588624108
  0
LINE
  5
656
100
AcDbEntity
  8
CURVE
100
AcDbLine
 62
7
  6
CONTINUOUS
 10
-1.0368739674
 20
11.8717195773
 11
-1.0360410667
 21
11.7948177186
  0
LINE
  5
657
100
AcDbEntity
  8
ASSI
100
AcDbLine
 62
7
  6
CONTINUOUS
 10
-1.2065634804
 20
8.2837977705
 11
-1.2078393405
 21
8.4213856581
  0
LINE
  5
658
100
AcDbEntity
  8
RACCORDO
100
AcDbLine
 62
7
  6
CONTINUOUS
 10
-1.2066202931
 20
8.2894460831
 11
-1.2078475988
 21
8.422354117
  0
LINE
  5
659
100
AcDbEntity
  8
ASSI
100
AcDbLine
 62
7
  6
CONTINUOUS
 10
-1.2065634804
 20
13.2837977705
 11
-1.2078393405
 21
13.4213856581
  0
LINE
  5
65A
100
AcDbEntity
  8
RACCORDO
100
AcDbLine
 62
7
  6
CONTINUOUS
 10
-1.2066202931
 20
13.2894460831
 11
-1.2078475988
 21
13.422354117
  0
LINE
  5
65B
100
AcDbEntity
  8
ASSI
100
AcDbLine
 62
7
  6
CONTINUOUS
 10
-1.2065634804
 20
18.2837977705
 11
-1.2078393405
 21
18.4213856581
  0
LINE
  5
65C
100
AcDbEntity
  8
RACCORDO
100
AcDbLine
 62
7
  6
CONTINUOUS
 10
-1.2066202931
 20
18.2894460831
 11
-1.2078475988
 21
18.422354117
  0
LINE
  5
65D
100
AcDbEntity
  8
ASSI
100
AcDbLine
 62
7
  6
CONTINUOUS
 10
-1.2065634804
 20
23.2837977705
 11
-1.2078393405
 21
23.4213856581
  0
LINE
  5
65E
100
AcDbEntity
  8
RACCORDO
100
AcDbLine
 62
7
  6
CONTINUOUS
 10
-1.2066202931
 20
23.2894460831
 11
-1.2078475988
 21
23.422354117
  0
LINE
  5
65F
100
AcDbEntity
  8
CURVE
100
AcDbLine
 62
7
  6
CONTINUOUS
 10
-1.0483819956
 20
30.7737175124
 11
-1.0488812534
 21
30.8294410344
  0
LINE
  5
660
100
AcDbEntity
  8
RACCORDO
100
AcDbLine
 62
7
  6
CONTINUOUS
 10
-1.2078475988
 20
8.422354117
 11
-1.2090078988
 21
8.5695322676
  0
LINE
  5
661
100
AcDbEntity
  8
ASSI
100
AcDbLine
 62
7
  6
CONTINUOUS
 10
-1.2078393405
 20
8.4213856581
 11
-1.2090427627
 21
8.5743329638
  0
LINE
  5
662
100
AcDbEntity
  8
RACCORDO
100
AcDbLine
 62
7
  6
CONTINUOUS
 10
-1.2078475988
 20
13.422354117
 11
-1.2090078988
 21
13.5695322676
  0
LINE
  5
663
100
AcDbEntity
  8
ASSI
100
AcDbLine
 62
7
  6
CONTINUOUS
 10
-1.2078393405
 20
13.4213856581
 11
-1.2090427627
 21
13.5743329638
  0
LINE
  5
664
100
AcDbEntity
  8
RACCORDO
100
AcDbLine
 62
7
  6
CONTINUOUS
 10
-1.2078475988
 20
18.422354117
 11
-1.2090078988
 21
18.5695322676
  0
LINE
  5
665
100
AcDbEntity
  8
ASSI
100
AcDbLine
 62
7
  6
CONTINUOUS
 10
-1.2078393405
 20
18.4213856581
 11
-1.2090427627
 21
18.5743329638
  0
LINE
  5
666
100
AcDbEntity
  8
RACCORDO
100
AcDbLine
 62
7
  6
CONTINUOUS
 10
-1.2078475988
 20
23.422354117
 11
-1.2090078988
 21
23.5695322676
  0
LINE
  5
667
100
AcDbEntity
  8
ASSI
100
AcDbLine
 62
7
  6
CONTINUOUS
 10
-1.2078393405
 20
23.4213856581
 11
-1.2090427627
 21
23.5743329638
  0
LINE
  5
668
100
AcDbEntity
  8
CURVE
100
AcDbLine
 62
7
  6
CONTINUOUS
 10
-1.0691356228
 20
10.9588624108
 11
-1.0698202622
 21
11.0410596671
  0
LINE
  5
669
100
AcDbEntity
  8
CURVE
100
AcDbLine
 62
7
  6
CONTINUOUS
 10
-1.0360410667
 20
11.7948177186
 11
-1.0353571002
 21
11.7122029757
  0
LINE
  5
66A
100
AcDbEntity
  8
CURVE
100
AcDbLine
 62
7
  6
CONTINUOUS
 10
-1.0771847026
 20
10.840522711
 11
-1.0755422972
 21
10.6463711672
  0
LINE
  5
66B
100
AcDbEntity
  8
CURVE
100
AcDbLine
 62
7
  6
CONTINUOUS
 10
-1.0279873002
 20
11.9139313365
 11
-1.029629635
 21
12.1081132671
  0
LINE
  5
66C
100
AcDbEntity
  8
CURVE
100
AcDbLine
 62
7
  6
CONTINUOUS
 10
-1.0537583123
 20
30.4194356549
 11
-1.0535281309
 21
30.3917131439
  0
LINE
  5
66D
100
AcDbEntity
  8
RACCORDO
100
AcDbLine
 62
7
  6
CONTINUOUS
 10
-1.2090078988
 20
8.5695322676
 11
-1.210082507
 21
8.7305896769
  0
LINE
  5
66E
100
AcDbEntity
  8
ASSI
100
AcDbLine
 62
7
  6
CONTINUOUS
 10
-1.2090427627
 20
8.5743329638
 11
-1.2101524505
 21
8.7421375617
  0
LINE
  5
66F
100
AcDbEntity
  8
RACCORDO
100
AcDbLine
 62
7
  6
CONTINUOUS
 10
-1.2090078988
 20
13.5695322676
 11
-1.210082507
 21
13.7305896769
  0
LINE
  5
670
100
AcDbEntity
  8
ASSI
100
AcDbLine
 62
7
  6
CONTINUOUS
 10
-1.2090427627
 20
13.5743329638
 11
-1.2101524505
 21
13.7421375617
  0
LINE
  5
671
100
AcDbEntity
  8
RACCORDO
100
AcDbLine
 62
7
  6
CONTINUOUS
 10
-1.2090078988
 20
18.5695322676
 11
-1.210082507
 21
18.7305896769
  0
LINE
  5
672
100
AcDbEntity
  8
ASSI
100
AcDbLine
 62
7
  6
CONTINUOUS
 10
-1.2090427627
 20
18.5743329638
 11
-1.2101524505
 21
18.7421375617
  0
LINE
  5
673
100
AcDbEntity
  8
RACCORDO
100
AcDbLine
 62
7
  6
CONTINUOUS
 10
-1.2090078988
 20
23.5695322676
 11
-1.210082507
 21
23.7305896769
  0
LINE
  5
674
100
AcDbEntity
  8
ASSI
100
AcDbLine
 62
7
  6
CONTINUOUS
 10
-1.2090427627
 20
23.5743329638
 11
-1.2101524505
 21
23.7421375617
  0
LINE
  5
675
100
AcDbEntity
  8
CURVE
100
AcDbLine
 62
7
  6
CONTINUOUS
 10
-1.0698202622
 20
11.0410596671
 11
-1.0703528112
 21
11.1272688632
  0
LINE
  5
676
100
AcDbEntity
  8
CURVE
100
AcDbLine
 62
7
  6
CONTINUOUS
 10
-1.0353571002
 20
11.7122029757
 11
-1.0348259037
 21
11.6255582629
  0
LINE
  5
677
100
AcDbEntity
  8
RACCORDO
100
AcDbLine
 62
7
  6
CONTINUOUS
 10
-1.210082507
 20
8.7305896769
 11
-1.2110515592
 21
8.9049515733
  0
LINE
  5
678
100
AcDbEntity
  8
ASSI
100
AcDbLine
 62
7
  6
CONTINUOUS
 10
-1.2101524505
 20
8.7421375617
 11
-1.2111475744
 21
8.9240705387
  0
LINE
  5
679
100
AcDbEntity
  8
RACCORDO
100
AcDbLine
 62
7
  6
CONTINUOUS
 10
-1.210082507
 20
13.7305896769
 11
-1.2110515592
 21
13.9049515733
  0
LINE
  5
67A
100
AcDbEntity
  8
ASSI
100
AcDbLine
 62
7
  6
CONTINUOUS
 10
-1.2101524505
 20
13.7421375617
 11
-1.2111475744
 21
13.9240705387
  0
LINE
  5
67B
100
AcDbEntity
  8
RACCORDO
100
AcDbLine
 62
7
  6
CONTINUOUS
 10
-1.210082507
 20
18.7305896769
 11
-1.2110515592
 21
18.9049515733
  0
LINE
  5
67C
100
AcDbEntity
  8
ASSI
100
AcDbLine
 62
7
  6
CONTINUOUS
 10
-1.2101524505
 20
18.7421375617
 11
-1.2111475744
 21
18.9240705387
  0
LINE
  5
67D
100
AcDbEntity
  8
RACCORDO
100
AcDbLine
 62
7
  6
CONTINUOUS
 10
-1.210082507
 20
23.7305896769
 11
-1.2110515592
 21
23.9049515733
  0
LINE
  5
67E
100
AcDbEntity
  8
ASSI
100
AcDbLine
 62
7
  6
CONTINUOUS
 10
-1.2101524505
 20
23.7421375617
 11
-1.2111475744
 21
23.9240705387
  0
LINE
  5
67F
100
AcDbEntity
  8
RACCORDO
100
AcDbLine
 62
7
  6
CONTINUOUS
 10
-1.2110515592
 20
8.9049515733
 11
-1.2113511468
 21
8.9659024857
  0
LINE
  5
680
100
AcDbEntity
  8
RACCORDO
100
AcDbLine
 62
7
  6
CONTINUOUS
 10
-1.2110515592
 20
13.9049515733
 11
-1.2113511468
 21
13.9659024857
  0
LINE
  5
681
100
AcDbEntity
  8
RACCORDO
100
AcDbLine
 62
7
  6
CONTINUOUS
 10
-1.2110515592
 20
18.9049515733
 11
-1.2113511468
 21
18.9659024857
  0
LINE
  5
682
100
AcDbEntity
  8
CURVE
100
AcDbLine
 62
7
  6
CONTINUOUS
 10
-1.0488812534
 20
30.8294410344
 11
-1.0493016905
 21
30.9021515699
  0
LINE
  5
683
100
AcDbEntity
  8
RACCORDO
100
AcDbLine
 62
7
  6
CONTINUOUS
 10
-1.2110515592
 20
23.9049515733
 11
-1.211909802
 21
24.09183538
  0
LINE
  5
684
100
AcDbEntity
  8
ASSI
100
AcDbLine
 62
7
  6
CONTINUOUS
 10
-1.2111475744
 20
8.9240705387
 11
-1.2120203245
 21
9.119143623
  0
LINE
  5
685
100
AcDbEntity
  8
ASSI
100
AcDbLine
 62
7
  6
CONTINUOUS
 10
-1.2111475744
 20
13.9240705387
 11
-1.2120203245
 21
14.119143623
  0
LINE
  5
686
100
AcDbEntity
  8
ASSI
100
AcDbLine
 62
7
  6
CONTINUOUS
 10
-1.2111475744
 20
18.9240705387
 11
-1.2120203245
 21
19.119143623
  0
LINE
  5
687
100
AcDbEntity
  8
ASSI
100
AcDbLine
 62
7
  6
CONTINUOUS
 10
-1.2111475744
 20
23.9240705387
 11
-1.2120203245
 21
24.119143623
  0
LINE
  5
688
100
AcDbEntity
  8
RACCORDO
100
AcDbLine
 62
7
  6
CONTINUOUS
 10
-1.2113511468
 20
8.9659024857
 11
-1.2121664408
 21
9.1567372665
  0
LINE
  5
689
100
AcDbEntity
  8
RACCORDO
100
AcDbLine
 62
7
  6
CONTINUOUS
 10
-1.2113511468
 20
13.9659024857
 11
-1.2121664408
 21
14.1567372665
  0
LINE
  5
68A
100
AcDbEntity
  8
RACCORDO
100
AcDbLine
 62
7
  6
CONTINUOUS
 10
-1.2113511468
 20
18.9659024857
 11
-1.2121664408
 21
19.1567372665
  0
LINE
  5
68B
100
AcDbEntity
  8
CURVE
100
AcDbLine
 62
7
  6
CONTINUOUS
 10
-1.0784354555
 20
11.0769964058
 11
-1.0771847026
 21
10.840522711
  0
LINE
  5
68C
100
AcDbEntity
  8
CURVE
100
AcDbLine
 62
7
  6
CONTINUOUS
 10
-1.0267366777
 20
11.6774222006
 11
-1.0279873002
 21
11.9139313365
  0
LINE
  5
68D
100
AcDbEntity
  8
CURVE
100
AcDbLine
 62
7
  6
CONTINUOUS
 10
-1.0703528112
 20
11.1272688632
 11
-1.0707289242
 21
11.2158265198
  0
LINE
  5
68E
100
AcDbEntity
  8
CURVE
100
AcDbLine
 62
7
  6
CONTINUOUS
 10
-1.0348259037
 20
11.6255582629
 11
-1.0344513131
 21
11.5365664949
  0
LINE
  5
68F
100
AcDbEntity
  8
RACCORDO
100
AcDbLine
 62
7
  6
CONTINUOUS
 10
-1.2121664408
 20
9.1567372665
 11
-1.2126313416
 21
9.2901928919
  0
LINE
  5
690
100
AcDbEntity
  8
ASSI
100
AcDbLine
 62
7
  6
CONTINUOUS
 10
-1.2120203245
 20
9.119143623
 11
-1.2126333375
 21
9.2908197423
  0
LINE
  5
691
100
AcDbEntity
  8
RACCORDO
100
AcDbLine
 62
7
  6
CONTINUOUS
 10
-1.2121664408
 20
14.1567372665
 11
-1.2126313416
 21
14.2901928919
  0
LINE
  5
692
100
AcDbEntity
  8
ASSI
100
AcDbLine
 62
7
  6
CONTINUOUS
 10
-1.2120203245
 20
14.119143623
 11
-1.2126333375
 21
14.2908197423
  0
LINE
  5
693
100
AcDbEntity
  8
RACCORDO
100
AcDbLine
 62
7
  6
CONTINUOUS
 10
-1.2121664408
 20
19.1567372665
 11
-1.2126313416
 21
19.2901928919
  0
LINE
  5
694
100
AcDbEntity
  8
ASSI
100
AcDbLine
 62
7
  6
CONTINUOUS
 10
-1.2120203245
 20
19.119143623
 11
-1.2126333375
 21
19.2908197423
  0
LINE
  5
695
100
AcDbEntity
  8
RACCORDO
100
AcDbLine
 62
7
  6
CONTINUOUS
 10
-1.211909802
 20
24.09183538
 11
-1.2126313416
 21
24.2901928919
  0
LINE
  5
696
100
AcDbEntity
  8
CURVE
100
AcDbLine
 62
7
  6
CONTINUOUS
 10
-1.0538392237
 20
30.4392336197
 11
-1.0537583123
 21
30.4194356549
  0
LINE
  5
697
100
AcDbEntity
  8
RACCORDO
100
AcDbLine
 62
7
  6
CONTINUOUS
 10
-1.2126313416
 20
9.2901928919
 11
-1.2130327915
 21
9.4281931823
  0
LINE
  5
698
100
AcDbEntity
  8
RACCORDO
100
AcDbLine
 62
7
  6
CONTINUOUS
 10
-1.2126313416
 20
14.2901928919
 11
-1.2130327915
 21
14.4281931823
  0
LINE
  5
699
100
AcDbEntity
  8
RACCORDO
100
AcDbLine
 62
7
  6
CONTINUOUS
 10
-1.2126313416
 20
19.2901928919
 11
-1.2130327915
 21
19.4281931823
  0
LINE
  5
69A
100
AcDbEntity
  8
ASSI
100
AcDbLine
 62
7
  6
CONTINUOUS
 10
-1.2126333375
 20
9.2908197423
 11
-1.2131394655
 21
9.4698396768
  0
LINE
  5
69B
100
AcDbEntity
  8
ASSI
100
AcDbLine
 62
7
  6
CONTINUOUS
 10
-1.2126333375
 20
14.2908197423
 11
-1.2131394655
 21
14.4698396768
  0
LINE
  5
69C
100
AcDbEntity
  8
ASSI
100
AcDbLine
 62
7
  6
CONTINUOUS
 10
-1.2126333375
 20
19.2908197423
 11
-1.2131394655
 21
19.4698396768
  0
LINE
  5
69D
100
AcDbEntity
  8
ASSI
100
AcDbLine
 62
7
  6
CONTINUOUS
 10
-1.2120203245
 20
24.119143623
 11
-1.2132274963
 21
24.5064198393
  0
LINE
  5
69E
100
AcDbEntity
  8
CURVE
100
AcDbLine
 62
7
  6
CONTINUOUS
 10
-1.0493016905
 20
30.9021515699
 11
-1.0495803697
 21
30.9909266146
  0
LINE
  5
69F
100
AcDbEntity
  8
RACCORDO
100
AcDbLine
 62
7
  6
CONTINUOUS
 10
-1.2130327915
 20
9.4281931823
 11
-1.2135074533
 21
9.6423464443
  0
LINE
  5
6A0
100
AcDbEntity
  8
RACCORDO
100
AcDbLine
 62
7
  6
CONTINUOUS
 10
-1.2130327915
 20
14.4281931823
 11
-1.2135074533
 21
14.6423464443
  0
LINE
  5
6A1
100
AcDbEntity
  8
RACCORDO
100
AcDbLine
 62
7
  6
CONTINUOUS
 10
-1.2130327915
 20
19.4281931823
 11
-1.2135074533
 21
19.6423464443
  0
LINE
  5
6A2
100
AcDbEntity
  8
RACCORDO
100
AcDbLine
 62
7
  6
CONTINUOUS
 10
-1.2126313416
 20
24.2901928919
 11
-1.2135697869
 21
24.6787094946
  0
LINE
  5
6A3
100
AcDbEntity
  8
CURVE
100
AcDbLine
 62
7
  6
CONTINUOUS
 10
-1.0357787034
 20
31.4125906015
 11
-1.0354609784
 21
31.2778857225
  0
LWPOLYLINE
  5
6A4
100
AcDbEntity
  8
ASSI
100
AcDbPolyline
 62
7
  6
CONTINUOUS
 90
3
 70
0
 10
-1.2131394655
 20
9.4698396768
 10
-1.213591874
 20
9.6923813259
 10
-1.213649029
 20
9.7300922859
  0
LWPOLYLINE
  5
6A5
100
AcDbEntity
  8
ASSI
100
AcDbPolyline
 62
7
  6
CONTINUOUS
 90
3
 70
0
 10
-1.2131394655
 20
14.4698396768
 10
-1.213591874
 20
14.6923813259
 10
-1.213649029
 20
14.7300922859
  0
LWPOLYLINE
  5
6A6
100
AcDbEntity
  8
ASSI
100
AcDbPolyline
 62
7
  6
CONTINUOUS
 90
3
 70
0
 10
-1.2131394655
 20
19.4698396768
 10
-1.213591874
 20
19.6923813259
 10
-1.213649029
 20
19.7300922859
  0
LINE
  5
6A7
100
AcDbEntity
  8
CURVE
100
AcDbLine
 62
7
  6
CONTINUOUS
 10
-1.0707289242
 20
11.2158265198
 11
-1.0709442558
 21
11.3050691576
  0
LINE
  5
6A8
100
AcDbEntity
  8
CURVE
100
AcDbLine
 62
7
  6
CONTINUOUS
 10
-1.0344513131
 20
11.5365664949
 11
-1.0342371641
 21
11.4469105861
  0
LINE
  5
6A9
100
AcDbEntity
  8
ASSI
100
AcDbLine
 62
7
  6
CONTINUOUS
 10
-1.2132274963
 20
24.5064198393
 11
-1.213649029
 21
24.7300922859
  0
LINE
  5
6AA
100
AcDbEntity
  8
CURVE
100
AcDbLine
 62
7
  6
CONTINUOUS
 10
-1.0265932585
 20
31.4162618838
 11
-1.0277499505
 21
31.995356674
  0
LINE
  5
6AB
100
AcDbEntity
  8
RACCORDO
100
AcDbLine
 62
7
  6
CONTINUOUS
 10
-1.2135074533
 20
9.6423464443
 11
-1.2137697712
 21
9.8255397401
  0
LINE
  5
6AC
100
AcDbEntity
  8
RACCORDO
100
AcDbLine
 62
7
  6
CONTINUOUS
 10
-1.2135074533
 20
14.6423464443
 11
-1.2137697712
 21
14.8255397401
  0
LINE
  5
6AD
100
AcDbEntity
  8
RACCORDO
100
AcDbLine
 62
7
  6
CONTINUOUS
 10
-1.2135074533
 20
19.6423464443
 11
-1.2137697712
 21
19.8255397401
  0
LINE
  5
6AE
100
AcDbEntity
  8
ASSI
100
AcDbLine
 62
7
  6
CONTINUOUS
 10
-1.213649029
 20
9.7300922859
 11
-1.2138260487
 21
9.8821214599
  0
LINE
  5
6AF
100
AcDbEntity
  8
ASSI
100
AcDbLine
 62
7
  6
CONTINUOUS
 10
-1.213649029
 20
14.7300922859
 11
-1.2138260487
 21
14.8821214599
  0
LINE
  5
6B0
100
AcDbEntity
  8
ASSI
100
AcDbLine
 62
7
  6
CONTINUOUS
 10
-1.213649029
 20
19.7300922859
 11
-1.2138260487
 21
19.8821214599
  0
LINE
  5
6B1
100
AcDbEntity
  8
CURVE
100
AcDbLine
 62
7
  6
CONTINUOUS
 10
-1.0789840117
 20
11.3177245438
 11
-1.0784354555
 21
11.0769964058
  0
LINE
  5
6B2
100
AcDbEntity
  8
CURVE
100
AcDbLine
 62
7
  6
CONTINUOUS
 10
-1.0261882115
 20
11.4366610166
 11
-1.0267366777
 21
11.6774222006
  0
LINE
  5
6B3
100
AcDbEntity
  8
RACCORDO
100
AcDbLine
 62
7
  6
CONTINUOUS
 10
-1.2137697712
 20
9.8255397401
 11
-1.2138702692
 21
9.9367286113
  0
LINE
  5
6B4
100
AcDbEntity
  8
RACCORDO
100
AcDbLine
 62
7
  6
CONTINUOUS
 10
-1.2137697712
 20
14.8255397401
 11
-1.2138702692
 21
14.9367286113
  0
LINE
  5
6B5
100
AcDbEntity
  8
RACCORDO
100
AcDbLine
 62
7
  6
CONTINUOUS
 10
-1.2137697712
 20
19.8255397401
 11
-1.2138702692
 21
19.9367286113
  0
LINE
  5
6B6
100
AcDbEntity
  8
RACCORDO
100
AcDbLine
 62
7
  6
CONTINUOUS
 10
-1.2135697869
 20
24.6787094946
 11
-1.2138946001
 21
24.973914526
  0
LINE
  5
6B7
100
AcDbEntity
  8
CURVE
100
AcDbLine
 62
7
  6
CONTINUOUS
 10
-1.0354609784
 20
31.2778857225
 11
-1.0353183203
 21
31.1419104949
  0
LINE
  5
6B8
100
AcDbEntity
  8
ASSI
100
AcDbLine
 62
7
  6
CONTINUOUS
 10
-1.2138260487
 20
9.8821214599
 11
-1.213935538
 21
10.0736982463
  0
LINE
  5
6B9
100
AcDbEntity
  8
ASSI
100
AcDbLine
 62
7
  6
CONTINUOUS
 10
-1.2138260487
 20
14.8821214599
 11
-1.213935538
 21
15.0736982463
  0
LINE
  5
6BA
100
AcDbEntity
  8
ASSI
100
AcDbLine
 62
7
  6
CONTINUOUS
 10
-1.2138260487
 20
19.8821214599
 11
-1.213935538
 21
20.0736982463
  0
LINE
  5
6BB
100
AcDbEntity
  8
ASSI
100
AcDbLine
 62
7
  6
CONTINUOUS
 10
-1.213649029
 20
24.7300922859
 11
-1.2139415395
 21
25.1120566713
  0
LINE
  5
6BC
100
AcDbEntity
  8
RACCORDO
100
AcDbLine
 62
7
  6
CONTINUOUS
 10
-1.2138702692
 20
9.9367286113
 11
-1.2139422397
 21
10.1228997257
  0
LINE
  5
6BD
100
AcDbEntity
  8
RACCORDO
100
AcDbLine
 62
7
  6
CONTINUOUS
 10
-1.2138702692
 20
14.9367286113
 11
-1.2139422397
 21
15.1228997257
  0
LINE
  5
6BE
100
AcDbEntity
  8
RACCORDO
100
AcDbLine
 62
7
  6
CONTINUOUS
 10
-1.2138702692
 20
19.9367286113
 11
-1.2139422397
 21
20.1228997257
  0
LINE
  5
6BF
100
AcDbEntity
  8
ASSI
100
AcDbLine
 62
7
  6
CONTINUOUS
 10
-1.1510943912
 20
7.7705614347
 11
-1.1510943912
 21
12.4970172247
  0
LINE
  5
6C0
100
AcDbEntity
  8
ASSI
100
AcDbLine
 62
7
  6
CONTINUOUS
 10
-1.1510943912
 20
12.7705614347
 11
-1.1510943912
 21
17.4970172247
  0
LINE
  5
6C1
100
AcDbEntity
  8
ASSI
100
AcDbLine
 62
7
  6
CONTINUOUS
 10
-1.1510943912
 20
17.7705614347
 11
-1.1510943912
 21
22.4970172247
  0
LINE
  5
6C2
100
AcDbEntity
  8
ASSI
100
AcDbLine
 62
7
  6
CONTINUOUS
 10
-1.1510943912
 20
22.7705614347
 11
-1.1510943912
 21
27.4970172247
  0
LINE
  5
6C3
100
AcDbEntity
  8
RACCORDO
100
AcDbLine
 62
7
  6
CONTINUOUS
 10
-1.1380040896
 20
7.5425649396
 11
-1.1380040896
 21
7.6837893297
  0
LINE
  5
6C4
100
AcDbEntity
  8
ASSI
100
AcDbLine
 62
7
  6
CONTINUOUS
 10
-1.1380040896
 20
7.5425649396
 11
-1.1380040896
 21
7.6837893297
  0
LINE
  5
6C5
100
AcDbEntity
  8
RACCORDO
100
AcDbLine
 62
7
  6
CONTINUOUS
 10
-1.1380040896
 20
12.5837893297
 11
-1.1380040896
 21
12.6837893297
  0
LINE
  5
6C6
100
AcDbEntity
  8
ASSI
100
AcDbLine
 62
7
  6
CONTINUOUS
 10
-1.1380040896
 20
12.5837893297
 11
-1.1380040896
 21
12.6837893297
  0
LINE
  5
6C7
100
AcDbEntity
  8
RACCORDO
100
AcDbLine
 62
7
  6
CONTINUOUS
 10
-1.1380040896
 20
17.5837893297
 11
-1.1380040896
 21
17.6837893297
  0
LINE
  5
6C8
100
AcDbEntity
  8
ASSI
100
AcDbLine
 62
7
  6
CONTINUOUS
 10
-1.1380040896
 20
17.5837893297
 11
-1.1380040896
 21
17.6837893297
  0
LINE
  5
6C9
100
AcDbEntity
  8
RACCORDO
100
AcDbLine
 62
7
  6
CONTINUOUS
 10
-1.1380040896
 20
22.5837893297
 11
-1.1380040896
 21
22.6837893297
  0
LINE
  5
6CA
100
AcDbEntity
  8
ASSI
100
AcDbLine
 62
7
  6
CONTINUOUS
 10
-1.1380040896
 20
22.5837893297
 11
-1.1380040896
 21
22.6837893297
  0
LINE
  5
6CB
100
AcDbEntity
  8
RACCORDO
100
AcDbLine
 62
7
  6
CONTINUOUS
 10
-1.1380040896
 20
27.5837893297
 11
-1.1380040896
 21
40.7250137198
  0
LINE
  5
6CC
100
AcDbEntity
  8
ASSI
100
AcDbLine
 62
7
  6
CONTINUOUS
 10
-1.1380040896
 20
27.5837893297
 11
-1.1380040896
 21
40.7250137198
  0
LINE
  5
6CD
100
AcDbEntity
  8
0
100
AcDbLine
 62
7
  6
CONTINUOUS
 10
-1.1232798457
 20
6.5127011533
 11
-1.1232798457
 21
41.754877506
  0
LINE
  5
6CE
100
AcDbEntity
  8
RACCORDO
100
AcDbLine
 62
7
  6
CONTINUOUS
 10
-1.1232798457
 20
6.5127011533
 11
-1.1232798457
 21
41.754877506
  0
LINE
  5
6CF
100
AcDbEntity
  8
CURVE
100
AcDbLine
 62
253
  6
CONTINUOUS
 10
-1.1124989188
 20
11.29569407
 11
-1.1124989188
 21
11.2052177717
  0
LINE
  5
6D0
100
AcDbEntity
  8
CURVE
100
AcDbLine
 62
253
  6
CONTINUOUS
 10
-1.1115431917
 20
39.95759885
 11
-1.1115431917
 21
39.4871226139
  0
LINE
  5
6D1
100
AcDbEntity
  8
CURVE
100
AcDbLine
 62
253
  6
CONTINUOUS
 10
-1.1115431917
 20
24.507598861
 11
-1.1115431917
 21
24.0123607953
  0
LINE
  5
6D2
100
AcDbEntity
  8
CURVE
100
AcDbLine
 62
253
  6
CONTINUOUS
 10
-1.1083020307
 20
28.8131939794
 11
-1.1083020307
 21
29.254266081
  0
LINE
  5
6D3
100
AcDbEntity
  8
CURVE
100
AcDbLine
 62
253
  6
CONTINUOUS
 10
-1.1083020307
 20
35.6645038678
 11
-1.1083020307
 21
36.1055747916
  0
LINE
  5
6D4
100
AcDbEntity
  8
CURVE
100
AcDbLine
 62
253
  6
CONTINUOUS
 10
-1.105060869
 20
29.783550954
 11
-1.105060869
 21
30.1364079286
  0
LINE
  5
6D5
100
AcDbEntity
  8
CURVE
100
AcDbLine
 62
253
  6
CONTINUOUS
 10
-1.105060869
 20
36.6348608424
 11
-1.105060869
 21
36.987717817
  0
LINE
  5
6D6
100
AcDbEntity
  8
CURVE
100
AcDbLine
 62
253
  6
CONTINUOUS
 10
-1.0990771865
 20
12.4266466667
 11
-1.0990771865
 21
13.0147419263
  0
LINE
  5
6D7
100
AcDbEntity
  8
CURVE
100
AcDbLine
 62
253
  6
CONTINUOUS
 10
-1.0990771865
 20
13.9195035507
 11
-1.0990771865
 21
14.1909319927
  0
LINE
  5
6D8
100
AcDbEntity
  8
CURVE
100
AcDbLine
 62
253
  6
CONTINUOUS
 10
-1.095337386
 20
38.8402179642
 11
-1.095337386
 21
38.4873608424
  0
LINE
  5
6D9
100
AcDbEntity
  8
CURVE
100
AcDbLine
 62
253
  6
CONTINUOUS
 10
-1.095337386
 20
38.0462893297
 11
-1.095337386
 21
37.340575086
  0
LINE
  5
6DA
100
AcDbEntity
  8
CURVE
100
AcDbLine
 62
253
  6
CONTINUOUS
 10
-1.095337386
 20
36.987717817
 11
-1.095337386
 21
36.4584320606
  0
LINE
  5
6DB
100
AcDbEntity
  8
CURVE
100
AcDbLine
 62
253
  6
CONTINUOUS
 10
-1.095337386
 20
36.1055747916
 11
-1.095337386
 21
35.6645038678
  0
LINE
  5
6DC
100
AcDbEntity
  8
CURVE
100
AcDbLine
 62
253
  6
CONTINUOUS
 10
-1.095337386
 20
34.1648608424
 11
-1.095337386
 21
33.7237893297
  0
LINE
  5
6DD
100
AcDbEntity
  8
CURVE
100
AcDbLine
 62
253
  6
CONTINUOUS
 10
-1.095337386
 20
30.1364079286
 11
-1.095337386
 21
29.6071230556
  0
LINE
  5
6DE
100
AcDbEntity
  8
CURVE
100
AcDbLine
 62
253
  6
CONTINUOUS
 10
-1.095337386
 20
29.254266081
 11
-1.095337386
 21
28.8131939794
  0
LINE
  5
6DF
100
AcDbEntity
  8
CURVE
100
AcDbLine
 62
253
  6
CONTINUOUS
 10
-1.095337386
 20
25.7456941028
 11
-1.095337386
 21
25.0028369267
  0
LINE
  5
6E0
100
AcDbEntity
  8
CURVE
100
AcDbLine
 62
253
  6
CONTINUOUS
 10
-1.0848659421
 20
16.6337893297
 11
-1.0848659421
 21
16.4980751087
  0
LINE
  5
6E1
100
AcDbEntity
  8
CURVE
100
AcDbLine
 62
253
  6
CONTINUOUS
 10
-1.0848659421
 20
7.5409324457
 11
-1.0848659421
 21
7.4052177717
  0
LINE
  5
6E2
100
AcDbEntity
  8
CURVE
100
AcDbLine
 62
253
  6
CONTINUOUS
 10
-1.0848659421
 20
8.7623608877
 11
-1.0848659421
 21
9.1695040037
  0
LINE
  5
6E3
100
AcDbEntity
  8
CURVE
100
AcDbLine
 62
253
  6
CONTINUOUS
 10
-1.0848659421
 20
13.9195035507
 11
-1.0848659421
 21
14.4623608877
  0
LINE
  5
6E4
100
AcDbEntity
  8
CURVE
100
AcDbLine
 62
253
  6
CONTINUOUS
 10
-1.0848659421
 20
17.8552178849
 11
-1.0848659421
 21
18.2623607461
  0
LINE
  5
6E5
100
AcDbEntity
  8
CURVE
100
AcDbLine
 62
7
  6
CONTINUOUS
 10
-1.0778854393
 20
7.1323523297
 11
-1.0778854393
 21
7.6497113297
  0
LINE
  5
6E6
100
AcDbEntity
  8
CURVE
100
AcDbLine
 62
7
  6
CONTINUOUS
 10
-1.0778854393
 20
8.9751573297
 11
-1.0778854393
 21
9.4735793297
  0
LINE
  5
6E7
100
AcDbEntity
  8
CURVE
100
AcDbLine
 62
7
  6
CONTINUOUS
 10
-1.0778854393
 20
12.7759053297
 11
-1.0778854393
 21
13.4272083297
  0
LINE
  5
6E8
100
AcDbEntity
  8
CURVE
100
AcDbLine
 62
7
  6
CONTINUOUS
 10
-1.0778854393
 20
14.7622043297
 11
-1.0778854393
 21
15.2799513297
  0
LINE
  5
6E9
100
AcDbEntity
  8
CURVE
100
AcDbLine
 62
7
  6
CONTINUOUS
 10
-1.0778854393
 20
15.8956823297
 11
-1.0778854393
 21
16.4134513297
  0
LINE
  5
6EA
100
AcDbEntity
  8
CURVE
100
AcDbLine
 62
7
  6
CONTINUOUS
 10
-1.0778854393
 20
17.0361233297
 11
-1.0778854393
 21
19.0966953297
  0
LINE
  5
6EB
100
AcDbEntity
  8
CURVE
100
AcDbLine
 62
7
  6
CONTINUOUS
 10
-1.0777570091
 20
38.5247243297
 11
-1.0777570091
 21
37.9194533297
  0
LINE
  5
6EC
100
AcDbEntity
  8
CURVE
100
AcDbLine
 62
7
  6
CONTINUOUS
 10
-1.0777570153
 20
31.995356674
 11
-1.0777570153
 21
31.3925207129
  0
LINE
  5
6ED
100
AcDbEntity
  8
CURVE
100
AcDbLine
 62
7
  6
CONTINUOUS
 10
-1.0777570153
 20
30.465631068
 11
-1.0777570153
 21
29.8834303445
  0
LINE
  5
6EE
100
AcDbEntity
  8
CURVE
100
AcDbLine
 62
7
  6
CONTINUOUS
 10
-1.0777570091
 20
32.1730933297
 11
-1.0777570091
 21
32.8110243297
  0
LINE
  5
6EF
100
AcDbEntity
  8
CURVE
100
AcDbLine
 62
7
  6
CONTINUOUS
 10
-1.0777570091
 20
33.9591183297
 11
-1.0777570091
 21
34.5578223297
  0
LINE
  5
6F0
100
AcDbEntity
  8
CURVE
100
AcDbLine
 62
7
  6
CONTINUOUS
 10
-1.0777570091
 20
34.6528663297
 11
-1.0777570091
 21
35.2449823297
  0
LINE
  5
6F1
100
AcDbEntity
  8
CURVE
100
AcDbLine
 62
7
  6
CONTINUOUS
 10
-1.0777570091
 20
36.0890053297
 11
-1.0777570091
 21
36.1738943297
  0
LINE
  5
6F2
100
AcDbEntity
  8
CURVE
100
AcDbLine
 62
7
  6
CONTINUOUS
 10
-1.0777570091
 20
37.0145683297
 11
-1.0777570091
 21
37.5936163297
  0
LINE
  5
6F3
100
AcDbEntity
  8
CURVE
100
AcDbLine
 62
7
  6
CONTINUOUS
 10
-1.0777570091
 20
39.6814063297
 11
-1.0777570091
 21
40.2148023297
  0
LINE
  5
6F4
100
AcDbEntity
  8
CURVE
100
AcDbLine
 62
7
  6
CONTINUOUS
 10
-1.0698567403
 20
18.5789573297
 11
-1.0698564611
 21
17.0361233297
  0
LINE
  5
6F5
100
AcDbEntity
  8
CURVE
100
AcDbLine
 62
7
  6
CONTINUOUS
 10
-1.0676558035
 20
32.9678223297
 11
-1.0676558035
 21
33.7921013297
  0
LINE
  5
6F6
100
AcDbEntity
  8
CURVE
100
AcDbLine
 62
7
  6
CONTINUOUS
 10
-1.0598395377
 20
33.6682893297
 11
-1.0598395377
 21
33.0887853297
  0
LINE
  5
6F7
100
AcDbEntity
  8
CURVE
100
AcDbLine
 62
253
  6
CONTINUOUS
 10
-1.0586873325
 20
22.8992654921
 11
-1.0586873325
 21
22.3699797358
  0
LINE
  5
6F8
100
AcDbEntity
  8
CURVE
100
AcDbLine
 62
253
  6
CONTINUOUS
 10
-1.0586873325
 20
23.575575086
 11
-1.0586873325
 21
24.0166464515
  0
LINE
  5
6F9
100
AcDbEntity
  8
CURVE
100
AcDbLine
 62
7
  6
CONTINUOUS
 10
-1.0559341794
 20
17.1516623297
 11
-1.0559343539
 21
18.5789573297
  0
LINE
  5
6FA
100
AcDbEntity
  8
CURVE
100
AcDbLine
 62
253
  6
CONTINUOUS
 10
-1.0522050098
 20
24.95759885
 11
-1.0522050098
 21
24.4871226139
  0
LINE
  5
6FB
100
AcDbEntity
  8
CURVE
100
AcDbLine
 62
7
  6
CONTINUOUS
 10
-1.0495803697
 20
30.9909266146
 11
-1.0496689013
 21
31.4125906015
  0
LINE
  5
6FC
100
AcDbEntity
  8
CURVE
100
AcDbLine
 62
7
  6
CONTINUOUS
 10
-1.0479048522
 20
18.5789573297
 11
-1.0479050266
 21
17.1516623297
  0
LINE
  5
6FD
100
AcDbEntity
  8
CURVE
100
AcDbLine
 62
253
  6
CONTINUOUS
 10
-1.0457226871
 20
22.5464085175
 11
-1.0457226871
 21
22.8992654921
  0
LINE
  5
6FE
100
AcDbEntity
  8
CURVE
100
AcDbLine
 62
253
  6
CONTINUOUS
 10
-1.0359992041
 20
24.0166464515
 11
-1.0359992041
 21
23.575575086
  0
LINE
  5
6FF
100
AcDbEntity
  8
CURVE
100
AcDbLine
 62
253
  6
CONTINUOUS
 10
-1.0359992041
 20
22.8992654921
 11
-1.0359992041
 21
22.3699797358
  0
LINE
  5
700
100
AcDbEntity
  8
CURVE
100
AcDbLine
 62
7
  6
CONTINUOUS
 10
-1.0353259568
 20
17.0477763297
 11
-1.0353258521
 21
18.5789573297
  0
LINE
  5
701
100
AcDbEntity
  8
CURVE
100
AcDbLine
 62
7
  6
CONTINUOUS
 10
-1.0272969785
 20
19.0966953297
 11
-1.0272969785
 21
17.0477763297
  0
LINE
  5
702
100
AcDbEntity
  8
CURVE
100
AcDbLine
 62
7
  6
CONTINUOUS
 10
-1.0272969785
 20
16.4134513297
 11
-1.0272969785
 21
15.8956823297
  0
LINE
  5
703
100
AcDbEntity
  8
CURVE
100
AcDbLine
 62
7
  6
CONTINUOUS
 10
-1.0272969785
 20
15.2799513297
 11
-1.0272969785
 21
14.7622043297
  0
LINE
  5
704
100
AcDbEntity
  8
CURVE
100
AcDbLine
 62
7
  6
CONTINUOUS
 10
-1.0272969785
 20
13.4769533297
 11
-1.0272969785
 21
12.7827393297
  0
LINE
  5
705
100
AcDbEntity
  8
CURVE
100
AcDbLine
 62
7
  6
CONTINUOUS
 10
-1.0272969785
 20
9.4735793297
 11
-1.0272969785
 21
8.9676883297
  0
LINE
  5
706
100
AcDbEntity
  8
CURVE
100
AcDbLine
 62
7
  6
CONTINUOUS
 10
-1.0272969785
 20
7.6307803297
 11
-1.0272969785
 21
7.1323523297
  0
LINE
  5
707
100
AcDbEntity
  8
CURVE
100
AcDbLine
 62
7
  6
CONTINUOUS
 10
-1.027158794
 20
41.1340493297
 11
-1.027158794
 21
40.4765373297
  0
LINE
  5
708
100
AcDbEntity
  8
CURVE
100
AcDbLine
 62
7
  6
CONTINUOUS
 10
-1.027158794
 20
39.3541993297
 11
-1.027158794
 21
38.7493413297
  0
LINE
  5
709
100
AcDbEntity
  8
CURVE
100
AcDbLine
 62
7
  6
CONTINUOUS
 10
-1.027158794
 20
37.3317943297
 11
-1.027158794
 21
36.7270233297
  0
LINE
  5
70A
100
AcDbEntity
  8
CURVE
100
AcDbLine
 62
7
  6
CONTINUOUS
 10
-1.027158794
 20
35.5228733297
 11
-1.027158794
 21
34.9240163297
  0
LINE
  5
70B
100
AcDbEntity
  8
CURVE
100
AcDbLine
 62
7
  6
CONTINUOUS
 10
-1.027158794
 20
33.6483063297
 11
-1.027158794
 21
33.0627793297
  0
LINE
  5
70C
100
AcDbEntity
  8
CURVE
100
AcDbLine
 62
7
  6
CONTINUOUS
 10
-1.0271557577
 20
37.9194533297
 11
-1.0271557577
 21
38.5247243297
  0
LINE
  5
70D
100
AcDbEntity
  8
0
100
AcDbLine
 62
7
  6
CONTINUOUS
 10
-1.0185481268
 20
5.6163355941
 11
-1.0185481268
 21
6.2144999174
  0
LINE
  5
70E
100
AcDbEntity
  8
0
100
AcDbLine
 62
7
  6
CONTINUOUS
 10
-1.0185481268
 20
42.053078742
 11
-1.0185481268
 21
42.6512430653
  0
LINE
  5
70F
100
AcDbEntity
  8
0
100
AcDbLine
 62
7
  6
CONTINUOUS
 10
-1.009821259
 20
2.2395902365
 11
-1.009821259
 21
5.6250624619
  0
LINE
  5
710
100
AcDbEntity
  8
0
100
AcDbLine
 62
7
  6
CONTINUOUS
 10
-1.009821259
 20
42.6425161975
 11
-1.009821259
 21
46.0279884229
  0
LINE
  5
711
100
AcDbEntity
  8
RACCORDO
100
AcDbLine
 62
7
  6
CONTINUOUS
 10
-1.0010943912
 20
6.462090281
 11
-1.0010943912
 21
41.8054883784
  0
LINE
  5
712
100
AcDbEntity
  8
0
100
AcDbLine
 62
7
  6
CONTINUOUS
 10
-1.0010943912
 20
2.2337724067
 11
-1.0010943912
 21
46.0338062527
  0
LINE
  5
713
100
AcDbEntity
  8
CURVE
100
AcDbLine
 62
7
  6
CONTINUOUS
 10
-1.0709442558
 20
11.3050691576
 11
-1.0709944964
 21
11.3934983509
  0
LINE
  5
714
100
AcDbEntity
  8
CURVE
100
AcDbLine
 62
7
  6
CONTINUOUS
 10
-1.0342371641
 20
11.4469105861
 11
-1.0341873069
 21
11.3582515182
  0
LINE
  5
715
100
AcDbEntity
  8
ASSI
100
AcDbLine
 62
7
  6
CONTINUOUS
 10
-1.213935538
 20
20.0736982463
 11
-1.2139106602
 21
20.2651168463
  0
LINE
  5
716
100
AcDbEntity
  8
ASSI
100
AcDbLine
 62
7
  6
CONTINUOUS
 10
-1.213935538
 20
15.0736982463
 11
-1.2139106602
 21
15.2651168463
  0
LINE
  5
717
100
AcDbEntity
  8
ASSI
100
AcDbLine
 62
7
  6
CONTINUOUS
 10
-1.213935538
 20
10.0736982463
 11
-1.2139106602
 21
10.2651168463
  0
LINE
  5
718
100
AcDbEntity
  8
RACCORDO
100
AcDbLine
 62
7
  6
CONTINUOUS
 10
-1.2138946001
 20
24.973914526
 11
-1.2138599429
 21
25.3454241697
  0
LINE
  5
719
100
AcDbEntity
  8
RACCORDO
100
AcDbLine
 62
7
  6
CONTINUOUS
 10
-1.2139422397
 20
20.1228997257
 11
-1.2138861183
 21
20.3085223282
  0
LINE
  5
71A
100
AcDbEntity
  8
RACCORDO
100
AcDbLine
 62
7
  6
CONTINUOUS
 10
-1.2139422397
 20
15.1228997257
 11
-1.2138861183
 21
15.3085223282
  0
LINE
  5
71B
100
AcDbEntity
  8
RACCORDO
100
AcDbLine
 62
7
  6
CONTINUOUS
 10
-1.2139422397
 20
10.1228997257
 11
-1.2138861183
 21
10.3085223282
  0
LINE
  5
71C
100
AcDbEntity
  8
CURVE
100
AcDbLine
 62
7
  6
CONTINUOUS
 10
-1.0265328083
 20
31.0537682672
 11
-1.0265932585
 21
31.4162618838
  0
LINE
  5
71D
100
AcDbEntity
  8
ASSI
100
AcDbLine
 62
7
  6
CONTINUOUS
 10
-1.2139415395
 20
25.1120566713
 11
-1.2137554485
 21
25.4544102769
  0
LINE
  5
71E
100
AcDbEntity
  8
ASSI
100
AcDbLine
 62
7
  6
CONTINUOUS
 10
-1.2139106602
 20
20.2651168463
 11
-1.2137959631
 21
20.4168179927
  0
LINE
  5
71F
100
AcDbEntity
  8
RACCORDO
100
AcDbLine
 62
7
  6
CONTINUOUS
 10
-1.2138861183
 20
20.3085223282
 11
-1.2137938713
 21
20.4188716132
  0
LINE
  5
720
100
AcDbEntity
  8
ASSI
100
AcDbLine
 62
7
  6
CONTINUOUS
 10
-1.2139106602
 20
15.2651168463
 11
-1.2137959631
 21
15.4168179927
  0
LINE
  5
721
100
AcDbEntity
  8
RACCORDO
100
AcDbLine
 62
7
  6
CONTINUOUS
 10
-1.2138861183
 20
15.3085223282
 11
-1.2137938713
 21
15.4188716132
  0
LINE
  5
722
100
AcDbEntity
  8
ASSI
100
AcDbLine
 62
7
  6
CONTINUOUS
 10
-1.2139106602
 20
10.2651168463
 11
-1.2137959631
 21
10.4168179927
  0
LINE
  5
723
100
AcDbEntity
  8
RACCORDO
100
AcDbLine
 62
7
  6
CONTINUOUS
 10
-1.2138861183
 20
10.3085223282
 11
-1.2137938713
 21
10.4188716132
  0
LINE
  5
724
100
AcDbEntity
  8
CURVE
100
AcDbLine
 62
7
  6
CONTINUOUS
 10
-1.0353183203
 20
31.1419104949
 11
-1.0353727939
 21
31.0059674425
  0
LINE
  5
725
100
AcDbEntity
  8
RACCORDO
100
AcDbLine
 62
7
  6
CONTINUOUS
 10
-1.2138599429
 20
25.3454241697
 11
-1.2135511609
 21
25.5998406049
  0
LINE
  5
726
100
AcDbEntity
  8
RACCORDO
100
AcDbLine
 62
7
  6
CONTINUOUS
 10
-1.2137938713
 20
20.4188716132
 11
-1.2136088511
 21
20.5640082785
  0
LINE
  5
727
100
AcDbEntity
  8
RACCORDO
100
AcDbLine
 62
7
  6
CONTINUOUS
 10
-1.2137938713
 20
15.4188716132
 11
-1.2136088511
 21
15.5640082785
  0
LINE
  5
728
100
AcDbEntity
  8
RACCORDO
100
AcDbLine
 62
7
  6
CONTINUOUS
 10
-1.2137938713
 20
10.4188716132
 11
-1.2136088511
 21
10.5640082785
  0
LINE
  5
729
100
AcDbEntity
  8
ASSI
100
AcDbLine
 62
7
  6
CONTINUOUS
 10
-1.2137959631
 20
20.4168179927
 11
-1.2135458029
 21
20.6030188384
  0
LINE
  5
72A
100
AcDbEntity
  8
ASSI
100
AcDbLine
 62
7
  6
CONTINUOUS
 10
-1.2137959631
 20
15.4168179927
 11
-1.2135458029
 21
15.6030188384
  0
LINE
  5
72B
100
AcDbEntity
  8
ASSI
100
AcDbLine
 62
7
  6
CONTINUOUS
 10
-1.2137959631
 20
10.4168179927
 11
-1.2135458029
 21
10.6030188384
  0
LINE
  5
72C
100
AcDbEntity
  8
CURVE
100
AcDbLine
 62
7
  6
CONTINUOUS
 10
-1.0787997572
 20
11.5568350572
 11
-1.0789840117
 21
11.3177245438
  0
LINE
  5
72D
100
AcDbEntity
  8
CURVE
100
AcDbLine
 62
7
  6
CONTINUOUS
 10
-1.0709944964
 20
11.3934983509
 11
-1.0708784562
 21
11.4827451031
  0
LINE
  5
72E
100
AcDbEntity
  8
CURVE
100
AcDbLine
 62
7
  6
CONTINUOUS
 10
-1.0341873069
 20
11.3582515182
 11
-1.0343040809
 21
11.2693961926
  0
LINE
  5
72F
100
AcDbEntity
  8
CURVE
100
AcDbLine
 62
7
  6
CONTINUOUS
 10
-1.0263724976
 20
11.1975668548
 11
-1.0261882115
 21
11.4366610166
  0
LINE
  5
730
100
AcDbEntity
  8
RACCORDO
100
AcDbLine
 62
7
  6
CONTINUOUS
 10
-1.2136088511
 20
20.5640082785
 11
-1.2131938785
 21
20.7756654072
  0
LINE
  5
731
100
AcDbEntity
  8
RACCORDO
100
AcDbLine
 62
7
  6
CONTINUOUS
 10
-1.2136088511
 20
15.5640082785
 11
-1.2131938785
 21
15.7756654073
  0
LINE
  5
732
100
AcDbEntity
  8
RACCORDO
100
AcDbLine
 62
7
  6
CONTINUOUS
 10
-1.2136088511
 20
10.5640082785
 11
-1.2131938785
 21
10.7756654072
  0
LINE
  5
733
100
AcDbEntity
  8
ASSI
100
AcDbLine
 62
7
  6
CONTINUOUS
 10
-1.2137554485
 20
25.4544102769
 11
-1.2129939632
 21
25.854121738
  0
LINE
  5
734
100
AcDbEntity
  8
ASSI
100
AcDbLine
 62
7
  6
CONTINUOUS
 10
-1.2135458029
 20
20.6030188384
 11
-1.2130863253
 21
20.8190796412
  0
LINE
  5
735
100
AcDbEntity
  8
ASSI
100
AcDbLine
 62
7
  6
CONTINUOUS
 10
-1.2135458029
 20
15.6030188384
 11
-1.2130863253
 21
15.8190796412
  0
LINE
  5
736
100
AcDbEntity
  8
ASSI
100
AcDbLine
 62
7
  6
CONTINUOUS
 10
-1.2135458029
 20
10.6030188384
 11
-1.2130863253
 21
10.8190796412
  0
LINE
  5
737
100
AcDbEntity
  8
CURVE
100
AcDbLine
 62
7
  6
CONTINUOUS
 10
-1.0579556671
 20
31.3925207129
 11
-1.0580325554
 21
31.0136883619
  0
LINE
  5
738
100
AcDbEntity
  8
RACCORDO
100
AcDbLine
 62
7
  6
CONTINUOUS
 10
-1.2135511609
 20
25.5998406049
 11
-1.2127325768
 21
25.9447799324
  0
LINE
  5
739
100
AcDbEntity
  8
RACCORDO
100
AcDbLine
 62
7
  6
CONTINUOUS
 10
-1.2131938785
 20
20.7756654072
 11
-1.212832037
 21
20.911563222
  0
LINE
  5
73A
100
AcDbEntity
  8
RACCORDO
100
AcDbLine
 62
7
  6
CONTINUOUS
 10
-1.2131938785
 20
15.7756654073
 11
-1.212832037
 21
15.911563222
  0
LINE
  5
73B
100
AcDbEntity
  8
RACCORDO
100
AcDbLine
 62
7
  6
CONTINUOUS
 10
-1.2131938785
 20
10.7756654072
 11
-1.212832037
 21
10.911563222
  0
LINE
  5
73C
100
AcDbEntity
  8
ASSI
100
AcDbLine
 62
7
  6
CONTINUOUS
 10
-1.2130863253
 20
20.8190796412
 11
-1.2126939047
 21
20.9573233342
  0
LINE
  5
73D
100
AcDbEntity
  8
ASSI
100
AcDbLine
 62
7
  6
CONTINUOUS
 10
-1.2130863253
 20
15.8190796412
 11
-1.2126939047
 21
15.9573233342
  0
LINE
  5
73E
100
AcDbEntity
  8
ASSI
100
AcDbLine
 62
7
  6
CONTINUOUS
 10
-1.2130863253
 20
10.8190796412
 11
-1.2126939047
 21
10.9573233342
  0
LINE
  5
73F
100
AcDbEntity
  8
CURVE
100
AcDbLine
 62
7
  6
CONTINUOUS
 10
-1.0353727939
 20
31.0059674425
 11
-1.0355714599
 21
30.9052323927
  0
LINE
  5
740
100
AcDbEntity
  8
CURVE
100
AcDbLine
 62
7
  6
CONTINUOUS
 10
-1.0272394246
 20
30.7181326757
 11
-1.0265328083
 21
31.0537682672
  0
LINE
  5
741
100
AcDbEntity
  8
RACCORDO
100
AcDbLine
 62
7
  6
CONTINUOUS
 10
-1.212832037
 20
20.911563222
 11
-1.2123008204
 21
21.0744600547
  0
LINE
  5
742
100
AcDbEntity
  8
RACCORDO
100
AcDbLine
 62
7
  6
CONTINUOUS
 10
-1.212832037
 20
15.911563222
 11
-1.2123008204
 21
16.0744600547
  0
LINE
  5
743
100
AcDbEntity
  8
RACCORDO
100
AcDbLine
 62
7
  6
CONTINUOUS
 10
-1.212832037
 20
10.911563222
 11
-1.2123008204
 21
11.0744600547
  0
LINE
  5
744
100
AcDbEntity
  8
RACCORDO
100
AcDbLine
 62
7
  6
CONTINUOUS
 10
-1.2127325768
 20
25.9447799324
 11
-1.2120640232
 21
26.1373495985
  0
LINE
  5
745
100
AcDbEntity
  8
CURVE
100
AcDbLine
 62
7
  6
CONTINUOUS
 10
-1.0708784562
 20
11.4827451031
 11
-1.0705996751
 21
11.5723376022
  0
LINE
  5
746
100
AcDbEntity
  8
CURVE
100
AcDbLine
 62
7
  6
CONTINUOUS
 10
-1.0343040809
 20
11.2693961926
 11
-1.0345842415
 21
11.1802276119
  0
LINE
  5
747
100
AcDbEntity
  8
ASSI
100
AcDbLine
 62
7
  6
CONTINUOUS
 10
-1.2126939047
 20
20.9573233342
 11
-1.2119955853
 21
21.1546328847
  0
LINE
  5
748
100
AcDbEntity
  8
ASSI
100
AcDbLine
 62
7
  6
CONTINUOUS
 10
-1.2126939047
 20
15.9573233342
 11
-1.2119955853
 21
16.1546328847
  0
LINE
  5
749
100
AcDbEntity
  8
ASSI
100
AcDbLine
 62
7
  6
CONTINUOUS
 10
-1.2126939047
 20
10.9573233342
 11
-1.2119955853
 21
11.1546328847
  0
LINE
  5
74A
100
AcDbEntity
  8
ASSI
100
AcDbLine
 62
7
  6
CONTINUOUS
 10
-1.2129939632
 20
25.854121738
 11
-1.2118662989
 21
26.1863059535
  0
LINE
  5
74B
100
AcDbEntity
  8
ASSI
100
AcDbLine
 62
7
  6
CONTINUOUS
 10
-1.2119955853
 20
21.1546328847
 11
-1.2117334471
 21
21.2176268135
  0
LINE
  5
74C
100
AcDbEntity
  8
ASSI
100
AcDbLine
 62
7
  6
CONTINUOUS
 10
-1.2119955853
 20
16.1546328847
 11
-1.2117334471
 21
16.2176268135
  0
LINE
  5
74D
100
AcDbEntity
  8
ASSI
100
AcDbLine
 62
7
  6
CONTINUOUS
 10
-1.2119955853
 20
11.1546328847
 11
-1.2117334471
 21
11.2176268135
  0
LINE
  5
74E
100
AcDbEntity
  8
RACCORDO
100
AcDbLine
 62
7
  6
CONTINUOUS
 10
-1.2123008204
 20
21.0744600547
 11
-1.2115495535
 21
21.2591424063
  0
LINE
  5
74F
100
AcDbEntity
  8
RACCORDO
100
AcDbLine
 62
7
  6
CONTINUOUS
 10
-1.2123008204
 20
16.0744600547
 11
-1.2115495535
 21
16.2591424063
  0
LINE
  5
750
100
AcDbEntity
  8
RACCORDO
100
AcDbLine
 62
7
  6
CONTINUOUS
 10
-1.2123008204
 20
11.0744600547
 11
-1.2115495535
 21
11.2591424063
  0
LINE
  5
751
100
AcDbEntity
  8
RACCORDO
100
AcDbLine
 62
7
  6
CONTINUOUS
 10
-1.2120640232
 20
26.1373495985
 11
-1.2112732828
 21
26.3180218208
  0
LINE
  5
752
100
AcDbEntity
  8
RACCORDO
100
AcDbLine
 62
7
  6
CONTINUOUS
 10
-1.2115495535
 20
21.2591424063
 11
-1.2112732828
 21
21.3180218208
  0
LINE
  5
753
100
AcDbEntity
  8
RACCORDO
100
AcDbLine
 62
7
  6
CONTINUOUS
 10
-1.2115495535
 20
16.2591424063
 11
-1.2112732828
 21
16.3180218208
  0
LINE
  5
754
100
AcDbEntity
  8
RACCORDO
100
AcDbLine
 62
7
  6
CONTINUOUS
 10
-1.2115495535
 20
11.2591424063
 11
-1.2112732828
 21
11.3180218208
  0
LINE
  5
755
100
AcDbEntity
  8
ASSI
100
AcDbLine
 62
7
  6
CONTINUOUS
 10
-1.2118662989
 20
26.1863059535
 11
-1.2110199481
 21
26.3688815084
  0
LINE
  5
756
100
AcDbEntity
  8
CURVE
100
AcDbLine
 62
7
  6
CONTINUOUS
 10
-1.0778957117
 20
11.7969425408
 11
-1.0787997572
 21
11.5568350572
  0
LINE
  5
757
100
AcDbEntity
  8
CURVE
100
AcDbLine
 62
7
  6
CONTINUOUS
 10
-1.0272766231
 20
10.9574937961
 11
-1.0263724976
 21
11.1975668548
  0
LINE
  5
758
100
AcDbEntity
  8
ASSI
100
AcDbLine
 62
7
  6
CONTINUOUS
 10
-1.2117334471
 20
21.2176268135
 11
-1.210868523
 21
21.3980525786
  0
LINE
  5
759
100
AcDbEntity
  8
ASSI
100
AcDbLine
 62
7
  6
CONTINUOUS
 10
-1.2117334471
 20
16.2176268135
 11
-1.210868523
 21
16.3980525786
  0
LINE
  5
75A
100
AcDbEntity
  8
ASSI
100
AcDbLine
 62
7
  6
CONTINUOUS
 10
-1.2117334471
 20
11.2176268135
 11
-1.210868523
 21
11.3980525786
  0
LINE
  5
75B
100
AcDbEntity
  8
CURVE
100
AcDbLine
 62
7
  6
CONTINUOUS
 10
-1.0705996751
 20
11.5723376022
 11
-1.070161987
 21
11.6605928238
  0
LINE
  5
75C
100
AcDbEntity
  8
CURVE
100
AcDbLine
 62
7
  6
CONTINUOUS
 10
-1.0345842415
 20
11.1802276119
 11
-1.0350234448
 21
11.0924093727
  0
LINE
  5
75D
100
AcDbEntity
  8
RACCORDO
100
AcDbLine
 62
7
  6
CONTINUOUS
 10
-1.2112732828
 20
26.3180218208
 11
-1.2102243261
 21
26.5133147685
  0
LINE
  5
75E
100
AcDbEntity
  8
RACCORDO
100
AcDbLine
 62
7
  6
CONTINUOUS
 10
-1.2112732828
 20
21.3180218208
 11
-1.2102243261
 21
21.5133147685
  0
LINE
  5
75F
100
AcDbEntity
  8
RACCORDO
100
AcDbLine
 62
7
  6
CONTINUOUS
 10
-1.2112732828
 20
16.3180218208
 11
-1.2102243261
 21
16.5133147685
  0
LINE
  5
760
100
AcDbEntity
  8
RACCORDO
100
AcDbLine
 62
7
  6
CONTINUOUS
 10
-1.2112732828
 20
11.3180218208
 11
-1.2102243261
 21
11.5133147685
  0
LINE
  5
761
100
AcDbEntity
  8
CURVE
100
AcDbLine
 62
7
  6
CONTINUOUS
 10
-1.0580325554
 20
31.0136883619
 11
-1.0582698324
 21
30.9609389916
  0
LINE
  5
762
100
AcDbEntity
  8
ASSI
100
AcDbLine
 62
7
  6
CONTINUOUS
 10
-1.2110199481
 20
26.3688815084
 11
-1.2100732046
 21
26.5384327297
  0
LINE
  5
763
100
AcDbEntity
  8
ASSI
100
AcDbLine
 62
7
  6
CONTINUOUS
 10
-1.210868523
 20
21.3980525786
 11
-1.2099062078
 21
21.5654107568
  0
LINE
  5
764
100
AcDbEntity
  8
ASSI
100
AcDbLine
 62
7
  6
CONTINUOUS
 10
-1.210868523
 20
16.3980525786
 11
-1.2099062078
 21
16.5654107568
  0
LINE
  5
765
100
AcDbEntity
  8
ASSI
100
AcDbLine
 62
7
  6
CONTINUOUS
 10
-1.210868523
 20
11.3980525786
 11
-1.2099062078
 21
11.5654107568
  0
LINE
  5
766
100
AcDbEntity
  8
CURVE
100
AcDbLine
 62
7
  6
CONTINUOUS
 10
-1.0355714599
 20
30.9052323927
 11
-1.0358919137
 21
30.8398298316
  0
LINE
  5
767
100
AcDbEntity
  8
RACCORDO
100
AcDbLine
 62
7
  6
CONTINUOUS
 10
-1.2102243261
 20
26.5133147685
 11
-1.2092290761
 21
26.6672266439
  0
LINE
  5
768
100
AcDbEntity
  8
RACCORDO
100
AcDbLine
 62
7
  6
CONTINUOUS
 10
-1.2102243261
 20
21.5133147685
 11
-1.2092290761
 21
21.6672266439
  0
LINE
  5
769
100
AcDbEntity
  8
RACCORDO
100
AcDbLine
 62
7
  6
CONTINUOUS
 10
-1.2102243261
 20
16.5133147685
 11
-1.2092290761
 21
16.6672266439
  0
LINE
  5
76A
100
AcDbEntity
  8
RACCORDO
100
AcDbLine
 62
7
  6
CONTINUOUS
 10
-1.2102243261
 20
11.5133147685
 11
-1.2092290761
 21
11.6672266439
  0
LINE
  5
76B
100
AcDbEntity
  8
ASSI
100
AcDbLine
 62
7
  6
CONTINUOUS
 10
-1.2100732046
 20
26.5384327297
 11
-1.2090322225
 21
26.6947879503
  0
LINE
  5
76C
100
AcDbEntity
  8
ASSI
100
AcDbLine
 62
7
  6
CONTINUOUS
 10
-1.2099062078
 20
21.5654107568
 11
-1.2088500958
 21
21.719560906
  0
LINE
  5
76D
100
AcDbEntity
  8
ASSI
100
AcDbLine
 62
7
  6
CONTINUOUS
 10
-1.2099062078
 20
16.5654107568
 11
-1.2088500958
 21
16.719560906
  0
LINE
  5
76E
100
AcDbEntity
  8
ASSI
100
AcDbLine
 62
7
  6
CONTINUOUS
 10
-1.2099062078
 20
11.5654107568
 11
-1.2088500958
 21
11.719560906
  0
LINE
  5
76F
100
AcDbEntity
  8
CURVE
100
AcDbLine
 62
7
  6
CONTINUOUS
 10
-1.0285820524
 20
30.4599628787
 11
-1.0272394246
 21
30.7181326757
  0
LINE
  5
770
100
AcDbEntity
  8
CURVE
100
AcDbLine
 62
7
  6
CONTINUOUS
 10
-1.070161987
 20
11.6605928238
 11
-1.0695692261
 21
11.745827744
  0
LINE
  5
771
100
AcDbEntity
  8
CURVE
100
AcDbLine
 62
7
  6
CONTINUOUS
 10
-1.0350234448
 20
11.0924093727
 11
-1.0356173473
 21
11.0076050719
  0
LINE
  5
772
100
AcDbEntity
  8
RACCORDO
100
AcDbLine
 62
7
  6
CONTINUOUS
 10
-1.2092290761
 20
26.6672266439
 11
-1.2081530059
 21
26.8086523886
  0
LINE
  5
773
100
AcDbEntity
  8
RACCORDO
100
AcDbLine
 62
7
  6
CONTINUOUS
 10
-1.2092290761
 20
21.6672266439
 11
-1.2081530059
 21
21.8086523886
  0
LINE
  5
774
100
AcDbEntity
  8
RACCORDO
100
AcDbLine
 62
7
  6
CONTINUOUS
 10
-1.2092290761
 20
16.6672266439
 11
-1.2081530059
 21
16.8086523886
  0
LINE
  5
775
100
AcDbEntity
  8
RACCORDO
100
AcDbLine
 62
7
  6
CONTINUOUS
 10
-1.2092290761
 20
11.6672266439
 11
-1.2081530059
 21
11.8086523886
  0
LINE
  5
776
100
AcDbEntity
  8
ASSI
100
AcDbLine
 62
7
  6
CONTINUOUS
 10
-1.2090322225
 20
26.6947879503
 11
-1.2079093069
 21
26.8379047312
  0
LINE
  5
777
100
AcDbEntity
  8
ASSI
100
AcDbLine
 62
7
  6
CONTINUOUS
 10
-1.2088500958
 20
21.719560906
 11
-1.207715977
 21
21.8604692408
  0
LINE
  5
778
100
AcDbEntity
  8
ASSI
100
AcDbLine
 62
7
  6
CONTINUOUS
 10
-1.2088500958
 20
16.719560906
 11
-1.207715977
 21
16.8604692408
  0
LINE
  5
779
100
AcDbEntity
  8
ASSI
100
AcDbLine
 62
7
  6
CONTINUOUS
 10
-1.2088500958
 20
11.719560906
 11
-1.207715977
 21
11.8604692408
  0
LINE
  5
77A
100
AcDbEntity
  8
CURVE
100
AcDbLine
 62
7
  6
CONTINUOUS
 10
-1.0763072841
 20
12.0268987091
 11
-1.0778957117
 21
11.7969425408
  0
LINE
  5
77B
100
AcDbEntity
  8
CURVE
100
AcDbLine
 62
7
  6
CONTINUOUS
 10
-1.0288651098
 20
10.7275725328
 11
-1.0272766231
 21
10.9574937961
  0
LINE
  5
77C
100
AcDbEntity
  8
RACCORDO
100
AcDbLine
 62
7
  6
CONTINUOUS
 10
-1.2081530059
 20
26.8086523886
 11
-1.2070157399
 21
26.9375969694
  0
LINE
  5
77D
100
AcDbEntity
  8
RACCORDO
100
AcDbLine
 62
7
  6
CONTINUOUS
 10
-1.2081530059
 20
21.8086523886
 11
-1.2070157399
 21
21.9375969694
  0
LINE
  5
77E
100
AcDbEntity
  8
RACCORDO
100
AcDbLine
 62
7
  6
CONTINUOUS
 10
-1.2081530059
 20
16.8086523886
 11
-1.2070157399
 21
16.9375969694
  0
LINE
  5
77F
100
AcDbEntity
  8
RACCORDO
100
AcDbLine
 62
7
  6
CONTINUOUS
 10
-1.2081530059
 20
11.8086523886
 11
-1.2070157399
 21
11.9375969694
  0
LINE
  5
780
100
AcDbEntity
  8
ASSI
100
AcDbLine
 62
7
  6
CONTINUOUS
 10
-1.2079093069
 20
26.8379047312
 11
-1.2067231392
 21
26.9677882528
  0
LINE
  5
781
100
AcDbEntity
  8
CURVE
100
AcDbLine
 62
7
  6
CONTINUOUS
 10
-1.0358919137
 20
30.8398298316
 11
-1.0363955458
 21
30.7778926215
  0
LINE
  5
782
100
AcDbEntity
  8
CURVE
100
AcDbLine
 62
7
  6
CONTINUOUS
 10
-1.0582698324
 20
30.9609389916
 11
-1.0586865707
 21
30.9101093282
  0
LINE
  5
783
100
AcDbEntity
  8
ASSI
100
AcDbLine
 62
7
  6
CONTINUOUS
 10
-1.207715977
 20
21.8604692408
 11
-1.2065192394
 21
21.9881571576
  0
LINE
  5
784
100
AcDbEntity
  8
ASSI
100
AcDbLine
 62
7
  6
CONTINUOUS
 10
-1.207715977
 20
16.8604692408
 11
-1.2065192394
 21
16.9881571576
  0
LINE
  5
785
100
AcDbEntity
  8
ASSI
100
AcDbLine
 62
7
  6
CONTINUOUS
 10
-1.207715977
 20
11.8604692408
 11
-1.2065192394
 21
11.9881571576
  0
LINE
  5
786
100
AcDbEntity
  8
CURVE
100
AcDbLine
 62
7
  6
CONTINUOUS
 10
-1.0695692261
 20
11.745827744
 11
-1.0688252265
 21
11.8263593386
  0
LINE
  5
787
100
AcDbEntity
  8
CURVE
100
AcDbLine
 62
7
  6
CONTINUOUS
 10
-1.0356173473
 20
11.0076050719
 11
-1.0363616051
 21
10.9274783062
  0
LINE
  5
788
100
AcDbEntity
  8
RACCORDO
100
AcDbLine
 62
7
  6
CONTINUOUS
 10
-1.2070157399
 20
26.9375969694
 11
-1.2058192788
 21
27.0541620029
  0
LINE
  5
789
100
AcDbEntity
  8
RACCORDO
100
AcDbLine
 62
7
  6
CONTINUOUS
 10
-1.2070157399
 20
21.9375969694
 11
-1.2058192788
 21
22.0541620029
  0
LINE
  5
78A
100
AcDbEntity
  8
RACCORDO
100
AcDbLine
 62
7
  6
CONTINUOUS
 10
-1.2070157399
 20
16.9375969694
 11
-1.2058192788
 21
17.0541620029
  0
LINE
  5
78B
100
AcDbEntity
  8
RACCORDO
100
AcDbLine
 62
7
  6
CONTINUOUS
 10
-1.2070157399
 20
11.9375969694
 11
-1.2058192788
 21
12.0541620029
  0
LINE
  5
78C
100
AcDbEntity
  8
ASSI
100
AcDbLine
 62
7
  6
CONTINUOUS
 10
-1.2067231392
 20
26.9677882528
 11
-1.2054749583
 21
27.0845621121
  0
LINE
  5
78D
100
AcDbEntity
  8
ASSI
100
AcDbLine
 62
7
  6
CONTINUOUS
 10
-1.2065192394
 20
21.9881571576
 11
-1.2052616566
 21
22.1027616073
  0
LINE
  5
78E
100
AcDbEntity
  8
CURVE
100
AcDbLine
 62
7
  6
CONTINUOUS
 10
-1.054757067
 20
30.3736441737
 11
-1.0541382151
 21
30.4392336197
  0
LINE
  5
78F
100
AcDbEntity
  8
ASSI
100
AcDbLine
 62
7
  6
CONTINUOUS
 10
-1.2065192394
 20
16.9881571576
 11
-1.2052616566
 21
17.1027616073
  0
LINE
  5
790
100
AcDbEntity
  8
ASSI
100
AcDbLine
 62
7
  6
CONTINUOUS
 10
-1.2065192394
 20
11.9881571576
 11
-1.2052616566
 21
12.1027616073
  0
LINE
  5
791
100
AcDbEntity
  8
CURVE
100
AcDbLine
 62
7
  6
CONTINUOUS
 10
-1.0743839826
 20
12.2105094201
 11
-1.0763072841
 21
12.0268987091
  0
LINE
  5
792
100
AcDbEntity
  8
CURVE
100
AcDbLine
 62
7
  6
CONTINUOUS
 10
-1.0307883847
 20
10.5439906006
 11
-1.0288651098
 21
10.7275725328
  0
LINE
  5
793
100
AcDbEntity
  8
RACCORDO
100
AcDbLine
 62
7
  6
CONTINUOUS
 10
-1.2058192788
 20
27.0541620029
 11
-1.2045725757
 21
27.1584955458
  0
LINE
  5
794
100
AcDbEntity
  8
RACCORDO
100
AcDbLine
 62
7
  6
CONTINUOUS
 10
-1.2058192788
 20
22.0541620029
 11
-1.2045725757
 21
22.1584955458
  0
LINE
  5
795
100
AcDbEntity
  8
RACCORDO
100
AcDbLine
 62
7
  6
CONTINUOUS
 10
-1.2058192788
 20
17.0541620029
 11
-1.2045725757
 21
17.1584955458
  0
LINE
  5
796
100
AcDbEntity
  8
RACCORDO
100
AcDbLine
 62
7
  6
CONTINUOUS
 10
-1.2058192788
 20
12.0541620029
 11
-1.2045725757
 21
12.1584955458
  0
LINE
  5
797
100
AcDbEntity
  8
CURVE
100
AcDbLine
 62
7
  6
CONTINUOUS
 10
-1.0688252265
 20
11.8263593386
 11
-1.0681237115
 21
11.8862672275
  0
LINE
  5
798
100
AcDbEntity
  8
CURVE
100
AcDbLine
 62
7
  6
CONTINUOUS
 10
-1.0298129605
 20
30.3440013216
 11
-1.0285820524
 21
30.4599628787
  0
LINE
  5
799
100
AcDbEntity
  8
ASSI
100
AcDbLine
 62
7
  6
CONTINUOUS
 10
-1.2054749583
 20
27.0845621121
 11
-1.2041791696
 21
27.1883583739
  0
LINE
  5
79A
100
AcDbEntity
  8
CURVE
100
AcDbLine
 62
7
  6
CONTINUOUS
 10
-1.0363955458
 20
30.7778926215
 11
-1.0369530301
 21
30.7308142598
  0
LINE
  5
79B
100
AcDbEntity
  8
CURVE
100
AcDbLine
 62
7
  6
CONTINUOUS
 10
-1.0363616051
 20
10.9274783062
 11
-1.0372518746
 21
10.8536926725
  0
LINE
  5
79C
100
AcDbEntity
  8
ASSI
100
AcDbLine
 62
7
  6
CONTINUOUS
 10
-1.2052616566
 20
22.1027616073
 11
-1.2039600941
 21
22.204386838
  0
LINE
  5
79D
100
AcDbEntity
  8
CURVE
100
AcDbLine
 62
7
  6
CONTINUOUS
 10
-1.0586865707
 20
30.9101093282
 11
-1.0592473978
 21
30.8635721958
  0
LINE
  5
79E
100
AcDbEntity
  8
ASSI
100
AcDbLine
 62
7
  6
CONTINUOUS
 10
-1.2052616566
 20
17.1027616073
 11
-1.2039600941
 21
17.204386838
  0
LINE
  5
79F
100
AcDbEntity
  8
ASSI
100
AcDbLine
 62
7
  6
CONTINUOUS
 10
-1.2052616566
 20
12.1027616073
 11
-1.2039600941
 21
12.204386838
  0
LINE
  5
7A0
100
AcDbEntity
  8
RACCORDO
100
AcDbLine
 62
7
  6
CONTINUOUS
 10
-1.2045725757
 20
27.1584955458
 11
-1.2032938465
 21
27.2505304961
  0
LINE
  5
7A1
100
AcDbEntity
  8
RACCORDO
100
AcDbLine
 62
7
  6
CONTINUOUS
 10
-1.2045725757
 20
22.1584955458
 11
-1.2032938465
 21
22.2505304961
  0
LINE
  5
7A2
100
AcDbEntity
  8
RACCORDO
100
AcDbLine
 62
7
  6
CONTINUOUS
 10
-1.2045725757
 20
17.1584955458
 11
-1.2032938465
 21
17.2505304961
  0
LINE
  5
7A3
100
AcDbEntity
  8
RACCORDO
100
AcDbLine
 62
7
  6
CONTINUOUS
 10
-1.2045725757
 20
12.1584955458
 11
-1.2032938465
 21
12.2505304961
  0
LINE
  5
7A4
100
AcDbEntity
  8
CURVE
100
AcDbLine
 62
253
  6
CONTINUOUS
 10
-1.1115431917
 20
38.3991465987
 11
-1.101819708
 21
39.0166464515
  0
LINE
  5
7A5
100
AcDbEntity
  8
ASSI
100
AcDbLine
 62
7
  6
CONTINUOUS
 10
-1.2041791696
 20
27.1883583739
 11
-1.2028526356
 21
27.2789901177
  0
LINE
  5
7A6
100
AcDbEntity
  8
ASSI
100
AcDbLine
 62
7
  6
CONTINUOUS
 10
-1.2039600941
 20
22.204386838
 11
-1.2028526356
 21
22.2789901177
  0
LINE
  5
7A7
100
AcDbEntity
  8
ASSI
100
AcDbLine
 62
7
  6
CONTINUOUS
 10
-1.2039600941
 20
17.204386838
 11
-1.2028526356
 21
17.2789901177
  0
LINE
  5
7A8
100
AcDbEntity
  8
ASSI
100
AcDbLine
 62
7
  6
CONTINUOUS
 10
-1.2039600941
 20
12.204386838
 11
-1.2028526356
 21
12.2789901177
  0
LINE
  5
7A9
100
AcDbEntity
  8
CURVE
100
AcDbLine
 62
7
  6
CONTINUOUS
 10
-1.0681237115
 20
11.8862672275
 11
-1.0673298204
 21
11.9412261443
  0
LINE
  5
7AA
100
AcDbEntity
  8
CURVE
100
AcDbLine
 62
7
  6
CONTINUOUS
 10
-1.0554514854
 20
30.3249530174
 11
-1.054757067
 21
30.3736441737
  0
LINE
  5
7AB
100
AcDbEntity
  8
CURVE
100
AcDbLine
 62
7
  6
CONTINUOUS
 10
-1.0372518746
 20
10.8536926725
 11
-1.0380662997
 21
10.8003477174
  0
LINE
  5
7AC
100
AcDbEntity
  8
CURVE
100
AcDbLine
 62
7
  6
CONTINUOUS
 10
-1.072358156
 20
12.3485250702
 11
-1.0743839826
 21
12.2105094201
  0
LINE
  5
7AD
100
AcDbEntity
  8
CURVE
100
AcDbLine
 62
7
  6
CONTINUOUS
 10
-1.0328140891
 20
10.4059968453
 11
-1.0307883847
 21
10.5439906006
  0
LINE
  5
7AE
100
AcDbEntity
  8
CURVE
100
AcDbLine
 62
253
  6
CONTINUOUS
 10
-1.0896030236
 20
17.5837893297
 11
-1.0848659421
 21
17.8552178849
  0
LINE
  5
7AF
100
AcDbEntity
  8
CURVE
100
AcDbLine
 62
253
  6
CONTINUOUS
 10
-1.0848659421
 20
16.4980751087
 11
-1.0896030236
 21
16.2266464402
  0
LINE
  5
7B0
100
AcDbEntity
  8
CURVE
100
AcDbLine
 62
253
  6
CONTINUOUS
 10
-1.103814269
 20
13.6480751087
 11
-1.0990771865
 21
13.9195035507
  0
LINE
  5
7B1
100
AcDbEntity
  8
CURVE
100
AcDbLine
 62
253
  6
CONTINUOUS
 10
-1.103814269
 20
12.1552177717
 11
-1.0990771865
 21
12.4266466667
  0
LINE
  5
7B2
100
AcDbEntity
  8
CURVE
100
AcDbLine
 62
253
  6
CONTINUOUS
 10
-1.0896030236
 20
8.4909324457
 11
-1.0848659421
 21
8.7623608877
  0
LINE
  5
7B3
100
AcDbEntity
  8
CURVE
100
AcDbLine
 62
253
  6
CONTINUOUS
 10
-1.0848659421
 20
7.4052177717
 11
-1.0896030236
 21
7.1337893297
  0
LINE
  5
7B4
100
AcDbEntity
  8
RACCORDO
100
AcDbLine
 62
7
  6
CONTINUOUS
 10
-1.2032938465
 20
27.2505304961
 11
-1.2019910888
 21
27.3299940084
  0
LINE
  5
7B5
100
AcDbEntity
  8
RACCORDO
100
AcDbLine
 62
7
  6
CONTINUOUS
 10
-1.2032938465
 20
22.2505304961
 11
-1.2019910888
 21
22.3299940084
  0
LINE
  5
7B6
100
AcDbEntity
  8
CURVE
100
AcDbLine
 62
7
  6
CONTINUOUS
 10
-1.0369530301
 20
30.7308142598
 11
-1.0374879739
 21
30.6972114546
  0
LINE
  5
7B7
100
AcDbEntity
  8
RACCORDO
100
AcDbLine
 62
7
  6
CONTINUOUS
 10
-1.2032938465
 20
17.2505304961
 11
-1.2019910888
 21
17.3299940084
  0
LINE
  5
7B8
100
AcDbEntity
  8
RACCORDO
100
AcDbLine
 62
7
  6
CONTINUOUS
 10
-1.2032938465
 20
12.2505304961
 11
-1.2019910888
 21
12.3299940084
  0
LINE
  5
7B9
100
AcDbEntity
  8
CURVE
100
AcDbLine
 62
7
  6
CONTINUOUS
 10
-1.0592473978
 20
30.8635721958
 11
-1.0599192917
 21
30.821446976
  0
LINE
  5
7BA
100
AcDbEntity
  8
CURVE
100
AcDbLine
 62
7
  6
CONTINUOUS
 10
-1.031330548
 20
30.2467452716
 11
-1.0298129605
 21
30.3440013216
  0
LINE
  5
7BB
100
AcDbEntity
  8
CURVE
100
AcDbLine
 62
253
  6
CONTINUOUS
 10
-1.095337386
 20
38.4873608424
 11
-1.0969579672
 21
38.3991465987
  0
LINE
  5
7BC
100
AcDbEntity
  8
CURVE
100
AcDbLine
 62
253
  6
CONTINUOUS
 10
-1.095337386
 20
35.6645038678
 11
-1.098578547
 21
35.4880747916
  0
LINE
  5
7BD
100
AcDbEntity
  8
CURVE
100
AcDbLine
 62
253
  6
CONTINUOUS
 10
-1.095337386
 20
33.7237893297
 11
-1.098578547
 21
33.5473608424
  0
LINE
  5
7BE
100
AcDbEntity
  8
ASSI
100
AcDbLine
 62
7
  6
CONTINUOUS
 10
-1.2028526356
 20
27.2789901177
 11
-1.2017305571
 21
27.3442852468
  0
LINE
  5
7BF
100
AcDbEntity
  8
CURVE
100
AcDbLine
 62
253
  6
CONTINUOUS
 10
-1.095337386
 20
28.8131939794
 11
-1.098578547
 21
28.636766081
  0
LINE
  5
7C0
100
AcDbEntity
  8
ASSI
100
AcDbLine
 62
7
  6
CONTINUOUS
 10
-1.2028526356
 20
22.2789901177
 11
-1.2017305571
 21
22.3442852468
  0
LINE
  5
7C1
100
AcDbEntity
  8
ASSI
100
AcDbLine
 62
7
  6
CONTINUOUS
 10
-1.2028526356
 20
17.2789901177
 11
-1.2017305571
 21
17.3442852468
  0
LINE
  5
7C2
100
AcDbEntity
  8
CURVE
100
AcDbLine
 62
253
  6
CONTINUOUS
 10
-1.0359992041
 20
23.575575086
 11
-1.0392403651
 21
23.3991465987
  0
LINE
  5
7C3
100
AcDbEntity
  8
ASSI
100
AcDbLine
 62
7
  6
CONTINUOUS
 10
-1.2028526356
 20
12.2789901177
 11
-1.2017305571
 21
12.3442852468
  0
LINE
  5
7C4
100
AcDbEntity
  8
CURVE
100
AcDbLine
 62
7
  6
CONTINUOUS
 10
-1.0673298204
 20
11.9412261443
 11
-1.0663743486
 21
11.9940031678
  0
LINE
  5
7C5
100
AcDbEntity
  8
RACCORDO
100
AcDbLine
 62
7
  6
CONTINUOUS
 10
-1.2019910888
 20
27.3299940084
 11
-1.2008999695
 21
27.3865603453
  0
LINE
  5
7C6
100
AcDbEntity
  8
RACCORDO
100
AcDbLine
 62
7
  6
CONTINUOUS
 10
-1.2019910888
 20
22.3299940084
 11
-1.2008999695
 21
22.3865603453
  0
LINE
  5
7C7
100
AcDbEntity
  8
RACCORDO
100
AcDbLine
 62
7
  6
CONTINUOUS
 10
-1.2019910888
 20
17.3299940084
 11
-1.2008999695
 21
17.3865603453
  0
LINE
  5
7C8
100
AcDbEntity
  8
RACCORDO
100
AcDbLine
 62
7
  6
CONTINUOUS
 10
-1.2019910888
 20
12.3299940084
 11
-1.2008999695
 21
12.3865603453
  0
LINE
  5
7C9
100
AcDbEntity
  8
CURVE
100
AcDbLine
 62
7
  6
CONTINUOUS
 10
-1.0380662997
 20
10.8003477174
 11
-1.0391157499
 21
10.745707868
  0
LINE
  5
7CA
100
AcDbEntity
  8
CURVE
100
AcDbLine
 62
7
  6
CONTINUOUS
 10
-1.0562720978
 20
30.2815773581
 11
-1.0554514854
 21
30.3249530174
  0
LINE
  5
7CB
100
AcDbEntity
  8
CURVE
100
AcDbLine
 62
253
  6
CONTINUOUS
 10
-1.0896030236
 20
13.6933130314
 11
-1.0848659421
 21
13.9195035507
  0
LINE
  5
7CC
100
AcDbEntity
  8
CURVE
100
AcDbLine
 62
7
  6
CONTINUOUS
 10
-1.0707736731
 20
12.4303456995
 11
-1.072358156
 21
12.3485250702
  0
LINE
  5
7CD
100
AcDbEntity
  8
CURVE
100
AcDbLine
 62
7
  6
CONTINUOUS
 10
-1.0343984751
 20
10.3241864805
 11
-1.0328140891
 21
10.4059968453
  0
LINE
  5
7CE
100
AcDbEntity
  8
RACCORDO
100
AcDbLine
 62
7
  6
CONTINUOUS
 10
-1.2008999695
 20
27.3865603453
 11
-1.2005932548
 21
27.4009273819
  0
LINE
  5
7CF
100
AcDbEntity
  8
CURVE
100
AcDbLine
 62
7
  6
CONTINUOUS
 10
-1.0599192917
 20
30.821446976
 11
-1.0605226583
 21
30.7915000957
  0
LINE
  5
7D0
100
AcDbEntity
  8
RACCORDO
100
AcDbLine
 62
7
  6
CONTINUOUS
 10
-1.2008999695
 20
22.3865603453
 11
-1.2005932548
 21
22.4009273819
  0
LINE
  5
7D1
100
AcDbEntity
  8
RACCORDO
100
AcDbLine
 62
7
  6
CONTINUOUS
 10
-1.2008999695
 20
17.3865603453
 11
-1.2005932548
 21
17.4009273819
  0
LINE
  5
7D2
100
AcDbEntity
  8
RACCORDO
100
AcDbLine
 62
7
  6
CONTINUOUS
 10
-1.2008999695
 20
12.3865603453
 11
-1.2005932548
 21
12.4009273819
  0
LINE
  5
7D3
100
AcDbEntity
  8
CURVE
100
AcDbLine
 62
7
  6
CONTINUOUS
 10
-1.0324557037
 20
30.1916744237
 11
-1.031330548
 21
30.2467452716
  0
LINE
  5
7D4
100
AcDbEntity
  8
ASSI
100
AcDbLine
 62
7
  6
CONTINUOUS
 10
-1.2017305571
 20
27.3442852468
 11
-1.2005938737
 21
27.4009266189
  0
LINE
  5
7D5
100
AcDbEntity
  8
ASSI
100
AcDbLine
 62
7
  6
CONTINUOUS
 10
-1.2017305571
 20
22.3442852468
 11
-1.2005938737
 21
22.4009266189
  0
LINE
  5
7D6
100
AcDbEntity
  8
ASSI
100
AcDbLine
 62
7
  6
CONTINUOUS
 10
-1.2017305571
 20
17.3442852468
 11
-1.2005938737
 21
17.4009266189
  0
LINE
  5
7D7
100
AcDbEntity
  8
ASSI
100
AcDbLine
 62
7
  6
CONTINUOUS
 10
-1.2017305571
 20
12.3442852468
 11
-1.2005938737
 21
12.4009266189
  0
LINE
  5
7D8
100
AcDbEntity
  8
CURVE
100
AcDbLine
 62
7
  6
CONTINUOUS
 10
-1.0374879739
 20
30.6972114546
 11
-1.0380984976
 21
30.667976259
  0
LINE
  5
7D9
100
AcDbEntity
  8
CURVE
100
AcDbLine
 62
7
  6
CONTINUOUS
 10
-1.0663743486
 20
11.9940031678
 11
-1.0654274213
 21
12.037022927
  0
LINE
  5
7DA
100
AcDbEntity
  8
CURVE
100
AcDbLine
 62
7
  6
CONTINUOUS
 10
-1.0481136558
 20
14.0295693297
 11
-1.0778854393
 21
12.7759053297
  0
LINE
  5
7DB
100
AcDbEntity
  8
CURVE
100
AcDbLine
 62
7
  6
CONTINUOUS
 10
-1.0778854393
 20
13.4272083297
 11
-1.054327773
 21
14.3919703297
  0
LINE
  5
7DC
100
AcDbEntity
  8
CURVE
100
AcDbLine
 62
7
  6
CONTINUOUS
 10
-1.0391157499
 20
10.745707868
 11
-1.0400840016
 21
10.704144654
  0
LINE
  5
7DD
100
AcDbEntity
  8
CURVE
100
AcDbLine
 62
7
  6
CONTINUOUS
 10
-1.057184903
 20
30.2434152056
 11
-1.0562720978
 21
30.2815773581
  0
LINE
  5
7DE
100
AcDbEntity
  8
CURVE
100
AcDbLine
 62
253
  6
CONTINUOUS
 10
-1.095337386
 20
22.6814083774
 11
-1.105060869
 21
22.3099796732
  0
LINE
  5
7DF
100
AcDbEntity
  8
CURVE
100
AcDbLine
 62
7
  6
CONTINUOUS
 10
-1.0688894105
 20
12.5085760072
 11
-1.0707736731
 21
12.4303456995
  0
LINE
  5
7E0
100
AcDbEntity
  8
CURVE
100
AcDbLine
 62
7
  6
CONTINUOUS
 10
-1.036282769
 20
10.2459588165
 11
-1.0343984751
 21
10.3241864805
  0
LINE
  5
7E1
100
AcDbEntity
  8
CURVE
100
AcDbLine
 62
7
  6
CONTINUOUS
 10
-1.0272969785
 20
8.9676883297
 11
-1.0630266296
 21
7.6307903297
  0
LINE
  5
7E2
100
AcDbEntity
  8
CURVE
100
AcDbLine
 62
7
  6
CONTINUOUS
 10
-1.0778854393
 20
7.6497113297
 11
-1.0425457552
 21
8.9681333297
  0
LINE
  5
7E3
100
AcDbEntity
  8
CURVE
100
AcDbLine
 62
7
  6
CONTINUOUS
 10
-1.0605226583
 20
30.7915000957
 11
-1.0611757658
 21
30.7653877434
  0
LINE
  5
7E4
100
AcDbEntity
  8
CURVE
100
AcDbLine
 62
7
  6
CONTINUOUS
 10
-1.0654274213
 20
12.037022927
 11
-1.064419251
 21
12.0757077547
  0
LINE
  5
7E5
100
AcDbEntity
  8
CURVE
100
AcDbLine
 62
7
  6
CONTINUOUS
 10
-1.0336792396
 20
30.1440792445
 11
-1.0324557037
 21
30.1916744237
  0
LINE
  5
7E6
100
AcDbEntity
  8
CURVE
100
AcDbLine
 62
7
  6
CONTINUOUS
 10
-1.0380984976
 20
30.667976259
 11
-1.0385987501
 21
30.6491053886
  0
LINE
  5
7E7
100
AcDbEntity
  8
CURVE
100
AcDbLine
 62
7
  6
CONTINUOUS
 10
-1.0400840016
 20
10.704144654
 11
-1.0411107707
 21
10.6668772672
  0
LINE
  5
7E8
100
AcDbEntity
  8
CURVE
100
AcDbLine
 62
7
  6
CONTINUOUS
 10
-1.0579586771
 20
30.2165706708
 11
-1.057184903
 21
30.2434152056
  0
LINE
  5
7E9
100
AcDbEntity
  8
CURVE
100
AcDbLine
 62
7
  6
CONTINUOUS
 10
-1.0673819914
 20
12.5604830427
 11
-1.0688894105
 21
12.5085760072
  0
LINE
  5
7EA
100
AcDbEntity
  8
CURVE
100
AcDbLine
 62
7
  6
CONTINUOUS
 10
-1.0377902056
 20
10.194053721
 11
-1.036282769
 21
10.2459588165
  0
LINE
  5
7EB
100
AcDbEntity
  8
CURVE
100
AcDbLine
 62
7
  6
CONTINUOUS
 10
-1.064419251
 20
12.0757077547
 11
-1.0633580549
 21
12.1101776033
  0
LINE
  5
7EC
100
AcDbEntity
  8
CURVE
100
AcDbLine
 62
7
  6
CONTINUOUS
 10
-1.0385987501
 20
30.6491053886
 11
-1.0389489667
 21
30.6380335173
  0
LINE
  5
7ED
100
AcDbEntity
  8
CURVE
100
AcDbLine
 62
7
  6
CONTINUOUS
 10
-1.0611757658
 20
30.7653877434
 11
-1.0616933558
 21
30.7485965693
  0
LINE
  5
7EE
100
AcDbEntity
  8
CURVE
100
AcDbLine
 62
7
  6
CONTINUOUS
 10
-1.0345443281
 20
30.1167929198
 11
-1.0336792396
 21
30.1440792445
  0
LINE
  5
7EF
100
AcDbEntity
  8
CURVE
100
AcDbLine
 62
7
  6
CONTINUOUS
 10
-1.0411107707
 20
10.6668772672
 11
-1.0421878373
 21
10.6337856204
  0
LINE
  5
7F0
100
AcDbEntity
  8
CURVE
100
AcDbLine
 62
7
  6
CONTINUOUS
 10
-1.0586611289
 20
30.1954844913
 11
-1.0579586771
 21
30.2165706708
  0
LINE
  5
7F1
100
AcDbEntity
  8
CURVE
100
AcDbLine
 62
253
  6
CONTINUOUS
 10
-1.0656682951
 20
24.3456941028
 11
-1.0883564234
 21
23.6956940253
  0
LINE
  5
7F2
100
AcDbEntity
  8
CURVE
100
AcDbLine
 62
253
  6
CONTINUOUS
 10
-1.1132884324
 20
16.9052178849
 11
-1.1085513505
 21
17.0409322192
  0
LINE
  5
7F3
100
AcDbEntity
  8
CURVE
100
AcDbLine
 62
253
  6
CONTINUOUS
 10
-1.0896030236
 20
16.2266464402
 11
-1.0943401051
 21
16.0909322192
  0
LINE
  5
7F4
100
AcDbEntity
  8
CURVE
100
AcDbLine
 62
253
  6
CONTINUOUS
 10
-1.1124989188
 20
11.2052177717
 11
-1.1140779462
 21
11.159979849
  0
LINE
  5
7F5
100
AcDbEntity
  8
CURVE
100
AcDbLine
 62
253
  6
CONTINUOUS
 10
-1.1132884324
 20
7.8123608877
 11
-1.1085513505
 21
7.9480746557
  0
LINE
  5
7F6
100
AcDbEntity
  8
CURVE
100
AcDbLine
 62
253
  6
CONTINUOUS
 10
-1.0896030236
 20
7.1337893297
 11
-1.0943401051
 21
6.9980746557
  0
LINE
  5
7F7
100
AcDbEntity
  8
CURVE
100
AcDbLine
 62
7
  6
CONTINUOUS
 10
-1.0658057573
 20
12.6066201517
 11
-1.0673819914
 21
12.5604830427
  0
LINE
  5
7F8
100
AcDbEntity
  8
CURVE
100
AcDbLine
 62
7
  6
CONTINUOUS
 10
-1.0393664528
 20
10.1479184778
 11
-1.0377902056
 21
10.194053721
  0
LINE
  5
7F9
100
AcDbEntity
  8
CURVE
100
AcDbLine
 62
253
  6
CONTINUOUS
 10
-1.095337386
 20
32.253550954
 11
-1.1083020307
 21
31.9006939794
  0
LINE
  5
7FA
100
AcDbEntity
  8
CURVE
100
AcDbLine
 62
253
  6
CONTINUOUS
 10
-1.095337386
 20
31.1949800302
 11
-1.1083020307
 21
30.8421230556
  0
LINE
  5
7FB
100
AcDbEntity
  8
CURVE
100
AcDbLine
 62
253
  6
CONTINUOUS
 10
-1.0359992041
 20
26.1337893297
 11
-1.0489638488
 21
25.7809321711
  0
LINE
  5
7FC
100
AcDbEntity
  8
CURVE
100
AcDbLine
 62
7
  6
CONTINUOUS
 10
-1.0616933558
 20
30.7485965693
 11
-1.062049732
 21
30.7388402938
  0
LINE
  5
7FD
100
AcDbEntity
  8
CURVE
100
AcDbLine
 62
7
  6
CONTINUOUS
 10
-1.0389489667
 20
30.6380335173
 11
-1.0393104045
 21
30.6282020242
  0
LINE
  5
7FE
100
AcDbEntity
  8
CURVE
100
AcDbLine
 62
7
  6
CONTINUOUS
 10
-1.0633580549
 20
12.1101776033
 11
-1.0622520498
 21
12.1405524248
  0
LINE
  5
7FF
100
AcDbEntity
  8
CURVE
100
AcDbLine
 62
7
  6
CONTINUOUS
 10
-1.0421878373
 20
10.6337856204
 11
-1.0429297656
 21
10.6139850758
  0
LWPOLYLINE
  5
800
100
AcDbEntity
  8
RACCORDO
100
AcDbPolyline
 62
253
  6
CONTINUOUS
 90
43
 70
0
 10
-1.4970435471
 20
27.2359521899
 10
-1.4984964248
 20
27.1991325109
 10
-1.4999248556
 20
27.1522215071
 10
-1.5013086356
 20
27.095490065
 10
-1.5026468695
 20
27.0292692403
 10
-1.5039404527
 20
26.953918116
 10
-1.5051718671
 20
26.8697963441
 10
-1.5063402239
 20
26.7773409192
 10
-1.507446412
 20
26.6770210699
 10
-1.5084755795
 20
26.5692724958
 10
-1.5094267821
 20
26.4546241801
 10
-1.5103009643
 20
26.3336355348
 10
-1.5110861071
 20
26.2068091862
 10
-1.5117812045
 20
26.0747274598
 10
-1.5123872627
 20
25.9380467884
 10
-1.5128952812
 20
25.7974064893
 10
-1.5133038908
 20
25.6534714522
 10
-1.5136144609
 20
25.5069464823
 10
-1.5138220993
 20
25.358556118
 10
-1.5139251715
 20
25.208987372
 10
-1.513925312
 20
25.0589986058
 10
-1.5138225323
 20
24.9094323726
 10
-1.5136152063
 20
24.7610484666
 10
-1.5133049601
 20
24.6145320641
 10
-1.5128966838
 20
24.4706028316
 10
-1.5123890177
 20
24.329965057
 10
-1.5117833214
 20
24.1932838882
 10
-1.5110885643
 20
24.0611954698
 10
-1.5103037476
 20
23.9343566041
 10
-1.50942987
 20
23.8133499759
 10
-1.5084788971
 20
23.6986759377
 10
-1.5074498719
 20
23.5908938991
 10
-1.5063437513
 20
23.4905354912
 10
-1.5051753721
 20
23.3980386148
 10
-1.5039438363
 20
23.3138737532
 10
-1.5026500418
 20
23.2384795349
 10
-1.5013115187
 20
23.1722179533
 10
-1.4999273587
 20
23.1154490649
 10
-1.4984984702
 20
23.0685054298
 10
-1.4970451082
 20
23.031659937
 10
-1.4955740245
 20
23.0051443803
 10
-1.4940784673
 20
22.9891435488
 10
-1.4925584368
 20
22.9837893297
  0
LWPOLYLINE
  5
801
100
AcDbEntity
  8
ASSI
100
AcDbPolyline
 62
253
  6
CONTINUOUS
 90
43
 70
0
 10
-1.4970435471
 20
27.2359521899
 10
-1.4984964248
 20
27.1991325109
 10
-1.4999248556
 20
27.1522215071
 10
-1.5013086356
 20
27.095490065
 10
-1.5026468695
 20
27.0292692403
 10
-1.5039404527
 20
26.953918116
 10
-1.5051718671
 20
26.8697963441
 10
-1.5063402239
 20
26.7773409192
 10
-1.507446412
 20
26.6770210699
 10
-1.5084755795
 20
26.5692724958
 10
-1.5094267821
 20
26.4546241801
 10
-1.5103009643
 20
26.3336355348
 10
-1.5110861071
 20
26.2068091862
 10
-1.5117812045
 20
26.0747274598
 10
-1.5123872627
 20
25.9380467884
 10
-1.5128952812
 20
25.7974064893
 10
-1.5133038908
 20
25.6534714522
 10
-1.5136144609
 20
25.5069464823
 10
-1.5138220993
 20
25.358556118
 10
-1.5139251715
 20
25.208987372
 10
-1.513925312
 20
25.0589986058
 10
-1.5138225323
 20
24.9094323726
 10
-1.5136152063
 20
24.7610484666
 10
-1.5133049601
 20
24.6145320641
 10
-1.5128966838
 20
24.4706028316
 10
-1.5123890177
 20
24.329965057
 10
-1.5117833214
 20
24.1932838882
 10
-1.5110885643
 20
24.0611954698
 10
-1.5103037476
 20
23.9343566041
 10
-1.50942987
 20
23.8133499759
 10
-1.5084788971
 20
23.6986759377
 10
-1.5074498719
 20
23.5908938991
 10
-1.5063437513
 20
23.4905354912
 10
-1.5051753721
 20
23.3980386148
 10
-1.5039438363
 20
23.3138737532
 10
-1.5026500418
 20
23.2384795349
 10
-1.5013115187
 20
23.1722179533
 10
-1.4999273587
 20
23.1154490649
 10
-1.4984984702
 20
23.0685054298
 10
-1.4970451082
 20
23.031659937
 10
-1.4955740245
 20
23.0051443803
 10
-1.4940784673
 20
22.9891435488
 10
-1.4925584368
 20
22.9837893297
  0
LWPOLYLINE
  5
802
100
AcDbEntity
  8
RACCORDO
100
AcDbPolyline
 62
253
  6
CONTINUOUS
 90
43
 70
0
 10
-1.4970435471
 20
22.2359521899
 10
-1.4984964248
 20
22.1991325109
 10
-1.4999248556
 20
22.1522215071
 10
-1.5013086356
 20
22.095490065
 10
-1.5026468695
 20
22.0292692403
 10
-1.5039404527
 20
21.953918116
 10
-1.5051718671
 20
21.8697963441
 10
-1.5063402239
 20
21.7773409192
 10
-1.507446412
 20
21.6770210699
 10
-1.5084755795
 20
21.5692724958
 10
-1.5094267821
 20
21.4546241801
 10
-1.5103009643
 20
21.3336355348
 10
-1.5110861071
 20
21.2068091862
 10
-1.5117812045
 20
21.0747274598
 10
-1.5123872627
 20
20.9380467884
 10
-1.5128952812
 20
20.7974064893
 10
-1.5133038908
 20
20.6534714522
 10
-1.5136144609
 20
20.5069464823
 10
-1.5138220993
 20
20.358556118
 10
-1.5139251715
 20
20.208987372
 10
-1.513925312
 20
20.0589986058
 10
-1.5138225323
 20
19.9094323726
 10
-1.5136152063
 20
19.7610484666
 10
-1.5133049601
 20
19.6145320641
 10
-1.5128966838
 20
19.4706028316
 10
-1.5123890177
 20
19.329965057
 10
-1.5117833214
 20
19.1932838882
 10
-1.5110885643
 20
19.0611954698
 10
-1.5103037476
 20
18.9343566041
 10
-1.50942987
 20
18.8133499759
 10
-1.5084788971
 20
18.6986759377
 10
-1.5074498719
 20
18.5908938991
 10
-1.5063437513
 20
18.4905354912
 10
-1.5051753721
 20
18.3980386148
 10
-1.5039438363
 20
18.3138737532
 10
-1.5026500418
 20
18.2384795349
 10
-1.5013115187
 20
18.1722179533
 10
-1.4999273587
 20
18.1154490649
 10
-1.4984984702
 20
18.0685054298
 10
-1.4970451082
 20
18.031659937
 10
-1.4955740245
 20
18.0051443803
 10
-1.4940784673
 20
17.9891435488
 10
-1.4925584368
 20
17.9837893297
  0
LWPOLYLINE
  5
803
100
AcDbEntity
  8
ASSI
100
AcDbPolyline
 62
253
  6
CONTINUOUS
 90
43
 70
0
 10
-1.4970435471
 20
22.2359521899
 10
-1.4984964248
 20
22.1991325109
 10
-1.4999248556
 20
22.1522215071
 10
-1.5013086356
 20
22.095490065
 10
-1.5026468695
 20
22.0292692403
 10
-1.5039404527
 20
21.953918116
 10
-1.5051718671
 20
21.8697963441
 10
-1.5063402239
 20
21.7773409192
 10
-1.507446412
 20
21.6770210699
 10
-1.5084755795
 20
21.5692724958
 10
-1.5094267821
 20
21.4546241801
 10
-1.5103009643
 20
21.3336355348
 10
-1.5110861071
 20
21.2068091862
 10
-1.5117812045
 20
21.0747274598
 10
-1.5123872627
 20
20.9380467884
 10
-1.5128952812
 20
20.7974064893
 10
-1.5133038908
 20
20.6534714522
 10
-1.5136144609
 20
20.5069464823
 10
-1.5138220993
 20
20.358556118
 10
-1.5139251715
 20
20.208987372
 10
-1.513925312
 20
20.0589986058
 10
-1.5138225323
 20
19.9094323726
 10
-1.5136152063
 20
19.7610484666
 10
-1.5133049601
 20
19.6145320641
 10
-1.5128966838
 20
19.4706028316
 10
-1.5123890177
 20
19.329965057
 10
-1.5117833214
 20
19.1932838882
 10
-1.5110885643
 20
19.0611954698
 10
-1.5103037476
 20
18.9343566041
 10
-1.50942987
 20
18.8133499759
 10
-1.5084788971
 20
18.6986759377
 10
-1.5074498719
 20
18.5908938991
 10
-1.5063437513
 20
18.4905354912
 10
-1.5051753721
 20
18.3980386148
 10
-1.5039438363
 20
18.3138737532
 10
-1.5026500418
 20
18.2384795349
 10
-1.5013115187
 20
18.1722179533
 10
-1.4999273587
 20
18.1154490649
 10
-1.4984984702
 20
18.0685054298
 10
-1.4970451082
 20
18.031659937
 10
-1.4955740245
 20
18.0051443803
 10
-1.4940784673
 20
17.9891435488
 10
-1.4925584368
 20
17.9837893297
  0
LWPOLYLINE
  5
804
100
AcDbEntity
  8
RACCORDO
100
AcDbPolyline
 62
253
  6
CONTINUOUS
 90
43
 70
0
 10
-1.4970435471
 20
17.2359521899
 10
-1.4984964248
 20
17.1991325109
 10
-1.4999248556
 20
17.1522215071
 10
-1.5013086356
 20
17.095490065
 10
-1.5026468695
 20
17.0292692403
 10
-1.5039404527
 20
16.953918116
 10
-1.5051718671
 20
16.8697963441
 10
-1.5063402239
 20
16.7773409192
 10
-1.507446412
 20
16.6770210699
 10
-1.5084755795
 20
16.5692724958
 10
-1.5094267821
 20
16.4546241801
 10
-1.5103009643
 20
16.3336355348
 10
-1.5110861071
 20
16.2068091862
 10
-1.5117812045
 20
16.0747274598
 10
-1.5123872627
 20
15.9380467884
 10
-1.5128952812
 20
15.7974064893
 10
-1.5133038908
 20
15.6534714522
 10
-1.5136144609
 20
15.5069464823
 10
-1.5138220993
 20
15.358556118
 10
-1.5139251715
 20
15.208987372
 10
-1.513925312
 20
15.0589986058
 10
-1.5138225323
 20
14.9094323726
 10
-1.5136152063
 20
14.7610484666
 10
-1.5133049601
 20
14.6145320641
 10
-1.5128966838
 20
14.4706028316
 10
-1.5123890177
 20
14.329965057
 10
-1.5117833214
 20
14.1932838882
 10
-1.5110885643
 20
14.0611954698
 10
-1.5103037476
 20
13.9343566041
 10
-1.50942987
 20
13.8133499759
 10
-1.5084788971
 20
13.6986759377
 10
-1.5074498719
 20
13.5908938991
 10
-1.5063437513
 20
13.4905354912
 10
-1.5051753721
 20
13.3980386148
 10
-1.5039438363
 20
13.3138737532
 10
-1.5026500418
 20
13.2384795349
 10
-1.5013115187
 20
13.1722179533
 10
-1.4999273587
 20
13.1154490649
 10
-1.4984984702
 20
13.0685054298
 10
-1.4970451082
 20
13.031659937
 10
-1.4955740245
 20
13.0051443803
 10
-1.4940784673
 20
12.9891435488
 10
-1.4925584368
 20
12.9837893297
  0
LWPOLYLINE
  5
805
100
AcDbEntity
  8
ASSI
100
AcDbPolyline
 62
253
  6
CONTINUOUS
 90
43
 70
0
 10
-1.4970435471
 20
17.2359521899
 10
-1.4984964248
 20
17.1991325109
 10
-1.4999248556
 20
17.1522215071
 10
-1.5013086356
 20
17.095490065
 10
-1.5026468695
 20
17.0292692403
 10
-1.5039404527
 20
16.953918116
 10
-1.5051718671
 20
16.8697963441
 10
-1.5063402239
 20
16.7773409192
 10
-1.507446412
 20
16.6770210699
 10
-1.5084755795
 20
16.5692724958
 10
-1.5094267821
 20
16.4546241801
 10
-1.5103009643
 20
16.3336355348
 10
-1.5110861071
 20
16.2068091862
 10
-1.5117812045
 20
16.0747274598
 10
-1.5123872627
 20
15.9380467884
 10
-1.5128952812
 20
15.7974064893
 10
-1.5133038908
 20
15.6534714522
 10
-1.5136144609
 20
15.5069464823
 10
-1.5138220993
 20
15.358556118
 10
-1.5139251715
 20
15.208987372
 10
-1.513925312
 20
15.0589986058
 10
-1.5138225323
 20
14.9094323726
 10
-1.5136152063
 20
14.7610484666
 10
-1.5133049601
 20
14.6145320641
 10
-1.5128966838
 20
14.4706028316
 10
-1.5123890177
 20
14.329965057
 10
-1.5117833214
 20
14.1932838882
 10
-1.5110885643
 20
14.0611954698
 10
-1.5103037476
 20
13.9343566041
 10
-1.50942987
 20
13.8133499759
 10
-1.5084788971
 20
13.6986759377
 10
-1.5074498719
 20
13.5908938991
 10
-1.5063437513
 20
13.4905354912
 10
-1.5051753721
 20
13.3980386148
 10
-1.5039438363
 20
13.3138737532
 10
-1.5026500418
 20
13.2384795349
 10
-1.5013115187
 20
13.1722179533
 10
-1.4999273587
 20
13.1154490649
 10
-1.4984984702
 20
13.0685054298
 10
-1.4970451082
 20
13.031659937
 10
-1.4955740245
 20
13.0051443803
 10
-1.4940784673
 20
12.9891435488
 10
-1.4925584368
 20
12.9837893297
  0
LWPOLYLINE
  5
806
100
AcDbEntity
  8
RACCORDO
100
AcDbPolyline
 62
253
  6
CONTINUOUS
 90
43
 70
0
 10
-1.4970435471
 20
12.2359521899
 10
-1.4984964248
 20
12.1991325109
 10
-1.4999248556
 20
12.1522215071
 10
-1.5013086356
 20
12.095490065
 10
-1.5026468695
 20
12.0292692403
 10
-1.5039404527
 20
11.953918116
 10
-1.5051718671
 20
11.8697963441
 10
-1.5063402239
 20
11.7773409192
 10
-1.507446412
 20
11.6770210699
 10
-1.5084755795
 20
11.5692724958
 10
-1.5094267821
 20
11.4546241801
 10
-1.5103009643
 20
11.3336355348
 10
-1.5110861071
 20
11.2068091862
 10
-1.5117812045
 20
11.0747274598
 10
-1.5123872627
 20
10.9380467884
 10
-1.5128952812
 20
10.7974064893
 10
-1.5133038908
 20
10.6534714522
 10
-1.5136144609
 20
10.5069464823
 10
-1.5138220993
 20
10.358556118
 10
-1.5139251715
 20
10.208987372
 10
-1.513925312
 20
10.0589986058
 10
-1.5138225323
 20
9.9094323726
 10
-1.5136152063
 20
9.7610484666
 10
-1.5133049601
 20
9.6145320641
 10
-1.5128966838
 20
9.4706028316
 10
-1.5123890177
 20
9.329965057
 10
-1.5117833214
 20
9.1932838882
 10
-1.5110885643
 20
9.0611954698
 10
-1.5103037476
 20
8.9343566041
 10
-1.50942987
 20
8.8133499759
 10
-1.5084788971
 20
8.6986759377
 10
-1.5074498719
 20
8.5908938991
 10
-1.5063437513
 20
8.4905354912
 10
-1.5051753721
 20
8.3980386148
 10
-1.5039438363
 20
8.3138737532
 10
-1.5026500418
 20
8.2384795349
 10
-1.5013115187
 20
8.1722179533
 10
-1.4999273587
 20
8.1154490649
 10
-1.4984984702
 20
8.0685054298
 10
-1.4970451082
 20
8.031659937
 10
-1.4955740245
 20
8.0051443803
 10
-1.4940784673
 20
7.9891435488
 10
-1.4925584368
 20
7.9837893297
  0
LWPOLYLINE
  5
807
100
AcDbEntity
  8
ASSI
100
AcDbPolyline
 62
253
  6
CONTINUOUS
 90
43
 70
0
 10
-1.4970435471
 20
12.2359521899
 10
-1.4984964248
 20
12.1991325109
 10
-1.4999248556
 20
12.1522215071
 10
-1.5013086356
 20
12.095490065
 10
-1.5026468695
 20
12.0292692403
 10
-1.5039404527
 20
11.953918116
 10
-1.5051718671
 20
11.8697963441
 10
-1.5063402239
 20
11.7773409192
 10
-1.507446412
 20
11.6770210699
 10
-1.5084755795
 20
11.5692724958
 10
-1.5094267821
 20
11.4546241801
 10
-1.5103009643
 20
11.3336355348
 10
-1.5110861071
 20
11.2068091862
 10
-1.5117812045
 20
11.0747274598
 10
-1.5123872627
 20
10.9380467884
 10
-1.5128952812
 20
10.7974064893
 10
-1.5133038908
 20
10.6534714522
 10
-1.5136144609
 20
10.5069464823
 10
-1.5138220993
 20
10.358556118
 10
-1.5139251715
 20
10.208987372
 10
-1.513925312
 20
10.0589986058
 10
-1.5138225323
 20
9.9094323726
 10
-1.5136152063
 20
9.7610484666
 10
-1.5133049601
 20
9.6145320641
 10
-1.5128966838
 20
9.4706028316
 10
-1.5123890177
 20
9.329965057
 10
-1.5117833214
 20
9.1932838882
 10
-1.5110885643
 20
9.0611954698
 10
-1.5103037476
 20
8.9343566041
 10
-1.50942987
 20
8.8133499759
 10
-1.5084788971
 20
8.6986759377
 10
-1.5074498719
 20
8.5908938991
 10
-1.5063437513
 20
8.4905354912
 10
-1.5051753721
 20
8.3980386148
 10
-1.5039438363
 20
8.3138737532
 10
-1.5026500418
 20
8.2384795349
 10
-1.5013115187
 20
8.1722179533
 10
-1.4999273587
 20
8.1154490649
 10
-1.4984984702
 20
8.0685054298
 10
-1.4970451082
 20
8.031659937
 10
-1.4955740245
 20
8.0051443803
 10
-1.4940784673
 20
7.9891435488
 10
-1.4925584368
 20
7.9837893297
  0
LINE
  5
808
100
AcDbEntity
  8
CURVE
100
AcDbLine
 62
7
  6
CONTINUOUS
 10
-1.0647220136
 20
12.6341857056
 11
-1.0658057573
 21
12.6066201517
  0
LINE
  5
809
100
AcDbEntity
  8
CURVE
100
AcDbLine
 62
7
  6
CONTINUOUS
 10
-1.040450203
 20
10.12035411
 11
-1.0393664528
 21
10.1479184778
  0
LINE
  5
80A
100
AcDbEntity
  8
CURVE
100
AcDbLine
 62
7
  6
CONTINUOUS
 10
-1.059591431
 20
30.171431317
 11
-1.0586611289
 21
30.1954844913
  0
LINE
  5
80B
100
AcDbEntity
  8
CURVE
100
AcDbLine
 62
7
  6
CONTINUOUS
 10
-1.0622520498
 20
12.1405524248
 11
-1.061493877
 21
12.1585865265
  0
LINE
  5
80C
100
AcDbEntity
  8
CURVE
100
AcDbLine
 62
7
  6
CONTINUOUS
 10
-1.0429297656
 20
10.6139850758
 11
-1.0436879598
 21
10.5959514623
  0
LINE
  5
80D
100
AcDbEntity
  8
CURVE
100
AcDbLine
 62
7
  6
CONTINUOUS
 10
-1.062049732
 20
30.7388402938
 11
-1.0624139774
 21
30.7303013652
  0
LWPOLYLINE
  5
80E
100
AcDbEntity
  8
CURVE
100
AcDbPolyline
 62
7
  6
CONTINUOUS
 90
13
 70
0
 10
-1.0393104045
 20
30.6282020242
 10
-1.0396812203
 20
30.6196395474
 10
-1.0398695688
 20
30.6158431395
 10
-1.0400595706
 20
30.612374725
 10
-1.040250995
 20
30.6092378836
 10
-1.0404436119
 20
30.6064361951
 10
-1.0406371906
 20
30.6039732392
 10
-1.0408315009
 20
30.6018525957
 10
-1.0410263122
 20
30.6000778443
 10
-1.0412213941
 20
30.5986525649
 10
-1.0414165163
 20
30.5975803372
 10
-1.0416114483
 20
30.5968647409
 10
-1.0418059596
 20
30.5965093558
  0
LINE
  5
80F
100
AcDbEntity
  8
CURVE
100
AcDbLine
 62
7
  6
CONTINUOUS
 10
-1.0602185473
 20
30.1572600718
 11
-1.059591431
 21
30.171431317
  0
LINE
  5
810
100
AcDbEntity
  8
CURVE
100
AcDbLine
 62
7
  6
CONTINUOUS
 10
-1.0636156499
 20
12.6592063417
 11
-1.0647220136
 21
12.6341857056
  0
LINE
  5
811
100
AcDbEntity
  8
CURVE
100
AcDbLine
 62
7
  6
CONTINUOUS
 10
-1.0415565715
 20
10.0953346021
 11
-1.040450203
 21
10.12035411
  0
LINE
  5
812
100
AcDbEntity
  8
CURVE
100
AcDbLine
 62
7
  6
CONTINUOUS
 10
-1.0777570091
 20
36.1738943297
 11
-1.0447173241
 21
36.8839513297
  0
LINE
  5
813
100
AcDbEntity
  8
CURVE
100
AcDbLine
 62
7
  6
CONTINUOUS
 10
-1.027158794
 20
36.7270233297
 11
-1.0552510741
 21
36.1281443297
  0
LINE
  5
814
100
AcDbEntity
  8
CURVE
100
AcDbLine
 62
7
  6
CONTINUOUS
 10
-1.061493877
 20
12.1585865265
 11
-1.0607218758
 21
12.1748894697
  0
LINE
  5
815
100
AcDbEntity
  8
CURVE
100
AcDbLine
 62
7
  6
CONTINUOUS
 10
-1.0436879598
 20
10.5959514623
 11
-1.0444599843
 21
10.5796491984
  0
LINE
  5
816
100
AcDbEntity
  8
CURVE
100
AcDbLine
 62
7
  6
CONTINUOUS
 10
-1.0624139774
 20
30.7303013652
 11
-1.0637849248
 21
30.7021645608
  0
LINE
  5
817
100
AcDbEntity
  8
CURVE
100
AcDbLine
 62
7
  6
CONTINUOUS
 10
-1.0608505055
 20
30.1443213046
 11
-1.0602185473
 21
30.1572600718
  0
LINE
  5
818
100
AcDbEntity
  8
CURVE
100
AcDbLine
 62
7
  6
CONTINUOUS
 10
-1.0624898522
 20
12.6816898576
 11
-1.0636156499
 21
12.6592063417
  0
LINE
  5
819
100
AcDbEntity
  8
CURVE
100
AcDbLine
 62
7
  6
CONTINUOUS
 10
-1.0426823729
 20
10.0728521465
 11
-1.0415565715
 21
10.0953346021
  0
LINE
  5
81A
100
AcDbEntity
  8
CURVE
100
AcDbLine
 62
7
  6
CONTINUOUS
 10
-1.0607218758
 20
12.1748894697
 11
-1.0599384808
 21
12.1894967958
  0
LINE
  5
81B
100
AcDbEntity
  8
CURVE
100
AcDbLine
 62
7
  6
CONTINUOUS
 10
-1.0444599843
 20
10.5796491984
 11
-1.0452434036
 21
10.5650427029
  0
LINE
  5
81C
100
AcDbEntity
  8
CURVE
100
AcDbLine
 62
7
  6
CONTINUOUS
 10
-1.0637849248
 20
30.7021645608
 11
-1.0658639288
 21
30.6637061321
  0
LINE
  5
81D
100
AcDbEntity
  8
CURVE
100
AcDbLine
 62
7
  6
CONTINUOUS
 10
-1.0618062276
 20
30.1267386395
 11
-1.0608505055
 21
30.1443213046
  0
LINE
  5
81E
100
AcDbEntity
  8
CURVE
100
AcDbLine
 62
7
  6
CONTINUOUS
 10
-1.027158794
 20
33.0627793297
 11
-1.0777570091
 21
32.1730933297
  0
LWPOLYLINE
  5
81F
100
AcDbEntity
  8
CURVE
100
AcDbPolyline
 62
7
  6
CONTINUOUS
 90
3
 70
0
 10
-1.0658639288
 20
30.6637061321
 10
-1.0693618176
 20
30.6051816372
 10
-1.0777570153
 20
30.465631068
  0
LINE
  5
820
100
AcDbEntity
  8
CURVE
100
AcDbLine
 62
253
  6
CONTINUOUS
 10
-1.095337386
 20
24.2599798282
 11
-1.1180255144
 21
23.8885512789
  0
LINE
  5
821
100
AcDbEntity
  8
CURVE
100
AcDbLine
 62
7
  6
CONTINUOUS
 10
-1.0630919501
 20
30.1055376738
 11
-1.0618062276
 21
30.1267386395
  0
LWPOLYLINE
  5
822
100
AcDbEntity
  8
CURVE
100
AcDbPolyline
 62
7
  6
CONTINUOUS
 90
16
 70
0
 10
-1.0599384808
 20
12.1894967958
 10
-1.0591461267
 20
12.2024440461
 10
-1.0587473509
 20
12.2083062496
 10
-1.0583472482
 20
12.2137667622
 10
-1.0579461231
 20
12.2188300265
 10
-1.0575442799
 20
12.2235004853
 10
-1.0571420229
 20
12.2277825812
 10
-1.0567396565
 20
12.2316807568
 10
-1.056337485
 20
12.235199455
 10
-1.0558017978
 20
12.2393090854
 10
-1.0552667254
 20
12.2427609744
 10
-1.0547319945
 20
12.245564413
 10
-1.0541973321
 20
12.2477286922
 10
-1.0536624648
 20
12.2492631028
 10
-1.0531271196
 20
12.2501769359
 10
-1.0525910233
 20
12.2504794822
  0
LWPOLYLINE
  5
823
100
AcDbEntity
  8
CURVE
100
AcDbPolyline
 62
7
  6
CONTINUOUS
 90
16
 70
0
 10
-1.0452434036
 20
10.5650427029
 10
-1.0460357823
 20
10.5520963942
 10
-1.0464345703
 20
10.5462346908
 10
-1.0468346849
 20
10.5407746912
 10
-1.0472358215
 20
10.5357119476
 10
-1.0476376759
 20
10.5310420123
 10
-1.0480399434
 20
10.5267604378
 10
-1.0484423198
 20
10.5228627763
 10
-1.0488445006
 20
10.5193445801
 10
-1.0493801986
 20
10.5152355911
 10
-1.0499152808
 20
10.5117842946
 10
-1.0504500204
 20
10.5089813814
 10
-1.050984691
 20
10.5068175425
 10
-1.051519566
 20
10.5052834689
 10
-1.052054919
 20
10.5043698513
 10
-1.0525910233
 20
10.5040673808
  0
LINE
  5
824
100
AcDbEntity
  8
CURVE
100
AcDbLine
 62
253
  6
CONTINUOUS
 10
-1.0359992041
 20
24.7223606952
 11
-1.0586873325
 21
24.3695035733
  0
LINE
  5
825
100
AcDbEntity
  8
CURVE
100
AcDbLine
 62
7
  6
CONTINUOUS
 10
-1.0777570091
 20
32.8110243297
 11
-1.0676558035
 21
32.9678223297
  0
LINE
  5
826
100
AcDbEntity
  8
CURVE
100
AcDbLine
 62
7
  6
CONTINUOUS
 10
-1.06919575
 20
30.0123228053
 11
-1.0630919501
 21
30.1055376738
  0
LWPOLYLINE
  5
827
100
AcDbEntity
  8
CURVE
100
AcDbPolyline
 62
7
  6
CONTINUOUS
 90
3
 70
0
 10
-1.0777570153
 20
29.8834303445
 10
-1.0726228017
 20
29.9613107585
 10
-1.06919575
 20
30.0123228053
  0
LINE
  5
828
100
AcDbEntity
  8
CURVE
100
AcDbLine
 62
7
  6
CONTINUOUS
 10
-1.0598395377
 20
33.0887853297
 11
-1.0410618984
 21
33.3669153297
  0
LWPOLYLINE
  5
829
100
AcDbEntity
  8
RACCORDO
100
AcDbPolyline
 62
253
  6
CONTINUOUS
 90
4
 70
0
 10
-1.4925584368
 20
22.2837893297
 10
-1.4940779204
 20
22.2784388836
 10
-1.4955729572
 20
22.2624492744
 10
-1.4970435471
 20
22.2359521899
  0
LWPOLYLINE
  5
82A
100
AcDbEntity
  8
ASSI
100
AcDbPolyline
 62
253
  6
CONTINUOUS
 90
4
 70
0
 10
-1.4925584368
 20
22.2837893297
 10
-1.4940779204
 20
22.2784388836
 10
-1.4955729572
 20
22.2624492744
 10
-1.4970435471
 20
22.2359521899
  0
LWPOLYLINE
  5
82B
100
AcDbEntity
  8
RACCORDO
100
AcDbPolyline
 62
253
  6
CONTINUOUS
 90
4
 70
0
 10
-1.4925584368
 20
17.2837893297
 10
-1.4940779204
 20
17.2784388836
 10
-1.4955729572
 20
17.2624492744
 10
-1.4970435471
 20
17.2359521899
  0
LWPOLYLINE
  5
82C
100
AcDbEntity
  8
ASSI
100
AcDbPolyline
 62
253
  6
CONTINUOUS
 90
4
 70
0
 10
-1.4925584368
 20
17.2837893297
 10
-1.4940779204
 20
17.2784388836
 10
-1.4955729572
 20
17.2624492744
 10
-1.4970435471
 20
17.2359521899
  0
LINE
  5
82D
100
AcDbEntity
  8
0
100
AcDbLine
 62
7
  6
CONTINUOUS
 10
-16.4883380188
 20
0.2680332317
 11
-16.4690153583
 21
0.2895345985
  0
LINE
  5
82E
100
AcDbEntity
  8
0
100
AcDbLine
 62
7
  6
CONTINUOUS
 10
-16.4690153583
 20
0.2895345985
 11
-16.4468668705
 21
0.3138578584
  0
LINE
  5
82F
100
AcDbEntity
  8
0
100
AcDbLine
 62
7
  6
CONTINUOUS
 10
-16.4468668705
 20
0.3138578584
 11
-16.4217909199
 21
0.3411113132
  0
LINE
  5
830
100
AcDbEntity
  8
0
100
AcDbLine
 62
7
  6
CONTINUOUS
 10
-16.4217909199
 20
0.3411113132
 11
-16.3937375279
 21
0.3713329621
  0
LINE
  5
831
100
AcDbEntity
  8
0
100
AcDbLine
 62
7
  6
CONTINUOUS
 10
-16.3937375279
 20
0.3713329621
 11
-16.3627067143
 21
0.4045514097
  0
LINE
  5
832
100
AcDbEntity
  8
0
100
AcDbLine
 62
7
  6
CONTINUOUS
 10
-16.3627067143
 20
0.4045514097
 11
-16.3108570886
 21
0.4596825969
  0
LINE
  5
833
100
AcDbEntity
  8
0
100
AcDbLine
 62
7
  6
CONTINUOUS
 10
-16.3108570886
 20
0.4596825969
 11
-16.2730723725
 21
0.4996416468
  0
LINE
  5
834
100
AcDbEntity
  8
0
100
AcDbLine
 62
7
  6
CONTINUOUS
 10
-16.2730723725
 20
0.4996416468
 11
-16.1911713499
 21
0.5859770913
  0
LINE
  5
835
100
AcDbEntity
  8
0
100
AcDbLine
 62
7
  6
CONTINUOUS
 10
-16.1911713499
 20
0.5859770913
 11
-16.1041371012
 21
0.677431515
  0
LINE
  5
836
100
AcDbEntity
  8
0
100
AcDbLine
 62
7
  6
CONTINUOUS
 10
-16.6010943912
 20
1.7337893297
 11
-16.5571721442
 21
1.7777115767
  0
LINE
  5
837
100
AcDbEntity
  8
0
100
AcDbLine
 62
7
  6
CONTINUOUS
 10
-16.5574437444
 20
0.1774399766
 11
-16.6010943912
 21
0.1337893297
  0
LWPOLYLINE
  5
838
100
AcDbEntity
  8
0
100
AcDbPolyline
 62
253
  6
CONTINUOUS
 90
4
 70
0
 10
-14.044416582
 20
6.7889751588
 10
-14.0013710479
 20
6.8160252898
 10
-13.9538463278
 20
6.8358877859
 10
-13.9032368566
 20
6.8480334037
  0
LWPOLYLINE
  5
839
100
AcDbEntity
  8
RACCORDO
100
AcDbPolyline
 62
253
  6
CONTINUOUS
 90
4
 70
0
 10
-14.044416582
 20
6.7889751588
 10
-14.0013710479
 20
6.8160252898
 10
-13.9538463278
 20
6.8358877859
 10
-13.9032368566
 20
6.8480334037
  0
LWPOLYLINE
  5
83A
100
AcDbEntity
  8
CURVE
100
AcDbPolyline
 62
7
  6
CONTINUOUS
 90
17
 70
0
 10
-1.052586114
 20
12.7714654086
 10
-1.0531661395
 20
12.7711573658
 10
-1.0537484745
 20
12.7702325874
 10
-1.0543327209
 20
12.7686900989
 10
-1.0549184803
 20
12.7665289254
 10
-1.0555053547
 20
12.7637480924
 10
-1.0560929456
 20
12.760346625
 10
-1.0566808551
 20
12.7563235487
 10
-1.0572686846
 20
12.7516778887
 10
-1.0578560362
 20
12.7464086703
 10
-1.0584425115
 20
12.7405149188
 10
-1.0590277123
 20
12.7339956596
 10
-1.0596112404
 20
12.7268499178
 10
-1.0601926975
 20
12.7190767189
 10
-1.0607716855
 20
12.7106750881
 10
-1.0613478061
 20
12.7016440508
 10
-1.0624898522
 20
12.6816898576
  0
LINE
  5
83B
100
AcDbEntity
  8
CURVE
100
AcDbLine
 62
253
  6
CONTINUOUS
 10
-1.095337386
 20
40.4280750124
 11
-1.1180255144
 21
40.4280750124
  0
LINE
  5
83C
100
AcDbEntity
  8
0
100
AcDbLine
 62
7
  6
CONTINUOUS
 10
-9.6510943912
 20
40.7337893297
 11
-14.6510943912
 21
40.7337893297
  0
LINE
  5
83D
100
AcDbEntity
  8
ASSI
100
AcDbLine
 62
7
  6
CONTINUOUS
 10
-9.6510943912
 20
40.7337893297
 11
-14.6510943912
 21
40.7337893297
  0
LINE
  5
83E
100
AcDbEntity
  8
CURVE
100
AcDbLine
 62
253
  6
CONTINUOUS
 10
-1.1180255144
 20
41.1337893297
 11
-1.095337386
 21
41.1337893297
  0
LINE
  5
83F
100
AcDbEntity
  8
0
100
AcDbLine
 62
7
  6
CONTINUOUS
 10
-14.6510943912
 20
41.1837893297
 11
-9.6510943912
 21
41.1837893297
  0
LINE
  5
840
100
AcDbEntity
  8
0
100
AcDbLine
 62
7
  6
CONTINUOUS
 10
-10.4510943912
 20
41.3837893297
 11
-13.8510943912
 21
41.3837893297
  0
LINE
  5
841
100
AcDbEntity
  8
RACCORDO
100
AcDbLine
 62
7
  6
CONTINUOUS
 10
-10.4510943912
 20
41.3837893297
 11
-13.8510943912
 21
41.3837893297
  0
LINE
  5
842
100
AcDbEntity
  8
0
100
AcDbLine
 62
253
  6
CONTINUOUS
 10
-10.4510943912
 20
41.4154611724
 11
-13.8510943912
 21
41.4154611724
  0
LINE
  5
843
100
AcDbEntity
  8
RACCORDO
100
AcDbLine
 62
253
  6
CONTINUOUS
 10
-10.4510943912
 20
41.4154611724
 11
-13.8510943912
 21
41.4154611724
  0
LINE
  5
844
100
AcDbEntity
  8
RACCORDO
100
AcDbLine
 62
7
  6
CONTINUOUS
 10
-13.8336722785
 20
41.4337893297
 11
-10.468516504
 21
41.4337893297
  0
LINE
  5
845
100
AcDbEntity
  8
ASSI
100
AcDbLine
 62
7
  6
CONTINUOUS
 10
-13.8336722785
 20
41.4337893297
 11
-10.468516504
 21
41.4337893297
  0
LINE
  5
846
100
AcDbEntity
  8
ASSI
100
AcDbLine
 62
7
  6
CONTINUOUS
 10
-9.6510943912
 20
41.6337893297
 11
-14.6510943912
 21
41.6337893297
  0
LINE
  5
847
100
AcDbEntity
  8
0
100
AcDbLine
 62
253
  6
CONTINUOUS
 10
-13.8510943912
 20
41.4154611724
 11
-13.9031888445
 21
41.41953768
  0
LINE
  5
848
100
AcDbEntity
  8
RACCORDO
100
AcDbLine
 62
253
  6
CONTINUOUS
 10
-13.8510943912
 20
41.4154611724
 11
-13.9031888445
 21
41.41953768
  0
LINE
  5
849
100
AcDbEntity
  8
0
100
AcDbLine
 62
253
  6
CONTINUOUS
 10
-13.9031888445
 20
41.41953768
 11
-13.9537004342
 21
41.4316433403
  0
LINE
  5
84A
100
AcDbEntity
  8
RACCORDO
100
AcDbLine
 62
253
  6
CONTINUOUS
 10
-13.9031888445
 20
41.41953768
 11
-13.9537004342
 21
41.4316433403
  0
LWPOLYLINE
  5
84B
100
AcDbEntity
  8
0
100
AcDbPolyline
 62
253
  6
CONTINUOUS
 90
3
 70
0
 10
-13.9537004342
 20
41.4316433403
 10
-14.0010943912
 20
41.4514103289
 10
-14.0439306742
 20
41.4782380359
  0
LWPOLYLINE
  5
84C
100
AcDbEntity
  8
RACCORDO
100
AcDbPolyline
 62
253
  6
CONTINUOUS
 90
3
 70
0
 10
-13.9537004342
 20
41.4316433403
 10
-14.0010943912
 20
41.4514103289
 10
-14.0439306742
 20
41.4782380359
  0
LINE
  5
84D
100
AcDbEntity
  8
CURVE
100
AcDbLine
 62
253
  6
CONTINUOUS
 10
-5.2653801166
 20
34.6480751325
 11
-5.4510943912
 21
34.8337893297
  0
LINE
  5
84E
100
AcDbEntity
  8
CURVE
100
AcDbLine
 62
253
  6
CONTINUOUS
 10
-4.3368086853
 20
34.0909322311
 11
-4.1510943912
 21
33.9052180339
  0
LINE
  5
84F
100
AcDbEntity
  8
0
100
AcDbLine
 62
7
  6
CONTINUOUS
 10
-16.6010943912
 20
46.5337893297
 11
-16.5571721442
 21
46.4898670826
  0
LINE
  5
850
100
AcDbEntity
  8
CURVE
100
AcDbLine
 62
253
  6
CONTINUOUS
 10
-4.3368086853
 20
35.1123609354
 11
-4.1510943912
 21
34.9266467382
  0
LINE
  5
851
100
AcDbEntity
  8
0
100
AcDbLine
 62
7
  6
CONTINUOUS
 10
-16.6010943912
 20
48.1337893297
 11
-16.5574437444
 21
48.0901386828
  0
LINE
  5
852
100
AcDbEntity
  8
0
100
AcDbLine
 62
7
  6
CONTINUOUS
 10
-16.1261892665
 20
47.6133934904
 11
-16.1912101482
 21
47.68164261
  0
LINE
  5
853
100
AcDbEntity
  8
0
100
AcDbLine
 62
7
  6
CONTINUOUS
 10
-16.1041371012
 20
47.5901471444
 11
-16.1261892665
 21
47.6133934904
  0
LINE
  5
854
100
AcDbEntity
  8
0
100
AcDbLine
 62
7
  6
CONTINUOUS
 10
-16.1912101482
 20
47.68164261
 11
-16.2731168137
 21
47.7679840329
  0
LINE
  5
855
100
AcDbEntity
  8
0
100
AcDbLine
 62
7
  6
CONTINUOUS
 10
-16.2731168137
 20
47.7679840329
 11
-16.3289225793
 21
47.8270747764
  0
LINE
  5
856
100
AcDbEntity
  8
0
100
AcDbLine
 62
7
  6
CONTINUOUS
 10
-16.3289225793
 20
47.8270747764
 11
-16.3787105437
 21
47.8801349989
  0
LINE
  5
857
100
AcDbEntity
  8
0
100
AcDbLine
 62
7
  6
CONTINUOUS
 10
-16.3787105437
 20
47.8801349989
 11
-16.4082544564
 21
47.9118546967
  0
LINE
  5
858
100
AcDbEntity
  8
0
100
AcDbLine
 62
7
  6
CONTINUOUS
 10
-16.4082544564
 20
47.9118546967
 11
-16.4348147499
 21
47.9405923124
  0
LINE
  5
859
100
AcDbEntity
  8
0
100
AcDbLine
 62
7
  6
CONTINUOUS
 10
-16.4348147499
 20
47.9405923124
 11
-16.4584053301
 21
47.9663512633
  0
LWPOLYLINE
  5
85A
100
AcDbEntity
  8
0
100
AcDbPolyline
 62
7
  6
CONTINUOUS
 90
19
 70
0
 10
-16.4584053301
 20
47.9663512633
 10
-16.4791315193
 20
47.9892654516
 10
-16.4884489297
 20
47.999669622
 10
-16.4970961235
 20
48.0094208023
 10
-16.5050799687
 20
48.018513501
 10
-16.5124193731
 20
48.0269532097
 10
-16.5191504491
 20
48.0348042721
 10
-16.5252803202
 20
48.0420677707
 10
-16.5308242181
 20
48.048742623
 10
-16.53581888
 20
48.0548899259
 10
-16.5402727074
 20
48.0605194472
 10
-16.5441878717
 20
48.065621419
 10
-16.5475805405
 20
48.0702276358
 10
-16.550455287
 20
48.0743426236
 10
-16.5528133544
 20
48.0779618562
 10
-16.5546606818
 20
48.0811035489
 10
-16.5560007678
 20
48.0837737734
 10
-16.5568365101
 20
48.085966458
 10
-16.5571721442
 20
48.0876816027
  0
LWPOLYLINE
  5
85B
100
AcDbEntity
  8
RACCORDO
100
AcDbPolyline
 62
253
  6
CONTINUOUS
 90
4
 70
0
 10
-1.4925584368
 20
12.2837893297
 10
-1.4940779204
 20
12.2784388836
 10
-1.4955729572
 20
12.2624492744
 10
-1.4970435471
 20
12.2359521899
  0
LWPOLYLINE
  5
85C
100
AcDbEntity
  8
ASSI
100
AcDbPolyline
 62
253
  6
CONTINUOUS
 90
4
 70
0
 10
-1.4925584368
 20
12.2837893297
 10
-1.4940779204
 20
12.2784388836
 10
-1.4955729572
 20
12.2624492744
 10
-1.4970435471
 20
12.2359521899
  0
LWPOLYLINE
  5
85D
100
AcDbEntity
  8
0
100
AcDbPolyline
 62
7
  6
CONTINUOUS
 90
13
 70
0
 10
-10.6495701564
 20
44.0182760093
 10
-10.5266979298
 20
44.0184181462
 10
-10.4088261017
 20
44.0187986202
 10
-10.2959546719
 20
44.0194174315
 10
-10.1865988894
 20
44.0202893961
 10
-10.0822435053
 20
44.021399698
 10
-9.987342773
 20
44.0227038887
 10
-9.9022746887
 20
44.0242139108
 10
-9.8266612561
 20
44.0259178218
 10
-9.7638227401
 20
44.0277353467
 10
-9.7148658955
 20
44.0296397271
 10
-9.6786839674
 20
44.0316577215
 10
-9.6552769557
 20
44.0337893297
  0
LINE
  5
85E
100
AcDbEntity
  8
ASSI
100
AcDbLine
 62
7
  6
CONTINUOUS
 10
-9.6510943912
 20
42.3337893297
 11
-14.6510943912
 21
42.3337893297
  0
LINE
  5
85F
100
AcDbEntity
  8
RACCORDO
100
AcDbLine
 62
7
  6
CONTINUOUS
 10
-2.7598700011
 20
42.3468796314
 11
-8.1380040896
 21
42.3468796314
  0
LINE
  5
860
100
AcDbEntity
  8
ASSI
100
AcDbLine
 62
7
  6
CONTINUOUS
 10
-2.7598700011
 20
42.3468796314
 11
-8.1380040896
 21
42.3468796314
  0
LINE
  5
861
100
AcDbEntity
  8
0
100
AcDbLine
 62
7
  6
CONTINUOUS
 10
-14.6510943912
 20
42.4337893297
 11
-9.6510943912
 21
42.4337893297
  0
LINE
  5
862
100
AcDbEntity
  8
ASSI
100
AcDbLine
 62
7
  6
CONTINUOUS
 10
-14.6510943912
 20
42.4337893297
 11
-9.6510943912
 21
42.4337893297
  0
LINE
  5
863
100
AcDbEntity
  8
ASSI
100
AcDbLine
 62
7
  6
CONTINUOUS
 10
-2.9510943912
 20
42.7337893297
 11
-8.1380040896
 21
42.7337893297
  0
LINE
  5
864
100
AcDbEntity
  8
RACCORDO
100
AcDbLine
 62
7
  6
CONTINUOUS
 10
-8.4379926665
 20
43.7468796314
 11
-21.5423187813
 21
43.7468796314
  0
LINE
  5
865
100
AcDbEntity
  8
ASSI
100
AcDbLine
 62
7
  6
CONTINUOUS
 10
-8.4379926665
 20
43.7468796314
 11
-21.5423187813
 21
43.7468796314
  0
LINE
  5
866
100
AcDbEntity
  8
0
100
AcDbLine
 62
7
  6
CONTINUOUS
 10
-4.7144387549
 20
43.7971336933
 11
-8.6877500276
 21
43.7971336933
  0
LINE
  5
867
100
AcDbEntity
  8
DRAFT
100
AcDbLine
 62
7
  6
CONTINUOUS
 10
-4.7144387549
 20
43.7971336933
 11
-8.6877500276
 21
43.7971336933
  0
LINE
  5
868
100
AcDbEntity
  8
0
100
AcDbLine
 62
7
  6
CONTINUOUS
 10
-15.6144387549
 20
43.7971336933
 11
-19.5877500276
 21
43.7971336933
  0
LINE
  5
869
100
AcDbEntity
  8
DRAFT
100
AcDbLine
 62
7
  6
CONTINUOUS
 10
-15.6144387549
 20
43.7971336933
 11
-19.5877500276
 21
43.7971336933
  0
LINE
  5
86A
100
AcDbEntity
  8
0
100
AcDbLine
 62
7
  6
CONTINUOUS
 10
-4.7510943912
 20
43.8337893297
 11
-8.6510943912
 21
43.8337893297
  0
LINE
  5
86B
100
AcDbEntity
  8
DRAFT
100
AcDbLine
 62
7
  6
CONTINUOUS
 10
-4.7510943912
 20
43.8337893297
 11
-8.6510943912
 21
43.8337893297
  0
LINE
  5
86C
100
AcDbEntity
  8
0
100
AcDbLine
 62
7
  6
CONTINUOUS
 10
-15.6510943912
 20
43.8337893297
 11
-19.5510943912
 21
43.8337893297
  0
LINE
  5
86D
100
AcDbEntity
  8
DRAFT
100
AcDbLine
 62
7
  6
CONTINUOUS
 10
-15.6510943912
 20
43.8337893297
 11
-19.5510943912
 21
43.8337893297
  0
LINE
  5
86E
100
AcDbEntity
  8
DRAFT
100
AcDbLine
 62
7
  6
CONTINUOUS
 10
-4.8554578251
 20
43.8381527636
 11
-5.6467309573
 21
43.8381527636
  0
LINE
  5
86F
100
AcDbEntity
  8
DRAFT
100
AcDbLine
 62
7
  6
CONTINUOUS
 10
-18.6554578251
 20
43.8381527636
 11
-19.4467309573
 21
43.8381527636
  0
LINE
  5
870
100
AcDbEntity
  8
DRAFT
100
AcDbLine
 62
7
  6
CONTINUOUS
 10
-4.9558168047
 20
43.9385117432
 11
-5.5463719778
 21
43.9385117432
  0
LINE
  5
871
100
AcDbEntity
  8
DRAFT
100
AcDbLine
 62
7
  6
CONTINUOUS
 10
-18.7558168047
 20
43.9385117432
 11
-19.3463719778
 21
43.9385117432
  0
LINE
  5
872
100
AcDbEntity
  8
0
100
AcDbLine
 62
7
  6
CONTINUOUS
 10
-15.6144387549
 20
43.9971336933
 11
-8.6877500276
 21
43.9971336933
  0
LINE
  5
873
100
AcDbEntity
  8
DRAFT
100
AcDbLine
 62
7
  6
CONTINUOUS
 10
-15.6144387549
 20
43.9971336933
 11
-8.6877500276
 21
43.9971336933
  0
LINE
  5
874
100
AcDbEntity
  8
0
100
AcDbLine
 62
7
  6
CONTINUOUS
 10
-13.6526186261
 20
44.0182760093
 11
-10.6495701564
 21
44.0182760093
  0
LINE
  5
875
100
AcDbEntity
  8
0
100
AcDbLine
 62
7
  6
CONTINUOUS
 10
-15.6510943912
 20
44.0337893297
 11
-14.6455726715
 21
44.0337893297
  0
LINE
  5
876
100
AcDbEntity
  8
0
100
AcDbLine
 62
7
  6
CONTINUOUS
 10
-9.656616111
 20
44.0337893297
 11
-8.6510943912
 21
44.0337893297
  0
LINE
  5
877
100
AcDbEntity
  8
DRAFT
100
AcDbLine
 62
7
  6
CONTINUOUS
 10
-4.7510943912
 20
44.1337893297
 11
-4.8554578251
 21
44.1337893297
  0
LINE
  5
878
100
AcDbEntity
  8
DRAFT
100
AcDbLine
 62
7
  6
CONTINUOUS
 10
-19.4467309573
 20
44.1337893297
 11
-19.5510943912
 21
44.1337893297
  0
LINE
  5
879
100
AcDbEntity
  8
DRAFT
100
AcDbLine
 62
7
  6
CONTINUOUS
 10
-5.6467309573
 20
44.1381527636
 11
-9.6517343216
 21
44.1381527636
  0
LINE
  5
87A
100
AcDbEntity
  8
DRAFT
100
AcDbLine
 62
7
  6
CONTINUOUS
 10
-14.6504544609
 20
44.1381527636
 11
-18.6554578251
 21
44.1381527636
  0
LINE
  5
87B
100
AcDbEntity
  8
DRAFT
100
AcDbLine
 62
7
  6
CONTINUOUS
 10
-8.6509409566
 20
44.1513711952
 11
-9.6517104242
 21
44.1513711952
  0
LINE
  5
87C
100
AcDbEntity
  8
DRAFT
100
AcDbLine
 62
7
  6
CONTINUOUS
 10
-14.6504783582
 20
44.1513711952
 11
-15.6512478259
 21
44.1513711952
  0
LINE
  5
87D
100
AcDbEntity
  8
DRAFT
100
AcDbLine
 62
7
  6
CONTINUOUS
 10
-14.6510943912
 20
44.2044823426
 11
-14.5923549731
 21
44.2044823426
  0
LINE
  5
87E
100
AcDbEntity
  8
DRAFT
100
AcDbLine
 62
7
  6
CONTINUOUS
 10
-9.7098338094
 20
44.2044823426
 11
-9.6510943912
 21
44.2044823426
  0
LWPOLYLINE
  5
87F
100
AcDbEntity
  8
0
100
AcDbPolyline
 62
7
  6
CONTINUOUS
 90
13
 70
0
 10
-13.6526186261
 20
44.0182760093
 10
-13.7754908526
 20
44.0184181462
 10
-13.8933626808
 20
44.0187986202
 10
-14.0062341106
 20
44.0194174315
 10
-14.1155898931
 20
44.0202893961
 10
-14.2199452772
 20
44.021399698
 10
-14.3148460095
 20
44.0227038887
 10
-14.3999140938
 20
44.0242139108
 10
-14.4755275264
 20
44.0259178218
 10
-14.5383660424
 20
44.0277353467
 10
-14.587322887
 20
44.0296397271
 10
-14.6235048151
 20
44.0316577215
 10
-14.6469118267
 20
44.0337893297
  0
LINE
  5
880
100
AcDbEntity
  8
CURVE
100
AcDbLine
 62
7
  6
CONTINUOUS
 10
-1.0447173241
 20
36.8839513297
 11
-1.0777570091
 21
37.0145683297
  0
LINE
  5
881
100
AcDbEntity
  8
CURVE
100
AcDbLine
 62
7
  6
CONTINUOUS
 10
-1.0777570091
 20
37.5936163297
 11
-1.027158794
 21
37.3317943297
  0
LWPOLYLINE
  5
882
100
AcDbEntity
  8
0
100
AcDbPolyline
 62
7
  6
CONTINUOUS
 90
6
 70
0
 10
-2.0036389171
 20
48.4193716958
 10
-2.0056120235
 20
48.4311056172
 10
-2.0081412095
 20
48.4427323685
 10
-2.0112207495
 20
48.4542256087
 10
-2.0148436699
 20
48.4655593035
 10
-2.0190017655
 20
48.476707779
  0
LWPOLYLINE
  5
883
100
AcDbEntity
  8
CURVE
100
AcDbPolyline
 62
7
  6
CONTINUOUS
 90
17
 70
0
 10
-1.052586114
 20
9.9830814545
 10
-1.0520060886
 20
9.9833894772
 10
-1.0514237537
 20
9.9843141959
 10
-1.0508395076
 20
9.9858565867
 10
-1.0502537484
 20
9.9880176254
 10
-1.0496668744
 20
9.9907982879
 10
-1.0490792837
 20
9.9941995503
 10
-1.0484913745
 20
9.9982223885
 10
-1.0479035451
 20
10.0028677784
 10
-1.0473161937
 20
10.008136696
 10
-1.0467297184
 20
10.0140301172
 10
-1.0461445175
 20
10.020549018
 10
-1.0455609891
 20
10.0276943743
 10
-1.0449795315
 20
10.035467162
 10
-1.0444005429
 20
10.0438683572
 10
-1.0438244215
 20
10.0528989357
 10
-1.0426823729
 20
10.0728521465
  0
LWPOLYLINE
  5
884
100
AcDbEntity
  8
0
100
AcDbPolyline
 62
7
  6
CONTINUOUS
 90
18
 70
0
 10
-19.5581759419
 20
-0.3483032961
 10
-19.5472379449
 20
-0.3436194425
 10
-19.5365352036
 20
-0.3384204391
 10
-19.526091963
 20
-0.332718062
 10
-19.5159318853
 20
-0.3265252284
 10
-19.5060779861
 20
-0.3198559658
 10
-19.4965525874
 20
-0.312725381
 10
-19.4873772722
 20
-0.3051496292
 10
-19.4785728252
 20
-0.2971458708
 10
-19.4701591908
 20
-0.2887322364
 10
-19.4621554324
 20
-0.2799277894
 10
-19.4545796805
 20
-0.2707524742
 10
-19.4474490958
 20
-0.2612270754
 10
-19.4407798331
 20
-0.2513731762
 10
-19.4345869996
 20
-0.2412130986
 10
-19.4288846224
 20
-0.2307698579
 10
-19.4236856191
 20
-0.2200671166
 10
-19.4190017655
 20
-0.2091291196
  0
LWPOLYLINE
  5
885
100
AcDbEntity
  8
0
100
AcDbPolyline
 62
7
  6
CONTINUOUS
 90
6
 70
0
 10
-4.6866767574
 20
48.6312448038
 10
-4.6984106787
 20
48.6292716974
 10
-4.71003743
 20
48.6267425114
 10
-4.7215306702
 20
48.6236629714
 10
-4.732864365
 20
48.620040051
 10
-4.7440128405
 20
48.6158819555
  0
LINE
  5
886
100
AcDbEntity
  8
DRAFT
100
AcDbLine
 62
7
  6
CONTINUOUS
 10
-5.5463719778
 20
44.2385117432
 11
-18.7558168047
 21
44.2385117432
  0
LINE
  5
887
100
AcDbEntity
  8
0
100
AcDbLine
 62
7
  6
CONTINUOUS
 10
-9.1589485723
 20
44.9337893297
 11
-15.1432402102
 21
44.9337893297
  0
LINE
  5
888
100
AcDbEntity
  8
0
100
AcDbLine
 62
7
  6
CONTINUOUS
 10
-3.3510943912
 20
44.9837893297
 11
-4.7510943912
 21
44.9837893297
  0
LINE
  5
889
100
AcDbEntity
  8
DRAFT
100
AcDbLine
 62
7
  6
CONTINUOUS
 10
-3.3510943912
 20
44.9837893297
 11
-4.7510943912
 21
44.9837893297
  0
LINE
  5
88A
100
AcDbEntity
  8
0
100
AcDbLine
 62
7
  6
CONTINUOUS
 10
-19.5510943912
 20
44.9837893297
 11
-20.9510943912
 21
44.9837893297
  0
LINE
  5
88B
100
AcDbEntity
  8
DRAFT
100
AcDbLine
 62
7
  6
CONTINUOUS
 10
-19.5510943912
 20
44.9837893297
 11
-20.9510943912
 21
44.9837893297
  0
LINE
  5
88C
100
AcDbEntity
  8
DRAFT
100
AcDbLine
 62
7
  6
CONTINUOUS
 10
-20.2176638931
 20
45.0337893297
 11
-19.7820651961
 21
45.0337893297
  0
LINE
  5
88D
100
AcDbEntity
  8
DRAFT
100
AcDbLine
 62
7
  6
CONTINUOUS
 10
-4.0845248894
 20
45.0337893297
 11
-4.5201235864
 21
45.0337893297
  0
LINE
  5
88E
100
AcDbEntity
  8
DRAFT
100
AcDbLine
 62
7
  6
CONTINUOUS
 10
-4.5324652411
 20
45.0337893297
 11
-4.859821259
 21
45.0337893297
  0
LINE
  5
88F
100
AcDbEntity
  8
DRAFT
100
AcDbLine
 62
7
  6
CONTINUOUS
 10
-19.4510943912
 20
45.0337893297
 11
-19.7697235413
 21
45.0337893297
  0
LINE
  5
890
100
AcDbEntity
  8
0
100
AcDbLine
 62
7
  6
CONTINUOUS
 10
-3.9185494562
 20
45.0425161975
 11
-4.0845248894
 21
45.0425161975
  0
LINE
  5
891
100
AcDbEntity
  8
0
100
AcDbLine
 62
7
  6
CONTINUOUS
 10
-20.2176638931
 20
45.0425161975
 11
-20.3836393263
 21
45.0425161975
  0
LINE
  5
892
100
AcDbEntity
  8
DRAFT
100
AcDbLine
 62
7
  6
CONTINUOUS
 10
-19.7177400455
 20
45.1297848754
 11
-19.3463719778
 21
45.1297848754
  0
LINE
  5
893
100
AcDbEntity
  8
DRAFT
100
AcDbLine
 62
7
  6
CONTINUOUS
 10
-4.584448737
 20
45.1297848754
 11
-4.9558168047
 21
45.1297848754
  0
LINE
  5
894
100
AcDbEntity
  8
0
100
AcDbLine
 62
253
  6
CONTINUOUS
 10
-4.584448737
 20
45.4697762783
 11
-9.154271085
 21
45.4697762783
  0
LINE
  5
895
100
AcDbEntity
  8
0
100
AcDbLine
 62
253
  6
CONTINUOUS
 10
-15.1479176975
 20
45.4697762783
 11
-19.7177400455
 21
45.4697762783
  0
LINE
  5
896
100
AcDbEntity
  8
0
100
AcDbLine
 62
7
  6
CONTINUOUS
 10
-9.1510943912
 20
45.8337893297
 11
-15.1510943912
 21
45.8337893297
  0
LWPOLYLINE
  5
897
100
AcDbEntity
  8
0
100
AcDbPolyline
 62
7
  6
CONTINUOUS
 90
9
 70
0
 10
-2.0190017655
 20
-0.2091291196
 10
-2.0148436699
 20
-0.1979806441
 10
-2.0112207495
 20
-0.1866469493
 10
-2.0081412095
 20
-0.1751537091
 10
-2.0056120235
 20
-0.1635269578
 10
-2.0036389171
 20
-0.1517930365
 10
-2.002226357
 20
-0.1399785259
 10
-2.0013775415
 20
-0.1281101863
 10
-2.0010943912
 20
-0.1162149011
  0
LWPOLYLINE
  5
898
100
AcDbEntity
  8
0
100
AcDbPolyline
 62
7
  6
CONTINUOUS
 90
5
 70
0
 10
-8.6170101135
 20
0.2281179573
 10
-8.6104251948
 20
0.2358435219
 10
-8.6031804706
 20
0.244248
 10
-8.5952616507
 20
0.2533313916
 10
-8.5866518458
 20
0.2630891514
  0
LINE
  5
899
100
AcDbEntity
  8
0
100
AcDbLine
 62
7
  6
CONTINUOUS
 10
-8.5866518458
 20
0.2630891514
 11
-8.5673387978
 21
0.2846550475
  0
LINE
  5
89A
100
AcDbEntity
  8
0
100
AcDbLine
 62
7
  6
CONTINUOUS
 10
-8.5673387978
 20
0.2846550475
 11
-8.545237312
 21
0.3089885193
  0
LINE
  5
89B
100
AcDbEntity
  8
0
100
AcDbLine
 62
7
  6
CONTINUOUS
 10
-8.545237312
 20
0.3089885193
 11
-8.5203047382
 21
0.3361260608
  0
LINE
  5
89C
100
AcDbEntity
  8
0
100
AcDbLine
 62
7
  6
CONTINUOUS
 10
-8.5203047382
 20
0.3361260608
 11
-8.4924682941
 21
0.3661593095
  0
LINE
  5
89D
100
AcDbEntity
  8
0
100
AcDbLine
 62
7
  6
CONTINUOUS
 10
-8.4924682941
 20
0.3661593095
 11
-8.4614558242
 21
0.3993884004
  0
LINE
  5
89E
100
AcDbEntity
  8
0
100
AcDbLine
 62
7
  6
CONTINUOUS
 10
-8.4614558242
 20
0.3993884004
 11
-8.409136031
 21
0.455054944
  0
LINE
  5
89F
100
AcDbEntity
  8
0
100
AcDbLine
 62
7
  6
CONTINUOUS
 10
-8.409136031
 20
0.455054944
 11
-8.3501642202
 21
0.5174278154
  0
LWPOLYLINE
  5
8A0
100
AcDbEntity
  8
0
100
AcDbPolyline
 62
7
  6
CONTINUOUS
 90
4
 70
0
 10
-8.3501642202
 20
0.5174278154
 10
-8.2640098949
 20
0.6081218958
 10
-8.2420285499
 20
0.6311561443
 10
-8.1980516813
 20
0.677431515
  0
LINE
  5
8A1
100
AcDbEntity
  8
DRAFT
100
AcDbLine
 62
7
  6
CONTINUOUS
 10
-4.9558168047
 20
4.3290669162
 11
-4.8554578251
 21
4.4294258958
  0
LINE
  5
8A2
100
AcDbEntity
  8
0
100
AcDbLine
 62
7
  6
CONTINUOUS
 10
-4.7510943912
 20
4.4337893297
 11
-4.7144387549
 21
4.470444966
  0
LINE
  5
8A3
100
AcDbEntity
  8
DRAFT
100
AcDbLine
 62
7
  6
CONTINUOUS
 10
-4.7510943912
 20
4.4337893297
 11
-4.7144387549
 21
4.470444966
  0
LINE
  5
8A4
100
AcDbEntity
  8
RACCORDO
100
AcDbLine
 62
7
  6
CONTINUOUS
 10
-1.4308861559
 20
6.8354850829
 11
-2.0527901444
 21
6.2135810943
  0
LINE
  5
8A5
100
AcDbEntity
  8
ASSI
100
AcDbLine
 62
7
  6
CONTINUOUS
 10
-1.4308861559
 20
6.8354850829
 11
-2.0527901444
 21
6.2135810943
  0
LINE
  5
8A6
100
AcDbEntity
  8
DRAFT
100
AcDbLine
 62
7
  6
CONTINUOUS
 10
-4.9558168047
 20
3.137793784
 11
-4.8598209267
 21
3.2337889974
  0
LINE
  5
8A7
100
AcDbEntity
  8
DRAFT
100
AcDbLine
 62
7
  6
CONTINUOUS
 10
-4.8598209267
 20
3.2250627942
 11
-4.8510943912
 21
3.2337893297
  0
LINE
  5
8A8
100
AcDbEntity
  8
0
100
AcDbLine
 62
253
  6
CONTINUOUS
 10
-11.1425270213
 20
0.3394940599
 11
-11.1510943912
 21
0.3337825605
  0
LINE
  5
8A9
100
AcDbEntity
  8
0
100
AcDbLine
 62
253
  6
CONTINUOUS
 10
-10.9425447916
 20
0.1394906747
 11
-10.9510969297
 21
0.1337893297
  0
LINE
  5
8AA
100
AcDbEntity
  8
0
100
AcDbLine
 62
7
  6
CONTINUOUS
 10
-11.1424204379
 20
1.7389936172
 11
-11.1510943912
 21
1.7337893297
  0
LINE
  5
8AB
100
AcDbEntity
  8
0
100
AcDbLine
 62
7
  6
CONTINUOUS
 10
-4.7144387549
 20
5.8676198621
 11
-4.69698369
 21
5.8763467299
  0
LINE
  5
8AC
100
AcDbEntity
  8
DRAFT
100
AcDbLine
 62
7
  6
CONTINUOUS
 10
-4.7144387549
 20
5.8676198621
 11
-4.69698369
 21
5.8763467299
  0
LWPOLYLINE
  5
8AD
100
AcDbEntity
  8
0
100
AcDbPolyline
 62
7
  6
CONTINUOUS
 90
37
 70
0
 10
-10.9510969297
 20
48.1337893297
 10
-10.9598205834
 20
48.133598996
 10
-10.9685276381
 20
48.1330283508
 10
-10.9772015223
 20
48.1320784774
 10
-10.9858257292
 20
48.1307511819
 10
-10.9943838427
 20
48.129048987
 10
-11.0028595694
 20
48.1269751283
 10
-11.0112367774
 20
48.1245335503
 10
-11.0194995214
 20
48.121728898
 10
-11.0276320685
 20
48.1185665065
 10
-11.0356189392
 20
48.1150523927
 10
-11.0434449306
 20
48.1111932436
 10
-11.0510951401
 20
48.1069964031
 10
-11.0585550057
 20
48.1024698578
 10
-11.0658103273
 20
48.0976222224
 10
-11.0728472883
 20
48.0924627243
 10
-11.0796524935
 20
48.0870011832
 10
-11.0862129889
 20
48.0812479942
 10
-11.092516281
 20
48.0752141103
 10
-11.0985503711
 20
48.0689110163
 10
-11.1043037731
 20
48.0623507095
 10
-11.109765531
 20
48.0555456811
 10
-11.1149252481
 20
48.0485088842
 10
-11.1197731031
 20
48.041253713
 10
-11.1242998653
 20
48.0337939824
 10
-11.1284969182
 20
48.0261438919
 10
-11.1323562733
 20
48.0183180035
 10
-11.1358705835
 20
48.0103312183
 10
-11.1390331598
 20
48.0021987395
 10
-11.1418379835
 20
47.9939360469
 10
-11.1442797165
 20
47.9855588725
 10
-11.1463537118
 20
47.9770831625
 10
-11.148056023
 20
47.9685250495
 10
-11.1493834123
 20
47.9599008268
 10
-11.1503333547
 20
47.9512269108
 10
-11.1509040428
 20
47.9425198105
 10
-11.1510943912
 20
47.9337960989
  0
LINE
  5
8AE
100
AcDbEntity
  8
0
100
AcDbLine
 62
253
  6
CONTINUOUS
 10
-4.9605527651
 20
46.4697593552
 11
-9.1455443649
 21
46.4697593552
  0
LINE
  5
8AF
100
AcDbEntity
  8
0
100
AcDbLine
 62
253
  6
CONTINUOUS
 10
-15.1566444176
 20
46.4697593552
 11
-19.3416360174
 21
46.4697593552
  0
LINE
  5
8B0
100
AcDbEntity
  8
0
100
AcDbLine
 62
7
  6
CONTINUOUS
 10
-1.5098149129
 20
46.5279714999
 11
-4.8952765614
 21
46.5279714999
  0
LINE
  5
8B1
100
AcDbEntity
  8
0
100
AcDbLine
 62
7
  6
CONTINUOUS
 10
-19.4069122211
 20
46.5279714999
 11
-22.7923738695
 21
46.5279714999
  0
LINE
  5
8B2
100
AcDbEntity
  8
0
100
AcDbLine
 62
7
  6
CONTINUOUS
 10
-11.1424204379
 20
46.5285850422
 11
-13.1597683446
 21
46.5285850422
  0
LINE
  5
8B3
100
AcDbEntity
  8
0
100
AcDbLine
 62
7
  6
CONTINUOUS
 10
-13.1510943912
 20
46.5337893297
 11
-11.1510943912
 21
46.5337893297
  0
LINE
  5
8B4
100
AcDbEntity
  8
0
100
AcDbLine
 62
7
  6
CONTINUOUS
 10
-1.5007137915
 20
46.5337893297
 11
-7.7010943912
 21
46.5337893297
  0
LINE
  5
8B5
100
AcDbEntity
  8
0
100
AcDbLine
 62
7
  6
CONTINUOUS
 10
-16.6010943912
 20
46.5337893297
 11
-22.801474991
 21
46.5337893297
  0
LINE
  5
8B6
100
AcDbEntity
  8
0
100
AcDbLine
 62
7
  6
CONTINUOUS
 10
-22.0518173891
 20
47.2564390605
 11
-19.6503713934
 21
47.2564390605
  0
LINE
  5
8B7
100
AcDbEntity
  8
0
100
AcDbLine
 62
7
  6
CONTINUOUS
 10
-2.2503713934
 20
47.2564390605
 11
-4.6518173891
 21
47.2564390605
  0
LINE
  5
8B8
100
AcDbEntity
  8
0
100
AcDbLine
 62
253
  6
CONTINUOUS
 10
-22.046726788
 20
47.761620546
 11
-19.6554619945
 21
47.761620546
  0
LINE
  5
8B9
100
AcDbEntity
  8
0
100
AcDbLine
 62
253
  6
CONTINUOUS
 10
-4.646726788
 20
47.761620546
 11
-2.2554619945
 21
47.761620546
  0
LINE
  5
8BA
100
AcDbEntity
  8
0
100
AcDbLine
 62
253
  6
CONTINUOUS
 10
-2.0054662252
 20
47.978126897
 11
-4.8967225572
 21
47.978126897
  0
LINE
  5
8BB
100
AcDbEntity
  8
0
100
AcDbLine
 62
253
  6
CONTINUOUS
 10
-19.4054662252
 20
47.978126897
 11
-22.2967225572
 21
47.978126897
  0
LINE
  5
8BC
100
AcDbEntity
  8
0
100
AcDbLine
 62
7
  6
CONTINUOUS
 10
-7.7447450381
 20
48.0901386828
 11
-8.6165678535
 21
48.0901386828
  0
LINE
  5
8BD
100
AcDbEntity
  8
0
100
AcDbLine
 62
7
  6
CONTINUOUS
 10
-15.685620929
 20
48.0901386828
 11
-16.5574437444
 21
48.0901386828
  0
LINE
  5
8BE
100
AcDbEntity
  8
0
100
AcDbLine
 62
7
  6
CONTINUOUS
 10
-8.616236675
 20
48.1280879847
 11
-10.9425447916
 21
48.1280879847
  0
LINE
  5
8BF
100
AcDbEntity
  8
0
100
AcDbLine
 62
7
  6
CONTINUOUS
 10
-13.3596439909
 20
48.1280879847
 11
-15.6859521075
 21
48.1280879847
  0
LINE
  5
8C0
100
AcDbEntity
  8
0
100
AcDbLine
 62
7
  6
CONTINUOUS
 10
-7.7010943912
 20
48.1337893297
 11
-10.9510969297
 21
48.1337893297
  0
LINE
  5
8C1
100
AcDbEntity
  8
0
100
AcDbLine
 62
7
  6
CONTINUOUS
 10
-13.3510918528
 20
48.1337893297
 11
-16.6010943912
 21
48.1337893297
  0
LWPOLYLINE
  5
8C2
100
AcDbEntity
  8
0
100
AcDbPolyline
 62
7
  6
CONTINUOUS
 90
9
 70
0
 10
-19.5581759419
 20
48.6158819555
 10
-19.5693244175
 20
48.620040051
 10
-19.5806581122
 20
48.6236629714
 10
-19.5921513524
 20
48.6267425114
 10
-19.6037781038
 20
48.6292716974
 10
-19.6155120251
 20
48.6312448038
 10
-19.6273265357
 20
48.6326573639
 10
-19.6391948752
 20
48.6335061794
 10
-19.6510901605
 20
48.6337893297
  0
LINE
  5
8C3
100
AcDbEntity
  8
0
100
AcDbLine
 62
7
  6
CONTINUOUS
 10
-11.1510943912
 20
46.5337893297
 11
-11.1424204379
 21
46.5285850422
  0
LINE
  5
8C4
100
AcDbEntity
  8
0
100
AcDbLine
 62
253
  6
CONTINUOUS
 10
-11.1510943912
 20
47.9337960989
 11
-11.1425270213
 21
47.9280845995
  0
LINE
  5
8C5
100
AcDbEntity
  8
0
100
AcDbLine
 62
253
  6
CONTINUOUS
 10
-10.9510969297
 20
48.1337893297
 11
-10.9425447916
 21
48.1280879847
  0
LINE
  5
8C6
100
AcDbEntity
  8
DRAFT
100
AcDbLine
 62
7
  6
CONTINUOUS
 10
-4.9558168047
 20
43.9385117432
 11
-4.8554578251
 21
43.8381527636
  0
LINE
  5
8C7
100
AcDbEntity
  8
0
100
AcDbLine
 62
7
  6
CONTINUOUS
 10
-4.7510943912
 20
43.8337893297
 11
-4.7144387549
 21
43.7971336933
  0
LINE
  5
8C8
100
AcDbEntity
  8
DRAFT
100
AcDbLine
 62
7
  6
CONTINUOUS
 10
-4.7510943912
 20
43.8337893297
 11
-4.7144387549
 21
43.7971336933
  0
LINE
  5
8C9
100
AcDbEntity
  8
RACCORDO
100
AcDbLine
 62
7
  6
CONTINUOUS
 10
-1.4308861559
 20
41.4320935765
 11
-2.0527901444
 21
42.053997565
  0
LINE
  5
8CA
100
AcDbEntity
  8
ASSI
100
AcDbLine
 62
7
  6
CONTINUOUS
 10
-1.4308861559
 20
41.4320935765
 11
-2.0527901444
 21
42.053997565
  0
LINE
  5
8CB
100
AcDbEntity
  8
DRAFT
100
AcDbLine
 62
7
  6
CONTINUOUS
 10
-4.9558168047
 20
45.1297848754
 11
-4.859821259
 21
45.0337893297
  0
LINE
  5
8CC
100
AcDbEntity
  8
0
100
AcDbLine
 62
7
  6
CONTINUOUS
 10
-8.2198431933
 20
47.6131278716
 11
-8.2854565857
 21
47.6819877609
  0
LINE
  5
8CD
100
AcDbEntity
  8
0
100
AcDbLine
 62
7
  6
CONTINUOUS
 10
-8.1980516813
 20
47.5901471444
 11
-8.2198431933
 21
47.6131278716
  0
LINE
  5
8CE
100
AcDbEntity
  8
0
100
AcDbLine
 62
7
  6
CONTINUOUS
 10
-8.2854565857
 20
47.6819877609
 11
-8.3699159551
 21
47.7710251421
  0
LINE
  5
8CF
100
AcDbEntity
  8
0
100
AcDbLine
 62
7
  6
CONTINUOUS
 10
-8.3699159551
 20
47.7710251421
 11
-8.4266135076
 21
47.831087537
  0
LINE
  5
8D0
100
AcDbEntity
  8
0
100
AcDbLine
 62
7
  6
CONTINUOUS
 10
-8.4266135076
 20
47.831087537
 11
-8.4606632328
 21
47.8673465807
  0
LINE
  5
8D1
100
AcDbEntity
  8
0
100
AcDbLine
 62
7
  6
CONTINUOUS
 10
-8.4606632328
 20
47.8673465807
 11
-8.4917342207
 21
47.9006304113
  0
LINE
  5
8D2
100
AcDbEntity
  8
0
100
AcDbLine
 62
7
  6
CONTINUOUS
 10
-8.4917342207
 20
47.9006304113
 11
-8.5199599015
 21
47.9310739872
  0
LINE
  5
8D3
100
AcDbEntity
  8
0
100
AcDbLine
 62
7
  6
CONTINUOUS
 10
-8.5199599015
 20
47.9310739872
 11
-8.5452436305
 21
47.9585943234
  0
LINE
  5
8D4
100
AcDbEntity
  8
0
100
AcDbLine
 62
7
  6
CONTINUOUS
 10
-8.5452436305
 20
47.9585943234
 11
-8.567556967
 21
47.983165454
  0
LWPOLYLINE
  5
8D5
100
AcDbEntity
  8
0
100
AcDbPolyline
 62
7
  6
CONTINUOUS
 90
6
 70
0
 10
-8.567556967
 20
47.983165454
 10
-8.5868573857
 20
48.0047218808
 10
-8.5954261426
 20
48.0144345535
 10
-8.6032978344
 20
48.0234702643
 10
-8.6104865743
 20
48.0318123138
 10
-8.6170101135
 20
48.0394607021
  0
LINE
  5
8D6
100
AcDbEntity
  8
DRAFT
100
AcDbLine
 62
7
  6
CONTINUOUS
 10
-4.5324652411
 20
3.2337893297
 11
-4.4824652411
 21
3.2837893297
  0
LINE
  5
8D7
100
AcDbEntity
  8
DRAFT
100
AcDbLine
 62
7
  6
CONTINUOUS
 10
-4.5077819316
 20
3.2337893297
 11
-4.4577819316
 21
3.2837893297
  0
LINE
  5
8D8
100
AcDbEntity
  8
0
100
AcDbLine
 62
7
  6
CONTINUOUS
 10
-3.5238907181
 20
3.2837893297
 11
-1.7089770653
 21
5.0987029825
  0
LINE
  5
8D9
100
AcDbEntity
  8
RACCORDO
100
AcDbLine
 62
7
  6
CONTINUOUS
 10
-3.5238907181
 20
3.2837893297
 11
-1.7089770653
 21
5.0987029825
  0
LINE
  5
8DA
100
AcDbEntity
  8
0
100
AcDbLine
 62
7
  6
CONTINUOUS
 10
-3.9185494562
 20
2.7286759195
 11
-4.0845248894
 21
2.5627004863
  0
LINE
  5
8DB
100
AcDbEntity
  8
RACCORDO
100
AcDbLine
 62
7
  6
CONTINUOUS
 10
-3.3510943912
 20
3.2837893297
 11
-1.5867916108
 21
5.0480921102
  0
LINE
  5
8DC
100
AcDbEntity
  8
0
100
AcDbLine
 62
7
  6
CONTINUOUS
 10
-4.8952765614
 20
1.7396071595
 11
-1.009821259
 21
5.6250624619
  0
LINE
  5
8DD
100
AcDbEntity
  8
0
100
AcDbLine
 62
7
  6
CONTINUOUS
 10
-4.0845248894
 20
3.1420810655
 11
-3.9185494562
 21
3.2250624619
  0
LINE
  5
8DE
100
AcDbEntity
  8
0
100
AcDbLine
 62
7
  6
CONTINUOUS
 10
-4.0845248894
 20
2.6800539025
 11
-3.9185494562
 21
2.7286759195
  0
LWPOLYLINE
  5
8DF
100
AcDbEntity
  8
0
100
AcDbPolyline
 62
7
  6
CONTINUOUS
 90
6
 70
0
 10
-22.0866767574
 20
48.6312448038
 10
-22.0984106787
 20
48.6292716974
 10
-22.11003743
 20
48.6267425114
 10
-22.1215306702
 20
48.6236629714
 10
-22.132864365
 20
48.620040051
 10
-22.1440128405
 20
48.6158819555
  0
LWPOLYLINE
  5
8E0
100
AcDbEntity
  8
0
100
AcDbPolyline
 62
7
  6
CONTINUOUS
 90
34
 70
0
 10
-4.646726788
 20
48.6294174957
 10
-4.6586218096
 20
48.6291339449
 10
-4.6704898862
 20
48.6282847399
 10
-4.6823041341
 20
48.6268718045
 10
-4.6940377914
 20
48.6248983393
 10
-4.7056642786
 20
48.6223688145
 10
-4.7171572592
 20
48.6192889601
 10
-4.728490699
 20
48.6156657527
 10
-4.7396389253
 20
48.6115073997
 10
-4.7505766847
 20
48.6068233206
 10
-4.7612792008
 20
48.6016241259
 10
-4.7717222301
 20
48.5959215931
 10
-4.7818821167
 20
48.5897286395
 10
-4.7917358462
 20
48.5830592937
 10
-4.8012610977
 20
48.5759286631
 10
-4.8104362943
 20
48.5683529004
 10
-4.8192406523
 20
48.5603491661
 10
-4.8276542277
 20
48.5519355907
 10
-4.8356579619
 20
48.5431312328
 10
-4.8432337247
 20
48.5339560361
 10
-4.8503643552
 20
48.5244307846
 10
-4.8570337011
 20
48.5145770551
 10
-4.8632266546
 20
48.5044171686
 10
-4.8689291875
 20
48.4939741393
 10
-4.8741283821
 20
48.4832716231
 10
-4.8788124612
 20
48.4723338637
 10
-4.8829708143
 20
48.4611856375
 10
-4.8865940217
 20
48.4498521977
 10
-4.889673876
 20
48.438359217
 10
-4.8922034008
 20
48.4267327298
 10
-4.8941768661
 20
48.4149990726
 10
-4.8955898015
 20
48.4031848247
 10
-4.8964390064
 20
48.391316748
 10
-4.8967225572
 20
48.3794217265
  0
LWPOLYLINE
  5
8E1
100
AcDbEntity
  8
0
100
AcDbPolyline
 62
7
  6
CONTINUOUS
 90
4
 70
0
 10
-4.651098622
 20
48.6337893297
 10
-4.6629939073
 20
48.6335061794
 10
-4.6748622468
 20
48.6326573639
 10
-4.6866767574
 20
48.6312448038
  0
LWPOLYLINE
  5
8E2
100
AcDbEntity
  8
0
100
AcDbPolyline
 62
7
  6
CONTINUOUS
 90
34
 70
0
 10
-22.046726788
 20
48.6294174957
 10
-22.0586022596
 20
48.629134876
 10
-22.0704560021
 20
48.6282879742
 10
-22.0822611776
 20
48.6268779783
 10
-22.0939926723
 20
48.6249070323
 10
-22.1056221075
 20
48.6223790424
 10
-22.1171180732
 20
48.6193004638
 10
-22.1284528383
 20
48.615678854
 10
-22.1396024502
 20
48.6115219996
 10
-22.1505418514
 20
48.606839226
 10
-22.1612463862
 20
48.6016410407
 10
-22.1716916396
 20
48.5959392522
 10
-22.1818537152
 20
48.5897468898
 10
-22.1917094999
 20
48.5830780526
 10
-22.2012367614
 20
48.5759477992
 10
-22.2104139747
 20
48.5683722383
 10
-22.2192203662
 20
48.5603685067
 10
-22.2276359525
 20
48.5519547551
 10
-22.2356416466
 20
48.5431500596
 10
-22.2432193032
 20
48.5339743726
 10
-22.2503517542
 20
48.5244484784
 10
-22.2570228343
 20
48.5145939623
 10
-22.2632174266
 20
48.5044331501
 10
-22.2689214919
 20
48.4939890649
 10
-22.2741220995
 20
48.4832853784
 10
-22.2788074638
 20
48.4723463449
 10
-22.2829669681
 20
48.4611967486
 10
-22.2865911852
 20
48.4498618561
 10
-22.2896719038
 20
48.438367345
 10
-22.2922021409
 20
48.4267392657
 10
-22.2941761595
 20
48.415003986
 10
-22.2955894883
 20
48.4031881037
 10
-22.2964389284
 20
48.3913183854
 10
-22.2967225572
 20
48.3794217265
  0
LWPOLYLINE
  5
8E3
100
AcDbEntity
  8
0
100
AcDbPolyline
 62
7
  6
CONTINUOUS
 90
4
 70
0
 10
-22.051098622
 20
48.6337893297
 10
-22.0629939073
 20
48.6335061794
 10
-22.0748622468
 20
48.6326573639
 10
-22.0866767574
 20
48.6312448038
  0
LINE
  5
8E4
100
AcDbEntity
  8
0
100
AcDbLine
 62
253
  6
CONTINUOUS
 10
-2.0054662252
 20
48.3794217265
 11
-4.8967225572
 21
48.3794217265
  0
LINE
  5
8E5
100
AcDbEntity
  8
0
100
AcDbLine
 62
253
  6
CONTINUOUS
 10
-19.4054662252
 20
48.3794217265
 11
-22.2967225572
 21
48.3794217265
  0
LINE
  5
8E6
100
AcDbEntity
  8
0
100
AcDbLine
 62
7
  6
CONTINUOUS
 10
-2.2554619945
 20
48.6294174957
 11
-4.646726788
 21
48.6294174957
  0
LINE
  5
8E7
100
AcDbEntity
  8
0
100
AcDbLine
 62
7
  6
CONTINUOUS
 10
-19.6554619945
 20
48.6294174957
 11
-22.046726788
 21
48.6294174957
  0
LWPOLYLINE
  5
8E8
100
AcDbEntity
  8
0
100
AcDbPolyline
 62
7
  6
CONTINUOUS
 90
37
 70
0
 10
-13.3510918528
 20
48.1337893297
 10
-13.3423681991
 20
48.133598996
 10
-13.3336611444
 20
48.1330283508
 10
-13.3249872602
 20
48.1320784774
 10
-13.3163630533
 20
48.1307511819
 10
-13.3078049398
 20
48.129048987
 10
-13.2993292131
 20
48.1269751283
 10
-13.2909520051
 20
48.1245335503
 10
-13.2826892611
 20
48.121728898
 10
-13.2745567139
 20
48.1185665065
 10
-13.2665698433
 20
48.1150523927
 10
-13.2587438519
 20
48.1111932436
 10
-13.2510936424
 20
48.1069964031
 10
-13.2436337768
 20
48.1024698578
 10
-13.2363784552
 20
48.0976222224
 10
-13.2293414942
 20
48.0924627243
 10
-13.222536289
 20
48.0870011832
 10
-13.2159757936
 20
48.0812479942
 10
-13.2096725015
 20
48.0752141103
 10
-13.2036384114
 20
48.0689110163
 10
-13.1978850093
 20
48.0623507095
 10
-13.1924232515
 20
48.0555456811
 10
-13.1872635344
 20
48.0485088842
 10
-13.1824156794
 20
48.041253713
 10
-13.1778889172
 20
48.0337939824
 10
-13.1736918643
 20
48.0261438919
 10
-13.1698325092
 20
48.0183180035
 10
-13.166318199
 20
48.0103312183
 10
-13.1631556227
 20
48.0021987395
 10
-13.160350799
 20
47.9939360469
 10
-13.157909066
 20
47.9855588725
 10
-13.1558350707
 20
47.9770831625
 10
-13.1541327595
 20
47.9685250495
 10
-13.1528053702
 20
47.9599008268
 10
-13.1518554278
 20
47.9512269108
 10
-13.1512847397
 20
47.9425198105
 10
-13.1510943912
 20
47.9337960989
  0
LINE
  5
8E9
100
AcDbEntity
  8
0
100
AcDbLine
 62
7
  6
CONTINUOUS
 10
-4.0845248894
 20
45.5875247568
 11
-3.9185494562
 21
45.5389027398
  0
LINE
  5
8EA
100
AcDbEntity
  8
0
100
AcDbLine
 62
7
  6
CONTINUOUS
 10
-4.0845248894
 20
45.1254975939
 11
-3.9185494562
 21
45.0425161975
  0
LINE
  5
8EB
100
AcDbEntity
  8
DRAFT
100
AcDbLine
 62
7
  6
CONTINUOUS
 10
-4.4824652411
 20
44.9837893297
 11
-4.5324652411
 21
45.0337893297
  0
LINE
  5
8EC
100
AcDbEntity
  8
DRAFT
100
AcDbLine
 62
7
  6
CONTINUOUS
 10
-4.4577819316
 20
44.9837893297
 11
-4.5077819316
 21
45.0337893297
  0
LINE
  5
8ED
100
AcDbEntity
  8
0
100
AcDbLine
 62
7
  6
CONTINUOUS
 10
-1.7089770653
 20
43.1688756768
 11
-3.5238907181
 21
44.9837893297
  0
LINE
  5
8EE
100
AcDbEntity
  8
RACCORDO
100
AcDbLine
 62
7
  6
CONTINUOUS
 10
-1.7089770653
 20
43.1688756768
 11
-3.5238907181
 21
44.9837893297
  0
LINE
  5
8EF
100
AcDbEntity
  8
0
100
AcDbLine
 62
7
  6
CONTINUOUS
 10
-3.9185494562
 20
45.5389027398
 11
-4.0845248894
 21
45.7048781731
  0
LINE
  5
8F0
100
AcDbEntity
  8
RACCORDO
100
AcDbLine
 62
7
  6
CONTINUOUS
 10
-1.5867916108
 20
43.2194865492
 11
-3.3510943912
 21
44.9837893297
  0
LINE
  5
8F1
100
AcDbEntity
  8
0
100
AcDbLine
 62
7
  6
CONTINUOUS
 10
-1.009821259
 20
42.6425161975
 11
-4.8952765614
 21
46.5279714999
  0
LWPOLYLINE
  5
8F2
100
AcDbEntity
  8
0
100
AcDbPolyline
 62
7
  6
CONTINUOUS
 90
18
 70
0
 10
-2.0190017655
 20
48.476707779
 10
-2.0236856191
 20
48.487645776
 10
-2.0288846224
 20
48.4983485173
 10
-2.0345869996
 20
48.508791758
 10
-2.0407798331
 20
48.5189518356
 10
-2.0474490958
 20
48.5288057348
 10
-2.0545796805
 20
48.5383311335
 10
-2.0621554324
 20
48.5475064487
 10
-2.0701591908
 20
48.5563108958
 10
-2.0785728252
 20
48.5647245302
 10
-2.0873772722
 20
48.5727282886
 10
-2.0965525874
 20
48.5803040404
 10
-2.1060779861
 20
48.5874346252
 10
-2.1159318853
 20
48.5941038878
 10
-2.126091963
 20
48.6002967213
 10
-2.1365352036
 20
48.6059990985
 10
-2.1472379449
 20
48.6111981019
 10
-2.1581759419
 20
48.6158819555
  0
LWPOLYLINE
  5
8F3
100
AcDbEntity
  8
0
100
AcDbPolyline
 62
7
  6
CONTINUOUS
 90
18
 70
0
 10
-2.1581759419
 20
-0.3483032961
 10
-2.1472379449
 20
-0.3436194425
 10
-2.1365352036
 20
-0.3384204391
 10
-2.126091963
 20
-0.332718062
 10
-2.1159318853
 20
-0.3265252284
 10
-2.1060779861
 20
-0.3198559658
 10
-2.0965525874
 20
-0.312725381
 10
-2.0873772722
 20
-0.3051496292
 10
-2.0785728252
 20
-0.2971458708
 10
-2.0701591908
 20
-0.2887322364
 10
-2.0621554324
 20
-0.2799277894
 10
-2.0545796805
 20
-0.2707524742
 10
-2.0474490958
 20
-0.2612270754
 10
-2.0407798331
 20
-0.2513731762
 10
-2.0345869996
 20
-0.2412130986
 10
-2.0288846224
 20
-0.2307698579
 10
-2.0236856191
 20
-0.2200671166
 10
-2.0190017655
 20
-0.2091291196
  0
LWPOLYLINE
  5
8F4
100
AcDbEntity
  8
0
100
AcDbPolyline
 62
7
  6
CONTINUOUS
 90
9
 70
0
 10
-2.1581759419
 20
48.6158819555
 10
-2.1693244175
 20
48.620040051
 10
-2.1806581122
 20
48.6236629714
 10
-2.1921513524
 20
48.6267425114
 10
-2.2037781038
 20
48.6292716974
 10
-2.2155120251
 20
48.6312448038
 10
-2.2273265357
 20
48.6326573639
 10
-2.2391948752
 20
48.6335061794
 10
-2.2510901605
 20
48.6337893297
  0
ARC
  5
8F5
100
AcDbEntity
  8
ASSI
100
AcDbCircle
 62
7
  6
CONTINUOUS
 10
-21.657002762
 20
5.2437893297
 40
0.71
100
AcDbArc
 50
229.7020215745
 51
265.2988538673
  0
ARC
  5
8F6
100
AcDbEntity
  8
ASSI
100
AcDbCircle
 62
7
  6
CONTINUOUS
 10
-22.4410943912
 20
6.027880959
 40
0.71
100
AcDbArc
 50
184.7020215745
 51
220.2988538673
  0
ARC
  5
8F7
100
AcDbEntity
  8
0
100
AcDbCircle
 62
7
  6
CONTINUOUS
 10
-16.1510943912
 20
0.9837893297
 40
0.5
100
AcDbArc
 50
144.3637748935
 51
215.6362251065
  0
ARC
  5
8F8
100
AcDbEntity
  8
0
100
AcDbCircle
 62
7
  6
CONTINUOUS
 10
-13.8510943912
 20
6.5837893297
 40
0.3
100
AcDbArc
 50
90.0
 51
170.0
  0
ARC
  5
8F9
100
AcDbEntity
  8
RACCORDO
100
AcDbCircle
 62
7
  6
CONTINUOUS
 10
-13.8510943912
 20
6.5837893297
 40
0.3
100
AcDbArc
 50
90.0
 51
170.0
  0
ARC
  5
8FA
100
AcDbEntity
  8
CURVE
100
AcDbCircle
 62
253
  6
CONTINUOUS
 10
-19.5769274162
 20
25.6601994912
 40
0.8
100
AcDbArc
 50
330.0
 51
48.5903778907
  0
ARC
  5
8FB
100
AcDbEntity
  8
CURVE
100
AcDbCircle
 62
253
  6
CONTINUOUS
 10
-18.3412867701
 20
24.6003918701
 40
0.8
100
AcDbArc
 50
150.0
 51
228.5903778907
  0
ARC
  5
8FC
100
AcDbEntity
  8
ASSI
100
AcDbCircle
 62
7
  6
CONTINUOUS
 10
-21.657002762
 20
43.0237893297
 40
0.71
100
AcDbArc
 50
109.9961491498
 51
114.2412807351
  0
ARC
  5
8FD
100
AcDbEntity
  8
ASSI
100
AcDbCircle
 62
7
  6
CONTINUOUS
 10
-22.4410943912
 20
42.2396977004
 40
0.71
100
AcDbArc
 50
139.7010712477
 51
175.2998279782
  0
ARC
  5
8FE
100
AcDbEntity
  8
0
100
AcDbCircle
 62
7
  6
CONTINUOUS
 10
-16.1510943912
 20
47.2837893297
 40
0.5
100
AcDbArc
 50
144.3637748935
 51
215.6362251065
  0
ARC
  5
8FF
100
AcDbEntity
  8
0
100
AcDbCircle
 62
7
  6
CONTINUOUS
 10
-13.8510943912
 20
41.6837893297
 40
0.3
100
AcDbArc
 50
189.8838085533
 51
270.0
  0
ARC
  5
900
100
AcDbEntity
  8
RACCORDO
100
AcDbCircle
 62
7
  6
CONTINUOUS
 10
-13.8510943912
 20
41.6837893297
 40
0.3
100
AcDbArc
 50
189.8838085533
 51
270.0
  0
ARC
  5
901
100
AcDbEntity
  8
ASSI
100
AcDbCircle
 62
7
  6
CONTINUOUS
 10
-1.8610943912
 20
7.427880959
 40
0.71
100
AcDbArc
 50
319.7020215745
 51
355.2988538673
  0
ARC
  5
902
100
AcDbEntity
  8
ASSI
100
AcDbCircle
 62
7
  6
CONTINUOUS
 10
-2.6451860205
 20
6.6437893297
 40
0.71
100
AcDbArc
 50
274.7020215745
 51
310.2988538673
  0
ARC
  5
903
100
AcDbEntity
  8
0
100
AcDbCircle
 62
7
  6
CONTINUOUS
 10
-8.1510943912
 20
0.9837893297
 40
0.5
100
AcDbArc
 50
324.3637748935
 51
35.6362251065
  0
ARC
  5
904
100
AcDbEntity
  8
0
100
AcDbCircle
 62
7
  6
CONTINUOUS
 10
-10.4510943912
 20
6.5837893297
 40
0.3
100
AcDbArc
 50
10.0
 51
90.0
  0
ARC
  5
905
100
AcDbEntity
  8
RACCORDO
100
AcDbCircle
 62
7
  6
CONTINUOUS
 10
-10.4510943912
 20
6.5837893297
 40
0.3
100
AcDbArc
 50
10.0
 51
90.0
  0
ARC
  5
906
100
AcDbEntity
  8
0
100
AcDbCircle
 62
7
  6
CONTINUOUS
 10
-2.9510943912
 20
41.3337893297
 40
1.4
100
AcDbArc
 50
9.8532892494
 51
90.0
  0
ARC
  5
907
100
AcDbEntity
  8
CURVE
100
AcDbCircle
 62
253
  6
CONTINUOUS
 10
-6.6510943912
 20
27.1337893297
 40
1.0
100
AcDbArc
 50
203.5781784782
 51
156.4218215218
  0
ARC
  5
908
100
AcDbEntity
  8
ASSI
100
AcDbCircle
 62
7
  6
CONTINUOUS
 10
-2.6451860205
 20
41.6237893297
 40
0.71
100
AcDbArc
 50
49.7010712477
 51
85.2998279782
  0
ARC
  5
909
100
AcDbEntity
  8
ASSI
100
AcDbCircle
 62
7
  6
CONTINUOUS
 10
-1.8610943912
 20
40.8396977004
 40
0.71
100
AcDbArc
 50
4.7001961556
 51
40.2989529286
  0
ARC
  5
90A
100
AcDbEntity
  8
0
100
AcDbCircle
 62
7
  6
CONTINUOUS
 10
-8.1510943912
 20
47.2837893297
 40
0.5
100
AcDbArc
 50
324.3637748935
 51
35.6362251065
  0
ARC
  5
90B
100
AcDbEntity
  8
0
100
AcDbCircle
 62
7
  6
CONTINUOUS
 10
-10.4510943912
 20
41.6837893297
 40
0.3
100
AcDbArc
 50
270.0
 51
350.0
  0
ARC
  5
90C
100
AcDbEntity
  8
RACCORDO
100
AcDbCircle
 62
7
  6
CONTINUOUS
 10
-10.4510943912
 20
41.6837893297
 40
0.3
100
AcDbArc
 50
270.0
 51
350.0
  0
ELLIPSE
  5
90D
100
AcDbEntity
  8
0
100
AcDbEllipse
 62
7
  6
CONTINUOUS
 10
-10.3582011724
 20
5.8981638993
 30
0.0
 11
0.5
 21
-0.0
 31
0.0
 40
0.0087268678
 41
0.7853981634
 42
1.1643384736
  0
ELLIPSE
  5
90E
100
AcDbEntity
  8
0
100
AcDbEllipse
 62
7
  6
CONTINUOUS
 10
-13.9439876101
 20
5.8981638993
 30
0.0
 11
0.5
 21
0.0
 31
0.0
 40
0.0087268678
 41
1.97725418
 42
2.3561944902
  0
ELLIPSE
  5
90F
100
AcDbEntity
  8
0
100
AcDbEllipse
 62
7
  6
CONTINUOUS
 10
-21.3007897352
 20
41.8052360123
 30
0.0
 11
1.8480888181
 21
-0.7655034529
 31
0.0
 40
0.9998215708
 41
2.7489566578
 42
3.5342286494
  0
ELLIPSE
  5
910
100
AcDbEntity
  8
0
100
AcDbEllipse
 62
7
  6
CONTINUOUS
 10
-21.3007897352
 20
6.4623426471
 30
0.0
 11
1.8480888181
 21
0.7655034529
 31
0.0
 40
0.9998215708
 41
2.7489566578
 42
3.5342286494
  0
ELLIPSE
  5
911
100
AcDbEntity
  8
0
100
AcDbEllipse
 62
7
  6
CONTINUOUS
 10
-3.0013990473
 20
6.4623426471
 30
0.0
 11
1.8480888181
 21
-0.7655034529
 31
0.0
 40
0.9998215708
 41
-0.3926359958
 42
0.3926359958
  0
ELLIPSE
  5
912
100
AcDbEntity
  8
0
100
AcDbEllipse
 62
7
  6
CONTINUOUS
 10
-3.0013990473
 20
41.8052360123
 30
0.0
 11
1.8480888181
 21
0.7655034529
 31
0.0
 40
0.9998215708
 41
-0.3926359958
 42
0.3926359958
  0
ELLIPSE
  5
913
100
AcDbEntity
  8
0
100
AcDbEllipse
 62
7
  6
CONTINUOUS
 10
-2.8849439628
 20
6.3676389013
 30
0.0
 11
0.3535803156
 21
-0.3535803156
 31
0.0
 40
0.9999238505
 41
-0.7853600872
 42
-0.2962124934
  0
ELLIPSE
  5
914
100
AcDbEntity
  8
0
100
AcDbEllipse
 62
7
  6
CONTINUOUS
 10
-21.1786042807
 20
41.7546251399
 30
0.0
 11
1.8480888181
 21
-0.7655034529
 31
0.0
 40
0.9998215708
 41
9.032141965
 42
9.2322752141
  0
ELLIPSE
  5
915
100
AcDbEntity
  8
0
100
AcDbEllipse
 62
7
  6
CONTINUOUS
 10
-21.1786042807
 20
41.7546251399
 30
0.0
 11
1.8480888181
 21
-0.7655034529
 31
0.0
 40
0.9998215708
 41
3.4204543746
 42
3.5342286494
  0
ELLIPSE
  5
916
100
AcDbEntity
  8
0
100
AcDbEllipse
 62
7
  6
CONTINUOUS
 10
-21.1786042807
 20
6.5129535195
 30
0.0
 11
-1.8480888181
 21
-0.7655034529
 31
0.0
 40
0.9998215708
 41
-0.3926359958
 42
-0.278861721
  0
ELLIPSE
  5
917
100
AcDbEntity
  8
0
100
AcDbEllipse
 62
7
  6
CONTINUOUS
 10
-21.1786042807
 20
6.5129535195
 30
0.0
 11
-1.8480888181
 21
-0.7655034529
 31
0.0
 40
0.9998215708
 41
6.4756880539
 42
6.675821303
  0
ELLIPSE
  5
918
100
AcDbEntity
  8
0
100
AcDbEllipse
 62
7
  6
CONTINUOUS
 10
-3.1235845018
 20
6.5129535195
 30
0.0
 11
-1.8480888181
 21
0.7655034529
 31
0.0
 40
0.9998215708
 41
2.7489566578
 42
3.5342286494
  0
ELLIPSE
  5
919
100
AcDbEntity
  8
0
100
AcDbEllipse
 62
7
  6
CONTINUOUS
 10
-3.1235845018
 20
41.7546251399
 30
0.0
 11
1.8480888181
 21
0.7655034529
 31
0.0
 40
0.9998215708
 41
-0.3926359958
 42
0.3926359958
  0
ELLIPSE
  5
91A
100
AcDbEntity
  8
RACCORDO
100
AcDbEllipse
 62
7
  6
CONTINUOUS
 10
-2.8849439628
 20
6.3676389013
 30
0.0
 11
0.3535803156
 21
-0.3535803156
 31
0.0
 40
0.9999238505
 41
-0.7853600872
 42
-0.2962124934
  0
ELLIPSE
  5
91B
100
AcDbEntity
  8
RACCORDO
100
AcDbEllipse
 62
7
  6
CONTINUOUS
 10
-10.3582011724
 20
5.8981638993
 30
0.0
 11
0.5
 21
-0.0
 31
0.0
 40
0.0087268678
 41
0.7853981634
 42
1.1643384736
  0
ELLIPSE
  5
91C
100
AcDbEntity
  8
RACCORDO
100
AcDbEllipse
 62
7
  6
CONTINUOUS
 10
-13.9439876101
 20
5.8981638993
 30
0.0
 11
0.5
 21
0.0
 31
0.0
 40
0.0087268678
 41
1.97725418
 42
2.3561944902
  0
ELLIPSE
  5
91D
100
AcDbEntity
  8
RACCORDO
100
AcDbEllipse
 62
7
  6
CONTINUOUS
 10
-3.0013990473
 20
41.8052360123
 30
0.0
 11
1.8480888181
 21
0.7655034529
 31
0.0
 40
0.9998215708
 41
-0.3926359958
 42
0.3926359958
  0
ELLIPSE
  5
91E
100
AcDbEntity
  8
RACCORDO
100
AcDbEllipse
 62
7
  6
CONTINUOUS
 10
-3.0013990473
 20
6.4623426471
 30
0.0
 11
1.8480888181
 21
-0.7655034529
 31
0.0
 40
0.9998215708
 41
-0.3926359958
 42
0.3926359958
  0
ELLIPSE
  5
91F
100
AcDbEntity
  8
RACCORDO
100
AcDbEllipse
 62
7
  6
CONTINUOUS
 10
-21.3007897352
 20
6.4623426471
 30
0.0
 11
1.8480888181
 21
0.7655034529
 31
0.0
 40
0.9998215708
 41
2.7489566578
 42
3.5342286494
  0
ELLIPSE
  5
920
100
AcDbEntity
  8
RACCORDO
100
AcDbEllipse
 62
7
  6
CONTINUOUS
 10
-21.3007897352
 20
41.8052360123
 30
0.0
 11
1.8480888181
 21
-0.7655034529
 31
0.0
 40
0.9998215708
 41
2.7489566578
 42
3.5342286494
  0
ELLIPSE
  5
921
100
AcDbEntity
  8
0
100
AcDbEllipse
 62
7
  6
CONTINUOUS
 10
-14.1510182272
 20
-117.7418531063
 30
0.0
 11
-0.4997620717
 21
162.4815824859
 31
0.0
 40
0.000109066
 41
6.3643762205
 42
6.3764914216
  0
ELLIPSE
  5
922
100
AcDbEntity
  8
0
100
AcDbEllipse
 62
7
  6
CONTINUOUS
 10
-14.1510182272
 20
166.0094317657
 30
0.0
 11
0.4997620717
 21
162.4815824859
 31
0.0
 40
0.000109066
 41
-3.234898768
 42
-3.2227835669
  0
ELLIPSE
  5
923
100
AcDbEntity
  8
0
100
AcDbEllipse
 62
7
  6
CONTINUOUS
 10
-10.1511705553
 20
-117.7418531063
 30
0.0
 11
0.4997620717
 21
162.4815824859
 31
0.0
 40
0.000109066
 41
-0.0933061144
 42
-0.0811909133
  0
ELLIPSE
  5
924
100
AcDbEntity
  8
0
100
AcDbEllipse
 62
7
  6
CONTINUOUS
 10
-10.1511705553
 20
166.0094317657
 30
0.0
 11
-0.4997620717
 21
162.4815824859
 31
0.0
 40
0.000109066
 41
3.2227835669
 42
3.234898768
  0
ELLIPSE
  5
925
100
AcDbEntity
  8
RACCORDO
100
AcDbEllipse
 62
7
  6
CONTINUOUS
 10
-3.1235845018
 20
41.7546251399
 30
0.0
 11
1.8480888181
 21
0.7655034529
 31
0.0
 40
0.9998215708
 41
-0.3926359958
 42
0.3926359958
  0
ELLIPSE
  5
926
100
AcDbEntity
  8
RACCORDO
100
AcDbEllipse
 62
7
  6
CONTINUOUS
 10
-3.1235845018
 20
6.5129535195
 30
0.0
 11
-1.8480888181
 21
0.7655034529
 31
0.0
 40
0.9998215708
 41
2.7489566578
 42
3.5342286494
  0
ELLIPSE
  5
927
100
AcDbEntity
  8
RACCORDO
100
AcDbEllipse
 62
7
  6
CONTINUOUS
 10
-21.1786042807
 20
6.5129535195
 30
0.0
 11
-1.8480888181
 21
-0.7655034529
 31
0.0
 40
0.9998215708
 41
-0.3926359958
 42
-0.278861721
  0
ELLIPSE
  5
928
100
AcDbEntity
  8
RACCORDO
100
AcDbEllipse
 62
7
  6
CONTINUOUS
 10
-21.1786042807
 20
6.5129535195
 30
0.0
 11
-1.8480888181
 21
-0.7655034529
 31
0.0
 40
0.9998215708
 41
6.4756880539
 42
6.675821303
  0
ELLIPSE
  5
929
100
AcDbEntity
  8
RACCORDO
100
AcDbEllipse
 62
7
  6
CONTINUOUS
 10
-21.1786042807
 20
41.7546251399
 30
0.0
 11
1.8480888181
 21
-0.7655034529
 31
0.0
 40
0.9998215708
 41
9.032141965
 42
9.2322752141
  0
ELLIPSE
  5
92A
100
AcDbEntity
  8
RACCORDO
100
AcDbEllipse
 62
7
  6
CONTINUOUS
 10
-21.1786042807
 20
41.7546251399
 30
0.0
 11
1.8480888181
 21
-0.7655034529
 31
0.0
 40
0.9998215708
 41
3.4204543746
 42
3.5342286494
  0
ELLIPSE
  5
92B
100
AcDbEntity
  8
0
100
AcDbEllipse
 62
7
  6
CONTINUOUS
 10
-14.6510943912
 20
46.4924830395
 30
0.0
 11
1.0205840068
 21
0.0
 31
0.0
 40
0.0058178298
 41
-3.1415418822
 42
-2.0892111528
  0
ELLIPSE
  5
92C
100
AcDbEntity
  8
0
100
AcDbEllipse
 62
7
  6
CONTINUOUS
 10
-9.6510943912
 20
46.4924830395
 30
0.0
 11
1.0205840068
 21
-0.0
 31
0.0
 40
0.0058178298
 41
5.2308038064
 42
6.2831345357
  0
ELLIPSE
  5
92D
100
AcDbEntity
  8
0
100
AcDbEllipse
 62
7
  6
CONTINUOUS
 10
-9.6510943912
 20
1.7750956199
 30
0.0
 11
1.0205840068
 21
-0.0
 31
0.0
 40
0.0058178298
 41
0.0000507714
 42
1.0523815008
  0
ELLIPSE
  5
92E
100
AcDbEntity
  8
DRAFT
100
AcDbEllipse
 62
7
  6
CONTINUOUS
 10
-14.6510943912
 20
44.195750756
 30
0.0
 11
1.0005407263
 21
0.0
 31
0.0
 40
0.0087268678
 41
1.5707963268
 42
3.1416688118
  0
ELLIPSE
  5
92F
100
AcDbEntity
  8
DRAFT
100
AcDbEllipse
 62
7
  6
CONTINUOUS
 10
-14.6510943912
 20
4.0718279034
 30
0.0
 11
1.0005407263
 21
-0.0
 31
0.0
 40
0.0087268678
 41
3.1415164954
 42
4.7123889804
  0
ELLIPSE
  5
930
100
AcDbEntity
  8
0
100
AcDbEllipse
 62
7
  6
CONTINUOUS
 10
-14.6510943912
 20
1.7750956199
 30
0.0
 11
1.0205840068
 21
0.0
 31
0.0
 40
0.0058178298
 41
2.0892111528
 42
3.1415418822
  0
ELLIPSE
  5
931
100
AcDbEntity
  8
DRAFT
100
AcDbEllipse
 62
7
  6
CONTINUOUS
 10
-9.6510943912
 20
4.0718279034
 30
0.0
 11
1.0005407263
 21
0.0
 31
0.0
 40
0.0087268678
 41
-1.5707963268
 42
0.0000761582
  0
ELLIPSE
  5
932
100
AcDbEntity
  8
DRAFT
100
AcDbEllipse
 62
7
  6
CONTINUOUS
 10
-12.1510943912
 20
3.9339540255
 30
0.0
 11
14.9982560202
 21
-0.0
 31
0.0
 40
0.0087268678
 41
1.4072992552
 42
1.7342933984
  0
ELLIPSE
  5
933
100
AcDbEntity
  8
DRAFT
100
AcDbEllipse
 62
7
  6
CONTINUOUS
 10
-12.1510943912
 20
44.3336246339
 30
0.0
 11
14.9982560202
 21
-0.0
 31
0.0
 40
0.0087268678
 41
-1.7342933984
 42
-1.4072992552
  0
ELLIPSE
  5
934
100
AcDbEntity
  8
DRAFT
100
AcDbEllipse
 62
7
  6
CONTINUOUS
 10
-9.6510943912
 20
44.195750756
 30
0.0
 11
1.0005407263
 21
0.0
 31
0.0
 40
0.0087268678
 41
-0.0000761582
 42
1.5707963268
  0
ELLIPSE
  5
935
100
AcDbEntity
  8
0
100
AcDbEllipse
 62
7
  6
CONTINUOUS
 10
-16.1041371012
 20
46.4898824166
 30
0.0
 11
0.4530427099
 21
0.0
 31
0.0
 40
0.0058178298
 41
-3.1357748894
 42
-0.3023808704
  0
ELLIPSE
  5
936
100
AcDbEntity
  8
0
100
AcDbEllipse
 62
7
  6
CONTINUOUS
 10
-8.1980516813
 20
46.4898824166
 30
0.0
 11
0.4530427099
 21
-0.0
 31
0.0
 40
0.0058178298
 41
-2.8392117832
 42
-0.0058177642
  0
ELLIPSE
  5
937
100
AcDbEntity
  8
0
100
AcDbEllipse
 62
7
  6
CONTINUOUS
 10
-8.1980516813
 20
1.7776962428
 30
0.0
 11
0.4530427099
 21
0.0
 31
0.0
 40
0.0058178298
 41
0.0058177642
 42
2.8392117832
  0
ELLIPSE
  5
938
100
AcDbEntity
  8
0
100
AcDbEllipse
 62
7
  6
CONTINUOUS
 10
-16.1041371012
 20
1.7776962428
 30
0.0
 11
0.4530427099
 21
0.0
 31
0.0
 40
0.0058178298
 41
0.3023808704
 42
3.1357748894
  0
ELLIPSE
  5
939
100
AcDbEntity
  8
0
100
AcDbEllipse
 62
7
  6
CONTINUOUS
 10
-3.9604978878
 20
2.797802381
 30
0.0
 11
1.0000571192
 21
0.9999809595
 31
0.0
 40
0.0061705924
 41
1.9467387334
 42
3.1419458735
  0
ELLIPSE
  5
93A
100
AcDbEntity
  8
0
100
AcDbEllipse
 62
7
  6
CONTINUOUS
 10
-20.3416908947
 20
2.797802381
 30
0.0
 11
1.0000571192
 21
-0.9999809595
 31
0.0
 40
0.0061705924
 41
-0.0003532199
 42
1.1948539202
  0
ELLIPSE
  5
93B
100
AcDbEntity
  8
0
100
AcDbEllipse
 62
7
  6
CONTINUOUS
 10
-20.3416908947
 20
45.4697762783
 30
0.0
 11
1.0000571192
 21
0.9999809595
 31
0.0
 40
0.0061705924
 41
-1.1948539202
 42
0.0003532199
  0
ELLIPSE
  5
93C
100
AcDbEntity
  8
0
100
AcDbEllipse
 62
7
  6
CONTINUOUS
 10
-3.9604978878
 20
45.4697762783
 30
0.0
 11
1.0000571192
 21
-0.9999809595
 31
0.0
 40
0.0061705924
 41
3.1412394337
 42
4.3364465738
  0
ELLIPSE
  5
93D
100
AcDbEntity
  8
0
100
AcDbEllipse
 62
7
  6
CONTINUOUS
 10
-22.0510901604
 20
0.7224644643
 30
0.0
 11
-0.0029088041
 21
0.2886641433
 31
0.0
 40
0.8660144118
 41
-0.0087264124
 42
1.5591610446
  0
ELLIPSE
  5
93E
100
AcDbEntity
  8
0
100
AcDbEllipse
 62
7
  6
CONTINUOUS
 10
-19.6510986221
 20
0.7224644643
 30
0.0
 11
0.0029088041
 21
0.2886641433
 31
0.0
 40
0.8660144118
 41
-1.5591610446
 42
0.0087264124
  0
ELLIPSE
  5
93F
100
AcDbEntity
  8
0
100
AcDbEllipse
 62
7
  6
CONTINUOUS
 10
-4.6510901604
 20
0.7224644643
 30
0.0
 11
-0.0029088041
 21
0.2886641433
 31
0.0
 40
0.8660144118
 41
-0.0087264124
 42
1.5591610446
  0
ELLIPSE
  5
940
100
AcDbEntity
  8
0
100
AcDbEllipse
 62
7
  6
CONTINUOUS
 10
-2.2510986221
 20
0.7224644643
 30
0.0
 11
0.0029088041
 21
0.2886641433
 31
0.0
 40
0.8660144118
 41
-1.5591610446
 42
0.0087264124
  0
ELLIPSE
  5
941
100
AcDbEntity
  8
0
100
AcDbEllipse
 62
7
  6
CONTINUOUS
 10
-22.0510901604
 20
47.5451141951
 30
0.0
 11
0.0029088041
 21
0.2886641433
 31
0.0
 40
0.8660144118
 41
-4.7007536982
 42
-3.1328662412
  0
ELLIPSE
  5
942
100
AcDbEntity
  8
0
100
AcDbEllipse
 62
7
  6
CONTINUOUS
 10
-19.6510986221
 20
47.5451141951
 30
0.0
 11
-0.0029088041
 21
0.2886641433
 31
0.0
 40
0.8660144118
 41
-3.150319066
 42
-1.582431609
  0
ELLIPSE
  5
943
100
AcDbEntity
  8
0
100
AcDbEllipse
 62
7
  6
CONTINUOUS
 10
-2.2510986221
 20
47.5451141951
 30
0.0
 11
-0.0029088041
 21
0.2886641433
 31
0.0
 40
0.8660144118
 41
-3.150319066
 42
-1.582431609
  0
ELLIPSE
  5
944
100
AcDbEntity
  8
0
100
AcDbEllipse
 62
7
  6
CONTINUOUS
 10
-4.6510901604
 20
47.5451141951
 30
0.0
 11
0.0029088041
 21
0.2886641433
 31
0.0
 40
0.8660144118
 41
-4.7007536982
 42
-3.1328662412
  0
ELLIPSE
  5
945
100
AcDbEntity
  8
0
100
AcDbEllipse
 62
7
  6
CONTINUOUS
 10
-22.7923484843
 20
2.2396156212
 30
0.0
 11
0.4160498344
 21
0.2773626446
 31
0.0
 40
0.9999450019
 41
2.5536219432
 42
4.1243675013
  0
ELLIPSE
  5
946
100
AcDbEntity
  8
0
100
AcDbEllipse
 62
7
  6
CONTINUOUS
 10
-22.7923484843
 20
46.0279630382
 30
0.0
 11
-0.4160498344
 21
0.2773626446
 31
0.0
 40
0.9999450019
 41
-0.9827748477
 42
0.5879707104
  0
ELLIPSE
  5
947
100
AcDbEntity
  8
0
100
AcDbEllipse
 62
7
  6
CONTINUOUS
 10
-1.5098402982
 20
46.0279630382
 30
0.0
 11
-0.4160498344
 21
-0.2773626446
 31
0.0
 40
0.9999450019
 41
2.5536219432
 42
4.1243675013
  0
ELLIPSE
  5
948
100
AcDbEntity
  8
0
100
AcDbEllipse
 62
7
  6
CONTINUOUS
 10
-1.5098402982
 20
2.2396156212
 30
0.0
 11
0.4160498344
 21
-0.2773626446
 31
0.0
 40
0.9999450019
 41
-0.9827748477
 42
0.5879707104
  0
ELLIPSE
  5
949
100
AcDbEntity
  8
0
100
AcDbEllipse
 62
7
  6
CONTINUOUS
 10
-19.7177400455
 20
46.0875563002
 30
0.0
 11
0.4999904798
 21
0.5000285596
 31
0.0
 40
0.0061705924
 41
-3.1303103451
 42
-2.1029719701
  0
ELLIPSE
  5
94A
100
AcDbEntity
  8
0
100
AcDbEllipse
 62
7
  6
CONTINUOUS
 10
-4.584448737
 20
46.0875563002
 30
0.0
 11
-0.4999904798
 21
0.5000285596
 31
0.0
 40
0.0061705924
 41
-4.1802133371
 42
-3.1528749621
  0
ELLIPSE
  5
94B
100
AcDbEntity
  8
0
100
AcDbEllipse
 62
7
  6
CONTINUOUS
 10
-4.584448737
 20
2.1800223592
 30
0.0
 11
0.4999904798
 21
0.5000285596
 31
0.0
 40
0.0061705924
 41
0.0112823085
 42
1.0386206835
  0
ELLIPSE
  5
94C
100
AcDbEntity
  8
0
100
AcDbEllipse
 62
7
  6
CONTINUOUS
 10
-19.7177400455
 20
2.1800223592
 30
0.0
 11
-0.4999904798
 21
0.5000285596
 31
0.0
 40
0.0061705924
 41
-1.0386206835
 42
-0.0112823085
  0
ELLIPSE
  5
94D
100
AcDbEntity
  8
0
100
AcDbEllipse
 62
7
  6
CONTINUOUS
 10
-19.7177400455
 20
45.1254214415
 30
0.0
 11
0.5
 21
0.0
 31
0.0
 40
0.0087268678
 41
1.5707963268
 42
3.1241393611
  0
ELLIPSE
  5
94E
100
AcDbEntity
  8
0
100
AcDbEllipse
 62
7
  6
CONTINUOUS
 10
-4.584448737
 20
45.1254214415
 30
0.0
 11
0.5
 21
0.0
 31
0.0
 40
0.0087268678
 41
0.0174532925
 42
1.5707963268
  0
ELLIPSE
  5
94F
100
AcDbEntity
  8
0
100
AcDbEllipse
 62
7
  6
CONTINUOUS
 10
-4.584448737
 20
3.1421572179
 30
0.0
 11
0.5
 21
0.0
 31
0.0
 40
0.0087268678
 41
-1.5707963268
 42
-0.0174532925
  0
ELLIPSE
  5
950
100
AcDbEntity
  8
0
100
AcDbEllipse
 62
7
  6
CONTINUOUS
 10
-19.7177400455
 20
3.1421572179
 30
0.0
 11
0.5
 21
-0.0
 31
0.0
 40
0.0087268678
 41
-3.1241393611
 42
-1.5707963268
  0
ELLIPSE
  5
951
100
AcDbEntity
  8
0
100
AcDbEllipse
 62
7
  6
CONTINUOUS
 10
-10.9425194048
 20
0.3395042143
 30
0.0
 11
0.1243375101
 21
0.1566832125
 31
0.0
 40
0.9998696711
 41
-4.0415999955
 42
-2.4708544373
  0
ELLIPSE
  5
952
100
AcDbEntity
  8
0
100
AcDbEllipse
 62
7
  6
CONTINUOUS
 10
-13.3596693777
 20
0.3395042143
 30
0.0
 11
-0.1243375101
 21
0.1566832125
 31
0.0
 40
0.9998696711
 41
-3.8123308699
 42
-2.2415853117
  0
ELLIPSE
  5
953
100
AcDbEntity
  8
0
100
AcDbEllipse
 62
7
  6
CONTINUOUS
 10
-13.3596693777
 20
47.928074445
 30
0.0
 11
0.1243375101
 21
0.1566832125
 31
0.0
 40
0.9998696711
 41
-0.9000073419
 42
0.6707382162
  0
ELLIPSE
  5
954
100
AcDbEntity
  8
0
100
AcDbEllipse
 62
7
  6
CONTINUOUS
 10
-10.9425194048
 20
47.928074445
 30
0.0
 11
-0.1243375101
 21
0.1566832125
 31
0.0
 40
0.9998696711
 41
-0.6707382163
 42
0.9000073419
  0
ELLIPSE
  5
955
100
AcDbEntity
  8
RACCORDO
100
AcDbEllipse
 62
7
  6
CONTINUOUS
 10
-10.468516504
 20
41.7337893297
 30
0.0
 11
-0.3000114235
 21
0.0
 31
0.0
 40
0.9999619231
 41
1.5707963268
 42
2.80137059
  0
ELLIPSE
  5
956
100
AcDbEntity
  8
RACCORDO
100
AcDbEllipse
 62
7
  6
CONTINUOUS
 10
-1.4380155131
 20
27.5837893297
 30
0.0
 11
-0.3000114235
 21
0.0
 31
0.0
 40
0.9999619231
 41
1.5707963268
 42
3.1415926536
  0
ELLIPSE
  5
957
100
AcDbEntity
  8
RACCORDO
100
AcDbEllipse
 62
7
  6
CONTINUOUS
 10
-1.4380155131
 20
22.5837893297
 30
0.0
 11
-0.3000114235
 21
0.0
 31
0.0
 40
0.9999619231
 41
1.5707963268
 42
3.1415926536
  0
ELLIPSE
  5
958
100
AcDbEntity
  8
RACCORDO
100
AcDbEllipse
 62
7
  6
CONTINUOUS
 10
-1.4380155131
 20
17.5837893297
 30
0.0
 11
-0.3000114235
 21
0.0
 31
0.0
 40
0.9999619231
 41
1.5707963268
 42
3.1415926536
  0
ELLIPSE
  5
959
100
AcDbEntity
  8
RACCORDO
100
AcDbEllipse
 62
7
  6
CONTINUOUS
 10
-1.4380155131
 20
12.5837893297
 30
0.0
 11
-0.3000114235
 21
0.0
 31
0.0
 40
0.9999619231
 41
1.5707963268
 42
3.1415926536
  0
ELLIPSE
  5
95A
100
AcDbEntity
  8
DRAFT
100
AcDbEllipse
 62
7
  6
CONTINUOUS
 10
-2.3096417692
 20
25.1337893297
 30
0.0
 11
0.0
 21
2.15
 31
0.0
 40
0.0087268678
 41
3.1415926536
 42
6.2831853072
  0
ELLIPSE
  5
95B
100
AcDbEntity
  8
DRAFT
100
AcDbEllipse
 62
7
  6
CONTINUOUS
 10
-2.3096417692
 20
10.1337893297
 30
0.0
 11
0.0
 21
2.15
 31
0.0
 40
0.0087268678
 41
3.1415926536
 42
6.2831853072
  0
ELLIPSE
  5
95C
100
AcDbEntity
  8
RACCORDO
100
AcDbEllipse
 62
7
  6
CONTINUOUS
 10
-8.4380155131
 20
4.8207104515
 30
0.0
 11
-0.2121481893
 21
0.2121481893
 31
0.0
 40
0.9999238505
 41
2.3562325664
 42
3.9269527408
  0
ELLIPSE
  5
95D
100
AcDbEntity
  8
RACCORDO
100
AcDbEllipse
 62
7
  6
CONTINUOUS
 10
-21.5422872368
 20
5.5207371064
 30
0.0
 11
-0.3827005044
 21
-0.9239207481
 31
0.0
 40
0.9999553905
 41
-0.3926833098
 42
0.3926833098
  0
ELLIPSE
  5
95E
100
AcDbEntity
  8
RACCORDO
100
AcDbEllipse
 62
7
  6
CONTINUOUS
 10
-22.1641466145
 20
6.1425964841
 30
0.0
 11
-0.9239207481
 21
-0.3827005044
 31
0.0
 40
0.9999553905
 41
-0.3926833098
 42
0.3926833098
  0
ELLIPSE
  5
95F
100
AcDbEntity
  8
RACCORDO
100
AcDbEllipse
 62
7
  6
CONTINUOUS
 10
-22.1641466145
 20
42.1249821752
 30
0.0
 11
-0.9239207481
 21
0.3827005044
 31
0.0
 40
0.9999553905
 41
-0.3926833098
 42
0.3926833098
  0
ELLIPSE
  5
960
100
AcDbEntity
  8
RACCORDO
100
AcDbEllipse
 62
7
  6
CONTINUOUS
 10
-21.5422872368
 20
42.746841553
 30
0.0
 11
0.3827005044
 21
-0.9239207481
 31
0.0
 40
0.9999553905
 41
2.7489093438
 42
3.5342759634
  0
ELLIPSE
  5
961
100
AcDbEntity
  8
RACCORDO
100
AcDbEllipse
 62
7
  6
CONTINUOUS
 10
-8.4380155131
 20
43.4468682079
 30
0.0
 11
0.2121481893
 21
0.2121481893
 31
0.0
 40
0.9999238505
 41
-0.7853600872
 42
0.7853600872
  0
ELLIPSE
  5
962
100
AcDbEntity
  8
RACCORDO
100
AcDbEllipse
 62
7
  6
CONTINUOUS
 10
-2.7599015457
 20
41.346841553
 30
0.0
 11
0.3827005044
 21
0.9239207481
 31
0.0
 40
0.9999553905
 41
-0.3926833098
 42
0.3926833098
  0
ELLIPSE
  5
963
100
AcDbEntity
  8
RACCORDO
100
AcDbEllipse
 62
7
  6
CONTINUOUS
 10
-2.1380421679
 20
40.7249821752
 30
0.0
 11
-0.9239207481
 21
-0.3827005044
 31
0.0
 40
0.9999553905
 41
2.7489093438
 42
3.5342759634
  0
ELLIPSE
  5
964
100
AcDbEntity
  8
DRAFT
100
AcDbEllipse
 62
7
  6
CONTINUOUS
 10
-2.3096417692
 20
15.1337893297
 30
0.0
 11
0.0
 21
2.15
 31
0.0
 40
0.0087268678
 41
3.1415926536
 42
6.2831853072
  0
ELLIPSE
  5
965
100
AcDbEntity
  8
RACCORDO
100
AcDbEllipse
 62
7
  6
CONTINUOUS
 10
-1.4380155131
 20
22.6837893297
 30
0.0
 11
0.3000114235
 21
-0.0
 31
0.0
 40
0.9999619231
 41
0.0
 42
1.5707963268
  0
ELLIPSE
  5
966
100
AcDbEntity
  8
DRAFT
100
AcDbEllipse
 62
7
  6
CONTINUOUS
 10
-2.3096417692
 20
20.1337893297
 30
0.0
 11
0.0
 21
2.15
 31
0.0
 40
0.0087268678
 41
3.1415926536
 42
6.2831853072
  0
ELLIPSE
  5
967
100
AcDbEntity
  8
RACCORDO
100
AcDbEllipse
 62
7
  6
CONTINUOUS
 10
-1.4380155131
 20
17.6837893297
 30
0.0
 11
0.3000114235
 21
-0.0
 31
0.0
 40
0.9999619231
 41
0.0
 42
1.5707963268
  0
ELLIPSE
  5
968
100
AcDbEntity
  8
RACCORDO
100
AcDbEllipse
 62
7
  6
CONTINUOUS
 10
-1.4380155131
 20
12.6837893297
 30
0.0
 11
0.3000114235
 21
-0.0
 31
0.0
 40
0.9999619231
 41
0.0
 42
1.5707963268
  0
ELLIPSE
  5
969
100
AcDbEntity
  8
RACCORDO
100
AcDbEllipse
 62
7
  6
CONTINUOUS
 10
-1.4380155131
 20
7.6837893297
 30
0.0
 11
0.3000114235
 21
-0.0
 31
0.0
 40
0.9999619231
 41
0.0
 42
1.5707963268
  0
ELLIPSE
  5
96A
100
AcDbEntity
  8
RACCORDO
100
AcDbEllipse
 62
7
  6
CONTINUOUS
 10
-2.1380421679
 20
7.5425964841
 30
0.0
 11
0.9239207481
 21
-0.3827005044
 31
0.0
 40
0.9999553905
 41
-0.3926833098
 42
0.3926833098
  0
ELLIPSE
  5
96B
100
AcDbEntity
  8
RACCORDO
100
AcDbEllipse
 62
7
  6
CONTINUOUS
 10
-2.7599015457
 20
6.9207371064
 30
0.0
 11
0.3827005044
 21
-0.9239207481
 31
0.0
 40
0.9999553905
 41
-0.3926833098
 42
0.3926833098
  0
ELLIPSE
  5
96C
100
AcDbEntity
  8
RACCORDO
100
AcDbEllipse
 62
7
  6
CONTINUOUS
 10
-7.837992666
 20
5.6206876045
 30
0.0
 11
0.2121481893
 21
-0.2121481893
 31
0.0
 40
0.9999238505
 41
2.3562325664
 42
3.9269527408
  0
ELLIPSE
  5
96D
100
AcDbEntity
  8
RACCORDO
100
AcDbEllipse
 62
7
  6
CONTINUOUS
 10
-13.8336722785
 20
41.7337893297
 30
0.0
 11
-0.3000114235
 21
0.0
 31
0.0
 40
0.9999619231
 41
0.3402220636
 42
1.5707963268
  0
ELLIPSE
  5
96E
100
AcDbEntity
  8
RACCORDO
100
AcDbEllipse
 62
7
  6
CONTINUOUS
 10
-13.755087422
 20
6.5337893297
 30
0.0
 11
0.3000114235
 21
-0.0
 31
0.0
 40
0.9999619231
 41
1.5707963268
 42
2.80137059
  0
ELLIPSE
  5
96F
100
AcDbEntity
  8
RACCORDO
100
AcDbEllipse
 62
7
  6
CONTINUOUS
 10
-10.5471013605
 20
6.5337893297
 30
0.0
 11
0.3000114235
 21
-0.0
 31
0.0
 40
0.9999619231
 41
0.3402220636
 42
1.5707963268
  0
ELLIPSE
  5
970
100
AcDbEntity
  8
ASSI
100
AcDbEllipse
 62
7
  6
CONTINUOUS
 10
-8.4380155131
 20
4.8207104515
 30
0.0
 11
-0.2121481893
 21
0.2121481893
 31
0.0
 40
0.9999238505
 41
2.3562325664
 42
3.9269527408
  0
ELLIPSE
  5
971
100
AcDbEntity
  8
ASSI
100
AcDbEllipse
 62
7
  6
CONTINUOUS
 10
-21.5422872368
 20
5.5207371064
 30
0.0
 11
-0.3827005044
 21
-0.9239207481
 31
0.0
 40
0.9999553905
 41
-0.3926833098
 42
0.3926833098
  0
ELLIPSE
  5
972
100
AcDbEntity
  8
ASSI
100
AcDbEllipse
 62
7
  6
CONTINUOUS
 10
-22.1641466145
 20
6.1425964841
 30
0.0
 11
-0.9239207481
 21
-0.3827005044
 31
0.0
 40
0.9999553905
 41
-0.3926833098
 42
0.3926833098
  0
ELLIPSE
  5
973
100
AcDbEntity
  8
ASSI
100
AcDbEllipse
 62
7
  6
CONTINUOUS
 10
-22.1641466145
 20
42.1249821752
 30
0.0
 11
-0.9239207481
 21
0.3827005044
 31
0.0
 40
0.9999553905
 41
-0.3926833098
 42
0.3926833098
  0
ELLIPSE
  5
974
100
AcDbEntity
  8
ASSI
100
AcDbEllipse
 62
7
  6
CONTINUOUS
 10
-21.5422872368
 20
42.746841553
 30
0.0
 11
0.3827005044
 21
-0.9239207481
 31
0.0
 40
0.9999553905
 41
2.7489093438
 42
3.5342759634
  0
ELLIPSE
  5
975
100
AcDbEntity
  8
ASSI
100
AcDbEllipse
 62
7
  6
CONTINUOUS
 10
-8.4380155131
 20
43.4468682079
 30
0.0
 11
0.2121481893
 21
0.2121481893
 31
0.0
 40
0.9999238505
 41
-0.7853600872
 42
0.7853600872
  0
ELLIPSE
  5
976
100
AcDbEntity
  8
ASSI
100
AcDbEllipse
 62
7
  6
CONTINUOUS
 10
-2.7599015457
 20
41.346841553
 30
0.0
 11
0.3827005044
 21
0.9239207481
 31
0.0
 40
0.9999553905
 41
-0.3926833098
 42
0.3926833098
  0
ELLIPSE
  5
977
100
AcDbEntity
  8
ASSI
100
AcDbEllipse
 62
7
  6
CONTINUOUS
 10
-2.1380421679
 20
40.7249821752
 30
0.0
 11
-0.9239207481
 21
-0.3827005044
 31
0.0
 40
0.9999553905
 41
2.7489093438
 42
3.5342759634
  0
ELLIPSE
  5
978
100
AcDbEntity
  8
ASSI
100
AcDbEllipse
 62
7
  6
CONTINUOUS
 10
-1.4380155131
 20
22.6837893297
 30
0.0
 11
0.3000114235
 21
-0.0
 31
0.0
 40
0.9999619231
 41
0.0
 42
1.5707963268
  0
ELLIPSE
  5
979
100
AcDbEntity
  8
ASSI
100
AcDbEllipse
 62
7
  6
CONTINUOUS
 10
-1.4380155131
 20
17.6837893297
 30
0.0
 11
0.3000114235
 21
-0.0
 31
0.0
 40
0.9999619231
 41
0.0
 42
1.5707963268
  0
ELLIPSE
  5
97A
100
AcDbEntity
  8
ASSI
100
AcDbEllipse
 62
7
  6
CONTINUOUS
 10
-1.4380155131
 20
12.6837893297
 30
0.0
 11
0.3000114235
 21
-0.0
 31
0.0
 40
0.9999619231
 41
0.0
 42
1.5707963268
  0
ELLIPSE
  5
97B
100
AcDbEntity
  8
ASSI
100
AcDbEllipse
 62
7
  6
CONTINUOUS
 10
-1.4380155131
 20
7.6837893297
 30
0.0
 11
0.3000114235
 21
-0.0
 31
0.0
 40
0.9999619231
 41
0.0
 42
1.5707963268
  0
ELLIPSE
  5
97C
100
AcDbEntity
  8
ASSI
100
AcDbEllipse
 62
7
  6
CONTINUOUS
 10
-2.1380421679
 20
7.5425964841
 30
0.0
 11
0.9239207481
 21
-0.3827005044
 31
0.0
 40
0.9999553905
 41
-0.3926833098
 42
0.3926833098
  0
ELLIPSE
  5
97D
100
AcDbEntity
  8
ASSI
100
AcDbEllipse
 62
7
  6
CONTINUOUS
 10
-2.7599015457
 20
6.9207371064
 30
0.0
 11
0.3827005044
 21
-0.9239207481
 31
0.0
 40
0.9999553905
 41
-0.3926833098
 42
0.3926833098
  0
ELLIPSE
  5
97E
100
AcDbEntity
  8
ASSI
100
AcDbEllipse
 62
7
  6
CONTINUOUS
 10
-13.8336722785
 20
41.7337893297
 30
0.0
 11
-0.3000114235
 21
0.0
 31
0.0
 40
0.9999619231
 41
0.3402220636
 42
1.5707963268
  0
ELLIPSE
  5
97F
100
AcDbEntity
  8
ASSI
100
AcDbEllipse
 62
7
  6
CONTINUOUS
 10
-13.755087422
 20
6.5337893297
 30
0.0
 11
0.3000114235
 21
-0.0
 31
0.0
 40
0.9999619231
 41
1.5707963268
 42
2.80137059
  0
ELLIPSE
  5
980
100
AcDbEntity
  8
ASSI
100
AcDbEllipse
 62
7
  6
CONTINUOUS
 10
-10.5471013605
 20
6.5337893297
 30
0.0
 11
0.3000114235
 21
-0.0
 31
0.0
 40
0.9999619231
 41
0.3402220636
 42
1.5707963268
  0
ELLIPSE
  5
981
100
AcDbEntity
  8
ASSI
100
AcDbEllipse
 62
7
  6
CONTINUOUS
 10
-10.468516504
 20
41.7337893297
 30
0.0
 11
-0.3000114235
 21
0.0
 31
0.0
 40
0.9999619231
 41
1.5707963268
 42
2.80137059
  0
ELLIPSE
  5
982
100
AcDbEntity
  8
ASSI
100
AcDbEllipse
 62
7
  6
CONTINUOUS
 10
-1.4380155131
 20
27.5837893297
 30
0.0
 11
-0.3000114235
 21
0.0
 31
0.0
 40
0.9999619231
 41
1.5707963268
 42
3.1415926536
  0
ELLIPSE
  5
983
100
AcDbEntity
  8
ASSI
100
AcDbEllipse
 62
7
  6
CONTINUOUS
 10
-1.4380155131
 20
22.5837893297
 30
0.0
 11
-0.3000114235
 21
0.0
 31
0.0
 40
0.9999619231
 41
1.5707963268
 42
3.1415926536
  0
ELLIPSE
  5
984
100
AcDbEntity
  8
ASSI
100
AcDbEllipse
 62
7
  6
CONTINUOUS
 10
-1.4380155131
 20
17.5837893297
 30
0.0
 11
-0.3000114235
 21
0.0
 31
0.0
 40
0.9999619231
 41
1.5707963268
 42
3.1415926536
  0
ELLIPSE
  5
985
100
AcDbEntity
  8
ASSI
100
AcDbEllipse
 62
7
  6
CONTINUOUS
 10
-1.4380155131
 20
12.5837893297
 30
0.0
 11
-0.3000114235
 21
0.0
 31
0.0
 40
0.9999619231
 41
1.5707963268
 42
3.1415926536
  0
ELLIPSE
  5
986
100
AcDbEntity
  8
ASSI
100
AcDbEllipse
 62
7
  6
CONTINUOUS
 10
-2.3096417692
 20
25.1337893297
 30
0.0
 11
0.0
 21
2.15
 31
0.0
 40
0.0087268678
 41
3.1415926536
 42
6.2831853072
  0
ELLIPSE
  5
987
100
AcDbEntity
  8
ASSI
100
AcDbEllipse
 62
7
  6
CONTINUOUS
 10
-2.3096417692
 20
10.1337893297
 30
0.0
 11
0.0
 21
2.15
 31
0.0
 40
0.0087268678
 41
3.1415926536
 42
6.2831853072
  0
ELLIPSE
  5
988
100
AcDbEntity
  8
ASSI
100
AcDbEllipse
 62
7
  6
CONTINUOUS
 10
-2.3096417692
 20
15.1337893297
 30
0.0
 11
0.0
 21
2.15
 31
0.0
 40
0.0087268678
 41
3.1415926536
 42
6.2831853072
  0
ELLIPSE
  5
989
100
AcDbEntity
  8
ASSI
100
AcDbEllipse
 62
7
  6
CONTINUOUS
 10
-2.3096417692
 20
20.1337893297
 30
0.0
 11
0.0
 21
2.15
 31
0.0
 40
0.0087268678
 41
3.1415926536
 42
6.2831853072
  0
ELLIPSE
  5
98A
100
AcDbEntity
  8
ASSI
100
AcDbEllipse
 62
7
  6
CONTINUOUS
 10
-7.837992666
 20
5.6206876045
 30
0.0
 11
0.2121481893
 21
-0.2121481893
 31
0.0
 40
0.9999238505
 41
2.3562325664
 42
3.9269527408
  0
ENDSEC
  0
SECTION
  2
OBJECTS
  0
DICTIONARY
  5
C
100
AcDbDictionary
280
0
281
1
  3
ACAD_GROUP
350
D
  3
ACAD_MLINESTYLE
350
17
  3
ACAD_LAYOUT
350
1A
  3
ACAD_PLOTSETTINGS
350
19
  3
ACAD_PLOTSTYLENAME
350
E
  0
DICTIONARY
  5
D
102
{ACAD_REACTORS
330
C
102
}
100
AcDbDictionary
280
0
281
1
  0
ACDBDICTIONARYWDFLT
  5
E
102
{ACAD_REACTORS
330
C
102
}
100
AcDbDictionary
281
1
  3
Normal
350
F
100
AcDbDictionaryWithDefault
340
F
  0
DICTIONARY
  5
17
102
{ACAD_REACTORS
330
C
102
}
100
AcDbDictionary
280
0
281
1
  3
Standard
350
18
  0
DICTIONARY
  5
19
102
{ACAD_REACTORS
330
C
102
}
100
AcDbDictionary
281
1
  0
DICTIONARY
  5
1A
102
{ACAD_REACTORS
330
C
102
}
100
AcDbDictionary
281
1
  3
Model
350
98B
  3
Layout1
350
98C
  0
ACDBPLACEHOLDER
  5
F
102
{ACAD_REACTORS
330
E
102
}
  0
MLINESTYLE
  5
18
102
{ACAD_REACTORS
330
17
102
}
100
AcDbMlineStyle
  2
STANDARD
 70
0
  3

 62
256
 51
90.0
 52
90.0
 71
2
 49
0.5
 62
256
  6
BYLAYER
 49
-0.5
 62
256
  6
BYLAYER
  0
LAYOUT
  5
98B
102
{ACAD_REACTORS
330
1A
102
}
100
AcDbPlotSettings
  1

  2
none_device
  4
ISO_A4_(297.00_x_210.00_MM)
  6

 40
0.0
 41
0.0
 42
0.0
 43
0.0
 44
297.0
 45
210.0
 46
0.0
 47
0.0
 48
0.0
 49
0.0
140
0.0
141
0.0
142
1.0
143
1.0
 70
1024
 72
1
 73
0
 74
0
  7

 75
0
147
1.0
148
0.0
149
0.0
100
AcDbLayout
  1
Model
 70
0
 71
0
 10
0.0
 20
0.0
 11
297.0
 21
210.0
 12
0.0
 22
0.0
 32
0.0
 14
0.0
 24
0.0
 34
0.0
 15
0.0
 25
0.0
 35
0.0
146
0.0
 13
0.0
 23
0.0
 33
0.0
 16
1.0
 26
0.0
 36
0.0
 17
0.0
 27
1.0
 37
0.0
 76
0
330
229
345
0
346
0
  0
LAYOUT
  5
98C
102
{ACAD_REACTORS
330
1A
102
}
100
AcDbPlotSettings
  1

  2
none_device
  4
ISO_A4_(297.00_x_210.00_MM)
  6

 40
0.0
 41
0.0
 42
0.0
 43
0.0
 44
297.0
 45
210.0
 46
0.0
 47
0.0
 48
0.0
 49
0.0
140
0.0
141
0.0
142
1.0
143
1.0
 70
0
 72
1
 73
0
 74
0
  7

 75
0
147
1.0
148
0.0
149
0.0
100
AcDbLayout
  1
Layout1
 70
0
 71
1
 10
0.0
 20
0.0
 11
297.0
 21
210.0
 12
0.0
 22
0.0
 32
0.0
 14
0.0
 24
0.0
 34
0.0
 15
0.0
 25
0.0
 35
0.0
146
0.0
 13
0.0
 23
0.0
 33
0.0
 16
1.0
 26
0.0
 36
0.0
 17
0.0
 27
1.0
 37
0.0
 76
0
330
22A
345
0
346
0
  0
ENDSEC
  0
EOF
