  0
SECTION
  2
HEADER
  9
$ACADVER
  1
AC1015
  9
$DWGCODEPAGE
  3
ANSI_1252
  9
$EXTMAX
 10
297.0
 20
210.0
 30
0.0
  9
$EXTMIN
 10
0.0
 20
0.0
 30
0.0
  9
$LIMMIN
 10
0.0
 20
0.0
  9
$LIMMAX
 10
297.0
 20
210.0
  9
$VIEWCTR
 10
148.5
 20
105.0
  9
$VIEWSIZE
 40
210.0
  9
$CLAYER
  8
0
  9
$LTSCALE
 40
16.335
  9
$CELTYPE
  6
BYLAYER
  9
$DIMSCALE
 40
1.0
  9
$DIMASZ
 40
3.0
  9
$DIMEXO
 40
0.5
  9
$DIMDLI
 40
11.286
  9
$DIMEXE
 40
1.5
  9
$DIMCEN
 40
2.673
  9
$DIMLFAC
 40
1.0
  9
$DIMBLK
  1
_FILLED
  9
$DIMTXT
 40
3.0
  9
$DIMTOL
 70
1
  9
$DIMLIM
 70
0
  9
$DIMTFAC
 40
1.0
  9
$DIMTP
 40
0.01
  9
$DIMTM
 40
0.01
  9
$DIMGAP
 40
0.625
  9
$DIMDSEP
 70
44
  9
$PDMODE
 70
3
  9
$PDSIZE
 40
3.0
  9
$HANDSEED
  5
98A
  9
$TILEMODE
 70
1
  9
$MEASUREMENT
 70
1
  9
$INSUNITS
 70
4
  0
ENDSEC
  0
SECTION
  2
CLASSES
  0
CLASS
  1
ACDBDICTIONARYWDFLT
  2
AcDbDictionaryWithDefault
  3
AutoCAD 2000
 90
0
280
0
281
0
  0
CLASS
  1
ACDBPLACEHOLDER
  2
AcDbPlaceHolder
  3
AutoCAD 2000
 90
0
280
0
281
0
  0
CLASS
  1
LAYOUT
  2
AcDbLayout
  3
AutoCAD 2000
 90
0
280
0
281
0
  0
ENDSEC
  0
SECTION
  2
TABLES
  0
TABLE
  2
VPORT
  5
8
100
AcDbSymbolTable
 70
2
  0
VPORT
  5
1F4
100
AcDbSymbolTableRecord
100
AcDbViewportTableRecord
  2
*ACTIVE
 70
0
 10
0.0
 20
0.0
 11
1.0
 21
1.0
 12
148.5
 22
105.0
 13
0.0
 23
0.0
 14
1.0
 24
1.0
 15
0.0
 25
0.0
 16
0.0
 26
0.0
 36
1.0
 17
0.0
 27
0.0
 37
0.0
 40
210.0
 41
1.4142857143
 42
50.0
 43
0.0
 44
0.0
 50
0.0
 51
0.0
 71
0
 72
100
 73
1
 74
1
 75
0
 76
0
 77
0
 78
0
  0
ENDTAB
  0
TABLE
  2
LTYPE
  5
5
100
AcDbSymbolTable
 70
6
  0
LTYPE
  5
14
100
AcDbSymbolTableRecord
100
AcDbLinetypeTableRecord
  2
BYBLOCK
 70
0
  3

 72
65
 73
0
 40
0.0
  0
LTYPE
  5
15
100
AcDbSymbolTableRecord
100
AcDbLinetypeTableRecord
  2
BYLAYER
 70
0
  3

 72
65
 73
0
 40
0.0
  0
LTYPE
  5
16
100
AcDbSymbolTableRecord
100
AcDbLinetypeTableRecord
  2
CONTINUOUS
 70
64
  3
Solid line
 72
65
 73
0
 40
0.0
  0
LTYPE
  5
1F5
100
AcDbSymbolTableRecord
100
AcDbLinetypeTableRecord
  2
CENTER
 70
64
  3
____ _ ____ _ ____ _ ____ _ ____ _ ____ _ ____
 72
65
 73
4
 40
0.6
 49
0.375
 74
0
 49
-0.075
 74
0
 49
0.075
 74
0
 49
-0.075
 74
0
  0
LTYPE
  5
1F6
100
AcDbSymbolTableRecord
100
AcDbLinetypeTableRecord
  2
HIDDEN
 70
64
  3
- - - - - - - - - - - - - - - - - - - -
 72
65
 73
2
 40
0.2
 49
0.1
 74
0
 49
-0.1
 74
0
  0
LTYPE
  5
1F7
100
AcDbSymbolTableRecord
100
AcDbLinetypeTableRecord
  2
PHANTOM
 70
64
  3
_____ _ _ _____ _ _ _____ _ _ _____
 72
65
 73
6
 40
0.8
 49
0.45
 74
0
 49
-0.05
 74
0
 49
0.1
 74
0
 49
-0.05
 74
0
 49
0.1
 74
0
 49
-0.05
 74
0
  0
LTYPE
  5
1F8
100
AcDbSymbolTableRecord
100
AcDbLinetypeTableRecord
  2
DOT
 70
64
  3
. . . . . . . . . . . . . . . . . . . .
 72
65
 73
2
 40
0.2
 49
0.1
 74
0
 49
-0.1
 74
0
  0
LTYPE
  5
1F9
100
AcDbSymbolTableRecord
100
AcDbLinetypeTableRecord
  2
DASHED
 70
64
  3
- - - - - - - - - - - - - - - - - - - -
 72
65
 73
2
 40
0.2
 49
0.1
 74
0
 49
-0.1
 74
0
  0
ENDTAB
  0
TABLE
  2
LAYER
  5
2
100
AcDbSymbolTable
 70
36
  0
LAYER
  5
10
100
AcDbSymbolTableRecord
100
AcDbLayerTableRecord
  2
0
 70
0
 62
7
  6
CONTINUOUS
370
-3
390
F
  0
LAYER
  5
1FA
100
AcDbSymbolTableRecord
100
AcDbLayerTableRecord
  2
DEFAULT_1
 70
0
 62
7
  6
CENTER
370
-3
390
F
  0
LAYER
  5
1FB
100
AcDbSymbolTableRecord
100
AcDbLayerTableRecord
  2
DEFAULT_2
 70
0
 62
7
  6
HIDDEN
370
-3
390
F
  0
LAYER
  5
1FC
100
AcDbSymbolTableRecord
100
AcDbLayerTableRecord
  2
DEFAULT_3
 70
0
 62
7
  6
PHANTOM
370
-3
390
F
  0
LAYER
  5
1FD
100
AcDbSymbolTableRecord
100
AcDbLayerTableRecord
  2
ASSI
 70
0
 62
7
  6
CONTINUOUS
370
-3
390
F
  0
LAYER
  5
1FE
100
AcDbSymbolTableRecord
100
AcDbLayerTableRecord
  2
COORDINATE
 70
0
 62
7
  6
CONTINUOUS
370
-3
390
F
  0
LAYER
  5
1FF
100
AcDbSymbolTableRecord
100
AcDbLayerTableRecord
  2
COORD_ORIGINE
 70
0
 62
7
  6
CONTINUOUS
370
-3
390
F
  0
LAYER
  5
200
100
AcDbSymbolTableRecord
100
AcDbLayerTableRecord
  2
COPY
 70
0
 62
7
  6
CONTINUOUS
370
-3
390
F
  0
LAYER
  5
201
100
AcDbSymbolTableRecord
100
AcDbLayerTableRecord
  2
COPY_PUBLISH
 70
0
 62
7
  6
CONTINUOUS
370
-3
390
F
  0
LAYER
  5
202
100
AcDbSymbolTableRecord
100
AcDbLayerTableRecord
  2
COSMETICI
 70
0
 62
7
  6
CONTINUOUS
370
-3
390
F
  0
LAYER
  5
203
100
AcDbSymbolTableRecord
100
AcDbLayerTableRecord
  2
CURVE
 70
0
 62
7
  6
CONTINUOUS
370
-3
390
F
  0
LAYER
  5
204
100
AcDbSymbolTableRecord
100
AcDbLayerTableRecord
  2
DRAFT
 70
0
 62
7
  6
CONTINUOUS
370
-3
390
F
  0
LAYER
  5
205
100
AcDbSymbolTableRecord
100
AcDbLayerTableRecord
  2
IMPORT_IGES
 70
0
 62
7
  6
CONTINUOUS
370
-3
390
F
  0
LAYER
  5
206
100
AcDbSymbolTableRecord
100
AcDbLayerTableRecord
  2
INTFCLR_2
 70
0
 62
7
  6
CONTINUOUS
370
-3
390
F
  0
LAYER
  5
207
100
AcDbSymbolTableRecord
100
AcDbLayerTableRecord
  2
INTF_1
 70
0
 62
7
  6
CONTINUOUS
370
-3
390
F
  0
LAYER
  5
208
100
AcDbSymbolTableRecord
100
AcDbLayerTableRecord
  2
NOTE
 70
0
 62
7
  6
CONTINUOUS
370
-3
390
F
  0
LAYER
  5
209
100
AcDbSymbolTableRecord
100
AcDbLayerTableRecord
  2
PIANI
 70
0
 62
7
  6
CONTINUOUS
370
-3
390
F
  0
LAYER
  5
20A
100
AcDbSymbolTableRecord
100
AcDbLayerTableRecord
  2
PIANI_ORIGINE
 70
0
 62
7
  6
CONTINUOUS
370
-3
390
F
  0
LAYER
  5
20B
100
AcDbSymbolTableRecord
100
AcDbLayerTableRecord
  2
PIANI_RIFERIMENTO
 70
0
 62
7
  6
CONTINUOUS
370
-3
390
F
  0
LAYER
  5
20C
100
AcDbSymbolTableRecord
100
AcDbLayerTableRecord
  2
PIANI_SFORMO
 70
0
 62
7
  6
CONTINUOUS
370
-3
390
F
  0
LAYER
  5
20D
100
AcDbSymbolTableRecord
100
AcDbLayerTableRecord
  2
PUNTI
 70
0
 62
7
  6
CONTINUOUS
370
-3
390
F
  0
LAYER
  5
20E
100
AcDbSymbolTableRecord
100
AcDbLayerTableRecord
  2
RACCORDO
 70
0
 62
7
  6
CONTINUOUS
370
-3
390
F
  0
LAYER
  5
20F
100
AcDbSymbolTableRecord
100
AcDbLayerTableRecord
  2
SIMBOLI
 70
0
 62
7
  6
CONTINUOUS
370
-3
390
F
  0
LAYER
  5
210
100
AcDbSymbolTableRecord
100
AcDbLayerTableRecord
  2
SMUSSO
 70
0
 62
7
  6
CONTINUOUS
370
-3
390
F
  0
LAYER
  5
211
100
AcDbSymbolTableRecord
100
AcDbLayerTableRecord
  2
SNAPLINE
 70
0
 62
7
  6
CONTINUOUS
370
-3
390
F
  0
LAYER
  5
212
100
AcDbSymbolTableRecord
100
AcDbLayerTableRecord
  2
SUPERFICI
 70
0
 62
7
  6
CONTINUOUS
370
-3
390
F
  0
LAYER
  5
213
100
AcDbSymbolTableRecord
100
AcDbLayerTableRecord
  2
TRASH
 70
0
 62
7
  6
CONTINUOUS
370
-3
390
F
  0
LAYER
  5
214
100
AcDbSymbolTableRecord
100
AcDbLayerTableRecord
  2
XSEC_DATUMS
 70
0
 62
7
  6
CONTINUOUS
370
-3
390
F
  0
ENDTAB
  0
TABLE
  2
STYLE
  5
3
100
AcDbSymbolTable
 70
1
  0
STYLE
  5
11
100
AcDbSymbolTableRecord
100
AcDbTextStyleTableRecord
  2
STANDARD
 70
0
 40
0.0
 41
0.8
 50
0.0
 71
0
 42
0.2
  3
txt
  4

  0
STYLE
  5
215
100
AcDbSymbolTableRecord
100
AcDbTextStyleTableRecord
  2
TEXTSTYLE_1
 70
0
 40
0.0
 41
0.8
 50
0.0
 71
0
 42
0.2
  3
gdt
  4

  0
ENDTAB
  0
TABLE
  2
VIEW
  5
6
100
AcDbSymbolTable
 70
0
  0
ENDTAB
  0
TABLE
  2
UCS
  5
7
100
AcDbSymbolTable
 70
0
  0
ENDTAB
  0
TABLE
  2
APPID
  5
9
100
AcDbSymbolTable
 70
1
  0
APPID
  5
216
100
AcDbSymbolTableRecord
100
AcDbRegAppTableRecord
  2
ACAD
 70
0
  0
ENDTAB
  0
TABLE
  2
BLOCK_RECORD
  5
1
100
AcDbSymbolTable
 70
0
  0
BLOCK_RECORD
  5
217
100
AcDbSymbolTableRecord
100
AcDbBlockTableRecord
  2
*Model_Space
  0
BLOCK_RECORD
  5
218
100
AcDbSymbolTableRecord
100
AcDbBlockTableRecord
  2
*Paper_Space
  0
ENDTAB
  0
TABLE
  2
DIMSTYLE
  5
A
100
AcDbSymbolTable
 70
1
100
AcDbDimStyleTable
 71
0
  0
DIMSTYLE
105
219
100
AcDbSymbolTableRecord
100
AcDbDimStyleTableRecord
  2
STANDARD
 70
0
  3

  4

 40
1.0
 41
3.0
 42
0.5
 43
0.38
 44
1.5
 45
0.0
 46
0.0
 47
0.01
 48
0.01
140
3.0
141
0.09
142
0.0
143
25.4
144
1.0
145
0.0
146
1.0
147
0.625
 71
1.0
 72
0.0
 73
0
 74
0
 75
0
 76
0
 77
1
 78
8
170
0
171
2
172
0
173
0
174
0
175
0
176
0
177
0
178
0
270
2
271
2
272
2
273
2
274
2
275
0
280
0
281
0
282
0
283
1
284
8
285
0
286
0
287
3
288
0
340
11
278
44
  0
ENDTAB
  0
ENDSEC
  0
SECTION
  2
BLOCKS
  0
BLOCK
  5
20
100
AcDbEntity
  8
0
100
AcDbBlockBegin
  2
*Model_Space
 70
0
 10
0.0
 20
0.0
 30
0.0
  3
*Model_Space
  1

  0
ENDBLK
  5
21
100
AcDbEntity
  8
0
100
AcDbBlockEnd
  0
BLOCK
  5
1C
100
AcDbEntity
  8
0
100
AcDbBlockBegin
  2
*Paper_Space
 70
0
 10
0.0
 20
0.0
 30
0.0
  3
*Paper_Space
  1

  0
ENDBLK
  5
1D
100
AcDbEntity
  8
0
100
AcDbBlockEnd
  0
ENDSEC
  0
SECTION
  2
ENTITIES
  0
LWPOLYLINE
  5
21A
100
AcDbEntity
  8
0
100
AcDbPolyline
 62
7
  6
CONTINUOUS
 90
18
 70
0
 10
-21.7759388575
 20
46.7389089523
 10
-21.7868768545
 20
46.7342250987
 10
-21.7975795958
 20
46.7290260954
 10
-21.8080228364
 20
46.7233237182
 10
-21.8181829141
 20
46.7171308847
 10
-21.8280368133
 20
46.710461622
 10
-21.837562212
 20
46.7033310372
 10
-21.8467375272
 20
46.6957552854
 10
-21.8555419742
 20
46.687751527
 10
-21.8639556086
 20
46.6793378926
 10
-21.871959367
 20
46.6705334456
 10
-21.8795351189
 20
46.6613581304
 10
-21.8866657036
 20
46.6518327316
 10
-21.8933349663
 20
46.6419788324
 10
-21.8995277998
 20
46.6318187548
 10
-21.905230177
 20
46.6213755141
 10
-21.9104291803
 20
46.6106727728
 10
-21.9151130339
 20
46.5997347758
  0
LWPOLYLINE
  5
21B
100
AcDbEntity
  8
0
100
AcDbPolyline
 62
7
  6
CONTINUOUS
 90
6
 70
0
 10
-1.847438042
 20
-2.2406391476
 10
-1.8357041207
 20
-2.2386660412
 10
-1.8240773694
 20
-2.2361368552
 10
-1.8125841292
 20
-2.2330573152
 10
-1.8012504344
 20
-2.2294343948
 10
-1.7901019589
 20
-2.2252762992
  0
LWPOLYLINE
  5
21C
100
AcDbEntity
  8
0
100
AcDbPolyline
 62
7
  6
CONTINUOUS
 90
9
 70
0
 10
-21.7759388575
 20
-2.2252762992
 10
-21.7647903819
 20
-2.2294343948
 10
-21.7534566872
 20
-2.2330573152
 10
-21.741963447
 20
-2.2361368552
 10
-21.7303366956
 20
-2.2386660412
 10
-21.7186027743
 20
-2.2406391476
 10
-21.7067882637
 20
-2.2420517077
 10
-21.6949199242
 20
-2.2429005232
 10
-21.6830246389
 20
-2.2431836735
  0
LWPOLYLINE
  5
21D
100
AcDbEntity
  8
0
100
AcDbPolyline
 62
7
  6
CONTINUOUS
 90
4
 70
0
 10
-1.8830161774
 20
-2.2431836735
 10
-1.8711208921
 20
-2.2429005232
 10
-1.8592525526
 20
-2.2420517077
 10
-1.847438042
 20
-2.2406391476
  0
LWPOLYLINE
  5
21E
100
AcDbEntity
  8
0
100
AcDbPolyline
 62
7
  6
CONTINUOUS
 90
34
 70
0
 10
-1.8873880114
 20
-2.2388118395
 10
-1.8755125398
 20
-2.2385292198
 10
-1.8636587973
 20
-2.237682318
 10
-1.8518536218
 20
-2.236272322
 10
-1.8401221271
 20
-2.2343013761
 10
-1.8284926919
 20
-2.2317733862
 10
-1.8169967263
 20
-2.2286948075
 10
-1.8056619612
 20
-2.2250731978
 10
-1.7945123492
 20
-2.2209163434
 10
-1.783572948
 20
-2.2162335698
 10
-1.7728684132
 20
-2.2110353845
 10
-1.7624231598
 20
-2.205333596
 10
-1.7522610842
 20
-2.1991412336
 10
-1.7424052995
 20
-2.1924723963
 10
-1.732878038
 20
-2.185342143
 10
-1.7237008247
 20
-2.1777665821
 10
-1.7148944332
 20
-2.1697628505
 10
-1.7064788469
 20
-2.1613490989
 10
-1.6984731528
 20
-2.1525444034
 10
-1.6908954963
 20
-2.1433687164
 10
-1.6837630452
 20
-2.1338428221
 10
-1.6770919651
 20
-2.123988306
 10
-1.6708973728
 20
-2.1138274939
 10
-1.6651933076
 20
-2.1033834087
 10
-1.6599926999
 20
-2.0926797222
 10
-1.6553073356
 20
-2.0817406887
 10
-1.6511478313
 20
-2.0705910924
 10
-1.6475236142
 20
-2.0592561999
 10
-1.6444428956
 20
-2.0477616888
 10
-1.6419126586
 20
-2.0361336095
 10
-1.63993864
 20
-2.0243983298
 10
-1.6385253111
 20
-2.0125824474
 10
-1.637675871
 20
-2.0007127292
 10
-1.6373922422
 20
-1.9888160703
  0
LWPOLYLINE
  5
21F
100
AcDbEntity
  8
0
100
AcDbPolyline
 62
7
  6
CONTINUOUS
 90
4
 70
0
 10
-19.2830161774
 20
-2.2431836735
 10
-19.2711208921
 20
-2.2429005232
 10
-19.2592525526
 20
-2.2420517077
 10
-19.247438042
 20
-2.2406391476
  0
LWPOLYLINE
  5
220
100
AcDbEntity
  8
0
100
AcDbPolyline
 62
7
  6
CONTINUOUS
 90
34
 70
0
 10
-19.2873880114
 20
-2.2388118395
 10
-19.2755125398
 20
-2.2385292198
 10
-19.2636587973
 20
-2.237682318
 10
-19.2518536218
 20
-2.236272322
 10
-19.2401221271
 20
-2.2343013761
 10
-19.2284926919
 20
-2.2317733862
 10
-19.2169967263
 20
-2.2286948075
 10
-19.2056619612
 20
-2.2250731978
 10
-19.1945123492
 20
-2.2209163434
 10
-19.183572948
 20
-2.2162335698
 10
-19.1728684132
 20
-2.2110353845
 10
-19.1624231598
 20
-2.205333596
 10
-19.1522610842
 20
-2.1991412336
 10
-19.1424052995
 20
-2.1924723963
 10
-19.132878038
 20
-2.185342143
 10
-19.1237008247
 20
-2.1777665821
 10
-19.1148944332
 20
-2.1697628505
 10
-19.1064788469
 20
-2.1613490989
 10
-19.0984731528
 20
-2.1525444034
 10
-19.0908954963
 20
-2.1433687164
 10
-19.0837630452
 20
-2.1338428221
 10
-19.0770919651
 20
-2.123988306
 10
-19.0708973728
 20
-2.1138274939
 10
-19.0651933076
 20
-2.1033834087
 10
-19.0599926999
 20
-2.0926797222
 10
-19.0553073356
 20
-2.0817406887
 10
-19.0511478313
 20
-2.0705910924
 10
-19.0475236142
 20
-2.0592561999
 10
-19.0444428956
 20
-2.0477616888
 10
-19.0419126586
 20
-2.0361336095
 10
-19.03993864
 20
-2.0243983298
 10
-19.0385253111
 20
-2.0125824474
 10
-19.037675871
 20
-2.0007127292
 10
-19.0373922422
 20
-1.9888160703
  0
LWPOLYLINE
  5
221
100
AcDbEntity
  8
0
100
AcDbPolyline
 62
7
  6
CONTINUOUS
 90
37
 70
0
 10
-12.9830178697
 20
-1.7431836735
 10
-12.974294216
 20
-1.7429933398
 10
-12.9655871613
 20
-1.7424226946
 10
-12.9569132771
 20
-1.7414728212
 10
-12.9482890703
 20
-1.7401455257
 10
-12.9397309568
 20
-1.7384433308
 10
-12.93125523
 20
-1.7363694721
 10
-12.922878022
 20
-1.7339278941
 10
-12.914615278
 20
-1.7311232418
 10
-12.9064827309
 20
-1.7279608503
 10
-12.8984958602
 20
-1.7244467365
 10
-12.8906698688
 20
-1.7205875874
 10
-12.8830196593
 20
-1.7163907469
 10
-12.8755597937
 20
-1.7118642016
 10
-12.8683044721
 20
-1.7070165661
 10
-12.8612675112
 20
-1.7018570681
 10
-12.8544623059
 20
-1.696395527
 10
-12.8479018105
 20
-1.690642338
 10
-12.8415985184
 20
-1.6846084541
 10
-12.8355644283
 20
-1.6783053601
 10
-12.8298110263
 20
-1.6717450533
 10
-12.8243492684
 20
-1.6649400249
 10
-12.8191895513
 20
-1.657903228
 10
-12.8143416963
 20
-1.6506480568
 10
-12.8098149341
 20
-1.6431883262
 10
-12.8056178813
 20
-1.6355382357
 10
-12.8017585261
 20
-1.6277123473
 10
-12.7982442159
 20
-1.6197255621
 10
-12.7950816396
 20
-1.6115930833
 10
-12.7922768159
 20
-1.6033303907
 10
-12.789835083
 20
-1.5949532163
 10
-12.7877610876
 20
-1.5864775062
 10
-12.7860587764
 20
-1.5779193933
 10
-12.7847313871
 20
-1.5692951705
 10
-12.7837814447
 20
-1.5606212546
 10
-12.7832107566
 20
-1.5519141543
 10
-12.7830204082
 20
-1.5431904427
  0
LINE
  5
222
100
AcDbEntity
  8
0
100
AcDbLine
 62
7
  6
CONTINUOUS
 10
-21.6786528049
 20
-2.2388118395
 11
-19.2873880114
 21
-2.2388118395
  0
LINE
  5
223
100
AcDbEntity
  8
0
100
AcDbLine
 62
7
  6
CONTINUOUS
 10
-4.2786528049
 20
-2.2388118395
 11
-1.8873880114
 21
-2.2388118395
  0
LINE
  5
224
100
AcDbEntity
  8
0
100
AcDbLine
 62
253
  6
CONTINUOUS
 10
-1.6373922422
 20
-1.9888160703
 11
-4.5286485742
 21
-1.9888160703
  0
LINE
  5
225
100
AcDbEntity
  8
0
100
AcDbLine
 62
253
  6
CONTINUOUS
 10
-19.0373922422
 20
-1.9888160703
 11
-21.9286485742
 21
-1.9888160703
  0
LINE
  5
226
100
AcDbEntity
  8
0
100
AcDbLine
 62
7
  6
CONTINUOUS
 10
-16.2330204082
 20
-1.7431836735
 11
-12.9830178697
 21
-1.7431836735
  0
LINE
  5
227
100
AcDbEntity
  8
0
100
AcDbLine
 62
7
  6
CONTINUOUS
 10
-10.5830229466
 20
-1.7431836735
 11
-7.3330204082
 21
-1.7431836735
  0
LINE
  5
228
100
AcDbEntity
  8
0
100
AcDbLine
 62
7
  6
CONTINUOUS
 10
-15.3178781244
 20
-1.7374823285
 11
-12.9915700078
 21
-1.7374823285
  0
LINE
  5
229
100
AcDbEntity
  8
0
100
AcDbLine
 62
7
  6
CONTINUOUS
 10
-10.5744708085
 20
-1.7374823285
 11
-8.2481626919
 21
-1.7374823285
  0
LINE
  5
22A
100
AcDbEntity
  8
0
100
AcDbLine
 62
7
  6
CONTINUOUS
 10
-7.376671055
 20
-1.6995330266
 11
-8.2484938704
 21
-1.6995330266
  0
LINE
  5
22B
100
AcDbEntity
  8
0
100
AcDbLine
 62
7
  6
CONTINUOUS
 10
-15.3175469459
 20
-1.6995330266
 11
-16.1893697613
 21
-1.6995330266
  0
LINE
  5
22C
100
AcDbEntity
  8
0
100
AcDbLine
 62
253
  6
CONTINUOUS
 10
-1.6373922422
 20
-1.5875212408
 11
-4.5286485742
 21
-1.5875212408
  0
LINE
  5
22D
100
AcDbEntity
  8
0
100
AcDbLine
 62
253
  6
CONTINUOUS
 10
-19.0373922422
 20
-1.5875212408
 11
-21.9286485742
 21
-1.5875212408
  0
LINE
  5
22E
100
AcDbEntity
  8
0
100
AcDbLine
 62
253
  6
CONTINUOUS
 10
-1.8873880114
 20
-1.3710148898
 11
-4.2786528049
 21
-1.3710148898
  0
LINE
  5
22F
100
AcDbEntity
  8
0
100
AcDbLine
 62
253
  6
CONTINUOUS
 10
-19.2873880114
 20
-1.3710148898
 11
-21.6786528049
 21
-1.3710148898
  0
LINE
  5
230
100
AcDbEntity
  8
0
100
AcDbLine
 62
7
  6
CONTINUOUS
 10
-21.683743406
 20
-0.8658334043
 11
-19.2822974103
 21
-0.8658334043
  0
LINE
  5
231
100
AcDbEntity
  8
0
100
AcDbLine
 62
7
  6
CONTINUOUS
 10
-1.8822974103
 20
-0.8658334043
 11
-4.283743406
 21
-0.8658334043
  0
LWPOLYLINE
  5
232
100
AcDbEntity
  8
0
100
AcDbPolyline
 62
7
  6
CONTINUOUS
 90
37
 70
0
 10
-10.5830229466
 20
-1.7431836735
 10
-10.5917466003
 20
-1.7429933398
 10
-10.600453655
 20
-1.7424226946
 10
-10.6091275393
 20
-1.7414728212
 10
-10.6177517461
 20
-1.7401455257
 10
-10.6263098596
 20
-1.7384433308
 10
-10.6347855863
 20
-1.7363694721
 10
-10.6431627943
 20
-1.7339278941
 10
-10.6514255383
 20
-1.7311232418
 10
-10.6595580855
 20
-1.7279608503
 10
-10.6675449561
 20
-1.7244467365
 10
-10.6753709475
 20
-1.7205875874
 10
-10.683021157
 20
-1.7163907469
 10
-10.6904810226
 20
-1.7118642016
 10
-10.6977363442
 20
-1.7070165661
 10
-10.7047733052
 20
-1.7018570681
 10
-10.7115785104
 20
-1.696395527
 10
-10.7181390059
 20
-1.690642338
 10
-10.7244422979
 20
-1.6846084541
 10
-10.730476388
 20
-1.6783053601
 10
-10.7362297901
 20
-1.6717450533
 10
-10.7416915479
 20
-1.6649400249
 10
-10.746851265
 20
-1.657903228
 10
-10.75169912
 20
-1.6506480568
 10
-10.7562258822
 20
-1.6431883262
 10
-10.7604229351
 20
-1.6355382357
 10
-10.7642822902
 20
-1.6277123473
 10
-10.7677966004
 20
-1.6197255621
 10
-10.7709591767
 20
-1.6115930833
 10
-10.7737640004
 20
-1.6033303907
 10
-10.7762057334
 20
-1.5949532163
 10
-10.7782797287
 20
-1.5864775062
 10
-10.7799820399
 20
-1.5779193933
 10
-10.7813094292
 20
-1.5692951705
 10
-10.7822593717
 20
-1.5606212546
 10
-10.7828300597
 20
-1.5519141543
 10
-10.7830204082
 20
-1.5431904427
  0
LINE
  5
233
100
AcDbEntity
  8
0
100
AcDbLine
 62
7
  6
CONTINUOUS
 10
-19.84958991
 20
43.2485245908
 11
-20.0155653432
 21
43.1655431943
  0
LINE
  5
234
100
AcDbEntity
  8
0
100
AcDbLine
 62
7
  6
CONTINUOUS
 10
-19.84958991
 20
43.7105517537
 11
-20.0155653432
 21
43.6619297367
  0
LWPOLYLINE
  5
235
100
AcDbEntity
  8
0
100
AcDbPolyline
 62
7
  6
CONTINUOUS
 90
6
 70
0
 10
-19.247438042
 20
-2.2406391476
 10
-19.2357041207
 20
-2.2386660412
 10
-19.2240773694
 20
-2.2361368552
 10
-19.2125841292
 20
-2.2330573152
 10
-19.2012504344
 20
-2.2294343948
 10
-19.1901019589
 20
-2.2252762992
  0
LWPOLYLINE
  5
236
100
AcDbEntity
  8
0
100
AcDbPolyline
 62
7
  6
CONTINUOUS
 90
40
 70
0
 10
-1.1326398084
 20
-0.1431836735
 10
-1.1126445089
 20
-0.1427702996
 10
-1.0926546646
 20
-0.1415553807
 10
-1.072702541
 20
-0.1395376413
 10
-1.0528132315
 20
-0.1367159705
 10
-1.0330266972
 20
-0.1330922588
 10
-1.0133971789
 20
-0.1286743353
 10
-0.993967764
 20
-0.1234720086
 10
-0.9747586486
 20
-0.1174908321
 10
-0.9557893073
 20
-0.1107353494
 10
-0.9370777756
 20
-0.1032087986
 10
-0.918669139
 20
-0.0949260985
 10
-0.900621894
 20
-0.0859132265
 10
-0.8829812282
 20
-0.0761958732
 10
-0.8657576999
 20
-0.0657830529
 10
-0.8489568528
 20
-0.0546781203
 10
-0.8325923381
 20
-0.0428869715
 10
-0.8167069235
 20
-0.0304372057
 10
-0.8013483979
 20
-0.0173664233
 10
-0.7865548285
 20
-0.0037110366
 10
-0.7723335684
 20
0.0105180224
 10
-0.758685455
 20
0.025320069
 10
-0.7456210636
 20
0.0406883161
 10
-0.7331773216
 20
0.056584266
 10
-0.7213930992
 20
0.0729586367
 10
-0.7102961967
 20
0.0897679658
 10
-0.6998919621
 20
0.1069991146
 10
-0.690183694
 20
0.1246467324
 10
-0.6811806671
 20
0.1426992353
 10
-0.6729078924
 20
0.1611123704
 10
-0.6653902238
 20
0.1798309582
 10
-0.6586416788
 20
0.1988129687
 10
-0.6526669853
 20
0.2180376704
 10
-0.647472762
 20
0.2374801865
 10
-0.6430664655
 20
0.2571071853
 10
-0.6394538187
 20
0.2768884196
 10
-0.6366388412
 20
0.2968037536
 10
-0.6346260819
 20
0.3168251319
 10
-0.633419254
 20
0.3369163832
 10
-0.6330204082
 20
0.3570451786
  0
LINE
  5
237
100
AcDbEntity
  8
0
100
AcDbLine
 62
7
  6
CONTINUOUS
 10
-12.7830204082
 20
-0.1431836735
 11
-10.7830204082
 21
-0.1431836735
  0
LINE
  5
238
100
AcDbEntity
  8
0
100
AcDbLine
 62
7
  6
CONTINUOUS
 10
-1.1330140621
 20
-0.1431836735
 11
-7.3330204082
 21
-0.1431836735
  0
LINE
  5
239
100
AcDbEntity
  8
0
100
AcDbLine
 62
7
  6
CONTINUOUS
 10
-16.2330204082
 20
-0.1431836735
 11
-22.4330267543
 21
-0.1431836735
  0
LINE
  5
23A
100
AcDbEntity
  8
0
100
AcDbLine
 62
7
  6
CONTINUOUS
 10
-10.7743464548
 20
-0.137979386
 11
-12.7916943615
 21
-0.137979386
  0
LINE
  5
23B
100
AcDbEntity
  8
0
100
AcDbLine
 62
7
  6
CONTINUOUS
 10
-1.1417409299
 20
-0.1373658437
 11
-4.5272025784
 21
-0.1373658437
  0
LINE
  5
23C
100
AcDbEntity
  8
0
100
AcDbLine
 62
7
  6
CONTINUOUS
 10
-19.038838238
 20
-0.1373658437
 11
-22.4242998865
 21
-0.1373658437
  0
LINE
  5
23D
100
AcDbEntity
  8
0
100
AcDbLine
 62
253
  6
CONTINUOUS
 10
-18.9735620344
 20
-0.079153699
 11
-14.7885704345
 21
-0.079153699
  0
LINE
  5
23E
100
AcDbEntity
  8
0
100
AcDbLine
 62
253
  6
CONTINUOUS
 10
-8.7774703818
 20
-0.079153699
 11
-4.592478782
 21
-0.079153699
  0
LINE
  5
23F
100
AcDbEntity
  8
0
100
AcDbLine
 62
7
  6
CONTINUOUS
 10
-14.7830204082
 20
0.5568163265
 11
-8.7830204082
 21
0.5568163265
  0
LINE
  5
240
100
AcDbEntity
  8
0
100
AcDbLine
 62
253
  6
CONTINUOUS
 10
-19.3496660624
 20
0.9208293779
 11
-14.7798437144
 21
0.9208293779
  0
LINE
  5
241
100
AcDbEntity
  8
0
100
AcDbLine
 62
253
  6
CONTINUOUS
 10
-8.7861971019
 20
0.9208293779
 11
-4.2163747539
 21
0.9208293779
  0
LINE
  5
242
100
AcDbEntity
  8
0
100
AcDbLine
 62
7
  6
CONTINUOUS
 10
-19.84958991
 20
0.8030808994
 11
-20.0155653432
 21
0.8517029164
  0
LINE
  5
243
100
AcDbEntity
  8
0
100
AcDbLine
 62
7
  6
CONTINUOUS
 10
-19.84958991
 20
1.2651080623
 11
-20.0155653432
 21
1.3480894587
  0
LINE
  5
244
100
AcDbEntity
  8
RACCORDO
100
AcDbLine
 62
7
  6
CONTINUOUS
 10
-20.5830204082
 20
43.1068163265
 11
-22.3473231886
 21
41.342513546
  0
LINE
  5
245
100
AcDbEntity
  8
0
100
AcDbLine
 62
7
  6
CONTINUOUS
 10
-22.9242935404
 20
40.7655431943
 11
-19.038838238
 21
44.6509984967
  0
LINE
  5
246
100
AcDbEntity
  8
0
100
AcDbLine
 62
7
  6
CONTINUOUS
 10
-20.0155653432
 20
43.6619297367
 11
-19.84958991
 21
43.8279051699
  0
LINE
  5
247
100
AcDbEntity
  8
RACCORDO
100
AcDbLine
 62
7
  6
CONTINUOUS
 10
-20.4102240813
 20
43.1068163265
 11
-22.2251377342
 21
41.2919026737
  0
LINE
  5
248
100
AcDbEntity
  8
0
100
AcDbLine
 62
7
  6
CONTINUOUS
 10
-20.4102240813
 20
43.1068163265
 11
-22.2251377342
 21
41.2919026737
  0
LINE
  5
249
100
AcDbEntity
  8
RACCORDO
100
AcDbLine
 62
7
  6
CONTINUOUS
 10
-22.5032286435
 20
40.9551205734
 11
-21.881324655
 21
41.5770245619
  0
LINE
  5
24A
100
AcDbEntity
  8
ASSI
100
AcDbLine
 62
7
  6
CONTINUOUS
 10
-22.5032286435
 20
40.9551205734
 11
-21.881324655
 21
41.5770245619
  0
LINE
  5
24B
100
AcDbEntity
  8
RACCORDO
100
AcDbLine
 62
7
  6
CONTINUOUS
 10
-21.7733320809
 20
41.6702070917
 11
-21.5841047959
 21
41.8594342701
  0
LINE
  5
24C
100
AcDbEntity
  8
ASSI
100
AcDbLine
 62
7
  6
CONTINUOUS
 10
-21.7733320809
 20
41.6702070917
 11
-21.5841047959
 21
41.8594342701
  0
LINE
  5
24D
100
AcDbEntity
  8
DRAFT
100
AcDbLine
 62
7
  6
CONTINUOUS
 10
-19.4263328678
 20
43.1568163265
 11
-19.4763328678
 21
43.1068163265
  0
LINE
  5
24E
100
AcDbEntity
  8
DRAFT
100
AcDbLine
 62
7
  6
CONTINUOUS
 10
-19.4016495583
 20
43.1568163265
 11
-19.4516495583
 21
43.1068163265
  0
LINE
  5
24F
100
AcDbEntity
  8
DRAFT
100
AcDbLine
 62
7
  6
CONTINUOUS
 10
-19.0742938727
 20
43.165542862
 11
-19.0830204082
 21
43.1568163265
  0
LINE
  5
250
100
AcDbEntity
  8
DRAFT
100
AcDbLine
 62
7
  6
CONTINUOUS
 10
-18.9782979947
 20
43.2528118722
 11
-19.0742938727
 21
43.1568166588
  0
LINE
  5
251
100
AcDbEntity
  8
0
100
AcDbLine
 62
253
  6
CONTINUOUS
 10
-12.9915700078
 20
46.2511149815
 11
-12.9830178697
 21
46.2568163265
  0
LINE
  5
252
100
AcDbEntity
  8
0
100
AcDbLine
 62
253
  6
CONTINUOUS
 10
-12.7915877782
 20
46.0511115963
 11
-12.7830204082
 21
46.0568230957
  0
LINE
  5
253
100
AcDbEntity
  8
0
100
AcDbLine
 62
7
  6
CONTINUOUS
 10
-12.7830204082
 20
44.6568163265
 11
-12.7916943615
 21
44.6516120391
  0
LWPOLYLINE
  5
254
100
AcDbEntity
  8
0
100
AcDbPolyline
 62
7
  6
CONTINUOUS
 90
18
 70
0
 10
-4.3759388575
 20
46.7389089523
 10
-4.3868768545
 20
46.7342250987
 10
-4.3975795958
 20
46.7290260954
 10
-4.4080228364
 20
46.7233237182
 10
-4.4181829141
 20
46.7171308847
 10
-4.4280368133
 20
46.710461622
 10
-4.437562212
 20
46.7033310372
 10
-4.4467375272
 20
46.6957552854
 10
-4.4555419742
 20
46.687751527
 10
-4.4639556086
 20
46.6793378926
 10
-4.471959367
 20
46.6705334456
 10
-4.4795351189
 20
46.6613581304
 10
-4.4866657036
 20
46.6518327316
 10
-4.4933349663
 20
46.6419788324
 10
-4.4995277998
 20
46.6318187548
 10
-4.505230177
 20
46.6213755141
 10
-4.5104291803
 20
46.6106727728
 10
-4.5151130339
 20
46.5997347758
  0
LWPOLYLINE
  5
255
100
AcDbEntity
  8
0
100
AcDbPolyline
 62
7
  6
CONTINUOUS
 90
12
 70
0
 10
-13.4074168696
 20
2.3721875101
 10
-13.5252886977
 20
2.371807036
 10
-13.6381601275
 20
2.3711882247
 10
-13.74751591
 20
2.3703162601
 10
-13.8518712941
 20
2.3692059583
 10
-13.9467720264
 20
2.3679017675
 10
-14.0318401107
 20
2.3663917454
 10
-14.1074535433
 20
2.3646878344
 10
-14.1702920593
 20
2.3628703095
 10
-14.2192489039
 20
2.3609659291
 10
-14.255430832
 20
2.3589479348
 10
-14.2788378437
 20
2.3568163265
  0
LINE
  5
256
100
AcDbEntity
  8
DRAFT
100
AcDbLine
 62
7
  6
CONTINUOUS
 10
-19.3496660624
 20
1.2608207808
 11
-18.9782979947
 21
1.2608207808
  0
LINE
  5
257
100
AcDbEntity
  8
DRAFT
100
AcDbLine
 62
7
  6
CONTINUOUS
 10
-4.2163747539
 20
1.2608207808
 11
-4.5877428217
 21
1.2608207808
  0
LINE
  5
258
100
AcDbEntity
  8
0
100
AcDbLine
 62
7
  6
CONTINUOUS
 10
-20.0155653432
 20
1.3480894587
 11
-19.84958991
 21
1.3480894587
  0
LINE
  5
259
100
AcDbEntity
  8
0
100
AcDbLine
 62
7
  6
CONTINUOUS
 10
-3.7164509064
 20
1.3480894587
 11
-3.5504754731
 21
1.3480894587
  0
LINE
  5
25A
100
AcDbEntity
  8
DRAFT
100
AcDbLine
 62
7
  6
CONTINUOUS
 10
-4.4830204082
 20
1.3568163265
 11
-4.1643912581
 21
1.3568163265
  0
LINE
  5
25B
100
AcDbEntity
  8
DRAFT
100
AcDbLine
 62
7
  6
CONTINUOUS
 10
-3.7164509064
 20
1.3568163265
 11
-4.1520496033
 21
1.3568163265
  0
LINE
  5
25C
100
AcDbEntity
  8
DRAFT
100
AcDbLine
 62
7
  6
CONTINUOUS
 10
-19.0742935404
 20
1.3568163265
 11
-19.4016495583
 21
1.3568163265
  0
LINE
  5
25D
100
AcDbEntity
  8
DRAFT
100
AcDbLine
 62
7
  6
CONTINUOUS
 10
-19.4139912131
 20
1.3568163265
 11
-19.84958991
 21
1.3568163265
  0
LINE
  5
25E
100
AcDbEntity
  8
DRAFT
100
AcDbLine
 62
7
  6
CONTINUOUS
 10
-2.9830204082
 20
1.4068163265
 11
-4.3830204082
 21
1.4068163265
  0
LINE
  5
25F
100
AcDbEntity
  8
0
100
AcDbLine
 62
7
  6
CONTINUOUS
 10
-2.9830204082
 20
1.4068163265
 11
-4.3830204082
 21
1.4068163265
  0
LINE
  5
260
100
AcDbEntity
  8
DRAFT
100
AcDbLine
 62
7
  6
CONTINUOUS
 10
-19.1830204082
 20
1.4068163265
 11
-20.5830204082
 21
1.4068163265
  0
LINE
  5
261
100
AcDbEntity
  8
0
100
AcDbLine
 62
7
  6
CONTINUOUS
 10
-19.1830204082
 20
1.4068163265
 11
-20.5830204082
 21
1.4068163265
  0
LINE
  5
262
100
AcDbEntity
  8
0
100
AcDbLine
 62
7
  6
CONTINUOUS
 10
-8.7908745892
 20
1.4568163265
 11
-14.7751662272
 21
1.4568163265
  0
LINE
  5
263
100
AcDbEntity
  8
DRAFT
100
AcDbLine
 62
7
  6
CONTINUOUS
 10
-18.3877428217
 20
2.152093913
 11
-5.1782979947
 21
2.152093913
  0
LINE
  5
264
100
AcDbEntity
  8
DRAFT
100
AcDbLine
 62
7
  6
CONTINUOUS
 10
-14.2830204082
 20
2.1861233136
 11
-14.22428099
 21
2.1861233136
  0
LINE
  5
265
100
AcDbEntity
  8
DRAFT
100
AcDbLine
 62
7
  6
CONTINUOUS
 10
-9.3417598263
 20
2.1861233136
 11
-9.2830204082
 21
2.1861233136
  0
LINE
  5
266
100
AcDbEntity
  8
DRAFT
100
AcDbLine
 62
7
  6
CONTINUOUS
 10
-8.2828669735
 20
2.239234461
 11
-9.2836364412
 21
2.239234461
  0
LINE
  5
267
100
AcDbEntity
  8
DRAFT
100
AcDbLine
 62
7
  6
CONTINUOUS
 10
-14.2824043752
 20
2.239234461
 11
-15.2831738428
 21
2.239234461
  0
LINE
  5
268
100
AcDbEntity
  8
DRAFT
100
AcDbLine
 62
7
  6
CONTINUOUS
 10
-18.2873838421
 20
2.2524528926
 11
-14.2823804778
 21
2.2524528926
  0
LINE
  5
269
100
AcDbEntity
  8
DRAFT
100
AcDbLine
 62
7
  6
CONTINUOUS
 10
-9.2836603385
 20
2.2524528926
 11
-5.2786569743
 21
2.2524528926
  0
LINE
  5
26A
100
AcDbEntity
  8
DRAFT
100
AcDbLine
 62
7
  6
CONTINUOUS
 10
-4.3830204082
 20
2.2568163265
 11
-4.4873838421
 21
2.2568163265
  0
LINE
  5
26B
100
AcDbEntity
  8
DRAFT
100
AcDbLine
 62
7
  6
CONTINUOUS
 10
-19.0786569743
 20
2.2568163265
 11
-19.1830204082
 21
2.2568163265
  0
LINE
  5
26C
100
AcDbEntity
  8
0
100
AcDbLine
 62
7
  6
CONTINUOUS
 10
-15.2830204082
 20
2.3568163265
 11
-14.2774986884
 21
2.3568163265
  0
LINE
  5
26D
100
AcDbEntity
  8
0
100
AcDbLine
 62
7
  6
CONTINUOUS
 10
-9.2885421279
 20
2.3568163265
 11
-8.2830204082
 21
2.3568163265
  0
LINE
  5
26E
100
AcDbEntity
  8
0
100
AcDbLine
 62
7
  6
CONTINUOUS
 10
-13.4074168696
 20
2.3721875101
 11
-10.2814961733
 21
2.3723296469
  0
LINE
  5
26F
100
AcDbEntity
  8
DRAFT
100
AcDbLine
 62
7
  6
CONTINUOUS
 10
-15.2463647718
 20
2.3934719629
 11
-8.3196760445
 21
2.3934719629
  0
LINE
  5
270
100
AcDbEntity
  8
0
100
AcDbLine
 62
7
  6
CONTINUOUS
 10
-15.2463647718
 20
2.3934719629
 11
-8.3196760445
 21
2.3934719629
  0
LINE
  5
271
100
AcDbEntity
  8
DRAFT
100
AcDbLine
 62
7
  6
CONTINUOUS
 10
-18.9782979947
 20
2.452093913
 11
-18.3877428217
 21
2.452093913
  0
LINE
  5
272
100
AcDbEntity
  8
DRAFT
100
AcDbLine
 62
7
  6
CONTINUOUS
 10
-5.1782979947
 20
2.452093913
 11
-4.5877428217
 21
2.452093913
  0
LINE
  5
273
100
AcDbEntity
  8
DRAFT
100
AcDbLine
 62
7
  6
CONTINUOUS
 10
-19.0786569743
 20
2.5524528926
 11
-18.2873838421
 21
2.5524528926
  0
LINE
  5
274
100
AcDbEntity
  8
DRAFT
100
AcDbLine
 62
7
  6
CONTINUOUS
 10
-5.2786569743
 20
2.5524528926
 11
-4.4873838421
 21
2.5524528926
  0
LINE
  5
275
100
AcDbEntity
  8
DRAFT
100
AcDbLine
 62
7
  6
CONTINUOUS
 10
-19.1830204082
 20
2.5568163265
 11
-15.2830204082
 21
2.5568163265
  0
LINE
  5
276
100
AcDbEntity
  8
0
100
AcDbLine
 62
7
  6
CONTINUOUS
 10
-19.1830204082
 20
2.5568163265
 11
-15.2830204082
 21
2.5568163265
  0
LINE
  5
277
100
AcDbEntity
  8
DRAFT
100
AcDbLine
 62
7
  6
CONTINUOUS
 10
-8.2830204082
 20
2.5568163265
 11
-4.3830204082
 21
2.5568163265
  0
LINE
  5
278
100
AcDbEntity
  8
0
100
AcDbLine
 62
7
  6
CONTINUOUS
 10
-8.2830204082
 20
2.5568163265
 11
-4.3830204082
 21
2.5568163265
  0
LINE
  5
279
100
AcDbEntity
  8
DRAFT
100
AcDbLine
 62
7
  6
CONTINUOUS
 10
-19.2196760445
 20
2.5934719629
 11
-15.2463647718
 21
2.5934719629
  0
LINE
  5
27A
100
AcDbEntity
  8
0
100
AcDbLine
 62
7
  6
CONTINUOUS
 10
-19.2196760445
 20
2.5934719629
 11
-15.2463647718
 21
2.5934719629
  0
LINE
  5
27B
100
AcDbEntity
  8
DRAFT
100
AcDbLine
 62
7
  6
CONTINUOUS
 10
-8.3196760445
 20
2.5934719629
 11
-4.3463647718
 21
2.5934719629
  0
LINE
  5
27C
100
AcDbEntity
  8
0
100
AcDbLine
 62
7
  6
CONTINUOUS
 10
-8.3196760445
 20
2.5934719629
 11
-4.3463647718
 21
2.5934719629
  0
LINE
  5
27D
100
AcDbEntity
  8
RACCORDO
100
AcDbLine
 62
7
  6
CONTINUOUS
 10
-21.1742447983
 20
2.6437260248
 11
-8.0699186834
 21
2.6437260248
  0
LINE
  5
27E
100
AcDbEntity
  8
ASSI
100
AcDbLine
 62
7
  6
CONTINUOUS
 10
-21.1742447983
 20
2.6437260248
 11
-8.0699186834
 21
2.6437260248
  0
LWPOLYLINE
  5
27F
100
AcDbEntity
  8
0
100
AcDbPolyline
 62
7
  6
CONTINUOUS
 90
13
 70
0
 10
-10.2814961733
 20
2.3723296469
 10
-10.1586239468
 20
2.3721875101
 10
-10.0407521186
 20
2.371807036
 10
-9.9278806888
 20
2.3711882247
 10
-9.8185249063
 20
2.3703162601
 10
-9.7141695222
 20
2.3692059583
 10
-9.6192687899
 20
2.3679017675
 10
-9.5342007056
 20
2.3663917454
 10
-9.4585872731
 20
2.3646878344
 10
-9.395748757
 20
2.3628703095
 10
-9.3467919124
 20
2.3609659291
 10
-9.3106099843
 20
2.3589479348
 10
-9.2872029727
 20
2.3568163265
  0
LWPOLYLINE
  5
280
100
AcDbEntity
  8
0
100
AcDbPolyline
 62
7
  6
CONTINUOUS
 90
9
 70
0
 10
-4.3759388575
 20
-2.2252762992
 10
-4.3647903819
 20
-2.2294343948
 10
-4.3534566872
 20
-2.2330573152
 10
-4.341963447
 20
-2.2361368552
 10
-4.3303366956
 20
-2.2386660412
 10
-4.3186027743
 20
-2.2406391476
 10
-4.3067882637
 20
-2.2420517077
 10
-4.2949199242
 20
-2.2429005232
 10
-4.2830246389
 20
-2.2431836735
  0
LINE
  5
281
100
AcDbEntity
  8
0
100
AcDbLine
 62
7
  6
CONTINUOUS
 10
-12.7916943615
 20
-0.137979386
 11
-12.7830204082
 21
-0.1431836735
  0
LINE
  5
282
100
AcDbEntity
  8
0
100
AcDbLine
 62
253
  6
CONTINUOUS
 10
-12.9830178697
 20
-1.7431836735
 11
-12.9915700078
 21
-1.7374823285
  0
LINE
  5
283
100
AcDbEntity
  8
0
100
AcDbLine
 62
253
  6
CONTINUOUS
 10
-12.7830204082
 20
-1.5431904427
 11
-12.7915877782
 21
-1.5374789432
  0
LINE
  5
284
100
AcDbEntity
  8
RACCORDO
100
AcDbLine
 62
7
  6
CONTINUOUS
 10
-22.3473231886
 20
3.171119107
 11
-20.5830204082
 21
1.4068163265
  0
LINE
  5
285
100
AcDbEntity
  8
0
100
AcDbLine
 62
7
  6
CONTINUOUS
 10
-19.038838238
 20
-0.1373658437
 11
-22.9242935404
 21
3.7480894587
  0
LINE
  5
286
100
AcDbEntity
  8
0
100
AcDbLine
 62
7
  6
CONTINUOUS
 10
-20.0155653432
 20
0.8517029164
 11
-19.84958991
 21
0.6857274831
  0
LINE
  5
287
100
AcDbEntity
  8
RACCORDO
100
AcDbLine
 62
7
  6
CONTINUOUS
 10
-22.2251377342
 20
3.2217299794
 11
-20.4102240813
 21
1.4068163265
  0
LINE
  5
288
100
AcDbEntity
  8
0
100
AcDbLine
 62
7
  6
CONTINUOUS
 10
-22.2251377342
 20
3.2217299794
 11
-20.4102240813
 21
1.4068163265
  0
LINE
  5
289
100
AcDbEntity
  8
RACCORDO
100
AcDbLine
 62
7
  6
CONTINUOUS
 10
-21.881324655
 20
2.9366080912
 11
-22.5032286435
 21
3.5585120797
  0
LINE
  5
28A
100
AcDbEntity
  8
ASSI
100
AcDbLine
 62
7
  6
CONTINUOUS
 10
-21.881324655
 20
2.9366080912
 11
-22.5032286435
 21
3.5585120797
  0
LINE
  5
28B
100
AcDbEntity
  8
DRAFT
100
AcDbLine
 62
7
  6
CONTINUOUS
 10
-19.4763328678
 20
1.4068163265
 11
-19.4263328678
 21
1.3568163265
  0
LINE
  5
28C
100
AcDbEntity
  8
DRAFT
100
AcDbLine
 62
7
  6
CONTINUOUS
 10
-19.4516495583
 20
1.4068163265
 11
-19.4016495583
 21
1.3568163265
  0
LINE
  5
28D
100
AcDbEntity
  8
DRAFT
100
AcDbLine
 62
7
  6
CONTINUOUS
 10
-18.9782979947
 20
1.2608207808
 11
-19.0742935404
 21
1.3568163265
  0
LWPOLYLINE
  5
28E
100
AcDbEntity
  8
0
100
AcDbPolyline
 62
7
  6
CONTINUOUS
 90
9
 70
0
 10
-21.9151130339
 20
46.5997347758
 10
-21.9192711295
 20
46.5885863003
 10
-21.9228940499
 20
46.5772526055
 10
-21.9259735899
 20
46.5657593653
 10
-21.9285027759
 20
46.554132614
 10
-21.9304758823
 20
46.5423986927
 10
-21.9318884424
 20
46.5305841821
 10
-21.9327372579
 20
46.5187158425
 10
-21.9330204082
 20
46.5068205573
  0
LWPOLYLINE
  5
28F
100
AcDbEntity
  8
0
100
AcDbPolyline
 62
7
  6
CONTINUOUS
 90
5
 70
0
 10
-15.3171046859
 20
46.1624876989
 10
-15.3236296127
 20
46.1548377454
 10
-15.3308201258
 20
46.1464936633
 10
-15.3386940118
 20
46.1374554527
 10
-15.3472655558
 20
46.1277396451
  0
LINE
  5
290
100
AcDbEntity
  8
0
100
AcDbLine
 62
7
  6
CONTINUOUS
 10
-15.3472655558
 20
46.1277396451
 11
-15.3665726271
 21
46.1061760496
  0
LINE
  5
291
100
AcDbEntity
  8
0
100
AcDbLine
 62
7
  6
CONTINUOUS
 10
-15.3665726271
 20
46.1061760496
 11
-15.3888928826
 21
46.0815974454
  0
LINE
  5
292
100
AcDbEntity
  8
0
100
AcDbLine
 62
7
  6
CONTINUOUS
 10
-15.3888928826
 20
46.0815974454
 11
-15.4141799826
 21
46.0540739287
  0
LINE
  5
293
100
AcDbEntity
  8
0
100
AcDbLine
 62
7
  6
CONTINUOUS
 10
-15.4141799826
 20
46.0540739287
 11
-15.4575821019
 21
46.0073508845
  0
LINE
  5
294
100
AcDbEntity
  8
0
100
AcDbLine
 62
7
  6
CONTINUOUS
 10
-15.4575821019
 20
46.0073508845
 11
-15.5256578207
 21
45.9348329103
  0
LINE
  5
295
100
AcDbEntity
  8
0
100
AcDbLine
 62
7
  6
CONTINUOUS
 10
-15.5256578207
 20
45.9348329103
 11
-15.6487160191
 21
45.8049538979
  0
LINE
  5
296
100
AcDbEntity
  8
0
100
AcDbLine
 62
7
  6
CONTINUOUS
 10
-15.6487160191
 20
45.8049538979
 11
-15.7360631181
 21
45.7131741412
  0
LINE
  5
297
100
AcDbEntity
  8
DRAFT
100
AcDbLine
 62
7
  6
CONTINUOUS
 10
-19.1830204082
 20
41.9568163265
 11
-19.2196760445
 21
41.9201606902
  0
LINE
  5
298
100
AcDbEntity
  8
0
100
AcDbLine
 62
7
  6
CONTINUOUS
 10
-19.1830204082
 20
41.9568163265
 11
-19.2196760445
 21
41.9201606902
  0
LINE
  5
299
100
AcDbEntity
  8
DRAFT
100
AcDbLine
 62
7
  6
CONTINUOUS
 10
-18.9782979947
 20
42.06153874
 11
-19.0786569743
 21
41.9611797604
  0
LINE
  5
29A
100
AcDbEntity
  8
RACCORDO
100
AcDbLine
 62
7
  6
CONTINUOUS
 10
-13.9294670176
 20
4.0242763099
 11
-14.2835821537
 21
4.0211859939
  0
LINE
  5
29B
100
AcDbEntity
  8
0
100
AcDbLine
 62
7
  6
CONTINUOUS
 10
-13.9294670176
 20
4.0242763099
 11
-14.2835821537
 21
4.0211859939
  0
LINE
  5
29C
100
AcDbEntity
  8
0
100
AcDbLine
 62
7
  6
CONTINUOUS
 10
-9.2830204082
 20
3.9568163265
 11
-14.2830204082
 21
3.9568163265
  0
LINE
  5
29D
100
AcDbEntity
  8
ASSI
100
AcDbLine
 62
7
  6
CONTINUOUS
 10
-9.2830204082
 20
3.9568163265
 11
-14.2830204082
 21
3.9568163265
  0
LINE
  5
29E
100
AcDbEntity
  8
DRAFT
100
AcDbLine
 62
7
  6
CONTINUOUS
 10
-7.6397380534
 20
3.9906468589
 11
-4.3463647718
 21
3.9906468589
  0
LINE
  5
29F
100
AcDbEntity
  8
0
100
AcDbLine
 62
7
  6
CONTINUOUS
 10
-7.6397380534
 20
3.9906468589
 11
-4.3463647718
 21
3.9906468589
  0
LINE
  5
2A0
100
AcDbEntity
  8
RACCORDO
100
AcDbLine
 62
7
  6
CONTINUOUS
 10
-3.1830204082
 20
3.9906468589
 11
-2.5168319021
 21
3.9906468589
  0
LINE
  5
2A1
100
AcDbEntity
  8
0
100
AcDbLine
 62
7
  6
CONTINUOUS
 10
-3.1830204082
 20
3.9906468589
 11
-2.5168319021
 21
3.9906468589
  0
LINE
  5
2A2
100
AcDbEntity
  8
DRAFT
100
AcDbLine
 62
7
  6
CONTINUOUS
 10
-3.1830204082
 20
3.9993737267
 11
-4.3289097069
 21
3.9993737267
  0
LINE
  5
2A3
100
AcDbEntity
  8
0
100
AcDbLine
 62
7
  6
CONTINUOUS
 10
-3.1830204082
 20
3.9993737267
 11
-4.3289097069
 21
3.9993737267
  0
LINE
  5
2A4
100
AcDbEntity
  8
RACCORDO
100
AcDbLine
 62
7
  6
CONTINUOUS
 10
-2.3917960181
 20
4.0437260248
 11
-7.4699415296
 21
4.0437260248
  0
LINE
  5
2A5
100
AcDbEntity
  8
ASSI
100
AcDbLine
 62
7
  6
CONTINUOUS
 10
-2.3917960181
 20
4.0437260248
 11
-7.4699415296
 21
4.0437260248
  0
LINE
  5
2A6
100
AcDbEntity
  8
ASSI
100
AcDbLine
 62
7
  6
CONTINUOUS
 10
-14.2830204082
 20
4.0568163265
 11
-9.2830204082
 21
4.0568163265
  0
LINE
  5
2A7
100
AcDbEntity
  8
RACCORDO
100
AcDbLine
 62
7
  6
CONTINUOUS
 10
-9.6365737988
 20
4.0242763099
 11
-9.2824586626
 21
4.0211859939
  0
LINE
  5
2A8
100
AcDbEntity
  8
0
100
AcDbLine
 62
7
  6
CONTINUOUS
 10
-9.6365737988
 20
4.0242763099
 11
-9.2824586626
 21
4.0211859939
  0
LINE
  5
2A9
100
AcDbEntity
  8
DRAFT
100
AcDbLine
 62
7
  6
CONTINUOUS
 10
-19.1830204082
 20
2.5568163265
 11
-19.2196760445
 21
2.5934719629
  0
LINE
  5
2AA
100
AcDbEntity
  8
0
100
AcDbLine
 62
7
  6
CONTINUOUS
 10
-19.1830204082
 20
2.5568163265
 11
-19.2196760445
 21
2.5934719629
  0
LINE
  5
2AB
100
AcDbEntity
  8
DRAFT
100
AcDbLine
 62
7
  6
CONTINUOUS
 10
-18.9782979947
 20
2.452093913
 11
-19.0786569743
 21
2.5524528926
  0
LINE
  5
2AC
100
AcDbEntity
  8
0
100
AcDbLine
 62
7
  6
CONTINUOUS
 10
-15.7360631181
 20
-1.1995414882
 11
-15.525620165
 21
-1.4212406089
  0
LINE
  5
2AD
100
AcDbEntity
  8
0
100
AcDbLine
 62
7
  6
CONTINUOUS
 10
-15.525620165
 20
-1.4212406089
 11
-15.4575906219
 21
-1.4937096965
  0
LINE
  5
2AE
100
AcDbEntity
  8
0
100
AcDbLine
 62
7
  6
CONTINUOUS
 10
-15.4575906219
 20
-1.4937096965
 11
-15.4141567122
 21
-1.5404657003
  0
LINE
  5
2AF
100
AcDbEntity
  8
0
100
AcDbLine
 62
7
  6
CONTINUOUS
 10
-15.4141567122
 20
-1.5404657003
 11
-15.3888493185
 21
-1.5680124762
  0
LINE
  5
2B0
100
AcDbEntity
  8
0
100
AcDbLine
 62
7
  6
CONTINUOUS
 10
-15.3888493185
 20
-1.5680124762
 11
-15.3665273822
 21
-1.5925935549
  0
LWPOLYLINE
  5
2B1
100
AcDbEntity
  8
0
100
AcDbPolyline
 62
7
  6
CONTINUOUS
 90
6
 70
0
 10
-15.3665273822
 20
-1.5925935549
 10
-15.3472358533
 20
-1.6141407249
 10
-15.3386731227
 20
-1.6238465861
 10
-15.3308067254
 20
-1.6328765806
 10
-15.3236232089
 20
-1.6412127339
 10
-15.3171046859
 20
-1.6488550458
  0
LWPOLYLINE
  5
2B2
100
AcDbEntity
  8
0
100
AcDbPolyline
 62
7
  6
CONTINUOUS
 90
18
 70
0
 10
-21.9151130339
 20
-2.0861021228
 10
-21.9104291803
 20
-2.0970401198
 10
-21.905230177
 20
-2.1077428611
 10
-21.8995277998
 20
-2.1181861017
 10
-21.8933349663
 20
-2.1283461794
 10
-21.8866657036
 20
-2.1382000786
 10
-21.8795351189
 20
-2.1477254773
 10
-21.871959367
 20
-2.1569007925
 10
-21.8639556086
 20
-2.1657052396
 10
-21.8555419742
 20
-2.174118874
 10
-21.8467375272
 20
-2.1821226323
 10
-21.837562212
 20
-2.1896983842
 10
-21.8280368133
 20
-2.1968289689
 10
-21.8181829141
 20
-2.2034982316
 10
-21.8080228364
 20
-2.2096910651
 10
-21.7975795958
 20
-2.2153934423
 10
-21.7868768545
 20
-2.2205924457
 10
-21.7759388575
 20
-2.2252762992
  0
LINE
  5
2B3
100
AcDbEntity
  8
RACCORDO
100
AcDbLine
 62
253
  6
CONTINUOUS
 10
-13.5351628735
 20
4.9710604005
 11
-13.4830204082
 21
4.9751444838
  0
LINE
  5
2B4
100
AcDbEntity
  8
0
100
AcDbLine
 62
253
  6
CONTINUOUS
 10
-13.5351628735
 20
4.9710604005
 11
-13.4830204082
 21
4.9751444838
  0
LINE
  5
2B5
100
AcDbEntity
  8
ASSI
100
AcDbLine
 62
7
  6
CONTINUOUS
 10
-14.2830204082
 20
4.7568163265
 11
-9.2830204082
 21
4.7568163265
  0
LINE
  5
2B6
100
AcDbEntity
  8
RACCORDO
100
AcDbLine
 62
7
  6
CONTINUOUS
 10
-13.3870134389
 20
4.9568163265
 11
-10.1790273774
 21
4.9568163265
  0
LINE
  5
2B7
100
AcDbEntity
  8
ASSI
100
AcDbLine
 62
7
  6
CONTINUOUS
 10
-13.3870134389
 20
4.9568163265
 11
-10.1790273774
 21
4.9568163265
  0
LINE
  5
2B8
100
AcDbEntity
  8
RACCORDO
100
AcDbLine
 62
253
  6
CONTINUOUS
 10
-10.0830204082
 20
4.9751444838
 11
-13.4830204082
 21
4.9751444838
  0
LINE
  5
2B9
100
AcDbEntity
  8
0
100
AcDbLine
 62
253
  6
CONTINUOUS
 10
-10.0830204082
 20
4.9751444838
 11
-13.4830204082
 21
4.9751444838
  0
LINE
  5
2BA
100
AcDbEntity
  8
RACCORDO
100
AcDbLine
 62
7
  6
CONTINUOUS
 10
-10.0830204082
 20
5.0068163265
 11
-13.4830204082
 21
5.0068163265
  0
LINE
  5
2BB
100
AcDbEntity
  8
0
100
AcDbLine
 62
7
  6
CONTINUOUS
 10
-10.0830204082
 20
5.0068163265
 11
-13.4830204082
 21
5.0068163265
  0
LINE
  5
2BC
100
AcDbEntity
  8
CURVE
100
AcDbLine
 62
253
  6
CONTINUOUS
 10
-0.726266122
 20
5.1211016525
 11
-0.7404773674
 21
5.1211016525
  0
LINE
  5
2BD
100
AcDbEntity
  8
CURVE
100
AcDbLine
 62
7
  6
CONTINUOUS
 10
-0.6592229955
 20
5.2553793265
 11
-0.7098114562
 21
5.2553793265
  0
LINE
  5
2BE
100
AcDbEntity
  8
0
100
AcDbLine
 62
7
  6
CONTINUOUS
 10
-14.2830204082
 20
5.6568163265
 11
-9.2830204082
 21
5.6568163265
  0
LINE
  5
2BF
100
AcDbEntity
  8
ASSI
100
AcDbLine
 62
7
  6
CONTINUOUS
 10
-14.2830204082
 20
5.6568163265
 11
-9.2830204082
 21
5.6568163265
  0
LINE
  5
2C0
100
AcDbEntity
  8
SMUSSO
100
AcDbLine
 62
7
  6
CONTINUOUS
 10
-11.5330204082
 20
6.0068163265
 11
-16.5330204082
 21
6.0068163265
  0
LINE
  5
2C1
100
AcDbEntity
  8
ASSI
100
AcDbLine
 62
7
  6
CONTINUOUS
 10
-11.5330204082
 20
6.0068163265
 11
-16.5330204082
 21
6.0068163265
  0
LINE
  5
2C2
100
AcDbEntity
  8
CURVE
100
AcDbLine
 62
253
  6
CONTINUOUS
 10
-0.7404773674
 20
6.0711016525
 11
-0.726266122
 21
6.0711016525
  0
LINE
  5
2C3
100
AcDbEntity
  8
RACCORDO
100
AcDbLine
 62
7
  6
CONTINUOUS
 10
-1.06994153
 20
6.1068163265
 11
-1.9830204082
 21
6.1068163265
  0
LINE
  5
2C4
100
AcDbEntity
  8
ASSI
100
AcDbLine
 62
7
  6
CONTINUOUS
 10
-1.06994153
 20
6.1068163265
 11
-1.9830204082
 21
6.1068163265
  0
LINE
  5
2C5
100
AcDbEntity
  8
CURVE
100
AcDbLine
 62
7
  6
CONTINUOUS
 10
-0.6949526465
 20
5.7538173265
 11
-0.6592229955
 21
5.7538073265
  0
LINE
  5
2C6
100
AcDbEntity
  8
RACCORDO
100
AcDbLine
 62
253
  6
CONTINUOUS
 10
-10.0308779428
 20
4.9710604005
 11
-10.0830204082
 21
4.9751444838
  0
LINE
  5
2C7
100
AcDbEntity
  8
0
100
AcDbLine
 62
253
  6
CONTINUOUS
 10
-10.0308779428
 20
4.9710604005
 11
-10.0830204082
 21
4.9751444838
  0
LINE
  5
2C8
100
AcDbEntity
  8
CURVE
100
AcDbLine
 62
253
  6
CONTINUOUS
 10
-22.0830204082
 20
9.6853877772
 11
-21.8044489575
 21
9.4996735026
  0
LINE
  5
2C9
100
AcDbEntity
  8
CURVE
100
AcDbLine
 62
253
  6
CONTINUOUS
 10
-21.7115918589
 20
8.7568163265
 11
-22.0830204082
 21
9.1282449146
  0
LINE
  5
2CA
100
AcDbEntity
  8
SMUSSO
100
AcDbLine
 62
7
  6
CONTINUOUS
 10
-12.0330204082
 20
6.5068163265
 11
-16.0330204082
 21
6.5068163265
  0
LINE
  5
2CB
100
AcDbEntity
  8
ASSI
100
AcDbLine
 62
7
  6
CONTINUOUS
 10
-12.0330204082
 20
6.5068163265
 11
-16.0330204082
 21
6.5068163265
  0
LINE
  5
2CC
100
AcDbEntity
  8
CURVE
100
AcDbLine
 62
253
  6
CONTINUOUS
 10
-0.726266122
 20
6.6139594425
 11
-0.7215290405
 21
6.6139594425
  0
LINE
  5
2CD
100
AcDbEntity
  8
0
100
AcDbLine
 62
7
  6
CONTINUOUS
 10
-15.3830204082
 20
6.7568163265
 11
-12.3830204082
 21
6.7568163265
  0
LINE
  5
2CE
100
AcDbEntity
  8
RACCORDO
100
AcDbLine
 62
7
  6
CONTINUOUS
 10
-1.9244538864
 20
7.379001781
 11
-1.9830204082
 21
7.379001781
  0
LINE
  5
2CF
100
AcDbEntity
  8
0
100
AcDbLine
 62
7
  6
CONTINUOUS
 10
-1.9244538864
 20
7.379001781
 11
-1.9830204082
 21
7.379001781
  0
LINE
  5
2D0
100
AcDbEntity
  8
RACCORDO
100
AcDbLine
 62
253
  6
CONTINUOUS
 10
-1.9244070883
 20
7.3913117163
 11
-1.9830204082
 21
7.3913117163
  0
LINE
  5
2D1
100
AcDbEntity
  8
0
100
AcDbLine
 62
253
  6
CONTINUOUS
 10
-1.9244070883
 20
7.3913117163
 11
-1.9830204082
 21
7.3913117163
  0
LINE
  5
2D2
100
AcDbEntity
  8
CURVE
100
AcDbLine
 62
7
  6
CONTINUOUS
 10
-0.7098114562
 20
7.5966063265
 11
-0.6592229955
 21
7.5966063265
  0
LINE
  5
2D3
100
AcDbEntity
  8
RACCORDO
100
AcDbLine
 62
253
  6
CONTINUOUS
 10
-1.9234796356
 20
7.6912660249
 11
-1.9830204082
 21
7.6912660249
  0
LINE
  5
2D4
100
AcDbEntity
  8
0
100
AcDbLine
 62
253
  6
CONTINUOUS
 10
-1.9234796356
 20
7.6912660249
 11
-1.9830204082
 21
7.6912660249
  0
LINE
  5
2D5
100
AcDbEntity
  8
CURVE
100
AcDbLine
 62
253
  6
CONTINUOUS
 10
-19.6830204082
 20
8.0568163265
 11
-17.7830204082
 21
8.0568163265
  0
LINE
  5
2D6
100
AcDbEntity
  8
CURVE
100
AcDbLine
 62
253
  6
CONTINUOUS
 10
-0.7167919591
 20
8.1068163265
 11
-0.7499515313
 21
8.1068163265
  0
LINE
  5
2D7
100
AcDbEntity
  8
CURVE
100
AcDbLine
 62
253
  6
CONTINUOUS
 10
-21.7115918589
 20
10.5211019744
 11
-21.8973061335
 21
10.613959228
  0
LINE
  5
2D8
100
AcDbEntity
  8
CURVE
100
AcDbLine
 62
253
  6
CONTINUOUS
 10
-20.7830204082
 20
9.4996735026
 11
-21.7115918589
 21
10.1496734251
  0
LINE
  5
2D9
100
AcDbEntity
  8
CURVE
100
AcDbLine
 62
253
  6
CONTINUOUS
 10
-21.8973061335
 20
10.613959228
 11
-22.0830204082
 21
10.7996734251
  0
LINE
  5
2DA
100
AcDbEntity
  8
CURVE
100
AcDbLine
 62
253
  6
CONTINUOUS
 10
-20.9687347022
 20
11.0782448758
 11
-20.7830204082
 21
10.8925306787
  0
LINE
  5
2DB
100
AcDbEntity
  8
0
100
AcDbLine
 62
7
  6
CONTINUOUS
 10
-7.445680488
 20
46.1226802305
 11
-7.4650088703
 21
46.1011711545
  0
LINE
  5
2DC
100
AcDbEntity
  8
0
100
AcDbLine
 62
7
  6
CONTINUOUS
 10
-7.4650088703
 20
46.1011711545
 11
-7.4871545373
 21
46.0768499529
  0
LINE
  5
2DD
100
AcDbEntity
  8
0
100
AcDbLine
 62
7
  6
CONTINUOUS
 10
-7.4871545373
 20
46.0768499529
 11
-7.5122269341
 21
46.0495992546
  0
LINE
  5
2DE
100
AcDbEntity
  8
0
100
AcDbLine
 62
7
  6
CONTINUOUS
 10
-7.5122269341
 20
46.0495992546
 11
-7.5554249937
 21
46.0031398219
  0
LINE
  5
2DF
100
AcDbEntity
  8
0
100
AcDbLine
 62
7
  6
CONTINUOUS
 10
-7.5554249937
 20
46.0031398219
 11
-7.6231909256
 21
45.9309935503
  0
LINE
  5
2E0
100
AcDbEntity
  8
0
100
AcDbLine
 62
7
  6
CONTINUOUS
 10
-7.6231909256
 20
45.9309935503
 11
-7.701042974
 21
45.8487603325
  0
LWPOLYLINE
  5
2E1
100
AcDbEntity
  8
0
100
AcDbPolyline
 62
7
  6
CONTINUOUS
 90
3
 70
0
 10
-7.701042974
 20
45.8487603325
 10
-7.786039545
 20
45.759400884
 10
-7.8299776982
 20
45.7131741412
  0
LINE
  5
2E2
100
AcDbEntity
  8
0
100
AcDbLine
 62
7
  6
CONTINUOUS
 10
-7.376671055
 20
46.2131656797
 11
-7.3330204082
 21
46.2568163265
  0
LINE
  5
2E3
100
AcDbEntity
  8
0
100
AcDbLine
 62
7
  6
CONTINUOUS
 10
-7.3330204082
 20
44.6568163265
 11
-7.3769426552
 21
44.6128940795
  0
LINE
  5
2E4
100
AcDbEntity
  8
0
100
AcDbLine
 62
253
  6
CONTINUOUS
 10
-1.1330140621
 20
44.6568163265
 11
-1.1417409299
 21
44.6509984967
  0
LWPOLYLINE
  5
2E5
100
AcDbEntity
  8
RACCORDO
100
AcDbPolyline
 62
253
  6
CONTINUOUS
 90
3
 70
0
 10
-9.8896982174
 20
39.6016304974
 10
-9.9327437515
 20
39.5745803664
 10
-9.9802684716
 20
39.5547178703
  0
LWPOLYLINE
  5
2E6
100
AcDbEntity
  8
0
100
AcDbPolyline
 62
253
  6
CONTINUOUS
 90
3
 70
0
 10
-9.8896982174
 20
39.6016304974
 10
-9.9327437515
 20
39.5745803664
 10
-9.9802684716
 20
39.5547178703
  0
LINE
  5
2E7
100
AcDbEntity
  8
RACCORDO
100
AcDbLine
 62
253
  6
CONTINUOUS
 10
-1.2187176277
 20
41.342513546
 11
-1.3409030822
 21
41.2919026737
  0
LINE
  5
2E8
100
AcDbEntity
  8
0
100
AcDbLine
 62
253
  6
CONTINUOUS
 10
-1.2187176277
 20
41.342513546
 11
-1.3409030822
 21
41.2919026737
  0
LINE
  5
2E9
100
AcDbEntity
  8
CURVE
100
AcDbLine
 62
253
  6
CONTINUOUS
 10
-22.0830204082
 20
9.1282449146
 11
-20.7830204082
 21
9.1282449146
  0
LINE
  5
2EA
100
AcDbEntity
  8
0
100
AcDbLine
 62
7
  6
CONTINUOUS
 10
-12.3830204082
 20
9.7568163265
 11
-15.3830204082
 21
9.7568163265
  0
LINE
  5
2EB
100
AcDbEntity
  8
CURVE
100
AcDbLine
 62
7
  6
CONTINUOUS
 10
-0.6744717722
 20
7.0911603265
 11
-0.7098114562
 21
7.0981843265
  0
LINE
  5
2EC
100
AcDbEntity
  8
CURVE
100
AcDbLine
 62
253
  6
CONTINUOUS
 10
-20.7830204082
 20
11.913959228
 11
-22.0830204082
 21
12.2853876223
  0
LINE
  5
2ED
100
AcDbEntity
  8
RACCORDO
100
AcDbLine
 62
253
  6
CONTINUOUS
 10
-1.3409030822
 20
3.2217299794
 11
-1.2187176277
 21
3.171119107
  0
LINE
  5
2EE
100
AcDbEntity
  8
0
100
AcDbLine
 62
253
  6
CONTINUOUS
 10
-1.3409030822
 20
3.2217299794
 11
-1.2187176277
 21
3.171119107
  0
LINE
  5
2EF
100
AcDbEntity
  8
CURVE
100
AcDbLine
 62
253
  6
CONTINUOUS
 10
-21.1544489962
 20
11.1711019744
 11
-20.9687347022
 21
11.0782448758
  0
LWPOLYLINE
  5
2F0
100
AcDbEntity
  8
RACCORDO
100
AcDbPolyline
 62
253
  6
CONTINUOUS
 90
4
 70
0
 10
-9.8896982174
 20
4.9120021556
 10
-9.9327437515
 20
4.9390522866
 10
-9.9802684716
 20
4.9589147827
 10
-10.0308779428
 20
4.9710604005
  0
LWPOLYLINE
  5
2F1
100
AcDbEntity
  8
0
100
AcDbPolyline
 62
253
  6
CONTINUOUS
 90
4
 70
0
 10
-9.8896982174
 20
4.9120021556
 10
-9.9327437515
 20
4.9390522866
 10
-9.9802684716
 20
4.9589147827
 10
-10.0308779428
 20
4.9710604005
  0
LINE
  5
2F2
100
AcDbEntity
  8
0
100
AcDbLine
 62
253
  6
CONTINUOUS
 10
-1.1417409299
 20
-0.1373658437
 11
-1.1330140621
 21
-0.1431836735
  0
LINE
  5
2F3
100
AcDbEntity
  8
0
100
AcDbLine
 62
7
  6
CONTINUOUS
 10
-7.376671055
 20
-1.6995330266
 11
-7.3330204082
 21
-1.7431836735
  0
LINE
  5
2F4
100
AcDbEntity
  8
0
100
AcDbLine
 62
7
  6
CONTINUOUS
 10
-7.3330204082
 20
-0.1431836735
 11
-7.3769426552
 21
-0.0992614264
  0
LINE
  5
2F5
100
AcDbEntity
  8
0
100
AcDbLine
 62
7
  6
CONTINUOUS
 10
-7.8299776982
 20
-1.1995414882
 11
-7.6232716288
 21
-1.4172757559
  0
LINE
  5
2F6
100
AcDbEntity
  8
0
100
AcDbLine
 62
7
  6
CONTINUOUS
 10
-7.6232716288
 20
-1.4172757559
 11
-7.5555488803
 21
-1.4893745089
  0
LINE
  5
2F7
100
AcDbEntity
  8
0
100
AcDbLine
 62
7
  6
CONTINUOUS
 10
-7.5555488803
 20
-1.4893745089
 11
-7.5123470644
 21
-1.535836571
  0
LINE
  5
2F8
100
AcDbEntity
  8
0
100
AcDbLine
 62
7
  6
CONTINUOUS
 10
-7.5123470644
 20
-1.535836571
 11
-7.4872686175
 21
-1.5630925253
  0
LINE
  5
2F9
100
AcDbEntity
  8
0
100
AcDbLine
 62
7
  6
CONTINUOUS
 10
-7.4872686175
 20
-1.5630925253
 11
-7.4651181476
 21
-1.5874177313
  0
LWPOLYLINE
  5
2FA
100
AcDbEntity
  8
0
100
AcDbPolyline
 62
7
  6
CONTINUOUS
 90
18
 70
0
 10
-7.4651181476
 20
-1.5874177313
 10
-7.4457949218
 20
-1.6089194223
 10
-7.4371495938
 20
-1.6186669006
 10
-7.4291663337
 20
-1.627757649
 10
-7.4218261463
 20
-1.6361966398
 10
-7.4150906854
 20
-1.6440502511
 10
-7.4089535143
 20
-1.6513201669
 10
-7.4033998453
 20
-1.6580047032
 10
-7.3983915062
 20
-1.6641651861
 10
-7.3939197447
 20
-1.6698132964
 10
-7.3899855593
 20
-1.6749373533
 10
-7.3865762063
 20
-1.6795636407
 10
-7.3836875511
 20
-1.6836951729
 10
-7.3813181234
 20
-1.6873289355
 10
-7.3794627561
 20
-1.6904821701
 10
-7.3781176477
 20
-1.6931606236
 10
-7.3772791772
 20
-1.6953585491
 10
-7.3769426552
 20
-1.6970759465
  0
LINE
  5
2FB
100
AcDbEntity
  8
CURVE
100
AcDbLine
 62
253
  6
CONTINUOUS
 10
-21.1854013753
 20
12.6568163265
 11
-21.2782585126
 21
12.8734830965
  0
LWPOLYLINE
  5
2FC
100
AcDbEntity
  8
0
100
AcDbPolyline
 62
7
  6
CONTINUOUS
 90
6
 70
0
 10
-21.9304758823
 20
-2.0287660396
 10
-21.9285027759
 20
-2.040499961
 10
-21.9259735899
 20
-2.0521267123
 10
-21.9228940499
 20
-2.0636199525
 10
-21.9192711295
 20
-2.0749536472
 10
-21.9151130339
 20
-2.0861021228
  0
LWPOLYLINE
  5
2FD
100
AcDbEntity
  8
0
100
AcDbPolyline
 62
7
  6
CONTINUOUS
 90
4
 70
0
 10
-21.9330204082
 20
-1.9931879043
 10
-21.9327372579
 20
-2.0050831895
 10
-21.9318884424
 20
-2.016951529
 10
-21.9304758823
 20
-2.0287660396
  0
LWPOLYLINE
  5
2FE
100
AcDbEntity
  8
0
100
AcDbPolyline
 62
7
  6
CONTINUOUS
 90
34
 70
0
 10
-21.9286485742
 20
-1.9888160703
 10
-21.9283649453
 20
-2.0007127292
 10
-21.9275155052
 20
-2.0125824474
 10
-21.9261021764
 20
-2.0243983298
 10
-21.9241281578
 20
-2.0361336095
 10
-21.9215979207
 20
-2.0477616888
 10
-21.9185172021
 20
-2.0592561999
 10
-21.914892985
 20
-2.0705910924
 10
-21.9107334807
 20
-2.0817406887
 10
-21.9060481164
 20
-2.0926797222
 10
-21.9008475088
 20
-2.1033834087
 10
-21.8951434435
 20
-2.1138274939
 10
-21.8889488512
 20
-2.123988306
 10
-21.8822777711
 20
-2.1338428221
 10
-21.8751453201
 20
-2.1433687164
 10
-21.8675676635
 20
-2.1525444034
 10
-21.8595619694
 20
-2.1613490989
 10
-21.8511463832
 20
-2.1697628505
 10
-21.8423399916
 20
-2.1777665821
 10
-21.8331627783
 20
-2.185342143
 10
-21.8236355169
 20
-2.1924723963
 10
-21.8137797322
 20
-2.1991412336
 10
-21.8036176566
 20
-2.205333596
 10
-21.7931724031
 20
-2.2110353845
 10
-21.7824678683
 20
-2.2162335698
 10
-21.7715284671
 20
-2.2209163434
 10
-21.7603788552
 20
-2.2250731978
 10
-21.7490440901
 20
-2.2286948075
 10
-21.7375481244
 20
-2.2317733862
 10
-21.7259186892
 20
-2.2343013761
 10
-21.7141871945
 20
-2.236272322
 10
-21.702382019
 20
-2.237682318
 10
-21.6905282765
 20
-2.2385292198
 10
-21.6786528049
 20
-2.2388118395
  0
LWPOLYLINE
  5
2FF
100
AcDbEntity
  8
0
100
AcDbPolyline
 62
7
  6
CONTINUOUS
 90
40
 70
0
 10
-22.9330204082
 20
0.3570451786
 10
-22.9326215624
 20
0.3369163832
 10
-22.9314147344
 20
0.3168251319
 10
-22.9294019751
 20
0.2968037536
 10
-22.9265869976
 20
0.2768884196
 10
-22.9229743508
 20
0.2571071853
 10
-22.9185680544
 20
0.2374801865
 10
-22.9133738311
 20
0.2180376704
 10
-22.9073991376
 20
0.1988129687
 10
-22.9006505926
 20
0.1798309582
 10
-22.8931329239
 20
0.1611123704
 10
-22.8848601492
 20
0.1426992353
 10
-22.8758571223
 20
0.1246467324
 10
-22.8661488543
 20
0.1069991146
 10
-22.8557446196
 20
0.0897679658
 10
-22.8446477171
 20
0.0729586367
 10
-22.8328634948
 20
0.056584266
 10
-22.8204197527
 20
0.0406883161
 10
-22.8073553613
 20
0.025320069
 10
-22.7937072479
 20
0.0105180224
 10
-22.7794859879
 20
-0.0037110366
 10
-22.7646924184
 20
-0.0173664233
 10
-22.7493338928
 20
-0.0304372057
 10
-22.7334484782
 20
-0.0428869715
 10
-22.7170839635
 20
-0.0546781203
 10
-22.7002831164
 20
-0.0657830529
 10
-22.6830595881
 20
-0.0761958732
 10
-22.6654189223
 20
-0.0859132265
 10
-22.6473716773
 20
-0.0949260985
 10
-22.6289630408
 20
-0.1032087986
 10
-22.610251509
 20
-0.1107353494
 10
-22.5912821677
 20
-0.1174908321
 10
-22.5720730523
 20
-0.1234720086
 10
-22.5526436374
 20
-0.1286743353
 10
-22.5330141191
 20
-0.1330922588
 10
-22.5132275848
 20
-0.1367159705
 10
-22.4933382754
 20
-0.1395376413
 10
-22.4733861518
 20
-0.1415553807
 10
-22.4533963074
 20
-0.1427702996
 10
-22.4334010079
 20
-0.1431836735
  0
LINE
  5
300
100
AcDbEntity
  8
RACCORDO
100
AcDbLine
 62
7
  6
CONTINUOUS
 10
-22.9330204082
 20
39.9285153752
 11
-22.9330204082
 21
4.5851172778
  0
LINE
  5
301
100
AcDbEntity
  8
0
100
AcDbLine
 62
7
  6
CONTINUOUS
 10
-22.9330204082
 20
0.3567994035
 11
-22.9330204082
 21
44.1568332496
  0
LINE
  5
302
100
AcDbEntity
  8
0
100
AcDbLine
 62
7
  6
CONTINUOUS
 10
-22.9242935404
 20
0.3626172333
 11
-22.9242935404
 21
3.7480894587
  0
LINE
  5
303
100
AcDbEntity
  8
0
100
AcDbLine
 62
7
  6
CONTINUOUS
 10
-22.9242935404
 20
40.7655431943
 11
-22.9242935404
 21
44.1510154198
  0
LINE
  5
304
100
AcDbEntity
  8
0
100
AcDbLine
 62
7
  6
CONTINUOUS
 10
-22.9155666726
 20
40.7742700621
 11
-22.9155666726
 21
40.1761057389
  0
LINE
  5
305
100
AcDbEntity
  8
0
100
AcDbLine
 62
7
  6
CONTINUOUS
 10
-22.9155666726
 20
4.3375269142
 11
-22.9155666726
 21
3.7393625909
  0
LINE
  5
306
100
AcDbEntity
  8
RACCORDO
100
AcDbLine
 62
7
  6
CONTINUOUS
 10
-22.8108349537
 20
39.8779045029
 11
-22.8108349537
 21
4.6357281502
  0
LINE
  5
307
100
AcDbEntity
  8
0
100
AcDbLine
 62
7
  6
CONTINUOUS
 10
-22.8108349537
 20
39.8779045029
 11
-22.8108349537
 21
4.6357281502
  0
LINE
  5
308
100
AcDbEntity
  8
RACCORDO
100
AcDbLine
 62
7
  6
CONTINUOUS
 10
-22.7961107098
 20
40.2480407166
 11
-22.7961107098
 21
4.2655919364
  0
LINE
  5
309
100
AcDbEntity
  8
ASSI
100
AcDbLine
 62
7
  6
CONTINUOUS
 10
-22.7961107098
 20
40.2480407166
 11
-22.7961107098
 21
4.2655919364
  0
LWPOLYLINE
  5
30A
100
AcDbEntity
  8
0
100
AcDbPolyline
 62
7
  6
CONTINUOUS
 90
40
 70
0
 10
-22.9330204082
 20
44.1565874745
 10
-22.9326215624
 20
44.1767162698
 10
-22.9314147344
 20
44.1968075211
 10
-22.9294019751
 20
44.2168288995
 10
-22.9265869976
 20
44.2367442335
 10
-22.9229743508
 20
44.2565254677
 10
-22.9185680544
 20
44.2761524666
 10
-22.9133738311
 20
44.2955949827
 10
-22.9073991376
 20
44.3148196844
 10
-22.9006505926
 20
44.3338016948
 10
-22.8931329239
 20
44.3525202827
 10
-22.8848601492
 20
44.3709334178
 10
-22.8758571223
 20
44.3889859207
 10
-22.8661488543
 20
44.4066335385
 10
-22.8557446196
 20
44.4238646872
 10
-22.8446477171
 20
44.4406740164
 10
-22.8328634948
 20
44.457048387
 10
-22.8204197527
 20
44.472944337
 10
-22.8073553613
 20
44.488312584
 10
-22.7937072479
 20
44.5031146306
 10
-22.7794859879
 20
44.5173436896
 10
-22.7646924184
 20
44.5309990763
 10
-22.7493338928
 20
44.5440698588
 10
-22.7334484782
 20
44.5565196246
 10
-22.7170839635
 20
44.5683107734
 10
-22.7002831164
 20
44.579415706
 10
-22.6830595881
 20
44.5898285262
 10
-22.6654189223
 20
44.5995458795
 10
-22.6473716773
 20
44.6085587516
 10
-22.6289630408
 20
44.6168414517
 10
-22.610251509
 20
44.6243680025
 10
-22.5912821677
 20
44.6311234851
 10
-22.5720730523
 20
44.6371046617
 10
-22.5526436374
 20
44.6423069884
 10
-22.5330141191
 20
44.6467249119
 10
-22.5132275848
 20
44.6503486236
 10
-22.4933382754
 20
44.6531702944
 10
-22.4733861518
 20
44.6551880338
 10
-22.4533963074
 20
44.6564029526
 10
-22.4334010079
 20
44.6568163265
  0
LINE
  5
30B
100
AcDbEntity
  8
DRAFT
100
AcDbLine
 62
7
  6
CONTINUOUS
 10
-8.2830204082
 20
42.1568163265
 11
-8.3196760445
 21
42.1201606902
  0
LINE
  5
30C
100
AcDbEntity
  8
0
100
AcDbLine
 62
7
  6
CONTINUOUS
 10
-8.2830204082
 20
42.1568163265
 11
-8.3196760445
 21
42.1201606902
  0
LINE
  5
30D
100
AcDbEntity
  8
DRAFT
100
AcDbLine
 62
7
  6
CONTINUOUS
 10
-8.2830204082
 20
41.9568163265
 11
-8.3196760445
 21
41.9201606902
  0
LINE
  5
30E
100
AcDbEntity
  8
0
100
AcDbLine
 62
7
  6
CONTINUOUS
 10
-8.2830204082
 20
41.9568163265
 11
-8.3196760445
 21
41.9201606902
  0
LINE
  5
30F
100
AcDbEntity
  8
0
100
AcDbLine
 62
7
  6
CONTINUOUS
 10
-4.592478782
 20
44.592786352
 11
-4.5272025784
 21
44.6509984967
  0
LINE
  5
310
100
AcDbEntity
  8
0
100
AcDbLine
 62
253
  6
CONTINUOUS
 10
-0.6330204082
 20
44.1568332496
 11
-0.641747276
 21
44.1510154198
  0
LINE
  5
311
100
AcDbEntity
  8
RACCORDO
100
AcDbLine
 62
253
  6
CONTINUOUS
 10
-0.6330204082
 20
39.9285153752
 11
-0.7552058627
 21
39.8779045029
  0
LINE
  5
312
100
AcDbEntity
  8
0
100
AcDbLine
 62
253
  6
CONTINUOUS
 10
-0.6330204082
 20
39.9285153752
 11
-0.7552058627
 21
39.8779045029
  0
LINE
  5
313
100
AcDbEntity
  8
CURVE
100
AcDbLine
 62
253
  6
CONTINUOUS
 10
-8.7115918589
 20
34.2568163265
 11
-7.7830204082
 21
34.5353879322
  0
LINE
  5
314
100
AcDbEntity
  8
SMUSSO
100
AcDbLine
 62
7
  6
CONTINUOUS
 10
-16.0330204082
 20
10.0068163265
 11
-12.0330204082
 21
10.0068163265
  0
LINE
  5
315
100
AcDbEntity
  8
ASSI
100
AcDbLine
 62
7
  6
CONTINUOUS
 10
-16.0330204082
 20
10.0068163265
 11
-12.0330204082
 21
10.0068163265
  0
LINE
  5
316
100
AcDbEntity
  8
CURVE
100
AcDbLine
 62
253
  6
CONTINUOUS
 10
-21.7115918589
 20
10.1496734251
 11
-21.8973061335
 21
10.1496734251
  0
LINE
  5
317
100
AcDbEntity
  8
RACCORDO
100
AcDbLine
 62
7
  6
CONTINUOUS
 10
-1.06994153
 20
10.4068163265
 11
-1.9830204082
 21
10.4068163265
  0
LINE
  5
318
100
AcDbEntity
  8
ASSI
100
AcDbLine
 62
7
  6
CONTINUOUS
 10
-1.06994153
 20
10.4068163265
 11
-1.9830204082
 21
10.4068163265
  0
LINE
  5
319
100
AcDbEntity
  8
SMUSSO
100
AcDbLine
 62
7
  6
CONTINUOUS
 10
-16.5330204082
 20
10.5068163265
 11
-11.5330204082
 21
10.5068163265
  0
LINE
  5
31A
100
AcDbEntity
  8
ASSI
100
AcDbLine
 62
7
  6
CONTINUOUS
 10
-16.5330204082
 20
10.5068163265
 11
-11.5330204082
 21
10.5068163265
  0
LINE
  5
31B
100
AcDbEntity
  8
CURVE
100
AcDbLine
 62
253
  6
CONTINUOUS
 10
-21.1544489962
 20
10.5211019744
 11
-21.7115918589
 21
10.5211019744
  0
LINE
  5
31C
100
AcDbEntity
  8
SMUSSO
100
AcDbLine
 62
7
  6
CONTINUOUS
 10
-11.5330204082
 20
11.0068163265
 11
-16.5330204082
 21
11.0068163265
  0
LINE
  5
31D
100
AcDbEntity
  8
ASSI
100
AcDbLine
 62
7
  6
CONTINUOUS
 10
-11.5330204082
 20
11.0068163265
 11
-16.5330204082
 21
11.0068163265
  0
LINE
  5
31E
100
AcDbEntity
  8
RACCORDO
100
AcDbLine
 62
7
  6
CONTINUOUS
 10
-1.06994153
 20
11.1068163265
 11
-1.9830204082
 21
11.1068163265
  0
LINE
  5
31F
100
AcDbEntity
  8
ASSI
100
AcDbLine
 62
7
  6
CONTINUOUS
 10
-1.06994153
 20
11.1068163265
 11
-1.9830204082
 21
11.1068163265
  0
LINE
  5
320
100
AcDbEntity
  8
CURVE
100
AcDbLine
 62
253
  6
CONTINUOUS
 10
-21.7115918589
 20
11.1711019744
 11
-21.1544489962
 21
11.1711019744
  0
LINE
  5
321
100
AcDbEntity
  8
CURVE
100
AcDbLine
 62
253
  6
CONTINUOUS
 10
-0.7238975822
 20
11.2282447685
 11
-0.7167919591
 21
11.2282447685
  0
LINE
  5
322
100
AcDbEntity
  8
SMUSSO
100
AcDbLine
 62
7
  6
CONTINUOUS
 10
-12.0330204082
 20
11.5068163265
 11
-16.0330204082
 21
11.5068163265
  0
LINE
  5
323
100
AcDbEntity
  8
ASSI
100
AcDbLine
 62
7
  6
CONTINUOUS
 10
-12.0330204082
 20
11.5068163265
 11
-16.0330204082
 21
11.5068163265
  0
LINE
  5
324
100
AcDbEntity
  8
RACCORDO
100
AcDbLine
 62
253
  6
CONTINUOUS
 10
-0.7552058627
 20
4.6357281502
 11
-0.6330204082
 21
4.5851172778
  0
LINE
  5
325
100
AcDbEntity
  8
0
100
AcDbLine
 62
253
  6
CONTINUOUS
 10
-0.7552058627
 20
4.6357281502
 11
-0.6330204082
 21
4.5851172778
  0
LINE
  5
326
100
AcDbEntity
  8
0
100
AcDbLine
 62
253
  6
CONTINUOUS
 10
-0.641747276
 20
0.3626172333
 11
-0.6330204082
 21
0.3567994035
  0
LINE
  5
327
100
AcDbEntity
  8
0
100
AcDbLine
 62
7
  6
CONTINUOUS
 10
-4.592478782
 20
-0.079153699
 11
-4.5272025784
 21
-0.1373658437
  0
LINE
  5
328
100
AcDbEntity
  8
CURVE
100
AcDbLine
 62
253
  6
CONTINUOUS
 10
-19.4115918529
 20
12.7568163265
 11
-19.6830204082
 21
13.0282449101
  0
LINE
  5
329
100
AcDbEntity
  8
SMUSSO
100
AcDbLine
 62
7
  6
CONTINUOUS
 10
-16.5330204082
 20
10.5068163265
 11
-16.0330204082
 21
10.0068163265
  0
LINE
  5
32A
100
AcDbEntity
  8
ASSI
100
AcDbLine
 62
7
  6
CONTINUOUS
 10
-16.5330204082
 20
10.5068163265
 11
-16.0330204082
 21
10.0068163265
  0
LINE
  5
32B
100
AcDbEntity
  8
CURVE
100
AcDbLine
 62
253
  6
CONTINUOUS
 10
-22.0830204082
 20
16.1544356693
 11
-21.8044489575
 21
15.8758640637
  0
LINE
  5
32C
100
AcDbEntity
  8
DRAFT
100
AcDbLine
 62
7
  6
CONTINUOUS
 10
-8.3196760445
 20
2.3934719629
 11
-8.2830204082
 21
2.3568163265
  0
LINE
  5
32D
100
AcDbEntity
  8
0
100
AcDbLine
 62
7
  6
CONTINUOUS
 10
-8.3196760445
 20
2.3934719629
 11
-8.2830204082
 21
2.3568163265
  0
LINE
  5
32E
100
AcDbEntity
  8
DRAFT
100
AcDbLine
 62
7
  6
CONTINUOUS
 10
-8.2830204082
 20
2.5568163265
 11
-8.3196760445
 21
2.5934719629
  0
LINE
  5
32F
100
AcDbEntity
  8
0
100
AcDbLine
 62
7
  6
CONTINUOUS
 10
-8.2830204082
 20
2.5568163265
 11
-8.3196760445
 21
2.5934719629
  0
LINE
  5
330
100
AcDbEntity
  8
SMUSSO
100
AcDbLine
 62
7
  6
CONTINUOUS
 10
-11.5330204082
 20
6.0068163265
 11
-12.0330204082
 21
6.5068163265
  0
LINE
  5
331
100
AcDbEntity
  8
ASSI
100
AcDbLine
 62
7
  6
CONTINUOUS
 10
-11.5330204082
 20
6.0068163265
 11
-12.0330204082
 21
6.5068163265
  0
LINE
  5
332
100
AcDbEntity
  8
CURVE
100
AcDbLine
 62
253
  6
CONTINUOUS
 10
-21.8973061335
 20
16.8044356693
 11
-22.0830204082
 21
16.9901498665
  0
LINE
  5
333
100
AcDbEntity
  8
CURVE
100
AcDbLine
 62
253
  6
CONTINUOUS
 10
-20.7830204082
 20
16.1544356693
 11
-20.9687347022
 21
16.3401498665
  0
LINE
  5
334
100
AcDbEntity
  8
CURVE
100
AcDbLine
 62
253
  6
CONTINUOUS
 10
-21.0925442186
 20
13.1211021294
 11
-21.1854013753
 21
13.3687211622
  0
LWPOLYLINE
  5
335
100
AcDbEntity
  8
0
100
AcDbPolyline
 62
253
  6
CONTINUOUS
 90
34
 70
0
 10
-21.9286485742
 20
46.1011538938
 10
-21.9283319122
 20
46.0908709327
 10
-21.9274517179
 20
46.0806111806
 10
-21.9260099781
 20
46.0703977938
 10
-21.924009948
 20
46.06025383
 10
-21.921456141
 20
46.0502021786
 10
-21.9183543157
 20
46.04026551
 10
-21.914711465
 20
46.0304662395
 10
-21.910535812
 20
46.0208264983
 10
-21.9058367898
 20
46.0113680652
 10
-21.9006250097
 20
46.002112296
 10
-21.894912232
 20
45.9930800728
 10
-21.8887113489
 20
45.9842917777
 10
-21.8820363552
 20
45.9757672451
 10
-21.8749023177
 20
45.9675257163
 10
-21.8673253382
 20
45.9595857924
 10
-21.8593225186
 20
45.9519653943
 10
-21.8509119215
 20
45.9446817212
 10
-21.8421125289
 20
45.9377512115
 10
-21.832944203
 20
45.9311895089
 10
-21.8234276355
 20
45.9250114222
 10
-21.8135842994
 20
45.9192308919
 10
-21.803436398
 20
45.9138609594
 10
-21.7930068471
 20
45.908913753
 10
-21.7823192194
 20
45.9044004531
 10
-21.7713976596
 20
45.90033125
 10
-21.7602667998
 20
45.8967153162
 10
-21.7489517362
 20
45.8935608023
 10
-21.7374777142
 20
45.890874766
 10
-21.7258709168
 20
45.888663356
 10
-21.7141584079
 20
45.8869316735
 10
-21.702366931
 20
45.8856835449
 10
-21.6905228202
 20
45.8849216309
 10
-21.6786528049
 20
45.8846475429
  0
LINE
  5
336
100
AcDbEntity
  8
0
100
AcDbLine
 62
253
  6
CONTINUOUS
 10
-21.9286485742
 20
-1.5875212408
 11
-21.9330204082
 21
-1.1536688217
  0
LINE
  5
337
100
AcDbEntity
  8
0
100
AcDbLine
 62
253
  6
CONTINUOUS
 10
-21.6786528049
 20
-1.3710148898
 11
-21.683743406
 21
-0.8658334043
  0
LINE
  5
338
100
AcDbEntity
  8
CURVE
100
AcDbLine
 62
253
  6
CONTINUOUS
 10
-22.1580204082
 20
22.9443163265
 11
-22.1580204082
 21
22.8193163265
  0
LINE
  5
339
100
AcDbEntity
  8
CURVE
100
AcDbLine
 62
253
  6
CONTINUOUS
 10
-22.0830204082
 20
9.9639591505
 11
-22.0830204082
 21
9.6853877772
  0
LINE
  5
33A
100
AcDbEntity
  8
CURVE
100
AcDbLine
 62
253
  6
CONTINUOUS
 10
-22.0830204082
 20
10.7996734251
 11
-22.0830204082
 21
10.8925306787
  0
LINE
  5
33B
100
AcDbEntity
  8
CURVE
100
AcDbLine
 62
253
  6
CONTINUOUS
 10
-22.0830204082
 20
16.9901498665
 11
-22.0830204082
 21
17.0830066551
  0
LINE
  5
33C
100
AcDbEntity
  8
0
100
AcDbLine
 62
7
  6
CONTINUOUS
 10
-21.9330204082
 20
-1.5875212408
 11
-21.9330204082
 21
-0.1431836735
  0
LINE
  5
33D
100
AcDbEntity
  8
0
100
AcDbLine
 62
7
  6
CONTINUOUS
 10
-21.9330204082
 20
44.6568163265
 11
-21.9330204082
 21
46.1011538938
  0
LINE
  5
33E
100
AcDbEntity
  8
0
100
AcDbLine
 62
7
  6
CONTINUOUS
 10
-21.9286485742
 20
46.5024487233
 11
-21.9286485742
 21
46.1011538938
  0
LINE
  5
33F
100
AcDbEntity
  8
0
100
AcDbLine
 62
7
  6
CONTINUOUS
 10
-21.9286485742
 20
-1.5875212408
 11
-21.9286485742
 21
-1.9888160703
  0
LINE
  5
340
100
AcDbEntity
  8
CURVE
100
AcDbLine
 62
253
  6
CONTINUOUS
 10
-21.7115918589
 20
18.7544356693
 11
-21.7115918589
 21
19.3115776409
  0
LINE
  5
341
100
AcDbEntity
  8
0
100
AcDbLine
 62
253
  6
CONTINUOUS
 10
-21.6786528049
 20
-2.2388118395
 11
-21.6786528049
 21
-1.3710148898
  0
LINE
  5
342
100
AcDbEntity
  8
0
100
AcDbLine
 62
253
  6
CONTINUOUS
 10
-21.6786528049
 20
45.8846475429
 11
-21.6786528049
 21
46.7524444925
  0
LINE
  5
343
100
AcDbEntity
  8
RACCORDO
100
AcDbLine
 62
7
  6
CONTINUOUS
 10
-21.5804023478
 20
41.7831242012
 11
-21.5804023478
 21
41.8594346689
  0
LINE
  5
344
100
AcDbEntity
  8
ASSI
100
AcDbLine
 62
7
  6
CONTINUOUS
 10
-21.5804023478
 20
41.7831242012
 11
-21.5804023478
 21
41.8594346689
  0
LINE
  5
345
100
AcDbEntity
  8
CURVE
100
AcDbLine
 62
253
  6
CONTINUOUS
 10
-21.5258775842
 20
16.1544356693
 11
-21.5258775842
 21
15.7520543923
  0
LINE
  5
346
100
AcDbEntity
  8
CURVE
100
AcDbLine
 62
253
  6
CONTINUOUS
 10
-21.5258775842
 20
17.7330066551
 11
-21.5258775842
 21
18.3830066551
  0
LINE
  5
347
100
AcDbEntity
  8
CURVE
100
AcDbLine
 62
253
  6
CONTINUOUS
 10
-21.4080204082
 20
22.8818163265
 11
-21.4080204082
 21
22.9443163265
  0
LINE
  5
348
100
AcDbEntity
  8
CURVE
100
AcDbLine
 62
253
  6
CONTINUOUS
 10
-20.7830204082
 20
17.0830066551
 11
-20.7830204082
 21
16.9901498665
  0
LINE
  5
349
100
AcDbEntity
  8
CURVE
100
AcDbLine
 62
253
  6
CONTINUOUS
 10
-20.7830204082
 20
10.8925306787
 11
-20.7830204082
 21
10.7996734251
  0
LINE
  5
34A
100
AcDbEntity
  8
CURVE
100
AcDbLine
 62
253
  6
CONTINUOUS
 10
-20.7830204082
 20
10.1496734251
 11
-20.7830204082
 21
9.4996735026
  0
LINE
  5
34B
100
AcDbEntity
  8
CURVE
100
AcDbLine
 62
253
  6
CONTINUOUS
 10
-20.7830204082
 20
15.8758640637
 11
-20.7830204082
 21
16.1544356693
  0
LINE
  5
34C
100
AcDbEntity
  8
CURVE
100
AcDbLine
 62
253
  6
CONTINUOUS
 10
-20.7830204082
 20
18.7544356693
 11
-20.7830204082
 21
19.3115776409
  0
LINE
  5
34D
100
AcDbEntity
  8
0
100
AcDbLine
 62
253
  6
CONTINUOUS
 10
-21.9330204082
 20
45.6673014747
 11
-21.9286485742
 21
46.1011538938
  0
LINE
  5
34E
100
AcDbEntity
  8
0
100
AcDbLine
 62
253
  6
CONTINUOUS
 10
-21.683743406
 20
45.3794660573
 11
-21.6786528049
 21
45.8846475429
  0
LWPOLYLINE
  5
34F
100
AcDbEntity
  8
0
100
AcDbPolyline
 62
253
  6
CONTINUOUS
 90
34
 70
0
 10
-21.9286485742
 20
-1.5875212408
 10
-21.9283319234
 20
-1.5772384732
 10
-21.9274517617
 20
-1.5669789133
 10
-21.9260100754
 20
-1.5567657162
 10
-21.9240101183
 20
-1.5466219325
 10
-21.9214564043
 20
-1.5365704561
 10
-21.9183546969
 20
-1.5266339726
 10
-21.9147119965
 20
-1.5168349081
 10
-21.9105365245
 20
-1.5071953784
 10
-21.9058377046
 20
-1.4977371395
 10
-21.9006261417
 20
-1.488481538
 10
-21.8949135982
 20
-1.4794494633
 10
-21.8887129669
 20
-1.4706613002
 10
-21.8820382421
 20
-1.462136883
 10
-21.8749044884
 20
-1.453895451
 10
-21.8673278063
 20
-1.4459556045
 10
-21.8593252959
 20
-1.4383352632
 10
-21.8509150183
 20
-1.4310516259
 10
-21.842115955
 20
-1.4241211313
 10
-21.8329479651
 20
-1.417559421
 10
-21.8234317402
 20
-1.4113813046
 10
-21.8135887577
 20
-1.4056007256
 10
-21.8034412327
 20
-1.4002307304
 10
-21.7930120677
 20
-1.3952834389
 10
-21.7823248005
 20
-1.3907700167
 10
-21.7714035518
 20
-1.3867006504
 10
-21.7602729701
 20
-1.3830845243
 10
-21.7489581765
 20
-1.3799297999
 10
-21.7374847078
 20
-1.377243597
 10
-21.7258784591
 20
-1.3750319784
 10
-21.7141656248
 20
-1.3732999355
 10
-21.7023726401
 20
-1.3720513774
 10
-21.6905261212
 20
-1.371289122
 10
-21.6786528049
 20
-1.3710148898
  0
LINE
  5
350
100
AcDbEntity
  8
CURVE
100
AcDbLine
 62
253
  6
CONTINUOUS
 10
-22.0955204082
 20
23.1943163265
 11
-22.1580204082
 21
22.9443163265
  0
LINE
  5
351
100
AcDbEntity
  8
CURVE
100
AcDbLine
 62
253
  6
CONTINUOUS
 10
-22.0330204082
 20
23.3818163265
 11
-22.0955204082
 21
23.1943163265
  0
LINE
  5
352
100
AcDbEntity
  8
CURVE
100
AcDbLine
 62
253
  6
CONTINUOUS
 10
-21.4705204082
 20
22.6943163265
 11
-21.4080204082
 21
22.8818163265
  0
LINE
  5
353
100
AcDbEntity
  8
CURVE
100
AcDbLine
 62
253
  6
CONTINUOUS
 10
-21.9705204082
 20
23.5068163265
 11
-22.0330204082
 21
23.3818163265
  0
LINE
  5
354
100
AcDbEntity
  8
CURVE
100
AcDbLine
 62
253
  6
CONTINUOUS
 10
-21.5330204082
 20
22.5693163265
 11
-21.4705204082
 21
22.6943163265
  0
LINE
  5
355
100
AcDbEntity
  8
DRAFT
100
AcDbLine
 62
7
  6
CONTINUOUS
 10
-5.1782979947
 20
42.36153874
 11
-5.2786569743
 21
42.2611797604
  0
LINE
  5
356
100
AcDbEntity
  8
DRAFT
100
AcDbLine
 62
7
  6
CONTINUOUS
 10
-5.1782979947
 20
42.06153874
 11
-5.2786569743
 21
41.9611797604
  0
LINE
  5
357
100
AcDbEntity
  8
CURVE
100
AcDbLine
 62
253
  6
CONTINUOUS
 10
-4.7115918589
 20
34.2568163265
 11
-3.7830204082
 21
34.5353879322
  0
LINE
  5
358
100
AcDbEntity
  8
CURVE
100
AcDbLine
 62
7
  6
CONTINUOUS
 10
-0.6922791182
 20
12.8852413265
 11
-0.7098114562
 21
12.8852313265
  0
LINE
  5
359
100
AcDbEntity
  8
0
100
AcDbLine
 62
7
  6
CONTINUOUS
 10
-15.3830204082
 20
11.7568163265
 11
-12.3830204082
 21
11.7568163265
  0
LINE
  5
35A
100
AcDbEntity
  8
CURVE
100
AcDbLine
 62
253
  6
CONTINUOUS
 10
-0.7475829903
 20
11.7711021055
 11
-0.7357402859
 21
11.7711021055
  0
LINE
  5
35B
100
AcDbEntity
  8
CURVE
100
AcDbLine
 62
253
  6
CONTINUOUS
 10
-0.7286346637
 20
11.8163400282
 11
-0.7215290405
 21
11.8163400282
  0
LINE
  5
35C
100
AcDbEntity
  8
CURVE
100
AcDbLine
 62
253
  6
CONTINUOUS
 10
-19.1401632977
 20
12.7568163265
 11
-19.4115918529
 21
12.7568163265
  0
LINE
  5
35D
100
AcDbEntity
  8
CURVE
100
AcDbLine
 62
253
  6
CONTINUOUS
 10
-0.7167919591
 20
13.128244995
 11
-0.7499515313
 21
13.128244995
  0
LINE
  5
35E
100
AcDbEntity
  8
CURVE
100
AcDbLine
 62
7
  6
CONTINUOUS
 10
-0.7098114562
 20
13.4029783265
 11
-0.6592229955
 21
13.4029783265
  0
LINE
  5
35F
100
AcDbEntity
  8
CURVE
100
AcDbLine
 62
7
  6
CONTINUOUS
 10
-0.6592229955
 20
12.8852313265
 11
-0.6812796519
 21
12.8852413265
  0
LINE
  5
360
100
AcDbEntity
  8
CURVE
100
AcDbLine
 62
253
  6
CONTINUOUS
 10
-21.8044489575
 20
15.8758640637
 11
-21.4330204082
 21
15.6901498665
  0
LINE
  5
361
100
AcDbEntity
  8
CURVE
100
AcDbLine
 62
253
  6
CONTINUOUS
 10
-21.7115918589
 20
16.7115782608
 11
-21.8973061335
 21
16.8044356693
  0
LINE
  5
362
100
AcDbEntity
  8
CURVE
100
AcDbLine
 62
253
  6
CONTINUOUS
 10
-17.7830204082
 20
13.4353877713
 11
-18.0544489917
 21
13.7068163265
  0
LINE
  5
363
100
AcDbEntity
  8
CURVE
100
AcDbLine
 62
253
  6
CONTINUOUS
 10
-20.9687347022
 20
17.2687208523
 11
-20.7830204082
 21
17.0830066551
  0
LINE
  5
364
100
AcDbEntity
  8
DRAFT
100
AcDbLine
 62
7
  6
CONTINUOUS
 10
-5.1782979947
 20
2.152093913
 11
-5.2786569743
 21
2.2524528926
  0
LINE
  5
365
100
AcDbEntity
  8
DRAFT
100
AcDbLine
 62
7
  6
CONTINUOUS
 10
-5.1782979947
 20
2.452093913
 11
-5.2786569743
 21
2.5524528926
  0
LINE
  5
366
100
AcDbEntity
  8
CURVE
100
AcDbLine
 62
253
  6
CONTINUOUS
 10
-22.1580204082
 20
22.8193163265
 11
-22.0955204082
 21
22.6318163265
  0
LINE
  5
367
100
AcDbEntity
  8
CURVE
100
AcDbLine
 62
253
  6
CONTINUOUS
 10
-21.4080204082
 20
22.9443163265
 11
-21.3455204082
 21
22.6943163265
  0
LWPOLYLINE
  5
368
100
AcDbEntity
  8
0
100
AcDbPolyline
 62
253
  6
CONTINUOUS
 90
34
 70
0
 10
-19.0373922422
 20
-1.5875212408
 10
-19.0377088929
 20
-1.5772384732
 10
-19.0385890546
 20
-1.5669789133
 10
-19.0400307409
 20
-1.5567657162
 10
-19.042030698
 20
-1.5466219325
 10
-19.044584412
 20
-1.5365704561
 10
-19.0476861194
 20
-1.5266339726
 10
-19.0513288198
 20
-1.5168349081
 10
-19.0555042919
 20
-1.5071953784
 10
-19.0602031118
 20
-1.4977371395
 10
-19.0654146746
 20
-1.488481538
 10
-19.0711272181
 20
-1.4794494633
 10
-19.0773278495
 20
-1.4706613002
 10
-19.0840025742
 20
-1.462136883
 10
-19.0911363279
 20
-1.453895451
 10
-19.09871301
 20
-1.4459556045
 10
-19.1067155205
 20
-1.4383352632
 10
-19.115125798
 20
-1.4310516259
 10
-19.1239248613
 20
-1.4241211313
 10
-19.1330928512
 20
-1.417559421
 10
-19.1426090762
 20
-1.4113813046
 10
-19.1524520586
 20
-1.4056007256
 10
-19.1625995836
 20
-1.4002307304
 10
-19.1730287487
 20
-1.3952834389
 10
-19.1837160158
 20
-1.3907700167
 10
-19.1946372646
 20
-1.3867006504
 10
-19.2057678462
 20
-1.3830845243
 10
-19.2170826398
 20
-1.3799297999
 10
-19.2285561085
 20
-1.377243597
 10
-19.2401623573
 20
-1.3750319784
 10
-19.2518751916
 20
-1.3732999355
 10
-19.2636681762
 20
-1.3720513774
 10
-19.2755146951
 20
-1.371289122
 10
-19.2873880114
 20
-1.3710148898
  0
LINE
  5
369
100
AcDbEntity
  8
0
100
AcDbLine
 62
253
  6
CONTINUOUS
 10
-19.2873880114
 20
45.8846475429
 11
-19.2822974103
 21
45.3794660573
  0
LINE
  5
36A
100
AcDbEntity
  8
0
100
AcDbLine
 62
253
  6
CONTINUOUS
 10
-19.0373922422
 20
46.1011538938
 11
-19.0330204082
 21
45.6673014747
  0
LINE
  5
36B
100
AcDbEntity
  8
CURVE
100
AcDbLine
 62
253
  6
CONTINUOUS
 10
-20.2830204082
 20
22.7568163265
 11
-20.2830204082
 21
22.9443163265
  0
LINE
  5
36C
100
AcDbEntity
  8
0
100
AcDbLine
 62
7
  6
CONTINUOUS
 10
-20.0155653432
 20
0.8517029164
 11
-20.0155653432
 21
1.3480894587
  0
LINE
  5
36D
100
AcDbEntity
  8
0
100
AcDbLine
 62
7
  6
CONTINUOUS
 10
-20.0155653432
 20
43.1655431943
 11
-20.0155653432
 21
43.6619297367
  0
LINE
  5
36E
100
AcDbEntity
  8
0
100
AcDbLine
 62
7
  6
CONTINUOUS
 10
-19.84958991
 20
43.8402468247
 11
-19.84958991
 21
43.8279051699
  0
LINE
  5
36F
100
AcDbEntity
  8
0
100
AcDbLine
 62
7
  6
CONTINUOUS
 10
-19.84958991
 20
43.1655431943
 11
-19.84958991
 21
43.1568163265
  0
LINE
  5
370
100
AcDbEntity
  8
0
100
AcDbLine
 62
7
  6
CONTINUOUS
 10
-19.84958991
 20
1.3568163265
 11
-19.84958991
 21
1.3480894587
  0
LINE
  5
371
100
AcDbEntity
  8
0
100
AcDbLine
 62
7
  6
CONTINUOUS
 10
-19.84958991
 20
0.6857274831
 11
-19.84958991
 21
0.6733858283
  0
LINE
  5
372
100
AcDbEntity
  8
0
100
AcDbLine
 62
253
  6
CONTINUOUS
 10
-19.84958991
 20
0.8030808994
 11
-19.84958991
 21
1.2651080623
  0
LINE
  5
373
100
AcDbEntity
  8
0
100
AcDbLine
 62
253
  6
CONTINUOUS
 10
-19.84958991
 20
43.2485245908
 11
-19.84958991
 21
43.7105517537
  0
LINE
  5
374
100
AcDbEntity
  8
CURVE
100
AcDbLine
 62
253
  6
CONTINUOUS
 10
-19.6830204082
 20
13.0282449101
 11
-19.6830204082
 21
13.5711020489
  0
LINE
  5
375
100
AcDbEntity
  8
0
100
AcDbLine
 62
253
  6
CONTINUOUS
 10
-19.3496660624
 20
0.9208293779
 11
-19.3496660624
 21
1.2608207808
  0
LINE
  5
376
100
AcDbEntity
  8
0
100
AcDbLine
 62
253
  6
CONTINUOUS
 10
-19.3496660624
 20
43.2528118722
 11
-19.3496660624
 21
43.5928032752
  0
LINE
  5
377
100
AcDbEntity
  8
0
100
AcDbLine
 62
253
  6
CONTINUOUS
 10
-19.2873880114
 20
-2.2388118395
 11
-19.2873880114
 21
-1.3710148898
  0
LINE
  5
378
100
AcDbEntity
  8
0
100
AcDbLine
 62
253
  6
CONTINUOUS
 10
-19.2873880114
 20
45.8846475429
 11
-19.2873880114
 21
46.7524444925
  0
LINE
  5
379
100
AcDbEntity
  8
DRAFT
100
AcDbLine
 62
7
  6
CONTINUOUS
 10
-19.2196760445
 20
1.4068163265
 11
-19.2196760445
 21
2.5934719629
  0
LINE
  5
37A
100
AcDbEntity
  8
0
100
AcDbLine
 62
7
  6
CONTINUOUS
 10
-19.2196760445
 20
1.4068163265
 11
-19.2196760445
 21
2.5934719629
  0
LINE
  5
37B
100
AcDbEntity
  8
DRAFT
100
AcDbLine
 62
7
  6
CONTINUOUS
 10
-19.2196760445
 20
41.9201606902
 11
-19.2196760445
 21
43.1068163265
  0
LINE
  5
37C
100
AcDbEntity
  8
0
100
AcDbLine
 62
7
  6
CONTINUOUS
 10
-19.2196760445
 20
41.9201606902
 11
-19.2196760445
 21
43.1068163265
  0
LINE
  5
37D
100
AcDbEntity
  8
DRAFT
100
AcDbLine
 62
7
  6
CONTINUOUS
 10
-19.1830204082
 20
1.4068163265
 11
-19.1830204082
 21
2.5568163265
  0
LINE
  5
37E
100
AcDbEntity
  8
0
100
AcDbLine
 62
7
  6
CONTINUOUS
 10
-19.1830204082
 20
1.4068163265
 11
-19.1830204082
 21
2.5568163265
  0
LINE
  5
37F
100
AcDbEntity
  8
DRAFT
100
AcDbLine
 62
7
  6
CONTINUOUS
 10
-19.1830204082
 20
41.9568163265
 11
-19.1830204082
 21
43.1068163265
  0
LINE
  5
380
100
AcDbEntity
  8
0
100
AcDbLine
 62
7
  6
CONTINUOUS
 10
-19.1830204082
 20
41.9568163265
 11
-19.1830204082
 21
43.1068163265
  0
LINE
  5
381
100
AcDbEntity
  8
DRAFT
100
AcDbLine
 62
7
  6
CONTINUOUS
 10
-19.0830204082
 20
1.3568163265
 11
-19.0830204082
 21
2.2568163265
  0
LINE
  5
382
100
AcDbEntity
  8
DRAFT
100
AcDbLine
 62
7
  6
CONTINUOUS
 10
-19.0830204082
 20
42.2568163265
 11
-19.0830204082
 21
43.1568163265
  0
LINE
  5
383
100
AcDbEntity
  8
DRAFT
100
AcDbLine
 62
7
  6
CONTINUOUS
 10
-19.0786569743
 20
2.5524528926
 11
-19.0786569743
 21
2.2568163265
  0
LINE
  5
384
100
AcDbEntity
  8
DRAFT
100
AcDbLine
 62
7
  6
CONTINUOUS
 10
-19.0786569743
 20
41.9611797604
 11
-19.0786569743
 21
42.2568163265
  0
LINE
  5
385
100
AcDbEntity
  8
0
100
AcDbLine
 62
7
  6
CONTINUOUS
 10
-19.0373922422
 20
-1.9888160703
 11
-19.0373922422
 21
-1.5875212408
  0
LINE
  5
386
100
AcDbEntity
  8
0
100
AcDbLine
 62
7
  6
CONTINUOUS
 10
-19.0373922422
 20
46.1011538938
 11
-19.0373922422
 21
46.5024487233
  0
LINE
  5
387
100
AcDbEntity
  8
0
100
AcDbLine
 62
7
  6
CONTINUOUS
 10
-19.0330204082
 20
-1.5875212408
 11
-19.0330204082
 21
-0.1431836735
  0
LINE
  5
388
100
AcDbEntity
  8
0
100
AcDbLine
 62
7
  6
CONTINUOUS
 10
-19.0330204082
 20
44.6568163265
 11
-19.0330204082
 21
46.1011538938
  0
LINE
  5
389
100
AcDbEntity
  8
DRAFT
100
AcDbLine
 62
7
  6
CONTINUOUS
 10
-18.9782979947
 20
43.2528118722
 11
-18.9782979947
 21
42.06153874
  0
LINE
  5
38A
100
AcDbEntity
  8
DRAFT
100
AcDbLine
 62
7
  6
CONTINUOUS
 10
-18.9782979947
 20
2.452093913
 11
-18.9782979947
 21
1.2608207808
  0
LINE
  5
38B
100
AcDbEntity
  8
0
100
AcDbLine
 62
253
  6
CONTINUOUS
 10
-19.2822974103
 20
-0.8658334043
 11
-19.2873880114
 21
-1.3710148898
  0
LINE
  5
38C
100
AcDbEntity
  8
0
100
AcDbLine
 62
253
  6
CONTINUOUS
 10
-19.0330204082
 20
-1.1536688217
 11
-19.0373922422
 21
-1.5875212408
  0
LWPOLYLINE
  5
38D
100
AcDbEntity
  8
0
100
AcDbPolyline
 62
253
  6
CONTINUOUS
 90
34
 70
0
 10
-19.0373922422
 20
46.1011538938
 10
-19.0377083694
 20
46.090880116
 10
-19.0385872816
 20
46.0806272056
 10
-19.0400273732
 20
46.0704182957
 10
-19.0420259391
 20
46.0602756964
 10
-19.044578755
 20
46.0502231068
 10
-19.0476796751
 20
46.0402854862
 10
-19.0513213831
 20
46.0304860539
 10
-19.0554958885
 20
46.0208461181
 10
-19.0601938691
 20
46.0113872476
 10
-19.0654048256
 20
46.0021306806
 10
-19.0711169668
 20
45.9930974521
 10
-19.0773172991
 20
45.9843081408
 10
-19.0839917751
 20
45.9757826491
 10
-19.0911253729
 20
45.9675401552
 10
-19.0987020069
 20
45.9595992479
 10
-19.1067045892
 20
45.9519778433
 10
-19.1151150474
 20
45.944693159
 10
-19.1239143799
 20
45.9377616557
 10
-19.1330827167
 20
45.9311989846
 10
-19.1425993685
 20
45.9250199546
 10
-19.1524428536
 20
45.9192385134
 10
-19.1625909524
 20
45.9138677114
 10
-19.1730207573
 20
45.9089196724
 10
-19.1837087246
 20
45.9044055659
 10
-19.1946307413
 20
45.9003355771
 10
-19.2057621405
 20
45.8967188987
 10
-19.2170777548
 20
45.8935637051
 10
-19.2285520127
 20
45.8908771193
 10
-19.2401590385
 20
45.8886651927
 10
-19.2518726722
 20
45.886932908
 10
-19.263666487
 20
45.8856841741
 10
-19.2755138477
 20
45.8849218121
 10
-19.2873880114
 20
45.8846475429
  0
LINE
  5
38E
100
AcDbEntity
  8
CURVE
100
AcDbLine
 62
253
  6
CONTINUOUS
 10
-20.3455204082
 20
22.5693163265
 11
-20.2830204082
 21
22.7568163265
  0
LINE
  5
38F
100
AcDbEntity
  8
CURVE
100
AcDbLine
 62
253
  6
CONTINUOUS
 10
-20.4080204082
 20
22.4443163265
 11
-20.3455204082
 21
22.5693163265
  0
LINE
  5
390
100
AcDbEntity
  8
CURVE
100
AcDbLine
 62
253
  6
CONTINUOUS
 10
-19.4235648648
 20
23.4453099756
 11
-19.1735648648
 21
23.8783226775
  0
LINE
  5
391
100
AcDbEntity
  8
CURVE
100
AcDbLine
 62
253
  6
CONTINUOUS
 10
-21.5955204082
 20
22.5068163265
 11
-21.5330204082
 21
22.5693163265
  0
LINE
  5
392
100
AcDbEntity
  8
CURVE
100
AcDbLine
 62
253
  6
CONTINUOUS
 10
-8.8973061335
 20
33.2353879322
 11
-8.7115918589
 21
33.3282447208
  0
LINE
  5
393
100
AcDbEntity
  8
CURVE
100
AcDbLine
 62
253
  6
CONTINUOUS
 10
-7.9687347022
 20
32.7711021294
 11
-8.1544489962
 21
32.6782450308
  0
LINE
  5
394
100
AcDbEntity
  8
CURVE
100
AcDbLine
 62
253
  6
CONTINUOUS
 10
-8.8973061335
 20
32.213959228
 11
-8.7115918589
 21
32.3068163265
  0
LINE
  5
395
100
AcDbEntity
  8
CURVE
100
AcDbLine
 62
253
  6
CONTINUOUS
 10
-18.0544489917
 20
13.7068163265
 11
-18.3258775753
 21
13.7068163265
  0
LINE
  5
396
100
AcDbEntity
  8
CURVE
100
AcDbLine
 62
7
  6
CONTINUOUS
 10
-0.6592229955
 20
14.0187093265
 11
-0.7098114562
 21
14.0187093265
  0
LINE
  5
397
100
AcDbEntity
  8
CURVE
100
AcDbLine
 62
253
  6
CONTINUOUS
 10
-0.726266122
 20
14.213959216
 11
-0.7404773674
 21
14.213959216
  0
LINE
  5
398
100
AcDbEntity
  8
CURVE
100
AcDbLine
 62
7
  6
CONTINUOUS
 10
-0.7098114562
 20
14.5364783265
 11
-0.6592229955
 21
14.5364783265
  0
LINE
  5
399
100
AcDbEntity
  8
0
100
AcDbLine
 62
7
  6
CONTINUOUS
 10
-12.3830204082
 20
14.7568163265
 11
-15.3830204082
 21
14.7568163265
  0
LINE
  5
39A
100
AcDbEntity
  8
SMUSSO
100
AcDbLine
 62
7
  6
CONTINUOUS
 10
-16.0330204082
 20
15.0068163265
 11
-12.0330204082
 21
15.0068163265
  0
LINE
  5
39B
100
AcDbEntity
  8
ASSI
100
AcDbLine
 62
7
  6
CONTINUOUS
 10
-16.0330204082
 20
15.0068163265
 11
-12.0330204082
 21
15.0068163265
  0
LINE
  5
39C
100
AcDbEntity
  8
CURVE
100
AcDbLine
 62
7
  6
CONTINUOUS
 10
-0.701782478
 20
15.1591503265
 11
-0.7098114562
 21
15.1591503265
  0
LINE
  5
39D
100
AcDbEntity
  8
CURVE
100
AcDbLine
 62
253
  6
CONTINUOUS
 10
-0.7404773674
 20
15.163959216
 11
-0.726266122
 21
15.163959216
  0
LINE
  5
39E
100
AcDbEntity
  8
CURVE
100
AcDbLine
 62
7
  6
CONTINUOUS
 10
-0.6592229955
 20
15.1708033265
 11
-0.6672519737
 21
15.1708033265
  0
LINE
  5
39F
100
AcDbEntity
  8
CURVE
100
AcDbLine
 62
7
  6
CONTINUOUS
 10
-0.6798310436
 20
15.2746893265
 11
-0.6878601963
 21
15.2746893265
  0
LWPOLYLINE
  5
3A0
100
AcDbEntity
  8
CURVE
100
AcDbPolyline
 62
7
  6
CONTINUOUS
 90
17
 70
0
 10
-0.6845170402
 20
8.6270943777
 10
-0.6849697505
 20
8.6273084862
 10
-0.6854235137
 20
8.6279545437
 10
-0.6858780558
 20
8.6290381479
 10
-0.6863331033
 20
8.6305648967
 10
-0.6867883823
 20
8.6325403878
 10
-0.6872436192
 20
8.6349702192
 10
-0.6876985401
 20
8.6378599885
 10
-0.6881528713
 20
8.6412152936
 10
-0.6886063391
 20
8.6450417323
 10
-0.6890586698
 20
8.6493449025
 10
-0.6895095895
 20
8.6541304018
 10
-0.6899588246
 20
8.6594038283
 10
-0.6904061012
 20
8.6651707795
 10
-0.6908511457
 20
8.6714368535
 10
-0.6912936843
 20
8.6782076479
 10
-0.6917334433
 20
8.6854887606
  0
LINE
  5
3A1
100
AcDbEntity
  8
CURVE
100
AcDbLine
 62
253
  6
CONTINUOUS
 10
-21.1544489962
 20
17.3615782608
 11
-20.9687347022
 21
17.2687208523
  0
LINE
  5
3A2
100
AcDbEntity
  8
CURVE
100
AcDbLine
 62
253
  6
CONTINUOUS
 10
-21.7115918589
 20
19.3115776409
 11
-20.7830204082
 21
18.7544356693
  0
LINE
  5
3A3
100
AcDbEntity
  8
SMUSSO
100
AcDbLine
 62
7
  6
CONTINUOUS
 10
-16.5330204082
 20
15.5068163265
 11
-16.0330204082
 21
15.0068163265
  0
LINE
  5
3A4
100
AcDbEntity
  8
ASSI
100
AcDbLine
 62
7
  6
CONTINUOUS
 10
-16.5330204082
 20
15.5068163265
 11
-16.0330204082
 21
15.0068163265
  0
LINE
  5
3A5
100
AcDbEntity
  8
SMUSSO
100
AcDbLine
 62
7
  6
CONTINUOUS
 10
-11.5330204082
 20
11.0068163265
 11
-12.0330204082
 21
11.5068163265
  0
LINE
  5
3A6
100
AcDbEntity
  8
ASSI
100
AcDbLine
 62
7
  6
CONTINUOUS
 10
-11.5330204082
 20
11.0068163265
 11
-12.0330204082
 21
11.5068163265
  0
LINE
  5
3A7
100
AcDbEntity
  8
CURVE
100
AcDbLine
 62
253
  6
CONTINUOUS
 10
-22.0955204082
 20
22.6318163265
 11
-21.9705204082
 21
22.5068163265
  0
LINE
  5
3A8
100
AcDbEntity
  8
CURVE
100
AcDbLine
 62
253
  6
CONTINUOUS
 10
-21.3455204082
 20
22.6943163265
 11
-21.2205204082
 21
22.4443163265
  0
LINE
  5
3A9
100
AcDbEntity
  8
CURVE
100
AcDbLine
 62
253
  6
CONTINUOUS
 10
-20.2830204082
 20
22.9443163265
 11
-20.3455204082
 21
23.1943163265
  0
LWPOLYLINE
  5
3AA
100
AcDbEntity
  8
0
100
AcDbPolyline
 62
7
  6
CONTINUOUS
 90
34
 70
0
 10
-19.0373922422
 20
46.5024487233
 10
-19.037675793
 20
46.5143437449
 10
-19.0385249979
 20
46.5262118215
 10
-19.0399379333
 20
46.5380260694
 10
-19.0419113986
 20
46.5497597267
 10
-19.0444409234
 20
46.5613862139
 10
-19.0475207778
 20
46.5728791945
 10
-19.0511439852
 20
46.5842126343
 10
-19.0553023382
 20
46.5953608606
 10
-19.0599864173
 20
46.60629862
 10
-19.0651856119
 20
46.6170011361
 10
-19.0708881448
 20
46.6274441654
 10
-19.0770810983
 20
46.637604052
 10
-19.0837504442
 20
46.6474577815
 10
-19.0908810747
 20
46.656983033
 10
-19.0984568375
 20
46.6661582296
 10
-19.1064605717
 20
46.6749625876
 10
-19.1148741471
 20
46.683376163
 10
-19.1236785051
 20
46.6913798972
 10
-19.1328537017
 20
46.69895566
 10
-19.1423789532
 20
46.7060862905
 10
-19.1522326827
 20
46.7127556364
 10
-19.1623925693
 20
46.7189485899
 10
-19.1728355986
 20
46.7246511228
 10
-19.1835381147
 20
46.7298503174
 10
-19.1944758741
 20
46.7345343965
 10
-19.2056241004
 20
46.7386927495
 10
-19.2169575402
 20
46.7423159569
 10
-19.2284505208
 20
46.7453958113
 10
-19.240077008
 20
46.7479253361
 10
-19.2518106653
 20
46.7498988014
 10
-19.2636249132
 20
46.7513117368
 10
-19.2754929898
 20
46.7521609417
 10
-19.2873880114
 20
46.7524444925
  0
LWPOLYLINE
  5
3AB
100
AcDbEntity
  8
0
100
AcDbPolyline
 62
7
  6
CONTINUOUS
 90
4
 70
0
 10
-19.0330204082
 20
46.5068205573
 10
-19.0333035584
 20
46.5187158425
 10
-19.0341523739
 20
46.5305841821
 10
-19.035564934
 20
46.5423986927
  0
LINE
  5
3AC
100
AcDbEntity
  8
DRAFT
100
AcDbLine
 62
7
  6
CONTINUOUS
 10
-18.3877428217
 20
42.36153874
 11
-18.3877428217
 21
42.06153874
  0
LINE
  5
3AD
100
AcDbEntity
  8
DRAFT
100
AcDbLine
 62
7
  6
CONTINUOUS
 10
-18.3877428217
 20
2.452093913
 11
-18.3877428217
 21
2.152093913
  0
LINE
  5
3AE
100
AcDbEntity
  8
DRAFT
100
AcDbLine
 62
7
  6
CONTINUOUS
 10
-18.2873838421
 20
42.2611797604
 11
-18.2873838421
 21
41.9611797604
  0
LINE
  5
3AF
100
AcDbEntity
  8
DRAFT
100
AcDbLine
 62
7
  6
CONTINUOUS
 10
-18.2873838421
 20
2.5524528926
 11
-18.2873838421
 21
2.2524528926
  0
LINE
  5
3B0
100
AcDbEntity
  8
CURVE
100
AcDbLine
 62
253
  6
CONTINUOUS
 10
-17.7830204082
 20
8.0568163265
 11
-17.7830204082
 21
8.7353877713
  0
LINE
  5
3B1
100
AcDbEntity
  8
CURVE
100
AcDbLine
 62
253
  6
CONTINUOUS
 10
-17.7830204082
 20
12.8925306183
 11
-17.7830204082
 21
13.4353877713
  0
LWPOLYLINE
  5
3B2
100
AcDbEntity
  8
RACCORDO
100
AcDbPolyline
 62
253
  6
CONTINUOUS
 90
4
 70
0
 10
-9.8007739624
 20
39.7158792324
 10
-9.8226352326
 20
39.6735509962
 10
-9.8525604731
 20
39.6350299048
 10
-9.8896982174
 20
39.6016304974
  0
LWPOLYLINE
  5
3B3
100
AcDbEntity
  8
0
100
AcDbPolyline
 62
253
  6
CONTINUOUS
 90
4
 70
0
 10
-9.8007739624
 20
39.7158792324
 10
-9.8226352326
 20
39.6735509962
 10
-9.8525604731
 20
39.6350299048
 10
-9.8896982174
 20
39.6016304974
  0
LINE
  5
3B4
100
AcDbEntity
  8
CURVE
100
AcDbLine
 62
253
  6
CONTINUOUS
 10
-18.6660331101
 20
23.1234188669
 11
-18.5160331101
 21
23.383226488
  0
LWPOLYLINE
  5
3B5
100
AcDbEntity
  8
0
100
AcDbPolyline
 62
7
  6
CONTINUOUS
 90
4
 70
0
 10
-3.9653337003
 20
43.9542055887
 10
-4.0189898844
 20
43.8750755281
 10
-4.0463556985
 20
43.8350854477
 10
-4.0741431027
 20
43.794954287
  0
LWPOLYLINE
  5
3B6
100
AcDbEntity
  8
0
100
AcDbPolyline
 62
7
  6
CONTINUOUS
 90
4
 70
0
 10
-4.0741431027
 20
43.794954287
 10
-4.1590251154
 20
43.6738128833
 10
-4.1876153572
 20
43.6332822009
 10
-4.2163747539
 20
43.5928032752
  0
LINE
  5
3B7
100
AcDbEntity
  8
CURVE
100
AcDbLine
 62
253
  6
CONTINUOUS
 10
-20.5330204082
 20
22.3193163265
 11
-20.4080204082
 21
22.4443163265
  0
LINE
  5
3B8
100
AcDbEntity
  8
CURVE
100
AcDbLine
 62
253
  6
CONTINUOUS
 10
-9.0830204082
 20
33.0496737351
 11
-8.8973061335
 21
33.2353879322
  0
LINE
  5
3B9
100
AcDbEntity
  8
CURVE
100
AcDbLine
 62
253
  6
CONTINUOUS
 10
-7.9687347022
 20
31.7496734251
 11
-8.1544489962
 21
31.6568163265
  0
LINE
  5
3BA
100
AcDbEntity
  8
CURVE
100
AcDbLine
 62
253
  6
CONTINUOUS
 10
-4.8973061335
 20
33.2353879322
 11
-4.7115918589
 21
33.3282447208
  0
LINE
  5
3BB
100
AcDbEntity
  8
CURVE
100
AcDbLine
 62
253
  6
CONTINUOUS
 10
-3.9687347022
 20
32.7711021294
 11
-4.1544489962
 21
32.6782450308
  0
LINE
  5
3BC
100
AcDbEntity
  8
CURVE
100
AcDbLine
 62
253
  6
CONTINUOUS
 10
-4.8973061335
 20
32.213959228
 11
-4.7115918589
 21
32.3068163265
  0
LINE
  5
3BD
100
AcDbEntity
  8
RACCORDO
100
AcDbLine
 62
7
  6
CONTINUOUS
 10
-1.06994153
 20
15.4068163265
 11
-1.9830204082
 21
15.4068163265
  0
LINE
  5
3BE
100
AcDbEntity
  8
ASSI
100
AcDbLine
 62
7
  6
CONTINUOUS
 10
-1.06994153
 20
15.4068163265
 11
-1.9830204082
 21
15.4068163265
  0
LINE
  5
3BF
100
AcDbEntity
  8
SMUSSO
100
AcDbLine
 62
7
  6
CONTINUOUS
 10
-16.5330204082
 20
15.5068163265
 11
-11.5330204082
 21
15.5068163265
  0
LINE
  5
3C0
100
AcDbEntity
  8
ASSI
100
AcDbLine
 62
7
  6
CONTINUOUS
 10
-16.5330204082
 20
15.5068163265
 11
-11.5330204082
 21
15.5068163265
  0
LINE
  5
3C1
100
AcDbEntity
  8
CURVE
100
AcDbLine
 62
253
  6
CONTINUOUS
 10
-21.4330204082
 20
15.6901498665
 11
-20.9687347022
 21
15.6901498665
  0
LINE
  5
3C2
100
AcDbEntity
  8
CURVE
100
AcDbLine
 62
253
  6
CONTINUOUS
 10
-0.726266122
 20
15.7068163265
 11
-0.7215290405
 21
15.7068163265
  0
LINE
  5
3C3
100
AcDbEntity
  8
SMUSSO
100
AcDbLine
 62
7
  6
CONTINUOUS
 10
-11.5330204082
 20
16.0068163265
 11
-16.5330204082
 21
16.0068163265
  0
LINE
  5
3C4
100
AcDbEntity
  8
ASSI
100
AcDbLine
 62
7
  6
CONTINUOUS
 10
-11.5330204082
 20
16.0068163265
 11
-16.5330204082
 21
16.0068163265
  0
LINE
  5
3C5
100
AcDbEntity
  8
RACCORDO
100
AcDbLine
 62
7
  6
CONTINUOUS
 10
-1.06994153
 20
16.1068163265
 11
-1.9830204082
 21
16.1068163265
  0
LINE
  5
3C6
100
AcDbEntity
  8
ASSI
100
AcDbLine
 62
7
  6
CONTINUOUS
 10
-1.06994153
 20
16.1068163265
 11
-1.9830204082
 21
16.1068163265
  0
LINE
  5
3C7
100
AcDbEntity
  8
CURVE
100
AcDbLine
 62
253
  6
CONTINUOUS
 10
-20.9687347022
 20
16.3401498665
 11
-21.3401632708
 21
16.3401498665
  0
LINE
  5
3C8
100
AcDbEntity
  8
SMUSSO
100
AcDbLine
 62
7
  6
CONTINUOUS
 10
-12.0330204082
 20
16.5068163265
 11
-16.0330204082
 21
16.5068163265
  0
LINE
  5
3C9
100
AcDbEntity
  8
ASSI
100
AcDbLine
 62
7
  6
CONTINUOUS
 10
-12.0330204082
 20
16.5068163265
 11
-16.0330204082
 21
16.5068163265
  0
LINE
  5
3CA
100
AcDbEntity
  8
CURVE
100
AcDbLine
 62
7
  6
CONTINUOUS
 10
-0.6878603708
 20
16.7019843265
 11
-0.7017827572
 21
16.7019843265
  0
LINE
  5
3CB
100
AcDbEntity
  8
CURVE
100
AcDbLine
 62
7
  6
CONTINUOUS
 10
-0.667251869
 20
16.7019843265
 11
-0.6798308691
 21
16.7019843265
  0
LINE
  5
3CC
100
AcDbEntity
  8
CURVE
100
AcDbLine
 62
253
  6
CONTINUOUS
 10
-21.1544489962
 20
16.7115782608
 11
-21.7115918589
 21
16.7115782608
  0
LINE
  5
3CD
100
AcDbEntity
  8
0
100
AcDbLine
 62
7
  6
CONTINUOUS
 10
-15.3830204082
 20
16.7568163265
 11
-12.3830204082
 21
16.7568163265
  0
LWPOLYLINE
  5
3CE
100
AcDbEntity
  8
CURVE
100
AcDbPolyline
 62
7
  6
CONTINUOUS
 90
17
 70
0
 10
-0.6845170402
 20
10.3735064791
 10
-0.6840643212
 20
10.37329237
 10
-0.6836105493
 20
10.3726463104
 10
-0.6831559983
 20
10.3715627013
 10
-0.6827009419
 20
10.3700359441
 10
-0.6822456538
 20
10.3680604398
 10
-0.6817904079
 20
10.3656305899
 10
-0.6813354779
 20
10.3627407953
 10
-0.6808811375
 20
10.3593854575
 10
-0.6804276606
 20
10.3555589775
 10
-0.679975321
 20
10.3512557566
 10
-0.6795243922
 20
10.346470196
 10
-0.6790751482
 20
10.3411966969
 10
-0.6786278627
 20
10.3354296606
 10
-0.6781828094
 20
10.3291634882
 10
-0.6777402622
 20
10.3223925809
 10
-0.6773004948
 20
10.3151113401
  0
LINE
  5
3CF
100
AcDbEntity
  8
CURVE
100
AcDbLine
 62
253
  6
CONTINUOUS
 10
-21.2205204082
 20
22.4443163265
 11
-21.0955204082
 21
22.3193163265
  0
LINE
  5
3D0
100
AcDbEntity
  8
CURVE
100
AcDbLine
 62
253
  6
CONTINUOUS
 10
-20.4705204082
 20
23.3818163265
 11
-20.5955204082
 21
23.5068163265
  0
LINE
  5
3D1
100
AcDbEntity
  8
0
100
AcDbLine
 62
7
  6
CONTINUOUS
 10
-4.2163747539
 20
0.9208293779
 11
-4.1876153572
 21
0.8803504522
  0
LINE
  5
3D2
100
AcDbEntity
  8
0
100
AcDbLine
 62
7
  6
CONTINUOUS
 10
-4.1876153572
 20
0.8803504522
 11
-4.1306040287
 21
0.799305036
  0
LWPOLYLINE
  5
3D3
100
AcDbEntity
  8
0
100
AcDbPolyline
 62
7
  6
CONTINUOUS
 90
3
 70
0
 10
-4.1306040287
 20
0.799305036
 10
-4.0741431027
 20
0.718678366
 10
-4.0463556985
 20
0.6785472054
  0
LWPOLYLINE
  5
3D4
100
AcDbEntity
  8
0
100
AcDbPolyline
 62
7
  6
CONTINUOUS
 90
3
 70
0
 10
-4.0463556985
 20
0.6785472054
 10
-3.9919825517
 20
0.5988243758
 10
-3.9653337003
 20
0.5594270643
  0
LINE
  5
3D5
100
AcDbEntity
  8
CURVE
100
AcDbLine
 62
253
  6
CONTINUOUS
 10
-20.3455204082
 20
23.1943163265
 11
-20.4705204082
 21
23.3818163265
  0
LINE
  5
3D6
100
AcDbEntity
  8
CURVE
100
AcDbLine
 62
253
  6
CONTINUOUS
 10
-19.6735648648
 20
23.8783226775
 11
-19.4235648648
 21
23.4453099756
  0
LINE
  5
3D7
100
AcDbEntity
  8
SMUSSO
100
AcDbLine
 62
7
  6
CONTINUOUS
 10
-16.5330204082
 20
6.0068163265
 11
-16.5330204082
 21
10.5068163265
  0
LINE
  5
3D8
100
AcDbEntity
  8
ASSI
100
AcDbLine
 62
7
  6
CONTINUOUS
 10
-16.5330204082
 20
6.0068163265
 11
-16.5330204082
 21
10.5068163265
  0
LINE
  5
3D9
100
AcDbEntity
  8
SMUSSO
100
AcDbLine
 62
7
  6
CONTINUOUS
 10
-16.5330204082
 20
11.0068163265
 11
-16.5330204082
 21
15.5068163265
  0
LINE
  5
3DA
100
AcDbEntity
  8
ASSI
100
AcDbLine
 62
7
  6
CONTINUOUS
 10
-16.5330204082
 20
11.0068163265
 11
-16.5330204082
 21
15.5068163265
  0
LINE
  5
3DB
100
AcDbEntity
  8
SMUSSO
100
AcDbLine
 62
7
  6
CONTINUOUS
 10
-16.5330204082
 20
16.0068163265
 11
-16.5330204082
 21
20.5068163265
  0
LINE
  5
3DC
100
AcDbEntity
  8
ASSI
100
AcDbLine
 62
7
  6
CONTINUOUS
 10
-16.5330204082
 20
16.0068163265
 11
-16.5330204082
 21
20.5068163265
  0
LINE
  5
3DD
100
AcDbEntity
  8
SMUSSO
100
AcDbLine
 62
7
  6
CONTINUOUS
 10
-16.5330204082
 20
20.7568163265
 11
-16.5330204082
 21
25.7568163265
  0
LINE
  5
3DE
100
AcDbEntity
  8
ASSI
100
AcDbLine
 62
7
  6
CONTINUOUS
 10
-16.5330204082
 20
20.7568163265
 11
-16.5330204082
 21
25.7568163265
  0
LINE
  5
3DF
100
AcDbEntity
  8
0
100
AcDbLine
 62
7
  6
CONTINUOUS
 10
-16.2330204082
 20
46.2568163265
 11
-16.2330204082
 21
45.6247612737
  0
LINE
  5
3E0
100
AcDbEntity
  8
0
100
AcDbLine
 62
7
  6
CONTINUOUS
 10
-16.2330204082
 20
45.1888713794
 11
-16.2330204082
 21
44.6568163265
  0
LINE
  5
3E1
100
AcDbEntity
  8
0
100
AcDbLine
 62
7
  6
CONTINUOUS
 10
-16.2330204082
 20
-0.1431836735
 11
-16.2330204082
 21
-0.6752387263
  0
LINE
  5
3E2
100
AcDbEntity
  8
0
100
AcDbLine
 62
7
  6
CONTINUOUS
 10
-16.2330204082
 20
-1.1111286206
 11
-16.2330204082
 21
-1.7431836735
  0
LINE
  5
3E3
100
AcDbEntity
  8
0
100
AcDbLine
 62
7
  6
CONTINUOUS
 10
-16.1890981611
 20
46.2107085996
 11
-16.1890981611
 21
44.6128940795
  0
LINE
  5
3E4
100
AcDbEntity
  8
0
100
AcDbLine
 62
7
  6
CONTINUOUS
 10
-16.1890981611
 20
-0.0992614264
 11
-16.1890981611
 21
-1.6970759465
  0
LINE
  5
3E5
100
AcDbEntity
  8
SMUSSO
100
AcDbLine
 62
7
  6
CONTINUOUS
 10
-16.0330204082
 20
6.5068163265
 11
-16.0330204082
 21
10.0068163265
  0
LINE
  5
3E6
100
AcDbEntity
  8
ASSI
100
AcDbLine
 62
7
  6
CONTINUOUS
 10
-16.0330204082
 20
6.5068163265
 11
-16.0330204082
 21
10.0068163265
  0
LINE
  5
3E7
100
AcDbEntity
  8
SMUSSO
100
AcDbLine
 62
7
  6
CONTINUOUS
 10
-16.0330204082
 20
11.5068163265
 11
-16.0330204082
 21
15.0068163265
  0
LINE
  5
3E8
100
AcDbEntity
  8
ASSI
100
AcDbLine
 62
7
  6
CONTINUOUS
 10
-16.0330204082
 20
11.5068163265
 11
-16.0330204082
 21
15.0068163265
  0
LINE
  5
3E9
100
AcDbEntity
  8
SMUSSO
100
AcDbLine
 62
7
  6
CONTINUOUS
 10
-16.0330204082
 20
16.5068163265
 11
-16.0330204082
 21
20.0068163265
  0
LINE
  5
3EA
100
AcDbEntity
  8
ASSI
100
AcDbLine
 62
7
  6
CONTINUOUS
 10
-16.0330204082
 20
16.5068163265
 11
-16.0330204082
 21
20.0068163265
  0
LINE
  5
3EB
100
AcDbEntity
  8
SMUSSO
100
AcDbLine
 62
7
  6
CONTINUOUS
 10
-16.0330204082
 20
21.2568163265
 11
-16.0330204082
 21
25.2568163265
  0
LINE
  5
3EC
100
AcDbEntity
  8
ASSI
100
AcDbLine
 62
7
  6
CONTINUOUS
 10
-16.0330204082
 20
21.2568163265
 11
-16.0330204082
 21
25.2568163265
  0
LINE
  5
3ED
100
AcDbEntity
  8
0
100
AcDbLine
 62
7
  6
CONTINUOUS
 10
-15.3830204082
 20
24.7568163265
 11
-15.3830204082
 21
21.7568163265
  0
LINE
  5
3EE
100
AcDbEntity
  8
0
100
AcDbLine
 62
7
  6
CONTINUOUS
 10
-15.3830204082
 20
19.7568163265
 11
-15.3830204082
 21
16.7568163265
  0
LINE
  5
3EF
100
AcDbEntity
  8
0
100
AcDbLine
 62
7
  6
CONTINUOUS
 10
-15.3830204082
 20
14.7568163265
 11
-15.3830204082
 21
11.7568163265
  0
LINE
  5
3F0
100
AcDbEntity
  8
0
100
AcDbLine
 62
7
  6
CONTINUOUS
 10
-15.3830204082
 20
9.7568163265
 11
-15.3830204082
 21
6.7568163265
  0
LINE
  5
3F1
100
AcDbEntity
  8
DRAFT
100
AcDbLine
 62
7
  6
CONTINUOUS
 10
-15.2830204082
 20
42.1568163265
 11
-15.2830204082
 21
41.9568163265
  0
LINE
  5
3F2
100
AcDbEntity
  8
0
100
AcDbLine
 62
7
  6
CONTINUOUS
 10
-15.2830204082
 20
42.1568163265
 11
-15.2830204082
 21
41.9568163265
  0
LINE
  5
3F3
100
AcDbEntity
  8
DRAFT
100
AcDbLine
 62
7
  6
CONTINUOUS
 10
-15.2830204082
 20
2.5568163265
 11
-15.2830204082
 21
2.3568163265
  0
LINE
  5
3F4
100
AcDbEntity
  8
0
100
AcDbLine
 62
7
  6
CONTINUOUS
 10
-15.2830204082
 20
2.5568163265
 11
-15.2830204082
 21
2.3568163265
  0
LINE
  5
3F5
100
AcDbEntity
  8
DRAFT
100
AcDbLine
 62
7
  6
CONTINUOUS
 10
-15.2463647718
 20
42.1201606902
 11
-15.2463647718
 21
41.9201606902
  0
LINE
  5
3F6
100
AcDbEntity
  8
0
100
AcDbLine
 62
7
  6
CONTINUOUS
 10
-15.2463647718
 20
42.1201606902
 11
-15.2463647718
 21
41.9201606902
  0
LINE
  5
3F7
100
AcDbEntity
  8
DRAFT
100
AcDbLine
 62
7
  6
CONTINUOUS
 10
-15.2463647718
 20
2.5934719629
 11
-15.2463647718
 21
2.3934719629
  0
LINE
  5
3F8
100
AcDbEntity
  8
0
100
AcDbLine
 62
7
  6
CONTINUOUS
 10
-15.2463647718
 20
2.5934719629
 11
-15.2463647718
 21
2.3934719629
  0
LINE
  5
3F9
100
AcDbEntity
  8
CURVE
100
AcDbLine
 62
253
  6
CONTINUOUS
 10
-9.0830204082
 20
32.0282450308
 11
-8.8973061335
 21
32.213959228
  0
LINE
  5
3FA
100
AcDbEntity
  8
CURVE
100
AcDbLine
 62
253
  6
CONTINUOUS
 10
-7.7830204082
 20
32.9568163265
 11
-7.9687347022
 21
32.7711021294
  0
LINE
  5
3FB
100
AcDbEntity
  8
CURVE
100
AcDbLine
 62
253
  6
CONTINUOUS
 10
-7.7830204082
 20
31.9353876223
 11
-7.9687347022
 21
31.7496734251
  0
LINE
  5
3FC
100
AcDbEntity
  8
CURVE
100
AcDbLine
 62
253
  6
CONTINUOUS
 10
-8.3401632708
 20
31.2853876223
 11
-8.5258775842
 21
31.0996734251
  0
LINE
  5
3FD
100
AcDbEntity
  8
CURVE
100
AcDbLine
 62
253
  6
CONTINUOUS
 10
-22.0830204082
 20
17.0830066551
 11
-21.8973061335
 21
17.2687208523
  0
LINE
  5
3FE
100
AcDbEntity
  8
CURVE
100
AcDbLine
 62
253
  6
CONTINUOUS
 10
-8.8973061335
 20
29.3353877772
 11
-8.7115918589
 21
29.4282448758
  0
LINE
  5
3FF
100
AcDbEntity
  8
CURVE
100
AcDbLine
 62
253
  6
CONTINUOUS
 10
-3.9687347022
 20
31.7496734251
 11
-4.1544489962
 21
31.6568163265
  0
LINE
  5
400
100
AcDbEntity
  8
CURVE
100
AcDbLine
 62
253
  6
CONTINUOUS
 10
-21.7205204082
 20
22.4443163265
 11
-21.5955204082
 21
22.5068163265
  0
LINE
  5
401
100
AcDbEntity
  8
CURVE
100
AcDbLine
 62
253
  6
CONTINUOUS
 10
-7.9687347022
 20
28.8711020519
 11
-8.1544489962
 21
28.7782448758
  0
LINE
  5
402
100
AcDbEntity
  8
CURVE
100
AcDbLine
 62
7
  6
CONTINUOUS
 10
-0.7098114562
 20
17.2197223265
 11
-0.6592229955
 21
17.2197223265
  0
LINE
  5
403
100
AcDbEntity
  8
CURVE
100
AcDbLine
 62
253
  6
CONTINUOUS
 10
-21.7115918589
 20
17.3615782608
 11
-21.1544489962
 21
17.3615782608
  0
LINE
  5
404
100
AcDbEntity
  8
CURVE
100
AcDbLine
 62
253
  6
CONTINUOUS
 10
-17.7830204082
 20
17.6568163265
 11
-19.6830204082
 21
17.6568163265
  0
LINE
  5
405
100
AcDbEntity
  8
CURVE
100
AcDbLine
 62
253
  6
CONTINUOUS
 10
-20.7830204082
 20
17.7330066551
 11
-22.0830204082
 21
17.7330066551
  0
LINE
  5
406
100
AcDbEntity
  8
CURVE
100
AcDbLine
 62
253
  6
CONTINUOUS
 10
-22.0830204082
 20
18.3830066551
 11
-20.7830204082
 21
18.3830066551
  0
LINE
  5
407
100
AcDbEntity
  8
CURVE
100
AcDbLine
 62
253
  6
CONTINUOUS
 10
-17.7830204082
 20
18.6068163265
 11
-19.6830204082
 21
18.6068163265
  0
LINE
  5
408
100
AcDbEntity
  8
SMUSSO
100
AcDbLine
 62
7
  6
CONTINUOUS
 10
-16.5330204082
 20
20.5068163265
 11
-16.0330204082
 21
20.0068163265
  0
LINE
  5
409
100
AcDbEntity
  8
ASSI
100
AcDbLine
 62
7
  6
CONTINUOUS
 10
-16.5330204082
 20
20.5068163265
 11
-16.0330204082
 21
20.0068163265
  0
LINE
  5
40A
100
AcDbEntity
  8
SMUSSO
100
AcDbLine
 62
7
  6
CONTINUOUS
 10
-11.5330204082
 20
16.0068163265
 11
-12.0330204082
 21
16.5068163265
  0
LINE
  5
40B
100
AcDbEntity
  8
ASSI
100
AcDbLine
 62
7
  6
CONTINUOUS
 10
-11.5330204082
 20
16.0068163265
 11
-12.0330204082
 21
16.5068163265
  0
LINE
  5
40C
100
AcDbEntity
  8
RACCORDO
100
AcDbLine
 62
7
  6
CONTINUOUS
 10
-9.8020090233
 20
4.0568163265
 11
-9.7924480606
 21
4.025198828
  0
LINE
  5
40D
100
AcDbEntity
  8
0
100
AcDbLine
 62
7
  6
CONTINUOUS
 10
-9.8020090233
 20
4.0568163265
 11
-9.7924480606
 21
4.025198828
  0
LINE
  5
40E
100
AcDbEntity
  8
DRAFT
100
AcDbLine
 62
7
  6
CONTINUOUS
 10
-15.2831738428
 20
42.2743981921
 11
-15.2835611315
 21
42.3187770878
  0
LINE
  5
40F
100
AcDbEntity
  8
0
100
AcDbLine
 62
7
  6
CONTINUOUS
 10
-15.3035748713
 20
44.6121245105
 11
-15.3178781244
 21
46.2511149815
  0
LINE
  5
410
100
AcDbEntity
  8
0
100
AcDbLine
 62
7
  6
CONTINUOUS
 10
-14.7751662272
 20
43.0568163265
 11
-14.788723733
 21
44.6103526168
  0
LINE
  5
411
100
AcDbEntity
  8
0
100
AcDbLine
 62
253
  6
CONTINUOUS
 10
-13.2839748345
 20
2.1871945748
 11
-13.284544643
 21
2.3723296469
  0
LINE
  5
412
100
AcDbEntity
  8
0
100
AcDbLine
 62
7
  6
CONTINUOUS
 10
-14.2830204082
 20
3.9568163265
 11
-14.2830204082
 21
5.6568163265
  0
LINE
  5
413
100
AcDbEntity
  8
ASSI
100
AcDbLine
 62
7
  6
CONTINUOUS
 10
-14.2830204082
 20
3.9568163265
 11
-14.2830204082
 21
5.6568163265
  0
LINE
  5
414
100
AcDbEntity
  8
0
100
AcDbLine
 62
7
  6
CONTINUOUS
 10
-14.2830204082
 20
38.8568163265
 11
-14.2830204082
 21
40.5568163265
  0
LINE
  5
415
100
AcDbEntity
  8
ASSI
100
AcDbLine
 62
7
  6
CONTINUOUS
 10
-14.2830204082
 20
38.8568163265
 11
-14.2830204082
 21
40.5568163265
  0
LINE
  5
416
100
AcDbEntity
  8
RACCORDO
100
AcDbLine
 62
253
  6
CONTINUOUS
 10
-13.9294670176
 20
3.9568163265
 11
-13.9294670176
 21
4.0242763099
  0
LINE
  5
417
100
AcDbEntity
  8
0
100
AcDbLine
 62
253
  6
CONTINUOUS
 10
-13.9294670176
 20
3.9568163265
 11
-13.9294670176
 21
4.0242763099
  0
LINE
  5
418
100
AcDbEntity
  8
0
100
AcDbLine
 62
7
  6
CONTINUOUS
 10
-13.8830204082
 20
4.0568163265
 11
-13.8830204082
 21
4.0246351245
  0
LINE
  5
419
100
AcDbEntity
  8
RACCORDO
100
AcDbLine
 62
7
  6
CONTINUOUS
 10
-13.7830204082
 20
4.0237677376
 11
-13.7830204082
 21
4.0568163265
  0
LINE
  5
41A
100
AcDbEntity
  8
0
100
AcDbLine
 62
7
  6
CONTINUOUS
 10
-13.7830204082
 20
4.0237677376
 11
-13.7830204082
 21
4.0568163265
  0
LINE
  5
41B
100
AcDbEntity
  8
RACCORDO
100
AcDbLine
 62
7
  6
CONTINUOUS
 10
-13.7656097189
 20
40.5568163265
 11
-13.7656097189
 21
40.4568163265
  0
LINE
  5
41C
100
AcDbEntity
  8
ASSI
100
AcDbLine
 62
7
  6
CONTINUOUS
 10
-13.7656097189
 20
40.5568163265
 11
-13.7656097189
 21
40.4568163265
  0
LINE
  5
41D
100
AcDbEntity
  8
RACCORDO
100
AcDbLine
 62
7
  6
CONTINUOUS
 10
-13.6870248625
 20
4.0568163265
 11
-13.6870248625
 21
3.9568163265
  0
LINE
  5
41E
100
AcDbEntity
  8
ASSI
100
AcDbLine
 62
7
  6
CONTINUOUS
 10
-13.6870248625
 20
4.0568163265
 11
-13.6870248625
 21
3.9568163265
  0
LINE
  5
41F
100
AcDbEntity
  8
RACCORDO
100
AcDbLine
 62
253
  6
CONTINUOUS
 10
-13.4830204082
 20
4.9408484081
 11
-13.4830204082
 21
5.0068163265
  0
LINE
  5
420
100
AcDbEntity
  8
0
100
AcDbLine
 62
253
  6
CONTINUOUS
 10
-13.4830204082
 20
4.9408484081
 11
-13.4830204082
 21
5.0068163265
  0
LINE
  5
421
100
AcDbEntity
  8
RACCORDO
100
AcDbLine
 62
253
  6
CONTINUOUS
 10
-13.4830204082
 20
39.5068163265
 11
-13.4830204082
 21
39.5568163265
  0
LINE
  5
422
100
AcDbEntity
  8
0
100
AcDbLine
 62
253
  6
CONTINUOUS
 10
-13.4830204082
 20
39.5068163265
 11
-13.4830204082
 21
39.5568163265
  0
LINE
  5
423
100
AcDbEntity
  8
0
100
AcDbLine
 62
253
  6
CONTINUOUS
 10
-13.284544643
 20
42.1413030062
 11
-13.2839748345
 21
42.3264380783
  0
LINE
  5
424
100
AcDbEntity
  8
DRAFT
100
AcDbLine
 62
7
  6
CONTINUOUS
 10
-15.2831738428
 20
2.239234461
 11
-15.2835611315
 21
2.1948555652
  0
LINE
  5
425
100
AcDbEntity
  8
0
100
AcDbLine
 62
7
  6
CONTINUOUS
 10
-15.3178781244
 20
-1.7374823285
 11
-15.3035748713
 21
-0.0984918574
  0
LINE
  5
426
100
AcDbEntity
  8
0
100
AcDbLine
 62
7
  6
CONTINUOUS
 10
-14.788723733
 20
-0.0967199637
 11
-14.7751662272
 21
1.4568163265
  0
LINE
  5
427
100
AcDbEntity
  8
RACCORDO
100
AcDbLine
 62
253
  6
CONTINUOUS
 10
-9.7874730463
 20
39.7607576085
 11
-9.8007739624
 21
39.7158792324
  0
LINE
  5
428
100
AcDbEntity
  8
0
100
AcDbLine
 62
253
  6
CONTINUOUS
 10
-9.7874730463
 20
39.7607576085
 11
-9.8007739624
 21
39.7158792324
  0
LWPOLYLINE
  5
429
100
AcDbEntity
  8
0
100
AcDbPolyline
 62
7
  6
CONTINUOUS
 90
9
 70
0
 10
-4.5151130339
 20
46.5997347758
 10
-4.5192711295
 20
46.5885863003
 10
-4.5228940499
 20
46.5772526055
 10
-4.5259735899
 20
46.5657593653
 10
-4.5285027759
 20
46.554132614
 10
-4.5304758823
 20
46.5423986927
 10
-4.5318884424
 20
46.5305841821
 10
-4.5327372579
 20
46.5187158425
 10
-4.5330204082
 20
46.5068205573
  0
LINE
  5
42A
100
AcDbEntity
  8
CURVE
100
AcDbLine
 62
253
  6
CONTINUOUS
 10
-21.2782585126
 20
12.8734830965
 11
-21.0925442186
 21
13.1211021294
  0
LINE
  5
42B
100
AcDbEntity
  8
CURVE
100
AcDbLine
 62
253
  6
CONTINUOUS
 10
-9.0830204082
 20
29.1496734251
 11
-8.8973061335
 21
29.3353877772
  0
LINE
  5
42C
100
AcDbEntity
  8
CURVE
100
AcDbLine
 62
253
  6
CONTINUOUS
 10
-5.0830204082
 20
33.0496737351
 11
-4.8973061335
 21
33.2353879322
  0
LINE
  5
42D
100
AcDbEntity
  8
CURVE
100
AcDbLine
 62
253
  6
CONTINUOUS
 10
-20.7830204082
 20
16.9901498665
 11
-20.9687347022
 21
16.8044356693
  0
LINE
  5
42E
100
AcDbEntity
  8
CURVE
100
AcDbLine
 62
253
  6
CONTINUOUS
 10
-21.3401632708
 20
16.3401498665
 11
-21.5258775842
 21
16.1544356693
  0
LINE
  5
42F
100
AcDbEntity
  8
SMUSSO
100
AcDbLine
 62
7
  6
CONTINUOUS
 10
-11.5330204082
 20
25.7568163265
 11
-12.0330204082
 21
25.2568163265
  0
LINE
  5
430
100
AcDbEntity
  8
ASSI
100
AcDbLine
 62
7
  6
CONTINUOUS
 10
-11.5330204082
 20
25.7568163265
 11
-12.0330204082
 21
25.2568163265
  0
LINE
  5
431
100
AcDbEntity
  8
SMUSSO
100
AcDbLine
 62
7
  6
CONTINUOUS
 10
-16.5330204082
 20
20.7568163265
 11
-16.0330204082
 21
21.2568163265
  0
LINE
  5
432
100
AcDbEntity
  8
ASSI
100
AcDbLine
 62
7
  6
CONTINUOUS
 10
-16.5330204082
 20
20.7568163265
 11
-16.0330204082
 21
21.2568163265
  0
LINE
  5
433
100
AcDbEntity
  8
CURVE
100
AcDbLine
 62
253
  6
CONTINUOUS
 10
-5.0830204082
 20
32.0282450308
 11
-4.8973061335
 21
32.213959228
  0
LINE
  5
434
100
AcDbEntity
  8
CURVE
100
AcDbLine
 62
253
  6
CONTINUOUS
 10
-7.7830204082
 20
29.0568163265
 11
-7.9687347022
 21
28.8711020519
  0
LINE
  5
435
100
AcDbEntity
  8
CURVE
100
AcDbLine
 62
253
  6
CONTINUOUS
 10
-3.7830204082
 20
32.9568163265
 11
-3.9687347022
 21
32.7711021294
  0
LINE
  5
436
100
AcDbEntity
  8
CURVE
100
AcDbLine
 62
253
  6
CONTINUOUS
 10
-20.9687347022
 20
15.6901498665
 11
-20.7830204082
 21
15.8758640637
  0
LINE
  5
437
100
AcDbEntity
  8
CURVE
100
AcDbLine
 62
253
  6
CONTINUOUS
 10
-4.8973061335
 20
31.2544353594
 11
-5.0830204082
 21
31.0996734251
  0
LINE
  5
438
100
AcDbEntity
  8
CURVE
100
AcDbLine
 62
253
  6
CONTINUOUS
 10
-4.8973061335
 20
29.3353877772
 11
-4.7115918589
 21
29.4282448758
  0
LINE
  5
439
100
AcDbEntity
  8
CURVE
100
AcDbLine
 62
253
  6
CONTINUOUS
 10
-3.9687347022
 20
28.8711020519
 11
-4.1544489962
 21
28.7782448758
  0
LINE
  5
43A
100
AcDbEntity
  8
CURVE
100
AcDbLine
 62
253
  6
CONTINUOUS
 10
-20.7205204082
 20
22.2568163265
 11
-20.5330204082
 21
22.3193163265
  0
LINE
  5
43B
100
AcDbEntity
  8
0
100
AcDbLine
 62
7
  6
CONTINUOUS
 10
-12.3830204082
 20
19.7568163265
 11
-15.3830204082
 21
19.7568163265
  0
LINE
  5
43C
100
AcDbEntity
  8
SMUSSO
100
AcDbLine
 62
7
  6
CONTINUOUS
 10
-16.0330204082
 20
20.0068163265
 11
-12.0330204082
 21
20.0068163265
  0
LINE
  5
43D
100
AcDbEntity
  8
ASSI
100
AcDbLine
 62
7
  6
CONTINUOUS
 10
-16.0330204082
 20
20.0068163265
 11
-12.0330204082
 21
20.0068163265
  0
LINE
  5
43E
100
AcDbEntity
  8
RACCORDO
100
AcDbLine
 62
7
  6
CONTINUOUS
 10
-1.06994153
 20
20.4068163265
 11
-1.9830204082
 21
20.4068163265
  0
LINE
  5
43F
100
AcDbEntity
  8
ASSI
100
AcDbLine
 62
7
  6
CONTINUOUS
 10
-1.06994153
 20
20.4068163265
 11
-1.9830204082
 21
20.4068163265
  0
LINE
  5
440
100
AcDbEntity
  8
CURVE
100
AcDbLine
 62
253
  6
CONTINUOUS
 10
-0.7369868859
 20
20.43300667
 11
-0.7499515313
 21
20.43300667
  0
LINE
  5
441
100
AcDbEntity
  8
SMUSSO
100
AcDbLine
 62
7
  6
CONTINUOUS
 10
-16.5330204082
 20
20.5068163265
 11
-11.5330204082
 21
20.5068163265
  0
LINE
  5
442
100
AcDbEntity
  8
ASSI
100
AcDbLine
 62
7
  6
CONTINUOUS
 10
-16.5330204082
 20
20.5068163265
 11
-11.5330204082
 21
20.5068163265
  0
LINE
  5
443
100
AcDbEntity
  8
CURVE
100
AcDbLine
 62
253
  6
CONTINUOUS
 10
-21.9705204082
 20
22.5068163265
 11
-21.7830204082
 21
22.4443163265
  0
LINE
  5
444
100
AcDbEntity
  8
CURVE
100
AcDbLine
 62
253
  6
CONTINUOUS
 10
-21.0955204082
 20
22.3193163265
 11
-20.9080204082
 21
22.2568163265
  0
LINE
  5
445
100
AcDbEntity
  8
CURVE
100
AcDbLine
 62
253
  6
CONTINUOUS
 10
-17.7830204082
 20
22.7868163265
 11
-19.6735648648
 21
23.8783226775
  0
LWPOLYLINE
  5
446
100
AcDbEntity
  8
0
100
AcDbPolyline
 62
7
  6
CONTINUOUS
 90
18
 70
0
 10
-4.5151130339
 20
-2.0861021228
 10
-4.5104291803
 20
-2.0970401198
 10
-4.505230177
 20
-2.1077428611
 10
-4.4995277998
 20
-2.1181861017
 10
-4.4933349663
 20
-2.1283461794
 10
-4.4866657036
 20
-2.1382000786
 10
-4.4795351189
 20
-2.1477254773
 10
-4.471959367
 20
-2.1569007925
 10
-4.4639556086
 20
-2.1657052396
 10
-4.4555419742
 20
-2.174118874
 10
-4.4467375272
 20
-2.1821226323
 10
-4.437562212
 20
-2.1896983842
 10
-4.4280368133
 20
-2.1968289689
 10
-4.4181829141
 20
-2.2034982316
 10
-4.4080228364
 20
-2.2096910651
 10
-4.3975795958
 20
-2.2153934423
 10
-4.3868768545
 20
-2.2205924457
 10
-4.3759388575
 20
-2.2252762992
  0
LWPOLYLINE
  5
447
100
AcDbEntity
  8
RACCORDO
100
AcDbPolyline
 62
253
  6
CONTINUOUS
 90
5
 70
0
 10
-9.7874730463
 20
4.7528750445
 10
-9.8007739624
 20
4.7977534207
 10
-9.8226352326
 20
4.8400816569
 10
-9.8525604731
 20
4.8786027482
 10
-9.8896982174
 20
4.9120021556
  0
LWPOLYLINE
  5
448
100
AcDbEntity
  8
0
100
AcDbPolyline
 62
253
  6
CONTINUOUS
 90
5
 70
0
 10
-9.7874730463
 20
4.7528750445
 10
-9.8007739624
 20
4.7977534207
 10
-9.8226352326
 20
4.8400816569
 10
-9.8525604731
 20
4.8786027482
 10
-9.8896982174
 20
4.9120021556
  0
LWPOLYLINE
  5
449
100
AcDbEntity
  8
0
100
AcDbPolyline
 62
7
  6
CONTINUOUS
 90
6
 70
0
 10
-19.035564934
 20
46.5423986927
 10
-19.0375380404
 20
46.554132614
 10
-19.0400672264
 20
46.5657593653
 10
-19.0431467665
 20
46.5772526055
 10
-19.0467696868
 20
46.5885863003
 10
-19.0509277824
 20
46.5997347758
  0
LINE
  5
44A
100
AcDbEntity
  8
0
100
AcDbLine
 62
7
  6
CONTINUOUS
 10
-12.7916943615
 20
-0.137979386
 11
-12.7915877782
 21
-1.5374789432
  0
LINE
  5
44B
100
AcDbEntity
  8
0
100
AcDbLine
 62
7
  6
CONTINUOUS
 10
-12.7830204082
 20
-1.5431904427
 11
-12.7830204082
 21
-0.1431836735
  0
LINE
  5
44C
100
AcDbEntity
  8
0
100
AcDbLine
 62
7
  6
CONTINUOUS
 10
-12.7830204082
 20
44.6568163265
 11
-12.7830204082
 21
46.0568230957
  0
LINE
  5
44D
100
AcDbEntity
  8
0
100
AcDbLine
 62
7
  6
CONTINUOUS
 10
-12.3830204082
 20
6.7568163265
 11
-12.3830204082
 21
9.7568163265
  0
LINE
  5
44E
100
AcDbEntity
  8
0
100
AcDbLine
 62
7
  6
CONTINUOUS
 10
-12.3830204082
 20
11.7568163265
 11
-12.3830204082
 21
14.7568163265
  0
LINE
  5
44F
100
AcDbEntity
  8
0
100
AcDbLine
 62
7
  6
CONTINUOUS
 10
-12.3830204082
 20
16.7568163265
 11
-12.3830204082
 21
19.7568163265
  0
LINE
  5
450
100
AcDbEntity
  8
0
100
AcDbLine
 62
7
  6
CONTINUOUS
 10
-12.3830204082
 20
21.7568163265
 11
-12.3830204082
 21
24.7568163265
  0
LINE
  5
451
100
AcDbEntity
  8
SMUSSO
100
AcDbLine
 62
7
  6
CONTINUOUS
 10
-12.0330204082
 20
25.2568163265
 11
-12.0330204082
 21
21.2568163265
  0
LINE
  5
452
100
AcDbEntity
  8
ASSI
100
AcDbLine
 62
7
  6
CONTINUOUS
 10
-12.0330204082
 20
25.2568163265
 11
-12.0330204082
 21
21.2568163265
  0
LINE
  5
453
100
AcDbEntity
  8
SMUSSO
100
AcDbLine
 62
7
  6
CONTINUOUS
 10
-12.0330204082
 20
20.0068163265
 11
-12.0330204082
 21
16.5068163265
  0
LINE
  5
454
100
AcDbEntity
  8
ASSI
100
AcDbLine
 62
7
  6
CONTINUOUS
 10
-12.0330204082
 20
20.0068163265
 11
-12.0330204082
 21
16.5068163265
  0
LINE
  5
455
100
AcDbEntity
  8
SMUSSO
100
AcDbLine
 62
7
  6
CONTINUOUS
 10
-12.0330204082
 20
15.0068163265
 11
-12.0330204082
 21
11.5068163265
  0
LINE
  5
456
100
AcDbEntity
  8
ASSI
100
AcDbLine
 62
7
  6
CONTINUOUS
 10
-12.0330204082
 20
15.0068163265
 11
-12.0330204082
 21
11.5068163265
  0
LINE
  5
457
100
AcDbEntity
  8
SMUSSO
100
AcDbLine
 62
7
  6
CONTINUOUS
 10
-12.0330204082
 20
10.0068163265
 11
-12.0330204082
 21
6.5068163265
  0
LINE
  5
458
100
AcDbEntity
  8
ASSI
100
AcDbLine
 62
7
  6
CONTINUOUS
 10
-12.0330204082
 20
10.0068163265
 11
-12.0330204082
 21
6.5068163265
  0
LINE
  5
459
100
AcDbEntity
  8
0
100
AcDbLine
 62
7
  6
CONTINUOUS
 10
-12.7916943615
 20
44.6516120391
 11
-12.7915877782
 21
46.0511115963
  0
LWPOLYLINE
  5
45A
100
AcDbEntity
  8
0
100
AcDbPolyline
 62
7
  6
CONTINUOUS
 90
17
 70
0
 10
-7.3769426552
 20
46.2107085996
 10
-7.3772786365
 20
46.2089921454
 10
-7.3781152468
 20
46.2067979396
 10
-7.3794566242
 20
46.2041259821
 10
-7.3813055757
 20
46.2009822309
 10
-7.383665496
 20
46.1973607282
 10
-7.3865421895
 20
46.1932435998
 10
-7.389936774
 20
46.1886353634
 10
-7.393853711
 20
46.1835315013
 10
-7.3983090284
 20
46.1779005877
 10
-7.4033046234
 20
46.1717526296
 10
-7.4088488943
 20
46.1650776198
 10
-7.4149789591
 20
46.1578141105
 10
-7.421710191
 20
46.1499631196
 10
-7.4290495886
 20
46.1415236292
 10
-7.437033389
 20
46.1324311376
 10
-7.445680488
 20
46.1226802305
  0
LINE
  5
45B
100
AcDbEntity
  8
CURVE
100
AcDbLine
 62
253
  6
CONTINUOUS
 10
-3.7830204082
 20
31.9353876223
 11
-3.9687347022
 21
31.7496734251
  0
LINE
  5
45C
100
AcDbEntity
  8
CURVE
100
AcDbLine
 62
253
  6
CONTINUOUS
 10
-4.3401632708
 20
31.2853876223
 11
-4.5258775842
 21
31.0996734251
  0
LINE
  5
45D
100
AcDbEntity
  8
CURVE
100
AcDbLine
 62
253
  6
CONTINUOUS
 10
-5.0830204082
 20
29.1496734251
 11
-4.8973061335
 21
29.3353877772
  0
LINE
  5
45E
100
AcDbEntity
  8
CURVE
100
AcDbLine
 62
253
  6
CONTINUOUS
 10
-21.8973061335
 20
17.2687208523
 11
-21.7115918589
 21
17.3615782608
  0
LINE
  5
45F
100
AcDbEntity
  8
SMUSSO
100
AcDbLine
 62
7
  6
CONTINUOUS
 10
-11.5330204082
 20
20.7568163265
 11
-16.5330204082
 21
20.7568163265
  0
LINE
  5
460
100
AcDbEntity
  8
ASSI
100
AcDbLine
 62
7
  6
CONTINUOUS
 10
-11.5330204082
 20
20.7568163265
 11
-16.5330204082
 21
20.7568163265
  0
LINE
  5
461
100
AcDbEntity
  8
CURVE
100
AcDbLine
 62
253
  6
CONTINUOUS
 10
-0.6906133494
 20
21.022292489
 11
-0.667925221
 21
21.022292489
  0
LINE
  5
462
100
AcDbEntity
  8
RACCORDO
100
AcDbLine
 62
7
  6
CONTINUOUS
 10
-1.06994153
 20
21.1068163265
 11
-1.9830204082
 21
21.1068163265
  0
LINE
  5
463
100
AcDbEntity
  8
ASSI
100
AcDbLine
 62
7
  6
CONTINUOUS
 10
-1.06994153
 20
21.1068163265
 11
-1.9830204082
 21
21.1068163265
  0
LINE
  5
464
100
AcDbEntity
  8
SMUSSO
100
AcDbLine
 62
7
  6
CONTINUOUS
 10
-12.0330204082
 20
21.2568163265
 11
-16.0330204082
 21
21.2568163265
  0
LINE
  5
465
100
AcDbEntity
  8
ASSI
100
AcDbLine
 62
7
  6
CONTINUOUS
 10
-12.0330204082
 20
21.2568163265
 11
-16.0330204082
 21
21.2568163265
  0
LINE
  5
466
100
AcDbEntity
  8
CURVE
100
AcDbLine
 62
253
  6
CONTINUOUS
 10
-0.671166382
 20
21.5221735956
 11
-0.6873721881
 21
21.5221735956
  0
LINE
  5
467
100
AcDbEntity
  8
CURVE
100
AcDbLine
 62
253
  6
CONTINUOUS
 10
-0.7272634029
 20
21.6401495715
 11
-0.7499515313
 21
21.6401495715
  0
LINE
  5
468
100
AcDbEntity
  8
0
100
AcDbLine
 62
7
  6
CONTINUOUS
 10
-15.3830204082
 20
21.7568163265
 11
-12.3830204082
 21
21.7568163265
  0
LINE
  5
469
100
AcDbEntity
  8
CURVE
100
AcDbLine
 62
253
  6
CONTINUOUS
 10
-0.7202824403
 20
21.8187210222
 11
-0.697594312
 21
21.8187210222
  0
LINE
  5
46A
100
AcDbEntity
  8
CURVE
100
AcDbLine
 62
253
  6
CONTINUOUS
 10
-0.6906133494
 20
22.1396734484
 11
-0.667925221
 21
22.1396734484
  0
LINE
  5
46B
100
AcDbEntity
  8
CURVE
100
AcDbLine
 62
253
  6
CONTINUOUS
 10
-20.9080204082
 20
22.2568163265
 11
-20.7205204082
 21
22.2568163265
  0
LINE
  5
46C
100
AcDbEntity
  8
CURVE
100
AcDbLine
 62
253
  6
CONTINUOUS
 10
-21.7830204082
 20
22.4443163265
 11
-21.7205204082
 21
22.4443163265
  0
LINE
  5
46D
100
AcDbEntity
  8
CURVE
100
AcDbLine
 62
253
  6
CONTINUOUS
 10
-0.7202824403
 20
22.4687210996
 11
-0.697594312
 21
22.4687210996
  0
LINE
  5
46E
100
AcDbEntity
  8
SMUSSO
100
AcDbLine
 62
7
  6
CONTINUOUS
 10
-16.5330204082
 20
25.7568163265
 11
-16.0330204082
 21
25.2568163265
  0
LINE
  5
46F
100
AcDbEntity
  8
ASSI
100
AcDbLine
 62
7
  6
CONTINUOUS
 10
-16.5330204082
 20
25.7568163265
 11
-16.0330204082
 21
25.2568163265
  0
LINE
  5
470
100
AcDbEntity
  8
SMUSSO
100
AcDbLine
 62
7
  6
CONTINUOUS
 10
-11.5330204082
 20
20.7568163265
 11
-12.0330204082
 21
21.2568163265
  0
LINE
  5
471
100
AcDbEntity
  8
ASSI
100
AcDbLine
 62
7
  6
CONTINUOUS
 10
-11.5330204082
 20
20.7568163265
 11
-12.0330204082
 21
21.2568163265
  0
LINE
  5
472
100
AcDbEntity
  8
0
100
AcDbLine
 62
253
  6
CONTINUOUS
 10
-10.2820659818
 20
42.3264380783
 11
-10.2814961733
 21
42.1413030062
  0
LINE
  5
473
100
AcDbEntity
  8
SMUSSO
100
AcDbLine
 62
7
  6
CONTINUOUS
 10
-11.5330204082
 20
25.7568163265
 11
-11.5330204082
 21
20.7568163265
  0
LINE
  5
474
100
AcDbEntity
  8
ASSI
100
AcDbLine
 62
7
  6
CONTINUOUS
 10
-11.5330204082
 20
25.7568163265
 11
-11.5330204082
 21
20.7568163265
  0
LINE
  5
475
100
AcDbEntity
  8
SMUSSO
100
AcDbLine
 62
7
  6
CONTINUOUS
 10
-11.5330204082
 20
20.5068163265
 11
-11.5330204082
 21
16.0068163265
  0
LINE
  5
476
100
AcDbEntity
  8
ASSI
100
AcDbLine
 62
7
  6
CONTINUOUS
 10
-11.5330204082
 20
20.5068163265
 11
-11.5330204082
 21
16.0068163265
  0
LINE
  5
477
100
AcDbEntity
  8
SMUSSO
100
AcDbLine
 62
7
  6
CONTINUOUS
 10
-11.5330204082
 20
15.5068163265
 11
-11.5330204082
 21
11.0068163265
  0
LINE
  5
478
100
AcDbEntity
  8
ASSI
100
AcDbLine
 62
7
  6
CONTINUOUS
 10
-11.5330204082
 20
15.5068163265
 11
-11.5330204082
 21
11.0068163265
  0
LINE
  5
479
100
AcDbEntity
  8
SMUSSO
100
AcDbLine
 62
7
  6
CONTINUOUS
 10
-11.5330204082
 20
10.5068163265
 11
-11.5330204082
 21
6.0068163265
  0
LINE
  5
47A
100
AcDbEntity
  8
ASSI
100
AcDbLine
 62
7
  6
CONTINUOUS
 10
-11.5330204082
 20
10.5068163265
 11
-11.5330204082
 21
6.0068163265
  0
LINE
  5
47B
100
AcDbEntity
  8
0
100
AcDbLine
 62
7
  6
CONTINUOUS
 10
-10.7830204082
 20
-1.5431904427
 11
-10.7830204082
 21
-0.1431836735
  0
LINE
  5
47C
100
AcDbEntity
  8
0
100
AcDbLine
 62
7
  6
CONTINUOUS
 10
-10.7830204082
 20
44.6568163265
 11
-10.7830204082
 21
46.0568230957
  0
LINE
  5
47D
100
AcDbEntity
  8
0
100
AcDbLine
 62
7
  6
CONTINUOUS
 10
-10.7743464548
 20
44.6516120391
 11
-10.7744530382
 21
46.0511115963
  0
LINE
  5
47E
100
AcDbEntity
  8
RACCORDO
100
AcDbLine
 62
253
  6
CONTINUOUS
 10
-10.0830204082
 20
39.5568163265
 11
-10.0830204082
 21
39.5068163265
  0
LINE
  5
47F
100
AcDbEntity
  8
0
100
AcDbLine
 62
253
  6
CONTINUOUS
 10
-10.0830204082
 20
39.5568163265
 11
-10.0830204082
 21
39.5068163265
  0
LINE
  5
480
100
AcDbEntity
  8
RACCORDO
100
AcDbLine
 62
253
  6
CONTINUOUS
 10
-10.0830204082
 20
4.9408484081
 11
-10.0830204082
 21
5.0068163265
  0
LINE
  5
481
100
AcDbEntity
  8
0
100
AcDbLine
 62
253
  6
CONTINUOUS
 10
-10.0830204082
 20
4.9408484081
 11
-10.0830204082
 21
5.0068163265
  0
LINE
  5
482
100
AcDbEntity
  8
RACCORDO
100
AcDbLine
 62
7
  6
CONTINUOUS
 10
-9.8790159539
 20
4.0568163265
 11
-9.8790159539
 21
3.9568163265
  0
LINE
  5
483
100
AcDbEntity
  8
ASSI
100
AcDbLine
 62
7
  6
CONTINUOUS
 10
-9.8790159539
 20
4.0568163265
 11
-9.8790159539
 21
3.9568163265
  0
LINE
  5
484
100
AcDbEntity
  8
RACCORDO
100
AcDbLine
 62
7
  6
CONTINUOUS
 10
-9.8004310974
 20
40.5568163265
 11
-9.8004310974
 21
40.4568163265
  0
LINE
  5
485
100
AcDbEntity
  8
ASSI
100
AcDbLine
 62
7
  6
CONTINUOUS
 10
-9.8004310974
 20
40.5568163265
 11
-9.8004310974
 21
40.4568163265
  0
LINE
  5
486
100
AcDbEntity
  8
RACCORDO
100
AcDbLine
 62
7
  6
CONTINUOUS
 10
-9.7830204082
 20
4.0568163265
 11
-9.7830204082
 21
4.0237677376
  0
LINE
  5
487
100
AcDbEntity
  8
0
100
AcDbLine
 62
7
  6
CONTINUOUS
 10
-9.7830204082
 20
4.0568163265
 11
-9.7830204082
 21
4.0237677376
  0
LINE
  5
488
100
AcDbEntity
  8
0
100
AcDbLine
 62
7
  6
CONTINUOUS
 10
-10.7743464548
 20
-0.137979386
 11
-10.7744530382
 21
-1.5374789432
  0
LINE
  5
489
100
AcDbEntity
  8
0
100
AcDbLine
 62
253
  6
CONTINUOUS
 10
-10.2814961733
 20
2.3723296469
 11
-10.2820659818
 21
2.1871945748
  0
LWPOLYLINE
  5
48A
100
AcDbEntity
  8
0
100
AcDbPolyline
 62
7
  6
CONTINUOUS
 90
17
 70
0
 10
-16.1890981611
 20
-1.6970759465
 10
-16.1887620087
 20
-1.6953599205
 10
-16.1879244723
 20
-1.6931636404
 10
-16.186580773
 20
-1.6904871061
 10
-16.184727223
 20
-1.6873362169
 10
-16.1823599162
 20
-1.6837050735
 10
-16.1794734835
 20
-1.6795759782
 10
-16.1760662304
 20
-1.6749518595
 10
-16.1721339327
 20
-1.6698297888
 10
-16.1676638389
 20
-1.6641832824
 10
-16.1626568146
 20
-1.658023914
 10
-16.1571040333
 20
-1.6513401098
 10
-16.1509675159
 20
-1.6440706649
 10
-16.1442324633
 20
-1.6362172042
 10
-16.1368923924
 20
-1.6277781027
 10
-16.1289092211
 20
-1.61868728
 10
-16.1202640357
 20
-1.6089397715
  0
LWPOLYLINE
  5
48B
100
AcDbEntity
  8
0
100
AcDbPolyline
 62
7
  6
CONTINUOUS
 90
9
 70
0
 10
-19.0509277824
 20
-2.0861021228
 10
-19.0467696868
 20
-2.0749536472
 10
-19.0431467665
 20
-2.0636199525
 10
-19.0400672264
 20
-2.0521267123
 10
-19.0375380404
 20
-2.040499961
 10
-19.035564934
 20
-2.0287660396
 10
-19.0341523739
 20
-2.016951529
 10
-19.0333035584
 20
-2.0050831895
 10
-19.0330204082
 20
-1.9931879043
  0
LINE
  5
48C
100
AcDbEntity
  8
CURVE
100
AcDbLine
 62
253
  6
CONTINUOUS
 10
-18.3258775753
 20
13.7068163265
 11
-19.1401632977
 21
12.7568163265
  0
LINE
  5
48D
100
AcDbEntity
  8
CURVE
100
AcDbLine
 62
253
  6
CONTINUOUS
 10
-19.6830204082
 20
13.5711020489
 11
-19.5473060739
 21
13.7068163265
  0
LINE
  5
48E
100
AcDbEntity
  8
CURVE
100
AcDbLine
 62
253
  6
CONTINUOUS
 10
-22.0830204082
 20
10.8925306787
 11
-21.8973061335
 21
11.0782448758
  0
LINE
  5
48F
100
AcDbEntity
  8
CURVE
100
AcDbLine
 62
253
  6
CONTINUOUS
 10
-3.7830204082
 20
29.0568163265
 11
-3.9687347022
 21
28.8711020519
  0
LINE
  5
490
100
AcDbEntity
  8
SMUSSO
100
AcDbLine
 62
7
  6
CONTINUOUS
 10
-16.5330204082
 20
16.0068163265
 11
-16.0330204082
 21
16.5068163265
  0
LINE
  5
491
100
AcDbEntity
  8
ASSI
100
AcDbLine
 62
7
  6
CONTINUOUS
 10
-16.5330204082
 20
16.0068163265
 11
-16.0330204082
 21
16.5068163265
  0
LINE
  5
492
100
AcDbEntity
  8
CURVE
100
AcDbLine
 62
253
  6
CONTINUOUS
 10
-21.8973061335
 20
10.1496734251
 11
-22.0830204082
 21
9.9639591505
  0
LINE
  5
493
100
AcDbEntity
  8
SMUSSO
100
AcDbLine
 62
7
  6
CONTINUOUS
 10
-11.5330204082
 20
20.5068163265
 11
-12.0330204082
 21
20.0068163265
  0
LINE
  5
494
100
AcDbEntity
  8
ASSI
100
AcDbLine
 62
7
  6
CONTINUOUS
 10
-11.5330204082
 20
20.5068163265
 11
-12.0330204082
 21
20.0068163265
  0
LINE
  5
495
100
AcDbEntity
  8
CURVE
100
AcDbLine
 62
253
  6
CONTINUOUS
 10
-20.7830204082
 20
10.7996734251
 11
-20.9687347022
 21
10.613959228
  0
LINE
  5
496
100
AcDbEntity
  8
CURVE
100
AcDbLine
 62
253
  6
CONTINUOUS
 10
-5.4344922707
 20
26.105344464
 11
-5.2223602364
 21
26.3174764983
  0
LINE
  5
497
100
AcDbEntity
  8
CURVE
100
AcDbLine
 62
253
  6
CONTINUOUS
 10
-19.6830204082
 20
17.6568163265
 11
-17.7830204082
 21
18.6068163265
  0
LINE
  5
498
100
AcDbEntity
  8
CURVE
100
AcDbLine
 62
253
  6
CONTINUOUS
 10
-20.9687347022
 20
16.8044356693
 11
-21.1544489962
 21
16.7115782608
  0
LINE
  5
499
100
AcDbEntity
  8
CURVE
100
AcDbLine
 62
253
  6
CONTINUOUS
 10
-0.7202824403
 20
23.0568163221
 11
-0.697594312
 21
23.0568163221
  0
LINE
  5
49A
100
AcDbEntity
  8
CURVE
100
AcDbLine
 62
253
  6
CONTINUOUS
 10
-0.7499515313
 20
23.4972925504
 11
-0.7272634029
 21
23.4972925504
  0
LINE
  5
49B
100
AcDbEntity
  8
CURVE
100
AcDbLine
 62
253
  6
CONTINUOUS
 10
-0.667925221
 20
23.5511020093
 11
-0.6906133494
 21
23.5511020093
  0
LINE
  5
49C
100
AcDbEntity
  8
CURVE
100
AcDbLine
 62
253
  6
CONTINUOUS
 10
-19.1735648648
 20
23.8783226775
 11
-19.6735648648
 21
23.8783226775
  0
LINE
  5
49D
100
AcDbEntity
  8
CURVE
100
AcDbLine
 62
253
  6
CONTINUOUS
 10
-0.6906133494
 20
24.2568163265
 11
-0.667925221
 21
24.2568163265
  0
LINE
  5
49E
100
AcDbEntity
  8
0
100
AcDbLine
 62
7
  6
CONTINUOUS
 10
-8.7773170834
 20
-0.0967199637
 11
-8.7908745892
 21
1.4568163265
  0
LINE
  5
49F
100
AcDbEntity
  8
0
100
AcDbLine
 62
7
  6
CONTINUOUS
 10
-8.2481626919
 20
-1.7374823285
 11
-8.262465945
 21
-0.0984918574
  0
LINE
  5
4A0
100
AcDbEntity
  8
DRAFT
100
AcDbLine
 62
7
  6
CONTINUOUS
 10
-8.2824796848
 20
2.1948555652
 11
-8.2828669735
 21
2.239234461
  0
LINE
  5
4A1
100
AcDbEntity
  8
0
100
AcDbLine
 62
7
  6
CONTINUOUS
 10
-9.6830204082
 20
4.0568163265
 11
-9.6830204082
 21
4.0246351245
  0
LINE
  5
4A2
100
AcDbEntity
  8
RACCORDO
100
AcDbLine
 62
253
  6
CONTINUOUS
 10
-9.6365737988
 20
4.0242763099
 11
-9.6365737988
 21
3.9568163265
  0
LINE
  5
4A3
100
AcDbEntity
  8
0
100
AcDbLine
 62
253
  6
CONTINUOUS
 10
-9.6365737988
 20
4.0242763099
 11
-9.6365737988
 21
3.9568163265
  0
LINE
  5
4A4
100
AcDbEntity
  8
0
100
AcDbLine
 62
7
  6
CONTINUOUS
 10
-9.2830204082
 20
40.5568163265
 11
-9.2830204082
 21
38.8568163265
  0
LINE
  5
4A5
100
AcDbEntity
  8
ASSI
100
AcDbLine
 62
7
  6
CONTINUOUS
 10
-9.2830204082
 20
40.5568163265
 11
-9.2830204082
 21
38.8568163265
  0
LINE
  5
4A6
100
AcDbEntity
  8
0
100
AcDbLine
 62
7
  6
CONTINUOUS
 10
-9.2830204082
 20
5.6568163265
 11
-9.2830204082
 21
3.9568163265
  0
LINE
  5
4A7
100
AcDbEntity
  8
ASSI
100
AcDbLine
 62
7
  6
CONTINUOUS
 10
-9.2830204082
 20
5.6568163265
 11
-9.2830204082
 21
3.9568163265
  0
LINE
  5
4A8
100
AcDbEntity
  8
CURVE
100
AcDbLine
 62
253
  6
CONTINUOUS
 10
-9.0830204082
 20
29.0568163265
 11
-9.0830204082
 21
29.1496734251
  0
LINE
  5
4A9
100
AcDbEntity
  8
CURVE
100
AcDbLine
 62
253
  6
CONTINUOUS
 10
-9.0830204082
 20
30.7282450308
 11
-9.0830204082
 21
31.2853876223
  0
LINE
  5
4AA
100
AcDbEntity
  8
CURVE
100
AcDbLine
 62
253
  6
CONTINUOUS
 10
-9.0830204082
 20
31.9353876223
 11
-9.0830204082
 21
32.0282450308
  0
LINE
  5
4AB
100
AcDbEntity
  8
CURVE
100
AcDbLine
 62
253
  6
CONTINUOUS
 10
-9.0830204082
 20
32.9568163265
 11
-9.0830204082
 21
33.0496737351
  0
LINE
  5
4AC
100
AcDbEntity
  8
CURVE
100
AcDbLine
 62
253
  6
CONTINUOUS
 10
-9.0830204082
 20
37.3211021294
 11
-9.0830204082
 21
37.8782447208
  0
LINE
  5
4AD
100
AcDbEntity
  8
CURVE
100
AcDbLine
 62
253
  6
CONTINUOUS
 10
-8.5258775842
 20
37.6925305237
 11
-8.5258775842
 21
37.3211021294
  0
LINE
  5
4AE
100
AcDbEntity
  8
CURVE
100
AcDbLine
 62
253
  6
CONTINUOUS
 10
-8.5258775842
 20
31.0996734251
 11
-8.5258775842
 21
30.7282450308
  0
LINE
  5
4AF
100
AcDbEntity
  8
DRAFT
100
AcDbLine
 62
7
  6
CONTINUOUS
 10
-8.3196760445
 20
42.1201606902
 11
-8.3196760445
 21
41.9201606902
  0
LINE
  5
4B0
100
AcDbEntity
  8
0
100
AcDbLine
 62
7
  6
CONTINUOUS
 10
-8.3196760445
 20
42.1201606902
 11
-8.3196760445
 21
41.9201606902
  0
LINE
  5
4B1
100
AcDbEntity
  8
DRAFT
100
AcDbLine
 62
7
  6
CONTINUOUS
 10
-8.3196760445
 20
2.5934719629
 11
-8.3196760445
 21
2.3934719629
  0
LINE
  5
4B2
100
AcDbEntity
  8
0
100
AcDbLine
 62
7
  6
CONTINUOUS
 10
-8.3196760445
 20
2.5934719629
 11
-8.3196760445
 21
2.3934719629
  0
LINE
  5
4B3
100
AcDbEntity
  8
DRAFT
100
AcDbLine
 62
7
  6
CONTINUOUS
 10
-8.2830204082
 20
42.1568163265
 11
-8.2830204082
 21
41.9568163265
  0
LINE
  5
4B4
100
AcDbEntity
  8
0
100
AcDbLine
 62
7
  6
CONTINUOUS
 10
-8.2830204082
 20
42.1568163265
 11
-8.2830204082
 21
41.9568163265
  0
LINE
  5
4B5
100
AcDbEntity
  8
DRAFT
100
AcDbLine
 62
7
  6
CONTINUOUS
 10
-8.2830204082
 20
2.5568163265
 11
-8.2830204082
 21
2.3568163265
  0
LINE
  5
4B6
100
AcDbEntity
  8
0
100
AcDbLine
 62
7
  6
CONTINUOUS
 10
-8.2830204082
 20
2.5568163265
 11
-8.2830204082
 21
2.3568163265
  0
LINE
  5
4B7
100
AcDbEntity
  8
CURVE
100
AcDbLine
 62
253
  6
CONTINUOUS
 10
-8.2473061335
 20
29.7996734251
 11
-8.2473061335
 21
30.3568163265
  0
LINE
  5
4B8
100
AcDbEntity
  8
CURVE
100
AcDbLine
 62
253
  6
CONTINUOUS
 10
-8.0615918395
 20
28.4068163265
 11
-8.0615918395
 21
27.7568163265
  0
LINE
  5
4B9
100
AcDbEntity
  8
0
100
AcDbLine
 62
7
  6
CONTINUOUS
 10
-8.7908745892
 20
43.0568163265
 11
-8.7773170834
 21
44.6103526168
  0
LINE
  5
4BA
100
AcDbEntity
  8
DRAFT
100
AcDbLine
 62
7
  6
CONTINUOUS
 10
-8.2824796848
 20
42.3187770878
 11
-8.2828669735
 21
42.2743981921
  0
LINE
  5
4BB
100
AcDbEntity
  8
0
100
AcDbLine
 62
7
  6
CONTINUOUS
 10
-8.262465945
 20
44.6121245105
 11
-8.2481626919
 21
46.2511149815
  0
LWPOLYLINE
  5
4BC
100
AcDbEntity
  8
RACCORDO
100
AcDbPolyline
 62
253
  6
CONTINUOUS
 90
5
 70
0
 10
-13.7785677701
 20
4.7528750445
 10
-13.7652668539
 20
4.7977534207
 10
-13.7434055837
 20
4.8400816569
 10
-13.7134803432
 20
4.8786027482
 10
-13.6763425989
 20
4.9120021556
  0
LWPOLYLINE
  5
4BD
100
AcDbEntity
  8
0
100
AcDbPolyline
 62
253
  6
CONTINUOUS
 90
5
 70
0
 10
-13.7785677701
 20
4.7528750445
 10
-13.7652668539
 20
4.7977534207
 10
-13.7434055837
 20
4.8400816569
 10
-13.7134803432
 20
4.8786027482
 10
-13.6763425989
 20
4.9120021556
  0
LINE
  5
4BE
100
AcDbEntity
  8
RACCORDO
100
AcDbLine
 62
7
  6
CONTINUOUS
 10
-13.7735927558
 20
4.025198828
 11
-13.7640238922
 21
4.0568163265
  0
LINE
  5
4BF
100
AcDbEntity
  8
0
100
AcDbLine
 62
7
  6
CONTINUOUS
 10
-13.7735927558
 20
4.025198828
 11
-13.7640238922
 21
4.0568163265
  0
LINE
  5
4C0
100
AcDbEntity
  8
CURVE
100
AcDbLine
 62
253
  6
CONTINUOUS
 10
-17.9187346999
 20
12.7568163265
 11
-17.7830204082
 21
12.8925306183
  0
LINE
  5
4C1
100
AcDbEntity
  8
CURVE
100
AcDbLine
 62
253
  6
CONTINUOUS
 10
-0.7499515313
 20
24.4568163221
 11
-0.7272634029
 21
24.4568163221
  0
LINE
  5
4C2
100
AcDbEntity
  8
0
100
AcDbLine
 62
7
  6
CONTINUOUS
 10
-12.3830204082
 20
24.7568163265
 11
-15.3830204082
 21
24.7568163265
  0
LINE
  5
4C3
100
AcDbEntity
  8
CURVE
100
AcDbLine
 62
253
  6
CONTINUOUS
 10
-7.1995355472
 20
24.8568163265
 11
-7.7830204082
 21
24.8568163265
  0
LINE
  5
4C4
100
AcDbEntity
  8
SMUSSO
100
AcDbLine
 62
7
  6
CONTINUOUS
 10
-16.0330204082
 20
25.2568163265
 11
-12.0330204082
 21
25.2568163265
  0
LINE
  5
4C5
100
AcDbEntity
  8
ASSI
100
AcDbLine
 62
7
  6
CONTINUOUS
 10
-16.0330204082
 20
25.2568163265
 11
-12.0330204082
 21
25.2568163265
  0
LINE
  5
4C6
100
AcDbEntity
  8
CURVE
100
AcDbLine
 62
253
  6
CONTINUOUS
 10
-5.0830204082
 20
25.2568163265
 11
-4.7830204082
 21
25.2568163265
  0
LINE
  5
4C7
100
AcDbEntity
  8
RACCORDO
100
AcDbLine
 62
7
  6
CONTINUOUS
 10
-1.06994153
 20
25.4068163265
 11
-1.9830204082
 21
25.4068163265
  0
LINE
  5
4C8
100
AcDbEntity
  8
ASSI
100
AcDbLine
 62
7
  6
CONTINUOUS
 10
-1.06994153
 20
25.4068163265
 11
-1.9830204082
 21
25.4068163265
  0
LINE
  5
4C9
100
AcDbEntity
  8
CURVE
100
AcDbLine
 62
253
  6
CONTINUOUS
 10
-7.7830204082
 20
25.6568163265
 11
-7.1995355472
 21
25.6568163265
  0
LINE
  5
4CA
100
AcDbEntity
  8
SMUSSO
100
AcDbLine
 62
7
  6
CONTINUOUS
 10
-16.5330204082
 20
25.7568163265
 11
-11.5330204082
 21
25.7568163265
  0
LINE
  5
4CB
100
AcDbEntity
  8
ASSI
100
AcDbLine
 62
7
  6
CONTINUOUS
 10
-16.5330204082
 20
25.7568163265
 11
-11.5330204082
 21
25.7568163265
  0
LWPOLYLINE
  5
4CC
100
AcDbEntity
  8
0
100
AcDbPolyline
 62
7
  6
CONTINUOUS
 90
18
 70
0
 10
-19.0509277824
 20
46.5997347758
 10
-19.055611636
 20
46.6106727728
 10
-19.0608106393
 20
46.6213755141
 10
-19.0665130165
 20
46.6318187548
 10
-19.07270585
 20
46.6419788324
 10
-19.0793751127
 20
46.6518327316
 10
-19.0865056975
 20
46.6613581304
 10
-19.0940814493
 20
46.6705334456
 10
-19.1020852077
 20
46.6793378926
 10
-19.1104988421
 20
46.687751527
 10
-19.1193032891
 20
46.6957552854
 10
-19.1284786043
 20
46.7033310372
 10
-19.138004003
 20
46.710461622
 10
-19.1478579023
 20
46.7171308847
 10
-19.1580179799
 20
46.7233237182
 10
-19.1684612206
 20
46.7290260954
 10
-19.1791639619
 20
46.7342250987
 10
-19.1901019589
 20
46.7389089523
  0
LINE
  5
4CD
100
AcDbEntity
  8
RACCORDO
100
AcDbLine
 62
253
  6
CONTINUOUS
 10
-13.7649281944
 20
39.7150426917
 11
-13.7784627341
 21
39.760221631
  0
LINE
  5
4CE
100
AcDbEntity
  8
0
100
AcDbLine
 62
253
  6
CONTINUOUS
 10
-13.7649281944
 20
39.7150426917
 11
-13.7784627341
 21
39.760221631
  0
LWPOLYLINE
  5
4CF
100
AcDbEntity
  8
0
100
AcDbPolyline
 62
7
  6
CONTINUOUS
 90
6
 70
0
 10
-4.5304758823
 20
-2.0287660396
 10
-4.5285027759
 20
-2.040499961
 10
-4.5259735899
 20
-2.0521267123
 10
-4.5228940499
 20
-2.0636199525
 10
-4.5192711295
 20
-2.0749536472
 10
-4.5151130339
 20
-2.0861021228
  0
LINE
  5
4D0
100
AcDbEntity
  8
CURVE
100
AcDbLine
 62
253
  6
CONTINUOUS
 10
-7.7830204082
 20
33.0496737351
 11
-7.7830204082
 21
32.9568163265
  0
LINE
  5
4D1
100
AcDbEntity
  8
CURVE
100
AcDbLine
 62
253
  6
CONTINUOUS
 10
-7.7830204082
 20
32.0282450308
 11
-7.7830204082
 21
31.9353876223
  0
LINE
  5
4D2
100
AcDbEntity
  8
CURVE
100
AcDbLine
 62
253
  6
CONTINUOUS
 10
-7.7830204082
 20
29.1496734251
 11
-7.7830204082
 21
29.0568163265
  0
LINE
  5
4D3
100
AcDbEntity
  8
CURVE
100
AcDbLine
 62
253
  6
CONTINUOUS
 10
-7.7830204082
 20
24.8568163265
 11
-7.7830204082
 21
25.6568163265
  0
LINE
  5
4D4
100
AcDbEntity
  8
CURVE
100
AcDbLine
 62
253
  6
CONTINUOUS
 10
-7.7830204082
 20
30.7282450308
 11
-7.7830204082
 21
31.0996734251
  0
LINE
  5
4D5
100
AcDbEntity
  8
CURVE
100
AcDbLine
 62
253
  6
CONTINUOUS
 10
-7.7830204082
 20
36.4853879322
 11
-7.7830204082
 21
36.9496737351
  0
LINE
  5
4D6
100
AcDbEntity
  8
CURVE
100
AcDbLine
 62
253
  6
CONTINUOUS
 10
-7.7830204082
 20
37.3211021294
 11
-7.7830204082
 21
37.8782447208
  0
LINE
  5
4D7
100
AcDbEntity
  8
RACCORDO
100
AcDbLine
 62
7
  6
CONTINUOUS
 10
-7.7699301065
 20
41.5699180513
 11
-7.7699301065
 21
40.4699066282
  0
LINE
  5
4D8
100
AcDbEntity
  8
ASSI
100
AcDbLine
 62
7
  6
CONTINUOUS
 10
-7.7699301065
 20
41.5699180513
 11
-7.7699301065
 21
40.4699066282
  0
LINE
  5
4D9
100
AcDbEntity
  8
RACCORDO
100
AcDbLine
 62
7
  6
CONTINUOUS
 10
-7.7699301065
 20
2.9437146018
 11
-7.7699301065
 21
3.7437374479
  0
LINE
  5
4DA
100
AcDbEntity
  8
ASSI
100
AcDbLine
 62
7
  6
CONTINUOUS
 10
-7.7699301065
 20
2.9437146018
 11
-7.7699301065
 21
3.7437374479
  0
LINE
  5
4DB
100
AcDbEntity
  8
0
100
AcDbLine
 62
7
  6
CONTINUOUS
 10
-7.3769426552
 20
46.2107085996
 11
-7.3769426552
 21
44.6128940795
  0
LINE
  5
4DC
100
AcDbEntity
  8
0
100
AcDbLine
 62
7
  6
CONTINUOUS
 10
-7.3769426552
 20
-0.0992614264
 11
-7.3769426552
 21
-1.6970759465
  0
LINE
  5
4DD
100
AcDbEntity
  8
0
100
AcDbLine
 62
7
  6
CONTINUOUS
 10
-7.3330204082
 20
-1.7431836735
 11
-7.3330204082
 21
-1.1111286206
  0
LINE
  5
4DE
100
AcDbEntity
  8
0
100
AcDbLine
 62
7
  6
CONTINUOUS
 10
-7.3330204082
 20
-0.6752387263
 11
-7.3330204082
 21
-0.1431836735
  0
LINE
  5
4DF
100
AcDbEntity
  8
0
100
AcDbLine
 62
7
  6
CONTINUOUS
 10
-7.3330204082
 20
44.6568163265
 11
-7.3330204082
 21
45.1888713794
  0
LINE
  5
4E0
100
AcDbEntity
  8
0
100
AcDbLine
 62
7
  6
CONTINUOUS
 10
-7.3330204082
 20
45.6247612737
 11
-7.3330204082
 21
46.2568163265
  0
LINE
  5
4E1
100
AcDbEntity
  8
ASSI
100
AcDbLine
 62
7
  6
CONTINUOUS
 10
-7.0830204082
 20
40.8568163265
 11
-7.0830204082
 21
40.4699066282
  0
LINE
  5
4E2
100
AcDbEntity
  8
CURVE
100
AcDbLine
 62
253
  6
CONTINUOUS
 10
-6.2830204082
 20
24.0568163265
 11
-6.2830204082
 21
23.7568163265
  0
LINE
  5
4E3
100
AcDbEntity
  8
CURVE
100
AcDbLine
 62
253
  6
CONTINUOUS
 10
-6.2830204082
 20
26.4568163265
 11
-6.2830204082
 21
26.7568163265
  0
LINE
  5
4E4
100
AcDbEntity
  8
SMUSSO
100
AcDbLine
 62
7
  6
CONTINUOUS
 10
-16.5330204082
 20
11.0068163265
 11
-16.0330204082
 21
11.5068163265
  0
LINE
  5
4E5
100
AcDbEntity
  8
ASSI
100
AcDbLine
 62
7
  6
CONTINUOUS
 10
-16.5330204082
 20
11.0068163265
 11
-16.0330204082
 21
11.5068163265
  0
LINE
  5
4E6
100
AcDbEntity
  8
SMUSSO
100
AcDbLine
 62
7
  6
CONTINUOUS
 10
-11.5330204082
 20
15.5068163265
 11
-12.0330204082
 21
15.0068163265
  0
LINE
  5
4E7
100
AcDbEntity
  8
ASSI
100
AcDbLine
 62
7
  6
CONTINUOUS
 10
-11.5330204082
 20
15.5068163265
 11
-12.0330204082
 21
15.0068163265
  0
LINE
  5
4E8
100
AcDbEntity
  8
CURVE
100
AcDbLine
 62
253
  6
CONTINUOUS
 10
-21.8973061335
 20
11.0782448758
 11
-21.7115918589
 21
11.1711019744
  0
LWPOLYLINE
  5
4E9
100
AcDbEntity
  8
CURVE
100
AcDbPolyline
 62
7
  6
CONTINUOUS
 90
15
 70
0
 10
-0.6737319765
 20
28.7195363526
 10
-0.6739512017
 20
28.7194971271
 10
-0.6741720912
 20
28.7197662166
 10
-0.6743943417
 20
28.7203446828
 10
-0.6746176496
 20
28.7212335872
 10
-0.6748417116
 20
28.7224339917
 10
-0.6750662242
 20
28.7239469577
 10
-0.6752908841
 20
28.7257735469
 10
-0.6755153878
 20
28.7279148209
 10
-0.675739432
 20
28.7303718414
 10
-0.6759627131
 20
28.73314567
 10
-0.6761849277
 20
28.7362373683
 10
-0.6764057726
 20
28.739647998
 10
-0.6766249441
 20
28.7433786207
 10
-0.676842139
 20
28.7474302981
  0
LWPOLYLINE
  5
4EA
100
AcDbEntity
  8
0
100
AcDbPolyline
 62
7
  6
CONTINUOUS
 90
4
 70
0
 10
-4.5330204082
 20
-1.9931879043
 10
-4.5327372579
 20
-2.0050831895
 10
-4.5318884424
 20
-2.016951529
 10
-4.5304758823
 20
-2.0287660396
  0
LWPOLYLINE
  5
4EB
100
AcDbEntity
  8
0
100
AcDbPolyline
 62
7
  6
CONTINUOUS
 90
34
 70
0
 10
-4.5286485742
 20
-1.9888160703
 10
-4.5283650234
 20
-2.0007110918
 10
-4.5275158184
 20
-2.0125791684
 10
-4.526102883
 20
-2.0243934164
 10
-4.5241294177
 20
-2.0361270736
 10
-4.5215998929
 20
-2.0477535608
 10
-4.5185200386
 20
-2.0592465414
 10
-4.5148968312
 20
-2.0705799813
 10
-4.5107384781
 20
-2.0817282075
 10
-4.506054399
 20
-2.0926659669
 10
-4.5008552044
 20
-2.1033684831
 10
-4.4951526715
 20
-2.1138115123
 10
-4.488959718
 20
-2.1239713989
 10
-4.4822903722
 20
-2.1338251284
 10
-4.4751597416
 20
-2.1433503799
 10
-4.4675839788
 20
-2.1525255766
 10
-4.4595802446
 20
-2.1613299345
 10
-4.4511666692
 20
-2.1697435099
 10
-4.4423623113
 20
-2.1777472441
 10
-4.4331871146
 20
-2.1853230069
 10
-4.4236618631
 20
-2.1924536375
 10
-4.4138081336
 20
-2.1991229833
 10
-4.403648247
 20
-2.2053159368
 10
-4.3932052178
 20
-2.2110184697
 10
-4.3825027016
 20
-2.2162176644
 10
-4.3715649422
 20
-2.2209017434
 10
-4.3604167159
 20
-2.2250600965
 10
-4.3490832761
 20
-2.2286833039
 10
-4.3375902955
 20
-2.2317631583
 10
-4.3259638083
 20
-2.234292683
 10
-4.314230151
 20
-2.2362661483
 10
-4.3024159031
 20
-2.2376790837
 10
-4.2905478265
 20
-2.2385282887
 10
-4.2786528049
 20
-2.2388118395
  0
LINE
  5
4EC
100
AcDbEntity
  8
0
100
AcDbLine
 62
253
  6
CONTINUOUS
 10
-4.5286485742
 20
-1.5875212408
 11
-4.5330204082
 21
-1.1536688217
  0
LINE
  5
4ED
100
AcDbEntity
  8
0
100
AcDbLine
 62
253
  6
CONTINUOUS
 10
-4.2786528049
 20
-1.3710148898
 11
-4.283743406
 21
-0.8658334043
  0
LINE
  5
4EE
100
AcDbEntity
  8
ASSI
100
AcDbLine
 62
253
  6
CONTINUOUS
 10
-6.0830204082
 20
40.8568163265
 11
-6.0830204082
 21
40.4699066282
  0
LINE
  5
4EF
100
AcDbEntity
  8
DRAFT
100
AcDbLine
 62
7
  6
CONTINUOUS
 10
-5.2786569743
 20
2.2524528926
 11
-5.2786569743
 21
2.5524528926
  0
LINE
  5
4F0
100
AcDbEntity
  8
DRAFT
100
AcDbLine
 62
7
  6
CONTINUOUS
 10
-5.2786569743
 20
41.9611797604
 11
-5.2786569743
 21
42.2611797604
  0
LINE
  5
4F1
100
AcDbEntity
  8
DRAFT
100
AcDbLine
 62
7
  6
CONTINUOUS
 10
-5.1782979947
 20
2.152093913
 11
-5.1782979947
 21
2.452093913
  0
LINE
  5
4F2
100
AcDbEntity
  8
DRAFT
100
AcDbLine
 62
7
  6
CONTINUOUS
 10
-5.1782979947
 20
42.06153874
 11
-5.1782979947
 21
42.36153874
  0
LINE
  5
4F3
100
AcDbEntity
  8
CURVE
100
AcDbLine
 62
253
  6
CONTINUOUS
 10
-5.0830204082
 20
31.0996734251
 11
-5.0830204082
 21
30.7282450308
  0
LINE
  5
4F4
100
AcDbEntity
  8
CURVE
100
AcDbLine
 62
253
  6
CONTINUOUS
 10
-5.0830204082
 20
29.0568163265
 11
-5.0830204082
 21
29.1496734251
  0
LINE
  5
4F5
100
AcDbEntity
  8
CURVE
100
AcDbLine
 62
253
  6
CONTINUOUS
 10
-5.0830204082
 20
31.9353876223
 11
-5.0830204082
 21
32.0282450308
  0
LINE
  5
4F6
100
AcDbEntity
  8
CURVE
100
AcDbLine
 62
253
  6
CONTINUOUS
 10
-5.0830204082
 20
32.9568163265
 11
-5.0830204082
 21
33.0496737351
  0
LINE
  5
4F7
100
AcDbEntity
  8
CURVE
100
AcDbLine
 62
253
  6
CONTINUOUS
 10
-5.0830204082
 20
36.4853879322
 11
-5.0830204082
 21
37.2282447208
  0
LINE
  5
4F8
100
AcDbEntity
  8
CURVE
100
AcDbLine
 62
253
  6
CONTINUOUS
 10
-5.0830204082
 20
37.5996737351
 11
-5.0830204082
 21
38.1568163265
  0
LINE
  5
4F9
100
AcDbEntity
  8
DRAFT
100
AcDbLine
 62
7
  6
CONTINUOUS
 10
-4.5877428217
 20
1.2608207808
 11
-4.5877428217
 21
2.452093913
  0
LINE
  5
4FA
100
AcDbEntity
  8
DRAFT
100
AcDbLine
 62
7
  6
CONTINUOUS
 10
-4.5877428217
 20
42.06153874
 11
-4.5877428217
 21
43.2528118722
  0
LINE
  5
4FB
100
AcDbEntity
  8
0
100
AcDbLine
 62
7
  6
CONTINUOUS
 10
-4.5330204082
 20
-1.5875212408
 11
-4.5330204082
 21
-0.1431836735
  0
LINE
  5
4FC
100
AcDbEntity
  8
0
100
AcDbLine
 62
7
  6
CONTINUOUS
 10
-4.5330204082
 20
44.6568163265
 11
-4.5330204082
 21
46.1011538938
  0
LINE
  5
4FD
100
AcDbEntity
  8
0
100
AcDbLine
 62
7
  6
CONTINUOUS
 10
-4.5286485742
 20
46.5024487233
 11
-4.5286485742
 21
46.1011538938
  0
LINE
  5
4FE
100
AcDbEntity
  8
0
100
AcDbLine
 62
7
  6
CONTINUOUS
 10
-4.5286485742
 20
-1.5875212408
 11
-4.5286485742
 21
-1.9888160703
  0
LINE
  5
4FF
100
AcDbEntity
  8
CURVE
100
AcDbLine
 62
253
  6
CONTINUOUS
 10
-4.5258775842
 20
37.9711021294
 11
-4.5258775842
 21
37.5996737351
  0
LINE
  5
500
100
AcDbEntity
  8
CURVE
100
AcDbLine
 62
253
  6
CONTINUOUS
 10
-4.5258775842
 20
31.0996734251
 11
-4.5258775842
 21
30.913959228
  0
LINE
  5
501
100
AcDbEntity
  8
DRAFT
100
AcDbLine
 62
7
  6
CONTINUOUS
 10
-4.4873838421
 20
2.5524528926
 11
-4.4873838421
 21
2.2568163265
  0
LINE
  5
502
100
AcDbEntity
  8
DRAFT
100
AcDbLine
 62
7
  6
CONTINUOUS
 10
-4.4873838421
 20
41.9611797604
 11
-4.4873838421
 21
42.2568163265
  0
LINE
  5
503
100
AcDbEntity
  8
DRAFT
100
AcDbLine
 62
7
  6
CONTINUOUS
 10
-4.4830204082
 20
43.1568163265
 11
-4.4830204082
 21
42.2568163265
  0
LINE
  5
504
100
AcDbEntity
  8
DRAFT
100
AcDbLine
 62
7
  6
CONTINUOUS
 10
-4.4830204082
 20
2.2568163265
 11
-4.4830204082
 21
1.3568163265
  0
LINE
  5
505
100
AcDbEntity
  8
DRAFT
100
AcDbLine
 62
7
  6
CONTINUOUS
 10
-4.3830204082
 20
43.1068163265
 11
-4.3830204082
 21
41.9568163265
  0
LINE
  5
506
100
AcDbEntity
  8
0
100
AcDbLine
 62
7
  6
CONTINUOUS
 10
-4.3830204082
 20
43.1068163265
 11
-4.3830204082
 21
41.9568163265
  0
LINE
  5
507
100
AcDbEntity
  8
DRAFT
100
AcDbLine
 62
7
  6
CONTINUOUS
 10
-4.3830204082
 20
2.5568163265
 11
-4.3830204082
 21
1.4068163265
  0
LINE
  5
508
100
AcDbEntity
  8
0
100
AcDbLine
 62
7
  6
CONTINUOUS
 10
-4.3830204082
 20
2.5568163265
 11
-4.3830204082
 21
1.4068163265
  0
LINE
  5
509
100
AcDbEntity
  8
0
100
AcDbLine
 62
253
  6
CONTINUOUS
 10
-4.5330204082
 20
45.6673014747
 11
-4.5286485742
 21
46.1011538938
  0
LINE
  5
50A
100
AcDbEntity
  8
0
100
AcDbLine
 62
253
  6
CONTINUOUS
 10
-4.283743406
 20
45.3794660573
 11
-4.2786528049
 21
45.8846475429
  0
LWPOLYLINE
  5
50B
100
AcDbEntity
  8
0
100
AcDbPolyline
 62
7
  6
CONTINUOUS
 90
4
 70
0
 10
-19.600707116
 20
0.5594270643
 10
-19.5470509319
 20
0.6385571249
 10
-19.5196851178
 20
0.6785472054
 10
-19.4918977137
 20
0.718678366
  0
LWPOLYLINE
  5
50C
100
AcDbEntity
  8
0
100
AcDbPolyline
 62
7
  6
CONTINUOUS
 90
4
 70
0
 10
-19.4918977137
 20
0.718678366
 10
-19.4070157009
 20
0.8398197698
 10
-19.3784254592
 20
0.8803504522
 10
-19.3496660624
 20
0.9208293779
  0
LINE
  5
50D
100
AcDbEntity
  8
CURVE
100
AcDbLine
 62
253
  6
CONTINUOUS
 10
-20.9687347022
 20
10.613959228
 11
-21.1544489962
 21
10.5211019744
  0
LINE
  5
50E
100
AcDbEntity
  8
CURVE
100
AcDbLine
 62
253
  6
CONTINUOUS
 10
-0.7305045639
 20
28.0241977276
 11
-0.7369868859
 21
28.0241977276
  0
LINE
  5
50F
100
AcDbEntity
  8
CURVE
100
AcDbLine
 62
253
  6
CONTINUOUS
 10
-3.7830204082
 20
28.1901496728
 11
-4.4330204082
 21
28.1901496728
  0
LINE
  5
510
100
AcDbEntity
  8
CURVE
100
AcDbLine
 62
253
  6
CONTINUOUS
 10
-7.7830204082
 20
28.1901496728
 11
-8.4330204082
 21
28.1901496728
  0
LINE
  5
511
100
AcDbEntity
  8
CURVE
100
AcDbLine
 62
7
  6
CONTINUOUS
 10
-0.686064232
 20
28.5622606166
 11
-0.6857652407
 21
28.5622606166
  0
LINE
  5
512
100
AcDbEntity
  8
CURVE
100
AcDbLine
 62
253
  6
CONTINUOUS
 10
-0.7499515313
 20
28.6416977276
 11
-0.7272634029
 21
28.6416977276
  0
LINE
  5
513
100
AcDbEntity
  8
CURVE
100
AcDbLine
 62
253
  6
CONTINUOUS
 10
-4.1544489962
 20
28.7782448758
 11
-4.7115918589
 21
28.7782448758
  0
LINE
  5
514
100
AcDbEntity
  8
CURVE
100
AcDbLine
 62
253
  6
CONTINUOUS
 10
-8.1544489962
 20
28.7782448758
 11
-8.7115918589
 21
28.7782448758
  0
LINE
  5
515
100
AcDbEntity
  8
CURVE
100
AcDbLine
 62
253
  6
CONTINUOUS
 10
-8.7115918589
 20
29.4282448758
 11
-8.1544489962
 21
29.4282448758
  0
LINE
  5
516
100
AcDbEntity
  8
CURVE
100
AcDbLine
 62
253
  6
CONTINUOUS
 10
-4.7115918589
 20
29.4282448758
 11
-4.1544489962
 21
29.4282448758
  0
LINE
  5
517
100
AcDbEntity
  8
CURVE
100
AcDbLine
 62
7
  6
CONTINUOUS
 10
-0.7096830322
 20
29.5155477098
 11
-0.689881684
 21
29.5155477098
  0
LINE
  5
518
100
AcDbEntity
  8
CURVE
100
AcDbLine
 62
253
  6
CONTINUOUS
 10
-0.7499515313
 20
29.5238401641
 11
-0.7272634029
 21
29.5238401641
  0
LINE
  5
519
100
AcDbEntity
  8
CURVE
100
AcDbLine
 62
7
  6
CONTINUOUS
 10
-0.6815949182
 20
29.5356175984
 11
-0.6677047203
 21
29.5356175984
  0
LINE
  5
51A
100
AcDbEntity
  8
CURVE
100
AcDbLine
 62
253
  6
CONTINUOUS
 10
-8.0615918395
 20
27.7568163265
 11
-9.0830204082
 21
28.0353877579
  0
LINE
  5
51B
100
AcDbEntity
  8
CURVE
100
AcDbLine
 62
253
  6
CONTINUOUS
 10
-4.0615918395
 20
27.7568163265
 11
-5.0830204082
 21
28.0353877579
  0
LINE
  5
51C
100
AcDbEntity
  8
CURVE
100
AcDbLine
 62
253
  6
CONTINUOUS
 10
-8.7115918589
 20
28.7782448758
 11
-8.8973061335
 21
28.8711020519
  0
LINE
  5
51D
100
AcDbEntity
  8
CURVE
100
AcDbLine
 62
253
  6
CONTINUOUS
 10
-5.4344922707
 20
24.4082881891
 11
-5.2223602364
 21
24.1961561548
  0
LINE
  5
51E
100
AcDbEntity
  8
CURVE
100
AcDbLine
 62
253
  6
CONTINUOUS
 10
-8.8973061335
 20
28.8711020519
 11
-9.0830204082
 21
29.0568163265
  0
LINE
  5
51F
100
AcDbEntity
  8
0
100
AcDbLine
 62
7
  6
CONTINUOUS
 10
-19.3496660624
 20
43.5928032752
 11
-19.3784254592
 21
43.6332822009
  0
LINE
  5
520
100
AcDbEntity
  8
0
100
AcDbLine
 62
7
  6
CONTINUOUS
 10
-19.3784254592
 20
43.6332822009
 11
-19.4354367877
 21
43.7143276171
  0
LWPOLYLINE
  5
521
100
AcDbEntity
  8
0
100
AcDbPolyline
 62
7
  6
CONTINUOUS
 90
3
 70
0
 10
-19.4354367877
 20
43.7143276171
 10
-19.4918977137
 20
43.794954287
 10
-19.5196851178
 20
43.8350854477
  0
LWPOLYLINE
  5
522
100
AcDbEntity
  8
0
100
AcDbPolyline
 62
7
  6
CONTINUOUS
 90
3
 70
0
 10
-19.5196851178
 20
43.8350854477
 10
-19.5740582646
 20
43.9148082772
 10
-19.600707116
 20
43.9542055887
  0
LWPOLYLINE
  5
523
100
AcDbEntity
  8
0
100
AcDbPolyline
 62
253
  6
CONTINUOUS
 90
34
 70
0
 10
-4.5286485742
 20
46.1011538938
 10
-4.528332447
 20
46.090880116
 10
-4.5274535347
 20
46.0806272056
 10
-4.5260134432
 20
46.0704182957
 10
-4.5240148772
 20
46.0602756964
 10
-4.5214620613
 20
46.0502231068
 10
-4.5183611412
 20
46.0402854862
 10
-4.5147194332
 20
46.0304860539
 10
-4.5105449278
 20
46.0208461181
 10
-4.5058469472
 20
46.0113872476
 10
-4.5006359907
 20
46.0021306806
 10
-4.4949238495
 20
45.9930974521
 10
-4.4887235173
 20
45.9843081408
 10
-4.4820490412
 20
45.9757826491
 10
-4.4749154434
 20
45.9675401552
 10
-4.4673388094
 20
45.9595992479
 10
-4.4593362272
 20
45.9519778433
 10
-4.4509257689
 20
45.944693159
 10
-4.4421264365
 20
45.9377616557
 10
-4.4329580996
 20
45.9311989846
 10
-4.4234414478
 20
45.9250199546
 10
-4.4135979627
 20
45.9192385134
 10
-4.403449864
 20
45.9138677114
 10
-4.3930200591
 20
45.9089196724
 10
-4.3823320917
 20
45.9044055659
 10
-4.371410075
 20
45.9003355771
 10
-4.3602786759
 20
45.8967188987
 10
-4.3489630615
 20
45.8935637051
 10
-4.3374888036
 20
45.8908771193
 10
-4.3258817779
 20
45.8886651927
 10
-4.3141681442
 20
45.886932908
 10
-4.3023743293
 20
45.8856841741
 10
-4.2905269687
 20
45.8849218121
 10
-4.2786528049
 20
45.8846475429
  0
LINE
  5
524
100
AcDbEntity
  8
DRAFT
100
AcDbLine
 62
7
  6
CONTINUOUS
 10
-4.3463647718
 20
41.9201606902
 11
-4.3463647718
 21
40.8568163265
  0
LINE
  5
525
100
AcDbEntity
  8
0
100
AcDbLine
 62
7
  6
CONTINUOUS
 10
-4.3463647718
 20
41.9201606902
 11
-4.3463647718
 21
40.8568163265
  0
LINE
  5
526
100
AcDbEntity
  8
DRAFT
100
AcDbLine
 62
7
  6
CONTINUOUS
 10
-4.3463647718
 20
2.5934719629
 11
-4.3463647718
 21
3.9906468589
  0
LINE
  5
527
100
AcDbEntity
  8
0
100
AcDbLine
 62
7
  6
CONTINUOUS
 10
-4.3463647718
 20
2.5934719629
 11
-4.3463647718
 21
3.9906468589
  0
LINE
  5
528
100
AcDbEntity
  8
DRAFT
100
AcDbLine
 62
7
  6
CONTINUOUS
 10
-4.3289097069
 20
43.1068163265
 11
-4.3289097069
 21
40.8568163265
  0
LINE
  5
529
100
AcDbEntity
  8
0
100
AcDbLine
 62
7
  6
CONTINUOUS
 10
-4.3289097069
 20
43.1068163265
 11
-4.3289097069
 21
40.8568163265
  0
LINE
  5
52A
100
AcDbEntity
  8
DRAFT
100
AcDbLine
 62
7
  6
CONTINUOUS
 10
-4.3289097069
 20
3.9993737267
 11
-4.3289097069
 21
1.4068163265
  0
LINE
  5
52B
100
AcDbEntity
  8
0
100
AcDbLine
 62
7
  6
CONTINUOUS
 10
-4.3289097069
 20
3.9993737267
 11
-4.3289097069
 21
1.4068163265
  0
LINE
  5
52C
100
AcDbEntity
  8
0
100
AcDbLine
 62
253
  6
CONTINUOUS
 10
-4.2786528049
 20
-2.2388118395
 11
-4.2786528049
 21
-1.3710148898
  0
LINE
  5
52D
100
AcDbEntity
  8
0
100
AcDbLine
 62
253
  6
CONTINUOUS
 10
-4.2786528049
 20
45.8846475429
 11
-4.2786528049
 21
46.7524444925
  0
LINE
  5
52E
100
AcDbEntity
  8
CURVE
100
AcDbLine
 62
253
  6
CONTINUOUS
 10
-4.2473061335
 20
29.7996734251
 11
-4.2473061335
 21
30.3568163265
  0
LINE
  5
52F
100
AcDbEntity
  8
0
100
AcDbLine
 62
253
  6
CONTINUOUS
 10
-4.2163747539
 20
0.9208293779
 11
-4.2163747539
 21
1.2608207808
  0
LINE
  5
530
100
AcDbEntity
  8
0
100
AcDbLine
 62
253
  6
CONTINUOUS
 10
-4.2163747539
 20
43.2528118722
 11
-4.2163747539
 21
43.5928032752
  0
LINE
  5
531
100
AcDbEntity
  8
CURVE
100
AcDbLine
 62
253
  6
CONTINUOUS
 10
-4.0615918395
 20
28.4068163265
 11
-4.0615918395
 21
27.7568163265
  0
LINE
  5
532
100
AcDbEntity
  8
CURVE
100
AcDbLine
 62
253
  6
CONTINUOUS
 10
-3.7830204082
 20
33.0496737351
 11
-3.7830204082
 21
32.9568163265
  0
LINE
  5
533
100
AcDbEntity
  8
CURVE
100
AcDbLine
 62
253
  6
CONTINUOUS
 10
-3.7830204082
 20
32.0282450308
 11
-3.7830204082
 21
31.9353876223
  0
LINE
  5
534
100
AcDbEntity
  8
CURVE
100
AcDbLine
 62
253
  6
CONTINUOUS
 10
-3.7830204082
 20
29.1496734251
 11
-3.7830204082
 21
29.0568163265
  0
LINE
  5
535
100
AcDbEntity
  8
CURVE
100
AcDbLine
 62
253
  6
CONTINUOUS
 10
-3.7830204082
 20
30.7282450308
 11
-3.7830204082
 21
31.1925305237
  0
LINE
  5
536
100
AcDbEntity
  8
CURVE
100
AcDbLine
 62
253
  6
CONTINUOUS
 10
-3.7830204082
 20
37.5996737351
 11
-3.7830204082
 21
38.1568163265
  0
LINE
  5
537
100
AcDbEntity
  8
0
100
AcDbLine
 62
7
  6
CONTINUOUS
 10
-3.7164509064
 20
0.6733858283
 11
-3.7164509064
 21
0.6857274831
  0
LINE
  5
538
100
AcDbEntity
  8
0
100
AcDbLine
 62
7
  6
CONTINUOUS
 10
-3.7164509064
 20
1.3480894587
 11
-3.7164509064
 21
1.3568163265
  0
LINE
  5
539
100
AcDbEntity
  8
0
100
AcDbLine
 62
253
  6
CONTINUOUS
 10
-3.7164509064
 20
0.8030808994
 11
-3.7164509064
 21
1.2651080623
  0
LINE
  5
53A
100
AcDbEntity
  8
0
100
AcDbLine
 62
7
  6
CONTINUOUS
 10
-3.7164509064
 20
43.1568163265
 11
-3.7164509064
 21
43.1655431943
  0
LINE
  5
53B
100
AcDbEntity
  8
0
100
AcDbLine
 62
7
  6
CONTINUOUS
 10
-3.7164509064
 20
43.8279051699
 11
-3.7164509064
 21
43.8402468247
  0
LINE
  5
53C
100
AcDbEntity
  8
0
100
AcDbLine
 62
253
  6
CONTINUOUS
 10
-3.7164509064
 20
43.2485245908
 11
-3.7164509064
 21
43.7105517537
  0
LINE
  5
53D
100
AcDbEntity
  8
0
100
AcDbLine
 62
7
  6
CONTINUOUS
 10
-3.5504754731
 20
43.6619297367
 11
-3.5504754731
 21
43.1655431943
  0
LINE
  5
53E
100
AcDbEntity
  8
0
100
AcDbLine
 62
7
  6
CONTINUOUS
 10
-3.5504754731
 20
1.3480894587
 11
-3.5504754731
 21
0.8517029164
  0
LINE
  5
53F
100
AcDbEntity
  8
DRAFT
100
AcDbLine
 62
7
  6
CONTINUOUS
 10
-3.1830204082
 20
1.4068163265
 11
-3.1830204082
 21
3.9993737267
  0
LINE
  5
540
100
AcDbEntity
  8
0
100
AcDbLine
 62
7
  6
CONTINUOUS
 10
-3.1830204082
 20
1.4068163265
 11
-3.1830204082
 21
3.9993737267
  0
LINE
  5
541
100
AcDbEntity
  8
DRAFT
100
AcDbLine
 62
7
  6
CONTINUOUS
 10
-3.1830204082
 20
40.8568163265
 11
-3.1830204082
 21
43.1068163265
  0
LINE
  5
542
100
AcDbEntity
  8
0
100
AcDbLine
 62
7
  6
CONTINUOUS
 10
-3.1830204082
 20
40.8568163265
 11
-3.1830204082
 21
43.1068163265
  0
LINE
  5
543
100
AcDbEntity
  8
0
100
AcDbLine
 62
253
  6
CONTINUOUS
 10
-2.5830204082
 20
40.8568163265
 11
-2.5830204082
 21
40.4699066282
  0
LWPOLYLINE
  5
544
100
AcDbEntity
  8
0
100
AcDbPolyline
 62
253
  6
CONTINUOUS
 90
34
 70
0
 10
-4.5286485742
 20
-1.5875212408
 10
-4.5283319234
 20
-1.5772384732
 10
-4.5274517617
 20
-1.5669789133
 10
-4.5260100754
 20
-1.5567657162
 10
-4.5240101183
 20
-1.5466219325
 10
-4.5214564043
 20
-1.5365704561
 10
-4.5183546969
 20
-1.5266339726
 10
-4.5147119965
 20
-1.5168349081
 10
-4.5105365245
 20
-1.5071953784
 10
-4.5058377046
 20
-1.4977371395
 10
-4.5006261417
 20
-1.488481538
 10
-4.4949135982
 20
-1.4794494633
 10
-4.4887129669
 20
-1.4706613002
 10
-4.4820382421
 20
-1.462136883
 10
-4.4749044884
 20
-1.453895451
 10
-4.4673278063
 20
-1.4459556045
 10
-4.4593252959
 20
-1.4383352632
 10
-4.4509150183
 20
-1.4310516259
 10
-4.442115955
 20
-1.4241211313
 10
-4.4329479651
 20
-1.417559421
 10
-4.4234317402
 20
-1.4113813046
 10
-4.4135887577
 20
-1.4056007256
 10
-4.4034412327
 20
-1.4002307304
 10
-4.3930120677
 20
-1.3952834389
 10
-4.3823248005
 20
-1.3907700167
 10
-4.3714035518
 20
-1.3867006504
 10
-4.3602729701
 20
-1.3830845243
 10
-4.3489581765
 20
-1.3799297999
 10
-4.3374847078
 20
-1.377243597
 10
-4.3258784591
 20
-1.3750319784
 10
-4.3141656248
 20
-1.3732999355
 10
-4.3023726401
 20
-1.3720513774
 10
-4.2905261212
 20
-1.371289122
 10
-4.2786528049
 20
-1.3710148898
  0
LINE
  5
545
100
AcDbEntity
  8
CURVE
100
AcDbLine
 62
7
  6
CONTINUOUS
 10
-0.6590848109
 20
33.0470433265
 11
-0.7096830261
 21
32.7758933265
  0
LINE
  5
546
100
AcDbEntity
  8
CURVE
100
AcDbLine
 62
7
  6
CONTINUOUS
 10
-0.7096830261
 20
33.3680093265
 11
-0.6767810719
 21
33.4923643265
  0
LINE
  5
547
100
AcDbEntity
  8
SMUSSO
100
AcDbLine
 62
7
  6
CONTINUOUS
 10
-16.5330204082
 20
6.0068163265
 11
-16.0330204082
 21
6.5068163265
  0
LINE
  5
548
100
AcDbEntity
  8
ASSI
100
AcDbLine
 62
7
  6
CONTINUOUS
 10
-16.5330204082
 20
6.0068163265
 11
-16.0330204082
 21
6.5068163265
  0
LINE
  5
549
100
AcDbEntity
  8
SMUSSO
100
AcDbLine
 62
7
  6
CONTINUOUS
 10
-11.5330204082
 20
10.5068163265
 11
-12.0330204082
 21
10.0068163265
  0
LINE
  5
54A
100
AcDbEntity
  8
ASSI
100
AcDbLine
 62
7
  6
CONTINUOUS
 10
-11.5330204082
 20
10.5068163265
 11
-12.0330204082
 21
10.0068163265
  0
LINE
  5
54B
100
AcDbEntity
  8
CURVE
100
AcDbLine
 62
253
  6
CONTINUOUS
 10
-22.0830204082
 20
11.5425305237
 11
-20.7830204082
 21
11.913959228
  0
LINE
  5
54C
100
AcDbEntity
  8
CURVE
100
AcDbLine
 62
253
  6
CONTINUOUS
 10
-0.7272634029
 20
29.8766971387
 11
-0.7499515313
 21
29.8766971387
  0
LINE
  5
54D
100
AcDbEntity
  8
CURVE
100
AcDbLine
 62
7
  6
CONTINUOUS
 10
-0.6596759674
 20
30.1183836709
 11
-0.7096830322
 21
30.1183836709
  0
LINE
  5
54E
100
AcDbEntity
  8
CURVE
100
AcDbLine
 62
253
  6
CONTINUOUS
 10
-0.7499515313
 20
30.5824116768
 11
-0.7272634029
 21
30.5824116768
  0
LINE
  5
54F
100
AcDbEntity
  8
CURVE
100
AcDbLine
 62
253
  6
CONTINUOUS
 10
-8.5258775842
 20
30.7282450308
 11
-9.0830204082
 21
30.7282450308
  0
LINE
  5
550
100
AcDbEntity
  8
CURVE
100
AcDbLine
 62
253
  6
CONTINUOUS
 10
-0.7272634029
 20
30.9352686514
 11
-0.7499515313
 21
30.9352686514
  0
LINE
  5
551
100
AcDbEntity
  8
CURVE
100
AcDbLine
 62
253
  6
CONTINUOUS
 10
-4.6187346828
 20
31.2544353594
 11
-4.8973061335
 21
31.2544353594
  0
LINE
  5
552
100
AcDbEntity
  8
CURVE
100
AcDbLine
 62
253
  6
CONTINUOUS
 10
-3.8758775552
 20
31.2853876223
 11
-4.3401632708
 21
31.2853876223
  0
LINE
  5
553
100
AcDbEntity
  8
CURVE
100
AcDbLine
 62
253
  6
CONTINUOUS
 10
-7.9687347022
 20
31.2853876223
 11
-8.3401632708
 21
31.2853876223
  0
LINE
  5
554
100
AcDbEntity
  8
CURVE
100
AcDbLine
 62
253
  6
CONTINUOUS
 10
-8.1544489962
 20
29.4282448758
 11
-7.9687347022
 21
29.3353877772
  0
LINE
  5
555
100
AcDbEntity
  8
CURVE
100
AcDbLine
 62
253
  6
CONTINUOUS
 10
-4.7115918589
 20
28.7782448758
 11
-4.8973061335
 21
28.8711020519
  0
LINE
  5
556
100
AcDbEntity
  8
CURVE
100
AcDbLine
 62
253
  6
CONTINUOUS
 10
-7.9687347022
 20
29.3353877772
 11
-7.7830204082
 21
29.1496734251
  0
LINE
  5
557
100
AcDbEntity
  8
CURVE
100
AcDbLine
 62
253
  6
CONTINUOUS
 10
-8.8973061335
 20
31.7496734251
 11
-9.0830204082
 21
31.9353876223
  0
LINE
  5
558
100
AcDbEntity
  8
CURVE
100
AcDbLine
 62
253
  6
CONTINUOUS
 10
-7.7830204082
 20
31.0996734251
 11
-7.9687347022
 21
31.2853876223
  0
LWPOLYLINE
  5
559
100
AcDbEntity
  8
CURVE
100
AcDbPolyline
 62
7
  6
CONTINUOUS
 90
16
 70
0
 10
-0.6932737236
 20
8.1759302024
 10
-0.6926976099
 20
8.1668992693
 10
-0.6921186292
 20
8.1584977036
 10
-0.6915371797
 20
8.1507245354
 10
-0.6909536595
 20
8.1435787945
 10
-0.6903684667
 20
8.1370595112
 10
-0.6897819993
 20
8.1311657155
 10
-0.6891946556
 20
8.1258964373
 10
-0.6886068337
 20
8.1212507068
 10
-0.6880189316
 20
8.117227554
 10
-0.6874313475
 20
8.1138260089
 10
-0.6868444795
 20
8.1110451016
 10
-0.6862587258
 20
8.1088838622
 10
-0.6856744843
 20
8.1073413206
 10
-0.6850921533
 20
8.106416507
 10
-0.6845121309
 20
8.1061084513
  0
LWPOLYLINE
  5
55A
100
AcDbEntity
  8
CURVE
100
AcDbPolyline
 62
7
  6
CONTINUOUS
 90
16
 70
0
 10
-0.675750423
 20
10.8246696603
 10
-0.6763265444
 20
10.8337008129
 10
-0.676905533
 20
10.8421025641
 10
-0.6774869907
 20
10.8498758866
 10
-0.6780705194
 20
10.8570217533
 10
-0.6786557207
 20
10.8635411368
 10
-0.6792421966
 20
10.86943501
 10
-0.6798295488
 20
10.8747043456
 10
-0.6804173792
 20
10.8793501162
 10
-0.6810052895
 20
10.8833732948
 10
-0.6815928815
 20
10.886774854
 10
-0.6821797571
 20
10.8895557665
 10
-0.682765518
 20
10.8917170052
 10
-0.6833497661
 20
10.8932595427
 10
-0.6839321031
 20
10.8941843519
 10
-0.6845121309
 20
10.8944924055
  0
LINE
  5
55B
100
AcDbEntity
  8
CURVE
100
AcDbLine
 62
253
  6
CONTINUOUS
 10
-0.7167919591
 20
10.2782447685
 11
-0.7430707843
 21
10.7084569853
  0
LINE
  5
55C
100
AcDbEntity
  8
CURVE
100
AcDbLine
 62
7
  6
CONTINUOUS
 10
-0.6944157577
 20
8.1958840505
 11
-0.6932737236
 21
8.1759302024
  0
LINE
  5
55D
100
AcDbEntity
  8
CURVE
100
AcDbLine
 62
7
  6
CONTINUOUS
 10
-0.6746083751
 20
10.8047152601
 11
-0.675750423
 21
10.8246696603
  0
LINE
  5
55E
100
AcDbEntity
  8
CURVE
100
AcDbLine
 62
7
  6
CONTINUOUS
 10
-0.6917334433
 20
8.6854887606
 11
-0.6926035273
 21
8.701604332
  0
LINE
  5
55F
100
AcDbEntity
  8
CURVE
100
AcDbLine
 62
7
  6
CONTINUOUS
 10
-0.6773004948
 20
10.3151113401
 11
-0.6764303943
 21
10.2989954623
  0
LINE
  5
560
100
AcDbEntity
  8
CURVE
100
AcDbLine
 62
7
  6
CONTINUOUS
 10
-0.6955415466
 20
8.2183670075
 11
-0.6944157577
 21
8.1958840505
  0
LINE
  5
561
100
AcDbEntity
  8
CURVE
100
AcDbLine
 62
7
  6
CONTINUOUS
 10
-0.6734825747
 20
10.7822315813
 11
-0.6746083751
 21
10.8047152601
  0
LINE
  5
562
100
AcDbEntity
  8
CURVE
100
AcDbLine
 62
7
  6
CONTINUOUS
 10
-0.6926035273
 20
8.701604332
 11
-0.6934592078
 21
8.7198283504
  0
LINE
  5
563
100
AcDbEntity
  8
CURVE
100
AcDbLine
 62
7
  6
CONTINUOUS
 10
-0.6764303943
 20
10.2989954623
 11
-0.6755746981
 21
10.2807710646
  0
LINE
  5
564
100
AcDbEntity
  8
CURVE
100
AcDbLine
 62
7
  6
CONTINUOUS
 10
-0.6966479053
 20
8.243386833
 11
-0.6955415466
 21
8.2183670075
  0
LINE
  5
565
100
AcDbEntity
  8
CURVE
100
AcDbLine
 62
7
  6
CONTINUOUS
 10
-0.6723762074
 20
10.757210842
 11
-0.6734825747
 21
10.7822315813
  0
LINE
  5
566
100
AcDbEntity
  8
CURVE
100
AcDbLine
 62
7
  6
CONTINUOUS
 10
-0.6934592078
 20
8.7198283504
 11
-0.6942982948
 21
8.740205598
  0
LINE
  5
567
100
AcDbEntity
  8
CURVE
100
AcDbLine
 62
7
  6
CONTINUOUS
 10
-0.6755746981
 20
10.2807710646
 11
-0.6747355964
 21
10.2603933567
  0
LINE
  5
568
100
AcDbEntity
  8
CURVE
100
AcDbLine
 62
7
  6
CONTINUOUS
 10
-0.6982640448
 20
8.2856901741
 11
-0.6966479053
 21
8.243386833
  0
LINE
  5
569
100
AcDbEntity
  8
CURVE
100
AcDbLine
 62
7
  6
CONTINUOUS
 10
-0.6707600621
 20
10.7149057214
 11
-0.6723762074
 21
10.757210842
  0
LINE
  5
56A
100
AcDbEntity
  8
CURVE
100
AcDbLine
 62
253
  6
CONTINUOUS
 10
-0.7404773674
 20
5.1211016525
 11
-0.7452144493
 21
5.2568163265
  0
LINE
  5
56B
100
AcDbEntity
  8
CURVE
100
AcDbLine
 62
253
  6
CONTINUOUS
 10
-0.726266122
 20
6.0711016525
 11
-0.7215290405
 21
5.9353878845
  0
LINE
  5
56C
100
AcDbEntity
  8
CURVE
100
AcDbLine
 62
253
  6
CONTINUOUS
 10
-0.7404773674
 20
14.213959216
 11
-0.7452144493
 21
14.349673437
  0
LINE
  5
56D
100
AcDbEntity
  8
CURVE
100
AcDbLine
 62
253
  6
CONTINUOUS
 10
-0.726266122
 20
15.163959216
 11
-0.7215290405
 21
15.0282448818
  0
LINE
  5
56E
100
AcDbEntity
  8
CURVE
100
AcDbLine
 62
7
  6
CONTINUOUS
 10
-0.6942982948
 20
8.740205598
 11
-0.695521022
 21
8.7749067362
  0
LINE
  5
56F
100
AcDbEntity
  8
CURVE
100
AcDbLine
 62
7
  6
CONTINUOUS
 10
-0.6747355964
 20
10.2603933567
 11
-0.6735128492
 21
10.2256913593
  0
LWPOLYLINE
  5
570
100
AcDbEntity
  8
0
100
AcDbPolyline
 62
253
  6
CONTINUOUS
 90
34
 70
0
 10
-1.6373922422
 20
-1.5875212408
 10
-1.6377088929
 20
-1.5772384732
 10
-1.6385890546
 20
-1.5669789133
 10
-1.6400307409
 20
-1.5567657162
 10
-1.642030698
 20
-1.5466219325
 10
-1.644584412
 20
-1.5365704561
 10
-1.6476861194
 20
-1.5266339726
 10
-1.6513288198
 20
-1.5168349081
 10
-1.6555042919
 20
-1.5071953784
 10
-1.6602031118
 20
-1.4977371395
 10
-1.6654146746
 20
-1.488481538
 10
-1.6711272181
 20
-1.4794494633
 10
-1.6773278495
 20
-1.4706613002
 10
-1.6840025742
 20
-1.462136883
 10
-1.6911363279
 20
-1.453895451
 10
-1.69871301
 20
-1.4459556045
 10
-1.7067155205
 20
-1.4383352632
 10
-1.715125798
 20
-1.4310516259
 10
-1.7239248613
 20
-1.4241211313
 10
-1.7330928512
 20
-1.417559421
 10
-1.7426090762
 20
-1.4113813046
 10
-1.7524520586
 20
-1.4056007256
 10
-1.7625995836
 20
-1.4002307304
 10
-1.7730287487
 20
-1.3952834389
 10
-1.7837160158
 20
-1.3907700167
 10
-1.7946372646
 20
-1.3867006504
 10
-1.8057678462
 20
-1.3830845243
 10
-1.8170826398
 20
-1.3799297999
 10
-1.8285561085
 20
-1.377243597
 10
-1.8401623573
 20
-1.3750319784
 10
-1.8518751916
 20
-1.3732999355
 10
-1.8636681762
 20
-1.3720513774
 10
-1.8755146951
 20
-1.371289122
 10
-1.8873880114
 20
-1.3710148898
  0
LINE
  5
571
100
AcDbEntity
  8
CURVE
100
AcDbLine
 62
7
  6
CONTINUOUS
 10
-0.6998185511
 20
8.3337451172
 11
-0.6982640448
 21
8.2856901741
  0
LINE
  5
572
100
AcDbEntity
  8
CURVE
100
AcDbLine
 62
7
  6
CONTINUOUS
 10
-0.66920556
 20
10.6668484409
 11
-0.6707600621
 21
10.7149057214
  0
LINE
  5
573
100
AcDbEntity
  8
CURVE
100
AcDbLine
 62
7
  6
CONTINUOUS
 10
-0.695521022
 20
8.7749067362
 11
-0.6965006602
 21
8.807693927
  0
LINE
  5
574
100
AcDbEntity
  8
CURVE
100
AcDbLine
 62
7
  6
CONTINUOUS
 10
-0.6735128492
 20
10.2256913593
 11
-0.672533196
 21
10.1929033171
  0
LINE
  5
575
100
AcDbEntity
  8
CURVE
100
AcDbLine
 62
253
  6
CONTINUOUS
 10
-0.7167919591
 20
7.2925310005
 11
-0.7238975822
 21
7.5639594425
  0
LINE
  5
576
100
AcDbEntity
  8
CURVE
100
AcDbLine
 62
253
  6
CONTINUOUS
 10
-0.7167919591
 20
16.385387743
 11
-0.7238975822
 21
16.6568163265
  0
LINE
  5
577
100
AcDbEntity
  8
CURVE
100
AcDbLine
 62
253
  6
CONTINUOUS
 10
-0.7369868859
 20
20.43300667
 11
-0.7272634029
 21
20.0615782757
  0
LINE
  5
578
100
AcDbEntity
  8
CURVE
100
AcDbLine
 62
253
  6
CONTINUOUS
 10
-0.7499515313
 20
7.5639594425
 11
-0.726266122
 21
6.6139594425
  0
LINE
  5
579
100
AcDbEntity
  8
CURVE
100
AcDbLine
 62
253
  6
CONTINUOUS
 10
-0.7499515313
 20
16.6568163265
 11
-0.726266122
 21
15.7068163265
  0
LINE
  5
57A
100
AcDbEntity
  8
CURVE
100
AcDbLine
 62
7
  6
CONTINUOUS
 10
-0.7017767736
 20
8.406810576
 11
-0.6998185511
 21
8.3337451172
  0
LINE
  5
57B
100
AcDbEntity
  8
CURVE
100
AcDbLine
 62
7
  6
CONTINUOUS
 10
-0.6672473627
 20
10.5937788675
 11
-0.66920556
 21
10.6668484409
  0
LWPOLYLINE
  5
57C
100
AcDbEntity
  8
0
100
AcDbPolyline
 62
7
  6
CONTINUOUS
 90
34
 70
0
 10
-1.6373922422
 20
46.5024487233
 10
-1.637675871
 20
46.5143453823
 10
-1.6385253111
 20
46.5262151005
 10
-1.63993864
 20
46.5380309828
 10
-1.6419126586
 20
46.5497662625
 10
-1.6444428956
 20
46.5613943419
 10
-1.6475236142
 20
46.5728888529
 10
-1.6511478313
 20
46.5842237454
 10
-1.6553073356
 20
46.5953733418
 10
-1.6599926999
 20
46.6063123753
 10
-1.6651933076
 20
46.6170160617
 10
-1.6708973728
 20
46.627460147
 10
-1.6770919651
 20
46.6376209591
 10
-1.6837630452
 20
46.6474754752
 10
-1.6908954963
 20
46.6570013694
 10
-1.6984731528
 20
46.6661770564
 10
-1.7064788469
 20
46.674981752
 10
-1.7148944332
 20
46.6833955036
 10
-1.7237008247
 20
46.6913992352
 10
-1.732878038
 20
46.6989747961
 10
-1.7424052995
 20
46.7061050494
 10
-1.7522610842
 20
46.7127738866
 10
-1.7624231598
 20
46.718966249
 10
-1.7728684132
 20
46.7246680375
 10
-1.783572948
 20
46.7298662228
 10
-1.7945123492
 20
46.7345489965
 10
-1.8056619612
 20
46.7387058509
 10
-1.8169967263
 20
46.7423274606
 10
-1.8284926919
 20
46.7454060392
 10
-1.8401221271
 20
46.7479340291
 10
-1.8518536218
 20
46.7499049751
 10
-1.8636587973
 20
46.7513149711
 10
-1.8755125398
 20
46.7521618729
 10
-1.8873880114
 20
46.7524444925
  0
LWPOLYLINE
  5
57D
100
AcDbEntity
  8
0
100
AcDbPolyline
 62
7
  6
CONTINUOUS
 90
4
 70
0
 10
-1.6330204082
 20
46.5068205573
 10
-1.6333035584
 20
46.5187158425
 10
-1.6341523739
 20
46.5305841821
 10
-1.635564934
 20
46.5423986927
  0
LINE
  5
57E
100
AcDbEntity
  8
CURVE
100
AcDbLine
 62
7
  6
CONTINUOUS
 10
-0.6965006602
 20
8.807693927
 11
-0.6977374103
 21
8.8571991099
  0
LINE
  5
57F
100
AcDbEntity
  8
CURVE
100
AcDbLine
 62
7
  6
CONTINUOUS
 10
-0.672533196
 20
10.1929033171
 11
-0.6712964241
 21
10.1433970917
  0
LINE
  5
580
100
AcDbEntity
  8
CURVE
100
AcDbLine
 62
7
  6
CONTINUOUS
 10
-0.7035342617
 20
8.4879181815
 11
-0.7017767736
 21
8.406810576
  0
LINE
  5
581
100
AcDbEntity
  8
CURVE
100
AcDbLine
 62
7
  6
CONTINUOUS
 10
-0.6654898722
 20
10.5126643836
 11
-0.6672473627
 21
10.5937788675
  0
LINE
  5
582
100
AcDbEntity
  8
CURVE
100
AcDbLine
 62
7
  6
CONTINUOUS
 10
-0.6977374103
 20
8.8571991099
 11
-0.6988239804
 21
8.9109389672
  0
LINE
  5
583
100
AcDbEntity
  8
CURVE
100
AcDbLine
 62
7
  6
CONTINUOUS
 10
-0.6712964241
 20
10.1433970917
 11
-0.6702089514
 21
10.0896072617
  0
LINE
  5
584
100
AcDbEntity
  8
ASSI
100
AcDbLine
 62
7
  6
CONTINUOUS
 10
-0.8325196816
 20
5.9896787796
 11
-0.8339193215
 21
6.0607730748
  0
LINE
  5
585
100
AcDbEntity
  8
ASSI
100
AcDbLine
 62
7
  6
CONTINUOUS
 10
-0.8325196816
 20
10.9896787796
 11
-0.8339193215
 21
11.0607730748
  0
LINE
  5
586
100
AcDbEntity
  8
ASSI
100
AcDbLine
 62
7
  6
CONTINUOUS
 10
-0.8325196816
 20
15.9896787796
 11
-0.8339193215
 21
16.0607730748
  0
LINE
  5
587
100
AcDbEntity
  8
ASSI
100
AcDbLine
 62
7
  6
CONTINUOUS
 10
-0.8325196816
 20
20.9896787796
 11
-0.8339193215
 21
21.0607730748
  0
LINE
  5
588
100
AcDbEntity
  8
RACCORDO
100
AcDbLine
 62
7
  6
CONTINUOUS
 10
-0.832519202
 20
5.9896781883
 11
-0.8341462737
 21
6.0736375448
  0
LINE
  5
589
100
AcDbEntity
  8
RACCORDO
100
AcDbLine
 62
7
  6
CONTINUOUS
 10
-0.832519202
 20
10.9896781883
 11
-0.8341462737
 21
11.0736375448
  0
LINE
  5
58A
100
AcDbEntity
  8
RACCORDO
100
AcDbLine
 62
7
  6
CONTINUOUS
 10
-0.832519202
 20
15.9896781883
 11
-0.8341462737
 21
16.0736375448
  0
LINE
  5
58B
100
AcDbEntity
  8
RACCORDO
100
AcDbLine
 62
7
  6
CONTINUOUS
 10
-0.832519202
 20
20.9896781883
 11
-0.8341462737
 21
21.0736375448
  0
LINE
  5
58C
100
AcDbEntity
  8
CURVE
100
AcDbLine
 62
253
  6
CONTINUOUS
 10
-0.7215290405
 20
5.9353878845
 11
-0.7167919591
 21
5.6639594425
  0
LINE
  5
58D
100
AcDbEntity
  8
CURVE
100
AcDbLine
 62
253
  6
CONTINUOUS
 10
-0.726266122
 20
8.6496732105
 11
-0.7167919591
 21
8.1068163265
  0
LINE
  5
58E
100
AcDbEntity
  8
CURVE
100
AcDbLine
 62
253
  6
CONTINUOUS
 10
-0.726266122
 20
13.6711021055
 11
-0.7167919591
 21
13.128244995
  0
LINE
  5
58F
100
AcDbEntity
  8
CURVE
100
AcDbLine
 62
253
  6
CONTINUOUS
 10
-0.7215290405
 20
15.0282448818
 11
-0.7167919591
 21
14.7568163265
  0
LINE
  5
590
100
AcDbEntity
  8
CURVE
100
AcDbLine
 62
7
  6
CONTINUOUS
 10
-0.6812796519
 20
12.8852413265
 11
-0.6592229955
 21
11.5999803265
  0
LINE
  5
591
100
AcDbEntity
  8
CURVE
100
AcDbLine
 62
7
  6
CONTINUOUS
 10
-0.6592229955
 20
10.9057663265
 11
-0.6800396728
 21
12.1525963265
  0
LINE
  5
592
100
AcDbEntity
  8
CURVE
100
AcDbLine
 62
7
  6
CONTINUOUS
 10
-0.6862537899
 20
12.5149973265
 11
-0.6922791182
 21
12.8852413265
  0
LINE
  5
593
100
AcDbEntity
  8
CURVE
100
AcDbLine
 62
7
  6
CONTINUOUS
 10
-0.7053394637
 20
8.5954371711
 11
-0.7035342617
 21
8.4879181815
  0
LINE
  5
594
100
AcDbEntity
  8
CURVE
100
AcDbLine
 62
7
  6
CONTINUOUS
 10
-0.6636845403
 20
10.4051287499
 11
-0.6654898722
 21
10.5126643836
  0
LWPOLYLINE
  5
595
100
AcDbEntity
  8
RACCORDO
100
AcDbPolyline
 62
253
  6
CONTINUOUS
 90
10
 70
0
 10
-1.137101389
 20
6.5210656116
 10
-1.1358698532
 20
6.4369007501
 10
-1.1345760587
 20
6.3615065318
 10
-1.1332375357
 20
6.2952449501
 10
-1.1318533757
 20
6.2384760617
 10
-1.1304244871
 20
6.1915324266
 10
-1.1289711251
 20
6.1546869338
 10
-1.1275000414
 20
6.1281713771
 10
-1.1260044842
 20
6.1121705457
 10
-1.1244844537
 20
6.1068163265
  0
LWPOLYLINE
  5
596
100
AcDbEntity
  8
ASSI
100
AcDbPolyline
 62
253
  6
CONTINUOUS
 90
10
 70
0
 10
-1.137101389
 20
6.5210656116
 10
-1.1358698532
 20
6.4369007501
 10
-1.1345760587
 20
6.3615065318
 10
-1.1332375357
 20
6.2952449501
 10
-1.1318533757
 20
6.2384760617
 10
-1.1304244871
 20
6.1915324266
 10
-1.1289711251
 20
6.1546869338
 10
-1.1275000414
 20
6.1281713771
 10
-1.1260044842
 20
6.1121705457
 10
-1.1244844537
 20
6.1068163265
  0
LWPOLYLINE
  5
597
100
AcDbEntity
  8
RACCORDO
100
AcDbPolyline
 62
253
  6
CONTINUOUS
 90
10
 70
0
 10
-1.137101389
 20
11.5210656116
 10
-1.1358698532
 20
11.4369007501
 10
-1.1345760587
 20
11.3615065318
 10
-1.1332375357
 20
11.2952449501
 10
-1.1318533757
 20
11.2384760617
 10
-1.1304244871
 20
11.1915324266
 10
-1.1289711251
 20
11.1546869338
 10
-1.1275000414
 20
11.1281713771
 10
-1.1260044842
 20
11.1121705457
 10
-1.1244844537
 20
11.1068163265
  0
LWPOLYLINE
  5
598
100
AcDbEntity
  8
ASSI
100
AcDbPolyline
 62
253
  6
CONTINUOUS
 90
10
 70
0
 10
-1.137101389
 20
11.5210656116
 10
-1.1358698532
 20
11.4369007501
 10
-1.1345760587
 20
11.3615065318
 10
-1.1332375357
 20
11.2952449501
 10
-1.1318533757
 20
11.2384760617
 10
-1.1304244871
 20
11.1915324266
 10
-1.1289711251
 20
11.1546869338
 10
-1.1275000414
 20
11.1281713771
 10
-1.1260044842
 20
11.1121705457
 10
-1.1244844537
 20
11.1068163265
  0
LWPOLYLINE
  5
599
100
AcDbEntity
  8
RACCORDO
100
AcDbPolyline
 62
253
  6
CONTINUOUS
 90
10
 70
0
 10
-1.137101389
 20
16.5210656116
 10
-1.1358698532
 20
16.4369007501
 10
-1.1345760587
 20
16.3615065318
 10
-1.1332375357
 20
16.2952449501
 10
-1.1318533757
 20
16.2384760617
 10
-1.1304244871
 20
16.1915324266
 10
-1.1289711251
 20
16.1546869338
 10
-1.1275000414
 20
16.1281713771
 10
-1.1260044842
 20
16.1121705457
 10
-1.1244844537
 20
16.1068163265
  0
LWPOLYLINE
  5
59A
100
AcDbEntity
  8
ASSI
100
AcDbPolyline
 62
253
  6
CONTINUOUS
 90
10
 70
0
 10
-1.137101389
 20
16.5210656116
 10
-1.1358698532
 20
16.4369007501
 10
-1.1345760587
 20
16.3615065318
 10
-1.1332375357
 20
16.2952449501
 10
-1.1318533757
 20
16.2384760617
 10
-1.1304244871
 20
16.1915324266
 10
-1.1289711251
 20
16.1546869338
 10
-1.1275000414
 20
16.1281713771
 10
-1.1260044842
 20
16.1121705457
 10
-1.1244844537
 20
16.1068163265
  0
LWPOLYLINE
  5
59B
100
AcDbEntity
  8
RACCORDO
100
AcDbPolyline
 62
253
  6
CONTINUOUS
 90
10
 70
0
 10
-1.137101389
 20
21.5210656116
 10
-1.1358698532
 20
21.4369007501
 10
-1.1345760587
 20
21.3615065318
 10
-1.1332375357
 20
21.2952449501
 10
-1.1318533757
 20
21.2384760617
 10
-1.1304244871
 20
21.1915324266
 10
-1.1289711251
 20
21.1546869338
 10
-1.1275000414
 20
21.1281713771
 10
-1.1260044842
 20
21.1121705457
 10
-1.1244844537
 20
21.1068163265
  0
LWPOLYLINE
  5
59C
100
AcDbEntity
  8
ASSI
100
AcDbPolyline
 62
253
  6
CONTINUOUS
 90
10
 70
0
 10
-1.137101389
 20
21.5210656116
 10
-1.1358698532
 20
21.4369007501
 10
-1.1345760587
 20
21.3615065318
 10
-1.1332375357
 20
21.2952449501
 10
-1.1318533757
 20
21.2384760617
 10
-1.1304244871
 20
21.1915324266
 10
-1.1289711251
 20
21.1546869338
 10
-1.1275000414
 20
21.1281713771
 10
-1.1260044842
 20
21.1121705457
 10
-1.1244844537
 20
21.1068163265
  0
LINE
  5
59D
100
AcDbEntity
  8
ASSI
100
AcDbLine
 62
7
  6
CONTINUOUS
 10
-0.8339193215
 20
6.0607730748
 11
-0.8355461292
 21
6.1621362516
  0
LINE
  5
59E
100
AcDbEntity
  8
ASSI
100
AcDbLine
 62
7
  6
CONTINUOUS
 10
-0.8339193215
 20
11.0607730748
 11
-0.8355461292
 21
11.1621362516
  0
LINE
  5
59F
100
AcDbEntity
  8
ASSI
100
AcDbLine
 62
7
  6
CONTINUOUS
 10
-0.8339193215
 20
16.0607730748
 11
-0.8355461292
 21
16.1621362516
  0
LINE
  5
5A0
100
AcDbEntity
  8
ASSI
100
AcDbLine
 62
7
  6
CONTINUOUS
 10
-0.8339193215
 20
21.0607730748
 11
-0.8355461292
 21
21.1621362516
  0
LINE
  5
5A1
100
AcDbEntity
  8
RACCORDO
100
AcDbLine
 62
7
  6
CONTINUOUS
 10
-0.8341462737
 20
6.0736375448
 11
-0.8357150629
 21
6.1739437346
  0
LINE
  5
5A2
100
AcDbEntity
  8
RACCORDO
100
AcDbLine
 62
7
  6
CONTINUOUS
 10
-0.8341462737
 20
11.0736375448
 11
-0.8357150629
 21
11.1739437346
  0
LINE
  5
5A3
100
AcDbEntity
  8
RACCORDO
100
AcDbLine
 62
7
  6
CONTINUOUS
 10
-0.8341462737
 20
16.0736375448
 11
-0.8357150629
 21
16.1739437346
  0
LINE
  5
5A4
100
AcDbEntity
  8
RACCORDO
100
AcDbLine
 62
7
  6
CONTINUOUS
 10
-0.8341462737
 20
21.0736375448
 11
-0.8357150629
 21
21.1739437346
  0
LINE
  5
5A5
100
AcDbEntity
  8
CURVE
100
AcDbLine
 62
7
  6
CONTINUOUS
 10
-0.6988239804
 20
8.9109389672
 11
-0.7000454317
 21
8.9908906395
  0
LINE
  5
5A6
100
AcDbEntity
  8
CURVE
100
AcDbLine
 62
7
  6
CONTINUOUS
 10
-0.6702089514
 20
10.0896072617
 11
-0.668984099
 21
10.0092933033
  0
LINE
  5
5A7
100
AcDbEntity
  8
ASSI
100
AcDbLine
 62
7
  6
CONTINUOUS
 10
-0.8355461292
 20
6.1621362516
 11
-0.8371508422
 21
6.2847884758
  0
LINE
  5
5A8
100
AcDbEntity
  8
ASSI
100
AcDbLine
 62
7
  6
CONTINUOUS
 10
-0.8355461292
 20
11.1621362516
 11
-0.8371508422
 21
11.2847884758
  0
LINE
  5
5A9
100
AcDbEntity
  8
ASSI
100
AcDbLine
 62
7
  6
CONTINUOUS
 10
-0.8355461292
 20
16.1621362516
 11
-0.8371508422
 21
16.2847884758
  0
LINE
  5
5AA
100
AcDbEntity
  8
ASSI
100
AcDbLine
 62
7
  6
CONTINUOUS
 10
-0.8355461292
 20
21.1621362516
 11
-0.8371508422
 21
21.2847884758
  0
LINE
  5
5AB
100
AcDbEntity
  8
RACCORDO
100
AcDbLine
 62
7
  6
CONTINUOUS
 10
-0.8357150629
 20
6.1739437346
 11
-0.837477223
 21
6.3127177106
  0
LINE
  5
5AC
100
AcDbEntity
  8
RACCORDO
100
AcDbLine
 62
7
  6
CONTINUOUS
 10
-0.8357150629
 20
11.1739437346
 11
-0.837477223
 21
11.3127177106
  0
LINE
  5
5AD
100
AcDbEntity
  8
RACCORDO
100
AcDbLine
 62
7
  6
CONTINUOUS
 10
-0.8357150629
 20
16.1739437346
 11
-0.837477223
 21
16.3127177106
  0
LINE
  5
5AE
100
AcDbEntity
  8
RACCORDO
100
AcDbLine
 62
7
  6
CONTINUOUS
 10
-0.8357150629
 20
21.1739437346
 11
-0.837477223
 21
21.3127177106
  0
LINE
  5
5AF
100
AcDbEntity
  8
RACCORDO
100
AcDbLine
 62
253
  6
CONTINUOUS
 10
-1.1393758888
 20
6.713920896
 11
-1.137101389
 21
6.5210656116
  0
LINE
  5
5B0
100
AcDbEntity
  8
ASSI
100
AcDbLine
 62
253
  6
CONTINUOUS
 10
-1.1393758888
 20
6.713920896
 11
-1.137101389
 21
6.5210656116
  0
LINE
  5
5B1
100
AcDbEntity
  8
RACCORDO
100
AcDbLine
 62
253
  6
CONTINUOUS
 10
-1.1393758888
 20
11.713920896
 11
-1.137101389
 21
11.5210656116
  0
LINE
  5
5B2
100
AcDbEntity
  8
ASSI
100
AcDbLine
 62
253
  6
CONTINUOUS
 10
-1.1393758888
 20
11.713920896
 11
-1.137101389
 21
11.5210656116
  0
LINE
  5
5B3
100
AcDbEntity
  8
RACCORDO
100
AcDbLine
 62
253
  6
CONTINUOUS
 10
-1.1393758888
 20
16.713920896
 11
-1.137101389
 21
16.5210656116
  0
LINE
  5
5B4
100
AcDbEntity
  8
ASSI
100
AcDbLine
 62
253
  6
CONTINUOUS
 10
-1.1393758888
 20
16.713920896
 11
-1.137101389
 21
16.5210656116
  0
LINE
  5
5B5
100
AcDbEntity
  8
RACCORDO
100
AcDbLine
 62
253
  6
CONTINUOUS
 10
-1.1393758888
 20
21.713920896
 11
-1.137101389
 21
21.5210656116
  0
LINE
  5
5B6
100
AcDbEntity
  8
ASSI
100
AcDbLine
 62
253
  6
CONTINUOUS
 10
-1.1393758888
 20
21.713920896
 11
-1.137101389
 21
21.5210656116
  0
LINE
  5
5B7
100
AcDbEntity
  8
CURVE
100
AcDbLine
 62
253
  6
CONTINUOUS
 10
-0.7310032035
 20
12.0425305475
 11
-0.7286346637
 21
11.8163400282
  0
LINE
  5
5B8
100
AcDbEntity
  8
0
100
AcDbLine
 62
253
  6
CONTINUOUS
 10
-1.8873880114
 20
45.8846475429
 11
-1.8822974103
 21
45.3794660573
  0
LINE
  5
5B9
100
AcDbEntity
  8
0
100
AcDbLine
 62
253
  6
CONTINUOUS
 10
-1.6373922422
 20
46.1011538938
 11
-1.6330204082
 21
45.6673014747
  0
LINE
  5
5BA
100
AcDbEntity
  8
ASSI
100
AcDbLine
 62
7
  6
CONTINUOUS
 10
-0.8371508422
 20
6.2847884758
 11
-0.8387070209
 21
6.4286784286
  0
LINE
  5
5BB
100
AcDbEntity
  8
ASSI
100
AcDbLine
 62
7
  6
CONTINUOUS
 10
-0.8371508422
 20
11.2847884758
 11
-0.8387070209
 21
11.4286784286
  0
LINE
  5
5BC
100
AcDbEntity
  8
ASSI
100
AcDbLine
 62
7
  6
CONTINUOUS
 10
-0.8371508422
 20
16.2847884758
 11
-0.8387070209
 21
16.4286784286
  0
LINE
  5
5BD
100
AcDbEntity
  8
ASSI
100
AcDbLine
 62
7
  6
CONTINUOUS
 10
-0.8371508422
 20
21.2847884758
 11
-0.8387070209
 21
21.4286784286
  0
LINE
  5
5BE
100
AcDbEntity
  8
CURVE
100
AcDbLine
 62
7
  6
CONTINUOUS
 10
-0.7077332828
 20
8.7960822502
 11
-0.7053394637
 21
8.5954371711
  0
LINE
  5
5BF
100
AcDbEntity
  8
CURVE
100
AcDbLine
 62
7
  6
CONTINUOUS
 10
-0.7000454317
 20
8.9908906395
 11
-0.7010616397
 21
9.0818894077
  0
LINE
  5
5C0
100
AcDbEntity
  8
CURVE
100
AcDbLine
 62
7
  6
CONTINUOUS
 10
-0.668984099
 20
10.0092933033
 11
-0.6679670836
 21
9.9178447155
  0
LWPOLYLINE
  5
5C1
100
AcDbEntity
  8
CURVE
100
AcDbPolyline
 62
7
  6
CONTINUOUS
 90
3
 70
0
 10
-0.6610357235
 20
10.1773745951
 10
-0.6612906882
 20
10.2044519626
 10
-0.6636845403
 20
10.4051287499
  0
LINE
  5
5C2
100
AcDbEntity
  8
RACCORDO
100
AcDbLine
 62
7
  6
CONTINUOUS
 10
-0.837477223
 20
6.3127177106
 11
-0.8391682732
 21
6.4771307775
  0
LINE
  5
5C3
100
AcDbEntity
  8
RACCORDO
100
AcDbLine
 62
7
  6
CONTINUOUS
 10
-0.837477223
 20
11.3127177106
 11
-0.8391682732
 21
11.4771307775
  0
LINE
  5
5C4
100
AcDbEntity
  8
RACCORDO
100
AcDbLine
 62
7
  6
CONTINUOUS
 10
-0.837477223
 20
16.3127177106
 11
-0.8391682732
 21
16.4771307775
  0
LINE
  5
5C5
100
AcDbEntity
  8
RACCORDO
100
AcDbLine
 62
7
  6
CONTINUOUS
 10
-0.837477223
 20
21.3127177106
 11
-0.8391682732
 21
21.4771307775
  0
LINE
  5
5C6
100
AcDbEntity
  8
CURVE
100
AcDbLine
 62
7
  6
CONTINUOUS
 10
-0.6679670836
 20
9.9178447155
 11
-0.6676754101
 21
9.8853901212
  0
LINE
  5
5C7
100
AcDbEntity
  8
RACCORDO
100
AcDbLine
 62
253
  6
CONTINUOUS
 10
-1.1413558869
 20
6.9363769727
 11
-1.1393758888
 21
6.713920896
  0
LINE
  5
5C8
100
AcDbEntity
  8
ASSI
100
AcDbLine
 62
253
  6
CONTINUOUS
 10
-1.1413558869
 20
6.9363769727
 11
-1.1393758888
 21
6.713920896
  0
LINE
  5
5C9
100
AcDbEntity
  8
RACCORDO
100
AcDbLine
 62
253
  6
CONTINUOUS
 10
-1.1413558869
 20
11.9363769727
 11
-1.1393758888
 21
11.713920896
  0
LINE
  5
5CA
100
AcDbEntity
  8
ASSI
100
AcDbLine
 62
253
  6
CONTINUOUS
 10
-1.1413558869
 20
11.9363769727
 11
-1.1393758888
 21
11.713920896
  0
LINE
  5
5CB
100
AcDbEntity
  8
RACCORDO
100
AcDbLine
 62
253
  6
CONTINUOUS
 10
-1.1413558869
 20
16.9363769727
 11
-1.1393758888
 21
16.713920896
  0
LINE
  5
5CC
100
AcDbEntity
  8
ASSI
100
AcDbLine
 62
253
  6
CONTINUOUS
 10
-1.1413558869
 20
16.9363769727
 11
-1.1393758888
 21
16.713920896
  0
LINE
  5
5CD
100
AcDbEntity
  8
RACCORDO
100
AcDbLine
 62
253
  6
CONTINUOUS
 10
-1.1413558869
 20
21.9363769727
 11
-1.1393758888
 21
21.713920896
  0
LINE
  5
5CE
100
AcDbEntity
  8
ASSI
100
AcDbLine
 62
253
  6
CONTINUOUS
 10
-1.1413558869
 20
21.9363769727
 11
-1.1393758888
 21
21.713920896
  0
LINE
  5
5CF
100
AcDbEntity
  8
ASSI
100
AcDbLine
 62
7
  6
CONTINUOUS
 10
-0.8387070209
 20
6.4286784286
 11
-0.8403764967
 21
6.6189906894
  0
LINE
  5
5D0
100
AcDbEntity
  8
ASSI
100
AcDbLine
 62
7
  6
CONTINUOUS
 10
-0.8387070209
 20
11.4286784286
 11
-0.8403764967
 21
11.6189906894
  0
LINE
  5
5D1
100
AcDbEntity
  8
ASSI
100
AcDbLine
 62
7
  6
CONTINUOUS
 10
-0.8387070209
 20
16.4286784286
 11
-0.8403764967
 21
16.6189906894
  0
LINE
  5
5D2
100
AcDbEntity
  8
ASSI
100
AcDbLine
 62
7
  6
CONTINUOUS
 10
-0.8387070209
 20
21.4286784286
 11
-0.8403764967
 21
21.6189906894
  0
LINE
  5
5D3
100
AcDbEntity
  8
RACCORDO
100
AcDbLine
 62
7
  6
CONTINUOUS
 10
-0.8391682732
 20
6.4771307775
 11
-0.8407456049
 21
6.6670523997
  0
LINE
  5
5D4
100
AcDbEntity
  8
RACCORDO
100
AcDbLine
 62
7
  6
CONTINUOUS
 10
-0.8391682732
 20
11.4771307775
 11
-0.8407456049
 21
11.6670523997
  0
LINE
  5
5D5
100
AcDbEntity
  8
RACCORDO
100
AcDbLine
 62
7
  6
CONTINUOUS
 10
-0.8391682732
 20
16.4771307775
 11
-0.8407456049
 21
16.6670523997
  0
LINE
  5
5D6
100
AcDbEntity
  8
RACCORDO
100
AcDbLine
 62
7
  6
CONTINUOUS
 10
-0.8391682732
 20
21.4771307775
 11
-0.8407456049
 21
21.6670523997
  0
LINE
  5
5D7
100
AcDbEntity
  8
CURVE
100
AcDbLine
 62
7
  6
CONTINUOUS
 10
-0.7010616397
 20
9.0818894077
 11
-0.7019777929
 21
9.1981820645
  0
LINE
  5
5D8
100
AcDbEntity
  8
ASSI
100
AcDbLine
 62
7
  6
CONTINUOUS
 10
-0.8403764967
 20
6.6189906894
 11
-0.8419012982
 21
6.8361940773
  0
LINE
  5
5D9
100
AcDbEntity
  8
ASSI
100
AcDbLine
 62
7
  6
CONTINUOUS
 10
-0.8403764967
 20
11.6189906894
 11
-0.8419012982
 21
11.8361940773
  0
LINE
  5
5DA
100
AcDbEntity
  8
ASSI
100
AcDbLine
 62
7
  6
CONTINUOUS
 10
-0.8403764967
 20
16.6189906894
 11
-0.8419012982
 21
16.8361940773
  0
LINE
  5
5DB
100
AcDbEntity
  8
ASSI
100
AcDbLine
 62
7
  6
CONTINUOUS
 10
-0.8403764967
 20
21.6189906894
 11
-0.8419012982
 21
21.8361940773
  0
LINE
  5
5DC
100
AcDbEntity
  8
RACCORDO
100
AcDbLine
 62
253
  6
CONTINUOUS
 10
-1.1430145812
 20
7.1842224667
 11
-1.1413558869
 21
6.9363769727
  0
LINE
  5
5DD
100
AcDbEntity
  8
ASSI
100
AcDbLine
 62
253
  6
CONTINUOUS
 10
-1.1430145812
 20
7.1842224667
 11
-1.1413558869
 21
6.9363769727
  0
LINE
  5
5DE
100
AcDbEntity
  8
RACCORDO
100
AcDbLine
 62
253
  6
CONTINUOUS
 10
-1.1430145812
 20
12.1842224667
 11
-1.1413558869
 21
11.9363769727
  0
LINE
  5
5DF
100
AcDbEntity
  8
ASSI
100
AcDbLine
 62
253
  6
CONTINUOUS
 10
-1.1430145812
 20
12.1842224667
 11
-1.1413558869
 21
11.9363769727
  0
LINE
  5
5E0
100
AcDbEntity
  8
RACCORDO
100
AcDbLine
 62
253
  6
CONTINUOUS
 10
-1.1430145812
 20
17.1842224667
 11
-1.1413558869
 21
16.9363769727
  0
LINE
  5
5E1
100
AcDbEntity
  8
ASSI
100
AcDbLine
 62
253
  6
CONTINUOUS
 10
-1.1430145812
 20
17.1842224667
 11
-1.1413558869
 21
16.9363769727
  0
LINE
  5
5E2
100
AcDbEntity
  8
RACCORDO
100
AcDbLine
 62
253
  6
CONTINUOUS
 10
-1.1430145812
 20
22.1842224667
 11
-1.1413558869
 21
21.9363769727
  0
LINE
  5
5E3
100
AcDbEntity
  8
ASSI
100
AcDbLine
 62
253
  6
CONTINUOUS
 10
-1.1430145812
 20
22.1842224667
 11
-1.1413558869
 21
21.9363769727
  0
LINE
  5
5E4
100
AcDbEntity
  8
RACCORDO
100
AcDbLine
 62
7
  6
CONTINUOUS
 10
-0.8407456049
 20
6.6670523997
 11
-0.8421775056
 21
6.8817708351
  0
LINE
  5
5E5
100
AcDbEntity
  8
RACCORDO
100
AcDbLine
 62
7
  6
CONTINUOUS
 10
-0.8407456049
 20
11.6670523997
 11
-0.8421775056
 21
11.8817708351
  0
LINE
  5
5E6
100
AcDbEntity
  8
RACCORDO
100
AcDbLine
 62
7
  6
CONTINUOUS
 10
-0.8407456049
 20
16.6670523997
 11
-0.8421775056
 21
16.8817708351
  0
LINE
  5
5E7
100
AcDbEntity
  8
RACCORDO
100
AcDbLine
 62
7
  6
CONTINUOUS
 10
-0.8407456049
 20
21.6670523997
 11
-0.8421775056
 21
21.8817708351
  0
LINE
  5
5E8
100
AcDbEntity
  8
CURVE
100
AcDbLine
 62
7
  6
CONTINUOUS
 10
-0.7019777929
 20
9.1981820645
 11
-0.7021846941
 21
9.2328129127
  0
LINE
  5
5E9
100
AcDbEntity
  8
CURVE
100
AcDbLine
 62
7
  6
CONTINUOUS
 10
-0.7099728141
 20
9.1102136429
 11
-0.7077332828
 21
8.7960822502
  0
LINE
  5
5EA
100
AcDbEntity
  8
ASSI
100
AcDbLine
 62
7
  6
CONTINUOUS
 10
-0.8419012982
 20
6.8361940773
 11
-0.8432283495
 21
7.0787287679
  0
LINE
  5
5EB
100
AcDbEntity
  8
ASSI
100
AcDbLine
 62
7
  6
CONTINUOUS
 10
-0.8419012982
 20
11.8361940773
 11
-0.8432283495
 21
12.0787287679
  0
LINE
  5
5EC
100
AcDbEntity
  8
ASSI
100
AcDbLine
 62
7
  6
CONTINUOUS
 10
-0.8419012982
 20
16.8361940773
 11
-0.8432283495
 21
17.0787287679
  0
LINE
  5
5ED
100
AcDbEntity
  8
ASSI
100
AcDbLine
 62
7
  6
CONTINUOUS
 10
-0.8419012982
 20
21.8361940773
 11
-0.8432283495
 21
22.0787287679
  0
LINE
  5
5EE
100
AcDbEntity
  8
RACCORDO
100
AcDbLine
 62
7
  6
CONTINUOUS
 10
-0.8421775056
 20
6.8817708351
 11
-0.8432771637
 21
7.0889294825
  0
LINE
  5
5EF
100
AcDbEntity
  8
RACCORDO
100
AcDbLine
 62
7
  6
CONTINUOUS
 10
-0.8421775056
 20
11.8817708351
 11
-0.8432771637
 21
12.0889294825
  0
LINE
  5
5F0
100
AcDbEntity
  8
RACCORDO
100
AcDbLine
 62
7
  6
CONTINUOUS
 10
-0.8421775056
 20
16.8817708351
 11
-0.8432771637
 21
17.0889294825
  0
LINE
  5
5F1
100
AcDbEntity
  8
RACCORDO
100
AcDbLine
 62
7
  6
CONTINUOUS
 10
-0.8421775056
 20
21.8817708351
 11
-0.8434221651
 21
22.119916059
  0
LINE
  5
5F2
100
AcDbEntity
  8
RACCORDO
100
AcDbLine
 62
253
  6
CONTINUOUS
 10
-1.1443150346
 20
7.4529920539
 11
-1.1430145812
 21
7.1842224667
  0
LINE
  5
5F3
100
AcDbEntity
  8
ASSI
100
AcDbLine
 62
253
  6
CONTINUOUS
 10
-1.1443150346
 20
7.4529920539
 11
-1.1430145812
 21
7.1842224667
  0
LINE
  5
5F4
100
AcDbEntity
  8
RACCORDO
100
AcDbLine
 62
253
  6
CONTINUOUS
 10
-1.1443150346
 20
12.4529920539
 11
-1.1430145812
 21
12.1842224667
  0
LINE
  5
5F5
100
AcDbEntity
  8
ASSI
100
AcDbLine
 62
253
  6
CONTINUOUS
 10
-1.1443150346
 20
12.4529920539
 11
-1.1430145812
 21
12.1842224667
  0
LINE
  5
5F6
100
AcDbEntity
  8
RACCORDO
100
AcDbLine
 62
253
  6
CONTINUOUS
 10
-1.1443150346
 20
17.4529920539
 11
-1.1430145812
 21
17.1842224667
  0
LINE
  5
5F7
100
AcDbEntity
  8
ASSI
100
AcDbLine
 62
253
  6
CONTINUOUS
 10
-1.1443150346
 20
17.4529920539
 11
-1.1430145812
 21
17.1842224667
  0
LINE
  5
5F8
100
AcDbEntity
  8
RACCORDO
100
AcDbLine
 62
253
  6
CONTINUOUS
 10
-1.1443150346
 20
22.4529920539
 11
-1.1430145812
 21
22.1842224667
  0
LINE
  5
5F9
100
AcDbEntity
  8
ASSI
100
AcDbLine
 62
253
  6
CONTINUOUS
 10
-1.1443150346
 20
22.4529920539
 11
-1.1430145812
 21
22.1842224667
  0
LINE
  5
5FA
100
AcDbEntity
  8
ASSI
100
AcDbLine
 62
7
  6
CONTINUOUS
 10
-0.8432283495
 20
7.0787287679
 11
-0.8443272426
 21
7.3442405914
  0
LINE
  5
5FB
100
AcDbEntity
  8
RACCORDO
100
AcDbLine
 62
7
  6
CONTINUOUS
 10
-0.8432771637
 20
7.0889294825
 11
-0.8443330232
 21
7.3458984368
  0
LINE
  5
5FC
100
AcDbEntity
  8
ASSI
100
AcDbLine
 62
7
  6
CONTINUOUS
 10
-0.8432283495
 20
12.0787287679
 11
-0.8443272426
 21
12.3442405914
  0
LINE
  5
5FD
100
AcDbEntity
  8
RACCORDO
100
AcDbLine
 62
7
  6
CONTINUOUS
 10
-0.8432771637
 20
12.0889294825
 11
-0.8443330232
 21
12.3458984368
  0
LINE
  5
5FE
100
AcDbEntity
  8
ASSI
100
AcDbLine
 62
7
  6
CONTINUOUS
 10
-0.8432283495
 20
17.0787287679
 11
-0.8443272426
 21
17.3442405914
  0
LINE
  5
5FF
100
AcDbEntity
  8
RACCORDO
100
AcDbLine
 62
7
  6
CONTINUOUS
 10
-0.8432771637
 20
17.0889294825
 11
-0.8443330232
 21
17.3458984368
  0
LINE
  5
600
100
AcDbEntity
  8
ASSI
100
AcDbLine
 62
7
  6
CONTINUOUS
 10
-0.8432283495
 20
22.0787287679
 11
-0.8443272426
 21
22.3442405914
  0
LINE
  5
601
100
AcDbEntity
  8
RACCORDO
100
AcDbLine
 62
7
  6
CONTINUOUS
 10
-0.8434221651
 20
22.119916059
 11
-0.8444472128
 21
22.3794140605
  0
LINE
  5
602
100
AcDbEntity
  8
RACCORDO
100
AcDbLine
 62
7
  6
CONTINUOUS
 10
-0.8443330232
 20
7.3458984368
 11
-0.8445573586
 21
7.4132198888
  0
LINE
  5
603
100
AcDbEntity
  8
ASSI
100
AcDbLine
 62
7
  6
CONTINUOUS
 10
-0.8443272426
 20
7.3442405914
 11
-0.8445593545
 21
7.4138467391
  0
LINE
  5
604
100
AcDbEntity
  8
RACCORDO
100
AcDbLine
 62
7
  6
CONTINUOUS
 10
-0.8443330232
 20
12.3458984368
 11
-0.8445573586
 21
12.4132198888
  0
LINE
  5
605
100
AcDbEntity
  8
ASSI
100
AcDbLine
 62
7
  6
CONTINUOUS
 10
-0.8443272426
 20
12.3442405914
 11
-0.8445593545
 21
12.4138467391
  0
LINE
  5
606
100
AcDbEntity
  8
RACCORDO
100
AcDbLine
 62
7
  6
CONTINUOUS
 10
-0.8443330232
 20
17.3458984368
 11
-0.8445573586
 21
17.4132198888
  0
LINE
  5
607
100
AcDbEntity
  8
ASSI
100
AcDbLine
 62
7
  6
CONTINUOUS
 10
-0.8443272426
 20
17.3442405914
 11
-0.8445593545
 21
17.4138467391
  0
LINE
  5
608
100
AcDbEntity
  8
RACCORDO
100
AcDbLine
 62
253
  6
CONTINUOUS
 10
-1.1452309771
 20
7.737559061
 11
-1.1443150346
 21
7.4529920539
  0
LINE
  5
609
100
AcDbEntity
  8
ASSI
100
AcDbLine
 62
253
  6
CONTINUOUS
 10
-1.1452309771
 20
7.737559061
 11
-1.1443150346
 21
7.4529920539
  0
LINE
  5
60A
100
AcDbEntity
  8
RACCORDO
100
AcDbLine
 62
253
  6
CONTINUOUS
 10
-1.1452309771
 20
12.737559061
 11
-1.1443150346
 21
12.4529920539
  0
LINE
  5
60B
100
AcDbEntity
  8
ASSI
100
AcDbLine
 62
253
  6
CONTINUOUS
 10
-1.1452309771
 20
12.737559061
 11
-1.1443150346
 21
12.4529920539
  0
LINE
  5
60C
100
AcDbEntity
  8
RACCORDO
100
AcDbLine
 62
253
  6
CONTINUOUS
 10
-1.1452309771
 20
17.737559061
 11
-1.1443150346
 21
17.4529920539
  0
LINE
  5
60D
100
AcDbEntity
  8
ASSI
100
AcDbLine
 62
253
  6
CONTINUOUS
 10
-1.1452309771
 20
17.737559061
 11
-1.1443150346
 21
17.4529920539
  0
LINE
  5
60E
100
AcDbEntity
  8
RACCORDO
100
AcDbLine
 62
253
  6
CONTINUOUS
 10
-1.1452309771
 20
22.737559061
 11
-1.1443150346
 21
22.4529920539
  0
LINE
  5
60F
100
AcDbEntity
  8
ASSI
100
AcDbLine
 62
253
  6
CONTINUOUS
 10
-1.1452309771
 20
22.737559061
 11
-1.1443150346
 21
22.4529920539
  0
LINE
  5
610
100
AcDbEntity
  8
RACCORDO
100
AcDbLine
 62
7
  6
CONTINUOUS
 10
-0.8445573586
 20
7.4132198888
 11
-0.8449588084
 21
7.5512201791
  0
LINE
  5
611
100
AcDbEntity
  8
RACCORDO
100
AcDbLine
 62
7
  6
CONTINUOUS
 10
-0.8445573586
 20
12.4132198888
 11
-0.8449588084
 21
12.5512201791
  0
LINE
  5
612
100
AcDbEntity
  8
RACCORDO
100
AcDbLine
 62
7
  6
CONTINUOUS
 10
-0.8445573586
 20
17.4132198888
 11
-0.8449588084
 21
17.5512201791
  0
LINE
  5
613
100
AcDbEntity
  8
ASSI
100
AcDbLine
 62
7
  6
CONTINUOUS
 10
-0.8445593545
 20
7.4138467391
 11
-0.8450654824
 21
7.5928666736
  0
LINE
  5
614
100
AcDbEntity
  8
ASSI
100
AcDbLine
 62
7
  6
CONTINUOUS
 10
-0.8445593545
 20
12.4138467391
 11
-0.8450654824
 21
12.5928666736
  0
LINE
  5
615
100
AcDbEntity
  8
ASSI
100
AcDbLine
 62
7
  6
CONTINUOUS
 10
-0.8445593545
 20
17.4138467391
 11
-0.8450654824
 21
17.5928666736
  0
LINE
  5
616
100
AcDbEntity
  8
RACCORDO
100
AcDbLine
 62
7
  6
CONTINUOUS
 10
-0.8449588084
 20
7.5512201791
 11
-0.8454334702
 21
7.7653734412
  0
LINE
  5
617
100
AcDbEntity
  8
RACCORDO
100
AcDbLine
 62
7
  6
CONTINUOUS
 10
-0.8449588084
 20
12.5512201791
 11
-0.8454334702
 21
12.7653734412
  0
LINE
  5
618
100
AcDbEntity
  8
RACCORDO
100
AcDbLine
 62
7
  6
CONTINUOUS
 10
-0.8449588084
 20
17.5512201791
 11
-0.8454334702
 21
17.7653734412
  0
LINE
  5
619
100
AcDbEntity
  8
RACCORDO
100
AcDbLine
 62
7
  6
CONTINUOUS
 10
-0.8444472128
 20
22.3794140605
 11
-0.8454958038
 21
22.8017364914
  0
LINE
  5
61A
100
AcDbEntity
  8
RACCORDO
100
AcDbLine
 62
253
  6
CONTINUOUS
 10
-1.1457485492
 20
8.0324593694
 11
-1.1452309771
 21
7.737559061
  0
LINE
  5
61B
100
AcDbEntity
  8
ASSI
100
AcDbLine
 62
253
  6
CONTINUOUS
 10
-1.1457485492
 20
8.0324593694
 11
-1.1452309771
 21
7.737559061
  0
LINE
  5
61C
100
AcDbEntity
  8
RACCORDO
100
AcDbLine
 62
253
  6
CONTINUOUS
 10
-1.1457485492
 20
13.0324593694
 11
-1.1452309771
 21
12.737559061
  0
LINE
  5
61D
100
AcDbEntity
  8
ASSI
100
AcDbLine
 62
253
  6
CONTINUOUS
 10
-1.1457485492
 20
13.0324593694
 11
-1.1452309771
 21
12.737559061
  0
LINE
  5
61E
100
AcDbEntity
  8
RACCORDO
100
AcDbLine
 62
253
  6
CONTINUOUS
 10
-1.1457485492
 20
18.0324593694
 11
-1.1452309771
 21
17.737559061
  0
LINE
  5
61F
100
AcDbEntity
  8
ASSI
100
AcDbLine
 62
253
  6
CONTINUOUS
 10
-1.1457485492
 20
18.0324593694
 11
-1.1452309771
 21
17.737559061
  0
LINE
  5
620
100
AcDbEntity
  8
RACCORDO
100
AcDbLine
 62
253
  6
CONTINUOUS
 10
-1.1457485492
 20
23.0324593694
 11
-1.1452309771
 21
22.737559061
  0
LINE
  5
621
100
AcDbEntity
  8
ASSI
100
AcDbLine
 62
253
  6
CONTINUOUS
 10
-1.1457485492
 20
23.0324593694
 11
-1.1452309771
 21
22.737559061
  0
LINE
  5
622
100
AcDbEntity
  8
ASSI
100
AcDbLine
 62
7
  6
CONTINUOUS
 10
-0.8450654824
 20
7.5928666736
 11
-0.8455750459
 21
7.8531192828
  0
LINE
  5
623
100
AcDbEntity
  8
ASSI
100
AcDbLine
 62
7
  6
CONTINUOUS
 10
-0.8450654824
 20
12.5928666736
 11
-0.8455750459
 21
12.8531192828
  0
LINE
  5
624
100
AcDbEntity
  8
ASSI
100
AcDbLine
 62
7
  6
CONTINUOUS
 10
-0.8450654824
 20
17.5928666736
 11
-0.8455750459
 21
17.8531192828
  0
LINE
  5
625
100
AcDbEntity
  8
ASSI
100
AcDbLine
 62
7
  6
CONTINUOUS
 10
-0.8443272426
 20
22.3442405914
 11
-0.845626938
 21
22.8909597527
  0
LINE
  5
626
100
AcDbEntity
  8
RACCORDO
100
AcDbLine
 62
7
  6
CONTINUOUS
 10
-0.8454334702
 20
7.7653734412
 11
-0.8456957881
 21
7.9485667369
  0
LINE
  5
627
100
AcDbEntity
  8
RACCORDO
100
AcDbLine
 62
7
  6
CONTINUOUS
 10
-0.8454334702
 20
12.7653734412
 11
-0.8456957881
 21
12.9485667369
  0
LINE
  5
628
100
AcDbEntity
  8
RACCORDO
100
AcDbLine
 62
7
  6
CONTINUOUS
 10
-0.8454334702
 20
17.7653734412
 11
-0.8456957881
 21
17.9485667369
  0
LINE
  5
629
100
AcDbEntity
  8
ASSI
100
AcDbLine
 62
7
  6
CONTINUOUS
 10
-0.8455750459
 20
7.8531192828
 11
-0.8457520656
 21
8.0051484567
  0
LINE
  5
62A
100
AcDbEntity
  8
ASSI
100
AcDbLine
 62
7
  6
CONTINUOUS
 10
-0.8455750459
 20
12.8531192828
 11
-0.8457520656
 21
13.0051484567
  0
LINE
  5
62B
100
AcDbEntity
  8
ASSI
100
AcDbLine
 62
7
  6
CONTINUOUS
 10
-0.8455750459
 20
17.8531192828
 11
-0.8457520656
 21
18.0051484567
  0
LINE
  5
62C
100
AcDbEntity
  8
RACCORDO
100
AcDbLine
 62
7
  6
CONTINUOUS
 10
-0.8456957881
 20
7.9485667369
 11
-0.8457962861
 21
8.0597556081
  0
LINE
  5
62D
100
AcDbEntity
  8
RACCORDO
100
AcDbLine
 62
7
  6
CONTINUOUS
 10
-0.8456957881
 20
12.9485667369
 11
-0.8457962861
 21
13.0597556081
  0
LINE
  5
62E
100
AcDbEntity
  8
RACCORDO
100
AcDbLine
 62
7
  6
CONTINUOUS
 10
-0.8456957881
 20
17.9485667369
 11
-0.8457962861
 21
18.0597556081
  0
LINE
  5
62F
100
AcDbEntity
  8
ASSI
100
AcDbLine
 62
7
  6
CONTINUOUS
 10
-0.8457520656
 20
8.0051484567
 11
-0.8458615549
 21
8.1967252432
  0
LINE
  5
630
100
AcDbEntity
  8
ASSI
100
AcDbLine
 62
7
  6
CONTINUOUS
 10
-0.8457520656
 20
13.0051484567
 11
-0.8458615549
 21
13.1967252432
  0
LINE
  5
631
100
AcDbEntity
  8
ASSI
100
AcDbLine
 62
7
  6
CONTINUOUS
 10
-0.8457520656
 20
18.0051484567
 11
-0.8458615549
 21
18.1967252432
  0
LINE
  5
632
100
AcDbEntity
  8
ASSI
100
AcDbLine
 62
7
  6
CONTINUOUS
 10
-0.845626938
 20
22.8909597527
 11
-0.8458675565
 21
23.2350836681
  0
LINE
  5
633
100
AcDbEntity
  8
ASSI
100
AcDbLine
 62
7
  6
CONTINUOUS
 10
-1.9830204082
 20
25.4068163265
 11
-1.9830204082
 21
21.1068163265
  0
LINE
  5
634
100
AcDbEntity
  8
ASSI
100
AcDbLine
 62
7
  6
CONTINUOUS
 10
-1.9830204082
 20
20.4068163265
 11
-1.9830204082
 21
16.1068163265
  0
LINE
  5
635
100
AcDbEntity
  8
ASSI
100
AcDbLine
 62
7
  6
CONTINUOUS
 10
-1.9830204082
 20
15.4068163265
 11
-1.9830204082
 21
11.1068163265
  0
LINE
  5
636
100
AcDbEntity
  8
ASSI
100
AcDbLine
 62
7
  6
CONTINUOUS
 10
-1.9830204082
 20
10.4068163265
 11
-1.9830204082
 21
6.1068163265
  0
LINE
  5
637
100
AcDbEntity
  8
0
100
AcDbLine
 62
253
  6
CONTINUOUS
 10
-1.8873880114
 20
-2.2388118395
 11
-1.8873880114
 21
-1.3710148898
  0
LINE
  5
638
100
AcDbEntity
  8
0
100
AcDbLine
 62
253
  6
CONTINUOUS
 10
-1.8873880114
 20
45.8846475429
 11
-1.8873880114
 21
46.7524444925
  0
LINE
  5
639
100
AcDbEntity
  8
0
100
AcDbLine
 62
7
  6
CONTINUOUS
 10
-1.6373922422
 20
-1.9888160703
 11
-1.6373922422
 21
-1.5875212408
  0
LINE
  5
63A
100
AcDbEntity
  8
0
100
AcDbLine
 62
7
  6
CONTINUOUS
 10
-1.6373922422
 20
46.1011538938
 11
-1.6373922422
 21
46.5024487233
  0
LINE
  5
63B
100
AcDbEntity
  8
0
100
AcDbLine
 62
7
  6
CONTINUOUS
 10
-1.6330204082
 20
-1.5875212408
 11
-1.6330204082
 21
-0.1431836735
  0
LINE
  5
63C
100
AcDbEntity
  8
0
100
AcDbLine
 62
7
  6
CONTINUOUS
 10
-1.6330204082
 20
44.6568163265
 11
-1.6330204082
 21
46.1011538938
  0
LINE
  5
63D
100
AcDbEntity
  8
RACCORDO
100
AcDbLine
 62
253
  6
CONTINUOUS
 10
-1.1458511884
 20
23.3320143688
 11
-1.1457485492
 21
23.0324593694
  0
LINE
  5
63E
100
AcDbEntity
  8
ASSI
100
AcDbLine
 62
253
  6
CONTINUOUS
 10
-1.1458511884
 20
23.3320143688
 11
-1.1457485492
 21
23.0324593694
  0
LINE
  5
63F
100
AcDbEntity
  8
RACCORDO
100
AcDbLine
 62
253
  6
CONTINUOUS
 10
-1.1458511884
 20
18.3320143688
 11
-1.1457485492
 21
18.0324593694
  0
LINE
  5
640
100
AcDbEntity
  8
ASSI
100
AcDbLine
 62
253
  6
CONTINUOUS
 10
-1.1458511884
 20
18.3320143688
 11
-1.1457485492
 21
18.0324593694
  0
LINE
  5
641
100
AcDbEntity
  8
RACCORDO
100
AcDbLine
 62
253
  6
CONTINUOUS
 10
-1.1458511884
 20
13.3320143688
 11
-1.1457485492
 21
13.0324593694
  0
LINE
  5
642
100
AcDbEntity
  8
ASSI
100
AcDbLine
 62
253
  6
CONTINUOUS
 10
-1.1458511884
 20
13.3320143688
 11
-1.1457485492
 21
13.0324593694
  0
LINE
  5
643
100
AcDbEntity
  8
RACCORDO
100
AcDbLine
 62
253
  6
CONTINUOUS
 10
-1.1458511884
 20
8.3320143688
 11
-1.1457485492
 21
8.0324593694
  0
LINE
  5
644
100
AcDbEntity
  8
ASSI
100
AcDbLine
 62
253
  6
CONTINUOUS
 10
-1.1458511884
 20
8.3320143688
 11
-1.1457485492
 21
8.0324593694
  0
LINE
  5
645
100
AcDbEntity
  8
RACCORDO
100
AcDbLine
 62
7
  6
CONTINUOUS
 10
-0.8457962861
 20
8.0597556081
 11
-0.8458682566
 21
8.2459267226
  0
LINE
  5
646
100
AcDbEntity
  8
RACCORDO
100
AcDbLine
 62
7
  6
CONTINUOUS
 10
-0.8457962861
 20
13.0597556081
 11
-0.8458682566
 21
13.2459267226
  0
LINE
  5
647
100
AcDbEntity
  8
RACCORDO
100
AcDbLine
 62
7
  6
CONTINUOUS
 10
-0.8457962861
 20
18.0597556081
 11
-0.8458682566
 21
18.2459267226
  0
LINE
  5
648
100
AcDbEntity
  8
RACCORDO
100
AcDbLine
 62
7
  6
CONTINUOUS
 10
-0.8454958038
 20
22.8017364914
 11
-0.8458673046
 21
23.2831527594
  0
LINE
  5
649
100
AcDbEntity
  8
ASSI
100
AcDbLine
 62
7
  6
CONTINUOUS
 10
-0.7830204082
 20
5.8935884315
 11
-0.7830204082
 21
10.6200442216
  0
LINE
  5
64A
100
AcDbEntity
  8
ASSI
100
AcDbLine
 62
7
  6
CONTINUOUS
 10
-0.7830204082
 20
10.8935884315
 11
-0.7830204082
 21
15.6200442216
  0
LINE
  5
64B
100
AcDbEntity
  8
ASSI
100
AcDbLine
 62
7
  6
CONTINUOUS
 10
-0.7830204082
 20
15.8935884315
 11
-0.7830204082
 21
20.6200442216
  0
LINE
  5
64C
100
AcDbEntity
  8
ASSI
100
AcDbLine
 62
7
  6
CONTINUOUS
 10
-0.7830204082
 20
20.8935884315
 11
-0.7830204082
 21
25.6200442216
  0
LINE
  5
64D
100
AcDbEntity
  8
ASSI
100
AcDbLine
 62
7
  6
CONTINUOUS
 10
-0.8458615549
 20
18.1967252432
 11
-0.8458366771
 21
18.3881438432
  0
LINE
  5
64E
100
AcDbEntity
  8
ASSI
100
AcDbLine
 62
7
  6
CONTINUOUS
 10
-0.8458615549
 20
13.1967252432
 11
-0.8458366771
 21
13.3881438432
  0
LINE
  5
64F
100
AcDbEntity
  8
ASSI
100
AcDbLine
 62
7
  6
CONTINUOUS
 10
-0.8458615549
 20
8.1967252432
 11
-0.8458366771
 21
8.3881438432
  0
LINE
  5
650
100
AcDbEntity
  8
RACCORDO
100
AcDbLine
 62
7
  6
CONTINUOUS
 10
-0.8458682566
 20
18.2459267226
 11
-0.8458121353
 21
18.431549325
  0
LINE
  5
651
100
AcDbEntity
  8
RACCORDO
100
AcDbLine
 62
7
  6
CONTINUOUS
 10
-0.8458682566
 20
13.2459267226
 11
-0.8458121353
 21
13.431549325
  0
LINE
  5
652
100
AcDbEntity
  8
RACCORDO
100
AcDbLine
 62
7
  6
CONTINUOUS
 10
-0.8458682566
 20
8.2459267226
 11
-0.8458121353
 21
8.431549325
  0
LINE
  5
653
100
AcDbEntity
  8
ASSI
100
AcDbLine
 62
7
  6
CONTINUOUS
 10
-0.8458675565
 20
23.2350836681
 11
-0.8456814654
 21
23.5774372738
  0
LINE
  5
654
100
AcDbEntity
  8
ASSI
100
AcDbLine
 62
7
  6
CONTINUOUS
 10
-0.8458366771
 20
18.3881438432
 11
-0.84572198
 21
18.5398449896
  0
LINE
  5
655
100
AcDbEntity
  8
ASSI
100
AcDbLine
 62
7
  6
CONTINUOUS
 10
-0.8458366771
 20
13.3881438432
 11
-0.84572198
 21
13.5398449896
  0
LINE
  5
656
100
AcDbEntity
  8
RACCORDO
100
AcDbLine
 62
7
  6
CONTINUOUS
 10
-0.8458121353
 20
13.431549325
 11
-0.8457198883
 21
13.5418986101
  0
LINE
  5
657
100
AcDbEntity
  8
ASSI
100
AcDbLine
 62
7
  6
CONTINUOUS
 10
-0.8458366771
 20
8.3881438432
 11
-0.84572198
 21
8.5398449896
  0
LINE
  5
658
100
AcDbEntity
  8
RACCORDO
100
AcDbLine
 62
7
  6
CONTINUOUS
 10
-0.8458121353
 20
8.431549325
 11
-0.8457198883
 21
8.5418986101
  0
LINE
  5
659
100
AcDbEntity
  8
RACCORDO
100
AcDbLine
 62
253
  6
CONTINUOUS
 10
-1.1455404778
 20
23.6299734791
 11
-1.1458511884
 21
23.3320143688
  0
LINE
  5
65A
100
AcDbEntity
  8
ASSI
100
AcDbLine
 62
253
  6
CONTINUOUS
 10
-1.1455404778
 20
23.6299734791
 11
-1.1458511884
 21
23.3320143688
  0
LINE
  5
65B
100
AcDbEntity
  8
RACCORDO
100
AcDbLine
 62
253
  6
CONTINUOUS
 10
-1.1455404778
 20
18.6299734791
 11
-1.1458511884
 21
18.3320143688
  0
LINE
  5
65C
100
AcDbEntity
  8
ASSI
100
AcDbLine
 62
253
  6
CONTINUOUS
 10
-1.1455404778
 20
18.6299734791
 11
-1.1458511884
 21
18.3320143688
  0
LINE
  5
65D
100
AcDbEntity
  8
RACCORDO
100
AcDbLine
 62
253
  6
CONTINUOUS
 10
-1.1455404778
 20
13.6299734791
 11
-1.1458511884
 21
13.3320143688
  0
LINE
  5
65E
100
AcDbEntity
  8
ASSI
100
AcDbLine
 62
253
  6
CONTINUOUS
 10
-1.1455404778
 20
13.6299734791
 11
-1.1458511884
 21
13.3320143688
  0
LINE
  5
65F
100
AcDbEntity
  8
RACCORDO
100
AcDbLine
 62
253
  6
CONTINUOUS
 10
-1.1455404778
 20
8.6299734791
 11
-1.1458511884
 21
8.3320143688
  0
LINE
  5
660
100
AcDbEntity
  8
ASSI
100
AcDbLine
 62
253
  6
CONTINUOUS
 10
-1.1455404778
 20
8.6299734791
 11
-1.1458511884
 21
8.3320143688
  0
LINE
  5
661
100
AcDbEntity
  8
RACCORDO
100
AcDbLine
 62
7
  6
CONTINUOUS
 10
-0.8458673046
 20
23.2831527594
 11
-0.8454771779
 21
23.7228676018
  0
LINE
  5
662
100
AcDbEntity
  8
RACCORDO
100
AcDbLine
 62
7
  6
CONTINUOUS
 10
-0.8458121353
 20
18.431549325
 11
-0.845534868
 21
18.6870352753
  0
LINE
  5
663
100
AcDbEntity
  8
RACCORDO
100
AcDbLine
 62
7
  6
CONTINUOUS
 10
-0.8457198883
 20
13.5418986101
 11
-0.845534868
 21
13.6870352753
  0
LINE
  5
664
100
AcDbEntity
  8
RACCORDO
100
AcDbLine
 62
7
  6
CONTINUOUS
 10
-0.8457198883
 20
8.5418986101
 11
-0.845534868
 21
8.6870352753
  0
LINE
  5
665
100
AcDbEntity
  8
ASSI
100
AcDbLine
 62
7
  6
CONTINUOUS
 10
-0.84572198
 20
18.5398449896
 11
-0.8454718198
 21
18.7260458352
  0
LINE
  5
666
100
AcDbEntity
  8
ASSI
100
AcDbLine
 62
7
  6
CONTINUOUS
 10
-0.84572198
 20
13.5398449896
 11
-0.8454718198
 21
13.7260458352
  0
LINE
  5
667
100
AcDbEntity
  8
ASSI
100
AcDbLine
 62
7
  6
CONTINUOUS
 10
-0.84572198
 20
8.5398449896
 11
-0.8454718198
 21
8.7260458352
  0
LINE
  5
668
100
AcDbEntity
  8
RACCORDO
100
AcDbLine
 62
7
  6
CONTINUOUS
 10
-0.845534868
 20
18.6870352753
 11
-0.8451198955
 21
18.8986924041
  0
LINE
  5
669
100
AcDbEntity
  8
RACCORDO
100
AcDbLine
 62
7
  6
CONTINUOUS
 10
-0.845534868
 20
13.6870352753
 11
-0.8451198955
 21
13.8986924041
  0
LINE
  5
66A
100
AcDbEntity
  8
RACCORDO
100
AcDbLine
 62
7
  6
CONTINUOUS
 10
-0.845534868
 20
8.6870352753
 11
-0.8451198955
 21
8.8986924041
  0
LINE
  5
66B
100
AcDbEntity
  8
ASSI
100
AcDbLine
 62
7
  6
CONTINUOUS
 10
-0.8456814654
 20
23.5774372738
 11
-0.8449199801
 21
23.9771487349
  0
LINE
  5
66C
100
AcDbEntity
  8
ASSI
100
AcDbLine
 62
7
  6
CONTINUOUS
 10
-0.8454718198
 20
18.7260458352
 11
-0.8450123422
 21
18.9421066381
  0
LINE
  5
66D
100
AcDbEntity
  8
ASSI
100
AcDbLine
 62
7
  6
CONTINUOUS
 10
-0.8454718198
 20
13.7260458352
 11
-0.8450123422
 21
13.9421066381
  0
LINE
  5
66E
100
AcDbEntity
  8
ASSI
100
AcDbLine
 62
7
  6
CONTINUOUS
 10
-0.8454718198
 20
8.7260458352
 11
-0.8450123422
 21
8.9421066381
  0
LINE
  5
66F
100
AcDbEntity
  8
RACCORDO
100
AcDbLine
 62
253
  6
CONTINUOUS
 10
-1.1448212981
 20
23.9204334861
 11
-1.1455404778
 21
23.6299734791
  0
LINE
  5
670
100
AcDbEntity
  8
ASSI
100
AcDbLine
 62
253
  6
CONTINUOUS
 10
-1.1448212981
 20
23.9204334861
 11
-1.1455404778
 21
23.6299734791
  0
LINE
  5
671
100
AcDbEntity
  8
RACCORDO
100
AcDbLine
 62
253
  6
CONTINUOUS
 10
-1.1448212981
 20
18.9204334861
 11
-1.1455404778
 21
18.6299734791
  0
LINE
  5
672
100
AcDbEntity
  8
ASSI
100
AcDbLine
 62
253
  6
CONTINUOUS
 10
-1.1448212981
 20
18.9204334861
 11
-1.1455404778
 21
18.6299734791
  0
LINE
  5
673
100
AcDbEntity
  8
RACCORDO
100
AcDbLine
 62
253
  6
CONTINUOUS
 10
-1.1448212981
 20
13.9204334861
 11
-1.1455404778
 21
13.6299734791
  0
LINE
  5
674
100
AcDbEntity
  8
ASSI
100
AcDbLine
 62
253
  6
CONTINUOUS
 10
-1.1448212981
 20
13.9204334861
 11
-1.1455404778
 21
13.6299734791
  0
LINE
  5
675
100
AcDbEntity
  8
RACCORDO
100
AcDbLine
 62
253
  6
CONTINUOUS
 10
-1.1448212981
 20
8.9204334861
 11
-1.1455404778
 21
8.6299734791
  0
LINE
  5
676
100
AcDbEntity
  8
ASSI
100
AcDbLine
 62
253
  6
CONTINUOUS
 10
-1.1448212981
 20
8.9204334861
 11
-1.1455404778
 21
8.6299734791
  0
LINE
  5
677
100
AcDbEntity
  8
RACCORDO
100
AcDbLine
 62
7
  6
CONTINUOUS
 10
-0.8454771779
 20
23.7228676018
 11
-0.8446585938
 21
24.0678069292
  0
LINE
  5
678
100
AcDbEntity
  8
RACCORDO
100
AcDbLine
 62
7
  6
CONTINUOUS
 10
-0.8451198955
 20
13.8986924041
 11
-0.844758054
 21
14.0345902189
  0
LINE
  5
679
100
AcDbEntity
  8
RACCORDO
100
AcDbLine
 62
7
  6
CONTINUOUS
 10
-0.8451198955
 20
8.8986924041
 11
-0.844758054
 21
9.0345902189
  0
LINE
  5
67A
100
AcDbEntity
  8
ASSI
100
AcDbLine
 62
7
  6
CONTINUOUS
 10
-0.8450123422
 20
13.9421066381
 11
-0.8446199216
 21
14.0803503311
  0
LINE
  5
67B
100
AcDbEntity
  8
ASSI
100
AcDbLine
 62
7
  6
CONTINUOUS
 10
-0.8450123422
 20
8.9421066381
 11
-0.8446199216
 21
9.0803503311
  0
LINE
  5
67C
100
AcDbEntity
  8
RACCORDO
100
AcDbLine
 62
7
  6
CONTINUOUS
 10
-0.8451198955
 20
18.8986924041
 11
-0.844339975
 21
19.1655528094
  0
LINE
  5
67D
100
AcDbEntity
  8
ASSI
100
AcDbLine
 62
7
  6
CONTINUOUS
 10
-0.8450123422
 20
18.9421066381
 11
-0.8441691913
 21
19.2132671885
  0
LINE
  5
67E
100
AcDbEntity
  8
RACCORDO
100
AcDbLine
 62
7
  6
CONTINUOUS
 10
-0.844758054
 20
14.0345902189
 11
-0.8442268373
 21
14.1974870515
  0
LINE
  5
67F
100
AcDbEntity
  8
RACCORDO
100
AcDbLine
 62
7
  6
CONTINUOUS
 10
-0.844758054
 20
9.0345902189
 11
-0.8442268373
 21
9.1974870515
  0
LINE
  5
680
100
AcDbEntity
  8
ASSI
100
AcDbLine
 62
7
  6
CONTINUOUS
 10
-0.8449199801
 20
23.9771487349
 11
-0.8435231536
 21
24.371618883
  0
LINE
  5
681
100
AcDbEntity
  8
ASSI
100
AcDbLine
 62
7
  6
CONTINUOUS
 10
-0.8446199216
 20
14.0803503311
 11
-0.843659464
 21
14.3406538103
  0
LINE
  5
682
100
AcDbEntity
  8
ASSI
100
AcDbLine
 62
7
  6
CONTINUOUS
 10
-0.8446199216
 20
9.0803503311
 11
-0.843659464
 21
9.3406538103
  0
LINE
  5
683
100
AcDbEntity
  8
RACCORDO
100
AcDbLine
 62
253
  6
CONTINUOUS
 10
-1.1437072214
 20
24.1977544566
 11
-1.1448212981
 21
23.9204334861
  0
LINE
  5
684
100
AcDbEntity
  8
ASSI
100
AcDbLine
 62
253
  6
CONTINUOUS
 10
-1.1437072214
 20
24.1977544566
 11
-1.1448212981
 21
23.9204334861
  0
LINE
  5
685
100
AcDbEntity
  8
RACCORDO
100
AcDbLine
 62
253
  6
CONTINUOUS
 10
-1.1437072214
 20
19.1977544566
 11
-1.1448212981
 21
18.9204334861
  0
LINE
  5
686
100
AcDbEntity
  8
ASSI
100
AcDbLine
 62
253
  6
CONTINUOUS
 10
-1.1437072214
 20
19.1977544566
 11
-1.1448212981
 21
18.9204334861
  0
LINE
  5
687
100
AcDbEntity
  8
RACCORDO
100
AcDbLine
 62
253
  6
CONTINUOUS
 10
-1.1437072214
 20
14.1977544566
 11
-1.1448212981
 21
13.9204334861
  0
LINE
  5
688
100
AcDbEntity
  8
ASSI
100
AcDbLine
 62
253
  6
CONTINUOUS
 10
-1.1437072214
 20
14.1977544566
 11
-1.1448212981
 21
13.9204334861
  0
LINE
  5
689
100
AcDbEntity
  8
RACCORDO
100
AcDbLine
 62
253
  6
CONTINUOUS
 10
-1.1437072214
 20
9.1977544566
 11
-1.1448212981
 21
8.9204334861
  0
LINE
  5
68A
100
AcDbEntity
  8
ASSI
100
AcDbLine
 62
253
  6
CONTINUOUS
 10
-1.1437072214
 20
9.1977544566
 11
-1.1448212981
 21
8.9204334861
  0
LINE
  5
68B
100
AcDbEntity
  8
RACCORDO
100
AcDbLine
 62
7
  6
CONTINUOUS
 10
-0.844339975
 20
19.1655528094
 11
-0.8433389188
 21
19.4117785617
  0
LINE
  5
68C
100
AcDbEntity
  8
RACCORDO
100
AcDbLine
 62
7
  6
CONTINUOUS
 10
-0.8446585938
 20
24.0678069292
 11
-0.8430568751
 21
24.4699772152
  0
LINE
  5
68D
100
AcDbEntity
  8
ASSI
100
AcDbLine
 62
7
  6
CONTINUOUS
 10
-0.8441691913
 20
19.2132671885
 11
-0.8430947289
 21
19.4623753398
  0
LINE
  5
68E
100
AcDbEntity
  8
RACCORDO
100
AcDbLine
 62
7
  6
CONTINUOUS
 10
-0.8442268373
 20
14.1974870515
 11
-0.8431992998
 21
14.4410488176
  0
LINE
  5
68F
100
AcDbEntity
  8
RACCORDO
100
AcDbLine
 62
7
  6
CONTINUOUS
 10
-0.8442268373
 20
9.1974870515
 11
-0.8431992998
 21
9.4410488176
  0
LINE
  5
690
100
AcDbEntity
  8
ASSI
100
AcDbLine
 62
7
  6
CONTINUOUS
 10
-0.843659464
 20
9.3406538103
 11
-0.84279454
 21
9.5210795754
  0
LINE
  5
691
100
AcDbEntity
  8
RACCORDO
100
AcDbLine
 62
7
  6
CONTINUOUS
 10
-0.8431992998
 20
9.4410488176
 11
-0.8427642688
 21
9.5268108177
  0
LINE
  5
692
100
AcDbEntity
  8
ASSI
100
AcDbLine
 62
7
  6
CONTINUOUS
 10
-0.843659464
 20
14.3406538103
 11
-0.842484205
 21
14.5783282234
  0
LINE
  5
693
100
AcDbEntity
  8
ASSI
100
AcDbLine
 62
7
  6
CONTINUOUS
 10
-0.8435231536
 20
24.371618883
 11
-0.842325189
 21
24.6064052849
  0
LINE
  5
694
100
AcDbEntity
  8
RACCORDO
100
AcDbLine
 62
7
  6
CONTINUOUS
 10
-0.8433389188
 20
19.4117785617
 11
-0.8419906701
 21
19.6628607375
  0
LINE
  5
695
100
AcDbEntity
  8
RACCORDO
100
AcDbLine
 62
253
  6
CONTINUOUS
 10
-1.1422269812
 20
24.4566625316
 11
-1.1437072214
 21
24.1977544566
  0
LINE
  5
696
100
AcDbEntity
  8
ASSI
100
AcDbLine
 62
253
  6
CONTINUOUS
 10
-1.1422269812
 20
24.4566625316
 11
-1.1437072214
 21
24.1977544566
  0
LINE
  5
697
100
AcDbEntity
  8
RACCORDO
100
AcDbLine
 62
253
  6
CONTINUOUS
 10
-1.1422269812
 20
19.4566625316
 11
-1.1437072214
 21
19.1977544566
  0
LINE
  5
698
100
AcDbEntity
  8
ASSI
100
AcDbLine
 62
253
  6
CONTINUOUS
 10
-1.1422269812
 20
19.4566625316
 11
-1.1437072214
 21
19.1977544566
  0
LINE
  5
699
100
AcDbEntity
  8
RACCORDO
100
AcDbLine
 62
253
  6
CONTINUOUS
 10
-1.1422269812
 20
14.4566625316
 11
-1.1437072214
 21
14.1977544566
  0
LINE
  5
69A
100
AcDbEntity
  8
ASSI
100
AcDbLine
 62
253
  6
CONTINUOUS
 10
-1.1422269812
 20
14.4566625316
 11
-1.1437072214
 21
14.1977544566
  0
LINE
  5
69B
100
AcDbEntity
  8
RACCORDO
100
AcDbLine
 62
253
  6
CONTINUOUS
 10
-1.1422269812
 20
9.4566625316
 11
-1.1437072214
 21
9.1977544566
  0
LINE
  5
69C
100
AcDbEntity
  8
ASSI
100
AcDbLine
 62
253
  6
CONTINUOUS
 10
-1.1422269812
 20
9.4566625316
 11
-1.1437072214
 21
9.1977544566
  0
LINE
  5
69D
100
AcDbEntity
  8
ASSI
100
AcDbLine
 62
7
  6
CONTINUOUS
 10
-0.8430947289
 20
19.4623753398
 11
-0.8418322247
 21
19.6884377536
  0
LINE
  5
69E
100
AcDbEntity
  8
RACCORDO
100
AcDbLine
 62
7
  6
CONTINUOUS
 10
-0.8431992998
 20
14.4410488176
 11
-0.841828482
 21
14.6890333077
  0
LINE
  5
69F
100
AcDbEntity
  8
RACCORDO
100
AcDbLine
 62
7
  6
CONTINUOUS
 10
-0.8430568751
 20
24.4699772152
 11
-0.8416637998
 21
24.7148578756
  0
LINE
  5
6A0
100
AcDbEntity
  8
ASSI
100
AcDbLine
 62
7
  6
CONTINUOUS
 10
-0.842484205
 20
14.5783282234
 11
-0.8411380446
 21
14.7926741669
  0
LINE
  5
6A1
100
AcDbEntity
  8
ASSI
100
AcDbLine
 62
7
  6
CONTINUOUS
 10
-0.842325189
 20
24.6064052849
 11
-0.8409582394
 21
24.8178149472
  0
LINE
  5
6A2
100
AcDbEntity
  8
RACCORDO
100
AcDbLine
 62
7
  6
CONTINUOUS
 10
-0.8419906701
 20
19.6628607375
 11
-0.8406258825
 21
19.8625270375
  0
LINE
  5
6A3
100
AcDbEntity
  8
RACCORDO
100
AcDbLine
 62
7
  6
CONTINUOUS
 10
-0.841828482
 20
14.6890333077
 11
-0.8404453818
 21
14.8859248078
  0
LINE
  5
6A4
100
AcDbEntity
  8
ASSI
100
AcDbLine
 62
7
  6
CONTINUOUS
 10
-0.8418322247
 20
19.6884377536
 11
-0.8404053971
 21
19.891028722
  0
LINE
  5
6A5
100
AcDbEntity
  8
RACCORDO
100
AcDbLine
 62
7
  6
CONTINUOUS
 10
-0.8416637998
 20
24.7148578756
 11
-0.8402630422
 21
24.9089761112
  0
LINE
  5
6A6
100
AcDbEntity
  8
RACCORDO
100
AcDbLine
 62
253
  6
CONTINUOUS
 10
-1.1404015964
 20
24.6922994926
 11
-1.1422269812
 21
24.4566625316
  0
LINE
  5
6A7
100
AcDbEntity
  8
ASSI
100
AcDbLine
 62
253
  6
CONTINUOUS
 10
-1.1404015964
 20
24.6922994926
 11
-1.1422269812
 21
24.4566625316
  0
LINE
  5
6A8
100
AcDbEntity
  8
RACCORDO
100
AcDbLine
 62
253
  6
CONTINUOUS
 10
-1.1404015964
 20
19.6922994926
 11
-1.1422269812
 21
19.4566625316
  0
LINE
  5
6A9
100
AcDbEntity
  8
ASSI
100
AcDbLine
 62
253
  6
CONTINUOUS
 10
-1.1404015964
 20
19.6922994926
 11
-1.1422269812
 21
19.4566625316
  0
LINE
  5
6AA
100
AcDbEntity
  8
RACCORDO
100
AcDbLine
 62
253
  6
CONTINUOUS
 10
-1.1404015964
 20
14.6922994926
 11
-1.1422269812
 21
14.4566625316
  0
LINE
  5
6AB
100
AcDbEntity
  8
ASSI
100
AcDbLine
 62
253
  6
CONTINUOUS
 10
-1.1404015964
 20
14.6922994926
 11
-1.1422269812
 21
14.4566625316
  0
LINE
  5
6AC
100
AcDbEntity
  8
RACCORDO
100
AcDbLine
 62
253
  6
CONTINUOUS
 10
-1.1404015964
 20
9.6922994926
 11
-1.1422269812
 21
9.4566625316
  0
LINE
  5
6AD
100
AcDbEntity
  8
ASSI
100
AcDbLine
 62
253
  6
CONTINUOUS
 10
-1.1404015964
 20
9.6922994926
 11
-1.1422269812
 21
9.4566625316
  0
LWPOLYLINE
  5
6AE
100
AcDbEntity
  8
ASSI
100
AcDbPolyline
 62
7
  6
CONTINUOUS
 90
3
 70
0
 10
-0.8411380446
 20
14.7926741669
 10
-0.8396419939
 20
14.9834962376
 10
-0.8394469694
 20
15.0056920114
  0
LINE
  5
6AF
100
AcDbEntity
  8
ASSI
100
AcDbLine
 62
7
  6
CONTINUOUS
 10
-0.8409582394
 20
24.8178149472
 11
-0.8394469694
 21
25.0056920114
  0
LINE
  5
6B0
100
AcDbEntity
  8
RACCORDO
100
AcDbLine
 62
7
  6
CONTINUOUS
 10
-0.8404453818
 20
14.8859248078
 11
-0.8393273772
 21
15.0190258404
  0
LINE
  5
6B1
100
AcDbEntity
  8
RACCORDO
100
AcDbLine
 62
7
  6
CONTINUOUS
 10
-0.8406258825
 20
19.8625270375
 11
-0.839135402
 21
20.0399977939
  0
LINE
  5
6B2
100
AcDbEntity
  8
RACCORDO
100
AcDbLine
 62
7
  6
CONTINUOUS
 10
-0.8402630422
 20
24.9089761112
 11
-0.8387464159
 21
25.0809074642
  0
LINE
  5
6B3
100
AcDbEntity
  8
ASSI
100
AcDbLine
 62
7
  6
CONTINUOUS
 10
-0.8404053971
 20
19.891028722
 11
-0.8388512897
 21
20.0700821881
  0
LINE
  5
6B4
100
AcDbEntity
  8
0
100
AcDbLine
 62
253
  6
CONTINUOUS
 10
-1.8822974103
 20
-0.8658334043
 11
-1.8873880114
 21
-1.3710148898
  0
LINE
  5
6B5
100
AcDbEntity
  8
0
100
AcDbLine
 62
253
  6
CONTINUOUS
 10
-1.6330204082
 20
-1.1536688217
 11
-1.6373922422
 21
-1.5875212408
  0
LINE
  5
6B6
100
AcDbEntity
  8
ASSI
100
AcDbLine
 62
7
  6
CONTINUOUS
 10
-0.8394469694
 20
25.0056920114
 11
-0.8378233837
 21
25.1701120003
  0
LINE
  5
6B7
100
AcDbEntity
  8
RACCORDO
100
AcDbLine
 62
7
  6
CONTINUOUS
 10
-0.839135402
 20
20.0399977939
 11
-0.8375405235
 21
20.1954238033
  0
LINE
  5
6B8
100
AcDbEntity
  8
ASSI
100
AcDbLine
 62
7
  6
CONTINUOUS
 10
-0.8388512897
 20
20.0700821881
 11
-0.8371876735
 21
20.2257886041
  0
LINE
  5
6B9
100
AcDbEntity
  8
RACCORDO
100
AcDbLine
 62
7
  6
CONTINUOUS
 10
-0.8387464159
 20
25.0809074642
 11
-0.8371270523
 21
25.2308759893
  0
LINE
  5
6BA
100
AcDbEntity
  8
ASSI
100
AcDbLine
 62
7
  6
CONTINUOUS
 10
-0.8378233837
 20
25.1701120003
 11
-0.8361051865
 21
25.3113853707
  0
LINE
  5
6BB
100
AcDbEntity
  8
RACCORDO
100
AcDbLine
 62
7
  6
CONTINUOUS
 10
-0.8375405235
 20
20.1954238033
 11
-0.8358627433
 21
20.3290982745
  0
LINE
  5
6BC
100
AcDbEntity
  8
RACCORDO
100
AcDbLine
 62
7
  6
CONTINUOUS
 10
-0.8371270523
 20
25.2308759893
 11
-0.8354349326
 21
25.3590849776
  0
LINE
  5
6BD
100
AcDbEntity
  8
ASSI
100
AcDbLine
 62
7
  6
CONTINUOUS
 10
-0.8371876735
 20
20.2257886041
 11
-0.8354454369
 21
20.3583678855
  0
LINE
  5
6BE
100
AcDbEntity
  8
CURVE
100
AcDbLine
 62
253
  6
CONTINUOUS
 10
-0.7434692086
 20
38.6393163265
 11
-0.7337457249
 21
39.2568163265
  0
LINE
  5
6BF
100
AcDbEntity
  8
CURVE
100
AcDbLine
 62
7
  6
CONTINUOUS
 10
-0.6908773821
 20
29.0093272077
 11
-0.6915648148
 21
28.9607416306
  0
LINE
  5
6C0
100
AcDbEntity
  8
ASSI
100
AcDbLine
 62
7
  6
CONTINUOUS
 10
-0.8361051865
 20
25.3113853707
 11
-0.8345550805
 21
25.4158215509
  0
LINE
  5
6C1
100
AcDbEntity
  8
RACCORDO
100
AcDbLine
 62
7
  6
CONTINUOUS
 10
-0.8358627433
 20
20.3290982745
 11
-0.8343532267
 21
20.4279377297
  0
LINE
  5
6C2
100
AcDbEntity
  8
RACCORDO
100
AcDbLine
 62
7
  6
CONTINUOUS
 10
-0.8354349326
 20
25.3590849776
 11
-0.8339171057
 21
25.4530210053
  0
LINE
  5
6C3
100
AcDbEntity
  8
ASSI
100
AcDbLine
 62
7
  6
CONTINUOUS
 10
-0.8354454369
 20
20.3583678855
 11
-0.8338816091
 21
20.4549981603
  0
LINE
  5
6C4
100
AcDbEntity
  8
CURVE
100
AcDbLine
 62
7
  6
CONTINUOUS
 10
-0.687692508
 20
28.4299976024
 11
-0.6869435319
 21
28.476550321
  0
LINE
  5
6C5
100
AcDbEntity
  8
CURVE
100
AcDbLine
 62
253
  6
CONTINUOUS
 10
-0.7272634029
 20
38.727530607
 11
-0.7288839841
 21
38.6393163265
  0
LINE
  5
6C6
100
AcDbEntity
  8
CURVE
100
AcDbLine
 62
253
  6
CONTINUOUS
 10
-0.7272634029
 20
33.1112209763
 11
-0.7305045639
 21
32.934792489
  0
LINE
  5
6C7
100
AcDbEntity
  8
CURVE
100
AcDbLine
 62
253
  6
CONTINUOUS
 10
-0.7272634029
 20
28.200625626
 11
-0.7305045639
 21
28.0241977276
  0
LINE
  5
6C8
100
AcDbEntity
  8
ASSI
100
AcDbLine
 62
7
  6
CONTINUOUS
 10
-0.8345550805
 20
25.4158215509
 11
-0.8329819451
 21
25.5020188927
  0
LINE
  5
6C9
100
AcDbEntity
  8
CURVE
100
AcDbLine
 62
7
  6
CONTINUOUS
 10
-0.6691366989
 20
28.8365321917
 11
-0.669710416
 21
28.8050507812
  0
LINE
  5
6CA
100
AcDbEntity
  8
RACCORDO
100
AcDbLine
 62
7
  6
CONTINUOUS
 10
-0.8343532267
 20
20.4279377297
 11
-0.8328259865
 21
20.5095873422
  0
LINE
  5
6CB
100
AcDbEntity
  8
CURVE
100
AcDbLine
 62
7
  6
CONTINUOUS
 10
-0.6915648148
 20
28.9607416306
 11
-0.6922928533
 21
28.9216722919
  0
LINE
  5
6CC
100
AcDbEntity
  8
RACCORDO
100
AcDbLine
 62
7
  6
CONTINUOUS
 10
-0.8339171057
 20
25.4530210053
 11
-0.8325192718
 21
25.5239543787
  0
LINE
  5
6CD
100
AcDbEntity
  8
RACCORDO
100
AcDbLine
 62
7
  6
CONTINUOUS
 10
-0.8328259865
 20
20.5095873422
 11
-0.8325192718
 21
20.5239543787
  0
LINE
  5
6CE
100
AcDbEntity
  8
CURVE
100
AcDbLine
 62
7
  6
CONTINUOUS
 10
-0.6643817206
 20
28.3147014206
 11
-0.6632565649
 21
28.3697722684
  0
LINE
  5
6CF
100
AcDbEntity
  8
ASSI
100
AcDbLine
 62
7
  6
CONTINUOUS
 10
-0.8329819451
 20
25.5020188927
 11
-0.8325198906
 21
25.5239536158
  0
LINE
  5
6D0
100
AcDbEntity
  8
ASSI
100
AcDbLine
 62
7
  6
CONTINUOUS
 10
-0.8338816091
 20
20.4549981603
 11
-0.8325198906
 21
20.5239536158
  0
LINE
  5
6D1
100
AcDbEntity
  8
CURVE
100
AcDbLine
 62
7
  6
CONTINUOUS
 10
-0.6885540777
 20
28.3887195846
 11
-0.687692508
 21
28.4299976024
  0
LINE
  5
6D2
100
AcDbEntity
  8
CURVE
100
AcDbLine
 62
7
  6
CONTINUOUS
 10
-0.669710416
 20
28.8050507812
 11
-0.6701876151
 21
28.7844159969
  0
LINE
  5
6D3
100
AcDbEntity
  8
CURVE
100
AcDbLine
 62
7
  6
CONTINUOUS
 10
-0.6922928533
 20
28.9216722919
 11
-0.6929342866
 21
28.8945581885
  0
LINE
  5
6D4
100
AcDbEntity
  8
CURVE
100
AcDbLine
 62
7
  6
CONTINUOUS
 10
-0.6656052565
 20
28.2671062413
 11
-0.6643817206
 21
28.3147014206
  0
LINE
  5
6D5
100
AcDbEntity
  8
CURVE
100
AcDbLine
 62
7
  6
CONTINUOUS
 10
-0.6894942397
 20
28.3526142774
 11
-0.6885540777
 21
28.3887195846
  0
LINE
  5
6D6
100
AcDbEntity
  8
CURVE
100
AcDbLine
 62
7
  6
CONTINUOUS
 10
-0.6701876151
 20
28.7844159969
 11
-0.6706983574
 21
28.7664431924
  0
LWPOLYLINE
  5
6D7
100
AcDbEntity
  8
0
100
AcDbPolyline
 62
253
  6
CONTINUOUS
 90
34
 70
0
 10
-1.6373922422
 20
46.1011538938
 10
-1.6377089042
 20
46.0908709327
 10
-1.6385890984
 20
46.0806111806
 10
-1.6400308382
 20
46.0703977938
 10
-1.6420308683
 20
46.06025383
 10
-1.6445846753
 20
46.0502021786
 10
-1.6476865007
 20
46.04026551
 10
-1.6513293514
 20
46.0304662395
 10
-1.6555050043
 20
46.0208264983
 10
-1.6602040266
 20
46.0113680652
 10
-1.6654158066
 20
46.002112296
 10
-1.6711285843
 20
45.9930800728
 10
-1.6773294674
 20
45.9842917777
 10
-1.6840044611
 20
45.9757672451
 10
-1.6911384986
 20
45.9675257163
 10
-1.6987154782
 20
45.9595857924
 10
-1.7067182978
 20
45.9519653943
 10
-1.7151288949
 20
45.9446817212
 10
-1.7239282874
 20
45.9377512115
 10
-1.7330966133
 20
45.9311895089
 10
-1.7426131808
 20
45.9250114222
 10
-1.752456517
 20
45.9192308919
 10
-1.7626044183
 20
45.9138609594
 10
-1.7730339693
 20
45.908913753
 10
-1.7837215969
 20
45.9044004531
 10
-1.7946431568
 20
45.90033125
 10
-1.8057740165
 20
45.8967153162
 10
-1.8170890801
 20
45.8935608023
 10
-1.8285631021
 20
45.890874766
 10
-1.8401698995
 20
45.888663356
 10
-1.8518824085
 20
45.8869316735
 10
-1.8636738854
 20
45.8856835449
 10
-1.8755179961
 20
45.8849216309
 10
-1.8873880114
 20
45.8846475429
  0
LINE
  5
6D8
100
AcDbEntity
  8
CURVE
100
AcDbLine
 62
7
  6
CONTINUOUS
 10
-0.6929342866
 20
28.8945581885
 11
-0.6934444527
 21
28.8769402425
  0
LINE
  5
6D9
100
AcDbEntity
  8
CURVE
100
AcDbLine
 62
7
  6
CONTINUOUS
 10
-0.6902801068
 20
28.3273858457
 11
-0.6894942397
 21
28.3526142774
  0
LINE
  5
6DA
100
AcDbEntity
  8
CURVE
100
AcDbLine
 62
7
  6
CONTINUOUS
 10
-0.6664703451
 20
28.2398199167
 11
-0.6656052565
 21
28.2671062413
  0
LINE
  5
6DB
100
AcDbEntity
  8
CURVE
100
AcDbLine
 62
7
  6
CONTINUOUS
 10
-0.6934444527
 20
28.8769402425
 11
-0.6937965138
 21
28.8665968533
  0
LINE
  5
6DC
100
AcDbEntity
  8
CURVE
100
AcDbLine
 62
7
  6
CONTINUOUS
 10
-0.6706983574
 20
28.7664431924
 11
-0.6710544151
 21
28.7559879304
  0
LINE
  5
6DD
100
AcDbEntity
  8
CURVE
100
AcDbLine
 62
253
  6
CONTINUOUS
 10
-0.7272634029
 20
31.6409831895
 11
-0.7402280476
 21
31.288125626
  0
LINE
  5
6DE
100
AcDbEntity
  8
CURVE
100
AcDbLine
 62
253
  6
CONTINUOUS
 10
-0.7272634029
 20
30.5824116768
 11
-0.7402280476
 21
30.2295547022
  0
LINE
  5
6DF
100
AcDbEntity
  8
CURVE
100
AcDbLine
 62
7
  6
CONTINUOUS
 10
-0.6912058903
 20
28.30207546
 11
-0.6902801068
 21
28.3273858457
  0
LWPOLYLINE
  5
6E0
100
AcDbEntity
  8
RACCORDO
100
AcDbPolyline
 62
253
  6
CONTINUOUS
 90
9
 70
0
 10
-1.1289695641
 20
25.3589791867
 10
-1.1304224417
 20
25.3221595077
 10
-1.1318508725
 20
25.2752485039
 10
-1.1332346525
 20
25.2185170618
 10
-1.1345728864
 20
25.1522962371
 10
-1.1358664696
 20
25.0769451128
 10
-1.137097884
 20
24.9928233409
 10
-1.1382662408
 20
24.900367916
 10
-1.1404015964
 20
24.6922994926
  0
LWPOLYLINE
  5
6E1
100
AcDbEntity
  8
ASSI
100
AcDbPolyline
 62
253
  6
CONTINUOUS
 90
9
 70
0
 10
-1.1289695641
 20
25.3589791867
 10
-1.1304224417
 20
25.3221595077
 10
-1.1318508725
 20
25.2752485039
 10
-1.1332346525
 20
25.2185170618
 10
-1.1345728864
 20
25.1522962371
 10
-1.1358664696
 20
25.0769451128
 10
-1.137097884
 20
24.9928233409
 10
-1.1382662408
 20
24.900367916
 10
-1.1404015964
 20
24.6922994926
  0
LWPOLYLINE
  5
6E2
100
AcDbEntity
  8
RACCORDO
100
AcDbPolyline
 62
253
  6
CONTINUOUS
 90
9
 70
0
 10
-1.1289695641
 20
20.3589791867
 10
-1.1304224417
 20
20.3221595077
 10
-1.1318508725
 20
20.2752485039
 10
-1.1332346525
 20
20.2185170618
 10
-1.1345728864
 20
20.1522962371
 10
-1.1358664696
 20
20.0769451128
 10
-1.137097884
 20
19.9928233409
 10
-1.1382662408
 20
19.900367916
 10
-1.1404015964
 20
19.6922994926
  0
LWPOLYLINE
  5
6E3
100
AcDbEntity
  8
ASSI
100
AcDbPolyline
 62
253
  6
CONTINUOUS
 90
9
 70
0
 10
-1.1289695641
 20
20.3589791867
 10
-1.1304224417
 20
20.3221595077
 10
-1.1318508725
 20
20.2752485039
 10
-1.1332346525
 20
20.2185170618
 10
-1.1345728864
 20
20.1522962371
 10
-1.1358664696
 20
20.0769451128
 10
-1.137097884
 20
19.9928233409
 10
-1.1382662408
 20
19.900367916
 10
-1.1404015964
 20
19.6922994926
  0
LWPOLYLINE
  5
6E4
100
AcDbEntity
  8
RACCORDO
100
AcDbPolyline
 62
253
  6
CONTINUOUS
 90
9
 70
0
 10
-1.1289695641
 20
15.3589791867
 10
-1.1304224417
 20
15.3221595077
 10
-1.1318508725
 20
15.2752485039
 10
-1.1332346525
 20
15.2185170618
 10
-1.1345728864
 20
15.1522962371
 10
-1.1358664696
 20
15.0769451128
 10
-1.137097884
 20
14.9928233409
 10
-1.1382662408
 20
14.900367916
 10
-1.1404015964
 20
14.6922994926
  0
LWPOLYLINE
  5
6E5
100
AcDbEntity
  8
ASSI
100
AcDbPolyline
 62
253
  6
CONTINUOUS
 90
9
 70
0
 10
-1.1289695641
 20
15.3589791867
 10
-1.1304224417
 20
15.3221595077
 10
-1.1318508725
 20
15.2752485039
 10
-1.1332346525
 20
15.2185170618
 10
-1.1345728864
 20
15.1522962371
 10
-1.1358664696
 20
15.0769451128
 10
-1.137097884
 20
14.9928233409
 10
-1.1382662408
 20
14.900367916
 10
-1.1404015964
 20
14.6922994926
  0
LINE
  5
6E6
100
AcDbEntity
  8
CURVE
100
AcDbLine
 62
7
  6
CONTINUOUS
 10
-0.6937965138
 20
28.8665968533
 11
-0.6941569514
 21
28.8574420648
  0
LINE
  5
6E7
100
AcDbEntity
  8
CURVE
100
AcDbLine
 62
7
  6
CONTINUOUS
 10
-0.6710544151
 20
28.7559879304
 11
-0.6714207723
 21
28.7467873657
  0
LINE
  5
6E8
100
AcDbEntity
  8
CURVE
100
AcDbLine
 62
7
  6
CONTINUOUS
 10
-0.6918303639
 20
28.2872047626
 11
-0.6912058903
 21
28.30207546
  0
LINE
  5
6E9
100
AcDbEntity
  8
CURVE
100
AcDbLine
 62
7
  6
CONTINUOUS
 10
-0.7096830261
 20
34.2969213265
 11
-0.676643341
 21
35.0069783265
  0
LINE
  5
6EA
100
AcDbEntity
  8
CURVE
100
AcDbLine
 62
7
  6
CONTINUOUS
 10
-0.6590848109
 20
34.8500503265
 11
-0.687177091
 21
34.2511713265
  0
LINE
  5
6EB
100
AcDbEntity
  8
CURVE
100
AcDbLine
 62
7
  6
CONTINUOUS
 10
-0.6941569514
 20
28.8574420648
 11
-0.6950236891
 21
28.8389659895
  0
LINE
  5
6EC
100
AcDbEntity
  8
CURVE
100
AcDbLine
 62
7
  6
CONTINUOUS
 10
-0.6924599751
 20
28.2736774942
 11
-0.6918303639
 21
28.2872047626
  0
LWPOLYLINE
  5
6ED
100
AcDbEntity
  8
CURVE
100
AcDbPolyline
 62
7
  6
CONTINUOUS
 90
12
 70
0
 10
-0.6714207723
 20
28.7467873657
 10
-0.6717955857
 20
28.7388701363
 10
-0.6719855875
 20
28.7354017218
 10
-0.672177012
 20
28.7322648804
 10
-0.6723696288
 20
28.7294631919
 10
-0.6725632076
 20
28.727000236
 10
-0.6727575178
 20
28.7248795925
 10
-0.6729523291
 20
28.7231048412
 10
-0.6731474111
 20
28.7216795618
 10
-0.6733425332
 20
28.720607334
 10
-0.6735374652
 20
28.7198917377
 10
-0.6737319765
 20
28.7195363526
  0
LINE
  5
6EE
100
AcDbEntity
  8
CURVE
100
AcDbLine
 62
7
  6
CONTINUOUS
 10
-0.6930941324
 20
28.2612717527
 11
-0.6924599751
 21
28.2736774942
  0
LINE
  5
6EF
100
AcDbEntity
  8
CURVE
100
AcDbLine
 62
7
  6
CONTINUOUS
 10
-0.6950236891
 20
28.8389659895
 11
-0.6970944801
 21
28.7991414052
  0
LINE
  5
6F0
100
AcDbEntity
  8
CURVE
100
AcDbLine
 62
7
  6
CONTINUOUS
 10
-0.7096830261
 20
38.3378293265
 11
-0.6590848109
 21
39.2570763265
  0
LINE
  5
6F1
100
AcDbEntity
  8
CURVE
100
AcDbLine
 62
7
  6
CONTINUOUS
 10
-0.6590848109
 20
31.1858063265
 11
-0.7096830261
 21
30.2961203265
  0
LINE
  5
6F2
100
AcDbEntity
  8
CURVE
100
AcDbLine
 62
7
  6
CONTINUOUS
 10
-0.6940525987
 20
28.2442805931
 11
-0.6930941324
 21
28.2612717527
  0
LINE
  5
6F3
100
AcDbEntity
  8
CURVE
100
AcDbLine
 62
7
  6
CONTINUOUS
 10
-0.6970944801
 20
28.7991414052
 11
-0.6998862071
 21
28.751180166
  0
LINE
  5
6F4
100
AcDbEntity
  8
CURVE
100
AcDbLine
 62
7
  6
CONTINUOUS
 10
-0.6998862071
 20
28.751180166
 11
-0.7096830322
 21
28.5886580649
  0
LINE
  5
6F5
100
AcDbEntity
  8
CURVE
100
AcDbLine
 62
7
  6
CONTINUOUS
 10
-0.6590848109
 20
38.5995643265
 11
-0.6939131301
 21
38.0468373265
  0
LINE
  5
6F6
100
AcDbEntity
  8
CURVE
100
AcDbLine
 62
7
  6
CONTINUOUS
 10
-0.6959882411
 20
28.2133750663
 11
-0.6940525987
 21
28.2442805931
  0
LINE
  5
6F7
100
AcDbEntity
  8
CURVE
100
AcDbLine
 62
253
  6
CONTINUOUS
 10
-0.7272634029
 20
37.1396734484
 11
-0.7499515313
 21
36.7868163265
  0
LINE
  5
6F8
100
AcDbEntity
  8
CURVE
100
AcDbLine
 62
253
  6
CONTINUOUS
 10
-0.7272634029
 20
36.4339590575
 11
-0.7499515313
 21
36.0811020829
  0
LINE
  5
6F9
100
AcDbEntity
  8
CURVE
100
AcDbLine
 62
7
  6
CONTINUOUS
 10
-0.7096830261
 20
30.9340513265
 11
-0.6995818204
 21
31.0908493265
  0
LWPOLYLINE
  5
6FA
100
AcDbEntity
  8
CURVE
100
AcDbPolyline
 62
7
  6
CONTINUOUS
 90
3
 70
0
 10
-0.7096830322
 20
28.0064573413
 10
-0.7028352699
 20
28.1098389504
 10
-0.6959882411
 20
28.2133750663
  0
LINE
  5
6FB
100
AcDbEntity
  8
CURVE
100
AcDbLine
 62
7
  6
CONTINUOUS
 10
-0.6917655547
 20
31.2118123265
 11
-0.6729879154
 21
31.4899423265
  0
LWPOLYLINE
  5
6FC
100
AcDbEntity
  8
RACCORDO
100
AcDbPolyline
 62
253
  6
CONTINUOUS
 90
4
 70
0
 10
-1.1244844537
 20
25.4068163265
 10
-1.1260039374
 20
25.4014658804
 10
-1.1274989742
 20
25.3854762712
 10
-1.1289695641
 20
25.3589791867
  0
LWPOLYLINE
  5
6FD
100
AcDbEntity
  8
ASSI
100
AcDbPolyline
 62
253
  6
CONTINUOUS
 90
4
 70
0
 10
-1.1244844537
 20
25.4068163265
 10
-1.1260039374
 20
25.4014658804
 10
-1.1274989742
 20
25.3854762712
 10
-1.1289695641
 20
25.3589791867
  0
LWPOLYLINE
  5
6FE
100
AcDbEntity
  8
RACCORDO
100
AcDbPolyline
 62
253
  6
CONTINUOUS
 90
4
 70
0
 10
-1.1244844537
 20
20.4068163265
 10
-1.1260039374
 20
20.4014658804
 10
-1.1274989742
 20
20.3854762712
 10
-1.1289695641
 20
20.3589791867
  0
LWPOLYLINE
  5
6FF
100
AcDbEntity
  8
ASSI
100
AcDbPolyline
 62
253
  6
CONTINUOUS
 90
4
 70
0
 10
-1.1244844537
 20
20.4068163265
 10
-1.1260039374
 20
20.4014658804
 10
-1.1274989742
 20
20.3854762712
 10
-1.1289695641
 20
20.3589791867
  0
LINE
  5
700
100
AcDbEntity
  8
DRAFT
100
AcDbLine
 62
7
  6
CONTINUOUS
 10
-18.3877428217
 20
2.452093913
 11
-18.2873838421
 21
2.5524528926
  0
LINE
  5
701
100
AcDbEntity
  8
DRAFT
100
AcDbLine
 62
7
  6
CONTINUOUS
 10
-18.3877428217
 20
2.152093913
 11
-18.2873838421
 21
2.2524528926
  0
LINE
  5
702
100
AcDbEntity
  8
CURVE
100
AcDbLine
 62
253
  6
CONTINUOUS
 10
-5.0830204082
 20
33.6996737351
 11
-3.7830204082
 21
33.9782447208
  0
LINE
  5
703
100
AcDbEntity
  8
CURVE
100
AcDbLine
 62
253
  6
CONTINUOUS
 10
-9.0830204082
 20
33.6996737351
 11
-7.7830204082
 21
33.9782447208
  0
LINE
  5
704
100
AcDbEntity
  8
CURVE
100
AcDbLine
 62
253
  6
CONTINUOUS
 10
-0.7499515313
 20
31.6409831895
 11
-0.7272634029
 21
31.6409831895
  0
LINE
  5
705
100
AcDbEntity
  8
CURVE
100
AcDbLine
 62
253
  6
CONTINUOUS
 10
-4.1544489962
 20
31.6568163265
 11
-4.7115918589
 21
31.6568163265
  0
LINE
  5
706
100
AcDbEntity
  8
CURVE
100
AcDbLine
 62
253
  6
CONTINUOUS
 10
-8.1544489962
 20
31.6568163265
 11
-8.7115918589
 21
31.6568163265
  0
LINE
  5
707
100
AcDbEntity
  8
CURVE
100
AcDbLine
 62
253
  6
CONTINUOUS
 10
-0.7499515313
 20
32.1996733011
 11
-0.7272634029
 21
32.1996733011
  0
LINE
  5
708
100
AcDbEntity
  8
CURVE
100
AcDbLine
 62
253
  6
CONTINUOUS
 10
-8.7115918589
 20
32.3068163265
 11
-8.1544489962
 21
32.3068163265
  0
LINE
  5
709
100
AcDbEntity
  8
CURVE
100
AcDbLine
 62
253
  6
CONTINUOUS
 10
-4.7115918589
 20
32.3068163265
 11
-4.1544489962
 21
32.3068163265
  0
LINE
  5
70A
100
AcDbEntity
  8
CURVE
100
AcDbLine
 62
253
  6
CONTINUOUS
 10
-4.1544489962
 20
32.6782450308
 11
-4.7115918589
 21
32.6782450308
  0
LINE
  5
70B
100
AcDbEntity
  8
CURVE
100
AcDbLine
 62
253
  6
CONTINUOUS
 10
-8.1544489962
 20
32.6782450308
 11
-8.7115918589
 21
32.6782450308
  0
LINE
  5
70C
100
AcDbEntity
  8
CURVE
100
AcDbLine
 62
253
  6
CONTINUOUS
 10
-0.7305045639
 20
32.934792489
 11
-0.74671037
 21
32.934792489
  0
LINE
  5
70D
100
AcDbEntity
  8
CURVE
100
AcDbLine
 62
253
  6
CONTINUOUS
 10
-8.7115918589
 20
31.6568163265
 11
-8.8973061335
 21
31.7496734251
  0
LINE
  5
70E
100
AcDbEntity
  8
CURVE
100
AcDbLine
 62
253
  6
CONTINUOUS
 10
-4.1544489962
 20
29.4282448758
 11
-3.9687347022
 21
29.3353877772
  0
LINE
  5
70F
100
AcDbEntity
  8
CURVE
100
AcDbLine
 62
253
  6
CONTINUOUS
 10
-8.1544489962
 20
32.3068163265
 11
-7.9687347022
 21
32.213959228
  0
LINE
  5
710
100
AcDbEntity
  8
CURVE
100
AcDbLine
 62
253
  6
CONTINUOUS
 10
-8.7115918589
 20
32.6782450308
 11
-8.8973061335
 21
32.7711021294
  0
LINE
  5
711
100
AcDbEntity
  8
DRAFT
100
AcDbLine
 62
7
  6
CONTINUOUS
 10
-18.3877428217
 20
42.06153874
 11
-18.2873838421
 21
41.9611797604
  0
LINE
  5
712
100
AcDbEntity
  8
CURVE
100
AcDbLine
 62
253
  6
CONTINUOUS
 10
-8.8973061335
 20
32.7711021294
 11
-9.0830204082
 21
32.9568163265
  0
LINE
  5
713
100
AcDbEntity
  8
DRAFT
100
AcDbLine
 62
7
  6
CONTINUOUS
 10
-18.3877428217
 20
42.36153874
 11
-18.2873838421
 21
42.2611797604
  0
LINE
  5
714
100
AcDbEntity
  8
CURVE
100
AcDbLine
 62
253
  6
CONTINUOUS
 10
-4.8973061335
 20
28.8711020519
 11
-5.0830204082
 21
29.0568163265
  0
LINE
  5
715
100
AcDbEntity
  8
CURVE
100
AcDbLine
 62
253
  6
CONTINUOUS
 10
-7.9687347022
 20
32.213959228
 11
-7.7830204082
 21
32.0282450308
  0
LINE
  5
716
100
AcDbEntity
  8
CURVE
100
AcDbLine
 62
253
  6
CONTINUOUS
 10
-7.9687347022
 20
33.2353879322
 11
-7.7830204082
 21
33.0496737351
  0
LINE
  5
717
100
AcDbEntity
  8
CURVE
100
AcDbLine
 62
253
  6
CONTINUOUS
 10
-3.9687347022
 20
29.3353877772
 11
-3.7830204082
 21
29.1496734251
  0
LINE
  5
718
100
AcDbEntity
  8
CURVE
100
AcDbLine
 62
253
  6
CONTINUOUS
 10
-4.5258775842
 20
31.0996734251
 11
-4.6187346828
 21
31.2544353594
  0
LINE
  5
719
100
AcDbEntity
  8
CURVE
100
AcDbLine
 62
253
  6
CONTINUOUS
 10
-0.6906133494
 20
23.1982448874
 11
-0.667925221
 21
22.845387692
  0
LINE
  5
71A
100
AcDbEntity
  8
CURVE
100
AcDbLine
 62
253
  6
CONTINUOUS
 10
-0.7499515313
 20
36.0811020829
 11
-0.7272634029
 21
35.7282448138
  0
LINE
  5
71B
100
AcDbEntity
  8
CURVE
100
AcDbLine
 62
253
  6
CONTINUOUS
 10
-0.7499515313
 20
37.4925305702
 11
-0.7272634029
 21
37.1396734484
  0
LINE
  5
71C
100
AcDbEntity
  8
CURVE
100
AcDbLine
 62
7
  6
CONTINUOUS
 10
-0.6729879154
 20
31.4899423265
 11
-0.6917655547
 21
31.7913163265
  0
LINE
  5
71D
100
AcDbEntity
  8
CURVE
100
AcDbLine
 62
7
  6
CONTINUOUS
 10
-0.6939131301
 20
38.0468373265
 11
-0.6590848109
 21
37.4772263265
  0
LINE
  5
71E
100
AcDbEntity
  8
CURVE
100
AcDbLine
 62
253
  6
CONTINUOUS
 10
-0.7499515313
 20
22.7544353743
 11
-0.7272634029
 21
22.383006825
  0
LINE
  5
71F
100
AcDbEntity
  8
CURVE
100
AcDbLine
 62
7
  6
CONTINUOUS
 10
-0.6995818204
 20
31.9151283265
 11
-0.7096830261
 21
32.0821453265
  0
LINE
  5
720
100
AcDbEntity
  8
CURVE
100
AcDbLine
 62
7
  6
CONTINUOUS
 10
-0.7096830261
 20
32.6808493265
 11
-0.6590848109
 21
31.7713333265
  0
LINE
  5
721
100
AcDbEntity
  8
CURVE
100
AcDbLine
 62
7
  6
CONTINUOUS
 10
-0.6590848109
 20
36.8723683265
 11
-0.7096830261
 21
37.8044333265
  0
LWPOLYLINE
  5
722
100
AcDbEntity
  8
CURVE
100
AcDbPolyline
 62
7
  6
CONTINUOUS
 90
26
 70
0
 10
-0.6789461731
 20
28.211699317
 10
-0.6784817736
 20
28.2017146828
 10
-0.6780115853
 20
28.1926389298
 10
-0.6775362886
 20
28.1844789022
 10
-0.677056564
 20
28.1772414441
 10
-0.6765730917
 20
28.1709333996
 10
-0.6760889593
 20
28.1655820854
 10
-0.6756022251
 20
28.1611396911
 10
-0.6751133238
 20
28.1575882456
 10
-0.6746226903
 20
28.1549097779
 10
-0.6741307592
 20
28.1530863171
 10
-0.6736379653
 20
28.1520998921
 10
-0.6731447435
 20
28.1519325319
 10
-0.6726515284
 20
28.1525662654
 10
-0.6721587184
 20
28.1539900954
 10
-0.6716668669
 20
28.1562199717
 10
-0.6711764907
 20
28.1592786583
 10
-0.6706881067
 20
28.1631889192
 10
-0.6702022318
 20
28.1679735187
 10
-0.6697193828
 20
28.1736552205
 10
-0.6692400766
 20
28.1802567889
 10
-0.66876483
 20
28.1878009879
 10
-0.6682938198
 20
28.1963122897
 10
-0.6678281299
 20
28.2057801864
 10
-0.6673684965
 20
28.2161943251
 10
-0.6664703451
 20
28.2398199167
  0
LINE
  5
723
100
AcDbEntity
  8
CURVE
100
AcDbLine
 62
7
  6
CONTINUOUS
 10
-0.687177091
 20
34.2511713265
 11
-0.6590848109
 21
33.6459003265
  0
LINE
  5
724
100
AcDbEntity
  8
CURVE
100
AcDbLine
 62
7
  6
CONTINUOUS
 10
-0.6767810719
 20
33.4923643265
 11
-0.7096830261
 21
34.2120323265
  0
LINE
  5
725
100
AcDbEntity
  8
CURVE
100
AcDbLine
 62
7
  6
CONTINUOUS
 10
-0.676842139
 20
28.7474302981
 11
-0.6772693851
 21
28.7565010632
  0
LINE
  5
726
100
AcDbEntity
  8
CURVE
100
AcDbLine
 62
7
  6
CONTINUOUS
 10
-0.6772693851
 20
28.7565010632
 11
-0.6776850834
 21
28.7668687863
  0
LINE
  5
727
100
AcDbEntity
  8
CURVE
100
AcDbLine
 62
7
  6
CONTINUOUS
 10
-0.6798548847
 20
28.2343678529
 11
-0.6789461731
 21
28.211699317
  0
LINE
  5
728
100
AcDbEntity
  8
CURVE
100
AcDbLine
 62
253
  6
CONTINUOUS
 10
-0.6808898657
 20
23.9039591679
 11
-0.667925221
 21
23.5511020093
  0
LINE
  5
729
100
AcDbEntity
  8
CURVE
100
AcDbLine
 62
253
  6
CONTINUOUS
 10
-0.7402280476
 20
30.2295547022
 11
-0.7272634029
 21
29.8766971387
  0
LINE
  5
72A
100
AcDbEntity
  8
CURVE
100
AcDbLine
 62
253
  6
CONTINUOUS
 10
-0.7402280476
 20
31.288125626
 11
-0.7272634029
 21
30.9352686514
  0
LINE
  5
72B
100
AcDbEntity
  8
CURVE
100
AcDbLine
 62
7
  6
CONTINUOUS
 10
-0.6776850834
 20
28.7668687863
 11
-0.6780868066
 21
28.7785419607
  0
LINE
  5
72C
100
AcDbEntity
  8
CURVE
100
AcDbLine
 62
7
  6
CONTINUOUS
 10
-0.6807319959
 20
28.2605865357
 11
-0.6798548847
 21
28.2343678529
  0
LINE
  5
72D
100
AcDbEntity
  8
CURVE
100
AcDbLine
 62
7
  6
CONTINUOUS
 10
-0.6815719354
 20
28.290433432
 11
-0.6807319959
 21
28.2605865357
  0
LINE
  5
72E
100
AcDbEntity
  8
CURVE
100
AcDbLine
 62
7
  6
CONTINUOUS
 10
-0.6780868066
 20
28.7785419607
 11
-0.6786578785
 21
28.7985180217
  0
LINE
  5
72F
100
AcDbEntity
  8
CURVE
100
AcDbLine
 62
7
  6
CONTINUOUS
 10
-0.6786578785
 20
28.7985180217
 11
-0.6791838526
 21
28.8214791213
  0
LINE
  5
730
100
AcDbEntity
  8
CURVE
100
AcDbLine
 62
7
  6
CONTINUOUS
 10
-0.6827392791
 20
28.3417857202
 11
-0.6815719354
 21
28.290433432
  0
LWPOLYLINE
  5
731
100
AcDbEntity
  8
0
100
AcDbPolyline
 62
7
  6
CONTINUOUS
 90
40
 70
0
 10
-0.6330204082
 20
44.1565874745
 10
-0.633419254
 20
44.1767162698
 10
-0.6346260819
 20
44.1968075211
 10
-0.6366388412
 20
44.2168288995
 10
-0.6394538187
 20
44.2367442335
 10
-0.6430664655
 20
44.2565254677
 10
-0.647472762
 20
44.2761524666
 10
-0.6526669853
 20
44.2955949827
 10
-0.6586416788
 20
44.3148196844
 10
-0.6653902238
 20
44.3338016948
 10
-0.6729078924
 20
44.3525202827
 10
-0.6811806671
 20
44.3709334178
 10
-0.690183694
 20
44.3889859207
 10
-0.6998919621
 20
44.4066335385
 10
-0.7102961967
 20
44.4238646872
 10
-0.7213930992
 20
44.4406740164
 10
-0.7331773216
 20
44.457048387
 10
-0.7456210636
 20
44.472944337
 10
-0.758685455
 20
44.488312584
 10
-0.7723335684
 20
44.5031146306
 10
-0.7865548285
 20
44.5173436896
 10
-0.8013483979
 20
44.5309990763
 10
-0.8167069235
 20
44.5440698588
 10
-0.8325923381
 20
44.5565196246
 10
-0.8489568528
 20
44.5683107734
 10
-0.8657576999
 20
44.579415706
 10
-0.8829812282
 20
44.5898285262
 10
-0.900621894
 20
44.5995458795
 10
-0.918669139
 20
44.6085587516
 10
-0.9370777756
 20
44.6168414517
 10
-0.9557893073
 20
44.6243680025
 10
-0.9747586486
 20
44.6311234851
 10
-0.993967764
 20
44.6371046617
 10
-1.0133971789
 20
44.6423069884
 10
-1.0330266972
 20
44.6467249119
 10
-1.0528132315
 20
44.6503486236
 10
-1.072702541
 20
44.6531702944
 10
-1.0926546646
 20
44.6551880338
 10
-1.1126445089
 20
44.6564029526
 10
-1.1326398084
 20
44.6568163265
  0
LINE
  5
732
100
AcDbEntity
  8
CURVE
100
AcDbLine
 62
253
  6
CONTINUOUS
 10
-0.6873721881
 20
21.5221735956
 11
-0.6906133494
 21
21.6986020829
  0
LINE
  5
733
100
AcDbEntity
  8
CURVE
100
AcDbLine
 62
253
  6
CONTINUOUS
 10
-0.7369868859
 20
28.0241977276
 11
-0.7402280476
 21
28.200625626
  0
LINE
  5
734
100
AcDbEntity
  8
CURVE
100
AcDbLine
 62
253
  6
CONTINUOUS
 10
-0.7305045639
 20
39.2568163265
 11
-0.7272634029
 21
39.0803877472
  0
LINE
  5
735
100
AcDbEntity
  8
CURVE
100
AcDbLine
 62
7
  6
CONTINUOUS
 10
-0.6791838526
 20
28.8214791213
 11
-0.6797997681
 21
28.8567070933
  0
LINE
  5
736
100
AcDbEntity
  8
CURVE
100
AcDbLine
 62
7
  6
CONTINUOUS
 10
-0.6844499929
 20
28.4422867482
 11
-0.6827392791
 21
28.3417857202
  0
LINE
  5
737
100
AcDbEntity
  8
CURVE
100
AcDbLine
 62
7
  6
CONTINUOUS
 10
-0.6854541478
 20
28.5147401408
 11
-0.6844499929
 21
28.4422867482
  0
LINE
  5
738
100
AcDbEntity
  8
CURVE
100
AcDbLine
 62
7
  6
CONTINUOUS
 10
-0.6797997681
 20
28.8567070933
 11
-0.6804195357
 21
28.9074347871
  0
LINE
  5
739
100
AcDbEntity
  8
CURVE
100
AcDbLine
 62
7
  6
CONTINUOUS
 10
-0.6856843293
 20
28.5424626518
 11
-0.6854541478
 21
28.5147401408
  0
LINE
  5
73A
100
AcDbEntity
  8
CURVE
100
AcDbLine
 62
7
  6
CONTINUOUS
 10
-0.6804195357
 20
28.9074347871
 11
-0.6810403359
 21
28.9882072455
  0
LINE
  5
73B
100
AcDbEntity
  8
CURVE
100
AcDbLine
 62
7
  6
CONTINUOUS
 10
-0.6676754101
 20
9.8853901212
 11
-0.6668457542
 21
9.76615582
  0
LINE
  5
73C
100
AcDbEntity
  8
CURVE
100
AcDbLine
 62
7
  6
CONTINUOUS
 10
-0.6589109118
 20
9.8604360081
 11
-0.6610357235
 21
10.1773745951
  0
LINE
  5
73D
100
AcDbEntity
  8
CURVE
100
AcDbLine
 62
7
  6
CONTINUOUS
 10
-0.7021846941
 20
9.2328129127
 11
-0.7027110091
 21
9.3567004771
  0
LINE
  5
73E
100
AcDbEntity
  8
CURVE
100
AcDbLine
 62
7
  6
CONTINUOUS
 10
-0.6668457542
 20
9.76615582
 11
-0.6663215421
 21
9.641661588
  0
LINE
  5
73F
100
AcDbEntity
  8
CURVE
100
AcDbLine
 62
7
  6
CONTINUOUS
 10
-0.6857652407
 20
28.5622606166
 11
-0.6856843293
 21
28.5424626518
  0
LINE
  5
740
100
AcDbEntity
  8
CURVE
100
AcDbLine
 62
7
  6
CONTINUOUS
 10
-0.6810403359
 20
28.9882072455
 11
-0.6814477238
 21
29.0884316319
  0
LINE
  5
741
100
AcDbEntity
  8
CURVE
100
AcDbLine
 62
7
  6
CONTINUOUS
 10
-0.6677047203
 20
29.5356175984
 11
-0.6673189011
 21
29.3556644712
  0
LINE
  5
742
100
AcDbEntity
  8
CURVE
100
AcDbLine
 62
7
  6
CONTINUOUS
 10
-0.7109274495
 20
9.4705542185
 11
-0.7099728141
 21
9.1102136429
  0
LINE
  5
743
100
AcDbEntity
  8
CURVE
100
AcDbLine
 62
7
  6
CONTINUOUS
 10
-0.7027110091
 20
9.3567004771
 11
-0.7029204888
 21
9.4812785206
  0
LINE
  5
744
100
AcDbEntity
  8
CURVE
100
AcDbLine
 62
7
  6
CONTINUOUS
 10
-0.6663215421
 20
9.641661588
 11
-0.6661132994
 21
9.5165253424
  0
LINE
  5
745
100
AcDbEntity
  8
CURVE
100
AcDbLine
 62
7
  6
CONTINUOUS
 10
-0.6580909899
 20
9.5002160263
 11
-0.6589109118
 21
9.8604360081
  0
LINE
  5
746
100
AcDbEntity
  8
RACCORDO
100
AcDbLine
 62
7
  6
CONTINUOUS
 10
-0.7699301065
 20
5.6655919364
 11
-0.7699301065
 21
5.8068163265
  0
LINE
  5
747
100
AcDbEntity
  8
ASSI
100
AcDbLine
 62
7
  6
CONTINUOUS
 10
-0.7699301065
 20
5.6655919364
 11
-0.7699301065
 21
5.8068163265
  0
LINE
  5
748
100
AcDbEntity
  8
RACCORDO
100
AcDbLine
 62
7
  6
CONTINUOUS
 10
-0.7699301065
 20
10.7068163265
 11
-0.7699301065
 21
10.8068163265
  0
LINE
  5
749
100
AcDbEntity
  8
ASSI
100
AcDbLine
 62
7
  6
CONTINUOUS
 10
-0.7699301065
 20
10.7068163265
 11
-0.7699301065
 21
10.8068163265
  0
LINE
  5
74A
100
AcDbEntity
  8
RACCORDO
100
AcDbLine
 62
7
  6
CONTINUOUS
 10
-0.7699301065
 20
15.7068163265
 11
-0.7699301065
 21
15.8068163265
  0
LINE
  5
74B
100
AcDbEntity
  8
ASSI
100
AcDbLine
 62
7
  6
CONTINUOUS
 10
-0.7699301065
 20
15.7068163265
 11
-0.7699301065
 21
15.8068163265
  0
LINE
  5
74C
100
AcDbEntity
  8
RACCORDO
100
AcDbLine
 62
7
  6
CONTINUOUS
 10
-0.7699301065
 20
20.7068163265
 11
-0.7699301065
 21
20.8068163265
  0
LINE
  5
74D
100
AcDbEntity
  8
ASSI
100
AcDbLine
 62
7
  6
CONTINUOUS
 10
-0.7699301065
 20
20.7068163265
 11
-0.7699301065
 21
20.8068163265
  0
LINE
  5
74E
100
AcDbEntity
  8
RACCORDO
100
AcDbLine
 62
7
  6
CONTINUOUS
 10
-0.7699301065
 20
25.7068163265
 11
-0.7699301065
 21
38.8480407166
  0
LINE
  5
74F
100
AcDbEntity
  8
ASSI
100
AcDbLine
 62
7
  6
CONTINUOUS
 10
-0.7699301065
 20
25.7068163265
 11
-0.7699301065
 21
38.8480407166
  0
LINE
  5
750
100
AcDbEntity
  8
RACCORDO
100
AcDbLine
 62
7
  6
CONTINUOUS
 10
-0.7552058627
 20
4.6357281502
 11
-0.7552058627
 21
39.8779045029
  0
LINE
  5
751
100
AcDbEntity
  8
0
100
AcDbLine
 62
7
  6
CONTINUOUS
 10
-0.7552058627
 20
4.6357281502
 11
-0.7552058627
 21
39.8779045029
  0
LINE
  5
752
100
AcDbEntity
  8
CURVE
100
AcDbLine
 62
253
  6
CONTINUOUS
 10
-0.7444249358
 20
9.4187210669
 11
-0.7444249358
 21
9.3282447685
  0
LINE
  5
753
100
AcDbEntity
  8
CURVE
100
AcDbLine
 62
253
  6
CONTINUOUS
 10
-0.7434692086
 20
37.3749115296
 11
-0.7434692086
 21
36.9044353671
  0
LINE
  5
754
100
AcDbEntity
  8
CURVE
100
AcDbLine
 62
253
  6
CONTINUOUS
 10
-0.7434692086
 20
22.6306258579
 11
-0.7434692086
 21
22.1353877921
  0
LINE
  5
755
100
AcDbEntity
  8
CURVE
100
AcDbLine
 62
253
  6
CONTINUOUS
 10
-0.7402280476
 20
28.200625626
 11
-0.7402280476
 21
28.6416977276
  0
LINE
  5
756
100
AcDbEntity
  8
CURVE
100
AcDbLine
 62
253
  6
CONTINUOUS
 10
-0.7369868859
 20
29.1709826006
 11
-0.7369868859
 21
29.5238401641
  0
LINE
  5
757
100
AcDbEntity
  8
CURVE
100
AcDbLine
 62
253
  6
CONTINUOUS
 10
-0.7369868859
 20
35.0519355144
 11
-0.7369868859
 21
35.404792489
  0
LINE
  5
758
100
AcDbEntity
  8
CURVE
100
AcDbLine
 62
253
  6
CONTINUOUS
 10
-0.7310032035
 20
12.0425305475
 11
-0.7310032035
 21
12.3139589895
  0
LINE
  5
759
100
AcDbEntity
  8
CURVE
100
AcDbLine
 62
253
  6
CONTINUOUS
 10
-0.7272634029
 20
39.0803877472
 11
-0.7272634029
 21
38.727530607
  0
LINE
  5
75A
100
AcDbEntity
  8
CURVE
100
AcDbLine
 62
253
  6
CONTINUOUS
 10
-0.7272634029
 20
35.404792489
 11
-0.7272634029
 21
34.8755067326
  0
LINE
  5
75B
100
AcDbEntity
  8
CURVE
100
AcDbLine
 62
253
  6
CONTINUOUS
 10
-0.7272634029
 20
33.552292489
 11
-0.7272634029
 21
33.1112209763
  0
LINE
  5
75C
100
AcDbEntity
  8
CURVE
100
AcDbLine
 62
253
  6
CONTINUOUS
 10
-0.7272634029
 20
29.5238401641
 11
-0.7272634029
 21
28.9945547022
  0
LINE
  5
75D
100
AcDbEntity
  8
CURVE
100
AcDbLine
 62
253
  6
CONTINUOUS
 10
-0.7272634029
 20
28.6416977276
 11
-0.7272634029
 21
28.200625626
  0
LINE
  5
75E
100
AcDbEntity
  8
CURVE
100
AcDbLine
 62
253
  6
CONTINUOUS
 10
-0.7272634029
 20
23.8687210996
 11
-0.7272634029
 21
23.1258639236
  0
LINE
  5
75F
100
AcDbEntity
  8
CURVE
100
AcDbLine
 62
253
  6
CONTINUOUS
 10
-0.7167919591
 20
14.7568163265
 11
-0.7167919591
 21
14.6211021055
  0
LINE
  5
760
100
AcDbEntity
  8
CURVE
100
AcDbLine
 62
253
  6
CONTINUOUS
 10
-0.7167919591
 20
11.2282447685
 11
-0.7167919591
 21
10.2782447685
  0
LINE
  5
761
100
AcDbEntity
  8
CURVE
100
AcDbLine
 62
253
  6
CONTINUOUS
 10
-0.7167919591
 20
5.6639594425
 11
-0.7167919591
 21
5.5282447685
  0
LINE
  5
762
100
AcDbEntity
  8
CURVE
100
AcDbLine
 62
253
  6
CONTINUOUS
 10
-0.7167919591
 20
6.8853878845
 11
-0.7167919591
 21
7.2925310005
  0
LINE
  5
763
100
AcDbEntity
  8
CURVE
100
AcDbLine
 62
253
  6
CONTINUOUS
 10
-0.7167919591
 20
12.0425305475
 11
-0.7167919591
 21
12.5853878845
  0
LINE
  5
764
100
AcDbEntity
  8
CURVE
100
AcDbLine
 62
253
  6
CONTINUOUS
 10
-0.7167919591
 20
15.9782448818
 11
-0.7167919591
 21
16.385387743
  0
LINE
  5
765
100
AcDbEntity
  8
CURVE
100
AcDbLine
 62
7
  6
CONTINUOUS
 10
-0.7098114562
 20
5.2553793265
 11
-0.7098114562
 21
5.7727383265
  0
LINE
  5
766
100
AcDbEntity
  8
CURVE
100
AcDbLine
 62
7
  6
CONTINUOUS
 10
-0.7098114562
 20
7.0981843265
 11
-0.7098114562
 21
7.5966063265
  0
LINE
  5
767
100
AcDbEntity
  8
CURVE
100
AcDbLine
 62
7
  6
CONTINUOUS
 10
-0.7098114562
 20
10.8989323265
 11
-0.7098114562
 21
11.5502353265
  0
LINE
  5
768
100
AcDbEntity
  8
CURVE
100
AcDbLine
 62
7
  6
CONTINUOUS
 10
-0.7098114562
 20
12.8852313265
 11
-0.7098114562
 21
13.4029783265
  0
LINE
  5
769
100
AcDbEntity
  8
CURVE
100
AcDbLine
 62
7
  6
CONTINUOUS
 10
-0.7098114562
 20
14.0187093265
 11
-0.7098114562
 21
14.5364783265
  0
LINE
  5
76A
100
AcDbEntity
  8
CURVE
100
AcDbLine
 62
7
  6
CONTINUOUS
 10
-0.7098114562
 20
15.1591503265
 11
-0.7098114562
 21
17.2197223265
  0
LINE
  5
76B
100
AcDbEntity
  8
CURVE
100
AcDbLine
 62
7
  6
CONTINUOUS
 10
-0.7096830261
 20
36.6477513265
 11
-0.7096830261
 21
36.0424803265
  0
LINE
  5
76C
100
AcDbEntity
  8
CURVE
100
AcDbLine
 62
7
  6
CONTINUOUS
 10
-0.7096830322
 20
30.1183836709
 11
-0.7096830322
 21
29.5155477098
  0
LINE
  5
76D
100
AcDbEntity
  8
CURVE
100
AcDbLine
 62
7
  6
CONTINUOUS
 10
-0.7096830322
 20
28.5886580649
 11
-0.7096830322
 21
28.0064573413
  0
LINE
  5
76E
100
AcDbEntity
  8
CURVE
100
AcDbLine
 62
7
  6
CONTINUOUS
 10
-0.7096830261
 20
30.2961203265
 11
-0.7096830261
 21
30.9340513265
  0
LINE
  5
76F
100
AcDbEntity
  8
CURVE
100
AcDbLine
 62
7
  6
CONTINUOUS
 10
-0.7096830261
 20
32.0821453265
 11
-0.7096830261
 21
32.6808493265
  0
LINE
  5
770
100
AcDbEntity
  8
CURVE
100
AcDbLine
 62
7
  6
CONTINUOUS
 10
-0.7096830261
 20
32.7758933265
 11
-0.7096830261
 21
33.3680093265
  0
LINE
  5
771
100
AcDbEntity
  8
CURVE
100
AcDbLine
 62
7
  6
CONTINUOUS
 10
-0.7096830261
 20
34.2120323265
 11
-0.7096830261
 21
34.2969213265
  0
LINE
  5
772
100
AcDbEntity
  8
CURVE
100
AcDbLine
 62
7
  6
CONTINUOUS
 10
-0.7096830261
 20
35.1375953265
 11
-0.7096830261
 21
35.7166433265
  0
LINE
  5
773
100
AcDbEntity
  8
CURVE
100
AcDbLine
 62
7
  6
CONTINUOUS
 10
-0.7096830261
 20
37.8044333265
 11
-0.7096830261
 21
38.3378293265
  0
LINE
  5
774
100
AcDbEntity
  8
CURVE
100
AcDbLine
 62
7
  6
CONTINUOUS
 10
-0.7017827572
 20
16.7019843265
 11
-0.701782478
 21
15.1591503265
  0
LINE
  5
775
100
AcDbEntity
  8
CURVE
100
AcDbLine
 62
7
  6
CONTINUOUS
 10
-0.6995818204
 20
31.0908493265
 11
-0.6995818204
 21
31.9151283265
  0
LINE
  5
776
100
AcDbEntity
  8
CURVE
100
AcDbLine
 62
7
  6
CONTINUOUS
 10
-0.6917655547
 20
31.7913163265
 11
-0.6917655547
 21
31.2118123265
  0
LINE
  5
777
100
AcDbEntity
  8
CURVE
100
AcDbLine
 62
253
  6
CONTINUOUS
 10
-0.6906133494
 20
21.022292489
 11
-0.6906133494
 21
20.4930067326
  0
LINE
  5
778
100
AcDbEntity
  8
CURVE
100
AcDbLine
 62
253
  6
CONTINUOUS
 10
-0.6906133494
 20
21.6986020829
 11
-0.6906133494
 21
22.1396734484
  0
LINE
  5
779
100
AcDbEntity
  8
CURVE
100
AcDbLine
 62
7
  6
CONTINUOUS
 10
-0.6878601963
 20
15.2746893265
 11
-0.6878603708
 21
16.7019843265
  0
LINE
  5
77A
100
AcDbEntity
  8
CURVE
100
AcDbLine
 62
253
  6
CONTINUOUS
 10
-0.6841310267
 20
23.0806258468
 11
-0.6841310267
 21
22.6101496108
  0
LINE
  5
77B
100
AcDbEntity
  8
CURVE
100
AcDbLine
 62
7
  6
CONTINUOUS
 10
-0.6814477238
 20
29.0884316319
 11
-0.6815949182
 21
29.5356175984
  0
LINE
  5
77C
100
AcDbEntity
  8
CURVE
100
AcDbLine
 62
7
  6
CONTINUOUS
 10
-0.6798308691
 20
16.7019843265
 11
-0.6798310436
 21
15.2746893265
  0
LINE
  5
77D
100
AcDbEntity
  8
CURVE
100
AcDbLine
 62
253
  6
CONTINUOUS
 10
-0.677648704
 20
20.6694355144
 11
-0.677648704
 21
21.022292489
  0
LINE
  5
77E
100
AcDbEntity
  8
CURVE
100
AcDbLine
 62
253
  6
CONTINUOUS
 10
-0.667925221
 20
22.1396734484
 11
-0.667925221
 21
21.6986020829
  0
LINE
  5
77F
100
AcDbEntity
  8
CURVE
100
AcDbLine
 62
253
  6
CONTINUOUS
 10
-0.667925221
 20
21.022292489
 11
-0.667925221
 21
20.4930067326
  0
LINE
  5
780
100
AcDbEntity
  8
CURVE
100
AcDbLine
 62
7
  6
CONTINUOUS
 10
-0.6672519737
 20
15.1708033265
 11
-0.667251869
 21
16.7019843265
  0
LINE
  5
781
100
AcDbEntity
  8
CURVE
100
AcDbLine
 62
7
  6
CONTINUOUS
 10
-0.6592229955
 20
17.2197223265
 11
-0.6592229955
 21
15.1708033265
  0
LINE
  5
782
100
AcDbEntity
  8
CURVE
100
AcDbLine
 62
7
  6
CONTINUOUS
 10
-0.6592229955
 20
14.5364783265
 11
-0.6592229955
 21
14.0187093265
  0
LINE
  5
783
100
AcDbEntity
  8
CURVE
100
AcDbLine
 62
7
  6
CONTINUOUS
 10
-0.6592229955
 20
13.4029783265
 11
-0.6592229955
 21
12.8852313265
  0
LINE
  5
784
100
AcDbEntity
  8
CURVE
100
AcDbLine
 62
7
  6
CONTINUOUS
 10
-0.6592229955
 20
11.5999803265
 11
-0.6592229955
 21
10.9057663265
  0
LINE
  5
785
100
AcDbEntity
  8
CURVE
100
AcDbLine
 62
7
  6
CONTINUOUS
 10
-0.6592229955
 20
7.5966063265
 11
-0.6592229955
 21
7.0907153265
  0
LINE
  5
786
100
AcDbEntity
  8
CURVE
100
AcDbLine
 62
7
  6
CONTINUOUS
 10
-0.6592229955
 20
5.7538073265
 11
-0.6592229955
 21
5.2553793265
  0
LINE
  5
787
100
AcDbEntity
  8
CURVE
100
AcDbLine
 62
7
  6
CONTINUOUS
 10
-0.6590848109
 20
39.2570763265
 11
-0.6590848109
 21
38.5995643265
  0
LINE
  5
788
100
AcDbEntity
  8
CURVE
100
AcDbLine
 62
7
  6
CONTINUOUS
 10
-0.6590848109
 20
37.4772263265
 11
-0.6590848109
 21
36.8723683265
  0
LINE
  5
789
100
AcDbEntity
  8
CURVE
100
AcDbLine
 62
7
  6
CONTINUOUS
 10
-0.6590848109
 20
35.4548213265
 11
-0.6590848109
 21
34.8500503265
  0
LINE
  5
78A
100
AcDbEntity
  8
CURVE
100
AcDbLine
 62
7
  6
CONTINUOUS
 10
-0.6590848109
 20
33.6459003265
 11
-0.6590848109
 21
33.0470433265
  0
LINE
  5
78B
100
AcDbEntity
  8
CURVE
100
AcDbLine
 62
7
  6
CONTINUOUS
 10
-0.6590848109
 20
31.7713333265
 11
-0.6590848109
 21
31.1858063265
  0
LINE
  5
78C
100
AcDbEntity
  8
CURVE
100
AcDbLine
 62
7
  6
CONTINUOUS
 10
-0.6590817746
 20
36.0424803265
 11
-0.6590817746
 21
36.6477513265
  0
LINE
  5
78D
100
AcDbEntity
  8
0
100
AcDbLine
 62
7
  6
CONTINUOUS
 10
-0.6504741437
 20
3.7393625909
 11
-0.6504741437
 21
4.3375269142
  0
LINE
  5
78E
100
AcDbEntity
  8
0
100
AcDbLine
 62
7
  6
CONTINUOUS
 10
-0.6504741437
 20
40.1761057389
 11
-0.6504741437
 21
40.7742700621
  0
LINE
  5
78F
100
AcDbEntity
  8
0
100
AcDbLine
 62
7
  6
CONTINUOUS
 10
-0.641747276
 20
0.3626172333
 11
-0.641747276
 21
3.7480894587
  0
LINE
  5
790
100
AcDbEntity
  8
0
100
AcDbLine
 62
7
  6
CONTINUOUS
 10
-0.641747276
 20
40.7655431943
 11
-0.641747276
 21
44.1510154198
  0
LINE
  5
791
100
AcDbEntity
  8
RACCORDO
100
AcDbLine
 62
7
  6
CONTINUOUS
 10
-0.6330204082
 20
4.5851172778
 11
-0.6330204082
 21
39.9285153752
  0
LINE
  5
792
100
AcDbEntity
  8
0
100
AcDbLine
 62
7
  6
CONTINUOUS
 10
-0.6330204082
 20
0.3567994035
 11
-0.6330204082
 21
44.1568332496
  0
LINE
  5
793
100
AcDbEntity
  8
CURVE
100
AcDbLine
 62
7
  6
CONTINUOUS
 10
-0.6673189011
 20
29.3556644712
 11
-0.6672573874
 21
29.1742248124
  0
LINE
  5
794
100
AcDbEntity
  8
CURVE
100
AcDbLine
 62
7
  6
CONTINUOUS
 10
-0.6584588252
 20
29.1767952641
 11
-0.6596759674
 21
30.1183836709
  0
LINE
  5
795
100
AcDbEntity
  8
CURVE
100
AcDbLine
 62
7
  6
CONTINUOUS
 10
-0.7029204888
 20
9.4812785206
 11
-0.7028044731
 21
9.6057721
  0
LINE
  5
796
100
AcDbEntity
  8
CURVE
100
AcDbLine
 62
7
  6
CONTINUOUS
 10
-0.6661132994
 20
9.5165253424
 11
-0.6662300979
 21
9.3924231895
  0
LINE
  5
797
100
AcDbEntity
  8
CURVE
100
AcDbLine
 62
7
  6
CONTINUOUS
 10
-0.6672573874
 20
29.1742248124
 11
-0.6674974768
 21
29.0282593896
  0
LINE
  5
798
100
AcDbEntity
  8
CURVE
100
AcDbLine
 62
7
  6
CONTINUOUS
 10
-0.689881684
 20
29.5155477098
 11
-0.6900193539
 21
29.1188414755
  0
LINE
  5
799
100
AcDbEntity
  8
CURVE
100
AcDbLine
 62
7
  6
CONTINUOUS
 10
-0.7102428584
 20
9.8304852327
 11
-0.7109274495
 21
9.4705542185
  0
LINE
  5
79A
100
AcDbEntity
  8
CURVE
100
AcDbLine
 62
7
  6
CONTINUOUS
 10
-0.6589110565
 20
9.1400480239
 11
-0.6580909899
 21
9.5002160263
  0
LINE
  5
79B
100
AcDbEntity
  8
CURVE
100
AcDbLine
 62
7
  6
CONTINUOUS
 10
-0.7028044731
 20
9.6057721
 11
-0.7023694709
 21
9.7309214103
  0
LINE
  5
79C
100
AcDbEntity
  8
CURVE
100
AcDbLine
 62
7
  6
CONTINUOUS
 10
-0.6662300979
 20
9.3924231895
 11
-0.6666670979
 21
9.2678721107
  0
LINE
  5
79D
100
AcDbEntity
  8
CURVE
100
AcDbLine
 62
7
  6
CONTINUOUS
 10
-0.6597987502
 20
28.6957295664
 11
-0.6584588252
 21
29.1767952641
  0
LINE
  5
79E
100
AcDbEntity
  8
RACCORDO
100
AcDbLine
 62
7
  6
CONTINUOUS
 10
-0.8427642688
 20
9.5268108177
 11
-0.8414966347
 21
9.7403371497
  0
LINE
  5
79F
100
AcDbEntity
  8
ASSI
100
AcDbLine
 62
7
  6
CONTINUOUS
 10
-0.84279454
 20
9.5210795754
 11
-0.8414902847
 21
9.7412909341
  0
LINE
  5
7A0
100
AcDbEntity
  8
CURVE
100
AcDbLine
 62
7
  6
CONTINUOUS
 10
-0.6674974768
 20
29.0282593896
 11
-0.6679656011
 21
28.9416967633
  0
LINE
  5
7A1
100
AcDbEntity
  8
CURVE
100
AcDbLine
 62
7
  6
CONTINUOUS
 10
-0.7023694709
 20
9.7309214103
 11
-0.701626017
 21
9.8521301661
  0
LINE
  5
7A2
100
AcDbEntity
  8
CURVE
100
AcDbLine
 62
7
  6
CONTINUOUS
 10
-0.6666670979
 20
9.2678721107
 11
-0.6674124163
 21
9.1472719612
  0
LINE
  5
7A3
100
AcDbEntity
  8
RACCORDO
100
AcDbLine
 62
7
  6
CONTINUOUS
 10
-0.8414966347
 20
9.7403371497
 11
-0.8400790228
 21
9.9316793855
  0
LINE
  5
7A4
100
AcDbEntity
  8
ASSI
100
AcDbLine
 62
7
  6
CONTINUOUS
 10
-0.8414902847
 20
9.7412909341
 11
-0.8400270124
 21
9.9379987885
  0
LINE
  5
7A5
100
AcDbEntity
  8
CURVE
100
AcDbLine
 62
7
  6
CONTINUOUS
 10
-0.6900193539
 20
29.1188414755
 11
-0.690455775
 21
29.0496057467
  0
LINE
  5
7A6
100
AcDbEntity
  8
CURVE
100
AcDbLine
 62
7
  6
CONTINUOUS
 10
-0.708233301
 20
10.149925706
 11
-0.7102428584
 21
9.8304852327
  0
LINE
  5
7A7
100
AcDbEntity
  8
CURVE
100
AcDbLine
 62
7
  6
CONTINUOUS
 10
-0.6610360302
 20
8.8231605586
 11
-0.6589110565
 21
9.1400480239
  0
LINE
  5
7A8
100
AcDbEntity
  8
CURVE
100
AcDbLine
 62
7
  6
CONTINUOUS
 10
-0.6608676974
 20
28.5427851486
 11
-0.6597987502
 21
28.6957295664
  0
LINE
  5
7A9
100
AcDbEntity
  8
RACCORDO
100
AcDbLine
 62
7
  6
CONTINUOUS
 10
-0.8400790228
 20
9.9316793855
 11
-0.838549401
 21
10.1008477798
  0
LINE
  5
7AA
100
AcDbEntity
  8
ASSI
100
AcDbLine
 62
7
  6
CONTINUOUS
 10
-0.8400270124
 20
9.9379987885
 11
-0.8384452563
 21
10.1111841544
  0
LINE
  5
7AB
100
AcDbEntity
  8
CURVE
100
AcDbLine
 62
7
  6
CONTINUOUS
 10
-0.701626017
 20
9.8521301661
 11
-0.7007512435
 21
9.9493863354
  0
LINE
  5
7AC
100
AcDbEntity
  8
CURVE
100
AcDbLine
 62
7
  6
CONTINUOUS
 10
-0.6674124163
 20
9.1472719612
 11
-0.668287622
 21
9.0505053031
  0
LINE
  5
7AD
100
AcDbEntity
  8
ASSI
100
AcDbLine
 62
7
  6
CONTINUOUS
 10
-0.8394469694
 20
15.0056920114
 11
-0.8378233837
 21
15.1701120003
  0
LINE
  5
7AE
100
AcDbEntity
  8
RACCORDO
100
AcDbLine
 62
7
  6
CONTINUOUS
 10
-0.8393273772
 20
15.0190258404
 11
-0.8377452958
 21
15.1771889998
  0
LINE
  5
7AF
100
AcDbEntity
  8
CURVE
100
AcDbLine
 62
7
  6
CONTINUOUS
 10
-0.686683084
 20
28.4966711705
 11
-0.686064232
 21
28.5622606166
  0
LINE
  5
7B0
100
AcDbEntity
  8
CURVE
100
AcDbLine
 62
7
  6
CONTINUOUS
 10
-0.690455775
 20
29.0496057467
 11
-0.6908773821
 21
29.0093272077
  0
LINE
  5
7B1
100
AcDbEntity
  8
CURVE
100
AcDbLine
 62
7
  6
CONTINUOUS
 10
-0.6679656011
 20
28.9416967633
 11
-0.6686411449
 21
28.8720686792
  0
LINE
  5
7B2
100
AcDbEntity
  8
RACCORDO
100
AcDbLine
 62
7
  6
CONTINUOUS
 10
-0.838549401
 20
10.1008477798
 11
-0.8369185545
 21
10.2480947516
  0
LINE
  5
7B3
100
AcDbEntity
  8
ASSI
100
AcDbLine
 62
7
  6
CONTINUOUS
 10
-0.8384452563
 20
10.1111841544
 11
-0.8367575106
 21
10.2611070235
  0
LINE
  5
7B4
100
AcDbEntity
  8
CURVE
100
AcDbLine
 62
7
  6
CONTINUOUS
 10
-0.7059960831
 20
10.3579339702
 11
-0.708233301
 21
10.149925706
  0
LINE
  5
7B5
100
AcDbEntity
  8
ASSI
100
AcDbLine
 62
7
  6
CONTINUOUS
 10
-0.8378233837
 20
15.1701120003
 11
-0.8361051865
 21
15.3113853707
  0
LINE
  5
7B6
100
AcDbEntity
  8
CURVE
100
AcDbLine
 62
7
  6
CONTINUOUS
 10
-0.6869435319
 20
28.476550321
 11
-0.686683084
 21
28.4966711705
  0
LINE
  5
7B7
100
AcDbEntity
  8
RACCORDO
100
AcDbLine
 62
7
  6
CONTINUOUS
 10
-0.8377452958
 20
15.1771889998
 11
-0.8360755025
 21
15.3135822863
  0
LINE
  5
7B8
100
AcDbEntity
  8
CURVE
100
AcDbLine
 62
7
  6
CONTINUOUS
 10
-0.663351787
 20
8.6187573955
 11
-0.6610360302
 21
8.8231605586
  0
LINE
  5
7B9
100
AcDbEntity
  8
CURVE
100
AcDbLine
 62
7
  6
CONTINUOUS
 10
-0.7007512435
 20
9.9493863354
 11
-0.6996642072
 21
10.0374461611
  0
LINE
  5
7BA
100
AcDbEntity
  8
CURVE
100
AcDbLine
 62
7
  6
CONTINUOUS
 10
-0.668287622
 20
9.0505053031
 11
-0.6693730846
 21
8.9628698749
  0
LINE
  5
7BB
100
AcDbEntity
  8
CURVE
100
AcDbLine
 62
7
  6
CONTINUOUS
 10
-0.6622362708
 20
28.4315947624
 11
-0.6608676974
 21
28.5427851486
  0
LINE
  5
7BC
100
AcDbEntity
  8
RACCORDO
100
AcDbLine
 62
7
  6
CONTINUOUS
 10
-0.8369185545
 20
10.2480947516
 11
-0.8352198634
 21
10.3735574929
  0
LINE
  5
7BD
100
AcDbEntity
  8
CURVE
100
AcDbLine
 62
7
  6
CONTINUOUS
 10
-0.6686411449
 20
28.8720686792
 11
-0.6691366989
 21
28.8365321917
  0
LINE
  5
7BE
100
AcDbEntity
  8
ASSI
100
AcDbLine
 62
7
  6
CONTINUOUS
 10
-0.8367575106
 20
10.2611070235
 11
-0.8350016107
 21
10.3878400193
  0
LINE
  5
7BF
100
AcDbEntity
  8
RACCORDO
100
AcDbLine
 62
7
  6
CONTINUOUS
 10
-0.8360755025
 20
15.3135822863
 11
-0.8345707093
 21
15.4148697783
  0
LINE
  5
7C0
100
AcDbEntity
  8
ASSI
100
AcDbLine
 62
7
  6
CONTINUOUS
 10
-0.8361051865
 20
15.3113853707
 11
-0.8345550805
 21
15.4158215509
  0
LINE
  5
7C1
100
AcDbEntity
  8
CURVE
100
AcDbLine
 62
253
  6
CONTINUOUS
 10
-0.7215290405
 20
15.7068163265
 11
-0.7167919591
 21
15.9782448818
  0
LINE
  5
7C2
100
AcDbEntity
  8
CURVE
100
AcDbLine
 62
253
  6
CONTINUOUS
 10
-0.7167919591
 20
14.6211021055
 11
-0.7215290405
 21
14.349673437
  0
LINE
  5
7C3
100
AcDbEntity
  8
CURVE
100
AcDbLine
 62
253
  6
CONTINUOUS
 10
-0.7357402859
 20
11.7711021055
 11
-0.7310032035
 21
12.0425305475
  0
LINE
  5
7C4
100
AcDbEntity
  8
CURVE
100
AcDbLine
 62
253
  6
CONTINUOUS
 10
-0.7215290405
 20
6.6139594425
 11
-0.7167919591
 21
6.8853878845
  0
LINE
  5
7C5
100
AcDbEntity
  8
CURVE
100
AcDbLine
 62
253
  6
CONTINUOUS
 10
-0.7167919591
 20
5.5282447685
 11
-0.7215290405
 21
5.2568163265
  0
LINE
  5
7C6
100
AcDbEntity
  8
CURVE
100
AcDbLine
 62
7
  6
CONTINUOUS
 10
-0.6632565649
 20
28.3697722684
 11
-0.6622362708
 21
28.4315947624
  0
LINE
  5
7C7
100
AcDbEntity
  8
CURVE
100
AcDbLine
 62
7
  6
CONTINUOUS
 10
-0.7039138119
 20
10.4924404709
 11
-0.7059960831
 21
10.3579339702
  0
LINE
  5
7C8
100
AcDbEntity
  8
CURVE
100
AcDbLine
 62
7
  6
CONTINUOUS
 10
-0.6651104353
 20
8.508138751
 11
-0.663351787
 21
8.6187573955
  0
LINE
  5
7C9
100
AcDbEntity
  8
RACCORDO
100
AcDbLine
 62
7
  6
CONTINUOUS
 10
-0.8352198634
 20
10.3735574929
 11
-0.833698723
 21
10.4650345738
  0
LINE
  5
7CA
100
AcDbEntity
  8
CURVE
100
AcDbLine
 62
253
  6
CONTINUOUS
 10
-0.667925221
 20
21.6986020829
 11
-0.671166382
 21
21.5221735956
  0
LINE
  5
7CB
100
AcDbEntity
  8
CURVE
100
AcDbLine
 62
7
  6
CONTINUOUS
 10
-0.6996642072
 20
10.0374461611
 11
-0.6986009782
 21
10.1017061944
  0
LINE
  5
7CC
100
AcDbEntity
  8
CURVE
100
AcDbLine
 62
7
  6
CONTINUOUS
 10
-0.6693730846
 20
8.9628698749
 11
-0.6704328344
 21
8.8988895471
  0
LINE
  5
7CD
100
AcDbEntity
  8
ASSI
100
AcDbLine
 62
7
  6
CONTINUOUS
 10
-0.8350016107
 20
10.3878400193
 11
-0.8334315414
 21
10.4792518297
  0
LINE
  5
7CE
100
AcDbEntity
  8
RACCORDO
100
AcDbLine
 62
7
  6
CONTINUOUS
 10
-0.8345707093
 20
15.4148697783
 11
-0.8330437497
 21
15.498973308
  0
LINE
  5
7CF
100
AcDbEntity
  8
ASSI
100
AcDbLine
 62
7
  6
CONTINUOUS
 10
-0.8345550805
 20
15.4158215509
 11
-0.8329819451
 21
15.5020188927
  0
LINE
  5
7D0
100
AcDbEntity
  8
CURVE
100
AcDbLine
 62
253
  6
CONTINUOUS
 10
-0.7215290405
 20
11.8163400282
 11
-0.7167919591
 21
12.0425305475
  0
LINE
  5
7D1
100
AcDbEntity
  8
RACCORDO
100
AcDbLine
 62
7
  6
CONTINUOUS
 10
-0.8330437497
 20
15.498973308
 11
-0.8325192718
 21
15.5239543787
  0
LINE
  5
7D2
100
AcDbEntity
  8
RACCORDO
100
AcDbLine
 62
7
  6
CONTINUOUS
 10
-0.833698723
 20
10.4650345738
 11
-0.8325192718
 21
10.5239543787
  0
LINE
  5
7D3
100
AcDbEntity
  8
ASSI
100
AcDbLine
 62
7
  6
CONTINUOUS
 10
-0.8329819451
 20
15.5020188927
 11
-0.8325198906
 21
15.5239536158
  0
LINE
  5
7D4
100
AcDbEntity
  8
ASSI
100
AcDbLine
 62
7
  6
CONTINUOUS
 10
-0.8334315414
 20
10.4792518297
 11
-0.8325198906
 21
10.5239536158
  0
LINE
  5
7D5
100
AcDbEntity
  8
CURVE
100
AcDbLine
 62
7
  6
CONTINUOUS
 10
-0.7022432793
 20
10.5738997253
 11
-0.7039138119
 21
10.4924404709
  0
LINE
  5
7D6
100
AcDbEntity
  8
CURVE
100
AcDbLine
 62
7
  6
CONTINUOUS
 10
-0.6667809114
 20
8.4266871117
 11
-0.6651104353
 21
8.508138751
  0
LINE
  5
7D7
100
AcDbEntity
  8
CURVE
100
AcDbLine
 62
7
  6
CONTINUOUS
 10
-0.6986009782
 20
10.1017061944
 11
-0.6973534382
 21
10.1600499238
  0
LINE
  5
7D8
100
AcDbEntity
  8
CURVE
100
AcDbLine
 62
7
  6
CONTINUOUS
 10
-0.6704328344
 20
8.8988895471
 11
-0.6716803601
 21
8.8405428112
  0
LINE
  5
7D9
100
AcDbEntity
  8
CURVE
100
AcDbLine
 62
7
  6
CONTINUOUS
 10
-0.6800396728
 20
12.1525963265
 11
-0.7098114562
 21
10.8989323265
  0
LINE
  5
7DA
100
AcDbEntity
  8
CURVE
100
AcDbLine
 62
7
  6
CONTINUOUS
 10
-0.7098114562
 20
11.5502353265
 11
-0.6862537899
 21
12.5149973265
  0
LINE
  5
7DB
100
AcDbEntity
  8
CURVE
100
AcDbLine
 62
253
  6
CONTINUOUS
 10
-0.7272634029
 20
20.8044353743
 11
-0.7369868859
 21
20.43300667
  0
LINE
  5
7DC
100
AcDbEntity
  8
CURVE
100
AcDbLine
 62
7
  6
CONTINUOUS
 10
-0.6592229955
 20
7.0907153265
 11
-0.6949526465
 21
5.7538173265
  0
LINE
  5
7DD
100
AcDbEntity
  8
CURVE
100
AcDbLine
 62
7
  6
CONTINUOUS
 10
-0.7098114562
 20
5.7727383265
 11
-0.6744717722
 21
7.0911603265
  0
LINE
  5
7DE
100
AcDbEntity
  8
CURVE
100
AcDbLine
 62
7
  6
CONTINUOUS
 10
-0.7003212642
 20
10.6495480766
 11
-0.7022432793
 21
10.5738997253
  0
LINE
  5
7DF
100
AcDbEntity
  8
CURVE
100
AcDbLine
 62
7
  6
CONTINUOUS
 10
-0.6973534382
 20
10.1600499238
 11
-0.6963452679
 21
10.1987347516
  0
LINE
  5
7E0
100
AcDbEntity
  8
CURVE
100
AcDbLine
 62
7
  6
CONTINUOUS
 10
-0.6716803601
 20
8.8405428112
 11
-0.6726885367
 21
8.8018568249
  0
LINE
  5
7E1
100
AcDbEntity
  8
CURVE
100
AcDbLine
 62
7
  6
CONTINUOUS
 10
-0.6687029555
 20
8.3510413935
 11
-0.6667809114
 21
8.4266871117
  0
LINE
  5
7E2
100
AcDbEntity
  8
CURVE
100
AcDbLine
 62
7
  6
CONTINUOUS
 10
-0.6987897121
 20
10.6995288792
 11
-0.7003212642
 21
10.6495480766
  0
LINE
  5
7E3
100
AcDbEntity
  8
CURVE
100
AcDbLine
 62
7
  6
CONTINUOUS
 10
-0.6702345236
 20
8.30106251
 11
-0.6687029555
 21
8.3510413935
  0
LINE
  5
7E4
100
AcDbEntity
  8
CURVE
100
AcDbLine
 62
7
  6
CONTINUOUS
 10
-0.6963452679
 20
10.1987347516
 11
-0.6952840718
 21
10.2332046001
  0
LINE
  5
7E5
100
AcDbEntity
  8
CURVE
100
AcDbLine
 62
7
  6
CONTINUOUS
 10
-0.6726885367
 20
8.8018568249
 11
-0.6737497508
 21
8.7673866078
  0
LINE
  5
7E6
100
AcDbEntity
  8
CURVE
100
AcDbLine
 62
253
  6
CONTINUOUS
 10
-0.697594312
 20
22.4687210996
 11
-0.7202824403
 21
21.8187210222
  0
LINE
  5
7E7
100
AcDbEntity
  8
CURVE
100
AcDbLine
 62
253
  6
CONTINUOUS
 10
-0.7452144493
 20
15.0282448818
 11
-0.7404773674
 21
15.163959216
  0
LINE
  5
7E8
100
AcDbEntity
  8
CURVE
100
AcDbLine
 62
253
  6
CONTINUOUS
 10
-0.7215290405
 20
14.349673437
 11
-0.726266122
 21
14.213959216
  0
LINE
  5
7E9
100
AcDbEntity
  8
CURVE
100
AcDbLine
 62
253
  6
CONTINUOUS
 10
-0.7444249358
 20
9.3282447685
 11
-0.7460039632
 21
9.2830068459
  0
LINE
  5
7EA
100
AcDbEntity
  8
CURVE
100
AcDbLine
 62
253
  6
CONTINUOUS
 10
-0.7452144493
 20
5.9353878845
 11
-0.7404773674
 21
6.0711016525
  0
LINE
  5
7EB
100
AcDbEntity
  8
CURVE
100
AcDbLine
 62
253
  6
CONTINUOUS
 10
-0.7215290405
 20
5.2568163265
 11
-0.726266122
 21
5.1211016525
  0
LINE
  5
7EC
100
AcDbEntity
  8
CURVE
100
AcDbLine
 62
253
  6
CONTINUOUS
 10
-0.667925221
 20
24.2568163265
 11
-0.6808898657
 21
23.9039591679
  0
LINE
  5
7ED
100
AcDbEntity
  8
CURVE
100
AcDbLine
 62
7
  6
CONTINUOUS
 10
-0.6971929289
 20
10.7437485276
 11
-0.6987897121
 21
10.6995288792
  0
LINE
  5
7EE
100
AcDbEntity
  8
CURVE
100
AcDbLine
 62
7
  6
CONTINUOUS
 10
-0.6718313184
 20
8.2568446953
 11
-0.6702345236
 21
8.30106251
  0
LINE
  5
7EF
100
AcDbEntity
  8
CURVE
100
AcDbLine
 62
7
  6
CONTINUOUS
 10
-0.6952840718
 20
10.2332046001
 11
-0.6941780667
 21
10.2635794217
  0
LINE
  5
7F0
100
AcDbEntity
  8
CURVE
100
AcDbLine
 62
7
  6
CONTINUOUS
 10
-0.6737497508
 20
8.7673866078
 11
-0.6748557826
 21
8.7370120726
  0
LWPOLYLINE
  5
7F1
100
AcDbEntity
  8
RACCORDO
100
AcDbPolyline
 62
253
  6
CONTINUOUS
 90
9
 70
0
 10
-1.1289695641
 20
10.3589791867
 10
-1.1304224417
 20
10.3221595077
 10
-1.1318508725
 20
10.2752485039
 10
-1.1332346525
 20
10.2185170618
 10
-1.1345728864
 20
10.1522962371
 10
-1.1358664696
 20
10.0769451128
 10
-1.137097884
 20
9.9928233409
 10
-1.1382662408
 20
9.900367916
 10
-1.1404015964
 20
9.6922994926
  0
LWPOLYLINE
  5
7F2
100
AcDbEntity
  8
ASSI
100
AcDbPolyline
 62
253
  6
CONTINUOUS
 90
9
 70
0
 10
-1.1289695641
 20
10.3589791867
 10
-1.1304224417
 20
10.3221595077
 10
-1.1318508725
 20
10.2752485039
 10
-1.1332346525
 20
10.2185170618
 10
-1.1345728864
 20
10.1522962371
 10
-1.1358664696
 20
10.0769451128
 10
-1.137097884
 20
9.9928233409
 10
-1.1382662408
 20
9.900367916
 10
-1.1404015964
 20
9.6922994926
  0
LINE
  5
7F3
100
AcDbEntity
  8
CURVE
100
AcDbLine
 62
7
  6
CONTINUOUS
 10
-0.696097477
 20
10.7700406479
 11
-0.6971929289
 21
10.7437485276
  0
LINE
  5
7F4
100
AcDbEntity
  8
CURVE
100
AcDbLine
 62
7
  6
CONTINUOUS
 10
-0.672926776
 20
8.2305537334
 11
-0.6718313184
 21
8.2568446953
  0
LINE
  5
7F5
100
AcDbEntity
  8
CURVE
100
AcDbLine
 62
7
  6
CONTINUOUS
 10
-0.6941780667
 20
10.2635794217
 11
-0.6934198939
 21
10.2816135234
  0
LINE
  5
7F6
100
AcDbEntity
  8
CURVE
100
AcDbLine
 62
7
  6
CONTINUOUS
 10
-0.6748557826
 20
8.7370120726
 11
-0.6756139767
 21
8.7189784591
  0
LINE
  5
7F7
100
AcDbEntity
  8
CURVE
100
AcDbLine
 62
7
  6
CONTINUOUS
 10
-0.6949809981
 20
10.7937917492
 11
-0.696097477
 21
10.7700406479
  0
LINE
  5
7F8
100
AcDbEntity
  8
CURVE
100
AcDbLine
 62
7
  6
CONTINUOUS
 10
-0.6740432592
 20
8.2068037276
 11
-0.672926776
 21
8.2305537334
  0
LINE
  5
7F9
100
AcDbEntity
  8
CURVE
100
AcDbLine
 62
7
  6
CONTINUOUS
 10
-0.6934198939
 20
10.2816135234
 11
-0.6926478927
 21
10.2979164666
  0
LINE
  5
7FA
100
AcDbEntity
  8
CURVE
100
AcDbLine
 62
7
  6
CONTINUOUS
 10
-0.6756139767
 20
8.7189784591
 11
-0.6763860012
 21
8.7026761953
  0
LINE
  5
7FB
100
AcDbEntity
  8
CURVE
100
AcDbLine
 62
7
  6
CONTINUOUS
 10
-0.6926478927
 20
10.2979164666
 11
-0.6918644977
 21
10.3125237926
  0
LINE
  5
7FC
100
AcDbEntity
  8
CURVE
100
AcDbLine
 62
7
  6
CONTINUOUS
 10
-0.6763860012
 20
8.7026761953
 11
-0.6771694205
 21
8.6880696997
  0
LINE
  5
7FD
100
AcDbEntity
  8
CURVE
100
AcDbLine
 62
253
  6
CONTINUOUS
 10
-0.7272634029
 20
22.383006825
 11
-0.7499515313
 21
22.0115782757
  0
LWPOLYLINE
  5
7FE
100
AcDbEntity
  8
CURVE
100
AcDbPolyline
 62
7
  6
CONTINUOUS
 90
16
 70
0
 10
-0.6918644977
 20
10.3125237926
 10
-0.6910721437
 20
10.325471043
 10
-0.6906733678
 20
10.3313332465
 10
-0.6902732651
 20
10.336793759
 10
-0.6898721401
 20
10.3418570234
 10
-0.6894702968
 20
10.3465274821
 10
-0.6890680399
 20
10.350809578
 10
-0.6886656734
 20
10.3547077537
 10
-0.6882635019
 20
10.3582264518
 10
-0.6877278147
 20
10.3623360822
 10
-0.6871927423
 20
10.3657879713
 10
-0.6866580115
 20
10.3685914099
 10
-0.686123349
 20
10.3707556891
 10
-0.6855884817
 20
10.3722900997
 10
-0.6850531365
 20
10.3732039327
 10
-0.6845170402
 20
10.3735064791
  0
LWPOLYLINE
  5
7FF
100
AcDbEntity
  8
CURVE
100
AcDbPolyline
 62
7
  6
CONTINUOUS
 90
16
 70
0
 10
-0.6771694205
 20
8.6880696997
 10
-0.6779617992
 20
8.6751233911
 10
-0.6783605872
 20
8.6692616877
 10
-0.6787607018
 20
8.663801688
 10
-0.6791618385
 20
8.6587389444
 10
-0.6795636928
 20
8.6540690092
 10
-0.6799659604
 20
8.6497874346
 10
-0.6803683367
 20
8.6458897731
 10
-0.6807705175
 20
8.642371577
 10
-0.6813062155
 20
8.638262588
 10
-0.6818412977
 20
8.6348112914
 10
-0.6823760373
 20
8.6320083782
 10
-0.6829107079
 20
8.6298445394
 10
-0.683445583
 20
8.6283104657
 10
-0.6839809359
 20
8.6273968482
 10
-0.6845170402
 20
8.6270943777
  0
LINE
  5
800
100
AcDbEntity
  8
CURVE
100
AcDbLine
 62
253
  6
CONTINUOUS
 10
-0.667925221
 20
22.845387692
 11
-0.6906133494
 21
22.4925305702
  0
LWPOLYLINE
  5
801
100
AcDbEntity
  8
RACCORDO
100
AcDbPolyline
 62
253
  6
CONTINUOUS
 90
4
 70
0
 10
-1.1244844537
 20
15.4068163265
 10
-1.1260039374
 20
15.4014658804
 10
-1.1274989742
 20
15.3854762712
 10
-1.1289695641
 20
15.3589791867
  0
LWPOLYLINE
  5
802
100
AcDbEntity
  8
ASSI
100
AcDbPolyline
 62
253
  6
CONTINUOUS
 90
4
 70
0
 10
-1.1244844537
 20
15.4068163265
 10
-1.1260039374
 20
15.4014658804
 10
-1.1274989742
 20
15.3854762712
 10
-1.1289695641
 20
15.3589791867
  0
LINE
  5
803
100
AcDbEntity
  8
0
100
AcDbLine
 62
7
  6
CONTINUOUS
 10
-16.1202640357
 20
-1.6089397715
 11
-16.1009413753
 21
-1.5874384046
  0
LINE
  5
804
100
AcDbEntity
  8
DRAFT
100
AcDbLine
 62
7
  6
CONTINUOUS
 10
-15.2830204082
 20
2.5568163265
 11
-15.2463647718
 21
2.5934719629
  0
LINE
  5
805
100
AcDbEntity
  8
0
100
AcDbLine
 62
7
  6
CONTINUOUS
 10
-15.2830204082
 20
2.5568163265
 11
-15.2463647718
 21
2.5934719629
  0
LINE
  5
806
100
AcDbEntity
  8
DRAFT
100
AcDbLine
 62
7
  6
CONTINUOUS
 10
-15.2463647718
 20
2.3934719629
 11
-15.2830204082
 21
2.3568163265
  0
LINE
  5
807
100
AcDbEntity
  8
0
100
AcDbLine
 62
7
  6
CONTINUOUS
 10
-15.2463647718
 20
2.3934719629
 11
-15.2830204082
 21
2.3568163265
  0
LINE
  5
808
100
AcDbEntity
  8
0
100
AcDbLine
 62
7
  6
CONTINUOUS
 10
-16.2330204082
 20
-0.1431836735
 11
-16.1890981611
 21
-0.0992614264
  0
LINE
  5
809
100
AcDbEntity
  8
0
100
AcDbLine
 62
7
  6
CONTINUOUS
 10
-18.9735620344
 20
-0.079153699
 11
-19.038838238
 21
-0.1373658437
  0
LINE
  5
80A
100
AcDbEntity
  8
0
100
AcDbLine
 62
253
  6
CONTINUOUS
 10
-22.9330204082
 20
0.3567994035
 11
-22.9242935404
 21
0.3626172333
  0
LINE
  5
80B
100
AcDbEntity
  8
0
100
AcDbLine
 62
253
  6
CONTINUOUS
 10
-22.4330267543
 20
-0.1431836735
 11
-22.4242998865
 21
-0.1373658437
  0
LINE
  5
80C
100
AcDbEntity
  8
RACCORDO
100
AcDbLine
 62
253
  6
CONTINUOUS
 10
-22.9330204082
 20
4.5851172778
 11
-22.8108349537
 21
4.6357281502
  0
LINE
  5
80D
100
AcDbEntity
  8
0
100
AcDbLine
 62
253
  6
CONTINUOUS
 10
-22.9330204082
 20
4.5851172778
 11
-22.8108349537
 21
4.6357281502
  0
LINE
  5
80E
100
AcDbEntity
  8
CURVE
100
AcDbLine
 62
253
  6
CONTINUOUS
 10
-8.7115918589
 20
33.3282447208
 11
-8.1544489962
 21
33.3282447208
  0
LINE
  5
80F
100
AcDbEntity
  8
CURVE
100
AcDbLine
 62
253
  6
CONTINUOUS
 10
-4.7115918589
 20
33.3282447208
 11
-4.1544489962
 21
33.3282447208
  0
LINE
  5
810
100
AcDbEntity
  8
CURVE
100
AcDbLine
 62
253
  6
CONTINUOUS
 10
-0.7499515313
 20
33.552292489
 11
-0.7272634029
 21
33.552292489
  0
LINE
  5
811
100
AcDbEntity
  8
CURVE
100
AcDbLine
 62
253
  6
CONTINUOUS
 10
-7.7830204082
 20
33.9782447208
 11
-8.7115918589
 21
34.2568163265
  0
LINE
  5
812
100
AcDbEntity
  8
RACCORDO
100
AcDbLine
 62
253
  6
CONTINUOUS
 10
-22.8108349537
 20
39.8779045029
 11
-22.9330204082
 21
39.9285153752
  0
LINE
  5
813
100
AcDbEntity
  8
0
100
AcDbLine
 62
253
  6
CONTINUOUS
 10
-22.8108349537
 20
39.8779045029
 11
-22.9330204082
 21
39.9285153752
  0
LINE
  5
814
100
AcDbEntity
  8
CURVE
100
AcDbLine
 62
253
  6
CONTINUOUS
 10
-8.1544489962
 20
33.3282447208
 11
-7.9687347022
 21
33.2353879322
  0
LINE
  5
815
100
AcDbEntity
  8
CURVE
100
AcDbLine
 62
253
  6
CONTINUOUS
 10
-4.7115918589
 20
31.6568163265
 11
-4.8973061335
 21
31.7496734251
  0
LINE
  5
816
100
AcDbEntity
  8
CURVE
100
AcDbLine
 62
253
  6
CONTINUOUS
 10
-4.1544489962
 20
32.3068163265
 11
-3.9687347022
 21
32.213959228
  0
LINE
  5
817
100
AcDbEntity
  8
CURVE
100
AcDbLine
 62
253
  6
CONTINUOUS
 10
-4.7115918589
 20
32.6782450308
 11
-4.8973061335
 21
32.7711021294
  0
LINE
  5
818
100
AcDbEntity
  8
0
100
AcDbLine
 62
253
  6
CONTINUOUS
 10
-22.9242935404
 20
44.1510154198
 11
-22.9330204082
 21
44.1568332496
  0
LINE
  5
819
100
AcDbEntity
  8
0
100
AcDbLine
 62
253
  6
CONTINUOUS
 10
-22.4242998865
 20
44.6509984967
 11
-22.4330267543
 21
44.6568163265
  0
LINE
  5
81A
100
AcDbEntity
  8
0
100
AcDbLine
 62
7
  6
CONTINUOUS
 10
-18.9735620344
 20
44.592786352
 11
-19.038838238
 21
44.6509984967
  0
LWPOLYLINE
  5
81B
100
AcDbEntity
  8
RACCORDO
100
AcDbPolyline
 62
253
  6
CONTINUOUS
 90
4
 70
0
 10
-13.6758566911
 20
39.6012650327
 10
-13.7128337411
 20
39.6343383117
 10
-13.7428280293
 20
39.6726522479
 10
-13.7649281944
 20
39.7150426917
  0
LWPOLYLINE
  5
81C
100
AcDbEntity
  8
0
100
AcDbPolyline
 62
253
  6
CONTINUOUS
 90
4
 70
0
 10
-13.6758566911
 20
39.6012650327
 10
-13.7128337411
 20
39.6343383117
 10
-13.7428280293
 20
39.6726522479
 10
-13.7649281944
 20
39.7150426917
  0
LINE
  5
81D
100
AcDbEntity
  8
DRAFT
100
AcDbLine
 62
7
  6
CONTINUOUS
 10
-15.2830204082
 20
41.9568163265
 11
-15.2463647718
 21
41.9201606902
  0
LINE
  5
81E
100
AcDbEntity
  8
0
100
AcDbLine
 62
7
  6
CONTINUOUS
 10
-15.2830204082
 20
41.9568163265
 11
-15.2463647718
 21
41.9201606902
  0
LINE
  5
81F
100
AcDbEntity
  8
CURVE
100
AcDbLine
 62
253
  6
CONTINUOUS
 10
-4.8973061335
 20
31.7496734251
 11
-5.0830204082
 21
31.9353876223
  0
LINE
  5
820
100
AcDbEntity
  8
DRAFT
100
AcDbLine
 62
7
  6
CONTINUOUS
 10
-15.2830204082
 20
42.1568163265
 11
-15.2463647718
 21
42.1201606902
  0
LINE
  5
821
100
AcDbEntity
  8
0
100
AcDbLine
 62
7
  6
CONTINUOUS
 10
-15.2830204082
 20
42.1568163265
 11
-15.2463647718
 21
42.1201606902
  0
LINE
  5
822
100
AcDbEntity
  8
CURVE
100
AcDbLine
 62
253
  6
CONTINUOUS
 10
-3.7830204082
 20
31.1925305237
 11
-3.8758775552
 21
31.2853876223
  0
LINE
  5
823
100
AcDbEntity
  8
CURVE
100
AcDbLine
 62
253
  6
CONTINUOUS
 10
-4.8973061335
 20
32.7711021294
 11
-5.0830204082
 21
32.9568163265
  0
LINE
  5
824
100
AcDbEntity
  8
CURVE
100
AcDbLine
 62
253
  6
CONTINUOUS
 10
-3.9687347022
 20
32.213959228
 11
-3.7830204082
 21
32.0282450308
  0
LINE
  5
825
100
AcDbEntity
  8
0
100
AcDbLine
 62
7
  6
CONTINUOUS
 10
-16.2330204082
 20
44.6568163265
 11
-16.1890981611
 21
44.6128940795
  0
LWPOLYLINE
  5
826
100
AcDbEntity
  8
0
100
AcDbPolyline
 62
7
  6
CONTINUOUS
 90
18
 70
0
 10
-16.1010466624
 20
46.1011874192
 10
-16.1203749466
 20
46.1226966188
 10
-16.1290221404
 20
46.1324477992
 10
-16.1370059856
 20
46.1415404978
 10
-16.14434539
 20
46.1499802065
 10
-16.151076466
 20
46.157831269
 10
-16.1572063371
 20
46.1650947675
 10
-16.162750235
 20
46.1717696198
 10
-16.1677448969
 20
46.1779169228
 10
-16.1721987243
 20
46.183546444
 10
-16.1761138886
 20
46.1886484159
 10
-16.1795065575
 20
46.1932546326
 10
-16.182381304
 20
46.1973696204
 10
-16.1847393713
 20
46.200988853
 10
-16.1865866987
 20
46.2041305457
 10
-16.1879267847
 20
46.2068007702
 10
-16.188762527
 20
46.2089934549
 10
-16.1890981611
 20
46.2107085996
  0
LWPOLYLINE
  5
827
100
AcDbEntity
  8
RACCORDO
100
AcDbPolyline
 62
253
  6
CONTINUOUS
 90
4
 70
0
 10
-1.1244844537
 20
10.4068163265
 10
-1.1260039374
 20
10.4014658804
 10
-1.1274989742
 20
10.3854762712
 10
-1.1289695641
 20
10.3589791867
  0
LWPOLYLINE
  5
828
100
AcDbEntity
  8
ASSI
100
AcDbPolyline
 62
253
  6
CONTINUOUS
 90
4
 70
0
 10
-1.1244844537
 20
10.4068163265
 10
-1.1260039374
 20
10.4014658804
 10
-1.1274989742
 20
10.3854762712
 10
-1.1289695641
 20
10.3589791867
  0
LINE
  5
829
100
AcDbEntity
  8
0
100
AcDbLine
 62
7
  6
CONTINUOUS
 10
-16.1009413753
 20
-1.5874384046
 11
-16.0787928875
 21
-1.5631151447
  0
LINE
  5
82A
100
AcDbEntity
  8
0
100
AcDbLine
 62
7
  6
CONTINUOUS
 10
-16.0787928875
 20
-1.5631151447
 11
-16.0537169368
 21
-1.5358616899
  0
LINE
  5
82B
100
AcDbEntity
  8
0
100
AcDbLine
 62
7
  6
CONTINUOUS
 10
-16.0537169368
 20
-1.5358616899
 11
-16.010516967
 21
-1.4894012705
  0
LINE
  5
82C
100
AcDbEntity
  8
0
100
AcDbLine
 62
7
  6
CONTINUOUS
 10
-16.010516967
 20
-1.4894012705
 11
-15.9427831055
 21
-1.4172904062
  0
LINE
  5
82D
100
AcDbEntity
  8
0
100
AcDbLine
 62
7
  6
CONTINUOUS
 10
-15.9427831055
 20
-1.4172904062
 11
-15.9049983894
 21
-1.3773313563
  0
LINE
  5
82E
100
AcDbEntity
  8
0
100
AcDbLine
 62
7
  6
CONTINUOUS
 10
-15.9049983894
 20
-1.3773313563
 11
-15.8230973668
 21
-1.2909959118
  0
LINE
  5
82F
100
AcDbEntity
  8
0
100
AcDbLine
 62
7
  6
CONTINUOUS
 10
-15.8230973668
 20
-1.2909959118
 11
-15.7360631181
 21
-1.1995414882
  0
LINE
  5
830
100
AcDbEntity
  8
0
100
AcDbLine
 62
7
  6
CONTINUOUS
 10
-16.1893697613
 20
-1.6995330266
 11
-16.2330204082
 21
-1.7431836735
  0
LWPOLYLINE
  5
831
100
AcDbEntity
  8
RACCORDO
100
AcDbPolyline
 62
253
  6
CONTINUOUS
 90
4
 70
0
 10
-13.6763425989
 20
4.9120021556
 10
-13.6332970649
 20
4.9390522866
 10
-13.5857723448
 20
4.9589147827
 10
-13.5351628735
 20
4.9710604005
  0
LWPOLYLINE
  5
832
100
AcDbEntity
  8
0
100
AcDbPolyline
 62
253
  6
CONTINUOUS
 90
4
 70
0
 10
-13.6763425989
 20
4.9120021556
 10
-13.6332970649
 20
4.9390522866
 10
-13.5857723448
 20
4.9589147827
 10
-13.5351628735
 20
4.9710604005
  0
LINE
  5
833
100
AcDbEntity
  8
RACCORDO
100
AcDbLine
 62
253
  6
CONTINUOUS
 10
-22.3473231886
 20
3.171119107
 11
-22.2251377342
 21
3.2217299794
  0
LINE
  5
834
100
AcDbEntity
  8
0
100
AcDbLine
 62
253
  6
CONTINUOUS
 10
-22.3473231886
 20
3.171119107
 11
-22.2251377342
 21
3.2217299794
  0
LINE
  5
835
100
AcDbEntity
  8
CURVE
100
AcDbLine
 62
253
  6
CONTINUOUS
 10
-0.7499515313
 20
35.404792489
 11
-0.7272634029
 21
35.404792489
  0
LINE
  5
836
100
AcDbEntity
  8
CURVE
100
AcDbLine
 62
7
  6
CONTINUOUS
 10
-0.7096830261
 20
36.0424803265
 11
-0.6590817746
 21
36.0424803265
  0
LINE
  5
837
100
AcDbEntity
  8
CURVE
100
AcDbLine
 62
253
  6
CONTINUOUS
 10
-9.0830204082
 20
36.4853879322
 11
-7.7830204082
 21
36.4853879322
  0
LINE
  5
838
100
AcDbEntity
  8
CURVE
100
AcDbLine
 62
7
  6
CONTINUOUS
 10
-0.6590817746
 20
36.6477513265
 11
-0.7096830261
 21
36.6477513265
  0
LINE
  5
839
100
AcDbEntity
  8
CURVE
100
AcDbLine
 62
253
  6
CONTINUOUS
 10
-7.7830204082
 20
34.5353879322
 11
-9.0830204082
 21
34.813958918
  0
LINE
  5
83A
100
AcDbEntity
  8
CURVE
100
AcDbLine
 62
253
  6
CONTINUOUS
 10
-3.7830204082
 20
34.5353879322
 11
-5.0830204082
 21
34.813958918
  0
LINE
  5
83B
100
AcDbEntity
  8
CURVE
100
AcDbLine
 62
253
  6
CONTINUOUS
 10
-3.7830204082
 20
33.9782447208
 11
-4.7115918589
 21
34.2568163265
  0
LINE
  5
83C
100
AcDbEntity
  8
RACCORDO
100
AcDbLine
 62
253
  6
CONTINUOUS
 10
-22.2251377342
 20
41.2919026737
 11
-22.3473231886
 21
41.342513546
  0
LINE
  5
83D
100
AcDbEntity
  8
0
100
AcDbLine
 62
253
  6
CONTINUOUS
 10
-22.2251377342
 20
41.2919026737
 11
-22.3473231886
 21
41.342513546
  0
LINE
  5
83E
100
AcDbEntity
  8
CURVE
100
AcDbLine
 62
253
  6
CONTINUOUS
 10
-4.1544489962
 20
33.3282447208
 11
-3.9687347022
 21
33.2353879322
  0
LINE
  5
83F
100
AcDbEntity
  8
CURVE
100
AcDbLine
 62
253
  6
CONTINUOUS
 10
-3.9687347022
 20
33.2353879322
 11
-3.7830204082
 21
33.0496737351
  0
LINE
  5
840
100
AcDbEntity
  8
0
100
AcDbLine
 62
7
  6
CONTINUOUS
 10
-16.2330204082
 20
46.2568163265
 11
-16.1893697613
 21
46.2131656797
  0
LINE
  5
841
100
AcDbEntity
  8
0
100
AcDbLine
 62
7
  6
CONTINUOUS
 10
-15.7360631181
 20
45.7131741412
 11
-15.942860239
 21
45.9310044156
  0
LINE
  5
842
100
AcDbEntity
  8
0
100
AcDbLine
 62
7
  6
CONTINUOUS
 10
-15.942860239
 20
45.9310044156
 11
-16.0106365606
 21
46.0031619957
  0
LINE
  5
843
100
AcDbEntity
  8
0
100
AcDbLine
 62
7
  6
CONTINUOUS
 10
-16.0106365606
 20
46.0031619957
 11
-16.0538329952
 21
46.0496199589
  0
LINE
  5
844
100
AcDbEntity
  8
0
100
AcDbLine
 62
7
  6
CONTINUOUS
 10
-16.0538329952
 20
46.0496199589
 11
-16.0789029901
 21
46.0768682422
  0
LINE
  5
845
100
AcDbEntity
  8
0
100
AcDbLine
 62
7
  6
CONTINUOUS
 10
-16.0789029901
 20
46.0768682422
 11
-16.1010466624
 21
46.1011874192
  0
LINE
  5
846
100
AcDbEntity
  8
CURVE
100
AcDbLine
 62
7
  6
CONTINUOUS
 10
-0.676643341
 20
35.0069783265
 11
-0.7096830261
 21
35.1375953265
  0
LINE
  5
847
100
AcDbEntity
  8
CURVE
100
AcDbLine
 62
7
  6
CONTINUOUS
 10
-0.7096830261
 20
35.7166433265
 11
-0.6590848109
 21
35.4548213265
  0
LWPOLYLINE
  5
848
100
AcDbEntity
  8
0
100
AcDbPolyline
 62
7
  6
CONTINUOUS
 90
6
 70
0
 10
-1.635564934
 20
46.5423986927
 10
-1.6375380404
 20
46.554132614
 10
-1.6400672264
 20
46.5657593653
 10
-1.6431467665
 20
46.5772526055
 10
-1.6467696868
 20
46.5885863003
 10
-1.6509277824
 20
46.5997347758
  0
LWPOLYLINE
  5
849
100
AcDbEntity
  8
CURVE
100
AcDbPolyline
 62
7
  6
CONTINUOUS
 90
18
 70
0
 10
-0.6845121309
 20
10.8944924055
 10
-0.6850921564
 20
10.8941843626
 10
-0.6856744914
 20
10.8932595843
 10
-0.6862587378
 20
10.8917170957
 10
-0.6868444972
 20
10.8895559223
 10
-0.6874313716
 20
10.8867750892
 10
-0.6880189626
 20
10.8833736219
 10
-0.688606872
 20
10.8793505456
 10
-0.6891947016
 20
10.8747048856
 10
-0.6897820531
 20
10.8694356672
 10
-0.6903685284
 20
10.8635419157
 10
-0.6909537292
 20
10.8570226564
 10
-0.6915372573
 20
10.8498769147
 10
-0.6921187145
 20
10.8421037158
 10
-0.6926977024
 20
10.833702085
 10
-0.693273823
 20
10.8246710476
 10
-0.693846678
 20
10.815009629
 10
-0.6949809981
 20
10.7937917492
  0
LINE
  5
84A
100
AcDbEntity
  8
CURVE
100
AcDbLine
 62
253
  6
CONTINUOUS
 10
-3.7830204082
 20
36.8568163265
 11
-5.0830204082
 21
36.8568163265
  0
LINE
  5
84B
100
AcDbEntity
  8
CURVE
100
AcDbLine
 62
253
  6
CONTINUOUS
 10
-7.7830204082
 20
37.3211021294
 11
-9.0830204082
 21
37.3211021294
  0
LINE
  5
84C
100
AcDbEntity
  8
CURVE
100
AcDbLine
 62
253
  6
CONTINUOUS
 10
-3.7830204082
 20
37.5996737351
 11
-5.0830204082
 21
37.5996737351
  0
LINE
  5
84D
100
AcDbEntity
  8
CURVE
100
AcDbLine
 62
253
  6
CONTINUOUS
 10
-0.7272634029
 20
38.2864592047
 11
-0.7499515313
 21
38.2864592047
  0
LINE
  5
84E
100
AcDbEntity
  8
CURVE
100
AcDbLine
 62
253
  6
CONTINUOUS
 10
-0.74671037
 20
38.6393163265
 11
-0.7434692086
 21
38.6393163265
  0
LWPOLYLINE
  5
84F
100
AcDbEntity
  8
RACCORDO
100
AcDbPolyline
 62
253
  6
CONTINUOUS
 90
3
 70
0
 10
-13.5856264512
 20
39.5546703372
 10
-13.6330204082
 20
39.5744373258
 10
-13.6758566911
 20
39.6012650327
  0
LWPOLYLINE
  5
850
100
AcDbEntity
  8
0
100
AcDbPolyline
 62
253
  6
CONTINUOUS
 90
3
 70
0
 10
-13.5856264512
 20
39.5546703372
 10
-13.6330204082
 20
39.5744373258
 10
-13.6758566911
 20
39.6012650327
  0
LWPOLYLINE
  5
851
100
AcDbEntity
  8
0
100
AcDbPolyline
 62
7
  6
CONTINUOUS
 90
9
 70
0
 10
-1.6509277824
 20
-2.0861021228
 10
-1.6467696868
 20
-2.0749536472
 10
-1.6431467665
 20
-2.0636199525
 10
-1.6400672264
 20
-2.0521267123
 10
-1.6375380404
 20
-2.040499961
 10
-1.635564934
 20
-2.0287660396
 10
-1.6341523739
 20
-2.016951529
 10
-1.6333035584
 20
-2.0050831895
 10
-1.6330204082
 20
-1.9931879043
  0
LWPOLYLINE
  5
852
100
AcDbEntity
  8
CURVE
100
AcDbPolyline
 62
7
  6
CONTINUOUS
 90
18
 70
0
 10
-0.6845121309
 20
8.1061084513
 10
-0.6839321055
 20
8.106416474
 10
-0.6833497707
 20
8.1073411928
 10
-0.6827655245
 20
8.1088835835
 10
-0.6821797653
 20
8.1110446222
 10
-0.6815928913
 20
8.1138252848
 10
-0.6810053006
 20
8.1172265472
 10
-0.6804173914
 20
8.1212493854
 10
-0.679829562
 20
8.1258947753
 10
-0.6792422106
 20
8.1311636929
 10
-0.6786557353
 20
8.1370571141
 10
-0.6780705344
 20
8.1435760149
 10
-0.677487006
 20
8.1507213711
 10
-0.6769055484
 20
8.1584941589
 10
-0.6763265598
 20
8.166895354
 10
-0.6757504384
 20
8.1759259325
 10
-0.6751775823
 20
8.1855868703
 10
-0.6740432592
 20
8.2068037276
  0
LWPOLYLINE
  5
853
100
AcDbEntity
  8
RACCORDO
100
AcDbPolyline
 62
253
  6
CONTINUOUS
 90
3
 70
0
 10
-9.9802684716
 20
39.5547178703
 10
-10.0308779428
 20
39.5425722525
 10
-10.0830204082
 20
39.5384881692
  0
LWPOLYLINE
  5
854
100
AcDbEntity
  8
0
100
AcDbPolyline
 62
253
  6
CONTINUOUS
 90
3
 70
0
 10
-9.9802684716
 20
39.5547178703
 10
-10.0308779428
 20
39.5425722525
 10
-10.0830204082
 20
39.5384881692
  0
LINE
  5
855
100
AcDbEntity
  8
0
100
AcDbLine
 62
7
  6
CONTINUOUS
 10
-9.2830204082
 20
38.8568163265
 11
-14.2830204082
 21
38.8568163265
  0
LINE
  5
856
100
AcDbEntity
  8
ASSI
100
AcDbLine
 62
7
  6
CONTINUOUS
 10
-9.2830204082
 20
38.8568163265
 11
-14.2830204082
 21
38.8568163265
  0
LINE
  5
857
100
AcDbEntity
  8
CURVE
100
AcDbLine
 62
253
  6
CONTINUOUS
 10
-0.7337457249
 20
39.2568163265
 11
-0.7305045639
 21
39.2568163265
  0
LINE
  5
858
100
AcDbEntity
  8
0
100
AcDbLine
 62
7
  6
CONTINUOUS
 10
-14.2830204082
 20
39.3068163265
 11
-9.2830204082
 21
39.3068163265
  0
LINE
  5
859
100
AcDbEntity
  8
RACCORDO
100
AcDbLine
 62
7
  6
CONTINUOUS
 10
-10.0830204082
 20
39.5068163265
 11
-13.4830204082
 21
39.5068163265
  0
LINE
  5
85A
100
AcDbEntity
  8
0
100
AcDbLine
 62
7
  6
CONTINUOUS
 10
-10.0830204082
 20
39.5068163265
 11
-13.4830204082
 21
39.5068163265
  0
LINE
  5
85B
100
AcDbEntity
  8
RACCORDO
100
AcDbLine
 62
253
  6
CONTINUOUS
 10
-10.0830204082
 20
39.5384881692
 11
-13.4830204082
 21
39.5384881692
  0
LINE
  5
85C
100
AcDbEntity
  8
0
100
AcDbLine
 62
253
  6
CONTINUOUS
 10
-10.0830204082
 20
39.5384881692
 11
-13.4830204082
 21
39.5384881692
  0
LINE
  5
85D
100
AcDbEntity
  8
RACCORDO
100
AcDbLine
 62
7
  6
CONTINUOUS
 10
-13.4655982954
 20
39.5568163265
 11
-10.100442521
 21
39.5568163265
  0
LINE
  5
85E
100
AcDbEntity
  8
ASSI
100
AcDbLine
 62
7
  6
CONTINUOUS
 10
-13.4655982954
 20
39.5568163265
 11
-10.100442521
 21
39.5568163265
  0
LINE
  5
85F
100
AcDbEntity
  8
ASSI
100
AcDbLine
 62
7
  6
CONTINUOUS
 10
-9.2830204082
 20
39.7568163265
 11
-14.2830204082
 21
39.7568163265
  0
LINE
  5
860
100
AcDbEntity
  8
RACCORDO
100
AcDbLine
 62
253
  6
CONTINUOUS
 10
-13.4830204082
 20
39.5384881692
 11
-13.5351148615
 21
39.5425646769
  0
LINE
  5
861
100
AcDbEntity
  8
0
100
AcDbLine
 62
253
  6
CONTINUOUS
 10
-13.4830204082
 20
39.5384881692
 11
-13.5351148615
 21
39.5425646769
  0
LINE
  5
862
100
AcDbEntity
  8
RACCORDO
100
AcDbLine
 62
253
  6
CONTINUOUS
 10
-13.5351148615
 20
39.5425646769
 11
-13.5856264512
 21
39.5546703372
  0
LINE
  5
863
100
AcDbEntity
  8
0
100
AcDbLine
 62
253
  6
CONTINUOUS
 10
-13.5351148615
 20
39.5425646769
 11
-13.5856264512
 21
39.5546703372
  0
LWPOLYLINE
  5
864
100
AcDbEntity
  8
0
100
AcDbPolyline
 62
7
  6
CONTINUOUS
 90
5
 70
0
 10
-8.2489361305
 20
-1.6488550458
 10
-8.2423512117
 20
-1.6411294813
 10
-8.2351064875
 20
-1.6327250032
 10
-8.2271876677
 20
-1.6236416115
 10
-8.2185778627
 20
-1.6138838517
  0
LINE
  5
865
100
AcDbEntity
  8
0
100
AcDbLine
 62
7
  6
CONTINUOUS
 10
-8.2185778627
 20
-1.6138838517
 11
-8.1992648147
 21
-1.5923179556
  0
LINE
  5
866
100
AcDbEntity
  8
0
100
AcDbLine
 62
7
  6
CONTINUOUS
 10
-8.1992648147
 20
-1.5923179556
 11
-8.1771633289
 21
-1.5679844839
  0
LINE
  5
867
100
AcDbEntity
  8
0
100
AcDbLine
 62
7
  6
CONTINUOUS
 10
-8.1771633289
 20
-1.5679844839
 11
-8.1522307551
 21
-1.5408469424
  0
LINE
  5
868
100
AcDbEntity
  8
0
100
AcDbLine
 62
7
  6
CONTINUOUS
 10
-8.1522307551
 20
-1.5408469424
 11
-8.1092792106
 21
-1.4945912416
  0
LINE
  5
869
100
AcDbEntity
  8
0
100
AcDbLine
 62
7
  6
CONTINUOUS
 10
-8.1092792106
 20
-1.4945912416
 11
-8.0410620479
 21
-1.4219180591
  0
LINE
  5
86A
100
AcDbEntity
  8
0
100
AcDbLine
 62
7
  6
CONTINUOUS
 10
-8.0410620479
 20
-1.4219180591
 11
-7.9179272173
 21
-1.2919546196
  0
LINE
  5
86B
100
AcDbEntity
  8
0
100
AcDbLine
 62
7
  6
CONTINUOUS
 10
-7.9179272173
 20
-1.2919546196
 11
-7.8299776982
 21
-1.1995414882
  0
LINE
  5
86C
100
AcDbEntity
  8
DRAFT
100
AcDbLine
 62
7
  6
CONTINUOUS
 10
-4.5877428217
 20
2.452093913
 11
-4.4873838421
 21
2.5524528926
  0
LINE
  5
86D
100
AcDbEntity
  8
DRAFT
100
AcDbLine
 62
7
  6
CONTINUOUS
 10
-4.3830204082
 20
2.5568163265
 11
-4.3463647718
 21
2.5934719629
  0
LINE
  5
86E
100
AcDbEntity
  8
0
100
AcDbLine
 62
7
  6
CONTINUOUS
 10
-4.3830204082
 20
2.5568163265
 11
-4.3463647718
 21
2.5934719629
  0
LINE
  5
86F
100
AcDbEntity
  8
RACCORDO
100
AcDbLine
 62
7
  6
CONTINUOUS
 10
-1.0628121728
 20
4.9585120797
 11
-1.6847161613
 21
4.3366080912
  0
LINE
  5
870
100
AcDbEntity
  8
ASSI
100
AcDbLine
 62
7
  6
CONTINUOUS
 10
-1.0628121728
 20
4.9585120797
 11
-1.6847161613
 21
4.3366080912
  0
LINE
  5
871
100
AcDbEntity
  8
DRAFT
100
AcDbLine
 62
7
  6
CONTINUOUS
 10
-4.5877428217
 20
1.2608207808
 11
-4.4917469437
 21
1.3568159943
  0
LINE
  5
872
100
AcDbEntity
  8
DRAFT
100
AcDbLine
 62
7
  6
CONTINUOUS
 10
-4.4917469437
 20
1.348089791
 11
-4.4830204082
 21
1.3568163265
  0
LINE
  5
873
100
AcDbEntity
  8
0
100
AcDbLine
 62
7
  6
CONTINUOUS
 10
-10.7743464548
 20
-0.137979386
 11
-10.7830204082
 21
-0.1431836735
  0
LINE
  5
874
100
AcDbEntity
  8
DRAFT
100
AcDbLine
 62
7
  6
CONTINUOUS
 10
-4.3463647718
 20
3.9906468589
 11
-4.3289097069
 21
3.9993737267
  0
LINE
  5
875
100
AcDbEntity
  8
0
100
AcDbLine
 62
7
  6
CONTINUOUS
 10
-4.3463647718
 20
3.9906468589
 11
-4.3289097069
 21
3.9993737267
  0
LWPOLYLINE
  5
876
100
AcDbEntity
  8
0
100
AcDbPolyline
 62
7
  6
CONTINUOUS
 90
18
 70
0
 10
-19.1901019589
 20
-2.2252762992
 10
-19.1791639619
 20
-2.2205924457
 10
-19.1684612206
 20
-2.2153934423
 10
-19.1580179799
 20
-2.2096910651
 10
-19.1478579023
 20
-2.2034982316
 10
-19.138004003
 20
-2.1968289689
 10
-19.1284786043
 20
-2.1896983842
 10
-19.1193032891
 20
-2.1821226323
 10
-19.1104988421
 20
-2.174118874
 10
-19.1020852077
 20
-2.1657052396
 10
-19.0940814493
 20
-2.1569007925
 10
-19.0865056975
 20
-2.1477254773
 10
-19.0793751127
 20
-2.1382000786
 10
-19.07270585
 20
-2.1283461794
 10
-19.0665130165
 20
-2.1181861017
 10
-19.0608106393
 20
-2.1077428611
 10
-19.055611636
 20
-2.0970401198
 10
-19.0509277824
 20
-2.0861021228
  0
LWPOLYLINE
  5
877
100
AcDbEntity
  8
0
100
AcDbPolyline
 62
7
  6
CONTINUOUS
 90
12
 70
0
 10
-10.1586239468
 20
42.141445143
 10
-10.0407521186
 20
42.1418256171
 10
-9.9278806888
 20
42.1424444284
 10
-9.8185249063
 20
42.143316393
 10
-9.7141695222
 20
42.1444266948
 10
-9.6192687899
 20
42.1457308856
 10
-9.5342007056
 20
42.1472409076
 10
-9.4585872731
 20
42.1489448186
 10
-9.395748757
 20
42.1507623435
 10
-9.3467919124
 20
42.152666724
 10
-9.3106099843
 20
42.1546847183
 10
-9.2872029727
 20
42.1568163265
  0
LINE
  5
878
100
AcDbEntity
  8
ASSI
100
AcDbLine
 62
7
  6
CONTINUOUS
 10
-9.2830204082
 20
40.4568163265
 11
-14.2830204082
 21
40.4568163265
  0
LINE
  5
879
100
AcDbEntity
  8
RACCORDO
100
AcDbLine
 62
7
  6
CONTINUOUS
 10
-2.3917960181
 20
40.4699066282
 11
-7.7699301065
 21
40.4699066282
  0
LINE
  5
87A
100
AcDbEntity
  8
ASSI
100
AcDbLine
 62
7
  6
CONTINUOUS
 10
-2.3917960181
 20
40.4699066282
 11
-7.7699301065
 21
40.4699066282
  0
LINE
  5
87B
100
AcDbEntity
  8
0
100
AcDbLine
 62
7
  6
CONTINUOUS
 10
-14.2830204082
 20
40.5568163265
 11
-9.2830204082
 21
40.5568163265
  0
LINE
  5
87C
100
AcDbEntity
  8
ASSI
100
AcDbLine
 62
7
  6
CONTINUOUS
 10
-14.2830204082
 20
40.5568163265
 11
-9.2830204082
 21
40.5568163265
  0
LINE
  5
87D
100
AcDbEntity
  8
ASSI
100
AcDbLine
 62
7
  6
CONTINUOUS
 10
-2.5830204082
 20
40.8568163265
 11
-7.7699301065
 21
40.8568163265
  0
LINE
  5
87E
100
AcDbEntity
  8
RACCORDO
100
AcDbLine
 62
7
  6
CONTINUOUS
 10
-8.0699186834
 20
41.8699066282
 11
-21.1742447983
 21
41.8699066282
  0
LINE
  5
87F
100
AcDbEntity
  8
ASSI
100
AcDbLine
 62
7
  6
CONTINUOUS
 10
-8.0699186834
 20
41.8699066282
 11
-21.1742447983
 21
41.8699066282
  0
LINE
  5
880
100
AcDbEntity
  8
DRAFT
100
AcDbLine
 62
7
  6
CONTINUOUS
 10
-4.3463647718
 20
41.9201606902
 11
-8.3196760445
 21
41.9201606902
  0
LINE
  5
881
100
AcDbEntity
  8
0
100
AcDbLine
 62
7
  6
CONTINUOUS
 10
-4.3463647718
 20
41.9201606902
 11
-8.3196760445
 21
41.9201606902
  0
LINE
  5
882
100
AcDbEntity
  8
DRAFT
100
AcDbLine
 62
7
  6
CONTINUOUS
 10
-15.2463647718
 20
41.9201606902
 11
-19.2196760445
 21
41.9201606902
  0
LINE
  5
883
100
AcDbEntity
  8
0
100
AcDbLine
 62
7
  6
CONTINUOUS
 10
-15.2463647718
 20
41.9201606902
 11
-19.2196760445
 21
41.9201606902
  0
LINE
  5
884
100
AcDbEntity
  8
DRAFT
100
AcDbLine
 62
7
  6
CONTINUOUS
 10
-4.3830204082
 20
41.9568163265
 11
-8.2830204082
 21
41.9568163265
  0
LINE
  5
885
100
AcDbEntity
  8
0
100
AcDbLine
 62
7
  6
CONTINUOUS
 10
-4.3830204082
 20
41.9568163265
 11
-8.2830204082
 21
41.9568163265
  0
LINE
  5
886
100
AcDbEntity
  8
DRAFT
100
AcDbLine
 62
7
  6
CONTINUOUS
 10
-15.2830204082
 20
41.9568163265
 11
-19.1830204082
 21
41.9568163265
  0
LINE
  5
887
100
AcDbEntity
  8
0
100
AcDbLine
 62
7
  6
CONTINUOUS
 10
-15.2830204082
 20
41.9568163265
 11
-19.1830204082
 21
41.9568163265
  0
LINE
  5
888
100
AcDbEntity
  8
DRAFT
100
AcDbLine
 62
7
  6
CONTINUOUS
 10
-4.4873838421
 20
41.9611797604
 11
-5.2786569743
 21
41.9611797604
  0
LINE
  5
889
100
AcDbEntity
  8
DRAFT
100
AcDbLine
 62
7
  6
CONTINUOUS
 10
-18.2873838421
 20
41.9611797604
 11
-19.0786569743
 21
41.9611797604
  0
LINE
  5
88A
100
AcDbEntity
  8
DRAFT
100
AcDbLine
 62
7
  6
CONTINUOUS
 10
-4.5877428217
 20
42.06153874
 11
-5.1782979947
 21
42.06153874
  0
LINE
  5
88B
100
AcDbEntity
  8
DRAFT
100
AcDbLine
 62
7
  6
CONTINUOUS
 10
-18.3877428217
 20
42.06153874
 11
-18.9782979947
 21
42.06153874
  0
LINE
  5
88C
100
AcDbEntity
  8
DRAFT
100
AcDbLine
 62
7
  6
CONTINUOUS
 10
-15.2463647718
 20
42.1201606902
 11
-8.3196760445
 21
42.1201606902
  0
LINE
  5
88D
100
AcDbEntity
  8
0
100
AcDbLine
 62
7
  6
CONTINUOUS
 10
-15.2463647718
 20
42.1201606902
 11
-8.3196760445
 21
42.1201606902
  0
LINE
  5
88E
100
AcDbEntity
  8
0
100
AcDbLine
 62
7
  6
CONTINUOUS
 10
-13.284544643
 20
42.1413030062
 11
-10.1586239468
 21
42.141445143
  0
LINE
  5
88F
100
AcDbEntity
  8
0
100
AcDbLine
 62
7
  6
CONTINUOUS
 10
-15.2830204082
 20
42.1568163265
 11
-14.2774986884
 21
42.1568163265
  0
LINE
  5
890
100
AcDbEntity
  8
0
100
AcDbLine
 62
7
  6
CONTINUOUS
 10
-9.2885421279
 20
42.1568163265
 11
-8.2830204082
 21
42.1568163265
  0
LWPOLYLINE
  5
891
100
AcDbEntity
  8
0
100
AcDbPolyline
 62
7
  6
CONTINUOUS
 90
13
 70
0
 10
-13.284544643
 20
42.1413030062
 10
-13.4074168696
 20
42.141445143
 10
-13.5252886977
 20
42.1418256171
 10
-13.6381601275
 20
42.1424444284
 10
-13.74751591
 20
42.143316393
 10
-13.8518712941
 20
42.1444266948
 10
-13.9467720264
 20
42.1457308856
 10
-14.0318401107
 20
42.1472409076
 10
-14.1074535433
 20
42.1489448186
 10
-14.1702920593
 20
42.1507623435
 10
-14.2192489039
 20
42.152666724
 10
-14.255430832
 20
42.1546847183
 10
-14.2788378437
 20
42.1568163265
  0
LINE
  5
892
100
AcDbEntity
  8
0
100
AcDbLine
 62
7
  6
CONTINUOUS
 10
-10.7830204082
 20
44.6568163265
 11
-10.7743464548
 21
44.6516120391
  0
LINE
  5
893
100
AcDbEntity
  8
DRAFT
100
AcDbLine
 62
7
  6
CONTINUOUS
 10
-4.5877428217
 20
42.06153874
 11
-4.4873838421
 21
41.9611797604
  0
LINE
  5
894
100
AcDbEntity
  8
DRAFT
100
AcDbLine
 62
7
  6
CONTINUOUS
 10
-4.3830204082
 20
41.9568163265
 11
-4.3463647718
 21
41.9201606902
  0
LINE
  5
895
100
AcDbEntity
  8
0
100
AcDbLine
 62
7
  6
CONTINUOUS
 10
-4.3830204082
 20
41.9568163265
 11
-4.3463647718
 21
41.9201606902
  0
LINE
  5
896
100
AcDbEntity
  8
RACCORDO
100
AcDbLine
 62
7
  6
CONTINUOUS
 10
-1.0628121728
 20
39.5551205734
 11
-1.6847161613
 21
40.1770245619
  0
LINE
  5
897
100
AcDbEntity
  8
ASSI
100
AcDbLine
 62
7
  6
CONTINUOUS
 10
-1.0628121728
 20
39.5551205734
 11
-1.6847161613
 21
40.1770245619
  0
LINE
  5
898
100
AcDbEntity
  8
DRAFT
100
AcDbLine
 62
7
  6
CONTINUOUS
 10
-4.5877428217
 20
43.2528118722
 11
-4.491747276
 21
43.1568163265
  0
LINE
  5
899
100
AcDbEntity
  8
0
100
AcDbLine
 62
7
  6
CONTINUOUS
 10
-7.8299776982
 20
45.7131741412
 11
-8.0404050587
 21
45.934856302
  0
LINE
  5
89A
100
AcDbEntity
  8
0
100
AcDbLine
 62
7
  6
CONTINUOUS
 10
-8.0404050587
 20
45.934856302
 11
-8.1084807487
 21
46.0073743893
  0
LINE
  5
89B
100
AcDbEntity
  8
0
100
AcDbLine
 62
7
  6
CONTINUOUS
 10
-8.1084807487
 20
46.0073743893
 11
-8.1518859185
 21
46.0541009841
  0
LINE
  5
89C
100
AcDbEntity
  8
0
100
AcDbLine
 62
7
  6
CONTINUOUS
 10
-8.1518859185
 20
46.0541009841
 11
-8.1771696474
 21
46.0816213203
  0
LINE
  5
89D
100
AcDbEntity
  8
0
100
AcDbLine
 62
7
  6
CONTINUOUS
 10
-8.1771696474
 20
46.0816213203
 11
-8.1994829839
 21
46.1061924508
  0
LWPOLYLINE
  5
89E
100
AcDbEntity
  8
0
100
AcDbPolyline
 62
7
  6
CONTINUOUS
 90
6
 70
0
 10
-8.1994829839
 20
46.1061924508
 10
-8.2187834027
 20
46.1277488776
 10
-8.2273521595
 20
46.1374615504
 10
-8.2352238513
 20
46.1464972611
 10
-8.2424125912
 20
46.1548393106
 10
-8.2489361305
 20
46.1624876989
  0
LWPOLYLINE
  5
89F
100
AcDbEntity
  8
0
100
AcDbPolyline
 62
7
  6
CONTINUOUS
 90
18
 70
0
 10
-1.6509277824
 20
46.5997347758
 10
-1.655611636
 20
46.6106727728
 10
-1.6608106393
 20
46.6213755141
 10
-1.6665130165
 20
46.6318187548
 10
-1.67270585
 20
46.6419788324
 10
-1.6793751127
 20
46.6518327316
 10
-1.6865056975
 20
46.6613581304
 10
-1.6940814493
 20
46.6705334456
 10
-1.7020852077
 20
46.6793378926
 10
-1.7104988421
 20
46.687751527
 10
-1.7193032891
 20
46.6957552854
 10
-1.7284786043
 20
46.7033310372
 10
-1.738004003
 20
46.710461622
 10
-1.7478579023
 20
46.7171308847
 10
-1.7580179799
 20
46.7233237182
 10
-1.7684612206
 20
46.7290260954
 10
-1.7791639619
 20
46.7342250987
 10
-1.7901019589
 20
46.7389089523
  0
LINE
  5
8A0
100
AcDbEntity
  8
DRAFT
100
AcDbLine
 62
7
  6
CONTINUOUS
 10
-4.1643912581
 20
1.3568163265
 11
-4.1143912581
 21
1.4068163265
  0
LINE
  5
8A1
100
AcDbEntity
  8
DRAFT
100
AcDbLine
 62
7
  6
CONTINUOUS
 10
-4.1397079485
 20
1.3568163265
 11
-4.0897079485
 21
1.4068163265
  0
LINE
  5
8A2
100
AcDbEntity
  8
RACCORDO
100
AcDbLine
 62
7
  6
CONTINUOUS
 10
-3.155816735
 20
1.4068163265
 11
-1.3409030822
 21
3.2217299794
  0
LINE
  5
8A3
100
AcDbEntity
  8
0
100
AcDbLine
 62
7
  6
CONTINUOUS
 10
-3.155816735
 20
1.4068163265
 11
-1.3409030822
 21
3.2217299794
  0
LINE
  5
8A4
100
AcDbEntity
  8
0
100
AcDbLine
 62
7
  6
CONTINUOUS
 10
-3.5504754731
 20
0.8517029164
 11
-3.7164509064
 21
0.6857274831
  0
LINE
  5
8A5
100
AcDbEntity
  8
RACCORDO
100
AcDbLine
 62
7
  6
CONTINUOUS
 10
-2.9830204082
 20
1.4068163265
 11
-1.2187176277
 21
3.171119107
  0
LINE
  5
8A6
100
AcDbEntity
  8
0
100
AcDbLine
 62
7
  6
CONTINUOUS
 10
-4.5272025784
 20
-0.1373658437
 11
-0.641747276
 21
3.7480894587
  0
LINE
  5
8A7
100
AcDbEntity
  8
0
100
AcDbLine
 62
253
  6
CONTINUOUS
 10
-10.7744530382
 20
-1.5374789432
 11
-10.7830204082
 21
-1.5431904427
  0
LINE
  5
8A8
100
AcDbEntity
  8
0
100
AcDbLine
 62
253
  6
CONTINUOUS
 10
-10.5744708085
 20
-1.7374823285
 11
-10.5830229466
 21
-1.7431836735
  0
LINE
  5
8A9
100
AcDbEntity
  8
DRAFT
100
AcDbLine
 62
7
  6
CONTINUOUS
 10
-4.3830204082
 20
42.2568163265
 11
-4.4873838421
 21
42.2568163265
  0
LINE
  5
8AA
100
AcDbEntity
  8
DRAFT
100
AcDbLine
 62
7
  6
CONTINUOUS
 10
-19.0786569743
 20
42.2568163265
 11
-19.1830204082
 21
42.2568163265
  0
LINE
  5
8AB
100
AcDbEntity
  8
DRAFT
100
AcDbLine
 62
7
  6
CONTINUOUS
 10
-5.2786569743
 20
42.2611797604
 11
-9.2836603385
 21
42.2611797604
  0
LINE
  5
8AC
100
AcDbEntity
  8
DRAFT
100
AcDbLine
 62
7
  6
CONTINUOUS
 10
-14.2823804778
 20
42.2611797604
 11
-18.2873838421
 21
42.2611797604
  0
LINE
  5
8AD
100
AcDbEntity
  8
DRAFT
100
AcDbLine
 62
7
  6
CONTINUOUS
 10
-8.2828669735
 20
42.2743981921
 11
-9.2836364412
 21
42.2743981921
  0
LINE
  5
8AE
100
AcDbEntity
  8
DRAFT
100
AcDbLine
 62
7
  6
CONTINUOUS
 10
-14.2824043752
 20
42.2743981921
 11
-15.2831738428
 21
42.2743981921
  0
LINE
  5
8AF
100
AcDbEntity
  8
DRAFT
100
AcDbLine
 62
7
  6
CONTINUOUS
 10
-14.2830204082
 20
42.3275093395
 11
-14.22428099
 21
42.3275093395
  0
LINE
  5
8B0
100
AcDbEntity
  8
DRAFT
100
AcDbLine
 62
7
  6
CONTINUOUS
 10
-9.3417598263
 20
42.3275093395
 11
-9.2830204082
 21
42.3275093395
  0
LINE
  5
8B1
100
AcDbEntity
  8
DRAFT
100
AcDbLine
 62
7
  6
CONTINUOUS
 10
-5.1782979947
 20
42.36153874
 11
-18.3877428217
 21
42.36153874
  0
LINE
  5
8B2
100
AcDbEntity
  8
0
100
AcDbLine
 62
7
  6
CONTINUOUS
 10
-8.7908745892
 20
43.0568163265
 11
-14.7751662272
 21
43.0568163265
  0
LINE
  5
8B3
100
AcDbEntity
  8
DRAFT
100
AcDbLine
 62
7
  6
CONTINUOUS
 10
-2.9830204082
 20
43.1068163265
 11
-4.3830204082
 21
43.1068163265
  0
LINE
  5
8B4
100
AcDbEntity
  8
0
100
AcDbLine
 62
7
  6
CONTINUOUS
 10
-2.9830204082
 20
43.1068163265
 11
-4.3830204082
 21
43.1068163265
  0
LINE
  5
8B5
100
AcDbEntity
  8
DRAFT
100
AcDbLine
 62
7
  6
CONTINUOUS
 10
-19.1830204082
 20
43.1068163265
 11
-20.5830204082
 21
43.1068163265
  0
LINE
  5
8B6
100
AcDbEntity
  8
0
100
AcDbLine
 62
7
  6
CONTINUOUS
 10
-19.1830204082
 20
43.1068163265
 11
-20.5830204082
 21
43.1068163265
  0
LINE
  5
8B7
100
AcDbEntity
  8
DRAFT
100
AcDbLine
 62
7
  6
CONTINUOUS
 10
-19.84958991
 20
43.1568163265
 11
-19.4139912131
 21
43.1568163265
  0
LINE
  5
8B8
100
AcDbEntity
  8
DRAFT
100
AcDbLine
 62
7
  6
CONTINUOUS
 10
-3.7164509064
 20
43.1568163265
 11
-4.1520496033
 21
43.1568163265
  0
LINE
  5
8B9
100
AcDbEntity
  8
DRAFT
100
AcDbLine
 62
7
  6
CONTINUOUS
 10
-4.1643912581
 20
43.1568163265
 11
-4.491747276
 21
43.1568163265
  0
LINE
  5
8BA
100
AcDbEntity
  8
DRAFT
100
AcDbLine
 62
7
  6
CONTINUOUS
 10
-19.0830204082
 20
43.1568163265
 11
-19.4016495583
 21
43.1568163265
  0
LINE
  5
8BB
100
AcDbEntity
  8
0
100
AcDbLine
 62
7
  6
CONTINUOUS
 10
-3.5504754731
 20
43.1655431943
 11
-3.7164509064
 21
43.1655431943
  0
LINE
  5
8BC
100
AcDbEntity
  8
0
100
AcDbLine
 62
7
  6
CONTINUOUS
 10
-19.84958991
 20
43.1655431943
 11
-20.0155653432
 21
43.1655431943
  0
LINE
  5
8BD
100
AcDbEntity
  8
DRAFT
100
AcDbLine
 62
7
  6
CONTINUOUS
 10
-19.3496660624
 20
43.2528118722
 11
-18.9782979947
 21
43.2528118722
  0
LINE
  5
8BE
100
AcDbEntity
  8
DRAFT
100
AcDbLine
 62
7
  6
CONTINUOUS
 10
-4.2163747539
 20
43.2528118722
 11
-4.5877428217
 21
43.2528118722
  0
LINE
  5
8BF
100
AcDbEntity
  8
0
100
AcDbLine
 62
253
  6
CONTINUOUS
 10
-4.2163747539
 20
43.5928032752
 11
-8.7861971019
 21
43.5928032752
  0
LINE
  5
8C0
100
AcDbEntity
  8
0
100
AcDbLine
 62
253
  6
CONTINUOUS
 10
-14.7798437144
 20
43.5928032752
 11
-19.3496660624
 21
43.5928032752
  0
LINE
  5
8C1
100
AcDbEntity
  8
0
100
AcDbLine
 62
7
  6
CONTINUOUS
 10
-8.7830204082
 20
43.9568163265
 11
-14.7830204082
 21
43.9568163265
  0
LWPOLYLINE
  5
8C2
100
AcDbEntity
  8
0
100
AcDbPolyline
 62
7
  6
CONTINUOUS
 90
9
 70
0
 10
-19.1901019589
 20
46.7389089523
 10
-19.2012504344
 20
46.7430670479
 10
-19.2125841292
 20
46.7466899682
 10
-19.2240773694
 20
46.7497695082
 10
-19.2357041207
 20
46.7522986942
 10
-19.247438042
 20
46.7542718007
 10
-19.2592525526
 20
46.7556843608
 10
-19.2711208921
 20
46.7565331763
 10
-19.2830161774
 20
46.7568163265
  0
LINE
  5
8C3
100
AcDbEntity
  8
0
100
AcDbLine
 62
253
  6
CONTINUOUS
 10
-10.7830204082
 20
46.0568230957
 11
-10.7744530382
 21
46.0511115963
  0
LINE
  5
8C4
100
AcDbEntity
  8
0
100
AcDbLine
 62
253
  6
CONTINUOUS
 10
-10.5830229466
 20
46.2568163265
 11
-10.5744708085
 21
46.2511149815
  0
LINE
  5
8C5
100
AcDbEntity
  8
DRAFT
100
AcDbLine
 62
7
  6
CONTINUOUS
 10
-4.1143912581
 20
43.1068163265
 11
-4.1643912581
 21
43.1568163265
  0
LINE
  5
8C6
100
AcDbEntity
  8
DRAFT
100
AcDbLine
 62
7
  6
CONTINUOUS
 10
-4.0897079485
 20
43.1068163265
 11
-4.1397079485
 21
43.1568163265
  0
LINE
  5
8C7
100
AcDbEntity
  8
RACCORDO
100
AcDbLine
 62
7
  6
CONTINUOUS
 10
-1.3409030822
 20
41.2919026737
 11
-3.155816735
 21
43.1068163265
  0
LINE
  5
8C8
100
AcDbEntity
  8
0
100
AcDbLine
 62
7
  6
CONTINUOUS
 10
-1.3409030822
 20
41.2919026737
 11
-3.155816735
 21
43.1068163265
  0
LINE
  5
8C9
100
AcDbEntity
  8
0
100
AcDbLine
 62
7
  6
CONTINUOUS
 10
-3.5504754731
 20
43.6619297367
 11
-3.7164509064
 21
43.8279051699
  0
LINE
  5
8CA
100
AcDbEntity
  8
RACCORDO
100
AcDbLine
 62
7
  6
CONTINUOUS
 10
-1.2187176277
 20
41.342513546
 11
-2.9830204082
 21
43.1068163265
  0
LINE
  5
8CB
100
AcDbEntity
  8
0
100
AcDbLine
 62
7
  6
CONTINUOUS
 10
-0.641747276
 20
40.7655431943
 11
-4.5272025784
 21
44.6509984967
  0
LINE
  5
8CC
100
AcDbEntity
  8
0
100
AcDbLine
 62
7
  6
CONTINUOUS
 10
-3.7164509064
 20
1.2651080623
 11
-3.5504754731
 21
1.3480894587
  0
LINE
  5
8CD
100
AcDbEntity
  8
0
100
AcDbLine
 62
7
  6
CONTINUOUS
 10
-3.7164509064
 20
0.8030808994
 11
-3.5504754731
 21
0.8517029164
  0
LWPOLYLINE
  5
8CE
100
AcDbEntity
  8
0
100
AcDbPolyline
 62
7
  6
CONTINUOUS
 90
6
 70
0
 10
-4.3186027743
 20
46.7542718007
 10
-4.3303366956
 20
46.7522986942
 10
-4.341963447
 20
46.7497695082
 10
-4.3534566872
 20
46.7466899682
 10
-4.3647903819
 20
46.7430670479
 10
-4.3759388575
 20
46.7389089523
  0
LINE
  5
8CF
100
AcDbEntity
  8
0
100
AcDbLine
 62
253
  6
CONTINUOUS
 10
-4.592478782
 20
44.592786352
 11
-8.7774703818
 21
44.592786352
  0
LINE
  5
8D0
100
AcDbEntity
  8
0
100
AcDbLine
 62
253
  6
CONTINUOUS
 10
-14.7885704345
 20
44.592786352
 11
-18.9735620344
 21
44.592786352
  0
LINE
  5
8D1
100
AcDbEntity
  8
0
100
AcDbLine
 62
7
  6
CONTINUOUS
 10
-1.1417409299
 20
44.6509984967
 11
-4.5272025784
 21
44.6509984967
  0
LINE
  5
8D2
100
AcDbEntity
  8
0
100
AcDbLine
 62
7
  6
CONTINUOUS
 10
-19.038838238
 20
44.6509984967
 11
-22.4242998865
 21
44.6509984967
  0
LINE
  5
8D3
100
AcDbEntity
  8
0
100
AcDbLine
 62
7
  6
CONTINUOUS
 10
-10.7743464548
 20
44.6516120391
 11
-12.7916943615
 21
44.6516120391
  0
LINE
  5
8D4
100
AcDbEntity
  8
0
100
AcDbLine
 62
7
  6
CONTINUOUS
 10
-12.7830204082
 20
44.6568163265
 11
-10.7830204082
 21
44.6568163265
  0
LINE
  5
8D5
100
AcDbEntity
  8
0
100
AcDbLine
 62
7
  6
CONTINUOUS
 10
-1.1326398084
 20
44.6568163265
 11
-7.3330204082
 21
44.6568163265
  0
LINE
  5
8D6
100
AcDbEntity
  8
0
100
AcDbLine
 62
7
  6
CONTINUOUS
 10
-16.2330204082
 20
44.6568163265
 11
-22.4334010079
 21
44.6568163265
  0
LINE
  5
8D7
100
AcDbEntity
  8
0
100
AcDbLine
 62
7
  6
CONTINUOUS
 10
-21.683743406
 20
45.3794660573
 11
-19.2822974103
 21
45.3794660573
  0
LINE
  5
8D8
100
AcDbEntity
  8
0
100
AcDbLine
 62
7
  6
CONTINUOUS
 10
-1.8822974103
 20
45.3794660573
 11
-4.283743406
 21
45.3794660573
  0
LINE
  5
8D9
100
AcDbEntity
  8
0
100
AcDbLine
 62
7
  6
CONTINUOUS
 10
-3.7164509064
 20
43.7105517537
 11
-3.5504754731
 21
43.6619297367
  0
LINE
  5
8DA
100
AcDbEntity
  8
0
100
AcDbLine
 62
7
  6
CONTINUOUS
 10
-3.7164509064
 20
43.2485245908
 11
-3.5504754731
 21
43.1655431943
  0
LWPOLYLINE
  5
8DB
100
AcDbEntity
  8
0
100
AcDbPolyline
 62
7
  6
CONTINUOUS
 90
18
 70
0
 10
-1.7901019589
 20
-2.2252762992
 10
-1.7791639619
 20
-2.2205924457
 10
-1.7684612206
 20
-2.2153934423
 10
-1.7580179799
 20
-2.2096910651
 10
-1.7478579023
 20
-2.2034982316
 10
-1.738004003
 20
-2.1968289689
 10
-1.7284786043
 20
-2.1896983842
 10
-1.7193032891
 20
-2.1821226323
 10
-1.7104988421
 20
-2.174118874
 10
-1.7020852077
 20
-2.1657052396
 10
-1.6940814493
 20
-2.1569007925
 10
-1.6865056975
 20
-2.1477254773
 10
-1.6793751127
 20
-2.1382000786
 10
-1.67270585
 20
-2.1283461794
 10
-1.6665130165
 20
-2.1181861017
 10
-1.6608106393
 20
-2.1077428611
 10
-1.655611636
 20
-2.0970401198
 10
-1.6509277824
 20
-2.0861021228
  0
LWPOLYLINE
  5
8DC
100
AcDbEntity
  8
0
100
AcDbPolyline
 62
7
  6
CONTINUOUS
 90
6
 70
0
 10
-21.7186027743
 20
46.7542718007
 10
-21.7303366956
 20
46.7522986942
 10
-21.741963447
 20
46.7497695082
 10
-21.7534566872
 20
46.7466899682
 10
-21.7647903819
 20
46.7430670479
 10
-21.7759388575
 20
46.7389089523
  0
LWPOLYLINE
  5
8DD
100
AcDbEntity
  8
0
100
AcDbPolyline
 62
7
  6
CONTINUOUS
 90
34
 70
0
 10
-4.2786528049
 20
46.7524444925
 10
-4.2905478265
 20
46.7521609417
 10
-4.3024159031
 20
46.7513117368
 10
-4.314230151
 20
46.7498988014
 10
-4.3259638083
 20
46.7479253361
 10
-4.3375902955
 20
46.7453958113
 10
-4.3490832761
 20
46.7423159569
 10
-4.3604167159
 20
46.7386927495
 10
-4.3715649422
 20
46.7345343965
 10
-4.3825027016
 20
46.7298503174
 10
-4.3932052178
 20
46.7246511228
 10
-4.403648247
 20
46.7189485899
 10
-4.4138081336
 20
46.7127556364
 10
-4.4236618631
 20
46.7060862905
 10
-4.4331871146
 20
46.69895566
 10
-4.4423623113
 20
46.6913798972
 10
-4.4511666692
 20
46.683376163
 10
-4.4595802446
 20
46.6749625876
 10
-4.4675839788
 20
46.6661582296
 10
-4.4751597416
 20
46.656983033
 10
-4.4822903722
 20
46.6474577815
 10
-4.488959718
 20
46.637604052
 10
-4.4951526715
 20
46.6274441654
 10
-4.5008552044
 20
46.6170011361
 10
-4.506054399
 20
46.60629862
 10
-4.5107384781
 20
46.5953608606
 10
-4.5148968312
 20
46.5842126343
 10
-4.5185200386
 20
46.5728791945
 10
-4.5215998929
 20
46.5613862139
 10
-4.5241294177
 20
46.5497597267
 10
-4.526102883
 20
46.5380260694
 10
-4.5275158184
 20
46.5262118215
 10
-4.5283650234
 20
46.5143437449
 10
-4.5286485742
 20
46.5024487233
  0
LWPOLYLINE
  5
8DE
100
AcDbEntity
  8
0
100
AcDbPolyline
 62
7
  6
CONTINUOUS
 90
4
 70
0
 10
-4.2830246389
 20
46.7568163265
 10
-4.2949199242
 20
46.7565331763
 10
-4.3067882637
 20
46.7556843608
 10
-4.3186027743
 20
46.7542718007
  0
LWPOLYLINE
  5
8DF
100
AcDbEntity
  8
0
100
AcDbPolyline
 62
7
  6
CONTINUOUS
 90
34
 70
0
 10
-21.6786528049
 20
46.7524444925
 10
-21.6905282765
 20
46.7521618729
 10
-21.702382019
 20
46.7513149711
 10
-21.7141871945
 20
46.7499049751
 10
-21.7259186892
 20
46.7479340291
 10
-21.7375481244
 20
46.7454060392
 10
-21.7490440901
 20
46.7423274606
 10
-21.7603788552
 20
46.7387058509
 10
-21.7715284671
 20
46.7345489965
 10
-21.7824678683
 20
46.7298662228
 10
-21.7931724031
 20
46.7246680375
 10
-21.8036176566
 20
46.718966249
 10
-21.8137797322
 20
46.7127738866
 10
-21.8236355169
 20
46.7061050494
 10
-21.8331627783
 20
46.6989747961
 10
-21.8423399916
 20
46.6913992352
 10
-21.8511463832
 20
46.6833955036
 10
-21.8595619694
 20
46.674981752
 10
-21.8675676635
 20
46.6661770564
 10
-21.8751453201
 20
46.6570013694
 10
-21.8822777711
 20
46.6474754752
 10
-21.8889488512
 20
46.6376209591
 10
-21.8951434435
 20
46.627460147
 10
-21.9008475088
 20
46.6170160617
 10
-21.9060481164
 20
46.6063123753
 10
-21.9107334807
 20
46.5953733418
 10
-21.914892985
 20
46.5842237454
 10
-21.9185172021
 20
46.5728888529
 10
-21.9215979207
 20
46.5613943419
 10
-21.9241281578
 20
46.5497662625
 10
-21.9261021764
 20
46.5380309828
 10
-21.9275155052
 20
46.5262151005
 10
-21.9283649453
 20
46.5143453823
 10
-21.9286485742
 20
46.5024487233
  0
LWPOLYLINE
  5
8E0
100
AcDbEntity
  8
0
100
AcDbPolyline
 62
7
  6
CONTINUOUS
 90
4
 70
0
 10
-21.6830246389
 20
46.7568163265
 10
-21.6949199242
 20
46.7565331763
 10
-21.7067882637
 20
46.7556843608
 10
-21.7186027743
 20
46.7542718007
  0
LWPOLYLINE
  5
8E1
100
AcDbEntity
  8
0
100
AcDbPolyline
 62
7
  6
CONTINUOUS
 90
37
 70
0
 10
-10.5830229466
 20
46.2568163265
 10
-10.5917466003
 20
46.2566259929
 10
-10.600453655
 20
46.2560553476
 10
-10.6091275393
 20
46.2551054743
 10
-10.6177517461
 20
46.2537781787
 10
-10.6263098596
 20
46.2520759839
 10
-10.6347855863
 20
46.2500021252
 10
-10.6431627943
 20
46.2475605472
 10
-10.6514255383
 20
46.2447558949
 10
-10.6595580855
 20
46.2415935034
 10
-10.6675449561
 20
46.2380793896
 10
-10.6753709475
 20
46.2342202404
 10
-10.683021157
 20
46.2300234
 10
-10.6904810226
 20
46.2254968547
 10
-10.6977363442
 20
46.2206492192
 10
-10.7047733052
 20
46.2154897211
 10
-10.7115785104
 20
46.2100281801
 10
-10.7181390059
 20
46.204274991
 10
-10.7244422979
 20
46.1982411071
 10
-10.730476388
 20
46.1919380131
 10
-10.7362297901
 20
46.1853777064
 10
-10.7416915479
 20
46.178572678
 10
-10.746851265
 20
46.171535881
 10
-10.75169912
 20
46.1642807099
 10
-10.7562258822
 20
46.1568209792
 10
-10.7604229351
 20
46.1491708888
 10
-10.7642822902
 20
46.1413450003
 10
-10.7677966004
 20
46.1333582152
 10
-10.7709591767
 20
46.1252257363
 10
-10.7737640004
 20
46.1169630437
 10
-10.7762057334
 20
46.1085858694
 10
-10.7782797287
 20
46.1001101593
 10
-10.7799820399
 20
46.0915520464
 10
-10.7813094292
 20
46.0829278236
 10
-10.7822593717
 20
46.0742539076
 10
-10.7828300597
 20
46.0655468073
 10
-10.7830204082
 20
46.0568230957
  0
LINE
  5
8E2
100
AcDbEntity
  8
0
100
AcDbLine
 62
253
  6
CONTINUOUS
 10
-21.6786528049
 20
45.8846475429
 11
-19.2873880114
 21
45.8846475429
  0
LINE
  5
8E3
100
AcDbEntity
  8
0
100
AcDbLine
 62
253
  6
CONTINUOUS
 10
-4.2786528049
 20
45.8846475429
 11
-1.8873880114
 21
45.8846475429
  0
LINE
  5
8E4
100
AcDbEntity
  8
0
100
AcDbLine
 62
253
  6
CONTINUOUS
 10
-1.6373922422
 20
46.1011538938
 11
-4.5286485742
 21
46.1011538938
  0
LINE
  5
8E5
100
AcDbEntity
  8
0
100
AcDbLine
 62
253
  6
CONTINUOUS
 10
-19.0373922422
 20
46.1011538938
 11
-21.9286485742
 21
46.1011538938
  0
LINE
  5
8E6
100
AcDbEntity
  8
0
100
AcDbLine
 62
7
  6
CONTINUOUS
 10
-7.376671055
 20
46.2131656797
 11
-8.2484938704
 21
46.2131656797
  0
LINE
  5
8E7
100
AcDbEntity
  8
0
100
AcDbLine
 62
7
  6
CONTINUOUS
 10
-15.3175469459
 20
46.2131656797
 11
-16.1893697613
 21
46.2131656797
  0
LINE
  5
8E8
100
AcDbEntity
  8
0
100
AcDbLine
 62
7
  6
CONTINUOUS
 10
-8.2481626919
 20
46.2511149815
 11
-10.5744708085
 21
46.2511149815
  0
LINE
  5
8E9
100
AcDbEntity
  8
0
100
AcDbLine
 62
7
  6
CONTINUOUS
 10
-12.9915700078
 20
46.2511149815
 11
-15.3178781244
 21
46.2511149815
  0
LINE
  5
8EA
100
AcDbEntity
  8
0
100
AcDbLine
 62
7
  6
CONTINUOUS
 10
-7.3330204082
 20
46.2568163265
 11
-10.5830229466
 21
46.2568163265
  0
LINE
  5
8EB
100
AcDbEntity
  8
0
100
AcDbLine
 62
7
  6
CONTINUOUS
 10
-12.9830178697
 20
46.2568163265
 11
-16.2330204082
 21
46.2568163265
  0
LINE
  5
8EC
100
AcDbEntity
  8
0
100
AcDbLine
 62
253
  6
CONTINUOUS
 10
-1.6373922422
 20
46.5024487233
 11
-4.5286485742
 21
46.5024487233
  0
LINE
  5
8ED
100
AcDbEntity
  8
0
100
AcDbLine
 62
253
  6
CONTINUOUS
 10
-19.0373922422
 20
46.5024487233
 11
-21.9286485742
 21
46.5024487233
  0
LINE
  5
8EE
100
AcDbEntity
  8
0
100
AcDbLine
 62
7
  6
CONTINUOUS
 10
-1.8873880114
 20
46.7524444925
 11
-4.2786528049
 21
46.7524444925
  0
LINE
  5
8EF
100
AcDbEntity
  8
0
100
AcDbLine
 62
7
  6
CONTINUOUS
 10
-19.2873880114
 20
46.7524444925
 11
-21.6786528049
 21
46.7524444925
  0
LWPOLYLINE
  5
8F0
100
AcDbEntity
  8
0
100
AcDbPolyline
 62
7
  6
CONTINUOUS
 90
37
 70
0
 10
-12.9830178697
 20
46.2568163265
 10
-12.974294216
 20
46.2566259929
 10
-12.9655871613
 20
46.2560553476
 10
-12.9569132771
 20
46.2551054743
 10
-12.9482890703
 20
46.2537781787
 10
-12.9397309568
 20
46.2520759839
 10
-12.93125523
 20
46.2500021252
 10
-12.922878022
 20
46.2475605472
 10
-12.914615278
 20
46.2447558949
 10
-12.9064827309
 20
46.2415935034
 10
-12.8984958602
 20
46.2380793896
 10
-12.8906698688
 20
46.2342202404
 10
-12.8830196593
 20
46.2300234
 10
-12.8755597937
 20
46.2254968547
 10
-12.8683044721
 20
46.2206492192
 10
-12.8612675112
 20
46.2154897211
 10
-12.8544623059
 20
46.2100281801
 10
-12.8479018105
 20
46.204274991
 10
-12.8415985184
 20
46.1982411071
 10
-12.8355644283
 20
46.1919380131
 10
-12.8298110263
 20
46.1853777064
 10
-12.8243492684
 20
46.178572678
 10
-12.8191895513
 20
46.171535881
 10
-12.8143416963
 20
46.1642807099
 10
-12.8098149341
 20
46.1568209792
 10
-12.8056178813
 20
46.1491708888
 10
-12.8017585261
 20
46.1413450003
 10
-12.7982442159
 20
46.1333582152
 10
-12.7950816396
 20
46.1252257363
 10
-12.7922768159
 20
46.1169630437
 10
-12.789835083
 20
46.1085858694
 10
-12.7877610876
 20
46.1001101593
 10
-12.7860587764
 20
46.0915520464
 10
-12.7847313871
 20
46.0829278236
 10
-12.7837814447
 20
46.0742539076
 10
-12.7832107566
 20
46.0655468073
 10
-12.7830204082
 20
46.0568230957
  0
LWPOLYLINE
  5
8F1
100
AcDbEntity
  8
0
100
AcDbPolyline
 62
7
  6
CONTINUOUS
 90
9
 70
0
 10
-1.7901019589
 20
46.7389089523
 10
-1.8012504344
 20
46.7430670479
 10
-1.8125841292
 20
46.7466899682
 10
-1.8240773694
 20
46.7497695082
 10
-1.8357041207
 20
46.7522986942
 10
-1.847438042
 20
46.7542718007
 10
-1.8592525526
 20
46.7556843608
 10
-1.8711208921
 20
46.7565331763
 10
-1.8830161774
 20
46.7568163265
  0
ARC
  5
8F2
100
AcDbEntity
  8
ASSI
100
AcDbCircle
 62
7
  6
CONTINUOUS
 10
-21.2889287789
 20
3.3668163265
 40
0.71
100
AcDbArc
 50
229.7020215745
 51
265.2988538673
  0
ARC
  5
8F3
100
AcDbEntity
  8
ASSI
100
AcDbCircle
 62
7
  6
CONTINUOUS
 10
-22.0730204082
 20
4.1509079558
 40
0.71
100
AcDbArc
 50
184.7020215745
 51
220.2988538673
  0
ARC
  5
8F4
100
AcDbEntity
  8
0
100
AcDbCircle
 62
7
  6
CONTINUOUS
 10
-15.7830204082
 20
-0.8931836735
 40
0.5
100
AcDbArc
 50
144.3637748935
 51
215.6362251065
  0
ARC
  5
8F5
100
AcDbEntity
  8
RACCORDO
100
AcDbCircle
 62
7
  6
CONTINUOUS
 10
-13.4830204082
 20
4.7068163265
 40
0.3
100
AcDbArc
 50
90.0
 51
170.0
  0
ARC
  5
8F6
100
AcDbEntity
  8
0
100
AcDbCircle
 62
7
  6
CONTINUOUS
 10
-13.4830204082
 20
4.7068163265
 40
0.3
100
AcDbArc
 50
90.0
 51
170.0
  0
ARC
  5
8F7
100
AcDbEntity
  8
CURVE
100
AcDbCircle
 62
253
  6
CONTINUOUS
 10
-19.2088534331
 20
23.783226488
 40
0.8
100
AcDbArc
 50
330.0
 51
48.5903778907
  0
ARC
  5
8F8
100
AcDbEntity
  8
CURVE
100
AcDbCircle
 62
253
  6
CONTINUOUS
 10
-17.973212787
 20
22.7234188669
 40
0.8
100
AcDbArc
 50
150.0
 51
228.5903778907
  0
ARC
  5
8F9
100
AcDbEntity
  8
ASSI
100
AcDbCircle
 62
7
  6
CONTINUOUS
 10
-21.2889287789
 20
41.1468163265
 40
0.71
100
AcDbArc
 50
109.9961491498
 51
114.2412807351
  0
ARC
  5
8FA
100
AcDbEntity
  8
ASSI
100
AcDbCircle
 62
7
  6
CONTINUOUS
 10
-22.0730204082
 20
40.3627246972
 40
0.71
100
AcDbArc
 50
139.7010712477
 51
175.2998279782
  0
ARC
  5
8FB
100
AcDbEntity
  8
0
100
AcDbCircle
 62
7
  6
CONTINUOUS
 10
-15.7830204082
 20
45.4068163265
 40
0.5
100
AcDbArc
 50
144.3637748935
 51
215.6362251065
  0
ARC
  5
8FC
100
AcDbEntity
  8
RACCORDO
100
AcDbCircle
 62
7
  6
CONTINUOUS
 10
-13.4830204082
 20
39.8068163265
 40
0.3
100
AcDbArc
 50
189.8838085533
 51
270.0
  0
ARC
  5
8FD
100
AcDbEntity
  8
0
100
AcDbCircle
 62
7
  6
CONTINUOUS
 10
-13.4830204082
 20
39.8068163265
 40
0.3
100
AcDbArc
 50
189.8838085533
 51
270.0
  0
ARC
  5
8FE
100
AcDbEntity
  8
ASSI
100
AcDbCircle
 62
7
  6
CONTINUOUS
 10
-1.4930204082
 20
5.5509079558
 40
0.71
100
AcDbArc
 50
319.7020215745
 51
355.2988538673
  0
ARC
  5
8FF
100
AcDbEntity
  8
ASSI
100
AcDbCircle
 62
7
  6
CONTINUOUS
 10
-2.2771120374
 20
4.7668163265
 40
0.71
100
AcDbArc
 50
274.7020215745
 51
310.2988538673
  0
ARC
  5
900
100
AcDbEntity
  8
0
100
AcDbCircle
 62
7
  6
CONTINUOUS
 10
-7.7830204082
 20
-0.8931836735
 40
0.5
100
AcDbArc
 50
324.3637748935
 51
35.6362251065
  0
ARC
  5
901
100
AcDbEntity
  8
RACCORDO
100
AcDbCircle
 62
7
  6
CONTINUOUS
 10
-10.0830204082
 20
4.7068163265
 40
0.3
100
AcDbArc
 50
10.0
 51
90.0
  0
ARC
  5
902
100
AcDbEntity
  8
0
100
AcDbCircle
 62
7
  6
CONTINUOUS
 10
-10.0830204082
 20
4.7068163265
 40
0.3
100
AcDbArc
 50
10.0
 51
90.0
  0
ARC
  5
903
100
AcDbEntity
  8
0
100
AcDbCircle
 62
7
  6
CONTINUOUS
 10
-2.5830204082
 20
39.4568163265
 40
1.4
100
AcDbArc
 50
9.8532892494
 51
90.0
  0
ARC
  5
904
100
AcDbEntity
  8
CURVE
100
AcDbCircle
 62
253
  6
CONTINUOUS
 10
-6.2830204082
 20
25.2568163265
 40
1.0
100
AcDbArc
 50
203.5781784782
 51
156.4218215218
  0
ARC
  5
905
100
AcDbEntity
  8
ASSI
100
AcDbCircle
 62
7
  6
CONTINUOUS
 10
-2.2771120374
 20
39.7468163265
 40
0.71
100
AcDbArc
 50
49.7010712477
 51
85.2998279782
  0
ARC
  5
906
100
AcDbEntity
  8
ASSI
100
AcDbCircle
 62
7
  6
CONTINUOUS
 10
-1.4930204082
 20
38.9627246972
 40
0.71
100
AcDbArc
 50
4.7001961556
 51
40.2989529286
  0
ARC
  5
907
100
AcDbEntity
  8
0
100
AcDbCircle
 62
7
  6
CONTINUOUS
 10
-7.7830204082
 20
45.4068163265
 40
0.5
100
AcDbArc
 50
324.3637748935
 51
35.6362251065
  0
ARC
  5
908
100
AcDbEntity
  8
RACCORDO
100
AcDbCircle
 62
7
  6
CONTINUOUS
 10
-10.0830204082
 20
39.8068163265
 40
0.3
100
AcDbArc
 50
270.0
 51
350.0
  0
ARC
  5
909
100
AcDbEntity
  8
0
100
AcDbCircle
 62
7
  6
CONTINUOUS
 10
-10.0830204082
 20
39.8068163265
 40
0.3
100
AcDbArc
 50
270.0
 51
350.0
  0
ELLIPSE
  5
90A
100
AcDbEntity
  8
RACCORDO
100
AcDbEllipse
 62
7
  6
CONTINUOUS
 10
-2.5168699797
 20
4.4906658981
 30
0.0
 11
0.3535803156
 21
-0.3535803156
 31
0.0
 40
0.9999238505
 41
-0.7853600872
 42
-0.2962124934
  0
ELLIPSE
  5
90B
100
AcDbEntity
  8
RACCORDO
100
AcDbEllipse
 62
7
  6
CONTINUOUS
 10
-9.9901271893
 20
4.0211908962
 30
0.0
 11
0.5
 21
-0.0
 31
0.0
 40
0.0087268678
 41
0.7853981634
 42
1.1434651843
  0
ELLIPSE
  5
90C
100
AcDbEntity
  8
RACCORDO
100
AcDbEllipse
 62
7
  6
CONTINUOUS
 10
-13.575913627
 20
4.0211908962
 30
0.0
 11
0.5
 21
0.0
 31
0.0
 40
0.0087268678
 41
1.97725418
 42
2.3561944902
  0
ELLIPSE
  5
90D
100
AcDbEntity
  8
RACCORDO
100
AcDbEllipse
 62
7
  6
CONTINUOUS
 10
-2.6333250643
 20
39.9282630091
 30
0.0
 11
1.8480888181
 21
0.7655034529
 31
0.0
 40
0.9998215708
 41
-0.3926359958
 42
0.3926359958
  0
ELLIPSE
  5
90E
100
AcDbEntity
  8
RACCORDO
100
AcDbEllipse
 62
7
  6
CONTINUOUS
 10
-2.6333250643
 20
4.585369644
 30
0.0
 11
1.8480888181
 21
-0.7655034529
 31
0.0
 40
0.9998215708
 41
-0.3926359958
 42
0.3926359958
  0
ELLIPSE
  5
90F
100
AcDbEntity
  8
RACCORDO
100
AcDbEllipse
 62
7
  6
CONTINUOUS
 10
-20.9327157521
 20
4.585369644
 30
0.0
 11
1.8480888181
 21
0.7655034529
 31
0.0
 40
0.9998215708
 41
2.7489566578
 42
3.5342286494
  0
ELLIPSE
  5
910
100
AcDbEntity
  8
RACCORDO
100
AcDbEllipse
 62
7
  6
CONTINUOUS
 10
-20.9327157521
 20
39.9282630091
 30
0.0
 11
1.8480888181
 21
-0.7655034529
 31
0.0
 40
0.9998215708
 41
2.7489566578
 42
3.5342286494
  0
ELLIPSE
  5
911
100
AcDbEntity
  8
RACCORDO
100
AcDbEllipse
 62
7
  6
CONTINUOUS
 10
-2.7555105187
 20
39.8776521367
 30
0.0
 11
1.8480888181
 21
0.7655034529
 31
0.0
 40
0.9998215708
 41
-0.3926359958
 42
0.3926359958
  0
ELLIPSE
  5
912
100
AcDbEntity
  8
RACCORDO
100
AcDbEllipse
 62
7
  6
CONTINUOUS
 10
-2.7555105187
 20
4.6359805163
 30
0.0
 11
-1.8480888181
 21
0.7655034529
 31
0.0
 40
0.9998215708
 41
2.7489566578
 42
3.5342286494
  0
ELLIPSE
  5
913
100
AcDbEntity
  8
RACCORDO
100
AcDbEllipse
 62
7
  6
CONTINUOUS
 10
-20.8105302976
 20
4.6359805163
 30
0.0
 11
-1.8480888181
 21
-0.7655034529
 31
0.0
 40
0.9998215708
 41
-0.3926359958
 42
-0.278861721
  0
ELLIPSE
  5
914
100
AcDbEntity
  8
RACCORDO
100
AcDbEllipse
 62
7
  6
CONTINUOUS
 10
-20.8105302976
 20
4.6359805163
 30
0.0
 11
-1.8480888181
 21
-0.7655034529
 31
0.0
 40
0.9998215708
 41
6.4756880539
 42
6.675821303
  0
ELLIPSE
  5
915
100
AcDbEntity
  8
RACCORDO
100
AcDbEllipse
 62
7
  6
CONTINUOUS
 10
-20.8105302976
 20
39.8776521367
 30
0.0
 11
1.8480888181
 21
-0.7655034529
 31
0.0
 40
0.9998215708
 41
9.032141965
 42
9.2322752141
  0
ELLIPSE
  5
916
100
AcDbEntity
  8
RACCORDO
100
AcDbEllipse
 62
7
  6
CONTINUOUS
 10
-20.8105302976
 20
39.8776521367
 30
0.0
 11
1.8480888181
 21
-0.7655034529
 31
0.0
 40
0.9998215708
 41
3.4204543746
 42
3.5342286494
  0
ELLIPSE
  5
917
100
AcDbEntity
  8
0
100
AcDbEllipse
 62
7
  6
CONTINUOUS
 10
-9.9901271893
 20
4.0211908962
 30
0.0
 11
0.5
 21
-0.0
 31
0.0
 40
0.0087268678
 41
0.7853981634
 42
1.1434651843
  0
ELLIPSE
  5
918
100
AcDbEntity
  8
0
100
AcDbEllipse
 62
7
  6
CONTINUOUS
 10
-13.575913627
 20
4.0211908962
 30
0.0
 11
0.5
 21
0.0
 31
0.0
 40
0.0087268678
 41
1.97725418
 42
2.3561944902
  0
ELLIPSE
  5
919
100
AcDbEntity
  8
0
100
AcDbEllipse
 62
7
  6
CONTINUOUS
 10
-13.7829442441
 20
-119.6188261095
 30
0.0
 11
-0.4997620717
 21
162.4815824859
 31
0.0
 40
0.000109066
 41
6.3643762205
 42
6.3764914216
  0
ELLIPSE
  5
91A
100
AcDbEntity
  8
0
100
AcDbEllipse
 62
7
  6
CONTINUOUS
 10
-13.7829442441
 20
164.1324587626
 30
0.0
 11
0.4997620717
 21
162.4815824859
 31
0.0
 40
0.000109066
 41
-3.234898768
 42
-3.2227835669
  0
ELLIPSE
  5
91B
100
AcDbEntity
  8
0
100
AcDbEllipse
 62
7
  6
CONTINUOUS
 10
-9.7830965722
 20
-119.6188261095
 30
0.0
 11
0.4997620717
 21
162.4815824859
 31
0.0
 40
0.000109066
 41
-0.0933061144
 42
-0.0811909133
  0
ELLIPSE
  5
91C
100
AcDbEntity
  8
0
100
AcDbEllipse
 62
7
  6
CONTINUOUS
 10
-9.7830965722
 20
164.1324587626
 30
0.0
 11
-0.4997620717
 21
162.4815824859
 31
0.0
 40
0.000109066
 41
3.2227835669
 42
3.234898768
  0
ELLIPSE
  5
91D
100
AcDbEntity
  8
0
100
AcDbEllipse
 62
7
  6
CONTINUOUS
 10
-20.9327157521
 20
39.9282630091
 30
0.0
 11
1.8480888181
 21
-0.7655034529
 31
0.0
 40
0.9998215708
 41
2.7489566578
 42
3.5342286494
  0
ELLIPSE
  5
91E
100
AcDbEntity
  8
0
100
AcDbEllipse
 62
7
  6
CONTINUOUS
 10
-20.9327157521
 20
4.585369644
 30
0.0
 11
1.8480888181
 21
0.7655034529
 31
0.0
 40
0.9998215708
 41
2.7489566578
 42
3.5342286494
  0
ELLIPSE
  5
91F
100
AcDbEntity
  8
0
100
AcDbEllipse
 62
7
  6
CONTINUOUS
 10
-2.6333250643
 20
4.585369644
 30
0.0
 11
1.8480888181
 21
-0.7655034529
 31
0.0
 40
0.9998215708
 41
-0.3926359958
 42
0.3926359958
  0
ELLIPSE
  5
920
100
AcDbEntity
  8
0
100
AcDbEllipse
 62
7
  6
CONTINUOUS
 10
-2.6333250643
 20
39.9282630091
 30
0.0
 11
1.8480888181
 21
0.7655034529
 31
0.0
 40
0.9998215708
 41
-0.3926359958
 42
0.3926359958
  0
ELLIPSE
  5
921
100
AcDbEntity
  8
0
100
AcDbEllipse
 62
7
  6
CONTINUOUS
 10
-2.5168699797
 20
4.4906658981
 30
0.0
 11
0.3535803156
 21
-0.3535803156
 31
0.0
 40
0.9999238505
 41
-0.7853600872
 42
-0.2962124934
  0
ELLIPSE
  5
922
100
AcDbEntity
  8
0
100
AcDbEllipse
 62
7
  6
CONTINUOUS
 10
-20.8105302976
 20
39.8776521367
 30
0.0
 11
1.8480888181
 21
-0.7655034529
 31
0.0
 40
0.9998215708
 41
9.032141965
 42
9.2322752141
  0
ELLIPSE
  5
923
100
AcDbEntity
  8
0
100
AcDbEllipse
 62
7
  6
CONTINUOUS
 10
-20.8105302976
 20
39.8776521367
 30
0.0
 11
1.8480888181
 21
-0.7655034529
 31
0.0
 40
0.9998215708
 41
3.4204543746
 42
3.5342286494
  0
ELLIPSE
  5
924
100
AcDbEntity
  8
0
100
AcDbEllipse
 62
7
  6
CONTINUOUS
 10
-20.8105302976
 20
4.6359805163
 30
0.0
 11
-1.8480888181
 21
-0.7655034529
 31
0.0
 40
0.9998215708
 41
-0.3926359958
 42
-0.278861721
  0
ELLIPSE
  5
925
100
AcDbEntity
  8
0
100
AcDbEllipse
 62
7
  6
CONTINUOUS
 10
-20.8105302976
 20
4.6359805163
 30
0.0
 11
-1.8480888181
 21
-0.7655034529
 31
0.0
 40
0.9998215708
 41
6.4756880539
 42
6.675821303
  0
ELLIPSE
  5
926
100
AcDbEntity
  8
0
100
AcDbEllipse
 62
7
  6
CONTINUOUS
 10
-2.7555105187
 20
4.6359805163
 30
0.0
 11
-1.8480888181
 21
0.7655034529
 31
0.0
 40
0.9998215708
 41
2.7489566578
 42
3.5342286494
  0
ELLIPSE
  5
927
100
AcDbEntity
  8
0
100
AcDbEllipse
 62
7
  6
CONTINUOUS
 10
-2.7555105187
 20
39.8776521367
 30
0.0
 11
1.8480888181
 21
0.7655034529
 31
0.0
 40
0.9998215708
 41
-0.3926359958
 42
0.3926359958
  0
ELLIPSE
  5
928
100
AcDbEntity
  8
0
100
AcDbEllipse
 62
7
  6
CONTINUOUS
 10
-14.2830204082
 20
44.6155100363
 30
0.0
 11
1.0205840068
 21
-0.0
 31
0.0
 40
0.0058178298
 41
-3.1415418822
 42
-2.0892111528
  0
ELLIPSE
  5
929
100
AcDbEntity
  8
0
100
AcDbEllipse
 62
7
  6
CONTINUOUS
 10
-9.2830204082
 20
44.6155100363
 30
0.0
 11
1.0205840068
 21
-0.0
 31
0.0
 40
0.0058178298
 41
5.2308038064
 42
6.2831345357
  0
ELLIPSE
  5
92A
100
AcDbEntity
  8
0
100
AcDbEllipse
 62
7
  6
CONTINUOUS
 10
-9.2830204082
 20
-0.1018773833
 30
0.0
 11
1.0205840068
 21
-0.0
 31
0.0
 40
0.0058178298
 41
0.0000507714
 42
1.0523815008
  0
ELLIPSE
  5
92B
100
AcDbEntity
  8
DRAFT
100
AcDbEllipse
 62
7
  6
CONTINUOUS
 10
-14.2830204082
 20
42.3187777528
 30
0.0
 11
1.0005407263
 21
-0.0
 31
0.0
 40
0.0087268678
 41
1.5707963268
 42
3.1416688118
  0
ELLIPSE
  5
92C
100
AcDbEntity
  8
DRAFT
100
AcDbEllipse
 62
7
  6
CONTINUOUS
 10
-14.2830204082
 20
2.1948549002
 30
0.0
 11
1.0005407263
 21
0.0
 31
0.0
 40
0.0087268678
 41
3.1415164954
 42
4.7123889804
  0
ELLIPSE
  5
92D
100
AcDbEntity
  8
0
100
AcDbEllipse
 62
7
  6
CONTINUOUS
 10
-14.2830204082
 20
-0.1018773833
 30
0.0
 11
1.0205840068
 21
0.0
 31
0.0
 40
0.0058178298
 41
2.0892111528
 42
3.1415418822
  0
ELLIPSE
  5
92E
100
AcDbEntity
  8
DRAFT
100
AcDbEllipse
 62
7
  6
CONTINUOUS
 10
-9.2830204082
 20
2.1948549002
 30
0.0
 11
1.0005407263
 21
0.0
 31
0.0
 40
0.0087268678
 41
-1.5707963268
 42
0.0000761582
  0
ELLIPSE
  5
92F
100
AcDbEntity
  8
DRAFT
100
AcDbEllipse
 62
7
  6
CONTINUOUS
 10
-11.7830204082
 20
2.0569810223
 30
0.0
 11
14.9982560202
 21
-0.0
 31
0.0
 40
0.0087268678
 41
1.4072992552
 42
1.7342933984
  0
ELLIPSE
  5
930
100
AcDbEntity
  8
DRAFT
100
AcDbEllipse
 62
7
  6
CONTINUOUS
 10
-11.7830204082
 20
42.4566516308
 30
0.0
 11
14.9982560202
 21
-0.0
 31
0.0
 40
0.0087268678
 41
-1.7342933984
 42
-1.4072992552
  0
ELLIPSE
  5
931
100
AcDbEntity
  8
DRAFT
100
AcDbEllipse
 62
7
  6
CONTINUOUS
 10
-9.2830204082
 20
42.3187777528
 30
0.0
 11
1.0005407263
 21
-0.0
 31
0.0
 40
0.0087268678
 41
-0.0000761582
 42
1.5707963268
  0
ELLIPSE
  5
932
100
AcDbEntity
  8
0
100
AcDbEllipse
 62
7
  6
CONTINUOUS
 10
-15.7360631181
 20
44.6129094134
 30
0.0
 11
0.4530427099
 21
0.0
 31
0.0
 40
0.0058178298
 41
-3.1357748894
 42
-0.3023808704
  0
ELLIPSE
  5
933
100
AcDbEntity
  8
0
100
AcDbEllipse
 62
7
  6
CONTINUOUS
 10
-7.8299776982
 20
44.6129094134
 30
0.0
 11
0.4530427099
 21
-0.0
 31
0.0
 40
0.0058178298
 41
-2.8392117832
 42
-0.0058177642
  0
ELLIPSE
  5
934
100
AcDbEntity
  8
0
100
AcDbEllipse
 62
7
  6
CONTINUOUS
 10
-7.8299776982
 20
-0.0992767604
 30
0.0
 11
0.4530427099
 21
0.0
 31
0.0
 40
0.0058178298
 41
0.0058177642
 42
2.8392117832
  0
ELLIPSE
  5
935
100
AcDbEntity
  8
0
100
AcDbEllipse
 62
7
  6
CONTINUOUS
 10
-15.7360631181
 20
-0.0992767604
 30
0.0
 11
0.4530427099
 21
-0.0
 31
0.0
 40
0.0058178298
 41
0.3023808704
 42
3.1357748894
  0
ELLIPSE
  5
936
100
AcDbEntity
  8
0
100
AcDbEllipse
 62
7
  6
CONTINUOUS
 10
-3.5924239047
 20
0.9208293779
 30
0.0
 11
1.0000571192
 21
0.9999809595
 31
0.0
 40
0.0061705924
 41
1.9467387334
 42
3.1419458735
  0
ELLIPSE
  5
937
100
AcDbEntity
  8
0
100
AcDbEllipse
 62
7
  6
CONTINUOUS
 10
-19.9736169116
 20
0.9208293779
 30
0.0
 11
1.0000571192
 21
-0.9999809595
 31
0.0
 40
0.0061705924
 41
-0.0003532199
 42
1.1948539202
  0
ELLIPSE
  5
938
100
AcDbEntity
  8
0
100
AcDbEllipse
 62
7
  6
CONTINUOUS
 10
-19.9736169116
 20
43.5928032752
 30
0.0
 11
1.0000571192
 21
0.9999809595
 31
0.0
 40
0.0061705924
 41
-1.1948539202
 42
0.0003532199
  0
ELLIPSE
  5
939
100
AcDbEntity
  8
0
100
AcDbEllipse
 62
7
  6
CONTINUOUS
 10
-3.5924239047
 20
43.5928032752
 30
0.0
 11
1.0000571192
 21
-0.9999809595
 31
0.0
 40
0.0061705924
 41
3.1412394337
 42
4.3364465738
  0
ELLIPSE
  5
93A
100
AcDbEntity
  8
0
100
AcDbEllipse
 62
7
  6
CONTINUOUS
 10
-21.6830161773
 20
-1.1545085389
 30
0.0
 11
-0.0029088041
 21
0.2886641433
 31
0.0
 40
0.8660144118
 41
-0.0087264124
 42
1.5591610446
  0
ELLIPSE
  5
93B
100
AcDbEntity
  8
0
100
AcDbEllipse
 62
7
  6
CONTINUOUS
 10
-19.283024639
 20
-1.1545085389
 30
0.0
 11
0.0029088041
 21
0.2886641433
 31
0.0
 40
0.8660144118
 41
-1.5591610446
 42
0.0087264124
  0
ELLIPSE
  5
93C
100
AcDbEntity
  8
0
100
AcDbEllipse
 62
7
  6
CONTINUOUS
 10
-4.2830161773
 20
-1.1545085389
 30
0.0
 11
-0.0029088041
 21
0.2886641433
 31
0.0
 40
0.8660144118
 41
-0.0087264124
 42
1.5591610446
  0
ELLIPSE
  5
93D
100
AcDbEntity
  8
0
100
AcDbEllipse
 62
7
  6
CONTINUOUS
 10
-1.883024639
 20
-1.1545085389
 30
0.0
 11
0.0029088041
 21
0.2886641433
 31
0.0
 40
0.8660144118
 41
-1.5591610446
 42
0.0087264124
  0
ELLIPSE
  5
93E
100
AcDbEntity
  8
0
100
AcDbEllipse
 62
7
  6
CONTINUOUS
 10
-21.6830161773
 20
45.6681411919
 30
0.0
 11
0.0029088041
 21
0.2886641433
 31
0.0
 40
0.8660144118
 41
-4.7007536982
 42
-3.1328662412
  0
ELLIPSE
  5
93F
100
AcDbEntity
  8
0
100
AcDbEllipse
 62
7
  6
CONTINUOUS
 10
-19.283024639
 20
45.6681411919
 30
0.0
 11
-0.0029088041
 21
0.2886641433
 31
0.0
 40
0.8660144118
 41
-3.150319066
 42
-1.582431609
  0
ELLIPSE
  5
940
100
AcDbEntity
  8
0
100
AcDbEllipse
 62
7
  6
CONTINUOUS
 10
-1.883024639
 20
45.6681411919
 30
0.0
 11
-0.0029088041
 21
0.2886641433
 31
0.0
 40
0.8660144118
 41
-3.150319066
 42
-1.582431609
  0
ELLIPSE
  5
941
100
AcDbEntity
  8
0
100
AcDbEllipse
 62
7
  6
CONTINUOUS
 10
-4.2830161773
 20
45.6681411919
 30
0.0
 11
0.0029088041
 21
0.2886641433
 31
0.0
 40
0.8660144118
 41
-4.7007536982
 42
-3.1328662412
  0
ELLIPSE
  5
942
100
AcDbEntity
  8
0
100
AcDbEllipse
 62
7
  6
CONTINUOUS
 10
-22.4242745012
 20
0.3626426181
 30
0.0
 11
0.4160498344
 21
0.2773626446
 31
0.0
 40
0.9999450019
 41
2.5536219432
 42
4.1243675013
  0
ELLIPSE
  5
943
100
AcDbEntity
  8
0
100
AcDbEllipse
 62
7
  6
CONTINUOUS
 10
-22.4242745012
 20
44.150990035
 30
0.0
 11
-0.4160498344
 21
0.2773626446
 31
0.0
 40
0.9999450019
 41
-0.9827748477
 42
0.5879707104
  0
ELLIPSE
  5
944
100
AcDbEntity
  8
0
100
AcDbEllipse
 62
7
  6
CONTINUOUS
 10
-1.1417663151
 20
44.150990035
 30
0.0
 11
-0.4160498344
 21
-0.2773626446
 31
0.0
 40
0.9999450019
 41
2.5536219432
 42
4.1243675013
  0
ELLIPSE
  5
945
100
AcDbEntity
  8
0
100
AcDbEllipse
 62
7
  6
CONTINUOUS
 10
-1.1417663151
 20
0.3626426181
 30
0.0
 11
0.4160498344
 21
-0.2773626446
 31
0.0
 40
0.9999450019
 41
-0.9827748477
 42
0.5879707104
  0
ELLIPSE
  5
946
100
AcDbEntity
  8
0
100
AcDbEllipse
 62
7
  6
CONTINUOUS
 10
-19.3496660624
 20
44.210583297
 30
0.0
 11
0.4999904798
 21
0.5000285596
 31
0.0
 40
0.0061705924
 41
-3.1303103451
 42
-2.1029719701
  0
ELLIPSE
  5
947
100
AcDbEntity
  8
0
100
AcDbEllipse
 62
7
  6
CONTINUOUS
 10
-4.2163747539
 20
44.210583297
 30
0.0
 11
-0.4999904798
 21
0.5000285596
 31
0.0
 40
0.0061705924
 41
-4.1802133371
 42
-3.1528749621
  0
ELLIPSE
  5
948
100
AcDbEntity
  8
0
100
AcDbEllipse
 62
7
  6
CONTINUOUS
 10
-4.2163747539
 20
0.303049356
 30
0.0
 11
0.4999904798
 21
0.5000285596
 31
0.0
 40
0.0061705924
 41
0.0112823085
 42
1.0386206835
  0
ELLIPSE
  5
949
100
AcDbEntity
  8
0
100
AcDbEllipse
 62
7
  6
CONTINUOUS
 10
-19.3496660624
 20
0.303049356
 30
0.0
 11
-0.4999904798
 21
0.5000285596
 31
0.0
 40
0.0061705924
 41
-1.0386206835
 42
-0.0112823085
  0
ELLIPSE
  5
94A
100
AcDbEntity
  8
0
100
AcDbEllipse
 62
7
  6
CONTINUOUS
 10
-19.3496660624
 20
43.2484484383
 30
0.0
 11
0.5
 21
0.0
 31
0.0
 40
0.0087268678
 41
1.5707963268
 42
3.1241393611
  0
ELLIPSE
  5
94B
100
AcDbEntity
  8
0
100
AcDbEllipse
 62
7
  6
CONTINUOUS
 10
-4.2163747539
 20
43.2484484383
 30
0.0
 11
0.5
 21
0.0
 31
0.0
 40
0.0087268678
 41
0.0174532925
 42
1.5707963268
  0
ELLIPSE
  5
94C
100
AcDbEntity
  8
0
100
AcDbEllipse
 62
7
  6
CONTINUOUS
 10
-4.2163747539
 20
1.2651842147
 30
0.0
 11
0.5
 21
0.0
 31
0.0
 40
0.0087268678
 41
-1.5707963268
 42
-0.0174532925
  0
ELLIPSE
  5
94D
100
AcDbEntity
  8
0
100
AcDbEllipse
 62
7
  6
CONTINUOUS
 10
-19.3496660624
 20
1.2651842147
 30
0.0
 11
0.5
 21
0.0
 31
0.0
 40
0.0087268678
 41
-3.1241393611
 42
-1.5707963268
  0
ELLIPSE
  5
94E
100
AcDbEntity
  8
0
100
AcDbEllipse
 62
7
  6
CONTINUOUS
 10
-10.5744454217
 20
-1.5374687888
 30
0.0
 11
0.1243375101
 21
0.1566832125
 31
0.0
 40
0.9998696711
 41
-4.0415999954
 42
-2.4708544373
  0
ELLIPSE
  5
94F
100
AcDbEntity
  8
0
100
AcDbEllipse
 62
7
  6
CONTINUOUS
 10
-12.9915953946
 20
-1.5374687888
 30
0.0
 11
-0.1243375101
 21
0.1566832125
 31
0.0
 40
0.9998696711
 41
-3.8123308699
 42
-2.2415853117
  0
ELLIPSE
  5
950
100
AcDbEntity
  8
0
100
AcDbEllipse
 62
7
  6
CONTINUOUS
 10
-12.9915953946
 20
46.0511014419
 30
0.0
 11
0.1243375101
 21
0.1566832125
 31
0.0
 40
0.9998696711
 41
-0.9000073419
 42
0.6707382163
  0
ELLIPSE
  5
951
100
AcDbEntity
  8
0
100
AcDbEllipse
 62
7
  6
CONTINUOUS
 10
-10.5744454217
 20
46.0511014419
 30
0.0
 11
-0.1243375101
 21
0.1566832126
 31
0.0
 40
0.9998696711
 41
-0.6707382162
 42
0.900007342
  0
ELLIPSE
  5
952
100
AcDbEntity
  8
RACCORDO
100
AcDbEllipse
 62
7
  6
CONTINUOUS
 10
-10.100442521
 20
39.8568163265
 30
0.0
 11
-0.3000114235
 21
0.0
 31
0.0
 40
0.9999619231
 41
1.5707963268
 42
2.80137059
  0
ELLIPSE
  5
953
100
AcDbEntity
  8
RACCORDO
100
AcDbEllipse
 62
7
  6
CONTINUOUS
 10
-1.06994153
 20
25.7068163265
 30
0.0
 11
-0.3000114235
 21
0.0
 31
0.0
 40
0.9999619231
 41
1.5707963268
 42
3.1415926536
  0
ELLIPSE
  5
954
100
AcDbEntity
  8
RACCORDO
100
AcDbEllipse
 62
7
  6
CONTINUOUS
 10
-1.06994153
 20
20.7068163265
 30
0.0
 11
-0.3000114235
 21
0.0
 31
0.0
 40
0.9999619231
 41
1.5707963268
 42
3.1415926536
  0
ELLIPSE
  5
955
100
AcDbEntity
  8
RACCORDO
100
AcDbEllipse
 62
7
  6
CONTINUOUS
 10
-1.06994153
 20
15.7068163265
 30
0.0
 11
-0.3000114235
 21
0.0
 31
0.0
 40
0.9999619231
 41
1.5707963268
 42
3.1415926536
  0
ELLIPSE
  5
956
100
AcDbEntity
  8
RACCORDO
100
AcDbEllipse
 62
7
  6
CONTINUOUS
 10
-1.06994153
 20
10.7068163265
 30
0.0
 11
-0.3000114235
 21
0.0
 31
0.0
 40
0.9999619231
 41
1.5707963268
 42
3.1415926536
  0
ELLIPSE
  5
957
100
AcDbEntity
  8
DRAFT
100
AcDbEllipse
 62
7
  6
CONTINUOUS
 10
-1.9415677862
 20
23.2568163265
 30
0.0
 11
0.0
 21
2.15
 31
0.0
 40
0.0087268678
 41
3.1415926536
 42
6.2831853072
  0
ELLIPSE
  5
958
100
AcDbEntity
  8
DRAFT
100
AcDbEllipse
 62
7
  6
CONTINUOUS
 10
-1.9415677862
 20
8.2568163265
 30
0.0
 11
0.0
 21
2.15
 31
0.0
 40
0.0087268678
 41
3.1415926536
 42
6.2831853072
  0
ELLIPSE
  5
959
100
AcDbEntity
  8
RACCORDO
100
AcDbEllipse
 62
7
  6
CONTINUOUS
 10
-8.06994153
 20
2.9437374484
 30
0.0
 11
-0.2121481893
 21
0.2121481893
 31
0.0
 40
0.9999238505
 41
2.3562325664
 42
3.9269527408
  0
ELLIPSE
  5
95A
100
AcDbEntity
  8
RACCORDO
100
AcDbEllipse
 62
7
  6
CONTINUOUS
 10
-21.1742132537
 20
3.6437641032
 30
0.0
 11
-0.3827005044
 21
-0.9239207481
 31
0.0
 40
0.9999553905
 41
-0.3926833098
 42
0.3926833098
  0
ELLIPSE
  5
95B
100
AcDbEntity
  8
RACCORDO
100
AcDbEllipse
 62
7
  6
CONTINUOUS
 10
-21.7960726315
 20
4.265623481
 30
0.0
 11
-0.9239207481
 21
-0.3827005044
 31
0.0
 40
0.9999553905
 41
-0.3926833098
 42
0.3926833098
  0
ELLIPSE
  5
95C
100
AcDbEntity
  8
RACCORDO
100
AcDbEllipse
 62
7
  6
CONTINUOUS
 10
-21.7960726315
 20
40.2480091721
 30
0.0
 11
-0.9239207481
 21
0.3827005044
 31
0.0
 40
0.9999553905
 41
-0.3926833098
 42
0.3926833098
  0
ELLIPSE
  5
95D
100
AcDbEntity
  8
RACCORDO
100
AcDbEllipse
 62
7
  6
CONTINUOUS
 10
-21.1742132537
 20
40.8698685498
 30
0.0
 11
0.3827005044
 21
-0.9239207481
 31
0.0
 40
0.9999553905
 41
2.7489093438
 42
3.5342759634
  0
ELLIPSE
  5
95E
100
AcDbEntity
  8
RACCORDO
100
AcDbEllipse
 62
7
  6
CONTINUOUS
 10
-8.06994153
 20
41.5698952047
 30
0.0
 11
0.2121481893
 21
0.2121481893
 31
0.0
 40
0.9999238505
 41
-0.7853600872
 42
0.7853600872
  0
ELLIPSE
  5
95F
100
AcDbEntity
  8
RACCORDO
100
AcDbEllipse
 62
7
  6
CONTINUOUS
 10
-2.3918275626
 20
39.4698685498
 30
0.0
 11
0.3827005044
 21
0.9239207481
 31
0.0
 40
0.9999553905
 41
-0.3926833098
 42
0.3926833098
  0
ELLIPSE
  5
960
100
AcDbEntity
  8
RACCORDO
100
AcDbEllipse
 62
7
  6
CONTINUOUS
 10
-1.7699681849
 20
38.8480091721
 30
0.0
 11
-0.9239207481
 21
-0.3827005044
 31
0.0
 40
0.9999553905
 41
2.7489093438
 42
3.5342759634
  0
ELLIPSE
  5
961
100
AcDbEntity
  8
DRAFT
100
AcDbEllipse
 62
7
  6
CONTINUOUS
 10
-1.9415677862
 20
13.2568163265
 30
0.0
 11
0.0
 21
2.15
 31
0.0
 40
0.0087268678
 41
3.1415926536
 42
6.2831853072
  0
ELLIPSE
  5
962
100
AcDbEntity
  8
RACCORDO
100
AcDbEllipse
 62
7
  6
CONTINUOUS
 10
-1.06994153
 20
20.8068163265
 30
0.0
 11
0.3000114235
 21
-0.0
 31
0.0
 40
0.9999619231
 41
0.0
 42
1.5707963268
  0
ELLIPSE
  5
963
100
AcDbEntity
  8
DRAFT
100
AcDbEllipse
 62
7
  6
CONTINUOUS
 10
-1.9415677862
 20
18.2568163265
 30
0.0
 11
0.0
 21
2.15
 31
0.0
 40
0.0087268678
 41
3.1415926536
 42
6.2831853072
  0
ELLIPSE
  5
964
100
AcDbEntity
  8
RACCORDO
100
AcDbEllipse
 62
7
  6
CONTINUOUS
 10
-1.06994153
 20
15.8068163265
 30
0.0
 11
0.3000114235
 21
-0.0
 31
0.0
 40
0.9999619231
 41
0.0
 42
1.5707963268
  0
ELLIPSE
  5
965
100
AcDbEntity
  8
RACCORDO
100
AcDbEllipse
 62
7
  6
CONTINUOUS
 10
-1.06994153
 20
10.8068163265
 30
0.0
 11
0.3000114235
 21
-0.0
 31
0.0
 40
0.9999619231
 41
0.0
 42
1.5707963268
  0
ELLIPSE
  5
966
100
AcDbEntity
  8
RACCORDO
100
AcDbEllipse
 62
7
  6
CONTINUOUS
 10
-1.06994153
 20
5.8068163265
 30
0.0
 11
0.3000114235
 21
-0.0
 31
0.0
 40
0.9999619231
 41
0.0
 42
1.5707963268
  0
ELLIPSE
  5
967
100
AcDbEntity
  8
RACCORDO
100
AcDbEllipse
 62
7
  6
CONTINUOUS
 10
-1.7699681849
 20
5.665623481
 30
0.0
 11
0.9239207481
 21
-0.3827005044
 31
0.0
 40
0.9999553905
 41
-0.3926833098
 42
0.3926833098
  0
ELLIPSE
  5
968
100
AcDbEntity
  8
RACCORDO
100
AcDbEllipse
 62
7
  6
CONTINUOUS
 10
-2.3918275626
 20
5.0437641032
 30
0.0
 11
0.3827005044
 21
-0.9239207481
 31
0.0
 40
0.9999553905
 41
-0.3926833098
 42
0.3926833098
  0
ELLIPSE
  5
969
100
AcDbEntity
  8
RACCORDO
100
AcDbEllipse
 62
7
  6
CONTINUOUS
 10
-7.469918683
 20
3.7437146013
 30
0.0
 11
0.2121481893
 21
-0.2121481893
 31
0.0
 40
0.9999238505
 41
2.3562325664
 42
3.9269527408
  0
ELLIPSE
  5
96A
100
AcDbEntity
  8
RACCORDO
100
AcDbEllipse
 62
7
  6
CONTINUOUS
 10
-13.4655982954
 20
39.8568163265
 30
0.0
 11
-0.3000114235
 21
0.0
 31
0.0
 40
0.9999619231
 41
0.3402220636
 42
1.5707963268
  0
ELLIPSE
  5
96B
100
AcDbEntity
  8
RACCORDO
100
AcDbEllipse
 62
7
  6
CONTINUOUS
 10
-13.3870134389
 20
4.6568163265
 30
0.0
 11
0.3000114235
 21
-0.0
 31
0.0
 40
0.9999619231
 41
1.5707963268
 42
2.80137059
  0
ELLIPSE
  5
96C
100
AcDbEntity
  8
RACCORDO
100
AcDbEllipse
 62
7
  6
CONTINUOUS
 10
-10.1790273774
 20
4.6568163265
 30
0.0
 11
0.3000114235
 21
-0.0
 31
0.0
 40
0.9999619231
 41
0.3402220636
 42
1.5707963268
  0
ELLIPSE
  5
96D
100
AcDbEntity
  8
ASSI
100
AcDbEllipse
 62
7
  6
CONTINUOUS
 10
-8.06994153
 20
2.9437374484
 30
0.0
 11
-0.2121481893
 21
0.2121481893
 31
0.0
 40
0.9999238505
 41
2.3562325664
 42
3.9269527408
  0
ELLIPSE
  5
96E
100
AcDbEntity
  8
ASSI
100
AcDbEllipse
 62
7
  6
CONTINUOUS
 10
-21.1742132537
 20
3.6437641032
 30
0.0
 11
-0.3827005044
 21
-0.9239207481
 31
0.0
 40
0.9999553905
 41
-0.3926833098
 42
0.3926833098
  0
ELLIPSE
  5
96F
100
AcDbEntity
  8
ASSI
100
AcDbEllipse
 62
7
  6
CONTINUOUS
 10
-21.7960726315
 20
4.265623481
 30
0.0
 11
-0.9239207481
 21
-0.3827005044
 31
0.0
 40
0.9999553905
 41
-0.3926833098
 42
0.3926833098
  0
ELLIPSE
  5
970
100
AcDbEntity
  8
ASSI
100
AcDbEllipse
 62
7
  6
CONTINUOUS
 10
-21.7960726315
 20
40.2480091721
 30
0.0
 11
-0.9239207481
 21
0.3827005044
 31
0.0
 40
0.9999553905
 41
-0.3926833098
 42
0.3926833098
  0
ELLIPSE
  5
971
100
AcDbEntity
  8
ASSI
100
AcDbEllipse
 62
7
  6
CONTINUOUS
 10
-21.1742132537
 20
40.8698685498
 30
0.0
 11
0.3827005044
 21
-0.9239207481
 31
0.0
 40
0.9999553905
 41
2.7489093438
 42
3.5342759634
  0
ELLIPSE
  5
972
100
AcDbEntity
  8
ASSI
100
AcDbEllipse
 62
7
  6
CONTINUOUS
 10
-8.06994153
 20
41.5698952047
 30
0.0
 11
0.2121481893
 21
0.2121481893
 31
0.0
 40
0.9999238505
 41
-0.7853600872
 42
0.7853600872
  0
ELLIPSE
  5
973
100
AcDbEntity
  8
ASSI
100
AcDbEllipse
 62
7
  6
CONTINUOUS
 10
-2.3918275626
 20
39.4698685498
 30
0.0
 11
0.3827005044
 21
0.9239207481
 31
0.0
 40
0.9999553905
 41
-0.3926833098
 42
0.3926833098
  0
ELLIPSE
  5
974
100
AcDbEntity
  8
ASSI
100
AcDbEllipse
 62
7
  6
CONTINUOUS
 10
-1.7699681849
 20
38.8480091721
 30
0.0
 11
-0.9239207481
 21
-0.3827005044
 31
0.0
 40
0.9999553905
 41
2.7489093438
 42
3.5342759634
  0
ELLIPSE
  5
975
100
AcDbEntity
  8
ASSI
100
AcDbEllipse
 62
7
  6
CONTINUOUS
 10
-1.06994153
 20
20.8068163265
 30
0.0
 11
0.3000114235
 21
-0.0
 31
0.0
 40
0.9999619231
 41
0.0
 42
1.5707963268
  0
ELLIPSE
  5
976
100
AcDbEntity
  8
ASSI
100
AcDbEllipse
 62
7
  6
CONTINUOUS
 10
-1.06994153
 20
15.8068163265
 30
0.0
 11
0.3000114235
 21
-0.0
 31
0.0
 40
0.9999619231
 41
0.0
 42
1.5707963268
  0
ELLIPSE
  5
977
100
AcDbEntity
  8
ASSI
100
AcDbEllipse
 62
7
  6
CONTINUOUS
 10
-1.06994153
 20
10.8068163265
 30
0.0
 11
0.3000114235
 21
-0.0
 31
0.0
 40
0.9999619231
 41
0.0
 42
1.5707963268
  0
ELLIPSE
  5
978
100
AcDbEntity
  8
ASSI
100
AcDbEllipse
 62
7
  6
CONTINUOUS
 10
-1.06994153
 20
5.8068163265
 30
0.0
 11
0.3000114235
 21
-0.0
 31
0.0
 40
0.9999619231
 41
0.0
 42
1.5707963268
  0
ELLIPSE
  5
979
100
AcDbEntity
  8
ASSI
100
AcDbEllipse
 62
7
  6
CONTINUOUS
 10
-1.7699681849
 20
5.665623481
 30
0.0
 11
0.9239207481
 21
-0.3827005044
 31
0.0
 40
0.9999553905
 41
-0.3926833098
 42
0.3926833098
  0
ELLIPSE
  5
97A
100
AcDbEntity
  8
ASSI
100
AcDbEllipse
 62
7
  6
CONTINUOUS
 10
-2.3918275626
 20
5.0437641032
 30
0.0
 11
0.3827005044
 21
-0.9239207481
 31
0.0
 40
0.9999553905
 41
-0.3926833098
 42
0.3926833098
  0
ELLIPSE
  5
97B
100
AcDbEntity
  8
ASSI
100
AcDbEllipse
 62
7
  6
CONTINUOUS
 10
-13.4655982954
 20
39.8568163265
 30
0.0
 11
-0.3000114235
 21
0.0
 31
0.0
 40
0.9999619231
 41
0.3402220636
 42
1.5707963268
  0
ELLIPSE
  5
97C
100
AcDbEntity
  8
ASSI
100
AcDbEllipse
 62
7
  6
CONTINUOUS
 10
-13.3870134389
 20
4.6568163265
 30
0.0
 11
0.3000114235
 21
-0.0
 31
0.0
 40
0.9999619231
 41
1.5707963268
 42
2.80137059
  0
ELLIPSE
  5
97D
100
AcDbEntity
  8
ASSI
100
AcDbEllipse
 62
7
  6
CONTINUOUS
 10
-10.1790273774
 20
4.6568163265
 30
0.0
 11
0.3000114235
 21
-0.0
 31
0.0
 40
0.9999619231
 41
0.3402220636
 42
1.5707963268
  0
ELLIPSE
  5
97E
100
AcDbEntity
  8
ASSI
100
AcDbEllipse
 62
7
  6
CONTINUOUS
 10
-10.100442521
 20
39.8568163265
 30
0.0
 11
-0.3000114235
 21
0.0
 31
0.0
 40
0.9999619231
 41
1.5707963268
 42
2.80137059
  0
ELLIPSE
  5
97F
100
AcDbEntity
  8
ASSI
100
AcDbEllipse
 62
7
  6
CONTINUOUS
 10
-1.06994153
 20
25.7068163265
 30
0.0
 11
-0.3000114235
 21
0.0
 31
0.0
 40
0.9999619231
 41
1.5707963268
 42
3.1415926536
  0
ELLIPSE
  5
980
100
AcDbEntity
  8
ASSI
100
AcDbEllipse
 62
7
  6
CONTINUOUS
 10
-1.06994153
 20
20.7068163265
 30
0.0
 11
-0.3000114235
 21
0.0
 31
0.0
 40
0.9999619231
 41
1.5707963268
 42
3.1415926536
  0
ELLIPSE
  5
981
100
AcDbEntity
  8
ASSI
100
AcDbEllipse
 62
7
  6
CONTINUOUS
 10
-1.06994153
 20
15.7068163265
 30
0.0
 11
-0.3000114235
 21
0.0
 31
0.0
 40
0.9999619231
 41
1.5707963268
 42
3.1415926536
  0
ELLIPSE
  5
982
100
AcDbEntity
  8
ASSI
100
AcDbEllipse
 62
7
  6
CONTINUOUS
 10
-1.06994153
 20
10.7068163265
 30
0.0
 11
-0.3000114235
 21
0.0
 31
0.0
 40
0.9999619231
 41
1.5707963268
 42
3.1415926536
  0
ELLIPSE
  5
983
100
AcDbEntity
  8
ASSI
100
AcDbEllipse
 62
7
  6
CONTINUOUS
 10
-1.9415677862
 20
23.2568163265
 30
0.0
 11
0.0
 21
2.15
 31
0.0
 40
0.0087268678
 41
3.1415926536
 42
6.2831853072
  0
ELLIPSE
  5
984
100
AcDbEntity
  8
ASSI
100
AcDbEllipse
 62
7
  6
CONTINUOUS
 10
-1.9415677862
 20
8.2568163265
 30
0.0
 11
0.0
 21
2.15
 31
0.0
 40
0.0087268678
 41
3.1415926536
 42
6.2831853072
  0
ELLIPSE
  5
985
100
AcDbEntity
  8
ASSI
100
AcDbEllipse
 62
7
  6
CONTINUOUS
 10
-1.9415677862
 20
13.2568163265
 30
0.0
 11
0.0
 21
2.15
 31
0.0
 40
0.0087268678
 41
3.1415926536
 42
6.2831853072
  0
ELLIPSE
  5
986
100
AcDbEntity
  8
ASSI
100
AcDbEllipse
 62
7
  6
CONTINUOUS
 10
-1.9415677862
 20
18.2568163265
 30
0.0
 11
0.0
 21
2.15
 31
0.0
 40
0.0087268678
 41
3.1415926536
 42
6.2831853072
  0
ELLIPSE
  5
987
100
AcDbEntity
  8
ASSI
100
AcDbEllipse
 62
7
  6
CONTINUOUS
 10
-7.469918683
 20
3.7437146013
 30
0.0
 11
0.2121481893
 21
-0.2121481893
 31
0.0
 40
0.9999238505
 41
2.3562325664
 42
3.9269527408
  0
ENDSEC
  0
SECTION
  2
OBJECTS
  0
DICTIONARY
  5
C
100
AcDbDictionary
280
0
281
1
  3
ACAD_GROUP
350
D
  3
ACAD_MLINESTYLE
350
17
  3
ACAD_LAYOUT
350
1A
  3
ACAD_PLOTSETTINGS
350
19
  3
ACAD_PLOTSTYLENAME
350
E
  0
DICTIONARY
  5
D
102
{ACAD_REACTORS
330
C
102
}
100
AcDbDictionary
280
0
281
1
  0
ACDBDICTIONARYWDFLT
  5
E
102
{ACAD_REACTORS
330
C
102
}
100
AcDbDictionary
281
1
  3
Normal
350
F
100
AcDbDictionaryWithDefault
340
F
  0
DICTIONARY
  5
17
102
{ACAD_REACTORS
330
C
102
}
100
AcDbDictionary
280
0
281
1
  3
Standard
350
18
  0
DICTIONARY
  5
19
102
{ACAD_REACTORS
330
C
102
}
100
AcDbDictionary
281
1
  0
DICTIONARY
  5
1A
102
{ACAD_REACTORS
330
C
102
}
100
AcDbDictionary
281
1
  3
Model
350
988
  3
Layout1
350
989
  0
ACDBPLACEHOLDER
  5
F
102
{ACAD_REACTORS
330
E
102
}
  0
MLINESTYLE
  5
18
102
{ACAD_REACTORS
330
17
102
}
100
AcDbMlineStyle
  2
STANDARD
 70
0
  3

 62
256
 51
90.0
 52
90.0
 71
2
 49
0.5
 62
256
  6
BYLAYER
 49
-0.5
 62
256
  6
BYLAYER
  0
LAYOUT
  5
988
102
{ACAD_REACTORS
330
1A
102
}
100
AcDbPlotSettings
  1

  2
none_device
  4
ISO_A4_(297.00_x_210.00_MM)
  6

 40
0.0
 41
0.0
 42
0.0
 43
0.0
 44
297.0
 45
210.0
 46
0.0
 47
0.0
 48
0.0
 49
0.0
140
0.0
141
0.0
142
1.0
143
1.0
 70
1024
 72
1
 73
0
 74
0
  7

 75
0
147
1.0
148
0.0
149
0.0
100
AcDbLayout
  1
Model
 70
0
 71
0
 10
0.0
 20
0.0
 11
297.0
 21
210.0
 12
0.0
 22
0.0
 32
0.0
 14
0.0
 24
0.0
 34
0.0
 15
0.0
 25
0.0
 35
0.0
146
0.0
 13
0.0
 23
0.0
 33
0.0
 16
1.0
 26
0.0
 36
0.0
 17
0.0
 27
1.0
 37
0.0
 76
0
330
217
345
0
346
0
  0
LAYOUT
  5
989
102
{ACAD_REACTORS
330
1A
102
}
100
AcDbPlotSettings
  1

  2
none_device
  4
ISO_A4_(297.00_x_210.00_MM)
  6

 40
0.0
 41
0.0
 42
0.0
 43
0.0
 44
297.0
 45
210.0
 46
0.0
 47
0.0
 48
0.0
 49
0.0
140
0.0
141
0.0
142
1.0
143
1.0
 70
0
 72
1
 73
0
 74
0
  7

 75
0
147
1.0
148
0.0
149
0.0
100
AcDbLayout
  1
Layout1
 70
0
 71
1
 10
0.0
 20
0.0
 11
297.0
 21
210.0
 12
0.0
 22
0.0
 32
0.0
 14
0.0
 24
0.0
 34
0.0
 15
0.0
 25
0.0
 35
0.0
146
0.0
 13
0.0
 23
0.0
 33
0.0
 16
1.0
 26
0.0
 36
0.0
 17
0.0
 27
1.0
 37
0.0
 76
0
330
218
345
0
346
0
  0
ENDSEC
  0
EOF
