  0
SECTION
  2
HEADER
  9
$ACADVER
  1
AC1015
  9
$DWGCODEPAGE
  3
ANSI_1252
  9
$EXTMAX
 10
297.0
 20
210.0
 30
0.0
  9
$EXTMIN
 10
0.0
 20
0.0
 30
0.0
  9
$LIMMIN
 10
0.0
 20
0.0
  9
$LIMMAX
 10
297.0
 20
210.0
  9
$VIEWCTR
 10
148.5
 20
105.0
  9
$VIEWSIZE
 40
210.0
  9
$CLAYER
  8
0
  9
$LTSCALE
 40
16.335
  9
$CELTYPE
  6
BYLAYER
  9
$DIMSCALE
 40
1.0
  9
$DIMASZ
 40
3.0
  9
$DIMEXO
 40
0.5
  9
$DIMDLI
 40
11.286
  9
$DIMEXE
 40
1.5
  9
$DIMCEN
 40
2.673
  9
$DIMLFAC
 40
1.0
  9
$DIMBLK
  1
_FILLED
  9
$DIMTXT
 40
3.0
  9
$DIMTOL
 70
1
  9
$DIMLIM
 70
0
  9
$DIMTFAC
 40
1.0
  9
$DIMTP
 40
0.01
  9
$DIMTM
 40
0.01
  9
$DIMGAP
 40
0.625
  9
$DIMDSEP
 70
44
  9
$PDMODE
 70
3
  9
$PDSIZE
 40
3.0
  9
$HANDSEED
  5
792
  9
$TILEMODE
 70
1
  9
$MEASUREMENT
 70
1
  9
$INSUNITS
 70
4
  0
ENDSEC
  0
SECTION
  2
CLASSES
  0
CLASS
  1
ACDBDICTIONARYWDFLT
  2
AcDbDictionaryWithDefault
  3
AutoCAD 2000
 90
0
280
0
281
0
  0
CLASS
  1
ACDBPLACEHOLDER
  2
AcDbPlaceHolder
  3
AutoCAD 2000
 90
0
280
0
281
0
  0
CLASS
  1
LAYOUT
  2
AcDbLayout
  3
AutoCAD 2000
 90
0
280
0
281
0
  0
ENDSEC
  0
SECTION
  2
TABLES
  0
TABLE
  2
VPORT
  5
8
100
AcDbSymbolTable
 70
2
  0
VPORT
  5
1F4
100
AcDbSymbolTableRecord
100
AcDbViewportTableRecord
  2
*ACTIVE
 70
0
 10
0.0
 20
0.0
 11
1.0
 21
1.0
 12
148.5
 22
105.0
 13
0.0
 23
0.0
 14
1.0
 24
1.0
 15
0.0
 25
0.0
 16
0.0
 26
0.0
 36
1.0
 17
0.0
 27
0.0
 37
0.0
 40
210.0
 41
1.4142857143
 42
50.0
 43
0.0
 44
0.0
 50
0.0
 51
0.0
 71
0
 72
100
 73
1
 74
1
 75
0
 76
0
 77
0
 78
0
  0
ENDTAB
  0
TABLE
  2
LTYPE
  5
5
100
AcDbSymbolTable
 70
6
  0
LTYPE
  5
14
100
AcDbSymbolTableRecord
100
AcDbLinetypeTableRecord
  2
BYBLOCK
 70
0
  3

 72
65
 73
0
 40
0.0
  0
LTYPE
  5
15
100
AcDbSymbolTableRecord
100
AcDbLinetypeTableRecord
  2
BYLAYER
 70
0
  3

 72
65
 73
0
 40
0.0
  0
LTYPE
  5
16
100
AcDbSymbolTableRecord
100
AcDbLinetypeTableRecord
  2
CONTINUOUS
 70
64
  3
Solid line
 72
65
 73
0
 40
0.0
  0
LTYPE
  5
1F5
100
AcDbSymbolTableRecord
100
AcDbLinetypeTableRecord
  2
CENTER
 70
64
  3
____ _ ____ _ ____ _ ____ _ ____ _ ____ _ ____
 72
65
 73
4
 40
0.6
 49
0.375
 74
0
 49
-0.075
 74
0
 49
0.075
 74
0
 49
-0.075
 74
0
  0
LTYPE
  5
1F6
100
AcDbSymbolTableRecord
100
AcDbLinetypeTableRecord
  2
HIDDEN
 70
64
  3
- - - - - - - - - - - - - - - - - - - -
 72
65
 73
2
 40
0.2
 49
0.1
 74
0
 49
-0.1
 74
0
  0
LTYPE
  5
1F7
100
AcDbSymbolTableRecord
100
AcDbLinetypeTableRecord
  2
PHANTOM
 70
64
  3
_____ _ _ _____ _ _ _____ _ _ _____
 72
65
 73
6
 40
0.8
 49
0.45
 74
0
 49
-0.05
 74
0
 49
0.1
 74
0
 49
-0.05
 74
0
 49
0.1
 74
0
 49
-0.05
 74
0
  0
LTYPE
  5
1F8
100
AcDbSymbolTableRecord
100
AcDbLinetypeTableRecord
  2
DOT
 70
64
  3
. . . . . . . . . . . . . . . . . . . .
 72
65
 73
2
 40
0.2
 49
0.1
 74
0
 49
-0.1
 74
0
  0
LTYPE
  5
1F9
100
AcDbSymbolTableRecord
100
AcDbLinetypeTableRecord
  2
DASHED
 70
64
  3
- - - - - - - - - - - - - - - - - - - -
 72
65
 73
2
 40
0.2
 49
0.1
 74
0
 49
-0.1
 74
0
  0
ENDTAB
  0
TABLE
  2
LAYER
  5
2
100
AcDbSymbolTable
 70
36
  0
LAYER
  5
10
100
AcDbSymbolTableRecord
100
AcDbLayerTableRecord
  2
0
 70
0
 62
7
  6
CONTINUOUS
370
-3
390
F
  0
LAYER
  5
1FA
100
AcDbSymbolTableRecord
100
AcDbLayerTableRecord
  2
DEFAULT_1
 70
0
 62
7
  6
CENTER
370
-3
390
F
  0
LAYER
  5
1FB
100
AcDbSymbolTableRecord
100
AcDbLayerTableRecord
  2
DEFAULT_2
 70
0
 62
7
  6
HIDDEN
370
-3
390
F
  0
LAYER
  5
1FC
100
AcDbSymbolTableRecord
100
AcDbLayerTableRecord
  2
DEFAULT_3
 70
0
 62
7
  6
PHANTOM
370
-3
390
F
  0
LAYER
  5
1FD
100
AcDbSymbolTableRecord
100
AcDbLayerTableRecord
  2
ASSI
 70
0
 62
7
  6
CONTINUOUS
370
-3
390
F
  0
LAYER
  5
1FE
100
AcDbSymbolTableRecord
100
AcDbLayerTableRecord
  2
COLOR4
 70
0
 62
7
  6
CONTINUOUS
370
-3
390
F
  0
LAYER
  5
1FF
100
AcDbSymbolTableRecord
100
AcDbLayerTableRecord
  2
COLOR9
 70
0
 62
7
  6
CONTINUOUS
370
-3
390
F
  0
LAYER
  5
200
100
AcDbSymbolTableRecord
100
AcDbLayerTableRecord
  2
COLORE_MATERIALE
 70
0
 62
7
  6
CONTINUOUS
370
-3
390
F
  0
LAYER
  5
201
100
AcDbSymbolTableRecord
100
AcDbLayerTableRecord
  2
COORDINATE
 70
0
 62
7
  6
CONTINUOUS
370
-3
390
F
  0
LAYER
  5
202
100
AcDbSymbolTableRecord
100
AcDbLayerTableRecord
  2
COORD_ORIGINE
 70
0
 62
7
  6
CONTINUOUS
370
-3
390
F
  0
LAYER
  5
203
100
AcDbSymbolTableRecord
100
AcDbLayerTableRecord
  2
COPY
 70
0
 62
7
  6
CONTINUOUS
370
-3
390
F
  0
LAYER
  5
204
100
AcDbSymbolTableRecord
100
AcDbLayerTableRecord
  2
COPY_GEOMETRY
 70
0
 62
7
  6
CONTINUOUS
370
-3
390
F
  0
LAYER
  5
205
100
AcDbSymbolTableRecord
100
AcDbLayerTableRecord
  2
COPY_PUBLISH
 70
0
 62
7
  6
CONTINUOUS
370
-3
390
F
  0
LAYER
  5
206
100
AcDbSymbolTableRecord
100
AcDbLayerTableRecord
  2
COSMETIC
 70
0
 62
7
  6
CONTINUOUS
370
-3
390
F
  0
LAYER
  5
207
100
AcDbSymbolTableRecord
100
AcDbLayerTableRecord
  2
COSMETICI
 70
0
 62
7
  6
CONTINUOUS
370
-3
390
F
  0
LAYER
  5
208
100
AcDbSymbolTableRecord
100
AcDbLayerTableRecord
  2
CURVE
 70
0
 62
7
  6
CONTINUOUS
370
-3
390
F
  0
LAYER
  5
209
100
AcDbSymbolTableRecord
100
AcDbLayerTableRecord
  2
DRAFT
 70
0
 62
7
  6
CONTINUOUS
370
-3
390
F
  0
LAYER
  5
20A
100
AcDbSymbolTableRecord
100
AcDbLayerTableRecord
  2
IGES
 70
0
 62
7
  6
CONTINUOUS
370
-3
390
F
  0
LAYER
  5
20B
100
AcDbSymbolTableRecord
100
AcDbLayerTableRecord
  2
IGS
 70
0
 62
7
  6
CONTINUOUS
370
-3
390
F
  0
LAYER
  5
20C
100
AcDbSymbolTableRecord
100
AcDbLayerTableRecord
  2
IGS_SCRITTE
 70
0
 62
7
  6
CONTINUOUS
370
-3
390
F
  0
LAYER
  5
20D
100
AcDbSymbolTableRecord
100
AcDbLayerTableRecord
  2
IMPORT_IGES
 70
0
 62
7
  6
CONTINUOUS
370
-3
390
F
  0
LAYER
  5
20E
100
AcDbSymbolTableRecord
100
AcDbLayerTableRecord
  2
INTFCLR_137
 70
0
 62
7
  6
CONTINUOUS
370
-3
390
F
  0
LAYER
  5
20F
100
AcDbSymbolTableRecord
100
AcDbLayerTableRecord
  2
INTFCLR_20107
 70
0
 62
7
  6
CONTINUOUS
370
-3
390
F
  0
LAYER
  5
210
100
AcDbSymbolTableRecord
100
AcDbLayerTableRecord
  2
INTFCLR_20625
 70
0
 62
7
  6
CONTINUOUS
370
-3
390
F
  0
LAYER
  5
211
100
AcDbSymbolTableRecord
100
AcDbLayerTableRecord
  2
INTFCLR_4627
 70
0
 62
7
  6
CONTINUOUS
370
-3
390
F
  0
LAYER
  5
212
100
AcDbSymbolTableRecord
100
AcDbLayerTableRecord
  2
INTFCLR_6275
 70
0
 62
7
  6
CONTINUOUS
370
-3
390
F
  0
LAYER
  5
213
100
AcDbSymbolTableRecord
100
AcDbLayerTableRecord
  2
INTF_1
 70
0
 62
7
  6
CONTINUOUS
370
-3
390
F
  0
LAYER
  5
214
100
AcDbSymbolTableRecord
100
AcDbLayerTableRecord
  2
INTF_11
 70
0
 62
7
  6
CONTINUOUS
370
-3
390
F
  0
LAYER
  5
215
100
AcDbSymbolTableRecord
100
AcDbLayerTableRecord
  2
INTF_12
 70
0
 62
7
  6
CONTINUOUS
370
-3
390
F
  0
LAYER
  5
216
100
AcDbSymbolTableRecord
100
AcDbLayerTableRecord
  2
INTF_6
 70
0
 62
7
  6
CONTINUOUS
370
-3
390
F
  0
LAYER
  5
217
100
AcDbSymbolTableRecord
100
AcDbLayerTableRecord
  2
INTF_YELLOW
 70
0
 62
7
  6
CONTINUOUS
370
-3
390
F
  0
LAYER
  5
218
100
AcDbSymbolTableRecord
100
AcDbLayerTableRecord
  2
NOTE
 70
0
 62
7
  6
CONTINUOUS
370
-3
390
F
  0
LAYER
  5
219
100
AcDbSymbolTableRecord
100
AcDbLayerTableRecord
  2
PIANI
 70
0
 62
7
  6
CONTINUOUS
370
-3
390
F
  0
LAYER
  5
21A
100
AcDbSymbolTableRecord
100
AcDbLayerTableRecord
  2
PIANI_ORIGINE
 70
0
 62
7
  6
CONTINUOUS
370
-3
390
F
  0
LAYER
  5
21B
100
AcDbSymbolTableRecord
100
AcDbLayerTableRecord
  2
PIANI_RIFERIMENTO
 70
0
 62
7
  6
CONTINUOUS
370
-3
390
F
  0
LAYER
  5
21C
100
AcDbSymbolTableRecord
100
AcDbLayerTableRecord
  2
PIANI_SFORMO
 70
0
 62
7
  6
CONTINUOUS
370
-3
390
F
  0
LAYER
  5
21D
100
AcDbSymbolTableRecord
100
AcDbLayerTableRecord
  2
PUBLISH_GEOMETRY
 70
0
 62
7
  6
CONTINUOUS
370
-3
390
F
  0
LAYER
  5
21E
100
AcDbSymbolTableRecord
100
AcDbLayerTableRecord
  2
PUNTI
 70
0
 62
7
  6
CONTINUOUS
370
-3
390
F
  0
LAYER
  5
21F
100
AcDbSymbolTableRecord
100
AcDbLayerTableRecord
  2
RACCORDO
 70
0
 62
7
  6
CONTINUOUS
370
-3
390
F
  0
LAYER
  5
220
100
AcDbSymbolTableRecord
100
AcDbLayerTableRecord
  2
SIMBOLI
 70
0
 62
7
  6
CONTINUOUS
370
-3
390
F
  0
LAYER
  5
221
100
AcDbSymbolTableRecord
100
AcDbLayerTableRecord
  2
SMUSSO
 70
0
 62
7
  6
CONTINUOUS
370
-3
390
F
  0
LAYER
  5
222
100
AcDbSymbolTableRecord
100
AcDbLayerTableRecord
  2
SNAPLINE
 70
0
 62
7
  6
CONTINUOUS
370
-3
390
F
  0
LAYER
  5
223
100
AcDbSymbolTableRecord
100
AcDbLayerTableRecord
  2
SOLIDO
 70
0
 62
7
  6
CONTINUOUS
370
-3
390
F
  0
LAYER
  5
224
100
AcDbSymbolTableRecord
100
AcDbLayerTableRecord
  2
SUPERFICI
 70
0
 62
7
  6
CONTINUOUS
370
-3
390
F
  0
LAYER
  5
225
100
AcDbSymbolTableRecord
100
AcDbLayerTableRecord
  2
TRASH
 70
0
 62
7
  6
CONTINUOUS
370
-3
390
F
  0
LAYER
  5
226
100
AcDbSymbolTableRecord
100
AcDbLayerTableRecord
  2
WHITE
 70
0
 62
7
  6
CONTINUOUS
370
-3
390
F
  0
LAYER
  5
227
100
AcDbSymbolTableRecord
100
AcDbLayerTableRecord
  2
XSEC_DATUMS
 70
0
 62
7
  6
CONTINUOUS
370
-3
390
F
  0
ENDTAB
  0
TABLE
  2
STYLE
  5
3
100
AcDbSymbolTable
 70
1
  0
STYLE
  5
11
100
AcDbSymbolTableRecord
100
AcDbTextStyleTableRecord
  2
STANDARD
 70
0
 40
0.0
 41
0.8
 50
0.0
 71
0
 42
0.2
  3
txt
  4

  0
STYLE
  5
228
100
AcDbSymbolTableRecord
100
AcDbTextStyleTableRecord
  2
TEXTSTYLE_1
 70
0
 40
0.0
 41
0.8
 50
0.0
 71
0
 42
0.2
  3
gdt
  4

  0
ENDTAB
  0
TABLE
  2
VIEW
  5
6
100
AcDbSymbolTable
 70
0
  0
ENDTAB
  0
TABLE
  2
UCS
  5
7
100
AcDbSymbolTable
 70
0
  0
ENDTAB
  0
TABLE
  2
APPID
  5
9
100
AcDbSymbolTable
 70
1
  0
APPID
  5
229
100
AcDbSymbolTableRecord
100
AcDbRegAppTableRecord
  2
ACAD
 70
0
  0
ENDTAB
  0
TABLE
  2
BLOCK_RECORD
  5
1
100
AcDbSymbolTable
 70
0
  0
BLOCK_RECORD
  5
22A
100
AcDbSymbolTableRecord
100
AcDbBlockTableRecord
  2
*Model_Space
  0
BLOCK_RECORD
  5
22B
100
AcDbSymbolTableRecord
100
AcDbBlockTableRecord
  2
*Paper_Space
  0
ENDTAB
  0
TABLE
  2
DIMSTYLE
  5
A
100
AcDbSymbolTable
 70
1
100
AcDbDimStyleTable
 71
0
  0
DIMSTYLE
105
22C
100
AcDbSymbolTableRecord
100
AcDbDimStyleTableRecord
  2
STANDARD
 70
0
  3

  4

 40
1.0
 41
3.0
 42
0.5
 43
0.38
 44
1.5
 45
0.0
 46
0.0
 47
0.01
 48
0.01
140
3.0
141
0.09
142
0.0
143
25.4
144
1.0
145
0.0
146
1.0
147
0.625
 71
1.0
 72
0.0
 73
0
 74
0
 75
0
 76
0
 77
1
 78
8
170
0
171
2
172
0
173
0
174
0
175
0
176
0
177
0
178
0
270
2
271
2
272
2
273
2
274
2
275
0
280
0
281
0
282
0
283
1
284
8
285
0
286
0
287
3
288
0
340
11
278
44
  0
ENDTAB
  0
ENDSEC
  0
SECTION
  2
BLOCKS
  0
BLOCK
  5
20
100
AcDbEntity
  8
0
100
AcDbBlockBegin
  2
*Model_Space
 70
0
 10
0.0
 20
0.0
 30
0.0
  3
*Model_Space
  1

  0
ENDBLK
  5
21
100
AcDbEntity
  8
0
100
AcDbBlockEnd
  0
BLOCK
  5
1C
100
AcDbEntity
  8
0
100
AcDbBlockBegin
  2
*Paper_Space
 70
0
 10
0.0
 20
0.0
 30
0.0
  3
*Paper_Space
  1

  0
ENDBLK
  5
1D
100
AcDbEntity
  8
0
100
AcDbBlockEnd
  0
ENDSEC
  0
SECTION
  2
ENTITIES
  0
LWPOLYLINE
  5
22D
100
AcDbEntity
  8
0
100
AcDbPolyline
 62
7
  6
CONTINUOUS
 90
18
 70
0
 10
-27.7200730196
 20
11.5303175708
 10
-27.7310110166
 20
11.5256337172
 10
-27.7417137579
 20
11.5204347138
 10
-27.7521569986
 20
11.5147323366
 10
-27.7623170762
 20
11.5085395031
 10
-27.7721709755
 20
11.5018702405
 10
-27.7816963742
 20
11.4947396557
 10
-27.7908716894
 20
11.4871639039
 10
-27.7996761364
 20
11.4791601455
 10
-27.8080897708
 20
11.4707465111
 10
-27.8160935292
 20
11.4619420641
 10
-27.823669281
 20
11.4527667488
 10
-27.8307998658
 20
11.4432413501
 10
-27.8374691285
 20
11.4333874509
 10
-27.843661962
 20
11.4232273733
 10
-27.8493643392
 20
11.4127841326
 10
-27.8545633425
 20
11.4020813913
 10
-27.8592471961
 20
11.3911433943
  0
LWPOLYLINE
  5
22E
100
AcDbEntity
  8
0
100
AcDbPolyline
 62
7
  6
CONTINUOUS
 90
9
 70
0
 10
-27.7200730196
 20
-37.4338676808
 10
-27.7089245441
 20
-37.4380257763
 10
-27.6975908493
 20
-37.4416486967
 10
-27.6860976091
 20
-37.4447282367
 10
-27.6744708578
 20
-37.4472574227
 10
-27.6627369365
 20
-37.4492305291
 10
-27.6509224259
 20
-37.4506430892
 10
-27.6390540864
 20
-37.4514919048
 10
-27.6271588011
 20
-37.451775055
  0
LINE
  5
22F
100
AcDbEntity
  8
RACCORDO
100
AcDbLine
 62
7
  6
CONTINUOUS
 10
-26.5271545703
 20
7.898224945
 11
-28.2914573508
 21
6.1339221645
  0
LINE
  5
230
100
AcDbEntity
  8
0
100
AcDbLine
 62
7
  6
CONTINUOUS
 10
-24.9829724001
 20
9.4424071152
 11
-28.8684277025
 21
5.5569518128
  0
LINE
  5
231
100
AcDbEntity
  8
0
100
AcDbLine
 62
7
  6
CONTINUOUS
 10
-25.9596995054
 20
8.4533383551
 11
-25.7937240721
 21
8.6193137884
  0
LINE
  5
232
100
AcDbEntity
  8
0
100
AcDbLine
 62
7
  6
CONTINUOUS
 10
-26.3543582435
 20
7.898224945
 11
-28.1692718963
 21
6.0833112921
  0
LINE
  5
233
100
AcDbEntity
  8
RACCORDO
100
AcDbLine
 62
7
  6
CONTINUOUS
 10
-26.3543582435
 20
7.898224945
 11
-28.1692718963
 21
6.0833112921
  0
LINE
  5
234
100
AcDbEntity
  8
DRAFT
100
AcDbLine
 62
7
  6
CONTINUOUS
 10
-25.37046703
 20
7.948224945
 11
-25.42046703
 21
7.898224945
  0
LINE
  5
235
100
AcDbEntity
  8
DRAFT
100
AcDbLine
 62
7
  6
CONTINUOUS
 10
-25.3457837204
 20
7.948224945
 11
-25.3957837204
 21
7.898224945
  0
LINE
  5
236
100
AcDbEntity
  8
DRAFT
100
AcDbLine
 62
7
  6
CONTINUOUS
 10
-25.0184280348
 20
7.9569514805
 11
-25.0271545703
 21
7.948224945
  0
LINE
  5
237
100
AcDbEntity
  8
DRAFT
100
AcDbLine
 62
7
  6
CONTINUOUS
 10
-24.9224321568
 20
8.0442204907
 11
-25.0184280348
 21
7.9482252773
  0
LINE
  5
238
100
AcDbEntity
  8
RACCORDO
100
AcDbLine
 62
7
  6
CONTINUOUS
 10
-28.4473628057
 20
4.3465291918
 11
-27.8254588172
 21
4.9684331804
  0
LINE
  5
239
100
AcDbEntity
  8
ASSI
100
AcDbLine
 62
7
  6
CONTINUOUS
 10
-28.4473628057
 20
4.3465291918
 11
-27.8254588172
 21
4.9684331804
  0
LINE
  5
23A
100
AcDbEntity
  8
0
100
AcDbLine
 62
253
  6
CONTINUOUS
 10
-18.93570417
 20
11.0425236
 11
-18.9271520319
 21
11.048224945
  0
LINE
  5
23B
100
AcDbEntity
  8
0
100
AcDbLine
 62
7
  6
CONTINUOUS
 10
-25.7937240721
 20
8.0399332092
 11
-25.9596995054
 21
7.9569518128
  0
LINE
  5
23C
100
AcDbEntity
  8
0
100
AcDbLine
 62
7
  6
CONTINUOUS
 10
-25.7937240721
 20
8.5019603721
 11
-25.9596995054
 21
8.4533383551
  0
LWPOLYLINE
  5
23D
100
AcDbEntity
  8
0
100
AcDbPolyline
 62
7
  6
CONTINUOUS
 90
6
 70
0
 10
-7.7915722042
 20
-37.4492305291
 10
-7.7798382829
 20
-37.4472574227
 10
-7.7682115315
 20
-37.4447282367
 10
-7.7567182913
 20
-37.4416486967
 10
-7.7453845966
 20
-37.4380257763
 10
-7.734236121
 20
-37.4338676808
  0
LWPOLYLINE
  5
23E
100
AcDbEntity
  8
0
100
AcDbPolyline
 62
7
  6
CONTINUOUS
 90
4
 70
0
 10
-7.8271503395
 20
-37.451775055
 10
-7.8152550543
 20
-37.4514919048
 10
-7.8033867148
 20
-37.4506430892
 10
-7.7915722042
 20
-37.4492305291
  0
LWPOLYLINE
  5
23F
100
AcDbEntity
  8
0
100
AcDbPolyline
 62
7
  6
CONTINUOUS
 90
34
 70
0
 10
-7.8315221735
 20
-37.447403221
 10
-7.819646702
 20
-37.4471206013
 10
-7.8077929595
 20
-37.4462736995
 10
-7.795987784
 20
-37.4448637036
 10
-7.7842562893
 20
-37.4428927576
 10
-7.7726268541
 20
-37.4403647677
 10
-7.7611308884
 20
-37.4372861891
 10
-7.7497961233
 20
-37.4336645793
 10
-7.7386465114
 20
-37.4295077249
 10
-7.7277071102
 20
-37.4248249513
 10
-7.7170025754
 20
-37.419626766
 10
-7.7065573219
 20
-37.4139249775
 10
-7.6963952463
 20
-37.4077326151
 10
-7.6865394616
 20
-37.4010637779
 10
-7.6770122002
 20
-37.3939335245
 10
-7.6678349869
 20
-37.3863579636
 10
-7.6590285953
 20
-37.3783542321
 10
-7.6506130091
 20
-37.3699404805
 10
-7.642607315
 20
-37.3611357849
 10
-7.6350296584
 20
-37.3519600979
 10
-7.6278972074
 20
-37.3424342037
 10
-7.6212261273
 20
-37.3325796876
 10
-7.615031535
 20
-37.3224188754
 10
-7.6093274697
 20
-37.3119747902
 10
-7.6041268621
 20
-37.3012711038
 10
-7.5994414978
 20
-37.2903320702
 10
-7.5952819935
 20
-37.2791824739
 10
-7.5916577764
 20
-37.2678475814
 10
-7.5885770577
 20
-37.2563530703
 10
-7.5860468207
 20
-37.244724991
 10
-7.5840728021
 20
-37.2329897113
 10
-7.5826594733
 20
-37.221173829
 10
-7.5818100332
 20
-37.2093041107
 10
-7.5815264043
 20
-37.1974074518
  0
LWPOLYLINE
  5
240
100
AcDbEntity
  8
0
100
AcDbPolyline
 62
7
  6
CONTINUOUS
 90
4
 70
0
 10
-25.2271503395
 20
-37.451775055
 10
-25.2152550543
 20
-37.4514919048
 10
-25.2033867148
 20
-37.4506430892
 10
-25.1915722042
 20
-37.4492305291
  0
LWPOLYLINE
  5
241
100
AcDbEntity
  8
0
100
AcDbPolyline
 62
7
  6
CONTINUOUS
 90
34
 70
0
 10
-25.2315221735
 20
-37.447403221
 10
-25.219627152
 20
-37.4471196702
 10
-25.2077590754
 20
-37.4462704653
 10
-25.1959448274
 20
-37.4448575298
 10
-25.1842111702
 20
-37.4428840646
 10
-25.172584683
 20
-37.4403545398
 10
-25.1610917024
 20
-37.4372746854
 10
-25.1497582625
 20
-37.433651478
 10
-25.1386100363
 20
-37.429493125
 10
-25.1276722769
 20
-37.4248090459
 10
-25.1169697607
 20
-37.4196098512
 10
-25.1065267315
 20
-37.4139073184
 10
-25.0963668449
 20
-37.4077143648
 10
-25.0865131154
 20
-37.401045019
 10
-25.0769878639
 20
-37.3939143884
 10
-25.0678126672
 20
-37.3863386257
 10
-25.0590083093
 20
-37.3783348914
 10
-25.0505947339
 20
-37.369921316
 10
-25.0425909997
 20
-37.3611169581
 10
-25.0350152369
 20
-37.3519417614
 10
-25.0278846063
 20
-37.34241651
 10
-25.0212152605
 20
-37.3325627805
 10
-25.015022307
 20
-37.3224028939
 10
-25.0093197741
 20
-37.3119598646
 10
-25.0041205795
 20
-37.3012573484
 10
-24.9994365004
 20
-37.290319589
 10
-24.9952781473
 20
-37.2791713628
 10
-24.9916549399
 20
-37.267837923
 10
-24.9885750855
 20
-37.2563449424
 10
-24.9860455608
 20
-37.2447184551
 10
-24.9840720955
 20
-37.2329847979
 10
-24.9826591601
 20
-37.22117055
 10
-24.9818099551
 20
-37.2093024733
 10
-24.9815264043
 20
-37.1974074518
  0
LWPOLYLINE
  5
242
100
AcDbEntity
  8
0
100
AcDbPolyline
 62
7
  6
CONTINUOUS
 90
37
 70
0
 10
-18.9271520319
 20
-36.951775055
 10
-18.9184283782
 20
-36.9515847213
 10
-18.9097213235
 20
-36.9510140761
 10
-18.9010474392
 20
-36.9500642028
 10
-18.8924232324
 20
-36.9487369072
 10
-18.8838651189
 20
-36.9470347123
 10
-18.8753893922
 20
-36.9449608536
 10
-18.8670121842
 20
-36.9425192756
 10
-18.8587494402
 20
-36.9397146233
 10
-18.850616893
 20
-36.9365522318
 10
-18.8426300223
 20
-36.933038118
 10
-18.834804031
 20
-36.9291789689
 10
-18.8271538215
 20
-36.9249821284
 10
-18.8196939559
 20
-36.9204555831
 10
-18.8124386343
 20
-36.9156079477
 10
-18.8054016733
 20
-36.9104484496
 10
-18.7985964681
 20
-36.9049869085
 10
-18.7920359726
 20
-36.8992337195
 10
-18.7857326805
 20
-36.8931998356
 10
-18.7796985905
 20
-36.8868967416
 10
-18.7739451884
 20
-36.8803364348
 10
-18.7684834305
 20
-36.8735314064
 10
-18.7633237135
 20
-36.8664946095
 10
-18.7584758585
 20
-36.8592394384
 10
-18.7539490963
 20
-36.8517797077
 10
-18.7497520434
 20
-36.8441296172
 10
-18.7458926883
 20
-36.8363037288
 10
-18.7423783781
 20
-36.8283169436
 10
-18.7392158018
 20
-36.8201844648
 10
-18.7364109781
 20
-36.8119217722
 10
-18.7339692451
 20
-36.8035445978
 10
-18.7318952498
 20
-36.7950688878
 10
-18.7301929386
 20
-36.7865107748
 10
-18.7288655493
 20
-36.7778865521
 10
-18.7279156068
 20
-36.7692126361
 10
-18.7273449188
 20
-36.7605055358
 10
-18.7271545703
 20
-36.7517818242
  0
LINE
  5
243
100
AcDbEntity
  8
0
100
AcDbLine
 62
7
  6
CONTINUOUS
 10
-27.6227869671
 20
-37.447403221
 11
-25.2315221735
 21
-37.447403221
  0
LINE
  5
244
100
AcDbEntity
  8
0
100
AcDbLine
 62
7
  6
CONTINUOUS
 10
-10.2227869671
 20
-37.447403221
 11
-7.8315221735
 21
-37.447403221
  0
LINE
  5
245
100
AcDbEntity
  8
0
100
AcDbLine
 62
253
  6
CONTINUOUS
 10
-7.5815264043
 20
-37.1974074518
 11
-10.4727827363
 21
-37.1974074518
  0
LINE
  5
246
100
AcDbEntity
  8
0
100
AcDbLine
 62
253
  6
CONTINUOUS
 10
-24.9815264043
 20
-37.1974074518
 11
-27.8727827363
 21
-37.1974074518
  0
LINE
  5
247
100
AcDbEntity
  8
0
100
AcDbLine
 62
7
  6
CONTINUOUS
 10
-22.1771545703
 20
-36.951775055
 11
-18.9271520319
 21
-36.951775055
  0
LINE
  5
248
100
AcDbEntity
  8
0
100
AcDbLine
 62
7
  6
CONTINUOUS
 10
-16.5271571088
 20
-36.951775055
 11
-13.2771545703
 21
-36.951775055
  0
LINE
  5
249
100
AcDbEntity
  8
0
100
AcDbLine
 62
7
  6
CONTINUOUS
 10
-21.2620122866
 20
-36.94607371
 11
-18.93570417
 21
-36.94607371
  0
LINE
  5
24A
100
AcDbEntity
  8
0
100
AcDbLine
 62
7
  6
CONTINUOUS
 10
-16.5186049707
 20
-36.94607371
 11
-14.1922968541
 21
-36.94607371
  0
LINE
  5
24B
100
AcDbEntity
  8
0
100
AcDbLine
 62
7
  6
CONTINUOUS
 10
-22.1335039235
 20
-36.9081244081
 11
-21.2616811081
 21
-36.9081244081
  0
LINE
  5
24C
100
AcDbEntity
  8
0
100
AcDbLine
 62
7
  6
CONTINUOUS
 10
-14.1926280326
 20
-36.9081244081
 11
-13.3208052172
 21
-36.9081244081
  0
LINE
  5
24D
100
AcDbEntity
  8
0
100
AcDbLine
 62
253
  6
CONTINUOUS
 10
-7.5815264043
 20
-36.7961126223
 11
-10.4727827363
 21
-36.7961126223
  0
LINE
  5
24E
100
AcDbEntity
  8
0
100
AcDbLine
 62
253
  6
CONTINUOUS
 10
-24.9815264043
 20
-36.7961126223
 11
-27.8727827363
 21
-36.7961126223
  0
LINE
  5
24F
100
AcDbEntity
  8
0
100
AcDbLine
 62
253
  6
CONTINUOUS
 10
-7.8315221735
 20
-36.5796062713
 11
-10.2227869671
 21
-36.5796062713
  0
LINE
  5
250
100
AcDbEntity
  8
0
100
AcDbLine
 62
253
  6
CONTINUOUS
 10
-25.2315221735
 20
-36.5796062713
 11
-27.6227869671
 21
-36.5796062713
  0
LWPOLYLINE
  5
251
100
AcDbEntity
  8
0
100
AcDbPolyline
 62
7
  6
CONTINUOUS
 90
37
 70
0
 10
-16.5271571088
 20
-36.951775055
 10
-16.5358807625
 20
-36.9515847213
 10
-16.5445878172
 20
-36.9510140761
 10
-16.5532617014
 20
-36.9500642028
 10
-16.5618859082
 20
-36.9487369072
 10
-16.5704440217
 20
-36.9470347123
 10
-16.5789197485
 20
-36.9449608536
 10
-16.5872969565
 20
-36.9425192756
 10
-16.5955597005
 20
-36.9397146233
 10
-16.6036922476
 20
-36.9365522318
 10
-16.6116791183
 20
-36.933038118
 10
-16.6195051097
 20
-36.9291789689
 10
-16.6271553192
 20
-36.9249821284
 10
-16.6346151848
 20
-36.9204555831
 10
-16.6418705064
 20
-36.9156079477
 10
-16.6489074673
 20
-36.9104484496
 10
-16.6557126726
 20
-36.9049869085
 10
-16.662273168
 20
-36.8992337195
 10
-16.6685764601
 20
-36.8931998356
 10
-16.6746105502
 20
-36.8868967416
 10
-16.6803639522
 20
-36.8803364348
 10
-16.6858257101
 20
-36.8735314064
 10
-16.6909854272
 20
-36.8664946095
 10
-16.6958332822
 20
-36.8592394384
 10
-16.7003600444
 20
-36.8517797077
 10
-16.7045570972
 20
-36.8441296172
 10
-16.7084164524
 20
-36.8363037288
 10
-16.7119307626
 20
-36.8283169436
 10
-16.7150933389
 20
-36.8201844648
 10
-16.7178981626
 20
-36.8119217722
 10
-16.7203398955
 20
-36.8035445978
 10
-16.7224138909
 20
-36.7950688878
 10
-16.7241162021
 20
-36.7865107748
 10
-16.7254435914
 20
-36.7778865521
 10
-16.7263935338
 20
-36.7692126361
 10
-16.7269642219
 20
-36.7605055358
 10
-16.7271545703
 20
-36.7517818242
  0
LINE
  5
252
100
AcDbEntity
  8
0
100
AcDbLine
 62
7
  6
CONTINUOUS
 10
-25.7937240721
 20
-34.4055104821
 11
-25.9596995054
 21
-34.3568884651
  0
LINE
  5
253
100
AcDbEntity
  8
0
100
AcDbLine
 62
7
  6
CONTINUOUS
 10
-25.7937240721
 20
-33.9434833192
 11
-25.9596995054
 21
-33.8605019228
  0
LINE
  5
254
100
AcDbEntity
  8
0
100
AcDbLine
 62
253
  6
CONTINUOUS
 10
-18.9271520319
 20
-36.951775055
 11
-18.93570417
 21
-36.94607371
  0
LINE
  5
255
100
AcDbEntity
  8
RACCORDO
100
AcDbLine
 62
7
  6
CONTINUOUS
 10
-28.2914573508
 20
-32.0374722745
 11
-26.5271545703
 21
-33.801775055
  0
LINE
  5
256
100
AcDbEntity
  8
0
100
AcDbLine
 62
7
  6
CONTINUOUS
 10
-24.9829724001
 20
-35.3459572252
 11
-28.8684277025
 21
-31.4605019228
  0
LINE
  5
257
100
AcDbEntity
  8
0
100
AcDbLine
 62
7
  6
CONTINUOUS
 10
-25.9596995054
 20
-34.3568884651
 11
-25.7937240721
 21
-34.5228638984
  0
LINE
  5
258
100
AcDbEntity
  8
0
100
AcDbLine
 62
7
  6
CONTINUOUS
 10
-28.1692718963
 20
-31.9868614021
 11
-26.3543582435
 21
-33.801775055
  0
LINE
  5
259
100
AcDbEntity
  8
RACCORDO
100
AcDbLine
 62
7
  6
CONTINUOUS
 10
-28.1692718963
 20
-31.9868614021
 11
-26.3543582435
 21
-33.801775055
  0
LINE
  5
25A
100
AcDbEntity
  8
DRAFT
100
AcDbLine
 62
7
  6
CONTINUOUS
 10
-25.42046703
 20
-33.801775055
 11
-25.37046703
 21
-33.851775055
  0
LINE
  5
25B
100
AcDbEntity
  8
DRAFT
100
AcDbLine
 62
7
  6
CONTINUOUS
 10
-25.3957837204
 20
-33.801775055
 11
-25.3457837204
 21
-33.851775055
  0
LINE
  5
25C
100
AcDbEntity
  8
DRAFT
100
AcDbLine
 62
7
  6
CONTINUOUS
 10
-24.9224321568
 20
-33.9477706007
 11
-25.0184277025
 21
-33.851775055
  0
LINE
  5
25D
100
AcDbEntity
  8
RACCORDO
100
AcDbLine
 62
7
  6
CONTINUOUS
 10
-28.4473628057
 20
-30.2500793018
 11
-27.8254588172
 21
-30.8719832903
  0
LINE
  5
25E
100
AcDbEntity
  8
ASSI
100
AcDbLine
 62
7
  6
CONTINUOUS
 10
-28.4473628057
 20
-30.2500793018
 11
-27.8254588172
 21
-30.8719832903
  0
LWPOLYLINE
  5
25F
100
AcDbEntity
  8
0
100
AcDbPolyline
 62
7
  6
CONTINUOUS
 90
18
 70
0
 10
-27.8592471961
 20
-37.2946935043
 10
-27.8545633425
 20
-37.3056315013
 10
-27.8493643392
 20
-37.3163342426
 10
-27.843661962
 20
-37.3267774833
 10
-27.8374691285
 20
-37.3369375609
 10
-27.8307998658
 20
-37.3467914601
 10
-27.823669281
 20
-37.3563168588
 10
-27.8160935292
 20
-37.3654921741
 10
-27.8080897708
 20
-37.3742966211
 10
-27.7996761364
 20
-37.3827102555
 10
-27.7908716894
 20
-37.3907140139
 10
-27.7816963742
 20
-37.3982897657
 10
-27.7721709755
 20
-37.4054203505
 10
-27.7623170762
 20
-37.4120896131
 10
-27.7521569986
 20
-37.4182824466
 10
-27.7417137579
 20
-37.4239848238
 10
-27.7310110166
 20
-37.4291838272
 10
-27.7200730196
 20
-37.4338676808
  0
LWPOLYLINE
  5
260
100
AcDbEntity
  8
0
100
AcDbPolyline
 62
7
  6
CONTINUOUS
 90
9
 70
0
 10
-27.8592471961
 20
11.3911433943
 10
-27.8634052917
 20
11.3799949188
 10
-27.867028212
 20
11.368661224
 10
-27.8701077521
 20
11.3571679838
 10
-27.8726369381
 20
11.3455412325
 10
-27.8746100445
 20
11.3338073111
 10
-27.8760226046
 20
11.3219928006
 10
-27.8768714201
 20
11.310124461
 10
-27.8771545703
 20
11.2982291758
  0
LWPOLYLINE
  5
261
100
AcDbEntity
  8
0
100
AcDbPolyline
 62
7
  6
CONTINUOUS
 90
5
 70
0
 10
-21.261238848
 20
10.9538963174
 10
-21.2678237668
 20
10.9461707528
 10
-21.275068491
 20
10.9377662747
 10
-21.2829873108
 20
10.9286828831
 10
-21.2915971158
 20
10.9189251232
  0
LINE
  5
262
100
AcDbEntity
  8
0
100
AcDbLine
 62
7
  6
CONTINUOUS
 10
-21.2915971158
 20
10.9189251232
 11
-21.3109101638
 21
10.8973592272
  0
LINE
  5
263
100
AcDbEntity
  8
0
100
AcDbLine
 62
7
  6
CONTINUOUS
 10
-21.3109101638
 20
10.8973592272
 11
-21.3330116496
 21
10.8730257554
  0
LINE
  5
264
100
AcDbEntity
  8
0
100
AcDbLine
 62
7
  6
CONTINUOUS
 10
-21.3330116496
 20
10.8730257554
 11
-21.3579442234
 21
10.8458882139
  0
LINE
  5
265
100
AcDbEntity
  8
0
100
AcDbLine
 62
7
  6
CONTINUOUS
 10
-21.3579442234
 20
10.8458882139
 11
-21.3857806675
 21
10.8158549652
  0
LINE
  5
266
100
AcDbEntity
  8
0
100
AcDbLine
 62
7
  6
CONTINUOUS
 10
-21.3857806675
 20
10.8158549652
 11
-21.4167931374
 21
10.7826258743
  0
LINE
  5
267
100
AcDbEntity
  8
0
100
AcDbLine
 62
7
  6
CONTINUOUS
 10
-21.4167931374
 20
10.7826258743
 11
-21.4691129306
 21
10.7269593307
  0
LINE
  5
268
100
AcDbEntity
  8
0
100
AcDbLine
 62
7
  6
CONTINUOUS
 10
-21.4691129306
 20
10.7269593307
 11
-21.5280847414
 21
10.6645864593
  0
LWPOLYLINE
  5
269
100
AcDbEntity
  8
0
100
AcDbPolyline
 62
7
  6
CONTINUOUS
 90
4
 70
0
 10
-21.5280847414
 20
10.6645864593
 10
-21.6142390667
 20
10.5738923789
 10
-21.6362204117
 20
10.5508581304
 10
-21.6801972803
 20
10.5045827597
  0
LINE
  5
26A
100
AcDbEntity
  8
0
100
AcDbLine
 62
7
  6
CONTINUOUS
 10
-25.1271545703
 20
6.748224945
 11
-25.1638102067
 21
6.7115693087
  0
LINE
  5
26B
100
AcDbEntity
  8
DRAFT
100
AcDbLine
 62
7
  6
CONTINUOUS
 10
-25.1271545703
 20
6.748224945
 11
-25.1638102067
 21
6.7115693087
  0
LINE
  5
26C
100
AcDbEntity
  8
DRAFT
100
AcDbLine
 62
7
  6
CONTINUOUS
 10
-24.9224321568
 20
6.8529473585
 11
-25.0227911364
 21
6.7525883789
  0
LINE
  5
26D
100
AcDbEntity
  8
0
100
AcDbLine
 62
253
  6
CONTINUOUS
 10
-18.7357219403
 20
10.8425202148
 11
-18.7271545703
 21
10.8482317142
  0
LINE
  5
26E
100
AcDbEntity
  8
0
100
AcDbLine
 62
7
  6
CONTINUOUS
 10
-18.7358285237
 20
9.4430206575
 11
-18.7271545703
 21
9.448224945
  0
LINE
  5
26F
100
AcDbEntity
  8
0
100
AcDbLine
 62
7
  6
CONTINUOUS
 10
-25.1638102067
 20
5.3143944126
 11
-25.1812652716
 21
5.3056675448
  0
LINE
  5
270
100
AcDbEntity
  8
DRAFT
100
AcDbLine
 62
7
  6
CONTINUOUS
 10
-25.1638102067
 20
5.3143944126
 11
-25.1812652716
 21
5.3056675448
  0
LWPOLYLINE
  5
271
100
AcDbEntity
  8
0
100
AcDbPolyline
 62
7
  6
CONTINUOUS
 90
18
 70
0
 10
-10.3200730196
 20
11.5303175708
 10
-10.3310110166
 20
11.5256337172
 10
-10.3417137579
 20
11.5204347138
 10
-10.3521569986
 20
11.5147323366
 10
-10.3623170762
 20
11.5085395031
 10
-10.3721709755
 20
11.5018702405
 10
-10.3816963742
 20
11.4947396557
 10
-10.3908716894
 20
11.4871639039
 10
-10.3996761364
 20
11.4791601455
 10
-10.4080897708
 20
11.4707465111
 10
-10.4160935292
 20
11.4619420641
 10
-10.423669281
 20
11.4527667488
 10
-10.4307998658
 20
11.4432413501
 10
-10.4374691285
 20
11.4333874509
 10
-10.443661962
 20
11.4232273733
 10
-10.4493643392
 20
11.4127841326
 10
-10.4545633425
 20
11.4020813913
 10
-10.4592471961
 20
11.3911433943
  0
LWPOLYLINE
  5
272
100
AcDbEntity
  8
0
100
AcDbPolyline
 62
7
  6
CONTINUOUS
 90
6
 70
0
 10
-25.1915722042
 20
-37.4492305291
 10
-25.1798382829
 20
-37.4472574227
 10
-25.1682115315
 20
-37.4447282367
 10
-25.1567182913
 20
-37.4416486967
 10
-25.1453845966
 20
-37.4380257763
 10
-25.134236121
 20
-37.4338676808
  0
LINE
  5
273
100
AcDbEntity
  8
0
100
AcDbLine
 62
7
  6
CONTINUOUS
 10
-27.6278775682
 20
-36.0744247858
 11
-25.2264315725
 21
-36.0744247858
  0
LINE
  5
274
100
AcDbEntity
  8
0
100
AcDbLine
 62
7
  6
CONTINUOUS
 10
-7.8264315725
 20
-36.0744247858
 11
-10.2278775682
 21
-36.0744247858
  0
LINE
  5
275
100
AcDbEntity
  8
0
100
AcDbLine
 62
7
  6
CONTINUOUS
 10
-7.0767739706
 20
-35.351775055
 11
-13.2771545703
 21
-35.351775055
  0
LINE
  5
276
100
AcDbEntity
  8
0
100
AcDbLine
 62
7
  6
CONTINUOUS
 10
-16.7271545703
 20
-35.351775055
 11
-18.7271545703
 21
-35.351775055
  0
LINE
  5
277
100
AcDbEntity
  8
0
100
AcDbLine
 62
7
  6
CONTINUOUS
 10
-22.1771545703
 20
-35.351775055
 11
-28.3775351701
 21
-35.351775055
  0
LINE
  5
278
100
AcDbEntity
  8
0
100
AcDbLine
 62
7
  6
CONTINUOUS
 10
-18.7358285237
 20
-35.3465707675
 11
-16.7184806169
 21
-35.3465707675
  0
LINE
  5
279
100
AcDbEntity
  8
0
100
AcDbLine
 62
7
  6
CONTINUOUS
 10
-28.3684340486
 20
-35.3459572252
 11
-24.9829724001
 21
-35.3459572252
  0
LINE
  5
27A
100
AcDbEntity
  8
0
100
AcDbLine
 62
7
  6
CONTINUOUS
 10
-10.4713367405
 20
-35.3459572252
 11
-7.085875092
 21
-35.3459572252
  0
LINE
  5
27B
100
AcDbEntity
  8
0
100
AcDbLine
 62
253
  6
CONTINUOUS
 10
-24.9176961965
 20
-35.2877450805
 11
-20.7327045967
 21
-35.2877450805
  0
LINE
  5
27C
100
AcDbEntity
  8
0
100
AcDbLine
 62
253
  6
CONTINUOUS
 10
-14.721604544
 20
-35.2877450805
 11
-10.5366129441
 21
-35.2877450805
  0
LINE
  5
27D
100
AcDbEntity
  8
0
100
AcDbLine
 62
7
  6
CONTINUOUS
 10
-20.7271545703
 20
-34.651775055
 11
-14.7271545703
 21
-34.651775055
  0
LWPOLYLINE
  5
27E
100
AcDbEntity
  8
0
100
AcDbPolyline
 62
7
  6
CONTINUOUS
 90
9
 70
0
 10
-10.3200730196
 20
-37.4338676808
 10
-10.3089245441
 20
-37.4380257763
 10
-10.2975908493
 20
-37.4416486967
 10
-10.2860976091
 20
-37.4447282367
 10
-10.2744708578
 20
-37.4472574227
 10
-10.2627369365
 20
-37.4492305291
 10
-10.2509224259
 20
-37.4506430892
 10
-10.2390540864
 20
-37.4514919048
 10
-10.2271588011
 20
-37.451775055
  0
LINE
  5
27F
100
AcDbEntity
  8
0
100
AcDbLine
 62
7
  6
CONTINUOUS
 10
-18.7271545703
 20
-35.351775055
 11
-18.7358285237
 21
-35.3465707675
  0
LINE
  5
280
100
AcDbEntity
  8
0
100
AcDbLine
 62
253
  6
CONTINUOUS
 10
-18.7271545703
 20
-36.7517818242
 11
-18.7357219403
 21
-36.7460703248
  0
LINE
  5
281
100
AcDbEntity
  8
0
100
AcDbLine
 62
7
  6
CONTINUOUS
 10
-25.1271545703
 20
-32.651775055
 11
-25.1638102067
 21
-32.6151194186
  0
LINE
  5
282
100
AcDbEntity
  8
DRAFT
100
AcDbLine
 62
7
  6
CONTINUOUS
 10
-25.1271545703
 20
-32.651775055
 11
-25.1638102067
 21
-32.6151194186
  0
LINE
  5
283
100
AcDbEntity
  8
DRAFT
100
AcDbLine
 62
7
  6
CONTINUOUS
 10
-24.9224321568
 20
-32.7564974685
 11
-25.0227911364
 21
-32.6561384889
  0
LINE
  5
284
100
AcDbEntity
  8
0
100
AcDbLine
 62
7
  6
CONTINUOUS
 10
-21.6584057683
 20
-36.4311135969
 11
-21.5927923759
 21
-36.4999734862
  0
LINE
  5
285
100
AcDbEntity
  8
0
100
AcDbLine
 62
7
  6
CONTINUOUS
 10
-21.6801972803
 20
-36.4081328697
 11
-21.6584057683
 21
-36.4311135969
  0
LINE
  5
286
100
AcDbEntity
  8
0
100
AcDbLine
 62
7
  6
CONTINUOUS
 10
-21.5927923759
 20
-36.4999734862
 11
-21.5083330065
 21
-36.5890108674
  0
LINE
  5
287
100
AcDbEntity
  8
0
100
AcDbLine
 62
7
  6
CONTINUOUS
 10
-21.5083330065
 20
-36.5890108674
 11
-21.4516354539
 21
-36.6490732623
  0
LINE
  5
288
100
AcDbEntity
  8
0
100
AcDbLine
 62
7
  6
CONTINUOUS
 10
-21.4516354539
 20
-36.6490732623
 11
-21.4175857288
 21
-36.685332306
  0
LINE
  5
289
100
AcDbEntity
  8
0
100
AcDbLine
 62
7
  6
CONTINUOUS
 10
-21.4175857288
 20
-36.685332306
 11
-21.3865147409
 21
-36.7186161366
  0
LINE
  5
28A
100
AcDbEntity
  8
0
100
AcDbLine
 62
7
  6
CONTINUOUS
 10
-21.3865147409
 20
-36.7186161366
 11
-21.35828906
 21
-36.7490597125
  0
LINE
  5
28B
100
AcDbEntity
  8
0
100
AcDbLine
 62
7
  6
CONTINUOUS
 10
-21.35828906
 20
-36.7490597125
 11
-21.3330053311
 21
-36.7765800487
  0
LINE
  5
28C
100
AcDbEntity
  8
0
100
AcDbLine
 62
7
  6
CONTINUOUS
 10
-21.3330053311
 20
-36.7765800487
 11
-21.3106919946
 21
-36.8011511793
  0
LWPOLYLINE
  5
28D
100
AcDbEntity
  8
0
100
AcDbPolyline
 62
7
  6
CONTINUOUS
 90
6
 70
0
 10
-21.3106919946
 20
-36.8011511793
 10
-21.2913915758
 20
-36.8227076061
 10
-21.282822819
 20
-36.8324202788
 10
-21.2749511272
 20
-36.8414559896
 10
-21.2677623873
 20
-36.8497980391
 10
-21.261238848
 20
-36.8574464274
  0
LWPOLYLINE
  5
28E
100
AcDbEntity
  8
0
100
AcDbPolyline
 62
7
  6
CONTINUOUS
 90
13
 70
0
 10
-19.2286788052
 20
-32.8362617346
 10
-19.3515510317
 20
-32.8364038715
 10
-19.4694228599
 20
-32.8367843455
 10
-19.5822942896
 20
-32.8374031568
 10
-19.6916500722
 20
-32.8382751214
 10
-19.7960054563
 20
-32.8393854233
 10
-19.8909061886
 20
-32.8406896141
 10
-19.9759742729
 20
-32.8421996361
 10
-20.0515877054
 20
-32.8439035471
 10
-20.1144262215
 20
-32.845721072
 10
-20.1633830661
 20
-32.8476254524
 10
-20.1995649942
 20
-32.8496434468
 10
-20.2229720058
 20
-32.851775055
  0
LINE
  5
28F
100
AcDbEntity
  8
0
100
AcDbLine
 62
253
  6
CONTINUOUS
 10
-25.2938002246
 20
-34.2877620036
 11
-20.7239778766
 21
-34.2877620036
  0
LINE
  5
290
100
AcDbEntity
  8
0
100
AcDbLine
 62
253
  6
CONTINUOUS
 10
-14.7303312641
 20
-34.2877620036
 11
-10.1605089161
 21
-34.2877620036
  0
LINE
  5
291
100
AcDbEntity
  8
DRAFT
100
AcDbLine
 62
7
  6
CONTINUOUS
 10
-25.2938002246
 20
-33.9477706007
 11
-24.9224321568
 21
-33.9477706007
  0
LINE
  5
292
100
AcDbEntity
  8
DRAFT
100
AcDbLine
 62
7
  6
CONTINUOUS
 10
-10.1605089161
 20
-33.9477706007
 11
-10.5318769838
 21
-33.9477706007
  0
LINE
  5
293
100
AcDbEntity
  8
0
100
AcDbLine
 62
7
  6
CONTINUOUS
 10
-25.9596995054
 20
-33.8605019228
 11
-25.7937240721
 21
-33.8605019228
  0
LINE
  5
294
100
AcDbEntity
  8
0
100
AcDbLine
 62
7
  6
CONTINUOUS
 10
-9.6605850685
 20
-33.8605019228
 11
-9.4946096353
 21
-33.8605019228
  0
LINE
  5
295
100
AcDbEntity
  8
DRAFT
100
AcDbLine
 62
7
  6
CONTINUOUS
 10
-10.4271545703
 20
-33.851775055
 11
-10.1085254202
 21
-33.851775055
  0
LINE
  5
296
100
AcDbEntity
  8
DRAFT
100
AcDbLine
 62
7
  6
CONTINUOUS
 10
-9.6605850685
 20
-33.851775055
 11
-10.0961837654
 21
-33.851775055
  0
LINE
  5
297
100
AcDbEntity
  8
DRAFT
100
AcDbLine
 62
7
  6
CONTINUOUS
 10
-25.0184277025
 20
-33.851775055
 11
-25.3457837204
 21
-33.851775055
  0
LINE
  5
298
100
AcDbEntity
  8
DRAFT
100
AcDbLine
 62
7
  6
CONTINUOUS
 10
-25.3581253752
 20
-33.851775055
 11
-25.7937240721
 21
-33.851775055
  0
LINE
  5
299
100
AcDbEntity
  8
0
100
AcDbLine
 62
7
  6
CONTINUOUS
 10
-26.5271545703
 20
-33.801775055
 11
-25.1271545703
 21
-33.801775055
  0
LINE
  5
29A
100
AcDbEntity
  8
DRAFT
100
AcDbLine
 62
7
  6
CONTINUOUS
 10
-26.5271545703
 20
-33.801775055
 11
-25.1271545703
 21
-33.801775055
  0
LINE
  5
29B
100
AcDbEntity
  8
0
100
AcDbLine
 62
7
  6
CONTINUOUS
 10
-8.9271545703
 20
-33.801775055
 11
-10.3271545703
 21
-33.801775055
  0
LINE
  5
29C
100
AcDbEntity
  8
DRAFT
100
AcDbLine
 62
7
  6
CONTINUOUS
 10
-8.9271545703
 20
-33.801775055
 11
-10.3271545703
 21
-33.801775055
  0
LINE
  5
29D
100
AcDbEntity
  8
0
100
AcDbLine
 62
7
  6
CONTINUOUS
 10
-20.7193003893
 20
-33.751775055
 11
-14.7350087513
 21
-33.751775055
  0
LINE
  5
29E
100
AcDbEntity
  8
DRAFT
100
AcDbLine
 62
7
  6
CONTINUOUS
 10
-24.3318769838
 20
-33.0564974685
 11
-11.1224321568
 21
-33.0564974685
  0
LINE
  5
29F
100
AcDbEntity
  8
DRAFT
100
AcDbLine
 62
7
  6
CONTINUOUS
 10
-15.2271545703
 20
-33.022468068
 11
-15.2858939885
 21
-33.022468068
  0
LINE
  5
2A0
100
AcDbEntity
  8
DRAFT
100
AcDbLine
 62
7
  6
CONTINUOUS
 10
-20.1684151522
 20
-33.022468068
 11
-20.2271545703
 21
-33.022468068
  0
LINE
  5
2A1
100
AcDbEntity
  8
DRAFT
100
AcDbLine
 62
7
  6
CONTINUOUS
 10
-21.2273080049
 20
-32.9693569205
 11
-20.2265385373
 21
-32.9693569205
  0
LINE
  5
2A2
100
AcDbEntity
  8
DRAFT
100
AcDbLine
 62
7
  6
CONTINUOUS
 10
-15.2277706033
 20
-32.9693569205
 11
-14.2270011357
 21
-32.9693569205
  0
LINE
  5
2A3
100
AcDbEntity
  8
DRAFT
100
AcDbLine
 62
7
  6
CONTINUOUS
 10
-24.2315180042
 20
-32.9561384889
 11
-20.22651464
 21
-32.9561384889
  0
LINE
  5
2A4
100
AcDbEntity
  8
DRAFT
100
AcDbLine
 62
7
  6
CONTINUOUS
 10
-15.2277945007
 20
-32.9561384889
 11
-11.2227911364
 21
-32.9561384889
  0
LINE
  5
2A5
100
AcDbEntity
  8
DRAFT
100
AcDbLine
 62
7
  6
CONTINUOUS
 10
-25.1271545703
 20
-32.951775055
 11
-25.0227911364
 21
-32.951775055
  0
LINE
  5
2A6
100
AcDbEntity
  8
DRAFT
100
AcDbLine
 62
7
  6
CONTINUOUS
 10
-10.4315180042
 20
-32.951775055
 11
-10.3271545703
 21
-32.951775055
  0
LINE
  5
2A7
100
AcDbEntity
  8
0
100
AcDbLine
 62
7
  6
CONTINUOUS
 10
-14.2271545703
 20
-32.851775055
 11
-15.2326762901
 21
-32.851775055
  0
LINE
  5
2A8
100
AcDbEntity
  8
0
100
AcDbLine
 62
7
  6
CONTINUOUS
 10
-20.2216328506
 20
-32.851775055
 11
-21.2271545703
 21
-32.851775055
  0
LINE
  5
2A9
100
AcDbEntity
  8
0
100
AcDbLine
 62
7
  6
CONTINUOUS
 10
-16.2256303355
 20
-32.8362617346
 11
-19.2286788052
 21
-32.8362617346
  0
LINE
  5
2AA
100
AcDbEntity
  8
0
100
AcDbLine
 62
7
  6
CONTINUOUS
 10
-14.2638102067
 20
-32.8151194186
 11
-21.190498934
 21
-32.8151194186
  0
LINE
  5
2AB
100
AcDbEntity
  8
DRAFT
100
AcDbLine
 62
7
  6
CONTINUOUS
 10
-14.2638102067
 20
-32.8151194186
 11
-21.190498934
 21
-32.8151194186
  0
LINE
  5
2AC
100
AcDbEntity
  8
DRAFT
100
AcDbLine
 62
7
  6
CONTINUOUS
 10
-24.9224321568
 20
-32.7564974685
 11
-24.3318769838
 21
-32.7564974685
  0
LINE
  5
2AD
100
AcDbEntity
  8
DRAFT
100
AcDbLine
 62
7
  6
CONTINUOUS
 10
-11.1224321568
 20
-32.7564974685
 11
-10.5318769838
 21
-32.7564974685
  0
LINE
  5
2AE
100
AcDbEntity
  8
DRAFT
100
AcDbLine
 62
7
  6
CONTINUOUS
 10
-25.0227911364
 20
-32.6561384889
 11
-24.2315180042
 21
-32.6561384889
  0
LINE
  5
2AF
100
AcDbEntity
  8
DRAFT
100
AcDbLine
 62
7
  6
CONTINUOUS
 10
-11.2227911364
 20
-32.6561384889
 11
-10.4315180042
 21
-32.6561384889
  0
LINE
  5
2B0
100
AcDbEntity
  8
0
100
AcDbLine
 62
7
  6
CONTINUOUS
 10
-25.1271545703
 20
-32.651775055
 11
-21.2271545703
 21
-32.651775055
  0
LINE
  5
2B1
100
AcDbEntity
  8
DRAFT
100
AcDbLine
 62
7
  6
CONTINUOUS
 10
-25.1271545703
 20
-32.651775055
 11
-21.2271545703
 21
-32.651775055
  0
LINE
  5
2B2
100
AcDbEntity
  8
0
100
AcDbLine
 62
7
  6
CONTINUOUS
 10
-14.2271545703
 20
-32.651775055
 11
-10.3271545703
 21
-32.651775055
  0
LINE
  5
2B3
100
AcDbEntity
  8
DRAFT
100
AcDbLine
 62
7
  6
CONTINUOUS
 10
-14.2271545703
 20
-32.651775055
 11
-10.3271545703
 21
-32.651775055
  0
LINE
  5
2B4
100
AcDbEntity
  8
0
100
AcDbLine
 62
7
  6
CONTINUOUS
 10
-25.1638102067
 20
-32.6151194186
 11
-21.190498934
 21
-32.6151194186
  0
LINE
  5
2B5
100
AcDbEntity
  8
DRAFT
100
AcDbLine
 62
7
  6
CONTINUOUS
 10
-25.1638102067
 20
-32.6151194186
 11
-21.190498934
 21
-32.6151194186
  0
LINE
  5
2B6
100
AcDbEntity
  8
0
100
AcDbLine
 62
7
  6
CONTINUOUS
 10
-14.2638102067
 20
-32.6151194186
 11
-10.290498934
 21
-32.6151194186
  0
LINE
  5
2B7
100
AcDbEntity
  8
DRAFT
100
AcDbLine
 62
7
  6
CONTINUOUS
 10
-14.2638102067
 20
-32.6151194186
 11
-10.290498934
 21
-32.6151194186
  0
LINE
  5
2B8
100
AcDbEntity
  8
RACCORDO
100
AcDbLine
 62
7
  6
CONTINUOUS
 10
-21.4402562951
 20
-32.5648653567
 11
-8.3359301802
 21
-32.5648653567
  0
LINE
  5
2B9
100
AcDbEntity
  8
ASSI
100
AcDbLine
 62
7
  6
CONTINUOUS
 10
-21.4402562951
 20
-32.5648653567
 11
-8.3359301802
 21
-32.5648653567
  0
LWPOLYLINE
  5
2BA
100
AcDbEntity
  8
0
100
AcDbPolyline
 62
7
  6
CONTINUOUS
 90
13
 70
0
 10
-16.2256303355
 20
-32.8362617346
 10
-16.1027581089
 20
-32.8364038715
 10
-15.9848862808
 20
-32.8367843455
 10
-15.872014851
 20
-32.8374031568
 10
-15.7626590685
 20
-32.8382751214
 10
-15.6583036844
 20
-32.8393854233
 10
-15.5634029521
 20
-32.8406896141
 10
-15.4783348678
 20
-32.8421996361
 10
-15.4027214352
 20
-32.8439035471
 10
-15.3398829192
 20
-32.845721072
 10
-15.2909260746
 20
-32.8476254524
 10
-15.2547441465
 20
-32.8496434468
 10
-15.2313371348
 20
-32.851775055
  0
LWPOLYLINE
  5
2BB
100
AcDbEntity
  8
0
100
AcDbPolyline
 62
7
  6
CONTINUOUS
 90
6
 70
0
 10
-27.8746100445
 20
-37.2373574211
 10
-27.8726369381
 20
-37.2490913425
 10
-27.8701077521
 20
-37.2607180938
 10
-27.867028212
 20
-37.272211334
 10
-27.8634052917
 20
-37.2835450288
 10
-27.8592471961
 20
-37.2946935043
  0
LWPOLYLINE
  5
2BC
100
AcDbEntity
  8
RACCORDO
100
AcDbPolyline
 62
253
  6
CONTINUOUS
 90
4
 70
0
 10
-28.3856905248
 20
-1.101775055
 10
-28.3841710411
 20
-1.0964246089
 10
-28.3826760043
 20
-1.0804349997
 10
-28.3812054144
 20
-1.0539379152
  0
LWPOLYLINE
  5
2BD
100
AcDbEntity
  8
ASSI
100
AcDbPolyline
 62
253
  6
CONTINUOUS
 90
4
 70
0
 10
-28.3856905248
 20
-1.101775055
 10
-28.3841710411
 20
-1.0964246089
 10
-28.3826760043
 20
-1.0804349997
 10
-28.3812054144
 20
-1.0539379152
  0
LWPOLYLINE
  5
2BE
100
AcDbEntity
  8
RACCORDO
100
AcDbPolyline
 62
253
  6
CONTINUOUS
 90
4
 70
0
 10
-28.3856905248
 20
-6.101775055
 10
-28.3841710411
 20
-6.0964246089
 10
-28.3826760043
 20
-6.0804349997
 10
-28.3812054144
 20
-6.0539379152
  0
LWPOLYLINE
  5
2BF
100
AcDbEntity
  8
ASSI
100
AcDbPolyline
 62
253
  6
CONTINUOUS
 90
4
 70
0
 10
-28.3856905248
 20
-6.101775055
 10
-28.3841710411
 20
-6.0964246089
 10
-28.3826760043
 20
-6.0804349997
 10
-28.3812054144
 20
-6.0539379152
  0
LINE
  5
2C0
100
AcDbEntity
  8
0
100
AcDbLine
 62
7
  6
CONTINUOUS
 10
-13.3208052172
 20
11.0045742981
 11
-13.2771545703
 21
11.048224945
  0
LINE
  5
2C1
100
AcDbEntity
  8
ASSI
100
AcDbLine
 62
7
  6
CONTINUOUS
 10
-21.740244872
 20
-31.551775055
 11
-26.9271545703
 21
-31.551775055
  0
LINE
  5
2C2
100
AcDbEntity
  8
0
100
AcDbLine
 62
7
  6
CONTINUOUS
 10
-15.2271545703
 20
-31.251775055
 11
-20.2271545703
 21
-31.251775055
  0
LINE
  5
2C3
100
AcDbEntity
  8
ASSI
100
AcDbLine
 62
7
  6
CONTINUOUS
 10
-15.2271545703
 20
-31.251775055
 11
-20.2271545703
 21
-31.251775055
  0
LINE
  5
2C4
100
AcDbEntity
  8
RACCORDO
100
AcDbLine
 62
7
  6
CONTINUOUS
 10
-27.1183789604
 20
-31.1648653567
 11
-21.740244872
 21
-31.1648653567
  0
LINE
  5
2C5
100
AcDbEntity
  8
ASSI
100
AcDbLine
 62
7
  6
CONTINUOUS
 10
-27.1183789604
 20
-31.1648653567
 11
-21.740244872
 21
-31.1648653567
  0
LINE
  5
2C6
100
AcDbEntity
  8
ASSI
100
AcDbLine
 62
7
  6
CONTINUOUS
 10
-20.2271545703
 20
-31.151775055
 11
-15.2271545703
 21
-31.151775055
  0
LINE
  5
2C7
100
AcDbEntity
  8
0
100
AcDbLine
 62
253
  6
CONTINUOUS
 10
-15.975060117
 20
-30.2375234053
 11
-15.9245485273
 21
-30.2496290656
  0
LINE
  5
2C8
100
AcDbEntity
  8
RACCORDO
100
AcDbLine
 62
253
  6
CONTINUOUS
 10
-15.975060117
 20
-30.2375234053
 11
-15.9245485273
 21
-30.2496290656
  0
LINE
  5
2C9
100
AcDbEntity
  8
0
100
AcDbLine
 62
7
  6
CONTINUOUS
 10
-13.2771545703
 20
-36.951775055
 11
-13.3208052172
 21
-36.9081244081
  0
LWPOLYLINE
  5
2CA
100
AcDbEntity
  8
0
100
AcDbPolyline
 62
7
  6
CONTINUOUS
 90
4
 70
0
 10
-27.8771545703
 20
-37.2017792858
 10
-27.8768714201
 20
-37.213674571
 10
-27.8760226046
 20
-37.2255429106
 10
-27.8746100445
 20
-37.2373574211
  0
LWPOLYLINE
  5
2CB
100
AcDbEntity
  8
0
100
AcDbPolyline
 62
7
  6
CONTINUOUS
 90
34
 70
0
 10
-27.8727827363
 20
-37.1974074518
 10
-27.8724991075
 20
-37.2093041107
 10
-27.8716496674
 20
-37.221173829
 10
-27.8702363385
 20
-37.2329897113
 10
-27.8682623199
 20
-37.244724991
 10
-27.8657320829
 20
-37.2563530703
 10
-27.8626513643
 20
-37.2678475814
 10
-27.8590271472
 20
-37.2791824739
 10
-27.8548676429
 20
-37.2903320702
 10
-27.8501822786
 20
-37.3012711038
 10
-27.8449816709
 20
-37.3119747902
 10
-27.8392776057
 20
-37.3224188754
 10
-27.8330830134
 20
-37.3325796876
 10
-27.8264119333
 20
-37.3424342037
 10
-27.8192794822
 20
-37.3519600979
 10
-27.8117018257
 20
-37.3611357849
 10
-27.8036961316
 20
-37.3699404805
 10
-27.7952805453
 20
-37.3783542321
 10
-27.7864741537
 20
-37.3863579636
 10
-27.7772969405
 20
-37.3939335245
 10
-27.767769679
 20
-37.4010637779
 10
-27.7579138943
 20
-37.4077326151
 10
-27.7477518187
 20
-37.4139249775
 10
-27.7373065653
 20
-37.419626766
 10
-27.7266020305
 20
-37.4248249513
 10
-27.7156626293
 20
-37.4295077249
 10
-27.7045130173
 20
-37.4336645793
 10
-27.6931782522
 20
-37.4372861891
 10
-27.6816822866
 20
-37.4403647677
 10
-27.6700528514
 20
-37.4428927576
 10
-27.6583213567
 20
-37.4448637036
 10
-27.6465161812
 20
-37.4462736995
 10
-27.6346624387
 20
-37.4471206013
 10
-27.6227869671
 20
-37.447403221
  0
LWPOLYLINE
  5
2CC
100
AcDbEntity
  8
0
100
AcDbPolyline
 62
7
  6
CONTINUOUS
 90
40
 70
0
 10
-28.8771545703
 20
-34.8515462029
 10
-28.8767557245
 20
-34.8716749983
 10
-28.8755488966
 20
-34.8917662496
 10
-28.8735361372
 20
-34.9117876279
 10
-28.8707211598
 20
-34.9317029619
 10
-28.867108513
 20
-34.9514841962
 10
-28.8627022165
 20
-34.9711111951
 10
-28.8575079932
 20
-34.9905537111
 10
-28.8515332997
 20
-35.0097784128
 10
-28.8447847547
 20
-35.0287604233
 10
-28.8372670861
 20
-35.0474790111
 10
-28.8289943114
 20
-35.0658921462
 10
-28.8199912845
 20
-35.0839446492
 10
-28.8102830164
 20
-35.101592267
 10
-28.7998787818
 20
-35.1188234157
 10
-28.7887818793
 20
-35.1356327448
 10
-28.7769976569
 20
-35.1520071155
 10
-28.7645539149
 20
-35.1679030655
 10
-28.7514895235
 20
-35.1832713125
 10
-28.7378414101
 20
-35.1980733591
 10
-28.72362015
 20
-35.2123024181
 10
-28.7088265806
 20
-35.2259578048
 10
-28.693468055
 20
-35.2390285873
 10
-28.6775826403
 20
-35.251478353
 10
-28.6612181257
 20
-35.2632695018
 10
-28.6444172786
 20
-35.2743744344
 10
-28.6271937503
 20
-35.2847872547
 10
-28.6095530845
 20
-35.294504608
 10
-28.5915058395
 20
-35.30351748
 10
-28.5730972029
 20
-35.3118001802
 10
-28.5543856712
 20
-35.319326731
 10
-28.5354163299
 20
-35.3260822136
 10
-28.5162072145
 20
-35.3320633901
 10
-28.4967777996
 20
-35.3372657169
 10
-28.4771482813
 20
-35.3416836403
 10
-28.457361747
 20
-35.345307352
 10
-28.4374724375
 20
-35.3481290229
 10
-28.4175203139
 20
-35.3501467622
 10
-28.3975304696
 20
-35.3513616811
 10
-28.3775351701
 20
-35.351775055
  0
LINE
  5
2CD
100
AcDbEntity
  8
RACCORDO
100
AcDbLine
 62
7
  6
CONTINUOUS
 10
-28.6776557765
 20
-11.6846369168
 11
-28.6764775095
 21
-11.7435313457
  0
LINE
  5
2CE
100
AcDbEntity
  8
ASSI
100
AcDbLine
 62
7
  6
CONTINUOUS
 10
-28.6776552969
 20
-11.6846375081
 11
-28.676487863
 21
-11.742970873
  0
LINE
  5
2CF
100
AcDbEntity
  8
RACCORDO
100
AcDbLine
 62
7
  6
CONTINUOUS
 10
-28.6776557765
 20
-6.6846369168
 11
-28.6764775095
 21
-6.7435313457
  0
LINE
  5
2D0
100
AcDbEntity
  8
ASSI
100
AcDbLine
 62
7
  6
CONTINUOUS
 10
-28.6776552969
 20
-6.6846375081
 11
-28.676487863
 21
-6.742970873
  0
LINE
  5
2D1
100
AcDbEntity
  8
RACCORDO
100
AcDbLine
 62
7
  6
CONTINUOUS
 10
-28.6776557765
 20
-1.6846369168
 11
-28.6764775095
 21
-1.7435313457
  0
LINE
  5
2D2
100
AcDbEntity
  8
ASSI
100
AcDbLine
 62
7
  6
CONTINUOUS
 10
-28.6776552969
 20
-1.6846375081
 11
-28.676487863
 21
-1.742970873
  0
LINE
  5
2D3
100
AcDbEntity
  8
RACCORDO
100
AcDbLine
 62
7
  6
CONTINUOUS
 10
-28.6776557765
 20
3.3153630832
 11
-28.6764775095
 21
3.2564686543
  0
LINE
  5
2D4
100
AcDbEntity
  8
ASSI
100
AcDbLine
 62
7
  6
CONTINUOUS
 10
-28.6776552969
 20
3.3153624919
 11
-28.676487863
 21
3.257029127
  0
LINE
  5
2D5
100
AcDbEntity
  8
ASSI
100
AcDbLine
 62
7
  6
CONTINUOUS
 10
-28.676487863
 20
-11.742970873
 11
-28.6753249079
 21
-11.8110601232
  0
LINE
  5
2D6
100
AcDbEntity
  8
RACCORDO
100
AcDbLine
 62
7
  6
CONTINUOUS
 10
-28.6764775095
 20
-11.7435313457
 11
-28.6753547758
 21
-11.8091765627
  0
LINE
  5
2D7
100
AcDbEntity
  8
ASSI
100
AcDbLine
 62
7
  6
CONTINUOUS
 10
-28.676487863
 20
-6.742970873
 11
-28.6753249079
 21
-6.8110601232
  0
LINE
  5
2D8
100
AcDbEntity
  8
RACCORDO
100
AcDbLine
 62
7
  6
CONTINUOUS
 10
-28.6764775095
 20
-6.7435313457
 11
-28.6753547758
 21
-6.8091765627
  0
LINE
  5
2D9
100
AcDbEntity
  8
ASSI
100
AcDbLine
 62
7
  6
CONTINUOUS
 10
-28.676487863
 20
-1.742970873
 11
-28.6753249079
 21
-1.8110601232
  0
LINE
  5
2DA
100
AcDbEntity
  8
RACCORDO
100
AcDbLine
 62
7
  6
CONTINUOUS
 10
-28.6764775095
 20
-1.7435313457
 11
-28.6753547758
 21
-1.8091765627
  0
LINE
  5
2DB
100
AcDbEntity
  8
ASSI
100
AcDbLine
 62
7
  6
CONTINUOUS
 10
-28.676487863
 20
3.257029127
 11
-28.6753249079
 21
3.1889398768
  0
LINE
  5
2DC
100
AcDbEntity
  8
RACCORDO
100
AcDbLine
 62
7
  6
CONTINUOUS
 10
-28.6764775095
 20
3.2564686543
 11
-28.6753547758
 21
3.1908234373
  0
LINE
  5
2DD
100
AcDbEntity
  8
RACCORDO
100
AcDbLine
 62
7
  6
CONTINUOUS
 10
-28.6753547758
 20
-11.8091765627
 11
-28.6742374479
 21
-11.8848404589
  0
LINE
  5
2DE
100
AcDbEntity
  8
RACCORDO
100
AcDbLine
 62
7
  6
CONTINUOUS
 10
-28.6753547758
 20
-6.8091765627
 11
-28.6742374479
 21
-6.8848404589
  0
LINE
  5
2DF
100
AcDbEntity
  8
RACCORDO
100
AcDbLine
 62
7
  6
CONTINUOUS
 10
-28.6753547758
 20
-1.8091765627
 11
-28.6742374479
 21
-1.8848404589
  0
LINE
  5
2E0
100
AcDbEntity
  8
RACCORDO
100
AcDbLine
 62
7
  6
CONTINUOUS
 10
-28.6753547758
 20
3.1908234373
 11
-28.6742374479
 21
3.1151595411
  0
LINE
  5
2E1
100
AcDbEntity
  8
ASSI
100
AcDbLine
 62
7
  6
CONTINUOUS
 10
-28.6753249079
 20
-11.8110601232
 11
-28.6741672824
 21
-11.8899598143
  0
LINE
  5
2E2
100
AcDbEntity
  8
ASSI
100
AcDbLine
 62
7
  6
CONTINUOUS
 10
-28.6753249079
 20
-6.8110601232
 11
-28.6741672824
 21
-6.8899598143
  0
LINE
  5
2E3
100
AcDbEntity
  8
ASSI
100
AcDbLine
 62
7
  6
CONTINUOUS
 10
-28.6753249079
 20
-1.8110601232
 11
-28.6741672824
 21
-1.8899598143
  0
LINE
  5
2E4
100
AcDbEntity
  8
ASSI
100
AcDbLine
 62
7
  6
CONTINUOUS
 10
-28.6753249079
 20
3.1889398768
 11
-28.6741672824
 21
3.1100401857
  0
LINE
  5
2E5
100
AcDbEntity
  8
RACCORDO
100
AcDbLine
 62
7
  6
CONTINUOUS
 10
-28.6742374479
 20
-11.8848404589
 11
-28.6729154555
 21
-11.9889268735
  0
LINE
  5
2E6
100
AcDbEntity
  8
RACCORDO
100
AcDbLine
 62
7
  6
CONTINUOUS
 10
-28.6742374479
 20
-6.8848404589
 11
-28.6729154555
 21
-6.9889268735
  0
LINE
  5
2E7
100
AcDbEntity
  8
RACCORDO
100
AcDbLine
 62
7
  6
CONTINUOUS
 10
-28.6742374479
 20
-1.8848404589
 11
-28.6729154555
 21
-1.9889268735
  0
LINE
  5
2E8
100
AcDbEntity
  8
RACCORDO
100
AcDbLine
 62
7
  6
CONTINUOUS
 10
-28.6742374479
 20
3.1151595411
 11
-28.6729154555
 21
3.0110731265
  0
LINE
  5
2E9
100
AcDbEntity
  8
ASSI
100
AcDbLine
 62
7
  6
CONTINUOUS
 10
-28.6741672824
 20
-11.8899598143
 11
-28.672797744
 21
-11.9990040599
  0
LINE
  5
2EA
100
AcDbEntity
  8
ASSI
100
AcDbLine
 62
7
  6
CONTINUOUS
 10
-28.6741672824
 20
-6.8899598143
 11
-28.672797744
 21
-6.9990040599
  0
LINE
  5
2EB
100
AcDbEntity
  8
ASSI
100
AcDbLine
 62
7
  6
CONTINUOUS
 10
-28.6741672824
 20
-1.8899598143
 11
-28.672797744
 21
-1.9990040599
  0
LINE
  5
2EC
100
AcDbEntity
  8
ASSI
100
AcDbLine
 62
7
  6
CONTINUOUS
 10
-28.6741672824
 20
3.1100401857
 11
-28.672797744
 21
3.0009959401
  0
LINE
  5
2ED
100
AcDbEntity
  8
RACCORDO
100
AcDbLine
 62
7
  6
CONTINUOUS
 10
-28.6729154555
 20
-11.9889268735
 11
-28.6716286685
 21
-12.1074318084
  0
LINE
  5
2EE
100
AcDbEntity
  8
ASSI
100
AcDbLine
 62
7
  6
CONTINUOUS
 10
-28.672797744
 20
-11.9990040599
 11
-28.6716854811
 21
-12.1017834958
  0
LINE
  5
2EF
100
AcDbEntity
  8
RACCORDO
100
AcDbLine
 62
7
  6
CONTINUOUS
 10
-28.6729154555
 20
-6.9889268735
 11
-28.6716286685
 21
-7.1074318084
  0
LINE
  5
2F0
100
AcDbEntity
  8
ASSI
100
AcDbLine
 62
7
  6
CONTINUOUS
 10
-28.672797744
 20
-6.9990040599
 11
-28.6716854811
 21
-7.1017834958
  0
LINE
  5
2F1
100
AcDbEntity
  8
RACCORDO
100
AcDbLine
 62
7
  6
CONTINUOUS
 10
-28.6729154555
 20
-1.9889268735
 11
-28.6716286685
 21
-2.1074318084
  0
LINE
  5
2F2
100
AcDbEntity
  8
ASSI
100
AcDbLine
 62
7
  6
CONTINUOUS
 10
-28.672797744
 20
-1.9990040599
 11
-28.6716854811
 21
-2.1017834958
  0
LINE
  5
2F3
100
AcDbEntity
  8
RACCORDO
100
AcDbLine
 62
7
  6
CONTINUOUS
 10
-28.6729154555
 20
3.0110731265
 11
-28.6716286685
 21
2.8925681916
  0
LINE
  5
2F4
100
AcDbEntity
  8
ASSI
100
AcDbLine
 62
7
  6
CONTINUOUS
 10
-28.672797744
 20
3.0009959401
 11
-28.6716854811
 21
2.8982165042
  0
LINE
  5
2F5
100
AcDbEntity
  8
0
100
AcDbLine
 62
253
  6
CONTINUOUS
 10
-27.8727827363
 20
-36.7961126223
 11
-27.8771545703
 21
-36.3622602032
  0
LINE
  5
2F6
100
AcDbEntity
  8
0
100
AcDbLine
 62
253
  6
CONTINUOUS
 10
-27.6227869671
 20
-36.5796062713
 11
-27.6278775682
 21
-36.0744247858
  0
LINE
  5
2F7
100
AcDbEntity
  8
RACCORDO
100
AcDbLine
 62
7
  6
CONTINUOUS
 10
-28.6716286685
 20
-12.1074318084
 11
-28.6704013628
 21
-12.2403398423
  0
LINE
  5
2F8
100
AcDbEntity
  8
ASSI
100
AcDbLine
 62
7
  6
CONTINUOUS
 10
-28.6716854811
 20
-12.1017834958
 11
-28.670409621
 21
-12.2393713834
  0
LINE
  5
2F9
100
AcDbEntity
  8
RACCORDO
100
AcDbLine
 62
7
  6
CONTINUOUS
 10
-28.6716286685
 20
-7.1074318084
 11
-28.6704013628
 21
-7.2403398423
  0
LINE
  5
2FA
100
AcDbEntity
  8
ASSI
100
AcDbLine
 62
7
  6
CONTINUOUS
 10
-28.6716854811
 20
-7.1017834958
 11
-28.670409621
 21
-7.2393713834
  0
LINE
  5
2FB
100
AcDbEntity
  8
RACCORDO
100
AcDbLine
 62
7
  6
CONTINUOUS
 10
-28.6716286685
 20
-2.1074318084
 11
-28.6704013628
 21
-2.2403398423
  0
LINE
  5
2FC
100
AcDbEntity
  8
ASSI
100
AcDbLine
 62
7
  6
CONTINUOUS
 10
-28.6716854811
 20
-2.1017834958
 11
-28.670409621
 21
-2.2393713834
  0
LINE
  5
2FD
100
AcDbEntity
  8
RACCORDO
100
AcDbLine
 62
7
  6
CONTINUOUS
 10
-28.6716286685
 20
2.8925681916
 11
-28.6704013628
 21
2.7596601577
  0
LINE
  5
2FE
100
AcDbEntity
  8
ASSI
100
AcDbLine
 62
7
  6
CONTINUOUS
 10
-28.6716854811
 20
2.8982165042
 11
-28.670409621
 21
2.7606286166
  0
LINE
  5
2FF
100
AcDbEntity
  8
ASSI
100
AcDbLine
 62
7
  6
CONTINUOUS
 10
-28.670409621
 20
-12.2393713834
 11
-28.6692061989
 21
-12.3923186891
  0
LINE
  5
300
100
AcDbEntity
  8
RACCORDO
100
AcDbLine
 62
7
  6
CONTINUOUS
 10
-28.6704013628
 20
-12.2403398423
 11
-28.6692410628
 21
-12.3875179929
  0
LINE
  5
301
100
AcDbEntity
  8
ASSI
100
AcDbLine
 62
7
  6
CONTINUOUS
 10
-28.670409621
 20
-7.2393713834
 11
-28.6692061989
 21
-7.3923186891
  0
LINE
  5
302
100
AcDbEntity
  8
RACCORDO
100
AcDbLine
 62
7
  6
CONTINUOUS
 10
-28.6704013628
 20
-7.2403398423
 11
-28.6692410628
 21
-7.3875179929
  0
LINE
  5
303
100
AcDbEntity
  8
ASSI
100
AcDbLine
 62
7
  6
CONTINUOUS
 10
-28.670409621
 20
-2.2393713834
 11
-28.6692061989
 21
-2.3923186891
  0
LINE
  5
304
100
AcDbEntity
  8
RACCORDO
100
AcDbLine
 62
7
  6
CONTINUOUS
 10
-28.6704013628
 20
-2.2403398423
 11
-28.6692410628
 21
-2.3875179929
  0
LINE
  5
305
100
AcDbEntity
  8
ASSI
100
AcDbLine
 62
7
  6
CONTINUOUS
 10
-28.670409621
 20
2.7606286166
 11
-28.6692061989
 21
2.6076813109
  0
LINE
  5
306
100
AcDbEntity
  8
RACCORDO
100
AcDbLine
 62
7
  6
CONTINUOUS
 10
-28.6704013628
 20
2.7596601577
 11
-28.6692410628
 21
2.6124820071
  0
LINE
  5
307
100
AcDbEntity
  8
ASSI
100
AcDbLine
 62
7
  6
CONTINUOUS
 10
-28.6692061989
 20
-12.3923186891
 11
-28.6680965111
 21
-12.560123287
  0
LINE
  5
308
100
AcDbEntity
  8
RACCORDO
100
AcDbLine
 62
7
  6
CONTINUOUS
 10
-28.6692410628
 20
-12.3875179929
 11
-28.6681664545
 21
-12.5485754022
  0
LINE
  5
309
100
AcDbEntity
  8
ASSI
100
AcDbLine
 62
7
  6
CONTINUOUS
 10
-28.6692061989
 20
-7.3923186891
 11
-28.6680965111
 21
-7.560123287
  0
LINE
  5
30A
100
AcDbEntity
  8
RACCORDO
100
AcDbLine
 62
7
  6
CONTINUOUS
 10
-28.6692410628
 20
-7.3875179929
 11
-28.6681664545
 21
-7.5485754022
  0
LINE
  5
30B
100
AcDbEntity
  8
ASSI
100
AcDbLine
 62
7
  6
CONTINUOUS
 10
-28.6692061989
 20
-2.3923186891
 11
-28.6680965111
 21
-2.560123287
  0
LINE
  5
30C
100
AcDbEntity
  8
RACCORDO
100
AcDbLine
 62
7
  6
CONTINUOUS
 10
-28.6692410628
 20
-2.3875179929
 11
-28.6681664545
 21
-2.5485754022
  0
LINE
  5
30D
100
AcDbEntity
  8
ASSI
100
AcDbLine
 62
7
  6
CONTINUOUS
 10
-28.6692061989
 20
2.6076813109
 11
-28.6680965111
 21
2.439876713
  0
LINE
  5
30E
100
AcDbEntity
  8
RACCORDO
100
AcDbLine
 62
7
  6
CONTINUOUS
 10
-28.6692410628
 20
2.6124820071
 11
-28.6681664545
 21
2.4514245978
  0
LINE
  5
30F
100
AcDbEntity
  8
ASSI
100
AcDbLine
 62
7
  6
CONTINUOUS
 10
-28.6680965111
 20
-12.560123287
 11
-28.6671013872
 21
-12.742056264
  0
LINE
  5
310
100
AcDbEntity
  8
RACCORDO
100
AcDbLine
 62
7
  6
CONTINUOUS
 10
-28.6681664545
 20
-12.5485754022
 11
-28.6671974024
 21
-12.7229372986
  0
LINE
  5
311
100
AcDbEntity
  8
ASSI
100
AcDbLine
 62
7
  6
CONTINUOUS
 10
-28.6680965111
 20
-7.560123287
 11
-28.6671013872
 21
-7.742056264
  0
LINE
  5
312
100
AcDbEntity
  8
RACCORDO
100
AcDbLine
 62
7
  6
CONTINUOUS
 10
-28.6681664545
 20
-7.5485754022
 11
-28.6671974024
 21
-7.7229372986
  0
LINE
  5
313
100
AcDbEntity
  8
ASSI
100
AcDbLine
 62
7
  6
CONTINUOUS
 10
-28.6680965111
 20
-2.560123287
 11
-28.6671013872
 21
-2.742056264
  0
LINE
  5
314
100
AcDbEntity
  8
RACCORDO
100
AcDbLine
 62
7
  6
CONTINUOUS
 10
-28.6681664545
 20
-2.5485754022
 11
-28.6671974024
 21
-2.7229372986
  0
LINE
  5
315
100
AcDbEntity
  8
ASSI
100
AcDbLine
 62
7
  6
CONTINUOUS
 10
-28.6680965111
 20
2.439876713
 11
-28.6671013872
 21
2.257943736
  0
LINE
  5
316
100
AcDbEntity
  8
RACCORDO
100
AcDbLine
 62
7
  6
CONTINUOUS
 10
-28.6681664545
 20
2.4514245978
 11
-28.6671974024
 21
2.2770627014
  0
LINE
  5
317
100
AcDbEntity
  8
RACCORDO
100
AcDbLine
 62
7
  6
CONTINUOUS
 10
-28.6671974024
 20
-7.7229372986
 11
-28.6663391596
 21
-7.9098211053
  0
LINE
  5
318
100
AcDbEntity
  8
RACCORDO
100
AcDbLine
 62
7
  6
CONTINUOUS
 10
-28.6671974024
 20
-2.7229372986
 11
-28.6663391596
 21
-2.9098211053
  0
LINE
  5
319
100
AcDbEntity
  8
RACCORDO
100
AcDbLine
 62
7
  6
CONTINUOUS
 10
-28.6671974024
 20
2.2770627014
 11
-28.6663391596
 21
2.0901788947
  0
LINE
  5
31A
100
AcDbEntity
  8
ASSI
100
AcDbLine
 62
7
  6
CONTINUOUS
 10
-28.6671013872
 20
-12.742056264
 11
-28.666228637
 21
-12.9371293483
  0
LINE
  5
31B
100
AcDbEntity
  8
ASSI
100
AcDbLine
 62
7
  6
CONTINUOUS
 10
-28.6671013872
 20
-7.742056264
 11
-28.666228637
 21
-7.9371293483
  0
LINE
  5
31C
100
AcDbEntity
  8
ASSI
100
AcDbLine
 62
7
  6
CONTINUOUS
 10
-28.6671013872
 20
-2.742056264
 11
-28.666228637
 21
-2.9371293483
  0
LINE
  5
31D
100
AcDbEntity
  8
ASSI
100
AcDbLine
 62
7
  6
CONTINUOUS
 10
-28.6671013872
 20
2.257943736
 11
-28.666228637
 21
2.0628706517
  0
LINE
  5
31E
100
AcDbEntity
  8
RACCORDO
100
AcDbLine
 62
7
  6
CONTINUOUS
 10
-28.6671974024
 20
-12.7229372986
 11
-28.6660825208
 21
-12.9747229918
  0
LINE
  5
31F
100
AcDbEntity
  8
ASSI
100
AcDbLine
 62
7
  6
CONTINUOUS
 10
-28.666228637
 20
-12.9371293483
 11
-28.6655060371
 21
-13.1440537625
  0
LINE
  5
320
100
AcDbEntity
  8
RACCORDO
100
AcDbLine
 62
7
  6
CONTINUOUS
 10
-28.6663391596
 20
-7.9098211053
 11
-28.6656176199
 21
-8.1081786172
  0
LINE
  5
321
100
AcDbEntity
  8
RACCORDO
100
AcDbLine
 62
7
  6
CONTINUOUS
 10
-28.6663391596
 20
-2.9098211053
 11
-28.6656176199
 21
-3.1081786172
  0
LINE
  5
322
100
AcDbEntity
  8
RACCORDO
100
AcDbLine
 62
7
  6
CONTINUOUS
 10
-28.6663391596
 20
2.0901788947
 11
-28.6656176199
 21
1.8918213828
  0
LINE
  5
323
100
AcDbEntity
  8
RACCORDO
100
AcDbLine
 62
7
  6
CONTINUOUS
 10
-28.6660825208
 20
-12.9747229918
 11
-28.6654091978
 21
-13.1766421808
  0
LINE
  5
324
100
AcDbEntity
  8
ASSI
100
AcDbLine
 62
7
  6
CONTINUOUS
 10
-28.666228637
 20
-7.9371293483
 11
-28.6654006367
 21
-8.1795921653
  0
LINE
  5
325
100
AcDbEntity
  8
ASSI
100
AcDbLine
 62
7
  6
CONTINUOUS
 10
-28.666228637
 20
-2.9371293483
 11
-28.6654006367
 21
-3.1795921653
  0
LINE
  5
326
100
AcDbEntity
  8
ASSI
100
AcDbLine
 62
7
  6
CONTINUOUS
 10
-28.666228637
 20
2.0628706517
 11
-28.6654006367
 21
1.8204078347
  0
LINE
  5
327
100
AcDbEntity
  8
RACCORDO
100
AcDbLine
 62
7
  6
CONTINUOUS
 10
-28.6656176199
 20
-8.1081786172
 11
-28.6650395336
 21
-8.3167130302
  0
LINE
  5
328
100
AcDbEntity
  8
RACCORDO
100
AcDbLine
 62
7
  6
CONTINUOUS
 10
-28.6656176199
 20
-3.1081786172
 11
-28.6650395336
 21
-3.3167130302
  0
LINE
  5
329
100
AcDbEntity
  8
RACCORDO
100
AcDbLine
 62
7
  6
CONTINUOUS
 10
-28.6656176199
 20
1.8918213828
 11
-28.6650395336
 21
1.6832869698
  0
LINE
  5
32A
100
AcDbEntity
  8
ASSI
100
AcDbLine
 62
7
  6
CONTINUOUS
 10
-28.6655060371
 20
-13.1440537625
 11
-28.6649383211
 21
-13.3612046072
  0
LINE
  5
32B
100
AcDbEntity
  8
RACCORDO
100
AcDbLine
 62
7
  6
CONTINUOUS
 10
-28.6654091978
 20
-13.1766421808
 11
-28.6648809336
 21
-13.3881352796
  0
LINE
  5
32C
100
AcDbEntity
  8
ASSI
100
AcDbLine
 62
7
  6
CONTINUOUS
 10
-28.6654006367
 20
-8.1795921653
 11
-28.6648602087
 21
-8.3982143704
  0
LINE
  5
32D
100
AcDbEntity
  8
ASSI
100
AcDbLine
 62
7
  6
CONTINUOUS
 10
-28.6654006367
 20
-3.1795921653
 11
-28.6648602087
 21
-3.3982143704
  0
LINE
  5
32E
100
AcDbEntity
  8
ASSI
100
AcDbLine
 62
7
  6
CONTINUOUS
 10
-28.6654006367
 20
1.8204078347
 11
-28.6648602087
 21
1.6017856296
  0
LINE
  5
32F
100
AcDbEntity
  8
RACCORDO
100
AcDbLine
 62
7
  6
CONTINUOUS
 10
-28.6650395336
 20
-8.3167130302
 11
-28.6646218167
 21
-8.5332059899
  0
LINE
  5
330
100
AcDbEntity
  8
RACCORDO
100
AcDbLine
 62
7
  6
CONTINUOUS
 10
-28.6650395336
 20
-3.3167130302
 11
-28.6646218167
 21
-3.5332059899
  0
LINE
  5
331
100
AcDbEntity
  8
RACCORDO
100
AcDbLine
 62
7
  6
CONTINUOUS
 10
-28.6650395336
 20
1.6832869698
 11
-28.6646218167
 21
1.4667940101
  0
LINE
  5
332
100
AcDbEntity
  8
ASSI
100
AcDbLine
 62
7
  6
CONTINUOUS
 10
-28.6649383211
 20
-13.3612046072
 11
-28.6645480405
 21
-13.5859184812
  0
LINE
  5
333
100
AcDbEntity
  8
RACCORDO
100
AcDbLine
 62
7
  6
CONTINUOUS
 10
-28.6648809336
 20
-13.3881352796
 11
-28.6645218899
 21
-13.6066384681
  0
LINE
  5
334
100
AcDbEntity
  8
ASSI
100
AcDbLine
 62
7
  6
CONTINUOUS
 10
-28.6648602087
 20
-8.3982143704
 11
-28.664501325
 21
-8.6238794512
  0
LINE
  5
335
100
AcDbEntity
  8
ASSI
100
AcDbLine
 62
7
  6
CONTINUOUS
 10
-28.6648602087
 20
-3.3982143704
 11
-28.664501325
 21
-3.6238794512
  0
LINE
  5
336
100
AcDbEntity
  8
ASSI
100
AcDbLine
 62
7
  6
CONTINUOUS
 10
-28.6648602087
 20
1.6017856296
 11
-28.664501325
 21
1.3761205488
  0
LINE
  5
337
100
AcDbEntity
  8
RACCORDO
100
AcDbLine
 62
7
  6
CONTINUOUS
 10
-28.6646218167
 20
-8.5332059899
 11
-28.6643786924
 21
-8.7547143366
  0
LINE
  5
338
100
AcDbEntity
  8
RACCORDO
100
AcDbLine
 62
7
  6
CONTINUOUS
 10
-28.6646218167
 20
-3.5332059899
 11
-28.6643786924
 21
-3.7547143366
  0
LINE
  5
339
100
AcDbEntity
  8
RACCORDO
100
AcDbLine
 62
7
  6
CONTINUOUS
 10
-28.6646218167
 20
1.4667940101
 11
-28.6643786924
 21
1.2452856634
  0
LINE
  5
33A
100
AcDbEntity
  8
ASSI
100
AcDbLine
 62
7
  6
CONTINUOUS
 10
-28.6645480405
 20
-13.5859184812
 11
-28.6643417082
 21
-13.8149583233
  0
LINE
  5
33B
100
AcDbEntity
  8
RACCORDO
100
AcDbLine
 62
7
  6
CONTINUOUS
 10
-28.6645218899
 20
-13.6066384681
 11
-28.6643348723
 21
-13.8291301535
  0
LINE
  5
33C
100
AcDbEntity
  8
ASSI
100
AcDbLine
 62
7
  6
CONTINUOUS
 10
-28.664501325
 20
-8.6238794512
 11
-28.6643248829
 21
-8.8533129641
  0
LINE
  5
33D
100
AcDbEntity
  8
ASSI
100
AcDbLine
 62
7
  6
CONTINUOUS
 10
-28.664501325
 20
-3.6238794512
 11
-28.6643248829
 21
-3.8533129641
  0
LINE
  5
33E
100
AcDbEntity
  8
ASSI
100
AcDbLine
 62
7
  6
CONTINUOUS
 10
-28.664501325
 20
1.3761205488
 11
-28.6643248829
 21
1.1466870359
  0
LINE
  5
33F
100
AcDbEntity
  8
RACCORDO
100
AcDbLine
 62
7
  6
CONTINUOUS
 10
-28.8771545703
 20
4.7199239937
 11
-28.8771545703
 21
-30.6234741037
  0
LINE
  5
340
100
AcDbEntity
  8
0
100
AcDbLine
 62
7
  6
CONTINUOUS
 10
-28.8771545703
 20
8.948241868
 11
-28.8771545703
 21
-34.851791978
  0
LINE
  5
341
100
AcDbEntity
  8
0
100
AcDbLine
 62
7
  6
CONTINUOUS
 10
-28.8684277025
 20
8.9424240382
 11
-28.8684277025
 21
5.5569518128
  0
LINE
  5
342
100
AcDbEntity
  8
0
100
AcDbLine
 62
7
  6
CONTINUOUS
 10
-28.8684277025
 20
-31.4605019228
 11
-28.8684277025
 21
-34.8459741482
  0
LINE
  5
343
100
AcDbEntity
  8
0
100
AcDbLine
 62
7
  6
CONTINUOUS
 10
-28.8597008348
 20
5.5656786806
 11
-28.8597008348
 21
4.9675143573
  0
LINE
  5
344
100
AcDbEntity
  8
0
100
AcDbLine
 62
7
  6
CONTINUOUS
 10
-28.8597008348
 20
-30.8710644673
 11
-28.8597008348
 21
-31.4692287906
  0
LINE
  5
345
100
AcDbEntity
  8
0
100
AcDbLine
 62
7
  6
CONTINUOUS
 10
-28.7549691158
 20
4.6693131213
 11
-28.7549691158
 21
-30.5728632313
  0
LINE
  5
346
100
AcDbEntity
  8
RACCORDO
100
AcDbLine
 62
7
  6
CONTINUOUS
 10
-28.7549691158
 20
4.6693131213
 11
-28.7549691158
 21
-30.5728632313
  0
LINE
  5
347
100
AcDbEntity
  8
RACCORDO
100
AcDbLine
 62
7
  6
CONTINUOUS
 10
-28.740244872
 20
3.6394493351
 11
-28.740244872
 21
3.498224945
  0
LINE
  5
348
100
AcDbEntity
  8
ASSI
100
AcDbLine
 62
7
  6
CONTINUOUS
 10
-28.740244872
 20
3.6394493351
 11
-28.740244872
 21
3.498224945
  0
LINE
  5
349
100
AcDbEntity
  8
RACCORDO
100
AcDbLine
 62
7
  6
CONTINUOUS
 10
-28.740244872
 20
-1.401775055
 11
-28.740244872
 21
-1.501775055
  0
LINE
  5
34A
100
AcDbEntity
  8
ASSI
100
AcDbLine
 62
7
  6
CONTINUOUS
 10
-28.740244872
 20
-1.401775055
 11
-28.740244872
 21
-1.501775055
  0
LINE
  5
34B
100
AcDbEntity
  8
RACCORDO
100
AcDbLine
 62
7
  6
CONTINUOUS
 10
-28.740244872
 20
-6.401775055
 11
-28.740244872
 21
-6.501775055
  0
LINE
  5
34C
100
AcDbEntity
  8
ASSI
100
AcDbLine
 62
7
  6
CONTINUOUS
 10
-28.740244872
 20
-6.401775055
 11
-28.740244872
 21
-6.501775055
  0
LINE
  5
34D
100
AcDbEntity
  8
RACCORDO
100
AcDbLine
 62
7
  6
CONTINUOUS
 10
-28.740244872
 20
-11.401775055
 11
-28.740244872
 21
-11.501775055
  0
LINE
  5
34E
100
AcDbEntity
  8
ASSI
100
AcDbLine
 62
7
  6
CONTINUOUS
 10
-28.740244872
 20
-11.401775055
 11
-28.740244872
 21
-11.501775055
  0
LINE
  5
34F
100
AcDbEntity
  8
RACCORDO
100
AcDbLine
 62
7
  6
CONTINUOUS
 10
-28.740244872
 20
-16.401775055
 11
-28.740244872
 21
-29.5429994451
  0
LINE
  5
350
100
AcDbEntity
  8
ASSI
100
AcDbLine
 62
7
  6
CONTINUOUS
 10
-28.740244872
 20
-16.401775055
 11
-28.740244872
 21
-29.5429994451
  0
LINE
  5
351
100
AcDbEntity
  8
ASSI
100
AcDbLine
 62
7
  6
CONTINUOUS
 10
-28.7271545703
 20
3.41145284
 11
-28.7271545703
 21
-1.31500295
  0
LINE
  5
352
100
AcDbEntity
  8
ASSI
100
AcDbLine
 62
7
  6
CONTINUOUS
 10
-28.7271545703
 20
-1.58854716
 11
-28.7271545703
 21
-6.31500295
  0
LINE
  5
353
100
AcDbEntity
  8
ASSI
100
AcDbLine
 62
7
  6
CONTINUOUS
 10
-28.7271545703
 20
-6.58854716
 11
-28.7271545703
 21
-11.31500295
  0
LINE
  5
354
100
AcDbEntity
  8
ASSI
100
AcDbLine
 62
7
  6
CONTINUOUS
 10
-28.7271545703
 20
-11.58854716
 11
-28.7271545703
 21
-16.31500295
  0
LINE
  5
355
100
AcDbEntity
  8
0
100
AcDbLine
 62
7
  6
CONTINUOUS
 10
-27.8771545703
 20
-35.351775055
 11
-27.8771545703
 21
-36.7961126223
  0
LINE
  5
356
100
AcDbEntity
  8
0
100
AcDbLine
 62
7
  6
CONTINUOUS
 10
-27.8771545703
 20
9.448224945
 11
-27.8771545703
 21
10.8925625123
  0
LINE
  5
357
100
AcDbEntity
  8
0
100
AcDbLine
 62
7
  6
CONTINUOUS
 10
-27.8727827363
 20
11.2938573418
 11
-27.8727827363
 21
10.8925625123
  0
LINE
  5
358
100
AcDbEntity
  8
0
100
AcDbLine
 62
7
  6
CONTINUOUS
 10
-27.8727827363
 20
-36.7961126223
 11
-27.8727827363
 21
-37.1974074518
  0
LINE
  5
359
100
AcDbEntity
  8
RACCORDO
100
AcDbLine
 62
7
  6
CONTINUOUS
 10
-28.6643786924
 20
1.2452856634
 11
-28.6643138185
 21
0.9846990817
  0
LINE
  5
35A
100
AcDbEntity
  8
RACCORDO
100
AcDbLine
 62
7
  6
CONTINUOUS
 10
-28.6643786924
 20
-3.7547143366
 11
-28.6643138185
 21
-4.0153009183
  0
LINE
  5
35B
100
AcDbEntity
  8
RACCORDO
100
AcDbLine
 62
7
  6
CONTINUOUS
 10
-28.6643786924
 20
-8.7547143366
 11
-28.6643138185
 21
-9.0153009183
  0
LINE
  5
35C
100
AcDbEntity
  8
ASSI
100
AcDbLine
 62
7
  6
CONTINUOUS
 10
-28.6643417082
 20
-13.8149583233
 11
-28.6643224174
 21
-14.0449279181
  0
LINE
  5
35D
100
AcDbEntity
  8
RACCORDO
100
AcDbLine
 62
7
  6
CONTINUOUS
 10
-28.6643348723
 20
-13.8291301535
 11
-28.6643251191
 21
-14.0524451258
  0
LINE
  5
35E
100
AcDbEntity
  8
ASSI
100
AcDbLine
 62
7
  6
CONTINUOUS
 10
-28.6643248829
 20
1.1466870359
 11
-28.6643383014
 21
0.9168974284
  0
LINE
  5
35F
100
AcDbEntity
  8
ASSI
100
AcDbLine
 62
7
  6
CONTINUOUS
 10
-28.6643248829
 20
-3.8533129641
 11
-28.6643383014
 21
-4.0831025716
  0
LINE
  5
360
100
AcDbEntity
  8
ASSI
100
AcDbLine
 62
7
  6
CONTINUOUS
 10
-28.6643248829
 20
-8.8533129641
 11
-28.6643383014
 21
-9.0831025716
  0
LINE
  5
361
100
AcDbEntity
  8
RACCORDO
100
AcDbLine
 62
7
  6
CONTINUOUS
 10
-28.6643138185
 20
0.9846990817
 11
-28.6644550902
 21
0.7631426615
  0
LINE
  5
362
100
AcDbEntity
  8
RACCORDO
100
AcDbLine
 62
7
  6
CONTINUOUS
 10
-28.6643138185
 20
-4.0153009183
 11
-28.6644550902
 21
-4.2368573385
  0
LINE
  5
363
100
AcDbEntity
  8
RACCORDO
100
AcDbLine
 62
7
  6
CONTINUOUS
 10
-28.6643138185
 20
-9.0153009183
 11
-28.6644550902
 21
-9.2368573385
  0
LINE
  5
364
100
AcDbEntity
  8
ASSI
100
AcDbLine
 62
7
  6
CONTINUOUS
 10
-28.6643224174
 20
-14.0449279181
 11
-28.6644935131
 21
-14.2723960022
  0
LINE
  5
365
100
AcDbEntity
  8
RACCORDO
100
AcDbLine
 62
7
  6
CONTINUOUS
 10
-28.6643251191
 20
-14.0524451258
 11
-28.6644946455
 21
-14.273386736
  0
LINE
  5
366
100
AcDbEntity
  8
ASSI
100
AcDbLine
 62
7
  6
CONTINUOUS
 10
-28.6643383014
 20
0.9168974284
 11
-28.6645386788
 21
0.6901738086
  0
LINE
  5
367
100
AcDbEntity
  8
ASSI
100
AcDbLine
 62
7
  6
CONTINUOUS
 10
-28.6643383014
 20
-4.0831025716
 11
-28.6645386788
 21
-4.3098261914
  0
LINE
  5
368
100
AcDbEntity
  8
ASSI
100
AcDbLine
 62
7
  6
CONTINUOUS
 10
-28.6643383014
 20
-9.0831025716
 11
-28.6645386788
 21
-9.3098261914
  0
LINE
  5
369
100
AcDbEntity
  8
RACCORDO
100
AcDbLine
 62
7
  6
CONTINUOUS
 10
-28.6644550902
 20
0.7631426615
 11
-28.6647601403
 21
0.5465475174
  0
LINE
  5
36A
100
AcDbEntity
  8
RACCORDO
100
AcDbLine
 62
7
  6
CONTINUOUS
 10
-28.6644550902
 20
-4.2368573385
 11
-28.6647601403
 21
-4.4534524827
  0
LINE
  5
36B
100
AcDbEntity
  8
RACCORDO
100
AcDbLine
 62
7
  6
CONTINUOUS
 10
-28.6644550902
 20
-9.2368573385
 11
-28.6647601403
 21
-9.4534524826
  0
LINE
  5
36C
100
AcDbEntity
  8
RACCORDO
100
AcDbLine
 62
7
  6
CONTINUOUS
 10
-28.6644946455
 20
-14.273386736
 11
-28.6648271188
 21
-14.4888655241
  0
LINE
  5
36D
100
AcDbEntity
  8
ASSI
100
AcDbLine
 62
7
  6
CONTINUOUS
 10
-28.6644935131
 20
-14.2723960022
 11
-28.6648373497
 21
-14.4940508808
  0
LINE
  5
36E
100
AcDbEntity
  8
ASSI
100
AcDbLine
 62
7
  6
CONTINUOUS
 10
-28.6645386788
 20
0.6901738086
 11
-28.6649117165
 21
0.4697930946
  0
LINE
  5
36F
100
AcDbEntity
  8
ASSI
100
AcDbLine
 62
7
  6
CONTINUOUS
 10
-28.6645386788
 20
-4.3098261914
 11
-28.6649117165
 21
-4.5302069054
  0
LINE
  5
370
100
AcDbEntity
  8
ASSI
100
AcDbLine
 62
7
  6
CONTINUOUS
 10
-28.6645386788
 20
-9.3098261914
 11
-28.6649117165
 21
-9.5302069054
  0
LINE
  5
371
100
AcDbEntity
  8
RACCORDO
100
AcDbLine
 62
7
  6
CONTINUOUS
 10
-28.6647601403
 20
0.5465475174
 11
-28.6652283318
 21
0.3378203263
  0
LINE
  5
372
100
AcDbEntity
  8
RACCORDO
100
AcDbLine
 62
7
  6
CONTINUOUS
 10
-28.6647601403
 20
-4.4534524827
 11
-28.6652283318
 21
-4.6621796737
  0
LINE
  5
373
100
AcDbEntity
  8
RACCORDO
100
AcDbLine
 62
7
  6
CONTINUOUS
 10
-28.6647601403
 20
-9.4534524826
 11
-28.6652283318
 21
-9.6621796737
  0
LINE
  5
374
100
AcDbEntity
  8
RACCORDO
100
AcDbLine
 62
7
  6
CONTINUOUS
 10
-28.6648271188
 20
-14.4888655241
 11
-28.665320827
 21
-14.6960169546
  0
LINE
  5
375
100
AcDbEntity
  8
ASSI
100
AcDbLine
 62
7
  6
CONTINUOUS
 10
-28.6648373497
 20
-14.4940508808
 11
-28.6653513493
 21
-14.7068341541
  0
LINE
  5
376
100
AcDbEntity
  8
ASSI
100
AcDbLine
 62
7
  6
CONTINUOUS
 10
-28.6649117165
 20
0.4697930946
 11
-28.6654514344
 21
0.258765134
  0
LINE
  5
377
100
AcDbEntity
  8
ASSI
100
AcDbLine
 62
7
  6
CONTINUOUS
 10
-28.6649117165
 20
-4.5302069054
 11
-28.6654514344
 21
-4.741234866
  0
LINE
  5
378
100
AcDbEntity
  8
ASSI
100
AcDbLine
 62
7
  6
CONTINUOUS
 10
-28.6649117165
 20
-9.5302069054
 11
-28.6654514344
 21
-9.741234866
  0
LINE
  5
379
100
AcDbEntity
  8
RACCORDO
100
AcDbLine
 62
7
  6
CONTINUOUS
 10
-28.6652283318
 20
0.3378203263
 11
-28.6658350035
 21
0.1394884621
  0
LINE
  5
37A
100
AcDbEntity
  8
RACCORDO
100
AcDbLine
 62
7
  6
CONTINUOUS
 10
-28.6652283318
 20
-4.6621796737
 11
-28.6658350035
 21
-4.8605115379
  0
LINE
  5
37B
100
AcDbEntity
  8
RACCORDO
100
AcDbLine
 62
7
  6
CONTINUOUS
 10
-28.6652283318
 20
-9.6621796737
 11
-28.6658350035
 21
-9.8605115379
  0
LINE
  5
37C
100
AcDbEntity
  8
RACCORDO
100
AcDbLine
 62
7
  6
CONTINUOUS
 10
-28.665320827
 20
-14.6960169546
 11
-28.6659481412
 21
-14.89244578
  0
LINE
  5
37D
100
AcDbEntity
  8
ASSI
100
AcDbLine
 62
7
  6
CONTINUOUS
 10
-28.6653513493
 20
-14.7068341541
 11
-28.6660057872
 21
-14.9082259169
  0
LINE
  5
37E
100
AcDbEntity
  8
ASSI
100
AcDbLine
 62
7
  6
CONTINUOUS
 10
-28.6654514344
 20
0.258765134
 11
-28.6661277381
 21
0.0594029081
  0
LINE
  5
37F
100
AcDbEntity
  8
ASSI
100
AcDbLine
 62
7
  6
CONTINUOUS
 10
-28.6654514344
 20
-4.741234866
 11
-28.6661277381
 21
-4.9405970919
  0
LINE
  5
380
100
AcDbEntity
  8
ASSI
100
AcDbLine
 62
7
  6
CONTINUOUS
 10
-28.6654514344
 20
-9.741234866
 11
-28.6661277381
 21
-9.9405970919
  0
LINE
  5
381
100
AcDbEntity
  8
RACCORDO
100
AcDbLine
 62
7
  6
CONTINUOUS
 10
-28.6658350035
 20
0.1394884621
 11
-28.6665658672
 21
-0.0471830383
  0
LINE
  5
382
100
AcDbEntity
  8
RACCORDO
100
AcDbLine
 62
7
  6
CONTINUOUS
 10
-28.6658350035
 20
-4.8605115379
 11
-28.6665658672
 21
-5.0471830383
  0
LINE
  5
383
100
AcDbEntity
  8
RACCORDO
100
AcDbLine
 62
7
  6
CONTINUOUS
 10
-28.6658350035
 20
-9.8605115379
 11
-28.6665658672
 21
-10.0471830383
  0
LINE
  5
384
100
AcDbEntity
  8
ASSI
100
AcDbLine
 62
7
  6
CONTINUOUS
 10
-28.6660057872
 20
-14.9082259169
 11
-28.6665155145
 21
-15.0356125388
  0
LINE
  5
385
100
AcDbEntity
  8
RACCORDO
100
AcDbLine
 62
7
  6
CONTINUOUS
 10
-28.6659481412
 20
-14.89244578
 11
-28.6666994081
 21
-15.0771281316
  0
LINE
  5
386
100
AcDbEntity
  8
ASSI
100
AcDbLine
 62
7
  6
CONTINUOUS
 10
-28.6661277381
 20
0.0594029081
 11
-28.6669343524
 21
-0.1274416794
  0
LINE
  5
387
100
AcDbEntity
  8
ASSI
100
AcDbLine
 62
7
  6
CONTINUOUS
 10
-28.6661277381
 20
-4.9405970919
 11
-28.6669343524
 21
-5.1274416794
  0
LINE
  5
388
100
AcDbEntity
  8
ASSI
100
AcDbLine
 62
7
  6
CONTINUOUS
 10
-28.6661277381
 20
-9.9405970919
 11
-28.6669343524
 21
-10.1274416794
  0
LINE
  5
389
100
AcDbEntity
  8
RACCORDO
100
AcDbLine
 62
7
  6
CONTINUOUS
 10
-28.6666994081
 20
-15.0771281316
 11
-28.6669756787
 21
-15.1360075461
  0
LINE
  5
38A
100
AcDbEntity
  8
RACCORDO
100
AcDbLine
 62
7
  6
CONTINUOUS
 10
-28.6665658672
 20
-0.0471830383
 11
-28.6674107097
 21
-0.2217695462
  0
LINE
  5
38B
100
AcDbEntity
  8
RACCORDO
100
AcDbLine
 62
7
  6
CONTINUOUS
 10
-28.6665658672
 20
-5.0471830383
 11
-28.6674107097
 21
-5.2217695462
  0
LINE
  5
38C
100
AcDbEntity
  8
RACCORDO
100
AcDbLine
 62
7
  6
CONTINUOUS
 10
-28.6665658672
 20
-10.0471830383
 11
-28.6674107097
 21
-10.2217695462
  0
LINE
  5
38D
100
AcDbEntity
  8
ASSI
100
AcDbLine
 62
7
  6
CONTINUOUS
 10
-28.6665155145
 20
-15.0356125388
 11
-28.6673804385
 21
-15.2160383039
  0
LINE
  5
38E
100
AcDbEntity
  8
ASSI
100
AcDbLine
 62
7
  6
CONTINUOUS
 10
-28.6669343524
 20
-0.1274416794
 11
-28.6678497895
 21
-0.3013640134
  0
LINE
  5
38F
100
AcDbEntity
  8
ASSI
100
AcDbLine
 62
7
  6
CONTINUOUS
 10
-28.6669343524
 20
-5.1274416794
 11
-28.6678497895
 21
-5.3013640134
  0
LINE
  5
390
100
AcDbEntity
  8
ASSI
100
AcDbLine
 62
7
  6
CONTINUOUS
 10
-28.6669343524
 20
-10.1274416794
 11
-28.6678497895
 21
-10.3013640134
  0
LINE
  5
391
100
AcDbEntity
  8
RACCORDO
100
AcDbLine
 62
7
  6
CONTINUOUS
 10
-28.6669756787
 20
-15.1360075461
 11
-28.6680246355
 21
-15.3313004938
  0
LINE
  5
392
100
AcDbEntity
  8
RACCORDO
100
AcDbLine
 62
7
  6
CONTINUOUS
 10
-28.6674107097
 20
-0.2217695462
 11
-28.6683464965
 21
-0.3839920361
  0
LINE
  5
393
100
AcDbEntity
  8
RACCORDO
100
AcDbLine
 62
7
  6
CONTINUOUS
 10
-28.6674107097
 20
-5.2217695462
 11
-28.6683464965
 21
-5.3839920361
  0
LINE
  5
394
100
AcDbEntity
  8
RACCORDO
100
AcDbLine
 62
7
  6
CONTINUOUS
 10
-28.6674107097
 20
-10.2217695462
 11
-28.6683464965
 21
-10.3839920361
  0
LINE
  5
395
100
AcDbEntity
  8
ASSI
100
AcDbLine
 62
7
  6
CONTINUOUS
 10
-28.6673804385
 20
-15.2160383039
 11
-28.6683427538
 21
-15.3833964821
  0
LINE
  5
396
100
AcDbEntity
  8
ASSI
100
AcDbLine
 62
7
  6
CONTINUOUS
 10
-28.6678497895
 20
-0.3013640134
 11
-28.6688595636
 21
-0.4621258452
  0
LINE
  5
397
100
AcDbEntity
  8
ASSI
100
AcDbLine
 62
7
  6
CONTINUOUS
 10
-28.6678497895
 20
-5.3013640134
 11
-28.6688595636
 21
-5.4621258452
  0
LINE
  5
398
100
AcDbEntity
  8
ASSI
100
AcDbLine
 62
7
  6
CONTINUOUS
 10
-28.6678497895
 20
-10.3013640134
 11
-28.6688595636
 21
-10.4621258452
  0
LINE
  5
399
100
AcDbEntity
  8
RACCORDO
100
AcDbLine
 62
7
  6
CONTINUOUS
 10
-28.6680246355
 20
-15.3313004938
 11
-28.6690198855
 21
-15.4852123692
  0
LINE
  5
39A
100
AcDbEntity
  8
RACCORDO
100
AcDbLine
 62
7
  6
CONTINUOUS
 10
-28.6683464965
 20
-0.3839920361
 11
-28.6693705746
 21
-0.5337424885
  0
LINE
  5
39B
100
AcDbEntity
  8
RACCORDO
100
AcDbLine
 62
7
  6
CONTINUOUS
 10
-28.6683464965
 20
-5.3839920361
 11
-28.6693705746
 21
-5.5337424885
  0
LINE
  5
39C
100
AcDbEntity
  8
RACCORDO
100
AcDbLine
 62
7
  6
CONTINUOUS
 10
-28.6683464965
 20
-10.3839920361
 11
-28.6693705746
 21
-10.5337424885
  0
LINE
  5
39D
100
AcDbEntity
  8
ASSI
100
AcDbLine
 62
7
  6
CONTINUOUS
 10
-28.6683427538
 20
-15.3833964821
 11
-28.6693988658
 21
-15.5375466313
  0
LINE
  5
39E
100
AcDbEntity
  8
ASSI
100
AcDbLine
 62
7
  6
CONTINUOUS
 10
-28.6688595636
 20
-0.4621258452
 11
-28.669957901
 21
-0.6096571046
  0
LINE
  5
39F
100
AcDbEntity
  8
ASSI
100
AcDbLine
 62
7
  6
CONTINUOUS
 10
-28.6688595636
 20
-5.4621258452
 11
-28.669957901
 21
-5.6096571046
  0
LINE
  5
3A0
100
AcDbEntity
  8
ASSI
100
AcDbLine
 62
7
  6
CONTINUOUS
 10
-28.6688595636
 20
-10.4621258452
 11
-28.669957901
 21
-10.6096571046
  0
LINE
  5
3A1
100
AcDbEntity
  8
RACCORDO
100
AcDbLine
 62
7
  6
CONTINUOUS
 10
-28.6690198855
 20
-15.4852123692
 11
-28.6700959557
 21
-15.6266381139
  0
LINE
  5
3A2
100
AcDbEntity
  8
RACCORDO
100
AcDbLine
 62
7
  6
CONTINUOUS
 10
-28.6693705746
 20
-0.5337424885
 11
-28.6704686175
 21
-0.6710048964
  0
LINE
  5
3A3
100
AcDbEntity
  8
RACCORDO
100
AcDbLine
 62
7
  6
CONTINUOUS
 10
-28.6693705746
 20
-5.5337424885
 11
-28.6704686175
 21
-5.6710048964
  0
LINE
  5
3A4
100
AcDbEntity
  8
RACCORDO
100
AcDbLine
 62
7
  6
CONTINUOUS
 10
-28.6693705746
 20
-10.5337424885
 11
-28.6704686175
 21
-10.6710048964
  0
LINE
  5
3A5
100
AcDbEntity
  8
ASSI
100
AcDbLine
 62
7
  6
CONTINUOUS
 10
-28.6693988658
 20
-15.5375466313
 11
-28.6705329846
 21
-15.6784549661
  0
LINE
  5
3A6
100
AcDbEntity
  8
ASSI
100
AcDbLine
 62
7
  6
CONTINUOUS
 10
-28.669957901
 20
-0.6096571046
 11
-28.6711233524
 21
-0.7439442502
  0
LINE
  5
3A7
100
AcDbEntity
  8
ASSI
100
AcDbLine
 62
7
  6
CONTINUOUS
 10
-28.669957901
 20
-5.6096571046
 11
-28.6711233524
 21
-5.7439442502
  0
LINE
  5
3A8
100
AcDbEntity
  8
ASSI
100
AcDbLine
 62
7
  6
CONTINUOUS
 10
-28.669957901
 20
-10.6096571046
 11
-28.6711233524
 21
-10.7439442502
  0
LINE
  5
3A9
100
AcDbEntity
  8
RACCORDO
100
AcDbLine
 62
7
  6
CONTINUOUS
 10
-28.6700959557
 20
-15.6266381139
 11
-28.6712332217
 21
-15.7555826947
  0
LINE
  5
3AA
100
AcDbEntity
  8
RACCORDO
100
AcDbLine
 62
7
  6
CONTINUOUS
 10
-28.6704686175
 20
-0.6710048964
 11
-28.6716255775
 21
-0.7958065082
  0
LINE
  5
3AB
100
AcDbEntity
  8
RACCORDO
100
AcDbLine
 62
7
  6
CONTINUOUS
 10
-28.6704686175
 20
-5.6710048964
 11
-28.6716255775
 21
-5.7958065082
  0
LINE
  5
3AC
100
AcDbEntity
  8
RACCORDO
100
AcDbLine
 62
7
  6
CONTINUOUS
 10
-28.6704686175
 20
-10.6710048964
 11
-28.6716255775
 21
-10.7958065082
  0
LINE
  5
3AD
100
AcDbEntity
  8
ASSI
100
AcDbLine
 62
7
  6
CONTINUOUS
 10
-28.6705329846
 20
-15.6784549661
 11
-28.6717297222
 21
-15.8061428829
  0
LINE
  5
3AE
100
AcDbEntity
  8
0
100
AcDbLine
 62
253
  6
CONTINUOUS
 10
-27.8771545703
 20
10.4587100932
 11
-27.8727827363
 21
10.8925625123
  0
LINE
  5
3AF
100
AcDbEntity
  8
0
100
AcDbLine
 62
253
  6
CONTINUOUS
 10
-27.6278775682
 20
10.1708746758
 11
-27.6227869671
 21
10.6760561614
  0
LINE
  5
3B0
100
AcDbEntity
  8
ASSI
100
AcDbLine
 62
7
  6
CONTINUOUS
 10
-28.6711233524
 20
-0.7439442502
 11
-28.6723515948
 21
-0.8650707287
  0
LINE
  5
3B1
100
AcDbEntity
  8
ASSI
100
AcDbLine
 62
7
  6
CONTINUOUS
 10
-28.6711233524
 20
-5.7439442502
 11
-28.6723515948
 21
-5.8650707287
  0
LINE
  5
3B2
100
AcDbEntity
  8
ASSI
100
AcDbLine
 62
7
  6
CONTINUOUS
 10
-28.6711233524
 20
-10.7439442502
 11
-28.6723515948
 21
-10.8650707287
  0
LINE
  5
3B3
100
AcDbEntity
  8
RACCORDO
100
AcDbLine
 62
7
  6
CONTINUOUS
 10
-28.6712332217
 20
-15.7555826947
 11
-28.6724296827
 21
-15.8721477282
  0
LINE
  5
3B4
100
AcDbEntity
  8
RACCORDO
100
AcDbLine
 62
7
  6
CONTINUOUS
 10
-28.6716255775
 20
-0.7958065082
 11
-28.6728405733
 21
-0.9082784246
  0
LINE
  5
3B5
100
AcDbEntity
  8
RACCORDO
100
AcDbLine
 62
7
  6
CONTINUOUS
 10
-28.6716255775
 20
-5.7958065082
 11
-28.6728405733
 21
-5.9082784246
  0
LINE
  5
3B6
100
AcDbEntity
  8
RACCORDO
100
AcDbLine
 62
7
  6
CONTINUOUS
 10
-28.6716255775
 20
-10.7958065082
 11
-28.6728405733
 21
-10.9082784246
  0
LINE
  5
3B7
100
AcDbEntity
  8
ASSI
100
AcDbLine
 62
7
  6
CONTINUOUS
 10
-28.6717297222
 20
-15.8061428829
 11
-28.672987305
 21
-15.9207473326
  0
LINE
  5
3B8
100
AcDbEntity
  8
ASSI
100
AcDbLine
 62
7
  6
CONTINUOUS
 10
-28.6723515948
 20
-0.8650707287
 11
-28.6736340897
 21
-0.9731878188
  0
LINE
  5
3B9
100
AcDbEntity
  8
ASSI
100
AcDbLine
 62
7
  6
CONTINUOUS
 10
-28.6723515948
 20
-5.8650707287
 11
-28.6736340897
 21
-5.9731878188
  0
LINE
  5
3BA
100
AcDbEntity
  8
ASSI
100
AcDbLine
 62
7
  6
CONTINUOUS
 10
-28.6723515948
 20
-10.8650707287
 11
-28.6736340897
 21
-10.9731878188
  0
LINE
  5
3BB
100
AcDbEntity
  8
RACCORDO
100
AcDbLine
 62
7
  6
CONTINUOUS
 10
-28.6724296827
 20
-15.8721477282
 11
-28.6736763859
 21
-15.9764812711
  0
LINE
  5
3BC
100
AcDbEntity
  8
RACCORDO
100
AcDbLine
 62
7
  6
CONTINUOUS
 10
-28.6728405733
 20
-0.9082784246
 11
-28.674099476
 21
-1.0085410148
  0
LINE
  5
3BD
100
AcDbEntity
  8
RACCORDO
100
AcDbLine
 62
7
  6
CONTINUOUS
 10
-28.6728405733
 20
-5.9082784246
 11
-28.674099476
 21
-6.0085410148
  0
LINE
  5
3BE
100
AcDbEntity
  8
RACCORDO
100
AcDbLine
 62
7
  6
CONTINUOUS
 10
-28.6728405733
 20
-10.9082784246
 11
-28.674099476
 21
-11.0085410148
  0
LINE
  5
3BF
100
AcDbEntity
  8
ASSI
100
AcDbLine
 62
7
  6
CONTINUOUS
 10
-28.672987305
 20
-15.9207473326
 11
-28.6742888675
 21
-16.0223725633
  0
LINE
  5
3C0
100
AcDbEntity
  8
ASSI
100
AcDbLine
 62
7
  6
CONTINUOUS
 10
-28.6736340897
 20
-0.9731878188
 11
-28.6749510647
 21
-1.0682473328
  0
LINE
  5
3C1
100
AcDbEntity
  8
ASSI
100
AcDbLine
 62
7
  6
CONTINUOUS
 10
-28.6736340897
 20
-5.9731878188
 11
-28.6749510647
 21
-6.0682473328
  0
LINE
  5
3C2
100
AcDbEntity
  8
ASSI
100
AcDbLine
 62
7
  6
CONTINUOUS
 10
-28.6736340897
 20
-10.9731878188
 11
-28.6749510647
 21
-11.0682473328
  0
LINE
  5
3C3
100
AcDbEntity
  8
RACCORDO
100
AcDbLine
 62
7
  6
CONTINUOUS
 10
-28.6736763859
 20
-15.9764812711
 11
-28.6749551151
 21
-16.0685162214
  0
LINE
  5
3C4
100
AcDbEntity
  8
RACCORDO
100
AcDbLine
 62
7
  6
CONTINUOUS
 10
-28.674099476
 20
-1.0085410148
 11
-28.6753872578
 21
-1.09640728
  0
LINE
  5
3C5
100
AcDbEntity
  8
RACCORDO
100
AcDbLine
 62
7
  6
CONTINUOUS
 10
-28.674099476
 20
-6.0085410148
 11
-28.6753872578
 21
-6.09640728
  0
LINE
  5
3C6
100
AcDbEntity
  8
RACCORDO
100
AcDbLine
 62
7
  6
CONTINUOUS
 10
-28.674099476
 20
-11.0085410148
 11
-28.6753872578
 21
-11.09640728
  0
LINE
  5
3C7
100
AcDbEntity
  8
ASSI
100
AcDbLine
 62
7
  6
CONTINUOUS
 10
-28.6742888675
 20
-16.0223725633
 11
-28.675396326
 21
-16.096975843
  0
LINE
  5
3C8
100
AcDbEntity
  8
ASSI
100
AcDbLine
 62
7
  6
CONTINUOUS
 10
-28.6749510647
 20
-1.0682473328
 11
-28.6760685459
 21
-1.13727183
  0
LINE
  5
3C9
100
AcDbEntity
  8
ASSI
100
AcDbLine
 62
7
  6
CONTINUOUS
 10
-28.6749510647
 20
-6.0682473328
 11
-28.6760685459
 21
-6.13727183
  0
LINE
  5
3CA
100
AcDbEntity
  8
ASSI
100
AcDbLine
 62
7
  6
CONTINUOUS
 10
-28.6749510647
 20
-11.0682473328
 11
-28.6760685459
 21
-11.13727183
  0
LINE
  5
3CB
100
AcDbEntity
  8
RACCORDO
100
AcDbLine
 62
7
  6
CONTINUOUS
 10
-28.6749551151
 20
-16.0685162214
 11
-28.6762578728
 21
-16.1479797338
  0
LINE
  5
3CC
100
AcDbEntity
  8
RACCORDO
100
AcDbLine
 62
7
  6
CONTINUOUS
 10
-28.6753872578
 20
-1.09640728
 11
-28.6764762555
 21
-1.1599933023
  0
LINE
  5
3CD
100
AcDbEntity
  8
RACCORDO
100
AcDbLine
 62
7
  6
CONTINUOUS
 10
-28.6753872578
 20
-6.09640728
 11
-28.6764762555
 21
-6.1599933023
  0
LINE
  5
3CE
100
AcDbEntity
  8
RACCORDO
100
AcDbLine
 62
7
  6
CONTINUOUS
 10
-28.6753872578
 20
-11.09640728
 11
-28.6764762555
 21
-11.1599933023
  0
LINE
  5
3CF
100
AcDbEntity
  8
ASSI
100
AcDbLine
 62
7
  6
CONTINUOUS
 10
-28.675396326
 20
-16.096975843
 11
-28.6765184044
 21
-16.1622709721
  0
LINE
  5
3D0
100
AcDbEntity
  8
ASSI
100
AcDbLine
 62
7
  6
CONTINUOUS
 10
-28.6760685459
 20
-1.13727183
 11
-28.6771930334
 21
-1.1969776211
  0
LINE
  5
3D1
100
AcDbEntity
  8
ASSI
100
AcDbLine
 62
7
  6
CONTINUOUS
 10
-28.6760685459
 20
-6.13727183
 11
-28.6771930334
 21
-6.1969776211
  0
LINE
  5
3D2
100
AcDbEntity
  8
ASSI
100
AcDbLine
 62
7
  6
CONTINUOUS
 10
-28.6760685459
 20
-11.13727183
 11
-28.6771930334
 21
-11.1969776211
  0
LINE
  5
3D3
100
AcDbEntity
  8
RACCORDO
100
AcDbLine
 62
7
  6
CONTINUOUS
 10
-28.6762578728
 20
-16.1479797338
 11
-28.677348992
 21
-16.2045460706
  0
LINE
  5
3D4
100
AcDbEntity
  8
RACCORDO
100
AcDbLine
 62
7
  6
CONTINUOUS
 10
-28.6764762555
 20
-1.1599933023
 11
-28.6776557067
 21
-1.2189131072
  0
LINE
  5
3D5
100
AcDbEntity
  8
RACCORDO
100
AcDbLine
 62
7
  6
CONTINUOUS
 10
-28.6764762555
 20
-6.1599933023
 11
-28.6776557067
 21
-6.2189131072
  0
LINE
  5
3D6
100
AcDbEntity
  8
RACCORDO
100
AcDbLine
 62
7
  6
CONTINUOUS
 10
-28.6764762555
 20
-11.1599933023
 11
-28.6776557067
 21
-11.2189131072
  0
LINE
  5
3D7
100
AcDbEntity
  8
RACCORDO
100
AcDbLine
 62
7
  6
CONTINUOUS
 10
-28.677348992
 20
-16.2045460706
 11
-28.6776557067
 21
-16.2189131072
  0
LINE
  5
3D8
100
AcDbEntity
  8
ASSI
100
AcDbLine
 62
7
  6
CONTINUOUS
 10
-28.6771930334
 20
-1.1969776211
 11
-28.6776550879
 21
-1.2189123442
  0
LINE
  5
3D9
100
AcDbEntity
  8
ASSI
100
AcDbLine
 62
7
  6
CONTINUOUS
 10
-28.6771930334
 20
-6.1969776211
 11
-28.6776550879
 21
-6.2189123442
  0
LINE
  5
3DA
100
AcDbEntity
  8
ASSI
100
AcDbLine
 62
7
  6
CONTINUOUS
 10
-28.6771930334
 20
-11.1969776211
 11
-28.6776550879
 21
-11.2189123442
  0
LINE
  5
3DB
100
AcDbEntity
  8
ASSI
100
AcDbLine
 62
7
  6
CONTINUOUS
 10
-28.6765184044
 20
-16.1622709721
 11
-28.6776550879
 21
-16.2189123442
  0
LWPOLYLINE
  5
3DC
100
AcDbEntity
  8
RACCORDO
100
AcDbPolyline
 62
253
  6
CONTINUOUS
 90
43
 70
0
 10
-28.3812054144
 20
-1.0539379152
 10
-28.3797525368
 20
-1.0171182362
 10
-28.378324106
 20
-0.9702072324
 10
-28.376940326
 20
-0.9134757903
 10
-28.3756020921
 20
-0.8472549656
 10
-28.3743085089
 20
-0.7719038413
 10
-28.3730770945
 20
-0.6877820694
 10
-28.3719087377
 20
-0.5953266445
 10
-28.3708025496
 20
-0.4950067952
 10
-28.3697733821
 20
-0.3872582211
 10
-28.3688221794
 20
-0.2726099054
 10
-28.3679479973
 20
-0.1516212601
 10
-28.3671628545
 20
-0.0247949115
 10
-28.366467757
 20
0.1072868149
 10
-28.3658616989
 20
0.2439674863
 10
-28.3653536803
 20
0.3846077854
 10
-28.3649450707
 20
0.5285428225
 10
-28.3646345007
 20
0.6750677924
 10
-28.3644268623
 20
0.8234581567
 10
-28.3643237901
 20
0.9730269027
 10
-28.3643236496
 20
1.1230156689
 10
-28.3644264293
 20
1.2725819021
 10
-28.3646337553
 20
1.4209658081
 10
-28.3649440014
 20
1.5674822106
 10
-28.3653522777
 20
1.7114114431
 10
-28.3658599439
 20
1.8520492176
 10
-28.3664656402
 20
1.9887303865
 10
-28.3671603973
 20
2.1208188049
 10
-28.367945214
 20
2.2476576706
 10
-28.3688190916
 20
2.3686642988
 10
-28.3697700644
 20
2.483338337
 10
-28.3707990897
 20
2.5911203756
 10
-28.3719052102
 20
2.6914787835
 10
-28.3730735895
 20
2.7839756599
 10
-28.3743051253
 20
2.8681405215
 10
-28.3755989198
 20
2.9435347398
 10
-28.3769374428
 20
3.0097963214
 10
-28.3783216028
 20
3.0665652098
 10
-28.3797504914
 20
3.1135088449
 10
-28.3812038534
 20
3.1503543377
 10
-28.3826749371
 20
3.1768698944
 10
-28.3841704943
 20
3.1928707259
 10
-28.3856905248
 20
3.198224945
  0
LWPOLYLINE
  5
3DD
100
AcDbEntity
  8
ASSI
100
AcDbPolyline
 62
253
  6
CONTINUOUS
 90
43
 70
0
 10
-28.3812054144
 20
-1.0539379152
 10
-28.3797525368
 20
-1.0171182362
 10
-28.378324106
 20
-0.9702072324
 10
-28.376940326
 20
-0.9134757903
 10
-28.3756020921
 20
-0.8472549656
 10
-28.3743085089
 20
-0.7719038413
 10
-28.3730770945
 20
-0.6877820694
 10
-28.3719087377
 20
-0.5953266445
 10
-28.3708025496
 20
-0.4950067952
 10
-28.3697733821
 20
-0.3872582211
 10
-28.3688221794
 20
-0.2726099054
 10
-28.3679479973
 20
-0.1516212601
 10
-28.3671628545
 20
-0.0247949115
 10
-28.366467757
 20
0.1072868149
 10
-28.3658616989
 20
0.2439674863
 10
-28.3653536803
 20
0.3846077854
 10
-28.3649450707
 20
0.5285428225
 10
-28.3646345007
 20
0.6750677924
 10
-28.3644268623
 20
0.8234581567
 10
-28.3643237901
 20
0.9730269027
 10
-28.3643236496
 20
1.1230156689
 10
-28.3644264293
 20
1.2725819021
 10
-28.3646337553
 20
1.4209658081
 10
-28.3649440014
 20
1.5674822106
 10
-28.3653522777
 20
1.7114114431
 10
-28.3658599439
 20
1.8520492176
 10
-28.3664656402
 20
1.9887303865
 10
-28.3671603973
 20
2.1208188049
 10
-28.367945214
 20
2.2476576706
 10
-28.3688190916
 20
2.3686642988
 10
-28.3697700644
 20
2.483338337
 10
-28.3707990897
 20
2.5911203756
 10
-28.3719052102
 20
2.6914787835
 10
-28.3730735895
 20
2.7839756599
 10
-28.3743051253
 20
2.8681405215
 10
-28.3755989198
 20
2.9435347398
 10
-28.3769374428
 20
3.0097963214
 10
-28.3783216028
 20
3.0665652098
 10
-28.3797504914
 20
3.1135088449
 10
-28.3812038534
 20
3.1503543377
 10
-28.3826749371
 20
3.1768698944
 10
-28.3841704943
 20
3.1928707259
 10
-28.3856905248
 20
3.198224945
  0
LWPOLYLINE
  5
3DE
100
AcDbEntity
  8
RACCORDO
100
AcDbPolyline
 62
253
  6
CONTINUOUS
 90
43
 70
0
 10
-28.3812054144
 20
-6.0539379152
 10
-28.3797525368
 20
-6.0171182362
 10
-28.378324106
 20
-5.9702072324
 10
-28.376940326
 20
-5.9134757903
 10
-28.3756020921
 20
-5.8472549656
 10
-28.3743085089
 20
-5.7719038413
 10
-28.3730770945
 20
-5.6877820694
 10
-28.3719087377
 20
-5.5953266445
 10
-28.3708025496
 20
-5.4950067952
 10
-28.3697733821
 20
-5.3872582211
 10
-28.3688221794
 20
-5.2726099054
 10
-28.3679479973
 20
-5.1516212601
 10
-28.3671628545
 20
-5.0247949115
 10
-28.366467757
 20
-4.8927131851
 10
-28.3658616989
 20
-4.7560325137
 10
-28.3653536803
 20
-4.6153922146
 10
-28.3649450707
 20
-4.4714571775
 10
-28.3646345007
 20
-4.3249322076
 10
-28.3644268623
 20
-4.1765418433
 10
-28.3643237901
 20
-4.0269730973
 10
-28.3643236496
 20
-3.8769843311
 10
-28.3644264293
 20
-3.7274180979
 10
-28.3646337553
 20
-3.5790341919
 10
-28.3649440014
 20
-3.4325177894
 10
-28.3653522777
 20
-3.2885885569
 10
-28.3658599439
 20
-3.1479507824
 10
-28.3664656402
 20
-3.0112696135
 10
-28.3671603973
 20
-2.8791811951
 10
-28.367945214
 20
-2.7523423294
 10
-28.3688190916
 20
-2.6313357012
 10
-28.3697700644
 20
-2.516661663
 10
-28.3707990897
 20
-2.4088796244
 10
-28.3719052102
 20
-2.3085212165
 10
-28.3730735895
 20
-2.2160243401
 10
-28.3743051253
 20
-2.1318594785
 10
-28.3755989198
 20
-2.0564652602
 10
-28.3769374428
 20
-1.9902036786
 10
-28.3783216028
 20
-1.9334347902
 10
-28.3797504914
 20
-1.8864911551
 10
-28.3812038534
 20
-1.8496456623
 10
-28.3826749371
 20
-1.8231301056
 10
-28.3841704943
 20
-1.8071292741
 10
-28.3856905248
 20
-1.801775055
  0
LWPOLYLINE
  5
3DF
100
AcDbEntity
  8
ASSI
100
AcDbPolyline
 62
253
  6
CONTINUOUS
 90
43
 70
0
 10
-28.3812054144
 20
-6.0539379152
 10
-28.3797525368
 20
-6.0171182362
 10
-28.378324106
 20
-5.9702072324
 10
-28.376940326
 20
-5.9134757903
 10
-28.3756020921
 20
-5.8472549656
 10
-28.3743085089
 20
-5.7719038413
 10
-28.3730770945
 20
-5.6877820694
 10
-28.3719087377
 20
-5.5953266445
 10
-28.3708025496
 20
-5.4950067952
 10
-28.3697733821
 20
-5.3872582211
 10
-28.3688221794
 20
-5.2726099054
 10
-28.3679479973
 20
-5.1516212601
 10
-28.3671628545
 20
-5.0247949115
 10
-28.366467757
 20
-4.8927131851
 10
-28.3658616989
 20
-4.7560325137
 10
-28.3653536803
 20
-4.6153922146
 10
-28.3649450707
 20
-4.4714571775
 10
-28.3646345007
 20
-4.3249322076
 10
-28.3644268623
 20
-4.1765418433
 10
-28.3643237901
 20
-4.0269730973
 10
-28.3643236496
 20
-3.8769843311
 10
-28.3644264293
 20
-3.7274180979
 10
-28.3646337553
 20
-3.5790341919
 10
-28.3649440014
 20
-3.4325177894
 10
-28.3653522777
 20
-3.2885885569
 10
-28.3658599439
 20
-3.1479507824
 10
-28.3664656402
 20
-3.0112696135
 10
-28.3671603973
 20
-2.8791811951
 10
-28.367945214
 20
-2.7523423294
 10
-28.3688190916
 20
-2.6313357012
 10
-28.3697700644
 20
-2.516661663
 10
-28.3707990897
 20
-2.4088796244
 10
-28.3719052102
 20
-2.3085212165
 10
-28.3730735895
 20
-2.2160243401
 10
-28.3743051253
 20
-2.1318594785
 10
-28.3755989198
 20
-2.0564652602
 10
-28.3769374428
 20
-1.9902036786
 10
-28.3783216028
 20
-1.9334347902
 10
-28.3797504914
 20
-1.8864911551
 10
-28.3812038534
 20
-1.8496456623
 10
-28.3826749371
 20
-1.8231301056
 10
-28.3841704943
 20
-1.8071292741
 10
-28.3856905248
 20
-1.801775055
  0
LWPOLYLINE
  5
3E0
100
AcDbEntity
  8
RACCORDO
100
AcDbPolyline
 62
253
  6
CONTINUOUS
 90
43
 70
0
 10
-28.3812054144
 20
-11.0539379152
 10
-28.3797525368
 20
-11.0171182362
 10
-28.378324106
 20
-10.9702072324
 10
-28.376940326
 20
-10.9134757903
 10
-28.3756020921
 20
-10.8472549656
 10
-28.3743085089
 20
-10.7719038413
 10
-28.3730770945
 20
-10.6877820694
 10
-28.3719087377
 20
-10.5953266445
 10
-28.3708025496
 20
-10.4950067952
 10
-28.3697733821
 20
-10.3872582211
 10
-28.3688221794
 20
-10.2726099054
 10
-28.3679479973
 20
-10.1516212601
 10
-28.3671628545
 20
-10.0247949115
 10
-28.366467757
 20
-9.8927131851
 10
-28.3658616989
 20
-9.7560325137
 10
-28.3653536803
 20
-9.6153922146
 10
-28.3649450707
 20
-9.4714571775
 10
-28.3646345007
 20
-9.3249322076
 10
-28.3644268623
 20
-9.1765418433
 10
-28.3643237901
 20
-9.0269730973
 10
-28.3643236496
 20
-8.8769843311
 10
-28.3644264293
 20
-8.7274180979
 10
-28.3646337553
 20
-8.5790341919
 10
-28.3649440014
 20
-8.4325177894
 10
-28.3653522777
 20
-8.2885885569
 10
-28.3658599439
 20
-8.1479507824
 10
-28.3664656402
 20
-8.0112696135
 10
-28.3671603973
 20
-7.8791811951
 10
-28.367945214
 20
-7.7523423294
 10
-28.3688190916
 20
-7.6313357012
 10
-28.3697700644
 20
-7.516661663
 10
-28.3707990897
 20
-7.4088796244
 10
-28.3719052102
 20
-7.3085212165
 10
-28.3730735895
 20
-7.2160243401
 10
-28.3743051253
 20
-7.1318594785
 10
-28.3755989198
 20
-7.0564652602
 10
-28.3769374428
 20
-6.9902036786
 10
-28.3783216028
 20
-6.9334347902
 10
-28.3797504914
 20
-6.8864911551
 10
-28.3812038534
 20
-6.8496456623
 10
-28.3826749371
 20
-6.8231301056
 10
-28.3841704943
 20
-6.8071292741
 10
-28.3856905248
 20
-6.801775055
  0
LWPOLYLINE
  5
3E1
100
AcDbEntity
  8
ASSI
100
AcDbPolyline
 62
253
  6
CONTINUOUS
 90
43
 70
0
 10
-28.3812054144
 20
-11.0539379152
 10
-28.3797525368
 20
-11.0171182362
 10
-28.378324106
 20
-10.9702072324
 10
-28.376940326
 20
-10.9134757903
 10
-28.3756020921
 20
-10.8472549656
 10
-28.3743085089
 20
-10.7719038413
 10
-28.3730770945
 20
-10.6877820694
 10
-28.3719087377
 20
-10.5953266445
 10
-28.3708025496
 20
-10.4950067952
 10
-28.3697733821
 20
-10.3872582211
 10
-28.3688221794
 20
-10.2726099054
 10
-28.3679479973
 20
-10.1516212601
 10
-28.3671628545
 20
-10.0247949115
 10
-28.366467757
 20
-9.8927131851
 10
-28.3658616989
 20
-9.7560325137
 10
-28.3653536803
 20
-9.6153922146
 10
-28.3649450707
 20
-9.4714571775
 10
-28.3646345007
 20
-9.3249322076
 10
-28.3644268623
 20
-9.1765418433
 10
-28.3643237901
 20
-9.0269730973
 10
-28.3643236496
 20
-8.8769843311
 10
-28.3644264293
 20
-8.7274180979
 10
-28.3646337553
 20
-8.5790341919
 10
-28.3649440014
 20
-8.4325177894
 10
-28.3653522777
 20
-8.2885885569
 10
-28.3658599439
 20
-8.1479507824
 10
-28.3664656402
 20
-8.0112696135
 10
-28.3671603973
 20
-7.8791811951
 10
-28.367945214
 20
-7.7523423294
 10
-28.3688190916
 20
-7.6313357012
 10
-28.3697700644
 20
-7.516661663
 10
-28.3707990897
 20
-7.4088796244
 10
-28.3719052102
 20
-7.3085212165
 10
-28.3730735895
 20
-7.2160243401
 10
-28.3743051253
 20
-7.1318594785
 10
-28.3755989198
 20
-7.0564652602
 10
-28.3769374428
 20
-6.9902036786
 10
-28.3783216028
 20
-6.9334347902
 10
-28.3797504914
 20
-6.8864911551
 10
-28.3812038534
 20
-6.8496456623
 10
-28.3826749371
 20
-6.8231301056
 10
-28.3841704943
 20
-6.8071292741
 10
-28.3856905248
 20
-6.801775055
  0
LWPOLYLINE
  5
3E2
100
AcDbEntity
  8
RACCORDO
100
AcDbPolyline
 62
253
  6
CONTINUOUS
 90
43
 70
0
 10
-28.3812054144
 20
-16.0539379152
 10
-28.3797525368
 20
-16.0171182362
 10
-28.378324106
 20
-15.9702072324
 10
-28.376940326
 20
-15.9134757903
 10
-28.3756020921
 20
-15.8472549656
 10
-28.3743085089
 20
-15.7719038413
 10
-28.3730770945
 20
-15.6877820694
 10
-28.3719087377
 20
-15.5953266445
 10
-28.3708025496
 20
-15.4950067952
 10
-28.3697733821
 20
-15.3872582211
 10
-28.3688221794
 20
-15.2726099054
 10
-28.3679479973
 20
-15.1516212601
 10
-28.3671628545
 20
-15.0247949115
 10
-28.366467757
 20
-14.8927131851
 10
-28.3658616989
 20
-14.7560325137
 10
-28.3653536803
 20
-14.6153922146
 10
-28.3649450707
 20
-14.4714571775
 10
-28.3646345007
 20
-14.3249322076
 10
-28.3644268623
 20
-14.1765418433
 10
-28.3643237901
 20
-14.0269730973
 10
-28.3643236496
 20
-13.8769843311
 10
-28.3644264293
 20
-13.7274180979
 10
-28.3646337553
 20
-13.5790341919
 10
-28.3649440014
 20
-13.4325177894
 10
-28.3653522777
 20
-13.2885885569
 10
-28.3658599439
 20
-13.1479507824
 10
-28.3664656402
 20
-13.0112696135
 10
-28.3671603973
 20
-12.8791811951
 10
-28.367945214
 20
-12.7523423294
 10
-28.3688190916
 20
-12.6313357012
 10
-28.3697700644
 20
-12.516661663
 10
-28.3707990897
 20
-12.4088796244
 10
-28.3719052102
 20
-12.3085212165
 10
-28.3730735895
 20
-12.2160243401
 10
-28.3743051253
 20
-12.1318594785
 10
-28.3755989198
 20
-12.0564652602
 10
-28.3769374428
 20
-11.9902036786
 10
-28.3783216028
 20
-11.9334347902
 10
-28.3797504914
 20
-11.8864911551
 10
-28.3812038534
 20
-11.8496456623
 10
-28.3826749371
 20
-11.8231301056
 10
-28.3841704943
 20
-11.8071292741
 10
-28.3856905248
 20
-11.801775055
  0
LWPOLYLINE
  5
3E3
100
AcDbEntity
  8
ASSI
100
AcDbPolyline
 62
253
  6
CONTINUOUS
 90
43
 70
0
 10
-28.3812054144
 20
-16.0539379152
 10
-28.3797525368
 20
-16.0171182362
 10
-28.378324106
 20
-15.9702072324
 10
-28.376940326
 20
-15.9134757903
 10
-28.3756020921
 20
-15.8472549656
 10
-28.3743085089
 20
-15.7719038413
 10
-28.3730770945
 20
-15.6877820694
 10
-28.3719087377
 20
-15.5953266445
 10
-28.3708025496
 20
-15.4950067952
 10
-28.3697733821
 20
-15.3872582211
 10
-28.3688221794
 20
-15.2726099054
 10
-28.3679479973
 20
-15.1516212601
 10
-28.3671628545
 20
-15.0247949115
 10
-28.366467757
 20
-14.8927131851
 10
-28.3658616989
 20
-14.7560325137
 10
-28.3653536803
 20
-14.6153922146
 10
-28.3649450707
 20
-14.4714571775
 10
-28.3646345007
 20
-14.3249322076
 10
-28.3644268623
 20
-14.1765418433
 10
-28.3643237901
 20
-14.0269730973
 10
-28.3643236496
 20
-13.8769843311
 10
-28.3644264293
 20
-13.7274180979
 10
-28.3646337553
 20
-13.5790341919
 10
-28.3649440014
 20
-13.4325177894
 10
-28.3653522777
 20
-13.2885885569
 10
-28.3658599439
 20
-13.1479507824
 10
-28.3664656402
 20
-13.0112696135
 10
-28.3671603973
 20
-12.8791811951
 10
-28.367945214
 20
-12.7523423294
 10
-28.3688190916
 20
-12.6313357012
 10
-28.3697700644
 20
-12.516661663
 10
-28.3707990897
 20
-12.4088796244
 10
-28.3719052102
 20
-12.3085212165
 10
-28.3730735895
 20
-12.2160243401
 10
-28.3743051253
 20
-12.1318594785
 10
-28.3755989198
 20
-12.0564652602
 10
-28.3769374428
 20
-11.9902036786
 10
-28.3783216028
 20
-11.9334347902
 10
-28.3797504914
 20
-11.8864911551
 10
-28.3812038534
 20
-11.8496456623
 10
-28.3826749371
 20
-11.8231301056
 10
-28.3841704943
 20
-11.8071292741
 10
-28.3856905248
 20
-11.801775055
  0
LWPOLYLINE
  5
3E4
100
AcDbEntity
  8
RACCORDO
100
AcDbPolyline
 62
253
  6
CONTINUOUS
 90
4
 70
0
 10
-28.3856905248
 20
-11.101775055
 10
-28.3841710411
 20
-11.0964246089
 10
-28.3826760043
 20
-11.0804349997
 10
-28.3812054144
 20
-11.0539379152
  0
LWPOLYLINE
  5
3E5
100
AcDbEntity
  8
ASSI
100
AcDbPolyline
 62
253
  6
CONTINUOUS
 90
4
 70
0
 10
-28.3856905248
 20
-11.101775055
 10
-28.3841710411
 20
-11.0964246089
 10
-28.3826760043
 20
-11.0804349997
 10
-28.3812054144
 20
-11.0539379152
  0
LINE
  5
3E6
100
AcDbEntity
  8
0
100
AcDbLine
 62
7
  6
CONTINUOUS
 10
-13.3899109428
 20
10.913981043
 11
-13.4092336032
 21
10.8924796762
  0
LINE
  5
3E7
100
AcDbEntity
  8
0
100
AcDbLine
 62
7
  6
CONTINUOUS
 10
-13.4092336032
 20
10.8924796762
 11
-13.431382091
 21
10.8681564163
  0
LINE
  5
3E8
100
AcDbEntity
  8
0
100
AcDbLine
 62
7
  6
CONTINUOUS
 10
-13.431382091
 20
10.8681564163
 11
-13.4564580417
 21
10.8409029615
  0
LINE
  5
3E9
100
AcDbEntity
  8
0
100
AcDbLine
 62
7
  6
CONTINUOUS
 10
-13.4564580417
 20
10.8409029615
 11
-13.4845114336
 21
10.8106813126
  0
LINE
  5
3EA
100
AcDbEntity
  8
0
100
AcDbLine
 62
7
  6
CONTINUOUS
 10
-13.4845114336
 20
10.8106813126
 11
-13.5155422472
 21
10.777462865
  0
LINE
  5
3EB
100
AcDbEntity
  8
0
100
AcDbLine
 62
7
  6
CONTINUOUS
 10
-13.5155422472
 20
10.777462865
 11
-13.567391873
 21
10.7223316778
  0
LINE
  5
3EC
100
AcDbEntity
  8
0
100
AcDbLine
 62
7
  6
CONTINUOUS
 10
-13.567391873
 20
10.7223316778
 11
-13.6451983222
 21
10.640146626
  0
LWPOLYLINE
  5
3ED
100
AcDbEntity
  8
0
100
AcDbPolyline
 62
7
  6
CONTINUOUS
 90
3
 70
0
 10
-13.6451983222
 20
10.640146626
 10
-13.7085265023
 20
10.5735003808
 10
-13.7741118604
 20
10.5045827597
  0
LINE
  5
3EE
100
AcDbEntity
  8
0
100
AcDbLine
 62
7
  6
CONTINUOUS
 10
-13.2771545703
 20
9.448224945
 11
-13.3210768174
 21
9.404302698
  0
LINE
  5
3EF
100
AcDbEntity
  8
0
100
AcDbLine
 62
7
  6
CONTINUOUS
 10
-14.2638102067
 20
6.9115693087
 11
-14.2271545703
 21
6.948224945
  0
LINE
  5
3F0
100
AcDbEntity
  8
DRAFT
100
AcDbLine
 62
7
  6
CONTINUOUS
 10
-14.2638102067
 20
6.9115693087
 11
-14.2271545703
 21
6.948224945
  0
LINE
  5
3F1
100
AcDbEntity
  8
0
100
AcDbLine
 62
7
  6
CONTINUOUS
 10
-10.5366129441
 20
9.3841949705
 11
-10.4713367405
 21
9.4424071152
  0
LINE
  5
3F2
100
AcDbEntity
  8
0
100
AcDbLine
 62
253
  6
CONTINUOUS
 10
-7.0771482242
 20
9.448224945
 11
-7.085875092
 21
9.4424071152
  0
LWPOLYLINE
  5
3F3
100
AcDbEntity
  8
0
100
AcDbPolyline
 62
253
  6
CONTINUOUS
 90
4
 70
0
 10
-15.8338323796
 20
4.3930391159
 10
-15.8768779136
 20
4.3659889849
 10
-15.9244026337
 20
4.3461264888
 10
-15.975012105
 20
4.333980871
  0
LWPOLYLINE
  5
3F4
100
AcDbEntity
  8
RACCORDO
100
AcDbPolyline
 62
253
  6
CONTINUOUS
 90
4
 70
0
 10
-15.8338323796
 20
4.3930391159
 10
-15.8768779136
 20
4.3659889849
 10
-15.9244026337
 20
4.3461264888
 10
-15.975012105
 20
4.333980871
  0
LINE
  5
3F5
100
AcDbEntity
  8
0
100
AcDbLine
 62
253
  6
CONTINUOUS
 10
-7.1628517898
 20
6.1339221645
 11
-7.2850372443
 21
6.0833112921
  0
LINE
  5
3F6
100
AcDbEntity
  8
RACCORDO
100
AcDbLine
 62
253
  6
CONTINUOUS
 10
-7.1628517898
 20
6.1339221645
 11
-7.2850372443
 21
6.0833112921
  0
LINE
  5
3F7
100
AcDbEntity
  8
ASSI
100
AcDbLine
 62
7
  6
CONTINUOUS
 10
-20.2271545703
 20
-30.451775055
 11
-15.2271545703
 21
-30.451775055
  0
LINE
  5
3F8
100
AcDbEntity
  8
RACCORDO
100
AcDbLine
 62
7
  6
CONTINUOUS
 10
-16.0445766831
 20
-30.251775055
 11
-19.4097324575
 21
-30.251775055
  0
LINE
  5
3F9
100
AcDbEntity
  8
ASSI
100
AcDbLine
 62
7
  6
CONTINUOUS
 10
-16.0445766831
 20
-30.251775055
 11
-19.4097324575
 21
-30.251775055
  0
LINE
  5
3FA
100
AcDbEntity
  8
0
100
AcDbLine
 62
253
  6
CONTINUOUS
 10
-19.4271545703
 20
-30.2334468977
 11
-16.0271545703
 21
-30.2334468977
  0
LINE
  5
3FB
100
AcDbEntity
  8
RACCORDO
100
AcDbLine
 62
253
  6
CONTINUOUS
 10
-19.4271545703
 20
-30.2334468977
 11
-16.0271545703
 21
-30.2334468977
  0
LINE
  5
3FC
100
AcDbEntity
  8
0
100
AcDbLine
 62
7
  6
CONTINUOUS
 10
-19.4271545703
 20
-30.201775055
 11
-16.0271545703
 21
-30.201775055
  0
LINE
  5
3FD
100
AcDbEntity
  8
RACCORDO
100
AcDbLine
 62
7
  6
CONTINUOUS
 10
-19.4271545703
 20
-30.201775055
 11
-16.0271545703
 21
-30.201775055
  0
LINE
  5
3FE
100
AcDbEntity
  8
0
100
AcDbLine
 62
7
  6
CONTINUOUS
 10
-15.2271545703
 20
-30.001775055
 11
-20.2271545703
 21
-30.001775055
  0
LINE
  5
3FF
100
AcDbEntity
  8
0
100
AcDbLine
 62
7
  6
CONTINUOUS
 10
-20.2271545703
 20
-29.551775055
 11
-15.2271545703
 21
-29.551775055
  0
LINE
  5
400
100
AcDbEntity
  8
ASSI
100
AcDbLine
 62
7
  6
CONTINUOUS
 10
-20.2271545703
 20
-29.551775055
 11
-15.2271545703
 21
-29.551775055
  0
LINE
  5
401
100
AcDbEntity
  8
0
100
AcDbLine
 62
253
  6
CONTINUOUS
 10
-16.0271545703
 20
-30.2334468977
 11
-15.975060117
 21
-30.2375234053
  0
LINE
  5
402
100
AcDbEntity
  8
RACCORDO
100
AcDbLine
 62
253
  6
CONTINUOUS
 10
-16.0271545703
 20
-30.2334468977
 11
-15.975060117
 21
-30.2375234053
  0
LINE
  5
403
100
AcDbEntity
  8
0
100
AcDbLine
 62
253
  6
CONTINUOUS
 10
-7.2850372443
 20
-31.9868614021
 11
-7.1628517898
 21
-32.0374722745
  0
LINE
  5
404
100
AcDbEntity
  8
RACCORDO
100
AcDbLine
 62
253
  6
CONTINUOUS
 10
-7.2850372443
 20
-31.9868614021
 11
-7.1628517898
 21
-32.0374722745
  0
LWPOLYLINE
  5
405
100
AcDbEntity
  8
0
100
AcDbPolyline
 62
253
  6
CONTINUOUS
 90
3
 70
0
 10
-15.9245485273
 20
-30.2496290656
 10
-15.8771545703
 20
-30.2693960542
 10
-15.8343182874
 20
-30.2962237612
  0
LWPOLYLINE
  5
406
100
AcDbEntity
  8
RACCORDO
100
AcDbPolyline
 62
253
  6
CONTINUOUS
 90
3
 70
0
 10
-15.9245485273
 20
-30.2496290656
 10
-15.8771545703
 20
-30.2693960542
 10
-15.8343182874
 20
-30.2962237612
  0
LINE
  5
407
100
AcDbEntity
  8
0
100
AcDbLine
 62
253
  6
CONTINUOUS
 10
-7.085875092
 20
-35.3459572252
 11
-7.0771482242
 21
-35.351775055
  0
LINE
  5
408
100
AcDbEntity
  8
0
100
AcDbLine
 62
7
  6
CONTINUOUS
 10
-10.5366129441
 20
-35.2877450805
 11
-10.4713367405
 21
-35.3459572252
  0
LINE
  5
409
100
AcDbEntity
  8
0
100
AcDbLine
 62
7
  6
CONTINUOUS
 10
-13.2771545703
 20
-35.351775055
 11
-13.3210768174
 21
-35.3078528079
  0
LINE
  5
40A
100
AcDbEntity
  8
0
100
AcDbLine
 62
7
  6
CONTINUOUS
 10
-14.2271545703
 20
-32.851775055
 11
-14.2638102067
 21
-32.8151194186
  0
LINE
  5
40B
100
AcDbEntity
  8
DRAFT
100
AcDbLine
 62
7
  6
CONTINUOUS
 10
-14.2271545703
 20
-32.851775055
 11
-14.2638102067
 21
-32.8151194186
  0
LINE
  5
40C
100
AcDbEntity
  8
0
100
AcDbLine
 62
7
  6
CONTINUOUS
 10
-13.7520596951
 20
-36.4313792157
 11
-13.6870388134
 21
-36.4996283353
  0
LINE
  5
40D
100
AcDbEntity
  8
0
100
AcDbLine
 62
7
  6
CONTINUOUS
 10
-13.7741118604
 20
-36.4081328697
 11
-13.7520596951
 21
-36.4313792157
  0
LINE
  5
40E
100
AcDbEntity
  8
0
100
AcDbLine
 62
7
  6
CONTINUOUS
 10
-13.6870388134
 20
-36.4996283353
 11
-13.6051321479
 21
-36.5859697582
  0
LINE
  5
40F
100
AcDbEntity
  8
0
100
AcDbLine
 62
7
  6
CONTINUOUS
 10
-13.6051321479
 20
-36.5859697582
 11
-13.5493263823
 21
-36.6450605017
  0
LINE
  5
410
100
AcDbEntity
  8
0
100
AcDbLine
 62
7
  6
CONTINUOUS
 10
-13.5493263823
 20
-36.6450605017
 11
-13.4995384179
 21
-36.6981207242
  0
LINE
  5
411
100
AcDbEntity
  8
0
100
AcDbLine
 62
7
  6
CONTINUOUS
 10
-13.4995384179
 20
-36.6981207242
 11
-13.4699945051
 21
-36.729840422
  0
LINE
  5
412
100
AcDbEntity
  8
0
100
AcDbLine
 62
7
  6
CONTINUOUS
 10
-13.4699945051
 20
-36.729840422
 11
-13.4434342117
 21
-36.7585780377
  0
LINE
  5
413
100
AcDbEntity
  8
0
100
AcDbLine
 62
7
  6
CONTINUOUS
 10
-13.4434342117
 20
-36.7585780377
 11
-13.4198436315
 21
-36.7843369886
  0
LWPOLYLINE
  5
414
100
AcDbEntity
  8
0
100
AcDbPolyline
 62
7
  6
CONTINUOUS
 90
19
 70
0
 10
-13.4198436315
 20
-36.7843369886
 10
-13.3991174422
 20
-36.8072511769
 10
-13.3898000319
 20
-36.8176553473
 10
-13.3811528381
 20
-36.8274065276
 10
-13.3731689929
 20
-36.8364992263
 10
-13.3658295885
 20
-36.844938935
 10
-13.3590985125
 20
-36.8527899974
 10
-13.3529686414
 20
-36.860053496
 10
-13.3474247435
 20
-36.8667283483
 10
-13.3424300816
 20
-36.8728756512
 10
-13.3379762542
 20
-36.8785051725
 10
-13.3340610899
 20
-36.8836071444
 10
-13.330668421
 20
-36.8882133611
 10
-13.3277936745
 20
-36.8923283489
 10
-13.3254356072
 20
-36.8959475815
 10
-13.3235882798
 20
-36.8990892742
 10
-13.3222481938
 20
-36.9017594987
 10
-13.3214124515
 20
-36.9039521833
 10
-13.3210768174
 20
-36.905667328
  0
LWPOLYLINE
  5
415
100
AcDbEntity
  8
0
100
AcDbPolyline
 62
253
  6
CONTINUOUS
 90
34
 70
0
 10
-27.8727827363
 20
10.8925625123
 10
-27.8724660856
 20
10.8822797448
 10
-27.8715859239
 20
10.8720201848
 10
-27.8701442376
 20
10.8618069877
 10
-27.8681442805
 20
10.851663204
 10
-27.8655905665
 20
10.8416117276
 10
-27.8624888591
 20
10.8316752441
 10
-27.8588461587
 20
10.8218761796
 10
-27.8546706866
 20
10.81223665
 10
-27.8499718667
 20
10.8027784111
 10
-27.8447603039
 20
10.7935228096
 10
-27.8390477604
 20
10.7844907348
 10
-27.832847129
 20
10.7757025717
 10
-27.8261724043
 20
10.7671781546
 10
-27.8190386506
 20
10.7589367225
 10
-27.8114619685
 20
10.750996876
 10
-27.803459458
 20
10.7433765347
 10
-27.7950491805
 20
10.7360928974
 10
-27.7862501172
 20
10.7291624028
 10
-27.7770821273
 20
10.7226006926
 10
-27.7675659023
 20
10.7164225761
 10
-27.7577229199
 20
10.7106419971
 10
-27.7475753949
 20
10.7052720019
 10
-27.7371462298
 20
10.7003247104
 10
-27.7264589627
 20
10.6958112882
 10
-27.7155377139
 20
10.691741922
 10
-27.7044071322
 20
10.6881257959
 10
-27.6930923387
 20
10.6849710714
 10
-27.68161887
 20
10.6822848685
 10
-27.6700126212
 20
10.6800732499
 10
-27.6582997869
 20
10.678341207
 10
-27.6465068023
 20
10.6770926489
 10
-27.6346602834
 20
10.6763303936
 10
-27.6227869671
 20
10.6760561614
  0
LWPOLYLINE
  5
416
100
AcDbEntity
  8
0
100
AcDbPolyline
 62
253
  6
CONTINUOUS
 90
34
 70
0
 10
-24.9815264043
 20
-36.7961126223
 10
-24.9818425315
 20
-36.7858388445
 10
-24.9827214438
 20
-36.7755859341
 10
-24.9841615353
 20
-36.7653770242
 10
-24.9861601013
 20
-36.7552344249
 10
-24.9887129171
 20
-36.7451818353
 10
-24.9918138373
 20
-36.7352442146
 10
-24.9954555453
 20
-36.7254447824
 10
-24.9996300507
 20
-36.7158048466
 10
-25.0043280313
 20
-36.7063459761
 10
-25.0095389878
 20
-36.6970894091
 10
-25.015251129
 20
-36.6880561806
 10
-25.0214514612
 20
-36.6792668693
 10
-25.0281259373
 20
-36.6707413776
 10
-25.0352595351
 20
-36.6624988837
 10
-25.0428361691
 20
-36.6545579764
 10
-25.0508387513
 20
-36.6469365718
 10
-25.0592492096
 20
-36.6396518875
 10
-25.068048542
 20
-36.6327203842
 10
-25.0772168789
 20
-36.6261577131
 10
-25.0867335307
 20
-36.6199786831
 10
-25.0965770158
 20
-36.6141972419
 10
-25.1067251145
 20
-36.6088264399
 10
-25.1171549194
 20
-36.6038784009
 10
-25.1278428868
 20
-36.5993642944
 10
-25.1387649035
 20
-36.5952943055
 10
-25.1498963026
 20
-36.5916776271
 10
-25.161211917
 20
-36.5885224335
 10
-25.1726861749
 20
-36.5858358477
 10
-25.1842932006
 20
-36.5836239212
 10
-25.1960068343
 20
-36.5818916365
 10
-25.2078006492
 20
-36.5806429026
 10
-25.2196480098
 20
-36.5798805406
 10
-25.2315221735
 20
-36.5796062713
  0
LINE
  5
417
100
AcDbEntity
  8
0
100
AcDbLine
 62
253
  6
CONTINUOUS
 10
-27.6227869671
 20
-36.5796062713
 11
-27.6227869671
 21
-37.447403221
  0
LINE
  5
418
100
AcDbEntity
  8
0
100
AcDbLine
 62
253
  6
CONTINUOUS
 10
-27.6227869671
 20
10.6760561614
 11
-27.6227869671
 21
11.543853111
  0
LINE
  5
419
100
AcDbEntity
  8
ASSI
100
AcDbLine
 62
7
  6
CONTINUOUS
 10
-27.5271545703
 20
-16.101775055
 11
-27.5271545703
 21
-11.801775055
  0
LINE
  5
41A
100
AcDbEntity
  8
ASSI
100
AcDbLine
 62
7
  6
CONTINUOUS
 10
-27.5271545703
 20
-11.101775055
 11
-27.5271545703
 21
-6.801775055
  0
LINE
  5
41B
100
AcDbEntity
  8
ASSI
100
AcDbLine
 62
7
  6
CONTINUOUS
 10
-27.5271545703
 20
-6.101775055
 11
-27.5271545703
 21
-1.801775055
  0
LINE
  5
41C
100
AcDbEntity
  8
ASSI
100
AcDbLine
 62
7
  6
CONTINUOUS
 10
-27.5271545703
 20
-1.101775055
 11
-27.5271545703
 21
3.198224945
  0
LINE
  5
41D
100
AcDbEntity
  8
0
100
AcDbLine
 62
253
  6
CONTINUOUS
 10
-26.9271545703
 20
-31.551775055
 11
-26.9271545703
 21
-31.1648653567
  0
LINE
  5
41E
100
AcDbEntity
  8
0
100
AcDbLine
 62
7
  6
CONTINUOUS
 10
-26.3271545703
 20
7.898224945
 11
-26.3271545703
 21
5.3056675448
  0
LINE
  5
41F
100
AcDbEntity
  8
DRAFT
100
AcDbLine
 62
7
  6
CONTINUOUS
 10
-26.3271545703
 20
7.898224945
 11
-26.3271545703
 21
5.3056675448
  0
LINE
  5
420
100
AcDbEntity
  8
0
100
AcDbLine
 62
7
  6
CONTINUOUS
 10
-26.3271545703
 20
-31.551775055
 11
-26.3271545703
 21
-33.801775055
  0
LINE
  5
421
100
AcDbEntity
  8
DRAFT
100
AcDbLine
 62
7
  6
CONTINUOUS
 10
-26.3271545703
 20
-31.551775055
 11
-26.3271545703
 21
-33.801775055
  0
LINE
  5
422
100
AcDbEntity
  8
0
100
AcDbLine
 62
7
  6
CONTINUOUS
 10
-25.9596995054
 20
-34.3568884651
 11
-25.9596995054
 21
-33.8605019228
  0
LINE
  5
423
100
AcDbEntity
  8
0
100
AcDbLine
 62
7
  6
CONTINUOUS
 10
-25.9596995054
 20
7.9569518128
 11
-25.9596995054
 21
8.4533383551
  0
LINE
  5
424
100
AcDbEntity
  8
0
100
AcDbLine
 62
7
  6
CONTINUOUS
 10
-25.7937240721
 20
8.6316554432
 11
-25.7937240721
 21
8.6193137884
  0
LINE
  5
425
100
AcDbEntity
  8
0
100
AcDbLine
 62
253
  6
CONTINUOUS
 10
-25.7937240721
 20
8.5019603721
 11
-25.7937240721
 21
8.0399332092
  0
LINE
  5
426
100
AcDbEntity
  8
0
100
AcDbLine
 62
7
  6
CONTINUOUS
 10
-25.7937240721
 20
7.9569518128
 11
-25.7937240721
 21
7.948224945
  0
LINE
  5
427
100
AcDbEntity
  8
0
100
AcDbLine
 62
7
  6
CONTINUOUS
 10
-25.7937240721
 20
-33.851775055
 11
-25.7937240721
 21
-33.8605019228
  0
LINE
  5
428
100
AcDbEntity
  8
0
100
AcDbLine
 62
253
  6
CONTINUOUS
 10
-25.7937240721
 20
-33.9434833192
 11
-25.7937240721
 21
-34.4055104821
  0
LINE
  5
429
100
AcDbEntity
  8
0
100
AcDbLine
 62
7
  6
CONTINUOUS
 10
-25.7937240721
 20
-34.5228638984
 11
-25.7937240721
 21
-34.5352055532
  0
LWPOLYLINE
  5
42A
100
AcDbEntity
  8
0
100
AcDbPolyline
 62
253
  6
CONTINUOUS
 90
34
 70
0
 10
-27.8727827363
 20
-36.7961126223
 10
-27.8724660743
 20
-36.7858296612
 10
-27.8715858801
 20
-36.775569909
 10
-27.8701441403
 20
-36.7653565223
 10
-27.8681441102
 20
-36.7552125585
 10
-27.8655903032
 20
-36.7451609071
 10
-27.8624884778
 20
-36.7352242384
 10
-27.8588456271
 20
-36.725424968
 10
-27.8546699742
 20
-36.7157852267
 10
-27.8499709519
 20
-36.7063267936
 10
-27.8447591719
 20
-36.6970710245
 10
-27.8390463942
 20
-36.6880388013
 10
-27.8328455111
 20
-36.6792505062
 10
-27.8261705174
 20
-36.6707259736
 10
-27.8190364799
 20
-36.6624844448
 10
-27.8114595003
 20
-36.6545445209
 10
-27.8034566807
 20
-36.6469241228
 10
-27.7950460836
 20
-36.6396404496
 10
-27.7862466911
 20
-36.63270994
 10
-27.7770783652
 20
-36.6261482374
 10
-27.7675617977
 20
-36.6199701506
 10
-27.7577184615
 20
-36.6141896203
 10
-27.7475705601
 20
-36.6088196878
 10
-27.7371410092
 20
-36.6038724815
 10
-27.7264533816
 20
-36.5993591815
 10
-27.7155318217
 20
-36.5952899785
 10
-27.704400962
 20
-36.5916740446
 10
-27.6930858984
 20
-36.5885195307
 10
-27.6816118764
 20
-36.5858334945
 10
-27.670005079
 20
-36.5836220845
 10
-27.65829257
 20
-36.581890402
 10
-27.6465010931
 20
-36.5806422733
 10
-27.6346569824
 20
-36.5798803593
 10
-27.6227869671
 20
-36.5796062713
  0
LWPOLYLINE
  5
42B
100
AcDbEntity
  8
0
100
AcDbPolyline
 62
253
  6
CONTINUOUS
 90
34
 70
0
 10
-24.9815264043
 20
10.8925625123
 10
-24.9818430551
 20
10.8822797448
 10
-24.9827232168
 20
10.8720201848
 10
-24.9841649031
 20
10.8618069877
 10
-24.9861648602
 20
10.851663204
 10
-24.9887185742
 20
10.8416117276
 10
-24.9918202816
 20
10.8316752441
 10
-24.995462982
 20
10.8218761796
 10
-24.999638454
 20
10.81223665
 10
-25.0043372739
 20
10.8027784111
 10
-25.0095488368
 20
10.7935228096
 10
-25.0152613803
 20
10.7844907348
 10
-25.0214620116
 20
10.7757025717
 10
-25.0281367364
 20
10.7671781546
 10
-25.03527049
 20
10.7589367225
 10
-25.0428471722
 20
10.750996876
 10
-25.0508496826
 20
10.7433765347
 10
-25.0592599602
 20
10.7360928974
 10
-25.0680590234
 20
10.7291624028
 10
-25.0772270134
 20
10.7226006926
 10
-25.0867432383
 20
10.7164225761
 10
-25.0965862208
 20
10.7106419971
 10
-25.1067337458
 20
10.7052720019
 10
-25.1171629108
 20
10.7003247104
 10
-25.127850178
 20
10.6958112882
 10
-25.1387714267
 20
10.691741922
 10
-25.1499020084
 20
10.6881257959
 10
-25.161216802
 20
10.6849710714
 10
-25.1726902707
 20
10.6822848685
 10
-25.1842965194
 20
10.6800732499
 10
-25.1960093537
 20
10.678341207
 10
-25.2078023384
 20
10.6770926489
 10
-25.2196488573
 20
10.6763303936
 10
-25.2315221735
 20
10.6760561614
  0
LWPOLYLINE
  5
42C
100
AcDbEntity
  8
RACCORDO
100
AcDbPolyline
 62
253
  6
CONTINUOUS
 90
4
 70
0
 10
-28.3856905248
 20
-16.101775055
 10
-28.3841710411
 20
-16.0964246089
 10
-28.3826760043
 20
-16.0804349997
 10
-28.3812054144
 20
-16.0539379152
  0
LWPOLYLINE
  5
42D
100
AcDbEntity
  8
ASSI
100
AcDbPolyline
 62
253
  6
CONTINUOUS
 90
4
 70
0
 10
-28.3856905248
 20
-16.101775055
 10
-28.3841710411
 20
-16.0964246089
 10
-28.3826760043
 20
-16.0804349997
 10
-28.3812054144
 20
-16.0539379152
  0
LINE
  5
42E
100
AcDbEntity
  8
0
100
AcDbLine
 62
7
  6
CONTINUOUS
 10
-14.2271545703
 20
6.748224945
 11
-14.2638102067
 21
6.7115693087
  0
LINE
  5
42F
100
AcDbEntity
  8
DRAFT
100
AcDbLine
 62
7
  6
CONTINUOUS
 10
-14.2271545703
 20
6.748224945
 11
-14.2638102067
 21
6.7115693087
  0
LINE
  5
430
100
AcDbEntity
  8
0
100
AcDbLine
 62
253
  6
CONTINUOUS
 10
-6.5771545703
 20
8.948241868
 11
-6.5858814381
 21
8.9424240382
  0
LINE
  5
431
100
AcDbEntity
  8
0
100
AcDbLine
 62
253
  6
CONTINUOUS
 10
-6.5771545703
 20
4.7199239937
 11
-6.6993400248
 21
4.6693131213
  0
LINE
  5
432
100
AcDbEntity
  8
RACCORDO
100
AcDbLine
 62
253
  6
CONTINUOUS
 10
-6.5771545703
 20
4.7199239937
 11
-6.6993400248
 21
4.6693131213
  0
LWPOLYLINE
  5
433
100
AcDbEntity
  8
0
100
AcDbPolyline
 62
253
  6
CONTINUOUS
 90
3
 70
0
 10
-19.5299065069
 20
-30.2496765988
 10
-19.4792970356
 20
-30.237530981
 10
-19.4271545703
 20
-30.2334468977
  0
LWPOLYLINE
  5
434
100
AcDbEntity
  8
RACCORDO
100
AcDbPolyline
 62
253
  6
CONTINUOUS
 90
3
 70
0
 10
-19.5299065069
 20
-30.2496765988
 10
-19.4792970356
 20
-30.237530981
 10
-19.4271545703
 20
-30.2334468977
  0
LINE
  5
435
100
AcDbEntity
  8
0
100
AcDbLine
 62
253
  6
CONTINUOUS
 10
-6.6993400248
 20
-30.5728632313
 11
-6.5771545703
 21
-30.6234741037
  0
LINE
  5
436
100
AcDbEntity
  8
RACCORDO
100
AcDbLine
 62
253
  6
CONTINUOUS
 10
-6.6993400248
 20
-30.5728632313
 11
-6.5771545703
 21
-30.6234741037
  0
LINE
  5
437
100
AcDbEntity
  8
0
100
AcDbLine
 62
253
  6
CONTINUOUS
 10
-6.5858814381
 20
-34.8459741482
 11
-6.5771545703
 21
-34.851791978
  0
LWPOLYLINE
  5
438
100
AcDbEntity
  8
0
100
AcDbPolyline
 62
253
  6
CONTINUOUS
 90
4
 70
0
 10
-15.8343182874
 20
-30.2962237612
 10
-15.7973412374
 20
-30.3292970402
 10
-15.7673469492
 20
-30.3676109763
 10
-15.7452467841
 20
-30.4100014202
  0
LWPOLYLINE
  5
439
100
AcDbEntity
  8
RACCORDO
100
AcDbPolyline
 62
253
  6
CONTINUOUS
 90
4
 70
0
 10
-15.8343182874
 20
-30.2962237612
 10
-15.7973412374
 20
-30.3292970402
 10
-15.7673469492
 20
-30.3676109763
 10
-15.7452467841
 20
-30.4100014202
  0
LINE
  5
43A
100
AcDbEntity
  8
0
100
AcDbLine
 62
7
  6
CONTINUOUS
 10
-14.2271545703
 20
-32.651775055
 11
-14.2638102067
 21
-32.6151194186
  0
LINE
  5
43B
100
AcDbEntity
  8
DRAFT
100
AcDbLine
 62
7
  6
CONTINUOUS
 10
-14.2271545703
 20
-32.651775055
 11
-14.2638102067
 21
-32.6151194186
  0
LWPOLYLINE
  5
43C
100
AcDbEntity
  8
0
100
AcDbPolyline
 62
7
  6
CONTINUOUS
 90
34
 70
0
 10
-24.9815264043
 20
11.2938573418
 10
-24.9818099551
 20
11.3057523633
 10
-24.9826591601
 20
11.31762044
 10
-24.9840720955
 20
11.3294346879
 10
-24.9860455608
 20
11.3411683451
 10
-24.9885750855
 20
11.3527948324
 10
-24.9916549399
 20
11.364287813
 10
-24.9952781473
 20
11.3756212528
 10
-24.9994365004
 20
11.386769479
 10
-25.0041205795
 20
11.3977072385
 10
-25.0093197741
 20
11.4084097546
 10
-25.015022307
 20
11.4188527839
 10
-25.0212152605
 20
11.4290126705
 10
-25.0278846063
 20
11.4388664
 10
-25.0350152369
 20
11.4483916515
 10
-25.0425909997
 20
11.4575668481
 10
-25.0505947339
 20
11.4663712061
 10
-25.0590083093
 20
11.4747847815
 10
-25.0678126672
 20
11.4827885157
 10
-25.0769878639
 20
11.4903642785
 10
-25.0865131154
 20
11.497494909
 10
-25.0963668449
 20
11.5041642548
 10
-25.1065267315
 20
11.5103572084
 10
-25.1169697607
 20
11.5160597412
 10
-25.1276722769
 20
11.5212589359
 10
-25.1386100363
 20
11.525943015
 10
-25.1497582625
 20
11.530101368
 10
-25.1610917024
 20
11.5337245754
 10
-25.172584683
 20
11.5368044298
 10
-25.1842111702
 20
11.5393339546
 10
-25.1959448274
 20
11.5413074199
 10
-25.2077590754
 20
11.5427203553
 10
-25.219627152
 20
11.5435695602
 10
-25.2315221735
 20
11.543853111
  0
LWPOLYLINE
  5
43D
100
AcDbEntity
  8
0
100
AcDbPolyline
 62
7
  6
CONTINUOUS
 90
4
 70
0
 10
-24.9771545703
 20
11.2982291758
 10
-24.9774377206
 20
11.310124461
 10
-24.9782865361
 20
11.3219928006
 10
-24.9796990962
 20
11.3338073111
  0
LINE
  5
43E
100
AcDbEntity
  8
0
100
AcDbLine
 62
253
  6
CONTINUOUS
 10
-25.2315221735
 20
10.6760561614
 11
-25.2264315725
 21
10.1708746758
  0
LINE
  5
43F
100
AcDbEntity
  8
0
100
AcDbLine
 62
253
  6
CONTINUOUS
 10
-24.9815264043
 20
10.8925625123
 11
-24.9771545703
 21
10.4587100932
  0
LINE
  5
440
100
AcDbEntity
  8
0
100
AcDbLine
 62
253
  6
CONTINUOUS
 10
-25.2938002246
 20
8.3842118937
 11
-25.2938002246
 21
8.0442204907
  0
LINE
  5
441
100
AcDbEntity
  8
0
100
AcDbLine
 62
253
  6
CONTINUOUS
 10
-25.2938002246
 20
-33.9477706007
 11
-25.2938002246
 21
-34.2877620036
  0
LINE
  5
442
100
AcDbEntity
  8
0
100
AcDbLine
 62
253
  6
CONTINUOUS
 10
-25.2315221735
 20
-36.5796062713
 11
-25.2315221735
 21
-37.447403221
  0
LINE
  5
443
100
AcDbEntity
  8
0
100
AcDbLine
 62
253
  6
CONTINUOUS
 10
-25.2315221735
 20
10.6760561614
 11
-25.2315221735
 21
11.543853111
  0
LINE
  5
444
100
AcDbEntity
  8
0
100
AcDbLine
 62
7
  6
CONTINUOUS
 10
-25.1812652716
 20
-33.801775055
 11
-25.1812652716
 21
-31.551775055
  0
LINE
  5
445
100
AcDbEntity
  8
DRAFT
100
AcDbLine
 62
7
  6
CONTINUOUS
 10
-25.1812652716
 20
-33.801775055
 11
-25.1812652716
 21
-31.551775055
  0
LINE
  5
446
100
AcDbEntity
  8
0
100
AcDbLine
 62
7
  6
CONTINUOUS
 10
-25.1812652716
 20
5.3056675448
 11
-25.1812652716
 21
7.898224945
  0
LINE
  5
447
100
AcDbEntity
  8
DRAFT
100
AcDbLine
 62
7
  6
CONTINUOUS
 10
-25.1812652716
 20
5.3056675448
 11
-25.1812652716
 21
7.898224945
  0
LINE
  5
448
100
AcDbEntity
  8
0
100
AcDbLine
 62
7
  6
CONTINUOUS
 10
-25.1638102067
 20
6.7115693087
 11
-25.1638102067
 21
5.3143944126
  0
LINE
  5
449
100
AcDbEntity
  8
DRAFT
100
AcDbLine
 62
7
  6
CONTINUOUS
 10
-25.1638102067
 20
6.7115693087
 11
-25.1638102067
 21
5.3143944126
  0
LINE
  5
44A
100
AcDbEntity
  8
0
100
AcDbLine
 62
7
  6
CONTINUOUS
 10
-25.1638102067
 20
-32.6151194186
 11
-25.1638102067
 21
-31.551775055
  0
LINE
  5
44B
100
AcDbEntity
  8
DRAFT
100
AcDbLine
 62
7
  6
CONTINUOUS
 10
-25.1638102067
 20
-32.6151194186
 11
-25.1638102067
 21
-31.551775055
  0
LINE
  5
44C
100
AcDbEntity
  8
0
100
AcDbLine
 62
7
  6
CONTINUOUS
 10
-25.1271545703
 20
-33.801775055
 11
-25.1271545703
 21
-32.651775055
  0
LINE
  5
44D
100
AcDbEntity
  8
DRAFT
100
AcDbLine
 62
7
  6
CONTINUOUS
 10
-25.1271545703
 20
-33.801775055
 11
-25.1271545703
 21
-32.651775055
  0
LINE
  5
44E
100
AcDbEntity
  8
0
100
AcDbLine
 62
7
  6
CONTINUOUS
 10
-25.1271545703
 20
6.748224945
 11
-25.1271545703
 21
7.898224945
  0
LINE
  5
44F
100
AcDbEntity
  8
DRAFT
100
AcDbLine
 62
7
  6
CONTINUOUS
 10
-25.1271545703
 20
6.748224945
 11
-25.1271545703
 21
7.898224945
  0
LINE
  5
450
100
AcDbEntity
  8
DRAFT
100
AcDbLine
 62
7
  6
CONTINUOUS
 10
-25.0271545703
 20
-33.851775055
 11
-25.0271545703
 21
-32.951775055
  0
LINE
  5
451
100
AcDbEntity
  8
DRAFT
100
AcDbLine
 62
7
  6
CONTINUOUS
 10
-25.0271545703
 20
7.048224945
 11
-25.0271545703
 21
7.948224945
  0
LINE
  5
452
100
AcDbEntity
  8
DRAFT
100
AcDbLine
 62
7
  6
CONTINUOUS
 10
-25.0227911364
 20
-32.6561384889
 11
-25.0227911364
 21
-32.951775055
  0
LINE
  5
453
100
AcDbEntity
  8
DRAFT
100
AcDbLine
 62
7
  6
CONTINUOUS
 10
-25.0227911364
 20
6.7525883789
 11
-25.0227911364
 21
7.048224945
  0
LINE
  5
454
100
AcDbEntity
  8
0
100
AcDbLine
 62
7
  6
CONTINUOUS
 10
-24.9815264043
 20
-37.1974074518
 11
-24.9815264043
 21
-36.7961126223
  0
LINE
  5
455
100
AcDbEntity
  8
0
100
AcDbLine
 62
7
  6
CONTINUOUS
 10
-24.9815264043
 20
10.8925625123
 11
-24.9815264043
 21
11.2938573418
  0
LINE
  5
456
100
AcDbEntity
  8
0
100
AcDbLine
 62
7
  6
CONTINUOUS
 10
-24.9771545703
 20
-35.351775055
 11
-24.9771545703
 21
-36.7961126223
  0
LINE
  5
457
100
AcDbEntity
  8
0
100
AcDbLine
 62
7
  6
CONTINUOUS
 10
-24.9771545703
 20
9.448224945
 11
-24.9771545703
 21
10.8925625123
  0
LINE
  5
458
100
AcDbEntity
  8
DRAFT
100
AcDbLine
 62
7
  6
CONTINUOUS
 10
-24.9224321568
 20
8.0442204907
 11
-24.9224321568
 21
6.8529473585
  0
LINE
  5
459
100
AcDbEntity
  8
DRAFT
100
AcDbLine
 62
7
  6
CONTINUOUS
 10
-24.9224321568
 20
-32.7564974685
 11
-24.9224321568
 21
-33.9477706007
  0
LINE
  5
45A
100
AcDbEntity
  8
DRAFT
100
AcDbLine
 62
7
  6
CONTINUOUS
 10
-24.3318769838
 20
7.1529473585
 11
-24.3318769838
 21
6.8529473585
  0
LINE
  5
45B
100
AcDbEntity
  8
DRAFT
100
AcDbLine
 62
7
  6
CONTINUOUS
 10
-24.3318769838
 20
-32.7564974685
 11
-24.3318769838
 21
-33.0564974685
  0
LINE
  5
45C
100
AcDbEntity
  8
DRAFT
100
AcDbLine
 62
7
  6
CONTINUOUS
 10
-24.2315180042
 20
7.0525883789
 11
-24.2315180042
 21
6.7525883789
  0
LINE
  5
45D
100
AcDbEntity
  8
DRAFT
100
AcDbLine
 62
7
  6
CONTINUOUS
 10
-24.2315180042
 20
-32.6561384889
 11
-24.2315180042
 21
-32.9561384889
  0
LINE
  5
45E
100
AcDbEntity
  8
0
100
AcDbLine
 62
253
  6
CONTINUOUS
 10
-25.2264315725
 20
-36.0744247858
 11
-25.2315221735
 21
-36.5796062713
  0
LINE
  5
45F
100
AcDbEntity
  8
0
100
AcDbLine
 62
253
  6
CONTINUOUS
 10
-24.9771545703
 20
-36.3622602032
 11
-24.9815264043
 21
-36.7961126223
  0
LINE
  5
460
100
AcDbEntity
  8
DRAFT
100
AcDbLine
 62
7
  6
CONTINUOUS
 10
-11.1224321568
 20
7.1529473585
 11
-11.2227911364
 21
7.0525883789
  0
LINE
  5
461
100
AcDbEntity
  8
DRAFT
100
AcDbLine
 62
7
  6
CONTINUOUS
 10
-11.1224321568
 20
6.8529473585
 11
-11.2227911364
 21
6.7525883789
  0
LINE
  5
462
100
AcDbEntity
  8
SMUSSO
100
AcDbLine
 62
7
  6
CONTINUOUS
 10
-17.9771545703
 20
-1.201775055
 11
-17.4771545703
 21
-0.701775055
  0
LINE
  5
463
100
AcDbEntity
  8
ASSI
100
AcDbLine
 62
7
  6
CONTINUOUS
 10
-17.9771545703
 20
-1.201775055
 11
-17.4771545703
 21
-0.701775055
  0
LINE
  5
464
100
AcDbEntity
  8
SMUSSO
100
AcDbLine
 62
7
  6
CONTINUOUS
 10
-12.9771545703
 20
3.298224945
 11
-13.4771545703
 21
2.798224945
  0
LINE
  5
465
100
AcDbEntity
  8
ASSI
100
AcDbLine
 62
7
  6
CONTINUOUS
 10
-12.9771545703
 20
3.298224945
 11
-13.4771545703
 21
2.798224945
  0
LINE
  5
466
100
AcDbEntity
  8
DRAFT
100
AcDbLine
 62
7
  6
CONTINUOUS
 10
-11.1224321568
 20
-33.0564974685
 11
-11.2227911364
 21
-32.9561384889
  0
LINE
  5
467
100
AcDbEntity
  8
DRAFT
100
AcDbLine
 62
7
  6
CONTINUOUS
 10
-11.1224321568
 20
-32.7564974685
 11
-11.2227911364
 21
-32.6561384889
  0
LINE
  5
468
100
AcDbEntity
  8
CURVE
100
AcDbLine
 62
7
  6
CONTINUOUS
 10
-23.6021545703
 20
-3.569331055
 11
-23.6021545703
 21
-2.108831055
  0
LINE
  5
469
100
AcDbEntity
  8
ASSI
100
AcDbLine
 62
253
  6
CONTINUOUS
 10
-23.4271545703
 20
-31.551775055
 11
-23.4271545703
 21
-31.1648653567
  0
LINE
  5
46A
100
AcDbEntity
  8
CURVE
100
AcDbLine
 62
7
  6
CONTINUOUS
 10
-22.8521545703
 20
-2.108831055
 11
-22.8521545703
 21
-3.569331055
  0
LINE
  5
46B
100
AcDbEntity
  8
ASSI
100
AcDbLine
 62
7
  6
CONTINUOUS
 10
-22.4271545703
 20
-31.551775055
 11
-22.4271545703
 21
-31.1648653567
  0
LINE
  5
46C
100
AcDbEntity
  8
0
100
AcDbLine
 62
7
  6
CONTINUOUS
 10
-22.1771545703
 20
11.048224945
 11
-22.1771545703
 21
10.4161698922
  0
LINE
  5
46D
100
AcDbEntity
  8
0
100
AcDbLine
 62
7
  6
CONTINUOUS
 10
-22.1771545703
 20
9.9802799978
 11
-22.1771545703
 21
9.448224945
  0
LINE
  5
46E
100
AcDbEntity
  8
0
100
AcDbLine
 62
7
  6
CONTINUOUS
 10
-22.1771545703
 20
-35.351775055
 11
-22.1771545703
 21
-35.8838301078
  0
LINE
  5
46F
100
AcDbEntity
  8
0
100
AcDbLine
 62
7
  6
CONTINUOUS
 10
-22.1771545703
 20
-36.3197200022
 11
-22.1771545703
 21
-36.951775055
  0
LINE
  5
470
100
AcDbEntity
  8
0
100
AcDbLine
 62
7
  6
CONTINUOUS
 10
-22.1332323233
 20
-36.905667328
 11
-22.1332323233
 21
-35.3078528079
  0
LINE
  5
471
100
AcDbEntity
  8
0
100
AcDbLine
 62
7
  6
CONTINUOUS
 10
-22.1332323233
 20
9.404302698
 11
-22.1332323233
 21
11.0021172181
  0
LINE
  5
472
100
AcDbEntity
  8
RACCORDO
100
AcDbLine
 62
7
  6
CONTINUOUS
 10
-21.740244872
 20
6.3613266698
 11
-21.740244872
 21
5.5613038236
  0
LINE
  5
473
100
AcDbEntity
  8
ASSI
100
AcDbLine
 62
7
  6
CONTINUOUS
 10
-21.740244872
 20
6.3613266698
 11
-21.740244872
 21
5.5613038236
  0
LINE
  5
474
100
AcDbEntity
  8
RACCORDO
100
AcDbLine
 62
7
  6
CONTINUOUS
 10
-21.740244872
 20
-32.2648767798
 11
-21.740244872
 21
-31.1648653567
  0
LINE
  5
475
100
AcDbEntity
  8
ASSI
100
AcDbLine
 62
7
  6
CONTINUOUS
 10
-21.740244872
 20
-32.2648767798
 11
-21.740244872
 21
-31.1648653567
  0
LWPOLYLINE
  5
476
100
AcDbEntity
  8
0
100
AcDbPolyline
 62
7
  6
CONTINUOUS
 90
5
 70
0
 10
-9.9094678625
 20
8.7456142072
 10
-9.9361167139
 20
8.7062168957
 10
-9.9631240466
 20
8.6664841466
 10
-9.9904898607
 20
8.6264940661
 10
-10.0182772648
 20
8.5863629055
  0
LWPOLYLINE
  5
477
100
AcDbEntity
  8
0
100
AcDbPolyline
 62
7
  6
CONTINUOUS
 90
4
 70
0
 10
-10.0182772648
 20
8.5863629055
 10
-10.1031592776
 20
8.4652215018
 10
-10.1317495193
 20
8.4246908194
 10
-10.1605089161
 20
8.3842118937
  0
LWPOLYLINE
  5
478
100
AcDbEntity
  8
0
100
AcDbPolyline
 62
7
  6
CONTINUOUS
 90
3
 70
0
 10
-10.1605089161
 20
-34.2877620036
 10
-10.1317495193
 20
-34.3282409294
 10
-10.1031592776
 20
-34.3687716118
  0
LWPOLYLINE
  5
479
100
AcDbEntity
  8
0
100
AcDbPolyline
 62
7
  6
CONTINUOUS
 90
6
 70
0
 10
-10.1031592776
 20
-34.3687716118
 10
-10.0182772648
 20
-34.4899130155
 10
-9.9904898607
 20
-34.5300441761
 10
-9.9631240466
 20
-34.5700342566
 10
-9.9361167139
 20
-34.6097670057
 10
-9.9094678625
 20
-34.6491643172
  0
LINE
  5
47A
100
AcDbEntity
  8
DRAFT
100
AcDbLine
 62
7
  6
CONTINUOUS
 10
-21.2276952937
 20
7.1101857063
 11
-21.2273080049
 21
7.0658068106
  0
LINE
  5
47B
100
AcDbEntity
  8
0
100
AcDbLine
 62
7
  6
CONTINUOUS
 10
-21.2477090335
 20
9.403533129
 11
-21.2620122866
 21
11.0425236
  0
LINE
  5
47C
100
AcDbEntity
  8
0
100
AcDbLine
 62
7
  6
CONTINUOUS
 10
-20.7193003893
 20
7.848224945
 11
-20.7328578951
 21
9.4017612353
  0
LINE
  5
47D
100
AcDbEntity
  8
0
100
AcDbLine
 62
7
  6
CONTINUOUS
 10
-21.2271545703
 20
-32.851775055
 11
-21.2271545703
 21
-32.651775055
  0
LINE
  5
47E
100
AcDbEntity
  8
DRAFT
100
AcDbLine
 62
7
  6
CONTINUOUS
 10
-21.2271545703
 20
-32.851775055
 11
-21.2271545703
 21
-32.651775055
  0
LINE
  5
47F
100
AcDbEntity
  8
0
100
AcDbLine
 62
7
  6
CONTINUOUS
 10
-21.2271545703
 20
6.748224945
 11
-21.2271545703
 21
6.948224945
  0
LINE
  5
480
100
AcDbEntity
  8
DRAFT
100
AcDbLine
 62
7
  6
CONTINUOUS
 10
-21.2271545703
 20
6.748224945
 11
-21.2271545703
 21
6.948224945
  0
LINE
  5
481
100
AcDbEntity
  8
0
100
AcDbLine
 62
7
  6
CONTINUOUS
 10
-21.190498934
 20
-32.8151194186
 11
-21.190498934
 21
-32.6151194186
  0
LINE
  5
482
100
AcDbEntity
  8
DRAFT
100
AcDbLine
 62
7
  6
CONTINUOUS
 10
-21.190498934
 20
-32.8151194186
 11
-21.190498934
 21
-32.6151194186
  0
LINE
  5
483
100
AcDbEntity
  8
0
100
AcDbLine
 62
7
  6
CONTINUOUS
 10
-21.190498934
 20
6.7115693087
 11
-21.190498934
 21
6.9115693087
  0
LINE
  5
484
100
AcDbEntity
  8
DRAFT
100
AcDbLine
 62
7
  6
CONTINUOUS
 10
-21.190498934
 20
6.7115693087
 11
-21.190498934
 21
6.9115693087
  0
LINE
  5
485
100
AcDbEntity
  8
0
100
AcDbLine
 62
7
  6
CONTINUOUS
 10
-20.2271545703
 20
-31.251775055
 11
-20.2271545703
 21
-29.551775055
  0
LINE
  5
486
100
AcDbEntity
  8
ASSI
100
AcDbLine
 62
7
  6
CONTINUOUS
 10
-20.2271545703
 20
-31.251775055
 11
-20.2271545703
 21
-29.551775055
  0
LINE
  5
487
100
AcDbEntity
  8
0
100
AcDbLine
 62
7
  6
CONTINUOUS
 10
-20.2271545703
 20
3.648224945
 11
-20.2271545703
 21
5.348224945
  0
LINE
  5
488
100
AcDbEntity
  8
ASSI
100
AcDbLine
 62
7
  6
CONTINUOUS
 10
-20.2271545703
 20
3.648224945
 11
-20.2271545703
 21
5.348224945
  0
LINE
  5
489
100
AcDbEntity
  8
0
100
AcDbLine
 62
253
  6
CONTINUOUS
 10
-19.8736011797
 20
5.2807649617
 11
-19.8736011797
 21
5.348224945
  0
LINE
  5
48A
100
AcDbEntity
  8
RACCORDO
100
AcDbLine
 62
253
  6
CONTINUOUS
 10
-19.8736011797
 20
5.2807649617
 11
-19.8736011797
 21
5.348224945
  0
LINE
  5
48B
100
AcDbEntity
  8
0
100
AcDbLine
 62
7
  6
CONTINUOUS
 10
-19.8271545703
 20
5.248224945
 11
-19.8271545703
 21
5.280406147
  0
LINE
  5
48C
100
AcDbEntity
  8
0
100
AcDbLine
 62
7
  6
CONTINUOUS
 10
-19.7271545703
 20
5.248224945
 11
-19.7271545703
 21
5.2812735339
  0
LINE
  5
48D
100
AcDbEntity
  8
RACCORDO
100
AcDbLine
 62
7
  6
CONTINUOUS
 10
-19.7271545703
 20
5.248224945
 11
-19.7271545703
 21
5.2812735339
  0
LINE
  5
48E
100
AcDbEntity
  8
DRAFT
100
AcDbLine
 62
7
  6
CONTINUOUS
 10
-21.2276952937
 20
-33.0137358163
 11
-21.2273080049
 21
-32.9693569205
  0
LINE
  5
48F
100
AcDbEntity
  8
0
100
AcDbLine
 62
7
  6
CONTINUOUS
 10
-21.2477090335
 20
-35.307083239
 11
-21.2620122866
 21
-36.94607371
  0
LINE
  5
490
100
AcDbEntity
  8
0
100
AcDbLine
 62
7
  6
CONTINUOUS
 10
-20.7193003893
 20
-33.751775055
 11
-20.7328578951
 21
-35.3053113453
  0
LWPOLYLINE
  5
491
100
AcDbEntity
  8
0
100
AcDbPolyline
 62
253
  6
CONTINUOUS
 90
5
 70
0
 10
-15.7316072084
 20
4.552166227
 10
-15.7449081246
 20
4.5072878509
 10
-15.7667693948
 20
4.4649596146
 10
-15.7966946353
 20
4.4264385233
 10
-15.8338323796
 20
4.3930391159
  0
LWPOLYLINE
  5
492
100
AcDbEntity
  8
RACCORDO
100
AcDbPolyline
 62
253
  6
CONTINUOUS
 90
5
 70
0
 10
-15.7316072084
 20
4.552166227
 10
-15.7449081246
 20
4.5072878509
 10
-15.7667693948
 20
4.4649596146
 10
-15.7966946353
 20
4.4264385233
 10
-15.8338323796
 20
4.3930391159
  0
LINE
  5
493
100
AcDbEntity
  8
0
100
AcDbLine
 62
7
  6
CONTINUOUS
 10
-15.7365822227
 20
5.2798424435
 11
-15.7461510863
 21
5.248224945
  0
LINE
  5
494
100
AcDbEntity
  8
RACCORDO
100
AcDbLine
 62
7
  6
CONTINUOUS
 10
-15.7365822227
 20
5.2798424435
 11
-15.7461510863
 21
5.248224945
  0
LINE
  5
495
100
AcDbEntity
  8
SMUSSO
100
AcDbLine
 62
7
  6
CONTINUOUS
 10
-17.9771545703
 20
-6.201775055
 11
-17.4771545703
 21
-5.701775055
  0
LINE
  5
496
100
AcDbEntity
  8
ASSI
100
AcDbLine
 62
7
  6
CONTINUOUS
 10
-17.9771545703
 20
-6.201775055
 11
-17.4771545703
 21
-5.701775055
  0
LINE
  5
497
100
AcDbEntity
  8
SMUSSO
100
AcDbLine
 62
7
  6
CONTINUOUS
 10
-12.9771545703
 20
-1.701775055
 11
-13.4771545703
 21
-2.201775055
  0
LINE
  5
498
100
AcDbEntity
  8
ASSI
100
AcDbLine
 62
7
  6
CONTINUOUS
 10
-12.9771545703
 20
-1.701775055
 11
-13.4771545703
 21
-2.201775055
  0
LINE
  5
499
100
AcDbEntity
  8
CURVE
100
AcDbLine
 62
253
  6
CONTINUOUS
 10
-8.5414402763
 20
-1.4946321536
 11
-8.3557259823
 21
-1.401775055
  0
LINE
  5
49A
100
AcDbEntity
  8
CURVE
100
AcDbLine
 62
253
  6
CONTINUOUS
 10
-7.612868845
 20
-1.9589179564
 11
-7.7985831196
 21
-2.051775055
  0
LINE
  5
49B
100
AcDbEntity
  8
CURVE
100
AcDbLine
 62
253
  6
CONTINUOUS
 10
-7.4271545703
 20
-2.4232037593
 11
-8.7271545703
 21
-2.7946321536
  0
LWPOLYLINE
  5
49C
100
AcDbEntity
  8
0
100
AcDbPolyline
 62
7
  6
CONTINUOUS
 90
18
 70
0
 10
-10.4592471961
 20
-37.2946935043
 10
-10.4545633425
 20
-37.3056315013
 10
-10.4493643392
 20
-37.3163342426
 10
-10.443661962
 20
-37.3267774833
 10
-10.4374691285
 20
-37.3369375609
 10
-10.4307998658
 20
-37.3467914601
 10
-10.423669281
 20
-37.3563168588
 10
-10.4160935292
 20
-37.3654921741
 10
-10.4080897708
 20
-37.3742966211
 10
-10.3996761364
 20
-37.3827102555
 10
-10.3908716894
 20
-37.3907140139
 10
-10.3816963742
 20
-37.3982897657
 10
-10.3721709755
 20
-37.4054203505
 10
-10.3623170762
 20
-37.4120896131
 10
-10.3521569986
 20
-37.4182824466
 10
-10.3417137579
 20
-37.4239848238
 10
-10.3310110166
 20
-37.4291838272
 10
-10.3200730196
 20
-37.4338676808
  0
LINE
  5
49D
100
AcDbEntity
  8
0
100
AcDbLine
 62
253
  6
CONTINUOUS
 10
-15.7452467841
 20
-30.4100014202
 11
-15.7317122444
 21
-30.4551803595
  0
LINE
  5
49E
100
AcDbEntity
  8
RACCORDO
100
AcDbLine
 62
253
  6
CONTINUOUS
 10
-15.7452467841
 20
-30.4100014202
 11
-15.7317122444
 21
-30.4551803595
  0
LWPOLYLINE
  5
49F
100
AcDbEntity
  8
0
100
AcDbPolyline
 62
7
  6
CONTINUOUS
 90
6
 70
0
 10
-24.9796990962
 20
11.3338073111
 10
-24.9816722026
 20
11.3455412325
 10
-24.9842013886
 20
11.3571679838
 10
-24.9872809286
 20
11.368661224
 10
-24.990903849
 20
11.3799949188
 10
-24.9950619446
 20
11.3911433943
  0
LINE
  5
4A0
100
AcDbEntity
  8
0
100
AcDbLine
 62
253
  6
CONTINUOUS
 10
-19.2281089967
 20
-33.0213968068
 11
-19.2286788052
 21
-32.8362617346
  0
LINE
  5
4A1
100
AcDbEntity
  8
RACCORDO
100
AcDbLine
 62
7
  6
CONTINUOUS
 10
-19.7097438811
 20
-31.251775055
 11
-19.7097438811
 21
-31.151775055
  0
LINE
  5
4A2
100
AcDbEntity
  8
ASSI
100
AcDbLine
 62
7
  6
CONTINUOUS
 10
-19.7097438811
 20
-31.251775055
 11
-19.7097438811
 21
-31.151775055
  0
LINE
  5
4A3
100
AcDbEntity
  8
RACCORDO
100
AcDbLine
 62
7
  6
CONTINUOUS
 10
-19.6311590246
 20
5.248224945
 11
-19.6311590246
 21
5.348224945
  0
LINE
  5
4A4
100
AcDbEntity
  8
ASSI
100
AcDbLine
 62
7
  6
CONTINUOUS
 10
-19.6311590246
 20
5.248224945
 11
-19.6311590246
 21
5.348224945
  0
LINE
  5
4A5
100
AcDbEntity
  8
0
100
AcDbLine
 62
253
  6
CONTINUOUS
 10
-19.4271545703
 20
-30.251775055
 11
-19.4271545703
 21
-30.201775055
  0
LINE
  5
4A6
100
AcDbEntity
  8
RACCORDO
100
AcDbLine
 62
253
  6
CONTINUOUS
 10
-19.4271545703
 20
-30.251775055
 11
-19.4271545703
 21
-30.201775055
  0
LINE
  5
4A7
100
AcDbEntity
  8
0
100
AcDbLine
 62
253
  6
CONTINUOUS
 10
-19.4271545703
 20
4.298224945
 11
-19.4271545703
 21
4.3641928634
  0
LINE
  5
4A8
100
AcDbEntity
  8
RACCORDO
100
AcDbLine
 62
253
  6
CONTINUOUS
 10
-19.4271545703
 20
4.298224945
 11
-19.4271545703
 21
4.3641928634
  0
LINE
  5
4A9
100
AcDbEntity
  8
0
100
AcDbLine
 62
7
  6
CONTINUOUS
 10
-18.7358285237
 20
-35.3465707675
 11
-18.7357219403
 21
-36.7460703248
  0
LINE
  5
4AA
100
AcDbEntity
  8
0
100
AcDbLine
 62
7
  6
CONTINUOUS
 10
-18.7271545703
 20
10.8482317142
 11
-18.7271545703
 21
9.448224945
  0
LINE
  5
4AB
100
AcDbEntity
  8
0
100
AcDbLine
 62
7
  6
CONTINUOUS
 10
-18.7271545703
 20
-35.351775055
 11
-18.7271545703
 21
-36.7517818242
  0
LINE
  5
4AC
100
AcDbEntity
  8
SMUSSO
100
AcDbLine
 62
7
  6
CONTINUOUS
 10
-17.9771545703
 20
-16.451775055
 11
-17.9771545703
 21
-11.451775055
  0
LINE
  5
4AD
100
AcDbEntity
  8
ASSI
100
AcDbLine
 62
7
  6
CONTINUOUS
 10
-17.9771545703
 20
-16.451775055
 11
-17.9771545703
 21
-11.451775055
  0
LINE
  5
4AE
100
AcDbEntity
  8
SMUSSO
100
AcDbLine
 62
7
  6
CONTINUOUS
 10
-17.9771545703
 20
-11.201775055
 11
-17.9771545703
 21
-6.701775055
  0
LINE
  5
4AF
100
AcDbEntity
  8
ASSI
100
AcDbLine
 62
7
  6
CONTINUOUS
 10
-17.9771545703
 20
-11.201775055
 11
-17.9771545703
 21
-6.701775055
  0
LINE
  5
4B0
100
AcDbEntity
  8
SMUSSO
100
AcDbLine
 62
7
  6
CONTINUOUS
 10
-17.9771545703
 20
-6.201775055
 11
-17.9771545703
 21
-1.701775055
  0
LINE
  5
4B1
100
AcDbEntity
  8
ASSI
100
AcDbLine
 62
7
  6
CONTINUOUS
 10
-17.9771545703
 20
-6.201775055
 11
-17.9771545703
 21
-1.701775055
  0
LINE
  5
4B2
100
AcDbEntity
  8
SMUSSO
100
AcDbLine
 62
7
  6
CONTINUOUS
 10
-17.9771545703
 20
-1.201775055
 11
-17.9771545703
 21
3.298224945
  0
LINE
  5
4B3
100
AcDbEntity
  8
ASSI
100
AcDbLine
 62
7
  6
CONTINUOUS
 10
-17.9771545703
 20
-1.201775055
 11
-17.9771545703
 21
3.298224945
  0
LINE
  5
4B4
100
AcDbEntity
  8
0
100
AcDbLine
 62
7
  6
CONTINUOUS
 10
-18.7358285237
 20
9.4430206575
 11
-18.7357219403
 21
10.8425202148
  0
LINE
  5
4B5
100
AcDbEntity
  8
0
100
AcDbLine
 62
253
  6
CONTINUOUS
 10
-19.2286788052
 20
6.9327116246
 11
-19.2281089967
 21
7.1178466968
  0
LWPOLYLINE
  5
4B6
100
AcDbEntity
  8
0
100
AcDbPolyline
 62
7
  6
CONTINUOUS
 90
17
 70
0
 10
-13.3210768174
 20
11.0021172181
 10
-13.3214129698
 20
11.0004011921
 10
-13.3222505062
 20
10.9982049119
 10
-13.3235942055
 20
10.9955283776
 10
-13.3254477555
 20
10.9923774884
 10
-13.3278150623
 20
10.988746345
 10
-13.330701495
 20
10.9846172497
 10
-13.3341087481
 20
10.979993131
 10
-13.3380410458
 20
10.9748710603
 10
-13.3425111396
 20
10.9692245539
 10
-13.3475181639
 20
10.9630651855
 10
-13.3530709452
 20
10.9563813814
 10
-13.3592074626
 20
10.9491119364
 10
-13.3659425152
 20
10.9412584757
 10
-13.3732825861
 20
10.9328193742
 10
-13.3812657574
 20
10.9237285516
 10
-13.3899109428
 20
10.913981043
  0
LWPOLYLINE
  5
4B7
100
AcDbEntity
  8
0
100
AcDbPolyline
 62
7
  6
CONTINUOUS
 90
9
 70
0
 10
-10.4592471961
 20
11.3911433943
 10
-10.4634052917
 20
11.3799949188
 10
-10.467028212
 20
11.368661224
 10
-10.4701077521
 20
11.3571679838
 10
-10.4726369381
 20
11.3455412325
 10
-10.4746100445
 20
11.3338073111
 10
-10.4760226046
 20
11.3219928006
 10
-10.4768714201
 20
11.310124461
 10
-10.4771545703
 20
11.2982291758
  0
LINE
  5
4B8
100
AcDbEntity
  8
CURVE
100
AcDbLine
 62
253
  6
CONTINUOUS
 10
-7.612868845
 20
-0.101775055
 11
-7.4271545703
 21
0.0839392197
  0
LINE
  5
4B9
100
AcDbEntity
  8
CURVE
100
AcDbLine
 62
253
  6
CONTINUOUS
 10
-8.1700117077
 20
-1.0303465057
 11
-7.9842973943
 21
-0.8446321536
  0
LINE
  5
4BA
100
AcDbEntity
  8
CURVE
100
AcDbLine
 62
253
  6
CONTINUOUS
 10
-7.612868845
 20
-0.9993940879
 11
-7.4271545703
 21
-0.8446321536
  0
LINE
  5
4BB
100
AcDbEntity
  8
0
100
AcDbLine
 62
253
  6
CONTINUOUS
 10
-16.226200144
 20
7.1178466968
 11
-16.2256303355
 21
6.9327116246
  0
LINE
  5
4BC
100
AcDbEntity
  8
SMUSSO
100
AcDbLine
 62
7
  6
CONTINUOUS
 10
-17.4771545703
 20
-15.951775055
 11
-17.4771545703
 21
-11.951775055
  0
LINE
  5
4BD
100
AcDbEntity
  8
ASSI
100
AcDbLine
 62
7
  6
CONTINUOUS
 10
-17.4771545703
 20
-15.951775055
 11
-17.4771545703
 21
-11.951775055
  0
LINE
  5
4BE
100
AcDbEntity
  8
SMUSSO
100
AcDbLine
 62
7
  6
CONTINUOUS
 10
-17.4771545703
 20
-10.701775055
 11
-17.4771545703
 21
-7.201775055
  0
LINE
  5
4BF
100
AcDbEntity
  8
ASSI
100
AcDbLine
 62
7
  6
CONTINUOUS
 10
-17.4771545703
 20
-10.701775055
 11
-17.4771545703
 21
-7.201775055
  0
LINE
  5
4C0
100
AcDbEntity
  8
SMUSSO
100
AcDbLine
 62
7
  6
CONTINUOUS
 10
-17.4771545703
 20
-5.701775055
 11
-17.4771545703
 21
-2.201775055
  0
LINE
  5
4C1
100
AcDbEntity
  8
ASSI
100
AcDbLine
 62
7
  6
CONTINUOUS
 10
-17.4771545703
 20
-5.701775055
 11
-17.4771545703
 21
-2.201775055
  0
LINE
  5
4C2
100
AcDbEntity
  8
SMUSSO
100
AcDbLine
 62
7
  6
CONTINUOUS
 10
-17.4771545703
 20
-0.701775055
 11
-17.4771545703
 21
2.798224945
  0
LINE
  5
4C3
100
AcDbEntity
  8
ASSI
100
AcDbLine
 62
7
  6
CONTINUOUS
 10
-17.4771545703
 20
-0.701775055
 11
-17.4771545703
 21
2.798224945
  0
LINE
  5
4C4
100
AcDbEntity
  8
0
100
AcDbLine
 62
7
  6
CONTINUOUS
 10
-17.1271545703
 20
2.548224945
 11
-17.1271545703
 21
-0.451775055
  0
LINE
  5
4C5
100
AcDbEntity
  8
0
100
AcDbLine
 62
7
  6
CONTINUOUS
 10
-17.1271545703
 20
-2.451775055
 11
-17.1271545703
 21
-5.451775055
  0
LINE
  5
4C6
100
AcDbEntity
  8
0
100
AcDbLine
 62
7
  6
CONTINUOUS
 10
-17.1271545703
 20
-7.451775055
 11
-17.1271545703
 21
-10.451775055
  0
LINE
  5
4C7
100
AcDbEntity
  8
0
100
AcDbLine
 62
7
  6
CONTINUOUS
 10
-17.1271545703
 20
-12.451775055
 11
-17.1271545703
 21
-15.451775055
  0
LINE
  5
4C8
100
AcDbEntity
  8
0
100
AcDbLine
 62
7
  6
CONTINUOUS
 10
-16.7271545703
 20
10.8482317142
 11
-16.7271545703
 21
9.448224945
  0
LINE
  5
4C9
100
AcDbEntity
  8
0
100
AcDbLine
 62
7
  6
CONTINUOUS
 10
-16.7271545703
 20
-35.351775055
 11
-16.7271545703
 21
-36.7517818242
  0
LINE
  5
4CA
100
AcDbEntity
  8
0
100
AcDbLine
 62
7
  6
CONTINUOUS
 10
-16.7184806169
 20
9.4430206575
 11
-16.7185872003
 21
10.8425202148
  0
LINE
  5
4CB
100
AcDbEntity
  8
0
100
AcDbLine
 62
253
  6
CONTINUOUS
 10
-16.0271545703
 20
4.3641928634
 11
-16.0271545703
 21
4.298224945
  0
LINE
  5
4CC
100
AcDbEntity
  8
RACCORDO
100
AcDbLine
 62
253
  6
CONTINUOUS
 10
-16.0271545703
 20
4.3641928634
 11
-16.0271545703
 21
4.298224945
  0
LINE
  5
4CD
100
AcDbEntity
  8
0
100
AcDbLine
 62
253
  6
CONTINUOUS
 10
-16.0271545703
 20
-30.201775055
 11
-16.0271545703
 21
-30.251775055
  0
LINE
  5
4CE
100
AcDbEntity
  8
RACCORDO
100
AcDbLine
 62
253
  6
CONTINUOUS
 10
-16.0271545703
 20
-30.201775055
 11
-16.0271545703
 21
-30.251775055
  0
LINE
  5
4CF
100
AcDbEntity
  8
RACCORDO
100
AcDbLine
 62
7
  6
CONTINUOUS
 10
-15.823150116
 20
5.248224945
 11
-15.823150116
 21
5.348224945
  0
LINE
  5
4D0
100
AcDbEntity
  8
ASSI
100
AcDbLine
 62
7
  6
CONTINUOUS
 10
-15.823150116
 20
5.248224945
 11
-15.823150116
 21
5.348224945
  0
LINE
  5
4D1
100
AcDbEntity
  8
0
100
AcDbLine
 62
7
  6
CONTINUOUS
 10
-16.7184806169
 20
-35.3465707675
 11
-16.7185872003
 21
-36.7460703248
  0
LINE
  5
4D2
100
AcDbEntity
  8
0
100
AcDbLine
 62
253
  6
CONTINUOUS
 10
-16.2256303355
 20
-32.8362617346
 11
-16.226200144
 21
-33.0213968068
  0
LWPOLYLINE
  5
4D3
100
AcDbEntity
  8
0
100
AcDbPolyline
 62
7
  6
CONTINUOUS
 90
17
 70
0
 10
-22.1332323233
 20
-36.905667328
 10
-22.132896342
 20
-36.9039508738
 10
-22.1320597317
 20
-36.901756668
 10
-22.1307183542
 20
-36.8990847105
 10
-22.1288694028
 20
-36.8959409594
 10
-22.1265094825
 20
-36.8923194566
 10
-22.123632789
 20
-36.8882023283
 10
-22.1202382045
 20
-36.8835940918
 10
-22.1163212675
 20
-36.8784902298
 10
-22.1118659501
 20
-36.8728593161
 10
-22.1068703551
 20
-36.866711358
 10
-22.1013260842
 20
-36.8600363483
 10
-22.0951960194
 20
-36.852772839
 10
-22.0884647875
 20
-36.8449218481
 10
-22.0811253899
 20
-36.8364823577
 10
-22.0731415895
 20
-36.8273898661
 10
-22.0644944905
 20
-36.817638959
  0
LINE
  5
4D4
100
AcDbEntity
  8
CURVE
100
AcDbLine
 62
253
  6
CONTINUOUS
 10
-8.7271545703
 20
-1.6803465057
 11
-8.5414402763
 21
-1.4946321536
  0
LINE
  5
4D5
100
AcDbEntity
  8
SMUSSO
100
AcDbLine
 62
7
  6
CONTINUOUS
 10
-17.9771545703
 20
-11.201775055
 11
-17.4771545703
 21
-10.701775055
  0
LINE
  5
4D6
100
AcDbEntity
  8
ASSI
100
AcDbLine
 62
7
  6
CONTINUOUS
 10
-17.9771545703
 20
-11.201775055
 11
-17.4771545703
 21
-10.701775055
  0
LINE
  5
4D7
100
AcDbEntity
  8
SMUSSO
100
AcDbLine
 62
7
  6
CONTINUOUS
 10
-12.9771545703
 20
-6.701775055
 11
-13.4771545703
 21
-7.201775055
  0
LINE
  5
4D8
100
AcDbEntity
  8
ASSI
100
AcDbLine
 62
7
  6
CONTINUOUS
 10
-12.9771545703
 20
-6.701775055
 11
-13.4771545703
 21
-7.201775055
  0
LINE
  5
4D9
100
AcDbEntity
  8
CURVE
100
AcDbLine
 62
253
  6
CONTINUOUS
 10
-9.8271545703
 20
-4.1303464997
 11
-10.0985831256
 21
-4.401775055
  0
LINE
  5
4DA
100
AcDbEntity
  8
CURVE
100
AcDbLine
 62
253
  6
CONTINUOUS
 10
-7.4271545703
 20
-1.7732036043
 11
-7.612868845
 21
-1.9589179564
  0
LINE
  5
4DB
100
AcDbEntity
  8
0
100
AcDbLine
 62
7
  6
CONTINUOUS
 10
-14.7350087513
 20
-33.751775055
 11
-14.7214512455
 21
-35.3053113453
  0
LINE
  5
4DC
100
AcDbEntity
  8
DRAFT
100
AcDbLine
 62
7
  6
CONTINUOUS
 10
-14.2270011357
 20
-32.9693569205
 11
-14.226613847
 21
-33.0137358163
  0
LINE
  5
4DD
100
AcDbEntity
  8
0
100
AcDbLine
 62
7
  6
CONTINUOUS
 10
-14.2066001072
 20
-35.307083239
 11
-14.1922968541
 21
-36.94607371
  0
LINE
  5
4DE
100
AcDbEntity
  8
RACCORDO
100
AcDbLine
 62
7
  6
CONTINUOUS
 10
-15.7445652596
 20
-31.251775055
 11
-15.7445652596
 21
-31.151775055
  0
LINE
  5
4DF
100
AcDbEntity
  8
ASSI
100
AcDbLine
 62
7
  6
CONTINUOUS
 10
-15.7445652596
 20
-31.251775055
 11
-15.7445652596
 21
-31.151775055
  0
LINE
  5
4E0
100
AcDbEntity
  8
0
100
AcDbLine
 62
7
  6
CONTINUOUS
 10
-15.7271545703
 20
5.2812735339
 11
-15.7271545703
 21
5.248224945
  0
LINE
  5
4E1
100
AcDbEntity
  8
RACCORDO
100
AcDbLine
 62
7
  6
CONTINUOUS
 10
-15.7271545703
 20
5.2812735339
 11
-15.7271545703
 21
5.248224945
  0
LINE
  5
4E2
100
AcDbEntity
  8
0
100
AcDbLine
 62
7
  6
CONTINUOUS
 10
-15.6271545703
 20
5.248224945
 11
-15.6271545703
 21
5.280406147
  0
LINE
  5
4E3
100
AcDbEntity
  8
0
100
AcDbLine
 62
253
  6
CONTINUOUS
 10
-15.5807079609
 20
5.348224945
 11
-15.5807079609
 21
5.2807649617
  0
LINE
  5
4E4
100
AcDbEntity
  8
RACCORDO
100
AcDbLine
 62
253
  6
CONTINUOUS
 10
-15.5807079609
 20
5.348224945
 11
-15.5807079609
 21
5.2807649617
  0
LINE
  5
4E5
100
AcDbEntity
  8
0
100
AcDbLine
 62
7
  6
CONTINUOUS
 10
-15.2271545703
 20
5.348224945
 11
-15.2271545703
 21
3.648224945
  0
LINE
  5
4E6
100
AcDbEntity
  8
ASSI
100
AcDbLine
 62
7
  6
CONTINUOUS
 10
-15.2271545703
 20
5.348224945
 11
-15.2271545703
 21
3.648224945
  0
LINE
  5
4E7
100
AcDbEntity
  8
0
100
AcDbLine
 62
7
  6
CONTINUOUS
 10
-15.2271545703
 20
-29.551775055
 11
-15.2271545703
 21
-31.251775055
  0
LINE
  5
4E8
100
AcDbEntity
  8
ASSI
100
AcDbLine
 62
7
  6
CONTINUOUS
 10
-15.2271545703
 20
-29.551775055
 11
-15.2271545703
 21
-31.251775055
  0
LINE
  5
4E9
100
AcDbEntity
  8
0
100
AcDbLine
 62
7
  6
CONTINUOUS
 10
-14.2638102067
 20
-32.8151194186
 11
-14.2638102067
 21
-32.6151194186
  0
LINE
  5
4EA
100
AcDbEntity
  8
DRAFT
100
AcDbLine
 62
7
  6
CONTINUOUS
 10
-14.2638102067
 20
-32.8151194186
 11
-14.2638102067
 21
-32.6151194186
  0
LINE
  5
4EB
100
AcDbEntity
  8
0
100
AcDbLine
 62
7
  6
CONTINUOUS
 10
-14.2638102067
 20
6.7115693087
 11
-14.2638102067
 21
6.9115693087
  0
LINE
  5
4EC
100
AcDbEntity
  8
DRAFT
100
AcDbLine
 62
7
  6
CONTINUOUS
 10
-14.2638102067
 20
6.7115693087
 11
-14.2638102067
 21
6.9115693087
  0
LINE
  5
4ED
100
AcDbEntity
  8
0
100
AcDbLine
 62
7
  6
CONTINUOUS
 10
-14.2271545703
 20
-32.851775055
 11
-14.2271545703
 21
-32.651775055
  0
LINE
  5
4EE
100
AcDbEntity
  8
DRAFT
100
AcDbLine
 62
7
  6
CONTINUOUS
 10
-14.2271545703
 20
-32.851775055
 11
-14.2271545703
 21
-32.651775055
  0
LINE
  5
4EF
100
AcDbEntity
  8
0
100
AcDbLine
 62
7
  6
CONTINUOUS
 10
-14.2271545703
 20
6.748224945
 11
-14.2271545703
 21
6.948224945
  0
LINE
  5
4F0
100
AcDbEntity
  8
DRAFT
100
AcDbLine
 62
7
  6
CONTINUOUS
 10
-14.2271545703
 20
6.748224945
 11
-14.2271545703
 21
6.948224945
  0
LINE
  5
4F1
100
AcDbEntity
  8
0
100
AcDbLine
 62
7
  6
CONTINUOUS
 10
-14.1871545703
 20
-15.951775055
 11
-14.1871545703
 21
-11.951775055
  0
LINE
  5
4F2
100
AcDbEntity
  8
0
100
AcDbLine
 62
7
  6
CONTINUOUS
 10
-14.1871545703
 20
-10.701775055
 11
-14.1871545703
 21
-7.201775055
  0
LINE
  5
4F3
100
AcDbEntity
  8
0
100
AcDbLine
 62
7
  6
CONTINUOUS
 10
-14.1871545703
 20
-5.701775055
 11
-14.1871545703
 21
-2.201775055
  0
LINE
  5
4F4
100
AcDbEntity
  8
0
100
AcDbLine
 62
7
  6
CONTINUOUS
 10
-14.1871545703
 20
-0.701775055
 11
-14.1871545703
 21
2.798224945
  0
LINE
  5
4F5
100
AcDbEntity
  8
0
100
AcDbLine
 62
7
  6
CONTINUOUS
 10
-14.7350087513
 20
7.848224945
 11
-14.7214512455
 21
9.4017612353
  0
LINE
  5
4F6
100
AcDbEntity
  8
DRAFT
100
AcDbLine
 62
7
  6
CONTINUOUS
 10
-14.2270011357
 20
7.0658068106
 11
-14.226613847
 21
7.1101857063
  0
LINE
  5
4F7
100
AcDbEntity
  8
0
100
AcDbLine
 62
7
  6
CONTINUOUS
 10
-14.2066001072
 20
9.403533129
 11
-14.1922968541
 21
11.0425236
  0
LINE
  5
4F8
100
AcDbEntity
  8
0
100
AcDbLine
 62
253
  6
CONTINUOUS
 10
-19.7215338271
 20
-30.451775055
 11
-19.7094010161
 21
-30.4108379609
  0
LINE
  5
4F9
100
AcDbEntity
  8
RACCORDO
100
AcDbLine
 62
253
  6
CONTINUOUS
 10
-19.7215338271
 20
-30.451775055
 11
-19.7094010161
 21
-30.4108379609
  0
LWPOLYLINE
  5
4FA
100
AcDbEntity
  8
0
100
AcDbPolyline
 62
7
  6
CONTINUOUS
 90
9
 70
0
 10
-24.9950619446
 20
-37.2946935043
 10
-24.990903849
 20
-37.2835450288
 10
-24.9872809286
 20
-37.272211334
 10
-24.9842013886
 20
-37.2607180938
 10
-24.9816722026
 20
-37.2490913425
 10
-24.9796990962
 20
-37.2373574211
 10
-24.9782865361
 20
-37.2255429106
 10
-24.9774377206
 20
-37.213674571
 10
-24.9771545703
 20
-37.2017792858
  0
LINE
  5
4FB
100
AcDbEntity
  8
CURVE
100
AcDbLine
 62
253
  6
CONTINUOUS
 10
-8.2319164659
 20
-3.7541560221
 11
-8.4176307599
 21
-4.001775055
  0
LINE
  5
4FC
100
AcDbEntity
  8
CURVE
100
AcDbLine
 62
253
  6
CONTINUOUS
 10
-8.5414402763
 20
-7.5922511864
 11
-8.3557259823
 21
-7.4993943978
  0
LINE
  5
4FD
100
AcDbEntity
  8
CURVE
100
AcDbLine
 62
253
  6
CONTINUOUS
 10
-9.8271545703
 20
-8.351775055
 11
-11.7271545703
 21
-9.301775055
  0
LINE
  5
4FE
100
AcDbEntity
  8
CURVE
100
AcDbLine
 62
253
  6
CONTINUOUS
 10
-7.612868845
 20
-8.0565369893
 11
-7.7985831196
 21
-8.1493943978
  0
LINE
  5
4FF
100
AcDbEntity
  8
SMUSSO
100
AcDbLine
 62
7
  6
CONTINUOUS
 10
-12.9771545703
 20
-16.451775055
 11
-17.9771545703
 21
-16.451775055
  0
LINE
  5
500
100
AcDbEntity
  8
ASSI
100
AcDbLine
 62
7
  6
CONTINUOUS
 10
-12.9771545703
 20
-16.451775055
 11
-17.9771545703
 21
-16.451775055
  0
LINE
  5
501
100
AcDbEntity
  8
RACCORDO
100
AcDbLine
 62
7
  6
CONTINUOUS
 10
-28.4402334485
 20
-16.101775055
 11
-27.5271545703
 21
-16.101775055
  0
LINE
  5
502
100
AcDbEntity
  8
ASSI
100
AcDbLine
 62
7
  6
CONTINUOUS
 10
-28.4402334485
 20
-16.101775055
 11
-27.5271545703
 21
-16.101775055
  0
LINE
  5
503
100
AcDbEntity
  8
SMUSSO
100
AcDbLine
 62
7
  6
CONTINUOUS
 10
-13.4771545703
 20
-15.951775055
 11
-17.4771545703
 21
-15.951775055
  0
LINE
  5
504
100
AcDbEntity
  8
ASSI
100
AcDbLine
 62
7
  6
CONTINUOUS
 10
-13.4771545703
 20
-15.951775055
 11
-17.4771545703
 21
-15.951775055
  0
LINE
  5
505
100
AcDbEntity
  8
0
100
AcDbLine
 62
7
  6
CONTINUOUS
 10
-17.1271545703
 20
-15.451775055
 11
-14.1871545703
 21
-15.451775055
  0
LINE
  5
506
100
AcDbEntity
  8
SMUSSO
100
AcDbLine
 62
7
  6
CONTINUOUS
 10
-17.9771545703
 20
-11.451775055
 11
-17.4771545703
 21
-11.951775055
  0
LINE
  5
507
100
AcDbEntity
  8
ASSI
100
AcDbLine
 62
7
  6
CONTINUOUS
 10
-17.9771545703
 20
-11.451775055
 11
-17.4771545703
 21
-11.951775055
  0
LINE
  5
508
100
AcDbEntity
  8
SMUSSO
100
AcDbLine
 62
7
  6
CONTINUOUS
 10
-12.9771545703
 20
-16.451775055
 11
-13.4771545703
 21
-15.951775055
  0
LINE
  5
509
100
AcDbEntity
  8
ASSI
100
AcDbLine
 62
7
  6
CONTINUOUS
 10
-12.9771545703
 20
-16.451775055
 11
-13.4771545703
 21
-15.951775055
  0
LWPOLYLINE
  5
50A
100
AcDbEntity
  8
0
100
AcDbPolyline
 62
7
  6
CONTINUOUS
 90
18
 70
0
 10
-24.9950619446
 20
11.3911433943
 10
-24.9997457982
 20
11.4020813913
 10
-25.0049448015
 20
11.4127841326
 10
-25.0106471787
 20
11.4232273733
 10
-25.0168400122
 20
11.4333874509
 10
-25.0235092749
 20
11.4432413501
 10
-25.0306398596
 20
11.4527667488
 10
-25.0382156115
 20
11.4619420641
 10
-25.0462193698
 20
11.4707465111
 10
-25.0546330042
 20
11.4791601455
 10
-25.0634374513
 20
11.4871639039
 10
-25.0726127665
 20
11.4947396557
 10
-25.0821381652
 20
11.5018702405
 10
-25.0919920644
 20
11.5085395031
 10
-25.1021521421
 20
11.5147323366
 10
-25.1125953827
 20
11.5204347138
 10
-25.123298124
 20
11.5256337172
 10
-25.134236121
 20
11.5303175708
  0
LINE
  5
50B
100
AcDbEntity
  8
0
100
AcDbLine
 62
7
  6
CONTINUOUS
 10
-19.7081659552
 20
5.248224945
 11
-19.7177269179
 21
5.2798424435
  0
LINE
  5
50C
100
AcDbEntity
  8
RACCORDO
100
AcDbLine
 62
7
  6
CONTINUOUS
 10
-19.7081659552
 20
5.248224945
 11
-19.7177269179
 21
5.2798424435
  0
LWPOLYLINE
  5
50D
100
AcDbEntity
  8
0
100
AcDbPolyline
 62
253
  6
CONTINUOUS
 90
5
 70
0
 10
-19.7215338271
 20
4.548224945
 10
-19.7094010161
 20
4.5072878509
 10
-19.6875397459
 20
4.4649596146
 10
-19.6576145054
 20
4.4264385233
 10
-19.620476761
 20
4.3930391159
  0
LWPOLYLINE
  5
50E
100
AcDbEntity
  8
RACCORDO
100
AcDbPolyline
 62
253
  6
CONTINUOUS
 90
5
 70
0
 10
-19.7215338271
 20
4.548224945
 10
-19.7094010161
 20
4.5072878509
 10
-19.6875397459
 20
4.4649596146
 10
-19.6576145054
 20
4.4264385233
 10
-19.620476761
 20
4.3930391159
  0
LWPOLYLINE
  5
50F
100
AcDbEntity
  8
0
100
AcDbPolyline
 62
7
  6
CONTINUOUS
 90
6
 70
0
 10
-10.4746100445
 20
-37.2373574211
 10
-10.4726369381
 20
-37.2490913425
 10
-10.4701077521
 20
-37.2607180938
 10
-10.467028212
 20
-37.272211334
 10
-10.4634052917
 20
-37.2835450288
 10
-10.4592471961
 20
-37.2946935043
  0
LINE
  5
510
100
AcDbEntity
  8
SMUSSO
100
AcDbLine
 62
7
  6
CONTINUOUS
 10
-13.4771545703
 20
2.798224945
 11
-13.4771545703
 21
-0.701775055
  0
LINE
  5
511
100
AcDbEntity
  8
ASSI
100
AcDbLine
 62
7
  6
CONTINUOUS
 10
-13.4771545703
 20
2.798224945
 11
-13.4771545703
 21
-0.701775055
  0
LINE
  5
512
100
AcDbEntity
  8
SMUSSO
100
AcDbLine
 62
7
  6
CONTINUOUS
 10
-13.4771545703
 20
-2.201775055
 11
-13.4771545703
 21
-5.701775055
  0
LINE
  5
513
100
AcDbEntity
  8
ASSI
100
AcDbLine
 62
7
  6
CONTINUOUS
 10
-13.4771545703
 20
-2.201775055
 11
-13.4771545703
 21
-5.701775055
  0
LINE
  5
514
100
AcDbEntity
  8
SMUSSO
100
AcDbLine
 62
7
  6
CONTINUOUS
 10
-13.4771545703
 20
-7.201775055
 11
-13.4771545703
 21
-10.701775055
  0
LINE
  5
515
100
AcDbEntity
  8
ASSI
100
AcDbLine
 62
7
  6
CONTINUOUS
 10
-13.4771545703
 20
-7.201775055
 11
-13.4771545703
 21
-10.701775055
  0
LINE
  5
516
100
AcDbEntity
  8
SMUSSO
100
AcDbLine
 62
7
  6
CONTINUOUS
 10
-13.4771545703
 20
-11.951775055
 11
-13.4771545703
 21
-15.951775055
  0
LINE
  5
517
100
AcDbEntity
  8
ASSI
100
AcDbLine
 62
7
  6
CONTINUOUS
 10
-13.4771545703
 20
-11.951775055
 11
-13.4771545703
 21
-15.951775055
  0
LINE
  5
518
100
AcDbEntity
  8
0
100
AcDbLine
 62
7
  6
CONTINUOUS
 10
-13.3210768174
 20
-36.905667328
 11
-13.3210768174
 21
-35.3078528079
  0
LINE
  5
519
100
AcDbEntity
  8
0
100
AcDbLine
 62
7
  6
CONTINUOUS
 10
-13.3210768174
 20
9.404302698
 11
-13.3210768174
 21
11.0021172181
  0
LINE
  5
51A
100
AcDbEntity
  8
0
100
AcDbLine
 62
7
  6
CONTINUOUS
 10
-13.2771545703
 20
-36.951775055
 11
-13.2771545703
 21
-36.3197200022
  0
LINE
  5
51B
100
AcDbEntity
  8
0
100
AcDbLine
 62
7
  6
CONTINUOUS
 10
-13.2771545703
 20
-35.8838301078
 11
-13.2771545703
 21
-35.351775055
  0
LINE
  5
51C
100
AcDbEntity
  8
0
100
AcDbLine
 62
7
  6
CONTINUOUS
 10
-13.2771545703
 20
9.448224945
 11
-13.2771545703
 21
9.9802799978
  0
LINE
  5
51D
100
AcDbEntity
  8
0
100
AcDbLine
 62
7
  6
CONTINUOUS
 10
-13.2771545703
 20
10.4161698922
 11
-13.2771545703
 21
11.048224945
  0
LINE
  5
51E
100
AcDbEntity
  8
SMUSSO
100
AcDbLine
 62
7
  6
CONTINUOUS
 10
-12.9771545703
 20
3.298224945
 11
-12.9771545703
 21
-1.201775055
  0
LINE
  5
51F
100
AcDbEntity
  8
ASSI
100
AcDbLine
 62
7
  6
CONTINUOUS
 10
-12.9771545703
 20
3.298224945
 11
-12.9771545703
 21
-1.201775055
  0
LINE
  5
520
100
AcDbEntity
  8
SMUSSO
100
AcDbLine
 62
7
  6
CONTINUOUS
 10
-12.9771545703
 20
-1.701775055
 11
-12.9771545703
 21
-6.201775055
  0
LINE
  5
521
100
AcDbEntity
  8
ASSI
100
AcDbLine
 62
7
  6
CONTINUOUS
 10
-12.9771545703
 20
-1.701775055
 11
-12.9771545703
 21
-6.201775055
  0
LINE
  5
522
100
AcDbEntity
  8
SMUSSO
100
AcDbLine
 62
7
  6
CONTINUOUS
 10
-12.9771545703
 20
-6.701775055
 11
-12.9771545703
 21
-11.201775055
  0
LINE
  5
523
100
AcDbEntity
  8
ASSI
100
AcDbLine
 62
7
  6
CONTINUOUS
 10
-12.9771545703
 20
-6.701775055
 11
-12.9771545703
 21
-11.201775055
  0
LINE
  5
524
100
AcDbEntity
  8
SMUSSO
100
AcDbLine
 62
7
  6
CONTINUOUS
 10
-12.9771545703
 20
-11.451775055
 11
-12.9771545703
 21
-16.451775055
  0
LINE
  5
525
100
AcDbEntity
  8
ASSI
100
AcDbLine
 62
7
  6
CONTINUOUS
 10
-12.9771545703
 20
-11.451775055
 11
-12.9771545703
 21
-16.451775055
  0
LINE
  5
526
100
AcDbEntity
  8
SMUSSO
100
AcDbLine
 62
7
  6
CONTINUOUS
 10
-17.9771545703
 20
-16.451775055
 11
-17.4771545703
 21
-15.951775055
  0
LINE
  5
527
100
AcDbEntity
  8
ASSI
100
AcDbLine
 62
7
  6
CONTINUOUS
 10
-17.9771545703
 20
-16.451775055
 11
-17.4771545703
 21
-15.951775055
  0
LINE
  5
528
100
AcDbEntity
  8
SMUSSO
100
AcDbLine
 62
7
  6
CONTINUOUS
 10
-12.9771545703
 20
-11.451775055
 11
-13.4771545703
 21
-11.951775055
  0
LINE
  5
529
100
AcDbEntity
  8
ASSI
100
AcDbLine
 62
7
  6
CONTINUOUS
 10
-12.9771545703
 20
-11.451775055
 11
-13.4771545703
 21
-11.951775055
  0
LINE
  5
52A
100
AcDbEntity
  8
CURVE
100
AcDbLine
 62
253
  6
CONTINUOUS
 10
-8.1700117077
 20
-7.1279653836
 11
-7.9842973943
 21
-6.9422511864
  0
LINE
  5
52B
100
AcDbEntity
  8
CURVE
100
AcDbLine
 62
253
  6
CONTINUOUS
 10
-8.7271545703
 20
-7.7779653836
 11
-8.5414402763
 21
-7.5922511864
  0
LINE
  5
52C
100
AcDbEntity
  8
CURVE
100
AcDbLine
 62
253
  6
CONTINUOUS
 10
-7.4271545703
 20
-7.8708227921
 11
-7.612868845
 21
-8.0565369893
  0
LINE
  5
52D
100
AcDbEntity
  8
CURVE
100
AcDbLine
 62
253
  6
CONTINUOUS
 10
-11.4557259868
 20
-14.401775055
 11
-11.1842974032
 21
-14.401775055
  0
LINE
  5
52E
100
AcDbEntity
  8
CURVE
100
AcDbLine
 62
253
  6
CONTINUOUS
 10
-10.3700116808
 20
-13.451775055
 11
-10.0985831256
 21
-13.451775055
  0
LINE
  5
52F
100
AcDbEntity
  8
CURVE
100
AcDbLine
 62
253
  6
CONTINUOUS
 10
-7.7271545703
 20
-13.139275055
 11
-7.7896545703
 21
-13.139275055
  0
LINE
  5
530
100
AcDbEntity
  8
CURVE
100
AcDbLine
 62
253
  6
CONTINUOUS
 10
-8.6021545703
 20
-12.951775055
 11
-8.7896545703
 21
-12.951775055
  0
LINE
  5
531
100
AcDbEntity
  8
CURVE
100
AcDbLine
 62
253
  6
CONTINUOUS
 10
-11.7271545703
 20
-14.1303464997
 11
-11.4557259868
 21
-14.401775055
  0
LINE
  5
532
100
AcDbEntity
  8
SMUSSO
100
AcDbLine
 62
7
  6
CONTINUOUS
 10
-17.9771545703
 20
-6.701775055
 11
-17.4771545703
 21
-7.201775055
  0
LINE
  5
533
100
AcDbEntity
  8
ASSI
100
AcDbLine
 62
7
  6
CONTINUOUS
 10
-17.9771545703
 20
-6.701775055
 11
-17.4771545703
 21
-7.201775055
  0
LWPOLYLINE
  5
534
100
AcDbEntity
  8
0
100
AcDbPolyline
 62
7
  6
CONTINUOUS
 90
4
 70
0
 10
-10.4771545703
 20
-37.2017792858
 10
-10.4768714201
 20
-37.213674571
 10
-10.4760226046
 20
-37.2255429106
 10
-10.4746100445
 20
-37.2373574211
  0
LWPOLYLINE
  5
535
100
AcDbEntity
  8
0
100
AcDbPolyline
 62
7
  6
CONTINUOUS
 90
34
 70
0
 10
-10.4727827363
 20
-37.1974074518
 10
-10.4724991855
 20
-37.2093024733
 10
-10.4716499806
 20
-37.22117055
 10
-10.4702370452
 20
-37.2329847979
 10
-10.4682635799
 20
-37.2447184551
 10
-10.4657340551
 20
-37.2563449424
 10
-10.4626542007
 20
-37.267837923
 10
-10.4590309933
 20
-37.2791713628
 10
-10.4548726403
 20
-37.290319589
 10
-10.4501885612
 20
-37.3012573484
 10
-10.4449893666
 20
-37.3119598646
 10
-10.4392868337
 20
-37.3224028939
 10
-10.4330938802
 20
-37.3325627805
 10
-10.4264245343
 20
-37.34241651
 10
-10.4192939038
 20
-37.3519417614
 10
-10.411718141
 20
-37.3611169581
 10
-10.4037144068
 20
-37.369921316
 10
-10.3953008314
 20
-37.3783348914
 10
-10.3864964734
 20
-37.3863386257
 10
-10.3773212768
 20
-37.3939143884
 10
-10.3677960253
 20
-37.401045019
 10
-10.3579422958
 20
-37.4077143648
 10
-10.3477824092
 20
-37.4139073184
 10
-10.3373393799
 20
-37.4196098512
 10
-10.3266368638
 20
-37.4248090459
 10
-10.3156991044
 20
-37.429493125
 10
-10.3045508781
 20
-37.433651478
 10
-10.2932174383
 20
-37.4372746854
 10
-10.2817244577
 20
-37.4403545398
 10
-10.2700979705
 20
-37.4428840646
 10
-10.2583643132
 20
-37.4448575298
 10
-10.2465500653
 20
-37.4462704653
 10
-10.2346819887
 20
-37.4471196702
 10
-10.2227869671
 20
-37.447403221
  0
LINE
  5
536
100
AcDbEntity
  8
0
100
AcDbLine
 62
253
  6
CONTINUOUS
 10
-10.4727827363
 20
-36.7961126223
 11
-10.4771545703
 21
-36.3622602032
  0
LINE
  5
537
100
AcDbEntity
  8
0
100
AcDbLine
 62
253
  6
CONTINUOUS
 10
-10.2227869671
 20
-36.5796062713
 11
-10.2278775682
 21
-36.0744247858
  0
LINE
  5
538
100
AcDbEntity
  8
CURVE
100
AcDbLine
 62
253
  6
CONTINUOUS
 10
-11.7271545703
 20
1.348224945
 11
-11.7271545703
 21
0.6696535003
  0
LINE
  5
539
100
AcDbEntity
  8
CURVE
100
AcDbLine
 62
253
  6
CONTINUOUS
 10
-11.7271545703
 20
-13.5874893468
 11
-11.7271545703
 21
-14.1303464997
  0
LINE
  5
53A
100
AcDbEntity
  8
DRAFT
100
AcDbLine
 62
7
  6
CONTINUOUS
 10
-11.2227911364
 20
-32.9561384889
 11
-11.2227911364
 21
-32.6561384889
  0
LINE
  5
53B
100
AcDbEntity
  8
DRAFT
100
AcDbLine
 62
7
  6
CONTINUOUS
 10
-11.2227911364
 20
6.7525883789
 11
-11.2227911364
 21
7.0525883789
  0
LINE
  5
53C
100
AcDbEntity
  8
DRAFT
100
AcDbLine
 62
7
  6
CONTINUOUS
 10
-11.1224321568
 20
-33.0564974685
 11
-11.1224321568
 21
-32.7564974685
  0
LINE
  5
53D
100
AcDbEntity
  8
DRAFT
100
AcDbLine
 62
7
  6
CONTINUOUS
 10
-11.1224321568
 20
6.8529473585
 11
-11.1224321568
 21
7.1529473585
  0
LINE
  5
53E
100
AcDbEntity
  8
CURVE
100
AcDbLine
 62
253
  6
CONTINUOUS
 10
-10.912868848
 20
-4.1303464997
 11
-10.912868848
 21
-3.451775055
  0
LINE
  5
53F
100
AcDbEntity
  8
DRAFT
100
AcDbLine
 62
7
  6
CONTINUOUS
 10
-10.5318769838
 20
-33.9477706007
 11
-10.5318769838
 21
-32.7564974685
  0
LINE
  5
540
100
AcDbEntity
  8
DRAFT
100
AcDbLine
 62
7
  6
CONTINUOUS
 10
-10.5318769838
 20
6.8529473585
 11
-10.5318769838
 21
8.0442204907
  0
LINE
  5
541
100
AcDbEntity
  8
0
100
AcDbLine
 62
7
  6
CONTINUOUS
 10
-10.4771545703
 20
-35.351775055
 11
-10.4771545703
 21
-36.7961126223
  0
LINE
  5
542
100
AcDbEntity
  8
0
100
AcDbLine
 62
7
  6
CONTINUOUS
 10
-10.4771545703
 20
9.448224945
 11
-10.4771545703
 21
10.8925625123
  0
LINE
  5
543
100
AcDbEntity
  8
0
100
AcDbLine
 62
7
  6
CONTINUOUS
 10
-10.4727827363
 20
11.2938573418
 11
-10.4727827363
 21
10.8925625123
  0
LINE
  5
544
100
AcDbEntity
  8
0
100
AcDbLine
 62
7
  6
CONTINUOUS
 10
-10.4727827363
 20
-36.7961126223
 11
-10.4727827363
 21
-37.1974074518
  0
LINE
  5
545
100
AcDbEntity
  8
DRAFT
100
AcDbLine
 62
7
  6
CONTINUOUS
 10
-10.4315180042
 20
-32.6561384889
 11
-10.4315180042
 21
-32.951775055
  0
LINE
  5
546
100
AcDbEntity
  8
DRAFT
100
AcDbLine
 62
7
  6
CONTINUOUS
 10
-10.4315180042
 20
6.7525883789
 11
-10.4315180042
 21
7.048224945
  0
LINE
  5
547
100
AcDbEntity
  8
DRAFT
100
AcDbLine
 62
7
  6
CONTINUOUS
 10
-10.4271545703
 20
7.948224945
 11
-10.4271545703
 21
7.048224945
  0
LINE
  5
548
100
AcDbEntity
  8
DRAFT
100
AcDbLine
 62
7
  6
CONTINUOUS
 10
-10.4271545703
 20
-32.951775055
 11
-10.4271545703
 21
-33.851775055
  0
LINE
  5
549
100
AcDbEntity
  8
0
100
AcDbLine
 62
7
  6
CONTINUOUS
 10
-10.3271545703
 20
7.898224945
 11
-10.3271545703
 21
6.748224945
  0
LINE
  5
54A
100
AcDbEntity
  8
DRAFT
100
AcDbLine
 62
7
  6
CONTINUOUS
 10
-10.3271545703
 20
7.898224945
 11
-10.3271545703
 21
6.748224945
  0
LINE
  5
54B
100
AcDbEntity
  8
0
100
AcDbLine
 62
7
  6
CONTINUOUS
 10
-10.3271545703
 20
-32.651775055
 11
-10.3271545703
 21
-33.801775055
  0
LINE
  5
54C
100
AcDbEntity
  8
DRAFT
100
AcDbLine
 62
7
  6
CONTINUOUS
 10
-10.3271545703
 20
-32.651775055
 11
-10.3271545703
 21
-33.801775055
  0
LINE
  5
54D
100
AcDbEntity
  8
0
100
AcDbLine
 62
7
  6
CONTINUOUS
 10
-10.290498934
 20
7.898224945
 11
-10.290498934
 21
6.7115693087
  0
LINE
  5
54E
100
AcDbEntity
  8
DRAFT
100
AcDbLine
 62
7
  6
CONTINUOUS
 10
-10.290498934
 20
7.898224945
 11
-10.290498934
 21
6.7115693087
  0
LINE
  5
54F
100
AcDbEntity
  8
0
100
AcDbLine
 62
7
  6
CONTINUOUS
 10
-10.290498934
 20
-32.6151194186
 11
-10.290498934
 21
-33.801775055
  0
LINE
  5
550
100
AcDbEntity
  8
DRAFT
100
AcDbLine
 62
7
  6
CONTINUOUS
 10
-10.290498934
 20
-32.6151194186
 11
-10.290498934
 21
-33.801775055
  0
LINE
  5
551
100
AcDbEntity
  8
0
100
AcDbLine
 62
253
  6
CONTINUOUS
 10
-10.2227869671
 20
-36.5796062713
 11
-10.2227869671
 21
-37.447403221
  0
LINE
  5
552
100
AcDbEntity
  8
0
100
AcDbLine
 62
253
  6
CONTINUOUS
 10
-10.2227869671
 20
10.6760561614
 11
-10.2227869671
 21
11.543853111
  0
LINE
  5
553
100
AcDbEntity
  8
0
100
AcDbLine
 62
253
  6
CONTINUOUS
 10
-10.1605089161
 20
8.3842118937
 11
-10.1605089161
 21
8.0442204907
  0
LINE
  5
554
100
AcDbEntity
  8
0
100
AcDbLine
 62
253
  6
CONTINUOUS
 10
-10.1605089161
 20
-33.9477706007
 11
-10.1605089161
 21
-34.2877620036
  0
LINE
  5
555
100
AcDbEntity
  8
CURVE
100
AcDbLine
 62
253
  6
CONTINUOUS
 10
-9.8271545703
 20
-3.451775055
 11
-9.8271545703
 21
-4.1303464997
  0
LINE
  5
556
100
AcDbEntity
  8
CURVE
100
AcDbLine
 62
253
  6
CONTINUOUS
 10
-9.8271545703
 20
-13.7232036386
 11
-9.8271545703
 21
-14.2660607774
  0
LINE
  5
557
100
AcDbEntity
  8
0
100
AcDbLine
 62
253
  6
CONTINUOUS
 10
-10.4771545703
 20
10.4587100932
 11
-10.4727827363
 21
10.8925625123
  0
LINE
  5
558
100
AcDbEntity
  8
0
100
AcDbLine
 62
253
  6
CONTINUOUS
 10
-10.2278775682
 20
10.1708746758
 11
-10.2227869671
 21
10.6760561614
  0
LWPOLYLINE
  5
559
100
AcDbEntity
  8
0
100
AcDbPolyline
 62
253
  6
CONTINUOUS
 90
4
 70
0
 10
-19.7094010161
 20
-30.4108379609
 10
-19.6875397459
 20
-30.3685097246
 10
-19.6576145054
 20
-30.3299886333
 10
-19.620476761
 20
-30.2965892259
  0
LWPOLYLINE
  5
55A
100
AcDbEntity
  8
RACCORDO
100
AcDbPolyline
 62
253
  6
CONTINUOUS
 90
4
 70
0
 10
-19.7094010161
 20
-30.4108379609
 10
-19.6875397459
 20
-30.3685097246
 10
-19.6576145054
 20
-30.3299886333
 10
-19.620476761
 20
-30.2965892259
  0
LWPOLYLINE
  5
55B
100
AcDbEntity
  8
0
100
AcDbPolyline
 62
7
  6
CONTINUOUS
 90
5
 70
0
 10
-25.5448412782
 20
-34.6491643172
 10
-25.5181924268
 20
-34.6097670057
 10
-25.4911850941
 20
-34.5700342566
 10
-25.46381928
 20
-34.5300441761
 10
-25.4360318758
 20
-34.4899130155
  0
LWPOLYLINE
  5
55C
100
AcDbEntity
  8
0
100
AcDbPolyline
 62
7
  6
CONTINUOUS
 90
4
 70
0
 10
-25.4360318758
 20
-34.4899130155
 10
-25.3511498631
 20
-34.3687716118
 10
-25.3225596213
 20
-34.3282409294
 10
-25.2938002246
 20
-34.2877620036
  0
LINE
  5
55D
100
AcDbEntity
  8
CURVE
100
AcDbLine
 62
253
  6
CONTINUOUS
 10
-11.1842974032
 20
-14.401775055
 11
-10.3700116808
 21
-13.451775055
  0
LINE
  5
55E
100
AcDbEntity
  8
CURVE
100
AcDbLine
 62
253
  6
CONTINUOUS
 10
-11.5914402786
 20
-13.451775055
 11
-11.7271545703
 21
-13.5874893468
  0
LINE
  5
55F
100
AcDbEntity
  8
CURVE
100
AcDbLine
 62
253
  6
CONTINUOUS
 10
-8.9771545703
 20
-13.014275055
 11
-9.1021545703
 21
-13.139275055
  0
LINE
  5
560
100
AcDbEntity
  8
CURVE
100
AcDbLine
 62
253
  6
CONTINUOUS
 10
-7.7896545703
 20
-13.139275055
 11
-7.9146545703
 21
-13.201775055
  0
LINE
  5
561
100
AcDbEntity
  8
CURVE
100
AcDbLine
 62
253
  6
CONTINUOUS
 10
-8.7896545703
 20
-12.951775055
 11
-8.9771545703
 21
-13.014275055
  0
LINE
  5
562
100
AcDbEntity
  8
0
100
AcDbLine
 62
7
  6
CONTINUOUS
 10
-14.1871545703
 20
-12.451775055
 11
-17.1271545703
 21
-12.451775055
  0
LINE
  5
563
100
AcDbEntity
  8
SMUSSO
100
AcDbLine
 62
7
  6
CONTINUOUS
 10
-17.4771545703
 20
-11.951775055
 11
-13.4771545703
 21
-11.951775055
  0
LINE
  5
564
100
AcDbEntity
  8
ASSI
100
AcDbLine
 62
7
  6
CONTINUOUS
 10
-17.4771545703
 20
-11.951775055
 11
-13.4771545703
 21
-11.951775055
  0
LINE
  5
565
100
AcDbEntity
  8
RACCORDO
100
AcDbLine
 62
7
  6
CONTINUOUS
 10
-28.4402334485
 20
-11.801775055
 11
-27.5271545703
 21
-11.801775055
  0
LINE
  5
566
100
AcDbEntity
  8
ASSI
100
AcDbLine
 62
7
  6
CONTINUOUS
 10
-28.4402334485
 20
-11.801775055
 11
-27.5271545703
 21
-11.801775055
  0
LINE
  5
567
100
AcDbEntity
  8
SMUSSO
100
AcDbLine
 62
7
  6
CONTINUOUS
 10
-17.9771545703
 20
-11.451775055
 11
-12.9771545703
 21
-11.451775055
  0
LINE
  5
568
100
AcDbEntity
  8
ASSI
100
AcDbLine
 62
7
  6
CONTINUOUS
 10
-17.9771545703
 20
-11.451775055
 11
-12.9771545703
 21
-11.451775055
  0
LINE
  5
569
100
AcDbEntity
  8
SMUSSO
100
AcDbLine
 62
7
  6
CONTINUOUS
 10
-12.9771545703
 20
-11.201775055
 11
-17.9771545703
 21
-11.201775055
  0
LINE
  5
56A
100
AcDbEntity
  8
ASSI
100
AcDbLine
 62
7
  6
CONTINUOUS
 10
-12.9771545703
 20
-11.201775055
 11
-17.9771545703
 21
-11.201775055
  0
LINE
  5
56B
100
AcDbEntity
  8
RACCORDO
100
AcDbLine
 62
7
  6
CONTINUOUS
 10
-28.4402334485
 20
-11.101775055
 11
-27.5271545703
 21
-11.101775055
  0
LINE
  5
56C
100
AcDbEntity
  8
ASSI
100
AcDbLine
 62
7
  6
CONTINUOUS
 10
-28.4402334485
 20
-11.101775055
 11
-27.5271545703
 21
-11.101775055
  0
LINE
  5
56D
100
AcDbEntity
  8
CURVE
100
AcDbLine
 62
253
  6
CONTINUOUS
 10
-8.4146545703
 20
-13.014275055
 11
-8.6021545703
 21
-12.951775055
  0
LINE
  5
56E
100
AcDbEntity
  8
CURVE
100
AcDbLine
 62
253
  6
CONTINUOUS
 10
-7.5396545703
 20
-13.201775055
 11
-7.7271545703
 21
-13.139275055
  0
LINE
  5
56F
100
AcDbEntity
  8
SMUSSO
100
AcDbLine
 62
7
  6
CONTINUOUS
 10
-12.9771545703
 20
-11.201775055
 11
-13.4771545703
 21
-10.701775055
  0
LINE
  5
570
100
AcDbEntity
  8
ASSI
100
AcDbLine
 62
7
  6
CONTINUOUS
 10
-12.9771545703
 20
-11.201775055
 11
-13.4771545703
 21
-10.701775055
  0
LINE
  5
571
100
AcDbEntity
  8
CURVE
100
AcDbLine
 62
253
  6
CONTINUOUS
 10
-10.0985831256
 20
-13.451775055
 11
-9.8271545703
 21
-13.7232036386
  0
LINE
  5
572
100
AcDbEntity
  8
CURVE
100
AcDbLine
 62
253
  6
CONTINUOUS
 10
-9.0396545703
 20
-14.076775055
 11
-8.9146545703
 21
-14.201775055
  0
LWPOLYLINE
  5
573
100
AcDbEntity
  8
0
100
AcDbPolyline
 62
7
  6
CONTINUOUS
 90
3
 70
0
 10
-25.2938002246
 20
8.3842118937
 10
-25.3225596213
 20
8.4246908194
 10
-25.3511498631
 20
8.4652215018
  0
LWPOLYLINE
  5
574
100
AcDbEntity
  8
0
100
AcDbPolyline
 62
7
  6
CONTINUOUS
 90
6
 70
0
 10
-25.3511498631
 20
8.4652215018
 10
-25.4360318758
 20
8.5863629055
 10
-25.46381928
 20
8.6264940661
 10
-25.4911850941
 20
8.6664841466
 10
-25.5181924268
 20
8.7062168957
 10
-25.5448412782
 20
8.7456142072
  0
LINE
  5
575
100
AcDbEntity
  8
CURVE
100
AcDbLine
 62
253
  6
CONTINUOUS
 10
-9.1646545703
 20
-13.889275055
 11
-9.0396545703
 21
-14.076775055
  0
LWPOLYLINE
  5
576
100
AcDbEntity
  8
0
100
AcDbPolyline
 62
253
  6
CONTINUOUS
 90
34
 70
0
 10
-10.4727827363
 20
10.8925625123
 10
-10.4724660856
 20
10.8822797448
 10
-10.4715859239
 20
10.8720201848
 10
-10.4701442376
 20
10.8618069877
 10
-10.4681442805
 20
10.851663204
 10
-10.4655905665
 20
10.8416117276
 10
-10.4624888591
 20
10.8316752441
 10
-10.4588461587
 20
10.8218761796
 10
-10.4546706866
 20
10.81223665
 10
-10.4499718667
 20
10.8027784111
 10
-10.4447603039
 20
10.7935228096
 10
-10.4390477604
 20
10.7844907348
 10
-10.432847129
 20
10.7757025717
 10
-10.4261724043
 20
10.7671781546
 10
-10.4190386506
 20
10.7589367225
 10
-10.4114619685
 20
10.750996876
 10
-10.403459458
 20
10.7433765347
 10
-10.3950491805
 20
10.7360928974
 10
-10.3862501172
 20
10.7291624028
 10
-10.3770821273
 20
10.7226006926
 10
-10.3675659023
 20
10.7164225761
 10
-10.3577229199
 20
10.7106419971
 10
-10.3475753949
 20
10.7052720019
 10
-10.3371462298
 20
10.7003247104
 10
-10.3264589627
 20
10.6958112882
 10
-10.3155377139
 20
10.691741922
 10
-10.3044071322
 20
10.6881257959
 10
-10.2930923387
 20
10.6849710714
 10
-10.28161887
 20
10.6822848685
 10
-10.2700126212
 20
10.6800732499
 10
-10.2582997869
 20
10.678341207
 10
-10.2465068023
 20
10.6770926489
 10
-10.2346602834
 20
10.6763303936
 10
-10.2227869671
 20
10.6760561614
  0
LWPOLYLINE
  5
577
100
AcDbEntity
  8
0
100
AcDbPolyline
 62
253
  6
CONTINUOUS
 90
34
 70
0
 10
-7.5815264043
 20
-36.7961126223
 10
-7.5818430663
 20
-36.7858296612
 10
-7.5827232606
 20
-36.775569909
 10
-7.5841650004
 20
-36.7653565223
 10
-7.5861650305
 20
-36.7552125585
 10
-7.5887188374
 20
-36.7451609071
 10
-7.5918206628
 20
-36.7352242384
 10
-7.5954635135
 20
-36.725424968
 10
-7.5996391665
 20
-36.7157852267
 10
-7.6043381887
 20
-36.7063267936
 10
-7.6095499688
 20
-36.6970710245
 10
-7.6152627465
 20
-36.6880388013
 10
-7.6214636296
 20
-36.6792505062
 10
-7.6281386233
 20
-36.6707259736
 10
-7.6352726608
 20
-36.6624844448
 10
-7.6428496403
 20
-36.6545445209
 10
-7.6508524599
 20
-36.6469241228
 10
-7.659263057
 20
-36.6396404496
 10
-7.6680624496
 20
-36.63270994
 10
-7.6772307755
 20
-36.6261482374
 10
-7.686747343
 20
-36.6199701506
 10
-7.6965906791
 20
-36.6141896203
 10
-7.7067385805
 20
-36.6088196878
 10
-7.7171681314
 20
-36.6038724815
 10
-7.7278557591
 20
-36.5993591815
 10
-7.7387773189
 20
-36.5952899785
 10
-7.7499081787
 20
-36.5916740446
 10
-7.7612232423
 20
-36.5885195307
 10
-7.7726972643
 20
-36.5858334945
 10
-7.7843040617
 20
-36.5836220845
 10
-7.7960165706
 20
-36.581890402
 10
-7.8078080475
 20
-36.5806422733
 10
-7.8196521583
 20
-36.5798803593
 10
-7.8315221735
 20
-36.5796062713
  0
LINE
  5
578
100
AcDbEntity
  8
0
100
AcDbLine
 62
253
  6
CONTINUOUS
 10
-9.6605850685
 20
8.5019603721
 11
-9.6605850685
 21
8.0399332092
  0
LINE
  5
579
100
AcDbEntity
  8
0
100
AcDbLine
 62
7
  6
CONTINUOUS
 10
-9.6605850685
 20
-34.5352055532
 11
-9.6605850685
 21
-34.5228638984
  0
LINE
  5
57A
100
AcDbEntity
  8
0
100
AcDbLine
 62
7
  6
CONTINUOUS
 10
-9.6605850685
 20
-33.8605019228
 11
-9.6605850685
 21
-33.851775055
  0
LINE
  5
57B
100
AcDbEntity
  8
0
100
AcDbLine
 62
253
  6
CONTINUOUS
 10
-9.6605850685
 20
-33.9434833192
 11
-9.6605850685
 21
-34.4055104821
  0
LINE
  5
57C
100
AcDbEntity
  8
0
100
AcDbLine
 62
7
  6
CONTINUOUS
 10
-9.6605850685
 20
7.948224945
 11
-9.6605850685
 21
7.9569518128
  0
LINE
  5
57D
100
AcDbEntity
  8
0
100
AcDbLine
 62
7
  6
CONTINUOUS
 10
-9.6605850685
 20
8.6193137884
 11
-9.6605850685
 21
8.6316554432
  0
LINE
  5
57E
100
AcDbEntity
  8
0
100
AcDbLine
 62
7
  6
CONTINUOUS
 10
-9.4946096353
 20
8.4533383551
 11
-9.4946096353
 21
7.9569518128
  0
LINE
  5
57F
100
AcDbEntity
  8
0
100
AcDbLine
 62
7
  6
CONTINUOUS
 10
-9.4946096353
 20
-33.8605019228
 11
-9.4946096353
 21
-34.3568884651
  0
LINE
  5
580
100
AcDbEntity
  8
CURVE
100
AcDbLine
 62
253
  6
CONTINUOUS
 10
-9.2271545703
 20
-13.451775055
 11
-9.2271545703
 21
-13.639275055
  0
LINE
  5
581
100
AcDbEntity
  8
CURVE
100
AcDbLine
 62
253
  6
CONTINUOUS
 10
-8.7271545703
 20
-0.4732036043
 11
-8.7271545703
 21
-0.9374894071
  0
LINE
  5
582
100
AcDbEntity
  8
CURVE
100
AcDbLine
 62
253
  6
CONTINUOUS
 10
-8.7271545703
 20
-6.5708227921
 11
-8.7271545703
 21
-6.9422511864
  0
LINE
  5
583
100
AcDbEntity
  8
CURVE
100
AcDbLine
 62
253
  6
CONTINUOUS
 10
-8.7271545703
 20
-9.5422511864
 11
-8.7271545703
 21
-10.0993943978
  0
LINE
  5
584
100
AcDbEntity
  8
CURVE
100
AcDbLine
 62
253
  6
CONTINUOUS
 10
-8.7271545703
 20
-7.8708227921
 11
-8.7271545703
 21
-7.7779653836
  0
LINE
  5
585
100
AcDbEntity
  8
CURVE
100
AcDbLine
 62
253
  6
CONTINUOUS
 10
-8.7271545703
 20
-1.7732036043
 11
-8.7271545703
 21
-1.6803465057
  0
LINE
  5
586
100
AcDbEntity
  8
CURVE
100
AcDbLine
 62
253
  6
CONTINUOUS
 10
-8.7271545703
 20
-0.101775055
 11
-8.7271545703
 21
0.548224945
  0
LINE
  5
587
100
AcDbEntity
  8
CURVE
100
AcDbLine
 62
253
  6
CONTINUOUS
 10
-8.1021545703
 20
-13.576775055
 11
-8.1021545703
 21
-13.639275055
  0
LINE
  5
588
100
AcDbEntity
  8
CURVE
100
AcDbLine
 62
253
  6
CONTINUOUS
 10
-7.9842973943
 20
-8.5208227921
 11
-7.9842973943
 21
-9.1708227921
  0
LINE
  5
589
100
AcDbEntity
  8
CURVE
100
AcDbLine
 62
253
  6
CONTINUOUS
 10
-7.9842973943
 20
-6.9422511864
 11
-7.9842973943
 21
-6.5708227921
  0
LINE
  5
58A
100
AcDbEntity
  8
CURVE
100
AcDbLine
 62
253
  6
CONTINUOUS
 10
-7.9842973943
 20
-0.8446321536
 11
-7.9842973943
 21
-0.6589178789
  0
LINE
  5
58B
100
AcDbEntity
  8
RACCORDO
100
AcDbLine
 62
7
  6
CONTINUOUS
 10
-7.9297726307
 20
-32.4780829297
 11
-7.9297726307
 21
-32.5543933973
  0
LINE
  5
58C
100
AcDbEntity
  8
ASSI
100
AcDbLine
 62
7
  6
CONTINUOUS
 10
-7.9297726307
 20
-32.4780829297
 11
-7.9297726307
 21
-32.5543933973
  0
LINE
  5
58D
100
AcDbEntity
  8
0
100
AcDbLine
 62
253
  6
CONTINUOUS
 10
-7.8315221735
 20
-36.5796062713
 11
-7.8315221735
 21
-37.447403221
  0
LINE
  5
58E
100
AcDbEntity
  8
0
100
AcDbLine
 62
253
  6
CONTINUOUS
 10
-7.8315221735
 20
10.6760561614
 11
-7.8315221735
 21
11.543853111
  0
LWPOLYLINE
  5
58F
100
AcDbEntity
  8
0
100
AcDbPolyline
 62
253
  6
CONTINUOUS
 90
34
 70
0
 10
-10.4727827363
 20
-36.7961126223
 10
-10.4724666091
 20
-36.7858388445
 10
-10.4715876969
 20
-36.7755859341
 10
-10.4701476053
 20
-36.7653770242
 10
-10.4681490394
 20
-36.7552344249
 10
-10.4655962235
 20
-36.7451818353
 10
-10.4624953034
 20
-36.7352442146
 10
-10.4588535954
 20
-36.7254447824
 10
-10.45467909
 20
-36.7158048466
 10
-10.4499811094
 20
-36.7063459761
 10
-10.4447701529
 20
-36.6970894091
 10
-10.4390580117
 20
-36.6880561806
 10
-10.4328576794
 20
-36.6792668693
 10
-10.4261832034
 20
-36.6707413776
 10
-10.4190496056
 20
-36.6624988837
 10
-10.4114729716
 20
-36.6545579764
 10
-10.4034703893
 20
-36.6469365718
 10
-10.3950599311
 20
-36.6396518875
 10
-10.3862605986
 20
-36.6327203842
 10
-10.3770922618
 20
-36.6261577131
 10
-10.36757561
 20
-36.6199786831
 10
-10.3577321249
 20
-36.6141972419
 10
-10.3475840261
 20
-36.6088264399
 10
-10.3371542212
 20
-36.6038784009
 10
-10.3264662539
 20
-36.5993642944
 10
-10.3155442372
 20
-36.5952943055
 10
-10.304412838
 20
-36.5916776271
 10
-10.2930972237
 20
-36.5885224335
 10
-10.2816229658
 20
-36.5858358477
 10
-10.27001594
 20
-36.5836239212
 10
-10.2583023063
 20
-36.5818916365
 10
-10.2465084915
 20
-36.5806429026
 10
-10.2346611308
 20
-36.5798805406
 10
-10.2227869671
 20
-36.5796062713
  0
LWPOLYLINE
  5
590
100
AcDbEntity
  8
0
100
AcDbPolyline
 62
253
  6
CONTINUOUS
 90
34
 70
0
 10
-7.5815264043
 20
10.8925625123
 10
-7.5818430551
 20
10.8822797448
 10
-7.5827232168
 20
10.8720201848
 10
-7.5841649031
 20
10.8618069877
 10
-7.5861648602
 20
10.851663204
 10
-7.5887185742
 20
10.8416117276
 10
-7.5918202816
 20
10.8316752441
 10
-7.595462982
 20
10.8218761796
 10
-7.599638454
 20
10.81223665
 10
-7.6043372739
 20
10.8027784111
 10
-7.6095488368
 20
10.7935228096
 10
-7.6152613803
 20
10.7844907348
 10
-7.6214620116
 20
10.7757025717
 10
-7.6281367364
 20
10.7671781546
 10
-7.63527049
 20
10.7589367225
 10
-7.6428471722
 20
10.750996876
 10
-7.6508496826
 20
10.7433765347
 10
-7.6592599602
 20
10.7360928974
 10
-7.6680590234
 20
10.7291624028
 10
-7.6772270134
 20
10.7226006926
 10
-7.6867432383
 20
10.7164225761
 10
-7.6965862208
 20
10.7106419971
 10
-7.7067337458
 20
10.7052720019
 10
-7.7171629108
 20
10.7003247104
 10
-7.727850178
 20
10.6958112882
 10
-7.7387714267
 20
10.691741922
 10
-7.7499020084
 20
10.6881257959
 10
-7.761216802
 20
10.6849710714
 10
-7.7726902707
 20
10.6822848685
 10
-7.7842965194
 20
10.6800732499
 10
-7.7960093537
 20
10.678341207
 10
-7.8078023384
 20
10.6770926489
 10
-7.8196488573
 20
10.6763303936
 10
-7.8315221735
 20
10.6760561614
  0
LINE
  5
591
100
AcDbEntity
  8
CURVE
100
AcDbLine
 62
253
  6
CONTINUOUS
 10
-9.1646545703
 20
-13.264275055
 11
-9.2271545703
 21
-13.451775055
  0
LINE
  5
592
100
AcDbEntity
  8
CURVE
100
AcDbLine
 62
253
  6
CONTINUOUS
 10
-8.0396545703
 20
-13.389275055
 11
-8.1021545703
 21
-13.576775055
  0
LINE
  5
593
100
AcDbEntity
  8
CURVE
100
AcDbLine
 62
253
  6
CONTINUOUS
 10
-9.1021545703
 20
-13.139275055
 11
-9.1646545703
 21
-13.264275055
  0
LINE
  5
594
100
AcDbEntity
  8
CURVE
100
AcDbLine
 62
253
  6
CONTINUOUS
 10
-7.9771545703
 20
-13.264275055
 11
-8.0396545703
 21
-13.389275055
  0
LINE
  5
595
100
AcDbEntity
  8
CURVE
100
AcDbLine
 62
253
  6
CONTINUOUS
 10
-9.8271545703
 20
-14.2660607774
 11
-9.9628689046
 21
-14.401775055
  0
LINE
  5
596
100
AcDbEntity
  8
CURVE
100
AcDbLine
 62
253
  6
CONTINUOUS
 10
-7.9146545703
 20
-13.201775055
 11
-7.9771545703
 21
-13.264275055
  0
LINE
  5
597
100
AcDbEntity
  8
SMUSSO
100
AcDbLine
 62
7
  6
CONTINUOUS
 10
-13.4771545703
 20
-10.701775055
 11
-17.4771545703
 21
-10.701775055
  0
LINE
  5
598
100
AcDbEntity
  8
ASSI
100
AcDbLine
 62
7
  6
CONTINUOUS
 10
-13.4771545703
 20
-10.701775055
 11
-17.4771545703
 21
-10.701775055
  0
LINE
  5
599
100
AcDbEntity
  8
0
100
AcDbLine
 62
7
  6
CONTINUOUS
 10
-17.1271545703
 20
-10.451775055
 11
-14.1871545703
 21
-10.451775055
  0
LINE
  5
59A
100
AcDbEntity
  8
CURVE
100
AcDbLine
 62
253
  6
CONTINUOUS
 10
-11.7271545703
 20
-9.301775055
 11
-9.8271545703
 21
-9.301775055
  0
LINE
  5
59B
100
AcDbEntity
  8
CURVE
100
AcDbLine
 62
253
  6
CONTINUOUS
 10
-7.4271545703
 20
-9.1708227921
 11
-8.7271545703
 21
-9.1708227921
  0
LINE
  5
59C
100
AcDbEntity
  8
CURVE
100
AcDbLine
 62
253
  6
CONTINUOUS
 10
-8.2896545703
 20
-13.139275055
 11
-8.4146545703
 21
-13.014275055
  0
LINE
  5
59D
100
AcDbEntity
  8
CURVE
100
AcDbLine
 62
253
  6
CONTINUOUS
 10
-7.4146545703
 20
-13.326775055
 11
-7.5396545703
 21
-13.201775055
  0
LINE
  5
59E
100
AcDbEntity
  8
SMUSSO
100
AcDbLine
 62
7
  6
CONTINUOUS
 10
-17.9771545703
 20
-1.701775055
 11
-17.4771545703
 21
-2.201775055
  0
LINE
  5
59F
100
AcDbEntity
  8
ASSI
100
AcDbLine
 62
7
  6
CONTINUOUS
 10
-17.9771545703
 20
-1.701775055
 11
-17.4771545703
 21
-2.201775055
  0
LINE
  5
5A0
100
AcDbEntity
  8
SMUSSO
100
AcDbLine
 62
7
  6
CONTINUOUS
 10
-12.9771545703
 20
-6.201775055
 11
-13.4771545703
 21
-5.701775055
  0
LINE
  5
5A1
100
AcDbEntity
  8
ASSI
100
AcDbLine
 62
7
  6
CONTINUOUS
 10
-12.9771545703
 20
-6.201775055
 11
-13.4771545703
 21
-5.701775055
  0
LINE
  5
5A2
100
AcDbEntity
  8
CURVE
100
AcDbLine
 62
253
  6
CONTINUOUS
 10
-8.1646545703
 20
-13.389275055
 11
-8.2896545703
 21
-13.139275055
  0
LINE
  5
5A3
100
AcDbEntity
  8
CURVE
100
AcDbLine
 62
253
  6
CONTINUOUS
 10
-9.2271545703
 20
-13.639275055
 11
-9.1646545703
 21
-13.889275055
  0
LINE
  5
5A4
100
AcDbEntity
  8
CURVE
100
AcDbLine
 62
253
  6
CONTINUOUS
 10
-8.1021545703
 20
-13.639275055
 11
-8.1646545703
 21
-13.389275055
  0
LWPOLYLINE
  5
5A5
100
AcDbEntity
  8
0
100
AcDbPolyline
 62
7
  6
CONTINUOUS
 90
34
 70
0
 10
-7.5815264043
 20
11.2938573418
 10
-7.5818100332
 20
11.3057540007
 10
-7.5826594733
 20
11.317623719
 10
-7.5840728021
 20
11.3294396013
 10
-7.5860468207
 20
11.341174881
 10
-7.5885770577
 20
11.3528029604
 10
-7.5916577764
 20
11.3642974714
 10
-7.5952819935
 20
11.3756323639
 10
-7.5994414978
 20
11.3867819602
 10
-7.6041268621
 20
11.3977209938
 10
-7.6093274697
 20
11.4084246802
 10
-7.615031535
 20
11.4188687654
 10
-7.6212261273
 20
11.4290295776
 10
-7.6278972074
 20
11.4388840937
 10
-7.6350296584
 20
11.4484099879
 10
-7.642607315
 20
11.4575856749
 10
-7.6506130091
 20
11.4663903705
 10
-7.6590285953
 20
11.4748041221
 10
-7.6678349869
 20
11.4828078536
 10
-7.6770122002
 20
11.4903834145
 10
-7.6865394616
 20
11.4975136679
 10
-7.6963952463
 20
11.5041825051
 10
-7.7065573219
 20
11.5103748675
 10
-7.7170025754
 20
11.516076656
 10
-7.7277071102
 20
11.5212748413
 10
-7.7386465114
 20
11.5259576149
 10
-7.7497961233
 20
11.5301144693
 10
-7.7611308884
 20
11.5337360791
 10
-7.7726268541
 20
11.5368146577
 10
-7.7842562893
 20
11.5393426476
 10
-7.795987784
 20
11.5413135936
 10
-7.8077929595
 20
11.5427235896
 10
-7.819646702
 20
11.5435704913
 10
-7.8315221735
 20
11.543853111
  0
LWPOLYLINE
  5
5A6
100
AcDbEntity
  8
0
100
AcDbPolyline
 62
7
  6
CONTINUOUS
 90
4
 70
0
 10
-7.5771545703
 20
11.2982291758
 10
-7.5774377206
 20
11.310124461
 10
-7.5782865361
 20
11.3219928006
 10
-7.5796990962
 20
11.3338073111
  0
LWPOLYLINE
  5
5A7
100
AcDbEntity
  8
0
100
AcDbPolyline
 62
7
  6
CONTINUOUS
 90
40
 70
0
 10
-6.5771545703
 20
8.9479960929
 10
-6.5775534161
 20
8.9681248883
 10
-6.5787602441
 20
8.9882161396
 10
-6.5807730034
 20
9.008237518
 10
-6.5835879809
 20
9.0281528519
 10
-6.5872006277
 20
9.0479340862
 10
-6.5916069241
 20
9.0675610851
 10
-6.5968011474
 20
9.0870036012
 10
-6.6027758409
 20
9.1062283028
 10
-6.6095243859
 20
9.1252103133
 10
-6.6170420546
 20
9.1439289011
 10
-6.6253148293
 20
9.1623420362
 10
-6.6343178562
 20
9.1803945392
 10
-6.6440261242
 20
9.198042157
 10
-6.6544303589
 20
9.2152733057
 10
-6.6655272614
 20
9.2320826348
 10
-6.6773114837
 20
9.2484570055
 10
-6.6897552258
 20
9.2643529555
 10
-6.7028196172
 20
9.2797212025
 10
-6.7164677306
 20
9.2945232491
 10
-6.7306889906
 20
9.3087523081
 10
-6.7454825601
 20
9.3224076948
 10
-6.7608410857
 20
9.3354784773
 10
-6.7767265003
 20
9.347928243
 10
-6.7930910149
 20
9.3597193918
 10
-6.8098918621
 20
9.3708243245
 10
-6.8271153904
 20
9.3812371447
 10
-6.8447560562
 20
9.390954498
 10
-6.8628033012
 20
9.39996737
 10
-6.8812119377
 20
9.4082500702
 10
-6.8999234695
 20
9.415776621
 10
-6.9188928108
 20
9.4225321036
 10
-6.9381019262
 20
9.4285132802
 10
-6.9575313411
 20
9.4337156069
 10
-6.9771608594
 20
9.4381335303
 10
-6.9969473937
 20
9.441757242
 10
-7.0168367031
 20
9.4445789129
 10
-7.0367888267
 20
9.4465966522
 10
-7.0567786711
 20
9.4478115711
 10
-7.0767739706
 20
9.448224945
  0
LINE
  5
5A8
100
AcDbEntity
  8
0
100
AcDbLine
 62
253
  6
CONTINUOUS
 10
-7.8315221735
 20
10.6760561614
 11
-7.8264315725
 21
10.1708746758
  0
LINE
  5
5A9
100
AcDbEntity
  8
0
100
AcDbLine
 62
253
  6
CONTINUOUS
 10
-7.5815264043
 20
10.8925625123
 11
-7.5771545703
 21
10.4587100932
  0
LINE
  5
5AA
100
AcDbEntity
  8
CURVE
100
AcDbLine
 62
253
  6
CONTINUOUS
 10
-7.7985831196
 20
-9.5422511864
 11
-7.7985831196
 21
-10.0993943978
  0
LINE
  5
5AB
100
AcDbEntity
  8
0
100
AcDbLine
 62
7
  6
CONTINUOUS
 10
-7.5815264043
 20
-37.1974074518
 11
-7.5815264043
 21
-36.7961126223
  0
LINE
  5
5AC
100
AcDbEntity
  8
0
100
AcDbLine
 62
7
  6
CONTINUOUS
 10
-7.5815264043
 20
10.8925625123
 11
-7.5815264043
 21
11.2938573418
  0
LINE
  5
5AD
100
AcDbEntity
  8
0
100
AcDbLine
 62
7
  6
CONTINUOUS
 10
-7.5771545703
 20
-35.351775055
 11
-7.5771545703
 21
-36.7961126223
  0
LINE
  5
5AE
100
AcDbEntity
  8
0
100
AcDbLine
 62
7
  6
CONTINUOUS
 10
-7.5771545703
 20
9.448224945
 11
-7.5771545703
 21
10.8925625123
  0
LINE
  5
5AF
100
AcDbEntity
  8
CURVE
100
AcDbLine
 62
253
  6
CONTINUOUS
 10
-7.4271545703
 20
-1.6803465057
 11
-7.4271545703
 21
-1.7732036043
  0
LINE
  5
5B0
100
AcDbEntity
  8
CURVE
100
AcDbLine
 62
253
  6
CONTINUOUS
 10
-7.4271545703
 20
-6.5708227921
 11
-7.4271545703
 21
-7.1279653836
  0
LINE
  5
5B1
100
AcDbEntity
  8
CURVE
100
AcDbLine
 62
253
  6
CONTINUOUS
 10
-7.4271545703
 20
-7.7779653836
 11
-7.4271545703
 21
-7.8708227921
  0
LINE
  5
5B2
100
AcDbEntity
  8
CURVE
100
AcDbLine
 62
253
  6
CONTINUOUS
 10
-7.4271545703
 20
-0.8446321536
 11
-7.4271545703
 21
-0.4732036043
  0
LINE
  5
5B3
100
AcDbEntity
  8
CURVE
100
AcDbLine
 62
253
  6
CONTINUOUS
 10
-7.4271545703
 20
0.0839392197
 11
-7.4271545703
 21
0.362510651
  0
LINE
  5
5B4
100
AcDbEntity
  8
CURVE
100
AcDbLine
 62
253
  6
CONTINUOUS
 10
-7.3521545703
 20
-13.639275055
 11
-7.3521545703
 21
-13.514275055
  0
LINE
  5
5B5
100
AcDbEntity
  8
RACCORDO
100
AcDbLine
 62
7
  6
CONTINUOUS
 10
-6.7140642686
 20
-30.9429994451
 11
-6.7140642686
 21
5.0394493351
  0
LINE
  5
5B6
100
AcDbEntity
  8
ASSI
100
AcDbLine
 62
7
  6
CONTINUOUS
 10
-6.7140642686
 20
-30.9429994451
 11
-6.7140642686
 21
5.0394493351
  0
LINE
  5
5B7
100
AcDbEntity
  8
0
100
AcDbLine
 62
7
  6
CONTINUOUS
 10
-6.6993400248
 20
-30.5728632313
 11
-6.6993400248
 21
4.6693131213
  0
LINE
  5
5B8
100
AcDbEntity
  8
RACCORDO
100
AcDbLine
 62
7
  6
CONTINUOUS
 10
-6.6993400248
 20
-30.5728632313
 11
-6.6993400248
 21
4.6693131213
  0
LINE
  5
5B9
100
AcDbEntity
  8
0
100
AcDbLine
 62
7
  6
CONTINUOUS
 10
-6.5946083059
 20
-31.4692287906
 11
-6.5946083059
 21
-30.8710644673
  0
LINE
  5
5BA
100
AcDbEntity
  8
0
100
AcDbLine
 62
7
  6
CONTINUOUS
 10
-6.5946083059
 20
4.9675143573
 11
-6.5946083059
 21
5.5656786806
  0
LINE
  5
5BB
100
AcDbEntity
  8
0
100
AcDbLine
 62
7
  6
CONTINUOUS
 10
-6.5858814381
 20
8.9424240382
 11
-6.5858814381
 21
5.5569518128
  0
LINE
  5
5BC
100
AcDbEntity
  8
0
100
AcDbLine
 62
7
  6
CONTINUOUS
 10
-6.5858814381
 20
-31.4605019228
 11
-6.5858814381
 21
-34.8459741482
  0
LINE
  5
5BD
100
AcDbEntity
  8
0
100
AcDbLine
 62
7
  6
CONTINUOUS
 10
-6.5771545703
 20
-34.851791978
 11
-6.5771545703
 21
8.948241868
  0
LINE
  5
5BE
100
AcDbEntity
  8
RACCORDO
100
AcDbLine
 62
7
  6
CONTINUOUS
 10
-6.5771545703
 20
-30.6234741037
 11
-6.5771545703
 21
4.7199239937
  0
LINE
  5
5BF
100
AcDbEntity
  8
0
100
AcDbLine
 62
253
  6
CONTINUOUS
 10
-7.8264315725
 20
-36.0744247858
 11
-7.8315221735
 21
-36.5796062713
  0
LINE
  5
5C0
100
AcDbEntity
  8
0
100
AcDbLine
 62
253
  6
CONTINUOUS
 10
-7.5771545703
 20
-36.3622602032
 11
-7.5815264043
 21
-36.7961126223
  0
LWPOLYLINE
  5
5C1
100
AcDbEntity
  8
0
100
AcDbPolyline
 62
7
  6
CONTINUOUS
 90
40
 70
0
 10
-6.5771545703
 20
-34.8515462029
 10
-6.5775534161
 20
-34.8716749983
 10
-6.5787602441
 20
-34.8917662496
 10
-6.5807730034
 20
-34.9117876279
 10
-6.5835879809
 20
-34.9317029619
 10
-6.5872006277
 20
-34.9514841962
 10
-6.5916069241
 20
-34.9711111951
 10
-6.5968011474
 20
-34.9905537111
 10
-6.6027758409
 20
-35.0097784128
 10
-6.6095243859
 20
-35.0287604233
 10
-6.6170420546
 20
-35.0474790111
 10
-6.6253148293
 20
-35.0658921462
 10
-6.6343178562
 20
-35.0839446492
 10
-6.6440261242
 20
-35.101592267
 10
-6.6544303589
 20
-35.1188234157
 10
-6.6655272614
 20
-35.1356327448
 10
-6.6773114837
 20
-35.1520071155
 10
-6.6897552258
 20
-35.1679030655
 10
-6.7028196172
 20
-35.1832713125
 10
-6.7164677306
 20
-35.1980733591
 10
-6.7306889906
 20
-35.2123024181
 10
-6.7454825601
 20
-35.2259578048
 10
-6.7608410857
 20
-35.2390285873
 10
-6.7767265003
 20
-35.251478353
 10
-6.7930910149
 20
-35.2632695018
 10
-6.8098918621
 20
-35.2743744344
 10
-6.8271153904
 20
-35.2847872547
 10
-6.8447560562
 20
-35.294504608
 10
-6.8628033012
 20
-35.30351748
 10
-6.8812119377
 20
-35.3118001802
 10
-6.8999234695
 20
-35.319326731
 10
-6.9188928108
 20
-35.3260822136
 10
-6.9381019262
 20
-35.3320633901
 10
-6.9575313411
 20
-35.3372657169
 10
-6.9771608594
 20
-35.3416836403
 10
-6.9969473937
 20
-35.345307352
 10
-7.0168367031
 20
-35.3481290229
 10
-7.0367888267
 20
-35.3501467622
 10
-7.0567786711
 20
-35.3513616811
 10
-7.0767739706
 20
-35.351775055
  0
LINE
  5
5C2
100
AcDbEntity
  8
CURVE
100
AcDbLine
 62
253
  6
CONTINUOUS
 10
-7.4146545703
 20
-13.889275055
 11
-7.3521545703
 21
-13.639275055
  0
LINE
  5
5C3
100
AcDbEntity
  8
CURVE
100
AcDbLine
 62
253
  6
CONTINUOUS
 10
-7.4771545703
 20
-14.076775055
 11
-7.4146545703
 21
-13.889275055
  0
LINE
  5
5C4
100
AcDbEntity
  8
CURVE
100
AcDbLine
 62
253
  6
CONTINUOUS
 10
-7.5396545703
 20
-14.201775055
 11
-7.4771545703
 21
-14.076775055
  0
LINE
  5
5C5
100
AcDbEntity
  8
DRAFT
100
AcDbLine
 62
7
  6
CONTINUOUS
 10
-24.3318769838
 20
-32.7564974685
 11
-24.2315180042
 21
-32.6561384889
  0
LINE
  5
5C6
100
AcDbEntity
  8
DRAFT
100
AcDbLine
 62
7
  6
CONTINUOUS
 10
-24.3318769838
 20
-33.0564974685
 11
-24.2315180042
 21
-32.9561384889
  0
LINE
  5
5C7
100
AcDbEntity
  8
CURVE
100
AcDbLine
 62
253
  6
CONTINUOUS
 10
-8.7271545703
 20
-8.5208227921
 11
-7.4271545703
 21
-8.5208227921
  0
LINE
  5
5C8
100
AcDbEntity
  8
CURVE
100
AcDbLine
 62
253
  6
CONTINUOUS
 10
-11.7271545703
 20
-8.351775055
 11
-9.8271545703
 21
-8.351775055
  0
LINE
  5
5C9
100
AcDbEntity
  8
CURVE
100
AcDbLine
 62
253
  6
CONTINUOUS
 10
-7.7985831196
 20
-8.1493943978
 11
-8.3557259823
 21
-8.1493943978
  0
LINE
  5
5CA
100
AcDbEntity
  8
CURVE
100
AcDbLine
 62
253
  6
CONTINUOUS
 10
-8.3557259823
 20
-7.4993943978
 11
-7.7985831196
 21
-7.4993943978
  0
LINE
  5
5CB
100
AcDbEntity
  8
0
100
AcDbLine
 62
7
  6
CONTINUOUS
 10
-14.1871545703
 20
-7.451775055
 11
-17.1271545703
 21
-7.451775055
  0
LINE
  5
5CC
100
AcDbEntity
  8
SMUSSO
100
AcDbLine
 62
7
  6
CONTINUOUS
 10
-17.4771545703
 20
-7.201775055
 11
-13.4771545703
 21
-7.201775055
  0
LINE
  5
5CD
100
AcDbEntity
  8
ASSI
100
AcDbLine
 62
7
  6
CONTINUOUS
 10
-17.4771545703
 20
-7.201775055
 11
-13.4771545703
 21
-7.201775055
  0
LINE
  5
5CE
100
AcDbEntity
  8
CURVE
100
AcDbLine
 62
253
  6
CONTINUOUS
 10
-8.5414402763
 20
-7.1279653836
 11
-8.1700117077
 21
-7.1279653836
  0
LINE
  5
5CF
100
AcDbEntity
  8
RACCORDO
100
AcDbLine
 62
7
  6
CONTINUOUS
 10
-28.4402334485
 20
-6.801775055
 11
-27.5271545703
 21
-6.801775055
  0
LINE
  5
5D0
100
AcDbEntity
  8
ASSI
100
AcDbLine
 62
7
  6
CONTINUOUS
 10
-28.4402334485
 20
-6.801775055
 11
-27.5271545703
 21
-6.801775055
  0
LINE
  5
5D1
100
AcDbEntity
  8
CURVE
100
AcDbLine
 62
253
  6
CONTINUOUS
 10
-8.3557259823
 20
-8.1493943978
 11
-8.5414402763
 21
-8.0565369893
  0
LINE
  5
5D2
100
AcDbEntity
  8
CURVE
100
AcDbLine
 62
253
  6
CONTINUOUS
 10
-7.7985831196
 20
-10.0993943978
 11
-8.7271545703
 21
-9.5422511864
  0
LINE
  5
5D3
100
AcDbEntity
  8
DRAFT
100
AcDbLine
 62
7
  6
CONTINUOUS
 10
-24.3318769838
 20
6.8529473585
 11
-24.2315180042
 21
6.7525883789
  0
LINE
  5
5D4
100
AcDbEntity
  8
DRAFT
100
AcDbLine
 62
7
  6
CONTINUOUS
 10
-24.3318769838
 20
7.1529473585
 11
-24.2315180042
 21
7.0525883789
  0
LINE
  5
5D5
100
AcDbEntity
  8
CURVE
100
AcDbLine
 62
253
  6
CONTINUOUS
 10
-8.5414402763
 20
-8.0565369893
 11
-8.7271545703
 21
-7.8708227921
  0
LINE
  5
5D6
100
AcDbEntity
  8
CURVE
100
AcDbLine
 62
253
  6
CONTINUOUS
 10
-7.3521545703
 20
-13.514275055
 11
-7.4146545703
 21
-13.326775055
  0
LINE
  5
5D7
100
AcDbEntity
  8
0
100
AcDbLine
 62
7
  6
CONTINUOUS
 10
-21.2271545703
 20
-32.651775055
 11
-21.190498934
 21
-32.6151194186
  0
LINE
  5
5D8
100
AcDbEntity
  8
DRAFT
100
AcDbLine
 62
7
  6
CONTINUOUS
 10
-21.2271545703
 20
-32.651775055
 11
-21.190498934
 21
-32.6151194186
  0
LINE
  5
5D9
100
AcDbEntity
  8
0
100
AcDbLine
 62
7
  6
CONTINUOUS
 10
-21.2271545703
 20
-32.851775055
 11
-21.190498934
 21
-32.8151194186
  0
LINE
  5
5DA
100
AcDbEntity
  8
DRAFT
100
AcDbLine
 62
7
  6
CONTINUOUS
 10
-21.2271545703
 20
-32.851775055
 11
-21.190498934
 21
-32.8151194186
  0
LINE
  5
5DB
100
AcDbEntity
  8
0
100
AcDbLine
 62
7
  6
CONTINUOUS
 10
-24.9176961965
 20
-35.2877450805
 11
-24.9829724001
 21
-35.3459572252
  0
LINE
  5
5DC
100
AcDbEntity
  8
SMUSSO
100
AcDbLine
 62
7
  6
CONTINUOUS
 10
-17.9771545703
 20
-6.701775055
 11
-12.9771545703
 21
-6.701775055
  0
LINE
  5
5DD
100
AcDbEntity
  8
ASSI
100
AcDbLine
 62
7
  6
CONTINUOUS
 10
-17.9771545703
 20
-6.701775055
 11
-12.9771545703
 21
-6.701775055
  0
LINE
  5
5DE
100
AcDbEntity
  8
CURVE
100
AcDbLine
 62
253
  6
CONTINUOUS
 10
-7.9842973943
 20
-6.5708227921
 11
-7.4271545703
 21
-6.5708227921
  0
LINE
  5
5DF
100
AcDbEntity
  8
SMUSSO
100
AcDbLine
 62
7
  6
CONTINUOUS
 10
-12.9771545703
 20
-6.201775055
 11
-17.9771545703
 21
-6.201775055
  0
LINE
  5
5E0
100
AcDbEntity
  8
ASSI
100
AcDbLine
 62
7
  6
CONTINUOUS
 10
-12.9771545703
 20
-6.201775055
 11
-17.9771545703
 21
-6.201775055
  0
LINE
  5
5E1
100
AcDbEntity
  8
RACCORDO
100
AcDbLine
 62
7
  6
CONTINUOUS
 10
-28.4402334485
 20
-6.101775055
 11
-27.5271545703
 21
-6.101775055
  0
LINE
  5
5E2
100
AcDbEntity
  8
ASSI
100
AcDbLine
 62
7
  6
CONTINUOUS
 10
-28.4402334485
 20
-6.101775055
 11
-27.5271545703
 21
-6.101775055
  0
LINE
  5
5E3
100
AcDbEntity
  8
SMUSSO
100
AcDbLine
 62
7
  6
CONTINUOUS
 10
-13.4771545703
 20
-5.701775055
 11
-17.4771545703
 21
-5.701775055
  0
LINE
  5
5E4
100
AcDbEntity
  8
ASSI
100
AcDbLine
 62
7
  6
CONTINUOUS
 10
-13.4771545703
 20
-5.701775055
 11
-17.4771545703
 21
-5.701775055
  0
LINE
  5
5E5
100
AcDbEntity
  8
0
100
AcDbLine
 62
7
  6
CONTINUOUS
 10
-17.1271545703
 20
-5.451775055
 11
-14.1871545703
 21
-5.451775055
  0
LINE
  5
5E6
100
AcDbEntity
  8
CURVE
100
AcDbLine
 62
253
  6
CONTINUOUS
 10
-7.7985831196
 20
-7.4993943978
 11
-7.612868845
 21
-7.5922511864
  0
LINE
  5
5E7
100
AcDbEntity
  8
0
100
AcDbLine
 62
7
  6
CONTINUOUS
 10
-24.9176961965
 20
9.3841949705
 11
-24.9829724001
 21
9.4424071152
  0
LINE
  5
5E8
100
AcDbEntity
  8
CURVE
100
AcDbLine
 62
253
  6
CONTINUOUS
 10
-8.7271545703
 20
-6.9422511864
 11
-8.5414402763
 21
-7.1279653836
  0
LINE
  5
5E9
100
AcDbEntity
  8
CURVE
100
AcDbLine
 62
253
  6
CONTINUOUS
 10
-7.612868845
 20
-7.5922511864
 11
-7.4271545703
 21
-7.7779653836
  0
LINE
  5
5EA
100
AcDbEntity
  8
CURVE
100
AcDbLine
 62
253
  6
CONTINUOUS
 10
-10.6414402361
 20
-4.401775055
 11
-10.912868848
 21
-4.1303464997
  0
LINE
  5
5EB
100
AcDbEntity
  8
SMUSSO
100
AcDbLine
 62
7
  6
CONTINUOUS
 10
-17.9771545703
 20
3.298224945
 11
-17.4771545703
 21
2.798224945
  0
LINE
  5
5EC
100
AcDbEntity
  8
ASSI
100
AcDbLine
 62
7
  6
CONTINUOUS
 10
-17.9771545703
 20
3.298224945
 11
-17.4771545703
 21
2.798224945
  0
LINE
  5
5ED
100
AcDbEntity
  8
0
100
AcDbLine
 62
7
  6
CONTINUOUS
 10
-21.2271545703
 20
6.748224945
 11
-21.190498934
 21
6.7115693087
  0
LINE
  5
5EE
100
AcDbEntity
  8
DRAFT
100
AcDbLine
 62
7
  6
CONTINUOUS
 10
-21.2271545703
 20
6.748224945
 11
-21.190498934
 21
6.7115693087
  0
LINE
  5
5EF
100
AcDbEntity
  8
0
100
AcDbLine
 62
7
  6
CONTINUOUS
 10
-21.190498934
 20
6.9115693087
 11
-21.2271545703
 21
6.948224945
  0
LINE
  5
5F0
100
AcDbEntity
  8
DRAFT
100
AcDbLine
 62
7
  6
CONTINUOUS
 10
-21.190498934
 20
6.9115693087
 11
-21.2271545703
 21
6.948224945
  0
LINE
  5
5F1
100
AcDbEntity
  8
SMUSSO
100
AcDbLine
 62
7
  6
CONTINUOUS
 10
-12.9771545703
 20
-1.201775055
 11
-13.4771545703
 21
-0.701775055
  0
LINE
  5
5F2
100
AcDbEntity
  8
ASSI
100
AcDbLine
 62
7
  6
CONTINUOUS
 10
-12.9771545703
 20
-1.201775055
 11
-13.4771545703
 21
-0.701775055
  0
LINE
  5
5F3
100
AcDbEntity
  8
CURVE
100
AcDbLine
 62
253
  6
CONTINUOUS
 10
-8.3247736032
 20
-3.5374892522
 11
-8.2319164659
 21
-3.7541560221
  0
LINE
  5
5F4
100
AcDbEntity
  8
CURVE
100
AcDbLine
 62
253
  6
CONTINUOUS
 10
-8.4176307599
 20
-4.001775055
 11
-8.3247736032
 21
-4.2493940879
  0
LINE
  5
5F5
100
AcDbEntity
  8
0
100
AcDbLine
 62
7
  6
CONTINUOUS
 10
-22.0644944905
 20
-36.817638959
 11
-22.0451661082
 21
-36.7961298829
  0
LINE
  5
5F6
100
AcDbEntity
  8
0
100
AcDbLine
 62
7
  6
CONTINUOUS
 10
-22.0451661082
 20
-36.7961298829
 11
-22.0230204412
 21
-36.7718086813
  0
LINE
  5
5F7
100
AcDbEntity
  8
0
100
AcDbLine
 62
7
  6
CONTINUOUS
 10
-22.0230204412
 20
-36.7718086813
 11
-21.9979480444
 21
-36.7445579831
  0
LINE
  5
5F8
100
AcDbEntity
  8
0
100
AcDbLine
 62
7
  6
CONTINUOUS
 10
-21.9979480444
 20
-36.7445579831
 11
-21.9698962858
 21
-36.7143372598
  0
LINE
  5
5F9
100
AcDbEntity
  8
0
100
AcDbLine
 62
7
  6
CONTINUOUS
 10
-21.9698962858
 20
-36.7143372598
 11
-21.9388651725
 21
-36.6811180528
  0
LINE
  5
5FA
100
AcDbEntity
  8
0
100
AcDbLine
 62
7
  6
CONTINUOUS
 10
-21.9388651725
 20
-36.6811180528
 11
-21.8869840529
 21
-36.6259522788
  0
LINE
  5
5FB
100
AcDbEntity
  8
0
100
AcDbLine
 62
7
  6
CONTINUOUS
 10
-21.8869840529
 20
-36.6259522788
 11
-21.8491717953
 21
-36.5859642121
  0
LINE
  5
5FC
100
AcDbEntity
  8
0
100
AcDbLine
 62
7
  6
CONTINUOUS
 10
-21.8491717953
 20
-36.5859642121
 11
-21.7672629051
 21
-36.4996204955
  0
LINE
  5
5FD
100
AcDbEntity
  8
0
100
AcDbLine
 62
7
  6
CONTINUOUS
 10
-21.7672629051
 20
-36.4996204955
 11
-21.6801972803
 21
-36.4081328697
  0
LINE
  5
5FE
100
AcDbEntity
  8
0
100
AcDbLine
 62
7
  6
CONTINUOUS
 10
-22.1771545703
 20
-35.351775055
 11
-22.1332323233
 21
-35.3078528079
  0
LINE
  5
5FF
100
AcDbEntity
  8
0
100
AcDbLine
 62
7
  6
CONTINUOUS
 10
-22.1335039235
 20
-36.9081244081
 11
-22.1771545703
 21
-36.951775055
  0
LINE
  5
600
100
AcDbEntity
  8
0
100
AcDbLine
 62
253
  6
CONTINUOUS
 10
-28.8771545703
 20
-34.851791978
 11
-28.8684277025
 21
-34.8459741482
  0
LINE
  5
601
100
AcDbEntity
  8
0
100
AcDbLine
 62
253
  6
CONTINUOUS
 10
-28.3771609164
 20
-35.351775055
 11
-28.3684340486
 21
-35.3459572252
  0
LINE
  5
602
100
AcDbEntity
  8
0
100
AcDbLine
 62
253
  6
CONTINUOUS
 10
-28.8771545703
 20
-30.6234741037
 11
-28.7549691158
 21
-30.5728632313
  0
LINE
  5
603
100
AcDbEntity
  8
RACCORDO
100
AcDbLine
 62
253
  6
CONTINUOUS
 10
-28.8771545703
 20
-30.6234741037
 11
-28.7549691158
 21
-30.5728632313
  0
LINE
  5
604
100
AcDbEntity
  8
CURVE
100
AcDbLine
 62
253
  6
CONTINUOUS
 10
-10.0985831256
 20
-4.401775055
 11
-10.6414402361
 21
-4.401775055
  0
LINE
  5
605
100
AcDbEntity
  8
CURVE
100
AcDbLine
 62
7
  6
CONTINUOUS
 10
-20.6791145703
 20
-3.969331055
 11
-21.4299345703
 21
-3.969331055
  0
LINE
  5
606
100
AcDbEntity
  8
CURVE
100
AcDbLine
 62
7
  6
CONTINUOUS
 10
-25.0243745703
 20
-3.969331055
 11
-25.7751945703
 21
-3.969331055
  0
LINE
  5
607
100
AcDbEntity
  8
CURVE
100
AcDbLine
 62
7
  6
CONTINUOUS
 10
-22.8521545703
 20
-3.569331055
 11
-23.6021545703
 21
-3.569331055
  0
LINE
  5
608
100
AcDbEntity
  8
CURVE
100
AcDbLine
 62
253
  6
CONTINUOUS
 10
-11.7271545703
 20
-3.451775055
 11
-9.8271545703
 21
-3.451775055
  0
LINE
  5
609
100
AcDbEntity
  8
0
100
AcDbLine
 62
253
  6
CONTINUOUS
 10
-28.7549691158
 20
4.6693131213
 11
-28.8771545703
 21
4.7199239937
  0
LINE
  5
60A
100
AcDbEntity
  8
RACCORDO
100
AcDbLine
 62
253
  6
CONTINUOUS
 10
-28.7549691158
 20
4.6693131213
 11
-28.8771545703
 21
4.7199239937
  0
LINE
  5
60B
100
AcDbEntity
  8
0
100
AcDbLine
 62
253
  6
CONTINUOUS
 10
-28.8684277025
 20
8.9424240382
 11
-28.8771545703
 21
8.948241868
  0
LINE
  5
60C
100
AcDbEntity
  8
0
100
AcDbLine
 62
253
  6
CONTINUOUS
 10
-28.3684340486
 20
9.4424071152
 11
-28.3771609164
 21
9.448224945
  0
LINE
  5
60D
100
AcDbEntity
  8
0
100
AcDbLine
 62
7
  6
CONTINUOUS
 10
-22.1771545703
 20
9.448224945
 11
-22.1332323233
 21
9.404302698
  0
LINE
  5
60E
100
AcDbEntity
  8
0
100
AcDbLine
 62
7
  6
CONTINUOUS
 10
-22.1335039235
 20
11.0045742981
 11
-22.1771545703
 21
11.048224945
  0
LINE
  5
60F
100
AcDbEntity
  8
0
100
AcDbLine
 62
7
  6
CONTINUOUS
 10
-21.7022245042
 20
10.5278030164
 11
-21.7672225154
 21
10.5960276657
  0
LINE
  5
610
100
AcDbEntity
  8
0
100
AcDbLine
 62
7
  6
CONTINUOUS
 10
-21.6801972803
 20
10.5045827597
 11
-21.7022245042
 21
10.5278030164
  0
LINE
  5
611
100
AcDbEntity
  8
0
100
AcDbLine
 62
7
  6
CONTINUOUS
 10
-21.7672225154
 20
10.5960276657
 11
-21.849124524
 21
10.6823640976
  0
LINE
  5
612
100
AcDbEntity
  8
0
100
AcDbLine
 62
7
  6
CONTINUOUS
 10
-21.849124524
 20
10.6823640976
 11
-21.9048668748
 21
10.7413878254
  0
LINE
  5
613
100
AcDbEntity
  8
0
100
AcDbLine
 62
7
  6
CONTINUOUS
 10
-21.9048668748
 20
10.7413878254
 11
-21.9546260982
 21
10.7944157804
  0
LINE
  5
614
100
AcDbEntity
  8
0
100
AcDbLine
 62
7
  6
CONTINUOUS
 10
-21.9546260982
 20
10.7944157804
 11
-21.9841716611
 21
10.8261361007
  0
LINE
  5
615
100
AcDbEntity
  8
0
100
AcDbLine
 62
7
  6
CONTINUOUS
 10
-21.9841716611
 20
10.8261361007
 11
-22.0107395895
 21
10.8548808617
  0
LINE
  5
616
100
AcDbEntity
  8
0
100
AcDbLine
 62
7
  6
CONTINUOUS
 10
-22.0107395895
 20
10.8548808617
 11
-22.0343393952
 21
10.8806480094
  0
LWPOLYLINE
  5
617
100
AcDbEntity
  8
0
100
AcDbPolyline
 62
7
  6
CONTINUOUS
 90
19
 70
0
 10
-22.0343393952
 20
10.8806480094
 10
-22.0550659231
 20
10.9035614579
 10
-22.0643800567
 20
10.9139606939
 10
-22.0730253847
 20
10.9237081722
 10
-22.0810086448
 20
10.9327989206
 10
-22.0883488322
 20
10.9412379113
 10
-22.0950842931
 20
10.9490915226
 10
-22.1012214642
 20
10.9563614384
 10
-22.1067751332
 20
10.9630459747
 10
-22.1117834723
 20
10.9692064576
 10
-22.1162552338
 20
10.9748545679
 10
-22.1201894192
 20
10.9799786249
 10
-22.1235987722
 20
10.9846049123
 10
-22.1264874274
 20
10.9887364444
 10
-22.1288568551
 20
10.992370207
 10
-22.1307122224
 20
10.9955234416
 10
-22.1320573308
 20
10.9982018952
 10
-22.1328958013
 20
11.0003998207
 10
-22.1332323233
 20
11.0021172181
  0
LINE
  5
618
100
AcDbEntity
  8
CURVE
100
AcDbLine
 62
253
  6
CONTINUOUS
 10
-7.9842973943
 20
-0.8446321536
 11
-7.8914402957
 21
-0.9993940879
  0
LWPOLYLINE
  5
619
100
AcDbEntity
  8
0
100
AcDbPolyline
 62
7
  6
CONTINUOUS
 90
6
 70
0
 10
-7.5796990962
 20
11.3338073111
 10
-7.5816722026
 20
11.3455412325
 10
-7.5842013886
 20
11.3571679838
 10
-7.5872809286
 20
11.368661224
 10
-7.590903849
 20
11.3799949188
 10
-7.5950619446
 20
11.3911433943
  0
LWPOLYLINE
  5
61A
100
AcDbEntity
  8
0
100
AcDbPolyline
 62
253
  6
CONTINUOUS
 90
3
 70
0
 10
-19.620476761
 20
-30.2965892259
 10
-19.577431227
 20
-30.2695390949
 10
-19.5299065069
 20
-30.2496765988
  0
LWPOLYLINE
  5
61B
100
AcDbEntity
  8
RACCORDO
100
AcDbPolyline
 62
253
  6
CONTINUOUS
 90
3
 70
0
 10
-19.620476761
 20
-30.2965892259
 10
-19.577431227
 20
-30.2695390949
 10
-19.5299065069
 20
-30.2496765988
  0
LINE
  5
61C
100
AcDbEntity
  8
0
100
AcDbLine
 62
253
  6
CONTINUOUS
 10
-28.2914573508
 20
-32.0374722745
 11
-28.1692718963
 21
-31.9868614021
  0
LINE
  5
61D
100
AcDbEntity
  8
RACCORDO
100
AcDbLine
 62
253
  6
CONTINUOUS
 10
-28.2914573508
 20
-32.0374722745
 11
-28.1692718963
 21
-31.9868614021
  0
LINE
  5
61E
100
AcDbEntity
  8
0
100
AcDbLine
 62
7
  6
CONTINUOUS
 10
-14.1871545703
 20
-2.451775055
 11
-17.1271545703
 21
-2.451775055
  0
LINE
  5
61F
100
AcDbEntity
  8
SMUSSO
100
AcDbLine
 62
7
  6
CONTINUOUS
 10
-17.4771545703
 20
-2.201775055
 11
-13.4771545703
 21
-2.201775055
  0
LINE
  5
620
100
AcDbEntity
  8
ASSI
100
AcDbLine
 62
7
  6
CONTINUOUS
 10
-17.4771545703
 20
-2.201775055
 11
-13.4771545703
 21
-2.201775055
  0
LINE
  5
621
100
AcDbEntity
  8
CURVE
100
AcDbLine
 62
253
  6
CONTINUOUS
 10
-7.7985831196
 20
-2.051775055
 11
-8.3557259823
 21
-2.051775055
  0
LINE
  5
622
100
AcDbEntity
  8
RACCORDO
100
AcDbLine
 62
7
  6
CONTINUOUS
 10
-28.4402334485
 20
-1.801775055
 11
-27.5271545703
 21
-1.801775055
  0
LINE
  5
623
100
AcDbEntity
  8
ASSI
100
AcDbLine
 62
7
  6
CONTINUOUS
 10
-28.4402334485
 20
-1.801775055
 11
-27.5271545703
 21
-1.801775055
  0
LINE
  5
624
100
AcDbEntity
  8
SMUSSO
100
AcDbLine
 62
7
  6
CONTINUOUS
 10
-17.9771545703
 20
-1.701775055
 11
-12.9771545703
 21
-1.701775055
  0
LINE
  5
625
100
AcDbEntity
  8
ASSI
100
AcDbLine
 62
7
  6
CONTINUOUS
 10
-17.9771545703
 20
-1.701775055
 11
-12.9771545703
 21
-1.701775055
  0
LINE
  5
626
100
AcDbEntity
  8
CURVE
100
AcDbLine
 62
253
  6
CONTINUOUS
 10
-8.3557259823
 20
-1.401775055
 11
-7.7985831196
 21
-1.401775055
  0
LINE
  5
627
100
AcDbEntity
  8
SMUSSO
100
AcDbLine
 62
7
  6
CONTINUOUS
 10
-12.9771545703
 20
-1.201775055
 11
-17.9771545703
 21
-1.201775055
  0
LINE
  5
628
100
AcDbEntity
  8
ASSI
100
AcDbLine
 62
7
  6
CONTINUOUS
 10
-12.9771545703
 20
-1.201775055
 11
-17.9771545703
 21
-1.201775055
  0
LINE
  5
629
100
AcDbEntity
  8
RACCORDO
100
AcDbLine
 62
7
  6
CONTINUOUS
 10
-28.4402334485
 20
-1.101775055
 11
-27.5271545703
 21
-1.101775055
  0
LINE
  5
62A
100
AcDbEntity
  8
ASSI
100
AcDbLine
 62
7
  6
CONTINUOUS
 10
-28.4402334485
 20
-1.101775055
 11
-27.5271545703
 21
-1.101775055
  0
LINE
  5
62B
100
AcDbEntity
  8
CURVE
100
AcDbLine
 62
253
  6
CONTINUOUS
 10
-8.6342974233
 20
-1.0303465057
 11
-8.1700117077
 21
-1.0303465057
  0
LINE
  5
62C
100
AcDbEntity
  8
CURVE
100
AcDbLine
 62
253
  6
CONTINUOUS
 10
-7.8914402957
 20
-0.9993940879
 11
-7.612868845
 21
-0.9993940879
  0
LINE
  5
62D
100
AcDbEntity
  8
CURVE
100
AcDbLine
 62
253
  6
CONTINUOUS
 10
-8.7271545703
 20
-2.7946321536
 11
-7.4271545703
 21
-3.1660608578
  0
LINE
  5
62E
100
AcDbEntity
  8
0
100
AcDbLine
 62
253
  6
CONTINUOUS
 10
-28.1692718963
 20
6.0833112921
 11
-28.2914573508
 21
6.1339221645
  0
LINE
  5
62F
100
AcDbEntity
  8
RACCORDO
100
AcDbLine
 62
253
  6
CONTINUOUS
 10
-28.1692718963
 20
6.0833112921
 11
-28.2914573508
 21
6.1339221645
  0
LINE
  5
630
100
AcDbEntity
  8
CURVE
100
AcDbLine
 62
253
  6
CONTINUOUS
 10
-8.3557259823
 20
-2.051775055
 11
-8.5414402763
 21
-1.9589179564
  0
LWPOLYLINE
  5
631
100
AcDbEntity
  8
0
100
AcDbPolyline
 62
253
  6
CONTINUOUS
 90
4
 70
0
 10
-19.620476761
 20
4.3930391159
 10
-19.577431227
 20
4.3659889849
 10
-19.5299065069
 20
4.3461264888
 10
-19.4792970356
 20
4.333980871
  0
LWPOLYLINE
  5
632
100
AcDbEntity
  8
RACCORDO
100
AcDbPolyline
 62
253
  6
CONTINUOUS
 90
4
 70
0
 10
-19.620476761
 20
4.3930391159
 10
-19.577431227
 20
4.3659889849
 10
-19.5299065069
 20
4.3461264888
 10
-19.4792970356
 20
4.333980871
  0
LINE
  5
633
100
AcDbEntity
  8
CURVE
100
AcDbLine
 62
253
  6
CONTINUOUS
 10
-8.5414402763
 20
-1.9589179564
 11
-8.7271545703
 21
-1.7732036043
  0
LINE
  5
634
100
AcDbEntity
  8
CURVE
100
AcDbLine
 62
253
  6
CONTINUOUS
 10
-8.7271545703
 20
-0.9374894071
 11
-8.6342974233
 21
-1.0303465057
  0
LINE
  5
635
100
AcDbEntity
  8
CURVE
100
AcDbLine
 62
253
  6
CONTINUOUS
 10
-7.612868845
 20
-1.4946321536
 11
-7.4271545703
 21
-1.6803465057
  0
LWPOLYLINE
  5
636
100
AcDbEntity
  8
0
100
AcDbPolyline
 62
7
  6
CONTINUOUS
 90
9
 70
0
 10
-7.5950619446
 20
-37.2946935043
 10
-7.590903849
 20
-37.2835450288
 10
-7.5872809286
 20
-37.272211334
 10
-7.5842013886
 20
-37.2607180938
 10
-7.5816722026
 20
-37.2490913425
 10
-7.5796990962
 20
-37.2373574211
 10
-7.5782865361
 20
-37.2255429106
 10
-7.5774377206
 20
-37.213674571
 10
-7.5771545703
 20
-37.2017792858
  0
LWPOLYLINE
  5
637
100
AcDbEntity
  8
0
100
AcDbPolyline
 62
7
  6
CONTINUOUS
 90
5
 70
0
 10
-14.1930702926
 20
-36.8574464274
 10
-14.1865453658
 20
-36.8497964739
 10
-14.1793548527
 20
-36.8414523918
 10
-14.1714809667
 20
-36.8324141812
 10
-14.1629094227
 20
-36.8226983736
  0
LINE
  5
638
100
AcDbEntity
  8
SMUSSO
100
AcDbLine
 62
7
  6
CONTINUOUS
 10
-13.4771545703
 20
-0.701775055
 11
-17.4771545703
 21
-0.701775055
  0
LINE
  5
639
100
AcDbEntity
  8
ASSI
100
AcDbLine
 62
7
  6
CONTINUOUS
 10
-13.4771545703
 20
-0.701775055
 11
-17.4771545703
 21
-0.701775055
  0
LINE
  5
63A
100
AcDbEntity
  8
0
100
AcDbLine
 62
7
  6
CONTINUOUS
 10
-17.1271545703
 20
-0.451775055
 11
-14.1871545703
 21
-0.451775055
  0
LINE
  5
63B
100
AcDbEntity
  8
CURVE
100
AcDbLine
 62
253
  6
CONTINUOUS
 10
-7.7985831196
 20
-0.101775055
 11
-7.612868845
 21
-0.101775055
  0
LINE
  5
63C
100
AcDbEntity
  8
CURVE
100
AcDbLine
 62
7
  6
CONTINUOUS
 10
-20.6791145703
 20
0.415778945
 11
-21.4299345703
 21
0.415778945
  0
LINE
  5
63D
100
AcDbEntity
  8
CURVE
100
AcDbLine
 62
7
  6
CONTINUOUS
 10
-25.0243745703
 20
0.415778945
 11
-25.7751945703
 21
0.415778945
  0
LINE
  5
63E
100
AcDbEntity
  8
CURVE
100
AcDbLine
 62
253
  6
CONTINUOUS
 10
-7.7985831196
 20
-1.401775055
 11
-7.612868845
 21
-1.4946321536
  0
LINE
  5
63F
100
AcDbEntity
  8
CURVE
100
AcDbLine
 62
253
  6
CONTINUOUS
 10
-7.4271545703
 20
0.362510651
 11
-7.705726021
 21
0.548224945
  0
LINE
  5
640
100
AcDbEntity
  8
CURVE
100
AcDbLine
 62
253
  6
CONTINUOUS
 10
-8.7271545703
 20
0.548224945
 11
-7.7985831196
 21
-0.101775055
  0
LWPOLYLINE
  5
641
100
AcDbEntity
  8
0
100
AcDbPolyline
 62
7
  6
CONTINUOUS
 90
18
 70
0
 10
-7.5950619446
 20
11.3911433943
 10
-7.5997457982
 20
11.4020813913
 10
-7.6049448015
 20
11.4127841326
 10
-7.6106471787
 20
11.4232273733
 10
-7.6168400122
 20
11.4333874509
 10
-7.6235092749
 20
11.4432413501
 10
-7.6306398596
 20
11.4527667488
 10
-7.6382156115
 20
11.4619420641
 10
-7.6462193698
 20
11.4707465111
 10
-7.6546330042
 20
11.4791601455
 10
-7.6634374513
 20
11.4871639039
 10
-7.6726127665
 20
11.4947396557
 10
-7.6821381652
 20
11.5018702405
 10
-7.6919920644
 20
11.5085395031
 10
-7.7021521421
 20
11.5147323366
 10
-7.7125953827
 20
11.5204347138
 10
-7.723298124
 20
11.5256337172
 10
-7.734236121
 20
11.5303175708
  0
LINE
  5
642
100
AcDbEntity
  8
0
100
AcDbLine
 62
7
  6
CONTINUOUS
 10
-14.1629094227
 20
-36.8226983736
 11
-14.1436023514
 21
-36.801134778
  0
LINE
  5
643
100
AcDbEntity
  8
0
100
AcDbLine
 62
7
  6
CONTINUOUS
 10
-14.1436023514
 20
-36.801134778
 11
-14.1212820959
 21
-36.7765561738
  0
LINE
  5
644
100
AcDbEntity
  8
0
100
AcDbLine
 62
7
  6
CONTINUOUS
 10
-14.1212820959
 20
-36.7765561738
 11
-14.0959949959
 21
-36.7490326572
  0
LINE
  5
645
100
AcDbEntity
  8
0
100
AcDbLine
 62
7
  6
CONTINUOUS
 10
-14.0959949959
 20
-36.7490326572
 11
-14.0677706978
 21
-36.7185906654
  0
LINE
  5
646
100
AcDbEntity
  8
0
100
AcDbLine
 62
7
  6
CONTINUOUS
 10
-14.0677706978
 20
-36.7185906654
 11
-14.0367036023
 21
-36.6853112747
  0
LINE
  5
647
100
AcDbEntity
  8
0
100
AcDbLine
 62
7
  6
CONTINUOUS
 10
-14.0367036023
 20
-36.6853112747
 11
-13.9845171578
 21
-36.6297916388
  0
LINE
  5
648
100
AcDbEntity
  8
0
100
AcDbLine
 62
7
  6
CONTINUOUS
 10
-13.9845171578
 20
-36.6297916388
 11
-13.9255489048
 21
-36.5674221778
  0
LWPOLYLINE
  5
649
100
AcDbEntity
  8
0
100
AcDbPolyline
 62
7
  6
CONTINUOUS
 90
4
 70
0
 10
-13.9255489048
 20
-36.5674221778
 10
-13.8395591293
 20
-36.4769053129
 10
-13.8177109262
 20
-36.454010906
 10
-13.7741118604
 20
-36.4081328697
  0
LINE
  5
64A
100
AcDbEntity
  8
DRAFT
100
AcDbLine
 62
7
  6
CONTINUOUS
 10
-10.5318769838
 20
-32.7564974685
 11
-10.4315180042
 21
-32.6561384889
  0
LINE
  5
64B
100
AcDbEntity
  8
0
100
AcDbLine
 62
7
  6
CONTINUOUS
 10
-10.3271545703
 20
-32.651775055
 11
-10.290498934
 21
-32.6151194186
  0
LINE
  5
64C
100
AcDbEntity
  8
DRAFT
100
AcDbLine
 62
7
  6
CONTINUOUS
 10
-10.3271545703
 20
-32.651775055
 11
-10.290498934
 21
-32.6151194186
  0
LINE
  5
64D
100
AcDbEntity
  8
DRAFT
100
AcDbLine
 62
7
  6
CONTINUOUS
 10
-10.5318769838
 20
-33.9477706007
 11
-10.4358811058
 21
-33.8517753873
  0
LINE
  5
64E
100
AcDbEntity
  8
DRAFT
100
AcDbLine
 62
7
  6
CONTINUOUS
 10
-10.4358811058
 20
-33.8605015905
 11
-10.4271545703
 21
-33.851775055
  0
LINE
  5
64F
100
AcDbEntity
  8
CURVE
100
AcDbLine
 62
253
  6
CONTINUOUS
 10
-9.8271545703
 20
1.348224945
 11
-11.7271545703
 21
1.348224945
  0
LINE
  5
650
100
AcDbEntity
  8
0
100
AcDbLine
 62
253
  6
CONTINUOUS
 10
-27.5866953429
 20
1.6137752466
 11
-27.5271545703
 21
1.6137752466
  0
LINE
  5
651
100
AcDbEntity
  8
RACCORDO
100
AcDbLine
 62
253
  6
CONTINUOUS
 10
-27.5866953429
 20
1.6137752466
 11
-27.5271545703
 21
1.6137752466
  0
LINE
  5
652
100
AcDbEntity
  8
0
100
AcDbLine
 62
253
  6
CONTINUOUS
 10
-27.5857678902
 20
1.9137295552
 11
-27.5271545703
 21
1.9137295552
  0
LINE
  5
653
100
AcDbEntity
  8
RACCORDO
100
AcDbLine
 62
253
  6
CONTINUOUS
 10
-27.5857678902
 20
1.9137295552
 11
-27.5271545703
 21
1.9137295552
  0
LINE
  5
654
100
AcDbEntity
  8
0
100
AcDbLine
 62
7
  6
CONTINUOUS
 10
-27.5857210921
 20
1.9260394905
 11
-27.5271545703
 21
1.9260394905
  0
LINE
  5
655
100
AcDbEntity
  8
RACCORDO
100
AcDbLine
 62
7
  6
CONTINUOUS
 10
-27.5857210921
 20
1.9260394905
 11
-27.5271545703
 21
1.9260394905
  0
LINE
  5
656
100
AcDbEntity
  8
0
100
AcDbLine
 62
7
  6
CONTINUOUS
 10
-14.1871545703
 20
2.548224945
 11
-17.1271545703
 21
2.548224945
  0
LINE
  5
657
100
AcDbEntity
  8
SMUSSO
100
AcDbLine
 62
7
  6
CONTINUOUS
 10
-17.4771545703
 20
2.798224945
 11
-13.4771545703
 21
2.798224945
  0
LINE
  5
658
100
AcDbEntity
  8
ASSI
100
AcDbLine
 62
7
  6
CONTINUOUS
 10
-17.4771545703
 20
2.798224945
 11
-13.4771545703
 21
2.798224945
  0
LINE
  5
659
100
AcDbEntity
  8
DRAFT
100
AcDbLine
 62
7
  6
CONTINUOUS
 10
-10.5318769838
 20
6.8529473585
 11
-10.4315180042
 21
6.7525883789
  0
LINE
  5
65A
100
AcDbEntity
  8
0
100
AcDbLine
 62
7
  6
CONTINUOUS
 10
-10.3271545703
 20
6.748224945
 11
-10.290498934
 21
6.7115693087
  0
LINE
  5
65B
100
AcDbEntity
  8
DRAFT
100
AcDbLine
 62
7
  6
CONTINUOUS
 10
-10.3271545703
 20
6.748224945
 11
-10.290498934
 21
6.7115693087
  0
LINE
  5
65C
100
AcDbEntity
  8
DRAFT
100
AcDbLine
 62
7
  6
CONTINUOUS
 10
-10.5318769838
 20
8.0442204907
 11
-10.4358814381
 21
7.948224945
  0
LINE
  5
65D
100
AcDbEntity
  8
0
100
AcDbLine
 62
7
  6
CONTINUOUS
 10
-13.7958269627
 20
10.5274838937
 11
-13.8614091013
 21
10.5963093443
  0
LINE
  5
65E
100
AcDbEntity
  8
0
100
AcDbLine
 62
7
  6
CONTINUOUS
 10
-13.7741118604
 20
10.5045827597
 11
-13.7958269627
 21
10.5274838937
  0
LINE
  5
65F
100
AcDbEntity
  8
0
100
AcDbLine
 62
7
  6
CONTINUOUS
 10
-13.8614091013
 20
10.5963093443
 11
-13.9459992965
 21
10.6854850644
  0
LINE
  5
660
100
AcDbEntity
  8
0
100
AcDbLine
 62
7
  6
CONTINUOUS
 10
-13.9459992965
 20
10.6854850644
 11
-14.0026752674
 21
10.7455251284
  0
LINE
  5
661
100
AcDbEntity
  8
0
100
AcDbLine
 62
7
  6
CONTINUOUS
 10
-14.0026752674
 20
10.7455251284
 11
-14.0367019469
 21
10.7817596722
  0
LINE
  5
662
100
AcDbEntity
  8
0
100
AcDbLine
 62
7
  6
CONTINUOUS
 10
-14.0367019469
 20
10.7817596722
 11
-14.0677629564
 21
10.8150322362
  0
LINE
  5
663
100
AcDbEntity
  8
0
100
AcDbLine
 62
7
  6
CONTINUOUS
 10
-14.0677629564
 20
10.8150322362
 11
-14.0960182662
 21
10.8455069718
  0
LINE
  5
664
100
AcDbEntity
  8
0
100
AcDbLine
 62
7
  6
CONTINUOUS
 10
-14.0960182662
 20
10.8455069718
 11
-14.12132566
 21
10.8730537477
  0
LINE
  5
665
100
AcDbEntity
  8
0
100
AcDbLine
 62
7
  6
CONTINUOUS
 10
-14.12132566
 20
10.8730537477
 11
-14.1436475963
 21
10.8976348264
  0
LWPOLYLINE
  5
666
100
AcDbEntity
  8
0
100
AcDbPolyline
 62
7
  6
CONTINUOUS
 90
6
 70
0
 10
-14.1436475963
 20
10.8976348264
 10
-14.1629391252
 20
10.9191819965
 10
-14.1715018558
 20
10.9288878576
 10
-14.1793682531
 20
10.9379178522
 10
-14.1865517696
 20
10.9462540054
 10
-14.1930702926
 20
10.9538963174
  0
LINE
  5
667
100
AcDbEntity
  8
DRAFT
100
AcDbLine
 62
7
  6
CONTINUOUS
 10
-10.1085254202
 20
-33.851775055
 11
-10.0585254202
 21
-33.801775055
  0
LINE
  5
668
100
AcDbEntity
  8
DRAFT
100
AcDbLine
 62
7
  6
CONTINUOUS
 10
-10.0838421107
 20
-33.851775055
 11
-10.0338421107
 21
-33.801775055
  0
LINE
  5
669
100
AcDbEntity
  8
RACCORDO
100
AcDbLine
 62
7
  6
CONTINUOUS
 10
-7.7368428976
 20
-32.3651658202
 11
-7.9260701826
 21
-32.5543929985
  0
LINE
  5
66A
100
AcDbEntity
  8
ASSI
100
AcDbLine
 62
7
  6
CONTINUOUS
 10
-7.7368428976
 20
-32.3651658202
 11
-7.9260701826
 21
-32.5543929985
  0
LINE
  5
66B
100
AcDbEntity
  8
RACCORDO
100
AcDbLine
 62
7
  6
CONTINUOUS
 10
-7.006946335
 20
-31.6500793018
 11
-7.6288503235
 21
-32.2719832903
  0
LINE
  5
66C
100
AcDbEntity
  8
ASSI
100
AcDbLine
 62
7
  6
CONTINUOUS
 10
-7.006946335
 20
-31.6500793018
 11
-7.6288503235
 21
-32.2719832903
  0
LINE
  5
66D
100
AcDbEntity
  8
0
100
AcDbLine
 62
7
  6
CONTINUOUS
 10
-9.0999508972
 20
-33.801775055
 11
-7.2850372443
 21
-31.9868614021
  0
LINE
  5
66E
100
AcDbEntity
  8
RACCORDO
100
AcDbLine
 62
7
  6
CONTINUOUS
 10
-9.0999508972
 20
-33.801775055
 11
-7.2850372443
 21
-31.9868614021
  0
LINE
  5
66F
100
AcDbEntity
  8
0
100
AcDbLine
 62
7
  6
CONTINUOUS
 10
-9.4946096353
 20
-34.3568884651
 11
-9.6605850685
 21
-34.5228638984
  0
LINE
  5
670
100
AcDbEntity
  8
RACCORDO
100
AcDbLine
 62
7
  6
CONTINUOUS
 10
-8.9271545703
 20
-33.801775055
 11
-7.1628517898
 21
-32.0374722745
  0
LINE
  5
671
100
AcDbEntity
  8
0
100
AcDbLine
 62
7
  6
CONTINUOUS
 10
-6.5858814381
 20
-31.4605019228
 11
-10.4713367405
 21
-35.3459572252
  0
LINE
  5
672
100
AcDbEntity
  8
0
100
AcDbLine
 62
253
  6
CONTINUOUS
 10
-16.7185872003
 20
-36.7460703248
 11
-16.7271545703
 21
-36.7517818242
  0
LINE
  5
673
100
AcDbEntity
  8
0
100
AcDbLine
 62
253
  6
CONTINUOUS
 10
-16.5186049707
 20
-36.94607371
 11
-16.5271571088
 21
-36.951775055
  0
LINE
  5
674
100
AcDbEntity
  8
0
100
AcDbLine
 62
7
  6
CONTINUOUS
 10
-16.7271545703
 20
-35.351775055
 11
-16.7184806169
 21
-35.3465707675
  0
LWPOLYLINE
  5
675
100
AcDbEntity
  8
0
100
AcDbPolyline
 62
7
  6
CONTINUOUS
 90
18
 70
0
 10
-25.134236121
 20
-37.4338676808
 10
-25.123298124
 20
-37.4291838272
 10
-25.1125953827
 20
-37.4239848238
 10
-25.1021521421
 20
-37.4182824466
 10
-25.0919920644
 20
-37.4120896131
 10
-25.0821381652
 20
-37.4054203505
 10
-25.0726127665
 20
-37.3982897657
 10
-25.0634374513
 20
-37.3907140139
 10
-25.0546330042
 20
-37.3827102555
 10
-25.0462193698
 20
-37.3742966211
 10
-25.0382156115
 20
-37.3654921741
 10
-25.0306398596
 20
-37.3563168588
 10
-25.0235092749
 20
-37.3467914601
 10
-25.0168400122
 20
-37.3369375609
 10
-25.0106471787
 20
-37.3267774833
 10
-25.0049448015
 20
-37.3163342426
 10
-24.9997457982
 20
-37.3056315013
 10
-24.9950619446
 20
-37.2946935043
  0
LINE
  5
676
100
AcDbEntity
  8
0
100
AcDbLine
 62
253
  6
CONTINUOUS
 10
-15.975012105
 20
4.333980871
 11
-16.0271545703
 21
4.3298967877
  0
LINE
  5
677
100
AcDbEntity
  8
RACCORDO
100
AcDbLine
 62
253
  6
CONTINUOUS
 10
-15.975012105
 20
4.333980871
 11
-16.0271545703
 21
4.3298967877
  0
LINE
  5
678
100
AcDbEntity
  8
RACCORDO
100
AcDbLine
 62
7
  6
CONTINUOUS
 10
-28.4402334485
 20
3.198224945
 11
-27.5271545703
 21
3.198224945
  0
LINE
  5
679
100
AcDbEntity
  8
ASSI
100
AcDbLine
 62
7
  6
CONTINUOUS
 10
-28.4402334485
 20
3.198224945
 11
-27.5271545703
 21
3.198224945
  0
LINE
  5
67A
100
AcDbEntity
  8
SMUSSO
100
AcDbLine
 62
7
  6
CONTINUOUS
 10
-17.9771545703
 20
3.298224945
 11
-12.9771545703
 21
3.298224945
  0
LINE
  5
67B
100
AcDbEntity
  8
ASSI
100
AcDbLine
 62
7
  6
CONTINUOUS
 10
-17.9771545703
 20
3.298224945
 11
-12.9771545703
 21
3.298224945
  0
LINE
  5
67C
100
AcDbEntity
  8
0
100
AcDbLine
 62
7
  6
CONTINUOUS
 10
-15.2271545703
 20
3.648224945
 11
-20.2271545703
 21
3.648224945
  0
LINE
  5
67D
100
AcDbEntity
  8
ASSI
100
AcDbLine
 62
7
  6
CONTINUOUS
 10
-15.2271545703
 20
3.648224945
 11
-20.2271545703
 21
3.648224945
  0
LINE
  5
67E
100
AcDbEntity
  8
0
100
AcDbLine
 62
7
  6
CONTINUOUS
 10
-19.4271545703
 20
4.298224945
 11
-16.0271545703
 21
4.298224945
  0
LINE
  5
67F
100
AcDbEntity
  8
RACCORDO
100
AcDbLine
 62
7
  6
CONTINUOUS
 10
-19.4271545703
 20
4.298224945
 11
-16.0271545703
 21
4.298224945
  0
LINE
  5
680
100
AcDbEntity
  8
0
100
AcDbLine
 62
253
  6
CONTINUOUS
 10
-19.4271545703
 20
4.3298967877
 11
-16.0271545703
 21
4.3298967877
  0
LINE
  5
681
100
AcDbEntity
  8
RACCORDO
100
AcDbLine
 62
253
  6
CONTINUOUS
 10
-19.4271545703
 20
4.3298967877
 11
-16.0271545703
 21
4.3298967877
  0
LINE
  5
682
100
AcDbEntity
  8
RACCORDO
100
AcDbLine
 62
7
  6
CONTINUOUS
 10
-16.1231615395
 20
4.348224945
 11
-19.3311476011
 21
4.348224945
  0
LINE
  5
683
100
AcDbEntity
  8
ASSI
100
AcDbLine
 62
7
  6
CONTINUOUS
 10
-16.1231615395
 20
4.348224945
 11
-19.3311476011
 21
4.348224945
  0
LINE
  5
684
100
AcDbEntity
  8
ASSI
100
AcDbLine
 62
7
  6
CONTINUOUS
 10
-15.2271545703
 20
4.548224945
 11
-20.2271545703
 21
4.548224945
  0
LINE
  5
685
100
AcDbEntity
  8
0
100
AcDbLine
 62
253
  6
CONTINUOUS
 10
-19.4792970356
 20
4.333980871
 11
-19.4271545703
 21
4.3298967877
  0
LINE
  5
686
100
AcDbEntity
  8
RACCORDO
100
AcDbLine
 62
253
  6
CONTINUOUS
 10
-19.4792970356
 20
4.333980871
 11
-19.4271545703
 21
4.3298967877
  0
LINE
  5
687
100
AcDbEntity
  8
0
100
AcDbLine
 62
7
  6
CONTINUOUS
 10
-16.7184806169
 20
9.4430206575
 11
-16.7271545703
 21
9.448224945
  0
LINE
  5
688
100
AcDbEntity
  8
0
100
AcDbLine
 62
253
  6
CONTINUOUS
 10
-16.7271545703
 20
10.8482317142
 11
-16.7185872003
 21
10.8425202148
  0
LINE
  5
689
100
AcDbEntity
  8
0
100
AcDbLine
 62
253
  6
CONTINUOUS
 10
-16.5271571088
 20
11.048224945
 11
-16.5186049707
 21
11.0425236
  0
LINE
  5
68A
100
AcDbEntity
  8
DRAFT
100
AcDbLine
 62
7
  6
CONTINUOUS
 10
-10.0585254202
 20
7.898224945
 11
-10.1085254202
 21
7.948224945
  0
LINE
  5
68B
100
AcDbEntity
  8
DRAFT
100
AcDbLine
 62
7
  6
CONTINUOUS
 10
-10.0338421107
 20
7.898224945
 11
-10.0838421107
 21
7.948224945
  0
LINE
  5
68C
100
AcDbEntity
  8
RACCORDO
100
AcDbLine
 62
7
  6
CONTINUOUS
 10
-7.6288503235
 20
6.3684331804
 11
-7.006946335
 21
5.7465291918
  0
LINE
  5
68D
100
AcDbEntity
  8
ASSI
100
AcDbLine
 62
7
  6
CONTINUOUS
 10
-7.6288503235
 20
6.3684331804
 11
-7.006946335
 21
5.7465291918
  0
LINE
  5
68E
100
AcDbEntity
  8
0
100
AcDbLine
 62
7
  6
CONTINUOUS
 10
-7.2850372443
 20
6.0833112921
 11
-9.0999508972
 21
7.898224945
  0
LINE
  5
68F
100
AcDbEntity
  8
RACCORDO
100
AcDbLine
 62
7
  6
CONTINUOUS
 10
-7.2850372443
 20
6.0833112921
 11
-9.0999508972
 21
7.898224945
  0
LINE
  5
690
100
AcDbEntity
  8
0
100
AcDbLine
 62
7
  6
CONTINUOUS
 10
-9.4946096353
 20
8.4533383551
 11
-9.6605850685
 21
8.6193137884
  0
LINE
  5
691
100
AcDbEntity
  8
RACCORDO
100
AcDbLine
 62
7
  6
CONTINUOUS
 10
-7.1628517898
 20
6.1339221645
 11
-8.9271545703
 21
7.898224945
  0
LINE
  5
692
100
AcDbEntity
  8
0
100
AcDbLine
 62
7
  6
CONTINUOUS
 10
-6.5858814381
 20
5.5569518128
 11
-10.4713367405
 21
9.4424071152
  0
LINE
  5
693
100
AcDbEntity
  8
0
100
AcDbLine
 62
7
  6
CONTINUOUS
 10
-9.6605850685
 20
-33.9434833192
 11
-9.4946096353
 21
-33.8605019228
  0
LINE
  5
694
100
AcDbEntity
  8
0
100
AcDbLine
 62
7
  6
CONTINUOUS
 10
-15.5807079609
 20
5.2807649617
 11
-15.2265928248
 21
5.2838552776
  0
LINE
  5
695
100
AcDbEntity
  8
RACCORDO
100
AcDbLine
 62
7
  6
CONTINUOUS
 10
-15.5807079609
 20
5.2807649617
 11
-15.2265928248
 21
5.2838552776
  0
LWPOLYLINE
  5
696
100
AcDbEntity
  8
0
100
AcDbPolyline
 62
7
  6
CONTINUOUS
 90
13
 70
0
 10
-16.2256303355
 20
6.9327116246
 10
-16.1027581089
 20
6.9328537615
 10
-15.9848862808
 20
6.9332342355
 10
-15.872014851
 20
6.9338530468
 10
-15.7626590685
 20
6.9347250114
 10
-15.6583036844
 20
6.9358353133
 10
-15.5634029521
 20
6.9371395041
 10
-15.4783348678
 20
6.9386495261
 10
-15.4027214352
 20
6.9403534371
 10
-15.3398829192
 20
6.942170962
 10
-15.2909260746
 20
6.9440753424
 10
-15.2547441465
 20
6.9460933368
 10
-15.2313371348
 20
6.948224945
  0
LINE
  5
697
100
AcDbEntity
  8
ASSI
100
AcDbLine
 62
7
  6
CONTINUOUS
 10
-15.2271545703
 20
5.248224945
 11
-20.2271545703
 21
5.248224945
  0
LINE
  5
698
100
AcDbEntity
  8
RACCORDO
100
AcDbLine
 62
7
  6
CONTINUOUS
 10
-27.1183789604
 20
5.2613152467
 11
-22.0402334489
 21
5.2613152467
  0
LINE
  5
699
100
AcDbEntity
  8
ASSI
100
AcDbLine
 62
7
  6
CONTINUOUS
 10
-27.1183789604
 20
5.2613152467
 11
-22.0402334489
 21
5.2613152467
  0
LINE
  5
69A
100
AcDbEntity
  8
0
100
AcDbLine
 62
7
  6
CONTINUOUS
 10
-26.3271545703
 20
5.3056675448
 11
-25.1812652716
 21
5.3056675448
  0
LINE
  5
69B
100
AcDbEntity
  8
DRAFT
100
AcDbLine
 62
7
  6
CONTINUOUS
 10
-26.3271545703
 20
5.3056675448
 11
-25.1812652716
 21
5.3056675448
  0
LINE
  5
69C
100
AcDbEntity
  8
0
100
AcDbLine
 62
7
  6
CONTINUOUS
 10
-21.8704369251
 20
5.3143944126
 11
-25.1638102067
 21
5.3143944126
  0
LINE
  5
69D
100
AcDbEntity
  8
DRAFT
100
AcDbLine
 62
7
  6
CONTINUOUS
 10
-21.8704369251
 20
5.3143944126
 11
-25.1638102067
 21
5.3143944126
  0
LINE
  5
69E
100
AcDbEntity
  8
0
100
AcDbLine
 62
7
  6
CONTINUOUS
 10
-26.3271545703
 20
5.3143944126
 11
-26.9933430764
 21
5.3143944126
  0
LINE
  5
69F
100
AcDbEntity
  8
RACCORDO
100
AcDbLine
 62
7
  6
CONTINUOUS
 10
-26.3271545703
 20
5.3143944126
 11
-26.9933430764
 21
5.3143944126
  0
LINE
  5
6A0
100
AcDbEntity
  8
0
100
AcDbLine
 62
7
  6
CONTINUOUS
 10
-20.2271545703
 20
5.348224945
 11
-15.2271545703
 21
5.348224945
  0
LINE
  5
6A1
100
AcDbEntity
  8
ASSI
100
AcDbLine
 62
7
  6
CONTINUOUS
 10
-20.2271545703
 20
5.348224945
 11
-15.2271545703
 21
5.348224945
  0
LINE
  5
6A2
100
AcDbEntity
  8
RACCORDO
100
AcDbLine
 62
7
  6
CONTINUOUS
 10
-8.3359301802
 20
6.6613152467
 11
-21.4402562951
 21
6.6613152467
  0
LINE
  5
6A3
100
AcDbEntity
  8
ASSI
100
AcDbLine
 62
7
  6
CONTINUOUS
 10
-8.3359301802
 20
6.6613152467
 11
-21.4402562951
 21
6.6613152467
  0
LINE
  5
6A4
100
AcDbEntity
  8
0
100
AcDbLine
 62
7
  6
CONTINUOUS
 10
-10.290498934
 20
6.7115693087
 11
-14.2638102067
 21
6.7115693087
  0
LINE
  5
6A5
100
AcDbEntity
  8
DRAFT
100
AcDbLine
 62
7
  6
CONTINUOUS
 10
-10.290498934
 20
6.7115693087
 11
-14.2638102067
 21
6.7115693087
  0
LINE
  5
6A6
100
AcDbEntity
  8
0
100
AcDbLine
 62
7
  6
CONTINUOUS
 10
-21.190498934
 20
6.7115693087
 11
-25.1638102067
 21
6.7115693087
  0
LINE
  5
6A7
100
AcDbEntity
  8
DRAFT
100
AcDbLine
 62
7
  6
CONTINUOUS
 10
-21.190498934
 20
6.7115693087
 11
-25.1638102067
 21
6.7115693087
  0
LINE
  5
6A8
100
AcDbEntity
  8
0
100
AcDbLine
 62
7
  6
CONTINUOUS
 10
-10.3271545703
 20
6.748224945
 11
-14.2271545703
 21
6.748224945
  0
LINE
  5
6A9
100
AcDbEntity
  8
DRAFT
100
AcDbLine
 62
7
  6
CONTINUOUS
 10
-10.3271545703
 20
6.748224945
 11
-14.2271545703
 21
6.748224945
  0
LINE
  5
6AA
100
AcDbEntity
  8
0
100
AcDbLine
 62
7
  6
CONTINUOUS
 10
-21.2271545703
 20
6.748224945
 11
-25.1271545703
 21
6.748224945
  0
LINE
  5
6AB
100
AcDbEntity
  8
DRAFT
100
AcDbLine
 62
7
  6
CONTINUOUS
 10
-21.2271545703
 20
6.748224945
 11
-25.1271545703
 21
6.748224945
  0
LINE
  5
6AC
100
AcDbEntity
  8
DRAFT
100
AcDbLine
 62
7
  6
CONTINUOUS
 10
-10.4315180042
 20
6.7525883789
 11
-11.2227911364
 21
6.7525883789
  0
LINE
  5
6AD
100
AcDbEntity
  8
DRAFT
100
AcDbLine
 62
7
  6
CONTINUOUS
 10
-24.2315180042
 20
6.7525883789
 11
-25.0227911364
 21
6.7525883789
  0
LINE
  5
6AE
100
AcDbEntity
  8
DRAFT
100
AcDbLine
 62
7
  6
CONTINUOUS
 10
-10.5318769838
 20
6.8529473585
 11
-11.1224321568
 21
6.8529473585
  0
LINE
  5
6AF
100
AcDbEntity
  8
DRAFT
100
AcDbLine
 62
7
  6
CONTINUOUS
 10
-24.3318769838
 20
6.8529473585
 11
-24.9224321568
 21
6.8529473585
  0
LINE
  5
6B0
100
AcDbEntity
  8
0
100
AcDbLine
 62
7
  6
CONTINUOUS
 10
-14.2638102067
 20
6.9115693087
 11
-21.190498934
 21
6.9115693087
  0
LINE
  5
6B1
100
AcDbEntity
  8
DRAFT
100
AcDbLine
 62
7
  6
CONTINUOUS
 10
-14.2638102067
 20
6.9115693087
 11
-21.190498934
 21
6.9115693087
  0
LINE
  5
6B2
100
AcDbEntity
  8
0
100
AcDbLine
 62
7
  6
CONTINUOUS
 10
-16.2256303355
 20
6.9327116246
 11
-19.2286788052
 21
6.9327116246
  0
LINE
  5
6B3
100
AcDbEntity
  8
0
100
AcDbLine
 62
7
  6
CONTINUOUS
 10
-14.2271545703
 20
6.948224945
 11
-15.2326762901
 21
6.948224945
  0
LINE
  5
6B4
100
AcDbEntity
  8
0
100
AcDbLine
 62
7
  6
CONTINUOUS
 10
-20.2216328506
 20
6.948224945
 11
-21.2271545703
 21
6.948224945
  0
LINE
  5
6B5
100
AcDbEntity
  8
DRAFT
100
AcDbLine
 62
7
  6
CONTINUOUS
 10
-25.1271545703
 20
7.048224945
 11
-25.0227911364
 21
7.048224945
  0
LINE
  5
6B6
100
AcDbEntity
  8
DRAFT
100
AcDbLine
 62
7
  6
CONTINUOUS
 10
-10.4315180042
 20
7.048224945
 11
-10.3271545703
 21
7.048224945
  0
LINE
  5
6B7
100
AcDbEntity
  8
DRAFT
100
AcDbLine
 62
7
  6
CONTINUOUS
 10
-11.2227911364
 20
7.0525883789
 11
-15.2277945007
 21
7.0525883789
  0
LINE
  5
6B8
100
AcDbEntity
  8
DRAFT
100
AcDbLine
 62
7
  6
CONTINUOUS
 10
-20.22651464
 20
7.0525883789
 11
-24.2315180042
 21
7.0525883789
  0
LINE
  5
6B9
100
AcDbEntity
  8
DRAFT
100
AcDbLine
 62
7
  6
CONTINUOUS
 10
-21.2273080049
 20
7.0658068106
 11
-20.2265385373
 21
7.0658068106
  0
LINE
  5
6BA
100
AcDbEntity
  8
DRAFT
100
AcDbLine
 62
7
  6
CONTINUOUS
 10
-15.2277706033
 20
7.0658068106
 11
-14.2270011357
 21
7.0658068106
  0
LINE
  5
6BB
100
AcDbEntity
  8
DRAFT
100
AcDbLine
 62
7
  6
CONTINUOUS
 10
-15.2271545703
 20
7.118917958
 11
-15.2858939885
 21
7.118917958
  0
LINE
  5
6BC
100
AcDbEntity
  8
DRAFT
100
AcDbLine
 62
7
  6
CONTINUOUS
 10
-20.1684151522
 20
7.118917958
 11
-20.2271545703
 21
7.118917958
  0
LWPOLYLINE
  5
6BD
100
AcDbEntity
  8
0
100
AcDbPolyline
 62
7
  6
CONTINUOUS
 90
13
 70
0
 10
-19.2286788052
 20
6.9327116246
 10
-19.3515510317
 20
6.9328537615
 10
-19.4694228599
 20
6.9332342355
 10
-19.5822942896
 20
6.9338530468
 10
-19.6916500722
 20
6.9347250114
 10
-19.7960054563
 20
6.9358353133
 10
-19.8909061886
 20
6.9371395041
 10
-19.9759742729
 20
6.9386495261
 10
-20.0515877054
 20
6.9403534371
 10
-20.1144262215
 20
6.942170962
 10
-20.1633830661
 20
6.9440753424
 10
-20.1995649942
 20
6.9460933368
 10
-20.2229720058
 20
6.948224945
  0
LINE
  5
6BE
100
AcDbEntity
  8
0
100
AcDbLine
 62
7
  6
CONTINUOUS
 10
-19.8736011797
 20
5.2807649617
 11
-20.2277163159
 21
5.2838552776
  0
LINE
  5
6BF
100
AcDbEntity
  8
RACCORDO
100
AcDbLine
 62
7
  6
CONTINUOUS
 10
-19.8736011797
 20
5.2807649617
 11
-20.2277163159
 21
5.2838552776
  0
LWPOLYLINE
  5
6C0
100
AcDbEntity
  8
0
100
AcDbPolyline
 62
7
  6
CONTINUOUS
 90
9
 70
0
 10
-25.134236121
 20
11.5303175708
 10
-25.1453845966
 20
11.5344756663
 10
-25.1567182913
 20
11.5380985867
 10
-25.1682115315
 20
11.5411781267
 10
-25.1798382829
 20
11.5437073127
 10
-25.1915722042
 20
11.5456804192
 10
-25.2033867148
 20
11.5470929792
 10
-25.2152550543
 20
11.5479417948
 10
-25.2271503395
 20
11.548224945
  0
LINE
  5
6C1
100
AcDbEntity
  8
0
100
AcDbLine
 62
7
  6
CONTINUOUS
 10
-9.6605850685
 20
8.0399332092
 11
-9.4946096353
 21
7.9569518128
  0
LINE
  5
6C2
100
AcDbEntity
  8
0
100
AcDbLine
 62
7
  6
CONTINUOUS
 10
-9.6605850685
 20
-34.4055104821
 11
-9.4946096353
 21
-34.3568884651
  0
LINE
  5
6C3
100
AcDbEntity
  8
DRAFT
100
AcDbLine
 62
7
  6
CONTINUOUS
 10
-11.1224321568
 20
7.1529473585
 11
-24.3318769838
 21
7.1529473585
  0
LINE
  5
6C4
100
AcDbEntity
  8
0
100
AcDbLine
 62
7
  6
CONTINUOUS
 10
-20.7193003893
 20
7.848224945
 11
-14.7350087513
 21
7.848224945
  0
LINE
  5
6C5
100
AcDbEntity
  8
0
100
AcDbLine
 62
7
  6
CONTINUOUS
 10
-8.9271545703
 20
7.898224945
 11
-10.3271545703
 21
7.898224945
  0
LINE
  5
6C6
100
AcDbEntity
  8
DRAFT
100
AcDbLine
 62
7
  6
CONTINUOUS
 10
-8.9271545703
 20
7.898224945
 11
-10.3271545703
 21
7.898224945
  0
LINE
  5
6C7
100
AcDbEntity
  8
0
100
AcDbLine
 62
7
  6
CONTINUOUS
 10
-25.1271545703
 20
7.898224945
 11
-26.5271545703
 21
7.898224945
  0
LINE
  5
6C8
100
AcDbEntity
  8
DRAFT
100
AcDbLine
 62
7
  6
CONTINUOUS
 10
-25.1271545703
 20
7.898224945
 11
-26.5271545703
 21
7.898224945
  0
LINE
  5
6C9
100
AcDbEntity
  8
DRAFT
100
AcDbLine
 62
7
  6
CONTINUOUS
 10
-25.7937240721
 20
7.948224945
 11
-25.3581253752
 21
7.948224945
  0
LINE
  5
6CA
100
AcDbEntity
  8
DRAFT
100
AcDbLine
 62
7
  6
CONTINUOUS
 10
-9.6605850685
 20
7.948224945
 11
-10.0961837654
 21
7.948224945
  0
LINE
  5
6CB
100
AcDbEntity
  8
DRAFT
100
AcDbLine
 62
7
  6
CONTINUOUS
 10
-10.1085254202
 20
7.948224945
 11
-10.4358814381
 21
7.948224945
  0
LINE
  5
6CC
100
AcDbEntity
  8
DRAFT
100
AcDbLine
 62
7
  6
CONTINUOUS
 10
-25.0271545703
 20
7.948224945
 11
-25.3457837204
 21
7.948224945
  0
LINE
  5
6CD
100
AcDbEntity
  8
0
100
AcDbLine
 62
7
  6
CONTINUOUS
 10
-9.4946096353
 20
7.9569518128
 11
-9.6605850685
 21
7.9569518128
  0
LINE
  5
6CE
100
AcDbEntity
  8
0
100
AcDbLine
 62
7
  6
CONTINUOUS
 10
-25.7937240721
 20
7.9569518128
 11
-25.9596995054
 21
7.9569518128
  0
LINE
  5
6CF
100
AcDbEntity
  8
DRAFT
100
AcDbLine
 62
7
  6
CONTINUOUS
 10
-25.2938002246
 20
8.0442204907
 11
-24.9224321568
 21
8.0442204907
  0
LINE
  5
6D0
100
AcDbEntity
  8
DRAFT
100
AcDbLine
 62
7
  6
CONTINUOUS
 10
-10.1605089161
 20
8.0442204907
 11
-10.5318769838
 21
8.0442204907
  0
LINE
  5
6D1
100
AcDbEntity
  8
0
100
AcDbLine
 62
253
  6
CONTINUOUS
 10
-10.1605089161
 20
8.3842118937
 11
-14.7303312641
 21
8.3842118937
  0
LINE
  5
6D2
100
AcDbEntity
  8
0
100
AcDbLine
 62
253
  6
CONTINUOUS
 10
-20.7239778766
 20
8.3842118937
 11
-25.2938002246
 21
8.3842118937
  0
LINE
  5
6D3
100
AcDbEntity
  8
0
100
AcDbLine
 62
7
  6
CONTINUOUS
 10
-14.7271545703
 20
8.748224945
 11
-20.7271545703
 21
8.748224945
  0
LINE
  5
6D4
100
AcDbEntity
  8
0
100
AcDbLine
 62
7
  6
CONTINUOUS
 10
-9.6605850685
 20
8.5019603721
 11
-9.4946096353
 21
8.4533383551
  0
LWPOLYLINE
  5
6D5
100
AcDbEntity
  8
0
100
AcDbPolyline
 62
7
  6
CONTINUOUS
 90
6
 70
0
 10
-10.2627369365
 20
11.5456804192
 10
-10.2744708578
 20
11.5437073127
 10
-10.2860976091
 20
11.5411781267
 10
-10.2975908493
 20
11.5380985867
 10
-10.3089245441
 20
11.5344756663
 10
-10.3200730196
 20
11.5303175708
  0
LWPOLYLINE
  5
6D6
100
AcDbEntity
  8
0
100
AcDbPolyline
 62
7
  6
CONTINUOUS
 90
40
 70
0
 10
-28.3775351701
 20
9.448224945
 10
-28.3975304696
 20
9.4478115711
 10
-28.4175203139
 20
9.4465966522
 10
-28.4374724375
 20
9.4445789129
 10
-28.457361747
 20
9.441757242
 10
-28.4771482813
 20
9.4381335303
 10
-28.4967777996
 20
9.4337156069
 10
-28.5162072145
 20
9.4285132802
 10
-28.5354163299
 20
9.4225321036
 10
-28.5543856712
 20
9.415776621
 10
-28.5730972029
 20
9.4082500702
 10
-28.5915058395
 20
9.39996737
 10
-28.6095530845
 20
9.390954498
 10
-28.6271937503
 20
9.3812371447
 10
-28.6444172786
 20
9.3708243245
 10
-28.6612181257
 20
9.3597193918
 10
-28.6775826403
 20
9.347928243
 10
-28.693468055
 20
9.3354784773
 10
-28.7088265806
 20
9.3224076948
 10
-28.72362015
 20
9.3087523081
 10
-28.7378414101
 20
9.2945232491
 10
-28.7514895235
 20
9.2797212025
 10
-28.7645539149
 20
9.2643529555
 10
-28.7769976569
 20
9.2484570055
 10
-28.7887818793
 20
9.2320826348
 10
-28.7998787818
 20
9.2152733057
 10
-28.8102830164
 20
9.198042157
 10
-28.8199912845
 20
9.1803945392
 10
-28.8289943114
 20
9.1623420362
 10
-28.8372670861
 20
9.1439289011
 10
-28.8447847547
 20
9.1252103133
 10
-28.8515332997
 20
9.1062283028
 10
-28.8575079932
 20
9.0870036012
 10
-28.8627022165
 20
9.0675610851
 10
-28.867108513
 20
9.0479340862
 10
-28.8707211598
 20
9.0281528519
 10
-28.8735361372
 20
9.008237518
 10
-28.8755488966
 20
8.9882161396
 10
-28.8767557245
 20
8.9681248883
 10
-28.8771545703
 20
8.9479960929
  0
LINE
  5
6D7
100
AcDbEntity
  8
0
100
AcDbLine
 62
253
  6
CONTINUOUS
 10
-10.5366129441
 20
9.3841949705
 11
-14.721604544
 21
9.3841949705
  0
LINE
  5
6D8
100
AcDbEntity
  8
0
100
AcDbLine
 62
253
  6
CONTINUOUS
 10
-20.7327045967
 20
9.3841949705
 11
-24.9176961965
 21
9.3841949705
  0
LINE
  5
6D9
100
AcDbEntity
  8
0
100
AcDbLine
 62
7
  6
CONTINUOUS
 10
-28.3684340486
 20
9.4424071152
 11
-24.9829724001
 21
9.4424071152
  0
LINE
  5
6DA
100
AcDbEntity
  8
0
100
AcDbLine
 62
7
  6
CONTINUOUS
 10
-10.4713367405
 20
9.4424071152
 11
-7.085875092
 21
9.4424071152
  0
LINE
  5
6DB
100
AcDbEntity
  8
0
100
AcDbLine
 62
7
  6
CONTINUOUS
 10
-18.7358285237
 20
9.4430206575
 11
-16.7184806169
 21
9.4430206575
  0
LINE
  5
6DC
100
AcDbEntity
  8
0
100
AcDbLine
 62
7
  6
CONTINUOUS
 10
-7.0771482242
 20
9.448224945
 11
-13.2771545703
 21
9.448224945
  0
LINE
  5
6DD
100
AcDbEntity
  8
0
100
AcDbLine
 62
7
  6
CONTINUOUS
 10
-16.7271545703
 20
9.448224945
 11
-18.7271545703
 21
9.448224945
  0
LINE
  5
6DE
100
AcDbEntity
  8
0
100
AcDbLine
 62
7
  6
CONTINUOUS
 10
-22.1771545703
 20
9.448224945
 11
-28.3771609164
 21
9.448224945
  0
LINE
  5
6DF
100
AcDbEntity
  8
0
100
AcDbLine
 62
7
  6
CONTINUOUS
 10
-27.6278775682
 20
10.1708746758
 11
-25.2264315725
 21
10.1708746758
  0
LINE
  5
6E0
100
AcDbEntity
  8
0
100
AcDbLine
 62
7
  6
CONTINUOUS
 10
-7.8264315725
 20
10.1708746758
 11
-10.2278775682
 21
10.1708746758
  0
LINE
  5
6E1
100
AcDbEntity
  8
0
100
AcDbLine
 62
253
  6
CONTINUOUS
 10
-27.6227869671
 20
10.6760561614
 11
-25.2315221735
 21
10.6760561614
  0
LINE
  5
6E2
100
AcDbEntity
  8
0
100
AcDbLine
 62
253
  6
CONTINUOUS
 10
-10.2227869671
 20
10.6760561614
 11
-7.8315221735
 21
10.6760561614
  0
LINE
  5
6E3
100
AcDbEntity
  8
0
100
AcDbLine
 62
253
  6
CONTINUOUS
 10
-7.5815264043
 20
10.8925625123
 11
-10.4727827363
 21
10.8925625123
  0
LINE
  5
6E4
100
AcDbEntity
  8
0
100
AcDbLine
 62
253
  6
CONTINUOUS
 10
-24.9815264043
 20
10.8925625123
 11
-27.8727827363
 21
10.8925625123
  0
LINE
  5
6E5
100
AcDbEntity
  8
0
100
AcDbLine
 62
7
  6
CONTINUOUS
 10
-22.1335039235
 20
11.0045742981
 11
-21.2616811081
 21
11.0045742981
  0
LINE
  5
6E6
100
AcDbEntity
  8
0
100
AcDbLine
 62
7
  6
CONTINUOUS
 10
-14.1926280326
 20
11.0045742981
 11
-13.3208052172
 21
11.0045742981
  0
LINE
  5
6E7
100
AcDbEntity
  8
0
100
AcDbLine
 62
7
  6
CONTINUOUS
 10
-14.1922968541
 20
11.0425236
 11
-16.5186049707
 21
11.0425236
  0
LINE
  5
6E8
100
AcDbEntity
  8
0
100
AcDbLine
 62
7
  6
CONTINUOUS
 10
-18.93570417
 20
11.0425236
 11
-21.2620122866
 21
11.0425236
  0
LINE
  5
6E9
100
AcDbEntity
  8
0
100
AcDbLine
 62
7
  6
CONTINUOUS
 10
-13.2771545703
 20
11.048224945
 11
-16.5271571088
 21
11.048224945
  0
LINE
  5
6EA
100
AcDbEntity
  8
0
100
AcDbLine
 62
7
  6
CONTINUOUS
 10
-18.9271520319
 20
11.048224945
 11
-22.1771545703
 21
11.048224945
  0
LWPOLYLINE
  5
6EB
100
AcDbEntity
  8
0
100
AcDbPolyline
 62
7
  6
CONTINUOUS
 90
37
 70
0
 10
-18.9271520319
 20
11.048224945
 10
-18.9184283782
 20
11.0480346113
 10
-18.9097213235
 20
11.0474639661
 10
-18.9010474392
 20
11.0465140928
 10
-18.8924232324
 20
11.0451867972
 10
-18.8838651189
 20
11.0434846024
 10
-18.8753893922
 20
11.0414107436
 10
-18.8670121842
 20
11.0389691657
 10
-18.8587494402
 20
11.0361645133
 10
-18.850616893
 20
11.0330021218
 10
-18.8426300223
 20
11.029488008
 10
-18.834804031
 20
11.0256288589
 10
-18.8271538215
 20
11.0214320184
 10
-18.8196939559
 20
11.0169054731
 10
-18.8124386343
 20
11.0120578377
 10
-18.8054016733
 20
11.0068983396
 10
-18.7985964681
 20
11.0014367985
 10
-18.7920359726
 20
10.9956836095
 10
-18.7857326805
 20
10.9896497256
 10
-18.7796985905
 20
10.9833466316
 10
-18.7739451884
 20
10.9767863249
 10
-18.7684834305
 20
10.9699812965
 10
-18.7633237135
 20
10.9629444995
 10
-18.7584758585
 20
10.9556893284
 10
-18.7539490963
 20
10.9482295977
 10
-18.7497520434
 20
10.9405795072
 10
-18.7458926883
 20
10.9327536188
 10
-18.7423783781
 20
10.9247668336
 10
-18.7392158018
 20
10.9166343548
 10
-18.7364109781
 20
10.9083716622
 10
-18.7339692451
 20
10.8999944878
 10
-18.7318952498
 20
10.8915187778
 10
-18.7301929386
 20
10.8829606648
 10
-18.7288655493
 20
10.8743364421
 10
-18.7279156068
 20
10.8656625261
 10
-18.7273449188
 20
10.8569554258
 10
-18.7271545703
 20
10.8482317142
  0
LWPOLYLINE
  5
6EC
100
AcDbEntity
  8
0
100
AcDbPolyline
 62
7
  6
CONTINUOUS
 90
18
 70
0
 10
-7.734236121
 20
-37.4338676808
 10
-7.723298124
 20
-37.4291838272
 10
-7.7125953827
 20
-37.4239848238
 10
-7.7021521421
 20
-37.4182824466
 10
-7.6919920644
 20
-37.4120896131
 10
-7.6821381652
 20
-37.4054203505
 10
-7.6726127665
 20
-37.3982897657
 10
-7.6634374513
 20
-37.3907140139
 10
-7.6546330042
 20
-37.3827102555
 10
-7.6462193698
 20
-37.3742966211
 10
-7.6382156115
 20
-37.3654921741
 10
-7.6306398596
 20
-37.3563168588
 10
-7.6235092749
 20
-37.3467914601
 10
-7.6168400122
 20
-37.3369375609
 10
-7.6106471787
 20
-37.3267774833
 10
-7.6049448015
 20
-37.3163342426
 10
-7.5997457982
 20
-37.3056315013
 10
-7.5950619446
 20
-37.2946935043
  0
LWPOLYLINE
  5
6ED
100
AcDbEntity
  8
0
100
AcDbPolyline
 62
7
  6
CONTINUOUS
 90
34
 70
0
 10
-10.2227869671
 20
11.543853111
 10
-10.2346624387
 20
11.5435704913
 10
-10.2465161812
 20
11.5427235896
 10
-10.2583213567
 20
11.5413135936
 10
-10.2700528514
 20
11.5393426476
 10
-10.2816822866
 20
11.5368146577
 10
-10.2931782522
 20
11.5337360791
 10
-10.3045130173
 20
11.5301144693
 10
-10.3156626293
 20
11.5259576149
 10
-10.3266020305
 20
11.5212748413
 10
-10.3373065653
 20
11.516076656
 10
-10.3477518187
 20
11.5103748675
 10
-10.3579138943
 20
11.5041825051
 10
-10.367769679
 20
11.4975136679
 10
-10.3772969405
 20
11.4903834145
 10
-10.3864741537
 20
11.4828078536
 10
-10.3952805453
 20
11.4748041221
 10
-10.4036961316
 20
11.4663903705
 10
-10.4117018257
 20
11.4575856749
 10
-10.4192794822
 20
11.4484099879
 10
-10.4264119333
 20
11.4388840937
 10
-10.4330830134
 20
11.4290295776
 10
-10.4392776057
 20
11.4188687654
 10
-10.4449816709
 20
11.4084246802
 10
-10.4501822786
 20
11.3977209938
 10
-10.4548676429
 20
11.3867819602
 10
-10.4590271472
 20
11.3756323639
 10
-10.4626513643
 20
11.3642974714
 10
-10.4657320829
 20
11.3528029604
 10
-10.4682623199
 20
11.341174881
 10
-10.4702363385
 20
11.3294396013
 10
-10.4716496674
 20
11.317623719
 10
-10.4724991075
 20
11.3057540007
 10
-10.4727827363
 20
11.2938573418
  0
LWPOLYLINE
  5
6EE
100
AcDbEntity
  8
0
100
AcDbPolyline
 62
7
  6
CONTINUOUS
 90
4
 70
0
 10
-10.2271588011
 20
11.548224945
 10
-10.2390540864
 20
11.5479417948
 10
-10.2509224259
 20
11.5470929792
 10
-10.2627369365
 20
11.5456804192
  0
LWPOLYLINE
  5
6EF
100
AcDbEntity
  8
0
100
AcDbPolyline
 62
7
  6
CONTINUOUS
 90
34
 70
0
 10
-27.6227869671
 20
11.543853111
 10
-27.6346624387
 20
11.5435704913
 10
-27.6465161812
 20
11.5427235896
 10
-27.6583213567
 20
11.5413135936
 10
-27.6700528514
 20
11.5393426476
 10
-27.6816822866
 20
11.5368146577
 10
-27.6931782522
 20
11.5337360791
 10
-27.7045130173
 20
11.5301144693
 10
-27.7156626293
 20
11.5259576149
 10
-27.7266020305
 20
11.5212748413
 10
-27.7373065653
 20
11.516076656
 10
-27.7477518187
 20
11.5103748675
 10
-27.7579138943
 20
11.5041825051
 10
-27.767769679
 20
11.4975136679
 10
-27.7772969405
 20
11.4903834145
 10
-27.7864741537
 20
11.4828078536
 10
-27.7952805453
 20
11.4748041221
 10
-27.8036961316
 20
11.4663903705
 10
-27.8117018257
 20
11.4575856749
 10
-27.8192794822
 20
11.4484099879
 10
-27.8264119333
 20
11.4388840937
 10
-27.8330830134
 20
11.4290295776
 10
-27.8392776057
 20
11.4188687654
 10
-27.8449816709
 20
11.4084246802
 10
-27.8501822786
 20
11.3977209938
 10
-27.8548676429
 20
11.3867819602
 10
-27.8590271472
 20
11.3756323639
 10
-27.8626513643
 20
11.3642974714
 10
-27.8657320829
 20
11.3528029604
 10
-27.8682623199
 20
11.341174881
 10
-27.8702363385
 20
11.3294396013
 10
-27.8716496674
 20
11.317623719
 10
-27.8724991075
 20
11.3057540007
 10
-27.8727827363
 20
11.2938573418
  0
LWPOLYLINE
  5
6F0
100
AcDbEntity
  8
0
100
AcDbPolyline
 62
7
  6
CONTINUOUS
 90
4
 70
0
 10
-27.6271588011
 20
11.548224945
 10
-27.6390540864
 20
11.5479417948
 10
-27.6509224259
 20
11.5470929792
 10
-27.6627369365
 20
11.5456804192
  0
LWPOLYLINE
  5
6F1
100
AcDbEntity
  8
0
100
AcDbPolyline
 62
7
  6
CONTINUOUS
 90
37
 70
0
 10
-16.5271571088
 20
11.048224945
 10
-16.5358807625
 20
11.0480346113
 10
-16.5445878172
 20
11.0474639661
 10
-16.5532617014
 20
11.0465140928
 10
-16.5618859082
 20
11.0451867972
 10
-16.5704440217
 20
11.0434846024
 10
-16.5789197485
 20
11.0414107436
 10
-16.5872969565
 20
11.0389691657
 10
-16.5955597005
 20
11.0361645133
 10
-16.6036922476
 20
11.0330021218
 10
-16.6116791183
 20
11.029488008
 10
-16.6195051097
 20
11.0256288589
 10
-16.6271553192
 20
11.0214320184
 10
-16.6346151848
 20
11.0169054731
 10
-16.6418705064
 20
11.0120578377
 10
-16.6489074673
 20
11.0068983396
 10
-16.6557126726
 20
11.0014367985
 10
-16.662273168
 20
10.9956836095
 10
-16.6685764601
 20
10.9896497256
 10
-16.6746105502
 20
10.9833466316
 10
-16.6803639522
 20
10.9767863249
 10
-16.6858257101
 20
10.9699812965
 10
-16.6909854272
 20
10.9629444995
 10
-16.6958332822
 20
10.9556893284
 10
-16.7003600444
 20
10.9482295977
 10
-16.7045570972
 20
10.9405795072
 10
-16.7084164524
 20
10.9327536188
 10
-16.7119307626
 20
10.9247668336
 10
-16.7150933389
 20
10.9166343548
 10
-16.7178981626
 20
10.9083716622
 10
-16.7203398955
 20
10.8999944878
 10
-16.7224138909
 20
10.8915187778
 10
-16.7241162021
 20
10.8829606648
 10
-16.7254435914
 20
10.8743364421
 10
-16.7263935338
 20
10.8656625261
 10
-16.7269642219
 20
10.8569554258
 10
-16.7271545703
 20
10.8482317142
  0
LINE
  5
6F2
100
AcDbEntity
  8
0
100
AcDbLine
 62
253
  6
CONTINUOUS
 10
-7.5815264043
 20
11.2938573418
 11
-10.4727827363
 21
11.2938573418
  0
LINE
  5
6F3
100
AcDbEntity
  8
0
100
AcDbLine
 62
253
  6
CONTINUOUS
 10
-24.9815264043
 20
11.2938573418
 11
-27.8727827363
 21
11.2938573418
  0
LINE
  5
6F4
100
AcDbEntity
  8
0
100
AcDbLine
 62
7
  6
CONTINUOUS
 10
-7.8315221735
 20
11.543853111
 11
-10.2227869671
 21
11.543853111
  0
LINE
  5
6F5
100
AcDbEntity
  8
0
100
AcDbLine
 62
7
  6
CONTINUOUS
 10
-25.2315221735
 20
11.543853111
 11
-27.6227869671
 21
11.543853111
  0
LWPOLYLINE
  5
6F6
100
AcDbEntity
  8
0
100
AcDbPolyline
 62
7
  6
CONTINUOUS
 90
9
 70
0
 10
-7.734236121
 20
11.5303175708
 10
-7.7453845966
 20
11.5344756663
 10
-7.7567182913
 20
11.5380985867
 10
-7.7682115315
 20
11.5411781267
 10
-7.7798382829
 20
11.5437073127
 10
-7.7915722042
 20
11.5456804192
 10
-7.8033867148
 20
11.5470929792
 10
-7.8152550543
 20
11.5479417948
 10
-7.8271503395
 20
11.548224945
  0
LWPOLYLINE
  5
6F7
100
AcDbEntity
  8
0
100
AcDbPolyline
 62
7
  6
CONTINUOUS
 90
6
 70
0
 10
-27.6627369365
 20
11.5456804192
 10
-27.6744708578
 20
11.5437073127
 10
-27.6860976091
 20
11.5411781267
 10
-27.6975908493
 20
11.5380985867
 10
-27.7089245441
 20
11.5344756663
 10
-27.7200730196
 20
11.5303175708
  0
ARC
  5
6F8
100
AcDbEntity
  8
0
100
AcDbCircle
 62
7
  6
CONTINUOUS
 10
-26.9271545703
 20
-30.151775055
 40
1.4
100
AcDbArc
 50
189.8532892494
 51
270.0
  0
ARC
  5
6F9
100
AcDbEntity
  8
ASSI
100
AcDbCircle
 62
7
  6
CONTINUOUS
 10
-27.233062941
 20
-30.441775055
 40
0.71
100
AcDbArc
 50
229.7010712477
 51
265.2998279782
  0
ARC
  5
6FA
100
AcDbEntity
  8
ASSI
100
AcDbCircle
 62
7
  6
CONTINUOUS
 10
-28.0171545703
 20
-29.6576834257
 40
0.71
100
AcDbArc
 50
184.7001961556
 51
220.2989529286
  0
ARC
  5
6FB
100
AcDbEntity
  8
0
100
AcDbCircle
 62
7
  6
CONTINUOUS
 10
-21.7271545703
 20
-36.101775055
 40
0.5
100
AcDbArc
 50
144.3637748935
 51
215.6362251065
  0
ARC
  5
6FC
100
AcDbEntity
  8
0
100
AcDbCircle
 62
7
  6
CONTINUOUS
 10
-19.4271545703
 20
-30.501775055
 40
0.3
100
AcDbArc
 50
90.0
 51
170.0
  0
ARC
  5
6FD
100
AcDbEntity
  8
RACCORDO
100
AcDbCircle
 62
7
  6
CONTINUOUS
 10
-19.4271545703
 20
-30.501775055
 40
0.3
100
AcDbArc
 50
90.0
 51
170.0
  0
ARC
  5
6FE
100
AcDbEntity
  8
CURVE
100
AcDbCircle
 62
7
  6
CONTINUOUS
 10
-23.2271545703
 20
-3.869331055
 40
2.5499986575
100
AcDbArc
 50
357.7524617393
 51
182.2474682623
  0
ARC
  5
6FF
100
AcDbEntity
  8
CURVE
100
AcDbCircle
 62
7
  6
CONTINUOUS
 10
-23.2271545703
 20
0.515778945
 40
2.5499985399
100
AcDbArc
 50
357.7525290943
 51
182.2474682623
  0
ARC
  5
700
100
AcDbEntity
  8
CURVE
100
AcDbCircle
 62
7
  6
CONTINUOUS
 10
-23.2271545703
 20
-3.869331055
 40
1.7999999246
100
AcDbArc
 50
356.8152613297
 51
77.9753174348
  0
ARC
  5
701
100
AcDbEntity
  8
CURVE
100
AcDbCircle
 62
7
  6
CONTINUOUS
 10
-23.2271545703
 20
0.515778945
 40
1.7999999246
100
AcDbArc
 50
356.8152613297
 51
183.1847351336
  0
ARC
  5
702
100
AcDbEntity
  8
CURVE
100
AcDbCircle
 62
7
  6
CONTINUOUS
 10
-23.2271545703
 20
-3.869331055
 40
1.7999968808
100
AcDbArc
 50
102.0247203293
 51
183.1848322474
  0
ARC
  5
703
100
AcDbEntity
  8
ASSI
100
AcDbCircle
 62
7
  6
CONTINUOUS
 10
-28.0171545703
 20
3.7541333157
 40
0.71
100
AcDbArc
 50
139.7020215745
 51
175.2988538673
  0
ARC
  5
704
100
AcDbEntity
  8
ASSI
100
AcDbCircle
 62
7
  6
CONTINUOUS
 10
-27.233062941
 20
4.538224945
 40
0.71
100
AcDbArc
 50
94.7020215745
 51
130.2988538673
  0
ARC
  5
705
100
AcDbEntity
  8
0
100
AcDbCircle
 62
7
  6
CONTINUOUS
 10
-21.7271545703
 20
10.198224945
 40
0.5
100
AcDbArc
 50
144.3637748935
 51
215.6362251065
  0
ARC
  5
706
100
AcDbEntity
  8
0
100
AcDbCircle
 62
7
  6
CONTINUOUS
 10
-19.4271545703
 20
4.598224945
 40
0.3
100
AcDbArc
 50
189.5979508052
 51
270.0
  0
ARC
  5
707
100
AcDbEntity
  8
RACCORDO
100
AcDbCircle
 62
7
  6
CONTINUOUS
 10
-19.4271545703
 20
4.598224945
 40
0.3
100
AcDbArc
 50
189.5979508052
 51
270.0
  0
ARC
  5
708
100
AcDbEntity
  8
ASSI
100
AcDbCircle
 62
7
  6
CONTINUOUS
 10
-8.2212461996
 20
-31.841775055
 40
0.71
100
AcDbArc
 50
289.9961491498
 51
294.2412807351
  0
ARC
  5
709
100
AcDbEntity
  8
ASSI
100
AcDbCircle
 62
7
  6
CONTINUOUS
 10
-7.4371545703
 20
-31.0576834257
 40
0.71
100
AcDbArc
 50
319.7010712477
 51
355.2998279782
  0
ARC
  5
70A
100
AcDbEntity
  8
0
100
AcDbCircle
 62
7
  6
CONTINUOUS
 10
-13.7271545703
 20
-36.101775055
 40
0.5
100
AcDbArc
 50
324.3637748935
 51
35.6362251065
  0
ARC
  5
70B
100
AcDbEntity
  8
0
100
AcDbCircle
 62
7
  6
CONTINUOUS
 10
-16.0271545703
 20
-30.501775055
 40
0.3
100
AcDbArc
 50
9.8838085533
 51
90.0
  0
ARC
  5
70C
100
AcDbEntity
  8
RACCORDO
100
AcDbCircle
 62
7
  6
CONTINUOUS
 10
-16.0271545703
 20
-30.501775055
 40
0.3
100
AcDbArc
 50
9.8838085533
 51
90.0
  0
ARC
  5
70D
100
AcDbEntity
  8
ASSI
100
AcDbCircle
 62
7
  6
CONTINUOUS
 10
-8.2212461996
 20
5.938224945
 40
0.71
100
AcDbArc
 50
49.7020215745
 51
85.2988538673
  0
ARC
  5
70E
100
AcDbEntity
  8
ASSI
100
AcDbCircle
 62
7
  6
CONTINUOUS
 10
-7.4371545703
 20
5.1541333157
 40
0.71
100
AcDbArc
 50
4.7020215745
 51
40.2988538673
  0
ARC
  5
70F
100
AcDbEntity
  8
0
100
AcDbCircle
 62
7
  6
CONTINUOUS
 10
-13.7271545703
 20
10.198224945
 40
0.5
100
AcDbArc
 50
324.3637748935
 51
35.6362251065
  0
ARC
  5
710
100
AcDbEntity
  8
0
100
AcDbCircle
 62
7
  6
CONTINUOUS
 10
-16.0271545703
 20
4.598224945
 40
0.3
100
AcDbArc
 50
270.0
 51
350.0
  0
ARC
  5
711
100
AcDbEntity
  8
RACCORDO
100
AcDbCircle
 62
7
  6
CONTINUOUS
 10
-16.0271545703
 20
4.598224945
 40
0.3
100
AcDbArc
 50
270.0
 51
350.0
  0
ELLIPSE
  5
712
100
AcDbEntity
  8
0
100
AcDbEllipse
 62
7
  6
CONTINUOUS
 10
-26.9933049988
 20
4.8143753734
 30
0.0
 11
0.3535803156
 21
-0.3535803156
 31
0.0
 40
0.9999238505
 41
2.3562325664
 42
2.8453801602
  0
ELLIPSE
  5
713
100
AcDbEntity
  8
0
100
AcDbEllipse
 62
7
  6
CONTINUOUS
 10
-19.5200477891
 20
5.2838503754
 30
0.0
 11
0.5
 21
0.0
 31
0.0
 40
0.0087268678
 41
-2.3561944902
 42
-1.97725418
  0
ELLIPSE
  5
714
100
AcDbEntity
  8
0
100
AcDbEllipse
 62
7
  6
CONTINUOUS
 10
-15.9342613515
 20
5.2838503754
 30
0.0
 11
0.5
 21
0.0
 31
0.0
 40
0.0087268678
 41
-1.1643384736
 42
-0.7853981634
  0
ELLIPSE
  5
715
100
AcDbEntity
  8
0
100
AcDbEllipse
 62
7
  6
CONTINUOUS
 10
-26.8768499142
 20
-30.6232217376
 30
0.0
 11
1.8480888181
 21
0.7655034529
 31
0.0
 40
0.9998215708
 41
2.7489566578
 42
3.5342286494
  0
ELLIPSE
  5
716
100
AcDbEntity
  8
0
100
AcDbEllipse
 62
7
  6
CONTINUOUS
 10
-26.8768499142
 20
4.7196716276
 30
0.0
 11
1.8480888181
 21
-0.7655034529
 31
0.0
 40
0.9998215708
 41
2.7489566578
 42
3.5342286494
  0
ELLIPSE
  5
717
100
AcDbEntity
  8
0
100
AcDbEllipse
 62
7
  6
CONTINUOUS
 10
-8.5774592264
 20
4.7196716276
 30
0.0
 11
1.8480888181
 21
0.7655034529
 31
0.0
 40
0.9998215708
 41
-0.3926359958
 42
0.3926359958
  0
ELLIPSE
  5
718
100
AcDbEntity
  8
0
100
AcDbEllipse
 62
7
  6
CONTINUOUS
 10
-8.5774592264
 20
-30.6232217376
 30
0.0
 11
1.8480888181
 21
-0.7655034529
 31
0.0
 40
0.9998215708
 41
-0.3926359958
 42
0.3926359958
  0
ELLIPSE
  5
719
100
AcDbEntity
  8
0
100
AcDbEllipse
 62
7
  6
CONTINUOUS
 10
-26.7546644597
 20
-30.5726108652
 30
0.0
 11
-1.8480888181
 21
-0.7655034529
 31
0.0
 40
0.9998215708
 41
-0.3926359958
 42
0.3926359958
  0
ELLIPSE
  5
71A
100
AcDbEntity
  8
0
100
AcDbEllipse
 62
7
  6
CONTINUOUS
 10
-26.7546644597
 20
4.6690607552
 30
0.0
 11
1.8480888181
 21
-0.7655034529
 31
0.0
 40
0.9998215708
 41
2.7489566578
 42
3.5342286494
  0
ELLIPSE
  5
71B
100
AcDbEntity
  8
0
100
AcDbEllipse
 62
7
  6
CONTINUOUS
 10
-8.6996446809
 20
4.6690607552
 30
0.0
 11
1.8480888181
 21
0.7655034529
 31
0.0
 40
0.9998215708
 41
-0.3926359958
 42
-0.278861721
  0
ELLIPSE
  5
71C
100
AcDbEntity
  8
0
100
AcDbEllipse
 62
7
  6
CONTINUOUS
 10
-8.6996446809
 20
4.6690607552
 30
0.0
 11
1.8480888181
 21
0.7655034529
 31
0.0
 40
0.9998215708
 41
6.4756880539
 42
6.675821303
  0
ELLIPSE
  5
71D
100
AcDbEntity
  8
0
100
AcDbEllipse
 62
7
  6
CONTINUOUS
 10
-8.6996446809
 20
-30.5726108652
 30
0.0
 11
-1.8480888181
 21
0.7655034529
 31
0.0
 40
0.9998215708
 41
9.032141965
 42
9.2322752141
  0
ELLIPSE
  5
71E
100
AcDbEntity
  8
0
100
AcDbEllipse
 62
7
  6
CONTINUOUS
 10
-8.6996446809
 20
-30.5726108652
 30
0.0
 11
-1.8480888181
 21
0.7655034529
 31
0.0
 40
0.9998215708
 41
3.4204543746
 42
3.5342286494
  0
ELLIPSE
  5
71F
100
AcDbEntity
  8
RACCORDO
100
AcDbEllipse
 62
7
  6
CONTINUOUS
 10
-26.9933049988
 20
4.8143753734
 30
0.0
 11
0.3535803156
 21
-0.3535803156
 31
0.0
 40
0.9999238505
 41
2.3562325664
 42
2.8453801602
  0
ELLIPSE
  5
720
100
AcDbEntity
  8
RACCORDO
100
AcDbEllipse
 62
7
  6
CONTINUOUS
 10
-19.5200477891
 20
5.2838503754
 30
0.0
 11
0.5
 21
0.0
 31
0.0
 40
0.0087268678
 41
-2.3561944902
 42
-1.97725418
  0
ELLIPSE
  5
721
100
AcDbEntity
  8
RACCORDO
100
AcDbEllipse
 62
7
  6
CONTINUOUS
 10
-15.9342613515
 20
5.2838503754
 30
0.0
 11
0.5
 21
0.0
 31
0.0
 40
0.0087268678
 41
-1.1643384736
 42
-0.7853981634
  0
ELLIPSE
  5
722
100
AcDbEntity
  8
RACCORDO
100
AcDbEllipse
 62
7
  6
CONTINUOUS
 10
-26.8768499142
 20
-30.6232217376
 30
0.0
 11
1.8480888181
 21
0.7655034529
 31
0.0
 40
0.9998215708
 41
2.7489566578
 42
3.5342286494
  0
ELLIPSE
  5
723
100
AcDbEntity
  8
RACCORDO
100
AcDbEllipse
 62
7
  6
CONTINUOUS
 10
-26.8768499142
 20
4.7196716276
 30
0.0
 11
1.8480888181
 21
-0.7655034529
 31
0.0
 40
0.9998215708
 41
2.7489566578
 42
3.5342286494
  0
ELLIPSE
  5
724
100
AcDbEntity
  8
RACCORDO
100
AcDbEllipse
 62
7
  6
CONTINUOUS
 10
-8.5774592264
 20
4.7196716276
 30
0.0
 11
1.8480888181
 21
0.7655034529
 31
0.0
 40
0.9998215708
 41
-0.3926359958
 42
0.3926359958
  0
ELLIPSE
  5
725
100
AcDbEntity
  8
RACCORDO
100
AcDbEllipse
 62
7
  6
CONTINUOUS
 10
-8.5774592264
 20
-30.6232217376
 30
0.0
 11
1.8480888181
 21
-0.7655034529
 31
0.0
 40
0.9998215708
 41
-0.3926359958
 42
0.3926359958
  0
ELLIPSE
  5
726
100
AcDbEntity
  8
0
100
AcDbEllipse
 62
7
  6
CONTINUOUS
 10
-15.7272307344
 20
128.923867381
 30
0.0
 11
-0.4997620717
 21
162.4815824859
 31
0.0
 40
0.000109066
 41
3.2227835669
 42
3.234898768
  0
ELLIPSE
  5
727
100
AcDbEntity
  8
0
100
AcDbEllipse
 62
7
  6
CONTINUOUS
 10
-15.7272307344
 20
-154.827417491
 30
0.0
 11
0.4997620717
 21
162.4815824859
 31
0.0
 40
0.000109066
 41
-0.0933061144
 42
-0.0811909133
  0
ELLIPSE
  5
728
100
AcDbEntity
  8
0
100
AcDbEllipse
 62
7
  6
CONTINUOUS
 10
-19.7270784063
 20
128.923867381
 30
0.0
 11
0.4997620717
 21
162.4815824859
 31
0.0
 40
0.000109066
 41
-3.234898768
 42
-3.2227835669
  0
ELLIPSE
  5
729
100
AcDbEntity
  8
0
100
AcDbEllipse
 62
7
  6
CONTINUOUS
 10
-19.7270784063
 20
-154.827417491
 30
0.0
 11
-0.4997620717
 21
162.4815824859
 31
0.0
 40
0.000109066
 41
6.3643762205
 42
6.3764914216
  0
ELLIPSE
  5
72A
100
AcDbEntity
  8
RACCORDO
100
AcDbEllipse
 62
7
  6
CONTINUOUS
 10
-26.7546644597
 20
-30.5726108652
 30
0.0
 11
-1.8480888181
 21
-0.7655034529
 31
0.0
 40
0.9998215708
 41
-0.3926359958
 42
0.3926359958
  0
ELLIPSE
  5
72B
100
AcDbEntity
  8
RACCORDO
100
AcDbEllipse
 62
7
  6
CONTINUOUS
 10
-26.7546644597
 20
4.6690607552
 30
0.0
 11
1.8480888181
 21
-0.7655034529
 31
0.0
 40
0.9998215708
 41
2.7489566578
 42
3.5342286494
  0
ELLIPSE
  5
72C
100
AcDbEntity
  8
RACCORDO
100
AcDbEllipse
 62
7
  6
CONTINUOUS
 10
-8.6996446809
 20
4.6690607552
 30
0.0
 11
1.8480888181
 21
0.7655034529
 31
0.0
 40
0.9998215708
 41
-0.3926359958
 42
-0.278861721
  0
ELLIPSE
  5
72D
100
AcDbEntity
  8
RACCORDO
100
AcDbEllipse
 62
7
  6
CONTINUOUS
 10
-8.6996446809
 20
4.6690607552
 30
0.0
 11
1.8480888181
 21
0.7655034529
 31
0.0
 40
0.9998215708
 41
6.4756880539
 42
6.675821303
  0
ELLIPSE
  5
72E
100
AcDbEntity
  8
RACCORDO
100
AcDbEllipse
 62
7
  6
CONTINUOUS
 10
-8.6996446809
 20
-30.5726108652
 30
0.0
 11
-1.8480888181
 21
0.7655034529
 31
0.0
 40
0.9998215708
 41
9.032141965
 42
9.2322752141
  0
ELLIPSE
  5
72F
100
AcDbEntity
  8
RACCORDO
100
AcDbEllipse
 62
7
  6
CONTINUOUS
 10
-8.6996446809
 20
-30.5726108652
 30
0.0
 11
-1.8480888181
 21
0.7655034529
 31
0.0
 40
0.9998215708
 41
3.4204543746
 42
3.5342286494
  0
ELLIPSE
  5
730
100
AcDbEntity
  8
0
100
AcDbEllipse
 62
7
  6
CONTINUOUS
 10
-15.2271545703
 20
-35.3104687648
 30
0.0
 11
1.0205840068
 21
-0.0
 31
0.0
 40
0.0058178298
 41
0.0000507714
 42
1.0523815008
  0
ELLIPSE
  5
731
100
AcDbEntity
  8
0
100
AcDbEllipse
 62
7
  6
CONTINUOUS
 10
-20.2271545703
 20
-35.3104687648
 30
0.0
 11
1.0205840068
 21
0.0
 31
0.0
 40
0.0058178298
 41
8.37239646
 42
9.4247271893
  0
ELLIPSE
  5
732
100
AcDbEntity
  8
0
100
AcDbEllipse
 62
7
  6
CONTINUOUS
 10
-20.2271545703
 20
9.4069186548
 30
0.0
 11
1.0205840068
 21
0.0
 31
0.0
 40
0.0058178298
 41
-3.1415418822
 42
-2.0892111528
  0
ELLIPSE
  5
733
100
AcDbEntity
  8
DRAFT
100
AcDbEllipse
 62
7
  6
CONTINUOUS
 10
-15.2271545703
 20
-33.0137364813
 30
0.0
 11
1.0005407263
 21
-0.0
 31
0.0
 40
0.0087268678
 41
-1.5707963268
 42
0.0000761582
  0
ELLIPSE
  5
734
100
AcDbEntity
  8
DRAFT
100
AcDbEllipse
 62
7
  6
CONTINUOUS
 10
-15.2271545703
 20
7.1101863713
 30
0.0
 11
1.0005407263
 21
0.0
 31
0.0
 40
0.0087268678
 41
-0.0000761582
 42
1.5707963268
  0
ELLIPSE
  5
735
100
AcDbEntity
  8
0
100
AcDbEllipse
 62
7
  6
CONTINUOUS
 10
-15.2271545703
 20
9.4069186548
 30
0.0
 11
1.0205840068
 21
0.0
 31
0.0
 40
0.0058178298
 41
-1.0523815008
 42
-0.0000507714
  0
ELLIPSE
  5
736
100
AcDbEntity
  8
DRAFT
100
AcDbEllipse
 62
7
  6
CONTINUOUS
 10
-20.2271545703
 20
7.1101863713
 30
0.0
 11
1.0005407263
 21
-0.0
 31
0.0
 40
0.0087268678
 41
1.5707963268
 42
3.1416688118
  0
ELLIPSE
  5
737
100
AcDbEntity
  8
DRAFT
100
AcDbEllipse
 62
7
  6
CONTINUOUS
 10
-17.7271545703
 20
7.2480602492
 30
0.0
 11
14.9982560202
 21
0.0
 31
0.0
 40
0.0087268678
 41
-1.7342933984
 42
-1.4072992552
  0
ELLIPSE
  5
738
100
AcDbEntity
  8
DRAFT
100
AcDbEllipse
 62
7
  6
CONTINUOUS
 10
-17.7271545703
 20
-33.1516103592
 30
0.0
 11
14.9982560202
 21
0.0
 31
0.0
 40
0.0087268678
 41
1.4072992552
 42
1.7342933984
  0
ELLIPSE
  5
739
100
AcDbEntity
  8
DRAFT
100
AcDbEllipse
 62
7
  6
CONTINUOUS
 10
-20.2271545703
 20
-33.0137364813
 30
0.0
 11
1.0005407263
 21
0.0
 31
0.0
 40
0.0087268678
 41
3.1415164954
 42
4.7123889804
  0
ELLIPSE
  5
73A
100
AcDbEntity
  8
0
100
AcDbEllipse
 62
7
  6
CONTINUOUS
 10
-13.7741118604
 20
-35.3078681419
 30
0.0
 11
0.4530427099
 21
0.0
 31
0.0
 40
0.0058178298
 41
0.0058177642
 42
2.8392117832
  0
ELLIPSE
  5
73B
100
AcDbEntity
  8
0
100
AcDbEllipse
 62
7
  6
CONTINUOUS
 10
-21.6801972803
 20
-35.3078681419
 30
0.0
 11
0.4530427099
 21
0.0
 31
0.0
 40
0.0058178298
 41
0.3023808704
 42
3.1357748894
  0
ELLIPSE
  5
73C
100
AcDbEntity
  8
0
100
AcDbEllipse
 62
7
  6
CONTINUOUS
 10
-21.6801972803
 20
9.4043180319
 30
0.0
 11
0.4530427099
 21
0.0
 31
0.0
 40
0.0058178298
 41
-3.1357748894
 42
-0.3023808704
  0
ELLIPSE
  5
73D
100
AcDbEntity
  8
0
100
AcDbEllipse
 62
7
  6
CONTINUOUS
 10
-13.7741118604
 20
9.4043180319
 30
0.0
 11
0.4530427099
 21
0.0
 31
0.0
 40
0.0058178298
 41
-2.8392117832
 42
-0.0058177642
  0
ELLIPSE
  5
73E
100
AcDbEntity
  8
0
100
AcDbEllipse
 62
7
  6
CONTINUOUS
 10
-25.9177510738
 20
8.3842118937
 30
0.0
 11
1.0000571192
 21
0.9999809595
 31
0.0
 40
0.0061705924
 41
-1.1948539202
 42
0.0003532199
  0
ELLIPSE
  5
73F
100
AcDbEntity
  8
0
100
AcDbEllipse
 62
7
  6
CONTINUOUS
 10
-9.5365580669
 20
8.3842118937
 30
0.0
 11
1.0000571192
 21
-0.9999809595
 31
0.0
 40
0.0061705924
 41
3.1412394337
 42
4.3364465738
  0
ELLIPSE
  5
740
100
AcDbEntity
  8
0
100
AcDbEllipse
 62
7
  6
CONTINUOUS
 10
-9.5365580669
 20
-34.2877620036
 30
0.0
 11
1.0000571192
 21
0.9999809595
 31
0.0
 40
0.0061705924
 41
1.9467387334
 42
3.1419458735
  0
ELLIPSE
  5
741
100
AcDbEntity
  8
0
100
AcDbEllipse
 62
7
  6
CONTINUOUS
 10
-25.9177510738
 20
-34.2877620036
 30
0.0
 11
1.0000571192
 21
-0.9999809595
 31
0.0
 40
0.0061705924
 41
-0.0003532199
 42
1.1948539202
  0
ELLIPSE
  5
742
100
AcDbEntity
  8
0
100
AcDbEllipse
 62
7
  6
CONTINUOUS
 10
-7.8271588012
 20
10.4595498104
 30
0.0
 11
-0.0029088041
 21
0.2886641433
 31
0.0
 40
0.8660144118
 41
-3.150319066
 42
-1.582431609
  0
ELLIPSE
  5
743
100
AcDbEntity
  8
0
100
AcDbEllipse
 62
7
  6
CONTINUOUS
 10
-10.2271503395
 20
10.4595498104
 30
0.0
 11
0.0029088041
 21
0.2886641433
 31
0.0
 40
0.8660144118
 41
-4.7007536982
 42
-3.1328662412
  0
ELLIPSE
  5
744
100
AcDbEntity
  8
0
100
AcDbEllipse
 62
7
  6
CONTINUOUS
 10
-25.2271588012
 20
10.4595498104
 30
0.0
 11
-0.0029088041
 21
0.2886641433
 31
0.0
 40
0.8660144118
 41
-3.150319066
 42
-1.582431609
  0
ELLIPSE
  5
745
100
AcDbEntity
  8
0
100
AcDbEllipse
 62
7
  6
CONTINUOUS
 10
-27.6271503395
 20
10.4595498104
 30
0.0
 11
0.0029088041
 21
0.2886641433
 31
0.0
 40
0.8660144118
 41
-4.7007536982
 42
-3.1328662412
  0
ELLIPSE
  5
746
100
AcDbEntity
  8
0
100
AcDbEllipse
 62
7
  6
CONTINUOUS
 10
-7.8271588012
 20
-36.3630999204
 30
0.0
 11
0.0029088041
 21
0.2886641433
 31
0.0
 40
0.8660144118
 41
-1.5591610446
 42
0.0087264124
  0
ELLIPSE
  5
747
100
AcDbEntity
  8
0
100
AcDbEllipse
 62
7
  6
CONTINUOUS
 10
-10.2271503395
 20
-36.3630999204
 30
0.0
 11
-0.0029088041
 21
0.2886641433
 31
0.0
 40
0.8660144118
 41
-0.0087264124
 42
1.5591610446
  0
ELLIPSE
  5
748
100
AcDbEntity
  8
0
100
AcDbEllipse
 62
7
  6
CONTINUOUS
 10
-27.6271503395
 20
-36.3630999204
 30
0.0
 11
-0.0029088041
 21
0.2886641433
 31
0.0
 40
0.8660144118
 41
-0.0087264124
 42
1.5591610446
  0
ELLIPSE
  5
749
100
AcDbEntity
  8
0
100
AcDbEllipse
 62
7
  6
CONTINUOUS
 10
-25.2271588012
 20
-36.3630999204
 30
0.0
 11
0.0029088041
 21
0.2886641433
 31
0.0
 40
0.8660144118
 41
-1.5591610446
 42
0.0087264124
  0
ELLIPSE
  5
74A
100
AcDbEntity
  8
0
100
AcDbEllipse
 62
7
  6
CONTINUOUS
 10
-7.0859004773
 20
8.9423986535
 30
0.0
 11
-0.4160498344
 21
-0.2773626446
 31
0.0
 40
0.9999450019
 41
2.5536219432
 42
4.1243675013
  0
ELLIPSE
  5
74B
100
AcDbEntity
  8
0
100
AcDbEllipse
 62
7
  6
CONTINUOUS
 10
-7.0859004773
 20
-34.8459487635
 30
0.0
 11
0.4160498344
 21
-0.2773626446
 31
0.0
 40
0.9999450019
 41
-0.9827748477
 42
0.5879707104
  0
ELLIPSE
  5
74C
100
AcDbEntity
  8
0
100
AcDbEllipse
 62
7
  6
CONTINUOUS
 10
-28.3684086633
 20
-34.8459487635
 30
0.0
 11
0.4160498344
 21
0.2773626446
 31
0.0
 40
0.9999450019
 41
2.5536219432
 42
4.1243675013
  0
ELLIPSE
  5
74D
100
AcDbEntity
  8
0
100
AcDbEllipse
 62
7
  6
CONTINUOUS
 10
-28.3684086633
 20
8.9423986535
 30
0.0
 11
-0.4160498344
 21
0.2773626446
 31
0.0
 40
0.9999450019
 41
-0.9827748477
 42
0.5879707104
  0
ELLIPSE
  5
74E
100
AcDbEntity
  8
0
100
AcDbEllipse
 62
7
  6
CONTINUOUS
 10
-10.1605089161
 20
-34.9055420255
 30
0.0
 11
0.4999904798
 21
0.5000285596
 31
0.0
 40
0.0061705924
 41
0.0112823085
 42
1.0386206835
  0
ELLIPSE
  5
74F
100
AcDbEntity
  8
0
100
AcDbEllipse
 62
7
  6
CONTINUOUS
 10
-25.2938002246
 20
-34.9055420255
 30
0.0
 11
-0.4999904798
 21
0.5000285596
 31
0.0
 40
0.0061705924
 41
-1.0386206835
 42
-0.0112823085
  0
ELLIPSE
  5
750
100
AcDbEntity
  8
0
100
AcDbEllipse
 62
7
  6
CONTINUOUS
 10
-25.2938002246
 20
9.0019919155
 30
0.0
 11
0.4999904798
 21
0.5000285596
 31
0.0
 40
0.0061705924
 41
-3.1303103451
 42
-2.1029719701
  0
ELLIPSE
  5
751
100
AcDbEntity
  8
0
100
AcDbEllipse
 62
7
  6
CONTINUOUS
 10
-10.1605089161
 20
9.0019919155
 30
0.0
 11
-0.4999904798
 21
0.5000285596
 31
0.0
 40
0.0061705924
 41
-4.1802133371
 42
-3.1528749621
  0
ELLIPSE
  5
752
100
AcDbEntity
  8
0
100
AcDbEllipse
 62
7
  6
CONTINUOUS
 10
-10.1605089161
 20
-33.9434071668
 30
0.0
 11
0.5
 21
0.0
 31
0.0
 40
0.0087268678
 41
-1.5707963268
 42
-0.0174532925
  0
ELLIPSE
  5
753
100
AcDbEntity
  8
0
100
AcDbEllipse
 62
7
  6
CONTINUOUS
 10
-25.2938002246
 20
-33.9434071668
 30
0.0
 11
0.5
 21
-0.0
 31
0.0
 40
0.0087268678
 41
-3.1241393611
 42
-1.5707963268
  0
ELLIPSE
  5
754
100
AcDbEntity
  8
0
100
AcDbEllipse
 62
7
  6
CONTINUOUS
 10
-25.2938002246
 20
8.0398570568
 30
0.0
 11
0.5
 21
0.0
 31
0.0
 40
0.0087268678
 41
1.5707963268
 42
3.1241393611
  0
ELLIPSE
  5
755
100
AcDbEntity
  8
0
100
AcDbEllipse
 62
7
  6
CONTINUOUS
 10
-10.1605089161
 20
8.0398570568
 30
0.0
 11
0.5
 21
0.0
 31
0.0
 40
0.0087268678
 41
0.0174532925
 42
1.5707963268
  0
ELLIPSE
  5
756
100
AcDbEntity
  8
0
100
AcDbEllipse
 62
7
  6
CONTINUOUS
 10
-18.9357295568
 20
10.8425100604
 30
0.0
 11
0.1243375101
 21
0.1566832125
 31
0.0
 40
0.9998696711
 41
-0.9000073418
 42
0.6707382164
  0
ELLIPSE
  5
757
100
AcDbEntity
  8
0
100
AcDbEllipse
 62
7
  6
CONTINUOUS
 10
-16.5185795839
 20
10.8425100604
 30
0.0
 11
-0.1243375101
 21
0.1566832126
 31
0.0
 40
0.9998696711
 41
-0.6707382162
 42
0.9000073419
  0
ELLIPSE
  5
758
100
AcDbEntity
  8
0
100
AcDbEllipse
 62
7
  6
CONTINUOUS
 10
-16.5185795839
 20
-36.7460601704
 30
0.0
 11
0.1243375101
 21
0.1566832125
 31
0.0
 40
0.9998696711
 41
-4.0415999954
 42
-2.4708544373
  0
ELLIPSE
  5
759
100
AcDbEntity
  8
0
100
AcDbEllipse
 62
7
  6
CONTINUOUS
 10
-18.9357295568
 20
-36.7460601704
 30
0.0
 11
-0.1243375101
 21
0.1566832125
 31
0.0
 40
0.9998696711
 41
-3.8123308699
 42
-2.2415853118
  0
ELLIPSE
  5
75A
100
AcDbEntity
  8
RACCORDO
100
AcDbEllipse
 62
7
  6
CONTINUOUS
 10
-19.4097324575
 20
-30.551775055
 30
0.0
 11
0.3000114235
 21
0.0
 31
0.0
 40
0.9999619231
 41
1.5707963268
 42
2.80137059
  0
ELLIPSE
  5
75B
100
AcDbEntity
  8
RACCORDO
100
AcDbEllipse
 62
7
  6
CONTINUOUS
 10
-28.4402334485
 20
-16.401775055
 30
0.0
 11
0.3000114235
 21
0.0
 31
0.0
 40
0.9999619231
 41
1.5707963268
 42
3.1415926536
  0
ELLIPSE
  5
75C
100
AcDbEntity
  8
RACCORDO
100
AcDbEllipse
 62
7
  6
CONTINUOUS
 10
-28.4402334485
 20
-11.401775055
 30
0.0
 11
0.3000114235
 21
0.0
 31
0.0
 40
0.9999619231
 41
1.5707963268
 42
3.1415926536
  0
ELLIPSE
  5
75D
100
AcDbEntity
  8
DRAFT
100
AcDbEllipse
 62
7
  6
CONTINUOUS
 10
-27.5686071923
 20
-13.951775055
 30
0.0
 11
0.0
 21
2.15
 31
0.0
 40
0.0087268678
 41
0.0
 42
3.1415926536
  0
ELLIPSE
  5
75E
100
AcDbEntity
  8
DRAFT
100
AcDbEllipse
 62
7
  6
CONTINUOUS
 10
-27.5686071923
 20
1.048224945
 30
0.0
 11
-0.0
 21
2.15
 31
0.0
 40
0.0087268678
 41
-0.0
 42
3.1415926536
  0
ELLIPSE
  5
75F
100
AcDbEntity
  8
DRAFT
100
AcDbEllipse
 62
7
  6
CONTINUOUS
 10
-27.5686071923
 20
-3.951775055
 30
0.0
 11
0.0
 21
2.15
 31
0.0
 40
0.0087268678
 41
0.0
 42
3.1415926536
  0
ELLIPSE
  5
760
100
AcDbEntity
  8
DRAFT
100
AcDbEllipse
 62
7
  6
CONTINUOUS
 10
-27.5686071923
 20
-8.951775055
 30
0.0
 11
0.0
 21
2.15
 31
0.0
 40
0.0087268678
 41
0.0
 42
3.1415926536
  0
ELLIPSE
  5
761
100
AcDbEntity
  8
RACCORDO
100
AcDbEllipse
 62
7
  6
CONTINUOUS
 10
-21.4402334485
 20
6.3613038232
 30
0.0
 11
0.2121481893
 21
-0.2121481893
 31
0.0
 40
0.9999238505
 41
2.3562325664
 42
3.9269527408
  0
ELLIPSE
  5
762
100
AcDbEntity
  8
RACCORDO
100
AcDbEllipse
 62
7
  6
CONTINUOUS
 10
-8.3359617248
 20
5.6612771683
 30
0.0
 11
0.3827005044
 21
0.9239207481
 31
0.0
 40
0.9999553905
 41
-0.3926833098
 42
0.3926833098
  0
ELLIPSE
  5
763
100
AcDbEntity
  8
RACCORDO
100
AcDbEllipse
 62
7
  6
CONTINUOUS
 10
-7.714102347
 20
5.0394177905
 30
0.0
 11
0.9239207481
 21
0.3827005044
 31
0.0
 40
0.9999553905
 41
-0.3926833098
 42
0.3926833098
  0
ELLIPSE
  5
764
100
AcDbEntity
  8
RACCORDO
100
AcDbEllipse
 62
7
  6
CONTINUOUS
 10
-7.714102347
 20
-30.9429679005
 30
0.0
 11
0.9239207481
 21
-0.3827005044
 31
0.0
 40
0.9999553905
 41
-0.3926833098
 42
0.3926833098
  0
ELLIPSE
  5
765
100
AcDbEntity
  8
RACCORDO
100
AcDbEllipse
 62
7
  6
CONTINUOUS
 10
-8.3359617248
 20
-31.5648272783
 30
0.0
 11
-0.3827005044
 21
0.9239207481
 31
0.0
 40
0.9999553905
 41
2.7489093438
 42
3.5342759634
  0
ELLIPSE
  5
766
100
AcDbEntity
  8
RACCORDO
100
AcDbEllipse
 62
7
  6
CONTINUOUS
 10
-21.4402334485
 20
-32.2648539332
 30
0.0
 11
-0.2121481893
 21
-0.2121481893
 31
0.0
 40
0.9999238505
 41
-0.7853600872
 42
0.7853600872
  0
ELLIPSE
  5
767
100
AcDbEntity
  8
RACCORDO
100
AcDbEllipse
 62
7
  6
CONTINUOUS
 10
-27.1183474159
 20
-30.1648272783
 30
0.0
 11
-0.3827005044
 21
-0.9239207481
 31
0.0
 40
0.9999553905
 41
-0.3926833098
 42
0.3926833098
  0
ELLIPSE
  5
768
100
AcDbEntity
  8
RACCORDO
100
AcDbEllipse
 62
7
  6
CONTINUOUS
 10
-27.7402067936
 20
-29.5429679005
 30
0.0
 11
0.9239207481
 21
0.3827005044
 31
0.0
 40
0.9999553905
 41
2.7489093438
 42
3.5342759634
  0
ELLIPSE
  5
769
100
AcDbEntity
  8
RACCORDO
100
AcDbEllipse
 62
7
  6
CONTINUOUS
 10
-28.4402334485
 20
-11.501775055
 30
0.0
 11
-0.3000114235
 21
-0.0
 31
0.0
 40
0.9999619231
 41
0.0
 42
1.5707963268
  0
ELLIPSE
  5
76A
100
AcDbEntity
  8
RACCORDO
100
AcDbEllipse
 62
7
  6
CONTINUOUS
 10
-28.4402334485
 20
-6.501775055
 30
0.0
 11
-0.3000114235
 21
-0.0
 31
0.0
 40
0.9999619231
 41
0.0
 42
1.5707963268
  0
ELLIPSE
  5
76B
100
AcDbEntity
  8
RACCORDO
100
AcDbEllipse
 62
7
  6
CONTINUOUS
 10
-28.4402334485
 20
-6.401775055
 30
0.0
 11
0.3000114235
 21
0.0
 31
0.0
 40
0.9999619231
 41
1.5707963268
 42
3.1415926536
  0
ELLIPSE
  5
76C
100
AcDbEntity
  8
RACCORDO
100
AcDbEllipse
 62
7
  6
CONTINUOUS
 10
-28.4402334485
 20
-1.501775055
 30
0.0
 11
-0.3000114235
 21
-0.0
 31
0.0
 40
0.9999619231
 41
0.0
 42
1.5707963268
  0
ELLIPSE
  5
76D
100
AcDbEntity
  8
RACCORDO
100
AcDbEllipse
 62
7
  6
CONTINUOUS
 10
-28.4402334485
 20
-1.401775055
 30
0.0
 11
0.3000114235
 21
0.0
 31
0.0
 40
0.9999619231
 41
1.5707963268
 42
3.1415926536
  0
ELLIPSE
  5
76E
100
AcDbEntity
  8
RACCORDO
100
AcDbEllipse
 62
7
  6
CONTINUOUS
 10
-28.4402334485
 20
3.498224945
 30
0.0
 11
-0.3000114235
 21
-0.0
 31
0.0
 40
0.9999619231
 41
0.0
 42
1.5707963268
  0
ELLIPSE
  5
76F
100
AcDbEntity
  8
RACCORDO
100
AcDbEllipse
 62
7
  6
CONTINUOUS
 10
-27.7402067936
 20
3.6394177905
 30
0.0
 11
-0.9239207481
 21
0.3827005044
 31
0.0
 40
0.9999553905
 41
-0.3926833098
 42
0.3926833098
  0
ELLIPSE
  5
770
100
AcDbEntity
  8
RACCORDO
100
AcDbEllipse
 62
7
  6
CONTINUOUS
 10
-27.1183474159
 20
4.2612771683
 30
0.0
 11
-0.3827005044
 21
0.9239207481
 31
0.0
 40
0.9999553905
 41
-0.3926833098
 42
0.3926833098
  0
ELLIPSE
  5
771
100
AcDbEntity
  8
RACCORDO
100
AcDbEllipse
 62
7
  6
CONTINUOUS
 10
-22.0402562955
 20
5.5613266702
 30
0.0
 11
0.2121481893
 21
-0.2121481893
 31
0.0
 40
0.9999238505
 41
-0.7853600872
 42
0.7853600872
  0
ELLIPSE
  5
772
100
AcDbEntity
  8
RACCORDO
100
AcDbEllipse
 62
7
  6
CONTINUOUS
 10
-16.0445766831
 20
-30.551775055
 30
0.0
 11
0.3000114235
 21
0.0
 31
0.0
 40
0.9999619231
 41
0.3402220636
 42
1.5707963268
  0
ELLIPSE
  5
773
100
AcDbEntity
  8
RACCORDO
100
AcDbEllipse
 62
7
  6
CONTINUOUS
 10
-16.1231615395
 20
4.648224945
 30
0.0
 11
-0.3000114235
 21
-0.0
 31
0.0
 40
0.9999619231
 41
1.5707963268
 42
2.80137059
  0
ELLIPSE
  5
774
100
AcDbEntity
  8
RACCORDO
100
AcDbEllipse
 62
7
  6
CONTINUOUS
 10
-19.3311476011
 20
4.648224945
 30
0.0
 11
-0.3000114235
 21
-0.0
 31
0.0
 40
0.9999619231
 41
0.3402220636
 42
1.5707963268
  0
ELLIPSE
  5
775
100
AcDbEntity
  8
ASSI
100
AcDbEllipse
 62
7
  6
CONTINUOUS
 10
-21.4402334485
 20
6.3613038232
 30
0.0
 11
0.2121481893
 21
-0.2121481893
 31
0.0
 40
0.9999238505
 41
2.3562325664
 42
3.9269527408
  0
ELLIPSE
  5
776
100
AcDbEntity
  8
ASSI
100
AcDbEllipse
 62
7
  6
CONTINUOUS
 10
-8.3359617248
 20
5.6612771683
 30
0.0
 11
0.3827005044
 21
0.9239207481
 31
0.0
 40
0.9999553905
 41
-0.3926833098
 42
0.3926833098
  0
ELLIPSE
  5
777
100
AcDbEntity
  8
ASSI
100
AcDbEllipse
 62
7
  6
CONTINUOUS
 10
-7.714102347
 20
5.0394177905
 30
0.0
 11
0.9239207481
 21
0.3827005044
 31
0.0
 40
0.9999553905
 41
-0.3926833098
 42
0.3926833098
  0
ELLIPSE
  5
778
100
AcDbEntity
  8
ASSI
100
AcDbEllipse
 62
7
  6
CONTINUOUS
 10
-7.714102347
 20
-30.9429679005
 30
0.0
 11
0.9239207481
 21
-0.3827005044
 31
0.0
 40
0.9999553905
 41
-0.3926833098
 42
0.3926833098
  0
ELLIPSE
  5
779
100
AcDbEntity
  8
ASSI
100
AcDbEllipse
 62
7
  6
CONTINUOUS
 10
-8.3359617248
 20
-31.5648272783
 30
0.0
 11
-0.3827005044
 21
0.9239207481
 31
0.0
 40
0.9999553905
 41
2.7489093438
 42
3.5342759634
  0
ELLIPSE
  5
77A
100
AcDbEntity
  8
ASSI
100
AcDbEllipse
 62
7
  6
CONTINUOUS
 10
-21.4402334485
 20
-32.2648539332
 30
0.0
 11
-0.2121481893
 21
-0.2121481893
 31
0.0
 40
0.9999238505
 41
-0.7853600872
 42
0.7853600872
  0
ELLIPSE
  5
77B
100
AcDbEntity
  8
ASSI
100
AcDbEllipse
 62
7
  6
CONTINUOUS
 10
-27.1183474159
 20
-30.1648272783
 30
0.0
 11
-0.3827005044
 21
-0.9239207481
 31
0.0
 40
0.9999553905
 41
-0.3926833098
 42
0.3926833098
  0
ELLIPSE
  5
77C
100
AcDbEntity
  8
ASSI
100
AcDbEllipse
 62
7
  6
CONTINUOUS
 10
-27.7402067936
 20
-29.5429679005
 30
0.0
 11
0.9239207481
 21
0.3827005044
 31
0.0
 40
0.9999553905
 41
2.7489093438
 42
3.5342759634
  0
ELLIPSE
  5
77D
100
AcDbEntity
  8
ASSI
100
AcDbEllipse
 62
7
  6
CONTINUOUS
 10
-28.4402334485
 20
-11.501775055
 30
0.0
 11
-0.3000114235
 21
-0.0
 31
0.0
 40
0.9999619231
 41
0.0
 42
1.5707963268
  0
ELLIPSE
  5
77E
100
AcDbEntity
  8
ASSI
100
AcDbEllipse
 62
7
  6
CONTINUOUS
 10
-28.4402334485
 20
-6.501775055
 30
0.0
 11
-0.3000114235
 21
-0.0
 31
0.0
 40
0.9999619231
 41
0.0
 42
1.5707963268
  0
ELLIPSE
  5
77F
100
AcDbEntity
  8
ASSI
100
AcDbEllipse
 62
7
  6
CONTINUOUS
 10
-28.4402334485
 20
-6.401775055
 30
0.0
 11
0.3000114235
 21
0.0
 31
0.0
 40
0.9999619231
 41
1.5707963268
 42
3.1415926536
  0
ELLIPSE
  5
780
100
AcDbEntity
  8
ASSI
100
AcDbEllipse
 62
7
  6
CONTINUOUS
 10
-28.4402334485
 20
-1.501775055
 30
0.0
 11
-0.3000114235
 21
-0.0
 31
0.0
 40
0.9999619231
 41
0.0
 42
1.5707963268
  0
ELLIPSE
  5
781
100
AcDbEntity
  8
ASSI
100
AcDbEllipse
 62
7
  6
CONTINUOUS
 10
-28.4402334485
 20
-1.401775055
 30
0.0
 11
0.3000114235
 21
0.0
 31
0.0
 40
0.9999619231
 41
1.5707963268
 42
3.1415926536
  0
ELLIPSE
  5
782
100
AcDbEntity
  8
ASSI
100
AcDbEllipse
 62
7
  6
CONTINUOUS
 10
-28.4402334485
 20
3.498224945
 30
0.0
 11
-0.3000114235
 21
-0.0
 31
0.0
 40
0.9999619231
 41
0.0
 42
1.5707963268
  0
ELLIPSE
  5
783
100
AcDbEntity
  8
ASSI
100
AcDbEllipse
 62
7
  6
CONTINUOUS
 10
-27.7402067936
 20
3.6394177905
 30
0.0
 11
-0.9239207481
 21
0.3827005044
 31
0.0
 40
0.9999553905
 41
-0.3926833098
 42
0.3926833098
  0
ELLIPSE
  5
784
100
AcDbEntity
  8
ASSI
100
AcDbEllipse
 62
7
  6
CONTINUOUS
 10
-27.1183474159
 20
4.2612771683
 30
0.0
 11
-0.3827005044
 21
0.9239207481
 31
0.0
 40
0.9999553905
 41
-0.3926833098
 42
0.3926833098
  0
ELLIPSE
  5
785
100
AcDbEntity
  8
ASSI
100
AcDbEllipse
 62
7
  6
CONTINUOUS
 10
-16.0445766831
 20
-30.551775055
 30
0.0
 11
0.3000114235
 21
0.0
 31
0.0
 40
0.9999619231
 41
0.3402220636
 42
1.5707963268
  0
ELLIPSE
  5
786
100
AcDbEntity
  8
ASSI
100
AcDbEllipse
 62
7
  6
CONTINUOUS
 10
-16.1231615395
 20
4.648224945
 30
0.0
 11
-0.3000114235
 21
-0.0
 31
0.0
 40
0.9999619231
 41
1.5707963268
 42
2.80137059
  0
ELLIPSE
  5
787
100
AcDbEntity
  8
ASSI
100
AcDbEllipse
 62
7
  6
CONTINUOUS
 10
-19.3311476011
 20
4.648224945
 30
0.0
 11
-0.3000114235
 21
-0.0
 31
0.0
 40
0.9999619231
 41
0.3402220636
 42
1.5707963268
  0
ELLIPSE
  5
788
100
AcDbEntity
  8
ASSI
100
AcDbEllipse
 62
7
  6
CONTINUOUS
 10
-19.4097324575
 20
-30.551775055
 30
0.0
 11
0.3000114235
 21
0.0
 31
0.0
 40
0.9999619231
 41
1.5707963268
 42
2.80137059
  0
ELLIPSE
  5
789
100
AcDbEntity
  8
ASSI
100
AcDbEllipse
 62
7
  6
CONTINUOUS
 10
-28.4402334485
 20
-16.401775055
 30
0.0
 11
0.3000114235
 21
0.0
 31
0.0
 40
0.9999619231
 41
1.5707963268
 42
3.1415926536
  0
ELLIPSE
  5
78A
100
AcDbEntity
  8
ASSI
100
AcDbEllipse
 62
7
  6
CONTINUOUS
 10
-28.4402334485
 20
-11.401775055
 30
0.0
 11
0.3000114235
 21
0.0
 31
0.0
 40
0.9999619231
 41
1.5707963268
 42
3.1415926536
  0
ELLIPSE
  5
78B
100
AcDbEntity
  8
ASSI
100
AcDbEllipse
 62
7
  6
CONTINUOUS
 10
-27.5686071923
 20
-13.951775055
 30
0.0
 11
0.0
 21
2.15
 31
0.0
 40
0.0087268678
 41
0.0
 42
3.1415926536
  0
ELLIPSE
  5
78C
100
AcDbEntity
  8
ASSI
100
AcDbEllipse
 62
7
  6
CONTINUOUS
 10
-27.5686071923
 20
1.048224945
 30
0.0
 11
-0.0
 21
2.15
 31
0.0
 40
0.0087268678
 41
-0.0
 42
3.1415926536
  0
ELLIPSE
  5
78D
100
AcDbEntity
  8
ASSI
100
AcDbEllipse
 62
7
  6
CONTINUOUS
 10
-27.5686071923
 20
-3.951775055
 30
0.0
 11
0.0
 21
2.15
 31
0.0
 40
0.0087268678
 41
0.0
 42
3.1415926536
  0
ELLIPSE
  5
78E
100
AcDbEntity
  8
ASSI
100
AcDbEllipse
 62
7
  6
CONTINUOUS
 10
-27.5686071923
 20
-8.951775055
 30
0.0
 11
0.0
 21
2.15
 31
0.0
 40
0.0087268678
 41
0.0
 42
3.1415926536
  0
ELLIPSE
  5
78F
100
AcDbEntity
  8
ASSI
100
AcDbEllipse
 62
7
  6
CONTINUOUS
 10
-22.0402562955
 20
5.5613266702
 30
0.0
 11
0.2121481893
 21
-0.2121481893
 31
0.0
 40
0.9999238505
 41
-0.7853600872
 42
0.7853600872
  0
ENDSEC
  0
SECTION
  2
OBJECTS
  0
DICTIONARY
  5
C
100
AcDbDictionary
280
0
281
1
  3
ACAD_GROUP
350
D
  3
ACAD_MLINESTYLE
350
17
  3
ACAD_LAYOUT
350
1A
  3
ACAD_PLOTSETTINGS
350
19
  3
ACAD_PLOTSTYLENAME
350
E
  0
DICTIONARY
  5
D
102
{ACAD_REACTORS
330
C
102
}
100
AcDbDictionary
280
0
281
1
  0
ACDBDICTIONARYWDFLT
  5
E
102
{ACAD_REACTORS
330
C
102
}
100
AcDbDictionary
281
1
  3
Normal
350
F
100
AcDbDictionaryWithDefault
340
F
  0
DICTIONARY
  5
17
102
{ACAD_REACTORS
330
C
102
}
100
AcDbDictionary
280
0
281
1
  3
Standard
350
18
  0
DICTIONARY
  5
19
102
{ACAD_REACTORS
330
C
102
}
100
AcDbDictionary
281
1
  0
DICTIONARY
  5
1A
102
{ACAD_REACTORS
330
C
102
}
100
AcDbDictionary
281
1
  3
Model
350
790
  3
Layout1
350
791
  0
ACDBPLACEHOLDER
  5
F
102
{ACAD_REACTORS
330
E
102
}
  0
MLINESTYLE
  5
18
102
{ACAD_REACTORS
330
17
102
}
100
AcDbMlineStyle
  2
STANDARD
 70
0
  3

 62
256
 51
90.0
 52
90.0
 71
2
 49
0.5
 62
256
  6
BYLAYER
 49
-0.5
 62
256
  6
BYLAYER
  0
LAYOUT
  5
790
102
{ACAD_REACTORS
330
1A
102
}
100
AcDbPlotSettings
  1

  2
none_device
  4
ISO_A4_(297.00_x_210.00_MM)
  6

 40
0.0
 41
0.0
 42
0.0
 43
0.0
 44
297.0
 45
210.0
 46
0.0
 47
0.0
 48
0.0
 49
0.0
140
0.0
141
0.0
142
1.0
143
1.0
 70
1024
 72
1
 73
0
 74
0
  7

 75
0
147
1.0
148
0.0
149
0.0
100
AcDbLayout
  1
Model
 70
0
 71
0
 10
0.0
 20
0.0
 11
297.0
 21
210.0
 12
0.0
 22
0.0
 32
0.0
 14
0.0
 24
0.0
 34
0.0
 15
0.0
 25
0.0
 35
0.0
146
0.0
 13
0.0
 23
0.0
 33
0.0
 16
1.0
 26
0.0
 36
0.0
 17
0.0
 27
1.0
 37
0.0
 76
0
330
22A
345
0
346
0
  0
LAYOUT
  5
791
102
{ACAD_REACTORS
330
1A
102
}
100
AcDbPlotSettings
  1

  2
none_device
  4
ISO_A4_(297.00_x_210.00_MM)
  6

 40
0.0
 41
0.0
 42
0.0
 43
0.0
 44
297.0
 45
210.0
 46
0.0
 47
0.0
 48
0.0
 49
0.0
140
0.0
141
0.0
142
1.0
143
1.0
 70
0
 72
1
 73
0
 74
0
  7

 75
0
147
1.0
148
0.0
149
0.0
100
AcDbLayout
  1
Layout1
 70
0
 71
1
 10
0.0
 20
0.0
 11
297.0
 21
210.0
 12
0.0
 22
0.0
 32
0.0
 14
0.0
 24
0.0
 34
0.0
 15
0.0
 25
0.0
 35
0.0
146
0.0
 13
0.0
 23
0.0
 33
0.0
 16
1.0
 26
0.0
 36
0.0
 17
0.0
 27
1.0
 37
0.0
 76
0
330
22B
345
0
346
0
  0
ENDSEC
  0
EOF
