  0
SECTION
  2
HEADER
  9
$ACADVER
  1
AC1015
  9
$DWGCODEPAGE
  3
ANSI_1252
  9
$EXTMAX
 10
297.0
 20
210.0
 30
0.0
  9
$EXTMIN
 10
0.0
 20
0.0
 30
0.0
  9
$LIMMIN
 10
0.0
 20
0.0
  9
$LIMMAX
 10
297.0
 20
210.0
  9
$VIEWCTR
 10
148.5
 20
105.0
  9
$VIEWSIZE
 40
210.0
  9
$CLAYER
  8
0
  9
$LTSCALE
 40
16.335
  9
$CELTYPE
  6
BYLAYER
  9
$DIMSCALE
 40
1.0
  9
$DIMASZ
 40
3.0
  9
$DIMEXO
 40
0.5
  9
$DIMDLI
 40
11.286
  9
$DIMEXE
 40
1.5
  9
$DIMCEN
 40
2.673
  9
$DIMLFAC
 40
1.0
  9
$DIMBLK
  1
_FILLED
  9
$DIMTXT
 40
3.0
  9
$DIMTOL
 70
1
  9
$DIMLIM
 70
0
  9
$DIMTFAC
 40
1.0
  9
$DIMTP
 40
0.01
  9
$DIMTM
 40
0.01
  9
$DIMGAP
 40
0.625
  9
$DIMDSEP
 70
44
  9
$PDMODE
 70
3
  9
$PDSIZE
 40
3.0
  9
$HANDSEED
  5
90F
  9
$TILEMODE
 70
1
  9
$MEASUREMENT
 70
1
  9
$INSUNITS
 70
4
  0
ENDSEC
  0
SECTION
  2
CLASSES
  0
CLASS
  1
ACDBDICTIONARYWDFLT
  2
AcDbDictionaryWithDefault
  3
AutoCAD 2000
 90
0
280
0
281
0
  0
CLASS
  1
ACDBPLACEHOLDER
  2
AcDbPlaceHolder
  3
AutoCAD 2000
 90
0
280
0
281
0
  0
CLASS
  1
LAYOUT
  2
AcDbLayout
  3
AutoCAD 2000
 90
0
280
0
281
0
  0
ENDSEC
  0
SECTION
  2
TABLES
  0
TABLE
  2
VPORT
  5
8
100
AcDbSymbolTable
 70
2
  0
VPORT
  5
1F4
100
AcDbSymbolTableRecord
100
AcDbViewportTableRecord
  2
*ACTIVE
 70
0
 10
0.0
 20
0.0
 11
1.0
 21
1.0
 12
148.5
 22
105.0
 13
0.0
 23
0.0
 14
1.0
 24
1.0
 15
0.0
 25
0.0
 16
0.0
 26
0.0
 36
1.0
 17
0.0
 27
0.0
 37
0.0
 40
210.0
 41
1.4142857143
 42
50.0
 43
0.0
 44
0.0
 50
0.0
 51
0.0
 71
0
 72
100
 73
1
 74
1
 75
0
 76
0
 77
0
 78
0
  0
ENDTAB
  0
TABLE
  2
LTYPE
  5
5
100
AcDbSymbolTable
 70
6
  0
LTYPE
  5
14
100
AcDbSymbolTableRecord
100
AcDbLinetypeTableRecord
  2
BYBLOCK
 70
0
  3

 72
65
 73
0
 40
0.0
  0
LTYPE
  5
15
100
AcDbSymbolTableRecord
100
AcDbLinetypeTableRecord
  2
BYLAYER
 70
0
  3

 72
65
 73
0
 40
0.0
  0
LTYPE
  5
16
100
AcDbSymbolTableRecord
100
AcDbLinetypeTableRecord
  2
CONTINUOUS
 70
64
  3
Solid line
 72
65
 73
0
 40
0.0
  0
LTYPE
  5
1F5
100
AcDbSymbolTableRecord
100
AcDbLinetypeTableRecord
  2
CENTER
 70
64
  3
____ _ ____ _ ____ _ ____ _ ____ _ ____ _ ____
 72
65
 73
4
 40
0.6
 49
0.375
 74
0
 49
-0.075
 74
0
 49
0.075
 74
0
 49
-0.075
 74
0
  0
LTYPE
  5
1F6
100
AcDbSymbolTableRecord
100
AcDbLinetypeTableRecord
  2
HIDDEN
 70
64
  3
- - - - - - - - - - - - - - - - - - - -
 72
65
 73
2
 40
0.2
 49
0.1
 74
0
 49
-0.1
 74
0
  0
LTYPE
  5
1F7
100
AcDbSymbolTableRecord
100
AcDbLinetypeTableRecord
  2
PHANTOM
 70
64
  3
_____ _ _ _____ _ _ _____ _ _ _____
 72
65
 73
6
 40
0.8
 49
0.45
 74
0
 49
-0.05
 74
0
 49
0.1
 74
0
 49
-0.05
 74
0
 49
0.1
 74
0
 49
-0.05
 74
0
  0
LTYPE
  5
1F8
100
AcDbSymbolTableRecord
100
AcDbLinetypeTableRecord
  2
DOT
 70
64
  3
. . . . . . . . . . . . . . . . . . . .
 72
65
 73
2
 40
0.2
 49
0.1
 74
0
 49
-0.1
 74
0
  0
LTYPE
  5
1F9
100
AcDbSymbolTableRecord
100
AcDbLinetypeTableRecord
  2
DASHED
 70
64
  3
- - - - - - - - - - - - - - - - - - - -
 72
65
 73
2
 40
0.2
 49
0.1
 74
0
 49
-0.1
 74
0
  0
ENDTAB
  0
TABLE
  2
LAYER
  5
2
100
AcDbSymbolTable
 70
36
  0
LAYER
  5
10
100
AcDbSymbolTableRecord
100
AcDbLayerTableRecord
  2
0
 70
0
 62
7
  6
CONTINUOUS
370
-3
390
F
  0
LAYER
  5
1FA
100
AcDbSymbolTableRecord
100
AcDbLayerTableRecord
  2
DEFAULT_1
 70
0
 62
7
  6
CENTER
370
-3
390
F
  0
LAYER
  5
1FB
100
AcDbSymbolTableRecord
100
AcDbLayerTableRecord
  2
DEFAULT_2
 70
0
 62
7
  6
HIDDEN
370
-3
390
F
  0
LAYER
  5
1FC
100
AcDbSymbolTableRecord
100
AcDbLayerTableRecord
  2
DEFAULT_3
 70
0
 62
7
  6
PHANTOM
370
-3
390
F
  0
LAYER
  5
1FD
100
AcDbSymbolTableRecord
100
AcDbLayerTableRecord
  2
ASSI
 70
0
 62
7
  6
CONTINUOUS
370
-3
390
F
  0
LAYER
  5
1FE
100
AcDbSymbolTableRecord
100
AcDbLayerTableRecord
  2
COLOR4
 70
0
 62
7
  6
CONTINUOUS
370
-3
390
F
  0
LAYER
  5
1FF
100
AcDbSymbolTableRecord
100
AcDbLayerTableRecord
  2
COLOR9
 70
0
 62
7
  6
CONTINUOUS
370
-3
390
F
  0
LAYER
  5
200
100
AcDbSymbolTableRecord
100
AcDbLayerTableRecord
  2
COLORE_MATERIALE
 70
0
 62
7
  6
CONTINUOUS
370
-3
390
F
  0
LAYER
  5
201
100
AcDbSymbolTableRecord
100
AcDbLayerTableRecord
  2
COORDINATE
 70
0
 62
7
  6
CONTINUOUS
370
-3
390
F
  0
LAYER
  5
202
100
AcDbSymbolTableRecord
100
AcDbLayerTableRecord
  2
COORD_ORIGINE
 70
0
 62
7
  6
CONTINUOUS
370
-3
390
F
  0
LAYER
  5
203
100
AcDbSymbolTableRecord
100
AcDbLayerTableRecord
  2
COPY
 70
0
 62
7
  6
CONTINUOUS
370
-3
390
F
  0
LAYER
  5
204
100
AcDbSymbolTableRecord
100
AcDbLayerTableRecord
  2
COPY_GEOMETRY
 70
0
 62
7
  6
CONTINUOUS
370
-3
390
F
  0
LAYER
  5
205
100
AcDbSymbolTableRecord
100
AcDbLayerTableRecord
  2
COPY_PUBLISH
 70
0
 62
7
  6
CONTINUOUS
370
-3
390
F
  0
LAYER
  5
206
100
AcDbSymbolTableRecord
100
AcDbLayerTableRecord
  2
COSMETIC
 70
0
 62
7
  6
CONTINUOUS
370
-3
390
F
  0
LAYER
  5
207
100
AcDbSymbolTableRecord
100
AcDbLayerTableRecord
  2
COSMETICI
 70
0
 62
7
  6
CONTINUOUS
370
-3
390
F
  0
LAYER
  5
208
100
AcDbSymbolTableRecord
100
AcDbLayerTableRecord
  2
CURVE
 70
0
 62
7
  6
CONTINUOUS
370
-3
390
F
  0
LAYER
  5
209
100
AcDbSymbolTableRecord
100
AcDbLayerTableRecord
  2
DRAFT
 70
0
 62
7
  6
CONTINUOUS
370
-3
390
F
  0
LAYER
  5
20A
100
AcDbSymbolTableRecord
100
AcDbLayerTableRecord
  2
IGES
 70
0
 62
7
  6
CONTINUOUS
370
-3
390
F
  0
LAYER
  5
20B
100
AcDbSymbolTableRecord
100
AcDbLayerTableRecord
  2
IGS
 70
0
 62
7
  6
CONTINUOUS
370
-3
390
F
  0
LAYER
  5
20C
100
AcDbSymbolTableRecord
100
AcDbLayerTableRecord
  2
IGS_SCRITTE
 70
0
 62
7
  6
CONTINUOUS
370
-3
390
F
  0
LAYER
  5
20D
100
AcDbSymbolTableRecord
100
AcDbLayerTableRecord
  2
IMPORT_IGES
 70
0
 62
7
  6
CONTINUOUS
370
-3
390
F
  0
LAYER
  5
20E
100
AcDbSymbolTableRecord
100
AcDbLayerTableRecord
  2
INTFCLR_137
 70
0
 62
7
  6
CONTINUOUS
370
-3
390
F
  0
LAYER
  5
20F
100
AcDbSymbolTableRecord
100
AcDbLayerTableRecord
  2
INTFCLR_20107
 70
0
 62
7
  6
CONTINUOUS
370
-3
390
F
  0
LAYER
  5
210
100
AcDbSymbolTableRecord
100
AcDbLayerTableRecord
  2
INTFCLR_20625
 70
0
 62
7
  6
CONTINUOUS
370
-3
390
F
  0
LAYER
  5
211
100
AcDbSymbolTableRecord
100
AcDbLayerTableRecord
  2
INTFCLR_4627
 70
0
 62
7
  6
CONTINUOUS
370
-3
390
F
  0
LAYER
  5
212
100
AcDbSymbolTableRecord
100
AcDbLayerTableRecord
  2
INTFCLR_6275
 70
0
 62
7
  6
CONTINUOUS
370
-3
390
F
  0
LAYER
  5
213
100
AcDbSymbolTableRecord
100
AcDbLayerTableRecord
  2
INTF_1
 70
0
 62
7
  6
CONTINUOUS
370
-3
390
F
  0
LAYER
  5
214
100
AcDbSymbolTableRecord
100
AcDbLayerTableRecord
  2
INTF_11
 70
0
 62
7
  6
CONTINUOUS
370
-3
390
F
  0
LAYER
  5
215
100
AcDbSymbolTableRecord
100
AcDbLayerTableRecord
  2
INTF_12
 70
0
 62
7
  6
CONTINUOUS
370
-3
390
F
  0
LAYER
  5
216
100
AcDbSymbolTableRecord
100
AcDbLayerTableRecord
  2
INTF_6
 70
0
 62
7
  6
CONTINUOUS
370
-3
390
F
  0
LAYER
  5
217
100
AcDbSymbolTableRecord
100
AcDbLayerTableRecord
  2
INTF_YELLOW
 70
0
 62
7
  6
CONTINUOUS
370
-3
390
F
  0
LAYER
  5
218
100
AcDbSymbolTableRecord
100
AcDbLayerTableRecord
  2
NOTE
 70
0
 62
7
  6
CONTINUOUS
370
-3
390
F
  0
LAYER
  5
219
100
AcDbSymbolTableRecord
100
AcDbLayerTableRecord
  2
PIANI
 70
0
 62
7
  6
CONTINUOUS
370
-3
390
F
  0
LAYER
  5
21A
100
AcDbSymbolTableRecord
100
AcDbLayerTableRecord
  2
PIANI_ORIGINE
 70
0
 62
7
  6
CONTINUOUS
370
-3
390
F
  0
LAYER
  5
21B
100
AcDbSymbolTableRecord
100
AcDbLayerTableRecord
  2
PIANI_RIFERIMENTO
 70
0
 62
7
  6
CONTINUOUS
370
-3
390
F
  0
LAYER
  5
21C
100
AcDbSymbolTableRecord
100
AcDbLayerTableRecord
  2
PIANI_SFORMO
 70
0
 62
7
  6
CONTINUOUS
370
-3
390
F
  0
LAYER
  5
21D
100
AcDbSymbolTableRecord
100
AcDbLayerTableRecord
  2
PUBLISH_GEOMETRY
 70
0
 62
7
  6
CONTINUOUS
370
-3
390
F
  0
LAYER
  5
21E
100
AcDbSymbolTableRecord
100
AcDbLayerTableRecord
  2
PUNTI
 70
0
 62
7
  6
CONTINUOUS
370
-3
390
F
  0
LAYER
  5
21F
100
AcDbSymbolTableRecord
100
AcDbLayerTableRecord
  2
RACCORDO
 70
0
 62
7
  6
CONTINUOUS
370
-3
390
F
  0
LAYER
  5
220
100
AcDbSymbolTableRecord
100
AcDbLayerTableRecord
  2
SIMBOLI
 70
0
 62
7
  6
CONTINUOUS
370
-3
390
F
  0
LAYER
  5
221
100
AcDbSymbolTableRecord
100
AcDbLayerTableRecord
  2
SMUSSO
 70
0
 62
7
  6
CONTINUOUS
370
-3
390
F
  0
LAYER
  5
222
100
AcDbSymbolTableRecord
100
AcDbLayerTableRecord
  2
SNAPLINE
 70
0
 62
7
  6
CONTINUOUS
370
-3
390
F
  0
LAYER
  5
223
100
AcDbSymbolTableRecord
100
AcDbLayerTableRecord
  2
SOLIDO
 70
0
 62
7
  6
CONTINUOUS
370
-3
390
F
  0
LAYER
  5
224
100
AcDbSymbolTableRecord
100
AcDbLayerTableRecord
  2
SUPERFICI
 70
0
 62
7
  6
CONTINUOUS
370
-3
390
F
  0
LAYER
  5
225
100
AcDbSymbolTableRecord
100
AcDbLayerTableRecord
  2
TRASH
 70
0
 62
7
  6
CONTINUOUS
370
-3
390
F
  0
LAYER
  5
226
100
AcDbSymbolTableRecord
100
AcDbLayerTableRecord
  2
WHITE
 70
0
 62
7
  6
CONTINUOUS
370
-3
390
F
  0
LAYER
  5
227
100
AcDbSymbolTableRecord
100
AcDbLayerTableRecord
  2
XSEC_DATUMS
 70
0
 62
7
  6
CONTINUOUS
370
-3
390
F
  0
ENDTAB
  0
TABLE
  2
STYLE
  5
3
100
AcDbSymbolTable
 70
1
  0
STYLE
  5
11
100
AcDbSymbolTableRecord
100
AcDbTextStyleTableRecord
  2
STANDARD
 70
0
 40
0.0
 41
0.8
 50
0.0
 71
0
 42
0.2
  3
txt
  4

  0
STYLE
  5
228
100
AcDbSymbolTableRecord
100
AcDbTextStyleTableRecord
  2
TEXTSTYLE_1
 70
0
 40
0.0
 41
0.8
 50
0.0
 71
0
 42
0.2
  3
gdt
  4

  0
ENDTAB
  0
TABLE
  2
VIEW
  5
6
100
AcDbSymbolTable
 70
0
  0
ENDTAB
  0
TABLE
  2
UCS
  5
7
100
AcDbSymbolTable
 70
0
  0
ENDTAB
  0
TABLE
  2
APPID
  5
9
100
AcDbSymbolTable
 70
1
  0
APPID
  5
229
100
AcDbSymbolTableRecord
100
AcDbRegAppTableRecord
  2
ACAD
 70
0
  0
ENDTAB
  0
TABLE
  2
BLOCK_RECORD
  5
1
100
AcDbSymbolTable
 70
0
  0
BLOCK_RECORD
  5
22A
100
AcDbSymbolTableRecord
100
AcDbBlockTableRecord
  2
*Model_Space
  0
BLOCK_RECORD
  5
22B
100
AcDbSymbolTableRecord
100
AcDbBlockTableRecord
  2
*Paper_Space
  0
ENDTAB
  0
TABLE
  2
DIMSTYLE
  5
A
100
AcDbSymbolTable
 70
1
100
AcDbDimStyleTable
 71
0
  0
DIMSTYLE
105
22C
100
AcDbSymbolTableRecord
100
AcDbDimStyleTableRecord
  2
STANDARD
 70
0
  3

  4

 40
1.0
 41
3.0
 42
0.5
 43
0.38
 44
1.5
 45
0.0
 46
0.0
 47
0.01
 48
0.01
140
3.0
141
0.09
142
0.0
143
25.4
144
1.0
145
0.0
146
1.0
147
0.625
 71
1.0
 72
0.0
 73
0
 74
0
 75
0
 76
0
 77
1
 78
8
170
0
171
2
172
0
173
0
174
0
175
0
176
0
177
0
178
0
270
2
271
2
272
2
273
2
274
2
275
0
280
0
281
0
282
0
283
1
284
8
285
0
286
0
287
3
288
0
340
11
278
44
  0
ENDTAB
  0
ENDSEC
  0
SECTION
  2
BLOCKS
  0
BLOCK
  5
20
100
AcDbEntity
  8
0
100
AcDbBlockBegin
  2
*Model_Space
 70
0
 10
0.0
 20
0.0
 30
0.0
  3
*Model_Space
  1

  0
ENDBLK
  5
21
100
AcDbEntity
  8
0
100
AcDbBlockEnd
  0
BLOCK
  5
1C
100
AcDbEntity
  8
0
100
AcDbBlockBegin
  2
*Paper_Space
 70
0
 10
0.0
 20
0.0
 30
0.0
  3
*Paper_Space
  1

  0
ENDBLK
  5
1D
100
AcDbEntity
  8
0
100
AcDbBlockEnd
  0
ENDSEC
  0
SECTION
  2
ENTITIES
  0
LWPOLYLINE
  5
22D
100
AcDbEntity
  8
0
100
AcDbPolyline
 62
7
  6
CONTINUOUS
 90
6
 70
0
 10
30.8848680804
 20
-10.7505983313
 10
30.8966020018
 20
-10.7486252249
 10
30.9082287531
 20
-10.7460960389
 10
30.9197219933
 20
-10.7430164988
 10
30.9310556881
 20
-10.7393935785
 10
30.9422041636
 20
-10.7352354829
  0
LWPOLYLINE
  5
22E
100
AcDbEntity
  8
0
100
AcDbPolyline
 62
7
  6
CONTINUOUS
 90
18
 70
0
 10
10.956367265
 20
38.2289497686
 10
10.945429268
 20
38.224265915
 10
10.9347265267
 20
38.2190669117
 10
10.924283286
 20
38.2133645345
 10
10.9141232084
 20
38.207171701
 10
10.9042693092
 20
38.2005024383
 10
10.8947439104
 20
38.1933718536
 10
10.8855685952
 20
38.1857961017
 10
10.8767641482
 20
38.1777923433
 10
10.8683505138
 20
38.1693787089
 10
10.8603467554
 20
38.1605742619
 10
10.8527710036
 20
38.1513989467
 10
10.8456404188
 20
38.141873548
 10
10.8389711562
 20
38.1320196488
 10
10.8327783226
 20
38.1218595711
 10
10.8270759455
 20
38.1114163305
 10
10.8218769421
 20
38.1007135892
 10
10.8171930885
 20
38.0897755922
  0
LWPOLYLINE
  5
22F
100
AcDbEntity
  8
0
100
AcDbPolyline
 62
7
  6
CONTINUOUS
 90
6
 70
0
 10
13.4848680804
 20
-10.7505983313
 10
13.4966020018
 20
-10.7486252249
 10
13.5082287531
 20
-10.7460960389
 10
13.5197219933
 20
-10.7430164988
 10
13.5310556881
 20
-10.7393935785
 10
13.5422041636
 20
-10.7352354829
  0
LWPOLYLINE
  5
230
100
AcDbEntity
  8
0
100
AcDbPolyline
 62
7
  6
CONTINUOUS
 90
4
 70
0
 10
30.8492899451
 20
-10.7531428571
 10
30.8611852303
 20
-10.7528597069
 10
30.8730535699
 20
-10.7520108914
 10
30.8848680804
 20
-10.7505983313
  0
LWPOLYLINE
  5
231
100
AcDbEntity
  8
0
100
AcDbPolyline
 62
7
  6
CONTINUOUS
 90
34
 70
0
 10
30.8449181111
 20
-10.7487710231
 10
30.8567935826
 20
-10.7484884035
 10
30.8686473252
 20
-10.7476415017
 10
30.8804525007
 20
-10.7462315057
 10
30.8921839953
 20
-10.7442605598
 10
30.9038134306
 20
-10.7417325698
 10
30.9153093962
 20
-10.7386539912
 10
30.9266441613
 20
-10.7350323815
 10
30.9377937733
 20
-10.7308755271
 10
30.9487331744
 20
-10.7261927534
 10
30.9594377092
 20
-10.7209945681
 10
30.9698829627
 20
-10.7152927796
 10
30.9800450383
 20
-10.7091004172
 10
30.989900823
 20
-10.70243158
 10
30.9994280845
 20
-10.6953013267
 10
31.0086052977
 20
-10.6877257658
 10
31.0174116893
 20
-10.6797220342
 10
31.0258272755
 20
-10.6713082826
 10
31.0338329697
 20
-10.6625035871
 10
31.0414106262
 20
-10.6533279001
 10
31.0485430772
 20
-10.6438020058
 10
31.0552141573
 20
-10.6339474897
 10
31.0614087496
 20
-10.6237866776
 10
31.0671128149
 20
-10.6133425924
 10
31.0723134225
 20
-10.6026389059
 10
31.0769987868
 20
-10.5916998724
 10
31.0811582911
 20
-10.5805502761
 10
31.0847825083
 20
-10.5692153835
 10
31.0878632269
 20
-10.5577208725
 10
31.0903934639
 20
-10.5460927931
 10
31.0923674825
 20
-10.5343575134
 10
31.0937808113
 20
-10.5225416311
 10
31.0946302514
 20
-10.5106719129
 10
31.0949138803
 20
-10.4987752539
  0
LWPOLYLINE
  5
232
100
AcDbEntity
  8
0
100
AcDbPolyline
 62
7
  6
CONTINUOUS
 90
4
 70
0
 10
13.4492899451
 20
-10.7531428571
 10
13.4611852303
 20
-10.7528597069
 10
13.4730535699
 20
-10.7520108914
 10
13.4848680804
 20
-10.7505983313
  0
LWPOLYLINE
  5
233
100
AcDbEntity
  8
0
100
AcDbPolyline
 62
7
  6
CONTINUOUS
 90
34
 70
0
 10
13.4449181111
 20
-10.7487710231
 10
13.4567935826
 20
-10.7484884035
 10
13.4686473252
 20
-10.7476415017
 10
13.4804525007
 20
-10.7462315057
 10
13.4921839953
 20
-10.7442605598
 10
13.5038134306
 20
-10.7417325698
 10
13.5153093962
 20
-10.7386539912
 10
13.5266441613
 20
-10.7350323815
 10
13.5377937733
 20
-10.7308755271
 10
13.5487331744
 20
-10.7261927534
 10
13.5594377092
 20
-10.7209945681
 10
13.5698829627
 20
-10.7152927796
 10
13.5800450383
 20
-10.7091004172
 10
13.589900823
 20
-10.70243158
 10
13.5994280845
 20
-10.6953013267
 10
13.6086052977
 20
-10.6877257658
 10
13.6174116893
 20
-10.6797220342
 10
13.6258272755
 20
-10.6713082826
 10
13.6338329697
 20
-10.6625035871
 10
13.6414106262
 20
-10.6533279001
 10
13.6485430772
 20
-10.6438020058
 10
13.6552141573
 20
-10.6339474897
 10
13.6614087496
 20
-10.6237866776
 10
13.6671128149
 20
-10.6133425924
 10
13.6723134225
 20
-10.6026389059
 10
13.6769987868
 20
-10.5916998724
 10
13.6811582911
 20
-10.5805502761
 10
13.6847825083
 20
-10.5692153835
 10
13.6878632269
 20
-10.5577208725
 10
13.6903934639
 20
-10.5460927931
 10
13.6923674825
 20
-10.5343575134
 10
13.6937808113
 20
-10.5225416311
 10
13.6946302514
 20
-10.5106719129
 10
13.6949138803
 20
-10.4987752539
  0
LWPOLYLINE
  5
234
100
AcDbEntity
  8
0
100
AcDbPolyline
 62
7
  6
CONTINUOUS
 90
37
 70
0
 10
19.7492882527
 20
-10.2531428571
 10
19.7580119064
 20
-10.2529525235
 10
19.7667189611
 20
-10.2523818782
 10
19.7753928454
 20
-10.2514320049
 10
19.7840170522
 20
-10.2501047093
 10
19.7925751657
 20
-10.2484025145
 10
19.8010508924
 20
-10.2463286558
 10
19.8094281005
 20
-10.2438870778
 10
19.8176908445
 20
-10.2410824255
 10
19.8258233916
 20
-10.237920034
 10
19.8338102623
 20
-10.2344059202
 10
19.8416362536
 20
-10.230546771
 10
19.8492864631
 20
-10.2263499306
 10
19.8567463287
 20
-10.2218233853
 10
19.8640016503
 20
-10.2169757498
 10
19.8710386113
 20
-10.2118162518
 10
19.8778438165
 20
-10.2063547107
 10
19.884404312
 20
-10.2006015216
 10
19.8907076041
 20
-10.1945676378
 10
19.8967416941
 20
-10.1882645437
 10
19.9024950962
 20
-10.181704237
 10
19.9079568541
 20
-10.1748992086
 10
19.9131165711
 20
-10.1678624116
 10
19.9179644261
 20
-10.1606072405
 10
19.9224911883
 20
-10.1531475098
 10
19.9266882412
 20
-10.1454974194
 10
19.9305475963
 20
-10.137671531
 10
19.9340619065
 20
-10.1296847458
 10
19.9372244829
 20
-10.1215522669
 10
19.9400293065
 20
-10.1132895743
 10
19.9424710395
 20
-10.1049124
 10
19.9445450348
 20
-10.0964366899
 10
19.9462473461
 20
-10.087878577
 10
19.9475747354
 20
-10.0792543542
 10
19.9485246778
 20
-10.0705804382
 10
19.9490953658
 20
-10.061873338
 10
19.9492857143
 20
-10.0531496264
  0
LINE
  5
235
100
AcDbEntity
  8
0
100
AcDbLine
 62
7
  6
CONTINUOUS
 10
11.0536533175
 20
-10.7487710231
 11
13.4449181111
 21
-10.7487710231
  0
LINE
  5
236
100
AcDbEntity
  8
0
100
AcDbLine
 62
7
  6
CONTINUOUS
 10
28.4536533175
 20
-10.7487710231
 11
30.8449181111
 21
-10.7487710231
  0
LINE
  5
237
100
AcDbEntity
  8
0
100
AcDbLine
 62
253
  6
CONTINUOUS
 10
10.8036575483
 20
-10.4987752539
 11
13.6949138803
 21
-10.4987752539
  0
LINE
  5
238
100
AcDbEntity
  8
0
100
AcDbLine
 62
253
  6
CONTINUOUS
 10
28.2036575483
 20
-10.4987752539
 11
31.0949138803
 21
-10.4987752539
  0
LINE
  5
239
100
AcDbEntity
  8
0
100
AcDbLine
 62
7
  6
CONTINUOUS
 10
16.4992857143
 20
-10.2531428571
 11
19.7492882527
 21
-10.2531428571
  0
LINE
  5
23A
100
AcDbEntity
  8
0
100
AcDbLine
 62
7
  6
CONTINUOUS
 10
22.1492831758
 20
-10.2531428571
 11
25.3992857143
 21
-10.2531428571
  0
LINE
  5
23B
100
AcDbEntity
  8
0
100
AcDbLine
 62
7
  6
CONTINUOUS
 10
17.414427998
 20
-10.2474415122
 11
19.7407361146
 21
-10.2474415122
  0
LINE
  5
23C
100
AcDbEntity
  8
0
100
AcDbLine
 62
7
  6
CONTINUOUS
 10
22.1578353139
 20
-10.2474415122
 11
24.4841434306
 21
-10.2474415122
  0
LINE
  5
23D
100
AcDbEntity
  8
0
100
AcDbLine
 62
7
  6
CONTINUOUS
 10
25.3556350674
 20
-10.2094922103
 11
24.483812252
 21
-10.2094922103
  0
LINE
  5
23E
100
AcDbEntity
  8
0
100
AcDbLine
 62
7
  6
CONTINUOUS
 10
17.4147591765
 20
-10.2094922103
 11
16.5429363612
 21
-10.2094922103
  0
LINE
  5
23F
100
AcDbEntity
  8
0
100
AcDbLine
 62
253
  6
CONTINUOUS
 10
10.8036575483
 20
-10.0974804244
 11
13.6949138803
 21
-10.0974804244
  0
LINE
  5
240
100
AcDbEntity
  8
0
100
AcDbLine
 62
253
  6
CONTINUOUS
 10
28.2036575483
 20
-10.0974804244
 11
31.0949138803
 21
-10.0974804244
  0
LINE
  5
241
100
AcDbEntity
  8
0
100
AcDbLine
 62
253
  6
CONTINUOUS
 10
30.8449181111
 20
-9.8809740735
 11
28.4536533175
 21
-9.8809740735
  0
LINE
  5
242
100
AcDbEntity
  8
0
100
AcDbLine
 62
253
  6
CONTINUOUS
 10
13.4449181111
 20
-9.8809740735
 11
11.0536533175
 21
-9.8809740735
  0
LWPOLYLINE
  5
243
100
AcDbEntity
  8
0
100
AcDbPolyline
 62
7
  6
CONTINUOUS
 90
37
 70
0
 10
22.1492831758
 20
-10.2531428571
 10
22.1405595221
 20
-10.2529525235
 10
22.1318524675
 20
-10.2523818782
 10
22.1231785832
 20
-10.2514320049
 10
22.1145543764
 20
-10.2501047093
 10
22.1059962629
 20
-10.2484025145
 10
22.0975205361
 20
-10.2463286558
 10
22.0891433281
 20
-10.2438870778
 10
22.0808805841
 20
-10.2410824255
 10
22.072748037
 20
-10.237920034
 10
22.0647611663
 20
-10.2344059202
 10
22.0569351749
 20
-10.230546771
 10
22.0492849655
 20
-10.2263499306
 10
22.0418250998
 20
-10.2218233853
 10
22.0345697782
 20
-10.2169757498
 10
22.0275328173
 20
-10.2118162518
 10
22.0207276121
 20
-10.2063547107
 10
22.0141671166
 20
-10.2006015216
 10
22.0078638245
 20
-10.1945676378
 10
22.0018297344
 20
-10.1882645437
 10
21.9960763324
 20
-10.181704237
 10
21.9906145745
 20
-10.1748992086
 10
21.9854548574
 20
-10.1678624116
 10
21.9806070024
 20
-10.1606072405
 10
21.9760802402
 20
-10.1531475098
 10
21.9718831874
 20
-10.1454974194
 10
21.9680238323
 20
-10.137671531
 10
21.9645095221
 20
-10.1296847458
 10
21.9613469457
 20
-10.1215522669
 10
21.9585421221
 20
-10.1132895743
 10
21.9561003891
 20
-10.1049124
 10
21.9540263938
 20
-10.0964366899
 10
21.9523240825
 20
-10.087878577
 10
21.9509966932
 20
-10.0792543542
 10
21.9500467508
 20
-10.0705804382
 10
21.9494760628
 20
-10.061873338
 10
21.9492857143
 20
-10.0531496264
  0
LWPOLYLINE
  5
244
100
AcDbEntity
  8
0
100
AcDbPolyline
 62
7
  6
CONTINUOUS
 90
9
 70
0
 10
10.956367265
 20
-10.7352354829
 10
10.9675157405
 20
-10.7393935785
 10
10.9788494353
 20
-10.7430164988
 10
10.9903426755
 20
-10.7460960389
 10
11.0019694268
 20
-10.7486252249
 10
11.0137033482
 20
-10.7505983313
 10
11.0255178587
 20
-10.7520108914
 10
11.0373861983
 20
-10.7528597069
 10
11.0492814835
 20
-10.7531428571
  0
LWPOLYLINE
  5
245
100
AcDbEntity
  8
0
100
AcDbPolyline
 62
7
  6
CONTINUOUS
 90
40
 70
0
 10
31.599666314
 20
-8.6531428571
 10
31.6196616135
 20
-8.6527294832
 10
31.6396514579
 20
-8.6515145644
 10
31.6596035815
 20
-8.649496825
 10
31.679492891
 20
-8.6466751542
 10
31.6992794252
 20
-8.6430514425
 10
31.7189089435
 20
-8.638633519
 10
31.7383383584
 20
-8.6334311923
 10
31.7575474738
 20
-8.6274500158
 10
31.7765168151
 20
-8.6206945331
 10
31.7952283469
 20
-8.6131679823
 10
31.8136369835
 20
-8.6048852822
 10
31.8316842285
 20
-8.5958724101
 10
31.8493248942
 20
-8.5861550568
 10
31.8665484225
 20
-8.5757422366
 10
31.8833492697
 20
-8.564637304
 10
31.8997137843
 20
-8.5528461552
 10
31.9155991989
 20
-8.5403963894
 10
31.9309577245
 20
-8.5273256069
 10
31.945751294
 20
-8.5136702202
 10
31.959972554
 20
-8.4994411612
 10
31.9736206674
 20
-8.4846391146
 10
31.9866850588
 20
-8.4692708676
 10
31.9991288009
 20
-8.4533749176
 10
32.0109130232
 20
-8.437000547
 10
32.0220099257
 20
-8.4201912178
 10
32.0324141604
 20
-8.4029600691
 10
32.0421224284
 20
-8.3853124513
 10
32.0511254553
 20
-8.3672599484
 10
32.05939823
 20
-8.3488468133
 10
32.0669158987
 20
-8.3301282255
 10
32.0736644437
 20
-8.311146215
 10
32.0796391372
 20
-8.2919215133
 10
32.0848333605
 20
-8.2724789972
 10
32.089239657
 20
-8.2528519983
 10
32.0928523037
 20
-8.2330707641
 10
32.0956672812
 20
-8.2131554301
 10
32.0976800405
 20
-8.1931340518
 10
32.0988868685
 20
-8.1730428004
 10
32.0992857143
 20
-8.1529140051
  0
LINE
  5
246
100
AcDbEntity
  8
0
100
AcDbLine
 62
7
  6
CONTINUOUS
 10
30.8500087122
 20
-9.375792588
 11
28.4485627164
 21
-9.375792588
  0
LINE
  5
247
100
AcDbEntity
  8
0
100
AcDbLine
 62
7
  6
CONTINUOUS
 10
11.0485627164
 20
-9.375792588
 11
13.4500087122
 21
-9.375792588
  0
LINE
  5
248
100
AcDbEntity
  8
0
100
AcDbLine
 62
7
  6
CONTINUOUS
 10
10.2992793682
 20
-8.6531428571
 11
16.4992857143
 21
-8.6531428571
  0
LINE
  5
249
100
AcDbEntity
  8
0
100
AcDbLine
 62
7
  6
CONTINUOUS
 10
19.9492857143
 20
-8.6531428571
 11
21.9492857143
 21
-8.6531428571
  0
LINE
  5
24A
100
AcDbEntity
  8
0
100
AcDbLine
 62
7
  6
CONTINUOUS
 10
25.3992857143
 20
-8.6531428571
 11
31.5992920604
 21
-8.6531428571
  0
LINE
  5
24B
100
AcDbEntity
  8
0
100
AcDbLine
 62
7
  6
CONTINUOUS
 10
21.9579596677
 20
-8.6479385697
 11
19.9406117609
 21
-8.6479385697
  0
LINE
  5
24C
100
AcDbEntity
  8
0
100
AcDbLine
 62
7
  6
CONTINUOUS
 10
31.5905651926
 20
-8.6473250273
 11
28.2051035441
 21
-8.6473250273
  0
LINE
  5
24D
100
AcDbEntity
  8
0
100
AcDbLine
 62
7
  6
CONTINUOUS
 10
13.6934678845
 20
-8.6473250273
 11
10.308006236
 21
-8.6473250273
  0
LINE
  5
24E
100
AcDbEntity
  8
0
100
AcDbLine
 62
253
  6
CONTINUOUS
 10
13.7587440881
 20
-8.5891128827
 11
17.943735688
 21
-8.5891128827
  0
LINE
  5
24F
100
AcDbEntity
  8
0
100
AcDbLine
 62
253
  6
CONTINUOUS
 10
23.9548357406
 20
-8.5891128827
 11
28.1398273405
 21
-8.5891128827
  0
LINE
  5
250
100
AcDbEntity
  8
0
100
AcDbLine
 62
7
  6
CONTINUOUS
 10
17.9492857143
 20
-7.9531428571
 11
23.9492857143
 21
-7.9531428571
  0
LINE
  5
251
100
AcDbEntity
  8
0
100
AcDbLine
 62
7
  6
CONTINUOUS
 10
12.8827162125
 20
34.7385654071
 11
12.7167407792
 21
34.6555840106
  0
LINE
  5
252
100
AcDbEntity
  8
0
100
AcDbLine
 62
7
  6
CONTINUOUS
 10
12.8827162125
 20
35.20059257
 11
12.7167407792
 21
35.151970553
  0
LWPOLYLINE
  5
253
100
AcDbEntity
  8
0
100
AcDbPolyline
 62
7
  6
CONTINUOUS
 90
13
 70
0
 10
19.4477614794
 20
-6.1376295368
 10
19.3248892529
 20
-6.1377716736
 10
19.2070174247
 20
-6.1381521477
 10
19.094145995
 20
-6.138770959
 10
18.9847902125
 20
-6.1396429236
 10
18.8804348284
 20
-6.1407532254
 10
18.785534096
 20
-6.1420574162
 10
18.7004660117
 20
-6.1435674382
 10
18.6248525792
 20
-6.1452713493
 10
18.5620140631
 20
-6.1470888742
 10
18.5130572185
 20
-6.1489932546
 10
18.4768752904
 20
-6.1510112489
 10
18.4534682788
 20
-6.1531428571
  0
LINE
  5
254
100
AcDbEntity
  8
0
100
AcDbLine
 62
253
  6
CONTINUOUS
 10
13.3826400601
 20
-7.5891298058
 11
17.9524624081
 21
-7.5891298058
  0
LINE
  5
255
100
AcDbEntity
  8
0
100
AcDbLine
 62
253
  6
CONTINUOUS
 10
23.9461090205
 20
-7.5891298058
 11
28.5159313685
 21
-7.5891298058
  0
LINE
  5
256
100
AcDbEntity
  8
DRAFT
100
AcDbLine
 62
7
  6
CONTINUOUS
 10
28.5159313685
 20
-7.2491384028
 11
28.1445633008
 21
-7.2491384028
  0
LINE
  5
257
100
AcDbEntity
  8
DRAFT
100
AcDbLine
 62
7
  6
CONTINUOUS
 10
13.3826400601
 20
-7.2491384028
 11
13.7540081278
 21
-7.2491384028
  0
LINE
  5
258
100
AcDbEntity
  8
0
100
AcDbLine
 62
7
  6
CONTINUOUS
 10
12.7167407792
 20
-7.1618697249
 11
12.8827162125
 21
-7.1618697249
  0
LINE
  5
259
100
AcDbEntity
  8
0
100
AcDbLine
 62
7
  6
CONTINUOUS
 10
29.0158552161
 20
-7.1618697249
 11
29.1818306494
 21
-7.1618697249
  0
LINE
  5
25A
100
AcDbEntity
  8
DRAFT
100
AcDbLine
 62
7
  6
CONTINUOUS
 10
29.0158552161
 20
-7.1531428571
 11
28.5802565192
 21
-7.1531428571
  0
LINE
  5
25B
100
AcDbEntity
  8
DRAFT
100
AcDbLine
 62
7
  6
CONTINUOUS
 10
12.8827162125
 20
-7.1531428571
 11
13.3183149094
 21
-7.1531428571
  0
LINE
  5
25C
100
AcDbEntity
  8
DRAFT
100
AcDbLine
 62
7
  6
CONTINUOUS
 10
13.3306565642
 20
-7.1531428571
 11
13.6580125821
 21
-7.1531428571
  0
LINE
  5
25D
100
AcDbEntity
  8
DRAFT
100
AcDbLine
 62
7
  6
CONTINUOUS
 10
28.2492857143
 20
-7.1531428571
 11
28.5679148644
 21
-7.1531428571
  0
LINE
  5
25E
100
AcDbEntity
  8
0
100
AcDbLine
 62
7
  6
CONTINUOUS
 10
12.1492857143
 20
-7.1031428571
 11
13.5492857143
 21
-7.1031428571
  0
LINE
  5
25F
100
AcDbEntity
  8
DRAFT
100
AcDbLine
 62
7
  6
CONTINUOUS
 10
12.1492857143
 20
-7.1031428571
 11
13.5492857143
 21
-7.1031428571
  0
LINE
  5
260
100
AcDbEntity
  8
0
100
AcDbLine
 62
7
  6
CONTINUOUS
 10
28.3492857143
 20
-7.1031428571
 11
29.7492857143
 21
-7.1031428571
  0
LINE
  5
261
100
AcDbEntity
  8
DRAFT
100
AcDbLine
 62
7
  6
CONTINUOUS
 10
28.3492857143
 20
-7.1031428571
 11
29.7492857143
 21
-7.1031428571
  0
LINE
  5
262
100
AcDbEntity
  8
0
100
AcDbLine
 62
7
  6
CONTINUOUS
 10
23.9414315333
 20
-7.0531428571
 11
17.9571398953
 21
-7.0531428571
  0
LINE
  5
263
100
AcDbEntity
  8
DRAFT
100
AcDbLine
 62
7
  6
CONTINUOUS
 10
14.3445633008
 20
-6.3578652706
 11
27.5540081278
 21
-6.3578652706
  0
LINE
  5
264
100
AcDbEntity
  8
DRAFT
100
AcDbLine
 62
7
  6
CONTINUOUS
 10
18.4492857143
 20
-6.3238358701
 11
18.5080251324
 21
-6.3238358701
  0
LINE
  5
265
100
AcDbEntity
  8
DRAFT
100
AcDbLine
 62
7
  6
CONTINUOUS
 10
23.3905462962
 20
-6.3238358701
 11
23.4492857143
 21
-6.3238358701
  0
LINE
  5
266
100
AcDbEntity
  8
DRAFT
100
AcDbLine
 62
7
  6
CONTINUOUS
 10
24.4494391489
 20
-6.2707247227
 11
23.4486696813
 21
-6.2707247227
  0
LINE
  5
267
100
AcDbEntity
  8
DRAFT
100
AcDbLine
 62
7
  6
CONTINUOUS
 10
18.4499017473
 20
-6.2707247227
 11
17.4491322797
 21
-6.2707247227
  0
LINE
  5
268
100
AcDbEntity
  8
DRAFT
100
AcDbLine
 62
7
  6
CONTINUOUS
 10
14.4449222804
 20
-6.257506291
 11
18.4499256446
 21
-6.257506291
  0
LINE
  5
269
100
AcDbEntity
  8
DRAFT
100
AcDbLine
 62
7
  6
CONTINUOUS
 10
23.448645784
 20
-6.257506291
 11
27.4536491482
 21
-6.257506291
  0
LINE
  5
26A
100
AcDbEntity
  8
DRAFT
100
AcDbLine
 62
7
  6
CONTINUOUS
 10
28.3492857143
 20
-6.2531428571
 11
28.2449222804
 21
-6.2531428571
  0
LINE
  5
26B
100
AcDbEntity
  8
DRAFT
100
AcDbLine
 62
7
  6
CONTINUOUS
 10
13.6536491482
 20
-6.2531428571
 11
13.5492857143
 21
-6.2531428571
  0
LINE
  5
26C
100
AcDbEntity
  8
0
100
AcDbLine
 62
7
  6
CONTINUOUS
 10
17.4492857143
 20
-6.1531428571
 11
18.4548074341
 21
-6.1531428571
  0
LINE
  5
26D
100
AcDbEntity
  8
0
100
AcDbLine
 62
7
  6
CONTINUOUS
 10
23.4437639945
 20
-6.1531428571
 11
24.4492857143
 21
-6.1531428571
  0
LINE
  5
26E
100
AcDbEntity
  8
0
100
AcDbLine
 62
7
  6
CONTINUOUS
 10
19.4477614794
 20
-6.1376295368
 11
22.4508099491
 21
-6.1376295368
  0
LINE
  5
26F
100
AcDbEntity
  8
0
100
AcDbLine
 62
7
  6
CONTINUOUS
 10
17.4859413506
 20
-6.1164872208
 11
24.4126300779
 21
-6.1164872208
  0
LINE
  5
270
100
AcDbEntity
  8
DRAFT
100
AcDbLine
 62
7
  6
CONTINUOUS
 10
17.4859413506
 20
-6.1164872208
 11
24.4126300779
 21
-6.1164872208
  0
LINE
  5
271
100
AcDbEntity
  8
DRAFT
100
AcDbLine
 62
7
  6
CONTINUOUS
 10
13.7540081278
 20
-6.0578652706
 11
14.3445633008
 21
-6.0578652706
  0
LINE
  5
272
100
AcDbEntity
  8
DRAFT
100
AcDbLine
 62
7
  6
CONTINUOUS
 10
27.5540081278
 20
-6.0578652706
 11
28.1445633008
 21
-6.0578652706
  0
LINE
  5
273
100
AcDbEntity
  8
DRAFT
100
AcDbLine
 62
7
  6
CONTINUOUS
 10
13.6536491482
 20
-5.957506291
 11
14.4449222804
 21
-5.957506291
  0
LINE
  5
274
100
AcDbEntity
  8
DRAFT
100
AcDbLine
 62
7
  6
CONTINUOUS
 10
27.4536491482
 20
-5.957506291
 11
28.2449222804
 21
-5.957506291
  0
LINE
  5
275
100
AcDbEntity
  8
0
100
AcDbLine
 62
7
  6
CONTINUOUS
 10
13.5492857143
 20
-5.9531428571
 11
17.4492857143
 21
-5.9531428571
  0
LINE
  5
276
100
AcDbEntity
  8
DRAFT
100
AcDbLine
 62
7
  6
CONTINUOUS
 10
13.5492857143
 20
-5.9531428571
 11
17.4492857143
 21
-5.9531428571
  0
LINE
  5
277
100
AcDbEntity
  8
0
100
AcDbLine
 62
7
  6
CONTINUOUS
 10
24.4492857143
 20
-5.9531428571
 11
28.3492857143
 21
-5.9531428571
  0
LINE
  5
278
100
AcDbEntity
  8
DRAFT
100
AcDbLine
 62
7
  6
CONTINUOUS
 10
24.4492857143
 20
-5.9531428571
 11
28.3492857143
 21
-5.9531428571
  0
LINE
  5
279
100
AcDbEntity
  8
0
100
AcDbLine
 62
7
  6
CONTINUOUS
 10
13.5126300779
 20
-5.9164872208
 11
17.4859413506
 21
-5.9164872208
  0
LINE
  5
27A
100
AcDbEntity
  8
DRAFT
100
AcDbLine
 62
7
  6
CONTINUOUS
 10
13.5126300779
 20
-5.9164872208
 11
17.4859413506
 21
-5.9164872208
  0
LINE
  5
27B
100
AcDbEntity
  8
0
100
AcDbLine
 62
7
  6
CONTINUOUS
 10
24.4126300779
 20
-5.9164872208
 11
28.3859413506
 21
-5.9164872208
  0
LINE
  5
27C
100
AcDbEntity
  8
DRAFT
100
AcDbLine
 62
7
  6
CONTINUOUS
 10
24.4126300779
 20
-5.9164872208
 11
28.3859413506
 21
-5.9164872208
  0
LINE
  5
27D
100
AcDbEntity
  8
RACCORDO
100
AcDbLine
 62
7
  6
CONTINUOUS
 10
11.5580613242
 20
-5.8662331588
 11
24.6623874391
 21
-5.8662331588
  0
LINE
  5
27E
100
AcDbEntity
  8
ASSI
100
AcDbLine
 62
7
  6
CONTINUOUS
 10
11.5580613242
 20
-5.8662331588
 11
24.6623874391
 21
-5.8662331588
  0
LWPOLYLINE
  5
27F
100
AcDbEntity
  8
0
100
AcDbPolyline
 62
7
  6
CONTINUOUS
 90
13
 70
0
 10
22.4508099491
 20
-6.1376295368
 10
22.5736821757
 20
-6.1377716736
 10
22.6915540038
 20
-6.1381521477
 10
22.8044254336
 20
-6.138770959
 10
22.9137812161
 20
-6.1396429236
 10
23.0181366002
 20
-6.1407532254
 10
23.1130373326
 20
-6.1420574162
 10
23.1981054169
 20
-6.1435674382
 10
23.2737188494
 20
-6.1452713493
 10
23.3365573654
 20
-6.1470888742
 10
23.38551421
 20
-6.1489932546
 10
23.4216961382
 20
-6.1510112489
 10
23.4451031498
 20
-6.1531428571
  0
LINE
  5
280
100
AcDbEntity
  8
0
100
AcDbLine
 62
7
  6
CONTINUOUS
 10
12.8827162125
 20
-7.7068782843
 11
12.7167407792
 21
-7.6582562673
  0
LINE
  5
281
100
AcDbEntity
  8
0
100
AcDbLine
 62
7
  6
CONTINUOUS
 10
12.8827162125
 20
-7.2448511214
 11
12.7167407792
 21
-7.1618697249
  0
LINE
  5
282
100
AcDbEntity
  8
0
100
AcDbLine
 62
7
  6
CONTINUOUS
 10
18.8028391049
 20
-4.4856828738
 11
18.4487239687
 21
-4.4887731898
  0
LINE
  5
283
100
AcDbEntity
  8
RACCORDO
100
AcDbLine
 62
7
  6
CONTINUOUS
 10
18.8028391049
 20
-4.4856828738
 11
18.4487239687
 21
-4.4887731898
  0
LINE
  5
284
100
AcDbEntity
  8
0
100
AcDbLine
 62
7
  6
CONTINUOUS
 10
23.4492857143
 20
-4.5531428571
 11
18.4492857143
 21
-4.5531428571
  0
LINE
  5
285
100
AcDbEntity
  8
ASSI
100
AcDbLine
 62
7
  6
CONTINUOUS
 10
23.4492857143
 20
-4.5531428571
 11
18.4492857143
 21
-4.5531428571
  0
LINE
  5
286
100
AcDbEntity
  8
0
100
AcDbLine
 62
7
  6
CONTINUOUS
 10
25.0925680691
 20
-4.5193123248
 11
28.3859413506
 21
-4.5193123248
  0
LINE
  5
287
100
AcDbEntity
  8
DRAFT
100
AcDbLine
 62
7
  6
CONTINUOUS
 10
25.0925680691
 20
-4.5193123248
 11
28.3859413506
 21
-4.5193123248
  0
LINE
  5
288
100
AcDbEntity
  8
0
100
AcDbLine
 62
7
  6
CONTINUOUS
 10
29.5492857143
 20
-4.5193123248
 11
30.2154742204
 21
-4.5193123248
  0
LINE
  5
289
100
AcDbEntity
  8
RACCORDO
100
AcDbLine
 62
7
  6
CONTINUOUS
 10
29.5492857143
 20
-4.5193123248
 11
30.2154742204
 21
-4.5193123248
  0
LINE
  5
28A
100
AcDbEntity
  8
0
100
AcDbLine
 62
7
  6
CONTINUOUS
 10
29.5492857143
 20
-4.510585457
 11
28.4033964156
 21
-4.510585457
  0
LINE
  5
28B
100
AcDbEntity
  8
DRAFT
100
AcDbLine
 62
7
  6
CONTINUOUS
 10
29.5492857143
 20
-4.510585457
 11
28.4033964156
 21
-4.510585457
  0
LINE
  5
28C
100
AcDbEntity
  8
RACCORDO
100
AcDbLine
 62
7
  6
CONTINUOUS
 10
30.3405101044
 20
-4.4662331588
 11
25.2623645929
 21
-4.4662331588
  0
LINE
  5
28D
100
AcDbEntity
  8
ASSI
100
AcDbLine
 62
7
  6
CONTINUOUS
 10
30.3405101044
 20
-4.4662331588
 11
25.2623645929
 21
-4.4662331588
  0
LINE
  5
28E
100
AcDbEntity
  8
ASSI
100
AcDbLine
 62
7
  6
CONTINUOUS
 10
18.4492857143
 20
-4.4531428571
 11
23.4492857143
 21
-4.4531428571
  0
LINE
  5
28F
100
AcDbEntity
  8
0
100
AcDbLine
 62
7
  6
CONTINUOUS
 10
23.0957323237
 20
-4.4856828738
 11
23.4498474599
 21
-4.4887731898
  0
LINE
  5
290
100
AcDbEntity
  8
RACCORDO
100
AcDbLine
 62
7
  6
CONTINUOUS
 10
23.0957323237
 20
-4.4856828738
 11
23.4498474599
 21
-4.4887731898
  0
LWPOLYLINE
  5
291
100
AcDbEntity
  8
0
100
AcDbPolyline
 62
7
  6
CONTINUOUS
 90
9
 70
0
 10
28.356367265
 20
-10.7352354829
 10
28.3675157405
 20
-10.7393935785
 10
28.3788494353
 20
-10.7430164988
 10
28.3903426755
 20
-10.7460960389
 10
28.4019694268
 20
-10.7486252249
 10
28.4137033482
 20
-10.7505983313
 10
28.4255178587
 20
-10.7520108914
 10
28.4373861983
 20
-10.7528597069
 10
28.4492814835
 20
-10.7531428571
  0
LINE
  5
292
100
AcDbEntity
  8
RACCORDO
100
AcDbLine
 62
7
  6
CONTINUOUS
 10
12.1492857143
 20
34.5968571429
 11
10.3849829338
 21
32.8325543624
  0
LINE
  5
293
100
AcDbEntity
  8
0
100
AcDbLine
 62
7
  6
CONTINUOUS
 10
9.8080125821
 20
32.2555840106
 11
13.6934678845
 21
36.141039313
  0
LINE
  5
294
100
AcDbEntity
  8
0
100
AcDbLine
 62
7
  6
CONTINUOUS
 10
12.7167407792
 20
35.151970553
 11
12.8827162125
 21
35.3179459863
  0
LINE
  5
295
100
AcDbEntity
  8
0
100
AcDbLine
 62
7
  6
CONTINUOUS
 10
12.3220820412
 20
34.5968571429
 11
10.5071683883
 21
32.78194349
  0
LINE
  5
296
100
AcDbEntity
  8
RACCORDO
100
AcDbLine
 62
7
  6
CONTINUOUS
 10
12.3220820412
 20
34.5968571429
 11
10.5071683883
 21
32.78194349
  0
LINE
  5
297
100
AcDbEntity
  8
RACCORDO
100
AcDbLine
 62
7
  6
CONTINUOUS
 10
10.2290774789
 20
32.4451613897
 11
10.8509814675
 21
33.0670653782
  0
LINE
  5
298
100
AcDbEntity
  8
ASSI
100
AcDbLine
 62
7
  6
CONTINUOUS
 10
10.2290774789
 20
32.4451613897
 11
10.8509814675
 21
33.0670653782
  0
LINE
  5
299
100
AcDbEntity
  8
RACCORDO
100
AcDbLine
 62
7
  6
CONTINUOUS
 10
10.9589740415
 20
33.1602479081
 11
11.1482013266
 21
33.3494750864
  0
LINE
  5
29A
100
AcDbEntity
  8
ASSI
100
AcDbLine
 62
7
  6
CONTINUOUS
 10
10.9589740415
 20
33.1602479081
 11
11.1482013266
 21
33.3494750864
  0
LINE
  5
29B
100
AcDbEntity
  8
DRAFT
100
AcDbLine
 62
7
  6
CONTINUOUS
 10
13.3059732546
 20
34.6468571429
 11
13.2559732546
 21
34.5968571429
  0
LINE
  5
29C
100
AcDbEntity
  8
DRAFT
100
AcDbLine
 62
7
  6
CONTINUOUS
 10
13.3306565642
 20
34.6468571429
 11
13.2806565642
 21
34.5968571429
  0
LINE
  5
29D
100
AcDbEntity
  8
DRAFT
100
AcDbLine
 62
7
  6
CONTINUOUS
 10
13.6580122498
 20
34.6555836784
 11
13.6492857143
 21
34.6468571429
  0
LINE
  5
29E
100
AcDbEntity
  8
DRAFT
100
AcDbLine
 62
7
  6
CONTINUOUS
 10
13.7540081278
 20
34.7428526886
 11
13.6580122498
 21
34.6468574751
  0
LINE
  5
29F
100
AcDbEntity
  8
0
100
AcDbLine
 62
253
  6
CONTINUOUS
 10
19.7407361146
 20
37.7411557979
 11
19.7492882527
 21
37.7468571429
  0
LINE
  5
2A0
100
AcDbEntity
  8
0
100
AcDbLine
 62
253
  6
CONTINUOUS
 10
19.9407183443
 20
37.5411524126
 11
19.9492857143
 21
37.5468639121
  0
LINE
  5
2A1
100
AcDbEntity
  8
0
100
AcDbLine
 62
7
  6
CONTINUOUS
 10
19.9492857143
 20
36.1468571429
 11
19.9406117609
 21
36.1416528554
  0
LWPOLYLINE
  5
2A2
100
AcDbEntity
  8
0
100
AcDbPolyline
 62
7
  6
CONTINUOUS
 90
18
 70
0
 10
28.356367265
 20
38.2289497686
 10
28.345429268
 20
38.224265915
 10
28.3347265267
 20
38.2190669117
 10
28.324283286
 20
38.2133645345
 10
28.3141232084
 20
38.207171701
 10
28.3042693092
 20
38.2005024383
 10
28.2947439104
 20
38.1933718536
 10
28.2855685952
 20
38.1857961017
 10
28.2767641482
 20
38.1777923433
 10
28.2683505138
 20
38.1693787089
 10
28.2603467554
 20
38.1605742619
 10
28.2527710036
 20
38.1513989467
 10
28.2456404188
 20
38.141873548
 10
28.2389711562
 20
38.1320196488
 10
28.2327783226
 20
38.1218595711
 10
28.2270759455
 20
38.1114163305
 10
28.2218769421
 20
38.1007135892
 10
28.2171930885
 20
38.0897755922
  0
LINE
  5
2A3
100
AcDbEntity
  8
0
100
AcDbLine
 62
253
  6
CONTINUOUS
 10
19.197143249
 20
-3.5388987831
 11
19.2492857143
 21
-3.5348146998
  0
LINE
  5
2A4
100
AcDbEntity
  8
RACCORDO
100
AcDbLine
 62
253
  6
CONTINUOUS
 10
19.197143249
 20
-3.5388987831
 11
19.2492857143
 21
-3.5348146998
  0
LINE
  5
2A5
100
AcDbEntity
  8
ASSI
100
AcDbLine
 62
7
  6
CONTINUOUS
 10
18.4492857143
 20
-3.7531428571
 11
23.4492857143
 21
-3.7531428571
  0
LINE
  5
2A6
100
AcDbEntity
  8
RACCORDO
100
AcDbLine
 62
7
  6
CONTINUOUS
 10
19.3452926835
 20
-3.5531428571
 11
22.5532787451
 21
-3.5531428571
  0
LINE
  5
2A7
100
AcDbEntity
  8
ASSI
100
AcDbLine
 62
7
  6
CONTINUOUS
 10
19.3452926835
 20
-3.5531428571
 11
22.5532787451
 21
-3.5531428571
  0
LINE
  5
2A8
100
AcDbEntity
  8
0
100
AcDbLine
 62
253
  6
CONTINUOUS
 10
22.6492857143
 20
-3.5348146998
 11
19.2492857143
 21
-3.5348146998
  0
LINE
  5
2A9
100
AcDbEntity
  8
RACCORDO
100
AcDbLine
 62
253
  6
CONTINUOUS
 10
22.6492857143
 20
-3.5348146998
 11
19.2492857143
 21
-3.5348146998
  0
LINE
  5
2AA
100
AcDbEntity
  8
0
100
AcDbLine
 62
7
  6
CONTINUOUS
 10
22.6492857143
 20
-3.5031428571
 11
19.2492857143
 21
-3.5031428571
  0
LINE
  5
2AB
100
AcDbEntity
  8
RACCORDO
100
AcDbLine
 62
7
  6
CONTINUOUS
 10
22.6492857143
 20
-3.5031428571
 11
19.2492857143
 21
-3.5031428571
  0
LINE
  5
2AC
100
AcDbEntity
  8
CURVE
100
AcDbLine
 62
253
  6
CONTINUOUS
 10
32.0060400005
 20
-3.3888575311
 11
31.9918287551
 21
-3.3888575311
  0
LINE
  5
2AD
100
AcDbEntity
  8
CURVE
100
AcDbLine
 62
7
  6
CONTINUOUS
 10
32.073083127
 20
-3.2545798571
 11
32.0224946662
 21
-3.2545798571
  0
LINE
  5
2AE
100
AcDbEntity
  8
0
100
AcDbLine
 62
7
  6
CONTINUOUS
 10
18.4492857143
 20
-2.8531428571
 11
23.4492857143
 21
-2.8531428571
  0
LINE
  5
2AF
100
AcDbEntity
  8
ASSI
100
AcDbLine
 62
7
  6
CONTINUOUS
 10
18.4492857143
 20
-2.8531428571
 11
23.4492857143
 21
-2.8531428571
  0
LINE
  5
2B0
100
AcDbEntity
  8
SMUSSO
100
AcDbLine
 62
7
  6
CONTINUOUS
 10
21.1992857143
 20
-2.5031428571
 11
16.1992857143
 21
-2.5031428571
  0
LINE
  5
2B1
100
AcDbEntity
  8
ASSI
100
AcDbLine
 62
7
  6
CONTINUOUS
 10
21.1992857143
 20
-2.5031428571
 11
16.1992857143
 21
-2.5031428571
  0
LINE
  5
2B2
100
AcDbEntity
  8
CURVE
100
AcDbLine
 62
253
  6
CONTINUOUS
 10
31.9918287551
 20
-2.4388575311
 11
32.0060400005
 21
-2.4388575311
  0
LINE
  5
2B3
100
AcDbEntity
  8
RACCORDO
100
AcDbLine
 62
7
  6
CONTINUOUS
 10
31.6623645925
 20
-2.4031428571
 11
30.7492857143
 21
-2.4031428571
  0
LINE
  5
2B4
100
AcDbEntity
  8
ASSI
100
AcDbLine
 62
7
  6
CONTINUOUS
 10
31.6623645925
 20
-2.4031428571
 11
30.7492857143
 21
-2.4031428571
  0
LINE
  5
2B5
100
AcDbEntity
  8
SMUSSO
100
AcDbLine
 62
7
  6
CONTINUOUS
 10
20.6992857143
 20
-2.0031428571
 11
16.6992857143
 21
-2.0031428571
  0
LINE
  5
2B6
100
AcDbEntity
  8
ASSI
100
AcDbLine
 62
7
  6
CONTINUOUS
 10
20.6992857143
 20
-2.0031428571
 11
16.6992857143
 21
-2.0031428571
  0
LINE
  5
2B7
100
AcDbEntity
  8
CURVE
100
AcDbLine
 62
253
  6
CONTINUOUS
 10
32.0060400005
 20
-1.8959997411
 11
32.0107770819
 21
-1.8959997411
  0
LINE
  5
2B8
100
AcDbEntity
  8
CURVE
100
AcDbLine
 62
7
  6
CONTINUOUS
 10
32.037353476
 20
-2.7561418571
 11
32.073083127
 21
-2.7561518571
  0
LINE
  5
2B9
100
AcDbEntity
  8
0
100
AcDbLine
 62
253
  6
CONTINUOUS
 10
22.7014281796
 20
-3.5388987831
 11
22.6492857143
 21
-3.5348146998
  0
LINE
  5
2BA
100
AcDbEntity
  8
RACCORDO
100
AcDbLine
 62
253
  6
CONTINUOUS
 10
22.7014281796
 20
-3.5388987831
 11
22.6492857143
 21
-3.5348146998
  0
LINE
  5
2BB
100
AcDbEntity
  8
0
100
AcDbLine
 62
7
  6
CONTINUOUS
 10
19.9406117609
 20
-8.6479385697
 11
19.9492857143
 21
-8.6531428571
  0
LINE
  5
2BC
100
AcDbEntity
  8
0
100
AcDbLine
 62
253
  6
CONTINUOUS
 10
19.7492882527
 20
-10.2531428571
 11
19.7407361146
 21
-10.2474415122
  0
LINE
  5
2BD
100
AcDbEntity
  8
0
100
AcDbLine
 62
253
  6
CONTINUOUS
 10
19.9492857143
 20
-10.0531496264
 11
19.9407183443
 21
-10.0474381269
  0
LINE
  5
2BE
100
AcDbEntity
  8
RACCORDO
100
AcDbLine
 62
7
  6
CONTINUOUS
 10
10.3849829338
 20
-5.3388400767
 11
12.1492857143
 21
-7.1031428571
  0
LINE
  5
2BF
100
AcDbEntity
  8
0
100
AcDbLine
 62
7
  6
CONTINUOUS
 10
9.8080125821
 20
-4.7618697249
 11
13.6934678845
 21
-8.6473250273
  0
LINE
  5
2C0
100
AcDbEntity
  8
0
100
AcDbLine
 62
7
  6
CONTINUOUS
 10
12.7167407792
 20
-7.6582562673
 11
12.8827162125
 21
-7.8242317005
  0
LINE
  5
2C1
100
AcDbEntity
  8
0
100
AcDbLine
 62
7
  6
CONTINUOUS
 10
10.5071683883
 20
-5.2882292043
 11
12.3220820412
 21
-7.1031428571
  0
LINE
  5
2C2
100
AcDbEntity
  8
RACCORDO
100
AcDbLine
 62
7
  6
CONTINUOUS
 10
10.5071683883
 20
-5.2882292043
 11
12.3220820412
 21
-7.1031428571
  0
LINE
  5
2C3
100
AcDbEntity
  8
RACCORDO
100
AcDbLine
 62
7
  6
CONTINUOUS
 10
10.8509814675
 20
-5.5733510925
 11
10.2290774789
 21
-4.951447104
  0
LINE
  5
2C4
100
AcDbEntity
  8
ASSI
100
AcDbLine
 62
7
  6
CONTINUOUS
 10
10.8509814675
 20
-5.5733510925
 11
10.2290774789
 21
-4.951447104
  0
LINE
  5
2C5
100
AcDbEntity
  8
DRAFT
100
AcDbLine
 62
7
  6
CONTINUOUS
 10
13.2559732546
 20
-7.1031428571
 11
13.3059732546
 21
-7.1531428571
  0
LINE
  5
2C6
100
AcDbEntity
  8
DRAFT
100
AcDbLine
 62
7
  6
CONTINUOUS
 10
13.2806565642
 20
-7.1031428571
 11
13.3306565642
 21
-7.1531428571
  0
LINE
  5
2C7
100
AcDbEntity
  8
DRAFT
100
AcDbLine
 62
7
  6
CONTINUOUS
 10
13.7540081278
 20
-7.2491384028
 11
13.6580125821
 21
-7.1531428571
  0
LWPOLYLINE
  5
2C8
100
AcDbEntity
  8
0
100
AcDbPolyline
 62
7
  6
CONTINUOUS
 90
5
 70
0
 10
17.4152014366
 20
37.6525285152
 10
17.4086765097
 20
37.6448785617
 10
17.4014859967
 20
37.6365344797
 10
17.3936121107
 20
37.6274962691
 10
17.3850405667
 20
37.6177804614
  0
LINE
  5
2C9
100
AcDbEntity
  8
0
100
AcDbLine
 62
7
  6
CONTINUOUS
 10
17.3850405667
 20
37.6177804614
 11
17.3657334953
 21
37.5962168659
  0
LINE
  5
2CA
100
AcDbEntity
  8
0
100
AcDbLine
 62
7
  6
CONTINUOUS
 10
17.3657334953
 20
37.5962168659
 11
17.3434132398
 21
37.5716382617
  0
LINE
  5
2CB
100
AcDbEntity
  8
0
100
AcDbLine
 62
7
  6
CONTINUOUS
 10
17.3434132398
 20
37.5716382617
 11
17.3181261398
 21
37.544114745
  0
LINE
  5
2CC
100
AcDbEntity
  8
0
100
AcDbLine
 62
7
  6
CONTINUOUS
 10
17.3181261398
 20
37.544114745
 11
17.2899018418
 21
37.5136727533
  0
LINE
  5
2CD
100
AcDbEntity
  8
0
100
AcDbLine
 62
7
  6
CONTINUOUS
 10
17.2899018418
 20
37.5136727533
 11
17.2588347463
 21
37.4803933626
  0
LINE
  5
2CE
100
AcDbEntity
  8
0
100
AcDbLine
 62
7
  6
CONTINUOUS
 10
17.2588347463
 20
37.4803933626
 11
17.2066483017
 21
37.4248737267
  0
LINE
  5
2CF
100
AcDbEntity
  8
0
100
AcDbLine
 62
7
  6
CONTINUOUS
 10
17.2066483017
 20
37.4248737267
 11
17.1476800488
 21
37.3625042657
  0
LWPOLYLINE
  5
2D0
100
AcDbEntity
  8
0
100
AcDbPolyline
 62
7
  6
CONTINUOUS
 90
4
 70
0
 10
17.1476800488
 20
37.3625042657
 10
17.0616902732
 20
37.2719874007
 10
17.0398420702
 20
37.2490929938
 10
16.9962430044
 20
37.2032149576
  0
LINE
  5
2D1
100
AcDbEntity
  8
0
100
AcDbLine
 62
7
  6
CONTINUOUS
 10
13.5492857143
 20
33.4468571429
 11
13.5126300779
 21
33.4102015065
  0
LINE
  5
2D2
100
AcDbEntity
  8
DRAFT
100
AcDbLine
 62
7
  6
CONTINUOUS
 10
13.5492857143
 20
33.4468571429
 11
13.5126300779
 21
33.4102015065
  0
LINE
  5
2D3
100
AcDbEntity
  8
DRAFT
100
AcDbLine
 62
7
  6
CONTINUOUS
 10
13.7540081278
 20
33.5515795563
 11
13.6536491482
 21
33.4512205768
  0
LINE
  5
2D4
100
AcDbEntity
  8
0
100
AcDbLine
 62
7
  6
CONTINUOUS
 10
17.4092857143
 20
-1.7531428571
 11
20.3492857143
 21
-1.7531428571
  0
LINE
  5
2D5
100
AcDbEntity
  8
0
100
AcDbLine
 62
7
  6
CONTINUOUS
 10
30.8078522361
 20
-1.1309574026
 11
30.7492857143
 21
-1.1309574026
  0
LINE
  5
2D6
100
AcDbEntity
  8
RACCORDO
100
AcDbLine
 62
7
  6
CONTINUOUS
 10
30.8078522361
 20
-1.1309574026
 11
30.7492857143
 21
-1.1309574026
  0
LINE
  5
2D7
100
AcDbEntity
  8
0
100
AcDbLine
 62
253
  6
CONTINUOUS
 10
30.8078990342
 20
-1.1186474673
 11
30.7492857143
 21
-1.1186474673
  0
LINE
  5
2D8
100
AcDbEntity
  8
RACCORDO
100
AcDbLine
 62
253
  6
CONTINUOUS
 10
30.8078990342
 20
-1.1186474673
 11
30.7492857143
 21
-1.1186474673
  0
LINE
  5
2D9
100
AcDbEntity
  8
CURVE
100
AcDbLine
 62
7
  6
CONTINUOUS
 10
32.0224946662
 20
-0.9133528571
 11
32.073083127
 21
-0.9133528571
  0
LINE
  5
2DA
100
AcDbEntity
  8
0
100
AcDbLine
 62
253
  6
CONTINUOUS
 10
30.8088264868
 20
-0.8186931588
 11
30.7492857143
 21
-0.8186931588
  0
LINE
  5
2DB
100
AcDbEntity
  8
RACCORDO
100
AcDbLine
 62
253
  6
CONTINUOUS
 10
30.8088264868
 20
-0.8186931588
 11
30.7492857143
 21
-0.8186931588
  0
LINE
  5
2DC
100
AcDbEntity
  8
CURVE
100
AcDbLine
 62
253
  6
CONTINUOUS
 10
13.0492857143
 20
-0.5531428571
 11
14.9492857143
 21
-0.5531428571
  0
LINE
  5
2DD
100
AcDbEntity
  8
CURVE
100
AcDbLine
 62
253
  6
CONTINUOUS
 10
32.0155141634
 20
-0.4031428571
 11
31.9823545912
 21
-0.4031428571
  0
LINE
  5
2DE
100
AcDbEntity
  8
0
100
AcDbLine
 62
7
  6
CONTINUOUS
 10
13.5492857143
 20
-5.9531428571
 11
13.5126300779
 21
-5.9164872208
  0
LINE
  5
2DF
100
AcDbEntity
  8
DRAFT
100
AcDbLine
 62
7
  6
CONTINUOUS
 10
13.5492857143
 20
-5.9531428571
 11
13.5126300779
 21
-5.9164872208
  0
LINE
  5
2E0
100
AcDbEntity
  8
DRAFT
100
AcDbLine
 62
7
  6
CONTINUOUS
 10
13.7540081278
 20
-6.0578652706
 11
13.6536491482
 21
-5.957506291
  0
LINE
  5
2E1
100
AcDbEntity
  8
0
100
AcDbLine
 62
7
  6
CONTINUOUS
 10
17.0179581067
 20
-9.7324018058
 11
17.0835402452
 21
-9.8012272565
  0
LINE
  5
2E2
100
AcDbEntity
  8
0
100
AcDbLine
 62
7
  6
CONTINUOUS
 10
16.9962430044
 20
-9.7095006718
 11
17.0179581067
 21
-9.7324018058
  0
LINE
  5
2E3
100
AcDbEntity
  8
0
100
AcDbLine
 62
7
  6
CONTINUOUS
 10
17.0835402452
 20
-9.8012272565
 11
17.1681304404
 21
-9.8904029765
  0
LINE
  5
2E4
100
AcDbEntity
  8
0
100
AcDbLine
 62
7
  6
CONTINUOUS
 10
17.1681304404
 20
-9.8904029765
 11
17.2248064114
 21
-9.9504430406
  0
LINE
  5
2E5
100
AcDbEntity
  8
0
100
AcDbLine
 62
7
  6
CONTINUOUS
 10
17.2248064114
 20
-9.9504430406
 11
17.2588330908
 21
-9.9866775843
  0
LINE
  5
2E6
100
AcDbEntity
  8
0
100
AcDbLine
 62
7
  6
CONTINUOUS
 10
17.2588330908
 20
-9.9866775843
 11
17.2898941004
 21
-10.0199501483
  0
LINE
  5
2E7
100
AcDbEntity
  8
0
100
AcDbLine
 62
7
  6
CONTINUOUS
 10
17.2898941004
 20
-10.0199501483
 11
17.3181494102
 21
-10.050424884
  0
LINE
  5
2E8
100
AcDbEntity
  8
0
100
AcDbLine
 62
7
  6
CONTINUOUS
 10
17.3181494102
 20
-10.050424884
 11
17.3434568039
 21
-10.0779716599
  0
LINE
  5
2E9
100
AcDbEntity
  8
0
100
AcDbLine
 62
7
  6
CONTINUOUS
 10
17.3434568039
 20
-10.0779716599
 11
17.3657787402
 21
-10.1025527386
  0
LWPOLYLINE
  5
2EA
100
AcDbEntity
  8
0
100
AcDbPolyline
 62
7
  6
CONTINUOUS
 90
6
 70
0
 10
17.3657787402
 20
-10.1025527386
 10
17.3850702691
 20
-10.1240999086
 10
17.3936329997
 20
-10.1338057698
 10
17.4014993971
 20
-10.1428357643
 10
17.4086829136
 20
-10.1511719175
 10
17.4152014366
 20
-10.1588142295
  0
LWPOLYLINE
  5
2EB
100
AcDbEntity
  8
0
100
AcDbPolyline
 62
7
  6
CONTINUOUS
 90
18
 70
0
 10
10.8171930885
 20
-10.5960613064
 10
10.8218769421
 20
-10.6069993034
 10
10.8270759455
 20
-10.6177020447
 10
10.8327783226
 20
-10.6281452854
 10
10.8389711562
 20
-10.638305363
 10
10.8456404188
 20
-10.6481592623
 10
10.8527710036
 20
-10.657684661
 10
10.8603467554
 20
-10.6668599762
 10
10.8683505138
 20
-10.6756644232
 10
10.8767641482
 20
-10.6840780576
 10
10.8855685952
 20
-10.692081816
 10
10.8947439104
 20
-10.6996575679
 10
10.9042693092
 20
-10.7067881526
 10
10.9141232084
 20
-10.7134574153
 10
10.924283286
 20
-10.7196502488
 10
10.9347265267
 20
-10.725352626
 10
10.945429268
 20
-10.7305516293
 10
10.956367265
 20
-10.7352354829
  0
LWPOLYLINE
  5
2EC
100
AcDbEntity
  8
0
100
AcDbPolyline
 62
7
  6
CONTINUOUS
 90
9
 70
0
 10
10.8171930885
 20
38.0897755922
 10
10.8130349929
 20
38.0786271166
 10
10.8094120726
 20
38.0672934219
 10
10.8063325326
 20
38.0558001817
 10
10.8038033466
 20
38.0441734303
 10
10.8018302401
 20
38.032439509
 10
10.80041768
 20
38.0206249984
 10
10.7995688645
 20
38.0087566589
 10
10.7992857143
 20
37.9968613736
  0
LINE
  5
2ED
100
AcDbEntity
  8
CURVE
100
AcDbLine
 62
253
  6
CONTINUOUS
 10
10.6492857143
 20
0.6182857309
 11
11.9492857143
 21
0.6182857309
  0
LINE
  5
2EE
100
AcDbEntity
  8
0
100
AcDbLine
 62
7
  6
CONTINUOUS
 10
20.3492857143
 20
1.2468571429
 11
17.4092857143
 21
1.2468571429
  0
LINE
  5
2EF
100
AcDbEntity
  8
SMUSSO
100
AcDbLine
 62
7
  6
CONTINUOUS
 10
16.6992857143
 20
1.4968571429
 11
20.6992857143
 21
1.4968571429
  0
LINE
  5
2F0
100
AcDbEntity
  8
ASSI
100
AcDbLine
 62
7
  6
CONTINUOUS
 10
16.6992857143
 20
1.4968571429
 11
20.6992857143
 21
1.4968571429
  0
LINE
  5
2F1
100
AcDbEntity
  8
CURVE
100
AcDbLine
 62
253
  6
CONTINUOUS
 10
11.0207142636
 20
1.6397142414
 11
10.8349999889
 21
1.6397142414
  0
LINE
  5
2F2
100
AcDbEntity
  8
CURVE
100
AcDbLine
 62
253
  6
CONTINUOUS
 10
32.001302919
 20
1.7682855849
 11
32.0107770819
 21
1.7682855849
  0
LINE
  5
2F3
100
AcDbEntity
  8
RACCORDO
100
AcDbLine
 62
7
  6
CONTINUOUS
 10
31.6623645925
 20
1.8968571429
 11
30.7492857143
 21
1.8968571429
  0
LINE
  5
2F4
100
AcDbEntity
  8
ASSI
100
AcDbLine
 62
7
  6
CONTINUOUS
 10
31.6623645925
 20
1.8968571429
 11
30.7492857143
 21
1.8968571429
  0
LINE
  5
2F5
100
AcDbEntity
  8
SMUSSO
100
AcDbLine
 62
7
  6
CONTINUOUS
 10
16.1992857143
 20
1.9968571429
 11
21.1992857143
 21
1.9968571429
  0
LINE
  5
2F6
100
AcDbEntity
  8
ASSI
100
AcDbLine
 62
7
  6
CONTINUOUS
 10
16.1992857143
 20
1.9968571429
 11
21.1992857143
 21
1.9968571429
  0
LINE
  5
2F7
100
AcDbEntity
  8
CURVE
100
AcDbLine
 62
253
  6
CONTINUOUS
 10
11.5778571263
 20
2.0111427907
 11
11.0207142636
 21
2.0111427907
  0
LINE
  5
2F8
100
AcDbEntity
  8
CURVE
100
AcDbLine
 62
253
  6
CONTINUOUS
 10
11.0207142636
 20
2.0111427907
 11
10.8349999889
 21
2.1040000443
  0
LINE
  5
2F9
100
AcDbEntity
  8
CURVE
100
AcDbLine
 62
253
  6
CONTINUOUS
 10
10.6492857143
 20
1.1754285936
 11
10.927857165
 21
0.9897143189
  0
LINE
  5
2FA
100
AcDbEntity
  8
CURVE
100
AcDbLine
 62
253
  6
CONTINUOUS
 10
11.9492857143
 20
0.9897143189
 11
11.0207142636
 21
1.6397142414
  0
LINE
  5
2FB
100
AcDbEntity
  8
CURVE
100
AcDbLine
 62
253
  6
CONTINUOUS
 10
11.0207142636
 20
0.2468571429
 11
10.6492857143
 21
0.6182857309
  0
LINE
  5
2FC
100
AcDbEntity
  8
0
100
AcDbLine
 62
7
  6
CONTINUOUS
 10
25.3556350674
 20
37.703206496
 11
25.3992857143
 21
37.7468571429
  0
LWPOLYLINE
  5
2FD
100
AcDbEntity
  8
0
100
AcDbPolyline
 62
253
  6
CONTINUOUS
 90
3
 70
0
 10
22.842607905
 20
31.0916713138
 10
22.799562371
 20
31.0646211828
 10
22.7520376509
 20
31.0447586867
  0
LWPOLYLINE
  5
2FE
100
AcDbEntity
  8
RACCORDO
100
AcDbPolyline
 62
253
  6
CONTINUOUS
 90
3
 70
0
 10
22.842607905
 20
31.0916713138
 10
22.799562371
 20
31.0646211828
 10
22.7520376509
 20
31.0447586867
  0
LINE
  5
2FF
100
AcDbEntity
  8
0
100
AcDbLine
 62
253
  6
CONTINUOUS
 10
31.5135884948
 20
32.8325543624
 11
31.3914030403
 21
32.78194349
  0
LINE
  5
300
100
AcDbEntity
  8
RACCORDO
100
AcDbLine
 62
253
  6
CONTINUOUS
 10
31.5135884948
 20
32.8325543624
 11
31.3914030403
 21
32.78194349
  0
LINE
  5
301
100
AcDbEntity
  8
0
100
AcDbLine
 62
253
  6
CONTINUOUS
 10
32.0992857143
 20
31.4185561916
 11
31.9771002598
 21
31.3679453192
  0
LINE
  5
302
100
AcDbEntity
  8
RACCORDO
100
AcDbLine
 62
253
  6
CONTINUOUS
 10
32.0992857143
 20
31.4185561916
 11
31.9771002598
 21
31.3679453192
  0
LINE
  5
303
100
AcDbEntity
  8
SMUSSO
100
AcDbLine
 62
7
  6
CONTINUOUS
 10
21.1992857143
 20
2.4968571429
 11
16.1992857143
 21
2.4968571429
  0
LINE
  5
304
100
AcDbEntity
  8
ASSI
100
AcDbLine
 62
7
  6
CONTINUOUS
 10
21.1992857143
 20
2.4968571429
 11
16.1992857143
 21
2.4968571429
  0
LINE
  5
305
100
AcDbEntity
  8
RACCORDO
100
AcDbLine
 62
7
  6
CONTINUOUS
 10
31.6623645925
 20
2.5968571429
 11
30.7492857143
 21
2.5968571429
  0
LINE
  5
306
100
AcDbEntity
  8
ASSI
100
AcDbLine
 62
7
  6
CONTINUOUS
 10
31.6623645925
 20
2.5968571429
 11
30.7492857143
 21
2.5968571429
  0
LINE
  5
307
100
AcDbEntity
  8
CURVE
100
AcDbLine
 62
253
  6
CONTINUOUS
 10
11.0207142636
 20
2.6611427907
 11
11.5778571263
 21
2.6611427907
  0
LINE
  5
308
100
AcDbEntity
  8
CURVE
100
AcDbLine
 62
253
  6
CONTINUOUS
 10
32.0107770819
 20
2.7182855849
 11
32.001302919
 21
2.7182855849
  0
LINE
  5
309
100
AcDbEntity
  8
SMUSSO
100
AcDbLine
 62
7
  6
CONTINUOUS
 10
20.6992857143
 20
2.9968571429
 11
16.6992857143
 21
2.9968571429
  0
LINE
  5
30A
100
AcDbEntity
  8
ASSI
100
AcDbLine
 62
7
  6
CONTINUOUS
 10
20.6992857143
 20
2.9968571429
 11
16.6992857143
 21
2.9968571429
  0
LINE
  5
30B
100
AcDbEntity
  8
0
100
AcDbLine
 62
7
  6
CONTINUOUS
 10
17.4092857143
 20
3.2468571429
 11
20.3492857143
 21
3.2468571429
  0
LINE
  5
30C
100
AcDbEntity
  8
CURVE
100
AcDbLine
 62
253
  6
CONTINUOUS
 10
31.9847231321
 20
3.2611429219
 11
31.9965658365
 21
3.2611429219
  0
LINE
  5
30D
100
AcDbEntity
  8
CURVE
100
AcDbLine
 62
253
  6
CONTINUOUS
 10
32.0036714587
 20
3.3063808445
 11
32.0107770819
 21
3.3063808445
  0
LINE
  5
30E
100
AcDbEntity
  8
CURVE
100
AcDbLine
 62
7
  6
CONTINUOUS
 10
32.0578343503
 20
-1.4187988571
 11
32.0224946662
 21
-1.4117748571
  0
LINE
  5
30F
100
AcDbEntity
  8
CURVE
100
AcDbLine
 62
253
  6
CONTINUOUS
 10
11.9492857143
 20
3.4040000443
 11
10.6492857143
 21
3.7754284386
  0
LINE
  5
310
100
AcDbEntity
  8
0
100
AcDbLine
 62
253
  6
CONTINUOUS
 10
31.3914030403
 20
-5.2882292043
 11
31.5135884948
 21
-5.3388400767
  0
LINE
  5
311
100
AcDbEntity
  8
RACCORDO
100
AcDbLine
 62
253
  6
CONTINUOUS
 10
31.3914030403
 20
-5.2882292043
 11
31.5135884948
 21
-5.3388400767
  0
LINE
  5
312
100
AcDbEntity
  8
0
100
AcDbLine
 62
253
  6
CONTINUOUS
 10
31.9771002598
 20
-3.8742310335
 11
32.0992857143
 21
-3.9248419059
  0
LINE
  5
313
100
AcDbEntity
  8
RACCORDO
100
AcDbLine
 62
253
  6
CONTINUOUS
 10
31.9771002598
 20
-3.8742310335
 11
32.0992857143
 21
-3.9248419059
  0
LINE
  5
314
100
AcDbEntity
  8
CURVE
100
AcDbLine
 62
253
  6
CONTINUOUS
 10
11.5778571263
 20
2.6611427907
 11
11.7635714203
 21
2.5682856921
  0
LWPOLYLINE
  5
315
100
AcDbEntity
  8
0
100
AcDbPolyline
 62
253
  6
CONTINUOUS
 90
4
 70
0
 10
22.842607905
 20
-3.597957028
 10
22.799562371
 20
-3.570906897
 10
22.7520376509
 20
-3.5510444009
 10
22.7014281796
 20
-3.5388987831
  0
LWPOLYLINE
  5
316
100
AcDbEntity
  8
RACCORDO
100
AcDbPolyline
 62
253
  6
CONTINUOUS
 90
4
 70
0
 10
22.842607905
 20
-3.597957028
 10
22.799562371
 20
-3.570906897
 10
22.7520376509
 20
-3.5510444009
 10
22.7014281796
 20
-3.5388987831
  0
LINE
  5
317
100
AcDbEntity
  8
CURVE
100
AcDbLine
 62
253
  6
CONTINUOUS
 10
10.8349999889
 20
2.1040000443
 11
10.6492857143
 21
2.2897142414
  0
LINE
  5
318
100
AcDbEntity
  8
CURVE
100
AcDbLine
 62
253
  6
CONTINUOUS
 10
11.7635714203
 20
2.5682856921
 11
11.9492857143
 21
2.382571495
  0
LINE
  5
319
100
AcDbEntity
  8
0
100
AcDbLine
 62
7
  6
CONTINUOUS
 10
25.3556350674
 20
-10.2094922103
 11
25.3992857143
 21
-10.2531428571
  0
LINE
  5
31A
100
AcDbEntity
  8
0
100
AcDbLine
 62
7
  6
CONTINUOUS
 10
25.2866256345
 20
37.6127210469
 11
25.2672972522
 21
37.5912119708
  0
LINE
  5
31B
100
AcDbEntity
  8
0
100
AcDbLine
 62
7
  6
CONTINUOUS
 10
25.2672972522
 20
37.5912119708
 11
25.2451515852
 21
37.5668907692
  0
LINE
  5
31C
100
AcDbEntity
  8
0
100
AcDbLine
 62
7
  6
CONTINUOUS
 10
25.2451515852
 20
37.5668907692
 11
25.2200791883
 21
37.539640071
  0
LINE
  5
31D
100
AcDbEntity
  8
0
100
AcDbLine
 62
7
  6
CONTINUOUS
 10
25.2200791883
 20
37.539640071
 11
25.1920274297
 21
37.5094193477
  0
LINE
  5
31E
100
AcDbEntity
  8
0
100
AcDbLine
 62
7
  6
CONTINUOUS
 10
25.1920274297
 20
37.5094193477
 11
25.1609963165
 21
37.4762001407
  0
LINE
  5
31F
100
AcDbEntity
  8
0
100
AcDbLine
 62
7
  6
CONTINUOUS
 10
25.1609963165
 20
37.4762001407
 11
25.1091151969
 21
37.4210343667
  0
LINE
  5
320
100
AcDbEntity
  8
0
100
AcDbLine
 62
7
  6
CONTINUOUS
 10
25.1091151969
 20
37.4210343667
 11
25.0312631485
 21
37.3388011488
  0
LWPOLYLINE
  5
321
100
AcDbEntity
  8
0
100
AcDbPolyline
 62
7
  6
CONTINUOUS
 90
3
 70
0
 10
25.0312631485
 20
37.3388011488
 10
24.9679477756
 20
37.272168317
 10
24.9023284242
 20
37.2032149576
  0
LINE
  5
322
100
AcDbEntity
  8
0
100
AcDbLine
 62
7
  6
CONTINUOUS
 10
25.3992857143
 20
36.1468571429
 11
25.3553634672
 21
36.1029348958
  0
LINE
  5
323
100
AcDbEntity
  8
0
100
AcDbLine
 62
7
  6
CONTINUOUS
 10
28.1398273405
 20
36.0828271684
 11
28.2051035441
 21
36.141039313
  0
LINE
  5
324
100
AcDbEntity
  8
0
100
AcDbLine
 62
253
  6
CONTINUOUS
 10
31.5992920604
 20
36.1468571429
 11
31.5905651926
 21
36.141039313
  0
LINE
  5
325
100
AcDbEntity
  8
0
100
AcDbLine
 62
253
  6
CONTINUOUS
 10
32.0992857143
 20
35.6468740659
 11
32.0905588465
 21
35.6410562361
  0
LINE
  5
326
100
AcDbEntity
  8
CURVE
100
AcDbLine
 62
7
  6
CONTINUOUS
 10
32.0400270042
 20
4.3752821429
 11
32.0224946662
 21
4.3752721429
  0
LINE
  5
327
100
AcDbEntity
  8
CURVE
100
AcDbLine
 62
253
  6
CONTINUOUS
 10
14.9492857143
 20
4.2468571429
 11
13.0492857143
 21
4.2468571429
  0
LINE
  5
328
100
AcDbEntity
  8
CURVE
100
AcDbLine
 62
253
  6
CONTINUOUS
 10
32.0155141634
 20
4.6182858114
 11
31.9823545912
 21
4.6182858114
  0
LINE
  5
329
100
AcDbEntity
  8
CURVE
100
AcDbLine
 62
7
  6
CONTINUOUS
 10
32.0224946662
 20
4.8930191429
 11
32.073083127
 21
4.8930191429
  0
LINE
  5
32A
100
AcDbEntity
  8
CURVE
100
AcDbLine
 62
253
  6
CONTINUOUS
 10
13.3207142695
 20
5.1968571429
 11
13.86357138
 21
5.1968571429
  0
LINE
  5
32B
100
AcDbEntity
  8
CURVE
100
AcDbLine
 62
7
  6
CONTINUOUS
 10
32.073083127
 20
5.5087501429
 11
32.0224946662
 21
5.5087501429
  0
LINE
  5
32C
100
AcDbEntity
  8
CURVE
100
AcDbLine
 62
253
  6
CONTINUOUS
 10
32.0060400005
 20
5.7040000324
 11
31.9918287551
 21
5.7040000324
  0
LINE
  5
32D
100
AcDbEntity
  8
CURVE
100
AcDbLine
 62
7
  6
CONTINUOUS
 10
32.0224946662
 20
6.0265191429
 11
32.073083127
 21
6.0265191429
  0
LINE
  5
32E
100
AcDbEntity
  8
CURVE
100
AcDbLine
 62
7
  6
CONTINUOUS
 10
32.073083127
 20
4.3752721429
 11
32.0510264706
 21
4.3752821429
  0
LINE
  5
32F
100
AcDbEntity
  8
0
100
AcDbLine
 62
253
  6
CONTINUOUS
 10
31.5905651926
 20
-8.6473250273
 11
31.5992920604
 21
-8.6531428571
  0
LINE
  5
330
100
AcDbEntity
  8
0
100
AcDbLine
 62
253
  6
CONTINUOUS
 10
32.0905588465
 20
-8.1473419504
 11
32.0992857143
 21
-8.1531597802
  0
LINE
  5
331
100
AcDbEntity
  8
0
100
AcDbLine
 62
7
  6
CONTINUOUS
 10
28.1398273405
 20
-8.5891128827
 11
28.2051035441
 21
-8.6473250273
  0
LINE
  5
332
100
AcDbEntity
  8
0
100
AcDbLine
 62
7
  6
CONTINUOUS
 10
25.3992857143
 20
-8.6531428571
 11
25.3553634672
 21
-8.6092206101
  0
LINE
  5
333
100
AcDbEntity
  8
0
100
AcDbLine
 62
7
  6
CONTINUOUS
 10
24.9243556482
 20
-9.7327209285
 11
24.9893536594
 21
-9.8009455779
  0
LINE
  5
334
100
AcDbEntity
  8
0
100
AcDbLine
 62
7
  6
CONTINUOUS
 10
24.9023284242
 20
-9.7095006718
 11
24.9243556482
 21
-9.7327209285
  0
LINE
  5
335
100
AcDbEntity
  8
0
100
AcDbLine
 62
7
  6
CONTINUOUS
 10
24.9893536594
 20
-9.8009455779
 11
25.0712556679
 21
-9.8872820097
  0
LINE
  5
336
100
AcDbEntity
  8
0
100
AcDbLine
 62
7
  6
CONTINUOUS
 10
25.0712556679
 20
-9.8872820097
 11
25.1269980188
 21
-9.9463057376
  0
LINE
  5
337
100
AcDbEntity
  8
0
100
AcDbLine
 62
7
  6
CONTINUOUS
 10
25.1269980188
 20
-9.9463057376
 11
25.1767572421
 21
-9.9993336926
  0
LINE
  5
338
100
AcDbEntity
  8
0
100
AcDbLine
 62
7
  6
CONTINUOUS
 10
25.1767572421
 20
-9.9993336926
 11
25.206302805
 21
-10.0310540129
  0
LINE
  5
339
100
AcDbEntity
  8
0
100
AcDbLine
 62
7
  6
CONTINUOUS
 10
25.206302805
 20
-10.0310540129
 11
25.2328707335
 21
-10.0597987739
  0
LINE
  5
33A
100
AcDbEntity
  8
0
100
AcDbLine
 62
7
  6
CONTINUOUS
 10
25.2328707335
 20
-10.0597987739
 11
25.2564705392
 21
-10.0855659215
  0
LWPOLYLINE
  5
33B
100
AcDbEntity
  8
0
100
AcDbPolyline
 62
7
  6
CONTINUOUS
 90
19
 70
0
 10
25.2564705392
 20
-10.0855659215
 10
25.277197067
 20
-10.10847937
 10
25.2865112007
 20
-10.118878606
 10
25.2951565286
 20
-10.1286260843
 10
25.3031397887
 20
-10.1377168327
 10
25.3104799761
 20
-10.1461558235
 10
25.3172154371
 20
-10.1540094347
 10
25.3233526082
 20
-10.1612793505
 10
25.3289062772
 20
-10.1679638868
 10
25.3339146162
 20
-10.1741243698
 10
25.3383863777
 20
-10.1797724801
 10
25.3423205631
 20
-10.184896537
 10
25.3457299161
 20
-10.1895228244
 10
25.3486185714
 20
-10.1936543565
 10
25.350987999
 20
-10.1972881192
 10
25.3528433664
 20
-10.2004413537
 10
25.3541884748
 20
-10.2031198073
 10
25.3550269453
 20
-10.2053177328
 10
25.3553634672
 20
-10.2070351302
  0
LWPOLYLINE
  5
33C
100
AcDbEntity
  8
0
100
AcDbPolyline
 62
7
  6
CONTINUOUS
 90
6
 70
0
 10
10.8018302401
 20
-10.5387252233
 10
10.8038033466
 20
-10.5504591446
 10
10.8063325326
 20
-10.5620858959
 10
10.8094120726
 20
-10.5735791361
 10
10.8130349929
 20
-10.5849128309
 10
10.8171930885
 20
-10.5960613064
  0
LWPOLYLINE
  5
33D
100
AcDbEntity
  8
0
100
AcDbPolyline
 62
7
  6
CONTINUOUS
 90
40
 70
0
 10
9.7992857143
 20
-8.1529140051
 10
9.7996845601
 20
-8.1730428004
 10
9.800891388
 20
-8.1931340518
 10
9.8029041474
 20
-8.2131554301
 10
9.8057191249
 20
-8.2330707641
 10
9.8093317716
 20
-8.2528519983
 10
9.8137380681
 20
-8.2724789972
 10
9.8189322914
 20
-8.2919215133
 10
9.8249069849
 20
-8.311146215
 10
9.8316555299
 20
-8.3301282255
 10
9.8391731985
 20
-8.3488468133
 10
9.8474459733
 20
-8.3672599484
 10
9.8564490002
 20
-8.3853124513
 10
9.8661572682
 20
-8.4029600691
 10
9.8765615028
 20
-8.4201912178
 10
9.8876584054
 20
-8.437000547
 10
9.8994426277
 20
-8.4533749176
 10
9.9118863698
 20
-8.4692708676
 10
9.9249507611
 20
-8.4846391146
 10
9.9385988745
 20
-8.4994411612
 10
9.9528201346
 20
-8.5136702202
 10
9.967613704
 20
-8.5273256069
 10
9.9829722296
 20
-8.5403963894
 10
9.9988576443
 20
-8.5528461552
 10
10.0152221589
 20
-8.564637304
 10
10.032023006
 20
-8.5757422366
 10
10.0492465344
 20
-8.5861550568
 10
10.0668872001
 20
-8.5958724101
 10
10.0849344451
 20
-8.6048852822
 10
10.1033430817
 20
-8.6131679823
 10
10.1220546134
 20
-8.6206945331
 10
10.1410239547
 20
-8.6274500158
 10
10.1602330701
 20
-8.6334311923
 10
10.179662485
 20
-8.638633519
 10
10.1992920033
 20
-8.6430514425
 10
10.2190785376
 20
-8.6466751542
 10
10.2389678471
 20
-8.649496825
 10
10.2589199707
 20
-8.6515145644
 10
10.2789098151
 20
-8.6527294832
 10
10.2989051146
 20
-8.6531428571
  0
LWPOLYLINE
  5
33E
100
AcDbEntity
  8
0
100
AcDbPolyline
 62
7
  6
CONTINUOUS
 90
40
 70
0
 10
9.7992857143
 20
35.6466282908
 10
9.7996845601
 20
35.6667570861
 10
9.800891388
 20
35.6868483375
 10
9.8029041474
 20
35.7068697158
 10
9.8057191249
 20
35.7267850498
 10
9.8093317716
 20
35.746566284
 10
9.8137380681
 20
35.7661932829
 10
9.8189322914
 20
35.785635799
 10
9.8249069849
 20
35.8048605007
 10
9.8316555299
 20
35.8238425112
 10
9.8391731985
 20
35.842561099
 10
9.8474459733
 20
35.8609742341
 10
9.8564490002
 20
35.879026737
 10
9.8661572682
 20
35.8966743548
 10
9.8765615028
 20
35.9139055036
 10
9.8876584054
 20
35.9307148327
 10
9.8994426277
 20
35.9470892034
 10
9.9118863698
 20
35.9629851533
 10
9.9249507611
 20
35.9783534003
 10
9.9385988745
 20
35.9931554469
 10
9.9528201346
 20
36.0073845059
 10
9.967613704
 20
36.0210398926
 10
9.9829722296
 20
36.0341106751
 10
9.9988576443
 20
36.0465604409
 10
10.0152221589
 20
36.0583515897
 10
10.032023006
 20
36.0694565223
 10
10.0492465344
 20
36.0798693425
 10
10.0668872001
 20
36.0895866958
 10
10.0849344451
 20
36.0985995679
 10
10.1033430817
 20
36.106882268
 10
10.1220546134
 20
36.1144088188
 10
10.1410239547
 20
36.1211643015
 10
10.1602330701
 20
36.127145478
 10
10.179662485
 20
36.1323478047
 10
10.1992920033
 20
36.1367657282
 10
10.2190785376
 20
36.1403894399
 10
10.2389678471
 20
36.1432111107
 10
10.2589199707
 20
36.1452288501
 10
10.2789098151
 20
36.146443769
 10
10.2989051146
 20
36.1468571429
  0
LINE
  5
33F
100
AcDbEntity
  8
0
100
AcDbLine
 62
7
  6
CONTINUOUS
 10
24.4492857143
 20
33.6468571429
 11
24.4126300779
 21
33.6102015065
  0
LINE
  5
340
100
AcDbEntity
  8
DRAFT
100
AcDbLine
 62
7
  6
CONTINUOUS
 10
24.4492857143
 20
33.6468571429
 11
24.4126300779
 21
33.6102015065
  0
LINE
  5
341
100
AcDbEntity
  8
0
100
AcDbLine
 62
7
  6
CONTINUOUS
 10
24.4492857143
 20
33.4468571429
 11
24.4126300779
 21
33.4102015065
  0
LINE
  5
342
100
AcDbEntity
  8
DRAFT
100
AcDbLine
 62
7
  6
CONTINUOUS
 10
24.4492857143
 20
33.4468571429
 11
24.4126300779
 21
33.4102015065
  0
LINE
  5
343
100
AcDbEntity
  8
0
100
AcDbLine
 62
7
  6
CONTINUOUS
 10
20.3492857143
 20
6.2468571429
 11
17.4092857143
 21
6.2468571429
  0
LINE
  5
344
100
AcDbEntity
  8
SMUSSO
100
AcDbLine
 62
7
  6
CONTINUOUS
 10
16.6992857143
 20
6.4968571429
 11
20.6992857143
 21
6.4968571429
  0
LINE
  5
345
100
AcDbEntity
  8
ASSI
100
AcDbLine
 62
7
  6
CONTINUOUS
 10
16.6992857143
 20
6.4968571429
 11
20.6992857143
 21
6.4968571429
  0
LINE
  5
346
100
AcDbEntity
  8
CURVE
100
AcDbLine
 62
7
  6
CONTINUOUS
 10
32.0305236445
 20
6.6491911429
 11
32.0224946662
 21
6.6491911429
  0
LINE
  5
347
100
AcDbEntity
  8
CURVE
100
AcDbLine
 62
253
  6
CONTINUOUS
 10
31.9918287551
 20
6.6540000324
 11
32.0060400005
 21
6.6540000324
  0
LINE
  5
348
100
AcDbEntity
  8
CURVE
100
AcDbLine
 62
7
  6
CONTINUOUS
 10
32.073083127
 20
6.6608441429
 11
32.0650541488
 21
6.6608441429
  0
LINE
  5
349
100
AcDbEntity
  8
CURVE
100
AcDbLine
 62
7
  6
CONTINUOUS
 10
32.0524750789
 20
6.7647301429
 11
32.0444459262
 21
6.7647301429
  0
LINE
  5
34A
100
AcDbEntity
  8
RACCORDO
100
AcDbLine
 62
7
  6
CONTINUOUS
 10
31.6623645925
 20
6.8968571429
 11
30.7492857143
 21
6.8968571429
  0
LINE
  5
34B
100
AcDbEntity
  8
ASSI
100
AcDbLine
 62
7
  6
CONTINUOUS
 10
31.6623645925
 20
6.8968571429
 11
30.7492857143
 21
6.8968571429
  0
LINE
  5
34C
100
AcDbEntity
  8
SMUSSO
100
AcDbLine
 62
7
  6
CONTINUOUS
 10
16.1992857143
 20
6.9968571429
 11
21.1992857143
 21
6.9968571429
  0
LINE
  5
34D
100
AcDbEntity
  8
ASSI
100
AcDbLine
 62
7
  6
CONTINUOUS
 10
16.1992857143
 20
6.9968571429
 11
21.1992857143
 21
6.9968571429
  0
LINE
  5
34E
100
AcDbEntity
  8
CURVE
100
AcDbLine
 62
253
  6
CONTINUOUS
 10
11.2992857143
 20
7.1801906828
 11
11.7635714203
 21
7.1801906828
  0
LINE
  5
34F
100
AcDbEntity
  8
CURVE
100
AcDbLine
 62
253
  6
CONTINUOUS
 10
32.0060400005
 20
7.1968571429
 11
32.0107770819
 21
7.1968571429
  0
LINE
  5
350
100
AcDbEntity
  8
SMUSSO
100
AcDbLine
 62
7
  6
CONTINUOUS
 10
21.1992857143
 20
7.4968571429
 11
16.1992857143
 21
7.4968571429
  0
LINE
  5
351
100
AcDbEntity
  8
ASSI
100
AcDbLine
 62
7
  6
CONTINUOUS
 10
21.1992857143
 20
7.4968571429
 11
16.1992857143
 21
7.4968571429
  0
LINE
  5
352
100
AcDbEntity
  8
RACCORDO
100
AcDbLine
 62
7
  6
CONTINUOUS
 10
31.6623645925
 20
7.5968571429
 11
30.7492857143
 21
7.5968571429
  0
LINE
  5
353
100
AcDbEntity
  8
ASSI
100
AcDbLine
 62
7
  6
CONTINUOUS
 10
31.6623645925
 20
7.5968571429
 11
30.7492857143
 21
7.5968571429
  0
LINE
  5
354
100
AcDbEntity
  8
CURVE
100
AcDbLine
 62
253
  6
CONTINUOUS
 10
11.7635714203
 20
7.8301906828
 11
11.3921428516
 21
7.8301906828
  0
LINE
  5
355
100
AcDbEntity
  8
SMUSSO
100
AcDbLine
 62
7
  6
CONTINUOUS
 10
20.6992857143
 20
7.9968571429
 11
16.6992857143
 21
7.9968571429
  0
LINE
  5
356
100
AcDbEntity
  8
ASSI
100
AcDbLine
 62
7
  6
CONTINUOUS
 10
20.6992857143
 20
7.9968571429
 11
16.6992857143
 21
7.9968571429
  0
LINE
  5
357
100
AcDbEntity
  8
CURVE
100
AcDbLine
 62
253
  6
CONTINUOUS
 10
10.927857165
 20
7.36590488
 11
11.2992857143
 21
7.1801906828
  0
LINE
  5
358
100
AcDbEntity
  8
CURVE
100
AcDbLine
 62
253
  6
CONTINUOUS
 10
11.0207142636
 20
8.2016190771
 11
10.8349999889
 21
8.2944764857
  0
LINE
  5
359
100
AcDbEntity
  8
CURVE
100
AcDbLine
 62
253
  6
CONTINUOUS
 10
11.5778571263
 20
8.8516190771
 11
11.7635714203
 21
8.7587616686
  0
LINE
  5
35A
100
AcDbEntity
  8
SMUSSO
100
AcDbLine
 62
7
  6
CONTINUOUS
 10
16.1992857143
 20
1.9968571429
 11
16.6992857143
 21
1.4968571429
  0
LINE
  5
35B
100
AcDbEntity
  8
ASSI
100
AcDbLine
 62
7
  6
CONTINUOUS
 10
16.1992857143
 20
1.9968571429
 11
16.6992857143
 21
1.4968571429
  0
LINE
  5
35C
100
AcDbEntity
  8
CURVE
100
AcDbLine
 62
253
  6
CONTINUOUS
 10
10.6492857143
 20
7.6444764857
 11
10.927857165
 21
7.36590488
  0
LINE
  5
35D
100
AcDbEntity
  8
0
100
AcDbLine
 62
7
  6
CONTINUOUS
 10
24.4126300779
 20
-6.1164872208
 11
24.4492857143
 21
-6.1531428571
  0
LINE
  5
35E
100
AcDbEntity
  8
DRAFT
100
AcDbLine
 62
7
  6
CONTINUOUS
 10
24.4126300779
 20
-6.1164872208
 11
24.4492857143
 21
-6.1531428571
  0
LINE
  5
35F
100
AcDbEntity
  8
0
100
AcDbLine
 62
7
  6
CONTINUOUS
 10
24.4492857143
 20
-5.9531428571
 11
24.4126300779
 21
-5.9164872208
  0
LINE
  5
360
100
AcDbEntity
  8
DRAFT
100
AcDbLine
 62
7
  6
CONTINUOUS
 10
24.4492857143
 20
-5.9531428571
 11
24.4126300779
 21
-5.9164872208
  0
LINE
  5
361
100
AcDbEntity
  8
SMUSSO
100
AcDbLine
 62
7
  6
CONTINUOUS
 10
21.1992857143
 20
-2.5031428571
 11
20.6992857143
 21
-2.0031428571
  0
LINE
  5
362
100
AcDbEntity
  8
ASSI
100
AcDbLine
 62
7
  6
CONTINUOUS
 10
21.1992857143
 20
-2.5031428571
 11
20.6992857143
 21
-2.0031428571
  0
LINE
  5
363
100
AcDbEntity
  8
CURVE
100
AcDbLine
 62
253
  6
CONTINUOUS
 10
13.86357138
 20
5.1968571429
 11
14.1349999919
 21
4.9254285876
  0
LINE
  5
364
100
AcDbEntity
  8
CURVE
100
AcDbLine
 62
253
  6
CONTINUOUS
 10
10.8349999889
 20
8.2944764857
 11
10.6492857143
 21
8.4801906828
  0
LINE
  5
365
100
AcDbEntity
  8
CURVE
100
AcDbLine
 62
253
  6
CONTINUOUS
 10
11.9492857143
 20
7.6444764857
 11
11.7635714203
 21
7.8301906828
  0
LINE
  5
366
100
AcDbEntity
  8
CURVE
100
AcDbLine
 62
253
  6
CONTINUOUS
 10
11.7635714203
 20
8.7587616686
 11
11.9492857143
 21
8.5730474715
  0
LINE
  5
367
100
AcDbEntity
  8
CURVE
100
AcDbLine
 62
253
  6
CONTINUOUS
 10
11.5469047471
 20
4.1468571429
 11
11.4540476098
 21
4.3635239128
  0
LINE
  5
368
100
AcDbEntity
  8
CURVE
100
AcDbLine
 62
253
  6
CONTINUOUS
 10
11.6397619038
 20
4.6111429457
 11
11.5469047471
 21
4.8587619786
  0
LWPOLYLINE
  5
369
100
AcDbEntity
  8
0
100
AcDbPolyline
 62
253
  6
CONTINUOUS
 90
34
 70
0
 10
10.8036575483
 20
37.5911947102
 10
10.8039742103
 20
37.5809117491
 10
10.8048544045
 20
37.5706519969
 10
10.8062961443
 20
37.5604386101
 10
10.8082961745
 20
37.5502946463
 10
10.8108499814
 20
37.5402429949
 10
10.8139518068
 20
37.5303063263
 10
10.8175946575
 20
37.5205070558
 10
10.8217703104
 20
37.5108673146
 10
10.8264693327
 20
37.5014088815
 10
10.8316811127
 20
37.4921531123
 10
10.8373938904
 20
37.4831208891
 10
10.8435947736
 20
37.474332594
 10
10.8502697672
 20
37.4658080614
 10
10.8574038048
 20
37.4575665326
 10
10.8649807843
 20
37.4496266087
 10
10.8729836039
 20
37.4420062106
 10
10.881394201
 20
37.4347225375
 10
10.8901935935
 20
37.4277920279
 10
10.8993619194
 20
37.4212303253
 10
10.9088784869
 20
37.4150522385
 10
10.9187218231
 20
37.4092717082
 10
10.9288697245
 20
37.4039017757
 10
10.9392992754
 20
37.3989545694
 10
10.949986903
 20
37.3944412694
 10
10.9609084629
 20
37.3903720663
 10
10.9720393226
 20
37.3867561325
 10
10.9833543862
 20
37.3836016186
 10
10.9948284082
 20
37.3809155823
 10
11.0064352056
 20
37.3787041723
 10
11.0181477146
 20
37.3769724898
 10
11.0299391915
 20
37.3757243612
 10
11.0417833023
 20
37.3749624472
 10
11.0536533175
 20
37.3746883592
  0
LWPOLYLINE
  5
36A
100
AcDbEntity
  8
0
100
AcDbPolyline
 62
7
  6
CONTINUOUS
 90
4
 70
0
 10
10.7992857143
 20
-10.5031470879
 10
10.7995688645
 20
-10.5150423732
 10
10.80041768
 20
-10.5269107127
 10
10.8018302401
 20
-10.5387252233
  0
LWPOLYLINE
  5
36B
100
AcDbEntity
  8
0
100
AcDbPolyline
 62
7
  6
CONTINUOUS
 90
34
 70
0
 10
10.8036575483
 20
-10.4987752539
 10
10.8039411772
 20
-10.5106719129
 10
10.8047906173
 20
-10.5225416311
 10
10.8062039461
 20
-10.5343575134
 10
10.8081779647
 20
-10.5460927931
 10
10.8107082017
 20
-10.5577208725
 10
10.8137889203
 20
-10.5692153835
 10
10.8174131375
 20
-10.5805502761
 10
10.8215726417
 20
-10.5916998724
 10
10.8262580061
 20
-10.6026389059
 10
10.8314586137
 20
-10.6133425924
 10
10.8371626789
 20
-10.6237866776
 10
10.8433572712
 20
-10.6339474897
 10
10.8500283513
 20
-10.6438020058
 10
10.8571608024
 20
-10.6533279001
 10
10.8647384589
 20
-10.6625035871
 10
10.872744153
 20
-10.6713082826
 10
10.8811597393
 20
-10.6797220342
 10
10.8899661309
 20
-10.6877257658
 10
10.8991433441
 20
-10.6953013267
 10
10.9086706056
 20
-10.70243158
 10
10.9185263903
 20
-10.7091004172
 10
10.9286884659
 20
-10.7152927796
 10
10.9391337193
 20
-10.7209945681
 10
10.9498382542
 20
-10.7261927534
 10
10.9607776553
 20
-10.7308755271
 10
10.9719272673
 20
-10.7350323815
 10
10.9832620324
 20
-10.7386539912
 10
10.994757998
 20
-10.7417325698
 10
11.0063874333
 20
-10.7442605598
 10
11.0181189279
 20
-10.7462315057
 10
11.0299241034
 20
-10.7476415017
 10
11.0417778459
 20
-10.7484884035
 10
11.0536533175
 20
-10.7487710231
  0
LINE
  5
36C
100
AcDbEntity
  8
0
100
AcDbLine
 62
253
  6
CONTINUOUS
 10
10.8036575483
 20
-10.0974804244
 11
10.7992857143
 21
-9.6636280054
  0
LINE
  5
36D
100
AcDbEntity
  8
0
100
AcDbLine
 62
253
  6
CONTINUOUS
 10
11.0536533175
 20
-9.8809740735
 11
11.0485627164
 21
-9.375792588
  0
LINE
  5
36E
100
AcDbEntity
  8
RACCORDO
100
AcDbLine
 62
7
  6
CONTINUOUS
 10
9.7992857143
 20
31.4185561916
 11
9.7992857143
 21
-3.9248419059
  0
LINE
  5
36F
100
AcDbEntity
  8
0
100
AcDbLine
 62
7
  6
CONTINUOUS
 10
9.7992857143
 20
-8.1531597802
 11
9.7992857143
 21
35.6468740659
  0
LINE
  5
370
100
AcDbEntity
  8
0
100
AcDbLine
 62
7
  6
CONTINUOUS
 10
9.8080125821
 20
-8.1473419504
 11
9.8080125821
 21
-4.7618697249
  0
LINE
  5
371
100
AcDbEntity
  8
0
100
AcDbLine
 62
7
  6
CONTINUOUS
 10
9.8080125821
 20
32.2555840106
 11
9.8080125821
 21
35.6410562361
  0
LINE
  5
372
100
AcDbEntity
  8
0
100
AcDbLine
 62
7
  6
CONTINUOUS
 10
9.8167394499
 20
32.2643108784
 11
9.8167394499
 21
31.6661465552
  0
LINE
  5
373
100
AcDbEntity
  8
0
100
AcDbLine
 62
7
  6
CONTINUOUS
 10
9.8167394499
 20
-4.1724322695
 11
9.8167394499
 21
-4.7705965927
  0
LINE
  5
374
100
AcDbEntity
  8
0
100
AcDbLine
 62
7
  6
CONTINUOUS
 10
9.9214711688
 20
31.3679453192
 11
9.9214711688
 21
-3.8742310335
  0
LINE
  5
375
100
AcDbEntity
  8
RACCORDO
100
AcDbLine
 62
7
  6
CONTINUOUS
 10
9.9214711688
 20
31.3679453192
 11
9.9214711688
 21
-3.8742310335
  0
LINE
  5
376
100
AcDbEntity
  8
RACCORDO
100
AcDbLine
 62
7
  6
CONTINUOUS
 10
9.9361954126
 20
31.738081533
 11
9.9361954126
 21
-4.2443672472
  0
LINE
  5
377
100
AcDbEntity
  8
ASSI
100
AcDbLine
 62
7
  6
CONTINUOUS
 10
9.9361954126
 20
31.738081533
 11
9.9361954126
 21
-4.2443672472
  0
LINE
  5
378
100
AcDbEntity
  8
CURVE
100
AcDbLine
 62
253
  6
CONTINUOUS
 10
10.5742857143
 20
14.4343571429
 11
10.5742857143
 21
14.3093571429
  0
LINE
  5
379
100
AcDbEntity
  8
CURVE
100
AcDbLine
 62
253
  6
CONTINUOUS
 10
10.6492857143
 20
1.4539999668
 11
10.6492857143
 21
1.1754285936
  0
LINE
  5
37A
100
AcDbEntity
  8
CURVE
100
AcDbLine
 62
253
  6
CONTINUOUS
 10
10.6492857143
 20
2.2897142414
 11
10.6492857143
 21
2.382571495
  0
LINE
  5
37B
100
AcDbEntity
  8
CURVE
100
AcDbLine
 62
253
  6
CONTINUOUS
 10
10.6492857143
 20
8.4801906828
 11
10.6492857143
 21
8.5730474715
  0
LINE
  5
37C
100
AcDbEntity
  8
0
100
AcDbLine
 62
7
  6
CONTINUOUS
 10
10.7992857143
 20
-10.0974804244
 11
10.7992857143
 21
-8.6531428571
  0
LINE
  5
37D
100
AcDbEntity
  8
0
100
AcDbLine
 62
7
  6
CONTINUOUS
 10
10.7992857143
 20
36.1468571429
 11
10.7992857143
 21
37.5911947102
  0
LINE
  5
37E
100
AcDbEntity
  8
0
100
AcDbLine
 62
7
  6
CONTINUOUS
 10
10.8036575483
 20
37.9924895396
 11
10.8036575483
 21
37.5911947102
  0
LINE
  5
37F
100
AcDbEntity
  8
0
100
AcDbLine
 62
7
  6
CONTINUOUS
 10
10.8036575483
 20
-10.0974804244
 11
10.8036575483
 21
-10.4987752539
  0
LINE
  5
380
100
AcDbEntity
  8
CURVE
100
AcDbLine
 62
253
  6
CONTINUOUS
 10
11.0207142636
 20
10.2444764857
 11
11.0207142636
 21
10.8016184572
  0
LINE
  5
381
100
AcDbEntity
  8
0
100
AcDbLine
 62
253
  6
CONTINUOUS
 10
11.0536533175
 20
-10.7487710231
 11
11.0536533175
 21
-9.8809740735
  0
LINE
  5
382
100
AcDbEntity
  8
0
100
AcDbLine
 62
253
  6
CONTINUOUS
 10
11.0536533175
 20
37.3746883592
 11
11.0536533175
 21
38.2424853089
  0
LINE
  5
383
100
AcDbEntity
  8
RACCORDO
100
AcDbLine
 62
7
  6
CONTINUOUS
 10
11.1519037746
 20
33.2731650175
 11
11.1519037746
 21
33.3494754852
  0
LINE
  5
384
100
AcDbEntity
  8
ASSI
100
AcDbLine
 62
7
  6
CONTINUOUS
 10
11.1519037746
 20
33.2731650175
 11
11.1519037746
 21
33.3494754852
  0
LINE
  5
385
100
AcDbEntity
  8
CURVE
100
AcDbLine
 62
253
  6
CONTINUOUS
 10
11.2064285382
 20
7.6444764857
 11
11.2064285382
 21
7.2420952086
  0
LINE
  5
386
100
AcDbEntity
  8
CURVE
100
AcDbLine
 62
253
  6
CONTINUOUS
 10
11.2064285382
 20
9.2230474715
 11
11.2064285382
 21
9.8730474715
  0
LINE
  5
387
100
AcDbEntity
  8
CURVE
100
AcDbLine
 62
253
  6
CONTINUOUS
 10
11.3242857143
 20
14.3718571429
 11
11.3242857143
 21
14.4343571429
  0
LINE
  5
388
100
AcDbEntity
  8
0
100
AcDbLine
 62
253
  6
CONTINUOUS
 10
10.7992857143
 20
37.1573422911
 11
10.8036575483
 21
37.5911947102
  0
LINE
  5
389
100
AcDbEntity
  8
0
100
AcDbLine
 62
253
  6
CONTINUOUS
 10
11.0485627164
 20
36.8695068737
 11
11.0536533175
 21
37.3746883592
  0
LWPOLYLINE
  5
38A
100
AcDbEntity
  8
0
100
AcDbPolyline
 62
253
  6
CONTINUOUS
 90
34
 70
0
 10
10.8036575483
 20
-10.0974804244
 10
10.803974199
 20
-10.0871976569
 10
10.8048543608
 20
-10.076938097
 10
10.8062960471
 20
-10.0667248998
 10
10.8082960041
 20
-10.0565811161
 10
10.8108497181
 20
-10.0465296397
 10
10.8139514255
 20
-10.0365931563
 10
10.8175941259
 20
-10.0267940917
 10
10.821769598
 20
-10.0171545621
 10
10.8264684179
 20
-10.0076963232
 10
10.8316799807
 20
-9.9984407217
 10
10.8373925242
 20
-9.989408647
 10
10.8435931556
 20
-9.9806204838
 10
10.8502678803
 20
-9.9720960667
 10
10.857401634
 20
-9.9638546347
 10
10.8649783161
 20
-9.9559147881
 10
10.8729808266
 20
-9.9482944469
 10
10.8813911042
 20
-9.9410108096
 10
10.8901901674
 20
-9.9340803149
 10
10.8993581573
 20
-9.9275186047
 10
10.9088743823
 20
-9.9213404883
 10
10.9187173648
 20
-9.9155599092
 10
10.9288648897
 20
-9.9101899141
 10
10.9392940548
 20
-9.9052426225
 10
10.9499813219
 20
-9.9007292004
 10
10.9609025707
 20
-9.8966598341
 10
10.9720331524
 20
-9.893043708
 10
10.983347946
 20
-9.8898889835
 10
10.9948214146
 20
-9.8872027807
 10
11.0064276634
 20
-9.884991162
 10
11.0181404977
 20
-9.8832591191
 10
11.0299334823
 20
-9.882010561
 10
11.0417800012
 20
-9.8812483057
 10
11.0536533175
 20
-9.8809740735
  0
LINE
  5
38B
100
AcDbEntity
  8
CURVE
100
AcDbLine
 62
253
  6
CONTINUOUS
 10
10.6367857143
 20
14.6843571429
 11
10.5742857143
 21
14.4343571429
  0
LINE
  5
38C
100
AcDbEntity
  8
CURVE
100
AcDbLine
 62
253
  6
CONTINUOUS
 10
10.6992857143
 20
14.8718571429
 11
10.6367857143
 21
14.6843571429
  0
LINE
  5
38D
100
AcDbEntity
  8
CURVE
100
AcDbLine
 62
253
  6
CONTINUOUS
 10
11.2617857143
 20
14.1843571429
 11
11.3242857143
 21
14.3718571429
  0
LINE
  5
38E
100
AcDbEntity
  8
CURVE
100
AcDbLine
 62
253
  6
CONTINUOUS
 10
10.7617857143
 20
14.9968571429
 11
10.6992857143
 21
14.8718571429
  0
LINE
  5
38F
100
AcDbEntity
  8
CURVE
100
AcDbLine
 62
253
  6
CONTINUOUS
 10
11.1992857143
 20
14.0593571429
 11
11.2617857143
 21
14.1843571429
  0
LINE
  5
390
100
AcDbEntity
  8
DRAFT
100
AcDbLine
 62
7
  6
CONTINUOUS
 10
27.5540081278
 20
33.8515795563
 11
27.4536491482
 21
33.7512205768
  0
LINE
  5
391
100
AcDbEntity
  8
DRAFT
100
AcDbLine
 62
7
  6
CONTINUOUS
 10
27.5540081278
 20
33.5515795563
 11
27.4536491482
 21
33.4512205768
  0
LINE
  5
392
100
AcDbEntity
  8
CURVE
100
AcDbLine
 62
7
  6
CONTINUOUS
 10
32.0444457517
 20
8.1920251429
 11
32.0305233653
 21
8.1920251429
  0
LINE
  5
393
100
AcDbEntity
  8
CURVE
100
AcDbLine
 62
7
  6
CONTINUOUS
 10
32.0650542535
 20
8.1920251429
 11
32.0524752534
 21
8.1920251429
  0
LINE
  5
394
100
AcDbEntity
  8
CURVE
100
AcDbLine
 62
253
  6
CONTINUOUS
 10
11.5778571263
 20
8.2016190771
 11
11.0207142636
 21
8.2016190771
  0
LINE
  5
395
100
AcDbEntity
  8
0
100
AcDbLine
 62
7
  6
CONTINUOUS
 10
17.4092857143
 20
8.2468571429
 11
20.3492857143
 21
8.2468571429
  0
LINE
  5
396
100
AcDbEntity
  8
CURVE
100
AcDbLine
 62
7
  6
CONTINUOUS
 10
32.0224946662
 20
8.7097631429
 11
32.073083127
 21
8.7097631429
  0
LINE
  5
397
100
AcDbEntity
  8
CURVE
100
AcDbLine
 62
253
  6
CONTINUOUS
 10
11.0207142636
 20
8.8516190771
 11
11.5778571263
 21
8.8516190771
  0
LINE
  5
398
100
AcDbEntity
  8
CURVE
100
AcDbLine
 62
253
  6
CONTINUOUS
 10
14.9492857143
 20
9.1468571429
 11
13.0492857143
 21
9.1468571429
  0
LINE
  5
399
100
AcDbEntity
  8
CURVE
100
AcDbLine
 62
253
  6
CONTINUOUS
 10
11.9492857143
 20
9.2230474715
 11
10.6492857143
 21
9.2230474715
  0
LINE
  5
39A
100
AcDbEntity
  8
CURVE
100
AcDbLine
 62
253
  6
CONTINUOUS
 10
10.6492857143
 20
9.8730474715
 11
11.9492857143
 21
9.8730474715
  0
LWPOLYLINE
  5
39B
100
AcDbEntity
  8
CURVE
100
AcDbPolyline
 62
7
  6
CONTINUOUS
 90
17
 70
0
 10
32.0477890822
 20
0.117135194
 10
32.0473363719
 20
0.1173493026
 10
32.0468826088
 20
0.11799536
 10
32.0464280666
 20
0.1190789642
 10
32.0459730191
 20
0.120605713
 10
32.0455177401
 20
0.1225812042
 10
32.0450625033
 20
0.1250110355
 10
32.0446075824
 20
0.1279008048
 10
32.0441532511
 20
0.1312561099
 10
32.0436997833
 20
0.1350825486
 10
32.0432474527
 20
0.1393857188
 10
32.042796533
 20
0.1441712182
 10
32.0423472979
 20
0.1494446446
 10
32.0419000212
 20
0.1552115959
 10
32.0414549767
 20
0.1614776698
 10
32.0410124381
 20
0.1682484642
 10
32.0405726792
 20
0.1755295769
  0
LINE
  5
39C
100
AcDbEntity
  8
CURVE
100
AcDbLine
 62
253
  6
CONTINUOUS
 10
11.0207142636
 20
10.8016184572
 11
11.9492857143
 21
10.2444764857
  0
LINE
  5
39D
100
AcDbEntity
  8
DRAFT
100
AcDbLine
 62
7
  6
CONTINUOUS
 10
27.5540081278
 20
-6.3578652706
 11
27.4536491482
 21
-6.257506291
  0
LINE
  5
39E
100
AcDbEntity
  8
DRAFT
100
AcDbLine
 62
7
  6
CONTINUOUS
 10
27.5540081278
 20
-6.0578652706
 11
27.4536491482
 21
-5.957506291
  0
LINE
  5
39F
100
AcDbEntity
  8
SMUSSO
100
AcDbLine
 62
7
  6
CONTINUOUS
 10
16.1992857143
 20
6.9968571429
 11
16.6992857143
 21
6.4968571429
  0
LINE
  5
3A0
100
AcDbEntity
  8
ASSI
100
AcDbLine
 62
7
  6
CONTINUOUS
 10
16.1992857143
 20
6.9968571429
 11
16.6992857143
 21
6.4968571429
  0
LINE
  5
3A1
100
AcDbEntity
  8
SMUSSO
100
AcDbLine
 62
7
  6
CONTINUOUS
 10
21.1992857143
 20
2.4968571429
 11
20.6992857143
 21
2.9968571429
  0
LINE
  5
3A2
100
AcDbEntity
  8
ASSI
100
AcDbLine
 62
7
  6
CONTINUOUS
 10
21.1992857143
 20
2.4968571429
 11
20.6992857143
 21
2.9968571429
  0
LINE
  5
3A3
100
AcDbEntity
  8
CURVE
100
AcDbLine
 62
253
  6
CONTINUOUS
 10
10.5742857143
 20
14.3093571429
 11
10.6367857143
 21
14.1218571429
  0
LWPOLYLINE
  5
3A4
100
AcDbEntity
  8
0
100
AcDbPolyline
 62
253
  6
CONTINUOUS
 90
34
 70
0
 10
13.6949138803
 20
-10.0974804244
 10
13.6945972296
 20
-10.0871976569
 10
13.6937170678
 20
-10.076938097
 10
13.6922753815
 20
-10.0667248998
 10
13.6902754245
 20
-10.0565811161
 10
13.6877217105
 20
-10.0465296397
 10
13.6846200031
 20
-10.0365931563
 10
13.6809773027
 20
-10.0267940917
 10
13.6768018306
 20
-10.0171545621
 10
13.6721030107
 20
-10.0076963232
 10
13.6668914479
 20
-9.9984407217
 10
13.6611789043
 20
-9.989408647
 10
13.654978273
 20
-9.9806204838
 10
13.6483035482
 20
-9.9720960667
 10
13.6411697946
 20
-9.9638546347
 10
13.6335931125
 20
-9.9559147881
 10
13.625590602
 20
-9.9482944469
 10
13.6171803244
 20
-9.9410108096
 10
13.6083812612
 20
-9.9340803149
 10
13.5992132713
 20
-9.9275186047
 10
13.5896970463
 20
-9.9213404883
 10
13.5798540638
 20
-9.9155599092
 10
13.5697065389
 20
-9.9101899141
 10
13.5592773738
 20
-9.9052426225
 10
13.5485901066
 20
-9.9007292004
 10
13.5376688579
 20
-9.8966598341
 10
13.5265382762
 20
-9.893043708
 10
13.5152234826
 20
-9.8898889835
 10
13.503750014
 20
-9.8872027807
 10
13.4921437652
 20
-9.884991162
 10
13.4804309309
 20
-9.8832591191
 10
13.4686379462
 20
-9.882010561
 10
13.4567914273
 20
-9.8812483057
 10
13.4449181111
 20
-9.8809740735
  0
LINE
  5
3A5
100
AcDbEntity
  8
CURVE
100
AcDbLine
 62
253
  6
CONTINUOUS
 10
11.9492857143
 20
8.5730474715
 11
11.9492857143
 21
8.4801906828
  0
LINE
  5
3A6
100
AcDbEntity
  8
CURVE
100
AcDbLine
 62
253
  6
CONTINUOUS
 10
11.9492857143
 20
2.382571495
 11
11.9492857143
 21
2.2897142414
  0
LINE
  5
3A7
100
AcDbEntity
  8
CURVE
100
AcDbLine
 62
253
  6
CONTINUOUS
 10
11.9492857143
 20
1.6397142414
 11
11.9492857143
 21
0.9897143189
  0
LINE
  5
3A8
100
AcDbEntity
  8
CURVE
100
AcDbLine
 62
253
  6
CONTINUOUS
 10
11.9492857143
 20
7.36590488
 11
11.9492857143
 21
7.6444764857
  0
LINE
  5
3A9
100
AcDbEntity
  8
CURVE
100
AcDbLine
 62
253
  6
CONTINUOUS
 10
11.9492857143
 20
10.2444764857
 11
11.9492857143
 21
10.8016184572
  0
LINE
  5
3AA
100
AcDbEntity
  8
CURVE
100
AcDbLine
 62
253
  6
CONTINUOUS
 10
12.4492857143
 20
14.2468571429
 11
12.4492857143
 21
14.4343571429
  0
LINE
  5
3AB
100
AcDbEntity
  8
0
100
AcDbLine
 62
7
  6
CONTINUOUS
 10
12.7167407792
 20
-7.6582562673
 11
12.7167407792
 21
-7.1618697249
  0
LINE
  5
3AC
100
AcDbEntity
  8
0
100
AcDbLine
 62
7
  6
CONTINUOUS
 10
12.7167407792
 20
34.6555840106
 11
12.7167407792
 21
35.151970553
  0
LINE
  5
3AD
100
AcDbEntity
  8
0
100
AcDbLine
 62
7
  6
CONTINUOUS
 10
12.8827162125
 20
35.330287641
 11
12.8827162125
 21
35.3179459863
  0
LINE
  5
3AE
100
AcDbEntity
  8
0
100
AcDbLine
 62
7
  6
CONTINUOUS
 10
12.8827162125
 20
34.6555840106
 11
12.8827162125
 21
34.6468571429
  0
LINE
  5
3AF
100
AcDbEntity
  8
0
100
AcDbLine
 62
7
  6
CONTINUOUS
 10
12.8827162125
 20
-7.1531428571
 11
12.8827162125
 21
-7.1618697249
  0
LINE
  5
3B0
100
AcDbEntity
  8
0
100
AcDbLine
 62
7
  6
CONTINUOUS
 10
12.8827162125
 20
-7.8242317005
 11
12.8827162125
 21
-7.8365733553
  0
LINE
  5
3B1
100
AcDbEntity
  8
0
100
AcDbLine
 62
253
  6
CONTINUOUS
 10
12.8827162125
 20
-7.7068782843
 11
12.8827162125
 21
-7.2448511214
  0
LINE
  5
3B2
100
AcDbEntity
  8
0
100
AcDbLine
 62
253
  6
CONTINUOUS
 10
12.8827162125
 20
34.7385654071
 11
12.8827162125
 21
35.20059257
  0
LINE
  5
3B3
100
AcDbEntity
  8
CURVE
100
AcDbLine
 62
253
  6
CONTINUOUS
 10
13.0492857143
 20
4.2468571429
 11
13.0492857143
 21
4.9254285876
  0
LINE
  5
3B4
100
AcDbEntity
  8
CURVE
100
AcDbLine
 62
253
  6
CONTINUOUS
 10
13.0492857143
 20
14.5182857264
 11
13.0492857143
 21
15.0611428652
  0
LINE
  5
3B5
100
AcDbEntity
  8
0
100
AcDbLine
 62
253
  6
CONTINUOUS
 10
13.3826400601
 20
-7.5891298058
 11
13.3826400601
 21
-7.2491384028
  0
LINE
  5
3B6
100
AcDbEntity
  8
0
100
AcDbLine
 62
253
  6
CONTINUOUS
 10
13.3826400601
 20
34.7428526886
 11
13.3826400601
 21
35.0828440915
  0
LINE
  5
3B7
100
AcDbEntity
  8
0
100
AcDbLine
 62
253
  6
CONTINUOUS
 10
13.4449181111
 20
-10.7487710231
 11
13.4449181111
 21
-9.8809740735
  0
LINE
  5
3B8
100
AcDbEntity
  8
0
100
AcDbLine
 62
253
  6
CONTINUOUS
 10
13.4449181111
 20
37.3746883592
 11
13.4449181111
 21
38.2424853089
  0
LINE
  5
3B9
100
AcDbEntity
  8
0
100
AcDbLine
 62
7
  6
CONTINUOUS
 10
13.5126300779
 20
-7.1031428571
 11
13.5126300779
 21
-5.9164872208
  0
LINE
  5
3BA
100
AcDbEntity
  8
DRAFT
100
AcDbLine
 62
7
  6
CONTINUOUS
 10
13.5126300779
 20
-7.1031428571
 11
13.5126300779
 21
-5.9164872208
  0
LINE
  5
3BB
100
AcDbEntity
  8
0
100
AcDbLine
 62
7
  6
CONTINUOUS
 10
13.5126300779
 20
33.4102015065
 11
13.5126300779
 21
34.5968571429
  0
LINE
  5
3BC
100
AcDbEntity
  8
DRAFT
100
AcDbLine
 62
7
  6
CONTINUOUS
 10
13.5126300779
 20
33.4102015065
 11
13.5126300779
 21
34.5968571429
  0
LINE
  5
3BD
100
AcDbEntity
  8
0
100
AcDbLine
 62
7
  6
CONTINUOUS
 10
13.5492857143
 20
-7.1031428571
 11
13.5492857143
 21
-5.9531428571
  0
LINE
  5
3BE
100
AcDbEntity
  8
DRAFT
100
AcDbLine
 62
7
  6
CONTINUOUS
 10
13.5492857143
 20
-7.1031428571
 11
13.5492857143
 21
-5.9531428571
  0
LINE
  5
3BF
100
AcDbEntity
  8
0
100
AcDbLine
 62
7
  6
CONTINUOUS
 10
13.5492857143
 20
33.4468571429
 11
13.5492857143
 21
34.5968571429
  0
LINE
  5
3C0
100
AcDbEntity
  8
DRAFT
100
AcDbLine
 62
7
  6
CONTINUOUS
 10
13.5492857143
 20
33.4468571429
 11
13.5492857143
 21
34.5968571429
  0
LWPOLYLINE
  5
3C1
100
AcDbEntity
  8
0
100
AcDbPolyline
 62
253
  6
CONTINUOUS
 90
34
 70
0
 10
13.6949138803
 20
37.5911947102
 10
13.6945977531
 20
37.5809209324
 10
13.6937188408
 20
37.5706680219
 10
13.6922787493
 20
37.5604591121
 10
13.6902801833
 20
37.5503165128
 10
13.6877273675
 20
37.5402639231
 10
13.6846264474
 20
37.5303263025
 10
13.6809847393
 20
37.5205268702
 10
13.676810234
 20
37.5108869345
 10
13.6721122533
 20
37.5014280639
 10
13.6669012968
 20
37.4921714969
 10
13.6611891556
 20
37.4831382685
 10
13.6549888234
 20
37.4743489572
 10
13.6483143474
 20
37.4658234654
 10
13.6411807495
 20
37.4575809716
 10
13.6336041155
 20
37.4496400643
 10
13.6256015333
 20
37.4420186596
 10
13.617191075
 20
37.4347339753
 10
13.6083917426
 20
37.427802472
 10
13.5992234057
 20
37.421239801
 10
13.5897067539
 20
37.4150607709
 10
13.5798632689
 20
37.4092793297
 10
13.5697151701
 20
37.4039085277
 10
13.5592853652
 20
37.3989604888
 10
13.5485973978
 20
37.3944463822
 10
13.5376753812
 20
37.3903763934
 10
13.526543982
 20
37.386759715
 10
13.5152283676
 20
37.3836045214
 10
13.5037541097
 20
37.3809179356
 10
13.492147084
 20
37.3787060091
 10
13.4804334503
 20
37.3769737243
 10
13.4686396354
 20
37.3757249904
 10
13.4567922748
 20
37.3749626285
 10
13.4449181111
 20
37.3746883592
  0
LINE
  5
3C2
100
AcDbEntity
  8
CURVE
100
AcDbLine
 62
253
  6
CONTINUOUS
 10
12.3867857143
 20
14.0593571429
 11
12.4492857143
 21
14.2468571429
  0
LINE
  5
3C3
100
AcDbEntity
  8
CURVE
100
AcDbLine
 62
253
  6
CONTINUOUS
 10
12.3242857143
 20
13.9343571429
 11
12.3867857143
 21
14.0593571429
  0
LINE
  5
3C4
100
AcDbEntity
  8
CURVE
100
AcDbLine
 62
253
  6
CONTINUOUS
 10
11.1367857143
 20
13.9968571429
 11
11.1992857143
 21
14.0593571429
  0
LINE
  5
3C5
100
AcDbEntity
  8
CURVE
100
AcDbLine
 62
253
  6
CONTINUOUS
 10
13.0492857143
 20
15.0611428652
 11
13.1850000485
 21
15.1968571429
  0
LINE
  5
3C6
100
AcDbEntity
  8
CURVE
100
AcDbLine
 62
253
  6
CONTINUOUS
 10
12.1992857143
 20
13.8093571429
 11
12.3242857143
 21
13.9343571429
  0
LINE
  5
3C7
100
AcDbEntity
  8
CURVE
100
AcDbLine
 62
253
  6
CONTINUOUS
 10
11.0117857143
 20
13.9343571429
 11
11.1367857143
 21
13.9968571429
  0
LINE
  5
3C8
100
AcDbEntity
  8
CURVE
100
AcDbLine
 62
253
  6
CONTINUOUS
 10
14.9492857143
 20
10.0968571429
 11
13.0492857143
 21
10.0968571429
  0
LINE
  5
3C9
100
AcDbEntity
  8
0
100
AcDbLine
 62
7
  6
CONTINUOUS
 10
20.3492857143
 20
11.2468571429
 11
17.4092857143
 21
11.2468571429
  0
LINE
  5
3CA
100
AcDbEntity
  8
SMUSSO
100
AcDbLine
 62
7
  6
CONTINUOUS
 10
16.6992857143
 20
11.4968571429
 11
20.6992857143
 21
11.4968571429
  0
LINE
  5
3CB
100
AcDbEntity
  8
ASSI
100
AcDbLine
 62
7
  6
CONTINUOUS
 10
16.6992857143
 20
11.4968571429
 11
20.6992857143
 21
11.4968571429
  0
LINE
  5
3CC
100
AcDbEntity
  8
RACCORDO
100
AcDbLine
 62
7
  6
CONTINUOUS
 10
31.6623645925
 20
11.8968571429
 11
30.7492857143
 21
11.8968571429
  0
LINE
  5
3CD
100
AcDbEntity
  8
ASSI
100
AcDbLine
 62
7
  6
CONTINUOUS
 10
31.6623645925
 20
11.8968571429
 11
30.7492857143
 21
11.8968571429
  0
LINE
  5
3CE
100
AcDbEntity
  8
CURVE
100
AcDbLine
 62
253
  6
CONTINUOUS
 10
31.9953192365
 20
11.9230474864
 11
31.9823545912
 21
11.9230474864
  0
LINE
  5
3CF
100
AcDbEntity
  8
SMUSSO
100
AcDbLine
 62
7
  6
CONTINUOUS
 10
16.1992857143
 20
11.9968571429
 11
21.1992857143
 21
11.9968571429
  0
LINE
  5
3D0
100
AcDbEntity
  8
ASSI
100
AcDbLine
 62
7
  6
CONTINUOUS
 10
16.1992857143
 20
11.9968571429
 11
21.1992857143
 21
11.9968571429
  0
LWPOLYLINE
  5
3D1
100
AcDbEntity
  8
CURVE
100
AcDbPolyline
 62
7
  6
CONTINUOUS
 90
18
 70
0
 10
32.0477890822
 20
1.8635472954
 10
32.0482418012
 20
1.8633331864
 10
32.0486955731
 20
1.8626871267
 10
32.0491501242
 20
1.8616035176
 10
32.0496051806
 20
1.8600767604
 10
32.0500604686
 20
1.8581012562
 10
32.0505157146
 20
1.8556714062
 10
32.0509706446
 20
1.8527816116
 10
32.0514249849
 20
1.8494262738
 10
32.0518784618
 20
1.8455997938
 10
32.0523308015
 20
1.8412965729
 10
32.0527817302
 20
1.8365110123
 10
32.0532309742
 20
1.8312375132
 10
32.0536782598
 20
1.8254704769
 10
32.054123313
 20
1.8192043045
 10
32.0545658602
 20
1.8124333973
 10
32.0550056277
 20
1.8051521564
 10
32.0554423416
 20
1.7973549831
  0
LINE
  5
3D2
100
AcDbEntity
  8
CURVE
100
AcDbLine
 62
253
  6
CONTINUOUS
 10
10.6367857143
 20
14.1218571429
 11
10.7617857143
 21
13.9968571429
  0
LINE
  5
3D3
100
AcDbEntity
  8
CURVE
100
AcDbLine
 62
253
  6
CONTINUOUS
 10
11.5117857143
 20
13.9343571429
 11
11.6367857143
 21
13.8093571429
  0
LINE
  5
3D4
100
AcDbEntity
  8
CURVE
100
AcDbLine
 62
253
  6
CONTINUOUS
 10
12.3867857143
 20
14.6843571429
 11
12.2617857143
 21
14.8718571429
  0
LINE
  5
3D5
100
AcDbEntity
  8
CURVE
100
AcDbLine
 62
253
  6
CONTINUOUS
 10
11.3867857143
 20
14.1843571429
 11
11.5117857143
 21
13.9343571429
  0
LINE
  5
3D6
100
AcDbEntity
  8
CURVE
100
AcDbLine
 62
253
  6
CONTINUOUS
 10
11.3242857143
 20
14.4343571429
 11
11.3867857143
 21
14.1843571429
  0
LINE
  5
3D7
100
AcDbEntity
  8
CURVE
100
AcDbLine
 62
253
  6
CONTINUOUS
 10
12.4492857143
 20
14.4343571429
 11
12.3867857143
 21
14.6843571429
  0
LWPOLYLINE
  5
3D8
100
AcDbEntity
  8
0
100
AcDbPolyline
 62
7
  6
CONTINUOUS
 90
34
 70
0
 10
13.6949138803
 20
37.9924895396
 10
13.6946303295
 20
38.0043845612
 10
13.6937811245
 20
38.0162526378
 10
13.6923681891
 20
38.0280668857
 10
13.6903947239
 20
38.039800543
 10
13.6878651991
 20
38.0514270302
 10
13.6847853447
 20
38.0629200108
 10
13.6811621373
 20
38.0742534506
 10
13.6770037843
 20
38.0854016769
 10
13.6723197052
 20
38.0963394363
 10
13.6671205105
 20
38.1070419525
 10
13.6614179777
 20
38.1174849817
 10
13.6552250241
 20
38.1276448683
 10
13.6485556783
 20
38.1374985978
 10
13.6414250477
 20
38.1470238493
 10
13.633849285
 20
38.156199046
 10
13.6258455507
 20
38.1650034039
 10
13.6174319753
 20
38.1734169793
 10
13.6086276174
 20
38.1814207135
 10
13.5994524207
 20
38.1889964763
 10
13.5899271692
 20
38.1961271068
 10
13.5800734397
 20
38.2027964527
 10
13.5699135532
 20
38.2089894062
 10
13.5594705239
 20
38.2146919391
 10
13.5487680077
 20
38.2198911337
 10
13.5378302483
 20
38.2245752128
 10
13.5266820221
 20
38.2287335659
 10
13.5153485823
 20
38.2323567733
 10
13.5038556016
 20
38.2354366276
 10
13.4922291144
 20
38.2379661524
 10
13.4804954572
 20
38.2399396177
 10
13.4686812093
 20
38.2413525531
 10
13.4568131326
 20
38.242201758
 10
13.4449181111
 20
38.2424853089
  0
LWPOLYLINE
  5
3D9
100
AcDbEntity
  8
0
100
AcDbPolyline
 62
7
  6
CONTINUOUS
 90
4
 70
0
 10
13.6992857143
 20
37.9968613736
 10
13.699002564
 20
38.0087566589
 10
13.6981537485
 20
38.0206249984
 10
13.6967411884
 20
38.032439509
  0
LINE
  5
3DA
100
AcDbEntity
  8
0
100
AcDbLine
 62
253
  6
CONTINUOUS
 10
13.4449181111
 20
37.3746883592
 11
13.4500087122
 21
36.8695068737
  0
LINE
  5
3DB
100
AcDbEntity
  8
0
100
AcDbLine
 62
253
  6
CONTINUOUS
 10
13.6949138803
 20
37.5911947102
 11
13.6992857143
 21
37.1573422911
  0
LINE
  5
3DC
100
AcDbEntity
  8
DRAFT
100
AcDbLine
 62
7
  6
CONTINUOUS
 10
13.6492857143
 20
-7.1531428571
 11
13.6492857143
 21
-6.2531428571
  0
LINE
  5
3DD
100
AcDbEntity
  8
DRAFT
100
AcDbLine
 62
7
  6
CONTINUOUS
 10
13.6492857143
 20
33.7468571429
 11
13.6492857143
 21
34.6468571429
  0
LINE
  5
3DE
100
AcDbEntity
  8
DRAFT
100
AcDbLine
 62
7
  6
CONTINUOUS
 10
13.6536491482
 20
-5.957506291
 11
13.6536491482
 21
-6.2531428571
  0
LINE
  5
3DF
100
AcDbEntity
  8
DRAFT
100
AcDbLine
 62
7
  6
CONTINUOUS
 10
13.6536491482
 20
33.4512205768
 11
13.6536491482
 21
33.7468571429
  0
LINE
  5
3E0
100
AcDbEntity
  8
0
100
AcDbLine
 62
7
  6
CONTINUOUS
 10
13.6949138803
 20
-10.4987752539
 11
13.6949138803
 21
-10.0974804244
  0
LINE
  5
3E1
100
AcDbEntity
  8
0
100
AcDbLine
 62
7
  6
CONTINUOUS
 10
13.6949138803
 20
37.5911947102
 11
13.6949138803
 21
37.9924895396
  0
LINE
  5
3E2
100
AcDbEntity
  8
0
100
AcDbLine
 62
7
  6
CONTINUOUS
 10
13.6992857143
 20
-10.0974804244
 11
13.6992857143
 21
-8.6531428571
  0
LINE
  5
3E3
100
AcDbEntity
  8
0
100
AcDbLine
 62
7
  6
CONTINUOUS
 10
13.6992857143
 20
36.1468571429
 11
13.6992857143
 21
37.5911947102
  0
LINE
  5
3E4
100
AcDbEntity
  8
DRAFT
100
AcDbLine
 62
7
  6
CONTINUOUS
 10
13.7540081278
 20
34.7428526886
 11
13.7540081278
 21
33.5515795563
  0
LINE
  5
3E5
100
AcDbEntity
  8
DRAFT
100
AcDbLine
 62
7
  6
CONTINUOUS
 10
13.7540081278
 20
-6.0578652706
 11
13.7540081278
 21
-7.2491384028
  0
LINE
  5
3E6
100
AcDbEntity
  8
CURVE
100
AcDbLine
 62
253
  6
CONTINUOUS
 10
14.1349999919
 20
4.9254285876
 11
14.1349999919
 21
4.2468571429
  0
LINE
  5
3E7
100
AcDbEntity
  8
DRAFT
100
AcDbLine
 62
7
  6
CONTINUOUS
 10
14.3445633008
 20
33.8515795563
 11
14.3445633008
 21
33.5515795563
  0
LINE
  5
3E8
100
AcDbEntity
  8
DRAFT
100
AcDbLine
 62
7
  6
CONTINUOUS
 10
14.3445633008
 20
-6.0578652706
 11
14.3445633008
 21
-6.3578652706
  0
LINE
  5
3E9
100
AcDbEntity
  8
DRAFT
100
AcDbLine
 62
7
  6
CONTINUOUS
 10
14.4449222804
 20
33.7512205768
 11
14.4449222804
 21
33.4512205768
  0
LINE
  5
3EA
100
AcDbEntity
  8
DRAFT
100
AcDbLine
 62
7
  6
CONTINUOUS
 10
14.4449222804
 20
-5.957506291
 11
14.4449222804
 21
-6.257506291
  0
LINE
  5
3EB
100
AcDbEntity
  8
CURVE
100
AcDbLine
 62
253
  6
CONTINUOUS
 10
14.9492857143
 20
-0.5531428571
 11
14.9492857143
 21
0.1254285876
  0
LINE
  5
3EC
100
AcDbEntity
  8
CURVE
100
AcDbLine
 62
253
  6
CONTINUOUS
 10
14.9492857143
 20
14.3825714346
 11
14.9492857143
 21
14.9254285876
  0
LINE
  5
3ED
100
AcDbEntity
  8
0
100
AcDbLine
 62
253
  6
CONTINUOUS
 10
13.4500087122
 20
-9.375792588
 11
13.4449181111
 21
-9.8809740735
  0
LINE
  5
3EE
100
AcDbEntity
  8
0
100
AcDbLine
 62
253
  6
CONTINUOUS
 10
13.6992857143
 20
-9.6636280054
 11
13.6949138803
 21
-10.0974804244
  0
LWPOLYLINE
  5
3EF
100
AcDbEntity
  8
0
100
AcDbPolyline
 62
253
  6
CONTINUOUS
 90
4
 70
0
 10
22.93153216
 20
31.2059200487
 10
22.9096708898
 20
31.1635918125
 10
22.8797456493
 20
31.1250707212
 10
22.842607905
 20
31.0916713138
  0
LWPOLYLINE
  5
3F0
100
AcDbEntity
  8
RACCORDO
100
AcDbPolyline
 62
253
  6
CONTINUOUS
 90
4
 70
0
 10
22.93153216
 20
31.2059200487
 10
22.9096708898
 20
31.1635918125
 10
22.8797456493
 20
31.1250707212
 10
22.842607905
 20
31.0916713138
  0
LWPOLYLINE
  5
3F1
100
AcDbEntity
  8
0
100
AcDbPolyline
 62
7
  6
CONTINUOUS
 90
5
 70
0
 10
28.7669724221
 20
35.4442464051
 10
28.7403235707
 20
35.4048490936
 10
28.713316238
 20
35.3651163445
 10
28.685950424
 20
35.325126264
 10
28.6581630198
 20
35.2849951033
  0
LWPOLYLINE
  5
3F2
100
AcDbEntity
  8
0
100
AcDbPolyline
 62
7
  6
CONTINUOUS
 90
4
 70
0
 10
28.6581630198
 20
35.2849951033
 10
28.573281007
 20
35.1638536996
 10
28.5446907653
 20
35.1233230172
 10
28.5159313685
 20
35.0828440915
  0
LINE
  5
3F3
100
AcDbEntity
  8
CURVE
100
AcDbLine
 62
253
  6
CONTINUOUS
 10
14.4064285472
 20
15.1968571429
 11
13.5921428248
 21
14.2468571429
  0
LINE
  5
3F4
100
AcDbEntity
  8
CURVE
100
AcDbLine
 62
253
  6
CONTINUOUS
 10
14.8135714225
 20
14.2468571429
 11
14.9492857143
 21
14.3825714346
  0
LINE
  5
3F5
100
AcDbEntity
  8
CURVE
100
AcDbLine
 62
253
  6
CONTINUOUS
 10
12.0117857143
 20
13.7468571429
 11
12.1992857143
 21
13.8093571429
  0
LINE
  5
3F6
100
AcDbEntity
  8
SMUSSO
100
AcDbLine
 62
7
  6
CONTINUOUS
 10
21.1992857143
 20
12.2468571429
 11
16.1992857143
 21
12.2468571429
  0
LINE
  5
3F7
100
AcDbEntity
  8
ASSI
100
AcDbLine
 62
7
  6
CONTINUOUS
 10
21.1992857143
 20
12.2468571429
 11
16.1992857143
 21
12.2468571429
  0
LINE
  5
3F8
100
AcDbEntity
  8
CURVE
100
AcDbLine
 62
253
  6
CONTINUOUS
 10
32.041692773
 20
12.5123333053
 11
32.0643809014
 21
12.5123333053
  0
LINE
  5
3F9
100
AcDbEntity
  8
RACCORDO
100
AcDbLine
 62
7
  6
CONTINUOUS
 10
31.6623645925
 20
12.5968571429
 11
30.7492857143
 21
12.5968571429
  0
LINE
  5
3FA
100
AcDbEntity
  8
ASSI
100
AcDbLine
 62
7
  6
CONTINUOUS
 10
31.6623645925
 20
12.5968571429
 11
30.7492857143
 21
12.5968571429
  0
LINE
  5
3FB
100
AcDbEntity
  8
SMUSSO
100
AcDbLine
 62
7
  6
CONTINUOUS
 10
20.6992857143
 20
12.7468571429
 11
16.6992857143
 21
12.7468571429
  0
LINE
  5
3FC
100
AcDbEntity
  8
ASSI
100
AcDbLine
 62
7
  6
CONTINUOUS
 10
20.6992857143
 20
12.7468571429
 11
16.6992857143
 21
12.7468571429
  0
LINE
  5
3FD
100
AcDbEntity
  8
CURVE
100
AcDbLine
 62
253
  6
CONTINUOUS
 10
32.0611397404
 20
13.0122144119
 11
32.0449339344
 21
13.0122144119
  0
LINE
  5
3FE
100
AcDbEntity
  8
CURVE
100
AcDbLine
 62
253
  6
CONTINUOUS
 10
32.0050427195
 20
13.1301903878
 11
31.9823545912
 21
13.1301903878
  0
LINE
  5
3FF
100
AcDbEntity
  8
0
100
AcDbLine
 62
7
  6
CONTINUOUS
 10
17.4092857143
 20
13.2468571429
 11
20.3492857143
 21
13.2468571429
  0
LINE
  5
400
100
AcDbEntity
  8
CURVE
100
AcDbLine
 62
253
  6
CONTINUOUS
 10
32.0120236821
 20
13.3087618385
 11
32.0347118105
 21
13.3087618385
  0
LINE
  5
401
100
AcDbEntity
  8
CURVE
100
AcDbLine
 62
253
  6
CONTINUOUS
 10
32.041692773
 20
13.6297142647
 11
32.0643809014
 21
13.6297142647
  0
LINE
  5
402
100
AcDbEntity
  8
CURVE
100
AcDbLine
 62
253
  6
CONTINUOUS
 10
11.8242857143
 20
13.7468571429
 11
12.0117857143
 21
13.7468571429
  0
LINE
  5
403
100
AcDbEntity
  8
CURVE
100
AcDbLine
 62
253
  6
CONTINUOUS
 10
10.9492857143
 20
13.9343571429
 11
11.0117857143
 21
13.9343571429
  0
LINE
  5
404
100
AcDbEntity
  8
CURVE
100
AcDbLine
 62
253
  6
CONTINUOUS
 10
32.0120236821
 20
13.958761916
 11
32.0347118105
 21
13.958761916
  0
LINE
  5
405
100
AcDbEntity
  8
CURVE
100
AcDbLine
 62
253
  6
CONTINUOUS
 10
10.7617857143
 20
13.9968571429
 11
10.9492857143
 21
13.9343571429
  0
LINE
  5
406
100
AcDbEntity
  8
CURVE
100
AcDbLine
 62
253
  6
CONTINUOUS
 10
11.6367857143
 20
13.8093571429
 11
11.8242857143
 21
13.7468571429
  0
LINE
  5
407
100
AcDbEntity
  8
CURVE
100
AcDbLine
 62
253
  6
CONTINUOUS
 10
12.2617857143
 20
14.8718571429
 11
12.1367857143
 21
14.9968571429
  0
LINE
  5
408
100
AcDbEntity
  8
CURVE
100
AcDbLine
 62
253
  6
CONTINUOUS
 10
13.3207142695
 20
14.2468571429
 11
13.0492857143
 21
14.5182857264
  0
LINE
  5
409
100
AcDbEntity
  8
SMUSSO
100
AcDbLine
 62
7
  6
CONTINUOUS
 10
16.1992857143
 20
11.9968571429
 11
16.6992857143
 21
11.4968571429
  0
LINE
  5
40A
100
AcDbEntity
  8
ASSI
100
AcDbLine
 62
7
  6
CONTINUOUS
 10
16.1992857143
 20
11.9968571429
 11
16.6992857143
 21
11.4968571429
  0
LINE
  5
40B
100
AcDbEntity
  8
SMUSSO
100
AcDbLine
 62
7
  6
CONTINUOUS
 10
21.1992857143
 20
7.4968571429
 11
20.6992857143
 21
7.9968571429
  0
LINE
  5
40C
100
AcDbEntity
  8
ASSI
100
AcDbLine
 62
7
  6
CONTINUOUS
 10
21.1992857143
 20
7.4968571429
 11
20.6992857143
 21
7.9968571429
  0
LWPOLYLINE
  5
40D
100
AcDbEntity
  8
0
100
AcDbPolyline
 62
7
  6
CONTINUOUS
 90
3
 70
0
 10
28.5159313685
 20
-7.5891298058
 10
28.5446907653
 20
-7.6296087315
 10
28.573281007
 20
-7.6701394139
  0
LWPOLYLINE
  5
40E
100
AcDbEntity
  8
0
100
AcDbPolyline
 62
7
  6
CONTINUOUS
 90
6
 70
0
 10
28.573281007
 20
-7.6701394139
 10
28.6581630198
 20
-7.7912808176
 10
28.685950424
 20
-7.8314119783
 10
28.713316238
 20
-7.8714020588
 10
28.7403235707
 20
-7.9111348079
 10
28.7669724221
 20
-7.9505321193
  0
LINE
  5
40F
100
AcDbEntity
  8
SMUSSO
100
AcDbLine
 62
7
  6
CONTINUOUS
 10
16.1992857143
 20
-2.5031428571
 11
16.1992857143
 21
1.9968571429
  0
LINE
  5
410
100
AcDbEntity
  8
ASSI
100
AcDbLine
 62
7
  6
CONTINUOUS
 10
16.1992857143
 20
-2.5031428571
 11
16.1992857143
 21
1.9968571429
  0
LINE
  5
411
100
AcDbEntity
  8
SMUSSO
100
AcDbLine
 62
7
  6
CONTINUOUS
 10
16.1992857143
 20
2.4968571429
 11
16.1992857143
 21
6.9968571429
  0
LINE
  5
412
100
AcDbEntity
  8
ASSI
100
AcDbLine
 62
7
  6
CONTINUOUS
 10
16.1992857143
 20
2.4968571429
 11
16.1992857143
 21
6.9968571429
  0
LINE
  5
413
100
AcDbEntity
  8
SMUSSO
100
AcDbLine
 62
7
  6
CONTINUOUS
 10
16.1992857143
 20
7.4968571429
 11
16.1992857143
 21
11.9968571429
  0
LINE
  5
414
100
AcDbEntity
  8
ASSI
100
AcDbLine
 62
7
  6
CONTINUOUS
 10
16.1992857143
 20
7.4968571429
 11
16.1992857143
 21
11.9968571429
  0
LINE
  5
415
100
AcDbEntity
  8
SMUSSO
100
AcDbLine
 62
7
  6
CONTINUOUS
 10
16.1992857143
 20
12.2468571429
 11
16.1992857143
 21
17.2468571429
  0
LINE
  5
416
100
AcDbEntity
  8
ASSI
100
AcDbLine
 62
7
  6
CONTINUOUS
 10
16.1992857143
 20
12.2468571429
 11
16.1992857143
 21
17.2468571429
  0
LINE
  5
417
100
AcDbEntity
  8
0
100
AcDbLine
 62
7
  6
CONTINUOUS
 10
16.4992857143
 20
37.7468571429
 11
16.4992857143
 21
37.11480209
  0
LINE
  5
418
100
AcDbEntity
  8
0
100
AcDbLine
 62
7
  6
CONTINUOUS
 10
16.4992857143
 20
36.6789121957
 11
16.4992857143
 21
36.1468571429
  0
LINE
  5
419
100
AcDbEntity
  8
0
100
AcDbLine
 62
7
  6
CONTINUOUS
 10
16.4992857143
 20
-8.6531428571
 11
16.4992857143
 21
-9.18519791
  0
LINE
  5
41A
100
AcDbEntity
  8
0
100
AcDbLine
 62
7
  6
CONTINUOUS
 10
16.4992857143
 20
-9.6210878043
 11
16.4992857143
 21
-10.2531428571
  0
LINE
  5
41B
100
AcDbEntity
  8
0
100
AcDbLine
 62
7
  6
CONTINUOUS
 10
16.5432079613
 20
37.7007494159
 11
16.5432079613
 21
36.1029348958
  0
LINE
  5
41C
100
AcDbEntity
  8
0
100
AcDbLine
 62
7
  6
CONTINUOUS
 10
16.5432079613
 20
-8.6092206101
 11
16.5432079613
 21
-10.2070351302
  0
LINE
  5
41D
100
AcDbEntity
  8
SMUSSO
100
AcDbLine
 62
7
  6
CONTINUOUS
 10
16.6992857143
 20
-2.0031428571
 11
16.6992857143
 21
1.4968571429
  0
LINE
  5
41E
100
AcDbEntity
  8
ASSI
100
AcDbLine
 62
7
  6
CONTINUOUS
 10
16.6992857143
 20
-2.0031428571
 11
16.6992857143
 21
1.4968571429
  0
LINE
  5
41F
100
AcDbEntity
  8
SMUSSO
100
AcDbLine
 62
7
  6
CONTINUOUS
 10
16.6992857143
 20
2.9968571429
 11
16.6992857143
 21
6.4968571429
  0
LINE
  5
420
100
AcDbEntity
  8
ASSI
100
AcDbLine
 62
7
  6
CONTINUOUS
 10
16.6992857143
 20
2.9968571429
 11
16.6992857143
 21
6.4968571429
  0
LINE
  5
421
100
AcDbEntity
  8
SMUSSO
100
AcDbLine
 62
7
  6
CONTINUOUS
 10
16.6992857143
 20
7.9968571429
 11
16.6992857143
 21
11.4968571429
  0
LINE
  5
422
100
AcDbEntity
  8
ASSI
100
AcDbLine
 62
7
  6
CONTINUOUS
 10
16.6992857143
 20
7.9968571429
 11
16.6992857143
 21
11.4968571429
  0
LINE
  5
423
100
AcDbEntity
  8
SMUSSO
100
AcDbLine
 62
7
  6
CONTINUOUS
 10
16.6992857143
 20
12.7468571429
 11
16.6992857143
 21
16.7468571429
  0
LINE
  5
424
100
AcDbEntity
  8
ASSI
100
AcDbLine
 62
7
  6
CONTINUOUS
 10
16.6992857143
 20
12.7468571429
 11
16.6992857143
 21
16.7468571429
  0
LINE
  5
425
100
AcDbEntity
  8
0
100
AcDbLine
 62
7
  6
CONTINUOUS
 10
17.4092857143
 20
16.7468571429
 11
17.4092857143
 21
12.7468571429
  0
LINE
  5
426
100
AcDbEntity
  8
0
100
AcDbLine
 62
7
  6
CONTINUOUS
 10
17.4092857143
 20
11.4968571429
 11
17.4092857143
 21
7.9968571429
  0
LINE
  5
427
100
AcDbEntity
  8
0
100
AcDbLine
 62
7
  6
CONTINUOUS
 10
17.4092857143
 20
6.4968571429
 11
17.4092857143
 21
2.9968571429
  0
LINE
  5
428
100
AcDbEntity
  8
0
100
AcDbLine
 62
7
  6
CONTINUOUS
 10
17.4092857143
 20
1.4968571429
 11
17.4092857143
 21
-2.0031428571
  0
LINE
  5
429
100
AcDbEntity
  8
0
100
AcDbLine
 62
7
  6
CONTINUOUS
 10
17.4492857143
 20
33.6468571429
 11
17.4492857143
 21
33.4468571429
  0
LINE
  5
42A
100
AcDbEntity
  8
DRAFT
100
AcDbLine
 62
7
  6
CONTINUOUS
 10
17.4492857143
 20
33.6468571429
 11
17.4492857143
 21
33.4468571429
  0
LINE
  5
42B
100
AcDbEntity
  8
0
100
AcDbLine
 62
7
  6
CONTINUOUS
 10
17.4492857143
 20
-5.9531428571
 11
17.4492857143
 21
-6.1531428571
  0
LINE
  5
42C
100
AcDbEntity
  8
DRAFT
100
AcDbLine
 62
7
  6
CONTINUOUS
 10
17.4492857143
 20
-5.9531428571
 11
17.4492857143
 21
-6.1531428571
  0
LINE
  5
42D
100
AcDbEntity
  8
0
100
AcDbLine
 62
7
  6
CONTINUOUS
 10
17.4859413506
 20
33.6102015065
 11
17.4859413506
 21
33.4102015065
  0
LINE
  5
42E
100
AcDbEntity
  8
DRAFT
100
AcDbLine
 62
7
  6
CONTINUOUS
 10
17.4859413506
 20
33.6102015065
 11
17.4859413506
 21
33.4102015065
  0
LINE
  5
42F
100
AcDbEntity
  8
0
100
AcDbLine
 62
7
  6
CONTINUOUS
 10
17.4859413506
 20
-5.9164872208
 11
17.4859413506
 21
-6.1164872208
  0
LINE
  5
430
100
AcDbEntity
  8
DRAFT
100
AcDbLine
 62
7
  6
CONTINUOUS
 10
17.4859413506
 20
-5.9164872208
 11
17.4859413506
 21
-6.1164872208
  0
LINE
  5
431
100
AcDbEntity
  8
CURVE
100
AcDbLine
 62
253
  6
CONTINUOUS
 10
10.6492857143
 20
8.5730474715
 11
10.8349999889
 21
8.7587616686
  0
LINE
  5
432
100
AcDbEntity
  8
CURVE
100
AcDbLine
 62
253
  6
CONTINUOUS
 10
11.9492857143
 20
8.4801906828
 11
11.7635714203
 21
8.2944764857
  0
LINE
  5
433
100
AcDbEntity
  8
CURVE
100
AcDbLine
 62
253
  6
CONTINUOUS
 10
11.3921428516
 20
7.8301906828
 11
11.2064285382
 21
7.6444764857
  0
LINE
  5
434
100
AcDbEntity
  8
SMUSSO
100
AcDbLine
 62
7
  6
CONTINUOUS
 10
21.1992857143
 20
17.2468571429
 11
20.6992857143
 21
16.7468571429
  0
LINE
  5
435
100
AcDbEntity
  8
ASSI
100
AcDbLine
 62
7
  6
CONTINUOUS
 10
21.1992857143
 20
17.2468571429
 11
20.6992857143
 21
16.7468571429
  0
LINE
  5
436
100
AcDbEntity
  8
SMUSSO
100
AcDbLine
 62
7
  6
CONTINUOUS
 10
16.1992857143
 20
12.2468571429
 11
16.6992857143
 21
12.7468571429
  0
LINE
  5
437
100
AcDbEntity
  8
ASSI
100
AcDbLine
 62
7
  6
CONTINUOUS
 10
16.1992857143
 20
12.2468571429
 11
16.6992857143
 21
12.7468571429
  0
LINE
  5
438
100
AcDbEntity
  8
CURVE
100
AcDbLine
 62
253
  6
CONTINUOUS
 10
11.7635714203
 20
7.1801906828
 11
11.9492857143
 21
7.36590488
  0
LINE
  5
439
100
AcDbEntity
  8
CURVE
100
AcDbLine
 62
253
  6
CONTINUOUS
 10
13.5921428248
 20
14.2468571429
 11
13.3207142695
 21
14.2468571429
  0
LINE
  5
43A
100
AcDbEntity
  8
CURVE
100
AcDbLine
 62
253
  6
CONTINUOUS
 10
32.0120236821
 20
14.5468571384
 11
32.0347118105
 21
14.5468571384
  0
LINE
  5
43B
100
AcDbEntity
  8
CURVE
100
AcDbLine
 62
253
  6
CONTINUOUS
 10
31.9823545912
 20
14.9873333667
 11
32.0050427195
 21
14.9873333667
  0
LINE
  5
43C
100
AcDbEntity
  8
CURVE
100
AcDbLine
 62
253
  6
CONTINUOUS
 10
32.0643809014
 20
15.0411428256
 11
32.041692773
 21
15.0411428256
  0
LINE
  5
43D
100
AcDbEntity
  8
CURVE
100
AcDbLine
 62
253
  6
CONTINUOUS
 10
14.6778571307
 20
15.1968571429
 11
14.4064285472
 21
15.1968571429
  0
LINE
  5
43E
100
AcDbEntity
  8
CURVE
100
AcDbLine
 62
253
  6
CONTINUOUS
 10
32.041692773
 20
15.7468571429
 11
32.0643809014
 21
15.7468571429
  0
LINE
  5
43F
100
AcDbEntity
  8
CURVE
100
AcDbLine
 62
253
  6
CONTINUOUS
 10
31.9823545912
 20
15.9468571384
 11
32.0050427195
 21
15.9468571384
  0
LINE
  5
440
100
AcDbEntity
  8
CURVE
100
AcDbLine
 62
253
  6
CONTINUOUS
 10
14.9492857143
 20
14.9254285876
 11
14.6778571307
 21
15.1968571429
  0
LINE
  5
441
100
AcDbEntity
  8
0
100
AcDbLine
 62
7
  6
CONTINUOUS
 10
22.9302970992
 20
-4.4531428571
 11
22.9398580619
 21
-4.4847603557
  0
LINE
  5
442
100
AcDbEntity
  8
RACCORDO
100
AcDbLine
 62
7
  6
CONTINUOUS
 10
22.9302970992
 20
-4.4531428571
 11
22.9398580619
 21
-4.4847603557
  0
LINE
  5
443
100
AcDbEntity
  8
DRAFT
100
AcDbLine
 62
7
  6
CONTINUOUS
 10
17.4491322797
 20
33.7644390084
 11
17.4487449909
 21
33.8088179042
  0
LINE
  5
444
100
AcDbEntity
  8
0
100
AcDbLine
 62
7
  6
CONTINUOUS
 10
17.4287312512
 20
36.1021653268
 11
17.414427998
 21
37.7411557979
  0
LINE
  5
445
100
AcDbEntity
  8
0
100
AcDbLine
 62
7
  6
CONTINUOUS
 10
17.9571398953
 20
34.5468571429
 11
17.9435823895
 21
36.1003934331
  0
LINE
  5
446
100
AcDbEntity
  8
0
100
AcDbLine
 62
253
  6
CONTINUOUS
 10
19.4483312879
 20
-6.3227646089
 11
19.4477614794
 21
-6.1376295368
  0
LINE
  5
447
100
AcDbEntity
  8
0
100
AcDbLine
 62
7
  6
CONTINUOUS
 10
18.4492857143
 20
-4.5531428571
 11
18.4492857143
 21
-2.8531428571
  0
LINE
  5
448
100
AcDbEntity
  8
ASSI
100
AcDbLine
 62
7
  6
CONTINUOUS
 10
18.4492857143
 20
-4.5531428571
 11
18.4492857143
 21
-2.8531428571
  0
LINE
  5
449
100
AcDbEntity
  8
0
100
AcDbLine
 62
7
  6
CONTINUOUS
 10
18.4492857143
 20
30.3468571429
 11
18.4492857143
 21
32.0468571429
  0
LINE
  5
44A
100
AcDbEntity
  8
ASSI
100
AcDbLine
 62
7
  6
CONTINUOUS
 10
18.4492857143
 20
30.3468571429
 11
18.4492857143
 21
32.0468571429
  0
LINE
  5
44B
100
AcDbEntity
  8
0
100
AcDbLine
 62
253
  6
CONTINUOUS
 10
18.8028391049
 20
-4.5531428571
 11
18.8028391049
 21
-4.4856828738
  0
LINE
  5
44C
100
AcDbEntity
  8
RACCORDO
100
AcDbLine
 62
253
  6
CONTINUOUS
 10
18.8028391049
 20
-4.5531428571
 11
18.8028391049
 21
-4.4856828738
  0
LINE
  5
44D
100
AcDbEntity
  8
0
100
AcDbLine
 62
7
  6
CONTINUOUS
 10
18.8492857143
 20
-4.4531428571
 11
18.8492857143
 21
-4.4853240592
  0
LINE
  5
44E
100
AcDbEntity
  8
0
100
AcDbLine
 62
7
  6
CONTINUOUS
 10
18.9492857143
 20
-4.486191446
 11
18.9492857143
 21
-4.4531428571
  0
LINE
  5
44F
100
AcDbEntity
  8
RACCORDO
100
AcDbLine
 62
7
  6
CONTINUOUS
 10
18.9492857143
 20
-4.486191446
 11
18.9492857143
 21
-4.4531428571
  0
LINE
  5
450
100
AcDbEntity
  8
RACCORDO
100
AcDbLine
 62
7
  6
CONTINUOUS
 10
18.9666964036
 20
32.0468571429
 11
18.9666964036
 21
31.9468571429
  0
LINE
  5
451
100
AcDbEntity
  8
ASSI
100
AcDbLine
 62
7
  6
CONTINUOUS
 10
18.9666964036
 20
32.0468571429
 11
18.9666964036
 21
31.9468571429
  0
LINE
  5
452
100
AcDbEntity
  8
RACCORDO
100
AcDbLine
 62
7
  6
CONTINUOUS
 10
19.04528126
 20
-4.4531428571
 11
19.04528126
 21
-4.5531428571
  0
LINE
  5
453
100
AcDbEntity
  8
ASSI
100
AcDbLine
 62
7
  6
CONTINUOUS
 10
19.04528126
 20
-4.4531428571
 11
19.04528126
 21
-4.5531428571
  0
LINE
  5
454
100
AcDbEntity
  8
0
100
AcDbLine
 62
253
  6
CONTINUOUS
 10
19.2492857143
 20
-3.5691107756
 11
19.2492857143
 21
-3.5031428571
  0
LINE
  5
455
100
AcDbEntity
  8
RACCORDO
100
AcDbLine
 62
253
  6
CONTINUOUS
 10
19.2492857143
 20
-3.5691107756
 11
19.2492857143
 21
-3.5031428571
  0
LINE
  5
456
100
AcDbEntity
  8
0
100
AcDbLine
 62
253
  6
CONTINUOUS
 10
19.2492857143
 20
30.9968571429
 11
19.2492857143
 21
31.0468571429
  0
LINE
  5
457
100
AcDbEntity
  8
RACCORDO
100
AcDbLine
 62
253
  6
CONTINUOUS
 10
19.2492857143
 20
30.9968571429
 11
19.2492857143
 21
31.0468571429
  0
LINE
  5
458
100
AcDbEntity
  8
0
100
AcDbLine
 62
253
  6
CONTINUOUS
 10
19.4477614794
 20
33.6313438225
 11
19.4483312879
 21
33.8164788946
  0
LINE
  5
459
100
AcDbEntity
  8
DRAFT
100
AcDbLine
 62
7
  6
CONTINUOUS
 10
17.4491322797
 20
-6.2707247227
 11
17.4487449909
 21
-6.3151036185
  0
LINE
  5
45A
100
AcDbEntity
  8
0
100
AcDbLine
 62
7
  6
CONTINUOUS
 10
17.414427998
 20
-10.2474415122
 11
17.4287312512
 21
-8.6084510411
  0
LINE
  5
45B
100
AcDbEntity
  8
0
100
AcDbLine
 62
7
  6
CONTINUOUS
 10
17.9435823895
 20
-8.6066791474
 11
17.9571398953
 21
-7.0531428571
  0
LINE
  5
45C
100
AcDbEntity
  8
0
100
AcDbLine
 62
253
  6
CONTINUOUS
 10
22.943664971
 20
31.2468571429
 11
22.93153216
 21
31.2059200487
  0
LINE
  5
45D
100
AcDbEntity
  8
RACCORDO
100
AcDbLine
 62
253
  6
CONTINUOUS
 10
22.943664971
 20
31.2468571429
 11
22.93153216
 21
31.2059200487
  0
LWPOLYLINE
  5
45E
100
AcDbEntity
  8
0
100
AcDbPolyline
 62
7
  6
CONTINUOUS
 90
9
 70
0
 10
28.2171930885
 20
38.0897755922
 10
28.2130349929
 20
38.0786271166
 10
28.2094120726
 20
38.0672934219
 10
28.2063325326
 20
38.0558001817
 10
28.2038033466
 20
38.0441734303
 10
28.2018302401
 20
38.032439509
 10
28.20041768
 20
38.0206249984
 10
28.1995688645
 20
38.0087566589
 10
28.1992857143
 20
37.9968613736
  0
LINE
  5
45F
100
AcDbEntity
  8
CURVE
100
AcDbLine
 62
253
  6
CONTINUOUS
 10
11.4540476098
 20
4.3635239128
 11
11.6397619038
 21
4.6111429457
  0
LINE
  5
460
100
AcDbEntity
  8
CURVE
100
AcDbLine
 62
253
  6
CONTINUOUS
 10
10.8349999889
 20
8.7587616686
 11
11.0207142636
 21
8.8516190771
  0
LINE
  5
461
100
AcDbEntity
  8
CURVE
100
AcDbLine
 62
253
  6
CONTINUOUS
 10
13.0492857143
 20
9.1468571429
 11
14.9492857143
 21
10.0968571429
  0
LINE
  5
462
100
AcDbEntity
  8
CURVE
100
AcDbLine
 62
253
  6
CONTINUOUS
 10
11.7635714203
 20
8.2944764857
 11
11.5778571263
 21
8.2016190771
  0
LWPOLYLINE
  5
463
100
AcDbEntity
  8
CURVE
100
AcDbPolyline
 62
7
  6
CONTINUOUS
 90
15
 70
0
 10
32.058574146
 20
20.209577169
 10
32.0583549208
 20
20.2095379434
 10
32.0581340312
 20
20.2098070329
 10
32.0579117808
 20
20.2103854991
 10
32.0576884729
 20
20.2112744036
 10
32.0574644109
 20
20.212474808
 10
32.0572398982
 20
20.213987774
 10
32.0570152383
 20
20.2158143632
 10
32.0567907346
 20
20.2179556372
 10
32.0565666905
 20
20.2204126577
 10
32.0563434094
 20
20.2231864863
 10
32.0561211947
 20
20.2262781847
 10
32.0559003499
 20
20.2296888144
 10
32.0556811783
 20
20.2334194371
 10
32.0554639834
 20
20.2374711144
  0
LINE
  5
464
100
AcDbEntity
  8
0
100
AcDbLine
 62
7
  6
CONTINUOUS
 10
20.3492857143
 20
16.2468571429
 11
17.4092857143
 21
16.2468571429
  0
LINE
  5
465
100
AcDbEntity
  8
SMUSSO
100
AcDbLine
 62
7
  6
CONTINUOUS
 10
16.6992857143
 20
16.7468571429
 11
20.6992857143
 21
16.7468571429
  0
LINE
  5
466
100
AcDbEntity
  8
ASSI
100
AcDbLine
 62
7
  6
CONTINUOUS
 10
16.6992857143
 20
16.7468571429
 11
20.6992857143
 21
16.7468571429
  0
LINE
  5
467
100
AcDbEntity
  8
RACCORDO
100
AcDbLine
 62
7
  6
CONTINUOUS
 10
31.6623645925
 20
16.8968571429
 11
30.7492857143
 21
16.8968571429
  0
LINE
  5
468
100
AcDbEntity
  8
ASSI
100
AcDbLine
 62
7
  6
CONTINUOUS
 10
31.6623645925
 20
16.8968571429
 11
30.7492857143
 21
16.8968571429
  0
LINE
  5
469
100
AcDbEntity
  8
SMUSSO
100
AcDbLine
 62
7
  6
CONTINUOUS
 10
16.1992857143
 20
17.2468571429
 11
21.1992857143
 21
17.2468571429
  0
LINE
  5
46A
100
AcDbEntity
  8
ASSI
100
AcDbLine
 62
7
  6
CONTINUOUS
 10
16.1992857143
 20
17.2468571429
 11
21.1992857143
 21
17.2468571429
  0
LINE
  5
46B
100
AcDbEntity
  8
SMUSSO
100
AcDbLine
 62
7
  6
CONTINUOUS
 10
16.1992857143
 20
17.2468571429
 11
16.6992857143
 21
16.7468571429
  0
LINE
  5
46C
100
AcDbEntity
  8
ASSI
100
AcDbLine
 62
7
  6
CONTINUOUS
 10
16.1992857143
 20
17.2468571429
 11
16.6992857143
 21
16.7468571429
  0
LINE
  5
46D
100
AcDbEntity
  8
SMUSSO
100
AcDbLine
 62
7
  6
CONTINUOUS
 10
21.1992857143
 20
12.2468571429
 11
20.6992857143
 21
12.7468571429
  0
LINE
  5
46E
100
AcDbEntity
  8
ASSI
100
AcDbLine
 62
7
  6
CONTINUOUS
 10
21.1992857143
 20
12.2468571429
 11
20.6992857143
 21
12.7468571429
  0
LWPOLYLINE
  5
46F
100
AcDbEntity
  8
0
100
AcDbPolyline
 62
7
  6
CONTINUOUS
 90
18
 70
0
 10
28.2171930885
 20
-10.5960613064
 10
28.2218769421
 20
-10.6069993034
 10
28.2270759455
 20
-10.6177020447
 10
28.2327783226
 20
-10.6281452854
 10
28.2389711562
 20
-10.638305363
 10
28.2456404188
 20
-10.6481592623
 10
28.2527710036
 20
-10.657684661
 10
28.2603467554
 20
-10.6668599762
 10
28.2683505138
 20
-10.6756644232
 10
28.2767641482
 20
-10.6840780576
 10
28.2855685952
 20
-10.692081816
 10
28.2947439104
 20
-10.6996575679
 10
28.3042693092
 20
-10.7067881526
 10
28.3141232084
 20
-10.7134574153
 10
28.324283286
 20
-10.7196502488
 10
28.3347265267
 20
-10.725352626
 10
28.345429268
 20
-10.7305516293
 10
28.356367265
 20
-10.7352354829
  0
LWPOLYLINE
  5
470
100
AcDbEntity
  8
0
100
AcDbPolyline
 62
253
  6
CONTINUOUS
 90
5
 70
0
 10
22.9448330762
 20
-3.7570841391
 10
22.93153216
 20
-3.712205763
 10
22.9096708898
 20
-3.6698775268
 10
22.8797456493
 20
-3.6313564355
 10
22.842607905
 20
-3.597957028
  0
LWPOLYLINE
  5
471
100
AcDbEntity
  8
RACCORDO
100
AcDbPolyline
 62
253
  6
CONTINUOUS
 90
5
 70
0
 10
22.9448330762
 20
-3.7570841391
 10
22.93153216
 20
-3.712205763
 10
22.9096708898
 20
-3.6698775268
 10
22.8797456493
 20
-3.6313564355
 10
22.842607905
 20
-3.597957028
  0
LWPOLYLINE
  5
472
100
AcDbEntity
  8
0
100
AcDbPolyline
 62
7
  6
CONTINUOUS
 90
6
 70
0
 10
13.6967411884
 20
38.032439509
 10
13.694768082
 20
38.0441734303
 10
13.692238896
 20
38.0558001817
 10
13.689159356
 20
38.0672934219
 10
13.6855364356
 20
38.0786271166
 10
13.6813783401
 20
38.0897755922
  0
LINE
  5
473
100
AcDbEntity
  8
0
100
AcDbLine
 62
7
  6
CONTINUOUS
 10
19.9406117609
 20
-8.6479385697
 11
19.9407183443
 21
-10.0474381269
  0
LINE
  5
474
100
AcDbEntity
  8
0
100
AcDbLine
 62
7
  6
CONTINUOUS
 10
19.9492857143
 20
-10.0531496264
 11
19.9492857143
 21
-8.6531428571
  0
LINE
  5
475
100
AcDbEntity
  8
0
100
AcDbLine
 62
7
  6
CONTINUOUS
 10
19.9492857143
 20
36.1468571429
 11
19.9492857143
 21
37.5468639121
  0
LINE
  5
476
100
AcDbEntity
  8
0
100
AcDbLine
 62
7
  6
CONTINUOUS
 10
20.3492857143
 20
-1.7531428571
 11
20.3492857143
 21
1.2468571429
  0
LINE
  5
477
100
AcDbEntity
  8
0
100
AcDbLine
 62
7
  6
CONTINUOUS
 10
20.3492857143
 20
3.2468571429
 11
20.3492857143
 21
6.2468571429
  0
LINE
  5
478
100
AcDbEntity
  8
0
100
AcDbLine
 62
7
  6
CONTINUOUS
 10
20.3492857143
 20
8.2468571429
 11
20.3492857143
 21
11.2468571429
  0
LINE
  5
479
100
AcDbEntity
  8
0
100
AcDbLine
 62
7
  6
CONTINUOUS
 10
20.3492857143
 20
13.2468571429
 11
20.3492857143
 21
16.2468571429
  0
LINE
  5
47A
100
AcDbEntity
  8
SMUSSO
100
AcDbLine
 62
7
  6
CONTINUOUS
 10
20.6992857143
 20
16.7468571429
 11
20.6992857143
 21
12.7468571429
  0
LINE
  5
47B
100
AcDbEntity
  8
ASSI
100
AcDbLine
 62
7
  6
CONTINUOUS
 10
20.6992857143
 20
16.7468571429
 11
20.6992857143
 21
12.7468571429
  0
LINE
  5
47C
100
AcDbEntity
  8
SMUSSO
100
AcDbLine
 62
7
  6
CONTINUOUS
 10
20.6992857143
 20
11.4968571429
 11
20.6992857143
 21
7.9968571429
  0
LINE
  5
47D
100
AcDbEntity
  8
ASSI
100
AcDbLine
 62
7
  6
CONTINUOUS
 10
20.6992857143
 20
11.4968571429
 11
20.6992857143
 21
7.9968571429
  0
LINE
  5
47E
100
AcDbEntity
  8
SMUSSO
100
AcDbLine
 62
7
  6
CONTINUOUS
 10
20.6992857143
 20
6.4968571429
 11
20.6992857143
 21
2.9968571429
  0
LINE
  5
47F
100
AcDbEntity
  8
ASSI
100
AcDbLine
 62
7
  6
CONTINUOUS
 10
20.6992857143
 20
6.4968571429
 11
20.6992857143
 21
2.9968571429
  0
LINE
  5
480
100
AcDbEntity
  8
SMUSSO
100
AcDbLine
 62
7
  6
CONTINUOUS
 10
20.6992857143
 20
1.4968571429
 11
20.6992857143
 21
-2.0031428571
  0
LINE
  5
481
100
AcDbEntity
  8
ASSI
100
AcDbLine
 62
7
  6
CONTINUOUS
 10
20.6992857143
 20
1.4968571429
 11
20.6992857143
 21
-2.0031428571
  0
LINE
  5
482
100
AcDbEntity
  8
SMUSSO
100
AcDbLine
 62
7
  6
CONTINUOUS
 10
21.1992857143
 20
17.2468571429
 11
21.1992857143
 21
12.2468571429
  0
LINE
  5
483
100
AcDbEntity
  8
ASSI
100
AcDbLine
 62
7
  6
CONTINUOUS
 10
21.1992857143
 20
17.2468571429
 11
21.1992857143
 21
12.2468571429
  0
LINE
  5
484
100
AcDbEntity
  8
SMUSSO
100
AcDbLine
 62
7
  6
CONTINUOUS
 10
21.1992857143
 20
11.9968571429
 11
21.1992857143
 21
7.4968571429
  0
LINE
  5
485
100
AcDbEntity
  8
ASSI
100
AcDbLine
 62
7
  6
CONTINUOUS
 10
21.1992857143
 20
11.9968571429
 11
21.1992857143
 21
7.4968571429
  0
LINE
  5
486
100
AcDbEntity
  8
SMUSSO
100
AcDbLine
 62
7
  6
CONTINUOUS
 10
21.1992857143
 20
6.9968571429
 11
21.1992857143
 21
2.4968571429
  0
LINE
  5
487
100
AcDbEntity
  8
ASSI
100
AcDbLine
 62
7
  6
CONTINUOUS
 10
21.1992857143
 20
6.9968571429
 11
21.1992857143
 21
2.4968571429
  0
LINE
  5
488
100
AcDbEntity
  8
SMUSSO
100
AcDbLine
 62
7
  6
CONTINUOUS
 10
21.1992857143
 20
1.9968571429
 11
21.1992857143
 21
-2.5031428571
  0
LINE
  5
489
100
AcDbEntity
  8
ASSI
100
AcDbLine
 62
7
  6
CONTINUOUS
 10
21.1992857143
 20
1.9968571429
 11
21.1992857143
 21
-2.5031428571
  0
LINE
  5
48A
100
AcDbEntity
  8
0
100
AcDbLine
 62
7
  6
CONTINUOUS
 10
19.9406117609
 20
36.1416528554
 11
19.9407183443
 21
37.5411524126
  0
LWPOLYLINE
  5
48B
100
AcDbEntity
  8
0
100
AcDbPolyline
 62
7
  6
CONTINUOUS
 90
17
 70
0
 10
25.3553634672
 20
37.7007494159
 10
25.3550274859
 20
37.6990329617
 10
25.3541908756
 20
37.6968387559
 10
25.3528494982
 20
37.6941667984
 10
25.3510005468
 20
37.6910230473
 10
25.3486406265
 20
37.6874015445
 10
25.3457639329
 20
37.6832844162
 10
25.3423693484
 20
37.6786761797
 10
25.3384524115
 20
37.6735723177
 10
25.333997094
 20
37.667941404
 10
25.329001499
 20
37.6617934459
 10
25.3234572282
 20
37.6551184361
 10
25.3173271634
 20
37.6478549268
 10
25.3105959315
 20
37.640003936
 10
25.3032565339
 20
37.6315644455
 10
25.2952727335
 20
37.622471954
 10
25.2866256345
 20
37.6127210469
  0
LWPOLYLINE
  5
48C
100
AcDbEntity
  8
0
100
AcDbPolyline
 62
7
  6
CONTINUOUS
 90
17
 70
0
 10
16.5432079613
 20
-10.2070351302
 10
16.5435441137
 20
-10.2053191042
 10
16.5443816501
 20
-10.203122824
 10
16.5457253494
 20
-10.2004462897
 10
16.5475788994
 20
-10.1972954005
 10
16.5499462063
 20
-10.1936642572
 10
16.552832639
 20
-10.1895351618
 10
16.5562398921
 20
-10.1849110431
 10
16.5601721897
 20
-10.1797889725
 10
16.5646422835
 20
-10.174142466
 10
16.5696493078
 20
-10.1679830976
 10
16.5752020892
 20
-10.1612992935
 10
16.5813386066
 20
-10.1540298486
 10
16.5880736591
 20
-10.1461763879
 10
16.5954137301
 20
-10.1377372864
 10
16.6033969014
 20
-10.1286464637
 10
16.6120420867
 20
-10.1188989551
  0
LINE
  5
48D
100
AcDbEntity
  8
CURVE
100
AcDbLine
 62
253
  6
CONTINUOUS
 10
13.0492857143
 20
4.9254285876
 11
13.3207142695
 21
5.1968571429
  0
LINE
  5
48E
100
AcDbEntity
  8
CURVE
100
AcDbLine
 62
253
  6
CONTINUOUS
 10
10.6492857143
 20
2.382571495
 11
10.8349999889
 21
2.5682856921
  0
LINE
  5
48F
100
AcDbEntity
  8
SMUSSO
100
AcDbLine
 62
7
  6
CONTINUOUS
 10
16.1992857143
 20
7.4968571429
 11
16.6992857143
 21
7.9968571429
  0
LINE
  5
490
100
AcDbEntity
  8
ASSI
100
AcDbLine
 62
7
  6
CONTINUOUS
 10
16.1992857143
 20
7.4968571429
 11
16.6992857143
 21
7.9968571429
  0
LINE
  5
491
100
AcDbEntity
  8
CURVE
100
AcDbLine
 62
253
  6
CONTINUOUS
 10
10.8349999889
 20
1.6397142414
 11
10.6492857143
 21
1.4539999668
  0
LINE
  5
492
100
AcDbEntity
  8
SMUSSO
100
AcDbLine
 62
7
  6
CONTINUOUS
 10
21.1992857143
 20
11.9968571429
 11
20.6992857143
 21
11.4968571429
  0
LINE
  5
493
100
AcDbEntity
  8
ASSI
100
AcDbLine
 62
7
  6
CONTINUOUS
 10
21.1992857143
 20
11.9968571429
 11
20.6992857143
 21
11.4968571429
  0
LINE
  5
494
100
AcDbEntity
  8
CURVE
100
AcDbLine
 62
253
  6
CONTINUOUS
 10
11.9492857143
 20
2.2897142414
 11
11.7635714203
 21
2.1040000443
  0
LINE
  5
495
100
AcDbEntity
  8
0
100
AcDbLine
 62
253
  6
CONTINUOUS
 10
22.4502401406
 20
33.8164788946
 11
22.4508099491
 21
33.6313438225
  0
LINE
  5
496
100
AcDbEntity
  8
0
100
AcDbLine
 62
7
  6
CONTINUOUS
 10
21.9492857143
 20
-10.0531496264
 11
21.9492857143
 21
-8.6531428571
  0
LINE
  5
497
100
AcDbEntity
  8
0
100
AcDbLine
 62
7
  6
CONTINUOUS
 10
21.9492857143
 20
36.1468571429
 11
21.9492857143
 21
37.5468639121
  0
LINE
  5
498
100
AcDbEntity
  8
0
100
AcDbLine
 62
7
  6
CONTINUOUS
 10
21.9579596677
 20
36.1416528554
 11
21.9578530843
 21
37.5411524126
  0
LINE
  5
499
100
AcDbEntity
  8
0
100
AcDbLine
 62
253
  6
CONTINUOUS
 10
22.6492857143
 20
31.0468571429
 11
22.6492857143
 21
30.9968571429
  0
LINE
  5
49A
100
AcDbEntity
  8
RACCORDO
100
AcDbLine
 62
253
  6
CONTINUOUS
 10
22.6492857143
 20
31.0468571429
 11
22.6492857143
 21
30.9968571429
  0
LINE
  5
49B
100
AcDbEntity
  8
0
100
AcDbLine
 62
253
  6
CONTINUOUS
 10
22.6492857143
 20
-3.5691107756
 11
22.6492857143
 21
-3.5031428571
  0
LINE
  5
49C
100
AcDbEntity
  8
RACCORDO
100
AcDbLine
 62
253
  6
CONTINUOUS
 10
22.6492857143
 20
-3.5691107756
 11
22.6492857143
 21
-3.5031428571
  0
LINE
  5
49D
100
AcDbEntity
  8
RACCORDO
100
AcDbLine
 62
7
  6
CONTINUOUS
 10
22.8532901686
 20
-4.4531428571
 11
22.8532901686
 21
-4.5531428571
  0
LINE
  5
49E
100
AcDbEntity
  8
ASSI
100
AcDbLine
 62
7
  6
CONTINUOUS
 10
22.8532901686
 20
-4.4531428571
 11
22.8532901686
 21
-4.5531428571
  0
LINE
  5
49F
100
AcDbEntity
  8
RACCORDO
100
AcDbLine
 62
7
  6
CONTINUOUS
 10
22.931875025
 20
32.0468571429
 11
22.931875025
 21
31.9468571429
  0
LINE
  5
4A0
100
AcDbEntity
  8
ASSI
100
AcDbLine
 62
7
  6
CONTINUOUS
 10
22.931875025
 20
32.0468571429
 11
22.931875025
 21
31.9468571429
  0
LINE
  5
4A1
100
AcDbEntity
  8
0
100
AcDbLine
 62
7
  6
CONTINUOUS
 10
22.9492857143
 20
-4.4531428571
 11
22.9492857143
 21
-4.486191446
  0
LINE
  5
4A2
100
AcDbEntity
  8
RACCORDO
100
AcDbLine
 62
7
  6
CONTINUOUS
 10
22.9492857143
 20
-4.4531428571
 11
22.9492857143
 21
-4.486191446
  0
LINE
  5
4A3
100
AcDbEntity
  8
0
100
AcDbLine
 62
7
  6
CONTINUOUS
 10
23.0492857143
 20
-4.4531428571
 11
23.0492857143
 21
-4.4853240592
  0
LINE
  5
4A4
100
AcDbEntity
  8
0
100
AcDbLine
 62
253
  6
CONTINUOUS
 10
23.0957323237
 20
-4.4856828738
 11
23.0957323237
 21
-4.5531428571
  0
LINE
  5
4A5
100
AcDbEntity
  8
RACCORDO
100
AcDbLine
 62
253
  6
CONTINUOUS
 10
23.0957323237
 20
-4.4856828738
 11
23.0957323237
 21
-4.5531428571
  0
LINE
  5
4A6
100
AcDbEntity
  8
0
100
AcDbLine
 62
7
  6
CONTINUOUS
 10
23.4492857143
 20
32.0468571429
 11
23.4492857143
 21
30.3468571429
  0
LINE
  5
4A7
100
AcDbEntity
  8
ASSI
100
AcDbLine
 62
7
  6
CONTINUOUS
 10
23.4492857143
 20
32.0468571429
 11
23.4492857143
 21
30.3468571429
  0
LINE
  5
4A8
100
AcDbEntity
  8
0
100
AcDbLine
 62
7
  6
CONTINUOUS
 10
23.4492857143
 20
-2.8531428571
 11
23.4492857143
 21
-4.5531428571
  0
LINE
  5
4A9
100
AcDbEntity
  8
ASSI
100
AcDbLine
 62
7
  6
CONTINUOUS
 10
23.4492857143
 20
-2.8531428571
 11
23.4492857143
 21
-4.5531428571
  0
LINE
  5
4AA
100
AcDbEntity
  8
0
100
AcDbLine
 62
7
  6
CONTINUOUS
 10
21.9579596677
 20
-8.6479385697
 11
21.9578530843
 21
-10.0474381269
  0
LINE
  5
4AB
100
AcDbEntity
  8
0
100
AcDbLine
 62
253
  6
CONTINUOUS
 10
22.4508099491
 20
-6.1376295368
 11
22.4502401406
 21
-6.3227646089
  0
LWPOLYLINE
  5
4AC
100
AcDbEntity
  8
0
100
AcDbPolyline
 62
7
  6
CONTINUOUS
 90
9
 70
0
 10
13.6813783401
 20
-10.5960613064
 10
13.6855364356
 20
-10.5849128309
 10
13.689159356
 20
-10.5735791361
 10
13.692238896
 20
-10.5620858959
 10
13.694768082
 20
-10.5504591446
 10
13.6967411884
 20
-10.5387252233
 10
13.6981537485
 20
-10.5269107127
 10
13.699002564
 20
-10.5150423732
 10
13.6992857143
 20
-10.5031470879
  0
LINE
  5
4AD
100
AcDbEntity
  8
CURVE
100
AcDbLine
 62
253
  6
CONTINUOUS
 10
10.8349999889
 20
2.5682856921
 11
11.0207142636
 21
2.6611427907
  0
LINE
  5
4AE
100
AcDbEntity
  8
CURVE
100
AcDbLine
 62
7
  6
CONTINUOUS
 10
32.0462418904
 20
20.0523014329
 11
32.0465408818
 21
20.0523014329
  0
LINE
  5
4AF
100
AcDbEntity
  8
CURVE
100
AcDbLine
 62
7
  6
CONTINUOUS
 10
32.0226230902
 20
21.0055885261
 11
32.0424244385
 21
21.0055885261
  0
LINE
  5
4B0
100
AcDbEntity
  8
CURVE
100
AcDbLine
 62
7
  6
CONTINUOUS
 10
32.0507112042
 20
21.0256584147
 11
32.0646014021
 21
21.0256584147
  0
LINE
  5
4B1
100
AcDbEntity
  8
CURVE
100
AcDbLine
 62
7
  6
CONTINUOUS
 10
32.072630155
 20
21.6084244872
 11
32.0226230902
 21
21.6084244872
  0
LWPOLYLINE
  5
4B2
100
AcDbEntity
  8
0
100
AcDbPolyline
 62
7
  6
CONTINUOUS
 90
18
 70
0
 10
13.6813783401
 20
38.0897755922
 10
13.6766944865
 20
38.1007135892
 10
13.6714954831
 20
38.1114163305
 10
13.6657931059
 20
38.1218595711
 10
13.6596002724
 20
38.1320196488
 10
13.6529310098
 20
38.141873548
 10
13.645800425
 20
38.1513989467
 10
13.6382246732
 20
38.1605742619
 10
13.6302209148
 20
38.1693787089
 10
13.6218072804
 20
38.1777923433
 10
13.6130028333
 20
38.1857961017
 10
13.6038275181
 20
38.1933718536
 10
13.5943021194
 20
38.2005024383
 10
13.5844482202
 20
38.207171701
 10
13.5742881426
 20
38.2133645345
 10
13.5638449019
 20
38.2190669117
 10
13.5531421606
 20
38.224265915
 10
13.5422041636
 20
38.2289497686
  0
LINE
  5
4B3
100
AcDbEntity
  8
0
100
AcDbLine
 62
7
  6
CONTINUOUS
 10
23.9549890391
 20
-8.6066791474
 11
23.9414315333
 21
-7.0531428571
  0
LINE
  5
4B4
100
AcDbEntity
  8
0
100
AcDbLine
 62
7
  6
CONTINUOUS
 10
24.4841434306
 20
-10.2474415122
 11
24.4698401774
 21
-8.6084510411
  0
LINE
  5
4B5
100
AcDbEntity
  8
DRAFT
100
AcDbLine
 62
7
  6
CONTINUOUS
 10
24.4498264377
 20
-6.3151036185
 11
24.4494391489
 21
-6.2707247227
  0
LINE
  5
4B6
100
AcDbEntity
  8
0
100
AcDbLine
 62
7
  6
CONTINUOUS
 10
24.4126300779
 20
33.6102015065
 11
24.4126300779
 21
33.4102015065
  0
LINE
  5
4B7
100
AcDbEntity
  8
DRAFT
100
AcDbLine
 62
7
  6
CONTINUOUS
 10
24.4126300779
 20
33.6102015065
 11
24.4126300779
 21
33.4102015065
  0
LINE
  5
4B8
100
AcDbEntity
  8
0
100
AcDbLine
 62
7
  6
CONTINUOUS
 10
24.4126300779
 20
-5.9164872208
 11
24.4126300779
 21
-6.1164872208
  0
LINE
  5
4B9
100
AcDbEntity
  8
DRAFT
100
AcDbLine
 62
7
  6
CONTINUOUS
 10
24.4126300779
 20
-5.9164872208
 11
24.4126300779
 21
-6.1164872208
  0
LINE
  5
4BA
100
AcDbEntity
  8
0
100
AcDbLine
 62
7
  6
CONTINUOUS
 10
24.4492857143
 20
33.6468571429
 11
24.4492857143
 21
33.4468571429
  0
LINE
  5
4BB
100
AcDbEntity
  8
DRAFT
100
AcDbLine
 62
7
  6
CONTINUOUS
 10
24.4492857143
 20
33.6468571429
 11
24.4492857143
 21
33.4468571429
  0
LINE
  5
4BC
100
AcDbEntity
  8
0
100
AcDbLine
 62
7
  6
CONTINUOUS
 10
24.4492857143
 20
-5.9531428571
 11
24.4492857143
 21
-6.1531428571
  0
LINE
  5
4BD
100
AcDbEntity
  8
DRAFT
100
AcDbLine
 62
7
  6
CONTINUOUS
 10
24.4492857143
 20
-5.9531428571
 11
24.4492857143
 21
-6.1531428571
  0
LINE
  5
4BE
100
AcDbEntity
  8
RACCORDO
100
AcDbLine
 62
7
  6
CONTINUOUS
 10
24.962376016
 20
33.0599588676
 11
24.962376016
 21
31.9599474445
  0
LINE
  5
4BF
100
AcDbEntity
  8
ASSI
100
AcDbLine
 62
7
  6
CONTINUOUS
 10
24.962376016
 20
33.0599588676
 11
24.962376016
 21
31.9599474445
  0
LINE
  5
4C0
100
AcDbEntity
  8
RACCORDO
100
AcDbLine
 62
7
  6
CONTINUOUS
 10
24.962376016
 20
-5.5662445819
 11
24.962376016
 21
-4.7662217357
  0
LINE
  5
4C1
100
AcDbEntity
  8
ASSI
100
AcDbLine
 62
7
  6
CONTINUOUS
 10
24.962376016
 20
-5.5662445819
 11
24.962376016
 21
-4.7662217357
  0
LINE
  5
4C2
100
AcDbEntity
  8
0
100
AcDbLine
 62
7
  6
CONTINUOUS
 10
25.3553634672
 20
37.7007494159
 11
25.3553634672
 21
36.1029348958
  0
LINE
  5
4C3
100
AcDbEntity
  8
0
100
AcDbLine
 62
7
  6
CONTINUOUS
 10
25.3553634672
 20
-8.6092206101
 11
25.3553634672
 21
-10.2070351302
  0
LINE
  5
4C4
100
AcDbEntity
  8
0
100
AcDbLine
 62
7
  6
CONTINUOUS
 10
25.3992857143
 20
-10.2531428571
 11
25.3992857143
 21
-9.6210878043
  0
LINE
  5
4C5
100
AcDbEntity
  8
0
100
AcDbLine
 62
7
  6
CONTINUOUS
 10
25.3992857143
 20
-9.18519791
 11
25.3992857143
 21
-8.6531428571
  0
LINE
  5
4C6
100
AcDbEntity
  8
0
100
AcDbLine
 62
7
  6
CONTINUOUS
 10
25.3992857143
 20
36.1468571429
 11
25.3992857143
 21
36.6789121957
  0
LINE
  5
4C7
100
AcDbEntity
  8
0
100
AcDbLine
 62
7
  6
CONTINUOUS
 10
25.3992857143
 20
37.11480209
 11
25.3992857143
 21
37.7468571429
  0
LINE
  5
4C8
100
AcDbEntity
  8
0
100
AcDbLine
 62
7
  6
CONTINUOUS
 10
23.9414315333
 20
34.5468571429
 11
23.9549890391
 21
36.1003934331
  0
LINE
  5
4C9
100
AcDbEntity
  8
DRAFT
100
AcDbLine
 62
7
  6
CONTINUOUS
 10
24.4498264377
 20
33.8088179042
 11
24.4494391489
 21
33.7644390084
  0
LINE
  5
4CA
100
AcDbEntity
  8
0
100
AcDbLine
 62
7
  6
CONTINUOUS
 10
24.4698401774
 20
36.1021653268
 11
24.4841434306
 21
37.7411557979
  0
LWPOLYLINE
  5
4CB
100
AcDbEntity
  8
0
100
AcDbPolyline
 62
253
  6
CONTINUOUS
 90
5
 70
0
 10
18.9537383524
 20
-3.7570841391
 10
18.9670392685
 20
-3.712205763
 10
18.9889005387
 20
-3.6698775268
 10
19.0188257793
 20
-3.6313564355
 10
19.0559635236
 20
-3.597957028
  0
LWPOLYLINE
  5
4CC
100
AcDbEntity
  8
RACCORDO
100
AcDbPolyline
 62
253
  6
CONTINUOUS
 90
5
 70
0
 10
18.9537383524
 20
-3.7570841391
 10
18.9670392685
 20
-3.712205763
 10
18.9889005387
 20
-3.6698775268
 10
19.0188257793
 20
-3.6313564355
 10
19.0559635236
 20
-3.597957028
  0
LINE
  5
4CD
100
AcDbEntity
  8
0
100
AcDbLine
 62
7
  6
CONTINUOUS
 10
18.9587133667
 20
-4.4847603557
 11
18.9682822303
 21
-4.4531428571
  0
LINE
  5
4CE
100
AcDbEntity
  8
RACCORDO
100
AcDbLine
 62
7
  6
CONTINUOUS
 10
18.9587133667
 20
-4.4847603557
 11
18.9682822303
 21
-4.4531428571
  0
LINE
  5
4CF
100
AcDbEntity
  8
SMUSSO
100
AcDbLine
 62
7
  6
CONTINUOUS
 10
16.1992857143
 20
2.4968571429
 11
16.6992857143
 21
2.9968571429
  0
LINE
  5
4D0
100
AcDbEntity
  8
ASSI
100
AcDbLine
 62
7
  6
CONTINUOUS
 10
16.1992857143
 20
2.4968571429
 11
16.6992857143
 21
2.9968571429
  0
LINE
  5
4D1
100
AcDbEntity
  8
SMUSSO
100
AcDbLine
 62
7
  6
CONTINUOUS
 10
21.1992857143
 20
6.9968571429
 11
20.6992857143
 21
6.4968571429
  0
LINE
  5
4D2
100
AcDbEntity
  8
ASSI
100
AcDbLine
 62
7
  6
CONTINUOUS
 10
21.1992857143
 20
6.9968571429
 11
20.6992857143
 21
6.4968571429
  0
LINE
  5
4D3
100
AcDbEntity
  8
CURVE
100
AcDbLine
 62
253
  6
CONTINUOUS
 10
11.7635714203
 20
2.1040000443
 11
11.5778571263
 21
2.0111427907
  0
LINE
  5
4D4
100
AcDbEntity
  8
CURVE
100
AcDbLine
 62
253
  6
CONTINUOUS
 10
10.6492857143
 20
3.03257134
 11
11.9492857143
 21
3.4040000443
  0
LINE
  5
4D5
100
AcDbEntity
  8
0
100
AcDbLine
 62
253
  6
CONTINUOUS
 10
18.967377928
 20
31.205083508
 11
18.9538433884
 21
31.2502624473
  0
LINE
  5
4D6
100
AcDbEntity
  8
RACCORDO
100
AcDbLine
 62
253
  6
CONTINUOUS
 10
18.967377928
 20
31.205083508
 11
18.9538433884
 21
31.2502624473
  0
LWPOLYLINE
  5
4D7
100
AcDbEntity
  8
0
100
AcDbPolyline
 62
7
  6
CONTINUOUS
 90
6
 70
0
 10
28.2018302401
 20
-10.5387252233
 10
28.2038033466
 20
-10.5504591446
 10
28.2063325326
 20
-10.5620858959
 10
28.2094120726
 20
-10.5735791361
 10
28.2130349929
 20
-10.5849128309
 10
28.2171930885
 20
-10.5960613064
  0
LINE
  5
4D8
100
AcDbEntity
  8
ASSI
100
AcDbLine
 62
7
  6
CONTINUOUS
 10
25.6492857143
 20
32.3468571429
 11
25.6492857143
 21
31.9599474445
  0
LINE
  5
4D9
100
AcDbEntity
  8
ASSI
100
AcDbLine
 62
253
  6
CONTINUOUS
 10
26.6492857143
 20
32.3468571429
 11
26.6492857143
 21
31.9599474445
  0
LWPOLYLINE
  5
4DA
100
AcDbEntity
  8
0
100
AcDbPolyline
 62
7
  6
CONTINUOUS
 90
5
 70
0
 10
13.1315990064
 20
-7.9505321193
 10
13.1582478578
 20
-7.9111348079
 10
13.1852551906
 20
-7.8714020588
 10
13.2126210046
 20
-7.8314119783
 10
13.2404084088
 20
-7.7912808176
  0
LWPOLYLINE
  5
4DB
100
AcDbEntity
  8
0
100
AcDbPolyline
 62
7
  6
CONTINUOUS
 90
4
 70
0
 10
13.2404084088
 20
-7.7912808176
 10
13.3252904215
 20
-7.6701394139
 10
13.3538806633
 20
-7.6296087315
 10
13.3826400601
 20
-7.5891298058
  0
LINE
  5
4DC
100
AcDbEntity
  8
SMUSSO
100
AcDbLine
 62
7
  6
CONTINUOUS
 10
16.1992857143
 20
-2.5031428571
 11
16.6992857143
 21
-2.0031428571
  0
LINE
  5
4DD
100
AcDbEntity
  8
ASSI
100
AcDbLine
 62
7
  6
CONTINUOUS
 10
16.1992857143
 20
-2.5031428571
 11
16.6992857143
 21
-2.0031428571
  0
LINE
  5
4DE
100
AcDbEntity
  8
CURVE
100
AcDbLine
 62
253
  6
CONTINUOUS
 10
32.0018015585
 20
23.9682855372
 11
31.9855957525
 21
23.9682855372
  0
LINE
  5
4DF
100
AcDbEntity
  8
CURVE
100
AcDbLine
 62
253
  6
CONTINUOUS
 10
31.9855957525
 20
24.6182855372
 11
32.0018015585
 21
24.6182855372
  0
LINE
  5
4E0
100
AcDbEntity
  8
CURVE
100
AcDbLine
 62
253
  6
CONTINUOUS
 10
32.0050427195
 20
24.9897145514
 11
31.9823545912
 21
24.9897145514
  0
LINE
  5
4E1
100
AcDbEntity
  8
CURVE
100
AcDbLine
 62
253
  6
CONTINUOUS
 10
31.9823545912
 20
25.6397142414
 11
32.0050427195
 21
25.6397142414
  0
LWPOLYLINE
  5
4E2
100
AcDbEntity
  8
0
100
AcDbPolyline
 62
7
  6
CONTINUOUS
 90
3
 70
0
 10
13.3826400601
 20
35.0828440915
 10
13.3538806633
 20
35.1233230172
 10
13.3252904215
 20
35.1638536996
  0
LWPOLYLINE
  5
4E3
100
AcDbEntity
  8
0
100
AcDbPolyline
 62
7
  6
CONTINUOUS
 90
6
 70
0
 10
13.3252904215
 20
35.1638536996
 10
13.2404084088
 20
35.2849951033
 10
13.2126210046
 20
35.325126264
 10
13.1852551906
 20
35.3651163445
 10
13.1582478578
 20
35.4048490936
 10
13.1315990064
 20
35.4442464051
  0
LWPOLYLINE
  5
4E4
100
AcDbEntity
  8
0
100
AcDbPolyline
 62
253
  6
CONTINUOUS
 90
34
 70
0
 10
28.2036575483
 20
37.5911947102
 10
28.2039736755
 20
37.5809209324
 10
28.2048525877
 20
37.5706680219
 10
28.2062926793
 20
37.5604591121
 10
28.2082912452
 20
37.5503165128
 10
28.2108440611
 20
37.5402639231
 10
28.2139449812
 20
37.5303263025
 10
28.2175866892
 20
37.5205268702
 10
28.2217611946
 20
37.5108869345
 10
28.2264591752
 20
37.5014280639
 10
28.2316701317
 20
37.4921714969
 10
28.2373822729
 20
37.4831382685
 10
28.2435826052
 20
37.4743489572
 10
28.2502570812
 20
37.4658234654
 10
28.257390679
 20
37.4575809716
 10
28.264967313
 20
37.4496400643
 10
28.2729698953
 20
37.4420186596
 10
28.2813803536
 20
37.4347339753
 10
28.290179686
 20
37.427802472
 10
28.2993480228
 20
37.421239801
 10
28.3088646746
 20
37.4150607709
 10
28.3187081597
 20
37.4092793297
 10
28.3288562585
 20
37.4039085277
 10
28.3392860634
 20
37.3989604888
 10
28.3499740308
 20
37.3944463822
 10
28.3608960474
 20
37.3903763934
 10
28.3720274466
 20
37.386759715
 10
28.383343061
 20
37.3836045214
 10
28.3948173189
 20
37.3809179356
 10
28.4064243446
 20
37.3787060091
 10
28.4181379783
 20
37.3769737243
 10
28.4299317932
 20
37.3757249904
 10
28.4417791538
 20
37.3749626285
 10
28.4536533175
 20
37.3746883592
  0
LWPOLYLINE
  5
4E5
100
AcDbEntity
  8
0
100
AcDbPolyline
 62
7
  6
CONTINUOUS
 90
4
 70
0
 10
28.1992857143
 20
-10.5031470879
 10
28.1995688645
 20
-10.5150423732
 10
28.20041768
 20
-10.5269107127
 10
28.2018302401
 20
-10.5387252233
  0
LWPOLYLINE
  5
4E6
100
AcDbEntity
  8
0
100
AcDbPolyline
 62
7
  6
CONTINUOUS
 90
34
 70
0
 10
28.2036575483
 20
-10.4987752539
 10
28.2039410991
 20
-10.5106702755
 10
28.204790304
 20
-10.5225383521
 10
28.2062032394
 20
-10.5343526
 10
28.2081767047
 20
-10.5460862573
 10
28.2107062295
 20
-10.5577127445
 10
28.2137860839
 20
-10.5692057251
 10
28.2174092913
 20
-10.5805391649
 10
28.2215676443
 20
-10.5916873912
 10
28.2262517234
 20
-10.6026251506
 10
28.231450918
 20
-10.6133276667
 10
28.2371534509
 20
-10.623770696
 10
28.2433464045
 20
-10.6339305826
 10
28.2500157503
 20
-10.6437843121
 10
28.2571463808
 20
-10.6533095636
 10
28.2647221436
 20
-10.6624847602
 10
28.2727258778
 20
-10.6712891182
 10
28.2811394532
 20
-10.6797026936
 10
28.2899438112
 20
-10.6877064278
 10
28.2991190078
 20
-10.6952821906
 10
28.3086442593
 20
-10.7024128211
 10
28.3184979888
 20
-10.709082167
 10
28.3286578754
 20
-10.7152751205
 10
28.3391009047
 20
-10.7209776534
 10
28.3498034208
 20
-10.726176848
 10
28.3607411803
 20
-10.7308609271
 10
28.3718894065
 20
-10.7350192802
 10
28.3832228463
 20
-10.7386424876
 10
28.3947158269
 20
-10.7417223419
 10
28.4063423142
 20
-10.7442518667
 10
28.4180759714
 20
-10.746225332
 10
28.4298902193
 20
-10.7476382674
 10
28.441758296
 20
-10.7484874723
 10
28.4536533175
 20
-10.7487710231
  0
LINE
  5
4E7
100
AcDbEntity
  8
0
100
AcDbLine
 62
253
  6
CONTINUOUS
 10
28.2036575483
 20
-10.0974804244
 11
28.1992857143
 21
-9.6636280054
  0
LINE
  5
4E8
100
AcDbEntity
  8
0
100
AcDbLine
 62
253
  6
CONTINUOUS
 10
28.4536533175
 20
-9.8809740735
 11
28.4485627164
 21
-9.375792588
  0
LINE
  5
4E9
100
AcDbEntity
  8
DRAFT
100
AcDbLine
 62
7
  6
CONTINUOUS
 10
27.4536491482
 20
-6.257506291
 11
27.4536491482
 21
-5.957506291
  0
LINE
  5
4EA
100
AcDbEntity
  8
DRAFT
100
AcDbLine
 62
7
  6
CONTINUOUS
 10
27.4536491482
 20
33.4512205768
 11
27.4536491482
 21
33.7512205768
  0
LINE
  5
4EB
100
AcDbEntity
  8
DRAFT
100
AcDbLine
 62
7
  6
CONTINUOUS
 10
27.5540081278
 20
-6.3578652706
 11
27.5540081278
 21
-6.0578652706
  0
LINE
  5
4EC
100
AcDbEntity
  8
DRAFT
100
AcDbLine
 62
7
  6
CONTINUOUS
 10
27.5540081278
 20
33.5515795563
 11
27.5540081278
 21
33.8515795563
  0
LINE
  5
4ED
100
AcDbEntity
  8
DRAFT
100
AcDbLine
 62
7
  6
CONTINUOUS
 10
28.1445633008
 20
-7.2491384028
 11
28.1445633008
 21
-6.0578652706
  0
LINE
  5
4EE
100
AcDbEntity
  8
DRAFT
100
AcDbLine
 62
7
  6
CONTINUOUS
 10
28.1445633008
 20
33.5515795563
 11
28.1445633008
 21
34.7428526886
  0
LINE
  5
4EF
100
AcDbEntity
  8
0
100
AcDbLine
 62
7
  6
CONTINUOUS
 10
28.1992857143
 20
-10.0974804244
 11
28.1992857143
 21
-8.6531428571
  0
LINE
  5
4F0
100
AcDbEntity
  8
0
100
AcDbLine
 62
7
  6
CONTINUOUS
 10
28.1992857143
 20
36.1468571429
 11
28.1992857143
 21
37.5911947102
  0
LINE
  5
4F1
100
AcDbEntity
  8
0
100
AcDbLine
 62
7
  6
CONTINUOUS
 10
28.2036575483
 20
37.9924895396
 11
28.2036575483
 21
37.5911947102
  0
LINE
  5
4F2
100
AcDbEntity
  8
0
100
AcDbLine
 62
7
  6
CONTINUOUS
 10
28.2036575483
 20
-10.0974804244
 11
28.2036575483
 21
-10.4987752539
  0
LINE
  5
4F3
100
AcDbEntity
  8
DRAFT
100
AcDbLine
 62
7
  6
CONTINUOUS
 10
28.2449222804
 20
-5.957506291
 11
28.2449222804
 21
-6.2531428571
  0
LINE
  5
4F4
100
AcDbEntity
  8
DRAFT
100
AcDbLine
 62
7
  6
CONTINUOUS
 10
28.2449222804
 20
33.4512205768
 11
28.2449222804
 21
33.7468571429
  0
LINE
  5
4F5
100
AcDbEntity
  8
DRAFT
100
AcDbLine
 62
7
  6
CONTINUOUS
 10
28.2492857143
 20
34.6468571429
 11
28.2492857143
 21
33.7468571429
  0
LINE
  5
4F6
100
AcDbEntity
  8
DRAFT
100
AcDbLine
 62
7
  6
CONTINUOUS
 10
28.2492857143
 20
-6.2531428571
 11
28.2492857143
 21
-7.1531428571
  0
LINE
  5
4F7
100
AcDbEntity
  8
0
100
AcDbLine
 62
7
  6
CONTINUOUS
 10
28.3492857143
 20
34.5968571429
 11
28.3492857143
 21
33.4468571429
  0
LINE
  5
4F8
100
AcDbEntity
  8
DRAFT
100
AcDbLine
 62
7
  6
CONTINUOUS
 10
28.3492857143
 20
34.5968571429
 11
28.3492857143
 21
33.4468571429
  0
LINE
  5
4F9
100
AcDbEntity
  8
0
100
AcDbLine
 62
7
  6
CONTINUOUS
 10
28.3492857143
 20
-5.9531428571
 11
28.3492857143
 21
-7.1031428571
  0
LINE
  5
4FA
100
AcDbEntity
  8
DRAFT
100
AcDbLine
 62
7
  6
CONTINUOUS
 10
28.3492857143
 20
-5.9531428571
 11
28.3492857143
 21
-7.1031428571
  0
LINE
  5
4FB
100
AcDbEntity
  8
0
100
AcDbLine
 62
7
  6
CONTINUOUS
 10
28.3859413506
 20
33.4102015065
 11
28.3859413506
 21
32.3468571429
  0
LINE
  5
4FC
100
AcDbEntity
  8
DRAFT
100
AcDbLine
 62
7
  6
CONTINUOUS
 10
28.3859413506
 20
33.4102015065
 11
28.3859413506
 21
32.3468571429
  0
LINE
  5
4FD
100
AcDbEntity
  8
0
100
AcDbLine
 62
7
  6
CONTINUOUS
 10
28.3859413506
 20
-5.9164872208
 11
28.3859413506
 21
-4.5193123248
  0
LINE
  5
4FE
100
AcDbEntity
  8
DRAFT
100
AcDbLine
 62
7
  6
CONTINUOUS
 10
28.3859413506
 20
-5.9164872208
 11
28.3859413506
 21
-4.5193123248
  0
LINE
  5
4FF
100
AcDbEntity
  8
0
100
AcDbLine
 62
7
  6
CONTINUOUS
 10
28.4033964156
 20
34.5968571429
 11
28.4033964156
 21
32.3468571429
  0
LINE
  5
500
100
AcDbEntity
  8
DRAFT
100
AcDbLine
 62
7
  6
CONTINUOUS
 10
28.4033964156
 20
34.5968571429
 11
28.4033964156
 21
32.3468571429
  0
LINE
  5
501
100
AcDbEntity
  8
0
100
AcDbLine
 62
7
  6
CONTINUOUS
 10
28.4033964156
 20
-4.510585457
 11
28.4033964156
 21
-7.1031428571
  0
LINE
  5
502
100
AcDbEntity
  8
DRAFT
100
AcDbLine
 62
7
  6
CONTINUOUS
 10
28.4033964156
 20
-4.510585457
 11
28.4033964156
 21
-7.1031428571
  0
LINE
  5
503
100
AcDbEntity
  8
0
100
AcDbLine
 62
253
  6
CONTINUOUS
 10
28.4536533175
 20
-10.7487710231
 11
28.4536533175
 21
-9.8809740735
  0
LINE
  5
504
100
AcDbEntity
  8
0
100
AcDbLine
 62
253
  6
CONTINUOUS
 10
28.4536533175
 20
37.3746883592
 11
28.4536533175
 21
38.2424853089
  0
LINE
  5
505
100
AcDbEntity
  8
0
100
AcDbLine
 62
253
  6
CONTINUOUS
 10
28.5159313685
 20
-7.5891298058
 11
28.5159313685
 21
-7.2491384028
  0
LINE
  5
506
100
AcDbEntity
  8
0
100
AcDbLine
 62
253
  6
CONTINUOUS
 10
28.5159313685
 20
34.7428526886
 11
28.5159313685
 21
35.0828440915
  0
LINE
  5
507
100
AcDbEntity
  8
0
100
AcDbLine
 62
7
  6
CONTINUOUS
 10
29.0158552161
 20
-7.8365733553
 11
29.0158552161
 21
-7.8242317005
  0
LINE
  5
508
100
AcDbEntity
  8
0
100
AcDbLine
 62
253
  6
CONTINUOUS
 10
29.0158552161
 20
-7.7068782843
 11
29.0158552161
 21
-7.2448511214
  0
LINE
  5
509
100
AcDbEntity
  8
0
100
AcDbLine
 62
7
  6
CONTINUOUS
 10
29.0158552161
 20
-7.1618697249
 11
29.0158552161
 21
-7.1531428571
  0
LINE
  5
50A
100
AcDbEntity
  8
0
100
AcDbLine
 62
7
  6
CONTINUOUS
 10
29.0158552161
 20
34.6468571429
 11
29.0158552161
 21
34.6555840106
  0
LINE
  5
50B
100
AcDbEntity
  8
0
100
AcDbLine
 62
253
  6
CONTINUOUS
 10
29.0158552161
 20
34.7385654071
 11
29.0158552161
 21
35.20059257
  0
LINE
  5
50C
100
AcDbEntity
  8
0
100
AcDbLine
 62
7
  6
CONTINUOUS
 10
29.0158552161
 20
35.3179459863
 11
29.0158552161
 21
35.330287641
  0
LINE
  5
50D
100
AcDbEntity
  8
0
100
AcDbLine
 62
7
  6
CONTINUOUS
 10
29.1818306494
 20
35.151970553
 11
29.1818306494
 21
34.6555840106
  0
LINE
  5
50E
100
AcDbEntity
  8
0
100
AcDbLine
 62
7
  6
CONTINUOUS
 10
29.1818306494
 20
-7.1618697249
 11
29.1818306494
 21
-7.6582562673
  0
LINE
  5
50F
100
AcDbEntity
  8
0
100
AcDbLine
 62
253
  6
CONTINUOUS
 10
28.1992857143
 20
37.1573422911
 11
28.2036575483
 21
37.5911947102
  0
LINE
  5
510
100
AcDbEntity
  8
0
100
AcDbLine
 62
253
  6
CONTINUOUS
 10
28.4485627164
 20
36.8695068737
 11
28.4536533175
 21
37.3746883592
  0
LWPOLYLINE
  5
511
100
AcDbEntity
  8
0
100
AcDbPolyline
 62
253
  6
CONTINUOUS
 90
34
 70
0
 10
28.2036575483
 20
-10.0974804244
 10
28.203974199
 20
-10.0871976569
 10
28.2048543608
 20
-10.076938097
 10
28.2062960471
 20
-10.0667248998
 10
28.2082960041
 20
-10.0565811161
 10
28.2108497181
 20
-10.0465296397
 10
28.2139514255
 20
-10.0365931563
 10
28.2175941259
 20
-10.0267940917
 10
28.221769598
 20
-10.0171545621
 10
28.2264684179
 20
-10.0076963232
 10
28.2316799807
 20
-9.9984407217
 10
28.2373925242
 20
-9.989408647
 10
28.2435931556
 20
-9.9806204838
 10
28.2502678803
 20
-9.9720960667
 10
28.257401634
 20
-9.9638546347
 10
28.2649783161
 20
-9.9559147881
 10
28.2729808266
 20
-9.9482944469
 10
28.2813911042
 20
-9.9410108096
 10
28.2901901674
 20
-9.9340803149
 10
28.2993581573
 20
-9.9275186047
 10
28.3088743823
 20
-9.9213404883
 10
28.3187173648
 20
-9.9155599092
 10
28.3288648897
 20
-9.9101899141
 10
28.3392940548
 20
-9.9052426225
 10
28.3499813219
 20
-9.9007292004
 10
28.3609025707
 20
-9.8966598341
 10
28.3720331524
 20
-9.893043708
 10
28.383347946
 20
-9.8898889835
 10
28.3948214146
 20
-9.8872027807
 10
28.4064276634
 20
-9.884991162
 10
28.4181404977
 20
-9.8832591191
 10
28.4299334823
 20
-9.882010561
 10
28.4417800012
 20
-9.8812483057
 10
28.4536533175
 20
-9.8809740735
  0
LINE
  5
512
100
AcDbEntity
  8
CURVE
100
AcDbLine
 62
7
  6
CONTINUOUS
 10
32.0226230964
 20
24.8580501429
 11
32.0555250506
 21
24.9824051429
  0
LINE
  5
513
100
AcDbEntity
  8
SMUSSO
100
AcDbLine
 62
7
  6
CONTINUOUS
 10
21.1992857143
 20
1.9968571429
 11
20.6992857143
 21
1.4968571429
  0
LINE
  5
514
100
AcDbEntity
  8
ASSI
100
AcDbLine
 62
7
  6
CONTINUOUS
 10
21.1992857143
 20
1.9968571429
 11
20.6992857143
 21
1.4968571429
  0
LINE
  5
515
100
AcDbEntity
  8
DRAFT
100
AcDbLine
 62
7
  6
CONTINUOUS
 10
14.3445633008
 20
-6.0578652706
 11
14.4449222804
 21
-5.957506291
  0
LINE
  5
516
100
AcDbEntity
  8
DRAFT
100
AcDbLine
 62
7
  6
CONTINUOUS
 10
14.3445633008
 20
-6.3578652706
 11
14.4449222804
 21
-6.257506291
  0
LINE
  5
517
100
AcDbEntity
  8
CURVE
100
AcDbLine
 62
253
  6
CONTINUOUS
 10
31.9855957525
 20
26.0111429457
 11
31.9888369138
 21
26.0111429457
  0
LINE
  5
518
100
AcDbEntity
  8
CURVE
100
AcDbLine
 62
253
  6
CONTINUOUS
 10
31.9985603975
 20
26.6611429457
 11
32.0018015585
 21
26.6611429457
  0
LINE
  5
519
100
AcDbEntity
  8
CURVE
100
AcDbLine
 62
7
  6
CONTINUOUS
 10
32.0226230964
 20
27.5325211429
 11
32.0732243478
 21
27.5325211429
  0
LINE
  5
51A
100
AcDbEntity
  8
DRAFT
100
AcDbLine
 62
7
  6
CONTINUOUS
 10
14.3445633008
 20
33.5515795563
 11
14.4449222804
 21
33.4512205768
  0
LINE
  5
51B
100
AcDbEntity
  8
DRAFT
100
AcDbLine
 62
7
  6
CONTINUOUS
 10
14.3445633008
 20
33.8515795563
 11
14.4449222804
 21
33.7512205768
  0
LINE
  5
51C
100
AcDbEntity
  8
CURVE
100
AcDbLine
 62
253
  6
CONTINUOUS
 10
31.9918287551
 20
1.9039998059
 11
32.001302919
 21
1.7682855849
  0
LWPOLYLINE
  5
51D
100
AcDbEntity
  8
CURVE
100
AcDbPolyline
 62
7
  6
CONTINUOUS
 90
16
 70
0
 10
32.0390323988
 20
-0.3340289813
 10
32.0396085125
 20
-0.3430599143
 10
32.0401874932
 20
-0.35146148
 10
32.0407689427
 20
-0.3592346483
 10
32.041352463
 20
-0.3663803891
 10
32.0419376558
 20
-0.3728996725
 10
32.0425241231
 20
-0.3787934682
 10
32.0431114668
 20
-0.3840627464
 10
32.0436992887
 20
-0.3887084769
 10
32.0442871908
 20
-0.3927316297
 10
32.0448747749
 20
-0.3961331748
 10
32.0454616429
 20
-0.398914082
 10
32.0460473967
 20
-0.4010753215
 10
32.0466316381
 20
-0.4026178631
 10
32.0472139691
 20
-0.4035426767
 10
32.0477939915
 20
-0.4038507324
  0
LWPOLYLINE
  5
51E
100
AcDbEntity
  8
CURVE
100
AcDbPolyline
 62
7
  6
CONTINUOUS
 90
17
 70
0
 10
32.0571285552
 20
2.30504895
 10
32.0565556994
 20
2.3147104767
 10
32.0559795781
 20
2.3237416292
 10
32.0554005895
 20
2.3321433804
 10
32.0548191317
 20
2.339916703
 10
32.0542356031
 20
2.3470625696
 10
32.0536504017
 20
2.3535819532
 10
32.0530639258
 20
2.3594758263
 10
32.0524765736
 20
2.3647451619
 10
32.0518887433
 20
2.3693909326
 10
32.051300833
 20
2.3734141111
 10
32.050713241
 20
2.3768156703
 10
32.0501263654
 20
2.3795965828
 10
32.0495406045
 20
2.3817578215
 10
32.0489563564
 20
2.3833003591
 10
32.0483740193
 20
2.3842251682
 10
32.0477939915
 20
2.3845332218
  0
LINE
  5
51F
100
AcDbEntity
  8
CURVE
100
AcDbLine
 62
7
  6
CONTINUOUS
 10
32.0378903647
 20
-0.3140751332
 11
32.0390323988
 21
-0.3340289813
  0
LWPOLYLINE
  5
520
100
AcDbEntity
  8
CURVE
100
AcDbPolyline
 62
7
  6
CONTINUOUS
 90
3
 70
0
 10
32.0405726792
 20
0.1755295769
 10
32.0397025952
 20
0.1916451484
 10
32.0392728176
 20
0.2004908028
  0
LWPOLYLINE
  5
521
100
AcDbEntity
  8
CURVE
100
AcDbPolyline
 62
7
  6
CONTINUOUS
 90
3
 70
0
 10
32.0362087687
 20
-0.279399857
 10
32.0367645759
 20
-0.2915921762
 10
32.0378903647
 20
-0.3140751332
  0
LINE
  5
522
100
AcDbEntity
  8
CURVE
100
AcDbLine
 62
253
  6
CONTINUOUS
 10
31.9918287551
 20
-3.3888575311
 11
31.9870916731
 21
-3.2531428571
  0
LWPOLYLINE
  5
523
100
AcDbEntity
  8
0
100
AcDbPolyline
 62
253
  6
CONTINUOUS
 90
34
 70
0
 10
31.0949138803
 20
-10.0974804244
 10
31.0945972296
 20
-10.0871976569
 10
31.0937170678
 20
-10.076938097
 10
31.0922753815
 20
-10.0667248998
 10
31.0902754245
 20
-10.0565811161
 10
31.0877217105
 20
-10.0465296397
 10
31.0846200031
 20
-10.0365931563
 10
31.0809773027
 20
-10.0267940917
 10
31.0768018306
 20
-10.0171545621
 10
31.0721030107
 20
-10.0076963232
 10
31.0668914479
 20
-9.9984407217
 10
31.0611789043
 20
-9.989408647
 10
31.054978273
 20
-9.9806204838
 10
31.0483035482
 20
-9.9720960667
 10
31.0411697946
 20
-9.9638546347
 10
31.0335931125
 20
-9.9559147881
 10
31.025590602
 20
-9.9482944469
 10
31.0171803244
 20
-9.9410108096
 10
31.0083812612
 20
-9.9340803149
 10
30.9992132713
 20
-9.9275186047
 10
30.9896970463
 20
-9.9213404883
 10
30.9798540638
 20
-9.9155599092
 10
30.9697065389
 20
-9.9101899141
 10
30.9592773738
 20
-9.9052426225
 10
30.9485901066
 20
-9.9007292004
 10
30.9376688579
 20
-9.8966598341
 10
30.9265382762
 20
-9.893043708
 10
30.9152234826
 20
-9.8898889835
 10
30.903750014
 20
-9.8872027807
 10
30.8921437652
 20
-9.884991162
 10
30.8804309309
 20
-9.8832591191
 10
30.8686379462
 20
-9.882010561
 10
30.8567914273
 20
-9.8812483057
 10
30.8449181111
 20
-9.8809740735
  0
LINE
  5
524
100
AcDbEntity
  8
0
100
AcDbLine
 62
253
  6
CONTINUOUS
 10
30.8449181111
 20
37.3746883592
 11
30.8500087122
 21
36.8695068737
  0
LINE
  5
525
100
AcDbEntity
  8
0
100
AcDbLine
 62
253
  6
CONTINUOUS
 10
31.0949138803
 20
37.5911947102
 11
31.0992857143
 21
37.1573422911
  0
LINE
  5
526
100
AcDbEntity
  8
0
100
AcDbLine
 62
7
  6
CONTINUOUS
 10
29.5492857143
 20
-7.1031428571
 11
29.5492857143
 21
-4.510585457
  0
LINE
  5
527
100
AcDbEntity
  8
DRAFT
100
AcDbLine
 62
7
  6
CONTINUOUS
 10
29.5492857143
 20
-7.1031428571
 11
29.5492857143
 21
-4.510585457
  0
LINE
  5
528
100
AcDbEntity
  8
0
100
AcDbLine
 62
7
  6
CONTINUOUS
 10
29.5492857143
 20
32.3468571429
 11
29.5492857143
 21
34.5968571429
  0
LINE
  5
529
100
AcDbEntity
  8
DRAFT
100
AcDbLine
 62
7
  6
CONTINUOUS
 10
29.5492857143
 20
32.3468571429
 11
29.5492857143
 21
34.5968571429
  0
LINE
  5
52A
100
AcDbEntity
  8
0
100
AcDbLine
 62
253
  6
CONTINUOUS
 10
30.1492857143
 20
32.3468571429
 11
30.1492857143
 21
31.9599474445
  0
LINE
  5
52B
100
AcDbEntity
  8
ASSI
100
AcDbLine
 62
7
  6
CONTINUOUS
 10
30.7492857143
 20
16.8968571429
 11
30.7492857143
 21
12.5968571429
  0
LINE
  5
52C
100
AcDbEntity
  8
ASSI
100
AcDbLine
 62
7
  6
CONTINUOUS
 10
30.7492857143
 20
11.8968571429
 11
30.7492857143
 21
7.5968571429
  0
LINE
  5
52D
100
AcDbEntity
  8
ASSI
100
AcDbLine
 62
7
  6
CONTINUOUS
 10
30.7492857143
 20
6.8968571429
 11
30.7492857143
 21
2.5968571429
  0
LINE
  5
52E
100
AcDbEntity
  8
ASSI
100
AcDbLine
 62
7
  6
CONTINUOUS
 10
30.7492857143
 20
1.8968571429
 11
30.7492857143
 21
-2.4031428571
  0
LINE
  5
52F
100
AcDbEntity
  8
0
100
AcDbLine
 62
253
  6
CONTINUOUS
 10
30.8449181111
 20
-10.7487710231
 11
30.8449181111
 21
-9.8809740735
  0
LINE
  5
530
100
AcDbEntity
  8
0
100
AcDbLine
 62
253
  6
CONTINUOUS
 10
30.8449181111
 20
37.3746883592
 11
30.8449181111
 21
38.2424853089
  0
LINE
  5
531
100
AcDbEntity
  8
0
100
AcDbLine
 62
7
  6
CONTINUOUS
 10
31.0949138803
 20
-10.4987752539
 11
31.0949138803
 21
-10.0974804244
  0
LINE
  5
532
100
AcDbEntity
  8
0
100
AcDbLine
 62
7
  6
CONTINUOUS
 10
31.0949138803
 20
37.5911947102
 11
31.0949138803
 21
37.9924895396
  0
LINE
  5
533
100
AcDbEntity
  8
0
100
AcDbLine
 62
7
  6
CONTINUOUS
 10
31.0992857143
 20
-10.0974804244
 11
31.0992857143
 21
-8.6531428571
  0
LINE
  5
534
100
AcDbEntity
  8
0
100
AcDbLine
 62
7
  6
CONTINUOUS
 10
31.0992857143
 20
36.1468571429
 11
31.0992857143
 21
37.5911947102
  0
LINE
  5
535
100
AcDbEntity
  8
0
100
AcDbLine
 62
253
  6
CONTINUOUS
 10
30.8500087122
 20
-9.375792588
 11
30.8449181111
 21
-9.8809740735
  0
LINE
  5
536
100
AcDbEntity
  8
0
100
AcDbLine
 62
253
  6
CONTINUOUS
 10
31.0992857143
 20
-9.6636280054
 11
31.0949138803
 21
-10.0974804244
  0
LWPOLYLINE
  5
537
100
AcDbEntity
  8
0
100
AcDbPolyline
 62
253
  6
CONTINUOUS
 90
34
 70
0
 10
31.0949138803
 20
37.5911947102
 10
31.0945972183
 20
37.5809117491
 10
31.0937170241
 20
37.5706519969
 10
31.0922752842
 20
37.5604386101
 10
31.0902752541
 20
37.5502946463
 10
31.0877214472
 20
37.5402429949
 10
31.0846196218
 20
37.5303063263
 10
31.0809767711
 20
37.5205070558
 10
31.0768011181
 20
37.5108673146
 10
31.0721020959
 20
37.5014088815
 10
31.0668903158
 20
37.4921531123
 10
31.0611775382
 20
37.4831208891
 10
31.054976655
 20
37.474332594
 10
31.0483016613
 20
37.4658080614
 10
31.0411676238
 20
37.4575665326
 10
31.0335906443
 20
37.4496266087
 10
31.0255878247
 20
37.4420062106
 10
31.0171772276
 20
37.4347225375
 10
31.008377835
 20
37.4277920279
 10
30.9992095091
 20
37.4212303253
 10
30.9896929417
 20
37.4150522385
 10
30.9798496055
 20
37.4092717082
 10
30.9697017041
 20
37.4039017757
 10
30.9592721532
 20
37.3989545694
 10
30.9485845256
 20
37.3944412694
 10
30.9376629657
 20
37.3903720663
 10
30.9265321059
 20
37.3867561325
 10
30.9152170423
 20
37.3836016186
 10
30.9037430203
 20
37.3809155823
 10
30.8921362229
 20
37.3787041723
 10
30.880423714
 20
37.3769724898
 10
30.8686322371
 20
37.3757243612
 10
30.8567881263
 20
37.3749624472
 10
30.8449181111
 20
37.3746883592
  0
LINE
  5
538
100
AcDbEntity
  8
CURVE
100
AcDbLine
 62
7
  6
CONTINUOUS
 10
32.0226230964
 20
29.8278701429
 11
32.0732213115
 21
30.7471171429
  0
LINE
  5
539
100
AcDbEntity
  8
CURVE
100
AcDbLine
 62
7
  6
CONTINUOUS
 10
32.0732213115
 20
30.0896051429
 11
32.0383929924
 21
29.5368781429
  0
LINE
  5
53A
100
AcDbEntity
  8
CURVE
100
AcDbLine
 62
253
  6
CONTINUOUS
 10
32.0050427195
 20
23.5968571429
 11
31.9823545912
 21
23.3182855372
  0
LINE
  5
53B
100
AcDbEntity
  8
CURVE
100
AcDbLine
 62
7
  6
CONTINUOUS
 10
32.0732213115
 20
24.5370841429
 11
32.0226230964
 21
24.2659341429
  0
LWPOLYLINE
  5
53C
100
AcDbEntity
  8
RACCORDO
100
AcDbPolyline
 62
253
  6
CONTINUOUS
 90
4
 70
0
 10
31.6078216688
 20
16.8968571429
 10
31.6063021851
 20
16.8915066967
 10
31.6048071483
 20
16.8755170876
 10
31.6033365584
 20
16.849020003
  0
LWPOLYLINE
  5
53D
100
AcDbEntity
  8
ASSI
100
AcDbPolyline
 62
253
  6
CONTINUOUS
 90
4
 70
0
 10
31.6078216688
 20
16.8968571429
 10
31.6063021851
 20
16.8915066967
 10
31.6048071483
 20
16.8755170876
 10
31.6033365584
 20
16.849020003
  0
LINE
  5
53E
100
AcDbEntity
  8
0
100
AcDbLine
 62
7
  6
CONTINUOUS
 10
17.4492857143
 20
-5.9531428571
 11
17.4859413506
 21
-5.9164872208
  0
LINE
  5
53F
100
AcDbEntity
  8
DRAFT
100
AcDbLine
 62
7
  6
CONTINUOUS
 10
17.4492857143
 20
-5.9531428571
 11
17.4859413506
 21
-5.9164872208
  0
LINE
  5
540
100
AcDbEntity
  8
0
100
AcDbLine
 62
7
  6
CONTINUOUS
 10
17.4859413506
 20
-6.1164872208
 11
17.4492857143
 21
-6.1531428571
  0
LINE
  5
541
100
AcDbEntity
  8
DRAFT
100
AcDbLine
 62
7
  6
CONTINUOUS
 10
17.4859413506
 20
-6.1164872208
 11
17.4492857143
 21
-6.1531428571
  0
LINE
  5
542
100
AcDbEntity
  8
0
100
AcDbLine
 62
7
  6
CONTINUOUS
 10
13.7587440881
 20
-8.5891128827
 11
13.6934678845
 21
-8.6473250273
  0
LINE
  5
543
100
AcDbEntity
  8
0
100
AcDbLine
 62
253
  6
CONTINUOUS
 10
9.7992857143
 20
-8.1531597802
 11
9.8080125821
 21
-8.1473419504
  0
LINE
  5
544
100
AcDbEntity
  8
0
100
AcDbLine
 62
253
  6
CONTINUOUS
 10
10.2992793682
 20
-8.6531428571
 11
10.308006236
 21
-8.6473250273
  0
LINE
  5
545
100
AcDbEntity
  8
0
100
AcDbLine
 62
253
  6
CONTINUOUS
 10
9.7992857143
 20
-3.9248419059
 11
9.9214711688
 21
-3.8742310335
  0
LINE
  5
546
100
AcDbEntity
  8
RACCORDO
100
AcDbLine
 62
253
  6
CONTINUOUS
 10
9.7992857143
 20
-3.9248419059
 11
9.9214711688
 21
-3.8742310335
  0
LINE
  5
547
100
AcDbEntity
  8
0
100
AcDbLine
 62
253
  6
CONTINUOUS
 10
10.3849829338
 20
-5.3388400767
 11
10.5071683883
 21
-5.2882292043
  0
LINE
  5
548
100
AcDbEntity
  8
RACCORDO
100
AcDbLine
 62
253
  6
CONTINUOUS
 10
10.3849829338
 20
-5.3388400767
 11
10.5071683883
 21
-5.2882292043
  0
LWPOLYLINE
  5
549
100
AcDbEntity
  8
0
100
AcDbPolyline
 62
253
  6
CONTINUOUS
 90
3
 70
0
 10
22.7520376509
 20
31.0447586867
 10
22.7014281796
 20
31.0326130688
 10
22.6492857143
 20
31.0285289856
  0
LWPOLYLINE
  5
54A
100
AcDbEntity
  8
RACCORDO
100
AcDbPolyline
 62
253
  6
CONTINUOUS
 90
3
 70
0
 10
22.7520376509
 20
31.0447586867
 10
22.7014281796
 20
31.0326130688
 10
22.6492857143
 20
31.0285289856
  0
LINE
  5
54B
100
AcDbEntity
  8
CURVE
100
AcDbLine
 62
253
  6
CONTINUOUS
 10
31.9904574943
 20
28.0540000443
 11
31.9855957525
 21
28.0540000443
  0
LINE
  5
54C
100
AcDbEntity
  8
CURVE
100
AcDbLine
 62
7
  6
CONTINUOUS
 10
32.0732243478
 20
28.1377921429
 11
32.0226230964
 21
28.1377921429
  0
LINE
  5
54D
100
AcDbEntity
  8
CURVE
100
AcDbLine
 62
253
  6
CONTINUOUS
 10
32.0018015585
 20
28.1468571429
 11
31.9969398163
 21
28.1468571429
  0
LINE
  5
54E
100
AcDbEntity
  8
CURVE
100
AcDbLine
 62
253
  6
CONTINUOUS
 10
31.9823545912
 20
28.7040000443
 11
32.0050427195
 21
28.7040000443
  0
LINE
  5
54F
100
AcDbEntity
  8
CURVE
100
AcDbLine
 62
253
  6
CONTINUOUS
 10
31.9953192365
 20
29.0754285936
 11
31.9823545912
 21
29.0754285936
  0
LINE
  5
550
100
AcDbEntity
  8
CURVE
100
AcDbLine
 62
253
  6
CONTINUOUS
 10
31.9855957525
 20
29.7254285936
 11
32.0018015585
 21
29.7254285936
  0
LINE
  5
551
100
AcDbEntity
  8
0
100
AcDbLine
 62
253
  6
CONTINUOUS
 10
9.9214711688
 20
31.3679453192
 11
9.7992857143
 21
31.4185561916
  0
LINE
  5
552
100
AcDbEntity
  8
RACCORDO
100
AcDbLine
 62
253
  6
CONTINUOUS
 10
9.9214711688
 20
31.3679453192
 11
9.7992857143
 21
31.4185561916
  0
LINE
  5
553
100
AcDbEntity
  8
0
100
AcDbLine
 62
253
  6
CONTINUOUS
 10
10.5071683883
 20
32.78194349
 11
10.3849829338
 21
32.8325543624
  0
LINE
  5
554
100
AcDbEntity
  8
RACCORDO
100
AcDbLine
 62
253
  6
CONTINUOUS
 10
10.5071683883
 20
32.78194349
 11
10.3849829338
 21
32.8325543624
  0
LINE
  5
555
100
AcDbEntity
  8
0
100
AcDbLine
 62
253
  6
CONTINUOUS
 10
9.8080125821
 20
35.6410562361
 11
9.7992857143
 21
35.6468740659
  0
LINE
  5
556
100
AcDbEntity
  8
0
100
AcDbLine
 62
253
  6
CONTINUOUS
 10
10.308006236
 20
36.141039313
 11
10.2992793682
 21
36.1468571429
  0
LINE
  5
557
100
AcDbEntity
  8
0
100
AcDbLine
 62
7
  6
CONTINUOUS
 10
13.7587440881
 20
36.0828271684
 11
13.6934678845
 21
36.141039313
  0
LWPOLYLINE
  5
558
100
AcDbEntity
  8
0
100
AcDbPolyline
 62
253
  6
CONTINUOUS
 90
4
 70
0
 10
19.0564494314
 20
31.091305849
 10
19.0194723813
 20
31.124379128
 10
18.9894780932
 20
31.1626930642
 10
18.967377928
 20
31.205083508
  0
LWPOLYLINE
  5
559
100
AcDbEntity
  8
RACCORDO
100
AcDbPolyline
 62
253
  6
CONTINUOUS
 90
4
 70
0
 10
19.0564494314
 20
31.091305849
 10
19.0194723813
 20
31.124379128
 10
18.9894780932
 20
31.1626930642
 10
18.967377928
 20
31.205083508
  0
LINE
  5
55A
100
AcDbEntity
  8
0
100
AcDbLine
 62
7
  6
CONTINUOUS
 10
17.4492857143
 20
33.4468571429
 11
17.4859413506
 21
33.4102015065
  0
LINE
  5
55B
100
AcDbEntity
  8
DRAFT
100
AcDbLine
 62
7
  6
CONTINUOUS
 10
17.4492857143
 20
33.4468571429
 11
17.4859413506
 21
33.4102015065
  0
LINE
  5
55C
100
AcDbEntity
  8
0
100
AcDbLine
 62
7
  6
CONTINUOUS
 10
17.4492857143
 20
33.6468571429
 11
17.4859413506
 21
33.6102015065
  0
LINE
  5
55D
100
AcDbEntity
  8
DRAFT
100
AcDbLine
 62
7
  6
CONTINUOUS
 10
17.4492857143
 20
33.6468571429
 11
17.4859413506
 21
33.6102015065
  0
LINE
  5
55E
100
AcDbEntity
  8
CURVE
100
AcDbLine
 62
253
  6
CONTINUOUS
 10
31.9823545912
 20
22.7611429457
 11
32.0050427195
 21
22.48257134
  0
LINE
  5
55F
100
AcDbEntity
  8
CURVE
100
AcDbLine
 62
253
  6
CONTINUOUS
 10
32.041692773
 20
14.6882857038
 11
32.0643809014
 21
14.3354285083
  0
LINE
  5
560
100
AcDbEntity
  8
CURVE
100
AcDbLine
 62
7
  6
CONTINUOUS
 10
32.0593182071
 20
22.9799831429
 11
32.0405405678
 21
23.2813571429
  0
LINE
  5
561
100
AcDbEntity
  8
CURVE
100
AcDbLine
 62
7
  6
CONTINUOUS
 10
32.0383929924
 20
29.5368781429
 11
32.0732213115
 21
28.9672671429
  0
LINE
  5
562
100
AcDbEntity
  8
CURVE
100
AcDbLine
 62
253
  6
CONTINUOUS
 10
31.9823545912
 20
14.2444761906
 11
32.0050427195
 21
13.8730476413
  0
LINE
  5
563
100
AcDbEntity
  8
CURVE
100
AcDbLine
 62
7
  6
CONTINUOUS
 10
32.032724302
 20
23.4051691429
 11
32.0226230964
 21
23.5721861429
  0
LINE
  5
564
100
AcDbEntity
  8
CURVE
100
AcDbLine
 62
253
  6
CONTINUOUS
 10
31.9823545912
 20
23.3182855372
 11
31.9985603975
 21
23.0397145514
  0
LINE
  5
565
100
AcDbEntity
  8
CURVE
100
AcDbLine
 62
7
  6
CONTINUOUS
 10
32.0226230964
 20
24.1708901429
 11
32.0732213115
 21
23.2613741429
  0
LINE
  5
566
100
AcDbEntity
  8
CURVE
100
AcDbLine
 62
7
  6
CONTINUOUS
 10
32.0732213115
 20
28.3624091429
 11
32.0226230964
 21
29.2944741429
  0
LINE
  5
567
100
AcDbEntity
  8
CURVE
100
AcDbLine
 62
7
  6
CONTINUOUS
 10
32.0582628776
 20
2.2838308832
 11
32.0571285552
 21
2.30504895
  0
LINE
  5
568
100
AcDbEntity
  8
CURVE
100
AcDbLine
 62
7
  6
CONTINUOUS
 10
32.0554423416
 20
1.7973549831
 11
32.0563055137
 21
1.7801904442
  0
LWPOLYLINE
  5
569
100
AcDbEntity
  8
CURVE
100
AcDbPolyline
 62
7
  6
CONTINUOUS
 90
26
 70
0
 10
32.0533599493
 20
19.7017401333
 10
32.0538243489
 20
19.6917554991
 10
32.0542945372
 20
19.6826797461
 10
32.0547698338
 20
19.6745197185
 10
32.0552495585
 20
19.6672822604
 10
32.0557330308
 20
19.6609742159
 10
32.0562171632
 20
19.6556229017
 10
32.0567038974
 20
19.6511805074
 10
32.0571927986
 20
19.6476290619
 10
32.0576834322
 20
19.6449505943
 10
32.0581753633
 20
19.6431271334
 10
32.0586681571
 20
19.6421407084
 10
32.059161379
 20
19.6419733482
 10
32.0596545941
 20
19.6426070818
 10
32.0601474041
 20
19.6440309117
 10
32.0606392556
 20
19.646260788
 10
32.0611296318
 20
19.6493194746
 10
32.0616180157
 20
19.6532297356
 10
32.0621038907
 20
19.658014335
 10
32.0625867396
 20
19.6636960369
 10
32.0630660459
 20
19.6702976053
 10
32.0635412924
 20
19.6778418042
 10
32.0640123026
 20
19.6863531061
 10
32.0644779926
 20
19.6958210028
 10
32.064937626
 20
19.7062351414
 10
32.0658357774
 20
19.729860733
  0
LINE
  5
56A
100
AcDbEntity
  8
CURVE
100
AcDbLine
 62
7
  6
CONTINUOUS
 10
32.0451290315
 20
25.7412121429
 11
32.0732213115
 21
25.1359411429
  0
LINE
  5
56B
100
AcDbEntity
  8
CURVE
100
AcDbLine
 62
7
  6
CONTINUOUS
 10
32.0555250506
 20
24.9824051429
 11
32.0226230964
 21
25.7020731429
  0
LINE
  5
56C
100
AcDbEntity
  8
CURVE
100
AcDbLine
 62
7
  6
CONTINUOUS
 10
32.0593793596
 20
2.2600796469
 11
32.0582628776
 21
2.2838308832
  0
LINE
  5
56D
100
AcDbEntity
  8
CURVE
100
AcDbLine
 62
7
  6
CONTINUOUS
 10
32.0554639834
 20
20.2374711144
 11
32.0550367374
 21
20.2465418795
  0
LINE
  5
56E
100
AcDbEntity
  8
CURVE
100
AcDbLine
 62
7
  6
CONTINUOUS
 10
32.0392728176
 20
0.2004908028
 11
32.0384251601
 21
0.2197858379
  0
LINE
  5
56F
100
AcDbEntity
  8
CURVE
100
AcDbLine
 62
7
  6
CONTINUOUS
 10
32.0563055137
 20
1.7801904442
 11
32.0571531864
 21
1.7608949902
  0
LINE
  5
570
100
AcDbEntity
  8
CURVE
100
AcDbLine
 62
7
  6
CONTINUOUS
 10
32.0351133194
 20
-0.2531086873
 11
32.0362087687
 21
-0.279399857
  0
LINE
  5
571
100
AcDbEntity
  8
CURVE
100
AcDbLine
 62
7
  6
CONTINUOUS
 10
32.0604748157
 20
2.2337874591
 11
32.0593793596
 21
2.2600796469
  0
LINE
  5
572
100
AcDbEntity
  8
CURVE
100
AcDbLine
 62
7
  6
CONTINUOUS
 10
32.0550367374
 20
20.2465418795
 11
32.0546210391
 21
20.2569096027
  0
LINE
  5
573
100
AcDbEntity
  8
CURVE
100
AcDbLine
 62
7
  6
CONTINUOUS
 10
32.0524512378
 20
19.7244086692
 11
32.0533599493
 21
19.7017401333
  0
LINE
  5
574
100
AcDbEntity
  8
CURVE
100
AcDbLine
 62
7
  6
CONTINUOUS
 10
32.0384251601
 20
0.2197858379
 11
32.0375951911
 21
0.2412564937
  0
LINE
  5
575
100
AcDbEntity
  8
CURVE
100
AcDbLine
 62
7
  6
CONTINUOUS
 10
32.0571531864
 20
1.7608949902
 11
32.0579831696
 21
1.7394238308
  0
LINE
  5
576
100
AcDbEntity
  8
CURVE
100
AcDbLine
 62
253
  6
CONTINUOUS
 10
32.0514162567
 20
15.3939999842
 11
32.0643809014
 21
15.0411428256
  0
LINE
  5
577
100
AcDbEntity
  8
CURVE
100
AcDbLine
 62
253
  6
CONTINUOUS
 10
32.0060400005
 20
-2.4388575311
 11
32.0107770819
 21
-2.5745712991
  0
LINE
  5
578
100
AcDbEntity
  8
CURVE
100
AcDbLine
 62
253
  6
CONTINUOUS
 10
31.9918287551
 20
5.7040000324
 11
31.9870916731
 21
5.8397142534
  0
LINE
  5
579
100
AcDbEntity
  8
CURVE
100
AcDbLine
 62
253
  6
CONTINUOUS
 10
32.0060400005
 20
6.6540000324
 11
32.0107770819
 21
6.5182856981
  0
LINE
  5
57A
100
AcDbEntity
  8
CURVE
100
AcDbLine
 62
7
  6
CONTINUOUS
 10
32.03351653
 20
-0.2088910554
 11
32.0351133194
 21
-0.2531086873
  0
LINE
  5
57B
100
AcDbEntity
  8
CURVE
100
AcDbLine
 62
7
  6
CONTINUOUS
 10
32.0620716079
 20
2.1895678702
 11
32.0604748157
 21
2.2337874591
  0
LINE
  5
57C
100
AcDbEntity
  8
CURVE
100
AcDbLine
 62
7
  6
CONTINUOUS
 10
32.0546210391
 20
20.2569096027
 11
32.0542193158
 21
20.268582777
  0
LINE
  5
57D
100
AcDbEntity
  8
CURVE
100
AcDbLine
 62
7
  6
CONTINUOUS
 10
32.0515741265
 20
19.750627352
 11
32.0524512378
 21
19.7244086692
  0
LINE
  5
57E
100
AcDbEntity
  8
CURVE
100
AcDbLine
 62
7
  6
CONTINUOUS
 10
32.0375951911
 20
0.2412564937
 11
32.0364542759
 21
0.2754756843
  0
LINE
  5
57F
100
AcDbEntity
  8
CURVE
100
AcDbLine
 62
7
  6
CONTINUOUS
 10
32.0579831696
 20
1.7394238308
 11
32.0591241029
 21
1.7052037679
  0
LINE
  5
580
100
AcDbEntity
  8
CURVE
100
AcDbLine
 62
7
  6
CONTINUOUS
 10
32.0319849567
 20
-0.1589130918
 11
32.03351653
 21
-0.2088910554
  0
LINE
  5
581
100
AcDbEntity
  8
CURVE
100
AcDbLine
 62
7
  6
CONTINUOUS
 10
32.063603173
 20
2.1395873665
 11
32.0620716079
 21
2.1895678702
  0
LINE
  5
582
100
AcDbEntity
  8
CURVE
100
AcDbLine
 62
7
  6
CONTINUOUS
 10
32.0364542759
 20
0.2754756843
 11
32.0354881542
 21
0.3094782336
  0
LINE
  5
583
100
AcDbEntity
  8
CURVE
100
AcDbLine
 62
7
  6
CONTINUOUS
 10
32.0591241029
 20
1.7052037679
 11
32.0600902395
 21
1.6712003581
  0
LINE
  5
584
100
AcDbEntity
  8
CURVE
100
AcDbLine
 62
7
  6
CONTINUOUS
 10
32.050734187
 20
19.7804742483
 11
32.0515741265
 21
19.750627352
  0
LINE
  5
585
100
AcDbEntity
  8
CURVE
100
AcDbLine
 62
7
  6
CONTINUOUS
 10
32.0542193158
 20
20.268582777
 11
32.053648244
 21
20.288558838
  0
LINE
  5
586
100
AcDbEntity
  8
CURVE
100
AcDbLine
 62
253
  6
CONTINUOUS
 10
32.0155141634
 20
-1.2174281831
 11
32.0084085402
 21
-0.9459997411
  0
LINE
  5
587
100
AcDbEntity
  8
CURVE
100
AcDbLine
 62
253
  6
CONTINUOUS
 10
32.0155141634
 20
7.8754285593
 11
32.0084085402
 21
8.1468571429
  0
LINE
  5
588
100
AcDbEntity
  8
CURVE
100
AcDbLine
 62
253
  6
CONTINUOUS
 10
31.9953192365
 20
11.9230474864
 11
32.0050427195
 21
11.551619092
  0
LINE
  5
589
100
AcDbEntity
  8
CURVE
100
AcDbLine
 62
253
  6
CONTINUOUS
 10
31.9823545912
 20
-0.9459997411
 11
32.0060400005
 21
-1.8959997411
  0
LINE
  5
58A
100
AcDbEntity
  8
CURVE
100
AcDbLine
 62
253
  6
CONTINUOUS
 10
31.9823545912
 20
8.1468571429
 11
32.0060400005
 21
7.1968571429
  0
LWPOLYLINE
  5
58B
100
AcDbEntity
  8
0
100
AcDbPolyline
 62
7
  6
CONTINUOUS
 90
34
 70
0
 10
31.0949138803
 20
37.9924895396
 10
31.0946302514
 20
38.0043861986
 10
31.0937808113
 20
38.0162559168
 10
31.0923674825
 20
38.0280717991
 10
31.0903934639
 20
38.0398070789
 10
31.0878632269
 20
38.0514351582
 10
31.0847825083
 20
38.0629296692
 10
31.0811582911
 20
38.0742645618
 10
31.0769987868
 20
38.0854141581
 10
31.0723134225
 20
38.0963531916
 10
31.0671128149
 20
38.1070568781
 10
31.0614087496
 20
38.1175009633
 10
31.0552141573
 20
38.1276617754
 10
31.0485430772
 20
38.1375162915
 10
31.0414106262
 20
38.1470421858
 10
31.0338329697
 20
38.1562178728
 10
31.0258272755
 20
38.1650225683
 10
31.0174116893
 20
38.1734363199
 10
31.0086052977
 20
38.1814400515
 10
30.9994280845
 20
38.1890156124
 10
30.989900823
 20
38.1961458657
 10
30.9800450383
 20
38.2028147029
 10
30.9698829627
 20
38.2090070654
 10
30.9594377092
 20
38.2147088538
 10
30.9487331744
 20
38.2199070392
 10
30.9377937733
 20
38.2245898128
 10
30.9266441613
 20
38.2287466672
 10
30.9153093962
 20
38.2323682769
 10
30.9038134306
 20
38.2354468556
 10
30.8921839953
 20
38.2379748455
 10
30.8804525007
 20
38.2399457914
 10
30.8686473252
 20
38.2413557874
 10
30.8567935826
 20
38.2422026892
 10
30.8449181111
 20
38.2424853089
  0
LWPOLYLINE
  5
58C
100
AcDbEntity
  8
0
100
AcDbPolyline
 62
7
  6
CONTINUOUS
 90
4
 70
0
 10
31.0992857143
 20
37.9968613736
 10
31.099002564
 20
38.0087566589
 10
31.0981537485
 20
38.0206249984
 10
31.0967411884
 20
38.032439509
  0
LINE
  5
58D
100
AcDbEntity
  8
CURVE
100
AcDbLine
 62
7
  6
CONTINUOUS
 10
32.0300628853
 20
-0.0832700264
 11
32.0319849567
 21
-0.1589130918
  0
LINE
  5
58E
100
AcDbEntity
  8
CURVE
100
AcDbLine
 62
7
  6
CONTINUOUS
 10
32.065525213
 20
2.063939877
 11
32.063603173
 21
2.1395873665
  0
LINE
  5
58F
100
AcDbEntity
  8
CURVE
100
AcDbLine
 62
7
  6
CONTINUOUS
 10
32.0354881542
 20
0.3094782336
 11
32.0345687121
 21
0.3472399262
  0
LINE
  5
590
100
AcDbEntity
  8
CURVE
100
AcDbLine
 62
7
  6
CONTINUOUS
 10
32.0600902395
 20
1.6712003581
 11
32.0610096984
 21
1.633437908
  0
LINE
  5
591
100
AcDbEntity
  8
CURVE
100
AcDbLine
 62
7
  6
CONTINUOUS
 10
32.053648244
 20
20.288558838
 11
32.0531222698
 21
20.3115199376
  0
LINE
  5
592
100
AcDbEntity
  8
CURVE
100
AcDbLine
 62
7
  6
CONTINUOUS
 10
32.0495668433
 20
19.8318265365
 11
32.050734187
 21
19.7804742483
  0
LWPOLYLINE
  5
593
100
AcDbEntity
  8
0
100
AcDbPolyline
 62
7
  6
CONTINUOUS
 90
40
 70
0
 10
32.0992857143
 20
35.6466282908
 10
32.0988868685
 20
35.6667570861
 10
32.0976800405
 20
35.6868483375
 10
32.0956672812
 20
35.7068697158
 10
32.0928523037
 20
35.7267850498
 10
32.089239657
 20
35.746566284
 10
32.0848333605
 20
35.7661932829
 10
32.0796391372
 20
35.785635799
 10
32.0736644437
 20
35.8048605007
 10
32.0669158987
 20
35.8238425112
 10
32.05939823
 20
35.842561099
 10
32.0511254553
 20
35.8609742341
 10
32.0421224284
 20
35.879026737
 10
32.0324141604
 20
35.8966743548
 10
32.0220099257
 20
35.9139055036
 10
32.0109130232
 20
35.9307148327
 10
31.9991288009
 20
35.9470892034
 10
31.9866850588
 20
35.9629851533
 10
31.9736206674
 20
35.9783534003
 10
31.959972554
 20
35.9931554469
 10
31.945751294
 20
36.0073845059
 10
31.9309577245
 20
36.0210398926
 10
31.9155991989
 20
36.0341106751
 10
31.8997137843
 20
36.0465604409
 10
31.8833492697
 20
36.0583515897
 10
31.8665484225
 20
36.0694565223
 10
31.8493248942
 20
36.0798693425
 10
31.8316842285
 20
36.0895866958
 10
31.8136369835
 20
36.0985995679
 10
31.7952283469
 20
36.106882268
 10
31.7765168151
 20
36.1144088188
 10
31.7575474738
 20
36.1211643015
 10
31.7383383584
 20
36.127145478
 10
31.7189089435
 20
36.1323478047
 10
31.6992794252
 20
36.1367657282
 10
31.679492891
 20
36.1403894399
 10
31.6596035815
 20
36.1432111107
 10
31.6396514579
 20
36.1452288501
 10
31.6196616135
 20
36.146443769
 10
31.599666314
 20
36.1468571429
  0
LINE
  5
594
100
AcDbEntity
  8
CURVE
100
AcDbLine
 62
7
  6
CONTINUOUS
 10
32.0345687121
 20
0.3472399262
 11
32.0337051442
 21
0.3889303635
  0
LINE
  5
595
100
AcDbEntity
  8
CURVE
100
AcDbLine
 62
7
  6
CONTINUOUS
 10
32.0610096984
 20
1.633437908
 11
32.061873288
 21
1.5917470107
  0
LINE
  5
596
100
AcDbEntity
  8
ASSI
100
AcDbLine
 62
7
  6
CONTINUOUS
 10
31.8997864408
 20
-2.5202804041
 11
31.8986190069
 21
-2.4619470391
  0
LINE
  5
597
100
AcDbEntity
  8
RACCORDO
100
AcDbLine
 62
7
  6
CONTINUOUS
 10
31.8997869205
 20
-2.5202809953
 11
31.8986086534
 21
-2.4613865665
  0
LINE
  5
598
100
AcDbEntity
  8
ASSI
100
AcDbLine
 62
7
  6
CONTINUOUS
 10
31.8997864408
 20
2.4797195959
 11
31.8986190069
 21
2.5380529609
  0
LINE
  5
599
100
AcDbEntity
  8
RACCORDO
100
AcDbLine
 62
7
  6
CONTINUOUS
 10
31.8997869205
 20
2.4797190047
 11
31.8986086534
 21
2.5386134335
  0
LINE
  5
59A
100
AcDbEntity
  8
CURVE
100
AcDbLine
 62
7
  6
CONTINUOUS
 10
32.028392358
 20
-0.0018220769
 11
32.0300628853
 21
-0.0832700264
  0
LINE
  5
59B
100
AcDbEntity
  8
ASSI
100
AcDbLine
 62
7
  6
CONTINUOUS
 10
31.8997864408
 20
7.4797195959
 11
31.8986190069
 21
7.5380529609
  0
LINE
  5
59C
100
AcDbEntity
  8
RACCORDO
100
AcDbLine
 62
7
  6
CONTINUOUS
 10
31.8997869205
 20
7.4797190047
 11
31.8986086534
 21
7.5386134335
  0
LINE
  5
59D
100
AcDbEntity
  8
CURVE
100
AcDbLine
 62
7
  6
CONTINUOUS
 10
32.0671957873
 20
1.9824831926
 11
32.065525213
 21
2.063939877
  0
LINE
  5
59E
100
AcDbEntity
  8
ASSI
100
AcDbLine
 62
7
  6
CONTINUOUS
 10
31.8997864408
 20
12.4797195959
 11
31.8986190069
 21
12.5380529609
  0
LINE
  5
59F
100
AcDbEntity
  8
RACCORDO
100
AcDbLine
 62
7
  6
CONTINUOUS
 10
31.8997869205
 20
12.4797190047
 11
31.8986086534
 21
12.5386134335
  0
LINE
  5
5A0
100
AcDbEntity
  8
CURVE
100
AcDbLine
 62
253
  6
CONTINUOUS
 10
32.0449339344
 20
13.0122144119
 11
32.041692773
 21
13.1886428992
  0
LINE
  5
5A1
100
AcDbEntity
  8
CURVE
100
AcDbLine
 62
253
  6
CONTINUOUS
 10
32.0107770819
 20
-2.5745712991
 11
32.0155141634
 21
-2.8459997411
  0
LINE
  5
5A2
100
AcDbEntity
  8
CURVE
100
AcDbLine
 62
253
  6
CONTINUOUS
 10
32.0060400005
 20
0.1397140269
 11
32.0155141634
 21
-0.4031428571
  0
LINE
  5
5A3
100
AcDbEntity
  8
CURVE
100
AcDbLine
 62
253
  6
CONTINUOUS
 10
31.9867102795
 20
2.1972818342
 11
31.9918287551
 21
1.9039998059
  0
LINE
  5
5A4
100
AcDbEntity
  8
CURVE
100
AcDbLine
 62
253
  6
CONTINUOUS
 10
32.0155141634
 20
2.4468571429
 11
32.0107770819
 21
2.7182855849
  0
LINE
  5
5A5
100
AcDbEntity
  8
CURVE
100
AcDbLine
 62
253
  6
CONTINUOUS
 10
32.0060400005
 20
5.1611429219
 11
32.0155141634
 21
4.6182858114
  0
LINE
  5
5A6
100
AcDbEntity
  8
CURVE
100
AcDbLine
 62
253
  6
CONTINUOUS
 10
32.0107770819
 20
6.5182856981
 11
32.0155141634
 21
6.2468571429
  0
LINE
  5
5A7
100
AcDbEntity
  8
CURVE
100
AcDbLine
 62
253
  6
CONTINUOUS
 10
32.0018015585
 20
24.6182855372
 11
32.0050427195
 21
24.43257134
  0
LINE
  5
5A8
100
AcDbEntity
  8
CURVE
100
AcDbLine
 62
253
  6
CONTINUOUS
 10
32.0018015585
 20
26.6611429457
 11
32.0050427195
 21
26.4754284386
  0
LINE
  5
5A9
100
AcDbEntity
  8
CURVE
100
AcDbLine
 62
253
  6
CONTINUOUS
 10
31.9969398163
 20
28.1468571429
 11
31.9936986553
 21
28.332571495
  0
LINE
  5
5AA
100
AcDbEntity
  8
CURVE
100
AcDbLine
 62
253
  6
CONTINUOUS
 10
32.0018015585
 20
29.7254285936
 11
32.0050427195
 21
29.5397143189
  0
LINE
  5
5AB
100
AcDbEntity
  8
CURVE
100
AcDbLine
 62
253
  6
CONTINUOUS
 10
31.9953192365
 20
30.0968571429
 11
31.9920780748
 21
30.2825714175
  0
LINE
  5
5AC
100
AcDbEntity
  8
CURVE
100
AcDbLine
 62
7
  6
CONTINUOUS
 10
32.0510264706
 20
4.3752821429
 11
32.073083127
 21
3.0900211429
  0
LINE
  5
5AD
100
AcDbEntity
  8
CURVE
100
AcDbLine
 62
7
  6
CONTINUOUS
 10
32.073083127
 20
2.3958071429
 11
32.0522664497
 21
3.6426371429
  0
LINE
  5
5AE
100
AcDbEntity
  8
CURVE
100
AcDbLine
 62
7
  6
CONTINUOUS
 10
32.0460523326
 20
4.0050381429
 11
32.0400270042
 21
4.3752821429
  0
LINE
  5
5AF
100
AcDbEntity
  8
RACCORDO
100
AcDbLine
 62
7
  6
CONTINUOUS
 10
31.8986086534
 20
-2.4613865665
 11
31.8974859197
 21
-2.3957413495
  0
LINE
  5
5B0
100
AcDbEntity
  8
ASSI
100
AcDbLine
 62
7
  6
CONTINUOUS
 10
31.8986190069
 20
-2.4619470391
 11
31.8974560518
 21
-2.393857789
  0
LINE
  5
5B1
100
AcDbEntity
  8
RACCORDO
100
AcDbLine
 62
7
  6
CONTINUOUS
 10
31.8986086534
 20
2.5386134335
 11
31.8974859197
 21
2.6042586505
  0
LINE
  5
5B2
100
AcDbEntity
  8
ASSI
100
AcDbLine
 62
7
  6
CONTINUOUS
 10
31.8986190069
 20
2.5380529609
 11
31.8974560518
 21
2.606142211
  0
LINE
  5
5B3
100
AcDbEntity
  8
RACCORDO
100
AcDbLine
 62
7
  6
CONTINUOUS
 10
31.8986086534
 20
7.5386134335
 11
31.8974859197
 21
7.6042586505
  0
LINE
  5
5B4
100
AcDbEntity
  8
ASSI
100
AcDbLine
 62
7
  6
CONTINUOUS
 10
31.8986190069
 20
7.5380529609
 11
31.8974560518
 21
7.606142211
  0
LINE
  5
5B5
100
AcDbEntity
  8
RACCORDO
100
AcDbLine
 62
7
  6
CONTINUOUS
 10
31.8986086534
 20
12.5386134335
 11
31.8974859197
 21
12.6042586505
  0
LINE
  5
5B6
100
AcDbEntity
  8
ASSI
100
AcDbLine
 62
7
  6
CONTINUOUS
 10
31.8986190069
 20
12.5380529609
 11
31.8974560518
 21
12.606142211
  0
LINE
  5
5B7
100
AcDbEntity
  8
CURVE
100
AcDbLine
 62
7
  6
CONTINUOUS
 10
32.0337051442
 20
0.3889303635
 11
32.0328462303
 21
0.4393950769
  0
LINE
  5
5B8
100
AcDbEntity
  8
CURVE
100
AcDbLine
 62
7
  6
CONTINUOUS
 10
32.061873288
 20
1.5917470107
 11
32.0627351626
 21
1.5410646823
  0
LINE
  5
5B9
100
AcDbEntity
  8
CURVE
100
AcDbLine
 62
7
  6
CONTINUOUS
 10
32.0531222698
 20
20.3115199376
 11
32.0525063543
 21
20.3467479096
  0
LINE
  5
5BA
100
AcDbEntity
  8
CURVE
100
AcDbLine
 62
7
  6
CONTINUOUS
 10
32.0478561296
 20
19.9323275646
 11
32.0495668433
 21
19.8318265365
  0
LINE
  5
5BB
100
AcDbEntity
  8
CURVE
100
AcDbLine
 62
7
  6
CONTINUOUS
 10
32.02663366
 20
0.1087939021
 11
32.028392358
 21
-0.0018220769
  0
LINE
  5
5BC
100
AcDbEntity
  8
CURVE
100
AcDbLine
 62
7
  6
CONTINUOUS
 10
32.0689545954
 20
1.8718499848
 11
32.0671957873
 21
1.9824831926
  0
LINE
  5
5BD
100
AcDbEntity
  8
RACCORDO
100
AcDbLine
 62
7
  6
CONTINUOUS
 10
31.8974859197
 20
-2.3957413495
 11
31.8963685918
 21
-2.3200774533
  0
LINE
  5
5BE
100
AcDbEntity
  8
RACCORDO
100
AcDbLine
 62
7
  6
CONTINUOUS
 10
31.8974859197
 20
2.6042586505
 11
31.8963685918
 21
2.6799225467
  0
LINE
  5
5BF
100
AcDbEntity
  8
RACCORDO
100
AcDbLine
 62
7
  6
CONTINUOUS
 10
31.8974859197
 20
7.6042586505
 11
31.8963685918
 21
7.6799225467
  0
LINE
  5
5C0
100
AcDbEntity
  8
RACCORDO
100
AcDbLine
 62
7
  6
CONTINUOUS
 10
31.8974859197
 20
12.6042586505
 11
31.8963685918
 21
12.6799225467
  0
LINE
  5
5C1
100
AcDbEntity
  8
ASSI
100
AcDbLine
 62
7
  6
CONTINUOUS
 10
31.8974560518
 20
-2.393857789
 11
31.8962984264
 21
-2.3149580979
  0
LINE
  5
5C2
100
AcDbEntity
  8
ASSI
100
AcDbLine
 62
7
  6
CONTINUOUS
 10
31.8974560518
 20
2.606142211
 11
31.8962984264
 21
2.6850419021
  0
LINE
  5
5C3
100
AcDbEntity
  8
ASSI
100
AcDbLine
 62
7
  6
CONTINUOUS
 10
31.8974560518
 20
7.606142211
 11
31.8962984264
 21
7.6850419021
  0
LINE
  5
5C4
100
AcDbEntity
  8
ASSI
100
AcDbLine
 62
7
  6
CONTINUOUS
 10
31.8974560518
 20
12.606142211
 11
31.8962984264
 21
12.6850419021
  0
LINE
  5
5C5
100
AcDbEntity
  8
CURVE
100
AcDbLine
 62
7
  6
CONTINUOUS
 10
32.0328462303
 20
0.4393950769
 11
32.0320768669
 21
0.4954083868
  0
LINE
  5
5C6
100
AcDbEntity
  8
CURVE
100
AcDbLine
 62
7
  6
CONTINUOUS
 10
32.0627351626
 20
1.5410646823
 11
32.0635061381
 21
1.4847873905
  0
LINE
  5
5C7
100
AcDbEntity
  8
RACCORDO
100
AcDbLine
 62
7
  6
CONTINUOUS
 10
31.8963685918
 20
-2.3200774533
 11
31.8950465994
 21
-2.2159910386
  0
LINE
  5
5C8
100
AcDbEntity
  8
RACCORDO
100
AcDbLine
 62
7
  6
CONTINUOUS
 10
31.8963685918
 20
2.6799225467
 11
31.8950465994
 21
2.7840089614
  0
LINE
  5
5C9
100
AcDbEntity
  8
RACCORDO
100
AcDbLine
 62
7
  6
CONTINUOUS
 10
31.8963685918
 20
7.6799225467
 11
31.8950465994
 21
7.7840089614
  0
LINE
  5
5CA
100
AcDbEntity
  8
RACCORDO
100
AcDbLine
 62
7
  6
CONTINUOUS
 10
31.8963685918
 20
12.6799225467
 11
31.8950465994
 21
12.7840089614
  0
LINE
  5
5CB
100
AcDbEntity
  8
ASSI
100
AcDbLine
 62
7
  6
CONTINUOUS
 10
31.8962984264
 20
-2.3149580979
 11
31.8949288879
 21
-2.2059138523
  0
LINE
  5
5CC
100
AcDbEntity
  8
ASSI
100
AcDbLine
 62
7
  6
CONTINUOUS
 10
31.8962984264
 20
2.6850419021
 11
31.8949288879
 21
2.7940861477
  0
LINE
  5
5CD
100
AcDbEntity
  8
ASSI
100
AcDbLine
 62
7
  6
CONTINUOUS
 10
31.8962984264
 20
7.6850419021
 11
31.8949288879
 21
7.7940861477
  0
LINE
  5
5CE
100
AcDbEntity
  8
ASSI
100
AcDbLine
 62
7
  6
CONTINUOUS
 10
31.8962984264
 20
12.6850419021
 11
31.8949288879
 21
12.7940861477
  0
LINE
  5
5CF
100
AcDbEntity
  8
CURVE
100
AcDbLine
 62
7
  6
CONTINUOUS
 10
32.0468519746
 20
20.0047809571
 11
32.0478561296
 21
19.9323275646
  0
LINE
  5
5D0
100
AcDbEntity
  8
CURVE
100
AcDbLine
 62
7
  6
CONTINUOUS
 10
32.0525063543
 20
20.3467479096
 11
32.0519981099
 21
20.3867853256
  0
LINE
  5
5D1
100
AcDbEntity
  8
CURVE
100
AcDbLine
 62
7
  6
CONTINUOUS
 10
32.0248378084
 20
0.2594389804
 11
32.02663366
 21
0.1087939021
  0
LINE
  5
5D2
100
AcDbEntity
  8
CURVE
100
AcDbLine
 62
253
  6
CONTINUOUS
 10
32.001302919
 20
3.5325713639
 11
32.0036714587
 21
3.3063808445
  0
LINE
  5
5D3
100
AcDbEntity
  8
CURVE
100
AcDbLine
 62
7
  6
CONTINUOUS
 10
32.0707504706
 20
1.7211810803
 11
32.0689545954
 21
1.8718499848
  0
LINE
  5
5D4
100
AcDbEntity
  8
ASSI
100
AcDbLine
 62
7
  6
CONTINUOUS
 10
31.8949288879
 20
-2.2059138523
 11
31.8938166251
 21
-2.1031344163
  0
LINE
  5
5D5
100
AcDbEntity
  8
RACCORDO
100
AcDbLine
 62
7
  6
CONTINUOUS
 10
31.8950465994
 20
-2.2159910386
 11
31.8937598124
 21
-2.0974861037
  0
LINE
  5
5D6
100
AcDbEntity
  8
ASSI
100
AcDbLine
 62
7
  6
CONTINUOUS
 10
31.8949288879
 20
2.7940861477
 11
31.8938166251
 21
2.8968655837
  0
LINE
  5
5D7
100
AcDbEntity
  8
RACCORDO
100
AcDbLine
 62
7
  6
CONTINUOUS
 10
31.8950465994
 20
2.7840089614
 11
31.8937598124
 21
2.9025138963
  0
LINE
  5
5D8
100
AcDbEntity
  8
ASSI
100
AcDbLine
 62
7
  6
CONTINUOUS
 10
31.8949288879
 20
7.7940861477
 11
31.8938166251
 21
7.8968655837
  0
LINE
  5
5D9
100
AcDbEntity
  8
RACCORDO
100
AcDbLine
 62
7
  6
CONTINUOUS
 10
31.8950465994
 20
7.7840089614
 11
31.8937598124
 21
7.9025138963
  0
LINE
  5
5DA
100
AcDbEntity
  8
ASSI
100
AcDbLine
 62
7
  6
CONTINUOUS
 10
31.8949288879
 20
12.7940861477
 11
31.8938166251
 21
12.8968655837
  0
LINE
  5
5DB
100
AcDbEntity
  8
RACCORDO
100
AcDbLine
 62
7
  6
CONTINUOUS
 10
31.8950465994
 20
12.7840089614
 11
31.8937598124
 21
12.9025138963
  0
LINE
  5
5DC
100
AcDbEntity
  8
CURVE
100
AcDbLine
 62
7
  6
CONTINUOUS
 10
32.0320768669
 20
0.4954083868
 11
32.0312444828
 21
0.571930224
  0
LINE
  5
5DD
100
AcDbEntity
  8
CURVE
100
AcDbLine
 62
7
  6
CONTINUOUS
 10
32.0635061381
 20
1.4847873905
 11
32.0643390389
 21
1.4078855318
  0
LINE
  5
5DE
100
AcDbEntity
  8
ASSI
100
AcDbLine
 62
7
  6
CONTINUOUS
 10
31.8938166251
 20
-2.1031344163
 11
31.892540765
 21
-1.9655465288
  0
LINE
  5
5DF
100
AcDbEntity
  8
RACCORDO
100
AcDbLine
 62
7
  6
CONTINUOUS
 10
31.8937598124
 20
-2.0974861037
 11
31.8925325067
 21
-1.9645780698
  0
LINE
  5
5E0
100
AcDbEntity
  8
ASSI
100
AcDbLine
 62
7
  6
CONTINUOUS
 10
31.8938166251
 20
2.8968655837
 11
31.892540765
 21
3.0344534712
  0
LINE
  5
5E1
100
AcDbEntity
  8
RACCORDO
100
AcDbLine
 62
7
  6
CONTINUOUS
 10
31.8937598124
 20
2.9025138963
 11
31.8925325067
 21
3.0354219302
  0
LINE
  5
5E2
100
AcDbEntity
  8
ASSI
100
AcDbLine
 62
7
  6
CONTINUOUS
 10
31.8938166251
 20
7.8968655837
 11
31.892540765
 21
8.0344534712
  0
LINE
  5
5E3
100
AcDbEntity
  8
RACCORDO
100
AcDbLine
 62
7
  6
CONTINUOUS
 10
31.8937598124
 20
7.9025138963
 11
31.8925325067
 21
8.0354219302
  0
LINE
  5
5E4
100
AcDbEntity
  8
ASSI
100
AcDbLine
 62
7
  6
CONTINUOUS
 10
31.8938166251
 20
12.8968655837
 11
31.892540765
 21
13.0344534712
  0
LINE
  5
5E5
100
AcDbEntity
  8
RACCORDO
100
AcDbLine
 62
7
  6
CONTINUOUS
 10
31.8937598124
 20
12.9025138963
 11
31.8925325067
 21
13.0354219302
  0
LINE
  5
5E6
100
AcDbEntity
  8
CURVE
100
AcDbLine
 62
7
  6
CONTINUOUS
 10
32.0519981099
 20
20.3867853256
 11
32.0514988521
 21
20.4425088476
  0
LINE
  5
5E7
100
AcDbEntity
  8
RACCORDO
100
AcDbLine
 62
7
  6
CONTINUOUS
 10
31.8925325067
 20
-1.9645780698
 11
31.8913722067
 21
-1.8173999192
  0
LINE
  5
5E8
100
AcDbEntity
  8
ASSI
100
AcDbLine
 62
7
  6
CONTINUOUS
 10
31.892540765
 20
-1.9655465288
 11
31.8913373429
 21
-1.812599223
  0
LINE
  5
5E9
100
AcDbEntity
  8
RACCORDO
100
AcDbLine
 62
7
  6
CONTINUOUS
 10
31.8925325067
 20
3.0354219302
 11
31.8913722067
 21
3.1826000808
  0
LINE
  5
5EA
100
AcDbEntity
  8
ASSI
100
AcDbLine
 62
7
  6
CONTINUOUS
 10
31.892540765
 20
3.0344534712
 11
31.8913373429
 21
3.187400777
  0
LINE
  5
5EB
100
AcDbEntity
  8
RACCORDO
100
AcDbLine
 62
7
  6
CONTINUOUS
 10
31.8925325067
 20
8.0354219302
 11
31.8913722067
 21
8.1826000808
  0
LINE
  5
5EC
100
AcDbEntity
  8
ASSI
100
AcDbLine
 62
7
  6
CONTINUOUS
 10
31.892540765
 20
8.0344534712
 11
31.8913373429
 21
8.187400777
  0
LINE
  5
5ED
100
AcDbEntity
  8
RACCORDO
100
AcDbLine
 62
7
  6
CONTINUOUS
 10
31.8925325067
 20
13.0354219302
 11
31.8913722067
 21
13.1826000808
  0
LINE
  5
5EE
100
AcDbEntity
  8
ASSI
100
AcDbLine
 62
7
  6
CONTINUOUS
 10
31.892540765
 20
13.0344534712
 11
31.8913373429
 21
13.187400777
  0
LINE
  5
5EF
100
AcDbEntity
  8
CURVE
100
AcDbLine
 62
7
  6
CONTINUOUS
 10
32.0312444828
 20
0.571930224
 11
32.0305598434
 21
0.6541274803
  0
LINE
  5
5F0
100
AcDbEntity
  8
CURVE
100
AcDbLine
 62
7
  6
CONTINUOUS
 10
32.0643390389
 20
1.4078855318
 11
32.0650230054
 21
1.3252707888
  0
LINE
  5
5F1
100
AcDbEntity
  8
CURVE
100
AcDbLine
 62
7
  6
CONTINUOUS
 10
32.0231954029
 20
0.4535905242
 11
32.0248378084
 21
0.2594389804
  0
LINE
  5
5F2
100
AcDbEntity
  8
CURVE
100
AcDbLine
 62
7
  6
CONTINUOUS
 10
32.0723928053
 20
1.5269991497
 11
32.0707504706
 21
1.7211810803
  0
LINE
  5
5F3
100
AcDbEntity
  8
CURVE
100
AcDbLine
 62
7
  6
CONTINUOUS
 10
32.0466217932
 20
20.0325034681
 11
32.0468519746
 21
20.0047809571
  0
LINE
  5
5F4
100
AcDbEntity
  8
RACCORDO
100
AcDbLine
 62
7
  6
CONTINUOUS
 10
31.8913722067
 20
-1.8173999192
 11
31.8902975985
 21
-1.6563425099
  0
LINE
  5
5F5
100
AcDbEntity
  8
ASSI
100
AcDbLine
 62
7
  6
CONTINUOUS
 10
31.8913373429
 20
-1.812599223
 11
31.8902276551
 21
-1.6447946251
  0
LINE
  5
5F6
100
AcDbEntity
  8
RACCORDO
100
AcDbLine
 62
7
  6
CONTINUOUS
 10
31.8913722067
 20
3.1826000808
 11
31.8902975985
 21
3.3436574901
  0
LINE
  5
5F7
100
AcDbEntity
  8
ASSI
100
AcDbLine
 62
7
  6
CONTINUOUS
 10
31.8913373429
 20
3.187400777
 11
31.8902276551
 21
3.3552053749
  0
LINE
  5
5F8
100
AcDbEntity
  8
RACCORDO
100
AcDbLine
 62
7
  6
CONTINUOUS
 10
31.8913722067
 20
8.1826000808
 11
31.8902975985
 21
8.3436574901
  0
LINE
  5
5F9
100
AcDbEntity
  8
ASSI
100
AcDbLine
 62
7
  6
CONTINUOUS
 10
31.8913373429
 20
8.187400777
 11
31.8902276551
 21
8.3552053749
  0
LINE
  5
5FA
100
AcDbEntity
  8
RACCORDO
100
AcDbLine
 62
7
  6
CONTINUOUS
 10
31.8913722067
 20
13.1826000808
 11
31.8902975985
 21
13.3436574901
  0
LINE
  5
5FB
100
AcDbEntity
  8
ASSI
100
AcDbLine
 62
7
  6
CONTINUOUS
 10
31.8913373429
 20
13.187400777
 11
31.8902276551
 21
13.3552053749
  0
LINE
  5
5FC
100
AcDbEntity
  8
CURVE
100
AcDbLine
 62
7
  6
CONTINUOUS
 10
32.0305598434
 20
0.6541274803
 11
32.0300272944
 21
0.7403366764
  0
LINE
  5
5FD
100
AcDbEntity
  8
CURVE
100
AcDbLine
 62
7
  6
CONTINUOUS
 10
32.0650230054
 20
1.3252707888
 11
32.0655542018
 21
1.2386260761
  0
LINE
  5
5FE
100
AcDbEntity
  8
RACCORDO
100
AcDbLine
 62
7
  6
CONTINUOUS
 10
31.8902975985
 20
-1.6563425099
 11
31.8893285464
 21
-1.4819806135
  0
LINE
  5
5FF
100
AcDbEntity
  8
ASSI
100
AcDbLine
 62
7
  6
CONTINUOUS
 10
31.8902276551
 20
-1.6447946251
 11
31.8892325312
 21
-1.4628616481
  0
LINE
  5
600
100
AcDbEntity
  8
RACCORDO
100
AcDbLine
 62
7
  6
CONTINUOUS
 10
31.8902975985
 20
3.3436574901
 11
31.8893285464
 21
3.5180193865
  0
LINE
  5
601
100
AcDbEntity
  8
ASSI
100
AcDbLine
 62
7
  6
CONTINUOUS
 10
31.8902276551
 20
3.3552053749
 11
31.8892325312
 21
3.5371383519
  0
LINE
  5
602
100
AcDbEntity
  8
RACCORDO
100
AcDbLine
 62
7
  6
CONTINUOUS
 10
31.8902975985
 20
8.3436574901
 11
31.8893285464
 21
8.5180193865
  0
LINE
  5
603
100
AcDbEntity
  8
ASSI
100
AcDbLine
 62
7
  6
CONTINUOUS
 10
31.8902276551
 20
8.3552053749
 11
31.8892325312
 21
8.5371383519
  0
LINE
  5
604
100
AcDbEntity
  8
RACCORDO
100
AcDbLine
 62
7
  6
CONTINUOUS
 10
31.8902975985
 20
13.3436574901
 11
31.8893285464
 21
13.5180193865
  0
LINE
  5
605
100
AcDbEntity
  8
ASSI
100
AcDbLine
 62
7
  6
CONTINUOUS
 10
31.8902276551
 20
13.3552053749
 11
31.8892325312
 21
13.5371383519
  0
LINE
  5
606
100
AcDbEntity
  8
RACCORDO
100
AcDbLine
 62
7
  6
CONTINUOUS
 10
31.8893285464
 20
-1.4819806135
 11
31.8890289587
 21
-1.4210297011
  0
LINE
  5
607
100
AcDbEntity
  8
RACCORDO
100
AcDbLine
 62
7
  6
CONTINUOUS
 10
31.8893285464
 20
3.5180193865
 11
31.8890289587
 21
3.5789702989
  0
LINE
  5
608
100
AcDbEntity
  8
RACCORDO
100
AcDbLine
 62
7
  6
CONTINUOUS
 10
31.8893285464
 20
8.5180193865
 11
31.8890289587
 21
8.5789702989
  0
LINE
  5
609
100
AcDbEntity
  8
CURVE
100
AcDbLine
 62
7
  6
CONTINUOUS
 10
32.0514988521
 20
20.4425088476
 11
32.0510784151
 21
20.5152193831
  0
LINE
  5
60A
100
AcDbEntity
  8
RACCORDO
100
AcDbLine
 62
7
  6
CONTINUOUS
 10
31.8893285464
 20
13.5180193865
 11
31.8884703036
 21
13.7049031932
  0
LINE
  5
60B
100
AcDbEntity
  8
ASSI
100
AcDbLine
 62
7
  6
CONTINUOUS
 10
31.8892325312
 20
-1.4628616481
 11
31.888359781
 21
-1.2677885638
  0
LINE
  5
60C
100
AcDbEntity
  8
ASSI
100
AcDbLine
 62
7
  6
CONTINUOUS
 10
31.8892325312
 20
3.5371383519
 11
31.888359781
 21
3.7322114362
  0
LINE
  5
60D
100
AcDbEntity
  8
ASSI
100
AcDbLine
 62
7
  6
CONTINUOUS
 10
31.8892325312
 20
8.5371383519
 11
31.888359781
 21
8.7322114362
  0
LINE
  5
60E
100
AcDbEntity
  8
ASSI
100
AcDbLine
 62
7
  6
CONTINUOUS
 10
31.8892325312
 20
13.5371383519
 11
31.888359781
 21
13.7322114362
  0
LINE
  5
60F
100
AcDbEntity
  8
RACCORDO
100
AcDbLine
 62
7
  6
CONTINUOUS
 10
31.8890289587
 20
-1.4210297011
 11
31.8882136647
 21
-1.2301949203
  0
LINE
  5
610
100
AcDbEntity
  8
RACCORDO
100
AcDbLine
 62
7
  6
CONTINUOUS
 10
31.8890289587
 20
3.5789702989
 11
31.8882136647
 21
3.7698050797
  0
LINE
  5
611
100
AcDbEntity
  8
RACCORDO
100
AcDbLine
 62
7
  6
CONTINUOUS
 10
31.8890289587
 20
8.5789702989
 11
31.8882136647
 21
8.7698050797
  0
LINE
  5
612
100
AcDbEntity
  8
CURVE
100
AcDbLine
 62
7
  6
CONTINUOUS
 10
32.02194465
 20
0.690064219
 11
32.0231954029
 21
0.4535905242
  0
LINE
  5
613
100
AcDbEntity
  8
CURVE
100
AcDbLine
 62
7
  6
CONTINUOUS
 10
32.0736434279
 20
1.2904900138
 11
32.0723928053
 21
1.5269991497
  0
LINE
  5
614
100
AcDbEntity
  8
CURVE
100
AcDbLine
 62
7
  6
CONTINUOUS
 10
32.0300272944
 20
0.7403366764
 11
32.0296511813
 21
0.828894333
  0
LINE
  5
615
100
AcDbEntity
  8
CURVE
100
AcDbLine
 62
7
  6
CONTINUOUS
 10
32.0655542018
 20
1.2386260761
 11
32.0659287925
 21
1.1496343081
  0
LINE
  5
616
100
AcDbEntity
  8
RACCORDO
100
AcDbLine
 62
7
  6
CONTINUOUS
 10
31.8882136647
 20
-1.2301949203
 11
31.8877487639
 21
-1.0967392949
  0
LINE
  5
617
100
AcDbEntity
  8
ASSI
100
AcDbLine
 62
7
  6
CONTINUOUS
 10
31.888359781
 20
-1.2677885638
 11
31.887746768
 21
-1.0961124445
  0
LINE
  5
618
100
AcDbEntity
  8
RACCORDO
100
AcDbLine
 62
7
  6
CONTINUOUS
 10
31.8882136647
 20
3.7698050797
 11
31.8877487639
 21
3.9032607051
  0
LINE
  5
619
100
AcDbEntity
  8
ASSI
100
AcDbLine
 62
7
  6
CONTINUOUS
 10
31.888359781
 20
3.7322114362
 11
31.887746768
 21
3.9038875555
  0
LINE
  5
61A
100
AcDbEntity
  8
RACCORDO
100
AcDbLine
 62
7
  6
CONTINUOUS
 10
31.8882136647
 20
8.7698050797
 11
31.8877487639
 21
8.9032607051
  0
LINE
  5
61B
100
AcDbEntity
  8
ASSI
100
AcDbLine
 62
7
  6
CONTINUOUS
 10
31.888359781
 20
8.7322114362
 11
31.887746768
 21
8.9038875555
  0
LINE
  5
61C
100
AcDbEntity
  8
RACCORDO
100
AcDbLine
 62
7
  6
CONTINUOUS
 10
31.8884703036
 20
13.7049031932
 11
31.8877487639
 21
13.9032607051
  0
LINE
  5
61D
100
AcDbEntity
  8
CURVE
100
AcDbLine
 62
7
  6
CONTINUOUS
 10
32.0465408818
 20
20.0523014329
 11
32.0466217932
 21
20.0325034681
  0
LINE
  5
61E
100
AcDbEntity
  8
RACCORDO
100
AcDbLine
 62
7
  6
CONTINUOUS
 10
31.8877487639
 20
-1.0967392949
 11
31.8873473141
 21
-0.9587390046
  0
LINE
  5
61F
100
AcDbEntity
  8
RACCORDO
100
AcDbLine
 62
7
  6
CONTINUOUS
 10
31.8877487639
 20
3.9032607051
 11
31.8873473141
 21
4.0412609954
  0
LINE
  5
620
100
AcDbEntity
  8
RACCORDO
100
AcDbLine
 62
7
  6
CONTINUOUS
 10
31.8877487639
 20
8.9032607051
 11
31.8873473141
 21
9.0412609954
  0
LINE
  5
621
100
AcDbEntity
  8
ASSI
100
AcDbLine
 62
7
  6
CONTINUOUS
 10
31.887746768
 20
-1.0961124445
 11
31.8872406401
 21
-0.91709251
  0
LINE
  5
622
100
AcDbEntity
  8
ASSI
100
AcDbLine
 62
7
  6
CONTINUOUS
 10
31.887746768
 20
3.9038875555
 11
31.8872406401
 21
4.08290749
  0
LINE
  5
623
100
AcDbEntity
  8
ASSI
100
AcDbLine
 62
7
  6
CONTINUOUS
 10
31.887746768
 20
8.9038875555
 11
31.8872406401
 21
9.08290749
  0
LINE
  5
624
100
AcDbEntity
  8
ASSI
100
AcDbLine
 62
7
  6
CONTINUOUS
 10
31.888359781
 20
13.7322114362
 11
31.8871526092
 21
14.1194876524
  0
LINE
  5
625
100
AcDbEntity
  8
CURVE
100
AcDbLine
 62
7
  6
CONTINUOUS
 10
32.0510784151
 20
20.5152193831
 11
32.0507997359
 21
20.6039944278
  0
LINE
  5
626
100
AcDbEntity
  8
RACCORDO
100
AcDbLine
 62
7
  6
CONTINUOUS
 10
31.8873473141
 20
-0.9587390046
 11
31.8868726522
 21
-0.7445857425
  0
LINE
  5
627
100
AcDbEntity
  8
RACCORDO
100
AcDbLine
 62
7
  6
CONTINUOUS
 10
31.8873473141
 20
4.0412609954
 11
31.8868726522
 21
4.2554142575
  0
LINE
  5
628
100
AcDbEntity
  8
RACCORDO
100
AcDbLine
 62
7
  6
CONTINUOUS
 10
31.8873473141
 20
9.0412609954
 11
31.8868726522
 21
9.2554142575
  0
LINE
  5
629
100
AcDbEntity
  8
RACCORDO
100
AcDbLine
 62
7
  6
CONTINUOUS
 10
31.8877487639
 20
13.9032607051
 11
31.8868103186
 21
14.2917773078
  0
LINE
  5
62A
100
AcDbEntity
  8
CURVE
100
AcDbLine
 62
7
  6
CONTINUOUS
 10
32.0646014021
 20
21.0256584147
 11
32.0649191271
 21
20.8909535357
  0
LWPOLYLINE
  5
62B
100
AcDbEntity
  8
ASSI
100
AcDbPolyline
 62
7
  6
CONTINUOUS
 90
3
 70
0
 10
31.8872406401
 20
-0.91709251
 10
31.8867882315
 20
-0.6945508609
 10
31.8867310766
 20
-0.6568399009
  0
LWPOLYLINE
  5
62C
100
AcDbEntity
  8
ASSI
100
AcDbPolyline
 62
7
  6
CONTINUOUS
 90
3
 70
0
 10
31.8872406401
 20
4.08290749
 10
31.8867882315
 20
4.3054491391
 10
31.8867310766
 20
4.3431600991
  0
LWPOLYLINE
  5
62D
100
AcDbEntity
  8
ASSI
100
AcDbPolyline
 62
7
  6
CONTINUOUS
 90
3
 70
0
 10
31.8872406401
 20
9.08290749
 10
31.8867882315
 20
9.3054491391
 10
31.8867310766
 20
9.3431600991
  0
LINE
  5
62E
100
AcDbEntity
  8
CURVE
100
AcDbLine
 62
7
  6
CONTINUOUS
 10
32.0296511813
 20
0.828894333
 11
32.0294358497
 21
0.9181369708
  0
LINE
  5
62F
100
AcDbEntity
  8
CURVE
100
AcDbLine
 62
7
  6
CONTINUOUS
 10
32.0659287925
 20
1.1496343081
 11
32.0661429414
 21
1.0599783992
  0
LINE
  5
630
100
AcDbEntity
  8
ASSI
100
AcDbLine
 62
7
  6
CONTINUOUS
 10
31.8871526092
 20
14.1194876524
 11
31.8867310766
 21
14.3431600991
  0
LINE
  5
631
100
AcDbEntity
  8
CURVE
100
AcDbLine
 62
7
  6
CONTINUOUS
 10
32.073786847
 20
21.0293296969
 11
32.072630155
 21
21.6084244872
  0
LINE
  5
632
100
AcDbEntity
  8
RACCORDO
100
AcDbLine
 62
7
  6
CONTINUOUS
 10
31.8868726522
 20
-0.7445857425
 11
31.8866103344
 21
-0.5613924467
  0
LINE
  5
633
100
AcDbEntity
  8
RACCORDO
100
AcDbLine
 62
7
  6
CONTINUOUS
 10
31.8868726522
 20
4.2554142575
 11
31.8866103344
 21
4.4386075533
  0
LINE
  5
634
100
AcDbEntity
  8
RACCORDO
100
AcDbLine
 62
7
  6
CONTINUOUS
 10
31.8868726522
 20
9.2554142575
 11
31.8866103344
 21
9.4386075533
  0
LINE
  5
635
100
AcDbEntity
  8
ASSI
100
AcDbLine
 62
7
  6
CONTINUOUS
 10
31.8867310766
 20
-0.6568399009
 11
31.8865540568
 21
-0.504810727
  0
LINE
  5
636
100
AcDbEntity
  8
ASSI
100
AcDbLine
 62
7
  6
CONTINUOUS
 10
31.8867310766
 20
4.3431600991
 11
31.8865540568
 21
4.495189273
  0
LINE
  5
637
100
AcDbEntity
  8
ASSI
100
AcDbLine
 62
7
  6
CONTINUOUS
 10
31.8867310766
 20
9.3431600991
 11
31.8865540568
 21
9.495189273
  0
LINE
  5
638
100
AcDbEntity
  8
CURVE
100
AcDbLine
 62
7
  6
CONTINUOUS
 10
32.0213960938
 20
0.9307923569
 11
32.02194465
 21
0.690064219
  0
LINE
  5
639
100
AcDbEntity
  8
CURVE
100
AcDbLine
 62
7
  6
CONTINUOUS
 10
32.074191894
 20
1.0497288297
 11
32.0736434279
 21
1.2904900138
  0
LINE
  5
63A
100
AcDbEntity
  8
RACCORDO
100
AcDbLine
 62
7
  6
CONTINUOUS
 10
31.8866103344
 20
-0.5613924467
 11
31.8865098363
 21
-0.4502035756
  0
LINE
  5
63B
100
AcDbEntity
  8
RACCORDO
100
AcDbLine
 62
7
  6
CONTINUOUS
 10
31.8866103344
 20
4.4386075533
 11
31.8865098363
 21
4.5497964244
  0
LINE
  5
63C
100
AcDbEntity
  8
RACCORDO
100
AcDbLine
 62
7
  6
CONTINUOUS
 10
31.8866103344
 20
9.4386075533
 11
31.8865098363
 21
9.5497964244
  0
LINE
  5
63D
100
AcDbEntity
  8
RACCORDO
100
AcDbLine
 62
7
  6
CONTINUOUS
 10
31.8868103186
 20
14.2917773078
 11
31.8864855055
 21
14.5869823392
  0
LINE
  5
63E
100
AcDbEntity
  8
CURVE
100
AcDbLine
 62
7
  6
CONTINUOUS
 10
32.0649191271
 20
20.8909535357
 11
32.0650617853
 21
20.7549783081
  0
LINE
  5
63F
100
AcDbEntity
  8
ASSI
100
AcDbLine
 62
7
  6
CONTINUOUS
 10
31.8865540568
 20
-0.504810727
 11
31.8864445676
 21
-0.3132339405
  0
LINE
  5
640
100
AcDbEntity
  8
ASSI
100
AcDbLine
 62
7
  6
CONTINUOUS
 10
31.8865540568
 20
4.495189273
 11
31.8864445676
 21
4.6867660595
  0
LINE
  5
641
100
AcDbEntity
  8
ASSI
100
AcDbLine
 62
7
  6
CONTINUOUS
 10
31.8865540568
 20
9.495189273
 11
31.8864445676
 21
9.6867660595
  0
LINE
  5
642
100
AcDbEntity
  8
ASSI
100
AcDbLine
 62
7
  6
CONTINUOUS
 10
31.8867310766
 20
14.3431600991
 11
31.886438566
 21
14.7251244844
  0
LINE
  5
643
100
AcDbEntity
  8
RACCORDO
100
AcDbLine
 62
7
  6
CONTINUOUS
 10
31.8865098363
 20
-0.4502035756
 11
31.8864378658
 21
-0.2640324611
  0
LINE
  5
644
100
AcDbEntity
  8
RACCORDO
100
AcDbLine
 62
7
  6
CONTINUOUS
 10
31.8865098363
 20
4.5497964244
 11
31.8864378658
 21
4.7359675389
  0
LINE
  5
645
100
AcDbEntity
  8
RACCORDO
100
AcDbLine
 62
7
  6
CONTINUOUS
 10
31.8865098363
 20
9.5497964244
 11
31.8864378658
 21
9.7359675389
  0
LINE
  5
646
100
AcDbEntity
  8
ASSI
100
AcDbLine
 62
7
  6
CONTINUOUS
 10
31.9492857143
 20
-2.6163707522
 11
31.9492857143
 21
2.1100850379
  0
LINE
  5
647
100
AcDbEntity
  8
ASSI
100
AcDbLine
 62
7
  6
CONTINUOUS
 10
31.9492857143
 20
2.3836292478
 11
31.9492857143
 21
7.1100850379
  0
LINE
  5
648
100
AcDbEntity
  8
ASSI
100
AcDbLine
 62
7
  6
CONTINUOUS
 10
31.9492857143
 20
7.3836292478
 11
31.9492857143
 21
12.1100850379
  0
LINE
  5
649
100
AcDbEntity
  8
ASSI
100
AcDbLine
 62
7
  6
CONTINUOUS
 10
31.9492857143
 20
12.3836292478
 11
31.9492857143
 21
17.1100850379
  0
LINE
  5
64A
100
AcDbEntity
  8
RACCORDO
100
AcDbLine
 62
7
  6
CONTINUOUS
 10
31.962376016
 20
-2.8443672472
 11
31.962376016
 21
-2.7031428571
  0
LINE
  5
64B
100
AcDbEntity
  8
ASSI
100
AcDbLine
 62
7
  6
CONTINUOUS
 10
31.962376016
 20
-2.8443672472
 11
31.962376016
 21
-2.7031428571
  0
LINE
  5
64C
100
AcDbEntity
  8
RACCORDO
100
AcDbLine
 62
7
  6
CONTINUOUS
 10
31.962376016
 20
2.1968571429
 11
31.962376016
 21
2.2968571429
  0
LINE
  5
64D
100
AcDbEntity
  8
ASSI
100
AcDbLine
 62
7
  6
CONTINUOUS
 10
31.962376016
 20
2.1968571429
 11
31.962376016
 21
2.2968571429
  0
LINE
  5
64E
100
AcDbEntity
  8
RACCORDO
100
AcDbLine
 62
7
  6
CONTINUOUS
 10
31.962376016
 20
7.1968571429
 11
31.962376016
 21
7.2968571429
  0
LINE
  5
64F
100
AcDbEntity
  8
ASSI
100
AcDbLine
 62
7
  6
CONTINUOUS
 10
31.962376016
 20
7.1968571429
 11
31.962376016
 21
7.2968571429
  0
LINE
  5
650
100
AcDbEntity
  8
RACCORDO
100
AcDbLine
 62
7
  6
CONTINUOUS
 10
31.962376016
 20
12.1968571429
 11
31.962376016
 21
12.2968571429
  0
LINE
  5
651
100
AcDbEntity
  8
ASSI
100
AcDbLine
 62
7
  6
CONTINUOUS
 10
31.962376016
 20
12.1968571429
 11
31.962376016
 21
12.2968571429
  0
LINE
  5
652
100
AcDbEntity
  8
RACCORDO
100
AcDbLine
 62
7
  6
CONTINUOUS
 10
31.962376016
 20
17.1968571429
 11
31.962376016
 21
30.338081533
  0
LINE
  5
653
100
AcDbEntity
  8
ASSI
100
AcDbLine
 62
7
  6
CONTINUOUS
 10
31.962376016
 20
17.1968571429
 11
31.962376016
 21
30.338081533
  0
LINE
  5
654
100
AcDbEntity
  8
0
100
AcDbLine
 62
7
  6
CONTINUOUS
 10
31.9771002598
 20
-3.8742310335
 11
31.9771002598
 21
31.3679453192
  0
LINE
  5
655
100
AcDbEntity
  8
RACCORDO
100
AcDbLine
 62
7
  6
CONTINUOUS
 10
31.9771002598
 20
-3.8742310335
 11
31.9771002598
 21
31.3679453192
  0
LINE
  5
656
100
AcDbEntity
  8
CURVE
100
AcDbLine
 62
253
  6
CONTINUOUS
 10
31.9878811867
 20
0.9087618832
 11
31.9878811867
 21
0.8182855849
  0
LINE
  5
657
100
AcDbEntity
  8
CURVE
100
AcDbLine
 62
253
  6
CONTINUOUS
 10
31.9888369138
 20
14.1206666742
 11
31.9888369138
 21
13.6254286085
  0
LINE
  5
658
100
AcDbEntity
  8
CURVE
100
AcDbLine
 62
253
  6
CONTINUOUS
 10
31.9920780748
 20
30.2825714175
 11
31.9920780748
 21
30.7468571429
  0
LINE
  5
659
100
AcDbEntity
  8
CURVE
100
AcDbLine
 62
253
  6
CONTINUOUS
 10
31.9936986553
 20
28.2397142414
 11
31.9936986553
 21
28.7040000443
  0
LINE
  5
65A
100
AcDbEntity
  8
CURVE
100
AcDbLine
 62
253
  6
CONTINUOUS
 10
31.9953192365
 20
29.3540000443
 11
31.9953192365
 21
29.0754285936
  0
LINE
  5
65B
100
AcDbEntity
  8
CURVE
100
AcDbLine
 62
253
  6
CONTINUOUS
 10
31.9953192365
 20
25.6397142414
 11
31.9953192365
 21
24.9897145514
  0
LINE
  5
65C
100
AcDbEntity
  8
CURVE
100
AcDbLine
 62
253
  6
CONTINUOUS
 10
31.9965658365
 20
2.4468571429
 11
31.9965658365
 21
1.8587618832
  0
LINE
  5
65D
100
AcDbEntity
  8
CURVE
100
AcDbLine
 62
253
  6
CONTINUOUS
 10
32.001302919
 20
3.5325713639
 11
32.001302919
 21
3.8039998059
  0
LINE
  5
65E
100
AcDbEntity
  8
CURVE
100
AcDbLine
 62
253
  6
CONTINUOUS
 10
32.0050427195
 20
30.7468571429
 11
32.0050427195
 21
30.2825714175
  0
LINE
  5
65F
100
AcDbEntity
  8
CURVE
100
AcDbLine
 62
253
  6
CONTINUOUS
 10
32.0050427195
 20
29.5397143189
 11
32.0050427195
 21
29.0754285936
  0
LINE
  5
660
100
AcDbEntity
  8
CURVE
100
AcDbLine
 62
253
  6
CONTINUOUS
 10
32.0050427195
 20
28.7040000443
 11
32.0050427195
 21
28.4254285936
  0
LINE
  5
661
100
AcDbEntity
  8
CURVE
100
AcDbLine
 62
253
  6
CONTINUOUS
 10
32.0050427195
 20
26.4754284386
 11
32.0050427195
 21
26.1040000443
  0
LINE
  5
662
100
AcDbEntity
  8
CURVE
100
AcDbLine
 62
253
  6
CONTINUOUS
 10
32.0050427195
 20
24.43257134
 11
32.0050427195
 21
24.1539997343
  0
LINE
  5
663
100
AcDbEntity
  8
CURVE
100
AcDbLine
 62
253
  6
CONTINUOUS
 10
32.0050427195
 20
15.358761916
 11
32.0050427195
 21
14.6159047399
  0
LINE
  5
664
100
AcDbEntity
  8
CURVE
100
AcDbLine
 62
253
  6
CONTINUOUS
 10
32.0155141634
 20
6.2468571429
 11
32.0155141634
 21
6.1111429219
  0
LINE
  5
665
100
AcDbEntity
  8
CURVE
100
AcDbLine
 62
253
  6
CONTINUOUS
 10
32.0155141634
 20
-2.8459997411
 11
32.0155141634
 21
-2.9817144151
  0
LINE
  5
666
100
AcDbEntity
  8
CURVE
100
AcDbLine
 62
253
  6
CONTINUOUS
 10
32.0155141634
 20
-1.6245712991
 11
32.0155141634
 21
-1.2174281831
  0
LINE
  5
667
100
AcDbEntity
  8
CURVE
100
AcDbLine
 62
253
  6
CONTINUOUS
 10
32.0155141634
 20
2.0397144799
 11
32.0155141634
 21
2.4468571429
  0
LINE
  5
668
100
AcDbEntity
  8
CURVE
100
AcDbLine
 62
253
  6
CONTINUOUS
 10
32.0155141634
 20
3.5325713639
 11
32.0155141634
 21
4.0754287009
  0
LINE
  5
669
100
AcDbEntity
  8
CURVE
100
AcDbLine
 62
253
  6
CONTINUOUS
 10
32.0155141634
 20
7.4682856981
 11
32.0155141634
 21
7.8754285593
  0
LINE
  5
66A
100
AcDbEntity
  8
CURVE
100
AcDbLine
 62
7
  6
CONTINUOUS
 10
32.0224946662
 20
-3.2545798571
 11
32.0224946662
 21
-2.7372208571
  0
LINE
  5
66B
100
AcDbEntity
  8
CURVE
100
AcDbLine
 62
7
  6
CONTINUOUS
 10
32.0224946662
 20
-1.4117748571
 11
32.0224946662
 21
-0.9133528571
  0
LINE
  5
66C
100
AcDbEntity
  8
CURVE
100
AcDbLine
 62
7
  6
CONTINUOUS
 10
32.0224946662
 20
2.3889731429
 11
32.0224946662
 21
3.0402761429
  0
LINE
  5
66D
100
AcDbEntity
  8
CURVE
100
AcDbLine
 62
7
  6
CONTINUOUS
 10
32.0224946662
 20
4.3752721429
 11
32.0224946662
 21
4.8930191429
  0
LINE
  5
66E
100
AcDbEntity
  8
CURVE
100
AcDbLine
 62
7
  6
CONTINUOUS
 10
32.0224946662
 20
5.5087501429
 11
32.0224946662
 21
6.0265191429
  0
LINE
  5
66F
100
AcDbEntity
  8
CURVE
100
AcDbLine
 62
7
  6
CONTINUOUS
 10
32.0224946662
 20
6.6491911429
 11
32.0224946662
 21
8.7097631429
  0
LINE
  5
670
100
AcDbEntity
  8
CURVE
100
AcDbLine
 62
7
  6
CONTINUOUS
 10
32.0226230964
 20
28.1377921429
 11
32.0226230964
 21
27.5325211429
  0
LINE
  5
671
100
AcDbEntity
  8
CURVE
100
AcDbLine
 62
7
  6
CONTINUOUS
 10
32.0226230902
 20
21.6084244872
 11
32.0226230902
 21
21.0055885261
  0
LINE
  5
672
100
AcDbEntity
  8
CURVE
100
AcDbLine
 62
7
  6
CONTINUOUS
 10
32.0226230902
 20
20.0786988812
 11
32.0226230902
 21
19.4964981577
  0
LINE
  5
673
100
AcDbEntity
  8
CURVE
100
AcDbLine
 62
7
  6
CONTINUOUS
 10
32.0226230964
 20
21.7861611429
 11
32.0226230964
 21
22.4240921429
  0
LINE
  5
674
100
AcDbEntity
  8
CURVE
100
AcDbLine
 62
7
  6
CONTINUOUS
 10
32.0226230964
 20
23.5721861429
 11
32.0226230964
 21
24.1708901429
  0
LINE
  5
675
100
AcDbEntity
  8
CURVE
100
AcDbLine
 62
7
  6
CONTINUOUS
 10
32.0226230964
 20
24.2659341429
 11
32.0226230964
 21
24.8580501429
  0
LINE
  5
676
100
AcDbEntity
  8
CURVE
100
AcDbLine
 62
7
  6
CONTINUOUS
 10
32.0226230964
 20
25.7020731429
 11
32.0226230964
 21
25.7869621429
  0
LINE
  5
677
100
AcDbEntity
  8
CURVE
100
AcDbLine
 62
7
  6
CONTINUOUS
 10
32.0226230964
 20
26.6276361429
 11
32.0226230964
 21
27.2066841429
  0
LINE
  5
678
100
AcDbEntity
  8
CURVE
100
AcDbLine
 62
7
  6
CONTINUOUS
 10
32.0226230964
 20
29.2944741429
 11
32.0226230964
 21
29.8278701429
  0
LINE
  5
679
100
AcDbEntity
  8
CURVE
100
AcDbLine
 62
7
  6
CONTINUOUS
 10
32.0305233653
 20
8.1920251429
 11
32.0305236445
 21
6.6491911429
  0
LINE
  5
67A
100
AcDbEntity
  8
CURVE
100
AcDbLine
 62
7
  6
CONTINUOUS
 10
32.032724302
 20
22.5808901429
 11
32.032724302
 21
23.4051691429
  0
LINE
  5
67B
100
AcDbEntity
  8
CURVE
100
AcDbLine
 62
7
  6
CONTINUOUS
 10
32.0405405678
 20
23.2813571429
 11
32.0405405678
 21
22.7018531429
  0
LINE
  5
67C
100
AcDbEntity
  8
CURVE
100
AcDbLine
 62
253
  6
CONTINUOUS
 10
32.041692773
 20
12.5123333053
 11
32.041692773
 21
11.9830475489
  0
LINE
  5
67D
100
AcDbEntity
  8
CURVE
100
AcDbLine
 62
253
  6
CONTINUOUS
 10
32.041692773
 20
13.1886428992
 11
32.041692773
 21
13.6297142647
  0
LINE
  5
67E
100
AcDbEntity
  8
CURVE
100
AcDbLine
 62
7
  6
CONTINUOUS
 10
32.0444459262
 20
6.7647301429
 11
32.0444457517
 21
8.1920251429
  0
LINE
  5
67F
100
AcDbEntity
  8
CURVE
100
AcDbLine
 62
253
  6
CONTINUOUS
 10
32.0481750957
 20
14.5706666632
 11
32.0481750957
 21
14.1001904271
  0
LINE
  5
680
100
AcDbEntity
  8
CURVE
100
AcDbLine
 62
7
  6
CONTINUOUS
 10
32.0507997359
 20
20.6039944278
 11
32.0507112042
 21
21.0256584147
  0
LINE
  5
681
100
AcDbEntity
  8
CURVE
100
AcDbLine
 62
7
  6
CONTINUOUS
 10
32.0524752534
 20
8.1920251429
 11
32.0524750789
 21
6.7647301429
  0
LINE
  5
682
100
AcDbEntity
  8
CURVE
100
AcDbLine
 62
253
  6
CONTINUOUS
 10
32.0546574184
 20
12.1594763307
 11
32.0546574184
 21
12.5123333053
  0
LINE
  5
683
100
AcDbEntity
  8
CURVE
100
AcDbLine
 62
253
  6
CONTINUOUS
 10
32.0643809014
 20
13.6297142647
 11
32.0643809014
 21
13.1886428992
  0
LINE
  5
684
100
AcDbEntity
  8
CURVE
100
AcDbLine
 62
253
  6
CONTINUOUS
 10
32.0643809014
 20
12.5123333053
 11
32.0643809014
 21
11.9830475489
  0
LINE
  5
685
100
AcDbEntity
  8
CURVE
100
AcDbLine
 62
7
  6
CONTINUOUS
 10
32.0650541488
 20
6.6608441429
 11
32.0650542535
 21
8.1920251429
  0
LINE
  5
686
100
AcDbEntity
  8
CURVE
100
AcDbLine
 62
7
  6
CONTINUOUS
 10
32.073083127
 20
8.7097631429
 11
32.073083127
 21
6.6608441429
  0
LINE
  5
687
100
AcDbEntity
  8
CURVE
100
AcDbLine
 62
7
  6
CONTINUOUS
 10
32.073083127
 20
6.0265191429
 11
32.073083127
 21
5.5087501429
  0
LINE
  5
688
100
AcDbEntity
  8
CURVE
100
AcDbLine
 62
7
  6
CONTINUOUS
 10
32.073083127
 20
4.8930191429
 11
32.073083127
 21
4.3752721429
  0
LINE
  5
689
100
AcDbEntity
  8
CURVE
100
AcDbLine
 62
7
  6
CONTINUOUS
 10
32.073083127
 20
3.0900211429
 11
32.073083127
 21
2.3958071429
  0
LINE
  5
68A
100
AcDbEntity
  8
CURVE
100
AcDbLine
 62
7
  6
CONTINUOUS
 10
32.073083127
 20
-0.9133528571
 11
32.073083127
 21
-1.4192438571
  0
LINE
  5
68B
100
AcDbEntity
  8
CURVE
100
AcDbLine
 62
7
  6
CONTINUOUS
 10
32.073083127
 20
-2.7561518571
 11
32.073083127
 21
-3.2545798571
  0
LINE
  5
68C
100
AcDbEntity
  8
CURVE
100
AcDbLine
 62
7
  6
CONTINUOUS
 10
32.0732213115
 20
30.7471171429
 11
32.0732213115
 21
30.0896051429
  0
LINE
  5
68D
100
AcDbEntity
  8
CURVE
100
AcDbLine
 62
7
  6
CONTINUOUS
 10
32.0732213115
 20
28.9672671429
 11
32.0732213115
 21
28.3624091429
  0
LINE
  5
68E
100
AcDbEntity
  8
CURVE
100
AcDbLine
 62
7
  6
CONTINUOUS
 10
32.0732213115
 20
26.9448621429
 11
32.0732213115
 21
26.3400911429
  0
LINE
  5
68F
100
AcDbEntity
  8
CURVE
100
AcDbLine
 62
7
  6
CONTINUOUS
 10
32.0732213115
 20
25.1359411429
 11
32.0732213115
 21
24.5370841429
  0
LINE
  5
690
100
AcDbEntity
  8
CURVE
100
AcDbLine
 62
7
  6
CONTINUOUS
 10
32.0732213115
 20
23.2613741429
 11
32.0732213115
 21
22.6758471429
  0
LINE
  5
691
100
AcDbEntity
  8
CURVE
100
AcDbLine
 62
7
  6
CONTINUOUS
 10
32.0732243478
 20
27.5325211429
 11
32.0732243478
 21
28.1377921429
  0
LINE
  5
692
100
AcDbEntity
  8
0
100
AcDbLine
 62
7
  6
CONTINUOUS
 10
32.0818319787
 20
-4.7705965927
 11
32.0818319787
 21
-4.1724322695
  0
LINE
  5
693
100
AcDbEntity
  8
0
100
AcDbLine
 62
7
  6
CONTINUOUS
 10
32.0818319787
 20
31.6661465552
 11
32.0818319787
 21
32.2643108784
  0
LINE
  5
694
100
AcDbEntity
  8
0
100
AcDbLine
 62
7
  6
CONTINUOUS
 10
32.0905588465
 20
-8.1473419504
 11
32.0905588465
 21
-4.7618697249
  0
LINE
  5
695
100
AcDbEntity
  8
0
100
AcDbLine
 62
7
  6
CONTINUOUS
 10
32.0905588465
 20
32.2555840106
 11
32.0905588465
 21
35.6410562361
  0
LINE
  5
696
100
AcDbEntity
  8
RACCORDO
100
AcDbLine
 62
7
  6
CONTINUOUS
 10
32.0992857143
 20
-3.9248419059
 11
32.0992857143
 21
31.4185561916
  0
LINE
  5
697
100
AcDbEntity
  8
0
100
AcDbLine
 62
7
  6
CONTINUOUS
 10
32.0992857143
 20
-8.1531597802
 11
32.0992857143
 21
35.6468740659
  0
LINE
  5
698
100
AcDbEntity
  8
CURVE
100
AcDbLine
 62
7
  6
CONTINUOUS
 10
32.0294358497
 20
0.9181369708
 11
32.0293856091
 21
1.006566164
  0
LINE
  5
699
100
AcDbEntity
  8
CURVE
100
AcDbLine
 62
7
  6
CONTINUOUS
 10
32.0661429414
 20
1.0599783992
 11
32.0661927986
 21
0.9713193313
  0
LINE
  5
69A
100
AcDbEntity
  8
ASSI
100
AcDbLine
 62
7
  6
CONTINUOUS
 10
31.8864445676
 20
9.6867660595
 11
31.8864694454
 21
9.8781846595
  0
LINE
  5
69B
100
AcDbEntity
  8
ASSI
100
AcDbLine
 62
7
  6
CONTINUOUS
 10
31.8864445676
 20
4.6867660595
 11
31.8864694454
 21
4.8781846595
  0
LINE
  5
69C
100
AcDbEntity
  8
ASSI
100
AcDbLine
 62
7
  6
CONTINUOUS
 10
31.8864445676
 20
-0.3132339405
 11
31.8864694454
 21
-0.1218153405
  0
LINE
  5
69D
100
AcDbEntity
  8
RACCORDO
100
AcDbLine
 62
7
  6
CONTINUOUS
 10
31.8864855055
 20
14.5869823392
 11
31.8865201626
 21
14.9584919829
  0
LINE
  5
69E
100
AcDbEntity
  8
RACCORDO
100
AcDbLine
 62
7
  6
CONTINUOUS
 10
31.8864378658
 20
9.7359675389
 11
31.8864939872
 21
9.9215901414
  0
LINE
  5
69F
100
AcDbEntity
  8
RACCORDO
100
AcDbLine
 62
7
  6
CONTINUOUS
 10
31.8864378658
 20
4.7359675389
 11
31.8864939872
 21
4.9215901414
  0
LINE
  5
6A0
100
AcDbEntity
  8
RACCORDO
100
AcDbLine
 62
7
  6
CONTINUOUS
 10
31.8864378658
 20
-0.2640324611
 11
31.8864939872
 21
-0.0784098586
  0
LINE
  5
6A1
100
AcDbEntity
  8
CURVE
100
AcDbLine
 62
7
  6
CONTINUOUS
 10
32.0738472972
 20
20.6668360804
 11
32.073786847
 21
21.0293296969
  0
LINE
  5
6A2
100
AcDbEntity
  8
ASSI
100
AcDbLine
 62
7
  6
CONTINUOUS
 10
31.886438566
 20
14.7251244844
 11
31.886624657
 21
15.0674780901
  0
LINE
  5
6A3
100
AcDbEntity
  8
ASSI
100
AcDbLine
 62
7
  6
CONTINUOUS
 10
31.8864694454
 20
9.8781846595
 11
31.8865841425
 21
10.0298858059
  0
LINE
  5
6A4
100
AcDbEntity
  8
RACCORDO
100
AcDbLine
 62
7
  6
CONTINUOUS
 10
31.8864939872
 20
9.9215901414
 11
31.8865862342
 21
10.0319394264
  0
LINE
  5
6A5
100
AcDbEntity
  8
ASSI
100
AcDbLine
 62
7
  6
CONTINUOUS
 10
31.8864694454
 20
4.8781846595
 11
31.8865841425
 21
5.0298858059
  0
LINE
  5
6A6
100
AcDbEntity
  8
RACCORDO
100
AcDbLine
 62
7
  6
CONTINUOUS
 10
31.8864939872
 20
4.9215901414
 11
31.8865862342
 21
5.0319394264
  0
LINE
  5
6A7
100
AcDbEntity
  8
ASSI
100
AcDbLine
 62
7
  6
CONTINUOUS
 10
31.8864694454
 20
-0.1218153405
 11
31.8865841425
 21
0.0298858059
  0
LINE
  5
6A8
100
AcDbEntity
  8
RACCORDO
100
AcDbLine
 62
7
  6
CONTINUOUS
 10
31.8864939872
 20
-0.0784098586
 11
31.8865862342
 21
0.0319394264
  0
LINE
  5
6A9
100
AcDbEntity
  8
CURVE
100
AcDbLine
 62
7
  6
CONTINUOUS
 10
32.0650617853
 20
20.7549783081
 11
32.0650073117
 21
20.6190352557
  0
LINE
  5
6AA
100
AcDbEntity
  8
RACCORDO
100
AcDbLine
 62
7
  6
CONTINUOUS
 10
31.8865201626
 20
14.9584919829
 11
31.8868289446
 21
15.2129084181
  0
LINE
  5
6AB
100
AcDbEntity
  8
RACCORDO
100
AcDbLine
 62
7
  6
CONTINUOUS
 10
31.8865862342
 20
10.0319394264
 11
31.8867712544
 21
10.1770760917
  0
LINE
  5
6AC
100
AcDbEntity
  8
RACCORDO
100
AcDbLine
 62
7
  6
CONTINUOUS
 10
31.8865862342
 20
5.0319394264
 11
31.8867712544
 21
5.1770760917
  0
LINE
  5
6AD
100
AcDbEntity
  8
RACCORDO
100
AcDbLine
 62
7
  6
CONTINUOUS
 10
31.8865862342
 20
0.0319394264
 11
31.8867712544
 21
0.1770760917
  0
LINE
  5
6AE
100
AcDbEntity
  8
ASSI
100
AcDbLine
 62
7
  6
CONTINUOUS
 10
31.8865841425
 20
10.0298858059
 11
31.8868343027
 21
10.2160866515
  0
LINE
  5
6AF
100
AcDbEntity
  8
ASSI
100
AcDbLine
 62
7
  6
CONTINUOUS
 10
31.8865841425
 20
5.0298858059
 11
31.8868343027
 21
5.2160866515
  0
LINE
  5
6B0
100
AcDbEntity
  8
ASSI
100
AcDbLine
 62
7
  6
CONTINUOUS
 10
31.8865841425
 20
0.0298858059
 11
31.8868343027
 21
0.2160866515
  0
LINE
  5
6B1
100
AcDbEntity
  8
CURVE
100
AcDbLine
 62
7
  6
CONTINUOUS
 10
32.0215803483
 20
1.1699028704
 11
32.0213960938
 21
0.9307923569
  0
LINE
  5
6B2
100
AcDbEntity
  8
CURVE
100
AcDbLine
 62
7
  6
CONTINUOUS
 10
32.0293856091
 20
1.006566164
 11
32.0295016493
 21
1.0958129163
  0
LINE
  5
6B3
100
AcDbEntity
  8
CURVE
100
AcDbLine
 62
7
  6
CONTINUOUS
 10
32.0661927986
 20
0.9713193313
 11
32.0660760246
 21
0.8824640058
  0
LINE
  5
6B4
100
AcDbEntity
  8
CURVE
100
AcDbLine
 62
7
  6
CONTINUOUS
 10
32.0740076079
 20
0.8106346679
 11
32.074191894
 21
1.0497288297
  0
LINE
  5
6B5
100
AcDbEntity
  8
RACCORDO
100
AcDbLine
 62
7
  6
CONTINUOUS
 10
31.8867712544
 20
10.1770760917
 11
31.887186227
 21
10.3887332204
  0
LINE
  5
6B6
100
AcDbEntity
  8
RACCORDO
100
AcDbLine
 62
7
  6
CONTINUOUS
 10
31.8867712544
 20
5.1770760917
 11
31.887186227
 21
5.3887332204
  0
LINE
  5
6B7
100
AcDbEntity
  8
RACCORDO
100
AcDbLine
 62
7
  6
CONTINUOUS
 10
31.8867712544
 20
0.1770760917
 11
31.887186227
 21
0.3887332204
  0
LINE
  5
6B8
100
AcDbEntity
  8
ASSI
100
AcDbLine
 62
7
  6
CONTINUOUS
 10
31.886624657
 20
15.0674780901
 11
31.8873861424
 21
15.4671895512
  0
LINE
  5
6B9
100
AcDbEntity
  8
ASSI
100
AcDbLine
 62
7
  6
CONTINUOUS
 10
31.8868343027
 20
10.2160866515
 11
31.8872937802
 21
10.4321474544
  0
LINE
  5
6BA
100
AcDbEntity
  8
ASSI
100
AcDbLine
 62
7
  6
CONTINUOUS
 10
31.8868343027
 20
5.2160866515
 11
31.8872937802
 21
5.4321474544
  0
LINE
  5
6BB
100
AcDbEntity
  8
ASSI
100
AcDbLine
 62
7
  6
CONTINUOUS
 10
31.8868343027
 20
0.2160866515
 11
31.8872937802
 21
0.4321474544
  0
LINE
  5
6BC
100
AcDbEntity
  8
CURVE
100
AcDbLine
 62
7
  6
CONTINUOUS
 10
32.0424244385
 20
21.0055885261
 11
32.0423475501
 21
20.6267561751
  0
LINE
  5
6BD
100
AcDbEntity
  8
RACCORDO
100
AcDbLine
 62
7
  6
CONTINUOUS
 10
31.8868289446
 20
15.2129084181
 11
31.8876475287
 21
15.5578477456
  0
LINE
  5
6BE
100
AcDbEntity
  8
RACCORDO
100
AcDbLine
 62
7
  6
CONTINUOUS
 10
31.887186227
 20
10.3887332204
 11
31.8875480685
 21
10.5246310352
  0
LINE
  5
6BF
100
AcDbEntity
  8
RACCORDO
100
AcDbLine
 62
7
  6
CONTINUOUS
 10
31.887186227
 20
5.3887332204
 11
31.8875480685
 21
5.5246310352
  0
LINE
  5
6C0
100
AcDbEntity
  8
RACCORDO
100
AcDbLine
 62
7
  6
CONTINUOUS
 10
31.887186227
 20
0.3887332204
 11
31.8875480685
 21
0.5246310352
  0
LINE
  5
6C1
100
AcDbEntity
  8
ASSI
100
AcDbLine
 62
7
  6
CONTINUOUS
 10
31.8872937802
 20
10.4321474544
 11
31.8876862009
 21
10.5703911474
  0
LINE
  5
6C2
100
AcDbEntity
  8
ASSI
100
AcDbLine
 62
7
  6
CONTINUOUS
 10
31.8872937802
 20
5.4321474544
 11
31.8876862009
 21
5.5703911474
  0
LINE
  5
6C3
100
AcDbEntity
  8
ASSI
100
AcDbLine
 62
7
  6
CONTINUOUS
 10
31.8872937802
 20
0.4321474544
 11
31.8876862009
 21
0.5703911474
  0
LINE
  5
6C4
100
AcDbEntity
  8
CURVE
100
AcDbLine
 62
7
  6
CONTINUOUS
 10
32.0650073117
 20
20.6190352557
 11
32.0648086456
 21
20.5183002059
  0
LINE
  5
6C5
100
AcDbEntity
  8
CURVE
100
AcDbLine
 62
7
  6
CONTINUOUS
 10
32.073140681
 20
20.3312004888
 11
32.0738472972
 21
20.6668360804
  0
LINE
  5
6C6
100
AcDbEntity
  8
RACCORDO
100
AcDbLine
 62
7
  6
CONTINUOUS
 10
31.8875480685
 20
10.5246310352
 11
31.8880792852
 21
10.6875278679
  0
LINE
  5
6C7
100
AcDbEntity
  8
RACCORDO
100
AcDbLine
 62
7
  6
CONTINUOUS
 10
31.8875480685
 20
5.5246310352
 11
31.8880792852
 21
5.6875278679
  0
LINE
  5
6C8
100
AcDbEntity
  8
RACCORDO
100
AcDbLine
 62
7
  6
CONTINUOUS
 10
31.8875480685
 20
0.5246310352
 11
31.8880792852
 21
0.6875278679
  0
LINE
  5
6C9
100
AcDbEntity
  8
RACCORDO
100
AcDbLine
 62
7
  6
CONTINUOUS
 10
31.8876475287
 20
15.5578477456
 11
31.8883160823
 21
15.7504174117
  0
LINE
  5
6CA
100
AcDbEntity
  8
CURVE
100
AcDbLine
 62
7
  6
CONTINUOUS
 10
32.0295016493
 20
1.0958129163
 11
32.0297804305
 21
1.1854054153
  0
LINE
  5
6CB
100
AcDbEntity
  8
CURVE
100
AcDbLine
 62
7
  6
CONTINUOUS
 10
32.0660760246
 20
0.8824640058
 11
32.065795864
 21
0.7932954251
  0
LINE
  5
6CC
100
AcDbEntity
  8
ASSI
100
AcDbLine
 62
7
  6
CONTINUOUS
 10
31.8876862009
 20
10.5703911474
 11
31.8883845202
 21
10.7677006979
  0
LINE
  5
6CD
100
AcDbEntity
  8
ASSI
100
AcDbLine
 62
7
  6
CONTINUOUS
 10
31.8876862009
 20
5.5703911474
 11
31.8883845202
 21
5.7677006979
  0
LINE
  5
6CE
100
AcDbEntity
  8
ASSI
100
AcDbLine
 62
7
  6
CONTINUOUS
 10
31.8876862009
 20
0.5703911474
 11
31.8883845202
 21
0.7677006979
  0
LINE
  5
6CF
100
AcDbEntity
  8
ASSI
100
AcDbLine
 62
7
  6
CONTINUOUS
 10
31.8873861424
 20
15.4671895512
 11
31.8885138066
 21
15.7993737667
  0
LINE
  5
6D0
100
AcDbEntity
  8
ASSI
100
AcDbLine
 62
7
  6
CONTINUOUS
 10
31.8883845202
 20
10.7677006979
 11
31.8886466585
 21
10.8306946266
  0
LINE
  5
6D1
100
AcDbEntity
  8
ASSI
100
AcDbLine
 62
7
  6
CONTINUOUS
 10
31.8883845202
 20
5.7677006979
 11
31.8886466585
 21
5.8306946266
  0
LINE
  5
6D2
100
AcDbEntity
  8
ASSI
100
AcDbLine
 62
7
  6
CONTINUOUS
 10
31.8883845202
 20
0.7677006979
 11
31.8886466585
 21
0.8306946266
  0
LINE
  5
6D3
100
AcDbEntity
  8
RACCORDO
100
AcDbLine
 62
7
  6
CONTINUOUS
 10
31.8880792852
 20
10.6875278679
 11
31.8888305521
 21
10.8722102195
  0
LINE
  5
6D4
100
AcDbEntity
  8
RACCORDO
100
AcDbLine
 62
7
  6
CONTINUOUS
 10
31.8880792852
 20
5.6875278679
 11
31.8888305521
 21
5.8722102195
  0
LINE
  5
6D5
100
AcDbEntity
  8
RACCORDO
100
AcDbLine
 62
7
  6
CONTINUOUS
 10
31.8880792852
 20
0.6875278679
 11
31.8888305521
 21
0.8722102195
  0
LINE
  5
6D6
100
AcDbEntity
  8
RACCORDO
100
AcDbLine
 62
7
  6
CONTINUOUS
 10
31.8883160823
 20
15.7504174117
 11
31.8891068227
 21
15.931089634
  0
LINE
  5
6D7
100
AcDbEntity
  8
RACCORDO
100
AcDbLine
 62
7
  6
CONTINUOUS
 10
31.8888305521
 20
10.8722102195
 11
31.8891068227
 21
10.931089634
  0
LINE
  5
6D8
100
AcDbEntity
  8
RACCORDO
100
AcDbLine
 62
7
  6
CONTINUOUS
 10
31.8888305521
 20
5.8722102195
 11
31.8891068227
 21
5.931089634
  0
LINE
  5
6D9
100
AcDbEntity
  8
RACCORDO
100
AcDbLine
 62
7
  6
CONTINUOUS
 10
31.8888305521
 20
0.8722102195
 11
31.8891068227
 21
0.931089634
  0
LINE
  5
6DA
100
AcDbEntity
  8
ASSI
100
AcDbLine
 62
7
  6
CONTINUOUS
 10
31.8885138066
 20
15.7993737667
 11
31.8893601575
 21
15.9819493216
  0
LINE
  5
6DB
100
AcDbEntity
  8
CURVE
100
AcDbLine
 62
7
  6
CONTINUOUS
 10
32.0224843939
 20
1.410010354
 11
32.0215803483
 21
1.1699028704
  0
LINE
  5
6DC
100
AcDbEntity
  8
CURVE
100
AcDbLine
 62
7
  6
CONTINUOUS
 10
32.0731034824
 20
0.5705616093
 11
32.0740076079
 21
0.8106346679
  0
LINE
  5
6DD
100
AcDbEntity
  8
ASSI
100
AcDbLine
 62
7
  6
CONTINUOUS
 10
31.8886466585
 20
10.8306946266
 11
31.8895115825
 21
11.0111203918
  0
LINE
  5
6DE
100
AcDbEntity
  8
ASSI
100
AcDbLine
 62
7
  6
CONTINUOUS
 10
31.8886466585
 20
5.8306946266
 11
31.8895115825
 21
6.0111203918
  0
LINE
  5
6DF
100
AcDbEntity
  8
ASSI
100
AcDbLine
 62
7
  6
CONTINUOUS
 10
31.8886466585
 20
0.8306946266
 11
31.8895115825
 21
1.0111203918
  0
LINE
  5
6E0
100
AcDbEntity
  8
CURVE
100
AcDbLine
 62
7
  6
CONTINUOUS
 10
32.0297804305
 20
1.1854054153
 11
32.0302181185
 21
1.273660637
  0
LINE
  5
6E1
100
AcDbEntity
  8
CURVE
100
AcDbLine
 62
7
  6
CONTINUOUS
 10
32.065795864
 20
0.7932954251
 11
32.0653566607
 21
0.7054771859
  0
LINE
  5
6E2
100
AcDbEntity
  8
RACCORDO
100
AcDbLine
 62
7
  6
CONTINUOUS
 10
31.8891068227
 20
15.931089634
 11
31.8901557794
 21
16.1263825816
  0
LINE
  5
6E3
100
AcDbEntity
  8
RACCORDO
100
AcDbLine
 62
7
  6
CONTINUOUS
 10
31.8891068227
 20
10.931089634
 11
31.8901557794
 21
11.1263825816
  0
LINE
  5
6E4
100
AcDbEntity
  8
CURVE
100
AcDbLine
 62
253
  6
CONTINUOUS
 10
32.0050427195
 20
28.4254285936
 11
32.0045025253
 21
28.332571495
  0
LINE
  5
6E5
100
AcDbEntity
  8
RACCORDO
100
AcDbLine
 62
7
  6
CONTINUOUS
 10
31.8891068227
 20
5.931089634
 11
31.8901557794
 21
6.1263825816
  0
LINE
  5
6E6
100
AcDbEntity
  8
RACCORDO
100
AcDbLine
 62
7
  6
CONTINUOUS
 10
31.8891068227
 20
0.931089634
 11
31.8901557794
 21
1.1263825816
  0
LINE
  5
6E7
100
AcDbEntity
  8
CURVE
100
AcDbLine
 62
7
  6
CONTINUOUS
 10
32.0423475501
 20
20.6267561751
 11
32.0421102731
 21
20.5740068048
  0
LINE
  5
6E8
100
AcDbEntity
  8
ASSI
100
AcDbLine
 62
7
  6
CONTINUOUS
 10
31.8893601575
 20
15.9819493216
 11
31.890306901
 21
16.1515005429
  0
LINE
  5
6E9
100
AcDbEntity
  8
ASSI
100
AcDbLine
 62
7
  6
CONTINUOUS
 10
31.8895115825
 20
11.0111203918
 11
31.8904738978
 21
11.17847857
  0
LINE
  5
6EA
100
AcDbEntity
  8
ASSI
100
AcDbLine
 62
7
  6
CONTINUOUS
 10
31.8895115825
 20
6.0111203918
 11
31.8904738978
 21
6.17847857
  0
LINE
  5
6EB
100
AcDbEntity
  8
ASSI
100
AcDbLine
 62
7
  6
CONTINUOUS
 10
31.8895115825
 20
1.0111203918
 11
31.8904738978
 21
1.17847857
  0
LINE
  5
6EC
100
AcDbEntity
  8
CURVE
100
AcDbLine
 62
7
  6
CONTINUOUS
 10
32.0648086456
 20
20.5183002059
 11
32.0644881918
 21
20.4528976447
  0
LINE
  5
6ED
100
AcDbEntity
  8
RACCORDO
100
AcDbLine
 62
7
  6
CONTINUOUS
 10
31.8901557794
 20
16.1263825816
 11
31.8911510294
 21
16.2802944571
  0
LINE
  5
6EE
100
AcDbEntity
  8
RACCORDO
100
AcDbLine
 62
7
  6
CONTINUOUS
 10
31.8901557794
 20
11.1263825816
 11
31.8911510294
 21
11.2802944571
  0
LINE
  5
6EF
100
AcDbEntity
  8
RACCORDO
100
AcDbLine
 62
7
  6
CONTINUOUS
 10
31.8901557794
 20
6.1263825816
 11
31.8911510294
 21
6.2802944571
  0
LINE
  5
6F0
100
AcDbEntity
  8
RACCORDO
100
AcDbLine
 62
7
  6
CONTINUOUS
 10
31.8901557794
 20
1.1263825816
 11
31.8911510294
 21
1.2802944571
  0
LINE
  5
6F1
100
AcDbEntity
  8
ASSI
100
AcDbLine
 62
7
  6
CONTINUOUS
 10
31.890306901
 20
16.1515005429
 11
31.891347883
 21
16.3078557635
  0
LINE
  5
6F2
100
AcDbEntity
  8
ASSI
100
AcDbLine
 62
7
  6
CONTINUOUS
 10
31.8904738978
 20
11.17847857
 11
31.8915300098
 21
11.3326287192
  0
LINE
  5
6F3
100
AcDbEntity
  8
ASSI
100
AcDbLine
 62
7
  6
CONTINUOUS
 10
31.8904738978
 20
6.17847857
 11
31.8915300098
 21
6.3326287192
  0
LINE
  5
6F4
100
AcDbEntity
  8
ASSI
100
AcDbLine
 62
7
  6
CONTINUOUS
 10
31.8904738978
 20
1.17847857
 11
31.8915300098
 21
1.3326287192
  0
LINE
  5
6F5
100
AcDbEntity
  8
CURVE
100
AcDbLine
 62
7
  6
CONTINUOUS
 10
32.0717980531
 20
20.0730306919
 11
32.073140681
 21
20.3312004888
  0
LINE
  5
6F6
100
AcDbEntity
  8
CURVE
100
AcDbLine
 62
7
  6
CONTINUOUS
 10
32.0302181185
 20
1.273660637
 11
32.0308108794
 21
1.3588955572
  0
LINE
  5
6F7
100
AcDbEntity
  8
CURVE
100
AcDbLine
 62
7
  6
CONTINUOUS
 10
32.0653566607
 20
0.7054771859
 11
32.0647627583
 21
0.6206728851
  0
LINE
  5
6F8
100
AcDbEntity
  8
RACCORDO
100
AcDbLine
 62
7
  6
CONTINUOUS
 10
31.8911510294
 20
16.2802944571
 11
31.8922270997
 21
16.4217202018
  0
LINE
  5
6F9
100
AcDbEntity
  8
RACCORDO
100
AcDbLine
 62
7
  6
CONTINUOUS
 10
31.8911510294
 20
11.2802944571
 11
31.8922270997
 21
11.4217202018
  0
LINE
  5
6FA
100
AcDbEntity
  8
RACCORDO
100
AcDbLine
 62
7
  6
CONTINUOUS
 10
31.8911510294
 20
6.2802944571
 11
31.8922270997
 21
6.4217202018
  0
LINE
  5
6FB
100
AcDbEntity
  8
RACCORDO
100
AcDbLine
 62
7
  6
CONTINUOUS
 10
31.8911510294
 20
1.2802944571
 11
31.8922270997
 21
1.4217202018
  0
LINE
  5
6FC
100
AcDbEntity
  8
ASSI
100
AcDbLine
 62
7
  6
CONTINUOUS
 10
31.891347883
 20
16.3078557635
 11
31.8924707987
 21
16.4509725444
  0
LINE
  5
6FD
100
AcDbEntity
  8
ASSI
100
AcDbLine
 62
7
  6
CONTINUOUS
 10
31.8915300098
 20
11.3326287192
 11
31.8926641286
 21
11.4735370539
  0
LINE
  5
6FE
100
AcDbEntity
  8
ASSI
100
AcDbLine
 62
7
  6
CONTINUOUS
 10
31.8915300098
 20
6.3326287192
 11
31.8926641286
 21
6.4735370539
  0
LINE
  5
6FF
100
AcDbEntity
  8
ASSI
100
AcDbLine
 62
7
  6
CONTINUOUS
 10
31.8915300098
 20
1.3326287192
 11
31.8926641286
 21
1.4735370539
  0
LINE
  5
700
100
AcDbEntity
  8
CURVE
100
AcDbLine
 62
7
  6
CONTINUOUS
 10
32.0240728215
 20
1.6399665223
 11
32.0224843939
 21
1.410010354
  0
LINE
  5
701
100
AcDbEntity
  8
CURVE
100
AcDbLine
 62
7
  6
CONTINUOUS
 10
32.0715149957
 20
0.340640346
 11
32.0731034824
 21
0.5705616093
  0
LINE
  5
702
100
AcDbEntity
  8
RACCORDO
100
AcDbLine
 62
7
  6
CONTINUOUS
 10
31.8922270997
 20
16.4217202018
 11
31.8933643657
 21
16.5506647826
  0
LINE
  5
703
100
AcDbEntity
  8
RACCORDO
100
AcDbLine
 62
7
  6
CONTINUOUS
 10
31.8922270997
 20
11.4217202018
 11
31.8933643657
 21
11.5506647826
  0
LINE
  5
704
100
AcDbEntity
  8
RACCORDO
100
AcDbLine
 62
7
  6
CONTINUOUS
 10
31.8922270997
 20
6.4217202018
 11
31.8933643657
 21
6.5506647826
  0
LINE
  5
705
100
AcDbEntity
  8
RACCORDO
100
AcDbLine
 62
7
  6
CONTINUOUS
 10
31.8922270997
 20
1.4217202018
 11
31.8933643657
 21
1.5506647826
  0
LINE
  5
706
100
AcDbEntity
  8
ASSI
100
AcDbLine
 62
7
  6
CONTINUOUS
 10
31.8924707987
 20
16.4509725444
 11
31.8936569664
 21
16.580856066
  0
LINE
  5
707
100
AcDbEntity
  8
CURVE
100
AcDbLine
 62
7
  6
CONTINUOUS
 10
32.0644881918
 20
20.4528976447
 11
32.0639845598
 21
20.3909604347
  0
LINE
  5
708
100
AcDbEntity
  8
CURVE
100
AcDbLine
 62
7
  6
CONTINUOUS
 10
32.0421102731
 20
20.5740068048
 11
32.0416935348
 21
20.5231771414
  0
LINE
  5
709
100
AcDbEntity
  8
ASSI
100
AcDbLine
 62
7
  6
CONTINUOUS
 10
31.8926641286
 20
11.4735370539
 11
31.8938608661
 21
11.6012249707
  0
LINE
  5
70A
100
AcDbEntity
  8
ASSI
100
AcDbLine
 62
7
  6
CONTINUOUS
 10
31.8926641286
 20
6.4735370539
 11
31.8938608661
 21
6.6012249707
  0
LINE
  5
70B
100
AcDbEntity
  8
ASSI
100
AcDbLine
 62
7
  6
CONTINUOUS
 10
31.8926641286
 20
1.4735370539
 11
31.8938608661
 21
1.6012249707
  0
LINE
  5
70C
100
AcDbEntity
  8
CURVE
100
AcDbLine
 62
7
  6
CONTINUOUS
 10
32.0308108794
 20
1.3588955572
 11
32.031554879
 21
1.4394271517
  0
LINE
  5
70D
100
AcDbEntity
  8
CURVE
100
AcDbLine
 62
7
  6
CONTINUOUS
 10
32.0647627583
 20
0.6206728851
 11
32.0640185005
 21
0.5405461194
  0
LINE
  5
70E
100
AcDbEntity
  8
RACCORDO
100
AcDbLine
 62
7
  6
CONTINUOUS
 10
31.8933643657
 20
16.5506647826
 11
31.8945608267
 21
16.6672298161
  0
LINE
  5
70F
100
AcDbEntity
  8
RACCORDO
100
AcDbLine
 62
7
  6
CONTINUOUS
 10
31.8933643657
 20
11.5506647826
 11
31.8945608267
 21
11.6672298161
  0
LINE
  5
710
100
AcDbEntity
  8
RACCORDO
100
AcDbLine
 62
7
  6
CONTINUOUS
 10
31.8933643657
 20
6.5506647826
 11
31.8945608267
 21
6.6672298161
  0
LINE
  5
711
100
AcDbEntity
  8
RACCORDO
100
AcDbLine
 62
7
  6
CONTINUOUS
 10
31.8933643657
 20
1.5506647826
 11
31.8945608267
 21
1.6672298161
  0
LINE
  5
712
100
AcDbEntity
  8
ASSI
100
AcDbLine
 62
7
  6
CONTINUOUS
 10
31.8936569664
 20
16.580856066
 11
31.8949051473
 21
16.6976299253
  0
LINE
  5
713
100
AcDbEntity
  8
ASSI
100
AcDbLine
 62
7
  6
CONTINUOUS
 10
31.8938608661
 20
11.6012249707
 11
31.8951184489
 21
11.7158294204
  0
LINE
  5
714
100
AcDbEntity
  8
CURVE
100
AcDbLine
 62
7
  6
CONTINUOUS
 10
32.0456230385
 20
19.9867119868
 11
32.0462418904
 21
20.0523014329
  0
LINE
  5
715
100
AcDbEntity
  8
ASSI
100
AcDbLine
 62
7
  6
CONTINUOUS
 10
31.8938608661
 20
6.6012249707
 11
31.8951184489
 21
6.7158294204
  0
LINE
  5
716
100
AcDbEntity
  8
ASSI
100
AcDbLine
 62
7
  6
CONTINUOUS
 10
31.8938608661
 20
1.6012249707
 11
31.8951184489
 21
1.7158294204
  0
LINE
  5
717
100
AcDbEntity
  8
CURVE
100
AcDbLine
 62
7
  6
CONTINUOUS
 10
32.0259961229
 20
1.8235772333
 11
32.0240728215
 21
1.6399665223
  0
LINE
  5
718
100
AcDbEntity
  8
CURVE
100
AcDbLine
 62
7
  6
CONTINUOUS
 10
32.0695917208
 20
0.1570584138
 11
32.0715149957
 21
0.340640346
  0
LINE
  5
719
100
AcDbEntity
  8
RACCORDO
100
AcDbLine
 62
7
  6
CONTINUOUS
 10
31.8945608267
 20
16.6672298161
 11
31.8958075299
 21
16.7715633589
  0
LINE
  5
71A
100
AcDbEntity
  8
RACCORDO
100
AcDbLine
 62
7
  6
CONTINUOUS
 10
31.8945608267
 20
11.6672298161
 11
31.8958075299
 21
11.7715633589
  0
LINE
  5
71B
100
AcDbEntity
  8
RACCORDO
100
AcDbLine
 62
7
  6
CONTINUOUS
 10
31.8945608267
 20
6.6672298161
 11
31.8958075299
 21
6.7715633589
  0
LINE
  5
71C
100
AcDbEntity
  8
RACCORDO
100
AcDbLine
 62
7
  6
CONTINUOUS
 10
31.8945608267
 20
1.6672298161
 11
31.8958075299
 21
1.7715633589
  0
LINE
  5
71D
100
AcDbEntity
  8
CURVE
100
AcDbLine
 62
7
  6
CONTINUOUS
 10
32.031554879
 20
1.4394271517
 11
32.0322563941
 21
1.4993350407
  0
LINE
  5
71E
100
AcDbEntity
  8
CURVE
100
AcDbLine
 62
7
  6
CONTINUOUS
 10
32.070567145
 20
19.9570691347
 11
32.0717980531
 21
20.0730306919
  0
LINE
  5
71F
100
AcDbEntity
  8
ASSI
100
AcDbLine
 62
7
  6
CONTINUOUS
 10
31.8949051473
 20
16.6976299253
 11
31.8962009359
 21
16.8014261871
  0
LINE
  5
720
100
AcDbEntity
  8
CURVE
100
AcDbLine
 62
7
  6
CONTINUOUS
 10
32.0639845598
 20
20.3909604347
 11
32.0634270755
 21
20.343882073
  0
LINE
  5
721
100
AcDbEntity
  8
CURVE
100
AcDbLine
 62
7
  6
CONTINUOUS
 10
32.0640185005
 20
0.5405461194
 11
32.0631282309
 21
0.4667604856
  0
LINE
  5
722
100
AcDbEntity
  8
ASSI
100
AcDbLine
 62
7
  6
CONTINUOUS
 10
31.8951184489
 20
11.7158294204
 11
31.8964200114
 21
11.8174546512
  0
LINE
  5
723
100
AcDbEntity
  8
CURVE
100
AcDbLine
 62
7
  6
CONTINUOUS
 10
32.0416935348
 20
20.5231771414
 11
32.0411327078
 21
20.4766400089
  0
LINE
  5
724
100
AcDbEntity
  8
ASSI
100
AcDbLine
 62
7
  6
CONTINUOUS
 10
31.8951184489
 20
6.7158294204
 11
31.8964200114
 21
6.8174546512
  0
LINE
  5
725
100
AcDbEntity
  8
ASSI
100
AcDbLine
 62
7
  6
CONTINUOUS
 10
31.8951184489
 20
1.7158294204
 11
31.8964200114
 21
1.8174546512
  0
LINE
  5
726
100
AcDbEntity
  8
CURVE
100
AcDbLine
 62
253
  6
CONTINUOUS
 10
32.0045025253
 20
28.332571495
 11
32.0018015585
 21
28.1468571429
  0
LINE
  5
727
100
AcDbEntity
  8
RACCORDO
100
AcDbLine
 62
7
  6
CONTINUOUS
 10
31.8958075299
 20
16.7715633589
 11
31.897086259
 21
16.8635983092
  0
LINE
  5
728
100
AcDbEntity
  8
RACCORDO
100
AcDbLine
 62
7
  6
CONTINUOUS
 10
31.8958075299
 20
11.7715633589
 11
31.897086259
 21
11.8635983092
  0
LINE
  5
729
100
AcDbEntity
  8
RACCORDO
100
AcDbLine
 62
7
  6
CONTINUOUS
 10
31.8958075299
 20
6.7715633589
 11
31.897086259
 21
6.8635983092
  0
LINE
  5
72A
100
AcDbEntity
  8
RACCORDO
100
AcDbLine
 62
7
  6
CONTINUOUS
 10
31.8958075299
 20
1.7715633589
 11
31.897086259
 21
1.8635983092
  0
LINE
  5
72B
100
AcDbEntity
  8
CURVE
100
AcDbLine
 62
253
  6
CONTINUOUS
 10
31.9888369138
 20
26.0111429457
 11
31.9985603975
 21
26.6611429457
  0
LINE
  5
72C
100
AcDbEntity
  8
ASSI
100
AcDbLine
 62
7
  6
CONTINUOUS
 10
31.8962009359
 20
16.8014261871
 11
31.89752747
 21
16.8920579309
  0
LINE
  5
72D
100
AcDbEntity
  8
ASSI
100
AcDbLine
 62
7
  6
CONTINUOUS
 10
31.8964200114
 20
11.8174546512
 11
31.89752747
 21
11.8920579309
  0
LINE
  5
72E
100
AcDbEntity
  8
ASSI
100
AcDbLine
 62
7
  6
CONTINUOUS
 10
31.8964200114
 20
6.8174546512
 11
31.89752747
 21
6.8920579309
  0
LINE
  5
72F
100
AcDbEntity
  8
ASSI
100
AcDbLine
 62
7
  6
CONTINUOUS
 10
31.8964200114
 20
1.8174546512
 11
31.89752747
 21
1.8920579309
  0
LINE
  5
730
100
AcDbEntity
  8
CURVE
100
AcDbLine
 62
7
  6
CONTINUOUS
 10
32.0322563941
 20
1.4993350407
 11
32.0330502851
 21
1.5542939575
  0
LINE
  5
731
100
AcDbEntity
  8
CURVE
100
AcDbLine
 62
7
  6
CONTINUOUS
 10
32.0449286202
 20
19.9380208306
 11
32.0456230385
 21
19.9867119868
  0
LINE
  5
732
100
AcDbEntity
  8
CURVE
100
AcDbLine
 62
7
  6
CONTINUOUS
 10
32.0631282309
 20
0.4667604856
 11
32.0623138059
 21
0.4134155306
  0
LINE
  5
733
100
AcDbEntity
  8
CURVE
100
AcDbLine
 62
7
  6
CONTINUOUS
 10
32.0280219495
 20
1.9615928833
 11
32.0259961229
 21
1.8235772333
  0
LINE
  5
734
100
AcDbEntity
  8
CURVE
100
AcDbLine
 62
7
  6
CONTINUOUS
 10
32.0675660164
 20
0.0190646585
 11
32.0695917208
 21
0.1570584138
  0
LINE
  5
735
100
AcDbEntity
  8
CURVE
100
AcDbLine
 62
253
  6
CONTINUOUS
 10
32.0050427195
 20
30.2825714175
 11
32.0018015585
 21
30.0968571429
  0
LINE
  5
736
100
AcDbEntity
  8
CURVE
100
AcDbLine
 62
253
  6
CONTINUOUS
 10
31.9936986553
 20
28.2397142414
 11
31.9904574943
 21
28.0540000443
  0
LINE
  5
737
100
AcDbEntity
  8
CURVE
100
AcDbLine
 62
253
  6
CONTINUOUS
 10
32.0050427195
 20
26.1040000443
 11
32.0034221383
 21
26.0111429457
  0
LINE
  5
738
100
AcDbEntity
  8
CURVE
100
AcDbLine
 62
253
  6
CONTINUOUS
 10
32.0050427195
 20
24.1539997343
 11
32.0018015585
 21
23.9682855372
  0
LINE
  5
739
100
AcDbEntity
  8
CURVE
100
AcDbLine
 62
253
  6
CONTINUOUS
 10
32.0107770819
 20
7.1968571429
 11
32.0155141634
 21
7.4682856981
  0
LINE
  5
73A
100
AcDbEntity
  8
CURVE
100
AcDbLine
 62
253
  6
CONTINUOUS
 10
32.0155141634
 20
6.1111429219
 11
32.0107770819
 21
5.8397142534
  0
LINE
  5
73B
100
AcDbEntity
  8
CURVE
100
AcDbLine
 62
253
  6
CONTINUOUS
 10
31.9965658365
 20
3.2611429219
 11
32.001302919
 21
3.5325713639
  0
LINE
  5
73C
100
AcDbEntity
  8
CURVE
100
AcDbLine
 62
253
  6
CONTINUOUS
 10
32.001302919
 20
2.7182855849
 11
31.9965658365
 21
2.4468571429
  0
LINE
  5
73D
100
AcDbEntity
  8
CURVE
100
AcDbLine
 62
253
  6
CONTINUOUS
 10
32.0107770819
 20
1.7682855849
 11
32.0155141634
 21
2.0397144799
  0
LINE
  5
73E
100
AcDbEntity
  8
CURVE
100
AcDbLine
 62
253
  6
CONTINUOUS
 10
32.0107770819
 20
-1.8959997411
 11
32.0155141634
 21
-1.6245712991
  0
LINE
  5
73F
100
AcDbEntity
  8
CURVE
100
AcDbLine
 62
253
  6
CONTINUOUS
 10
32.0155141634
 20
-2.9817144151
 11
32.0107770819
 21
-3.2531428571
  0
LINE
  5
740
100
AcDbEntity
  8
RACCORDO
100
AcDbLine
 62
7
  6
CONTINUOUS
 10
31.897086259
 20
16.8635983092
 11
31.8983890168
 21
16.9430618216
  0
LINE
  5
741
100
AcDbEntity
  8
RACCORDO
100
AcDbLine
 62
7
  6
CONTINUOUS
 10
31.897086259
 20
11.8635983092
 11
31.8983890168
 21
11.9430618216
  0
LINE
  5
742
100
AcDbEntity
  8
CURVE
100
AcDbLine
 62
7
  6
CONTINUOUS
 10
32.0634270755
 20
20.343882073
 11
32.0628921316
 21
20.3102792678
  0
LINE
  5
743
100
AcDbEntity
  8
RACCORDO
100
AcDbLine
 62
7
  6
CONTINUOUS
 10
31.897086259
 20
6.8635983092
 11
31.8983890168
 21
6.9430618216
  0
LINE
  5
744
100
AcDbEntity
  8
RACCORDO
100
AcDbLine
 62
7
  6
CONTINUOUS
 10
31.897086259
 20
1.8635983092
 11
31.8983890168
 21
1.9430618216
  0
LINE
  5
745
100
AcDbEntity
  8
CURVE
100
AcDbLine
 62
7
  6
CONTINUOUS
 10
32.0411327078
 20
20.4766400089
 11
32.0404608138
 21
20.4345147892
  0
LINE
  5
746
100
AcDbEntity
  8
CURVE
100
AcDbLine
 62
7
  6
CONTINUOUS
 10
32.0690495575
 20
19.8598130847
 11
32.070567145
 21
19.9570691347
  0
LINE
  5
747
100
AcDbEntity
  8
ASSI
100
AcDbLine
 62
7
  6
CONTINUOUS
 10
31.89752747
 20
16.8920579309
 11
31.8986495484
 21
16.95735306
  0
LINE
  5
748
100
AcDbEntity
  8
ASSI
100
AcDbLine
 62
7
  6
CONTINUOUS
 10
31.89752747
 20
11.8920579309
 11
31.8986495484
 21
11.95735306
  0
LINE
  5
749
100
AcDbEntity
  8
ASSI
100
AcDbLine
 62
7
  6
CONTINUOUS
 10
31.89752747
 20
6.8920579309
 11
31.8986495484
 21
6.95735306
  0
LINE
  5
74A
100
AcDbEntity
  8
CURVE
100
AcDbLine
 62
253
  6
CONTINUOUS
 10
32.0643809014
 20
13.1886428992
 11
32.0611397404
 21
13.0122144119
  0
LINE
  5
74B
100
AcDbEntity
  8
ASSI
100
AcDbLine
 62
7
  6
CONTINUOUS
 10
31.89752747
 20
1.8920579309
 11
31.8986495484
 21
1.95735306
  0
LINE
  5
74C
100
AcDbEntity
  8
CURVE
100
AcDbLine
 62
7
  6
CONTINUOUS
 10
32.0330502851
 20
1.5542939575
 11
32.0340057569
 21
1.607070981
  0
LINE
  5
74D
100
AcDbEntity
  8
RACCORDO
100
AcDbLine
 62
7
  6
CONTINUOUS
 10
31.8983890168
 20
16.9430618216
 11
31.899480136
 21
16.9996281585
  0
LINE
  5
74E
100
AcDbEntity
  8
RACCORDO
100
AcDbLine
 62
7
  6
CONTINUOUS
 10
31.8983890168
 20
11.9430618216
 11
31.899480136
 21
11.9996281585
  0
LINE
  5
74F
100
AcDbEntity
  8
RACCORDO
100
AcDbLine
 62
7
  6
CONTINUOUS
 10
31.8983890168
 20
6.9430618216
 11
31.899480136
 21
6.9996281585
  0
LINE
  5
750
100
AcDbEntity
  8
RACCORDO
100
AcDbLine
 62
7
  6
CONTINUOUS
 10
31.8983890168
 20
1.9430618216
 11
31.899480136
 21
1.9996281585
  0
LINE
  5
751
100
AcDbEntity
  8
CURVE
100
AcDbLine
 62
7
  6
CONTINUOUS
 10
32.0623138059
 20
0.4134155306
 11
32.0612643556
 21
0.3587756812
  0
LINE
  5
752
100
AcDbEntity
  8
CURVE
100
AcDbLine
 62
7
  6
CONTINUOUS
 10
32.0441080078
 20
19.8946451713
 11
32.0449286202
 21
19.9380208306
  0
LINE
  5
753
100
AcDbEntity
  8
CURVE
100
AcDbLine
 62
253
  6
CONTINUOUS
 10
32.0107770819
 20
3.3063808445
 11
32.0155141634
 21
3.5325713639
  0
LINE
  5
754
100
AcDbEntity
  8
CURVE
100
AcDbLine
 62
7
  6
CONTINUOUS
 10
32.0296064325
 20
2.0434135127
 11
32.0280219495
 21
1.9615928833
  0
LINE
  5
755
100
AcDbEntity
  8
CURVE
100
AcDbLine
 62
7
  6
CONTINUOUS
 10
32.0659816304
 20
-0.0627457063
 11
32.0675660164
 21
0.0190646585
  0
LINE
  5
756
100
AcDbEntity
  8
RACCORDO
100
AcDbLine
 62
7
  6
CONTINUOUS
 10
31.899480136
 20
16.9996281585
 11
31.8997868507
 21
17.013995195
  0
LINE
  5
757
100
AcDbEntity
  8
CURVE
100
AcDbLine
 62
7
  6
CONTINUOUS
 10
32.0404608138
 20
20.4345147892
 11
32.0398574472
 21
20.4045679088
  0
LINE
  5
758
100
AcDbEntity
  8
RACCORDO
100
AcDbLine
 62
7
  6
CONTINUOUS
 10
31.899480136
 20
11.9996281585
 11
31.8997868507
 21
12.013995195
  0
LINE
  5
759
100
AcDbEntity
  8
RACCORDO
100
AcDbLine
 62
7
  6
CONTINUOUS
 10
31.899480136
 20
6.9996281585
 11
31.8997868507
 21
7.013995195
  0
LINE
  5
75A
100
AcDbEntity
  8
RACCORDO
100
AcDbLine
 62
7
  6
CONTINUOUS
 10
31.899480136
 20
1.9996281585
 11
31.8997868507
 21
2.013995195
  0
LINE
  5
75B
100
AcDbEntity
  8
CURVE
100
AcDbLine
 62
7
  6
CONTINUOUS
 10
32.0679244018
 20
19.8047422369
 11
32.0690495575
 21
19.8598130847
  0
LINE
  5
75C
100
AcDbEntity
  8
ASSI
100
AcDbLine
 62
7
  6
CONTINUOUS
 10
31.8986495484
 20
16.95735306
 11
31.8997862318
 21
17.0139944321
  0
LINE
  5
75D
100
AcDbEntity
  8
ASSI
100
AcDbLine
 62
7
  6
CONTINUOUS
 10
31.8986495484
 20
11.95735306
 11
31.8997862318
 21
12.0139944321
  0
LINE
  5
75E
100
AcDbEntity
  8
ASSI
100
AcDbLine
 62
7
  6
CONTINUOUS
 10
31.8986495484
 20
6.95735306
 11
31.8997862318
 21
7.0139944321
  0
LINE
  5
75F
100
AcDbEntity
  8
ASSI
100
AcDbLine
 62
7
  6
CONTINUOUS
 10
31.8986495484
 20
1.95735306
 11
31.8997862318
 21
2.0139944321
  0
LINE
  5
760
100
AcDbEntity
  8
CURVE
100
AcDbLine
 62
7
  6
CONTINUOUS
 10
32.0628921316
 20
20.3102792678
 11
32.062281608
 21
20.2810440722
  0
LINE
  5
761
100
AcDbEntity
  8
CURVE
100
AcDbLine
 62
7
  6
CONTINUOUS
 10
32.0340057569
 20
1.607070981
 11
32.0349526843
 21
1.6500907401
  0
LINE
  5
762
100
AcDbEntity
  8
CURVE
100
AcDbLine
 62
7
  6
CONTINUOUS
 10
32.0522664497
 20
3.6426371429
 11
32.0224946662
 21
2.3889731429
  0
LINE
  5
763
100
AcDbEntity
  8
CURVE
100
AcDbLine
 62
7
  6
CONTINUOUS
 10
32.0224946662
 20
3.0402761429
 11
32.0460523326
 21
4.0050381429
  0
LINE
  5
764
100
AcDbEntity
  8
CURVE
100
AcDbLine
 62
7
  6
CONTINUOUS
 10
32.0612643556
 20
0.3587756812
 11
32.0602961039
 21
0.3172124672
  0
LINE
  5
765
100
AcDbEntity
  8
CURVE
100
AcDbLine
 62
253
  6
CONTINUOUS
 10
31.9920780748
 20
30.4682857115
 11
31.9886515033
 21
30.3373936772
  0
LINE
  5
766
100
AcDbEntity
  8
CURVE
100
AcDbLine
 62
7
  6
CONTINUOUS
 10
32.0431952026
 20
19.8564830188
 11
32.0441080078
 21
19.8946451713
  0
LINE
  5
767
100
AcDbEntity
  8
CURVE
100
AcDbLine
 62
253
  6
CONTINUOUS
 10
32.0050427195
 20
12.2944761906
 11
31.9953192365
 21
11.9230474864
  0
LINE
  5
768
100
AcDbEntity
  8
CURVE
100
AcDbLine
 62
7
  6
CONTINUOUS
 10
32.031490695
 20
2.1216438204
 11
32.0296064325
 21
2.0434135127
  0
LINE
  5
769
100
AcDbEntity
  8
CURVE
100
AcDbLine
 62
7
  6
CONTINUOUS
 10
32.0640973365
 20
-0.1409733704
 11
32.0659816304
 21
-0.0627457063
  0
LINE
  5
76A
100
AcDbEntity
  8
CURVE
100
AcDbLine
 62
7
  6
CONTINUOUS
 10
32.073083127
 20
-1.4192438571
 11
32.037353476
 21
-2.7561418571
  0
LINE
  5
76B
100
AcDbEntity
  8
CURVE
100
AcDbLine
 62
7
  6
CONTINUOUS
 10
32.0224946662
 20
-2.7372208571
 11
32.0578343503
 21
-1.4187988571
  0
LINE
  5
76C
100
AcDbEntity
  8
CURVE
100
AcDbLine
 62
7
  6
CONTINUOUS
 10
32.0398574472
 20
20.4045679088
 11
32.0392043397
 21
20.3784555566
  0
LINE
  5
76D
100
AcDbEntity
  8
CURVE
100
AcDbLine
 62
7
  6
CONTINUOUS
 10
32.0349526843
 20
1.6500907401
 11
32.0359608545
 21
1.6887755679
  0
LINE
  5
76E
100
AcDbEntity
  8
CURVE
100
AcDbLine
 62
7
  6
CONTINUOUS
 10
32.066700866
 20
19.7571470576
 11
32.0679244018
 21
19.8047422369
  0
LINE
  5
76F
100
AcDbEntity
  8
CURVE
100
AcDbLine
 62
7
  6
CONTINUOUS
 10
32.062281608
 20
20.2810440722
 11
32.0617813555
 21
20.2621732018
  0
LINE
  5
770
100
AcDbEntity
  8
CURVE
100
AcDbLine
 62
7
  6
CONTINUOUS
 10
32.0602961039
 20
0.3172124672
 11
32.0592693349
 21
0.2799450803
  0
LINE
  5
771
100
AcDbEntity
  8
CURVE
100
AcDbLine
 62
7
  6
CONTINUOUS
 10
32.0424214284
 20
19.829638484
 11
32.0431952026
 21
19.8564830188
  0
LINE
  5
772
100
AcDbEntity
  8
CURVE
100
AcDbLine
 62
7
  6
CONTINUOUS
 10
32.0329981141
 20
2.1735508558
 11
32.031490695
 21
2.1216438204
  0
LINE
  5
773
100
AcDbEntity
  8
CURVE
100
AcDbLine
 62
7
  6
CONTINUOUS
 10
32.0625898999
 20
-0.1928784659
 11
32.0640973365
 21
-0.1409733704
  0
LINE
  5
774
100
AcDbEntity
  8
CURVE
100
AcDbLine
 62
7
  6
CONTINUOUS
 10
32.0359608545
 20
1.6887755679
 11
32.0370220507
 21
1.7232454164
  0
LINE
  5
775
100
AcDbEntity
  8
CURVE
100
AcDbLine
 62
7
  6
CONTINUOUS
 10
32.0617813555
 20
20.2621732018
 11
32.0614311389
 21
20.2511013304
  0
LINE
  5
776
100
AcDbEntity
  8
CURVE
100
AcDbLine
 62
7
  6
CONTINUOUS
 10
32.0392043397
 20
20.3784555566
 11
32.0386867497
 21
20.3616643824
  0
LINE
  5
777
100
AcDbEntity
  8
CURVE
100
AcDbLine
 62
7
  6
CONTINUOUS
 10
32.0658357774
 20
19.729860733
 11
32.066700866
 21
19.7571470576
  0
LINE
  5
778
100
AcDbEntity
  8
CURVE
100
AcDbLine
 62
7
  6
CONTINUOUS
 10
32.0592693349
 20
0.2799450803
 11
32.0581922683
 21
0.2468534335
  0
LINE
  5
779
100
AcDbEntity
  8
CURVE
100
AcDbLine
 62
7
  6
CONTINUOUS
 10
32.0417189766
 20
19.8085523045
 11
32.0424214284
 21
19.829638484
  0
LINE
  5
77A
100
AcDbEntity
  8
CURVE
100
AcDbLine
 62
253
  6
CONTINUOUS
 10
32.0347118105
 20
13.958761916
 11
32.0120236821
 21
13.3087618385
  0
LINE
  5
77B
100
AcDbEntity
  8
CURVE
100
AcDbLine
 62
253
  6
CONTINUOUS
 10
31.9870916731
 20
6.5182856981
 11
31.9918287551
 21
6.6540000324
  0
LINE
  5
77C
100
AcDbEntity
  8
CURVE
100
AcDbLine
 62
253
  6
CONTINUOUS
 10
32.0107770819
 20
5.8397142534
 11
32.0060400005
 21
5.7040000324
  0
LINE
  5
77D
100
AcDbEntity
  8
CURVE
100
AcDbLine
 62
253
  6
CONTINUOUS
 10
31.9878811867
 20
0.8182855849
 11
31.9863021593
 21
0.7730476622
  0
LINE
  5
77E
100
AcDbEntity
  8
CURVE
100
AcDbLine
 62
253
  6
CONTINUOUS
 10
31.9870916731
 20
-2.5745712991
 11
31.9918287551
 21
-2.4388575311
  0
LINE
  5
77F
100
AcDbEntity
  8
CURVE
100
AcDbLine
 62
253
  6
CONTINUOUS
 10
32.0107770819
 20
-3.2531428571
 11
32.0060400005
 21
-3.3888575311
  0
LINE
  5
780
100
AcDbEntity
  8
CURVE
100
AcDbLine
 62
7
  6
CONTINUOUS
 10
32.0345743483
 20
2.2196879648
 11
32.0329981141
 21
2.1735508558
  0
LINE
  5
781
100
AcDbEntity
  8
CURVE
100
AcDbLine
 62
7
  6
CONTINUOUS
 10
32.0610136528
 20
-0.239013709
 11
32.0625898999
 21
-0.1928784659
  0
LINE
  5
782
100
AcDbEntity
  8
CURVE
100
AcDbLine
 62
253
  6
CONTINUOUS
 10
32.0643809014
 20
15.7468571429
 11
32.0514162567
 21
15.3939999842
  0
LINE
  5
783
100
AcDbEntity
  8
CURVE
100
AcDbLine
 62
7
  6
CONTINUOUS
 10
32.0386867497
 20
20.3616643824
 11
32.0383303735
 21
20.351908107
  0
LINE
  5
784
100
AcDbEntity
  8
CURVE
100
AcDbLine
 62
7
  6
CONTINUOUS
 10
32.0614311389
 20
20.2511013304
 11
32.061069701
 21
20.2412698373
  0
LINE
  5
785
100
AcDbEntity
  8
CURVE
100
AcDbLine
 62
7
  6
CONTINUOUS
 10
32.0370220507
 20
1.7232454164
 11
32.0381280557
 21
1.753620238
  0
LINE
  5
786
100
AcDbEntity
  8
CURVE
100
AcDbLine
 62
7
  6
CONTINUOUS
 10
32.0581922683
 20
0.2468534335
 11
32.0574503399
 21
0.227052889
  0
LWPOLYLINE
  5
787
100
AcDbEntity
  8
RACCORDO
100
AcDbPolyline
 62
253
  6
CONTINUOUS
 90
43
 70
0
 10
31.6033365584
 20
16.849020003
 10
31.6018836807
 20
16.8122003241
 10
31.60045525
 20
16.7652893202
 10
31.59907147
 20
16.7085578782
 10
31.597733236
 20
16.6423370534
 10
31.5964396528
 20
16.5669859292
 10
31.5952082384
 20
16.4828641572
 10
31.5940398816
 20
16.3904087323
 10
31.5929336936
 20
16.2900888831
 10
31.5919045261
 20
16.182340309
 10
31.5909533234
 20
16.0676919933
 10
31.5900791413
 20
15.946703348
 10
31.5892939984
 20
15.8198769994
 10
31.588598901
 20
15.687795273
 10
31.5879928429
 20
15.5511146015
 10
31.5874848243
 20
15.4104743024
 10
31.5870762147
 20
15.2665392653
 10
31.5867656446
 20
15.1200142954
 10
31.5865580063
 20
14.9716239311
 10
31.5864549341
 20
14.8220551851
 10
31.5864547936
 20
14.672066419
 10
31.5865575732
 20
14.5225001857
 10
31.5867648992
 20
14.3741162798
 10
31.5870751454
 20
14.2275998773
 10
31.5874834217
 20
14.0836706447
 10
31.5879910879
 20
13.9430328702
 10
31.5885967841
 20
13.8063517014
 10
31.5892915413
 20
13.674263283
 10
31.590076358
 20
13.5474244173
 10
31.5909502355
 20
13.4264177891
 10
31.5919012084
 20
13.3117437509
 10
31.5929302336
 20
13.2039617123
 10
31.5940363542
 20
13.1036033044
 10
31.5952047334
 20
13.0111064279
 10
31.5964362692
 20
12.9269415664
 10
31.5977300637
 20
12.8515473481
 10
31.5990685868
 20
12.7852857665
 10
31.6004527468
 20
12.7285168781
 10
31.6018816354
 20
12.6815732429
 10
31.6033349974
 20
12.6447277501
 10
31.6048060811
 20
12.6182121934
 10
31.6063016382
 20
12.602211362
 10
31.6078216688
 20
12.5968571429
  0
LWPOLYLINE
  5
788
100
AcDbEntity
  8
ASSI
100
AcDbPolyline
 62
253
  6
CONTINUOUS
 90
43
 70
0
 10
31.6033365584
 20
16.849020003
 10
31.6018836807
 20
16.8122003241
 10
31.60045525
 20
16.7652893202
 10
31.59907147
 20
16.7085578782
 10
31.597733236
 20
16.6423370534
 10
31.5964396528
 20
16.5669859292
 10
31.5952082384
 20
16.4828641572
 10
31.5940398816
 20
16.3904087323
 10
31.5929336936
 20
16.2900888831
 10
31.5919045261
 20
16.182340309
 10
31.5909533234
 20
16.0676919933
 10
31.5900791413
 20
15.946703348
 10
31.5892939984
 20
15.8198769994
 10
31.588598901
 20
15.687795273
 10
31.5879928429
 20
15.5511146015
 10
31.5874848243
 20
15.4104743024
 10
31.5870762147
 20
15.2665392653
 10
31.5867656446
 20
15.1200142954
 10
31.5865580063
 20
14.9716239311
 10
31.5864549341
 20
14.8220551851
 10
31.5864547936
 20
14.672066419
 10
31.5865575732
 20
14.5225001857
 10
31.5867648992
 20
14.3741162798
 10
31.5870751454
 20
14.2275998773
 10
31.5874834217
 20
14.0836706447
 10
31.5879910879
 20
13.9430328702
 10
31.5885967841
 20
13.8063517014
 10
31.5892915413
 20
13.674263283
 10
31.590076358
 20
13.5474244173
 10
31.5909502355
 20
13.4264177891
 10
31.5919012084
 20
13.3117437509
 10
31.5929302336
 20
13.2039617123
 10
31.5940363542
 20
13.1036033044
 10
31.5952047334
 20
13.0111064279
 10
31.5964362692
 20
12.9269415664
 10
31.5977300637
 20
12.8515473481
 10
31.5990685868
 20
12.7852857665
 10
31.6004527468
 20
12.7285168781
 10
31.6018816354
 20
12.6815732429
 10
31.6033349974
 20
12.6447277501
 10
31.6048060811
 20
12.6182121934
 10
31.6063016382
 20
12.602211362
 10
31.6078216688
 20
12.5968571429
  0
LWPOLYLINE
  5
789
100
AcDbEntity
  8
RACCORDO
100
AcDbPolyline
 62
253
  6
CONTINUOUS
 90
43
 70
0
 10
31.6033365584
 20
11.849020003
 10
31.6018836807
 20
11.8122003241
 10
31.60045525
 20
11.7652893202
 10
31.59907147
 20
11.7085578782
 10
31.597733236
 20
11.6423370534
 10
31.5964396528
 20
11.5669859292
 10
31.5952082384
 20
11.4828641572
 10
31.5940398816
 20
11.3904087323
 10
31.5929336936
 20
11.2900888831
 10
31.5919045261
 20
11.182340309
 10
31.5909533234
 20
11.0676919933
 10
31.5900791413
 20
10.946703348
 10
31.5892939984
 20
10.8198769994
 10
31.588598901
 20
10.687795273
 10
31.5879928429
 20
10.5511146015
 10
31.5874848243
 20
10.4104743024
 10
31.5870762147
 20
10.2665392653
 10
31.5867656446
 20
10.1200142954
 10
31.5865580063
 20
9.9716239311
 10
31.5864549341
 20
9.8220551851
 10
31.5864547936
 20
9.672066419
 10
31.5865575732
 20
9.5225001857
 10
31.5867648992
 20
9.3741162798
 10
31.5870751454
 20
9.2275998773
 10
31.5874834217
 20
9.0836706447
 10
31.5879910879
 20
8.9430328702
 10
31.5885967841
 20
8.8063517014
 10
31.5892915413
 20
8.674263283
 10
31.590076358
 20
8.5474244173
 10
31.5909502355
 20
8.4264177891
 10
31.5919012084
 20
8.3117437509
 10
31.5929302336
 20
8.2039617123
 10
31.5940363542
 20
8.1036033044
 10
31.5952047334
 20
8.0111064279
 10
31.5964362692
 20
7.9269415664
 10
31.5977300637
 20
7.8515473481
 10
31.5990685868
 20
7.7852857665
 10
31.6004527468
 20
7.7285168781
 10
31.6018816354
 20
7.6815732429
 10
31.6033349974
 20
7.6447277501
 10
31.6048060811
 20
7.6182121934
 10
31.6063016382
 20
7.602211362
 10
31.6078216688
 20
7.5968571429
  0
LWPOLYLINE
  5
78A
100
AcDbEntity
  8
ASSI
100
AcDbPolyline
 62
253
  6
CONTINUOUS
 90
43
 70
0
 10
31.6033365584
 20
11.849020003
 10
31.6018836807
 20
11.8122003241
 10
31.60045525
 20
11.7652893202
 10
31.59907147
 20
11.7085578782
 10
31.597733236
 20
11.6423370534
 10
31.5964396528
 20
11.5669859292
 10
31.5952082384
 20
11.4828641572
 10
31.5940398816
 20
11.3904087323
 10
31.5929336936
 20
11.2900888831
 10
31.5919045261
 20
11.182340309
 10
31.5909533234
 20
11.0676919933
 10
31.5900791413
 20
10.946703348
 10
31.5892939984
 20
10.8198769994
 10
31.588598901
 20
10.687795273
 10
31.5879928429
 20
10.5511146015
 10
31.5874848243
 20
10.4104743024
 10
31.5870762147
 20
10.2665392653
 10
31.5867656446
 20
10.1200142954
 10
31.5865580063
 20
9.9716239311
 10
31.5864549341
 20
9.8220551851
 10
31.5864547936
 20
9.672066419
 10
31.5865575732
 20
9.5225001857
 10
31.5867648992
 20
9.3741162798
 10
31.5870751454
 20
9.2275998773
 10
31.5874834217
 20
9.0836706447
 10
31.5879910879
 20
8.9430328702
 10
31.5885967841
 20
8.8063517014
 10
31.5892915413
 20
8.674263283
 10
31.590076358
 20
8.5474244173
 10
31.5909502355
 20
8.4264177891
 10
31.5919012084
 20
8.3117437509
 10
31.5929302336
 20
8.2039617123
 10
31.5940363542
 20
8.1036033044
 10
31.5952047334
 20
8.0111064279
 10
31.5964362692
 20
7.9269415664
 10
31.5977300637
 20
7.8515473481
 10
31.5990685868
 20
7.7852857665
 10
31.6004527468
 20
7.7285168781
 10
31.6018816354
 20
7.6815732429
 10
31.6033349974
 20
7.6447277501
 10
31.6048060811
 20
7.6182121934
 10
31.6063016382
 20
7.602211362
 10
31.6078216688
 20
7.5968571429
  0
LWPOLYLINE
  5
78B
100
AcDbEntity
  8
RACCORDO
100
AcDbPolyline
 62
253
  6
CONTINUOUS
 90
43
 70
0
 10
31.6033365584
 20
6.849020003
 10
31.6018836807
 20
6.8122003241
 10
31.60045525
 20
6.7652893202
 10
31.59907147
 20
6.7085578782
 10
31.597733236
 20
6.6423370534
 10
31.5964396528
 20
6.5669859292
 10
31.5952082384
 20
6.4828641572
 10
31.5940398816
 20
6.3904087323
 10
31.5929336936
 20
6.2900888831
 10
31.5919045261
 20
6.182340309
 10
31.5909533234
 20
6.0676919933
 10
31.5900791413
 20
5.946703348
 10
31.5892939984
 20
5.8198769994
 10
31.588598901
 20
5.687795273
 10
31.5879928429
 20
5.5511146015
 10
31.5874848243
 20
5.4104743024
 10
31.5870762147
 20
5.2665392653
 10
31.5867656446
 20
5.1200142954
 10
31.5865580063
 20
4.9716239311
 10
31.5864549341
 20
4.8220551851
 10
31.5864547936
 20
4.672066419
 10
31.5865575732
 20
4.5225001857
 10
31.5867648992
 20
4.3741162798
 10
31.5870751454
 20
4.2275998773
 10
31.5874834217
 20
4.0836706447
 10
31.5879910879
 20
3.9430328702
 10
31.5885967841
 20
3.8063517014
 10
31.5892915413
 20
3.674263283
 10
31.590076358
 20
3.5474244173
 10
31.5909502355
 20
3.4264177891
 10
31.5919012084
 20
3.3117437509
 10
31.5929302336
 20
3.2039617123
 10
31.5940363542
 20
3.1036033044
 10
31.5952047334
 20
3.0111064279
 10
31.5964362692
 20
2.9269415664
 10
31.5977300637
 20
2.8515473481
 10
31.5990685868
 20
2.7852857665
 10
31.6004527468
 20
2.7285168781
 10
31.6018816354
 20
2.6815732429
 10
31.6033349974
 20
2.6447277501
 10
31.6048060811
 20
2.6182121934
 10
31.6063016382
 20
2.602211362
 10
31.6078216688
 20
2.5968571429
  0
LWPOLYLINE
  5
78C
100
AcDbEntity
  8
ASSI
100
AcDbPolyline
 62
253
  6
CONTINUOUS
 90
43
 70
0
 10
31.6033365584
 20
6.849020003
 10
31.6018836807
 20
6.8122003241
 10
31.60045525
 20
6.7652893202
 10
31.59907147
 20
6.7085578782
 10
31.597733236
 20
6.6423370534
 10
31.5964396528
 20
6.5669859292
 10
31.5952082384
 20
6.4828641572
 10
31.5940398816
 20
6.3904087323
 10
31.5929336936
 20
6.2900888831
 10
31.5919045261
 20
6.182340309
 10
31.5909533234
 20
6.0676919933
 10
31.5900791413
 20
5.946703348
 10
31.5892939984
 20
5.8198769994
 10
31.588598901
 20
5.687795273
 10
31.5879928429
 20
5.5511146015
 10
31.5874848243
 20
5.4104743024
 10
31.5870762147
 20
5.2665392653
 10
31.5867656446
 20
5.1200142954
 10
31.5865580063
 20
4.9716239311
 10
31.5864549341
 20
4.8220551851
 10
31.5864547936
 20
4.672066419
 10
31.5865575732
 20
4.5225001857
 10
31.5867648992
 20
4.3741162798
 10
31.5870751454
 20
4.2275998773
 10
31.5874834217
 20
4.0836706447
 10
31.5879910879
 20
3.9430328702
 10
31.5885967841
 20
3.8063517014
 10
31.5892915413
 20
3.674263283
 10
31.590076358
 20
3.5474244173
 10
31.5909502355
 20
3.4264177891
 10
31.5919012084
 20
3.3117437509
 10
31.5929302336
 20
3.2039617123
 10
31.5940363542
 20
3.1036033044
 10
31.5952047334
 20
3.0111064279
 10
31.5964362692
 20
2.9269415664
 10
31.5977300637
 20
2.8515473481
 10
31.5990685868
 20
2.7852857665
 10
31.6004527468
 20
2.7285168781
 10
31.6018816354
 20
2.6815732429
 10
31.6033349974
 20
2.6447277501
 10
31.6048060811
 20
2.6182121934
 10
31.6063016382
 20
2.602211362
 10
31.6078216688
 20
2.5968571429
  0
LWPOLYLINE
  5
78D
100
AcDbEntity
  8
RACCORDO
100
AcDbPolyline
 62
253
  6
CONTINUOUS
 90
43
 70
0
 10
31.6033365584
 20
1.849020003
 10
31.6018836807
 20
1.8122003241
 10
31.60045525
 20
1.7652893202
 10
31.59907147
 20
1.7085578782
 10
31.597733236
 20
1.6423370534
 10
31.5964396528
 20
1.5669859292
 10
31.5952082384
 20
1.4828641572
 10
31.5940398816
 20
1.3904087323
 10
31.5929336936
 20
1.2900888831
 10
31.5919045261
 20
1.182340309
 10
31.5909533234
 20
1.0676919933
 10
31.5900791413
 20
0.946703348
 10
31.5892939984
 20
0.8198769994
 10
31.588598901
 20
0.687795273
 10
31.5879928429
 20
0.5511146015
 10
31.5874848243
 20
0.4104743024
 10
31.5870762147
 20
0.2665392653
 10
31.5867656446
 20
0.1200142954
 10
31.5865580063
 20
-0.0283760689
 10
31.5864549341
 20
-0.1779448149
 10
31.5864547936
 20
-0.327933581
 10
31.5865575732
 20
-0.4774998143
 10
31.5867648992
 20
-0.6258837202
 10
31.5870751454
 20
-0.7724001227
 10
31.5874834217
 20
-0.9163293553
 10
31.5879910879
 20
-1.0569671298
 10
31.5885967841
 20
-1.1936482986
 10
31.5892915413
 20
-1.325736717
 10
31.590076358
 20
-1.4525755827
 10
31.5909502355
 20
-1.5735822109
 10
31.5919012084
 20
-1.6882562491
 10
31.5929302336
 20
-1.7960382877
 10
31.5940363542
 20
-1.8963966956
 10
31.5952047334
 20
-1.9888935721
 10
31.5964362692
 20
-2.0730584336
 10
31.5977300637
 20
-2.1484526519
 10
31.5990685868
 20
-2.2147142335
 10
31.6004527468
 20
-2.2714831219
 10
31.6018816354
 20
-2.3184267571
 10
31.6033349974
 20
-2.3552722499
 10
31.6048060811
 20
-2.3817878066
 10
31.6063016382
 20
-2.397788638
 10
31.6078216688
 20
-2.4031428571
  0
LWPOLYLINE
  5
78E
100
AcDbEntity
  8
ASSI
100
AcDbPolyline
 62
253
  6
CONTINUOUS
 90
43
 70
0
 10
31.6033365584
 20
1.849020003
 10
31.6018836807
 20
1.8122003241
 10
31.60045525
 20
1.7652893202
 10
31.59907147
 20
1.7085578782
 10
31.597733236
 20
1.6423370534
 10
31.5964396528
 20
1.5669859292
 10
31.5952082384
 20
1.4828641572
 10
31.5940398816
 20
1.3904087323
 10
31.5929336936
 20
1.2900888831
 10
31.5919045261
 20
1.182340309
 10
31.5909533234
 20
1.0676919933
 10
31.5900791413
 20
0.946703348
 10
31.5892939984
 20
0.8198769994
 10
31.588598901
 20
0.687795273
 10
31.5879928429
 20
0.5511146015
 10
31.5874848243
 20
0.4104743024
 10
31.5870762147
 20
0.2665392653
 10
31.5867656446
 20
0.1200142954
 10
31.5865580063
 20
-0.0283760689
 10
31.5864549341
 20
-0.1779448149
 10
31.5864547936
 20
-0.327933581
 10
31.5865575732
 20
-0.4774998143
 10
31.5867648992
 20
-0.6258837202
 10
31.5870751454
 20
-0.7724001227
 10
31.5874834217
 20
-0.9163293553
 10
31.5879910879
 20
-1.0569671298
 10
31.5885967841
 20
-1.1936482986
 10
31.5892915413
 20
-1.325736717
 10
31.590076358
 20
-1.4525755827
 10
31.5909502355
 20
-1.5735822109
 10
31.5919012084
 20
-1.6882562491
 10
31.5929302336
 20
-1.7960382877
 10
31.5940363542
 20
-1.8963966956
 10
31.5952047334
 20
-1.9888935721
 10
31.5964362692
 20
-2.0730584336
 10
31.5977300637
 20
-2.1484526519
 10
31.5990685868
 20
-2.2147142335
 10
31.6004527468
 20
-2.2714831219
 10
31.6018816354
 20
-2.3184267571
 10
31.6033349974
 20
-2.3552722499
 10
31.6048060811
 20
-2.3817878066
 10
31.6063016382
 20
-2.397788638
 10
31.6078216688
 20
-2.4031428571
  0
LINE
  5
78F
100
AcDbEntity
  8
CURVE
100
AcDbLine
 62
7
  6
CONTINUOUS
 10
32.035658092
 20
2.2472535188
 11
32.0345743483
 21
2.2196879648
  0
LINE
  5
790
100
AcDbEntity
  8
CURVE
100
AcDbLine
 62
7
  6
CONTINUOUS
 10
32.0599299026
 20
-0.2665780768
 11
32.0610136528
 21
-0.239013709
  0
LINE
  5
791
100
AcDbEntity
  8
CURVE
100
AcDbLine
 62
7
  6
CONTINUOUS
 10
32.0407886745
 20
19.7844991301
 11
32.0417189766
 21
19.8085523045
  0
LINE
  5
792
100
AcDbEntity
  8
CURVE
100
AcDbLine
 62
7
  6
CONTINUOUS
 10
32.0381280557
 20
1.753620238
 11
32.0388862285
 21
1.7716543397
  0
LINE
  5
793
100
AcDbEntity
  8
CURVE
100
AcDbLine
 62
7
  6
CONTINUOUS
 10
32.0574503399
 20
0.227052889
 11
32.0566921457
 21
0.2090192754
  0
LINE
  5
794
100
AcDbEntity
  8
CURVE
100
AcDbLine
 62
7
  6
CONTINUOUS
 10
32.0383303735
 20
20.351908107
 11
32.0379661281
 21
20.3433691784
  0
LWPOLYLINE
  5
795
100
AcDbEntity
  8
CURVE
100
AcDbPolyline
 62
7
  6
CONTINUOUS
 90
13
 70
0
 10
32.061069701
 20
20.2412698373
 10
32.0606988852
 20
20.2327073605
 10
32.0605105367
 20
20.2289109527
 10
32.060320535
 20
20.2254425381
 10
32.0601291105
 20
20.2223056967
 10
32.0599364937
 20
20.2195040082
 10
32.0597429149
 20
20.2170410523
 10
32.0595486047
 20
20.2149204089
 10
32.0593537933
 20
20.2131456575
 10
32.0591587114
 20
20.2117203781
 10
32.0589635892
 20
20.2106481504
 10
32.0587686573
 20
20.2099325541
 10
32.058574146
 20
20.209577169
  0
LINE
  5
796
100
AcDbEntity
  8
CURVE
100
AcDbLine
 62
7
  6
CONTINUOUS
 10
32.0401615582
 20
19.770327885
 11
32.0407886745
 21
19.7844991301
  0
LINE
  5
797
100
AcDbEntity
  8
CURVE
100
AcDbLine
 62
7
  6
CONTINUOUS
 10
32.0367644556
 20
2.2722741549
 11
32.035658092
 21
2.2472535188
  0
LINE
  5
798
100
AcDbEntity
  8
CURVE
100
AcDbLine
 62
7
  6
CONTINUOUS
 10
32.058823534
 20
-0.2915975847
 11
32.0599299026
 21
-0.2665780768
  0
LINE
  5
799
100
AcDbEntity
  8
CURVE
100
AcDbLine
 62
7
  6
CONTINUOUS
 10
32.0226230964
 20
25.7869621429
 11
32.0556627815
 21
26.4970191429
  0
LINE
  5
79A
100
AcDbEntity
  8
CURVE
100
AcDbLine
 62
7
  6
CONTINUOUS
 10
32.0732213115
 20
26.3400911429
 11
32.0451290315
 21
25.7412121429
  0
LINE
  5
79B
100
AcDbEntity
  8
CURVE
100
AcDbLine
 62
7
  6
CONTINUOUS
 10
32.0388862285
 20
1.7716543397
 11
32.0396582297
 21
1.7879572829
  0
LINE
  5
79C
100
AcDbEntity
  8
CURVE
100
AcDbLine
 62
7
  6
CONTINUOUS
 10
32.0566921457
 20
0.2090192754
 11
32.0559201212
 21
0.1927170116
  0
LINE
  5
79D
100
AcDbEntity
  8
CURVE
100
AcDbLine
 62
7
  6
CONTINUOUS
 10
32.0379661281
 20
20.3433691784
 11
32.0365951807
 21
20.315232374
  0
LINE
  5
79E
100
AcDbEntity
  8
CURVE
100
AcDbLine
 62
7
  6
CONTINUOUS
 10
32.0395296
 20
19.7573891178
 11
32.0401615582
 21
19.770327885
  0
LINE
  5
79F
100
AcDbEntity
  8
CURVE
100
AcDbLine
 62
7
  6
CONTINUOUS
 10
32.0378902534
 20
2.2947576707
 11
32.0367644556
 21
2.2722741549
  0
LINE
  5
7A0
100
AcDbEntity
  8
CURVE
100
AcDbLine
 62
7
  6
CONTINUOUS
 10
32.0576977326
 20
-0.3140800403
 11
32.058823534
 21
-0.2915975847
  0
LINE
  5
7A1
100
AcDbEntity
  8
CURVE
100
AcDbLine
 62
7
  6
CONTINUOUS
 10
32.0396582297
 20
1.7879572829
 11
32.0404416247
 21
1.802564609
  0
LINE
  5
7A2
100
AcDbEntity
  8
CURVE
100
AcDbLine
 62
7
  6
CONTINUOUS
 10
32.0559201212
 20
0.1927170116
 11
32.0551367019
 21
0.178110516
  0
LINE
  5
7A3
100
AcDbEntity
  8
CURVE
100
AcDbLine
 62
7
  6
CONTINUOUS
 10
32.0365951807
 20
20.315232374
 11
32.0345161767
 21
20.2767739452
  0
LINE
  5
7A4
100
AcDbEntity
  8
CURVE
100
AcDbLine
 62
7
  6
CONTINUOUS
 10
32.0385738779
 20
19.7398064526
 11
32.0395296
 21
19.7573891178
  0
LINE
  5
7A5
100
AcDbEntity
  8
CURVE
100
AcDbLine
 62
7
  6
CONTINUOUS
 10
32.0732213115
 20
22.6758471429
 11
32.0226230964
 21
21.7861611429
  0
LINE
  5
7A6
100
AcDbEntity
  8
CURVE
100
AcDbLine
 62
253
  6
CONTINUOUS
 10
31.9985603975
 20
23.0397145514
 11
31.9823545912
 21
22.7611429457
  0
LWPOLYLINE
  5
7A7
100
AcDbEntity
  8
CURVE
100
AcDbPolyline
 62
7
  6
CONTINUOUS
 90
3
 70
0
 10
32.0345161767
 20
20.2767739452
 10
32.0310182879
 20
20.2182494504
 10
32.0226230902
 20
20.0786988812
  0
LINE
  5
7A8
100
AcDbEntity
  8
CURVE
100
AcDbLine
 62
253
  6
CONTINUOUS
 10
32.0050427195
 20
13.8730476413
 11
31.9823545912
 21
13.501619092
  0
LINE
  5
7A9
100
AcDbEntity
  8
CURVE
100
AcDbLine
 62
7
  6
CONTINUOUS
 10
32.0372881554
 20
19.718605487
 11
32.0385738779
 21
19.7398064526
  0
LWPOLYLINE
  5
7AA
100
AcDbEntity
  8
CURVE
100
AcDbPolyline
 62
7
  6
CONTINUOUS
 90
16
 70
0
 10
32.0404416247
 20
1.802564609
 10
32.0412339788
 20
1.8155118593
 10
32.0416327547
 20
1.8213740628
 10
32.0420328573
 20
1.8268345753
 10
32.0424339824
 20
1.8318978397
 10
32.0428358256
 20
1.8365682985
 10
32.0432380826
 20
1.8408503943
 10
32.043640449
 20
1.84474857
 10
32.0440426206
 20
1.8482672682
 10
32.0445783077
 20
1.8523768985
 10
32.0451133801
 20
1.8558287876
 10
32.045648111
 20
1.8586322262
 10
32.0461827735
 20
1.8607965054
 10
32.0467176407
 20
1.862330916
 10
32.0472529859
 20
1.8632447491
 10
32.0477890822
 20
1.8635472954
  0
LWPOLYLINE
  5
7AB
100
AcDbEntity
  8
CURVE
100
AcDbPolyline
 62
7
  6
CONTINUOUS
 90
16
 70
0
 10
32.0551367019
 20
0.178110516
 10
32.0543443232
 20
0.1651642074
 10
32.0539455352
 20
0.159302504
 10
32.0535454206
 20
0.1538425044
 10
32.053144284
 20
0.1487797607
 10
32.0527424297
 20
0.1441098255
 10
32.0523401621
 20
0.1398282509
 10
32.0519377857
 20
0.1359305894
 10
32.051535605
 20
0.1324123933
 10
32.0509999069
 20
0.1283034043
 10
32.0504648248
 20
0.1248521077
 10
32.0499300851
 20
0.1220491946
 10
32.0493954145
 20
0.1198853557
 10
32.0488605395
 20
0.118351282
 10
32.0483251865
 20
0.1174376645
 10
32.0477890822
 20
0.117135194
  0
LINE
  5
7AC
100
AcDbEntity
  8
CURVE
100
AcDbLine
 62
253
  6
CONTINUOUS
 10
32.0643809014
 20
14.3354285083
 11
32.041692773
 21
13.9825713865
  0
LINE
  5
7AD
100
AcDbEntity
  8
CURVE
100
AcDbLine
 62
7
  6
CONTINUOUS
 10
32.0226230964
 20
22.4240921429
 11
32.032724302
 21
22.5808901429
  0
LINE
  5
7AE
100
AcDbEntity
  8
CURVE
100
AcDbLine
 62
7
  6
CONTINUOUS
 10
32.0311843555
 20
19.6253906184
 11
32.0372881554
 21
19.718605487
  0
LWPOLYLINE
  5
7AF
100
AcDbEntity
  8
CURVE
100
AcDbPolyline
 62
7
  6
CONTINUOUS
 90
3
 70
0
 10
32.0226230902
 20
19.4964981577
 10
32.0277573038
 20
19.5743785717
 10
32.0311843555
 20
19.6253906184
  0
LINE
  5
7B0
100
AcDbEntity
  8
CURVE
100
AcDbLine
 62
7
  6
CONTINUOUS
 10
32.0405405678
 20
22.7018531429
 11
32.0593182071
 21
22.9799831429
  0
LWPOLYLINE
  5
7B1
100
AcDbEntity
  8
RACCORDO
100
AcDbPolyline
 62
253
  6
CONTINUOUS
 90
4
 70
0
 10
31.6078216688
 20
11.8968571429
 10
31.6063021851
 20
11.8915066967
 10
31.6048071483
 20
11.8755170876
 10
31.6033365584
 20
11.849020003
  0
LWPOLYLINE
  5
7B2
100
AcDbEntity
  8
ASSI
100
AcDbPolyline
 62
253
  6
CONTINUOUS
 90
4
 70
0
 10
31.6078216688
 20
11.8968571429
 10
31.6063021851
 20
11.8915066967
 10
31.6048071483
 20
11.8755170876
 10
31.6033365584
 20
11.849020003
  0
LWPOLYLINE
  5
7B3
100
AcDbEntity
  8
RACCORDO
100
AcDbPolyline
 62
253
  6
CONTINUOUS
 90
4
 70
0
 10
31.6078216688
 20
6.8968571429
 10
31.6063021851
 20
6.8915066967
 10
31.6048071483
 20
6.8755170876
 10
31.6033365584
 20
6.849020003
  0
LWPOLYLINE
  5
7B4
100
AcDbEntity
  8
ASSI
100
AcDbPolyline
 62
253
  6
CONTINUOUS
 90
4
 70
0
 10
31.6078216688
 20
6.8968571429
 10
31.6063021851
 20
6.8915066967
 10
31.6048071483
 20
6.8755170876
 10
31.6033365584
 20
6.849020003
  0
LINE
  5
7B5
100
AcDbEntity
  8
0
100
AcDbLine
 62
7
  6
CONTINUOUS
 10
16.6120420867
 20
-10.1188989551
 11
16.6313647472
 21
-10.0973975883
  0
LINE
  5
7B6
100
AcDbEntity
  8
0
100
AcDbLine
 62
7
  6
CONTINUOUS
 10
16.6313647472
 20
-10.0973975883
 11
16.653513235
 21
-10.0730743284
  0
LINE
  5
7B7
100
AcDbEntity
  8
0
100
AcDbLine
 62
7
  6
CONTINUOUS
 10
16.653513235
 20
-10.0730743284
 11
16.6785891856
 21
-10.0458208736
  0
LINE
  5
7B8
100
AcDbEntity
  8
0
100
AcDbLine
 62
7
  6
CONTINUOUS
 10
16.6785891856
 20
-10.0458208736
 11
16.7066425776
 21
-10.0155992248
  0
LINE
  5
7B9
100
AcDbEntity
  8
0
100
AcDbLine
 62
7
  6
CONTINUOUS
 10
16.7066425776
 20
-10.0155992248
 11
16.7376733912
 21
-9.9823807771
  0
LINE
  5
7BA
100
AcDbEntity
  8
0
100
AcDbLine
 62
7
  6
CONTINUOUS
 10
16.7376733912
 20
-9.9823807771
 11
16.7895230169
 21
-9.9272495899
  0
LINE
  5
7BB
100
AcDbEntity
  8
0
100
AcDbLine
 62
7
  6
CONTINUOUS
 10
16.7895230169
 20
-9.9272495899
 11
16.8273077331
 21
-9.88729054
  0
LINE
  5
7BC
100
AcDbEntity
  8
0
100
AcDbLine
 62
7
  6
CONTINUOUS
 10
16.8273077331
 20
-9.88729054
 11
16.9092087557
 21
-9.8009550955
  0
LINE
  5
7BD
100
AcDbEntity
  8
0
100
AcDbLine
 62
7
  6
CONTINUOUS
 10
16.9092087557
 20
-9.8009550955
 11
16.9962430044
 21
-9.7095006718
  0
LINE
  5
7BE
100
AcDbEntity
  8
0
100
AcDbLine
 62
7
  6
CONTINUOUS
 10
16.4992857143
 20
-8.6531428571
 11
16.5432079613
 21
-8.6092206101
  0
LINE
  5
7BF
100
AcDbEntity
  8
0
100
AcDbLine
 62
7
  6
CONTINUOUS
 10
16.5429363612
 20
-10.2094922103
 11
16.4992857143
 21
-10.2531428571
  0
LWPOLYLINE
  5
7C0
100
AcDbEntity
  8
0
100
AcDbPolyline
 62
253
  6
CONTINUOUS
 90
4
 70
0
 10
19.0559635236
 20
-3.597957028
 10
19.0990090576
 20
-3.570906897
 10
19.1465337777
 20
-3.5510444009
 10
19.197143249
 20
-3.5388987831
  0
LWPOLYLINE
  5
7C1
100
AcDbEntity
  8
RACCORDO
100
AcDbPolyline
 62
253
  6
CONTINUOUS
 90
4
 70
0
 10
19.0559635236
 20
-3.597957028
 10
19.0990090576
 20
-3.570906897
 10
19.1465337777
 20
-3.5510444009
 10
19.197143249
 20
-3.5388987831
  0
LWPOLYLINE
  5
7C2
100
AcDbEntity
  8
CURVE
100
AcDbPolyline
 62
7
  6
CONTINUOUS
 90
17
 70
0
 10
32.0477939915
 20
2.3845332218
 10
32.0472139661
 20
2.3842251789
 10
32.046631631
 20
2.3833004006
 10
32.0460473847
 20
2.381757912
 10
32.0454616252
 20
2.3795967386
 10
32.0448747509
 20
2.3768159055
 10
32.0442871599
 20
2.3734144382
 10
32.0436992505
 20
2.3693913619
 10
32.0431114209
 20
2.3647457019
 10
32.0425240693
 20
2.3594764835
 10
32.041937594
 20
2.353582732
 10
32.0413523932
 20
2.3470634727
 10
32.0407688651
 20
2.339917731
 10
32.040187408
 20
2.3321445321
 10
32.03960842
 20
2.3237429013
 10
32.0390322994
 20
2.3147118639
 10
32.0378902534
 20
2.2947576707
  0
LINE
  5
7C3
100
AcDbEntity
  8
CURVE
100
AcDbLine
 62
253
  6
CONTINUOUS
 10
32.0018015585
 20
30.0968571429
 11
31.9953192365
 21
30.0968571429
  0
LINE
  5
7C4
100
AcDbEntity
  8
0
100
AcDbLine
 62
7
  6
CONTINUOUS
 10
23.4492857143
 20
30.3468571429
 11
18.4492857143
 21
30.3468571429
  0
LINE
  5
7C5
100
AcDbEntity
  8
ASSI
100
AcDbLine
 62
7
  6
CONTINUOUS
 10
23.4492857143
 20
30.3468571429
 11
18.4492857143
 21
30.3468571429
  0
LINE
  5
7C6
100
AcDbEntity
  8
CURVE
100
AcDbLine
 62
253
  6
CONTINUOUS
 10
31.9823545912
 20
30.7468571429
 11
32.0050427195
 21
30.7468571429
  0
LINE
  5
7C7
100
AcDbEntity
  8
0
100
AcDbLine
 62
7
  6
CONTINUOUS
 10
18.4492857143
 20
30.7968571429
 11
23.4492857143
 21
30.7968571429
  0
LINE
  5
7C8
100
AcDbEntity
  8
0
100
AcDbLine
 62
7
  6
CONTINUOUS
 10
22.6492857143
 20
30.9968571429
 11
19.2492857143
 21
30.9968571429
  0
LINE
  5
7C9
100
AcDbEntity
  8
RACCORDO
100
AcDbLine
 62
7
  6
CONTINUOUS
 10
22.6492857143
 20
30.9968571429
 11
19.2492857143
 21
30.9968571429
  0
LINE
  5
7CA
100
AcDbEntity
  8
0
100
AcDbLine
 62
253
  6
CONTINUOUS
 10
22.6492857143
 20
31.0285289856
 11
19.2492857143
 21
31.0285289856
  0
LINE
  5
7CB
100
AcDbEntity
  8
RACCORDO
100
AcDbLine
 62
253
  6
CONTINUOUS
 10
22.6492857143
 20
31.0285289856
 11
19.2492857143
 21
31.0285289856
  0
LINE
  5
7CC
100
AcDbEntity
  8
RACCORDO
100
AcDbLine
 62
7
  6
CONTINUOUS
 10
19.2667078271
 20
31.0468571429
 11
22.6318636015
 21
31.0468571429
  0
LINE
  5
7CD
100
AcDbEntity
  8
ASSI
100
AcDbLine
 62
7
  6
CONTINUOUS
 10
19.2667078271
 20
31.0468571429
 11
22.6318636015
 21
31.0468571429
  0
LINE
  5
7CE
100
AcDbEntity
  8
ASSI
100
AcDbLine
 62
7
  6
CONTINUOUS
 10
23.4492857143
 20
31.2468571429
 11
18.4492857143
 21
31.2468571429
  0
LINE
  5
7CF
100
AcDbEntity
  8
0
100
AcDbLine
 62
253
  6
CONTINUOUS
 10
19.2492857143
 20
31.0285289856
 11
19.197191261
 21
31.0326054932
  0
LINE
  5
7D0
100
AcDbEntity
  8
RACCORDO
100
AcDbLine
 62
253
  6
CONTINUOUS
 10
19.2492857143
 20
31.0285289856
 11
19.197191261
 21
31.0326054932
  0
LINE
  5
7D1
100
AcDbEntity
  8
0
100
AcDbLine
 62
253
  6
CONTINUOUS
 10
19.197191261
 20
31.0326054932
 11
19.1466796713
 21
31.0447111535
  0
LINE
  5
7D2
100
AcDbEntity
  8
RACCORDO
100
AcDbLine
 62
253
  6
CONTINUOUS
 10
19.197191261
 20
31.0326054932
 11
19.1466796713
 21
31.0447111535
  0
LWPOLYLINE
  5
7D3
100
AcDbEntity
  8
0
100
AcDbPolyline
 62
253
  6
CONTINUOUS
 90
3
 70
0
 10
19.1466796713
 20
31.0447111535
 10
19.0992857143
 20
31.0644781421
 10
19.0564494314
 20
31.091305849
  0
LWPOLYLINE
  5
7D4
100
AcDbEntity
  8
RACCORDO
100
AcDbPolyline
 62
253
  6
CONTINUOUS
 90
3
 70
0
 10
19.1466796713
 20
31.0447111535
 10
19.0992857143
 20
31.0644781421
 10
19.0564494314
 20
31.091305849
  0
LINE
  5
7D5
100
AcDbEntity
  8
0
100
AcDbLine
 62
7
  6
CONTINUOUS
 10
16.4992857143
 20
36.1468571429
 11
16.5432079613
 21
36.1029348958
  0
LINE
  5
7D6
100
AcDbEntity
  8
0
100
AcDbLine
 62
7
  6
CONTINUOUS
 10
16.4992857143
 20
37.7468571429
 11
16.5429363612
 21
37.703206496
  0
LINE
  5
7D7
100
AcDbEntity
  8
0
100
AcDbLine
 62
7
  6
CONTINUOUS
 10
16.974190839
 20
37.2264613035
 11
16.9091699574
 21
37.2947104232
  0
LINE
  5
7D8
100
AcDbEntity
  8
0
100
AcDbLine
 62
7
  6
CONTINUOUS
 10
16.9962430044
 20
37.2032149576
 11
16.974190839
 21
37.2264613035
  0
LINE
  5
7D9
100
AcDbEntity
  8
0
100
AcDbLine
 62
7
  6
CONTINUOUS
 10
16.9091699574
 20
37.2947104232
 11
16.8272632918
 21
37.3810518461
  0
LINE
  5
7DA
100
AcDbEntity
  8
0
100
AcDbLine
 62
7
  6
CONTINUOUS
 10
16.8272632918
 20
37.3810518461
 11
16.7714575262
 21
37.4401425896
  0
LINE
  5
7DB
100
AcDbEntity
  8
0
100
AcDbLine
 62
7
  6
CONTINUOUS
 10
16.7714575262
 20
37.4401425896
 11
16.7216695619
 21
37.4932028121
  0
LINE
  5
7DC
100
AcDbEntity
  8
0
100
AcDbLine
 62
7
  6
CONTINUOUS
 10
16.7216695619
 20
37.4932028121
 11
16.6921256491
 21
37.5249225099
  0
LINE
  5
7DD
100
AcDbEntity
  8
0
100
AcDbLine
 62
7
  6
CONTINUOUS
 10
16.6921256491
 20
37.5249225099
 11
16.6655653556
 21
37.5536601256
  0
LINE
  5
7DE
100
AcDbEntity
  8
0
100
AcDbLine
 62
7
  6
CONTINUOUS
 10
16.6655653556
 20
37.5536601256
 11
16.6419747754
 21
37.5794190765
  0
LWPOLYLINE
  5
7DF
100
AcDbEntity
  8
0
100
AcDbPolyline
 62
7
  6
CONTINUOUS
 90
19
 70
0
 10
16.6419747754
 20
37.5794190765
 10
16.6212485862
 20
37.6023332648
 10
16.6119311758
 20
37.6127374352
 10
16.6032839821
 20
37.6224886155
 10
16.5953001368
 20
37.6315813142
 10
16.5879607325
 20
37.6400210228
 10
16.5812296564
 20
37.6478720853
 10
16.5750997853
 20
37.6551355838
 10
16.5695558874
 20
37.6618104361
 10
16.5645612255
 20
37.6679577391
 10
16.5601073982
 20
37.6735872603
 10
16.5561922338
 20
37.6786892322
 10
16.552799565
 20
37.6832954489
 10
16.5499248185
 20
37.6874104367
 10
16.5475667511
 20
37.6910296693
 10
16.5457194237
 20
37.694171362
 10
16.5443793378
 20
37.6968415866
 10
16.5435435954
 20
37.6990342712
 10
16.5432079613
 20
37.7007494159
  0
LWPOLYLINE
  5
7E0
100
AcDbEntity
  8
RACCORDO
100
AcDbPolyline
 62
253
  6
CONTINUOUS
 90
4
 70
0
 10
31.6078216688
 20
1.8968571429
 10
31.6063021851
 20
1.8915066967
 10
31.6048071483
 20
1.8755170876
 10
31.6033365584
 20
1.849020003
  0
LWPOLYLINE
  5
7E1
100
AcDbEntity
  8
ASSI
100
AcDbPolyline
 62
253
  6
CONTINUOUS
 90
4
 70
0
 10
31.6078216688
 20
1.8968571429
 10
31.6063021851
 20
1.8915066967
 10
31.6048071483
 20
1.8755170876
 10
31.6033365584
 20
1.849020003
  0
LWPOLYLINE
  5
7E2
100
AcDbEntity
  8
0
100
AcDbPolyline
 62
7
  6
CONTINUOUS
 90
13
 70
0
 10
22.4508099491
 20
33.6313438225
 10
22.5736821757
 20
33.6314859593
 10
22.6915540038
 20
33.6318664334
 10
22.8044254336
 20
33.6324852447
 10
22.9137812161
 20
33.6333572093
 10
23.0181366002
 20
33.6344675111
 10
23.1130373326
 20
33.6357717019
 10
23.1981054169
 20
33.637281724
 10
23.2737188494
 20
33.638985635
 10
23.3365573654
 20
33.6408031599
 10
23.38551421
 20
33.6427075403
 10
23.4216961382
 20
33.6447255346
 10
23.4451031498
 20
33.6468571429
  0
LINE
  5
7E3
100
AcDbEntity
  8
ASSI
100
AcDbLine
 62
7
  6
CONTINUOUS
 10
23.4492857143
 20
31.9468571429
 11
18.4492857143
 21
31.9468571429
  0
LINE
  5
7E4
100
AcDbEntity
  8
RACCORDO
100
AcDbLine
 62
7
  6
CONTINUOUS
 10
30.3405101044
 20
31.9599474445
 11
24.962376016
 21
31.9599474445
  0
LINE
  5
7E5
100
AcDbEntity
  8
ASSI
100
AcDbLine
 62
7
  6
CONTINUOUS
 10
30.3405101044
 20
31.9599474445
 11
24.962376016
 21
31.9599474445
  0
LINE
  5
7E6
100
AcDbEntity
  8
0
100
AcDbLine
 62
7
  6
CONTINUOUS
 10
18.4492857143
 20
32.0468571429
 11
23.4492857143
 21
32.0468571429
  0
LINE
  5
7E7
100
AcDbEntity
  8
ASSI
100
AcDbLine
 62
7
  6
CONTINUOUS
 10
18.4492857143
 20
32.0468571429
 11
23.4492857143
 21
32.0468571429
  0
LINE
  5
7E8
100
AcDbEntity
  8
ASSI
100
AcDbLine
 62
7
  6
CONTINUOUS
 10
24.962376016
 20
32.3468571429
 11
30.1492857143
 21
32.3468571429
  0
LINE
  5
7E9
100
AcDbEntity
  8
RACCORDO
100
AcDbLine
 62
7
  6
CONTINUOUS
 10
24.6623874391
 20
33.3599474445
 11
11.5580613242
 21
33.3599474445
  0
LINE
  5
7EA
100
AcDbEntity
  8
ASSI
100
AcDbLine
 62
7
  6
CONTINUOUS
 10
24.6623874391
 20
33.3599474445
 11
11.5580613242
 21
33.3599474445
  0
LINE
  5
7EB
100
AcDbEntity
  8
0
100
AcDbLine
 62
7
  6
CONTINUOUS
 10
28.3859413506
 20
33.4102015065
 11
24.4126300779
 21
33.4102015065
  0
LINE
  5
7EC
100
AcDbEntity
  8
DRAFT
100
AcDbLine
 62
7
  6
CONTINUOUS
 10
28.3859413506
 20
33.4102015065
 11
24.4126300779
 21
33.4102015065
  0
LINE
  5
7ED
100
AcDbEntity
  8
0
100
AcDbLine
 62
7
  6
CONTINUOUS
 10
17.4859413506
 20
33.4102015065
 11
13.5126300779
 21
33.4102015065
  0
LINE
  5
7EE
100
AcDbEntity
  8
DRAFT
100
AcDbLine
 62
7
  6
CONTINUOUS
 10
17.4859413506
 20
33.4102015065
 11
13.5126300779
 21
33.4102015065
  0
LINE
  5
7EF
100
AcDbEntity
  8
0
100
AcDbLine
 62
7
  6
CONTINUOUS
 10
28.3492857143
 20
33.4468571429
 11
24.4492857143
 21
33.4468571429
  0
LINE
  5
7F0
100
AcDbEntity
  8
DRAFT
100
AcDbLine
 62
7
  6
CONTINUOUS
 10
28.3492857143
 20
33.4468571429
 11
24.4492857143
 21
33.4468571429
  0
LINE
  5
7F1
100
AcDbEntity
  8
0
100
AcDbLine
 62
7
  6
CONTINUOUS
 10
17.4492857143
 20
33.4468571429
 11
13.5492857143
 21
33.4468571429
  0
LINE
  5
7F2
100
AcDbEntity
  8
DRAFT
100
AcDbLine
 62
7
  6
CONTINUOUS
 10
17.4492857143
 20
33.4468571429
 11
13.5492857143
 21
33.4468571429
  0
LINE
  5
7F3
100
AcDbEntity
  8
DRAFT
100
AcDbLine
 62
7
  6
CONTINUOUS
 10
28.2449222804
 20
33.4512205768
 11
27.4536491482
 21
33.4512205768
  0
LINE
  5
7F4
100
AcDbEntity
  8
DRAFT
100
AcDbLine
 62
7
  6
CONTINUOUS
 10
14.4449222804
 20
33.4512205768
 11
13.6536491482
 21
33.4512205768
  0
LINE
  5
7F5
100
AcDbEntity
  8
DRAFT
100
AcDbLine
 62
7
  6
CONTINUOUS
 10
28.1445633008
 20
33.5515795563
 11
27.5540081278
 21
33.5515795563
  0
LINE
  5
7F6
100
AcDbEntity
  8
DRAFT
100
AcDbLine
 62
7
  6
CONTINUOUS
 10
14.3445633008
 20
33.5515795563
 11
13.7540081278
 21
33.5515795563
  0
LINE
  5
7F7
100
AcDbEntity
  8
0
100
AcDbLine
 62
7
  6
CONTINUOUS
 10
17.4859413506
 20
33.6102015065
 11
24.4126300779
 21
33.6102015065
  0
LINE
  5
7F8
100
AcDbEntity
  8
DRAFT
100
AcDbLine
 62
7
  6
CONTINUOUS
 10
17.4859413506
 20
33.6102015065
 11
24.4126300779
 21
33.6102015065
  0
LINE
  5
7F9
100
AcDbEntity
  8
0
100
AcDbLine
 62
7
  6
CONTINUOUS
 10
19.4477614794
 20
33.6313438225
 11
22.4508099491
 21
33.6313438225
  0
LINE
  5
7FA
100
AcDbEntity
  8
0
100
AcDbLine
 62
7
  6
CONTINUOUS
 10
17.4492857143
 20
33.6468571429
 11
18.4548074341
 21
33.6468571429
  0
LINE
  5
7FB
100
AcDbEntity
  8
0
100
AcDbLine
 62
7
  6
CONTINUOUS
 10
23.4437639945
 20
33.6468571429
 11
24.4492857143
 21
33.6468571429
  0
LINE
  5
7FC
100
AcDbEntity
  8
DRAFT
100
AcDbLine
 62
7
  6
CONTINUOUS
 10
28.3492857143
 20
33.7468571429
 11
28.2449222804
 21
33.7468571429
  0
LINE
  5
7FD
100
AcDbEntity
  8
DRAFT
100
AcDbLine
 62
7
  6
CONTINUOUS
 10
13.6536491482
 20
33.7468571429
 11
13.5492857143
 21
33.7468571429
  0
LINE
  5
7FE
100
AcDbEntity
  8
DRAFT
100
AcDbLine
 62
7
  6
CONTINUOUS
 10
27.4536491482
 20
33.7512205768
 11
23.448645784
 21
33.7512205768
  0
LINE
  5
7FF
100
AcDbEntity
  8
DRAFT
100
AcDbLine
 62
7
  6
CONTINUOUS
 10
18.4499256446
 20
33.7512205768
 11
14.4449222804
 21
33.7512205768
  0
LINE
  5
800
100
AcDbEntity
  8
DRAFT
100
AcDbLine
 62
7
  6
CONTINUOUS
 10
24.4494391489
 20
33.7644390084
 11
23.4486696813
 21
33.7644390084
  0
LINE
  5
801
100
AcDbEntity
  8
DRAFT
100
AcDbLine
 62
7
  6
CONTINUOUS
 10
18.4499017473
 20
33.7644390084
 11
17.4491322797
 21
33.7644390084
  0
LINE
  5
802
100
AcDbEntity
  8
DRAFT
100
AcDbLine
 62
7
  6
CONTINUOUS
 10
18.4492857143
 20
33.8175501558
 11
18.5080251324
 21
33.8175501558
  0
LINE
  5
803
100
AcDbEntity
  8
DRAFT
100
AcDbLine
 62
7
  6
CONTINUOUS
 10
23.3905462962
 20
33.8175501558
 11
23.4492857143
 21
33.8175501558
  0
LWPOLYLINE
  5
804
100
AcDbEntity
  8
0
100
AcDbPolyline
 62
7
  6
CONTINUOUS
 90
13
 70
0
 10
19.4477614794
 20
33.6313438225
 10
19.3248892529
 20
33.6314859593
 10
19.2070174247
 20
33.6318664334
 10
19.094145995
 20
33.6324852447
 10
18.9847902125
 20
33.6333572093
 10
18.8804348284
 20
33.6344675111
 10
18.785534096
 20
33.6357717019
 10
18.7004660117
 20
33.637281724
 10
18.6248525792
 20
33.638985635
 10
18.5620140631
 20
33.6408031599
 10
18.5130572185
 20
33.6427075403
 10
18.4768752904
 20
33.6447255346
 10
18.4534682788
 20
33.6468571429
  0
LINE
  5
805
100
AcDbEntity
  8
CURVE
100
AcDbLine
 62
7
  6
CONTINUOUS
 10
32.0556627815
 20
26.4970191429
 11
32.0226230964
 21
26.6276361429
  0
LINE
  5
806
100
AcDbEntity
  8
CURVE
100
AcDbLine
 62
7
  6
CONTINUOUS
 10
32.0226230964
 20
27.2066841429
 11
32.0732213115
 21
26.9448621429
  0
LWPOLYLINE
  5
807
100
AcDbEntity
  8
0
100
AcDbPolyline
 62
7
  6
CONTINUOUS
 90
6
 70
0
 10
31.0967411884
 20
38.032439509
 10
31.094768082
 20
38.0441734303
 10
31.092238896
 20
38.0558001817
 10
31.089159356
 20
38.0672934219
 10
31.0855364356
 20
38.0786271166
 10
31.0813783401
 20
38.0897755922
  0
LWPOLYLINE
  5
808
100
AcDbEntity
  8
CURVE
100
AcDbPolyline
 62
7
  6
CONTINUOUS
 90
17
 70
0
 10
32.0477939915
 20
-0.4038507324
 10
32.0483740169
 20
-0.4035427097
 10
32.0489563518
 20
-0.4026179909
 10
32.0495405979
 20
-0.4010756002
 10
32.0501263571
 20
-0.3989145615
 10
32.0507132312
 20
-0.3961338989
 10
32.0513008219
 20
-0.3927326365
 10
32.051888731
 20
-0.3887097983
 10
32.0524765604
 20
-0.3840644084
 10
32.0530639119
 20
-0.3787954908
 10
32.0536503872
 20
-0.3729020696
 10
32.0542355881
 20
-0.3663831688
 10
32.0548191164
 20
-0.3592378125
 10
32.055400574
 20
-0.3514650248
 10
32.0559795626
 20
-0.3430638297
 10
32.0565556841
 20
-0.3340332512
 10
32.0576977326
 20
-0.3140800403
  0
LWPOLYLINE
  5
809
100
AcDbEntity
  8
0
100
AcDbPolyline
 62
7
  6
CONTINUOUS
 90
18
 70
0
 10
13.5422041636
 20
-10.7352354829
 10
13.5531421606
 20
-10.7305516293
 10
13.5638449019
 20
-10.725352626
 10
13.5742881426
 20
-10.7196502488
 10
13.5844482202
 20
-10.7134574153
 10
13.5943021194
 20
-10.7067881526
 10
13.6038275181
 20
-10.6996575679
 10
13.6130028333
 20
-10.692081816
 10
13.6218072804
 20
-10.6840780576
 10
13.6302209148
 20
-10.6756644232
 10
13.6382246732
 20
-10.6668599762
 10
13.645800425
 20
-10.657684661
 10
13.6529310098
 20
-10.6481592623
 10
13.6596002724
 20
-10.638305363
 10
13.6657931059
 20
-10.6281452854
 10
13.6714954831
 20
-10.6177020447
 10
13.6766944865
 20
-10.6069993034
 10
13.6813783401
 20
-10.5960613064
  0
LWPOLYLINE
  5
80A
100
AcDbEntity
  8
0
100
AcDbPolyline
 62
7
  6
CONTINUOUS
 90
6
 70
0
 10
28.4137033482
 20
38.244312617
 10
28.4019694268
 20
38.2423395106
 10
28.3903426755
 20
38.2398103246
 10
28.3788494353
 20
38.2367307846
 10
28.3675157405
 20
38.2331078642
 10
28.356367265
 20
38.2289497686
  0
LINE
  5
80B
100
AcDbEntity
  8
DRAFT
100
AcDbLine
 62
7
  6
CONTINUOUS
 10
27.5540081278
 20
33.8515795563
 11
14.3445633008
 21
33.8515795563
  0
LINE
  5
80C
100
AcDbEntity
  8
0
100
AcDbLine
 62
7
  6
CONTINUOUS
 10
23.9414315333
 20
34.5468571429
 11
17.9571398953
 21
34.5468571429
  0
LINE
  5
80D
100
AcDbEntity
  8
0
100
AcDbLine
 62
7
  6
CONTINUOUS
 10
29.7492857143
 20
34.5968571429
 11
28.3492857143
 21
34.5968571429
  0
LINE
  5
80E
100
AcDbEntity
  8
DRAFT
100
AcDbLine
 62
7
  6
CONTINUOUS
 10
29.7492857143
 20
34.5968571429
 11
28.3492857143
 21
34.5968571429
  0
LINE
  5
80F
100
AcDbEntity
  8
0
100
AcDbLine
 62
7
  6
CONTINUOUS
 10
12.1492857143
 20
34.5968571429
 11
13.5492857143
 21
34.5968571429
  0
LINE
  5
810
100
AcDbEntity
  8
DRAFT
100
AcDbLine
 62
7
  6
CONTINUOUS
 10
12.1492857143
 20
34.5968571429
 11
13.5492857143
 21
34.5968571429
  0
LINE
  5
811
100
AcDbEntity
  8
DRAFT
100
AcDbLine
 62
7
  6
CONTINUOUS
 10
13.6492857143
 20
34.6468571429
 11
13.3306565642
 21
34.6468571429
  0
LINE
  5
812
100
AcDbEntity
  8
DRAFT
100
AcDbLine
 62
7
  6
CONTINUOUS
 10
12.8827162125
 20
34.6468571429
 11
13.3183149094
 21
34.6468571429
  0
LINE
  5
813
100
AcDbEntity
  8
DRAFT
100
AcDbLine
 62
7
  6
CONTINUOUS
 10
28.2405588465
 20
34.6468571429
 11
28.5679148644
 21
34.6468571429
  0
LINE
  5
814
100
AcDbEntity
  8
DRAFT
100
AcDbLine
 62
7
  6
CONTINUOUS
 10
28.5802565192
 20
34.6468571429
 11
29.0158552161
 21
34.6468571429
  0
LINE
  5
815
100
AcDbEntity
  8
0
100
AcDbLine
 62
7
  6
CONTINUOUS
 10
29.1818306494
 20
34.6555840106
 11
29.0158552161
 21
34.6555840106
  0
LINE
  5
816
100
AcDbEntity
  8
0
100
AcDbLine
 62
7
  6
CONTINUOUS
 10
12.8827162125
 20
34.6555840106
 11
12.7167407792
 21
34.6555840106
  0
LINE
  5
817
100
AcDbEntity
  8
DRAFT
100
AcDbLine
 62
7
  6
CONTINUOUS
 10
28.5159313685
 20
34.7428526886
 11
28.1445633008
 21
34.7428526886
  0
LINE
  5
818
100
AcDbEntity
  8
DRAFT
100
AcDbLine
 62
7
  6
CONTINUOUS
 10
13.3826400601
 20
34.7428526886
 11
13.7540081278
 21
34.7428526886
  0
LINE
  5
819
100
AcDbEntity
  8
0
100
AcDbLine
 62
253
  6
CONTINUOUS
 10
28.5159313685
 20
35.0828440915
 11
23.9461090205
 21
35.0828440915
  0
LINE
  5
81A
100
AcDbEntity
  8
0
100
AcDbLine
 62
253
  6
CONTINUOUS
 10
17.9524624081
 20
35.0828440915
 11
13.3826400601
 21
35.0828440915
  0
LINE
  5
81B
100
AcDbEntity
  8
0
100
AcDbLine
 62
7
  6
CONTINUOUS
 10
23.9492857143
 20
35.4468571429
 11
17.9492857143
 21
35.4468571429
  0
LWPOLYLINE
  5
81C
100
AcDbEntity
  8
0
100
AcDbPolyline
 62
7
  6
CONTINUOUS
 90
9
 70
0
 10
31.0813783401
 20
-10.5960613064
 10
31.0855364356
 20
-10.5849128309
 10
31.089159356
 20
-10.5735791361
 10
31.092238896
 20
-10.5620858959
 10
31.094768082
 20
-10.5504591446
 10
31.0967411884
 20
-10.5387252233
 10
31.0981537485
 20
-10.5269107127
 10
31.099002564
 20
-10.5150423732
 10
31.0992857143
 20
-10.5031470879
  0
LWPOLYLINE
  5
81D
100
AcDbEntity
  8
0
100
AcDbPolyline
 62
7
  6
CONTINUOUS
 90
5
 70
0
 10
24.483369992
 20
-10.1588142295
 10
24.4899549107
 20
-10.1510886649
 10
24.497199635
 20
-10.1426841868
 10
24.5051184548
 20
-10.1336007952
 10
24.5137282597
 20
-10.1238430354
  0
LINE
  5
81E
100
AcDbEntity
  8
0
100
AcDbLine
 62
7
  6
CONTINUOUS
 10
24.5137282597
 20
-10.1238430354
 11
24.5330413078
 21
-10.1022771393
  0
LINE
  5
81F
100
AcDbEntity
  8
0
100
AcDbLine
 62
7
  6
CONTINUOUS
 10
24.5330413078
 20
-10.1022771393
 11
24.5551427936
 21
-10.0779436676
  0
LINE
  5
820
100
AcDbEntity
  8
0
100
AcDbLine
 62
7
  6
CONTINUOUS
 10
24.5551427936
 20
-10.0779436676
 11
24.5800753673
 21
-10.050806126
  0
LINE
  5
821
100
AcDbEntity
  8
0
100
AcDbLine
 62
7
  6
CONTINUOUS
 10
24.5800753673
 20
-10.050806126
 11
24.6079118114
 21
-10.0207728773
  0
LINE
  5
822
100
AcDbEntity
  8
0
100
AcDbLine
 62
7
  6
CONTINUOUS
 10
24.6079118114
 20
-10.0207728773
 11
24.6389242814
 21
-9.9875437864
  0
LINE
  5
823
100
AcDbEntity
  8
0
100
AcDbLine
 62
7
  6
CONTINUOUS
 10
24.6389242814
 20
-9.9875437864
 11
24.6912440746
 21
-9.9318772428
  0
LINE
  5
824
100
AcDbEntity
  8
0
100
AcDbLine
 62
7
  6
CONTINUOUS
 10
24.6912440746
 20
-9.9318772428
 11
24.7502158854
 21
-9.8695043715
  0
LWPOLYLINE
  5
825
100
AcDbEntity
  8
0
100
AcDbPolyline
 62
7
  6
CONTINUOUS
 90
4
 70
0
 10
24.7502158854
 20
-9.8695043715
 10
24.8363702106
 20
-9.778810291
 10
24.8583515557
 20
-9.7557760426
 10
24.9023284242
 20
-9.7095006718
  0
LINE
  5
826
100
AcDbEntity
  8
DRAFT
100
AcDbLine
 62
7
  6
CONTINUOUS
 10
28.1445633008
 20
-6.0578652706
 11
28.2449222804
 21
-5.957506291
  0
LINE
  5
827
100
AcDbEntity
  8
0
100
AcDbLine
 62
7
  6
CONTINUOUS
 10
28.3492857143
 20
-5.9531428571
 11
28.3859413506
 21
-5.9164872208
  0
LINE
  5
828
100
AcDbEntity
  8
DRAFT
100
AcDbLine
 62
7
  6
CONTINUOUS
 10
28.3492857143
 20
-5.9531428571
 11
28.3859413506
 21
-5.9164872208
  0
LINE
  5
829
100
AcDbEntity
  8
RACCORDO
100
AcDbLine
 62
7
  6
CONTINUOUS
 10
31.6694939496
 20
-3.551447104
 11
31.0475899611
 21
-4.1733510925
  0
LINE
  5
82A
100
AcDbEntity
  8
ASSI
100
AcDbLine
 62
7
  6
CONTINUOUS
 10
31.6694939496
 20
-3.551447104
 11
31.0475899611
 21
-4.1733510925
  0
LINE
  5
82B
100
AcDbEntity
  8
DRAFT
100
AcDbLine
 62
7
  6
CONTINUOUS
 10
28.1445633008
 20
-7.2491384028
 11
28.2405591788
 21
-7.1531431894
  0
LINE
  5
82C
100
AcDbEntity
  8
DRAFT
100
AcDbLine
 62
7
  6
CONTINUOUS
 10
28.2405591788
 20
-7.1618693926
 11
28.2492857143
 21
-7.1531428571
  0
LINE
  5
82D
100
AcDbEntity
  8
0
100
AcDbLine
 62
253
  6
CONTINUOUS
 10
21.9578530843
 20
-10.0474381269
 11
21.9492857143
 21
-10.0531496264
  0
LINE
  5
82E
100
AcDbEntity
  8
0
100
AcDbLine
 62
253
  6
CONTINUOUS
 10
22.1578353139
 20
-10.2474415122
 11
22.1492831758
 21
-10.2531428571
  0
LINE
  5
82F
100
AcDbEntity
  8
0
100
AcDbLine
 62
7
  6
CONTINUOUS
 10
21.9579596677
 20
-8.6479385697
 11
21.9492857143
 21
-8.6531428571
  0
LINE
  5
830
100
AcDbEntity
  8
0
100
AcDbLine
 62
7
  6
CONTINUOUS
 10
28.3859413506
 20
-4.5193123248
 11
28.4033964156
 21
-4.510585457
  0
LINE
  5
831
100
AcDbEntity
  8
DRAFT
100
AcDbLine
 62
7
  6
CONTINUOUS
 10
28.3859413506
 20
-4.5193123248
 11
28.4033964156
 21
-4.510585457
  0
LWPOLYLINE
  5
832
100
AcDbEntity
  8
0
100
AcDbPolyline
 62
7
  6
CONTINUOUS
 90
37
 70
0
 10
22.1492831758
 20
37.7468571429
 10
22.1405595221
 20
37.7466668092
 10
22.1318524675
 20
37.7460961639
 10
22.1231785832
 20
37.7451462906
 10
22.1145543764
 20
37.7438189951
 10
22.1059962629
 20
37.7421168002
 10
22.0975205361
 20
37.7400429415
 10
22.0891433281
 20
37.7376013635
 10
22.0808805841
 20
37.7347967112
 10
22.072748037
 20
37.7316343197
 10
22.0647611663
 20
37.7281202059
 10
22.0569351749
 20
37.7242610568
 10
22.0492849655
 20
37.7200642163
 10
22.0418250998
 20
37.715537671
 10
22.0345697782
 20
37.7106900355
 10
22.0275328173
 20
37.7055305375
 10
22.0207276121
 20
37.7000689964
 10
22.0141671166
 20
37.6943158073
 10
22.0078638245
 20
37.6882819235
 10
22.0018297344
 20
37.6819788294
 10
21.9960763324
 20
37.6754185227
 10
21.9906145745
 20
37.6686134943
 10
21.9854548574
 20
37.6615766974
 10
21.9806070024
 20
37.6543215262
 10
21.9760802402
 20
37.6468617956
 10
21.9718831874
 20
37.6392117051
 10
21.9680238323
 20
37.6313858167
 10
21.9645095221
 20
37.6233990315
 10
21.9613469457
 20
37.6152665527
 10
21.9585421221
 20
37.6070038601
 10
21.9561003891
 20
37.5986266857
 10
21.9540263938
 20
37.5901509756
 10
21.9523240825
 20
37.5815928627
 10
21.9509966932
 20
37.5729686399
 10
21.9500467508
 20
37.564294724
 10
21.9494760628
 20
37.5555876237
 10
21.9492857143
 20
37.5468639121
  0
LINE
  5
833
100
AcDbEntity
  8
0
100
AcDbLine
 62
253
  6
CONTINUOUS
 10
28.1398273405
 20
36.0828271684
 11
23.9548357406
 21
36.0828271684
  0
LINE
  5
834
100
AcDbEntity
  8
0
100
AcDbLine
 62
253
  6
CONTINUOUS
 10
17.943735688
 20
36.0828271684
 11
13.7587440881
 21
36.0828271684
  0
LINE
  5
835
100
AcDbEntity
  8
0
100
AcDbLine
 62
7
  6
CONTINUOUS
 10
31.5905651926
 20
36.141039313
 11
28.2051035441
 21
36.141039313
  0
LINE
  5
836
100
AcDbEntity
  8
0
100
AcDbLine
 62
7
  6
CONTINUOUS
 10
13.6934678845
 20
36.141039313
 11
10.308006236
 21
36.141039313
  0
LINE
  5
837
100
AcDbEntity
  8
0
100
AcDbLine
 62
7
  6
CONTINUOUS
 10
21.9579596677
 20
36.1416528554
 11
19.9406117609
 21
36.1416528554
  0
LINE
  5
838
100
AcDbEntity
  8
0
100
AcDbLine
 62
7
  6
CONTINUOUS
 10
10.2989051146
 20
36.1468571429
 11
16.4992857143
 21
36.1468571429
  0
LINE
  5
839
100
AcDbEntity
  8
0
100
AcDbLine
 62
7
  6
CONTINUOUS
 10
19.9492857143
 20
36.1468571429
 11
21.9492857143
 21
36.1468571429
  0
LINE
  5
83A
100
AcDbEntity
  8
0
100
AcDbLine
 62
7
  6
CONTINUOUS
 10
25.3992857143
 20
36.1468571429
 11
31.599666314
 21
36.1468571429
  0
LINE
  5
83B
100
AcDbEntity
  8
0
100
AcDbLine
 62
7
  6
CONTINUOUS
 10
30.8500087122
 20
36.8695068737
 11
28.4485627164
 21
36.8695068737
  0
LINE
  5
83C
100
AcDbEntity
  8
0
100
AcDbLine
 62
7
  6
CONTINUOUS
 10
11.0485627164
 20
36.8695068737
 11
13.4500087122
 21
36.8695068737
  0
LINE
  5
83D
100
AcDbEntity
  8
0
100
AcDbLine
 62
253
  6
CONTINUOUS
 10
11.0536533175
 20
37.3746883592
 11
13.4449181111
 21
37.3746883592
  0
LINE
  5
83E
100
AcDbEntity
  8
0
100
AcDbLine
 62
253
  6
CONTINUOUS
 10
28.4536533175
 20
37.3746883592
 11
30.8449181111
 21
37.3746883592
  0
LINE
  5
83F
100
AcDbEntity
  8
0
100
AcDbLine
 62
253
  6
CONTINUOUS
 10
10.8036575483
 20
37.5911947102
 11
13.6949138803
 21
37.5911947102
  0
LINE
  5
840
100
AcDbEntity
  8
0
100
AcDbLine
 62
253
  6
CONTINUOUS
 10
28.2036575483
 20
37.5911947102
 11
31.0949138803
 21
37.5911947102
  0
LINE
  5
841
100
AcDbEntity
  8
0
100
AcDbLine
 62
7
  6
CONTINUOUS
 10
25.3556350674
 20
37.703206496
 11
24.483812252
 21
37.703206496
  0
LINE
  5
842
100
AcDbEntity
  8
0
100
AcDbLine
 62
7
  6
CONTINUOUS
 10
17.4147591765
 20
37.703206496
 11
16.5429363612
 21
37.703206496
  0
LINE
  5
843
100
AcDbEntity
  8
0
100
AcDbLine
 62
7
  6
CONTINUOUS
 10
24.4841434306
 20
37.7411557979
 11
22.1578353139
 21
37.7411557979
  0
LINE
  5
844
100
AcDbEntity
  8
0
100
AcDbLine
 62
7
  6
CONTINUOUS
 10
19.7407361146
 20
37.7411557979
 11
17.414427998
 21
37.7411557979
  0
LINE
  5
845
100
AcDbEntity
  8
0
100
AcDbLine
 62
7
  6
CONTINUOUS
 10
25.3992857143
 20
37.7468571429
 11
22.1492831758
 21
37.7468571429
  0
LINE
  5
846
100
AcDbEntity
  8
0
100
AcDbLine
 62
7
  6
CONTINUOUS
 10
19.7492882527
 20
37.7468571429
 11
16.4992857143
 21
37.7468571429
  0
LWPOLYLINE
  5
847
100
AcDbEntity
  8
0
100
AcDbPolyline
 62
7
  6
CONTINUOUS
 90
9
 70
0
 10
13.5422041636
 20
38.2289497686
 10
13.5310556881
 20
38.2331078642
 10
13.5197219933
 20
38.2367307846
 10
13.5082287531
 20
38.2398103246
 10
13.4966020018
 20
38.2423395106
 10
13.4848680804
 20
38.244312617
 10
13.4730535699
 20
38.2457251771
 10
13.4611852303
 20
38.2465739926
 10
13.4492899451
 20
38.2468571429
  0
LINE
  5
848
100
AcDbEntity
  8
0
100
AcDbLine
 62
7
  6
CONTINUOUS
 10
21.9492857143
 20
36.1468571429
 11
21.9579596677
 21
36.1416528554
  0
LINE
  5
849
100
AcDbEntity
  8
0
100
AcDbLine
 62
253
  6
CONTINUOUS
 10
21.9492857143
 20
37.5468639121
 11
21.9578530843
 21
37.5411524126
  0
LINE
  5
84A
100
AcDbEntity
  8
0
100
AcDbLine
 62
253
  6
CONTINUOUS
 10
22.1492831758
 20
37.7468571429
 11
22.1578353139
 21
37.7411557979
  0
LINE
  5
84B
100
AcDbEntity
  8
DRAFT
100
AcDbLine
 62
7
  6
CONTINUOUS
 10
28.1445633008
 20
33.5515795563
 11
28.2449222804
 21
33.4512205768
  0
LINE
  5
84C
100
AcDbEntity
  8
0
100
AcDbLine
 62
7
  6
CONTINUOUS
 10
28.3492857143
 20
33.4468571429
 11
28.3859413506
 21
33.4102015065
  0
LINE
  5
84D
100
AcDbEntity
  8
DRAFT
100
AcDbLine
 62
7
  6
CONTINUOUS
 10
28.3492857143
 20
33.4468571429
 11
28.3859413506
 21
33.4102015065
  0
LINE
  5
84E
100
AcDbEntity
  8
RACCORDO
100
AcDbLine
 62
7
  6
CONTINUOUS
 10
31.6694939496
 20
31.0451613897
 11
31.0475899611
 21
31.6670653782
  0
LINE
  5
84F
100
AcDbEntity
  8
ASSI
100
AcDbLine
 62
7
  6
CONTINUOUS
 10
31.6694939496
 20
31.0451613897
 11
31.0475899611
 21
31.6670653782
  0
LINE
  5
850
100
AcDbEntity
  8
DRAFT
100
AcDbLine
 62
7
  6
CONTINUOUS
 10
28.1445633008
 20
34.7428526886
 11
28.2405588465
 21
34.6468571429
  0
LINE
  5
851
100
AcDbEntity
  8
0
100
AcDbLine
 62
7
  6
CONTINUOUS
 10
24.8805369122
 20
37.2261956848
 11
24.8149235198
 21
37.295055574
  0
LINE
  5
852
100
AcDbEntity
  8
0
100
AcDbLine
 62
7
  6
CONTINUOUS
 10
24.9023284242
 20
37.2032149576
 11
24.8805369122
 21
37.2261956848
  0
LINE
  5
853
100
AcDbEntity
  8
0
100
AcDbLine
 62
7
  6
CONTINUOUS
 10
24.8149235198
 20
37.295055574
 11
24.7304641504
 21
37.3840929552
  0
LINE
  5
854
100
AcDbEntity
  8
0
100
AcDbLine
 62
7
  6
CONTINUOUS
 10
24.7304641504
 20
37.3840929552
 11
24.6737665979
 21
37.4441553502
  0
LINE
  5
855
100
AcDbEntity
  8
0
100
AcDbLine
 62
7
  6
CONTINUOUS
 10
24.6737665979
 20
37.4441553502
 11
24.6397168728
 21
37.4804143938
  0
LINE
  5
856
100
AcDbEntity
  8
0
100
AcDbLine
 62
7
  6
CONTINUOUS
 10
24.6397168728
 20
37.4804143938
 11
24.6086458848
 21
37.5136982244
  0
LINE
  5
857
100
AcDbEntity
  8
0
100
AcDbLine
 62
7
  6
CONTINUOUS
 10
24.6086458848
 20
37.5136982244
 11
24.580420204
 21
37.5441418004
  0
LINE
  5
858
100
AcDbEntity
  8
0
100
AcDbLine
 62
7
  6
CONTINUOUS
 10
24.580420204
 20
37.5441418004
 11
24.5551364751
 21
37.5716621366
  0
LINE
  5
859
100
AcDbEntity
  8
0
100
AcDbLine
 62
7
  6
CONTINUOUS
 10
24.5551364751
 20
37.5716621366
 11
24.5328231385
 21
37.5962332671
  0
LWPOLYLINE
  5
85A
100
AcDbEntity
  8
0
100
AcDbPolyline
 62
7
  6
CONTINUOUS
 90
6
 70
0
 10
24.5328231385
 20
37.5962332671
 10
24.5135227198
 20
37.6177896939
 10
24.504953963
 20
37.6275023667
 10
24.4970822711
 20
37.6365380774
 10
24.4898935312
 20
37.6448801269
 10
24.483369992
 20
37.6525285152
  0
LINE
  5
85B
100
AcDbEntity
  8
DRAFT
100
AcDbLine
 62
7
  6
CONTINUOUS
 10
28.5679148644
 20
-7.1531428571
 11
28.6179148644
 21
-7.1031428571
  0
LINE
  5
85C
100
AcDbEntity
  8
DRAFT
100
AcDbLine
 62
7
  6
CONTINUOUS
 10
28.592598174
 20
-7.1531428571
 11
28.642598174
 21
-7.1031428571
  0
LINE
  5
85D
100
AcDbEntity
  8
0
100
AcDbLine
 62
7
  6
CONTINUOUS
 10
29.5764893874
 20
-7.1031428571
 11
31.3914030403
 21
-5.2882292043
  0
LINE
  5
85E
100
AcDbEntity
  8
RACCORDO
100
AcDbLine
 62
7
  6
CONTINUOUS
 10
29.5764893874
 20
-7.1031428571
 11
31.3914030403
 21
-5.2882292043
  0
LINE
  5
85F
100
AcDbEntity
  8
0
100
AcDbLine
 62
7
  6
CONTINUOUS
 10
29.1818306494
 20
-7.6582562673
 11
29.0158552161
 21
-7.8242317005
  0
LINE
  5
860
100
AcDbEntity
  8
RACCORDO
100
AcDbLine
 62
7
  6
CONTINUOUS
 10
29.7492857143
 20
-7.1031428571
 11
31.5135884948
 21
-5.3388400767
  0
LINE
  5
861
100
AcDbEntity
  8
0
100
AcDbLine
 62
7
  6
CONTINUOUS
 10
28.2051035441
 20
-8.6473250273
 11
32.0905588465
 21
-4.7618697249
  0
LINE
  5
862
100
AcDbEntity
  8
0
100
AcDbLine
 62
7
  6
CONTINUOUS
 10
29.0158552161
 20
-7.2448511214
 11
29.1818306494
 21
-7.1618697249
  0
LINE
  5
863
100
AcDbEntity
  8
0
100
AcDbLine
 62
7
  6
CONTINUOUS
 10
29.0158552161
 20
-7.7068782843
 11
29.1818306494
 21
-7.6582562673
  0
LWPOLYLINE
  5
864
100
AcDbEntity
  8
0
100
AcDbPolyline
 62
7
  6
CONTINUOUS
 90
6
 70
0
 10
11.0137033482
 20
38.244312617
 10
11.0019694268
 20
38.2423395106
 10
10.9903426755
 20
38.2398103246
 10
10.9788494353
 20
38.2367307846
 10
10.9675157405
 20
38.2331078642
 10
10.956367265
 20
38.2289497686
  0
LWPOLYLINE
  5
865
100
AcDbEntity
  8
0
100
AcDbPolyline
 62
7
  6
CONTINUOUS
 90
34
 70
0
 10
28.4536533175
 20
38.2424853089
 10
28.441758296
 20
38.242201758
 10
28.4298902193
 20
38.2413525531
 10
28.4180759714
 20
38.2399396177
 10
28.4063423142
 20
38.2379661524
 10
28.3947158269
 20
38.2354366276
 10
28.3832228463
 20
38.2323567733
 10
28.3718894065
 20
38.2287335659
 10
28.3607411803
 20
38.2245752128
 10
28.3498034208
 20
38.2198911337
 10
28.3391009047
 20
38.2146919391
 10
28.3286578754
 20
38.2089894062
 10
28.3184979888
 20
38.2027964527
 10
28.3086442593
 20
38.1961271068
 10
28.2991190078
 20
38.1889964763
 10
28.2899438112
 20
38.1814207135
 10
28.2811394532
 20
38.1734169793
 10
28.2727258778
 20
38.1650034039
 10
28.2647221436
 20
38.156199046
 10
28.2571463808
 20
38.1470238493
 10
28.2500157503
 20
38.1374985978
 10
28.2433464045
 20
38.1276448683
 10
28.2371534509
 20
38.1174849817
 10
28.231450918
 20
38.1070419525
 10
28.2262517234
 20
38.0963394363
 10
28.2215676443
 20
38.0854016769
 10
28.2174092913
 20
38.0742534506
 10
28.2137860839
 20
38.0629200108
 10
28.2107062295
 20
38.0514270302
 10
28.2081767047
 20
38.039800543
 10
28.2062032394
 20
38.0280668857
 10
28.204790304
 20
38.0162526378
 10
28.2039410991
 20
38.0043845612
 10
28.2036575483
 20
37.9924895396
  0
LWPOLYLINE
  5
866
100
AcDbEntity
  8
0
100
AcDbPolyline
 62
7
  6
CONTINUOUS
 90
4
 70
0
 10
28.4492814835
 20
38.2468571429
 10
28.4373861983
 20
38.2465739926
 10
28.4255178587
 20
38.2457251771
 10
28.4137033482
 20
38.244312617
  0
LWPOLYLINE
  5
867
100
AcDbEntity
  8
0
100
AcDbPolyline
 62
7
  6
CONTINUOUS
 90
34
 70
0
 10
11.0536533175
 20
38.2424853089
 10
11.0417778459
 20
38.2422026892
 10
11.0299241034
 20
38.2413557874
 10
11.0181189279
 20
38.2399457914
 10
11.0063874333
 20
38.2379748455
 10
10.994757998
 20
38.2354468556
 10
10.9832620324
 20
38.2323682769
 10
10.9719272673
 20
38.2287466672
 10
10.9607776553
 20
38.2245898128
 10
10.9498382542
 20
38.2199070392
 10
10.9391337193
 20
38.2147088538
 10
10.9286884659
 20
38.2090070654
 10
10.9185263903
 20
38.2028147029
 10
10.9086706056
 20
38.1961458657
 10
10.8991433441
 20
38.1890156124
 10
10.8899661309
 20
38.1814400515
 10
10.8811597393
 20
38.1734363199
 10
10.872744153
 20
38.1650225683
 10
10.8647384589
 20
38.1562178728
 10
10.8571608024
 20
38.1470421858
 10
10.8500283513
 20
38.1375162915
 10
10.8433572712
 20
38.1276617754
 10
10.8371626789
 20
38.1175009633
 10
10.8314586137
 20
38.1070568781
 10
10.8262580061
 20
38.0963531916
 10
10.8215726417
 20
38.0854141581
 10
10.8174131375
 20
38.0742645618
 10
10.8137889203
 20
38.0629296692
 10
10.8107082017
 20
38.0514351582
 10
10.8081779647
 20
38.0398070789
 10
10.8062039461
 20
38.0280717991
 10
10.8047906173
 20
38.0162559168
 10
10.8039411772
 20
38.0043861986
 10
10.8036575483
 20
37.9924895396
  0
LWPOLYLINE
  5
868
100
AcDbEntity
  8
0
100
AcDbPolyline
 62
7
  6
CONTINUOUS
 90
4
 70
0
 10
11.0492814835
 20
38.2468571429
 10
11.0373861983
 20
38.2465739926
 10
11.0255178587
 20
38.2457251771
 10
11.0137033482
 20
38.244312617
  0
LINE
  5
869
100
AcDbEntity
  8
0
100
AcDbLine
 62
253
  6
CONTINUOUS
 10
10.8036575483
 20
37.9924895396
 11
13.6949138803
 21
37.9924895396
  0
LINE
  5
86A
100
AcDbEntity
  8
0
100
AcDbLine
 62
253
  6
CONTINUOUS
 10
28.2036575483
 20
37.9924895396
 11
31.0949138803
 21
37.9924895396
  0
LINE
  5
86B
100
AcDbEntity
  8
0
100
AcDbLine
 62
7
  6
CONTINUOUS
 10
30.8449181111
 20
38.2424853089
 11
28.4536533175
 21
38.2424853089
  0
LINE
  5
86C
100
AcDbEntity
  8
0
100
AcDbLine
 62
7
  6
CONTINUOUS
 10
13.4449181111
 20
38.2424853089
 11
11.0536533175
 21
38.2424853089
  0
LWPOLYLINE
  5
86D
100
AcDbEntity
  8
0
100
AcDbPolyline
 62
7
  6
CONTINUOUS
 90
37
 70
0
 10
19.7492882527
 20
37.7468571429
 10
19.7580119064
 20
37.7466668092
 10
19.7667189611
 20
37.7460961639
 10
19.7753928454
 20
37.7451462906
 10
19.7840170522
 20
37.7438189951
 10
19.7925751657
 20
37.7421168002
 10
19.8010508924
 20
37.7400429415
 10
19.8094281005
 20
37.7376013635
 10
19.8176908445
 20
37.7347967112
 10
19.8258233916
 20
37.7316343197
 10
19.8338102623
 20
37.7281202059
 10
19.8416362536
 20
37.7242610568
 10
19.8492864631
 20
37.7200642163
 10
19.8567463287
 20
37.715537671
 10
19.8640016503
 20
37.7106900355
 10
19.8710386113
 20
37.7055305375
 10
19.8778438165
 20
37.7000689964
 10
19.884404312
 20
37.6943158073
 10
19.8907076041
 20
37.6882819235
 10
19.8967416941
 20
37.6819788294
 10
19.9024950962
 20
37.6754185227
 10
19.9079568541
 20
37.6686134943
 10
19.9131165711
 20
37.6615766974
 10
19.9179644261
 20
37.6543215262
 10
19.9224911883
 20
37.6468617956
 10
19.9266882412
 20
37.6392117051
 10
19.9305475963
 20
37.6313858167
 10
19.9340619065
 20
37.6233990315
 10
19.9372244829
 20
37.6152665527
 10
19.9400293065
 20
37.6070038601
 10
19.9424710395
 20
37.5986266857
 10
19.9445450348
 20
37.5901509756
 10
19.9462473461
 20
37.5815928627
 10
19.9475747354
 20
37.5729686399
 10
19.9485246778
 20
37.564294724
 10
19.9490953658
 20
37.5555876237
 10
19.9492857143
 20
37.5468639121
  0
LINE
  5
86E
100
AcDbEntity
  8
0
100
AcDbLine
 62
7
  6
CONTINUOUS
 10
29.0158552161
 20
35.20059257
 11
29.1818306494
 21
35.151970553
  0
LINE
  5
86F
100
AcDbEntity
  8
0
100
AcDbLine
 62
7
  6
CONTINUOUS
 10
29.0158552161
 20
34.7385654071
 11
29.1818306494
 21
34.6555840106
  0
LINE
  5
870
100
AcDbEntity
  8
DRAFT
100
AcDbLine
 62
7
  6
CONTINUOUS
 10
28.6179148644
 20
34.5968571429
 11
28.5679148644
 21
34.6468571429
  0
LINE
  5
871
100
AcDbEntity
  8
DRAFT
100
AcDbLine
 62
7
  6
CONTINUOUS
 10
28.642598174
 20
34.5968571429
 11
28.592598174
 21
34.6468571429
  0
LINE
  5
872
100
AcDbEntity
  8
0
100
AcDbLine
 62
7
  6
CONTINUOUS
 10
31.3914030403
 20
32.78194349
 11
29.5764893874
 21
34.5968571429
  0
LINE
  5
873
100
AcDbEntity
  8
RACCORDO
100
AcDbLine
 62
7
  6
CONTINUOUS
 10
31.3914030403
 20
32.78194349
 11
29.5764893874
 21
34.5968571429
  0
LINE
  5
874
100
AcDbEntity
  8
0
100
AcDbLine
 62
7
  6
CONTINUOUS
 10
29.1818306494
 20
35.151970553
 11
29.0158552161
 21
35.3179459863
  0
LINE
  5
875
100
AcDbEntity
  8
RACCORDO
100
AcDbLine
 62
7
  6
CONTINUOUS
 10
31.5135884948
 20
32.8325543624
 11
29.7492857143
 21
34.5968571429
  0
LINE
  5
876
100
AcDbEntity
  8
0
100
AcDbLine
 62
7
  6
CONTINUOUS
 10
32.0905588465
 20
32.2555840106
 11
28.2051035441
 21
36.141039313
  0
LWPOLYLINE
  5
877
100
AcDbEntity
  8
0
100
AcDbPolyline
 62
7
  6
CONTINUOUS
 90
18
 70
0
 10
31.0813783401
 20
38.0897755922
 10
31.0766944865
 20
38.1007135892
 10
31.0714954831
 20
38.1114163305
 10
31.0657931059
 20
38.1218595711
 10
31.0596002724
 20
38.1320196488
 10
31.0529310098
 20
38.141873548
 10
31.045800425
 20
38.1513989467
 10
31.0382246732
 20
38.1605742619
 10
31.0302209148
 20
38.1693787089
 10
31.0218072804
 20
38.1777923433
 10
31.0130028333
 20
38.1857961017
 10
31.0038275181
 20
38.1933718536
 10
30.9943021194
 20
38.2005024383
 10
30.9844482202
 20
38.207171701
 10
30.9742881426
 20
38.2133645345
 10
30.9638449019
 20
38.2190669117
 10
30.9531421606
 20
38.224265915
 10
30.9422041636
 20
38.2289497686
  0
LWPOLYLINE
  5
878
100
AcDbEntity
  8
0
100
AcDbPolyline
 62
7
  6
CONTINUOUS
 90
18
 70
0
 10
30.9422041636
 20
-10.7352354829
 10
30.9531421606
 20
-10.7305516293
 10
30.9638449019
 20
-10.725352626
 10
30.9742881426
 20
-10.7196502488
 10
30.9844482202
 20
-10.7134574153
 10
30.9943021194
 20
-10.7067881526
 10
31.0038275181
 20
-10.6996575679
 10
31.0130028333
 20
-10.692081816
 10
31.0218072804
 20
-10.6840780576
 10
31.0302209148
 20
-10.6756644232
 10
31.0382246732
 20
-10.6668599762
 10
31.045800425
 20
-10.657684661
 10
31.0529310098
 20
-10.6481592623
 10
31.0596002724
 20
-10.638305363
 10
31.0657931059
 20
-10.6281452854
 10
31.0714954831
 20
-10.6177020447
 10
31.0766944865
 20
-10.6069993034
 10
31.0813783401
 20
-10.5960613064
  0
LWPOLYLINE
  5
879
100
AcDbEntity
  8
0
100
AcDbPolyline
 62
7
  6
CONTINUOUS
 90
9
 70
0
 10
30.9422041636
 20
38.2289497686
 10
30.9310556881
 20
38.2331078642
 10
30.9197219933
 20
38.2367307846
 10
30.9082287531
 20
38.2398103246
 10
30.8966020018
 20
38.2423395106
 10
30.8848680804
 20
38.244312617
 10
30.8730535699
 20
38.2457251771
 10
30.8611852303
 20
38.2465739926
 10
30.8492899451
 20
38.2468571429
  0
ARC
  5
87A
100
AcDbEntity
  8
ASSI
100
AcDbCircle
 62
7
  6
CONTINUOUS
 10
11.4433773436
 20
-5.1431428571
 40
0.71
100
AcDbArc
 50
229.7020215745
 51
265.2988538673
  0
ARC
  5
87B
100
AcDbEntity
  8
ASSI
100
AcDbCircle
 62
7
  6
CONTINUOUS
 10
10.6592857143
 20
-4.3590512279
 40
0.71
100
AcDbArc
 50
184.7020215745
 51
220.2988538673
  0
ARC
  5
87C
100
AcDbEntity
  8
0
100
AcDbCircle
 62
7
  6
CONTINUOUS
 10
16.9492857143
 20
-9.4031428571
 40
0.5
100
AcDbArc
 50
144.3637748935
 51
215.6362251065
  0
ARC
  5
87D
100
AcDbEntity
  8
0
100
AcDbCircle
 62
7
  6
CONTINUOUS
 10
19.2492857143
 20
-3.8031428571
 40
0.3
100
AcDbArc
 50
90.0
 51
170.0
  0
ARC
  5
87E
100
AcDbEntity
  8
RACCORDO
100
AcDbCircle
 62
7
  6
CONTINUOUS
 10
19.2492857143
 20
-3.8031428571
 40
0.3
100
AcDbArc
 50
90.0
 51
170.0
  0
ARC
  5
87F
100
AcDbEntity
  8
ASSI
100
AcDbCircle
 62
7
  6
CONTINUOUS
 10
11.4433773436
 20
32.6368571429
 40
0.71
100
AcDbArc
 50
109.9961491498
 51
114.2412807351
  0
ARC
  5
880
100
AcDbEntity
  8
ASSI
100
AcDbCircle
 62
7
  6
CONTINUOUS
 10
10.6592857143
 20
31.8527655136
 40
0.71
100
AcDbArc
 50
139.7010712477
 51
175.2998279782
  0
ARC
  5
881
100
AcDbEntity
  8
0
100
AcDbCircle
 62
7
  6
CONTINUOUS
 10
16.9492857143
 20
36.8968571429
 40
0.5
100
AcDbArc
 50
144.3637748935
 51
215.6362251065
  0
ARC
  5
882
100
AcDbEntity
  8
0
100
AcDbCircle
 62
7
  6
CONTINUOUS
 10
19.2492857143
 20
31.2968571429
 40
0.3
100
AcDbArc
 50
189.8838085533
 51
270.0
  0
ARC
  5
883
100
AcDbEntity
  8
RACCORDO
100
AcDbCircle
 62
7
  6
CONTINUOUS
 10
19.2492857143
 20
31.2968571429
 40
0.3
100
AcDbArc
 50
189.8838085533
 51
270.0
  0
ARC
  5
884
100
AcDbEntity
  8
ASSI
100
AcDbCircle
 62
7
  6
CONTINUOUS
 10
31.2392857143
 20
-2.9590512279
 40
0.71
100
AcDbArc
 50
319.7020215745
 51
355.2988538673
  0
ARC
  5
885
100
AcDbEntity
  8
ASSI
100
AcDbCircle
 62
7
  6
CONTINUOUS
 10
30.455194085
 20
-3.7431428571
 40
0.71
100
AcDbArc
 50
274.7020215745
 51
310.2988538673
  0
ARC
  5
886
100
AcDbEntity
  8
0
100
AcDbCircle
 62
7
  6
CONTINUOUS
 10
24.9492857143
 20
-9.4031428571
 40
0.5
100
AcDbArc
 50
324.3637748935
 51
35.6362251065
  0
ARC
  5
887
100
AcDbEntity
  8
0
100
AcDbCircle
 62
7
  6
CONTINUOUS
 10
22.6492857143
 20
-3.8031428571
 40
0.3
100
AcDbArc
 50
10.0
 51
90.0
  0
ARC
  5
888
100
AcDbEntity
  8
RACCORDO
100
AcDbCircle
 62
7
  6
CONTINUOUS
 10
22.6492857143
 20
-3.8031428571
 40
0.3
100
AcDbArc
 50
10.0
 51
90.0
  0
ARC
  5
889
100
AcDbEntity
  8
0
100
AcDbCircle
 62
7
  6
CONTINUOUS
 10
30.1492857143
 20
30.9468571429
 40
1.4
100
AcDbArc
 50
9.8532892494
 51
90.0
  0
ARC
  5
88A
100
AcDbEntity
  8
ASSI
100
AcDbCircle
 62
7
  6
CONTINUOUS
 10
30.455194085
 20
31.2368571429
 40
0.71
100
AcDbArc
 50
49.7010712477
 51
85.2998279782
  0
ARC
  5
88B
100
AcDbEntity
  8
ASSI
100
AcDbCircle
 62
7
  6
CONTINUOUS
 10
31.2392857143
 20
30.4527655136
 40
0.71
100
AcDbArc
 50
4.7001961556
 51
40.2989529286
  0
ARC
  5
88C
100
AcDbEntity
  8
0
100
AcDbCircle
 62
7
  6
CONTINUOUS
 10
24.9492857143
 20
36.8968571429
 40
0.5
100
AcDbArc
 50
324.3637748935
 51
35.6362251065
  0
ARC
  5
88D
100
AcDbEntity
  8
0
100
AcDbCircle
 62
7
  6
CONTINUOUS
 10
22.6492857143
 20
31.2968571429
 40
0.3
100
AcDbArc
 50
270.0
 51
350.0
  0
ARC
  5
88E
100
AcDbEntity
  8
RACCORDO
100
AcDbCircle
 62
7
  6
CONTINUOUS
 10
22.6492857143
 20
31.2968571429
 40
0.3
100
AcDbArc
 50
270.0
 51
350.0
  0
ELLIPSE
  5
88F
100
AcDbEntity
  8
0
100
AcDbEllipse
 62
7
  6
CONTINUOUS
 10
22.7421789331
 20
-4.4887682875
 30
0.0
 11
0.5
 21
0.0
 31
0.0
 40
0.0087268678
 41
0.7853981634
 42
1.1643384736
  0
ELLIPSE
  5
890
100
AcDbEntity
  8
0
100
AcDbEllipse
 62
7
  6
CONTINUOUS
 10
19.1563924955
 20
-4.4887682875
 30
0.0
 11
0.5
 21
0.0
 31
0.0
 40
0.0087268678
 41
1.97725418
 42
2.3561944902
  0
ELLIPSE
  5
891
100
AcDbEntity
  8
0
100
AcDbEllipse
 62
7
  6
CONTINUOUS
 10
11.7995903704
 20
31.4183038254
 30
0.0
 11
1.8480888181
 21
-0.7655034529
 31
0.0
 40
0.9998215708
 41
2.7489566578
 42
3.5342286494
  0
ELLIPSE
  5
892
100
AcDbEntity
  8
0
100
AcDbEllipse
 62
7
  6
CONTINUOUS
 10
11.7995903704
 20
-3.9245895397
 30
0.0
 11
1.8480888181
 21
0.7655034529
 31
0.0
 40
0.9998215708
 41
2.7489566578
 42
3.5342286494
  0
ELLIPSE
  5
893
100
AcDbEntity
  8
0
100
AcDbEllipse
 62
7
  6
CONTINUOUS
 10
30.0989810582
 20
-3.9245895397
 30
0.0
 11
1.8480888181
 21
-0.7655034529
 31
0.0
 40
0.9998215708
 41
-0.3926359958
 42
0.3926359958
  0
ELLIPSE
  5
894
100
AcDbEntity
  8
0
100
AcDbEllipse
 62
7
  6
CONTINUOUS
 10
30.0989810582
 20
31.4183038254
 30
0.0
 11
1.8480888181
 21
0.7655034529
 31
0.0
 40
0.9998215708
 41
-0.3926359958
 42
0.3926359958
  0
ELLIPSE
  5
895
100
AcDbEntity
  8
0
100
AcDbEllipse
 62
7
  6
CONTINUOUS
 10
30.2154361427
 20
-4.0192932856
 30
0.0
 11
0.3535803156
 21
-0.3535803156
 31
0.0
 40
0.9999238505
 41
-0.7853600872
 42
-0.2962124934
  0
ELLIPSE
  5
896
100
AcDbEntity
  8
0
100
AcDbEllipse
 62
7
  6
CONTINUOUS
 10
11.9217758249
 20
31.367692953
 30
0.0
 11
1.8480888181
 21
-0.7655034529
 31
0.0
 40
0.9998215708
 41
9.032141965
 42
9.2322752141
  0
ELLIPSE
  5
897
100
AcDbEntity
  8
0
100
AcDbEllipse
 62
7
  6
CONTINUOUS
 10
11.9217758249
 20
31.367692953
 30
0.0
 11
1.8480888181
 21
-0.7655034529
 31
0.0
 40
0.9998215708
 41
3.4204543746
 42
3.5342286494
  0
ELLIPSE
  5
898
100
AcDbEntity
  8
0
100
AcDbEllipse
 62
7
  6
CONTINUOUS
 10
11.9217758249
 20
-3.8739786673
 30
0.0
 11
-1.8480888181
 21
-0.7655034529
 31
0.0
 40
0.9998215708
 41
-0.3926359958
 42
-0.278861721
  0
ELLIPSE
  5
899
100
AcDbEntity
  8
0
100
AcDbEllipse
 62
7
  6
CONTINUOUS
 10
11.9217758249
 20
-3.8739786673
 30
0.0
 11
-1.8480888181
 21
-0.7655034529
 31
0.0
 40
0.9998215708
 41
6.4756880539
 42
6.675821303
  0
ELLIPSE
  5
89A
100
AcDbEntity
  8
0
100
AcDbEllipse
 62
7
  6
CONTINUOUS
 10
29.9767956037
 20
-3.8739786673
 30
0.0
 11
-1.8480888181
 21
0.7655034529
 31
0.0
 40
0.9998215708
 41
2.7489566578
 42
3.5342286494
  0
ELLIPSE
  5
89B
100
AcDbEntity
  8
0
100
AcDbEllipse
 62
7
  6
CONTINUOUS
 10
29.9767956037
 20
31.367692953
 30
0.0
 11
1.8480888181
 21
0.7655034529
 31
0.0
 40
0.9998215708
 41
-0.3926359958
 42
0.3926359958
  0
ELLIPSE
  5
89C
100
AcDbEntity
  8
RACCORDO
100
AcDbEllipse
 62
7
  6
CONTINUOUS
 10
30.2154361427
 20
-4.0192932856
 30
0.0
 11
0.3535803156
 21
-0.3535803156
 31
0.0
 40
0.9999238505
 41
-0.7853600872
 42
-0.2962124934
  0
ELLIPSE
  5
89D
100
AcDbEntity
  8
RACCORDO
100
AcDbEllipse
 62
7
  6
CONTINUOUS
 10
22.7421789331
 20
-4.4887682875
 30
0.0
 11
0.5
 21
0.0
 31
0.0
 40
0.0087268678
 41
0.7853981634
 42
1.1643384736
  0
ELLIPSE
  5
89E
100
AcDbEntity
  8
RACCORDO
100
AcDbEllipse
 62
7
  6
CONTINUOUS
 10
19.1563924955
 20
-4.4887682875
 30
0.0
 11
0.5
 21
0.0
 31
0.0
 40
0.0087268678
 41
1.97725418
 42
2.3561944902
  0
ELLIPSE
  5
89F
100
AcDbEntity
  8
RACCORDO
100
AcDbEllipse
 62
7
  6
CONTINUOUS
 10
30.0989810582
 20
31.4183038254
 30
0.0
 11
1.8480888181
 21
0.7655034529
 31
0.0
 40
0.9998215708
 41
-0.3926359958
 42
0.3926359958
  0
ELLIPSE
  5
8A0
100
AcDbEntity
  8
RACCORDO
100
AcDbEllipse
 62
7
  6
CONTINUOUS
 10
30.0989810582
 20
-3.9245895397
 30
0.0
 11
1.8480888181
 21
-0.7655034529
 31
0.0
 40
0.9998215708
 41
-0.3926359958
 42
0.3926359958
  0
ELLIPSE
  5
8A1
100
AcDbEntity
  8
RACCORDO
100
AcDbEllipse
 62
7
  6
CONTINUOUS
 10
11.7995903704
 20
-3.9245895397
 30
0.0
 11
1.8480888181
 21
0.7655034529
 31
0.0
 40
0.9998215708
 41
2.7489566578
 42
3.5342286494
  0
ELLIPSE
  5
8A2
100
AcDbEntity
  8
RACCORDO
100
AcDbEllipse
 62
7
  6
CONTINUOUS
 10
11.7995903704
 20
31.4183038254
 30
0.0
 11
1.8480888181
 21
-0.7655034529
 31
0.0
 40
0.9998215708
 41
2.7489566578
 42
3.5342286494
  0
ELLIPSE
  5
8A3
100
AcDbEntity
  8
0
100
AcDbEllipse
 62
7
  6
CONTINUOUS
 10
18.9493618783
 20
-128.1287852932
 30
0.0
 11
-0.4997620717
 21
162.4815824859
 31
0.0
 40
0.000109066
 41
6.3643762205
 42
6.3764914216
  0
ELLIPSE
  5
8A4
100
AcDbEntity
  8
0
100
AcDbEllipse
 62
7
  6
CONTINUOUS
 10
18.9493618783
 20
155.6224995789
 30
0.0
 11
0.4997620717
 21
162.4815824859
 31
0.0
 40
0.000109066
 41
-3.234898768
 42
-3.2227835669
  0
ELLIPSE
  5
8A5
100
AcDbEntity
  8
0
100
AcDbEllipse
 62
7
  6
CONTINUOUS
 10
22.9492095503
 20
-128.1287852932
 30
0.0
 11
0.4997620717
 21
162.4815824859
 31
0.0
 40
0.000109066
 41
-0.0933061144
 42
-0.0811909133
  0
ELLIPSE
  5
8A6
100
AcDbEntity
  8
0
100
AcDbEllipse
 62
7
  6
CONTINUOUS
 10
22.9492095503
 20
155.6224995789
 30
0.0
 11
-0.4997620717
 21
162.4815824859
 31
0.0
 40
0.000109066
 41
3.2227835669
 42
3.234898768
  0
ELLIPSE
  5
8A7
100
AcDbEntity
  8
RACCORDO
100
AcDbEllipse
 62
7
  6
CONTINUOUS
 10
29.9767956037
 20
31.367692953
 30
0.0
 11
1.8480888181
 21
0.7655034529
 31
0.0
 40
0.9998215708
 41
-0.3926359958
 42
0.3926359958
  0
ELLIPSE
  5
8A8
100
AcDbEntity
  8
RACCORDO
100
AcDbEllipse
 62
7
  6
CONTINUOUS
 10
29.9767956037
 20
-3.8739786673
 30
0.0
 11
-1.8480888181
 21
0.7655034529
 31
0.0
 40
0.9998215708
 41
2.7489566578
 42
3.5342286494
  0
ELLIPSE
  5
8A9
100
AcDbEntity
  8
RACCORDO
100
AcDbEllipse
 62
7
  6
CONTINUOUS
 10
11.9217758249
 20
-3.8739786673
 30
0.0
 11
-1.8480888181
 21
-0.7655034529
 31
0.0
 40
0.9998215708
 41
-0.3926359958
 42
-0.278861721
  0
ELLIPSE
  5
8AA
100
AcDbEntity
  8
RACCORDO
100
AcDbEllipse
 62
7
  6
CONTINUOUS
 10
11.9217758249
 20
-3.8739786673
 30
0.0
 11
-1.8480888181
 21
-0.7655034529
 31
0.0
 40
0.9998215708
 41
6.4756880539
 42
6.675821303
  0
ELLIPSE
  5
8AB
100
AcDbEntity
  8
RACCORDO
100
AcDbEllipse
 62
7
  6
CONTINUOUS
 10
11.9217758249
 20
31.367692953
 30
0.0
 11
1.8480888181
 21
-0.7655034529
 31
0.0
 40
0.9998215708
 41
9.032141965
 42
9.2322752141
  0
ELLIPSE
  5
8AC
100
AcDbEntity
  8
RACCORDO
100
AcDbEllipse
 62
7
  6
CONTINUOUS
 10
11.9217758249
 20
31.367692953
 30
0.0
 11
1.8480888181
 21
-0.7655034529
 31
0.0
 40
0.9998215708
 41
3.4204543746
 42
3.5342286494
  0
ELLIPSE
  5
8AD
100
AcDbEntity
  8
0
100
AcDbEllipse
 62
7
  6
CONTINUOUS
 10
18.4492857143
 20
36.1055508527
 30
0.0
 11
1.0205840068
 21
-0.0
 31
0.0
 40
0.0058178298
 41
-3.1415418822
 42
-2.0892111528
  0
ELLIPSE
  5
8AE
100
AcDbEntity
  8
0
100
AcDbEllipse
 62
7
  6
CONTINUOUS
 10
23.4492857143
 20
36.1055508527
 30
0.0
 11
1.0205840068
 21
-0.0
 31
0.0
 40
0.0058178298
 41
5.2308038064
 42
6.2831345357
  0
ELLIPSE
  5
8AF
100
AcDbEntity
  8
0
100
AcDbEllipse
 62
7
  6
CONTINUOUS
 10
23.4492857143
 20
-8.6118365669
 30
0.0
 11
1.0205840068
 21
-0.0
 31
0.0
 40
0.0058178298
 41
0.0000507714
 42
1.0523815008
  0
ELLIPSE
  5
8B0
100
AcDbEntity
  8
DRAFT
100
AcDbEllipse
 62
7
  6
CONTINUOUS
 10
18.4492857143
 20
33.8088185692
 30
0.0
 11
1.0005407263
 21
-0.0
 31
0.0
 40
0.0087268678
 41
1.5707963268
 42
3.1416688118
  0
ELLIPSE
  5
8B1
100
AcDbEntity
  8
DRAFT
100
AcDbEllipse
 62
7
  6
CONTINUOUS
 10
18.4492857143
 20
-6.3151042834
 30
0.0
 11
1.0005407263
 21
0.0
 31
0.0
 40
0.0087268678
 41
3.1415164954
 42
4.7123889804
  0
ELLIPSE
  5
8B2
100
AcDbEntity
  8
0
100
AcDbEllipse
 62
7
  6
CONTINUOUS
 10
18.4492857143
 20
-8.6118365669
 30
0.0
 11
1.0205840068
 21
0.0
 31
0.0
 40
0.0058178298
 41
2.0892111528
 42
3.1415418822
  0
ELLIPSE
  5
8B3
100
AcDbEntity
  8
DRAFT
100
AcDbEllipse
 62
7
  6
CONTINUOUS
 10
23.4492857143
 20
-6.3151042834
 30
0.0
 11
1.0005407263
 21
0.0
 31
0.0
 40
0.0087268678
 41
-1.5707963268
 42
0.0000761582
  0
ELLIPSE
  5
8B4
100
AcDbEntity
  8
DRAFT
100
AcDbEllipse
 62
7
  6
CONTINUOUS
 10
20.9492857143
 20
-6.4529781614
 30
0.0
 11
14.9982560202
 21
-0.0
 31
0.0
 40
0.0087268678
 41
1.4072992552
 42
1.7342933984
  0
ELLIPSE
  5
8B5
100
AcDbEntity
  8
DRAFT
100
AcDbEllipse
 62
7
  6
CONTINUOUS
 10
20.9492857143
 20
33.9466924471
 30
0.0
 11
14.9982560202
 21
-0.0
 31
0.0
 40
0.0087268678
 41
-1.7342933984
 42
-1.4072992552
  0
ELLIPSE
  5
8B6
100
AcDbEntity
  8
DRAFT
100
AcDbEllipse
 62
7
  6
CONTINUOUS
 10
23.4492857143
 20
33.8088185692
 30
0.0
 11
1.0005407263
 21
0.0
 31
0.0
 40
0.0087268678
 41
-0.0000761582
 42
1.5707963268
  0
ELLIPSE
  5
8B7
100
AcDbEntity
  8
0
100
AcDbEllipse
 62
7
  6
CONTINUOUS
 10
16.9962430044
 20
36.1029502298
 30
0.0
 11
0.4530427099
 21
-0.0
 31
0.0
 40
0.0058178298
 41
-3.1357748894
 42
-0.3023808704
  0
ELLIPSE
  5
8B8
100
AcDbEntity
  8
0
100
AcDbEllipse
 62
7
  6
CONTINUOUS
 10
24.9023284242
 20
36.1029502298
 30
0.0
 11
0.4530427099
 21
0.0
 31
0.0
 40
0.0058178298
 41
-2.8392117832
 42
-0.0058177642
  0
ELLIPSE
  5
8B9
100
AcDbEntity
  8
0
100
AcDbEllipse
 62
7
  6
CONTINUOUS
 10
24.9023284242
 20
-8.609235944
 30
0.0
 11
0.4530427099
 21
0.0
 31
0.0
 40
0.0058178298
 41
0.0058177642
 42
2.8392117832
  0
ELLIPSE
  5
8BA
100
AcDbEntity
  8
0
100
AcDbEllipse
 62
7
  6
CONTINUOUS
 10
16.9962430044
 20
-8.609235944
 30
0.0
 11
0.4530427099
 21
0.0
 31
0.0
 40
0.0058178298
 41
0.3023808704
 42
3.1357748894
  0
ELLIPSE
  5
8BB
100
AcDbEntity
  8
0
100
AcDbEllipse
 62
7
  6
CONTINUOUS
 10
29.1398822178
 20
-7.5891298058
 30
0.0
 11
1.0000571192
 21
0.9999809595
 31
0.0
 40
0.0061705924
 41
1.9467387334
 42
3.1419458735
  0
ELLIPSE
  5
8BC
100
AcDbEntity
  8
0
100
AcDbEllipse
 62
7
  6
CONTINUOUS
 10
12.7586892108
 20
-7.5891298058
 30
0.0
 11
1.0000571192
 21
-0.9999809595
 31
0.0
 40
0.0061705924
 41
-0.0003532199
 42
1.1948539202
  0
ELLIPSE
  5
8BD
100
AcDbEntity
  8
0
100
AcDbEllipse
 62
7
  6
CONTINUOUS
 10
12.7586892108
 20
35.0828440915
 30
0.0
 11
1.0000571192
 21
0.9999809595
 31
0.0
 40
0.0061705924
 41
-1.1948539202
 42
0.0003532199
  0
ELLIPSE
  5
8BE
100
AcDbEntity
  8
0
100
AcDbEllipse
 62
7
  6
CONTINUOUS
 10
29.1398822178
 20
35.0828440915
 30
0.0
 11
1.0000571192
 21
-0.9999809595
 31
0.0
 40
0.0061705924
 41
3.1412394337
 42
4.3364465738
  0
ELLIPSE
  5
8BF
100
AcDbEntity
  8
0
100
AcDbEllipse
 62
7
  6
CONTINUOUS
 10
11.0492899451
 20
-9.6644677225
 30
0.0
 11
-0.0029088041
 21
0.2886641433
 31
0.0
 40
0.8660144118
 41
-0.0087264124
 42
1.5591610446
  0
ELLIPSE
  5
8C0
100
AcDbEntity
  8
0
100
AcDbEllipse
 62
7
  6
CONTINUOUS
 10
13.4492814834
 20
-9.6644677225
 30
0.0
 11
0.0029088041
 21
0.2886641433
 31
0.0
 40
0.8660144118
 41
-1.5591610446
 42
0.0087264124
  0
ELLIPSE
  5
8C1
100
AcDbEntity
  8
0
100
AcDbEllipse
 62
7
  6
CONTINUOUS
 10
28.4492899451
 20
-9.6644677225
 30
0.0
 11
-0.0029088041
 21
0.2886641433
 31
0.0
 40
0.8660144118
 41
-0.0087264124
 42
1.5591610446
  0
ELLIPSE
  5
8C2
100
AcDbEntity
  8
0
100
AcDbEllipse
 62
7
  6
CONTINUOUS
 10
30.8492814834
 20
-9.6644677225
 30
0.0
 11
0.0029088041
 21
0.2886641433
 31
0.0
 40
0.8660144118
 41
-1.5591610446
 42
0.0087264124
  0
ELLIPSE
  5
8C3
100
AcDbEntity
  8
0
100
AcDbEllipse
 62
7
  6
CONTINUOUS
 10
11.0492899451
 20
37.1581820083
 30
0.0
 11
0.0029088041
 21
0.2886641433
 31
0.0
 40
0.8660144118
 41
-4.7007536982
 42
-3.1328662412
  0
ELLIPSE
  5
8C4
100
AcDbEntity
  8
0
100
AcDbEllipse
 62
7
  6
CONTINUOUS
 10
13.4492814834
 20
37.1581820083
 30
0.0
 11
-0.0029088041
 21
0.2886641433
 31
0.0
 40
0.8660144118
 41
-3.150319066
 42
-1.582431609
  0
ELLIPSE
  5
8C5
100
AcDbEntity
  8
0
100
AcDbEllipse
 62
7
  6
CONTINUOUS
 10
30.8492814834
 20
37.1581820083
 30
0.0
 11
-0.0029088041
 21
0.2886641433
 31
0.0
 40
0.8660144118
 41
-3.150319066
 42
-1.582431609
  0
ELLIPSE
  5
8C6
100
AcDbEntity
  8
0
100
AcDbEllipse
 62
7
  6
CONTINUOUS
 10
28.4492899451
 20
37.1581820083
 30
0.0
 11
0.0029088041
 21
0.2886641433
 31
0.0
 40
0.8660144118
 41
-4.7007536982
 42
-3.1328662411
  0
ELLIPSE
  5
8C7
100
AcDbEntity
  8
0
100
AcDbEllipse
 62
7
  6
CONTINUOUS
 10
10.3080316213
 20
-8.1473165656
 30
0.0
 11
0.4160498344
 21
0.2773626446
 31
0.0
 40
0.9999450019
 41
2.5536219432
 42
4.1243675013
  0
ELLIPSE
  5
8C8
100
AcDbEntity
  8
0
100
AcDbEllipse
 62
7
  6
CONTINUOUS
 10
10.3080316213
 20
35.6410308513
 30
0.0
 11
-0.4160498344
 21
0.2773626446
 31
0.0
 40
0.9999450019
 41
-0.9827748477
 42
0.5879707104
  0
ELLIPSE
  5
8C9
100
AcDbEntity
  8
0
100
AcDbEllipse
 62
7
  6
CONTINUOUS
 10
31.5905398073
 20
35.6410308513
 30
0.0
 11
-0.4160498344
 21
-0.2773626446
 31
0.0
 40
0.9999450019
 41
2.5536219432
 42
4.1243675013
  0
ELLIPSE
  5
8CA
100
AcDbEntity
  8
0
100
AcDbEllipse
 62
7
  6
CONTINUOUS
 10
31.5905398073
 20
-8.1473165656
 30
0.0
 11
0.4160498344
 21
-0.2773626446
 31
0.0
 40
0.9999450019
 41
-0.9827748477
 42
0.5879707104
  0
ELLIPSE
  5
8CB
100
AcDbEntity
  8
0
100
AcDbEllipse
 62
7
  6
CONTINUOUS
 10
13.3826400601
 20
35.7006241134
 30
0.0
 11
0.4999904798
 21
0.5000285596
 31
0.0
 40
0.0061705924
 41
-3.1303103451
 42
-2.1029719701
  0
ELLIPSE
  5
8CC
100
AcDbEntity
  8
0
100
AcDbEllipse
 62
7
  6
CONTINUOUS
 10
28.5159313685
 20
35.7006241134
 30
0.0
 11
-0.4999904798
 21
0.5000285596
 31
0.0
 40
0.0061705924
 41
-4.1802133371
 42
-3.1528749621
  0
ELLIPSE
  5
8CD
100
AcDbEntity
  8
0
100
AcDbEllipse
 62
7
  6
CONTINUOUS
 10
28.5159313685
 20
-8.2069098277
 30
0.0
 11
0.4999904798
 21
0.5000285596
 31
0.0
 40
0.0061705924
 41
0.0112823085
 42
1.0386206835
  0
ELLIPSE
  5
8CE
100
AcDbEntity
  8
0
100
AcDbEllipse
 62
7
  6
CONTINUOUS
 10
13.3826400601
 20
-8.2069098277
 30
0.0
 11
-0.4999904798
 21
0.5000285596
 31
0.0
 40
0.0061705924
 41
-1.0386206835
 42
-0.0112823085
  0
ELLIPSE
  5
8CF
100
AcDbEntity
  8
0
100
AcDbEllipse
 62
7
  6
CONTINUOUS
 10
13.3826400601
 20
34.7384892547
 30
0.0
 11
0.5
 21
0.0
 31
0.0
 40
0.0087268678
 41
1.5707963268
 42
3.1241393611
  0
ELLIPSE
  5
8D0
100
AcDbEntity
  8
0
100
AcDbEllipse
 62
7
  6
CONTINUOUS
 10
28.5159313685
 20
34.7384892547
 30
0.0
 11
0.5
 21
0.0
 31
0.0
 40
0.0087268678
 41
0.0174532925
 42
1.5707963268
  0
ELLIPSE
  5
8D1
100
AcDbEntity
  8
0
100
AcDbEllipse
 62
7
  6
CONTINUOUS
 10
28.5159313685
 20
-7.2447749689
 30
0.0
 11
0.5
 21
0.0
 31
0.0
 40
0.0087268678
 41
-1.5707963268
 42
-0.0174532925
  0
ELLIPSE
  5
8D2
100
AcDbEntity
  8
0
100
AcDbEllipse
 62
7
  6
CONTINUOUS
 10
13.3826400601
 20
-7.2447749689
 30
0.0
 11
0.5
 21
-0.0
 31
0.0
 40
0.0087268678
 41
-3.1241393611
 42
-1.5707963268
  0
ELLIPSE
  5
8D3
100
AcDbEntity
  8
0
100
AcDbEllipse
 62
7
  6
CONTINUOUS
 10
22.1578607007
 20
-10.0474279725
 30
0.0
 11
0.1243375101
 21
0.1566832125
 31
0.0
 40
0.9998696711
 41
-4.0415999954
 42
-2.4708544373
  0
ELLIPSE
  5
8D4
100
AcDbEntity
  8
0
100
AcDbEllipse
 62
7
  6
CONTINUOUS
 10
19.7407107278
 20
-10.0474279725
 30
0.0
 11
-0.1243375101
 21
0.1566832125
 31
0.0
 40
0.9998696711
 41
-3.81233087
 42
-2.2415853118
  0
ELLIPSE
  5
8D5
100
AcDbEntity
  8
0
100
AcDbEllipse
 62
7
  6
CONTINUOUS
 10
19.7407107278
 20
37.5411422582
 30
0.0
 11
0.1243375101
 21
0.1566832125
 31
0.0
 40
0.9998696711
 41
-0.9000073418
 42
0.6707382163
  0
ELLIPSE
  5
8D6
100
AcDbEntity
  8
0
100
AcDbEllipse
 62
7
  6
CONTINUOUS
 10
22.1578607007
 20
37.5411422582
 30
0.0
 11
-0.1243375101
 21
0.1566832125
 31
0.0
 40
0.9998696711
 41
-0.6707382165
 42
0.9000073417
  0
ELLIPSE
  5
8D7
100
AcDbEntity
  8
RACCORDO
100
AcDbEllipse
 62
7
  6
CONTINUOUS
 10
22.6318636015
 20
31.3468571429
 30
0.0
 11
-0.3000114235
 21
0.0
 31
0.0
 40
0.9999619231
 41
1.5707963268
 42
2.80137059
  0
ELLIPSE
  5
8D8
100
AcDbEntity
  8
RACCORDO
100
AcDbEllipse
 62
7
  6
CONTINUOUS
 10
31.6623645925
 20
17.1968571429
 30
0.0
 11
-0.3000114235
 21
0.0
 31
0.0
 40
0.9999619231
 41
1.5707963268
 42
3.1415926536
  0
ELLIPSE
  5
8D9
100
AcDbEntity
  8
RACCORDO
100
AcDbEllipse
 62
7
  6
CONTINUOUS
 10
31.6623645925
 20
12.1968571429
 30
0.0
 11
-0.3000114235
 21
0.0
 31
0.0
 40
0.9999619231
 41
1.5707963268
 42
3.1415926536
  0
ELLIPSE
  5
8DA
100
AcDbEntity
  8
RACCORDO
100
AcDbEllipse
 62
7
  6
CONTINUOUS
 10
31.6623645925
 20
7.1968571429
 30
0.0
 11
-0.3000114235
 21
0.0
 31
0.0
 40
0.9999619231
 41
1.5707963268
 42
3.1415926536
  0
ELLIPSE
  5
8DB
100
AcDbEntity
  8
RACCORDO
100
AcDbEllipse
 62
7
  6
CONTINUOUS
 10
31.6623645925
 20
2.1968571429
 30
0.0
 11
-0.3000114235
 21
0.0
 31
0.0
 40
0.9999619231
 41
1.5707963268
 42
3.1415926536
  0
ELLIPSE
  5
8DC
100
AcDbEntity
  8
DRAFT
100
AcDbEllipse
 62
7
  6
CONTINUOUS
 10
30.7907383363
 20
14.7468571429
 30
0.0
 11
0.0
 21
2.15
 31
0.0
 40
0.0087268678
 41
3.1415926536
 42
6.2831853072
  0
ELLIPSE
  5
8DD
100
AcDbEntity
  8
DRAFT
100
AcDbEllipse
 62
7
  6
CONTINUOUS
 10
30.7907383363
 20
-0.2531428571
 30
0.0
 11
0.0
 21
2.15
 31
0.0
 40
0.0087268678
 41
3.1415926536
 42
6.2831853072
  0
ELLIPSE
  5
8DE
100
AcDbEntity
  8
RACCORDO
100
AcDbEllipse
 62
7
  6
CONTINUOUS
 10
24.6623645925
 20
-5.5662217353
 30
0.0
 11
-0.2121481893
 21
0.2121481893
 31
0.0
 40
0.9999238505
 41
2.3562325664
 42
3.9269527408
  0
ELLIPSE
  5
8DF
100
AcDbEntity
  8
RACCORDO
100
AcDbEllipse
 62
7
  6
CONTINUOUS
 10
11.5580928687
 20
-4.8661950804
 30
0.0
 11
-0.3827005044
 21
-0.9239207481
 31
0.0
 40
0.9999553905
 41
-0.3926833098
 42
0.3926833098
  0
ELLIPSE
  5
8E0
100
AcDbEntity
  8
RACCORDO
100
AcDbEllipse
 62
7
  6
CONTINUOUS
 10
10.936233491
 20
-4.2443357027
 30
0.0
 11
-0.9239207481
 21
-0.3827005044
 31
0.0
 40
0.9999553905
 41
-0.3926833098
 42
0.3926833098
  0
ELLIPSE
  5
8E1
100
AcDbEntity
  8
RACCORDO
100
AcDbEllipse
 62
7
  6
CONTINUOUS
 10
10.936233491
 20
31.7380499884
 30
0.0
 11
-0.9239207481
 21
0.3827005044
 31
0.0
 40
0.9999553905
 41
-0.3926833098
 42
0.3926833098
  0
ELLIPSE
  5
8E2
100
AcDbEntity
  8
RACCORDO
100
AcDbEllipse
 62
7
  6
CONTINUOUS
 10
11.5580928687
 20
32.3599093662
 30
0.0
 11
0.3827005044
 21
-0.9239207481
 31
0.0
 40
0.9999553905
 41
2.7489093438
 42
3.5342759634
  0
ELLIPSE
  5
8E3
100
AcDbEntity
  8
RACCORDO
100
AcDbEllipse
 62
7
  6
CONTINUOUS
 10
24.6623645925
 20
33.059936021
 30
0.0
 11
0.2121481893
 21
0.2121481893
 31
0.0
 40
0.9999238505
 41
-0.7853600872
 42
0.7853600872
  0
ELLIPSE
  5
8E4
100
AcDbEntity
  8
RACCORDO
100
AcDbEllipse
 62
7
  6
CONTINUOUS
 10
30.3404785598
 20
30.9599093662
 30
0.0
 11
0.3827005044
 21
0.9239207481
 31
0.0
 40
0.9999553905
 41
-0.3926833098
 42
0.3926833098
  0
ELLIPSE
  5
8E5
100
AcDbEntity
  8
RACCORDO
100
AcDbEllipse
 62
7
  6
CONTINUOUS
 10
30.9623379376
 20
30.3380499884
 30
0.0
 11
-0.9239207481
 21
-0.3827005044
 31
0.0
 40
0.9999553905
 41
2.7489093438
 42
3.5342759634
  0
ELLIPSE
  5
8E6
100
AcDbEntity
  8
DRAFT
100
AcDbEllipse
 62
7
  6
CONTINUOUS
 10
30.7907383363
 20
4.7468571429
 30
0.0
 11
0.0
 21
2.15
 31
0.0
 40
0.0087268678
 41
3.1415926536
 42
6.2831853072
  0
ELLIPSE
  5
8E7
100
AcDbEntity
  8
RACCORDO
100
AcDbEllipse
 62
7
  6
CONTINUOUS
 10
31.6623645925
 20
12.2968571429
 30
0.0
 11
0.3000114235
 21
-0.0
 31
0.0
 40
0.9999619231
 41
0.0
 42
1.5707963268
  0
ELLIPSE
  5
8E8
100
AcDbEntity
  8
DRAFT
100
AcDbEllipse
 62
7
  6
CONTINUOUS
 10
30.7907383363
 20
9.7468571429
 30
0.0
 11
0.0
 21
2.15
 31
0.0
 40
0.0087268678
 41
3.1415926536
 42
6.2831853072
  0
ELLIPSE
  5
8E9
100
AcDbEntity
  8
RACCORDO
100
AcDbEllipse
 62
7
  6
CONTINUOUS
 10
31.6623645925
 20
7.2968571429
 30
0.0
 11
0.3000114235
 21
-0.0
 31
0.0
 40
0.9999619231
 41
0.0
 42
1.5707963268
  0
ELLIPSE
  5
8EA
100
AcDbEntity
  8
RACCORDO
100
AcDbEllipse
 62
7
  6
CONTINUOUS
 10
31.6623645925
 20
2.2968571429
 30
0.0
 11
0.3000114235
 21
-0.0
 31
0.0
 40
0.9999619231
 41
0.0
 42
1.5707963268
  0
ELLIPSE
  5
8EB
100
AcDbEntity
  8
RACCORDO
100
AcDbEllipse
 62
7
  6
CONTINUOUS
 10
31.6623645925
 20
-2.7031428571
 30
0.0
 11
0.3000114235
 21
-0.0
 31
0.0
 40
0.9999619231
 41
0.0
 42
1.5707963268
  0
ELLIPSE
  5
8EC
100
AcDbEntity
  8
RACCORDO
100
AcDbEllipse
 62
7
  6
CONTINUOUS
 10
30.9623379376
 20
-2.8443357027
 30
0.0
 11
0.9239207481
 21
-0.3827005044
 31
0.0
 40
0.9999553905
 41
-0.3926833098
 42
0.3926833098
  0
ELLIPSE
  5
8ED
100
AcDbEntity
  8
RACCORDO
100
AcDbEllipse
 62
7
  6
CONTINUOUS
 10
30.3404785598
 20
-3.4661950804
 30
0.0
 11
0.3827005044
 21
-0.9239207481
 31
0.0
 40
0.9999553905
 41
-0.3926833098
 42
0.3926833098
  0
ELLIPSE
  5
8EE
100
AcDbEntity
  8
RACCORDO
100
AcDbEllipse
 62
7
  6
CONTINUOUS
 10
25.2623874395
 20
-4.7662445823
 30
0.0
 11
0.2121481893
 21
-0.2121481893
 31
0.0
 40
0.9999238505
 41
2.3562325664
 42
3.9269527408
  0
ELLIPSE
  5
8EF
100
AcDbEntity
  8
RACCORDO
100
AcDbEllipse
 62
7
  6
CONTINUOUS
 10
19.2667078271
 20
31.3468571429
 30
0.0
 11
-0.3000114235
 21
0.0
 31
0.0
 40
0.9999619231
 41
0.3402220636
 42
1.5707963268
  0
ELLIPSE
  5
8F0
100
AcDbEntity
  8
RACCORDO
100
AcDbEllipse
 62
7
  6
CONTINUOUS
 10
19.3452926835
 20
-3.8531428571
 30
0.0
 11
0.3000114235
 21
-0.0
 31
0.0
 40
0.9999619231
 41
1.5707963268
 42
2.80137059
  0
ELLIPSE
  5
8F1
100
AcDbEntity
  8
RACCORDO
100
AcDbEllipse
 62
7
  6
CONTINUOUS
 10
22.5532787451
 20
-3.8531428571
 30
0.0
 11
0.3000114235
 21
-0.0
 31
0.0
 40
0.9999619231
 41
0.3402220636
 42
1.5707963268
  0
ELLIPSE
  5
8F2
100
AcDbEntity
  8
ASSI
100
AcDbEllipse
 62
7
  6
CONTINUOUS
 10
24.6623645925
 20
-5.5662217353
 30
0.0
 11
-0.2121481893
 21
0.2121481893
 31
0.0
 40
0.9999238505
 41
2.3562325664
 42
3.9269527408
  0
ELLIPSE
  5
8F3
100
AcDbEntity
  8
ASSI
100
AcDbEllipse
 62
7
  6
CONTINUOUS
 10
11.5580928687
 20
-4.8661950804
 30
0.0
 11
-0.3827005044
 21
-0.9239207481
 31
0.0
 40
0.9999553905
 41
-0.3926833098
 42
0.3926833098
  0
ELLIPSE
  5
8F4
100
AcDbEntity
  8
ASSI
100
AcDbEllipse
 62
7
  6
CONTINUOUS
 10
10.936233491
 20
-4.2443357027
 30
0.0
 11
-0.9239207481
 21
-0.3827005044
 31
0.0
 40
0.9999553905
 41
-0.3926833098
 42
0.3926833098
  0
ELLIPSE
  5
8F5
100
AcDbEntity
  8
ASSI
100
AcDbEllipse
 62
7
  6
CONTINUOUS
 10
10.936233491
 20
31.7380499884
 30
0.0
 11
-0.9239207481
 21
0.3827005044
 31
0.0
 40
0.9999553905
 41
-0.3926833098
 42
0.3926833098
  0
ELLIPSE
  5
8F6
100
AcDbEntity
  8
ASSI
100
AcDbEllipse
 62
7
  6
CONTINUOUS
 10
11.5580928687
 20
32.3599093662
 30
0.0
 11
0.3827005044
 21
-0.9239207481
 31
0.0
 40
0.9999553905
 41
2.7489093438
 42
3.5342759634
  0
ELLIPSE
  5
8F7
100
AcDbEntity
  8
ASSI
100
AcDbEllipse
 62
7
  6
CONTINUOUS
 10
24.6623645925
 20
33.059936021
 30
0.0
 11
0.2121481893
 21
0.2121481893
 31
0.0
 40
0.9999238505
 41
-0.7853600872
 42
0.7853600872
  0
ELLIPSE
  5
8F8
100
AcDbEntity
  8
ASSI
100
AcDbEllipse
 62
7
  6
CONTINUOUS
 10
30.3404785598
 20
30.9599093662
 30
0.0
 11
0.3827005044
 21
0.9239207481
 31
0.0
 40
0.9999553905
 41
-0.3926833098
 42
0.3926833098
  0
ELLIPSE
  5
8F9
100
AcDbEntity
  8
ASSI
100
AcDbEllipse
 62
7
  6
CONTINUOUS
 10
30.9623379376
 20
30.3380499884
 30
0.0
 11
-0.9239207481
 21
-0.3827005044
 31
0.0
 40
0.9999553905
 41
2.7489093438
 42
3.5342759634
  0
ELLIPSE
  5
8FA
100
AcDbEntity
  8
ASSI
100
AcDbEllipse
 62
7
  6
CONTINUOUS
 10
31.6623645925
 20
12.2968571429
 30
0.0
 11
0.3000114235
 21
-0.0
 31
0.0
 40
0.9999619231
 41
0.0
 42
1.5707963268
  0
ELLIPSE
  5
8FB
100
AcDbEntity
  8
ASSI
100
AcDbEllipse
 62
7
  6
CONTINUOUS
 10
31.6623645925
 20
7.2968571429
 30
0.0
 11
0.3000114235
 21
-0.0
 31
0.0
 40
0.9999619231
 41
0.0
 42
1.5707963268
  0
ELLIPSE
  5
8FC
100
AcDbEntity
  8
ASSI
100
AcDbEllipse
 62
7
  6
CONTINUOUS
 10
31.6623645925
 20
2.2968571429
 30
0.0
 11
0.3000114235
 21
-0.0
 31
0.0
 40
0.9999619231
 41
0.0
 42
1.5707963268
  0
ELLIPSE
  5
8FD
100
AcDbEntity
  8
ASSI
100
AcDbEllipse
 62
7
  6
CONTINUOUS
 10
31.6623645925
 20
-2.7031428571
 30
0.0
 11
0.3000114235
 21
-0.0
 31
0.0
 40
0.9999619231
 41
0.0
 42
1.5707963268
  0
ELLIPSE
  5
8FE
100
AcDbEntity
  8
ASSI
100
AcDbEllipse
 62
7
  6
CONTINUOUS
 10
30.9623379376
 20
-2.8443357027
 30
0.0
 11
0.9239207481
 21
-0.3827005044
 31
0.0
 40
0.9999553905
 41
-0.3926833098
 42
0.3926833098
  0
ELLIPSE
  5
8FF
100
AcDbEntity
  8
ASSI
100
AcDbEllipse
 62
7
  6
CONTINUOUS
 10
30.3404785598
 20
-3.4661950804
 30
0.0
 11
0.3827005044
 21
-0.9239207481
 31
0.0
 40
0.9999553905
 41
-0.3926833098
 42
0.3926833098
  0
ELLIPSE
  5
900
100
AcDbEntity
  8
ASSI
100
AcDbEllipse
 62
7
  6
CONTINUOUS
 10
19.2667078271
 20
31.3468571429
 30
0.0
 11
-0.3000114235
 21
0.0
 31
0.0
 40
0.9999619231
 41
0.3402220636
 42
1.5707963268
  0
ELLIPSE
  5
901
100
AcDbEntity
  8
ASSI
100
AcDbEllipse
 62
7
  6
CONTINUOUS
 10
19.3452926835
 20
-3.8531428571
 30
0.0
 11
0.3000114235
 21
-0.0
 31
0.0
 40
0.9999619231
 41
1.5707963268
 42
2.80137059
  0
ELLIPSE
  5
902
100
AcDbEntity
  8
ASSI
100
AcDbEllipse
 62
7
  6
CONTINUOUS
 10
22.5532787451
 20
-3.8531428571
 30
0.0
 11
0.3000114235
 21
-0.0
 31
0.0
 40
0.9999619231
 41
0.3402220636
 42
1.5707963268
  0
ELLIPSE
  5
903
100
AcDbEntity
  8
ASSI
100
AcDbEllipse
 62
7
  6
CONTINUOUS
 10
22.6318636015
 20
31.3468571429
 30
0.0
 11
-0.3000114235
 21
0.0
 31
0.0
 40
0.9999619231
 41
1.5707963268
 42
2.80137059
  0
ELLIPSE
  5
904
100
AcDbEntity
  8
ASSI
100
AcDbEllipse
 62
7
  6
CONTINUOUS
 10
31.6623645925
 20
17.1968571429
 30
0.0
 11
-0.3000114235
 21
0.0
 31
0.0
 40
0.9999619231
 41
1.5707963268
 42
3.1415926536
  0
ELLIPSE
  5
905
100
AcDbEntity
  8
ASSI
100
AcDbEllipse
 62
7
  6
CONTINUOUS
 10
31.6623645925
 20
12.1968571429
 30
0.0
 11
-0.3000114235
 21
0.0
 31
0.0
 40
0.9999619231
 41
1.5707963268
 42
3.1415926536
  0
ELLIPSE
  5
906
100
AcDbEntity
  8
ASSI
100
AcDbEllipse
 62
7
  6
CONTINUOUS
 10
31.6623645925
 20
7.1968571429
 30
0.0
 11
-0.3000114235
 21
0.0
 31
0.0
 40
0.9999619231
 41
1.5707963268
 42
3.1415926536
  0
ELLIPSE
  5
907
100
AcDbEntity
  8
ASSI
100
AcDbEllipse
 62
7
  6
CONTINUOUS
 10
31.6623645925
 20
2.1968571429
 30
0.0
 11
-0.3000114235
 21
0.0
 31
0.0
 40
0.9999619231
 41
1.5707963268
 42
3.1415926536
  0
ELLIPSE
  5
908
100
AcDbEntity
  8
ASSI
100
AcDbEllipse
 62
7
  6
CONTINUOUS
 10
30.7907383363
 20
14.7468571429
 30
0.0
 11
0.0
 21
2.15
 31
0.0
 40
0.0087268678
 41
3.1415926536
 42
6.2831853072
  0
ELLIPSE
  5
909
100
AcDbEntity
  8
ASSI
100
AcDbEllipse
 62
7
  6
CONTINUOUS
 10
30.7907383363
 20
-0.2531428571
 30
0.0
 11
0.0
 21
2.15
 31
0.0
 40
0.0087268678
 41
3.1415926536
 42
6.2831853072
  0
ELLIPSE
  5
90A
100
AcDbEntity
  8
ASSI
100
AcDbEllipse
 62
7
  6
CONTINUOUS
 10
30.7907383363
 20
4.7468571429
 30
0.0
 11
0.0
 21
2.15
 31
0.0
 40
0.0087268678
 41
3.1415926536
 42
6.2831853072
  0
ELLIPSE
  5
90B
100
AcDbEntity
  8
ASSI
100
AcDbEllipse
 62
7
  6
CONTINUOUS
 10
30.7907383363
 20
9.7468571429
 30
0.0
 11
0.0
 21
2.15
 31
0.0
 40
0.0087268678
 41
3.1415926536
 42
6.2831853072
  0
ELLIPSE
  5
90C
100
AcDbEntity
  8
ASSI
100
AcDbEllipse
 62
7
  6
CONTINUOUS
 10
25.2623874395
 20
-4.7662445823
 30
0.0
 11
0.2121481893
 21
-0.2121481893
 31
0.0
 40
0.9999238505
 41
2.3562325664
 42
3.9269527408
  0
ENDSEC
  0
SECTION
  2
OBJECTS
  0
DICTIONARY
  5
C
100
AcDbDictionary
280
0
281
1
  3
ACAD_GROUP
350
D
  3
ACAD_MLINESTYLE
350
17
  3
ACAD_LAYOUT
350
1A
  3
ACAD_PLOTSETTINGS
350
19
  3
ACAD_PLOTSTYLENAME
350
E
  0
DICTIONARY
  5
D
102
{ACAD_REACTORS
330
C
102
}
100
AcDbDictionary
280
0
281
1
  0
ACDBDICTIONARYWDFLT
  5
E
102
{ACAD_REACTORS
330
C
102
}
100
AcDbDictionary
281
1
  3
Normal
350
F
100
AcDbDictionaryWithDefault
340
F
  0
DICTIONARY
  5
17
102
{ACAD_REACTORS
330
C
102
}
100
AcDbDictionary
280
0
281
1
  3
Standard
350
18
  0
DICTIONARY
  5
19
102
{ACAD_REACTORS
330
C
102
}
100
AcDbDictionary
281
1
  0
DICTIONARY
  5
1A
102
{ACAD_REACTORS
330
C
102
}
100
AcDbDictionary
281
1
  3
Model
350
90D
  3
Layout1
350
90E
  0
ACDBPLACEHOLDER
  5
F
102
{ACAD_REACTORS
330
E
102
}
  0
MLINESTYLE
  5
18
102
{ACAD_REACTORS
330
17
102
}
100
AcDbMlineStyle
  2
STANDARD
 70
0
  3

 62
256
 51
90.0
 52
90.0
 71
2
 49
0.5
 62
256
  6
BYLAYER
 49
-0.5
 62
256
  6
BYLAYER
  0
LAYOUT
  5
90D
102
{ACAD_REACTORS
330
1A
102
}
100
AcDbPlotSettings
  1

  2
none_device
  4
ISO_A4_(297.00_x_210.00_MM)
  6

 40
0.0
 41
0.0
 42
0.0
 43
0.0
 44
297.0
 45
210.0
 46
0.0
 47
0.0
 48
0.0
 49
0.0
140
0.0
141
0.0
142
1.0
143
1.0
 70
1024
 72
1
 73
0
 74
0
  7

 75
0
147
1.0
148
0.0
149
0.0
100
AcDbLayout
  1
Model
 70
0
 71
0
 10
0.0
 20
0.0
 11
297.0
 21
210.0
 12
0.0
 22
0.0
 32
0.0
 14
0.0
 24
0.0
 34
0.0
 15
0.0
 25
0.0
 35
0.0
146
0.0
 13
0.0
 23
0.0
 33
0.0
 16
1.0
 26
0.0
 36
0.0
 17
0.0
 27
1.0
 37
0.0
 76
0
330
22A
345
0
346
0
  0
LAYOUT
  5
90E
102
{ACAD_REACTORS
330
1A
102
}
100
AcDbPlotSettings
  1

  2
none_device
  4
ISO_A4_(297.00_x_210.00_MM)
  6

 40
0.0
 41
0.0
 42
0.0
 43
0.0
 44
297.0
 45
210.0
 46
0.0
 47
0.0
 48
0.0
 49
0.0
140
0.0
141
0.0
142
1.0
143
1.0
 70
0
 72
1
 73
0
 74
0
  7

 75
0
147
1.0
148
0.0
149
0.0
100
AcDbLayout
  1
Layout1
 70
0
 71
1
 10
0.0
 20
0.0
 11
297.0
 21
210.0
 12
0.0
 22
0.0
 32
0.0
 14
0.0
 24
0.0
 34
0.0
 15
0.0
 25
0.0
 35
0.0
146
0.0
 13
0.0
 23
0.0
 33
0.0
 16
1.0
 26
0.0
 36
0.0
 17
0.0
 27
1.0
 37
0.0
 76
0
330
22B
345
0
346
0
  0
ENDSEC
  0
EOF
