  0
SECTION
  2
HEADER
  9
$ACADVER
  1
AC1015
  9
$DWGCODEPAGE
  3
ANSI_1252
  9
$EXTMAX
 10
558.8
 20
431.8
 30
0.0
  9
$EXTMIN
 10
0.0
 20
0.0
 30
0.0
  9
$LIMMIN
 10
0.0
 20
0.0
  9
$LIMMAX
 10
558.8
 20
431.8
  9
$VIEWCTR
 10
279.4
 20
215.9
  9
$VIEWSIZE
 40
431.8
  9
$CLAYER
  8
0
  9
$LTSCALE
 40
30.734
  9
$CELTYPE
  6
BYLAYER
  9
$DIMSCALE
 40
1.0
  9
$DIMASZ
 40
3.0
  9
$DIMEXO
 40
3.4925
  9
$DIMDLI
 40
21.2344
  9
$DIMEXE
 40
10.0584
  9
$DIMCEN
 40
5.0292
  9
$DIMLFAC
 40
1.0
  9
$DIMBLK
  1
_FILLED
  9
$DIMTXT
 40
3.0
  9
$DIMTOL
 70
1
  9
$DIMLIM
 70
0
  9
$DIMTFAC
 40
1.0
  9
$DIMTP
 40
0.01
  9
$DIMTM
 40
0.01
  9
$PDMODE
 70
3
  9
$PDSIZE
 40
3.0
  9
$HANDSEED
  5
79A
  9
$TILEMODE
 70
1
  9
$MEASUREMENT
 70
1
  9
$INSUNITS
 70
4
  0
ENDSEC
  0
SECTION
  2
CLASSES
  0
CLASS
  1
ACDBDICTIONARYWDFLT
  2
AcDbDictionaryWithDefault
  3
AutoCAD 2000
 90
0
280
0
281
0
  0
CLASS
  1
ACDBPLACEHOLDER
  2
AcDbPlaceHolder
  3
AutoCAD 2000
 90
0
280
0
281
0
  0
CLASS
  1
LAYOUT
  2
AcDbLayout
  3
AutoCAD 2000
 90
0
280
0
281
0
  0
ENDSEC
  0
SECTION
  2
TABLES
  0
TABLE
  2
VPORT
  5
8
100
AcDbSymbolTable
 70
2
  0
VPORT
  5
1F4
100
AcDbSymbolTableRecord
100
AcDbViewportTableRecord
  2
*ACTIVE
 70
0
 10
0.0
 20
0.0
 11
1.0
 21
1.0
 12
279.4
 22
215.9
 13
0.0
 23
0.0
 14
1.0
 24
1.0
 15
0.0
 25
0.0
 16
0.0
 26
0.0
 36
1.0
 17
0.0
 27
0.0
 37
0.0
 40
431.8
 41
1.2941176471
 42
50.0
 43
0.0
 44
0.0
 50
0.0
 51
0.0
 71
0
 72
100
 73
1
 74
1
 75
0
 76
0
 77
0
 78
0
  0
ENDTAB
  0
TABLE
  2
LTYPE
  5
5
100
AcDbSymbolTable
 70
6
  0
LTYPE
  5
14
100
AcDbSymbolTableRecord
100
AcDbLinetypeTableRecord
  2
BYBLOCK
 70
0
  3

 72
65
 73
0
 40
0.0
  0
LTYPE
  5
15
100
AcDbSymbolTableRecord
100
AcDbLinetypeTableRecord
  2
BYLAYER
 70
0
  3

 72
65
 73
0
 40
0.0
  0
LTYPE
  5
16
100
AcDbSymbolTableRecord
100
AcDbLinetypeTableRecord
  2
CONTINUOUS
 70
64
  3
Solid line
 72
65
 73
0
 40
0.0
  0
LTYPE
  5
1F5
100
AcDbSymbolTableRecord
100
AcDbLinetypeTableRecord
  2
CENTER
 70
64
  3
____ _ ____ _ ____ _ ____ _ ____ _ ____ _ ____
 72
65
 73
4
 40
0.6
 49
0.375
 74
0
 49
-0.075
 74
0
 49
0.075
 74
0
 49
-0.075
 74
0
  0
LTYPE
  5
1F6
100
AcDbSymbolTableRecord
100
AcDbLinetypeTableRecord
  2
HIDDEN
 70
64
  3
- - - - - - - - - - - - - - - - - - - -
 72
65
 73
2
 40
0.2
 49
0.1
 74
0
 49
-0.1
 74
0
  0
LTYPE
  5
1F7
100
AcDbSymbolTableRecord
100
AcDbLinetypeTableRecord
  2
PHANTOM
 70
64
  3
_____ _ _ _____ _ _ _____ _ _ _____
 72
65
 73
6
 40
0.8
 49
0.45
 74
0
 49
-0.05
 74
0
 49
0.1
 74
0
 49
-0.05
 74
0
 49
0.1
 74
0
 49
-0.05
 74
0
  0
LTYPE
  5
1F8
100
AcDbSymbolTableRecord
100
AcDbLinetypeTableRecord
  2
DOT
 70
64
  3
. . . . . . . . . . . . . . . . . . . .
 72
65
 73
2
 40
0.2
 49
0.1
 74
0
 49
-0.1
 74
0
  0
LTYPE
  5
1F9
100
AcDbSymbolTableRecord
100
AcDbLinetypeTableRecord
  2
DASHED
 70
64
  3
- - - - - - - - - - - - - - - - - - - -
 72
65
 73
2
 40
0.2
 49
0.1
 74
0
 49
-0.1
 74
0
  0
ENDTAB
  0
TABLE
  2
LAYER
  5
2
100
AcDbSymbolTable
 70
36
  0
LAYER
  5
10
100
AcDbSymbolTableRecord
100
AcDbLayerTableRecord
  2
0
 70
0
 62
7
  6
CONTINUOUS
370
-3
390
F
  0
LAYER
  5
1FA
100
AcDbSymbolTableRecord
100
AcDbLayerTableRecord
  2
DEFAULT_1
 70
0
 62
7
  6
CENTER
370
-3
390
F
  0
LAYER
  5
1FB
100
AcDbSymbolTableRecord
100
AcDbLayerTableRecord
  2
DEFAULT_2
 70
0
 62
7
  6
HIDDEN
370
-3
390
F
  0
LAYER
  5
1FC
100
AcDbSymbolTableRecord
100
AcDbLayerTableRecord
  2
DEFAULT_3
 70
0
 62
7
  6
PHANTOM
370
-3
390
F
  0
LAYER
  5
1FD
100
AcDbSymbolTableRecord
100
AcDbLayerTableRecord
  2
ASSI
 70
0
 62
7
  6
CONTINUOUS
370
-3
390
F
  0
LAYER
  5
1FE
100
AcDbSymbolTableRecord
100
AcDbLayerTableRecord
  2
COORDINATE
 70
0
 62
7
  6
CONTINUOUS
370
-3
390
F
  0
LAYER
  5
1FF
100
AcDbSymbolTableRecord
100
AcDbLayerTableRecord
  2
COORD_ORIGINE
 70
0
 62
7
  6
CONTINUOUS
370
-3
390
F
  0
LAYER
  5
200
100
AcDbSymbolTableRecord
100
AcDbLayerTableRecord
  2
COPY_PUBLISH
 70
0
 62
7
  6
CONTINUOUS
370
-3
390
F
  0
LAYER
  5
201
100
AcDbSymbolTableRecord
100
AcDbLayerTableRecord
  2
COSMETIC
 70
0
 62
7
  6
CONTINUOUS
370
-3
390
F
  0
LAYER
  5
202
100
AcDbSymbolTableRecord
100
AcDbLayerTableRecord
  2
CURVE
 70
0
 62
7
  6
CONTINUOUS
370
-3
390
F
  0
LAYER
  5
203
100
AcDbSymbolTableRecord
100
AcDbLayerTableRecord
  2
DRAFT
 70
0
 62
7
  6
CONTINUOUS
370
-3
390
F
  0
LAYER
  5
204
100
AcDbSymbolTableRecord
100
AcDbLayerTableRecord
  2
IMPORT_IGES
 70
0
 62
7
  6
CONTINUOUS
370
-3
390
F
  0
LAYER
  5
205
100
AcDbSymbolTableRecord
100
AcDbLayerTableRecord
  2
NOTE
 70
0
 62
7
  6
CONTINUOUS
370
-3
390
F
  0
LAYER
  5
206
100
AcDbSymbolTableRecord
100
AcDbLayerTableRecord
  2
PIANI
 70
0
 62
7
  6
CONTINUOUS
370
-3
390
F
  0
LAYER
  5
207
100
AcDbSymbolTableRecord
100
AcDbLayerTableRecord
  2
PIANI_ORIGINE
 70
0
 62
7
  6
CONTINUOUS
370
-3
390
F
  0
LAYER
  5
208
100
AcDbSymbolTableRecord
100
AcDbLayerTableRecord
  2
PIANI_RIFERIMENTO
 70
0
 62
7
  6
CONTINUOUS
370
-3
390
F
  0
LAYER
  5
209
100
AcDbSymbolTableRecord
100
AcDbLayerTableRecord
  2
PIANI_SFORMI
 70
0
 62
7
  6
CONTINUOUS
370
-3
390
F
  0
LAYER
  5
20A
100
AcDbSymbolTableRecord
100
AcDbLayerTableRecord
  2
PUNTI
 70
0
 62
7
  6
CONTINUOUS
370
-3
390
F
  0
LAYER
  5
20B
100
AcDbSymbolTableRecord
100
AcDbLayerTableRecord
  2
RACCORDO
 70
0
 62
7
  6
CONTINUOUS
370
-3
390
F
  0
LAYER
  5
20C
100
AcDbSymbolTableRecord
100
AcDbLayerTableRecord
  2
SKEL
 70
0
 62
7
  6
CONTINUOUS
370
-3
390
F
  0
LAYER
  5
20D
100
AcDbSymbolTableRecord
100
AcDbLayerTableRecord
  2
SMUSSO
 70
0
 62
7
  6
CONTINUOUS
370
-3
390
F
  0
LAYER
  5
20E
100
AcDbSymbolTableRecord
100
AcDbLayerTableRecord
  2
SNAPLINE
 70
0
 62
7
  6
CONTINUOUS
370
-3
390
F
  0
LAYER
  5
20F
100
AcDbSymbolTableRecord
100
AcDbLayerTableRecord
  2
SUPERFICI
 70
0
 62
7
  6
CONTINUOUS
370
-3
390
F
  0
LAYER
  5
210
100
AcDbSymbolTableRecord
100
AcDbLayerTableRecord
  2
TRASH
 70
0
 62
7
  6
CONTINUOUS
370
-3
390
F
  0
LAYER
  5
211
100
AcDbSymbolTableRecord
100
AcDbLayerTableRecord
  2
XSEC_DATUMS
 70
0
 62
7
  6
CONTINUOUS
370
-3
390
F
  0
ENDTAB
  0
TABLE
  2
STYLE
  5
3
100
AcDbSymbolTable
 70
1
  0
STYLE
  5
11
100
AcDbSymbolTableRecord
100
AcDbTextStyleTableRecord
  2
STANDARD
 70
0
 40
0.0
 41
0.8
 50
0.0
 71
0
 42
0.2
  3
txt
  4

  0
STYLE
  5
212
100
AcDbSymbolTableRecord
100
AcDbTextStyleTableRecord
  2
TEXTSTYLE_1
 70
0
 40
0.0
 41
0.8
 50
0.0
 71
0
 42
0.2
  3
gdt
  4

  0
ENDTAB
  0
TABLE
  2
VIEW
  5
6
100
AcDbSymbolTable
 70
0
  0
ENDTAB
  0
TABLE
  2
UCS
  5
7
100
AcDbSymbolTable
 70
0
  0
ENDTAB
  0
TABLE
  2
APPID
  5
9
100
AcDbSymbolTable
 70
1
  0
APPID
  5
213
100
AcDbSymbolTableRecord
100
AcDbRegAppTableRecord
  2
ACAD
 70
0
  0
ENDTAB
  0
TABLE
  2
BLOCK_RECORD
  5
1
100
AcDbSymbolTable
 70
0
  0
BLOCK_RECORD
  5
214
100
AcDbSymbolTableRecord
100
AcDbBlockTableRecord
  2
*Model_Space
  0
BLOCK_RECORD
  5
215
100
AcDbSymbolTableRecord
100
AcDbBlockTableRecord
  2
*Paper_Space
  0
ENDTAB
  0
TABLE
  2
DIMSTYLE
  5
A
100
AcDbSymbolTable
 70
1
100
AcDbDimStyleTable
 71
0
  0
DIMSTYLE
105
216
100
AcDbSymbolTableRecord
100
AcDbDimStyleTableRecord
  2
STANDARD
 70
0
  3

  4

 40
1.0
 41
3.0
 42
0.0625
 43
0.38
 44
0.18
 45
0.0
 46
0.0
 47
0.01
 48
0.01
140
3.0
141
0.09
142
0.0
143
25.4
144
1.0
145
0.0
146
1.0
147
0.09
 71
1.0
 72
0.0
 73
0
 74
0
 75
0
 76
0
 77
1
 78
8
170
0
171
2
172
0
173
0
174
0
175
0
176
0
177
0
178
0
270
2
271
2
272
2
273
2
274
2
275
0
280
0
281
0
282
0
283
1
284
8
285
0
286
0
287
3
288
0
340
11
  0
ENDTAB
  0
ENDSEC
  0
SECTION
  2
BLOCKS
  0
BLOCK
  5
20
100
AcDbEntity
  8
0
100
AcDbBlockBegin
  2
*Model_Space
 70
0
 10
0.0
 20
0.0
 30
0.0
  3
*Model_Space
  1

  0
ENDBLK
  5
21
100
AcDbEntity
  8
0
100
AcDbBlockEnd
  0
BLOCK
  5
1C
100
AcDbEntity
  8
0
100
AcDbBlockBegin
  2
*Paper_Space
 70
0
 10
0.0
 20
0.0
 30
0.0
  3
*Paper_Space
  1

  0
ENDBLK
  5
1D
100
AcDbEntity
  8
0
100
AcDbBlockEnd
  0
ENDSEC
  0
SECTION
  2
ENTITIES
  0
LINE
  5
217
100
AcDbEntity
  8
ASSI
100
AcDbLine
 62
7
  6
CONTINUOUS
 10
-9.8956323968
 20
-24.495628166
 11
-7.5043676032
 21
-24.495628166
  0
LINE
  5
218
100
AcDbEntity
  8
0
100
AcDbLine
 62
7
  6
CONTINUOUS
 10
-9.8956323968
 20
-24.495628166
 11
-7.5043676032
 21
-24.495628166
  0
LINE
  5
219
100
AcDbEntity
  8
ASSI
100
AcDbLine
 62
7
  6
CONTINUOUS
 10
7.5043676032
 20
-24.495628166
 11
9.8956323968
 21
-24.495628166
  0
LINE
  5
21A
100
AcDbEntity
  8
0
100
AcDbLine
 62
7
  6
CONTINUOUS
 10
7.5043676032
 20
-24.495628166
 11
9.8956323968
 21
-24.495628166
  0
LINE
  5
21B
100
AcDbEntity
  8
ASSI
100
AcDbLine
 62
253
  6
CONTINUOUS
 10
7.254371834
 20
-24.2456323968
 11
10.145628166
 21
-24.2456323968
  0
LINE
  5
21C
100
AcDbEntity
  8
0
100
AcDbLine
 62
253
  6
CONTINUOUS
 10
7.254371834
 20
-24.2456323968
 11
10.145628166
 21
-24.2456323968
  0
LINE
  5
21D
100
AcDbEntity
  8
ASSI
100
AcDbLine
 62
253
  6
CONTINUOUS
 10
-7.254371834
 20
-24.2456323968
 11
-10.145628166
 21
-24.2456323968
  0
LINE
  5
21E
100
AcDbEntity
  8
0
100
AcDbLine
 62
253
  6
CONTINUOUS
 10
-7.254371834
 20
-24.2456323968
 11
-10.145628166
 21
-24.2456323968
  0
LINE
  5
21F
100
AcDbEntity
  8
ASSI
100
AcDbLine
 62
7
  6
CONTINUOUS
 10
-4.45
 20
-24.0
 11
-1.1999974616
 21
-24.0
  0
LINE
  5
220
100
AcDbEntity
  8
0
100
AcDbLine
 62
7
  6
CONTINUOUS
 10
-4.45
 20
-24.0
 11
-1.1999974616
 21
-24.0
  0
LINE
  5
221
100
AcDbEntity
  8
ASSI
100
AcDbLine
 62
7
  6
CONTINUOUS
 10
1.1999974616
 20
-24.0
 11
4.45
 21
-24.0
  0
LINE
  5
222
100
AcDbEntity
  8
0
100
AcDbLine
 62
7
  6
CONTINUOUS
 10
1.1999974616
 20
-24.0
 11
4.45
 21
-24.0
  0
LINE
  5
223
100
AcDbEntity
  8
ASSI
100
AcDbLine
 62
7
  6
CONTINUOUS
 10
-3.5
 20
-23.9941821702
 11
-1.2087243294
 21
-23.9941821702
  0
LINE
  5
224
100
AcDbEntity
  8
0
100
AcDbLine
 62
7
  6
CONTINUOUS
 10
-3.5
 20
-23.9941821702
 11
-1.2087243294
 21
-23.9941821702
  0
LINE
  5
225
100
AcDbEntity
  8
ASSI
100
AcDbLine
 62
7
  6
CONTINUOUS
 10
1.2087243294
 20
-23.9941821702
 11
3.5
 21
-23.9941821702
  0
LINE
  5
226
100
AcDbEntity
  8
0
100
AcDbLine
 62
7
  6
CONTINUOUS
 10
1.2087243294
 20
-23.9941821702
 11
3.5
 21
-23.9941821702
  0
LINE
  5
227
100
AcDbEntity
  8
ASSI
100
AcDbLine
 62
7
  6
CONTINUOUS
 10
-4.4063493531
 20
-23.9563493531
 11
-3.5
 21
-23.9563493531
  0
LINE
  5
228
100
AcDbEntity
  8
0
100
AcDbLine
 62
7
  6
CONTINUOUS
 10
-4.4063493531
 20
-23.9563493531
 11
-3.5
 21
-23.9563493531
  0
LINE
  5
229
100
AcDbEntity
  8
ASSI
100
AcDbLine
 62
7
  6
CONTINUOUS
 10
3.5
 20
-23.9563493531
 11
4.4063493531
 21
-23.9563493531
  0
LINE
  5
22A
100
AcDbEntity
  8
0
100
AcDbLine
 62
7
  6
CONTINUOUS
 10
3.5
 20
-23.9563493531
 11
4.4063493531
 21
-23.9563493531
  0
LINE
  5
22B
100
AcDbEntity
  8
ASSI
100
AcDbLine
 62
253
  6
CONTINUOUS
 10
7.254371834
 20
-23.8443375673
 11
10.145628166
 21
-23.8443375673
  0
LINE
  5
22C
100
AcDbEntity
  8
0
100
AcDbLine
 62
253
  6
CONTINUOUS
 10
7.254371834
 20
-23.8443375673
 11
10.145628166
 21
-23.8443375673
  0
LINE
  5
22D
100
AcDbEntity
  8
ASSI
100
AcDbLine
 62
253
  6
CONTINUOUS
 10
-7.254371834
 20
-23.8443375673
 11
-10.145628166
 21
-23.8443375673
  0
LINE
  5
22E
100
AcDbEntity
  8
0
100
AcDbLine
 62
253
  6
CONTINUOUS
 10
-7.254371834
 20
-23.8443375673
 11
-10.145628166
 21
-23.8443375673
  0
LINE
  5
22F
100
AcDbEntity
  8
ASSI
100
AcDbLine
 62
253
  6
CONTINUOUS
 10
9.8956323968
 20
-23.6278312164
 11
7.5043676032
 21
-23.6278312164
  0
LINE
  5
230
100
AcDbEntity
  8
0
100
AcDbLine
 62
253
  6
CONTINUOUS
 10
9.8956323968
 20
-23.6278312164
 11
7.5043676032
 21
-23.6278312164
  0
LINE
  5
231
100
AcDbEntity
  8
ASSI
100
AcDbLine
 62
253
  6
CONTINUOUS
 10
-7.5043676032
 20
-23.6278312164
 11
-9.8956323968
 21
-23.6278312164
  0
LINE
  5
232
100
AcDbEntity
  8
0
100
AcDbLine
 62
253
  6
CONTINUOUS
 10
-7.5043676032
 20
-23.6278312164
 11
-9.8956323968
 21
-23.6278312164
  0
LINE
  5
233
100
AcDbEntity
  8
ASSI
100
AcDbLine
 62
7
  6
CONTINUOUS
 10
-9.65
 20
20.1990396502
 11
-8.9498936624
 21
20.9
  0
LINE
  5
234
100
AcDbEntity
  8
0
100
AcDbLine
 62
7
  6
CONTINUOUS
 10
-9.65
 20
20.1990396502
 11
-8.9498936624
 21
20.9
  0
LINE
  5
235
100
AcDbEntity
  8
ASSI
100
AcDbLine
 62
7
  6
CONTINUOUS
 10
-7.2558178298
 20
22.3941821702
 11
-8.25
 21
21.4
  0
LINE
  5
236
100
AcDbEntity
  8
0
100
AcDbLine
 62
7
  6
CONTINUOUS
 10
-7.2558178298
 20
22.3941821702
 11
-8.25
 21
21.4
  0
LINE
  5
237
100
AcDbEntity
  8
ASSI
100
AcDbLine
 62
7
  6
CONTINUOUS
 10
-11.1412731322
 20
18.5087268678
 11
-10.15
 21
19.5
  0
LINE
  5
238
100
AcDbEntity
  8
0
100
AcDbLine
 62
7
  6
CONTINUOUS
 10
-11.1412731322
 20
18.5087268678
 11
-10.15
 21
19.5
  0
LINE
  5
239
100
AcDbEntity
  8
0
100
AcDbLine
 62
253
  6
CONTINUOUS
 10
-1.0087268678
 20
23.7941889394
 11
-1.0
 21
23.8000067692
  0
LINE
  5
23A
100
AcDbEntity
  8
ASSI
100
AcDbLine
 62
7
  6
CONTINUOUS
 10
-8.0665695018
 20
20.9917082642
 11
-8.25
 21
20.9
  0
LINE
  5
23B
100
AcDbEntity
  8
0
100
AcDbLine
 62
7
  6
CONTINUOUS
 10
-8.0665695018
 20
20.9917082642
 11
-8.25
 21
20.9
  0
LINE
  5
23C
100
AcDbEntity
  8
ASSI
100
AcDbLine
 62
7
  6
CONTINUOUS
 10
-8.0665695018
 20
21.4537354271
 11
-8.25
 21
21.4
  0
LINE
  5
23D
100
AcDbEntity
  8
0
100
AcDbLine
 62
7
  6
CONTINUOUS
 10
-8.0665695018
 20
21.4537354271
 11
-8.25
 21
21.4
  0
LINE
  5
23E
100
AcDbEntity
  8
ASSI
100
AcDbLine
 62
7
  6
CONTINUOUS
 10
-9.9007229979
 20
-23.1226497308
 11
-7.4992770021
 21
-23.1226497308
  0
LINE
  5
23F
100
AcDbEntity
  8
0
100
AcDbLine
 62
7
  6
CONTINUOUS
 10
-9.9007229979
 20
-23.1226497308
 11
-7.4992770021
 21
-23.1226497308
  0
LINE
  5
240
100
AcDbEntity
  8
ASSI
100
AcDbLine
 62
7
  6
CONTINUOUS
 10
9.9007229979
 20
-23.1226497308
 11
7.4992770021
 21
-23.1226497308
  0
LINE
  5
241
100
AcDbEntity
  8
0
100
AcDbLine
 62
7
  6
CONTINUOUS
 10
9.9007229979
 20
-23.1226497308
 11
7.4992770021
 21
-23.1226497308
  0
LINE
  5
242
100
AcDbEntity
  8
ASSI
100
AcDbLine
 62
7
  6
CONTINUOUS
 10
4.45
 20
-22.4
 11
10.6503805997
 21
-22.4
  0
LINE
  5
243
100
AcDbEntity
  8
ASSI
100
AcDbLine
 62
7
  6
CONTINUOUS
 10
-4.45
 20
-22.4
 11
-10.6503805997
 21
-22.4
  0
LINE
  5
244
100
AcDbEntity
  8
0
100
AcDbLine
 62
7
  6
CONTINUOUS
 10
4.45
 20
-22.4
 11
10.6503805997
 21
-22.4
  0
LINE
  5
245
100
AcDbEntity
  8
0
100
AcDbLine
 62
7
  6
CONTINUOUS
 10
-4.45
 20
-22.4
 11
-10.6503805997
 21
-22.4
  0
LINE
  5
246
100
AcDbEntity
  8
ASSI
100
AcDbLine
 62
7
  6
CONTINUOUS
 10
-1.0087268678
 20
-22.3947639644
 11
1.0087268678
 21
-22.3947639644
  0
LINE
  5
247
100
AcDbEntity
  8
0
100
AcDbLine
 62
7
  6
CONTINUOUS
 10
-1.0087268678
 20
-22.3947639644
 11
1.0087268678
 21
-22.3947639644
  0
LINE
  5
248
100
AcDbEntity
  8
ASSI
100
AcDbLine
 62
7
  6
CONTINUOUS
 10
-10.6412794783
 20
-22.3941821702
 11
-7.2558178298
 21
-22.3941821702
  0
LINE
  5
249
100
AcDbEntity
  8
0
100
AcDbLine
 62
7
  6
CONTINUOUS
 10
-10.6412794783
 20
-22.3941821702
 11
-7.2558178298
 21
-22.3941821702
  0
LINE
  5
24A
100
AcDbEntity
  8
ASSI
100
AcDbLine
 62
7
  6
CONTINUOUS
 10
7.2558178298
 20
-22.3941821702
 11
10.6412794783
 21
-22.3941821702
  0
LINE
  5
24B
100
AcDbEntity
  8
0
100
AcDbLine
 62
7
  6
CONTINUOUS
 10
7.2558178298
 20
-22.3941821702
 11
10.6412794783
 21
-22.3941821702
  0
LINE
  5
24C
100
AcDbEntity
  8
ASSI
100
AcDbLine
 62
253
  6
CONTINUOUS
 10
-7.1905416262
 20
-22.3359700255
 11
-3.5
 21
-22.3359700255
  0
LINE
  5
24D
100
AcDbEntity
  8
0
100
AcDbLine
 62
253
  6
CONTINUOUS
 10
-7.1905416262
 20
-22.3359700255
 11
-3.5
 21
-22.3359700255
  0
LINE
  5
24E
100
AcDbEntity
  8
ASSI
100
AcDbLine
 62
253
  6
CONTINUOUS
 10
3.5
 20
-22.3359700255
 11
7.1905416262
 21
-22.3359700255
  0
LINE
  5
24F
100
AcDbEntity
  8
0
100
AcDbLine
 62
253
  6
CONTINUOUS
 10
3.5
 20
-22.3359700255
 11
7.1905416262
 21
-22.3359700255
  0
LINE
  5
250
100
AcDbEntity
  8
ASSI
100
AcDbLine
 62
7
  6
CONTINUOUS
 10
-3.5
 20
-21.7
 11
3.5
 21
-21.7
  0
LINE
  5
251
100
AcDbEntity
  8
0
100
AcDbLine
 62
7
  6
CONTINUOUS
 10
-3.5
 20
-21.7
 11
3.5
 21
-21.7
  0
LINE
  5
252
100
AcDbEntity
  8
ASSI
100
AcDbLine
 62
253
  6
CONTINUOUS
 10
-7.5666456542
 20
-21.3359869487
 11
7.5666456542
 21
-21.3359869487
  0
LINE
  5
253
100
AcDbEntity
  8
0
100
AcDbLine
 62
253
  6
CONTINUOUS
 10
-7.5666456542
 20
-21.3359869487
 11
7.5666456542
 21
-21.3359869487
  0
LINE
  5
254
100
AcDbEntity
  8
ASSI
100
AcDbLine
 62
7
  6
CONTINUOUS
 10
7.5666456542
 20
-20.9959955457
 11
7.3
 21
-20.9959955457
  0
LINE
  5
255
100
AcDbEntity
  8
ASSI
100
AcDbLine
 62
7
  6
CONTINUOUS
 10
-7.5666456542
 20
-20.9959955457
 11
-7.3
 21
-20.9959955457
  0
LINE
  5
256
100
AcDbEntity
  8
0
100
AcDbLine
 62
7
  6
CONTINUOUS
 10
-7.5666456542
 20
-20.9959955457
 11
-7.3
 21
-20.9959955457
  0
LINE
  5
257
100
AcDbEntity
  8
0
100
AcDbLine
 62
7
  6
CONTINUOUS
 10
7.5666456542
 20
-20.9959955457
 11
7.3
 21
-20.9959955457
  0
LINE
  5
258
100
AcDbEntity
  8
0
100
AcDbLine
 62
7
  6
CONTINUOUS
 10
-8.9498936624
 20
-20.9
 11
-8.25
 21
-20.9
  0
LINE
  5
259
100
AcDbEntity
  8
ASSI
100
AcDbLine
 62
7
  6
CONTINUOUS
 10
-8.9498936624
 20
-20.9
 11
-7.3
 21
-20.9
  0
LINE
  5
25A
100
AcDbEntity
  8
ASSI
100
AcDbLine
 62
7
  6
CONTINUOUS
 10
-6.25
 20
-20.9
 11
-4.5
 21
-20.9
  0
LINE
  5
25B
100
AcDbEntity
  8
ASSI
100
AcDbLine
 62
7
  6
CONTINUOUS
 10
4.5
 20
-20.9
 11
6.25
 21
-20.9
  0
LINE
  5
25C
100
AcDbEntity
  8
ASSI
100
AcDbLine
 62
7
  6
CONTINUOUS
 10
7.3
 20
-20.9
 11
8.9498936624
 21
-20.9
  0
LINE
  5
25D
100
AcDbEntity
  8
0
100
AcDbLine
 62
7
  6
CONTINUOUS
 10
8.25
 20
-20.9
 11
8.9498936624
 21
-20.9
  0
LINE
  5
25E
100
AcDbEntity
  8
ASSI
100
AcDbLine
 62
7
  6
CONTINUOUS
 10
-8.9045104936
 20
-20.7637397739
 11
-7.3
 21
-20.7637397739
  0
LINE
  5
25F
100
AcDbEntity
  8
0
100
AcDbLine
 62
7
  6
CONTINUOUS
 10
-8.9045104936
 20
-20.7637397739
 11
-7.3
 21
-20.7637397739
  0
LINE
  5
260
100
AcDbEntity
  8
ASSI
100
AcDbLine
 62
7
  6
CONTINUOUS
 10
7.3
 20
-20.7637397739
 11
8.9045104936
 21
-20.7637397739
  0
LINE
  5
261
100
AcDbEntity
  8
0
100
AcDbLine
 62
7
  6
CONTINUOUS
 10
7.3
 20
-20.7637397739
 11
8.9045104936
 21
-20.7637397739
  0
LINE
  5
262
100
AcDbEntity
  8
ASSI
100
AcDbLine
 62
7
  6
CONTINUOUS
 10
-8.0665695018
 20
-21.4537354271
 11
-8.25
 21
-21.4
  0
LINE
  5
263
100
AcDbEntity
  8
0
100
AcDbLine
 62
7
  6
CONTINUOUS
 10
-8.0665695018
 20
-21.4537354271
 11
-8.25
 21
-21.4
  0
LINE
  5
264
100
AcDbEntity
  8
ASSI
100
AcDbLine
 62
7
  6
CONTINUOUS
 10
-8.0665695018
 20
-20.9917082642
 11
-8.25
 21
-20.9
  0
LINE
  5
265
100
AcDbEntity
  8
0
100
AcDbLine
 62
7
  6
CONTINUOUS
 10
-8.0665695018
 20
-20.9917082642
 11
-8.25
 21
-20.9
  0
LINE
  5
266
100
AcDbEntity
  8
0
100
AcDbLine
 62
253
  6
CONTINUOUS
 10
-1.0
 20
-23.8000067692
 11
-1.0087268678
 21
-23.7941889394
  0
LINE
  5
267
100
AcDbEntity
  8
ASSI
100
AcDbLine
 62
7
  6
CONTINUOUS
 10
-11.1412731322
 20
-18.5087268678
 11
-10.15
 21
-19.5
  0
LINE
  5
268
100
AcDbEntity
  8
0
100
AcDbLine
 62
7
  6
CONTINUOUS
 10
-11.1412731322
 20
-18.5087268678
 11
-10.15
 21
-19.5
  0
LINE
  5
269
100
AcDbEntity
  8
ASSI
100
AcDbLine
 62
7
  6
CONTINUOUS
 10
-7.2558178298
 20
-22.3941821702
 11
-8.25
 21
-21.4
  0
LINE
  5
26A
100
AcDbEntity
  8
0
100
AcDbLine
 62
7
  6
CONTINUOUS
 10
-7.2558178298
 20
-22.3941821702
 11
-8.25
 21
-21.4
  0
LINE
  5
26B
100
AcDbEntity
  8
ASSI
100
AcDbLine
 62
7
  6
CONTINUOUS
 10
-9.65
 20
-20.1990396502
 11
-8.9498936624
 21
-20.9
  0
LINE
  5
26C
100
AcDbEntity
  8
0
100
AcDbLine
 62
7
  6
CONTINUOUS
 10
-9.65
 20
-20.1990396502
 11
-8.9498936624
 21
-20.9
  0
LINE
  5
26D
100
AcDbEntity
  8
ASSI
100
AcDbLine
 62
7
  6
CONTINUOUS
 10
-9.6046168312
 20
-20.0627794241
 11
-8.9045104936
 21
-20.7637397739
  0
LINE
  5
26E
100
AcDbEntity
  8
0
100
AcDbLine
 62
7
  6
CONTINUOUS
 10
-9.6046168312
 20
-20.0627794241
 11
-8.9045104936
 21
-20.7637397739
  0
LINE
  5
26F
100
AcDbEntity
  8
ASSI
100
AcDbLine
 62
7
  6
CONTINUOUS
 10
-1.0087268678
 20
22.3947639644
 11
-1.0
 21
22.4
  0
LINE
  5
270
100
AcDbEntity
  8
0
100
AcDbLine
 62
7
  6
CONTINUOUS
 10
-1.0087268678
 20
22.3947639644
 11
-1.0
 21
22.4
  0
LINE
  5
271
100
AcDbEntity
  8
0
100
AcDbLine
 62
7
  6
CONTINUOUS
 10
-0.0
 20
-17.4750021727
 11
3.8892524434
 21
-17.2711750891
  0
LINE
  5
272
100
AcDbEntity
  8
0
100
AcDbLine
 62
253
  6
CONTINUOUS
 10
3.8892524408
 20
-16.7608970125
 11
-0.0000685132
 21
-16.9644476203
  0
LINE
  5
273
100
AcDbEntity
  8
0
100
AcDbLine
 62
7
  6
CONTINUOUS
 10
7.5174524064
 20
-18.8496953671
 11
2.4000007267
 21
-18.9390208184
  0
LINE
  5
274
100
AcDbEntity
  8
0
100
AcDbLine
 62
253
  6
CONTINUOUS
 10
0.0
 20
-17.9822819681
 11
7.5871557427
 21
-17.849847672
  0
LINE
  5
275
100
AcDbEntity
  8
ASSI
100
AcDbLine
 62
7
  6
CONTINUOUS
 10
-9.65
 20
-19.5
 11
-10.15
 21
-19.5
  0
LINE
  5
276
100
AcDbEntity
  8
ASSI
100
AcDbLine
 62
7
  6
CONTINUOUS
 10
9.65
 20
-19.5
 11
10.15
 21
-19.5
  0
LINE
  5
277
100
AcDbEntity
  8
0
100
AcDbLine
 62
7
  6
CONTINUOUS
 10
-9.65
 20
-19.5
 11
-10.15
 21
-19.5
  0
LINE
  5
278
100
AcDbEntity
  8
0
100
AcDbLine
 62
7
  6
CONTINUOUS
 10
9.65
 20
-19.5
 11
10.15
 21
-19.5
  0
LINE
  5
279
100
AcDbEntity
  8
ASSI
100
AcDbLine
 62
7
  6
CONTINUOUS
 10
9.6046168312
 20
-19.4
 11
7.4416079783
 21
-19.4
  0
LINE
  5
27A
100
AcDbEntity
  8
DRAFT
100
AcDbLine
 62
7
  6
CONTINUOUS
 10
9.6046168312
 20
-19.4
 11
7.4416079783
 21
-19.4
  0
LINE
  5
27B
100
AcDbEntity
  8
ASSI
100
AcDbLine
 62
7
  6
CONTINUOUS
 10
6.2583920217
 20
-19.4
 11
4.5
 21
-19.4
  0
LINE
  5
27C
100
AcDbEntity
  8
DRAFT
100
AcDbLine
 62
7
  6
CONTINUOUS
 10
6.2583920217
 20
-19.4
 11
4.5
 21
-19.4
  0
LINE
  5
27D
100
AcDbEntity
  8
ASSI
100
AcDbLine
 62
7
  6
CONTINUOUS
 10
-4.5
 20
-19.4
 11
-6.2577383711
 21
-19.4
  0
LINE
  5
27E
100
AcDbEntity
  8
DRAFT
100
AcDbLine
 62
7
  6
CONTINUOUS
 10
-4.5
 20
-19.4
 11
-6.2577383711
 21
-19.4
  0
LINE
  5
27F
100
AcDbEntity
  8
ASSI
100
AcDbLine
 62
7
  6
CONTINUOUS
 10
-7.5422616289
 20
-19.4
 11
-9.6046168312
 21
-19.4
  0
LINE
  5
280
100
AcDbEntity
  8
DRAFT
100
AcDbLine
 62
7
  6
CONTINUOUS
 10
-7.5422616289
 20
-19.4
 11
-9.6046168312
 21
-19.4
  0
LINE
  5
281
100
AcDbEntity
  8
ASSI
100
AcDbLine
 62
7
  6
CONTINUOUS
 10
-9.5550235832
 20
-19.2510992651
 11
-7.5004568462
 21
-19.2510992651
  0
LINE
  5
282
100
AcDbEntity
  8
DRAFT
100
AcDbLine
 62
7
  6
CONTINUOUS
 10
-9.5550235832
 20
-19.2510992651
 11
-7.5004568462
 21
-19.2510992651
  0
LINE
  5
283
100
AcDbEntity
  8
ASSI
100
AcDbLine
 62
7
  6
CONTINUOUS
 10
-6.2995431538
 20
-19.2510992651
 11
-4.5
 21
-19.2510992651
  0
LINE
  5
284
100
AcDbEntity
  8
DRAFT
100
AcDbLine
 62
7
  6
CONTINUOUS
 10
-6.2995431538
 20
-19.2510992651
 11
-4.5
 21
-19.2510992651
  0
LINE
  5
285
100
AcDbEntity
  8
ASSI
100
AcDbLine
 62
7
  6
CONTINUOUS
 10
4.5
 20
-19.2510992651
 11
6.3040618861
 21
-19.2510992651
  0
LINE
  5
286
100
AcDbEntity
  8
DRAFT
100
AcDbLine
 62
7
  6
CONTINUOUS
 10
4.5
 20
-19.2510992651
 11
6.3040618861
 21
-19.2510992651
  0
LINE
  5
287
100
AcDbEntity
  8
ASSI
100
AcDbLine
 62
7
  6
CONTINUOUS
 10
7.3959381139
 20
-19.2510992651
 11
9.5550235832
 21
-19.2510992651
  0
LINE
  5
288
100
AcDbEntity
  8
DRAFT
100
AcDbLine
 62
7
  6
CONTINUOUS
 10
7.3959381139
 20
-19.2510992651
 11
9.5550235832
 21
-19.2510992651
  0
LINE
  5
289
100
AcDbEntity
  8
ASSI
100
AcDbLine
 62
7
  6
CONTINUOUS
 10
4.5
 20
-19.0
 11
-4.5
 21
-19.0
  0
LINE
  5
28A
100
AcDbEntity
  8
0
100
AcDbLine
 62
7
  6
CONTINUOUS
 10
4.5
 20
-19.0
 11
-4.5
 21
-19.0
  0
LINE
  5
28B
100
AcDbEntity
  8
ASSI
100
AcDbLine
 62
7
  6
CONTINUOUS
 10
-11.1988741818
 20
-18.006284454
 11
-11.1255647702
 21
-18.006284454
  0
LINE
  5
28C
100
AcDbEntity
  8
0
100
AcDbLine
 62
7
  6
CONTINUOUS
 10
-11.1988741818
 20
-18.006284454
 11
-11.1255647702
 21
-18.006284454
  0
LINE
  5
28D
100
AcDbEntity
  8
ASSI
100
AcDbLine
 62
7
  6
CONTINUOUS
 10
11.1988741818
 20
-18.006284454
 11
11.1255647702
 21
-18.006284454
  0
LINE
  5
28E
100
AcDbEntity
  8
0
100
AcDbLine
 62
7
  6
CONTINUOUS
 10
11.1988741818
 20
-18.006284454
 11
11.1255647702
 21
-18.006284454
  0
LINE
  5
28F
100
AcDbEntity
  8
0
100
AcDbLine
 62
253
  6
CONTINUOUS
 10
8.5
 20
-17.849847672
 11
7.5871557427
 21
-17.849847672
  0
LINE
  5
290
100
AcDbEntity
  8
0
100
AcDbLine
 62
253
  6
CONTINUOUS
 10
-7.5871557427
 20
-17.849847672
 11
-8.5
 21
-17.849847672
  0
LINE
  5
291
100
AcDbEntity
  8
0
100
AcDbLine
 62
253
  6
CONTINUOUS
 10
-8.5
 20
-17.8325
 11
-6.5871557427
 21
-17.8325
  0
LINE
  5
292
100
AcDbEntity
  8
0
100
AcDbLine
 62
253
  6
CONTINUOUS
 10
6.5871557427
 20
-17.8325
 11
8.5
 21
-17.8325
  0
LINE
  5
293
100
AcDbEntity
  8
0
100
AcDbLine
 62
7
  6
CONTINUOUS
 10
-2.40000025
 20
-18.9390208268
 11
-6.7769065036
 21
-18.8626216439
  0
LINE
  5
294
100
AcDbEntity
  8
0
100
AcDbLine
 62
7
  6
CONTINUOUS
 10
-7.0000451765
 20
-18.8587267439
 11
-7.5174524064
 21
-18.8496953671
  0
LINE
  5
295
100
AcDbEntity
  8
0
100
AcDbLine
 62
253
  6
CONTINUOUS
 10
-7.5871557427
 20
-17.849847672
 11
0.0
 21
-17.9822819681
  0
LINE
  5
296
100
AcDbEntity
  8
0
100
AcDbLine
 62
7
  6
CONTINUOUS
 10
-0.0000004398
 20
-17.4750021497
 11
-3.8892524437
 21
-17.2711750891
  0
LINE
  5
297
100
AcDbEntity
  8
0
100
AcDbLine
 62
253
  6
CONTINUOUS
 10
0.0000683642
 20
-16.964450458
 11
-3.8892525897
 21
-16.76089985
  0
LINE
  5
298
100
AcDbEntity
  8
ASSI
100
AcDbLine
 62
7
  6
CONTINUOUS
 10
-8.3279196724
 20
-16.2
 11
-8.1303813832
 21
-16.2980131393
  0
LINE
  5
299
100
AcDbEntity
  8
DRAFT
100
AcDbLine
 62
7
  6
CONTINUOUS
 10
-8.3279196724
 20
-16.2
 11
-8.1303813832
 21
-16.2980131393
  0
LINE
  5
29A
100
AcDbEntity
  8
ASSI
100
AcDbLine
 62
7
  6
CONTINUOUS
 10
-1.0
 20
-22.4
 11
-1.0087268678
 21
-22.3947639644
  0
LINE
  5
29B
100
AcDbEntity
  8
0
100
AcDbLine
 62
7
  6
CONTINUOUS
 10
-1.0
 20
-22.4
 11
-1.0087268678
 21
-22.3947639644
  0
LINE
  5
29C
100
AcDbEntity
  8
ASSI
100
AcDbLine
 62
7
  6
CONTINUOUS
 10
4.4063493531
 20
23.9563493531
 11
4.45
 21
24.0
  0
LINE
  5
29D
100
AcDbEntity
  8
0
100
AcDbLine
 62
7
  6
CONTINUOUS
 10
4.4063493531
 20
23.9563493531
 11
4.45
 21
24.0
  0
LINE
  5
29E
100
AcDbEntity
  8
ASSI
100
AcDbLine
 62
7
  6
CONTINUOUS
 10
8.3429065045
 20
-15.507774954
 11
8.5
 21
-15.5
  0
LINE
  5
29F
100
AcDbEntity
  8
DRAFT
100
AcDbLine
 62
7
  6
CONTINUOUS
 10
8.3429065045
 20
-15.507774954
 11
8.5
 21
-15.5
  0
LINE
  5
2A0
100
AcDbEntity
  8
0
100
AcDbLine
 62
7
  6
CONTINUOUS
 10
3.800000473
 20
-13.991515598
 11
0.1905928485
 21
-14.1120250362
  0
LINE
  5
2A1
100
AcDbEntity
  8
0
100
AcDbLine
 62
7
  6
CONTINUOUS
 10
3.800000475
 20
-13.9783886748
 11
0.2070319418
 21
-14.0897917046
  0
LINE
  5
2A2
100
AcDbEntity
  8
0
100
AcDbLine
 62
7
  6
CONTINUOUS
 10
3.8000004753
 20
-13.6888931464
 11
0.6961570724
 21
-13.7464994892
  0
LINE
  5
2A3
100
AcDbEntity
  8
0
100
AcDbLine
 62
7
  6
CONTINUOUS
 10
-0.0000005559
 20
-14.8503569597
 11
3.8892541119
 21
-14.7900396243
  0
LINE
  5
2A4
100
AcDbEntity
  8
0
100
AcDbLine
 62
7
  6
CONTINUOUS
 10
3.800000475
 20
-13.6888813767
 11
3.8892524404
 21
-13.6884130437
  0
LINE
  5
2A5
100
AcDbEntity
  8
0
100
AcDbLine
 62
7
  6
CONTINUOUS
 10
3.8892524404
 20
-13.9780976837
 11
3.800000475
 21
-13.9783886748
  0
LINE
  5
2A6
100
AcDbEntity
  8
0
100
AcDbLine
 62
7
  6
CONTINUOUS
 10
3.8892524404
 20
-13.9914378419
 11
3.800000475
 21
-13.9915155979
  0
LINE
  5
2A7
100
AcDbEntity
  8
ASSI
100
AcDbLine
 62
7
  6
CONTINUOUS
 10
-9.5486944921
 20
-16.2980131393
 11
-8.1303813832
 21
-16.2980131393
  0
LINE
  5
2A8
100
AcDbEntity
  8
DRAFT
100
AcDbLine
 62
7
  6
CONTINUOUS
 10
-9.5486944921
 20
-16.2980131393
 11
-8.1303813832
 21
-16.2980131393
  0
LINE
  5
2A9
100
AcDbEntity
  8
ASSI
100
AcDbLine
 62
7
  6
CONTINUOUS
 10
9.5486944921
 20
-16.2980131393
 11
8.1303813832
 21
-16.2980131393
  0
LINE
  5
2AA
100
AcDbEntity
  8
DRAFT
100
AcDbLine
 62
7
  6
CONTINUOUS
 10
9.5486944921
 20
-16.2980131393
 11
8.1303813832
 21
-16.2980131393
  0
LINE
  5
2AB
100
AcDbEntity
  8
ASSI
100
AcDbLine
 62
7
  6
CONTINUOUS
 10
-9.4829653223
 20
-16.2
 11
-8.3279196724
 21
-16.2
  0
LINE
  5
2AC
100
AcDbEntity
  8
DRAFT
100
AcDbLine
 62
7
  6
CONTINUOUS
 10
-9.4829653223
 20
-16.2
 11
-8.3279196724
 21
-16.2
  0
LINE
  5
2AD
100
AcDbEntity
  8
ASSI
100
AcDbLine
 62
7
  6
CONTINUOUS
 10
9.4829653223
 20
-16.2
 11
8.3279196724
 21
-16.2
  0
LINE
  5
2AE
100
AcDbEntity
  8
DRAFT
100
AcDbLine
 62
7
  6
CONTINUOUS
 10
9.4829653223
 20
-16.2
 11
8.3279196724
 21
-16.2
  0
LINE
  5
2AF
100
AcDbEntity
  8
ASSI
100
AcDbLine
 62
7
  6
CONTINUOUS
 10
9.5
 20
-16.1146184105
 11
9.5121049871
 21
-16.1146184105
  0
LINE
  5
2B0
100
AcDbEntity
  8
ASSI
100
AcDbLine
 62
7
  6
CONTINUOUS
 10
-9.5
 20
-16.1146184105
 11
-9.5121049871
 21
-16.1146184105
  0
LINE
  5
2B1
100
AcDbEntity
  8
DRAFT
100
AcDbLine
 62
7
  6
CONTINUOUS
 10
9.5
 20
-16.1146184105
 11
9.5121049871
 21
-16.1146184105
  0
LINE
  5
2B2
100
AcDbEntity
  8
DRAFT
100
AcDbLine
 62
7
  6
CONTINUOUS
 10
-9.5
 20
-16.1146184105
 11
-9.5121049871
 21
-16.1146184105
  0
LINE
  5
2B3
100
AcDbEntity
  8
ASSI
100
AcDbLine
 62
253
  6
CONTINUOUS
 10
8.1459670052
 20
-15.5781306566
 11
7.5
 21
-15.5781306566
  0
LINE
  5
2B4
100
AcDbEntity
  8
RACCORDO
100
AcDbLine
 62
253
  6
CONTINUOUS
 10
8.1459670052
 20
-15.5781306566
 11
7.5
 21
-15.5781306566
  0
LINE
  5
2B5
100
AcDbEntity
  8
ASSI
100
AcDbLine
 62
253
  6
CONTINUOUS
 10
-7.5
 20
-15.5781306566
 11
-8.1459670052
 21
-15.5781306566
  0
LINE
  5
2B6
100
AcDbEntity
  8
RACCORDO
100
AcDbLine
 62
253
  6
CONTINUOUS
 10
-7.5
 20
-15.5781306566
 11
-8.1459670052
 21
-15.5781306566
  0
LINE
  5
2B7
100
AcDbEntity
  8
RACCORDO
100
AcDbLine
 62
7
  6
CONTINUOUS
 10
-9.15
 20
-15.507774954
 11
-8.3429065045
 21
-15.507774954
  0
LINE
  5
2B8
100
AcDbEntity
  8
RACCORDO
100
AcDbLine
 62
7
  6
CONTINUOUS
 10
8.3429065045
 20
-15.507774954
 11
9.15
 21
-15.507774954
  0
LINE
  5
2B9
100
AcDbEntity
  8
ASSI
100
AcDbLine
 62
7
  6
CONTINUOUS
 10
-8.9999999971
 20
-15.5
 11
-8.5
 21
-15.5
  0
LINE
  5
2BA
100
AcDbEntity
  8
RACCORDO
100
AcDbLine
 62
7
  6
CONTINUOUS
 10
-8.9999999971
 20
-15.5
 11
-8.5
 21
-15.5
  0
LINE
  5
2BB
100
AcDbEntity
  8
ASSI
100
AcDbLine
 62
7
  6
CONTINUOUS
 10
8.9999999971
 20
-15.5
 11
8.5
 21
-15.5
  0
LINE
  5
2BC
100
AcDbEntity
  8
RACCORDO
100
AcDbLine
 62
7
  6
CONTINUOUS
 10
8.9999999971
 20
-15.5
 11
8.5
 21
-15.5
  0
LINE
  5
2BD
100
AcDbEntity
  8
ASSI
100
AcDbLine
 62
7
  6
CONTINUOUS
 10
8.4746298119
 20
-14.7
 11
7.5
 21
-14.7
  0
LINE
  5
2BE
100
AcDbEntity
  8
RACCORDO
100
AcDbLine
 62
7
  6
CONTINUOUS
 10
8.4746298119
 20
-14.7
 11
7.5
 21
-14.7
  0
LINE
  5
2BF
100
AcDbEntity
  8
ASSI
100
AcDbLine
 62
7
  6
CONTINUOUS
 10
-7.5
 20
-14.7
 11
-8.4746298119
 21
-14.7
  0
LINE
  5
2C0
100
AcDbEntity
  8
RACCORDO
100
AcDbLine
 62
7
  6
CONTINUOUS
 10
-7.5
 20
-14.7
 11
-8.4746298119
 21
-14.7
  0
LINE
  5
2C1
100
AcDbEntity
  8
0
100
AcDbLine
 62
7
  6
CONTINUOUS
 10
-0.0082423171
 20
-14.5688698508
 11
-0.0000004949
 21
-14.5688698423
  0
LINE
  5
2C2
100
AcDbEntity
  8
0
100
AcDbLine
 62
253
  6
CONTINUOUS
 10
-3.8000060386
 20
-14.5688926146
 11
-3.8892525237
 21
-14.5688813439
  0
LINE
  5
2C3
100
AcDbEntity
  8
0
100
AcDbLine
 62
253
  6
CONTINUOUS
 10
3.8892579888
 20
-14.5688925915
 11
3.798501927
 21
-14.5688700193
  0
LINE
  5
2C4
100
AcDbEntity
  8
0
100
AcDbLine
 62
7
  6
CONTINUOUS
 10
-3.8892524404
 20
-13.9914378419
 11
-3.800000475
 21
-13.9915155979
  0
LINE
  5
2C5
100
AcDbEntity
  8
0
100
AcDbLine
 62
7
  6
CONTINUOUS
 10
-3.8892524404
 20
-13.9780976837
 11
-3.800000475
 21
-13.9783886748
  0
LINE
  5
2C6
100
AcDbEntity
  8
0
100
AcDbLine
 62
7
  6
CONTINUOUS
 10
-3.8892524404
 20
-13.6884130437
 11
-3.800000475
 21
-13.6888813767
  0
LINE
  5
2C7
100
AcDbEntity
  8
0
100
AcDbLine
 62
7
  6
CONTINUOUS
 10
-0.0000003239
 20
-14.8503576354
 11
-3.8892523128
 21
-14.7900401383
  0
LINE
  5
2C8
100
AcDbEntity
  8
0
100
AcDbLine
 62
7
  6
CONTINUOUS
 10
-3.800000473
 20
-13.6888931459
 11
-0.6961570884
 21
-13.7464969619
  0
LINE
  5
2C9
100
AcDbEntity
  8
0
100
AcDbLine
 62
7
  6
CONTINUOUS
 10
-3.8000004747
 20
-13.9783886743
 11
-0.2071338349
 21
-14.0898674729
  0
LINE
  5
2CA
100
AcDbEntity
  8
0
100
AcDbLine
 62
7
  6
CONTINUOUS
 10
-3.800000475
 20
-13.9915155979
 11
-0.1905827266
 21
-14.1120180565
  0
LINE
  5
2CB
100
AcDbEntity
  8
ASSI
100
AcDbLine
 62
7
  6
CONTINUOUS
 10
-8.3429065045
 20
-15.507774954
 11
-8.5
 21
-15.5
  0
LINE
  5
2CC
100
AcDbEntity
  8
DRAFT
100
AcDbLine
 62
7
  6
CONTINUOUS
 10
-8.3429065045
 20
-15.507774954
 11
-8.5
 21
-15.5
  0
LINE
  5
2CD
100
AcDbEntity
  8
0
100
AcDbLine
 62
7
  6
CONTINUOUS
 10
-3.1038318655
 20
-12.978728609
 11
-3.800000475
 21
-12.7792830394
  0
LINE
  5
2CE
100
AcDbEntity
  8
0
100
AcDbLine
 62
7
  6
CONTINUOUS
 10
-0.6961683199
 20
-13.7465490118
 11
-3.103828587
 21
-12.9787251217
  0
LINE
  5
2CF
100
AcDbEntity
  8
ASSI
100
AcDbLine
 62
7
  6
CONTINUOUS
 10
4.45
 20
-24.0
 11
4.4063493531
 21
-23.9563493531
  0
LINE
  5
2D0
100
AcDbEntity
  8
0
100
AcDbLine
 62
7
  6
CONTINUOUS
 10
4.45
 20
-24.0
 11
4.4063493531
 21
-23.9563493531
  0
LINE
  5
2D1
100
AcDbEntity
  8
ASSI
100
AcDbLine
 62
7
  6
CONTINUOUS
 10
-11.1981627554
 20
-18.0134711168
 11
-11.15
 21
-18.5
  0
LINE
  5
2D2
100
AcDbEntity
  8
0
100
AcDbLine
 62
7
  6
CONTINUOUS
 10
-11.1988741818
 20
-18.006284454
 11
-11.15
 21
-18.5
  0
LINE
  5
2D3
100
AcDbEntity
  8
ASSI
100
AcDbLine
 62
7
  6
CONTINUOUS
 10
-11.15
 20
18.5
 11
-11.1255647702
 21
18.006284454
  0
LINE
  5
2D4
100
AcDbEntity
  8
0
100
AcDbLine
 62
7
  6
CONTINUOUS
 10
-11.15
 20
18.5
 11
-11.1255647702
 21
18.006284454
  0
LINE
  5
2D5
100
AcDbEntity
  8
ASSI
100
AcDbLine
 62
253
  6
CONTINUOUS
 10
-10.145628166
 20
-23.8443375673
 11
-10.15
 21
-23.4104851482
  0
LINE
  5
2D6
100
AcDbEntity
  8
0
100
AcDbLine
 62
253
  6
CONTINUOUS
 10
-10.145628166
 20
-23.8443375673
 11
-10.15
 21
-23.4104851482
  0
LINE
  5
2D7
100
AcDbEntity
  8
ASSI
100
AcDbLine
 62
253
  6
CONTINUOUS
 10
-9.8956323968
 20
-23.6278312164
 11
-9.9007229979
 21
-23.1226497308
  0
LINE
  5
2D8
100
AcDbEntity
  8
0
100
AcDbLine
 62
253
  6
CONTINUOUS
 10
-9.8956323968
 20
-23.6278312164
 11
-9.9007229979
 21
-23.1226497308
  0
LINE
  5
2D9
100
AcDbEntity
  8
ASSI
100
AcDbLine
 62
7
  6
CONTINUOUS
 10
-11.1988741818
 20
18.006284454
 11
-11.1988741818
 21
-18.006284454
  0
LINE
  5
2DA
100
AcDbEntity
  8
0
100
AcDbLine
 62
7
  6
CONTINUOUS
 10
-11.1988741818
 20
18.006284454
 11
-11.1988741818
 21
-18.006284454
  0
LINE
  5
2DB
100
AcDbEntity
  8
ASSI
100
AcDbLine
 62
7
  6
CONTINUOUS
 10
-11.15
 20
21.900016923
 11
-11.15
 21
18.5
  0
LINE
  5
2DC
100
AcDbEntity
  8
0
100
AcDbLine
 62
7
  6
CONTINUOUS
 10
-11.15
 20
21.900016923
 11
-11.15
 21
18.5
  0
LINE
  5
2DD
100
AcDbEntity
  8
ASSI
100
AcDbLine
 62
7
  6
CONTINUOUS
 10
-11.15
 20
-21.900016923
 11
-11.15
 21
-18.5
  0
LINE
  5
2DE
100
AcDbEntity
  8
0
100
AcDbLine
 62
7
  6
CONTINUOUS
 10
-11.15
 20
-21.900016923
 11
-11.15
 21
-18.5
  0
LINE
  5
2DF
100
AcDbEntity
  8
ASSI
100
AcDbLine
 62
7
  6
CONTINUOUS
 10
-11.1412731322
 20
21.8941990932
 11
-11.1412731322
 21
18.5087268678
  0
LINE
  5
2E0
100
AcDbEntity
  8
0
100
AcDbLine
 62
7
  6
CONTINUOUS
 10
-11.1412731322
 20
21.8941990932
 11
-11.1412731322
 21
18.5087268678
  0
LINE
  5
2E1
100
AcDbEntity
  8
ASSI
100
AcDbLine
 62
7
  6
CONTINUOUS
 10
-11.1412731322
 20
-18.5087268678
 11
-11.1412731322
 21
-21.8941990932
  0
LINE
  5
2E2
100
AcDbEntity
  8
0
100
AcDbLine
 62
7
  6
CONTINUOUS
 10
-11.1412731322
 20
-18.5087268678
 11
-11.1412731322
 21
-21.8941990932
  0
LINE
  5
2E3
100
AcDbEntity
  8
ASSI
100
AcDbLine
 62
7
  6
CONTINUOUS
 10
-11.1255647702
 20
18.5244352298
 11
-11.1255647702
 21
18.006284454
  0
LINE
  5
2E4
100
AcDbEntity
  8
0
100
AcDbLine
 62
7
  6
CONTINUOUS
 10
-11.1255647702
 20
18.5244352298
 11
-11.1255647702
 21
18.006284454
  0
LINE
  5
2E5
100
AcDbEntity
  8
ASSI
100
AcDbLine
 62
7
  6
CONTINUOUS
 10
-11.1255647702
 20
-18.006284454
 11
-11.1255647702
 21
-18.5244352298
  0
LINE
  5
2E6
100
AcDbEntity
  8
0
100
AcDbLine
 62
7
  6
CONTINUOUS
 10
-11.1255647702
 20
-18.006284454
 11
-11.1255647702
 21
-18.5244352298
  0
LINE
  5
2E7
100
AcDbEntity
  8
ASSI
100
AcDbLine
 62
7
  6
CONTINUOUS
 10
-10.15
 20
-22.4
 11
-10.15
 21
-23.8443375673
  0
LINE
  5
2E8
100
AcDbEntity
  8
0
100
AcDbLine
 62
7
  6
CONTINUOUS
 10
-10.15
 20
-22.4
 11
-10.15
 21
-23.8443375673
  0
LINE
  5
2E9
100
AcDbEntity
  8
ASSI
100
AcDbLine
 62
7
  6
CONTINUOUS
 10
-10.15
 20
22.4
 11
-10.15
 21
23.8443375673
  0
LINE
  5
2EA
100
AcDbEntity
  8
0
100
AcDbLine
 62
7
  6
CONTINUOUS
 10
-10.15
 20
22.4
 11
-10.15
 21
23.8443375673
  0
LINE
  5
2EB
100
AcDbEntity
  8
ASSI
100
AcDbLine
 62
7
  6
CONTINUOUS
 10
-10.145628166
 20
24.2456323968
 11
-10.145628166
 21
23.8443375673
  0
LINE
  5
2EC
100
AcDbEntity
  8
0
100
AcDbLine
 62
7
  6
CONTINUOUS
 10
-10.145628166
 20
24.2456323968
 11
-10.145628166
 21
23.8443375673
  0
LINE
  5
2ED
100
AcDbEntity
  8
ASSI
100
AcDbLine
 62
7
  6
CONTINUOUS
 10
-10.145628166
 20
-23.8443375673
 11
-10.145628166
 21
-24.2456323968
  0
LINE
  5
2EE
100
AcDbEntity
  8
0
100
AcDbLine
 62
7
  6
CONTINUOUS
 10
-10.145628166
 20
-23.8443375673
 11
-10.145628166
 21
-24.2456323968
  0
LINE
  5
2EF
100
AcDbEntity
  8
ASSI
100
AcDbLine
 62
253
  6
CONTINUOUS
 10
-9.8956323968
 20
-23.6278312164
 11
-9.8956323968
 21
-24.495628166
  0
LINE
  5
2F0
100
AcDbEntity
  8
0
100
AcDbLine
 62
253
  6
CONTINUOUS
 10
-9.8956323968
 20
-23.6278312164
 11
-9.8956323968
 21
-24.495628166
  0
LINE
  5
2F1
100
AcDbEntity
  8
ASSI
100
AcDbLine
 62
253
  6
CONTINUOUS
 10
-9.8956323968
 20
23.6278312164
 11
-9.8956323968
 21
24.495628166
  0
LINE
  5
2F2
100
AcDbEntity
  8
0
100
AcDbLine
 62
253
  6
CONTINUOUS
 10
-9.8956323968
 20
23.6278312164
 11
-9.8956323968
 21
24.495628166
  0
LINE
  5
2F3
100
AcDbEntity
  8
ASSI
100
AcDbLine
 62
253
  6
CONTINUOUS
 10
-10.15
 20
23.4104851482
 11
-10.145628166
 21
23.8443375673
  0
LINE
  5
2F4
100
AcDbEntity
  8
0
100
AcDbLine
 62
253
  6
CONTINUOUS
 10
-10.15
 20
23.4104851482
 11
-10.145628166
 21
23.8443375673
  0
LINE
  5
2F5
100
AcDbEntity
  8
ASSI
100
AcDbLine
 62
253
  6
CONTINUOUS
 10
-9.9007229979
 20
23.1226497308
 11
-9.8956323968
 21
23.6278312164
  0
LINE
  5
2F6
100
AcDbEntity
  8
0
100
AcDbLine
 62
253
  6
CONTINUOUS
 10
-9.9007229979
 20
23.1226497308
 11
-9.8956323968
 21
23.6278312164
  0
LINE
  5
2F7
100
AcDbEntity
  8
ASSI
100
AcDbLine
 62
7
  6
CONTINUOUS
 10
-11.1255647702
 20
-18.006284454
 11
-11.15
 21
-18.5
  0
LINE
  5
2F8
100
AcDbEntity
  8
0
100
AcDbLine
 62
7
  6
CONTINUOUS
 10
-11.1255647702
 20
-18.006284454
 11
-11.15
 21
-18.5
  0
LINE
  5
2F9
100
AcDbEntity
  8
ASSI
100
AcDbLine
 62
7
  6
CONTINUOUS
 10
-11.15
 20
18.5
 11
-11.1981627554
 21
18.0134711168
  0
LINE
  5
2FA
100
AcDbEntity
  8
0
100
AcDbLine
 62
7
  6
CONTINUOUS
 10
-11.15
 20
18.5
 11
-11.1988741818
 21
18.006284454
  0
LINE
  5
2FB
100
AcDbEntity
  8
ASSI
100
AcDbLine
 62
7
  6
CONTINUOUS
 10
4.45
 20
22.4
 11
4.406077753
 21
22.356077753
  0
LINE
  5
2FC
100
AcDbEntity
  8
0
100
AcDbLine
 62
7
  6
CONTINUOUS
 10
4.45
 20
22.4
 11
4.406077753
 21
22.356077753
  0
LINE
  5
2FD
100
AcDbEntity
  8
ASSI
100
AcDbLine
 62
7
  6
CONTINUOUS
 10
7.1905416262
 20
22.3359700255
 11
7.2558178298
 21
22.3941821702
  0
LINE
  5
2FE
100
AcDbEntity
  8
0
100
AcDbLine
 62
7
  6
CONTINUOUS
 10
7.1905416262
 20
22.3359700255
 11
7.2558178298
 21
22.3941821702
  0
LINE
  5
2FF
100
AcDbEntity
  8
0
100
AcDbLine
 62
253
  6
CONTINUOUS
 10
11.15
 20
21.900016923
 11
11.1412731322
 21
21.8941990932
  0
LINE
  5
300
100
AcDbEntity
  8
0
100
AcDbLine
 62
7
  6
CONTINUOUS
 10
-4.65
 20
-10.4751150709
 11
-4.6497014257
 21
-10.4751088199
  0
LINE
  5
301
100
AcDbEntity
  8
0
100
AcDbLine
 62
7
  6
CONTINUOUS
 10
4.6496996436
 20
-10.4751205669
 11
4.65
 21
-10.4751150709
  0
LINE
  5
302
100
AcDbEntity
  8
0
100
AcDbLine
 62
253
  6
CONTINUOUS
 10
3.8892524404
 20
-12.7782208352
 11
3.800000475
 21
-12.7793012453
  0
LINE
  5
303
100
AcDbEntity
  8
0
100
AcDbLine
 62
7
  6
CONTINUOUS
 10
0.0000000005
 20
-12.0077178054
 11
3.800001578
 21
-11.9745556934
  0
LINE
  5
304
100
AcDbEntity
  8
0
100
AcDbLine
 62
253
  6
CONTINUOUS
 10
3.1038765056
 20
-12.9787237856
 11
0.3824156349
 21
-13.0045780619
  0
LINE
  5
305
100
AcDbEntity
  8
0
100
AcDbLine
 62
7
  6
CONTINUOUS
 10
-3.8892567223
 20
-12.0261982847
 11
-3.8000121284
 21
-12.0260050057
  0
LINE
  5
306
100
AcDbEntity
  8
0
100
AcDbLine
 62
7
  6
CONTINUOUS
 10
-3.8892481881
 20
-11.9746406602
 11
-3.8000036122
 21
-11.9745562647
  0
LINE
  5
307
100
AcDbEntity
  8
ASSI
100
AcDbLine
 62
7
  6
CONTINUOUS
 10
8.5
 20
-12.5132676422
 11
7.5
 21
-12.5132676422
  0
LINE
  5
308
100
AcDbEntity
  8
DRAFT
100
AcDbLine
 62
7
  6
CONTINUOUS
 10
8.5
 20
-12.5132676422
 11
7.5
 21
-12.5132676422
  0
LINE
  5
309
100
AcDbEntity
  8
ASSI
100
AcDbLine
 62
7
  6
CONTINUOUS
 10
-7.5
 20
-12.5132676422
 11
-8.5
 21
-12.5132676422
  0
LINE
  5
30A
100
AcDbEntity
  8
DRAFT
100
AcDbLine
 62
7
  6
CONTINUOUS
 10
-7.5
 20
-12.5132676422
 11
-8.5
 21
-12.5132676422
  0
LINE
  5
30B
100
AcDbEntity
  8
0
100
AcDbLine
 62
7
  6
CONTINUOUS
 10
-3.749751889
 20
-11.9735968352
 11
3.7497520494
 21
-11.9735968352
  0
LINE
  5
30C
100
AcDbEntity
  8
0
100
AcDbLine
 62
7
  6
CONTINUOUS
 10
4.6497136523
 20
-11.5750518793
 11
4.6000004734
 21
-11.5750518793
  0
LINE
  5
30D
100
AcDbEntity
  8
0
100
AcDbLine
 62
7
  6
CONTINUOUS
 10
3.8000004733
 20
-11.5750518793
 11
3.749856869
 21
-11.5750518793
  0
LINE
  5
30E
100
AcDbEntity
  8
0
100
AcDbLine
 62
7
  6
CONTINUOUS
 10
-3.7498569058
 20
-11.5750518793
 11
-3.8000004733
 21
-11.5750518793
  0
LINE
  5
30F
100
AcDbEntity
  8
0
100
AcDbLine
 62
7
  6
CONTINUOUS
 10
-4.6000004734
 20
-11.5750518793
 11
-4.6497122982
 21
-11.5750518793
  0
LINE
  5
310
100
AcDbEntity
  8
0
100
AcDbLine
 62
253
  6
CONTINUOUS
 10
-3.7334573983
 20
-10.9999910616
 11
3.7334573983
 21
-10.9999910616
  0
LINE
  5
311
100
AcDbEntity
  8
0
100
AcDbLine
 62
7
  6
CONTINUOUS
 10
4.6497136523
 20
-10.4750518793
 11
4.6000004735
 21
-10.4750518793
  0
LINE
  5
312
100
AcDbEntity
  8
0
100
AcDbLine
 62
7
  6
CONTINUOUS
 10
3.8000004734
 20
-10.4750518793
 11
3.749856869
 21
-10.4750518793
  0
LINE
  5
313
100
AcDbEntity
  8
0
100
AcDbLine
 62
7
  6
CONTINUOUS
 10
-3.749856906
 20
-10.4750518793
 11
-3.8000004734
 21
-10.4750518793
  0
LINE
  5
314
100
AcDbEntity
  8
0
100
AcDbLine
 62
7
  6
CONTINUOUS
 10
-4.6000004735
 20
-10.4750518793
 11
-4.6497122982
 21
-10.4750518793
  0
LINE
  5
315
100
AcDbEntity
  8
0
100
AcDbLine
 62
7
  6
CONTINUOUS
 10
2.2
 20
-10.1921157854
 11
-2.2
 21
-10.1921157854
  0
LINE
  5
316
100
AcDbEntity
  8
0
100
AcDbLine
 62
7
  6
CONTINUOUS
 10
3.8892481881
 20
-11.9746406602
 11
3.7999961862
 21
-11.9745562577
  0
LINE
  5
317
100
AcDbEntity
  8
0
100
AcDbLine
 62
7
  6
CONTINUOUS
 10
3.8892571743
 20
-12.0289287274
 11
3.8000051554
 21
-12.0287417012
  0
LINE
  5
318
100
AcDbEntity
  8
0
100
AcDbLine
 62
7
  6
CONTINUOUS
 10
-3.800001578
 20
-11.9745556934
 11
-0.0000000005
 21
-12.0077178054
  0
LINE
  5
319
100
AcDbEntity
  8
0
100
AcDbLine
 62
253
  6
CONTINUOUS
 10
-3.8892524408
 20
-12.7782568615
 11
-3.800000475
 21
-12.7792830394
  0
LINE
  5
31A
100
AcDbEntity
  8
0
100
AcDbLine
 62
7
  6
CONTINUOUS
 10
4.6496996436
 20
-11.5749831918
 11
4.65
 21
-11.5749886877
  0
LINE
  5
31B
100
AcDbEntity
  8
0
100
AcDbLine
 62
7
  6
CONTINUOUS
 10
-4.65
 20
-11.5749886877
 11
-4.6497014257
 21
-11.5749949388
  0
LINE
  5
31C
100
AcDbEntity
  8
0
100
AcDbLine
 62
253
  6
CONTINUOUS
 10
11.1412731322
 20
-21.8941990932
 11
11.15
 21
-21.900016923
  0
LINE
  5
31D
100
AcDbEntity
  8
ASSI
100
AcDbLine
 62
7
  6
CONTINUOUS
 10
7.1905416262
 20
-22.3359700255
 11
7.2558178298
 21
-22.3941821702
  0
LINE
  5
31E
100
AcDbEntity
  8
0
100
AcDbLine
 62
7
  6
CONTINUOUS
 10
7.1905416262
 20
-22.3359700255
 11
7.2558178298
 21
-22.3941821702
  0
LINE
  5
31F
100
AcDbEntity
  8
ASSI
100
AcDbLine
 62
7
  6
CONTINUOUS
 10
4.45
 20
-22.4
 11
4.406077753
 21
-22.356077753
  0
LINE
  5
320
100
AcDbEntity
  8
0
100
AcDbLine
 62
7
  6
CONTINUOUS
 10
4.45
 20
-22.4
 11
4.406077753
 21
-22.356077753
  0
LINE
  5
321
100
AcDbEntity
  8
ASSI
100
AcDbLine
 62
7
  6
CONTINUOUS
 10
-9.4829653223
 20
-16.2
 11
-9.5
 21
-16.1146184105
  0
LINE
  5
322
100
AcDbEntity
  8
DRAFT
100
AcDbLine
 62
7
  6
CONTINUOUS
 10
-9.4829653223
 20
-16.2
 11
-9.5
 21
-16.1146184105
  0
LINE
  5
323
100
AcDbEntity
  8
ASSI
100
AcDbLine
 62
7
  6
CONTINUOUS
 10
-8.3429065045
 20
-15.507774954
 11
-8.3279196724
 21
-16.2
  0
LINE
  5
324
100
AcDbEntity
  8
DRAFT
100
AcDbLine
 62
7
  6
CONTINUOUS
 10
-8.3429065045
 20
-15.507774954
 11
-8.3279196724
 21
-16.2
  0
LINE
  5
325
100
AcDbEntity
  8
ASSI
100
AcDbLine
 62
7
  6
CONTINUOUS
 10
-8.1303813832
 20
-16.2980131393
 11
-8.1459670052
 21
-15.5781306566
  0
LINE
  5
326
100
AcDbEntity
  8
RACCORDO
100
AcDbLine
 62
7
  6
CONTINUOUS
 10
-8.1303813832
 20
-16.2980131393
 11
-8.1459670052
 21
-15.5781306566
  0
LINE
  5
327
100
AcDbEntity
  8
ASSI
100
AcDbLine
 62
253
  6
CONTINUOUS
 10
-7.5043676032
 20
23.6278312164
 11
-7.4992770021
 21
23.1226497308
  0
LINE
  5
328
100
AcDbEntity
  8
0
100
AcDbLine
 62
253
  6
CONTINUOUS
 10
-7.5043676032
 20
23.6278312164
 11
-7.4992770021
 21
23.1226497308
  0
LINE
  5
329
100
AcDbEntity
  8
ASSI
100
AcDbLine
 62
253
  6
CONTINUOUS
 10
-7.254371834
 20
23.8443375673
 11
-7.25
 21
23.4104851482
  0
LINE
  5
32A
100
AcDbEntity
  8
0
100
AcDbLine
 62
253
  6
CONTINUOUS
 10
-7.254371834
 20
23.8443375673
 11
-7.25
 21
23.4104851482
  0
LINE
  5
32B
100
AcDbEntity
  8
ASSI
100
AcDbLine
 62
7
  6
CONTINUOUS
 10
-9.6814191169
 20
-19.5
 11
-9.6814191169
 21
-0.5
  0
LINE
  5
32C
100
AcDbEntity
  8
0
100
AcDbLine
 62
7
  6
CONTINUOUS
 10
-9.6814191169
 20
-19.5
 11
-9.6814191169
 21
-0.5
  0
LINE
  5
32D
100
AcDbEntity
  8
ASSI
100
AcDbLine
 62
7
  6
CONTINUOUS
 10
-9.6814191169
 20
0.5
 11
-9.6814191169
 21
19.5
  0
LINE
  5
32E
100
AcDbEntity
  8
0
100
AcDbLine
 62
7
  6
CONTINUOUS
 10
-9.6814191169
 20
0.5
 11
-9.6814191169
 21
19.5
  0
LINE
  5
32F
100
AcDbEntity
  8
ASSI
100
AcDbLine
 62
7
  6
CONTINUOUS
 10
-9.65
 20
20.1990396502
 11
-9.65
 21
19.5
  0
LINE
  5
330
100
AcDbEntity
  8
0
100
AcDbLine
 62
7
  6
CONTINUOUS
 10
-9.65
 20
20.1990396502
 11
-9.65
 21
19.5
  0
LINE
  5
331
100
AcDbEntity
  8
ASSI
100
AcDbLine
 62
7
  6
CONTINUOUS
 10
-9.65
 20
-19.5
 11
-9.65
 21
-20.1990396502
  0
LINE
  5
332
100
AcDbEntity
  8
0
100
AcDbLine
 62
7
  6
CONTINUOUS
 10
-9.65
 20
-19.5
 11
-9.65
 21
-20.1990396502
  0
LINE
  5
333
100
AcDbEntity
  8
ASSI
100
AcDbLine
 62
7
  6
CONTINUOUS
 10
-9.6046168312
 20
-20.0627794241
 11
-9.6046168312
 21
-19.4
  0
LINE
  5
334
100
AcDbEntity
  8
DRAFT
100
AcDbLine
 62
7
  6
CONTINUOUS
 10
-9.6046168312
 20
-20.0627794241
 11
-9.6046168312
 21
-19.4
  0
LINE
  5
335
100
AcDbEntity
  8
ASSI
100
AcDbLine
 62
7
  6
CONTINUOUS
 10
-9.5121049871
 20
-0.5
 11
-9.5121049871
 21
-16.1146184105
  0
LINE
  5
336
100
AcDbEntity
  8
DRAFT
100
AcDbLine
 62
7
  6
CONTINUOUS
 10
-9.5121049871
 20
-0.5
 11
-9.5121049871
 21
-16.1146184105
  0
LINE
  5
337
100
AcDbEntity
  8
ASSI
100
AcDbLine
 62
7
  6
CONTINUOUS
 10
-9.5121049871
 20
0.5
 11
-9.5121049871
 21
12.5132676422
  0
LINE
  5
338
100
AcDbEntity
  8
0
100
AcDbLine
 62
7
  6
CONTINUOUS
 10
-9.5121049871
 20
0.5
 11
-9.5121049871
 21
12.5132676422
  0
LINE
  5
339
100
AcDbEntity
  8
ASSI
100
AcDbLine
 62
7
  6
CONTINUOUS
 10
-9.5
 20
-15.9999428868
 11
-9.5
 21
-16.1146184105
  0
LINE
  5
33A
100
AcDbEntity
  8
RACCORDO
100
AcDbLine
 62
7
  6
CONTINUOUS
 10
-9.5
 20
-15.9999428868
 11
-9.5
 21
-16.1146184105
  0
LINE
  5
33B
100
AcDbEntity
  8
RACCORDO
100
AcDbLine
 62
7
  6
CONTINUOUS
 10
-9.45
 20
-16.2
 11
-9.45
 21
-15.8055387995
  0
LINE
  5
33C
100
AcDbEntity
  8
0
100
AcDbLine
 62
7
  6
CONTINUOUS
 10
-8.5
 20
17.849847672
 11
-8.5
 21
17.8325
  0
LINE
  5
33D
100
AcDbEntity
  8
0
100
AcDbLine
 62
7
  6
CONTINUOUS
 10
-8.5
 20
-17.8325
 11
-8.5
 21
-17.849847672
  0
LINE
  5
33E
100
AcDbEntity
  8
ASSI
100
AcDbLine
 62
7
  6
CONTINUOUS
 10
-8.5
 20
-15.5
 11
-8.5
 21
-12.5132676422
  0
LINE
  5
33F
100
AcDbEntity
  8
DRAFT
100
AcDbLine
 62
7
  6
CONTINUOUS
 10
-8.5
 20
-15.5
 11
-8.5
 21
-12.5132676422
  0
LINE
  5
340
100
AcDbEntity
  8
ASSI
100
AcDbLine
 62
7
  6
CONTINUOUS
 10
-8.25
 20
-21.4
 11
-8.25
 21
-20.9
  0
LINE
  5
341
100
AcDbEntity
  8
0
100
AcDbLine
 62
7
  6
CONTINUOUS
 10
-8.25
 20
-21.4
 11
-8.25
 21
-20.9
  0
LINE
  5
342
100
AcDbEntity
  8
ASSI
100
AcDbLine
 62
7
  6
CONTINUOUS
 10
-8.25
 20
20.9
 11
-8.25
 21
21.4
  0
LINE
  5
343
100
AcDbEntity
  8
0
100
AcDbLine
 62
7
  6
CONTINUOUS
 10
-8.25
 20
20.9
 11
-8.25
 21
21.4
  0
LINE
  5
344
100
AcDbEntity
  8
ASSI
100
AcDbLine
 62
253
  6
CONTINUOUS
 10
-8.0665695018
 20
21.4537354271
 11
-8.0665695018
 21
20.9917082642
  0
LINE
  5
345
100
AcDbEntity
  8
0
100
AcDbLine
 62
253
  6
CONTINUOUS
 10
-8.0665695018
 20
21.4537354271
 11
-8.0665695018
 21
20.9917082642
  0
LINE
  5
346
100
AcDbEntity
  8
ASSI
100
AcDbLine
 62
253
  6
CONTINUOUS
 10
-8.0665695018
 20
-20.9917082642
 11
-8.0665695018
 21
-21.4537354271
  0
LINE
  5
347
100
AcDbEntity
  8
0
100
AcDbLine
 62
253
  6
CONTINUOUS
 10
-8.0665695018
 20
-20.9917082642
 11
-8.0665695018
 21
-21.4537354271
  0
LINE
  5
348
100
AcDbEntity
  8
0
100
AcDbLine
 62
253
  6
CONTINUOUS
 10
-7.5871557427
 20
-17.849847672
 11
-7.5871557427
 21
-17.8325
  0
LINE
  5
349
100
AcDbEntity
  8
0
100
AcDbLine
 62
253
  6
CONTINUOUS
 10
-7.5871557427
 20
17.8325
 11
-7.5871557427
 21
17.849847672
  0
LINE
  5
34A
100
AcDbEntity
  8
ASSI
100
AcDbLine
 62
253
  6
CONTINUOUS
 10
-7.5666456542
 20
21.3359869487
 11
-7.5666456542
 21
20.9959955457
  0
LINE
  5
34B
100
AcDbEntity
  8
0
100
AcDbLine
 62
253
  6
CONTINUOUS
 10
-7.5666456542
 20
21.3359869487
 11
-7.5666456542
 21
20.9959955457
  0
LINE
  5
34C
100
AcDbEntity
  8
ASSI
100
AcDbLine
 62
253
  6
CONTINUOUS
 10
-7.5666456542
 20
-20.9959955457
 11
-7.5666456542
 21
-21.3359869487
  0
LINE
  5
34D
100
AcDbEntity
  8
0
100
AcDbLine
 62
253
  6
CONTINUOUS
 10
-7.5666456542
 20
-20.9959955457
 11
-7.5666456542
 21
-21.3359869487
  0
LINE
  5
34E
100
AcDbEntity
  8
ASSI
100
AcDbLine
 62
253
  6
CONTINUOUS
 10
-7.5043676032
 20
-23.6278312164
 11
-7.5043676032
 21
-24.495628166
  0
LINE
  5
34F
100
AcDbEntity
  8
0
100
AcDbLine
 62
253
  6
CONTINUOUS
 10
-7.5043676032
 20
-23.6278312164
 11
-7.5043676032
 21
-24.495628166
  0
LINE
  5
350
100
AcDbEntity
  8
ASSI
100
AcDbLine
 62
253
  6
CONTINUOUS
 10
-7.5043676032
 20
23.6278312164
 11
-7.5043676032
 21
24.495628166
  0
LINE
  5
351
100
AcDbEntity
  8
0
100
AcDbLine
 62
253
  6
CONTINUOUS
 10
-7.5043676032
 20
23.6278312164
 11
-7.5043676032
 21
24.495628166
  0
LINE
  5
352
100
AcDbEntity
  8
0
100
AcDbLine
 62
7
  6
CONTINUOUS
 10
-7.5
 20
16.8363053019
 11
-7.5
 21
-16.8363053019
  0
LINE
  5
353
100
AcDbEntity
  8
ASSI
100
AcDbLine
 62
7
  6
CONTINUOUS
 10
-7.3
 20
20.9959955457
 11
-7.3
 21
19.8968626967
  0
LINE
  5
354
100
AcDbEntity
  8
ASSI
100
AcDbLine
 62
7
  6
CONTINUOUS
 10
-7.3
 20
-20.0123475383
 11
-7.3
 21
-20.9959955457
  0
LINE
  5
355
100
AcDbEntity
  8
ASSI
100
AcDbLine
 62
7
  6
CONTINUOUS
 10
-7.254371834
 20
-24.2456323968
 11
-7.254371834
 21
-23.8443375673
  0
LINE
  5
356
100
AcDbEntity
  8
0
100
AcDbLine
 62
7
  6
CONTINUOUS
 10
-7.254371834
 20
-24.2456323968
 11
-7.254371834
 21
-23.8443375673
  0
LINE
  5
357
100
AcDbEntity
  8
ASSI
100
AcDbLine
 62
7
  6
CONTINUOUS
 10
-7.254371834
 20
23.8443375673
 11
-7.254371834
 21
24.2456323968
  0
LINE
  5
358
100
AcDbEntity
  8
0
100
AcDbLine
 62
7
  6
CONTINUOUS
 10
-7.254371834
 20
23.8443375673
 11
-7.254371834
 21
24.2456323968
  0
LINE
  5
359
100
AcDbEntity
  8
ASSI
100
AcDbLine
 62
7
  6
CONTINUOUS
 10
-7.25
 20
-22.4
 11
-7.25
 21
-23.8443375673
  0
LINE
  5
35A
100
AcDbEntity
  8
0
100
AcDbLine
 62
7
  6
CONTINUOUS
 10
-7.25
 20
-22.4
 11
-7.25
 21
-23.8443375673
  0
LINE
  5
35B
100
AcDbEntity
  8
ASSI
100
AcDbLine
 62
7
  6
CONTINUOUS
 10
-7.25
 20
22.4
 11
-7.25
 21
23.8443375673
  0
LINE
  5
35C
100
AcDbEntity
  8
0
100
AcDbLine
 62
7
  6
CONTINUOUS
 10
-7.25
 20
22.4
 11
-7.25
 21
23.8443375673
  0
LINE
  5
35D
100
AcDbEntity
  8
0
100
AcDbLine
 62
253
  6
CONTINUOUS
 10
-6.5871557427
 20
-17.8325
 11
-6.5871557427
 21
17.8325
  0
LINE
  5
35E
100
AcDbEntity
  8
ASSI
100
AcDbLine
 62
7
  6
CONTINUOUS
 10
-9.5550235832
 20
-19.2510992651
 11
-9.5486944921
 21
-16.2980131393
  0
LINE
  5
35F
100
AcDbEntity
  8
DRAFT
100
AcDbLine
 62
7
  6
CONTINUOUS
 10
-9.5550235832
 20
-19.2510992651
 11
-9.5486944921
 21
-16.2980131393
  0
LINE
  5
360
100
AcDbEntity
  8
ASSI
100
AcDbLine
 62
253
  6
CONTINUOUS
 10
-7.4992770021
 20
-23.1226497308
 11
-7.5043676032
 21
-23.6278312164
  0
LINE
  5
361
100
AcDbEntity
  8
0
100
AcDbLine
 62
253
  6
CONTINUOUS
 10
-7.4992770021
 20
-23.1226497308
 11
-7.5043676032
 21
-23.6278312164
  0
LINE
  5
362
100
AcDbEntity
  8
ASSI
100
AcDbLine
 62
253
  6
CONTINUOUS
 10
-7.25
 20
-23.4104851482
 11
-7.254371834
 21
-23.8443375673
  0
LINE
  5
363
100
AcDbEntity
  8
0
100
AcDbLine
 62
253
  6
CONTINUOUS
 10
-7.25
 20
-23.4104851482
 11
-7.254371834
 21
-23.8443375673
  0
LINE
  5
364
100
AcDbEntity
  8
0
100
AcDbLine
 62
7
  6
CONTINUOUS
 10
-3.6656413538
 20
8.4469777328
 11
-3.681698399
 21
8.4330334866
  0
LINE
  5
365
100
AcDbEntity
  8
0
100
AcDbLine
 62
7
  6
CONTINUOUS
 10
1.5691456434
 20
-9.5150498786
 11
-1.6443731437
 21
-9.5150498786
  0
LINE
  5
366
100
AcDbEntity
  8
0
100
AcDbLine
 62
7
  6
CONTINUOUS
 10
-1.6443731437
 20
-9.5095206821
 11
1.5691456434
 21
-9.5095206821
  0
LINE
  5
367
100
AcDbEntity
  8
0
100
AcDbLine
 62
7
  6
CONTINUOUS
 10
1.2908093705
 20
-9.2818704993
 11
-0.7334544324
 21
-9.2818704993
  0
LINE
  5
368
100
AcDbEntity
  8
0
100
AcDbLine
 62
7
  6
CONTINUOUS
 10
-1.0117907053
 20
-9.2818704993
 11
-1.6443731437
 21
-9.2818704993
  0
LINE
  5
369
100
AcDbEntity
  8
0
100
AcDbLine
 62
7
  6
CONTINUOUS
 10
1.2908093705
 20
-8.6806840378
 11
0.2533741715
 21
-8.6806840378
  0
LINE
  5
36A
100
AcDbEntity
  8
0
100
AcDbLine
 62
7
  6
CONTINUOUS
 10
0.2533741715
 20
-8.6748033452
 11
1.2908093705
 21
-8.6748033452
  0
LINE
  5
36B
100
AcDbEntity
  8
0
100
AcDbLine
 62
7
  6
CONTINUOUS
 10
1.2908093705
 20
-8.4471531624
 11
0.2533741715
 21
-8.4471531624
  0
LINE
  5
36C
100
AcDbEntity
  8
0
100
AcDbLine
 62
7
  6
CONTINUOUS
 10
1.2908093705
 20
-7.770642231
 11
0.1268576838
 21
-7.770642231
  0
LINE
  5
36D
100
AcDbEntity
  8
0
100
AcDbLine
 62
7
  6
CONTINUOUS
 10
0.1268576838
 20
-7.7642026141
 11
1.2908093705
 21
-7.7642026141
  0
LINE
  5
36E
100
AcDbEntity
  8
0
100
AcDbLine
 62
7
  6
CONTINUOUS
 10
1.5691456434
 20
-7.5365524313
 11
0.1268576838
 21
-7.5365524313
  0
LINE
  5
36F
100
AcDbEntity
  8
0
100
AcDbLine
 62
7
  6
CONTINUOUS
 10
-0.7334544324
 20
-7.5365524313
 11
-1.0117907053
 21
-7.5365524313
  0
LINE
  5
370
100
AcDbEntity
  8
0
100
AcDbLine
 62
7
  6
CONTINUOUS
 10
2.2
 20
-6.9003414857
 11
-2.2
 21
-6.9003414857
  0
LINE
  5
371
100
AcDbEntity
  8
0
100
AcDbLine
 62
7
  6
CONTINUOUS
 10
-2.2
 20
-6.8950543263
 11
2.2
 21
-6.8950543263
  0
LINE
  5
372
100
AcDbEntity
  8
ASSI
100
AcDbLine
 62
7
  6
CONTINUOUS
 10
-6.25
 20
-20.9
 11
-6.25
 21
-19.5
  0
LINE
  5
373
100
AcDbEntity
  8
ASSI
100
AcDbLine
 62
7
  6
CONTINUOUS
 10
-6.25
 20
19.5
 11
-6.25
 21
20.9
  0
LINE
  5
374
100
AcDbEntity
  8
0
100
AcDbLine
 62
7
  6
CONTINUOUS
 10
-4.65
 20
-11.5749886877
 11
-4.65
 21
-10.5046325659
  0
LINE
  5
375
100
AcDbEntity
  8
0
100
AcDbLine
 62
7
  6
CONTINUOUS
 10
-4.6000004762
 20
-16.5222029381
 11
-4.6000004733
 21
-11.5290748266
  0
LINE
  5
376
100
AcDbEntity
  8
0
100
AcDbLine
 62
7
  6
CONTINUOUS
 10
-4.6000004733
 20
-10.5046325659
 11
-4.6000004753
 21
7.4222018285
  0
LINE
  5
377
100
AcDbEntity
  8
ASSI
100
AcDbLine
 62
7
  6
CONTINUOUS
 10
-4.5
 20
-20.9
 11
-4.5
 21
-18.9023651948
  0
LINE
  5
378
100
AcDbEntity
  8
0
100
AcDbLine
 62
7
  6
CONTINUOUS
 10
-4.5
 20
-20.9
 11
-4.5
 21
-18.9023651948
  0
LINE
  5
379
100
AcDbEntity
  8
ASSI
100
AcDbLine
 62
7
  6
CONTINUOUS
 10
-4.5
 20
19.0
 11
-4.5
 21
20.9
  0
LINE
  5
37A
100
AcDbEntity
  8
0
100
AcDbLine
 62
7
  6
CONTINUOUS
 10
-4.5
 20
19.0
 11
-4.5
 21
20.9
  0
LINE
  5
37B
100
AcDbEntity
  8
ASSI
100
AcDbLine
 62
7
  6
CONTINUOUS
 10
-4.45
 20
24.0
 11
-4.45
 21
23.3679449472
  0
LINE
  5
37C
100
AcDbEntity
  8
0
100
AcDbLine
 62
7
  6
CONTINUOUS
 10
-4.45
 20
24.0
 11
-4.45
 21
23.3679449472
  0
LINE
  5
37D
100
AcDbEntity
  8
ASSI
100
AcDbLine
 62
7
  6
CONTINUOUS
 10
-4.45
 20
22.9320550528
 11
-4.45
 21
22.4
  0
LINE
  5
37E
100
AcDbEntity
  8
0
100
AcDbLine
 62
7
  6
CONTINUOUS
 10
-4.45
 20
22.9320550528
 11
-4.45
 21
22.4
  0
LINE
  5
37F
100
AcDbEntity
  8
ASSI
100
AcDbLine
 62
7
  6
CONTINUOUS
 10
-4.45
 20
-22.4
 11
-4.45
 21
-22.9320550528
  0
LINE
  5
380
100
AcDbEntity
  8
0
100
AcDbLine
 62
7
  6
CONTINUOUS
 10
-4.45
 20
-22.4
 11
-4.45
 21
-22.9320550528
  0
LINE
  5
381
100
AcDbEntity
  8
ASSI
100
AcDbLine
 62
7
  6
CONTINUOUS
 10
-4.45
 20
-23.3679449472
 11
-4.45
 21
-24.0
  0
LINE
  5
382
100
AcDbEntity
  8
0
100
AcDbLine
 62
7
  6
CONTINUOUS
 10
-4.45
 20
-23.3679449472
 11
-4.45
 21
-24.0
  0
LINE
  5
383
100
AcDbEntity
  8
ASSI
100
AcDbLine
 62
7
  6
CONTINUOUS
 10
-4.406077753
 20
-23.9538922731
 11
-4.406077753
 21
-22.356077753
  0
LINE
  5
384
100
AcDbEntity
  8
0
100
AcDbLine
 62
7
  6
CONTINUOUS
 10
-4.406077753
 20
-23.9538922731
 11
-4.406077753
 21
-22.356077753
  0
LINE
  5
385
100
AcDbEntity
  8
ASSI
100
AcDbLine
 62
7
  6
CONTINUOUS
 10
-4.406077753
 20
22.356077753
 11
-4.406077753
 21
23.9538922731
  0
LINE
  5
386
100
AcDbEntity
  8
0
100
AcDbLine
 62
7
  6
CONTINUOUS
 10
-4.406077753
 20
22.356077753
 11
-4.406077753
 21
23.9538922731
  0
LINE
  5
387
100
AcDbEntity
  8
0
100
AcDbLine
 62
253
  6
CONTINUOUS
 10
-3.8892525897
 20
-16.76089985
 11
-3.8892524434
 21
-17.271175089
  0
LINE
  5
388
100
AcDbEntity
  8
0
100
AcDbLine
 62
7
  6
CONTINUOUS
 10
-3.8892523644
 20
-11.9746754845
 11
-3.8892519324
 21
1.1992351948
  0
LINE
  5
389
100
AcDbEntity
  8
0
100
AcDbLine
 62
7
  6
CONTINUOUS
 10
-3.8892525237
 20
-14.5688813439
 11
-3.8892524413
 21
-16.7608941672
  0
LINE
  5
38A
100
AcDbEntity
  8
0
100
AcDbLine
 62
253
  6
CONTINUOUS
 10
-3.8892513638
 20
-14.5688699928
 11
-3.8892523798
 21
-12.7782390499
  0
LINE
  5
38B
100
AcDbEntity
  8
0
100
AcDbLine
 62
7
  6
CONTINUOUS
 10
-3.8000004753
 20
8.1758514454
 11
-3.8000004731
 21
-11.9745556934
  0
LINE
  5
38C
100
AcDbEntity
  8
0
100
AcDbLine
 62
7
  6
CONTINUOUS
 10
-3.8000004715
 20
-13.0065234327
 11
-3.800000473
 21
-13.6888931459
  0
LINE
  5
38D
100
AcDbEntity
  8
0
100
AcDbLine
 62
253
  6
CONTINUOUS
 10
-3.8000006341
 20
-13.9914980671
 11
-3.8000020731
 21
-14.5688699928
  0
LINE
  5
38E
100
AcDbEntity
  8
0
100
AcDbLine
 62
7
  6
CONTINUOUS
 10
-3.75
 20
-0.1246371445
 11
-3.75
 21
-10.4751150709
  0
LINE
  5
38F
100
AcDbEntity
  8
0
100
AcDbLine
 62
7
  6
CONTINUOUS
 10
-3.75
 20
-11.5749886877
 11
-3.75
 21
-11.9734878532
  0
LINE
  5
390
100
AcDbEntity
  8
ASSI
100
AcDbLine
 62
7
  6
CONTINUOUS
 10
-3.5
 20
-23.9563493531
 11
-3.5
 21
-23.9941821702
  0
LINE
  5
391
100
AcDbEntity
  8
ASSI
100
AcDbLine
 62
7
  6
CONTINUOUS
 10
-3.5
 20
-21.7
 11
-3.5
 21
-23.9552966802
  0
LINE
  5
392
100
AcDbEntity
  8
0
100
AcDbLine
 62
7
  6
CONTINUOUS
 10
-3.5
 20
-21.7
 11
-3.5
 21
-23.9941821702
  0
LINE
  5
393
100
AcDbEntity
  8
ASSI
100
AcDbLine
 62
7
  6
CONTINUOUS
 10
-3.5
 20
23.9563493531
 11
-3.5
 21
23.9941821702
  0
LINE
  5
394
100
AcDbEntity
  8
ASSI
100
AcDbLine
 62
7
  6
CONTINUOUS
 10
-3.5
 20
20.9
 11
-3.5
 21
23.955318546
  0
LINE
  5
395
100
AcDbEntity
  8
0
100
AcDbLine
 62
7
  6
CONTINUOUS
 10
-3.5
 20
23.9563493531
 11
-3.5
 21
23.9941821702
  0
LINE
  5
396
100
AcDbEntity
  8
0
100
AcDbLine
 62
7
  6
CONTINUOUS
 10
-3.5
 20
20.9
 11
-3.5
 21
23.9541479441
  0
LINE
  5
397
100
AcDbEntity
  8
0
100
AcDbLine
 62
253
  6
CONTINUOUS
 10
-3.8892482246
 20
1.1991723268
 11
-3.8892524442
 21
8.171173984
  0
LINE
  5
398
100
AcDbEntity
  8
0
100
AcDbLine
 62
253
  6
CONTINUOUS
 10
-3.8892567223
 20
-12.0261982847
 11
-3.8892481881
 21
-11.9746406602
  0
LINE
  5
399
100
AcDbEntity
  8
ASSI
100
AcDbLine
 62
7
  6
CONTINUOUS
 10
-9.5486944921
 20
-16.2980131393
 11
-9.5121049871
 21
-16.1146184105
  0
LINE
  5
39A
100
AcDbEntity
  8
DRAFT
100
AcDbLine
 62
7
  6
CONTINUOUS
 10
-9.5486944921
 20
-16.2980131393
 11
-9.5121049871
 21
-16.1146184105
  0
LINE
  5
39B
100
AcDbEntity
  8
ASSI
100
AcDbLine
 62
7
  6
CONTINUOUS
 10
-9.5550235832
 20
-19.2510992651
 11
-9.6046168312
 21
-19.4
  0
LINE
  5
39C
100
AcDbEntity
  8
DRAFT
100
AcDbLine
 62
7
  6
CONTINUOUS
 10
-9.5550235832
 20
-19.2510992651
 11
-9.6046168312
 21
-19.4
  0
LINE
  5
39D
100
AcDbEntity
  8
0
100
AcDbLine
 62
7
  6
CONTINUOUS
 10
3.8762156526
 20
-3.8623204556
 11
3.7999999531
 21
-3.8596590592
  0
LINE
  5
39E
100
AcDbEntity
  8
0
100
AcDbLine
 62
253
  6
CONTINUOUS
 10
3.8892522044
 20
-3.8627758084
 11
3.8762156526
 21
-3.8623204556
  0
LINE
  5
39F
100
AcDbEntity
  8
0
100
AcDbLine
 62
7
  6
CONTINUOUS
 10
-0.0000685132
 20
-16.9644476203
 11
0.0000341822
 21
-16.9670604466
  0
LINE
  5
3A0
100
AcDbEntity
  8
0
100
AcDbLine
 62
7
  6
CONTINUOUS
 10
-2.40000025
 20
-19.0
 11
-2.40000025
 21
-18.9320750066
  0
LINE
  5
3A1
100
AcDbEntity
  8
0
100
AcDbLine
 62
7
  6
CONTINUOUS
 10
-2.40000025
 20
18.9320750066
 11
-2.40000025
 21
19.0
  0
LINE
  5
3A2
100
AcDbEntity
  8
0
100
AcDbLine
 62
7
  6
CONTINUOUS
 10
-2.2
 20
-6.8950543263
 11
-2.2
 21
-10.1921157854
  0
LINE
  5
3A3
100
AcDbEntity
  8
0
100
AcDbLine
 62
253
  6
CONTINUOUS
 10
-2.15000025
 20
-19.0
 11
-2.15000025
 21
-18.8827984638
  0
LINE
  5
3A4
100
AcDbEntity
  8
0
100
AcDbLine
 62
253
  6
CONTINUOUS
 10
-2.15000025
 20
18.8827984638
 11
-2.15000025
 21
19.0
  0
LINE
  5
3A5
100
AcDbEntity
  8
0
100
AcDbLine
 62
253
  6
CONTINUOUS
 10
-2.15000025
 20
20.9
 11
-2.15000025
 21
21.0
  0
LINE
  5
3A6
100
AcDbEntity
  8
0
100
AcDbLine
 62
7
  6
CONTINUOUS
 10
-1.6443731437
 20
-9.2818704993
 11
-1.6443731437
 21
-9.5095206821
  0
LINE
  5
3A7
100
AcDbEntity
  8
0
100
AcDbLine
 62
7
  6
CONTINUOUS
 10
-1.0117907053
 20
-9.2818704993
 11
-1.0117907053
 21
-7.5365524313
  0
LINE
  5
3A8
100
AcDbEntity
  8
ASSI
100
AcDbLine
 62
7
  6
CONTINUOUS
 10
-1.0087268678
 20
23.7941889394
 11
-1.0087268678
 21
22.3947639644
  0
LINE
  5
3A9
100
AcDbEntity
  8
0
100
AcDbLine
 62
7
  6
CONTINUOUS
 10
-1.0087268678
 20
23.7941889394
 11
-1.0087268678
 21
22.3947639644
  0
LINE
  5
3AA
100
AcDbEntity
  8
ASSI
100
AcDbLine
 62
7
  6
CONTINUOUS
 10
-1.0087268678
 20
-22.3947639644
 11
-1.0087268678
 21
-23.7941889394
  0
LINE
  5
3AB
100
AcDbEntity
  8
0
100
AcDbLine
 62
7
  6
CONTINUOUS
 10
-1.0087268678
 20
-22.3947639644
 11
-1.0087268678
 21
-23.7941889394
  0
LINE
  5
3AC
100
AcDbEntity
  8
ASSI
100
AcDbLine
 62
7
  6
CONTINUOUS
 10
-1.0
 20
23.8000067692
 11
-1.0
 21
22.4
  0
LINE
  5
3AD
100
AcDbEntity
  8
0
100
AcDbLine
 62
7
  6
CONTINUOUS
 10
-1.0
 20
23.8000067692
 11
-1.0
 21
22.4
  0
LINE
  5
3AE
100
AcDbEntity
  8
ASSI
100
AcDbLine
 62
7
  6
CONTINUOUS
 10
-1.0
 20
-22.4
 11
-1.0
 21
-23.8000067692
  0
LINE
  5
3AF
100
AcDbEntity
  8
0
100
AcDbLine
 62
7
  6
CONTINUOUS
 10
-1.0
 20
-22.4
 11
-1.0
 21
-23.8000067692
  0
LINE
  5
3B0
100
AcDbEntity
  8
0
100
AcDbLine
 62
7
  6
CONTINUOUS
 10
-0.9230095943
 20
3.2691197763
 11
-0.9230095943
 21
3.2356005037
  0
LINE
  5
3B1
100
AcDbEntity
  8
0
100
AcDbLine
 62
7
  6
CONTINUOUS
 10
-0.7334544324
 20
-7.5365524313
 11
-0.7334544324
 21
-9.2818704993
  0
LINE
  5
3B2
100
AcDbEntity
  8
0
100
AcDbLine
 62
7
  6
CONTINUOUS
 10
-0.4
 20
3.5164845712
 11
-0.4
 21
4.7519989052
  0
LINE
  5
3B3
100
AcDbEntity
  8
0
100
AcDbLine
 62
7
  6
CONTINUOUS
 10
-0.0000003245
 20
-16.9644411718
 11
-0.0000004949
 21
-14.5688698423
  0
LINE
  5
3B4
100
AcDbEntity
  8
0
100
AcDbLine
 62
7
  6
CONTINUOUS
 10
0.0
 20
2.1796769681
 11
0.0
 21
2.1461493526
  0
LINE
  5
3B5
100
AcDbEntity
  8
0
100
AcDbLine
 62
7
  6
CONTINUOUS
 10
-0.0000343304
 20
-16.9670632697
 11
0.0
 21
-17.9822819681
  0
LINE
  5
3B6
100
AcDbEntity
  8
0
100
AcDbLine
 62
7
  6
CONTINUOUS
 10
0.0
 20
-13.9685629845
 11
0.0
 21
-13.0077179416
  0
LINE
  5
3B7
100
AcDbEntity
  8
0
100
AcDbLine
 62
7
  6
CONTINUOUS
 10
0.0
 20
-12.0056694076
 11
0.0
 21
-11.9735968352
  0
LINE
  5
3B8
100
AcDbEntity
  8
0
100
AcDbLine
 62
7
  6
CONTINUOUS
 10
-0.0
 20
8.3750010153
 11
-0.0
 21
17.9822819681
  0
LINE
  5
3B9
100
AcDbEntity
  8
0
100
AcDbLine
 62
253
  6
CONTINUOUS
 10
0.0
 20
8.1750010391
 11
-0.0
 21
8.3490069907
  0
LINE
  5
3BA
100
AcDbEntity
  8
0
100
AcDbLine
 62
7
  6
CONTINUOUS
 10
0.1268576838
 20
-7.5365524313
 11
0.1268576838
 21
-7.7642026141
  0
LINE
  5
3BB
100
AcDbEntity
  8
0
100
AcDbLine
 62
7
  6
CONTINUOUS
 10
0.2533741715
 20
-8.4471531624
 11
0.2533741715
 21
-8.6748033452
  0
LINE
  5
3BC
100
AcDbEntity
  8
0
100
AcDbLine
 62
7
  6
CONTINUOUS
 10
0.4
 20
4.7519989052
 11
0.4
 21
3.5164845712
  0
LINE
  5
3BD
100
AcDbEntity
  8
0
100
AcDbLine
 62
7
  6
CONTINUOUS
 10
0.0000012198
 20
8.3702057892
 11
0.0
 21
8.3490070212
  0
LINE
  5
3BE
100
AcDbEntity
  8
ASSI
100
AcDbLine
 62
7
  6
CONTINUOUS
 10
-9.65
 20
-20.1990396502
 11
-9.6046168312
 21
-20.0627794241
  0
LINE
  5
3BF
100
AcDbEntity
  8
0
100
AcDbLine
 62
7
  6
CONTINUOUS
 10
-9.65
 20
-20.1990396502
 11
-9.6046168312
 21
-20.0627794241
  0
LINE
  5
3C0
100
AcDbEntity
  8
ASSI
100
AcDbLine
 62
7
  6
CONTINUOUS
 10
-8.9498936624
 20
-20.9
 11
-8.9045104936
 21
-20.7637397739
  0
LINE
  5
3C1
100
AcDbEntity
  8
0
100
AcDbLine
 62
7
  6
CONTINUOUS
 10
-8.9498936624
 20
-20.9
 11
-8.9045104936
 21
-20.7637397739
  0
LINE
  5
3C2
100
AcDbEntity
  8
0
100
AcDbLine
 62
7
  6
CONTINUOUS
 10
-3.75
 20
-2.3801404544
 11
-3.8000004744
 21
-2.3930863009
  0
LINE
  5
3C3
100
AcDbEntity
  8
0
100
AcDbLine
 62
7
  6
CONTINUOUS
 10
3.8761750985
 20
-1.8120675673
 11
3.8000004695
 21
-1.8189148455
  0
LINE
  5
3C4
100
AcDbEntity
  8
0
100
AcDbLine
 62
7
  6
CONTINUOUS
 10
3.8000004744
 20
-1.5978596124
 11
4.600000476
 21
-1.5293327785
  0
LWPOLYLINE
  5
3C5
100
AcDbEntity
  8
0
100
AcDbPolyline
 62
7
  6
CONTINUOUS
 90
22
 70
0
 10
5.699999994
 20
-1.2087630065
 10
5.8257130038
 20
-1.2064821912
 10
6.0290768084
 20
-1.1931327798
 10
6.2319225465
 20
-1.1679029448
 10
6.4330860841
 20
-1.130800076
 10
6.6318482462
 20
-1.0819273989
 10
6.8276637831
 20
-1.0213483154
 10
7.019984792
 20
-0.9491716042
 10
7.2091231816
 20
-0.8651426
 10
7.3927479035
 20
-0.7701914854
 10
7.5693418533
 20
-0.6652040429
 10
7.7388802042
 20
-0.5504254219
 10
7.9011890332
 20
-0.4260857464
 10
8.0560492884
 20
-0.2923325051
 10
8.2033192438
 20
-0.1492159184
 10
8.3412997795
 20
0.0015141813
 10
8.4696499748
 20
0.1593406504
 10
8.5880937727
 20
0.3236661263
 10
8.6966842242
 20
0.4942783133
 10
8.795353121
 20
0.6711155652
 10
8.8838267369
 20
0.8538253126
 10
8.930541589
 20
0.9627432555
  0
LINE
  5
3C6
100
AcDbEntity
  8
0
100
AcDbLine
 62
7
  6
CONTINUOUS
 10
5.7000007125
 20
-1.2254330435
 11
4.600000476
 21
-1.2254330435
  0
LINE
  5
3C7
100
AcDbEntity
  8
0
100
AcDbLine
 62
7
  6
CONTINUOUS
 10
5.7
 20
-1.2087682351
 11
3.7497872859
 21
-1.2087682351
  0
LINE
  5
3C8
100
AcDbEntity
  8
0
100
AcDbLine
 62
253
  6
CONTINUOUS
 10
5.0384661473
 20
-0.6524433158
 11
3.7399708713
 21
-0.6524433158
  0
LINE
  5
3C9
100
AcDbEntity
  8
ASSI
100
AcDbLine
 62
7
  6
CONTINUOUS
 10
-9.6814191169
 20
-0.5
 11
-7.5
 21
-0.5
  0
LINE
  5
3CA
100
AcDbEntity
  8
RACCORDO
100
AcDbLine
 62
7
  6
CONTINUOUS
 10
-9.6814191169
 20
-0.5
 11
-7.5
 21
-0.5
  0
LINE
  5
3CB
100
AcDbEntity
  8
ASSI
100
AcDbLine
 62
7
  6
CONTINUOUS
 10
7.8332333466
 20
-0.5
 11
9.6814191169
 21
-0.5
  0
LINE
  5
3CC
100
AcDbEntity
  8
RACCORDO
100
AcDbLine
 62
7
  6
CONTINUOUS
 10
7.8332333466
 20
-0.5
 11
9.6814191169
 21
-0.5
  0
LINE
  5
3CD
100
AcDbEntity
  8
0
100
AcDbLine
 62
253
  6
CONTINUOUS
 10
3.8000004559
 20
-1.8189149054
 11
3.8761750752
 21
-1.8192276123
  0
LINE
  5
3CE
100
AcDbEntity
  8
0
100
AcDbLine
 62
7
  6
CONTINUOUS
 10
3.75
 20
-2.3801404544
 11
3.800000475
 21
-2.3930863011
  0
LINE
  5
3CF
100
AcDbEntity
  8
ASSI
100
AcDbLine
 62
7
  6
CONTINUOUS
 10
-9.5242313121
 20
19.8214267532
 11
-9.65
 21
20.1990396502
  0
LINE
  5
3D0
100
AcDbEntity
  8
0
100
AcDbLine
 62
7
  6
CONTINUOUS
 10
-9.5242313121
 20
19.8214267532
 11
-9.65
 21
20.1990396502
  0
LINE
  5
3D1
100
AcDbEntity
  8
ASSI
100
AcDbLine
 62
7
  6
CONTINUOUS
 10
-8.8258650579
 20
20.5276115984
 11
-8.9498936624
 21
20.9
  0
LINE
  5
3D2
100
AcDbEntity
  8
0
100
AcDbLine
 62
7
  6
CONTINUOUS
 10
-8.8258650579
 20
20.5276115984
 11
-8.9498936624
 21
20.9
  0
LINE
  5
3D3
100
AcDbEntity
  8
0
100
AcDbLine
 62
7
  6
CONTINUOUS
 10
3.7399708713
 20
-0.6524433158
 11
3.7400279538
 21
-0.7162183258
  0
LINE
  5
3D4
100
AcDbEntity
  8
0
100
AcDbLine
 62
7
  6
CONTINUOUS
 10
0.9230095943
 20
3.2356005037
 11
0.9230095943
 21
3.2691197763
  0
LINE
  5
3D5
100
AcDbEntity
  8
ASSI
100
AcDbLine
 62
7
  6
CONTINUOUS
 10
1.0
 20
23.8000067692
 11
1.0
 21
22.4
  0
LINE
  5
3D6
100
AcDbEntity
  8
0
100
AcDbLine
 62
7
  6
CONTINUOUS
 10
1.0
 20
23.8000067692
 11
1.0
 21
22.4
  0
LINE
  5
3D7
100
AcDbEntity
  8
ASSI
100
AcDbLine
 62
7
  6
CONTINUOUS
 10
1.0
 20
-22.4
 11
1.0
 21
-23.8000067692
  0
LINE
  5
3D8
100
AcDbEntity
  8
0
100
AcDbLine
 62
7
  6
CONTINUOUS
 10
1.0
 20
-22.4
 11
1.0
 21
-23.8000067692
  0
LINE
  5
3D9
100
AcDbEntity
  8
ASSI
100
AcDbLine
 62
7
  6
CONTINUOUS
 10
1.0087268678
 20
23.7941889394
 11
1.0087268678
 21
22.3947639644
  0
LINE
  5
3DA
100
AcDbEntity
  8
0
100
AcDbLine
 62
7
  6
CONTINUOUS
 10
1.0087268678
 20
23.7941889394
 11
1.0087268678
 21
22.3947639644
  0
LINE
  5
3DB
100
AcDbEntity
  8
ASSI
100
AcDbLine
 62
7
  6
CONTINUOUS
 10
1.0087268678
 20
-22.3947639644
 11
1.0087268678
 21
-23.7941889394
  0
LINE
  5
3DC
100
AcDbEntity
  8
0
100
AcDbLine
 62
7
  6
CONTINUOUS
 10
1.0087268678
 20
-22.3947639644
 11
1.0087268678
 21
-23.7941889394
  0
LINE
  5
3DD
100
AcDbEntity
  8
0
100
AcDbLine
 62
7
  6
CONTINUOUS
 10
1.2908093705
 20
-9.2818704993
 11
1.2908093705
 21
-8.6748033452
  0
LINE
  5
3DE
100
AcDbEntity
  8
0
100
AcDbLine
 62
7
  6
CONTINUOUS
 10
1.2908093705
 20
-8.4471531624
 11
1.2908093705
 21
-7.7642026141
  0
LINE
  5
3DF
100
AcDbEntity
  8
0
100
AcDbLine
 62
7
  6
CONTINUOUS
 10
1.5691456434
 20
-7.5365524313
 11
1.5691456434
 21
-9.5095206821
  0
LINE
  5
3E0
100
AcDbEntity
  8
0
100
AcDbLine
 62
253
  6
CONTINUOUS
 10
2.15000025
 20
21.0
 11
2.15000025
 21
20.9
  0
LINE
  5
3E1
100
AcDbEntity
  8
0
100
AcDbLine
 62
253
  6
CONTINUOUS
 10
2.15000025
 20
19.0
 11
2.15000025
 21
18.8827984638
  0
LINE
  5
3E2
100
AcDbEntity
  8
0
100
AcDbLine
 62
253
  6
CONTINUOUS
 10
2.15000025
 20
-18.8827984638
 11
2.15000025
 21
-19.0
  0
LINE
  5
3E3
100
AcDbEntity
  8
0
100
AcDbLine
 62
7
  6
CONTINUOUS
 10
2.2
 20
-10.1921157854
 11
2.2
 21
-6.8950543263
  0
LINE
  5
3E4
100
AcDbEntity
  8
0
100
AcDbLine
 62
7
  6
CONTINUOUS
 10
2.40000025
 20
19.0
 11
2.40000025
 21
18.9320750066
  0
LINE
  5
3E5
100
AcDbEntity
  8
0
100
AcDbLine
 62
7
  6
CONTINUOUS
 10
2.40000025
 20
-18.9320750066
 11
2.40000025
 21
-19.0
  0
LINE
  5
3E6
100
AcDbEntity
  8
0
100
AcDbLine
 62
7
  6
CONTINUOUS
 10
3.05
 20
2.2839475992
 11
3.05
 21
2.3009249102
  0
LINE
  5
3E7
100
AcDbEntity
  8
ASSI
100
AcDbLine
 62
7
  6
CONTINUOUS
 10
3.5
 20
-23.9563493531
 11
3.5
 21
-23.9941821702
  0
LINE
  5
3E8
100
AcDbEntity
  8
ASSI
100
AcDbLine
 62
7
  6
CONTINUOUS
 10
3.5
 20
-21.7
 11
3.5
 21
-23.9552966802
  0
LINE
  5
3E9
100
AcDbEntity
  8
0
100
AcDbLine
 62
7
  6
CONTINUOUS
 10
3.5
 20
-21.7
 11
3.5
 21
-23.9941821702
  0
LINE
  5
3EA
100
AcDbEntity
  8
ASSI
100
AcDbLine
 62
7
  6
CONTINUOUS
 10
3.5
 20
23.9563493531
 11
3.5
 21
23.9941821702
  0
LINE
  5
3EB
100
AcDbEntity
  8
ASSI
100
AcDbLine
 62
7
  6
CONTINUOUS
 10
3.5
 20
20.9
 11
3.5
 21
23.955318546
  0
LINE
  5
3EC
100
AcDbEntity
  8
0
100
AcDbLine
 62
7
  6
CONTINUOUS
 10
3.5
 20
20.9
 11
3.5
 21
23.9541479441
  0
LINE
  5
3ED
100
AcDbEntity
  8
0
100
AcDbLine
 62
7
  6
CONTINUOUS
 10
3.5
 20
23.9563493531
 11
3.5
 21
23.9941821702
  0
LINE
  5
3EE
100
AcDbEntity
  8
0
100
AcDbLine
 62
7
  6
CONTINUOUS
 10
3.75
 20
6.9535311214
 11
3.75
 21
5.7871633843
  0
LINE
  5
3EF
100
AcDbEntity
  8
0
100
AcDbLine
 62
7
  6
CONTINUOUS
 10
3.75
 20
-11.5749886877
 11
3.75
 21
-11.9734878532
  0
LINE
  5
3F0
100
AcDbEntity
  8
0
100
AcDbLine
 62
7
  6
CONTINUOUS
 10
3.800000473
 20
-13.6888931459
 11
3.8000004732
 21
-12.77928304
  0
LINE
  5
3F1
100
AcDbEntity
  8
0
100
AcDbLine
 62
7
  6
CONTINUOUS
 10
3.8000004731
 20
-11.9745556934
 11
3.8000004748
 21
-1.2087682351
  0
LINE
  5
3F2
100
AcDbEntity
  8
0
100
AcDbLine
 62
7
  6
CONTINUOUS
 10
3.8000004759
 20
5.7872348726
 11
3.8000004753
 21
8.1754760819
  0
LINE
  5
3F3
100
AcDbEntity
  8
0
100
AcDbLine
 62
253
  6
CONTINUOUS
 10
3.8000004716
 20
-13.9914980672
 11
3.8000004779
 21
-14.5688699928
  0
LINE
  5
3F4
100
AcDbEntity
  8
0
100
AcDbLine
 62
7
  6
CONTINUOUS
 10
3.7500125657
 20
-1.208661932
 11
3.75
 21
-10.4751150709
  0
LINE
  5
3F5
100
AcDbEntity
  8
ASSI
100
AcDbLine
 62
7
  6
CONTINUOUS
 10
8.8258650579
 20
20.5276115984
 11
8.9498936624
 21
20.9
  0
LINE
  5
3F6
100
AcDbEntity
  8
0
100
AcDbLine
 62
7
  6
CONTINUOUS
 10
8.8258650579
 20
20.5276115984
 11
8.9498936624
 21
20.9
  0
LINE
  5
3F7
100
AcDbEntity
  8
ASSI
100
AcDbLine
 62
7
  6
CONTINUOUS
 10
9.5242313121
 20
19.8214267532
 11
9.65
 21
20.1990396502
  0
LINE
  5
3F8
100
AcDbEntity
  8
0
100
AcDbLine
 62
7
  6
CONTINUOUS
 10
9.5242313121
 20
19.8214267532
 11
9.65
 21
20.1990396502
  0
LINE
  5
3F9
100
AcDbEntity
  8
0
100
AcDbLine
 62
7
  6
CONTINUOUS
 10
5.0463116072
 20
3.3332424272
 11
4.6738349546
 21
2.9734816606
  0
LINE
  5
3FA
100
AcDbEntity
  8
0
100
AcDbLine
 62
7
  6
CONTINUOUS
 10
4.7237002873
 20
2.9756503352
 11
5.0454485199
 21
3.2864144864
  0
LINE
  5
3FB
100
AcDbEntity
  8
0
100
AcDbLine
 62
7
  6
CONTINUOUS
 10
4.4511232696
 20
1.621659613
 11
5.0804564462
 21
2.2295081438
  0
LINE
  5
3FC
100
AcDbEntity
  8
0
100
AcDbLine
 62
7
  6
CONTINUOUS
 10
5.7637324664
 20
2.8894579772
 11
6.3930656429
 21
3.497306508
  0
LINE
  5
3FD
100
AcDbEntity
  8
0
100
AcDbLine
 62
7
  6
CONTINUOUS
 10
5.8617369573
 20
2.8001394446
 11
5.7063372735
 21
2.6500449112
  0
LINE
  5
3FE
100
AcDbEntity
  8
0
100
AcDbLine
 62
7
  6
CONTINUOUS
 10
5.3338606209
 20
2.2902841446
 11
5.1784609371
 21
2.1401896112
  0
LINE
  5
3FF
100
AcDbEntity
  8
0
100
AcDbLine
 62
7
  6
CONTINUOUS
 10
4.7004499334
 20
1.6325029857
 11
5.3837259536
 21
2.2924528191
  0
LINE
  5
400
100
AcDbEntity
  8
0
100
AcDbLine
 62
7
  6
CONTINUOUS
 10
5.7054741862
 20
2.6032169703
 11
6.3887502064
 21
3.2631668037
  0
LINE
  5
401
100
AcDbEntity
  8
0
100
AcDbLine
 62
7
  6
CONTINUOUS
 10
5.0167239798
 20
1.6304199342
 11
6.3832760202
 21
2.950319601
  0
LINE
  5
402
100
AcDbEntity
  8
0
100
AcDbLine
 62
7
  6
CONTINUOUS
 10
6.6995500666
 20
2.9414555381
 11
6.0162740464
 21
2.2815057047
  0
LINE
  5
403
100
AcDbEntity
  8
0
100
AcDbLine
 62
7
  6
CONTINUOUS
 10
5.6945258138
 20
1.9707415535
 11
5.0112497936
 21
1.3107917201
  0
LINE
  5
404
100
AcDbEntity
  8
0
100
AcDbLine
 62
7
  6
CONTINUOUS
 10
5.5382630427
 20
1.7677557538
 11
5.6936627265
 21
1.9178502873
  0
LINE
  5
405
100
AcDbEntity
  8
0
100
AcDbLine
 62
7
  6
CONTINUOUS
 10
6.0661393791
 20
2.2776110539
 11
6.2215390629
 21
2.4277055873
  0
LINE
  5
406
100
AcDbEntity
  8
0
100
AcDbLine
 62
7
  6
CONTINUOUS
 10
6.9488767304
 20
2.921982284
 11
6.3195435538
 21
2.3141337532
  0
LINE
  5
407
100
AcDbEntity
  8
0
100
AcDbLine
 62
7
  6
CONTINUOUS
 10
5.6362675336
 20
1.6541839198
 11
5.0069343571
 21
1.046335389
  0
LINE
  5
408
100
AcDbEntity
  8
0
100
AcDbLine
 62
7
  6
CONTINUOUS
 10
6.6762997127
 20
1.5983081886
 11
6.3545514801
 21
1.2875440374
  0
LINE
  5
409
100
AcDbEntity
  8
0
100
AcDbLine
 62
7
  6
CONTINUOUS
 10
6.3536883928
 20
1.2346527712
 11
6.7261650454
 21
1.5944135378
  0
LINE
  5
40A
100
AcDbEntity
  8
0
100
AcDbLine
 62
7
  6
CONTINUOUS
 10
4.4511232696
 20
1.621659613
 11
4.7004499334
 21
1.6325029857
  0
LINE
  5
40B
100
AcDbEntity
  8
0
100
AcDbLine
 62
7
  6
CONTINUOUS
 10
5.3338606209
 20
2.2902841446
 11
5.3837259536
 21
2.2924528191
  0
LINE
  5
40C
100
AcDbEntity
  8
0
100
AcDbLine
 62
7
  6
CONTINUOUS
 10
4.6738349546
 20
2.9734816606
 11
4.7237002873
 21
2.9756503352
  0
LINE
  5
40D
100
AcDbEntity
  8
0
100
AcDbLine
 62
253
  6
CONTINUOUS
 10
-3.7999963063
 20
3.496017308
 11
-3.889247353
 21
3.495094148
  0
LINE
  5
40E
100
AcDbEntity
  8
0
100
AcDbLine
 62
7
  6
CONTINUOUS
 10
-3.7999992453
 20
2.3488966173
 11
-3.8892476022
 21
2.3480233565
  0
LINE
  5
40F
100
AcDbEntity
  8
0
100
AcDbLine
 62
7
  6
CONTINUOUS
 10
-3.8892482246
 20
1.1991723268
 11
-3.7999961365
 21
1.1999849913
  0
LINE
  5
410
100
AcDbEntity
  8
ASSI
100
AcDbLine
 62
7
  6
CONTINUOUS
 10
9.6814191169
 20
0.5
 11
8.7157324031
 21
0.5
  0
LINE
  5
411
100
AcDbEntity
  8
RACCORDO
100
AcDbLine
 62
7
  6
CONTINUOUS
 10
9.6814191169
 20
0.5
 11
8.7157324031
 21
0.5
  0
LINE
  5
412
100
AcDbEntity
  8
ASSI
100
AcDbLine
 62
7
  6
CONTINUOUS
 10
-7.5
 20
0.5
 11
-9.6814191169
 21
0.5
  0
LINE
  5
413
100
AcDbEntity
  8
RACCORDO
100
AcDbLine
 62
7
  6
CONTINUOUS
 10
-7.5
 20
0.5
 11
-9.6814191169
 21
0.5
  0
LINE
  5
414
100
AcDbEntity
  8
0
100
AcDbLine
 62
7
  6
CONTINUOUS
 10
0.9230095943
 20
3.2691197763
 11
0.65
 21
3.2691197763
  0
LINE
  5
415
100
AcDbEntity
  8
0
100
AcDbLine
 62
7
  6
CONTINUOUS
 10
-0.65
 20
3.2691197763
 11
-0.9230095943
 21
3.2691197763
  0
LINE
  5
416
100
AcDbEntity
  8
0
100
AcDbLine
 62
7
  6
CONTINUOUS
 10
4.7004499334
 20
1.6325029857
 11
5.0167239798
 21
1.6304199342
  0
LINE
  5
417
100
AcDbEntity
  8
0
100
AcDbLine
 62
7
  6
CONTINUOUS
 10
5.3837259536
 20
2.2924528191
 11
5.7
 21
2.2903697676
  0
LINE
  5
418
100
AcDbEntity
  8
0
100
AcDbLine
 62
7
  6
CONTINUOUS
 10
4.7237002873
 20
2.9756503352
 11
5.0399743337
 21
2.9735672837
  0
LINE
  5
419
100
AcDbEntity
  8
0
100
AcDbLine
 62
7
  6
CONTINUOUS
 10
6.6762997127
 20
1.5983081886
 11
6.3600256663
 21
1.6071722516
  0
LINE
  5
41A
100
AcDbEntity
  8
0
100
AcDbLine
 62
7
  6
CONTINUOUS
 10
6.0162740464
 20
2.2815057047
 11
5.7
 21
2.2903697676
  0
LINE
  5
41B
100
AcDbEntity
  8
0
100
AcDbLine
 62
7
  6
CONTINUOUS
 10
6.6995500666
 20
2.9414555381
 11
6.3832760202
 21
2.950319601
  0
LINE
  5
41C
100
AcDbEntity
  8
0
100
AcDbLine
 62
7
  6
CONTINUOUS
 10
6.7261650454
 20
1.5944135378
 11
6.6762997127
 21
1.5983081886
  0
LINE
  5
41D
100
AcDbEntity
  8
0
100
AcDbLine
 62
7
  6
CONTINUOUS
 10
6.0661393791
 20
2.2776110539
 11
6.0162740464
 21
2.2815057047
  0
LINE
  5
41E
100
AcDbEntity
  8
0
100
AcDbLine
 62
7
  6
CONTINUOUS
 10
6.9488767304
 20
2.921982284
 11
6.6995500666
 21
2.9414555381
  0
LINE
  5
41F
100
AcDbEntity
  8
ASSI
100
AcDbLine
 62
7
  6
CONTINUOUS
 10
8.9498936624
 20
-20.9
 11
8.9045104936
 21
-20.7637397739
  0
LINE
  5
420
100
AcDbEntity
  8
0
100
AcDbLine
 62
7
  6
CONTINUOUS
 10
8.9498936624
 20
-20.9
 11
8.9045104936
 21
-20.7637397739
  0
LINE
  5
421
100
AcDbEntity
  8
ASSI
100
AcDbLine
 62
7
  6
CONTINUOUS
 10
9.65
 20
-20.1990396502
 11
9.6046168312
 21
-20.0627794241
  0
LINE
  5
422
100
AcDbEntity
  8
0
100
AcDbLine
 62
7
  6
CONTINUOUS
 10
9.65
 20
-20.1990396502
 11
9.6046168312
 21
-20.0627794241
  0
LINE
  5
423
100
AcDbEntity
  8
ASSI
100
AcDbLine
 62
7
  6
CONTINUOUS
 10
9.5550235832
 20
-19.2510992651
 11
9.6046168312
 21
-19.4
  0
LINE
  5
424
100
AcDbEntity
  8
DRAFT
100
AcDbLine
 62
7
  6
CONTINUOUS
 10
9.5550235832
 20
-19.2510992651
 11
9.6046168312
 21
-19.4
  0
LINE
  5
425
100
AcDbEntity
  8
ASSI
100
AcDbLine
 62
253
  6
CONTINUOUS
 10
7.254371834
 20
-23.8443375673
 11
7.25
 21
-23.4104851482
  0
LINE
  5
426
100
AcDbEntity
  8
0
100
AcDbLine
 62
253
  6
CONTINUOUS
 10
7.254371834
 20
-23.8443375673
 11
7.25
 21
-23.4104851482
  0
LINE
  5
427
100
AcDbEntity
  8
ASSI
100
AcDbLine
 62
253
  6
CONTINUOUS
 10
7.5043676032
 20
-23.6278312164
 11
7.4992770021
 21
-23.1226497308
  0
LINE
  5
428
100
AcDbEntity
  8
0
100
AcDbLine
 62
253
  6
CONTINUOUS
 10
7.5043676032
 20
-23.6278312164
 11
7.4992770021
 21
-23.1226497308
  0
LINE
  5
429
100
AcDbEntity
  8
0
100
AcDbLine
 62
253
  6
CONTINUOUS
 10
3.8892481881
 20
-11.9746406602
 11
3.8892571743
 21
-12.0289287274
  0
LINE
  5
42A
100
AcDbEntity
  8
0
100
AcDbLine
 62
253
  6
CONTINUOUS
 10
3.8761750985
 20
8.1728160412
 11
3.8761750985
 21
6.431205171
  0
LINE
  5
42B
100
AcDbEntity
  8
0
100
AcDbLine
 62
253
  6
CONTINUOUS
 10
3.8761750934
 20
-1.8120523922
 11
3.8761750732
 21
-3.8624026758
  0
LINE
  5
42C
100
AcDbEntity
  8
0
100
AcDbLine
 62
7
  6
CONTINUOUS
 10
3.8892526319
 20
-11.9746407124
 11
3.8892522044
 21
-3.8627758084
  0
LINE
  5
42D
100
AcDbEntity
  8
0
100
AcDbLine
 62
253
  6
CONTINUOUS
 10
3.8892524434
 20
-17.2711750891
 11
3.8892524408
 21
-16.7608970125
  0
LINE
  5
42E
100
AcDbEntity
  8
0
100
AcDbLine
 62
253
  6
CONTINUOUS
 10
3.8892524404
 20
-12.7782208352
 11
3.8892513638
 21
-14.5688699928
  0
LINE
  5
42F
100
AcDbEntity
  8
0
100
AcDbLine
 62
7
  6
CONTINUOUS
 10
3.8892535391
 20
-16.7608941097
 11
3.8892579888
 21
-14.5688925915
  0
LINE
  5
430
100
AcDbEntity
  8
ASSI
100
AcDbLine
 62
7
  6
CONTINUOUS
 10
4.406077753
 20
-23.9538922731
 11
4.406077753
 21
-22.356077753
  0
LINE
  5
431
100
AcDbEntity
  8
0
100
AcDbLine
 62
7
  6
CONTINUOUS
 10
4.406077753
 20
-23.9538922731
 11
4.406077753
 21
-22.356077753
  0
LINE
  5
432
100
AcDbEntity
  8
ASSI
100
AcDbLine
 62
7
  6
CONTINUOUS
 10
4.406077753
 20
22.356077753
 11
4.406077753
 21
23.9538922731
  0
LINE
  5
433
100
AcDbEntity
  8
0
100
AcDbLine
 62
7
  6
CONTINUOUS
 10
4.406077753
 20
22.356077753
 11
4.406077753
 21
23.9538922731
  0
LINE
  5
434
100
AcDbEntity
  8
ASSI
100
AcDbLine
 62
7
  6
CONTINUOUS
 10
4.45
 20
-24.0
 11
4.45
 21
-23.3679449472
  0
LINE
  5
435
100
AcDbEntity
  8
0
100
AcDbLine
 62
7
  6
CONTINUOUS
 10
4.45
 20
-24.0
 11
4.45
 21
-23.3679449472
  0
LINE
  5
436
100
AcDbEntity
  8
ASSI
100
AcDbLine
 62
7
  6
CONTINUOUS
 10
4.45
 20
-22.9320550528
 11
4.45
 21
-22.4
  0
LINE
  5
437
100
AcDbEntity
  8
0
100
AcDbLine
 62
7
  6
CONTINUOUS
 10
4.45
 20
-22.9320550528
 11
4.45
 21
-22.4
  0
LINE
  5
438
100
AcDbEntity
  8
ASSI
100
AcDbLine
 62
7
  6
CONTINUOUS
 10
4.45
 20
22.4
 11
4.45
 21
22.9320550528
  0
LINE
  5
439
100
AcDbEntity
  8
0
100
AcDbLine
 62
7
  6
CONTINUOUS
 10
4.45
 20
22.4
 11
4.45
 21
22.9320550528
  0
LINE
  5
43A
100
AcDbEntity
  8
ASSI
100
AcDbLine
 62
7
  6
CONTINUOUS
 10
4.45
 20
23.3679449472
 11
4.45
 21
24.0
  0
LINE
  5
43B
100
AcDbEntity
  8
0
100
AcDbLine
 62
7
  6
CONTINUOUS
 10
4.45
 20
23.3679449472
 11
4.45
 21
24.0
  0
LINE
  5
43C
100
AcDbEntity
  8
ASSI
100
AcDbLine
 62
7
  6
CONTINUOUS
 10
4.5
 20
20.9
 11
4.5
 21
19.0
  0
LINE
  5
43D
100
AcDbEntity
  8
0
100
AcDbLine
 62
7
  6
CONTINUOUS
 10
4.5
 20
20.9
 11
4.5
 21
19.0
  0
LINE
  5
43E
100
AcDbEntity
  8
ASSI
100
AcDbLine
 62
7
  6
CONTINUOUS
 10
4.5
 20
-20.9
 11
4.5
 21
-18.9023651948
  0
LINE
  5
43F
100
AcDbEntity
  8
0
100
AcDbLine
 62
7
  6
CONTINUOUS
 10
4.5
 20
-20.9
 11
4.5
 21
-18.9023651948
  0
LINE
  5
440
100
AcDbEntity
  8
0
100
AcDbLine
 62
7
  6
CONTINUOUS
 10
4.6000004762
 20
-16.5222029381
 11
4.6000004733
 21
-11.5290748266
  0
LINE
  5
441
100
AcDbEntity
  8
0
100
AcDbLine
 62
7
  6
CONTINUOUS
 10
4.6000004733
 20
-10.5046325301
 11
4.600000476
 21
-1.2254331014
  0
LINE
  5
442
100
AcDbEntity
  8
0
100
AcDbLine
 62
7
  6
CONTINUOUS
 10
4.6000004752
 20
7.4232728327
 11
4.600000476
 21
5.7872348726
  0
LINE
  5
443
100
AcDbEntity
  8
0
100
AcDbLine
 62
7
  6
CONTINUOUS
 10
4.65
 20
-11.5749886877
 11
4.65
 21
-10.5046325301
  0
LINE
  5
444
100
AcDbEntity
  8
0
100
AcDbLine
 62
253
  6
CONTINUOUS
 10
5.7
 20
5.7872348724
 11
5.7
 21
5.368647671
  0
LINE
  5
445
100
AcDbEntity
  8
0
100
AcDbLine
 62
253
  6
CONTINUOUS
 10
5.7
 20
-0.7264813971
 11
5.7
 21
-1.2087682175
  0
LINE
  5
446
100
AcDbEntity
  8
ASSI
100
AcDbLine
 62
7
  6
CONTINUOUS
 10
6.25
 20
20.9
 11
6.25
 21
19.5
  0
LINE
  5
447
100
AcDbEntity
  8
ASSI
100
AcDbLine
 62
7
  6
CONTINUOUS
 10
6.25
 20
-19.5
 11
6.25
 21
-20.9
  0
LINE
  5
448
100
AcDbEntity
  8
0
100
AcDbLine
 62
253
  6
CONTINUOUS
 10
6.5871557427
 20
17.8325
 11
6.5871557427
 21
5.6711651406
  0
LINE
  5
449
100
AcDbEntity
  8
0
100
AcDbLine
 62
253
  6
CONTINUOUS
 10
6.5871557427
 20
-1.1107488549
 11
6.5871557427
 21
-17.8325
  0
LINE
  5
44A
100
AcDbEntity
  8
ASSI
100
AcDbLine
 62
7
  6
CONTINUOUS
 10
7.25
 20
-22.4
 11
7.25
 21
-23.8443375673
  0
LINE
  5
44B
100
AcDbEntity
  8
0
100
AcDbLine
 62
7
  6
CONTINUOUS
 10
7.25
 20
-22.4
 11
7.25
 21
-23.8443375673
  0
LINE
  5
44C
100
AcDbEntity
  8
ASSI
100
AcDbLine
 62
7
  6
CONTINUOUS
 10
7.25
 20
22.4
 11
7.25
 21
23.8443375673
  0
LINE
  5
44D
100
AcDbEntity
  8
0
100
AcDbLine
 62
7
  6
CONTINUOUS
 10
7.25
 20
22.4
 11
7.25
 21
23.8443375673
  0
LINE
  5
44E
100
AcDbEntity
  8
ASSI
100
AcDbLine
 62
7
  6
CONTINUOUS
 10
7.254371834
 20
24.2456323968
 11
7.254371834
 21
23.8443375673
  0
LINE
  5
44F
100
AcDbEntity
  8
0
100
AcDbLine
 62
7
  6
CONTINUOUS
 10
7.254371834
 20
24.2456323968
 11
7.254371834
 21
23.8443375673
  0
LINE
  5
450
100
AcDbEntity
  8
ASSI
100
AcDbLine
 62
7
  6
CONTINUOUS
 10
7.254371834
 20
-23.8443375673
 11
7.254371834
 21
-24.2456323968
  0
LINE
  5
451
100
AcDbEntity
  8
0
100
AcDbLine
 62
7
  6
CONTINUOUS
 10
7.254371834
 20
-23.8443375673
 11
7.254371834
 21
-24.2456323968
  0
LINE
  5
452
100
AcDbEntity
  8
ASSI
100
AcDbLine
 62
253
  6
CONTINUOUS
 10
7.25
 20
23.4104851482
 11
7.254371834
 21
23.8443375673
  0
LINE
  5
453
100
AcDbEntity
  8
0
100
AcDbLine
 62
253
  6
CONTINUOUS
 10
7.25
 20
23.4104851482
 11
7.254371834
 21
23.8443375673
  0
LINE
  5
454
100
AcDbEntity
  8
ASSI
100
AcDbLine
 62
253
  6
CONTINUOUS
 10
7.4992770021
 20
23.1226497308
 11
7.5043676032
 21
23.6278312164
  0
LINE
  5
455
100
AcDbEntity
  8
0
100
AcDbLine
 62
253
  6
CONTINUOUS
 10
7.4992770021
 20
23.1226497308
 11
7.5043676032
 21
23.6278312164
  0
LINE
  5
456
100
AcDbEntity
  8
0
100
AcDbLine
 62
7
  6
CONTINUOUS
 10
5.0069343571
 20
1.046335389
 11
5.0167239798
 21
1.6304199342
  0
LINE
  5
457
100
AcDbEntity
  8
0
100
AcDbLine
 62
7
  6
CONTINUOUS
 10
6.3536883928
 20
1.2346527712
 11
6.3600256663
 21
1.6071722516
  0
LINE
  5
458
100
AcDbEntity
  8
0
100
AcDbLine
 62
7
  6
CONTINUOUS
 10
5.0463116072
 20
3.3332424272
 11
5.0399743337
 21
2.9735672837
  0
LINE
  5
459
100
AcDbEntity
  8
0
100
AcDbLine
 62
7
  6
CONTINUOUS
 10
5.7063372735
 20
2.6500449112
 11
5.6936627265
 21
1.9178502873
  0
LINE
  5
45A
100
AcDbEntity
  8
0
100
AcDbLine
 62
7
  6
CONTINUOUS
 10
6.3930656429
 20
3.497306508
 11
6.3832760202
 21
2.950319601
  0
LINE
  5
45B
100
AcDbEntity
  8
0
100
AcDbLine
 62
7
  6
CONTINUOUS
 10
7.1696681345
 20
0.0790761112
 11
7.169597439
 21
0.0789963313
  0
LINE
  5
45C
100
AcDbEntity
  8
0
100
AcDbLine
 62
7
  6
CONTINUOUS
 10
3.7386922173
 20
-6.1503598399
 11
3.75
 21
-6.1405399558
  0
LINE
  5
45D
100
AcDbEntity
  8
0
100
AcDbLine
 62
253
  6
CONTINUOUS
 10
-3.8000005356
 20
4.638541353
 11
-3.8892515829
 21
4.6375005683
  0
LINE
  5
45E
100
AcDbEntity
  8
0
100
AcDbLine
 62
7
  6
CONTINUOUS
 10
-3.8892524418
 20
5.7738609602
 11
-3.8000004752
 21
5.7748332377
  0
LINE
  5
45F
100
AcDbEntity
  8
0
100
AcDbLine
 62
253
  6
CONTINUOUS
 10
-3.8892524418
 20
5.8840497581
 11
-3.8000004752
 21
5.8848991599
  0
LINE
  5
460
100
AcDbEntity
  8
0
100
AcDbLine
 62
7
  6
CONTINUOUS
 10
0.4
 20
4.7519989052
 11
-0.4
 21
4.7519989052
  0
LINE
  5
461
100
AcDbEntity
  8
0
100
AcDbLine
 62
253
  6
CONTINUOUS
 10
3.7414425436
 20
5.368647671
 11
5.7
 21
5.368647671
  0
LINE
  5
462
100
AcDbEntity
  8
0
100
AcDbLine
 62
7
  6
CONTINUOUS
 10
5.7
 20
5.7872348726
 11
3.7498419926
 21
5.7872348726
  0
LINE
  5
463
100
AcDbEntity
  8
0
100
AcDbLine
 62
253
  6
CONTINUOUS
 10
-3.7331843727
 20
5.9360397609
 11
3.7432512897
 21
5.9360397609
  0
LINE
  5
464
100
AcDbEntity
  8
0
100
AcDbLine
 62
7
  6
CONTINUOUS
 10
4.600000476
 20
6.2285827582
 11
3.8000004766
 21
6.297109593
  0
LINE
  5
465
100
AcDbEntity
  8
0
100
AcDbLine
 62
7
  6
CONTINUOUS
 10
3.875630903
 20
6.4312566708
 11
3.8000004755
 21
6.4378734758
  0
LINE
  5
466
100
AcDbEntity
  8
0
100
AcDbLine
 62
7
  6
CONTINUOUS
 10
5.0804564462
 20
2.2295081438
 11
5.1784609371
 21
2.1401896112
  0
LINE
  5
467
100
AcDbEntity
  8
0
100
AcDbLine
 62
7
  6
CONTINUOUS
 10
5.8617369573
 20
2.8001394446
 11
5.7637324664
 21
2.8894579772
  0
LINE
  5
468
100
AcDbEntity
  8
0
100
AcDbLine
 62
7
  6
CONTINUOUS
 10
5.0069343571
 20
1.046335389
 11
4.4511232696
 21
1.621659613
  0
LINE
  5
469
100
AcDbEntity
  8
0
100
AcDbLine
 62
7
  6
CONTINUOUS
 10
5.0112497936
 20
1.3107917201
 11
4.7004499334
 21
1.6325029857
  0
LINE
  5
46A
100
AcDbEntity
  8
0
100
AcDbLine
 62
7
  6
CONTINUOUS
 10
6.6005863645
 20
0.6560102675
 11
5.6362675336
 21
1.6541839198
  0
LINE
  5
46B
100
AcDbEntity
  8
0
100
AcDbLine
 62
7
  6
CONTINUOUS
 10
5.0804564462
 20
2.2295081438
 11
4.1161376153
 21
3.2276817961
  0
LINE
  5
46C
100
AcDbEntity
  8
0
100
AcDbLine
 62
7
  6
CONTINUOUS
 10
7.1696681345
 20
0.0790761112
 11
5.5382630427
 21
1.7677557538
  0
LINE
  5
46D
100
AcDbEntity
  8
0
100
AcDbLine
 62
7
  6
CONTINUOUS
 10
5.1784609371
 20
2.1401896112
 11
3.5470558453
 21
3.8288692539
  0
LINE
  5
46E
100
AcDbEntity
  8
0
100
AcDbLine
 62
7
  6
CONTINUOUS
 10
4.6738349546
 20
2.9734816606
 11
5.3338606209
 21
2.2902841446
  0
LINE
  5
46F
100
AcDbEntity
  8
0
100
AcDbLine
 62
7
  6
CONTINUOUS
 10
5.6936627265
 20
1.9178502873
 11
6.3536883928
 21
1.2346527712
  0
LINE
  5
470
100
AcDbEntity
  8
0
100
AcDbLine
 62
7
  6
CONTINUOUS
 10
6.3545514801
 20
1.2875440374
 11
5.6945258138
 21
1.9707415535
  0
LINE
  5
471
100
AcDbEntity
  8
0
100
AcDbLine
 62
7
  6
CONTINUOUS
 10
5.3837259536
 20
2.2924528191
 11
4.7237002873
 21
2.9756503352
  0
LINE
  5
472
100
AcDbEntity
  8
0
100
AcDbLine
 62
7
  6
CONTINUOUS
 10
6.3600256663
 20
1.6071722516
 11
5.0399743337
 21
2.9735672837
  0
LINE
  5
473
100
AcDbEntity
  8
0
100
AcDbLine
 62
7
  6
CONTINUOUS
 10
5.0454485199
 20
3.2864144864
 11
5.7054741862
 21
2.6032169703
  0
LINE
  5
474
100
AcDbEntity
  8
0
100
AcDbLine
 62
7
  6
CONTINUOUS
 10
6.0162740464
 20
2.2815057047
 11
6.6762997127
 21
1.5983081886
  0
LINE
  5
475
100
AcDbEntity
  8
0
100
AcDbLine
 62
7
  6
CONTINUOUS
 10
6.7261650454
 20
1.5944135378
 11
6.0661393791
 21
2.2776110539
  0
LINE
  5
476
100
AcDbEntity
  8
0
100
AcDbLine
 62
7
  6
CONTINUOUS
 10
5.7063372735
 20
2.6500449112
 11
5.0463116072
 21
3.3332424272
  0
LINE
  5
477
100
AcDbEntity
  8
0
100
AcDbLine
 62
7
  6
CONTINUOUS
 10
4.7994136355
 20
3.8876316295
 11
5.7637324664
 21
2.8894579772
  0
LINE
  5
478
100
AcDbEntity
  8
0
100
AcDbLine
 62
7
  6
CONTINUOUS
 10
6.3195435538
 20
2.3141337532
 11
7.2838623847
 21
1.3159601009
  0
LINE
  5
479
100
AcDbEntity
  8
0
100
AcDbLine
 62
7
  6
CONTINUOUS
 10
6.3887502064
 20
3.2631668037
 11
6.6995500666
 21
2.9414555381
  0
LINE
  5
47A
100
AcDbEntity
  8
0
100
AcDbLine
 62
7
  6
CONTINUOUS
 10
6.3930656429
 20
3.497306508
 11
6.9488767304
 21
2.921982284
  0
LINE
  5
47B
100
AcDbEntity
  8
0
100
AcDbLine
 62
7
  6
CONTINUOUS
 10
5.5382630427
 20
1.7677557538
 11
5.6362675336
 21
1.6541839198
  0
LINE
  5
47C
100
AcDbEntity
  8
0
100
AcDbLine
 62
7
  6
CONTINUOUS
 10
6.3195435538
 20
2.3141337532
 11
6.2215390629
 21
2.4277055873
  0
LINE
  5
47D
100
AcDbEntity
  8
ASSI
100
AcDbLine
 62
7
  6
CONTINUOUS
 10
9.5121049871
 20
-16.1146184105
 11
9.5486944921
 21
-16.2980131393
  0
LINE
  5
47E
100
AcDbEntity
  8
DRAFT
100
AcDbLine
 62
7
  6
CONTINUOUS
 10
9.5121049871
 20
-16.1146184105
 11
9.5486944921
 21
-16.2980131393
  0
LINE
  5
47F
100
AcDbEntity
  8
ASSI
100
AcDbLine
 62
7
  6
CONTINUOUS
 10
11.1255647702
 20
-18.006284454
 11
11.15
 21
-18.5
  0
LINE
  5
480
100
AcDbEntity
  8
0
100
AcDbLine
 62
7
  6
CONTINUOUS
 10
11.1255647702
 20
-18.006284454
 11
11.15
 21
-18.5
  0
LWPOLYLINE
  5
481
100
AcDbEntity
  8
0
100
AcDbPolyline
 62
7
  6
CONTINUOUS
 90
28
 70
0
 10
9.1910498758
 20
2.3053606474
 10
9.1878097488
 20
2.4406547867
 10
9.1722923855
 20
2.6515489435
 10
9.1440951191
 20
2.8607946561
 10
9.1031590059
 20
3.0687732702
 10
9.0498347058
 20
3.2736460776
 10
8.9848647572
 20
3.473165423
 10
8.9085464929
 20
3.667301186
 10
8.8210206318
 20
3.8561354035
 10
8.7222324237
 20
4.0397743146
 10
8.6121382303
 20
4.2180338118
 10
8.4922254447
 20
4.3885670149
 10
8.3630238894
 20
4.5508526853
 10
8.2248911492
 20
4.7046490846
 10
8.0778312565
 20
4.8501204178
 10
7.9214864453
 20
4.9874116919
 10
7.7562591392
 20
5.11586277
 10
7.5846632516
 20
5.2335520589
 10
7.4069413896
 20
5.3404997102
 10
7.2229856677
 20
5.4367436541
 10
7.0331582693
 20
5.5220496969
 10
6.8374160687
 20
5.5962967637
 10
6.6377472805
 20
5.6586372847
 10
6.4361991761
 20
5.7085461376
 10
6.2331746075
 20
5.746205761
 10
6.0283545651
 20
5.7717648955
 10
5.8219368502
 20
5.7851121198
 10
5.700000003
 20
5.7872348436
  0
LINE
  5
482
100
AcDbEntity
  8
ASSI
100
AcDbLine
 62
253
  6
CONTINUOUS
 10
9.8956323968
 20
23.6278312164
 11
9.9007229979
 21
23.1226497308
  0
LINE
  5
483
100
AcDbEntity
  8
0
100
AcDbLine
 62
253
  6
CONTINUOUS
 10
9.8956323968
 20
23.6278312164
 11
9.9007229979
 21
23.1226497308
  0
LINE
  5
484
100
AcDbEntity
  8
ASSI
100
AcDbLine
 62
253
  6
CONTINUOUS
 10
10.145628166
 20
23.8443375673
 11
10.15
 21
23.4104851482
  0
LINE
  5
485
100
AcDbEntity
  8
0
100
AcDbLine
 62
253
  6
CONTINUOUS
 10
10.145628166
 20
23.8443375673
 11
10.15
 21
23.4104851482
  0
LINE
  5
486
100
AcDbEntity
  8
ASSI
100
AcDbLine
 62
7
  6
CONTINUOUS
 10
9.5550235832
 20
-19.2510992651
 11
9.5486944921
 21
-16.2980131393
  0
LINE
  5
487
100
AcDbEntity
  8
DRAFT
100
AcDbLine
 62
7
  6
CONTINUOUS
 10
9.5550235832
 20
-19.2510992651
 11
9.5486944921
 21
-16.2980131393
  0
LINE
  5
488
100
AcDbEntity
  8
ASSI
100
AcDbLine
 62
7
  6
CONTINUOUS
 10
7.3
 20
-20.9959955457
 11
7.3
 21
-19.8968626967
  0
LINE
  5
489
100
AcDbEntity
  8
ASSI
100
AcDbLine
 62
7
  6
CONTINUOUS
 10
7.3
 20
19.8968626967
 11
7.3
 21
20.9959955457
  0
LINE
  5
48A
100
AcDbEntity
  8
0
100
AcDbLine
 62
7
  6
CONTINUOUS
 10
7.5
 20
16.8363053019
 11
7.5
 21
5.2844998478
  0
LINE
  5
48B
100
AcDbEntity
  8
0
100
AcDbLine
 62
7
  6
CONTINUOUS
 10
7.5
 20
-0.7253904484
 11
7.5
 21
-16.8363053019
  0
LINE
  5
48C
100
AcDbEntity
  8
ASSI
100
AcDbLine
 62
253
  6
CONTINUOUS
 10
7.5043676032
 20
-23.6278312164
 11
7.5043676032
 21
-24.495628166
  0
LINE
  5
48D
100
AcDbEntity
  8
0
100
AcDbLine
 62
253
  6
CONTINUOUS
 10
7.5043676032
 20
-23.6278312164
 11
7.5043676032
 21
-24.495628166
  0
LINE
  5
48E
100
AcDbEntity
  8
ASSI
100
AcDbLine
 62
253
  6
CONTINUOUS
 10
7.5043676032
 20
23.6278312164
 11
7.5043676032
 21
24.495628166
  0
LINE
  5
48F
100
AcDbEntity
  8
0
100
AcDbLine
 62
253
  6
CONTINUOUS
 10
7.5043676032
 20
23.6278312164
 11
7.5043676032
 21
24.495628166
  0
LINE
  5
490
100
AcDbEntity
  8
ASSI
100
AcDbLine
 62
253
  6
CONTINUOUS
 10
7.5666456542
 20
21.3359869487
 11
7.5666456542
 21
20.9959955457
  0
LINE
  5
491
100
AcDbEntity
  8
0
100
AcDbLine
 62
253
  6
CONTINUOUS
 10
7.5666456542
 20
21.3359869487
 11
7.5666456542
 21
20.9959955457
  0
LINE
  5
492
100
AcDbEntity
  8
ASSI
100
AcDbLine
 62
253
  6
CONTINUOUS
 10
7.5666456542
 20
-20.9959955457
 11
7.5666456542
 21
-21.3359869487
  0
LINE
  5
493
100
AcDbEntity
  8
0
100
AcDbLine
 62
253
  6
CONTINUOUS
 10
7.5666456542
 20
-20.9959955457
 11
7.5666456542
 21
-21.3359869487
  0
LINE
  5
494
100
AcDbEntity
  8
0
100
AcDbLine
 62
253
  6
CONTINUOUS
 10
7.5871557427
 20
17.849847672
 11
7.5871557427
 21
17.8325
  0
LINE
  5
495
100
AcDbEntity
  8
0
100
AcDbLine
 62
253
  6
CONTINUOUS
 10
7.5871557427
 20
-17.8325
 11
7.5871557427
 21
-17.849847672
  0
LINE
  5
496
100
AcDbEntity
  8
ASSI
100
AcDbLine
 62
253
  6
CONTINUOUS
 10
8.0665695018
 20
21.4537354271
 11
8.0665695018
 21
20.9917082642
  0
LINE
  5
497
100
AcDbEntity
  8
0
100
AcDbLine
 62
253
  6
CONTINUOUS
 10
8.0665695018
 20
21.4537354271
 11
8.0665695018
 21
20.9917082642
  0
LINE
  5
498
100
AcDbEntity
  8
ASSI
100
AcDbLine
 62
253
  6
CONTINUOUS
 10
8.0665695018
 20
-20.9917082642
 11
8.0665695018
 21
-21.4537354271
  0
LINE
  5
499
100
AcDbEntity
  8
0
100
AcDbLine
 62
253
  6
CONTINUOUS
 10
8.0665695018
 20
-20.9917082642
 11
8.0665695018
 21
-21.4537354271
  0
LINE
  5
49A
100
AcDbEntity
  8
ASSI
100
AcDbLine
 62
7
  6
CONTINUOUS
 10
8.25
 20
21.4
 11
8.25
 21
20.9
  0
LINE
  5
49B
100
AcDbEntity
  8
0
100
AcDbLine
 62
7
  6
CONTINUOUS
 10
8.25
 20
21.4
 11
8.25
 21
20.9
  0
LINE
  5
49C
100
AcDbEntity
  8
ASSI
100
AcDbLine
 62
7
  6
CONTINUOUS
 10
8.25
 20
-20.9
 11
8.25
 21
-21.4
  0
LINE
  5
49D
100
AcDbEntity
  8
0
100
AcDbLine
 62
7
  6
CONTINUOUS
 10
8.25
 20
-20.9
 11
8.25
 21
-21.4
  0
LINE
  5
49E
100
AcDbEntity
  8
0
100
AcDbLine
 62
7
  6
CONTINUOUS
 10
8.35
 20
2.2839475992
 11
8.35
 21
2.3009249102
  0
LINE
  5
49F
100
AcDbEntity
  8
0
100
AcDbLine
 62
7
  6
CONTINUOUS
 10
8.5
 20
17.849847672
 11
8.5
 21
17.8325
  0
LINE
  5
4A0
100
AcDbEntity
  8
ASSI
100
AcDbLine
 62
7
  6
CONTINUOUS
 10
8.5
 20
-12.5132676422
 11
8.5
 21
-15.5
  0
LINE
  5
4A1
100
AcDbEntity
  8
DRAFT
100
AcDbLine
 62
7
  6
CONTINUOUS
 10
8.5
 20
-12.5132676422
 11
8.5
 21
-15.5
  0
LINE
  5
4A2
100
AcDbEntity
  8
0
100
AcDbLine
 62
7
  6
CONTINUOUS
 10
8.5
 20
-17.849847672
 11
8.5
 21
-17.8325
  0
LINE
  5
4A3
100
AcDbEntity
  8
RACCORDO
100
AcDbLine
 62
7
  6
CONTINUOUS
 10
9.45
 20
-15.8055387995
 11
9.45
 21
-16.2
  0
LINE
  5
4A4
100
AcDbEntity
  8
ASSI
100
AcDbLine
 62
7
  6
CONTINUOUS
 10
9.5
 20
-15.9999428868
 11
9.5
 21
-16.1146184105
  0
LINE
  5
4A5
100
AcDbEntity
  8
RACCORDO
100
AcDbLine
 62
7
  6
CONTINUOUS
 10
9.5
 20
-15.9999428868
 11
9.5
 21
-16.1146184105
  0
LINE
  5
4A6
100
AcDbEntity
  8
ASSI
100
AcDbLine
 62
7
  6
CONTINUOUS
 10
9.5121049871
 20
-16.1146184105
 11
9.5121049871
 21
-0.5
  0
LINE
  5
4A7
100
AcDbEntity
  8
DRAFT
100
AcDbLine
 62
7
  6
CONTINUOUS
 10
9.5121049871
 20
-16.1146184105
 11
9.5121049871
 21
-0.5
  0
LINE
  5
4A8
100
AcDbEntity
  8
ASSI
100
AcDbLine
 62
7
  6
CONTINUOUS
 10
9.5121049871
 20
0.5
 11
9.5121049871
 21
12.5132676422
  0
LINE
  5
4A9
100
AcDbEntity
  8
0
100
AcDbLine
 62
7
  6
CONTINUOUS
 10
9.5121049871
 20
0.5
 11
9.5121049871
 21
12.5132676422
  0
LINE
  5
4AA
100
AcDbEntity
  8
ASSI
100
AcDbLine
 62
7
  6
CONTINUOUS
 10
9.6046168312
 20
-20.0627794241
 11
9.6046168312
 21
-19.4
  0
LINE
  5
4AB
100
AcDbEntity
  8
DRAFT
100
AcDbLine
 62
7
  6
CONTINUOUS
 10
9.6046168312
 20
-20.0627794241
 11
9.6046168312
 21
-19.4
  0
LINE
  5
4AC
100
AcDbEntity
  8
ASSI
100
AcDbLine
 62
7
  6
CONTINUOUS
 10
9.65
 20
20.1990396502
 11
9.65
 21
19.5
  0
LINE
  5
4AD
100
AcDbEntity
  8
0
100
AcDbLine
 62
7
  6
CONTINUOUS
 10
9.65
 20
20.1990396502
 11
9.65
 21
19.5
  0
LINE
  5
4AE
100
AcDbEntity
  8
ASSI
100
AcDbLine
 62
7
  6
CONTINUOUS
 10
9.65
 20
-19.5
 11
9.65
 21
-20.1990396502
  0
LINE
  5
4AF
100
AcDbEntity
  8
0
100
AcDbLine
 62
7
  6
CONTINUOUS
 10
9.65
 20
-19.5
 11
9.65
 21
-20.1990396502
  0
LINE
  5
4B0
100
AcDbEntity
  8
ASSI
100
AcDbLine
 62
7
  6
CONTINUOUS
 10
9.6814191169
 20
19.5
 11
9.6814191169
 21
0.5
  0
LINE
  5
4B1
100
AcDbEntity
  8
0
100
AcDbLine
 62
7
  6
CONTINUOUS
 10
9.6814191169
 20
19.5
 11
9.6814191169
 21
0.5
  0
LINE
  5
4B2
100
AcDbEntity
  8
ASSI
100
AcDbLine
 62
7
  6
CONTINUOUS
 10
9.6814191169
 20
-0.5
 11
9.6814191169
 21
-19.5
  0
LINE
  5
4B3
100
AcDbEntity
  8
0
100
AcDbLine
 62
7
  6
CONTINUOUS
 10
9.6814191169
 20
-0.5
 11
9.6814191169
 21
-19.5
  0
LINE
  5
4B4
100
AcDbEntity
  8
ASSI
100
AcDbLine
 62
253
  6
CONTINUOUS
 10
9.8956323968
 20
-23.6278312164
 11
9.8956323968
 21
-24.495628166
  0
LINE
  5
4B5
100
AcDbEntity
  8
0
100
AcDbLine
 62
253
  6
CONTINUOUS
 10
9.8956323968
 20
-23.6278312164
 11
9.8956323968
 21
-24.495628166
  0
LINE
  5
4B6
100
AcDbEntity
  8
ASSI
100
AcDbLine
 62
253
  6
CONTINUOUS
 10
9.8956323968
 20
23.6278312164
 11
9.8956323968
 21
24.495628166
  0
LINE
  5
4B7
100
AcDbEntity
  8
0
100
AcDbLine
 62
253
  6
CONTINUOUS
 10
9.8956323968
 20
23.6278312164
 11
9.8956323968
 21
24.495628166
  0
LINE
  5
4B8
100
AcDbEntity
  8
ASSI
100
AcDbLine
 62
7
  6
CONTINUOUS
 10
10.145628166
 20
-24.2456323968
 11
10.145628166
 21
-23.8443375673
  0
LINE
  5
4B9
100
AcDbEntity
  8
0
100
AcDbLine
 62
7
  6
CONTINUOUS
 10
10.145628166
 20
-24.2456323968
 11
10.145628166
 21
-23.8443375673
  0
LINE
  5
4BA
100
AcDbEntity
  8
ASSI
100
AcDbLine
 62
7
  6
CONTINUOUS
 10
10.145628166
 20
23.8443375673
 11
10.145628166
 21
24.2456323968
  0
LINE
  5
4BB
100
AcDbEntity
  8
0
100
AcDbLine
 62
7
  6
CONTINUOUS
 10
10.145628166
 20
23.8443375673
 11
10.145628166
 21
24.2456323968
  0
LINE
  5
4BC
100
AcDbEntity
  8
ASSI
100
AcDbLine
 62
7
  6
CONTINUOUS
 10
10.15
 20
-22.4
 11
10.15
 21
-23.8443375673
  0
LINE
  5
4BD
100
AcDbEntity
  8
0
100
AcDbLine
 62
7
  6
CONTINUOUS
 10
10.15
 20
-22.4
 11
10.15
 21
-23.8443375673
  0
LINE
  5
4BE
100
AcDbEntity
  8
ASSI
100
AcDbLine
 62
7
  6
CONTINUOUS
 10
10.15
 20
22.4
 11
10.15
 21
23.8443375673
  0
LINE
  5
4BF
100
AcDbEntity
  8
0
100
AcDbLine
 62
7
  6
CONTINUOUS
 10
10.15
 20
22.4
 11
10.15
 21
23.8443375673
  0
LINE
  5
4C0
100
AcDbEntity
  8
ASSI
100
AcDbLine
 62
253
  6
CONTINUOUS
 10
9.9007229979
 20
-23.1226497308
 11
9.8956323968
 21
-23.6278312164
  0
LINE
  5
4C1
100
AcDbEntity
  8
0
100
AcDbLine
 62
253
  6
CONTINUOUS
 10
9.9007229979
 20
-23.1226497308
 11
9.8956323968
 21
-23.6278312164
  0
LINE
  5
4C2
100
AcDbEntity
  8
ASSI
100
AcDbLine
 62
253
  6
CONTINUOUS
 10
10.15
 20
-23.4104851482
 11
10.145628166
 21
-23.8443375673
  0
LINE
  5
4C3
100
AcDbEntity
  8
0
100
AcDbLine
 62
253
  6
CONTINUOUS
 10
10.15
 20
-23.4104851482
 11
10.145628166
 21
-23.8443375673
  0
LINE
  5
4C4
100
AcDbEntity
  8
ASSI
100
AcDbLine
 62
7
  6
CONTINUOUS
 10
8.1459670052
 20
-15.5781306566
 11
8.1303813832
 21
-16.2980131393
  0
LINE
  5
4C5
100
AcDbEntity
  8
RACCORDO
100
AcDbLine
 62
7
  6
CONTINUOUS
 10
8.1459670052
 20
-15.5781306566
 11
8.1303813832
 21
-16.2980131393
  0
LINE
  5
4C6
100
AcDbEntity
  8
ASSI
100
AcDbLine
 62
7
  6
CONTINUOUS
 10
8.3429065045
 20
-15.507774954
 11
8.3279196724
 21
-16.2
  0
LINE
  5
4C7
100
AcDbEntity
  8
DRAFT
100
AcDbLine
 62
7
  6
CONTINUOUS
 10
8.3429065045
 20
-15.507774954
 11
8.3279196724
 21
-16.2
  0
LINE
  5
4C8
100
AcDbEntity
  8
ASSI
100
AcDbLine
 62
7
  6
CONTINUOUS
 10
11.15
 20
18.5
 11
11.1255647702
 21
18.006284454
  0
LINE
  5
4C9
100
AcDbEntity
  8
0
100
AcDbLine
 62
7
  6
CONTINUOUS
 10
11.15
 20
18.5
 11
11.1255647702
 21
18.006284454
  0
LWPOLYLINE
  5
4CA
100
AcDbEntity
  8
0
100
AcDbPolyline
 62
7
  6
CONTINUOUS
 90
9
 70
0
 10
9.1276600013
 20
1.6248988646
 10
9.1437112619
 20
1.7144749304
 10
9.1569644157
 20
1.801197485
 10
9.168373774
 20
1.8910527528
 10
9.1777363003
 20
1.9840551642
 10
9.1848141157
 20
2.0801533769
 10
9.1893612659
 20
2.17965309
 10
9.1910828016
 20
2.2822331128
 10
9.1910499503
 20
2.3053395036
  0
LWPOLYLINE
  5
4CB
100
AcDbEntity
  8
0
100
AcDbPolyline
 62
7
  6
CONTINUOUS
 90
9
 70
0
 10
8.9305588815
 20
0.9627860011
 10
8.940979282
 20
0.9885609946
 10
8.9774525742
 20
1.083792409
 10
9.0104012371
 20
1.1778347506
 10
9.0400488356
 20
1.2707864282
 10
9.0664902935
 20
1.3623595998
 10
9.0897522055
 20
1.4519014191
 10
9.1099954372
 20
1.5390732063
 10
9.1276689761
 20
1.6249461578
  0
LINE
  5
4CC
100
AcDbEntity
  8
0
100
AcDbLine
 62
7
  6
CONTINUOUS
 10
-0.2428015927
 20
8.3622725162
 11
-0.4008674731
 21
8.3462755929
  0
LINE
  5
4CD
100
AcDbEntity
  8
0
100
AcDbLine
 62
7
  6
CONTINUOUS
 10
-0.5827426978
 20
8.344453838
 11
-0.6396640443
 21
8.3408291074
  0
LINE
  5
4CE
100
AcDbEntity
  8
0
100
AcDbLine
 62
7
  6
CONTINUOUS
 10
-0.0022846949
 20
8.3748812792
 11
-0.5004533167
 21
8.348773368
  0
LINE
  5
4CF
100
AcDbEntity
  8
0
100
AcDbLine
 62
7
  6
CONTINUOUS
 10
-2.0408889784
 20
8.2680425557
 11
-0.5827434005
 21
8.3444607274
  0
LINE
  5
4D0
100
AcDbEntity
  8
0
100
AcDbLine
 62
7
  6
CONTINUOUS
 10
-3.7019860369
 20
8.1809881476
 11
-3.8892524433
 21
8.1711739311
  0
LINE
  5
4D1
100
AcDbEntity
  8
0
100
AcDbLine
 62
253
  6
CONTINUOUS
 10
-3.8892524423
 20
8.0146818195
 11
-3.800000475
 21
8.019097581
  0
LINE
  5
4D2
100
AcDbEntity
  8
0
100
AcDbLine
 62
7
  6
CONTINUOUS
 10
-3.1941074346
 20
8.4541253917
 11
-3.6656413538
 21
8.4469777328
  0
LINE
  5
4D3
100
AcDbEntity
  8
0
100
AcDbLine
 62
7
  6
CONTINUOUS
 10
1.0131016369
 20
7.9798104872
 11
-1.0130875769
 21
7.9798105345
  0
LINE
  5
4D4
100
AcDbEntity
  8
0
100
AcDbLine
 62
7
  6
CONTINUOUS
 10
-1.7361066896
 20
8.1750010402
 11
1.7354015425
 21
8.1750010402
  0
LINE
  5
4D5
100
AcDbEntity
  8
0
100
AcDbLine
 62
253
  6
CONTINUOUS
 10
3.7052627366
 20
8.4330334866
 11
2.7795745778
 21
8.4330334866
  0
LINE
  5
4D6
100
AcDbEntity
  8
0
100
AcDbLine
 62
253
  6
CONTINUOUS
 10
-2.7795745778
 20
8.4330334866
 11
-3.681698399
 21
8.4330334866
  0
LINE
  5
4D7
100
AcDbEntity
  8
0
100
AcDbLine
 62
7
  6
CONTINUOUS
 10
3.6896243156
 20
8.4466141915
 11
3.1941074346
 21
8.4541253917
  0
LINE
  5
4D8
100
AcDbEntity
  8
0
100
AcDbLine
 62
253
  6
CONTINUOUS
 10
3.8761750985
 20
7.5259279089
 11
3.800000476
 21
7.5279732681
  0
LINE
  5
4D9
100
AcDbEntity
  8
0
100
AcDbLine
 62
7
  6
CONTINUOUS
 10
3.8761750985
 20
8.1728160412
 11
3.800000476
 21
8.1754761177
  0
LINE
  5
4DA
100
AcDbEntity
  8
0
100
AcDbLine
 62
7
  6
CONTINUOUS
 10
3.800000475
 20
8.1758515058
 11
3.725563011
 21
8.1797525955
  0
LINE
  5
4DB
100
AcDbEntity
  8
0
100
AcDbLine
 62
7
  6
CONTINUOUS
 10
0.0022846981
 20
8.3748812871
 11
0.4971366085
 21
8.3489471987
  0
LINE
  5
4DC
100
AcDbEntity
  8
0
100
AcDbLine
 62
7
  6
CONTINUOUS
 10
2.0399742517
 20
8.2680905054
 11
0.5928341955
 21
8.3439319007
  0
LINE
  5
4DD
100
AcDbEntity
  8
0
100
AcDbLine
 62
7
  6
CONTINUOUS
 10
0.0
 20
8.3750010153
 11
0.0013584693
 21
8.3749298255
  0
LINE
  5
4DE
100
AcDbEntity
  8
0
100
AcDbLine
 62
7
  6
CONTINUOUS
 10
0.2428013413
 20
8.3622749483
 11
0.4008678189
 21
8.3462755603
  0
LINE
  5
4DF
100
AcDbEntity
  8
0
100
AcDbLine
 62
7
  6
CONTINUOUS
 10
3.7052627366
 20
8.4330334866
 11
3.6896243156
 21
8.4466141915
  0
LINE
  5
4E0
100
AcDbEntity
  8
ASSI
100
AcDbLine
 62
7
  6
CONTINUOUS
 10
11.15
 20
18.5
 11
11.1981627554
 21
18.0134711168
  0
LINE
  5
4E1
100
AcDbEntity
  8
0
100
AcDbLine
 62
7
  6
CONTINUOUS
 10
11.15
 20
18.5
 11
11.1988741818
 21
18.006284454
  0
LINE
  5
4E2
100
AcDbEntity
  8
ASSI
100
AcDbLine
 62
7
  6
CONTINUOUS
 10
11.1255647702
 20
-18.5244352298
 11
11.1255647702
 21
-18.006284454
  0
LINE
  5
4E3
100
AcDbEntity
  8
0
100
AcDbLine
 62
7
  6
CONTINUOUS
 10
11.1255647702
 20
-18.5244352298
 11
11.1255647702
 21
-18.006284454
  0
LINE
  5
4E4
100
AcDbEntity
  8
ASSI
100
AcDbLine
 62
7
  6
CONTINUOUS
 10
11.1255647702
 20
18.006284454
 11
11.1255647702
 21
18.5244352298
  0
LINE
  5
4E5
100
AcDbEntity
  8
0
100
AcDbLine
 62
7
  6
CONTINUOUS
 10
11.1255647702
 20
18.006284454
 11
11.1255647702
 21
18.5244352298
  0
LINE
  5
4E6
100
AcDbEntity
  8
ASSI
100
AcDbLine
 62
7
  6
CONTINUOUS
 10
11.1412731322
 20
21.8941990932
 11
11.1412731322
 21
18.5087268678
  0
LINE
  5
4E7
100
AcDbEntity
  8
0
100
AcDbLine
 62
7
  6
CONTINUOUS
 10
11.1412731322
 20
21.8941990932
 11
11.1412731322
 21
18.5087268678
  0
LINE
  5
4E8
100
AcDbEntity
  8
ASSI
100
AcDbLine
 62
7
  6
CONTINUOUS
 10
11.1412731322
 20
-18.5087268678
 11
11.1412731322
 21
-21.8941990932
  0
LINE
  5
4E9
100
AcDbEntity
  8
0
100
AcDbLine
 62
7
  6
CONTINUOUS
 10
11.1412731322
 20
-18.5087268678
 11
11.1412731322
 21
-21.8941990932
  0
LINE
  5
4EA
100
AcDbEntity
  8
ASSI
100
AcDbLine
 62
7
  6
CONTINUOUS
 10
11.15
 20
21.900016923
 11
11.15
 21
18.5
  0
LINE
  5
4EB
100
AcDbEntity
  8
0
100
AcDbLine
 62
7
  6
CONTINUOUS
 10
11.15
 20
21.900016923
 11
11.15
 21
18.5
  0
LINE
  5
4EC
100
AcDbEntity
  8
ASSI
100
AcDbLine
 62
7
  6
CONTINUOUS
 10
11.15
 20
-21.900016923
 11
11.15
 21
-18.5
  0
LINE
  5
4ED
100
AcDbEntity
  8
0
100
AcDbLine
 62
7
  6
CONTINUOUS
 10
11.15
 20
-21.900016923
 11
11.15
 21
-18.5
  0
LINE
  5
4EE
100
AcDbEntity
  8
ASSI
100
AcDbLine
 62
7
  6
CONTINUOUS
 10
11.1988741818
 20
-18.006284454
 11
11.1988741818
 21
18.006284454
  0
LINE
  5
4EF
100
AcDbEntity
  8
0
100
AcDbLine
 62
7
  6
CONTINUOUS
 10
11.1988741818
 20
-18.006284454
 11
11.1988741818
 21
18.006284454
  0
LINE
  5
4F0
100
AcDbEntity
  8
ASSI
100
AcDbLine
 62
7
  6
CONTINUOUS
 10
11.1981627554
 20
-18.0134711168
 11
11.15
 21
-18.5
  0
LINE
  5
4F1
100
AcDbEntity
  8
0
100
AcDbLine
 62
7
  6
CONTINUOUS
 10
11.1988741818
 20
-18.006284454
 11
11.15
 21
-18.5
  0
LINE
  5
4F2
100
AcDbEntity
  8
ASSI
100
AcDbLine
 62
7
  6
CONTINUOUS
 10
9.5
 20
-16.1146184105
 11
9.4829653223
 21
-16.2
  0
LINE
  5
4F3
100
AcDbEntity
  8
DRAFT
100
AcDbLine
 62
7
  6
CONTINUOUS
 10
9.5
 20
-16.1146184105
 11
9.4829653223
 21
-16.2
  0
LINE
  5
4F4
100
AcDbEntity
  8
ASSI
100
AcDbLine
 62
7
  6
CONTINUOUS
 10
-4.45
 20
-22.4
 11
-4.406077753
 21
-22.356077753
  0
LINE
  5
4F5
100
AcDbEntity
  8
0
100
AcDbLine
 62
7
  6
CONTINUOUS
 10
-4.45
 20
-22.4
 11
-4.406077753
 21
-22.356077753
  0
LINE
  5
4F6
100
AcDbEntity
  8
ASSI
100
AcDbLine
 62
7
  6
CONTINUOUS
 10
-4.4063493531
 20
-23.9563493531
 11
-4.45
 21
-24.0
  0
LINE
  5
4F7
100
AcDbEntity
  8
0
100
AcDbLine
 62
7
  6
CONTINUOUS
 10
-4.4063493531
 20
-23.9563493531
 11
-4.45
 21
-24.0
  0
LINE
  5
4F8
100
AcDbEntity
  8
ASSI
100
AcDbLine
 62
7
  6
CONTINUOUS
 10
-7.1905416262
 20
-22.3359700255
 11
-7.2558178298
 21
-22.3941821702
  0
LINE
  5
4F9
100
AcDbEntity
  8
0
100
AcDbLine
 62
7
  6
CONTINUOUS
 10
-7.1905416262
 20
-22.3359700255
 11
-7.2558178298
 21
-22.3941821702
  0
LINE
  5
4FA
100
AcDbEntity
  8
0
100
AcDbLine
 62
253
  6
CONTINUOUS
 10
-11.15
 20
-21.900016923
 11
-11.1412731322
 21
-21.8941990932
  0
LINE
  5
4FB
100
AcDbEntity
  8
0
100
AcDbLine
 62
7
  6
CONTINUOUS
 10
0.6961109283
 20
-13.7465719425
 11
3.1038765056
 21
-12.9787237856
  0
LINE
  5
4FC
100
AcDbEntity
  8
0
100
AcDbLine
 62
7
  6
CONTINUOUS
 10
3.1038318599
 20
-12.9787286108
 11
3.8000004741
 21
-12.779283038
  0
LINE
  5
4FD
100
AcDbEntity
  8
ASSI
100
AcDbLine
 62
7
  6
CONTINUOUS
 10
9.5121049871
 20
12.5132676422
 11
7.5
 21
12.5132676422
  0
LINE
  5
4FE
100
AcDbEntity
  8
0
100
AcDbLine
 62
7
  6
CONTINUOUS
 10
9.5121049871
 20
12.5132676422
 11
7.5
 21
12.5132676422
  0
LINE
  5
4FF
100
AcDbEntity
  8
ASSI
100
AcDbLine
 62
7
  6
CONTINUOUS
 10
-7.5
 20
12.5132676422
 11
-9.5121049871
 21
12.5132676422
  0
LINE
  5
500
100
AcDbEntity
  8
0
100
AcDbLine
 62
7
  6
CONTINUOUS
 10
-7.5
 20
12.5132676422
 11
-9.5121049871
 21
12.5132676422
  0
LINE
  5
501
100
AcDbEntity
  8
0
100
AcDbLine
 62
253
  6
CONTINUOUS
 10
-11.1412731322
 20
21.8941990932
 11
-11.15
 21
21.900016923
  0
LINE
  5
502
100
AcDbEntity
  8
ASSI
100
AcDbLine
 62
7
  6
CONTINUOUS
 10
-7.1905416262
 20
22.3359700255
 11
-7.2558178298
 21
22.3941821702
  0
LINE
  5
503
100
AcDbEntity
  8
0
100
AcDbLine
 62
7
  6
CONTINUOUS
 10
-7.1905416262
 20
22.3359700255
 11
-7.2558178298
 21
22.3941821702
  0
LINE
  5
504
100
AcDbEntity
  8
ASSI
100
AcDbLine
 62
7
  6
CONTINUOUS
 10
-4.45
 20
22.4
 11
-4.406077753
 21
22.356077753
  0
LINE
  5
505
100
AcDbEntity
  8
0
100
AcDbLine
 62
7
  6
CONTINUOUS
 10
-4.45
 20
22.4
 11
-4.406077753
 21
22.356077753
  0
LINE
  5
506
100
AcDbEntity
  8
ASSI
100
AcDbLine
 62
7
  6
CONTINUOUS
 10
-4.4063493531
 20
23.9563493531
 11
-4.45
 21
24.0
  0
LINE
  5
507
100
AcDbEntity
  8
0
100
AcDbLine
 62
7
  6
CONTINUOUS
 10
-4.4063493531
 20
23.9563493531
 11
-4.45
 21
24.0
  0
LINE
  5
508
100
AcDbEntity
  8
0
100
AcDbLine
 62
253
  6
CONTINUOUS
 10
1.0087268678
 20
-23.7941889394
 11
1.0
 21
-23.8000067692
  0
LINE
  5
509
100
AcDbEntity
  8
ASSI
100
AcDbLine
 62
7
  6
CONTINUOUS
 10
1.0
 20
-22.4
 11
1.0087268678
 21
-22.3947639644
  0
LINE
  5
50A
100
AcDbEntity
  8
0
100
AcDbLine
 62
7
  6
CONTINUOUS
 10
1.0
 20
-22.4
 11
1.0087268678
 21
-22.3947639644
  0
LINE
  5
50B
100
AcDbEntity
  8
ASSI
100
AcDbLine
 62
7
  6
CONTINUOUS
 10
8.3279196724
 20
-16.2
 11
8.1303813832
 21
-16.2980131393
  0
LINE
  5
50C
100
AcDbEntity
  8
DRAFT
100
AcDbLine
 62
7
  6
CONTINUOUS
 10
8.3279196724
 20
-16.2
 11
8.1303813832
 21
-16.2980131393
  0
LINE
  5
50D
100
AcDbEntity
  8
0
100
AcDbLine
 62
253
  6
CONTINUOUS
 10
-0.0
 20
17.9822819681
 11
-7.5871557427
 21
17.849847672
  0
LINE
  5
50E
100
AcDbEntity
  8
0
100
AcDbLine
 62
7
  6
CONTINUOUS
 10
-7.5174524064
 20
18.8496953671
 11
-2.4000007267
 21
18.9390208184
  0
LINE
  5
50F
100
AcDbEntity
  8
0
100
AcDbLine
 62
253
  6
CONTINUOUS
 10
8.5
 20
17.8325
 11
6.5871557427
 21
17.8325
  0
LINE
  5
510
100
AcDbEntity
  8
0
100
AcDbLine
 62
253
  6
CONTINUOUS
 10
-6.5871557427
 20
17.8325
 11
-8.5
 21
17.8325
  0
LINE
  5
511
100
AcDbEntity
  8
0
100
AcDbLine
 62
253
  6
CONTINUOUS
 10
-8.5
 20
17.849847672
 11
-7.5871557427
 21
17.849847672
  0
LINE
  5
512
100
AcDbEntity
  8
0
100
AcDbLine
 62
253
  6
CONTINUOUS
 10
7.5871557427
 20
17.849847672
 11
8.5
 21
17.849847672
  0
LINE
  5
513
100
AcDbEntity
  8
ASSI
100
AcDbLine
 62
7
  6
CONTINUOUS
 10
-11.1988741818
 20
18.006284454
 11
-11.1255647702
 21
18.006284454
  0
LINE
  5
514
100
AcDbEntity
  8
0
100
AcDbLine
 62
7
  6
CONTINUOUS
 10
-11.1988741818
 20
18.006284454
 11
-11.1255647702
 21
18.006284454
  0
LINE
  5
515
100
AcDbEntity
  8
ASSI
100
AcDbLine
 62
7
  6
CONTINUOUS
 10
11.1988741818
 20
18.006284454
 11
11.1255647702
 21
18.006284454
  0
LINE
  5
516
100
AcDbEntity
  8
0
100
AcDbLine
 62
7
  6
CONTINUOUS
 10
11.1988741818
 20
18.006284454
 11
11.1255647702
 21
18.006284454
  0
LINE
  5
517
100
AcDbEntity
  8
ASSI
100
AcDbLine
 62
7
  6
CONTINUOUS
 10
-4.5
 20
19.0
 11
4.5
 21
19.0
  0
LINE
  5
518
100
AcDbEntity
  8
0
100
AcDbLine
 62
7
  6
CONTINUOUS
 10
-4.5
 20
19.0
 11
4.5
 21
19.0
  0
LINE
  5
519
100
AcDbEntity
  8
ASSI
100
AcDbLine
 62
7
  6
CONTINUOUS
 10
9.65
 20
19.5
 11
10.15
 21
19.5
  0
LINE
  5
51A
100
AcDbEntity
  8
0
100
AcDbLine
 62
7
  6
CONTINUOUS
 10
9.65
 20
19.5
 11
10.15
 21
19.5
  0
LINE
  5
51B
100
AcDbEntity
  8
ASSI
100
AcDbLine
 62
7
  6
CONTINUOUS
 10
-9.65
 20
19.5
 11
-10.15
 21
19.5
  0
LINE
  5
51C
100
AcDbEntity
  8
0
100
AcDbLine
 62
7
  6
CONTINUOUS
 10
-9.65
 20
19.5
 11
-10.15
 21
19.5
  0
LINE
  5
51D
100
AcDbEntity
  8
ASSI
100
AcDbLine
 62
7
  6
CONTINUOUS
 10
8.8258650579
 20
20.5276115984
 11
7.3
 21
20.5276115984
  0
LINE
  5
51E
100
AcDbEntity
  8
ASSI
100
AcDbLine
 62
7
  6
CONTINUOUS
 10
-7.3
 20
20.5276115984
 11
-8.8258650579
 21
20.5276115984
  0
LINE
  5
51F
100
AcDbEntity
  8
0
100
AcDbLine
 62
7
  6
CONTINUOUS
 10
-8.9498936624
 20
20.9
 11
-8.25
 21
20.9
  0
LINE
  5
520
100
AcDbEntity
  8
ASSI
100
AcDbLine
 62
7
  6
CONTINUOUS
 10
6.25
 20
20.9
 11
4.5
 21
20.9
  0
LINE
  5
521
100
AcDbEntity
  8
ASSI
100
AcDbLine
 62
7
  6
CONTINUOUS
 10
-3.5
 20
20.9
 11
3.5
 21
20.9
  0
LINE
  5
522
100
AcDbEntity
  8
0
100
AcDbLine
 62
7
  6
CONTINUOUS
 10
-3.5
 20
20.9
 11
3.5
 21
20.9
  0
LINE
  5
523
100
AcDbEntity
  8
ASSI
100
AcDbLine
 62
7
  6
CONTINUOUS
 10
-4.5
 20
20.9
 11
-6.25
 21
20.9
  0
LINE
  5
524
100
AcDbEntity
  8
ASSI
100
AcDbLine
 62
7
  6
CONTINUOUS
 10
7.3
 20
20.9
 11
8.9498936624
 21
20.9
  0
LINE
  5
525
100
AcDbEntity
  8
ASSI
100
AcDbLine
 62
7
  6
CONTINUOUS
 10
-7.3
 20
20.9
 11
-8.9498936624
 21
20.9
  0
LINE
  5
526
100
AcDbEntity
  8
0
100
AcDbLine
 62
7
  6
CONTINUOUS
 10
8.25
 20
20.9
 11
8.9498936624
 21
20.9
  0
LINE
  5
527
100
AcDbEntity
  8
0
100
AcDbLine
 62
253
  6
CONTINUOUS
 10
7.5871557427
 20
17.849847672
 11
-0.0
 21
17.9822819681
  0
LINE
  5
528
100
AcDbEntity
  8
0
100
AcDbLine
 62
7
  6
CONTINUOUS
 10
2.40000025
 20
18.9390208268
 11
7.5174524064
 21
18.8496953671
  0
LINE
  5
529
100
AcDbEntity
  8
ASSI
100
AcDbLine
 62
7
  6
CONTINUOUS
 10
1.0087268678
 20
22.3947639644
 11
1.0
 21
22.4
  0
LINE
  5
52A
100
AcDbEntity
  8
0
100
AcDbLine
 62
7
  6
CONTINUOUS
 10
1.0087268678
 20
22.3947639644
 11
1.0
 21
22.4
  0
LINE
  5
52B
100
AcDbEntity
  8
0
100
AcDbLine
 62
253
  6
CONTINUOUS
 10
1.0
 20
23.8000067692
 11
1.0087268678
 21
23.7941889394
  0
LINE
  5
52C
100
AcDbEntity
  8
ASSI
100
AcDbLine
 62
7
  6
CONTINUOUS
 10
9.6046168312
 20
-20.0627794241
 11
8.9045104936
 21
-20.7637397739
  0
LINE
  5
52D
100
AcDbEntity
  8
0
100
AcDbLine
 62
7
  6
CONTINUOUS
 10
9.6046168312
 20
-20.0627794241
 11
8.9045104936
 21
-20.7637397739
  0
LINE
  5
52E
100
AcDbEntity
  8
ASSI
100
AcDbLine
 62
7
  6
CONTINUOUS
 10
9.65
 20
-20.1990396502
 11
8.9498936624
 21
-20.9
  0
LINE
  5
52F
100
AcDbEntity
  8
0
100
AcDbLine
 62
7
  6
CONTINUOUS
 10
9.65
 20
-20.1990396502
 11
8.9498936624
 21
-20.9
  0
LINE
  5
530
100
AcDbEntity
  8
ASSI
100
AcDbLine
 62
7
  6
CONTINUOUS
 10
7.2558178298
 20
-22.3941821702
 11
8.25
 21
-21.4
  0
LINE
  5
531
100
AcDbEntity
  8
0
100
AcDbLine
 62
7
  6
CONTINUOUS
 10
7.2558178298
 20
-22.3941821702
 11
8.25
 21
-21.4
  0
LINE
  5
532
100
AcDbEntity
  8
ASSI
100
AcDbLine
 62
7
  6
CONTINUOUS
 10
10.15
 20
-19.5
 11
11.1412731322
 21
-18.5087268678
  0
LINE
  5
533
100
AcDbEntity
  8
0
100
AcDbLine
 62
7
  6
CONTINUOUS
 10
10.15
 20
-19.5
 11
11.1412731322
 21
-18.5087268678
  0
LINE
  5
534
100
AcDbEntity
  8
ASSI
100
AcDbLine
 62
7
  6
CONTINUOUS
 10
8.0665695018
 20
-20.9917082642
 11
8.25
 21
-20.9
  0
LINE
  5
535
100
AcDbEntity
  8
0
100
AcDbLine
 62
7
  6
CONTINUOUS
 10
8.0665695018
 20
-20.9917082642
 11
8.25
 21
-20.9
  0
LINE
  5
536
100
AcDbEntity
  8
ASSI
100
AcDbLine
 62
7
  6
CONTINUOUS
 10
8.0665695018
 20
-21.4537354271
 11
8.25
 21
-21.4
  0
LINE
  5
537
100
AcDbEntity
  8
0
100
AcDbLine
 62
7
  6
CONTINUOUS
 10
8.0665695018
 20
-21.4537354271
 11
8.25
 21
-21.4
  0
LINE
  5
538
100
AcDbEntity
  8
ASSI
100
AcDbLine
 62
7
  6
CONTINUOUS
 10
7.5666456542
 20
20.9959955457
 11
7.3
 21
20.9959955457
  0
LINE
  5
539
100
AcDbEntity
  8
ASSI
100
AcDbLine
 62
7
  6
CONTINUOUS
 10
-7.5666456542
 20
20.9959955457
 11
-7.3
 21
20.9959955457
  0
LINE
  5
53A
100
AcDbEntity
  8
0
100
AcDbLine
 62
7
  6
CONTINUOUS
 10
-7.5666456542
 20
20.9959955457
 11
-7.3
 21
20.9959955457
  0
LINE
  5
53B
100
AcDbEntity
  8
0
100
AcDbLine
 62
7
  6
CONTINUOUS
 10
7.5666456542
 20
20.9959955457
 11
7.3
 21
20.9959955457
  0
LINE
  5
53C
100
AcDbEntity
  8
0
100
AcDbLine
 62
7
  6
CONTINUOUS
 10
2.15000025
 20
21.0
 11
-2.15000025
 21
21.0
  0
LINE
  5
53D
100
AcDbEntity
  8
ASSI
100
AcDbLine
 62
253
  6
CONTINUOUS
 10
7.5666456542
 20
21.3359869487
 11
3.5
 21
21.3359869487
  0
LINE
  5
53E
100
AcDbEntity
  8
0
100
AcDbLine
 62
253
  6
CONTINUOUS
 10
7.5666456542
 20
21.3359869487
 11
3.5
 21
21.3359869487
  0
LINE
  5
53F
100
AcDbEntity
  8
ASSI
100
AcDbLine
 62
253
  6
CONTINUOUS
 10
-3.5
 20
21.3359869487
 11
-7.5666456542
 21
21.3359869487
  0
LINE
  5
540
100
AcDbEntity
  8
0
100
AcDbLine
 62
253
  6
CONTINUOUS
 10
-3.5
 20
21.3359869487
 11
-7.5666456542
 21
21.3359869487
  0
LINE
  5
541
100
AcDbEntity
  8
ASSI
100
AcDbLine
 62
7
  6
CONTINUOUS
 10
-3.5
 20
21.7
 11
3.5
 21
21.7
  0
LINE
  5
542
100
AcDbEntity
  8
0
100
AcDbLine
 62
7
  6
CONTINUOUS
 10
-3.5
 20
21.7
 11
3.5
 21
21.7
  0
LINE
  5
543
100
AcDbEntity
  8
ASSI
100
AcDbLine
 62
253
  6
CONTINUOUS
 10
7.1905416262
 20
22.3359700255
 11
3.5
 21
22.3359700255
  0
LINE
  5
544
100
AcDbEntity
  8
0
100
AcDbLine
 62
253
  6
CONTINUOUS
 10
7.1905416262
 20
22.3359700255
 11
3.5
 21
22.3359700255
  0
LINE
  5
545
100
AcDbEntity
  8
ASSI
100
AcDbLine
 62
253
  6
CONTINUOUS
 10
-3.5
 20
22.3359700255
 11
-7.1905416262
 21
22.3359700255
  0
LINE
  5
546
100
AcDbEntity
  8
0
100
AcDbLine
 62
253
  6
CONTINUOUS
 10
-3.5
 20
22.3359700255
 11
-7.1905416262
 21
22.3359700255
  0
LINE
  5
547
100
AcDbEntity
  8
ASSI
100
AcDbLine
 62
7
  6
CONTINUOUS
 10
-10.6412794783
 20
22.3941821702
 11
-7.2558178298
 21
22.3941821702
  0
LINE
  5
548
100
AcDbEntity
  8
0
100
AcDbLine
 62
7
  6
CONTINUOUS
 10
-10.6412794783
 20
22.3941821702
 11
-7.2558178298
 21
22.3941821702
  0
LINE
  5
549
100
AcDbEntity
  8
ASSI
100
AcDbLine
 62
7
  6
CONTINUOUS
 10
7.2558178298
 20
22.3941821702
 11
10.6412794783
 21
22.3941821702
  0
LINE
  5
54A
100
AcDbEntity
  8
0
100
AcDbLine
 62
7
  6
CONTINUOUS
 10
7.2558178298
 20
22.3941821702
 11
10.6412794783
 21
22.3941821702
  0
LINE
  5
54B
100
AcDbEntity
  8
ASSI
100
AcDbLine
 62
7
  6
CONTINUOUS
 10
-1.0087268678
 20
22.3947639644
 11
1.0087268678
 21
22.3947639644
  0
LINE
  5
54C
100
AcDbEntity
  8
0
100
AcDbLine
 62
7
  6
CONTINUOUS
 10
-1.0087268678
 20
22.3947639644
 11
1.0087268678
 21
22.3947639644
  0
LINE
  5
54D
100
AcDbEntity
  8
ASSI
100
AcDbLine
 62
7
  6
CONTINUOUS
 10
4.45
 20
22.4
 11
10.6500063461
 21
22.4
  0
LINE
  5
54E
100
AcDbEntity
  8
ASSI
100
AcDbLine
 62
7
  6
CONTINUOUS
 10
-4.45
 20
22.4
 11
-10.6500063461
 21
22.4
  0
LINE
  5
54F
100
AcDbEntity
  8
0
100
AcDbLine
 62
7
  6
CONTINUOUS
 10
4.45
 20
22.4
 11
10.6500063461
 21
22.4
  0
LINE
  5
550
100
AcDbEntity
  8
0
100
AcDbLine
 62
7
  6
CONTINUOUS
 10
-4.45
 20
22.4
 11
-10.6500063461
 21
22.4
  0
LINE
  5
551
100
AcDbEntity
  8
ASSI
100
AcDbLine
 62
7
  6
CONTINUOUS
 10
-9.9007229979
 20
23.1226497308
 11
-7.4992770021
 21
23.1226497308
  0
LINE
  5
552
100
AcDbEntity
  8
0
100
AcDbLine
 62
7
  6
CONTINUOUS
 10
-9.9007229979
 20
23.1226497308
 11
-7.4992770021
 21
23.1226497308
  0
LINE
  5
553
100
AcDbEntity
  8
ASSI
100
AcDbLine
 62
7
  6
CONTINUOUS
 10
9.9007229979
 20
23.1226497308
 11
7.4992770021
 21
23.1226497308
  0
LINE
  5
554
100
AcDbEntity
  8
0
100
AcDbLine
 62
7
  6
CONTINUOUS
 10
9.9007229979
 20
23.1226497308
 11
7.4992770021
 21
23.1226497308
  0
LINE
  5
555
100
AcDbEntity
  8
ASSI
100
AcDbLine
 62
253
  6
CONTINUOUS
 10
-9.8956323968
 20
23.6278312164
 11
-7.5043676032
 21
23.6278312164
  0
LINE
  5
556
100
AcDbEntity
  8
0
100
AcDbLine
 62
253
  6
CONTINUOUS
 10
-9.8956323968
 20
23.6278312164
 11
-7.5043676032
 21
23.6278312164
  0
LINE
  5
557
100
AcDbEntity
  8
ASSI
100
AcDbLine
 62
253
  6
CONTINUOUS
 10
7.5043676032
 20
23.6278312164
 11
9.8956323968
 21
23.6278312164
  0
LINE
  5
558
100
AcDbEntity
  8
0
100
AcDbLine
 62
253
  6
CONTINUOUS
 10
7.5043676032
 20
23.6278312164
 11
9.8956323968
 21
23.6278312164
  0
LINE
  5
559
100
AcDbEntity
  8
ASSI
100
AcDbLine
 62
253
  6
CONTINUOUS
 10
7.254371834
 20
23.8443375673
 11
10.145628166
 21
23.8443375673
  0
LINE
  5
55A
100
AcDbEntity
  8
0
100
AcDbLine
 62
253
  6
CONTINUOUS
 10
7.254371834
 20
23.8443375673
 11
10.145628166
 21
23.8443375673
  0
LINE
  5
55B
100
AcDbEntity
  8
ASSI
100
AcDbLine
 62
253
  6
CONTINUOUS
 10
-7.254371834
 20
23.8443375673
 11
-10.145628166
 21
23.8443375673
  0
LINE
  5
55C
100
AcDbEntity
  8
0
100
AcDbLine
 62
253
  6
CONTINUOUS
 10
-7.254371834
 20
23.8443375673
 11
-10.145628166
 21
23.8443375673
  0
LINE
  5
55D
100
AcDbEntity
  8
ASSI
100
AcDbLine
 62
7
  6
CONTINUOUS
 10
-4.4063493531
 20
23.9563493531
 11
-3.5
 21
23.9563493531
  0
LINE
  5
55E
100
AcDbEntity
  8
0
100
AcDbLine
 62
7
  6
CONTINUOUS
 10
-4.4063493531
 20
23.9563493531
 11
-3.5
 21
23.9563493531
  0
LINE
  5
55F
100
AcDbEntity
  8
ASSI
100
AcDbLine
 62
7
  6
CONTINUOUS
 10
3.5
 20
23.9563493531
 11
4.4063493531
 21
23.9563493531
  0
LINE
  5
560
100
AcDbEntity
  8
0
100
AcDbLine
 62
7
  6
CONTINUOUS
 10
3.5
 20
23.9563493531
 11
4.4063493531
 21
23.9563493531
  0
LINE
  5
561
100
AcDbEntity
  8
ASSI
100
AcDbLine
 62
7
  6
CONTINUOUS
 10
-3.5
 20
23.9941821702
 11
-1.2087243294
 21
23.9941821702
  0
LINE
  5
562
100
AcDbEntity
  8
0
100
AcDbLine
 62
7
  6
CONTINUOUS
 10
-3.5
 20
23.9941821702
 11
-1.2087243294
 21
23.9941821702
  0
LINE
  5
563
100
AcDbEntity
  8
ASSI
100
AcDbLine
 62
7
  6
CONTINUOUS
 10
1.2087243294
 20
23.9941821702
 11
3.5
 21
23.9941821702
  0
LINE
  5
564
100
AcDbEntity
  8
0
100
AcDbLine
 62
7
  6
CONTINUOUS
 10
1.2087243294
 20
23.9941821702
 11
3.5
 21
23.9941821702
  0
LINE
  5
565
100
AcDbEntity
  8
ASSI
100
AcDbLine
 62
7
  6
CONTINUOUS
 10
4.45
 20
24.0
 11
1.1999974616
 21
24.0
  0
LINE
  5
566
100
AcDbEntity
  8
0
100
AcDbLine
 62
7
  6
CONTINUOUS
 10
4.45
 20
24.0
 11
1.1999974616
 21
24.0
  0
LINE
  5
567
100
AcDbEntity
  8
ASSI
100
AcDbLine
 62
7
  6
CONTINUOUS
 10
-1.1999974616
 20
24.0
 11
-4.45
 21
24.0
  0
LINE
  5
568
100
AcDbEntity
  8
0
100
AcDbLine
 62
7
  6
CONTINUOUS
 10
-1.1999974616
 20
24.0
 11
-4.45
 21
24.0
  0
LINE
  5
569
100
AcDbEntity
  8
ASSI
100
AcDbLine
 62
253
  6
CONTINUOUS
 10
7.254371834
 20
24.2456323968
 11
10.145628166
 21
24.2456323968
  0
LINE
  5
56A
100
AcDbEntity
  8
0
100
AcDbLine
 62
253
  6
CONTINUOUS
 10
7.254371834
 20
24.2456323968
 11
10.145628166
 21
24.2456323968
  0
LINE
  5
56B
100
AcDbEntity
  8
ASSI
100
AcDbLine
 62
253
  6
CONTINUOUS
 10
-7.254371834
 20
24.2456323968
 11
-10.145628166
 21
24.2456323968
  0
LINE
  5
56C
100
AcDbEntity
  8
0
100
AcDbLine
 62
253
  6
CONTINUOUS
 10
-7.254371834
 20
24.2456323968
 11
-10.145628166
 21
24.2456323968
  0
LINE
  5
56D
100
AcDbEntity
  8
ASSI
100
AcDbLine
 62
7
  6
CONTINUOUS
 10
8.0665695018
 20
21.4537354271
 11
8.25
 21
21.4
  0
LINE
  5
56E
100
AcDbEntity
  8
0
100
AcDbLine
 62
7
  6
CONTINUOUS
 10
8.0665695018
 20
21.4537354271
 11
8.25
 21
21.4
  0
LINE
  5
56F
100
AcDbEntity
  8
ASSI
100
AcDbLine
 62
7
  6
CONTINUOUS
 10
8.0665695018
 20
20.9917082642
 11
8.25
 21
20.9
  0
LINE
  5
570
100
AcDbEntity
  8
0
100
AcDbLine
 62
7
  6
CONTINUOUS
 10
8.0665695018
 20
20.9917082642
 11
8.25
 21
20.9
  0
LINE
  5
571
100
AcDbEntity
  8
ASSI
100
AcDbLine
 62
7
  6
CONTINUOUS
 10
7.2558178298
 20
22.3941821702
 11
8.25
 21
21.4
  0
LINE
  5
572
100
AcDbEntity
  8
0
100
AcDbLine
 62
7
  6
CONTINUOUS
 10
7.2558178298
 20
22.3941821702
 11
8.25
 21
21.4
  0
LINE
  5
573
100
AcDbEntity
  8
ASSI
100
AcDbLine
 62
7
  6
CONTINUOUS
 10
11.1412731322
 20
18.5087268678
 11
10.15
 21
19.5
  0
LINE
  5
574
100
AcDbEntity
  8
0
100
AcDbLine
 62
7
  6
CONTINUOUS
 10
11.1412731322
 20
18.5087268678
 11
10.15
 21
19.5
  0
LINE
  5
575
100
AcDbEntity
  8
ASSI
100
AcDbLine
 62
7
  6
CONTINUOUS
 10
9.65
 20
20.1990396502
 11
8.9498936624
 21
20.9
  0
LINE
  5
576
100
AcDbEntity
  8
0
100
AcDbLine
 62
7
  6
CONTINUOUS
 10
9.65
 20
20.1990396502
 11
8.9498936624
 21
20.9
  0
LINE
  5
577
100
AcDbEntity
  8
ASSI
100
AcDbLine
 62
7
  6
CONTINUOUS
 10
9.8956323968
 20
24.495628166
 11
7.5043676032
 21
24.495628166
  0
LINE
  5
578
100
AcDbEntity
  8
0
100
AcDbLine
 62
7
  6
CONTINUOUS
 10
9.8956323968
 20
24.495628166
 11
7.5043676032
 21
24.495628166
  0
LINE
  5
579
100
AcDbEntity
  8
ASSI
100
AcDbLine
 62
7
  6
CONTINUOUS
 10
-7.5043676032
 20
24.495628166
 11
-9.8956323968
 21
24.495628166
  0
LINE
  5
57A
100
AcDbEntity
  8
0
100
AcDbLine
 62
7
  6
CONTINUOUS
 10
-7.5043676032
 20
24.495628166
 11
-9.8956323968
 21
24.495628166
  0
ARC
  5
57B
100
AcDbEntity
  8
0
100
AcDbCircle
 62
253
  6
CONTINUOUS
 10
1.4991310849
 20
-151.7474972455
 40
138.7476500465
100
AcDbArc
 50
90.4611528909
 51
90.6190764556
  0
ARC
  5
57C
100
AcDbEntity
  8
0
100
AcDbCircle
 62
253
  6
CONTINUOUS
 10
-1.4915702376
 20
-151.180833942
 40
138.1808033381
100
AcDbArc
 50
89.3815197453
 51
89.5400909427
  0
ARC
  5
57D
100
AcDbEntity
  8
0
100
AcDbCircle
 62
7
  6
CONTINUOUS
 10
-46.6364842493
 20
-11.0730405339
 40
42.9030543283
100
AcDbArc
 50
359.3291081511
 51
0.0448855985
  0
ARC
  5
57E
100
AcDbEntity
  8
0
100
AcDbCircle
 62
253
  6
CONTINUOUS
 10
-36.654830364
 20
-12.4701256775
 40
36.6563905597
100
AcDbArc
 50
359.3941715893
 51
359.5504680835
  0
ARC
  5
57F
100
AcDbEntity
  8
RACCORDO
100
AcDbCircle
 62
7
  6
CONTINUOUS
 10
-8.9493782319
 20
-16.0037594478
 40
0.5037828411
100
AcDbArc
 50
95.7524946077
 51
99.6904311289
  0
ARC
  5
580
100
AcDbEntity
  8
0
100
AcDbCircle
 62
7
  6
CONTINUOUS
 10
-10.646497078
 20
-21.899782582
 40
0.5035029222
100
AcDbArc
 50
179.9986988641
 51
184.8497608437
  0
ARC
  5
581
100
AcDbEntity
  8
ASSI
100
AcDbCircle
 62
7
  6
CONTINUOUS
 10
-10.6500396797
 20
-21.9000430541
 40
0.4999569776
100
AcDbArc
 50
179.9688393823
 51
269.9609300873
  0
ARC
  5
582
100
AcDbEntity
  8
0
100
AcDbCircle
 62
7
  6
CONTINUOUS
 10
-10.6500413486
 20
-21.9000583431
 40
0.4999460198
100
AcDbArc
 50
184.8526110777
 51
265.082169765
  0
ARC
  5
583
100
AcDbEntity
  8
0
100
AcDbCircle
 62
7
  6
CONTINUOUS
 10
-10.6502985816
 20
-21.904914956
 40
0.4950850508
100
AcDbArc
 50
265.0636465424
 51
269.9905081124
  0
ARC
  5
584
100
AcDbEntity
  8
ASSI
100
AcDbCircle
 62
7
  6
CONTINUOUS
 10
-9.8979592496
 20
-24.2496617058
 40
0.2520545746
100
AcDbArc
 50
186.0289692273
 51
191.9797187695
  0
ARC
  5
585
100
AcDbEntity
  8
ASSI
100
AcDbCircle
 62
7
  6
CONTINUOUS
 10
-9.8997182339
 20
-24.2481926537
 40
0.2518075087
100
AcDbArc
 50
252.0652430401
 51
269.9349248207
  0
ARC
  5
586
100
AcDbEntity
  8
0
100
AcDbCircle
 62
7
  6
CONTINUOUS
 10
-9.8988019323
 20
-24.2495887576
 40
0.2512552009
100
AcDbArc
 50
190.9502408304
 51
207.2313150459
  0
ARC
  5
587
100
AcDbEntity
  8
0
100
AcDbCircle
 62
7
  6
CONTINUOUS
 10
-9.8999862297
 20
-24.2497365929
 40
0.2502634078
100
AcDbArc
 50
264.1578382274
 51
269.9958787969
  0
ARC
  5
588
100
AcDbEntity
  8
ASSI
100
AcDbCircle
 62
7
  6
CONTINUOUS
 10
-9.8997650253
 20
-24.2500688726
 40
0.2502036139
100
AcDbArc
 50
191.9743413379
 51
197.9692406447
  0
ARC
  5
589
100
AcDbEntity
  8
0
100
AcDbCircle
 62
7
  6
CONTINUOUS
 10
-9.8998246124
 20
-24.2499072456
 40
0.2502002013
100
AcDbArc
 50
207.2736280718
 51
209.9986755816
  0
ARC
  5
58A
100
AcDbEntity
  8
0
100
AcDbCircle
 62
7
  6
CONTINUOUS
 10
-9.8999072456
 20
-24.2498246124
 40
0.2502002013
100
AcDbArc
 50
240.0013244184
 51
242.7263719282
  0
ARC
  5
58B
100
AcDbEntity
  8
ASSI
100
AcDbCircle
 62
7
  6
CONTINUOUS
 10
-9.8998695825
 20
-24.2498695825
 40
0.2501753007
100
AcDbArc
 50
204.0158680559
 51
245.9841319441
  0
ARC
  5
58C
100
AcDbEntity
  8
ASSI
100
AcDbCircle
 62
7
  6
CONTINUOUS
 10
-9.8956085053
 20
-24.2456085053
 40
0.2500209265
100
AcDbArc
 50
180.005475105
 51
269.9945248947
  0
ARC
  5
58D
100
AcDbEntity
  8
0
100
AcDbCircle
 62
7
  6
CONTINUOUS
 10
-9.895622453
 20
-24.2456224574
 40
0.2500053353
100
AcDbArc
 50
180.0060721998
 51
269.99394617
  0
ARC
  5
58E
100
AcDbEntity
  8
0
100
AcDbCircle
 62
7
  6
CONTINUOUS
 10
-9.900177954
 20
-24.250035419
 40
0.2498194496
100
AcDbArc
 50
180.0041212031
 51
190.9096129119
  0
ARC
  5
58F
100
AcDbEntity
  8
ASSI
100
AcDbCircle
 62
7
  6
CONTINUOUS
 10
-9.9008070014
 20
-24.2503272993
 40
0.2491327482
100
AcDbArc
 50
197.9866352647
 51
204.007456794
  0
ARC
  5
590
100
AcDbEntity
  8
ASSI
100
AcDbCircle
 62
7
  6
CONTINUOUS
 10
-9.9003272993
 20
-24.2508070014
 40
0.2491327482
100
AcDbArc
 50
245.992543206
 51
252.0133647353
  0
ARC
  5
591
100
AcDbEntity
  8
ASSI
100
AcDbCircle
 62
7
  6
CONTINUOUS
 10
-9.9009055562
 20
-24.2499484332
 40
0.24909445
100
AcDbArc
 50
180.0128343449
 51
186.0345615722
  0
ARC
  5
592
100
AcDbEntity
  8
0
100
AcDbCircle
 62
7
  6
CONTINUOUS
 10
-19.8673613486
 20
-12.02077226
 40
19.8681255442
100
AcDbArc
 50
359.3167000414
 51
359.6771626123
  0
ARC
  5
593
100
AcDbEntity
  8
ASSI
100
AcDbCircle
 62
7
  6
CONTINUOUS
 10
-7.5003382942
 20
-24.2479592496
 40
0.2520545745
100
AcDbArc
 50
276.0289692273
 51
281.9797187696
  0
ARC
  5
594
100
AcDbEntity
  8
ASSI
100
AcDbCircle
 62
7
  6
CONTINUOUS
 10
-7.5018073463
 20
-24.2497182339
 40
0.2518075087
100
AcDbArc
 50
342.0652430401
 51
359.9349248207
  0
ARC
  5
595
100
AcDbEntity
  8
0
100
AcDbCircle
 62
7
  6
CONTINUOUS
 10
-7.5004112424
 20
-24.2488019323
 40
0.2512552009
100
AcDbArc
 50
280.9502408304
 51
297.231315046
  0
ARC
  5
596
100
AcDbEntity
  8
0
100
AcDbCircle
 62
7
  6
CONTINUOUS
 10
-7.5002634071
 20
-24.2499862297
 40
0.2502634078
100
AcDbArc
 50
354.1578382274
 51
359.9958787969
  0
ARC
  5
597
100
AcDbEntity
  8
ASSI
100
AcDbCircle
 62
7
  6
CONTINUOUS
 10
-7.4999311274
 20
-24.2497650253
 40
0.2502036139
100
AcDbArc
 50
281.9743413379
 51
287.9692406447
  0
ARC
  5
598
100
AcDbEntity
  8
0
100
AcDbCircle
 62
7
  6
CONTINUOUS
 10
-7.5000927544
 20
-24.2498246124
 40
0.2502002013
100
AcDbArc
 50
297.2736280718
 51
299.9986755816
  0
ARC
  5
599
100
AcDbEntity
  8
0
100
AcDbCircle
 62
7
  6
CONTINUOUS
 10
-7.5001753876
 20
-24.2499072456
 40
0.2502002013
100
AcDbArc
 50
330.0013244184
 51
332.7263719282
  0
ARC
  5
59A
100
AcDbEntity
  8
ASSI
100
AcDbCircle
 62
7
  6
CONTINUOUS
 10
-7.5001304175
 20
-24.2498695825
 40
0.2501753007
100
AcDbArc
 50
294.0158680559
 51
335.9841319441
  0
ARC
  5
59B
100
AcDbEntity
  8
ASSI
100
AcDbCircle
 62
7
  6
CONTINUOUS
 10
-7.5043914849
 20
-24.2456085151
 40
0.2500209182
100
AcDbArc
 50
270.0054728494
 51
359.9945271506
  0
ARC
  5
59C
100
AcDbEntity
  8
0
100
AcDbCircle
 62
7
  6
CONTINUOUS
 10
-7.5043775389
 20
-24.2456224611
 40
0.2500053271
100
AcDbArc
 50
270.0060704802
 51
359.9939295198
  0
ARC
  5
59D
100
AcDbEntity
  8
0
100
AcDbCircle
 62
7
  6
CONTINUOUS
 10
-7.499964581
 20
-24.250177954
 40
0.2498194496
100
AcDbArc
 50
270.0041212031
 51
280.9096129119
  0
ARC
  5
59E
100
AcDbEntity
  8
ASSI
100
AcDbCircle
 62
7
  6
CONTINUOUS
 10
-7.4996727007
 20
-24.2508070014
 40
0.2491327482
100
AcDbArc
 50
287.9866352647
 51
294.007456794
  0
ARC
  5
59F
100
AcDbEntity
  8
ASSI
100
AcDbCircle
 62
7
  6
CONTINUOUS
 10
-7.4991929986
 20
-24.2503272993
 40
0.2491327482
100
AcDbArc
 50
335.992543206
 51
342.0133647353
  0
ARC
  5
5A0
100
AcDbEntity
  8
ASSI
100
AcDbCircle
 62
7
  6
CONTINUOUS
 10
-7.5000515668
 20
-24.2509055562
 40
0.24909445
100
AcDbArc
 50
270.0128343449
 51
276.0345615722
  0
ARC
  5
5A1
100
AcDbEntity
  8
ASSI
100
AcDbCircle
 62
7
  6
CONTINUOUS
 10
-6.9
 20
-19.5
 40
0.65
100
AcDbArc
 50
0.0
 51
232.0201275551
  0
ARC
  5
5A2
100
AcDbEntity
  8
ASSI
100
AcDbCircle
 62
7
  6
CONTINUOUS
 10
-4.0
 20
-23.15
 40
0.5
100
AcDbArc
 50
144.3637748935
 51
215.6362251065
  0
ARC
  5
5A3
100
AcDbEntity
  8
0
100
AcDbCircle
 62
7
  6
CONTINUOUS
 10
-4.0
 20
-23.15
 40
0.5
100
AcDbArc
 50
144.3637748935
 51
215.6362251065
  0
ARC
  5
5A4
100
AcDbEntity
  8
0
100
AcDbCircle
 62
7
  6
CONTINUOUS
 10
-7.5
 20
-17.849847672
 40
1.0
100
AcDbArc
 50
180.0
 51
269.0
  0
ARC
  5
5A5
100
AcDbEntity
  8
0
100
AcDbCircle
 62
7
  6
CONTINUOUS
 10
-7.5
 20
-17.8325
 40
1.0
100
AcDbArc
 50
90.0
 51
180.0
  0
ARC
  5
5A6
100
AcDbEntity
  8
0
100
AcDbCircle
 62
7
  6
CONTINUOUS
 10
-3.8500004762
 20
-16.522202938
 40
0.75
100
AcDbArc
 50
180.0000000061
 51
266.9999999301
  0
ARC
  5
5A7
100
AcDbEntity
  8
0
100
AcDbCircle
 62
253
  6
CONTINUOUS
 10
-3.8506141893
 20
-16.0124430172
 40
0.7494180657
100
AcDbArc
 50
180.0391762316
 51
267.0447813013
  0
ARC
  5
5A8
100
AcDbEntity
  8
0
100
AcDbCircle
 62
7
  6
CONTINUOUS
 10
-0.0122815598
 20
-19.3032311545
 40
27.6522409031
100
AcDbArc
 50
89.9745524579
 51
90.6214528415
  0
ARC
  5
5A9
100
AcDbEntity
  8
0
100
AcDbCircle
 62
7
  6
CONTINUOUS
 10
0.0122815598
 20
-19.3032311548
 40
27.6522409034
100
AcDbArc
 50
89.3785471583
 51
90.0254475421
  0
ARC
  5
5AA
100
AcDbEntity
  8
0
100
AcDbCircle
 62
7
  6
CONTINUOUS
 10
-0.0174919676
 20
-18.7937843444
 40
27.1427675483
100
AcDbArc
 50
90.6221187332
 51
90.8092966956
  0
ARC
  5
5AB
100
AcDbEntity
  8
0
100
AcDbCircle
 62
7
  6
CONTINUOUS
 10
0.0174919676
 20
-18.7937843433
 40
27.1427675472
100
AcDbArc
 50
89.1907033044
 51
89.3778812665
  0
ARC
  5
5AC
100
AcDbEntity
  8
ASSI
100
AcDbCircle
 62
7
  6
CONTINUOUS
 10
-1.2000044316
 20
-23.7999952715
 40
0.2000055598
100
AcDbArc
 50
270.001996727
 51
359.9967062308
  0
ARC
  5
5AD
100
AcDbEntity
  8
0
100
AcDbCircle
 62
7
  6
CONTINUOUS
 10
1.1999932435
 20
-23.8000067566
 40
0.1999932435
100
AcDbArc
 50
180.0000036163
 51
270.0012084401
  0
ARC
  5
5AE
100
AcDbEntity
  8
0
100
AcDbCircle
 62
7
  6
CONTINUOUS
 10
-1.1999918583
 20
-23.8000077377
 40
0.1999915702
100
AcDbArc
 50
270.0035036563
 51
359.9964922158
  0
ARC
  5
5AF
100
AcDbEntity
  8
ASSI
100
AcDbCircle
 62
7
  6
CONTINUOUS
 10
1.1999957108
 20
-23.8000039098
 40
0.1999877003
100
AcDbArc
 50
185.7704079981
 51
264.2341931085
  0
ARC
  5
5B0
100
AcDbEntity
  8
ASSI
100
AcDbCircle
 62
7
  6
CONTINUOUS
 10
1.2000389786
 20
-23.8007964614
 40
0.1992035429
100
AcDbArc
 50
264.1989100536
 51
269.9880586991
  0
ARC
  5
5B1
100
AcDbEntity
  8
ASSI
100
AcDbCircle
 62
7
  6
CONTINUOUS
 10
1.1991898328
 20
-23.7999651664
 40
0.1991898371
100
AcDbArc
 50
180.0119667988
 51
185.8048021765
  0
ARC
  5
5B2
100
AcDbEntity
  8
0
100
AcDbCircle
 62
253
  6
CONTINUOUS
 10
2.5214589242
 20
-12.947371367
 40
2.5215503433
100
AcDbArc
 50
179.6670292792
 51
180.1578085311
  0
ARC
  5
5B3
100
AcDbEntity
  8
0
100
AcDbCircle
 62
7
  6
CONTINUOUS
 10
1.044109612
 20
-14.8004086117
 40
1.1103298463
100
AcDbArc
 50
109.9948979918
 51
113.7248433234
  0
ARC
  5
5B4
100
AcDbEntity
  8
0
100
AcDbCircle
 62
7
  6
CONTINUOUS
 10
-1.0009979223
 20
-14.7000295467
 40
1.0012581813
100
AcDbArc
 50
35.9880634755
 51
37.5457536563
  0
ARC
  5
5B5
100
AcDbEntity
  8
0
100
AcDbCircle
 62
7
  6
CONTINUOUS
 10
0.9999059103
 20
-14.699160826
 40
0.9998629675
100
AcDbArc
 50
113.7381059096
 51
142.4556031457
  0
ARC
  5
5B6
100
AcDbEntity
  8
0
100
AcDbCircle
 62
7
  6
CONTINUOUS
 10
-0.9999059094
 20
-14.699160825
 40
0.9998629662
100
AcDbArc
 50
37.5444176907
 51
66.2618949117
  0
ARC
  5
5B7
100
AcDbEntity
  8
0
100
AcDbCircle
 62
7
  6
CONTINUOUS
 10
-0.0194459168
 20
-7.9625775227
 40
16.3167000787
100
AcDbArc
 50
87.427864582
 51
87.5698456571
  0
ARC
  5
5B8
100
AcDbEntity
  8
0
100
AcDbCircle
 62
7
  6
CONTINUOUS
 10
-0.0804640083
 20
-5.3407479073
 40
13.6930010125
100
AcDbArc
 50
92.4802956171
 51
92.6467763065
  0
ARC
  5
5B9
100
AcDbEntity
  8
0
100
AcDbCircle
 62
7
  6
CONTINUOUS
 10
0.2797371554
 20
-2.2421000977
 40
10.5890685283
100
AcDbArc
 50
88.7672007047
 51
89.344566476
  0
ARC
  5
5BA
100
AcDbEntity
  8
0
100
AcDbCircle
 62
7
  6
CONTINUOUS
 10
-0.279737174
 20
-2.2420988458
 40
10.5890672763
100
AcDbArc
 50
90.6554335005
 51
91.2328057179
  0
ARC
  5
5BB
100
AcDbEntity
  8
0
100
AcDbCircle
 62
7
  6
CONTINUOUS
 10
0.2826852398
 20
-2.0975772076
 40
10.4445156648
100
AcDbArc
 50
88.6206626908
 51
88.7663121742
  0
ARC
  5
5BC
100
AcDbEntity
  8
0
100
AcDbCircle
 62
7
  6
CONTINUOUS
 10
-0.2852119906
 20
-1.9910683799
 40
10.3379771271
100
AcDbArc
 50
91.2324029932
 51
91.8190640028
  0
ARC
  5
5BD
100
AcDbEntity
  8
0
100
AcDbCircle
 62
7
  6
CONTINUOUS
 10
0.2872987091
 20
-1.9163745696
 40
10.263254482
100
AcDbArc
 50
88.032506203
 51
88.6220599379
  0
ARC
  5
5BE
100
AcDbEntity
  8
0
100
AcDbCircle
 62
7
  6
CONTINUOUS
 10
-0.2910862284
 20
-1.7990306075
 40
10.1458496661
100
AcDbArc
 50
91.8203325902
 51
91.9688832721
  0
ARC
  5
5BF
100
AcDbEntity
  8
ASSI
100
AcDbCircle
 62
253
  6
CONTINUOUS
 10
0.0
 20
0.0
 40
8.9956556053
100
AcDbArc
 50
146.4864463085
 51
176.8136877089
  0
ARC
  5
5C0
100
AcDbEntity
  8
ASSI
100
AcDbCircle
 62
253
  6
CONTINUOUS
 10
0.0
 20
0.0
 40
8.9956556053
100
AcDbArc
 50
3.1862929197
 51
6.136685309
  0
ARC
  5
5C1
100
AcDbEntity
  8
ASSI
100
AcDbCircle
 62
253
  6
CONTINUOUS
 10
0.0
 20
0.0
 40
8.9956556053
100
AcDbArc
 50
326.4863758908
 51
356.8137025458
  0
ARC
  5
5C2
100
AcDbEntity
  8
ASSI
100
AcDbCircle
 62
253
  6
CONTINUOUS
 10
0.0
 20
0.0
 40
8.9956556053
100
AcDbArc
 50
183.1863123929
 51
213.5135554858
  0
ARC
  5
5C3
100
AcDbEntity
  8
RACCORDO
100
AcDbCircle
 62
253
  6
CONTINUOUS
 10
0.0
 20
0.0
 40
8.9956556053
100
AcDbArc
 50
146.4948043059
 51
176.8136877089
  0
ARC
  5
5C4
100
AcDbEntity
  8
RACCORDO
100
AcDbCircle
 62
253
  6
CONTINUOUS
 10
0.0
 20
0.0
 40
8.9956556053
100
AcDbArc
 50
3.1862929197
 51
6.1369253419
  0
ARC
  5
5C5
100
AcDbEntity
  8
RACCORDO
100
AcDbCircle
 62
253
  6
CONTINUOUS
 10
0.0
 20
0.0
 40
8.9956556053
100
AcDbArc
 50
326.490182139
 51
356.8137025458
  0
ARC
  5
5C6
100
AcDbEntity
  8
RACCORDO
100
AcDbCircle
 62
253
  6
CONTINUOUS
 10
0.0
 20
0.0
 40
8.9956556053
100
AcDbArc
 50
183.1863123929
 51
213.5052162105
  0
ARC
  5
5C7
100
AcDbEntity
  8
ASSI
100
AcDbCircle
 62
7
  6
CONTINUOUS
 10
0.0
 20
0.0
 40
8.4956746438
100
AcDbArc
 50
151.9871155731
 51
176.6259944159
  0
ARC
  5
5C8
100
AcDbEntity
  8
ASSI
100
AcDbCircle
 62
7
  6
CONTINUOUS
 10
0.0
 20
0.0
 40
8.4956746438
100
AcDbArc
 50
331.9871156326
 51
356.6259944159
  0
ARC
  5
5C9
100
AcDbEntity
  8
ASSI
100
AcDbCircle
 62
7
  6
CONTINUOUS
 10
0.0
 20
0.0
 40
8.4956746438
100
AcDbArc
 50
183.3740055841
 51
208.0128844273
  0
ARC
  5
5CA
100
AcDbEntity
  8
RACCORDO
100
AcDbCircle
 62
7
  6
CONTINUOUS
 10
0.0
 20
0.0
 40
8.4956746438
100
AcDbArc
 50
151.991794277
 51
176.6259944159
  0
ARC
  5
5CB
100
AcDbEntity
  8
RACCORDO
100
AcDbCircle
 62
7
  6
CONTINUOUS
 10
0.0
 20
0.0
 40
8.4956746438
100
AcDbArc
 50
331.9967569615
 51
356.6259944159
  0
ARC
  5
5CC
100
AcDbEntity
  8
RACCORDO
100
AcDbCircle
 62
7
  6
CONTINUOUS
 10
0.0
 20
0.0
 40
8.4956746438
100
AcDbArc
 50
183.3740055841
 51
208.008190936
  0
ARC
  5
5CD
100
AcDbEntity
  8
ASSI
100
AcDbCircle
 62
253
  6
CONTINUOUS
 10
0.0
 20
0.0
 40
8.4240000949
100
AcDbArc
 50
152.9435701406
 51
176.5972534569
  0
ARC
  5
5CE
100
AcDbEntity
  8
ASSI
100
AcDbCircle
 62
253
  6
CONTINUOUS
 10
0.0
 20
0.0
 40
8.4240000949
100
AcDbArc
 50
332.9435690652
 51
356.5972534569
  0
ARC
  5
5CF
100
AcDbEntity
  8
ASSI
100
AcDbCircle
 62
253
  6
CONTINUOUS
 10
0.0
 20
0.0
 40
8.4240000949
100
AcDbArc
 50
183.4027465431
 51
207.0564300175
  0
ARC
  5
5D0
100
AcDbEntity
  8
RACCORDO
100
AcDbCircle
 62
253
  6
CONTINUOUS
 10
0.0
 20
0.0
 40
8.4240000949
100
AcDbArc
 50
152.9537857289
 51
176.5972534569
  0
ARC
  5
5D1
100
AcDbEntity
  8
RACCORDO
100
AcDbCircle
 62
253
  6
CONTINUOUS
 10
0.0
 20
0.0
 40
8.4240000949
100
AcDbArc
 50
332.9436844445
 51
356.5972534569
  0
ARC
  5
5D2
100
AcDbEntity
  8
RACCORDO
100
AcDbCircle
 62
253
  6
CONTINUOUS
 10
0.0
 20
0.0
 40
8.4240000949
100
AcDbArc
 50
183.4027465431
 51
207.0719432486
  0
ARC
  5
5D3
100
AcDbEntity
  8
0
100
AcDbCircle
 62
7
  6
CONTINUOUS
 10
-10.646497078
 20
21.899782582
 40
0.5035029222
100
AcDbArc
 50
175.1502391563
 51
180.0013011359
  0
ARC
  5
5D4
100
AcDbEntity
  8
ASSI
100
AcDbCircle
 62
7
  6
CONTINUOUS
 10
-10.6500396795
 20
21.9000430544
 40
0.4999569776
100
AcDbArc
 50
90.0390699424
 51
180.0311606507
  0
ARC
  5
5D5
100
AcDbEntity
  8
0
100
AcDbCircle
 62
7
  6
CONTINUOUS
 10
-10.6500413472
 20
21.9000583445
 40
0.4999460198
100
AcDbArc
 50
94.9178304081
 51
175.1473890922
  0
ARC
  5
5D6
100
AcDbEntity
  8
0
100
AcDbCircle
 62
7
  6
CONTINUOUS
 10
-10.6502985816
 20
21.904914956
 40
0.4950850508
100
AcDbArc
 50
90.0094918876
 51
94.9363534576
  0
ARC
  5
5D7
100
AcDbEntity
  8
ASSI
100
AcDbCircle
 62
7
  6
CONTINUOUS
 10
-9.8996617058
 20
24.2479592496
 40
0.2520545746
100
AcDbArc
 50
96.0289692273
 51
101.9797187695
  0
ARC
  5
5D8
100
AcDbEntity
  8
ASSI
100
AcDbCircle
 62
7
  6
CONTINUOUS
 10
-9.8981926537
 20
24.2497182339
 40
0.2518075087
100
AcDbArc
 50
162.0652430401
 51
179.9349248207
  0
ARC
  5
5D9
100
AcDbEntity
  8
0
100
AcDbCircle
 62
7
  6
CONTINUOUS
 10
-9.8995887576
 20
24.2488019323
 40
0.2512552009
100
AcDbArc
 50
100.9502408305
 51
117.2313150459
  0
ARC
  5
5DA
100
AcDbEntity
  8
0
100
AcDbCircle
 62
7
  6
CONTINUOUS
 10
-9.8997365929
 20
24.2499862297
 40
0.2502634078
100
AcDbArc
 50
174.1578382274
 51
179.9958787969
  0
ARC
  5
5DB
100
AcDbEntity
  8
ASSI
100
AcDbCircle
 62
7
  6
CONTINUOUS
 10
-9.9000688726
 20
24.2497650253
 40
0.2502036139
100
AcDbArc
 50
101.9743413379
 51
107.9692406447
  0
ARC
  5
5DC
100
AcDbEntity
  8
0
100
AcDbCircle
 62
7
  6
CONTINUOUS
 10
-9.8999072456
 20
24.2498246124
 40
0.2502002013
100
AcDbArc
 50
117.2736280718
 51
119.9986755816
  0
ARC
  5
5DD
100
AcDbEntity
  8
0
100
AcDbCircle
 62
7
  6
CONTINUOUS
 10
-9.8998246124
 20
24.2499072456
 40
0.2502002013
100
AcDbArc
 50
150.0013244185
 51
152.7263719281
  0
ARC
  5
5DE
100
AcDbEntity
  8
ASSI
100
AcDbCircle
 62
7
  6
CONTINUOUS
 10
-9.8998695825
 20
24.2498695825
 40
0.2501753007
100
AcDbArc
 50
114.0158680559
 51
155.9841319441
  0
ARC
  5
5DF
100
AcDbEntity
  8
ASSI
100
AcDbCircle
 62
7
  6
CONTINUOUS
 10
-9.8956085052
 20
24.2456085052
 40
0.2500209265
100
AcDbArc
 50
90.0054751136
 51
179.9945248867
  0
ARC
  5
5E0
100
AcDbEntity
  8
0
100
AcDbCircle
 62
7
  6
CONTINUOUS
 10
-9.895622453
 20
24.2456224574
 40
0.2500053353
100
AcDbArc
 50
90.0060538299
 51
179.9939278002
  0
ARC
  5
5E1
100
AcDbEntity
  8
0
100
AcDbCircle
 62
7
  6
CONTINUOUS
 10
-9.900035419
 20
24.250177954
 40
0.2498194497
100
AcDbArc
 50
90.0041212031
 51
100.9096129118
  0
ARC
  5
5E2
100
AcDbEntity
  8
ASSI
100
AcDbCircle
 62
7
  6
CONTINUOUS
 10
-9.9003272993
 20
24.2508070014
 40
0.2491327482
100
AcDbArc
 50
107.9866352647
 51
114.007456794
  0
ARC
  5
5E3
100
AcDbEntity
  8
ASSI
100
AcDbCircle
 62
7
  6
CONTINUOUS
 10
-9.9008070014
 20
24.2503272993
 40
0.2491327482
100
AcDbArc
 50
155.992543206
 51
162.0133647353
  0
ARC
  5
5E4
100
AcDbEntity
  8
ASSI
100
AcDbCircle
 62
7
  6
CONTINUOUS
 10
-9.8999484332
 20
24.2509055562
 40
0.24909445
100
AcDbArc
 50
90.0128343449
 51
96.0345615721
  0
ARC
  5
5E5
100
AcDbEntity
  8
0
100
AcDbCircle
 62
7
  6
CONTINUOUS
 10
-7.5
 20
17.8325
 40
1.0
100
AcDbArc
 50
180.0
 51
270.0
  0
ARC
  5
5E6
100
AcDbEntity
  8
0
100
AcDbCircle
 62
7
  6
CONTINUOUS
 10
-7.5
 20
17.849847672
 40
1.0
100
AcDbArc
 50
91.0
 51
180.0
  0
ARC
  5
5E7
100
AcDbEntity
  8
ASSI
100
AcDbCircle
 62
7
  6
CONTINUOUS
 10
-6.85
 20
19.5
 40
0.6
100
AcDbArc
 50
138.5903778907
 51
360.0
  0
ARC
  5
5E8
100
AcDbEntity
  8
ASSI
100
AcDbCircle
 62
7
  6
CONTINUOUS
 10
-7.5020407504
 20
24.2496617058
 40
0.2520545745
100
AcDbArc
 50
6.0289692273
 51
11.9797187696
  0
ARC
  5
5E9
100
AcDbEntity
  8
ASSI
100
AcDbCircle
 62
7
  6
CONTINUOUS
 10
-7.5002817661
 20
24.2481926537
 40
0.2518075087
100
AcDbArc
 50
72.0652430401
 51
89.9349248207
  0
ARC
  5
5EA
100
AcDbEntity
  8
0
100
AcDbCircle
 62
7
  6
CONTINUOUS
 10
-7.5011980677
 20
24.2495887576
 40
0.2512552009
100
AcDbArc
 50
10.9502408304
 51
27.2313150459
  0
ARC
  5
5EB
100
AcDbEntity
  8
0
100
AcDbCircle
 62
7
  6
CONTINUOUS
 10
-7.5000137703
 20
24.2497365929
 40
0.2502634078
100
AcDbArc
 50
84.1578382274
 51
89.9958787969
  0
ARC
  5
5EC
100
AcDbEntity
  8
ASSI
100
AcDbCircle
 62
7
  6
CONTINUOUS
 10
-7.5002349747
 20
24.2500688726
 40
0.2502036139
100
AcDbArc
 50
11.9743413379
 51
17.9692406447
  0
ARC
  5
5ED
100
AcDbEntity
  8
0
100
AcDbCircle
 62
7
  6
CONTINUOUS
 10
-7.5001753876
 20
24.2499072456
 40
0.2502002013
100
AcDbArc
 50
27.2736280718
 51
29.9986755816
  0
ARC
  5
5EE
100
AcDbEntity
  8
0
100
AcDbCircle
 62
7
  6
CONTINUOUS
 10
-7.5000927544
 20
24.2498246124
 40
0.2502002013
100
AcDbArc
 50
60.0013244184
 51
62.7263719282
  0
ARC
  5
5EF
100
AcDbEntity
  8
ASSI
100
AcDbCircle
 62
7
  6
CONTINUOUS
 10
-7.5001304175
 20
24.2498695825
 40
0.2501753007
100
AcDbArc
 50
24.0158680559
 51
65.9841319441
  0
ARC
  5
5F0
100
AcDbEntity
  8
ASSI
100
AcDbCircle
 62
7
  6
CONTINUOUS
 10
-7.5043914849
 20
24.2456085151
 40
0.2500209182
100
AcDbArc
 50
0.0054728464
 51
89.9945271536
  0
ARC
  5
5F1
100
AcDbEntity
  8
0
100
AcDbCircle
 62
7
  6
CONTINUOUS
 10
-7.5043775389
 20
24.2456224611
 40
0.2500053271
100
AcDbArc
 50
0.0060704802
 51
89.9939295197
  0
ARC
  5
5F2
100
AcDbEntity
  8
0
100
AcDbCircle
 62
7
  6
CONTINUOUS
 10
-7.499822046
 20
24.250035419
 40
0.2498194496
100
AcDbArc
 50
0.0041212031
 51
10.9096129119
  0
ARC
  5
5F3
100
AcDbEntity
  8
ASSI
100
AcDbCircle
 62
7
  6
CONTINUOUS
 10
-7.4991929986
 20
24.2503272993
 40
0.2491327482
100
AcDbArc
 50
17.9866352647
 51
24.007456794
  0
ARC
  5
5F4
100
AcDbEntity
  8
ASSI
100
AcDbCircle
 62
7
  6
CONTINUOUS
 10
-7.4996727007
 20
24.2508070014
 40
0.2491327482
100
AcDbArc
 50
65.992543206
 51
72.0133647353
  0
ARC
  5
5F5
100
AcDbEntity
  8
ASSI
100
AcDbCircle
 62
7
  6
CONTINUOUS
 10
-7.4990944438
 20
24.2499484332
 40
0.24909445
100
AcDbArc
 50
0.0128343449
 51
6.0345615722
  0
ARC
  5
5F6
100
AcDbEntity
  8
0
100
AcDbCircle
 62
7
  6
CONTINUOUS
 10
0.5198661456
 20
7.1965939974
 40
1.1495875766
100
AcDbArc
 50
86.3221149727
 51
86.8646567815
  0
ARC
  5
5F7
100
AcDbEntity
  8
0
100
AcDbCircle
 62
7
  6
CONTINUOUS
 10
-3.8500004701
 20
7.4222018277
 40
0.7500000052
100
AcDbArc
 50
93.0000005105
 51
179.9999947776
  0
ARC
  5
5F8
100
AcDbEntity
  8
0
100
AcDbCircle
 62
253
  6
CONTINUOUS
 10
-3.9328660794
 20
7.3075635063
 40
0.6671344017
100
AcDbArc
 50
174.8621635686
 51
179.9922598191
  0
ARC
  5
5F9
100
AcDbEntity
  8
0
100
AcDbCircle
 62
7
  6
CONTINUOUS
 10
-0.6467999282
 20
3.5167896352
 40
0.2468001168
100
AcDbArc
 50
341.8272500286
 51
359.929177976
  0
ARC
  5
5FA
100
AcDbEntity
  8
0
100
AcDbCircle
 62
7
  6
CONTINUOUS
 10
-4.4174873232
 20
24.6501470326
 40
1.1552683108
100
AcDbArc
 50
319.6088804343
 51
320.0806523479
  0
ARC
  5
5FB
100
AcDbEntity
  8
ASSI
100
AcDbCircle
 62
7
  6
CONTINUOUS
 10
-4.0
 20
23.15
 40
0.5
100
AcDbArc
 50
144.3637748935
 51
215.6362251065
  0
ARC
  5
5FC
100
AcDbEntity
  8
0
100
AcDbCircle
 62
7
  6
CONTINUOUS
 10
-4.0
 20
23.15
 40
0.5
100
AcDbArc
 50
144.3637748935
 51
215.6362251065
  0
ARC
  5
5FD
100
AcDbEntity
  8
ASSI
100
AcDbCircle
 62
7
  6
CONTINUOUS
 10
1.2000044316
 20
23.7999952716
 40
0.2000055598
100
AcDbArc
 50
90.0019967195
 51
179.996706236
  0
ARC
  5
5FE
100
AcDbEntity
  8
0
100
AcDbCircle
 62
7
  6
CONTINUOUS
 10
-1.1999932435
 20
23.8000067566
 40
0.1999932435
100
AcDbArc
 50
0.0000036163
 51
90.0012084401
  0
ARC
  5
5FF
100
AcDbEntity
  8
0
100
AcDbCircle
 62
7
  6
CONTINUOUS
 10
1.1999918583
 20
23.8000077377
 40
0.1999915702
100
AcDbArc
 50
90.0035036563
 51
179.9964922158
  0
ARC
  5
600
100
AcDbEntity
  8
ASSI
100
AcDbCircle
 62
7
  6
CONTINUOUS
 10
-1.1999957108
 20
23.8000039098
 40
0.1999877003
100
AcDbArc
 50
5.7704079981
 51
84.2341931085
  0
ARC
  5
601
100
AcDbEntity
  8
ASSI
100
AcDbCircle
 62
7
  6
CONTINUOUS
 10
-1.2000389786
 20
23.8007964614
 40
0.1992035429
100
AcDbArc
 50
84.1989100537
 51
89.988058699
  0
ARC
  5
602
100
AcDbEntity
  8
ASSI
100
AcDbCircle
 62
7
  6
CONTINUOUS
 10
-1.1991898328
 20
23.7999651664
 40
0.1991898371
100
AcDbArc
 50
0.0119667988
 51
5.8048021765
  0
ARC
  5
603
100
AcDbEntity
  8
0
100
AcDbCircle
 62
7
  6
CONTINUOUS
 10
4.4156131348
 20
-24.6485656625
 40
1.1528161118
100
AcDbArc
 50
139.6122889372
 51
140.0852292861
  0
ARC
  5
604
100
AcDbEntity
  8
ASSI
100
AcDbCircle
 62
7
  6
CONTINUOUS
 10
4.0
 20
-23.15
 40
0.5
100
AcDbArc
 50
324.3637748935
 51
35.6362251065
  0
ARC
  5
605
100
AcDbEntity
  8
0
100
AcDbCircle
 62
7
  6
CONTINUOUS
 10
4.0
 20
-23.15
 40
0.5
100
AcDbArc
 50
324.3637748935
 51
35.6362251065
  0
ARC
  5
606
100
AcDbEntity
  8
0
100
AcDbCircle
 62
7
  6
CONTINUOUS
 10
3.8500004762
 20
-16.522202938
 40
0.75
100
AcDbArc
 50
273.0000000699
 51
359.9999999939
  0
ARC
  5
607
100
AcDbEntity
  8
0
100
AcDbCircle
 62
253
  6
CONTINUOUS
 10
3.850614182
 20
-16.0124423622
 40
0.749418389
100
AcDbArc
 50
272.955216679
 51
359.9607736895
  0
ARC
  5
608
100
AcDbEntity
  8
ASSI
100
AcDbCircle
 62
7
  6
CONTINUOUS
 10
6.85
 20
-19.5
 40
0.6
100
AcDbArc
 50
318.5903778907
 51
180.0
  0
ARC
  5
609
100
AcDbEntity
  8
ASSI
100
AcDbCircle
 62
7
  6
CONTINUOUS
 10
7.5020407504
 20
-24.2496617058
 40
0.2520545746
100
AcDbArc
 50
186.0289692273
 51
191.9797187696
  0
ARC
  5
60A
100
AcDbEntity
  8
ASSI
100
AcDbCircle
 62
7
  6
CONTINUOUS
 10
7.5002817661
 20
-24.2481926537
 40
0.2518075087
100
AcDbArc
 50
252.0652430401
 51
269.9349248207
  0
ARC
  5
60B
100
AcDbEntity
  8
0
100
AcDbCircle
 62
7
  6
CONTINUOUS
 10
7.5011980677
 20
-24.2495887576
 40
0.2512552009
100
AcDbArc
 50
190.9502408304
 51
207.2313150459
  0
ARC
  5
60C
100
AcDbEntity
  8
0
100
AcDbCircle
 62
7
  6
CONTINUOUS
 10
7.5000137703
 20
-24.2497365929
 40
0.2502634078
100
AcDbArc
 50
264.1578382274
 51
269.9958787969
  0
ARC
  5
60D
100
AcDbEntity
  8
ASSI
100
AcDbCircle
 62
7
  6
CONTINUOUS
 10
7.5002349747
 20
-24.2500688726
 40
0.2502036139
100
AcDbArc
 50
191.9743413379
 51
197.9692406447
  0
ARC
  5
60E
100
AcDbEntity
  8
0
100
AcDbCircle
 62
7
  6
CONTINUOUS
 10
7.5001753876
 20
-24.2499072456
 40
0.2502002013
100
AcDbArc
 50
207.2736280718
 51
209.9986755816
  0
ARC
  5
60F
100
AcDbEntity
  8
0
100
AcDbCircle
 62
7
  6
CONTINUOUS
 10
7.5000927544
 20
-24.2498246124
 40
0.2502002013
100
AcDbArc
 50
240.0013244184
 51
242.7263719282
  0
ARC
  5
610
100
AcDbEntity
  8
ASSI
100
AcDbCircle
 62
7
  6
CONTINUOUS
 10
7.5001304175
 20
-24.2498695825
 40
0.2501753007
100
AcDbArc
 50
204.0158680559
 51
245.9841319441
  0
ARC
  5
611
100
AcDbEntity
  8
ASSI
100
AcDbCircle
 62
7
  6
CONTINUOUS
 10
7.5043914849
 20
-24.2456085151
 40
0.2500209182
100
AcDbArc
 50
180.0054728488
 51
269.9945271512
  0
ARC
  5
612
100
AcDbEntity
  8
0
100
AcDbCircle
 62
7
  6
CONTINUOUS
 10
7.5043775389
 20
-24.2456224611
 40
0.2500053271
100
AcDbArc
 50
180.0060704802
 51
269.9939295198
  0
ARC
  5
613
100
AcDbEntity
  8
0
100
AcDbCircle
 62
7
  6
CONTINUOUS
 10
7.499822046
 20
-24.250035419
 40
0.2498194496
100
AcDbArc
 50
180.0041212031
 51
190.9096129119
  0
ARC
  5
614
100
AcDbEntity
  8
ASSI
100
AcDbCircle
 62
7
  6
CONTINUOUS
 10
7.4991929986
 20
-24.2503272993
 40
0.2491327482
100
AcDbArc
 50
197.9866352647
 51
204.007456794
  0
ARC
  5
615
100
AcDbEntity
  8
ASSI
100
AcDbCircle
 62
7
  6
CONTINUOUS
 10
7.4996727007
 20
-24.2508070014
 40
0.2491327482
100
AcDbArc
 50
245.992543206
 51
252.0133647353
  0
ARC
  5
616
100
AcDbEntity
  8
ASSI
100
AcDbCircle
 62
7
  6
CONTINUOUS
 10
7.4990944438
 20
-24.2499484332
 40
0.24909445
100
AcDbArc
 50
180.0128343449
 51
186.0345615722
  0
ARC
  5
617
100
AcDbEntity
  8
ASSI
100
AcDbCircle
 62
7
  6
CONTINUOUS
 10
9.8996617058
 20
-24.2479592496
 40
0.2520545745
100
AcDbArc
 50
276.0289692273
 51
281.9797187696
  0
ARC
  5
618
100
AcDbEntity
  8
ASSI
100
AcDbCircle
 62
7
  6
CONTINUOUS
 10
9.8981926537
 20
-24.2497182339
 40
0.2518075087
100
AcDbArc
 50
342.0652430401
 51
359.9349248207
  0
ARC
  5
619
100
AcDbEntity
  8
0
100
AcDbCircle
 62
7
  6
CONTINUOUS
 10
9.8995887576
 20
-24.2488019323
 40
0.2512552009
100
AcDbArc
 50
280.9502408304
 51
297.2313150459
  0
ARC
  5
61A
100
AcDbEntity
  8
0
100
AcDbCircle
 62
7
  6
CONTINUOUS
 10
9.8997365929
 20
-24.2499862297
 40
0.2502634078
100
AcDbArc
 50
354.1578382274
 51
359.9958787969
  0
ARC
  5
61B
100
AcDbEntity
  8
ASSI
100
AcDbCircle
 62
7
  6
CONTINUOUS
 10
9.9000688726
 20
-24.2497650253
 40
0.2502036139
100
AcDbArc
 50
281.9743413379
 51
287.9692406447
  0
ARC
  5
61C
100
AcDbEntity
  8
0
100
AcDbCircle
 62
7
  6
CONTINUOUS
 10
9.8999072456
 20
-24.2498246124
 40
0.2502002013
100
AcDbArc
 50
297.2736280718
 51
299.9986755816
  0
ARC
  5
61D
100
AcDbEntity
  8
0
100
AcDbCircle
 62
7
  6
CONTINUOUS
 10
9.8998246124
 20
-24.2499072456
 40
0.2502002013
100
AcDbArc
 50
330.0013244184
 51
332.7263719282
  0
ARC
  5
61E
100
AcDbEntity
  8
ASSI
100
AcDbCircle
 62
7
  6
CONTINUOUS
 10
9.8998695825
 20
-24.2498695825
 40
0.2501753007
100
AcDbArc
 50
294.0158680559
 51
335.9841319441
  0
ARC
  5
61F
100
AcDbEntity
  8
ASSI
100
AcDbCircle
 62
7
  6
CONTINUOUS
 10
9.8956085052
 20
-24.2456085052
 40
0.2500209265
100
AcDbArc
 50
270.0054751127
 51
359.9945248876
  0
ARC
  5
620
100
AcDbEntity
  8
0
100
AcDbCircle
 62
7
  6
CONTINUOUS
 10
9.895622453
 20
-24.2456224574
 40
0.2500053353
100
AcDbArc
 50
270.00605383
 51
359.9939278002
  0
ARC
  5
621
100
AcDbEntity
  8
0
100
AcDbCircle
 62
7
  6
CONTINUOUS
 10
9.900035419
 20
-24.250177954
 40
0.2498194496
100
AcDbArc
 50
270.0041212031
 51
280.9096129119
  0
ARC
  5
622
100
AcDbEntity
  8
ASSI
100
AcDbCircle
 62
7
  6
CONTINUOUS
 10
9.9003272993
 20
-24.2508070014
 40
0.2491327482
100
AcDbArc
 50
287.9866352647
 51
294.007456794
  0
ARC
  5
623
100
AcDbEntity
  8
ASSI
100
AcDbCircle
 62
7
  6
CONTINUOUS
 10
9.9008070014
 20
-24.2503272993
 40
0.2491327482
100
AcDbArc
 50
335.992543206
 51
342.0133647353
  0
ARC
  5
624
100
AcDbEntity
  8
ASSI
100
AcDbCircle
 62
7
  6
CONTINUOUS
 10
9.8999484332
 20
-24.2509055562
 40
0.24909445
100
AcDbArc
 50
270.0128343449
 51
276.0345615722
  0
ARC
  5
625
100
AcDbEntity
  8
ASSI
100
AcDbCircle
 62
7
  6
CONTINUOUS
 10
10.6490568682
 20
-21.8997175103
 40
0.5009431347
100
AcDbArc
 50
355.1180547833
 51
359.9938651463
  0
ARC
  5
626
100
AcDbEntity
  8
0
100
AcDbCircle
 62
7
  6
CONTINUOUS
 10
10.6500382294
 20
-21.9000437425
 40
0.4999579139
100
AcDbArc
 50
270.0392361784
 51
0.0312394206
  0
ARC
  5
627
100
AcDbEntity
  8
ASSI
100
AcDbCircle
 62
7
  6
CONTINUOUS
 10
10.6500567092
 20
-21.900085754
 40
0.4999164458
100
AcDbArc
 50
274.9164930141
 51
355.1503542423
  0
ARC
  5
628
100
AcDbEntity
  8
ASSI
100
AcDbCircle
 62
7
  6
CONTINUOUS
 10
10.6503071304
 20
-21.9047770597
 40
0.4952229458
100
AcDbArc
 50
270.0085001737
 51
274.9341440372
  0
ARC
  5
629
100
AcDbEntity
  8
0
100
AcDbCircle
 62
7
  6
CONTINUOUS
 10
7.5
 20
-17.849847672
 40
1.0
100
AcDbArc
 50
271.0
 51
360.0
  0
ARC
  5
62A
100
AcDbEntity
  8
0
100
AcDbCircle
 62
7
  6
CONTINUOUS
 10
7.5
 20
-17.8325
 40
1.0
100
AcDbArc
 50
0.0
 51
90.0
  0
ARC
  5
62B
100
AcDbEntity
  8
RACCORDO
100
AcDbCircle
 62
7
  6
CONTINUOUS
 10
8.9493782319
 20
-16.0037594478
 40
0.5037828411
100
AcDbArc
 50
80.3095688711
 51
84.2475053923
  0
ARC
  5
62C
100
AcDbEntity
  8
0
100
AcDbCircle
 62
7
  6
CONTINUOUS
 10
5.7000007125
 20
2.2746249404
 40
3.5000004375
100
AcDbArc
 50
270.0
 51
30.1398926043
  0
ARC
  5
62D
100
AcDbEntity
  8
0
100
AcDbCircle
 62
253
  6
CONTINUOUS
 10
5.6696328473
 20
2.358305354
 40
3.0214549931
100
AcDbArc
 50
355.7749717652
 51
0.2584756568
  0
ARC
  5
62E
100
AcDbEntity
  8
0
100
AcDbCircle
 62
7
  6
CONTINUOUS
 10
5.7009926609
 20
2.2752196781
 40
3.0017012394
100
AcDbArc
 50
265.2909733344
 51
269.9810523184
  0
ARC
  5
62F
100
AcDbEntity
  8
0
100
AcDbCircle
 62
7
  6
CONTINUOUS
 10
5.6845709273
 20
2.2652191946
 40
3.0012282432
100
AcDbArc
 50
339.3332488615
 51
350.7755866662
  0
ARC
  5
630
100
AcDbEntity
  8
0
100
AcDbCircle
 62
7
  6
CONTINUOUS
 10
5.6879089116
 20
2.2637882939
 40
2.997704178
100
AcDbArc
 50
350.7923549138
 51
357.5511367591
  0
ARC
  5
631
100
AcDbEntity
  8
0
100
AcDbCircle
 62
7
  6
CONTINUOUS
 10
5.6988986476
 20
2.2590424781
 40
2.9855784554
100
AcDbArc
 50
270.0211362718
 51
339.3471144954
  0
ARC
  5
632
100
AcDbEntity
  8
0
100
AcDbCircle
 62
7
  6
CONTINUOUS
 10
5.6968790187
 20
2.2479786955
 40
2.9742150818
100
AcDbArc
 50
257.21027267
 51
265.3268700675
  0
CIRCLE
  5
633
100
AcDbEntity
  8
0
100
AcDbCircle
 62
7
  6
CONTINUOUS
 10
5.700327576
 20
2.3039555362
 40
2.929159491
  0
ARC
  5
634
100
AcDbEntity
  8
0
100
AcDbCircle
 62
7
  6
CONTINUOUS
 10
5.7046096097
 20
2.2946348449
 40
2.6575692944
100
AcDbArc
 50
123.897760171
 51
133.9889440994
  0
ARC
  5
635
100
AcDbEntity
  8
0
100
AcDbCircle
 62
7
  6
CONTINUOUS
 10
5.7032284842
 20
2.2794658699
 40
2.6553090382
100
AcDbArc
 50
123.6899683078
 51
133.9946026897
  0
ARC
  5
636
100
AcDbEntity
  8
0
100
AcDbCircle
 62
7
  6
CONTINUOUS
 10
5.6967124894
 20
2.2883817706
 40
2.6553022105
100
AcDbArc
 50
303.6915972947
 51
313.9962316726
  0
ARC
  5
637
100
AcDbEntity
  8
0
100
AcDbCircle
 62
7
  6
CONTINUOUS
 10
5.7038127408
 20
2.2802562868
 40
2.6551464042
100
AcDbArc
 50
134.0155200731
 51
144.320574661
  0
ARC
  5
638
100
AcDbEntity
  8
0
100
AcDbCircle
 62
7
  6
CONTINUOUS
 10
5.6962368225
 20
2.2876962605
 40
2.6551395941
100
AcDbArc
 50
314.0138910233
 51
324.3189456069
  0
ARC
  5
639
100
AcDbEntity
  8
0
100
AcDbCircle
 62
253
  6
CONTINUOUS
 10
5.700014586
 20
2.2836432918
 40
2.65002091
100
AcDbArc
 50
0.0014678062
 51
123.6822515294
  0
ARC
  5
63A
100
AcDbEntity
  8
0
100
AcDbCircle
 62
7
  6
CONTINUOUS
 10
5.6999896137
 20
2.2841625779
 40
2.6500172466
100
AcDbArc
 50
180.0046480836
 51
303.6811621242
  0
ARC
  5
63B
100
AcDbEntity
  8
0
100
AcDbCircle
 62
7
  6
CONTINUOUS
 10
5.7000257021
 20
2.3006312333
 40
2.6500085007
100
AcDbArc
 50
0.0063496782
 51
123.8878029946
  0
ARC
  5
63C
100
AcDbEntity
  8
0
100
AcDbCircle
 62
7
  6
CONTINUOUS
 10
5.6995133915
 20
2.3009135584
 40
2.6495096192
100
AcDbArc
 50
134.0039538938
 51
179.9997545217
  0
ARC
  5
63D
100
AcDbEntity
  8
0
100
AcDbCircle
 62
253
  6
CONTINUOUS
 10
5.6994584319
 20
2.2839491247
 40
2.6494556234
100
AcDbArc
 50
144.3305227696
 51
180.0046480836
  0
ARC
  5
63E
100
AcDbEntity
  8
0
100
AcDbCircle
 62
7
  6
CONTINUOUS
 10
5.7005961772
 20
2.2838797267
 40
2.6494038237
100
AcDbArc
 50
324.3292397065
 51
0.0014678062
  0
ARC
  5
63F
100
AcDbEntity
  8
0
100
AcDbCircle
 62
253
  6
CONTINUOUS
 10
5.6999313725
 20
2.2718973622
 40
1.849890948
100
AcDbArc
 50
148.8899495071
 51
299.1342005235
  0
ARC
  5
640
100
AcDbEntity
  8
0
100
AcDbCircle
 62
253
  6
CONTINUOUS
 10
5.7000698113
 20
2.2717455612
 40
1.8498899719
100
AcDbArc
 50
328.8899033428
 51
119.1342480268
  0
ARC
  5
641
100
AcDbEntity
  8
0
100
AcDbCircle
 62
7
  6
CONTINUOUS
 10
3.850000476
 20
7.423272921
 40
0.75
100
AcDbArc
 50
0.0
 51
88.0
  0
ARC
  5
642
100
AcDbEntity
  8
ASSI
100
AcDbCircle
 62
7
  6
CONTINUOUS
 10
6.85
 20
19.5
 40
0.6
100
AcDbArc
 50
180.0
 51
41.4096221093
  0
ARC
  5
643
100
AcDbEntity
  8
ASSI
100
AcDbCircle
 62
7
  6
CONTINUOUS
 10
4.0
 20
23.15
 40
0.5
100
AcDbArc
 50
324.3637748935
 51
35.6362251065
  0
ARC
  5
644
100
AcDbEntity
  8
0
100
AcDbCircle
 62
7
  6
CONTINUOUS
 10
4.0
 20
23.15
 40
0.5
100
AcDbArc
 50
324.3637748935
 51
35.6362251065
  0
ARC
  5
645
100
AcDbEntity
  8
0
100
AcDbCircle
 62
7
  6
CONTINUOUS
 10
7.5
 20
17.8325
 40
1.0
100
AcDbArc
 50
270.0
 51
360.0
  0
ARC
  5
646
100
AcDbEntity
  8
0
100
AcDbCircle
 62
7
  6
CONTINUOUS
 10
7.5
 20
17.849847672
 40
1.0
100
AcDbArc
 50
0.0
 51
89.0
  0
ARC
  5
647
100
AcDbEntity
  8
ASSI
100
AcDbCircle
 62
7
  6
CONTINUOUS
 10
7.5003382942
 20
24.2479592496
 40
0.2520545746
100
AcDbArc
 50
96.0289692273
 51
101.9797187695
  0
ARC
  5
648
100
AcDbEntity
  8
ASSI
100
AcDbCircle
 62
7
  6
CONTINUOUS
 10
7.5018073463
 20
24.2497182339
 40
0.2518075087
100
AcDbArc
 50
162.0652430401
 51
179.9349248207
  0
ARC
  5
649
100
AcDbEntity
  8
0
100
AcDbCircle
 62
7
  6
CONTINUOUS
 10
7.5004112424
 20
24.2488019323
 40
0.2512552009
100
AcDbArc
 50
100.9502408304
 51
117.2313150459
  0
ARC
  5
64A
100
AcDbEntity
  8
0
100
AcDbCircle
 62
7
  6
CONTINUOUS
 10
7.5002634071
 20
24.2499862297
 40
0.2502634078
100
AcDbArc
 50
174.1578382274
 51
179.9958787969
  0
ARC
  5
64B
100
AcDbEntity
  8
ASSI
100
AcDbCircle
 62
7
  6
CONTINUOUS
 10
7.4999311274
 20
24.2497650253
 40
0.2502036139
100
AcDbArc
 50
101.9743413379
 51
107.9692406447
  0
ARC
  5
64C
100
AcDbEntity
  8
0
100
AcDbCircle
 62
7
  6
CONTINUOUS
 10
7.5000927544
 20
24.2498246124
 40
0.2502002013
100
AcDbArc
 50
117.2736280718
 51
119.9986755816
  0
ARC
  5
64D
100
AcDbEntity
  8
0
100
AcDbCircle
 62
7
  6
CONTINUOUS
 10
7.5001753876
 20
24.2499072456
 40
0.2502002013
100
AcDbArc
 50
150.0013244184
 51
152.7263719282
  0
ARC
  5
64E
100
AcDbEntity
  8
ASSI
100
AcDbCircle
 62
7
  6
CONTINUOUS
 10
7.5001304175
 20
24.2498695825
 40
0.2501753007
100
AcDbArc
 50
114.0158680559
 51
155.9841319441
  0
ARC
  5
64F
100
AcDbEntity
  8
ASSI
100
AcDbCircle
 62
7
  6
CONTINUOUS
 10
7.5043914948
 20
24.2456085052
 40
0.2500209266
100
AcDbArc
 50
90.0054751165
 51
179.9945248838
  0
ARC
  5
650
100
AcDbEntity
  8
0
100
AcDbCircle
 62
7
  6
CONTINUOUS
 10
7.504377547
 20
24.2456224574
 40
0.2500053353
100
AcDbArc
 50
90.0060538299
 51
179.9939278002
  0
ARC
  5
651
100
AcDbEntity
  8
0
100
AcDbCircle
 62
7
  6
CONTINUOUS
 10
7.499964581
 20
24.250177954
 40
0.2498194497
100
AcDbArc
 50
90.0041212031
 51
100.9096129118
  0
ARC
  5
652
100
AcDbEntity
  8
ASSI
100
AcDbCircle
 62
7
  6
CONTINUOUS
 10
7.4996727007
 20
24.2508070014
 40
0.2491327482
100
AcDbArc
 50
107.9866352647
 51
114.007456794
  0
ARC
  5
653
100
AcDbEntity
  8
ASSI
100
AcDbCircle
 62
7
  6
CONTINUOUS
 10
7.4991929986
 20
24.2503272993
 40
0.2491327482
100
AcDbArc
 50
155.992543206
 51
162.0133647353
  0
ARC
  5
654
100
AcDbEntity
  8
ASSI
100
AcDbCircle
 62
7
  6
CONTINUOUS
 10
7.5000515668
 20
24.2509055562
 40
0.24909445
100
AcDbArc
 50
90.0128343449
 51
96.0345615721
  0
ARC
  5
655
100
AcDbEntity
  8
0
100
AcDbCircle
 62
7
  6
CONTINUOUS
 10
10.646497078
 20
21.899782582
 40
0.5035029222
100
AcDbArc
 50
359.9986988641
 51
4.8497608437
  0
ARC
  5
656
100
AcDbEntity
  8
ASSI
100
AcDbCircle
 62
7
  6
CONTINUOUS
 10
10.6500344884
 20
21.9000378698
 40
0.4999633044
100
AcDbArc
 50
359.9694338256
 51
89.9603355679
  0
ARC
  5
657
100
AcDbEntity
  8
0
100
AcDbCircle
 62
7
  6
CONTINUOUS
 10
10.6500413808
 20
21.900058378
 40
0.4999460198
100
AcDbArc
 50
4.8526074018
 51
85.0821730978
  0
ARC
  5
658
100
AcDbEntity
  8
0
100
AcDbCircle
 62
7
  6
CONTINUOUS
 10
10.6502985816
 20
21.904914956
 40
0.4950850508
100
AcDbArc
 50
85.0636465424
 51
89.9905081124
  0
ARC
  5
659
100
AcDbEntity
  8
ASSI
100
AcDbCircle
 62
7
  6
CONTINUOUS
 10
9.8979592496
 20
24.2496617058
 40
0.2520545745
100
AcDbArc
 50
6.0289692273
 51
11.9797187696
  0
ARC
  5
65A
100
AcDbEntity
  8
ASSI
100
AcDbCircle
 62
7
  6
CONTINUOUS
 10
9.8997182339
 20
24.2481926537
 40
0.2518075087
100
AcDbArc
 50
72.0652430401
 51
89.9349248207
  0
ARC
  5
65B
100
AcDbEntity
  8
0
100
AcDbCircle
 62
7
  6
CONTINUOUS
 10
9.8988019323
 20
24.2495887576
 40
0.2512552009
100
AcDbArc
 50
10.9502408304
 51
27.2313150459
  0
ARC
  5
65C
100
AcDbEntity
  8
0
100
AcDbCircle
 62
7
  6
CONTINUOUS
 10
9.8999862297
 20
24.2497365929
 40
0.2502634078
100
AcDbArc
 50
84.1578382274
 51
89.9958787969
  0
ARC
  5
65D
100
AcDbEntity
  8
ASSI
100
AcDbCircle
 62
7
  6
CONTINUOUS
 10
9.8997650253
 20
24.2500688726
 40
0.2502036139
100
AcDbArc
 50
11.9743413379
 51
17.9692406447
  0
ARC
  5
65E
100
AcDbEntity
  8
0
100
AcDbCircle
 62
7
  6
CONTINUOUS
 10
9.8998246124
 20
24.2499072456
 40
0.2502002013
100
AcDbArc
 50
27.2736280719
 51
29.9986755815
  0
ARC
  5
65F
100
AcDbEntity
  8
0
100
AcDbCircle
 62
7
  6
CONTINUOUS
 10
9.8999072456
 20
24.2498246124
 40
0.2502002013
100
AcDbArc
 50
60.0013244184
 51
62.7263719281
  0
ARC
  5
660
100
AcDbEntity
  8
ASSI
100
AcDbCircle
 62
7
  6
CONTINUOUS
 10
9.8998695825
 20
24.2498695825
 40
0.2501753007
100
AcDbArc
 50
24.0158680559
 51
65.9841319441
  0
ARC
  5
661
100
AcDbEntity
  8
ASSI
100
AcDbCircle
 62
7
  6
CONTINUOUS
 10
9.8956085052
 20
24.2456085052
 40
0.2500209265
100
AcDbArc
 50
0.0054751138
 51
89.9945248859
  0
ARC
  5
662
100
AcDbEntity
  8
0
100
AcDbCircle
 62
7
  6
CONTINUOUS
 10
9.895622453
 20
24.2456224574
 40
0.2500053353
100
AcDbArc
 50
0.0060721998
 51
89.9939461701
  0
ARC
  5
663
100
AcDbEntity
  8
0
100
AcDbCircle
 62
7
  6
CONTINUOUS
 10
9.900177954
 20
24.250035419
 40
0.2498194496
100
AcDbArc
 50
0.0041212031
 51
10.9096129119
  0
ARC
  5
664
100
AcDbEntity
  8
ASSI
100
AcDbCircle
 62
7
  6
CONTINUOUS
 10
9.9008070014
 20
24.2503272993
 40
0.2491327482
100
AcDbArc
 50
17.9866352647
 51
24.007456794
  0
ARC
  5
665
100
AcDbEntity
  8
ASSI
100
AcDbCircle
 62
7
  6
CONTINUOUS
 10
9.9003272993
 20
24.2508070014
 40
0.2491327482
100
AcDbArc
 50
65.992543206
 51
72.0133647353
  0
ARC
  5
666
100
AcDbEntity
  8
ASSI
100
AcDbCircle
 62
7
  6
CONTINUOUS
 10
9.9009055562
 20
24.2499484332
 40
0.24909445
100
AcDbArc
 50
0.0128343449
 51
6.0345615722
  0
ARC
  5
667
100
AcDbEntity
  8
0
100
AcDbCircle
 62
7
  6
CONTINUOUS
 10
52.0196664702
 20
-11.0431707428
 40
48.2862283785
100
AcDbArc
 50
179.9487635729
 51
180.6318265739
  0
SPLINE
  5
668
100
AcDbEntity
  8
RACCORDO
100
AcDbSpline
 62
7
  6
CONTINUOUS
 70
0
 71
3
 72
11
 73
7
 74
5
 42
0.0000001
 43
0.0000001
 44
0.0000000001
 12
0.0
 22
0.4664733964
 32
0.0
 13
-0.4664733964
 23
0.0
 33
0.0
 40
0.0
 40
0.0
 40
0.0
 40
0.0
 40
0.249135358
 40
0.498778088
 40
0.749136595
 40
1.0
 40
1.0
 40
1.0
 40
1.0
 10
9.45
 20
-15.8055387995
 30
0.0
 10
9.45
 20
-15.7668004606
 30
0.0
 10
9.43434736
 20
-15.6883874792
 30
0.0
 10
9.3674973377
 20
-15.5894116878
 30
0.0
 10
9.2677870047
 20
-15.5232301568
 30
0.0
 10
9.1890070349
 20
-15.507774954
 30
0.0
 10
9.15
 20
-15.507774954
 30
0.0
 11
9.45
 21
-15.8055387995
 31
0.0
 11
9.4271638598
 21
-15.6915895091
 31
0.0
 11
9.3621320344
 21
-15.5949879652
 31
0.0
 11
9.2648050297
 21
-15.5304408771
 31
0.0
 11
9.15
 21
-15.507774954
 31
0.0
  0
SPLINE
  5
669
100
AcDbEntity
  8
RACCORDO
100
AcDbSpline
 62
7
  6
CONTINUOUS
 70
0
 71
3
 72
11
 73
7
 74
5
 42
0.0000001
 43
0.0000001
 44
0.0000000001
 12
-0.4664733964
 22
0.0
 32
0.0
 13
0.0
 23
-0.4664733964
 33
0.0
 40
0.0
 40
0.0
 40
0.0
 40
0.0
 40
0.250863405
 40
0.501221912
 40
0.750864642
 40
1.0
 40
1.0
 40
1.0
 40
1.0
 10
-9.15
 20
-15.507774954
 30
0.0
 10
-9.1890070349
 20
-15.507774954
 30
0.0
 10
-9.2677870047
 20
-15.5232301568
 30
0.0
 10
-9.3674973377
 20
-15.5894116878
 30
0.0
 10
-9.43434736
 20
-15.6883874792
 30
0.0
 10
-9.45
 20
-15.7668004606
 30
0.0
 10
-9.45
 20
-15.8055387995
 30
0.0
 11
-9.15
 21
-15.507774954
 31
0.0
 11
-9.2648050297
 21
-15.5304408771
 31
0.0
 11
-9.3621320344
 21
-15.5949879652
 31
0.0
 11
-9.4271638598
 21
-15.6915895091
 31
0.0
 11
-9.45
 21
-15.8055387995
 31
0.0
  0
LINE
  5
66A
100
AcDbEntity
  8
0
100
AcDbLine
 62
7
  6
CONTINUOUS
 10
0.0014626582
 20
8.3749243652
 11
0.0022846981
 21
8.3748812871
  0
SPLINE
  5
66B
100
AcDbEntity
  8
0
100
AcDbSpline
 62
7
  6
CONTINUOUS
 70
0
 71
3
 72
9
 73
5
 74
3
 42
0.0000001
 43
0.0000001
 44
0.0000000001
 12
-0.1360064057
 22
0.182981519
 32
0.0
 13
-0.2279911812
 23
0.0
 33
0.0
 40
0.0
 40
0.0
 40
0.0
 40
0.0
 40
0.4978243842
 40
1.0
 40
1.0
 40
1.0
 40
1.0
 10
2.348012318
 20
20.9001158728
 30
0.0
 10
2.3254432163
 20
20.9304800935
 30
0.0
 10
2.2653298017
 20
20.9819157947
 30
0.0
 10
2.1881641206
 20
21.0
 30
0.0
 10
2.15000025
 20
21.0
 30
0.0
 11
2.348012318
 21
20.9001158728
 31
0.0
 11
2.2613653209
 21
20.9734265142
 31
0.0
 11
2.15000025
 21
21.0
 31
0.0
  0
SPLINE
  5
66C
100
AcDbEntity
  8
0
100
AcDbSpline
 62
7
  6
CONTINUOUS
 70
0
 71
3
 72
9
 73
5
 74
3
 42
0.0000001
 43
0.0000001
 44
0.0000000001
 12
-0.0961461515
 22
-0.2921501804
 32
0.0
 13
-0.3075643191
 23
0.0
 33
0.0
 40
0.0
 40
0.0
 40
0.0
 40
0.0
 40
0.4984864207
 40
1.0
 40
1.0
 40
1.0
 40
1.0
 10
-0.41231008
 20
3.4398168561
 30
0.0
 10
-0.4282859303
 20
3.3912725569
 30
0.0
 10
-0.4933752561
 20
3.30204881
 30
0.0
 10
-0.5985841058
 20
3.2691197763
 30
0.0
 10
-0.65
 20
3.2691197763
 30
0.0
 11
-0.41231008
 21
3.4398168561
 31
0.0
 11
-0.5031474692
 21
3.3163075052
 31
0.0
 11
-0.65
 21
3.2691197763
 31
0.0
  0
SPLINE
  5
66D
100
AcDbEntity
  8
0
100
AcDbSpline
 62
7
  6
CONTINUOUS
 70
0
 71
3
 72
15
 73
11
 74
9
 42
0.0000001
 43
0.0000001
 44
0.0000000001
 12
0.0000200214
 22
-3.1217135689
 32
0.0
 13
3.121713569
 23
0.0
 33
0.0
 40
0.0
 40
0.0
 40
0.0
 40
0.0
 40
0.1242971988
 40
0.2487462132
 40
0.3734131668
 40
0.4983267713
 40
0.6234899125
 40
0.7488564591
 40
0.8744042581
 40
1.0
 40
1.0
 40
1.0
 40
1.0
 10
-1.9999999968
 20
3.467014567
 30
0.0
 10
-1.9999991672
 20
3.337674483
 30
0.0
 10
-1.9741714523
 20
3.0781076366
 30
0.0
 10
-1.8595530801
 20
2.7042977695
 30
0.0
 10
-1.6734871443
 20
2.3595416677
 30
0.0
 10
-1.423154852
 20
2.0572867229
 30
0.0
 10
-1.118160243
 20
1.8091668945
 30
0.0
 10
-0.7701782681
 20
1.6246826096
 30
0.0
 10
-0.3927342022
 20
1.5111054598
 30
0.0
 10
-0.1306913105
 20
1.4855142772
 30
0.0
 10
0.0
 20
1.4855142772
 30
0.0
 11
-1.9999999968
 21
3.467014567
 31
0.0
 11
-1.9615715283
 21
3.0809019294
 31
0.0
 11
-1.8477756261
 21
2.7094477357
 31
0.0
 11
-1.662989614
 21
2.366940893
 31
0.0
 11
-1.4143149443
 21
2.0665784166
 31
0.0
 11
-1.1112635928
 21
1.8199517493
 31
0.0
 11
-0.7655111204
 21
1.6366032725
 31
0.0
 11
-0.3902141549
 21
1.5236571813
 31
0.0
 11
0.0
 21
1.4855142772
 31
0.0
  0
SPLINE
  5
66E
100
AcDbEntity
  8
0
100
AcDbSpline
 62
7
  6
CONTINUOUS
 70
0
 71
3
 72
11
 73
7
 74
5
 42
0.0000001
 43
0.0000001
 44
0.0000000001
 12
-0.3881166673
 22
0.0
 32
0.0
 13
0.0
 23
0.3881166673
 33
0.0
 40
0.0
 40
0.0
 40
0.0
 40
0.0
 40
0.251290297
 40
0.5017819487
 40
0.7512355387
 40
1.0
 40
1.0
 40
1.0
 40
1.0
 10
0.65
 20
3.2691197763
 30
0.0
 10
0.6174900158
 20
3.2691197763
 30
0.0
 10
0.5518699576
 20
3.2819551246
 30
0.0
 10
0.4688068946
 20
3.3369322665
 30
0.0
 10
0.4130456897
 20
3.4191243349
 30
0.0
 10
0.4
 20
3.48430136
 30
0.0
 10
0.4
 20
3.5164845712
 30
0.0
 11
0.65
 21
3.2691197763
 31
0.0
 11
0.5543082729
 21
3.2879661293
 31
0.0
 11
0.4732219009
 21
3.3416012462
 31
0.0
 11
0.4190259665
 21
3.4218281168
 31
0.0
 11
0.4
 21
3.5164845712
 31
0.0
  0
SPLINE
  5
66F
100
AcDbEntity
  8
0
100
AcDbSpline
 62
7
  6
CONTINUOUS
 70
0
 71
3
 72
15
 73
11
 74
9
 42
0.0000001
 43
0.0000001
 44
0.0000000001
 12
3.1217238043
 22
0.0
 32
0.0
 13
-0.0000434795
 23
3.121723804
 33
0.0
 40
0.0
 40
0.0
 40
0.0
 40
0.0
 40
0.1255964774
 40
0.2511413464
 40
0.3765070491
 40
0.5016699397
 40
0.6265837253
 40
0.7512516986
 40
0.8757021997
 40
1.0
 40
1.0
 40
1.0
 40
1.0
 10
0.0
 20
1.4855142772
 30
0.0
 10
0.1306925044
 20
1.4855142772
 30
0.0
 10
0.3927339571
 20
1.5111055403
 30
0.0
 10
0.7701763463
 20
1.624681394
 30
0.0
 10
1.1181560264
 20
1.8091637578
 30
0.0
 10
1.4231517336
 20
2.0572828433
 30
0.0
 10
1.6734852713
 20
2.3595396908
 30
0.0
 10
1.8595536409
 20
2.7042993519
 30
0.0
 10
1.9741710599
 20
3.078113913
 30
0.0
 10
2.0000017739
 20
3.3376838349
 30
0.0
 10
1.9999999725
 20
3.4670249689
 30
0.0
 11
0.0
 21
1.4855142772
 31
0.0
 11
0.3902176979
 21
1.5236577526
 31
0.0
 11
0.7655072714
 21
1.6366011242
 31
0.0
 11
1.1112589614
 21
1.8199481922
 31
0.0
 11
1.4143113052
 21
2.0665744309
 31
0.0
 11
1.6629872829
 21
2.366938218
 31
0.0
 11
1.8477753787
 21
2.7094490034
 31
0.0
 11
1.9615722252
 21
3.0809090941
 31
0.0
 11
1.9999999725
 21
3.4670249689
 31
0.0
  0
SPLINE
  5
670
100
AcDbEntity
  8
0
100
AcDbSpline
 62
7
  6
CONTINUOUS
 70
0
 71
3
 72
19
 73
15
 74
13
 42
0.0000001
 43
0.0000001
 44
0.0000000001
 12
5.691916118
 22
-0.1633853167
 32
0.0
 13
5.6919364436
 23
0.1626756837
 33
0.0
 40
0.0
 40
0.0
 40
0.0
 40
0.0
 40
0.0403136802
 40
0.0894433218
 40
0.1461842754
 40
0.2091888144
 40
0.3490513339
 40
0.4999853355
 40
0.6509139629
 40
0.790750631
 40
0.8537314328
 40
0.9104668862
 40
0.9596191323
 40
1.0
 40
1.0
 40
1.0
 40
1.0
 10
-2.7795745778
 20
8.4330334866
 30
0.0
 10
-2.7030872158
 20
8.4308379322
 30
0.0
 10
-2.5342831143
 20
8.4052691419
 30
0.0
 10
-2.2655260758
 20
8.3363992702
 30
0.0
 10
-1.9586856323
 20
8.2433766712
 30
0.0
 10
-1.4880020123
 20
8.0977749502
 30
0.0
 10
-0.839056388
 20
7.922283005
 30
0.0
 10
-0.0000881965
 20
7.8246562443
 30
0.0
 10
0.8388571626
 20
7.9221746767
 30
0.0
 10
1.4876663253
 20
8.0977997394
 30
0.0
 10
1.9581975954
 20
8.243538085
 30
0.0
 10
2.2650336605
 20
8.3365328434
 30
0.0
 10
2.5339760018
 20
8.4053388964
 30
0.0
 10
2.702959467
 20
8.4308438249
 30
0.0
 10
2.7795745778
 20
8.4330334866
 30
0.0
 11
-2.7795745778
 21
8.4330334866
 31
0.0
 11
-2.5518078328
 21
8.4044232979
 31
0.0
 11
-2.2800098405
 21
8.3381675735
 31
0.0
 11
-1.9701715186
 21
8.2465575982
 31
0.0
 11
-1.6269358063
 21
8.1421495362
 31
0.0
 11
-0.8549853858
 21
7.9462739996
 31
0.0
 11
-0.0000735012
 21
7.8579964124
 31
0.0
 11
0.8548129739
 21
7.9462221189
 31
0.0
 11
1.626578977
 21
8.1422258543
 31
0.0
 11
1.9696572919
 21
8.2466868532
 31
0.0
 11
2.2794713954
 21
8.3382682783
 31
0.0
 11
2.5514178526
 21
8.4044583735
 31
0.0
 11
2.7795745778
 21
8.4330334866
 31
0.0
  0
SPLINE
  5
671
100
AcDbEntity
  8
0
100
AcDbSpline
 62
7
  6
CONTINUOUS
 70
0
 71
3
 72
12
 73
8
 74
6
 42
0.0000001
 43
0.0000001
 44
0.0000000001
 12
-0.4151169725
 22
0.0110311318
 32
0.0
 13
-0.4029182464
 23
0.1005021069
 33
0.0
 40
0.0
 40
0.0
 40
0.0
 40
0.0
 40
0.3922957674
 40
0.6921168555
 40
0.8954275423
 40
0.9601263721
 40
1.0
 40
1.0
 40
1.0
 40
1.0
 10
-2.7795745778
 20
8.4330334866
 30
0.0
 10
-2.8338574549
 20
8.4344759754
 30
0.0
 10
-2.9296291056
 20
8.43727385
 30
0.0
 10
-3.0534519617
 20
8.4423156654
 30
0.0
 10
-3.1319817548
 20
8.4466547282
 30
0.0
 10
-3.1743688449
 20
8.4508104988
 30
0.0
 10
-3.1887521639
 20
8.4527895972
 30
0.0
 10
-3.1941074346
 20
8.4541253917
 30
0.0
 11
-2.7795745778
 21
8.4330334866
 31
0.0
 11
-2.9424049478
 21
8.4380008083
 31
0.0
 11
-3.0668003345
 21
8.4432183503
 31
0.0
 11
-3.1510550514
 21
8.4486171638
 31
0.0
 11
-3.1777814483
 21
8.4513628537
 31
0.0
 11
-3.1941074346
 21
8.4541253917
 31
0.0
  0
SPLINE
  5
672
100
AcDbEntity
  8
0
100
AcDbSpline
 62
7
  6
CONTINUOUS
 70
0
 71
3
 72
12
 73
8
 74
6
 42
0.0000001
 43
0.0000001
 44
0.0000000001
 12
-0.4029182464
 22
-0.1005021069
 32
0.0
 13
-0.4151169725
 23
-0.0110311318
 33
0.0
 40
0.0
 40
0.0
 40
0.0
 40
0.0
 40
0.0398736279
 40
0.1045724577
 40
0.3078831445
 40
0.6077042326
 40
1.0
 40
1.0
 40
1.0
 40
1.0
 10
3.1941074346
 20
8.4541253917
 30
0.0
 10
3.1887521639
 20
8.4527895972
 30
0.0
 10
3.1743688449
 20
8.4508104988
 30
0.0
 10
3.1319817548
 20
8.4466547282
 30
0.0
 10
3.0534519617
 20
8.4423156654
 30
0.0
 10
2.9296291056
 20
8.43727385
 30
0.0
 10
2.8338574549
 20
8.4344759754
 30
0.0
 10
2.7795745778
 20
8.4330334866
 30
0.0
 11
3.1941074346
 21
8.4541253917
 31
0.0
 11
3.1777814483
 21
8.4513628537
 31
0.0
 11
3.1510550514
 21
8.4486171638
 31
0.0
 11
3.0668003345
 21
8.4432183503
 31
0.0
 11
2.9424049478
 21
8.4380008083
 31
0.0
 11
2.7795745778
 21
8.4330334866
 31
0.0
  0
SPLINE
  5
673
100
AcDbEntity
  8
0
100
AcDbSpline
 62
7
  6
CONTINUOUS
 70
0
 71
3
 72
21
 73
17
 74
15
 42
0.0000001
 43
0.0000001
 44
0.0000000001
 12
0.5631959642
 22
-0.5829683653
 32
0.0
 13
0.4784572992
 23
0.654309118
 33
0.0
 40
0.0
 40
0.0
 40
0.0
 40
0.0
 40
0.1937223655
 40
0.3804199443
 40
0.552932899
 40
0.7048147785
 40
0.7710636883
 40
0.8299373016
 40
0.8808262666
 40
0.9231773448
 40
0.9565771028
 40
0.9806417229
 40
0.9890892612
 40
0.9951278222
 40
0.9987503031
 40
1.0
 40
1.0
 40
1.0
 40
1.0
 10
7.2838623847
 20
1.3159601009
 30
0.0
 10
7.3202302695
 20
1.2783154307
 30
0.0
 10
7.3917183028
 20
1.2044597932
 30
0.0
 10
7.49584106
 20
1.0973216665
 30
0.0
 10
7.5923126279
 20
0.9985131841
 30
0.0
 10
7.6662598237
 20
0.92319552
 30
0.0
 10
7.7188579756
 20
0.8699512279
 30
0.0
 10
7.7523657493
 20
0.8361977745
 30
0.0
 10
7.781408537
 20
0.807132775
 30
0.0
 10
7.8057166515
 20
0.783003095
 30
0.0
 10
7.824938619
 20
0.7642099673
 30
0.0
 10
7.837891601
 20
0.7517224253
 30
0.0
 10
7.8454089326
 20
0.7448696028
 30
0.0
 10
7.8493028461
 20
0.7412811339
 30
0.0
 10
7.8511885479
 20
0.7400373065
 30
0.0
 10
7.8527225328
 20
0.7386692944
 30
0.0
 10
7.8529218416
 20
0.7389418571
 30
0.0
 11
7.2838623847
 21
1.3159601009
 31
0.0
 11
7.3930769838
 21
1.2031333774
 31
0.0
 11
7.4985554133
 21
1.0946154482
 31
0.0
 11
7.5962564106
 21
0.9945726966
 31
0.0
 11
7.6825317799
 21
0.9067474708
 31
0.0
 11
7.7202756221
 21
0.8685492373
 31
0.0
 11
7.7539033514
 21
0.8346884935
 31
0.0
 11
7.7830669534
 21
0.8055163015
 31
0.0
 11
7.8074497035
 21
0.7813510212
 31
0.0
 11
7.8268129079
 21
0.7624294659
 31
0.0
 11
7.8409335695
 21
0.7489719873
 31
0.0
 11
7.845977365
 21
0.7443408726
 31
0.0
 11
7.8496630957
 21
0.7411200177
 31
0.0
 11
7.8519811313
 21
0.739317615
 31
0.0
 11
7.8529218416
 21
0.7389418571
 31
0.0
  0
SPLINE
  5
674
100
AcDbEntity
  8
0
100
AcDbSpline
 62
7
  6
CONTINUOUS
 70
0
 71
3
 72
21
 73
17
 74
15
 42
0.0000001
 43
0.0000001
 44
0.0000000001
 12
0.0
 22
-0.8279412725
 32
0.0
 13
0.5752578632
 23
-0.5954537275
 33
0.0
 40
0.0
 40
0.0
 40
0.0
 40
0.0
 40
0.0018134131
 40
0.0060117707
 40
0.0126053216
 40
0.0215802368
 40
0.0466000196
 40
0.0808166381
 40
0.1238334818
 40
0.175227045
 40
0.2344415578
 40
0.3008558648
 40
0.4525195845
 40
0.6240287661
 40
0.8089027791
 40
1.0
 40
1.0
 40
1.0
 40
1.0
 10
4.2303318655
 20
4.4888190873
 30
0.0
 10
4.2303318655
 20
4.4883186208
 30
0.0
 10
4.2315404855
 20
4.4869374329
 30
0.0
 10
4.2334376676
 20
4.4841861228
 30
0.0
 10
4.2370627991
 20
4.4800039512
 30
0.0
 10
4.244330518
 20
4.4715402805
 30
0.0
 10
4.2569642119
 20
4.4575369551
 30
0.0
 10
4.2759949528
 20
4.4367215399
 30
0.0
 10
4.3001380073
 20
4.4106886018
 30
0.0
 10
4.3290869656
 20
4.3797156461
 30
0.0
 10
4.362559159
 20
4.3441281192
 30
0.0
 10
4.4151219744
 20
4.2885084891
 30
0.0
 10
4.4892053301
 20
4.2105857251
 30
0.0
 10
4.5860924495
 20
4.1092347111
 30
0.0
 10
4.6907489957
 20
4.0002557776
 30
0.0
 10
4.7627702425
 20
3.9255614804
 30
0.0
 10
4.7994136355
 20
3.8876316295
 30
0.0
 11
4.2303318655
 21
4.4888190873
 31
0.0
 11
4.2310333675
 21
4.4874916478
 31
0.0
 11
4.2331308914
 21
4.4847198389
 31
0.0
 11
4.2366139638
 21
4.4805163066
 31
0.0
 11
4.2414721117
 21
4.4748936967
 31
0.0
 11
4.2552703372
 21
4.4594432435
 31
0.0
 11
4.2743811263
 21
4.4385308107
 31
0.0
 11
4.2985802374
 21
4.4123991979
 31
0.0
 11
4.327628602
 21
4.3813063125
 31
0.0
 11
4.3612109837
 21
4.3455881664
 31
0.0
 11
4.3989744914
 21
4.3056193824
 31
0.0
 11
4.4854704401
 21
4.2145922573
 31
0.0
 11
4.5835812869
 21
4.1119368713
 31
0.0
 11
4.689595744
 21
4.0015295541
 31
0.0
 11
4.7994136355
 21
3.8876316295
 31
0.0
  0
SPLINE
  5
675
100
AcDbEntity
  8
0
100
AcDbSpline
 62
7
  6
CONTINUOUS
 70
0
 71
3
 72
9
 73
5
 74
3
 42
0.0000001
 43
0.0000001
 44
0.0000000001
 12
-0.2279824741
 22
0.0
 32
0.0
 13
-0.1360091129
 23
-0.1829686577
 33
0.0
 40
0.0
 40
0.0
 40
0.0
 40
0.0
 40
0.5021825688
 40
1.0
 40
1.0
 40
1.0
 40
1.0
 10
-2.15000025
 20
21.0
 30
0.0
 10
-2.1881631915
 20
21.0
 30
0.0
 10
-2.2653260666
 20
20.9819171672
 30
0.0
 10
-2.3254376703
 20
20.9304846629
 30
0.0
 10
-2.348006906
 20
20.9001230005
 30
0.0
 11
-2.15000025
 21
21.0
 31
0.0
 11
-2.2613627785
 21
20.9734278684
 31
0.0
 11
-2.348006906
 21
20.9001230005
 31
0.0
  0
LINE
  5
676
100
AcDbEntity
  8
0
100
AcDbLine
 62
253
  6
CONTINUOUS
 10
-2.5260180816
 20
-12.9845309708
 11
-1.5475292807
 21
-12.9928649931
  0
SPLINE
  5
677
100
AcDbEntity
  8
0
100
AcDbSpline
 62
253
  6
CONTINUOUS
 70
0
 71
3
 72
8
 73
4
 74
2
 42
0.0000001
 43
0.0000001
 44
0.0000000001
 12
0.5778232337
 22
-0.0041963619
 32
0.0
 13
0.5778154826
 23
-0.0051543078
 33
0.0
 40
0.0
 40
0.0
 40
0.0
 40
0.0
 40
1.0
 40
1.0
 40
1.0
 40
1.0
 10
-3.1038327955
 20
-12.9793011619
 30
0.0
 10
-2.9112250509
 20
-12.9806999492
 30
0.0
 10
-2.7186178265
 20
-12.9821870179
 30
0.0
 10
-2.5260126657
 20
-12.9839051205
 30
0.0
 11
-3.1038327955
 21
-12.9793011619
 31
0.0
 11
-2.5260126657
 21
-12.9839051205
 31
0.0
  0
SPLINE
  5
678
100
AcDbEntity
  8
0
100
AcDbSpline
 62
7
  6
CONTINUOUS
 70
0
 71
3
 72
9
 73
5
 74
3
 42
0.0000001
 43
0.0000001
 44
0.0000000001
 12
0.0018772614
 22
-0.0514145278
 32
0.0
 13
-0.0006290998
 23
-0.0514449416
 33
0.0
 40
0.0
 40
0.0
 40
0.0
 40
0.0
 40
0.5000083541
 40
1.0
 40
1.0
 40
1.0
 40
1.0
 10
-3.8000036122
 20
-11.9745562647
 30
0.0
 10
-3.79969073
 20
-11.9831254958
 30
0.0
 10
-3.8002857044
 20
-12.0002833015
 30
0.0
 10
-3.7999072802
 20
-12.0174309921
 30
0.0
 10
-3.8000121284
 20
-12.0260050057
 30
0.0
 11
-3.8000036122
 21
-11.9745562647
 31
0.0
 11
-3.8000423565
 21
-12.0002810593
 31
0.0
 11
-3.8000121284
 21
-12.0260050057
 31
0.0
  0
SPLINE
  5
679
100
AcDbEntity
  8
0
100
AcDbSpline
 62
7
  6
CONTINUOUS
 70
0
 71
3
 72
8
 73
4
 74
2
 42
0.0000001
 43
0.0000001
 44
0.0000000001
 12
0.0004975624
 22
0.1249990856
 32
0.0
 13
0.001262075
 23
0.1249937044
 33
0.0
 40
0.0
 40
0.0
 40
0.0
 40
0.0
 40
1.0
 40
1.0
 40
1.0
 40
1.0
 10
0.0000000001
 20
-12.1327178811
 30
0.0
 10
0.0001658542
 20
-12.0910515193
 30
0.0
 10
-0.0004207154
 20
-12.0493823734
 30
0.0
 10
-0.0000000237
 20
-12.0077178053
 30
0.0
 11
0.0000000001
 21
-12.1327178811
 31
0.0
 11
-0.0000000237
 21
-12.0077178053
 31
0.0
  0
SPLINE
  5
67A
100
AcDbEntity
  8
0
100
AcDbSpline
 62
7
  6
CONTINUOUS
 70
0
 71
3
 72
8
 73
4
 74
2
 42
0.0000001
 43
0.0000001
 44
0.0000000001
 12
0.0316750042
 22
-0.0105717309
 32
0.0
 13
0.0313597036
 23
-0.0114732896
 33
0.0
 40
0.0
 40
0.0
 40
0.0
 40
0.0
 40
1.0
 40
1.0
 40
1.0
 40
1.0
 10
-0.6961683199
 20
-13.7465490118
 30
0.0
 10
-0.6856099852
 20
-13.7500729221
 30
0.0
 10
-0.6749208321
 20
-13.7532189416
 30
0.0
 10
-0.6644675975
 20
-13.7570433715
 30
0.0
 11
-0.6961683199
 21
-13.7465490118
 31
0.0
 11
-0.6644675975
 21
-13.7570433715
 31
0.0
  0
SPLINE
  5
67B
100
AcDbEntity
  8
0
100
AcDbSpline
 62
253
  6
CONTINUOUS
 70
0
 71
3
 72
9
 73
5
 74
3
 42
0.0000001
 43
0.0000001
 44
0.0000000001
 12
0.2901282979
 22
-0.402269969
 32
0.0
 13
0.065322299
 23
-0.4916589819
 33
0.0
 40
0.0
 40
0.0
 40
0.0
 40
0.0
 40
0.5018677803
 40
1.0
 40
1.0
 40
1.0
 40
1.0
 10
-0.1908357835
 20
-14.111670176
 30
0.0
 10
-0.1423004352
 20
-14.1789656214
 30
0.0
 10
-0.06134735
 20
-14.3253070157
 30
0.0
 10
-0.019459038
 20
-14.487227392
 30
0.0
 10
-0.0086126574
 20
-14.568864452
 30
0.0
 11
-0.1908357835
 21
-14.111670176
 31
0.0
 11
-0.0708842388
 21
-14.3297775808
 31
0.0
 11
-0.0086126574
 21
-14.568864452
 31
0.0
  0
SPLINE
  5
67C
100
AcDbEntity
  8
0
100
AcDbSpline
 62
7
  6
CONTINUOUS
 70
0
 71
3
 72
13
 73
9
 74
7
 42
0.0000001
 43
0.0000001
 44
0.0000000001
 12
0.0528398701
 22
3.0770676465
 32
0.0
 13
3.0775213002
 23
0.0
 33
0.0
 40
0.0
 40
0.0
 40
0.0
 40
0.0
 40
0.1246476809
 40
0.2493533852
 40
0.37421984
 40
0.4993283647
 40
0.7492279926
 40
1.0
 40
1.0
 40
1.0
 40
1.0
 10
-1.9997122057
 20
3.4669890234
 30
0.0
 10
-1.99751675
 20
3.5948388054
 30
0.0
 10
-1.967908123
 20
3.8508792271
 30
0.0
 10
-1.8494442759
 20
4.2184939642
 30
0.0
 10
-1.6612676834
 20
4.5565884828
 30
0.0
 10
-1.3280814684
 20
4.9500415239
 30
0.0
 10
-0.7760699052
 20
5.3097114675
 30
0.0
 10
-0.2572520648
 20
5.4094226992
 30
0.0
 10
0.0
 20
5.4094226992
 30
0.0
 11
-1.9997122057
 21
3.4669890234
 31
0.0
 11
-1.9555889454
 21
3.8480488862
 31
0.0
 11
-1.8379255833
 21
4.2133512896
 31
0.0
 11
-1.6511409333
 21
4.5491815718
 31
0.0
 11
-1.4022618623
 21
4.84295496
 31
0.0
 11
-0.7576149454
 21
5.2623607464
 31
0.0
 11
0.0
 21
5.4094226992
 31
0.0
  0
SPLINE
  5
67D
100
AcDbEntity
  8
0
100
AcDbSpline
 62
7
  6
CONTINUOUS
 70
0
 71
3
 72
8
 73
4
 74
2
 42
0.0000001
 43
0.0000001
 44
0.0000000001
 12
0.0678899574
 22
-0.0247903593
 32
0.0
 13
0.066129048
 23
-0.0291643144
 33
0.0
 40
0.0
 40
0.0
 40
0.0
 40
0.0
 40
1.0
 40
1.0
 40
1.0
 40
1.0
 10
-0.6644676763
 20
-13.7570435222
 30
0.0
 10
-0.6418376905
 20
-13.7653069753
 30
0.0
 10
-0.6194159168
 20
-13.7741902682
 30
0.0
 10
-0.5973729008
 20
-13.7839117064
 30
0.0
 11
-0.6644676763
 21
-13.7570435222
 31
0.0
 11
-0.5973729008
 21
-13.7839117064
 31
0.0
  0
SPLINE
  5
67E
100
AcDbEntity
  8
0
100
AcDbSpline
 62
7
  6
CONTINUOUS
 70
0
 71
3
 72
13
 73
9
 74
7
 42
0.0000001
 43
0.0000001
 44
0.0000000001
 12
-0.6189803739
 22
0.3216089858
 32
0.0
 13
-0.6518948841
 23
0.2481977096
 33
0.0
 40
0.0
 40
0.0
 40
0.0
 40
0.0
 40
0.1246362403
 40
0.250295804
 40
0.3753118718
 40
0.5001179992
 40
0.7500935308
 40
1.0
 40
1.0
 40
1.0
 40
1.0
 10
0.0
 20
-13.9685629845
 30
0.0
 10
-0.0257157955
 20
-13.9552016062
 30
0.0
 10
-0.081355956
 20
-13.9365425493
 30
0.0
 10
-0.166134239
 20
-13.9162907738
 30
0.0
 10
-0.2492522195
 20
-13.889282361
 30
0.0
 10
-0.3593347285
 20
-13.8520978984
 30
0.0
 10
-0.4982238266
 20
-13.8096761633
 30
0.0
 10
-0.6101633479
 20
-13.7777187759
 30
0.0
 10
-0.6644675975
 20
-13.7570433715
 30
0.0
 11
0.0
 21
-13.9685629845
 31
0.0
 11
-0.0813512776
 21
-13.9378966061
 31
0.0
 11
-0.1659946254
 21
-13.9151240908
 31
0.0
 11
-0.2492292852
 21
-13.8891127982
 31
0.0
 11
-0.331852074
 21
-13.8616801303
 31
0.0
 11
-0.4984389883
 21
-13.8101688434
 31
0.0
 11
-0.6644675975
 21
-13.7570433715
 31
0.0
  0
LINE
  5
67F
100
AcDbEntity
  8
0
100
AcDbLine
 62
7
  6
CONTINUOUS
 10
0.0000004032
 20
-14.3316806244
 11
0.0000005015
 21
-13.968559259
  0
LINE
  5
680
100
AcDbEntity
  8
0
100
AcDbLine
 62
7
  6
CONTINUOUS
 10
-0.000000002
 20
-14.568934037
 11
0.0000004032
 21
-14.3316806244
  0
LINE
  5
681
100
AcDbEntity
  8
0
100
AcDbLine
 62
7
  6
CONTINUOUS
 10
3.7386635287
 20
-5.5250122289
 11
3.7386922173
 21
-6.1503598399
  0
SPLINE
  5
682
100
AcDbEntity
  8
0
100
AcDbSpline
 62
7
  6
CONTINUOUS
 70
0
 71
3
 72
9
 73
5
 74
3
 42
0.0000001
 43
0.0000001
 44
0.0000000001
 12
-0.0027220502
 22
-4.2966775382
 32
0.0
 13
-0.0
 23
-4.2966784004
 33
0.0
 40
0.0
 40
0.0
 40
0.0
 40
0.0
 40
0.2496852837
 40
1.0
 40
1.0
 40
1.0
 40
1.0
 10
3.7400223457
 20
-1.2283340838
 30
0.0
 10
3.7397957937
 20
-1.5859398005
 30
0.0
 10
3.7390023143
 20
-3.0181657165
 30
0.0
 10
3.7386635287
 20
-4.4503918839
 30
0.0
 10
3.7386635287
 20
-5.5250122289
 30
0.0
 11
3.7400223457
 21
-1.2283340838
 31
0.0
 11
3.7394279003
 21
-2.3011512845
 31
0.0
 11
3.7386635287
 21
-5.5250122289
 31
0.0
  0
SPLINE
  5
683
100
AcDbEntity
  8
0
100
AcDbSpline
 62
253
  6
CONTINUOUS
 70
0
 71
3
 72
15
 73
11
 74
9
 42
0.0000001
 43
0.0000001
 44
0.0000000001
 12
-0.0222018081
 22
4.6921027731
 32
0.0
 13
-4.6921552994
 23
0.0000001073
 33
0.0
 40
0.0
 40
0.0
 40
0.0
 40
0.0
 40
0.1244033519
 40
0.2492992878
 40
0.3741196919
 40
0.4987983075
 40
0.6241600646
 40
0.7490092208
 40
0.8746476365
 40
1.0
 40
1.0
 40
1.0
 40
1.0
 10
8.6910570681
 20
2.3719358502
 30
0.0
 10
8.6901364084
 20
2.5665069544
 30
0.0
 10
8.6504823987
 20
2.9572808938
 30
0.0
 10
8.47950794
 20
3.5205574491
 30
0.0
 10
8.2028423832
 20
4.0408901931
 30
0.0
 10
7.8303388304
 20
4.4984394645
 30
0.0
 10
7.375876113
 20
4.874905373
 30
0.0
 10
6.855240651
 20
5.1560230914
 30
0.0
 10
6.2897265219
 20
5.3295246033
 30
0.0
 10
5.8960575856
 20
5.3686476531
 30
0.0
 10
5.7
 20
5.3686476575
 30
0.0
 11
8.6910570681
 21
2.3719358502
 31
0.0
 11
8.6320648241
 21
2.9526670917
 31
0.0
 11
8.4618601166
 21
3.5134369552
 31
0.0
 11
8.1868299073
 21
4.0305207058
 31
0.0
 11
7.8174308946
 21
4.4841535296
 31
0.0
 11
7.3643908259
 21
4.8593251423
 31
0.0
 11
6.8489012287
 21
5.1376158911
 31
0.0
 11
6.2852841612
 21
5.3104270215
 31
0.0
 11
5.7
 21
5.3686476575
 31
0.0
  0
SPLINE
  5
684
100
AcDbEntity
  8
0
100
AcDbSpline
 62
7
  6
CONTINUOUS
 70
0
 71
3
 72
13
 73
9
 74
7
 42
0.0000001
 43
0.0000001
 44
0.0000000001
 12
-3.1106101413
 22
0.0
 32
0.0
 13
0.0000199501
 23
-3.1106101412
 33
0.0
 40
0.0
 40
0.0
 40
0.0
 40
0.0
 40
0.2507621763
 40
0.5006395654
 40
0.6257489121
 40
0.7506206205
 40
0.8753344322
 40
1.0
 40
1.0
 40
1.0
 40
1.0
 10
0.0
 20
5.442933821
 30
0.0
 10
-0.2600077895
 20
5.442933821
 30
0.0
 10
-0.7844880748
 20
5.3410341581
 30
0.0
 10
-1.3404184875
 20
4.9737801841
 30
0.0
 10
-1.6733977791
 20
4.5728583584
 30
0.0
 10
-1.8596231382
 20
4.2288631861
 30
0.0
 10
-1.9742061062
 20
3.8555863304
 30
0.0
 10
-2.0000008258
 20
3.5962765601
 30
0.0
 10
-1.9999999968
 20
3.467014567
 30
0.0
 11
0.0
 21
5.442933821
 31
0.0
 11
-0.7654194985
 21
5.2927025097
 31
0.0
 11
-1.4142542897
 21
4.8647260618
 31
0.0
 11
-1.6629654121
 21
4.5654047189
 31
0.0
 11
-1.8477788586
 21
4.2237620959
 31
0.0
 11
-1.9615767927
 21
3.8528922978
 31
0.0
 11
-1.9999999968
 21
3.467014567
 31
0.0
  0
LINE
  5
685
100
AcDbEntity
  8
0
100
AcDbLine
 62
7
  6
CONTINUOUS
 10
0.5936088881
 20
8.3438139432
 11
0.6301695552
 21
8.3414319263
  0
LINE
  5
686
100
AcDbEntity
  8
0
100
AcDbLine
 62
7
  6
CONTINUOUS
 10
0.6301695552
 20
8.3414319263
 11
0.6396650712
 21
8.3408290881
  0
SPLINE
  5
687
100
AcDbEntity
  8
0
100
AcDbSpline
 62
253
  6
CONTINUOUS
 70
0
 71
3
 72
16
 73
12
 74
10
 42
0.0000001
 43
0.0000001
 44
0.0000000001
 12
-1.0104744654
 22
0.0176378974
 32
0.0
 13
0.0175039581
 23
1.0104767945
 33
0.0
 40
0.0
 40
0.0
 40
0.0
 40
0.0
 40
0.009686171
 40
0.02618279
 40
0.0846674277
 40
0.1771353577
 40
0.3006603848
 40
0.4507495954
 40
0.6217046068
 40
0.8072297819
 40
1.0
 40
1.0
 40
1.0
 40
1.0
 10
-7.5174524064
 20
-18.8496953671
 30
0.0
 10
-7.5207149493
 20
-18.8496384192
 30
0.0
 10
-7.5284833648
 20
-18.8433083491
 30
0.0
 10
-7.540052743
 20
-18.8175424746
 30
0.0
 10
-7.5527221245
 20
-18.7618426134
 30
0.0
 10
-7.5648886749
 20
-18.6704399217
 30
0.0
 10
-7.575276384
 20
-18.5473949671
 30
0.0
 10
-7.5830308389
 20
-18.3978589711
 30
0.0
 10
-7.5878359801
 20
-18.2272475845
 30
0.0
 10
-7.589412568
 20
-18.0422196726
 30
0.0
 10
-7.58828049
 20
-17.914777616
 30
0.0
 10
-7.5871557427
 20
-17.849847672
 30
0.0
 11
-7.5174524064
 21
-18.8496953671
 31
0.0
 11
-7.5258891801
 21
-18.8447307212
 31
0.0
 11
-7.5340939552
 21
-18.8302174297
 31
0.0
 11
-7.5494408928
 21
-18.7731383745
 31
0.0
 11
-7.5628805995
 21
-18.6806591311
 31
0.0
 11
-7.5739129394
 21
-18.5563096698
 31
0.0
 11
-7.5821085661
 21
-18.4048468225
 31
0.0
 11
-7.5871554317
 21
-18.2321485629
 31
0.0
 11
-7.5888583194
 21
-18.0446592871
 31
0.0
 11
-7.5871557427
 21
-17.849847672
 31
0.0
  0
SPLINE
  5
688
100
AcDbEntity
  8
0
100
AcDbSpline
 62
7
  6
CONTINUOUS
 70
0
 71
3
 72
13
 73
9
 74
7
 42
0.0000001
 43
0.0000001
 44
0.0000000001
 12
-0.0000433245
 22
3.1105991451
 32
0.0
 13
-3.1105991454
 23
0.0
 33
0.0
 40
0.0
 40
0.0
 40
0.0
 40
0.0
 40
0.1246607024
 40
0.2493715414
 40
0.3742387624
 40
0.4993472411
 40
0.7492300186
 40
1.0
 40
1.0
 40
1.0
 40
1.0
 10
1.9999999725
 20
3.4670249689
 30
0.0
 10
1.9999981722
 20
3.5962814603
 30
0.0
 10
1.9742091179
 20
3.8555823138
 30
0.0
 10
1.8596290118
 20
4.2288452508
 30
0.0
 10
1.6734167884
 20
4.5728358016
 30
0.0
 10
1.3404396386
 20
4.9737574206
 30
0.0
 10
0.7845079805
 20
5.3410275077
 30
0.0
 10
0.2600149633
 20
5.4429337634
 30
0.0
 10
0.0
 20
5.4429337634
 30
0.0
 11
1.9999999725
 21
3.4670249689
 31
0.0
 11
1.9615792233
 21
3.8528863575
 31
0.0
 11
1.8477861283
 21
4.2237465337
 31
0.0
 11
1.6629855192
 21
4.5653786697
 31
0.0
 11
1.4142797755
 21
4.8646991832
 31
0.0
 11
0.7654395417
 21
5.2926928299
 31
0.0
 11
0.0
 21
5.4429337634
 31
0.0
  0
SPLINE
  5
689
100
AcDbEntity
  8
0
100
AcDbSpline
 62
253
  6
CONTINUOUS
 70
0
 71
3
 72
15
 73
11
 74
9
 42
0.0000001
 43
0.0000001
 44
0.0000000001
 12
0.7306532722
 22
0.0053247644
 32
0.0
 13
0.0000061162
 23
0.7306726745
 33
0.0
 40
0.0
 40
0.0
 40
0.0
 40
0.0
 40
0.3629521659
 40
0.5373556679
 40
0.6926875312
 40
0.8195666249
 40
0.9121910854
 40
0.945243031
 40
0.9700276487
 40
1.0
 40
1.0
 40
1.0
 40
1.0
 10
3.88925238
 20
-13.0032841332
 30
0.0
 10
3.9776497758
 20
-13.0026399216
 30
0.0
 10
4.1085499104
 20
-12.9986140163
 30
0.0
 10
4.2767922047
 20
-12.9856691754
 30
0.0
 10
4.3872945659
 20
-12.9728785371
 30
0.0
 10
4.4773512784
 20
-12.9573068125
 30
0.0
 10
4.5370048127
 20
-12.9422842946
 30
0.0
 10
4.5712270727
 20
-12.9281821479
 30
0.0
 10
4.5894143626
 20
-12.9180666593
 30
0.0
 10
4.6000004121
 20
-12.9064341626
 30
0.0
 10
4.6000004732
 20
-12.8991341699
 30
0.0
 11
3.88925238
 21
-13.0032841332
 31
0.0
 11
4.1543046545
 21
-12.994456719
 31
0.0
 11
4.2813432362
 21
-12.9844526665
 31
0.0
 11
4.394030881
 21
-12.9709246766
 31
0.0
 11
4.4852836459
 21
-12.9545681231
 31
0.0
 11
4.5504784799
 21
-12.9364031218
 31
0.0
 11
4.5727235516
 21
-12.9270017019
 31
0.0
 11
4.5881850985
 21
-12.9175734205
 31
0.0
 11
4.6000004732
 21
-12.8991341699
 31
0.0
  0
SPLINE
  5
68A
100
AcDbEntity
  8
0
100
AcDbSpline
 62
253
  6
CONTINUOUS
 70
0
 71
3
 72
15
 73
11
 74
9
 42
0.0000001
 43
0.0000001
 44
0.0000000001
 12
-0.000004026
 22
-0.7538466223
 32
0.0
 13
-0.753797057
 23
-0.0086444751
 33
0.0
 40
0.0
 40
0.0
 40
0.0
 40
0.0
 40
0.0447681576
 40
0.0747472424
 40
0.111265438
 40
0.2050281975
 40
0.3258398633
 40
0.4706636329
 40
0.6349737515
 40
1.0
 40
1.0
 40
1.0
 40
1.0
 10
4.6000004732
 20
-12.6127937242
 30
0.0
 10
4.6000004132
 20
-12.6240431657
 30
0.0
 10
4.5899980086
 20
-12.6423197104
 30
0.0
 10
4.5688967803
 20
-12.6603871369
 30
0.0
 10
4.5345178814
 20
-12.6818068345
 30
0.0
 10
4.4756547381
 20
-12.7053173868
 30
0.0
 10
4.3884612528
 20
-12.7291795498
 30
0.0
 10
4.2821839023
 20
-12.749169715
 30
0.0
 10
4.1140624611
 20
-12.7704450636
 30
0.0
 10
3.9809709504
 20
-12.7771872298
 30
0.0
 10
3.8892523798
 20
-12.7782390499
 30
0.0
 11
4.6000004732
 21
-12.6127937242
 31
0.0
 11
4.5865219919
 21
-12.6437336651
 31
0.0
 11
4.5698007516
 21
-12.6589370686
 31
0.0
 11
4.5465941677
 21
-12.6737460803
 31
0.0
 11
4.4816605429
 21
-12.7016687241
 31
0.0
 11
4.3940352686
 21
-12.7264918497
 31
0.0
 11
4.2868520279
 21
-12.7472503124
 31
0.0
 11
4.1640122189
 21
-12.763150859
 31
0.0
 11
3.8892523798
 21
-12.7782390499
 31
0.0
  0
SPLINE
  5
68B
100
AcDbEntity
  8
0
100
AcDbSpline
 62
7
  6
CONTINUOUS
 70
0
 71
3
 72
12
 73
8
 74
6
 42
0.0000001
 43
0.0000001
 44
0.0000000001
 12
0.0722712298
 22
0.0012116097
 32
0.0
 13
0.0044261689
 23
0.0721457391
 33
0.0
 40
0.0
 40
0.0
 40
0.0
 40
0.0
 40
0.0233484894
 40
0.0735746242
 40
0.2640085842
 40
0.5745915165
 40
1.0
 40
1.0
 40
1.0
 40
1.0
 10
-4.6497013949
 20
-11.5750509566
 30
0.0
 10
-4.6491389202
 20
-11.5750415268
 30
0.0
 10
-4.6479748532
 20
-11.5731943204
 30
0.0
 10
-4.646374844
 20
-11.5674632648
 30
0.0
 10
-4.6442598368
 20
-11.5539076185
 30
0.0
 10
-4.6421814931
 20
-11.5319262347
 30
0.0
 10
-4.6409386747
 20
-11.514156246
 30
0.0
 10
-4.6403110314
 20
-11.5039257761
 30
0.0
 11
-4.6497013949
 21
-11.5750509566
 31
0.0
 11
-4.6484724254
 21
-11.5738943088
 31
0.0
 11
-4.6472478745
 21
-11.5704766509
 31
0.0
 11
-4.6448361586
 21
-11.5569247439
 31
0.0
 11
-4.642511803
 21
-11.5345960328
 31
0.0
 11
-4.6403110314
 21
-11.5039257761
 31
0.0
  0
SPLINE
  5
68C
100
AcDbEntity
  8
0
100
AcDbSpline
 62
7
  6
CONTINUOUS
 70
0
 71
3
 72
9
 73
5
 74
3
 42
0.0000001
 43
0.0000001
 44
0.0000000001
 12
0.0288216823
 22
0.4697881216
 32
0.0
 13
0.0
 23
0.4706714019
 33
0.0
 40
0.0
 40
0.0
 40
0.0
 40
0.0
 40
0.420838854
 40
1.0
 40
1.0
 40
1.0
 40
1.0
 10
-4.6403110314
 20
-11.5039257761
 30
0.0
 10
-4.6362679368
 20
-11.4380240779
 30
0.0
 10
-4.6322597019
 20
-11.2811269774
 30
0.0
 10
-4.6307938051
 20
-11.1242537168
 30
0.0
 10
-4.6307938051
 20
-11.033388854
 30
0.0
 11
-4.6403110314
 21
-11.5039257761
 31
0.0
 11
-4.6333445565
 21
-11.3059715081
 31
0.0
 11
-4.6307938051
 21
-11.033388854
 31
0.0
  0
SPLINE
  5
68D
100
AcDbEntity
  8
0
100
AcDbSpline
 62
7
  6
CONTINUOUS
 70
0
 71
3
 72
11
 73
7
 74
5
 42
0.0000001
 43
0.0000001
 44
0.0000000001
 12
0.0000000007
 22
-0.042593228
 32
0.0
 13
0.0425498984
 23
-0.0019207333
 33
0.0
 40
0.0
 40
0.0
 40
0.0
 40
0.0
 40
0.0668941119
 40
0.2557091818
 40
0.5672270775
 40
1.0
 40
1.0
 40
1.0
 40
1.0
 10
-4.6000004732
 20
-13.9794106916
 30
0.0
 10
-4.6000004732
 20
-13.980360437
 30
0.0
 10
-4.594546986
 20
-13.9803373643
 30
0.0
 10
-4.5882951074
 20
-13.9818734227
 30
0.0
 10
-4.5740689389
 20
-13.9823944045
 30
0.0
 10
-4.5638441933
 20
-13.9830508177
 30
0.0
 10
-4.5577060453
 20
-13.9833278981
 30
0.0
 11
-4.6000004732
 21
-13.9794106916
 31
0.0
 11
-4.597327519
 21
-13.9803973336
 31
0.0
 11
-4.5893465213
 21
-13.9813879666
 31
0.0
 11
-4.5761142778
 21
-13.9823688963
 31
0.0
 11
-4.5577060453
 21
-13.9833278981
 31
0.0
  0
SPLINE
  5
68E
100
AcDbEntity
  8
0
100
AcDbSpline
 62
7
  6
CONTINUOUS
 70
0
 71
3
 72
10
 73
6
 74
4
 42
0.0000001
 43
0.0000001
 44
0.0000000001
 12
0.6678482706
 22
-0.030147156
 32
0.0
 13
0.6685279077
 23
-0.0007747889
 33
0.0
 40
0.0
 40
0.0
 40
0.0
 40
0.0
 40
0.1539424895
 40
0.3861564463
 40
1.0
 40
1.0
 40
1.0
 40
1.0
 10
-4.5577060453
 20
-13.9833278981
 30
0.0
 10
-4.5234359702
 20
-13.9848748742
 30
0.0
 10
-4.4373993478
 20
-13.9869794376
 30
0.0
 10
-4.2145877221
 20
-13.9904155652
 30
0.0
 10
-4.0260429559
 20
-13.9912793088
 30
0.0
 10
-3.8892524404
 20
-13.9914378419
 30
0.0
 11
-4.5577060453
 21
-13.9833278981
 31
0.0
 11
-4.4548378666
 21
-13.9864292636
 31
0.0
 11
-4.2996167232
 21
-13.9889503034
 31
0.0
 11
-3.8892524404
 21
-13.9914378419
 31
0.0
  0
SPLINE
  5
68F
100
AcDbEntity
  8
0
100
AcDbSpline
 62
253
  6
CONTINUOUS
 70
0
 71
3
 72
15
 73
11
 74
9
 42
0.0000001
 43
0.0000001
 44
0.0000000001
 12
0.0000000018
 22
-0.7228190008
 32
0.0
 13
0.7228079137
 23
-0.004003479
 33
0.0
 40
0.0
 40
0.0
 40
0.0
 40
0.0
 40
0.027768483
 40
0.0529949535
 40
0.0865596715
 40
0.1782632807
 40
0.3005835823
 40
0.4494855811
 40
0.6197443564
 40
1.0
 40
1.0
 40
1.0
 40
1.0
 10
-4.6000004732
 20
-13.6096416539
 30
0.0
 10
-4.6000004732
 20
-13.6163321829
 30
0.0
 10
-4.5865394617
 20
-13.6253204151
 30
0.0
 10
-4.5683181523
 20
-13.6326670771
 30
0.0
 10
-4.5329354957
 20
-13.6431497449
 30
0.0
 10
-4.4745981638
 20
-13.6540020077
 30
0.0
 10
-4.3876931775
 20
-13.6653055526
 30
0.0
 10
-4.2817732374
 20
-13.6746765545
 30
0.0
 10
-4.113518501
 20
-13.6847427103
 30
0.0
 10
-3.9808697032
 20
-13.68789383
 30
0.0
 10
-3.8892524404
 20
-13.6884012785
 30
0.0
 11
-4.6000004732
 21
-13.6096416539
 31
0.0
 11
-4.5865267081
 21
-13.6245186919
 31
0.0
 11
-4.5698070898
 21
-13.6317946387
 31
0.0
 11
-4.5465998475
 21
-13.638867863
 31
0.0
 11
-4.4816614619
 21
-13.6521615472
 31
0.0
 11
-4.3940327973
 21
-13.6639304404
 31
0.0
 11
-4.2868523438
 21
-13.6737484736
 31
0.0
 11
-4.1640157598
 21
-13.6812639501
 31
0.0
 11
-3.8892524404
 21
-13.6884012785
 31
0.0
  0
SPLINE
  5
690
100
AcDbEntity
  8
0
100
AcDbSpline
 62
253
  6
CONTINUOUS
 70
0
 71
3
 72
15
 73
11
 74
9
 42
0.0000001
 43
0.0000001
 44
0.0000000001
 12
0.0000000043
 22
-0.7306727856
 32
0.0
 13
0.7306533833
 23
-0.0053247649
 33
0.0
 40
0.0
 40
0.0
 40
0.0
 40
0.0
 40
0.0299722529
 40
0.0547567989
 40
0.0878086764
 40
0.1804330362
 40
0.3073120954
 40
0.4626439938
 40
0.6370475863
 40
1.0
 40
1.0
 40
1.0
 40
1.0
 10
-4.6000004732
 20
-12.8991340493
 30
0.0
 10
-4.6000004732
 20
-12.9064340191
 30
0.0
 10
-4.5894145081
 20
-12.918066561
 30
0.0
 10
-4.5712272783
 20
-12.9281820464
 30
0.0
 10
-4.5370050849
 20
-12.9422842165
 30
0.0
 10
-4.4773515926
 20
-12.9573067462
 30
0.0
 10
-4.3872948954
 20
-12.9728784929
 30
0.0
 10
-4.2767924963
 20
-12.9856691487
 30
0.0
 10
-4.1085500867
 20
-12.9986140106
 30
0.0
 10
-3.9776498496
 20
-13.0026399211
 30
0.0
 10
-3.88925238
 20
-13.0032841332
 30
0.0
 11
-4.6000004732
 21
-12.8991340493
 31
0.0
 11
-4.5881852414
 21
-12.9175733099
 31
0.0
 11
-4.5727237572
 21
-12.9270015988
 31
0.0
 11
-4.5504787392
 21
-12.9364030276
 31
0.0
 11
-4.4852839768
 21
-12.9545680497
 31
0.0
 11
-4.3940312273
 21
-12.9709246258
 31
0.0
 11
-4.2813435418
 21
-12.9844526367
 31
0.0
 11
-4.1543048755
 21
-12.9944567053
 31
0.0
 11
-3.88925238
 21
-13.0032841332
 31
0.0
  0
SPLINE
  5
691
100
AcDbEntity
  8
0
100
AcDbSpline
 62
7
  6
CONTINUOUS
 70
0
 71
3
 72
18
 73
14
 74
12
 42
0.0000001
 43
0.0000001
 44
0.0000000001
 12
0.398653198
 22
0.0110463192
 32
0.0
 13
0.0048539605
 23
0.3987766699
 33
0.0
 40
0.0
 40
0.0
 40
0.0
 40
0.0
 40
0.0049359978
 40
0.0178312887
 40
0.0389565493
 40
0.0683077581
 40
0.1058330507
 40
0.1513876911
 40
0.2658571049
 40
0.4101921636
 40
0.5823228714
 40
0.7798589785
 40
1.0
 40
1.0
 40
1.0
 40
1.0
 10
-3.7497435252
 20
-11.9735956021
 30
0.0
 10
-3.7490876081
 20
-11.9735774272
 30
0.0
 10
-3.7484732175
 20
-11.9703525925
 30
0.0
 10
-3.7475313352
 20
-11.9660866596
 30
0.0
 10
-3.7466750147
 20
-11.9572411451
 30
0.0
 10
-3.7457275279
 20
-11.945783001
 30
0.0
 10
-3.7448142975
 20
-11.9307862883
 30
0.0
 10
-3.7434937046
 20
-11.9045946053
 30
0.0
 10
-3.7419809796
 20
-11.8641377585
 30
0.0
 10
-3.7403521697
 20
-11.8068841968
 30
0.0
 10
-3.7388455759
 20
-11.7385678096
 30
0.0
 10
-3.737484319
 20
-11.6601742885
 30
0.0
 10
-3.7367272282
 20
-11.6046549415
 30
0.0
 10
-3.7363710429
 20
-11.5753925737
 30
0.0
 11
-3.7497435252
 21
-11.9735956021
 31
0.0
 11
-3.7487615045
 21
-11.9718895384
 31
0.0
 11
-3.7477824473
 21
-11.9668408715
 31
0.0
 11
-3.746810447
 21
-11.9584722452
 31
0.0
 11
-3.7458495966
 21
-11.9468063036
 31
0.0
 11
-3.7449038845
 21
-11.9318708952
 31
0.0
 11
-3.7439766276
 21
-11.9137271005
 31
0.0
 11
-3.7421896921
 21
-11.8681109741
 31
0.0
 11
-3.7405130919
 21
-11.8105736786
 31
0.0
 11
-3.7389699867
 21
-11.7419442292
 31
0.0
 11
-3.7375827668
 21
-11.6631778177
 31
0.0
 11
-3.7363710429
 21
-11.5753925737
 31
0.0
  0
SPLINE
  5
692
100
AcDbEntity
  8
0
100
AcDbSpline
 62
253
  6
CONTINUOUS
 70
0
 71
3
 72
14
 73
10
 74
8
 42
0.0000001
 43
0.0000001
 44
0.0000000001
 12
-0.7083843173
 22
-0.0016671199
 32
0.0
 13
-0.6526266341
 23
-0.2754806649
 33
0.0
 40
0.0
 40
0.0
 40
0.0
 40
0.0
 40
0.3643953358
 40
0.5295476087
 40
0.6763501013
 40
0.8001723395
 40
0.8971734394
 40
0.9643982451
 40
1.0
 40
1.0
 40
1.0
 40
1.0
 10
-3.8892524404
 20
-12.0261982754
 30
0.0
 10
-3.9752964208
 20
-12.0264007723
 30
0.0
 10
-4.1003434577
 20
-12.0274945197
 30
0.0
 10
-4.2600035794
 20
-12.0310180349
 30
0.0
 10
-4.3628737893
 20
-12.0342928933
 30
0.0
 10
-4.449531307
 20
-12.0383543396
 30
0.0
 10
-4.517573194
 20
-12.0424918406
 30
0.0
 10
-4.5641951648
 20
-12.0477183145
 30
0.0
 10
-4.5886788263
 20
-12.0508375857
 30
0.0
 10
-4.5964237108
 20
-12.054106784
 30
0.0
 11
-3.8892524404
 21
-12.0261982754
 31
0.0
 11
-4.1473730271
 21
-12.0286944426
 31
0.0
 11
-4.2643352734
 21
-12.0313151976
 31
0.0
 11
-4.3682715067
 21
-12.03474692
 31
0.0
 11
-4.4558880096
 21
-12.0388808964
 31
0.0
 11
-4.5244403559
 21
-12.0435951016
 31
0.0
 11
-4.5717839267
 21
-12.0487291371
 31
0.0
 11
-4.5964237108
 21
-12.054106784
 31
0.0
  0
SPLINE
  5
693
100
AcDbEntity
  8
0
100
AcDbSpline
 62
253
  6
CONTINUOUS
 70
0
 71
3
 72
9
 73
5
 74
3
 42
0.0000001
 43
0.0000001
 44
0.0000000001
 12
-0.0040680653
 22
-0.0017171738
 32
0.0
 13
-0.0013834569
 23
-0.0041933147
 33
0.0
 40
0.0
 40
0.0
 40
0.0
 40
0.0
 40
0.3429529903
 40
1.0
 40
1.0
 40
1.0
 40
1.0
 10
-4.5964237108
 20
-12.054106784
 30
0.0
 10
-4.5968887625
 20
-12.0543030873
 30
0.0
 10
-4.5981794876
 20
-12.0549152093
 30
0.0
 10
-4.5996251244
 20
-12.0558002305
 30
0.0
 10
-4.5999281232
 20
-12.0567186321
 30
0.0
 11
-4.5964237108
 21
-12.054106784
 31
0.0
 11
-4.5977922988
 21
-12.054755043
 31
0.0
 11
-4.5999281232
 21
-12.0567186321
 31
0.0
  0
LINE
  5
694
100
AcDbEntity
  8
0
100
AcDbLine
 62
253
  6
CONTINUOUS
 10
-3.8892521462
 20
-12.7782390547
 11
-3.8892521462
 21
-12.0261980511
  0
SPLINE
  5
695
100
AcDbEntity
  8
0
100
AcDbSpline
 62
253
  6
CONTINUOUS
 70
0
 71
3
 72
15
 73
11
 74
9
 42
0.0000001
 43
0.0000001
 44
0.0000000001
 12
-0.0000008106
 22
-0.7538461021
 32
0.0
 13
0.7537944933
 23
-0.008820855
 33
0.0
 40
0.0
 40
0.0
 40
0.0
 40
0.0
 40
0.0447713587
 40
0.0747559202
 40
0.1112775043
 40
0.20503806
 40
0.3258415804
 40
0.4706602129
 40
0.6349701175
 40
1.0
 40
1.0
 40
1.0
 40
1.0
 10
-4.6000004732
 20
-12.6127935024
 30
0.0
 10
-4.6000004853
 20
-12.6240437404
 30
0.0
 10
-4.5899966416
 20
-12.6423213232
 30
0.0
 10
-4.5688980811
 20
-12.6603959908
 30
0.0
 10
-4.5345206644
 20
-12.6818219564
 30
0.0
 10
-4.4756565404
 20
-12.7053279531
 30
0.0
 10
-4.3884598793
 20
-12.7291638631
 30
0.0
 10
-4.2821824139
 20
-12.7491319445
 30
0.0
 10
-4.1140617005
 20
-12.77040585
 30
0.0
 10
-3.980971318
 20
-12.7771657628
 30
0.0
 10
-3.8892521462
 20
-12.7782390547
 30
0.0
 11
-4.6000004732
 21
-12.6127935024
 31
0.0
 11
-4.5865221281
 21
-12.6437361093
 31
0.0
 11
-4.5698009306
 21
-12.6589456732
 31
0.0
 11
-4.5465943828
 21
-12.6737594539
 31
0.0
 11
-4.4816608691
 21
-12.7016780271
 31
0.0
 11
-4.3940357285
 21
-12.726478856
 31
0.0
 11
-4.2868524956
 21
-12.7472165862
 31
0.0
 11
-4.1640124985
 21
-12.763113757
 31
0.0
 11
-3.8892521462
 21
-12.7782390547
 31
0.0
  0
SPLINE
  5
696
100
AcDbEntity
  8
0
100
AcDbSpline
 62
7
  6
CONTINUOUS
 70
0
 71
3
 72
21
 73
17
 74
15
 42
0.0000001
 43
0.0000001
 44
0.0000000001
 12
-0.7112959855
 22
-0.0007167406
 32
0.0
 13
-0.0000000102
 23
-0.7112963466
 33
0.0
 40
0.0
 40
0.0
 40
0.0
 40
0.0
 40
0.197620379
 40
0.3863043012
 40
0.5590111387
 40
0.7097122004
 40
0.775054117
 40
0.8329367322
 40
0.8828317737
 40
0.9242842306
 40
0.9569528467
 40
0.9805215935
 40
0.9888342593
 40
0.9948229561
 40
0.9984992065
 40
1.0
 40
1.0
 40
1.0
 40
1.0
 10
-3.8892524404
 20
-11.9746405614
 30
0.0
 10
-3.9361079678
 20
-11.9746877756
 30
0.0
 10
-4.0277001256
 20
-11.9749256219
 30
0.0
 10
-4.1602388459
 20
-11.9757433284
 30
0.0
 10
-4.2816489481
 20
-11.9769925162
 30
0.0
 10
-4.3738114331
 20
-11.9783957719
 30
0.0
 10
-4.4387443734
 20
-11.9797404879
 30
0.0
 10
-4.4797797749
 20
-11.9807722683
 30
0.0
 10
-4.5151401447
 20
-11.9818648909
 30
0.0
 10
-4.5445374539
 20
-11.9830059223
 30
0.0
 10
-4.5676319333
 20
-11.9841714719
 30
0.0
 10
-4.5829834839
 20
-11.9852304645
 30
0.0
 10
-4.5918083423
 20
-11.9861315517
 30
0.0
 10
-4.5962107597
 20
-11.9867604245
 30
0.0
 10
-4.598469329
 20
-11.987262578
 30
0.0
 10
-4.6000004732
 20
-11.9878157838
 30
0.0
 10
-4.6000004733
 20
-11.9881716201
 30
0.0
 11
-3.8892524404
 21
-11.9746405614
 31
0.0
 11
-4.0298185906
 21
-11.9750167601
 31
0.0
 11
-4.1640261078
 21
-11.9758629078
 31
0.0
 11
-4.2868650642
 21
-11.9771541307
 31
0.0
 11
-4.3940449131
 21
-11.978840484
 31
0.0
 11
-4.4405121931
 21
-11.9798135174
 31
0.0
 11
-4.481670528
 21
-11.9808622069
 31
0.0
 11
-4.5171431471
 21
-11.9819779124
 31
0.0
 11
-4.5466048211
 21
-11.9831500381
 31
0.0
 11
-4.5698101063
 21
-11.9843649606
 31
0.0
 11
-4.5865282116
 21
-11.9856094838
 31
0.0
 11
-4.5924071697
 21
-11.9862408999
 31
0.0
 11
-4.5966189355
 21
-11.9868783934
 31
0.0
 11
-4.5991534048
 21
-11.9875219661
 31
0.0
 11
-4.6000004733
 21
-11.9881716201
 31
0.0
  0
SPLINE
  5
697
100
AcDbEntity
  8
0
100
AcDbSpline
 62
253
  6
CONTINUOUS
 70
0
 71
3
 72
15
 73
11
 74
9
 42
0.0000001
 43
0.0000001
 44
0.0000000001
 12
-0.0000000018
 22
-0.7228189093
 32
0.0
 13
-0.722807831
 23
-0.0040018865
 33
0.0
 40
0.0
 40
0.0
 40
0.0
 40
0.0
 40
0.0277679641
 40
0.0529943174
 40
0.0865588957
 40
0.1782626242
 40
0.3005834499
 40
0.4494862962
 40
0.6197458631
 40
1.0
 40
1.0
 40
1.0
 40
1.0
 10
4.6000004732
 20
-13.6096416539
 30
0.0
 10
4.6000004732
 20
-13.616332057
 30
0.0
 10
4.586539638
 20
-13.6253201943
 30
0.0
 10
4.5683184524
 20
-13.6326666693
 30
0.0
 10
4.5329358741
 20
-13.6431494485
 30
0.0
 10
4.4745984423
 20
-13.6540018314
 30
0.0
 10
4.3876931304
 20
-13.6653055599
 30
0.0
 10
4.2817726886
 20
-13.6746766863
 30
0.0
 10
4.1135179375
 20
-13.684742739
 30
0.0
 10
3.9808693297
 20
-13.6878940339
 30
0.0
 10
3.8892524404
 20
-13.6884012786
 30
0.0
 11
4.6000004732
 21
-13.6096416539
 31
0.0
 11
4.5865269604
 21
-13.624518411
 31
0.0
 11
4.5698073985
 21
-13.6317942691
 31
0.0
 11
4.5466002669
 21
-13.6388675001
 31
0.0
 11
4.4816618339
 21
-13.6521613406
 31
0.0
 11
4.3940328226
 21
-13.6639304146
 31
0.0
 11
4.2868517794
 21
-13.673748577
 31
0.0
 11
4.1640146385
 21
-13.6812640636
 31
0.0
 11
3.8892524404
 21
-13.6884012786
 31
0.0
  0
SPLINE
  5
698
100
AcDbEntity
  8
0
100
AcDbSpline
 62
7
  6
CONTINUOUS
 70
0
 71
3
 72
15
 73
11
 74
9
 42
0.0000001
 43
0.0000001
 44
0.0000000001
 12
-0.7369010746
 22
-0.0064097995
 32
0.0
 13
0.0000815397
 23
-0.7369289468
 33
0.0
 40
0.0
 40
0.0
 40
0.0
 40
0.0
 40
0.373187891
 40
0.5406322179
 40
0.6875373344
 40
0.8090008352
 40
0.9014635308
 40
0.9363045937
 40
0.9636865371
 40
1.0
 40
1.0
 40
1.0
 40
1.0
 10
-3.8892531516
 20
1.1992376053
 30
0.0
 10
-3.9809206708
 20
1.1984402521
 30
0.0
 10
-4.1137650946
 20
1.1935277772
 30
0.0
 10
-4.281963738
 20
1.1778816814
 30
0.0
 10
-4.3880599157
 20
1.1632511955
 30
0.0
 10
-4.4750290024
 20
1.145699822
 30
0.0
 10
-4.5337621363
 20
1.128549373
 30
0.0
 10
-4.568533581
 20
1.1124562038
 30
0.0
 10
-4.5886577313
 20
1.0999078338
 30
0.0
 10
-4.5999944633
 20
1.0857182636
 30
0.0
 10
-4.5999934763
 20
1.0767981163
 30
0.0
 11
-3.8892531516
 21
1.1992376053
 31
0.0
 11
-4.1640419805
 21
1.1881367819
 31
0.0
 11
-4.2868818521
 21
1.1764497631
 31
0.0
 11
-4.3940589191
 21
1.1611851633
 31
0.0
 11
-4.4816790746
 21
1.1428891762
 31
0.0
 11
-4.5466069346
 21
1.1222198842
 31
0.0
 11
-4.5698092514
 21
1.1112254291
 31
0.0
 11
-4.5865246847
 21
1.0999219766
 31
0.0
 11
-4.5999934763
 21
1.0767981163
 31
0.0
  0
SPLINE
  5
699
100
AcDbEntity
  8
0
100
AcDbSpline
 62
7
  6
CONTINUOUS
 70
0
 71
3
 72
12
 73
8
 74
6
 42
0.0000001
 43
0.0000001
 44
0.0000000001
 12
-0.0000170934
 22
0.5040138177
 32
0.0
 13
0.0148285529
 23
0.5037956359
 33
0.0
 40
0.0
 40
0.0
 40
0.0
 40
0.0
 40
0.0735204548
 40
0.1673329773
 40
0.4048163708
 40
0.6896879537
 40
1.0
 40
1.0
 40
1.0
 40
1.0
 10
-4.6000004734
 20
-11.5290748273
 30
0.0
 10
-4.6000008923
 20
-11.5167230523
 30
0.0
 10
-4.5966141905
 20
-11.4886721977
 30
0.0
 10
-4.5826456785
 20
-11.4221308597
 30
0.0
 10
-4.5559188689
 20
-11.3220720144
 30
0.0
 10
-4.5260273493
 20
-11.185318997
 30
0.0
 10
-4.5154802305
 20
-11.0855002366
 30
0.0
 10
-4.5139464043
 20
-11.0333889517
 30
0.0
 11
-4.6000004734
 21
-11.5290748273
 31
0.0
 11
-4.5965640454
 21
-11.4921791896
 31
0.0
 11
-4.5873675251
 21
-11.4457993673
 31
0.0
 11
-4.5587816993
 21
-11.3295680355
 31
0.0
 11
-4.5294191152
 21
-11.1890232762
 31
0.0
 11
-4.5139464043
 21
-11.0333889517
 31
0.0
  0
SPLINE
  5
69A
100
AcDbEntity
  8
0
100
AcDbSpline
 62
7
  6
CONTINUOUS
 70
0
 71
3
 72
12
 73
8
 74
6
 42
0.0000001
 43
0.0000001
 44
0.0000000001
 12
0.0158152391
 22
0.5373180056
 32
0.0
 13
0.000014562
 23
0.5375507053
 33
0.0
 40
0.0
 40
0.0
 40
0.0
 40
0.0
 40
0.3196869904
 40
0.6106588301
 40
0.8465393058
 40
0.935217434
 40
1.0
 40
1.0
 40
1.0
 40
1.0
 10
-4.5139464043
 20
-11.0333889517
 30
0.0
 10
-4.5122610956
 20
-10.976131093
 30
0.0
 10
-4.5182912213
 20
-10.8662783223
 30
0.0
 10
-4.5484604384
 20
-10.7173359651
 30
0.0
 10
-4.5788788408
 20
-10.6112372055
 30
0.0
 10
-4.5956104981
 20
-10.5435989036
 30
0.0
 10
-4.6000007879
 20
-10.5162406349
 30
0.0
 10
-4.6000004735
 20
-10.5046326635
 30
0.0
 11
-4.5139464043
 21
-11.0333889517
 31
0.0
 11
-4.5228865542
 21
-10.8617736914
 31
0.0
 11
-4.5526382159
 21
-10.7082172224
 31
0.0
 11
-4.5850486249
 21
-10.5856316352
 31
0.0
 11
-4.5959012479
 21
-10.53921447
 31
0.0
 11
-4.6000004735
 21
-10.5046326635
 31
0.0
  0
SPLINE
  5
69B
100
AcDbEntity
  8
0
100
AcDbSpline
 62
7
  6
CONTINUOUS
 70
0
 71
3
 72
11
 73
7
 74
5
 42
0.0000001
 43
0.0000001
 44
0.0000000001
 12
0.0278337464
 22
-0.0120819975
 32
0.0
 13
0.0031025203
 23
-0.0301838776
 33
0.0
 40
0.0
 40
0.0
 40
0.0
 40
0.0
 40
0.0921279451
 40
0.2874562493
 40
0.590184802
 40
1.0
 40
1.0
 40
1.0
 40
1.0
 10
-4.65
 20
-10.4751150709
 30
0.0
 10
-4.6491452447
 20
-10.4754861008
 30
0.0
 10
-4.6480689851
 20
-10.4786678277
 30
0.0
 10
-4.6466821519
 20
-10.4841254451
 30
0.0
 10
-4.6453093341
 20
-10.493396949
 30
0.0
 10
-4.6444872573
 20
-10.5004980664
 30
0.0
 10
-4.6440634373
 20
-10.504621337
 30
0.0
 11
-4.65
 21
-10.4751150709
 31
0.0
 11
-4.6484965429
 21
-10.477471773
 31
0.0
 11
-4.6469986954
 21
-10.4832062088
 31
0.0
 11
-4.6455173594
 21
-10.4922716421
 31
0.0
 11
-4.6440634373
 21
-10.504621337
 31
0.0
  0
SPLINE
  5
69C
100
AcDbEntity
  8
0
100
AcDbSpline
 62
7
  6
CONTINUOUS
 70
0
 71
3
 72
9
 73
5
 74
3
 42
0.0000001
 43
0.0000001
 44
0.0000000001
 12
0.0049713118
 22
-0.0483650237
 32
0.0
 13
0.0028579606
 23
-0.0485357756
 33
0.0
 40
0.0
 40
0.0
 40
0.0
 40
0.0
 40
0.2075627581
 40
1.0
 40
1.0
 40
1.0
 40
1.0
 10
-4.6440634373
 20
-10.504621337
 30
0.0
 10
-4.6437194843
 20
-10.5079675963
 30
0.0
 10
-4.6422138929
 20
-10.5241048017
 30
0.0
 10
-4.6411434395
 20
-10.5402793639
 30
0.0
 10
-4.6403885213
 20
-10.5530998826
 30
0.0
 11
-4.6440634373
 21
-10.504621337
 31
0.0
 11
-4.6431132216
 21
-10.5146681714
 31
0.0
 11
-4.6403885213
 21
-10.5530998826
 31
0.0
  0
SPLINE
  5
69D
100
AcDbEntity
  8
0
100
AcDbSpline
 62
7
  6
CONTINUOUS
 70
0
 71
3
 72
9
 73
5
 74
3
 42
0.0000001
 43
0.0000001
 44
0.0000000001
 12
0.0282400345
 22
-0.4795909314
 32
0.0
 13
0.0
 23
-0.4804216493
 33
0.0
 40
0.0
 40
0.0
 40
0.0
 40
0.0
 40
0.4254307964
 40
1.0
 40
1.0
 40
1.0
 40
1.0
 10
-4.6403885213
 20
-10.5530998826
 30
0.0
 10
-4.6363837945
 20
-10.6211107999
 30
0.0
 10
-4.6322792758
 20
-10.781250936
 30
0.0
 10
-4.6307938051
 20
-10.9413770258
 30
0.0
 10
-4.6307938051
 20
-11.033388854
 30
0.0
 11
-4.6403885213
 21
-10.5530998826
 31
0.0
 11
-4.6333654423
 21
-10.7573653489
 31
0.0
 11
-4.6307938051
 21
-11.033388854
 31
0.0
  0
SPLINE
  5
69E
100
AcDbEntity
  8
0
100
AcDbSpline
 62
7
  6
CONTINUOUS
 70
0
 71
3
 72
17
 73
13
 74
11
 42
0.0000001
 43
0.0000001
 44
0.0000000001
 12
0.0008311506
 22
-0.7337087766
 32
0.0
 13
-0.7307628807
 23
-0.0656876847
 33
0.0
 40
0.0
 40
0.0
 40
0.0
 40
0.0
 40
0.0073165291
 40
0.0227221823
 40
0.0469748437
 40
0.0800403775
 40
0.171516013
 40
0.2942033926
 40
0.4439789027
 40
0.6156461485
 40
0.8033376875
 40
1.0
 40
1.0
 40
1.0
 40
1.0
 10
4.600000476
 20
-1.7085426077
 30
0.0
 10
4.600002503
 20
-1.7103320082
 30
0.0
 10
4.594541234
 20
-1.714274296
 30
0.0
 10
4.5845388431
 20
-1.7181218096
 30
0.0
 10
4.5671016456
 20
-1.7233462361
 30
0.0
 10
4.531863078
 20
-1.7315093902
 30
0.0
 10
4.4722036243
 20
-1.7424309918
 30
0.0
 10
4.3842786836
 20
-1.7558141805
 30
0.0
 10
4.2765626328
 20
-1.7700614625
 30
0.0
 10
4.1529014413
 20
-1.7846000759
 30
0.0
 10
4.0176612375
 20
-1.7988754723
 30
0.0
 10
3.9240796045
 20
-1.80776147
 30
0.0
 10
3.8761750985
 20
-1.8120675673
 30
0.0
 11
4.600000476
 21
-1.7085426077
 31
0.0
 11
4.5965500489
 21
-1.7126550496
 31
0.0
 11
4.5862620086
 21
-1.7173369448
 31
0.0
 11
4.5692449494
 21
-1.7225389096
 31
0.0
 11
4.5456568628
 21
-1.7282110733
 31
0.0
 11
4.4797244875
 21
-1.7407629302
 31
0.0
 11
4.390771063
 21
-1.7545587354
 31
0.0
 11
4.2818474874
 21
-1.7691132986
 31
0.0
 11
4.1567653496
 21
-1.7839062041
 31
0.0
 11
4.0198203397
 21
-1.7984109859
 31
0.0
 11
3.8761750985
 21
-1.8120675673
 31
0.0
  0
SPLINE
  5
69F
100
AcDbEntity
  8
0
100
AcDbSpline
 62
7
  6
CONTINUOUS
 70
0
 71
3
 72
21
 73
17
 74
15
 42
0.0000001
 43
0.0000001
 44
0.0000000001
 12
0.7112961444
 22
-0.000721252
 32
0.0
 13
0.0000000102
 23
-0.7112965101
 33
0.0
 40
0.0
 40
0.0
 40
0.0
 40
0.0
 40
0.1976212281
 40
0.3863058648
 40
0.5590118855
 40
0.7097120707
 40
0.7750536796
 40
0.8329360588
 40
0.8828309177
 40
0.9242834333
 40
0.9569521797
 40
0.9805210044
 40
0.9888337865
 40
0.9948226248
 40
0.9984990222
 40
1.0
 40
1.0
 40
1.0
 40
1.0
 10
3.8892524404
 20
-11.9746405615
 30
0.0
 10
3.9361081796
 20
-11.9746880731
 30
0.0
 10
4.0277007285
 20
-11.9749258341
 30
0.0
 10
4.1602396576
 20
-11.9757434267
 30
0.0
 10
4.2816495545
 20
-11.9769927174
 30
0.0
 10
4.3738115886
 20
-11.9783957756
 30
0.0
 10
4.4387442115
 20
-11.9797402826
 30
0.0
 10
4.4797794537
 20
-11.9807719008
 30
0.0
 10
4.5151397528
 20
-11.9818643616
 30
0.0
 10
4.5445370714
 20
-11.9830052426
 30
0.0
 10
4.5676316366
 20
-11.9841707021
 30
0.0
 10
4.5829832384
 20
-11.985229778
 30
0.0
 10
4.5918081987
 20
-11.9861310108
 30
0.0
 10
4.5962106374
 20
-11.9867600658
 30
0.0
 10
4.5984693887
 20
-11.9872622963
 30
0.0
 10
4.6000004732
 20
-11.98781574
 30
0.0
 10
4.6000004733
 20
-11.9881716201
 30
0.0
 11
3.8892524404
 21
-11.9746405615
 31
0.0
 11
4.0298192263
 21
-11.9750169725
 31
0.0
 11
4.164027283
 21
-11.9758630463
 31
0.0
 11
4.2868656866
 21
-11.977154272
 31
0.0
 11
4.39404494
 21
-11.978840417
 31
0.0
 11
4.4405120148
 21
-11.9798133001
 31
0.0
 11
4.4816701954
 21
-11.9808618268
 31
0.0
 11
4.5171426979
 21
-11.9819773681
 31
0.0
 11
4.5466044262
 21
-11.9831493531
 31
0.0
 11
4.5698098121
 21
-11.9843642241
 31
0.0
 11
4.5865279687
 21
-11.9856088574
 31
0.0
 11
4.5924069983
 21
-11.986240395
 31
0.0
 11
4.5966188439
 21
-11.9868780406
 31
0.0
 11
4.599153378
 21
-11.9875217852
 31
0.0
 11
4.6000004733
 21
-11.9881716201
 31
0.0
  0
SPLINE
  5
6A0
100
AcDbEntity
  8
0
100
AcDbSpline
 62
7
  6
CONTINUOUS
 70
0
 71
3
 72
11
 73
7
 74
5
 42
0.0000001
 43
0.0000001
 44
0.0000000001
 12
-0.0000000007
 22
-0.0425931578
 32
0.0
 13
-0.0425498268
 23
-0.0019207624
 33
0.0
 40
0.0
 40
0.0
 40
0.0
 40
0.0
 40
0.0668936109
 40
0.2557086828
 40
0.5672267633
 40
1.0
 40
1.0
 40
1.0
 40
1.0
 10
4.6000004732
 20
-13.9794106916
 30
0.0
 10
4.6000004732
 20
-13.9803604283
 30
0.0
 10
4.5945469568
 20
-13.9803372219
 30
0.0
 10
4.5882951329
 20
-13.9818733296
 30
0.0
 10
4.5740689537
 20
-13.9823942447
 30
0.0
 10
4.5638442269
 20
-13.9830506794
 30
0.0
 10
4.5577060848
 20
-13.9833277643
 30
0.0
 11
4.6000004732
 21
-13.9794106916
 31
0.0
 11
4.5973275214
 21
-13.980397265
 31
0.0
 11
4.5893465312
 21
-13.9813878508
 31
0.0
 11
4.5761143
 21
-13.9823687582
 31
0.0
 11
4.5577060848
 21
-13.9833277643
 31
0.0
  0
SPLINE
  5
6A1
100
AcDbEntity
  8
0
100
AcDbSpline
 62
7
  6
CONTINUOUS
 70
0
 71
3
 72
10
 73
6
 74
4
 42
0.0000001
 43
0.0000001
 44
0.0000000001
 12
-0.6678482907
 22
-0.0301476638
 32
0.0
 13
-0.6685279506
 23
-0.0007748238
 33
0.0
 40
0.0
 40
0.0
 40
0.0
 40
0.0
 40
0.1539424598
 40
0.3861564041
 40
1.0
 40
1.0
 40
1.0
 40
1.0
 10
4.5577060848
 20
-13.9833277643
 30
0.0
 10
4.5234360153
 20
-13.9848747661
 30
0.0
 10
4.4373993992
 20
-13.9869794275
 30
0.0
 10
4.214587759
 20
-13.9904155831
 30
0.0
 10
4.0260429741
 20
-13.9912793017
 30
0.0
 10
3.8892524404
 20
-13.9914378419
 30
0.0
 11
4.5577060848
 21
-13.9833277643
 31
0.0
 11
4.4548379221
 21
-13.9864292196
 31
0.0
 11
4.2996167778
 21
-13.9889503067
 31
0.0
 11
3.8892524404
 21
-13.9914378419
 31
0.0
  0
SPLINE
  5
6A2
100
AcDbEntity
  8
0
100
AcDbSpline
 62
7
  6
CONTINUOUS
 70
0
 71
3
 72
15
 73
11
 74
9
 42
0.0000001
 43
0.0000001
 44
0.0000000001
 12
-0.7499485974
 22
-0.0082805428
 32
0.0
 13
-0.0000000009
 23
-0.7499943108
 33
0.0
 40
0.0
 40
0.0
 40
0.0
 40
0.0
 40
0.3668902253
 40
0.5318760394
 40
0.6771032208
 40
0.7979741501
 40
0.8913625367
 40
0.9274783388
 40
0.9568713934
 40
1.0
 40
1.0
 40
1.0
 40
1.0
 10
-3.8892524418
 20
5.7738615431
 30
0.0
 10
-3.9809687118
 20
5.7728488597
 30
0.0
 10
-4.1140058541
 20
5.7665798232
 30
0.0
 10
-4.2821593582
 20
5.746692118
 30
0.0
 10
-4.3883932587
 20
5.7280268484
 30
0.0
 10
-4.4755299816
 20
5.7056955446
 30
0.0
 10
-4.5343842526
 20
5.6836390194
 30
0.0
 10
-4.5688303114
 20
5.6633753942
 30
0.0
 10
-4.5898104636
 20
5.6464718004
 30
0.0
 10
-4.6000004746
 20
5.6289596138
 30
0.0
 10
-4.6000004746
 20
5.6181775439
 30
0.0
 11
-3.8892524418
 21
5.7738615431
 31
0.0
 11
-4.1640559161
 21
5.7597495687
 31
0.0
 11
-4.2868988346
 21
5.7448897427
 31
0.0
 11
-4.3940750934
 21
5.7254804644
 31
0.0
 11
-4.4816918705
 21
5.7022172359
 31
0.0
 11
-4.5466157786
 21
5.67593808
 31
0.0
 11
-4.5698165623
 21
5.6619591662
 31
0.0
 11
-4.5865310887
 21
5.6475859257
 31
0.0
 11
-4.6000004746
 21
5.6181775439
 31
0.0
  0
LINE
  5
6A3
100
AcDbEntity
  8
0
100
AcDbLine
 62
253
  6
CONTINUOUS
 10
4.5999615548
 20
-3.8875955678
 11
3.8892545793
 21
-3.862698892
  0
SPLINE
  5
6A4
100
AcDbEntity
  8
0
100
AcDbSpline
 62
7
  6
CONTINUOUS
 70
0
 71
3
 72
12
 73
8
 74
6
 42
0.0000001
 43
0.0000001
 44
0.0000000001
 12
-0.0000644586
 22
-0.5375506179
 32
0.0
 13
0.0158118084
 23
-0.5373180228
 33
0.0
 40
0.0
 40
0.0
 40
0.0
 40
0.0
 40
0.0647842095
 40
0.1534615463
 40
0.3893324137
 40
0.6803009427
 40
1.0
 40
1.0
 40
1.0
 40
1.0
 10
4.6000004735
 20
-10.5046326635
 30
0.0
 10
4.5999990815
 20
-10.5162409275
 30
0.0
 10
4.5956097299
 20
-10.5435990977
 30
0.0
 10
4.5788802795
 20
-10.6112366433
 30
0.0
 10
4.54846133
 20
-10.7173324244
 30
0.0
 10
4.5182895527
 20
-10.866274421
 30
0.0
 10
4.5122630299
 20
-10.9761289299
 30
0.0
 10
4.5139480366
 20
-11.0333889517
 30
0.0
 11
4.6000004735
 21
-10.5046326635
 31
0.0
 11
4.5959001994
 21
-10.5392152299
 31
0.0
 11
4.5850488282
 21
-10.5856322432
 31
0.0
 11
4.5526393324
 21
-10.708212709
 31
0.0
 11
4.5228866509
 21
-10.8617671429
 31
0.0
 11
4.5139480366
 21
-11.0333889517
 31
0.0
  0
SPLINE
  5
6A5
100
AcDbEntity
  8
0
100
AcDbSpline
 62
7
  6
CONTINUOUS
 70
0
 71
3
 72
12
 73
8
 74
6
 42
0.0000001
 43
0.0000001
 44
0.0000000001
 12
0.0148253336
 22
-0.5037955639
 32
0.0
 13
-0.0000092281
 23
-0.5040136512
 33
0.0
 40
0.0
 40
0.0
 40
0.0
 40
0.0
 40
0.3103192312
 40
0.595190334
 40
0.832674444
 40
0.9264823694
 40
1.0
 40
1.0
 40
1.0
 40
1.0
 10
4.5139480366
 20
-11.0333889517
 30
0.0
 10
4.5154815653
 20
-11.0855014357
 30
0.0
 10
4.5260277458
 20
-11.1853214176
 30
0.0
 10
4.5559196849
 20
-11.3220756283
 30
0.0
 10
4.5826463184
 20
-11.422133663
 30
0.0
 10
4.5966149101
 20
-11.4886738892
 30
0.0
 10
4.6000006996
 20
-11.5167235308
 30
0.0
 10
4.6000004734
 20
-11.5290748273
 30
0.0
 11
4.5139480366
 21
-11.0333889517
 31
0.0
 11
4.5294200226
 21
-11.1890269354
 31
0.0
 11
4.5587824513
 21
-11.3295714315
 31
0.0
 11
4.5873684989
 21
-11.4458030399
 31
0.0
 11
4.5965644797
 21
-11.492180591
 31
0.0
 11
4.6000004734
 21
-11.5290748273
 31
0.0
  0
SPLINE
  5
6A6
100
AcDbEntity
  8
0
100
AcDbSpline
 62
7
  6
CONTINUOUS
 70
0
 71
3
 72
21
 73
17
 74
15
 42
0.0000001
 43
0.0000001
 44
0.0000000001
 12
-8.6998242871
 22
0.0
 32
0.0
 13
8.4829934971
 23
-1.9302238095
 33
0.0
 40
0.0
 40
0.0
 40
0.0
 40
0.0
 40
0.0628739027
 40
0.1257051603
 40
0.1884279078
 40
0.2510316643
 40
0.3135106982
 40
0.3758873211
 40
0.4999597027
 40
0.6240857814
 40
0.6865108137
 40
0.7490304397
 40
0.8116507176
 40
0.8743604371
 40
0.9371586292
 40
1.0
 40
1.0
 40
1.0
 40
1.0
 10
5.7000000003
 20
5.2550900312
 30
0.0
 10
5.5176693651
 20
5.2550900312
 30
0.0
 10
5.1522511948
 20
5.2213905951
 30
0.0
 10
4.623631819
 20
5.0718497799
 30
0.0
 10
4.1317257363
 20
4.8286312846
 30
0.0
 10
3.6931197202
 20
4.5007347902
 30
0.0
 10
3.321934601
 20
4.0992870999
 30
0.0
 10
2.9336134716
 20
3.4868085341
 30
0.0
 10
2.6666458257
 20
2.6044468691
 30
0.0
 10
2.7318336472
 20
1.6847272099
 30
0.0
 10
2.9752789291
 20
1.0011585285
 30
0.0
 10
3.2487144812
 20
0.5273334055
 30
0.0
 10
3.6040851024
 20
0.1105103504
 30
0.0
 10
4.0299386187
 20
-0.2354235931
 30
0.0
 10
4.5121011745
 20
-0.4982168361
 30
0.0
 10
4.8607718341
 20
-0.6120106791
 30
0.0
 10
5.0384661473
 20
-0.6524433158
 30
0.0
 11
5.7000000003
 21
5.2550900312
 31
0.0
 11
5.1553200003
 21
5.2048521717
 31
0.0
 11
4.6293358626
 21
5.0560734909
 31
0.0
 11
4.140169692
 21
4.8142476904
 31
0.0
 11
3.7039624603
 21
4.4881222365
 31
0.0
 11
3.3348665902
 21
4.0890958794
 31
0.0
 11
3.0444728859
 21
3.6306664805
 31
0.0
 11
2.7330223909
 21
2.5971675472
 31
0.0
 11
2.808174619
 21
1.5199106981
 31
0.0
 11
2.9901697321
 21
1.0082261626
 31
0.0
 11
3.2621224836
 21
0.5371852633
 31
0.0
 11
3.6155503382
 21
0.1226012551
 31
0.0
 11
4.039022357
 21
-0.2213624439
 31
0.0
 11
4.5187462743
 21
-0.4827911511
 31
0.0
 11
5.0384661473
 21
-0.6524433158
 31
0.0
  0
SPLINE
  5
6A7
100
AcDbEntity
  8
0
100
AcDbSpline
 62
253
  6
CONTINUOUS
 70
0
 71
3
 72
14
 73
10
 74
8
 42
0.0000001
 43
0.0000001
 44
0.0000000001
 12
0.5046814634
 22
-0.097054353
 32
0.0
 13
-0.0943940246
 23
-0.5051858025
 33
0.0
 40
0.0
 40
0.0
 40
0.0
 40
0.0
 40
0.3592728539
 40
0.6918062023
 40
0.8201004244
 40
0.9140192782
 40
0.9471299954
 40
0.9715659192
 40
1.0
 40
1.0
 40
1.0
 40
1.0
 10
8.6469917714
 20
1.7841173126
 30
0.0
 10
8.7074312213
 20
1.7724943145
 30
0.0
 10
8.8232689571
 20
1.7472779559
 30
0.0
 10
8.9590046274
 20
1.7105379284
 30
0.0
 10
9.0485780432
 20
1.6784322549
 30
0.0
 10
9.0886039937
 20
1.6609465001
 30
0.0
 10
9.1110451573
 20
1.6473124105
 30
0.0
 10
9.1222829729
 20
1.638593054
 30
0.0
 10
9.1285637153
 20
1.6297346746
 30
0.0
 10
9.1276690462
 20
1.62494651
 30
0.0
 11
8.6469917714
 21
1.7841173126
 31
0.0
 11
8.8273859203
 21
1.744745473
 31
0.0
 11
8.991838141
 21
1.6982506871
 31
0.0
 11
9.053780273
 21
1.6756569016
 31
0.0
 11
9.0975390749
 21
1.6552870746
 31
0.0
 11
9.1119978122
 21
1.6463144464
 31
0.0
 11
9.1216259453
 21
1.6382515283
 31
0.0
 11
9.1276690462
 21
1.62494651
 31
0.0
  0
SPLINE
  5
6A8
100
AcDbEntity
  8
0
100
AcDbSpline
 62
253
  6
CONTINUOUS
 70
0
 71
3
 72
14
 73
10
 74
8
 42
0.0000001
 43
0.0000001
 44
0.0000000001
 12
0.5126852896
 22
0.0023900613
 32
0.0
 13
0.0024303996
 23
-0.5126850999
 33
0.0
 40
0.0
 40
0.0
 40
0.0
 40
0.0
 40
0.3580475955
 40
0.6897785762
 40
0.8181142544
 40
0.9123061186
 40
0.9456803066
 40
0.9704681685
 40
1.0
 40
1.0
 40
1.0
 40
1.0
 10
8.6910570822
 20
2.3719360536
 30
0.0
 10
8.7522456606
 20
2.3722213055
 30
0.0
 10
8.8701380725
 20
2.3697534048
 30
0.0
 10
9.0097282333
 20
2.3594386112
 30
0.0
 10
9.1033833365
 20
2.3445657921
 30
0.0
 10
9.1459458646
 20
2.334628261
 30
0.0
 10
9.170492136
 20
2.3251237849
 30
0.0
 10
9.1833333888
 20
2.318312623
 30
0.0
 10
9.1910259511
 20
2.3104074907
 30
0.0
 10
9.1910498758
 20
2.3053606474
 30
0.0
 11
8.6910570822
 21
2.3719360536
 31
0.0
 11
8.8745821994
 21
2.3679809512
 31
0.0
 11
9.044037596
 21
2.3534714883
 31
0.0
 11
9.1089566096
 21
2.342761449
 31
0.0
 11
9.15569892
 21
2.3306285667
 31
0.0
 11
9.1715943636
 21
2.3242954067
 31
0.0
 11
9.1825842373
 21
2.3179134862
 31
0.0
 11
9.1910498758
 21
2.3053606474
 31
0.0
  0
SPLINE
  5
6A9
100
AcDbEntity
  8
0
100
AcDbSpline
 62
7
  6
CONTINUOUS
 70
0
 71
3
 72
18
 73
14
 74
12
 42
0.0000001
 43
0.0000001
 44
0.0000000001
 12
-0.3159894372
 22
-0.2744112918
 32
0.0
 13
-0.0013161379
 23
-0.4185082427
 33
0.0
 40
0.0
 40
0.0
 40
0.0
 40
0.0
 40
0.0064042952
 40
0.0217080782
 40
0.0458688028
 40
0.0787338982
 40
0.1200155885
 40
0.1693722208
 40
0.290813822
 40
0.4393178218
 40
0.6105267294
 40
0.7994830078
 40
1.0
 40
1.0
 40
1.0
 40
1.0
 10
3.75
 20
5.786901005
 30
0.0
 10
3.7493254368
 20
5.7863152013
 30
0.0
 10
3.7492523152
 20
5.7828558576
 30
0.0
 10
3.748191644
 20
5.7768871237
 30
0.0
 10
3.7477099819
 20
5.7666099339
 30
0.0
 10
3.7469252544
 20
5.7530018737
 30
0.0
 10
3.7462774367
 20
5.7357526336
 30
0.0
 10
3.7453172515
 20
5.7061968853
 30
0.0
 10
3.7442887896
 20
5.6616549817
 30
0.0
 10
3.7432511208
 20
5.6001248054
 30
0.0
 10
3.7424095936
 20
5.529167145
 30
0.0
 10
3.7417839276
 20
5.4509528222
 30
0.0
 10
3.7415305129
 20
5.3966203424
 30
0.0
 10
3.7414425436
 20
5.368647671
 30
0.0
 11
3.75
 21
5.786901005
 31
0.0
 11
3.7492449662
 21
5.7843292863
 31
0.0
 11
3.7484941637
 21
5.777968654
 31
0.0
 11
3.7477544027
 21
5.7678842385
 31
0.0
 11
3.7470323099
 21
5.7541488248
 31
0.0
 11
3.7463332899
 21
5.7368861587
 31
0.0
 11
3.7456622484
 21
5.7162408017
 31
0.0
 11
3.7444234223
 21
5.6654313395
 31
0.0
 11
3.7433526597
 21
5.6032901087
 31
0.0
 11
3.7424827783
 21
5.5316426958
 31
0.0
 11
3.7418394786
 21
5.4525651613
 31
0.0
 11
3.7414425436
 21
5.368647671
 31
0.0
  0
LINE
  5
6AA
100
AcDbEntity
  8
0
100
AcDbLine
 62
7
  6
CONTINUOUS
 10
3.7432512897
 20
5.9360397609
 11
3.7414425436
 21
5.368647671
  0
LINE
  5
6AB
100
AcDbEntity
  8
0
100
AcDbLine
 62
7
  6
CONTINUOUS
 10
3.7400156364
 20
-0.7113400444
 11
3.7400223395
 21
-1.2283340828
  0
SPLINE
  5
6AC
100
AcDbEntity
  8
0
100
AcDbSpline
 62
253
  6
CONTINUOUS
 70
0
 71
3
 72
16
 73
12
 74
10
 42
0.0000001
 43
0.0000001
 44
0.0000000001
 12
1.0104744654
 22
-0.0176378974
 32
0.0
 13
-0.0175039581
 23
-1.0104767945
 33
0.0
 40
0.0
 40
0.0
 40
0.0
 40
0.0
 40
0.009686171
 40
0.02618279
 40
0.0846674277
 40
0.1771353577
 40
0.3006603848
 40
0.4507495954
 40
0.6217046068
 40
0.8072297819
 40
1.0
 40
1.0
 40
1.0
 40
1.0
 10
7.5174524064
 20
18.8496953671
 30
0.0
 10
7.5207149493
 20
18.8496384192
 30
0.0
 10
7.5284833648
 20
18.8433083491
 30
0.0
 10
7.540052743
 20
18.8175424746
 30
0.0
 10
7.5527221245
 20
18.7618426134
 30
0.0
 10
7.5648886749
 20
18.6704399217
 30
0.0
 10
7.575276384
 20
18.5473949671
 30
0.0
 10
7.5830308389
 20
18.3978589711
 30
0.0
 10
7.5878359801
 20
18.2272475845
 30
0.0
 10
7.589412568
 20
18.0422196726
 30
0.0
 10
7.58828049
 20
17.914777616
 30
0.0
 10
7.5871557427
 20
17.849847672
 30
0.0
 11
7.5174524064
 21
18.8496953671
 31
0.0
 11
7.5258891801
 21
18.8447307212
 31
0.0
 11
7.5340939552
 21
18.8302174297
 31
0.0
 11
7.5494408928
 21
18.7731383745
 31
0.0
 11
7.5628805995
 21
18.6806591311
 31
0.0
 11
7.5739129394
 21
18.5563096698
 31
0.0
 11
7.5821085661
 21
18.4048468225
 31
0.0
 11
7.5871554317
 21
18.2321485629
 31
0.0
 11
7.5888583194
 21
18.0446592871
 31
0.0
 11
7.5871557427
 21
17.849847672
 31
0.0
  0
SPLINE
  5
6AD
100
AcDbEntity
  8
0
100
AcDbSpline
 62
7
  6
CONTINUOUS
 70
0
 71
3
 72
10
 73
6
 74
4
 42
0.0000001
 43
0.0000001
 44
0.0000000001
 12
-0.0000000002
 22
-0.0462016047
 32
0.0
 13
-0.0454926684
 23
-0.0080625924
 33
0.0
 40
0.0
 40
0.0
 40
0.0
 40
0.0
 40
0.1028267991
 40
0.2952234399
 40
1.0
 40
1.0
 40
1.0
 40
1.0
 10
4.6000004732
 20
-13.93150348
 30
0.0
 10
4.6000004732
 20
-13.9330870677
 30
0.0
 10
4.5962227984
 20
-13.936828872
 30
0.0
 10
4.5822337954
 20
-13.9421443924
 30
0.0
 10
4.5683704364
 20
-13.9450597858
 30
0.0
 10
4.5576830476
 20
-13.9469538945
 30
0.0
 11
4.6000004732
 21
-13.93150348
 31
0.0
 11
4.5973262052
 21
-13.9354300613
 31
0.0
 11
4.5893411068
 21
-13.9393355859
 31
0.0
 11
4.5576830476
 21
-13.9469538945
 31
0.0
  0
SPLINE
  5
6AE
100
AcDbEntity
  8
0
100
AcDbSpline
 62
7
  6
CONTINUOUS
 70
0
 71
3
 72
11
 73
7
 74
5
 42
0.0000001
 43
0.0000001
 44
0.0000000001
 12
-0.6593031383
 22
-0.1168472338
 32
0.0
 13
-0.6695738485
 23
-0.0021830338
 33
0.0
 40
0.0
 40
0.0
 40
0.0
 40
0.0
 40
0.1546563615
 40
0.3868889774
 40
0.6769460929
 40
1.0
 40
1.0
 40
1.0
 40
1.0
 10
4.5576830476
 20
-13.9469538945
 30
0.0
 10
4.5236945728
 20
-13.9529776172
 30
0.0
 10
4.4375861812
 20
-13.9612455352
 30
0.0
 10
4.286814818
 20
-13.9702708894
 30
0.0
 10
4.0981875718
 20
-13.9761858332
 30
0.0
 10
3.9613552563
 20
-13.9778626045
 30
0.0
 10
3.8892524404
 20
-13.9780976837
 30
0.0
 11
4.5576830476
 21
-13.9469538945
 31
0.0
 11
4.4548423423
 21
-13.9590907903
 31
0.0
 11
4.2996509141
 21
-13.9688457524
 31
0.0
 11
4.10554484
 21
-13.9753700743
 31
0.0
 11
3.8892524404
 21
-13.9780976837
 31
0.0
  0
SPLINE
  5
6AF
100
AcDbEntity
  8
0
100
AcDbSpline
 62
253
  6
CONTINUOUS
 70
0
 71
3
 72
14
 73
10
 74
8
 42
0.0000001
 43
0.0000001
 44
0.0000000001
 12
0.7083845081
 22
-0.001667121
 32
0.0
 13
0.6526243321
 23
-0.2754866092
 33
0.0
 40
0.0
 40
0.0
 40
0.0
 40
0.0
 40
0.3643958307
 40
0.5295482737
 40
0.6763508532
 40
0.8001730767
 40
0.8971740478
 40
0.9643986055
 40
1.0
 40
1.0
 40
1.0
 40
1.0
 10
3.8892524404
 20
-12.0261982754
 30
0.0
 10
3.9752965609
 20
-12.0264007727
 30
0.0
 10
4.1003437887
 20
-12.0274945225
 30
0.0
 10
4.2600041302
 20
-12.0310180496
 30
0.0
 10
4.3628744263
 20
-12.0342929154
 30
0.0
 10
4.4495319492
 20
-12.0383543784
 30
0.0
 10
4.5175737725
 20
-12.0424918738
 30
0.0
 10
4.5641955576
 20
-12.0477183852
 30
0.0
 10
4.58867911
 20
-12.0508376233
 30
0.0
 10
4.5964238888
 20
-12.0541068591
 30
0.0
 11
3.8892524404
 21
-12.0261982754
 31
0.0
 11
4.1473734472
 21
-12.0286944501
 31
0.0
 11
4.2643358453
 21
-12.0313152133
 31
0.0
 11
4.368272168
 21
-12.0347469461
 31
0.0
 11
4.4558886835
 21
-12.0388809346
 31
0.0
 11
4.524440956
 21
-12.0435951526
 31
0.0
 11
4.5717843616
 21
-12.0487292008
 31
0.0
 11
4.5964238888
 21
-12.0541068591
 31
0.0
  0
SPLINE
  5
6B0
100
AcDbEntity
  8
0
100
AcDbSpline
 62
253
  6
CONTINUOUS
 70
0
 71
3
 72
9
 73
5
 74
3
 42
0.0000001
 43
0.0000001
 44
0.0000000001
 12
0.0040679446
 22
-0.0017171659
 32
0.0
 13
0.001383189
 23
-0.0041932828
 33
0.0
 40
0.0
 40
0.0
 40
0.0
 40
0.0
 40
0.3429546109
 40
1.0
 40
1.0
 40
1.0
 40
1.0
 10
4.5964238888
 20
-12.0541068591
 30
0.0
 10
4.5968889289
 20
-12.0543031625
 30
0.0
 10
4.598179611
 20
-12.0549152784
 30
0.0
 10
4.5996252108
 20
-12.0558003198
 30
0.0
 10
4.5999281501
 20
-12.0567187121
 30
0.0
 11
4.5964238888
 21
-12.0541068591
 31
0.0
 11
4.5977924408
 21
-12.0547551193
 31
0.0
 11
4.5999281501
 21
-12.0567187121
 31
0.0
  0
LINE
  5
6B1
100
AcDbEntity
  8
0
100
AcDbLine
 62
253
  6
CONTINUOUS
 10
3.8892521462
 20
-12.7782390543
 11
3.8892521461
 21
-12.0289280355
  0
SPLINE
  5
6B2
100
AcDbEntity
  8
0
100
AcDbSpline
 62
7
  6
CONTINUOUS
 70
0
 71
3
 72
21
 73
17
 74
15
 42
0.0000001
 43
0.0000001
 44
0.0000000001
 12
-0.6806727249
 22
-0.4401154019
 32
0.0
 13
-0.5631852993
 23
0.5829573261
 33
0.0
 40
0.0
 40
0.0
 40
0.0
 40
0.0
 40
0.0014193811
 40
0.0052139298
 40
0.0114142339
 40
0.0200112865
 40
0.0443328819
 40
0.0779278522
 40
0.1204151152
 40
0.171384465
 40
0.2302863972
 40
0.2965171848
 40
0.4482389507
 40
0.6204475339
 40
0.8067363002
 40
1.0
 40
1.0
 40
1.0
 40
1.0
 10
7.1696226328
 20
0.0789702458
 30
0.0
 10
7.1693005882
 20
0.0787620153
 30
0.0
 10
7.1679248415
 20
0.0801307348
 30
0.0
 10
7.1657192805
 20
0.0815591674
 30
0.0
 10
7.1618628003
 20
0.08518354
 30
0.0
 10
7.1541615183
 20
0.0921866124
 30
0.0
 10
7.1411555605
 20
0.1047628568
 30
0.0
 10
7.1217968267
 20
0.1236857808
 30
0.0
 10
7.0974242765
 20
0.147891124
 30
0.0
 10
7.068334037
 20
0.1770069352
 30
0.0
 10
7.0348129373
 20
0.2107784559
 30
0.0
 10
6.9822460304
 20
0.2639954657
 30
0.0
 10
6.9083938407
 20
0.3392204153
 30
0.0
 10
6.8120902638
 20
0.4378596602
 30
0.0
 10
6.7081909575
 20
0.5447694378
 30
0.0
 10
6.636867456
 20
0.6184554376
 30
0.0
 10
6.6005863645
 20
0.6560102675
 30
0.0
 11
7.1696226328
 21
0.0789702458
 31
0.0
 11
7.1685788443
 21
0.0794541465
 31
0.0
 11
7.1661636872
 21
0.0813586517
 31
0.0
 11
7.1623873869
 21
0.0846749394
 31
0.0
 11
7.1572601687
 21
0.0893941876
 31
0.0
 11
7.1429967388
 21
0.103003242
 31
0.0
 11
7.1235258283
 21
0.1220402432
 31
0.0
 11
7.0990687792
 21
0.1462864464
 31
0.0
 11
7.069862397
 21
0.1755068986
 31
0.0
 11
7.0362212529
 21
0.2093853971
 31
0.0
 11
6.9984901566
 21
0.2475741446
 31
0.0
 11
6.9123098723
 21
0.3353075813
 31
0.0
 11
6.8147846652
 21
0.4351734613
 31
0.0
 11
6.7095400449
 21
0.5434525437
 31
0.0
 11
6.6005863645
 21
0.6560102675
 31
0.0
  0
SPLINE
  5
6B3
100
AcDbEntity
  8
0
100
AcDbSpline
 62
7
  6
CONTINUOUS
 70
0
 71
3
 72
19
 73
15
 74
13
 42
0.0000001
 43
0.0000001
 44
0.0000000001
 12
0.0
 22
-0.5419845797
 32
0.0
 13
-0.5415455134
 23
-0.0218115011
 33
0.0
 40
0.0
 40
0.0
 40
0.0
 40
0.0
 40
0.1955509202
 40
0.3835222819
 40
0.5562242455
 40
0.7073895226
 40
0.7731310473
 40
0.8314257151
 40
0.8817089915
 40
0.9235566161
 40
0.9565566358
 40
0.9803653148
 40
0.9948399904
 40
1.0
 40
1.0
 40
1.0
 40
1.0
 10
-3.7403998289
 20
-11.0333888507
 30
0.0
 10
-3.7403998289
 20
-11.0687173784
 30
0.0
 10
-3.7405163947
 20
-11.1380050358
 30
0.0
 10
-3.7410322516
 20
-11.2384927639
 30
0.0
 10
-3.7418723881
 20
-11.330957117
 30
0.0
 10
-3.7428452511
 20
-11.4013424202
 30
0.0
 10
-3.7437944536
 20
-11.4510444386
 30
0.0
 10
-3.7445178761
 20
-11.4825469719
 30
0.0
 10
-3.7453202935
 20
-11.5096577052
 30
0.0
 10
-3.7460684178
 20
-11.5324036888
 30
0.0
 10
-3.747080785
 20
-11.5498053352
 30
0.0
 10
-3.7475195168
 20
-11.5635812688
 30
0.0
 10
-3.7490264721
 20
-11.5697386554
 30
0.0
 10
-3.7489184882
 20
-11.5750132581
 30
0.0
 10
-3.7498499482
 20
-11.575050774
 30
0.0
 11
-3.7403998289
 21
-11.0333888507
 31
0.0
 11
-3.7405808653
 21
-11.1393742793
 31
0.0
 11
-3.7411163579
 21
-11.2412504515
 31
0.0
 11
-3.741986535
 21
-11.3348482077
 31
0.0
 11
-3.7431588586
 21
-11.4167690691
 31
0.0
 11
-3.7438445597
 21
-11.4523933631
 31
0.0
 11
-3.7445881905
 21
-11.4839794217
 31
0.0
 11
-3.7453829771
 21
-11.5112205903
 31
0.0
 11
-3.7462215212
 21
-11.5338858511
 31
0.0
 11
-3.7470963767
 21
-11.5517499436
 31
0.0
 11
-3.747999448
 21
-11.5646222413
 31
0.0
 11
-3.7489207483
 21
-11.5724130071
 31
0.0
 11
-3.7498499482
 21
-11.575050774
 31
0.0
  0
SPLINE
  5
6B4
100
AcDbEntity
  8
0
100
AcDbSpline
 62
7
  6
CONTINUOUS
 70
0
 71
3
 72
18
 73
14
 74
12
 42
0.0000001
 43
0.0000001
 44
0.0000000001
 12
0.4217277346
 22
-0.3662364587
 32
0.0
 13
0.0
 23
-0.5585547653
 33
0.0
 40
0.0
 40
0.0
 40
0.0
 40
0.0
 40
0.0064478288
 40
0.0221949252
 40
0.0471995873
 40
0.0812449496
 40
0.1239393694
 40
0.1748670302
 40
0.2994624911
 40
0.4505375927
 40
0.622103697
 40
0.8077096676
 40
1.0
 40
1.0
 40
1.0
 40
1.0
 10
-3.75
 20
-10.4751150709
 30
0.0
 10
-3.7490935906
 20
-10.4759022143
 30
0.0
 10
-3.7491416821
 20
-10.4806647413
 30
0.0
 10
-3.7477028063
 20
-10.4888391373
 30
0.0
 10
-3.7471794691
 20
-10.5030470755
 30
0.0
 10
-3.7461869836
 20
-10.5218413155
 30
0.0
 10
-3.7454104545
 20
-10.5456456254
 30
0.0
 10
-3.7442528652
 20
-10.5862366809
 30
0.0
 10
-3.7430528322
 20
-10.6470468299
 30
0.0
 10
-3.7419031252
 20
-10.7303023771
 30
0.0
 10
-3.7410497783
 20
-10.8249286178
 30
0.0
 10
-3.7405197649
 20
-10.9272285009
 30
0.0
 10
-3.7403998289
 20
-10.9975872902
 30
0.0
 10
-3.7403998289
 20
-11.0333888507
 30
0.0
 11
-3.75
 21
-10.4751150709
 31
0.0
 11
-3.749060371
 21
-10.4785918009
 31
0.0
 11
-3.748127946
 21
-10.4873378537
 31
0.0
 11
-3.7472135232
 21
-10.5012743598
 31
0.0
 11
-3.7463268186
 21
-10.5202698749
 31
0.0
 11
-3.7454756741
 21
-10.5441018523
 31
0.0
 11
-3.7446677462
 21
-10.5725362642
 31
0.0
 11
-3.743212278
 21
-10.6421144312
 31
0.0
 11
-3.7420188796
 21
-10.7264897098
 31
0.0
 11
-3.7411322254
 21
-10.822314673
 31
0.0
 11
-3.7405852146
 21
-10.9259843292
 31
0.0
 11
-3.7403998289
 21
-11.0333888507
 31
0.0
  0
SPLINE
  5
6B5
100
AcDbEntity
  8
0
100
AcDbSpline
 62
7
  6
CONTINUOUS
 70
0
 71
3
 72
13
 73
9
 74
7
 42
0.0000001
 43
0.0000001
 44
0.0000000001
 12
3.0775167785
 22
0.0
 32
0.0
 13
0.0528282558
 23
-3.0770633236
 33
0.0
 40
0.0
 40
0.0
 40
0.0
 40
0.0
 40
0.2507643879
 40
0.500658585
 40
0.6257676285
 40
0.7506387019
 40
0.875347345
 40
1.0
 40
1.0
 40
1.0
 40
1.0
 10
0.0
 20
5.4094227569
 30
0.0
 10
0.2572438704
 20
5.4094227569
 30
0.0
 10
0.7760467517
 20
5.309719141
 30
0.0
 10
1.3280544463
 20
4.9500680535
 30
0.0
 10
1.6612427769
 20
4.5566185634
 30
0.0
 10
1.84943288
 20
4.2185225827
 30
0.0
 10
1.9679033375
 20
3.8508968867
 30
0.0
 10
1.9975174372
 20
3.5948490608
 30
0.0
 10
1.999712498
 20
3.4669943565
 30
0.0
 11
0.0
 21
5.4094227569
 31
0.0
 11
0.7575919957
 21
5.2623715821
 31
0.0
 11
1.4022309726
 21
4.8429863118
 31
0.0
 11
1.6511147117
 21
4.549215527
 31
0.0
 11
1.8379133932
 21
4.2133774307
 31
0.0
 11
1.9555840192
 21
3.8480684579
 31
0.0
 11
1.999712498
 21
3.4669943565
 31
0.0
  0
LINE
  5
6B6
100
AcDbEntity
  8
0
100
AcDbLine
 62
7
  6
CONTINUOUS
 10
-3.7334430862
 20
-11.039430221
 11
-3.7334573983
 21
-10.9999910616
  0
SPLINE
  5
6B7
100
AcDbEntity
  8
0
100
AcDbSpline
 62
7
  6
CONTINUOUS
 70
0
 71
3
 72
8
 73
4
 74
2
 42
0.0000001
 43
0.0000001
 44
0.0000000001
 12
0.0000662893
 22
0.2861372747
 32
0.0
 13
-0.0047171661
 23
0.2860983969
 33
0.0
 40
0.0
 40
0.0
 40
0.0
 40
0.0
 40
1.0
 40
1.0
 40
1.0
 40
1.0
 10
3.8000021115
 20
-12.4054442735
 30
0.0
 10
3.8000242079
 20
-12.3100651819
 30
0.0
 10
3.8005175213
 20
-12.2146750756
 30
0.0
 10
3.7989451326
 20
-12.1193089433
 30
0.0
 11
3.8000021115
 21
-12.4054442735
 31
0.0
 11
3.7989451326
 21
-12.1193089433
 31
0.0
  0
SPLINE
  5
6B8
100
AcDbEntity
  8
0
100
AcDbSpline
 62
7
  6
CONTINUOUS
 70
0
 71
3
 72
13
 73
9
 74
7
 42
0.0000001
 43
0.0000001
 44
0.0000000001
 12
-0.0777692728
 22
0.3657282335
 32
0.0
 13
-0.0141338437
 23
0.373638107
 33
0.0
 40
0.0
 40
0.0
 40
0.0
 40
0.0
 40
0.2469588068
 40
0.3726108235
 40
0.4977248984
 40
0.6228762588
 40
0.7484012847
 40
1.0
 40
1.0
 40
1.0
 40
1.0
 10
3.8000004741
 20
-12.779283038
 30
0.0
 10
3.7935985385
 20
-12.7491764352
 30
0.0
 10
3.7981877071
 20
-12.701878488
 30
0.0
 10
3.8014377185
 20
-12.6401351267
 30
0.0
 10
3.8008029092
 20
-12.5932225552
 30
0.0
 10
3.7997693344
 20
-12.5464094456
 30
0.0
 10
3.8003553165
 20
-12.4838071389
 30
0.0
 10
3.8011874638
 20
-12.436779896
 30
0.0
 10
3.8000021115
 20
-12.4054442735
 30
0.0
 11
3.8000004741
 21
-12.779283038
 31
0.0
 11
3.7987346194
 21
-12.6869524993
 31
0.0
 11
3.8009237925
 21
-12.6400215708
 31
0.0
 11
3.8007365647
 21
-12.5932411252
 31
0.0
 11
3.8000151093
 21
-12.5464519255
 31
0.0
 11
3.8002516801
 21
-12.4995180447
 31
0.0
 11
3.8000021115
 21
-12.4054442735
 31
0.0
  0
LINE
  5
6B9
100
AcDbEntity
  8
0
100
AcDbLine
 62
7
  6
CONTINUOUS
 10
3.800000475
 20
-13.9915155979
 11
3.800000475
 21
-13.9783886748
  0
SPLINE
  5
6BA
100
AcDbEntity
  8
0
100
AcDbSpline
 62
7
  6
CONTINUOUS
 70
0
 71
3
 72
11
 73
7
 74
5
 42
0.0000001
 43
0.0000001
 44
0.0000000001
 12
-0.0278316026
 22
-0.0195365488
 32
0.0
 13
-0.0277479161
 23
-0.0196552281
 33
0.0
 40
0.0
 40
0.0
 40
0.0
 40
0.0
 40
0.2529479174
 40
0.4384269914
 40
0.6268945204
 40
1.0
 40
1.0
 40
1.0
 40
1.0
 10
0.6961109283
 20
-13.7465719425
 30
0.0
 10
0.6937642797
 20
-13.7482191856
 30
0.0
 10
0.6895156462
 20
-13.7510546176
 30
0.0
 10
0.6823246417
 20
-13.7519987974
 30
0.0
 10
0.6738090987
 20
-13.7507962858
 30
0.0
 10
0.6678010107
 20
-13.7542613005
 30
0.0
 10
0.6643500441
 20
-13.7567057916
 30
0.0
 11
0.6961109283
 21
-13.7465719425
 31
0.0
 11
0.6886020329
 21
-13.7507669415
 31
0.0
 11
0.6823655434
 21
-13.751707648
 31
0.0
 11
0.6759580484
 21
-13.751585577
 31
0.0
 11
0.6643500441
 21
-13.7567057916
 31
0.0
  0
LINE
  5
6BB
100
AcDbEntity
  8
0
100
AcDbLine
 62
7
  6
CONTINUOUS
 10
3.800000475
 20
-13.9783886748
 11
3.800000475
 21
-13.6888813767
  0
SPLINE
  5
6BC
100
AcDbEntity
  8
0
100
AcDbSpline
 62
253
  6
CONTINUOUS
 70
0
 71
3
 72
16
 73
12
 74
10
 42
0.0000001
 43
0.0000001
 44
0.0000000001
 12
-1.012151863
 22
0.0
 32
0.0
 13
0.0
 23
1.012151863
 33
0.0
 40
0.0
 40
0.0
 40
0.0
 40
0.0
 40
0.0096843128
 40
0.0261843901
 40
0.084688527
 40
0.1771863553
 40
0.3007431694
 40
0.4508555202
 40
0.62181285
 40
0.8073070157
 40
1.0
 40
1.0
 40
1.0
 40
1.0
 10
-7.5
 20
16.8325
 30
0.0
 10
-7.5032673317
 20
16.8325
 30
0.0
 10
-7.5111550511
 20
16.8387081576
 30
0.0
 10
-7.523183107
 20
16.8643158661
 30
0.0
 10
-7.5368373192
 20
16.9198907641
 30
0.0
 10
-7.5506076563
 20
17.011233185
 30
0.0
 10
-7.56314819
 20
17.1342935029
 30
0.0
 10
-7.5735114259
 20
17.2839169138
 30
0.0
 10
-7.5812866154
 20
17.4546744705
 30
0.0
 10
-7.5860777121
 20
17.6398903355
 30
0.0
 10
-7.5871557427
 20
17.767488479
 30
0.0
 10
-7.5871557427
 20
17.8325
 30
0.0
 11
-7.5
 21
16.8325
 31
0.0
 11
-7.5085316355
 21
16.8373260032
 31
0.0
 11
-7.5169977551
 21
16.8517216387
 31
0.0
 11
-7.5333553831
 21
16.9086325574
 31
0.0
 11
-7.5484200153
 21
17.0010344378
 31
0.0
 11
-7.5616284167
 21
17.1253932188
 31
0.0
 11
-7.5724669986
 21
17.2769426293
 31
0.0
 11
-7.5805203532
 21
17.4497898986
 31
0.0
 11
-7.5854804665
 21
17.6374726321
 31
0.0
 11
-7.5871557427
 21
17.8325
 31
0.0
  0
LINE
  5
6BD
100
AcDbEntity
  8
0
100
AcDbLine
 62
7
  6
CONTINUOUS
 10
-3.8000004744
 20
-3.4446063133
 11
-3.750000023
 21
-3.4450385914
  0
SPLINE
  5
6BE
100
AcDbEntity
  8
0
100
AcDbSpline
 62
7
  6
CONTINUOUS
 70
0
 71
3
 72
17
 73
13
 74
11
 42
0.0000001
 43
0.0000001
 44
0.0000000001
 12
0.7318955635
 22
-0.0641095042
 32
0.0
 13
0.0
 23
-0.7346979953
 33
0.0
 40
0.0
 40
0.0
 40
0.0
 40
0.0
 40
0.2004902327
 40
0.3922674679
 40
0.5668593043
 40
0.7172778192
 40
0.8379362398
 40
0.9255148153
 40
0.9564688129
 40
0.9788527045
 40
0.9929866264
 40
1.0
 40
1.0
 40
1.0
 40
1.0
 10
3.875630903
 20
6.4312566708
 30
0.0
 10
3.9245435403
 20
6.4269722276
 30
0.0
 10
4.0201984043
 20
6.4180751708
 30
0.0
 10
4.1582782212
 20
6.4036726957
 30
0.0
 10
4.2839756899
 20
6.3889430502
 30
0.0
 10
4.3921928962
 20
6.3745356648
 30
0.0
 10
4.4789391411
 20
6.3610729685
 30
0.0
 10
4.5366302972
 20
6.3501215668
 30
0.0
 10
4.5700082471
 20
6.341946292
 30
0.0
 10
4.5860028333
 20
6.3367511638
 30
0.0
 10
4.5953643403
 20
6.3328677075
 30
0.0
 10
4.600000476
 20
6.3288614604
 30
0.0
 10
4.600000476
 20
6.3271438899
 30
0.0
 11
3.875630903
 21
6.4312566708
 31
0.0
 11
4.0222960599
 21
6.4175981717
 31
0.0
 11
4.1624283341
 21
6.4029253791
 31
0.0
 11
4.2898170001
 21
6.3878952898
 31
0.0
 11
4.3993395493
 21
6.3731388184
 31
0.0
 11
4.4868930024
 21
6.3592545804
 31
0.0
 11
4.5500075891
 21
6.3467376302
 31
0.0
 11
4.5720416485
 21
6.341108109
 31
0.0
 11
4.5876566476
 21
6.3359483615
 31
0.0
 11
4.5969351001
 21
6.3312856174
 31
0.0
 11
4.600000476
 21
6.3271438899
 31
0.0
  0
LINE
  5
6BF
100
AcDbEntity
  8
0
100
AcDbLine
 62
7
  6
CONTINUOUS
 10
0.1906707579
 20
-14.1118970415
 11
0.2070827145
 21
-14.0898301002
  0
SPLINE
  5
6C0
100
AcDbEntity
  8
0
100
AcDbSpline
 62
7
  6
CONTINUOUS
 70
0
 71
3
 72
16
 73
12
 74
10
 42
0.0000001
 43
0.0000001
 44
0.0000000001
 12
-0.6517541821
 22
-0.2484169281
 32
0.0
 13
-0.6189343115
 23
-0.3215817192
 33
0.0
 40
0.0
 40
0.0
 40
0.0
 40
0.0
 40
0.2498906205
 40
0.3749385959
 40
0.4999104812
 40
0.6248831323
 40
0.6873683136
 40
0.7498291801
 40
0.812508931
 40
0.8753446564
 40
1.0
 40
1.0
 40
1.0
 40
1.0
 10
0.6643500441
 20
-13.7567057916
 30
0.0
 10
0.6100609585
 20
-13.7773981451
 30
0.0
 10
0.5266310853
 20
-13.8030716597
 30
0.0
 10
0.4150998198
 20
-13.8356999175
 30
0.0
 10
0.3319279087
 20
-13.861875929
 30
0.0
 10
0.2626548688
 20
-13.8837186925
 30
0.0
 10
0.2071017605
 20
-13.9007690197
 30
0.0
 10
0.1658601728
 20
-13.9149993026
 30
0.0
 10
0.123832982
 20
-13.9271077238
 30
0.0
 10
0.067581425
 20
-13.9415752823
 30
0.0
 10
0.0257178231
 20
-13.9551984681
 30
0.0
 10
0.0
 20
-13.9685607613
 30
0.0
 11
0.6643500441
 21
-13.7567057916
 31
0.0
 11
0.4987539271
 21
-13.8110862186
 31
0.0
 11
0.4151645428
 21
-13.835988572
 31
0.0
 11
0.3319326149
 21
-13.8618826537
 31
0.0
 11
0.2487531718
 21
-13.8879466259
 31
0.0
 11
0.2071737606
 21
-13.9010088078
 31
0.0
 11
0.1657907724
 21
-13.9146263822
 31
0.0
 11
0.1238279278
 21
-13.9268915951
 31
0.0
 11
0.0815147762
 21
-13.938312505
 31
0.0
 11
0.0
 21
-13.9685607613
 31
0.0
  0
LINE
  5
6C1
100
AcDbEntity
  8
0
100
AcDbLine
 62
7
  6
CONTINUOUS
 10
-0.0000003752
 20
-14.5688698515
 11
0.0082339387
 21
-14.5687234752
  0
SPLINE
  5
6C2
100
AcDbEntity
  8
0
100
AcDbSpline
 62
7
  6
CONTINUOUS
 70
0
 71
3
 72
10
 73
6
 74
4
 42
0.0000001
 43
0.0000001
 44
0.0000000001
 12
0.0000000002
 22
-0.0462022481
 32
0.0
 13
0.0454933125
 23
-0.0080626452
 33
0.0
 40
0.0
 40
0.0
 40
0.0
 40
0.0
 40
0.102830374
 40
0.2952299111
 40
1.0
 40
1.0
 40
1.0
 40
1.0
 10
-4.6000004732
 20
-13.93150348
 30
0.0
 10
-4.6000004732
 20
-13.9330871448
 30
0.0
 10
-4.5962228677
 20
-13.9368291767
 30
0.0
 10
-4.5822340322
 20
-13.94214584
 30
0.0
 10
-4.5683704896
 20
-13.9450613172
 30
0.0
 10
-4.5576830476
 20
-13.9469554209
 30
0.0
 11
-4.6000004732
 21
-13.93150348
 31
0.0
 11
-4.5973262052
 21
-13.9354303412
 31
0.0
 11
-4.5893411068
 21
-13.939336452
 31
0.0
 11
-4.5576830476
 21
-13.9469554209
 31
0.0
  0
SPLINE
  5
6C3
100
AcDbEntity
  8
0
100
AcDbSpline
 62
7
  6
CONTINUOUS
 70
0
 71
3
 72
11
 73
7
 74
5
 42
0.0000001
 43
0.0000001
 44
0.0000000001
 12
0.6593031301
 22
-0.1168463438
 32
0.0
 13
0.6695736851
 23
-0.0021830333
 33
0.0
 40
0.0
 40
0.0
 40
0.0
 40
0.0
 40
0.154656237
 40
0.3868888256
 40
0.6769460064
 40
1.0
 40
1.0
 40
1.0
 40
1.0
 10
-4.5576830476
 20
-13.9469554209
 30
0.0
 10
-4.5236946005
 20
-13.9529790928
 30
0.0
 10
-4.4375861071
 20
-13.9612457353
 30
0.0
 10
-4.2868148021
 20
-13.9702704596
 30
0.0
 10
-4.098187565
 20
-13.9761852763
 30
0.0
 10
-3.9613552581
 20
-13.9778626045
 30
0.0
 10
-3.8892524404
 20
-13.9780976837
 30
0.0
 11
-4.5576830476
 21
-13.9469554209
 31
0.0
 11
-4.4548423423
 21
-13.95909139
 31
0.0
 11
-4.2996509141
 21
-13.9688454556
 31
0.0
 11
-4.10554484
 21
-13.9753696675
 31
0.0
 11
-3.8892524404
 21
-13.9780976837
 31
0.0
  0
SPLINE
  5
6C4
100
AcDbEntity
  8
0
100
AcDbSpline
 62
7
  6
CONTINUOUS
 70
0
 71
3
 72
19
 73
15
 74
13
 42
0.0000001
 43
0.0000001
 44
0.0000000001
 12
0.0
 22
1.3534917696
 32
0.0
 13
0.9552370444
 23
0.9588858948
 33
0.0
 40
0.0
 40
0.0
 40
0.0
 40
0.0
 40
0.0049635678
 40
0.01287936
 40
0.0375711393
 40
0.0731417362
 40
0.1180946624
 40
0.1709130264
 40
0.2302255809
 40
0.3638541745
 40
0.5118522697
 40
0.6693670289
 40
0.8329587123
 40
1.0
 40
1.0
 40
1.0
 40
1.0
 10
-7.5
 20
16.8363053019
 30
0.0
 10
-7.5
 20
16.8385446846
 30
0.0
 10
-7.4980624782
 20
16.8442070338
 30
0.0
 10
-7.4902778243
 20
16.8591645773
 30
0.0
 10
-7.4725246418
 20
16.884498129
 30
0.0
 10
-7.4434948436
 20
16.9219728576
 30
0.0
 10
-7.4050470362
 20
16.9682901825
 30
0.0
 10
-7.3587546979
 20
17.0219424444
 30
0.0
 10
-7.2851378501
 20
17.1048640515
 30
0.0
 10
-7.1812199005
 20
17.2182803124
 30
0.0
 10
-7.0454966932
 20
17.3626210852
 30
0.0
 10
-6.898994851
 20
17.5153665126
 30
0.0
 10
-6.7452540911
 20
17.6730623552
 30
0.0
 10
-6.6403437514
 20
17.7791088218
 30
0.0
 10
-6.5871557427
 20
17.8325
 30
0.0
 11
-7.5
 21
16.8363053019
 31
0.0
 11
-7.4983980201
 21
16.8428296544
 31
0.0
 11
-7.4936515468
 21
16.8524348572
 31
0.0
 11
-7.4752004568
 21
16.8802999196
 31
0.0
 11
-7.4458881713
 21
16.9184926385
 31
0.0
 11
-7.4071835435
 21
16.9654380644
 31
0.0
 11
-7.3605478573
 21
17.0196212858
 31
0.0
 11
-7.3073033559
 21
17.0797024779
 31
0.0
 11
-7.185329232
 21
17.2132484784
 31
0.0
 11
-7.0482059471
 21
17.3592723975
 31
0.0
 11
-6.9006882216
 21
17.5131899044
 31
0.0
 11
-6.7461499709
 21
17.6717608479
 31
0.0
 11
-6.5871557427
 21
17.8325
 31
0.0
  0
LINE
  5
6C5
100
AcDbEntity
  8
0
100
AcDbLine
 62
7
  6
CONTINUOUS
 10
-3.8000060386
 20
-14.5688926146
 11
-0.0082423171
 21
-14.5688698508
  0
SPLINE
  5
6C6
100
AcDbEntity
  8
0
100
AcDbSpline
 62
253
  6
CONTINUOUS
 70
0
 71
3
 72
13
 73
9
 74
7
 42
0.0000001
 43
0.0000001
 44
0.0000000001
 12
0.469415132
 22
-0.1923214331
 32
0.0
 13
-0.1887712399
 23
-0.4708540313
 33
0.0
 40
0.0
 40
0.0
 40
0.0
 40
0.0
 40
0.3630118367
 40
0.6963073515
 40
0.8240185971
 40
0.9170590084
 40
0.9732858847
 40
1.0
 40
1.0
 40
1.0
 40
1.0
 10
8.4926906021
 20
1.2059829832
 30
0.0
 10
8.5494916852
 20
1.182711331
 30
0.0
 10
8.6574386167
 20
1.1357968906
 30
0.0
 10
8.7826716341
 20
1.0738797029
 30
0.0
 10
8.8634956052
 20
1.0271580241
 30
0.0
 10
8.9024745898
 20
0.9998338535
 30
0.0
 10
8.9244594689
 20
0.9817607732
 30
0.0
 10
8.9322398337
 20
0.9669788173
 30
0.0
 10
8.9305588815
 20
0.9627860011
 30
0.0
 11
8.4926906021
 21
1.2059829832
 31
0.0
 11
8.6614683801
 21
1.1323252803
 31
0.0
 11
8.8124463226
 21
1.0562181496
 31
0.0
 11
8.8681728564
 21
1.0231760615
 31
0.0
 11
8.906738921
 21
0.9959674123
 31
0.0
 11
8.926960169
 21
0.9758511091
 31
0.0
 11
8.9305588815
 21
0.9627860011
 31
0.0
  0
SPLINE
  5
6C7
100
AcDbEntity
  8
0
100
AcDbSpline
 62
7
  6
CONTINUOUS
 70
0
 71
3
 72
15
 73
11
 74
9
 42
0.0000001
 43
0.0000001
 44
0.0000000001
 12
0.2054612974
 22
4.8096995694
 32
0.0
 13
-4.8140860288
 23
0.0
 33
0.0
 40
0.0
 40
0.0
 40
0.0
 40
0.0
 40
0.124506785
 40
0.2490025157
 40
0.3735970915
 40
0.4983860575
 40
0.623435212
 40
0.7487603147
 40
0.8743136671
 40
1.0
 40
1.0
 40
1.0
 40
1.0
 10
8.6828754488
 20
2.1357032448
 30
0.0
 10
8.6914025573
 20
2.3353166548
 30
0.0
 10
8.6683044681
 20
2.7373943635
 30
0.0
 10
8.5143924256
 20
3.3207796217
 30
0.0
 10
8.2471412192
 20
3.8624895716
 30
0.0
 10
7.8766104139
 20
4.3406319908
 30
0.0
 10
7.4169844455
 20
4.7357520397
 30
0.0
 10
6.8862006869
 20
5.0311270552
 30
0.0
 10
6.3060497545
 20
5.213851784
 30
0.0
 10
5.9016882735
 20
5.2550900312
 30
0.0
 10
5.7000000003
 20
5.2550900312
 30
0.0
 11
8.6828754488
 21
2.1357032448
 31
0.0
 11
8.648430601
 21
2.7340990818
 31
0.0
 11
8.4955899312
 21
3.3136160911
 31
0.0
 11
8.2301758985
 21
3.8515066338
 31
0.0
 11
7.8621857526
 21
4.3263514381
 31
0.0
 11
7.4056561275
 21
4.7187562751
 31
0.0
 11
6.8784650223
 21
5.0121358774
 31
0.0
 11
6.3019363379
 21
5.1936402045
 31
0.0
 11
5.7000000003
 21
5.2550900312
 31
0.0
  0
SPLINE
  5
6C8
100
AcDbEntity
  8
0
100
AcDbSpline
 62
7
  6
CONTINUOUS
 70
0
 71
3
 72
19
 73
15
 74
13
 42
0.0000001
 43
0.0000001
 44
0.0000000001
 12
0.0
 22
-1.3534917696
 32
0.0
 13
0.9552370444
 23
-0.9588858948
 33
0.0
 40
0.0
 40
0.0
 40
0.0
 40
0.0
 40
0.0049635678
 40
0.01287936
 40
0.0375711393
 40
0.0731417362
 40
0.1180946624
 40
0.1709130264
 40
0.2302255809
 40
0.3638541745
 40
0.5118522697
 40
0.6693670289
 40
0.8329587123
 40
1.0
 40
1.0
 40
1.0
 40
1.0
 10
-7.5
 20
-16.8363053019
 30
0.0
 10
-7.5
 20
-16.8385446846
 30
0.0
 10
-7.4980624782
 20
-16.8442070338
 30
0.0
 10
-7.4902778243
 20
-16.8591645773
 30
0.0
 10
-7.4725246418
 20
-16.884498129
 30
0.0
 10
-7.4434948436
 20
-16.9219728576
 30
0.0
 10
-7.4050470362
 20
-16.9682901825
 30
0.0
 10
-7.3587546979
 20
-17.0219424444
 30
0.0
 10
-7.2851378501
 20
-17.1048640515
 30
0.0
 10
-7.1812199005
 20
-17.2182803124
 30
0.0
 10
-7.0454966932
 20
-17.3626210852
 30
0.0
 10
-6.898994851
 20
-17.5153665126
 30
0.0
 10
-6.7452540911
 20
-17.6730623552
 30
0.0
 10
-6.6403437514
 20
-17.7791088218
 30
0.0
 10
-6.5871557427
 20
-17.8325
 30
0.0
 11
-7.5
 21
-16.8363053019
 31
0.0
 11
-7.4983980201
 21
-16.8428296544
 31
0.0
 11
-7.4936515468
 21
-16.8524348572
 31
0.0
 11
-7.4752004568
 21
-16.8802999196
 31
0.0
 11
-7.4458881713
 21
-16.9184926385
 31
0.0
 11
-7.4071835435
 21
-16.9654380644
 31
0.0
 11
-7.3605478573
 21
-17.0196212858
 31
0.0
 11
-7.3073033559
 21
-17.0797024779
 31
0.0
 11
-7.185329232
 21
-17.2132484784
 31
0.0
 11
-7.0482059471
 21
-17.3592723975
 31
0.0
 11
-6.9006882216
 21
-17.5131899044
 31
0.0
 11
-6.7461499709
 21
-17.6717608479
 31
0.0
 11
-6.5871557427
 21
-17.8325
 31
0.0
  0
LINE
  5
6C9
100
AcDbEntity
  8
0
100
AcDbLine
 62
7
  6
CONTINUOUS
 10
0.0082423171
 20
-14.568826298
 11
3.798501927
 21
-14.5688700193
  0
LINE
  5
6CA
100
AcDbEntity
  8
0
100
AcDbLine
 62
7
  6
CONTINUOUS
 10
-3.800000475
 20
-13.9783886748
 11
-3.800000475
 21
-13.9915155979
  0
LINE
  5
6CB
100
AcDbEntity
  8
0
100
AcDbLine
 62
7
  6
CONTINUOUS
 10
3.8000004737
 20
-3.4448685116
 11
3.7499999753
 21
-3.4448294696
  0
SPLINE
  5
6CC
100
AcDbEntity
  8
0
100
AcDbSpline
 62
7
  6
CONTINUOUS
 70
0
 71
3
 72
21
 73
17
 74
15
 42
0.0000001
 43
0.0000001
 44
0.0000000001
 12
-0.5752579388
 22
0.5954538058
 32
0.0
 13
0.0
 23
0.8279413814
 33
0.0
 40
0.0
 40
0.0
 40
0.0
 40
0.0
 40
0.1911011988
 40
0.3759808577
 40
0.5474900603
 40
0.6991534358
 40
0.7655720636
 40
0.8247925527
 40
0.8761923414
 40
0.9192122455
 40
0.9534266402
 40
0.978437712
 40
0.9874064979
 40
0.9939942192
 40
0.9981882357
 40
1.0
 40
1.0
 40
1.0
 40
1.0
 10
4.1161376153
 20
3.2276817961
 30
0.0
 10
4.0794934547
 20
3.2656124415
 30
0.0
 10
4.0074703653
 20
3.3403086707
 30
0.0
 10
3.9028119573
 20
3.4492895341
 30
0.0
 10
3.8059238188
 20
3.5506416318
 30
0.0
 10
3.7318397529
 20
3.628565262
 30
0.0
 10
3.6792749793
 20
3.6841868349
 30
0.0
 10
3.6457995932
 20
3.7197776272
 30
0.0
 10
3.6168476642
 20
3.7507535801
 30
0.0
 10
3.5927032301
 20
3.7767879005
 30
0.0
 10
3.5736739399
 20
3.797601715
 30
0.0
 10
3.5610435634
 20
3.8116016546
 30
0.0
 10
3.5537797414
 20
3.8200612329
 30
0.0
 10
3.5501580281
 20
3.8242402383
 30
0.0
 10
3.5482625735
 20
3.8269890748
 30
0.0
 10
3.5470558453
 20
3.8283692423
 30
0.0
 10
3.5470558453
 20
3.8288692539
 30
0.0
 11
4.1161376153
 21
3.2276817961
 31
0.0
 11
4.0063174303
 21
3.3415821133
 31
0.0
 11
3.9002997234
 21
3.4519928185
 31
0.0
 11
3.8021888715
 21
3.5546482494
 31
0.0
 11
3.7156931257
 21
3.645675197
 31
0.0
 11
3.6779271122
 21
3.685646545
 31
0.0
 11
3.6443412684
 21
3.7213682362
 31
0.0
 11
3.6152893012
 21
3.7524648174
 31
0.0
 11
3.5910884196
 21
3.7785982505
 31
0.0
 11
3.5719789057
 21
3.7995093597
 31
0.0
 11
3.5581856891
 21
3.8149546201
 31
0.0
 11
3.553331072
 21
3.8205735753
 31
0.0
 11
3.5498513636
 21
3.8247736278
 31
0.0
 11
3.547756357
 21
3.8275428349
 31
0.0
 11
3.5470558453
 21
3.8288692539
 31
0.0
  0
SPLINE
  5
6CD
100
AcDbEntity
  8
0
100
AcDbSpline
 62
253
  6
CONTINUOUS
 70
0
 71
3
 72
9
 73
5
 74
3
 42
0.0000001
 43
0.0000001
 44
0.0000000001
 12
-0.292005676
 22
-0.4005752169
 32
0.0
 13
-0.0655810336
 23
-0.4913521621
 33
0.0
 40
0.0
 40
0.0
 40
0.0
 40
0.0
 40
0.5018493977
 40
1.0
 40
1.0
 40
1.0
 40
1.0
 10
0.1905928485
 20
-14.1120250362
 30
0.0
 10
0.1417452242
 20
-14.1790345133
 30
0.0
 10
0.0611445933
 20
-14.3255531005
 30
0.0
 10
0.0191318133
 20
-14.4872801572
 30
0.0
 10
0.0082420695
 20
-14.5688692823
 30
0.0
 11
0.1905928485
 21
-14.1120250362
 31
0.0
 11
0.0705649271
 21
-14.3299253387
 31
0.0
 11
0.0082420695
 21
-14.5688692823
 31
0.0
  0
SPLINE
  5
6CE
100
AcDbEntity
  8
0
100
AcDbSpline
 62
253
  6
CONTINUOUS
 70
0
 71
3
 72
11
 73
7
 74
5
 42
0.0000001
 43
0.0000001
 44
0.0000000001
 12
-1.0395022342
 22
-0.0514139007
 32
0.0
 13
-0.0931099098
 23
-1.0365996473
 33
0.0
 40
0.0
 40
0.0
 40
0.0
 40
0.0
 40
0.2562387256
 40
0.5088057006
 40
0.7563457694
 40
1.0
 40
1.0
 40
1.0
 40
1.0
 10
-3.889242264
 20
8.0146823229
 30
0.0
 10
-3.9780291733
 20
8.0102909121
 30
0.0
 10
-4.1543409136
 20
7.9714519766
 30
0.0
 10
-4.3809242315
 20
7.8290615053
 30
0.0
 10
-4.5414093858
 20
7.6199097359
 30
0.0
 10
-4.5897578241
 20
7.4514973784
 30
0.0
 10
-4.5973200319
 20
7.3673067485
 30
0.0
 11
-3.889242264
 21
8.0146823229
 31
0.0
 11
-4.1495553622
 21
7.9567281286
 31
0.0
 11
-4.3717410821
 21
7.8162594647
 31
0.0
 11
-4.527609196
 21
7.611125619
 31
0.0
 11
-4.5973200319
 21
7.3673067485
 31
0.0
  0
SPLINE
  5
6CF
100
AcDbEntity
  8
0
100
AcDbSpline
 62
253
  6
CONTINUOUS
 70
0
 71
3
 72
15
 73
11
 74
9
 42
0.0000001
 43
0.0000001
 44
0.0000000001
 12
-0.7421467317
 22
-0.0070815888
 32
0.0
 13
-0.000000001
 23
-0.7421805173
 33
0.0
 40
0.0
 40
0.0
 40
0.0
 40
0.0
 40
0.3705814882
 40
0.5370151752
 40
0.6832334038
 40
0.8044526222
 40
0.8972806859
 40
0.9326353096
 40
0.9608426698
 40
1.0
 40
1.0
 40
1.0
 40
1.0
 10
-3.8892524418
 20
5.8840497581
 30
0.0
 10
-3.9809277219
 20
5.8831749895
 30
0.0
 10
-4.1138345253
 20
5.8776831651
 30
0.0
 10
-4.2820040414
 20
5.8602744196
 30
0.0
 10
-4.388160642
 20
5.8439618673
 30
0.0
 10
-4.4751994887
 20
5.8244147198
 30
0.0
 10
-4.5340082432
 20
5.8052256406
 30
0.0
 10
-4.5686498172
 20
5.7873843644
 30
0.0
 10
-4.5891780501
 20
5.7730187002
 30
0.0
 10
-4.6000004746
 20
5.7574012243
 30
0.0
 10
-4.6000004746
 20
5.7477139551
 30
0.0
 11
-3.8892524418
 21
5.8840497581
 31
0.0
 11
-4.16401316
 21
5.8716946965
 31
0.0
 11
-4.2868500673
 21
5.8586857287
 31
0.0
 11
-4.3940312649
 21
5.8416901167
 31
0.0
 11
-4.4816607146
 21
5.8213171373
 31
0.0
 11
-4.5465996814
 21
5.7983067818
 31
0.0
 11
-4.569807051
 21
5.7860621898
 31
0.0
 11
-4.5865268006
 21
5.7734636885
 31
0.0
 11
-4.6000004746
 21
5.7477139551
 31
0.0
  0
LINE
  5
6D0
100
AcDbEntity
  8
0
100
AcDbLine
 62
7
  6
CONTINUOUS
 10
-3.800000475
 20
-13.6888813767
 11
-3.800000475
 21
-13.9783886748
  0
LINE
  5
6D1
100
AcDbEntity
  8
0
100
AcDbLine
 62
7
  6
CONTINUOUS
 10
0.0
 20
-18.968067914
 11
0.0
 21
-17.9822819681
  0
SPLINE
  5
6D2
100
AcDbEntity
  8
0
100
AcDbSpline
 62
253
  6
CONTINUOUS
 70
0
 71
3
 72
16
 73
12
 74
10
 42
0.0000001
 43
0.0000001
 44
0.0000000001
 12
0.0175039581
 22
-1.0104767945
 32
0.0
 13
-1.0104744654
 23
-0.0176378974
 33
0.0
 40
0.0
 40
0.0
 40
0.0
 40
0.0
 40
0.1927702181
 40
0.3782953932
 40
0.5492504046
 40
0.6993396152
 40
0.8228646423
 40
0.9153325723
 40
0.97381721
 40
0.990313829
 40
1.0
 40
1.0
 40
1.0
 40
1.0
 10
7.5871557427
 20
-17.849847672
 30
0.0
 10
7.58828049
 20
-17.914777616
 30
0.0
 10
7.589412568
 20
-18.0422196726
 30
0.0
 10
7.5878359801
 20
-18.2272475845
 30
0.0
 10
7.5830308389
 20
-18.3978589711
 30
0.0
 10
7.575276384
 20
-18.5473949671
 30
0.0
 10
7.5648886749
 20
-18.6704399217
 30
0.0
 10
7.5527221245
 20
-18.7618426134
 30
0.0
 10
7.540052743
 20
-18.8175424746
 30
0.0
 10
7.5284833648
 20
-18.8433083491
 30
0.0
 10
7.5207149493
 20
-18.8496384192
 30
0.0
 10
7.5174524064
 20
-18.8496953671
 30
0.0
 11
7.5871557427
 21
-17.849847672
 31
0.0
 11
7.5888583194
 21
-18.0446592871
 31
0.0
 11
7.5871554317
 21
-18.2321485629
 31
0.0
 11
7.5821085661
 21
-18.4048468225
 31
0.0
 11
7.5739129394
 21
-18.5563096698
 31
0.0
 11
7.5628805995
 21
-18.6806591311
 31
0.0
 11
7.5494408928
 21
-18.7731383745
 31
0.0
 11
7.5340939552
 21
-18.8302174297
 31
0.0
 11
7.5258891801
 21
-18.8447307212
 31
0.0
 11
7.5174524064
 21
-18.8496953671
 31
0.0
  0
SPLINE
  5
6D3
100
AcDbEntity
  8
0
100
AcDbSpline
 62
253
  6
CONTINUOUS
 70
0
 71
3
 72
16
 73
12
 74
10
 42
0.0000001
 43
0.0000001
 44
0.0000000001
 12
1.012151863
 22
0.0
 32
0.0
 13
0.0
 23
-1.012151863
 33
0.0
 40
0.0
 40
0.0
 40
0.0
 40
0.0
 40
0.0096843128
 40
0.0261843901
 40
0.084688527
 40
0.1771863553
 40
0.3007431694
 40
0.4508555202
 40
0.62181285
 40
0.8073070157
 40
1.0
 40
1.0
 40
1.0
 40
1.0
 10
7.5
 20
-16.8325
 30
0.0
 10
7.5032673317
 20
-16.8325
 30
0.0
 10
7.5111550511
 20
-16.8387081576
 30
0.0
 10
7.523183107
 20
-16.8643158661
 30
0.0
 10
7.5368373192
 20
-16.9198907641
 30
0.0
 10
7.5506076563
 20
-17.011233185
 30
0.0
 10
7.56314819
 20
-17.1342935029
 30
0.0
 10
7.5735114259
 20
-17.2839169138
 30
0.0
 10
7.5812866154
 20
-17.4546744705
 30
0.0
 10
7.5860777121
 20
-17.6398903355
 30
0.0
 10
7.5871557427
 20
-17.767488479
 30
0.0
 10
7.5871557427
 20
-17.8325
 30
0.0
 11
7.5
 21
-16.8325
 31
0.0
 11
7.5085316355
 21
-16.8373260032
 31
0.0
 11
7.5169977551
 21
-16.8517216387
 31
0.0
 11
7.5333553831
 21
-16.9086325574
 31
0.0
 11
7.5484200153
 21
-17.0010344378
 31
0.0
 11
7.5616284167
 21
-17.1253932188
 31
0.0
 11
7.5724669986
 21
-17.2769426293
 31
0.0
 11
7.5805203532
 21
-17.4497898986
 31
0.0
 11
7.5854804665
 21
-17.6374726321
 31
0.0
 11
7.5871557427
 21
-17.8325
 31
0.0
  0
SPLINE
  5
6D4
100
AcDbEntity
  8
0
100
AcDbSpline
 62
7
  6
CONTINUOUS
 70
0
 71
3
 72
11
 73
7
 74
5
 42
0.0000001
 43
0.0000001
 44
0.0000000001
 12
0.0227117216
 22
-0.22610725
 32
0.0
 13
0.0074793603
 23
-0.2271219276
 33
0.0
 40
0.0
 40
0.0
 40
0.0
 40
0.0
 40
0.2483228187
 40
0.4983437707
 40
0.7489506041
 40
1.0
 40
1.0
 40
1.0
 40
1.0
 10
-3.800000475
 20
-12.7792830394
 30
0.0
 10
-3.7981205288
 20
-12.7979989027
 30
0.0
 10
-3.8000784024
 20
-12.8358847404
 30
0.0
 10
-3.8002749561
 20
-12.89255767
 30
0.0
 10
-3.800014587
 20
-12.9495067047
 30
0.0
 10
-3.8006263678
 20
-12.9875171585
 30
0.0
 10
-3.8000004715
 20
-13.0065234327
 30
0.0
 11
-3.800000475
 21
-12.7792830394
 31
0.0
 11
-3.7996180663
 21
-12.835711874
 31
0.0
 11
-3.8001987822
 21
-12.8925249288
 31
0.0
 11
-3.8002107806
 21
-12.9494740889
 31
0.0
 11
-3.8000004715
 21
-13.0065234327
 31
0.0
  0
SPLINE
  5
6D5
100
AcDbEntity
  8
0
100
AcDbSpline
 62
7
  6
CONTINUOUS
 70
0
 71
3
 72
18
 73
14
 74
12
 42
0.0000001
 43
0.0000001
 44
0.0000000001
 12
0.0048535479
 22
-0.3985350595
 32
0.0
 13
0.3984125254
 23
-0.0110095471
 33
0.0
 40
0.0
 40
0.0
 40
0.0
 40
0.0
 40
0.2201696773
 40
0.4176991943
 40
0.5898386641
 40
0.7341636158
 40
0.8486301171
 40
0.8941834467
 40
0.9317021976
 40
0.9610472518
 40
0.9821695729
 40
0.9950639639
 40
1.0
 40
1.0
 40
1.0
 40
1.0
 10
3.7363739791
 20
-11.575634114
 30
0.0
 10
3.7367301805
 20
-11.6048825591
 30
0.0
 10
3.7374870461
 20
-11.6603712018
 30
0.0
 10
3.7388487358
 20
-11.738721306
 30
0.0
 10
3.7403547573
 20
-11.806995245
 30
0.0
 10
3.741983381
 20
-11.8642135355
 30
0.0
 10
3.7434957343
 20
-11.904643946
 30
0.0
 10
3.7448159041
 20
-11.930818315
 30
0.0
 10
3.7457290335
 20
-11.9458040334
 30
0.0
 10
3.7466763049
 20
-11.9572531816
 30
0.0
 10
3.7475324576
 20
-11.9660918645
 30
0.0
 10
3.748473815
 20
-11.9703547932
 30
0.0
 10
3.7490881228
 20
-11.9735774439
 30
0.0
 10
3.749743649
 20
-11.9735955584
 30
0.0
 11
3.7363739791
 21
-11.575634114
 31
0.0
 11
3.7375857002
 21
-11.6633775897
 31
0.0
 11
3.7389729445
 21
-11.7420936422
 31
0.0
 11
3.7405157766
 21
-11.8106849939
 31
0.0
 11
3.7421919982
 21
-11.8681833846
 31
0.0
 11
3.7439785132
 21
-11.913770689
 31
0.0
 11
3.7449055604
 21
-11.9319029511
 31
0.0
 11
3.7458510775
 21
-11.9468266752
 31
0.0
 11
3.7468116872
 21
-11.9584830601
 31
0.0
 11
3.7477833757
 21
-11.9668454049
 31
0.0
 11
3.748762058
 21
-11.9718906057
 31
0.0
 11
3.749743649
 21
-11.9735955584
 31
0.0
  0
SPLINE
  5
6D6
100
AcDbEntity
  8
0
100
AcDbSpline
 62
253
  6
CONTINUOUS
 70
0
 71
3
 72
16
 73
12
 74
10
 42
0.0000001
 43
0.0000001
 44
0.0000000001
 12
0.0
 22
-1.012151863
 32
0.0
 13
-1.012151863
 23
-0.0
 33
0.0
 40
0.0
 40
0.0
 40
0.0
 40
0.0
 40
0.1926929843
 40
0.37818715
 40
0.5491444798
 40
0.6992568306
 40
0.8228136447
 40
0.915311473
 40
0.9738156099
 40
0.9903156872
 40
1.0
 40
1.0
 40
1.0
 40
1.0
 10
7.5871557427
 20
17.8325
 30
0.0
 10
7.5871557427
 20
17.767488479
 30
0.0
 10
7.5860777121
 20
17.6398903355
 30
0.0
 10
7.5812866154
 20
17.4546744705
 30
0.0
 10
7.5735114259
 20
17.2839169138
 30
0.0
 10
7.56314819
 20
17.1342935029
 30
0.0
 10
7.5506076563
 20
17.011233185
 30
0.0
 10
7.5368373192
 20
16.9198907641
 30
0.0
 10
7.523183107
 20
16.8643158661
 30
0.0
 10
7.5111550511
 20
16.8387081576
 30
0.0
 10
7.5032673317
 20
16.8325
 30
0.0
 10
7.5
 20
16.8325
 30
0.0
 11
7.5871557427
 21
17.8325
 31
0.0
 11
7.5854804665
 21
17.6374726321
 31
0.0
 11
7.5805203532
 21
17.4497898986
 31
0.0
 11
7.5724669986
 21
17.2769426293
 31
0.0
 11
7.5616284167
 21
17.1253932188
 31
0.0
 11
7.5484200153
 21
17.0010344378
 31
0.0
 11
7.5333553831
 21
16.9086325574
 31
0.0
 11
7.5169977551
 21
16.8517216387
 31
0.0
 11
7.5085316355
 21
16.8373260032
 31
0.0
 11
7.5
 21
16.8325
 31
0.0
  0
SPLINE
  5
6D7
100
AcDbEntity
  8
0
100
AcDbSpline
 62
7
  6
CONTINUOUS
 70
0
 71
3
 72
12
 73
8
 74
6
 42
0.0000001
 43
0.0000001
 44
0.0000000001
 12
-1.111542903
 22
0.3519667374
 32
0.0
 13
-0.1598713189
 23
1.1549239676
 33
0.0
 40
0.0
 40
0.0
 40
0.0
 40
0.0
 40
0.2498102596
 40
0.4996595973
 40
0.7494948056
 40
0.874718697
 40
1.0
 40
1.0
 40
1.0
 40
1.0
 10
-3.1038619511
 20
-12.9788244637
 30
0.0
 10
-3.1964202248
 20
-12.949516163
 30
0.0
 10
-3.3738770435
 20
-12.8626000917
 30
0.0
 10
-3.5899762109
 20
-12.6618243259
 30
0.0
 10
-3.7159928943
 20
-12.4494730939
 30
0.0
 10
-3.7740482001
 20
-12.2633600782
 30
0.0
 10
-3.792484224
 20
-12.167549513
 30
0.0
 10
-3.7991605197
 20
-12.1193193865
 30
0.0
 11
-3.1038619511
 21
-12.9788244637
 31
0.0
 11
-3.3655165337
 21
-12.8508753563
 31
0.0
 11
-3.5791527324
 21
-12.6528344192
 31
0.0
 11
-3.7268718267
 21
-12.4017764387
 31
0.0
 11
-3.7713851318
 21
-12.2627243728
 31
0.0
 11
-3.7991605197
 21
-12.1193193865
 31
0.0
  0
LINE
  5
6D8
100
AcDbEntity
  8
0
100
AcDbLine
 62
7
  6
CONTINUOUS
 10
-0.6730396604
 20
8.3394250018
 11
-0.6396640625
 21
8.3408289867
  0
SPLINE
  5
6D9
100
AcDbEntity
  8
0
100
AcDbSpline
 62
7
  6
CONTINUOUS
 70
0
 71
3
 72
9
 73
5
 74
3
 42
0.0000001
 43
0.0000001
 44
0.0000000001
 12
0.0103068526
 22
-0.2859591872
 32
0.0
 13
0.000601238
 23
-0.2861442407
 33
0.0
 40
0.0
 40
0.0
 40
0.0
 40
0.0
 40
0.5000726447
 40
1.0
 40
1.0
 40
1.0
 40
1.0
 10
-3.7991605197
 20
-12.1193193865
 30
0.0
 10
-3.7974424613
 20
-12.1669861755
 30
0.0
 10
-3.7969024632
 20
-12.2624155788
 30
0.0
 10
-3.8003589475
 20
-12.3577555264
 30
0.0
 10
-3.8002587558
 20
-12.4054393042
 30
0.0
 11
-3.7991605197
 21
-12.1193193865
 31
0.0
 11
-3.7979017957
 21
-12.2624070733
 31
0.0
 11
-3.8002587558
 21
-12.4054393042
 31
0.0
  0
SPLINE
  5
6DA
100
AcDbEntity
  8
0
100
AcDbSpline
 62
7
  6
CONTINUOUS
 70
0
 71
3
 72
19
 73
15
 74
13
 42
0.0000001
 43
0.0000001
 44
0.0000000001
 12
0.0
 22
-1.3534917696
 32
0.0
 13
-0.9552370444
 23
-0.9588858948
 33
0.0
 40
0.0
 40
0.0
 40
0.0
 40
0.0
 40
0.0049635678
 40
0.01287936
 40
0.0375711393
 40
0.0731417362
 40
0.1180946624
 40
0.1709130264
 40
0.2302255809
 40
0.3638541745
 40
0.5118522697
 40
0.6693670289
 40
0.8329587123
 40
1.0
 40
1.0
 40
1.0
 40
1.0
 10
7.5
 20
-16.8363053019
 30
0.0
 10
7.5
 20
-16.8385446846
 30
0.0
 10
7.4980624782
 20
-16.8442070338
 30
0.0
 10
7.4902778243
 20
-16.8591645773
 30
0.0
 10
7.4725246418
 20
-16.884498129
 30
0.0
 10
7.4434948436
 20
-16.9219728576
 30
0.0
 10
7.4050470362
 20
-16.9682901825
 30
0.0
 10
7.3587546979
 20
-17.0219424444
 30
0.0
 10
7.2851378501
 20
-17.1048640515
 30
0.0
 10
7.1812199005
 20
-17.2182803124
 30
0.0
 10
7.0454966932
 20
-17.3626210852
 30
0.0
 10
6.898994851
 20
-17.5153665126
 30
0.0
 10
6.7452540911
 20
-17.6730623552
 30
0.0
 10
6.6403437514
 20
-17.7791088218
 30
0.0
 10
6.5871557427
 20
-17.8325
 30
0.0
 11
7.5
 21
-16.8363053019
 31
0.0
 11
7.4983980201
 21
-16.8428296544
 31
0.0
 11
7.4936515468
 21
-16.8524348572
 31
0.0
 11
7.4752004568
 21
-16.8802999196
 31
0.0
 11
7.4458881713
 21
-16.9184926385
 31
0.0
 11
7.4071835435
 21
-16.9654380644
 31
0.0
 11
7.3605478573
 21
-17.0196212858
 31
0.0
 11
7.3073033559
 21
-17.0797024779
 31
0.0
 11
7.185329232
 21
-17.2132484784
 31
0.0
 11
7.0482059471
 21
-17.3592723975
 31
0.0
 11
6.9006882216
 21
-17.5131899044
 31
0.0
 11
6.7461499709
 21
-17.6717608479
 31
0.0
 11
6.5871557427
 21
-17.8325
 31
0.0
  0
SPLINE
  5
6DB
100
AcDbEntity
  8
0
100
AcDbSpline
 62
7
  6
CONTINUOUS
 70
0
 71
3
 72
19
 73
15
 74
13
 42
0.0000001
 43
0.0000001
 44
0.0000000001
 12
0.0
 22
1.3534917696
 32
0.0
 13
-0.9552370444
 23
0.9588858948
 33
0.0
 40
0.0
 40
0.0
 40
0.0
 40
0.0
 40
0.0049635678
 40
0.01287936
 40
0.0375711393
 40
0.0731417362
 40
0.1180946624
 40
0.1709130264
 40
0.2302255809
 40
0.3638541745
 40
0.5118522697
 40
0.6693670289
 40
0.8329587123
 40
1.0
 40
1.0
 40
1.0
 40
1.0
 10
7.5
 20
16.8363053019
 30
0.0
 10
7.5
 20
16.8385446846
 30
0.0
 10
7.4980624782
 20
16.8442070338
 30
0.0
 10
7.4902778243
 20
16.8591645773
 30
0.0
 10
7.4725246418
 20
16.884498129
 30
0.0
 10
7.4434948436
 20
16.9219728576
 30
0.0
 10
7.4050470362
 20
16.9682901825
 30
0.0
 10
7.3587546979
 20
17.0219424444
 30
0.0
 10
7.2851378501
 20
17.1048640515
 30
0.0
 10
7.1812199005
 20
17.2182803124
 30
0.0
 10
7.0454966932
 20
17.3626210852
 30
0.0
 10
6.898994851
 20
17.5153665126
 30
0.0
 10
6.7452540911
 20
17.6730623552
 30
0.0
 10
6.6403437514
 20
17.7791088218
 30
0.0
 10
6.5871557427
 20
17.8325
 30
0.0
 11
7.5
 21
16.8363053019
 31
0.0
 11
7.4983980201
 21
16.8428296544
 31
0.0
 11
7.4936515468
 21
16.8524348572
 31
0.0
 11
7.4752004568
 21
16.8802999196
 31
0.0
 11
7.4458881713
 21
16.9184926385
 31
0.0
 11
7.4071835435
 21
16.9654380644
 31
0.0
 11
7.3605478573
 21
17.0196212858
 31
0.0
 11
7.3073033559
 21
17.0797024779
 31
0.0
 11
7.185329232
 21
17.2132484784
 31
0.0
 11
7.0482059471
 21
17.3592723975
 31
0.0
 11
6.9006882216
 21
17.5131899044
 31
0.0
 11
6.7461499709
 21
17.6717608479
 31
0.0
 11
6.5871557427
 21
17.8325
 31
0.0
  0
SPLINE
  5
6DC
100
AcDbEntity
  8
0
100
AcDbSpline
 62
7
  6
CONTINUOUS
 70
0
 71
3
 72
11
 73
7
 74
5
 42
0.0000001
 43
0.0000001
 44
0.0000000001
 12
-0.0054911799
 22
-0.3738054415
 32
0.0
 13
-0.0414637422
 23
-0.3715392567
 33
0.0
 40
0.0
 40
0.0
 40
0.0
 40
0.0
 40
0.2515794374
 40
0.5026914771
 40
0.7525264394
 40
1.0
 40
1.0
 40
1.0
 40
1.0
 10
-3.8002587558
 20
-12.4054393042
 30
0.0
 10
-3.8007192451
 20
-12.4367865585
 30
0.0
 10
-3.8000620174
 20
-12.4994273626
 30
0.0
 10
-3.7993426741
 20
-12.5932330819
 30
0.0
 10
-3.8023398296
 20
-12.6863835971
 30
0.0
 10
-3.7965800808
 20
-12.7486343237
 30
0.0
 10
-3.8000004741
 20
-12.779283038
 30
0.0
 11
-3.8002587558
 21
-12.4054393042
 31
0.0
 11
-3.8001056642
 21
-12.4994910886
 31
0.0
 11
-3.7999658674
 21
-12.5933681588
 31
0.0
 11
-3.8003930168
 21
-12.6867669264
 31
0.0
 11
-3.8000004741
 21
-12.779283038
 31
0.0
  0
SPLINE
  5
6DD
100
AcDbEntity
  8
0
100
AcDbSpline
 62
7
  6
CONTINUOUS
 70
0
 71
3
 72
8
 73
4
 74
2
 42
0.0000001
 43
0.0000001
 44
0.0000000001
 12
-0.0100774754
 22
0.0978631719
 32
0.0
 13
-0.0024906427
 23
0.0983491364
 33
0.0
 40
0.0
 40
0.0
 40
0.0
 40
0.0
 40
1.0
 40
1.0
 40
1.0
 40
1.0
 10
-3.8000080497
 20
-12.1242718855
 30
0.0
 10
-3.8033672082
 20
-12.0916508282
 30
0.0
 10
-3.804122226
 20
-12.0587985881
 30
0.0
 10
-3.8049524402
 20
-12.0260155426
 30
0.0
 11
-3.8000080497
 21
-12.1242718855
 31
0.0
 11
-3.8049524402
 21
-12.0260155426
 31
0.0
  0
SPLINE
  5
6DE
100
AcDbEntity
  8
0
100
AcDbSpline
 62
7
  6
CONTINUOUS
 70
0
 71
3
 72
9
 73
5
 74
3
 42
0.0000001
 43
0.0000001
 44
0.0000000001
 12
-0.0049626558
 22
-0.0048182596
 32
0.0
 13
0.0000363165
 23
-0.0069168099
 33
0.0
 40
0.0
 40
0.0
 40
0.0
 40
0.0
 40
0.8104934075
 40
1.0
 40
1.0
 40
1.0
 40
1.0
 10
0.0045693961
 20
8.3747615509
 30
0.0
 10
0.0032286629
 20
8.3734598283
 30
0.0
 10
-0.0003820101
 20
8.3731581089
 30
0.0
 10
-0.0000010742
 20
8.3706427162
 30
0.0
 10
0.0000012198
 20
8.3702057892
 30
0.0
 11
0.0045693961
 21
8.3747615509
 31
0.0
 11
-0.0000021043
 21
8.3715165841
 31
0.0
 11
0.0000012198
 21
8.3702057892
 31
0.0
  0
LINE
  5
6DF
100
AcDbEntity
  8
0
100
AcDbLine
 62
7
  6
CONTINUOUS
 10
0.6724062961
 20
8.3394481788
 11
0.6396614426
 21
8.3408290767
  0
SPLINE
  5
6E0
100
AcDbEntity
  8
0
100
AcDbSpline
 62
7
  6
CONTINUOUS
 70
0
 71
3
 72
13
 73
9
 74
7
 42
0.0000001
 43
0.0000001
 44
0.0000000001
 12
0.0
 22
0.2600791643
 32
0.0
 13
-0.259775629
 23
-0.0125616191
 33
0.0
 40
0.0
 40
0.0
 40
0.0
 40
0.0
 40
0.0323583616
 40
0.095999551
 40
0.1911085117
 40
0.3147544438
 40
0.6302426828
 40
1.0
 40
1.0
 40
1.0
 40
1.0
 10
2.40000025
 20
-18.9320750066
 30
0.0
 10
2.40000025
 20
-18.9292697614
 30
0.0
 10
2.392800556
 20
-18.9227360891
 30
0.0
 10
2.3789500241
 20
-18.9152548793
 30
0.0
 10
2.3556850551
 20
-18.9062324238
 30
0.0
 10
2.3112270937
 20
-18.8938580498
 30
0.0
 10
2.2415812797
 20
-18.8829434769
 30
0.0
 10
2.1820182299
 20
-18.8812502136
 30
0.0
 10
2.15000025
 20
-18.8827984638
 30
0.0
 11
2.40000025
 21
-18.9320750066
 31
0.0
 11
2.3951741918
 21
-18.9251805329
 31
0.0
 11
2.3809778203
 21
-18.9166703402
 31
0.0
 11
2.3580016236
 21
-18.9075075291
 31
0.0
 11
2.3270911899
 21
-18.8986382154
 31
0.0
 11
2.2461344854
 21
-18.8852767346
 31
0.0
 11
2.15000025
 21
-18.8827984638
 31
0.0
  0
SPLINE
  5
6E1
100
AcDbEntity
  8
0
100
AcDbSpline
 62
7
  6
CONTINUOUS
 70
0
 71
3
 72
13
 73
9
 74
7
 42
0.0000001
 43
0.0000001
 44
0.0000000001
 12
-0.2597743566
 22
0.0125615576
 32
0.0
 13
-0.0
 23
-0.2600778904
 33
0.0
 40
0.0
 40
0.0
 40
0.0
 40
0.0
 40
0.3697663785
 40
0.6852552548
 40
0.808899557
 40
0.9040075395
 40
0.9676460829
 40
1.0
 40
1.0
 40
1.0
 40
1.0
 10
-2.15000025
 20
-18.8827984638
 30
0.0
 10
-2.1820188577
 20
-18.8812501833
 30
0.0
 10
-2.2415822283
 20
-18.882949637
 30
0.0
 10
-2.3112287419
 20
-18.8938598351
 30
0.0
 10
-2.3556867706
 20
-18.9062328948
 30
0.0
 10
-2.3789505501
 20
-18.9152572228
 30
0.0
 10
-2.392800225
 20
-18.9227376065
 30
0.0
 10
-2.40000025
 20
-18.9292701604
 30
0.0
 10
-2.40000025
 20
-18.9320750066
 30
0.0
 11
-2.15000025
 21
-18.8827984638
 31
0.0
 11
-2.2461362724
 21
-18.885280579
 31
0.0
 11
-2.327093127
 21
-18.8986396998
 31
0.0
 11
-2.3580030805
 21
-18.9075085793
 31
0.0
 11
-2.3809784696
 21
-18.9166724015
 31
0.0
 11
-2.3951743848
 21
-18.925181859
 31
0.0
 11
-2.40000025
 21
-18.9320750066
 31
0.0
  0
SPLINE
  5
6E2
100
AcDbEntity
  8
0
100
AcDbSpline
 62
253
  6
CONTINUOUS
 70
0
 71
3
 72
16
 73
12
 74
10
 42
0.0000001
 43
0.0000001
 44
0.0000000001
 12
0.0
 22
1.012151863
 32
0.0
 13
1.012151863
 23
-0.0
 33
0.0
 40
0.0
 40
0.0
 40
0.0
 40
0.0
 40
0.1926929843
 40
0.37818715
 40
0.5491444798
 40
0.6992568306
 40
0.8228136447
 40
0.915311473
 40
0.9738156099
 40
0.9903156872
 40
1.0
 40
1.0
 40
1.0
 40
1.0
 10
-7.5871557427
 20
-17.8325
 30
0.0
 10
-7.5871557427
 20
-17.767488479
 30
0.0
 10
-7.5860777121
 20
-17.6398903355
 30
0.0
 10
-7.5812866154
 20
-17.4546744705
 30
0.0
 10
-7.5735114259
 20
-17.2839169138
 30
0.0
 10
-7.56314819
 20
-17.1342935029
 30
0.0
 10
-7.5506076563
 20
-17.011233185
 30
0.0
 10
-7.5368373192
 20
-16.9198907641
 30
0.0
 10
-7.523183107
 20
-16.8643158661
 30
0.0
 10
-7.5111550511
 20
-16.8387081576
 30
0.0
 10
-7.5032673317
 20
-16.8325
 30
0.0
 10
-7.5
 20
-16.8325
 30
0.0
 11
-7.5871557427
 21
-17.8325
 31
0.0
 11
-7.5854804665
 21
-17.6374726321
 31
0.0
 11
-7.5805203532
 21
-17.4497898986
 31
0.0
 11
-7.5724669986
 21
-17.2769426293
 31
0.0
 11
-7.5616284167
 21
-17.1253932188
 31
0.0
 11
-7.5484200153
 21
-17.0010344378
 31
0.0
 11
-7.5333553831
 21
-16.9086325574
 31
0.0
 11
-7.5169977551
 21
-16.8517216387
 31
0.0
 11
-7.5085316355
 21
-16.8373260032
 31
0.0
 11
-7.5
 21
-16.8325
 31
0.0
  0
SPLINE
  5
6E3
100
AcDbEntity
  8
0
100
AcDbSpline
 62
7
  6
CONTINUOUS
 70
0
 71
3
 72
9
 73
5
 74
3
 42
0.0000001
 43
0.0000001
 44
0.0000000001
 12
-0.0006626954
 22
0.0541814289
 32
0.0
 13
0.0019771077
 23
0.0541493994
 33
0.0
 40
0.0
 40
0.0
 40
0.0
 40
0.0
 40
0.4999929633
 40
1.0
 40
1.0
 40
1.0
 40
1.0
 10
3.8000051554
 20
-12.0287417012
 30
0.0
 10
3.7998947077
 20
-12.0197115902
 30
0.0
 10
3.8002841578
 20
-12.0016517651
 30
0.0
 10
3.7996666636
 20
-11.9835812846
 30
0.0
 10
3.7999961862
 20
-11.9745562577
 30
0.0
 11
3.8000051554
 21
-12.0287417012
 31
0.0
 11
3.8000324233
 21
-12.0016493555
 31
0.0
 11
3.7999961862
 21
-11.9745562577
 31
0.0
  0
SPLINE
  5
6E4
100
AcDbEntity
  8
0
100
AcDbSpline
 62
7
  6
CONTINUOUS
 70
0
 71
3
 72
9
 73
5
 74
3
 42
0.0000001
 43
0.0000001
 44
0.0000000001
 12
0.0094337106
 22
0.0915993908
 32
0.0
 13
0.0025126785
 23
0.0920496047
 33
0.0
 40
0.0
 40
0.0
 40
0.0
 40
0.0
 40
0.4998869647
 40
1.0
 40
1.0
 40
1.0
 40
1.0
 10
3.7994810222
 20
-12.1193503852
 30
0.0
 10
3.8010529518
 20
-12.1040872714
 30
0.0
 10
3.8051584833
 20
-12.0735133768
 30
0.0
 10
3.8020058071
 20
-12.0427830975
 30
0.0
 10
3.8024246815
 20
-12.0274380284
 30
0.0
 11
3.7994810222
 21
-12.1193503852
 31
0.0
 11
3.8033438236
 21
-12.0734812102
 31
0.0
 11
3.8024246815
 21
-12.0274380284
 31
0.0
  0
SPLINE
  5
6E5
100
AcDbEntity
  8
0
100
AcDbSpline
 62
253
  6
CONTINUOUS
 70
0
 71
3
 72
16
 73
12
 74
10
 42
0.0000001
 43
0.0000001
 44
0.0000000001
 12
-0.0175039581
 22
1.0104767945
 32
0.0
 13
1.0104744654
 23
0.0176378974
 33
0.0
 40
0.0
 40
0.0
 40
0.0
 40
0.0
 40
0.1927702181
 40
0.3782953932
 40
0.5492504046
 40
0.6993396152
 40
0.8228646423
 40
0.9153325723
 40
0.97381721
 40
0.990313829
 40
1.0
 40
1.0
 40
1.0
 40
1.0
 10
-7.5871557427
 20
17.849847672
 30
0.0
 10
-7.58828049
 20
17.914777616
 30
0.0
 10
-7.589412568
 20
18.0422196726
 30
0.0
 10
-7.5878359801
 20
18.2272475845
 30
0.0
 10
-7.5830308389
 20
18.3978589711
 30
0.0
 10
-7.575276384
 20
18.5473949671
 30
0.0
 10
-7.5648886749
 20
18.6704399217
 30
0.0
 10
-7.5527221245
 20
18.7618426134
 30
0.0
 10
-7.540052743
 20
18.8175424746
 30
0.0
 10
-7.5284833648
 20
18.8433083491
 30
0.0
 10
-7.5207149493
 20
18.8496384192
 30
0.0
 10
-7.5174524064
 20
18.8496953671
 30
0.0
 11
-7.5871557427
 21
17.849847672
 31
0.0
 11
-7.5888583194
 21
18.0446592871
 31
0.0
 11
-7.5871554317
 21
18.2321485629
 31
0.0
 11
-7.5821085661
 21
18.4048468225
 31
0.0
 11
-7.5739129394
 21
18.5563096698
 31
0.0
 11
-7.5628805995
 21
18.6806591311
 31
0.0
 11
-7.5494408928
 21
18.7731383745
 31
0.0
 11
-7.5340939552
 21
18.8302174297
 31
0.0
 11
-7.5258891801
 21
18.8447307212
 31
0.0
 11
-7.5174524064
 21
18.8496953671
 31
0.0
  0
SPLINE
  5
6E6
100
AcDbEntity
  8
0
100
AcDbSpline
 62
7
  6
CONTINUOUS
 70
0
 71
3
 72
12
 73
8
 74
6
 42
0.0000001
 43
0.0000001
 44
0.0000000001
 12
1.1053267336
 22
0.3714684719
 32
0.0
 13
0.1387760512
 23
1.1577898001
 33
0.0
 40
0.0
 40
0.0
 40
0.0
 40
0.0
 40
0.2498104818
 40
0.3750735097
 40
0.5003714724
 40
0.7500857337
 40
1.0
 40
1.0
 40
1.0
 40
1.0
 10
3.1038575031
 20
-12.9787246483
 30
0.0
 10
3.1958982377
 20
-12.947792409
 30
0.0
 10
3.330045151
 20
-12.8845343739
 30
0.0
 10
3.4819650679
 20
-12.7620815918
 30
0.0
 10
3.6152247249
 20
-12.6196117007
 30
0.0
 10
3.7390302922
 20
-12.4064720411
 30
0.0
 10
3.7879203172
 20
-12.2157997814
 30
0.0
 10
3.7994810222
 20
-12.1193503852
 30
0.0
 11
3.1038575031
 21
-12.9787246483
 31
0.0
 11
3.3655987948
 21
-12.8508723953
 31
0.0
 11
3.4796222893
 21
-12.7595815189
 31
0.0
 11
3.5792259542
 21
-12.6526872089
 31
0.0
 11
3.7264775714
 21
-12.4014775187
 31
0.0
 11
3.7994810222
 21
-12.1193503852
 31
0.0
  0
LINE
  5
6E7
100
AcDbEntity
  8
0
100
AcDbLine
 62
7
  6
CONTINUOUS
 10
-0.0
 20
17.9822819681
 11
-0.0
 21
18.968067914
  0
SPLINE
  5
6E8
100
AcDbEntity
  8
0
100
AcDbSpline
 62
7
  6
CONTINUOUS
 70
0
 71
3
 72
13
 73
9
 74
7
 42
0.0000001
 43
0.0000001
 44
0.0000000001
 12
0.0
 22
-0.2600791643
 32
0.0
 13
0.259775629
 23
0.0125616191
 33
0.0
 40
0.0
 40
0.0
 40
0.0
 40
0.0
 40
0.0323583616
 40
0.095999551
 40
0.1911085117
 40
0.3147544438
 40
0.6302426828
 40
1.0
 40
1.0
 40
1.0
 40
1.0
 10
-2.40000025
 20
18.9320750066
 30
0.0
 10
-2.40000025
 20
18.9292697614
 30
0.0
 10
-2.392800556
 20
18.9227360891
 30
0.0
 10
-2.3789500241
 20
18.9152548793
 30
0.0
 10
-2.3556850551
 20
18.9062324238
 30
0.0
 10
-2.3112270937
 20
18.8938580498
 30
0.0
 10
-2.2415812797
 20
18.8829434769
 30
0.0
 10
-2.1820182299
 20
18.8812502136
 30
0.0
 10
-2.15000025
 20
18.8827984638
 30
0.0
 11
-2.40000025
 21
18.9320750066
 31
0.0
 11
-2.3951741918
 21
18.9251805329
 31
0.0
 11
-2.3809778203
 21
18.9166703402
 31
0.0
 11
-2.3580016236
 21
18.9075075291
 31
0.0
 11
-2.3270911899
 21
18.8986382154
 31
0.0
 11
-2.2461344854
 21
18.8852767346
 31
0.0
 11
-2.15000025
 21
18.8827984638
 31
0.0
  0
LINE
  5
6E9
100
AcDbEntity
  8
0
100
AcDbLine
 62
7
  6
CONTINUOUS
 10
-0.0012375137
 20
-12.5077051822
 11
0.001186061
 21
-12.2577307288
  0
SPLINE
  5
6EA
100
AcDbEntity
  8
0
100
AcDbSpline
 62
7
  6
CONTINUOUS
 70
0
 71
3
 72
13
 73
9
 74
7
 42
0.0000001
 43
0.0000001
 44
0.0000000001
 12
0.2597743566
 22
-0.0125615576
 32
0.0
 13
0.0
 23
0.2600778904
 33
0.0
 40
0.0
 40
0.0
 40
0.0
 40
0.0
 40
0.3697663785
 40
0.6852552548
 40
0.808899557
 40
0.9040075395
 40
0.9676460829
 40
1.0
 40
1.0
 40
1.0
 40
1.0
 10
2.15000025
 20
18.8827984638
 30
0.0
 10
2.1820188577
 20
18.8812501833
 30
0.0
 10
2.2415822283
 20
18.882949637
 30
0.0
 10
2.3112287419
 20
18.8938598351
 30
0.0
 10
2.3556867706
 20
18.9062328948
 30
0.0
 10
2.3789505501
 20
18.9152572228
 30
0.0
 10
2.392800225
 20
18.9227376065
 30
0.0
 10
2.40000025
 20
18.9292701604
 30
0.0
 10
2.40000025
 20
18.9320750066
 30
0.0
 11
2.15000025
 21
18.8827984638
 31
0.0
 11
2.2461362724
 21
18.885280579
 31
0.0
 11
2.327093127
 21
18.8986396998
 31
0.0
 11
2.3580030805
 21
18.9075085793
 31
0.0
 11
2.3809784696
 21
18.9166724015
 31
0.0
 11
2.3951743848
 21
18.925181859
 31
0.0
 11
2.40000025
 21
18.9320750066
 31
0.0
  0
LINE
  5
6EB
100
AcDbEntity
  8
0
100
AcDbLine
 62
7
  6
CONTINUOUS
 10
-0.0012191303
 20
-12.7577072577
 11
0.0012140656
 21
-12.5077304033
  0
LINE
  5
6EC
100
AcDbEntity
  8
0
100
AcDbLine
 62
253
  6
CONTINUOUS
 10
-0.0003791537
 20
-12.9327157385
 11
0.0004882938
 21
-12.857723975
  0
SPLINE
  5
6ED
100
AcDbEntity
  8
0
100
AcDbSpline
 62
253
  6
CONTINUOUS
 70
0
 71
3
 72
8
 73
4
 74
2
 42
0.0000001
 43
0.0000001
 44
0.0000000001
 12
-0.0015377926
 22
0.0533795054
 32
0.0
 13
0.0007731307
 23
0.0533960548
 33
0.0
 40
0.0
 40
0.0
 40
0.0
 40
0.0
 40
1.0
 40
1.0
 40
1.0
 40
1.0
 10
0.0000000152
 20
-13.0077180293
 30
0.0
 10
-0.0005125824
 20
-12.9899248609
 30
0.0
 10
-0.0003875508
 20
-12.9721152205
 30
0.0
 10
-0.0001298406
 20
-12.9543165356
 30
0.0
 11
0.0000000152
 21
-13.0077180293
 31
0.0
 11
-0.0001298406
 21
-12.9543165356
 31
0.0
  0
LINE
  5
6EE
100
AcDbEntity
  8
0
100
AcDbLine
 62
253
  6
CONTINUOUS
 10
-0.568613071
 20
-13.0030128692
 11
-0.3824152955
 21
-13.0045342943
  0
LINE
  5
6EF
100
AcDbEntity
  8
0
100
AcDbLine
 62
253
  6
CONTINUOUS
 10
-1.547538534
 20
-12.9939839072
 11
-0.5686071405
 21
-13.002274568
  0
SPLINE
  5
6F0
100
AcDbEntity
  8
ASSI
100
AcDbSpline
 62
7
  6
CONTINUOUS
 70
0
 71
3
 72
10
 73
6
 74
4
 42
0.0000001
 43
0.0000001
 44
0.0000000001
 12
0.0
 22
0.0398422352
 32
0.0
 13
0.0249481484
 23
0.0310643461
 33
0.0
 40
0.0
 40
0.0
 40
0.0
 40
0.0
 40
0.1229772468
 40
0.3318958163
 40
1.0
 40
1.0
 40
1.0
 40
1.0
 10
3.5
 20
-23.9541479441
 30
0.0
 10
3.5
 20
-23.9525147146
 30
0.0
 10
3.5018505311
 20
-23.948305259
 30
0.0
 10
3.5086355835
 20
-23.9370539362
 30
0.0
 10
3.5159506696
 20
-23.9278338209
 30
0.0
 10
3.521506657
 20
-23.9209157477
 30
0.0
 11
3.5
 21
-23.9541479441
 31
0.0
 11
3.5014264624
 21
-23.9494604979
 31
0.0
 11
3.5055974111
 21
-23.9422571274
 31
0.0
 11
3.521506657
 21
-23.9209157477
 31
0.0
  0
LINE
  5
6F1
100
AcDbEntity
  8
ASSI
100
AcDbLine
 62
7
  6
CONTINUOUS
 10
3.521506657
 20
-23.9209157477
 11
3.5340332576
 21
-23.9057301555
  0
SPLINE
  5
6F2
100
AcDbEntity
  8
ASSI
100
AcDbSpline
 62
7
  6
CONTINUOUS
 70
0
 71
3
 72
10
 73
6
 74
4
 42
0.0000001
 43
0.0000001
 44
0.0000000001
 12
0.3960084042
 22
0.4698256865
 32
0.0
 13
0.4236485343
 23
0.4450626374
 33
0.0
 40
0.0
 40
0.0
 40
0.0
 40
0.0
 40
0.194599512
 40
0.4422537949
 40
1.0
 40
1.0
 40
1.0
 40
1.0
 10
3.5340332576
 20
-23.9057301555
 30
0.0
 10
3.5597209384
 20
-23.8752542057
 30
0.0
 10
3.6206895671
 20
-23.8082140684
 30
0.0
 10
3.7604128825
 20
-23.6584763589
 30
0.0
 10
3.8742799225
 20
-23.5391018137
 30
0.0
 10
3.9530427099
 20
-23.4563578147
 30
0.0
 11
3.5340332576
 21
-23.9057301555
 31
0.0
 11
3.6135351373
 21
-23.8164148979
 31
0.0
 11
3.7172119249
 21
-23.7050245704
 31
0.0
 11
3.9530427099
 21
-23.4563578147
 31
0.0
  0
SPLINE
  5
6F3
100
AcDbEntity
  8
ASSI
100
AcDbSpline
 62
7
  6
CONTINUOUS
 70
0
 71
3
 72
9
 73
5
 74
3
 42
0.0000001
 43
0.0000001
 44
0.0000000001
 12
0.0068101508
 22
7.3081663629
 32
0.0
 13
0.0174846225
 23
7.3081486202
 33
0.0
 40
0.0
 40
0.0
 40
0.0
 40
0.0
 40
0.2506842359
 40
1.0
 40
1.0
 40
1.0
 40
1.0
 10
9.5121049871
 20
12.5132676422
 30
0.0
 10
9.5126740529
 20
13.1239483423
 30
0.0
 10
9.5153857231
 20
15.5600033635
 30
0.0
 10
9.5198641444
 20
17.9960564307
 30
0.0
 10
9.5242313121
 20
19.8214267532
 30
0.0
 11
9.5121049871
 21
12.5132676422
 31
0.0
 11
9.514144626
 21
14.3453094025
 31
0.0
 11
9.5242313121
 21
19.8214267532
 31
0.0
  0
SPLINE
  5
6F4
100
AcDbEntity
  8
ASSI
100
AcDbSpline
 62
253
  6
CONTINUOUS
 70
0
 71
3
 72
11
 73
7
 74
5
 42
0.0000001
 43
0.0000001
 44
0.0000000001
 12
-0.0012232396
 22
-0.3641881922
 32
0.0
 13
-0.3641890909
 23
-0.000917463
 33
0.0
 40
0.0
 40
0.0
 40
0.0
 40
0.0
 40
0.2331915743
 40
0.4766745745
 40
0.7337783373
 40
1.0
 40
1.0
 40
1.0
 40
1.0
 10
10.145628166
 20
23.8443375673
 30
0.0
 10
10.1455330829
 20
23.816029028
 30
0.0
 10
10.1316084733
 20
23.7574811703
 30
0.0
 10
10.0746567444
 20
23.6858440306
 30
0.0
 10
9.9920100603
 20
23.6388233493
 30
0.0
 10
9.9279507386
 20
23.6279126325
 30
0.0
 10
9.8956323968
 20
23.6278312164
 30
0.0
 11
10.145628166
 21
23.8443375673
 31
0.0
 11
10.1263874378
 21
23.7616197559
 31
0.0
 11
10.0721414133
 21
23.6914736881
 31
0.0
 11
9.9911450817
 21
23.6444944577
 31
0.0
 11
9.8956323968
 21
23.6278312164
 31
0.0
  0
SPLINE
  5
6F5
100
AcDbEntity
  8
ASSI
100
AcDbSpline
 62
7
  6
CONTINUOUS
 70
0
 71
3
 72
9
 73
5
 74
3
 42
0.0000001
 43
0.0000001
 44
0.0000000001
 12
-0.0068101508
 22
7.3081663629
 32
0.0
 13
-0.0174846225
 23
7.3081486202
 33
0.0
 40
0.0
 40
0.0
 40
0.0
 40
0.0
 40
0.2506842359
 40
1.0
 40
1.0
 40
1.0
 40
1.0
 10
-9.5121049871
 20
12.5132676422
 30
0.0
 10
-9.5126740529
 20
13.1239483423
 30
0.0
 10
-9.5153857231
 20
15.5600033635
 30
0.0
 10
-9.5198641444
 20
17.9960564307
 30
0.0
 10
-9.5242313121
 20
19.8214267532
 30
0.0
 11
-9.5121049871
 21
12.5132676422
 31
0.0
 11
-9.514144626
 21
14.3453094025
 31
0.0
 11
-9.5242313121
 21
19.8214267532
 31
0.0
  0
SPLINE
  5
6F6
100
AcDbEntity
  8
ASSI
100
AcDbSpline
 62
253
  6
CONTINUOUS
 70
0
 71
3
 72
11
 73
7
 74
5
 42
0.0000001
 43
0.0000001
 44
0.0000000001
 12
0.0012232396
 22
-0.3641881922
 32
0.0
 13
0.3641890909
 23
-0.000917463
 33
0.0
 40
0.0
 40
0.0
 40
0.0
 40
0.0
 40
0.2331915743
 40
0.4766745745
 40
0.7337783373
 40
1.0
 40
1.0
 40
1.0
 40
1.0
 10
7.254371834
 20
23.8443375673
 30
0.0
 10
7.2544669171
 20
23.816029028
 30
0.0
 10
7.2683915267
 20
23.7574811703
 30
0.0
 10
7.3253432556
 20
23.6858440306
 30
0.0
 10
7.4079899397
 20
23.6388233493
 30
0.0
 10
7.4720492614
 20
23.6279126325
 30
0.0
 10
7.5043676032
 20
23.6278312164
 30
0.0
 11
7.254371834
 21
23.8443375673
 31
0.0
 11
7.2736125622
 21
23.7616197559
 31
0.0
 11
7.3278585867
 21
23.6914736881
 31
0.0
 11
7.4088549183
 21
23.6444944577
 31
0.0
 11
7.5043676032
 21
23.6278312164
 31
0.0
  0
SPLINE
  5
6F7
100
AcDbEntity
  8
ASSI
100
AcDbSpline
 62
7
  6
CONTINUOUS
 70
0
 71
3
 72
9
 73
5
 74
3
 42
0.0000001
 43
0.0000001
 44
0.0000000001
 12
0.2443381471
 22
0.3659791146
 32
0.0
 13
0.254061569
 23
0.3592973165
 33
0.0
 40
0.0
 40
0.0
 40
0.0
 40
0.0
 40
0.2446640881
 40
1.0
 40
1.0
 40
1.0
 40
1.0
 10
-7.8176867079
 20
-21.6973892622
 30
0.0
 10
-7.7977597845
 20
-21.6675419468
 30
0.0
 10
-7.7153747383
 20
-21.5461750303
 30
0.0
 10
-7.6306129299
 20
-21.4264503374
 30
0.0
 10
-7.5666456542
 20
-21.3359869487
 30
0.0
 11
-7.8176867079
 21
-21.6973892622
 31
0.0
 11
-7.7573041859
 21
-21.6082519992
 31
0.0
 11
-7.5666456542
 21
-21.3359869487
 31
0.0
  0
SPLINE
  5
6F8
100
AcDbEntity
  8
ASSI
100
AcDbSpline
 62
7
  6
CONTINUOUS
 70
0
 71
3
 72
9
 73
5
 74
3
 42
0.0000001
 43
0.0000001
 44
0.0000000001
 12
0.2540586047
 22
-0.3592931244
 32
0.0
 13
0.2443352963
 23
-0.3659748446
 33
0.0
 40
0.0
 40
0.0
 40
0.0
 40
0.0
 40
0.2537038893
 40
1.0
 40
1.0
 40
1.0
 40
1.0
 10
7.5666456542
 20
-21.3359869487
 30
0.0
 10
7.5881308729
 20
-21.3663716363
 30
0.0
 10
7.6728002144
 20
-21.4861438704
 30
0.0
 10
7.7569045474
 20
-21.6063473945
 30
0.0
 10
7.8176867079
 20
-21.6973892622
 30
0.0
 11
7.5666456542
 21
-21.3359869487
 31
0.0
 11
7.6310563883
 21
-21.4271727598
 31
0.0
 11
7.8176867079
 21
-21.6973892622
 31
0.0
  0
SPLINE
  5
6F9
100
AcDbEntity
  8
ASSI
100
AcDbSpline
 62
7
  6
CONTINUOUS
 70
0
 71
3
 72
18
 73
14
 74
12
 42
0.0000001
 43
0.0000001
 44
0.0000000001
 12
0.4645014556
 22
-0.4879805455
 32
0.0
 13
0.0392553859
 23
-0.67256645
 33
0.0
 40
0.0
 40
0.0
 40
0.0
 40
0.0
 40
0.1635203506
 40
0.3249174253
 40
0.4812848242
 40
0.6292942198
 40
0.763993692
 40
0.8241879328
 40
0.8779896199
 40
0.9240265083
 40
0.9606506177
 40
0.9862842688
 40
1.0
 40
1.0
 40
1.0
 40
1.0
 10
3.9530427099
 20
-23.4563578147
 30
0.0
 10
3.9783611902
 20
-23.4829560647
 30
0.0
 10
4.0286696594
 20
-23.5358069989
 30
0.0
 10
4.1031102522
 20
-23.6141674038
 30
0.0
 10
4.1749830743
 20
-23.6901635185
 30
0.0
 10
4.2424429837
 20
-23.7620765611
 30
0.0
 10
4.2947375967
 20
-23.8186117653
 30
0.0
 10
4.332203468
 20
-23.8600188806
 30
0.0
 10
4.3560566849
 20
-23.8869315566
 30
0.0
 10
4.3759118145
 20
-23.9101920501
 30
0.0
 10
4.3914258456
 20
-23.9291461476
 30
0.0
 10
4.4009542564
 20
-23.942896403
 30
0.0
 10
4.4058982808
 20
-23.9508173595
 30
0.0
 10
4.406077753
 20
-23.9538922731
 30
0.0
 11
3.9530427099
 21
-23.4563578147
 31
0.0
 11
4.0289849139
 21
-23.5361651625
 31
0.0
 11
4.103858507
 21
-23.6150146688
 31
0.0
 11
4.1762191336
 21
-23.6915771528
 31
0.0
 11
4.244399976
 21
-23.7643409314
 31
0.0
 11
4.3059272793
 21
-23.8310468982
 31
0.0
 11
4.3331157244
 21
-23.8611363813
 31
0.0
 11
4.3571110192
 21
-23.8883035636
 31
0.0
 11
4.3772239022
 21
-23.9119136674
 31
0.0
 11
4.392615954
 21
-23.9311982307
 31
0.0
 11
4.4024527586
 21
-23.9453925585
 31
0.0
 11
4.406077753
 21
-23.9538922731
 31
0.0
  0
SPLINE
  5
6FA
100
AcDbEntity
  8
ASSI
100
AcDbSpline
 62
7
  6
CONTINUOUS
 70
0
 71
3
 72
18
 73
14
 74
12
 42
0.0000001
 43
0.0000001
 44
0.0000000001
 12
0.4646696757
 22
-0.4881572687
 32
0.0
 13
0.0
 23
-0.6739550627
 33
0.0
 40
0.0
 40
0.0
 40
0.0
 40
0.0
 40
0.1639460018
 40
0.3257504797
 40
0.482478749
 40
0.630764761
 40
0.7655927777
 40
0.8257657627
 40
0.8794649574
 40
0.9252995902
 40
0.9616057153
 40
0.986798508
 40
1.0
 40
1.0
 40
1.0
 40
1.0
 10
-3.9530427099
 20
-23.4563578147
 30
0.0
 10
-3.9276491314
 20
-23.4830349589
 30
0.0
 10
-3.8771933967
 20
-23.5360405857
 30
0.0
 10
-3.802541631
 20
-23.6146242668
 30
0.0
 10
-3.7304829343
 20
-23.6908200103
 30
0.0
 10
-3.6628851017
 20
-23.7628879616
 30
0.0
 10
-3.6105185614
 20
-23.8195138793
 30
0.0
 10
-3.5730515199
 20
-23.8609457041
 30
0.0
 10
-3.5492451598
 20
-23.8878266916
 30
0.0
 10
-3.5295064358
 20
-23.9109969177
 30
0.0
 10
-3.5141136344
 20
-23.9298333728
 30
0.0
 10
-3.5048671937
 20
-23.9433461366
 30
0.0
 10
-3.5
 20
-23.9511822066
 30
0.0
 10
-3.5
 20
-23.9541479441
 30
0.0
 11
-3.9530427099
 21
-23.4563578147
 31
0.0
 11
-3.8768753292
 21
-23.5364019572
 31
0.0
 11
-3.8017861557
 21
-23.6154796967
 31
0.0
 11
-3.7292341103
 21
-23.6922484082
 31
0.0
 11
-3.6609054883
 21
-23.7651786829
 31
0.0
 11
-3.599306824
 21
-23.8319813955
 31
0.0
 11
-3.5721267448
 21
-23.8620789222
 31
0.0
 11
-3.5481816092
 21
-23.8892157548
 31
0.0
 11
-3.528170398
 21
-23.9127481443
 31
0.0
 11
-3.5129406127
 21
-23.9318994044
 31
0.0
 11
-3.5033335072
 21
-23.9458988158
 31
0.0
 11
-3.5
 21
-23.9541479441
 31
0.0
  0
SPLINE
  5
6FB
100
AcDbEntity
  8
ASSI
100
AcDbSpline
 62
7
  6
CONTINUOUS
 70
0
 71
3
 72
9
 73
5
 74
3
 42
0.0000001
 43
0.0000001
 44
0.0000000001
 12
-0.2443381471
 22
-0.3659791146
 32
0.0
 13
-0.254061569
 23
-0.3592973165
 33
0.0
 40
0.0
 40
0.0
 40
0.0
 40
0.0
 40
0.2446640881
 40
1.0
 40
1.0
 40
1.0
 40
1.0
 10
7.8176867079
 20
21.6973892622
 30
0.0
 10
7.7977597845
 20
21.6675419468
 30
0.0
 10
7.7153747383
 20
21.5461750303
 30
0.0
 10
7.6306129299
 20
21.4264503374
 30
0.0
 10
7.5666456542
 20
21.3359869487
 30
0.0
 11
7.8176867079
 21
21.6973892622
 31
0.0
 11
7.7573041859
 21
21.6082519992
 31
0.0
 11
7.5666456542
 21
21.3359869487
 31
0.0
  0
SPLINE
  5
6FC
100
AcDbEntity
  8
ASSI
100
AcDbSpline
 62
7
  6
CONTINUOUS
 70
0
 71
3
 72
9
 73
5
 74
3
 42
0.0000001
 43
0.0000001
 44
0.0000000001
 12
-0.2540586047
 22
0.3592931244
 32
0.0
 13
-0.2443352963
 23
0.3659748446
 33
0.0
 40
0.0
 40
0.0
 40
0.0
 40
0.0
 40
0.2537038893
 40
1.0
 40
1.0
 40
1.0
 40
1.0
 10
-7.5666456542
 20
21.3359869487
 30
0.0
 10
-7.5881308729
 20
21.3663716363
 30
0.0
 10
-7.6728002144
 20
21.4861438704
 30
0.0
 10
-7.7569045474
 20
21.6063473945
 30
0.0
 10
-7.8176867079
 20
21.6973892622
 30
0.0
 11
-7.5666456542
 21
21.3359869487
 31
0.0
 11
-7.6310563883
 21
21.4271727598
 31
0.0
 11
-7.8176867079
 21
21.6973892622
 31
0.0
  0
SPLINE
  5
6FD
100
AcDbEntity
  8
ASSI
100
AcDbSpline
 62
7
  6
CONTINUOUS
 70
0
 71
3
 72
18
 73
14
 74
12
 42
0.0000001
 43
0.0000001
 44
0.0000000001
 12
0.0392553859
 22
0.6725664501
 32
0.0
 13
0.4645014556
 23
0.4879805455
 33
0.0
 40
0.0
 40
0.0
 40
0.0
 40
0.0
 40
0.0137157304
 40
0.0393493808
 40
0.0759734899
 40
0.1220103774
 40
0.1758120642
 40
0.2360063057
 40
0.3707057782
 40
0.5187151741
 40
0.6750825736
 40
0.836479649
 40
1.0
 40
1.0
 40
1.0
 40
1.0
 10
-4.406077753
 20
-23.9538922731
 30
0.0
 10
-4.4058982809
 20
-23.9508173597
 30
0.0
 10
-4.4009542569
 20
-23.9428964033
 30
0.0
 10
-4.3914258461
 20
-23.9291461484
 30
0.0
 10
-4.3759118154
 20
-23.9101920512
 30
0.0
 10
-4.3560566861
 20
-23.8869315579
 30
0.0
 10
-4.3322034692
 20
-23.8600188819
 30
0.0
 10
-4.2947375978
 20
-23.8186117665
 30
0.0
 10
-4.2424429846
 20
-23.7620765621
 30
0.0
 10
-4.1749830751
 20
-23.6901635193
 30
0.0
 10
-4.1031102527
 20
-23.6141674043
 30
0.0
 10
-4.0286696596
 20
-23.5358069991
 30
0.0
 10
-3.9783611903
 20
-23.4829560647
 30
0.0
 10
-3.9530427099
 20
-23.4563578147
 30
0.0
 11
-4.406077753
 21
-23.9538922731
 31
0.0
 11
-4.402452759
 21
-23.9453925589
 31
0.0
 11
-4.3926159547
 21
-23.9311982315
 31
0.0
 11
-4.377223903
 21
-23.9119136684
 31
0.0
 11
-4.3571110204
 21
-23.888303565
 31
0.0
 11
-4.3331157257
 21
-23.8611363828
 31
0.0
 11
-4.3059272804
 21
-23.8310468994
 31
0.0
 11
-4.2443999769
 21
-23.7643409324
 31
0.0
 11
-4.1762191345
 21
-23.6915771536
 31
0.0
 11
-4.1038585074
 21
-23.6150146693
 31
0.0
 11
-4.0289849141
 21
-23.5361651627
 31
0.0
 11
-3.9530427099
 21
-23.4563578147
 31
0.0
  0
SPLINE
  5
6FE
100
AcDbEntity
  8
ASSI
100
AcDbSpline
 62
253
  6
CONTINUOUS
 70
0
 71
3
 72
11
 73
7
 74
5
 42
0.0000001
 43
0.0000001
 44
0.0000000001
 12
-0.0012232396
 22
-0.3641881922
 32
0.0
 13
-0.3641890909
 23
-0.000917463
 33
0.0
 40
0.0
 40
0.0
 40
0.0
 40
0.0
 40
0.2331915743
 40
0.4766745745
 40
0.7337783373
 40
1.0
 40
1.0
 40
1.0
 40
1.0
 10
-7.254371834
 20
23.8443375673
 30
0.0
 10
-7.2544669171
 20
23.816029028
 30
0.0
 10
-7.2683915267
 20
23.7574811703
 30
0.0
 10
-7.3253432556
 20
23.6858440306
 30
0.0
 10
-7.4079899397
 20
23.6388233493
 30
0.0
 10
-7.4720492614
 20
23.6279126325
 30
0.0
 10
-7.5043676032
 20
23.6278312164
 30
0.0
 11
-7.254371834
 21
23.8443375673
 31
0.0
 11
-7.2736125622
 21
23.7616197559
 31
0.0
 11
-7.3278585867
 21
23.6914736881
 31
0.0
 11
-7.4088549183
 21
23.6444944577
 31
0.0
 11
-7.5043676032
 21
23.6278312164
 31
0.0
  0
SPLINE
  5
6FF
100
AcDbEntity
  8
ASSI
100
AcDbSpline
 62
7
  6
CONTINUOUS
 70
0
 71
3
 72
18
 73
14
 74
12
 42
0.0000001
 43
0.0000001
 44
0.0000000001
 12
-0.4646696759
 22
0.4881572689
 32
0.0
 13
0.0
 23
0.673955063
 33
0.0
 40
0.0
 40
0.0
 40
0.0
 40
0.0
 40
0.1639460044
 40
0.3257504885
 40
0.4824787649
 40
0.6307647793
 40
0.7655927965
 40
0.8257657858
 40
0.8794649781
 40
0.9252996035
 40
0.9616057265
 40
0.9867985141
 40
1.0
 40
1.0
 40
1.0
 40
1.0
 10
3.9530427099
 20
23.4563578147
 30
0.0
 10
3.927649131
 20
23.4830349593
 30
0.0
 10
3.8771933949
 20
23.5360405875
 30
0.0
 10
3.8025416267
 20
23.6146242713
 30
0.0
 10
3.7304829276
 20
23.6908200173
 30
0.0
 10
3.6628850934
 20
23.7628879704
 30
0.0
 10
3.6105185524
 20
23.8195138896
 30
0.0
 10
3.5730515102
 20
23.8609457146
 30
0.0
 10
3.5492451513
 20
23.8878267013
 30
0.0
 10
3.5295064294
 20
23.910996926
 30
0.0
 10
3.5141136305
 20
23.9298333786
 30
0.0
 10
3.5048671897
 20
23.9433461392
 30
0.0
 10
3.5
 20
23.951182208
 30
0.0
 10
3.5
 20
23.9541479441
 30
0.0
 11
3.9530427099
 21
23.4563578147
 31
0.0
 11
3.876875328
 21
23.5364019585
 31
0.0
 11
3.8017861516
 21
23.6154797011
 31
0.0
 11
3.7292341028
 21
23.6922484161
 31
0.0
 11
3.6609054798
 21
23.765178692
 31
0.0
 11
3.5993068154
 21
23.831981405
 31
0.0
 11
3.5721267342
 21
23.8620789339
 31
0.0
 11
3.5481816
 21
23.8892157655
 31
0.0
 11
3.5281703924
 21
23.9127481516
 31
0.0
 11
3.5129406078
 21
23.9318994105
 31
0.0
 11
3.5033335043
 21
23.945898819
 31
0.0
 11
3.5
 21
23.9541479441
 31
0.0
  0
SPLINE
  5
700
100
AcDbEntity
  8
ASSI
100
AcDbSpline
 62
7
  6
CONTINUOUS
 70
0
 71
3
 72
18
 73
14
 74
12
 42
0.0000001
 43
0.0000001
 44
0.0000000001
 12
-0.0392553859
 22
-0.6725664502
 32
0.0
 13
-0.4645014557
 23
-0.4879805457
 33
0.0
 40
0.0
 40
0.0
 40
0.0
 40
0.0
 40
0.0137157258
 40
0.0393493721
 40
0.0759734797
 40
0.1220103616
 40
0.1758120465
 40
0.2360062912
 40
0.3707057639
 40
0.5187151617
 40
0.675082567
 40
0.8364796472
 40
1.0
 40
1.0
 40
1.0
 40
1.0
 10
4.406077753
 20
23.9538922731
 30
0.0
 10
4.4058982809
 20
23.9508173607
 30
0.0
 10
4.4009542599
 20
23.9428964054
 30
0.0
 10
4.3914258492
 20
23.9291461528
 30
0.0
 10
4.3759118202
 20
23.9101920575
 30
0.0
 10
4.3560566926
 20
23.8869315653
 30
0.0
 10
4.3322034767
 20
23.8600188899
 30
0.0
 10
4.2947376048
 20
23.8186117744
 30
0.0
 10
4.2424429911
 20
23.7620765688
 30
0.0
 10
4.1749830803
 20
23.6901635248
 30
0.0
 10
4.1031102559
 20
23.6141674078
 30
0.0
 10
4.0286696609
 20
23.5358070005
 30
0.0
 10
3.9783611906
 20
23.482956065
 30
0.0
 10
3.9530427099
 20
23.4563578147
 30
0.0
 11
4.406077753
 21
23.9538922731
 31
0.0
 11
4.4024527612
 21
23.9453925614
 31
0.0
 11
4.3926159585
 21
23.9311982362
 31
0.0
 11
4.3772239073
 21
23.911913674
 31
0.0
 11
4.3571110274
 21
23.8883035732
 31
0.0
 11
4.3331157339
 21
23.8611363917
 31
0.0
 11
4.305927287
 21
23.8310469067
 31
0.0
 11
4.2443999836
 21
23.7643409396
 31
0.0
 11
4.1762191403
 21
23.6915771597
 31
0.0
 11
4.1038585105
 21
23.6150146726
 31
0.0
 11
4.028984915
 21
23.5361651636
 31
0.0
 11
3.9530427099
 21
23.4563578147
 31
0.0
  0
SPLINE
  5
701
100
AcDbEntity
  8
ASSI
100
AcDbSpline
 62
7
  6
CONTINUOUS
 70
0
 71
3
 72
18
 73
14
 74
12
 42
0.0000001
 43
0.0000001
 44
0.0000000001
 12
-0.4645014557
 22
0.4879805457
 32
0.0
 13
-0.0392553859
 23
0.6725664502
 33
0.0
 40
0.0
 40
0.0
 40
0.0
 40
0.0
 40
0.1635203532
 40
0.3249174341
 40
0.4812848402
 40
0.6292942383
 40
0.7639937113
 40
0.8241879568
 40
0.8779896413
 40
0.9240265223
 40
0.9606506296
 40
0.9862842752
 40
1.0
 40
1.0
 40
1.0
 40
1.0
 10
-3.9530427099
 20
23.4563578147
 30
0.0
 10
-3.9783611906
 20
23.4829560651
 30
0.0
 10
-4.0286696612
 20
23.5358070008
 30
0.0
 10
-4.1031102564
 20
23.6141674083
 30
0.0
 10
-4.1749830811
 20
23.6901635256
 30
0.0
 10
-4.2424429921
 20
23.7620765699
 30
0.0
 10
-4.294737606
 20
23.8186117758
 30
0.0
 10
-4.332203478
 20
23.8600188913
 30
0.0
 10
-4.3560566938
 20
23.8869315667
 30
0.0
 10
-4.3759118212
 20
23.9101920587
 30
0.0
 10
-4.3914258497
 20
23.9291461537
 30
0.0
 10
-4.4009542605
 20
23.9428964058
 30
0.0
 10
-4.4058982809
 20
23.9508173609
 30
0.0
 10
-4.406077753
 20
23.9538922731
 30
0.0
 11
-3.9530427099
 21
23.4563578147
 31
0.0
 11
-4.0289849152
 21
23.5361651638
 31
0.0
 11
-4.1038585111
 21
23.6150146732
 31
0.0
 11
-4.1762191411
 21
23.6915771606
 31
0.0
 11
-4.2443999846
 21
23.7643409407
 31
0.0
 11
-4.3059272881
 21
23.831046908
 31
0.0
 11
-4.3331157353
 21
23.8611363934
 31
0.0
 11
-4.3571110287
 21
23.8883035747
 31
0.0
 11
-4.3772239081
 21
23.911913675
 31
0.0
 11
-4.3926159592
 21
23.9311982371
 31
0.0
 11
-4.4024527616
 21
23.9453925618
 31
0.0
 11
-4.406077753
 21
23.9538922731
 31
0.0
  0
SPLINE
  5
702
100
AcDbEntity
  8
ASSI
100
AcDbSpline
 62
7
  6
CONTINUOUS
 70
0
 71
3
 72
10
 73
6
 74
4
 42
0.0000001
 43
0.0000001
 44
0.0000000001
 12
0.0
 22
-0.039841203
 32
0.0
 13
-0.0249474492
 23
-0.0310635838
 33
0.0
 40
0.0
 40
0.0
 40
0.0
 40
0.0
 40
0.1229778305
 40
0.3318964498
 40
1.0
 40
1.0
 40
1.0
 40
1.0
 10
-3.5
 20
23.9541479441
 30
0.0
 10
-3.5
 20
23.9525147492
 30
0.0
 10
-3.5018504635
 20
23.9483053883
 30
0.0
 10
-3.5086353125
 20
23.9370543345
 30
0.0
 10
-3.5159501835
 20
23.9278344505
 30
0.0
 10
-3.52150601
 20
23.9209165537
 30
0.0
 11
-3.5
 21
23.9541479441
 31
0.0
 11
-3.5014264171
 21
23.9494605925
 31
0.0
 11
-3.5055972364
 21
23.942257394
 31
0.0
 11
-3.52150601
 21
23.9209165537
 31
0.0
  0
LINE
  5
703
100
AcDbEntity
  8
ASSI
100
AcDbLine
 62
7
  6
CONTINUOUS
 10
-3.52150601
 20
23.9209165537
 11
-3.5340323891
 21
23.9057311863
  0
SPLINE
  5
704
100
AcDbEntity
  8
ASSI
100
AcDbSpline
 62
7
  6
CONTINUOUS
 70
0
 71
3
 72
10
 73
6
 74
4
 42
0.0000001
 43
0.0000001
 44
0.0000000001
 12
-0.3960087131
 22
-0.4698271885
 32
0.0
 13
-0.4236494634
 23
-0.4450636135
 33
0.0
 40
0.0
 40
0.0
 40
0.0
 40
0.0
 40
0.1945988486
 40
0.442253137
 40
1.0
 40
1.0
 40
1.0
 40
1.0
 10
-3.5340323891
 20
23.9057311863
 30
0.0
 10
-3.5597200023
 20
23.875255243
 30
0.0
 10
-3.6206886658
 20
23.8082150485
 30
0.0
 10
-3.7604122691
 20
23.658476995
 30
0.0
 10
-3.8742796568
 20
23.5391020928
 30
0.0
 10
-3.9530427099
 20
23.4563578147
 30
0.0
 11
-3.5340323891
 21
23.9057311863
 31
0.0
 11
-3.6135341282
 21
23.8164159983
 31
0.0
 11
-3.7172111331
 21
23.7050254125
 31
0.0
 11
-3.9530427099
 21
23.4563578147
 31
0.0
  0
LINE
  5
705
100
AcDbEntity
  8
ASSI
100
AcDbLine
 62
7
  6
CONTINUOUS
 10
-9.5242313121
 20
19.8214267532
 11
-8.8258650579
 21
20.5276115984
  0
LINE
  5
706
100
AcDbEntity
  8
ASSI
100
AcDbLine
 62
7
  6
CONTINUOUS
 10
9.5242313121
 20
19.8214267532
 11
8.8258650579
 21
20.5276115984
  0
SPLINE
  5
707
100
AcDbEntity
  8
ASSI
100
AcDbSpline
 62
253
  6
CONTINUOUS
 70
0
 71
3
 72
11
 73
7
 74
5
 42
0.0000001
 43
0.0000001
 44
0.0000000001
 12
0.0012232396
 22
-0.3641881922
 32
0.0
 13
0.3641890909
 23
-0.000917463
 33
0.0
 40
0.0
 40
0.0
 40
0.0
 40
0.0
 40
0.2331915743
 40
0.4766745745
 40
0.7337783373
 40
1.0
 40
1.0
 40
1.0
 40
1.0
 10
-10.145628166
 20
23.8443375673
 30
0.0
 10
-10.1455330829
 20
23.816029028
 30
0.0
 10
-10.1316084733
 20
23.7574811703
 30
0.0
 10
-10.0746567444
 20
23.6858440306
 30
0.0
 10
-9.9920100603
 20
23.6388233493
 30
0.0
 10
-9.9279507386
 20
23.6279126325
 30
0.0
 10
-9.8956323968
 20
23.6278312164
 30
0.0
 11
-10.145628166
 21
23.8443375673
 31
0.0
 11
-10.1263874378
 21
23.7616197559
 31
0.0
 11
-10.0721414133
 21
23.6914736881
 31
0.0
 11
-9.9911450817
 21
23.6444944577
 31
0.0
 11
-9.8956323968
 21
23.6278312164
 31
0.0
  0
SPLINE
  5
708
100
AcDbEntity
  8
ASSI
100
AcDbSpline
 62
253
  6
CONTINUOUS
 70
0
 71
3
 72
11
 73
7
 74
5
 42
0.0000001
 43
0.0000001
 44
0.0000000001
 12
-0.0012232396
 22
0.3641881911
 32
0.0
 13
-0.3641890898
 23
0.000917463
 33
0.0
 40
0.0
 40
0.0
 40
0.0
 40
0.0
 40
0.2331916137
 40
0.4766746591
 40
0.7337784865
 40
1.0
 40
1.0
 40
1.0
 40
1.0
 10
10.145628166
 20
-23.8443375673
 30
0.0
 10
10.1455330829
 20
-23.8160290233
 30
0.0
 10
10.1316084677
 20
-23.7574811558
 30
0.0
 10
10.0746567212
 20
-23.6858440048
 30
0.0
 10
9.992010029
 20
-23.6388233468
 30
0.0
 10
9.9279507203
 20
-23.6279126325
 30
0.0
 10
9.8956323968
 20
-23.6278312164
 30
0.0
 11
10.145628166
 21
-23.8443375673
 31
0.0
 11
10.1263874314
 21
-23.761619743
 31
0.0
 11
10.0721413903
 21
-23.6914736674
 31
0.0
 11
9.991145029
 21
-23.644494442
 31
0.0
 11
9.8956323968
 21
-23.6278312164
 31
0.0
  0
SPLINE
  5
709
100
AcDbEntity
  8
ASSI
100
AcDbSpline
 62
253
  6
CONTINUOUS
 70
0
 71
3
 72
11
 73
7
 74
5
 42
0.0000001
 43
0.0000001
 44
0.0000000001
 12
0.0012232396
 22
0.3641881885
 32
0.0
 13
0.3641890872
 23
0.000917463
 33
0.0
 40
0.0
 40
0.0
 40
0.0
 40
0.0
 40
0.2331911215
 40
0.4766742664
 40
0.7337781758
 40
1.0
 40
1.0
 40
1.0
 40
1.0
 10
7.254371834
 20
-23.8443375673
 30
0.0
 10
7.2544669169
 20
-23.8160290833
 30
0.0
 10
7.2683915068
 20
-23.7574812729
 30
0.0
 10
7.3253431573
 20
-23.6858440937
 30
0.0
 10
7.4079898845
 20
-23.6388233639
 30
0.0
 10
7.4720492422
 20
-23.6279126326
 30
0.0
 10
7.5043676032
 20
-23.6278312164
 30
0.0
 11
7.254371834
 21
-23.8443375673
 31
0.0
 11
7.2736124995
 21
-23.7616199115
 31
0.0
 11
7.3278585014
 21
-23.6914737607
 31
0.0
 11
7.4088548631
 21
-23.6444944778
 31
0.0
 11
7.5043676032
 21
-23.6278312164
 31
0.0
  0
SPLINE
  5
70A
100
AcDbEntity
  8
ASSI
100
AcDbSpline
 62
253
  6
CONTINUOUS
 70
0
 71
3
 72
11
 73
7
 74
5
 42
0.0000001
 43
0.0000001
 44
0.0000000001
 12
0.0012232396
 22
0.3641881911
 32
0.0
 13
0.3641890898
 23
0.000917463
 33
0.0
 40
0.0
 40
0.0
 40
0.0
 40
0.0
 40
0.2331916137
 40
0.4766746591
 40
0.7337784865
 40
1.0
 40
1.0
 40
1.0
 40
1.0
 10
-10.145628166
 20
-23.8443375673
 30
0.0
 10
-10.1455330829
 20
-23.8160290233
 30
0.0
 10
-10.1316084677
 20
-23.7574811558
 30
0.0
 10
-10.0746567212
 20
-23.6858440048
 30
0.0
 10
-9.992010029
 20
-23.6388233468
 30
0.0
 10
-9.9279507203
 20
-23.6279126325
 30
0.0
 10
-9.8956323968
 20
-23.6278312164
 30
0.0
 11
-10.145628166
 21
-23.8443375673
 31
0.0
 11
-10.1263874314
 21
-23.761619743
 31
0.0
 11
-10.0721413903
 21
-23.6914736674
 31
0.0
 11
-9.991145029
 21
-23.644494442
 31
0.0
 11
-9.8956323968
 21
-23.6278312164
 31
0.0
  0
SPLINE
  5
70B
100
AcDbEntity
  8
ASSI
100
AcDbSpline
 62
253
  6
CONTINUOUS
 70
0
 71
3
 72
11
 73
7
 74
5
 42
0.0000001
 43
0.0000001
 44
0.0000000001
 12
-0.0012232396
 22
0.3641881885
 32
0.0
 13
-0.3641890872
 23
0.000917463
 33
0.0
 40
0.0
 40
0.0
 40
0.0
 40
0.0
 40
0.2331911215
 40
0.4766742664
 40
0.7337781758
 40
1.0
 40
1.0
 40
1.0
 40
1.0
 10
-7.254371834
 20
-23.8443375673
 30
0.0
 10
-7.2544669169
 20
-23.8160290833
 30
0.0
 10
-7.2683915068
 20
-23.7574812729
 30
0.0
 10
-7.3253431573
 20
-23.6858440937
 30
0.0
 10
-7.4079898845
 20
-23.6388233639
 30
0.0
 10
-7.4720492422
 20
-23.6279126326
 30
0.0
 10
-7.5043676032
 20
-23.6278312164
 30
0.0
 11
-7.254371834
 21
-23.8443375673
 31
0.0
 11
-7.2736124995
 21
-23.7616199115
 31
0.0
 11
-7.3278585014
 21
-23.6914737607
 31
0.0
 11
-7.4088548631
 21
-23.6444944778
 31
0.0
 11
-7.5043676032
 21
-23.6278312164
 31
0.0
  0
SPLINE
  5
70C
100
AcDbEntity
  8
0
100
AcDbSpline
 62
7
  6
CONTINUOUS
 70
0
 71
3
 72
8
 73
4
 74
2
 42
0.0000001
 43
0.0000001
 44
0.0000000001
 12
0.0647014934
 22
-0.1120714463
 32
0.0
 13
0.1120714463
 23
-0.0647014934
 33
0.0
 40
0.0
 40
0.0
 40
0.0
 40
0.0
 40
1.0
 40
1.0
 40
1.0
 40
1.0
 10
-10.1165072345
 20
-24.3750023375
 30
0.0
 10
-10.09494007
 20
-24.4123594863
 30
0.0
 10
-10.0623594863
 20
-24.44494007
 30
0.0
 10
-10.0250023375
 20
-24.4665072345
 30
0.0
 11
-10.1165072345
 21
-24.3750023375
 31
0.0
 11
-10.0250023375
 21
-24.4665072345
 31
0.0
  0
SPLINE
  5
70D
100
AcDbEntity
  8
0
100
AcDbSpline
 62
7
  6
CONTINUOUS
 70
0
 71
3
 72
8
 73
4
 74
2
 42
0.0000001
 43
0.0000001
 44
0.0000000001
 12
0.0826199591
 22
-0.0425948174
 32
0.0
 13
0.0924708835
 23
-0.0094610679
 33
0.0
 40
0.0
 40
0.0
 40
0.0
 40
0.0
 40
1.0
 40
1.0
 40
1.0
 40
1.0
 10
-10.0145591099
 20
-24.4722096181
 30
0.0
 10
-9.9870191235
 20
-24.4864078905
 30
0.0
 10
-9.9562837605
 20
-24.4955464622
 30
0.0
 10
-9.9254601326
 20
-24.4987001515
 30
0.0
 11
-10.0145591099
 21
-24.4722096181
 31
0.0
 11
-9.9254601326
 21
-24.4987001515
 31
0.0
  0
SPLINE
  5
70E
100
AcDbEntity
  8
0
100
AcDbSpline
 62
7
  6
CONTINUOUS
 70
0
 71
3
 72
8
 73
4
 74
2
 42
0.0000001
 43
0.0000001
 44
0.0000000001
 12
0.1120714463
 22
0.0647014934
 32
0.0
 13
0.0647014934
 23
0.1120714463
 33
0.0
 40
0.0
 40
0.0
 40
0.0
 40
0.0
 40
1.0
 40
1.0
 40
1.0
 40
1.0
 10
-7.3749976625
 20
-24.4665072345
 30
0.0
 10
-7.3376405137
 20
-24.44494007
 30
0.0
 10
-7.30505993
 20
-24.4123594863
 30
0.0
 10
-7.2834927655
 20
-24.3750023375
 30
0.0
 11
-7.3749976625
 21
-24.4665072345
 31
0.0
 11
-7.2834927655
 21
-24.3750023375
 31
0.0
  0
SPLINE
  5
70F
100
AcDbEntity
  8
0
100
AcDbSpline
 62
7
  6
CONTINUOUS
 70
0
 71
3
 72
8
 73
4
 74
2
 42
0.0000001
 43
0.0000001
 44
0.0000000001
 12
0.0425948174
 22
0.0826199591
 32
0.0
 13
0.0094610679
 23
0.0924708835
 33
0.0
 40
0.0
 40
0.0
 40
0.0
 40
0.0
 40
1.0
 40
1.0
 40
1.0
 40
1.0
 10
-7.2777903819
 20
-24.3645591099
 30
0.0
 10
-7.2635921095
 20
-24.3370191235
 30
0.0
 10
-7.2544535378
 20
-24.3062837605
 30
0.0
 10
-7.2512998485
 20
-24.2754601326
 30
0.0
 11
-7.2777903819
 21
-24.3645591099
 31
0.0
 11
-7.2512998485
 21
-24.2754601326
 31
0.0
  0
SPLINE
  5
710
100
AcDbEntity
  8
0
100
AcDbSpline
 62
7
  6
CONTINUOUS
 70
0
 71
3
 72
8
 73
4
 74
2
 42
0.0000001
 43
0.0000001
 44
0.0000000001
 12
0.1120714463
 22
0.0647014934
 32
0.0
 13
0.0647014934
 23
0.1120714463
 33
0.0
 40
0.0
 40
0.0
 40
0.0
 40
0.0
 40
1.0
 40
1.0
 40
1.0
 40
1.0
 10
10.0250023375
 20
-24.4665072345
 30
0.0
 10
10.0623594863
 20
-24.44494007
 30
0.0
 10
10.09494007
 20
-24.4123594863
 30
0.0
 10
10.1165072345
 20
-24.3750023375
 30
0.0
 11
10.0250023375
 21
-24.4665072345
 31
0.0
 11
10.1165072345
 21
-24.3750023375
 31
0.0
  0
SPLINE
  5
711
100
AcDbEntity
  8
0
100
AcDbSpline
 62
7
  6
CONTINUOUS
 70
0
 71
3
 72
8
 73
4
 74
2
 42
0.0000001
 43
0.0000001
 44
0.0000000001
 12
0.0425948174
 22
0.0826199591
 32
0.0
 13
0.0094610679
 23
0.0924708835
 33
0.0
 40
0.0
 40
0.0
 40
0.0
 40
0.0
 40
1.0
 40
1.0
 40
1.0
 40
1.0
 10
10.1222096181
 20
-24.3645591099
 30
0.0
 10
10.1364078905
 20
-24.3370191235
 30
0.0
 10
10.1455464622
 20
-24.3062837605
 30
0.0
 10
10.1487001515
 20
-24.2754601326
 30
0.0
 11
10.1222096181
 21
-24.3645591099
 31
0.0
 11
10.1487001515
 21
-24.2754601326
 31
0.0
  0
SPLINE
  5
712
100
AcDbEntity
  8
0
100
AcDbSpline
 62
7
  6
CONTINUOUS
 70
0
 71
3
 72
8
 73
4
 74
2
 42
0.0000001
 43
0.0000001
 44
0.0000000001
 12
0.0647014934
 22
-0.1120714463
 32
0.0
 13
0.1120714463
 23
-0.0647014934
 33
0.0
 40
0.0
 40
0.0
 40
0.0
 40
0.0
 40
1.0
 40
1.0
 40
1.0
 40
1.0
 10
7.2834927655
 20
-24.3750023375
 30
0.0
 10
7.30505993
 20
-24.4123594863
 30
0.0
 10
7.3376405137
 20
-24.44494007
 30
0.0
 10
7.3749976625
 20
-24.4665072345
 30
0.0
 11
7.2834927655
 21
-24.3750023375
 31
0.0
 11
7.3749976625
 21
-24.4665072345
 31
0.0
  0
SPLINE
  5
713
100
AcDbEntity
  8
0
100
AcDbSpline
 62
7
  6
CONTINUOUS
 70
0
 71
3
 72
8
 73
4
 74
2
 42
0.0000001
 43
0.0000001
 44
0.0000000001
 12
0.0826199591
 22
-0.0425948174
 32
0.0
 13
0.0924708835
 23
-0.0094610679
 33
0.0
 40
0.0
 40
0.0
 40
0.0
 40
0.0
 40
1.0
 40
1.0
 40
1.0
 40
1.0
 10
7.3854408901
 20
-24.4722096181
 30
0.0
 10
7.4129808765
 20
-24.4864078905
 30
0.0
 10
7.4437162395
 20
-24.4955464622
 30
0.0
 10
7.4745398674
 20
-24.4987001515
 30
0.0
 11
7.3854408901
 21
-24.4722096181
 31
0.0
 11
7.4745398674
 21
-24.4987001515
 31
0.0
  0
SPLINE
  5
714
100
AcDbEntity
  8
0
100
AcDbSpline
 62
7
  6
CONTINUOUS
 70
0
 71
3
 72
8
 73
4
 74
2
 42
0.0000001
 43
0.0000001
 44
0.0000000001
 12
-0.1120714463
 22
-0.0647014934
 32
0.0
 13
-0.0647014934
 23
-0.1120714463
 33
0.0
 40
0.0
 40
0.0
 40
0.0
 40
0.0
 40
1.0
 40
1.0
 40
1.0
 40
1.0
 10
-10.0250023375
 20
24.4665072345
 30
0.0
 10
-10.0623594863
 20
24.44494007
 30
0.0
 10
-10.09494007
 20
24.4123594863
 30
0.0
 10
-10.1165072345
 20
24.3750023375
 30
0.0
 11
-10.0250023375
 21
24.4665072345
 31
0.0
 11
-10.1165072345
 21
24.3750023375
 31
0.0
  0
SPLINE
  5
715
100
AcDbEntity
  8
0
100
AcDbSpline
 62
7
  6
CONTINUOUS
 70
0
 71
3
 72
8
 73
4
 74
2
 42
0.0000001
 43
0.0000001
 44
0.0000000001
 12
-0.0425948174
 22
-0.0826199591
 32
0.0
 13
-0.0094610679
 23
-0.0924708835
 33
0.0
 40
0.0
 40
0.0
 40
0.0
 40
0.0
 40
1.0
 40
1.0
 40
1.0
 40
1.0
 10
-10.1222096181
 20
24.3645591099
 30
0.0
 10
-10.1364078905
 20
24.3370191235
 30
0.0
 10
-10.1455464622
 20
24.3062837605
 30
0.0
 10
-10.1487001515
 20
24.2754601326
 30
0.0
 11
-10.1222096181
 21
24.3645591099
 31
0.0
 11
-10.1487001515
 21
24.2754601326
 31
0.0
  0
SPLINE
  5
716
100
AcDbEntity
  8
0
100
AcDbSpline
 62
7
  6
CONTINUOUS
 70
0
 71
3
 72
8
 73
4
 74
2
 42
0.0000001
 43
0.0000001
 44
0.0000000001
 12
-0.0647014934
 22
0.1120714463
 32
0.0
 13
-0.1120714463
 23
0.0647014934
 33
0.0
 40
0.0
 40
0.0
 40
0.0
 40
0.0
 40
1.0
 40
1.0
 40
1.0
 40
1.0
 10
-7.2834927655
 20
24.3750023375
 30
0.0
 10
-7.30505993
 20
24.4123594863
 30
0.0
 10
-7.3376405137
 20
24.44494007
 30
0.0
 10
-7.3749976625
 20
24.4665072345
 30
0.0
 11
-7.2834927655
 21
24.3750023375
 31
0.0
 11
-7.3749976625
 21
24.4665072345
 31
0.0
  0
SPLINE
  5
717
100
AcDbEntity
  8
0
100
AcDbSpline
 62
7
  6
CONTINUOUS
 70
0
 71
3
 72
8
 73
4
 74
2
 42
0.0000001
 43
0.0000001
 44
0.0000000001
 12
-0.0826199591
 22
0.0425948174
 32
0.0
 13
-0.0924708835
 23
0.0094610679
 33
0.0
 40
0.0
 40
0.0
 40
0.0
 40
0.0
 40
1.0
 40
1.0
 40
1.0
 40
1.0
 10
-7.3854408901
 20
24.4722096181
 30
0.0
 10
-7.4129808765
 20
24.4864078905
 30
0.0
 10
-7.4437162395
 20
24.4955464622
 30
0.0
 10
-7.4745398674
 20
24.4987001515
 30
0.0
 11
-7.3854408901
 21
24.4722096181
 31
0.0
 11
-7.4745398674
 21
24.4987001515
 31
0.0
  0
SPLINE
  5
718
100
AcDbEntity
  8
0
100
AcDbSpline
 62
7
  6
CONTINUOUS
 70
0
 71
3
 72
8
 73
4
 74
2
 42
0.0000001
 43
0.0000001
 44
0.0000000001
 12
-0.1120714463
 22
-0.0647014934
 32
0.0
 13
-0.0647014934
 23
-0.1120714463
 33
0.0
 40
0.0
 40
0.0
 40
0.0
 40
0.0
 40
1.0
 40
1.0
 40
1.0
 40
1.0
 10
7.3749976625
 20
24.4665072345
 30
0.0
 10
7.3376405137
 20
24.44494007
 30
0.0
 10
7.30505993
 20
24.4123594863
 30
0.0
 10
7.2834927655
 20
24.3750023375
 30
0.0
 11
7.3749976625
 21
24.4665072345
 31
0.0
 11
7.2834927655
 21
24.3750023375
 31
0.0
  0
SPLINE
  5
719
100
AcDbEntity
  8
0
100
AcDbSpline
 62
7
  6
CONTINUOUS
 70
0
 71
3
 72
8
 73
4
 74
2
 42
0.0000001
 43
0.0000001
 44
0.0000000001
 12
-0.0425948174
 22
-0.0826199591
 32
0.0
 13
-0.0094610679
 23
-0.0924708835
 33
0.0
 40
0.0
 40
0.0
 40
0.0
 40
0.0
 40
1.0
 40
1.0
 40
1.0
 40
1.0
 10
7.2777903819
 20
24.3645591099
 30
0.0
 10
7.2635921095
 20
24.3370191235
 30
0.0
 10
7.2544535378
 20
24.3062837605
 30
0.0
 10
7.2512998485
 20
24.2754601326
 30
0.0
 11
7.2777903819
 21
24.3645591099
 31
0.0
 11
7.2512998485
 21
24.2754601326
 31
0.0
  0
SPLINE
  5
71A
100
AcDbEntity
  8
0
100
AcDbSpline
 62
7
  6
CONTINUOUS
 70
0
 71
3
 72
8
 73
4
 74
2
 42
0.0000001
 43
0.0000001
 44
0.0000000001
 12
-0.0647014934
 22
0.1120714463
 32
0.0
 13
-0.1120714463
 23
0.0647014934
 33
0.0
 40
0.0
 40
0.0
 40
0.0
 40
0.0
 40
1.0
 40
1.0
 40
1.0
 40
1.0
 10
10.1165072345
 20
24.3750023375
 30
0.0
 10
10.09494007
 20
24.4123594863
 30
0.0
 10
10.0623594863
 20
24.44494007
 30
0.0
 10
10.0250023375
 20
24.4665072345
 30
0.0
 11
10.1165072345
 21
24.3750023375
 31
0.0
 11
10.0250023375
 21
24.4665072345
 31
0.0
  0
SPLINE
  5
71B
100
AcDbEntity
  8
0
100
AcDbSpline
 62
7
  6
CONTINUOUS
 70
0
 71
3
 72
8
 73
4
 74
2
 42
0.0000001
 43
0.0000001
 44
0.0000000001
 12
-0.0826199591
 22
0.0425948174
 32
0.0
 13
-0.0924708835
 23
0.0094610679
 33
0.0
 40
0.0
 40
0.0
 40
0.0
 40
0.0
 40
1.0
 40
1.0
 40
1.0
 40
1.0
 10
10.0145591099
 20
24.4722096181
 30
0.0
 10
9.9870191235
 20
24.4864078905
 30
0.0
 10
9.9562837605
 20
24.4955464622
 30
0.0
 10
9.9254601326
 20
24.4987001515
 30
0.0
 11
10.0145591099
 21
24.4722096181
 31
0.0
 11
9.9254601326
 21
24.4987001515
 31
0.0
  0
SPLINE
  5
71C
100
AcDbEntity
  8
0
100
AcDbSpline
 62
7
  6
CONTINUOUS
 70
0
 71
3
 72
9
 73
5
 74
3
 42
0.0000001
 43
0.0000001
 44
0.0000000001
 12
-0.0068101508
 22
7.3081663629
 32
0.0
 13
-0.0174846225
 23
7.3081486202
 33
0.0
 40
0.0
 40
0.0
 40
0.0
 40
0.0
 40
0.2506850355
 40
1.0
 40
1.0
 40
1.0
 40
1.0
 10
-9.5121049871
 20
12.5132676422
 30
0.0
 10
-9.5126740547
 20
13.1239502902
 30
0.0
 10
-9.5153857141
 20
15.5600053114
 30
0.0
 10
-9.519864149
 20
17.9960583785
 30
0.0
 10
-9.5242313121
 20
19.8214267532
 30
0.0
 11
-9.5121049871
 21
12.5132676422
 31
0.0
 11
-9.514144629
 21
14.3453152462
 31
0.0
 11
-9.5242313121
 21
19.8214267532
 31
0.0
  0
SPLINE
  5
71D
100
AcDbEntity
  8
0
100
AcDbSpline
 62
7
  6
CONTINUOUS
 70
0
 71
3
 72
16
 73
12
 74
10
 42
0.0000001
 43
0.0000001
 44
0.0000000001
 12
0.4645018176
 22
-0.4879809258
 32
0.0
 13
0.0392554165
 23
-0.6725669742
 33
0.0
 40
0.0
 40
0.0
 40
0.0
 40
0.0
 40
0.3250657002
 40
0.4815215948
 40
0.6295741568
 40
0.7642657801
 40
0.8781855508
 40
0.9241529402
 40
0.960715848
 40
0.9863261834
 40
1.0
 40
1.0
 40
1.0
 40
1.0
 10
3.9530427099
 20
-23.4563578147
 30
0.0
 10
4.0033739128
 20
-23.5092331018
 30
0.0
 10
4.0779385135
 20
-23.5875509046
 30
0.0
 10
4.175082442
 20
-23.6902725731
 30
0.0
 10
4.2425748723
 20
-23.7622060738
 30
0.0
 10
4.3030174434
 20
-23.8276118263
 30
0.0
 10
4.3473720862
 20
-23.8767747888
 30
0.0
 10
4.3759716542
 20
-23.9102601294
 30
0.0
 10
4.3914501158
 20
-23.929193807
 30
0.0
 10
4.400984714
 20
-23.9429096814
 30
0.0
 10
4.4058988292
 20
-23.9508267539
 30
0.0
 10
4.406077753
 20
-23.9538922731
 30
0.0
 11
3.9530427099
 21
-23.4563578147
 31
0.0
 11
4.103927165
 21
-23.6150875061
 31
0.0
 11
4.1763284612
 21
-23.6916937007
 31
0.0
 11
4.2445277488
 21
-23.7644801561
 31
0.0
 11
4.3060506993
 21
-23.8311830401
 31
0.0
 11
4.3571988036
 21
-23.888404464
 31
0.0
 11
4.377278071
 21
-23.9119817272
 31
0.0
 11
4.3926431264
 21
-23.9312351068
 31
0.0
 11
4.4024749365
 21
-23.9454138
 31
0.0
 11
4.406077753
 21
-23.9538922731
 31
0.0
  0
SPLINE
  5
71E
100
AcDbEntity
  8
0
100
AcDbSpline
 62
7
  6
CONTINUOUS
 70
0
 71
3
 72
17
 73
13
 74
11
 42
0.0000001
 43
0.0000001
 44
0.0000000001
 12
0.464671054
 22
-0.4881587166
 32
0.0
 13
0.0
 23
-0.6739570617
 33
0.0
 40
0.0
 40
0.0
 40
0.0
 40
0.0
 40
0.3259011001
 40
0.4827185255
 40
0.6310477491
 40
0.7658671598
 40
0.8259881823
 40
0.8796624663
 40
0.9254267868
 40
0.9616703409
 40
0.9868411371
 40
1.0
 40
1.0
 40
1.0
 40
1.0
 10
-3.9530427099
 20
-23.4563578147
 30
0.0
 10
-3.902563774
 20
-23.5093883023
 30
0.0
 10
-3.8277889186
 20
-23.5879296483
 30
0.0
 10
-3.7303780916
 20
-23.6909304203
 30
0.0
 10
-3.6627638953
 20
-23.7630215835
 30
0.0
 10
-3.6103986548
 20
-23.8196436161
 30
0.0
 10
-3.5729476322
 20
-23.8610644675
 30
0.0
 10
-3.5491633575
 20
-23.887920455
 30
0.0
 10
-3.5294479432
 20
-23.9110657267
 30
0.0
 10
-3.5140897019
 20
-23.9298816259
 30
0.0
 10
-3.5048354047
 20
-23.9433593806
 30
0.0
 10
-3.5
 20
-23.9511917746
 30
0.0
 10
-3.5
 20
-23.9541479441
 30
0.0
 11
-3.9530427099
 21
-23.4563578147
 31
0.0
 11
-3.8017160571
 21
-23.6155540595
 31
0.0
 11
-3.7291228774
 21
-23.6923670029
 31
0.0
 11
-3.6607756663
 21
-23.7653201751
 31
0.0
 11
-3.5991815868
 21
-23.8321195924
 31
0.0
 11
-3.5720265884
 21
-23.8621927437
 31
0.0
 11
-3.5480931045
 21
-23.8893176104
 31
0.0
 11
-3.5281158574
 21
-23.9128167973
 31
0.0
 11
-3.5129136696
 21
-23.9319362177
 31
0.0
 11
-3.5033107729
 21
-23.9459205978
 31
0.0
 11
-3.5
 21
-23.9541479441
 31
0.0
  0
SPLINE
  5
71F
100
AcDbEntity
  8
0
100
AcDbSpline
 62
253
  6
CONTINUOUS
 70
0
 71
3
 72
11
 73
7
 74
5
 42
0.0000001
 43
0.0000001
 44
0.0000000001
 12
-0.0012232482
 22
-0.3641907438
 32
0.0
 13
-0.3641916425
 23
-0.0009174695
 33
0.0
 40
0.0
 40
0.0
 40
0.0
 40
0.0
 40
0.2331623084
 40
0.476670585
 40
0.7338116789
 40
1.0
 40
1.0
 40
1.0
 40
1.0
 10
10.145628166
 20
23.8443375673
 30
0.0
 10
10.1455330942
 20
23.8160323825
 30
0.0
 10
10.1316032365
 20
23.7574892432
 30
0.0
 10
10.0746708123
 20
23.6858281285
 30
0.0
 10
9.9920027722
 20
23.6388299314
 30
0.0
 10
9.9279469174
 20
23.6279126229
 30
0.0
 10
9.8956323968
 20
23.6278312164
 30
0.0
 11
10.145628166
 21
23.8443375673
 31
0.0
 11
10.1263899366
 21
23.7616295068
 31
0.0
 11
10.0721493704
 21
23.6914667969
 31
0.0
 11
9.9911338226
 21
23.6444922937
 31
0.0
 11
9.8956323968
 21
23.6278312164
 31
0.0
  0
SPLINE
  5
720
100
AcDbEntity
  8
0
100
AcDbSpline
 62
253
  6
CONTINUOUS
 70
0
 71
3
 72
11
 73
7
 74
5
 42
0.0000001
 43
0.0000001
 44
0.0000000001
 12
0.0012232482
 22
-0.3641907438
 32
0.0
 13
0.3641916425
 23
-0.0009174695
 33
0.0
 40
0.0
 40
0.0
 40
0.0
 40
0.0
 40
0.2331623084
 40
0.476670585
 40
0.7338116789
 40
1.0
 40
1.0
 40
1.0
 40
1.0
 10
7.254371834
 20
23.8443375673
 30
0.0
 10
7.2544669058
 20
23.8160323825
 30
0.0
 10
7.2683967635
 20
23.7574892432
 30
0.0
 10
7.3253291877
 20
23.6858281285
 30
0.0
 10
7.4079972278
 20
23.6388299314
 30
0.0
 10
7.4720530826
 20
23.6279126229
 30
0.0
 10
7.5043676032
 20
23.6278312164
 30
0.0
 11
7.254371834
 21
23.8443375673
 31
0.0
 11
7.2736100634
 21
23.7616295068
 31
0.0
 11
7.3278506296
 21
23.6914667969
 31
0.0
 11
7.4088661774
 21
23.6444922937
 31
0.0
 11
7.5043676032
 21
23.6278312164
 31
0.0
  0
SPLINE
  5
721
100
AcDbEntity
  8
0
100
AcDbSpline
 62
7
  6
CONTINUOUS
 70
0
 71
3
 72
16
 73
12
 74
10
 42
0.0000001
 43
0.0000001
 44
0.0000000001
 12
0.0392554165
 22
0.6725669742
 32
0.0
 13
0.4645018176
 23
0.4879809258
 33
0.0
 40
0.0
 40
0.0
 40
0.0
 40
0.0
 40
0.0136738273
 40
0.0392841792
 40
0.0758470962
 40
0.1218144816
 40
0.2357342339
 40
0.3704258548
 40
0.5184784303
 40
0.6749342967
 40
1.0
 40
1.0
 40
1.0
 40
1.0
 10
-4.406077753
 20
-23.9538922731
 30
0.0
 10
-4.405898829
 20
-23.9508267515
 30
0.0
 10
-4.4009847092
 20
-23.9429096739
 30
0.0
 10
-4.3914501057
 20
-23.9291937938
 30
0.0
 10
-4.3759716404
 20
-23.9102601128
 30
0.0
 10
-4.3473720737
 20
-23.876774775
 30
0.0
 10
-4.3030174346
 20
-23.8276118168
 30
0.0
 10
-4.2425748645
 20
-23.7622060654
 30
0.0
 10
-4.1750824367
 20
-23.6902725676
 30
0.0
 10
-4.07793851
 20
-23.587550901
 30
0.0
 10
-4.0033739133
 20
-23.5092331023
 30
0.0
 10
-3.9530427099
 20
-23.4563578147
 30
0.0
 11
-4.406077753
 21
-23.9538922731
 31
0.0
 11
-4.4024749329
 21
-23.9454137936
 31
0.0
 11
-4.3926431154
 21
-23.9312350921
 31
0.0
 11
-4.3772780554
 21
-23.9119817082
 31
0.0
 11
-4.3571987893
 21
-23.8884044476
 31
0.0
 11
-4.3060506929
 21
-23.8311830332
 31
0.0
 11
-4.2445277435
 21
-23.7644801503
 31
0.0
 11
-4.1763284496
 21
-23.6916936885
 31
0.0
 11
-4.1039271663
 21
-23.6150875077
 31
0.0
 11
-3.9530427099
 21
-23.4563578147
 31
0.0
  0
SPLINE
  5
722
100
AcDbEntity
  8
0
100
AcDbSpline
 62
253
  6
CONTINUOUS
 70
0
 71
3
 72
11
 73
7
 74
5
 42
0.0000001
 43
0.0000001
 44
0.0000000001
 12
-0.0012232482
 22
-0.3641907438
 32
0.0
 13
-0.3641916425
 23
-0.0009174695
 33
0.0
 40
0.0
 40
0.0
 40
0.0
 40
0.0
 40
0.2331623084
 40
0.476670585
 40
0.7338116789
 40
1.0
 40
1.0
 40
1.0
 40
1.0
 10
-7.254371834
 20
23.8443375673
 30
0.0
 10
-7.2544669058
 20
23.8160323825
 30
0.0
 10
-7.2683967635
 20
23.7574892432
 30
0.0
 10
-7.3253291877
 20
23.6858281285
 30
0.0
 10
-7.4079972278
 20
23.6388299314
 30
0.0
 10
-7.4720530826
 20
23.6279126229
 30
0.0
 10
-7.5043676032
 20
23.6278312164
 30
0.0
 11
-7.254371834
 21
23.8443375673
 31
0.0
 11
-7.2736100634
 21
23.7616295068
 31
0.0
 11
-7.3278506296
 21
23.6914667969
 31
0.0
 11
-7.4088661774
 21
23.6444922937
 31
0.0
 11
-7.5043676032
 21
23.6278312164
 31
0.0
  0
SPLINE
  5
723
100
AcDbEntity
  8
0
100
AcDbSpline
 62
253
  6
CONTINUOUS
 70
0
 71
3
 72
11
 73
7
 74
5
 42
0.0000001
 43
0.0000001
 44
0.0000000001
 12
0.0012232482
 22
-0.3641907438
 32
0.0
 13
0.3641916425
 23
-0.0009174695
 33
0.0
 40
0.0
 40
0.0
 40
0.0
 40
0.0
 40
0.2331623084
 40
0.476670585
 40
0.7338116789
 40
1.0
 40
1.0
 40
1.0
 40
1.0
 10
-10.145628166
 20
23.8443375673
 30
0.0
 10
-10.1455330942
 20
23.8160323825
 30
0.0
 10
-10.1316032365
 20
23.7574892432
 30
0.0
 10
-10.0746708123
 20
23.6858281285
 30
0.0
 10
-9.9920027722
 20
23.6388299314
 30
0.0
 10
-9.9279469174
 20
23.6279126229
 30
0.0
 10
-9.8956323968
 20
23.6278312164
 30
0.0
 11
-10.145628166
 21
23.8443375673
 31
0.0
 11
-10.1263899366
 21
23.7616295068
 31
0.0
 11
-10.0721493704
 21
23.6914667969
 31
0.0
 11
-9.9911338226
 21
23.6444922937
 31
0.0
 11
-9.8956323968
 21
23.6278312164
 31
0.0
  0
SPLINE
  5
724
100
AcDbEntity
  8
0
100
AcDbSpline
 62
253
  6
CONTINUOUS
 70
0
 71
3
 72
11
 73
7
 74
5
 42
0.0000001
 43
0.0000001
 44
0.0000000001
 12
-0.0012232482
 22
0.3641907438
 32
0.0
 13
-0.3641916425
 23
0.0009174695
 33
0.0
 40
0.0
 40
0.0
 40
0.0
 40
0.0
 40
0.2331623162
 40
0.4766706026
 40
0.7338117062
 40
1.0
 40
1.0
 40
1.0
 40
1.0
 10
10.145628166
 20
-23.8443375673
 30
0.0
 10
10.1455330942
 20
-23.8160323815
 30
0.0
 10
10.1316032353
 20
-23.7574892401
 30
0.0
 10
10.0746708074
 20
-23.685828124
 30
0.0
 10
9.9920027666
 20
-23.6388299294
 30
0.0
 10
9.9279469141
 20
-23.6279126229
 30
0.0
 10
9.8956323968
 20
-23.6278312164
 30
0.0
 11
10.145628166
 21
-23.8443375673
 31
0.0
 11
10.1263899352
 21
-23.7616295042
 31
0.0
 11
10.0721493654
 21
-23.6914667926
 31
0.0
 11
9.9911338132
 21
-23.6444922901
 31
0.0
 11
9.8956323968
 21
-23.6278312164
 31
0.0
  0
SPLINE
  5
725
100
AcDbEntity
  8
0
100
AcDbSpline
 62
253
  6
CONTINUOUS
 70
0
 71
3
 72
11
 73
7
 74
5
 42
0.0000001
 43
0.0000001
 44
0.0000000001
 12
0.0012232482
 22
0.3641907442
 32
0.0
 13
0.3641916429
 23
0.0009174695
 33
0.0
 40
0.0
 40
0.0
 40
0.0
 40
0.0
 40
0.2331622206
 40
0.4766705204
 40
0.7338116472
 40
1.0
 40
1.0
 40
1.0
 40
1.0
 10
7.254371834
 20
-23.8443375673
 30
0.0
 10
7.2544669058
 20
-23.8160323931
 30
0.0
 10
7.2683967542
 20
-23.7574892617
 30
0.0
 10
7.3253291691
 20
-23.6858281428
 30
0.0
 10
7.4079972158
 20
-23.6388299344
 30
0.0
 10
7.4720530787
 20
-23.6279126229
 30
0.0
 10
7.5043676032
 20
-23.6278312164
 30
0.0
 11
7.254371834
 21
-23.8443375673
 31
0.0
 11
7.2736100483
 21
-23.761629536
 31
0.0
 11
7.3278506113
 21
-23.6914668129
 31
0.0
 11
7.4088661663
 21
-23.644492298
 31
0.0
 11
7.5043676032
 21
-23.6278312164
 31
0.0
  0
SPLINE
  5
726
100
AcDbEntity
  8
0
100
AcDbSpline
 62
253
  6
CONTINUOUS
 70
0
 71
3
 72
11
 73
7
 74
5
 42
0.0000001
 43
0.0000001
 44
0.0000000001
 12
0.0012232482
 22
0.3641907438
 32
0.0
 13
0.3641916425
 23
0.0009174695
 33
0.0
 40
0.0
 40
0.0
 40
0.0
 40
0.0
 40
0.2331623162
 40
0.4766706026
 40
0.7338117062
 40
1.0
 40
1.0
 40
1.0
 40
1.0
 10
-10.145628166
 20
-23.8443375673
 30
0.0
 10
-10.1455330942
 20
-23.8160323815
 30
0.0
 10
-10.1316032353
 20
-23.7574892401
 30
0.0
 10
-10.0746708074
 20
-23.685828124
 30
0.0
 10
-9.9920027666
 20
-23.6388299294
 30
0.0
 10
-9.9279469141
 20
-23.6279126229
 30
0.0
 10
-9.8956323968
 20
-23.6278312164
 30
0.0
 11
-10.145628166
 21
-23.8443375673
 31
0.0
 11
-10.1263899352
 21
-23.7616295042
 31
0.0
 11
-10.0721493654
 21
-23.6914667926
 31
0.0
 11
-9.9911338132
 21
-23.6444922901
 31
0.0
 11
-9.8956323968
 21
-23.6278312164
 31
0.0
  0
SPLINE
  5
727
100
AcDbEntity
  8
0
100
AcDbSpline
 62
253
  6
CONTINUOUS
 70
0
 71
3
 72
11
 73
7
 74
5
 42
0.0000001
 43
0.0000001
 44
0.0000000001
 12
-0.0012232482
 22
0.3641907442
 32
0.0
 13
-0.3641916429
 23
0.0009174695
 33
0.0
 40
0.0
 40
0.0
 40
0.0
 40
0.0
 40
0.2331622206
 40
0.4766705204
 40
0.7338116472
 40
1.0
 40
1.0
 40
1.0
 40
1.0
 10
-7.254371834
 20
-23.8443375673
 30
0.0
 10
-7.2544669058
 20
-23.8160323931
 30
0.0
 10
-7.2683967542
 20
-23.7574892617
 30
0.0
 10
-7.3253291691
 20
-23.6858281428
 30
0.0
 10
-7.4079972158
 20
-23.6388299344
 30
0.0
 10
-7.4720530787
 20
-23.6279126229
 30
0.0
 10
-7.5043676032
 20
-23.6278312164
 30
0.0
 11
-7.254371834
 21
-23.8443375673
 31
0.0
 11
-7.2736100483
 21
-23.761629536
 31
0.0
 11
-7.3278506113
 21
-23.6914668129
 31
0.0
 11
-7.4088661663
 21
-23.644492298
 31
0.0
 11
-7.5043676032
 21
-23.6278312164
 31
0.0
  0
SPLINE
  5
728
100
AcDbEntity
  8
0
100
AcDbSpline
 62
7
  6
CONTINUOUS
 70
0
 71
3
 72
17
 73
13
 74
11
 42
0.0000001
 43
0.0000001
 44
0.0000000001
 12
-0.4646710538
 22
0.4881587165
 32
0.0
 13
0.0
 23
0.6739570615
 33
0.0
 40
0.0
 40
0.0
 40
0.0
 40
0.0
 40
0.3259015058
 40
0.4827187133
 40
0.6310478413
 40
0.7658671592
 40
0.8259880884
 40
0.8796622665
 40
0.9254265433
 40
0.961670185
 40
0.9868410958
 40
1.0
 40
1.0
 40
1.0
 40
1.0
 10
3.9530427099
 20
23.4563578147
 30
0.0
 10
3.9025637112
 20
23.5093883683
 30
0.0
 10
3.8277888274
 20
23.5879297455
 30
0.0
 10
3.730377986
 20
23.6909305323
 30
0.0
 10
3.6627638529
 20
23.7630216296
 30
0.0
 10
3.6103986553
 20
23.8196436157
 30
0.0
 10
3.572947677
 20
23.8610644187
 30
0.0
 10
3.5491634375
 20
23.8879203645
 30
0.0
 10
3.5294480293
 20
23.9110656229
 30
0.0
 10
3.514089761
 20
23.929881547
 30
0.0
 10
3.5048354302
 20
23.9433593417
 30
0.0
 10
3.5
 20
23.9511917653
 30
0.0
 10
3.5
 20
23.9541479441
 30
0.0
 11
3.9530427099
 21
23.4563578147
 31
0.0
 11
3.8017158694
 21
23.6155542583
 31
0.0
 11
3.7291227907
 21
23.6923670949
 31
0.0
 11
3.6607756242
 21
23.7653202206
 31
0.0
 11
3.5991815873
 21
23.8321195921
 31
0.0
 11
3.572026631
 21
23.8621926967
 31
0.0
 11
3.548093193
 21
23.8893175088
 31
0.0
 11
3.5281159617
 21
23.9128166704
 31
0.0
 11
3.5129137326
 21
23.9319361333
 31
0.0
 11
3.5033107869
 21
23.9459205734
 31
0.0
 11
3.5
 21
23.9541479441
 31
0.0
  0
SPLINE
  5
729
100
AcDbEntity
  8
0
100
AcDbSpline
 62
7
  6
CONTINUOUS
 70
0
 71
3
 72
16
 73
12
 74
10
 42
0.0000001
 43
0.0000001
 44
0.0000000001
 12
-0.0392554165
 22
-0.6725669741
 32
0.0
 13
-0.4645018175
 23
-0.4879809257
 33
0.0
 40
0.0
 40
0.0
 40
0.0
 40
0.0
 40
0.0136738456
 40
0.0392842734
 40
0.0758472465
 40
0.121814584
 40
0.2357341705
 40
0.3704257121
 40
0.5184781696
 40
0.6749338798
 40
1.0
 40
1.0
 40
1.0
 40
1.0
 10
4.406077753
 20
23.9538922731
 30
0.0
 10
4.4058988288
 20
23.9508267474
 30
0.0
 10
4.4009846946
 20
23.942909652
 30
0.0
 10
4.3914500703
 20
23.9291937468
 30
0.0
 10
4.3759715906
 20
23.9102600528
 30
0.0
 10
4.3473720441
 20
23.8767747442
 30
0.0
 10
4.3030174505
 20
23.8276118337
 30
0.0
 10
4.2425749354
 20
23.7622061425
 30
0.0
 10
4.1750825633
 20
23.6902727013
 30
0.0
 10
4.0779386143
 20
23.5875510118
 30
0.0
 10
4.0033739778
 20
23.5092331701
 30
0.0
 10
3.9530427099
 20
23.4563578147
 30
0.0
 11
4.406077753
 21
23.9538922731
 31
0.0
 11
4.4024749265
 21
23.945413783
 31
0.0
 11
4.3926430771
 21
23.9312350413
 31
0.0
 11
4.3772779909
 21
23.91198163
 31
0.0
 11
4.3571987438
 21
23.8884043956
 31
0.0
 11
4.3060507216
 21
23.8311830647
 31
0.0
 11
4.2445278088
 21
23.7644802208
 31
0.0
 11
4.17632857
 21
23.6916938162
 31
0.0
 11
4.1039273593
 21
23.6150877117
 31
0.0
 11
3.9530427099
 21
23.4563578147
 31
0.0
  0
SPLINE
  5
72A
100
AcDbEntity
  8
0
100
AcDbSpline
 62
7
  6
CONTINUOUS
 70
0
 71
3
 72
16
 73
12
 74
10
 42
0.0000001
 43
0.0000001
 44
0.0000000001
 12
-0.4645018175
 22
0.4879809257
 32
0.0
 13
-0.0392554165
 23
0.672566974
 33
0.0
 40
0.0
 40
0.0
 40
0.0
 40
0.0
 40
0.3250661171
 40
0.481521799
 40
0.6295742686
 40
0.7642658057
 40
0.8781853756
 40
0.924152712
 40
0.9607156966
 40
0.9863261426
 40
1.0
 40
1.0
 40
1.0
 40
1.0
 10
-3.9530427099
 20
23.4563578147
 30
0.0
 10
-4.0033739773
 20
23.5092331696
 30
0.0
 10
-4.0779386089
 20
23.5875510062
 30
0.0
 10
-4.1750825549
 20
23.6902726926
 30
0.0
 10
-4.2425749241
 20
23.7622061302
 30
0.0
 10
-4.3030174377
 20
23.8276118199
 30
0.0
 10
-4.3473720282
 20
23.8767747265
 30
0.0
 10
-4.3759715744
 20
23.9102600334
 30
0.0
 10
-4.3914500591
 20
23.9291937319
 30
0.0
 10
-4.4009846892
 20
23.9429096439
 30
0.0
 10
-4.4058988286
 20
23.9508267448
 30
0.0
 10
-4.406077753
 20
23.9538922731
 30
0.0
 11
-3.9530427099
 21
23.4563578147
 31
0.0
 11
-4.1039273578
 21
23.6150877103
 31
0.0
 11
-4.1763285555
 21
23.6916938008
 31
0.0
 11
-4.2445277999
 21
23.7644802112
 31
0.0
 11
-4.3060507108
 21
23.8311830528
 31
0.0
 11
-4.3571987259
 21
23.888404375
 31
0.0
 11
-4.3772779731
 21
23.9119816084
 31
0.0
 11
-4.392643065
 21
23.9312350251
 31
0.0
 11
-4.4024749225
 21
23.945413776
 31
0.0
 11
-4.406077753
 21
23.9538922731
 31
0.0
  0
SPLINE
  5
72B
100
AcDbEntity
  8
0
100
AcDbSpline
 62
7
  6
CONTINUOUS
 70
0
 71
3
 72
11
 73
7
 74
5
 42
0.0000001
 43
0.0000001
 44
0.0000000001
 12
0.0
 22
-0.0555100291
 32
0.0
 13
-0.0356139129
 23
-0.042579485
 33
0.0
 40
0.0
 40
0.0
 40
0.0
 40
0.0
 40
0.1156591226
 40
0.3239639327
 40
0.6215751135
 40
1.0
 40
1.0
 40
1.0
 40
1.0
 10
-3.5
 20
23.9541479441
 30
0.0
 10
-3.5
 20
23.9520078637
 30
0.0
 10
-3.5028957054
 20
23.9463921241
 30
0.0
 10
-3.5090294236
 20
23.9368947473
 30
0.0
 10
-3.519061919
 20
23.9238319605
 30
0.0
 10
-3.5269636244
 20
23.9141724083
 30
0.0
 10
-3.5314560214
 20
23.9088013627
 30
0.0
 11
-3.5
 21
23.9541479441
 31
0.0
 11
-3.5021059927
 21
23.9480829385
 31
0.0
 11
-3.5082747878
 21
23.9383029039
 31
0.0
 11
-3.5181901486
 21
23.9250889185
 31
0.0
 11
-3.5314560214
 21
23.9088013627
 31
0.0
  0
SPLINE
  5
72C
100
AcDbEntity
  8
0
100
AcDbSpline
 62
7
  6
CONTINUOUS
 70
0
 71
3
 72
10
 73
6
 74
4
 42
0.0000001
 43
0.0000001
 44
0.0000000001
 12
-0.3945247475
 22
-0.4638728708
 32
0.0
 13
-0.4198552068
 23
-0.4410775691
 33
0.0
 40
0.0
 40
0.0
 40
0.0
 40
0.0
 40
0.1970536341
 40
0.4446913356
 40
1.0
 40
1.0
 40
1.0
 40
1.0
 10
-3.5375902083
 20
23.901531018
 30
0.0
 10
-3.5635043867
 20
23.8710617397
 30
0.0
 10
-3.6242971234
 20
23.8042976634
 30
0.0
 10
-3.7628371975
 20
23.655958855
 30
0.0
 10
-3.8753262985
 20
23.5380025466
 30
0.0
 10
-3.9530427099
 20
23.4563578147
 30
0.0
 11
-3.5375902083
 21
23.901531018
 31
0.0
 11
-3.6175418913
 21
23.8120490508
 31
0.0
 11
-3.7203312272
 21
23.7017079552
 31
0.0
 11
-3.9530427099
 21
23.4563578147
 31
0.0
  0
LINE
  5
72D
100
AcDbEntity
  8
0
100
AcDbLine
 62
7
  6
CONTINUOUS
 10
-9.5242313121
 20
19.8214267532
 11
-8.8258650579
 21
20.5276115984
  0
LINE
  5
72E
100
AcDbEntity
  8
0
100
AcDbLine
 62
7
  6
CONTINUOUS
 10
9.5242313121
 20
19.8214267532
 11
8.8258650579
 21
20.5276115984
  0
SPLINE
  5
72F
100
AcDbEntity
  8
0
100
AcDbSpline
 62
7
  6
CONTINUOUS
 70
0
 71
3
 72
9
 73
5
 74
3
 42
0.0000001
 43
0.0000001
 44
0.0000000001
 12
-0.2540586046
 22
0.3592931243
 32
0.0
 13
-0.2443352963
 23
0.3659748444
 33
0.0
 40
0.0
 40
0.0
 40
0.0
 40
0.0
 40
0.2536987259
 40
1.0
 40
1.0
 40
1.0
 40
1.0
 10
-7.5666456542
 20
21.3359869487
 30
0.0
 10
-7.5881304357
 20
21.3663710179
 30
0.0
 10
-7.67279977
 20
21.486143257
 30
0.0
 10
-7.7569041269
 20
21.6063467646
 30
0.0
 10
-7.8176867079
 20
21.6973892622
 30
0.0
 11
-7.5666456542
 21
21.3359869487
 31
0.0
 11
-7.6310550765
 21
21.4271709046
 31
0.0
 11
-7.8176867079
 21
21.6973892622
 31
0.0
  0
SPLINE
  5
730
100
AcDbEntity
  8
0
100
AcDbSpline
 62
7
  6
CONTINUOUS
 70
0
 71
3
 72
9
 73
5
 74
3
 42
0.0000001
 43
0.0000001
 44
0.0000000001
 12
-0.2443381483
 22
-0.3659791164
 32
0.0
 13
-0.2540615702
 23
-0.3592973182
 33
0.0
 40
0.0
 40
0.0
 40
0.0
 40
0.0
 40
0.2446707048
 40
1.0
 40
1.0
 40
1.0
 40
1.0
 10
7.8176867079
 20
21.6973892622
 30
0.0
 10
7.7977592455
 20
21.6675411394
 30
0.0
 10
7.7153744724
 20
21.5461740365
 30
0.0
 10
7.6306123698
 20
21.4264495454
 30
0.0
 10
7.5666456542
 20
21.3359869487
 30
0.0
 11
7.8176867079
 21
21.6973892622
 31
0.0
 11
7.7573026487
 21
21.6082495231
 31
0.0
 11
7.5666456542
 21
21.3359869487
 31
0.0
  0
SPLINE
  5
731
100
AcDbEntity
  8
0
100
AcDbSpline
 62
7
  6
CONTINUOUS
 70
0
 71
3
 72
9
 73
5
 74
3
 42
0.0000001
 43
0.0000001
 44
0.0000000001
 12
0.2540586046
 22
-0.3592931243
 32
0.0
 13
0.2443352963
 23
-0.3659748444
 33
0.0
 40
0.0
 40
0.0
 40
0.0
 40
0.0
 40
0.2536987259
 40
1.0
 40
1.0
 40
1.0
 40
1.0
 10
7.5666456542
 20
-21.3359869487
 30
0.0
 10
7.5881304357
 20
-21.3663710179
 30
0.0
 10
7.67279977
 20
-21.4861432571
 30
0.0
 10
7.7569041269
 20
-21.6063467646
 30
0.0
 10
7.8176867079
 20
-21.6973892622
 30
0.0
 11
7.5666456542
 21
-21.3359869487
 31
0.0
 11
7.6310550765
 21
-21.4271709046
 31
0.0
 11
7.8176867079
 21
-21.6973892622
 31
0.0
  0
SPLINE
  5
732
100
AcDbEntity
  8
0
100
AcDbSpline
 62
7
  6
CONTINUOUS
 70
0
 71
3
 72
9
 73
5
 74
3
 42
0.0000001
 43
0.0000001
 44
0.0000000001
 12
0.2443381483
 22
0.3659791164
 32
0.0
 13
0.2540615702
 23
0.3592973182
 33
0.0
 40
0.0
 40
0.0
 40
0.0
 40
0.0
 40
0.2446707048
 40
1.0
 40
1.0
 40
1.0
 40
1.0
 10
-7.8176867079
 20
-21.6973892622
 30
0.0
 10
-7.7977592455
 20
-21.6675411394
 30
0.0
 10
-7.7153744724
 20
-21.5461740365
 30
0.0
 10
-7.6306123698
 20
-21.4264495454
 30
0.0
 10
-7.5666456542
 20
-21.3359869487
 30
0.0
 11
-7.8176867079
 21
-21.6973892622
 31
0.0
 11
-7.7573026487
 21
-21.6082495231
 31
0.0
 11
-7.5666456542
 21
-21.3359869487
 31
0.0
  0
SPLINE
  5
733
100
AcDbEntity
  8
0
100
AcDbSpline
 62
7
  6
CONTINUOUS
 70
0
 71
3
 72
9
 73
5
 74
3
 42
0.0000001
 43
0.0000001
 44
0.0000000001
 12
0.0068101508
 22
7.3081663629
 32
0.0
 13
0.0174846225
 23
7.3081486202
 33
0.0
 40
0.0
 40
0.0
 40
0.0
 40
0.0
 40
0.2506850355
 40
1.0
 40
1.0
 40
1.0
 40
1.0
 10
9.5121049871
 20
12.5132676422
 30
0.0
 10
9.5126740547
 20
13.1239502902
 30
0.0
 10
9.5153857141
 20
15.5600053114
 30
0.0
 10
9.519864149
 20
17.9960583785
 30
0.0
 10
9.5242313121
 20
19.8214267532
 30
0.0
 11
9.5121049871
 21
12.5132676422
 31
0.0
 11
9.514144629
 21
14.3453152462
 31
0.0
 11
9.5242313121
 21
19.8214267532
 31
0.0
  0
SPLINE
  5
734
100
AcDbEntity
  8
0
100
AcDbSpline
 62
7
  6
CONTINUOUS
 70
0
 71
3
 72
11
 73
7
 74
5
 42
0.0000001
 43
0.0000001
 44
0.0000000001
 12
0.0
 22
0.0554281801
 32
0.0
 13
0.0355579742
 23
0.0425195675
 33
0.0
 40
0.0
 40
0.0
 40
0.0
 40
0.0
 40
0.1156875281
 40
0.3239917492
 40
0.6215880112
 40
1.0
 40
1.0
 40
1.0
 40
1.0
 10
3.5
 20
-23.9541479441
 30
0.0
 10
3.5
 20
-23.9520104944
 30
0.0
 10
3.5028898793
 20
-23.9464019837
 30
0.0
 10
3.509013646
 20
-23.9369173851
 30
0.0
 10
3.5190293244
 20
-23.9238731449
 30
0.0
 10
3.5269182633
 20
-23.9142275253
 30
0.0
 10
3.5314034512
 20
-23.9088642206
 30
0.0
 11
3.5
 21
-23.9541479441
 31
0.0
 11
3.5021022826
 21
-23.9480900047
 31
0.0
 11
3.5082603936
 21
-23.9383234277
 31
0.0
 11
3.5181590685
 21
-23.92512841
 31
0.0
 11
3.5314034512
 21
-23.9088642206
 31
0.0
  0
SPLINE
  5
735
100
AcDbEntity
  8
0
100
AcDbSpline
 62
7
  6
CONTINUOUS
 70
0
 71
3
 72
10
 73
6
 74
4
 42
0.0000001
 43
0.0000001
 44
0.0000000001
 12
0.39454775
 22
0.4639564996
 32
0.0
 13
0.4199094045
 23
0.4411345063
 33
0.0
 40
0.0
 40
0.0
 40
0.0
 40
0.0
 40
0.1970182317
 40
0.4446562538
 40
1.0
 40
1.0
 40
1.0
 40
1.0
 10
3.537539271
 20
-23.9015909124
 30
0.0
 10
3.5634503043
 20
-23.871121616
 30
0.0
 10
3.6242455563
 20
-23.8043535946
 30
0.0
 10
3.7628025808
 20
-23.6559948316
 30
0.0
 10
3.875311356
 20
-23.5380182445
 30
0.0
 10
3.9530427099
 20
-23.4563578147
 30
0.0
 11
3.537539271
 21
-23.9015909124
 31
0.0
 11
3.6174846078
 21
-23.8121114166
 31
0.0
 11
3.720286679
 21
-23.7017553138
 31
0.0
 11
3.9530427099
 21
-23.4563578147
 31
0.0
  0
ELLIPSE
  5
736
100
AcDbEntity
  8
0
100
AcDbEllipse
 62
7
  6
CONTINUOUS
 10
-1.6737454247
 20
-14.1704239485
 30
0.0
 11
0.0317603958
 21
119.9999999987
 31
0.0
 40
0.0174530582
 41
1.4024530157
 42
1.4534837957
  0
ELLIPSE
  5
737
100
AcDbEntity
  8
0
100
AcDbEllipse
 62
7
  6
CONTINUOUS
 10
-3.681698399
 20
5.4333781681
 30
0.0
 11
0.0007940099
 21
3.0
 31
0.0
 40
0.0174530582
 41
0.0151635132
 42
1.4024530157
  0
ELLIPSE
  5
738
100
AcDbEntity
  8
0
100
AcDbEllipse
 62
7
  6
CONTINUOUS
 10
3.7052627366
 20
5.4333781681
 30
0.0
 11
-0.0007940099
 21
3.0
 31
0.0
 40
0.0174530582
 41
-1.039427769
 42
-0.0151635132
  0
ELLIPSE
  5
739
100
AcDbEntity
  8
0
100
AcDbEllipse
 62
7
  6
CONTINUOUS
 10
3.75
 20
-11.0250518793
 30
0.0
 11
0.0001455685
 21
0.55
 31
0.0
 40
0.0174530582
 41
0.0151635132
 42
3.1411164315
  0
ELLIPSE
  5
73A
100
AcDbEntity
  8
0
100
AcDbEllipse
 62
7
  6
CONTINUOUS
 10
5.8262545753
 20
-14.1704239485
 30
0.0
 11
0.0317603958
 21
119.9999999987
 31
0.0
 40
0.0174530582
 41
1.5039172231
 42
1.5443775974
  0
ELLIPSE
  5
73B
100
AcDbEntity
  8
0
100
AcDbEllipse
 62
7
  6
CONTINUOUS
 10
-5.8262545753
 20
-14.1704239485
 30
0.0
 11
-0.0317603958
 21
119.9999999987
 31
0.0
 40
0.0174530582
 41
-1.5443775974
 42
-1.4534837957
  0
ELLIPSE
  5
73C
100
AcDbEntity
  8
0
100
AcDbEllipse
 62
7
  6
CONTINUOUS
 10
3.1885785985
 20
-14.1704239485
 30
0.0
 11
100.0326544058
 21
119.511433647
 31
0.0
 40
0.0830735513
 41
1.4944097918
 42
1.5035951747
  0
ELLIPSE
  5
73D
100
AcDbEntity
  8
0
100
AcDbEllipse
 62
7
  6
CONTINUOUS
 10
-3.1885785985
 20
-14.1704239485
 30
0.0
 11
-100.0326544058
 21
119.511433647
 31
0.0
 40
0.0830735513
 41
-1.5035951747
 42
-1.4944097918
  0
ELLIPSE
  5
73E
100
AcDbEntity
  8
0
100
AcDbEllipse
 62
7
  6
CONTINUOUS
 10
-3.1885785985
 20
-14.1704239485
 30
0.0
 11
-100.1996538288
 21
119.7109519002
 31
0.0
 40
0.0830735513
 41
-1.5035422822
 42
-1.4943722196
  0
ELLIPSE
  5
73F
100
AcDbEntity
  8
0
100
AcDbEllipse
 62
7
  6
CONTINUOUS
 10
3.1885785985
 20
-14.1704239485
 30
0.0
 11
100.1996538288
 21
119.7109519002
 31
0.0
 40
0.0830735513
 41
1.4943722196
 42
1.5035422822
  0
ELLIPSE
  5
740
100
AcDbEntity
  8
0
100
AcDbEllipse
 62
7
  6
CONTINUOUS
 10
4.65
 20
-11.0250518793
 30
0.0
 11
0.0002914924
 21
0.5499999999
 31
0.0
 40
0.0349167475
 41
6.2983627065
 42
9.4243144448
  0
ELLIPSE
  5
741
100
AcDbEntity
  8
0
100
AcDbEllipse
 62
7
  6
CONTINUOUS
 10
3.7947372634
 20
5.4333781681
 30
0.0
 11
0.0007940099
 21
3.0
 31
0.0
 40
0.0174530582
 41
1.039427769
 42
1.4024530157
  0
ELLIPSE
  5
742
100
AcDbEntity
  8
0
100
AcDbEllipse
 62
7
  6
CONTINUOUS
 10
1.2720762509
 20
-18.0029648325
 30
0.0
 11
11.6098058587
 21
-0.2551757844
 31
0.0
 40
0.0859953286
 41
-1.8681073156
 42
-1.6786955653
  0
ELLIPSE
  5
743
100
AcDbEntity
  8
0
100
AcDbEllipse
 62
7
  6
CONTINUOUS
 10
-1.2720762509
 20
-18.0029648325
 30
0.0
 11
11.6098058587
 21
0.2551757844
 31
0.0
 40
0.0859953286
 41
-1.4628970883
 42
-1.273485338
  0
ELLIPSE
  5
744
100
AcDbEntity
  8
0
100
AcDbEllipse
 62
7
  6
CONTINUOUS
 10
-1.2720762509
 20
18.0029648325
 30
0.0
 11
11.6098058587
 21
-0.2551757844
 31
0.0
 40
0.0859953286
 41
1.273485338
 42
1.4628970883
  0
ELLIPSE
  5
745
100
AcDbEntity
  8
0
100
AcDbEllipse
 62
7
  6
CONTINUOUS
 10
1.2720762509
 20
18.0029648325
 30
0.0
 11
11.6098058587
 21
0.2551757844
 31
0.0
 40
0.0859953286
 41
1.6786955653
 42
1.8681073156
  0
ELLIPSE
  5
746
100
AcDbEntity
  8
ASSI
100
AcDbEllipse
 62
7
  6
CONTINUOUS
 10
8.999923836
 20
-16.0000190392
 30
0.0
 11
0.4473055582
 21
0.2236357461
 31
0.0
 40
0.9998096356
 41
0.931603902
 42
1.1071030277
  0
ELLIPSE
  5
747
100
AcDbEntity
  8
ASSI
100
AcDbEllipse
 62
7
  6
CONTINUOUS
 10
8.999923836
 20
-16.0000190392
 30
0.0
 11
0.4473055582
 21
0.2236357461
 31
0.0
 40
0.9998096356
 41
-0.4635410001
 42
-0.0084033044
  0
ELLIPSE
  5
748
100
AcDbEntity
  8
ASSI
100
AcDbEllipse
 62
7
  6
CONTINUOUS
 10
-8.999923836
 20
-16.0000190392
 30
0.0
 11
0.4473055582
 21
-0.2236357461
 31
0.0
 40
0.9998096356
 41
-3.1331893492
 42
-2.6780516535
  0
ELLIPSE
  5
749
100
AcDbEntity
  8
ASSI
100
AcDbEllipse
 62
7
  6
CONTINUOUS
 10
-8.999923836
 20
-16.0000190392
 30
0.0
 11
0.4473055582
 21
-0.2236357461
 31
0.0
 40
0.9998096356
 41
2.0344896259
 42
2.2099887516
  0
ELLIPSE
  5
74A
100
AcDbEntity
  8
ASSI
100
AcDbEllipse
 62
7
  6
CONTINUOUS
 10
-8.3209796713
 20
-15.7
 30
0.0
 11
-0.0
 21
1.0
 31
0.0
 40
0.1763269807
 41
-1.4486232792
 42
-0.0
  0
ELLIPSE
  5
74B
100
AcDbEntity
  8
ASSI
100
AcDbEllipse
 62
7
  6
CONTINUOUS
 10
-7.1003553507
 20
-7.79
 30
0.0
 11
-0.0
 21
88.6
 31
0.0
 40
0.1763269807
 41
-1.6488665792
 42
-1.6241316285
  0
ELLIPSE
  5
74C
100
AcDbEntity
  8
ASSI
100
AcDbEllipse
 62
7
  6
CONTINUOUS
 10
10.641254093
 20
21.8941737085
 30
0.0
 11
-0.4160498344
 21
-0.2773626446
 31
0.0
 40
0.9999450019
 41
2.5536219432
 42
4.1243675013
  0
ELLIPSE
  5
74D
100
AcDbEntity
  8
ASSI
100
AcDbEllipse
 62
7
  6
CONTINUOUS
 10
10.641254093
 20
-21.8941737085
 30
0.0
 11
0.4160498344
 21
-0.2773626446
 31
0.0
 40
0.9999450019
 41
-0.9827748477
 42
0.5879707104
  0
ELLIPSE
  5
74E
100
AcDbEntity
  8
ASSI
100
AcDbEllipse
 62
7
  6
CONTINUOUS
 10
-10.641254093
 20
-21.8941737085
 30
0.0
 11
0.4160498344
 21
0.2773626446
 31
0.0
 40
0.9999450019
 41
2.5536219432
 42
4.1243675013
  0
ELLIPSE
  5
74F
100
AcDbEntity
  8
ASSI
100
AcDbEllipse
 62
7
  6
CONTINUOUS
 10
-10.641254093
 20
21.8941737085
 30
0.0
 11
-0.4160498344
 21
0.2773626446
 31
0.0
 40
0.9999450019
 41
-0.9827748477
 42
0.5879707104
  0
ELLIPSE
  5
750
100
AcDbEntity
  8
ASSI
100
AcDbEllipse
 62
7
  6
CONTINUOUS
 10
7.5666456542
 20
-21.9537669705
 30
0.0
 11
0.4999904798
 21
0.5000285596
 31
0.0
 40
0.0061705924
 41
0.0112823085
 42
1.0386206835
  0
ELLIPSE
  5
751
100
AcDbEntity
  8
ASSI
100
AcDbEllipse
 62
7
  6
CONTINUOUS
 10
-7.5666456542
 20
-21.9537669705
 30
0.0
 11
-0.4999904798
 21
0.5000285596
 31
0.0
 40
0.0061705924
 41
-1.0386206835
 42
-0.0112823085
  0
ELLIPSE
  5
752
100
AcDbEntity
  8
ASSI
100
AcDbEllipse
 62
7
  6
CONTINUOUS
 10
-7.5666456542
 20
21.9537669705
 30
0.0
 11
0.4999904798
 21
0.5000285596
 31
0.0
 40
0.0061705924
 41
-3.1303103451
 42
-2.1029719701
  0
ELLIPSE
  5
753
100
AcDbEntity
  8
ASSI
100
AcDbEllipse
 62
7
  6
CONTINUOUS
 10
7.5666456542
 20
21.9537669705
 30
0.0
 11
-0.4999904798
 21
0.5000285596
 31
0.0
 40
0.0061705924
 41
-4.1802133371
 42
-3.1528749621
  0
ELLIPSE
  5
754
100
AcDbEntity
  8
ASSI
100
AcDbEllipse
 62
7
  6
CONTINUOUS
 10
7.5666456542
 20
-20.9916321118
 30
0.0
 11
0.5
 21
-0.0
 31
0.0
 40
0.0087268678
 41
-1.5707963268
 42
-0.0174532925
  0
ELLIPSE
  5
755
100
AcDbEntity
  8
ASSI
100
AcDbEllipse
 62
7
  6
CONTINUOUS
 10
-7.5666456542
 20
-20.9916321118
 30
0.0
 11
0.5
 21
-0.0
 31
0.0
 40
0.0087268678
 41
-3.1241393611
 42
-1.5707963268
  0
ELLIPSE
  5
756
100
AcDbEntity
  8
ASSI
100
AcDbEllipse
 62
7
  6
CONTINUOUS
 10
-7.5666456542
 20
20.9916321118
 30
0.0
 11
0.5
 21
0.0
 31
0.0
 40
0.0087268678
 41
1.5707963268
 42
3.1241393611
  0
ELLIPSE
  5
757
100
AcDbEntity
  8
ASSI
100
AcDbEllipse
 62
7
  6
CONTINUOUS
 10
7.5666456542
 20
20.9916321118
 30
0.0
 11
0.5
 21
-0.0
 31
0.0
 40
0.0087268678
 41
0.0174532925
 42
1.5707963268
  0
ELLIPSE
  5
758
100
AcDbEntity
  8
ASSI
100
AcDbEllipse
 62
7
  6
CONTINUOUS
 10
9.8999957691
 20
23.4113248654
 30
0.0
 11
-0.0029088041
 21
0.2886641433
 31
0.0
 40
0.8660144118
 41
-3.150319066
 42
-1.582431609
  0
ELLIPSE
  5
759
100
AcDbEntity
  8
ASSI
100
AcDbEllipse
 62
7
  6
CONTINUOUS
 10
7.1003553507
 20
-7.79
 30
0.0
 11
-0.0
 21
88.6
 31
0.0
 40
0.1763269807
 41
-4.6590536787
 42
-4.634318728
  0
ELLIPSE
  5
75A
100
AcDbEntity
  8
ASSI
100
AcDbEllipse
 62
7
  6
CONTINUOUS
 10
7.5000042309
 20
23.4113248654
 30
0.0
 11
0.0029088041
 21
0.2886641433
 31
0.0
 40
0.8660144118
 41
-4.7007536982
 42
-3.1328662411
  0
ELLIPSE
  5
75B
100
AcDbEntity
  8
ASSI
100
AcDbEllipse
 62
7
  6
CONTINUOUS
 10
-1.2087344835
 20
23.7941787855
 30
0.0
 11
-0.1664199338
 21
-0.1109450578
 31
0.0
 40
0.9999450019
 41
2.5536219432
 42
4.1243675013
  0
ELLIPSE
  5
75C
100
AcDbEntity
  8
ASSI
100
AcDbEllipse
 62
7
  6
CONTINUOUS
 10
1.2087344835
 20
23.7941787855
 30
0.0
 11
-0.1664199338
 21
0.1109450578
 31
0.0
 40
0.9999450019
 41
-0.9827748477
 42
0.5879707104
  0
ELLIPSE
  5
75D
100
AcDbEntity
  8
ASSI
100
AcDbEllipse
 62
7
  6
CONTINUOUS
 10
1.2087344835
 20
-23.7941787855
 30
0.0
 11
0.1664199338
 21
0.1109450578
 31
0.0
 40
0.9999450019
 41
2.5536219432
 42
4.1243675013
  0
ELLIPSE
  5
75E
100
AcDbEntity
  8
ASSI
100
AcDbEllipse
 62
7
  6
CONTINUOUS
 10
-1.2087344835
 20
-23.7941787855
 30
0.0
 11
0.1664199338
 21
-0.1109450578
 31
0.0
 40
0.9999450019
 41
-0.9827748477
 42
0.5879707104
  0
ELLIPSE
  5
75F
100
AcDbEntity
  8
ASSI
100
AcDbEllipse
 62
7
  6
CONTINUOUS
 10
-8.1905965035
 20
-21.3359869487
 30
0.0
 11
1.0000571192
 21
-0.9999809595
 31
0.0
 40
0.0061705924
 41
-0.0003532199
 42
1.1948539202
  0
ELLIPSE
  5
760
100
AcDbEntity
  8
ASSI
100
AcDbEllipse
 62
7
  6
CONTINUOUS
 10
8.1905965035
 20
-21.3359869487
 30
0.0
 11
1.0000571192
 21
0.9999809595
 31
0.0
 40
0.0061705924
 41
1.9467387334
 42
3.1419458735
  0
ELLIPSE
  5
761
100
AcDbEntity
  8
ASSI
100
AcDbEllipse
 62
7
  6
CONTINUOUS
 10
8.1905965035
 20
21.3359869487
 30
0.0
 11
1.0000571192
 21
-0.9999809595
 31
0.0
 40
0.0061705924
 41
3.1412394337
 42
4.3364465738
  0
ELLIPSE
  5
762
100
AcDbEntity
  8
ASSI
100
AcDbEllipse
 62
7
  6
CONTINUOUS
 10
-8.1905965035
 20
21.3359869487
 30
0.0
 11
1.0000571192
 21
0.9999809595
 31
0.0
 40
0.0061705924
 41
-1.1948539202
 42
0.0003532199
  0
ELLIPSE
  5
763
100
AcDbEntity
  8
ASSI
100
AcDbEllipse
 62
7
  6
CONTINUOUS
 10
-7.5000042309
 20
23.4113248654
 30
0.0
 11
-0.0029088041
 21
0.2886641433
 31
0.0
 40
0.8660144118
 41
-3.150319066
 42
-1.582431609
  0
ELLIPSE
  5
764
100
AcDbEntity
  8
ASSI
100
AcDbEllipse
 62
7
  6
CONTINUOUS
 10
-9.8999957691
 20
23.4113248654
 30
0.0
 11
0.0029088041
 21
0.2886641433
 31
0.0
 40
0.8660144118
 41
-4.7007536982
 42
-3.1328662411
  0
ELLIPSE
  5
765
100
AcDbEntity
  8
ASSI
100
AcDbEllipse
 62
7
  6
CONTINUOUS
 10
9.8999957691
 20
-23.4113248654
 30
0.0
 11
0.0029088041
 21
0.2886641433
 31
0.0
 40
0.8660144118
 41
-1.5591610446
 42
0.0087264124
  0
ELLIPSE
  5
766
100
AcDbEntity
  8
ASSI
100
AcDbEllipse
 62
7
  6
CONTINUOUS
 10
7.5000042309
 20
-23.4113248654
 30
0.0
 11
-0.0029088041
 21
0.2886641433
 31
0.0
 40
0.8660144118
 41
-0.0087264124
 42
1.5591610446
  0
ELLIPSE
  5
767
100
AcDbEntity
  8
ASSI
100
AcDbEllipse
 62
7
  6
CONTINUOUS
 10
-9.8999957691
 20
-23.4113248654
 30
0.0
 11
-0.0029088041
 21
0.2886641433
 31
0.0
 40
0.8660144118
 41
-0.0087264124
 42
1.5591610446
  0
ELLIPSE
  5
768
100
AcDbEntity
  8
ASSI
100
AcDbEllipse
 62
7
  6
CONTINUOUS
 10
-7.5000042309
 20
-23.4113248654
 30
0.0
 11
0.0029088041
 21
0.2886641433
 31
0.0
 40
0.8660144118
 41
-1.5591610446
 42
0.0087264124
  0
ELLIPSE
  5
769
100
AcDbEntity
  8
ASSI
100
AcDbEllipse
 62
7
  6
CONTINUOUS
 10
-3.9530427099
 20
-22.3560930869
 30
0.0
 11
0.4530427099
 21
-0.0
 31
0.0
 40
0.0058178298
 41
6.2831853072
 42
9.4189601966
  0
ELLIPSE
  5
76A
100
AcDbEntity
  8
ASSI
100
AcDbEllipse
 62
7
  6
CONTINUOUS
 10
3.9530427099
 20
-22.3560930869
 30
0.0
 11
0.4530427099
 21
-0.0
 31
0.0
 40
0.0058178298
 41
6.2890030714
 42
9.4247779608
  0
ELLIPSE
  5
76B
100
AcDbEntity
  8
ASSI
100
AcDbEllipse
 62
7
  6
CONTINUOUS
 10
3.9530427099
 20
22.3560930869
 30
0.0
 11
0.4530427099
 21
-0.0
 31
0.0
 40
0.0058178298
 41
3.1415926536
 42
6.277367543
  0
ELLIPSE
  5
76C
100
AcDbEntity
  8
ASSI
100
AcDbEllipse
 62
7
  6
CONTINUOUS
 10
-3.9530427099
 20
22.3560930869
 30
0.0
 11
0.4530427099
 21
0.0
 31
0.0
 40
0.0058178298
 41
3.1474104178
 42
6.2831853072
  0
ELLIPSE
  5
76D
100
AcDbEntity
  8
ASSI
100
AcDbEllipse
 62
7
  6
CONTINUOUS
 10
8.3209796713
 20
-15.7
 30
0.0
 11
0.0
 21
1.0
 31
0.0
 40
0.1763269807
 41
0.0
 42
1.4486232792
  0
ELLIPSE
  5
76E
100
AcDbEntity
  8
RACCORDO
100
AcDbEllipse
 62
7
  6
CONTINUOUS
 10
8.999923836
 20
-16.0000190392
 30
0.0
 11
0.4473055582
 21
0.2236357461
 31
0.0
 40
0.9998096356
 41
0.937781269
 42
1.1071030277
  0
ELLIPSE
  5
76F
100
AcDbEntity
  8
RACCORDO
100
AcDbEllipse
 62
7
  6
CONTINUOUS
 10
8.999923836
 20
-16.0000190392
 30
0.0
 11
0.4473055582
 21
0.2236357461
 31
0.0
 40
0.9998096356
 41
-0.4635410001
 42
-0.010731601
  0
ELLIPSE
  5
770
100
AcDbEntity
  8
RACCORDO
100
AcDbEllipse
 62
7
  6
CONTINUOUS
 10
-8.999923836
 20
-16.0000190392
 30
0.0
 11
0.4473055582
 21
-0.2236357461
 31
0.0
 40
0.9998096356
 41
-3.1308610526
 42
-2.6780516535
  0
ELLIPSE
  5
771
100
AcDbEntity
  8
RACCORDO
100
AcDbEllipse
 62
7
  6
CONTINUOUS
 10
-8.999923836
 20
-16.0000190392
 30
0.0
 11
0.4473055582
 21
-0.2236357461
 31
0.0
 40
0.9998096356
 41
2.0344896259
 42
2.2038113846
  0
ELLIPSE
  5
772
100
AcDbEntity
  8
0
100
AcDbEllipse
 62
7
  6
CONTINUOUS
 10
4.4063662764
 20
-23.4563578147
 30
0.0
 11
0.0
 21
0.5
 31
0.0
 40
0.0058178298
 41
-3.2409419489
 42
-3.1474104178
  0
ELLIPSE
  5
773
100
AcDbEntity
  8
DRAFT
100
AcDbEllipse
 62
7
  6
CONTINUOUS
 10
7.1003553507
 20
-7.79
 30
0.0
 11
-0.0
 21
88.6
 31
0.0
 40
0.1763269807
 41
-4.6590536787
 42
-4.634318728
  0
ELLIPSE
  5
774
100
AcDbEntity
  8
0
100
AcDbEllipse
 62
7
  6
CONTINUOUS
 10
-4.4063662764
 20
-23.4563578147
 30
0.0
 11
0.0
 21
0.5
 31
0.0
 40
0.0058178298
 41
-3.1357748894
 42
-3.0422433583
  0
ELLIPSE
  5
775
100
AcDbEntity
  8
RACCORDO
100
AcDbEllipse
 62
7
  6
CONTINUOUS
 10
-8.3209796713
 20
-15.7
 30
0.0
 11
-0.0
 21
1.0
 31
0.0
 40
0.1763269807
 41
-1.4486232792
 42
-0.0
  0
ELLIPSE
  5
776
100
AcDbEntity
  8
RACCORDO
100
AcDbEllipse
 62
7
  6
CONTINUOUS
 10
8.3209796713
 20
-15.7
 30
0.0
 11
0.0
 21
1.0
 31
0.0
 40
0.1763269807
 41
0.0
 42
1.4486232792
  0
ELLIPSE
  5
777
100
AcDbEntity
  8
0
100
AcDbEllipse
 62
7
  6
CONTINUOUS
 10
-3.9530427099
 20
-22.3560930869
 30
0.0
 11
0.4530427099
 21
0.0
 31
0.0
 40
0.0058178298
 41
6.2831853072
 42
9.4189601966
  0
ELLIPSE
  5
778
100
AcDbEntity
  8
0
100
AcDbEllipse
 62
7
  6
CONTINUOUS
 10
3.9530427099
 20
-22.3560930869
 30
0.0
 11
0.4530427099
 21
0.0
 31
0.0
 40
0.0058178298
 41
6.2890030714
 42
9.4247779608
  0
ELLIPSE
  5
779
100
AcDbEntity
  8
0
100
AcDbEllipse
 62
7
  6
CONTINUOUS
 10
3.9530427099
 20
22.3560930869
 30
0.0
 11
0.4530427099
 21
0.0
 31
0.0
 40
0.0058178298
 41
3.1415926536
 42
6.277367543
  0
ELLIPSE
  5
77A
100
AcDbEntity
  8
0
100
AcDbEllipse
 62
7
  6
CONTINUOUS
 10
-3.9530427099
 20
22.3560930869
 30
0.0
 11
0.4530427099
 21
-0.0
 31
0.0
 40
0.0058178298
 41
3.1474104178
 42
6.2831853072
  0
ELLIPSE
  5
77B
100
AcDbEntity
  8
0
100
AcDbEllipse
 62
7
  6
CONTINUOUS
 10
9.8999957691
 20
23.4113248654
 30
0.0
 11
-0.0029088041
 21
0.2886641433
 31
0.0
 40
0.8660144118
 41
-3.150319066
 42
-1.582431609
  0
ELLIPSE
  5
77C
100
AcDbEntity
  8
0
100
AcDbEllipse
 62
7
  6
CONTINUOUS
 10
7.5000042309
 20
23.4113248654
 30
0.0
 11
0.0029088041
 21
0.2886641433
 31
0.0
 40
0.8660144118
 41
-4.7007536982
 42
-3.1328662411
  0
ELLIPSE
  5
77D
100
AcDbEntity
  8
0
100
AcDbEllipse
 62
7
  6
CONTINUOUS
 10
-7.5000042309
 20
23.4113248654
 30
0.0
 11
-0.0029088041
 21
0.2886641433
 31
0.0
 40
0.8660144118
 41
-3.150319066
 42
-1.582431609
  0
ELLIPSE
  5
77E
100
AcDbEntity
  8
0
100
AcDbEllipse
 62
7
  6
CONTINUOUS
 10
-9.8999957691
 20
23.4113248654
 30
0.0
 11
0.0029088041
 21
0.2886641433
 31
0.0
 40
0.8660144118
 41
-4.7007536982
 42
-3.1328662411
  0
ELLIPSE
  5
77F
100
AcDbEntity
  8
0
100
AcDbEllipse
 62
7
  6
CONTINUOUS
 10
9.8999957691
 20
-23.4113248654
 30
0.0
 11
0.0029088041
 21
0.2886641433
 31
0.0
 40
0.8660144118
 41
-1.5591610446
 42
0.0087264124
  0
ELLIPSE
  5
780
100
AcDbEntity
  8
0
100
AcDbEllipse
 62
7
  6
CONTINUOUS
 10
7.5000042309
 20
-23.4113248654
 30
0.0
 11
-0.0029088041
 21
0.2886641433
 31
0.0
 40
0.8660144118
 41
-0.0087264124
 42
1.5591610446
  0
ELLIPSE
  5
781
100
AcDbEntity
  8
0
100
AcDbEllipse
 62
7
  6
CONTINUOUS
 10
-9.8999957691
 20
-23.4113248654
 30
0.0
 11
-0.0029088041
 21
0.2886641433
 31
0.0
 40
0.8660144118
 41
-0.0087264124
 42
1.5591610446
  0
ELLIPSE
  5
782
100
AcDbEntity
  8
0
100
AcDbEllipse
 62
7
  6
CONTINUOUS
 10
-7.5000042309
 20
-23.4113248654
 30
0.0
 11
0.0029088041
 21
0.2886641433
 31
0.0
 40
0.8660144118
 41
-1.5591610446
 42
0.0087264124
  0
ELLIPSE
  5
783
100
AcDbEntity
  8
0
100
AcDbEllipse
 62
7
  6
CONTINUOUS
 10
-8.1905965035
 20
21.3359869487
 30
0.0
 11
1.0000571192
 21
0.9999809595
 31
0.0
 40
0.0061705924
 41
-1.1948539202
 42
0.0003532199
  0
ELLIPSE
  5
784
100
AcDbEntity
  8
0
100
AcDbEllipse
 62
7
  6
CONTINUOUS
 10
8.1905965035
 20
21.3359869487
 30
0.0
 11
1.0000571192
 21
-0.9999809595
 31
0.0
 40
0.0061705924
 41
3.1412394337
 42
4.3364465738
  0
ELLIPSE
  5
785
100
AcDbEntity
  8
0
100
AcDbEllipse
 62
7
  6
CONTINUOUS
 10
8.1905965035
 20
-21.3359869487
 30
0.0
 11
1.0000571192
 21
0.9999809595
 31
0.0
 40
0.0061705924
 41
1.9467387334
 42
3.1419458735
  0
ELLIPSE
  5
786
100
AcDbEntity
  8
0
100
AcDbEllipse
 62
7
  6
CONTINUOUS
 10
-8.1905965035
 20
-21.3359869487
 30
0.0
 11
1.0000571192
 21
-0.9999809595
 31
0.0
 40
0.0061705924
 41
-0.0003532199
 42
1.1948539202
  0
ELLIPSE
  5
787
100
AcDbEntity
  8
0
100
AcDbEllipse
 62
7
  6
CONTINUOUS
 10
-1.2087344835
 20
-23.7941787855
 30
0.0
 11
0.1664199338
 21
-0.1109450578
 31
0.0
 40
0.9999450019
 41
-0.9827748477
 42
0.5879707104
  0
ELLIPSE
  5
788
100
AcDbEntity
  8
0
100
AcDbEllipse
 62
7
  6
CONTINUOUS
 10
1.2087344835
 20
-23.7941787855
 30
0.0
 11
0.1664199338
 21
0.1109450578
 31
0.0
 40
0.9999450019
 41
2.5536219432
 42
4.1243675013
  0
ELLIPSE
  5
789
100
AcDbEntity
  8
0
100
AcDbEllipse
 62
7
  6
CONTINUOUS
 10
1.2087344835
 20
23.7941787855
 30
0.0
 11
-0.1664199338
 21
0.1109450578
 31
0.0
 40
0.9999450019
 41
-0.9827748477
 42
0.5879707104
  0
ELLIPSE
  5
78A
100
AcDbEntity
  8
0
100
AcDbEllipse
 62
7
  6
CONTINUOUS
 10
-1.2087344835
 20
23.7941787855
 30
0.0
 11
-0.1664199338
 21
-0.1109450578
 31
0.0
 40
0.9999450019
 41
2.5536219432
 42
4.1243675013
  0
ELLIPSE
  5
78B
100
AcDbEntity
  8
DRAFT
100
AcDbEllipse
 62
7
  6
CONTINUOUS
 10
-7.1003553507
 20
-7.79
 30
0.0
 11
-0.0
 21
88.6
 31
0.0
 40
0.1763269807
 41
-1.6488665792
 42
-1.6241316285
  0
ELLIPSE
  5
78C
100
AcDbEntity
  8
0
100
AcDbEllipse
 62
7
  6
CONTINUOUS
 10
7.5666456542
 20
20.9916321118
 30
0.0
 11
0.5
 21
-0.0
 31
0.0
 40
0.0087268678
 41
0.0174532925
 42
1.5707963268
  0
ELLIPSE
  5
78D
100
AcDbEntity
  8
0
100
AcDbEllipse
 62
7
  6
CONTINUOUS
 10
-7.5666456542
 20
20.9916321118
 30
0.0
 11
0.5
 21
0.0
 31
0.0
 40
0.0087268678
 41
1.5707963268
 42
3.1241393611
  0
ELLIPSE
  5
78E
100
AcDbEntity
  8
0
100
AcDbEllipse
 62
7
  6
CONTINUOUS
 10
-7.5666456542
 20
-20.9916321118
 30
0.0
 11
0.5
 21
-0.0
 31
0.0
 40
0.0087268678
 41
-3.1241393611
 42
-1.5707963268
  0
ELLIPSE
  5
78F
100
AcDbEntity
  8
0
100
AcDbEllipse
 62
7
  6
CONTINUOUS
 10
7.5666456542
 20
-20.9916321118
 30
0.0
 11
0.5
 21
-0.0
 31
0.0
 40
0.0087268678
 41
-1.5707963268
 42
-0.0174532925
  0
ELLIPSE
  5
790
100
AcDbEntity
  8
0
100
AcDbEllipse
 62
7
  6
CONTINUOUS
 10
7.5666456542
 20
21.9537669705
 30
0.0
 11
-0.4999904798
 21
0.5000285596
 31
0.0
 40
0.0061705924
 41
-4.1802133371
 42
-3.1528749621
  0
ELLIPSE
  5
791
100
AcDbEntity
  8
0
100
AcDbEllipse
 62
7
  6
CONTINUOUS
 10
-7.5666456542
 20
21.9537669705
 30
0.0
 11
0.4999904798
 21
0.5000285596
 31
0.0
 40
0.0061705924
 41
-3.1303103451
 42
-2.1029719701
  0
ELLIPSE
  5
792
100
AcDbEntity
  8
0
100
AcDbEllipse
 62
7
  6
CONTINUOUS
 10
-7.5666456542
 20
-21.9537669705
 30
0.0
 11
-0.4999904798
 21
0.5000285596
 31
0.0
 40
0.0061705924
 41
-1.0386206835
 42
-0.0112823085
  0
ELLIPSE
  5
793
100
AcDbEntity
  8
0
100
AcDbEllipse
 62
7
  6
CONTINUOUS
 10
7.5666456542
 20
-21.9537669705
 30
0.0
 11
0.4999904798
 21
0.5000285596
 31
0.0
 40
0.0061705924
 41
0.0112823085
 42
1.0386206835
  0
ELLIPSE
  5
794
100
AcDbEntity
  8
0
100
AcDbEllipse
 62
7
  6
CONTINUOUS
 10
-10.641254093
 20
21.8941737085
 30
0.0
 11
-0.4160498344
 21
0.2773626446
 31
0.0
 40
0.9999450019
 41
-0.9827748477
 42
0.5879707104
  0
ELLIPSE
  5
795
100
AcDbEntity
  8
0
100
AcDbEllipse
 62
7
  6
CONTINUOUS
 10
-10.641254093
 20
-21.8941737085
 30
0.0
 11
0.4160498344
 21
0.2773626446
 31
0.0
 40
0.9999450019
 41
2.5536219432
 42
4.1243675013
  0
ELLIPSE
  5
796
100
AcDbEntity
  8
0
100
AcDbEllipse
 62
7
  6
CONTINUOUS
 10
10.641254093
 20
-21.8941737085
 30
0.0
 11
0.4160498344
 21
-0.2773626446
 31
0.0
 40
0.9999450019
 41
-0.9827748477
 42
0.5879707104
  0
ELLIPSE
  5
797
100
AcDbEntity
  8
0
100
AcDbEllipse
 62
7
  6
CONTINUOUS
 10
10.641254093
 20
21.8941737085
 30
0.0
 11
-0.4160498344
 21
-0.2773626446
 31
0.0
 40
0.9999450019
 41
2.5536219432
 42
4.1243675013
  0
ENDSEC
  0
SECTION
  2
OBJECTS
  0
DICTIONARY
  5
C
100
AcDbDictionary
280
0
281
1
  3
ACAD_GROUP
350
D
  3
ACAD_MLINESTYLE
350
17
  3
ACAD_LAYOUT
350
1A
  3
ACAD_PLOTSETTINGS
350
19
  3
ACAD_PLOTSTYLENAME
350
E
  0
DICTIONARY
  5
D
102
{ACAD_REACTORS
330
C
102
}
100
AcDbDictionary
280
0
281
1
  0
ACDBDICTIONARYWDFLT
  5
E
102
{ACAD_REACTORS
330
C
102
}
100
AcDbDictionary
281
1
  3
Normal
350
F
100
AcDbDictionaryWithDefault
340
F
  0
DICTIONARY
  5
17
102
{ACAD_REACTORS
330
C
102
}
100
AcDbDictionary
280
0
281
1
  3
Standard
350
18
  0
DICTIONARY
  5
19
102
{ACAD_REACTORS
330
C
102
}
100
AcDbDictionary
281
1
  0
DICTIONARY
  5
1A
102
{ACAD_REACTORS
330
C
102
}
100
AcDbDictionary
281
1
  3
Model
350
798
  3
Layout1
350
799
  0
ACDBPLACEHOLDER
  5
F
102
{ACAD_REACTORS
330
E
102
}
  0
MLINESTYLE
  5
18
102
{ACAD_REACTORS
330
17
102
}
100
AcDbMlineStyle
  2
STANDARD
 70
0
  3

 62
256
 51
90.0
 52
90.0
 71
2
 49
0.5
 62
256
  6
BYLAYER
 49
-0.5
 62
256
  6
BYLAYER
  0
LAYOUT
  5
798
102
{ACAD_REACTORS
330
1A
102
}
100
AcDbPlotSettings
  1

  2
none_device
  4
ANSI_C_(22.00_x_17.00_Inches)
  6

 40
0.0
 41
0.0
 42
0.0
 43
0.0
 44
558.8
 45
431.8
 46
0.0
 47
0.0
 48
0.0
 49
0.0
140
0.0
141
0.0
142
1.0
143
1.0
 70
1024
 72
1
 73
0
 74
0
  7

 75
0
147
1.0
148
0.0
149
0.0
100
AcDbLayout
  1
Model
 70
0
 71
0
 10
0.0
 20
0.0
 11
558.8
 21
431.8
 12
0.0
 22
0.0
 32
0.0
 14
0.0
 24
0.0
 34
0.0
 15
0.0
 25
0.0
 35
0.0
146
0.0
 13
0.0
 23
0.0
 33
0.0
 16
1.0
 26
0.0
 36
0.0
 17
0.0
 27
1.0
 37
0.0
 76
0
330
214
345
0
346
0
  0
LAYOUT
  5
799
102
{ACAD_REACTORS
330
1A
102
}
100
AcDbPlotSettings
  1

  2
none_device
  4
ANSI_C_(22.00_x_17.00_Inches)
  6

 40
0.0
 41
0.0
 42
0.0
 43
0.0
 44
558.8
 45
431.8
 46
0.0
 47
0.0
 48
0.0
 49
0.0
140
0.0
141
0.0
142
1.0
143
1.0
 70
0
 72
1
 73
0
 74
0
  7

 75
0
147
1.0
148
0.0
149
0.0
100
AcDbLayout
  1
Layout1
 70
0
 71
1
 10
0.0
 20
0.0
 11
558.8
 21
431.8
 12
0.0
 22
0.0
 32
0.0
 14
0.0
 24
0.0
 34
0.0
 15
0.0
 25
0.0
 35
0.0
146
0.0
 13
0.0
 23
0.0
 33
0.0
 16
1.0
 26
0.0
 36
0.0
 17
0.0
 27
1.0
 37
0.0
 76
0
330
215
345
0
346
0
  0
ENDSEC
  0
EOF
