  0
SECTION
  2
HEADER
  9
$ACADVER
  1
AC1021
  9
$DWGCODEPAGE
  3
ANSI_1252
  9
$EXTMAX
 10
297.0
 20
210.0
 30
0.0
  9
$EXTMIN
 10
0.0
 20
0.0
 30
0.0
  9
$LIMMIN
 10
0.0
 20
0.0
  9
$LIMMAX
 10
297.0
 20
210.0
  9
$VIEWCTR
 10
148.5
 20
105.0
  9
$VIEWSIZE
 40
210.0
  9
$CLAYER
  8
0
  9
$LTSCALE
 40
16.335
  9
$CELTYPE
  6
BYLAYER
  9
$DIMSCALE
 40
1.0
  9
$DIMASZ
 40
3.0
  9
$DIMEXO
 40
1.85625
  9
$DIMDLI
 40
11.286
  9
$DIMEXE
 40
5.346
  9
$DIMCEN
 40
2.673
  9
$DIMLFAC
 40
1.0
  9
$DIMBLK
  1
_FILLED
  9
$DIMTXT
 40
3.0
  9
$DIMTOL
 70
1
  9
$DIMLIM
 70
0
  9
$DIMTFAC
 40
1.0
  9
$DIMTP
 40
0.01
  9
$DIMTM
 40
0.01
  9
$PDMODE
 70
3
  9
$PDSIZE
 40
3.0
  9
$HANDSEED
  5
6C4
  9
$TILEMODE
 70
1
  9
$MEASUREMENT
 70
1
  9
$INSUNITS
 70
4
  0
ENDSEC
  0
SECTION
  2
CLASSES
  0
CLASS
  1
ACDBDICTIONARYWDFLT
  2
AcDbDictionaryWithDefault
  3
AutoCAD 2000
 90
0
 91
1
280
0
281
0
  0
CLASS
  1
ACDBPLACEHOLDER
  2
AcDbPlaceHolder
  3
AutoCAD 2000
 90
0
 91
1
280
0
281
0
  0
CLASS
  1
LAYOUT
  2
AcDbLayout
  3
AutoCAD 2000
 90
0
 91
0
280
0
281
0
  0
ENDSEC
  0
SECTION
  2
TABLES
  0
TABLE
  2
VPORT
  5
8
100
AcDbSymbolTable
 70
2
  0
VPORT
  5
1F4
100
AcDbSymbolTableRecord
100
AcDbViewportTableRecord
  2
*ACTIVE
 70
0
 10
0.0
 20
0.0
 11
1.0
 21
1.0
 12
148.5
 22
105.0
 13
0.0
 23
0.0
 14
1.0
 24
1.0
 15
0.0
 25
0.0
 16
0.0
 26
0.0
 36
1.0
 17
0.0
 27
0.0
 37
0.0
 40
210.0
 41
1.4142857143
 42
50.0
 43
0.0
 44
0.0
 50
0.0
 51
0.0
 71
0
 72
100
 73
1
 74
1
 75
0
 76
0
 77
0
 78
0
  0
ENDTAB
  0
TABLE
  2
LTYPE
  5
5
100
AcDbSymbolTable
 70
6
  0
LTYPE
  5
14
100
AcDbSymbolTableRecord
100
AcDbLinetypeTableRecord
  2
BYBLOCK
 70
0
  3

 72
65
 73
0
 40
0.0
  0
LTYPE
  5
15
100
AcDbSymbolTableRecord
100
AcDbLinetypeTableRecord
  2
BYLAYER
 70
0
  3

 72
65
 73
0
 40
0.0
  0
LTYPE
  5
16
100
AcDbSymbolTableRecord
100
AcDbLinetypeTableRecord
  2
CONTINUOUS
 70
64
  3
Solid line
 72
65
 73
0
 40
0.0
  0
LTYPE
  5
1F5
100
AcDbSymbolTableRecord
100
AcDbLinetypeTableRecord
  2
CENTER
 70
64
  3
____ _ ____ _ ____ _ ____ _ ____ _ ____ _ ____
 72
65
 73
4
 40
0.6
 49
0.375
 74
0
 49
-0.075
 74
0
 49
0.075
 74
0
 49
-0.075
 74
0
  0
LTYPE
  5
1F6
100
AcDbSymbolTableRecord
100
AcDbLinetypeTableRecord
  2
HIDDEN
 70
64
  3
- - - - - - - - - - - - - - - - - - - -
 72
65
 73
2
 40
0.2
 49
0.1
 74
0
 49
-0.1
 74
0
  0
LTYPE
  5
1F7
100
AcDbSymbolTableRecord
100
AcDbLinetypeTableRecord
  2
PHANTOM
 70
64
  3
_____ _ _ _____ _ _ _____ _ _ _____
 72
65
 73
6
 40
0.8
 49
0.45
 74
0
 49
-0.05
 74
0
 49
0.1
 74
0
 49
-0.05
 74
0
 49
0.1
 74
0
 49
-0.05
 74
0
  0
LTYPE
  5
1F8
100
AcDbSymbolTableRecord
100
AcDbLinetypeTableRecord
  2
DOT
 70
64
  3
. . . . . . . . . . . . . . . . . . . .
 72
65
 73
2
 40
0.2
 49
0.1
 74
0
 49
-0.1
 74
0
  0
LTYPE
  5
1F9
100
AcDbSymbolTableRecord
100
AcDbLinetypeTableRecord
  2
DASHED
 70
64
  3
- - - - - - - - - - - - - - - - - - - -
 72
65
 73
2
 40
0.2
 49
0.1
 74
0
 49
-0.1
 74
0
  0
ENDTAB
  0
TABLE
  2
LAYER
  5
2
100
AcDbSymbolTable
 70
36
  0
LAYER
  5
10
100
AcDbSymbolTableRecord
100
AcDbLayerTableRecord
  2
0
 70
0
 62
7
  6
CONTINUOUS
370
-3
390
F
  0
LAYER
  5
1FA
100
AcDbSymbolTableRecord
100
AcDbLayerTableRecord
  2
DEFAULT_1
 70
0
 62
7
  6
CENTER
370
-3
390
F
  0
LAYER
  5
1FB
100
AcDbSymbolTableRecord
100
AcDbLayerTableRecord
  2
DEFAULT_2
 70
0
 62
7
  6
HIDDEN
370
-3
390
F
  0
LAYER
  5
1FC
100
AcDbSymbolTableRecord
100
AcDbLayerTableRecord
  2
DEFAULT_3
 70
0
 62
7
  6
PHANTOM
370
-3
390
F
  0
LAYER
  5
1FD
100
AcDbSymbolTableRecord
100
AcDbLayerTableRecord
  2
ASSI
 70
0
 62
7
  6
CONTINUOUS
370
-3
390
F
  0
LAYER
  5
1FE
100
AcDbSymbolTableRecord
100
AcDbLayerTableRecord
  2
COORDINATE
 70
0
 62
7
  6
CONTINUOUS
370
-3
390
F
  0
LAYER
  5
1FF
100
AcDbSymbolTableRecord
100
AcDbLayerTableRecord
  2
COORD_ORIGINE
 70
0
 62
7
  6
CONTINUOUS
370
-3
390
F
  0
LAYER
  5
200
100
AcDbSymbolTableRecord
100
AcDbLayerTableRecord
  2
CURVE
 70
0
 62
7
  6
CONTINUOUS
370
-3
390
F
  0
LAYER
  5
201
100
AcDbSymbolTableRecord
100
AcDbLayerTableRecord
  2
DRAFT
 70
0
 62
7
  6
CONTINUOUS
370
-3
390
F
  0
LAYER
  5
202
100
AcDbSymbolTableRecord
100
AcDbLayerTableRecord
  2
IMPORT
 70
0
 62
7
  6
CONTINUOUS
370
-3
390
F
  0
LAYER
  5
203
100
AcDbSymbolTableRecord
100
AcDbLayerTableRecord
  2
MEC_217
 70
0
 62
7
  6
CONTINUOUS
370
-3
390
F
  0
LAYER
  5
204
100
AcDbSymbolTableRecord
100
AcDbLayerTableRecord
  2
NOTE
 70
0
 62
7
  6
CONTINUOUS
370
-3
390
F
  0
LAYER
  5
205
100
AcDbSymbolTableRecord
100
AcDbLayerTableRecord
  2
PIANI
 70
0
 62
7
  6
CONTINUOUS
370
-3
390
F
  0
LAYER
  5
206
100
AcDbSymbolTableRecord
100
AcDbLayerTableRecord
  2
PIANI_DI_RIFERIMENTO
 70
0
 62
7
  6
CONTINUOUS
370
-3
390
F
  0
LAYER
  5
207
100
AcDbSymbolTableRecord
100
AcDbLayerTableRecord
  2
PIANI_ORIGINE
 70
0
 62
7
  6
CONTINUOUS
370
-3
390
F
  0
LAYER
  5
208
100
AcDbSymbolTableRecord
100
AcDbLayerTableRecord
  2
PUNTI
 70
0
 62
7
  6
CONTINUOUS
370
-3
390
F
  0
LAYER
  5
209
100
AcDbSymbolTableRecord
100
AcDbLayerTableRecord
  2
RACCORDO
 70
0
 62
7
  6
CONTINUOUS
370
-3
390
F
  0
LAYER
  5
20A
100
AcDbSymbolTableRecord
100
AcDbLayerTableRecord
  2
SMUSSO
 70
0
 62
7
  6
CONTINUOUS
370
-3
390
F
  0
LAYER
  5
20B
100
AcDbSymbolTableRecord
100
AcDbLayerTableRecord
  2
SNAPLINE
 70
0
 62
7
  6
CONTINUOUS
370
-3
390
F
  0
LAYER
  5
20C
100
AcDbSymbolTableRecord
100
AcDbLayerTableRecord
  2
SUPERFICI
 70
0
 62
7
  6
CONTINUOUS
370
-3
390
F
  0
LAYER
  5
20D
100
AcDbSymbolTableRecord
100
AcDbLayerTableRecord
  2
TRASH
 70
0
 62
7
  6
CONTINUOUS
370
-3
390
F
  0
LAYER
  5
20E
100
AcDbSymbolTableRecord
100
AcDbLayerTableRecord
  2
XSEC_DATUMS
 70
0
 62
7
  6
CONTINUOUS
370
-3
390
F
  0
ENDTAB
  0
TABLE
  2
STYLE
  5
3
100
AcDbSymbolTable
 70
1
  0
STYLE
  5
11
100
AcDbSymbolTableRecord
100
AcDbTextStyleTableRecord
  2
STANDARD
 70
0
 40
0.0
 41
0.8
 50
0.0
 71
0
 42
0.2
  3
txt
  4

  0
STYLE
  5
20F
100
AcDbSymbolTableRecord
100
AcDbTextStyleTableRecord
  2
TEXTSTYLE_1
 70
0
 40
0.0
 41
0.8
 50
0.0
 71
0
 42
0.2
  3
gdt
  4

  0
ENDTAB
  0
TABLE
  2
VIEW
  5
6
100
AcDbSymbolTable
 70
0
  0
ENDTAB
  0
TABLE
  2
UCS
  5
7
100
AcDbSymbolTable
 70
0
  0
ENDTAB
  0
TABLE
  2
APPID
  5
9
100
AcDbSymbolTable
 70
1
  0
APPID
  5
210
100
AcDbSymbolTableRecord
100
AcDbRegAppTableRecord
  2
ACAD
 70
0
  0
ENDTAB
  0
TABLE
  2
BLOCK_RECORD
  5
1
100
AcDbSymbolTable
 70
0
  0
BLOCK_RECORD
  5
211
100
AcDbSymbolTableRecord
100
AcDbBlockTableRecord
  2
*Model_Space
  0
BLOCK_RECORD
  5
212
100
AcDbSymbolTableRecord
100
AcDbBlockTableRecord
  2
*Paper_Space
  0
ENDTAB
  0
TABLE
  2
DIMSTYLE
  5
A
100
AcDbSymbolTable
 70
1
100
AcDbDimStyleTable
 71
0
  0
DIMSTYLE
105
213
100
AcDbSymbolTableRecord
100
AcDbDimStyleTableRecord
  2
STANDARD
 70
0
  3

  4

 40
1.0
 41
3.0
 42
0.0625
 43
0.38
 44
0.18
 45
0.0
 46
0.0
 47
0.01
 48
0.01
140
3.0
141
0.09
142
0.0
143
25.4
144
1.0
145
0.0
146
1.0
147
0.09
 71
1.0
 72
0.0
 73
0
 74
0
 75
0
 76
0
 77
1
 78
8
170
0
171
2
172
0
173
0
174
0
175
0
176
0
177
0
178
0
270
2
271
2
272
2
273
2
274
2
275
0
280
0
281
0
282
0
283
1
284
8
285
0
286
0
287
3
288
0
340
11
  0
ENDTAB
  0
ENDSEC
  0
SECTION
  2
BLOCKS
  0
BLOCK
  5
20
100
AcDbEntity
  8
0
100
AcDbBlockBegin
  2
*Model_Space
 70
0
 10
0.0
 20
0.0
 30
0.0
  3
*Model_Space
  1

  0
ENDBLK
  5
21
100
AcDbEntity
  8
0
100
AcDbBlockEnd
  0
BLOCK
  5
1C
100
AcDbEntity
  8
0
100
AcDbBlockBegin
  2
*Paper_Space
 70
0
 10
0.0
 20
0.0
 30
0.0
  3
*Paper_Space
  1

  0
ENDBLK
  5
1D
100
AcDbEntity
  8
0
100
AcDbBlockEnd
  0
ENDSEC
  0
SECTION
  2
ENTITIES
  0
LWPOLYLINE
  5
214
100
AcDbEntity
  8
0
100
AcDbPolyline
 62
7
  6
CONTINUOUS
 90
8
 70
0
 10
110.9094218422
 20
132.1999077639
 10
110.9210485935
 20
132.2024369499
 10
110.9325418337
 20
132.2055164899
 10
110.9438755285
 20
132.2091394102
 10
110.955024004
 20
132.2132975058
 10
110.965962001
 20
132.2179813594
 10
110.9766647423
 20
132.2231803628
 10
110.987107983
 20
132.2288827399
  0
LWPOLYLINE
  5
215
100
AcDbEntity
  8
ASSI
100
AcDbPolyline
 62
7
  6
CONTINUOUS
 90
9
 70
0
 10
110.9094218422
 20
132.1999077639
 10
110.9210485935
 20
132.2024369499
 10
110.9325418337
 20
132.2055164899
 10
110.9438755285
 20
132.2091394102
 10
110.955024004
 20
132.2132975058
 10
110.965962001
 20
132.2179813594
 10
110.9766647423
 20
132.2231803628
 10
110.987107983
 20
132.2288827399
 10
110.9972680606
 20
132.2350755734
  0
LWPOLYLINE
  5
216
100
AcDbEntity
  8
0
100
AcDbPolyline
 62
7
  6
CONTINUOUS
 90
10
 70
0
 10
90.9269430488
 20
181.1557046897
 10
90.9170891496
 20
181.1490354271
 10
90.9075637508
 20
181.1419048423
 10
90.8983884356
 20
181.1343290904
 10
90.8895839886
 20
181.1263253321
 10
90.8811703542
 20
181.1179116977
 10
90.8731665958
 20
181.1091072506
 10
90.865590844
 20
181.0999319354
 10
90.8584602592
 20
181.0904065367
 10
90.8517909966
 20
181.0805526375
  0
LWPOLYLINE
  5
217
100
AcDbEntity
  8
ASSI
100
AcDbPolyline
 62
7
  6
CONTINUOUS
 90
10
 70
0
 10
90.9269430488
 20
181.1557046897
 10
90.9170891496
 20
181.1490354271
 10
90.9075637508
 20
181.1419048423
 10
90.8983884356
 20
181.1343290904
 10
90.8895839886
 20
181.1263253321
 10
90.8811703542
 20
181.1179116977
 10
90.8731665958
 20
181.1091072506
 10
90.865590844
 20
181.0999319354
 10
90.8584602592
 20
181.0904065367
 10
90.8517909966
 20
181.0805526375
  0
LINE
  5
218
100
AcDbEntity
  8
0
100
AcDbLine
 62
7
  6
CONTINUOUS
 10
90.9371031264
 20
181.1618975232
 11
90.9269430488
 21
181.1557046897
  0
LWPOLYLINE
  5
219
100
AcDbEntity
  8
0
100
AcDbPolyline
 62
7
  6
CONTINUOUS
 90
5
 70
0
 10
110.8621097855
 20
132.1953901316
 10
110.8740050707
 20
132.1956732818
 10
110.8858734103
 20
132.1965220973
 10
110.8976879208
 20
132.1979346574
 10
110.9094218422
 20
132.1999077639
  0
LWPOLYLINE
  5
21A
100
AcDbEntity
  8
ASSI
100
AcDbPolyline
 62
7
  6
CONTINUOUS
 90
5
 70
0
 10
110.8621097855
 20
132.1953901316
 10
110.8740050707
 20
132.1956732818
 10
110.8858734103
 20
132.1965220973
 10
110.8976879208
 20
132.1979346574
 10
110.9094218422
 20
132.1999077639
  0
LWPOLYLINE
  5
21B
100
AcDbEntity
  8
0
100
AcDbPolyline
 62
7
  6
CONTINUOUS
 90
34
 70
0
 10
110.8577379515
 20
132.1997619656
 10
110.869613423
 20
132.2000445852
 10
110.8814671656
 20
132.200891487
 10
110.8932723411
 20
132.202301483
 10
110.9050038357
 20
132.204272429
 10
110.916633271
 20
132.2068004189
 10
110.9281292366
 20
132.2098789975
 10
110.9394640017
 20
132.2135006072
 10
110.9506136137
 20
132.2176574616
 10
110.9615530148
 20
132.2223402353
 10
110.9722575496
 20
132.2275384206
 10
110.9827028031
 20
132.2332402091
 10
110.9928648787
 20
132.2394325715
 10
111.0027206634
 20
132.2461014087
 10
111.0122479249
 20
132.2532316621
 10
111.0214251381
 20
132.2608072229
 10
111.0302315297
 20
132.2688109545
 10
111.0386471159
 20
132.2772247061
 10
111.0466528101
 20
132.2860294017
 10
111.0542304666
 20
132.2952050887
 10
111.0613629176
 20
132.3047309829
 10
111.0680339977
 20
132.314585499
 10
111.07422859
 20
132.3247463112
 10
111.0799326553
 20
132.3351903964
 10
111.0851332629
 20
132.3458940828
 10
111.0898186272
 20
132.3568331163
 10
111.0939781315
 20
132.3679827127
 10
111.0976023487
 20
132.3793176052
 10
111.1006830673
 20
132.3908121162
 10
111.1032133043
 20
132.4024401956
 10
111.1051873229
 20
132.4141754753
 10
111.1066006517
 20
132.4259913576
 10
111.1074500918
 20
132.4378610758
 10
111.1077337207
 20
132.4497577348
  0
LWPOLYLINE
  5
21C
100
AcDbEntity
  8
ASSI
100
AcDbPolyline
 62
7
  6
CONTINUOUS
 90
34
 70
0
 10
110.8577379515
 20
132.1997619656
 10
110.869613423
 20
132.2000445852
 10
110.8814671656
 20
132.200891487
 10
110.8932723411
 20
132.202301483
 10
110.9050038357
 20
132.204272429
 10
110.916633271
 20
132.2068004189
 10
110.9281292366
 20
132.2098789975
 10
110.9394640017
 20
132.2135006072
 10
110.9506136137
 20
132.2176574616
 10
110.9615530148
 20
132.2223402353
 10
110.9722575496
 20
132.2275384206
 10
110.9827028031
 20
132.2332402091
 10
110.9928648787
 20
132.2394325715
 10
111.0027206634
 20
132.2461014087
 10
111.0122479249
 20
132.2532316621
 10
111.0214251381
 20
132.2608072229
 10
111.0302315297
 20
132.2688109545
 10
111.0386471159
 20
132.2772247061
 10
111.0466528101
 20
132.2860294017
 10
111.0542304666
 20
132.2952050887
 10
111.0613629176
 20
132.3047309829
 10
111.0680339977
 20
132.314585499
 10
111.07422859
 20
132.3247463112
 10
111.0799326553
 20
132.3351903964
 10
111.0851332629
 20
132.3458940828
 10
111.0898186272
 20
132.3568331163
 10
111.0939781315
 20
132.3679827127
 10
111.0976023487
 20
132.3793176052
 10
111.1006830673
 20
132.3908121162
 10
111.1032133043
 20
132.4024401956
 10
111.1051873229
 20
132.4141754753
 10
111.1066006517
 20
132.4259913576
 10
111.1074500918
 20
132.4378610758
 10
111.1077337207
 20
132.4497577348
  0
LWPOLYLINE
  5
21D
100
AcDbEntity
  8
0
100
AcDbPolyline
 62
7
  6
CONTINUOUS
 90
5
 70
0
 10
93.4621097855
 20
132.1953901316
 10
93.4740050707
 20
132.1956732818
 10
93.4858734103
 20
132.1965220973
 10
93.4976879208
 20
132.1979346574
 10
93.5094218422
 20
132.1999077639
  0
LWPOLYLINE
  5
21E
100
AcDbEntity
  8
ASSI
100
AcDbPolyline
 62
7
  6
CONTINUOUS
 90
5
 70
0
 10
93.4621097855
 20
132.1953901316
 10
93.4740050707
 20
132.1956732818
 10
93.4858734103
 20
132.1965220973
 10
93.4976879208
 20
132.1979346574
 10
93.5094218422
 20
132.1999077639
  0
LWPOLYLINE
  5
21F
100
AcDbEntity
  8
0
100
AcDbPolyline
 62
7
  6
CONTINUOUS
 90
34
 70
0
 10
93.4577379515
 20
132.1997619656
 10
93.469632973
 20
132.2000455164
 10
93.4815010497
 20
132.2008947213
 10
93.4933152976
 20
132.2023076567
 10
93.5050489548
 20
132.204281122
 10
93.516675442
 20
132.2068106468
 10
93.5281684227
 20
132.2098905012
 10
93.5395018625
 20
132.2135137086
 10
93.5506500887
 20
132.2176720616
 10
93.5615878481
 20
132.2223561407
 10
93.5722903643
 20
132.2275553353
 10
93.5827333936
 20
132.2332578682
 10
93.5928932801
 20
132.2394508218
 10
93.6027470096
 20
132.2461201676
 10
93.6122722611
 20
132.2532507981
 10
93.6214474578
 20
132.2608265609
 10
93.6302518157
 20
132.2688302951
 10
93.6386653911
 20
132.2772438705
 10
93.6466691254
 20
132.2860482285
 10
93.6542448881
 20
132.2952234251
 10
93.6613755187
 20
132.3047486766
 10
93.6680448645
 20
132.3146024061
 10
93.6742378181
 20
132.3247622927
 10
93.6799403509
 20
132.335205322
 10
93.6851395456
 20
132.3459078381
 10
93.6898236247
 20
132.3568455976
 10
93.6939819777
 20
132.3679938238
 10
93.6976051851
 20
132.3793272636
 10
93.7006850395
 20
132.3908202442
 10
93.7032145643
 20
132.4024467314
 10
93.7051880295
 20
132.4141803887
 10
93.7066009649
 20
132.4259946366
 10
93.7074501699
 20
132.4378627133
 10
93.7077337207
 20
132.4497577348
  0
LWPOLYLINE
  5
220
100
AcDbEntity
  8
ASSI
100
AcDbPolyline
 62
7
  6
CONTINUOUS
 90
34
 70
0
 10
93.4577379515
 20
132.1997619656
 10
93.469632973
 20
132.2000455164
 10
93.4815010497
 20
132.2008947213
 10
93.4933152976
 20
132.2023076567
 10
93.5050489548
 20
132.204281122
 10
93.516675442
 20
132.2068106468
 10
93.5281684227
 20
132.2098905012
 10
93.5395018625
 20
132.2135137086
 10
93.5506500887
 20
132.2176720616
 10
93.5615878481
 20
132.2223561407
 10
93.5722903643
 20
132.2275553353
 10
93.5827333936
 20
132.2332578682
 10
93.5928932801
 20
132.2394508218
 10
93.6027470096
 20
132.2461201676
 10
93.6122722611
 20
132.2532507981
 10
93.6214474578
 20
132.2608265609
 10
93.6302518157
 20
132.2688302951
 10
93.6386653911
 20
132.2772438705
 10
93.6466691254
 20
132.2860482285
 10
93.6542448881
 20
132.2952234251
 10
93.6613755187
 20
132.3047486766
 10
93.6680448645
 20
132.3146024061
 10
93.6742378181
 20
132.3247622927
 10
93.6799403509
 20
132.335205322
 10
93.6851395456
 20
132.3459078381
 10
93.6898236247
 20
132.3568455976
 10
93.6939819777
 20
132.3679938238
 10
93.6976051851
 20
132.3793272636
 10
93.7006850395
 20
132.3908202442
 10
93.7032145643
 20
132.4024467314
 10
93.7051880295
 20
132.4141803887
 10
93.7066009649
 20
132.4259946366
 10
93.7074501699
 20
132.4378627133
 10
93.7077337207
 20
132.4497577348
  0
LINE
  5
221
100
AcDbEntity
  8
0
100
AcDbLine
 62
7
  6
CONTINUOUS
 10
91.0664731579
 20
132.1997619656
 11
93.4577379515
 21
132.1997619656
  0
LINE
  5
222
100
AcDbEntity
  8
ASSI
100
AcDbLine
 62
7
  6
CONTINUOUS
 10
91.0664731579
 20
132.1997619656
 11
93.4577379515
 21
132.1997619656
  0
LINE
  5
223
100
AcDbEntity
  8
0
100
AcDbLine
 62
7
  6
CONTINUOUS
 10
108.4664731579
 20
132.1997619656
 11
110.8577379515
 21
132.1997619656
  0
LINE
  5
224
100
AcDbEntity
  8
ASSI
100
AcDbLine
 62
7
  6
CONTINUOUS
 10
108.4664731579
 20
132.1997619656
 11
110.8577379515
 21
132.1997619656
  0
LINE
  5
225
100
AcDbEntity
  8
0
100
AcDbLine
 62
253
  6
CONTINUOUS
 10
90.8164773887
 20
132.4497577348
 11
93.7077337207
 21
132.4497577348
  0
LINE
  5
226
100
AcDbEntity
  8
ASSI
100
AcDbLine
 62
253
  6
CONTINUOUS
 10
90.8164773887
 20
132.4497577348
 11
93.7077337207
 21
132.4497577348
  0
LINE
  5
227
100
AcDbEntity
  8
0
100
AcDbLine
 62
253
  6
CONTINUOUS
 10
108.2164773887
 20
132.4497577348
 11
111.1077337207
 21
132.4497577348
  0
LINE
  5
228
100
AcDbEntity
  8
ASSI
100
AcDbLine
 62
253
  6
CONTINUOUS
 10
108.2164773887
 20
132.4497577348
 11
111.1077337207
 21
132.4497577348
  0
LINE
  5
229
100
AcDbEntity
  8
0
100
AcDbLine
 62
7
  6
CONTINUOUS
 10
96.5121055547
 20
132.6953901316
 11
97.4621055547
 21
132.6953901316
  0
LINE
  5
22A
100
AcDbEntity
  8
ASSI
100
AcDbLine
 62
7
  6
CONTINUOUS
 10
96.5121055547
 20
132.6953901316
 11
97.4621055547
 21
132.6953901316
  0
LINE
  5
22B
100
AcDbEntity
  8
0
100
AcDbLine
 62
7
  6
CONTINUOUS
 10
104.4621055547
 20
132.6953901316
 11
105.4121055547
 21
132.6953901316
  0
LINE
  5
22C
100
AcDbEntity
  8
ASSI
100
AcDbLine
 62
7
  6
CONTINUOUS
 10
104.4621055547
 20
132.6953901316
 11
105.4121055547
 21
132.6953901316
  0
LINE
  5
22D
100
AcDbEntity
  8
0
100
AcDbLine
 62
7
  6
CONTINUOUS
 10
97.4621055547
 20
132.7012079614
 11
99.7621055547
 21
132.7012079614
  0
LINE
  5
22E
100
AcDbEntity
  8
ASSI
100
AcDbLine
 62
7
  6
CONTINUOUS
 10
97.4621055547
 20
132.7012079614
 11
99.7621055547
 21
132.7012079614
  0
LINE
  5
22F
100
AcDbEntity
  8
0
100
AcDbLine
 62
7
  6
CONTINUOUS
 10
102.1621055547
 20
132.7012079614
 11
104.4621055547
 21
132.7012079614
  0
LINE
  5
230
100
AcDbEntity
  8
ASSI
100
AcDbLine
 62
7
  6
CONTINUOUS
 10
102.1621055547
 20
132.7012079614
 11
104.4621055547
 21
132.7012079614
  0
LINE
  5
231
100
AcDbEntity
  8
0
100
AcDbLine
 62
7
  6
CONTINUOUS
 10
96.5557562016
 20
132.7390407784
 11
97.4621055547
 21
132.7390407784
  0
LINE
  5
232
100
AcDbEntity
  8
ASSI
100
AcDbLine
 62
7
  6
CONTINUOUS
 10
96.5557562016
 20
132.7390407784
 11
97.4621055547
 21
132.7390407784
  0
LINE
  5
233
100
AcDbEntity
  8
0
100
AcDbLine
 62
7
  6
CONTINUOUS
 10
104.4621055547
 20
132.7390407784
 11
105.3684549078
 21
132.7390407784
  0
LINE
  5
234
100
AcDbEntity
  8
ASSI
100
AcDbLine
 62
7
  6
CONTINUOUS
 10
104.4621055547
 20
132.7390407784
 11
105.3684549078
 21
132.7390407784
  0
LINE
  5
235
100
AcDbEntity
  8
0
100
AcDbLine
 62
253
  6
CONTINUOUS
 10
90.8164773887
 20
132.8510525643
 11
93.7077337207
 21
132.8510525643
  0
LINE
  5
236
100
AcDbEntity
  8
ASSI
100
AcDbLine
 62
253
  6
CONTINUOUS
 10
90.8164773887
 20
132.8510525643
 11
93.7077337207
 21
132.8510525643
  0
LINE
  5
237
100
AcDbEntity
  8
0
100
AcDbLine
 62
253
  6
CONTINUOUS
 10
108.2164773887
 20
132.8510525643
 11
111.1077337207
 21
132.8510525643
  0
LINE
  5
238
100
AcDbEntity
  8
ASSI
100
AcDbLine
 62
253
  6
CONTINUOUS
 10
108.2164773887
 20
132.8510525643
 11
111.1077337207
 21
132.8510525643
  0
LWPOLYLINE
  5
239
100
AcDbEntity
  8
0
100
AcDbPolyline
 62
7
  6
CONTINUOUS
 90
12
 70
0
 10
90.9371031264
 20
132.2288827399
 10
90.9475463671
 20
132.2231803628
 10
90.9582491084
 20
132.2179813594
 10
90.9691871054
 20
132.2132975058
 10
90.9803355809
 20
132.2091394102
 10
90.9916692757
 20
132.2055164899
 10
91.0031625159
 20
132.2024369499
 10
91.0147892672
 20
132.1999077639
 10
91.0265231885
 20
132.1979346574
 10
91.0383376991
 20
132.1965220973
 10
91.0502060387
 20
132.1956732818
 10
91.0621013239
 20
132.1953901316
  0
LINE
  5
23A
100
AcDbEntity
  8
0
100
AcDbLine
 62
7
  6
CONTINUOUS
 10
90.9269430488
 20
132.2350755734
 11
90.9371031264
 21
132.2288827399
  0
LWPOLYLINE
  5
23B
100
AcDbEntity
  8
ASSI
100
AcDbPolyline
 62
7
  6
CONTINUOUS
 90
13
 70
0
 10
90.9269430488
 20
132.2350755734
 10
90.9371031264
 20
132.2288827399
 10
90.9475463671
 20
132.2231803628
 10
90.9582491084
 20
132.2179813594
 10
90.9691871054
 20
132.2132975058
 10
90.9803355809
 20
132.2091394102
 10
90.9916692757
 20
132.2055164899
 10
91.0031625159
 20
132.2024369499
 10
91.0147892672
 20
132.1999077639
 10
91.0265231885
 20
132.1979346574
 10
91.0383376991
 20
132.1965220973
 10
91.0502060387
 20
132.1956732818
 10
91.0621013239
 20
132.1953901316
  0
LWPOLYLINE
  5
23C
100
AcDbEntity
  8
0
100
AcDbPolyline
 62
7
  6
CONTINUOUS
 90
8
 70
0
 10
93.5094218422
 20
132.1999077639
 10
93.5210485935
 20
132.2024369499
 10
93.5325418337
 20
132.2055164899
 10
93.5438755285
 20
132.2091394102
 10
93.555024004
 20
132.2132975058
 10
93.565962001
 20
132.2179813594
 10
93.5766647423
 20
132.2231803628
 10
93.587107983
 20
132.2288827399
  0
LWPOLYLINE
  5
23D
100
AcDbEntity
  8
ASSI
100
AcDbPolyline
 62
7
  6
CONTINUOUS
 90
9
 70
0
 10
93.5094218422
 20
132.1999077639
 10
93.5210485935
 20
132.2024369499
 10
93.5325418337
 20
132.2055164899
 10
93.5438755285
 20
132.2091394102
 10
93.555024004
 20
132.2132975058
 10
93.565962001
 20
132.2179813594
 10
93.5766647423
 20
132.2231803628
 10
93.587107983
 20
132.2288827399
 10
93.5972680606
 20
132.2350755734
  0
LINE
  5
23E
100
AcDbEntity
  8
0
100
AcDbLine
 62
253
  6
CONTINUOUS
 10
110.8577379515
 20
133.0675589152
 11
108.4664731579
 21
133.0675589152
  0
LINE
  5
23F
100
AcDbEntity
  8
ASSI
100
AcDbLine
 62
253
  6
CONTINUOUS
 10
110.8577379515
 20
133.0675589152
 11
108.4664731579
 21
133.0675589152
  0
LINE
  5
240
100
AcDbEntity
  8
0
100
AcDbLine
 62
253
  6
CONTINUOUS
 10
93.4577379515
 20
133.0675589152
 11
91.0664731579
 21
133.0675589152
  0
LINE
  5
241
100
AcDbEntity
  8
ASSI
100
AcDbLine
 62
253
  6
CONTINUOUS
 10
93.4577379515
 20
133.0675589152
 11
91.0664731579
 21
133.0675589152
  0
LINE
  5
242
100
AcDbEntity
  8
0
100
AcDbLine
 62
7
  6
CONTINUOUS
 10
110.8628285526
 20
133.5727404008
 11
108.4613825568
 21
133.5727404008
  0
LINE
  5
243
100
AcDbEntity
  8
ASSI
100
AcDbLine
 62
7
  6
CONTINUOUS
 10
110.8628285526
 20
133.5727404008
 11
108.4613825568
 21
133.5727404008
  0
LINE
  5
244
100
AcDbEntity
  8
0
100
AcDbLine
 62
7
  6
CONTINUOUS
 10
91.0613825568
 20
133.5727404008
 11
93.4628285526
 21
133.5727404008
  0
LINE
  5
245
100
AcDbEntity
  8
ASSI
100
AcDbLine
 62
7
  6
CONTINUOUS
 10
91.0613825568
 20
133.5727404008
 11
93.4628285526
 21
133.5727404008
  0
LINE
  5
246
100
AcDbEntity
  8
RACCORDO
100
AcDbLine
 62
7
  6
CONTINUOUS
 10
93.7062877249
 20
134.2953901316
 11
96.5121055547
 21
134.2953901316
  0
LINE
  5
247
100
AcDbEntity
  8
ASSI
100
AcDbLine
 62
7
  6
CONTINUOUS
 10
93.912048043
 20
134.2953901316
 11
96.5121055547
 21
134.2953901316
  0
LINE
  5
248
100
AcDbEntity
  8
ASSI
100
AcDbLine
 62
7
  6
CONTINUOUS
 10
105.4121055547
 20
134.2953901316
 11
108.0121630663
 21
134.2953901316
  0
LINE
  5
249
100
AcDbEntity
  8
RACCORDO
100
AcDbLine
 62
7
  6
CONTINUOUS
 10
105.4121055547
 20
134.2953901316
 11
108.2179233845
 21
134.2953901316
  0
LINE
  5
24A
100
AcDbEntity
  8
0
100
AcDbLine
 62
7
  6
CONTINUOUS
 10
99.9621055547
 20
134.3006261672
 11
101.9621055547
 21
134.3006261672
  0
LINE
  5
24B
100
AcDbEntity
  8
ASSI
100
AcDbLine
 62
7
  6
CONTINUOUS
 10
99.9621055547
 20
134.3006261672
 11
101.9621055547
 21
134.3006261672
  0
LINE
  5
24C
100
AcDbEntity
  8
0
100
AcDbLine
 62
7
  6
CONTINUOUS
 10
90.320389733
 20
134.3012079614
 11
93.7062877249
 21
134.3012079614
  0
LINE
  5
24D
100
AcDbEntity
  8
ASSI
100
AcDbLine
 62
7
  6
CONTINUOUS
 10
90.320389733
 20
134.3012079614
 11
93.7062877249
 21
134.3012079614
  0
LINE
  5
24E
100
AcDbEntity
  8
0
100
AcDbLine
 62
7
  6
CONTINUOUS
 10
97.4621055547
 20
134.3012079614
 11
97.9621055547
 21
134.3012079614
  0
LINE
  5
24F
100
AcDbEntity
  8
ASSI
100
AcDbLine
 62
7
  6
CONTINUOUS
 10
97.4621055547
 20
134.3012079614
 11
97.9621055547
 21
134.3012079614
  0
LINE
  5
250
100
AcDbEntity
  8
0
100
AcDbLine
 62
7
  6
CONTINUOUS
 10
103.9621055547
 20
134.3012079614
 11
104.4621055547
 21
134.3012079614
  0
LINE
  5
251
100
AcDbEntity
  8
ASSI
100
AcDbLine
 62
7
  6
CONTINUOUS
 10
103.9621055547
 20
134.3012079614
 11
104.4621055547
 21
134.3012079614
  0
LINE
  5
252
100
AcDbEntity
  8
0
100
AcDbLine
 62
7
  6
CONTINUOUS
 10
108.2179233845
 20
134.3012079614
 11
111.6038213764
 21
134.3012079614
  0
LINE
  5
253
100
AcDbEntity
  8
ASSI
100
AcDbLine
 62
7
  6
CONTINUOUS
 10
108.2179233845
 20
134.3012079614
 11
111.6038213764
 21
134.3012079614
  0
LINE
  5
254
100
AcDbEntity
  8
0
100
AcDbLine
 62
253
  6
CONTINUOUS
 10
93.6480755802
 20
134.3594201061
 11
97.9621055547
 21
134.3594201061
  0
LINE
  5
255
100
AcDbEntity
  8
ASSI
100
AcDbLine
 62
7
  6
CONTINUOUS
 10
93.6480755802
 20
134.3594201061
 11
97.9621055547
 21
134.3594201061
  0
LINE
  5
256
100
AcDbEntity
  8
0
100
AcDbLine
 62
253
  6
CONTINUOUS
 10
103.9621055547
 20
134.3594201061
 11
108.2761355292
 21
134.3594201061
  0
LINE
  5
257
100
AcDbEntity
  8
ASSI
100
AcDbLine
 62
7
  6
CONTINUOUS
 10
103.9621055547
 20
134.3594201061
 11
108.2761355292
 21
134.3594201061
  0
LINE
  5
258
100
AcDbEntity
  8
0
100
AcDbLine
 62
7
  6
CONTINUOUS
 10
97.9621055547
 20
134.9953901316
 11
103.9621055547
 21
134.9953901316
  0
LINE
  5
259
100
AcDbEntity
  8
ASSI
100
AcDbLine
 62
7
  6
CONTINUOUS
 10
97.9621055547
 20
134.9953901316
 11
103.9621055547
 21
134.9953901316
  0
LINE
  5
25A
100
AcDbEntity
  8
0
100
AcDbLine
 62
253
  6
CONTINUOUS
 10
93.3954599005
 20
135.3594031829
 11
97.9621055547
 21
135.3594031829
  0
LINE
  5
25B
100
AcDbEntity
  8
ASSI
100
AcDbLine
 62
253
  6
CONTINUOUS
 10
93.3954599005
 20
135.3594031829
 11
97.9621055547
 21
135.3594031829
  0
LINE
  5
25C
100
AcDbEntity
  8
0
100
AcDbLine
 62
253
  6
CONTINUOUS
 10
103.9621055547
 20
135.3594031829
 11
108.5287512089
 21
135.3594031829
  0
LINE
  5
25D
100
AcDbEntity
  8
ASSI
100
AcDbLine
 62
253
  6
CONTINUOUS
 10
103.9621055547
 20
135.3594031829
 11
108.5287512089
 21
135.3594031829
  0
LINE
  5
25E
100
AcDbEntity
  8
0
100
AcDbLine
 62
7
  6
CONTINUOUS
 10
112.1286878664
 20
135.6727404008
 11
112.1038150303
 21
135.6727404008
  0
LINE
  5
25F
100
AcDbEntity
  8
ASSI
100
AcDbLine
 62
7
  6
CONTINUOUS
 10
112.1286878664
 20
135.6727404008
 11
112.1038150303
 21
135.6727404008
  0
LINE
  5
260
100
AcDbEntity
  8
0
100
AcDbLine
 62
7
  6
CONTINUOUS
 10
89.795523243
 20
135.6727404008
 11
89.8203960791
 21
135.6727404008
  0
LINE
  5
261
100
AcDbEntity
  8
ASSI
100
AcDbLine
 62
7
  6
CONTINUOUS
 10
89.795523243
 20
135.6727404008
 11
89.8203960791
 21
135.6727404008
  0
LINE
  5
262
100
AcDbEntity
  8
0
100
AcDbLine
 62
7
  6
CONTINUOUS
 10
92.0122118923
 20
135.7953901316
 11
93.3954599005
 21
135.7953901316
  0
LINE
  5
263
100
AcDbEntity
  8
DRAFT
100
AcDbLine
 62
7
  6
CONTINUOUS
 10
93.3954599005
 20
135.7953901316
 11
93.7581011004
 21
135.7953901316
  0
LINE
  5
264
100
AcDbEntity
  8
ASSI
100
AcDbLine
 62
7
  6
CONTINUOUS
 10
92.0122118923
 20
135.7953901316
 11
93.7581011004
 21
135.7953901316
  0
LINE
  5
265
100
AcDbEntity
  8
DRAFT
100
AcDbLine
 62
7
  6
CONTINUOUS
 10
108.166110009
 20
135.7953901316
 11
108.5287512089
 21
135.7953901316
  0
LINE
  5
266
100
AcDbEntity
  8
0
100
AcDbLine
 62
7
  6
CONTINUOUS
 10
108.5287512089
 20
135.7953901316
 11
109.9119992171
 21
135.7953901316
  0
LINE
  5
267
100
AcDbEntity
  8
ASSI
100
AcDbLine
 62
7
  6
CONTINUOUS
 10
108.166110009
 20
135.7953901316
 11
109.9119992171
 21
135.7953901316
  0
LINE
  5
268
100
AcDbEntity
  8
0
100
AcDbLine
 62
7
  6
CONTINUOUS
 10
97.9621055547
 20
135.8953901316
 11
103.9621055547
 21
135.8953901316
  0
LINE
  5
269
100
AcDbEntity
  8
ASSI
100
AcDbLine
 62
7
  6
CONTINUOUS
 10
97.9621055547
 20
135.8953901316
 11
103.9621055547
 21
135.8953901316
  0
LINE
  5
26A
100
AcDbEntity
  8
RACCORDO
100
AcDbLine
 62
253
  6
CONTINUOUS
 10
109.8008969865
 20
136.1289678755
 11
108.3176524393
 21
136.1289678755
  0
LINE
  5
26B
100
AcDbEntity
  8
ASSI
100
AcDbLine
 62
253
  6
CONTINUOUS
 10
109.8008969865
 20
136.1289678755
 11
108.3176524393
 21
136.1289678755
  0
LINE
  5
26C
100
AcDbEntity
  8
RACCORDO
100
AcDbLine
 62
253
  6
CONTINUOUS
 10
93.6065586701
 20
136.1289678755
 11
92.1233141229
 21
136.1289678755
  0
LINE
  5
26D
100
AcDbEntity
  8
ASSI
100
AcDbLine
 62
253
  6
CONTINUOUS
 10
93.6065586701
 20
136.1289678755
 11
92.1233141229
 21
136.1289678755
  0
LWPOLYLINE
  5
26E
100
AcDbEntity
  8
0
100
AcDbPolyline
 62
7
  6
CONTINUOUS
 90
10
 70
0
 10
90.8517909966
 20
132.3102276257
 10
90.8584602592
 20
132.3003737265
 10
90.865590844
 20
132.2908483277
 10
90.8731665958
 20
132.2816730125
 10
90.8811703542
 20
132.2728685655
 10
90.8895839886
 20
132.2644549311
 10
90.8983884356
 20
132.2564511727
 10
90.9075637508
 20
132.2488754209
 10
90.9170891496
 20
132.2417448361
 10
90.9269430488
 20
132.2350755734
  0
LWPOLYLINE
  5
26F
100
AcDbEntity
  8
ASSI
100
AcDbPolyline
 62
7
  6
CONTINUOUS
 90
10
 70
0
 10
90.8517909966
 20
132.3102276257
 10
90.8584602592
 20
132.3003737265
 10
90.865590844
 20
132.2908483277
 10
90.8731665958
 20
132.2816730125
 10
90.8811703542
 20
132.2728685655
 10
90.8895839886
 20
132.2644549311
 10
90.8983884356
 20
132.2564511727
 10
90.9075637508
 20
132.2488754209
 10
90.9170891496
 20
132.2417448361
 10
90.9269430488
 20
132.2350755734
  0
LWPOLYLINE
  5
270
100
AcDbEntity
  8
0
100
AcDbPolyline
 62
7
  6
CONTINUOUS
 90
12
 70
0
 10
90.845598163
 20
181.0703925598
 10
90.8398957859
 20
181.0599493192
 10
90.8346967825
 20
181.0492465779
 10
90.8300129289
 20
181.0383085809
 10
90.8258548333
 20
181.0271601054
 10
90.822231913
 20
181.0158264106
 10
90.819152373
 20
181.0043331704
 10
90.816623187
 20
180.9927064191
 10
90.8146500805
 20
180.9809724977
 10
90.8132375204
 20
180.9691579871
 10
90.8123887049
 20
180.9572896476
 10
90.8121055547
 20
180.9453943624
  0
LINE
  5
271
100
AcDbEntity
  8
0
100
AcDbLine
 62
7
  6
CONTINUOUS
 10
90.8517909966
 20
181.0805526375
 11
90.845598163
 21
181.0703925598
  0
LWPOLYLINE
  5
272
100
AcDbEntity
  8
ASSI
100
AcDbPolyline
 62
7
  6
CONTINUOUS
 90
13
 70
0
 10
90.8517909966
 20
181.0805526375
 10
90.845598163
 20
181.0703925598
 10
90.8398957859
 20
181.0599493192
 10
90.8346967825
 20
181.0492465779
 10
90.8300129289
 20
181.0383085809
 10
90.8258548333
 20
181.0271601054
 10
90.822231913
 20
181.0158264106
 10
90.819152373
 20
181.0043331704
 10
90.816623187
 20
180.9927064191
 10
90.8146500805
 20
180.9809724977
 10
90.8132375204
 20
180.9691579871
 10
90.8123887049
 20
180.9572896476
 10
90.8121055547
 20
180.9453943624
  0
LINE
  5
273
100
AcDbEntity
  8
0
100
AcDbLine
 62
7
  6
CONTINUOUS
 10
91.3121055547
 20
176.8944297818
 11
92.0122118923
 21
177.5953901316
  0
LINE
  5
274
100
AcDbEntity
  8
ASSI
100
AcDbLine
 62
7
  6
CONTINUOUS
 10
91.3121055547
 20
176.8944297818
 11
92.0122118923
 21
177.5953901316
  0
LINE
  5
275
100
AcDbEntity
  8
0
100
AcDbLine
 62
7
  6
CONTINUOUS
 10
91.3574887235
 20
176.7581695556
 11
92.0575950611
 21
177.4591299054
  0
LINE
  5
276
100
AcDbEntity
  8
ASSI
100
AcDbLine
 62
7
  6
CONTINUOUS
 10
91.3574887235
 20
176.7581695556
 11
92.0575950611
 21
177.4591299054
  0
LINE
  5
277
100
AcDbEntity
  8
0
100
AcDbLine
 62
7
  6
CONTINUOUS
 10
92.7121055547
 20
178.0953901316
 11
93.7062877249
 21
179.0895723018
  0
LINE
  5
278
100
AcDbEntity
  8
ASSI
100
AcDbLine
 62
7
  6
CONTINUOUS
 10
92.7121055547
 20
178.0953901316
 11
93.7062877249
 21
179.0895723018
  0
LINE
  5
279
100
AcDbEntity
  8
RACCORDO
100
AcDbLine
 62
253
  6
CONTINUOUS
 10
94.366110009
 20
136.5965274141
 11
93.7581011004
 21
136.5936602422
  0
LINE
  5
27A
100
AcDbEntity
  8
ASSI
100
AcDbLine
 62
253
  6
CONTINUOUS
 10
94.366110009
 20
136.5965274141
 11
93.7581011004
 21
136.5936602422
  0
LINE
  5
27B
100
AcDbEntity
  8
RACCORDO
100
AcDbLine
 62
7
  6
CONTINUOUS
 10
94.366110009
 20
136.5965274141
 11
107.5581011004
 21
136.5965274141
  0
LINE
  5
27C
100
AcDbEntity
  8
ASSI
100
AcDbLine
 62
7
  6
CONTINUOUS
 10
94.366110009
 20
136.5965274141
 11
107.5581011004
 21
136.5965274141
  0
LINE
  5
27D
100
AcDbEntity
  8
RACCORDO
100
AcDbLine
 62
253
  6
CONTINUOUS
 10
94.5180338944
 20
136.7513184713
 11
107.406177215
 21
136.7513184713
  0
LINE
  5
27E
100
AcDbEntity
  8
ASSI
100
AcDbLine
 62
253
  6
CONTINUOUS
 10
94.5180338944
 20
136.7513184713
 11
107.406177215
 21
136.7513184713
  0
LINE
  5
27F
100
AcDbEntity
  8
RACCORDO
100
AcDbLine
 62
253
  6
CONTINUOUS
 10
108.1682734479
 20
136.8891025681
 11
107.5559376615
 21
136.8891025681
  0
LINE
  5
280
100
AcDbEntity
  8
ASSI
100
AcDbLine
 62
253
  6
CONTINUOUS
 10
108.1682734479
 20
136.8891025681
 11
107.5559376615
 21
136.8891025681
  0
LINE
  5
281
100
AcDbEntity
  8
RACCORDO
100
AcDbLine
 62
253
  6
CONTINUOUS
 10
94.3682734479
 20
136.8891025681
 11
93.7559376615
 21
136.8891025681
  0
LINE
  5
282
100
AcDbEntity
  8
ASSI
100
AcDbLine
 62
253
  6
CONTINUOUS
 10
94.3682734479
 20
136.8891025681
 11
93.7559376615
 21
136.8891025681
  0
LINE
  5
283
100
AcDbEntity
  8
RACCORDO
100
AcDbLine
 62
253
  6
CONTINUOUS
 10
110.4862606848
 20
136.9058428934
 11
108.3250231976
 21
136.9058428934
  0
LINE
  5
284
100
AcDbEntity
  8
ASSI
100
AcDbLine
 62
253
  6
CONTINUOUS
 10
110.4862606848
 20
136.9058428934
 11
108.3250231976
 21
136.9058428934
  0
LINE
  5
285
100
AcDbEntity
  8
RACCORDO
100
AcDbLine
 62
253
  6
CONTINUOUS
 10
93.5991879118
 20
136.9058428934
 11
91.4379504246
 21
136.9058428934
  0
LINE
  5
286
100
AcDbEntity
  8
ASSI
100
AcDbLine
 62
253
  6
CONTINUOUS
 10
93.5991879118
 20
136.9058428934
 11
91.4379504246
 21
136.9058428934
  0
LINE
  5
287
100
AcDbEntity
  8
RACCORDO
100
AcDbLine
 62
253
  6
CONTINUOUS
 10
94.5257545985
 20
137.5357916668
 11
107.3984565108
 21
137.5357916668
  0
LINE
  5
288
100
AcDbEntity
  8
ASSI
100
AcDbLine
 62
253
  6
CONTINUOUS
 10
94.5257545985
 20
137.5357916668
 11
107.3984565108
 21
137.5357916668
  0
LINE
  5
289
100
AcDbEntity
  8
RACCORDO
100
AcDbLine
 62
253
  6
CONTINUOUS
 10
108.166110009
 20
136.5936602422
 11
107.5581011004
 21
136.5965274141
  0
LINE
  5
28A
100
AcDbEntity
  8
ASSI
100
AcDbLine
 62
253
  6
CONTINUOUS
 10
108.166110009
 20
136.5936602422
 11
107.5581011004
 21
136.5965274141
  0
LINE
  5
28B
100
AcDbEntity
  8
0
100
AcDbLine
 62
7
  6
CONTINUOUS
 10
93.7062877249
 20
134.3012079614
 11
92.7121055547
 21
135.2953901316
  0
LINE
  5
28C
100
AcDbEntity
  8
ASSI
100
AcDbLine
 62
7
  6
CONTINUOUS
 10
93.7062877249
 20
134.3012079614
 11
92.7121055547
 21
135.2953901316
  0
LINE
  5
28D
100
AcDbEntity
  8
0
100
AcDbLine
 62
7
  6
CONTINUOUS
 10
91.3121055547
 20
136.4963504814
 11
92.0122118923
 21
135.7953901316
  0
LINE
  5
28E
100
AcDbEntity
  8
ASSI
100
AcDbLine
 62
7
  6
CONTINUOUS
 10
91.3121055547
 20
136.4963504814
 11
92.0122118923
 21
135.7953901316
  0
LINE
  5
28F
100
AcDbEntity
  8
0
100
AcDbLine
 62
7
  6
CONTINUOUS
 10
90.845598163
 20
132.3203877033
 11
90.8517909966
 21
132.3102276257
  0
LWPOLYLINE
  5
290
100
AcDbEntity
  8
0
100
AcDbPolyline
 62
7
  6
CONTINUOUS
 90
5
 70
0
 10
97.4245153464
 20
180.5969211496
 10
97.4177660233
 20
180.5890406445
 10
97.4103960529
 20
180.5805601683
 10
97.402375842
 20
180.5714225439
 10
97.393689866
 20
180.5616243787
  0
LWPOLYLINE
  5
291
100
AcDbEntity
  8
ASSI
100
AcDbPolyline
 62
7
  6
CONTINUOUS
 90
5
 70
0
 10
97.4245153464
 20
180.5969211496
 10
97.4177660233
 20
180.5890406445
 10
97.4103960529
 20
180.5805601683
 10
97.402375842
 20
180.5714225439
 10
97.393689866
 20
180.5616243787
  0
LINE
  5
292
100
AcDbEntity
  8
0
100
AcDbLine
 62
7
  6
CONTINUOUS
 10
97.393689866
 20
180.5616243787
 11
97.3742711074
 21
180.5400096055
  0
LINE
  5
293
100
AcDbEntity
  8
ASSI
100
AcDbLine
 62
7
  6
CONTINUOUS
 10
97.393689866
 20
180.5616243787
 11
97.3742711074
 21
180.5400096055
  0
LINE
  5
294
100
AcDbEntity
  8
0
100
AcDbLine
 62
7
  6
CONTINUOUS
 10
97.3742711074
 20
180.5400096055
 11
97.3520147571
 21
180.5155631069
  0
LINE
  5
295
100
AcDbEntity
  8
ASSI
100
AcDbLine
 62
7
  6
CONTINUOUS
 10
97.3742711074
 20
180.5400096055
 11
97.3520147571
 21
180.5155631069
  0
LINE
  5
296
100
AcDbEntity
  8
0
100
AcDbLine
 62
7
  6
CONTINUOUS
 10
97.3520147571
 20
180.5155631069
 11
97.3268640221
 21
180.4882299333
  0
LINE
  5
297
100
AcDbEntity
  8
ASSI
100
AcDbLine
 62
7
  6
CONTINUOUS
 10
97.3520147571
 20
180.5155631069
 11
97.3268640221
 21
180.4882299333
  0
LINE
  5
298
100
AcDbEntity
  8
0
100
AcDbLine
 62
7
  6
CONTINUOUS
 10
97.3268640221
 20
180.4882299333
 11
97.2835578031
 21
180.4416515092
  0
LINE
  5
299
100
AcDbEntity
  8
ASSI
100
AcDbLine
 62
7
  6
CONTINUOUS
 10
97.3268640221
 20
180.4882299333
 11
97.2835578031
 21
180.4416515092
  0
LINE
  5
29A
100
AcDbEntity
  8
0
100
AcDbLine
 62
7
  6
CONTINUOUS
 10
97.2835578031
 20
180.4416515092
 11
97.2152799103
 21
180.3689617662
  0
LINE
  5
29B
100
AcDbEntity
  8
ASSI
100
AcDbLine
 62
7
  6
CONTINUOUS
 10
97.2835578031
 20
180.4416515092
 11
97.2152799103
 21
180.3689617662
  0
LINE
  5
29C
100
AcDbEntity
  8
0
100
AcDbLine
 62
7
  6
CONTINUOUS
 10
97.2152799103
 20
180.3689617662
 11
97.0090628448
 21
180.1517479463
  0
LINE
  5
29D
100
AcDbEntity
  8
ASSI
100
AcDbLine
 62
7
  6
CONTINUOUS
 10
97.2152799103
 20
180.3689617662
 11
97.0090628448
 21
180.1517479463
  0
LINE
  5
29E
100
AcDbEntity
  8
DRAFT
100
AcDbLine
 62
7
  6
CONTINUOUS
 10
93.5958715455
 20
140.1232497581
 11
94.5283395639
 21
140.1232497581
  0
LINE
  5
29F
100
AcDbEntity
  8
ASSI
100
AcDbLine
 62
7
  6
CONTINUOUS
 10
93.5958715455
 20
140.1232497581
 11
94.5283395639
 21
140.1232497581
  0
LINE
  5
2A0
100
AcDbEntity
  8
DRAFT
100
AcDbLine
 62
7
  6
CONTINUOUS
 10
107.3958715455
 20
140.1232497581
 11
108.3283395639
 21
140.1232497581
  0
LINE
  5
2A1
100
AcDbEntity
  8
ASSI
100
AcDbLine
 62
7
  6
CONTINUOUS
 10
107.3958715455
 20
140.1232497581
 11
108.3283395639
 21
140.1232497581
  0
LWPOLYLINE
  5
2A2
100
AcDbEntity
  8
0
100
AcDbPolyline
 62
7
  6
CONTINUOUS
 90
12
 70
0
 10
108.3371031264
 20
132.2288827399
 10
108.3475463671
 20
132.2231803628
 10
108.3582491084
 20
132.2179813594
 10
108.3691871054
 20
132.2132975058
 10
108.3803355809
 20
132.2091394102
 10
108.3916692757
 20
132.2055164899
 10
108.4031625159
 20
132.2024369499
 10
108.4147892672
 20
132.1999077639
 10
108.4265231885
 20
132.1979346574
 10
108.4383376991
 20
132.1965220973
 10
108.4502060387
 20
132.1956732818
 10
108.4621013239
 20
132.1953901316
  0
LINE
  5
2A3
100
AcDbEntity
  8
0
100
AcDbLine
 62
7
  6
CONTINUOUS
 10
97.0090628448
 20
133.2390323169
 11
97.2333269531
 21
133.0026604558
  0
LINE
  5
2A4
100
AcDbEntity
  8
ASSI
100
AcDbLine
 62
7
  6
CONTINUOUS
 10
97.0090628448
 20
133.2390323169
 11
97.2333269531
 21
133.0026604558
  0
LINE
  5
2A5
100
AcDbEntity
  8
0
100
AcDbLine
 62
7
  6
CONTINUOUS
 10
97.2333269531
 20
133.0026604558
 11
97.2987043018
 21
132.9328897129
  0
LINE
  5
2A6
100
AcDbEntity
  8
ASSI
100
AcDbLine
 62
7
  6
CONTINUOUS
 10
97.2333269531
 20
133.0026604558
 11
97.2987043018
 21
132.9328897129
  0
LINE
  5
2A7
100
AcDbEntity
  8
0
100
AcDbLine
 62
7
  6
CONTINUOUS
 10
97.2987043018
 20
132.9328897129
 11
97.3397744748
 21
132.888550222
  0
LINE
  5
2A8
100
AcDbEntity
  8
ASSI
100
AcDbLine
 62
7
  6
CONTINUOUS
 10
97.2987043018
 20
132.9328897129
 11
97.3397744748
 21
132.888550222
  0
LINE
  5
2A9
100
AcDbEntity
  8
0
100
AcDbLine
 62
7
  6
CONTINUOUS
 10
97.3397744748
 20
132.888550222
 11
97.3634901668
 21
132.8626536331
  0
LINE
  5
2AA
100
AcDbEntity
  8
ASSI
100
AcDbLine
 62
7
  6
CONTINUOUS
 10
97.3397744748
 20
132.888550222
 11
97.3634901668
 21
132.8626536331
  0
LWPOLYLINE
  5
2AB
100
AcDbEntity
  8
0
100
AcDbPolyline
 62
7
  6
CONTINUOUS
 90
19
 70
0
 10
97.3634901668
 20
132.8626536331
 10
97.3843412228
 20
132.8395984034
 10
97.3937158413
 20
132.8291269476
 10
97.4024142796
 20
132.8193141717
 10
97.4104454391
 20
132.8101638617
 10
97.4178245719
 20
132.8016722317
 10
97.4245789194
 20
132.7937843605
 10
97.4307136096
 20
132.7865043573
 10
97.4362493518
 20
132.7798281129
 10
97.4412263983
 20
132.7736883792
 10
97.4456535258
 20
132.7680746534
 10
97.4495339788
 20
132.7629974384
 10
97.452886605
 20
132.7584209937
 10
97.4557156071
 20
132.754339511
 10
97.4580218799
 20
132.7507587987
 10
97.4598119716
 20
132.7476605417
 10
97.4610882276
 20
132.745038635
 10
97.4618517814
 20
132.7428991836
 10
97.4621055547
 20
132.7412421875
  0
LWPOLYLINE
  5
2AC
100
AcDbEntity
  8
ASSI
100
AcDbPolyline
 62
7
  6
CONTINUOUS
 90
19
 70
0
 10
97.3634901668
 20
132.8626536331
 10
97.3843412228
 20
132.8395984034
 10
97.3937158413
 20
132.8291269476
 10
97.4024142796
 20
132.8193141717
 10
97.4104454391
 20
132.8101638617
 10
97.4178245719
 20
132.8016722317
 10
97.4245789194
 20
132.7937843605
 10
97.4307136096
 20
132.7865043573
 10
97.4362493518
 20
132.7798281129
 10
97.4412263983
 20
132.7736883792
 10
97.4456535258
 20
132.7680746534
 10
97.4495339788
 20
132.7629974384
 10
97.452886605
 20
132.7584209937
 10
97.4557156071
 20
132.754339511
 10
97.4580218799
 20
132.7507587987
 10
97.4598119716
 20
132.7476605417
 10
97.4610882276
 20
132.745038635
 10
97.4618517814
 20
132.7428991836
 10
97.4621055547
 20
132.7412421875
  0
LINE
  5
2AD
100
AcDbEntity
  8
RACCORDO
100
AcDbLine
 62
7
  6
CONTINUOUS
 10
92.6387973008
 20
173.1083864063
 11
92.7164259844
 21
173.201965313
  0
LINE
  5
2AE
100
AcDbEntity
  8
ASSI
100
AcDbLine
 62
7
  6
CONTINUOUS
 10
92.6387973008
 20
173.1083864063
 11
92.7164259844
 21
173.201965313
  0
LWPOLYLINE
  5
2AF
100
AcDbEntity
  8
0
100
AcDbPolyline
 62
7
  6
CONTINUOUS
 90
10
 70
0
 10
108.3269430488
 20
181.1557046897
 10
108.3170891496
 20
181.1490354271
 10
108.3075637508
 20
181.1419048423
 10
108.2983884356
 20
181.1343290904
 10
108.2895839886
 20
181.1263253321
 10
108.2811703542
 20
181.1179116977
 10
108.2731665958
 20
181.1091072506
 10
108.265590844
 20
181.0999319354
 10
108.2584602592
 20
181.0904065367
 10
108.2517909966
 20
181.0805526375
  0
LWPOLYLINE
  5
2B0
100
AcDbEntity
  8
ASSI
100
AcDbPolyline
 62
7
  6
CONTINUOUS
 90
10
 70
0
 10
108.3269430488
 20
181.1557046897
 10
108.3170891496
 20
181.1490354271
 10
108.3075637508
 20
181.1419048423
 10
108.2983884356
 20
181.1343290904
 10
108.2895839886
 20
181.1263253321
 10
108.2811703542
 20
181.1179116977
 10
108.2731665958
 20
181.1091072506
 10
108.265590844
 20
181.0999319354
 10
108.2584602592
 20
181.0904065367
 10
108.2517909966
 20
181.0805526375
  0
LINE
  5
2B1
100
AcDbEntity
  8
0
100
AcDbLine
 62
7
  6
CONTINUOUS
 10
108.3371031264
 20
181.1618975232
 11
108.3269430488
 21
181.1557046897
  0
LINE
  5
2B2
100
AcDbEntity
  8
0
100
AcDbLine
 62
7
  6
CONTINUOUS
 10
108.3269430488
 20
132.2350755734
 11
108.3371031264
 21
132.2288827399
  0
LWPOLYLINE
  5
2B3
100
AcDbEntity
  8
ASSI
100
AcDbPolyline
 62
7
  6
CONTINUOUS
 90
13
 70
0
 10
108.3269430488
 20
132.2350755734
 10
108.3371031264
 20
132.2288827399
 10
108.3475463671
 20
132.2231803628
 10
108.3582491084
 20
132.2179813594
 10
108.3691871054
 20
132.2132975058
 10
108.3803355809
 20
132.2091394102
 10
108.3916692757
 20
132.2055164899
 10
108.4031625159
 20
132.2024369499
 10
108.4147892672
 20
132.1999077639
 10
108.4265231885
 20
132.1979346574
 10
108.4383376991
 20
132.1965220973
 10
108.4502060387
 20
132.1956732818
 10
108.4621013239
 20
132.1953901316
  0
LWPOLYLINE
  5
2B4
100
AcDbEntity
  8
0
100
AcDbPolyline
 62
7
  6
CONTINUOUS
 90
8
 70
0
 10
90.816623187
 20
132.3980738441
 10
90.819152373
 20
132.3864470928
 10
90.822231913
 20
132.3749538526
 10
90.8258548333
 20
132.3636201578
 10
90.8300129289
 20
132.3524716823
 10
90.8346967825
 20
132.3415336853
 10
90.8398957859
 20
132.330830944
 10
90.845598163
 20
132.3203877033
  0
LWPOLYLINE
  5
2B5
100
AcDbEntity
  8
ASSI
100
AcDbPolyline
 62
7
  6
CONTINUOUS
 90
9
 70
0
 10
90.816623187
 20
132.3980738441
 10
90.819152373
 20
132.3864470928
 10
90.822231913
 20
132.3749538526
 10
90.8258548333
 20
132.3636201578
 10
90.8300129289
 20
132.3524716823
 10
90.8346967825
 20
132.3415336853
 10
90.8398957859
 20
132.330830944
 10
90.845598163
 20
132.3203877033
 10
90.8517909966
 20
132.3102276257
  0
LINE
  5
2B6
100
AcDbEntity
  8
0
100
AcDbLine
 62
7
  6
CONTINUOUS
 10
105.2988706374
 20
180.5606094168
 11
105.2793988235
 21
180.5389513049
  0
LINE
  5
2B7
100
AcDbEntity
  8
ASSI
100
AcDbLine
 62
7
  6
CONTINUOUS
 10
105.2988706374
 20
180.5606094168
 11
105.2793988235
 21
180.5389513049
  0
LINE
  5
2B8
100
AcDbEntity
  8
0
100
AcDbLine
 62
7
  6
CONTINUOUS
 10
105.2793988235
 20
180.5389513049
 11
105.2571111518
 21
180.5144830571
  0
LINE
  5
2B9
100
AcDbEntity
  8
ASSI
100
AcDbLine
 62
7
  6
CONTINUOUS
 10
105.2793988235
 20
180.5389513049
 11
105.2571111518
 21
180.5144830571
  0
LINE
  5
2BA
100
AcDbEntity
  8
0
100
AcDbLine
 62
7
  6
CONTINUOUS
 10
105.2571111518
 20
180.5144830571
 11
105.2319540032
 21
180.4871533288
  0
LINE
  5
2BB
100
AcDbEntity
  8
ASSI
100
AcDbLine
 62
7
  6
CONTINUOUS
 10
105.2571111518
 20
180.5144830571
 11
105.2319540032
 21
180.4871533288
  0
LINE
  5
2BC
100
AcDbEntity
  8
0
100
AcDbLine
 62
7
  6
CONTINUOUS
 10
105.2319540032
 20
180.4871533288
 11
105.1886912923
 21
180.4406330676
  0
LINE
  5
2BD
100
AcDbEntity
  8
ASSI
100
AcDbLine
 62
7
  6
CONTINUOUS
 10
105.2319540032
 20
180.4871533288
 11
105.1886912923
 21
180.4406330676
  0
LINE
  5
2BE
100
AcDbEntity
  8
0
100
AcDbLine
 62
7
  6
CONTINUOUS
 10
105.1886912923
 20
180.4406330676
 11
105.1205699374
 21
180.368119069
  0
LINE
  5
2BF
100
AcDbEntity
  8
ASSI
100
AcDbLine
 62
7
  6
CONTINUOUS
 10
105.1886912923
 20
180.4406330676
 11
105.1205699374
 21
180.368119069
  0
LWPOLYLINE
  5
2C0
100
AcDbEntity
  8
0
100
AcDbPolyline
 62
7
  6
CONTINUOUS
 90
3
 70
0
 10
105.1205699374
 20
180.368119069
 10
104.979333588
 20
180.2191936844
 10
104.9151482646
 20
180.1517479463
  0
LWPOLYLINE
  5
2C1
100
AcDbEntity
  8
ASSI
100
AcDbPolyline
 62
7
  6
CONTINUOUS
 90
3
 70
0
 10
105.1205699374
 20
180.368119069
 10
104.979333588
 20
180.2191936844
 10
104.9151482646
 20
180.1517479463
  0
LWPOLYLINE
  5
2C2
100
AcDbEntity
  8
RACCORDO
100
AcDbPolyline
 62
7
  6
CONTINUOUS
 90
3
 70
0
 10
97.1301175345
 20
170.3650135397
 10
97.0976599883
 20
170.3314009815
 10
96.9986122429
 20
170.2299726534
  0
LWPOLYLINE
  5
2C3
100
AcDbEntity
  8
ASSI
100
AcDbPolyline
 62
7
  6
CONTINUOUS
 90
3
 70
0
 10
97.1301175345
 20
170.3650135397
 10
97.0976599883
 20
170.3314009815
 10
96.9986122429
 20
170.2299726534
  0
LWPOLYLINE
  5
2C4
100
AcDbEntity
  8
RACCORDO
100
AcDbPolyline
 62
7
  6
CONTINUOUS
 90
3
 70
0
 10
96.9986122429
 20
170.2299726534
 10
96.9655762
 20
170.1964504654
 10
96.9324762691
 20
170.1633474829
  0
LWPOLYLINE
  5
2C5
100
AcDbEntity
  8
ASSI
100
AcDbPolyline
 62
7
  6
CONTINUOUS
 90
3
 70
0
 10
96.9986122429
 20
170.2299726534
 10
96.9655762
 20
170.1964504654
 10
96.9324762691
 20
170.1633474829
  0
LINE
  5
2C6
100
AcDbEntity
  8
0
100
AcDbLine
 62
7
  6
CONTINUOUS
 10
105.3684549078
 20
180.6517394847
 11
105.4121055547
 21
180.6953901316
  0
LINE
  5
2C7
100
AcDbEntity
  8
ASSI
100
AcDbLine
 62
7
  6
CONTINUOUS
 10
105.3684549078
 20
180.6517394847
 11
105.4121055547
 21
180.6953901316
  0
LINE
  5
2C8
100
AcDbEntity
  8
0
100
AcDbLine
 62
7
  6
CONTINUOUS
 10
105.4121055547
 20
179.0953901316
 11
105.3681833076
 21
179.0514678845
  0
LINE
  5
2C9
100
AcDbEntity
  8
ASSI
100
AcDbLine
 62
7
  6
CONTINUOUS
 10
105.4121055547
 20
179.0953901316
 11
105.3681833076
 21
179.0514678845
  0
LINE
  5
2CA
100
AcDbEntity
  8
0
100
AcDbLine
 62
7
  6
CONTINUOUS
 10
110.4742105418
 20
144.1821224894
 11
91.4500005676
 21
144.1821224894
  0
LINE
  5
2CB
100
AcDbEntity
  8
ASSI
100
AcDbLine
 62
7
  6
CONTINUOUS
 10
110.4742105418
 20
144.1821224894
 11
91.4500005676
 21
144.1821224894
  0
LINE
  5
2CC
100
AcDbEntity
  8
0
100
AcDbLine
 62
7
  6
CONTINUOUS
 10
105.4121055547
 20
132.6953901316
 11
105.3684549078
 21
132.7390407784
  0
LINE
  5
2CD
100
AcDbEntity
  8
ASSI
100
AcDbLine
 62
7
  6
CONTINUOUS
 10
105.4121055547
 20
132.6953901316
 11
105.3684549078
 21
132.7390407784
  0
LINE
  5
2CE
100
AcDbEntity
  8
0
100
AcDbLine
 62
7
  6
CONTINUOUS
 10
105.4121055547
 20
134.2953901316
 11
105.3681833076
 21
134.3393123786
  0
LINE
  5
2CF
100
AcDbEntity
  8
ASSI
100
AcDbLine
 62
7
  6
CONTINUOUS
 10
105.4121055547
 20
134.2953901316
 11
105.3681833076
 21
134.3393123786
  0
LINE
  5
2D0
100
AcDbEntity
  8
0
100
AcDbLine
 62
7
  6
CONTINUOUS
 10
104.9151482646
 20
133.2390323169
 11
105.1385601765
 21
133.0035652947
  0
LINE
  5
2D1
100
AcDbEntity
  8
ASSI
100
AcDbLine
 62
7
  6
CONTINUOUS
 10
104.9151482646
 20
133.2390323169
 11
105.1385601765
 21
133.0035652947
  0
LINE
  5
2D2
100
AcDbEntity
  8
0
100
AcDbLine
 62
7
  6
CONTINUOUS
 10
105.1385601765
 20
133.0035652947
 11
105.2038067867
 21
132.9339449021
  0
LINE
  5
2D3
100
AcDbEntity
  8
ASSI
100
AcDbLine
 62
7
  6
CONTINUOUS
 10
105.1385601765
 20
133.0035652947
 11
105.2038067867
 21
132.9339449021
  0
LINE
  5
2D4
100
AcDbEntity
  8
0
100
AcDbLine
 62
7
  6
CONTINUOUS
 10
105.2038067867
 20
132.9339449021
 11
105.2448556805
 21
132.8896412826
  0
LINE
  5
2D5
100
AcDbEntity
  8
ASSI
100
AcDbLine
 62
7
  6
CONTINUOUS
 10
105.2038067867
 20
132.9339449021
 11
105.2448556805
 21
132.8896412826
  0
LINE
  5
2D6
100
AcDbEntity
  8
0
100
AcDbLine
 62
7
  6
CONTINUOUS
 10
105.2448556805
 20
132.8896412826
 11
105.268590226
 21
132.86373549
  0
LINE
  5
2D7
100
AcDbEntity
  8
ASSI
100
AcDbLine
 62
7
  6
CONTINUOUS
 10
105.2448556805
 20
132.8896412826
 11
105.268590226
 21
132.86373549
  0
LWPOLYLINE
  5
2D8
100
AcDbEntity
  8
0
100
AcDbPolyline
 62
7
  6
CONTINUOUS
 90
19
 70
0
 10
105.268590226
 20
132.86373549
 10
105.2894840295
 20
132.8406476604
 10
105.2988881201
 20
132.830151455
 10
105.3076202202
 20
132.8203100762
 10
105.3156891912
 20
132.8111272948
 10
105.3231097819
 20
132.8025993399
 10
105.3299079571
 20
132.7946730316
 10
105.3360889319
 20
132.787352802
 10
105.3416733309
 20
132.7806342191
 10
105.3467005816
 20
132.7744508062
 10
105.3511793738
 20
132.7687929312
 10
105.3551140457
 20
132.7636702264
 10
105.3585246143
 20
132.7590451117
 10
105.3614156402
 20
132.7549113863
 10
105.363788062
 20
132.7512752512
 10
105.3656488543
 20
132.7481177285
 10
105.3670005643
 20
132.7454324926
 10
105.36784437
 20
132.7432258693
 10
105.3681833076
 20
132.7414978585
  0
LWPOLYLINE
  5
2D9
100
AcDbEntity
  8
ASSI
100
AcDbPolyline
 62
7
  6
CONTINUOUS
 90
19
 70
0
 10
105.268590226
 20
132.86373549
 10
105.2894840295
 20
132.8406476604
 10
105.2988881201
 20
132.830151455
 10
105.3076202202
 20
132.8203100762
 10
105.3156891912
 20
132.8111272948
 10
105.3231097819
 20
132.8025993399
 10
105.3299079571
 20
132.7946730316
 10
105.3360889319
 20
132.787352802
 10
105.3416733309
 20
132.7806342191
 10
105.3467005816
 20
132.7744508062
 10
105.3511793738
 20
132.7687929312
 10
105.3551140457
 20
132.7636702264
 10
105.3585246143
 20
132.7590451117
 10
105.3614156402
 20
132.7549113863
 10
105.363788062
 20
132.7512752512
 10
105.3656488543
 20
132.7481177285
 10
105.3670005643
 20
132.7454324926
 10
105.36784437
 20
132.7432258693
 10
105.3681833076
 20
132.7414978585
  0
LINE
  5
2DA
100
AcDbEntity
  8
0
100
AcDbLine
 62
7
  6
CONTINUOUS
 10
89.795523243
 20
135.6727404008
 11
89.8121055547
 21
135.124257645
  0
LINE
  5
2DB
100
AcDbEntity
  8
ASSI
100
AcDbLine
 62
7
  6
CONTINUOUS
 10
89.795523243
 20
135.6727404008
 11
89.8121055547
 21
135.124257645
  0
LINE
  5
2DC
100
AcDbEntity
  8
0
100
AcDbLine
 62
7
  6
CONTINUOUS
 10
89.795523243
 20
177.7180398624
 11
89.795523243
 21
135.6727404008
  0
LINE
  5
2DD
100
AcDbEntity
  8
ASSI
100
AcDbLine
 62
7
  6
CONTINUOUS
 10
89.795523243
 20
177.7180398624
 11
89.795523243
 21
135.6727404008
  0
LINE
  5
2DE
100
AcDbEntity
  8
0
100
AcDbLine
 62
7
  6
CONTINUOUS
 10
89.8116692113
 20
178.5954070546
 11
89.8116692113
 21
178.2953901316
  0
LINE
  5
2DF
100
AcDbEntity
  8
ASSI
100
AcDbLine
 62
7
  6
CONTINUOUS
 10
89.8116692113
 20
178.5954070546
 11
89.8116692113
 21
178.2953901316
  0
LINE
  5
2E0
100
AcDbEntity
  8
0
100
AcDbLine
 62
7
  6
CONTINUOUS
 10
89.8116692113
 20
134.7953732085
 11
89.8116692113
 21
135.0953901316
  0
LINE
  5
2E1
100
AcDbEntity
  8
ASSI
100
AcDbLine
 62
7
  6
CONTINUOUS
 10
89.8116692113
 20
134.7953732085
 11
89.8116692113
 21
135.0953901316
  0
LINE
  5
2E2
100
AcDbEntity
  8
0
100
AcDbLine
 62
7
  6
CONTINUOUS
 10
89.8203960791
 20
178.5895892248
 11
89.8203960791
 21
177.7180398624
  0
LINE
  5
2E3
100
AcDbEntity
  8
ASSI
100
AcDbLine
 62
7
  6
CONTINUOUS
 10
89.8203960791
 20
178.5895892248
 11
89.8203960791
 21
177.7180398624
  0
LINE
  5
2E4
100
AcDbEntity
  8
0
100
AcDbLine
 62
7
  6
CONTINUOUS
 10
89.8203960791
 20
135.6727404008
 11
89.8203960791
 21
134.8011910384
  0
LINE
  5
2E5
100
AcDbEntity
  8
ASSI
100
AcDbLine
 62
7
  6
CONTINUOUS
 10
89.8203960791
 20
135.6727404008
 11
89.8203960791
 21
134.8011910384
  0
LINE
  5
2E6
100
AcDbEntity
  8
0
100
AcDbLine
 62
7
  6
CONTINUOUS
 10
89.795523243
 20
177.7180398624
 11
89.8121055547
 21
178.2665226181
  0
LINE
  5
2E7
100
AcDbEntity
  8
ASSI
100
AcDbLine
 62
7
  6
CONTINUOUS
 10
89.795523243
 20
177.7180398624
 11
89.8121055547
 21
178.2665226181
  0
LINE
  5
2E8
100
AcDbEntity
  8
RACCORDO
100
AcDbLine
 62
7
  6
CONTINUOUS
 10
93.6145668159
 20
175.8959567358
 11
93.6352045462
 21
175.9785391055
  0
LINE
  5
2E9
100
AcDbEntity
  8
ASSI
100
AcDbLine
 62
7
  6
CONTINUOUS
 10
93.6145668159
 20
175.8959567358
 11
93.6352045462
 21
175.9785391055
  0
LWPOLYLINE
  5
2EA
100
AcDbEntity
  8
RACCORDO
100
AcDbPolyline
 62
7
  6
CONTINUOUS
 90
5
 70
0
 10
97.419147345
 20
170.6809401324
 10
97.4076287918
 20
170.6670692975
 10
97.3932929606
 20
170.6494401953
 10
97.3761398515
 20
170.6286375975
 10
97.355811777
 20
170.605330338
  0
LWPOLYLINE
  5
2EB
100
AcDbEntity
  8
ASSI
100
AcDbPolyline
 62
7
  6
CONTINUOUS
 90
5
 70
0
 10
97.419147345
 20
170.6809401324
 10
97.4076287918
 20
170.6670692975
 10
97.3932929606
 20
170.6494401953
 10
97.3761398515
 20
170.6286375975
 10
97.355811777
 20
170.605330338
  0
LINE
  5
2EC
100
AcDbEntity
  8
RACCORDO
100
AcDbLine
 62
7
  6
CONTINUOUS
 10
97.355811777
 20
170.605330338
 11
97.2812725962
 21
170.5239214742
  0
LINE
  5
2ED
100
AcDbEntity
  8
ASSI
100
AcDbLine
 62
7
  6
CONTINUOUS
 10
97.355811777
 20
170.605330338
 11
97.2812725962
 21
170.5239214742
  0
LWPOLYLINE
  5
2EE
100
AcDbEntity
  8
RACCORDO
100
AcDbPolyline
 62
7
  6
CONTINUOUS
 90
3
 70
0
 10
97.2812725962
 20
170.5239214742
 10
97.1934057094
 20
170.4308283076
 10
97.1301175345
 20
170.3650135397
  0
LWPOLYLINE
  5
2EF
100
AcDbEntity
  8
ASSI
100
AcDbPolyline
 62
7
  6
CONTINUOUS
 90
3
 70
0
 10
97.2812725962
 20
170.5239214742
 10
97.1934057094
 20
170.4308283076
 10
97.1301175345
 20
170.3650135397
  0
LWPOLYLINE
  5
2F0
100
AcDbEntity
  8
0
100
AcDbPolyline
 62
253
  6
CONTINUOUS
 90
34
 70
0
 10
90.8164773887
 20
180.5397276989
 10
90.8167940394
 20
180.5294449313
 10
90.8176742012
 20
180.5191853714
 10
90.8191158875
 20
180.5089721743
 10
90.8211158445
 20
180.4988283906
 10
90.8236695585
 20
180.4887769142
 10
90.8267712659
 20
180.4788404307
 10
90.8304139663
 20
180.4690413662
 10
90.8345894384
 20
180.4594018365
 10
90.8392882583
 20
180.4499435976
 10
90.8444998211
 20
180.4406879961
 10
90.8502123646
 20
180.4316559214
 10
90.856412996
 20
180.4228677583
 10
90.8630877207
 20
180.4143433411
 10
90.8702214744
 20
180.4061019091
 10
90.8777981565
 20
180.3981620626
 10
90.885800667
 20
180.3905417213
 10
90.8942109446
 20
180.383258084
 10
90.9030100078
 20
180.3763275894
 10
90.9121779977
 20
180.3697658791
 10
90.9216942227
 20
180.3635877627
 10
90.9315372052
 20
180.3578071837
 10
90.9416847301
 20
180.3524371885
 10
90.9521138952
 20
180.347489897
 10
90.9628011623
 20
180.3429764748
 10
90.9737224111
 20
180.3389071085
 10
90.9848529928
 20
180.3352909825
 10
90.9961677864
 20
180.332136258
 10
91.007641255
 20
180.3294500551
 10
91.0192475038
 20
180.3272384365
 10
91.0309603381
 20
180.3255063936
 10
91.0427533227
 20
180.3242578355
 10
91.0545998416
 20
180.3234955801
 10
91.0664731579
 20
180.3232213479
  0
LWPOLYLINE
  5
2F1
100
AcDbEntity
  8
ASSI
100
AcDbPolyline
 62
253
  6
CONTINUOUS
 90
34
 70
0
 10
90.8164773887
 20
180.5397276989
 10
90.8167940394
 20
180.5294449313
 10
90.8176742012
 20
180.5191853714
 10
90.8191158875
 20
180.5089721743
 10
90.8211158445
 20
180.4988283906
 10
90.8236695585
 20
180.4887769142
 10
90.8267712659
 20
180.4788404307
 10
90.8304139663
 20
180.4690413662
 10
90.8345894384
 20
180.4594018365
 10
90.8392882583
 20
180.4499435976
 10
90.8444998211
 20
180.4406879961
 10
90.8502123646
 20
180.4316559214
 10
90.856412996
 20
180.4228677583
 10
90.8630877207
 20
180.4143433411
 10
90.8702214744
 20
180.4061019091
 10
90.8777981565
 20
180.3981620626
 10
90.885800667
 20
180.3905417213
 10
90.8942109446
 20
180.383258084
 10
90.9030100078
 20
180.3763275894
 10
90.9121779977
 20
180.3697658791
 10
90.9216942227
 20
180.3635877627
 10
90.9315372052
 20
180.3578071837
 10
90.9416847301
 20
180.3524371885
 10
90.9521138952
 20
180.347489897
 10
90.9628011623
 20
180.3429764748
 10
90.9737224111
 20
180.3389071085
 10
90.9848529928
 20
180.3352909825
 10
90.9961677864
 20
180.332136258
 10
91.007641255
 20
180.3294500551
 10
91.0192475038
 20
180.3272384365
 10
91.0309603381
 20
180.3255063936
 10
91.0427533227
 20
180.3242578355
 10
91.0545998416
 20
180.3234955801
 10
91.0664731579
 20
180.3232213479
  0
LWPOLYLINE
  5
2F2
100
AcDbEntity
  8
0
100
AcDbPolyline
 62
7
  6
CONTINUOUS
 90
5
 70
0
 10
90.8121055547
 20
132.4453859008
 10
90.8123887049
 20
132.4334906156
 10
90.8132375204
 20
132.421622276
 10
90.8146500805
 20
132.4098077654
 10
90.816623187
 20
132.3980738441
  0
LWPOLYLINE
  5
2F3
100
AcDbEntity
  8
ASSI
100
AcDbPolyline
 62
7
  6
CONTINUOUS
 90
5
 70
0
 10
90.8121055547
 20
132.4453859008
 10
90.8123887049
 20
132.4334906156
 10
90.8132375204
 20
132.421622276
 10
90.8146500805
 20
132.4098077654
 10
90.816623187
 20
132.3980738441
  0
LWPOLYLINE
  5
2F4
100
AcDbEntity
  8
0
100
AcDbPolyline
 62
7
  6
CONTINUOUS
 90
34
 70
0
 10
90.8164773887
 20
132.4497577348
 10
90.8167610176
 20
132.4378610758
 10
90.8176104577
 20
132.4259913576
 10
90.8190237865
 20
132.4141754753
 10
90.8209978051
 20
132.4024401956
 10
90.8235280421
 20
132.3908121162
 10
90.8266087607
 20
132.3793176052
 10
90.8302329779
 20
132.3679827127
 10
90.8343924821
 20
132.3568331163
 10
90.8390778465
 20
132.3458940828
 10
90.8442784541
 20
132.3351903964
 10
90.8499825193
 20
132.3247463112
 10
90.8561771116
 20
132.314585499
 10
90.8628481917
 20
132.3047309829
 10
90.8699806428
 20
132.2952050887
 10
90.8775582993
 20
132.2860294017
 10
90.8855639934
 20
132.2772247061
 10
90.8939795797
 20
132.2688109545
 10
90.9027859713
 20
132.2608072229
 10
90.9119631845
 20
132.2532316621
 10
90.921490446
 20
132.2461014087
 10
90.9313462307
 20
132.2394325715
 10
90.9415083063
 20
132.2332402091
 10
90.9519535597
 20
132.2275384206
 10
90.9626580946
 20
132.2223402353
 10
90.9735974957
 20
132.2176574616
 10
90.9847471077
 20
132.2135006072
 10
90.9960818728
 20
132.2098789975
 10
91.0075778384
 20
132.2068004189
 10
91.0192072737
 20
132.204272429
 10
91.0309387683
 20
132.202301483
 10
91.0427439438
 20
132.200891487
 10
91.0545976863
 20
132.2000445852
 10
91.0664731579
 20
132.1997619656
  0
LWPOLYLINE
  5
2F5
100
AcDbEntity
  8
ASSI
100
AcDbPolyline
 62
7
  6
CONTINUOUS
 90
34
 70
0
 10
90.8164773887
 20
132.4497577348
 10
90.8167610176
 20
132.4378610758
 10
90.8176104577
 20
132.4259913576
 10
90.8190237865
 20
132.4141754753
 10
90.8209978051
 20
132.4024401956
 10
90.8235280421
 20
132.3908121162
 10
90.8266087607
 20
132.3793176052
 10
90.8302329779
 20
132.3679827127
 10
90.8343924821
 20
132.3568331163
 10
90.8390778465
 20
132.3458940828
 10
90.8442784541
 20
132.3351903964
 10
90.8499825193
 20
132.3247463112
 10
90.8561771116
 20
132.314585499
 10
90.8628481917
 20
132.3047309829
 10
90.8699806428
 20
132.2952050887
 10
90.8775582993
 20
132.2860294017
 10
90.8855639934
 20
132.2772247061
 10
90.8939795797
 20
132.2688109545
 10
90.9027859713
 20
132.2608072229
 10
90.9119631845
 20
132.2532316621
 10
90.921490446
 20
132.2461014087
 10
90.9313462307
 20
132.2394325715
 10
90.9415083063
 20
132.2332402091
 10
90.9519535597
 20
132.2275384206
 10
90.9626580946
 20
132.2223402353
 10
90.9735974957
 20
132.2176574616
 10
90.9847471077
 20
132.2135006072
 10
90.9960818728
 20
132.2098789975
 10
91.0075778384
 20
132.2068004189
 10
91.0192072737
 20
132.204272429
 10
91.0309387683
 20
132.202301483
 10
91.0427439438
 20
132.200891487
 10
91.0545976863
 20
132.2000445852
 10
91.0664731579
 20
132.1997619656
  0
LINE
  5
2F6
100
AcDbEntity
  8
0
100
AcDbLine
 62
7
  6
CONTINUOUS
 10
89.8116692113
 20
178.2953901316
 11
89.8121055547
 21
178.2665226181
  0
LINE
  5
2F7
100
AcDbEntity
  8
ASSI
100
AcDbLine
 62
7
  6
CONTINUOUS
 10
89.8116692113
 20
178.2953901316
 11
89.8121055547
 21
178.2665226181
  0
LINE
  5
2F8
100
AcDbEntity
  8
0
100
AcDbLine
 62
253
  6
CONTINUOUS
 10
90.8164773887
 20
132.8510525643
 11
90.8121055547
 21
133.2849049834
  0
LINE
  5
2F9
100
AcDbEntity
  8
ASSI
100
AcDbLine
 62
253
  6
CONTINUOUS
 10
90.8164773887
 20
132.8510525643
 11
90.8121055547
 21
133.2849049834
  0
LINE
  5
2FA
100
AcDbEntity
  8
0
100
AcDbLine
 62
253
  6
CONTINUOUS
 10
91.0664731579
 20
133.0675589152
 11
91.0613825568
 21
133.5727404008
  0
LINE
  5
2FB
100
AcDbEntity
  8
ASSI
100
AcDbLine
 62
253
  6
CONTINUOUS
 10
91.0664731579
 20
133.0675589152
 11
91.0613825568
 21
133.5727404008
  0
LINE
  5
2FC
100
AcDbEntity
  8
RACCORDO
100
AcDbLine
 62
7
  6
CONTINUOUS
 10
91.4071902737
 20
175.8959567358
 11
91.4111288835
 21
174.0582435703
  0
LINE
  5
2FD
100
AcDbEntity
  8
ASSI
100
AcDbLine
 62
7
  6
CONTINUOUS
 10
91.4071902737
 20
175.8959567358
 11
91.4111288835
 21
174.0582435703
  0
LINE
  5
2FE
100
AcDbEntity
  8
0
100
AcDbLine
 62
7
  6
CONTINUOUS
 10
90.8121055547
 20
180.5397276989
 11
90.8121055547
 21
180.1058752798
  0
LINE
  5
2FF
100
AcDbEntity
  8
0
100
AcDbLine
 62
7
  6
CONTINUOUS
 10
90.8121055547
 20
133.2849049834
 11
90.8121055547
 21
132.8510525643
  0
LINE
  5
300
100
AcDbEntity
  8
RACCORDO
100
AcDbLine
 62
7
  6
CONTINUOUS
 10
90.8121055547
 20
133.2849049834
 11
90.8121055547
 21
134.0951766413
  0
LINE
  5
301
100
AcDbEntity
  8
ASSI
100
AcDbLine
 62
7
  6
CONTINUOUS
 10
90.8121055547
 20
132.8510525643
 11
90.8121055547
 21
134.0951766413
  0
LINE
  5
302
100
AcDbEntity
  8
RACCORDO
100
AcDbLine
 62
7
  6
CONTINUOUS
 10
90.8121055547
 20
179.2956036219
 11
90.8121055547
 21
180.1058752798
  0
LINE
  5
303
100
AcDbEntity
  8
ASSI
100
AcDbLine
 62
7
  6
CONTINUOUS
 10
90.8121055547
 20
179.2956036219
 11
90.8121055547
 21
180.5397276989
  0
LINE
  5
304
100
AcDbEntity
  8
0
100
AcDbLine
 62
7
  6
CONTINUOUS
 10
90.8164773887
 20
180.9410225284
 11
90.8164773887
 21
180.5397276989
  0
LINE
  5
305
100
AcDbEntity
  8
ASSI
100
AcDbLine
 62
7
  6
CONTINUOUS
 10
90.8164773887
 20
180.9410225284
 11
90.8164773887
 21
180.5397276989
  0
LINE
  5
306
100
AcDbEntity
  8
0
100
AcDbLine
 62
7
  6
CONTINUOUS
 10
90.8164773887
 20
132.8510525643
 11
90.8164773887
 21
132.4497577348
  0
LINE
  5
307
100
AcDbEntity
  8
ASSI
100
AcDbLine
 62
7
  6
CONTINUOUS
 10
90.8164773887
 20
132.8510525643
 11
90.8164773887
 21
132.4497577348
  0
LINE
  5
308
100
AcDbEntity
  8
0
100
AcDbLine
 62
253
  6
CONTINUOUS
 10
91.0664731579
 20
132.1997619656
 11
91.0664731579
 21
133.0675589152
  0
LINE
  5
309
100
AcDbEntity
  8
ASSI
100
AcDbLine
 62
253
  6
CONTINUOUS
 10
91.0664731579
 20
132.1997619656
 11
91.0664731579
 21
133.0675589152
  0
LINE
  5
30A
100
AcDbEntity
  8
0
100
AcDbLine
 62
253
  6
CONTINUOUS
 10
91.0664731579
 20
180.3232213479
 11
91.0664731579
 21
181.1910182976
  0
LINE
  5
30B
100
AcDbEntity
  8
ASSI
100
AcDbLine
 62
253
  6
CONTINUOUS
 10
91.0664731579
 20
180.3232213479
 11
91.0664731579
 21
181.1910182976
  0
LINE
  5
30C
100
AcDbEntity
  8
0
100
AcDbLine
 62
7
  6
CONTINUOUS
 10
91.3121055547
 20
176.8944297818
 11
91.3121055547
 21
136.4963504814
  0
LINE
  5
30D
100
AcDbEntity
  8
ASSI
100
AcDbLine
 62
7
  6
CONTINUOUS
 10
91.3121055547
 20
176.8944297818
 11
91.3121055547
 21
136.4963504814
  0
LINE
  5
30E
100
AcDbEntity
  8
RACCORDO
100
AcDbLine
 62
7
  6
CONTINUOUS
 10
91.3574887235
 20
176.7581695556
 11
91.3574887235
 21
176.478234519
  0
LINE
  5
30F
100
AcDbEntity
  8
ASSI
100
AcDbLine
 62
7
  6
CONTINUOUS
 10
91.3574887235
 20
176.7581695556
 11
91.3574887235
 21
176.478234519
  0
LINE
  5
310
100
AcDbEntity
  8
DRAFT
100
AcDbLine
 62
7
  6
CONTINUOUS
 10
91.4500005676
 20
144.1821224894
 11
91.4500005676
 21
172.8953901316
  0
LINE
  5
311
100
AcDbEntity
  8
ASSI
100
AcDbLine
 62
7
  6
CONTINUOUS
 10
91.4500005676
 20
144.1821224894
 11
91.4500005676
 21
172.8953901316
  0
LINE
  5
312
100
AcDbEntity
  8
RACCORDO
100
AcDbLine
 62
7
  6
CONTINUOUS
 10
91.4621055547
 20
172.6954480167
 11
91.4621055547
 21
172.8953901316
  0
LINE
  5
313
100
AcDbEntity
  8
ASSI
100
AcDbLine
 62
7
  6
CONTINUOUS
 10
91.4621055547
 20
172.6954480167
 11
91.4621055547
 21
172.8953901316
  0
LINE
  5
314
100
AcDbEntity
  8
RACCORDO
100
AcDbLine
 62
7
  6
CONTINUOUS
 10
91.5121055547
 20
172.5087217712
 11
91.5121055547
 21
173.1083864063
  0
LINE
  5
315
100
AcDbEntity
  8
DRAFT
100
AcDbLine
 62
7
  6
CONTINUOUS
 10
91.4621055547
 20
172.8953901316
 11
91.4642042855
 21
173.1083864063
  0
LINE
  5
316
100
AcDbEntity
  8
ASSI
100
AcDbLine
 62
7
  6
CONTINUOUS
 10
91.4621055547
 20
172.8953901316
 11
91.4642042855
 21
173.1083864063
  0
LINE
  5
317
100
AcDbEntity
  8
0
100
AcDbLine
 62
253
  6
CONTINUOUS
 10
90.8121055547
 20
180.1058752798
 11
90.8164773887
 21
180.5397276989
  0
LINE
  5
318
100
AcDbEntity
  8
ASSI
100
AcDbLine
 62
253
  6
CONTINUOUS
 10
90.8121055547
 20
180.1058752798
 11
90.8164773887
 21
180.5397276989
  0
LINE
  5
319
100
AcDbEntity
  8
0
100
AcDbLine
 62
253
  6
CONTINUOUS
 10
91.0613825568
 20
179.8180398624
 11
91.0664731579
 21
180.3232213479
  0
LINE
  5
31A
100
AcDbEntity
  8
ASSI
100
AcDbLine
 62
253
  6
CONTINUOUS
 10
91.0613825568
 20
179.8180398624
 11
91.0664731579
 21
180.3232213479
  0
LINE
  5
31B
100
AcDbEntity
  8
0
100
AcDbLine
 62
7
  6
CONTINUOUS
 10
89.8121055547
 20
135.124257645
 11
89.8116692113
 21
135.0953901316
  0
LINE
  5
31C
100
AcDbEntity
  8
ASSI
100
AcDbLine
 62
7
  6
CONTINUOUS
 10
89.8121055547
 20
135.124257645
 11
89.8116692113
 21
135.0953901316
  0
LWPOLYLINE
  5
31D
100
AcDbEntity
  8
0
100
AcDbPolyline
 62
253
  6
CONTINUOUS
 90
34
 70
0
 10
90.8164773887
 20
132.8510525643
 10
90.8167940507
 20
132.8613355254
 10
90.8176742449
 20
132.8715952775
 10
90.8191159847
 20
132.8818086643
 10
90.8211160149
 20
132.8919526281
 10
90.8236698218
 20
132.9020042795
 10
90.8267716472
 20
132.9119409482
 10
90.8304144979
 20
132.9217402186
 10
90.8345901508
 20
132.9313799598
 10
90.8392891731
 20
132.9408383929
 10
90.8445009531
 20
132.9500941621
 10
90.8502137308
 20
132.9591263853
 10
90.856414614
 20
132.9679146804
 10
90.8630896076
 20
132.976439213
 10
90.8702236452
 20
132.9846807418
 10
90.8778006247
 20
132.9926206657
 10
90.8858034443
 20
133.0002410638
 10
90.8942140414
 20
133.0075247369
 10
90.9030134339
 20
133.0144552466
 10
90.9121817598
 20
133.0210169492
 10
90.9216983273
 20
133.027195036
 10
90.9315416635
 20
133.0329755662
 10
90.9416895649
 20
133.0383454988
 10
90.9521191158
 20
133.0432927051
 10
90.9628067434
 20
133.0478060051
 10
90.9737283033
 20
133.0518752081
 10
90.984859163
 20
133.0554911419
 10
90.9961742266
 20
133.0586456558
 10
91.0076482486
 20
133.0613316921
 10
91.019255046
 20
133.0635431021
 10
91.030967555
 20
133.0652747846
 10
91.0427590319
 20
133.0665229133
 10
91.0546031427
 20
133.0672848272
 10
91.0664731579
 20
133.0675589152
  0
LWPOLYLINE
  5
31E
100
AcDbEntity
  8
ASSI
100
AcDbPolyline
 62
253
  6
CONTINUOUS
 90
34
 70
0
 10
90.8164773887
 20
132.8510525643
 10
90.8167940507
 20
132.8613355254
 10
90.8176742449
 20
132.8715952775
 10
90.8191159847
 20
132.8818086643
 10
90.8211160149
 20
132.8919526281
 10
90.8236698218
 20
132.9020042795
 10
90.8267716472
 20
132.9119409482
 10
90.8304144979
 20
132.9217402186
 10
90.8345901508
 20
132.9313799598
 10
90.8392891731
 20
132.9408383929
 10
90.8445009531
 20
132.9500941621
 10
90.8502137308
 20
132.9591263853
 10
90.856414614
 20
132.9679146804
 10
90.8630896076
 20
132.976439213
 10
90.8702236452
 20
132.9846807418
 10
90.8778006247
 20
132.9926206657
 10
90.8858034443
 20
133.0002410638
 10
90.8942140414
 20
133.0075247369
 10
90.9030134339
 20
133.0144552466
 10
90.9121817598
 20
133.0210169492
 10
90.9216983273
 20
133.027195036
 10
90.9315416635
 20
133.0329755662
 10
90.9416895649
 20
133.0383454988
 10
90.9521191158
 20
133.0432927051
 10
90.9628067434
 20
133.0478060051
 10
90.9737283033
 20
133.0518752081
 10
90.984859163
 20
133.0554911419
 10
90.9961742266
 20
133.0586456558
 10
91.0076482486
 20
133.0613316921
 10
91.019255046
 20
133.0635431021
 10
91.030967555
 20
133.0652747846
 10
91.0427590319
 20
133.0665229133
 10
91.0546031427
 20
133.0672848272
 10
91.0664731579
 20
133.0675589152
  0
LINE
  5
31F
100
AcDbEntity
  8
DRAFT
100
AcDbLine
 62
7
  6
CONTINUOUS
 10
93.6394156984
 20
177.4591299054
 11
93.6621055547
 21
177.5953901316
  0
LINE
  5
320
100
AcDbEntity
  8
ASSI
100
AcDbLine
 62
7
  6
CONTINUOUS
 10
93.6394156984
 20
177.4591299054
 11
93.6621055547
 21
177.5953901316
  0
LINE
  5
321
100
AcDbEntity
  8
RACCORDO
100
AcDbLine
 62
7
  6
CONTINUOUS
 10
107.5581011004
 20
176.7913856773
 11
107.4394156984
 21
176.6727002753
  0
LINE
  5
322
100
AcDbEntity
  8
ASSI
100
AcDbLine
 62
7
  6
CONTINUOUS
 10
107.5581011004
 20
176.7913856773
 11
107.4394156984
 21
176.6727002753
  0
LINE
  5
323
100
AcDbEntity
  8
RACCORDO
100
AcDbLine
 62
7
  6
CONTINUOUS
 10
107.558092263
 20
136.5994034232
 11
107.406177215
 21
136.7513184713
  0
LINE
  5
324
100
AcDbEntity
  8
ASSI
100
AcDbLine
 62
7
  6
CONTINUOUS
 10
107.558092263
 20
136.5994034232
 11
107.406177215
 21
136.7513184713
  0
LINE
  5
325
100
AcDbEntity
  8
RACCORDO
100
AcDbLine
 62
7
  6
CONTINUOUS
 10
93.6621055547
 20
135.7953901316
 11
93.6065586701
 21
136.1289678755
  0
LINE
  5
326
100
AcDbEntity
  8
ASSI
100
AcDbLine
 62
7
  6
CONTINUOUS
 10
93.6621055547
 20
135.7953901316
 11
93.6065586701
 21
136.1289678755
  0
LINE
  5
327
100
AcDbEntity
  8
RACCORDO
100
AcDbLine
 62
7
  6
CONTINUOUS
 10
91.4500005676
 20
172.8953901316
 11
91.424824729
 21
173.201965313
  0
LINE
  5
328
100
AcDbEntity
  8
ASSI
100
AcDbLine
 62
7
  6
CONTINUOUS
 10
91.4500005676
 20
172.8953901316
 11
91.424824729
 21
173.201965313
  0
LINE
  5
329
100
AcDbEntity
  8
RACCORDO
100
AcDbLine
 62
7
  6
CONTINUOUS
 10
93.7559376615
 20
136.8891025681
 11
93.5958715455
 21
140.1232497581
  0
LINE
  5
32A
100
AcDbEntity
  8
ASSI
100
AcDbLine
 62
7
  6
CONTINUOUS
 10
93.7559376615
 20
136.8891025681
 11
93.5958715455
 21
140.1232497581
  0
LWPOLYLINE
  5
32B
100
AcDbEntity
  8
RACCORDO
100
AcDbPolyline
 62
7
  6
CONTINUOUS
 90
25
 70
0
 10
91.5121055547
 20
172.5087217712
 10
91.512770659
 20
172.489110112
 10
91.514692131
 20
172.4697464972
 10
91.5178699706
 20
172.4506309266
 10
91.5223284761
 20
172.4316838964
 10
91.5280433493
 20
172.4129849104
 10
91.5349416949
 20
172.3947724807
 10
91.543038673
 20
172.3770528402
 10
91.5523191235
 20
172.359819756
 10
91.562664671
 20
172.3432930421
 10
91.5740889592
 20
172.3274817471
 10
91.5865783445
 20
172.3123768225
 10
91.5999735203
 20
172.2981709368
 10
91.6142860897
 20
172.2848756066
 10
91.6295044497
 20
172.2724793153
 10
91.6454344848
 20
172.261140182
 10
91.6620853113
 20
172.2508717486
 10
91.679447813
 20
172.2416604732
 10
91.697300525
 20
172.2336238488
 10
91.7156497268
 20
172.2267769224
 10
91.7344891389
 20
172.221104647
 10
91.7535784581
 20
172.2166793745
 10
91.7728375832
 20
172.213525222
 10
91.7923466154
 20
172.2116180724
 10
91.8121055547
 20
172.2109579257
  0
LWPOLYLINE
  5
32C
100
AcDbEntity
  8
0
100
AcDbPolyline
 62
253
  6
CONTINUOUS
 90
34
 70
0
 10
93.7077337207
 20
132.8510525643
 10
93.7074175935
 20
132.8613263421
 10
93.7065386812
 20
132.8715792525
 10
93.7050985897
 20
132.8817881624
 10
93.7031000237
 20
132.8919307617
 10
93.7005472079
 20
132.9019833513
 10
93.6974462878
 20
132.9119209719
 10
93.6938045797
 20
132.9217204042
 10
93.6896300744
 20
132.93136034
 10
93.6849320937
 20
132.9408192105
 10
93.6797211372
 20
132.9500757775
 10
93.674008996
 20
132.959109006
 10
93.6678086638
 20
132.9678983173
 10
93.6611341878
 20
132.976423809
 10
93.6540005899
 20
132.9846663029
 10
93.6464239559
 20
132.9926072102
 10
93.6384213737
 20
133.0002286148
 10
93.6300109154
 20
133.0075132991
 10
93.621211583
 20
133.0144448024
 10
93.6120432461
 20
133.0210074735
 10
93.6025265943
 20
133.0271865035
 10
93.5926831093
 20
133.0329679447
 10
93.5825350105
 20
133.0383387467
 10
93.5721052056
 20
133.0432867857
 10
93.5614172382
 20
133.0478008922
 10
93.5504952216
 20
133.0518708811
 10
93.5393638224
 20
133.0554875594
 10
93.528048208
 20
133.058642753
 10
93.5165739501
 20
133.0613293388
 10
93.5049669244
 20
133.0635412654
 10
93.4932532907
 20
133.0652735501
 10
93.4814594758
 20
133.066522284
 10
93.4696121152
 20
133.067284646
 10
93.4577379515
 20
133.0675589152
  0
LWPOLYLINE
  5
32D
100
AcDbEntity
  8
ASSI
100
AcDbPolyline
 62
253
  6
CONTINUOUS
 90
34
 70
0
 10
93.7077337207
 20
132.8510525643
 10
93.7074175935
 20
132.8613263421
 10
93.7065386812
 20
132.8715792525
 10
93.7050985897
 20
132.8817881624
 10
93.7031000237
 20
132.8919307617
 10
93.7005472079
 20
132.9019833513
 10
93.6974462878
 20
132.9119209719
 10
93.6938045797
 20
132.9217204042
 10
93.6896300744
 20
132.93136034
 10
93.6849320937
 20
132.9408192105
 10
93.6797211372
 20
132.9500757775
 10
93.674008996
 20
132.959109006
 10
93.6678086638
 20
132.9678983173
 10
93.6611341878
 20
132.976423809
 10
93.6540005899
 20
132.9846663029
 10
93.6464239559
 20
132.9926072102
 10
93.6384213737
 20
133.0002286148
 10
93.6300109154
 20
133.0075132991
 10
93.621211583
 20
133.0144448024
 10
93.6120432461
 20
133.0210074735
 10
93.6025265943
 20
133.0271865035
 10
93.5926831093
 20
133.0329679447
 10
93.5825350105
 20
133.0383387467
 10
93.5721052056
 20
133.0432867857
 10
93.5614172382
 20
133.0478008922
 10
93.5504952216
 20
133.0518708811
 10
93.5393638224
 20
133.0554875594
 10
93.528048208
 20
133.058642753
 10
93.5165739501
 20
133.0613293388
 10
93.5049669244
 20
133.0635412654
 10
93.4932532907
 20
133.0652735501
 10
93.4814594758
 20
133.066522284
 10
93.4696121152
 20
133.067284646
 10
93.4577379515
 20
133.0675589152
  0
LINE
  5
32E
100
AcDbEntity
  8
0
100
AcDbLine
 62
253
  6
CONTINUOUS
 10
93.4577379515
 20
180.3232213479
 11
93.4628285526
 21
179.8180398624
  0
LINE
  5
32F
100
AcDbEntity
  8
ASSI
100
AcDbLine
 62
253
  6
CONTINUOUS
 10
93.4577379515
 20
180.3232213479
 11
93.4628285526
 21
179.8180398624
  0
LINE
  5
330
100
AcDbEntity
  8
DRAFT
100
AcDbLine
 62
7
  6
CONTINUOUS
 10
92.4621055547
 20
169.2086577737
 11
92.4621055547
 21
172.1953901316
  0
LINE
  5
331
100
AcDbEntity
  8
ASSI
100
AcDbLine
 62
7
  6
CONTINUOUS
 10
92.4621055547
 20
169.2086577737
 11
92.4621055547
 21
172.1953901316
  0
LINE
  5
332
100
AcDbEntity
  8
0
100
AcDbLine
 62
7
  6
CONTINUOUS
 10
92.7121055547
 20
135.2953901316
 11
92.7121055547
 21
135.7953901316
  0
LINE
  5
333
100
AcDbEntity
  8
ASSI
100
AcDbLine
 62
7
  6
CONTINUOUS
 10
92.7121055547
 20
135.2953901316
 11
92.7121055547
 21
135.7953901316
  0
LINE
  5
334
100
AcDbEntity
  8
0
100
AcDbLine
 62
7
  6
CONTINUOUS
 10
92.7121055547
 20
177.5953901316
 11
92.7121055547
 21
178.0953901316
  0
LINE
  5
335
100
AcDbEntity
  8
ASSI
100
AcDbLine
 62
7
  6
CONTINUOUS
 10
92.7121055547
 20
177.5953901316
 11
92.7121055547
 21
178.0953901316
  0
LINE
  5
336
100
AcDbEntity
  8
0
100
AcDbLine
 62
253
  6
CONTINUOUS
 10
92.8955360529
 20
178.2788206298
 11
92.8955360529
 21
177.5953901316
  0
LINE
  5
337
100
AcDbEntity
  8
ASSI
100
AcDbLine
 62
253
  6
CONTINUOUS
 10
92.8955360529
 20
178.2788206298
 11
92.8955360529
 21
177.5953901316
  0
LINE
  5
338
100
AcDbEntity
  8
0
100
AcDbLine
 62
253
  6
CONTINUOUS
 10
92.8955360529
 20
135.7953901316
 11
92.8955360529
 21
135.1119596334
  0
LINE
  5
339
100
AcDbEntity
  8
ASSI
100
AcDbLine
 62
253
  6
CONTINUOUS
 10
92.8955360529
 20
135.7953901316
 11
92.8955360529
 21
135.1119596334
  0
LINE
  5
33A
100
AcDbEntity
  8
0
100
AcDbLine
 62
253
  6
CONTINUOUS
 10
93.3954599005
 20
178.0313770802
 11
93.3954599005
 21
177.5953901316
  0
LINE
  5
33B
100
AcDbEntity
  8
ASSI
100
AcDbLine
 62
253
  6
CONTINUOUS
 10
93.3954599005
 20
178.0313770802
 11
93.3954599005
 21
177.5953901316
  0
LINE
  5
33C
100
AcDbEntity
  8
0
100
AcDbLine
 62
253
  6
CONTINUOUS
 10
93.3954599005
 20
135.7953901316
 11
93.3954599005
 21
135.3594031829
  0
LINE
  5
33D
100
AcDbEntity
  8
ASSI
100
AcDbLine
 62
253
  6
CONTINUOUS
 10
93.3954599005
 20
135.7953901316
 11
93.3954599005
 21
135.3594031829
  0
LINE
  5
33E
100
AcDbEntity
  8
0
100
AcDbLine
 62
253
  6
CONTINUOUS
 10
93.4577379515
 20
132.1997619656
 11
93.4577379515
 21
133.0675589152
  0
LINE
  5
33F
100
AcDbEntity
  8
ASSI
100
AcDbLine
 62
253
  6
CONTINUOUS
 10
93.4577379515
 20
132.1997619656
 11
93.4577379515
 21
133.0675589152
  0
LINE
  5
340
100
AcDbEntity
  8
0
100
AcDbLine
 62
253
  6
CONTINUOUS
 10
93.4577379515
 20
180.3232213479
 11
93.4577379515
 21
181.1910182976
  0
LINE
  5
341
100
AcDbEntity
  8
ASSI
100
AcDbLine
 62
253
  6
CONTINUOUS
 10
93.4577379515
 20
180.3232213479
 11
93.4577379515
 21
181.1910182976
  0
LINE
  5
342
100
AcDbEntity
  8
RACCORDO
100
AcDbLine
 62
7
  6
CONTINUOUS
 10
93.6394156984
 20
176.478234519
 11
93.6394156984
 21
177.4591299054
  0
LINE
  5
343
100
AcDbEntity
  8
ASSI
100
AcDbLine
 62
7
  6
CONTINUOUS
 10
93.6394156984
 20
176.478234519
 11
93.6394156984
 21
177.4591299054
  0
LINE
  5
344
100
AcDbEntity
  8
0
100
AcDbLine
 62
7
  6
CONTINUOUS
 10
93.7077337207
 20
132.4497577348
 11
93.7077337207
 21
132.8510525643
  0
LINE
  5
345
100
AcDbEntity
  8
ASSI
100
AcDbLine
 62
7
  6
CONTINUOUS
 10
93.7077337207
 20
132.4497577348
 11
93.7077337207
 21
132.8510525643
  0
LINE
  5
346
100
AcDbEntity
  8
0
100
AcDbLine
 62
7
  6
CONTINUOUS
 10
93.7077337207
 20
180.5397276989
 11
93.7077337207
 21
180.9410225284
  0
LINE
  5
347
100
AcDbEntity
  8
ASSI
100
AcDbLine
 62
7
  6
CONTINUOUS
 10
93.7077337207
 20
180.5397276989
 11
93.7077337207
 21
180.9410225284
  0
LINE
  5
348
100
AcDbEntity
  8
RACCORDO
100
AcDbLine
 62
7
  6
CONTINUOUS
 10
93.7121055547
 20
180.1058752798
 11
93.7121055547
 21
179.2956036219
  0
LINE
  5
349
100
AcDbEntity
  8
RACCORDO
100
AcDbLine
 62
7
  6
CONTINUOUS
 10
93.7121055547
 20
134.0951766413
 11
93.7121055547
 21
133.2849049834
  0
LINE
  5
34A
100
AcDbEntity
  8
0
100
AcDbLine
 62
7
  6
CONTINUOUS
 10
93.7121055547
 20
132.8510525643
 11
93.7121055547
 21
133.2849049834
  0
LINE
  5
34B
100
AcDbEntity
  8
ASSI
100
AcDbLine
 62
7
  6
CONTINUOUS
 10
93.7121055547
 20
132.8510525643
 11
93.7121055547
 21
134.0951766413
  0
LINE
  5
34C
100
AcDbEntity
  8
0
100
AcDbLine
 62
7
  6
CONTINUOUS
 10
93.7121055547
 20
180.1058752798
 11
93.7121055547
 21
180.5397276989
  0
LINE
  5
34D
100
AcDbEntity
  8
ASSI
100
AcDbLine
 62
7
  6
CONTINUOUS
 10
93.7121055547
 20
179.2956036219
 11
93.7121055547
 21
180.5397276989
  0
LINE
  5
34E
100
AcDbEntity
  8
DRAFT
100
AcDbLine
 62
7
  6
CONTINUOUS
 10
93.6121017808
 20
173.5954635572
 11
93.6145668159
 21
175.8959567358
  0
LINE
  5
34F
100
AcDbEntity
  8
ASSI
100
AcDbLine
 62
7
  6
CONTINUOUS
 10
93.6121017808
 20
173.5954635572
 11
93.6145668159
 21
175.8959567358
  0
LINE
  5
350
100
AcDbEntity
  8
0
100
AcDbLine
 62
253
  6
CONTINUOUS
 10
93.4628285526
 20
133.5727404008
 11
93.4577379515
 21
133.0675589152
  0
LINE
  5
351
100
AcDbEntity
  8
ASSI
100
AcDbLine
 62
253
  6
CONTINUOUS
 10
93.4628285526
 20
133.5727404008
 11
93.4577379515
 21
133.0675589152
  0
LINE
  5
352
100
AcDbEntity
  8
DRAFT
100
AcDbLine
 62
7
  6
CONTINUOUS
 10
92.619367767
 20
172.2109579257
 11
92.6387973008
 21
173.1083864063
  0
LINE
  5
353
100
AcDbEntity
  8
ASSI
100
AcDbLine
 62
7
  6
CONTINUOUS
 10
92.619367767
 20
172.2109579257
 11
92.6387973008
 21
173.1083864063
  0
LINE
  5
354
100
AcDbEntity
  8
RACCORDO
100
AcDbLine
 62
7
  6
CONTINUOUS
 10
92.8547782098
 20
174.0582435703
 11
92.8161385495
 21
172.2735207882
  0
LINE
  5
355
100
AcDbEntity
  8
ASSI
100
AcDbLine
 62
7
  6
CONTINUOUS
 10
92.8547782098
 20
174.0582435703
 11
92.8161385495
 21
172.2735207882
  0
LWPOLYLINE
  5
356
100
AcDbEntity
  8
0
100
AcDbPolyline
 62
253
  6
CONTINUOUS
 90
34
 70
0
 10
93.7077337207
 20
180.5397276989
 10
93.70741707
 20
180.5294449313
 10
93.7065369082
 20
180.5191853714
 10
93.7050952219
 20
180.5089721743
 10
93.7030952649
 20
180.4988283906
 10
93.7005415509
 20
180.4887769142
 10
93.6974398435
 20
180.4788404307
 10
93.6937971431
 20
180.4690413662
 10
93.689621671
 20
180.4594018365
 10
93.6849228511
 20
180.4499435976
 10
93.6797112883
 20
180.4406879961
 10
93.6739987447
 20
180.4316559214
 10
93.6677981134
 20
180.4228677583
 10
93.6611233886
 20
180.4143433411
 10
93.653989635
 20
180.4061019091
 10
93.6464129529
 20
180.3981620626
 10
93.6384104424
 20
180.3905417213
 10
93.6300001648
 20
180.383258084
 10
93.6212011016
 20
180.3763275894
 10
93.6120331117
 20
180.3697658791
 10
93.6025168867
 20
180.3635877627
 10
93.5926739042
 20
180.3578071837
 10
93.5825263793
 20
180.3524371885
 10
93.5720972142
 20
180.347489897
 10
93.561409947
 20
180.3429764748
 10
93.5504886983
 20
180.3389071085
 10
93.5393581166
 20
180.3352909825
 10
93.528043323
 20
180.332136258
 10
93.5165698544
 20
180.3294500551
 10
93.5049636056
 20
180.3272384365
 10
93.4932507713
 20
180.3255063936
 10
93.4814577866
 20
180.3242578355
 10
93.4696112677
 20
180.3234955801
 10
93.4577379515
 20
180.3232213479
  0
LWPOLYLINE
  5
357
100
AcDbEntity
  8
ASSI
100
AcDbPolyline
 62
253
  6
CONTINUOUS
 90
34
 70
0
 10
93.7077337207
 20
180.5397276989
 10
93.70741707
 20
180.5294449313
 10
93.7065369082
 20
180.5191853714
 10
93.7050952219
 20
180.5089721743
 10
93.7030952649
 20
180.4988283906
 10
93.7005415509
 20
180.4887769142
 10
93.6974398435
 20
180.4788404307
 10
93.6937971431
 20
180.4690413662
 10
93.689621671
 20
180.4594018365
 10
93.6849228511
 20
180.4499435976
 10
93.6797112883
 20
180.4406879961
 10
93.6739987447
 20
180.4316559214
 10
93.6677981134
 20
180.4228677583
 10
93.6611233886
 20
180.4143433411
 10
93.653989635
 20
180.4061019091
 10
93.6464129529
 20
180.3981620626
 10
93.6384104424
 20
180.3905417213
 10
93.6300001648
 20
180.383258084
 10
93.6212011016
 20
180.3763275894
 10
93.6120331117
 20
180.3697658791
 10
93.6025168867
 20
180.3635877627
 10
93.5926739042
 20
180.3578071837
 10
93.5825263793
 20
180.3524371885
 10
93.5720972142
 20
180.347489897
 10
93.561409947
 20
180.3429764748
 10
93.5504886983
 20
180.3389071085
 10
93.5393581166
 20
180.3352909825
 10
93.528043323
 20
180.332136258
 10
93.5165698544
 20
180.3294500551
 10
93.5049636056
 20
180.3272384365
 10
93.4932507713
 20
180.3255063936
 10
93.4814577866
 20
180.3242578355
 10
93.4696112677
 20
180.3234955801
 10
93.4577379515
 20
180.3232213479
  0
LINE
  5
358
100
AcDbEntity
  8
RACCORDO
100
AcDbLine
 62
7
  6
CONTINUOUS
 10
93.7559376615
 20
176.501677695
 11
93.6121017808
 21
173.5954635572
  0
LINE
  5
359
100
AcDbEntity
  8
ASSI
100
AcDbLine
 62
7
  6
CONTINUOUS
 10
93.7559376615
 20
176.501677695
 11
93.6121017808
 21
173.5954635572
  0
LINE
  5
35A
100
AcDbEntity
  8
RACCORDO
100
AcDbLine
 62
7
  6
CONTINUOUS
 10
104.7387973008
 20
173.1083864063
 11
104.8164259844
 21
173.201965313
  0
LINE
  5
35B
100
AcDbEntity
  8
ASSI
100
AcDbLine
 62
7
  6
CONTINUOUS
 10
104.7387973008
 20
173.1083864063
 11
104.8164259844
 21
173.201965313
  0
LWPOLYLINE
  5
35C
100
AcDbEntity
  8
RACCORDO
100
AcDbPolyline
 62
7
  6
CONTINUOUS
 90
16
 70
0
 10
95.1322717013
 20
161.0889125922
 10
95.1439095969
 20
161.1016012872
 10
95.1566577337
 20
161.1118580282
 10
95.1705161116
 20
161.1196828154
 10
95.1859048718
 20
161.1251604887
 10
95.2024038732
 20
161.1282062081
 10
95.2187526925
 20
161.1285654532
 10
95.2349367075
 20
161.1260692286
 10
95.2509705404
 20
161.1208865296
 10
95.265637635
 20
161.1132698222
 10
95.2789176586
 20
161.102867091
 10
95.2908309438
 20
161.0900303513
 10
95.3002219319
 20
161.0760681142
 10
95.3067054366
 20
161.06141655
 10
95.3106666442
 20
161.0456394884
 10
95.3121055547
 20
161.0287369293
  0
LWPOLYLINE
  5
35D
100
AcDbEntity
  8
ASSI
100
AcDbPolyline
 62
7
  6
CONTINUOUS
 90
16
 70
0
 10
95.1322717013
 20
161.0889125922
 10
95.1439095969
 20
161.1016012872
 10
95.1566577337
 20
161.1118580282
 10
95.1705161116
 20
161.1196828154
 10
95.1859048718
 20
161.1251604887
 10
95.2024038732
 20
161.1282062081
 10
95.2187526925
 20
161.1285654532
 10
95.2349367075
 20
161.1260692286
 10
95.2509705404
 20
161.1208865296
 10
95.265637635
 20
161.1132698222
 10
95.2789176586
 20
161.102867091
 10
95.2908309438
 20
161.0900303513
 10
95.3002219319
 20
161.0760681142
 10
95.3067054366
 20
161.06141655
 10
95.3106666442
 20
161.0456394884
 10
95.3121055547
 20
161.0287369293
  0
LWPOLYLINE
  5
35E
100
AcDbEntity
  8
RACCORDO
100
AcDbPolyline
 62
7
  6
CONTINUOUS
 90
19
 70
0
 10
95.1090124049
 20
152.3709806876
 10
95.1184160889
 20
152.3601310135
 10
95.1287678076
 20
152.3509446752
 10
95.1400675612
 20
152.3434216727
 10
95.1525696507
 20
152.3374803709
 10
95.1660197751
 20
152.3332024049
 10
95.1796550305
 20
152.3308326804
 10
95.1934832104
 20
152.3304817488
 10
95.2074965214
 20
152.3320390586
 10
95.2209086796
 20
152.3354178607
 10
95.2336903689
 20
152.3407298563
 10
95.2458709054
 20
152.3478633443
 10
95.2567519527
 20
152.3563964715
 10
95.2662465961
 20
152.3664015401
 10
95.2744417503
 20
152.3778062481
 10
95.2808998241
 20
152.3899718361
 10
95.2854749534
 20
152.4026853846
 10
95.2883130021
 20
152.4161598131
 10
95.2894139703
 20
152.4303951218
  0
LWPOLYLINE
  5
35F
100
AcDbEntity
  8
ASSI
100
AcDbPolyline
 62
7
  6
CONTINUOUS
 90
19
 70
0
 10
95.1090124049
 20
152.3709806876
 10
95.1184160889
 20
152.3601310135
 10
95.1287678076
 20
152.3509446752
 10
95.1400675612
 20
152.3434216727
 10
95.1525696507
 20
152.3374803709
 10
95.1660197751
 20
152.3332024049
 10
95.1796550305
 20
152.3308326804
 10
95.1934832104
 20
152.3304817488
 10
95.2074965214
 20
152.3320390586
 10
95.2209086796
 20
152.3354178607
 10
95.2336903689
 20
152.3407298563
 10
95.2458709054
 20
152.3478633443
 10
95.2567519527
 20
152.3563964715
 10
95.2662465961
 20
152.3664015401
 10
95.2744417503
 20
152.3778062481
 10
95.2808998241
 20
152.3899718361
 10
95.2854749534
 20
152.4026853846
 10
95.2883130021
 20
152.4161598131
 10
95.2894139703
 20
152.4303951218
  0
LWPOLYLINE
  5
360
100
AcDbEntity
  8
0
100
AcDbPolyline
 62
7
  6
CONTINUOUS
 90
10
 70
0
 10
108.2517909966
 20
132.3102276257
 10
108.2584602592
 20
132.3003737265
 10
108.265590844
 20
132.2908483277
 10
108.2731665958
 20
132.2816730125
 10
108.2811703542
 20
132.2728685655
 10
108.2895839886
 20
132.2644549311
 10
108.2983884356
 20
132.2564511727
 10
108.3075637508
 20
132.2488754209
 10
108.3170891496
 20
132.2417448361
 10
108.3269430488
 20
132.2350755734
  0
LWPOLYLINE
  5
361
100
AcDbEntity
  8
ASSI
100
AcDbPolyline
 62
7
  6
CONTINUOUS
 90
10
 70
0
 10
108.2517909966
 20
132.3102276257
 10
108.2584602592
 20
132.3003737265
 10
108.265590844
 20
132.2908483277
 10
108.2731665958
 20
132.2816730125
 10
108.2811703542
 20
132.2728685655
 10
108.2895839886
 20
132.2644549311
 10
108.2983884356
 20
132.2564511727
 10
108.3075637508
 20
132.2488754209
 10
108.3170891496
 20
132.2417448361
 10
108.3269430488
 20
132.2350755734
  0
LINE
  5
362
100
AcDbEntity
  8
RACCORDO
100
AcDbLine
 62
7
  6
CONTINUOUS
 10
94.3682734479
 20
176.501677695
 11
94.5121093286
 21
173.5954635572
  0
LINE
  5
363
100
AcDbEntity
  8
ASSI
100
AcDbLine
 62
7
  6
CONTINUOUS
 10
94.3682734479
 20
176.501677695
 11
94.5121093286
 21
173.5954635572
  0
LWPOLYLINE
  5
364
100
AcDbEntity
  8
RACCORDO
100
AcDbPolyline
 62
7
  6
CONTINUOUS
 90
3
 70
0
 10
94.3682734479
 20
176.501677695
 10
94.3679710951
 20
176.5100744105
 10
94.3676862871
 20
176.5219529789
  0
LWPOLYLINE
  5
365
100
AcDbEntity
  8
ASSI
100
AcDbPolyline
 62
7
  6
CONTINUOUS
 90
3
 70
0
 10
94.3682734479
 20
176.501677695
 10
94.3679710951
 20
176.5100744105
 10
94.3676862871
 20
176.5219529789
  0
LWPOLYLINE
  5
366
100
AcDbEntity
  8
0
100
AcDbPolyline
 62
7
  6
CONTINUOUS
 90
34
 70
0
 10
93.7077337207
 20
180.9410225284
 10
93.7074501699
 20
180.9529175499
 10
93.7066009649
 20
180.9647856266
 10
93.7051880295
 20
180.9765998745
 10
93.7032145643
 20
180.9883335317
 10
93.7006850395
 20
180.9999600189
 10
93.6976051851
 20
181.0114529996
 10
93.6939819777
 20
181.0227864394
 10
93.6898236247
 20
181.0339346656
 10
93.6851395456
 20
181.044872425
 10
93.6799403509
 20
181.0555749412
 10
93.6742378181
 20
181.0660179705
 10
93.6680448645
 20
181.076177857
 10
93.6613755187
 20
181.0860315865
 10
93.6542448881
 20
181.095556838
 10
93.6466691254
 20
181.1047320347
 10
93.6386653911
 20
181.1135363926
 10
93.6302518157
 20
181.121949968
 10
93.6214474578
 20
181.1299537022
 10
93.6122722611
 20
181.137529465
 10
93.6027470096
 20
181.1446600956
 10
93.5928932801
 20
181.1513294414
 10
93.5827333936
 20
181.157522395
 10
93.5722903643
 20
181.1632249278
 10
93.5615878481
 20
181.1684241225
 10
93.5506500887
 20
181.1731082015
 10
93.5395018625
 20
181.1772665546
 10
93.5281684227
 20
181.180889762
 10
93.516675442
 20
181.1839696164
 10
93.5050489548
 20
181.1864991412
 10
93.4933152976
 20
181.1884726064
 10
93.4815010497
 20
181.1898855418
 10
93.469632973
 20
181.1907347468
 10
93.4577379515
 20
181.1910182976
  0
LWPOLYLINE
  5
367
100
AcDbEntity
  8
ASSI
100
AcDbPolyline
 62
7
  6
CONTINUOUS
 90
34
 70
0
 10
93.7077337207
 20
180.9410225284
 10
93.7074501699
 20
180.9529175499
 10
93.7066009649
 20
180.9647856266
 10
93.7051880295
 20
180.9765998745
 10
93.7032145643
 20
180.9883335317
 10
93.7006850395
 20
180.9999600189
 10
93.6976051851
 20
181.0114529996
 10
93.6939819777
 20
181.0227864394
 10
93.6898236247
 20
181.0339346656
 10
93.6851395456
 20
181.044872425
 10
93.6799403509
 20
181.0555749412
 10
93.6742378181
 20
181.0660179705
 10
93.6680448645
 20
181.076177857
 10
93.6613755187
 20
181.0860315865
 10
93.6542448881
 20
181.095556838
 10
93.6466691254
 20
181.1047320347
 10
93.6386653911
 20
181.1135363926
 10
93.6302518157
 20
181.121949968
 10
93.6214474578
 20
181.1299537022
 10
93.6122722611
 20
181.137529465
 10
93.6027470096
 20
181.1446600956
 10
93.5928932801
 20
181.1513294414
 10
93.5827333936
 20
181.157522395
 10
93.5722903643
 20
181.1632249278
 10
93.5615878481
 20
181.1684241225
 10
93.5506500887
 20
181.1731082015
 10
93.5395018625
 20
181.1772665546
 10
93.5281684227
 20
181.180889762
 10
93.516675442
 20
181.1839696164
 10
93.5050489548
 20
181.1864991412
 10
93.4933152976
 20
181.1884726064
 10
93.4815010497
 20
181.1898855418
 10
93.469632973
 20
181.1907347468
 10
93.4577379515
 20
181.1910182976
  0
LWPOLYLINE
  5
368
100
AcDbEntity
  8
0
100
AcDbPolyline
 62
7
  6
CONTINUOUS
 90
5
 70
0
 10
93.7121055547
 20
180.9453943624
 10
93.7118224044
 20
180.9572896476
 10
93.7109735889
 20
180.9691579871
 10
93.7095610288
 20
180.9809724977
 10
93.7075879224
 20
180.9927064191
  0
LWPOLYLINE
  5
369
100
AcDbEntity
  8
ASSI
100
AcDbPolyline
 62
7
  6
CONTINUOUS
 90
5
 70
0
 10
93.7121055547
 20
180.9453943624
 10
93.7118224044
 20
180.9572896476
 10
93.7109735889
 20
180.9691579871
 10
93.7095610288
 20
180.9809724977
 10
93.7075879224
 20
180.9927064191
  0
LINE
  5
36A
100
AcDbEntity
  8
RACCORDO
100
AcDbLine
 62
7
  6
CONTINUOUS
 10
94.3676862871
 20
176.5219529789
 11
94.3671661945
 21
176.5564549028
  0
LINE
  5
36B
100
AcDbEntity
  8
ASSI
100
AcDbLine
 62
7
  6
CONTINUOUS
 10
94.3676862871
 20
176.5219529789
 11
94.3671661945
 21
176.5564549028
  0
LINE
  5
36C
100
AcDbEntity
  8
0
100
AcDbLine
 62
253
  6
CONTINUOUS
 10
93.7077337207
 20
180.5397276989
 11
93.7121055547
 21
180.1058752798
  0
LINE
  5
36D
100
AcDbEntity
  8
ASSI
100
AcDbLine
 62
253
  6
CONTINUOUS
 10
93.7077337207
 20
180.5397276989
 11
93.7121055547
 21
180.1058752798
  0
LINE
  5
36E
100
AcDbEntity
  8
RACCORDO
100
AcDbLine
 62
7
  6
CONTINUOUS
 10
94.3671661945
 20
176.5564549028
 11
94.3665417301
 21
176.6323940391
  0
LINE
  5
36F
100
AcDbEntity
  8
ASSI
100
AcDbLine
 62
7
  6
CONTINUOUS
 10
94.3671661945
 20
176.5564549028
 11
94.3665417301
 21
176.6323940391
  0
LWPOLYLINE
  5
370
100
AcDbEntity
  8
RACCORDO
100
AcDbPolyline
 62
7
  6
CONTINUOUS
 90
3
 70
0
 10
94.3665417301
 20
176.6323940391
 10
94.3661345764
 20
176.7583529874
 10
94.3661188463
 20
176.7913768399
  0
LWPOLYLINE
  5
371
100
AcDbEntity
  8
ASSI
100
AcDbPolyline
 62
7
  6
CONTINUOUS
 90
3
 70
0
 10
94.3665417301
 20
176.6323940391
 10
94.3661345764
 20
176.7583529874
 10
94.3661188463
 20
176.7913768399
  0
LINE
  5
372
100
AcDbEntity
  8
DRAFT
100
AcDbLine
 62
7
  6
CONTINUOUS
 10
94.5121093286
 20
173.5954635572
 11
94.5096442935
 21
175.8959567358
  0
LINE
  5
373
100
AcDbEntity
  8
ASSI
100
AcDbLine
 62
7
  6
CONTINUOUS
 10
94.5121093286
 20
173.5954635572
 11
94.5096442935
 21
175.8959567358
  0
LINE
  5
374
100
AcDbEntity
  8
RACCORDO
100
AcDbLine
 62
7
  6
CONTINUOUS
 10
93.7581011004
 20
135.7953901316
 11
93.7581011004
 21
136.5936602422
  0
LINE
  5
375
100
AcDbEntity
  8
ASSI
100
AcDbLine
 62
7
  6
CONTINUOUS
 10
93.7581011004
 20
135.7953901316
 11
93.7581011004
 21
136.5936602422
  0
LINE
  5
376
100
AcDbEntity
  8
RACCORDO
100
AcDbLine
 62
7
  6
CONTINUOUS
 10
93.7581011004
 20
176.7971200209
 11
93.7581011004
 21
177.5953901316
  0
LINE
  5
377
100
AcDbEntity
  8
ASSI
100
AcDbLine
 62
7
  6
CONTINUOUS
 10
93.7581011004
 20
176.7971200209
 11
93.7581011004
 21
177.5953901316
  0
LINE
  5
378
100
AcDbEntity
  8
RACCORDO
100
AcDbLine
 62
7
  6
CONTINUOUS
 10
94.4847954109
 20
176.6727002753
 11
94.4847954109
 21
176.478234519
  0
LINE
  5
379
100
AcDbEntity
  8
ASSI
100
AcDbLine
 62
7
  6
CONTINUOUS
 10
94.4847954109
 20
176.6727002753
 11
94.4847954109
 21
176.478234519
  0
LINE
  5
37A
100
AcDbEntity
  8
RACCORDO
100
AcDbLine
 62
7
  6
CONTINUOUS
 10
95.2894139703
 20
152.4303951218
 11
95.2894139703
 21
160.9603851414
  0
LINE
  5
37B
100
AcDbEntity
  8
ASSI
100
AcDbLine
 62
7
  6
CONTINUOUS
 10
95.2894139703
 20
152.4303951218
 11
95.2894139703
 21
160.9603851414
  0
LINE
  5
37C
100
AcDbEntity
  8
RACCORDO
100
AcDbLine
 62
7
  6
CONTINUOUS
 10
95.3121055547
 20
152.3620433338
 11
95.3121055547
 21
161.0287369293
  0
LINE
  5
37D
100
AcDbEntity
  8
ASSI
100
AcDbLine
 62
7
  6
CONTINUOUS
 10
95.3121055547
 20
152.3620433338
 11
95.3121055547
 21
161.0287369293
  0
LINE
  5
37E
100
AcDbEntity
  8
0
100
AcDbLine
 62
7
  6
CONTINUOUS
 10
95.524394036
 20
153.6141901316
 11
95.524394036
 21
159.7765901316
  0
LINE
  5
37F
100
AcDbEntity
  8
RACCORDO
100
AcDbLine
 62
7
  6
CONTINUOUS
 10
94.3661188463
 20
136.5994034232
 11
94.3663878351
 21
136.7276937985
  0
LINE
  5
380
100
AcDbEntity
  8
ASSI
100
AcDbLine
 62
7
  6
CONTINUOUS
 10
94.3661188463
 20
136.5994034232
 11
94.3663878351
 21
136.7276937985
  0
LINE
  5
381
100
AcDbEntity
  8
RACCORDO
100
AcDbLine
 62
7
  6
CONTINUOUS
 10
94.3663878351
 20
136.7276937985
 11
94.3669309098
 21
136.811702005
  0
LINE
  5
382
100
AcDbEntity
  8
ASSI
100
AcDbLine
 62
7
  6
CONTINUOUS
 10
94.3663878351
 20
136.7276937985
 11
94.3669309098
 21
136.811702005
  0
LINE
  5
383
100
AcDbEntity
  8
0
100
AcDbLine
 62
253
  6
CONTINUOUS
 10
93.7121055547
 20
133.2849049834
 11
93.7077337207
 21
132.8510525643
  0
LINE
  5
384
100
AcDbEntity
  8
ASSI
100
AcDbLine
 62
253
  6
CONTINUOUS
 10
93.7121055547
 20
133.2849049834
 11
93.7077337207
 21
132.8510525643
  0
LWPOLYLINE
  5
385
100
AcDbEntity
  8
RACCORDO
100
AcDbPolyline
 62
7
  6
CONTINUOUS
 90
5
 70
0
 10
94.3669309098
 20
136.811702005
 10
94.367419024
 20
136.8534668627
 10
94.3676862871
 20
136.8688272842
 10
94.3679710951
 20
136.8807058527
 10
94.3682734479
 20
136.8891025681
  0
LWPOLYLINE
  5
386
100
AcDbEntity
  8
ASSI
100
AcDbPolyline
 62
7
  6
CONTINUOUS
 90
5
 70
0
 10
94.3669309098
 20
136.811702005
 10
94.367419024
 20
136.8534668627
 10
94.3676862871
 20
136.8688272842
 10
94.3679710951
 20
136.8807058527
 10
94.3682734479
 20
136.8891025681
  0
LINE
  5
387
100
AcDbEntity
  8
RACCORDO
100
AcDbLine
 62
7
  6
CONTINUOUS
 10
94.3682734479
 20
136.8891025681
 11
94.5283395639
 21
140.1232497581
  0
LINE
  5
388
100
AcDbEntity
  8
ASSI
100
AcDbLine
 62
7
  6
CONTINUOUS
 10
94.3682734479
 20
136.8891025681
 11
94.5283395639
 21
140.1232497581
  0
LWPOLYLINE
  5
389
100
AcDbEntity
  8
0
100
AcDbPolyline
 62
7
  6
CONTINUOUS
 90
13
 70
0
 10
97.4621055547
 20
180.6495380757
 10
97.4618514063
 20
180.6478802397
 10
97.4610864872
 20
180.6457380219
 10
97.4598075167
 20
180.6431114221
 10
97.4580128191
 20
180.6400063585
 10
97.4556997894
 20
180.6364169129
 10
97.4528623641
 20
180.6323253311
 10
97.4494992032
 20
180.627735855
 10
97.4456065501
 20
180.6226442427
 10
97.4411688686
 20
180.6170200141
 10
97.4361859261
 20
180.6108754606
 10
97.430648588
 20
180.6041982907
 10
97.4245153464
 20
180.5969211496
  0
LWPOLYLINE
  5
38A
100
AcDbEntity
  8
ASSI
100
AcDbPolyline
 62
7
  6
CONTINUOUS
 90
13
 70
0
 10
97.4621055547
 20
180.6495380757
 10
97.4618514063
 20
180.6478802397
 10
97.4610864872
 20
180.6457380219
 10
97.4598075167
 20
180.6431114221
 10
97.4580128191
 20
180.6400063585
 10
97.4556997894
 20
180.6364169129
 10
97.4528623641
 20
180.6323253311
 10
97.4494992032
 20
180.627735855
 10
97.4456065501
 20
180.6226442427
 10
97.4411688686
 20
180.6170200141
 10
97.4361859261
 20
180.6108754606
 10
97.430648588
 20
180.6041982907
 10
97.4245153464
 20
180.5969211496
  0
LINE
  5
38B
100
AcDbEntity
  8
RACCORDO
100
AcDbLine
 62
253
  6
CONTINUOUS
 10
95.2894139703
 20
160.9603850009
 11
95.3121055547
 21
161.0287370336
  0
LINE
  5
38C
100
AcDbEntity
  8
ASSI
100
AcDbLine
 62
253
  6
CONTINUOUS
 10
95.2894139703
 20
160.9603850009
 11
95.3121055547
 21
161.0287370336
  0
LINE
  5
38D
100
AcDbEntity
  8
RACCORDO
100
AcDbLine
 62
253
  6
CONTINUOUS
 10
95.1090119801
 20
161.0197991528
 11
95.1322722918
 21
161.088913106
  0
LINE
  5
38E
100
AcDbEntity
  8
ASSI
100
AcDbLine
 62
253
  6
CONTINUOUS
 10
95.1090119801
 20
161.0197991528
 11
95.1322722918
 21
161.088913106
  0
LWPOLYLINE
  5
38F
100
AcDbEntity
  8
0
100
AcDbPolyline
 62
7
  6
CONTINUOUS
 90
12
 70
0
 10
108.245598163
 20
181.0703925598
 10
108.2398957859
 20
181.0599493192
 10
108.2346967825
 20
181.0492465779
 10
108.2300129289
 20
181.0383085809
 10
108.2258548333
 20
181.0271601054
 10
108.222231913
 20
181.0158264106
 10
108.219152373
 20
181.0043331704
 10
108.216623187
 20
180.9927064191
 10
108.2146500805
 20
180.9809724977
 10
108.2132375204
 20
180.9691579871
 10
108.2123887049
 20
180.9572896476
 10
108.2121055547
 20
180.9453943624
  0
LINE
  5
390
100
AcDbEntity
  8
0
100
AcDbLine
 62
7
  6
CONTINUOUS
 10
108.2517909966
 20
181.0805526375
 11
108.245598163
 21
181.0703925598
  0
LWPOLYLINE
  5
391
100
AcDbEntity
  8
ASSI
100
AcDbPolyline
 62
7
  6
CONTINUOUS
 90
13
 70
0
 10
108.2517909966
 20
181.0805526375
 10
108.245598163
 20
181.0703925598
 10
108.2398957859
 20
181.0599493192
 10
108.2346967825
 20
181.0492465779
 10
108.2300129289
 20
181.0383085809
 10
108.2258548333
 20
181.0271601054
 10
108.222231913
 20
181.0158264106
 10
108.219152373
 20
181.0043331704
 10
108.216623187
 20
180.9927064191
 10
108.2146500805
 20
180.9809724977
 10
108.2132375204
 20
180.9691579871
 10
108.2123887049
 20
180.9572896476
 10
108.2121055547
 20
180.9453943624
  0
LWPOLYLINE
  5
392
100
AcDbEntity
  8
0
100
AcDbPolyline
 62
7
  6
CONTINUOUS
 90
4
 70
0
 10
108.8332496143
 20
178.474246072
 10
108.7860306493
 20
178.4023160787
 10
108.7617414551
 20
178.3658721595
 10
108.7369415476
 20
178.329232401
  0
LWPOLYLINE
  5
393
100
AcDbEntity
  8
ASSI
100
AcDbPolyline
 62
7
  6
CONTINUOUS
 90
4
 70
0
 10
108.8332496143
 20
178.474246072
 10
108.7860306493
 20
178.4023160787
 10
108.7617414551
 20
178.3658721595
 10
108.7369415476
 20
178.329232401
  0
LINE
  5
394
100
AcDbEntity
  8
0
100
AcDbLine
 62
7
  6
CONTINUOUS
 10
108.7369415476
 20
178.329232401
 11
108.686155026
 21
178.2554266599
  0
LINE
  5
395
100
AcDbEntity
  8
ASSI
100
AcDbLine
 62
7
  6
CONTINUOUS
 10
108.7369415476
 20
178.329232401
 11
108.686155026
 21
178.2554266599
  0
LINE
  5
396
100
AcDbEntity
  8
0
100
AcDbLine
 62
7
  6
CONTINUOUS
 10
108.686155026
 20
178.2554266599
 11
108.6342626544
 21
178.1810449023
  0
LINE
  5
397
100
AcDbEntity
  8
ASSI
100
AcDbLine
 62
7
  6
CONTINUOUS
 10
108.686155026
 20
178.2554266599
 11
108.6342626544
 21
178.1810449023
  0
LWPOLYLINE
  5
398
100
AcDbEntity
  8
0
100
AcDbPolyline
 62
7
  6
CONTINUOUS
 90
3
 70
0
 10
108.6342626544
 20
178.1810449023
 10
108.555313878
 20
178.0687907728
 10
108.5287512089
 20
178.0313770802
  0
LWPOLYLINE
  5
399
100
AcDbEntity
  8
ASSI
100
AcDbPolyline
 62
7
  6
CONTINUOUS
 90
3
 70
0
 10
108.6342626544
 20
178.1810449023
 10
108.555313878
 20
178.0687907728
 10
108.5287512089
 20
178.0313770802
  0
LINE
  5
39A
100
AcDbEntity
  8
0
100
AcDbLine
 62
7
  6
CONTINUOUS
 10
95.524394036
 20
159.7765901316
 11
100.9621055547
 21
162.9453901316
  0
LINE
  5
39B
100
AcDbEntity
  8
0
100
AcDbLine
 62
7
  6
CONTINUOUS
 10
100.9621055547
 20
150.4453901316
 11
95.524394036
 21
153.6141901316
  0
LINE
  5
39C
100
AcDbEntity
  8
0
100
AcDbLine
 62
7
  6
CONTINUOUS
 10
108.5287512089
 20
135.3594031829
 11
108.5817450672
 21
135.2845329115
  0
LINE
  5
39D
100
AcDbEntity
  8
ASSI
100
AcDbLine
 62
7
  6
CONTINUOUS
 10
108.5287512089
 20
135.3594031829
 11
108.5817450672
 21
135.2845329115
  0
LINE
  5
39E
100
AcDbEntity
  8
0
100
AcDbLine
 62
7
  6
CONTINUOUS
 10
108.5817450672
 20
135.2845329115
 11
108.6603490524
 21
135.1725025455
  0
LINE
  5
39F
100
AcDbEntity
  8
ASSI
100
AcDbLine
 62
7
  6
CONTINUOUS
 10
108.5817450672
 20
135.2845329115
 11
108.6603490524
 21
135.1725025455
  0
LWPOLYLINE
  5
3A0
100
AcDbEntity
  8
0
100
AcDbPolyline
 62
7
  6
CONTINUOUS
 90
5
 70
0
 10
108.6603490524
 20
135.1725025455
 10
108.711688499
 20
135.0983503521
 10
108.7369415476
 20
135.0615478622
 10
108.7617414551
 20
135.0249081037
 10
108.7860306493
 20
134.9884641844
  0
LWPOLYLINE
  5
3A1
100
AcDbEntity
  8
ASSI
100
AcDbPolyline
 62
7
  6
CONTINUOUS
 90
5
 70
0
 10
108.6603490524
 20
135.1725025455
 10
108.711688499
 20
135.0983503521
 10
108.7369415476
 20
135.0615478622
 10
108.7617414551
 20
135.0249081037
 10
108.7860306493
 20
134.9884641844
  0
LINE
  5
3A2
100
AcDbEntity
  8
0
100
AcDbLine
 62
7
  6
CONTINUOUS
 10
108.7860306493
 20
134.9884641844
 11
108.8332496143
 21
134.9165341912
  0
LINE
  5
3A3
100
AcDbEntity
  8
ASSI
100
AcDbLine
 62
7
  6
CONTINUOUS
 10
108.7860306493
 20
134.9884641844
 11
108.8332496143
 21
134.9165341912
  0
LINE
  5
3A4
100
AcDbEntity
  8
0
100
AcDbLine
 62
7
  6
CONTINUOUS
 10
108.245598163
 20
132.3203877033
 11
108.2517909966
 21
132.3102276257
  0
LINE
  5
3A5
100
AcDbEntity
  8
RACCORDO
100
AcDbLine
 62
253
  6
CONTINUOUS
 10
95.1090119801
 20
152.3709811103
 11
95.1322722918
 21
152.3018671572
  0
LINE
  5
3A6
100
AcDbEntity
  8
ASSI
100
AcDbLine
 62
253
  6
CONTINUOUS
 10
95.1090119801
 20
152.3709811103
 11
95.1322722918
 21
152.3018671572
  0
LINE
  5
3A7
100
AcDbEntity
  8
RACCORDO
100
AcDbLine
 62
253
  6
CONTINUOUS
 10
95.2894139703
 20
152.4303952623
 11
95.3121055547
 21
152.3620432296
  0
LINE
  5
3A8
100
AcDbEntity
  8
ASSI
100
AcDbLine
 62
253
  6
CONTINUOUS
 10
95.2894139703
 20
152.4303952623
 11
95.3121055547
 21
152.3620432296
  0
LWPOLYLINE
  5
3A9
100
AcDbEntity
  8
RACCORDO
100
AcDbPolyline
 62
7
  6
CONTINUOUS
 90
19
 70
0
 10
95.2894139703
 20
160.9603851414
 10
95.2883023513
 20
160.9746675286
 10
95.2854477421
 20
160.9881794518
 10
95.2808501426
 20
161.000920911
 10
95.2743647946
 20
161.01310361
 10
95.2661364564
 20
161.024515845
 10
95.2565994024
 20
161.034522504
 10
95.2456575795
 20
161.0430551042
 10
95.2334070409
 20
161.0501821284
 10
95.2205702207
 20
161.0554739136
 10
95.2071211278
 20
161.058808358
 10
95.1930857532
 20
161.0603075633
 10
95.179264505
 20
161.0599081714
 10
95.1656805711
 20
161.0575044435
 10
95.1523107636
 20
161.0532021184
 10
95.1398859261
 20
161.0472550542
 10
95.1286496734
 20
161.0397478704
 10
95.1183583908
 20
161.0305959476
 10
95.1090120783
 20
161.0197992857
  0
LWPOLYLINE
  5
3AA
100
AcDbEntity
  8
ASSI
100
AcDbPolyline
 62
7
  6
CONTINUOUS
 90
19
 70
0
 10
95.2894139703
 20
160.9603851414
 10
95.2883023513
 20
160.9746675286
 10
95.2854477421
 20
160.9881794518
 10
95.2808501426
 20
161.000920911
 10
95.2743647946
 20
161.01310361
 10
95.2661364564
 20
161.024515845
 10
95.2565994024
 20
161.034522504
 10
95.2456575795
 20
161.0430551042
 10
95.2334070409
 20
161.0501821284
 10
95.2205702207
 20
161.0554739136
 10
95.2071211278
 20
161.058808358
 10
95.1930857532
 20
161.0603075633
 10
95.179264505
 20
161.0599081714
 10
95.1656805711
 20
161.0575044435
 10
95.1523107636
 20
161.0532021184
 10
95.1398859261
 20
161.0472550542
 10
95.1286496734
 20
161.0397478704
 10
95.1183583908
 20
161.0305959476
 10
95.1090120783
 20
161.0197992857
  0
LINE
  5
3AB
100
AcDbEntity
  8
RACCORDO
100
AcDbLine
 62
7
  6
CONTINUOUS
 10
97.0080725599
 20
172.2735207882
 11
96.9694328995
 21
174.0582435703
  0
LINE
  5
3AC
100
AcDbEntity
  8
ASSI
100
AcDbLine
 62
7
  6
CONTINUOUS
 10
97.0080725599
 20
172.2735207882
 11
96.9694328995
 21
174.0582435703
  0
LINE
  5
3AD
100
AcDbEntity
  8
RACCORDO
100
AcDbLine
 62
253
  6
CONTINUOUS
 10
96.9169169366
 20
171.3953901316
 11
96.927627947
 21
170.5741782016
  0
LINE
  5
3AE
100
AcDbEntity
  8
ASSI
100
AcDbLine
 62
253
  6
CONTINUOUS
 10
96.9169169366
 20
171.3953901316
 11
96.927627947
 21
170.5741782016
  0
LINE
  5
3AF
100
AcDbEntity
  8
RACCORDO
100
AcDbLine
 62
253
  6
CONTINUOUS
 10
96.927627947
 20
170.5741782016
 11
96.9324756798
 21
170.1633474829
  0
LINE
  5
3B0
100
AcDbEntity
  8
ASSI
100
AcDbLine
 62
253
  6
CONTINUOUS
 10
96.927627947
 20
170.5741782016
 11
96.9324756798
 21
170.1633474829
  0
LINE
  5
3B1
100
AcDbEntity
  8
0
100
AcDbLine
 62
7
  6
CONTINUOUS
 10
96.5121055547
 20
180.6953901316
 11
96.5121055547
 21
180.0633350788
  0
LINE
  5
3B2
100
AcDbEntity
  8
ASSI
100
AcDbLine
 62
7
  6
CONTINUOUS
 10
96.5121055547
 20
180.6953901316
 11
96.5121055547
 21
180.0633350788
  0
LINE
  5
3B3
100
AcDbEntity
  8
0
100
AcDbLine
 62
7
  6
CONTINUOUS
 10
96.5121055547
 20
179.6274451844
 11
96.5121055547
 21
179.0953901316
  0
LINE
  5
3B4
100
AcDbEntity
  8
ASSI
100
AcDbLine
 62
7
  6
CONTINUOUS
 10
96.5121055547
 20
179.6274451844
 11
96.5121055547
 21
179.0953901316
  0
LINE
  5
3B5
100
AcDbEntity
  8
0
100
AcDbLine
 62
7
  6
CONTINUOUS
 10
96.5121055547
 20
134.2953901316
 11
96.5121055547
 21
133.7633350788
  0
LINE
  5
3B6
100
AcDbEntity
  8
ASSI
100
AcDbLine
 62
7
  6
CONTINUOUS
 10
96.5121055547
 20
134.2953901316
 11
96.5121055547
 21
133.7633350788
  0
LINE
  5
3B7
100
AcDbEntity
  8
0
100
AcDbLine
 62
7
  6
CONTINUOUS
 10
96.5121055547
 20
133.3274451844
 11
96.5121055547
 21
132.6953901316
  0
LINE
  5
3B8
100
AcDbEntity
  8
ASSI
100
AcDbLine
 62
7
  6
CONTINUOUS
 10
96.5121055547
 20
133.3274451844
 11
96.5121055547
 21
132.6953901316
  0
LINE
  5
3B9
100
AcDbEntity
  8
0
100
AcDbLine
 62
7
  6
CONTINUOUS
 10
96.5560278017
 20
132.7414978585
 11
96.5560278017
 21
134.3393123786
  0
LINE
  5
3BA
100
AcDbEntity
  8
ASSI
100
AcDbLine
 62
7
  6
CONTINUOUS
 10
96.5560278017
 20
132.7414978585
 11
96.5560278017
 21
134.3393123786
  0
LINE
  5
3BB
100
AcDbEntity
  8
0
100
AcDbLine
 62
7
  6
CONTINUOUS
 10
96.5560278017
 20
179.0514678845
 11
96.5560278017
 21
180.6492824046
  0
LINE
  5
3BC
100
AcDbEntity
  8
ASSI
100
AcDbLine
 62
7
  6
CONTINUOUS
 10
96.5560278017
 20
179.0514678845
 11
96.5560278017
 21
180.6492824046
  0
LWPOLYLINE
  5
3BD
100
AcDbEntity
  8
RACCORDO
100
AcDbPolyline
 62
7
  6
CONTINUOUS
 90
16
 70
0
 10
95.3121055547
 20
152.3620433338
 10
95.3104322403
 20
152.3448698573
 10
95.3064116837
 20
152.3289825961
 10
95.3000438848
 20
152.3143815503
 10
95.2910440312
 20
152.300750504
 10
95.2796969353
 20
152.2884056731
 10
95.2668570345
 20
152.2782957046
 10
95.2524363961
 20
152.2705605745
 10
95.2365229527
 20
152.2650603068
 10
95.220234939
 20
152.2623236198
 10
95.2033749196
 20
152.2626426372
 10
95.1861403298
 20
152.2657252353
 10
95.1702417106
 20
152.2712237614
 10
95.1562492424
 20
152.2790223314
 10
95.1435927447
 20
152.2892368294
 10
95.1322722177
 20
152.3018672555
  0
LWPOLYLINE
  5
3BE
100
AcDbEntity
  8
ASSI
100
AcDbPolyline
 62
7
  6
CONTINUOUS
 90
16
 70
0
 10
95.3121055547
 20
152.3620433338
 10
95.3104322403
 20
152.3448698573
 10
95.3064116837
 20
152.3289825961
 10
95.3000438848
 20
152.3143815503
 10
95.2910440312
 20
152.300750504
 10
95.2796969353
 20
152.2884056731
 10
95.2668570345
 20
152.2782957046
 10
95.2524363961
 20
152.2705605745
 10
95.2365229527
 20
152.2650603068
 10
95.220234939
 20
152.2623236198
 10
95.2033749196
 20
152.2626426372
 10
95.1861403298
 20
152.2657252353
 10
95.1702417106
 20
152.2712237614
 10
95.1562492424
 20
152.2790223314
 10
95.1435927447
 20
152.2892368294
 10
95.1322722177
 20
152.3018672555
  0
LWPOLYLINE
  5
3BF
100
AcDbEntity
  8
0
100
AcDbPolyline
 62
7
  6
CONTINUOUS
 90
55
 70
0
 10
96.7103175605
 20
158.5781537525
 10
96.6236557494
 20
158.3430920567
 10
96.550063783
 20
158.1059700843
 10
96.489541661
 20
157.8667878355
 10
96.442089425
 20
157.6249574771
 10
96.4077070335
 20
157.3810668423
 10
96.3863943626
 20
157.1368794304
 10
96.3781553035
 20
156.8925275399
 10
96.3829859651
 20
156.6478788723
 10
96.4008745495
 20
156.4043000312
 10
96.431996491
 20
156.1612817648
 10
96.4761763553
 20
155.9193333249
 10
96.5328760419
 20
155.6813490707
 10
96.6022486452
 20
155.4476096175
 10
96.6841410708
 20
155.2178343499
 10
96.7775559349
 20
154.9940757816
 10
96.8824397267
 20
154.7766109946
 10
96.9988459571
 20
154.565162907
 10
97.1259377746
 20
154.3609527861
 10
97.2640599365
 20
154.1636864496
 10
97.4128676856
 20
153.9736580799
 10
97.5704898989
 20
153.7929714918
 10
97.7366798345
 20
153.6220659755
 10
97.9116842343
 20
153.4605022408
 10
98.0943722016
 20
153.309066232
 10
98.2848411927
 20
153.1676852426
 10
98.4829937512
 20
153.0364319791
 10
98.6874066124
 20
152.916310505
 10
98.8981503706
 20
152.8073443873
 10
99.1151544314
 20
152.709510059
 10
99.3367837463
 20
152.6237408828
 10
99.5634277783
 20
152.5500863528
 10
99.7946970644
 20
152.488496975
 10
100.0277881676
 20
152.4397576295
 10
100.2637136524
 20
152.4042964943
 10
100.5014609542
 20
152.3816853914
 10
100.7351889423
 20
152.3714246673
 10
100.9644189328
 20
152.3742850699
 10
101.1896296096
 20
152.3894958512
 10
101.4064158941
 20
152.4142451133
 10
101.6132889251
 20
152.4485343655
 10
101.8117375638
 20
152.4923620986
 10
102.0018233152
 20
152.5429118873
 10
102.1830241687
 20
152.5997478573
 10
102.3558621349
 20
152.6633058829
 10
102.5219647503
 20
152.7320771613
 10
102.6813139888
 20
152.8056694485
 10
102.8339278764
 20
152.8844749885
 10
102.9814880274
 20
152.9681617111
 10
103.124244965
 20
153.0565426619
 10
103.261948166
 20
153.1498047953
 10
103.3955276756
 20
153.248176903
 10
103.5252935089
 20
153.3517352492
 10
103.6509356508
 20
153.4604035697
 10
103.7724541014
 20
153.5741818646
  0
LWPOLYLINE
  5
3C0
100
AcDbEntity
  8
RACCORDO
100
AcDbPolyline
 62
7
  6
CONTINUOUS
 90
25
 70
0
 10
97.5621055547
 20
170.8213933134
 10
97.562770659
 20
170.8017816542
 10
97.564692131
 20
170.7824180394
 10
97.5678699706
 20
170.7633024689
 10
97.5723284761
 20
170.7443554386
 10
97.5780433493
 20
170.7256564526
 10
97.5849416949
 20
170.7074440229
 10
97.593038673
 20
170.6897243824
 10
97.6023191235
 20
170.6724912982
 10
97.612664671
 20
170.6559645843
 10
97.6240889592
 20
170.6401532893
 10
97.6365783445
 20
170.6250483647
 10
97.6499735203
 20
170.610842479
 10
97.6642860897
 20
170.5975471488
 10
97.6795044497
 20
170.5851508575
 10
97.6954344848
 20
170.5738117242
 10
97.7120853113
 20
170.5635432908
 10
97.729447813
 20
170.5543320154
 10
97.747300525
 20
170.546295391
 10
97.7656497268
 20
170.5394484646
 10
97.7844891389
 20
170.5337761892
 10
97.8035784581
 20
170.5293509167
 10
97.8228375832
 20
170.5261967642
 10
97.8423466154
 20
170.5242896146
 10
97.8621055547
 20
170.5236294679
  0
LINE
  5
3C1
100
AcDbEntity
  8
DRAFT
100
AcDbLine
 62
7
  6
CONTINUOUS
 10
97.2048433424
 20
172.2109579257
 11
97.1854138086
 21
173.1083864063
  0
LINE
  5
3C2
100
AcDbEntity
  8
ASSI
100
AcDbLine
 62
7
  6
CONTINUOUS
 10
97.2048433424
 20
172.2109579257
 11
97.1854138086
 21
173.1083864063
  0
LINE
  5
3C3
100
AcDbEntity
  8
DRAFT
100
AcDbLine
 62
7
  6
CONTINUOUS
 10
97.4114217863
 20
171.6953901316
 11
97.4006793427
 21
172.1915716123
  0
LINE
  5
3C4
100
AcDbEntity
  8
ASSI
100
AcDbLine
 62
7
  6
CONTINUOUS
 10
97.4114217863
 20
171.6953901316
 11
97.4006793427
 21
172.1915716123
  0
LINE
  5
3C5
100
AcDbEntity
  8
RACCORDO
100
AcDbLine
 62
253
  6
CONTINUOUS
 10
97.4191473452
 20
170.6809401324
 11
97.4098572199
 21
171.3953901316
  0
LINE
  5
3C6
100
AcDbEntity
  8
ASSI
100
AcDbLine
 62
253
  6
CONTINUOUS
 10
97.4191473452
 20
170.6809401324
 11
97.4098572199
 21
171.3953901316
  0
LINE
  5
3C7
100
AcDbEntity
  8
DRAFT
100
AcDbLine
 62
7
  6
CONTINUOUS
 10
97.450269045
 20
170.6953901316
 11
97.450269045
 21
171.5232621636
  0
LINE
  5
3C8
100
AcDbEntity
  8
ASSI
100
AcDbLine
 62
7
  6
CONTINUOUS
 10
97.450269045
 20
170.6953901316
 11
97.450269045
 21
171.5232621636
  0
LINE
  5
3C9
100
AcDbEntity
  8
0
100
AcDbLine
 62
7
  6
CONTINUOUS
 10
97.4621055547
 20
132.7390407784
 11
97.4621055547
 21
132.7012079614
  0
LINE
  5
3CA
100
AcDbEntity
  8
0
100
AcDbLine
 62
7
  6
CONTINUOUS
 10
97.4621055547
 20
132.7406062449
 11
97.4621055547
 21
134.3392970447
  0
LINE
  5
3CB
100
AcDbEntity
  8
ASSI
100
AcDbLine
 62
7
  6
CONTINUOUS
 10
97.4621055547
 20
132.7012079614
 11
97.4621055547
 21
134.3392970447
  0
LINE
  5
3CC
100
AcDbEntity
  8
0
100
AcDbLine
 62
7
  6
CONTINUOUS
 10
97.4621055547
 20
179.0514832185
 11
97.4621055547
 21
180.6507023444
  0
LINE
  5
3CD
100
AcDbEntity
  8
0
100
AcDbLine
 62
7
  6
CONTINUOUS
 10
97.4621055547
 20
180.6517394847
 11
97.4621055547
 21
180.6895723018
  0
LINE
  5
3CE
100
AcDbEntity
  8
ASSI
100
AcDbLine
 62
7
  6
CONTINUOUS
 10
97.4621055547
 20
179.0514832185
 11
97.4621055547
 21
180.6495380757
  0
LINE
  5
3CF
100
AcDbEntity
  8
ASSI
100
AcDbLine
 62
7
  6
CONTINUOUS
 10
97.4621055547
 20
180.6517394847
 11
97.4621055547
 21
180.6895723018
  0
LINE
  5
3D0
100
AcDbEntity
  8
RACCORDO
100
AcDbLine
 62
7
  6
CONTINUOUS
 10
97.5621055547
 20
170.8213933134
 11
97.5621055547
 21
172.2109579257
  0
LINE
  5
3D1
100
AcDbEntity
  8
0
100
AcDbLine
 62
7
  6
CONTINUOUS
 10
97.9621055547
 20
134.3012079614
 11
97.9621055547
 21
135.8953901316
  0
LINE
  5
3D2
100
AcDbEntity
  8
ASSI
100
AcDbLine
 62
7
  6
CONTINUOUS
 10
97.9621055547
 20
134.3012079614
 11
97.9621055547
 21
135.8953901316
  0
LINE
  5
3D3
100
AcDbEntity
  8
0
100
AcDbLine
 62
7
  6
CONTINUOUS
 10
97.9621055547
 20
177.4953901316
 11
97.9621055547
 21
179.0895723018
  0
LINE
  5
3D4
100
AcDbEntity
  8
ASSI
100
AcDbLine
 62
7
  6
CONTINUOUS
 10
97.9621055547
 20
177.4953901316
 11
97.9621055547
 21
179.0895723018
  0
LINE
  5
3D5
100
AcDbEntity
  8
RACCORDO
100
AcDbLine
 62
7
  6
CONTINUOUS
 10
91.3121055547
 20
136.4963504814
 11
91.4378640813
 21
136.8739328699
  0
LINE
  5
3D6
100
AcDbEntity
  8
ASSI
100
AcDbLine
 62
7
  6
CONTINUOUS
 10
91.3121055547
 20
136.4963504814
 11
91.4378640813
 21
136.8739328699
  0
LINE
  5
3D7
100
AcDbEntity
  8
RACCORDO
100
AcDbLine
 62
7
  6
CONTINUOUS
 10
92.0122118923
 20
135.7953901316
 11
92.1233141229
 21
136.1289678755
  0
LINE
  5
3D8
100
AcDbEntity
  8
ASSI
100
AcDbLine
 62
7
  6
CONTINUOUS
 10
92.0122118923
 20
135.7953901316
 11
92.1233141229
 21
136.1289678755
  0
LINE
  5
3D9
100
AcDbEntity
  8
0
100
AcDbLine
 62
7
  6
CONTINUOUS
 10
91.3574887235
 20
176.7581695556
 11
91.3121055547
 21
176.8944297818
  0
LINE
  5
3DA
100
AcDbEntity
  8
ASSI
100
AcDbLine
 62
7
  6
CONTINUOUS
 10
91.3574887235
 20
176.7581695556
 11
91.3121055547
 21
176.8944297818
  0
LINE
  5
3DB
100
AcDbEntity
  8
0
100
AcDbLine
 62
7
  6
CONTINUOUS
 10
92.0575950611
 20
177.4591299054
 11
92.0122118923
 21
177.5953901316
  0
LINE
  5
3DC
100
AcDbEntity
  8
ASSI
100
AcDbLine
 62
7
  6
CONTINUOUS
 10
92.0575950611
 20
177.4591299054
 11
92.0122118923
 21
177.5953901316
  0
LWPOLYLINE
  5
3DD
100
AcDbEntity
  8
0
100
AcDbPolyline
 62
7
  6
CONTINUOUS
 90
8
 70
0
 10
93.7075879224
 20
180.9927064191
 10
93.7050587364
 20
181.0043331704
 10
93.7019791964
 20
181.0158264106
 10
93.698356276
 20
181.0271601054
 10
93.6941981805
 20
181.0383085809
 10
93.6895143269
 20
181.0492465779
 10
93.6843153235
 20
181.0599493192
 10
93.6786129463
 20
181.0703925598
  0
LWPOLYLINE
  5
3DE
100
AcDbEntity
  8
ASSI
100
AcDbPolyline
 62
7
  6
CONTINUOUS
 90
9
 70
0
 10
93.7075879224
 20
180.9927064191
 10
93.7050587364
 20
181.0043331704
 10
93.7019791964
 20
181.0158264106
 10
93.698356276
 20
181.0271601054
 10
93.6941981805
 20
181.0383085809
 10
93.6895143269
 20
181.0492465779
 10
93.6843153235
 20
181.0599493192
 10
93.6786129463
 20
181.0703925598
 10
93.6724201128
 20
181.0805526375
  0
LINE
  5
3DF
100
AcDbEntity
  8
0
100
AcDbLine
 62
7
  6
CONTINUOUS
 10
99.9621055547
 20
180.4895689171
 11
99.9621055547
 21
179.090154096
  0
LINE
  5
3E0
100
AcDbEntity
  8
ASSI
100
AcDbLine
 62
7
  6
CONTINUOUS
 10
99.9621055547
 20
180.4895689171
 11
99.9621055547
 21
179.090154096
  0
LINE
  5
3E1
100
AcDbEntity
  8
0
100
AcDbLine
 62
7
  6
CONTINUOUS
 10
99.9621055547
 20
134.3006261672
 11
99.9621055547
 21
132.9012113461
  0
LINE
  5
3E2
100
AcDbEntity
  8
ASSI
100
AcDbLine
 62
7
  6
CONTINUOUS
 10
99.9621055547
 20
134.3006261672
 11
99.9621055547
 21
132.9012113461
  0
LWPOLYLINE
  5
3E3
100
AcDbEntity
  8
0
100
AcDbPolyline
 62
7
  6
CONTINUOUS
 90
17
 70
0
 10
105.3681833076
 20
180.6492824046
 10
105.3678439424
 20
180.6475535081
 10
105.3669987312
 20
180.6453441235
 10
105.3656442938
 20
180.6426542508
 10
105.3637789129
 20
180.639489996
 10
105.3613998066
 20
180.6358452531
 10
105.3585005417
 20
180.6317017046
 10
105.3550797468
 20
180.6270639651
 10
105.3511333409
 20
180.62192742
 10
105.3466447223
 20
180.6162599079
 10
105.3416127575
 20
180.6100730987
 10
105.3360282883
 20
180.6033553224
 10
105.3298501748
 20
180.5960394082
 10
105.3230579817
 20
180.588121387
 10
105.3156471953
 20
180.5796052279
 10
105.3075897192
 20
180.5704356666
 10
105.2988706374
 20
180.5606094168
  0
LWPOLYLINE
  5
3E4
100
AcDbEntity
  8
ASSI
100
AcDbPolyline
 62
7
  6
CONTINUOUS
 90
17
 70
0
 10
105.3681833076
 20
180.6492824046
 10
105.3678439424
 20
180.6475535081
 10
105.3669987312
 20
180.6453441235
 10
105.3656442938
 20
180.6426542508
 10
105.3637789129
 20
180.639489996
 10
105.3613998066
 20
180.6358452531
 10
105.3585005417
 20
180.6317017046
 10
105.3550797468
 20
180.6270639651
 10
105.3511333409
 20
180.62192742
 10
105.3466447223
 20
180.6162599079
 10
105.3416127575
 20
180.6100730987
 10
105.3360282883
 20
180.6033553224
 10
105.3298501748
 20
180.5960394082
 10
105.3230579817
 20
180.588121387
 10
105.3156471953
 20
180.5796052279
 10
105.3075897192
 20
180.5704356666
 10
105.2988706374
 20
180.5606094168
  0
LINE
  5
3E5
100
AcDbEntity
  8
DRAFT
100
AcDbLine
 62
7
  6
CONTINUOUS
 10
104.4739420643
 20
171.5232621636
 11
104.5127893231
 21
171.6953901316
  0
LINE
  5
3E6
100
AcDbEntity
  8
ASSI
100
AcDbLine
 62
7
  6
CONTINUOUS
 10
104.4739420643
 20
171.5232621636
 11
104.5127893231
 21
171.6953901316
  0
LINE
  5
3E7
100
AcDbEntity
  8
RACCORDO
100
AcDbLine
 62
7
  6
CONTINUOUS
 10
110.5170208356
 20
175.8959567358
 11
110.5582994399
 21
175.9785391055
  0
LINE
  5
3E8
100
AcDbEntity
  8
ASSI
100
AcDbLine
 62
7
  6
CONTINUOUS
 10
110.5170208356
 20
175.8959567358
 11
110.5582994399
 21
175.9785391055
  0
LINE
  5
3E9
100
AcDbEntity
  8
RACCORDO
100
AcDbLine
 62
7
  6
CONTINUOUS
 10
91.4071902737
 20
175.8959567358
 11
91.3659116695
 21
175.9785391055
  0
LINE
  5
3EA
100
AcDbEntity
  8
ASSI
100
AcDbLine
 62
7
  6
CONTINUOUS
 10
91.4071902737
 20
175.8959567358
 11
91.3659116695
 21
175.9785391055
  0
LINE
  5
3EB
100
AcDbEntity
  8
RACCORDO
100
AcDbLine
 62
7
  6
CONTINUOUS
 10
94.5096442935
 20
175.8959567358
 11
94.4890065632
 21
175.9785391055
  0
LINE
  5
3EC
100
AcDbEntity
  8
ASSI
100
AcDbLine
 62
7
  6
CONTINUOUS
 10
94.5096442935
 20
175.8959567358
 11
94.4890065632
 21
175.9785391055
  0
LINE
  5
3ED
100
AcDbEntity
  8
DRAFT
100
AcDbLine
 62
7
  6
CONTINUOUS
 10
97.450269045
 20
171.5232621636
 11
97.4114217863
 21
171.6953901316
  0
LINE
  5
3EE
100
AcDbEntity
  8
ASSI
100
AcDbLine
 62
7
  6
CONTINUOUS
 10
97.450269045
 20
171.5232621636
 11
97.4114217863
 21
171.6953901316
  0
LINE
  5
3EF
100
AcDbEntity
  8
0
100
AcDbLine
 62
7
  6
CONTINUOUS
 10
101.9621055547
 20
180.4895689171
 11
101.9621055547
 21
179.090154096
  0
LINE
  5
3F0
100
AcDbEntity
  8
ASSI
100
AcDbLine
 62
7
  6
CONTINUOUS
 10
101.9621055547
 20
180.4895689171
 11
101.9621055547
 21
179.090154096
  0
LINE
  5
3F1
100
AcDbEntity
  8
0
100
AcDbLine
 62
7
  6
CONTINUOUS
 10
101.9621055547
 20
134.3006261672
 11
101.9621055547
 21
132.9012113461
  0
LINE
  5
3F2
100
AcDbEntity
  8
ASSI
100
AcDbLine
 62
7
  6
CONTINUOUS
 10
101.9621055547
 20
134.3006261672
 11
101.9621055547
 21
132.9012113461
  0
LWPOLYLINE
  5
3F3
100
AcDbEntity
  8
0
100
AcDbPolyline
 62
7
  6
CONTINUOUS
 90
17
 70
0
 10
96.5560278017
 20
132.7414978585
 10
96.5563670185
 20
132.7432269211
 10
96.5572115211
 20
132.7454347622
 10
96.5585642661
 20
132.7481213818
 10
96.5604263526
 20
132.7512805357
 10
96.5628002455
 20
132.7549184682
 10
96.5656928278
 20
132.7590539118
 10
96.5691049587
 20
132.7636806895
 10
96.5730411064
 20
132.7688049784
 10
96.5775211569
 20
132.7744640418
 10
96.5825492806
 20
132.7806481578
 10
96.5881341192
 20
132.7873670485
 10
96.5943151742
 20
132.7946871433
 10
96.6011129622
 20
132.8026127486
 10
96.60853268
 20
132.811139558
 10
96.6166006144
 20
132.8203210831
 10
96.6253316166
 20
132.8301611215
  0
LWPOLYLINE
  5
3F4
100
AcDbEntity
  8
ASSI
100
AcDbPolyline
 62
7
  6
CONTINUOUS
 90
17
 70
0
 10
96.5560278017
 20
132.7414978585
 10
96.5563670185
 20
132.7432269211
 10
96.5572115211
 20
132.7454347622
 10
96.5585642661
 20
132.7481213818
 10
96.5604263526
 20
132.7512805357
 10
96.5628002455
 20
132.7549184682
 10
96.5656928278
 20
132.7590539118
 10
96.5691049587
 20
132.7636806895
 10
96.5730411064
 20
132.7688049784
 10
96.5775211569
 20
132.7744640418
 10
96.5825492806
 20
132.7806481578
 10
96.5881341192
 20
132.7873670485
 10
96.5943151742
 20
132.7946871433
 10
96.6011129622
 20
132.8026127486
 10
96.60853268
 20
132.811139558
 10
96.6166006144
 20
132.8203210831
 10
96.6253316166
 20
132.8301611215
  0
LINE
  5
3F5
100
AcDbEntity
  8
RACCORDO
100
AcDbLine
 62
7
  6
CONTINUOUS
 10
107.4145668159
 20
175.8959567358
 11
107.4352045462
 21
175.9785391055
  0
LINE
  5
3F6
100
AcDbEntity
  8
ASSI
100
AcDbLine
 62
7
  6
CONTINUOUS
 10
107.4145668159
 20
175.8959567358
 11
107.4352045462
 21
175.9785391055
  0
LINE
  5
3F7
100
AcDbEntity
  8
0
100
AcDbLine
 62
7
  6
CONTINUOUS
 10
109.8666160483
 20
177.4591299054
 11
109.9119992171
 21
177.5953901316
  0
LINE
  5
3F8
100
AcDbEntity
  8
ASSI
100
AcDbLine
 62
7
  6
CONTINUOUS
 10
109.8666160483
 20
177.4591299054
 11
109.9119992171
 21
177.5953901316
  0
LINE
  5
3F9
100
AcDbEntity
  8
RACCORDO
100
AcDbLine
 62
7
  6
CONTINUOUS
 10
109.9119992171
 20
135.7953901316
 11
109.8008969865
 21
136.1289678755
  0
LINE
  5
3FA
100
AcDbEntity
  8
ASSI
100
AcDbLine
 62
7
  6
CONTINUOUS
 10
109.9119992171
 20
135.7953901316
 11
109.8008969865
 21
136.1289678755
  0
LWPOLYLINE
  5
3FB
100
AcDbEntity
  8
0
100
AcDbPolyline
 62
7
  6
CONTINUOUS
 90
8
 70
0
 10
108.216623187
 20
132.3980738441
 10
108.219152373
 20
132.3864470928
 10
108.222231913
 20
132.3749538526
 10
108.2258548333
 20
132.3636201578
 10
108.2300129289
 20
132.3524716823
 10
108.2346967825
 20
132.3415336853
 10
108.2398957859
 20
132.330830944
 10
108.245598163
 20
132.3203877033
  0
LWPOLYLINE
  5
3FC
100
AcDbEntity
  8
ASSI
100
AcDbPolyline
 62
7
  6
CONTINUOUS
 90
9
 70
0
 10
108.216623187
 20
132.3980738441
 10
108.219152373
 20
132.3864470928
 10
108.222231913
 20
132.3749538526
 10
108.2258548333
 20
132.3636201578
 10
108.2300129289
 20
132.3524716823
 10
108.2346967825
 20
132.3415336853
 10
108.2398957859
 20
132.330830944
 10
108.245598163
 20
132.3203877033
 10
108.2517909966
 20
132.3102276257
  0
LINE
  5
3FD
100
AcDbEntity
  8
0
100
AcDbLine
 62
7
  6
CONTINUOUS
 10
103.9621055547
 20
134.3012079614
 11
103.9621055547
 21
135.8953901316
  0
LINE
  5
3FE
100
AcDbEntity
  8
ASSI
100
AcDbLine
 62
7
  6
CONTINUOUS
 10
103.9621055547
 20
134.3012079614
 11
103.9621055547
 21
135.8953901316
  0
LINE
  5
3FF
100
AcDbEntity
  8
0
100
AcDbLine
 62
7
  6
CONTINUOUS
 10
103.9621055547
 20
177.4953901316
 11
103.9621055547
 21
179.0895723018
  0
LINE
  5
400
100
AcDbEntity
  8
ASSI
100
AcDbLine
 62
7
  6
CONTINUOUS
 10
103.9621055547
 20
177.4953901316
 11
103.9621055547
 21
179.0895723018
  0
LINE
  5
401
100
AcDbEntity
  8
RACCORDO
100
AcDbLine
 62
7
  6
CONTINUOUS
 10
104.3621055547
 20
172.2109579257
 11
104.3621055547
 21
170.8213933134
  0
LINE
  5
402
100
AcDbEntity
  8
0
100
AcDbLine
 62
7
  6
CONTINUOUS
 10
104.4621055547
 20
132.7390407784
 11
104.4621055547
 21
132.7012079614
  0
LINE
  5
403
100
AcDbEntity
  8
0
100
AcDbLine
 62
7
  6
CONTINUOUS
 10
104.4621055547
 20
132.7406062449
 11
104.4621055547
 21
134.3392970447
  0
LINE
  5
404
100
AcDbEntity
  8
ASSI
100
AcDbLine
 62
7
  6
CONTINUOUS
 10
104.4621055547
 20
132.7012079614
 11
104.4621055547
 21
134.3392970447
  0
LINE
  5
405
100
AcDbEntity
  8
0
100
AcDbLine
 62
7
  6
CONTINUOUS
 10
104.4621055547
 20
179.0514832185
 11
104.4621055547
 21
180.6507023444
  0
LINE
  5
406
100
AcDbEntity
  8
0
100
AcDbLine
 62
7
  6
CONTINUOUS
 10
104.4621055547
 20
180.6517394847
 11
104.4621055547
 21
180.6895723018
  0
LINE
  5
407
100
AcDbEntity
  8
ASSI
100
AcDbLine
 62
7
  6
CONTINUOUS
 10
104.4621055547
 20
179.0514832185
 11
104.4621055547
 21
180.6495380757
  0
LINE
  5
408
100
AcDbEntity
  8
ASSI
100
AcDbLine
 62
7
  6
CONTINUOUS
 10
104.4621055547
 20
180.6517394847
 11
104.4621055547
 21
180.6895723018
  0
LINE
  5
409
100
AcDbEntity
  8
DRAFT
100
AcDbLine
 62
7
  6
CONTINUOUS
 10
104.4739420643
 20
170.6953901316
 11
104.4739420643
 21
171.5232621636
  0
LINE
  5
40A
100
AcDbEntity
  8
ASSI
100
AcDbLine
 62
7
  6
CONTINUOUS
 10
104.4739420643
 20
170.6953901316
 11
104.4739420643
 21
171.5232621636
  0
LINE
  5
40B
100
AcDbEntity
  8
RACCORDO
100
AcDbLine
 62
253
  6
CONTINUOUS
 10
104.9917354267
 20
170.1633474829
 11
105.0017694095
 21
170.9848619881
  0
LINE
  5
40C
100
AcDbEntity
  8
ASSI
100
AcDbLine
 62
253
  6
CONTINUOUS
 10
104.9917354267
 20
170.1633474829
 11
105.0017694095
 21
170.9848619881
  0
LINE
  5
40D
100
AcDbEntity
  8
RACCORDO
100
AcDbLine
 62
253
  6
CONTINUOUS
 10
104.5143538888
 20
171.3953901316
 11
104.5050637641
 21
170.6809401325
  0
LINE
  5
40E
100
AcDbEntity
  8
ASSI
100
AcDbLine
 62
253
  6
CONTINUOUS
 10
104.5143538888
 20
171.3953901316
 11
104.5050637641
 21
170.6809401325
  0
LINE
  5
40F
100
AcDbEntity
  8
RACCORDO
100
AcDbLine
 62
253
  6
CONTINUOUS
 10
105.0017694095
 20
170.9848619881
 11
105.0072941711
 21
171.3953901316
  0
LINE
  5
410
100
AcDbEntity
  8
ASSI
100
AcDbLine
 62
253
  6
CONTINUOUS
 10
105.0017694095
 20
170.9848619881
 11
105.0072941711
 21
171.3953901316
  0
LINE
  5
411
100
AcDbEntity
  8
DRAFT
100
AcDbLine
 62
7
  6
CONTINUOUS
 10
104.5127893231
 20
171.6953901316
 11
104.5235317667
 21
172.1915716123
  0
LINE
  5
412
100
AcDbEntity
  8
ASSI
100
AcDbLine
 62
7
  6
CONTINUOUS
 10
104.5127893231
 20
171.6953901316
 11
104.5235317667
 21
172.1915716123
  0
LINE
  5
413
100
AcDbEntity
  8
DRAFT
100
AcDbLine
 62
7
  6
CONTINUOUS
 10
104.719367767
 20
172.2109579257
 11
104.7387973008
 21
173.1083864063
  0
LINE
  5
414
100
AcDbEntity
  8
ASSI
100
AcDbLine
 62
7
  6
CONTINUOUS
 10
104.719367767
 20
172.2109579257
 11
104.7387973008
 21
173.1083864063
  0
LINE
  5
415
100
AcDbEntity
  8
RACCORDO
100
AcDbLine
 62
7
  6
CONTINUOUS
 10
104.9547782098
 20
174.0582435703
 11
104.9161385495
 21
172.2735207882
  0
LINE
  5
416
100
AcDbEntity
  8
ASSI
100
AcDbLine
 62
7
  6
CONTINUOUS
 10
104.9547782098
 20
174.0582435703
 11
104.9161385495
 21
172.2735207882
  0
LINE
  5
417
100
AcDbEntity
  8
0
100
AcDbLine
 62
7
  6
CONTINUOUS
 10
110.5667223859
 20
176.7581695556
 11
110.6121055547
 21
176.8944297818
  0
LINE
  5
418
100
AcDbEntity
  8
ASSI
100
AcDbLine
 62
7
  6
CONTINUOUS
 10
110.5667223859
 20
176.7581695556
 11
110.6121055547
 21
176.8944297818
  0
LWPOLYLINE
  5
419
100
AcDbEntity
  8
0
100
AcDbPolyline
 62
7
  6
CONTINUOUS
 90
58
 70
0
 10
103.7724541014
 20
153.5741818646
 10
103.8944837759
 20
153.6799392437
 10
104.0116203971
 20
153.7892582548
 10
104.1238639649
 20
153.9021388978
 10
104.2312608308
 20
154.0187776467
 10
104.3337646433
 20
154.1389780275
 10
104.4312363477
 20
154.2621506179
 10
104.5233312632
 20
154.3875625158
 10
104.6103940705
 20
154.5159466233
 10
104.693319757
 20
154.6489122238
 10
104.772317485
 20
154.78594055
 10
104.8471780921
 20
154.9275503693
 10
104.9181690782
 20
155.0769072674
 10
104.9859585359
 20
155.2341827611
 10
105.0498783724
 20
155.3992053335
 10
105.1081918099
 20
155.5746260201
 10
105.1615480537
 20
155.7621247024
 10
105.2092978983
 20
155.9600214988
 10
105.2477569493
 20
156.1659277997
 10
105.2764563665
 20
156.3811881726
 10
105.2958649901
 20
156.60445805
 10
105.3037049463
 20
156.8293151198
 10
105.2993063074
 20
157.0544941571
 10
105.2833390013
 20
157.2812603869
 10
105.2555349376
 20
157.5069871716
 10
105.2156273272
 20
157.7316787948
 10
105.1638829594
 20
157.9553309729
 10
105.1008341121
 20
158.1753042182
 10
105.0263566995
 20
158.3913225642
 10
104.9405748075
 20
158.6036619774
 10
104.8443929715
 20
158.8105108693
 10
104.7380846597
 20
159.0113985125
 10
104.621376404
 20
159.2067956345
 10
104.4943523354
 20
159.3963028297
 10
104.3565994288
 20
159.5804871788
 10
104.2085307093
 20
159.7587816012
 10
104.0514693826
 20
159.9290854501
 10
103.8851446963
 20
160.091307853
 10
103.7098274028
 20
160.2455396825
 10
103.527652965
 20
160.3899529087
 10
103.3388271588
 20
160.5241741788
 10
103.1431442083
 20
160.6485768458
 10
102.9421222486
 20
160.7624529388
 10
102.735848904
 20
160.8657242021
 10
102.5242365502
 20
160.9584688915
 10
102.3085404499
 20
161.0402138032
 10
102.0891526239
 20
161.1109490022
 10
101.8656810514
 20
161.1706844236
 10
101.6382049327
 20
161.2189766686
 10
101.4057669395
 20
161.2559577726
 10
101.1693244
 20
161.2814957003
 10
100.9318284998
 20
161.2947509476
 10
100.692653564
 20
161.2952206563
 10
100.4524252673
 20
161.2834076847
 10
100.2159718192
 20
161.2599811036
 10
99.9849026226
 20
161.2251639366
 10
99.7576082746
 20
161.1787331602
 10
99.5340887751
 20
161.1206887743
  0
LINE
  5
41A
100
AcDbEntity
  8
RACCORDO
100
AcDbLine
 62
7
  6
CONTINUOUS
 10
110.6121055547
 20
136.4963504814
 11
110.486347028
 21
136.8739328699
  0
LINE
  5
41B
100
AcDbEntity
  8
ASSI
100
AcDbLine
 62
7
  6
CONTINUOUS
 10
110.6121055547
 20
136.4963504814
 11
110.486347028
 21
136.8739328699
  0
LWPOLYLINE
  5
41C
100
AcDbEntity
  8
RACCORDO
100
AcDbPolyline
 62
7
  6
CONTINUOUS
 90
19
 70
0
 10
106.6347971391
 20
152.4303951218
 10
106.635908758
 20
152.4161127345
 10
106.6387633673
 20
152.4026008113
 10
106.6433609668
 20
152.3898593522
 10
106.6498463147
 20
152.3776766531
 10
106.658074653
 20
152.3662644182
 10
106.667611707
 20
152.3562577591
 10
106.6785535299
 20
152.347725159
 10
106.6908040685
 20
152.3405981347
 10
106.7036408886
 20
152.3353063496
 10
106.7170899816
 20
152.3319719052
 10
106.7311253562
 20
152.3304726998
 10
106.7449466044
 20
152.3308720917
 10
106.7585305383
 20
152.3332758196
 10
106.7719003458
 20
152.3375781448
 10
106.7843251832
 20
152.343525209
 10
106.795561436
 20
152.3510323928
 10
106.8058527186
 20
152.3601843156
 10
106.8151990311
 20
152.3709809775
  0
LWPOLYLINE
  5
41D
100
AcDbEntity
  8
ASSI
100
AcDbPolyline
 62
7
  6
CONTINUOUS
 90
19
 70
0
 10
106.6347971391
 20
152.4303951218
 10
106.635908758
 20
152.4161127345
 10
106.6387633673
 20
152.4026008113
 10
106.6433609668
 20
152.3898593522
 10
106.6498463147
 20
152.3776766531
 10
106.658074653
 20
152.3662644182
 10
106.667611707
 20
152.3562577591
 10
106.6785535299
 20
152.347725159
 10
106.6908040685
 20
152.3405981347
 10
106.7036408886
 20
152.3353063496
 10
106.7170899816
 20
152.3319719052
 10
106.7311253562
 20
152.3304726998
 10
106.7449466044
 20
152.3308720917
 10
106.7585305383
 20
152.3332758196
 10
106.7719003458
 20
152.3375781448
 10
106.7843251832
 20
152.343525209
 10
106.795561436
 20
152.3510323928
 10
106.8058527186
 20
152.3601843156
 10
106.8151990311
 20
152.3709809775
  0
LINE
  5
41E
100
AcDbEntity
  8
RACCORDO
100
AcDbLine
 62
7
  6
CONTINUOUS
 10
107.5559376615
 20
136.8891025681
 11
107.3958715455
 21
140.1232497581
  0
LINE
  5
41F
100
AcDbEntity
  8
ASSI
100
AcDbLine
 62
7
  6
CONTINUOUS
 10
107.5559376615
 20
136.8891025681
 11
107.3958715455
 21
140.1232497581
  0
LINE
  5
420
100
AcDbEntity
  8
0
100
AcDbLine
 62
7
  6
CONTINUOUS
 10
105.3681833076
 20
132.7414978585
 11
105.3681833076
 21
134.3393123786
  0
LINE
  5
421
100
AcDbEntity
  8
ASSI
100
AcDbLine
 62
7
  6
CONTINUOUS
 10
105.3681833076
 20
132.7414978585
 11
105.3681833076
 21
134.3393123786
  0
LINE
  5
422
100
AcDbEntity
  8
0
100
AcDbLine
 62
7
  6
CONTINUOUS
 10
105.3681833076
 20
179.0514678845
 11
105.3681833076
 21
180.6492824046
  0
LINE
  5
423
100
AcDbEntity
  8
ASSI
100
AcDbLine
 62
7
  6
CONTINUOUS
 10
105.3681833076
 20
179.0514678845
 11
105.3681833076
 21
180.6492824046
  0
LINE
  5
424
100
AcDbEntity
  8
0
100
AcDbLine
 62
7
  6
CONTINUOUS
 10
105.4121055547
 20
132.6953901316
 11
105.4121055547
 21
133.3274451844
  0
LINE
  5
425
100
AcDbEntity
  8
ASSI
100
AcDbLine
 62
7
  6
CONTINUOUS
 10
105.4121055547
 20
132.6953901316
 11
105.4121055547
 21
133.3274451844
  0
LINE
  5
426
100
AcDbEntity
  8
0
100
AcDbLine
 62
7
  6
CONTINUOUS
 10
105.4121055547
 20
133.7633350788
 11
105.4121055547
 21
134.2953901316
  0
LINE
  5
427
100
AcDbEntity
  8
ASSI
100
AcDbLine
 62
7
  6
CONTINUOUS
 10
105.4121055547
 20
133.7633350788
 11
105.4121055547
 21
134.2953901316
  0
LINE
  5
428
100
AcDbEntity
  8
0
100
AcDbLine
 62
7
  6
CONTINUOUS
 10
105.4121055547
 20
179.0953901316
 11
105.4121055547
 21
179.6274451844
  0
LINE
  5
429
100
AcDbEntity
  8
ASSI
100
AcDbLine
 62
7
  6
CONTINUOUS
 10
105.4121055547
 20
179.0953901316
 11
105.4121055547
 21
179.6274451844
  0
LINE
  5
42A
100
AcDbEntity
  8
0
100
AcDbLine
 62
7
  6
CONTINUOUS
 10
105.4121055547
 20
180.0633350788
 11
105.4121055547
 21
180.6953901316
  0
LINE
  5
42B
100
AcDbEntity
  8
ASSI
100
AcDbLine
 62
7
  6
CONTINUOUS
 10
105.4121055547
 20
180.0633350788
 11
105.4121055547
 21
180.6953901316
  0
LINE
  5
42C
100
AcDbEntity
  8
0
100
AcDbLine
 62
7
  6
CONTINUOUS
 10
106.3998170733
 20
159.7765901316
 11
106.3998170733
 21
153.6141901316
  0
LINE
  5
42D
100
AcDbEntity
  8
RACCORDO
100
AcDbLine
 62
7
  6
CONTINUOUS
 10
106.6121055547
 20
161.0287369293
 11
106.6121055547
 21
152.3620433338
  0
LINE
  5
42E
100
AcDbEntity
  8
ASSI
100
AcDbLine
 62
7
  6
CONTINUOUS
 10
106.6121055547
 20
161.0287369293
 11
106.6121055547
 21
152.3620433338
  0
LINE
  5
42F
100
AcDbEntity
  8
RACCORDO
100
AcDbLine
 62
7
  6
CONTINUOUS
 10
106.6347971391
 20
160.9603851414
 11
106.6347971391
 21
152.4303951218
  0
LINE
  5
430
100
AcDbEntity
  8
ASSI
100
AcDbLine
 62
7
  6
CONTINUOUS
 10
106.6347971391
 20
160.9603851414
 11
106.6347971391
 21
152.4303951218
  0
LINE
  5
431
100
AcDbEntity
  8
RACCORDO
100
AcDbLine
 62
7
  6
CONTINUOUS
 10
107.5559376615
 20
176.501677695
 11
107.4121017808
 21
173.5954635572
  0
LINE
  5
432
100
AcDbEntity
  8
ASSI
100
AcDbLine
 62
7
  6
CONTINUOUS
 10
107.5559376615
 20
176.501677695
 11
107.4121017808
 21
173.5954635572
  0
LWPOLYLINE
  5
433
100
AcDbEntity
  8
RACCORDO
100
AcDbPolyline
 62
7
  6
CONTINUOUS
 90
16
 70
0
 10
106.6121055547
 20
161.0287369293
 10
106.6137788691
 20
161.0459104058
 10
106.6177994257
 20
161.061797667
 10
106.6241672246
 20
161.0763987129
 10
106.6331670782
 20
161.0900297591
 10
106.644514174
 20
161.10237459
 10
106.6573540749
 20
161.1124845586
 10
106.6717747133
 20
161.1202196886
 10
106.6876881566
 20
161.1257199564
 10
106.7039761704
 20
161.1284566434
 10
106.7208361898
 20
161.128137626
 10
106.7380707796
 20
161.1250550279
 10
106.7539693988
 20
161.1195565017
 10
106.767961867
 20
161.1117579318
 10
106.7806183646
 20
161.1015434338
 10
106.7919388917
 20
161.0889130077
  0
LWPOLYLINE
  5
434
100
AcDbEntity
  8
ASSI
100
AcDbPolyline
 62
7
  6
CONTINUOUS
 90
16
 70
0
 10
106.6121055547
 20
161.0287369293
 10
106.6137788691
 20
161.0459104058
 10
106.6177994257
 20
161.061797667
 10
106.6241672246
 20
161.0763987129
 10
106.6331670782
 20
161.0900297591
 10
106.644514174
 20
161.10237459
 10
106.6573540749
 20
161.1124845586
 10
106.6717747133
 20
161.1202196886
 10
106.6876881566
 20
161.1257199564
 10
106.7039761704
 20
161.1284566434
 10
106.7208361898
 20
161.128137626
 10
106.7380707796
 20
161.1250550279
 10
106.7539693988
 20
161.1195565017
 10
106.767961867
 20
161.1117579318
 10
106.7806183646
 20
161.1015434338
 10
106.7919388917
 20
161.0889130077
  0
LWPOLYLINE
  5
435
100
AcDbEntity
  8
0
100
AcDbPolyline
 62
7
  6
CONTINUOUS
 90
12
 70
0
 10
93.6786129463
 20
132.3203877033
 10
93.6843153235
 20
132.330830944
 10
93.6895143269
 20
132.3415336853
 10
93.6941981805
 20
132.3524716823
 10
93.698356276
 20
132.3636201578
 10
93.7019791964
 20
132.3749538526
 10
93.7050587364
 20
132.3864470928
 10
93.7075879224
 20
132.3980738441
 10
93.7095610288
 20
132.4098077654
 10
93.7109735889
 20
132.421622276
 10
93.7118224044
 20
132.4334906156
 10
93.7121055547
 20
132.4453859008
  0
LWPOLYLINE
  5
436
100
AcDbEntity
  8
0
100
AcDbPolyline
 62
7
  6
CONTINUOUS
 90
4
 70
0
 10
93.0909614951
 20
134.9165341912
 10
93.1381804601
 20
134.9884641844
 10
93.1624696542
 20
135.0249081037
 10
93.1872695617
 20
135.0615478622
  0
LWPOLYLINE
  5
437
100
AcDbEntity
  8
ASSI
100
AcDbPolyline
 62
7
  6
CONTINUOUS
 90
4
 70
0
 10
93.0909614951
 20
134.9165341912
 10
93.1381804601
 20
134.9884641844
 10
93.1624696542
 20
135.0249081037
 10
93.1872695617
 20
135.0615478622
  0
LINE
  5
438
100
AcDbEntity
  8
0
100
AcDbLine
 62
7
  6
CONTINUOUS
 10
93.1872695617
 20
135.0615478622
 11
93.2380560834
 21
135.1353536032
  0
LINE
  5
439
100
AcDbEntity
  8
ASSI
100
AcDbLine
 62
7
  6
CONTINUOUS
 10
93.1872695617
 20
135.0615478622
 11
93.2380560834
 21
135.1353536032
  0
LINE
  5
43A
100
AcDbEntity
  8
0
100
AcDbLine
 62
7
  6
CONTINUOUS
 10
93.2380560834
 20
135.1353536032
 11
93.2899484549
 21
135.2097353609
  0
LINE
  5
43B
100
AcDbEntity
  8
ASSI
100
AcDbLine
 62
7
  6
CONTINUOUS
 10
93.2380560834
 20
135.1353536032
 11
93.2899484549
 21
135.2097353609
  0
LINE
  5
43C
100
AcDbEntity
  8
0
100
AcDbLine
 62
7
  6
CONTINUOUS
 10
93.2899484549
 20
135.2097353609
 11
93.3424660422
 21
135.2845329115
  0
LINE
  5
43D
100
AcDbEntity
  8
ASSI
100
AcDbLine
 62
7
  6
CONTINUOUS
 10
93.2899484549
 20
135.2097353609
 11
93.3424660422
 21
135.2845329115
  0
LINE
  5
43E
100
AcDbEntity
  8
0
100
AcDbLine
 62
7
  6
CONTINUOUS
 10
106.3998170733
 20
153.6141901316
 11
100.9621055547
 21
150.4453901316
  0
LINE
  5
43F
100
AcDbEntity
  8
0
100
AcDbLine
 62
7
  6
CONTINUOUS
 10
100.9621055547
 20
162.9453901316
 11
106.3998170733
 21
159.7765901316
  0
LINE
  5
440
100
AcDbEntity
  8
0
100
AcDbLine
 62
7
  6
CONTINUOUS
 10
93.3424660422
 20
178.1062473517
 11
93.2638620569
 21
178.2182777176
  0
LINE
  5
441
100
AcDbEntity
  8
ASSI
100
AcDbLine
 62
7
  6
CONTINUOUS
 10
93.3424660422
 20
178.1062473517
 11
93.2638620569
 21
178.2182777176
  0
LWPOLYLINE
  5
442
100
AcDbEntity
  8
0
100
AcDbPolyline
 62
7
  6
CONTINUOUS
 90
5
 70
0
 10
93.2638620569
 20
178.2182777176
 10
93.2125226103
 20
178.292429911
 10
93.1872695617
 20
178.329232401
 10
93.1624696542
 20
178.3658721595
 10
93.1381804601
 20
178.4023160787
  0
LWPOLYLINE
  5
443
100
AcDbEntity
  8
ASSI
100
AcDbPolyline
 62
7
  6
CONTINUOUS
 90
5
 70
0
 10
93.2638620569
 20
178.2182777176
 10
93.2125226103
 20
178.292429911
 10
93.1872695617
 20
178.329232401
 10
93.1624696542
 20
178.3658721595
 10
93.1381804601
 20
178.4023160787
  0
LINE
  5
444
100
AcDbEntity
  8
0
100
AcDbLine
 62
7
  6
CONTINUOUS
 10
93.1381804601
 20
178.4023160787
 11
93.0909614951
 21
178.474246072
  0
LINE
  5
445
100
AcDbEntity
  8
ASSI
100
AcDbLine
 62
7
  6
CONTINUOUS
 10
93.1381804601
 20
178.4023160787
 11
93.0909614951
 21
178.474246072
  0
LWPOLYLINE
  5
446
100
AcDbEntity
  8
RACCORDO
100
AcDbPolyline
 62
7
  6
CONTINUOUS
 90
3
 70
0
 10
107.5559376615
 20
136.8891025681
 10
107.5562400143
 20
136.8807058527
 10
107.5565248222
 20
136.8688272842
  0
LWPOLYLINE
  5
447
100
AcDbEntity
  8
ASSI
100
AcDbPolyline
 62
7
  6
CONTINUOUS
 90
3
 70
0
 10
107.5559376615
 20
136.8891025681
 10
107.5562400143
 20
136.8807058527
 10
107.5565248222
 20
136.8688272842
  0
LWPOLYLINE
  5
448
100
AcDbEntity
  8
0
100
AcDbPolyline
 62
7
  6
CONTINUOUS
 90
5
 70
0
 10
108.2121055547
 20
132.4453859008
 10
108.2123887049
 20
132.4334906156
 10
108.2132375204
 20
132.421622276
 10
108.2146500805
 20
132.4098077654
 10
108.216623187
 20
132.3980738441
  0
LWPOLYLINE
  5
449
100
AcDbEntity
  8
ASSI
100
AcDbPolyline
 62
7
  6
CONTINUOUS
 90
5
 70
0
 10
108.2121055547
 20
132.4453859008
 10
108.2123887049
 20
132.4334906156
 10
108.2132375204
 20
132.421622276
 10
108.2146500805
 20
132.4098077654
 10
108.216623187
 20
132.3980738441
  0
LWPOLYLINE
  5
44A
100
AcDbEntity
  8
0
100
AcDbPolyline
 62
7
  6
CONTINUOUS
 90
34
 70
0
 10
108.2164773887
 20
132.4497577348
 10
108.2167609395
 20
132.4378627133
 10
108.2176101444
 20
132.4259946366
 10
108.2190230798
 20
132.4141803887
 10
108.2209965451
 20
132.4024467314
 10
108.2235260699
 20
132.3908202442
 10
108.2266059243
 20
132.3793272636
 10
108.2302291317
 20
132.3679938238
 10
108.2343874847
 20
132.3568455976
 10
108.2390715638
 20
132.3459078381
 10
108.2442707584
 20
132.335205322
 10
108.2499732913
 20
132.3247622927
 10
108.2561662449
 20
132.3146024061
 10
108.2628355907
 20
132.3047486766
 10
108.2699662212
 20
132.2952234251
 10
108.277541984
 20
132.2860482285
 10
108.2855457182
 20
132.2772438705
 10
108.2939592936
 20
132.2688302951
 10
108.3027636516
 20
132.2608265609
 10
108.3119388482
 20
132.2532507981
 10
108.3214640997
 20
132.2461201676
 10
108.3313178292
 20
132.2394508218
 10
108.3414777158
 20
132.2332578682
 10
108.3519207451
 20
132.2275553353
 10
108.3626232612
 20
132.2223561407
 10
108.3735610207
 20
132.2176720616
 10
108.3847092469
 20
132.2135137086
 10
108.3960426867
 20
132.2098905012
 10
108.4075356673
 20
132.2068106468
 10
108.4191621546
 20
132.204281122
 10
108.4308958118
 20
132.2023076567
 10
108.4427100597
 20
132.2008947213
 10
108.4545781364
 20
132.2000455164
 10
108.4664731579
 20
132.1997619656
  0
LWPOLYLINE
  5
44B
100
AcDbEntity
  8
ASSI
100
AcDbPolyline
 62
7
  6
CONTINUOUS
 90
34
 70
0
 10
108.2164773887
 20
132.4497577348
 10
108.2167609395
 20
132.4378627133
 10
108.2176101444
 20
132.4259946366
 10
108.2190230798
 20
132.4141803887
 10
108.2209965451
 20
132.4024467314
 10
108.2235260699
 20
132.3908202442
 10
108.2266059243
 20
132.3793272636
 10
108.2302291317
 20
132.3679938238
 10
108.2343874847
 20
132.3568455976
 10
108.2390715638
 20
132.3459078381
 10
108.2442707584
 20
132.335205322
 10
108.2499732913
 20
132.3247622927
 10
108.2561662449
 20
132.3146024061
 10
108.2628355907
 20
132.3047486766
 10
108.2699662212
 20
132.2952234251
 10
108.277541984
 20
132.2860482285
 10
108.2855457182
 20
132.2772438705
 10
108.2939592936
 20
132.2688302951
 10
108.3027636516
 20
132.2608265609
 10
108.3119388482
 20
132.2532507981
 10
108.3214640997
 20
132.2461201676
 10
108.3313178292
 20
132.2394508218
 10
108.3414777158
 20
132.2332578682
 10
108.3519207451
 20
132.2275553353
 10
108.3626232612
 20
132.2223561407
 10
108.3735610207
 20
132.2176720616
 10
108.3847092469
 20
132.2135137086
 10
108.3960426867
 20
132.2098905012
 10
108.4075356673
 20
132.2068106468
 10
108.4191621546
 20
132.204281122
 10
108.4308958118
 20
132.2023076567
 10
108.4427100597
 20
132.2008947213
 10
108.4545781364
 20
132.2000455164
 10
108.4664731579
 20
132.1997619656
  0
LINE
  5
44C
100
AcDbEntity
  8
RACCORDO
100
AcDbLine
 62
7
  6
CONTINUOUS
 10
107.5565248222
 20
136.8688272842
 11
107.5570449149
 21
136.8343253604
  0
LINE
  5
44D
100
AcDbEntity
  8
ASSI
100
AcDbLine
 62
7
  6
CONTINUOUS
 10
107.5565248222
 20
136.8688272842
 11
107.5570449149
 21
136.8343253604
  0
LINE
  5
44E
100
AcDbEntity
  8
0
100
AcDbLine
 62
253
  6
CONTINUOUS
 10
108.2164773887
 20
132.8510525643
 11
108.2121055547
 21
133.2849049834
  0
LINE
  5
44F
100
AcDbEntity
  8
ASSI
100
AcDbLine
 62
253
  6
CONTINUOUS
 10
108.2164773887
 20
132.8510525643
 11
108.2121055547
 21
133.2849049834
  0
LINE
  5
450
100
AcDbEntity
  8
0
100
AcDbLine
 62
253
  6
CONTINUOUS
 10
108.4664731579
 20
133.0675589152
 11
108.4613825568
 21
133.5727404008
  0
LINE
  5
451
100
AcDbEntity
  8
ASSI
100
AcDbLine
 62
253
  6
CONTINUOUS
 10
108.4664731579
 20
133.0675589152
 11
108.4613825568
 21
133.5727404008
  0
LINE
  5
452
100
AcDbEntity
  8
RACCORDO
100
AcDbLine
 62
7
  6
CONTINUOUS
 10
107.5570449149
 20
136.8343253604
 11
107.5576693793
 21
136.7583862241
  0
LINE
  5
453
100
AcDbEntity
  8
ASSI
100
AcDbLine
 62
7
  6
CONTINUOUS
 10
107.5570449149
 20
136.8343253604
 11
107.5576693793
 21
136.7583862241
  0
LWPOLYLINE
  5
454
100
AcDbEntity
  8
RACCORDO
100
AcDbPolyline
 62
7
  6
CONTINUOUS
 90
3
 70
0
 10
107.5576693793
 20
136.7583862241
 10
107.558076533
 20
136.6324272757
 10
107.558092263
 20
136.5994034232
  0
LWPOLYLINE
  5
455
100
AcDbEntity
  8
ASSI
100
AcDbPolyline
 62
7
  6
CONTINUOUS
 90
3
 70
0
 10
107.5576693793
 20
136.7583862241
 10
107.558076533
 20
136.6324272757
 10
107.558092263
 20
136.5994034232
  0
LINE
  5
456
100
AcDbEntity
  8
DRAFT
100
AcDbLine
 62
7
  6
CONTINUOUS
 10
108.3121093286
 20
173.5954635572
 11
108.3096442935
 21
175.8959567358
  0
LINE
  5
457
100
AcDbEntity
  8
ASSI
100
AcDbLine
 62
7
  6
CONTINUOUS
 10
108.3121093286
 20
173.5954635572
 11
108.3096442935
 21
175.8959567358
  0
LINE
  5
458
100
AcDbEntity
  8
RACCORDO
100
AcDbLine
 62
7
  6
CONTINUOUS
 10
107.4394156984
 20
176.478234519
 11
107.4394156984
 21
176.6727002753
  0
LINE
  5
459
100
AcDbEntity
  8
ASSI
100
AcDbLine
 62
7
  6
CONTINUOUS
 10
107.4394156984
 20
176.478234519
 11
107.4394156984
 21
176.6727002753
  0
LINE
  5
45A
100
AcDbEntity
  8
RACCORDO
100
AcDbLine
 62
7
  6
CONTINUOUS
 10
108.166110009
 20
177.5953901316
 11
108.166110009
 21
176.7971200209
  0
LINE
  5
45B
100
AcDbEntity
  8
ASSI
100
AcDbLine
 62
7
  6
CONTINUOUS
 10
108.166110009
 20
177.5953901316
 11
108.166110009
 21
176.7971200209
  0
LINE
  5
45C
100
AcDbEntity
  8
RACCORDO
100
AcDbLine
 62
7
  6
CONTINUOUS
 10
108.166110009
 20
136.5936602422
 11
108.166110009
 21
135.7953901316
  0
LINE
  5
45D
100
AcDbEntity
  8
ASSI
100
AcDbLine
 62
7
  6
CONTINUOUS
 10
108.166110009
 20
136.5936602422
 11
108.166110009
 21
135.7953901316
  0
LINE
  5
45E
100
AcDbEntity
  8
0
100
AcDbLine
 62
7
  6
CONTINUOUS
 10
108.2121055547
 20
180.5397276989
 11
108.2121055547
 21
180.1058752798
  0
LINE
  5
45F
100
AcDbEntity
  8
0
100
AcDbLine
 62
7
  6
CONTINUOUS
 10
108.2121055547
 20
133.2849049834
 11
108.2121055547
 21
132.8510525643
  0
LINE
  5
460
100
AcDbEntity
  8
RACCORDO
100
AcDbLine
 62
7
  6
CONTINUOUS
 10
108.2121055547
 20
133.2849049834
 11
108.2121055547
 21
134.0951766413
  0
LINE
  5
461
100
AcDbEntity
  8
ASSI
100
AcDbLine
 62
7
  6
CONTINUOUS
 10
108.2121055547
 20
132.8510525643
 11
108.2121055547
 21
134.0951766413
  0
LINE
  5
462
100
AcDbEntity
  8
RACCORDO
100
AcDbLine
 62
7
  6
CONTINUOUS
 10
108.2121055547
 20
179.2956036219
 11
108.2121055547
 21
180.1058752798
  0
LINE
  5
463
100
AcDbEntity
  8
ASSI
100
AcDbLine
 62
7
  6
CONTINUOUS
 10
108.2121055547
 20
179.2956036219
 11
108.2121055547
 21
180.5397276989
  0
LINE
  5
464
100
AcDbEntity
  8
0
100
AcDbLine
 62
7
  6
CONTINUOUS
 10
108.2164773887
 20
180.9410225284
 11
108.2164773887
 21
180.5397276989
  0
LINE
  5
465
100
AcDbEntity
  8
ASSI
100
AcDbLine
 62
7
  6
CONTINUOUS
 10
108.2164773887
 20
180.9410225284
 11
108.2164773887
 21
180.5397276989
  0
LINE
  5
466
100
AcDbEntity
  8
0
100
AcDbLine
 62
7
  6
CONTINUOUS
 10
108.2164773887
 20
132.8510525643
 11
108.2164773887
 21
132.4497577348
  0
LINE
  5
467
100
AcDbEntity
  8
ASSI
100
AcDbLine
 62
7
  6
CONTINUOUS
 10
108.2164773887
 20
132.8510525643
 11
108.2164773887
 21
132.4497577348
  0
LINE
  5
468
100
AcDbEntity
  8
RACCORDO
100
AcDbLine
 62
7
  6
CONTINUOUS
 10
108.2847954109
 20
177.4591299054
 11
108.2847954109
 21
176.478234519
  0
LINE
  5
469
100
AcDbEntity
  8
ASSI
100
AcDbLine
 62
7
  6
CONTINUOUS
 10
108.2847954109
 20
177.4591299054
 11
108.2847954109
 21
176.478234519
  0
LINE
  5
46A
100
AcDbEntity
  8
0
100
AcDbLine
 62
253
  6
CONTINUOUS
 10
108.4664731579
 20
132.1997619656
 11
108.4664731579
 21
133.0675589152
  0
LINE
  5
46B
100
AcDbEntity
  8
ASSI
100
AcDbLine
 62
253
  6
CONTINUOUS
 10
108.4664731579
 20
132.1997619656
 11
108.4664731579
 21
133.0675589152
  0
LINE
  5
46C
100
AcDbEntity
  8
0
100
AcDbLine
 62
253
  6
CONTINUOUS
 10
108.4664731579
 20
180.3232213479
 11
108.4664731579
 21
181.1910182976
  0
LINE
  5
46D
100
AcDbEntity
  8
ASSI
100
AcDbLine
 62
253
  6
CONTINUOUS
 10
108.4664731579
 20
180.3232213479
 11
108.4664731579
 21
181.1910182976
  0
LINE
  5
46E
100
AcDbEntity
  8
0
100
AcDbLine
 62
253
  6
CONTINUOUS
 10
108.5287512089
 20
178.0313770802
 11
108.5287512089
 21
177.5953901316
  0
LINE
  5
46F
100
AcDbEntity
  8
ASSI
100
AcDbLine
 62
253
  6
CONTINUOUS
 10
108.5287512089
 20
178.0313770802
 11
108.5287512089
 21
177.5953901316
  0
LINE
  5
470
100
AcDbEntity
  8
0
100
AcDbLine
 62
253
  6
CONTINUOUS
 10
108.5287512089
 20
135.7953901316
 11
108.5287512089
 21
135.3594031829
  0
LINE
  5
471
100
AcDbEntity
  8
ASSI
100
AcDbLine
 62
253
  6
CONTINUOUS
 10
108.5287512089
 20
135.7953901316
 11
108.5287512089
 21
135.3594031829
  0
LINE
  5
472
100
AcDbEntity
  8
DRAFT
100
AcDbLine
 62
7
  6
CONTINUOUS
 10
107.4121017808
 20
173.5954635572
 11
107.4145668159
 21
175.8959567358
  0
LINE
  5
473
100
AcDbEntity
  8
ASSI
100
AcDbLine
 62
7
  6
CONTINUOUS
 10
107.4121017808
 20
173.5954635572
 11
107.4145668159
 21
175.8959567358
  0
LINE
  5
474
100
AcDbEntity
  8
RACCORDO
100
AcDbLine
 62
7
  6
CONTINUOUS
 10
107.558092263
 20
176.7913768399
 11
107.5578232743
 21
176.6630864646
  0
LINE
  5
475
100
AcDbEntity
  8
ASSI
100
AcDbLine
 62
7
  6
CONTINUOUS
 10
107.558092263
 20
176.7913768399
 11
107.5578232743
 21
176.6630864646
  0
LINE
  5
476
100
AcDbEntity
  8
RACCORDO
100
AcDbLine
 62
7
  6
CONTINUOUS
 10
107.5578232743
 20
176.6630864646
 11
107.5572801996
 21
176.5790782582
  0
LINE
  5
477
100
AcDbEntity
  8
ASSI
100
AcDbLine
 62
7
  6
CONTINUOUS
 10
107.5578232743
 20
176.6630864646
 11
107.5572801996
 21
176.5790782582
  0
LINE
  5
478
100
AcDbEntity
  8
0
100
AcDbLine
 62
253
  6
CONTINUOUS
 10
108.2121055547
 20
180.1058752798
 11
108.2164773887
 21
180.5397276989
  0
LINE
  5
479
100
AcDbEntity
  8
ASSI
100
AcDbLine
 62
253
  6
CONTINUOUS
 10
108.2121055547
 20
180.1058752798
 11
108.2164773887
 21
180.5397276989
  0
LINE
  5
47A
100
AcDbEntity
  8
0
100
AcDbLine
 62
253
  6
CONTINUOUS
 10
108.4613825568
 20
179.8180398624
 11
108.4664731579
 21
180.3232213479
  0
LINE
  5
47B
100
AcDbEntity
  8
ASSI
100
AcDbLine
 62
253
  6
CONTINUOUS
 10
108.4613825568
 20
179.8180398624
 11
108.4664731579
 21
180.3232213479
  0
LWPOLYLINE
  5
47C
100
AcDbEntity
  8
RACCORDO
100
AcDbPolyline
 62
7
  6
CONTINUOUS
 90
5
 70
0
 10
107.5572801996
 20
176.5790782582
 10
107.5567920853
 20
176.5373134005
 10
107.5565248222
 20
176.5219529789
 10
107.5562400143
 20
176.5100744105
 10
107.5559376615
 20
176.501677695
  0
LWPOLYLINE
  5
47D
100
AcDbEntity
  8
ASSI
100
AcDbPolyline
 62
7
  6
CONTINUOUS
 90
5
 70
0
 10
107.5572801996
 20
176.5790782582
 10
107.5567920853
 20
176.5373134005
 10
107.5565248222
 20
176.5219529789
 10
107.5562400143
 20
176.5100744105
 10
107.5559376615
 20
176.501677695
  0
LWPOLYLINE
  5
47E
100
AcDbEntity
  8
0
100
AcDbPolyline
 62
7
  6
CONTINUOUS
 90
13
 70
0
 10
104.4621055547
 20
132.7412421875
 10
104.4623595776
 20
132.7429002421
 10
104.4631238263
 20
132.7450409371
 10
104.46440114
 20
132.7476642723
 10
104.4661925753
 20
132.7507642383
 10
104.4685003906
 20
132.7543468445
 10
104.4713310217
 20
132.7584301198
 10
104.4746852495
 20
132.7630082461
 10
104.4785671886
 20
132.7680870413
 10
104.4829956032
 20
132.7737019881
 10
104.4879736147
 20
132.7798425318
 10
104.4935099294
 20
132.786519227
 10
104.4996448256
 20
132.7937992192
  0
LWPOLYLINE
  5
47F
100
AcDbEntity
  8
ASSI
100
AcDbPolyline
 62
7
  6
CONTINUOUS
 90
13
 70
0
 10
104.4621055547
 20
132.7412421875
 10
104.4623595776
 20
132.7429002421
 10
104.4631238263
 20
132.7450409371
 10
104.46440114
 20
132.7476642723
 10
104.4661925753
 20
132.7507642383
 10
104.4685003906
 20
132.7543468445
 10
104.4713310217
 20
132.7584301198
 10
104.4746852495
 20
132.7630082461
 10
104.4785671886
 20
132.7680870413
 10
104.4829956032
 20
132.7737019881
 10
104.4879736147
 20
132.7798425318
 10
104.4935099294
 20
132.786519227
 10
104.4996448256
 20
132.7937992192
  0
LINE
  5
480
100
AcDbEntity
  8
RACCORDO
100
AcDbLine
 62
253
  6
CONTINUOUS
 10
106.6347971391
 20
152.4303952623
 11
106.6121055547
 21
152.3620432296
  0
LINE
  5
481
100
AcDbEntity
  8
ASSI
100
AcDbLine
 62
253
  6
CONTINUOUS
 10
106.6347971391
 20
152.4303952623
 11
106.6121055547
 21
152.3620432296
  0
LINE
  5
482
100
AcDbEntity
  8
RACCORDO
100
AcDbLine
 62
253
  6
CONTINUOUS
 10
106.8151991292
 20
152.3709811103
 11
106.7919388176
 21
152.3018671572
  0
LINE
  5
483
100
AcDbEntity
  8
ASSI
100
AcDbLine
 62
253
  6
CONTINUOUS
 10
106.8151991292
 20
152.3709811103
 11
106.7919388176
 21
152.3018671572
  0
LINE
  5
484
100
AcDbEntity
  8
0
100
AcDbLine
 62
7
  6
CONTINUOUS
 10
93.6724201128
 20
132.3102276257
 11
93.6786129463
 21
132.3203877033
  0
LWPOLYLINE
  5
485
100
AcDbEntity
  8
ASSI
100
AcDbPolyline
 62
7
  6
CONTINUOUS
 90
13
 70
0
 10
93.6724201128
 20
132.3102276257
 10
93.6786129463
 20
132.3203877033
 10
93.6843153235
 20
132.330830944
 10
93.6895143269
 20
132.3415336853
 10
93.6941981805
 20
132.3524716823
 10
93.698356276
 20
132.3636201578
 10
93.7019791964
 20
132.3749538526
 10
93.7050587364
 20
132.3864470928
 10
93.7075879224
 20
132.3980738441
 10
93.7095610288
 20
132.4098077654
 10
93.7109735889
 20
132.421622276
 10
93.7118224044
 20
132.4334906156
 10
93.7121055547
 20
132.4453859008
  0
LINE
  5
486
100
AcDbEntity
  8
0
100
AcDbLine
 62
7
  6
CONTINUOUS
 10
93.3424660422
 20
135.2845329115
 11
93.3954599005
 21
135.3594031829
  0
LINE
  5
487
100
AcDbEntity
  8
ASSI
100
AcDbLine
 62
7
  6
CONTINUOUS
 10
93.3424660422
 20
135.2845329115
 11
93.3954599005
 21
135.3594031829
  0
LWPOLYLINE
  5
488
100
AcDbEntity
  8
RACCORDO
100
AcDbPolyline
 62
7
  6
CONTINUOUS
 90
16
 70
0
 10
106.7919394081
 20
152.3018676709
 10
106.7803015125
 20
152.289178976
 10
106.7675533757
 20
152.2789222349
 10
106.7536949978
 20
152.2710974478
 10
106.7383062376
 20
152.2656197745
 10
106.7218072362
 20
152.2625740551
 10
106.7054584168
 20
152.26221481
 10
106.6892744019
 20
152.2647110346
 10
106.6732405689
 20
152.2698937335
 10
106.6585734744
 20
152.277510441
 10
106.6452934508
 20
152.2879131721
 10
106.6333801656
 20
152.3007499118
 10
106.6239891775
 20
152.3147121489
 10
106.6175056728
 20
152.3293637131
 10
106.6135444652
 20
152.3451407748
 10
106.6121055547
 20
152.3620433338
  0
LWPOLYLINE
  5
489
100
AcDbEntity
  8
ASSI
100
AcDbPolyline
 62
7
  6
CONTINUOUS
 90
16
 70
0
 10
106.7919394081
 20
152.3018676709
 10
106.7803015125
 20
152.289178976
 10
106.7675533757
 20
152.2789222349
 10
106.7536949978
 20
152.2710974478
 10
106.7383062376
 20
152.2656197745
 10
106.7218072362
 20
152.2625740551
 10
106.7054584168
 20
152.26221481
 10
106.6892744019
 20
152.2647110346
 10
106.6732405689
 20
152.2698937335
 10
106.6585734744
 20
152.277510441
 10
106.6452934508
 20
152.2879131721
 10
106.6333801656
 20
152.3007499118
 10
106.6239891775
 20
152.3147121489
 10
106.6175056728
 20
152.3293637131
 10
106.6135444652
 20
152.3451407748
 10
106.6121055547
 20
152.3620433338
  0
LWPOLYLINE
  5
48A
100
AcDbEntity
  8
RACCORDO
100
AcDbPolyline
 62
7
  6
CONTINUOUS
 90
19
 70
0
 10
106.8151987045
 20
161.0197995755
 10
106.8057950205
 20
161.0306492497
 10
106.7954433017
 20
161.039835588
 10
106.7841435482
 20
161.0473585905
 10
106.7716414586
 20
161.0532998923
 10
106.7581913343
 20
161.0575778582
 10
106.7445560789
 20
161.0599475828
 10
106.7307278989
 20
161.0602985144
 10
106.7167145879
 20
161.0587412046
 10
106.7033024298
 20
161.0553624025
 10
106.6905207405
 20
161.0500504068
 10
106.678340204
 20
161.0429169189
 10
106.6674591567
 20
161.0343837917
 10
106.6579645133
 20
161.024378723
 10
106.649769359
 20
161.0129740151
 10
106.6433112853
 20
161.000808427
 10
106.638736156
 20
160.9880948786
 10
106.6358981073
 20
160.97462045
 10
106.6347971391
 20
160.9603851414
  0
LWPOLYLINE
  5
48B
100
AcDbEntity
  8
ASSI
100
AcDbPolyline
 62
7
  6
CONTINUOUS
 90
19
 70
0
 10
106.8151987045
 20
161.0197995755
 10
106.8057950205
 20
161.0306492497
 10
106.7954433017
 20
161.039835588
 10
106.7841435482
 20
161.0473585905
 10
106.7716414586
 20
161.0532998923
 10
106.7581913343
 20
161.0575778582
 10
106.7445560789
 20
161.0599475828
 10
106.7307278989
 20
161.0602985144
 10
106.7167145879
 20
161.0587412046
 10
106.7033024298
 20
161.0553624025
 10
106.6905207405
 20
161.0500504068
 10
106.678340204
 20
161.0429169189
 10
106.6674591567
 20
161.0343837917
 10
106.6579645133
 20
161.024378723
 10
106.649769359
 20
161.0129740151
 10
106.6433112853
 20
161.000808427
 10
106.638736156
 20
160.9880948786
 10
106.6358981073
 20
160.97462045
 10
106.6347971391
 20
160.9603851414
  0
LINE
  5
48C
100
AcDbEntity
  8
RACCORDO
100
AcDbLine
 62
7
  6
CONTINUOUS
 10
97.1854138086
 20
173.1083864063
 11
97.107785125
 21
173.201965313
  0
LINE
  5
48D
100
AcDbEntity
  8
ASSI
100
AcDbLine
 62
7
  6
CONTINUOUS
 10
97.1854138086
 20
173.1083864063
 11
97.107785125
 21
173.201965313
  0
LINE
  5
48E
100
AcDbEntity
  8
0
100
AcDbLine
 62
7
  6
CONTINUOUS
 10
93.3954599005
 20
178.0313770802
 11
93.3424660422
 21
178.1062473517
  0
LINE
  5
48F
100
AcDbEntity
  8
ASSI
100
AcDbLine
 62
7
  6
CONTINUOUS
 10
93.3954599005
 20
178.0313770802
 11
93.3424660422
 21
178.1062473517
  0
LWPOLYLINE
  5
490
100
AcDbEntity
  8
0
100
AcDbPolyline
 62
7
  6
CONTINUOUS
 90
10
 70
0
 10
93.6724201128
 20
181.0805526375
 10
93.6657508502
 20
181.0904065367
 10
93.6586202654
 20
181.0999319354
 10
93.6510445136
 20
181.1091072506
 10
93.6430407552
 20
181.1179116977
 10
93.6346271208
 20
181.1263253321
 10
93.6258226737
 20
181.1343290904
 10
93.6166473585
 20
181.1419048423
 10
93.6071219598
 20
181.1490354271
 10
93.5972680606
 20
181.1557046897
  0
LWPOLYLINE
  5
491
100
AcDbEntity
  8
ASSI
100
AcDbPolyline
 62
7
  6
CONTINUOUS
 90
10
 70
0
 10
93.6724201128
 20
181.0805526375
 10
93.6657508502
 20
181.0904065367
 10
93.6586202654
 20
181.0999319354
 10
93.6510445136
 20
181.1091072506
 10
93.6430407552
 20
181.1179116977
 10
93.6346271208
 20
181.1263253321
 10
93.6258226737
 20
181.1343290904
 10
93.6166473585
 20
181.1419048423
 10
93.6071219598
 20
181.1490354271
 10
93.5972680606
 20
181.1557046897
  0
LINE
  5
492
100
AcDbEntity
  8
0
100
AcDbLine
 62
7
  6
CONTINUOUS
 10
93.6786129463
 20
181.0703925598
 11
93.6724201128
 21
181.0805526375
  0
LINE
  5
493
100
AcDbEntity
  8
RACCORDO
100
AcDbLine
 62
253
  6
CONTINUOUS
 10
106.8151991292
 20
161.0197991528
 11
106.7919388176
 21
161.088913106
  0
LINE
  5
494
100
AcDbEntity
  8
ASSI
100
AcDbLine
 62
253
  6
CONTINUOUS
 10
106.8151991292
 20
161.0197991528
 11
106.7919388176
 21
161.088913106
  0
LINE
  5
495
100
AcDbEntity
  8
RACCORDO
100
AcDbLine
 62
253
  6
CONTINUOUS
 10
106.6347971391
 20
160.9603850009
 11
106.6121055547
 21
161.0287370336
  0
LINE
  5
496
100
AcDbEntity
  8
ASSI
100
AcDbLine
 62
253
  6
CONTINUOUS
 10
106.6347971391
 20
160.9603850009
 11
106.6121055547
 21
161.0287370336
  0
LINE
  5
497
100
AcDbEntity
  8
RACCORDO
100
AcDbLine
 62
7
  6
CONTINUOUS
 10
108.1682734479
 20
176.501677695
 11
108.3121093286
 21
173.5954635572
  0
LINE
  5
498
100
AcDbEntity
  8
ASSI
100
AcDbLine
 62
7
  6
CONTINUOUS
 10
108.1682734479
 20
176.501677695
 11
108.3121093286
 21
173.5954635572
  0
LWPOLYLINE
  5
499
100
AcDbEntity
  8
0
100
AcDbPolyline
 62
253
  6
CONTINUOUS
 90
34
 70
0
 10
108.2164773887
 20
180.5397276989
 10
108.2167940394
 20
180.5294449313
 10
108.2176742012
 20
180.5191853714
 10
108.2191158875
 20
180.5089721743
 10
108.2211158445
 20
180.4988283906
 10
108.2236695585
 20
180.4887769142
 10
108.2267712659
 20
180.4788404307
 10
108.2304139663
 20
180.4690413662
 10
108.2345894384
 20
180.4594018365
 10
108.2392882583
 20
180.4499435976
 10
108.2444998211
 20
180.4406879961
 10
108.2502123646
 20
180.4316559214
 10
108.256412996
 20
180.4228677583
 10
108.2630877207
 20
180.4143433411
 10
108.2702214744
 20
180.4061019091
 10
108.2777981565
 20
180.3981620626
 10
108.285800667
 20
180.3905417213
 10
108.2942109446
 20
180.383258084
 10
108.3030100078
 20
180.3763275894
 10
108.3121779977
 20
180.3697658791
 10
108.3216942227
 20
180.3635877627
 10
108.3315372052
 20
180.3578071837
 10
108.3416847301
 20
180.3524371885
 10
108.3521138952
 20
180.347489897
 10
108.3628011623
 20
180.3429764748
 10
108.3737224111
 20
180.3389071085
 10
108.3848529928
 20
180.3352909825
 10
108.3961677864
 20
180.332136258
 10
108.407641255
 20
180.3294500551
 10
108.4192475038
 20
180.3272384365
 10
108.4309603381
 20
180.3255063936
 10
108.4427533227
 20
180.3242578355
 10
108.4545998416
 20
180.3234955801
 10
108.4664731579
 20
180.3232213479
  0
LWPOLYLINE
  5
49A
100
AcDbEntity
  8
ASSI
100
AcDbPolyline
 62
253
  6
CONTINUOUS
 90
34
 70
0
 10
108.2164773887
 20
180.5397276989
 10
108.2167940394
 20
180.5294449313
 10
108.2176742012
 20
180.5191853714
 10
108.2191158875
 20
180.5089721743
 10
108.2211158445
 20
180.4988283906
 10
108.2236695585
 20
180.4887769142
 10
108.2267712659
 20
180.4788404307
 10
108.2304139663
 20
180.4690413662
 10
108.2345894384
 20
180.4594018365
 10
108.2392882583
 20
180.4499435976
 10
108.2444998211
 20
180.4406879961
 10
108.2502123646
 20
180.4316559214
 10
108.256412996
 20
180.4228677583
 10
108.2630877207
 20
180.4143433411
 10
108.2702214744
 20
180.4061019091
 10
108.2777981565
 20
180.3981620626
 10
108.285800667
 20
180.3905417213
 10
108.2942109446
 20
180.383258084
 10
108.3030100078
 20
180.3763275894
 10
108.3121779977
 20
180.3697658791
 10
108.3216942227
 20
180.3635877627
 10
108.3315372052
 20
180.3578071837
 10
108.3416847301
 20
180.3524371885
 10
108.3521138952
 20
180.347489897
 10
108.3628011623
 20
180.3429764748
 10
108.3737224111
 20
180.3389071085
 10
108.3848529928
 20
180.3352909825
 10
108.3961677864
 20
180.332136258
 10
108.407641255
 20
180.3294500551
 10
108.4192475038
 20
180.3272384365
 10
108.4309603381
 20
180.3255063936
 10
108.4427533227
 20
180.3242578355
 10
108.4545998416
 20
180.3234955801
 10
108.4664731579
 20
180.3232213479
  0
LWPOLYLINE
  5
49B
100
AcDbEntity
  8
0
100
AcDbPolyline
 62
253
  6
CONTINUOUS
 90
34
 70
0
 10
111.1077337207
 20
132.8510525643
 10
111.1074170587
 20
132.8613355254
 10
111.1065368645
 20
132.8715952775
 10
111.1050951246
 20
132.8818086643
 10
111.1030950945
 20
132.8919526281
 10
111.1005412876
 20
132.9020042795
 10
111.0974394622
 20
132.9119409482
 10
111.0937966115
 20
132.9217402186
 10
111.0896209585
 20
132.9313799598
 10
111.0849219363
 20
132.9408383929
 10
111.0797101562
 20
132.9500941621
 10
111.0739973786
 20
132.9591263853
 10
111.0677964954
 20
132.9679146804
 10
111.0611215017
 20
132.976439213
 10
111.0539874642
 20
132.9846807418
 10
111.0464104847
 20
132.9926206657
 10
111.0384076651
 20
133.0002410638
 10
111.029997068
 20
133.0075247369
 10
111.0211976754
 20
133.0144552466
 10
111.0120293495
 20
133.0210169492
 10
111.0025127821
 20
133.027195036
 10
110.9926694459
 20
133.0329755662
 10
110.9825215445
 20
133.0383454988
 10
110.9720919936
 20
133.0432927051
 10
110.961404366
 20
133.0478060051
 10
110.9504828061
 20
133.0518752081
 10
110.9393519463
 20
133.0554911419
 10
110.9280368827
 20
133.0586456558
 10
110.9165628607
 20
133.0613316921
 10
110.9049560633
 20
133.0635431021
 10
110.8932435544
 20
133.0652747846
 10
110.8814520775
 20
133.0665229133
 10
110.8696079667
 20
133.0672848272
 10
110.8577379515
 20
133.0675589152
  0
LWPOLYLINE
  5
49C
100
AcDbEntity
  8
ASSI
100
AcDbPolyline
 62
253
  6
CONTINUOUS
 90
34
 70
0
 10
111.1077337207
 20
132.8510525643
 10
111.1074170587
 20
132.8613355254
 10
111.1065368645
 20
132.8715952775
 10
111.1050951246
 20
132.8818086643
 10
111.1030950945
 20
132.8919526281
 10
111.1005412876
 20
132.9020042795
 10
111.0974394622
 20
132.9119409482
 10
111.0937966115
 20
132.9217402186
 10
111.0896209585
 20
132.9313799598
 10
111.0849219363
 20
132.9408383929
 10
111.0797101562
 20
132.9500941621
 10
111.0739973786
 20
132.9591263853
 10
111.0677964954
 20
132.9679146804
 10
111.0611215017
 20
132.976439213
 10
111.0539874642
 20
132.9846807418
 10
111.0464104847
 20
132.9926206657
 10
111.0384076651
 20
133.0002410638
 10
111.029997068
 20
133.0075247369
 10
111.0211976754
 20
133.0144552466
 10
111.0120293495
 20
133.0210169492
 10
111.0025127821
 20
133.027195036
 10
110.9926694459
 20
133.0329755662
 10
110.9825215445
 20
133.0383454988
 10
110.9720919936
 20
133.0432927051
 10
110.961404366
 20
133.0478060051
 10
110.9504828061
 20
133.0518752081
 10
110.9393519463
 20
133.0554911419
 10
110.9280368827
 20
133.0586456558
 10
110.9165628607
 20
133.0613316921
 10
110.9049560633
 20
133.0635431021
 10
110.8932435544
 20
133.0652747846
 10
110.8814520775
 20
133.0665229133
 10
110.8696079667
 20
133.0672848272
 10
110.8577379515
 20
133.0675589152
  0
LINE
  5
49D
100
AcDbEntity
  8
RACCORDO
100
AcDbLine
 62
7
  6
CONTINUOUS
 10
109.1080725599
 20
172.2735207882
 11
109.0694328995
 21
174.0582435703
  0
LINE
  5
49E
100
AcDbEntity
  8
ASSI
100
AcDbLine
 62
7
  6
CONTINUOUS
 10
109.1080725599
 20
172.2735207882
 11
109.0694328995
 21
174.0582435703
  0
LINE
  5
49F
100
AcDbEntity
  8
DRAFT
100
AcDbLine
 62
7
  6
CONTINUOUS
 10
109.2854138086
 20
173.1083864063
 11
109.3048433424
 21
172.2109579257
  0
LINE
  5
4A0
100
AcDbEntity
  8
ASSI
100
AcDbLine
 62
7
  6
CONTINUOUS
 10
109.2854138086
 20
173.1083864063
 11
109.3048433424
 21
172.2109579257
  0
LINE
  5
4A1
100
AcDbEntity
  8
0
100
AcDbLine
 62
253
  6
CONTINUOUS
 10
109.0286750565
 20
178.2788206298
 11
109.0286750565
 21
177.5953901316
  0
LINE
  5
4A2
100
AcDbEntity
  8
ASSI
100
AcDbLine
 62
253
  6
CONTINUOUS
 10
109.0286750565
 20
178.2788206298
 11
109.0286750565
 21
177.5953901316
  0
LINE
  5
4A3
100
AcDbEntity
  8
0
100
AcDbLine
 62
253
  6
CONTINUOUS
 10
109.0286750565
 20
135.7953901316
 11
109.0286750565
 21
135.1119596334
  0
LINE
  5
4A4
100
AcDbEntity
  8
ASSI
100
AcDbLine
 62
253
  6
CONTINUOUS
 10
109.0286750565
 20
135.7953901316
 11
109.0286750565
 21
135.1119596334
  0
LINE
  5
4A5
100
AcDbEntity
  8
0
100
AcDbLine
 62
7
  6
CONTINUOUS
 10
109.2121055547
 20
178.0953901316
 11
109.2121055547
 21
177.5953901316
  0
LINE
  5
4A6
100
AcDbEntity
  8
ASSI
100
AcDbLine
 62
7
  6
CONTINUOUS
 10
109.2121055547
 20
178.0953901316
 11
109.2121055547
 21
177.5953901316
  0
LINE
  5
4A7
100
AcDbEntity
  8
0
100
AcDbLine
 62
7
  6
CONTINUOUS
 10
109.2121055547
 20
135.7953901316
 11
109.2121055547
 21
135.2953901316
  0
LINE
  5
4A8
100
AcDbEntity
  8
ASSI
100
AcDbLine
 62
7
  6
CONTINUOUS
 10
109.2121055547
 20
135.7953901316
 11
109.2121055547
 21
135.2953901316
  0
LINE
  5
4A9
100
AcDbEntity
  8
DRAFT
100
AcDbLine
 62
7
  6
CONTINUOUS
 10
109.4621055547
 20
169.2086577737
 11
109.4621055547
 21
172.1953901316
  0
LINE
  5
4AA
100
AcDbEntity
  8
ASSI
100
AcDbLine
 62
7
  6
CONTINUOUS
 10
109.4621055547
 20
169.2086577737
 11
109.4621055547
 21
172.1953901316
  0
LWPOLYLINE
  5
4AB
100
AcDbEntity
  8
0
100
AcDbPolyline
 62
253
  6
CONTINUOUS
 90
34
 70
0
 10
108.2164773887
 20
132.8510525643
 10
108.2167935159
 20
132.8613263421
 10
108.2176724281
 20
132.8715792525
 10
108.2191125197
 20
132.8817881624
 10
108.2211110856
 20
132.8919307617
 10
108.2236639015
 20
132.9019833513
 10
108.2267648216
 20
132.9119209719
 10
108.2304065296
 20
132.9217204042
 10
108.234581035
 20
132.93136034
 10
108.2392790156
 20
132.9408192105
 10
108.2444899721
 20
132.9500757775
 10
108.2502021133
 20
132.959109006
 10
108.2564024456
 20
132.9678983173
 10
108.2630769216
 20
132.976423809
 10
108.2702105194
 20
132.9846663029
 10
108.2777871534
 20
132.9926072102
 10
108.2857897357
 20
133.0002286148
 10
108.294200194
 20
133.0075132991
 10
108.3029995264
 20
133.0144448024
 10
108.3121678632
 20
133.0210074735
 10
108.321684515
 20
133.0271865035
 10
108.3315280001
 20
133.0329679447
 10
108.3416760989
 20
133.0383387467
 10
108.3521059038
 20
133.0432867857
 10
108.3627938712
 20
133.0478008922
 10
108.3737158878
 20
133.0518708811
 10
108.384847287
 20
133.0554875594
 10
108.3961629014
 20
133.058642753
 10
108.4076371593
 20
133.0613293388
 10
108.419244185
 20
133.0635412654
 10
108.4309578187
 20
133.0652735501
 10
108.4427516336
 20
133.066522284
 10
108.4545989942
 20
133.067284646
 10
108.4664731579
 20
133.0675589152
  0
LWPOLYLINE
  5
4AC
100
AcDbEntity
  8
ASSI
100
AcDbPolyline
 62
253
  6
CONTINUOUS
 90
34
 70
0
 10
108.2164773887
 20
132.8510525643
 10
108.2167935159
 20
132.8613263421
 10
108.2176724281
 20
132.8715792525
 10
108.2191125197
 20
132.8817881624
 10
108.2211110856
 20
132.8919307617
 10
108.2236639015
 20
132.9019833513
 10
108.2267648216
 20
132.9119209719
 10
108.2304065296
 20
132.9217204042
 10
108.234581035
 20
132.93136034
 10
108.2392790156
 20
132.9408192105
 10
108.2444899721
 20
132.9500757775
 10
108.2502021133
 20
132.959109006
 10
108.2564024456
 20
132.9678983173
 10
108.2630769216
 20
132.976423809
 10
108.2702105194
 20
132.9846663029
 10
108.2777871534
 20
132.9926072102
 10
108.2857897357
 20
133.0002286148
 10
108.294200194
 20
133.0075132991
 10
108.3029995264
 20
133.0144448024
 10
108.3121678632
 20
133.0210074735
 10
108.321684515
 20
133.0271865035
 10
108.3315280001
 20
133.0329679447
 10
108.3416760989
 20
133.0383387467
 10
108.3521059038
 20
133.0432867857
 10
108.3627938712
 20
133.0478008922
 10
108.3737158878
 20
133.0518708811
 10
108.384847287
 20
133.0554875594
 10
108.3961629014
 20
133.058642753
 10
108.4076371593
 20
133.0613293388
 10
108.419244185
 20
133.0635412654
 10
108.4309578187
 20
133.0652735501
 10
108.4427516336
 20
133.066522284
 10
108.4545989942
 20
133.067284646
 10
108.4664731579
 20
133.0675589152
  0
LWPOLYLINE
  5
4AD
100
AcDbEntity
  8
0
100
AcDbPolyline
 62
253
  6
CONTINUOUS
 90
34
 70
0
 10
111.1077337207
 20
180.5397276989
 10
111.10741707
 20
180.5294449313
 10
111.1065369082
 20
180.5191853714
 10
111.1050952219
 20
180.5089721743
 10
111.1030952649
 20
180.4988283906
 10
111.1005415509
 20
180.4887769142
 10
111.0974398435
 20
180.4788404307
 10
111.0937971431
 20
180.4690413662
 10
111.089621671
 20
180.4594018365
 10
111.0849228511
 20
180.4499435976
 10
111.0797112883
 20
180.4406879961
 10
111.0739987447
 20
180.4316559214
 10
111.0677981134
 20
180.4228677583
 10
111.0611233886
 20
180.4143433411
 10
111.053989635
 20
180.4061019091
 10
111.0464129529
 20
180.3981620626
 10
111.0384104424
 20
180.3905417213
 10
111.0300001648
 20
180.383258084
 10
111.0212011016
 20
180.3763275894
 10
111.0120331117
 20
180.3697658791
 10
111.0025168867
 20
180.3635877627
 10
110.9926739042
 20
180.3578071837
 10
110.9825263793
 20
180.3524371885
 10
110.9720972142
 20
180.347489897
 10
110.961409947
 20
180.3429764748
 10
110.9504886983
 20
180.3389071085
 10
110.9393581166
 20
180.3352909825
 10
110.928043323
 20
180.332136258
 10
110.9165698544
 20
180.3294500551
 10
110.9049636056
 20
180.3272384365
 10
110.8932507713
 20
180.3255063936
 10
110.8814577866
 20
180.3242578355
 10
110.8696112677
 20
180.3234955801
 10
110.8577379515
 20
180.3232213479
  0
LWPOLYLINE
  5
4AE
100
AcDbEntity
  8
ASSI
100
AcDbPolyline
 62
253
  6
CONTINUOUS
 90
34
 70
0
 10
111.1077337207
 20
180.5397276989
 10
111.10741707
 20
180.5294449313
 10
111.1065369082
 20
180.5191853714
 10
111.1050952219
 20
180.5089721743
 10
111.1030952649
 20
180.4988283906
 10
111.1005415509
 20
180.4887769142
 10
111.0974398435
 20
180.4788404307
 10
111.0937971431
 20
180.4690413662
 10
111.089621671
 20
180.4594018365
 10
111.0849228511
 20
180.4499435976
 10
111.0797112883
 20
180.4406879961
 10
111.0739987447
 20
180.4316559214
 10
111.0677981134
 20
180.4228677583
 10
111.0611233886
 20
180.4143433411
 10
111.053989635
 20
180.4061019091
 10
111.0464129529
 20
180.3981620626
 10
111.0384104424
 20
180.3905417213
 10
111.0300001648
 20
180.383258084
 10
111.0212011016
 20
180.3763275894
 10
111.0120331117
 20
180.3697658791
 10
111.0025168867
 20
180.3635877627
 10
110.9926739042
 20
180.3578071837
 10
110.9825263793
 20
180.3524371885
 10
110.9720972142
 20
180.347489897
 10
110.961409947
 20
180.3429764748
 10
110.9504886983
 20
180.3389071085
 10
110.9393581166
 20
180.3352909825
 10
110.928043323
 20
180.332136258
 10
110.9165698544
 20
180.3294500551
 10
110.9049636056
 20
180.3272384365
 10
110.8932507713
 20
180.3255063936
 10
110.8814577866
 20
180.3242578355
 10
110.8696112677
 20
180.3234955801
 10
110.8577379515
 20
180.3232213479
  0
LINE
  5
4AF
100
AcDbEntity
  8
RACCORDO
100
AcDbLine
 62
7
  6
CONTINUOUS
 10
108.1682734479
 20
136.8891025681
 11
108.3283395639
 21
140.1232497581
  0
LINE
  5
4B0
100
AcDbEntity
  8
ASSI
100
AcDbLine
 62
7
  6
CONTINUOUS
 10
108.1682734479
 20
136.8891025681
 11
108.3283395639
 21
140.1232497581
  0
LINE
  5
4B1
100
AcDbEntity
  8
RACCORDO
100
AcDbLine
 62
7
  6
CONTINUOUS
 10
110.4742105418
 20
172.8953901316
 11
110.4993863804
 21
173.201965313
  0
LINE
  5
4B2
100
AcDbEntity
  8
ASSI
100
AcDbLine
 62
7
  6
CONTINUOUS
 10
110.4742105418
 20
172.8953901316
 11
110.4993863804
 21
173.201965313
  0
LINE
  5
4B3
100
AcDbEntity
  8
RACCORDO
100
AcDbLine
 62
7
  6
CONTINUOUS
 10
94.366110009
 20
136.5993945859
 11
94.5180338944
 21
136.7513184713
  0
LINE
  5
4B4
100
AcDbEntity
  8
ASSI
100
AcDbLine
 62
7
  6
CONTINUOUS
 10
94.366110009
 20
136.5993945859
 11
94.5180338944
 21
136.7513184713
  0
LINE
  5
4B5
100
AcDbEntity
  8
RACCORDO
100
AcDbLine
 62
7
  6
CONTINUOUS
 10
94.3661188463
 20
176.7913768399
 11
94.4847954109
 21
176.6727002753
  0
LINE
  5
4B6
100
AcDbEntity
  8
ASSI
100
AcDbLine
 62
7
  6
CONTINUOUS
 10
94.3661188463
 20
176.7913768399
 11
94.4847954109
 21
176.6727002753
  0
LWPOLYLINE
  5
4B7
100
AcDbEntity
  8
0
100
AcDbPolyline
 62
7
  6
CONTINUOUS
 90
34
 70
0
 10
111.1077337207
 20
180.9410225284
 10
111.1074500918
 20
180.9529191873
 10
111.1066006517
 20
180.9647889056
 10
111.1051873229
 20
180.9766047879
 10
111.1032133043
 20
180.9883400676
 10
111.1006830673
 20
180.9999681469
 10
111.0976023487
 20
181.011462658
 10
111.0939781315
 20
181.0227975505
 10
111.0898186272
 20
181.0339471468
 10
111.0851332629
 20
181.0448861803
 10
111.0799326553
 20
181.0555898668
 10
111.07422859
 20
181.066033952
 10
111.0680339977
 20
181.0761947642
 10
111.0613629176
 20
181.0860492803
 10
111.0542304666
 20
181.0955751745
 10
111.0466528101
 20
181.1047508615
 10
111.0386471159
 20
181.113555557
 10
111.0302315297
 20
181.1219693086
 10
111.0214251381
 20
181.1299730402
 10
111.0122479249
 20
181.1375486011
 10
111.0027206634
 20
181.1446788544
 10
110.9928648787
 20
181.1513476917
 10
110.9827028031
 20
181.1575400541
 10
110.9722575496
 20
181.1632418426
 10
110.9615530148
 20
181.1684400279
 10
110.9506136137
 20
181.1731228015
 10
110.9394640017
 20
181.1772796559
 10
110.9281292366
 20
181.1809012656
 10
110.916633271
 20
181.1839798443
 10
110.9050038357
 20
181.1865078342
 10
110.8932723411
 20
181.1884787802
 10
110.8814671656
 20
181.1898887761
 10
110.869613423
 20
181.1907356779
 10
110.8577379515
 20
181.1910182976
  0
LWPOLYLINE
  5
4B8
100
AcDbEntity
  8
ASSI
100
AcDbPolyline
 62
7
  6
CONTINUOUS
 90
34
 70
0
 10
111.1077337207
 20
180.9410225284
 10
111.1074500918
 20
180.9529191873
 10
111.1066006517
 20
180.9647889056
 10
111.1051873229
 20
180.9766047879
 10
111.1032133043
 20
180.9883400676
 10
111.1006830673
 20
180.9999681469
 10
111.0976023487
 20
181.011462658
 10
111.0939781315
 20
181.0227975505
 10
111.0898186272
 20
181.0339471468
 10
111.0851332629
 20
181.0448861803
 10
111.0799326553
 20
181.0555898668
 10
111.07422859
 20
181.066033952
 10
111.0680339977
 20
181.0761947642
 10
111.0613629176
 20
181.0860492803
 10
111.0542304666
 20
181.0955751745
 10
111.0466528101
 20
181.1047508615
 10
111.0386471159
 20
181.113555557
 10
111.0302315297
 20
181.1219693086
 10
111.0214251381
 20
181.1299730402
 10
111.0122479249
 20
181.1375486011
 10
111.0027206634
 20
181.1446788544
 10
110.9928648787
 20
181.1513476917
 10
110.9827028031
 20
181.1575400541
 10
110.9722575496
 20
181.1632418426
 10
110.9615530148
 20
181.1684400279
 10
110.9506136137
 20
181.1731228015
 10
110.9394640017
 20
181.1772796559
 10
110.9281292366
 20
181.1809012656
 10
110.916633271
 20
181.1839798443
 10
110.9050038357
 20
181.1865078342
 10
110.8932723411
 20
181.1884787802
 10
110.8814671656
 20
181.1898887761
 10
110.869613423
 20
181.1907356779
 10
110.8577379515
 20
181.1910182976
  0
LWPOLYLINE
  5
4B9
100
AcDbEntity
  8
0
100
AcDbPolyline
 62
7
  6
CONTINUOUS
 90
5
 70
0
 10
111.1121055547
 20
180.9453943624
 10
111.1118224044
 20
180.9572896476
 10
111.1109735889
 20
180.9691579871
 10
111.1095610288
 20
180.9809724977
 10
111.1075879224
 20
180.9927064191
  0
LWPOLYLINE
  5
4BA
100
AcDbEntity
  8
ASSI
100
AcDbPolyline
 62
7
  6
CONTINUOUS
 90
5
 70
0
 10
111.1121055547
 20
180.9453943624
 10
111.1118224044
 20
180.9572896476
 10
111.1109735889
 20
180.9691579871
 10
111.1095610288
 20
180.9809724977
 10
111.1075879224
 20
180.9927064191
  0
LINE
  5
4BB
100
AcDbEntity
  8
0
100
AcDbLine
 62
7
  6
CONTINUOUS
 10
112.1121055547
 20
135.124257645
 11
112.1125418981
 21
135.0953901316
  0
LINE
  5
4BC
100
AcDbEntity
  8
ASSI
100
AcDbLine
 62
7
  6
CONTINUOUS
 10
112.1121055547
 20
135.124257645
 11
112.1125418981
 21
135.0953901316
  0
LINE
  5
4BD
100
AcDbEntity
  8
0
100
AcDbLine
 62
253
  6
CONTINUOUS
 10
110.8577379515
 20
180.3232213479
 11
110.8628285526
 21
179.8180398624
  0
LINE
  5
4BE
100
AcDbEntity
  8
ASSI
100
AcDbLine
 62
253
  6
CONTINUOUS
 10
110.8577379515
 20
180.3232213479
 11
110.8628285526
 21
179.8180398624
  0
LINE
  5
4BF
100
AcDbEntity
  8
0
100
AcDbLine
 62
253
  6
CONTINUOUS
 10
111.1077337207
 20
180.5397276989
 11
111.1121055547
 21
180.1058752798
  0
LINE
  5
4C0
100
AcDbEntity
  8
ASSI
100
AcDbLine
 62
253
  6
CONTINUOUS
 10
111.1077337207
 20
180.5397276989
 11
111.1121055547
 21
180.1058752798
  0
LINE
  5
4C1
100
AcDbEntity
  8
DRAFT
100
AcDbLine
 62
7
  6
CONTINUOUS
 10
110.4621055547
 20
172.8953901316
 11
110.4600068239
 21
173.1083864063
  0
LINE
  5
4C2
100
AcDbEntity
  8
ASSI
100
AcDbLine
 62
7
  6
CONTINUOUS
 10
110.4621055547
 20
172.8953901316
 11
110.4600068239
 21
173.1083864063
  0
LINE
  5
4C3
100
AcDbEntity
  8
RACCORDO
100
AcDbLine
 62
7
  6
CONTINUOUS
 10
110.4121055547
 20
173.1083864063
 11
110.4121055547
 21
172.5087217712
  0
LINE
  5
4C4
100
AcDbEntity
  8
RACCORDO
100
AcDbLine
 62
7
  6
CONTINUOUS
 10
110.4621055547
 20
172.6954480167
 11
110.4621055547
 21
172.8953901316
  0
LINE
  5
4C5
100
AcDbEntity
  8
ASSI
100
AcDbLine
 62
7
  6
CONTINUOUS
 10
110.4621055547
 20
172.6954480167
 11
110.4621055547
 21
172.8953901316
  0
LINE
  5
4C6
100
AcDbEntity
  8
DRAFT
100
AcDbLine
 62
7
  6
CONTINUOUS
 10
110.4742105418
 20
172.8953901316
 11
110.4742105418
 21
144.1821224894
  0
LINE
  5
4C7
100
AcDbEntity
  8
ASSI
100
AcDbLine
 62
7
  6
CONTINUOUS
 10
110.4742105418
 20
172.8953901316
 11
110.4742105418
 21
144.1821224894
  0
LINE
  5
4C8
100
AcDbEntity
  8
RACCORDO
100
AcDbLine
 62
7
  6
CONTINUOUS
 10
110.5667223859
 20
176.7581695556
 11
110.5667223859
 21
176.478234519
  0
LINE
  5
4C9
100
AcDbEntity
  8
ASSI
100
AcDbLine
 62
7
  6
CONTINUOUS
 10
110.5667223859
 20
176.7581695556
 11
110.5667223859
 21
176.478234519
  0
LINE
  5
4CA
100
AcDbEntity
  8
0
100
AcDbLine
 62
7
  6
CONTINUOUS
 10
110.6121055547
 20
176.8944297818
 11
110.6121055547
 21
136.4963504814
  0
LINE
  5
4CB
100
AcDbEntity
  8
ASSI
100
AcDbLine
 62
7
  6
CONTINUOUS
 10
110.6121055547
 20
176.8944297818
 11
110.6121055547
 21
136.4963504814
  0
LINE
  5
4CC
100
AcDbEntity
  8
0
100
AcDbLine
 62
253
  6
CONTINUOUS
 10
110.8577379515
 20
132.1997619656
 11
110.8577379515
 21
133.0675589152
  0
LINE
  5
4CD
100
AcDbEntity
  8
ASSI
100
AcDbLine
 62
253
  6
CONTINUOUS
 10
110.8577379515
 20
132.1997619656
 11
110.8577379515
 21
133.0675589152
  0
LINE
  5
4CE
100
AcDbEntity
  8
0
100
AcDbLine
 62
253
  6
CONTINUOUS
 10
110.8577379515
 20
180.3232213479
 11
110.8577379515
 21
181.1910182976
  0
LINE
  5
4CF
100
AcDbEntity
  8
ASSI
100
AcDbLine
 62
253
  6
CONTINUOUS
 10
110.8577379515
 20
180.3232213479
 11
110.8577379515
 21
181.1910182976
  0
LINE
  5
4D0
100
AcDbEntity
  8
0
100
AcDbLine
 62
7
  6
CONTINUOUS
 10
111.1077337207
 20
132.4497577348
 11
111.1077337207
 21
132.8510525643
  0
LINE
  5
4D1
100
AcDbEntity
  8
ASSI
100
AcDbLine
 62
7
  6
CONTINUOUS
 10
111.1077337207
 20
132.4497577348
 11
111.1077337207
 21
132.8510525643
  0
LINE
  5
4D2
100
AcDbEntity
  8
0
100
AcDbLine
 62
7
  6
CONTINUOUS
 10
111.1077337207
 20
180.5397276989
 11
111.1077337207
 21
180.9410225284
  0
LINE
  5
4D3
100
AcDbEntity
  8
ASSI
100
AcDbLine
 62
7
  6
CONTINUOUS
 10
111.1077337207
 20
180.5397276989
 11
111.1077337207
 21
180.9410225284
  0
LINE
  5
4D4
100
AcDbEntity
  8
RACCORDO
100
AcDbLine
 62
7
  6
CONTINUOUS
 10
111.1121055547
 20
180.1058752798
 11
111.1121055547
 21
179.2956036219
  0
LINE
  5
4D5
100
AcDbEntity
  8
RACCORDO
100
AcDbLine
 62
7
  6
CONTINUOUS
 10
111.1121055547
 20
134.0951766413
 11
111.1121055547
 21
133.2849049834
  0
LINE
  5
4D6
100
AcDbEntity
  8
0
100
AcDbLine
 62
7
  6
CONTINUOUS
 10
111.1121055547
 20
132.8510525643
 11
111.1121055547
 21
133.2849049834
  0
LINE
  5
4D7
100
AcDbEntity
  8
ASSI
100
AcDbLine
 62
7
  6
CONTINUOUS
 10
111.1121055547
 20
132.8510525643
 11
111.1121055547
 21
134.0951766413
  0
LINE
  5
4D8
100
AcDbEntity
  8
0
100
AcDbLine
 62
7
  6
CONTINUOUS
 10
111.1121055547
 20
180.1058752798
 11
111.1121055547
 21
180.5397276989
  0
LINE
  5
4D9
100
AcDbEntity
  8
ASSI
100
AcDbLine
 62
7
  6
CONTINUOUS
 10
111.1121055547
 20
179.2956036219
 11
111.1121055547
 21
180.5397276989
  0
LINE
  5
4DA
100
AcDbEntity
  8
0
100
AcDbLine
 62
7
  6
CONTINUOUS
 10
112.1038150303
 20
178.5895892248
 11
112.1038150303
 21
177.7180398624
  0
LINE
  5
4DB
100
AcDbEntity
  8
ASSI
100
AcDbLine
 62
7
  6
CONTINUOUS
 10
112.1038150303
 20
178.5895892248
 11
112.1038150303
 21
177.7180398624
  0
LINE
  5
4DC
100
AcDbEntity
  8
0
100
AcDbLine
 62
7
  6
CONTINUOUS
 10
112.1038150303
 20
135.6727404008
 11
112.1038150303
 21
134.8011910384
  0
LINE
  5
4DD
100
AcDbEntity
  8
ASSI
100
AcDbLine
 62
7
  6
CONTINUOUS
 10
112.1038150303
 20
135.6727404008
 11
112.1038150303
 21
134.8011910384
  0
LINE
  5
4DE
100
AcDbEntity
  8
0
100
AcDbLine
 62
7
  6
CONTINUOUS
 10
112.1125418981
 20
178.5954070546
 11
112.1125418981
 21
178.2953901316
  0
LINE
  5
4DF
100
AcDbEntity
  8
ASSI
100
AcDbLine
 62
7
  6
CONTINUOUS
 10
112.1125418981
 20
178.5954070546
 11
112.1125418981
 21
178.2953901316
  0
LINE
  5
4E0
100
AcDbEntity
  8
0
100
AcDbLine
 62
7
  6
CONTINUOUS
 10
112.1125418981
 20
134.7953732085
 11
112.1125418981
 21
135.0953901316
  0
LINE
  5
4E1
100
AcDbEntity
  8
ASSI
100
AcDbLine
 62
7
  6
CONTINUOUS
 10
112.1125418981
 20
134.7953732085
 11
112.1125418981
 21
135.0953901316
  0
LINE
  5
4E2
100
AcDbEntity
  8
0
100
AcDbLine
 62
7
  6
CONTINUOUS
 10
112.1286878664
 20
177.7180398624
 11
112.1286878664
 21
135.6727404008
  0
LINE
  5
4E3
100
AcDbEntity
  8
ASSI
100
AcDbLine
 62
7
  6
CONTINUOUS
 10
112.1286878664
 20
177.7180398624
 11
112.1286878664
 21
135.6727404008
  0
LINE
  5
4E4
100
AcDbEntity
  8
RACCORDO
100
AcDbLine
 62
7
  6
CONTINUOUS
 10
110.5170208356
 20
175.8959567358
 11
110.5130822258
 21
174.0582435703
  0
LINE
  5
4E5
100
AcDbEntity
  8
ASSI
100
AcDbLine
 62
7
  6
CONTINUOUS
 10
110.5170208356
 20
175.8959567358
 11
110.5130822258
 21
174.0582435703
  0
LINE
  5
4E6
100
AcDbEntity
  8
0
100
AcDbLine
 62
253
  6
CONTINUOUS
 10
110.8628285526
 20
133.5727404008
 11
110.8577379515
 21
133.0675589152
  0
LINE
  5
4E7
100
AcDbEntity
  8
ASSI
100
AcDbLine
 62
253
  6
CONTINUOUS
 10
110.8628285526
 20
133.5727404008
 11
110.8577379515
 21
133.0675589152
  0
LINE
  5
4E8
100
AcDbEntity
  8
0
100
AcDbLine
 62
253
  6
CONTINUOUS
 10
111.1121055547
 20
133.2849049834
 11
111.1077337207
 21
132.8510525643
  0
LINE
  5
4E9
100
AcDbEntity
  8
ASSI
100
AcDbLine
 62
253
  6
CONTINUOUS
 10
111.1121055547
 20
133.2849049834
 11
111.1077337207
 21
132.8510525643
  0
LINE
  5
4EA
100
AcDbEntity
  8
0
100
AcDbLine
 62
7
  6
CONTINUOUS
 10
112.1125418981
 20
178.2953901316
 11
112.1121055547
 21
178.2665226181
  0
LINE
  5
4EB
100
AcDbEntity
  8
ASSI
100
AcDbLine
 62
7
  6
CONTINUOUS
 10
112.1125418981
 20
178.2953901316
 11
112.1121055547
 21
178.2665226181
  0
LINE
  5
4EC
100
AcDbEntity
  8
RACCORDO
100
AcDbLine
 62
7
  6
CONTINUOUS
 10
108.2621055547
 20
135.7953901316
 11
108.3176524393
 21
136.1289678755
  0
LINE
  5
4ED
100
AcDbEntity
  8
ASSI
100
AcDbLine
 62
7
  6
CONTINUOUS
 10
108.2621055547
 20
135.7953901316
 11
108.3176524393
 21
136.1289678755
  0
LWPOLYLINE
  5
4EE
100
AcDbEntity
  8
RACCORDO
100
AcDbPolyline
 62
7
  6
CONTINUOUS
 90
4
 70
0
 10
110.0333975732
 20
172.2109579257
 10
110.0160552351
 20
172.2063122913
 10
109.9643665157
 20
172.1981280054
 10
109.961985835
 20
172.1980032851
  0
LINE
  5
4EF
100
AcDbEntity
  8
DRAFT
100
AcDbLine
 62
7
  6
CONTINUOUS
 10
109.4621055547
 20
169.2086577737
 11
92.4621055547
 21
169.2086577737
  0
LINE
  5
4F0
100
AcDbEntity
  8
ASSI
100
AcDbLine
 62
7
  6
CONTINUOUS
 10
109.4621055547
 20
169.2086577737
 11
92.4621055547
 21
169.2086577737
  0
LWPOLYLINE
  5
4F1
100
AcDbEntity
  8
RACCORDO
100
AcDbPolyline
 62
7
  6
CONTINUOUS
 90
4
 70
0
 10
91.8908135362
 20
172.2109579257
 10
91.9081558743
 20
172.2063122913
 10
91.9598445936
 20
172.1981280054
 10
91.9622252744
 20
172.1980032851
  0
LWPOLYLINE
  5
4F2
100
AcDbEntity
  8
RACCORDO
100
AcDbPolyline
 62
7
  6
CONTINUOUS
 90
5
 70
0
 10
104.5050637643
 20
170.6809401325
 10
104.5165823172
 20
170.667069298
 10
104.530918148
 20
170.6494401962
 10
104.5480712569
 20
170.6286375988
 10
104.5683993313
 20
170.6053303395
  0
LWPOLYLINE
  5
4F3
100
AcDbEntity
  8
ASSI
100
AcDbPolyline
 62
7
  6
CONTINUOUS
 90
5
 70
0
 10
104.5050637643
 20
170.6809401325
 10
104.5165823172
 20
170.667069298
 10
104.530918148
 20
170.6494401962
 10
104.5480712569
 20
170.6286375988
 10
104.5683993313
 20
170.6053303395
  0
LINE
  5
4F4
100
AcDbEntity
  8
DRAFT
100
AcDbLine
 62
7
  6
CONTINUOUS
 10
108.2847954109
 20
177.4591299054
 11
108.2621055547
 21
177.5953901316
  0
LINE
  5
4F5
100
AcDbEntity
  8
ASSI
100
AcDbLine
 62
7
  6
CONTINUOUS
 10
108.2847954109
 20
177.4591299054
 11
108.2621055547
 21
177.5953901316
  0
LINE
  5
4F6
100
AcDbEntity
  8
0
100
AcDbLine
 62
7
  6
CONTINUOUS
 10
112.1286878664
 20
177.7180398624
 11
112.1121055547
 21
178.2665226181
  0
LINE
  5
4F7
100
AcDbEntity
  8
ASSI
100
AcDbLine
 62
7
  6
CONTINUOUS
 10
112.1286878664
 20
177.7180398624
 11
112.1121055547
 21
178.2665226181
  0
LINE
  5
4F8
100
AcDbEntity
  8
0
100
AcDbLine
 62
7
  6
CONTINUOUS
 10
112.1286878664
 20
135.6727404008
 11
112.1121055547
 21
135.124257645
  0
LINE
  5
4F9
100
AcDbEntity
  8
ASSI
100
AcDbLine
 62
7
  6
CONTINUOUS
 10
112.1286878664
 20
135.6727404008
 11
112.1121055547
 21
135.124257645
  0
LINE
  5
4FA
100
AcDbEntity
  8
0
100
AcDbLine
 62
7
  6
CONTINUOUS
 10
96.6253316166
 20
132.8301611215
 11
96.6448290371
 21
132.8518474633
  0
LINE
  5
4FB
100
AcDbEntity
  8
ASSI
100
AcDbLine
 62
7
  6
CONTINUOUS
 10
96.6253316166
 20
132.8301611215
 11
96.6448290371
 21
132.8518474633
  0
LINE
  5
4FC
100
AcDbEntity
  8
0
100
AcDbLine
 62
7
  6
CONTINUOUS
 10
96.6448290371
 20
132.8518474633
 11
96.6671318443
 21
132.8763317419
  0
LINE
  5
4FD
100
AcDbEntity
  8
ASSI
100
AcDbLine
 62
7
  6
CONTINUOUS
 10
96.6448290371
 20
132.8518474633
 11
96.6671318443
 21
132.8763317419
  0
LINE
  5
4FE
100
AcDbEntity
  8
0
100
AcDbLine
 62
7
  6
CONTINUOUS
 10
96.6671318443
 20
132.8763317419
 11
96.6923064069
 21
132.9036803004
  0
LINE
  5
4FF
100
AcDbEntity
  8
ASSI
100
AcDbLine
 62
7
  6
CONTINUOUS
 10
96.6671318443
 20
132.8763317419
 11
96.6923064069
 21
132.9036803004
  0
LINE
  5
500
100
AcDbEntity
  8
0
100
AcDbLine
 62
7
  6
CONTINUOUS
 10
96.6923064069
 20
132.9036803004
 11
96.7356037962
 21
132.9502369029
  0
LINE
  5
501
100
AcDbEntity
  8
ASSI
100
AcDbLine
 62
7
  6
CONTINUOUS
 10
96.6923064069
 20
132.9036803004
 11
96.7356037962
 21
132.9502369029
  0
LINE
  5
502
100
AcDbEntity
  8
0
100
AcDbLine
 62
7
  6
CONTINUOUS
 10
96.7356037962
 20
132.9502369029
 11
96.8038060937
 21
133.0228363114
  0
LINE
  5
503
100
AcDbEntity
  8
ASSI
100
AcDbLine
 62
7
  6
CONTINUOUS
 10
96.7356037962
 20
132.9502369029
 11
96.8038060937
 21
133.0228363114
  0
LWPOLYLINE
  5
504
100
AcDbEntity
  8
0
100
AcDbPolyline
 62
7
  6
CONTINUOUS
 90
3
 70
0
 10
96.8038060937
 20
133.0228363114
 10
96.9450888511
 20
133.1718087495
 10
97.0090628448
 20
133.2390323169
  0
LWPOLYLINE
  5
505
100
AcDbEntity
  8
ASSI
100
AcDbPolyline
 62
7
  6
CONTINUOUS
 90
3
 70
0
 10
96.8038060937
 20
133.0228363114
 10
96.9450888511
 20
133.1718087495
 10
97.0090628448
 20
133.2390323169
  0
LINE
  5
506
100
AcDbEntity
  8
0
100
AcDbLine
 62
7
  6
CONTINUOUS
 10
96.5121055547
 20
134.2953901316
 11
96.5560278017
 21
134.3393123786
  0
LINE
  5
507
100
AcDbEntity
  8
ASSI
100
AcDbLine
 62
7
  6
CONTINUOUS
 10
96.5121055547
 20
134.2953901316
 11
96.5560278017
 21
134.3393123786
  0
LINE
  5
508
100
AcDbEntity
  8
DRAFT
100
AcDbLine
 62
7
  6
CONTINUOUS
 10
104.719367767
 20
172.2109579257
 11
104.5235317667
 21
172.1915716123
  0
LINE
  5
509
100
AcDbEntity
  8
ASSI
100
AcDbLine
 62
7
  6
CONTINUOUS
 10
104.719367767
 20
172.2109579257
 11
104.5235317667
 21
172.1915716123
  0
LWPOLYLINE
  5
50A
100
AcDbEntity
  8
RACCORDO
100
AcDbPolyline
 62
7
  6
CONTINUOUS
 90
25
 70
0
 10
104.0621055547
 20
170.5236294679
 10
104.0818644939
 20
170.5242896146
 10
104.1013735261
 20
170.5261967642
 10
104.1206326513
 20
170.5293509167
 10
104.1397219705
 20
170.5337761892
 10
104.1585613826
 20
170.5394484646
 10
104.1769105844
 20
170.546295391
 10
104.1947632964
 20
170.5543320154
 10
104.212125798
 20
170.5635432908
 10
104.2287766246
 20
170.5738117242
 10
104.2447066597
 20
170.5851508575
 10
104.2599250196
 20
170.5975471488
 10
104.274237589
 20
170.610842479
 10
104.2876327649
 20
170.6250483647
 10
104.3001221501
 20
170.6401532893
 10
104.3115464384
 20
170.6559645843
 10
104.3218919859
 20
170.6724912982
 10
104.3311724364
 20
170.6897243824
 10
104.3392694144
 20
170.7074440229
 10
104.34616776
 20
170.7256564526
 10
104.3518826332
 20
170.7443554386
 10
104.3563411388
 20
170.7633024689
 10
104.3595189784
 20
170.7824180394
 10
104.3614404503
 20
170.8017816542
 10
104.3621055547
 20
170.8213933134
  0
LINE
  5
50B
100
AcDbEntity
  8
RACCORDO
100
AcDbLine
 62
253
  6
CONTINUOUS
 10
96.9324756798
 20
170.1633474829
 11
104.9917354267
 21
170.1633474829
  0
LINE
  5
50C
100
AcDbEntity
  8
ASSI
100
AcDbLine
 62
253
  6
CONTINUOUS
 10
96.9324756798
 20
170.1633474829
 11
104.9917354267
 21
170.1633474829
  0
LINE
  5
50D
100
AcDbEntity
  8
RACCORDO
100
AcDbLine
 62
7
  6
CONTINUOUS
 10
104.0621055547
 20
170.5236294679
 11
97.8621055547
 21
170.5236294679
  0
LINE
  5
50E
100
AcDbEntity
  8
RACCORDO
100
AcDbLine
 62
7
  6
CONTINUOUS
 10
97.4401895873
 20
170.6953901316
 11
97.5904497126
 21
170.6953901316
  0
LINE
  5
50F
100
AcDbEntity
  8
ASSI
100
AcDbLine
 62
7
  6
CONTINUOUS
 10
97.4401895873
 20
170.6953901316
 11
97.5904497126
 21
170.6953901316
  0
LINE
  5
510
100
AcDbEntity
  8
RACCORDO
100
AcDbLine
 62
7
  6
CONTINUOUS
 10
104.3337613967
 20
170.6953901316
 11
104.4840215221
 21
170.6953901316
  0
LINE
  5
511
100
AcDbEntity
  8
ASSI
100
AcDbLine
 62
7
  6
CONTINUOUS
 10
104.3337613967
 20
170.6953901316
 11
104.4840215221
 21
170.6953901316
  0
LINE
  5
512
100
AcDbEntity
  8
RACCORDO
100
AcDbLine
 62
7
  6
CONTINUOUS
 10
92.4874757428
 20
171.3953901316
 11
97.4098572725
 21
171.3953901316
  0
LINE
  5
513
100
AcDbEntity
  8
ASSI
100
AcDbLine
 62
7
  6
CONTINUOUS
 10
92.4874757428
 20
171.3953901316
 11
97.4098572725
 21
171.3953901316
  0
LINE
  5
514
100
AcDbEntity
  8
RACCORDO
100
AcDbLine
 62
7
  6
CONTINUOUS
 10
104.5143538368
 20
171.3953901316
 11
109.4367353666
 21
171.3953901316
  0
LINE
  5
515
100
AcDbEntity
  8
ASSI
100
AcDbLine
 62
7
  6
CONTINUOUS
 10
104.5143538368
 20
171.3953901316
 11
109.4367353666
 21
171.3953901316
  0
LINE
  5
516
100
AcDbEntity
  8
DRAFT
100
AcDbLine
 62
7
  6
CONTINUOUS
 10
104.4739420643
 20
171.5232621636
 11
104.3621055547
 21
171.5232621636
  0
LINE
  5
517
100
AcDbEntity
  8
ASSI
100
AcDbLine
 62
7
  6
CONTINUOUS
 10
104.4739420643
 20
171.5232621636
 11
104.3621055547
 21
171.5232621636
  0
LINE
  5
518
100
AcDbEntity
  8
DRAFT
100
AcDbLine
 62
7
  6
CONTINUOUS
 10
97.5621055547
 20
171.5232621636
 11
97.450269045
 21
171.5232621636
  0
LINE
  5
519
100
AcDbEntity
  8
ASSI
100
AcDbLine
 62
7
  6
CONTINUOUS
 10
97.5621055547
 20
171.5232621636
 11
97.450269045
 21
171.5232621636
  0
LINE
  5
51A
100
AcDbEntity
  8
DRAFT
100
AcDbLine
 62
7
  6
CONTINUOUS
 10
104.5127893231
 20
171.6953901316
 11
104.3621055547
 21
171.6953901316
  0
LINE
  5
51B
100
AcDbEntity
  8
ASSI
100
AcDbLine
 62
7
  6
CONTINUOUS
 10
104.5127893231
 20
171.6953901316
 11
104.3621055547
 21
171.6953901316
  0
LINE
  5
51C
100
AcDbEntity
  8
DRAFT
100
AcDbLine
 62
7
  6
CONTINUOUS
 10
97.5621055547
 20
171.6953901316
 11
97.4114217863
 21
171.6953901316
  0
LINE
  5
51D
100
AcDbEntity
  8
ASSI
100
AcDbLine
 62
7
  6
CONTINUOUS
 10
97.5621055547
 20
171.6953901316
 11
97.4114217863
 21
171.6953901316
  0
LINE
  5
51E
100
AcDbEntity
  8
0
100
AcDbLine
 62
7
  6
CONTINUOUS
 10
96.5121055547
 20
179.0953901316
 11
96.5560278017
 21
179.0514678845
  0
LINE
  5
51F
100
AcDbEntity
  8
ASSI
100
AcDbLine
 62
7
  6
CONTINUOUS
 10
96.5121055547
 20
179.0953901316
 11
96.5560278017
 21
179.0514678845
  0
LWPOLYLINE
  5
520
100
AcDbEntity
  8
RACCORDO
100
AcDbPolyline
 62
7
  6
CONTINUOUS
 90
4
 70
0
 10
104.8265511228
 20
170.331400981
 10
104.9255988682
 20
170.2299726531
 10
104.9586349104
 20
170.1964504652
 10
104.9917348402
 20
170.1633474829
  0
LWPOLYLINE
  5
521
100
AcDbEntity
  8
ASSI
100
AcDbPolyline
 62
7
  6
CONTINUOUS
 90
4
 70
0
 10
104.8265511228
 20
170.331400981
 10
104.9255988682
 20
170.2299726531
 10
104.9586349104
 20
170.1964504652
 10
104.9917348402
 20
170.1633474829
  0
LINE
  5
522
100
AcDbEntity
  8
RACCORDO
100
AcDbLine
 62
7
  6
CONTINUOUS
 10
104.7308054003
 20
170.4308283079
 11
104.8265511228
 21
170.331400981
  0
LINE
  5
523
100
AcDbEntity
  8
ASSI
100
AcDbLine
 62
7
  6
CONTINUOUS
 10
104.7308054003
 20
170.4308283079
 11
104.8265511228
 21
170.331400981
  0
LINE
  5
524
100
AcDbEntity
  8
RACCORDO
100
AcDbLine
 62
7
  6
CONTINUOUS
 10
104.6429385123
 20
170.5239214755
 11
104.7308054003
 21
170.4308283079
  0
LINE
  5
525
100
AcDbEntity
  8
ASSI
100
AcDbLine
 62
7
  6
CONTINUOUS
 10
104.6429385123
 20
170.5239214755
 11
104.7308054003
 21
170.4308283079
  0
LINE
  5
526
100
AcDbEntity
  8
0
100
AcDbLine
 62
7
  6
CONTINUOUS
 10
97.0090628448
 20
180.1517479463
 11
96.7855404442
 21
180.3873326506
  0
LINE
  5
527
100
AcDbEntity
  8
ASSI
100
AcDbLine
 62
7
  6
CONTINUOUS
 10
97.0090628448
 20
180.1517479463
 11
96.7855404442
 21
180.3873326506
  0
LINE
  5
528
100
AcDbEntity
  8
0
100
AcDbLine
 62
7
  6
CONTINUOUS
 10
96.7855404442
 20
180.3873326506
 11
96.7203464238
 21
180.4568975094
  0
LINE
  5
529
100
AcDbEntity
  8
ASSI
100
AcDbLine
 62
7
  6
CONTINUOUS
 10
96.7855404442
 20
180.3873326506
 11
96.7203464238
 21
180.4568975094
  0
LINE
  5
52A
100
AcDbEntity
  8
0
100
AcDbLine
 62
7
  6
CONTINUOUS
 10
96.7203464238
 20
180.4568975094
 11
96.6793271793
 21
180.5011696676
  0
LINE
  5
52B
100
AcDbEntity
  8
ASSI
100
AcDbLine
 62
7
  6
CONTINUOUS
 10
96.7203464238
 20
180.4568975094
 11
96.6793271793
 21
180.5011696676
  0
LINE
  5
52C
100
AcDbEntity
  8
0
100
AcDbLine
 62
7
  6
CONTINUOUS
 10
96.6793271793
 20
180.5011696676
 11
96.6556097157
 21
180.5270566487
  0
LINE
  5
52D
100
AcDbEntity
  8
ASSI
100
AcDbLine
 62
7
  6
CONTINUOUS
 10
96.6793271793
 20
180.5011696676
 11
96.6556097157
 21
180.5270566487
  0
LINE
  5
52E
100
AcDbEntity
  8
RACCORDO
100
AcDbLine
 62
7
  6
CONTINUOUS
 10
104.5683993313
 20
170.6053303395
 11
104.6429385123
 21
170.5239214755
  0
LINE
  5
52F
100
AcDbEntity
  8
ASSI
100
AcDbLine
 62
7
  6
CONTINUOUS
 10
104.5683993313
 20
170.6053303395
 11
104.6429385123
 21
170.5239214755
  0
LWPOLYLINE
  5
530
100
AcDbEntity
  8
0
100
AcDbPolyline
 62
7
  6
CONTINUOUS
 90
19
 70
0
 10
96.6556097157
 20
180.5270566487
 10
96.6347410357
 20
180.5501174729
 10
96.6253524209
 20
180.5605960124
 10
96.6166341456
 20
180.5704212307
 10
96.608577533
 20
180.5795897156
 10
96.6011674629
 20
180.5881048793
 10
96.5943753819
 20
180.5960224518
 10
96.5881967096
 20
180.603338717
 10
96.5826112781
 20
180.6100573911
 10
96.5775780793
 20
180.6162453528
 10
96.5730880792
 20
180.6219142134
 10
96.5691401494
 20
180.6270523617
 10
96.565717668
 20
180.6316918418
 10
96.5628166194
 20
180.6358373491
 10
96.5604358155
 20
180.6394841884
 10
96.5585689816
 20
180.6426503177
 10
96.5572134185
 20
180.6453417233
 10
96.5563674616
 20
180.6475524189
 10
96.5560278017
 20
180.6492824046
  0
LWPOLYLINE
  5
531
100
AcDbEntity
  8
ASSI
100
AcDbPolyline
 62
7
  6
CONTINUOUS
 90
19
 70
0
 10
96.6556097157
 20
180.5270566487
 10
96.6347410357
 20
180.5501174729
 10
96.6253524209
 20
180.5605960124
 10
96.6166341456
 20
180.5704212307
 10
96.608577533
 20
180.5795897156
 10
96.6011674629
 20
180.5881048793
 10
96.5943753819
 20
180.5960224518
 10
96.5881967096
 20
180.603338717
 10
96.5826112781
 20
180.6100573911
 10
96.5775780793
 20
180.6162453528
 10
96.5730880792
 20
180.6219142134
 10
96.5691401494
 20
180.6270523617
 10
96.565717668
 20
180.6316918418
 10
96.5628166194
 20
180.6358373491
 10
96.5604358155
 20
180.6394841884
 10
96.5585689816
 20
180.6426503177
 10
96.5572134185
 20
180.6453417233
 10
96.5563674616
 20
180.6475524189
 10
96.5560278017
 20
180.6492824046
  0
LINE
  5
532
100
AcDbEntity
  8
RACCORDO
100
AcDbLine
 62
7
  6
CONTINUOUS
 10
108.3096442935
 20
175.8959567358
 11
108.2890065632
 21
175.9785391055
  0
LINE
  5
533
100
AcDbEntity
  8
ASSI
100
AcDbLine
 62
7
  6
CONTINUOUS
 10
108.3096442935
 20
175.8959567358
 11
108.2890065632
 21
175.9785391055
  0
LINE
  5
534
100
AcDbEntity
  8
0
100
AcDbLine
 62
7
  6
CONTINUOUS
 10
96.5557562016
 20
132.7390407784
 11
96.5121055547
 21
132.6953901316
  0
LINE
  5
535
100
AcDbEntity
  8
ASSI
100
AcDbLine
 62
7
  6
CONTINUOUS
 10
96.5557562016
 20
132.7390407784
 11
96.5121055547
 21
132.6953901316
  0
LINE
  5
536
100
AcDbEntity
  8
DRAFT
100
AcDbLine
 62
7
  6
CONTINUOUS
 10
92.619367767
 20
172.2109579257
 11
92.4621055547
 21
172.1953901316
  0
LINE
  5
537
100
AcDbEntity
  8
ASSI
100
AcDbLine
 62
7
  6
CONTINUOUS
 10
92.619367767
 20
172.2109579257
 11
92.4621055547
 21
172.1953901316
  0
LWPOLYLINE
  5
538
100
AcDbEntity
  8
RACCORDO
100
AcDbPolyline
 62
7
  6
CONTINUOUS
 90
25
 70
0
 10
110.1121055547
 20
172.2109579257
 10
110.1318644939
 20
172.2116180724
 10
110.1513735261
 20
172.213525222
 10
110.1706326513
 20
172.2166793745
 10
110.1897219705
 20
172.221104647
 10
110.2085613826
 20
172.2267769224
 10
110.2269105844
 20
172.2336238488
 10
110.2447632964
 20
172.2416604732
 10
110.262125798
 20
172.2508717486
 10
110.2787766246
 20
172.261140182
 10
110.2947066597
 20
172.2724793153
 10
110.3099250196
 20
172.2848756066
 10
110.324237589
 20
172.2981709368
 10
110.3376327649
 20
172.3123768225
 10
110.3501221501
 20
172.3274817471
 10
110.3615464384
 20
172.3432930421
 10
110.3718919859
 20
172.359819756
 10
110.3811724364
 20
172.3770528402
 10
110.3892694144
 20
172.3947724807
 10
110.39616776
 20
172.4129849104
 10
110.4018826332
 20
172.4316838964
 10
110.4063411388
 20
172.4506309266
 10
110.4095189784
 20
172.4697464972
 10
110.4114404503
 20
172.489110112
 10
110.4121055547
 20
172.5087217712
  0
LINE
  5
539
100
AcDbEntity
  8
DRAFT
100
AcDbLine
 62
7
  6
CONTINUOUS
 10
97.4006793427
 20
172.1915716123
 11
97.5621055547
 21
172.1915716123
  0
LINE
  5
53A
100
AcDbEntity
  8
ASSI
100
AcDbLine
 62
7
  6
CONTINUOUS
 10
97.4006793427
 20
172.1915716123
 11
97.5621055547
 21
172.1915716123
  0
LINE
  5
53B
100
AcDbEntity
  8
DRAFT
100
AcDbLine
 62
7
  6
CONTINUOUS
 10
104.3621055547
 20
172.1915716123
 11
104.5235317667
 21
172.1915716123
  0
LINE
  5
53C
100
AcDbEntity
  8
ASSI
100
AcDbLine
 62
7
  6
CONTINUOUS
 10
104.3621055547
 20
172.1915716123
 11
104.5235317667
 21
172.1915716123
  0
LINE
  5
53D
100
AcDbEntity
  8
RACCORDO
100
AcDbLine
 62
7
  6
CONTINUOUS
 10
109.9621227342
 20
172.1953901316
 11
109.4621055547
 21
172.1953901316
  0
LINE
  5
53E
100
AcDbEntity
  8
ASSI
100
AcDbLine
 62
7
  6
CONTINUOUS
 10
109.9621227342
 20
172.1953901316
 11
109.4621055547
 21
172.1953901316
  0
LINE
  5
53F
100
AcDbEntity
  8
RACCORDO
100
AcDbLine
 62
7
  6
CONTINUOUS
 10
104.5235317667
 20
172.1953901316
 11
104.3621055547
 21
172.1953901316
  0
LINE
  5
540
100
AcDbEntity
  8
RACCORDO
100
AcDbLine
 62
7
  6
CONTINUOUS
 10
97.5621055547
 20
172.1953901316
 11
97.4006793427
 21
172.1953901316
  0
LINE
  5
541
100
AcDbEntity
  8
RACCORDO
100
AcDbLine
 62
7
  6
CONTINUOUS
 10
91.9620883752
 20
172.1953901316
 11
92.4621055547
 21
172.1953901316
  0
LINE
  5
542
100
AcDbEntity
  8
ASSI
100
AcDbLine
 62
7
  6
CONTINUOUS
 10
91.9620883752
 20
172.1953901316
 11
92.4621055547
 21
172.1953901316
  0
LINE
  5
543
100
AcDbEntity
  8
RACCORDO
100
AcDbLine
 62
7
  6
CONTINUOUS
 10
109.8997820422
 20
172.2015514171
 11
109.3998656906
 21
172.2015514171
  0
LINE
  5
544
100
AcDbEntity
  8
RACCORDO
100
AcDbLine
 62
7
  6
CONTINUOUS
 10
104.6243454188
 20
172.2015514171
 11
104.3621055547
 21
172.2015514171
  0
LINE
  5
545
100
AcDbEntity
  8
RACCORDO
100
AcDbLine
 62
7
  6
CONTINUOUS
 10
97.5621055547
 20
172.2015514171
 11
97.2998656906
 21
172.2015514171
  0
LINE
  5
546
100
AcDbEntity
  8
RACCORDO
100
AcDbLine
 62
7
  6
CONTINUOUS
 10
92.5243454188
 20
172.2015514171
 11
92.0244290671
 21
172.2015514171
  0
LINE
  5
547
100
AcDbEntity
  8
RACCORDO
100
AcDbLine
 62
7
  6
CONTINUOUS
 10
110.1121055547
 20
172.2109579257
 11
109.3048433424
 21
172.2109579257
  0
LINE
  5
548
100
AcDbEntity
  8
RACCORDO
100
AcDbLine
 62
7
  6
CONTINUOUS
 10
104.719367767
 20
172.2109579257
 11
104.3621055547
 21
172.2109579257
  0
LINE
  5
549
100
AcDbEntity
  8
RACCORDO
100
AcDbLine
 62
7
  6
CONTINUOUS
 10
97.5621055547
 20
172.2109579257
 11
97.2048433424
 21
172.2109579257
  0
LINE
  5
54A
100
AcDbEntity
  8
RACCORDO
100
AcDbLine
 62
7
  6
CONTINUOUS
 10
92.619367767
 20
172.2109579257
 11
91.8121055547
 21
172.2109579257
  0
LINE
  5
54B
100
AcDbEntity
  8
RACCORDO
100
AcDbLine
 62
253
  6
CONTINUOUS
 10
109.1080725599
 20
172.2735207882
 11
104.9161385495
 21
172.2735207882
  0
LINE
  5
54C
100
AcDbEntity
  8
ASSI
100
AcDbLine
 62
253
  6
CONTINUOUS
 10
109.1080725599
 20
172.2735207882
 11
104.9161385495
 21
172.2735207882
  0
LINE
  5
54D
100
AcDbEntity
  8
RACCORDO
100
AcDbLine
 62
253
  6
CONTINUOUS
 10
97.0080725599
 20
172.2735207882
 11
92.8161385495
 21
172.2735207882
  0
LINE
  5
54E
100
AcDbEntity
  8
ASSI
100
AcDbLine
 62
253
  6
CONTINUOUS
 10
97.0080725599
 20
172.2735207882
 11
92.8161385495
 21
172.2735207882
  0
LINE
  5
54F
100
AcDbEntity
  8
DRAFT
100
AcDbLine
 62
7
  6
CONTINUOUS
 10
91.4621055547
 20
172.8953901316
 11
91.4500005676
 21
172.8953901316
  0
LINE
  5
550
100
AcDbEntity
  8
ASSI
100
AcDbLine
 62
7
  6
CONTINUOUS
 10
91.4621055547
 20
172.8953901316
 11
91.4500005676
 21
172.8953901316
  0
LINE
  5
551
100
AcDbEntity
  8
DRAFT
100
AcDbLine
 62
7
  6
CONTINUOUS
 10
110.4621055547
 20
172.8953901316
 11
110.4742105418
 21
172.8953901316
  0
LINE
  5
552
100
AcDbEntity
  8
ASSI
100
AcDbLine
 62
7
  6
CONTINUOUS
 10
110.4621055547
 20
172.8953901316
 11
110.4742105418
 21
172.8953901316
  0
LINE
  5
553
100
AcDbEntity
  8
DRAFT
100
AcDbLine
 62
7
  6
CONTINUOUS
 10
110.4600068239
 20
173.1083864063
 11
109.2854138086
 21
173.1083864063
  0
LINE
  5
554
100
AcDbEntity
  8
ASSI
100
AcDbLine
 62
7
  6
CONTINUOUS
 10
110.4600068239
 20
173.1083864063
 11
109.2854138086
 21
173.1083864063
  0
LINE
  5
555
100
AcDbEntity
  8
DRAFT
100
AcDbLine
 62
7
  6
CONTINUOUS
 10
91.4642042855
 20
173.1083864063
 11
92.6387973008
 21
173.1083864063
  0
LINE
  5
556
100
AcDbEntity
  8
ASSI
100
AcDbLine
 62
7
  6
CONTINUOUS
 10
91.4642042855
 20
173.1083864063
 11
92.6387973008
 21
173.1083864063
  0
LINE
  5
557
100
AcDbEntity
  8
DRAFT
100
AcDbLine
 62
7
  6
CONTINUOUS
 10
97.1854138086
 20
173.1083864063
 11
104.7387973008
 21
173.1083864063
  0
LINE
  5
558
100
AcDbEntity
  8
ASSI
100
AcDbLine
 62
7
  6
CONTINUOUS
 10
97.1854138086
 20
173.1083864063
 11
104.7387973008
 21
173.1083864063
  0
LINE
  5
559
100
AcDbEntity
  8
RACCORDO
100
AcDbLine
 62
253
  6
CONTINUOUS
 10
91.424824729
 20
173.201965313
 11
92.7164259844
 21
173.201965313
  0
LINE
  5
55A
100
AcDbEntity
  8
ASSI
100
AcDbLine
 62
253
  6
CONTINUOUS
 10
91.424824729
 20
173.201965313
 11
92.7164259844
 21
173.201965313
  0
LINE
  5
55B
100
AcDbEntity
  8
RACCORDO
100
AcDbLine
 62
253
  6
CONTINUOUS
 10
97.107785125
 20
173.201965313
 11
104.8164259844
 21
173.201965313
  0
LINE
  5
55C
100
AcDbEntity
  8
ASSI
100
AcDbLine
 62
253
  6
CONTINUOUS
 10
97.107785125
 20
173.201965313
 11
104.8164259844
 21
173.201965313
  0
LINE
  5
55D
100
AcDbEntity
  8
RACCORDO
100
AcDbLine
 62
253
  6
CONTINUOUS
 10
109.207785125
 20
173.201965313
 11
110.4993863804
 21
173.201965313
  0
LINE
  5
55E
100
AcDbEntity
  8
ASSI
100
AcDbLine
 62
253
  6
CONTINUOUS
 10
109.207785125
 20
173.201965313
 11
110.4993863804
 21
173.201965313
  0
LINE
  5
55F
100
AcDbEntity
  8
DRAFT
100
AcDbLine
 62
7
  6
CONTINUOUS
 10
108.3121093286
 20
173.5954635572
 11
107.4121017808
 21
173.5954635572
  0
LINE
  5
560
100
AcDbEntity
  8
ASSI
100
AcDbLine
 62
7
  6
CONTINUOUS
 10
108.3121093286
 20
173.5954635572
 11
107.4121017808
 21
173.5954635572
  0
LINE
  5
561
100
AcDbEntity
  8
DRAFT
100
AcDbLine
 62
7
  6
CONTINUOUS
 10
94.5121093286
 20
173.5954635572
 11
93.6121017808
 21
173.5954635572
  0
LINE
  5
562
100
AcDbEntity
  8
ASSI
100
AcDbLine
 62
7
  6
CONTINUOUS
 10
94.5121093286
 20
173.5954635572
 11
93.6121017808
 21
173.5954635572
  0
LINE
  5
563
100
AcDbEntity
  8
DRAFT
100
AcDbLine
 62
7
  6
CONTINUOUS
 10
97.4006793427
 20
172.1915716123
 11
97.2048433424
 21
172.2109579257
  0
LINE
  5
564
100
AcDbEntity
  8
ASSI
100
AcDbLine
 62
7
  6
CONTINUOUS
 10
97.4006793427
 20
172.1915716123
 11
97.2048433424
 21
172.2109579257
  0
LINE
  5
565
100
AcDbEntity
  8
DRAFT
100
AcDbLine
 62
7
  6
CONTINUOUS
 10
109.3048433424
 20
172.2109579257
 11
109.4621055547
 21
172.1953901316
  0
LINE
  5
566
100
AcDbEntity
  8
ASSI
100
AcDbLine
 62
7
  6
CONTINUOUS
 10
109.3048433424
 20
172.2109579257
 11
109.4621055547
 21
172.1953901316
  0
LINE
  5
567
100
AcDbEntity
  8
0
100
AcDbLine
 62
7
  6
CONTINUOUS
 10
96.5557562016
 20
180.6517394847
 11
96.5121055547
 21
180.6953901316
  0
LINE
  5
568
100
AcDbEntity
  8
ASSI
100
AcDbLine
 62
7
  6
CONTINUOUS
 10
96.5557562016
 20
180.6517394847
 11
96.5121055547
 21
180.6953901316
  0
LWPOLYLINE
  5
569
100
AcDbEntity
  8
0
100
AcDbPolyline
 62
7
  6
CONTINUOUS
 90
10
 70
0
 10
93.5972680606
 20
132.2350755734
 10
93.6071219598
 20
132.2417448361
 10
93.6166473585
 20
132.2488754209
 10
93.6258226737
 20
132.2564511727
 10
93.6346271208
 20
132.2644549311
 10
93.6430407552
 20
132.2728685655
 10
93.6510445136
 20
132.2816730125
 10
93.6586202654
 20
132.2908483277
 10
93.6657508502
 20
132.3003737265
 10
93.6724201128
 20
132.3102276257
  0
LWPOLYLINE
  5
56A
100
AcDbEntity
  8
ASSI
100
AcDbPolyline
 62
7
  6
CONTINUOUS
 90
10
 70
0
 10
93.5972680606
 20
132.2350755734
 10
93.6071219598
 20
132.2417448361
 10
93.6166473585
 20
132.2488754209
 10
93.6258226737
 20
132.2564511727
 10
93.6346271208
 20
132.2644549311
 10
93.6430407552
 20
132.2728685655
 10
93.6510445136
 20
132.2816730125
 10
93.6586202654
 20
132.2908483277
 10
93.6657508502
 20
132.3003737265
 10
93.6724201128
 20
132.3102276257
  0
LINE
  5
56B
100
AcDbEntity
  8
0
100
AcDbLine
 62
7
  6
CONTINUOUS
 10
93.587107983
 20
132.2288827399
 11
93.5972680606
 21
132.2350755734
  0
LINE
  5
56C
100
AcDbEntity
  8
RACCORDO
100
AcDbLine
 62
253
  6
CONTINUOUS
 10
91.4111288835
 20
174.0582435703
 11
92.8547782098
 21
174.0582435703
  0
LINE
  5
56D
100
AcDbEntity
  8
ASSI
100
AcDbLine
 62
253
  6
CONTINUOUS
 10
91.4111288835
 20
174.0582435703
 11
92.8547782098
 21
174.0582435703
  0
LINE
  5
56E
100
AcDbEntity
  8
RACCORDO
100
AcDbLine
 62
253
  6
CONTINUOUS
 10
96.9694328995
 20
174.0582435703
 11
104.9547782098
 21
174.0582435703
  0
LINE
  5
56F
100
AcDbEntity
  8
ASSI
100
AcDbLine
 62
253
  6
CONTINUOUS
 10
96.9694328995
 20
174.0582435703
 11
104.9547782098
 21
174.0582435703
  0
LINE
  5
570
100
AcDbEntity
  8
RACCORDO
100
AcDbLine
 62
253
  6
CONTINUOUS
 10
109.0694328995
 20
174.0582435703
 11
110.5130822258
 21
174.0582435703
  0
LINE
  5
571
100
AcDbEntity
  8
ASSI
100
AcDbLine
 62
253
  6
CONTINUOUS
 10
109.0694328995
 20
174.0582435703
 11
110.5130822258
 21
174.0582435703
  0
LINE
  5
572
100
AcDbEntity
  8
0
100
AcDbLine
 62
7
  6
CONTINUOUS
 10
93.5972680606
 20
181.1557046897
 11
93.587107983
 21
181.1618975232
  0
LWPOLYLINE
  5
573
100
AcDbEntity
  8
ASSI
100
AcDbPolyline
 62
7
  6
CONTINUOUS
 90
13
 70
0
 10
93.5972680606
 20
181.1557046897
 10
93.587107983
 20
181.1618975232
 10
93.5766647423
 20
181.1675999004
 10
93.565962001
 20
181.1727989038
 10
93.555024004
 20
181.1774827574
 10
93.5438755285
 20
181.1816408529
 10
93.5325418337
 20
181.1852637733
 10
93.5210485935
 20
181.1883433133
 10
93.5094218422
 20
181.1908724993
 10
93.4976879208
 20
181.1928456057
 10
93.4858734103
 20
181.1942581658
 10
93.4740050707
 20
181.1951069813
 10
93.4621097855
 20
181.1953901316
  0
LINE
  5
574
100
AcDbEntity
  8
RACCORDO
100
AcDbLine
 62
7
  6
CONTINUOUS
 10
109.2854138086
 20
173.1083864063
 11
109.207785125
 21
173.201965313
  0
LINE
  5
575
100
AcDbEntity
  8
ASSI
100
AcDbLine
 62
7
  6
CONTINUOUS
 10
109.2854138086
 20
173.1083864063
 11
109.207785125
 21
173.201965313
  0
LWPOLYLINE
  5
576
100
AcDbEntity
  8
0
100
AcDbPolyline
 62
7
  6
CONTINUOUS
 90
8
 70
0
 10
111.1075879224
 20
180.9927064191
 10
111.1050587364
 20
181.0043331704
 10
111.1019791964
 20
181.0158264106
 10
111.098356276
 20
181.0271601054
 10
111.0941981805
 20
181.0383085809
 10
111.0895143269
 20
181.0492465779
 10
111.0843153235
 20
181.0599493192
 10
111.0786129463
 20
181.0703925598
  0
LWPOLYLINE
  5
577
100
AcDbEntity
  8
ASSI
100
AcDbPolyline
 62
7
  6
CONTINUOUS
 90
9
 70
0
 10
111.1075879224
 20
180.9927064191
 10
111.1050587364
 20
181.0043331704
 10
111.1019791964
 20
181.0158264106
 10
111.098356276
 20
181.0271601054
 10
111.0941981805
 20
181.0383085809
 10
111.0895143269
 20
181.0492465779
 10
111.0843153235
 20
181.0599493192
 10
111.0786129463
 20
181.0703925598
 10
111.0724201128
 20
181.0805526375
  0
LWPOLYLINE
  5
578
100
AcDbEntity
  8
0
100
AcDbPolyline
 62
7
  6
CONTINUOUS
 90
5
 70
0
 10
104.4996448256
 20
132.7937992192
 10
104.506398867
 20
132.801686459
 10
104.5137771845
 20
132.8101769959
 10
104.5218073785
 20
132.819326123
 10
104.5305048352
 20
132.8291376822
  0
LWPOLYLINE
  5
579
100
AcDbEntity
  8
ASSI
100
AcDbPolyline
 62
7
  6
CONTINUOUS
 90
5
 70
0
 10
104.4996448256
 20
132.7937992192
 10
104.506398867
 20
132.801686459
 10
104.5137771845
 20
132.8101769959
 10
104.5218073785
 20
132.819326123
 10
104.5305048352
 20
132.8291376822
  0
LINE
  5
57A
100
AcDbEntity
  8
0
100
AcDbLine
 62
7
  6
CONTINUOUS
 10
104.5305048352
 20
132.8291376822
 11
104.5499487609
 21
132.8507803396
  0
LINE
  5
57B
100
AcDbEntity
  8
ASSI
100
AcDbLine
 62
7
  6
CONTINUOUS
 10
104.5305048352
 20
132.8291376822
 11
104.5499487609
 21
132.8507803396
  0
LINE
  5
57C
100
AcDbEntity
  8
0
100
AcDbLine
 62
7
  6
CONTINUOUS
 10
104.5499487609
 20
132.8507803396
 11
104.5722206926
 21
132.8752434881
  0
LINE
  5
57D
100
AcDbEntity
  8
ASSI
100
AcDbLine
 62
7
  6
CONTINUOUS
 10
104.5499487609
 20
132.8507803396
 11
104.5722206926
 21
132.8752434881
  0
LINE
  5
57E
100
AcDbEntity
  8
0
100
AcDbLine
 62
7
  6
CONTINUOUS
 10
104.5722206926
 20
132.8752434881
 11
104.5973891842
 21
132.9025959077
  0
LINE
  5
57F
100
AcDbEntity
  8
ASSI
100
AcDbLine
 62
7
  6
CONTINUOUS
 10
104.5722206926
 20
132.8752434881
 11
104.5973891842
 21
132.9025959077
  0
LINE
  5
580
100
AcDbEntity
  8
0
100
AcDbLine
 62
7
  6
CONTINUOUS
 10
104.5973891842
 20
132.9025959077
 11
104.640730052
 21
132.9492107367
  0
LINE
  5
581
100
AcDbEntity
  8
ASSI
100
AcDbLine
 62
7
  6
CONTINUOUS
 10
104.5973891842
 20
132.9025959077
 11
104.640730052
 21
132.9492107367
  0
LINE
  5
582
100
AcDbEntity
  8
0
100
AcDbLine
 62
7
  6
CONTINUOUS
 10
104.640730052
 20
132.9492107367
 11
104.7090883453
 21
133.0219853821
  0
LINE
  5
583
100
AcDbEntity
  8
ASSI
100
AcDbLine
 62
7
  6
CONTINUOUS
 10
104.640730052
 20
132.9492107367
 11
104.7090883453
 21
133.0219853821
  0
LWPOLYLINE
  5
584
100
AcDbEntity
  8
0
100
AcDbPolyline
 62
7
  6
CONTINUOUS
 90
3
 70
0
 10
104.7090883453
 20
133.0219853821
 10
104.8508481765
 20
133.1714659262
 10
104.9151482646
 20
133.2390323169
  0
LWPOLYLINE
  5
585
100
AcDbEntity
  8
ASSI
100
AcDbPolyline
 62
7
  6
CONTINUOUS
 90
3
 70
0
 10
104.7090883453
 20
133.0219853821
 10
104.8508481765
 20
133.1714659262
 10
104.9151482646
 20
133.2390323169
  0
LINE
  5
586
100
AcDbEntity
  8
RACCORDO
100
AcDbLine
 62
253
  6
CONTINUOUS
 10
107.5581011004
 20
176.7942528491
 11
108.166110009
 21
176.7971200209
  0
LINE
  5
587
100
AcDbEntity
  8
ASSI
100
AcDbLine
 62
253
  6
CONTINUOUS
 10
107.5581011004
 20
176.7942528491
 11
108.166110009
 21
176.7971200209
  0
LINE
  5
588
100
AcDbEntity
  8
DRAFT
100
AcDbLine
 62
7
  6
CONTINUOUS
 10
91.4071902737
 20
175.8959567358
 11
93.6145668159
 21
175.8959567358
  0
LINE
  5
589
100
AcDbEntity
  8
ASSI
100
AcDbLine
 62
7
  6
CONTINUOUS
 10
91.4071902737
 20
175.8959567358
 11
93.6145668159
 21
175.8959567358
  0
LINE
  5
58A
100
AcDbEntity
  8
DRAFT
100
AcDbLine
 62
7
  6
CONTINUOUS
 10
94.5096442935
 20
175.8959567358
 11
107.4145668159
 21
175.8959567358
  0
LINE
  5
58B
100
AcDbEntity
  8
ASSI
100
AcDbLine
 62
7
  6
CONTINUOUS
 10
94.5096442935
 20
175.8959567358
 11
107.4145668159
 21
175.8959567358
  0
LINE
  5
58C
100
AcDbEntity
  8
DRAFT
100
AcDbLine
 62
7
  6
CONTINUOUS
 10
108.3096442935
 20
175.8959567358
 11
110.5170208356
 21
175.8959567358
  0
LINE
  5
58D
100
AcDbEntity
  8
ASSI
100
AcDbLine
 62
7
  6
CONTINUOUS
 10
108.3096442935
 20
175.8959567358
 11
110.5170208356
 21
175.8959567358
  0
LINE
  5
58E
100
AcDbEntity
  8
RACCORDO
100
AcDbLine
 62
253
  6
CONTINUOUS
 10
91.3659116695
 20
175.9785391055
 11
93.6352045462
 21
175.9785391055
  0
LINE
  5
58F
100
AcDbEntity
  8
ASSI
100
AcDbLine
 62
253
  6
CONTINUOUS
 10
91.3659116695
 20
175.9785391055
 11
93.6352045462
 21
175.9785391055
  0
LINE
  5
590
100
AcDbEntity
  8
RACCORDO
100
AcDbLine
 62
253
  6
CONTINUOUS
 10
94.4890065632
 20
175.9785391055
 11
107.4352045462
 21
175.9785391055
  0
LINE
  5
591
100
AcDbEntity
  8
ASSI
100
AcDbLine
 62
253
  6
CONTINUOUS
 10
94.4890065632
 20
175.9785391055
 11
107.4352045462
 21
175.9785391055
  0
LINE
  5
592
100
AcDbEntity
  8
RACCORDO
100
AcDbLine
 62
253
  6
CONTINUOUS
 10
108.2890065632
 20
175.9785391055
 11
110.5582994399
 21
175.9785391055
  0
LINE
  5
593
100
AcDbEntity
  8
ASSI
100
AcDbLine
 62
253
  6
CONTINUOUS
 10
108.2890065632
 20
175.9785391055
 11
110.5582994399
 21
175.9785391055
  0
LINE
  5
594
100
AcDbEntity
  8
RACCORDO
100
AcDbLine
 62
253
  6
CONTINUOUS
 10
91.3574887235
 20
176.478234519
 11
93.6394156984
 21
176.478234519
  0
LINE
  5
595
100
AcDbEntity
  8
ASSI
100
AcDbLine
 62
253
  6
CONTINUOUS
 10
91.3574887235
 20
176.478234519
 11
93.6394156984
 21
176.478234519
  0
LINE
  5
596
100
AcDbEntity
  8
RACCORDO
100
AcDbLine
 62
253
  6
CONTINUOUS
 10
94.4847954109
 20
176.478234519
 11
107.4394156984
 21
176.478234519
  0
LINE
  5
597
100
AcDbEntity
  8
ASSI
100
AcDbLine
 62
253
  6
CONTINUOUS
 10
94.4847954109
 20
176.478234519
 11
107.4394156984
 21
176.478234519
  0
LINE
  5
598
100
AcDbEntity
  8
RACCORDO
100
AcDbLine
 62
253
  6
CONTINUOUS
 10
108.2847954109
 20
176.478234519
 11
110.5667223859
 21
176.478234519
  0
LINE
  5
599
100
AcDbEntity
  8
ASSI
100
AcDbLine
 62
253
  6
CONTINUOUS
 10
108.2847954109
 20
176.478234519
 11
110.5667223859
 21
176.478234519
  0
LINE
  5
59A
100
AcDbEntity
  8
RACCORDO
100
AcDbLine
 62
253
  6
CONTINUOUS
 10
93.7559376615
 20
176.501677695
 11
94.3682734479
 21
176.501677695
  0
LINE
  5
59B
100
AcDbEntity
  8
ASSI
100
AcDbLine
 62
253
  6
CONTINUOUS
 10
93.7559376615
 20
176.501677695
 11
94.3682734479
 21
176.501677695
  0
LINE
  5
59C
100
AcDbEntity
  8
RACCORDO
100
AcDbLine
 62
253
  6
CONTINUOUS
 10
107.5559376615
 20
176.501677695
 11
108.1682734479
 21
176.501677695
  0
LINE
  5
59D
100
AcDbEntity
  8
ASSI
100
AcDbLine
 62
253
  6
CONTINUOUS
 10
107.5559376615
 20
176.501677695
 11
108.1682734479
 21
176.501677695
  0
LINE
  5
59E
100
AcDbEntity
  8
DRAFT
100
AcDbLine
 62
7
  6
CONTINUOUS
 10
107.4394156984
 20
176.6727002753
 11
94.4847954109
 21
176.6727002753
  0
LINE
  5
59F
100
AcDbEntity
  8
ASSI
100
AcDbLine
 62
7
  6
CONTINUOUS
 10
107.4394156984
 20
176.6727002753
 11
94.4847954109
 21
176.6727002753
  0
LINE
  5
5A0
100
AcDbEntity
  8
RACCORDO
100
AcDbLine
 62
7
  6
CONTINUOUS
 10
107.5581011004
 20
176.7942528491
 11
94.366110009
 21
176.7942528491
  0
LINE
  5
5A1
100
AcDbEntity
  8
ASSI
100
AcDbLine
 62
7
  6
CONTINUOUS
 10
107.5581011004
 20
176.7942528491
 11
94.366110009
 21
176.7942528491
  0
LINE
  5
5A2
100
AcDbEntity
  8
RACCORDO
100
AcDbLine
 62
253
  6
CONTINUOUS
 10
93.7581011004
 20
176.7971200209
 11
94.366110009
 21
176.7942528491
  0
LINE
  5
5A3
100
AcDbEntity
  8
ASSI
100
AcDbLine
 62
253
  6
CONTINUOUS
 10
93.7581011004
 20
176.7971200209
 11
94.366110009
 21
176.7942528491
  0
LWPOLYLINE
  5
5A4
100
AcDbEntity
  8
0
100
AcDbPolyline
 62
7
  6
CONTINUOUS
 90
12
 70
0
 10
93.587107983
 20
181.1618975232
 10
93.5766647423
 20
181.1675999004
 10
93.565962001
 20
181.1727989038
 10
93.555024004
 20
181.1774827574
 10
93.5438755285
 20
181.1816408529
 10
93.5325418337
 20
181.1852637733
 10
93.5210485935
 20
181.1883433133
 10
93.5094218422
 20
181.1908724993
 10
93.4976879208
 20
181.1928456057
 10
93.4858734103
 20
181.1942581658
 10
93.4740050707
 20
181.1951069813
 10
93.4621097855
 20
181.1953901316
  0
LINE
  5
5A5
100
AcDbEntity
  8
0
100
AcDbLine
 62
7
  6
CONTINUOUS
 10
104.9151482646
 20
180.1517479463
 11
104.6907834534
 21
180.3882271083
  0
LINE
  5
5A6
100
AcDbEntity
  8
ASSI
100
AcDbLine
 62
7
  6
CONTINUOUS
 10
104.9151482646
 20
180.1517479463
 11
104.6907834534
 21
180.3882271083
  0
LINE
  5
5A7
100
AcDbEntity
  8
0
100
AcDbLine
 62
7
  6
CONTINUOUS
 10
104.6907834534
 20
180.3882271083
 11
104.6254591781
 21
180.457941687
  0
LINE
  5
5A8
100
AcDbEntity
  8
ASSI
100
AcDbLine
 62
7
  6
CONTINUOUS
 10
104.6907834534
 20
180.3882271083
 11
104.6254591781
 21
180.457941687
  0
LINE
  5
5A9
100
AcDbEntity
  8
0
100
AcDbLine
 62
7
  6
CONTINUOUS
 10
104.6254591781
 20
180.457941687
 11
104.5844184611
 21
180.5022497901
  0
LINE
  5
5AA
100
AcDbEntity
  8
ASSI
100
AcDbLine
 62
7
  6
CONTINUOUS
 10
104.6254591781
 20
180.457941687
 11
104.5844184611
 21
180.5022497901
  0
LINE
  5
5AB
100
AcDbEntity
  8
0
100
AcDbLine
 62
7
  6
CONTINUOUS
 10
104.5844184611
 20
180.5022497901
 11
104.5607202151
 21
180.528127072
  0
LINE
  5
5AC
100
AcDbEntity
  8
ASSI
100
AcDbLine
 62
7
  6
CONTINUOUS
 10
104.5844184611
 20
180.5022497901
 11
104.5607202151
 21
180.528127072
  0
LWPOLYLINE
  5
5AD
100
AcDbEntity
  8
0
100
AcDbPolyline
 62
7
  6
CONTINUOUS
 90
19
 70
0
 10
104.5607202151
 20
180.528127072
 10
104.5398938567
 20
180.5511555575
 10
104.5305341431
 20
180.5616098914
 10
104.5218488655
 20
180.5714071385
 10
104.5138294493
 20
180.5805437562
 10
104.5064601385
 20
180.5890232871
 10
104.4997108512
 20
180.5969034096
 10
104.4935769409
 20
180.6041810083
 10
104.4880385247
 20
180.6108591987
 10
104.4830542572
 20
180.6170050051
 10
104.4786151431
 20
180.6226306366
 10
104.4747209266
 20
180.6277238843
 10
104.4713560222
 20
180.6323151458
 10
104.4685167384
 20
180.6364087661
 10
104.4662019431
 20
180.6400004004
 10
104.4644057459
 20
180.6431074121
 10
104.4631256279
 20
180.6457355891
 10
104.4623599666
 20
180.6478791437
 10
104.4621055547
 20
180.6495380757
  0
LWPOLYLINE
  5
5AE
100
AcDbEntity
  8
ASSI
100
AcDbPolyline
 62
7
  6
CONTINUOUS
 90
19
 70
0
 10
104.5607202151
 20
180.528127072
 10
104.5398938567
 20
180.5511555575
 10
104.5305341431
 20
180.5616098914
 10
104.5218488655
 20
180.5714071385
 10
104.5138294493
 20
180.5805437562
 10
104.5064601385
 20
180.5890232871
 10
104.4997108512
 20
180.5969034096
 10
104.4935769409
 20
180.6041810083
 10
104.4880385247
 20
180.6108591987
 10
104.4830542572
 20
180.6170050051
 10
104.4786151431
 20
180.6226306366
 10
104.4747209266
 20
180.6277238843
 10
104.4713560222
 20
180.6323151458
 10
104.4685167384
 20
180.6364087661
 10
104.4662019431
 20
180.6400004004
 10
104.4644057459
 20
180.6431074121
 10
104.4631256279
 20
180.6457355891
 10
104.4623599666
 20
180.6478791437
 10
104.4621055547
 20
180.6495380757
  0
LWPOLYLINE
  5
5AF
100
AcDbEntity
  8
0
100
AcDbPolyline
 62
7
  6
CONTINUOUS
 90
12
 70
0
 10
111.0786129463
 20
132.3203877033
 10
111.0843153235
 20
132.330830944
 10
111.0895143269
 20
132.3415336853
 10
111.0941981805
 20
132.3524716823
 10
111.098356276
 20
132.3636201578
 10
111.1019791964
 20
132.3749538526
 10
111.1050587364
 20
132.3864470928
 10
111.1075879224
 20
132.3980738441
 10
111.1095610288
 20
132.4098077654
 10
111.1109735889
 20
132.421622276
 10
111.1118224044
 20
132.4334906156
 10
111.1121055547
 20
132.4453859008
  0
LINE
  5
5B0
100
AcDbEntity
  8
0
100
AcDbLine
 62
7
  6
CONTINUOUS
 10
110.6121055547
 20
136.4963504814
 11
109.9119992171
 21
135.7953901316
  0
LINE
  5
5B1
100
AcDbEntity
  8
ASSI
100
AcDbLine
 62
7
  6
CONTINUOUS
 10
110.6121055547
 20
136.4963504814
 11
109.9119992171
 21
135.7953901316
  0
LINE
  5
5B2
100
AcDbEntity
  8
0
100
AcDbLine
 62
7
  6
CONTINUOUS
 10
108.2179233845
 20
134.3012079614
 11
109.2121055547
 21
135.2953901316
  0
LINE
  5
5B3
100
AcDbEntity
  8
ASSI
100
AcDbLine
 62
7
  6
CONTINUOUS
 10
108.2179233845
 20
134.3012079614
 11
109.2121055547
 21
135.2953901316
  0
LWPOLYLINE
  5
5B4
100
AcDbEntity
  8
0
100
AcDbPolyline
 62
7
  6
CONTINUOUS
 90
8
 70
0
 10
108.4147892672
 20
181.1908724993
 10
108.4031625159
 20
181.1883433133
 10
108.3916692757
 20
181.1852637733
 10
108.3803355809
 20
181.1816408529
 10
108.3691871054
 20
181.1774827574
 10
108.3582491084
 20
181.1727989038
 10
108.3475463671
 20
181.1675999004
 10
108.3371031264
 20
181.1618975232
  0
LWPOLYLINE
  5
5B5
100
AcDbEntity
  8
ASSI
100
AcDbPolyline
 62
7
  6
CONTINUOUS
 90
9
 70
0
 10
108.4147892672
 20
181.1908724993
 10
108.4031625159
 20
181.1883433133
 10
108.3916692757
 20
181.1852637733
 10
108.3803355809
 20
181.1816408529
 10
108.3691871054
 20
181.1774827574
 10
108.3582491084
 20
181.1727989038
 10
108.3475463671
 20
181.1675999004
 10
108.3371031264
 20
181.1618975232
 10
108.3269430488
 20
181.1557046897
  0
LINE
  5
5B6
100
AcDbEntity
  8
DRAFT
100
AcDbLine
 62
7
  6
CONTINUOUS
 10
92.0575950611
 20
177.4591299054
 11
93.6394156984
 21
177.4591299054
  0
LINE
  5
5B7
100
AcDbEntity
  8
ASSI
100
AcDbLine
 62
7
  6
CONTINUOUS
 10
92.0575950611
 20
177.4591299054
 11
93.6394156984
 21
177.4591299054
  0
LINE
  5
5B8
100
AcDbEntity
  8
DRAFT
100
AcDbLine
 62
7
  6
CONTINUOUS
 10
108.2847954109
 20
177.4591299054
 11
109.8666160483
 21
177.4591299054
  0
LINE
  5
5B9
100
AcDbEntity
  8
ASSI
100
AcDbLine
 62
7
  6
CONTINUOUS
 10
108.2847954109
 20
177.4591299054
 11
109.8666160483
 21
177.4591299054
  0
LINE
  5
5BA
100
AcDbEntity
  8
0
100
AcDbLine
 62
7
  6
CONTINUOUS
 10
97.9621055547
 20
177.4953901316
 11
103.9621055547
 21
177.4953901316
  0
LINE
  5
5BB
100
AcDbEntity
  8
ASSI
100
AcDbLine
 62
7
  6
CONTINUOUS
 10
97.9621055547
 20
177.4953901316
 11
103.9621055547
 21
177.4953901316
  0
LINE
  5
5BC
100
AcDbEntity
  8
DRAFT
100
AcDbLine
 62
7
  6
CONTINUOUS
 10
108.5287512089
 20
177.5953901316
 11
108.166110009
 21
177.5953901316
  0
LINE
  5
5BD
100
AcDbEntity
  8
DRAFT
100
AcDbLine
 62
7
  6
CONTINUOUS
 10
93.7581011004
 20
177.5953901316
 11
93.3954599005
 21
177.5953901316
  0
LINE
  5
5BE
100
AcDbEntity
  8
0
100
AcDbLine
 62
7
  6
CONTINUOUS
 10
92.0122118923
 20
177.5953901316
 11
93.3954599005
 21
177.5953901316
  0
LINE
  5
5BF
100
AcDbEntity
  8
ASSI
100
AcDbLine
 62
7
  6
CONTINUOUS
 10
92.0122118923
 20
177.5953901316
 11
93.7581011004
 21
177.5953901316
  0
LINE
  5
5C0
100
AcDbEntity
  8
0
100
AcDbLine
 62
7
  6
CONTINUOUS
 10
108.5287512089
 20
177.5953901316
 11
109.9119992171
 21
177.5953901316
  0
LINE
  5
5C1
100
AcDbEntity
  8
ASSI
100
AcDbLine
 62
7
  6
CONTINUOUS
 10
108.166110009
 20
177.5953901316
 11
109.9119992171
 21
177.5953901316
  0
LINE
  5
5C2
100
AcDbEntity
  8
0
100
AcDbLine
 62
7
  6
CONTINUOUS
 10
89.8203960791
 20
177.7180398624
 11
89.795523243
 21
177.7180398624
  0
LINE
  5
5C3
100
AcDbEntity
  8
ASSI
100
AcDbLine
 62
7
  6
CONTINUOUS
 10
89.8203960791
 20
177.7180398624
 11
89.795523243
 21
177.7180398624
  0
LINE
  5
5C4
100
AcDbEntity
  8
0
100
AcDbLine
 62
7
  6
CONTINUOUS
 10
112.1038150303
 20
177.7180398624
 11
112.1286878664
 21
177.7180398624
  0
LINE
  5
5C5
100
AcDbEntity
  8
ASSI
100
AcDbLine
 62
7
  6
CONTINUOUS
 10
112.1038150303
 20
177.7180398624
 11
112.1286878664
 21
177.7180398624
  0
LINE
  5
5C6
100
AcDbEntity
  8
0
100
AcDbLine
 62
253
  6
CONTINUOUS
 10
108.5287512089
 20
178.0313770802
 11
103.9621055547
 21
178.0313770802
  0
LINE
  5
5C7
100
AcDbEntity
  8
ASSI
100
AcDbLine
 62
253
  6
CONTINUOUS
 10
108.5287512089
 20
178.0313770802
 11
103.9621055547
 21
178.0313770802
  0
LINE
  5
5C8
100
AcDbEntity
  8
0
100
AcDbLine
 62
253
  6
CONTINUOUS
 10
97.9621055547
 20
178.0313770802
 11
93.3954599005
 21
178.0313770802
  0
LINE
  5
5C9
100
AcDbEntity
  8
ASSI
100
AcDbLine
 62
253
  6
CONTINUOUS
 10
97.9621055547
 20
178.0313770802
 11
93.3954599005
 21
178.0313770802
  0
LINE
  5
5CA
100
AcDbEntity
  8
0
100
AcDbLine
 62
7
  6
CONTINUOUS
 10
103.9621055547
 20
178.3953901316
 11
97.9621055547
 21
178.3953901316
  0
LINE
  5
5CB
100
AcDbEntity
  8
ASSI
100
AcDbLine
 62
7
  6
CONTINUOUS
 10
103.9621055547
 20
178.3953901316
 11
97.9621055547
 21
178.3953901316
  0
LINE
  5
5CC
100
AcDbEntity
  8
0
100
AcDbLine
 62
253
  6
CONTINUOUS
 10
108.2761355292
 20
179.0313601571
 11
103.9621055547
 21
179.0313601571
  0
LINE
  5
5CD
100
AcDbEntity
  8
ASSI
100
AcDbLine
 62
7
  6
CONTINUOUS
 10
108.2761355292
 20
179.0313601571
 11
103.9621055547
 21
179.0313601571
  0
LINE
  5
5CE
100
AcDbEntity
  8
0
100
AcDbLine
 62
253
  6
CONTINUOUS
 10
97.9621055547
 20
179.0313601571
 11
93.6480755802
 21
179.0313601571
  0
LINE
  5
5CF
100
AcDbEntity
  8
ASSI
100
AcDbLine
 62
7
  6
CONTINUOUS
 10
97.9621055547
 20
179.0313601571
 11
93.6480755802
 21
179.0313601571
  0
LINE
  5
5D0
100
AcDbEntity
  8
0
100
AcDbLine
 62
7
  6
CONTINUOUS
 10
104.4621055547
 20
179.0895723018
 11
103.9621055547
 21
179.0895723018
  0
LINE
  5
5D1
100
AcDbEntity
  8
ASSI
100
AcDbLine
 62
7
  6
CONTINUOUS
 10
104.4621055547
 20
179.0895723018
 11
103.9621055547
 21
179.0895723018
  0
LINE
  5
5D2
100
AcDbEntity
  8
0
100
AcDbLine
 62
7
  6
CONTINUOUS
 10
97.9621055547
 20
179.0895723018
 11
97.4621055547
 21
179.0895723018
  0
LINE
  5
5D3
100
AcDbEntity
  8
ASSI
100
AcDbLine
 62
7
  6
CONTINUOUS
 10
97.9621055547
 20
179.0895723018
 11
97.4621055547
 21
179.0895723018
  0
LINE
  5
5D4
100
AcDbEntity
  8
0
100
AcDbLine
 62
7
  6
CONTINUOUS
 10
90.320389733
 20
179.0895723018
 11
93.7062877249
 21
179.0895723018
  0
LINE
  5
5D5
100
AcDbEntity
  8
ASSI
100
AcDbLine
 62
7
  6
CONTINUOUS
 10
90.320389733
 20
179.0895723018
 11
93.7062877249
 21
179.0895723018
  0
LINE
  5
5D6
100
AcDbEntity
  8
0
100
AcDbLine
 62
7
  6
CONTINUOUS
 10
108.2179233845
 20
179.0895723018
 11
111.6038213764
 21
179.0895723018
  0
LINE
  5
5D7
100
AcDbEntity
  8
ASSI
100
AcDbLine
 62
7
  6
CONTINUOUS
 10
108.2179233845
 20
179.0895723018
 11
111.6038213764
 21
179.0895723018
  0
LINE
  5
5D8
100
AcDbEntity
  8
0
100
AcDbLine
 62
7
  6
CONTINUOUS
 10
99.9621055547
 20
179.090154096
 11
101.9621055547
 21
179.090154096
  0
LINE
  5
5D9
100
AcDbEntity
  8
ASSI
100
AcDbLine
 62
7
  6
CONTINUOUS
 10
99.9621055547
 20
179.090154096
 11
101.9621055547
 21
179.090154096
  0
LINE
  5
5DA
100
AcDbEntity
  8
RACCORDO
100
AcDbLine
 62
7
  6
CONTINUOUS
 10
93.7062877249
 20
179.0953901316
 11
96.5121055547
 21
179.0953901316
  0
LINE
  5
5DB
100
AcDbEntity
  8
ASSI
100
AcDbLine
 62
7
  6
CONTINUOUS
 10
93.9120480428
 20
179.0953901316
 11
96.5121055547
 21
179.0953901316
  0
LINE
  5
5DC
100
AcDbEntity
  8
RACCORDO
100
AcDbLine
 62
7
  6
CONTINUOUS
 10
105.4121055547
 20
179.0953901316
 11
108.2179233845
 21
179.0953901316
  0
LINE
  5
5DD
100
AcDbEntity
  8
ASSI
100
AcDbLine
 62
7
  6
CONTINUOUS
 10
105.4121055547
 20
179.0953901316
 11
108.0121630666
 21
179.0953901316
  0
LINE
  5
5DE
100
AcDbEntity
  8
0
100
AcDbLine
 62
7
  6
CONTINUOUS
 10
109.2121055547
 20
178.0953901316
 11
108.2179233845
 21
179.0895723018
  0
LINE
  5
5DF
100
AcDbEntity
  8
ASSI
100
AcDbLine
 62
7
  6
CONTINUOUS
 10
109.2121055547
 20
178.0953901316
 11
108.2179233845
 21
179.0895723018
  0
LINE
  5
5E0
100
AcDbEntity
  8
0
100
AcDbLine
 62
7
  6
CONTINUOUS
 10
110.5667223859
 20
176.7581695556
 11
109.8666160483
 21
177.4591299054
  0
LINE
  5
5E1
100
AcDbEntity
  8
ASSI
100
AcDbLine
 62
7
  6
CONTINUOUS
 10
110.5667223859
 20
176.7581695556
 11
109.8666160483
 21
177.4591299054
  0
LINE
  5
5E2
100
AcDbEntity
  8
0
100
AcDbLine
 62
7
  6
CONTINUOUS
 10
110.6121055547
 20
176.8944297818
 11
109.9119992171
 21
177.5953901316
  0
LINE
  5
5E3
100
AcDbEntity
  8
ASSI
100
AcDbLine
 62
7
  6
CONTINUOUS
 10
110.6121055547
 20
176.8944297818
 11
109.9119992171
 21
177.5953901316
  0
LINE
  5
5E4
100
AcDbEntity
  8
0
100
AcDbLine
 62
7
  6
CONTINUOUS
 10
111.0724201128
 20
132.3102276257
 11
111.0786129463
 21
132.3203877033
  0
LWPOLYLINE
  5
5E5
100
AcDbEntity
  8
ASSI
100
AcDbPolyline
 62
7
  6
CONTINUOUS
 90
13
 70
0
 10
111.0724201128
 20
132.3102276257
 10
111.0786129463
 20
132.3203877033
 10
111.0843153235
 20
132.330830944
 10
111.0895143269
 20
132.3415336853
 10
111.0941981805
 20
132.3524716823
 10
111.098356276
 20
132.3636201578
 10
111.1019791964
 20
132.3749538526
 10
111.1050587364
 20
132.3864470928
 10
111.1075879224
 20
132.3980738441
 10
111.1095610288
 20
132.4098077654
 10
111.1109735889
 20
132.421622276
 10
111.1118224044
 20
132.4334906156
 10
111.1121055547
 20
132.4453859008
  0
LWPOLYLINE
  5
5E6
100
AcDbEntity
  8
0
100
AcDbPolyline
 62
7
  6
CONTINUOUS
 90
34
 70
0
 10
108.4664731579
 20
181.1910182976
 10
108.4545976863
 20
181.1907356779
 10
108.4427439438
 20
181.1898887761
 10
108.4309387683
 20
181.1884787802
 10
108.4192072737
 20
181.1865078342
 10
108.4075778384
 20
181.1839798443
 10
108.3960818728
 20
181.1809012656
 10
108.3847471077
 20
181.1772796559
 10
108.3735974957
 20
181.1731228015
 10
108.3626580946
 20
181.1684400279
 10
108.3519535597
 20
181.1632418426
 10
108.3415083063
 20
181.1575400541
 10
108.3313462307
 20
181.1513476917
 10
108.321490446
 20
181.1446788544
 10
108.3119631845
 20
181.1375486011
 10
108.3027859713
 20
181.1299730402
 10
108.2939795797
 20
181.1219693086
 10
108.2855639934
 20
181.113555557
 10
108.2775582993
 20
181.1047508615
 10
108.2699806428
 20
181.0955751745
 10
108.2628481917
 20
181.0860492803
 10
108.2561771116
 20
181.0761947642
 10
108.2499825193
 20
181.066033952
 10
108.2442784541
 20
181.0555898668
 10
108.2390778465
 20
181.0448861803
 10
108.2343924821
 20
181.0339471468
 10
108.2302329779
 20
181.0227975505
 10
108.2266087607
 20
181.011462658
 10
108.2235280421
 20
180.9999681469
 10
108.2209978051
 20
180.9883400676
 10
108.2190237865
 20
180.9766047879
 10
108.2176104577
 20
180.9647889056
 10
108.2167610176
 20
180.9529191873
 10
108.2164773887
 20
180.9410225284
  0
LWPOLYLINE
  5
5E7
100
AcDbEntity
  8
ASSI
100
AcDbPolyline
 62
7
  6
CONTINUOUS
 90
34
 70
0
 10
108.4664731579
 20
181.1910182976
 10
108.4545976863
 20
181.1907356779
 10
108.4427439438
 20
181.1898887761
 10
108.4309387683
 20
181.1884787802
 10
108.4192072737
 20
181.1865078342
 10
108.4075778384
 20
181.1839798443
 10
108.3960818728
 20
181.1809012656
 10
108.3847471077
 20
181.1772796559
 10
108.3735974957
 20
181.1731228015
 10
108.3626580946
 20
181.1684400279
 10
108.3519535597
 20
181.1632418426
 10
108.3415083063
 20
181.1575400541
 10
108.3313462307
 20
181.1513476917
 10
108.321490446
 20
181.1446788544
 10
108.3119631845
 20
181.1375486011
 10
108.3027859713
 20
181.1299730402
 10
108.2939795797
 20
181.1219693086
 10
108.2855639934
 20
181.113555557
 10
108.2775582993
 20
181.1047508615
 10
108.2699806428
 20
181.0955751745
 10
108.2628481917
 20
181.0860492803
 10
108.2561771116
 20
181.0761947642
 10
108.2499825193
 20
181.066033952
 10
108.2442784541
 20
181.0555898668
 10
108.2390778465
 20
181.0448861803
 10
108.2343924821
 20
181.0339471468
 10
108.2302329779
 20
181.0227975505
 10
108.2266087607
 20
181.011462658
 10
108.2235280421
 20
180.9999681469
 10
108.2209978051
 20
180.9883400676
 10
108.2190237865
 20
180.9766047879
 10
108.2176104577
 20
180.9647889056
 10
108.2167610176
 20
180.9529191873
 10
108.2164773887
 20
180.9410225284
  0
LWPOLYLINE
  5
5E8
100
AcDbEntity
  8
0
100
AcDbPolyline
 62
7
  6
CONTINUOUS
 90
5
 70
0
 10
108.4621013239
 20
181.1953901316
 10
108.4502060387
 20
181.1951069813
 10
108.4383376991
 20
181.1942581658
 10
108.4265231885
 20
181.1928456057
 10
108.4147892672
 20
181.1908724993
  0
LWPOLYLINE
  5
5E9
100
AcDbEntity
  8
ASSI
100
AcDbPolyline
 62
7
  6
CONTINUOUS
 90
5
 70
0
 10
108.4621013239
 20
181.1953901316
 10
108.4502060387
 20
181.1951069813
 10
108.4383376991
 20
181.1942581658
 10
108.4265231885
 20
181.1928456057
 10
108.4147892672
 20
181.1908724993
  0
LINE
  5
5EA
100
AcDbEntity
  8
0
100
AcDbLine
 62
7
  6
CONTINUOUS
 10
110.8628285526
 20
179.8180398624
 11
108.4613825568
 21
179.8180398624
  0
LINE
  5
5EB
100
AcDbEntity
  8
ASSI
100
AcDbLine
 62
7
  6
CONTINUOUS
 10
110.8628285526
 20
179.8180398624
 11
108.4613825568
 21
179.8180398624
  0
LINE
  5
5EC
100
AcDbEntity
  8
0
100
AcDbLine
 62
7
  6
CONTINUOUS
 10
91.0613825568
 20
179.8180398624
 11
93.4628285526
 21
179.8180398624
  0
LINE
  5
5ED
100
AcDbEntity
  8
ASSI
100
AcDbLine
 62
7
  6
CONTINUOUS
 10
91.0613825568
 20
179.8180398624
 11
93.4628285526
 21
179.8180398624
  0
LINE
  5
5EE
100
AcDbEntity
  8
0
100
AcDbLine
 62
253
  6
CONTINUOUS
 10
91.0664731579
 20
180.3232213479
 11
93.4577379515
 21
180.3232213479
  0
LINE
  5
5EF
100
AcDbEntity
  8
ASSI
100
AcDbLine
 62
253
  6
CONTINUOUS
 10
91.0664731579
 20
180.3232213479
 11
93.4577379515
 21
180.3232213479
  0
LINE
  5
5F0
100
AcDbEntity
  8
0
100
AcDbLine
 62
253
  6
CONTINUOUS
 10
108.4664731579
 20
180.3232213479
 11
110.8577379515
 21
180.3232213479
  0
LINE
  5
5F1
100
AcDbEntity
  8
ASSI
100
AcDbLine
 62
253
  6
CONTINUOUS
 10
108.4664731579
 20
180.3232213479
 11
110.8577379515
 21
180.3232213479
  0
LINE
  5
5F2
100
AcDbEntity
  8
0
100
AcDbLine
 62
253
  6
CONTINUOUS
 10
90.8164773887
 20
180.5397276989
 11
93.7077337207
 21
180.5397276989
  0
LINE
  5
5F3
100
AcDbEntity
  8
ASSI
100
AcDbLine
 62
253
  6
CONTINUOUS
 10
90.8164773887
 20
180.5397276989
 11
93.7077337207
 21
180.5397276989
  0
LINE
  5
5F4
100
AcDbEntity
  8
0
100
AcDbLine
 62
253
  6
CONTINUOUS
 10
108.2164773887
 20
180.5397276989
 11
111.1077337207
 21
180.5397276989
  0
LINE
  5
5F5
100
AcDbEntity
  8
ASSI
100
AcDbLine
 62
253
  6
CONTINUOUS
 10
108.2164773887
 20
180.5397276989
 11
111.1077337207
 21
180.5397276989
  0
LINE
  5
5F6
100
AcDbEntity
  8
0
100
AcDbLine
 62
7
  6
CONTINUOUS
 10
96.5557562016
 20
180.6517394847
 11
97.4621055547
 21
180.6517394847
  0
LINE
  5
5F7
100
AcDbEntity
  8
ASSI
100
AcDbLine
 62
7
  6
CONTINUOUS
 10
96.5557562016
 20
180.6517394847
 11
97.4621055547
 21
180.6517394847
  0
LINE
  5
5F8
100
AcDbEntity
  8
0
100
AcDbLine
 62
7
  6
CONTINUOUS
 10
104.4621055547
 20
180.6517394847
 11
105.3684549078
 21
180.6517394847
  0
LINE
  5
5F9
100
AcDbEntity
  8
ASSI
100
AcDbLine
 62
7
  6
CONTINUOUS
 10
104.4621055547
 20
180.6517394847
 11
105.3684549078
 21
180.6517394847
  0
LINE
  5
5FA
100
AcDbEntity
  8
0
100
AcDbLine
 62
7
  6
CONTINUOUS
 10
97.4621055547
 20
180.6895723018
 11
99.7621055547
 21
180.6895723018
  0
LINE
  5
5FB
100
AcDbEntity
  8
ASSI
100
AcDbLine
 62
7
  6
CONTINUOUS
 10
97.4621055547
 20
180.6895723018
 11
99.7621055547
 21
180.6895723018
  0
LINE
  5
5FC
100
AcDbEntity
  8
0
100
AcDbLine
 62
7
  6
CONTINUOUS
 10
102.1621055547
 20
180.6895723018
 11
104.4621055547
 21
180.6895723018
  0
LINE
  5
5FD
100
AcDbEntity
  8
ASSI
100
AcDbLine
 62
7
  6
CONTINUOUS
 10
102.1621055547
 20
180.6895723018
 11
104.4621055547
 21
180.6895723018
  0
LINE
  5
5FE
100
AcDbEntity
  8
0
100
AcDbLine
 62
7
  6
CONTINUOUS
 10
105.4121055547
 20
180.6953901316
 11
104.4621055547
 21
180.6953901316
  0
LINE
  5
5FF
100
AcDbEntity
  8
ASSI
100
AcDbLine
 62
7
  6
CONTINUOUS
 10
105.4121055547
 20
180.6953901316
 11
104.4621055547
 21
180.6953901316
  0
LINE
  5
600
100
AcDbEntity
  8
0
100
AcDbLine
 62
7
  6
CONTINUOUS
 10
97.4621055547
 20
180.6953901316
 11
96.5121055547
 21
180.6953901316
  0
LINE
  5
601
100
AcDbEntity
  8
ASSI
100
AcDbLine
 62
7
  6
CONTINUOUS
 10
97.4621055547
 20
180.6953901316
 11
96.5121055547
 21
180.6953901316
  0
LINE
  5
602
100
AcDbEntity
  8
0
100
AcDbLine
 62
253
  6
CONTINUOUS
 10
90.8164773887
 20
180.9410225284
 11
93.7077337207
 21
180.9410225284
  0
LINE
  5
603
100
AcDbEntity
  8
ASSI
100
AcDbLine
 62
253
  6
CONTINUOUS
 10
90.8164773887
 20
180.9410225284
 11
93.7077337207
 21
180.9410225284
  0
LINE
  5
604
100
AcDbEntity
  8
0
100
AcDbLine
 62
253
  6
CONTINUOUS
 10
108.2164773887
 20
180.9410225284
 11
111.1077337207
 21
180.9410225284
  0
LINE
  5
605
100
AcDbEntity
  8
ASSI
100
AcDbLine
 62
253
  6
CONTINUOUS
 10
108.2164773887
 20
180.9410225284
 11
111.1077337207
 21
180.9410225284
  0
LWPOLYLINE
  5
606
100
AcDbEntity
  8
0
100
AcDbPolyline
 62
7
  6
CONTINUOUS
 90
10
 70
0
 10
111.0724201128
 20
181.0805526375
 10
111.0657508502
 20
181.0904065367
 10
111.0586202654
 20
181.0999319354
 10
111.0510445136
 20
181.1091072506
 10
111.0430407552
 20
181.1179116977
 10
111.0346271208
 20
181.1263253321
 10
111.0258226737
 20
181.1343290904
 10
111.0166473585
 20
181.1419048423
 10
111.0071219598
 20
181.1490354271
 10
110.9972680606
 20
181.1557046897
  0
LWPOLYLINE
  5
607
100
AcDbEntity
  8
ASSI
100
AcDbPolyline
 62
7
  6
CONTINUOUS
 90
10
 70
0
 10
111.0724201128
 20
181.0805526375
 10
111.0657508502
 20
181.0904065367
 10
111.0586202654
 20
181.0999319354
 10
111.0510445136
 20
181.1091072506
 10
111.0430407552
 20
181.1179116977
 10
111.0346271208
 20
181.1263253321
 10
111.0258226737
 20
181.1343290904
 10
111.0166473585
 20
181.1419048423
 10
111.0071219598
 20
181.1490354271
 10
110.9972680606
 20
181.1557046897
  0
LINE
  5
608
100
AcDbEntity
  8
0
100
AcDbLine
 62
7
  6
CONTINUOUS
 10
111.0786129463
 20
181.0703925598
 11
111.0724201128
 21
181.0805526375
  0
LWPOLYLINE
  5
609
100
AcDbEntity
  8
0
100
AcDbPolyline
 62
7
  6
CONTINUOUS
 90
10
 70
0
 10
110.9972680606
 20
132.2350755734
 10
111.0071219598
 20
132.2417448361
 10
111.0166473585
 20
132.2488754209
 10
111.0258226737
 20
132.2564511727
 10
111.0346271208
 20
132.2644549311
 10
111.0430407552
 20
132.2728685655
 10
111.0510445136
 20
132.2816730125
 10
111.0586202654
 20
132.2908483277
 10
111.0657508502
 20
132.3003737265
 10
111.0724201128
 20
132.3102276257
  0
LWPOLYLINE
  5
60A
100
AcDbEntity
  8
ASSI
100
AcDbPolyline
 62
7
  6
CONTINUOUS
 90
10
 70
0
 10
110.9972680606
 20
132.2350755734
 10
111.0071219598
 20
132.2417448361
 10
111.0166473585
 20
132.2488754209
 10
111.0258226737
 20
132.2564511727
 10
111.0346271208
 20
132.2644549311
 10
111.0430407552
 20
132.2728685655
 10
111.0510445136
 20
132.2816730125
 10
111.0586202654
 20
132.2908483277
 10
111.0657508502
 20
132.3003737265
 10
111.0724201128
 20
132.3102276257
  0
LINE
  5
60B
100
AcDbEntity
  8
0
100
AcDbLine
 62
7
  6
CONTINUOUS
 10
110.987107983
 20
132.2288827399
 11
110.9972680606
 21
132.2350755734
  0
LWPOLYLINE
  5
60C
100
AcDbEntity
  8
0
100
AcDbPolyline
 62
7
  6
CONTINUOUS
 90
8
 70
0
 10
91.0147892672
 20
181.1908724993
 10
91.0031625159
 20
181.1883433133
 10
90.9916692757
 20
181.1852637733
 10
90.9803355809
 20
181.1816408529
 10
90.9691871054
 20
181.1774827574
 10
90.9582491084
 20
181.1727989038
 10
90.9475463671
 20
181.1675999004
 10
90.9371031264
 20
181.1618975232
  0
LWPOLYLINE
  5
60D
100
AcDbEntity
  8
ASSI
100
AcDbPolyline
 62
7
  6
CONTINUOUS
 90
9
 70
0
 10
91.0147892672
 20
181.1908724993
 10
91.0031625159
 20
181.1883433133
 10
90.9916692757
 20
181.1852637733
 10
90.9803355809
 20
181.1816408529
 10
90.9691871054
 20
181.1774827574
 10
90.9582491084
 20
181.1727989038
 10
90.9475463671
 20
181.1675999004
 10
90.9371031264
 20
181.1618975232
 10
90.9269430488
 20
181.1557046897
  0
LWPOLYLINE
  5
60E
100
AcDbEntity
  8
0
100
AcDbPolyline
 62
7
  6
CONTINUOUS
 90
34
 70
0
 10
91.0664731579
 20
181.1910182976
 10
91.0545976863
 20
181.1907356779
 10
91.0427439438
 20
181.1898887761
 10
91.0309387683
 20
181.1884787802
 10
91.0192072737
 20
181.1865078342
 10
91.0075778384
 20
181.1839798443
 10
90.9960818728
 20
181.1809012656
 10
90.9847471077
 20
181.1772796559
 10
90.9735974957
 20
181.1731228015
 10
90.9626580946
 20
181.1684400279
 10
90.9519535597
 20
181.1632418426
 10
90.9415083063
 20
181.1575400541
 10
90.9313462307
 20
181.1513476917
 10
90.921490446
 20
181.1446788544
 10
90.9119631845
 20
181.1375486011
 10
90.9027859713
 20
181.1299730402
 10
90.8939795797
 20
181.1219693086
 10
90.8855639934
 20
181.113555557
 10
90.8775582993
 20
181.1047508615
 10
90.8699806428
 20
181.0955751745
 10
90.8628481917
 20
181.0860492803
 10
90.8561771116
 20
181.0761947642
 10
90.8499825193
 20
181.066033952
 10
90.8442784541
 20
181.0555898668
 10
90.8390778465
 20
181.0448861803
 10
90.8343924821
 20
181.0339471468
 10
90.8302329779
 20
181.0227975505
 10
90.8266087607
 20
181.011462658
 10
90.8235280421
 20
180.9999681469
 10
90.8209978051
 20
180.9883400676
 10
90.8190237865
 20
180.9766047879
 10
90.8176104577
 20
180.9647889056
 10
90.8167610176
 20
180.9529191873
 10
90.8164773887
 20
180.9410225284
  0
LWPOLYLINE
  5
60F
100
AcDbEntity
  8
ASSI
100
AcDbPolyline
 62
7
  6
CONTINUOUS
 90
34
 70
0
 10
91.0664731579
 20
181.1910182976
 10
91.0545976863
 20
181.1907356779
 10
91.0427439438
 20
181.1898887761
 10
91.0309387683
 20
181.1884787802
 10
91.0192072737
 20
181.1865078342
 10
91.0075778384
 20
181.1839798443
 10
90.9960818728
 20
181.1809012656
 10
90.9847471077
 20
181.1772796559
 10
90.9735974957
 20
181.1731228015
 10
90.9626580946
 20
181.1684400279
 10
90.9519535597
 20
181.1632418426
 10
90.9415083063
 20
181.1575400541
 10
90.9313462307
 20
181.1513476917
 10
90.921490446
 20
181.1446788544
 10
90.9119631845
 20
181.1375486011
 10
90.9027859713
 20
181.1299730402
 10
90.8939795797
 20
181.1219693086
 10
90.8855639934
 20
181.113555557
 10
90.8775582993
 20
181.1047508615
 10
90.8699806428
 20
181.0955751745
 10
90.8628481917
 20
181.0860492803
 10
90.8561771116
 20
181.0761947642
 10
90.8499825193
 20
181.066033952
 10
90.8442784541
 20
181.0555898668
 10
90.8390778465
 20
181.0448861803
 10
90.8343924821
 20
181.0339471468
 10
90.8302329779
 20
181.0227975505
 10
90.8266087607
 20
181.011462658
 10
90.8235280421
 20
180.9999681469
 10
90.8209978051
 20
180.9883400676
 10
90.8190237865
 20
180.9766047879
 10
90.8176104577
 20
180.9647889056
 10
90.8167610176
 20
180.9529191873
 10
90.8164773887
 20
180.9410225284
  0
LWPOLYLINE
  5
610
100
AcDbEntity
  8
0
100
AcDbPolyline
 62
7
  6
CONTINUOUS
 90
5
 70
0
 10
91.0621013239
 20
181.1953901316
 10
91.0502060387
 20
181.1951069813
 10
91.0383376991
 20
181.1942581658
 10
91.0265231885
 20
181.1928456057
 10
91.0147892672
 20
181.1908724993
  0
LWPOLYLINE
  5
611
100
AcDbEntity
  8
ASSI
100
AcDbPolyline
 62
7
  6
CONTINUOUS
 90
5
 70
0
 10
91.0621013239
 20
181.1953901316
 10
91.0502060387
 20
181.1951069813
 10
91.0383376991
 20
181.1942581658
 10
91.0265231885
 20
181.1928456057
 10
91.0147892672
 20
181.1908724993
  0
LINE
  5
612
100
AcDbEntity
  8
0
100
AcDbLine
 62
7
  6
CONTINUOUS
 10
110.8577379515
 20
181.1910182976
 11
108.4664731579
 21
181.1910182976
  0
LINE
  5
613
100
AcDbEntity
  8
ASSI
100
AcDbLine
 62
7
  6
CONTINUOUS
 10
110.8577379515
 20
181.1910182976
 11
108.4664731579
 21
181.1910182976
  0
LINE
  5
614
100
AcDbEntity
  8
0
100
AcDbLine
 62
7
  6
CONTINUOUS
 10
93.4577379515
 20
181.1910182976
 11
91.0664731579
 21
181.1910182976
  0
LINE
  5
615
100
AcDbEntity
  8
ASSI
100
AcDbLine
 62
7
  6
CONTINUOUS
 10
93.4577379515
 20
181.1910182976
 11
91.0664731579
 21
181.1910182976
  0
LWPOLYLINE
  5
616
100
AcDbEntity
  8
0
100
AcDbPolyline
 62
7
  6
CONTINUOUS
 90
12
 70
0
 10
110.987107983
 20
181.1618975232
 10
110.9766647423
 20
181.1675999004
 10
110.965962001
 20
181.1727989038
 10
110.955024004
 20
181.1774827574
 10
110.9438755285
 20
181.1816408529
 10
110.9325418337
 20
181.1852637733
 10
110.9210485935
 20
181.1883433133
 10
110.9094218422
 20
181.1908724993
 10
110.8976879208
 20
181.1928456057
 10
110.8858734103
 20
181.1942581658
 10
110.8740050707
 20
181.1951069813
 10
110.8621097855
 20
181.1953901316
  0
LINE
  5
617
100
AcDbEntity
  8
0
100
AcDbLine
 62
7
  6
CONTINUOUS
 10
110.9972680606
 20
181.1557046897
 11
110.987107983
 21
181.1618975232
  0
LWPOLYLINE
  5
618
100
AcDbEntity
  8
ASSI
100
AcDbPolyline
 62
7
  6
CONTINUOUS
 90
13
 70
0
 10
110.9972680606
 20
181.1557046897
 10
110.987107983
 20
181.1618975232
 10
110.9766647423
 20
181.1675999004
 10
110.965962001
 20
181.1727989038
 10
110.955024004
 20
181.1774827574
 10
110.9438755285
 20
181.1816408529
 10
110.9325418337
 20
181.1852637733
 10
110.9210485935
 20
181.1883433133
 10
110.9094218422
 20
181.1908724993
 10
110.8976879208
 20
181.1928456057
 10
110.8858734103
 20
181.1942581658
 10
110.8740050707
 20
181.1951069813
 10
110.8621097855
 20
181.1953901316
  0
CIRCLE
  5
619
100
AcDbEntity
  8
DRAFT
100
AcDbCircle
 62
7
  6
CONTINUOUS
 10
100.9621055547
 20
156.6953901316
 40
7.65
  0
CIRCLE
  5
61A
100
AcDbEntity
  8
ASSI
100
AcDbCircle
 62
7
  6
CONTINUOUS
 10
100.9621055547
 20
156.6953901316
 40
7.65
  0
CIRCLE
  5
61B
100
AcDbEntity
  8
RACCORDO
100
AcDbCircle
 62
253
  6
CONTINUOUS
 10
100.9621055547
 20
156.6953901316
 40
7.6446720906
  0
CIRCLE
  5
61C
100
AcDbEntity
  8
ASSI
100
AcDbCircle
 62
253
  6
CONTINUOUS
 10
100.9621055547
 20
156.6953901316
 40
7.6446720906
  0
CIRCLE
  5
61D
100
AcDbEntity
  8
RACCORDO
100
AcDbCircle
 62
253
  6
CONTINUOUS
 10
100.9621055547
 20
156.6953901316
 40
7.3447176189
  0
CIRCLE
  5
61E
100
AcDbEntity
  8
ASSI
100
AcDbCircle
 62
253
  6
CONTINUOUS
 10
100.9621055547
 20
156.6953901316
 40
7.3447176189
  0
ARC
  5
61F
100
AcDbEntity
  8
RACCORDO
100
AcDbCircle
 62
7
  6
CONTINUOUS
 10
100.9621055547
 20
156.6953901316
 40
7.3
100
AcDbArc
 50
322.9973200033
 51
37.0026850405
  0
ARC
  5
620
100
AcDbEntity
  8
RACCORDO
100
AcDbCircle
 62
7
  6
CONTINUOUS
 10
100.9621055547
 20
156.6953901316
 40
7.3
100
AcDbArc
 50
142.9973200032
 51
217.0026850405
  0
ARC
  5
621
100
AcDbEntity
  8
ASSI
100
AcDbCircle
 62
7
  6
CONTINUOUS
 10
100.9621055547
 20
156.6953901316
 40
7.3
100
AcDbArc
 50
322.9973200033
 51
37.0026850405
  0
ARC
  5
622
100
AcDbEntity
  8
ASSI
100
AcDbCircle
 62
7
  6
CONTINUOUS
 10
100.9621055547
 20
156.6953901316
 40
7.3
100
AcDbArc
 50
142.9973200032
 51
217.0026850405
  0
ARC
  5
623
100
AcDbEntity
  8
RACCORDO
100
AcDbCircle
 62
7
  6
CONTINUOUS
 10
100.9621055547
 20
156.6953901316
 40
7.2773084156
100
AcDbArc
 50
323.5421012564
 51
36.4579021069
  0
ARC
  5
624
100
AcDbEntity
  8
RACCORDO
100
AcDbCircle
 62
7
  6
CONTINUOUS
 10
100.9621055547
 20
156.6953901316
 40
7.2773084156
100
AcDbArc
 50
143.5421012564
 51
216.4579021069
  0
ARC
  5
625
100
AcDbEntity
  8
ASSI
100
AcDbCircle
 62
7
  6
CONTINUOUS
 10
100.9621055547
 20
156.6953901316
 40
7.2773084156
100
AcDbArc
 50
323.5421012564
 51
36.4579021069
  0
ARC
  5
626
100
AcDbEntity
  8
ASSI
100
AcDbCircle
 62
7
  6
CONTINUOUS
 10
100.9621055547
 20
156.6953901316
 40
7.2773084156
100
AcDbArc
 50
143.5421012564
 51
216.4579021069
  0
ARC
  5
627
100
AcDbEntity
  8
0
100
AcDbCircle
 62
7
  6
CONTINUOUS
 10
100.9621055547
 20
156.6953901316
 40
4.65
100
AcDbArc
 50
156.1979505538
 51
156.1154273186
  0
ARC
  5
628
100
AcDbEntity
  8
0
100
AcDbCircle
 62
7
  6
CONTINUOUS
 10
96.9621055547
 20
133.5453901316
 40
0.5
100
AcDbArc
 50
144.3637748935
 51
215.6362251065
  0
ARC
  5
629
100
AcDbEntity
  8
0
100
AcDbCircle
 62
7
  6
CONTINUOUS
 10
104.9621055547
 20
133.5453901316
 40
0.5
100
AcDbArc
 50
324.3637748935
 51
35.6362251065
  0
ARC
  5
62A
100
AcDbEntity
  8
0
100
AcDbCircle
 62
7
  6
CONTINUOUS
 10
104.9621055547
 20
179.8453901316
 40
0.5
100
AcDbArc
 50
324.3637748935
 51
35.6362251065
  0
ARC
  5
62B
100
AcDbEntity
  8
0
100
AcDbCircle
 62
7
  6
CONTINUOUS
 10
96.9621055547
 20
179.8453901316
 40
0.5
100
AcDbArc
 50
144.3637748935
 51
215.6362251065
  0
ARC
  5
62C
100
AcDbEntity
  8
ASSI
100
AcDbCircle
 62
7
  6
CONTINUOUS
 10
96.9621055547
 20
133.5453901316
 40
0.5
100
AcDbArc
 50
144.3637748935
 51
215.6362251065
  0
ARC
  5
62D
100
AcDbEntity
  8
ASSI
100
AcDbCircle
 62
7
  6
CONTINUOUS
 10
104.9621055547
 20
133.5453901316
 40
0.5
100
AcDbArc
 50
324.3637748935
 51
35.6362251065
  0
ARC
  5
62E
100
AcDbEntity
  8
ASSI
100
AcDbCircle
 62
7
  6
CONTINUOUS
 10
104.9621055547
 20
179.8453901316
 40
0.5
100
AcDbArc
 50
324.3637748935
 51
35.6362251065
  0
ARC
  5
62F
100
AcDbEntity
  8
ASSI
100
AcDbCircle
 62
7
  6
CONTINUOUS
 10
96.9621055547
 20
179.8453901316
 40
0.5
100
AcDbArc
 50
144.3637748935
 51
215.6362251065
  0
ELLIPSE
  5
630
100
AcDbEntity
  8
RACCORDO
100
AcDbEllipse
 62
7
  6
CONTINUOUS
 10
92.0255780248
 20
172.7021068137
 30
0.0
 11
0.2780317936
 21
0.4166986433
 31
0.0
 40
0.9975148671
 41
-2.7460119407
 42
-2.5543517747
  0
ELLIPSE
  5
631
100
AcDbEntity
  8
RACCORDO
100
AcDbEllipse
 62
7
  6
CONTINUOUS
 10
109.8986330846
 20
172.7021068137
 30
0.0
 11
-0.2780317936
 21
0.4166986433
 31
0.0
 40
0.9975148671
 41
-3.7288335325
 42
-3.5371733664
  0
ELLIPSE
  5
632
100
AcDbEntity
  8
RACCORDO
100
AcDbEllipse
 62
7
  6
CONTINUOUS
 10
109.9621044581
 20
172.6954662956
 30
0.0
 11
-0.0595759374
 21
0.4965158347
 31
0.0
 40
0.9998455029
 41
-2.1472842789
 42
-1.690231691
  0
ELLIPSE
  5
633
100
AcDbEntity
  8
RACCORDO
100
AcDbEllipse
 62
7
  6
CONTINUOUS
 10
109.9621044581
 20
172.6954662956
 30
0.0
 11
-0.0595759373
 21
0.4965158347
 31
0.0
 40
0.9998455029
 41
-3.2609914658
 42
-3.0154381935
  0
ELLIPSE
  5
634
100
AcDbEntity
  8
RACCORDO
100
AcDbEllipse
 62
7
  6
CONTINUOUS
 10
91.9621066513
 20
172.6954662956
 30
0.0
 11
0.0595759372
 21
0.4965158347
 31
0.0
 40
0.9998455029
 41
-3.2677471139
 42
-3.0221938413
  0
ELLIPSE
  5
635
100
AcDbEntity
  8
RACCORDO
100
AcDbEllipse
 62
7
  6
CONTINUOUS
 10
91.9621066513
 20
172.6954662956
 30
0.0
 11
0.0595759373
 21
0.4965158347
 31
0.0
 40
0.9998455029
 41
-4.5929536158
 42
-4.1359010284
  0
ELLIPSE
  5
636
100
AcDbEntity
  8
RACCORDO
100
AcDbEllipse
 62
7
  6
CONTINUOUS
 10
93.9121089394
 20
179.2956646008
 30
0.0
 11
0.0220972657
 21
0.1990550872
 31
0.0
 40
0.9986126811
 41
-4.6016785009
 42
-3.0311866529
  0
ELLIPSE
  5
637
100
AcDbEntity
  8
RACCORDO
100
AcDbEllipse
 62
7
  6
CONTINUOUS
 10
90.61210217
 20
179.2956646008
 30
0.0
 11
-0.0220972656
 21
0.1990550872
 31
0.0
 40
0.9986126811
 41
-3.2519986542
 42
-1.6815068062
  0
ELLIPSE
  5
638
100
AcDbEntity
  8
RACCORDO
100
AcDbEllipse
 62
7
  6
CONTINUOUS
 10
111.3121089394
 20
179.2956646008
 30
0.0
 11
0.0220972656
 21
0.1990550872
 31
0.0
 40
0.9986126811
 41
-4.601678501
 42
-3.031186653
  0
ELLIPSE
  5
639
100
AcDbEntity
  8
RACCORDO
100
AcDbEllipse
 62
7
  6
CONTINUOUS
 10
108.01210217
 20
179.2956646008
 30
0.0
 11
-0.0220972656
 21
0.1990550872
 31
0.0
 40
0.9986126811
 41
-3.2519986542
 42
-1.6815068062
  0
ELLIPSE
  5
63A
100
AcDbEntity
  8
RACCORDO
100
AcDbEllipse
 62
7
  6
CONTINUOUS
 10
90.61210217
 20
134.0951156624
 30
0.0
 11
0.0220972656
 21
0.1990550872
 31
0.0
 40
0.9986126811
 41
-1.4600858473
 42
0.1104060007
  0
ELLIPSE
  5
63B
100
AcDbEntity
  8
RACCORDO
100
AcDbEllipse
 62
7
  6
CONTINUOUS
 10
93.9121089394
 20
134.0951156624
 30
0.0
 11
-0.0220972656
 21
0.1990550872
 31
0.0
 40
0.9986126811
 41
-0.1104060007
 42
1.4600858473
  0
ELLIPSE
  5
63C
100
AcDbEntity
  8
RACCORDO
100
AcDbEllipse
 62
7
  6
CONTINUOUS
 10
108.01210217
 20
134.0951156624
 30
0.0
 11
0.0220972656
 21
0.1990550872
 31
0.0
 40
0.9986126811
 41
-1.4600858474
 42
0.1104060006
  0
ELLIPSE
  5
63D
100
AcDbEntity
  8
RACCORDO
100
AcDbEllipse
 62
7
  6
CONTINUOUS
 10
111.3121089394
 20
134.0951156624
 30
0.0
 11
-0.0220972656
 21
0.1990550872
 31
0.0
 40
0.9986126811
 41
-0.1104060006
 42
1.4600858474
  0
ELLIPSE
  5
63E
100
AcDbEntity
  8
RACCORDO
100
AcDbEllipse
 62
7
  6
CONTINUOUS
 10
112.0185301601
 20
148.9053901316
 30
0.0
 11
-0.0
 21
88.6
 31
0.0
 40
0.0174550649
 41
-4.6590536787
 42
-4.5765364148
  0
ELLIPSE
  5
63F
100
AcDbEntity
  8
RACCORDO
100
AcDbEllipse
 62
7
  6
CONTINUOUS
 10
89.9056809493
 20
148.9053901316
 30
0.0
 11
-0.0
 21
88.6
 31
0.0
 40
0.0174550649
 41
-1.7066488924
 42
-1.6241316285
  0
ELLIPSE
  5
640
100
AcDbEntity
  8
DRAFT
100
AcDbEllipse
 62
7
  6
CONTINUOUS
 10
108.0624609054
 20
164.4853901316
 30
0.0
 11
0.0
 21
88.6
 31
0.0
 40
0.1763269807
 41
1.4927260744
 42
1.5174610251
  0
ELLIPSE
  5
641
100
AcDbEntity
  8
DRAFT
100
AcDbEllipse
 62
7
  6
CONTINUOUS
 10
93.861750204
 20
164.4853901316
 30
0.0
 11
-0.0
 21
88.6
 31
0.0
 40
0.1763269807
 41
-1.5174610251
 42
-1.4927260744
  0
ELLIPSE
  5
642
100
AcDbEntity
  8
RACCORDO
100
AcDbEllipse
 62
7
  6
CONTINUOUS
 10
93.75548304
 20
176.7971200209
 30
0.0
 11
-0.0
 21
0.3
 31
0.0
 40
0.0087268678
 41
-2.9670597284
 42
-1.5707963268
  0
ELLIPSE
  5
643
100
AcDbEntity
  8
RACCORDO
100
AcDbEllipse
 62
7
  6
CONTINUOUS
 10
97.4401895873
 20
170.1953901316
 30
0.0
 11
-0.0
 21
0.5
 31
0.0
 40
0.1763269807
 41
-0.0
 42
0.2409990988
  0
ELLIPSE
  5
644
100
AcDbEntity
  8
0
100
AcDbEllipse
 62
7
  6
CONTINUOUS
 10
99.7621055547
 20
180.4895689171
 30
0.0
 11
0.0
 21
-0.2000033847
 31
0.0
 40
0.9999830769
 41
1.5707963268
 42
3.1415926536
  0
ELLIPSE
  5
645
100
AcDbEntity
  8
0
100
AcDbEllipse
 62
7
  6
CONTINUOUS
 10
102.1621055547
 20
180.4895689171
 30
0.0
 11
-0.0
 21
0.2000033847
 31
0.0
 40
0.9999830769
 41
0.0
 42
1.5707963268
  0
ELLIPSE
  5
646
100
AcDbEntity
  8
RACCORDO
100
AcDbEllipse
 62
7
  6
CONTINUOUS
 10
110.5579948534
 20
176.478234519
 30
0.0
 11
-0.0
 21
0.5
 31
0.0
 40
0.0174550649
 41
-3.1066860686
 42
-1.5707963268
  0
ELLIPSE
  5
647
100
AcDbEntity
  8
RACCORDO
100
AcDbEllipse
 62
7
  6
CONTINUOUS
 10
108.2891588448
 20
176.478234519
 30
0.0
 11
-0.0
 21
0.5
 31
0.0
 40
0.0087268678
 41
-4.7123889804
 42
-3.1764992386
  0
ELLIPSE
  5
648
100
AcDbEntity
  8
RACCORDO
100
AcDbEllipse
 62
7
  6
CONTINUOUS
 10
93.6350522645
 20
176.478234519
 30
0.0
 11
-0.0
 21
0.5
 31
0.0
 40
0.0087268678
 41
-3.1066860685
 42
-1.5707963268
  0
ELLIPSE
  5
649
100
AcDbEntity
  8
0
100
AcDbEllipse
 62
7
  6
CONTINUOUS
 10
99.7621055547
 20
132.9012113461
 30
0.0
 11
0.0
 21
-0.2000033847
 31
0.0
 40
0.9999830769
 41
0.0
 42
1.5707963268
  0
ELLIPSE
  5
64A
100
AcDbEntity
  8
RACCORDO
100
AcDbEllipse
 62
7
  6
CONTINUOUS
 10
108.1687280693
 20
176.7971200209
 30
0.0
 11
0.0
 21
0.3
 31
0.0
 40
0.0087268678
 41
-4.7123889804
 42
-3.3161255788
  0
ELLIPSE
  5
64B
100
AcDbEntity
  8
RACCORDO
100
AcDbEllipse
 62
7
  6
CONTINUOUS
 10
93.6069697261
 20
137.0277344567
 30
0.0
 11
-0.0
 21
0.9
 31
0.0
 40
0.0087268678
 41
-4.5765364148
 42
-3.1939525311
  0
ELLIPSE
  5
64C
100
AcDbEntity
  8
RACCORDO
100
AcDbEllipse
 62
7
  6
CONTINUOUS
 10
91.366216256
 20
176.478234519
 30
0.0
 11
0.0
 21
0.5
 31
0.0
 40
0.0174550649
 41
-4.7123889804
 42
-3.1764992386
  0
ELLIPSE
  5
64D
100
AcDbEntity
  8
0
100
AcDbEllipse
 62
7
  6
CONTINUOUS
 10
102.1621055547
 20
132.9012113461
 30
0.0
 11
-0.0
 21
0.2000033847
 31
0.0
 40
0.9999830769
 41
1.5707963268
 42
3.1415926536
  0
ELLIPSE
  5
64E
100
AcDbEntity
  8
RACCORDO
100
AcDbEllipse
 62
7
  6
CONTINUOUS
 10
107.4350522645
 20
176.478234519
 30
0.0
 11
0.0
 21
0.5
 31
0.0
 40
0.0087268678
 41
-3.1066860685
 42
-1.5707963268
  0
ELLIPSE
  5
64F
100
AcDbEntity
  8
RACCORDO
100
AcDbEllipse
 62
7
  6
CONTINUOUS
 10
94.4891588448
 20
176.478234519
 30
0.0
 11
-0.0
 21
0.5
 31
0.0
 40
0.0087268678
 41
-4.7123889804
 42
-3.1764992386
  0
ELLIPSE
  5
650
100
AcDbEntity
  8
RACCORDO
100
AcDbEllipse
 62
7
  6
CONTINUOUS
 10
104.4840215221
 20
170.1953901316
 30
0.0
 11
0.0
 21
0.5
 31
0.0
 40
0.1763269807
 41
-0.240999098
 42
0.0
  0
ELLIPSE
  5
651
100
AcDbEntity
  8
RACCORDO
100
AcDbEllipse
 62
7
  6
CONTINUOUS
 10
108.3172413832
 20
137.0277344567
 30
0.0
 11
-0.0
 21
0.9
 31
0.0
 40
0.0087268678
 41
-3.089232776
 42
-1.7066488924
  0
ELLIPSE
  5
652
100
AcDbEntity
  8
RACCORDO
100
AcDbEllipse
 62
7
  6
CONTINUOUS
 10
110.7018562565
 20
137.0277344567
 30
0.0
 11
0.9005489241
 21
0.8994510755
 31
0.0
 40
0.0348994837
 41
1.7774577451
 42
3.1241606468
  0
ELLIPSE
  5
653
100
AcDbEntity
  8
RACCORDO
100
AcDbEllipse
 62
7
  6
CONTINUOUS
 10
110.5018254989
 20
137.0277344567
 30
0.0
 11
-0.0
 21
0.9
 31
0.0
 40
0.0174550649
 41
-4.5765364148
 42
-4.5406554329
  0
ELLIPSE
  5
654
100
AcDbEntity
  8
RACCORDO
100
AcDbEllipse
 62
7
  6
CONTINUOUS
 10
107.4062457548
 20
137.651284202
 30
0.0
 11
-0.0
 21
0.9
 31
0.0
 40
0.0087268678
 41
-4.5837091107
 42
-3.1503192999
  0
ELLIPSE
  5
655
100
AcDbEntity
  8
RACCORDO
100
AcDbEllipse
 62
7
  6
CONTINUOUS
 10
94.5179653546
 20
137.651284202
 30
0.0
 11
-0.0
 21
0.9
 31
0.0
 40
0.0087268678
 41
-3.1328660073
 42
-1.6994761965
  0
ELLIPSE
  5
656
100
AcDbEntity
  8
RACCORDO
100
AcDbEllipse
 62
7
  6
CONTINUOUS
 10
104.7411258834
 20
172.3953901316
 30
0.0
 11
0.0
 21
1.0
 31
0.0
 40
0.1763269807
 41
-3.1415926536
 42
-1.6929693744
  0
ELLIPSE
  5
657
100
AcDbEntity
  8
0
100
AcDbEllipse
 62
7
  6
CONTINUOUS
 10
104.9151482646
 20
134.3392970447
 30
0.0
 11
0.4530427099
 21
-0.0
 31
0.0
 40
0.0058178298
 41
0.0058177642
 42
3.1415926536
  0
ELLIPSE
  5
658
100
AcDbEntity
  8
0
100
AcDbEllipse
 62
7
  6
CONTINUOUS
 10
97.0090628448
 20
134.3392970447
 30
0.0
 11
0.4530427099
 21
-0.0
 31
0.0
 40
0.0058178298
 41
-0.0
 42
3.1357748894
  0
ELLIPSE
  5
659
100
AcDbEntity
  8
0
100
AcDbEllipse
 62
7
  6
CONTINUOUS
 10
104.9151482646
 20
179.0514832185
 30
0.0
 11
0.4530427099
 21
0.0
 31
0.0
 40
0.0058178298
 41
3.1415926536
 42
6.277367543
  0
ELLIPSE
  5
65A
100
AcDbEntity
  8
0
100
AcDbEllipse
 62
7
  6
CONTINUOUS
 10
97.0090628448
 20
179.0514832185
 30
0.0
 11
0.4530427099
 21
0.0
 31
0.0
 40
0.0058178298
 41
-3.1357748894
 42
0.0
  0
ELLIPSE
  5
65B
100
AcDbEntity
  8
0
100
AcDbEllipse
 62
7
  6
CONTINUOUS
 10
90.3204151183
 20
134.8012164231
 30
0.0
 11
0.4160498344
 21
0.2773626446
 31
0.0
 40
0.9999450019
 41
2.5536219432
 42
4.1243675013
  0
ELLIPSE
  5
65C
100
AcDbEntity
  8
0
100
AcDbEllipse
 62
7
  6
CONTINUOUS
 10
105.3684718311
 20
133.2390323169
 30
0.0
 11
0.0
 21
0.5
 31
0.0
 40
0.0058178298
 41
-3.2409419489
 42
-3.1474104178
  0
ELLIPSE
  5
65D
100
AcDbEntity
  8
0
100
AcDbEllipse
 62
7
  6
CONTINUOUS
 10
90.3204151183
 20
178.5895638401
 30
0.0
 11
-0.4160498344
 21
0.2773626446
 31
0.0
 40
0.9999450019
 41
-0.9827748477
 42
0.5879707104
  0
ELLIPSE
  5
65E
100
AcDbEntity
  8
0
100
AcDbEllipse
 62
7
  6
CONTINUOUS
 10
111.6037959911
 20
134.8012164231
 30
0.0
 11
0.4160498344
 21
-0.2773626446
 31
0.0
 40
0.9999450019
 41
-0.9827748477
 42
0.5879707104
  0
ELLIPSE
  5
65F
100
AcDbEntity
  8
0
100
AcDbEllipse
 62
7
  6
CONTINUOUS
 10
96.5557392783
 20
133.2390323169
 30
0.0
 11
-0.0
 21
0.5
 31
0.0
 40
0.0058178298
 41
-3.1357748894
 42
-3.0422433583
  0
ELLIPSE
  5
660
100
AcDbEntity
  8
0
100
AcDbEllipse
 62
7
  6
CONTINUOUS
 10
111.6037959911
 20
178.5895638401
 30
0.0
 11
-0.4160498344
 21
-0.2773626446
 31
0.0
 40
0.9999450019
 41
2.5536219432
 42
4.1243675013
  0
ELLIPSE
  5
661
100
AcDbEntity
  8
RACCORDO
100
AcDbEllipse
 62
7
  6
CONTINUOUS
 10
92.6797655437
 20
174.1801129137
 30
0.0
 11
0.0
 21
1.0
 31
0.0
 40
0.1763269807
 41
-2.9321531434
 42
-1.6929693744
  0
ELLIPSE
  5
662
100
AcDbEntity
  8
RACCORDO
100
AcDbEllipse
 62
7
  6
CONTINUOUS
 10
91.428453841
 20
174.1801129137
 30
0.0
 11
-0.0
 21
1.0
 31
0.0
 40
0.0174550649
 41
-4.5902159327
 42
-3.3510321638
  0
ELLIPSE
  5
663
100
AcDbEntity
  8
RACCORDO
100
AcDbEllipse
 62
7
  6
CONTINUOUS
 10
108.165264302
 20
148.9053901316
 30
0.0
 11
0.0
 21
88.6
 31
0.0
 40
0.0087268678
 41
-4.6131047241
 42
-4.5837091107
  0
ELLIPSE
  5
664
100
AcDbEntity
  8
0
100
AcDbEllipse
 62
7
  6
CONTINUOUS
 10
110.8621013238
 20
180.106714997
 30
0.0
 11
-0.0029088041
 21
0.2886641433
 31
0.0
 40
0.8660144118
 41
-3.150319066
 42
-1.582431609
  0
ELLIPSE
  5
665
100
AcDbEntity
  8
0
100
AcDbEllipse
 62
7
  6
CONTINUOUS
 10
108.4621097855
 20
180.106714997
 30
0.0
 11
0.0029088041
 21
0.2886641433
 31
0.0
 40
0.8660144118
 41
-4.7007536982
 42
-3.1328662411
  0
ELLIPSE
  5
666
100
AcDbEntity
  8
RACCORDO
100
AcDbEllipse
 62
7
  6
CONTINUOUS
 10
110.4957572683
 20
174.1801129137
 30
0.0
 11
-0.0
 21
1.0
 31
0.0
 40
0.0174550649
 41
-2.9321531434
 42
-1.6929693744
  0
ELLIPSE
  5
667
100
AcDbEntity
  8
RACCORDO
100
AcDbEllipse
 62
7
  6
CONTINUOUS
 10
109.2444455657
 20
174.1801129137
 30
0.0
 11
-0.0
 21
1.0
 31
0.0
 40
0.1763269807
 41
-4.5902159327
 42
-3.3510321638
  0
ELLIPSE
  5
668
100
AcDbEntity
  8
RACCORDO
100
AcDbEllipse
 62
7
  6
CONTINUOUS
 10
108.1687280693
 20
136.5936602422
 30
0.0
 11
-0.0
 21
0.3
 31
0.0
 40
0.0087268678
 41
0.1745329252
 42
1.5707963268
  0
ELLIPSE
  5
669
100
AcDbEntity
  8
RACCORDO
100
AcDbEllipse
 62
7
  6
CONTINUOUS
 10
104.7797655437
 20
174.1801129137
 30
0.0
 11
0.0
 21
1.0
 31
0.0
 40
0.1763269807
 41
-2.9321531434
 42
-1.6929693744
  0
ELLIPSE
  5
66A
100
AcDbEntity
  8
RACCORDO
100
AcDbEllipse
 62
7
  6
CONTINUOUS
 10
97.1444455657
 20
174.1801129137
 30
0.0
 11
-0.0
 21
1.0
 31
0.0
 40
0.1763269807
 41
-4.5902159327
 42
-3.3510321638
  0
ELLIPSE
  5
66B
100
AcDbEntity
  8
RACCORDO
100
AcDbEllipse
 62
7
  6
CONTINUOUS
 10
107.5589468074
 20
148.9053901316
 30
0.0
 11
-0.0
 21
88.6
 31
0.0
 40
0.0087268678
 41
-1.7066488924
 42
-1.6700805831
  0
ELLIPSE
  5
66C
100
AcDbEntity
  8
0
100
AcDbEllipse
 62
7
  6
CONTINUOUS
 10
93.4621013238
 20
180.106714997
 30
0.0
 11
-0.0029088041
 21
0.2886641433
 31
0.0
 40
0.8660144118
 41
-3.150319066
 42
-1.582431609
  0
ELLIPSE
  5
66D
100
AcDbEntity
  8
0
100
AcDbEllipse
 62
7
  6
CONTINUOUS
 10
91.0621097855
 20
180.106714997
 30
0.0
 11
0.0029088041
 21
0.2886641433
 31
0.0
 40
0.8660144118
 41
-4.7007536982
 42
-3.1328662411
  0
ELLIPSE
  5
66E
100
AcDbEntity
  8
0
100
AcDbEllipse
 62
7
  6
CONTINUOUS
 10
110.8621013238
 20
133.2840652662
 30
0.0
 11
0.0029088041
 21
0.2886641433
 31
0.0
 40
0.8660144118
 41
-1.5591610446
 42
0.0087264124
  0
ELLIPSE
  5
66F
100
AcDbEntity
  8
RACCORDO
100
AcDbEllipse
 62
7
  6
CONTINUOUS
 10
97.183085226
 20
172.3953901316
 30
0.0
 11
-0.0
 21
1.0
 31
0.0
 40
0.1763269807
 41
-4.5902159327
 42
-3.1415926536
  0
ELLIPSE
  5
670
100
AcDbEntity
  8
0
100
AcDbEllipse
 62
7
  6
CONTINUOUS
 10
108.4621097855
 20
133.2840652662
 30
0.0
 11
-0.0029088041
 21
0.2886641433
 31
0.0
 40
0.8660144118
 41
-0.0087264124
 42
1.5591610446
  0
ELLIPSE
  5
671
100
AcDbEntity
  8
0
100
AcDbEllipse
 62
7
  6
CONTINUOUS
 10
91.0621097855
 20
133.2840652662
 30
0.0
 11
-0.0029088041
 21
0.2886641433
 31
0.0
 40
0.8660144118
 41
-0.0087264124
 42
1.5591610446
  0
ELLIPSE
  5
672
100
AcDbEntity
  8
RACCORDO
100
AcDbEllipse
 62
7
  6
CONTINUOUS
 10
91.4223856105
 20
137.0277344567
 30
0.0
 11
-0.0
 21
0.9
 31
0.0
 40
0.0174550649
 41
-1.7425298743
 42
-1.7066488924
  0
ELLIPSE
  5
673
100
AcDbEntity
  8
0
100
AcDbEllipse
 62
7
  6
CONTINUOUS
 10
93.4621013238
 20
133.2840652662
 30
0.0
 11
0.0029088041
 21
0.2886641433
 31
0.0
 40
0.8660144118
 41
-1.5591610446
 42
0.0087264124
  0
ELLIPSE
  5
674
100
AcDbEntity
  8
RACCORDO
100
AcDbEllipse
 62
7
  6
CONTINUOUS
 10
109.283085226
 20
172.3953901316
 30
0.0
 11
-0.0
 21
1.0
 31
0.0
 40
0.1763269807
 41
-4.5902159327
 42
-3.1415926536
  0
ELLIPSE
  5
675
100
AcDbEntity
  8
RACCORDO
100
AcDbEllipse
 62
7
  6
CONTINUOUS
 10
92.6411258834
 20
172.3953901316
 30
0.0
 11
0.0
 21
1.0
 31
0.0
 40
0.1763269807
 41
-3.1415926536
 42
-1.6929693744
  0
ELLIPSE
  5
676
100
AcDbEntity
  8
RACCORDO
100
AcDbEllipse
 62
7
  6
CONTINUOUS
 10
93.75548304
 20
136.5936602422
 30
0.0
 11
-0.0
 21
0.3
 31
0.0
 40
0.0087268678
 41
-1.5707963268
 42
-0.1745329252
  0
ELLIPSE
  5
677
100
AcDbEntity
  8
RACCORDO
100
AcDbEllipse
 62
7
  6
CONTINUOUS
 10
91.2223548528
 20
137.0277344567
 30
0.0
 11
0.9005489241
 21
-0.8994510755
 31
0.0
 40
0.0348994837
 41
0.0174320068
 42
1.3641349085
  0
ELLIPSE
  5
678
100
AcDbEntity
  8
RACCORDO
100
AcDbEllipse
 62
7
  6
CONTINUOUS
 10
94.365264302
 20
148.9053901316
 30
0.0
 11
-0.0
 21
88.6
 31
0.0
 40
0.0087268678
 41
-4.6131047241
 42
-4.5765364148
  0
ELLIPSE
  5
679
100
AcDbEntity
  8
RACCORDO
100
AcDbEllipse
 62
7
  6
CONTINUOUS
 10
93.7589468074
 20
148.9053901316
 30
0.0
 11
0.0
 21
88.6
 31
0.0
 40
0.0087268678
 41
-1.6994761965
 42
-1.6700805831
  0
ELLIPSE
  5
67A
100
AcDbEntity
  8
ASSI
100
AcDbEllipse
 62
7
  6
CONTINUOUS
 10
109.9621044581
 20
172.6954662956
 30
0.0
 11
-0.0595759374
 21
0.4965158347
 31
0.0
 40
0.9998455029
 41
-2.1472842789
 42
-1.690231691
  0
ELLIPSE
  5
67B
100
AcDbEntity
  8
ASSI
100
AcDbEllipse
 62
7
  6
CONTINUOUS
 10
109.9621044581
 20
172.6954662956
 30
0.0
 11
-0.0595759373
 21
0.4965158347
 31
0.0
 40
0.9998455029
 41
-3.2609914658
 42
-3.0154381935
  0
ELLIPSE
  5
67C
100
AcDbEntity
  8
ASSI
100
AcDbEllipse
 62
7
  6
CONTINUOUS
 10
91.9621066513
 20
172.6954662956
 30
0.0
 11
0.0595759372
 21
0.4965158347
 31
0.0
 40
0.9998455029
 41
-3.2677471139
 42
-3.0221938413
  0
ELLIPSE
  5
67D
100
AcDbEntity
  8
ASSI
100
AcDbEllipse
 62
7
  6
CONTINUOUS
 10
91.9621066513
 20
172.6954662956
 30
0.0
 11
0.0595759373
 21
0.4965158347
 31
0.0
 40
0.9998455029
 41
-4.5929536158
 42
-4.1359010286
  0
ELLIPSE
  5
67E
100
AcDbEntity
  8
ASSI
100
AcDbEllipse
 62
7
  6
CONTINUOUS
 10
93.9121089394
 20
179.2956646008
 30
0.0
 11
0.0220972657
 21
0.1990550872
 31
0.0
 40
0.9986126811
 41
-4.6016785009
 42
-3.0311866529
  0
ELLIPSE
  5
67F
100
AcDbEntity
  8
ASSI
100
AcDbEllipse
 62
7
  6
CONTINUOUS
 10
90.61210217
 20
179.2956646008
 30
0.0
 11
-0.0220972656
 21
0.1990550872
 31
0.0
 40
0.9986126811
 41
-3.2519986542
 42
-1.6815068062
  0
ELLIPSE
  5
680
100
AcDbEntity
  8
ASSI
100
AcDbEllipse
 62
7
  6
CONTINUOUS
 10
111.3121089394
 20
179.2956646008
 30
0.0
 11
0.0220972656
 21
0.1990550872
 31
0.0
 40
0.9986126811
 41
-4.601678501
 42
-3.031186653
  0
ELLIPSE
  5
681
100
AcDbEntity
  8
ASSI
100
AcDbEllipse
 62
7
  6
CONTINUOUS
 10
108.01210217
 20
179.2956646008
 30
0.0
 11
-0.0220972656
 21
0.1990550872
 31
0.0
 40
0.9986126811
 41
-3.2519986542
 42
-1.6815068062
  0
ELLIPSE
  5
682
100
AcDbEntity
  8
ASSI
100
AcDbEllipse
 62
7
  6
CONTINUOUS
 10
90.61210217
 20
134.0951156624
 30
0.0
 11
0.0220972656
 21
0.1990550872
 31
0.0
 40
0.9986126811
 41
-1.4600858473
 42
0.1104060007
  0
ELLIPSE
  5
683
100
AcDbEntity
  8
ASSI
100
AcDbEllipse
 62
7
  6
CONTINUOUS
 10
93.9121089394
 20
134.0951156624
 30
0.0
 11
-0.0220972656
 21
0.1990550872
 31
0.0
 40
0.9986126811
 41
-0.1104060007
 42
1.4600858473
  0
ELLIPSE
  5
684
100
AcDbEntity
  8
ASSI
100
AcDbEllipse
 62
7
  6
CONTINUOUS
 10
108.01210217
 20
134.0951156624
 30
0.0
 11
0.0220972656
 21
0.1990550872
 31
0.0
 40
0.9986126811
 41
-1.4600858474
 42
0.1104060006
  0
ELLIPSE
  5
685
100
AcDbEntity
  8
ASSI
100
AcDbEllipse
 62
7
  6
CONTINUOUS
 10
111.3121089394
 20
134.0951156624
 30
0.0
 11
-0.0220972656
 21
0.1990550872
 31
0.0
 40
0.9986126811
 41
-0.1104060006
 42
1.4600858474
  0
ELLIPSE
  5
686
100
AcDbEntity
  8
ASSI
100
AcDbEllipse
 62
7
  6
CONTINUOUS
 10
107.5589468074
 20
148.9053901316
 30
0.0
 11
-0.0
 21
88.6
 31
0.0
 40
0.0087268678
 41
-1.7066488924
 42
-1.6700805831
  0
ELLIPSE
  5
687
100
AcDbEntity
  8
ASSI
100
AcDbEllipse
 62
7
  6
CONTINUOUS
 10
108.1687280693
 20
136.5936602422
 30
0.0
 11
-0.0
 21
0.3
 31
0.0
 40
0.0087268678
 41
0.1745329252
 42
1.5707963268
  0
ELLIPSE
  5
688
100
AcDbEntity
  8
ASSI
100
AcDbEllipse
 62
7
  6
CONTINUOUS
 10
108.165264302
 20
148.9053901316
 30
0.0
 11
0.0
 21
88.6
 31
0.0
 40
0.0087268678
 41
-4.6131047241
 42
-4.5837091107
  0
ELLIPSE
  5
689
100
AcDbEntity
  8
ASSI
100
AcDbEllipse
 62
7
  6
CONTINUOUS
 10
104.4840215221
 20
170.1953901316
 30
0.0
 11
0.0
 21
0.5
 31
0.0
 40
0.1763269807
 41
-0.240999098
 42
0.0
  0
ELLIPSE
  5
68A
100
AcDbEntity
  8
ASSI
100
AcDbEllipse
 62
7
  6
CONTINUOUS
 10
108.0624609054
 20
164.4853901316
 30
0.0
 11
-0.0
 21
88.6
 31
0.0
 40
0.1763269807
 41
1.4927260744
 42
1.5174610251
  0
ELLIPSE
  5
68B
100
AcDbEntity
  8
ASSI
100
AcDbEllipse
 62
7
  6
CONTINUOUS
 10
93.6069697261
 20
137.0277344567
 30
0.0
 11
-0.0
 21
0.9
 31
0.0
 40
0.0087268678
 41
-4.5765364148
 42
-3.1939525311
  0
ELLIPSE
  5
68C
100
AcDbEntity
  8
ASSI
100
AcDbEllipse
 62
7
  6
CONTINUOUS
 10
93.861750204
 20
164.4853901316
 30
0.0
 11
-0.0
 21
88.6
 31
0.0
 40
0.1763269807
 41
-1.5174610251
 42
-1.4927260744
  0
ELLIPSE
  5
68D
100
AcDbEntity
  8
ASSI
100
AcDbEllipse
 62
7
  6
CONTINUOUS
 10
108.3172413832
 20
137.0277344567
 30
0.0
 11
-0.0
 21
0.9
 31
0.0
 40
0.0087268678
 41
-3.089232776
 42
-1.7066488924
  0
ELLIPSE
  5
68E
100
AcDbEntity
  8
ASSI
100
AcDbEllipse
 62
7
  6
CONTINUOUS
 10
99.7621055547
 20
180.4895689171
 30
0.0
 11
0.0
 21
-0.2000033847
 31
0.0
 40
0.9999830769
 41
1.5707963268
 42
3.1415926536
  0
ELLIPSE
  5
68F
100
AcDbEntity
  8
ASSI
100
AcDbEllipse
 62
7
  6
CONTINUOUS
 10
102.1621055547
 20
180.4895689171
 30
0.0
 11
-0.0
 21
0.2000033847
 31
0.0
 40
0.9999830769
 41
0.0
 42
1.5707963268
  0
ELLIPSE
  5
690
100
AcDbEntity
  8
ASSI
100
AcDbEllipse
 62
7
  6
CONTINUOUS
 10
110.7018562565
 20
137.0277344567
 30
0.0
 11
0.9005489241
 21
0.8994510755
 31
0.0
 40
0.0348994837
 41
1.7774577451
 42
3.1241606468
  0
ELLIPSE
  5
691
100
AcDbEntity
  8
ASSI
100
AcDbEllipse
 62
7
  6
CONTINUOUS
 10
110.5018254989
 20
137.0277344567
 30
0.0
 11
-0.0
 21
0.9
 31
0.0
 40
0.0174550649
 41
-4.5765364148
 42
-4.5406554329
  0
ELLIPSE
  5
692
100
AcDbEntity
  8
ASSI
100
AcDbEllipse
 62
7
  6
CONTINUOUS
 10
99.7621055547
 20
132.9012113461
 30
0.0
 11
0.0
 21
-0.2000033847
 31
0.0
 40
0.9999830769
 41
0.0
 42
1.5707963268
  0
ELLIPSE
  5
693
100
AcDbEntity
  8
ASSI
100
AcDbEllipse
 62
7
  6
CONTINUOUS
 10
107.4062457548
 20
137.651284202
 30
0.0
 11
-0.0
 21
0.9
 31
0.0
 40
0.0087268678
 41
-4.5837091107
 42
-3.1503192999
  0
ELLIPSE
  5
694
100
AcDbEntity
  8
ASSI
100
AcDbEllipse
 62
7
  6
CONTINUOUS
 10
97.4401895873
 20
170.1953901316
 30
0.0
 11
-0.0
 21
0.5
 31
0.0
 40
0.1763269807
 41
-0.0
 42
0.2409990988
  0
ELLIPSE
  5
695
100
AcDbEntity
  8
ASSI
100
AcDbEllipse
 62
7
  6
CONTINUOUS
 10
94.5179653546
 20
137.651284202
 30
0.0
 11
-0.0
 21
0.9
 31
0.0
 40
0.0087268678
 41
-3.1328660073
 42
-1.6994761965
  0
ELLIPSE
  5
696
100
AcDbEntity
  8
ASSI
100
AcDbEllipse
 62
7
  6
CONTINUOUS
 10
102.1621055547
 20
132.9012113461
 30
0.0
 11
-0.0
 21
0.2000033847
 31
0.0
 40
0.9999830769
 41
1.5707963268
 42
3.1415926536
  0
ELLIPSE
  5
697
100
AcDbEntity
  8
ASSI
100
AcDbEllipse
 62
7
  6
CONTINUOUS
 10
104.7411258834
 20
172.3953901316
 30
0.0
 11
0.0
 21
1.0
 31
0.0
 40
0.1763269807
 41
-3.1415926536
 42
-1.6929693744
  0
ELLIPSE
  5
698
100
AcDbEntity
  8
ASSI
100
AcDbEllipse
 62
7
  6
CONTINUOUS
 10
105.3684718311
 20
133.2390323169
 30
0.0
 11
0.0
 21
0.5
 31
0.0
 40
0.0058178298
 41
-3.2409419489
 42
-3.1474104178
  0
ELLIPSE
  5
699
100
AcDbEntity
  8
ASSI
100
AcDbEllipse
 62
7
  6
CONTINUOUS
 10
96.5557392783
 20
133.2390323169
 30
0.0
 11
-0.0
 21
0.5
 31
0.0
 40
0.0058178298
 41
-3.1357748894
 42
-3.0422433583
  0
ELLIPSE
  5
69A
100
AcDbEntity
  8
ASSI
100
AcDbEllipse
 62
7
  6
CONTINUOUS
 10
104.9151482646
 20
134.3392970447
 30
0.0
 11
0.4530427099
 21
-0.0
 31
0.0
 40
0.0058178298
 41
0.0058177642
 42
3.1415926536
  0
ELLIPSE
  5
69B
100
AcDbEntity
  8
ASSI
100
AcDbEllipse
 62
7
  6
CONTINUOUS
 10
91.4223856105
 20
137.0277344567
 30
0.0
 11
-0.0
 21
0.9
 31
0.0
 40
0.0174550649
 41
-1.7425298743
 42
-1.7066488924
  0
ELLIPSE
  5
69C
100
AcDbEntity
  8
ASSI
100
AcDbEllipse
 62
7
  6
CONTINUOUS
 10
97.0090628448
 20
134.3392970447
 30
0.0
 11
0.4530427099
 21
-0.0
 31
0.0
 40
0.0058178298
 41
-0.0
 42
3.1357748894
  0
ELLIPSE
  5
69D
100
AcDbEntity
  8
ASSI
100
AcDbEllipse
 62
7
  6
CONTINUOUS
 10
104.9151482646
 20
179.0514832185
 30
0.0
 11
0.4530427099
 21
0.0
 31
0.0
 40
0.0058178298
 41
3.1415926536
 42
6.277367543
  0
ELLIPSE
  5
69E
100
AcDbEntity
  8
ASSI
100
AcDbEllipse
 62
7
  6
CONTINUOUS
 10
92.6797655437
 20
174.1801129137
 30
0.0
 11
0.0
 21
1.0
 31
0.0
 40
0.1763269807
 41
-2.9321531434
 42
-1.6929693744
  0
ELLIPSE
  5
69F
100
AcDbEntity
  8
ASSI
100
AcDbEllipse
 62
7
  6
CONTINUOUS
 10
97.0090628448
 20
179.0514832185
 30
0.0
 11
0.4530427099
 21
0.0
 31
0.0
 40
0.0058178298
 41
-3.1357748894
 42
0.0
  0
ELLIPSE
  5
6A0
100
AcDbEntity
  8
ASSI
100
AcDbEllipse
 62
7
  6
CONTINUOUS
 10
91.428453841
 20
174.1801129137
 30
0.0
 11
-0.0
 21
1.0
 31
0.0
 40
0.0174550649
 41
-4.5902159327
 42
-3.3510321638
  0
ELLIPSE
  5
6A1
100
AcDbEntity
  8
ASSI
100
AcDbEllipse
 62
7
  6
CONTINUOUS
 10
92.6411258834
 20
172.3953901316
 30
0.0
 11
0.0
 21
1.0
 31
0.0
 40
0.1763269807
 41
-3.1415926536
 42
-1.6929693744
  0
ELLIPSE
  5
6A2
100
AcDbEntity
  8
ASSI
100
AcDbEllipse
 62
7
  6
CONTINUOUS
 10
110.4957572683
 20
174.1801129137
 30
0.0
 11
0.0
 21
1.0
 31
0.0
 40
0.0174550649
 41
-2.9321531434
 42
-1.6929693744
  0
ELLIPSE
  5
6A3
100
AcDbEntity
  8
ASSI
100
AcDbEllipse
 62
7
  6
CONTINUOUS
 10
109.2444455657
 20
174.1801129137
 30
0.0
 11
-0.0
 21
1.0
 31
0.0
 40
0.1763269807
 41
-4.5902159327
 42
-3.3510321638
  0
ELLIPSE
  5
6A4
100
AcDbEntity
  8
ASSI
100
AcDbEllipse
 62
7
  6
CONTINUOUS
 10
104.7797655437
 20
174.1801129137
 30
0.0
 11
0.0
 21
1.0
 31
0.0
 40
0.1763269807
 41
-2.9321531434
 42
-1.6929693744
  0
ELLIPSE
  5
6A5
100
AcDbEntity
  8
ASSI
100
AcDbEllipse
 62
7
  6
CONTINUOUS
 10
97.1444455657
 20
174.1801129137
 30
0.0
 11
-0.0
 21
1.0
 31
0.0
 40
0.1763269807
 41
-4.5902159327
 42
-3.3510321638
  0
ELLIPSE
  5
6A6
100
AcDbEntity
  8
ASSI
100
AcDbEllipse
 62
7
  6
CONTINUOUS
 10
91.2223548528
 20
137.0277344567
 30
0.0
 11
0.9005489241
 21
-0.8994510755
 31
0.0
 40
0.0348994837
 41
0.0174320068
 42
1.3641349085
  0
ELLIPSE
  5
6A7
100
AcDbEntity
  8
ASSI
100
AcDbEllipse
 62
7
  6
CONTINUOUS
 10
97.183085226
 20
172.3953901316
 30
0.0
 11
-0.0
 21
1.0
 31
0.0
 40
0.1763269807
 41
-4.5902159327
 42
-3.1415926536
  0
ELLIPSE
  5
6A8
100
AcDbEntity
  8
ASSI
100
AcDbEllipse
 62
7
  6
CONTINUOUS
 10
110.5579948534
 20
176.478234519
 30
0.0
 11
-0.0
 21
0.5
 31
0.0
 40
0.0174550649
 41
-3.1066860686
 42
-1.5707963268
  0
ELLIPSE
  5
6A9
100
AcDbEntity
  8
ASSI
100
AcDbEllipse
 62
7
  6
CONTINUOUS
 10
108.2891588448
 20
176.478234519
 30
0.0
 11
-0.0
 21
0.5
 31
0.0
 40
0.0087268678
 41
-4.7123889804
 42
-3.1764992386
  0
ELLIPSE
  5
6AA
100
AcDbEntity
  8
ASSI
100
AcDbEllipse
 62
7
  6
CONTINUOUS
 10
93.6350522645
 20
176.478234519
 30
0.0
 11
-0.0
 21
0.5
 31
0.0
 40
0.0087268678
 41
-3.1066860685
 42
-1.5707963268
  0
ELLIPSE
  5
6AB
100
AcDbEntity
  8
ASSI
100
AcDbEllipse
 62
7
  6
CONTINUOUS
 10
91.366216256
 20
176.478234519
 30
0.0
 11
0.0
 21
0.5
 31
0.0
 40
0.0174550649
 41
-4.7123889804
 42
-3.1764992386
  0
ELLIPSE
  5
6AC
100
AcDbEntity
  8
ASSI
100
AcDbEllipse
 62
7
  6
CONTINUOUS
 10
107.4350522645
 20
176.478234519
 30
0.0
 11
0.0
 21
0.5
 31
0.0
 40
0.0087268678
 41
-3.1066860685
 42
-1.5707963268
  0
ELLIPSE
  5
6AD
100
AcDbEntity
  8
ASSI
100
AcDbEllipse
 62
7
  6
CONTINUOUS
 10
94.4891588448
 20
176.478234519
 30
0.0
 11
-0.0
 21
0.5
 31
0.0
 40
0.0087268678
 41
-4.7123889804
 42
-3.1764992386
  0
ELLIPSE
  5
6AE
100
AcDbEntity
  8
ASSI
100
AcDbEllipse
 62
7
  6
CONTINUOUS
 10
112.0185301601
 20
148.9053901316
 30
0.0
 11
-0.0
 21
88.6
 31
0.0
 40
0.0174550649
 41
-4.6590536787
 42
-4.5765364148
  0
ELLIPSE
  5
6AF
100
AcDbEntity
  8
ASSI
100
AcDbEllipse
 62
7
  6
CONTINUOUS
 10
93.75548304
 20
176.7971200209
 30
0.0
 11
-0.0
 21
0.3
 31
0.0
 40
0.0087268678
 41
-2.9670597284
 42
-1.5707963268
  0
ELLIPSE
  5
6B0
100
AcDbEntity
  8
ASSI
100
AcDbEllipse
 62
7
  6
CONTINUOUS
 10
110.8621013238
 20
180.106714997
 30
0.0
 11
-0.0029088041
 21
0.2886641433
 31
0.0
 40
0.8660144118
 41
-3.150319066
 42
-1.582431609
  0
ELLIPSE
  5
6B1
100
AcDbEntity
  8
ASSI
100
AcDbEllipse
 62
7
  6
CONTINUOUS
 10
108.4621097855
 20
180.106714997
 30
0.0
 11
0.0029088041
 21
0.2886641433
 31
0.0
 40
0.8660144118
 41
-4.7007536982
 42
-3.1328662411
  0
ELLIPSE
  5
6B2
100
AcDbEntity
  8
ASSI
100
AcDbEllipse
 62
7
  6
CONTINUOUS
 10
93.7589468074
 20
148.9053901316
 30
0.0
 11
0.0
 21
88.6
 31
0.0
 40
0.0087268678
 41
-1.6994761965
 42
-1.6700805831
  0
ELLIPSE
  5
6B3
100
AcDbEntity
  8
ASSI
100
AcDbEllipse
 62
7
  6
CONTINUOUS
 10
94.365264302
 20
148.9053901316
 30
0.0
 11
-0.0
 21
88.6
 31
0.0
 40
0.0087268678
 41
-4.6131047241
 42
-4.5765364148
  0
ELLIPSE
  5
6B4
100
AcDbEntity
  8
ASSI
100
AcDbEllipse
 62
7
  6
CONTINUOUS
 10
93.75548304
 20
136.5936602422
 30
0.0
 11
-0.0
 21
0.3
 31
0.0
 40
0.0087268678
 41
-1.5707963268
 42
-0.1745329252
  0
ELLIPSE
  5
6B5
100
AcDbEntity
  8
ASSI
100
AcDbEllipse
 62
7
  6
CONTINUOUS
 10
93.4621013238
 20
180.106714997
 30
0.0
 11
-0.0029088041
 21
0.2886641433
 31
0.0
 40
0.8660144118
 41
-3.150319066
 42
-1.582431609
  0
ELLIPSE
  5
6B6
100
AcDbEntity
  8
ASSI
100
AcDbEllipse
 62
7
  6
CONTINUOUS
 10
91.0621097855
 20
180.106714997
 30
0.0
 11
0.0029088041
 21
0.2886641433
 31
0.0
 40
0.8660144118
 41
-4.7007536982
 42
-3.1328662411
  0
ELLIPSE
  5
6B7
100
AcDbEntity
  8
ASSI
100
AcDbEllipse
 62
7
  6
CONTINUOUS
 10
89.9056809493
 20
148.9053901316
 30
0.0
 11
-0.0
 21
88.6
 31
0.0
 40
0.0174550649
 41
-1.7066488924
 42
-1.6241316285
  0
ELLIPSE
  5
6B8
100
AcDbEntity
  8
ASSI
100
AcDbEllipse
 62
7
  6
CONTINUOUS
 10
110.8621013238
 20
133.2840652662
 30
0.0
 11
0.0029088041
 21
0.2886641433
 31
0.0
 40
0.8660144118
 41
-1.5591610446
 42
0.0087264124
  0
ELLIPSE
  5
6B9
100
AcDbEntity
  8
ASSI
100
AcDbEllipse
 62
7
  6
CONTINUOUS
 10
108.4621097855
 20
133.2840652662
 30
0.0
 11
-0.0029088041
 21
0.2886641433
 31
0.0
 40
0.8660144118
 41
-0.0087264124
 42
1.5591610446
  0
ELLIPSE
  5
6BA
100
AcDbEntity
  8
ASSI
100
AcDbEllipse
 62
7
  6
CONTINUOUS
 10
91.0621097855
 20
133.2840652662
 30
0.0
 11
-0.0029088041
 21
0.2886641433
 31
0.0
 40
0.8660144118
 41
-0.0087264124
 42
1.5591610446
  0
ELLIPSE
  5
6BB
100
AcDbEntity
  8
ASSI
100
AcDbEllipse
 62
7
  6
CONTINUOUS
 10
93.4621013238
 20
133.2840652662
 30
0.0
 11
0.0029088041
 21
0.2886641433
 31
0.0
 40
0.8660144118
 41
-1.5591610446
 42
0.0087264124
  0
ELLIPSE
  5
6BC
100
AcDbEntity
  8
ASSI
100
AcDbEllipse
 62
7
  6
CONTINUOUS
 10
108.1687280693
 20
176.7971200209
 30
0.0
 11
0.0
 21
0.3
 31
0.0
 40
0.0087268678
 41
-4.7123889804
 42
-3.3161255788
  0
ELLIPSE
  5
6BD
100
AcDbEntity
  8
ASSI
100
AcDbEllipse
 62
7
  6
CONTINUOUS
 10
90.3204151183
 20
134.8012164231
 30
0.0
 11
0.4160498344
 21
0.2773626446
 31
0.0
 40
0.9999450019
 41
2.5536219432
 42
4.1243675013
  0
ELLIPSE
  5
6BE
100
AcDbEntity
  8
ASSI
100
AcDbEllipse
 62
7
  6
CONTINUOUS
 10
90.3204151183
 20
178.5895638401
 30
0.0
 11
-0.4160498344
 21
0.2773626446
 31
0.0
 40
0.9999450019
 41
-0.9827748477
 42
0.5879707104
  0
ELLIPSE
  5
6BF
100
AcDbEntity
  8
ASSI
100
AcDbEllipse
 62
7
  6
CONTINUOUS
 10
111.6037959911
 20
134.8012164231
 30
0.0
 11
0.4160498344
 21
-0.2773626446
 31
0.0
 40
0.9999450019
 41
-0.9827748477
 42
0.5879707104
  0
ELLIPSE
  5
6C0
100
AcDbEntity
  8
ASSI
100
AcDbEllipse
 62
7
  6
CONTINUOUS
 10
111.6037959911
 20
178.5895638401
 30
0.0
 11
-0.4160498344
 21
-0.2773626446
 31
0.0
 40
0.9999450019
 41
2.5536219432
 42
4.1243675013
  0
ELLIPSE
  5
6C1
100
AcDbEntity
  8
ASSI
100
AcDbEllipse
 62
7
  6
CONTINUOUS
 10
109.283085226
 20
172.3953901316
 30
0.0
 11
-0.0
 21
1.0
 31
0.0
 40
0.1763269807
 41
-4.5902159327
 42
-3.1415926536
  0
ENDSEC
  0
SECTION
  2
OBJECTS
  0
DICTIONARY
  5
C
100
AcDbDictionary
280
0
281
1
  3
ACAD_GROUP
350
D
  3
ACAD_MLINESTYLE
350
17
  3
ACAD_LAYOUT
350
1A
  3
ACAD_PLOTSETTINGS
350
19
  3
ACAD_PLOTSTYLENAME
350
E
  0
DICTIONARY
  5
D
102
{ACAD_REACTORS
330
C
102
}
100
AcDbDictionary
280
0
281
1
  0
ACDBDICTIONARYWDFLT
  5
E
102
{ACAD_REACTORS
330
C
102
}
100
AcDbDictionary
281
1
  3
Normal
350
F
100
AcDbDictionaryWithDefault
340
F
  0
DICTIONARY
  5
17
102
{ACAD_REACTORS
330
C
102
}
100
AcDbDictionary
280
0
281
1
  3
Standard
350
18
  0
DICTIONARY
  5
19
102
{ACAD_REACTORS
330
C
102
}
100
AcDbDictionary
281
1
  0
DICTIONARY
  5
1A
102
{ACAD_REACTORS
330
C
102
}
100
AcDbDictionary
281
1
  3
Model
350
6C2
  3
Layout1
350
6C3
  0
ACDBPLACEHOLDER
  5
F
102
{ACAD_REACTORS
330
E
102
}
  0
MLINESTYLE
  5
18
102
{ACAD_REACTORS
330
17
102
}
100
AcDbMlineStyle
  2
STANDARD
 70
0
  3

 62
256
 51
90.0
 52
90.0
 71
2
 49
0.5
 62
256
  6
BYLAYER
 49
-0.5
 62
256
  6
BYLAYER
  0
LAYOUT
  5
6C2
102
{ACAD_REACTORS
330
1A
102
}
100
AcDbPlotSettings
  1

  2
none_device
  4
ISO_A4_(297.00_x_210.00_MM)
  6

 40
0.0
 41
0.0
 42
0.0
 43
0.0
 44
297.0
 45
210.0
 46
0.0
 47
0.0
 48
0.0
 49
0.0
140
0.0
141
0.0
142
1.0
143
1.0
 70
1024
 72
1
 73
0
 74
0
  7

 75
0
147
1.0
148
0.0
149
0.0
100
AcDbLayout
  1
Model
 70
0
 71
0
 10
0.0
 20
0.0
 11
297.0
 21
210.0
 12
0.0
 22
0.0
 32
0.0
 14
0.0
 24
0.0
 34
0.0
 15
0.0
 25
0.0
 35
0.0
146
0.0
 13
0.0
 23
0.0
 33
0.0
 16
1.0
 26
0.0
 36
0.0
 17
0.0
 27
1.0
 37
0.0
 76
0
330
211
345
0
346
0
  0
LAYOUT
  5
6C3
102
{ACAD_REACTORS
330
1A
102
}
100
AcDbPlotSettings
  1

  2
none_device
  4
ISO_A4_(297.00_x_210.00_MM)
  6

 40
0.0
 41
0.0
 42
0.0
 43
0.0
 44
297.0
 45
210.0
 46
0.0
 47
0.0
 48
0.0
 49
0.0
140
0.0
141
0.0
142
1.0
143
1.0
 70
0
 72
1
 73
0
 74
0
  7

 75
0
147
1.0
148
0.0
149
0.0
100
AcDbLayout
  1
Layout1
 70
0
 71
1
 10
0.0
 20
0.0
 11
297.0
 21
210.0
 12
0.0
 22
0.0
 32
0.0
 14
0.0
 24
0.0
 34
0.0
 15
0.0
 25
0.0
 35
0.0
146
0.0
 13
0.0
 23
0.0
 33
0.0
 16
1.0
 26
0.0
 36
0.0
 17
0.0
 27
1.0
 37
0.0
 76
0
330
212
345
0
346
0
  0
ENDSEC
  0
EOF
