  0
SECTION
  2
HEADER
  9
$ACADVER
  1
AC1015
  9
$DWGCODEPAGE
  3
ANSI_1252
  9
$EXTMAX
 10
297.0
 20
210.0
 30
0.0
  9
$EXTMIN
 10
0.0
 20
0.0
 30
0.0
  9
$LIMMIN
 10
0.0
 20
0.0
  9
$LIMMAX
 10
297.0
 20
210.0
  9
$VIEWCTR
 10
148.5
 20
105.0
  9
$VIEWSIZE
 40
210.0
  9
$CLAYER
  8
0
  9
$LTSCALE
 40
16.335
  9
$CELTYPE
  6
BYLAYER
  9
$DIMSCALE
 40
1.0
  9
$DIMASZ
 40
3.0
  9
$DIMEXO
 40
1.85625
  9
$DIMDLI
 40
11.286
  9
$DIMEXE
 40
5.346
  9
$DIMCEN
 40
2.673
  9
$DIMLFAC
 40
1.0
  9
$DIMBLK
  1
_FILLED
  9
$DIMTXT
 40
3.0
  9
$DIMTOL
 70
1
  9
$DIMLIM
 70
0
  9
$DIMTFAC
 40
1.0
  9
$DIMTP
 40
0.01
  9
$DIMTM
 40
0.01
  9
$PDMODE
 70
3
  9
$PDSIZE
 40
3.0
  9
$HANDSEED
  5
6B3
  9
$TILEMODE
 70
1
  9
$MEASUREMENT
 70
1
  9
$INSUNITS
 70
4
  0
ENDSEC
  0
SECTION
  2
CLASSES
  0
CLASS
  1
ACDBDICTIONARYWDFLT
  2
AcDbDictionaryWithDefault
  3
AutoCAD 2000
 90
0
280
0
281
0
  0
CLASS
  1
ACDBPLACEHOLDER
  2
AcDbPlaceHolder
  3
AutoCAD 2000
 90
0
280
0
281
0
  0
CLASS
  1
LAYOUT
  2
AcDbLayout
  3
AutoCAD 2000
 90
0
280
0
281
0
  0
ENDSEC
  0
SECTION
  2
TABLES
  0
TABLE
  2
VPORT
  5
8
100
AcDbSymbolTable
 70
2
  0
VPORT
  5
1F4
100
AcDbSymbolTableRecord
100
AcDbViewportTableRecord
  2
*ACTIVE
 70
0
 10
0.0
 20
0.0
 11
1.0
 21
1.0
 12
148.5
 22
105.0
 13
0.0
 23
0.0
 14
1.0
 24
1.0
 15
0.0
 25
0.0
 16
0.0
 26
0.0
 36
1.0
 17
0.0
 27
0.0
 37
0.0
 40
210.0
 41
1.4142857143
 42
50.0
 43
0.0
 44
0.0
 50
0.0
 51
0.0
 71
0
 72
100
 73
1
 74
1
 75
0
 76
0
 77
0
 78
0
  0
ENDTAB
  0
TABLE
  2
LTYPE
  5
5
100
AcDbSymbolTable
 70
6
  0
LTYPE
  5
14
100
AcDbSymbolTableRecord
100
AcDbLinetypeTableRecord
  2
BYBLOCK
 70
0
  3

 72
65
 73
0
 40
0.0
  0
LTYPE
  5
15
100
AcDbSymbolTableRecord
100
AcDbLinetypeTableRecord
  2
BYLAYER
 70
0
  3

 72
65
 73
0
 40
0.0
  0
LTYPE
  5
16
100
AcDbSymbolTableRecord
100
AcDbLinetypeTableRecord
  2
CONTINUOUS
 70
64
  3
Solid line
 72
65
 73
0
 40
0.0
  0
LTYPE
  5
1F5
100
AcDbSymbolTableRecord
100
AcDbLinetypeTableRecord
  2
CENTER
 70
64
  3
____ _ ____ _ ____ _ ____ _ ____ _ ____ _ ____
 72
65
 73
4
 40
0.6
 49
0.375
 74
0
 49
-0.075
 74
0
 49
0.075
 74
0
 49
-0.075
 74
0
  0
LTYPE
  5
1F6
100
AcDbSymbolTableRecord
100
AcDbLinetypeTableRecord
  2
HIDDEN
 70
64
  3
- - - - - - - - - - - - - - - - - - - -
 72
65
 73
2
 40
0.2
 49
0.1
 74
0
 49
-0.1
 74
0
  0
LTYPE
  5
1F7
100
AcDbSymbolTableRecord
100
AcDbLinetypeTableRecord
  2
PHANTOM
 70
64
  3
_____ _ _ _____ _ _ _____ _ _ _____
 72
65
 73
6
 40
0.8
 49
0.45
 74
0
 49
-0.05
 74
0
 49
0.1
 74
0
 49
-0.05
 74
0
 49
0.1
 74
0
 49
-0.05
 74
0
  0
LTYPE
  5
1F8
100
AcDbSymbolTableRecord
100
AcDbLinetypeTableRecord
  2
DOT
 70
64
  3
. . . . . . . . . . . . . . . . . . . .
 72
65
 73
2
 40
0.2
 49
0.1
 74
0
 49
-0.1
 74
0
  0
LTYPE
  5
1F9
100
AcDbSymbolTableRecord
100
AcDbLinetypeTableRecord
  2
DASHED
 70
64
  3
- - - - - - - - - - - - - - - - - - - -
 72
65
 73
2
 40
0.2
 49
0.1
 74
0
 49
-0.1
 74
0
  0
ENDTAB
  0
TABLE
  2
LAYER
  5
2
100
AcDbSymbolTable
 70
36
  0
LAYER
  5
10
100
AcDbSymbolTableRecord
100
AcDbLayerTableRecord
  2
0
 70
0
 62
7
  6
CONTINUOUS
370
-3
390
F
  0
LAYER
  5
1FA
100
AcDbSymbolTableRecord
100
AcDbLayerTableRecord
  2
DEFAULT_1
 70
0
 62
7
  6
CENTER
370
-3
390
F
  0
LAYER
  5
1FB
100
AcDbSymbolTableRecord
100
AcDbLayerTableRecord
  2
DEFAULT_2
 70
0
 62
7
  6
HIDDEN
370
-3
390
F
  0
LAYER
  5
1FC
100
AcDbSymbolTableRecord
100
AcDbLayerTableRecord
  2
DEFAULT_3
 70
0
 62
7
  6
PHANTOM
370
-3
390
F
  0
LAYER
  5
1FD
100
AcDbSymbolTableRecord
100
AcDbLayerTableRecord
  2
ASSI
 70
0
 62
7
  6
CONTINUOUS
370
-3
390
F
  0
LAYER
  5
1FE
100
AcDbSymbolTableRecord
100
AcDbLayerTableRecord
  2
COLOR1
 70
0
 62
7
  6
CONTINUOUS
370
-3
390
F
  0
LAYER
  5
1FF
100
AcDbSymbolTableRecord
100
AcDbLayerTableRecord
  2
COORDINATE
 70
0
 62
7
  6
CONTINUOUS
370
-3
390
F
  0
LAYER
  5
200
100
AcDbSymbolTableRecord
100
AcDbLayerTableRecord
  2
COORD_ORIGINE
 70
0
 62
7
  6
CONTINUOUS
370
-3
390
F
  0
LAYER
  5
201
100
AcDbSymbolTableRecord
100
AcDbLayerTableRecord
  2
COPY_PUBLISH
 70
0
 62
7
  6
CONTINUOUS
370
-3
390
F
  0
LAYER
  5
202
100
AcDbSymbolTableRecord
100
AcDbLayerTableRecord
  2
COSMETIC
 70
0
 62
7
  6
CONTINUOUS
370
-3
390
F
  0
LAYER
  5
203
100
AcDbSymbolTableRecord
100
AcDbLayerTableRecord
  2
CURVE
 70
0
 62
7
  6
CONTINUOUS
370
-3
390
F
  0
LAYER
  5
204
100
AcDbSymbolTableRecord
100
AcDbLayerTableRecord
  2
DRAFT
 70
0
 62
7
  6
CONTINUOUS
370
-3
390
F
  0
LAYER
  5
205
100
AcDbSymbolTableRecord
100
AcDbLayerTableRecord
  2
IMPORT_IGES
 70
0
 62
7
  6
CONTINUOUS
370
-3
390
F
  0
LAYER
  5
206
100
AcDbSymbolTableRecord
100
AcDbLayerTableRecord
  2
INTFCLR_2
 70
0
 62
7
  6
CONTINUOUS
370
-3
390
F
  0
LAYER
  5
207
100
AcDbSymbolTableRecord
100
AcDbLayerTableRecord
  2
INTF_5
 70
0
 62
7
  6
CONTINUOUS
370
-3
390
F
  0
LAYER
  5
208
100
AcDbSymbolTableRecord
100
AcDbLayerTableRecord
  2
INTF_CYAN
 70
0
 62
7
  6
CONTINUOUS
370
-3
390
F
  0
LAYER
  5
209
100
AcDbSymbolTableRecord
100
AcDbLayerTableRecord
  2
INTF_YELLOW
 70
0
 62
7
  6
CONTINUOUS
370
-3
390
F
  0
LAYER
  5
20A
100
AcDbSymbolTableRecord
100
AcDbLayerTableRecord
  2
NOTE
 70
0
 62
7
  6
CONTINUOUS
370
-3
390
F
  0
LAYER
  5
20B
100
AcDbSymbolTableRecord
100
AcDbLayerTableRecord
  2
PIANI
 70
0
 62
7
  6
CONTINUOUS
370
-3
390
F
  0
LAYER
  5
20C
100
AcDbSymbolTableRecord
100
AcDbLayerTableRecord
  2
PIANI_ORIGINE
 70
0
 62
7
  6
CONTINUOUS
370
-3
390
F
  0
LAYER
  5
20D
100
AcDbSymbolTableRecord
100
AcDbLayerTableRecord
  2
PIANI_SFORMI
 70
0
 62
7
  6
CONTINUOUS
370
-3
390
F
  0
LAYER
  5
20E
100
AcDbSymbolTableRecord
100
AcDbLayerTableRecord
  2
PUNTI
 70
0
 62
7
  6
CONTINUOUS
370
-3
390
F
  0
LAYER
  5
20F
100
AcDbSymbolTableRecord
100
AcDbLayerTableRecord
  2
RACCORDO
 70
0
 62
7
  6
CONTINUOUS
370
-3
390
F
  0
LAYER
  5
210
100
AcDbSymbolTableRecord
100
AcDbLayerTableRecord
  2
SKEL
 70
0
 62
7
  6
CONTINUOUS
370
-3
390
F
  0
LAYER
  5
211
100
AcDbSymbolTableRecord
100
AcDbLayerTableRecord
  2
SMUSSO
 70
0
 62
7
  6
CONTINUOUS
370
-3
390
F
  0
LAYER
  5
212
100
AcDbSymbolTableRecord
100
AcDbLayerTableRecord
  2
SNAPLINE
 70
0
 62
7
  6
CONTINUOUS
370
-3
390
F
  0
LAYER
  5
213
100
AcDbSymbolTableRecord
100
AcDbLayerTableRecord
  2
SUPERFICI
 70
0
 62
7
  6
CONTINUOUS
370
-3
390
F
  0
LAYER
  5
214
100
AcDbSymbolTableRecord
100
AcDbLayerTableRecord
  2
TRASH
 70
0
 62
7
  6
CONTINUOUS
370
-3
390
F
  0
LAYER
  5
215
100
AcDbSymbolTableRecord
100
AcDbLayerTableRecord
  2
XSEC_DATUMS
 70
0
 62
7
  6
CONTINUOUS
370
-3
390
F
  0
ENDTAB
  0
TABLE
  2
STYLE
  5
3
100
AcDbSymbolTable
 70
1
  0
STYLE
  5
11
100
AcDbSymbolTableRecord
100
AcDbTextStyleTableRecord
  2
STANDARD
 70
0
 40
0.0
 41
0.8
 50
0.0
 71
0
 42
0.2
  3
txt
  4

  0
STYLE
  5
216
100
AcDbSymbolTableRecord
100
AcDbTextStyleTableRecord
  2
TEXTSTYLE_1
 70
0
 40
0.0
 41
0.8
 50
0.0
 71
0
 42
0.2
  3
gdt
  4

  0
ENDTAB
  0
TABLE
  2
VIEW
  5
6
100
AcDbSymbolTable
 70
0
  0
ENDTAB
  0
TABLE
  2
UCS
  5
7
100
AcDbSymbolTable
 70
0
  0
ENDTAB
  0
TABLE
  2
APPID
  5
9
100
AcDbSymbolTable
 70
1
  0
APPID
  5
217
100
AcDbSymbolTableRecord
100
AcDbRegAppTableRecord
  2
ACAD
 70
0
  0
ENDTAB
  0
TABLE
  2
BLOCK_RECORD
  5
1
100
AcDbSymbolTable
 70
0
  0
BLOCK_RECORD
  5
218
100
AcDbSymbolTableRecord
100
AcDbBlockTableRecord
  2
*Model_Space
  0
BLOCK_RECORD
  5
219
100
AcDbSymbolTableRecord
100
AcDbBlockTableRecord
  2
*Paper_Space
  0
ENDTAB
  0
TABLE
  2
DIMSTYLE
  5
A
100
AcDbSymbolTable
 70
1
100
AcDbDimStyleTable
 71
0
  0
DIMSTYLE
105
21A
100
AcDbSymbolTableRecord
100
AcDbDimStyleTableRecord
  2
STANDARD
 70
0
  3

  4

 40
1.0
 41
3.0
 42
0.0625
 43
0.38
 44
0.18
 45
0.0
 46
0.0
 47
0.01
 48
0.01
140
3.0
141
0.09
142
0.0
143
25.4
144
1.0
145
0.0
146
1.0
147
0.09
 71
1.0
 72
0.0
 73
0
 74
0
 75
0
 76
0
 77
1
 78
8
170
0
171
2
172
0
173
0
174
0
175
0
176
0
177
0
178
0
270
2
271
2
272
2
273
2
274
2
275
0
280
0
281
0
282
0
283
1
284
8
285
0
286
0
287
3
288
0
340
11
  0
ENDTAB
  0
ENDSEC
  0
SECTION
  2
BLOCKS
  0
BLOCK
  5
20
100
AcDbEntity
  8
0
100
AcDbBlockBegin
  2
*Model_Space
 70
0
 10
0.0
 20
0.0
 30
0.0
  3
*Model_Space
  1

  0
ENDBLK
  5
21
100
AcDbEntity
  8
0
100
AcDbBlockEnd
  0
BLOCK
  5
1C
100
AcDbEntity
  8
0
100
AcDbBlockBegin
  2
*Paper_Space
 70
0
 10
0.0
 20
0.0
 30
0.0
  3
*Paper_Space
  1

  0
ENDBLK
  5
1D
100
AcDbEntity
  8
0
100
AcDbBlockEnd
  0
ENDSEC
  0
SECTION
  2
ENTITIES
  0
LINE
  5
21B
100
AcDbEntity
  8
0
100
AcDbLine
 62
7
  6
CONTINUOUS
 10
-9.8956323968
 20
-24.495628166
 11
-7.5043676032
 21
-24.495628166
  0
LINE
  5
21C
100
AcDbEntity
  8
0
100
AcDbLine
 62
7
  6
CONTINUOUS
 10
7.5043676032
 20
-24.495628166
 11
9.8956323968
 21
-24.495628166
  0
LINE
  5
21D
100
AcDbEntity
  8
0
100
AcDbLine
 62
253
  6
CONTINUOUS
 10
7.254371834
 20
-24.2456323968
 11
10.145628166
 21
-24.2456323968
  0
LINE
  5
21E
100
AcDbEntity
  8
0
100
AcDbLine
 62
253
  6
CONTINUOUS
 10
-7.254371834
 20
-24.2456323968
 11
-10.145628166
 21
-24.2456323968
  0
LINE
  5
21F
100
AcDbEntity
  8
0
100
AcDbLine
 62
7
  6
CONTINUOUS
 10
-4.45
 20
-24.0
 11
-3.5567500259
 21
-24.0
  0
LINE
  5
220
100
AcDbEntity
  8
0
100
AcDbLine
 62
7
  6
CONTINUOUS
 10
3.5567500259
 20
-24.0
 11
4.45
 21
-24.0
  0
LINE
  5
221
100
AcDbEntity
  8
0
100
AcDbLine
 62
7
  6
CONTINUOUS
 10
-3.5
 20
-23.9941821702
 11
-1.2087243294
 21
-23.9941821702
  0
LINE
  5
222
100
AcDbEntity
  8
0
100
AcDbLine
 62
7
  6
CONTINUOUS
 10
1.2087243294
 20
-23.9941821702
 11
3.5
 21
-23.9941821702
  0
LINE
  5
223
100
AcDbEntity
  8
0
100
AcDbLine
 62
7
  6
CONTINUOUS
 10
-4.4063493531
 20
-23.9563493531
 11
-3.5567500259
 21
-23.9563493531
  0
LINE
  5
224
100
AcDbEntity
  8
0
100
AcDbLine
 62
7
  6
CONTINUOUS
 10
3.5567500259
 20
-23.9563493531
 11
4.4063493531
 21
-23.9563493531
  0
LINE
  5
225
100
AcDbEntity
  8
0
100
AcDbLine
 62
253
  6
CONTINUOUS
 10
7.254371834
 20
-23.8443375673
 11
10.145628166
 21
-23.8443375673
  0
LINE
  5
226
100
AcDbEntity
  8
0
100
AcDbLine
 62
253
  6
CONTINUOUS
 10
-7.254371834
 20
-23.8443375673
 11
-10.145628166
 21
-23.8443375673
  0
LINE
  5
227
100
AcDbEntity
  8
0
100
AcDbLine
 62
253
  6
CONTINUOUS
 10
9.8956323968
 20
-23.6278312164
 11
7.5043676032
 21
-23.6278312164
  0
LINE
  5
228
100
AcDbEntity
  8
0
100
AcDbLine
 62
253
  6
CONTINUOUS
 10
-7.5043676032
 20
-23.6278312164
 11
-9.8956323968
 21
-23.6278312164
  0
LINE
  5
229
100
AcDbEntity
  8
0
100
AcDbLine
 62
7
  6
CONTINUOUS
 10
-3.5
 20
23.9941821702
 11
-3.5567500259
 21
23.9563493531
  0
LINE
  5
22A
100
AcDbEntity
  8
0
100
AcDbLine
 62
7
  6
CONTINUOUS
 10
-8.0665695018
 20
20.9917082642
 11
-8.25
 21
20.9
  0
LINE
  5
22B
100
AcDbEntity
  8
0
100
AcDbLine
 62
7
  6
CONTINUOUS
 10
-8.0665695018
 20
21.4537354271
 11
-8.25
 21
21.4
  0
LINE
  5
22C
100
AcDbEntity
  8
0
100
AcDbLine
 62
7
  6
CONTINUOUS
 10
-9.9007229979
 20
-23.1226497308
 11
-7.4992770021
 21
-23.1226497308
  0
LINE
  5
22D
100
AcDbEntity
  8
0
100
AcDbLine
 62
7
  6
CONTINUOUS
 10
9.9007229979
 20
-23.1226497308
 11
7.4992770021
 21
-23.1226497308
  0
LINE
  5
22E
100
AcDbEntity
  8
RACCORDO
100
AcDbLine
 62
7
  6
CONTINUOUS
 10
-7.1905416262
 20
-22.4
 11
-4.45
 21
-22.4
  0
LINE
  5
22F
100
AcDbEntity
  8
RACCORDO
100
AcDbLine
 62
7
  6
CONTINUOUS
 10
4.45
 20
-22.4
 11
7.1905416262
 21
-22.4
  0
LINE
  5
230
100
AcDbEntity
  8
0
100
AcDbLine
 62
7
  6
CONTINUOUS
 10
-1.0087268678
 20
-22.3947639644
 11
1.0087268678
 21
-22.3947639644
  0
LINE
  5
231
100
AcDbEntity
  8
0
100
AcDbLine
 62
7
  6
CONTINUOUS
 10
-10.6412794783
 20
-22.3941821702
 11
-7.2558178298
 21
-22.3941821702
  0
LINE
  5
232
100
AcDbEntity
  8
0
100
AcDbLine
 62
7
  6
CONTINUOUS
 10
-3.5
 20
-22.3941821702
 11
-3.0
 21
-22.3941821702
  0
LINE
  5
233
100
AcDbEntity
  8
0
100
AcDbLine
 62
7
  6
CONTINUOUS
 10
3.0
 20
-22.3941821702
 11
3.5
 21
-22.3941821702
  0
LINE
  5
234
100
AcDbEntity
  8
0
100
AcDbLine
 62
7
  6
CONTINUOUS
 10
7.2558178298
 20
-22.3941821702
 11
10.6412794783
 21
-22.3941821702
  0
LINE
  5
235
100
AcDbEntity
  8
0
100
AcDbLine
 62
7
  6
CONTINUOUS
 10
-7.1905416262
 20
-22.3359700255
 11
-3.0873194485
 21
-22.3359700255
  0
LINE
  5
236
100
AcDbEntity
  8
0
100
AcDbLine
 62
7
  6
CONTINUOUS
 10
3.0873194485
 20
-22.3359700255
 11
7.1905416262
 21
-22.3359700255
  0
LINE
  5
237
100
AcDbEntity
  8
0
100
AcDbLine
 62
7
  6
CONTINUOUS
 10
3.0
 20
-21.7
 11
-3.0
 21
-21.7
  0
LINE
  5
238
100
AcDbEntity
  8
0
100
AcDbLine
 62
7
  6
CONTINUOUS
 10
-8.0665695018
 20
-21.4537354271
 11
-8.25
 21
-21.4
  0
LINE
  5
239
100
AcDbEntity
  8
0
100
AcDbLine
 62
7
  6
CONTINUOUS
 10
-8.0665695018
 20
-20.9917082642
 11
-8.25
 21
-20.9
  0
LINE
  5
23A
100
AcDbEntity
  8
0
100
AcDbLine
 62
7
  6
CONTINUOUS
 10
-3.5
 20
-23.9941821702
 11
-3.5567500259
 21
-23.9563493531
  0
LINE
  5
23B
100
AcDbEntity
  8
0
100
AcDbLine
 62
7
  6
CONTINUOUS
 10
-9.65
 20
20.1990396502
 11
-8.9498936624
 21
20.9
  0
LINE
  5
23C
100
AcDbEntity
  8
0
100
AcDbLine
 62
7
  6
CONTINUOUS
 10
-7.2558178298
 20
22.3941821702
 11
-8.25
 21
21.4
  0
LINE
  5
23D
100
AcDbEntity
  8
DRAFT
100
AcDbLine
 62
7
  6
CONTINUOUS
 10
-7.2040044543
 20
20.9959955457
 11
-7.3
 21
20.9
  0
LINE
  5
23E
100
AcDbEntity
  8
0
100
AcDbLine
 62
253
  6
CONTINUOUS
 10
-1.2087243294
 20
23.9941821702
 11
-1.1999974616
 21
24.0
  0
LINE
  5
23F
100
AcDbEntity
  8
0
100
AcDbLine
 62
7
  6
CONTINUOUS
 10
-3.5
 20
22.3941821702
 11
-3.5590867224
 21
22.3547915774
  0
LINE
  5
240
100
AcDbEntity
  8
0
100
AcDbLine
 62
253
  6
CONTINUOUS
 10
-1.0087268678
 20
23.7941889394
 11
-1.0
 21
23.8000067692
  0
LINE
  5
241
100
AcDbEntity
  8
0
100
AcDbLine
 62
7
  6
CONTINUOUS
 10
-3.0
 20
22.3941821702
 11
-3.0873194485
 21
22.3359700255
  0
LINE
  5
242
100
AcDbEntity
  8
0
100
AcDbLine
 62
7
  6
CONTINUOUS
 10
3.0762444645
 20
-21.6237555355
 11
-3.0762444645
 21
-21.6237555355
  0
LINE
  5
243
100
AcDbEntity
  8
0
100
AcDbLine
 62
253
  6
CONTINUOUS
 10
-7.5666456542
 20
-21.3359869487
 11
-3.0959955457
 21
-21.3359869487
  0
LINE
  5
244
100
AcDbEntity
  8
0
100
AcDbLine
 62
253
  6
CONTINUOUS
 10
3.0959955457
 20
-21.3359869487
 11
7.5666456542
 21
-21.3359869487
  0
LINE
  5
245
100
AcDbEntity
  8
0
100
AcDbLine
 62
7
  6
CONTINUOUS
 10
11.1674550649
 20
-21.0226497308
 11
11.1412731322
 21
-21.0226497308
  0
LINE
  5
246
100
AcDbEntity
  8
0
100
AcDbLine
 62
7
  6
CONTINUOUS
 10
-11.1674550649
 20
-21.0226497308
 11
-11.1412731322
 21
-21.0226497308
  0
LINE
  5
247
100
AcDbEntity
  8
DRAFT
100
AcDbLine
 62
7
  6
CONTINUOUS
 10
7.5666456542
 20
-20.9959955457
 11
7.2040044543
 21
-20.9959955457
  0
LINE
  5
248
100
AcDbEntity
  8
DRAFT
100
AcDbLine
 62
7
  6
CONTINUOUS
 10
-7.2040044543
 20
-20.9959955457
 11
-7.5666456542
 21
-20.9959955457
  0
LINE
  5
249
100
AcDbEntity
  8
0
100
AcDbLine
 62
7
  6
CONTINUOUS
 10
-8.9498936624
 20
-20.9
 11
-8.25
 21
-20.9
  0
LINE
  5
24A
100
AcDbEntity
  8
DRAFT
100
AcDbLine
 62
7
  6
CONTINUOUS
 10
-8.25
 20
-20.9
 11
-7.3
 21
-20.9
  0
LINE
  5
24B
100
AcDbEntity
  8
DRAFT
100
AcDbLine
 62
7
  6
CONTINUOUS
 10
7.3
 20
-20.9
 11
8.25
 21
-20.9
  0
LINE
  5
24C
100
AcDbEntity
  8
0
100
AcDbLine
 62
7
  6
CONTINUOUS
 10
8.25
 20
-20.9
 11
8.9498936624
 21
-20.9
  0
LINE
  5
24D
100
AcDbEntity
  8
0
100
AcDbLine
 62
7
  6
CONTINUOUS
 10
-3.0959955457
 20
-20.8
 11
3.0959955457
 21
-20.8
  0
LINE
  5
24E
100
AcDbEntity
  8
DRAFT
100
AcDbLine
 62
7
  6
CONTINUOUS
 10
-8.9132380261
 20
-20.7899436635
 11
-7.3183264224
 21
-20.7899436635
  0
LINE
  5
24F
100
AcDbEntity
  8
DRAFT
100
AcDbLine
 62
7
  6
CONTINUOUS
 10
7.3183264224
 20
-20.7899436635
 11
8.9132380261
 21
-20.7899436635
  0
LINE
  5
250
100
AcDbEntity
  8
DRAFT
100
AcDbLine
 62
7
  6
CONTINUOUS
 10
6.5959955457
 20
-20.1143219681
 11
-6.5959955457
 21
-20.1143219681
  0
LINE
  5
251
100
AcDbEntity
  8
RACCORDO
100
AcDbLine
 62
7
  6
CONTINUOUS
 10
-4.2026066368
 20
-20.0322894108
 11
4.2026066368
 21
-20.0322894108
  0
LINE
  5
252
100
AcDbEntity
  8
DRAFT
100
AcDbLine
 62
7
  6
CONTINUOUS
 10
-6.4816735776
 20
-20.0
 11
-4.5322894108
 21
-20.0
  0
LINE
  5
253
100
AcDbEntity
  8
DRAFT
100
AcDbLine
 62
7
  6
CONTINUOUS
 10
4.5322894108
 20
-20.0
 11
6.4816735776
 21
-20.0
  0
LINE
  5
254
100
AcDbEntity
  8
0
100
AcDbLine
 62
253
  6
CONTINUOUS
 10
-1.1999974616
 20
-24.0
 11
-1.2087243294
 21
-23.9941821702
  0
LINE
  5
255
100
AcDbEntity
  8
0
100
AcDbLine
 62
7
  6
CONTINUOUS
 10
-3.5
 20
-22.3941821702
 11
-3.5590867224
 21
-22.3547915774
  0
LINE
  5
256
100
AcDbEntity
  8
0
100
AcDbLine
 62
253
  6
CONTINUOUS
 10
-1.0
 20
-23.8000067692
 11
-1.0087268678
 21
-23.7941889394
  0
LINE
  5
257
100
AcDbEntity
  8
0
100
AcDbLine
 62
7
  6
CONTINUOUS
 10
-3.0
 20
-22.3941821702
 11
-3.0873194485
 21
-22.3359700255
  0
LINE
  5
258
100
AcDbEntity
  8
0
100
AcDbLine
 62
7
  6
CONTINUOUS
 10
-7.2558178298
 20
-22.3941821702
 11
-8.25
 21
-21.4
  0
LINE
  5
259
100
AcDbEntity
  8
DRAFT
100
AcDbLine
 62
7
  6
CONTINUOUS
 10
-7.2040044543
 20
-20.9959955457
 11
-7.3
 21
-20.9
  0
LINE
  5
25A
100
AcDbEntity
  8
0
100
AcDbLine
 62
7
  6
CONTINUOUS
 10
-9.65
 20
-20.1990396502
 11
-8.9498936624
 21
-20.9
  0
LINE
  5
25B
100
AcDbEntity
  8
0
100
AcDbLine
 62
7
  6
CONTINUOUS
 10
-9.6133443637
 20
-20.0889833137
 11
-8.9132380261
 21
-20.7899436635
  0
LINE
  5
25C
100
AcDbEntity
  8
DRAFT
100
AcDbLine
 62
7
  6
CONTINUOUS
 10
-7.75
 20
19.0
 11
-7.7979977728
 21
18.9520022272
  0
LINE
  5
25D
100
AcDbEntity
  8
DRAFT
100
AcDbLine
 62
7
  6
CONTINUOUS
 10
-8.7781811688
 20
17.2218188312
 11
-8.7867049498
 21
17.2132950502
  0
LINE
  5
25E
100
AcDbEntity
  8
0
100
AcDbLine
 62
7
  6
CONTINUOUS
 10
-1.0087268678
 20
22.3947639644
 11
-1.0
 21
22.4
  0
LINE
  5
25F
100
AcDbEntity
  8
RACCORDO
100
AcDbLine
 62
253
  6
CONTINUOUS
 10
9.6133443637
 20
-19.7897929133
 11
7.3183264224
 21
-19.7897929133
  0
LINE
  5
260
100
AcDbEntity
  8
RACCORDO
100
AcDbLine
 62
253
  6
CONTINUOUS
 10
6.4816735776
 20
-19.7897929133
 11
4.5322894108
 21
-19.7897929133
  0
LINE
  5
261
100
AcDbEntity
  8
RACCORDO
100
AcDbLine
 62
253
  6
CONTINUOUS
 10
-4.5322894108
 20
-19.7897929133
 11
-6.4816735776
 21
-19.7897929133
  0
LINE
  5
262
100
AcDbEntity
  8
RACCORDO
100
AcDbLine
 62
253
  6
CONTINUOUS
 10
-7.3183264224
 20
-19.7897929133
 11
-9.6133443637
 21
-19.7897929133
  0
LINE
  5
263
100
AcDbEntity
  8
RACCORDO
100
AcDbLine
 62
253
  6
CONTINUOUS
 10
9.6100360562
 20
-19.5900670064
 11
7.3199804501
 21
-19.5900670064
  0
LINE
  5
264
100
AcDbEntity
  8
RACCORDO
100
AcDbLine
 62
253
  6
CONTINUOUS
 10
6.4800195499
 20
-19.5900670064
 11
4.5339434386
 21
-19.5900670064
  0
LINE
  5
265
100
AcDbEntity
  8
RACCORDO
100
AcDbLine
 62
253
  6
CONTINUOUS
 10
-4.5339434386
 20
-19.5900670064
 11
-6.4800195499
 21
-19.5900670064
  0
LINE
  5
266
100
AcDbEntity
  8
RACCORDO
100
AcDbLine
 62
253
  6
CONTINUOUS
 10
-7.3199804501
 20
-19.5900670064
 11
-9.6100360562
 21
-19.5900670064
  0
LINE
  5
267
100
AcDbEntity
  8
DRAFT
100
AcDbLine
 62
7
  6
CONTINUOUS
 10
-9.5553984776
 20
-19.4260209733
 11
-7.3472971589
 21
-19.4260209733
  0
LINE
  5
268
100
AcDbEntity
  8
DRAFT
100
AcDbLine
 62
7
  6
CONTINUOUS
 10
-6.4527028411
 20
-19.4260209733
 11
-4.5612601473
 21
-19.4260209733
  0
LINE
  5
269
100
AcDbEntity
  8
DRAFT
100
AcDbLine
 62
7
  6
CONTINUOUS
 10
4.5612601473
 20
-19.4260209733
 11
6.4527028411
 21
-19.4260209733
  0
LINE
  5
26A
100
AcDbEntity
  8
DRAFT
100
AcDbLine
 62
7
  6
CONTINUOUS
 10
7.3472971589
 20
-19.4260209733
 11
9.5553984776
 21
-19.4260209733
  0
LINE
  5
26B
100
AcDbEntity
  8
0
100
AcDbLine
 62
7
  6
CONTINUOUS
 10
-1.0
 20
-22.4
 11
-1.0087268678
 21
-22.3947639644
  0
LINE
  5
26C
100
AcDbEntity
  8
0
100
AcDbLine
 62
7
  6
CONTINUOUS
 10
-3.0
 20
21.7
 11
-3.0762444645
 21
21.6237555355
  0
LINE
  5
26D
100
AcDbEntity
  8
DRAFT
100
AcDbLine
 62
7
  6
CONTINUOUS
 10
-9.8414773842
 20
14.8085226158
 11
-9.55
 21
15.1
  0
LINE
  5
26E
100
AcDbEntity
  8
DRAFT
100
AcDbLine
 62
7
  6
CONTINUOUS
 10
-9.5872686779
 20
14.8085226158
 11
-9.5
 21
14.8957912937
  0
LINE
  5
26F
100
AcDbEntity
  8
DRAFT
100
AcDbLine
 62
7
  6
CONTINUOUS
 10
6.0
 20
-15.3839326584
 11
6.7019074668
 21
-15.2085226158
  0
LINE
  5
270
100
AcDbEntity
  8
RACCORDO
100
AcDbLine
 62
253
  6
CONTINUOUS
 10
4.5025952137
 20
-17.7956556053
 11
-4.5025952137
 21
-17.7956556053
  0
LINE
  5
271
100
AcDbEntity
  8
RACCORDO
100
AcDbLine
 62
7
  6
CONTINUOUS
 10
4.2043367793
 20
-17.2956746438
 11
-4.2043367793
 21
-17.2956746438
  0
LINE
  5
272
100
AcDbEntity
  8
RACCORDO
100
AcDbLine
 62
7
  6
CONTINUOUS
 10
4.2636178101
 20
-17.236393613
 11
-4.2636178101
 21
-17.236393613
  0
LINE
  5
273
100
AcDbEntity
  8
DRAFT
100
AcDbLine
 62
7
  6
CONTINUOUS
 10
-3.9700513793
 20
-16.8647171262
 11
3.9700513793
 21
-16.8647171262
  0
LINE
  5
274
100
AcDbEntity
  8
DRAFT
100
AcDbLine
 62
7
  6
CONTINUOUS
 10
-8.0300456216
 20
-16.8602367608
 11
-9.5498994568
 21
-16.8602367608
  0
LINE
  5
275
100
AcDbEntity
  8
DRAFT
100
AcDbLine
 62
7
  6
CONTINUOUS
 10
8.0344917046
 20
-16.6548771492
 11
9.5494593275
 21
-16.6548771492
  0
LINE
  5
276
100
AcDbEntity
  8
DRAFT
100
AcDbLine
 62
7
  6
CONTINUOUS
 10
-3.7693983204
 20
-16.6228362517
 11
3.7693983204
 21
-16.6228362517
  0
LINE
  5
277
100
AcDbEntity
  8
DRAFT
100
AcDbLine
 62
7
  6
CONTINUOUS
 10
-9.4820686967
 20
-16.6183558863
 11
-8.2306986805
 21
-16.6183558863
  0
LINE
  5
278
100
AcDbEntity
  8
DRAFT
100
AcDbLine
 62
7
  6
CONTINUOUS
 10
9.482508826
 20
-16.4129962748
 11
8.2351447635
 21
-16.4129962748
  0
LINE
  5
279
100
AcDbEntity
  8
DRAFT
100
AcDbLine
 62
7
  6
CONTINUOUS
 10
-9.5121049871
 20
-16.4
 11
-9.5
 21
-16.4
  0
LINE
  5
27A
100
AcDbEntity
  8
DRAFT
100
AcDbLine
 62
7
  6
CONTINUOUS
 10
9.5121049871
 20
-16.2
 11
9.5
 21
-16.2
  0
LINE
  5
27B
100
AcDbEntity
  8
DRAFT
100
AcDbLine
 62
7
  6
CONTINUOUS
 10
-8.1206301735
 20
-15.9144125373
 11
-8.0504477322
 21
-15.9178860437
  0
LINE
  5
27C
100
AcDbEntity
  8
DRAFT
100
AcDbLine
 62
7
  6
CONTINUOUS
 10
-6.0
 20
-15.3839326584
 11
-6.7019074668
 21
-15.2085226158
  0
LINE
  5
27D
100
AcDbEntity
  8
0
100
AcDbLine
 62
7
  6
CONTINUOUS
 10
-3.0
 20
-21.7
 11
-3.0762444645
 21
-21.6237555355
  0
LINE
  5
27E
100
AcDbEntity
  8
RACCORDO
100
AcDbLine
 62
7
  6
CONTINUOUS
 10
-4.5322894108
 20
-20.0
 11
-4.5025952137
 21
-20.0296941971
  0
LINE
  5
27F
100
AcDbEntity
  8
DRAFT
100
AcDbLine
 62
7
  6
CONTINUOUS
 10
-8.2306986805
 20
-16.6183558863
 11
-8.0300456216
 21
-16.8602367608
  0
LINE
  5
280
100
AcDbEntity
  8
DRAFT
100
AcDbLine
 62
7
  6
CONTINUOUS
 10
-10.9926595262
 20
10.3570955844
 11
-10.8085226158
 21
10.7253974543
  0
LINE
  5
281
100
AcDbEntity
  8
DRAFT
100
AcDbLine
 62
7
  6
CONTINUOUS
 10
-7.9542087063
 20
14.8957912937
 11
-7.7255647702
 21
15.1244352298
  0
LINE
  5
282
100
AcDbEntity
  8
DRAFT
100
AcDbLine
 62
7
  6
CONTINUOUS
 10
-7.6932753594
 20
13.7322894108
 11
-7.7255647702
 21
13.7
  0
LINE
  5
283
100
AcDbEntity
  8
RACCORDO
100
AcDbLine
 62
7
  6
CONTINUOUS
 10
-8.75
 20
12.0
 11
-8.8608443418
 21
11.8891556582
  0
LINE
  5
284
100
AcDbEntity
  8
DRAFT
100
AcDbLine
 62
7
  6
CONTINUOUS
 10
8.2547430141
 20
-15.507774954
 11
8.4118365096
 21
-15.5
  0
LINE
  5
285
100
AcDbEntity
  8
DRAFT
100
AcDbLine
 62
7
  6
CONTINUOUS
 10
-3.7452569859
 20
-15.507774954
 11
-3.5881634904
 21
-15.5
  0
LINE
  5
286
100
AcDbEntity
  8
DRAFT
100
AcDbLine
 62
7
  6
CONTINUOUS
 10
-5.9821139563
 20
-15.9178860437
 11
-8.0504477322
 21
-15.9178860437
  0
LINE
  5
287
100
AcDbEntity
  8
DRAFT
100
AcDbLine
 62
7
  6
CONTINUOUS
 10
-8.1206301735
 20
-15.9144125373
 11
-5.9855874627
 21
-15.9144125373
  0
LINE
  5
288
100
AcDbEntity
  8
RACCORDO
100
AcDbLine
 62
7
  6
CONTINUOUS
 10
9.15
 20
-15.507774954
 11
8.2547430141
 21
-15.507774954
  0
LINE
  5
289
100
AcDbEntity
  8
RACCORDO
100
AcDbLine
 62
7
  6
CONTINUOUS
 10
3.7452569859
 20
-15.507774954
 11
3.4
 21
-15.507774954
  0
LINE
  5
28A
100
AcDbEntity
  8
RACCORDO
100
AcDbLine
 62
7
  6
CONTINUOUS
 10
-3.4
 20
-15.507774954
 11
-3.7452569859
 21
-15.507774954
  0
LINE
  5
28B
100
AcDbEntity
  8
RACCORDO
100
AcDbLine
 62
7
  6
CONTINUOUS
 10
-8.2547430141
 20
-15.507774954
 11
-9.15
 21
-15.507774954
  0
LINE
  5
28C
100
AcDbEntity
  8
DRAFT
100
AcDbLine
 62
7
  6
CONTINUOUS
 10
-9.15
 20
-15.5026180603
 11
-9.5173415065
 21
-15.5026180603
  0
LINE
  5
28D
100
AcDbEntity
  8
DRAFT
100
AcDbLine
 62
7
  6
CONTINUOUS
 10
-11.1
 20
-15.5
 11
11.1
 21
-15.5
  0
LINE
  5
28E
100
AcDbEntity
  8
DRAFT
100
AcDbLine
 62
7
  6
CONTINUOUS
 10
-6.0
 20
-15.3839326584
 11
6.0
 21
-15.3839326584
  0
LINE
  5
28F
100
AcDbEntity
  8
DRAFT
100
AcDbLine
 62
7
  6
CONTINUOUS
 10
-10.8085226158
 20
-15.2085226158
 11
-6.7019074668
 21
-15.2085226158
  0
LINE
  5
290
100
AcDbEntity
  8
DRAFT
100
AcDbLine
 62
7
  6
CONTINUOUS
 10
6.7019074668
 20
-15.2085226158
 11
10.8085226158
 21
-15.2085226158
  0
LINE
  5
291
100
AcDbEntity
  8
DRAFT
100
AcDbLine
 62
7
  6
CONTINUOUS
 10
-8.2547430141
 20
-15.507774954
 11
-8.3589384154
 21
-15.5026180603
  0
LINE
  5
292
100
AcDbEntity
  8
DRAFT
100
AcDbLine
 62
7
  6
CONTINUOUS
 10
3.7452569859
 20
-15.507774954
 11
3.5881634904
 21
-15.5
  0
LINE
  5
293
100
AcDbEntity
  8
RACCORDO
100
AcDbLine
 62
253
  6
CONTINUOUS
 10
-4.563284597
 20
-17.5367039799
 11
-4.5043253562
 21
-17.5956632207
  0
LINE
  5
294
100
AcDbEntity
  8
DRAFT
100
AcDbLine
 62
7
  6
CONTINUOUS
 10
-5.9855874627
 20
-15.9144125373
 11
-5.9821139563
 21
-15.9178860437
  0
LINE
  5
295
100
AcDbEntity
  8
RACCORDO
100
AcDbLine
 62
253
  6
CONTINUOUS
 10
-4.2636178101
 20
-17.236393613
 11
-4.2043367793
 21
-17.2956746438
  0
LINE
  5
296
100
AcDbEntity
  8
0
100
AcDbLine
 62
7
  6
CONTINUOUS
 10
4.4063493531
 20
23.9563493531
 11
4.45
 21
24.0
  0
LINE
  5
297
100
AcDbEntity
  8
0
100
AcDbLine
 62
7
  6
CONTINUOUS
 10
4.45
 20
22.4
 11
4.406077753
 21
22.356077753
  0
LINE
  5
298
100
AcDbEntity
  8
0
100
AcDbLine
 62
253
  6
CONTINUOUS
 10
10.6500063461
 20
22.4
 11
10.6412794783
 21
22.3941821702
  0
LINE
  5
299
100
AcDbEntity
  8
RACCORDO
100
AcDbLine
 62
7
  6
CONTINUOUS
 10
-7.9472576745
 20
11.8891556582
 11
-7.7255647702
 21
12.0
  0
LINE
  5
29A
100
AcDbEntity
  8
DRAFT
100
AcDbLine
 62
7
  6
CONTINUOUS
 10
9.5
 20
-14.1914773842
 11
6.7019074668
 21
-14.1914773842
  0
LINE
  5
29B
100
AcDbEntity
  8
DRAFT
100
AcDbLine
 62
7
  6
CONTINUOUS
 10
-6.7019074668
 20
-14.1914773842
 11
-9.5
 21
-14.1914773842
  0
LINE
  5
29C
100
AcDbEntity
  8
DRAFT
100
AcDbLine
 62
7
  6
CONTINUOUS
 10
-6.0
 20
-14.0160673416
 11
6.0
 21
-14.0160673416
  0
LINE
  5
29D
100
AcDbEntity
  8
DRAFT
100
AcDbLine
 62
7
  6
CONTINUOUS
 10
-9.2216129175
 20
-13.9130903017
 11
-8.3198149423
 21
-13.9130903017
  0
LINE
  5
29E
100
AcDbEntity
  8
DRAFT
100
AcDbLine
 62
7
  6
CONTINUOUS
 10
8.3198149423
 20
-13.9130903017
 11
9.2216129175
 21
-13.9130903017
  0
LINE
  5
29F
100
AcDbEntity
  8
DRAFT
100
AcDbLine
 62
7
  6
CONTINUOUS
 10
-5.5
 20
-13.8755647702
 11
-8.2822894108
 21
-13.8755647702
  0
LINE
  5
2A0
100
AcDbEntity
  8
DRAFT
100
AcDbLine
 62
7
  6
CONTINUOUS
 10
-5.4825462644
 20
-13.8502568536
 11
8.2569814942
 21
-13.8502568536
  0
LINE
  5
2A1
100
AcDbEntity
  8
RACCORDO
100
AcDbLine
 62
7
  6
CONTINUOUS
 10
3.1
 20
-13.8204464962
 11
-3.1
 21
-13.8204464962
  0
LINE
  5
2A2
100
AcDbEntity
  8
DRAFT
100
AcDbLine
 62
7
  6
CONTINUOUS
 10
-5.4921462821
 20
-13.7
 11
8.2569814942
 21
-13.7
  0
LINE
  5
2A3
100
AcDbEntity
  8
0
100
AcDbLine
 62
253
  6
CONTINUOUS
 10
10.6412794783
 20
-22.3941821702
 11
10.6500063461
 21
-22.4
  0
LINE
  5
2A4
100
AcDbEntity
  8
0
100
AcDbLine
 62
7
  6
CONTINUOUS
 10
4.45
 20
-24.0
 11
4.4063493531
 21
-23.9563493531
  0
LINE
  5
2A5
100
AcDbEntity
  8
DRAFT
100
AcDbLine
 62
7
  6
CONTINUOUS
 10
-8.7781811688
 20
-10.3218188312
 11
-8.7867049498
 21
-10.3132950502
  0
LINE
  5
2A6
100
AcDbEntity
  8
0
100
AcDbLine
 62
7
  6
CONTINUOUS
 10
4.45
 20
-22.4
 11
4.406077753
 21
-22.356077753
  0
LINE
  5
2A7
100
AcDbEntity
  8
DRAFT
100
AcDbLine
 62
7
  6
CONTINUOUS
 10
-9.8414773842
 20
-7.9085226158
 11
-9.55
 21
-8.2
  0
LINE
  5
2A8
100
AcDbEntity
  8
DRAFT
100
AcDbLine
 62
7
  6
CONTINUOUS
 10
-9.5
 20
-16.4
 11
-9.4820686967
 21
-16.6183558863
  0
LINE
  5
2A9
100
AcDbEntity
  8
0
100
AcDbLine
 62
7
  6
CONTINUOUS
 10
-11.1674550649
 20
-21.0226497308
 11
-11.15
 21
-21.6
  0
LINE
  5
2AA
100
AcDbEntity
  8
0
100
AcDbLine
 62
7
  6
CONTINUOUS
 10
-11.15
 20
21.6
 11
-11.1412731322
 21
21.0226497308
  0
LINE
  5
2AB
100
AcDbEntity
  8
0
100
AcDbLine
 62
7
  6
CONTINUOUS
 10
-11.1674550649
 20
21.0226497308
 11
-11.1674550649
 21
-21.0226497308
  0
LINE
  5
2AC
100
AcDbEntity
  8
0
100
AcDbLine
 62
7
  6
CONTINUOUS
 10
-11.15
 20
21.900016923
 11
-11.15
 21
21.6
  0
LINE
  5
2AD
100
AcDbEntity
  8
0
100
AcDbLine
 62
7
  6
CONTINUOUS
 10
-11.15
 20
-21.900016923
 11
-11.15
 21
-21.6
  0
LINE
  5
2AE
100
AcDbEntity
  8
0
100
AcDbLine
 62
7
  6
CONTINUOUS
 10
-11.1412731322
 20
21.8941990932
 11
-11.1412731322
 21
21.0226497308
  0
LINE
  5
2AF
100
AcDbEntity
  8
0
100
AcDbLine
 62
7
  6
CONTINUOUS
 10
-11.1412731322
 20
-21.0226497308
 11
-11.1412731322
 21
-21.8941990932
  0
LINE
  5
2B0
100
AcDbEntity
  8
DRAFT
100
AcDbLine
 62
7
  6
CONTINUOUS
 10
-11.1
 20
-15.5
 11
-11.1
 21
19.0
  0
LINE
  5
2B1
100
AcDbEntity
  8
DRAFT
100
AcDbLine
 62
7
  6
CONTINUOUS
 10
-11.0712013363
 20
-3.2
 11
-11.0712013363
 21
4.2
  0
LINE
  5
2B2
100
AcDbEntity
  8
DRAFT
100
AcDbLine
 62
7
  6
CONTINUOUS
 10
-10.9926595262
 20
6.2
 11
-10.9926595262
 21
10.3570955844
  0
LINE
  5
2B3
100
AcDbEntity
  8
DRAFT
100
AcDbLine
 62
7
  6
CONTINUOUS
 10
-10.8085226158
 20
-15.2085226158
 11
-10.8085226158
 21
-3.7253974543
  0
LINE
  5
2B4
100
AcDbEntity
  8
DRAFT
100
AcDbLine
 62
7
  6
CONTINUOUS
 10
-10.8085226158
 20
10.7253974543
 11
-10.8085226158
 21
18.7085226158
  0
LINE
  5
2B5
100
AcDbEntity
  8
0
100
AcDbLine
 62
7
  6
CONTINUOUS
 10
-11.1412731322
 20
-21.0226497308
 11
-11.15
 21
-21.6
  0
LINE
  5
2B6
100
AcDbEntity
  8
0
100
AcDbLine
 62
7
  6
CONTINUOUS
 10
-11.15
 20
21.6
 11
-11.1674550649
 21
21.0226497308
  0
LINE
  5
2B7
100
AcDbEntity
  8
DRAFT
100
AcDbLine
 62
7
  6
CONTINUOUS
 10
-11.0712013363
 20
4.2
 11
-10.9926595262
 21
6.2
  0
LINE
  5
2B8
100
AcDbEntity
  8
0
100
AcDbLine
 62
7
  6
CONTINUOUS
 10
7.1905416262
 20
22.3359700255
 11
7.2558178298
 21
22.3941821702
  0
LINE
  5
2B9
100
AcDbEntity
  8
0
100
AcDbLine
 62
253
  6
CONTINUOUS
 10
11.15
 20
21.900016923
 11
11.1412731322
 21
21.8941990932
  0
LINE
  5
2BA
100
AcDbEntity
  8
DRAFT
100
AcDbLine
 62
7
  6
CONTINUOUS
 10
-6.0
 20
-14.0160673416
 11
-6.7019074668
 21
-14.1914773842
  0
LINE
  5
2BB
100
AcDbEntity
  8
DRAFT
100
AcDbLine
 62
7
  6
CONTINUOUS
 10
8.2569814942
 20
-11.4825462644
 11
-5.4746920834
 21
-11.4825462644
  0
LINE
  5
2BC
100
AcDbEntity
  8
DRAFT
100
AcDbLine
 62
7
  6
CONTINUOUS
 10
8.2569814942
 20
-10.9930185058
 11
-5.4746920834
 21
-10.9930185058
  0
LINE
  5
2BD
100
AcDbEntity
  8
DRAFT
100
AcDbLine
 62
7
  6
CONTINUOUS
 10
8.2822894108
 20
-10.9677105892
 11
-5.5
 21
-10.9677105892
  0
LINE
  5
2BE
100
AcDbEntity
  8
DRAFT
100
AcDbLine
 62
7
  6
CONTINUOUS
 10
-9.8414773842
 20
-10.815912614
 11
-9.5
 21
-10.815912614
  0
LINE
  5
2BF
100
AcDbEntity
  8
DRAFT
100
AcDbLine
 62
7
  6
CONTINUOUS
 10
9.5
 20
-10.815912614
 11
9.8414773842
 21
-10.815912614
  0
LINE
  5
2C0
100
AcDbEntity
  8
DRAFT
100
AcDbLine
 62
7
  6
CONTINUOUS
 10
6.0
 20
-14.0160673416
 11
6.7019074668
 21
-14.1914773842
  0
LINE
  5
2C1
100
AcDbEntity
  8
0
100
AcDbLine
 62
253
  6
CONTINUOUS
 10
11.1412731322
 20
-21.8941990932
 11
11.15
 21
-21.900016923
  0
LINE
  5
2C2
100
AcDbEntity
  8
0
100
AcDbLine
 62
7
  6
CONTINUOUS
 10
7.1905416262
 20
-22.3359700255
 11
7.2558178298
 21
-22.3941821702
  0
LINE
  5
2C3
100
AcDbEntity
  8
DRAFT
100
AcDbLine
 62
7
  6
CONTINUOUS
 10
-9.5872686779
 20
-7.9085226158
 11
-9.5
 21
-7.9957912937
  0
LINE
  5
2C4
100
AcDbEntity
  8
DRAFT
100
AcDbLine
 62
7
  6
CONTINUOUS
 10
-8.5109333469
 20
-7.9957912937
 11
-8.2822894108
 21
-8.2244352298
  0
LINE
  5
2C5
100
AcDbEntity
  8
DRAFT
100
AcDbLine
 62
7
  6
CONTINUOUS
 10
-5.5
 20
-10.9677105892
 11
-5.4746920834
 21
-10.9930185058
  0
LINE
  5
2C6
100
AcDbEntity
  8
0
100
AcDbLine
 62
7
  6
CONTINUOUS
 10
-8.1
 20
-7.5
 11
-7.5
 21
-8.5
  0
LINE
  5
2C7
100
AcDbEntity
  8
DRAFT
100
AcDbLine
 62
7
  6
CONTINUOUS
 10
-11.0712013363
 20
-3.2
 11
-10.8085226158
 21
-3.7253974543
  0
LINE
  5
2C8
100
AcDbEntity
  8
RACCORDO
100
AcDbLine
 62
7
  6
CONTINUOUS
 10
-8.1417809859
 20
-15.5
 11
-8.1206301735
 21
-15.9144125373
  0
LINE
  5
2C9
100
AcDbEntity
  8
DRAFT
100
AcDbLine
 62
7
  6
CONTINUOUS
 10
-9.55
 20
4.2
 11
-9.6285418101
 21
6.2
  0
LINE
  5
2CA
100
AcDbEntity
  8
0
100
AcDbLine
 62
253
  6
CONTINUOUS
 10
-10.145628166
 20
-23.8443375673
 11
-10.15
 21
-23.4104851482
  0
LINE
  5
2CB
100
AcDbEntity
  8
0
100
AcDbLine
 62
253
  6
CONTINUOUS
 10
-9.8956323968
 20
-23.6278312164
 11
-9.9007229979
 21
-23.1226497308
  0
LINE
  5
2CC
100
AcDbEntity
  8
0
100
AcDbLine
 62
7
  6
CONTINUOUS
 10
-10.15
 20
23.8443375673
 11
-10.15
 21
23.4104851482
  0
LINE
  5
2CD
100
AcDbEntity
  8
RACCORDO
100
AcDbLine
 62
7
  6
CONTINUOUS
 10
-10.15
 20
-23.4104851482
 11
-10.15
 21
-22.6002134903
  0
LINE
  5
2CE
100
AcDbEntity
  8
0
100
AcDbLine
 62
7
  6
CONTINUOUS
 10
-10.15
 20
-23.4104851482
 11
-10.15
 21
-23.8443375673
  0
LINE
  5
2CF
100
AcDbEntity
  8
RACCORDO
100
AcDbLine
 62
7
  6
CONTINUOUS
 10
-10.15
 20
22.6002134903
 11
-10.15
 21
23.4104851482
  0
LINE
  5
2D0
100
AcDbEntity
  8
0
100
AcDbLine
 62
7
  6
CONTINUOUS
 10
-10.145628166
 20
24.2456323968
 11
-10.145628166
 21
23.8443375673
  0
LINE
  5
2D1
100
AcDbEntity
  8
0
100
AcDbLine
 62
7
  6
CONTINUOUS
 10
-10.145628166
 20
-23.8443375673
 11
-10.145628166
 21
-24.2456323968
  0
LINE
  5
2D2
100
AcDbEntity
  8
DRAFT
100
AcDbLine
 62
7
  6
CONTINUOUS
 10
-10.0
 20
2.5
 11
-10.0
 21
0.5
  0
LINE
  5
2D3
100
AcDbEntity
  8
DRAFT
100
AcDbLine
 62
7
  6
CONTINUOUS
 10
-10.0
 20
-0.5
 11
-10.0
 21
-2.5
  0
LINE
  5
2D4
100
AcDbEntity
  8
0
100
AcDbLine
 62
253
  6
CONTINUOUS
 10
-9.8956323968
 20
-23.6278312164
 11
-9.8956323968
 21
-24.495628166
  0
LINE
  5
2D5
100
AcDbEntity
  8
0
100
AcDbLine
 62
253
  6
CONTINUOUS
 10
-9.8956323968
 20
23.6278312164
 11
-9.8956323968
 21
24.495628166
  0
LINE
  5
2D6
100
AcDbEntity
  8
DRAFT
100
AcDbLine
 62
7
  6
CONTINUOUS
 10
-9.8414773842
 20
-10.815912614
 11
-9.8414773842
 21
-7.9085226158
  0
LINE
  5
2D7
100
AcDbEntity
  8
DRAFT
100
AcDbLine
 62
7
  6
CONTINUOUS
 10
-9.8414773842
 20
14.8085226158
 11
-9.8414773842
 21
17.6914773842
  0
LINE
  5
2D8
100
AcDbEntity
  8
DRAFT
100
AcDbLine
 62
7
  6
CONTINUOUS
 10
-9.7730841559
 20
-2.2730841559
 11
-9.7730841559
 21
2.2730841559
  0
LINE
  5
2D9
100
AcDbEntity
  8
DRAFT
100
AcDbLine
 62
7
  6
CONTINUOUS
 10
-9.65
 20
20.1990396502
 11
-9.65
 21
19.0
  0
LINE
  5
2DA
100
AcDbEntity
  8
DRAFT
100
AcDbLine
 62
7
  6
CONTINUOUS
 10
-9.65
 20
-15.5
 11
-9.65
 21
-20.1990396502
  0
LINE
  5
2DB
100
AcDbEntity
  8
DRAFT
100
AcDbLine
 62
7
  6
CONTINUOUS
 10
-9.6285418101
 20
6.2
 11
-9.6285418101
 21
10.3570955844
  0
LINE
  5
2DC
100
AcDbEntity
  8
RACCORDO
100
AcDbLine
 62
7
  6
CONTINUOUS
 10
-9.6133443637
 20
-20.0889833137
 11
-9.6133443637
 21
-19.7897929133
  0
LINE
  5
2DD
100
AcDbEntity
  8
DRAFT
100
AcDbLine
 62
7
  6
CONTINUOUS
 10
-9.5872686779
 20
14.8085226158
 11
-9.5872686779
 21
10.7253974543
  0
LINE
  5
2DE
100
AcDbEntity
  8
DRAFT
100
AcDbLine
 62
7
  6
CONTINUOUS
 10
-9.5872686779
 20
-3.7253974543
 11
-9.5872686779
 21
-7.9085226158
  0
LINE
  5
2DF
100
AcDbEntity
  8
DRAFT
100
AcDbLine
 62
7
  6
CONTINUOUS
 10
-9.55
 20
10.2
 11
-9.55
 21
4.2
  0
LINE
  5
2E0
100
AcDbEntity
  8
DRAFT
100
AcDbLine
 62
7
  6
CONTINUOUS
 10
-9.55
 20
-8.2
 11
-9.55
 21
-10.5244352298
  0
LINE
  5
2E1
100
AcDbEntity
  8
DRAFT
100
AcDbLine
 62
7
  6
CONTINUOUS
 10
-9.55
 20
15.1
 11
-9.55
 21
17.4
  0
LINE
  5
2E2
100
AcDbEntity
  8
SMUSSO
100
AcDbLine
 62
7
  6
CONTINUOUS
 10
-9.5121049871
 20
-8.2094701455
 11
-9.5121049871
 21
-8.4782370632
  0
LINE
  5
2E3
100
AcDbEntity
  8
SMUSSO
100
AcDbLine
 62
7
  6
CONTINUOUS
 10
-9.5121049871
 20
-10.3217629368
 11
-9.5121049871
 21
-10.5149650843
  0
LINE
  5
2E4
100
AcDbEntity
  8
DRAFT
100
AcDbLine
 62
7
  6
CONTINUOUS
 10
-9.5121049871
 20
-15.5
 11
-9.5121049871
 21
-16.4
  0
LINE
  5
2E5
100
AcDbEntity
  8
RACCORDO
100
AcDbLine
 62
7
  6
CONTINUOUS
 10
-9.5
 20
14.8957912937
 11
-9.5
 21
10.5508468051
  0
LINE
  5
2E6
100
AcDbEntity
  8
DRAFT
100
AcDbLine
 62
7
  6
CONTINUOUS
 10
-9.5
 20
-10.815912614
 11
-9.5
 21
-14.1914773842
  0
LINE
  5
2E7
100
AcDbEntity
  8
RACCORDO
100
AcDbLine
 62
7
  6
CONTINUOUS
 10
-9.5
 20
-16.4
 11
-9.5
 21
-15.9999428868
  0
LINE
  5
2E8
100
AcDbEntity
  8
RACCORDO
100
AcDbLine
 62
7
  6
CONTINUOUS
 10
-9.5
 20
-7.9957912937
 11
-9.5
 21
-3.5508468051
  0
LINE
  5
2E9
100
AcDbEntity
  8
DRAFT
100
AcDbLine
 62
7
  6
CONTINUOUS
 10
-9.4522218454
 20
-10.5
 11
-9.4522218454
 21
-10.3217674974
  0
LINE
  5
2EA
100
AcDbEntity
  8
DRAFT
100
AcDbLine
 62
7
  6
CONTINUOUS
 10
-9.4522218454
 20
-8.4782325026
 11
-9.4522218454
 21
-8.2244352298
  0
LINE
  5
2EB
100
AcDbEntity
  8
DRAFT
100
AcDbLine
 62
7
  6
CONTINUOUS
 10
-9.4522218454
 20
15.1244352298
 11
-9.4522218454
 21
15.3782325026
  0
LINE
  5
2EC
100
AcDbEntity
  8
DRAFT
100
AcDbLine
 62
7
  6
CONTINUOUS
 10
-9.4522218454
 20
17.2217674974
 11
-9.4522218454
 21
17.3755647702
  0
LINE
  5
2ED
100
AcDbEntity
  8
RACCORDO
100
AcDbLine
 62
7
  6
CONTINUOUS
 10
-9.45
 20
-15.8055387995
 11
-9.45
 21
-16.6183558863
  0
LINE
  5
2EE
100
AcDbEntity
  8
0
100
AcDbLine
 62
7
  6
CONTINUOUS
 10
-9.4
 20
-6.7340347844
 11
-9.4
 21
-4.8659652156
  0
LINE
  5
2EF
100
AcDbEntity
  8
ASSI
100
AcDbLine
 62
7
  6
CONTINUOUS
 10
-9.25
 20
-6.6
 11
-9.25
 21
-5.0
  0
LINE
  5
2F0
100
AcDbEntity
  8
DRAFT
100
AcDbLine
 62
7
  6
CONTINUOUS
 10
-9.2216129175
 20
-13.9130903017
 11
-9.2216129175
 21
-10.5375255315
  0
LINE
  5
2F1
100
AcDbEntity
  8
RACCORDO
100
AcDbLine
 62
253
  6
CONTINUOUS
 10
-9.05
 20
2.2730841559
 11
-9.05
 21
-2.2730841559
  0
LINE
  5
2F2
100
AcDbEntity
  8
DRAFT
100
AcDbLine
 62
7
  6
CONTINUOUS
 10
-9.5498994568
 20
-16.8602367608
 11
-9.5553984776
 21
-19.4260209733
  0
LINE
  5
2F3
100
AcDbEntity
  8
0
100
AcDbLine
 62
253
  6
CONTINUOUS
 10
-10.15
 20
23.4104851482
 11
-10.145628166
 21
23.8443375673
  0
LINE
  5
2F4
100
AcDbEntity
  8
0
100
AcDbLine
 62
253
  6
CONTINUOUS
 10
-9.9007229979
 20
23.1226497308
 11
-9.8956323968
 21
23.6278312164
  0
LINE
  5
2F5
100
AcDbEntity
  8
RACCORDO
100
AcDbLine
 62
7
  6
CONTINUOUS
 10
-7.3555468846
 20
20.5664222561
 11
-7.3
 21
20.9
  0
LINE
  5
2F6
100
AcDbEntity
  8
RACCORDO
100
AcDbLine
 62
7
  6
CONTINUOUS
 10
6.4440923953
 20
19.9624188177
 11
6.5959955457
 21
20.1143219681
  0
LINE
  5
2F7
100
AcDbEntity
  8
DRAFT
100
AcDbLine
 62
7
  6
CONTINUOUS
 10
9.4522218454
 20
-8.2244352298
 11
9.55
 21
-8.2
  0
LINE
  5
2F8
100
AcDbEntity
  8
DRAFT
100
AcDbLine
 62
7
  6
CONTINUOUS
 10
9.55
 20
-10.3015400355
 11
8.7867049498
 21
-10.3132950502
  0
LINE
  5
2F9
100
AcDbEntity
  8
DRAFT
100
AcDbLine
 62
7
  6
CONTINUOUS
 10
-9.2216129175
 20
-10.5375255315
 11
-8.3198149423
 21
-10.5375255315
  0
LINE
  5
2FA
100
AcDbEntity
  8
DRAFT
100
AcDbLine
 62
7
  6
CONTINUOUS
 10
9.2216129175
 20
-10.5375255315
 11
8.3198149423
 21
-10.5375255315
  0
LINE
  5
2FB
100
AcDbEntity
  8
DRAFT
100
AcDbLine
 62
7
  6
CONTINUOUS
 10
-9.4522218454
 20
-10.5
 11
-8.2822894108
 21
-10.5
  0
LINE
  5
2FC
100
AcDbEntity
  8
DRAFT
100
AcDbLine
 62
7
  6
CONTINUOUS
 10
8.2822894108
 20
-10.5
 11
9.4522218454
 21
-10.5
  0
LINE
  5
2FD
100
AcDbEntity
  8
DRAFT
100
AcDbLine
 62
7
  6
CONTINUOUS
 10
8.2822894108
 20
-10.0322894108
 11
-8.2822894108
 21
-10.0322894108
  0
LINE
  5
2FE
100
AcDbEntity
  8
DRAFT
100
AcDbLine
 62
7
  6
CONTINUOUS
 10
-8.25
 20
-10.0
 11
8.25
 21
-10.0
  0
LINE
  5
2FF
100
AcDbEntity
  8
DRAFT
100
AcDbLine
 62
7
  6
CONTINUOUS
 10
8.778184492
 20
-9.95
 11
8.2822894108
 21
-9.95
  0
LINE
  5
300
100
AcDbEntity
  8
DRAFT
100
AcDbLine
 62
7
  6
CONTINUOUS
 10
-8.2822894108
 20
-9.95
 11
-8.7781811688
 21
-9.95
  0
LINE
  5
301
100
AcDbEntity
  8
DRAFT
100
AcDbLine
 62
7
  6
CONTINUOUS
 10
-9.55
 20
-10.3217600508
 11
-8.7781811688
 21
-10.3218188312
  0
LINE
  5
302
100
AcDbEntity
  8
DRAFT
100
AcDbLine
 62
7
  6
CONTINUOUS
 10
8.778184492
 20
-10.321815508
 11
9.55
 21
-10.3218742881
  0
LINE
  5
303
100
AcDbEntity
  8
DRAFT
100
AcDbLine
 62
7
  6
CONTINUOUS
 10
-8.7867049498
 20
-10.3132950502
 11
-9.55
 21
-10.3015400355
  0
LINE
  5
304
100
AcDbEntity
  8
DRAFT
100
AcDbLine
 62
7
  6
CONTINUOUS
 10
-9.4522218454
 20
-8.2244352298
 11
-9.55
 21
-8.2
  0
LINE
  5
305
100
AcDbEntity
  8
DRAFT
100
AcDbLine
 62
7
  6
CONTINUOUS
 10
-8.2726898563
 20
-6.7
 11
-8.25
 21
-6.7226898563
  0
LINE
  5
306
100
AcDbEntity
  8
DRAFT
100
AcDbLine
 62
7
  6
CONTINUOUS
 10
6.4816735776
 20
-20.0
 11
6.5959955457
 21
-20.1143219681
  0
LINE
  5
307
100
AcDbEntity
  8
RACCORDO
100
AcDbLine
 62
7
  6
CONTINUOUS
 10
-8.504012777
 20
-4.6686770793
 11
-8.2726898563
 21
-4.9
  0
LINE
  5
308
100
AcDbEntity
  8
RACCORDO
100
AcDbLine
 62
7
  6
CONTINUOUS
 10
-9.4
 20
-4.8659652156
 11
-9.4966110309
 21
-4.6686770793
  0
LINE
  5
309
100
AcDbEntity
  8
DRAFT
100
AcDbLine
 62
7
  6
CONTINUOUS
 10
-7.3
 20
-20.9
 11
-7.3183264224
 21
-20.7899436635
  0
LINE
  5
30A
100
AcDbEntity
  8
RACCORDO
100
AcDbLine
 62
7
  6
CONTINUOUS
 10
-7.3472971589
 20
-19.4260209733
 11
-7.3199804501
 21
-19.5900670064
  0
LINE
  5
30B
100
AcDbEntity
  8
RACCORDO
100
AcDbLine
 62
253
  6
CONTINUOUS
 10
-7.2040044543
 20
-20.0049452141
 11
-7.3480695647
 21
-18.7051734659
  0
LINE
  5
30C
100
AcDbEntity
  8
DRAFT
100
AcDbLine
 62
7
  6
CONTINUOUS
 10
-8.2306986805
 20
-16.6183558863
 11
-8.2547430141
 21
-15.507774954
  0
LINE
  5
30D
100
AcDbEntity
  8
DRAFT
100
AcDbLine
 62
7
  6
CONTINUOUS
 10
-8.0504477322
 20
-15.9178860437
 11
-8.0300456216
 21
-16.8602367608
  0
LINE
  5
30E
100
AcDbEntity
  8
0
100
AcDbLine
 62
253
  6
CONTINUOUS
 10
-7.5043676032
 20
23.6278312164
 11
-7.4992770021
 21
23.1226497308
  0
LINE
  5
30F
100
AcDbEntity
  8
RACCORDO
100
AcDbLine
 62
7
  6
CONTINUOUS
 10
-7.3472971589
 20
-19.4260209733
 11
-7.3480695647
 21
-18.7051734659
  0
LINE
  5
310
100
AcDbEntity
  8
RACCORDO
100
AcDbLine
 62
7
  6
CONTINUOUS
 10
-8.860915679
 20
13.7110827761
 11
-8.860915679
 21
11.8889172239
  0
LINE
  5
311
100
AcDbEntity
  8
DRAFT
100
AcDbLine
 62
7
  6
CONTINUOUS
 10
-8.7867049498
 20
17.2132950502
 11
-8.7867049498
 21
15.3867049498
  0
LINE
  5
312
100
AcDbEntity
  8
DRAFT
100
AcDbLine
 62
7
  6
CONTINUOUS
 10
-8.7867049498
 20
-8.4867049498
 11
-8.7867049498
 21
-10.3132950502
  0
LINE
  5
313
100
AcDbEntity
  8
DRAFT
100
AcDbLine
 62
7
  6
CONTINUOUS
 10
-8.7781811688
 20
17.2218188312
 11
-8.7781811688
 21
15.3781811688
  0
LINE
  5
314
100
AcDbEntity
  8
DRAFT
100
AcDbLine
 62
7
  6
CONTINUOUS
 10
-8.7781811688
 20
-8.4781811688
 11
-8.7781811688
 21
-10.3218188312
  0
LINE
  5
315
100
AcDbEntity
  8
DRAFT
100
AcDbLine
 62
7
  6
CONTINUOUS
 10
-8.75
 20
13.6
 11
-8.75
 21
12.0
  0
LINE
  5
316
100
AcDbEntity
  8
DRAFT
100
AcDbLine
 62
7
  6
CONTINUOUS
 10
-8.75
 20
2.5
 11
-8.75
 21
8.0
  0
LINE
  5
317
100
AcDbEntity
  8
0
100
AcDbLine
 62
7
  6
CONTINUOUS
 10
-8.7
 20
-6.65
 11
-8.7
 21
-6.6
  0
LINE
  5
318
100
AcDbEntity
  8
RACCORDO
100
AcDbLine
 62
7
  6
CONTINUOUS
 10
-8.5109333469
 20
-7.9957912937
 11
-8.5109333469
 21
-7.7312924592
  0
LINE
  5
319
100
AcDbEntity
  8
RACCORDO
100
AcDbLine
 62
7
  6
CONTINUOUS
 10
-8.5109333469
 20
-3.8687075408
 11
-8.5109333469
 21
-3.5508468051
  0
LINE
  5
31A
100
AcDbEntity
  8
DRAFT
100
AcDbLine
 62
7
  6
CONTINUOUS
 10
-8.5
 20
7.4118365096
 11
-8.5
 21
5.8881634904
  0
LINE
  5
31B
100
AcDbEntity
  8
DRAFT
100
AcDbLine
 62
7
  6
CONTINUOUS
 10
-8.3355233043
 20
-3.2
 11
-8.3355233043
 21
-2.5
  0
LINE
  5
31C
100
AcDbEntity
  8
RACCORDO
100
AcDbLine
 62
7
  6
CONTINUOUS
 10
-8.3355233043
 20
8.0
 11
-8.3355233043
 21
9.9768345149
  0
LINE
  5
31D
100
AcDbEntity
  8
DRAFT
100
AcDbLine
 62
7
  6
CONTINUOUS
 10
-8.3198149423
 20
-13.9130903017
 11
-8.3198149423
 21
-10.5375255315
  0
LINE
  5
31E
100
AcDbEntity
  8
DRAFT
100
AcDbLine
 62
7
  6
CONTINUOUS
 10
-8.2822894108
 20
-13.8755647702
 11
-8.2822894108
 21
-10.5
  0
LINE
  5
31F
100
AcDbEntity
  8
DRAFT
100
AcDbLine
 62
7
  6
CONTINUOUS
 10
-8.2822894108
 20
-10.0322894108
 11
-8.2822894108
 21
-9.95
  0
LINE
  5
320
100
AcDbEntity
  8
DRAFT
100
AcDbLine
 62
7
  6
CONTINUOUS
 10
-8.2822894108
 20
-8.75
 11
-8.2822894108
 21
-8.2244352298
  0
LINE
  5
321
100
AcDbEntity
  8
DRAFT
100
AcDbLine
 62
7
  6
CONTINUOUS
 10
-8.2726898563
 20
-4.9
 11
-8.2726898563
 21
-5.0
  0
LINE
  5
322
100
AcDbEntity
  8
0
100
AcDbLine
 62
7
  6
CONTINUOUS
 10
-8.25
 20
-21.4
 11
-8.25
 21
-20.9
  0
LINE
  5
323
100
AcDbEntity
  8
DRAFT
100
AcDbLine
 62
7
  6
CONTINUOUS
 10
-8.25
 20
-10.0
 11
-8.25
 21
-6.7226898563
  0
LINE
  5
324
100
AcDbEntity
  8
ASSI
100
AcDbLine
 62
7
  6
CONTINUOUS
 10
-8.25
 20
-6.6
 11
-8.25
 21
-5.0
  0
LINE
  5
325
100
AcDbEntity
  8
DRAFT
100
AcDbLine
 62
7
  6
CONTINUOUS
 10
-8.25
 20
-5.0
 11
-8.25
 21
-2.6710596363
  0
LINE
  5
326
100
AcDbEntity
  8
RACCORDO
100
AcDbLine
 62
7
  6
CONTINUOUS
 10
-8.25
 20
-2.3047941508
 11
-8.25
 21
2.3047941508
  0
LINE
  5
327
100
AcDbEntity
  8
DRAFT
100
AcDbLine
 62
7
  6
CONTINUOUS
 10
-8.25
 20
8.0
 11
-8.25
 21
8.9
  0
LINE
  5
328
100
AcDbEntity
  8
0
100
AcDbLine
 62
7
  6
CONTINUOUS
 10
-8.25
 20
20.9
 11
-8.25
 21
21.4
  0
LINE
  5
329
100
AcDbEntity
  8
0
100
AcDbLine
 62
7
  6
CONTINUOUS
 10
-8.1
 20
-7.0
 11
-8.1
 21
-7.5
  0
LINE
  5
32A
100
AcDbEntity
  8
0
100
AcDbLine
 62
253
  6
CONTINUOUS
 10
-8.0665695018
 20
21.4537354271
 11
-8.0665695018
 21
20.9917082642
  0
LINE
  5
32B
100
AcDbEntity
  8
0
100
AcDbLine
 62
253
  6
CONTINUOUS
 10
-8.0665695018
 20
-20.9917082642
 11
-8.0665695018
 21
-21.4537354271
  0
LINE
  5
32C
100
AcDbEntity
  8
0
100
AcDbLine
 62
7
  6
CONTINUOUS
 10
-8.05
 20
-6.65
 11
-8.05
 21
-7.0
  0
LINE
  5
32D
100
AcDbEntity
  8
DRAFT
100
AcDbLine
 62
7
  6
CONTINUOUS
 10
-8.0008726868
 20
-10.0
 11
-8.0008726868
 21
-7.6652121887
  0
LINE
  5
32E
100
AcDbEntity
  8
DRAFT
100
AcDbLine
 62
7
  6
CONTINUOUS
 10
-8.0
 20
-5.0
 11
-8.0
 21
-2.4057426494
  0
LINE
  5
32F
100
AcDbEntity
  8
DRAFT
100
AcDbLine
 62
7
  6
CONTINUOUS
 10
-8.0
 20
2.3586139741
 11
-8.0
 21
5.8
  0
LINE
  5
330
100
AcDbEntity
  8
DRAFT
100
AcDbLine
 62
7
  6
CONTINUOUS
 10
-8.0
 20
7.5
 11
-8.0
 21
8.5
  0
LINE
  5
331
100
AcDbEntity
  8
RACCORDO
100
AcDbLine
 62
7
  6
CONTINUOUS
 10
-7.9542087063
 20
14.8957912937
 11
-7.9542087063
 21
14.5108367263
  0
LINE
  5
332
100
AcDbEntity
  8
RACCORDO
100
AcDbLine
 62
7
  6
CONTINUOUS
 10
-7.9542087063
 20
11.0891632737
 11
-7.9542087063
 21
10.5508468051
  0
LINE
  5
333
100
AcDbEntity
  8
RACCORDO
100
AcDbLine
 62
7
  6
CONTINUOUS
 10
-7.7787986637
 20
10.2
 11
-7.7787986637
 21
9.9768345149
  0
LINE
  5
334
100
AcDbEntity
  8
DRAFT
100
AcDbLine
 62
7
  6
CONTINUOUS
 10
-7.7255647702
 20
17.3755647702
 11
-7.7255647702
 21
16.85
  0
LINE
  5
335
100
AcDbEntity
  8
DRAFT
100
AcDbLine
 62
7
  6
CONTINUOUS
 10
-7.7255647702
 20
15.65
 11
-7.7255647702
 21
15.1244352298
  0
LINE
  5
336
100
AcDbEntity
  8
DRAFT
100
AcDbLine
 62
7
  6
CONTINUOUS
 10
-7.7255647702
 20
13.7
 11
-7.7255647702
 21
13.6
  0
LINE
  5
337
100
AcDbEntity
  8
DRAFT
100
AcDbLine
 62
7
  6
CONTINUOUS
 10
-7.7255647702
 20
12.2
 11
-7.7255647702
 21
12.0
  0
LINE
  5
338
100
AcDbEntity
  8
0
100
AcDbLine
 62
7
  6
CONTINUOUS
 10
-7.706365661
 20
12.1808008909
 11
-7.706365661
 21
8.9130903017
  0
LINE
  5
339
100
AcDbEntity
  8
DRAFT
100
AcDbLine
 62
7
  6
CONTINUOUS
 10
-7.6932753594
 20
17.4479977728
 11
-7.6932753594
 21
13.7322894108
  0
LINE
  5
33A
100
AcDbEntity
  8
0
100
AcDbLine
 62
253
  6
CONTINUOUS
 10
-7.5666456542
 20
21.3359869487
 11
-7.5666456542
 21
20.9959955457
  0
LINE
  5
33B
100
AcDbEntity
  8
0
100
AcDbLine
 62
253
  6
CONTINUOUS
 10
-7.5666456542
 20
-20.9959955457
 11
-7.5666456542
 21
-21.3359869487
  0
LINE
  5
33C
100
AcDbEntity
  8
0
100
AcDbLine
 62
253
  6
CONTINUOUS
 10
-7.5043676032
 20
-23.6278312164
 11
-7.5043676032
 21
-24.495628166
  0
LINE
  5
33D
100
AcDbEntity
  8
0
100
AcDbLine
 62
253
  6
CONTINUOUS
 10
-7.5043676032
 20
23.6278312164
 11
-7.5043676032
 21
24.495628166
  0
LINE
  5
33E
100
AcDbEntity
  8
0
100
AcDbLine
 62
7
  6
CONTINUOUS
 10
-7.5
 20
-5.0
 11
-7.5
 21
2.0
  0
LINE
  5
33F
100
AcDbEntity
  8
RACCORDO
100
AcDbLine
 62
7
  6
CONTINUOUS
 10
-7.3183264224
 20
-19.7897929133
 11
-7.3183264224
 21
-20.7899436635
  0
LINE
  5
340
100
AcDbEntity
  8
0
100
AcDbLine
 62
7
  6
CONTINUOUS
 10
-7.254371834
 20
-24.2456323968
 11
-7.254371834
 21
-23.8443375673
  0
LINE
  5
341
100
AcDbEntity
  8
0
100
AcDbLine
 62
7
  6
CONTINUOUS
 10
-7.254371834
 20
23.8443375673
 11
-7.254371834
 21
24.2456323968
  0
LINE
  5
342
100
AcDbEntity
  8
RACCORDO
100
AcDbLine
 62
7
  6
CONTINUOUS
 10
-7.25
 20
23.4104851482
 11
-7.25
 21
22.6002134903
  0
LINE
  5
343
100
AcDbEntity
  8
0
100
AcDbLine
 62
7
  6
CONTINUOUS
 10
-7.25
 20
-23.8443375673
 11
-7.25
 21
-23.4104851482
  0
LINE
  5
344
100
AcDbEntity
  8
RACCORDO
100
AcDbLine
 62
7
  6
CONTINUOUS
 10
-7.25
 20
-22.6002134903
 11
-7.25
 21
-23.4104851482
  0
LINE
  5
345
100
AcDbEntity
  8
0
100
AcDbLine
 62
7
  6
CONTINUOUS
 10
-7.25
 20
23.4104851482
 11
-7.25
 21
23.8443375673
  0
LINE
  5
346
100
AcDbEntity
  8
RACCORDO
100
AcDbLine
 62
7
  6
CONTINUOUS
 10
-7.2040044543
 20
20.9959955457
 11
-7.2040044543
 21
20.0049452141
  0
LINE
  5
347
100
AcDbEntity
  8
RACCORDO
100
AcDbLine
 62
7
  6
CONTINUOUS
 10
-7.2040044543
 20
-20.0049452141
 11
-7.2040044543
 21
-20.9959955457
  0
LINE
  5
348
100
AcDbEntity
  8
0
100
AcDbLine
 62
253
  6
CONTINUOUS
 10
-7.4992770021
 20
-23.1226497308
 11
-7.5043676032
 21
-23.6278312164
  0
LINE
  5
349
100
AcDbEntity
  8
DRAFT
100
AcDbLine
 62
7
  6
CONTINUOUS
 10
-9.5121049871
 20
-16.4
 11
-9.5498994568
 21
-16.8602367608
  0
LINE
  5
34A
100
AcDbEntity
  8
0
100
AcDbLine
 62
7
  6
CONTINUOUS
 10
-7.5
 20
2.0
 11
-6.1
 21
5.0
  0
LINE
  5
34B
100
AcDbEntity
  8
RACCORDO
100
AcDbLine
 62
7
  6
CONTINUOUS
 10
7.7162893387
 20
18.9662893387
 11
7.75
 21
19.0
  0
LINE
  5
34C
100
AcDbEntity
  8
RACCORDO
100
AcDbLine
 62
7
  6
CONTINUOUS
 10
7.9472576745
 20
13.7108443418
 11
7.7255647702
 21
13.6
  0
LINE
  5
34D
100
AcDbEntity
  8
DRAFT
100
AcDbLine
 62
7
  6
CONTINUOUS
 10
-9.55
 20
-10.5244352298
 11
-9.4522218454
 21
-10.5
  0
LINE
  5
34E
100
AcDbEntity
  8
DRAFT
100
AcDbLine
 62
7
  6
CONTINUOUS
 10
-8.7867049498
 20
-8.4867049498
 11
-9.55
 21
-8.4984599645
  0
LINE
  5
34F
100
AcDbEntity
  8
DRAFT
100
AcDbLine
 62
7
  6
CONTINUOUS
 10
8.778184492
 20
-8.75
 11
8.2822894108
 21
-8.75
  0
LINE
  5
350
100
AcDbEntity
  8
DRAFT
100
AcDbLine
 62
7
  6
CONTINUOUS
 10
-8.2822894108
 20
-8.75
 11
-8.7781811688
 21
-8.75
  0
LINE
  5
351
100
AcDbEntity
  8
0
100
AcDbLine
 62
7
  6
CONTINUOUS
 10
-6.2
 20
-8.5
 11
-5.5001461204
 21
-8.5
  0
LINE
  5
352
100
AcDbEntity
  8
0
100
AcDbLine
 62
7
  6
CONTINUOUS
 10
6.2
 20
-8.5
 11
5.5001461204
 21
-8.5
  0
LINE
  5
353
100
AcDbEntity
  8
0
100
AcDbLine
 62
7
  6
CONTINUOUS
 10
6.8
 20
-8.5
 11
7.4998538796
 21
-8.5
  0
LINE
  5
354
100
AcDbEntity
  8
0
100
AcDbLine
 62
7
  6
CONTINUOUS
 10
-6.8
 20
-8.5
 11
-7.4998538796
 21
-8.5
  0
LINE
  5
355
100
AcDbEntity
  8
DRAFT
100
AcDbLine
 62
7
  6
CONTINUOUS
 10
8.778184492
 20
-8.478184492
 11
9.55
 21
-8.4781257119
  0
LINE
  5
356
100
AcDbEntity
  8
DRAFT
100
AcDbLine
 62
7
  6
CONTINUOUS
 10
-9.55
 20
-8.4782399492
 11
-8.7781811688
 21
-8.4781811688
  0
LINE
  5
357
100
AcDbEntity
  8
DRAFT
100
AcDbLine
 62
7
  6
CONTINUOUS
 10
-9.4522218454
 20
-8.2244352298
 11
-8.2822894108
 21
-8.2244352298
  0
LINE
  5
358
100
AcDbEntity
  8
DRAFT
100
AcDbLine
 62
7
  6
CONTINUOUS
 10
9.4522218454
 20
-8.2244352298
 11
8.2822894108
 21
-8.2244352298
  0
LINE
  5
359
100
AcDbEntity
  8
ASSI
100
AcDbLine
 62
7
  6
CONTINUOUS
 10
-4.6498277733
 20
-8.2
 11
-3.6501722267
 21
-8.2
  0
LINE
  5
35A
100
AcDbEntity
  8
ASSI
100
AcDbLine
 62
7
  6
CONTINUOUS
 10
3.6501722267
 20
-8.2
 11
4.6498277733
 21
-8.2
  0
LINE
  5
35B
100
AcDbEntity
  8
DRAFT
100
AcDbLine
 62
7
  6
CONTINUOUS
 10
-9.5
 20
-7.9957912937
 11
-8.5109333469
 21
-7.9957912937
  0
LINE
  5
35C
100
AcDbEntity
  8
DRAFT
100
AcDbLine
 62
7
  6
CONTINUOUS
 10
9.5
 20
-7.9957912937
 11
8.5109333469
 21
-7.9957912937
  0
LINE
  5
35D
100
AcDbEntity
  8
DRAFT
100
AcDbLine
 62
7
  6
CONTINUOUS
 10
-9.8414773842
 20
-7.9085226158
 11
-9.5872686779
 21
-7.9085226158
  0
LINE
  5
35E
100
AcDbEntity
  8
DRAFT
100
AcDbLine
 62
7
  6
CONTINUOUS
 10
9.5872686779
 20
-7.9085226158
 11
9.8414773842
 21
-7.9085226158
  0
LINE
  5
35F
100
AcDbEntity
  8
RACCORDO
100
AcDbLine
 62
253
  6
CONTINUOUS
 10
-9.5
 20
-7.7312924592
 11
-8.5109333469
 21
-7.7312924592
  0
LINE
  5
360
100
AcDbEntity
  8
RACCORDO
100
AcDbLine
 62
253
  6
CONTINUOUS
 10
8.5109333469
 20
-7.7312924592
 11
9.5
 21
-7.7312924592
  0
LINE
  5
361
100
AcDbEntity
  8
ASSI
100
AcDbLine
 62
7
  6
CONTINUOUS
 10
3.2498277733
 20
-7.65
 11
2.2501722267
 21
-7.65
  0
LINE
  5
362
100
AcDbEntity
  8
ASSI
100
AcDbLine
 62
7
  6
CONTINUOUS
 10
1.7498277733
 20
-7.65
 11
0.7501722267
 21
-7.65
  0
LINE
  5
363
100
AcDbEntity
  8
ASSI
100
AcDbLine
 62
7
  6
CONTINUOUS
 10
0.2498277733
 20
-7.65
 11
-0.7498277733
 21
-7.65
  0
LINE
  5
364
100
AcDbEntity
  8
ASSI
100
AcDbLine
 62
7
  6
CONTINUOUS
 10
-1.2501722267
 20
-7.65
 11
-2.2498277733
 21
-7.65
  0
LINE
  5
365
100
AcDbEntity
  8
ASSI
100
AcDbLine
 62
7
  6
CONTINUOUS
 10
-2.7501722267
 20
-7.65
 11
-3.65
 21
-7.65
  0
LINE
  5
366
100
AcDbEntity
  8
ASSI
100
AcDbLine
 62
7
  6
CONTINUOUS
 10
-4.65
 20
-7.65
 11
-5.2498277733
 21
-7.65
  0
LINE
  5
367
100
AcDbEntity
  8
0
100
AcDbLine
 62
7
  6
CONTINUOUS
 10
-4.65
 20
-7.5211646096
 11
-3.65
 21
-7.5211646096
  0
LINE
  5
368
100
AcDbEntity
  8
0
100
AcDbLine
 62
7
  6
CONTINUOUS
 10
4.65
 20
-7.5211646096
 11
3.65
 21
-7.5211646096
  0
LINE
  5
369
100
AcDbEntity
  8
0
100
AcDbLine
 62
7
  6
CONTINUOUS
 10
-6.2
 20
-7.5
 11
-5.25
 21
-7.5
  0
LINE
  5
36A
100
AcDbEntity
  8
0
100
AcDbLine
 62
7
  6
CONTINUOUS
 10
6.2
 20
-7.5
 11
4.9
 21
-7.5
  0
LINE
  5
36B
100
AcDbEntity
  8
0
100
AcDbLine
 62
7
  6
CONTINUOUS
 10
6.8
 20
-7.5
 11
8.1
 21
-7.5
  0
LINE
  5
36C
100
AcDbEntity
  8
0
100
AcDbLine
 62
7
  6
CONTINUOUS
 10
-6.8
 20
-7.5
 11
-8.1
 21
-7.5
  0
LINE
  5
36D
100
AcDbEntity
  8
DRAFT
100
AcDbLine
 62
7
  6
CONTINUOUS
 10
9.55
 20
-8.4984599645
 11
8.7867049498
 21
-8.4867049498
  0
LINE
  5
36E
100
AcDbEntity
  8
DRAFT
100
AcDbLine
 62
7
  6
CONTINUOUS
 10
9.55
 20
-10.5244352298
 11
9.4522218454
 21
-10.5
  0
LINE
  5
36F
100
AcDbEntity
  8
DRAFT
100
AcDbLine
 62
7
  6
CONTINUOUS
 10
3.9700513793
 20
-16.8647171262
 11
3.7693983204
 21
-16.6228362517
  0
LINE
  5
370
100
AcDbEntity
  8
DRAFT
100
AcDbLine
 62
7
  6
CONTINUOUS
 10
-8.25
 20
-2.6710596363
 11
-8.3355233043
 21
-2.5
  0
LINE
  5
371
100
AcDbEntity
  8
RACCORDO
100
AcDbLine
 62
7
  6
CONTINUOUS
 10
-4.5612601473
 20
-19.4260209733
 11
-4.5339434386
 21
-19.5900670064
  0
LINE
  5
372
100
AcDbEntity
  8
0
100
AcDbLine
 62
253
  6
CONTINUOUS
 10
-7.254371834
 20
23.8443375673
 11
-7.25
 21
23.4104851482
  0
LINE
  5
373
100
AcDbEntity
  8
RACCORDO
100
AcDbLine
 62
7
  6
CONTINUOUS
 10
-5.9866342698
 20
-15.5
 11
-5.9855874627
 21
-15.9144125373
  0
LINE
  5
374
100
AcDbEntity
  8
RACCORDO
100
AcDbLine
 62
7
  6
CONTINUOUS
 10
-5.9825617315
 20
-15.5
 11
-5.9821139563
 21
-15.9178860437
  0
LINE
  5
375
100
AcDbEntity
  8
0
100
AcDbLine
 62
7
  6
CONTINUOUS
 10
-6.8
 20
-6.65
 11
-6.8
 21
-8.5
  0
LINE
  5
376
100
AcDbEntity
  8
0
100
AcDbLine
 62
7
  6
CONTINUOUS
 10
-6.8
 20
3.5
 11
-6.8
 21
5.2
  0
LINE
  5
377
100
AcDbEntity
  8
DRAFT
100
AcDbLine
 62
7
  6
CONTINUOUS
 10
-6.7019074668
 20
18.7085226158
 11
-6.7019074668
 21
17.6914773842
  0
LINE
  5
378
100
AcDbEntity
  8
DRAFT
100
AcDbLine
 62
7
  6
CONTINUOUS
 10
-6.7019074668
 20
-15.2085226158
 11
-6.7019074668
 21
-14.1914773842
  0
LINE
  5
379
100
AcDbEntity
  8
RACCORDO
100
AcDbLine
 62
7
  6
CONTINUOUS
 10
-6.5959955457
 20
-20.1143219681
 11
-6.5959955457
 21
-20.0049452141
  0
LINE
  5
37A
100
AcDbEntity
  8
RACCORDO
100
AcDbLine
 62
7
  6
CONTINUOUS
 10
-6.5959955457
 20
20.0049452141
 11
-6.5959955457
 21
20.1143219681
  0
LINE
  5
37B
100
AcDbEntity
  8
RACCORDO
100
AcDbLine
 62
7
  6
CONTINUOUS
 10
-6.4816735776
 20
-19.7897929133
 11
-6.4816735776
 21
-20.0
  0
LINE
  5
37C
100
AcDbEntity
  8
0
100
AcDbLine
 62
7
  6
CONTINUOUS
 10
-6.4
 20
5.2
 11
-6.4
 21
6.9
  0
LINE
  5
37D
100
AcDbEntity
  8
0
100
AcDbLine
 62
7
  6
CONTINUOUS
 10
-6.2
 20
-8.5
 11
-6.2
 21
-6.65
  0
LINE
  5
37E
100
AcDbEntity
  8
DRAFT
100
AcDbLine
 62
7
  6
CONTINUOUS
 10
-6.0
 20
-15.3839326584
 11
-6.0
 21
-14.0160673416
  0
LINE
  5
37F
100
AcDbEntity
  8
DRAFT
100
AcDbLine
 62
7
  6
CONTINUOUS
 10
-6.0
 20
17.5160673416
 11
-6.0
 21
18.8839326584
  0
LINE
  5
380
100
AcDbEntity
  8
DRAFT
100
AcDbLine
 62
7
  6
CONTINUOUS
 10
-5.5
 20
-13.8755647702
 11
-5.5
 21
-10.9677105892
  0
LINE
  5
381
100
AcDbEntity
  8
DRAFT
100
AcDbLine
 62
7
  6
CONTINUOUS
 10
-5.492145819
 20
-11.5
 11
-5.4921463174
 21
-13.8677107886
  0
LINE
  5
382
100
AcDbEntity
  8
DRAFT
100
AcDbLine
 62
7
  6
CONTINUOUS
 10
-5.4746920834
 20
-11.4825462644
 11
-5.4746920834
 21
-10.9930185058
  0
LINE
  5
383
100
AcDbEntity
  8
ASSI
100
AcDbLine
 62
7
  6
CONTINUOUS
 10
-5.25
 20
-7.1710256145
 11
-5.25
 21
-7.65
  0
LINE
  5
384
100
AcDbEntity
  8
RACCORDO
100
AcDbLine
 62
7
  6
CONTINUOUS
 10
-6.4527028411
 20
-19.4260209733
 11
-6.4519304353
 21
-18.7051734659
  0
LINE
  5
385
100
AcDbEntity
  8
0
100
AcDbLine
 62
253
  6
CONTINUOUS
 10
-7.25
 20
-23.4104851482
 11
-7.254371834
 21
-23.8443375673
  0
LINE
  5
386
100
AcDbEntity
  8
RACCORDO
100
AcDbLine
 62
7
  6
CONTINUOUS
 10
-9.4
 20
-6.7340347844
 11
-9.4966110309
 21
-6.9313229207
  0
LINE
  5
387
100
AcDbEntity
  8
DRAFT
100
AcDbLine
 62
7
  6
CONTINUOUS
 10
-9.5872686779
 20
-3.7253974543
 11
-9.5
 21
-3.5508468051
  0
LINE
  5
388
100
AcDbEntity
  8
DRAFT
100
AcDbLine
 62
7
  6
CONTINUOUS
 10
-8.1173516096
 20
-2.4057426494
 11
-8.25
 21
-2.6710596363
  0
LINE
  5
389
100
AcDbEntity
  8
DRAFT
100
AcDbLine
 62
7
  6
CONTINUOUS
 10
-8.5109333469
 20
-3.5508468051
 11
-8.3355233043
 21
-3.2
  0
LINE
  5
38A
100
AcDbEntity
  8
DRAFT
100
AcDbLine
 62
7
  6
CONTINUOUS
 10
7.7979977728
 20
17.4479977728
 11
7.7255647702
 21
17.3755647702
  0
LINE
  5
38B
100
AcDbEntity
  8
DRAFT
100
AcDbLine
 62
7
  6
CONTINUOUS
 10
-10.0
 20
-0.5
 11
-9.7730841559
 21
-0.2730841559
  0
LINE
  5
38C
100
AcDbEntity
  8
DRAFT
100
AcDbLine
 62
7
  6
CONTINUOUS
 10
10.8085226158
 20
18.7085226158
 11
11.1
 21
19.0
  0
LINE
  5
38D
100
AcDbEntity
  8
DRAFT
100
AcDbLine
 62
7
  6
CONTINUOUS
 10
9.8414773842
 20
17.6914773842
 11
9.55
 21
17.4
  0
LINE
  5
38E
100
AcDbEntity
  8
DRAFT
100
AcDbLine
 62
7
  6
CONTINUOUS
 10
-10.0
 20
-2.5
 11
-9.7730841559
 21
-2.2730841559
  0
LINE
  5
38F
100
AcDbEntity
  8
0
100
AcDbLine
 62
7
  6
CONTINUOUS
 10
-6.2
 20
-7.0
 11
-5.4109514899
 21
-7.0
  0
LINE
  5
390
100
AcDbEntity
  8
0
100
AcDbLine
 62
7
  6
CONTINUOUS
 10
6.2
 20
-7.0
 11
5.4109514899
 21
-7.0
  0
LINE
  5
391
100
AcDbEntity
  8
0
100
AcDbLine
 62
7
  6
CONTINUOUS
 10
6.8
 20
-7.0
 11
8.0998511084
 21
-7.0
  0
LINE
  5
392
100
AcDbEntity
  8
0
100
AcDbLine
 62
7
  6
CONTINUOUS
 10
-6.8
 20
-7.0
 11
-8.0998511084
 21
-7.0
  0
LINE
  5
393
100
AcDbEntity
  8
RACCORDO
100
AcDbLine
 62
253
  6
CONTINUOUS
 10
2.8481400842
 20
-6.9458040007
 11
2.25
 21
-6.9458040048
  0
LINE
  5
394
100
AcDbEntity
  8
RACCORDO
100
AcDbLine
 62
253
  6
CONTINUOUS
 10
1.75
 20
-6.9458040048
 11
0.75
 21
-6.9458040048
  0
LINE
  5
395
100
AcDbEntity
  8
RACCORDO
100
AcDbLine
 62
253
  6
CONTINUOUS
 10
0.25
 20
-6.9458040048
 11
-0.75
 21
-6.9458040048
  0
LINE
  5
396
100
AcDbEntity
  8
RACCORDO
100
AcDbLine
 62
253
  6
CONTINUOUS
 10
-1.25
 20
-6.9458040048
 11
-2.25
 21
-6.9458040048
  0
LINE
  5
397
100
AcDbEntity
  8
RACCORDO
100
AcDbLine
 62
253
  6
CONTINUOUS
 10
-2.75
 20
-6.9458040048
 11
-2.8481400873
 21
-6.9458040048
  0
LINE
  5
398
100
AcDbEntity
  8
RACCORDO
100
AcDbLine
 62
253
  6
CONTINUOUS
 10
-9.4966110309
 20
-6.9313229207
 11
-8.504012777
 21
-6.9313229207
  0
LINE
  5
399
100
AcDbEntity
  8
RACCORDO
100
AcDbLine
 62
253
  6
CONTINUOUS
 10
8.504012777
 20
-6.9313229207
 11
9.4966110309
 21
-6.9313229207
  0
LINE
  5
39A
100
AcDbEntity
  8
DRAFT
100
AcDbLine
 62
7
  6
CONTINUOUS
 10
8.25
 20
-6.7226898563
 11
8.05
 21
-6.7226898563
  0
LINE
  5
39B
100
AcDbEntity
  8
DRAFT
100
AcDbLine
 62
7
  6
CONTINUOUS
 10
6.8
 20
-6.7226898563
 11
6.2
 21
-6.7226898563
  0
LINE
  5
39C
100
AcDbEntity
  8
DRAFT
100
AcDbLine
 62
7
  6
CONTINUOUS
 10
2.1500949546
 20
-6.7226898563
 11
1.8499050423
 21
-6.7226898563
  0
LINE
  5
39D
100
AcDbEntity
  8
DRAFT
100
AcDbLine
 62
7
  6
CONTINUOUS
 10
0.6500949546
 20
-6.7226898563
 11
0.3499050423
 21
-6.7226898563
  0
LINE
  5
39E
100
AcDbEntity
  8
DRAFT
100
AcDbLine
 62
7
  6
CONTINUOUS
 10
-0.8499050423
 20
-6.7226898563
 11
-1.1500949546
 21
-6.7226898563
  0
LINE
  5
39F
100
AcDbEntity
  8
DRAFT
100
AcDbLine
 62
7
  6
CONTINUOUS
 10
-2.3499050454
 20
-6.7226898563
 11
-2.6500949577
 21
-6.7226898563
  0
LINE
  5
3A0
100
AcDbEntity
  8
DRAFT
100
AcDbLine
 62
7
  6
CONTINUOUS
 10
-6.2
 20
-6.7226898563
 11
-6.8
 21
-6.7226898563
  0
LINE
  5
3A1
100
AcDbEntity
  8
DRAFT
100
AcDbLine
 62
7
  6
CONTINUOUS
 10
-8.05
 20
-6.7226898563
 11
-8.25
 21
-6.7226898563
  0
LINE
  5
3A2
100
AcDbEntity
  8
DRAFT
100
AcDbLine
 62
7
  6
CONTINUOUS
 10
-9.4
 20
-6.7
 11
-8.05
 21
-6.7
  0
LINE
  5
3A3
100
AcDbEntity
  8
DRAFT
100
AcDbLine
 62
7
  6
CONTINUOUS
 10
-6.8
 20
-6.7
 11
-6.2
 21
-6.7
  0
LINE
  5
3A4
100
AcDbEntity
  8
DRAFT
100
AcDbLine
 62
7
  6
CONTINUOUS
 10
-2.6213629119
 20
-6.7
 11
-2.3786370917
 21
-6.7
  0
LINE
  5
3A5
100
AcDbEntity
  8
DRAFT
100
AcDbLine
 62
7
  6
CONTINUOUS
 10
-1.1213629083
 20
-6.7
 11
-0.8786370881
 21
-6.7
  0
LINE
  5
3A6
100
AcDbEntity
  8
DRAFT
100
AcDbLine
 62
7
  6
CONTINUOUS
 10
0.3786370881
 20
-6.7
 11
0.6213629083
 21
-6.7
  0
LINE
  5
3A7
100
AcDbEntity
  8
DRAFT
100
AcDbLine
 62
7
  6
CONTINUOUS
 10
1.8786370881
 20
-6.7
 11
2.1213629083
 21
-6.7
  0
LINE
  5
3A8
100
AcDbEntity
  8
DRAFT
100
AcDbLine
 62
7
  6
CONTINUOUS
 10
6.2
 20
-6.7
 11
6.8
 21
-6.7
  0
LINE
  5
3A9
100
AcDbEntity
  8
DRAFT
100
AcDbLine
 62
7
  6
CONTINUOUS
 10
8.05
 20
-6.7
 11
9.4
 21
-6.7
  0
LINE
  5
3AA
100
AcDbEntity
  8
0
100
AcDbLine
 62
7
  6
CONTINUOUS
 10
8.7
 20
-6.65
 11
5.6270229771
 21
-6.65
  0
LINE
  5
3AB
100
AcDbEntity
  8
ASSI
100
AcDbLine
 62
7
  6
CONTINUOUS
 10
2.6729770229
 20
-6.65
 11
-0.7498866907
 21
-6.65
  0
LINE
  5
3AC
100
AcDbEntity
  8
0
100
AcDbLine
 62
7
  6
CONTINUOUS
 10
-0.75
 20
-6.65
 11
-2.6729770229
 21
-6.65
  0
LINE
  5
3AD
100
AcDbEntity
  8
0
100
AcDbLine
 62
7
  6
CONTINUOUS
 10
-5.6270229771
 20
-6.65
 11
-8.7
 21
-6.65
  0
LINE
  5
3AE
100
AcDbEntity
  8
ASSI
100
AcDbLine
 62
7
  6
CONTINUOUS
 10
9.25
 20
-6.6
 11
-9.25
 21
-6.6
  0
LINE
  5
3AF
100
AcDbEntity
  8
DRAFT
100
AcDbLine
 62
7
  6
CONTINUOUS
 10
-10.0
 20
0.5
 11
-9.7730841559
 21
0.2730841559
  0
LINE
  5
3B0
100
AcDbEntity
  8
DRAFT
100
AcDbLine
 62
7
  6
CONTINUOUS
 10
-10.0
 20
2.5
 11
-9.7730841559
 21
2.2730841559
  0
LINE
  5
3B1
100
AcDbEntity
  8
DRAFT
100
AcDbLine
 62
7
  6
CONTINUOUS
 10
-8.75
 20
2.6710596363
 11
-8.5937890665
 21
2.3586139741
  0
LINE
  5
3B2
100
AcDbEntity
  8
0
100
AcDbLine
 62
7
  6
CONTINUOUS
 10
-3.0762444645
 20
-21.6237555355
 11
-3.0959955457
 21
-20.8
  0
LINE
  5
3B3
100
AcDbEntity
  8
RACCORDO
100
AcDbLine
 62
7
  6
CONTINUOUS
 10
-4.5612601473
 20
-19.4260209733
 11
-4.563284597
 21
-17.5367039799
  0
LINE
  5
3B4
100
AcDbEntity
  8
ASSI
100
AcDbLine
 62
7
  6
CONTINUOUS
 10
-4.65
 20
-8.2
 11
-4.65
 21
-7.5211646096
  0
LINE
  5
3B5
100
AcDbEntity
  8
RACCORDO
100
AcDbLine
 62
7
  6
CONTINUOUS
 10
-4.5322894108
 20
-19.7897929133
 11
-4.5322894108
 21
-20.0
  0
LINE
  5
3B6
100
AcDbEntity
  8
RACCORDO
100
AcDbLine
 62
7
  6
CONTINUOUS
 10
-4.5025952137
 20
-17.7956556053
 11
-4.5025952137
 21
-20.0296941971
  0
LINE
  5
3B7
100
AcDbEntity
  8
0
100
AcDbLine
 62
7
  6
CONTINUOUS
 10
-4.45
 20
24.0
 11
-4.45
 21
23.3679449472
  0
LINE
  5
3B8
100
AcDbEntity
  8
0
100
AcDbLine
 62
7
  6
CONTINUOUS
 10
-4.45
 20
22.9320550528
 11
-4.45
 21
22.4
  0
LINE
  5
3B9
100
AcDbEntity
  8
0
100
AcDbLine
 62
7
  6
CONTINUOUS
 10
-4.45
 20
-22.4
 11
-4.45
 21
-22.9320550528
  0
LINE
  5
3BA
100
AcDbEntity
  8
0
100
AcDbLine
 62
7
  6
CONTINUOUS
 10
-4.45
 20
-23.3679449472
 11
-4.45
 21
-24.0
  0
LINE
  5
3BB
100
AcDbEntity
  8
0
100
AcDbLine
 62
7
  6
CONTINUOUS
 10
-4.406077753
 20
-23.9538922731
 11
-4.406077753
 21
-22.356077753
  0
LINE
  5
3BC
100
AcDbEntity
  8
0
100
AcDbLine
 62
7
  6
CONTINUOUS
 10
-4.406077753
 20
22.356077753
 11
-4.406077753
 21
23.9538922731
  0
LINE
  5
3BD
100
AcDbEntity
  8
RACCORDO
100
AcDbLine
 62
253
  6
CONTINUOUS
 10
-4.2026066368
 20
-17.7956556053
 11
-4.2026066368
 21
-20.0322894108
  0
LINE
  5
3BE
100
AcDbEntity
  8
ASSI
100
AcDbLine
 62
7
  6
CONTINUOUS
 10
-3.65
 20
-8.2
 11
-3.65
 21
-7.5211646096
  0
LINE
  5
3BF
100
AcDbEntity
  8
0
100
AcDbLine
 62
7
  6
CONTINUOUS
 10
-3.5590867224
 20
-23.8767611455
 11
-3.5590867224
 21
-22.3547915774
  0
LINE
  5
3C0
100
AcDbEntity
  8
0
100
AcDbLine
 62
7
  6
CONTINUOUS
 10
-3.5590867224
 20
22.3547915774
 11
-3.5590867224
 21
23.8767611455
  0
LINE
  5
3C1
100
AcDbEntity
  8
0
100
AcDbLine
 62
7
  6
CONTINUOUS
 10
-3.5
 20
23.9941821702
 11
-3.5
 21
22.3941821702
  0
LINE
  5
3C2
100
AcDbEntity
  8
0
100
AcDbLine
 62
7
  6
CONTINUOUS
 10
-3.5
 20
-23.9941821702
 11
-3.5
 21
-22.3941821702
  0
LINE
  5
3C3
100
AcDbEntity
  8
RACCORDO
100
AcDbLine
 62
7
  6
CONTINUOUS
 10
-3.9700513793
 20
-16.8647171262
 11
-3.9405049384
 21
-15.5
  0
LINE
  5
3C4
100
AcDbEntity
  8
DRAFT
100
AcDbLine
 62
7
  6
CONTINUOUS
 10
-3.7452569859
 20
-15.507774954
 11
-3.7693983204
 21
-16.6228362517
  0
LINE
  5
3C5
100
AcDbEntity
  8
0
100
AcDbLine
 62
7
  6
CONTINUOUS
 10
-3.0959955457
 20
20.8
 11
-3.0762444645
 21
21.6237555355
  0
LINE
  5
3C6
100
AcDbEntity
  8
RACCORDO
100
AcDbLine
 62
253
  6
CONTINUOUS
 10
-6.5959955457
 20
-20.0049452141
 11
-6.4519304353
 21
-18.7051734659
  0
LINE
  5
3C7
100
AcDbEntity
  8
DRAFT
100
AcDbLine
 62
7
  6
CONTINUOUS
 10
8.7867049498
 20
15.3867049498
 11
8.778184492
 21
15.378184492
  0
LINE
  5
3C8
100
AcDbEntity
  8
RACCORDO
100
AcDbLine
 62
7
  6
CONTINUOUS
 10
8.75
 20
13.6
 11
8.8608443418
 21
13.7108443418
  0
LINE
  5
3C9
100
AcDbEntity
  8
ASSI
100
AcDbLine
 62
7
  6
CONTINUOUS
 10
9.25
 20
-5.0
 11
-9.25
 21
-5.0
  0
LINE
  5
3CA
100
AcDbEntity
  8
DRAFT
100
AcDbLine
 62
7
  6
CONTINUOUS
 10
-9.4
 20
-4.9
 11
-8.2726898563
 21
-4.9
  0
LINE
  5
3CB
100
AcDbEntity
  8
DRAFT
100
AcDbLine
 62
7
  6
CONTINUOUS
 10
8.2726898563
 20
-4.9
 11
9.4
 21
-4.9
  0
LINE
  5
3CC
100
AcDbEntity
  8
RACCORDO
100
AcDbLine
 62
253
  6
CONTINUOUS
 10
9.4966110309
 20
-4.6686770793
 11
8.504012777
 21
-4.6686770793
  0
LINE
  5
3CD
100
AcDbEntity
  8
RACCORDO
100
AcDbLine
 62
253
  6
CONTINUOUS
 10
-8.504012777
 20
-4.6686770793
 11
-9.4966110309
 21
-4.6686770793
  0
LINE
  5
3CE
100
AcDbEntity
  8
RACCORDO
100
AcDbLine
 62
253
  6
CONTINUOUS
 10
9.5
 20
-3.8687075408
 11
8.5109333469
 21
-3.8687075408
  0
LINE
  5
3CF
100
AcDbEntity
  8
RACCORDO
100
AcDbLine
 62
253
  6
CONTINUOUS
 10
-8.5109333469
 20
-3.8687075408
 11
-9.5
 21
-3.8687075408
  0
LINE
  5
3D0
100
AcDbEntity
  8
DRAFT
100
AcDbLine
 62
7
  6
CONTINUOUS
 10
-10.8085226158
 20
-3.7253974543
 11
-9.5872686779
 21
-3.7253974543
  0
LINE
  5
3D1
100
AcDbEntity
  8
DRAFT
100
AcDbLine
 62
7
  6
CONTINUOUS
 10
9.5872686779
 20
-3.7253974543
 11
10.8085226158
 21
-3.7253974543
  0
LINE
  5
3D2
100
AcDbEntity
  8
DRAFT
100
AcDbLine
 62
7
  6
CONTINUOUS
 10
-9.5
 20
-3.5508468051
 11
-8.5109333469
 21
-3.5508468051
  0
LINE
  5
3D3
100
AcDbEntity
  8
DRAFT
100
AcDbLine
 62
7
  6
CONTINUOUS
 10
8.5109333469
 20
-3.5508468051
 11
9.5
 21
-3.5508468051
  0
LINE
  5
3D4
100
AcDbEntity
  8
DRAFT
100
AcDbLine
 62
7
  6
CONTINUOUS
 10
8.3198149423
 20
-13.9130903017
 11
8.2569814942
 21
-13.8502568536
  0
LINE
  5
3D5
100
AcDbEntity
  8
DRAFT
100
AcDbLine
 62
7
  6
CONTINUOUS
 10
-9.55
 20
10.2
 11
-9.6285418101
 21
10.3570955844
  0
LINE
  5
3D6
100
AcDbEntity
  8
DRAFT
100
AcDbLine
 62
7
  6
CONTINUOUS
 10
-9.5872686779
 20
10.7253974543
 11
-9.5
 21
10.5508468051
  0
LINE
  5
3D7
100
AcDbEntity
  8
RACCORDO
100
AcDbLine
 62
7
  6
CONTINUOUS
 10
-3.4
 20
-15.5
 11
-3.4
 21
-15.507774954
  0
LINE
  5
3D8
100
AcDbEntity
  8
0
100
AcDbLine
 62
7
  6
CONTINUOUS
 10
-3.0959955457
 20
-21.3359869487
 11
-3.0959955457
 21
-20.8
  0
LINE
  5
3D9
100
AcDbEntity
  8
0
100
AcDbLine
 62
7
  6
CONTINUOUS
 10
-3.0959955457
 20
20.8
 11
-3.0959955457
 21
21.3359869487
  0
LINE
  5
3DA
100
AcDbEntity
  8
0
100
AcDbLine
 62
7
  6
CONTINUOUS
 10
-3.0
 20
22.3941821702
 11
-3.0
 21
21.7
  0
LINE
  5
3DB
100
AcDbEntity
  8
0
100
AcDbLine
 62
7
  6
CONTINUOUS
 10
-3.0
 20
-21.7
 11
-3.0
 21
-22.3941821702
  0
LINE
  5
3DC
100
AcDbEntity
  8
ASSI
100
AcDbLine
 62
7
  6
CONTINUOUS
 10
-2.75
 20
-6.9458040048
 11
-2.75
 21
-7.65
  0
LINE
  5
3DD
100
AcDbEntity
  8
ASSI
100
AcDbLine
 62
7
  6
CONTINUOUS
 10
-2.25
 20
-6.9458040048
 11
-2.25
 21
-7.65
  0
LINE
  5
3DE
100
AcDbEntity
  8
RACCORDO
100
AcDbLine
 62
7
  6
CONTINUOUS
 10
-6.4527028411
 20
-19.4260209733
 11
-6.4800195499
 21
-19.5900670064
  0
LINE
  5
3DF
100
AcDbEntity
  8
RACCORDO
100
AcDbLine
 62
7
  6
CONTINUOUS
 10
-9.5553984776
 20
-19.4260209733
 11
-9.6100360562
 21
-19.5900670064
  0
LINE
  5
3E0
100
AcDbEntity
  8
0
100
AcDbLine
 62
7
  6
CONTINUOUS
 10
-9.65
 20
-20.1990396502
 11
-9.6133443637
 21
-20.0889833137
  0
LINE
  5
3E1
100
AcDbEntity
  8
0
100
AcDbLine
 62
7
  6
CONTINUOUS
 10
-8.9498936624
 20
-20.9
 11
-8.9132380261
 21
-20.7899436635
  0
LINE
  5
3E2
100
AcDbEntity
  8
0
100
AcDbLine
 62
7
  6
CONTINUOUS
 10
7.706365661
 20
12.1808008909
 11
7.7255647702
 21
12.2
  0
LINE
  5
3E3
100
AcDbEntity
  8
RACCORDO
100
AcDbLine
 62
253
  6
CONTINUOUS
 10
7.5
 20
-2.3211581619
 11
8.25
 21
-2.3047941508
  0
LINE
  5
3E4
100
AcDbEntity
  8
RACCORDO
100
AcDbLine
 62
253
  6
CONTINUOUS
 10
7.5
 20
-2.1177811265
 11
8.25
 21
-2.1014171154
  0
LINE
  5
3E5
100
AcDbEntity
  8
DRAFT
100
AcDbLine
 62
7
  6
CONTINUOUS
 10
-11.0712013363
 20
-3.2
 11
-8.3355233043
 21
-3.2
  0
LINE
  5
3E6
100
AcDbEntity
  8
DRAFT
100
AcDbLine
 62
7
  6
CONTINUOUS
 10
8.3355233043
 20
-3.2
 11
11.0712013363
 21
-3.2
  0
LINE
  5
3E7
100
AcDbEntity
  8
DRAFT
100
AcDbLine
 62
7
  6
CONTINUOUS
 10
-10.0
 20
-2.5
 11
-8.3355233043
 21
-2.5
  0
LINE
  5
3E8
100
AcDbEntity
  8
DRAFT
100
AcDbLine
 62
7
  6
CONTINUOUS
 10
8.3355233043
 20
-2.5
 11
10.0
 21
-2.5
  0
LINE
  5
3E9
100
AcDbEntity
  8
RACCORDO
100
AcDbLine
 62
7
  6
CONTINUOUS
 10
8.1173516096
 20
-2.4057426494
 11
7.5
 21
-2.4057426494
  0
LINE
  5
3EA
100
AcDbEntity
  8
RACCORDO
100
AcDbLine
 62
7
  6
CONTINUOUS
 10
-7.5
 20
-2.4057426494
 11
-8.1173516096
 21
-2.4057426494
  0
LINE
  5
3EB
100
AcDbEntity
  8
RACCORDO
100
AcDbLine
 62
7
  6
CONTINUOUS
 10
9.7730841559
 20
-2.2730841559
 11
9.05
 21
-2.2730841559
  0
LINE
  5
3EC
100
AcDbEntity
  8
RACCORDO
100
AcDbLine
 62
7
  6
CONTINUOUS
 10
-9.05
 20
-2.2730841559
 11
-9.7730841559
 21
-2.2730841559
  0
LINE
  5
3ED
100
AcDbEntity
  8
RACCORDO
100
AcDbLine
 62
253
  6
CONTINUOUS
 10
-8.25
 20
-2.3047941508
 11
-7.5
 21
-2.3211581619
  0
LINE
  5
3EE
100
AcDbEntity
  8
RACCORDO
100
AcDbLine
 62
253
  6
CONTINUOUS
 10
-8.25
 20
-2.1014171154
 11
-7.5
 21
-2.1177811265
  0
LINE
  5
3EF
100
AcDbEntity
  8
DRAFT
100
AcDbLine
 62
7
  6
CONTINUOUS
 10
9.2216129175
 20
-13.9130903017
 11
9.5
 21
-14.1914773842
  0
LINE
  5
3F0
100
AcDbEntity
  8
DRAFT
100
AcDbLine
 62
7
  6
CONTINUOUS
 10
10.8085226158
 20
-15.2085226158
 11
11.1
 21
-15.5
  0
LINE
  5
3F1
100
AcDbEntity
  8
DRAFT
100
AcDbLine
 62
7
  6
CONTINUOUS
 10
-7.7787986637
 20
10.2
 11
-7.9542087063
 21
10.5508468051
  0
LINE
  5
3F2
100
AcDbEntity
  8
RACCORDO
100
AcDbLine
 62
7
  6
CONTINUOUS
 10
-9.5242414733
 20
19.8214572617
 11
-9.65
 21
20.1990396502
  0
LINE
  5
3F3
100
AcDbEntity
  8
RACCORDO
100
AcDbLine
 62
7
  6
CONTINUOUS
 10
-8.8387914318
 20
20.5664222561
 11
-8.9498936624
 21
20.9
  0
LINE
  5
3F4
100
AcDbEntity
  8
0
100
AcDbLine
 62
7
  6
CONTINUOUS
 10
-1.35
 20
4.025
 11
-1.35
 21
4.3473636265
  0
LINE
  5
3F5
100
AcDbEntity
  8
ASSI
100
AcDbLine
 62
7
  6
CONTINUOUS
 10
-1.25
 20
-6.9458040048
 11
-1.25
 21
-7.65
  0
LINE
  5
3F6
100
AcDbEntity
  8
0
100
AcDbLine
 62
7
  6
CONTINUOUS
 10
-1.0087268678
 20
23.7941889394
 11
-1.0087268678
 21
22.3947639644
  0
LINE
  5
3F7
100
AcDbEntity
  8
0
100
AcDbLine
 62
7
  6
CONTINUOUS
 10
-1.0087268678
 20
-22.3947639644
 11
-1.0087268678
 21
-23.7941889394
  0
LINE
  5
3F8
100
AcDbEntity
  8
0
100
AcDbLine
 62
7
  6
CONTINUOUS
 10
-1.0
 20
23.8000067692
 11
-1.0
 21
22.4
  0
LINE
  5
3F9
100
AcDbEntity
  8
0
100
AcDbLine
 62
7
  6
CONTINUOUS
 10
-1.0
 20
-22.4
 11
-1.0
 21
-23.8000067692
  0
LINE
  5
3FA
100
AcDbEntity
  8
ASSI
100
AcDbLine
 62
7
  6
CONTINUOUS
 10
-0.75
 20
-6.6
 11
-0.75
 21
-6.65
  0
LINE
  5
3FB
100
AcDbEntity
  8
ASSI
100
AcDbLine
 62
7
  6
CONTINUOUS
 10
-0.75
 20
-6.9458040048
 11
-0.75
 21
-7.65
  0
LINE
  5
3FC
100
AcDbEntity
  8
0
100
AcDbLine
 62
7
  6
CONTINUOUS
 10
-0.65
 20
2.975
 11
-0.65
 21
4.3473636265
  0
LINE
  5
3FD
100
AcDbEntity
  8
RACCORDO
100
AcDbLine
 62
7
  6
CONTINUOUS
 10
-0.45
 20
8.9630903017
 11
-0.45
 21
10.4892728991
  0
LINE
  5
3FE
100
AcDbEntity
  8
0
100
AcDbLine
 62
7
  6
CONTINUOUS
 10
0.15
 20
2.225
 11
0.15
 21
4.3473636265
  0
LINE
  5
3FF
100
AcDbEntity
  8
0
100
AcDbLine
 62
7
  6
CONTINUOUS
 10
-5.8893404862
 20
-10.0
 11
-4.65
 21
-7.8533993101
  0
LINE
  5
400
100
AcDbEntity
  8
0
100
AcDbLine
 62
7
  6
CONTINUOUS
 10
-4.99
 20
-7.65
 11
-5.5
 21
-8.5
  0
LINE
  5
401
100
AcDbEntity
  8
0
100
AcDbLine
 62
7
  6
CONTINUOUS
 10
-0.0
 20
2.0
 11
2.0
 21
5.0
  0
LINE
  5
402
100
AcDbEntity
  8
RACCORDO
100
AcDbLine
 62
7
  6
CONTINUOUS
 10
-8.504012777
 20
-6.9313229207
 11
-8.2726898563
 21
-6.7
  0
LINE
  5
403
100
AcDbEntity
  8
0
100
AcDbLine
 62
7
  6
CONTINUOUS
 10
7.706365661
 20
8.9130903017
 11
7.7701479512
 21
8.9768725919
  0
LINE
  5
404
100
AcDbEntity
  8
RACCORDO
100
AcDbLine
 62
7
  6
CONTINUOUS
 10
8.3268725919
 20
8.9768725919
 11
8.25
 21
8.9
  0
LINE
  5
405
100
AcDbEntity
  8
DRAFT
100
AcDbLine
 62
7
  6
CONTINUOUS
 10
-8.7781811688
 20
-8.4781811688
 11
-8.7867049498
 21
-8.4867049498
  0
LINE
  5
406
100
AcDbEntity
  8
DRAFT
100
AcDbLine
 62
7
  6
CONTINUOUS
 10
9.7730841559
 20
0.2730841559
 11
11.0712013363
 21
0.5
  0
LINE
  5
407
100
AcDbEntity
  8
DRAFT
100
AcDbLine
 62
7
  6
CONTINUOUS
 10
-11.0712013363
 20
-0.5
 11
-10.0
 21
-0.5
  0
LINE
  5
408
100
AcDbEntity
  8
DRAFT
100
AcDbLine
 62
7
  6
CONTINUOUS
 10
10.0
 20
-0.5
 11
11.0712013363
 21
-0.5
  0
LINE
  5
409
100
AcDbEntity
  8
DRAFT
100
AcDbLine
 62
7
  6
CONTINUOUS
 10
-11.0712013363
 20
0.5
 11
-9.7730841559
 21
0.2730841559
  0
LINE
  5
40A
100
AcDbEntity
  8
DRAFT
100
AcDbLine
 62
7
  6
CONTINUOUS
 10
8.3198149423
 20
-10.5375255315
 11
8.2822894108
 21
-10.5
  0
LINE
  5
40B
100
AcDbEntity
  8
DRAFT
100
AcDbLine
 62
7
  6
CONTINUOUS
 10
8.2822894108
 20
-10.0322894108
 11
8.25
 21
-10.0
  0
LINE
  5
40C
100
AcDbEntity
  8
DRAFT
100
AcDbLine
 62
7
  6
CONTINUOUS
 10
9.2216129175
 20
-10.5375255315
 11
9.5
 21
-10.815912614
  0
LINE
  5
40D
100
AcDbEntity
  8
DRAFT
100
AcDbLine
 62
7
  6
CONTINUOUS
 10
9.8414773842
 20
-10.815912614
 11
9.55
 21
-10.5244352298
  0
LINE
  5
40E
100
AcDbEntity
  8
DRAFT
100
AcDbLine
 62
7
  6
CONTINUOUS
 10
8.7867049498
 20
-8.4867049498
 11
8.778184492
 21
-8.478184492
  0
LINE
  5
40F
100
AcDbEntity
  8
ASSI
100
AcDbLine
 62
7
  6
CONTINUOUS
 10
0.25
 20
-6.9458040048
 11
0.25
 21
-7.65
  0
LINE
  5
410
100
AcDbEntity
  8
RACCORDO
100
AcDbLine
 62
7
  6
CONTINUOUS
 10
0.45
 20
10.4892728991
 11
0.45
 21
8.9630903017
  0
LINE
  5
411
100
AcDbEntity
  8
ASSI
100
AcDbLine
 62
7
  6
CONTINUOUS
 10
0.75
 20
-6.6
 11
0.75
 21
-6.65
  0
LINE
  5
412
100
AcDbEntity
  8
ASSI
100
AcDbLine
 62
7
  6
CONTINUOUS
 10
0.75
 20
-6.9458040048
 11
0.75
 21
-7.65
  0
LINE
  5
413
100
AcDbEntity
  8
0
100
AcDbLine
 62
7
  6
CONTINUOUS
 10
0.85
 20
3.275
 11
0.85
 21
4.3473636265
  0
LINE
  5
414
100
AcDbEntity
  8
0
100
AcDbLine
 62
7
  6
CONTINUOUS
 10
1.0
 20
23.8000067692
 11
1.0
 21
22.4
  0
LINE
  5
415
100
AcDbEntity
  8
0
100
AcDbLine
 62
7
  6
CONTINUOUS
 10
1.0
 20
-22.4
 11
1.0
 21
-23.8000067692
  0
LINE
  5
416
100
AcDbEntity
  8
0
100
AcDbLine
 62
7
  6
CONTINUOUS
 10
1.0087268678
 20
23.7941889394
 11
1.0087268678
 21
22.3947639644
  0
LINE
  5
417
100
AcDbEntity
  8
0
100
AcDbLine
 62
7
  6
CONTINUOUS
 10
1.0087268678
 20
-22.3947639644
 11
1.0087268678
 21
-23.7941889394
  0
LINE
  5
418
100
AcDbEntity
  8
ASSI
100
AcDbLine
 62
7
  6
CONTINUOUS
 10
1.75
 20
-6.9458040048
 11
1.75
 21
-7.65
  0
LINE
  5
419
100
AcDbEntity
  8
RACCORDO
100
AcDbLine
 62
7
  6
CONTINUOUS
 10
8.8387914318
 20
20.5664222561
 11
8.9498936624
 21
20.9
  0
LINE
  5
41A
100
AcDbEntity
  8
0
100
AcDbLine
 62
7
  6
CONTINUOUS
 10
-5.4851952977
 20
-10.0
 11
-4.4459648132
 21
-8.2
  0
LINE
  5
41B
100
AcDbEntity
  8
DRAFT
100
AcDbLine
 62
7
  6
CONTINUOUS
 10
-9.8414773842
 20
-10.815912614
 11
-9.55
 21
-10.5244352298
  0
LINE
  5
41C
100
AcDbEntity
  8
DRAFT
100
AcDbLine
 62
7
  6
CONTINUOUS
 10
-9.5
 20
-10.815912614
 11
-9.2216129175
 21
-10.5375255315
  0
LINE
  5
41D
100
AcDbEntity
  8
DRAFT
100
AcDbLine
 62
7
  6
CONTINUOUS
 10
-8.25
 20
-10.0
 11
-8.2822894108
 21
-10.0322894108
  0
LINE
  5
41E
100
AcDbEntity
  8
DRAFT
100
AcDbLine
 62
7
  6
CONTINUOUS
 10
-8.3198149423
 20
-10.5375255315
 11
-8.2822894108
 21
-10.5
  0
LINE
  5
41F
100
AcDbEntity
  8
DRAFT
100
AcDbLine
 62
7
  6
CONTINUOUS
 10
-11.0712013363
 20
-0.5
 11
-9.7730841559
 21
-0.2730841559
  0
LINE
  5
420
100
AcDbEntity
  8
DRAFT
100
AcDbLine
 62
7
  6
CONTINUOUS
 10
-11.0712013363
 20
0.5
 11
-10.0
 21
0.5
  0
LINE
  5
421
100
AcDbEntity
  8
DRAFT
100
AcDbLine
 62
7
  6
CONTINUOUS
 10
10.0
 20
0.5
 11
11.0712013363
 21
0.5
  0
LINE
  5
422
100
AcDbEntity
  8
DRAFT
100
AcDbLine
 62
7
  6
CONTINUOUS
 10
9.7730841559
 20
-0.2730841559
 11
11.0712013363
 21
-0.5
  0
LINE
  5
423
100
AcDbEntity
  8
RACCORDO
100
AcDbLine
 62
7
  6
CONTINUOUS
 10
-8.25
 20
8.9
 11
-8.3268725919
 21
8.9768725919
  0
LINE
  5
424
100
AcDbEntity
  8
0
100
AcDbLine
 62
7
  6
CONTINUOUS
 10
-7.706365661
 20
8.9130903017
 11
-7.7701479512
 21
8.9768725919
  0
LINE
  5
425
100
AcDbEntity
  8
RACCORDO
100
AcDbLine
 62
7
  6
CONTINUOUS
 10
8.504012777
 20
-6.9313229207
 11
8.2726898563
 21
-6.7
  0
LINE
  5
426
100
AcDbEntity
  8
0
100
AcDbLine
 62
7
  6
CONTINUOUS
 10
-2.0
 20
5.0
 11
-0.0
 21
2.0
  0
LINE
  5
427
100
AcDbEntity
  8
0
100
AcDbLine
 62
7
  6
CONTINUOUS
 10
5.5
 20
-8.5
 11
4.9
 21
-7.5
  0
LINE
  5
428
100
AcDbEntity
  8
0
100
AcDbLine
 62
7
  6
CONTINUOUS
 10
8.9498936624
 20
-20.9
 11
8.9132380261
 21
-20.7899436635
  0
LINE
  5
429
100
AcDbEntity
  8
0
100
AcDbLine
 62
7
  6
CONTINUOUS
 10
3.0959955457
 20
20.8
 11
3.0762444645
 21
21.6237555355
  0
LINE
  5
42A
100
AcDbEntity
  8
DRAFT
100
AcDbLine
 62
7
  6
CONTINUOUS
 10
3.7693983204
 20
-16.6228362517
 11
3.7452569859
 21
-15.507774954
  0
LINE
  5
42B
100
AcDbEntity
  8
RACCORDO
100
AcDbLine
 62
7
  6
CONTINUOUS
 10
3.9405049384
 20
-15.5
 11
3.9700513793
 21
-16.8647171262
  0
LINE
  5
42C
100
AcDbEntity
  8
ASSI
100
AcDbLine
 62
7
  6
CONTINUOUS
 10
2.25
 20
-6.9458040048
 11
2.25
 21
-7.65
  0
LINE
  5
42D
100
AcDbEntity
  8
0
100
AcDbLine
 62
7
  6
CONTINUOUS
 10
3.0
 20
-22.3941821702
 11
3.0
 21
-21.7
  0
LINE
  5
42E
100
AcDbEntity
  8
0
100
AcDbLine
 62
7
  6
CONTINUOUS
 10
3.0
 20
21.7
 11
3.0
 21
22.3941821702
  0
LINE
  5
42F
100
AcDbEntity
  8
0
100
AcDbLine
 62
7
  6
CONTINUOUS
 10
3.0959955457
 20
-21.3359869487
 11
3.0959955457
 21
-20.8
  0
LINE
  5
430
100
AcDbEntity
  8
0
100
AcDbLine
 62
7
  6
CONTINUOUS
 10
3.0959955457
 20
20.8
 11
3.0959955457
 21
21.3359869487
  0
LINE
  5
431
100
AcDbEntity
  8
ASSI
100
AcDbLine
 62
7
  6
CONTINUOUS
 10
3.25
 20
-7.3272457547
 11
3.25
 21
-7.65
  0
LINE
  5
432
100
AcDbEntity
  8
RACCORDO
100
AcDbLine
 62
7
  6
CONTINUOUS
 10
3.4
 20
-15.507774954
 11
3.4
 21
-15.5
  0
LINE
  5
433
100
AcDbEntity
  8
0
100
AcDbLine
 62
7
  6
CONTINUOUS
 10
3.5
 20
23.9941821702
 11
3.5
 21
22.3941821702
  0
LINE
  5
434
100
AcDbEntity
  8
0
100
AcDbLine
 62
7
  6
CONTINUOUS
 10
3.5
 20
-23.9941821702
 11
3.5
 21
-22.3941821702
  0
LINE
  5
435
100
AcDbEntity
  8
0
100
AcDbLine
 62
7
  6
CONTINUOUS
 10
3.5590867224
 20
-23.8767611455
 11
3.5590867224
 21
-22.3547915774
  0
LINE
  5
436
100
AcDbEntity
  8
0
100
AcDbLine
 62
7
  6
CONTINUOUS
 10
3.5590867224
 20
22.3547915774
 11
3.5590867224
 21
23.8767611455
  0
LINE
  5
437
100
AcDbEntity
  8
ASSI
100
AcDbLine
 62
7
  6
CONTINUOUS
 10
3.65
 20
-7.5211646096
 11
3.65
 21
-8.2
  0
LINE
  5
438
100
AcDbEntity
  8
0
100
AcDbLine
 62
7
  6
CONTINUOUS
 10
3.0762444645
 20
-21.6237555355
 11
3.0959955457
 21
-20.8
  0
LINE
  5
439
100
AcDbEntity
  8
RACCORDO
100
AcDbLine
 62
7
  6
CONTINUOUS
 10
9.5242414733
 20
19.8214572617
 11
9.65
 21
20.1990396502
  0
LINE
  5
43A
100
AcDbEntity
  8
DRAFT
100
AcDbLine
 62
7
  6
CONTINUOUS
 10
7.7787986637
 20
10.2
 11
7.9542087063
 21
10.5508468051
  0
LINE
  5
43B
100
AcDbEntity
  8
DRAFT
100
AcDbLine
 62
7
  6
CONTINUOUS
 10
9.5872686779
 20
10.7253974543
 11
9.5
 21
10.5508468051
  0
LINE
  5
43C
100
AcDbEntity
  8
DRAFT
100
AcDbLine
 62
7
  6
CONTINUOUS
 10
-10.8085226158
 20
-15.2085226158
 11
-11.1
 21
-15.5
  0
LINE
  5
43D
100
AcDbEntity
  8
DRAFT
100
AcDbLine
 62
7
  6
CONTINUOUS
 10
-9.2216129175
 20
-13.9130903017
 11
-9.5
 21
-14.1914773842
  0
LINE
  5
43E
100
AcDbEntity
  8
RACCORDO
100
AcDbLine
 62
253
  6
CONTINUOUS
 10
-7.4444700657
 20
2.1189927164
 11
-8.25
 21
2.1014171154
  0
LINE
  5
43F
100
AcDbEntity
  8
RACCORDO
100
AcDbLine
 62
253
  6
CONTINUOUS
 10
-7.3485844704
 20
2.3244618492
 11
-8.25
 21
2.3047941508
  0
LINE
  5
440
100
AcDbEntity
  8
RACCORDO
100
AcDbLine
 62
7
  6
CONTINUOUS
 10
9.7730841559
 20
2.2730841559
 11
9.05
 21
2.2730841559
  0
LINE
  5
441
100
AcDbEntity
  8
RACCORDO
100
AcDbLine
 62
7
  6
CONTINUOUS
 10
-9.05
 20
2.2730841559
 11
-9.7730841559
 21
2.2730841559
  0
LINE
  5
442
100
AcDbEntity
  8
RACCORDO
100
AcDbLine
 62
7
  6
CONTINUOUS
 10
-8.5937890665
 20
2.3586139741
 11
-7.3326468121
 21
2.3586139741
  0
LINE
  5
443
100
AcDbEntity
  8
RACCORDO
100
AcDbLine
 62
7
  6
CONTINUOUS
 10
7.3326468121
 20
2.3586139741
 11
8.5937890665
 21
2.3586139741
  0
LINE
  5
444
100
AcDbEntity
  8
DRAFT
100
AcDbLine
 62
7
  6
CONTINUOUS
 10
10.0
 20
2.5
 11
8.75
 21
2.5
  0
LINE
  5
445
100
AcDbEntity
  8
DRAFT
100
AcDbLine
 62
7
  6
CONTINUOUS
 10
-8.75
 20
2.5
 11
-10.0
 21
2.5
  0
LINE
  5
446
100
AcDbEntity
  8
0
100
AcDbLine
 62
7
  6
CONTINUOUS
 10
1.189032036
 20
3.783548054
 11
0.85
 21
3.783548054
  0
LINE
  5
447
100
AcDbEntity
  8
0
100
AcDbLine
 62
7
  6
CONTINUOUS
 10
0.15
 20
3.783548054
 11
-0.65
 21
3.783548054
  0
LINE
  5
448
100
AcDbEntity
  8
RACCORDO
100
AcDbLine
 62
253
  6
CONTINUOUS
 10
8.25
 20
2.1014171154
 11
7.4444700657
 21
2.1189927164
  0
LINE
  5
449
100
AcDbEntity
  8
RACCORDO
100
AcDbLine
 62
253
  6
CONTINUOUS
 10
8.25
 20
2.3047941508
 11
7.3485844704
 21
2.3244618492
  0
LINE
  5
44A
100
AcDbEntity
  8
0
100
AcDbLine
 62
7
  6
CONTINUOUS
 10
-7.706365661
 20
12.1808008909
 11
-7.7255647702
 21
12.2
  0
LINE
  5
44B
100
AcDbEntity
  8
RACCORDO
100
AcDbLine
 62
7
  6
CONTINUOUS
 10
-8.75
 20
13.6
 11
-8.8608443418
 21
13.7108443418
  0
LINE
  5
44C
100
AcDbEntity
  8
0
100
AcDbLine
 62
7
  6
CONTINUOUS
 10
9.65
 20
-20.1990396502
 11
9.6133443637
 21
-20.0889833137
  0
LINE
  5
44D
100
AcDbEntity
  8
RACCORDO
100
AcDbLine
 62
7
  6
CONTINUOUS
 10
9.5553984776
 20
-19.4260209733
 11
9.6100360562
 21
-19.5900670064
  0
LINE
  5
44E
100
AcDbEntity
  8
RACCORDO
100
AcDbLine
 62
7
  6
CONTINUOUS
 10
6.4527028411
 20
-19.4260209733
 11
6.4800195499
 21
-19.5900670064
  0
LINE
  5
44F
100
AcDbEntity
  8
RACCORDO
100
AcDbLine
 62
253
  6
CONTINUOUS
 10
4.2026066368
 20
-17.7956556053
 11
4.2026066368
 21
-20.0322894108
  0
LINE
  5
450
100
AcDbEntity
  8
0
100
AcDbLine
 62
7
  6
CONTINUOUS
 10
4.406077753
 20
-23.9538922731
 11
4.406077753
 21
-22.356077753
  0
LINE
  5
451
100
AcDbEntity
  8
0
100
AcDbLine
 62
7
  6
CONTINUOUS
 10
4.406077753
 20
22.356077753
 11
4.406077753
 21
23.9538922731
  0
LINE
  5
452
100
AcDbEntity
  8
0
100
AcDbLine
 62
7
  6
CONTINUOUS
 10
4.45
 20
-24.0
 11
4.45
 21
-23.3679449472
  0
LINE
  5
453
100
AcDbEntity
  8
0
100
AcDbLine
 62
7
  6
CONTINUOUS
 10
4.45
 20
-22.9320550528
 11
4.45
 21
-22.4
  0
LINE
  5
454
100
AcDbEntity
  8
0
100
AcDbLine
 62
7
  6
CONTINUOUS
 10
4.45
 20
22.4
 11
4.45
 21
22.9320550528
  0
LINE
  5
455
100
AcDbEntity
  8
0
100
AcDbLine
 62
7
  6
CONTINUOUS
 10
4.45
 20
23.3679449472
 11
4.45
 21
24.0
  0
LINE
  5
456
100
AcDbEntity
  8
RACCORDO
100
AcDbLine
 62
7
  6
CONTINUOUS
 10
4.5025952137
 20
-17.7956556053
 11
4.5025952137
 21
-20.0296941971
  0
LINE
  5
457
100
AcDbEntity
  8
RACCORDO
100
AcDbLine
 62
7
  6
CONTINUOUS
 10
4.5322894108
 20
-19.7897929133
 11
4.5322894108
 21
-20.0
  0
LINE
  5
458
100
AcDbEntity
  8
ASSI
100
AcDbLine
 62
7
  6
CONTINUOUS
 10
4.65
 20
-7.5211646096
 11
4.65
 21
-8.2
  0
LINE
  5
459
100
AcDbEntity
  8
0
100
AcDbLine
 62
7
  6
CONTINUOUS
 10
4.8
 20
6.9
 11
4.8
 21
5.98
  0
LINE
  5
45A
100
AcDbEntity
  8
0
100
AcDbLine
 62
7
  6
CONTINUOUS
 10
4.9
 20
-7.5
 11
4.9
 21
-7.4155304273
  0
LINE
  5
45B
100
AcDbEntity
  8
RACCORDO
100
AcDbLine
 62
7
  6
CONTINUOUS
 10
4.5612601473
 20
-19.4260209733
 11
4.563284597
 21
-17.5367039799
  0
LINE
  5
45C
100
AcDbEntity
  8
DRAFT
100
AcDbLine
 62
7
  6
CONTINUOUS
 10
9.55
 20
10.2
 11
9.6285418101
 21
10.3570955844
  0
LINE
  5
45D
100
AcDbEntity
  8
DRAFT
100
AcDbLine
 62
7
  6
CONTINUOUS
 10
-8.2822894108
 20
-13.8755647702
 11
-8.3198149423
 21
-13.9130903017
  0
LINE
  5
45E
100
AcDbEntity
  8
DRAFT
100
AcDbLine
 62
7
  6
CONTINUOUS
 10
-5.492145819
 20
-11.5
 11
-5.4746920834
 21
-11.4825462644
  0
LINE
  5
45F
100
AcDbEntity
  8
DRAFT
100
AcDbLine
 62
7
  6
CONTINUOUS
 10
10.0
 20
2.5
 11
9.7730841559
 21
2.2730841559
  0
LINE
  5
460
100
AcDbEntity
  8
DRAFT
100
AcDbLine
 62
7
  6
CONTINUOUS
 10
8.0
 20
5.8
 11
8.5
 21
5.8881634904
  0
LINE
  5
461
100
AcDbEntity
  8
DRAFT
100
AcDbLine
 62
7
  6
CONTINUOUS
 10
-11.0712013363
 20
4.2
 11
-9.55
 21
4.2
  0
LINE
  5
462
100
AcDbEntity
  8
DRAFT
100
AcDbLine
 62
7
  6
CONTINUOUS
 10
11.0712013363
 20
4.2
 11
9.55
 21
4.2
  0
LINE
  5
463
100
AcDbEntity
  8
0
100
AcDbLine
 62
7
  6
CONTINUOUS
 10
1.5649090843
 20
4.3473636265
 11
0.85
 21
4.3473636265
  0
LINE
  5
464
100
AcDbEntity
  8
0
100
AcDbLine
 62
7
  6
CONTINUOUS
 10
0.15
 20
4.3473636265
 11
-0.65
 21
4.3473636265
  0
LINE
  5
465
100
AcDbEntity
  8
0
100
AcDbLine
 62
7
  6
CONTINUOUS
 10
-1.35
 20
4.3473636265
 11
-1.5649090843
 21
4.3473636265
  0
LINE
  5
466
100
AcDbEntity
  8
0
100
AcDbLine
 62
7
  6
CONTINUOUS
 10
6.268
 20
4.64
 11
6.8
 21
4.64
  0
LINE
  5
467
100
AcDbEntity
  8
0
100
AcDbLine
 62
7
  6
CONTINUOUS
 10
-6.1
 20
5.0
 11
-2.0
 21
5.0
  0
LINE
  5
468
100
AcDbEntity
  8
0
100
AcDbLine
 62
7
  6
CONTINUOUS
 10
2.0
 20
5.0
 11
6.1
 21
5.0
  0
LINE
  5
469
100
AcDbEntity
  8
0
100
AcDbLine
 62
7
  6
CONTINUOUS
 10
-6.8
 20
5.2
 11
-6.4
 21
5.2
  0
LINE
  5
46A
100
AcDbEntity
  8
DRAFT
100
AcDbLine
 62
7
  6
CONTINUOUS
 10
-8.0
 20
5.8
 11
-8.5
 21
5.8881634904
  0
LINE
  5
46B
100
AcDbEntity
  8
DRAFT
100
AcDbLine
 62
7
  6
CONTINUOUS
 10
-8.7781811688
 20
15.3781811688
 11
-8.7867049498
 21
15.3867049498
  0
LINE
  5
46C
100
AcDbEntity
  8
DRAFT
100
AcDbLine
 62
7
  6
CONTINUOUS
 10
10.0
 20
-2.5
 11
9.7730841559
 21
-2.2730841559
  0
LINE
  5
46D
100
AcDbEntity
  8
DRAFT
100
AcDbLine
 62
7
  6
CONTINUOUS
 10
-9.8414773842
 20
17.6914773842
 11
-9.55
 21
17.4
  0
LINE
  5
46E
100
AcDbEntity
  8
DRAFT
100
AcDbLine
 62
7
  6
CONTINUOUS
 10
-10.8085226158
 20
18.7085226158
 11
-11.1
 21
19.0
  0
LINE
  5
46F
100
AcDbEntity
  8
RACCORDO
100
AcDbLine
 62
7
  6
CONTINUOUS
 10
9.4966110309
 20
-6.9313229207
 11
9.4
 21
-6.7340347844
  0
LINE
  5
470
100
AcDbEntity
  8
RACCORDO
100
AcDbLine
 62
253
  6
CONTINUOUS
 10
6.5959955457
 20
-20.0049452141
 11
6.4519304353
 21
-18.7051734659
  0
LINE
  5
471
100
AcDbEntity
  8
0
100
AcDbLine
 62
253
  6
CONTINUOUS
 10
7.254371834
 20
-23.8443375673
 11
7.25
 21
-23.4104851482
  0
LINE
  5
472
100
AcDbEntity
  8
0
100
AcDbLine
 62
253
  6
CONTINUOUS
 10
7.5043676032
 20
-23.6278312164
 11
7.4992770021
 21
-23.1226497308
  0
LINE
  5
473
100
AcDbEntity
  8
RACCORDO
100
AcDbLine
 62
7
  6
CONTINUOUS
 10
6.4527028411
 20
-19.4260209733
 11
6.4519304353
 21
-18.7051734659
  0
LINE
  5
474
100
AcDbEntity
  8
DRAFT
100
AcDbLine
 62
7
  6
CONTINUOUS
 10
6.0
 20
18.8839326584
 11
6.0
 21
17.5160673416
  0
LINE
  5
475
100
AcDbEntity
  8
DRAFT
100
AcDbLine
 62
7
  6
CONTINUOUS
 10
6.0
 20
-14.0160673416
 11
6.0
 21
-15.3839326584
  0
LINE
  5
476
100
AcDbEntity
  8
0
100
AcDbLine
 62
7
  6
CONTINUOUS
 10
6.1
 20
5.98
 11
6.1
 21
5.0
  0
LINE
  5
477
100
AcDbEntity
  8
0
100
AcDbLine
 62
7
  6
CONTINUOUS
 10
6.2
 20
-8.5
 11
6.2
 21
-6.65
  0
LINE
  5
478
100
AcDbEntity
  8
RACCORDO
100
AcDbLine
 62
7
  6
CONTINUOUS
 10
6.4816735776
 20
-19.7897929133
 11
6.4816735776
 21
-20.0
  0
LINE
  5
479
100
AcDbEntity
  8
RACCORDO
100
AcDbLine
 62
7
  6
CONTINUOUS
 10
6.5959955457
 20
20.1143219681
 11
6.5959955457
 21
20.0049452141
  0
LINE
  5
47A
100
AcDbEntity
  8
RACCORDO
100
AcDbLine
 62
7
  6
CONTINUOUS
 10
6.5959955457
 20
-20.0049452141
 11
6.5959955457
 21
-20.1143219681
  0
LINE
  5
47B
100
AcDbEntity
  8
DRAFT
100
AcDbLine
 62
7
  6
CONTINUOUS
 10
6.7019074668
 20
18.7085226158
 11
6.7019074668
 21
17.6914773842
  0
LINE
  5
47C
100
AcDbEntity
  8
DRAFT
100
AcDbLine
 62
7
  6
CONTINUOUS
 10
6.7019074668
 20
-15.2085226158
 11
6.7019074668
 21
-14.1914773842
  0
LINE
  5
47D
100
AcDbEntity
  8
0
100
AcDbLine
 62
7
  6
CONTINUOUS
 10
6.8
 20
4.64
 11
6.8
 21
3.5
  0
LINE
  5
47E
100
AcDbEntity
  8
0
100
AcDbLine
 62
7
  6
CONTINUOUS
 10
6.8
 20
-8.5
 11
6.8
 21
-6.65
  0
LINE
  5
47F
100
AcDbEntity
  8
RACCORDO
100
AcDbLine
 62
7
  6
CONTINUOUS
 10
7.2040044543
 20
20.9959955457
 11
7.2040044543
 21
20.0049452141
  0
LINE
  5
480
100
AcDbEntity
  8
RACCORDO
100
AcDbLine
 62
7
  6
CONTINUOUS
 10
7.2040044543
 20
-20.9959955457
 11
7.2040044543
 21
-20.0049452141
  0
LINE
  5
481
100
AcDbEntity
  8
0
100
AcDbLine
 62
7
  6
CONTINUOUS
 10
7.25
 20
23.8443375673
 11
7.25
 21
23.4104851482
  0
LINE
  5
482
100
AcDbEntity
  8
RACCORDO
100
AcDbLine
 62
7
  6
CONTINUOUS
 10
7.25
 20
-23.4104851482
 11
7.25
 21
-22.6002134903
  0
LINE
  5
483
100
AcDbEntity
  8
0
100
AcDbLine
 62
7
  6
CONTINUOUS
 10
7.25
 20
-23.4104851482
 11
7.25
 21
-23.8443375673
  0
LINE
  5
484
100
AcDbEntity
  8
RACCORDO
100
AcDbLine
 62
7
  6
CONTINUOUS
 10
7.25
 20
22.6002134903
 11
7.25
 21
23.4104851482
  0
LINE
  5
485
100
AcDbEntity
  8
0
100
AcDbLine
 62
7
  6
CONTINUOUS
 10
7.254371834
 20
24.2456323968
 11
7.254371834
 21
23.8443375673
  0
LINE
  5
486
100
AcDbEntity
  8
0
100
AcDbLine
 62
7
  6
CONTINUOUS
 10
7.254371834
 20
-23.8443375673
 11
7.254371834
 21
-24.2456323968
  0
LINE
  5
487
100
AcDbEntity
  8
RACCORDO
100
AcDbLine
 62
7
  6
CONTINUOUS
 10
7.3183264224
 20
-19.7897929133
 11
7.3183264224
 21
-20.7899436635
  0
LINE
  5
488
100
AcDbEntity
  8
0
100
AcDbLine
 62
7
  6
CONTINUOUS
 10
7.5
 20
2.0
 11
7.5
 21
-5.0
  0
LINE
  5
489
100
AcDbEntity
  8
0
100
AcDbLine
 62
253
  6
CONTINUOUS
 10
7.5043676032
 20
-23.6278312164
 11
7.5043676032
 21
-24.495628166
  0
LINE
  5
48A
100
AcDbEntity
  8
0
100
AcDbLine
 62
253
  6
CONTINUOUS
 10
7.5043676032
 20
23.6278312164
 11
7.5043676032
 21
24.495628166
  0
LINE
  5
48B
100
AcDbEntity
  8
RACCORDO
100
AcDbLine
 62
7
  6
CONTINUOUS
 10
7.3472971589
 20
-19.4260209733
 11
7.3480695647
 21
-18.7051734659
  0
LINE
  5
48C
100
AcDbEntity
  8
0
100
AcDbLine
 62
253
  6
CONTINUOUS
 10
7.25
 20
23.4104851482
 11
7.254371834
 21
23.8443375673
  0
LINE
  5
48D
100
AcDbEntity
  8
0
100
AcDbLine
 62
253
  6
CONTINUOUS
 10
7.4992770021
 20
23.1226497308
 11
7.5043676032
 21
23.6278312164
  0
LINE
  5
48E
100
AcDbEntity
  8
DRAFT
100
AcDbLine
 62
7
  6
CONTINUOUS
 10
8.5937890665
 20
2.3586139741
 11
8.75
 21
2.6710596363
  0
LINE
  5
48F
100
AcDbEntity
  8
DRAFT
100
AcDbLine
 62
7
  6
CONTINUOUS
 10
-5.4825462644
 20
-13.8502568536
 11
-5.4921463158
 21
-13.8598570694
  0
LINE
  5
490
100
AcDbEntity
  8
DRAFT
100
AcDbLine
 62
7
  6
CONTINUOUS
 10
-5.5
 20
-13.8755647702
 11
-5.4921463174
 21
-13.8677107886
  0
LINE
  5
491
100
AcDbEntity
  8
DRAFT
100
AcDbLine
 62
7
  6
CONTINUOUS
 10
10.0
 20
0.5
 11
9.7730841559
 21
0.2730841559
  0
LINE
  5
492
100
AcDbEntity
  8
0
100
AcDbLine
 62
7
  6
CONTINUOUS
 10
4.8
 20
5.98
 11
6.1
 21
5.98
  0
LINE
  5
493
100
AcDbEntity
  8
DRAFT
100
AcDbLine
 62
7
  6
CONTINUOUS
 10
-10.9926595262
 20
6.2
 11
-9.6285418101
 21
6.2
  0
LINE
  5
494
100
AcDbEntity
  8
DRAFT
100
AcDbLine
 62
7
  6
CONTINUOUS
 10
10.9926595262
 20
6.2
 11
9.6285418101
 21
6.2
  0
LINE
  5
495
100
AcDbEntity
  8
0
100
AcDbLine
 62
7
  6
CONTINUOUS
 10
-6.4
 20
6.9
 11
4.8
 21
6.9
  0
LINE
  5
496
100
AcDbEntity
  8
DRAFT
100
AcDbLine
 62
7
  6
CONTINUOUS
 10
10.0
 20
-0.5
 11
9.7730841559
 21
-0.2730841559
  0
LINE
  5
497
100
AcDbEntity
  8
DRAFT
100
AcDbLine
 62
7
  6
CONTINUOUS
 10
-7.7255647702
 20
17.3755647702
 11
-7.7979977728
 21
17.4479977728
  0
LINE
  5
498
100
AcDbEntity
  8
DRAFT
100
AcDbLine
 62
7
  6
CONTINUOUS
 10
8.5109333469
 20
-3.5508468051
 11
8.3355233043
 21
-3.2
  0
LINE
  5
499
100
AcDbEntity
  8
DRAFT
100
AcDbLine
 62
7
  6
CONTINUOUS
 10
8.25
 20
-2.6710596363
 11
8.1173516096
 21
-2.4057426494
  0
LINE
  5
49A
100
AcDbEntity
  8
DRAFT
100
AcDbLine
 62
7
  6
CONTINUOUS
 10
9.5872686779
 20
-3.7253974543
 11
9.5
 21
-3.5508468051
  0
LINE
  5
49B
100
AcDbEntity
  8
DRAFT
100
AcDbLine
 62
7
  6
CONTINUOUS
 10
9.5121049871
 20
-16.2
 11
9.5494593275
 21
-16.6548771492
  0
LINE
  5
49C
100
AcDbEntity
  8
0
100
AcDbLine
 62
253
  6
CONTINUOUS
 10
7.5666456542
 20
21.3359869487
 11
7.5666456542
 21
20.9959955457
  0
LINE
  5
49D
100
AcDbEntity
  8
0
100
AcDbLine
 62
253
  6
CONTINUOUS
 10
7.5666456542
 20
-20.9959955457
 11
7.5666456542
 21
-21.3359869487
  0
LINE
  5
49E
100
AcDbEntity
  8
DRAFT
100
AcDbLine
 62
7
  6
CONTINUOUS
 10
7.6932753594
 20
13.7322894108
 11
7.6932753594
 21
17.4479977728
  0
LINE
  5
49F
100
AcDbEntity
  8
0
100
AcDbLine
 62
7
  6
CONTINUOUS
 10
7.706365661
 20
12.1808008909
 11
7.706365661
 21
8.9130903017
  0
LINE
  5
4A0
100
AcDbEntity
  8
DRAFT
100
AcDbLine
 62
7
  6
CONTINUOUS
 10
7.7255647702
 20
13.7
 11
7.7255647702
 21
13.6
  0
LINE
  5
4A1
100
AcDbEntity
  8
DRAFT
100
AcDbLine
 62
7
  6
CONTINUOUS
 10
7.7255647702
 20
12.0
 11
7.7255647702
 21
12.2
  0
LINE
  5
4A2
100
AcDbEntity
  8
DRAFT
100
AcDbLine
 62
7
  6
CONTINUOUS
 10
7.7255647702
 20
15.1244352298
 11
7.7255647702
 21
15.65
  0
LINE
  5
4A3
100
AcDbEntity
  8
DRAFT
100
AcDbLine
 62
7
  6
CONTINUOUS
 10
7.7255647702
 20
16.85
 11
7.7255647702
 21
17.3755647702
  0
LINE
  5
4A4
100
AcDbEntity
  8
RACCORDO
100
AcDbLine
 62
7
  6
CONTINUOUS
 10
7.7787986637
 20
10.2
 11
7.7787986637
 21
9.9768345149
  0
LINE
  5
4A5
100
AcDbEntity
  8
RACCORDO
100
AcDbLine
 62
7
  6
CONTINUOUS
 10
7.9542087063
 20
14.8957912937
 11
7.9542087063
 21
14.5108367263
  0
LINE
  5
4A6
100
AcDbEntity
  8
RACCORDO
100
AcDbLine
 62
7
  6
CONTINUOUS
 10
7.9542087063
 20
10.5508468051
 11
7.9542087063
 21
11.0891632737
  0
LINE
  5
4A7
100
AcDbEntity
  8
DRAFT
100
AcDbLine
 62
7
  6
CONTINUOUS
 10
8.0
 20
-5.0
 11
8.0
 21
-2.4057426494
  0
LINE
  5
4A8
100
AcDbEntity
  8
DRAFT
100
AcDbLine
 62
7
  6
CONTINUOUS
 10
8.0
 20
2.3586139741
 11
8.0
 21
5.8
  0
LINE
  5
4A9
100
AcDbEntity
  8
DRAFT
100
AcDbLine
 62
7
  6
CONTINUOUS
 10
8.0
 20
7.5
 11
8.0
 21
8.5
  0
LINE
  5
4AA
100
AcDbEntity
  8
DRAFT
100
AcDbLine
 62
7
  6
CONTINUOUS
 10
8.0008726868
 20
-7.6652121887
 11
8.0008726868
 21
-10.0
  0
LINE
  5
4AB
100
AcDbEntity
  8
DRAFT
100
AcDbLine
 62
7
  6
CONTINUOUS
 10
8.0008726868
 20
-11.4825462644
 11
8.0008726868
 21
-13.7
  0
LINE
  5
4AC
100
AcDbEntity
  8
0
100
AcDbLine
 62
7
  6
CONTINUOUS
 10
8.05
 20
-7.0
 11
8.05
 21
-6.65
  0
LINE
  5
4AD
100
AcDbEntity
  8
0
100
AcDbLine
 62
253
  6
CONTINUOUS
 10
8.0665695018
 20
21.4537354271
 11
8.0665695018
 21
20.9917082642
  0
LINE
  5
4AE
100
AcDbEntity
  8
0
100
AcDbLine
 62
253
  6
CONTINUOUS
 10
8.0665695018
 20
-20.9917082642
 11
8.0665695018
 21
-21.4537354271
  0
LINE
  5
4AF
100
AcDbEntity
  8
0
100
AcDbLine
 62
7
  6
CONTINUOUS
 10
8.1
 20
-7.5
 11
8.1
 21
-7.0
  0
LINE
  5
4B0
100
AcDbEntity
  8
0
100
AcDbLine
 62
7
  6
CONTINUOUS
 10
8.25
 20
21.4
 11
8.25
 21
20.9
  0
LINE
  5
4B1
100
AcDbEntity
  8
0
100
AcDbLine
 62
7
  6
CONTINUOUS
 10
8.25
 20
-20.9
 11
8.25
 21
-21.4
  0
LINE
  5
4B2
100
AcDbEntity
  8
DRAFT
100
AcDbLine
 62
7
  6
CONTINUOUS
 10
8.25
 20
-10.0
 11
8.25
 21
-6.7226898563
  0
LINE
  5
4B3
100
AcDbEntity
  8
ASSI
100
AcDbLine
 62
7
  6
CONTINUOUS
 10
8.25
 20
-6.6
 11
8.25
 21
-5.0
  0
LINE
  5
4B4
100
AcDbEntity
  8
DRAFT
100
AcDbLine
 62
7
  6
CONTINUOUS
 10
8.25
 20
-5.0
 11
8.25
 21
-2.6710596363
  0
LINE
  5
4B5
100
AcDbEntity
  8
RACCORDO
100
AcDbLine
 62
7
  6
CONTINUOUS
 10
8.25
 20
-2.3047941508
 11
8.25
 21
2.3047941508
  0
LINE
  5
4B6
100
AcDbEntity
  8
DRAFT
100
AcDbLine
 62
7
  6
CONTINUOUS
 10
8.25
 20
8.0
 11
8.25
 21
8.9
  0
LINE
  5
4B7
100
AcDbEntity
  8
DRAFT
100
AcDbLine
 62
7
  6
CONTINUOUS
 10
8.2569814942
 20
-13.8502568536
 11
8.2569814942
 21
-10.9930185058
  0
LINE
  5
4B8
100
AcDbEntity
  8
DRAFT
100
AcDbLine
 62
7
  6
CONTINUOUS
 10
8.2726898563
 20
-4.9
 11
8.2726898563
 21
-5.0
  0
LINE
  5
4B9
100
AcDbEntity
  8
DRAFT
100
AcDbLine
 62
7
  6
CONTINUOUS
 10
8.2822894108
 20
-10.9677105892
 11
8.2822894108
 21
-10.5
  0
LINE
  5
4BA
100
AcDbEntity
  8
DRAFT
100
AcDbLine
 62
7
  6
CONTINUOUS
 10
8.2822894108
 20
-10.0322894108
 11
8.2822894108
 21
-9.95
  0
LINE
  5
4BB
100
AcDbEntity
  8
DRAFT
100
AcDbLine
 62
7
  6
CONTINUOUS
 10
8.2822894108
 20
-8.75
 11
8.2822894108
 21
-8.2244352298
  0
LINE
  5
4BC
100
AcDbEntity
  8
DRAFT
100
AcDbLine
 62
7
  6
CONTINUOUS
 10
8.3198149423
 20
-10.5375255315
 11
8.3198149423
 21
-13.9130903017
  0
LINE
  5
4BD
100
AcDbEntity
  8
RACCORDO
100
AcDbLine
 62
7
  6
CONTINUOUS
 10
8.3355233043
 20
9.9768345149
 11
8.3355233043
 21
8.0
  0
LINE
  5
4BE
100
AcDbEntity
  8
DRAFT
100
AcDbLine
 62
7
  6
CONTINUOUS
 10
8.3355233043
 20
-3.2
 11
8.3355233043
 21
-2.5
  0
LINE
  5
4BF
100
AcDbEntity
  8
DRAFT
100
AcDbLine
 62
7
  6
CONTINUOUS
 10
8.5
 20
5.8881634904
 11
8.5
 21
7.4118365096
  0
LINE
  5
4C0
100
AcDbEntity
  8
RACCORDO
100
AcDbLine
 62
7
  6
CONTINUOUS
 10
8.5109333469
 20
-7.9957912937
 11
8.5109333469
 21
-7.7312924592
  0
LINE
  5
4C1
100
AcDbEntity
  8
RACCORDO
100
AcDbLine
 62
7
  6
CONTINUOUS
 10
8.5109333469
 20
-3.8687075408
 11
8.5109333469
 21
-3.5508468051
  0
LINE
  5
4C2
100
AcDbEntity
  8
0
100
AcDbLine
 62
7
  6
CONTINUOUS
 10
8.7
 20
-6.65
 11
8.7
 21
-6.6
  0
LINE
  5
4C3
100
AcDbEntity
  8
DRAFT
100
AcDbLine
 62
7
  6
CONTINUOUS
 10
8.75
 20
13.6
 11
8.75
 21
12.0
  0
LINE
  5
4C4
100
AcDbEntity
  8
DRAFT
100
AcDbLine
 62
7
  6
CONTINUOUS
 10
8.75
 20
8.0
 11
8.75
 21
2.5
  0
LINE
  5
4C5
100
AcDbEntity
  8
DRAFT
100
AcDbLine
 62
7
  6
CONTINUOUS
 10
8.778184492
 20
17.221815508
 11
8.778184492
 21
15.378184492
  0
LINE
  5
4C6
100
AcDbEntity
  8
DRAFT
100
AcDbLine
 62
7
  6
CONTINUOUS
 10
8.778184492
 20
-8.478184492
 11
8.778184492
 21
-10.321815508
  0
LINE
  5
4C7
100
AcDbEntity
  8
DRAFT
100
AcDbLine
 62
7
  6
CONTINUOUS
 10
8.7867049498
 20
17.2132950502
 11
8.7867049498
 21
15.3867049498
  0
LINE
  5
4C8
100
AcDbEntity
  8
DRAFT
100
AcDbLine
 62
7
  6
CONTINUOUS
 10
8.7867049498
 20
-8.4867049498
 11
8.7867049498
 21
-10.3132950502
  0
LINE
  5
4C9
100
AcDbEntity
  8
RACCORDO
100
AcDbLine
 62
7
  6
CONTINUOUS
 10
8.860915679
 20
11.8889172239
 11
8.860915679
 21
13.7110827761
  0
LINE
  5
4CA
100
AcDbEntity
  8
RACCORDO
100
AcDbLine
 62
253
  6
CONTINUOUS
 10
9.05
 20
-2.2730841559
 11
9.05
 21
2.2730841559
  0
LINE
  5
4CB
100
AcDbEntity
  8
DRAFT
100
AcDbLine
 62
7
  6
CONTINUOUS
 10
9.2216129175
 20
-13.9130903017
 11
9.2216129175
 21
-10.5375255315
  0
LINE
  5
4CC
100
AcDbEntity
  8
ASSI
100
AcDbLine
 62
7
  6
CONTINUOUS
 10
9.25
 20
-6.6
 11
9.25
 21
-5.0
  0
LINE
  5
4CD
100
AcDbEntity
  8
RACCORDO
100
AcDbLine
 62
7
  6
CONTINUOUS
 10
8.0344917046
 20
-16.6548771492
 11
8.0594950616
 21
-15.5
  0
LINE
  5
4CE
100
AcDbEntity
  8
DRAFT
100
AcDbLine
 62
7
  6
CONTINUOUS
 10
8.2547430141
 20
-15.507774954
 11
8.2351447635
 21
-16.4129962748
  0
LINE
  5
4CF
100
AcDbEntity
  8
RACCORDO
100
AcDbLine
 62
253
  6
CONTINUOUS
 10
7.2040044543
 20
-20.0049452141
 11
7.3480695647
 21
-18.7051734659
  0
LINE
  5
4D0
100
AcDbEntity
  8
RACCORDO
100
AcDbLine
 62
7
  6
CONTINUOUS
 10
4.5612601473
 20
-19.4260209733
 11
4.5339434386
 21
-19.5900670064
  0
LINE
  5
4D1
100
AcDbEntity
  8
DRAFT
100
AcDbLine
 62
7
  6
CONTINUOUS
 10
8.25
 20
-2.6710596363
 11
8.3355233043
 21
-2.5
  0
LINE
  5
4D2
100
AcDbEntity
  8
DRAFT
100
AcDbLine
 62
7
  6
CONTINUOUS
 10
-3.9700513793
 20
-16.8647171262
 11
-3.7693983204
 21
-16.6228362517
  0
LINE
  5
4D3
100
AcDbEntity
  8
RACCORDO
100
AcDbLine
 62
7
  6
CONTINUOUS
 10
8.504012777
 20
-4.6686770793
 11
8.2726898563
 21
-4.9
  0
LINE
  5
4D4
100
AcDbEntity
  8
DRAFT
100
AcDbLine
 62
7
  6
CONTINUOUS
 10
-8.0
 20
7.5
 11
-8.5
 21
7.4118365096
  0
LINE
  5
4D5
100
AcDbEntity
  8
DRAFT
100
AcDbLine
 62
7
  6
CONTINUOUS
 10
-8.75
 20
8.0
 11
-8.25
 21
8.0
  0
LINE
  5
4D6
100
AcDbEntity
  8
DRAFT
100
AcDbLine
 62
7
  6
CONTINUOUS
 10
8.25
 20
8.0
 11
8.75
 21
8.0
  0
LINE
  5
4D7
100
AcDbEntity
  8
0
100
AcDbLine
 62
7
  6
CONTINUOUS
 10
-8.0
 20
8.5
 11
8.0
 21
8.5
  0
LINE
  5
4D8
100
AcDbEntity
  8
0
100
AcDbLine
 62
7
  6
CONTINUOUS
 10
-8.25
 20
8.9
 11
8.25
 21
8.9
  0
LINE
  5
4D9
100
AcDbEntity
  8
CURVE
100
AcDbLine
 62
7
  6
DASHED
 10
7.7255647702
 20
8.9
 11
-7.7255647702
 21
8.9
  0
LINE
  5
4DA
100
AcDbEntity
  8
0
100
AcDbLine
 62
7
  6
CONTINUOUS
 10
-7.706365661
 20
8.9130903017
 11
7.706365661
 21
8.9130903017
  0
LINE
  5
4DB
100
AcDbEntity
  8
0
100
AcDbLine
 62
7
  6
CONTINUOUS
 10
-0.45
 20
8.9630903017
 11
0.45
 21
8.9630903017
  0
LINE
  5
4DC
100
AcDbEntity
  8
RACCORDO
100
AcDbLine
 62
253
  6
CONTINUOUS
 10
-8.3268725919
 20
8.9768725919
 11
-7.7701479512
 21
8.9768725919
  0
LINE
  5
4DD
100
AcDbEntity
  8
RACCORDO
100
AcDbLine
 62
253
  6
CONTINUOUS
 10
7.7701479512
 20
8.9768725919
 11
8.3268725919
 21
8.9768725919
  0
LINE
  5
4DE
100
AcDbEntity
  8
RACCORDO
100
AcDbLine
 62
253
  6
CONTINUOUS
 10
0.45
 20
8.9810498405
 11
-0.45
 21
8.9810498405
  0
LINE
  5
4DF
100
AcDbEntity
  8
RACCORDO
100
AcDbLine
 62
253
  6
CONTINUOUS
 10
0.45
 20
9.3224407357
 11
-0.45
 21
9.3224407357
  0
LINE
  5
4E0
100
AcDbEntity
  8
DRAFT
100
AcDbLine
 62
7
  6
CONTINUOUS
 10
8.0
 20
7.5
 11
8.5
 21
7.4118365096
  0
LINE
  5
4E1
100
AcDbEntity
  8
RACCORDO
100
AcDbLine
 62
7
  6
CONTINUOUS
 10
-7.7255647702
 20
13.6
 11
-7.9472576745
 21
13.7108443418
  0
LINE
  5
4E2
100
AcDbEntity
  8
RACCORDO
100
AcDbLine
 62
7
  6
CONTINUOUS
 10
-7.7162893387
 20
18.9662893387
 11
-7.75
 21
19.0
  0
LINE
  5
4E3
100
AcDbEntity
  8
0
100
AcDbLine
 62
7
  6
CONTINUOUS
 10
6.1
 20
5.0
 11
7.5
 21
2.0
  0
LINE
  5
4E4
100
AcDbEntity
  8
0
100
AcDbLine
 62
7
  6
CONTINUOUS
 10
11.1412731322
 20
-21.0226497308
 11
11.15
 21
-21.6
  0
LINE
  5
4E5
100
AcDbEntity
  8
0
100
AcDbLine
 62
253
  6
CONTINUOUS
 10
9.8956323968
 20
23.6278312164
 11
9.9007229979
 21
23.1226497308
  0
LINE
  5
4E6
100
AcDbEntity
  8
0
100
AcDbLine
 62
253
  6
CONTINUOUS
 10
10.145628166
 20
23.8443375673
 11
10.15
 21
23.4104851482
  0
LINE
  5
4E7
100
AcDbEntity
  8
DRAFT
100
AcDbLine
 62
7
  6
CONTINUOUS
 10
9.5494593275
 20
-16.6548771492
 11
9.5553984776
 21
-19.4260209733
  0
LINE
  5
4E8
100
AcDbEntity
  8
0
100
AcDbLine
 62
7
  6
CONTINUOUS
 10
9.4
 20
-6.7340347844
 11
9.4
 21
-4.8659652156
  0
LINE
  5
4E9
100
AcDbEntity
  8
RACCORDO
100
AcDbLine
 62
7
  6
CONTINUOUS
 10
9.45
 20
-16.4129962748
 11
9.45
 21
-15.8055387995
  0
LINE
  5
4EA
100
AcDbEntity
  8
DRAFT
100
AcDbLine
 62
7
  6
CONTINUOUS
 10
9.4522218454
 20
-10.5
 11
9.4522218454
 21
-10.3218668415
  0
LINE
  5
4EB
100
AcDbEntity
  8
DRAFT
100
AcDbLine
 62
7
  6
CONTINUOUS
 10
9.4522218454
 20
-8.4781331585
 11
9.4522218454
 21
-8.2244352298
  0
LINE
  5
4EC
100
AcDbEntity
  8
DRAFT
100
AcDbLine
 62
7
  6
CONTINUOUS
 10
9.4522218454
 20
15.1244352298
 11
9.4522218454
 21
15.3781331585
  0
LINE
  5
4ED
100
AcDbEntity
  8
DRAFT
100
AcDbLine
 62
7
  6
CONTINUOUS
 10
9.4522218454
 20
17.2218668415
 11
9.4522218454
 21
17.3755647702
  0
LINE
  5
4EE
100
AcDbEntity
  8
RACCORDO
100
AcDbLine
 62
7
  6
CONTINUOUS
 10
9.5
 20
-16.2
 11
9.5
 21
-15.9999428868
  0
LINE
  5
4EF
100
AcDbEntity
  8
DRAFT
100
AcDbLine
 62
7
  6
CONTINUOUS
 10
9.5
 20
-14.1914773842
 11
9.5
 21
-10.815912614
  0
LINE
  5
4F0
100
AcDbEntity
  8
RACCORDO
100
AcDbLine
 62
7
  6
CONTINUOUS
 10
9.5
 20
-7.9957912937
 11
9.5
 21
-3.5508468051
  0
LINE
  5
4F1
100
AcDbEntity
  8
RACCORDO
100
AcDbLine
 62
7
  6
CONTINUOUS
 10
9.5
 20
10.5508468051
 11
9.5
 21
14.8957912937
  0
LINE
  5
4F2
100
AcDbEntity
  8
SMUSSO
100
AcDbLine
 62
7
  6
CONTINUOUS
 10
9.5121049871
 20
-16.2
 11
9.5121049871
 21
-15.5
  0
LINE
  5
4F3
100
AcDbEntity
  8
SMUSSO
100
AcDbLine
 62
7
  6
CONTINUOUS
 10
9.5121049871
 20
-10.5149650843
 11
9.5121049871
 21
-10.3218714021
  0
LINE
  5
4F4
100
AcDbEntity
  8
SMUSSO
100
AcDbLine
 62
7
  6
CONTINUOUS
 10
9.5121049871
 20
-8.4781285979
 11
9.5121049871
 21
-8.2094701455
  0
LINE
  5
4F5
100
AcDbEntity
  8
DRAFT
100
AcDbLine
 62
7
  6
CONTINUOUS
 10
9.55
 20
17.4
 11
9.55
 21
15.1
  0
LINE
  5
4F6
100
AcDbEntity
  8
DRAFT
100
AcDbLine
 62
7
  6
CONTINUOUS
 10
9.55
 20
10.2
 11
9.55
 21
4.2
  0
LINE
  5
4F7
100
AcDbEntity
  8
DRAFT
100
AcDbLine
 62
7
  6
CONTINUOUS
 10
9.55
 20
-10.5244352298
 11
9.55
 21
-8.2
  0
LINE
  5
4F8
100
AcDbEntity
  8
DRAFT
100
AcDbLine
 62
7
  6
CONTINUOUS
 10
9.5872686779
 20
-7.9085226158
 11
9.5872686779
 21
-3.7253974543
  0
LINE
  5
4F9
100
AcDbEntity
  8
DRAFT
100
AcDbLine
 62
7
  6
CONTINUOUS
 10
9.5872686779
 20
10.7253974543
 11
9.5872686779
 21
14.8085226158
  0
LINE
  5
4FA
100
AcDbEntity
  8
RACCORDO
100
AcDbLine
 62
7
  6
CONTINUOUS
 10
9.6133443637
 20
-20.0889833137
 11
9.6133443637
 21
-19.7897929133
  0
LINE
  5
4FB
100
AcDbEntity
  8
DRAFT
100
AcDbLine
 62
7
  6
CONTINUOUS
 10
9.6285418101
 20
10.3570955844
 11
9.6285418101
 21
6.2
  0
LINE
  5
4FC
100
AcDbEntity
  8
DRAFT
100
AcDbLine
 62
7
  6
CONTINUOUS
 10
9.65
 20
20.1990396502
 11
9.65
 21
19.0
  0
LINE
  5
4FD
100
AcDbEntity
  8
DRAFT
100
AcDbLine
 62
7
  6
CONTINUOUS
 10
9.65
 20
-15.5
 11
9.65
 21
-20.1990396502
  0
LINE
  5
4FE
100
AcDbEntity
  8
DRAFT
100
AcDbLine
 62
7
  6
CONTINUOUS
 10
9.7730841559
 20
-2.2730841559
 11
9.7730841559
 21
2.2730841559
  0
LINE
  5
4FF
100
AcDbEntity
  8
DRAFT
100
AcDbLine
 62
7
  6
CONTINUOUS
 10
9.8414773842
 20
17.6914773842
 11
9.8414773842
 21
14.8085226158
  0
LINE
  5
500
100
AcDbEntity
  8
DRAFT
100
AcDbLine
 62
7
  6
CONTINUOUS
 10
9.8414773842
 20
-7.9085226158
 11
9.8414773842
 21
-10.815912614
  0
LINE
  5
501
100
AcDbEntity
  8
0
100
AcDbLine
 62
253
  6
CONTINUOUS
 10
9.8956323968
 20
-23.6278312164
 11
9.8956323968
 21
-24.495628166
  0
LINE
  5
502
100
AcDbEntity
  8
0
100
AcDbLine
 62
253
  6
CONTINUOUS
 10
9.8956323968
 20
23.6278312164
 11
9.8956323968
 21
24.495628166
  0
LINE
  5
503
100
AcDbEntity
  8
DRAFT
100
AcDbLine
 62
7
  6
CONTINUOUS
 10
10.0
 20
-2.5
 11
10.0
 21
-0.5
  0
LINE
  5
504
100
AcDbEntity
  8
DRAFT
100
AcDbLine
 62
7
  6
CONTINUOUS
 10
10.0
 20
0.5
 11
10.0
 21
2.5
  0
LINE
  5
505
100
AcDbEntity
  8
0
100
AcDbLine
 62
7
  6
CONTINUOUS
 10
10.145628166
 20
-24.2456323968
 11
10.145628166
 21
-23.8443375673
  0
LINE
  5
506
100
AcDbEntity
  8
0
100
AcDbLine
 62
7
  6
CONTINUOUS
 10
10.145628166
 20
23.8443375673
 11
10.145628166
 21
24.2456323968
  0
LINE
  5
507
100
AcDbEntity
  8
RACCORDO
100
AcDbLine
 62
7
  6
CONTINUOUS
 10
10.15
 20
23.4104851482
 11
10.15
 21
22.6002134903
  0
LINE
  5
508
100
AcDbEntity
  8
0
100
AcDbLine
 62
7
  6
CONTINUOUS
 10
10.15
 20
-23.8443375673
 11
10.15
 21
-23.4104851482
  0
LINE
  5
509
100
AcDbEntity
  8
RACCORDO
100
AcDbLine
 62
7
  6
CONTINUOUS
 10
10.15
 20
-22.6002134903
 11
10.15
 21
-23.4104851482
  0
LINE
  5
50A
100
AcDbEntity
  8
0
100
AcDbLine
 62
7
  6
CONTINUOUS
 10
10.15
 20
23.4104851482
 11
10.15
 21
23.8443375673
  0
LINE
  5
50B
100
AcDbEntity
  8
DRAFT
100
AcDbLine
 62
7
  6
CONTINUOUS
 10
10.8085226158
 20
-15.2085226158
 11
10.8085226158
 21
-3.7253974543
  0
LINE
  5
50C
100
AcDbEntity
  8
DRAFT
100
AcDbLine
 62
7
  6
CONTINUOUS
 10
10.8085226158
 20
10.7253974543
 11
10.8085226158
 21
18.7085226158
  0
LINE
  5
50D
100
AcDbEntity
  8
DRAFT
100
AcDbLine
 62
7
  6
CONTINUOUS
 10
10.9926595262
 20
10.3570955844
 11
10.9926595262
 21
6.2
  0
LINE
  5
50E
100
AcDbEntity
  8
DRAFT
100
AcDbLine
 62
7
  6
CONTINUOUS
 10
11.0712013363
 20
-3.2
 11
11.0712013363
 21
4.2
  0
LINE
  5
50F
100
AcDbEntity
  8
DRAFT
100
AcDbLine
 62
7
  6
CONTINUOUS
 10
11.1
 20
-15.5
 11
11.1
 21
19.0
  0
LINE
  5
510
100
AcDbEntity
  8
0
100
AcDbLine
 62
7
  6
CONTINUOUS
 10
11.1412731322
 20
21.8941990932
 11
11.1412731322
 21
21.0226497308
  0
LINE
  5
511
100
AcDbEntity
  8
0
100
AcDbLine
 62
7
  6
CONTINUOUS
 10
11.1412731322
 20
-21.0226497308
 11
11.1412731322
 21
-21.8941990932
  0
LINE
  5
512
100
AcDbEntity
  8
0
100
AcDbLine
 62
7
  6
CONTINUOUS
 10
11.15
 20
21.900016923
 11
11.15
 21
21.6
  0
LINE
  5
513
100
AcDbEntity
  8
0
100
AcDbLine
 62
7
  6
CONTINUOUS
 10
11.15
 20
-21.900016923
 11
11.15
 21
-21.6
  0
LINE
  5
514
100
AcDbEntity
  8
0
100
AcDbLine
 62
7
  6
CONTINUOUS
 10
11.1674550649
 20
21.0226497308
 11
11.1674550649
 21
-21.0226497308
  0
LINE
  5
515
100
AcDbEntity
  8
0
100
AcDbLine
 62
253
  6
CONTINUOUS
 10
9.9007229979
 20
-23.1226497308
 11
9.8956323968
 21
-23.6278312164
  0
LINE
  5
516
100
AcDbEntity
  8
0
100
AcDbLine
 62
253
  6
CONTINUOUS
 10
10.15
 20
-23.4104851482
 11
10.145628166
 21
-23.8443375673
  0
LINE
  5
517
100
AcDbEntity
  8
0
100
AcDbLine
 62
7
  6
CONTINUOUS
 10
11.15
 20
21.6
 11
11.1412731322
 21
21.0226497308
  0
LINE
  5
518
100
AcDbEntity
  8
DRAFT
100
AcDbLine
 62
7
  6
CONTINUOUS
 10
9.6285418101
 20
6.2
 11
9.55
 21
4.2
  0
LINE
  5
519
100
AcDbEntity
  8
DRAFT
100
AcDbLine
 62
7
  6
CONTINUOUS
 10
9.5
 20
-16.2
 11
9.482508826
 21
-16.4129962748
  0
LINE
  5
51A
100
AcDbEntity
  8
RACCORDO
100
AcDbLine
 62
7
  6
CONTINUOUS
 10
7.3472971589
 20
-19.4260209733
 11
7.3199804501
 21
-19.5900670064
  0
LINE
  5
51B
100
AcDbEntity
  8
DRAFT
100
AcDbLine
 62
7
  6
CONTINUOUS
 10
7.3
 20
-20.9
 11
7.3183264224
 21
-20.7899436635
  0
LINE
  5
51C
100
AcDbEntity
  8
RACCORDO
100
AcDbLine
 62
7
  6
CONTINUOUS
 10
9.4966110309
 20
-4.6686770793
 11
9.4
 21
-4.8659652156
  0
LINE
  5
51D
100
AcDbEntity
  8
0
100
AcDbLine
 62
7
  6
CONTINUOUS
 10
7.5
 20
-8.5
 11
8.1
 21
-7.5
  0
LINE
  5
51E
100
AcDbEntity
  8
DRAFT
100
AcDbLine
 62
7
  6
CONTINUOUS
 10
-6.5959955457
 20
-20.1143219681
 11
-6.4816735776
 21
-20.0
  0
LINE
  5
51F
100
AcDbEntity
  8
DRAFT
100
AcDbLine
 62
7
  6
CONTINUOUS
 10
8.25
 20
-6.7226898563
 11
8.2726898563
 21
-6.7
  0
LINE
  5
520
100
AcDbEntity
  8
RACCORDO
100
AcDbLine
 62
253
  6
CONTINUOUS
 10
-8.3355233043
 20
9.9768345149
 11
-7.7787986637
 21
9.9768345149
  0
LINE
  5
521
100
AcDbEntity
  8
RACCORDO
100
AcDbLine
 62
253
  6
CONTINUOUS
 10
7.7787986637
 20
9.9768345149
 11
8.3355233043
 21
9.9768345149
  0
LINE
  5
522
100
AcDbEntity
  8
DRAFT
100
AcDbLine
 62
7
  6
CONTINUOUS
 10
9.55
 20
10.2
 11
7.7787986637
 21
10.2
  0
LINE
  5
523
100
AcDbEntity
  8
DRAFT
100
AcDbLine
 62
7
  6
CONTINUOUS
 10
-7.7787986637
 20
10.2
 11
-9.55
 21
10.2
  0
LINE
  5
524
100
AcDbEntity
  8
DRAFT
100
AcDbLine
 62
7
  6
CONTINUOUS
 10
-10.9926595262
 20
10.3570955844
 11
-9.6285418101
 21
10.3570955844
  0
LINE
  5
525
100
AcDbEntity
  8
DRAFT
100
AcDbLine
 62
7
  6
CONTINUOUS
 10
10.9926595262
 20
10.3570955844
 11
9.6285418101
 21
10.3570955844
  0
LINE
  5
526
100
AcDbEntity
  8
0
100
AcDbLine
 62
7
  6
CONTINUOUS
 10
-0.45
 20
10.4892728991
 11
0.45
 21
10.4892728991
  0
LINE
  5
527
100
AcDbEntity
  8
DRAFT
100
AcDbLine
 62
7
  6
CONTINUOUS
 10
-9.5
 20
10.5508468051
 11
-7.9542087063
 21
10.5508468051
  0
LINE
  5
528
100
AcDbEntity
  8
DRAFT
100
AcDbLine
 62
7
  6
CONTINUOUS
 10
7.9542087063
 20
10.5508468051
 11
9.5
 21
10.5508468051
  0
LINE
  5
529
100
AcDbEntity
  8
DRAFT
100
AcDbLine
 62
7
  6
CONTINUOUS
 10
-10.8085226158
 20
10.7253974543
 11
-9.5872686779
 21
10.7253974543
  0
LINE
  5
52A
100
AcDbEntity
  8
DRAFT
100
AcDbLine
 62
7
  6
CONTINUOUS
 10
9.5872686779
 20
10.7253974543
 11
10.8085226158
 21
10.7253974543
  0
LINE
  5
52B
100
AcDbEntity
  8
RACCORDO
100
AcDbLine
 62
253
  6
CONTINUOUS
 10
9.5
 20
11.0891632737
 11
7.9542087063
 21
11.0891632737
  0
LINE
  5
52C
100
AcDbEntity
  8
RACCORDO
100
AcDbLine
 62
253
  6
CONTINUOUS
 10
-7.9542087063
 20
11.0891632737
 11
-9.5
 21
11.0891632737
  0
LINE
  5
52D
100
AcDbEntity
  8
RACCORDO
100
AcDbLine
 62
7
  6
CONTINUOUS
 10
-6.5959955457
 20
20.1143219681
 11
-6.4440923953
 21
19.9624188177
  0
LINE
  5
52E
100
AcDbEntity
  8
RACCORDO
100
AcDbLine
 62
7
  6
CONTINUOUS
 10
7.3555468846
 20
20.5664222561
 11
7.3
 21
20.9
  0
LINE
  5
52F
100
AcDbEntity
  8
DRAFT
100
AcDbLine
 62
7
  6
CONTINUOUS
 10
10.9926595262
 20
6.2
 11
11.0712013363
 21
4.2
  0
LINE
  5
530
100
AcDbEntity
  8
0
100
AcDbLine
 62
7
  6
CONTINUOUS
 10
11.15
 20
21.6
 11
11.1674550649
 21
21.0226497308
  0
LINE
  5
531
100
AcDbEntity
  8
0
100
AcDbLine
 62
7
  6
CONTINUOUS
 10
11.1674550649
 20
-21.0226497308
 11
11.15
 21
-21.6
  0
LINE
  5
532
100
AcDbEntity
  8
DRAFT
100
AcDbLine
 62
7
  6
CONTINUOUS
 10
11.0712013363
 20
-3.2
 11
10.8085226158
 21
-3.7253974543
  0
LINE
  5
533
100
AcDbEntity
  8
DRAFT
100
AcDbLine
 62
7
  6
CONTINUOUS
 10
8.2822894108
 20
-8.2244352298
 11
8.5109333469
 21
-7.9957912937
  0
LINE
  5
534
100
AcDbEntity
  8
DRAFT
100
AcDbLine
 62
7
  6
CONTINUOUS
 10
9.5872686779
 20
-7.9085226158
 11
9.5
 21
-7.9957912937
  0
LINE
  5
535
100
AcDbEntity
  8
DRAFT
100
AcDbLine
 62
7
  6
CONTINUOUS
 10
9.8414773842
 20
-7.9085226158
 11
9.55
 21
-8.2
  0
LINE
  5
536
100
AcDbEntity
  8
0
100
AcDbLine
 62
7
  6
CONTINUOUS
 10
-4.45
 20
-22.4
 11
-4.406077753
 21
-22.356077753
  0
LINE
  5
537
100
AcDbEntity
  8
0
100
AcDbLine
 62
7
  6
CONTINUOUS
 10
-7.1905416262
 20
-22.3359700255
 11
-7.2558178298
 21
-22.3941821702
  0
LINE
  5
538
100
AcDbEntity
  8
0
100
AcDbLine
 62
253
  6
CONTINUOUS
 10
-11.15
 20
-21.900016923
 11
-11.1412731322
 21
-21.8941990932
  0
LINE
  5
539
100
AcDbEntity
  8
0
100
AcDbLine
 62
253
  6
CONTINUOUS
 10
-10.6500063461
 20
-22.4
 11
-10.6412794783
 21
-22.3941821702
  0
LINE
  5
53A
100
AcDbEntity
  8
RACCORDO
100
AcDbLine
 62
7
  6
CONTINUOUS
 10
8.8608443418
 20
11.8891556582
 11
7.9472576745
 21
11.8891556582
  0
LINE
  5
53B
100
AcDbEntity
  8
RACCORDO
100
AcDbLine
 62
7
  6
CONTINUOUS
 10
-7.9472576745
 20
11.8891556582
 11
-8.8608443418
 21
11.8891556582
  0
LINE
  5
53C
100
AcDbEntity
  8
DRAFT
100
AcDbLine
 62
7
  6
CONTINUOUS
 10
-8.75
 20
12.0
 11
-7.7255647702
 21
12.0
  0
LINE
  5
53D
100
AcDbEntity
  8
DRAFT
100
AcDbLine
 62
7
  6
CONTINUOUS
 10
7.7255647702
 20
12.0
 11
8.75
 21
12.0
  0
LINE
  5
53E
100
AcDbEntity
  8
0
100
AcDbLine
 62
7
  6
CONTINUOUS
 10
-7.706365661
 20
12.1808008909
 11
7.706365661
 21
12.1808008909
  0
LINE
  5
53F
100
AcDbEntity
  8
DRAFT
100
AcDbLine
 62
7
  6
CONTINUOUS
 10
7.7255647702
 20
12.2
 11
-7.7255647702
 21
12.2
  0
LINE
  5
540
100
AcDbEntity
  8
0
100
AcDbLine
 62
253
  6
CONTINUOUS
 10
-11.1412731322
 20
21.8941990932
 11
-11.15
 21
21.900016923
  0
LINE
  5
541
100
AcDbEntity
  8
0
100
AcDbLine
 62
253
  6
CONTINUOUS
 10
-10.6412794783
 20
22.3941821702
 11
-10.6500063461
 21
22.4
  0
LINE
  5
542
100
AcDbEntity
  8
0
100
AcDbLine
 62
7
  6
CONTINUOUS
 10
-7.1905416262
 20
22.3359700255
 11
-7.2558178298
 21
22.3941821702
  0
LINE
  5
543
100
AcDbEntity
  8
0
100
AcDbLine
 62
7
  6
CONTINUOUS
 10
-4.45
 20
22.4
 11
-4.406077753
 21
22.356077753
  0
LINE
  5
544
100
AcDbEntity
  8
DRAFT
100
AcDbLine
 62
7
  6
CONTINUOUS
 10
8.7867049498
 20
-10.3132950502
 11
8.778184492
 21
-10.321815508
  0
LINE
  5
545
100
AcDbEntity
  8
DRAFT
100
AcDbLine
 62
7
  6
CONTINUOUS
 10
8.2569814942
 20
-10.9930185058
 11
8.2822894108
 21
-10.9677105892
  0
LINE
  5
546
100
AcDbEntity
  8
0
100
AcDbLine
 62
7
  6
CONTINUOUS
 10
-4.4063493531
 20
-23.9563493531
 11
-4.45
 21
-24.0
  0
LINE
  5
547
100
AcDbEntity
  8
DRAFT
100
AcDbLine
 62
7
  6
CONTINUOUS
 10
9.4522218454
 20
17.3755647702
 11
9.55
 21
17.4
  0
LINE
  5
548
100
AcDbEntity
  8
DRAFT
100
AcDbLine
 62
7
  6
CONTINUOUS
 10
8.75
 20
13.6
 11
7.7255647702
 21
13.6
  0
LINE
  5
549
100
AcDbEntity
  8
DRAFT
100
AcDbLine
 62
7
  6
CONTINUOUS
 10
-7.7255647702
 20
13.6
 11
-8.75
 21
13.6
  0
LINE
  5
54A
100
AcDbEntity
  8
DRAFT
100
AcDbLine
 62
7
  6
CONTINUOUS
 10
-7.7255647702
 20
13.7
 11
7.7255647702
 21
13.7
  0
LINE
  5
54B
100
AcDbEntity
  8
RACCORDO
100
AcDbLine
 62
7
  6
CONTINUOUS
 10
-8.8608443418
 20
13.7108443418
 11
-7.9472576745
 21
13.7108443418
  0
LINE
  5
54C
100
AcDbEntity
  8
RACCORDO
100
AcDbLine
 62
7
  6
CONTINUOUS
 10
7.9472576745
 20
13.7108443418
 11
8.8608443418
 21
13.7108443418
  0
LINE
  5
54D
100
AcDbEntity
  8
DRAFT
100
AcDbLine
 62
7
  6
CONTINUOUS
 10
-7.6932753594
 20
13.7322894108
 11
7.6932753594
 21
13.7322894108
  0
LINE
  5
54E
100
AcDbEntity
  8
RACCORDO
100
AcDbLine
 62
253
  6
CONTINUOUS
 10
-9.5
 20
14.5108367263
 11
-7.9542087063
 21
14.5108367263
  0
LINE
  5
54F
100
AcDbEntity
  8
RACCORDO
100
AcDbLine
 62
253
  6
CONTINUOUS
 10
7.9542087063
 20
14.5108367263
 11
9.5
 21
14.5108367263
  0
LINE
  5
550
100
AcDbEntity
  8
DRAFT
100
AcDbLine
 62
7
  6
CONTINUOUS
 10
9.8414773842
 20
14.8085226158
 11
9.5872686779
 21
14.8085226158
  0
LINE
  5
551
100
AcDbEntity
  8
DRAFT
100
AcDbLine
 62
7
  6
CONTINUOUS
 10
-9.5872686779
 20
14.8085226158
 11
-9.8414773842
 21
14.8085226158
  0
LINE
  5
552
100
AcDbEntity
  8
DRAFT
100
AcDbLine
 62
7
  6
CONTINUOUS
 10
-9.4522218454
 20
17.3755647702
 11
-9.55
 21
17.4
  0
LINE
  5
553
100
AcDbEntity
  8
RACCORDO
100
AcDbLine
 62
7
  6
CONTINUOUS
 10
7.7255647702
 20
12.0
 11
7.9472576745
 21
11.8891556582
  0
LINE
  5
554
100
AcDbEntity
  8
0
100
AcDbLine
 62
7
  6
CONTINUOUS
 10
-4.4063493531
 20
23.9563493531
 11
-4.45
 21
24.0
  0
LINE
  5
555
100
AcDbEntity
  8
RACCORDO
100
AcDbLine
 62
7
  6
CONTINUOUS
 10
8.75
 20
12.0
 11
8.8608443418
 21
11.8891556582
  0
LINE
  5
556
100
AcDbEntity
  8
DRAFT
100
AcDbLine
 62
7
  6
CONTINUOUS
 10
10.9926595262
 20
10.3570955844
 11
10.8085226158
 21
10.7253974543
  0
LINE
  5
557
100
AcDbEntity
  8
RACCORDO
100
AcDbLine
 62
253
  6
CONTINUOUS
 10
4.2636178101
 20
-17.236393613
 11
4.2043367793
 21
-17.2956746438
  0
LINE
  5
558
100
AcDbEntity
  8
RACCORDO
100
AcDbLine
 62
253
  6
CONTINUOUS
 10
4.563284597
 20
-17.5367039799
 11
4.5043253562
 21
-17.5956632207
  0
LINE
  5
559
100
AcDbEntity
  8
DRAFT
100
AcDbLine
 62
7
  6
CONTINUOUS
 10
6.0
 20
17.5160673416
 11
6.7019074668
 21
17.6914773842
  0
LINE
  5
55A
100
AcDbEntity
  8
DRAFT
100
AcDbLine
 62
7
  6
CONTINUOUS
 10
9.55
 20
15.3984599645
 11
8.7867049498
 21
15.3867049498
  0
LINE
  5
55B
100
AcDbEntity
  8
DRAFT
100
AcDbLine
 62
7
  6
CONTINUOUS
 10
-9.5
 20
14.8957912937
 11
-7.9542087063
 21
14.8957912937
  0
LINE
  5
55C
100
AcDbEntity
  8
DRAFT
100
AcDbLine
 62
7
  6
CONTINUOUS
 10
9.5
 20
14.8957912937
 11
7.9542087063
 21
14.8957912937
  0
LINE
  5
55D
100
AcDbEntity
  8
DRAFT
100
AcDbLine
 62
7
  6
CONTINUOUS
 10
9.4522218454
 20
15.1244352298
 11
7.7255647702
 21
15.1244352298
  0
LINE
  5
55E
100
AcDbEntity
  8
DRAFT
100
AcDbLine
 62
7
  6
CONTINUOUS
 10
-7.7255647702
 20
15.1244352298
 11
-9.4522218454
 21
15.1244352298
  0
LINE
  5
55F
100
AcDbEntity
  8
DRAFT
100
AcDbLine
 62
7
  6
CONTINUOUS
 10
8.778184492
 20
15.65
 11
7.7255647702
 21
15.65
  0
LINE
  5
560
100
AcDbEntity
  8
DRAFT
100
AcDbLine
 62
7
  6
CONTINUOUS
 10
-7.7255647702
 20
15.65
 11
-8.7781811688
 21
15.65
  0
LINE
  5
561
100
AcDbEntity
  8
DRAFT
100
AcDbLine
 62
7
  6
CONTINUOUS
 10
-9.55
 20
15.3782399492
 11
-8.7781811688
 21
15.3781811688
  0
LINE
  5
562
100
AcDbEntity
  8
DRAFT
100
AcDbLine
 62
7
  6
CONTINUOUS
 10
8.778184492
 20
15.378184492
 11
9.55
 21
15.3781257119
  0
LINE
  5
563
100
AcDbEntity
  8
DRAFT
100
AcDbLine
 62
7
  6
CONTINUOUS
 10
-8.7867049498
 20
15.3867049498
 11
-9.55
 21
15.3984599645
  0
LINE
  5
564
100
AcDbEntity
  8
DRAFT
100
AcDbLine
 62
7
  6
CONTINUOUS
 10
-6.0
 20
17.5160673416
 11
-6.7019074668
 21
17.6914773842
  0
LINE
  5
565
100
AcDbEntity
  8
DRAFT
100
AcDbLine
 62
7
  6
CONTINUOUS
 10
7.6932753594
 20
13.7322894108
 11
7.7255647702
 21
13.7
  0
LINE
  5
566
100
AcDbEntity
  8
DRAFT
100
AcDbLine
 62
7
  6
CONTINUOUS
 10
7.7255647702
 20
15.1244352298
 11
7.9542087063
 21
14.8957912937
  0
LINE
  5
567
100
AcDbEntity
  8
DRAFT
100
AcDbLine
 62
7
  6
CONTINUOUS
 10
8.2351447635
 20
-16.4129962748
 11
8.0344917046
 21
-16.6548771492
  0
LINE
  5
568
100
AcDbEntity
  8
RACCORDO
100
AcDbLine
 62
7
  6
CONTINUOUS
 10
4.5322894108
 20
-20.0
 11
4.5025952137
 21
-20.0296941971
  0
LINE
  5
569
100
AcDbEntity
  8
0
100
AcDbLine
 62
7
  6
CONTINUOUS
 10
3.0
 20
-21.7
 11
3.0762444645
 21
-21.6237555355
  0
LINE
  5
56A
100
AcDbEntity
  8
DRAFT
100
AcDbLine
 62
7
  6
CONTINUOUS
 10
-9.4522218454
 20
15.1244352298
 11
-9.55
 21
15.1
  0
LINE
  5
56B
100
AcDbEntity
  8
DRAFT
100
AcDbLine
 62
7
  6
CONTINUOUS
 10
-8.7867049498
 20
17.2132950502
 11
-9.55
 21
17.2015400355
  0
LINE
  5
56C
100
AcDbEntity
  8
DRAFT
100
AcDbLine
 62
7
  6
CONTINUOUS
 10
-8.7781811688
 20
16.85
 11
-7.7255647702
 21
16.85
  0
LINE
  5
56D
100
AcDbEntity
  8
DRAFT
100
AcDbLine
 62
7
  6
CONTINUOUS
 10
7.7255647702
 20
16.85
 11
8.778184492
 21
16.85
  0
LINE
  5
56E
100
AcDbEntity
  8
DRAFT
100
AcDbLine
 62
7
  6
CONTINUOUS
 10
8.778184492
 20
17.221815508
 11
9.55
 21
17.2218742881
  0
LINE
  5
56F
100
AcDbEntity
  8
DRAFT
100
AcDbLine
 62
7
  6
CONTINUOUS
 10
-9.55
 20
17.2217600508
 11
-8.7781811688
 21
17.2218188312
  0
LINE
  5
570
100
AcDbEntity
  8
DRAFT
100
AcDbLine
 62
7
  6
CONTINUOUS
 10
9.4522218454
 20
17.3755647702
 11
7.7255647702
 21
17.3755647702
  0
LINE
  5
571
100
AcDbEntity
  8
DRAFT
100
AcDbLine
 62
7
  6
CONTINUOUS
 10
-7.7255647702
 20
17.3755647702
 11
-9.4522218454
 21
17.3755647702
  0
LINE
  5
572
100
AcDbEntity
  8
DRAFT
100
AcDbLine
 62
7
  6
CONTINUOUS
 10
-7.7979977728
 20
17.4479977728
 11
7.7979977728
 21
17.4479977728
  0
LINE
  5
573
100
AcDbEntity
  8
DRAFT
100
AcDbLine
 62
7
  6
CONTINUOUS
 10
-6.0
 20
17.5160673416
 11
6.0
 21
17.5160673416
  0
LINE
  5
574
100
AcDbEntity
  8
DRAFT
100
AcDbLine
 62
7
  6
CONTINUOUS
 10
-9.8414773842
 20
17.6914773842
 11
-6.7019074668
 21
17.6914773842
  0
LINE
  5
575
100
AcDbEntity
  8
DRAFT
100
AcDbLine
 62
7
  6
CONTINUOUS
 10
6.7019074668
 20
17.6914773842
 11
9.8414773842
 21
17.6914773842
  0
LINE
  5
576
100
AcDbEntity
  8
DRAFT
100
AcDbLine
 62
7
  6
CONTINUOUS
 10
9.55
 20
17.2015400355
 11
8.7867049498
 21
17.2132950502
  0
LINE
  5
577
100
AcDbEntity
  8
DRAFT
100
AcDbLine
 62
7
  6
CONTINUOUS
 10
9.4522218454
 20
15.1244352298
 11
9.55
 21
15.1
  0
LINE
  5
578
100
AcDbEntity
  8
DRAFT
100
AcDbLine
 62
7
  6
CONTINUOUS
 10
9.5872686779
 20
14.8085226158
 11
9.5
 21
14.8957912937
  0
LINE
  5
579
100
AcDbEntity
  8
DRAFT
100
AcDbLine
 62
7
  6
CONTINUOUS
 10
9.8414773842
 20
14.8085226158
 11
9.55
 21
15.1
  0
LINE
  5
57A
100
AcDbEntity
  8
0
100
AcDbLine
 62
7
  6
CONTINUOUS
 10
3.0
 20
21.7
 11
3.0762444645
 21
21.6237555355
  0
LINE
  5
57B
100
AcDbEntity
  8
DRAFT
100
AcDbLine
 62
7
  6
CONTINUOUS
 10
8.7867049498
 20
17.2132950502
 11
8.778184492
 21
17.221815508
  0
LINE
  5
57C
100
AcDbEntity
  8
DRAFT
100
AcDbLine
 62
7
  6
CONTINUOUS
 10
7.2040044543
 20
-20.9959955457
 11
7.3
 21
-20.9
  0
LINE
  5
57D
100
AcDbEntity
  8
0
100
AcDbLine
 62
7
  6
CONTINUOUS
 10
3.0
 20
-22.3941821702
 11
3.0873194485
 21
-22.3359700255
  0
LINE
  5
57E
100
AcDbEntity
  8
0
100
AcDbLine
 62
7
  6
CONTINUOUS
 10
1.0
 20
-22.4
 11
1.0087268678
 21
-22.3947639644
  0
LINE
  5
57F
100
AcDbEntity
  8
DRAFT
100
AcDbLine
 62
7
  6
CONTINUOUS
 10
-6.0
 20
18.8839326584
 11
-6.7019074668
 21
18.7085226158
  0
LINE
  5
580
100
AcDbEntity
  8
DRAFT
100
AcDbLine
 62
7
  6
CONTINUOUS
 10
-10.8085226158
 20
18.7085226158
 11
-6.7019074668
 21
18.7085226158
  0
LINE
  5
581
100
AcDbEntity
  8
DRAFT
100
AcDbLine
 62
7
  6
CONTINUOUS
 10
6.7019074668
 20
18.7085226158
 11
10.8085226158
 21
18.7085226158
  0
LINE
  5
582
100
AcDbEntity
  8
DRAFT
100
AcDbLine
 62
7
  6
CONTINUOUS
 10
-6.0
 20
18.8839326584
 11
6.0
 21
18.8839326584
  0
LINE
  5
583
100
AcDbEntity
  8
DRAFT
100
AcDbLine
 62
7
  6
CONTINUOUS
 10
7.7979977728
 20
18.9520022272
 11
-7.7979977728
 21
18.9520022272
  0
LINE
  5
584
100
AcDbEntity
  8
DRAFT
100
AcDbLine
 62
7
  6
CONTINUOUS
 10
11.1
 20
19.0
 11
7.75
 21
19.0
  0
LINE
  5
585
100
AcDbEntity
  8
DRAFT
100
AcDbLine
 62
7
  6
CONTINUOUS
 10
-7.75
 20
19.0
 11
-11.1
 21
19.0
  0
LINE
  5
586
100
AcDbEntity
  8
RACCORDO
100
AcDbLine
 62
253
  6
CONTINUOUS
 10
-6.4363719039
 20
19.1781339054
 11
6.4363719039
 21
19.1781339054
  0
LINE
  5
587
100
AcDbEntity
  8
RACCORDO
100
AcDbLine
 62
253
  6
CONTINUOUS
 10
9.5241551301
 20
19.7895472382
 11
7.3629176429
 21
19.7895472382
  0
LINE
  5
588
100
AcDbEntity
  8
RACCORDO
100
AcDbLine
 62
253
  6
CONTINUOUS
 10
-7.3629176429
 20
19.7895472382
 11
-9.5241551301
 21
19.7895472382
  0
LINE
  5
589
100
AcDbEntity
  8
RACCORDO
100
AcDbLine
 62
253
  6
CONTINUOUS
 10
-6.4440923953
 20
19.9624188177
 11
6.4440923953
 21
19.9624188177
  0
LINE
  5
58A
100
AcDbEntity
  8
DRAFT
100
AcDbLine
 62
7
  6
CONTINUOUS
 10
-6.5959955457
 20
20.1143219681
 11
6.5959955457
 21
20.1143219681
  0
LINE
  5
58B
100
AcDbEntity
  8
DRAFT
100
AcDbLine
 62
7
  6
CONTINUOUS
 10
6.0
 20
18.8839326584
 11
6.7019074668
 21
18.7085226158
  0
LINE
  5
58C
100
AcDbEntity
  8
0
100
AcDbLine
 62
7
  6
CONTINUOUS
 10
1.0087268678
 20
22.3947639644
 11
1.0
 21
22.4
  0
LINE
  5
58D
100
AcDbEntity
  8
0
100
AcDbLine
 62
7
  6
CONTINUOUS
 10
3.0
 20
22.3941821702
 11
3.0873194485
 21
22.3359700255
  0
LINE
  5
58E
100
AcDbEntity
  8
DRAFT
100
AcDbLine
 62
7
  6
CONTINUOUS
 10
7.75
 20
19.0
 11
7.7979977728
 21
18.9520022272
  0
LINE
  5
58F
100
AcDbEntity
  8
DRAFT
100
AcDbLine
 62
7
  6
CONTINUOUS
 10
7.2040044543
 20
20.9959955457
 11
7.3
 21
20.9
  0
LINE
  5
590
100
AcDbEntity
  8
0
100
AcDbLine
 62
7
  6
CONTINUOUS
 10
9.6133443637
 20
-20.0889833137
 11
8.9132380261
 21
-20.7899436635
  0
LINE
  5
591
100
AcDbEntity
  8
0
100
AcDbLine
 62
7
  6
CONTINUOUS
 10
9.65
 20
-20.1990396502
 11
8.9498936624
 21
-20.9
  0
LINE
  5
592
100
AcDbEntity
  8
0
100
AcDbLine
 62
7
  6
CONTINUOUS
 10
7.2558178298
 20
-22.3941821702
 11
8.25
 21
-21.4
  0
LINE
  5
593
100
AcDbEntity
  8
0
100
AcDbLine
 62
253
  6
CONTINUOUS
 10
1.0087268678
 20
-23.7941889394
 11
1.0
 21
-23.8000067692
  0
LINE
  5
594
100
AcDbEntity
  8
0
100
AcDbLine
 62
7
  6
CONTINUOUS
 10
3.5
 20
-22.3941821702
 11
3.5590867224
 21
-22.3547915774
  0
LINE
  5
595
100
AcDbEntity
  8
0
100
AcDbLine
 62
253
  6
CONTINUOUS
 10
1.2087243294
 20
-23.9941821702
 11
1.1999974616
 21
-24.0
  0
LINE
  5
596
100
AcDbEntity
  8
0
100
AcDbLine
 62
7
  6
CONTINUOUS
 10
3.5
 20
-23.9941821702
 11
3.5567500259
 21
-23.9563493531
  0
LINE
  5
597
100
AcDbEntity
  8
RACCORDO
100
AcDbLine
 62
253
  6
CONTINUOUS
 10
8.8387914318
 20
20.5664222561
 11
7.3555468846
 21
20.5664222561
  0
LINE
  5
598
100
AcDbEntity
  8
RACCORDO
100
AcDbLine
 62
253
  6
CONTINUOUS
 10
-7.3555468846
 20
20.5664222561
 11
-8.8387914318
 21
20.5664222561
  0
LINE
  5
599
100
AcDbEntity
  8
0
100
AcDbLine
 62
7
  6
CONTINUOUS
 10
3.0959955457
 20
20.8
 11
-3.0959955457
 21
20.8
  0
LINE
  5
59A
100
AcDbEntity
  8
0
100
AcDbLine
 62
7
  6
CONTINUOUS
 10
-8.9498936624
 20
20.9
 11
-8.25
 21
20.9
  0
LINE
  5
59B
100
AcDbEntity
  8
DRAFT
100
AcDbLine
 62
7
  6
CONTINUOUS
 10
8.25
 20
20.9
 11
7.3
 21
20.9
  0
LINE
  5
59C
100
AcDbEntity
  8
DRAFT
100
AcDbLine
 62
7
  6
CONTINUOUS
 10
-7.3
 20
20.9
 11
-8.25
 21
20.9
  0
LINE
  5
59D
100
AcDbEntity
  8
0
100
AcDbLine
 62
7
  6
CONTINUOUS
 10
8.25
 20
20.9
 11
8.9498936624
 21
20.9
  0
LINE
  5
59E
100
AcDbEntity
  8
DRAFT
100
AcDbLine
 62
7
  6
CONTINUOUS
 10
-7.5666456542
 20
20.9959955457
 11
-7.2040044543
 21
20.9959955457
  0
LINE
  5
59F
100
AcDbEntity
  8
DRAFT
100
AcDbLine
 62
7
  6
CONTINUOUS
 10
7.2040044543
 20
20.9959955457
 11
7.5666456542
 21
20.9959955457
  0
LINE
  5
5A0
100
AcDbEntity
  8
0
100
AcDbLine
 62
7
  6
CONTINUOUS
 10
-11.1674550649
 20
21.0226497308
 11
-11.1412731322
 21
21.0226497308
  0
LINE
  5
5A1
100
AcDbEntity
  8
0
100
AcDbLine
 62
7
  6
CONTINUOUS
 10
11.1674550649
 20
21.0226497308
 11
11.1412731322
 21
21.0226497308
  0
LINE
  5
5A2
100
AcDbEntity
  8
0
100
AcDbLine
 62
253
  6
CONTINUOUS
 10
7.5666456542
 20
21.3359869487
 11
3.0959955457
 21
21.3359869487
  0
LINE
  5
5A3
100
AcDbEntity
  8
0
100
AcDbLine
 62
253
  6
CONTINUOUS
 10
-3.0959955457
 20
21.3359869487
 11
-7.5666456542
 21
21.3359869487
  0
LINE
  5
5A4
100
AcDbEntity
  8
0
100
AcDbLine
 62
7
  6
CONTINUOUS
 10
-3.0762444645
 20
21.6237555355
 11
3.0762444645
 21
21.6237555355
  0
LINE
  5
5A5
100
AcDbEntity
  8
0
100
AcDbLine
 62
7
  6
CONTINUOUS
 10
-3.0
 20
21.7
 11
3.0
 21
21.7
  0
LINE
  5
5A6
100
AcDbEntity
  8
0
100
AcDbLine
 62
253
  6
CONTINUOUS
 10
1.0
 20
23.8000067692
 11
1.0087268678
 21
23.7941889394
  0
LINE
  5
5A7
100
AcDbEntity
  8
0
100
AcDbLine
 62
7
  6
CONTINUOUS
 10
3.5
 20
22.3941821702
 11
3.5590867224
 21
22.3547915774
  0
LINE
  5
5A8
100
AcDbEntity
  8
0
100
AcDbLine
 62
253
  6
CONTINUOUS
 10
1.1999974616
 20
24.0
 11
1.2087243294
 21
23.9941821702
  0
LINE
  5
5A9
100
AcDbEntity
  8
0
100
AcDbLine
 62
7
  6
CONTINUOUS
 10
3.5
 20
23.9941821702
 11
3.5567500259
 21
23.9563493531
  0
LINE
  5
5AA
100
AcDbEntity
  8
0
100
AcDbLine
 62
7
  6
CONTINUOUS
 10
7.2558178298
 20
22.3941821702
 11
8.25
 21
21.4
  0
LINE
  5
5AB
100
AcDbEntity
  8
0
100
AcDbLine
 62
7
  6
CONTINUOUS
 10
9.65
 20
20.1990396502
 11
8.9498936624
 21
20.9
  0
LINE
  5
5AC
100
AcDbEntity
  8
0
100
AcDbLine
 62
7
  6
CONTINUOUS
 10
8.0665695018
 20
-20.9917082642
 11
8.25
 21
-20.9
  0
LINE
  5
5AD
100
AcDbEntity
  8
0
100
AcDbLine
 62
7
  6
CONTINUOUS
 10
8.0665695018
 20
-21.4537354271
 11
8.25
 21
-21.4
  0
LINE
  5
5AE
100
AcDbEntity
  8
0
100
AcDbLine
 62
7
  6
CONTINUOUS
 10
7.1905416262
 20
22.3359700255
 11
3.0873194485
 21
22.3359700255
  0
LINE
  5
5AF
100
AcDbEntity
  8
0
100
AcDbLine
 62
7
  6
CONTINUOUS
 10
-3.0873194485
 20
22.3359700255
 11
-7.1905416262
 21
22.3359700255
  0
LINE
  5
5B0
100
AcDbEntity
  8
0
100
AcDbLine
 62
7
  6
CONTINUOUS
 10
-10.6412794783
 20
22.3941821702
 11
-7.2558178298
 21
22.3941821702
  0
LINE
  5
5B1
100
AcDbEntity
  8
0
100
AcDbLine
 62
7
  6
CONTINUOUS
 10
3.5
 20
22.3941821702
 11
3.0
 21
22.3941821702
  0
LINE
  5
5B2
100
AcDbEntity
  8
0
100
AcDbLine
 62
7
  6
CONTINUOUS
 10
-3.0
 20
22.3941821702
 11
-3.5
 21
22.3941821702
  0
LINE
  5
5B3
100
AcDbEntity
  8
0
100
AcDbLine
 62
7
  6
CONTINUOUS
 10
7.2558178298
 20
22.3941821702
 11
10.6412794783
 21
22.3941821702
  0
LINE
  5
5B4
100
AcDbEntity
  8
0
100
AcDbLine
 62
7
  6
CONTINUOUS
 10
-1.0087268678
 20
22.3947639644
 11
1.0087268678
 21
22.3947639644
  0
LINE
  5
5B5
100
AcDbEntity
  8
RACCORDO
100
AcDbLine
 62
7
  6
CONTINUOUS
 10
4.45
 20
22.4
 11
7.1905416262
 21
22.4
  0
LINE
  5
5B6
100
AcDbEntity
  8
RACCORDO
100
AcDbLine
 62
7
  6
CONTINUOUS
 10
-4.45
 20
22.4
 11
-7.1905416262
 21
22.4
  0
LINE
  5
5B7
100
AcDbEntity
  8
0
100
AcDbLine
 62
7
  6
CONTINUOUS
 10
-9.9007229979
 20
23.1226497308
 11
-7.4992770021
 21
23.1226497308
  0
LINE
  5
5B8
100
AcDbEntity
  8
0
100
AcDbLine
 62
7
  6
CONTINUOUS
 10
9.9007229979
 20
23.1226497308
 11
7.4992770021
 21
23.1226497308
  0
LINE
  5
5B9
100
AcDbEntity
  8
0
100
AcDbLine
 62
253
  6
CONTINUOUS
 10
-9.8956323968
 20
23.6278312164
 11
-7.5043676032
 21
23.6278312164
  0
LINE
  5
5BA
100
AcDbEntity
  8
0
100
AcDbLine
 62
253
  6
CONTINUOUS
 10
7.5043676032
 20
23.6278312164
 11
9.8956323968
 21
23.6278312164
  0
LINE
  5
5BB
100
AcDbEntity
  8
0
100
AcDbLine
 62
253
  6
CONTINUOUS
 10
7.254371834
 20
23.8443375673
 11
10.145628166
 21
23.8443375673
  0
LINE
  5
5BC
100
AcDbEntity
  8
0
100
AcDbLine
 62
253
  6
CONTINUOUS
 10
-7.254371834
 20
23.8443375673
 11
-10.145628166
 21
23.8443375673
  0
LINE
  5
5BD
100
AcDbEntity
  8
0
100
AcDbLine
 62
7
  6
CONTINUOUS
 10
-4.4063493531
 20
23.9563493531
 11
-3.5567500259
 21
23.9563493531
  0
LINE
  5
5BE
100
AcDbEntity
  8
0
100
AcDbLine
 62
7
  6
CONTINUOUS
 10
3.5567500259
 20
23.9563493531
 11
4.4063493531
 21
23.9563493531
  0
LINE
  5
5BF
100
AcDbEntity
  8
0
100
AcDbLine
 62
7
  6
CONTINUOUS
 10
8.0665695018
 20
21.4537354271
 11
8.25
 21
21.4
  0
LINE
  5
5C0
100
AcDbEntity
  8
0
100
AcDbLine
 62
7
  6
CONTINUOUS
 10
8.0665695018
 20
20.9917082642
 11
8.25
 21
20.9
  0
LINE
  5
5C1
100
AcDbEntity
  8
0
100
AcDbLine
 62
7
  6
CONTINUOUS
 10
-3.5
 20
23.9941821702
 11
-1.2087243294
 21
23.9941821702
  0
LINE
  5
5C2
100
AcDbEntity
  8
0
100
AcDbLine
 62
7
  6
CONTINUOUS
 10
1.2087243294
 20
23.9941821702
 11
3.5
 21
23.9941821702
  0
LINE
  5
5C3
100
AcDbEntity
  8
0
100
AcDbLine
 62
7
  6
CONTINUOUS
 10
4.45
 20
24.0
 11
3.5567500259
 21
24.0
  0
LINE
  5
5C4
100
AcDbEntity
  8
0
100
AcDbLine
 62
7
  6
CONTINUOUS
 10
-3.5567500259
 20
24.0
 11
-4.45
 21
24.0
  0
LINE
  5
5C5
100
AcDbEntity
  8
0
100
AcDbLine
 62
253
  6
CONTINUOUS
 10
7.254371834
 20
24.2456323968
 11
10.145628166
 21
24.2456323968
  0
LINE
  5
5C6
100
AcDbEntity
  8
0
100
AcDbLine
 62
253
  6
CONTINUOUS
 10
-7.254371834
 20
24.2456323968
 11
-10.145628166
 21
24.2456323968
  0
LINE
  5
5C7
100
AcDbEntity
  8
0
100
AcDbLine
 62
7
  6
CONTINUOUS
 10
9.8956323968
 20
24.495628166
 11
7.5043676032
 21
24.495628166
  0
LINE
  5
5C8
100
AcDbEntity
  8
0
100
AcDbLine
 62
7
  6
CONTINUOUS
 10
-7.5043676032
 20
24.495628166
 11
-9.8956323968
 21
24.495628166
  0
ARC
  5
5C9
100
AcDbEntity
  8
0
100
AcDbCircle
 62
7
  6
CONTINUOUS
 10
-4.15
 20
-5.975
 40
1.625
100
AcDbArc
 50
202.619864948
 51
252.0797868606
  0
ARC
  5
5CA
100
AcDbEntity
  8
0
100
AcDbCircle
 62
7
  6
CONTINUOUS
 10
-4.15
 20
-5.975
 40
1.625
100
AcDbArc
 50
287.9202131394
 51
337.380135052
  0
ARC
  5
5CB
100
AcDbEntity
  8
RACCORDO
100
AcDbCircle
 62
7
  6
CONTINUOUS
 10
-8.9493777034
 20
-16.0037629386
 40
0.503786371
100
AcDbArc
 50
95.7651207475
 51
99.6904235565
  0
ARC
  5
5CC
100
AcDbEntity
  8
0
100
AcDbCircle
 62
7
  6
CONTINUOUS
 10
-4.0
 20
-23.15
 40
0.5
100
AcDbArc
 50
144.3637748935
 51
215.6362251065
  0
ARC
  5
5CD
100
AcDbEntity
  8
0
100
AcDbCircle
 62
7
  6
CONTINUOUS
 10
-10.6500384553
 20
-21.9000439681
 40
0.4999576362
100
AcDbArc
 50
179.9687347088
 51
269.9607896942
  0
ARC
  5
5CE
100
AcDbEntity
  8
RACCORDO
100
AcDbCircle
 62
7
  6
CONTINUOUS
 10
-3.1000429696
 20
-14.1222734694
 40
0.3018269763
100
AcDbArc
 50
89.99184309
 51
115.6521892706
  0
ARC
  5
5CF
100
AcDbEntity
  8
RACCORDO
100
AcDbCircle
 62
253
  6
CONTINUOUS
 10
-4.2043092041
 20
-17.5956907959
 40
0.3000161534
100
AcDbArc
 50
90.0052662017
 51
179.9947337983
  0
ARC
  5
5D0
100
AcDbEntity
  8
RACCORDO
100
AcDbCircle
 62
7
  6
CONTINUOUS
 10
-1.05
 20
-6.9458040048
 40
0.3
100
AcDbArc
 50
0.0
 51
80.4059317731
  0
ARC
  5
5D1
100
AcDbEntity
  8
RACCORDO
100
AcDbCircle
 62
7
  6
CONTINUOUS
 10
-2.55
 20
-6.9458040048
 40
0.3
100
AcDbArc
 50
0.0
 51
80.4059317731
  0
ARC
  5
5D2
100
AcDbEntity
  8
RACCORDO
100
AcDbCircle
 62
7
  6
CONTINUOUS
 10
-0.95
 20
-6.9458040048
 40
0.3
100
AcDbArc
 50
99.5940682269
 51
180.0
  0
ARC
  5
5D3
100
AcDbEntity
  8
RACCORDO
100
AcDbCircle
 62
7
  6
CONTINUOUS
 10
-2.45
 20
-6.9458040048
 40
0.3
100
AcDbArc
 50
99.5940682269
 51
180.0
  0
ARC
  5
5D4
100
AcDbEntity
  8
0
100
AcDbCircle
 62
7
  6
CONTINUOUS
 10
-9.8984069448
 20
-24.2493216605
 40
0.2517093003
100
AcDbArc
 50
193.7016435128
 51
212.6614170434
  0
ARC
  5
5D5
100
AcDbEntity
  8
0
100
AcDbCircle
 62
7
  6
CONTINUOUS
 10
-7.5006783395
 20
-24.2484069448
 40
0.2517093003
100
AcDbArc
 50
283.7016435128
 51
302.6614170434
  0
ARC
  5
5D6
100
AcDbEntity
  8
0
100
AcDbCircle
 62
7
  6
CONTINUOUS
 10
-9.8991139144
 20
-24.2498985665
 40
0.2508861079
100
AcDbArc
 50
180.0241309383
 51
193.6118854315
  0
ARC
  5
5D7
100
AcDbEntity
  8
0
100
AcDbCircle
 62
7
  6
CONTINUOUS
 10
-7.5001014335
 20
-24.2491139144
 40
0.2508861079
100
AcDbArc
 50
270.0241309383
 51
283.6118854315
  0
ARC
  5
5D8
100
AcDbEntity
  8
0
100
AcDbCircle
 62
7
  6
CONTINUOUS
 10
-9.895621548
 20
-24.245621548
 40
0.2500066182
100
AcDbArc
 50
180.0024862874
 51
269.9975137126
  0
ARC
  5
5D9
100
AcDbEntity
  8
0
100
AcDbCircle
 62
7
  6
CONTINUOUS
 10
-7.5043784515
 20
-24.2456215485
 40
0.2500066177
100
AcDbArc
 50
270.0024861811
 51
359.9975138189
  0
ARC
  5
5DA
100
AcDbEntity
  8
0
100
AcDbCircle
 62
7
  6
CONTINUOUS
 10
-9.900004848
 20
-24.2500024459
 40
0.2499975541
100
AcDbArc
 50
237.273060743
 51
270.0001414475
  0
ARC
  5
5DB
100
AcDbEntity
  8
0
100
AcDbCircle
 62
7
  6
CONTINUOUS
 10
-7.4999975541
 20
-24.250004848
 40
0.2499975541
100
AcDbArc
 50
327.273060743
 51
0.0001414475
  0
ARC
  5
5DC
100
AcDbEntity
  8
0
100
AcDbCircle
 62
7
  6
CONTINUOUS
 10
-1.1999932435
 20
-23.8000067566
 40
0.1999932435
100
AcDbArc
 50
269.9987915599
 51
359.9999963837
  0
ARC
  5
5DD
100
AcDbEntity
  8
RACCORDO
100
AcDbCircle
 62
253
  6
CONTINUOUS
 10
-7.85
 20
8.55
 40
0.6895239508
100
AcDbArc
 50
355.865508405
 51
30.5162102857
  0
ARC
  5
5DE
100
AcDbEntity
  8
0
100
AcDbCircle
 62
7
  6
CONTINUOUS
 10
-4.0
 20
23.15
 40
0.5
100
AcDbArc
 50
144.3637748935
 51
215.6362251065
  0
ARC
  5
5DF
100
AcDbEntity
  8
0
100
AcDbCircle
 62
7
  6
CONTINUOUS
 10
-10.6500384133
 20
21.9000440102
 40
0.4999576362
100
AcDbArc
 50
90.039215127
 51
180.0312701107
  0
ARC
  5
5E0
100
AcDbEntity
  8
0
100
AcDbCircle
 62
7
  6
CONTINUOUS
 10
-9.8993216605
 20
24.2484069448
 40
0.2517093003
100
AcDbArc
 50
103.7016435128
 51
122.6614170434
  0
ARC
  5
5E1
100
AcDbEntity
  8
0
100
AcDbCircle
 62
7
  6
CONTINUOUS
 10
-7.5015930552
 20
24.2493216605
 40
0.2517093003
100
AcDbArc
 50
13.7016435128
 51
32.6614170434
  0
ARC
  5
5E2
100
AcDbEntity
  8
0
100
AcDbCircle
 62
7
  6
CONTINUOUS
 10
-9.8998985665
 20
24.2491139144
 40
0.2508861079
100
AcDbArc
 50
90.0241309383
 51
103.6118854315
  0
ARC
  5
5E3
100
AcDbEntity
  8
0
100
AcDbCircle
 62
7
  6
CONTINUOUS
 10
-7.5008860856
 20
24.2498985665
 40
0.2508861079
100
AcDbArc
 50
0.0241309383
 51
13.6118854315
  0
ARC
  5
5E4
100
AcDbEntity
  8
0
100
AcDbCircle
 62
7
  6
CONTINUOUS
 10
-9.895621548
 20
24.245621548
 40
0.2500066182
100
AcDbArc
 50
90.0024862874
 51
179.9975137126
  0
ARC
  5
5E5
100
AcDbEntity
  8
0
100
AcDbCircle
 62
7
  6
CONTINUOUS
 10
-7.5043784515
 20
24.2456215485
 40
0.2500066177
100
AcDbArc
 50
0.0024861811
 51
89.9975138189
  0
ARC
  5
5E6
100
AcDbEntity
  8
0
100
AcDbCircle
 62
7
  6
CONTINUOUS
 10
-9.9000024459
 20
24.250004848
 40
0.2499975541
100
AcDbArc
 50
147.273060743
 51
180.0001414475
  0
ARC
  5
5E7
100
AcDbEntity
  8
0
100
AcDbCircle
 62
7
  6
CONTINUOUS
 10
-7.499995152
 20
24.2500024459
 40
0.2499975541
100
AcDbArc
 50
57.273060743
 51
90.0001414475
  0
ARC
  5
5E8
100
AcDbEntity
  8
0
100
AcDbCircle
 62
7
  6
CONTINUOUS
 10
-1.1999932435
 20
23.8000067566
 40
0.1999932435
100
AcDbArc
 50
0.0000036163
 51
90.0012084401
  0
ARC
  5
5E9
100
AcDbEntity
  8
0
100
AcDbCircle
 62
7
  6
CONTINUOUS
 10
4.15
 20
-5.975
 40
1.625
100
AcDbArc
 50
287.9202131394
 51
337.380135052
  0
ARC
  5
5EA
100
AcDbEntity
  8
0
100
AcDbCircle
 62
7
  6
CONTINUOUS
 10
4.15
 20
-5.975
 40
1.625
100
AcDbArc
 50
202.619864948
 51
252.0797868606
  0
ARC
  5
5EB
100
AcDbEntity
  8
RACCORDO
100
AcDbCircle
 62
7
  6
CONTINUOUS
 10
8.9493782319
 20
-16.0037594478
 40
0.5037828411
100
AcDbArc
 50
80.3095688711
 51
84.2475053923
  0
ARC
  5
5EC
100
AcDbEntity
  8
0
100
AcDbCircle
 62
7
  6
CONTINUOUS
 10
4.0
 20
-23.15
 40
0.5
100
AcDbArc
 50
324.3637748935
 51
35.6362251065
  0
ARC
  5
5ED
100
AcDbEntity
  8
0
100
AcDbCircle
 62
7
  6
CONTINUOUS
 10
10.6500382294
 20
-21.9000437425
 40
0.4999579139
100
AcDbArc
 50
270.0392361786
 51
0.0312394204
  0
ARC
  5
5EE
100
AcDbEntity
  8
RACCORDO
100
AcDbCircle
 62
7
  6
CONTINUOUS
 10
3.1000429696
 20
-14.1222734694
 40
0.3018269763
100
AcDbArc
 50
64.3478107294
 51
90.00815691
  0
ARC
  5
5EF
100
AcDbEntity
  8
RACCORDO
100
AcDbCircle
 62
253
  6
CONTINUOUS
 10
4.2043092049
 20
-17.5956907952
 40
0.3000161526
100
AcDbArc
 50
0.0052660671
 51
89.9947339686
  0
ARC
  5
5F0
100
AcDbEntity
  8
RACCORDO
100
AcDbCircle
 62
7
  6
CONTINUOUS
 10
0.45
 20
-6.9458040048
 40
0.3
100
AcDbArc
 50
0.0
 51
73.705437915
  0
ARC
  5
5F1
100
AcDbEntity
  8
RACCORDO
100
AcDbCircle
 62
7
  6
CONTINUOUS
 10
2.05
 20
-6.9458040048
 40
0.3
100
AcDbArc
 50
103.048485464
 51
180.0
  0
ARC
  5
5F2
100
AcDbEntity
  8
RACCORDO
100
AcDbCircle
 62
7
  6
CONTINUOUS
 10
1.95
 20
-6.9458040048
 40
0.3
100
AcDbArc
 50
0.0
 51
80.4059317731
  0
ARC
  5
5F3
100
AcDbEntity
  8
RACCORDO
100
AcDbCircle
 62
7
  6
CONTINUOUS
 10
0.55
 20
-6.9458040048
 40
0.3
100
AcDbArc
 50
99.5940682269
 51
180.0
  0
ARC
  5
5F4
100
AcDbEntity
  8
0
100
AcDbCircle
 62
7
  6
CONTINUOUS
 10
9.8993216605
 20
-24.2484069448
 40
0.2517093003
100
AcDbArc
 50
283.7016435128
 51
302.6614170434
  0
ARC
  5
5F5
100
AcDbEntity
  8
0
100
AcDbCircle
 62
7
  6
CONTINUOUS
 10
7.5015930552
 20
-24.2493216605
 40
0.2517093003
100
AcDbArc
 50
193.7016435128
 51
212.6614170434
  0
ARC
  5
5F6
100
AcDbEntity
  8
0
100
AcDbCircle
 62
7
  6
CONTINUOUS
 10
9.8998985665
 20
-24.2491139144
 40
0.2508861079
100
AcDbArc
 50
270.0241309383
 51
283.6118854315
  0
ARC
  5
5F7
100
AcDbEntity
  8
0
100
AcDbCircle
 62
7
  6
CONTINUOUS
 10
7.5008860856
 20
-24.2498985665
 40
0.2508861079
100
AcDbArc
 50
180.0241309383
 51
193.6118854315
  0
ARC
  5
5F8
100
AcDbEntity
  8
0
100
AcDbCircle
 62
7
  6
CONTINUOUS
 10
9.895621548
 20
-24.245621548
 40
0.2500066182
100
AcDbArc
 50
270.0024862874
 51
359.9975137126
  0
ARC
  5
5F9
100
AcDbEntity
  8
0
100
AcDbCircle
 62
7
  6
CONTINUOUS
 10
7.5043784515
 20
-24.2456215485
 40
0.2500066177
100
AcDbArc
 50
180.0024861811
 51
269.9975138189
  0
ARC
  5
5FA
100
AcDbEntity
  8
0
100
AcDbCircle
 62
7
  6
CONTINUOUS
 10
9.9000024459
 20
-24.250004848
 40
0.2499975541
100
AcDbArc
 50
327.273060743
 51
0.0001414475
  0
ARC
  5
5FB
100
AcDbEntity
  8
0
100
AcDbCircle
 62
7
  6
CONTINUOUS
 10
7.499995152
 20
-24.2500024459
 40
0.2499975541
100
AcDbArc
 50
237.273060743
 51
270.0001414475
  0
ARC
  5
5FC
100
AcDbEntity
  8
0
100
AcDbCircle
 62
7
  6
CONTINUOUS
 10
1.1999932435
 20
-23.8000067566
 40
0.1999932435
100
AcDbArc
 50
180.0000036163
 51
270.0012084401
  0
ARC
  5
5FD
100
AcDbEntity
  8
RACCORDO
100
AcDbCircle
 62
253
  6
CONTINUOUS
 10
7.85
 20
8.55
 40
0.6895239508
100
AcDbArc
 50
149.4797880946
 51
184.1748453497
  0
ARC
  5
5FE
100
AcDbEntity
  8
0
100
AcDbCircle
 62
7
  6
CONTINUOUS
 10
4.0
 20
23.15
 40
0.5
100
AcDbArc
 50
324.3637748935
 51
35.6362251065
  0
ARC
  5
5FF
100
AcDbEntity
  8
0
100
AcDbCircle
 62
7
  6
CONTINUOUS
 10
10.6500381873
 20
21.9000437846
 40
0.4999579139
100
AcDbArc
 50
359.9687557529
 51
89.9607589946
  0
ARC
  5
600
100
AcDbEntity
  8
0
100
AcDbCircle
 62
7
  6
CONTINUOUS
 10
7.5006783395
 20
24.2484069448
 40
0.2517093003
100
AcDbArc
 50
103.7016435128
 51
122.6614170434
  0
ARC
  5
601
100
AcDbEntity
  8
0
100
AcDbCircle
 62
7
  6
CONTINUOUS
 10
9.8984069448
 20
24.2493216605
 40
0.2517093003
100
AcDbArc
 50
13.7016435128
 51
32.6614170434
  0
ARC
  5
602
100
AcDbEntity
  8
0
100
AcDbCircle
 62
7
  6
CONTINUOUS
 10
7.5001014335
 20
24.2491139144
 40
0.2508861079
100
AcDbArc
 50
90.0241309383
 51
103.6118854315
  0
ARC
  5
603
100
AcDbEntity
  8
0
100
AcDbCircle
 62
7
  6
CONTINUOUS
 10
9.8991139144
 20
24.2498985665
 40
0.2508861079
100
AcDbArc
 50
0.0241309383
 51
13.6118854315
  0
ARC
  5
604
100
AcDbEntity
  8
0
100
AcDbCircle
 62
7
  6
CONTINUOUS
 10
7.504378452
 20
24.245621548
 40
0.2500066182
100
AcDbArc
 50
90.0024862874
 51
179.9975137126
  0
ARC
  5
605
100
AcDbEntity
  8
0
100
AcDbCircle
 62
7
  6
CONTINUOUS
 10
9.895621548
 20
24.245621548
 40
0.2500066182
100
AcDbArc
 50
0.0024862874
 51
89.9975137126
  0
ARC
  5
606
100
AcDbEntity
  8
0
100
AcDbCircle
 62
7
  6
CONTINUOUS
 10
7.4999975541
 20
24.250004848
 40
0.2499975541
100
AcDbArc
 50
147.273060743
 51
180.0001414475
  0
ARC
  5
607
100
AcDbEntity
  8
0
100
AcDbCircle
 62
7
  6
CONTINUOUS
 10
9.900004848
 20
24.2500024459
 40
0.2499975541
100
AcDbArc
 50
57.273060743
 51
90.0001414475
  0
ARC
  5
608
100
AcDbEntity
  8
0
100
AcDbCircle
 62
7
  6
CONTINUOUS
 10
1.1999932435
 20
23.8000067566
 40
0.1999932435
100
AcDbArc
 50
89.9987915599
 51
179.9999963837
  0
SPLINE
  5
609
100
AcDbEntity
  8
RACCORDO
100
AcDbSpline
 62
7
  6
CONTINUOUS
 70
0
 71
3
 72
11
 73
7
 74
5
 42
0.0000001
 43
0.0000001
 44
0.0000000001
 12
-0.4664733964
 22
0.0
 32
0.0
 13
0.0
 23
-0.4664733964
 33
0.0
 40
0.0
 40
0.0
 40
0.0
 40
0.0
 40
0.250863405
 40
0.501221912
 40
0.750864642
 40
1.0
 40
1.0
 40
1.0
 40
1.0
 10
-9.15
 20
-15.507774954
 30
0.0
 10
-9.1890070349
 20
-15.507774954
 30
0.0
 10
-9.2677870047
 20
-15.5232301568
 30
0.0
 10
-9.3674973377
 20
-15.5894116878
 30
0.0
 10
-9.43434736
 20
-15.6883874792
 30
0.0
 10
-9.45
 20
-15.7668004606
 30
0.0
 10
-9.45
 20
-15.8055387995
 30
0.0
 11
-9.15
 21
-15.507774954
 31
0.0
 11
-9.2648050297
 21
-15.5304408771
 31
0.0
 11
-9.3621320344
 21
-15.5949879652
 31
0.0
 11
-9.4271638598
 21
-15.6915895091
 31
0.0
 11
-9.45
 21
-15.8055387995
 31
0.0
  0
SPLINE
  5
60A
100
AcDbEntity
  8
RACCORDO
100
AcDbSpline
 62
7
  6
CONTINUOUS
 70
0
 71
3
 72
11
 73
7
 74
5
 42
0.0000001
 43
0.0000001
 44
0.0000000001
 12
0.0
 22
0.4664733964
 32
0.0
 13
-0.4664733964
 23
0.0
 33
0.0
 40
0.0
 40
0.0
 40
0.0
 40
0.0
 40
0.249135358
 40
0.498778088
 40
0.749136595
 40
1.0
 40
1.0
 40
1.0
 40
1.0
 10
9.45
 20
-15.8055387995
 30
0.0
 10
9.45
 20
-15.7668004606
 30
0.0
 10
9.43434736
 20
-15.6883874792
 30
0.0
 10
9.3674973377
 20
-15.5894116878
 30
0.0
 10
9.2677870047
 20
-15.5232301568
 30
0.0
 10
9.1890070349
 20
-15.507774954
 30
0.0
 10
9.15
 20
-15.507774954
 30
0.0
 11
9.45
 21
-15.8055387995
 31
0.0
 11
9.4271638598
 21
-15.6915895091
 31
0.0
 11
9.3621320344
 21
-15.5949879652
 31
0.0
 11
9.2648050297
 21
-15.5304408771
 31
0.0
 11
9.15
 21
-15.507774954
 31
0.0
  0
SPLINE
  5
60B
100
AcDbEntity
  8
RACCORDO
100
AcDbSpline
 62
7
  6
CONTINUOUS
 70
0
 71
3
 72
9
 73
5
 74
3
 42
0.0000001
 43
0.0000001
 44
0.0000000001
 12
0.1835849991
 22
-0.3697854661
 32
0.0
 13
-0.0258914114
 23
-0.4120368644
 33
0.0
 40
0.0
 40
0.0
 40
0.0
 40
0.0
 40
0.4998608255
 40
1.0
 40
1.0
 40
1.0
 40
1.0
 10
-7.1428852994
 20
8.9011931206
 30
0.0
 10
-7.1122963163
 20
8.8395793645
 30
0.0
 10
-7.0669921889
 20
8.7077220154
 30
0.0
 10
-7.0578722234
 20
8.5686250153
 30
0.0
 10
-7.0621886598
 20
8.4999330896
 30
0.0
 11
-7.1428852994
 21
8.9011931206
 31
0.0
 11
-7.0760458045
 21
8.7059498125
 31
0.0
 11
-7.0621886598
 21
8.4999330896
 31
0.0
  0
SPLINE
  5
60C
100
AcDbEntity
  8
RACCORDO
100
AcDbSpline
 62
7
  6
CONTINUOUS
 70
0
 71
3
 72
9
 73
5
 74
3
 42
0.0000001
 43
0.0000001
 44
0.0000000001
 12
-0.0258966297
 22
0.4120473647
 32
0.0
 13
0.1835926828
 23
0.3697937168
 33
0.0
 40
0.0
 40
0.0
 40
0.0
 40
0.0
 40
0.5001355991
 40
1.0
 40
1.0
 40
1.0
 40
1.0
 10
7.062189275
 20
8.4999304729
 30
0.0
 10
7.0578719995
 20
8.5686236581
 30
0.0
 10
7.0669909052
 20
8.7077247021
 30
0.0
 10
7.1122988051
 20
8.8395847419
 30
0.0
 10
7.1428892872
 20
8.9012003135
 30
0.0
 11
7.062189275
 21
8.4999304729
 31
0.0
 11
7.0760455346
 21
8.705951193
 31
0.0
 11
7.1428892872
 21
8.9012003135
 31
0.0
  0
SPLINE
  5
60D
100
AcDbEntity
  8
0
100
AcDbSpline
 62
7
  6
CONTINUOUS
 70
0
 71
3
 72
8
 73
4
 74
2
 42
0.0000001
 43
0.0000001
 44
0.0000000001
 12
0.0574597551
 22
-0.0894093869
 32
0.0
 13
0.0894093869
 23
-0.0574597551
 33
0.0
 40
0.0
 40
0.0
 40
0.0
 40
0.0
 40
1.0
 40
1.0
 40
1.0
 40
1.0
 10
-10.1103145581
 20
-24.3851625059
 30
0.0
 10
-10.0911613064
 20
-24.4149656349
 30
0.0
 10
-10.0649656349
 20
-24.4411613064
 30
0.0
 10
-10.0351625059
 20
-24.4603145581
 30
0.0
 11
-10.1103145581
 21
-24.3851625059
 31
0.0
 11
-10.0351625059
 21
-24.4603145581
 31
0.0
  0
SPLINE
  5
60E
100
AcDbEntity
  8
0
100
AcDbSpline
 62
7
  6
CONTINUOUS
 70
0
 71
3
 72
8
 73
4
 74
2
 42
0.0000001
 43
0.0000001
 44
0.0000000001
 12
0.0894093869
 22
0.0574597551
 32
0.0
 13
0.0574597551
 23
0.0894093869
 33
0.0
 40
0.0
 40
0.0
 40
0.0
 40
0.0
 40
1.0
 40
1.0
 40
1.0
 40
1.0
 10
-7.3648374941
 20
-24.4603145581
 30
0.0
 10
-7.3350343651
 20
-24.4411613064
 30
0.0
 10
-7.3088386936
 20
-24.4149656349
 30
0.0
 10
-7.2896854419
 20
-24.3851625059
 30
0.0
 11
-7.3648374941
 21
-24.4603145581
 31
0.0
 11
-7.2896854419
 21
-24.3851625059
 31
0.0
  0
SPLINE
  5
60F
100
AcDbEntity
  8
0
100
AcDbSpline
 62
7
  6
CONTINUOUS
 70
0
 71
3
 72
8
 73
4
 74
2
 42
0.0000001
 43
0.0000001
 44
0.0000000001
 12
0.0894093869
 22
0.0574597551
 32
0.0
 13
0.0574597551
 23
0.0894093869
 33
0.0
 40
0.0
 40
0.0
 40
0.0
 40
0.0
 40
1.0
 40
1.0
 40
1.0
 40
1.0
 10
10.0351625059
 20
-24.4603145581
 30
0.0
 10
10.0649656349
 20
-24.4411613064
 30
0.0
 10
10.0911613064
 20
-24.4149656349
 30
0.0
 10
10.1103145581
 20
-24.3851625059
 30
0.0
 11
10.0351625059
 21
-24.4603145581
 31
0.0
 11
10.1103145581
 21
-24.3851625059
 31
0.0
  0
SPLINE
  5
610
100
AcDbEntity
  8
0
100
AcDbSpline
 62
7
  6
CONTINUOUS
 70
0
 71
3
 72
8
 73
4
 74
2
 42
0.0000001
 43
0.0000001
 44
0.0000000001
 12
0.0574597551
 22
-0.0894093869
 32
0.0
 13
0.0894093869
 23
-0.0574597551
 33
0.0
 40
0.0
 40
0.0
 40
0.0
 40
0.0
 40
1.0
 40
1.0
 40
1.0
 40
1.0
 10
7.2896854419
 20
-24.3851625059
 30
0.0
 10
7.3088386936
 20
-24.4149656349
 30
0.0
 10
7.3350343651
 20
-24.4411613064
 30
0.0
 10
7.3648374941
 20
-24.4603145581
 30
0.0
 11
7.2896854419
 21
-24.3851625059
 31
0.0
 11
7.3648374941
 21
-24.4603145581
 31
0.0
  0
SPLINE
  5
611
100
AcDbEntity
  8
0
100
AcDbSpline
 62
7
  6
CONTINUOUS
 70
0
 71
3
 72
8
 73
4
 74
2
 42
0.0000001
 43
0.0000001
 44
0.0000000001
 12
-0.0894093869
 22
-0.0574597551
 32
0.0
 13
-0.0574597551
 23
-0.0894093869
 33
0.0
 40
0.0
 40
0.0
 40
0.0
 40
0.0
 40
1.0
 40
1.0
 40
1.0
 40
1.0
 10
-10.0351625059
 20
24.4603145581
 30
0.0
 10
-10.0649656349
 20
24.4411613064
 30
0.0
 10
-10.0911613064
 20
24.4149656349
 30
0.0
 10
-10.1103145581
 20
24.3851625059
 30
0.0
 11
-10.0351625059
 21
24.4603145581
 31
0.0
 11
-10.1103145581
 21
24.3851625059
 31
0.0
  0
SPLINE
  5
612
100
AcDbEntity
  8
0
100
AcDbSpline
 62
7
  6
CONTINUOUS
 70
0
 71
3
 72
8
 73
4
 74
2
 42
0.0000001
 43
0.0000001
 44
0.0000000001
 12
-0.0574597551
 22
0.0894093869
 32
0.0
 13
-0.0894093869
 23
0.0574597551
 33
0.0
 40
0.0
 40
0.0
 40
0.0
 40
0.0
 40
1.0
 40
1.0
 40
1.0
 40
1.0
 10
-7.2896854419
 20
24.3851625059
 30
0.0
 10
-7.3088386936
 20
24.4149656349
 30
0.0
 10
-7.3350343651
 20
24.4411613064
 30
0.0
 10
-7.3648374941
 20
24.4603145581
 30
0.0
 11
-7.2896854419
 21
24.3851625059
 31
0.0
 11
-7.3648374941
 21
24.4603145581
 31
0.0
  0
SPLINE
  5
613
100
AcDbEntity
  8
0
100
AcDbSpline
 62
7
  6
CONTINUOUS
 70
0
 71
3
 72
8
 73
4
 74
2
 42
0.0000001
 43
0.0000001
 44
0.0000000001
 12
-0.0894093869
 22
-0.0574597551
 32
0.0
 13
-0.0574597551
 23
-0.0894093869
 33
0.0
 40
0.0
 40
0.0
 40
0.0
 40
0.0
 40
1.0
 40
1.0
 40
1.0
 40
1.0
 10
7.3648374941
 20
24.4603145581
 30
0.0
 10
7.3350343651
 20
24.4411613064
 30
0.0
 10
7.3088386936
 20
24.4149656349
 30
0.0
 10
7.2896854419
 20
24.3851625059
 30
0.0
 11
7.3648374941
 21
24.4603145581
 31
0.0
 11
7.2896854419
 21
24.3851625059
 31
0.0
  0
SPLINE
  5
614
100
AcDbEntity
  8
0
100
AcDbSpline
 62
7
  6
CONTINUOUS
 70
0
 71
3
 72
8
 73
4
 74
2
 42
0.0000001
 43
0.0000001
 44
0.0000000001
 12
-0.0574597551
 22
0.0894093869
 32
0.0
 13
-0.0894093869
 23
0.0574597551
 33
0.0
 40
0.0
 40
0.0
 40
0.0
 40
0.0
 40
1.0
 40
1.0
 40
1.0
 40
1.0
 10
10.1103145581
 20
24.3851625059
 30
0.0
 10
10.0911613064
 20
24.4149656349
 30
0.0
 10
10.0649656349
 20
24.4411613064
 30
0.0
 10
10.0351625059
 20
24.4603145581
 30
0.0
 11
10.1103145581
 21
24.3851625059
 31
0.0
 11
10.0351625059
 21
24.4603145581
 31
0.0
  0
SPLINE
  5
615
100
AcDbEntity
  8
RACCORDO
100
AcDbSpline
 62
253
  6
CONTINUOUS
 70
0
 71
3
 72
18
 73
14
 74
12
 42
0.0000001
 43
0.0000001
 44
0.0000000001
 12
-0.1463406301
 22
-0.1363535215
 32
0.0
 13
0.0000001332
 23
-0.2000196561
 33
0.0
 40
0.0
 40
0.0
 40
0.0
 40
0.0
 40
0.0056616561
 40
0.0207778593
 40
0.045200333
 40
0.0787341784
 40
0.1210286917
 40
0.1716641292
 40
0.2961022337
 40
0.4472166761
 40
0.6193426073
 40
0.8061648253
 40
1.0
 40
1.0
 40
1.0
 40
1.0
 10
4.5043253562
 20
-17.5956632207
 30
0.0
 10
4.5040491795
 20
-17.5959205496
 30
0.0
 10
4.5043109455
 20
-17.5975504435
 30
0.0
 10
4.5038211469
 20
-17.6003368909
 30
0.0
 10
4.5038552992
 20
-17.6053288122
 30
0.0
 10
4.5036208388
 20
-17.6119585848
 30
0.0
 10
4.5035019912
 20
-17.6204088534
 30
0.0
 10
4.5032835269
 20
-17.6348909852
 30
0.0
 10
4.5030743845
 20
-17.6566436525
 30
0.0
 10
4.5028643941
 20
-17.6864888164
 30
0.0
 10
4.5027117838
 20
-17.7204967711
 30
0.0
 10
4.5026165505
 20
-17.7573522757
 30
0.0
 10
4.5025952051
 20
-17.7827319903
 30
0.0
 10
4.5025952137
 20
-17.7956556053
 30
0.0
 11
4.5043253562
 21
-17.5956632207
 31
0.0
 11
4.5041556814
 21
-17.5967828798
 31
0.0
 11
4.503987316
 21
-17.5998017262
 31
0.0
 11
4.5038221617
 21
-17.6046839084
 31
0.0
 11
4.503662074
 21
-17.6113894259
 31
0.0
 11
4.5035085734
 21
-17.6198477672
 31
0.0
 11
4.5033630307
 21
-17.6299748042
 31
0.0
 11
4.5031011602
 21
-17.6548634934
 31
0.0
 11
4.5028862502
 21
-17.6850885882
 31
0.0
 11
4.5027266568
 21
-17.7195167879
 31
0.0
 11
4.5026284135
 21
-17.7568847745
 31
0.0
 11
4.5025952137
 21
-17.7956556053
 31
0.0
  0
SPLINE
  5
616
100
AcDbEntity
  8
RACCORDO
100
AcDbSpline
 62
253
  6
CONTINUOUS
 70
0
 71
3
 72
17
 73
13
 74
11
 42
0.0000001
 43
0.0000001
 44
0.0000000001
 12
0.1419645157
 22
-0.1409038846
 32
0.0
 13
-0.0000003312
 23
-0.2000195701
 33
0.0
 40
0.0
 40
0.0
 40
0.0
 40
0.0
 40
0.0056881873
 40
0.0207971904
 40
0.0452015239
 40
0.0787260113
 40
0.1210206737
 40
0.171660219
 40
0.2960990143
 40
0.4472082988
 40
0.6193361289
 40
1.0
 40
1.0
 40
1.0
 40
1.0
 10
-4.5043253562
 20
-17.5956632207
 30
0.0
 10
-4.5040561826
 20
-17.5959303832
 30
0.0
 10
-4.5043014687
 20
-17.5975427057
 30
0.0
 10
-4.50382714
 20
-17.6003467566
 30
0.0
 10
-4.5038526084
 20
-17.6053267091
 30
0.0
 10
-4.5036218605
 20
-17.6119587834
 30
0.0
 10
-4.5035016467
 20
-17.6204071589
 30
0.0
 10
-4.5032838244
 20
-17.6348903234
 30
0.0
 10
-4.5030742751
 20
-17.6566425108
 30
0.0
 10
-4.5028643861
 20
-17.6864876841
 30
0.0
 10
-4.5026540307
 20
-17.733419454
 30
0.0
 10
-4.5025951717
 20
-17.7702755307
 30
0.0
 10
-4.5025952137
 20
-17.7956556053
 30
0.0
 11
-4.5043253562
 21
-17.5956632207
 31
0.0
 11
-4.5041556832
 21
-17.5967882466
 31
0.0
 11
-4.5039873218
 21
-17.5998056496
 31
0.0
 11
-4.5038221727
 21
-17.6046841993
 31
0.0
 11
-4.5036620893
 21
-17.6113878418
 31
0.0
 11
-4.5035085892
 21
-17.6198462092
 31
0.0
 11
-4.5033630439
 21
-17.6299740636
 31
0.0
 11
-4.5031011633
 21
-17.6548628802
 31
0.0
 11
-4.5028862495
 21
-17.6850869302
 31
0.0
 11
-4.5027266603
 21
-17.7195154949
 31
0.0
 11
-4.5025952137
 21
-17.7956556053
 31
0.0
  0
LINE
  5
617
100
AcDbEntity
  8
SMUSSO
100
AcDbLine
 62
7
  6
CONTINUOUS
 10
9.515191188
 20
15.1087279404
 11
9.51521385
 21
15.1243744305
  0
LINE
  5
618
100
AcDbEntity
  8
SMUSSO
100
AcDbLine
 62
7
  6
CONTINUOUS
 10
9.51521385
 20
15.1243744305
 11
9.5155882208
 21
15.3781526777
  0
LINE
  5
619
100
AcDbEntity
  8
SMUSSO
100
AcDbLine
 62
7
  6
CONTINUOUS
 10
9.5186939233
 20
17.2219200329
 11
9.5189832584
 21
17.3754793138
  0
LINE
  5
61A
100
AcDbEntity
  8
SMUSSO
100
AcDbLine
 62
7
  6
CONTINUOUS
 10
9.5189832584
 20
17.3754793138
 11
9.51901523
 21
17.3922952188
  0
LINE
  5
61B
100
AcDbEntity
  8
SMUSSO
100
AcDbLine
 62
7
  6
CONTINUOUS
 10
9.5223345817
 20
19.0001166929
 11
9.5241551301
 21
19.7895472382
  0
LINE
  5
61C
100
AcDbEntity
  8
SMUSSO
100
AcDbLine
 62
7
  6
CONTINUOUS
 10
-9.515191188
 20
15.1087279404
 11
-9.51521385
 21
15.1243744305
  0
LINE
  5
61D
100
AcDbEntity
  8
SMUSSO
100
AcDbLine
 62
7
  6
CONTINUOUS
 10
-9.51521385
 20
15.1243744305
 11
-9.5155883843
 21
15.3782616932
  0
LINE
  5
61E
100
AcDbEntity
  8
SMUSSO
100
AcDbLine
 62
7
  6
CONTINUOUS
 10
-9.5186937187
 20
17.2218105585
 11
-9.5189832584
 21
17.3754793138
  0
LINE
  5
61F
100
AcDbEntity
  8
SMUSSO
100
AcDbLine
 62
7
  6
CONTINUOUS
 10
-9.5189832584
 20
17.3754793138
 11
-9.51901523
 21
17.3922952188
  0
LINE
  5
620
100
AcDbEntity
  8
SMUSSO
100
AcDbLine
 62
7
  6
CONTINUOUS
 10
-9.5223345817
 20
19.0001166929
 11
-9.5241551301
 21
19.7895472382
  0
SPLINE
  5
621
100
AcDbEntity
  8
0
100
AcDbSpline
 62
7
  6
CONTINUOUS
 70
0
 71
3
 72
18
 73
14
 74
12
 42
0.0000001
 43
0.0000001
 44
0.0000000001
 12
0.4645026772
 22
-0.487981829
 32
0.0
 13
0.0392554892
 23
-0.6725682189
 33
0.0
 40
0.0
 40
0.0
 40
0.0
 40
0.0
 40
0.1636777159
 40
0.3250651091
 40
0.4815207472
 40
0.6295729905
 40
0.7642643442
 40
0.8244081944
 40
0.8781857494
 40
0.9241530687
 40
0.9607159126
 40
0.9863262043
 40
1.0
 40
1.0
 40
1.0
 40
1.0
 10
3.9530427099
 20
-23.4563578147
 30
0.0
 10
3.9783856223
 20
-23.4829817318
 30
0.0
 10
4.0287170546
 20
-23.5358568617
 30
0.0
 10
4.103193902
 20
-23.6142562937
 30
0.0
 10
4.175085966
 20
-23.6902721169
 30
0.0
 10
4.2425622934
 20
-23.7622079911
 30
0.0
 10
4.2948558013
 20
-23.8187396367
 30
0.0
 10
4.332306123
 20
-23.8601361644
 30
0.0
 10
4.3561378569
 20
-23.8870243185
 30
0.0
 10
4.3759696477
 20
-23.9102604776
 30
0.0
 10
4.3914504463
 20
-23.9291937432
 30
0.0
 10
4.4009846715
 20
-23.9429096862
 30
0.0
 10
4.4058988291
 20
-23.9508267529
 30
0.0
 10
4.406077753
 20
-23.9538922731
 30
0.0
 11
3.9530427099
 21
-23.4563578147
 31
0.0
 11
4.0290580898
 21
-23.5362422784
 31
0.0
 11
4.1039271493
 21
-23.6150874893
 31
0.0
 11
4.1763284607
 21
-23.6916937002
 31
0.0
 11
4.2445277278
 21
-23.7644801334
 31
0.0
 11
4.3060506692
 21
-23.8311830072
 31
0.0
 11
4.3332147907
 21
-23.8612488574
 31
0.0
 11
4.3571987918
 21
-23.8884044503
 31
0.0
 11
4.3772780659
 21
-23.911981721
 31
0.0
 11
4.3926431231
 21
-23.9312351025
 31
0.0
 11
4.402474935
 21
-23.9454137973
 31
0.0
 11
4.406077753
 21
-23.9538922731
 31
0.0
  0
SPLINE
  5
622
100
AcDbEntity
  8
0
100
AcDbSpline
 62
7
  6
CONTINUOUS
 70
0
 71
3
 72
10
 73
6
 74
4
 42
0.0000001
 43
0.0000001
 44
0.0000000001
 12
0.3811161314
 22
0.4321048147
 32
0.0
 13
0.397245454
 23
0.4173249643
 33
0.0
 40
0.0
 40
0.0
 40
0.0
 40
0.0
 40
0.2091834984
 40
0.4568376847
 40
1.0
 40
1.0
 40
1.0
 40
1.0
 10
3.5590867224
 20
-23.8767611455
 30
0.0
 10
3.5856611243
 20
-23.8466314133
 30
0.0
 10
3.6449836267
 20
-23.7819735119
 30
0.0
 10
3.7763433889
 20
-23.6418722452
 30
0.0
 10
3.8811197898
 20
-23.5319162126
 30
0.0
 10
3.9530427099
 20
-23.4563578147
 30
0.0
 11
3.5590867224
 21
-23.8767611455
 31
0.0
 11
3.6401321933
 21
-23.7875556071
 31
0.0
 11
3.7376132782
 21
-23.6833555272
 31
0.0
 11
3.9530427099
 21
-23.4563578147
 31
0.0
  0
SPLINE
  5
623
100
AcDbEntity
  8
0
100
AcDbSpline
 62
7
  6
CONTINUOUS
 70
0
 71
3
 72
10
 73
6
 74
4
 42
0.0000001
 43
0.0000001
 44
0.0000000001
 12
0.397245454
 22
-0.4173249643
 32
0.0
 13
0.3811161314
 23
-0.4321048147
 33
0.0
 40
0.0
 40
0.0
 40
0.0
 40
0.0
 40
0.5431623383
 40
0.7908165056
 40
1.0
 40
1.0
 40
1.0
 40
1.0
 10
-3.9530427099
 20
-23.4563578147
 30
0.0
 10
-3.8811197867
 20
-23.5319162158
 30
0.0
 10
-3.7763433853
 20
-23.6418722489
 30
0.0
 10
-3.6449836232
 20
-23.7819735158
 30
0.0
 10
-3.5856611238
 20
-23.8466314138
 30
0.0
 10
-3.5590867224
 20
-23.8767611455
 30
0.0
 11
-3.9530427099
 21
-23.4563578147
 31
0.0
 11
-3.7376132691
 21
-23.6833555368
 31
0.0
 11
-3.6401321917
 21
-23.7875556088
 31
0.0
 11
-3.5590867224
 21
-23.8767611455
 31
0.0
  0
SPLINE
  5
624
100
AcDbEntity
  8
0
100
AcDbSpline
 62
7
  6
CONTINUOUS
 70
0
 71
3
 72
18
 73
14
 74
12
 42
0.0000001
 43
0.0000001
 44
0.0000000001
 12
0.0392554892
 22
0.6725682189
 32
0.0
 13
0.4645026772
 23
0.487981829
 33
0.0
 40
0.0
 40
0.0
 40
0.0
 40
0.0
 40
0.0136738063
 40
0.0392841141
 40
0.0758469671
 40
0.1218142824
 40
0.1755918271
 40
0.2357356681
 40
0.370427019
 40
0.5184792766
 40
0.674934888
 40
0.8363222465
 40
1.0
 40
1.0
 40
1.0
 40
1.0
 10
-4.406077753
 20
-23.9538922731
 30
0.0
 10
-4.405898829
 20
-23.9508267505
 30
0.0
 10
-4.4009846668
 20
-23.9429096789
 30
0.0
 10
-4.3914504364
 20
-23.9291937302
 30
0.0
 10
-4.3759696342
 20
-23.9102604613
 30
0.0
 10
-4.3561378437
 20
-23.8870243035
 30
0.0
 10
-4.3323061131
 20
-23.8601361535
 30
0.0
 10
-4.2948557947
 20
-23.8187396296
 30
0.0
 10
-4.2425622864
 20
-23.7622079836
 30
0.0
 10
-4.1750859612
 20
-23.690272112
 30
0.0
 10
-4.1031939045
 20
-23.6142562965
 30
0.0
 10
-4.0287170609
 20
-23.5358568683
 30
0.0
 10
-3.9783856282
 20
-23.4829817379
 30
0.0
 10
-3.9530427099
 20
-23.4563578147
 30
0.0
 11
-4.406077753
 21
-23.9538922731
 31
0.0
 11
-4.4024749315
 21
-23.9454137911
 31
0.0
 11
-4.3926431123
 21
-23.931235088
 31
0.0
 11
-4.3772780505
 21
-23.9119817024
 31
0.0
 11
-4.3571987777
 21
-23.8884044342
 31
0.0
 11
-4.333214781
 21
-23.8612488467
 31
0.0
 11
-4.3060506636
 21
-23.8311830012
 31
0.0
 11
-4.2445277235
 21
-23.7644801287
 31
0.0
 11
-4.1763284496
 21
-23.6916936886
 31
0.0
 11
-4.1039271505
 21
-23.6150874908
 31
0.0
 11
-4.0290581072
 21
-23.5362422968
 31
0.0
 11
-3.9530427099
 21
-23.4563578147
 31
0.0
  0
LINE
  5
625
100
AcDbEntity
  8
RACCORDO
100
AcDbLine
 62
253
  6
CONTINUOUS
 10
6.5959955457
 20
20.0049452141
 11
6.4792886332
 21
18.9520022272
  0
LINE
  5
626
100
AcDbEntity
  8
RACCORDO
100
AcDbLine
 62
253
  6
CONTINUOUS
 10
7.2040044543
 20
20.0049452141
 11
7.3207113668
 21
18.9520022272
  0
LINE
  5
627
100
AcDbEntity
  8
RACCORDO
100
AcDbLine
 62
253
  6
CONTINUOUS
 10
-7.3207113668
 20
18.9520022272
 11
-7.2040044543
 21
20.0049452141
  0
SPLINE
  5
628
100
AcDbEntity
  8
0
100
AcDbSpline
 62
7
  6
CONTINUOUS
 70
0
 71
3
 72
10
 73
6
 74
4
 42
0.0000001
 43
0.0000001
 44
0.0000000001
 12
-0.397245454
 22
0.4173249643
 32
0.0
 13
-0.3811161314
 23
0.4321048147
 33
0.0
 40
0.0
 40
0.0
 40
0.0
 40
0.0
 40
0.5431626117
 40
0.7908166328
 40
1.0
 40
1.0
 40
1.0
 40
1.0
 10
3.9530427099
 20
23.4563578147
 30
0.0
 10
3.8811197505
 20
23.5319162539
 30
0.0
 10
3.7763433326
 20
23.6418723049
 30
0.0
 10
3.6449835708
 20
23.7819735721
 30
0.0
 10
3.5856611077
 20
23.8466314321
 30
0.0
 10
3.5590867224
 20
23.8767611455
 30
0.0
 11
3.9530427099
 21
23.4563578147
 31
0.0
 11
3.7376131613
 21
23.6833556516
 31
0.0
 11
3.6401321419
 21
23.7875556625
 31
0.0
 11
3.5590867224
 21
23.8767611455
 31
0.0
  0
SPLINE
  5
629
100
AcDbEntity
  8
0
100
AcDbSpline
 62
7
  6
CONTINUOUS
 70
0
 71
3
 72
18
 73
14
 74
12
 42
0.0000001
 43
0.0000001
 44
0.0000000001
 12
-0.0392554892
 22
-0.6725682188
 32
0.0
 13
-0.4645026771
 23
-0.4879818289
 33
0.0
 40
0.0
 40
0.0
 40
0.0
 40
0.0
 40
0.0136738247
 40
0.0392842078
 40
0.075847115
 40
0.1218143798
 40
0.1755918341
 40
0.2357355972
 40
0.3704268718
 40
0.5184790115
 40
0.6749344637
 40
0.8363218448
 40
1.0
 40
1.0
 40
1.0
 40
1.0
 10
4.406077753
 20
23.9538922731
 30
0.0
 10
4.4058988287
 20
23.9508267464
 30
0.0
 10
4.4009846523
 20
23.942909657
 30
0.0
 10
4.3914504014
 20
23.9291936837
 30
0.0
 10
4.3759695855
 20
23.9102604026
 30
0.0
 10
4.3561378057
 20
23.8870242612
 30
0.0
 10
4.3323061076
 20
23.8601361482
 30
0.0
 10
4.2948558269
 20
23.8187396643
 30
0.0
 10
4.2425623598
 20
23.7622080634
 30
0.0
 10
4.1750860904
 20
23.6902722484
 30
0.0
 10
4.1031940726
 20
23.6142564747
 30
0.0
 10
4.0287171887
 20
23.5358570028
 30
0.0
 10
3.9783856904
 20
23.4829818032
 30
0.0
 10
3.9530427099
 20
23.4563578147
 30
0.0
 11
4.406077753
 21
23.9538922731
 31
0.0
 11
4.4024749251
 21
23.9454137804
 31
0.0
 11
4.3926430742
 21
23.9312350375
 31
0.0
 11
4.3772779871
 21
23.9119816254
 31
0.0
 11
4.3571987344
 21
23.8884043847
 31
0.0
 11
4.3332147775
 21
23.8612488433
 31
0.0
 11
4.3060506957
 21
23.8311830364
 31
0.0
 11
4.2445277908
 21
23.7644802014
 31
0.0
 11
4.1763285722
 21
23.6916938185
 31
0.0
 11
4.1039273469
 21
23.6150876985
 31
0.0
 11
4.0290582936
 21
23.536242493
 31
0.0
 11
3.9530427099
 21
23.4563578147
 31
0.0
  0
SPLINE
  5
62A
100
AcDbEntity
  8
0
100
AcDbSpline
 62
7
  6
CONTINUOUS
 70
0
 71
3
 72
18
 73
14
 74
12
 42
0.0000001
 43
0.0000001
 44
0.0000000001
 12
-0.4645026771
 22
0.4879818288
 32
0.0
 13
-0.0392554892
 23
0.6725682188
 33
0.0
 40
0.0
 40
0.0
 40
0.0
 40
0.0
 40
0.1636781868
 40
0.325065533
 40
0.4815209584
 40
0.6295731111
 40
0.7642643806
 40
0.8244081354
 40
0.8781855804
 40
0.9241528441
 40
0.9607157627
 40
0.9863261637
 40
1.0
 40
1.0
 40
1.0
 40
1.0
 10
-3.9530427099
 20
23.4563578147
 30
0.0
 10
-3.9783856952
 20
23.4829818083
 30
0.0
 10
-4.028717193
 20
23.5358570074
 30
0.0
 10
-4.1031940723
 20
23.6142564745
 30
0.0
 10
-4.1750860825
 20
23.6902722402
 30
0.0
 10
-4.2425623493
 20
23.7622080519
 30
0.0
 10
-4.2948558162
 20
23.8187396528
 30
0.0
 10
-4.3323060936
 20
23.8601361328
 30
0.0
 10
-4.3561377893
 20
23.8870242424
 30
0.0
 10
-4.3759695696
 20
23.9102603836
 30
0.0
 10
-4.3914503904
 20
23.929193669
 30
0.0
 10
-4.4009846471
 20
23.942909649
 30
0.0
 10
-4.4058988286
 20
23.9508267438
 30
0.0
 10
-4.406077753
 20
23.9538922731
 30
0.0
 11
-3.9530427099
 21
23.4563578147
 31
0.0
 11
-4.0290583082
 21
23.5362425085
 31
0.0
 11
-4.1039273454
 21
23.6150876969
 31
0.0
 11
-4.1763285582
 21
23.6916938037
 31
0.0
 11
-4.244527783
 21
23.7644801929
 31
0.0
 11
-4.3060506856
 21
23.8311830253
 31
0.0
 11
-4.3332147638
 21
23.861248828
 31
0.0
 11
-4.3571987168
 21
23.8884043645
 31
0.0
 11
-4.3772779695
 21
23.9119816041
 31
0.0
 11
-4.3926430623
 21
23.9312350216
 31
0.0
 11
-4.4024749212
 21
23.9454137735
 31
0.0
 11
-4.406077753
 21
23.9538922731
 31
0.0
  0
SPLINE
  5
62B
100
AcDbEntity
  8
0
100
AcDbSpline
 62
7
  6
CONTINUOUS
 70
0
 71
3
 72
10
 73
6
 74
4
 42
0.0000001
 43
0.0000001
 44
0.0000000001
 12
-0.3811161314
 22
-0.4321048147
 32
0.0
 13
-0.397245454
 23
-0.4173249643
 33
0.0
 40
0.0
 40
0.0
 40
0.0
 40
0.0
 40
0.2091833594
 40
0.4568373617
 40
1.0
 40
1.0
 40
1.0
 40
1.0
 10
-3.5590867224
 20
23.8767611455
 30
0.0
 10
-3.5856611067
 20
23.8466314333
 30
0.0
 10
-3.6449835664
 20
23.781973577
 30
0.0
 10
-3.776343328
 20
23.6418723096
 30
0.0
 10
-3.881119747
 20
23.5319162576
 30
0.0
 10
-3.9530427099
 20
23.4563578147
 30
0.0
 11
-3.5590867224
 21
23.8767611455
 31
0.0
 11
-3.6401321388
 21
23.7875556658
 31
0.0
 11
-3.7376131507
 21
23.6833556627
 31
0.0
 11
-3.9530427099
 21
23.4563578147
 31
0.0
  0
LINE
  5
62C
100
AcDbEntity
  8
RACCORDO
100
AcDbLine
 62
253
  6
CONTINUOUS
 10
-6.4792886332
 20
18.9520022272
 11
-6.5959955457
 21
20.0049452141
  0
SPLINE
  5
62D
100
AcDbEntity
  8
RACCORDO
100
AcDbSpline
 62
7
  6
CONTINUOUS
 70
0
 71
3
 72
15
 73
11
 74
9
 42
0.0000001
 43
0.0000001
 44
0.0000000001
 12
-0.0015093473
 22
1.4085978569
 32
0.0
 13
-0.0015093473
 23
-1.4085978569
 33
0.0
 40
0.0
 40
0.0
 40
0.0
 40
0.0
 40
0.1246273117
 40
0.2494769332
 40
0.3746405874
 40
0.5000332938
 40
0.6254281738
 40
0.7505835195
 40
0.8753924635
 40
1.0
 40
1.0
 40
1.0
 40
1.0
 10
-7.3480695647
 20
-18.7051734659
 30
0.0
 10
-7.3481322667
 20
-18.6466568779
 30
0.0
 10
-7.325368286
 20
-18.5282535721
 30
0.0
 10
-7.2268889037
 20
-18.377311872
 30
0.0
 10
-7.0776346626
 20
-18.2749655754
 30
0.0
 10
-6.8999492902
 20
-18.2387526234
 30
0.0
 10
-6.7222739273
 20
-18.2750010377
 30
0.0
 10
-6.5730631069
 20
-18.3773692832
 30
0.0
 10
-6.4746199138
 20
-18.5282909962
 30
0.0
 10
-6.4518677433
 20
-18.646666163
 30
0.0
 10
-6.4519304353
 20
-18.7051734659
 30
0.0
 11
-7.3480695647
 21
-18.7051734659
 31
0.0
 11
-7.3147040312
 21
-18.5328235421
 31
0.0
 11
-7.2185723152
 21
-18.3855602011
 31
0.0
 11
-7.0730333889
 21
-18.2860514097
 31
0.0
 11
-6.8999513319
 21
-18.2508370442
 31
0.0
 11
-6.7268736618
 21
-18.2860883093
 31
0.0
 11
-6.581366271
 21
-18.3856224809
 31
0.0
 11
-6.4852838398
 21
-18.5328495666
 31
0.0
 11
-6.4519304353
 21
-18.7051734659
 31
0.0
  0
SPLINE
  5
62E
100
AcDbEntity
  8
RACCORDO
100
AcDbSpline
 62
7
  6
CONTINUOUS
 70
0
 71
3
 72
15
 73
11
 74
9
 42
0.0000001
 43
0.0000001
 44
0.0000000001
 12
-0.0015093473
 22
1.4085978807
 32
0.0
 13
-0.0015093473
 23
-1.4085978807
 33
0.0
 40
0.0
 40
0.0
 40
0.0
 40
0.0
 40
0.1246273702
 40
0.2494758974
 40
0.3746394236
 40
0.5000325637
 40
0.6254279096
 40
0.7505835047
 40
0.8753927573
 40
1.0
 40
1.0
 40
1.0
 40
1.0
 10
6.4519304353
 20
-18.7051734659
 30
0.0
 10
6.4518677333
 20
-18.6466568494
 30
0.0
 10
6.4746314878
 20
-18.5282539787
 30
0.0
 10
6.5731104806
 20
-18.3773127925
 30
0.0
 10
6.722363928
 20
-18.2749660637
 30
0.0
 10
6.9000496299
 20
-18.2387525243
 30
0.0
 10
7.0777256067
 20
-18.2750007986
 30
0.0
 10
7.2269369501
 20
-18.3773692118
 30
0.0
 10
7.3253800724
 20
-18.5282911548
 30
0.0
 10
7.3481322566
 20
-18.6466662999
 30
0.0
 10
7.3480695647
 20
-18.7051734659
 30
0.0
 11
6.4519304353
 21
-18.7051734659
 31
0.0
 11
6.4852959213
 21
-18.5328234459
 31
0.0
 11
6.581426643
 21
-18.3855612933
 31
0.0
 11
6.7269650374
 21
-18.286052038
 31
0.0
 11
6.9000475906
 21
-18.2508370321
 31
0.0
 11
7.0731259606
 21
-18.2860881648
 31
0.0
 11
7.2186337049
 21
-18.3856224469
 31
0.0
 11
7.3147162787
 21
-18.5328499621
 31
0.0
 11
7.3480695647
 21
-18.7051734659
 31
0.0
  0
SPLINE
  5
62F
100
AcDbEntity
  8
RACCORDO
100
AcDbSpline
 62
253
  6
CONTINUOUS
 70
0
 71
3
 72
18
 73
14
 74
12
 42
0.0000001
 43
0.0000001
 44
0.0000000001
 12
-0.1911551867
 22
-0.4620082173
 32
0.0
 13
0.0000001182
 23
-0.4999918982
 33
0.0
 40
0.0
 40
0.0
 40
0.0
 40
0.0
 40
0.0056261372
 40
0.0207204076
 40
0.0451208518
 40
0.078639514
 40
0.1209266785
 40
0.1715602073
 40
0.2960028387
 40
0.4471313298
 40
0.6192822488
 40
0.8061377813
 40
1.0
 40
1.0
 40
1.0
 40
1.0
 10
4.2043367793
 20
-17.2956746438
 30
0.0
 10
4.2039782909
 20
-17.2965410843
 30
0.0
 10
4.2044275116
 20
-17.3001452763
 30
0.0
 10
4.2037680361
 20
-17.3075263841
 30
0.0
 10
4.2038953708
 20
-17.3197693732
 30
0.0
 10
4.2036208785
 20
-17.3364371107
 30
0.0
 10
4.2035171156
 20
-17.3575216793
 30
0.0
 10
4.2032916552
 20
-17.3937421547
 30
0.0
 10
4.2030870426
 20
-17.4481118094
 30
0.0
 10
4.202875508
 20
-17.5227292411
 30
0.0
 10
4.2027233919
 20
-17.6077506934
 30
0.0
 10
4.2026279357
 20
-17.6998937924
 30
0.0
 10
4.2026066292
 20
-17.7633457591
 30
0.0
 10
4.2026066368
 20
-17.7956556053
 30
0.0
 11
4.2043367793
 21
-17.2956746438
 31
0.0
 11
4.2041667943
 21
-17.2984825262
 31
0.0
 11
4.203998429
 21
-17.3060276608
 31
0.0
 11
4.2038333828
 21
-17.3182265688
 31
0.0
 11
4.2036733332
 21
-17.3349848641
 31
0.0
 11
4.2035197967
 21
-17.3561275462
 31
0.0
 11
4.2033742177
 21
-17.3814434819
 31
0.0
 11
4.2031124796
 21
-17.4436632388
 31
0.0
 11
4.2028977535
 21
-17.5192259549
 31
0.0
 11
4.2027381393
 21
-17.6052998716
 31
0.0
 11
4.2026398471
 21
-17.6987260723
 31
0.0
 11
4.2026066368
 21
-17.7956556053
 31
0.0
  0
SPLINE
  5
630
100
AcDbEntity
  8
RACCORDO
100
AcDbSpline
 62
253
  6
CONTINUOUS
 70
0
 71
3
 72
18
 73
14
 74
12
 42
0.0000001
 43
0.0000001
 44
0.0000000001
 12
0.1870229782
 22
-0.4636963468
 32
0.0
 13
-0.0000007324
 23
-0.4999918963
 33
0.0
 40
0.0
 40
0.0
 40
0.0
 40
0.0
 40
0.0056390391
 40
0.0207303037
 40
0.0451222794
 40
0.0786363152
 40
0.1209236549
 40
0.1715593819
 40
0.2960037175
 40
0.4471311773
 40
0.619282123
 40
0.8061378346
 40
1.0
 40
1.0
 40
1.0
 40
1.0
 10
-4.2043367793
 20
-17.2956746438
 30
0.0
 10
-4.203985236
 20
-17.2965462444
 30
0.0
 10
-4.2044174037
 20
-17.3001450059
 30
0.0
 10
-4.2037740595
 20
-17.3075329158
 30
0.0
 10
-4.2038928772
 20
-17.3197696129
 30
0.0
 10
-4.2036223171
 20
-17.3364367458
 30
0.0
 10
-4.2035171539
 20
-17.3575203573
 30
0.0
 10
-4.2032922497
 20
-17.3937417776
 30
0.0
 10
-4.2030871233
 20
-17.4481117437
 30
0.0
 10
-4.2028756787
 20
-17.5227293593
 30
0.0
 10
-4.2027234412
 20
-17.6077506513
 30
0.0
 10
-4.2026279109
 20
-17.6998937822
 30
0.0
 10
-4.2026065895
 20
-17.7633457681
 30
0.0
 10
-4.2026066368
 20
-17.7956556053
 30
0.0
 11
-4.2043367793
 21
-17.2956746438
 31
0.0
 11
-4.2041665034
 21
-17.2984889712
 31
0.0
 11
-4.2039982974
 21
-17.3060326062
 31
0.0
 11
-4.2038335593
 21
-17.3182272837
 31
0.0
 11
-4.203673697
 21
-17.3349832674
 31
0.0
 11
-4.2035201924
 21
-17.3561260373
 31
0.0
 11
-4.203374561
 21
-17.3814430716
 31
0.0
 11
-4.2031127002
 21
-17.4436636799
 31
0.0
 11
-4.2028978892
 21
-17.5192258798
 31
0.0
 11
-4.2027382008
 21
-17.6052998095
 31
0.0
 11
-4.2026398319
 21
-17.6987260993
 31
0.0
 11
-4.2026066368
 21
-17.7956556053
 31
0.0
  0
SPLINE
  5
631
100
AcDbEntity
  8
RACCORDO
100
AcDbSpline
 62
7
  6
CONTINUOUS
 70
0
 71
3
 72
15
 73
11
 74
9
 42
0.0000001
 43
0.0000001
 44
0.0000000001
 12
0.0
 22
0.9503841674
 32
0.0
 13
0.0
 23
-0.9503841674
 33
0.0
 40
0.0
 40
0.0
 40
0.0
 40
0.0
 40
0.1250223177
 40
0.2500569757
 40
0.3750636469
 40
0.5000481864
 40
0.6250321258
 40
0.750028102
 40
0.8750016434
 40
1.0
 40
1.0
 40
1.0
 40
1.0
 10
7.2040044543
 20
-20.0049452141
 30
0.0
 10
7.2040044543
 20
-19.9653388037
 30
0.0
 10
7.188231708
 20
-19.8852585713
 30
0.0
 10
7.1207193188
 20
-19.7839064701
 30
0.0
 10
7.0195045871
 20
-19.7159117196
 30
0.0
 10
6.8999533525
 20
-19.6920541569
 30
0.0
 10
6.7804119093
 20
-19.7159480983
 30
0.0
 10
6.6792408418
 20
-19.7839626971
 30
0.0
 10
6.6117564841
 20
-19.8852920127
 30
0.0
 10
6.5959955457
 20
-19.9653463944
 30
0.0
 10
6.5959955457
 20
-20.0049452141
 30
0.0
 11
7.2040044543
 21
-20.0049452141
 31
0.0
 11
7.180923675
 21
-19.8883892733
 31
0.0
 11
7.1150942916
 21
-19.7894585441
 31
0.0
 11
7.0164396121
 21
-19.7232639035
 31
0.0
 11
6.8999542247
 21
-19.7000123784
 31
0.0
 11
6.7834767309
 21
-19.7233005048
 31
0.0
 11
6.6848506926
 21
-19.7895195789
 31
0.0
 11
6.6190663571
 21
-19.8884105139
 31
0.0
 11
6.5959955457
 21
-20.0049452141
 31
0.0
  0
SPLINE
  5
632
100
AcDbEntity
  8
RACCORDO
100
AcDbSpline
 62
7
  6
CONTINUOUS
 70
0
 71
3
 72
15
 73
11
 74
9
 42
0.0000001
 43
0.0000001
 44
0.0000000001
 12
0.0
 22
0.9503842326
 32
0.0
 13
0.0
 23
-0.9503842326
 33
0.0
 40
0.0
 40
0.0
 40
0.0
 40
0.0
 40
0.1250226321
 40
0.2500585705
 40
0.3750650367
 40
0.5000490933
 40
0.6250325189
 40
0.7500281037
 40
0.8750013165
 40
1.0
 40
1.0
 40
1.0
 40
1.0
 10
-6.5959955457
 20
-20.0049452141
 30
0.0
 10
-6.5959955457
 20
-19.9653387014
 30
0.0
 10
-6.6117685252
 20
-19.8852579949
 30
0.0
 10
-6.6792812976
 20
-19.7839055029
 30
0.0
 10
-6.7804966288
 20
-19.7159112662
 30
0.0
 10
-6.9000475189
 20
-19.6920541809
 30
0.0
 10
-7.0195884628
 20
-19.7159482983
 30
0.0
 10
-7.1207591237
 20
-19.7839627448
 30
0.0
 10
-7.1882435005
 20
-19.8852918853
 30
0.0
 10
-7.2040044543
 20
-19.9653462882
 30
0.0
 10
-7.2040044543
 20
-20.0049452141
 30
0.0
 11
-6.5959955457
 21
-20.0049452141
 31
0.0
 11
-6.6190764764
 21
-19.8883889903
 31
0.0
 11
-6.6849067342
 21
-19.7894573715
 31
0.0
 11
-6.7835616103
 21
-19.7232633591
 31
0.0
 11
-6.9000466406
 21
-19.700012348
 31
0.0
 11
-7.0165236135
 21
-19.723300631
 31
0.0
 11
-7.1151493022
 21
-19.789519573
 31
0.0
 11
-7.1809335368
 21
-19.8884102099
 31
0.0
 11
-7.2040044543
 21
-20.0049452141
 31
0.0
  0
SPLINE
  5
633
100
AcDbEntity
  8
RACCORDO
100
AcDbSpline
 62
7
  6
CONTINUOUS
 70
0
 71
3
 72
15
 73
11
 74
9
 42
0.0000001
 43
0.0000001
 44
0.0000000001
 12
-0.0
 22
-0.9503841835
 32
0.0
 13
-0.0
 23
0.9503841835
 33
0.0
 40
0.0
 40
0.0
 40
0.0
 40
0.0
 40
0.1250225954
 40
0.2500560787
 40
0.3750620501
 40
0.5000461653
 40
0.6250303308
 40
0.7500267126
 40
0.8750004552
 40
1.0
 40
1.0
 40
1.0
 40
1.0
 10
-7.2040044543
 20
20.0049452141
 30
0.0
 10
-7.2040044543
 20
19.9653387151
 30
0.0
 10
-7.1882318097
 20
19.8852587262
 30
0.0
 10
-7.1207196845
 20
19.7839071505
 30
0.0
 10
-7.0195059504
 20
19.7159123397
 30
0.0
 10
-6.8999551377
 20
19.6920541983
 30
0.0
 10
-6.7804134672
 20
19.7159473847
 30
0.0
 10
-6.6792418143
 20
19.7839616442
 30
0.0
 10
-6.6117566799
 20
19.8852911574
 30
0.0
 10
-6.5959955457
 20
19.9653460174
 30
0.0
 10
-6.5959955457
 20
20.0049452141
 30
0.0
 11
-7.2040044543
 21
20.0049452141
 31
0.0
 11
-7.1809236113
 21
19.8883890148
 31
0.0
 11
-7.1150948731
 21
19.7894591948
 31
0.0
 11
-7.01644103
 21
19.7232644977
 31
0.0
 11
-6.8999561678
 21
19.7000123914
 31
0.0
 11
-6.7834783161
 21
19.7232998341
 31
0.0
 11
-6.6848516173
 21
19.7895186194
 31
0.0
 11
-6.619066762
 21
19.8884094409
 31
0.0
 11
-6.5959955457
 21
20.0049452141
 31
0.0
  0
SPLINE
  5
634
100
AcDbEntity
  8
0
100
AcDbSpline
 62
7
  6
CONTINUOUS
 70
0
 71
3
 72
9
 73
5
 74
3
 42
0.0000001
 43
0.0000001
 44
0.0000000001
 12
-0.2540586046
 22
0.3592931243
 32
0.0
 13
-0.2443352963
 23
0.3659748444
 33
0.0
 40
0.0
 40
0.0
 40
0.0
 40
0.0
 40
0.2536987259
 40
1.0
 40
1.0
 40
1.0
 40
1.0
 10
-7.5666456542
 20
21.3359869487
 30
0.0
 10
-7.5881304357
 20
21.3663710179
 30
0.0
 10
-7.67279977
 20
21.4861432571
 30
0.0
 10
-7.7569041269
 20
21.6063467646
 30
0.0
 10
-7.8176867079
 20
21.6973892622
 30
0.0
 11
-7.5666456542
 21
21.3359869487
 31
0.0
 11
-7.6310550765
 21
21.4271709046
 31
0.0
 11
-7.8176867079
 21
21.6973892622
 31
0.0
  0
SPLINE
  5
635
100
AcDbEntity
  8
0
100
AcDbSpline
 62
7
  6
CONTINUOUS
 70
0
 71
3
 72
9
 73
5
 74
3
 42
0.0000001
 43
0.0000001
 44
0.0000000001
 12
-0.2443381483
 22
-0.3659791164
 32
0.0
 13
-0.2540615702
 23
-0.3592973182
 33
0.0
 40
0.0
 40
0.0
 40
0.0
 40
0.0
 40
0.2446707048
 40
1.0
 40
1.0
 40
1.0
 40
1.0
 10
7.8176867079
 20
21.6973892622
 30
0.0
 10
7.7977592455
 20
21.6675411394
 30
0.0
 10
7.7153744724
 20
21.5461740365
 30
0.0
 10
7.6306123698
 20
21.4264495454
 30
0.0
 10
7.5666456542
 20
21.3359869487
 30
0.0
 11
7.8176867079
 21
21.6973892622
 31
0.0
 11
7.7573026487
 21
21.6082495231
 31
0.0
 11
7.5666456542
 21
21.3359869487
 31
0.0
  0
SPLINE
  5
636
100
AcDbEntity
  8
0
100
AcDbSpline
 62
7
  6
CONTINUOUS
 70
0
 71
3
 72
9
 73
5
 74
3
 42
0.0000001
 43
0.0000001
 44
0.0000000001
 12
0.2540586046
 22
-0.3592931243
 32
0.0
 13
0.2443352963
 23
-0.3659748444
 33
0.0
 40
0.0
 40
0.0
 40
0.0
 40
0.0
 40
0.2536987259
 40
1.0
 40
1.0
 40
1.0
 40
1.0
 10
7.5666456542
 20
-21.3359869487
 30
0.0
 10
7.5881304357
 20
-21.3663710179
 30
0.0
 10
7.67279977
 20
-21.4861432571
 30
0.0
 10
7.7569041269
 20
-21.6063467646
 30
0.0
 10
7.8176867079
 20
-21.6973892622
 30
0.0
 11
7.5666456542
 21
-21.3359869487
 31
0.0
 11
7.6310550765
 21
-21.4271709046
 31
0.0
 11
7.8176867079
 21
-21.6973892622
 31
0.0
  0
SPLINE
  5
637
100
AcDbEntity
  8
RACCORDO
100
AcDbSpline
 62
7
  6
CONTINUOUS
 70
0
 71
3
 72
15
 73
11
 74
9
 42
0.0000001
 43
0.0000001
 44
0.0000000001
 12
-0.0
 22
-0.9503842482
 32
0.0
 13
-0.0
 23
0.9503842482
 33
0.0
 40
0.0
 40
0.0
 40
0.0
 40
0.0
 40
0.1250227305
 40
0.2500589328
 40
0.3750653498
 40
0.5000492959
 40
0.6250326038
 40
0.7500280956
 40
0.875001229
 40
1.0
 40
1.0
 40
1.0
 40
1.0
 10
6.5959955457
 20
20.0049452141
 30
0.0
 10
6.5959955457
 20
19.9653386696
 30
0.0
 10
6.6117685781
 20
19.8852578534
 30
0.0
 10
6.6792814466
 20
19.7839052816
 30
0.0
 10
6.7804969021
 20
19.7159111624
 30
0.0
 10
6.9000477136
 20
19.6920541876
 30
0.0
 10
7.0195885425
 20
19.7159483413
 30
0.0
 10
7.1207591094
 20
19.78396275
 30
0.0
 10
7.1882434955
 20
19.8852918489
 30
0.0
 10
7.2040044543
 20
19.9653462598
 30
0.0
 10
7.2040044543
 20
20.0049452141
 30
0.0
 11
6.5959955457
 21
20.0049452141
 31
0.0
 11
6.6190765189
 21
19.8883889014
 31
0.0
 11
6.6849069679
 21
19.7894571062
 31
0.0
 11
6.7835618854
 21
19.7232632359
 31
0.0
 11
6.9000468338
 21
19.7000123414
 31
0.0
 11
7.016523688
 21
19.7233006577
 31
0.0
 11
7.1151492954
 21
19.7895195657
 31
0.0
 11
7.1809335083
 21
19.8884101288
 31
0.0
 11
7.2040044543
 21
20.0049452141
 31
0.0
  0
SPLINE
  5
638
100
AcDbEntity
  8
0
100
AcDbSpline
 62
7
  6
CONTINUOUS
 70
0
 71
3
 72
9
 73
5
 74
3
 42
0.0000001
 43
0.0000001
 44
0.0000000001
 12
0.2443381483
 22
0.3659791164
 32
0.0
 13
0.2540615702
 23
0.3592973182
 33
0.0
 40
0.0
 40
0.0
 40
0.0
 40
0.0
 40
0.2446707048
 40
1.0
 40
1.0
 40
1.0
 40
1.0
 10
-7.8176867079
 20
-21.6973892622
 30
0.0
 10
-7.7977592455
 20
-21.6675411394
 30
0.0
 10
-7.7153744724
 20
-21.5461740365
 30
0.0
 10
-7.6306123698
 20
-21.4264495454
 30
0.0
 10
-7.5666456542
 20
-21.3359869487
 30
0.0
 11
-7.8176867079
 21
-21.6973892622
 31
0.0
 11
-7.7573026487
 21
-21.6082495231
 31
0.0
 11
-7.5666456542
 21
-21.3359869487
 31
0.0
  0
SPLINE
  5
639
100
AcDbEntity
  8
0
100
AcDbSpline
 62
253
  6
CONTINUOUS
 70
0
 71
3
 72
11
 73
7
 74
5
 42
0.0000001
 43
0.0000001
 44
0.0000000001
 12
-0.0012232482
 22
-0.3641907438
 32
0.0
 13
-0.3641916425
 23
-0.0009174695
 33
0.0
 40
0.0
 40
0.0
 40
0.0
 40
0.0
 40
0.2331623084
 40
0.476670585
 40
0.7338116789
 40
1.0
 40
1.0
 40
1.0
 40
1.0
 10
10.145628166
 20
23.8443375673
 30
0.0
 10
10.1455330942
 20
23.8160323825
 30
0.0
 10
10.1316032365
 20
23.7574892432
 30
0.0
 10
10.0746708123
 20
23.6858281285
 30
0.0
 10
9.9920027722
 20
23.6388299314
 30
0.0
 10
9.9279469174
 20
23.6279126229
 30
0.0
 10
9.8956323968
 20
23.6278312164
 30
0.0
 11
10.145628166
 21
23.8443375673
 31
0.0
 11
10.1263899366
 21
23.7616295068
 31
0.0
 11
10.0721493704
 21
23.6914667969
 31
0.0
 11
9.9911338226
 21
23.6444922937
 31
0.0
 11
9.8956323968
 21
23.6278312164
 31
0.0
  0
SPLINE
  5
63A
100
AcDbEntity
  8
0
100
AcDbSpline
 62
253
  6
CONTINUOUS
 70
0
 71
3
 72
11
 73
7
 74
5
 42
0.0000001
 43
0.0000001
 44
0.0000000001
 12
0.0012232482
 22
-0.3641907438
 32
0.0
 13
0.3641916425
 23
-0.0009174695
 33
0.0
 40
0.0
 40
0.0
 40
0.0
 40
0.0
 40
0.2331623084
 40
0.476670585
 40
0.7338116789
 40
1.0
 40
1.0
 40
1.0
 40
1.0
 10
7.254371834
 20
23.8443375673
 30
0.0
 10
7.2544669058
 20
23.8160323825
 30
0.0
 10
7.2683967635
 20
23.7574892432
 30
0.0
 10
7.3253291877
 20
23.6858281285
 30
0.0
 10
7.4079972278
 20
23.6388299314
 30
0.0
 10
7.4720530826
 20
23.6279126229
 30
0.0
 10
7.5043676032
 20
23.6278312164
 30
0.0
 11
7.254371834
 21
23.8443375673
 31
0.0
 11
7.2736100634
 21
23.7616295068
 31
0.0
 11
7.3278506296
 21
23.6914667969
 31
0.0
 11
7.4088661774
 21
23.6444922937
 31
0.0
 11
7.5043676032
 21
23.6278312164
 31
0.0
  0
SPLINE
  5
63B
100
AcDbEntity
  8
0
100
AcDbSpline
 62
253
  6
CONTINUOUS
 70
0
 71
3
 72
11
 73
7
 74
5
 42
0.0000001
 43
0.0000001
 44
0.0000000001
 12
-0.0012232482
 22
-0.3641907438
 32
0.0
 13
-0.3641916425
 23
-0.0009174695
 33
0.0
 40
0.0
 40
0.0
 40
0.0
 40
0.0
 40
0.2331623084
 40
0.476670585
 40
0.7338116789
 40
1.0
 40
1.0
 40
1.0
 40
1.0
 10
-7.254371834
 20
23.8443375673
 30
0.0
 10
-7.2544669058
 20
23.8160323825
 30
0.0
 10
-7.2683967635
 20
23.7574892432
 30
0.0
 10
-7.3253291877
 20
23.6858281285
 30
0.0
 10
-7.4079972278
 20
23.6388299314
 30
0.0
 10
-7.4720530826
 20
23.6279126229
 30
0.0
 10
-7.5043676032
 20
23.6278312164
 30
0.0
 11
-7.254371834
 21
23.8443375673
 31
0.0
 11
-7.2736100634
 21
23.7616295068
 31
0.0
 11
-7.3278506296
 21
23.6914667969
 31
0.0
 11
-7.4088661774
 21
23.6444922937
 31
0.0
 11
-7.5043676032
 21
23.6278312164
 31
0.0
  0
SPLINE
  5
63C
100
AcDbEntity
  8
0
100
AcDbSpline
 62
253
  6
CONTINUOUS
 70
0
 71
3
 72
11
 73
7
 74
5
 42
0.0000001
 43
0.0000001
 44
0.0000000001
 12
0.0012232482
 22
-0.3641907438
 32
0.0
 13
0.3641916425
 23
-0.0009174695
 33
0.0
 40
0.0
 40
0.0
 40
0.0
 40
0.0
 40
0.2331623084
 40
0.476670585
 40
0.7338116789
 40
1.0
 40
1.0
 40
1.0
 40
1.0
 10
-10.145628166
 20
23.8443375673
 30
0.0
 10
-10.1455330942
 20
23.8160323825
 30
0.0
 10
-10.1316032365
 20
23.7574892432
 30
0.0
 10
-10.0746708123
 20
23.6858281285
 30
0.0
 10
-9.9920027722
 20
23.6388299314
 30
0.0
 10
-9.9279469174
 20
23.6279126229
 30
0.0
 10
-9.8956323968
 20
23.6278312164
 30
0.0
 11
-10.145628166
 21
23.8443375673
 31
0.0
 11
-10.1263899366
 21
23.7616295068
 31
0.0
 11
-10.0721493704
 21
23.6914667969
 31
0.0
 11
-9.9911338226
 21
23.6444922937
 31
0.0
 11
-9.8956323968
 21
23.6278312164
 31
0.0
  0
SPLINE
  5
63D
100
AcDbEntity
  8
0
100
AcDbSpline
 62
253
  6
CONTINUOUS
 70
0
 71
3
 72
11
 73
7
 74
5
 42
0.0000001
 43
0.0000001
 44
0.0000000001
 12
-0.0012232482
 22
0.3641907438
 32
0.0
 13
-0.3641916425
 23
0.0009174695
 33
0.0
 40
0.0
 40
0.0
 40
0.0
 40
0.0
 40
0.2331623162
 40
0.4766706026
 40
0.7338117062
 40
1.0
 40
1.0
 40
1.0
 40
1.0
 10
10.145628166
 20
-23.8443375673
 30
0.0
 10
10.1455330942
 20
-23.8160323815
 30
0.0
 10
10.1316032353
 20
-23.7574892401
 30
0.0
 10
10.0746708074
 20
-23.685828124
 30
0.0
 10
9.9920027666
 20
-23.6388299294
 30
0.0
 10
9.9279469141
 20
-23.6279126229
 30
0.0
 10
9.8956323968
 20
-23.6278312164
 30
0.0
 11
10.145628166
 21
-23.8443375673
 31
0.0
 11
10.1263899352
 21
-23.7616295042
 31
0.0
 11
10.0721493654
 21
-23.6914667926
 31
0.0
 11
9.9911338132
 21
-23.6444922901
 31
0.0
 11
9.8956323968
 21
-23.6278312164
 31
0.0
  0
SPLINE
  5
63E
100
AcDbEntity
  8
0
100
AcDbSpline
 62
253
  6
CONTINUOUS
 70
0
 71
3
 72
11
 73
7
 74
5
 42
0.0000001
 43
0.0000001
 44
0.0000000001
 12
0.0012232482
 22
0.3641907442
 32
0.0
 13
0.3641916429
 23
0.0009174695
 33
0.0
 40
0.0
 40
0.0
 40
0.0
 40
0.0
 40
0.2331622206
 40
0.4766705204
 40
0.7338116472
 40
1.0
 40
1.0
 40
1.0
 40
1.0
 10
7.254371834
 20
-23.8443375673
 30
0.0
 10
7.2544669058
 20
-23.8160323931
 30
0.0
 10
7.2683967542
 20
-23.7574892617
 30
0.0
 10
7.3253291691
 20
-23.6858281428
 30
0.0
 10
7.4079972158
 20
-23.6388299344
 30
0.0
 10
7.4720530787
 20
-23.6279126229
 30
0.0
 10
7.5043676032
 20
-23.6278312164
 30
0.0
 11
7.254371834
 21
-23.8443375673
 31
0.0
 11
7.2736100483
 21
-23.761629536
 31
0.0
 11
7.3278506113
 21
-23.6914668129
 31
0.0
 11
7.4088661663
 21
-23.644492298
 31
0.0
 11
7.5043676032
 21
-23.6278312164
 31
0.0
  0
SPLINE
  5
63F
100
AcDbEntity
  8
0
100
AcDbSpline
 62
253
  6
CONTINUOUS
 70
0
 71
3
 72
11
 73
7
 74
5
 42
0.0000001
 43
0.0000001
 44
0.0000000001
 12
0.0012232482
 22
0.3641907438
 32
0.0
 13
0.3641916425
 23
0.0009174695
 33
0.0
 40
0.0
 40
0.0
 40
0.0
 40
0.0
 40
0.2331623162
 40
0.4766706026
 40
0.7338117062
 40
1.0
 40
1.0
 40
1.0
 40
1.0
 10
-10.145628166
 20
-23.8443375673
 30
0.0
 10
-10.1455330942
 20
-23.8160323815
 30
0.0
 10
-10.1316032353
 20
-23.7574892401
 30
0.0
 10
-10.0746708074
 20
-23.685828124
 30
0.0
 10
-9.9920027666
 20
-23.6388299294
 30
0.0
 10
-9.9279469141
 20
-23.6279126229
 30
0.0
 10
-9.8956323968
 20
-23.6278312164
 30
0.0
 11
-10.145628166
 21
-23.8443375673
 31
0.0
 11
-10.1263899352
 21
-23.7616295042
 31
0.0
 11
-10.0721493654
 21
-23.6914667926
 31
0.0
 11
-9.9911338132
 21
-23.6444922901
 31
0.0
 11
-9.8956323968
 21
-23.6278312164
 31
0.0
  0
SPLINE
  5
640
100
AcDbEntity
  8
0
100
AcDbSpline
 62
253
  6
CONTINUOUS
 70
0
 71
3
 72
11
 73
7
 74
5
 42
0.0000001
 43
0.0000001
 44
0.0000000001
 12
-0.0012232482
 22
0.3641907442
 32
0.0
 13
-0.3641916429
 23
0.0009174695
 33
0.0
 40
0.0
 40
0.0
 40
0.0
 40
0.0
 40
0.2331622206
 40
0.4766705204
 40
0.7338116472
 40
1.0
 40
1.0
 40
1.0
 40
1.0
 10
-7.254371834
 20
-23.8443375673
 30
0.0
 10
-7.2544669058
 20
-23.8160323931
 30
0.0
 10
-7.2683967542
 20
-23.7574892617
 30
0.0
 10
-7.3253291691
 20
-23.6858281428
 30
0.0
 10
-7.4079972158
 20
-23.6388299344
 30
0.0
 10
-7.4720530787
 20
-23.6279126229
 30
0.0
 10
-7.5043676032
 20
-23.6278312164
 30
0.0
 11
-7.254371834
 21
-23.8443375673
 31
0.0
 11
-7.2736100483
 21
-23.761629536
 31
0.0
 11
-7.3278506113
 21
-23.6914668129
 31
0.0
 11
-7.4088661663
 21
-23.644492298
 31
0.0
 11
-7.5043676032
 21
-23.6278312164
 31
0.0
  0
SPLINE
  5
641
100
AcDbEntity
  8
RACCORDO
100
AcDbSpline
 62
7
  6
CONTINUOUS
 70
0
 71
3
 72
23
 73
19
 74
17
 42
0.0000001
 43
0.0000001
 44
0.0000000001
 12
-0.1789146451
 22
-1.0172025296
 32
0.0
 13
0.0
 23
-1.0328172329
 33
0.0
 40
0.0
 40
0.0
 40
0.0
 40
0.0
 40
0.0026622084
 40
0.0086183549
 40
0.0177869048
 40
0.0300627081
 40
0.0453067114
 40
0.0633198407
 40
0.1068279398
 40
0.1589847436
 40
0.2182943243
 40
0.2834361317
 40
0.3533191056
 40
0.5038697501
 40
0.6644966434
 40
0.7473778792
 40
0.8314692803
 40
1.0
 40
1.0
 40
1.0
 40
1.0
 10
-8.860915679
 20
11.8889172239
 30
0.0
 10
-8.8610744484
 20
11.8880145555
 30
0.0
 10
-8.8632026798
 20
11.8856773572
 30
0.0
 10
-8.8667995539
 20
11.8809033197
 30
0.0
 10
-8.8731798966
 20
11.8738415971
 30
0.0
 10
-8.8815846245
 20
11.8644594775
 30
0.0
 10
-8.8922232463
 20
11.8529285349
 30
0.0
 10
-8.9102150416
 20
11.8335781956
 30
0.0
 10
-8.9370405542
 20
11.8050766799
 30
0.0
 10
-8.9737150279
 20
11.7663285293
 30
0.0
 10
-9.0155601971
 20
11.7222171223
 30
0.0
 10
-9.0615823612
 20
11.6736557393
 30
0.0
 10
-9.1290824779
 20
11.6021806111
 30
0.0
 10
-9.2186910787
 20
11.5063000117
 30
0.0
 10
-9.3096681937
 20
11.4058733825
 30
0.0
 10
-9.3827859607
 20
11.3194828632
 30
0.0
 10
-9.4523519871
 20
11.2291818999
 30
0.0
 10
-9.5
 20
11.1471837509
 30
0.0
 10
-9.5
 20
11.0891632737
 30
0.0
 11
-8.860915679
 21
11.8889172239
 31
0.0
 11
-8.8623524922
 21
11.8865729268
 31
0.0
 11
-8.8662217955
 21
11.8817905836
 31
0.0
 11
-8.8724415762
 21
11.8746502368
 31
0.0
 11
-8.8809296395
 21
11.8652321037
 31
0.0
 11
-8.8915813326
 21
11.853637991
 31
0.0
 11
-8.9042481348
 21
11.8400118764
 31
0.0
 11
-8.9350129174
 21
11.8072587916
 31
0.0
 11
-8.9720293972
 21
11.768123262
 31
0.0
 11
-9.0141749756
 21
11.7236705625
 31
0.0
 11
-9.0604452862
 21
11.6748279539
 31
0.0
 11
-9.1099886459
 21
11.6223410077
 31
0.0
 11
-9.2160095611
 21
11.5085995907
 31
0.0
 11
-9.3268038092
 21
11.3851214342
 31
0.0
 11
-9.3818640221
 21
11.3195780667
 31
0.0
 11
-9.4343192319
 21
11.2503570039
 31
0.0
 11
-9.5
 21
11.0891632737
 31
0.0
  0
SPLINE
  5
642
100
AcDbEntity
  8
RACCORDO
100
AcDbSpline
 62
7
  6
CONTINUOUS
 70
0
 71
3
 72
23
 73
19
 74
17
 42
0.0000001
 43
0.0000001
 44
0.0000000001
 12
0.0
 22
-1.0328164324
 32
0.0
 13
0.1789145065
 23
-1.0172017413
 33
0.0
 40
0.0
 40
0.0
 40
0.0
 40
0.0
 40
0.1685404696
 40
0.2526309301
 40
0.3355105493
 40
0.4961336079
 40
0.6466794754
 40
0.7165602731
 40
0.7816999107
 40
0.8410086609
 40
0.8931645313
 40
0.9366752023
 40
0.9546894121
 40
0.9699335553
 40
0.9822092014
 40
0.991379105
 40
0.9973369701
 40
1.0
 40
1.0
 40
1.0
 40
1.0
 10
-9.5
 20
14.5108367263
 30
0.0
 10
-9.5
 20
14.4528129375
 30
0.0
 10
-9.452344681
 20
14.3708145404
 30
0.0
 10
-9.3827807538
 20
14.2805092839
 30
0.0
 10
-9.3096624156
 20
14.1941221178
 30
0.0
 10
-9.2186889784
 20
14.0936971688
 30
0.0
 10
-9.1290825802
 20
13.9978196928
 30
0.0
 10
-9.061584807
 20
13.9263467814
 30
0.0
 10
-9.0155638409
 20
13.8777867889
 30
0.0
 10
-8.9737196942
 20
13.8336763436
 30
0.0
 10
-8.9370450203
 20
13.7949280568
 30
0.0
 10
-8.9102188537
 20
13.7664259115
 30
0.0
 10
-8.8922261423
 20
13.7470746716
 30
0.0
 10
-8.8815872831
 20
13.7355434624
 30
0.0
 10
-8.8731823811
 20
13.7261609029
 30
0.0
 10
-8.8668012701
 20
13.719098491
 30
0.0
 10
-8.8632036892
 20
13.7143234068
 30
0.0
 10
-8.8610744972
 20
13.7119857223
 30
0.0
 10
-8.860915679
 20
13.7110827761
 30
0.0
 11
-9.5
 21
14.5108367263
 31
0.0
 11
-9.4343115679
 21
14.3496353909
 31
0.0
 11
-9.3818579812
 21
14.2804144015
 31
0.0
 11
-9.32679828
 21
14.2148728714
 31
0.0
 11
-9.2160069343
 21
14.0913976045
 31
0.0
 11
-9.1099894506
 21
13.9776598985
 31
0.0
 11
-9.0604477083
 21
13.9251745933
 31
0.0
 11
-9.0141789582
 21
13.8763336651
 31
0.0
 11
-8.9720340247
 21
13.8318816016
 31
0.0
 11
-8.9350182101
 21
13.7927468272
 31
0.0
 11
-8.9042515876
 21
13.7599918741
 31
0.0
 11
-8.8915840136
 21
13.746364973
 31
0.0
 11
-8.8809322585
 21
13.7347707376
 31
0.0
 11
-8.8724443719
 21
13.7253526771
 31
0.0
 11
-8.8662236452
 21
13.7182113098
 31
0.0
 11
-8.8623531053
 21
13.7134276901
 31
0.0
 11
-8.860915679
 21
13.7110827761
 31
0.0
  0
SPLINE
  5
643
100
AcDbEntity
  8
RACCORDO
100
AcDbSpline
 62
7
  6
CONTINUOUS
 70
0
 71
3
 72
23
 73
19
 74
17
 42
0.0000001
 43
0.0000001
 44
0.0000000001
 12
0.1789146451
 22
1.0172025296
 32
0.0
 13
0.0
 23
1.0328172329
 33
0.0
 40
0.0
 40
0.0
 40
0.0
 40
0.0
 40
0.0026622084
 40
0.0086183549
 40
0.0177869048
 40
0.0300627081
 40
0.0453067114
 40
0.0633198407
 40
0.1068279398
 40
0.1589847436
 40
0.2182943243
 40
0.2834361317
 40
0.3533191056
 40
0.5038697501
 40
0.6644966434
 40
0.7473778792
 40
0.8314692803
 40
1.0
 40
1.0
 40
1.0
 40
1.0
 10
8.860915679
 20
13.7110827761
 30
0.0
 10
8.8610744484
 20
13.7119854445
 30
0.0
 10
8.8632026798
 20
13.7143226428
 30
0.0
 10
8.8667995539
 20
13.7190966803
 30
0.0
 10
8.8731798966
 20
13.7261584029
 30
0.0
 10
8.8815846245
 20
13.7355405225
 30
0.0
 10
8.8922232463
 20
13.7470714651
 30
0.0
 10
8.9102150416
 20
13.7664218044
 30
0.0
 10
8.9370405542
 20
13.7949233201
 30
0.0
 10
8.9737150279
 20
13.8336714707
 30
0.0
 10
9.0155601971
 20
13.8777828777
 30
0.0
 10
9.0615823612
 20
13.9263442607
 30
0.0
 10
9.1290824779
 20
13.9978193889
 30
0.0
 10
9.2186910787
 20
14.0936999883
 30
0.0
 10
9.3096681937
 20
14.1941266175
 30
0.0
 10
9.3827859607
 20
14.2805171368
 30
0.0
 10
9.4523519871
 20
14.3708181001
 30
0.0
 10
9.5
 20
14.4528162491
 30
0.0
 10
9.5
 20
14.5108367263
 30
0.0
 11
8.860915679
 21
13.7110827761
 31
0.0
 11
8.8623524922
 21
13.7134270732
 31
0.0
 11
8.8662217955
 21
13.7182094164
 31
0.0
 11
8.8724415762
 21
13.7253497632
 31
0.0
 11
8.8809296395
 21
13.7347678963
 31
0.0
 11
8.8915813326
 21
13.746362009
 31
0.0
 11
8.9042481348
 21
13.7599881236
 31
0.0
 11
8.9350129174
 21
13.7927412084
 31
0.0
 11
8.9720293972
 21
13.831876738
 31
0.0
 11
9.0141749756
 21
13.8763294375
 31
0.0
 11
9.0604452862
 21
13.9251720461
 31
0.0
 11
9.1099886459
 21
13.9776589923
 31
0.0
 11
9.2160095611
 21
14.0914004093
 31
0.0
 11
9.3268038092
 21
14.2148785658
 31
0.0
 11
9.3818640221
 21
14.2804219333
 31
0.0
 11
9.4343192319
 21
14.3496429961
 31
0.0
 11
9.5
 21
14.5108367263
 31
0.0
  0
SPLINE
  5
644
100
AcDbEntity
  8
RACCORDO
100
AcDbSpline
 62
7
  6
CONTINUOUS
 70
0
 71
3
 72
23
 73
19
 74
17
 42
0.0000001
 43
0.0000001
 44
0.0000000001
 12
0.0
 22
1.0328164324
 32
0.0
 13
-0.1789145065
 23
1.0172017413
 33
0.0
 40
0.0
 40
0.0
 40
0.0
 40
0.0
 40
0.1685404696
 40
0.2526309301
 40
0.3355105493
 40
0.4961336079
 40
0.6466794754
 40
0.7165602731
 40
0.7816999107
 40
0.8410086609
 40
0.8931645313
 40
0.9366752023
 40
0.9546894121
 40
0.9699335553
 40
0.9822092014
 40
0.991379105
 40
0.9973369701
 40
1.0
 40
1.0
 40
1.0
 40
1.0
 10
9.5
 20
11.0891632737
 30
0.0
 10
9.5
 20
11.1471870625
 30
0.0
 10
9.452344681
 20
11.2291854596
 30
0.0
 10
9.3827807538
 20
11.3194907161
 30
0.0
 10
9.3096624156
 20
11.4058778822
 30
0.0
 10
9.2186889784
 20
11.5063028312
 30
0.0
 10
9.1290825802
 20
11.6021803072
 30
0.0
 10
9.061584807
 20
11.6736532186
 30
0.0
 10
9.0155638409
 20
11.7222132111
 30
0.0
 10
8.9737196942
 20
11.7663236564
 30
0.0
 10
8.9370450203
 20
11.8050719432
 30
0.0
 10
8.9102188537
 20
11.8335740885
 30
0.0
 10
8.8922261423
 20
11.8529253284
 30
0.0
 10
8.8815872831
 20
11.8644565376
 30
0.0
 10
8.8731823811
 20
11.8738390971
 30
0.0
 10
8.8668012701
 20
11.880901509
 30
0.0
 10
8.8632036892
 20
11.8856765932
 30
0.0
 10
8.8610744972
 20
11.8880142777
 30
0.0
 10
8.860915679
 20
11.8889172239
 30
0.0
 11
9.5
 21
11.0891632737
 31
0.0
 11
9.4343115679
 21
11.2503646091
 31
0.0
 11
9.3818579812
 21
11.3195855985
 31
0.0
 11
9.32679828
 21
11.3851271286
 31
0.0
 11
9.2160069343
 21
11.5086023955
 31
0.0
 11
9.1099894506
 21
11.6223401015
 31
0.0
 11
9.0604477083
 21
11.6748254067
 31
0.0
 11
9.0141789582
 21
11.7236663349
 31
0.0
 11
8.9720340247
 21
11.7681183984
 31
0.0
 11
8.9350182101
 21
11.8072531728
 31
0.0
 11
8.9042515876
 21
11.8400081259
 31
0.0
 11
8.8915840136
 21
11.853635027
 31
0.0
 11
8.8809322585
 21
11.8652292624
 31
0.0
 11
8.8724443719
 21
11.8746473229
 31
0.0
 11
8.8662236452
 21
11.8817886902
 31
0.0
 11
8.8623531053
 21
11.8865723099
 31
0.0
 11
8.860915679
 21
11.8889172239
 31
0.0
  0
ELLIPSE
  5
645
100
AcDbEntity
  8
RACCORDO
100
AcDbEllipse
 62
7
  6
CONTINUOUS
 10
-8.999923836
 20
-16.0000190392
 30
0.0
 11
0.4473055582
 21
-0.2236357461
 31
0.0
 40
0.9998096356
 41
-3.1312871673
 42
-2.6780516535
  0
ELLIPSE
  5
646
100
AcDbEntity
  8
RACCORDO
100
AcDbEllipse
 62
7
  6
CONTINUOUS
 10
-8.999923836
 20
-16.0000190392
 30
0.0
 11
0.4473055582
 21
-0.2236357461
 31
0.0
 40
0.9998096356
 41
2.1279676782
 42
2.2023677361
  0
ELLIPSE
  5
647
100
AcDbEntity
  8
RACCORDO
100
AcDbEllipse
 62
7
  6
CONTINUOUS
 10
8.999923836
 20
-16.0000190392
 30
0.0
 11
0.4473055582
 21
0.2236357461
 31
0.0
 40
0.9998096356
 41
0.9392249175
 42
1.1071030277
  0
ELLIPSE
  5
648
100
AcDbEntity
  8
RACCORDO
100
AcDbEllipse
 62
7
  6
CONTINUOUS
 10
8.999923836
 20
-16.0000190392
 30
0.0
 11
0.4473055582
 21
0.2236357461
 31
0.0
 40
0.9998096356
 41
-0.4635410001
 42
-0.0103054863
  0
ELLIPSE
  5
649
100
AcDbEntity
  8
RACCORDO
100
AcDbEllipse
 62
7
  6
CONTINUOUS
 10
-7.0499966153
 20
22.6002744692
 30
0.0
 11
0.0220972656
 21
0.1990550872
 31
0.0
 40
0.9986126811
 41
-4.601678501
 42
-3.0311866536
  0
ELLIPSE
  5
64A
100
AcDbEntity
  8
RACCORDO
100
AcDbEllipse
 62
7
  6
CONTINUOUS
 10
-10.3500033847
 20
22.6002744692
 30
0.0
 11
-0.0220972656
 21
0.1990550872
 31
0.0
 40
0.9986126811
 41
-3.2519986536
 42
-1.6815068062
  0
ELLIPSE
  5
64B
100
AcDbEntity
  8
RACCORDO
100
AcDbEllipse
 62
7
  6
CONTINUOUS
 10
10.3500033847
 20
22.6002744692
 30
0.0
 11
0.0220972656
 21
0.1990550872
 31
0.0
 40
0.9986126811
 41
-4.601678501
 42
-3.0311866536
  0
ELLIPSE
  5
64C
100
AcDbEntity
  8
RACCORDO
100
AcDbEllipse
 62
7
  6
CONTINUOUS
 10
7.0499966153
 20
22.6002744692
 30
0.0
 11
-0.0220972656
 21
0.1990550872
 31
0.0
 40
0.9986126811
 41
-3.2519986536
 42
-1.6815068062
  0
ELLIPSE
  5
64D
100
AcDbEntity
  8
RACCORDO
100
AcDbEllipse
 62
7
  6
CONTINUOUS
 10
-10.3500033847
 20
-22.6002744692
 30
0.0
 11
0.0220972656
 21
0.1990550872
 31
0.0
 40
0.9986126811
 41
-1.4600858474
 42
0.110406
  0
ELLIPSE
  5
64E
100
AcDbEntity
  8
RACCORDO
100
AcDbEllipse
 62
7
  6
CONTINUOUS
 10
-7.0499966153
 20
-22.6002744692
 30
0.0
 11
-0.0220972656
 21
0.1990550872
 31
0.0
 40
0.9986126811
 41
-0.110406
 42
1.4600858474
  0
ELLIPSE
  5
64F
100
AcDbEntity
  8
RACCORDO
100
AcDbEllipse
 62
7
  6
CONTINUOUS
 10
7.0499966153
 20
-22.6002744692
 30
0.0
 11
0.0220972656
 21
0.1990550872
 31
0.0
 40
0.9986126811
 41
-1.4600858474
 42
0.110406
  0
ELLIPSE
  5
650
100
AcDbEntity
  8
RACCORDO
100
AcDbEllipse
 62
7
  6
CONTINUOUS
 10
10.3500033847
 20
-22.6002744692
 30
0.0
 11
-0.0220972656
 21
0.1990550872
 31
0.0
 40
0.9986126811
 41
-0.110406
 42
1.4600858474
  0
ELLIPSE
  5
651
100
AcDbEntity
  8
RACCORDO
100
AcDbEllipse
 62
7
  6
CONTINUOUS
 10
-4.263273149
 20
-17.536726851
 30
0.0
 11
-0.1197781703
 21
0.2754963673
 31
0.0
 40
0.998430313
 41
-0.4095445076
 42
1.1611756667
  0
ELLIPSE
  5
652
100
AcDbEntity
  8
RACCORDO
100
AcDbEllipse
 62
7
  6
CONTINUOUS
 10
-4.2026066368
 20
-20.0296713505
 30
0.0
 11
0.3
 21
-0.0
 31
0.0
 40
0.0087268678
 41
-3.1328660073
 42
-1.5707963268
  0
ELLIPSE
  5
653
100
AcDbEntity
  8
RACCORDO
100
AcDbEllipse
 62
7
  6
CONTINUOUS
 10
4.263273149
 20
-17.536726851
 30
0.0
 11
0.1197781703
 21
0.2754963673
 31
0.0
 40
0.998430313
 41
-1.1611756667
 42
0.4095445076
  0
ELLIPSE
  5
654
100
AcDbEntity
  8
RACCORDO
100
AcDbEllipse
 62
7
  6
CONTINUOUS
 10
4.2026066368
 20
-20.0296713505
 30
0.0
 11
0.3
 21
0.0
 31
0.0
 40
0.0087268678
 41
-1.5707963268
 42
-0.0087266463
  0
ELLIPSE
  5
655
100
AcDbEntity
  8
RACCORDO
100
AcDbEllipse
 62
7
  6
CONTINUOUS
 10
9.5397199442
 20
19.6676556748
 30
0.0
 11
0.0
 21
0.9
 31
0.0
 40
0.0174550649
 41
1.3990627793
 42
1.4349437612
  0
ELLIPSE
  5
656
100
AcDbEntity
  8
RACCORDO
100
AcDbEllipse
 62
7
  6
CONTINUOUS
 10
-9.5397199442
 20
19.6676556748
 30
0.0
 11
-0.0
 21
0.9
 31
0.0
 40
0.0174550649
 41
-1.4349437612
 42
-1.3990627793
  0
ELLIPSE
  5
657
100
AcDbEntity
  8
RACCORDO
100
AcDbEllipse
 62
7
  6
CONTINUOUS
 10
6.4441609351
 20
19.0624530869
 30
0.0
 11
0.0
 21
0.9
 31
0.0
 40
0.0087268678
 41
0.0087266463
 42
1.4419055065
  0
ELLIPSE
  5
658
100
AcDbEntity
  8
RACCORDO
100
AcDbEllipse
 62
7
  6
CONTINUOUS
 10
7.3551358285
 20
19.6676556748
 30
0.0
 11
-0.0
 21
0.9
 31
0.0
 40
0.0087268678
 41
-1.4349437612
 42
-0.0523598776
  0
ELLIPSE
  5
659
100
AcDbEntity
  8
RACCORDO
100
AcDbEllipse
 62
7
  6
CONTINUOUS
 10
-7.3551358285
 20
19.6676556748
 30
0.0
 11
-0.0
 21
0.9
 31
0.0
 40
0.0087268678
 41
0.0523598776
 42
1.4349437612
  0
ELLIPSE
  5
65A
100
AcDbEntity
  8
RACCORDO
100
AcDbEllipse
 62
7
  6
CONTINUOUS
 10
-6.4441609351
 20
19.0624530869
 30
0.0
 11
0.0
 21
0.9
 31
0.0
 40
0.0087268678
 41
-1.4419055065
 42
-0.0087266463
  0
ELLIPSE
  5
65B
100
AcDbEntity
  8
RACCORDO
100
AcDbEllipse
 62
7
  6
CONTINUOUS
 10
-9.7397507018
 20
19.6676556748
 30
0.0
 11
0.9005489241
 21
0.8994510755
 31
0.0
 40
0.0348994837
 41
-1.3641349085
 42
-0.0174320068
  0
ELLIPSE
  5
65C
100
AcDbEntity
  8
RACCORDO
100
AcDbEllipse
 62
7
  6
CONTINUOUS
 10
9.7397507018
 20
19.6676556748
 30
0.0
 11
0.9005489241
 21
-0.8994510755
 31
0.0
 40
0.0348994837
 41
-3.1241606468
 42
-1.7774577451
  0
ELLIPSE
  5
65D
100
AcDbEntity
  8
RACCORDO
100
AcDbEllipse
 62
7
  6
CONTINUOUS
 10
-9.6098533507
 20
-19.7897929133
 30
0.0
 11
-0.0
 21
0.2
 31
0.0
 40
0.0174550649
 41
0.0523598776
 42
1.5707963268
  0
ELLIPSE
  5
65E
100
AcDbEntity
  8
RACCORDO
100
AcDbEllipse
 62
7
  6
CONTINUOUS
 10
-7.3200717959
 20
-19.7897929133
 30
0.0
 11
0.0
 21
0.2
 31
0.0
 40
0.0087268678
 41
-1.5707963268
 42
-0.0523598776
  0
ELLIPSE
  5
65F
100
AcDbEntity
  8
RACCORDO
100
AcDbEllipse
 62
7
  6
CONTINUOUS
 10
-6.4799282041
 20
-19.7897929133
 30
0.0
 11
0.0
 21
0.2
 31
0.0
 40
0.0087268678
 41
0.0523598776
 42
1.5707963268
  0
ELLIPSE
  5
660
100
AcDbEntity
  8
RACCORDO
100
AcDbEllipse
 62
7
  6
CONTINUOUS
 10
-4.5340347844
 20
-19.7897929133
 30
0.0
 11
0.0
 21
0.2
 31
0.0
 40
0.0087268678
 41
-1.5707963268
 42
-0.0523598776
  0
ELLIPSE
  5
661
100
AcDbEntity
  8
RACCORDO
100
AcDbEllipse
 62
7
  6
CONTINUOUS
 10
4.5340347844
 20
-19.7897929133
 30
0.0
 11
-0.0
 21
0.2
 31
0.0
 40
0.0087268678
 41
0.0523598776
 42
1.5707963268
  0
ELLIPSE
  5
662
100
AcDbEntity
  8
RACCORDO
100
AcDbEllipse
 62
7
  6
CONTINUOUS
 10
6.4799282041
 20
-19.7897929133
 30
0.0
 11
0.0
 21
0.2
 31
0.0
 40
0.0087268678
 41
-1.5707963268
 42
-0.0523598776
  0
ELLIPSE
  5
663
100
AcDbEntity
  8
RACCORDO
100
AcDbEllipse
 62
7
  6
CONTINUOUS
 10
7.3200717959
 20
-19.7897929133
 30
0.0
 11
0.0
 21
0.2
 31
0.0
 40
0.0087268678
 41
0.0523598776
 42
1.5707963268
  0
ELLIPSE
  5
664
100
AcDbEntity
  8
RACCORDO
100
AcDbEllipse
 62
7
  6
CONTINUOUS
 10
9.6098533507
 20
-19.7897929133
 30
0.0
 11
0.0
 21
0.2
 31
0.0
 40
0.0174550649
 41
-1.5707963268
 42
-0.0523598776
  0
ELLIPSE
  5
665
100
AcDbEntity
  8
0
100
AcDbEllipse
 62
7
  6
CONTINUOUS
 10
3.9530427099
 20
-22.3560930869
 30
0.0
 11
0.4530427099
 21
0.0
 31
0.0
 40
0.0058178298
 41
0.0058177642
 42
2.6251434606
  0
ELLIPSE
  5
666
100
AcDbEntity
  8
0
100
AcDbEllipse
 62
7
  6
CONTINUOUS
 10
-3.9530427099
 20
-22.3560930869
 30
0.0
 11
0.4530427099
 21
-0.0
 31
0.0
 40
0.0058178298
 41
0.516449193
 42
3.1357748894
  0
ELLIPSE
  5
667
100
AcDbEntity
  8
0
100
AcDbEllipse
 62
7
  6
CONTINUOUS
 10
3.9530427099
 20
22.3560930869
 30
0.0
 11
0.4530427099
 21
0.0
 31
0.0
 40
0.0058178298
 41
-2.6251434606
 42
-0.0058177642
  0
ELLIPSE
  5
668
100
AcDbEntity
  8
0
100
AcDbEllipse
 62
7
  6
CONTINUOUS
 10
-3.9530427099
 20
22.3560930869
 30
0.0
 11
0.4530427099
 21
0.0
 31
0.0
 40
0.0058178298
 41
-3.1357748894
 42
-0.516449193
  0
ELLIPSE
  5
669
100
AcDbEntity
  8
0
100
AcDbEllipse
 62
7
  6
CONTINUOUS
 10
-8.1905965035
 20
21.3359869487
 30
0.0
 11
1.0000571192
 21
0.9999809595
 31
0.0
 40
0.0061705924
 41
-1.1948539202
 42
0.0003532199
  0
ELLIPSE
  5
66A
100
AcDbEntity
  8
0
100
AcDbEllipse
 62
7
  6
CONTINUOUS
 10
-3.0872686779
 20
21.3359869487
 30
0.0
 11
-0.0
 21
1.0
 31
0.0
 40
0.0087268678
 41
0.0058177642
 42
1.5707963268
  0
ELLIPSE
  5
66B
100
AcDbEntity
  8
0
100
AcDbEllipse
 62
7
  6
CONTINUOUS
 10
3.0872686779
 20
21.3359869487
 30
0.0
 11
-0.0
 21
1.0
 31
0.0
 40
0.0087268678
 41
-1.5707963268
 42
-0.0058177642
  0
ELLIPSE
  5
66C
100
AcDbEntity
  8
0
100
AcDbEllipse
 62
7
  6
CONTINUOUS
 10
8.1905965035
 20
21.3359869487
 30
0.0
 11
1.0000571192
 21
-0.9999809595
 31
0.0
 40
0.0061705924
 41
3.1412394337
 42
4.3364465738
  0
ELLIPSE
  5
66D
100
AcDbEntity
  8
0
100
AcDbEllipse
 62
7
  6
CONTINUOUS
 10
8.1905965035
 20
-21.3359869487
 30
0.0
 11
1.0000571192
 21
0.9999809595
 31
0.0
 40
0.0061705924
 41
1.9467387334
 42
3.1419458735
  0
ELLIPSE
  5
66E
100
AcDbEntity
  8
0
100
AcDbEllipse
 62
7
  6
CONTINUOUS
 10
3.0872686779
 20
-21.3359869487
 30
0.0
 11
-0.0
 21
1.0
 31
0.0
 40
0.0087268678
 41
-3.1357748894
 42
-1.5707963268
  0
ELLIPSE
  5
66F
100
AcDbEntity
  8
0
100
AcDbEllipse
 62
7
  6
CONTINUOUS
 10
-3.0872686779
 20
-21.3359869487
 30
0.0
 11
0.0
 21
1.0
 31
0.0
 40
0.0087268678
 41
-4.7123889804
 42
-3.1474104178
  0
ELLIPSE
  5
670
100
AcDbEntity
  8
0
100
AcDbEllipse
 62
7
  6
CONTINUOUS
 10
-8.1905965035
 20
-21.3359869487
 30
0.0
 11
1.0000571192
 21
-0.9999809595
 31
0.0
 40
0.0061705924
 41
-0.0003532199
 42
1.1948539202
  0
ELLIPSE
  5
671
100
AcDbEntity
  8
0
100
AcDbEllipse
 62
7
  6
CONTINUOUS
 10
9.8999957691
 20
23.4113248654
 30
0.0
 11
-0.0029088041
 21
0.2886641433
 31
0.0
 40
0.8660144118
 41
-3.150319066
 42
-1.582431609
  0
ELLIPSE
  5
672
100
AcDbEntity
  8
0
100
AcDbEllipse
 62
7
  6
CONTINUOUS
 10
7.5000042309
 20
23.4113248654
 30
0.0
 11
0.0029088041
 21
0.2886641433
 31
0.0
 40
0.8660144118
 41
-4.7007536982
 42
-3.1328662411
  0
ELLIPSE
  5
673
100
AcDbEntity
  8
0
100
AcDbEllipse
 62
7
  6
CONTINUOUS
 10
-7.5000042309
 20
23.4113248654
 30
0.0
 11
-0.0029088041
 21
0.2886641433
 31
0.0
 40
0.8660144118
 41
-3.150319066
 42
-1.582431609
  0
ELLIPSE
  5
674
100
AcDbEntity
  8
0
100
AcDbEllipse
 62
7
  6
CONTINUOUS
 10
-9.8999957691
 20
23.4113248654
 30
0.0
 11
0.0029088041
 21
0.2886641433
 31
0.0
 40
0.8660144118
 41
-4.7007536982
 42
-3.1328662412
  0
ELLIPSE
  5
675
100
AcDbEntity
  8
0
100
AcDbEllipse
 62
7
  6
CONTINUOUS
 10
9.8999957691
 20
-23.4113248654
 30
0.0
 11
0.0029088041
 21
0.2886641433
 31
0.0
 40
0.8660144118
 41
-1.5591610446
 42
0.0087264124
  0
ELLIPSE
  5
676
100
AcDbEntity
  8
0
100
AcDbEllipse
 62
7
  6
CONTINUOUS
 10
7.5000042309
 20
-23.4113248654
 30
0.0
 11
-0.0029088041
 21
0.2886641433
 31
0.0
 40
0.8660144118
 41
-0.0087264124
 42
1.5591610446
  0
ELLIPSE
  5
677
100
AcDbEntity
  8
0
100
AcDbEllipse
 62
7
  6
CONTINUOUS
 10
-9.8999957691
 20
-23.4113248654
 30
0.0
 11
-0.0029088041
 21
0.2886641433
 31
0.0
 40
0.8660144118
 41
-0.0087264124
 42
1.5591610446
  0
ELLIPSE
  5
678
100
AcDbEntity
  8
0
100
AcDbEllipse
 62
7
  6
CONTINUOUS
 10
-7.5000042309
 20
-23.4113248654
 30
0.0
 11
0.0029088041
 21
0.2886641433
 31
0.0
 40
0.8660144118
 41
-1.5591610446
 42
0.0087264124
  0
ELLIPSE
  5
679
100
AcDbEntity
  8
0
100
AcDbEllipse
 62
7
  6
CONTINUOUS
 10
-1.2087344835
 20
-23.7941787855
 30
0.0
 11
0.1664199338
 21
-0.1109450578
 31
0.0
 40
0.9999450019
 41
-0.9827748477
 42
0.5879707104
  0
ELLIPSE
  5
67A
100
AcDbEntity
  8
0
100
AcDbEllipse
 62
7
  6
CONTINUOUS
 10
1.2087344835
 20
-23.7941787855
 30
0.0
 11
0.1664199338
 21
0.1109450578
 31
0.0
 40
0.9999450019
 41
2.5536219432
 42
4.1243675013
  0
ELLIPSE
  5
67B
100
AcDbEntity
  8
0
100
AcDbEllipse
 62
7
  6
CONTINUOUS
 10
1.2087344835
 20
23.7941787855
 30
0.0
 11
-0.1664199338
 21
0.1109450578
 31
0.0
 40
0.9999450019
 41
-0.9827748477
 42
0.5879707104
  0
ELLIPSE
  5
67C
100
AcDbEntity
  8
0
100
AcDbEllipse
 62
7
  6
CONTINUOUS
 10
-1.2087344835
 20
23.7941787855
 30
0.0
 11
-0.1664199338
 21
-0.1109450578
 31
0.0
 40
0.9999450019
 41
2.5536219432
 42
4.1243675013
  0
ELLIPSE
  5
67D
100
AcDbEntity
  8
0
100
AcDbEllipse
 62
7
  6
CONTINUOUS
 10
7.5666456542
 20
20.9916321118
 30
0.0
 11
0.5
 21
-0.0
 31
0.0
 40
0.0087268678
 41
0.0174532925
 42
1.5707963268
  0
ELLIPSE
  5
67E
100
AcDbEntity
  8
RACCORDO
100
AcDbEllipse
 62
7
  6
CONTINUOUS
 10
-6.5968412527
 20
7.79
 30
0.0
 11
-0.0
 21
88.6
 31
0.0
 40
0.0087268678
 41
1.4349437612
 42
1.444478678
  0
ELLIPSE
  5
67F
100
AcDbEntity
  8
RACCORDO
100
AcDbEllipse
 62
7
  6
CONTINUOUS
 10
-7.2031587473
 20
7.79
 30
0.0
 11
-0.0
 21
88.6
 31
0.0
 40
0.0087268678
 41
-1.4444786911
 42
-1.4419055065
  0
ELLIPSE
  5
680
100
AcDbEntity
  8
RACCORDO
100
AcDbEllipse
 62
7
  6
CONTINUOUS
 10
7.2031587473
 20
7.79
 30
0.0
 11
-0.0
 21
88.6
 31
0.0
 40
0.0087268678
 41
1.4419055065
 42
1.4444786911
  0
ELLIPSE
  5
681
100
AcDbEntity
  8
RACCORDO
100
AcDbEllipse
 62
7
  6
CONTINUOUS
 10
6.5968412527
 20
7.79
 30
0.0
 11
-0.0
 21
88.6
 31
0.0
 40
0.0087268678
 41
-1.444478678
 42
-1.4349437612
  0
ELLIPSE
  5
682
100
AcDbEntity
  8
0
100
AcDbEllipse
 62
7
  6
CONTINUOUS
 10
-7.5666456542
 20
20.9916321118
 30
0.0
 11
0.5
 21
0.0
 31
0.0
 40
0.0087268678
 41
1.5707963268
 42
3.1241393611
  0
ELLIPSE
  5
683
100
AcDbEntity
  8
0
100
AcDbEllipse
 62
7
  6
CONTINUOUS
 10
-7.5666456542
 20
-20.9916321118
 30
0.0
 11
0.5
 21
0.0
 31
0.0
 40
0.0087268678
 41
-3.1241393611
 42
-1.5707963268
  0
ELLIPSE
  5
684
100
AcDbEntity
  8
0
100
AcDbEllipse
 62
7
  6
CONTINUOUS
 10
4.4063662764
 20
-23.4563578147
 30
0.0
 11
-0.0
 21
0.5
 31
0.0
 40
0.0058178298
 41
-3.2409419489
 42
-3.1474104178
  0
ELLIPSE
  5
685
100
AcDbEntity
  8
0
100
AcDbEllipse
 62
7
  6
CONTINUOUS
 10
7.5666456542
 20
-20.9916321118
 30
0.0
 11
0.5
 21
-0.0
 31
0.0
 40
0.0087268678
 41
-1.5707963268
 42
-0.0174532925
  0
ELLIPSE
  5
686
100
AcDbEntity
  8
0
100
AcDbEllipse
 62
7
  6
CONTINUOUS
 10
-3.5567246406
 20
23.4563578147
 30
0.0
 11
-0.0
 21
0.5
 31
0.0
 40
0.0087268678
 41
0.0058177642
 42
0.5720246919
  0
ELLIPSE
  5
687
100
AcDbEntity
  8
0
100
AcDbEllipse
 62
7
  6
CONTINUOUS
 10
3.5567246406
 20
23.4563578147
 30
0.0
 11
-0.0
 21
0.5
 31
0.0
 40
0.0087268678
 41
-0.5720246919
 42
-0.0058177642
  0
ELLIPSE
  5
688
100
AcDbEntity
  8
0
100
AcDbEllipse
 62
7
  6
CONTINUOUS
 10
3.5567246406
 20
-23.4563578147
 30
0.0
 11
0.0
 21
0.5
 31
0.0
 40
0.0087268678
 41
-3.1357748894
 42
-2.5695679617
  0
ELLIPSE
  5
689
100
AcDbEntity
  8
0
100
AcDbEllipse
 62
7
  6
CONTINUOUS
 10
-3.5567246406
 20
-23.4563578147
 30
0.0
 11
-0.0
 21
0.5
 31
0.0
 40
0.0087268678
 41
-3.7136173455
 42
-3.1474104178
  0
ELLIPSE
  5
68A
100
AcDbEntity
  8
0
100
AcDbEllipse
 62
7
  6
CONTINUOUS
 10
7.5666456542
 20
21.9537669705
 30
0.0
 11
-0.4999904798
 21
0.5000285596
 31
0.0
 40
0.0061705924
 41
-4.1802133371
 42
-3.1528749621
  0
ELLIPSE
  5
68B
100
AcDbEntity
  8
0
100
AcDbEllipse
 62
7
  6
CONTINUOUS
 10
-4.4063662764
 20
-23.4563578147
 30
0.0
 11
-0.0
 21
0.5
 31
0.0
 40
0.0058178298
 41
-3.1357748894
 42
-3.0422433583
  0
ELLIPSE
  5
68C
100
AcDbEntity
  8
0
100
AcDbEllipse
 62
7
  6
CONTINUOUS
 10
-7.5666456542
 20
21.9537669705
 30
0.0
 11
0.4999904798
 21
0.5000285596
 31
0.0
 40
0.0061705924
 41
-3.1303103451
 42
-2.1029719701
  0
ELLIPSE
  5
68D
100
AcDbEntity
  8
0
100
AcDbEllipse
 62
7
  6
CONTINUOUS
 10
-7.5666456542
 20
-21.9537669705
 30
0.0
 11
-0.4999904798
 21
0.5000285596
 31
0.0
 40
0.0061705924
 41
-1.0386206835
 42
-0.0112823085
  0
ELLIPSE
  5
68E
100
AcDbEntity
  8
0
100
AcDbEllipse
 62
7
  6
CONTINUOUS
 10
7.5666456542
 20
-21.9537669705
 30
0.0
 11
0.4999904798
 21
0.5000285596
 31
0.0
 40
0.0061705924
 41
0.0112823085
 42
1.0386206835
  0
ELLIPSE
  5
68F
100
AcDbEntity
  8
0
100
AcDbEllipse
 62
7
  6
CONTINUOUS
 10
-10.641254093
 20
21.8941737085
 30
0.0
 11
-0.4160498344
 21
0.2773626446
 31
0.0
 40
0.9999450019
 41
-0.9827748477
 42
0.5879707104
  0
ELLIPSE
  5
690
100
AcDbEntity
  8
0
100
AcDbEllipse
 62
7
  6
CONTINUOUS
 10
-10.641254093
 20
-21.8941737085
 30
0.0
 11
0.4160498344
 21
0.2773626446
 31
0.0
 40
0.9999450019
 41
2.5536219432
 42
4.1243675013
  0
ELLIPSE
  5
691
100
AcDbEntity
  8
0
100
AcDbEllipse
 62
7
  6
CONTINUOUS
 10
10.641254093
 20
-21.8941737085
 30
0.0
 11
0.4160498344
 21
-0.2773626446
 31
0.0
 40
0.9999450019
 41
-0.9827748477
 42
0.5879707104
  0
ELLIPSE
  5
692
100
AcDbEntity
  8
0
100
AcDbEllipse
 62
7
  6
CONTINUOUS
 10
10.641254093
 20
21.8941737085
 30
0.0
 11
-0.4160498344
 21
-0.2773626446
 31
0.0
 40
0.9999450019
 41
2.5536219432
 42
4.1243675013
  0
ELLIPSE
  5
693
100
AcDbEntity
  8
RACCORDO
100
AcDbEllipse
 62
7
  6
CONTINUOUS
 10
-7.7164416493
 20
16.9663654925
 30
0.0
 11
0.0
 21
2.0
 31
0.0
 40
0.0087268678
 41
-0.1192661309
 42
-0.0087266463
  0
ELLIPSE
  5
694
100
AcDbEntity
  8
RACCORDO
100
AcDbEllipse
 62
7
  6
CONTINUOUS
 10
7.7164416493
 20
16.9663654925
 30
0.0
 11
0.0
 21
2.0
 31
0.0
 40
0.0087268678
 41
0.0087266463
 42
0.1192661309
  0
ELLIPSE
  5
695
100
AcDbEntity
  8
RACCORDO
100
AcDbEllipse
 62
7
  6
CONTINUOUS
 10
-9.05
 20
-2.2870482079
 30
0.0
 11
0.8
 21
-0.0
 31
0.0
 40
0.0174550649
 41
-0.0
 42
1.5707963268
  0
ELLIPSE
  5
696
100
AcDbEntity
  8
DRAFT
100
AcDbEllipse
 62
7
  6
CONTINUOUS
 10
-7.718583276
 20
16.25
 30
0.0
 11
0.0
 21
1.0
 31
0.0
 40
0.0087268678
 41
0.927295218
 42
2.2142974356
  0
ELLIPSE
  5
697
100
AcDbEntity
  8
RACCORDO
100
AcDbEllipse
 62
7
  6
CONTINUOUS
 10
-7.9472272121
 20
14.5108367263
 30
0.0
 11
-0.0
 21
0.8
 31
0.0
 40
0.0087268678
 41
-4.7123889804
 42
-3.1459559767
  0
ELLIPSE
  5
698
100
AcDbEntity
  8
DRAFT
100
AcDbEllipse
 62
7
  6
CONTINUOUS
 10
7.718583276
 20
16.25
 30
0.0
 11
-0.0
 21
1.0
 31
0.0
 40
0.0087268678
 41
-2.2142974356
 42
-0.927295218
  0
ELLIPSE
  5
699
100
AcDbEntity
  8
RACCORDO
100
AcDbEllipse
 62
7
  6
CONTINUOUS
 10
7.9472272121
 20
14.5108367263
 30
0.0
 11
-0.0
 21
0.8
 31
0.0
 40
0.0087268678
 41
-3.1372293305
 42
-1.5707963268
  0
ELLIPSE
  5
69A
100
AcDbEntity
  8
RACCORDO
100
AcDbEllipse
 62
7
  6
CONTINUOUS
 10
-8.8608291108
 20
14.5108367263
 30
0.0
 11
0.0
 21
0.8
 31
0.0
 40
0.0043633508
 41
-3.1663949907
 42
-3.1459559767
  0
ELLIPSE
  5
69B
100
AcDbEntity
  8
RACCORDO
100
AcDbEllipse
 62
7
  6
CONTINUOUS
 10
7.7700717959
 20
9.9768345149
 30
0.0
 11
0.0
 21
1.0
 31
0.0
 40
0.0087268678
 41
-3.1328660073
 42
-1.5707963268
  0
ELLIPSE
  5
69C
100
AcDbEntity
  8
RACCORDO
100
AcDbEllipse
 62
7
  6
CONTINUOUS
 10
7.9472272121
 20
11.0891632737
 30
0.0
 11
-0.0
 21
0.8
 31
0.0
 40
0.0087268678
 41
-1.5707963268
 42
-0.0043633231
  0
ELLIPSE
  5
69D
100
AcDbEntity
  8
RACCORDO
100
AcDbEllipse
 62
7
  6
CONTINUOUS
 10
-8.8608291108
 20
11.0891632737
 30
0.0
 11
0.0
 21
0.8
 31
0.0
 40
0.0043633508
 41
0.0043633231
 42
0.0248023372
  0
ELLIPSE
  5
69E
100
AcDbEntity
  8
RACCORDO
100
AcDbEllipse
 62
7
  6
CONTINUOUS
 10
-7.9472272121
 20
11.0891632737
 30
0.0
 11
0.0
 21
0.8
 31
0.0
 40
0.0087268678
 41
0.0043633231
 42
1.5707963268
  0
ELLIPSE
  5
69F
100
AcDbEntity
  8
RACCORDO
100
AcDbEllipse
 62
7
  6
CONTINUOUS
 10
-7.7700717959
 20
9.9768345149
 30
0.0
 11
0.0
 21
1.0
 31
0.0
 40
0.0087268678
 41
-4.7123889804
 42
-3.1503192998
  0
ELLIPSE
  5
6A0
100
AcDbEntity
  8
RACCORDO
100
AcDbEllipse
 62
7
  6
CONTINUOUS
 10
8.8608291108
 20
14.5108367263
 30
0.0
 11
0.0
 21
0.8
 31
0.0
 40
0.0043633508
 41
-3.1372293305
 42
-3.1167903164
  0
ELLIPSE
  5
6A1
100
AcDbEntity
  8
RACCORDO
100
AcDbEllipse
 62
7
  6
CONTINUOUS
 10
8.8608291108
 20
11.0891632737
 30
0.0
 11
0.0
 21
0.8
 31
0.0
 40
0.0043633508
 41
-0.0248023372
 42
-0.0043633231
  0
ELLIPSE
  5
6A2
100
AcDbEntity
  8
RACCORDO
100
AcDbEllipse
 62
7
  6
CONTINUOUS
 10
-9.4965811966
 20
-7.7312924592
 30
0.0
 11
-0.0
 21
0.8
 31
0.0
 40
0.0042735043
 41
0.0087266463
 42
1.5707889242
  0
ELLIPSE
  5
6A3
100
AcDbEntity
  8
RACCORDO
100
AcDbEllipse
 62
7
  6
CONTINUOUS
 10
9.4965811966
 20
-3.8687075408
 30
0.0
 11
-0.0
 21
0.8
 31
0.0
 40
0.0042735043
 41
-3.1328660073
 42
-1.5708036749
  0
ELLIPSE
  5
6A4
100
AcDbEntity
  8
RACCORDO
100
AcDbEllipse
 62
7
  6
CONTINUOUS
 10
9.4965811966
 20
-7.7312924592
 30
0.0
 11
0.0
 21
0.8
 31
0.0
 40
0.0042735043
 41
-1.5707889809
 42
-0.0087266463
  0
ELLIPSE
  5
6A5
100
AcDbEntity
  8
RACCORDO
100
AcDbEllipse
 62
7
  6
CONTINUOUS
 10
-9.4965811966
 20
-3.8687075408
 30
0.0
 11
0.0
 21
0.8
 31
0.0
 40
0.0042735043
 41
-4.7123816029
 42
-3.1503192998
  0
ELLIPSE
  5
6A6
100
AcDbEntity
  8
RACCORDO
100
AcDbEllipse
 62
7
  6
CONTINUOUS
 10
8.3267964366
 20
9.9768345149
 30
0.0
 11
-0.0
 21
1.0
 31
0.0
 40
0.0087268678
 41
-3.1328660073
 42
-1.5707963268
  0
ELLIPSE
  5
6A7
100
AcDbEntity
  8
RACCORDO
100
AcDbEllipse
 62
7
  6
CONTINUOUS
 10
-8.3267964366
 20
9.9768345149
 30
0.0
 11
-0.0
 21
1.0
 31
0.0
 40
0.0087268678
 41
-4.7123889804
 42
-3.1503192998
  0
ELLIPSE
  5
6A8
100
AcDbEntity
  8
DRAFT
100
AcDbEllipse
 62
7
  6
CONTINUOUS
 10
-8.2753079166
 20
-9.35
 30
0.0
 11
-0.0
 21
1.0
 31
0.0
 40
0.0087268678
 41
0.927295218
 42
2.2142974356
  0
ELLIPSE
  5
6A9
100
AcDbEntity
  8
DRAFT
100
AcDbEllipse
 62
7
  6
CONTINUOUS
 10
8.2753079166
 20
-9.35
 30
0.0
 11
0.0
 21
1.0
 31
0.0
 40
0.0087268678
 41
-2.2142974356
 42
-0.927295218
  0
ELLIPSE
  5
6AA
100
AcDbEntity
  8
RACCORDO
100
AcDbEllipse
 62
7
  6
CONTINUOUS
 10
9.05
 20
-2.2870482079
 30
0.0
 11
0.8
 21
0.0
 31
0.0
 40
0.0174550649
 41
1.5707963268
 42
3.1415926536
  0
ELLIPSE
  5
6AB
100
AcDbEntity
  8
RACCORDO
100
AcDbEllipse
 62
7
  6
CONTINUOUS
 10
-9.05
 20
2.2870482079
 30
0.0
 11
0.8
 21
0.0
 31
0.0
 40
0.0174550649
 41
-1.5707963268
 42
-0.0
  0
ELLIPSE
  5
6AC
100
AcDbEntity
  8
RACCORDO
100
AcDbEllipse
 62
7
  6
CONTINUOUS
 10
9.05
 20
2.2870482079
 30
0.0
 11
0.8
 21
-0.0
 31
0.0
 40
0.0174550649
 41
3.1415926536
 42
4.7123889804
  0
ELLIPSE
  5
6AD
100
AcDbEntity
  8
RACCORDO
100
AcDbEllipse
 62
7
  6
CONTINUOUS
 10
-8.5039518527
 20
-3.8687075408
 30
0.0
 11
-0.0
 21
0.8
 31
0.0
 40
0.0087268678
 41
1.5707963268
 42
3.1328660073
  0
ELLIPSE
  5
6AE
100
AcDbEntity
  8
RACCORDO
100
AcDbEllipse
 62
7
  6
CONTINUOUS
 10
-8.5039518527
 20
-7.7312924592
 30
0.0
 11
-0.0
 21
0.8
 31
0.0
 40
0.0087268678
 41
0.0087266463
 42
1.5707963268
  0
ELLIPSE
  5
6AF
100
AcDbEntity
  8
RACCORDO
100
AcDbEllipse
 62
7
  6
CONTINUOUS
 10
8.5039518527
 20
-7.7312924592
 30
0.0
 11
-0.0
 21
0.8
 31
0.0
 40
0.0087268678
 41
-1.5707963268
 42
-0.0087266463
  0
ELLIPSE
  5
6B0
100
AcDbEntity
  8
RACCORDO
100
AcDbEllipse
 62
7
  6
CONTINUOUS
 10
8.5039518527
 20
-3.8687075408
 30
0.0
 11
0.0
 21
0.8
 31
0.0
 40
0.0087268678
 41
-3.1328660073
 42
-1.5707963268
  0
ENDSEC
  0
SECTION
  2
OBJECTS
  0
DICTIONARY
  5
C
100
AcDbDictionary
280
0
281
1
  3
ACAD_GROUP
350
D
  3
ACAD_MLINESTYLE
350
17
  3
ACAD_LAYOUT
350
1A
  3
ACAD_PLOTSETTINGS
350
19
  3
ACAD_PLOTSTYLENAME
350
E
  0
DICTIONARY
  5
D
102
{ACAD_REACTORS
330
C
102
}
100
AcDbDictionary
280
0
281
1
  0
ACDBDICTIONARYWDFLT
  5
E
102
{ACAD_REACTORS
330
C
102
}
100
AcDbDictionary
281
1
  3
Normal
350
F
100
AcDbDictionaryWithDefault
340
F
  0
DICTIONARY
  5
17
102
{ACAD_REACTORS
330
C
102
}
100
AcDbDictionary
280
0
281
1
  3
Standard
350
18
  0
DICTIONARY
  5
19
102
{ACAD_REACTORS
330
C
102
}
100
AcDbDictionary
281
1
  0
DICTIONARY
  5
1A
102
{ACAD_REACTORS
330
C
102
}
100
AcDbDictionary
281
1
  3
Model
350
6B1
  3
Layout1
350
6B2
  0
ACDBPLACEHOLDER
  5
F
102
{ACAD_REACTORS
330
E
102
}
  0
MLINESTYLE
  5
18
102
{ACAD_REACTORS
330
17
102
}
100
AcDbMlineStyle
  2
STANDARD
 70
0
  3

 62
256
 51
90.0
 52
90.0
 71
2
 49
0.5
 62
256
  6
BYLAYER
 49
-0.5
 62
256
  6
BYLAYER
  0
LAYOUT
  5
6B1
102
{ACAD_REACTORS
330
1A
102
}
100
AcDbPlotSettings
  1

  2
none_device
  4
ISO_A4_(297.00_x_210.00_MM)
  6

 40
0.0
 41
0.0
 42
0.0
 43
0.0
 44
297.0
 45
210.0
 46
0.0
 47
0.0
 48
0.0
 49
0.0
140
0.0
141
0.0
142
1.0
143
1.0
 70
1024
 72
1
 73
0
 74
0
  7

 75
0
147
1.0
148
0.0
149
0.0
100
AcDbLayout
  1
Model
 70
0
 71
0
 10
0.0
 20
0.0
 11
297.0
 21
210.0
 12
0.0
 22
0.0
 32
0.0
 14
0.0
 24
0.0
 34
0.0
 15
0.0
 25
0.0
 35
0.0
146
0.0
 13
0.0
 23
0.0
 33
0.0
 16
1.0
 26
0.0
 36
0.0
 17
0.0
 27
1.0
 37
0.0
 76
0
330
218
345
0
346
0
  0
LAYOUT
  5
6B2
102
{ACAD_REACTORS
330
1A
102
}
100
AcDbPlotSettings
  1

  2
none_device
  4
ISO_A4_(297.00_x_210.00_MM)
  6

 40
0.0
 41
0.0
 42
0.0
 43
0.0
 44
297.0
 45
210.0
 46
0.0
 47
0.0
 48
0.0
 49
0.0
140
0.0
141
0.0
142
1.0
143
1.0
 70
0
 72
1
 73
0
 74
0
  7

 75
0
147
1.0
148
0.0
149
0.0
100
AcDbLayout
  1
Layout1
 70
0
 71
1
 10
0.0
 20
0.0
 11
297.0
 21
210.0
 12
0.0
 22
0.0
 32
0.0
 14
0.0
 24
0.0
 34
0.0
 15
0.0
 25
0.0
 35
0.0
146
0.0
 13
0.0
 23
0.0
 33
0.0
 16
1.0
 26
0.0
 36
0.0
 17
0.0
 27
1.0
 37
0.0
 76
0
330
219
345
0
346
0
  0
ENDSEC
  0
EOF
