0
SECTION
2
HEADER
9
$ACADVER
1
AC1014
9
$HANDSEED
5
       465
9
$EXTMAX
10
297.0000000000
20
210.0000000000
9
$EXTMIN
10
0.0000000000
20
0.0000000000
9
$LIMMIN
10
0.0000000000
20
0.0000000000
9
$LIMMAX
10
297.0000000000
20
210.0000000000
9
$VIEWCTR
10
148.5000000000
20
105.0000000000
9
$VIEWSIZE
40
210.0000000000
9
$CLAYER
8
0
9
$LTSCALE
40
16.3350000000
9
$CELTYPE
6
BYLAYER
9
$DIMSCALE
40
1
9
$DIMASZ
40
3.0000000000
9
$DIMEXO
40
1.8562500000
9
$DIMDLI
40
11.2860000000
9
$DIMEXE
40
5.3460000000
9
$DIMCEN
40
2.6730000000
9
$DIMLFAC
40
1.0000000000
9
$DIMTXT
40
3.0000000000
9
$DIMTOL
70
1
9
$DIMLIM
70
0
9
$DIMTFAC
40
1.0000000000
9
$DIMTP
40
0.0100000000
9
$DIMTM
40
0.0100000000
9
$MEASUREMENT
70
1
0
ENDSEC
0
SECTION
2
CLASSES
0
ENDSEC
0
SECTION
2
TABLES
0
TABLE
2
VPORT
5
8
100
AcDbSymbolTable
70
2
0
VPORT
5
1F4
100
AcDbSymbolTableRecord
100
AcDbViewportTableRecord
2
*ACTIVE
70
0
10
0.0
20
0.0
11
1.0
21
1.0
12
148.5000000000
22
105.0000000000
13
0.0
23
0.0
14
1.0
24
1.0
15
0.0
25
0.0
16
0.0
26
0.0
36
1.0
17
0.0
27
0.0
37
0.0
40
210.0000000000
41
1.4142857143
42
50.0
43
0.0
44
0.0
50
0.0
51
0.0
71
0
72
100
73
1
74
1
75
0
76
0
77
0
78
0
0
ENDTAB
0
TABLE
2
LTYPE
5
5
100
AcDbSymbolTable
70
6
0
LTYPE
5
14
100
AcDbSymbolTableRecord
100
AcDbLinetypeTableRecord
2
BYBLOCK
70
0
3

72
65
73
0
40
0.0
0
LTYPE
5
15
100
AcDbSymbolTableRecord
100
AcDbLinetypeTableRecord
2
BYLAYER
70
0
3

72
65
73
0
40
0.0
0
LTYPE
5
16
100
AcDbSymbolTableRecord
100
AcDbLinetypeTableRecord
2
CONTINUOUS
70
64
3
Solid line
72
65
73
0
40
0
0
LTYPE
5
1F5
100
AcDbSymbolTableRecord
100
AcDbLinetypeTableRecord
2
CENTER
70
64
3
____ _ ____ _ ____ _ ____ _ ____ _ ____ _ ____
72
65
73
4
40
0.6
49
0.375
74
0
49
-0.075
74
0
49
0.075
74
0
49
-0.075
74
0
0
LTYPE
5
1F6
100
AcDbSymbolTableRecord
100
AcDbLinetypeTableRecord
2
HIDDEN
70
64
3
- - - - - - - - - - - - - - - - - - - -
72
65
73
2
40
0.2
49
0.1
74
0
49
-0.1
74
0
0
LTYPE
5
1F7
100
AcDbSymbolTableRecord
100
AcDbLinetypeTableRecord
2
PHANTOM
70
64
3
_____ _ _ _____ _ _ _____ _ _ _____
72
65
73
6
40
0.8
49
0.45
74
0
49
-0.05
74
0
49
0.1
74
0
49
-0.05
74
0
49
0.1
74
0
49
-0.05
74
0
0
LTYPE
5
1F8
100
AcDbSymbolTableRecord
100
AcDbLinetypeTableRecord
2
DOT
70
64
3
. . . . . . . . . . . . . . . . . . . .
72
65
73
2
40
0.2
49
0.1
74
0
49
-0.1
74
0
0
LTYPE
5
1F9
100
AcDbSymbolTableRecord
100
AcDbLinetypeTableRecord
2
DASHED
70
64
3
- - - - - - - - - - - - - - - - - - - -
72
65
73
2
40
0.2
49
0.1
74
0
49
-0.1
74
0
0
ENDTAB
0
TABLE
2
LAYER
5
2
100
AcDbSymbolTable
70
36
0
LAYER
5
10
100
AcDbSymbolTableRecord
100
AcDbLayerTableRecord
2
0
70
0
62
7
6
CONTINUOUS
0
LAYER
5
1FA
100
AcDbSymbolTableRecord
100
AcDbLayerTableRecord
2
DEFAULT_1
70
0
62
7
6
CENTER
0
LAYER
5
1FB
100
AcDbSymbolTableRecord
100
AcDbLayerTableRecord
2
DEFAULT_2
70
0
62
8
6
HIDDEN
0
LAYER
5
1FC
100
AcDbSymbolTableRecord
100
AcDbLayerTableRecord
2
DEFAULT_3
70
0
62
7
6
PHANTOM
0
LAYER
5
1FD
100
AcDbSymbolTableRecord
100
AcDbLayerTableRecord
2
_BLACK_HOLE
70
0
62
7
6
CONTINUOUS
0
LAYER
5
1FE
100
AcDbSymbolTableRecord
100
AcDbLayerTableRecord
2
ASSI
70
0
62
7
6
CONTINUOUS
0
LAYER
5
1FF
100
AcDbSymbolTableRecord
100
AcDbLayerTableRecord
2
COORDINATE
70
0
62
7
6
CONTINUOUS
0
LAYER
5
200
100
AcDbSymbolTableRecord
100
AcDbLayerTableRecord
2
COORD_ORIGINE
70
0
62
7
6
CONTINUOUS
0
LAYER
5
201
100
AcDbSymbolTableRecord
100
AcDbLayerTableRecord
2
CURVE
70
0
62
7
6
CONTINUOUS
0
LAYER
5
202
100
AcDbSymbolTableRecord
100
AcDbLayerTableRecord
2
DRAFT
70
0
62
7
6
CONTINUOUS
0
LAYER
5
203
100
AcDbSymbolTableRecord
100
AcDbLayerTableRecord
2
IMPORT
70
0
62
7
6
CONTINUOUS
0
LAYER
5
204
100
AcDbSymbolTableRecord
100
AcDbLayerTableRecord
2
LAY0001
70
0
62
7
6
CONTINUOUS
0
LAYER
5
205
100
AcDbSymbolTableRecord
100
AcDbLayerTableRecord
2
NOTE
70
0
62
7
6
CONTINUOUS
0
LAYER
5
206
100
AcDbSymbolTableRecord
100
AcDbLayerTableRecord
2
PIANI
70
0
62
7
6
CONTINUOUS
0
LAYER
5
207
100
AcDbSymbolTableRecord
100
AcDbLayerTableRecord
2
PIANI_DI_RIFERIMENTO
70
0
62
7
6
CONTINUOUS
0
LAYER
5
208
100
AcDbSymbolTableRecord
100
AcDbLayerTableRecord
2
PIANI_ORIGINE
70
0
62
7
6
CONTINUOUS
0
LAYER
5
209
100
AcDbSymbolTableRecord
100
AcDbLayerTableRecord
2
PIANI_RIFERIMENTO
70
0
62
7
6
CONTINUOUS
0
LAYER
5
20A
100
AcDbSymbolTableRecord
100
AcDbLayerTableRecord
2
PUNTI
70
0
62
7
6
CONTINUOUS
0
LAYER
5
20B
100
AcDbSymbolTableRecord
100
AcDbLayerTableRecord
2
RACCORDO
70
0
62
7
6
CONTINUOUS
0
LAYER
5
20C
100
AcDbSymbolTableRecord
100
AcDbLayerTableRecord
2
SKEL
70
0
62
7
6
CONTINUOUS
0
LAYER
5
20D
100
AcDbSymbolTableRecord
100
AcDbLayerTableRecord
2
SMUSSO
70
0
62
7
6
CONTINUOUS
0
LAYER
5
20E
100
AcDbSymbolTableRecord
100
AcDbLayerTableRecord
2
SUPERFICI
70
0
62
7
6
CONTINUOUS
0
LAYER
5
20F
100
AcDbSymbolTableRecord
100
AcDbLayerTableRecord
2
TRASH
70
0
62
7
6
CONTINUOUS
0
LAYER
5
210
100
AcDbSymbolTableRecord
100
AcDbLayerTableRecord
2
XSEC_DATUMS
70
0
62
7
6
CONTINUOUS
0
ENDTAB
0
TABLE
2
STYLE
5
3
100
AcDbSymbolTable
70
1
0
STYLE
5
11
100
AcDbSymbolTableRecord
100
AcDbTextStyleTableRecord
2
STANDARD
70
0
40
0.0
41
0.8000000000
50
0.0
71
0
42
0.2
3
txt
4

0
ENDTAB
0
TABLE
2
VIEW
5
6
100
AcDbSymbolTable
70
0
0
ENDTAB
0
TABLE
2
UCS
5
7
100
AcDbSymbolTable
70
0
0
ENDTAB
0
TABLE
2
APPID
5
9
100
AcDbSymbolTable
70
1
0
APPID
5
211
100
AcDbSymbolTableRecord
100
AcDbRegAppTableRecord
2
ACAD
70
0
0
ENDTAB
0
TABLE
2
DIMSTYLE
5
A
100
AcDbSymbolTable
70
1
0
DIMSTYLE
105
212
100
AcDbSymbolTableRecord
100
AcDbDimStyleTableRecord
2
STANDARD
70
0
3

4

5

6

7

40
1.0
41
3.0000000000
42
0.0625
43
0.38
44
0.18
45
0.0
46
0.0
47
0.0100000000
48
0.0100000000
140
3.0000000000
141
0.09
142
0.0
143
25.4
144
1.0000000000
145
0.0
146
1.0000000000
147
0.09
71
1
72
0
73
0
74
0
75
0
76
0
77
1
78
8
170
0
171
2
172
0
173
0
174
0
175
0
176
0
177
0
178
0
270
2
271
2
272
2
273
2
274
2
340
11
275
0
280
0
281
0
282
0
283
1
284
8
285
0
286
0
287
3
288
0
0
ENDTAB
0
TABLE
2
BLOCK_RECORD
5
1
100
AcDbSymbolTable
70
0
0
BLOCK_RECORD
5
1B
100
AcDbSymbolTableRecord
100
AcDbBlockTableRecord
2
*MODEL_SPACE
0
BLOCK_RECORD
5
1C
100
AcDbSymbolTableRecord
100
AcDbBlockTableRecord
2
*PAPER_SPACE
0
ENDTAB
0
ENDSEC
0
SECTION
2
BLOCKS
0
BLOCK
5
1E
100
AcDbEntity
8
0
100
AcDbBlockBegin
2
*MODEL_SPACE
70
0
10
0.0
20
0.0
30
0.0
3
*MODEL_SPACE
1

0
ENDBLK
5
1F
100
AcDbEntity
8
0
100
AcDbBlockEnd
0
BLOCK
5
20
100
AcDbEntity
8
0
100
AcDbBlockBegin
2
*PAPER_SPACE
70
0
10
0.0
20
0.0
30
0.0
3
*PAPER_SPACE
1

0
ENDBLK
5
21
100
AcDbEntity
8
0
100
AcDbBlockEnd
0
ENDSEC
0
SECTION
2
ENTITIES
0
LINE
5
213
100
AcDbEntity
8
0
100
AcDbLine
62
7
6
CONTINUOUS
10
11.6037007799
20
-24.6672131148
11
9.2036923183
21
-24.6672131148
0
LINE
5
214
100
AcDbEntity
8
0
100
AcDbLine
62
7
6
CONTINUOUS
10
-5.7962992201
20
-24.6672131148
11
-8.1963076817
21
-24.6672131148
0
LINE
5
215
100
AcDbEntity
8
0
100
AcDbLine
62
7
6
CONTINUOUS
10
-8.1919358477
20
-24.6628412808
11
-5.8006710541
21
-24.6628412808
0
LINE
5
216
100
AcDbEntity
8
0
100
AcDbLine
62
7
6
CONTINUOUS
10
9.2080641523
20
-24.6628412808
11
11.5993289459
21
-24.6628412808
0
LINE
5
217
100
AcDbEntity
8
0
100
AcDbLine
62
9
6
CONTINUOUS
10
-5.5506752849
20
-24.4128455115
11
-8.4419316169
21
-24.4128455115
0
LINE
5
218
100
AcDbEntity
8
0
100
AcDbLine
62
9
6
CONTINUOUS
10
8.9580683831
20
-24.4128455115
11
11.8493247151
21
-24.4128455115
0
LINE
5
219
100
AcDbEntity
8
0
100
AcDbLine
62
7
6
CONTINUOUS
10
-2.7463034509
20
-24.1672131148
11
0.5036965491
21
-24.1672131148
0
LINE
5
21A
100
AcDbEntity
8
0
100
AcDbLine
62
7
6
CONTINUOUS
10
2.9036965491
20
-24.1672131148
11
6.1536965491
21
-24.1672131148
0
LINE
5
21B
100
AcDbEntity
8
0
100
AcDbLine
62
7
6
CONTINUOUS
10
-1.7963034509
20
-24.1613952849
11
0.5036965491
21
-24.1613952849
0
LINE
5
21C
100
AcDbEntity
8
0
100
AcDbLine
62
7
6
CONTINUOUS
10
2.9036965491
20
-24.1613952849
11
5.2036965491
21
-24.1613952849
0
LINE
5
21D
100
AcDbEntity
8
0
100
AcDbLine
62
7
6
CONTINUOUS
10
-2.7026528041
20
-24.1235624679
11
-1.7963034509
21
-24.1235624679
0
LINE
5
21E
100
AcDbEntity
8
0
100
AcDbLine
62
7
6
CONTINUOUS
10
5.2036965491
20
-24.1235624679
11
6.1100459022
21
-24.1235624679
0
LINE
5
21F
100
AcDbEntity
8
0
100
AcDbLine
62
9
6
CONTINUOUS
10
-5.5506752849
20
-24.0115506821
11
-8.4419316169
21
-24.0115506821
0
LINE
5
220
100
AcDbEntity
8
0
100
AcDbLine
62
9
6
CONTINUOUS
10
8.9580683831
20
-24.0115506821
11
11.8493247151
21
-24.0115506821
0
LINE
5
221
100
AcDbEntity
8
0
100
AcDbLine
62
9
6
CONTINUOUS
10
-5.7962992201
20
24.3327868852
11
-5.8006710541
21
24.3284150512
0
LINE
5
222
100
AcDbEntity
8
0
100
AcDbLine
62
9
6
CONTINUOUS
10
-5.5463034509
20
24.0827911160
11
-5.5506752849
21
24.0784192820
0
LINE
5
223
100
AcDbEntity
8
0
100
AcDbLine
62
9
6
CONTINUOUS
10
11.5993289459
20
-23.7950443311
11
9.2080641523
21
-23.7950443311
0
LINE
5
224
100
AcDbEntity
8
0
100
AcDbLine
62
9
6
CONTINUOUS
10
-5.8006710541
20
-23.7950443311
11
-8.1919358477
21
-23.7950443311
0
LINE
5
225
100
AcDbEntity
8
0
100
AcDbLine
62
7
6
CONTINUOUS
10
11.6044195469
20
-23.2898628456
11
9.2029735512
21
-23.2898628456
0
LINE
5
226
100
AcDbEntity
8
0
100
AcDbLine
62
7
6
CONTINUOUS
10
-8.1970264488
20
-23.2898628456
11
-5.7955804531
21
-23.2898628456
0
LINE
5
227
100
AcDbEntity
8
0
100
AcDbLine
62
7
6
CONTINUOUS
10
-8.9458112974
20
-22.5672131148
11
-2.7463034509
21
-22.5672131148
0
LINE
5
228
100
AcDbEntity
8
0
100
AcDbLine
62
7
6
CONTINUOUS
10
6.1536965491
20
-22.5672131148
11
12.3532043956
21
-22.5672131148
0
LINE
5
229
100
AcDbEntity
8
0
100
AcDbLine
62
7
6
CONTINUOUS
10
0.7036965491
20
-22.5619770791
11
2.7036965491
21
-22.5619770791
0
LINE
5
22A
100
AcDbEntity
8
0
100
AcDbLine
62
7
6
CONTINUOUS
10
-8.9380192726
20
-22.5613952849
11
-5.5521212807
21
-22.5613952849
0
LINE
5
22B
100
AcDbEntity
8
0
100
AcDbLine
62
7
6
CONTINUOUS
10
-1.7963034509
20
-22.5613952849
11
-1.2963034509
21
-22.5613952849
0
LINE
5
22C
100
AcDbEntity
8
0
100
AcDbLine
62
7
6
CONTINUOUS
10
4.7036965491
20
-22.5613952849
11
5.2036965491
21
-22.5613952849
0
LINE
5
22D
100
AcDbEntity
8
0
100
AcDbLine
62
7
6
CONTINUOUS
10
8.9595143789
20
-22.5613952849
11
12.3454123708
21
-22.5613952849
0
LINE
5
22E
100
AcDbEntity
8
0
100
AcDbLine
62
9
6
CONTINUOUS
10
-5.6103334254
20
-22.5031831403
11
-1.2963034509
21
-22.5031831403
0
LINE
5
22F
100
AcDbEntity
8
0
100
AcDbLine
62
9
6
CONTINUOUS
10
4.7036965491
20
-22.5031831403
11
9.0177265236
21
-22.5031831403
0
LINE
5
230
100
AcDbEntity
8
0
100
AcDbLine
62
7
6
CONTINUOUS
10
-1.2963034509
20
-21.8672131148
11
4.7036965491
21
-21.8672131148
0
LINE
5
231
100
AcDbEntity
8
0
100
AcDbLine
62
9
6
CONTINUOUS
10
-5.8629491052
20
-21.5032000634
11
-1.2963034509
21
-21.5032000634
0
LINE
5
232
100
AcDbEntity
8
0
100
AcDbLine
62
9
6
CONTINUOUS
10
4.7036965491
20
-21.5032000634
11
9.2703422033
21
-21.5032000634
0
LINE
5
233
100
AcDbEntity
8
0
100
AcDbLine
62
7
6
CONTINUOUS
10
12.8702788608
20
-21.1898628456
11
12.8454060247
21
-21.1898628456
0
LINE
5
234
100
AcDbEntity
8
0
100
AcDbLine
62
7
6
CONTINUOUS
10
-9.4628857626
20
-21.1898628456
11
-9.4380129265
21
-21.1898628456
0
LINE
5
235
100
AcDbEntity
8
0
100
AcDbLine
62
7
6
CONTINUOUS
10
-5.5003079052
20
-21.0672131148
11
-7.2461971133
21
-21.0672131148
0
LINE
5
236
100
AcDbEntity
8
0
100
AcDbLine
62
7
6
CONTINUOUS
10
8.9077010034
20
-21.0672131148
11
10.6535902115
21
-21.0672131148
0
LINE
5
237
100
AcDbEntity
8
0
100
AcDbLine
62
7
6
CONTINUOUS
10
-1.2963034509
20
-20.9672131148
11
4.7036965491
21
-20.9672131148
0
LINE
5
238
100
AcDbEntity
8
0
100
AcDbLine
62
9
6
CONTINUOUS
10
10.5424879809
20
-20.7336353709
11
9.0592434337
21
-20.7336353709
0
LINE
5
239
100
AcDbEntity
8
0
100
AcDbLine
62
9
6
CONTINUOUS
10
-5.6518503355
20
-20.7336353709
11
-7.1350948828
21
-20.7336353709
0
LINE
5
23A
100
AcDbEntity
8
0
100
AcDbLine
62
9
6
CONTINUOUS
10
-5.7962992201
20
-24.6672131148
11
-5.8006710541
21
-24.6628412808
0
LINE
5
23B
100
AcDbEntity
8
0
100
AcDbLine
62
9
6
CONTINUOUS
10
-5.5463034509
20
-24.4172173455
11
-5.5506752849
21
-24.4128455115
0
LINE
5
23C
100
AcDbEntity
8
0
100
AcDbLine
62
7
6
CONTINUOUS
10
-7.9463034509
20
20.0318265354
11
-7.2461971133
21
20.7327868852
0
LINE
5
23D
100
AcDbEntity
8
0
100
AcDbLine
62
7
6
CONTINUOUS
10
-6.5463034509
20
21.2327868852
11
-5.5521212807
21
22.2269690554
0
LINE
5
23E
100
AcDbEntity
8
0
100
AcDbLine
62
7
6
CONTINUOUS
10
-5.5003079052
20
-20.2632086605
11
8.9077010034
21
-20.2632086605
0
LINE
5
23F
100
AcDbEntity
8
0
100
AcDbLine
62
9
6
CONTINUOUS
10
-4.7403751112
20
-20.1112847751
11
8.1477682094
21
-20.1112847751
0
LINE
5
240
100
AcDbEntity
8
0
100
AcDbLine
62
9
6
CONTINUOUS
10
11.2278516792
20
-19.9567603530
11
9.0666141920
21
-19.9567603530
0
LINE
5
241
100
AcDbEntity
8
0
100
AcDbLine
62
9
6
CONTINUOUS
10
-5.6592210938
20
-19.9567603530
11
-7.8204585810
21
-19.9567603530
0
LINE
5
242
100
AcDbEntity
8
0
100
AcDbLine
62
9
6
CONTINUOUS
10
-4.7326544071
20
-19.3268115795
11
8.1400475052
21
-19.3268115795
0
LINE
5
243
100
AcDbEntity
8
0
100
AcDbLine
62
9
6
CONTINUOUS
10
-5.5029608109
20
-19.0173168839
11
-4.8896460910
21
-19.0173168839
0
LINE
5
244
100
AcDbEntity
8
0
100
AcDbLine
62
9
6
CONTINUOUS
10
8.2970391891
20
-19.0173168839
11
8.9103539090
21
-19.0173168839
0
LINE
5
245
100
AcDbEntity
8
0
100
AcDbLine
62
7
6
CONTINUOUS
10
-5.5521212807
20
-22.5613952849
11
-6.5463034509
21
-21.5672131148
0
LINE
5
246
100
AcDbEntity
8
0
100
AcDbLine
62
7
6
CONTINUOUS
10
-7.9463034509
20
-20.3662527650
11
-7.2461971133
21
-21.0672131148
0
LINE
5
247
100
AcDbEntity
8
0
100
AcDbLine
62
7
6
CONTINUOUS
10
-9.4628857626
20
-21.1898628456
11
-9.4463034509
21
-21.7383456013
0
LINE
5
248
100
AcDbEntity
8
0
100
AcDbLine
62
7
6
CONTINUOUS
10
-9.4628857626
20
20.8554366161
11
-9.4463034509
21
21.4039193718
0
LINE
5
249
100
AcDbEntity
8
0
100
AcDbLine
62
7
6
CONTINUOUS
10
6.1100459022
20
23.7891362384
11
6.1536965491
21
23.8327868852
0
LINE
5
24A
100
AcDbEntity
8
0
100
AcDbLine
62
7
6
CONTINUOUS
10
6.1536965491
20
22.2327868852
11
6.1097743020
21
22.1888646382
0
LINE
5
24B
100
AcDbEntity
8
0
100
AcDbLine
62
7
6
CONTINUOUS
10
11.2158015361
20
-12.6804807569
11
9.0726388046
21
-12.6804807569
0
LINE
5
24C
100
AcDbEntity
8
0
100
AcDbLine
62
7
6
CONTINUOUS
10
8.1347542935
20
-12.6804807569
11
-4.7273611954
21
-12.6804807569
0
LINE
5
24D
100
AcDbEntity
8
0
100
AcDbLine
62
7
6
CONTINUOUS
10
-5.6652457065
20
-12.6804807569
11
-7.8084084380
21
-12.6804807569
0
LINE
5
24E
100
AcDbEntity
8
0
100
AcDbLine
62
7
6
CONTINUOUS
10
6.1536965491
20
-24.1672131148
11
6.1100459022
21
-24.1235624679
0
LINE
5
24F
100
AcDbEntity
8
0
100
AcDbLine
62
7
6
CONTINUOUS
10
6.1536965491
20
-22.5672131148
11
6.1097743020
21
-22.5232908677
0
LINE
5
250
100
AcDbEntity
8
0
100
AcDbLine
62
7
6
CONTINUOUS
10
-9.4467397943
20
21.4327868852
11
-9.4463034509
21
21.4039193718
0
LINE
5
251
100
AcDbEntity
8
0
100
AcDbLine
62
9
6
CONTINUOUS
10
-8.4419316169
20
-24.0115506821
11
-8.4463034509
21
-23.5776982630
0
LINE
5
252
100
AcDbEntity
8
0
100
AcDbLine
62
9
6
CONTINUOUS
10
-8.1919358477
20
-23.7950443311
11
-8.1970264488
21
-23.2898628456
0
LINE
5
253
100
AcDbEntity
8
0
100
AcDbLine
62
7
6
CONTINUOUS
10
-9.4628857626
20
20.8554366161
11
-9.4628857626
21
-21.1898628456
0
LINE
5
254
100
AcDbEntity
8
0
100
AcDbLine
62
7
6
CONTINUOUS
10
-9.4467397943
20
21.7328038083
11
-9.4467397943
21
21.4327868852
0
LINE
5
255
100
AcDbEntity
8
0
100
AcDbLine
62
7
6
CONTINUOUS
10
-9.4467397943
20
-22.0672300378
11
-9.4467397943
21
-21.7672131148
0
LINE
5
256
100
AcDbEntity
8
0
100
AcDbLine
62
7
6
CONTINUOUS
10
-9.4380129265
20
21.7269859785
11
-9.4380129265
21
20.8554366161
0
LINE
5
257
100
AcDbEntity
8
0
100
AcDbLine
62
7
6
CONTINUOUS
10
-9.4380129265
20
-21.1898628456
11
-9.4380129265
21
-22.0614122080
0
LINE
5
258
100
AcDbEntity
8
0
100
AcDbLine
62
7
6
CONTINUOUS
10
-8.4463034509
20
-22.7674266051
11
-8.4463034509
21
-24.4172173455
0
LINE
5
259
100
AcDbEntity
8
0
100
AcDbLine
62
7
6
CONTINUOUS
10
-8.4463034509
20
22.4330003756
11
-8.4463034509
21
24.0827911160
0
LINE
5
25A
100
AcDbEntity
8
0
100
AcDbLine
62
7
6
CONTINUOUS
10
-8.4419316169
20
24.0784192820
11
-8.4419316169
21
23.6771244525
0
LINE
5
25B
100
AcDbEntity
8
0
100
AcDbLine
62
7
6
CONTINUOUS
10
-8.4419316169
20
-24.0115506821
11
-8.4419316169
21
-24.4128455115
0
LINE
5
25C
100
AcDbEntity
8
0
100
AcDbLine
62
9
6
CONTINUOUS
10
-8.1919358477
20
-23.7950443311
11
-8.1919358477
21
-24.6628412808
0
LINE
5
25D
100
AcDbEntity
8
0
100
AcDbLine
62
9
6
CONTINUOUS
10
-8.1919358477
20
23.4606181016
11
-8.1919358477
21
24.3284150512
0
LINE
5
25E
100
AcDbEntity
8
0
100
AcDbLine
62
7
6
CONTINUOUS
10
-7.9463034509
20
20.0318265354
11
-7.9463034509
21
3.6935037580
0
LINE
5
25F
100
AcDbEntity
8
0
100
AcDbLine
62
7
6
CONTINUOUS
10
-7.9463034509
20
-4.0279299875
11
-7.9463034509
21
-20.3662527650
0
LINE
5
260
100
AcDbEntity
8
0
100
AcDbLine
62
7
6
CONTINUOUS
10
-7.8590281263
20
3.7921803720
11
-7.8590281263
21
-4.1266066015
0
LINE
5
261
100
AcDbEntity
8
0
100
AcDbLine
62
7
6
CONTINUOUS
10
-7.8153904640
20
4.8327868852
11
-7.8153904640
21
-5.1672131148
0
LINE
5
262
100
AcDbEntity
8
0
100
AcDbLine
62
7
6
CONTINUOUS
10
-7.8084084380
20
-12.6804807569
11
-7.8084084380
21
-5.1707038619
0
LINE
5
263
100
AcDbEntity
8
0
100
AcDbLine
62
7
6
CONTINUOUS
10
-7.8084084380
20
4.8362776324
11
-7.8084084380
21
12.3460545274
0
LINE
5
264
100
AcDbEntity
8
0
100
AcDbLine
62
7
6
CONTINUOUS
10
-6.9497941980
20
-7.3560654494
11
-6.9497941980
21
-5.1707038619
0
LINE
5
265
100
AcDbEntity
8
0
100
AcDbLine
62
7
6
CONTINUOUS
10
-6.9497941980
20
4.8362776324
11
-6.9497941980
21
7.0216392199
0
LINE
5
266
100
AcDbEntity
8
0
100
AcDbLine
62
7
6
CONTINUOUS
10
-6.9244862814
20
7.0124925485
11
-6.9244862814
21
4.8546040547
0
LINE
5
267
100
AcDbEntity
8
0
100
AcDbLine
62
7
6
CONTINUOUS
10
-6.9244862814
20
-5.1890302842
11
-6.9244862814
21
-7.3469187780
0
LINE
5
268
100
AcDbEntity
8
0
100
AcDbLine
62
9
6
CONTINUOUS
10
-8.4463034509
20
23.2432720335
11
-8.4419316169
21
23.6771244525
0
LINE
5
269
100
AcDbEntity
8
0
100
AcDbLine
62
9
6
CONTINUOUS
10
-8.1970264488
20
22.9554366161
11
-8.1919358477
21
23.4606181016
0
LINE
5
26A
100
AcDbEntity
8
0
100
AcDbLine
62
7
6
CONTINUOUS
10
-9.4463034509
20
-21.7383456013
11
-9.4467397943
21
-21.7672131148
0
LINE
5
26B
100
AcDbEntity
8
0
100
AcDbLine
62
7
6
CONTINUOUS
10
-5.6518503355
20
20.3992091414
11
-5.5963034509
21
20.7327868852
0
LINE
5
26C
100
AcDbEntity
8
0
100
AcDbLine
62
9
6
CONTINUOUS
10
11.6037007799
20
24.3327868852
11
11.5993289459
21
24.3284150512
0
LINE
5
26D
100
AcDbEntity
8
0
100
AcDbLine
62
9
6
CONTINUOUS
10
11.8536965491
20
24.0827911160
11
11.8493247151
21
24.0784192820
0
LINE
5
26E
100
AcDbEntity
8
0
100
AcDbLine
62
7
6
CONTINUOUS
10
-6.9244862814
20
4.8546040547
11
-6.9463034509
21
4.8327868852
0
LINE
5
26F
100
AcDbEntity
8
0
100
AcDbLine
62
7
6
CONTINUOUS
10
8.2970391891
20
19.9261295253
11
8.1477682094
21
19.7768585455
0
LINE
5
270
100
AcDbEntity
8
0
100
AcDbLine
62
7
6
CONTINUOUS
10
-7.8084084380
20
4.8362776324
11
-7.8153904640
21
4.8327868852
0
LINE
5
271
100
AcDbEntity
8
0
100
AcDbLine
62
7
6
CONTINUOUS
10
-7.8084084380
20
-5.1707038619
11
-7.8153904640
21
-5.1672131148
0
LINE
5
272
100
AcDbEntity
8
0
100
AcDbLine
62
9
6
CONTINUOUS
10
11.6037007799
20
-24.6672131148
11
11.5993289459
21
-24.6628412808
0
LINE
5
273
100
AcDbEntity
8
0
100
AcDbLine
62
9
6
CONTINUOUS
10
11.8536965491
20
-24.4172173455
11
11.8493247151
21
-24.4128455115
0
LINE
5
274
100
AcDbEntity
8
0
100
AcDbLine
62
7
6
CONTINUOUS
10
-6.9244862814
20
-5.1890302842
11
-6.9463034509
21
-5.1672131148
0
LINE
5
275
100
AcDbEntity
8
0
100
AcDbLine
62
7
6
CONTINUOUS
10
8.2970391891
20
-20.2605557548
11
8.1477682094
21
-20.1112847751
0
LINE
5
276
100
AcDbEntity
8
0
100
AcDbLine
62
7
6
CONTINUOUS
10
-5.5963034509
20
-21.0672131148
11
-5.6518503355
21
-20.7336353709
0
LINE
5
277
100
AcDbEntity
8
0
100
AcDbLine
62
9
6
CONTINUOUS
10
-5.6652457065
20
-12.2857431039
11
-5.5040741757
21
-18.8366914651
0
LINE
5
278
100
AcDbEntity
8
0
100
AcDbLine
62
9
6
CONTINUOUS
10
-4.8885327261
20
18.5022652356
11
-4.7273611954
21
11.9513168744
0
LINE
5
279
100
AcDbEntity
8
0
100
AcDbLine
62
9
6
CONTINUOUS
10
-5.8006710541
20
23.4606181016
11
-5.7955804531
21
22.9554366161
0
LINE
5
27A
100
AcDbEntity
8
0
100
AcDbLine
62
9
6
CONTINUOUS
10
-5.5506752849
20
23.6771244525
11
-5.5463034509
21
23.2432720335
0
LINE
5
27B
100
AcDbEntity
8
0
100
AcDbLine
62
7
6
CONTINUOUS
10
-6.5963034509
20
3.1002629590
11
-6.5963034509
21
-3.4346891972
0
LINE
5
27C
100
AcDbEntity
8
0
100
AcDbLine
62
7
6
CONTINUOUS
10
-6.5463034509
20
-21.5672131148
11
-6.5463034509
21
-21.0672131148
0
LINE
5
27D
100
AcDbEntity
8
0
100
AcDbLine
62
7
6
CONTINUOUS
10
-6.5463034509
20
20.7327868852
11
-6.5463034509
21
21.2327868852
0
LINE
5
27E
100
AcDbEntity
8
0
100
AcDbLine
62
9
6
CONTINUOUS
10
-6.3628729527
20
21.4162173834
11
-6.3628729527
21
20.7327868852
0
LINE
5
27F
100
AcDbEntity
8
0
100
AcDbLine
62
9
6
CONTINUOUS
10
-6.3628729527
20
-21.0672131148
11
-6.3628729527
21
-21.7506436129
0
LINE
5
280
100
AcDbEntity
8
0
100
AcDbLine
62
9
6
CONTINUOUS
10
-5.8629491052
20
21.1687738339
11
-5.8629491052
21
20.7327868852
0
LINE
5
281
100
AcDbEntity
8
0
100
AcDbLine
62
9
6
CONTINUOUS
10
-5.8629491052
20
-21.0672131148
11
-5.8629491052
21
-21.5032000634
0
LINE
5
282
100
AcDbEntity
8
0
100
AcDbLine
62
9
6
CONTINUOUS
10
-5.8006710541
20
-23.7950443311
11
-5.8006710541
21
-24.6628412808
0
LINE
5
283
100
AcDbEntity
8
0
100
AcDbLine
62
9
6
CONTINUOUS
10
-5.8006710541
20
23.4606181016
11
-5.8006710541
21
24.3284150512
0
LINE
5
284
100
AcDbEntity
8
0
100
AcDbLine
62
7
6
CONTINUOUS
10
-5.6652457065
20
-12.6804807569
11
-5.6652457065
21
-12.2857431039
0
LINE
5
285
100
AcDbEntity
8
0
100
AcDbLine
62
7
6
CONTINUOUS
10
-5.6652457065
20
11.9513168744
11
-5.6652457065
21
12.3460545274
0
LINE
5
286
100
AcDbEntity
8
0
100
AcDbLine
62
7
6
CONTINUOUS
10
-5.5506752849
20
-24.4128455115
11
-5.5506752849
21
-24.0115506821
0
LINE
5
287
100
AcDbEntity
8
0
100
AcDbLine
62
7
6
CONTINUOUS
10
-5.5506752849
20
23.6771244525
11
-5.5506752849
21
24.0784192820
0
LINE
5
288
100
AcDbEntity
8
0
100
AcDbLine
62
7
6
CONTINUOUS
10
-5.5463034509
20
-22.7674266051
11
-5.5463034509
21
-24.4172173455
0
LINE
5
289
100
AcDbEntity
8
0
100
AcDbLine
62
7
6
CONTINUOUS
10
-5.5463034509
20
22.4330003756
11
-5.5463034509
21
24.0827911160
0
LINE
5
28A
100
AcDbEntity
8
0
100
AcDbLine
62
7
6
CONTINUOUS
10
-5.5029608109
20
19.9261295253
11
-5.5029608109
21
18.6828906544
0
LINE
5
28B
100
AcDbEntity
8
0
100
AcDbLine
62
7
6
CONTINUOUS
10
-5.5029608109
20
-19.0173168839
11
-5.5029608109
21
-20.2605557548
0
LINE
5
28C
100
AcDbEntity
8
0
100
AcDbLine
62
7
6
CONTINUOUS
10
-5.5003079052
20
-21.0672131148
11
-5.5003079052
21
-20.2632086605
0
LINE
5
28D
100
AcDbEntity
8
0
100
AcDbLine
62
7
6
CONTINUOUS
10
-5.5003079052
20
19.9287824309
11
-5.5003079052
21
20.7327868852
0
LINE
5
28E
100
AcDbEntity
8
0
100
AcDbLine
62
7
6
CONTINUOUS
10
-4.8896460910
20
19.9261295253
11
-4.8896460910
21
18.6828906544
0
LINE
5
28F
100
AcDbEntity
8
0
100
AcDbLine
62
7
6
CONTINUOUS
10
-4.8896460910
20
-19.0173168839
11
-4.8896460910
21
-20.2605557548
0
LINE
5
290
100
AcDbEntity
8
0
100
AcDbLine
62
7
6
CONTINUOUS
10
-4.7273611954
20
-12.6804807569
11
-4.7273611954
21
-12.2857431039
0
LINE
5
291
100
AcDbEntity
8
0
100
AcDbLine
62
7
6
CONTINUOUS
10
-4.7273611954
20
11.9513168744
11
-4.7273611954
21
12.3460545274
0
LINE
5
292
100
AcDbEntity
8
0
100
AcDbLine
62
9
6
CONTINUOUS
10
-5.7955804531
20
-23.2898628456
11
-5.8006710541
21
-23.7950443311
0
LINE
5
293
100
AcDbEntity
8
0
100
AcDbLine
62
9
6
CONTINUOUS
10
-5.5463034509
20
-23.5776982630
11
-5.5506752849
21
-24.0115506821
0
LINE
5
294
100
AcDbEntity
8
0
100
AcDbLine
62
9
6
CONTINUOUS
10
-5.5040741757
20
18.5022652356
11
-5.6652457065
21
11.9513168744
0
LINE
5
295
100
AcDbEntity
8
0
100
AcDbLine
62
9
6
CONTINUOUS
10
-4.7273611954
20
-12.2857431039
11
-4.8885327261
21
-18.8366914651
0
LINE
5
296
100
AcDbEntity
8
0
100
AcDbLine
62
7
6
CONTINUOUS
10
-1.9978992085
20
2.4951521583
11
-0.9586687240
21
3.5343826429
0
LINE
5
297
100
AcDbEntity
8
0
100
AcDbLine
62
7
6
CONTINUOUS
10
10.3318793796
20
7.0124925485
11
10.3571872962
21
7.0216392199
0
LINE
5
298
100
AcDbEntity
8
0
100
AcDbLine
62
7
6
CONTINUOUS
10
-6.9244862814
20
-5.1890302842
11
-5.9753416512
21
-5.1890302842
0
LINE
5
299
100
AcDbEntity
8
0
100
AcDbLine
62
7
6
CONTINUOUS
10
9.3827347493
20
-5.1890302842
11
10.3318793796
21
-5.1890302842
0
LINE
5
29A
100
AcDbEntity
8
0
100
AcDbLine
62
7
6
CONTINUOUS
10
-7.8084084380
20
-5.1707038619
11
-6.9497941980
21
-5.1707038619
0
LINE
5
29B
100
AcDbEntity
8
0
100
AcDbLine
62
7
6
CONTINUOUS
10
10.3571872962
20
-5.1707038619
11
11.2158015361
21
-5.1707038619
0
LINE
5
29C
100
AcDbEntity
8
0
100
AcDbLine
62
7
6
CONTINUOUS
10
-5.9635319500
20
-5.1672131148
11
-7.8153904640
21
-5.1672131148
0
LINE
5
29D
100
AcDbEntity
8
0
100
AcDbLine
62
7
6
CONTINUOUS
10
9.3709250482
20
-5.1672131148
11
11.2227835621
21
-5.1672131148
0
LINE
5
29E
100
AcDbEntity
8
0
100
AcDbLine
62
7
6
CONTINUOUS
10
10.3318793796
20
-7.3469187780
11
10.3571872962
21
-7.3560654494
0
LINE
5
29F
100
AcDbEntity
8
0
100
AcDbLine
62
7
6
CONTINUOUS
10
3.2010784887
20
-9.1912057830
11
3.2290044657
21
-9.2148487796
0
LINE
5
2A0
100
AcDbEntity
8
0
100
AcDbLine
62
7
6
CONTINUOUS
10
3.2290044657
20
-10.2275474510
11
3.1906221638
21
-10.1944915658
0
LINE
5
2A1
100
AcDbEntity
8
0
100
AcDbLine
62
7
6
CONTINUOUS
10
0.2167874174
20
-10.1171987607
11
0.2063146094
21
-10.1050371888
0
LINE
5
2A2
100
AcDbEntity
8
0
100
AcDbLine
62
7
6
CONTINUOUS
10
-2.7963034509
20
-0.9020600376
11
-2.7963034509
21
0.5676338081
0
LINE
5
2A3
100
AcDbEntity
8
0
100
AcDbLine
62
7
6
CONTINUOUS
10
-2.7463034509
20
23.8327868852
11
-2.7463034509
21
23.2007318324
0
LINE
5
2A4
100
AcDbEntity
8
0
100
AcDbLine
62
7
6
CONTINUOUS
10
-2.7463034509
20
22.7648419381
11
-2.7463034509
21
22.2327868852
0
LINE
5
2A5
100
AcDbEntity
8
0
100
AcDbLine
62
7
6
CONTINUOUS
10
-2.7463034509
20
-22.5672131148
11
-2.7463034509
21
-23.0992681676
0
LINE
5
2A6
100
AcDbEntity
8
0
100
AcDbLine
62
7
6
CONTINUOUS
10
-2.7463034509
20
-23.5351580619
11
-2.7463034509
21
-24.1672131148
0
LINE
5
2A7
100
AcDbEntity
8
0
100
AcDbLine
62
7
6
CONTINUOUS
10
-2.7023812039
20
-24.1211053878
11
-2.7023812039
21
-22.5232908677
0
LINE
5
2A8
100
AcDbEntity
8
0
100
AcDbLine
62
7
6
CONTINUOUS
10
-2.7023812039
20
22.1888646382
11
-2.7023812039
21
23.7866791583
0
LINE
5
2A9
100
AcDbEntity
8
0
100
AcDbLine
62
9
6
CONTINUOUS
10
-2.2303018684
20
0.8665395551
11
-2.2303018684
21
0.5598663736
0
LINE
5
2AA
100
AcDbEntity
8
0
100
AcDbLine
62
9
6
CONTINUOUS
10
-2.2303018684
20
-0.8942926031
11
-2.2303018684
21
-1.2009657846
0
LINE
5
2AB
100
AcDbEntity
8
0
100
AcDbLine
62
7
6
CONTINUOUS
10
-1.7963034509
20
-22.5233062016
11
-1.7963034509
21
-24.1613952849
0
LINE
5
2AC
100
AcDbEntity
8
0
100
AcDbLine
62
7
6
CONTINUOUS
10
-1.7963034509
20
22.1888799721
11
-1.7963034509
21
23.8269690554
0
LINE
5
2AD
100
AcDbEntity
8
0
100
AcDbLine
62
7
6
CONTINUOUS
10
-1.2963034509
20
-20.9672131148
11
-1.2963034509
21
-22.5613952849
0
LINE
5
2AE
100
AcDbEntity
8
0
100
AcDbLine
62
7
6
CONTINUOUS
10
-1.2963034509
20
20.6327868852
11
-1.2963034509
21
22.2269690554
0
LINE
5
2AF
100
AcDbEntity
8
0
100
AcDbLine
62
7
6
CONTINUOUS
10
0.1783886325
20
-9.2148487796
11
0.1783886325
21
-10.2275474510
0
LINE
5
2B0
100
AcDbEntity
8
0
100
AcDbLine
62
7
6
CONTINUOUS
10
0.2063146094
20
-9.1912057830
11
0.2063146094
21
-10.1050371888
0
LINE
5
2B1
100
AcDbEntity
8
0
100
AcDbLine
62
7
6
CONTINUOUS
10
-7.9463034509
20
-20.3662527650
11
-7.8205449243
21
-19.9886703764
0
LINE
5
2B2
100
AcDbEntity
8
0
100
AcDbLine
62
7
6
CONTINUOUS
10
-7.2461971133
20
-21.0672131148
11
-7.1350948828
21
-20.7336353709
0
LINE
5
2B3
100
AcDbEntity
8
0
100
AcDbLine
62
7
6
CONTINUOUS
10
-5.9635319500
20
-5.1672131148
11
-5.9753416512
21
-5.1890302842
0
LINE
5
2B4
100
AcDbEntity
8
0
100
AcDbLine
62
9
6
CONTINUOUS
10
-0.3470868862
20
3.3455173663
11
-0.5639375724
21
3.1286666801
0
LINE
5
2B5
100
AcDbEntity
8
0
100
AcDbLine
62
9
6
CONTINUOUS
10
-1.5921832458
20
2.1004210068
11
-1.8090339320
21
1.8835703205
0
LINE
5
2B6
100
AcDbEntity
8
0
100
AcDbLine
62
7
6
CONTINUOUS
10
-6.9463034509
20
-5.1672131148
11
-6.9497941980
21
-5.1707038619
0
LINE
5
2B7
100
AcDbEntity
8
0
100
AcDbLine
62
7
6
CONTINUOUS
10
-6.9463034509
20
4.8327868852
11
-6.9497941980
21
4.8362776324
0
LINE
5
2B8
100
AcDbEntity
8
0
100
AcDbLine
62
7
6
CONTINUOUS
10
-5.9635319500
20
4.8327868852
11
-5.9753416512
21
4.8546040547
0
LINE
5
2B9
100
AcDbEntity
8
0
100
AcDbLine
62
7
6
CONTINUOUS
10
-7.8205449243
20
19.6542441469
11
-7.9463034509
21
20.0318265354
0
LINE
5
2BA
100
AcDbEntity
8
0
100
AcDbLine
62
7
6
CONTINUOUS
10
-7.1350948828
20
20.3992091414
11
-7.2461971133
21
20.7327868852
0
LINE
5
2BB
100
AcDbEntity
8
0
100
AcDbLine
62
7
6
CONTINUOUS
10
0.5536965491
20
-10.0253632962
11
0.5536965491
21
-9.0108798907
0
LINE
5
2BC
100
AcDbEntity
8
0
100
AcDbLine
62
7
6
CONTINUOUS
10
0.7036965491
20
23.6269656707
11
0.7036965491
21
22.2275508496
0
LINE
5
2BD
100
AcDbEntity
8
0
100
AcDbLine
62
7
6
CONTINUOUS
10
0.7036965491
20
-22.5619770791
11
0.7036965491
21
-23.9613919003
0
LINE
5
2BE
100
AcDbEntity
8
0
100
AcDbLine
62
7
6
CONTINUOUS
10
0.9694211846
20
-6.5752814422
11
0.9694211846
21
-5.9709480923
0
LINE
5
2BF
100
AcDbEntity
8
0
100
AcDbLine
62
7
6
CONTINUOUS
10
0.9694211846
20
5.6365218628
11
0.9694211846
21
6.2408552127
0
LINE
5
2C0
100
AcDbEntity
8
0
100
AcDbLine
62
7
6
CONTINUOUS
10
2.4379719135
20
6.2408552127
11
2.4379719135
21
5.6365218628
0
LINE
5
2C1
100
AcDbEntity
8
0
100
AcDbLine
62
7
6
CONTINUOUS
10
2.4379719135
20
-5.9709480923
11
2.4379719135
21
-6.5752814422
0
LINE
5
2C2
100
AcDbEntity
8
0
100
AcDbLine
62
7
6
CONTINUOUS
10
2.7036965491
20
23.6269656707
11
2.7036965491
21
22.2275508496
0
LINE
5
2C3
100
AcDbEntity
8
0
100
AcDbLine
62
7
6
CONTINUOUS
10
2.7036965491
20
-22.5619770791
11
2.7036965491
21
-23.9613919003
0
LINE
5
2C4
100
AcDbEntity
8
0
100
AcDbLine
62
7
6
CONTINUOUS
10
2.8536965491
20
-9.0108798770
11
2.8536965491
21
-10.0253632962
0
LINE
5
2C5
100
AcDbEntity
8
0
100
AcDbLine
62
7
6
CONTINUOUS
10
3.2010784887
20
-10.1050371888
11
3.2010784887
21
-9.1912057830
0
LINE
5
2C6
100
AcDbEntity
8
0
100
AcDbLine
62
7
6
CONTINUOUS
10
3.2290044657
20
-10.2275474510
11
3.2290044657
21
-9.2148487796
0
LINE
5
2C7
100
AcDbEntity
8
0
100
AcDbLine
62
7
6
CONTINUOUS
10
-0.7663034509
20
-7.6184948837
11
-0.1652408325
21
-5.1320996254
0
LINE
5
2C8
100
AcDbEntity
8
0
100
AcDbLine
62
7
6
CONTINUOUS
10
2.3090312549
20
5.1031374328
11
2.9100938733
21
7.5895326911
0
LINE
5
2C9
100
AcDbEntity
8
0
100
AcDbLine
62
7
6
CONTINUOUS
10
4.1736965491
20
7.2840686542
11
3.5726339307
21
4.7976733959
0
LINE
5
2CA
100
AcDbEntity
8
0
100
AcDbLine
62
7
6
CONTINUOUS
10
1.0983618432
20
-5.4375636623
11
0.4972992248
21
-7.9239589206
0
LINE
5
2CB
100
AcDbEntity
8
0
100
AcDbLine
62
7
6
CONTINUOUS
10
10.5424879809
20
20.3992091414
11
10.6535902115
21
20.7327868852
0
LINE
5
2CC
100
AcDbEntity
8
0
100
AcDbLine
62
7
6
CONTINUOUS
10
10.6535902115
20
-21.0672131148
11
10.5424879809
21
-20.7336353709
0
LINE
5
2CD
100
AcDbEntity
8
0
100
AcDbLine
62
7
6
CONTINUOUS
10
2.9100938733
20
-7.9239589206
11
2.3090312549
21
-5.4375636623
0
LINE
5
2CE
100
AcDbEntity
8
0
100
AcDbLine
62
7
6
CONTINUOUS
10
-0.1652408325
20
4.7976733959
11
-0.7663034509
21
7.2840686542
0
LINE
5
2CF
100
AcDbEntity
8
0
100
AcDbLine
62
7
6
CONTINUOUS
10
0.4972992248
20
7.5895326911
11
1.0983618432
21
5.1031374328
0
LINE
5
2D0
100
AcDbEntity
8
0
100
AcDbLine
62
7
6
CONTINUOUS
10
3.5726339307
20
-5.1320996254
11
4.1736965491
21
-7.6184948837
0
LINE
5
2D1
100
AcDbEntity
8
0
100
AcDbLine
62
7
6
CONTINUOUS
10
4.7036965491
20
-20.9672131148
11
4.7036965491
21
-22.5613952849
0
LINE
5
2D2
100
AcDbEntity
8
0
100
AcDbLine
62
7
6
CONTINUOUS
10
4.7036965491
20
20.6327868852
11
4.7036965491
21
22.2269690554
0
LINE
5
2D3
100
AcDbEntity
8
0
100
AcDbLine
62
7
6
CONTINUOUS
10
5.2036965491
20
-22.5233062016
11
5.2036965491
21
-24.1613952849
0
LINE
5
2D4
100
AcDbEntity
8
0
100
AcDbLine
62
7
6
CONTINUOUS
10
5.2036965491
20
22.1888799721
11
5.2036965491
21
23.8269690554
0
LINE
5
2D5
100
AcDbEntity
8
0
100
AcDbLine
62
9
6
CONTINUOUS
10
5.6376949666
20
-1.2009657846
11
5.6376949666
21
-0.8942926031
0
LINE
5
2D6
100
AcDbEntity
8
0
100
AcDbLine
62
9
6
CONTINUOUS
10
5.6376949666
20
0.5598663736
11
5.6376949666
21
0.8665395551
0
LINE
5
2D7
100
AcDbEntity
8
0
100
AcDbLine
62
7
6
CONTINUOUS
10
6.1097743020
20
-24.1211053878
11
6.1097743020
21
-22.5232908677
0
LINE
5
2D8
100
AcDbEntity
8
0
100
AcDbLine
62
7
6
CONTINUOUS
10
6.1097743020
20
22.1888646382
11
6.1097743020
21
23.7866791583
0
LINE
5
2D9
100
AcDbEntity
8
0
100
AcDbLine
62
7
6
CONTINUOUS
10
6.1536965491
20
-24.1672131148
11
6.1536965491
21
-23.5351580619
0
LINE
5
2DA
100
AcDbEntity
8
0
100
AcDbLine
62
7
6
CONTINUOUS
10
6.1536965491
20
-23.0992681676
11
6.1536965491
21
-22.5672131148
0
LINE
5
2DB
100
AcDbEntity
8
0
100
AcDbLine
62
7
6
CONTINUOUS
10
6.1536965491
20
22.2327868852
11
6.1536965491
21
22.7648419381
0
LINE
5
2DC
100
AcDbEntity
8
0
100
AcDbLine
62
7
6
CONTINUOUS
10
6.1536965491
20
23.2007318324
11
6.1536965491
21
23.8327868852
0
LINE
5
2DD
100
AcDbEntity
8
0
100
AcDbLine
62
7
6
CONTINUOUS
10
6.2036965491
20
0.5676338081
11
6.2036965491
21
-0.9020600376
0
LINE
5
2DE
100
AcDbEntity
8
0
100
AcDbLine
62
7
6
CONTINUOUS
10
11.2279380224
20
19.6542441469
11
11.3536965491
21
20.0318265354
0
LINE
5
2DF
100
AcDbEntity
8
0
100
AcDbLine
62
7
6
CONTINUOUS
10
9.3709250482
20
4.8327868852
11
9.3827347493
21
4.8546040547
0
LINE
5
2E0
100
AcDbEntity
8
0
100
AcDbLine
62
7
6
CONTINUOUS
10
10.3536965491
20
4.8327868852
11
10.3571872962
21
4.8362776324
0
LINE
5
2E1
100
AcDbEntity
8
0
100
AcDbLine
62
7
6
CONTINUOUS
10
0.2063146094
20
-9.1912057830
11
0.1783886325
21
-9.2148487796
0
LINE
5
2E2
100
AcDbEntity
8
0
100
AcDbLine
62
7
6
CONTINUOUS
10
-6.9244862814
20
-7.3469187780
11
-6.9497941980
21
-7.3560654494
0
LINE
5
2E3
100
AcDbEntity
8
0
100
AcDbLine
62
9
6
CONTINUOUS
10
2.7374492189
20
3.7667853027
11
2.4307760374
21
3.7667853027
0
LINE
5
2E4
100
AcDbEntity
8
0
100
AcDbLine
62
9
6
CONTINUOUS
10
0.9766170607
20
3.7667853027
11
0.6699438793
21
3.7667853027
0
LINE
5
2E5
100
AcDbEntity
8
0
100
AcDbLine
62
7
6
CONTINUOUS
10
0.9688496262
20
4.3327868852
11
2.4385434719
21
4.3327868852
0
LINE
5
2E6
100
AcDbEntity
8
0
100
AcDbLine
62
7
6
CONTINUOUS
10
-5.9635319500
20
4.8327868852
11
-7.8153904640
21
4.8327868852
0
LINE
5
2E7
100
AcDbEntity
8
0
100
AcDbLine
62
7
6
CONTINUOUS
10
9.3709250482
20
4.8327868852
11
11.2227835621
21
4.8327868852
0
LINE
5
2E8
100
AcDbEntity
8
0
100
AcDbLine
62
7
6
CONTINUOUS
10
-7.8084084380
20
4.8362776324
11
-6.9497941980
21
4.8362776324
0
LINE
5
2E9
100
AcDbEntity
8
0
100
AcDbLine
62
7
6
CONTINUOUS
10
10.3571872962
20
4.8362776324
11
11.2158015361
21
4.8362776324
0
LINE
5
2EA
100
AcDbEntity
8
0
100
AcDbLine
62
7
6
CONTINUOUS
10
10.3318793796
20
4.8546040547
11
9.3827347493
21
4.8546040547
0
LINE
5
2EB
100
AcDbEntity
8
0
100
AcDbLine
62
7
6
CONTINUOUS
10
-5.9753416512
20
4.8546040547
11
-6.9244862814
21
4.8546040547
0
LINE
5
2EC
100
AcDbEntity
8
0
100
AcDbLine
62
7
6
CONTINUOUS
10
-6.9244862814
20
7.0124925485
11
-6.9497941980
21
7.0216392199
0
LINE
5
2ED
100
AcDbEntity
8
0
100
AcDbLine
62
7
6
CONTINUOUS
10
10.3536965491
20
-5.1672131148
11
10.3571872962
21
-5.1707038619
0
LINE
5
2EE
100
AcDbEntity
8
0
100
AcDbLine
62
9
6
CONTINUOUS
10
5.2164270302
20
1.8835703205
11
4.9995763439
21
2.1004210068
0
LINE
5
2EF
100
AcDbEntity
8
0
100
AcDbLine
62
9
6
CONTINUOUS
10
3.9713306706
20
3.1286666801
11
3.7544799844
21
3.3455173663
0
LINE
5
2F0
100
AcDbEntity
8
0
100
AcDbLine
62
7
6
CONTINUOUS
10
4.3660618221
20
3.5343826429
11
5.4052923067
21
2.4951521583
0
LINE
5
2F1
100
AcDbEntity
8
0
100
AcDbLine
62
7
6
CONTINUOUS
10
9.3709250482
20
-5.1672131148
11
9.3827347493
21
-5.1890302842
0
LINE
5
2F2
100
AcDbEntity
8
0
100
AcDbLine
62
7
6
CONTINUOUS
10
11.3536965491
20
-20.3662527650
11
11.2279380224
21
-19.9886703764
0
LINE
5
2F3
100
AcDbEntity
8
0
100
AcDbLine
62
9
6
CONTINUOUS
10
8.1347542935
20
-12.2857431039
11
8.2959258243
21
-18.8366914651
0
LINE
5
2F4
100
AcDbEntity
8
0
100
AcDbLine
62
9
6
CONTINUOUS
10
8.9114672739
20
18.5022652356
11
9.0726388046
21
11.9513168744
0
LINE
5
2F5
100
AcDbEntity
8
0
100
AcDbLine
62
9
6
CONTINUOUS
10
8.9580683831
20
-24.0115506821
11
8.9536965491
21
-23.5776982630
0
LINE
5
2F6
100
AcDbEntity
8
0
100
AcDbLine
62
9
6
CONTINUOUS
10
9.2080641523
20
-23.7950443311
11
9.2029735512
21
-23.2898628456
0
LINE
5
2F7
100
AcDbEntity
8
0
100
AcDbLine
62
7
6
CONTINUOUS
10
8.1347542935
20
-12.6804807569
11
8.1347542935
21
-12.2857431039
0
LINE
5
2F8
100
AcDbEntity
8
0
100
AcDbLine
62
7
6
CONTINUOUS
10
8.1347542935
20
11.9513168744
11
8.1347542935
21
12.3460545274
0
LINE
5
2F9
100
AcDbEntity
8
0
100
AcDbLine
62
7
6
CONTINUOUS
10
8.2970391891
20
19.9261295253
11
8.2970391891
21
18.6828906544
0
LINE
5
2FA
100
AcDbEntity
8
0
100
AcDbLine
62
7
6
CONTINUOUS
10
8.2970391891
20
-19.0173168839
11
8.2970391891
21
-20.2605557548
0
LINE
5
2FB
100
AcDbEntity
8
0
100
AcDbLine
62
7
6
CONTINUOUS
10
8.9077010034
20
20.7327868852
11
8.9077010034
21
19.9287824309
0
LINE
5
2FC
100
AcDbEntity
8
0
100
AcDbLine
62
7
6
CONTINUOUS
10
8.9077010034
20
-20.2632086605
11
8.9077010034
21
-21.0672131148
0
LINE
5
2FD
100
AcDbEntity
8
0
100
AcDbLine
62
7
6
CONTINUOUS
10
8.9103539090
20
19.9261295253
11
8.9103539090
21
18.6828906544
0
LINE
5
2FE
100
AcDbEntity
8
0
100
AcDbLine
62
7
6
CONTINUOUS
10
8.9103539090
20
-19.0173168839
11
8.9103539090
21
-20.2605557548
0
LINE
5
2FF
100
AcDbEntity
8
0
100
AcDbLine
62
7
6
CONTINUOUS
10
8.9536965491
20
-22.7674266051
11
8.9536965491
21
-24.4172173455
0
LINE
5
300
100
AcDbEntity
8
0
100
AcDbLine
62
7
6
CONTINUOUS
10
8.9536965491
20
22.4330003756
11
8.9536965491
21
24.0827911160
0
LINE
5
301
100
AcDbEntity
8
0
100
AcDbLine
62
7
6
CONTINUOUS
10
8.9580683831
20
24.0784192820
11
8.9580683831
21
23.6771244525
0
LINE
5
302
100
AcDbEntity
8
0
100
AcDbLine
62
7
6
CONTINUOUS
10
8.9580683831
20
-24.0115506821
11
8.9580683831
21
-24.4128455115
0
LINE
5
303
100
AcDbEntity
8
0
100
AcDbLine
62
7
6
CONTINUOUS
10
9.0726388046
20
-12.6804807569
11
9.0726388046
21
-12.2857431039
0
LINE
5
304
100
AcDbEntity
8
0
100
AcDbLine
62
7
6
CONTINUOUS
10
9.0726388046
20
11.9513168744
11
9.0726388046
21
12.3460545274
0
LINE
5
305
100
AcDbEntity
8
0
100
AcDbLine
62
9
6
CONTINUOUS
10
9.2080641523
20
-23.7950443311
11
9.2080641523
21
-24.6628412808
0
LINE
5
306
100
AcDbEntity
8
0
100
AcDbLine
62
9
6
CONTINUOUS
10
9.2080641523
20
23.4606181016
11
9.2080641523
21
24.3284150512
0
LINE
5
307
100
AcDbEntity
8
0
100
AcDbLine
62
9
6
CONTINUOUS
10
9.2703422033
20
21.1687738339
11
9.2703422033
21
20.7327868852
0
LINE
5
308
100
AcDbEntity
8
0
100
AcDbLine
62
9
6
CONTINUOUS
10
9.2703422033
20
-21.0672131148
11
9.2703422033
21
-21.5032000634
0
LINE
5
309
100
AcDbEntity
8
0
100
AcDbLine
62
9
6
CONTINUOUS
10
9.7702660509
20
21.4162173834
11
9.7702660509
21
20.7327868852
0
LINE
5
30A
100
AcDbEntity
8
0
100
AcDbLine
62
9
6
CONTINUOUS
10
9.7702660509
20
-21.0672131148
11
9.7702660509
21
-21.7506436129
0
LINE
5
30B
100
AcDbEntity
8
0
100
AcDbLine
62
7
6
CONTINUOUS
10
9.9536965491
20
21.2327868852
11
9.9536965491
21
20.7327868852
0
LINE
5
30C
100
AcDbEntity
8
0
100
AcDbLine
62
7
6
CONTINUOUS
10
9.9536965491
20
-21.0672131148
11
9.9536965491
21
-21.5672131148
0
LINE
5
30D
100
AcDbEntity
8
0
100
AcDbLine
62
7
6
CONTINUOUS
10
10.0036965491
20
-3.4346891261
11
10.0036965491
21
3.1002629145
0
LINE
5
30E
100
AcDbEntity
8
0
100
AcDbLine
62
7
6
CONTINUOUS
10
10.3318793796
20
-7.3469187780
11
10.3318793796
21
-5.1890302842
0
LINE
5
30F
100
AcDbEntity
8
0
100
AcDbLine
62
7
6
CONTINUOUS
10
10.3318793796
20
4.8546040547
11
10.3318793796
21
7.0124925485
0
LINE
5
310
100
AcDbEntity
8
0
100
AcDbLine
62
7
6
CONTINUOUS
10
10.3571872962
20
7.0216392199
11
10.3571872962
21
4.8362776324
0
LINE
5
311
100
AcDbEntity
8
0
100
AcDbLine
62
7
6
CONTINUOUS
10
10.3571872962
20
-5.1707038619
11
10.3571872962
21
-7.3560654494
0
LINE
5
312
100
AcDbEntity
8
0
100
AcDbLine
62
9
6
CONTINUOUS
10
8.9536965491
20
23.2432720335
11
8.9580683831
21
23.6771244525
0
LINE
5
313
100
AcDbEntity
8
0
100
AcDbLine
62
9
6
CONTINUOUS
10
9.2029735512
20
22.9554366161
11
9.2080641523
21
23.4606181016
0
LINE
5
314
100
AcDbEntity
8
0
100
AcDbLine
62
9
6
CONTINUOUS
10
8.2959258243
20
18.5022652356
11
8.1347542935
21
11.9513168744
0
LINE
5
315
100
AcDbEntity
8
0
100
AcDbLine
62
9
6
CONTINUOUS
10
9.0726388046
20
-12.2857431039
11
8.9114672739
21
-18.8366914651
0
LINE
5
316
100
AcDbEntity
8
0
100
AcDbLine
62
7
6
CONTINUOUS
10
3.1906056807
20
-10.1171987607
11
3.2010784887
21
-10.1050371888
0
LINE
5
317
100
AcDbEntity
8
0
100
AcDbLine
62
7
6
CONTINUOUS
10
0.1783886325
20
-10.2275474510
11
0.2167709344
21
-10.1944915658
0
LINE
5
318
100
AcDbEntity
8
0
100
AcDbLine
62
7
6
CONTINUOUS
10
11.2158015361
20
-5.1707038619
11
11.2227835621
21
-5.1672131148
0
LINE
5
319
100
AcDbEntity
8
0
100
AcDbLine
62
7
6
CONTINUOUS
10
1.9088263302
20
-9.0848541577
11
4.5937667602
21
-8.1076157604
0
LINE
5
31A
100
AcDbEntity
8
0
100
AcDbLine
62
7
6
CONTINUOUS
10
11.2158015361
20
4.8362776324
11
11.2227835621
21
4.8327868852
0
LINE
5
31B
100
AcDbEntity
8
0
100
AcDbLine
62
7
6
CONTINUOUS
10
12.8702788608
20
20.8554366161
11
12.8536965491
21
21.4039193718
0
LINE
5
31C
100
AcDbEntity
8
0
100
AcDbLine
62
7
6
CONTINUOUS
10
12.8536965491
20
-21.7383456013
11
12.8541328925
21
-21.7672131148
0
LINE
5
31D
100
AcDbEntity
8
0
100
AcDbLine
62
9
6
CONTINUOUS
10
11.5993289459
20
23.4606181016
11
11.6044195469
21
22.9554366161
0
LINE
5
31E
100
AcDbEntity
8
0
100
AcDbLine
62
9
6
CONTINUOUS
10
11.8493247151
20
23.6771244525
11
11.8536965491
21
23.2432720335
0
LINE
5
31F
100
AcDbEntity
8
0
100
AcDbLine
62
7
6
CONTINUOUS
10
11.2158015361
20
-12.6804807569
11
11.2158015361
21
-5.1707038619
0
LINE
5
320
100
AcDbEntity
8
0
100
AcDbLine
62
7
6
CONTINUOUS
10
11.2158015361
20
4.8362776324
11
11.2158015361
21
12.3460545274
0
LINE
5
321
100
AcDbEntity
8
0
100
AcDbLine
62
7
6
CONTINUOUS
10
11.2227835621
20
4.8327868852
11
11.2227835621
21
-5.1672131148
0
LINE
5
322
100
AcDbEntity
8
0
100
AcDbLine
62
7
6
CONTINUOUS
10
11.2664212244
20
3.7921803720
11
11.2664212244
21
-4.1266066015
0
LINE
5
323
100
AcDbEntity
8
0
100
AcDbLine
62
7
6
CONTINUOUS
10
11.3536965491
20
20.0318265354
11
11.3536965491
21
3.6935037580
0
LINE
5
324
100
AcDbEntity
8
0
100
AcDbLine
62
7
6
CONTINUOUS
10
11.3536965491
20
-4.0279299875
11
11.3536965491
21
-20.3662527650
0
LINE
5
325
100
AcDbEntity
8
0
100
AcDbLine
62
9
6
CONTINUOUS
10
11.5993289459
20
-23.7950443311
11
11.5993289459
21
-24.6628412808
0
LINE
5
326
100
AcDbEntity
8
0
100
AcDbLine
62
9
6
CONTINUOUS
10
11.5993289459
20
23.4606181016
11
11.5993289459
21
24.3284150512
0
LINE
5
327
100
AcDbEntity
8
0
100
AcDbLine
62
7
6
CONTINUOUS
10
11.8493247151
20
-24.4128455115
11
11.8493247151
21
-24.0115506821
0
LINE
5
328
100
AcDbEntity
8
0
100
AcDbLine
62
7
6
CONTINUOUS
10
11.8493247151
20
23.6771244525
11
11.8493247151
21
24.0784192820
0
LINE
5
329
100
AcDbEntity
8
0
100
AcDbLine
62
7
6
CONTINUOUS
10
11.8536965491
20
-22.7674266051
11
11.8536965491
21
-24.4172173455
0
LINE
5
32A
100
AcDbEntity
8
0
100
AcDbLine
62
7
6
CONTINUOUS
10
11.8536965491
20
22.4330003756
11
11.8536965491
21
24.0827911160
0
LINE
5
32B
100
AcDbEntity
8
0
100
AcDbLine
62
7
6
CONTINUOUS
10
12.8454060247
20
21.7269859785
11
12.8454060247
21
20.8554366161
0
LINE
5
32C
100
AcDbEntity
8
0
100
AcDbLine
62
7
6
CONTINUOUS
10
12.8454060247
20
-21.1898628456
11
12.8454060247
21
-22.0614122080
0
LINE
5
32D
100
AcDbEntity
8
0
100
AcDbLine
62
7
6
CONTINUOUS
10
12.8541328925
20
21.7328038083
11
12.8541328925
21
21.4327868852
0
LINE
5
32E
100
AcDbEntity
8
0
100
AcDbLine
62
7
6
CONTINUOUS
10
12.8541328925
20
-22.0672300378
11
12.8541328925
21
-21.7672131148
0
LINE
5
32F
100
AcDbEntity
8
0
100
AcDbLine
62
7
6
CONTINUOUS
10
12.8702788608
20
20.8554366161
11
12.8702788608
21
-21.1898628456
0
LINE
5
330
100
AcDbEntity
8
0
100
AcDbLine
62
9
6
CONTINUOUS
10
11.6044195469
20
-23.2898628456
11
11.5993289459
21
-23.7950443311
0
LINE
5
331
100
AcDbEntity
8
0
100
AcDbLine
62
9
6
CONTINUOUS
10
11.8536965491
20
-23.5776982630
11
11.8493247151
21
-24.0115506821
0
LINE
5
332
100
AcDbEntity
8
0
100
AcDbLine
62
7
6
CONTINUOUS
10
12.8541328925
20
21.4327868852
11
12.8536965491
21
21.4039193718
0
LINE
5
333
100
AcDbEntity
8
0
100
AcDbLine
62
7
6
CONTINUOUS
10
12.8702788608
20
-21.1898628456
11
12.8536965491
21
-21.7383456013
0
LINE
5
334
100
AcDbEntity
8
0
100
AcDbLine
62
7
6
CONTINUOUS
10
9.0036965491
20
-21.0672131148
11
9.0592434337
21
-20.7336353709
0
LINE
5
335
100
AcDbEntity
8
0
100
AcDbLine
62
7
6
CONTINUOUS
10
-4.8896460910
20
-20.2605557548
11
-4.7403751112
21
-20.1112847751
0
LINE
5
336
100
AcDbEntity
8
0
100
AcDbLine
62
7
6
CONTINUOUS
10
10.3318793796
20
-5.1890302842
11
10.3536965491
21
-5.1672131148
0
LINE
5
337
100
AcDbEntity
8
0
100
AcDbLine
62
9
6
CONTINUOUS
10
-8.4463034509
20
-24.4172173455
11
-8.4419316169
21
-24.4128455115
0
LINE
5
338
100
AcDbEntity
8
0
100
AcDbLine
62
9
6
CONTINUOUS
10
-8.1963076817
20
-24.6672131148
11
-8.1919358477
21
-24.6628412808
0
LINE
5
339
100
AcDbEntity
8
0
100
AcDbLine
62
7
6
CONTINUOUS
10
-2.7463034509
20
-22.5672131148
11
-2.7023812039
21
-22.5232908677
0
LINE
5
33A
100
AcDbEntity
8
0
100
AcDbLine
62
7
6
CONTINUOUS
10
11.2158015361
20
12.3460545274
11
9.0726388046
21
12.3460545274
0
LINE
5
33B
100
AcDbEntity
8
0
100
AcDbLine
62
7
6
CONTINUOUS
10
8.1347542935
20
12.3460545274
11
-4.7273611954
21
12.3460545274
0
LINE
5
33C
100
AcDbEntity
8
0
100
AcDbLine
62
7
6
CONTINUOUS
10
-5.6652457065
20
12.3460545274
11
-7.8084084380
21
12.3460545274
0
LINE
5
33D
100
AcDbEntity
8
0
100
AcDbLine
62
7
6
CONTINUOUS
10
-4.8896460910
20
19.9261295253
11
-4.7403751112
21
19.7768585455
0
LINE
5
33E
100
AcDbEntity
8
0
100
AcDbLine
62
7
6
CONTINUOUS
10
10.3318793796
20
4.8546040547
11
10.3536965491
21
4.8327868852
0
LINE
5
33F
100
AcDbEntity
8
0
100
AcDbLine
62
9
6
CONTINUOUS
10
-8.4463034509
20
24.0827911160
11
-8.4419316169
21
24.0784192820
0
LINE
5
340
100
AcDbEntity
8
0
100
AcDbLine
62
9
6
CONTINUOUS
10
-8.1963076817
20
24.3327868852
11
-8.1919358477
21
24.3284150512
0
LINE
5
341
100
AcDbEntity
8
0
100
AcDbLine
62
7
6
CONTINUOUS
10
-2.7463034509
20
22.2327868852
11
-2.7023812039
21
22.1888646382
0
LINE
5
342
100
AcDbEntity
8
0
100
AcDbLine
62
7
6
CONTINUOUS
10
9.0592434337
20
20.3992091414
11
9.0036965491
21
20.7327868852
0
LINE
5
343
100
AcDbEntity
8
0
100
AcDbLine
62
7
6
CONTINUOUS
10
-2.7026528041
20
-24.1235624679
11
-2.7463034509
21
-24.1672131148
0
LINE
5
344
100
AcDbEntity
8
0
100
AcDbLine
62
7
6
CONTINUOUS
10
-2.7026528041
20
23.7891362384
11
-2.7463034509
21
23.8327868852
0
LINE
5
345
100
AcDbEntity
8
0
100
AcDbLine
62
9
6
CONTINUOUS
10
-5.5029608109
20
18.6828906544
11
-4.8896460910
21
18.6828906544
0
LINE
5
346
100
AcDbEntity
8
0
100
AcDbLine
62
9
6
CONTINUOUS
10
8.2970391891
20
18.6828906544
11
8.9103539090
21
18.6828906544
0
LINE
5
347
100
AcDbEntity
8
0
100
AcDbLine
62
9
6
CONTINUOUS
10
8.1400475052
20
18.9923853500
11
-4.7326544071
21
18.9923853500
0
LINE
5
348
100
AcDbEntity
8
0
100
AcDbLine
62
9
6
CONTINUOUS
10
11.2278516792
20
19.6223341235
11
9.0666141920
21
19.6223341235
0
LINE
5
349
100
AcDbEntity
8
0
100
AcDbLine
62
9
6
CONTINUOUS
10
-5.6592210938
20
19.6223341235
11
-7.8204585810
21
19.6223341235
0
LINE
5
34A
100
AcDbEntity
8
0
100
AcDbLine
62
9
6
CONTINUOUS
10
8.1477682094
20
19.7768585455
11
-4.7403751112
21
19.7768585455
0
LINE
5
34B
100
AcDbEntity
8
0
100
AcDbLine
62
7
6
CONTINUOUS
10
-5.5003079052
20
19.9287824309
11
8.9077010034
21
19.9287824309
0
LINE
5
34C
100
AcDbEntity
8
0
100
AcDbLine
62
9
6
CONTINUOUS
10
10.5424879809
20
20.3992091414
11
9.0592434337
21
20.3992091414
0
LINE
5
34D
100
AcDbEntity
8
0
100
AcDbLine
62
9
6
CONTINUOUS
10
-5.6518503355
20
20.3992091414
11
-7.1350948828
21
20.3992091414
0
LINE
5
34E
100
AcDbEntity
8
0
100
AcDbLine
62
7
6
CONTINUOUS
10
-1.2963034509
20
20.6327868852
11
4.7036965491
21
20.6327868852
0
LINE
5
34F
100
AcDbEntity
8
0
100
AcDbLine
62
7
6
CONTINUOUS
10
-5.5003079052
20
20.7327868852
11
-7.2461971133
21
20.7327868852
0
LINE
5
350
100
AcDbEntity
8
0
100
AcDbLine
62
7
6
CONTINUOUS
10
8.9077010034
20
20.7327868852
11
10.6535902115
21
20.7327868852
0
LINE
5
351
100
AcDbEntity
8
0
100
AcDbLine
62
7
6
CONTINUOUS
10
-9.4380129265
20
20.8554366161
11
-9.4628857626
21
20.8554366161
0
LINE
5
352
100
AcDbEntity
8
0
100
AcDbLine
62
7
6
CONTINUOUS
10
12.8454060247
20
20.8554366161
11
12.8702788608
21
20.8554366161
0
LINE
5
353
100
AcDbEntity
8
0
100
AcDbLine
62
7
6
CONTINUOUS
10
11.3536965491
20
-20.3662527650
11
10.6535902115
21
-21.0672131148
0
LINE
5
354
100
AcDbEntity
8
0
100
AcDbLine
62
7
6
CONTINUOUS
10
8.9595143789
20
-22.5613952849
11
9.9536965491
21
-21.5672131148
0
LINE
5
355
100
AcDbEntity
8
0
100
AcDbLine
62
9
6
CONTINUOUS
10
8.9536965491
20
-24.4172173455
11
8.9580683831
21
-24.4128455115
0
LINE
5
356
100
AcDbEntity
8
0
100
AcDbLine
62
9
6
CONTINUOUS
10
9.2036923183
20
-24.6672131148
11
9.2080641523
21
-24.6628412808
0
LINE
5
357
100
AcDbEntity
8
0
100
AcDbLine
62
9
6
CONTINUOUS
10
9.2703422033
20
21.1687738339
11
4.7036965491
21
21.1687738339
0
LINE
5
358
100
AcDbEntity
8
0
100
AcDbLine
62
9
6
CONTINUOUS
10
-1.2963034509
20
21.1687738339
11
-5.8629491052
21
21.1687738339
0
LINE
5
359
100
AcDbEntity
8
0
100
AcDbLine
62
7
6
CONTINUOUS
10
4.7036965491
20
21.5327868852
11
-1.2963034509
21
21.5327868852
0
LINE
5
35A
100
AcDbEntity
8
0
100
AcDbLine
62
9
6
CONTINUOUS
10
9.0177265236
20
22.1687569108
11
4.7036965491
21
22.1687569108
0
LINE
5
35B
100
AcDbEntity
8
0
100
AcDbLine
62
9
6
CONTINUOUS
10
-1.2963034509
20
22.1687569108
11
-5.6103334254
21
22.1687569108
0
LINE
5
35C
100
AcDbEntity
8
0
100
AcDbLine
62
7
6
CONTINUOUS
10
-8.9380192726
20
22.2269690554
11
-5.5521212807
21
22.2269690554
0
LINE
5
35D
100
AcDbEntity
8
0
100
AcDbLine
62
7
6
CONTINUOUS
10
5.2036965491
20
22.2269690554
11
4.7036965491
21
22.2269690554
0
LINE
5
35E
100
AcDbEntity
8
0
100
AcDbLine
62
7
6
CONTINUOUS
10
-1.2963034509
20
22.2269690554
11
-1.7963034509
21
22.2269690554
0
LINE
5
35F
100
AcDbEntity
8
0
100
AcDbLine
62
7
6
CONTINUOUS
10
8.9595143789
20
22.2269690554
11
12.3454123708
21
22.2269690554
0
LINE
5
360
100
AcDbEntity
8
0
100
AcDbLine
62
7
6
CONTINUOUS
10
0.7036965491
20
22.2275508496
11
2.7036965491
21
22.2275508496
0
LINE
5
361
100
AcDbEntity
8
0
100
AcDbLine
62
7
6
CONTINUOUS
10
-2.7463034509
20
22.2327868852
11
-8.9467461404
21
22.2327868852
0
LINE
5
362
100
AcDbEntity
8
0
100
AcDbLine
62
7
6
CONTINUOUS
10
6.1536965491
20
22.2327868852
11
12.3541392386
21
22.2327868852
0
LINE
5
363
100
AcDbEntity
8
0
100
AcDbLine
62
7
6
CONTINUOUS
10
11.6044195469
20
22.9554366161
11
9.2029735512
21
22.9554366161
0
LINE
5
364
100
AcDbEntity
8
0
100
AcDbLine
62
7
6
CONTINUOUS
10
-8.1970264488
20
22.9554366161
11
-5.7955804531
21
22.9554366161
0
LINE
5
365
100
AcDbEntity
8
0
100
AcDbLine
62
9
6
CONTINUOUS
10
-8.1919358477
20
23.4606181016
11
-5.8006710541
21
23.4606181016
0
LINE
5
366
100
AcDbEntity
8
0
100
AcDbLine
62
9
6
CONTINUOUS
10
9.2080641523
20
23.4606181016
11
11.5993289459
21
23.4606181016
0
LINE
5
367
100
AcDbEntity
8
0
100
AcDbLine
62
9
6
CONTINUOUS
10
-5.5506752849
20
23.6771244525
11
-8.4419316169
21
23.6771244525
0
LINE
5
368
100
AcDbEntity
8
0
100
AcDbLine
62
9
6
CONTINUOUS
10
8.9580683831
20
23.6771244525
11
11.8493247151
21
23.6771244525
0
LINE
5
369
100
AcDbEntity
8
0
100
AcDbLine
62
7
6
CONTINUOUS
10
-2.7026528041
20
23.7891362384
11
-1.7963034509
21
23.7891362384
0
LINE
5
36A
100
AcDbEntity
8
0
100
AcDbLine
62
7
6
CONTINUOUS
10
5.2036965491
20
23.7891362384
11
6.1100459022
21
23.7891362384
0
LINE
5
36B
100
AcDbEntity
8
0
100
AcDbLine
62
7
6
CONTINUOUS
10
-1.7963034509
20
23.8269690554
11
0.5036965491
21
23.8269690554
0
LINE
5
36C
100
AcDbEntity
8
0
100
AcDbLine
62
7
6
CONTINUOUS
10
2.9036965491
20
23.8269690554
11
5.2036965491
21
23.8269690554
0
LINE
5
36D
100
AcDbEntity
8
0
100
AcDbLine
62
7
6
CONTINUOUS
10
6.1536965491
20
23.8327868852
11
2.9036965491
21
23.8327868852
0
LINE
5
36E
100
AcDbEntity
8
0
100
AcDbLine
62
7
6
CONTINUOUS
10
0.5036965491
20
23.8327868852
11
-2.7463034509
21
23.8327868852
0
LINE
5
36F
100
AcDbEntity
8
0
100
AcDbLine
62
9
6
CONTINUOUS
10
-5.5506752849
20
24.0784192820
11
-8.4419316169
21
24.0784192820
0
LINE
5
370
100
AcDbEntity
8
0
100
AcDbLine
62
9
6
CONTINUOUS
10
8.9580683831
20
24.0784192820
11
11.8493247151
21
24.0784192820
0
LINE
5
371
100
AcDbEntity
8
0
100
AcDbLine
62
7
6
CONTINUOUS
10
11.5993289459
20
24.3284150512
11
9.2080641523
21
24.3284150512
0
LINE
5
372
100
AcDbEntity
8
0
100
AcDbLine
62
7
6
CONTINUOUS
10
-5.8006710541
20
24.3284150512
11
-8.1919358477
21
24.3284150512
0
LINE
5
373
100
AcDbEntity
8
0
100
AcDbLine
62
7
6
CONTINUOUS
10
-8.1963076817
20
24.3327868852
11
-5.7962992201
21
24.3327868852
0
LINE
5
374
100
AcDbEntity
8
0
100
AcDbLine
62
7
6
CONTINUOUS
10
9.2036923183
20
24.3327868852
11
11.6037007799
21
24.3327868852
0
LINE
5
375
100
AcDbEntity
8
0
100
AcDbLine
62
7
6
CONTINUOUS
10
9.9536965491
20
21.2327868852
11
8.9595143789
21
22.2269690554
0
LINE
5
376
100
AcDbEntity
8
0
100
AcDbLine
62
9
6
CONTINUOUS
10
8.9536965491
20
24.0827911160
11
8.9580683831
21
24.0784192820
0
LINE
5
377
100
AcDbEntity
8
0
100
AcDbLine
62
9
6
CONTINUOUS
10
9.2036923183
20
24.3327868852
11
9.2080641523
21
24.3284150512
0
LINE
5
378
100
AcDbEntity
8
0
100
AcDbLine
62
7
6
CONTINUOUS
10
11.3536965491
20
20.0318265354
11
10.6535902115
21
20.7327868852
0
ARC
5
379
100
AcDbEntity
8
0
100
AcDbCircle
62
7
6
CONTINUOUS
10
1.7036965491
20
-0.1672131148
40
8.4500000000
100
AcDbArc
50
10.8118361094
51
169.1881638906
0
ARC
5
37A
100
AcDbEntity
8
0
100
AcDbCircle
62
7
6
CONTINUOUS
10
1.7036965491
20
-0.1672131148
40
8.4500000000
100
AcDbArc
50
190.8118361094
51
349.1881638906
0
ARC
5
37B
100
AcDbEntity
8
0
100
AcDbCircle
62
7
6
CONTINUOUS
10
1.7036965491
20
-0.1672131148
40
9.9250000000
100
AcDbArc
50
261.3204505740
51
278.6795494260
0
ARC
5
37C
100
AcDbEntity
8
0
100
AcDbCircle
62
7
6
CONTINUOUS
10
1.7036965491
20
-0.1672131148
40
5.3050000000
100
AcDbArc
50
249.3721048525
51
263.4479109757
0
ARC
5
37D
100
AcDbEntity
8
0
100
AcDbCircle
62
7
6
CONTINUOUS
10
1.7036965491
20
-0.1672131148
40
5.3050000000
100
AcDbArc
50
96.5520890243
51
110.6278951475
0
ARC
5
37E
100
AcDbEntity
8
0
100
AcDbCircle
62
7
6
CONTINUOUS
10
1.7036965491
20
-0.1672131148
40
5.3050000000
100
AcDbArc
50
69.3721048525
51
83.4479109757
0
ARC
5
37F
100
AcDbEntity
8
0
100
AcDbCircle
62
7
6
CONTINUOUS
10
1.7036965491
20
-0.1672131148
40
5.3050000000
100
AcDbArc
50
276.5520890243
51
290.6278951475
0
CIRCLE
5
380
100
AcDbEntity
8
0
100
AcDbCircle
62
7
6
CONTINUOUS
10
-2.0463034509
20
-0.1672131148
40
0.7500000000
0
CIRCLE
5
381
100
AcDbEntity
8
0
100
AcDbCircle
62
7
6
CONTINUOUS
10
-0.9479538804
20
2.4844373147
40
0.7500000000
0
ARC
5
382
100
AcDbEntity
8
0
100
AcDbCircle
62
7
6
CONTINUOUS
10
1.7036965491
20
-0.1672131148
40
6.4500000000
100
AcDbArc
50
83.4632115970
51
96.5367884030
0
CIRCLE
5
383
100
AcDbEntity
8
0
100
AcDbCircle
62
7
6
CONTINUOUS
10
1.7036965491
20
3.5827868852
40
0.7500000000
0
ARC
5
384
100
AcDbEntity
8
0
100
AcDbCircle
62
7
6
CONTINUOUS
10
1.7036965491
20
-0.1672131148
40
5.8500000000
100
AcDbArc
50
289.9693622944
51
70.0306377056
0
ARC
5
385
100
AcDbEntity
8
0
100
AcDbCircle
62
7
6
CONTINUOUS
10
1.7036965491
20
-0.1672131148
40
6.4500000000
100
AcDbArc
50
263.4632115970
51
276.5367884030
0
CIRCLE
5
386
100
AcDbEntity
8
0
100
AcDbCircle
62
7
6
CONTINUOUS
10
4.3553469785
20
2.4844373147
40
0.7500000000
0
ARC
5
387
100
AcDbEntity
8
0
100
AcDbCircle
62
7
6
CONTINUOUS
10
1.7036965491
20
-0.1672131148
40
5.8500000000
100
AcDbArc
50
109.9693622944
51
250.0306377056
0
CIRCLE
5
388
100
AcDbEntity
8
0
100
AcDbCircle
62
7
6
CONTINUOUS
10
1.7036965491
20
-0.6672131148
40
1.4500000000
0
CIRCLE
5
389
100
AcDbEntity
8
0
100
AcDbCircle
62
7
6
CONTINUOUS
10
5.4536965491
20
-0.1672131148
40
0.7500000000
0
CIRCLE
5
38A
100
AcDbEntity
8
0
100
AcDbCircle
62
7
6
CONTINUOUS
10
-2.0463034509
20
-0.1672131148
40
1.0500000000
0
ARC
5
38B
100
AcDbEntity
8
0
100
AcDbCircle
62
7
6
CONTINUOUS
10
1.7036965491
20
-0.1672131148
40
6.4500000000
100
AcDbArc
50
109.3738034047
51
250.6261965953
0
ARC
5
38C
100
AcDbEntity
8
0
100
AcDbCircle
62
7
6
CONTINUOUS
10
1.7036965491
20
-0.1672131148
40
6.4500000000
100
AcDbArc
50
289.3738034047
51
70.6261965953
0
CIRCLE
5
38D
100
AcDbEntity
8
0
100
AcDbCircle
62
7
6
CONTINUOUS
10
-0.9479538804
20
2.4844373147
40
1.0500000000
0
CIRCLE
5
38E
100
AcDbEntity
8
0
100
AcDbCircle
62
7
6
CONTINUOUS
10
1.7036965491
20
3.5827868852
40
1.0500000000
0
CIRCLE
5
38F
100
AcDbEntity
8
0
100
AcDbCircle
62
7
6
CONTINUOUS
10
4.3553469785
20
2.4844373147
40
1.0500000000
0
CIRCLE
5
390
100
AcDbEntity
8
0
100
AcDbCircle
62
7
6
CONTINUOUS
10
5.4536965491
20
-0.1672131148
40
1.0500000000
0
ARC
5
391
100
AcDbEntity
8
0
100
AcDbCircle
62
7
6
CONTINUOUS
10
1.7036965491
20
-0.1672131148
40
7.8500000000
100
AcDbArc
50
98.8403174827
51
108.3396666891
0
ARC
5
392
100
AcDbEntity
8
0
100
AcDbCircle
62
7
6
CONTINUOUS
10
1.7036965491
20
-0.1672131148
40
7.8500000000
100
AcDbArc
50
251.6603333109
51
261.1596825173
0
ARC
5
393
100
AcDbEntity
8
0
100
AcDbCircle
62
7
6
CONTINUOUS
10
1.7036965491
20
-0.1672131148
40
7.8500000000
100
AcDbArc
50
278.8403174827
51
288.3396666891
0
ARC
5
394
100
AcDbEntity
8
0
100
AcDbCircle
62
7
6
CONTINUOUS
10
1.7036965491
20
-0.1672131148
40
7.8500000000
100
AcDbArc
50
71.6603333109
51
81.1596825173
0
ARC
5
395
100
AcDbEntity
8
0
100
AcDbCircle
62
7
6
CONTINUOUS
10
-2.2963034509
20
-23.3172131148
40
0.5000000000
100
AcDbArc
50
144.3637748935
51
215.6362251065
0
ARC
5
396
100
AcDbEntity
8
0
100
AcDbCircle
62
7
6
CONTINUOUS
10
5.7036965491
20
-23.3172131148
40
0.5000000000
100
AcDbArc
50
324.3637748935
51
35.6362251065
0
ARC
5
397
100
AcDbEntity
8
0
100
AcDbCircle
62
7
6
CONTINUOUS
10
5.7036965491
20
22.9827868852
40
0.5000000000
100
AcDbArc
50
324.3637748935
51
35.6362251065
0
ARC
5
398
100
AcDbEntity
8
0
100
AcDbCircle
62
7
6
CONTINUOUS
10
-2.2963034509
20
22.9827868852
40
0.5000000000
100
AcDbArc
50
144.3637748935
51
215.6362251065
0
ARC
5
399
100
AcDbEntity
8
0
100
AcDbCircle
62
7
6
CONTINUOUS
10
1.7036965491
20
-0.1672131148
40
9.1473819397
100
AcDbArc
50
279.4214407128
51
260.5785592872
0
ARC
5
39A
100
AcDbEntity
8
0
100
AcDbCircle
62
7
6
CONTINUOUS
10
1.7036965491
20
-0.1672131148
40
9.1534907471
100
AcDbArc
50
326.8905791322
51
33.1094208678
0
ARC
5
39B
100
AcDbEntity
8
0
100
AcDbCircle
62
7
6
CONTINUOUS
10
1.7036965491
20
-0.1672131148
40
10.3936343390
100
AcDbArc
50
338.1949213397
51
21.8050786603
0
ARC
5
39C
100
AcDbEntity
8
0
100
AcDbCircle
62
7
6
CONTINUOUS
10
1.7036965491
20
-0.1672131148
40
11.2500000000
100
AcDbArc
50
39.7179699387
51
140.2820300613
0
ARC
5
39D
100
AcDbEntity
8
0
100
AcDbCircle
62
7
6
CONTINUOUS
10
1.7036965491
20
-0.1672131148
40
11.2500000000
100
AcDbArc
50
219.7179699387
51
320.2820300613
0
ARC
5
39E
100
AcDbEntity
8
0
100
AcDbCircle
62
7
6
CONTINUOUS
10
1.7036965491
20
-0.1672131148
40
10.3500000000
100
AcDbArc
50
157.5082688490
51
202.4917311510
0
ARC
5
39F
100
AcDbEntity
8
0
100
AcDbCircle
62
7
6
CONTINUOUS
10
1.7036965491
20
-0.1672131148
40
10.3500000000
100
AcDbArc
50
337.5082688490
51
22.4917311510
0
ARC
5
3A0
100
AcDbEntity
8
0
100
AcDbCircle
62
7
6
CONTINUOUS
10
1.7036965491
20
-0.1672131148
40
10.3936343390
100
AcDbArc
50
158.1949213397
51
201.8050786603
0
ARC
5
3A1
100
AcDbEntity
8
0
100
AcDbCircle
62
7
6
CONTINUOUS
10
1.7036965491
20
-0.1672131148
40
9.1753079166
100
AcDbArc
50
33.1832551186
51
146.8167448814
0
ARC
5
3A2
100
AcDbEntity
8
0
100
AcDbCircle
62
7
6
CONTINUOUS
10
1.7036965491
20
-0.1672131148
40
11.2246920834
100
AcDbArc
50
39.7646060408
51
140.2353939592
0
ARC
5
3A3
100
AcDbEntity
8
0
100
AcDbCircle
62
7
6
CONTINUOUS
10
1.7036965491
20
-0.1672131148
40
10.1753079166
100
AcDbArc
50
261.3787018997
51
278.6212981003
0
ARC
5
3A4
100
AcDbEntity
8
0
100
AcDbCircle
62
7
6
CONTINUOUS
10
1.7036965491
20
-0.1672131148
40
9.1753079166
100
AcDbArc
50
279.5693061059
51
326.8167448814
0
ARC
5
3A5
100
AcDbEntity
8
0
100
AcDbCircle
62
7
6
CONTINUOUS
10
1.7036965491
20
-0.1672131148
40
11.2246920834
100
AcDbArc
50
219.7646060408
51
320.2353939592
0
ARC
5
3A6
100
AcDbEntity
8
0
100
AcDbCircle
62
7
6
CONTINUOUS
10
1.7036965491
20
-0.1672131148
40
9.1753079166
100
AcDbArc
50
213.1832551186
51
260.4306938941
0
ARC
5
3A7
100
AcDbEntity
8
0
100
AcDbCircle
62
7
6
CONTINUOUS
10
1.7036965491
20
-0.1672131148
40
9.1534907471
100
AcDbArc
50
146.8905791322
51
213.1094208678
0
SPLINE
5
3A8
100
AcDbEntity
8
0
100
AcDbSpline
62
7
6
CONTINUOUS
70
0
71
3
72
8
73
4
74
2
42
0.0000001000
43
0.0000001000
44
0.0000000001
12
-0.1531571424
22
-0.3890477768
32
0.0000000000
13
-0.1713695975
23
-0.3817208484
33
0.0000000000
40
0.0000000000
40
0.0000000000
40
0.0000000000
40
0.0000000000
40
1.0000000000
40
1.0000000000
40
1.0000000000
40
1.0000000000
10
10.0036965491
20
-3.4346891261
30
0.0000000000
10
9.9526441683
20
-3.5643717184
30
0.0000000000
10
9.8985181609
20
-3.6929154994
30
0.0000000000
10
9.8413949617
20
-3.8201557822
30
0.0000000000
11
10.0036965491
21
-3.4346891261
31
0.0000000000
11
9.8413949617
21
-3.8201557822
31
0.0000000000
0
SPLINE
5
3A9
100
AcDbEntity
8
0
100
AcDbSpline
62
7
6
CONTINUOUS
70
0
71
3
72
16
73
12
74
10
42
0.0000001000
43
0.0000001000
44
0.0000000001
12
-4.1110936869
22
-9.1573429189
32
0.0000000000
13
-10.0358085892
23
-0.2351697297
33
0.0000000000
40
0.0000000000
40
0.0000000000
40
0.0000000000
40
0.0000000000
40
0.0833174990
40
0.2083196669
40
0.3333218305
40
0.4583239897
40
0.5833261448
40
0.7083282958
40
0.8333304429
40
0.9583325861
40
1.0000000000
40
1.0000000000
40
1.0000000000
40
1.0000000000
10
9.8413949617
20
-3.8201557822
30
0.0000000000
10
9.7272196137
20
-4.0744780854
30
0.0000000000
10
9.4118073497
20
-4.6973425672
30
0.0000000000
10
8.7934650077
20
-5.6287129826
30
0.0000000000
10
7.9576240510
20
-6.5688914028
30
0.0000000000
10
6.9982462730
20
-7.3825248841
30
0.0000000000
10
5.9342547578
20
-8.0536189333
30
0.0000000000
10
4.7866798504
20
-8.5688927641
30
0.0000000000
10
3.5781924750
20
-8.9181716758
30
0.0000000000
10
2.6094525971
20
-9.0553573709
30
0.0000000000
10
2.0522048436
20
-9.0814879125
30
0.0000000000
10
1.9128161134
20
-9.0847542173
30
0.0000000000
11
9.8413949617
21
-3.8201557822
31
0.0000000000
11
9.4635576764
21
-4.5661851249
31
0.0000000000
11
8.7701033693
21
-5.6107683951
31
0.0000000000
11
7.9370345655
21
-6.5478005947
31
0.0000000000
11
6.9808106333
21
-7.3587683245
31
0.0000000000
11
5.9203241744
21
-8.0276489066
31
0.0000000000
11
4.7765277537
21
-8.5412269512
31
0.0000000000
11
3.5720199280
21
-8.8893554589
31
0.0000000000
11
2.3305987556
21
-9.0651562995
31
0.0000000000
11
1.9128161134
21
-9.0847542173
31
0.0000000000
0
SPLINE
5
3AA
100
AcDbEntity
8
0
100
AcDbSpline
62
7
6
CONTINUOUS
70
0
71
3
72
9
73
5
74
3
42
0.0000001000
43
0.0000001000
44
0.0000000001
12
0.7654569974
22
1.9444038532
32
0.0000000000
13
1.1971330532
23
1.7146687785
33
0.0000000000
40
0.0000000000
40
0.0000000000
40
0.0000000000
40
0.0000000000
40
0.6000088848
40
1.0000000000
40
1.0000000000
40
1.0000000000
40
1.0000000000
10
-6.5963034509
20
3.1002629590
30
0.0000000000
10
-6.4432097845
20
3.4891494882
30
0.0000000000
10
-6.1419919444
20
4.1202163461
30
0.0000000000
10
-5.7697247155
20
4.7105015605
30
0.0000000000
10
-5.6101105204
20
4.9391189861
30
0.0000000000
11
-6.5963034509
21
3.1002629590
31
0.0000000000
11
-6.0561644864
21
4.2317591050
31
0.0000000000
11
-5.6101105204
21
4.9391189861
31
0.0000000000
0
SPLINE
5
3AB
100
AcDbEntity
8
0
100
AcDbSpline
62
7
6
CONTINUOUS
70
0
71
3
72
23
73
19
74
17
42
0.0000001000
43
0.0000001000
44
0.0000000001
12
10.7742708035
22
15.4321240307
32
0.0000000000
13
7.7083734682
23
-17.1701815501
33
0.0000000000
40
0.0000000000
40
0.0000000000
40
0.0000000000
40
0.0000000000
40
0.0222240418
40
0.0888912349
40
0.1555584246
40
0.2222256108
40
0.2888927937
40
0.3555599733
40
0.4222271497
40
0.4888943229
40
0.5555614929
40
0.6222286599
40
0.6888958238
40
0.7555629848
40
0.8222301428
40
0.8888972980
40
0.9555644503
40
1.0000000000
40
1.0000000000
40
1.0000000000
40
1.0000000000
10
-5.6101105204
20
4.9391189861
30
0.0000000000
10
-5.5302945722
20
5.0534403760
30
0.0000000000
10
-5.2003361009
20
5.5032079020
30
0.0000000000
10
-4.5502306200
20
6.2344655404
30
0.0000000000
10
-3.5908527101
20
7.0480990321
30
0.0000000000
10
-2.5268610748
20
7.7191930502
30
0.0000000000
10
-1.3792860691
20
8.2344668154
30
0.0000000000
10
-0.1707986252
20
8.5837456356
30
0.0000000000
10
1.0747239519
20
8.7601271145
30
0.0000000000
10
2.3326734329
20
8.7601268087
30
0.0000000000
10
3.5781958064
20
8.5837447494
30
0.0000000000
10
4.7866828591
20
8.2344654406
30
0.0000000000
10
5.9342573166
20
7.7191913339
30
0.0000000000
10
6.9982482909
20
7.0480971682
30
0.0000000000
10
7.9576254830
20
6.2344637583
30
0.0000000000
10
8.7934658614
20
5.2942856148
30
0.0000000000
10
9.4118077553
20
4.3629156190
30
0.0000000000
10
9.7272198020
20
3.7400514751
30
0.0000000000
10
9.8413950728
20
3.4857293233
30
0.0000000000
11
-5.6101105204
21
4.9391189861
31
0.0000000000
11
-5.3627100612
21
5.2763424774
31
0.0000000000
11
-4.5296411266
21
6.2133747323
31
0.0000000000
11
-3.5734170634
21
7.0243424721
31
0.0000000000
11
-2.5129304854
21
7.6932230230
31
0.0000000000
11
-1.3691339670
21
8.2068010019
31
0.0000000000
11
-0.1646260732
21
8.5549294185
31
0.0000000000
11
1.0767951324
21
8.7307301525
31
0.0000000000
11
2.3306022777
21
8.7307298477
31
0.0000000000
11
3.5720232813
21
8.5549285351
31
0.0000000000
11
4.7765307867
21
8.2067996311
31
0.0000000000
11
5.9203267608
21
7.6932213109
31
0.0000000000
11
6.9808126828
21
7.0243406113
31
0.0000000000
11
7.9370360334
21
6.2133729505
31
0.0000000000
11
8.7701042633
21
5.2763410237
31
0.0000000000
11
9.4635580616
21
4.2317582342
31
0.0000000000
11
9.8413950728
21
3.4857293233
31
0.0000000000
0
SPLINE
5
3AC
100
AcDbEntity
8
0
100
AcDbSpline
62
7
6
CONTINUOUS
70
0
71
3
72
8
73
4
74
2
42
0.0000001000
43
0.0000001000
44
0.0000000001
12
0.1713694747
22
-0.3817206062
32
0.0000000000
13
0.1531570432
23
-0.3890475249
33
0.0000000000
40
0.0000000000
40
0.0000000000
40
0.0000000000
40
0.0000000000
40
1.0000000000
40
1.0000000000
40
1.0000000000
40
1.0000000000
10
9.8413950728
20
3.4857293233
30
0.0000000000
10
9.8985182310
20
3.3584891212
30
0.0000000000
10
9.9526442014
20
3.2299454228
30
0.0000000000
10
10.0036965491
20
3.1002629145
30
0.0000000000
11
9.8413950728
21
3.4857293233
31
0.0000000000
11
10.0036965491
21
3.1002629145
31
0.0000000000
0
SPLINE
5
3AD
100
AcDbEntity
8
0
100
AcDbSpline
62
7
6
CONTINUOUS
70
0
71
3
72
8
73
4
74
2
42
0.0000001000
43
0.0000001000
44
0.0000000001
12
-0.4023815388
22
-0.0092558600
32
0.0000000000
13
-0.4026694182
23
0.0089311674
33
0.0000000000
40
0.0000000000
40
0.0000000000
40
0.0000000000
40
0.0000000000
40
1.0000000000
40
1.0000000000
40
1.0000000000
40
1.0000000000
10
1.9088263302
20
-9.0848541577
30
0.0000000000
10
1.7746991506
20
-9.0879394443
30
0.0000000000
10
1.6404430724
20
-9.0879907852
30
0.0000000000
10
1.5062199330
20
-9.0850137294
30
0.0000000000
11
1.9088263302
21
-9.0848541577
31
0.0000000000
11
1.5062199330
21
-9.0850137294
31
0.0000000000
0
SPLINE
5
3AE
100
AcDbEntity
8
0
100
AcDbSpline
62
7
6
CONTINUOUS
70
0
71
3
72
16
73
12
74
10
42
0.0000001000
43
0.0000001000
44
0.0000000001
12
-10.0625554134
22
0.2231864712
32
0.0000000000
13
-4.1060883774
23
9.1893890843
33
0.0000000000
40
0.0000000000
40
0.0000000000
40
0.0000000000
40
0.0000000000
40
0.0799871029
40
0.1999908146
40
0.3199945189
40
0.4399982160
40
0.5600019059
40
0.6800055888
40
0.8000092646
40
0.9200129335
40
1.0000000000
40
1.0000000000
40
1.0000000000
40
1.0000000000
10
1.5062199330
20
-9.0850137294
30
0.0000000000
10
1.2379283812
20
-9.0790630496
30
0.0000000000
10
0.5674512101
20
-9.0339320810
30
0.0000000000
10
-0.4910988029
20
-8.8411360822
30
0.0000000000
10
-1.6420666497
20
-8.4654169248
30
0.0000000000
10
-2.7317124516
20
-7.9377586557
30
0.0000000000
10
-3.7401645380
20
-7.2678192444
30
0.0000000000
10
-4.6489299448
20
-6.4678840547
30
0.0000000000
10
-5.4414033129
20
-5.5525277692
30
0.0000000000
10
-6.0294317696
20
-4.6514616354
30
0.0000000000
10
-6.3309182591
20
-4.0508935889
30
0.0000000000
10
-6.4403962471
20
-3.8058828303
30
0.0000000000
11
1.5062199330
21
-9.0850137294
31
0.0000000000
11
0.7030325510
21
-9.0309071279
31
0.0000000000
11
-0.4844391469
21
-8.8146672007
31
0.0000000000
11
-1.6318463427
21
-8.4400937258
31
0.0000000000
11
-2.7181801970
21
-7.9140451141
31
0.0000000000
11
-3.7235501197
21
-7.2461532596
31
0.0000000000
11
-4.6295479631
21
-6.4486471804
31
0.0000000000
11
-5.4195850715
21
-5.5361291059
31
0.0000000000
11
-6.0791960154
21
-4.5253071118
31
0.0000000000
11
-6.4403962471
21
-3.8058828303
31
0.0000000000
0
SPLINE
5
3AF
100
AcDbEntity
8
0
100
AcDbSpline
62
7
6
CONTINUOUS
70
0
71
3
72
8
73
4
74
2
42
0.0000001000
43
0.0000001000
44
0.0000000001
12
-0.1643116781
22
0.3677280668
32
0.0000000000
13
-0.1474348843
23
0.3745121649
33
0.0000000000
40
0.0000000000
40
0.0000000000
40
0.0000000000
40
0.0000000000
40
1.0000000000
40
1.0000000000
40
1.0000000000
40
1.0000000000
10
-6.4403962471
20
-3.8058828303
30
0.0000000000
10
-6.4951668065
20
-3.6833068080
30
0.0000000000
10
-6.5471584895
20
-3.5595265855
30
0.0000000000
10
-6.5963034509
20
-3.4346891972
30
0.0000000000
11
-6.4403962471
21
-3.8058828303
31
0.0000000000
11
-6.5963034509
21
-3.4346891972
31
0.0000000000
0
SPLINE
5
3B0
100
AcDbEntity
8
0
100
AcDbSpline
62
7
6
CONTINUOUS
70
0
71
3
72
9
73
5
74
3
42
0.0000001000
43
0.0000001000
44
0.0000000001
12
0.0000000000
22
-0.0475573588
32
0.0000000000
13
0.0090083279
23
-0.0467385388
33
0.0000000000
40
0.0000000000
40
0.0000000000
40
0.0000000000
40
0.0000000000
40
0.7500208510
40
1.0000000000
40
1.0000000000
40
1.0000000000
40
1.0000000000
10
-8.4463034509
20
-24.4172173455
30
0.0000000000
10
-8.4463034509
20
-24.4291070158
30
0.0000000000
10
-8.4451687377
20
-24.4449827474
30
0.0000000000
10
-8.4425364923
20
-24.4606348570
30
0.0000000000
10
-8.4417858609
20
-24.4645294104
30
0.0000000000
11
-8.4463034509
21
-24.4172173455
31
0.0000000000
11
-8.4437589251
21
-24.4527954809
31
0.0000000000
11
-8.4417858609
21
-24.4645294104
31
0.0000000000
0
SPLINE
5
3B1
100
AcDbEntity
8
0
100
AcDbSpline
62
7
6
CONTINUOUS
70
0
71
3
72
9
73
5
74
3
42
0.0000001000
43
0.0000001000
44
0.0000000001
12
0.0475573588
22
0.0000000000
32
0.0000000000
13
0.0467385388
23
0.0090083279
33
0.0000000000
40
0.0000000000
40
0.0000000000
40
0.0000000000
40
0.0000000000
40
0.7500208510
40
1.0000000000
40
1.0000000000
40
1.0000000000
40
1.0000000000
10
-5.7962992201
20
-24.6672131148
30
0.0000000000
10
-5.7844095499
20
-24.6672131148
30
0.0000000000
10
-5.7685338182
20
-24.6660784015
30
0.0000000000
10
-5.7528817087
20
-24.6634461561
30
0.0000000000
10
-5.7489871553
20
-24.6626955247
30
0.0000000000
11
-5.7962992201
21
-24.6672131148
31
0.0000000000
11
-5.7607210848
21
-24.6646685889
31
0.0000000000
11
-5.7489871553
21
-24.6626955247
31
0.0000000000
0
SPLINE
5
3B2
100
AcDbEntity
8
0
100
AcDbSpline
62
7
6
CONTINUOUS
70
0
71
3
72
9
73
5
74
3
42
0.0000001000
43
0.0000001000
44
0.0000000001
12
0.0475573588
22
0.0000000000
32
0.0000000000
13
0.0467385388
23
0.0090083279
33
0.0000000000
40
0.0000000000
40
0.0000000000
40
0.0000000000
40
0.0000000000
40
0.7500208510
40
1.0000000000
40
1.0000000000
40
1.0000000000
40
1.0000000000
10
11.6037007799
20
-24.6672131148
30
0.0000000000
10
11.6155904501
20
-24.6672131148
30
0.0000000000
10
11.6314661818
20
-24.6660784015
30
0.0000000000
10
11.6471182913
20
-24.6634461561
30
0.0000000000
10
11.6510128447
20
-24.6626955247
30
0.0000000000
11
11.6037007799
21
-24.6672131148
31
0.0000000000
11
11.6392789152
21
-24.6646685889
31
0.0000000000
11
11.6510128447
21
-24.6626955247
31
0.0000000000
0
SPLINE
5
3B3
100
AcDbEntity
8
0
100
AcDbSpline
62
7
6
CONTINUOUS
70
0
71
3
72
9
73
5
74
3
42
0.0000001000
43
0.0000001000
44
0.0000000001
12
0.0000000000
22
-0.0475573588
32
0.0000000000
13
0.0090083279
23
-0.0467385388
33
0.0000000000
40
0.0000000000
40
0.0000000000
40
0.0000000000
40
0.0000000000
40
0.7500208510
40
1.0000000000
40
1.0000000000
40
1.0000000000
40
1.0000000000
10
8.9536965491
20
-24.4172173455
30
0.0000000000
10
8.9536965491
20
-24.4291070158
30
0.0000000000
10
8.9548312623
20
-24.4449827474
30
0.0000000000
10
8.9574635077
20
-24.4606348570
30
0.0000000000
10
8.9582141391
20
-24.4645294104
30
0.0000000000
11
8.9536965491
21
-24.4172173455
31
0.0000000000
11
8.9562410749
21
-24.4527954809
31
0.0000000000
11
8.9582141391
21
-24.4645294104
31
0.0000000000
0
SPLINE
5
3B4
100
AcDbEntity
8
0
100
AcDbSpline
62
7
6
CONTINUOUS
70
0
71
3
72
9
73
5
74
3
42
0.0000001000
43
0.0000001000
44
0.0000000001
12
-0.0475573588
22
0.0000000000
32
0.0000000000
13
-0.0467385388
23
-0.0090083279
33
0.0000000000
40
0.0000000000
40
0.0000000000
40
0.0000000000
40
0.0000000000
40
0.7500208510
40
1.0000000000
40
1.0000000000
40
1.0000000000
40
1.0000000000
10
-8.1963076817
20
24.3327868852
30
0.0000000000
10
-8.2081973520
20
24.3327868852
30
0.0000000000
10
-8.2240730836
20
24.3316521720
30
0.0000000000
10
-8.2397251932
20
24.3290199266
30
0.0000000000
10
-8.2436197466
20
24.3282692952
30
0.0000000000
11
-8.1963076817
21
24.3327868852
31
0.0000000000
11
-8.2318858171
21
24.3302423594
31
0.0000000000
11
-8.2436197466
21
24.3282692952
31
0.0000000000
0
SPLINE
5
3B5
100
AcDbEntity
8
0
100
AcDbSpline
62
7
6
CONTINUOUS
70
0
71
3
72
9
73
5
74
3
42
0.0000001000
43
0.0000001000
44
0.0000000001
12
0.0000000000
22
0.0475573588
32
0.0000000000
13
-0.0090083279
23
0.0467385388
33
0.0000000000
40
0.0000000000
40
0.0000000000
40
0.0000000000
40
0.0000000000
40
0.7500208510
40
1.0000000000
40
1.0000000000
40
1.0000000000
40
1.0000000000
10
-5.5463034509
20
24.0827911160
30
0.0000000000
10
-5.5463034509
20
24.0946807863
30
0.0000000000
10
-5.5474381642
20
24.1105565179
30
0.0000000000
10
-5.5500704096
20
24.1262086275
30
0.0000000000
10
-5.5508210409
20
24.1301031809
30
0.0000000000
11
-5.5463034509
21
24.0827911160
31
0.0000000000
11
-5.5488479768
21
24.1183692514
31
0.0000000000
11
-5.5508210409
21
24.1301031809
31
0.0000000000
0
SPLINE
5
3B6
100
AcDbEntity
8
0
100
AcDbSpline
62
7
6
CONTINUOUS
70
0
71
3
72
9
73
5
74
3
42
0.0000001000
43
0.0000001000
44
0.0000000001
12
-0.0475573588
22
0.0000000000
32
0.0000000000
13
-0.0467385388
23
-0.0090083279
33
0.0000000000
40
0.0000000000
40
0.0000000000
40
0.0000000000
40
0.0000000000
40
0.7500208510
40
1.0000000000
40
1.0000000000
40
1.0000000000
40
1.0000000000
10
9.2036923183
20
24.3327868852
30
0.0000000000
10
9.1918026480
20
24.3327868852
30
0.0000000000
10
9.1759269164
20
24.3316521720
30
0.0000000000
10
9.1602748068
20
24.3290199266
30
0.0000000000
10
9.1563802534
20
24.3282692952
30
0.0000000000
11
9.2036923183
21
24.3327868852
31
0.0000000000
11
9.1681141829
21
24.3302423594
31
0.0000000000
11
9.1563802534
21
24.3282692952
31
0.0000000000
0
SPLINE
5
3B7
100
AcDbEntity
8
0
100
AcDbSpline
62
7
6
CONTINUOUS
70
0
71
3
72
9
73
5
74
3
42
0.0000001000
43
0.0000001000
44
0.0000000001
12
0.0000000000
22
0.0475573588
32
0.0000000000
13
-0.0090083279
23
0.0467385388
33
0.0000000000
40
0.0000000000
40
0.0000000000
40
0.0000000000
40
0.0000000000
40
0.7500208510
40
1.0000000000
40
1.0000000000
40
1.0000000000
40
1.0000000000
10
11.8536965491
20
24.0827911160
30
0.0000000000
10
11.8536965491
20
24.0946807863
30
0.0000000000
10
11.8525618358
20
24.1105565179
30
0.0000000000
10
11.8499295904
20
24.1262086275
30
0.0000000000
10
11.8491789591
20
24.1301031809
30
0.0000000000
11
11.8536965491
21
24.0827911160
31
0.0000000000
11
11.8511520232
21
24.1183692514
31
0.0000000000
11
11.8491789591
21
24.1301031809
31
0.0000000000
0
SPLINE
5
3B8
100
AcDbEntity
8
0
100
AcDbSpline
62
7
6
CONTINUOUS
70
0
71
3
72
13
73
9
74
7
42
0.0000001000
43
0.0000001000
44
0.0000000001
12
0.7119171939
22
0.7215311797
32
0.0000000000
13
-0.3203015715
23
0.9616861429
33
0.0000000000
40
0.0000000000
40
0.0000000000
40
0.0000000000
40
0.0000000000
40
0.2906410198
40
0.5377908085
40
0.7328858031
40
0.8797397472
40
0.9685178918
40
1.0000000000
40
1.0000000000
40
1.0000000000
40
1.0000000000
10
-7.8205449243
20
19.6542441469
30
0.0000000000
10
-7.7515741445
20
19.7241463329
30
0.0000000000
10
-7.6248269769
20
19.8539950542
30
0.0000000000
10
-7.4522122740
20
20.0328432370
30
0.0000000000
10
-7.3194032415
20
20.1778826945
30
0.0000000000
10
-7.2144820283
20
20.2868017505
30
0.0000000000
10
-7.1698358262
20
20.3544019904
30
0.0000000000
10
-7.1317336265
20
20.3891171723
30
0.0000000000
10
-7.1350948828
20
20.3992091414
30
0.0000000000
11
-7.8205449243
21
19.6542441469
31
0.0000000000
11
-7.6146010626
21
19.8649018845
31
0.0000000000
11
-7.4413446078
21
20.0458464334
31
0.0000000000
11
-7.3065076933
21
20.1905019984
31
0.0000000000
11
-7.2073321625
21
20.3015061629
31
0.0000000000
11
-7.1504489993
21
20.3712347950
31
0.0000000000
11
-7.1350948828
21
20.3992091414
31
0.0000000000
0
SPLINE
5
3B9
100
AcDbEntity
8
0
100
AcDbSpline
62
7
6
CONTINUOUS
70
0
71
3
72
13
73
9
74
7
42
0.0000001000
43
0.0000001000
44
0.0000000001
12
-0.3203015715
22
-0.9616861429
32
0.0000000000
13
0.7119171939
23
-0.7215311797
33
0.0000000000
40
0.0000000000
40
0.0000000000
40
0.0000000000
40
0.0000000000
40
0.0314821082
40
0.1202602528
40
0.2671141969
40
0.4622091915
40
0.7093589802
40
1.0000000000
40
1.0000000000
40
1.0000000000
40
1.0000000000
10
10.5424879809
20
20.3992091414
30
0.0000000000
10
10.5391267247
20
20.3891171723
30
0.0000000000
10
10.5772289243
20
20.3544019904
30
0.0000000000
10
10.6218751265
20
20.2868017505
30
0.0000000000
10
10.7267963396
20
20.1778826945
30
0.0000000000
10
10.8596053721
20
20.0328432370
30
0.0000000000
10
11.0322200750
20
19.8539950542
30
0.0000000000
10
11.1589672427
20
19.7241463329
30
0.0000000000
10
11.2279380224
20
19.6542441469
30
0.0000000000
11
10.5424879809
21
20.3992091414
31
0.0000000000
11
10.5578420975
21
20.3712347950
31
0.0000000000
11
10.6147252607
21
20.3015061629
31
0.0000000000
11
10.7139007914
21
20.1905019984
31
0.0000000000
11
10.8487377059
21
20.0458464334
31
0.0000000000
11
11.0219941607
21
19.8649018845
31
0.0000000000
11
11.2279380224
21
19.6542441469
31
0.0000000000
0
SPLINE
5
3BA
100
AcDbEntity
8
0
100
AcDbSpline
62
7
6
CONTINUOUS
70
0
71
3
72
13
73
9
74
7
42
0.0000001000
43
0.0000001000
44
0.0000000001
12
-0.7119176766
22
-0.7215316689
32
0.0000000000
13
0.3203017887
23
-0.9616867950
33
0.0000000000
40
0.0000000000
40
0.0000000000
40
0.0000000000
40
0.0000000000
40
0.2905946340
40
0.5374819863
40
0.7326654485
40
0.8797809635
40
0.9686139076
40
1.0000000000
40
1.0000000000
40
1.0000000000
40
1.0000000000
10
11.2279380224
20
-19.9886703764
30
0.0000000000
10
11.1589782035
20
-20.0585614535
30
0.0000000000
10
11.0323033566
20
-20.1883353849
30
0.0000000000
10
10.8597409942
20
-20.3671295180
30
0.0000000000
10
10.7269080118
20
-20.5121857954
30
0.0000000000
10
10.6218846948
20
-20.6212108723
30
0.0000000000
10
10.5771938090
20
-20.6888586277
30
0.0000000000
10
10.5391369737
20
-20.7235741740
30
0.0000000000
10
10.5424879809
20
-20.7336353709
30
0.0000000000
11
11.2279380224
21
-19.9886703764
31
0.0000000000
11
11.0220267216
21
-20.1992944722
31
0.0000000000
11
10.8489525315
21
-20.3800454843
31
0.0000000000
11
10.7140512740
21
-20.5247638454
31
0.0000000000
11
10.6146975698
21
-20.6359644988
31
0.0000000000
11
10.5577841723
21
-20.7057402295
31
0.0000000000
11
10.5424879809
21
-20.7336353709
31
0.0000000000
0
SPLINE
5
3BB
100
AcDbEntity
8
0
100
AcDbSpline
62
7
6
CONTINUOUS
70
0
71
3
72
13
73
9
74
7
42
0.0000001000
43
0.0000001000
44
0.0000000001
12
0.3203017887
22
0.9616867950
32
0.0000000000
13
-0.7119176766
23
0.7215316689
33
0.0000000000
40
0.0000000000
40
0.0000000000
40
0.0000000000
40
0.0000000000
40
0.0313860924
40
0.1202190365
40
0.2673345515
40
0.4625180137
40
0.7094053660
40
1.0000000000
40
1.0000000000
40
1.0000000000
40
1.0000000000
10
-7.1350948828
20
-20.7336353709
30
0.0000000000
10
-7.1317438756
20
-20.7235741740
30
0.0000000000
10
-7.1698007109
20
-20.6888586277
30
0.0000000000
10
-7.2144915967
20
-20.6212108723
30
0.0000000000
10
-7.3195149136
20
-20.5121857954
30
0.0000000000
10
-7.4523478960
20
-20.3671295180
30
0.0000000000
10
-7.6249102585
20
-20.1883353849
30
0.0000000000
10
-7.7515851054
20
-20.0585614535
30
0.0000000000
10
-7.8205449243
20
-19.9886703764
30
0.0000000000
11
-7.1350948828
21
-20.7336353709
31
0.0000000000
11
-7.1503910741
21
-20.7057402295
31
0.0000000000
11
-7.2073044716
21
-20.6359644988
31
0.0000000000
11
-7.3066581758
21
-20.5247638454
31
0.0000000000
11
-7.4415594333
21
-20.3800454843
31
0.0000000000
11
-7.6146336235
21
-20.1992944722
31
0.0000000000
11
-7.8205449243
21
-19.9886703764
31
0.0000000000
0
SPLINE
5
3BC
100
AcDbEntity
8
0
100
AcDbSpline
62
7
6
CONTINUOUS
70
0
71
3
72
11
73
7
74
5
42
0.0000001000
43
0.0000001000
44
0.0000000001
12
0.3066861965
22
0.0000000000
32
0.0000000000
13
0.2168598892
23
-0.2168598892
33
0.0000000000
40
0.0000000000
40
0.0000000000
40
0.0000000000
40
0.0000000000
40
0.3808556593
40
0.7046253431
40
0.9214198089
40
1.0000000000
40
1.0000000000
40
1.0000000000
40
1.0000000000
10
8.6036965491
20
19.9287824309
30
0.0000000000
10
8.6426309403
20
19.9287824309
30
0.0000000000
10
8.7139777057
20
19.9271966149
30
0.0000000000
10
8.8105954482
20
19.9318932345
30
0.0000000000
10
8.8690710822
20
19.9208943028
30
0.0000000000
10
8.9046736119
20
19.9318098225
30
0.0000000000
10
8.9103539090
20
19.9261295253
30
0.0000000000
11
8.6036965491
21
19.9287824309
31
0.0000000000
11
8.7204995485
21
19.9285807104
31
0.0000000000
11
8.8197935729
21
19.9280051014
31
0.0000000000
11
8.8862758913
21
19.9271459072
31
0.0000000000
11
8.9103539090
21
19.9261295253
31
0.0000000000
0
SPLINE
5
3BD
100
AcDbEntity
8
0
100
AcDbSpline
62
7
6
CONTINUOUS
70
0
71
3
72
11
73
7
74
5
42
0.0000001000
43
0.0000001000
44
0.0000000001
12
0.2168598892
22
0.2168598892
32
0.0000000000
13
0.3066861965
23
0.0000000000
33
0.0000000000
40
0.0000000000
40
0.0000000000
40
0.0000000000
40
0.0000000000
40
0.0785801911
40
0.2953746569
40
0.6191443407
40
1.0000000000
40
1.0000000000
40
1.0000000000
40
1.0000000000
10
8.2970391891
20
19.9261295253
30
0.0000000000
10
8.3027194863
20
19.9318098225
30
0.0000000000
10
8.3383220160
20
19.9208943028
30
0.0000000000
10
8.3967976500
20
19.9318932345
30
0.0000000000
10
8.4934153924
20
19.9271966149
30
0.0000000000
10
8.5647621579
20
19.9287824309
30
0.0000000000
10
8.6036965491
20
19.9287824309
30
0.0000000000
11
8.2970391891
21
19.9261295253
31
0.0000000000
11
8.3211172068
21
19.9271459072
31
0.0000000000
11
8.3875995252
21
19.9280051014
31
0.0000000000
11
8.4868935497
21
19.9285807104
31
0.0000000000
11
8.6036965491
21
19.9287824309
31
0.0000000000
0
SPLINE
5
3BE
100
AcDbEntity
8
0
100
AcDbSpline
62
7
6
CONTINUOUS
70
0
71
3
72
11
73
7
74
5
42
0.0000001000
43
0.0000001000
44
0.0000000001
12
0.3066861965
22
0.0000000000
32
0.0000000000
13
0.2168598892
23
-0.2168598892
33
0.0000000000
40
0.0000000000
40
0.0000000000
40
0.0000000000
40
0.0000000000
40
0.3808556593
40
0.7046253431
40
0.9214198089
40
1.0000000000
40
1.0000000000
40
1.0000000000
40
1.0000000000
10
-5.1963034509
20
19.9287824309
30
0.0000000000
10
-5.1573690597
20
19.9287824309
30
0.0000000000
10
-5.0860222943
20
19.9271966149
30
0.0000000000
10
-4.9894045518
20
19.9318932345
30
0.0000000000
10
-4.9309289178
20
19.9208943028
30
0.0000000000
10
-4.8953263881
20
19.9318098225
30
0.0000000000
10
-4.8896460910
20
19.9261295253
30
0.0000000000
11
-5.1963034509
21
19.9287824309
31
0.0000000000
11
-5.0795004515
21
19.9285807104
31
0.0000000000
11
-4.9802064271
21
19.9280051014
31
0.0000000000
11
-4.9137241087
21
19.9271459072
31
0.0000000000
11
-4.8896460910
21
19.9261295253
31
0.0000000000
0
SPLINE
5
3BF
100
AcDbEntity
8
0
100
AcDbSpline
62
7
6
CONTINUOUS
70
0
71
3
72
11
73
7
74
5
42
0.0000001000
43
0.0000001000
44
0.0000000001
12
0.2168598892
22
0.2168598892
32
0.0000000000
13
0.3066861965
23
-0.0000000000
33
0.0000000000
40
0.0000000000
40
0.0000000000
40
0.0000000000
40
0.0000000000
40
0.0785801911
40
0.2953746569
40
0.6191443407
40
1.0000000000
40
1.0000000000
40
1.0000000000
40
1.0000000000
10
-5.5029608109
20
19.9261295253
30
0.0000000000
10
-5.4972805137
20
19.9318098225
30
0.0000000000
10
-5.4616779840
20
19.9208943028
30
0.0000000000
10
-5.4032023500
20
19.9318932345
30
0.0000000000
10
-5.3065846076
20
19.9271966149
30
0.0000000000
10
-5.2352378421
20
19.9287824309
30
0.0000000000
10
-5.1963034509
20
19.9287824309
30
0.0000000000
11
-5.5029608109
21
19.9261295253
31
0.0000000000
11
-5.4788827932
21
19.9271459072
31
0.0000000000
11
-5.4124004748
21
19.9280051014
31
0.0000000000
11
-5.3131064503
21
19.9285807104
31
0.0000000000
11
-5.1963034509
21
19.9287824309
31
0.0000000000
0
SPLINE
5
3C0
100
AcDbEntity
8
0
100
AcDbSpline
62
7
6
CONTINUOUS
70
0
71
3
72
8
73
4
74
2
42
0.0000001000
43
0.0000001000
44
0.0000000001
12
-0.0000018636
22
0.0085880091
32
0.0000000000
13
-0.0000018565
23
0.0085880091
33
0.0000000000
40
0.0000000000
40
0.0000000000
40
0.0000000000
40
0.0000000000
40
1.0000000000
40
1.0000000000
40
1.0000000000
40
1.0000000000
10
3.1906221638
20
-10.1944915658
30
0.0000000000
10
3.1906215426
20
-10.1916288961
30
0.0000000000
10
3.1906209225
20
-10.1887662264
30
0.0000000000
10
3.1906203037
20
-10.1859035567
30
0.0000000000
11
3.1906221638
21
-10.1944915658
31
0.0000000000
11
3.1906203037
21
-10.1859035567
31
0.0000000000
0
SPLINE
5
3C1
100
AcDbEntity
8
0
100
AcDbSpline
62
7
6
CONTINUOUS
70
0
71
3
72
8
73
4
74
2
42
0.0000001000
43
0.0000001000
44
0.0000000001
12
-0.0000018565
22
0.0085880292
32
0.0000000000
13
-0.0000018493
23
0.0085880292
33
0.0000000000
40
0.0000000000
40
0.0000000000
40
0.0000000000
40
0.0000000000
40
1.0000000000
40
1.0000000000
40
1.0000000000
40
1.0000000000
10
3.1906203037
20
-10.1859035567
30
0.0000000000
10
3.1906196849
20
-10.1830408803
30
0.0000000000
10
3.1906190673
20
-10.1801782039
30
0.0000000000
10
3.1906184508
20
-10.1773155274
30
0.0000000000
11
3.1906203037
21
-10.1859035567
31
0.0000000000
11
3.1906184508
21
-10.1773155274
31
0.0000000000
0
SPLINE
5
3C2
100
AcDbEntity
8
0
100
AcDbSpline
62
7
6
CONTINUOUS
70
0
71
3
72
8
73
4
74
2
42
0.0000001000
43
0.0000001000
44
0.0000000001
12
-0.0000018493
22
0.0085880494
32
0.0000000000
13
-0.0000018422
23
0.0085880494
33
0.0000000000
40
0.0000000000
40
0.0000000000
40
0.0000000000
40
0.0000000000
40
1.0000000000
40
1.0000000000
40
1.0000000000
40
1.0000000000
10
3.1906184508
20
-10.1773155274
30
0.0000000000
10
3.1906178344
20
-10.1744528443
30
0.0000000000
10
3.1906172191
20
-10.1715901612
30
0.0000000000
10
3.1906166051
20
-10.1687274781
30
0.0000000000
11
3.1906184508
21
-10.1773155274
31
0.0000000000
11
3.1906166051
21
-10.1687274781
31
0.0000000000
0
SPLINE
5
3C3
100
AcDbEntity
8
0
100
AcDbSpline
62
7
6
CONTINUOUS
70
0
71
3
72
8
73
4
74
2
42
0.0000001000
43
0.0000001000
44
0.0000000001
12
-0.0000018422
22
0.0085880696
32
0.0000000000
13
-0.0000018350
23
0.0085880696
33
0.0000000000
40
0.0000000000
40
0.0000000000
40
0.0000000000
40
0.0000000000
40
1.0000000000
40
1.0000000000
40
1.0000000000
40
1.0000000000
10
3.1906166051
20
-10.1687274781
30
0.0000000000
10
3.1906159910
20
-10.1658647882
30
0.0000000000
10
3.1906153781
20
-10.1630020983
30
0.0000000000
10
3.1906147665
20
-10.1601394084
30
0.0000000000
11
3.1906166051
21
-10.1687274781
31
0.0000000000
11
3.1906147665
21
-10.1601394084
31
0.0000000000
0
SPLINE
5
3C4
100
AcDbEntity
8
0
100
AcDbSpline
62
7
6
CONTINUOUS
70
0
71
3
72
8
73
4
74
2
42
0.0000001000
43
0.0000001000
44
0.0000000001
12
-0.0000018350
22
0.0085880898
32
0.0000000000
13
-0.0000018279
23
0.0085880898
33
0.0000000000
40
0.0000000000
40
0.0000000000
40
0.0000000000
40
0.0000000000
40
1.0000000000
40
1.0000000000
40
1.0000000000
40
1.0000000000
10
3.1906147665
20
-10.1601394084
30
0.0000000000
10
3.1906141548
20
-10.1572767118
30
0.0000000000
10
3.1906135443
20
-10.1544140153
30
0.0000000000
10
3.1906129350
20
-10.1515513187
30
0.0000000000
11
3.1906147665
21
-10.1601394084
31
0.0000000000
11
3.1906129350
21
-10.1515513187
31
0.0000000000
0
SPLINE
5
3C5
100
AcDbEntity
8
0
100
AcDbSpline
62
7
6
CONTINUOUS
70
0
71
3
72
8
73
4
74
2
42
0.0000001000
43
0.0000001000
44
0.0000000001
12
-0.0000018279
22
0.0085881097
32
0.0000000000
13
-0.0000018207
23
0.0085881097
33
0.0000000000
40
0.0000000000
40
0.0000000000
40
0.0000000000
40
0.0000000000
40
1.0000000000
40
1.0000000000
40
1.0000000000
40
1.0000000000
10
3.1906129350
20
-10.1515513187
30
0.0000000000
10
3.1906123257
20
-10.1486886154
30
0.0000000000
10
3.1906117176
20
-10.1458259122
30
0.0000000000
10
3.1906111107
20
-10.1429632090
30
0.0000000000
11
3.1906129350
21
-10.1515513187
31
0.0000000000
11
3.1906111107
21
-10.1429632090
31
0.0000000000
0
SPLINE
5
3C6
100
AcDbEntity
8
0
100
AcDbSpline
62
7
6
CONTINUOUS
70
0
71
3
72
8
73
4
74
2
42
0.0000001000
43
0.0000001000
44
0.0000000001
12
-0.0000018207
22
0.0085881295
32
0.0000000000
13
-0.0000018136
23
0.0085881295
33
0.0000000000
40
0.0000000000
40
0.0000000000
40
0.0000000000
40
0.0000000000
40
1.0000000000
40
1.0000000000
40
1.0000000000
40
1.0000000000
10
3.1906111107
20
-10.1429632090
30
0.0000000000
10
3.1906105038
20
-10.1401004991
30
0.0000000000
10
3.1906098981
20
-10.1372377893
30
0.0000000000
10
3.1906092936
20
-10.1343750795
30
0.0000000000
11
3.1906111107
21
-10.1429632090
31
0.0000000000
11
3.1906092936
21
-10.1343750795
31
0.0000000000
0
SPLINE
5
3C7
100
AcDbEntity
8
0
100
AcDbSpline
62
7
6
CONTINUOUS
70
0
71
3
72
8
73
4
74
2
42
0.0000001000
43
0.0000001000
44
0.0000000001
12
-0.0000018136
22
0.0085881494
32
0.0000000000
13
-0.0000018064
23
0.0085881494
33
0.0000000000
40
0.0000000000
40
0.0000000000
40
0.0000000000
40
0.0000000000
40
1.0000000000
40
1.0000000000
40
1.0000000000
40
1.0000000000
10
3.1906092936
20
-10.1343750795
30
0.0000000000
10
3.1906086890
20
-10.1315123630
30
0.0000000000
10
3.1906080857
20
-10.1286496465
30
0.0000000000
10
3.1906074836
20
-10.1257869300
30
0.0000000000
11
3.1906092936
21
-10.1343750795
31
0.0000000000
11
3.1906074836
21
-10.1257869300
31
0.0000000000
0
SPLINE
5
3C8
100
AcDbEntity
8
0
100
AcDbSpline
62
7
6
CONTINUOUS
70
0
71
3
72
8
73
4
74
2
42
0.0000001000
43
0.0000001000
44
0.0000000001
12
-0.0000018064
22
0.0085881693
32
0.0000000000
13
-0.0000017993
23
0.0085881693
33
0.0000000000
40
0.0000000000
40
0.0000000000
40
0.0000000000
40
0.0000000000
40
1.0000000000
40
1.0000000000
40
1.0000000000
40
1.0000000000
10
3.1906074836
20
-10.1257869300
30
0.0000000000
10
3.1906068814
20
-10.1229242069
30
0.0000000000
10
3.1906062805
20
-10.1200614838
30
0.0000000000
10
3.1906056807
20
-10.1171987607
30
0.0000000000
11
3.1906074836
21
-10.1257869300
31
0.0000000000
11
3.1906056807
21
-10.1171987607
31
0.0000000000
0
SPLINE
5
3C9
100
AcDbEntity
8
0
100
AcDbSpline
62
7
6
CONTINUOUS
70
0
71
3
72
8
73
4
74
2
42
0.0000001000
43
0.0000001000
44
0.0000000001
12
0.0000018636
22
0.0085880091
32
0.0000000000
13
0.0000018565
23
0.0085880091
33
0.0000000000
40
0.0000000000
40
0.0000000000
40
0.0000000000
40
0.0000000000
40
1.0000000000
40
1.0000000000
40
1.0000000000
40
1.0000000000
10
0.2167709344
20
-10.1944915658
30
0.0000000000
10
0.2167715556
20
-10.1916288961
30
0.0000000000
10
0.2167721756
20
-10.1887662264
30
0.0000000000
10
0.2167727944
20
-10.1859035567
30
0.0000000000
11
0.2167709344
21
-10.1944915658
31
0.0000000000
11
0.2167727944
21
-10.1859035567
31
0.0000000000
0
SPLINE
5
3CA
100
AcDbEntity
8
0
100
AcDbSpline
62
7
6
CONTINUOUS
70
0
71
3
72
8
73
4
74
2
42
0.0000001000
43
0.0000001000
44
0.0000000001
12
0.0000018565
22
0.0085880292
32
0.0000000000
13
0.0000018493
23
0.0085880292
33
0.0000000000
40
0.0000000000
40
0.0000000000
40
0.0000000000
40
0.0000000000
40
1.0000000000
40
1.0000000000
40
1.0000000000
40
1.0000000000
10
0.2167727944
20
-10.1859035567
30
0.0000000000
10
0.2167734133
20
-10.1830408803
30
0.0000000000
10
0.2167740309
20
-10.1801782039
30
0.0000000000
10
0.2167746473
20
-10.1773155274
30
0.0000000000
11
0.2167727944
21
-10.1859035567
31
0.0000000000
11
0.2167746473
21
-10.1773155274
31
0.0000000000
0
SPLINE
5
3CB
100
AcDbEntity
8
0
100
AcDbSpline
62
7
6
CONTINUOUS
70
0
71
3
72
8
73
4
74
2
42
0.0000001000
43
0.0000001000
44
0.0000000001
12
0.0000018493
22
0.0085880494
32
0.0000000000
13
0.0000018422
23
0.0085880494
33
0.0000000000
40
0.0000000000
40
0.0000000000
40
0.0000000000
40
0.0000000000
40
1.0000000000
40
1.0000000000
40
1.0000000000
40
1.0000000000
10
0.2167746473
20
-10.1773155274
30
0.0000000000
10
0.2167752638
20
-10.1744528443
30
0.0000000000
10
0.2167758790
20
-10.1715901612
30
0.0000000000
10
0.2167764931
20
-10.1687274781
30
0.0000000000
11
0.2167746473
21
-10.1773155274
31
0.0000000000
11
0.2167764931
21
-10.1687274781
31
0.0000000000
0
SPLINE
5
3CC
100
AcDbEntity
8
0
100
AcDbSpline
62
7
6
CONTINUOUS
70
0
71
3
72
8
73
4
74
2
42
0.0000001000
43
0.0000001000
44
0.0000000001
12
0.0000018422
22
0.0085880696
32
0.0000000000
13
0.0000018350
23
0.0085880696
33
0.0000000000
40
0.0000000000
40
0.0000000000
40
0.0000000000
40
0.0000000000
40
1.0000000000
40
1.0000000000
40
1.0000000000
40
1.0000000000
10
0.2167764931
20
-10.1687274781
30
0.0000000000
10
0.2167771072
20
-10.1658647882
30
0.0000000000
10
0.2167777200
20
-10.1630020983
30
0.0000000000
10
0.2167783317
20
-10.1601394084
30
0.0000000000
11
0.2167764931
21
-10.1687274781
31
0.0000000000
11
0.2167783317
21
-10.1601394084
31
0.0000000000
0
SPLINE
5
3CD
100
AcDbEntity
8
0
100
AcDbSpline
62
7
6
CONTINUOUS
70
0
71
3
72
8
73
4
74
2
42
0.0000001000
43
0.0000001000
44
0.0000000001
12
0.0000018350
22
0.0085880898
32
0.0000000000
13
0.0000018279
23
0.0085880898
33
0.0000000000
40
0.0000000000
40
0.0000000000
40
0.0000000000
40
0.0000000000
40
1.0000000000
40
1.0000000000
40
1.0000000000
40
1.0000000000
10
0.2167783317
20
-10.1601394084
30
0.0000000000
10
0.2167789434
20
-10.1572767118
30
0.0000000000
10
0.2167795539
20
-10.1544140153
30
0.0000000000
10
0.2167801632
20
-10.1515513187
30
0.0000000000
11
0.2167783317
21
-10.1601394084
31
0.0000000000
11
0.2167801632
21
-10.1515513187
31
0.0000000000
0
SPLINE
5
3CE
100
AcDbEntity
8
0
100
AcDbSpline
62
7
6
CONTINUOUS
70
0
71
3
72
8
73
4
74
2
42
0.0000001000
43
0.0000001000
44
0.0000000001
12
0.0000018279
22
0.0085881097
32
0.0000000000
13
0.0000018207
23
0.0085881097
33
0.0000000000
40
0.0000000000
40
0.0000000000
40
0.0000000000
40
0.0000000000
40
1.0000000000
40
1.0000000000
40
1.0000000000
40
1.0000000000
10
0.2167801632
20
-10.1515513187
30
0.0000000000
10
0.2167807724
20
-10.1486886154
30
0.0000000000
10
0.2167813805
20
-10.1458259122
30
0.0000000000
10
0.2167819874
20
-10.1429632090
30
0.0000000000
11
0.2167801632
21
-10.1515513187
31
0.0000000000
11
0.2167819874
21
-10.1429632090
31
0.0000000000
0
SPLINE
5
3CF
100
AcDbEntity
8
0
100
AcDbSpline
62
7
6
CONTINUOUS
70
0
71
3
72
8
73
4
74
2
42
0.0000001000
43
0.0000001000
44
0.0000000001
12
0.0000018207
22
0.0085881295
32
0.0000000000
13
0.0000018136
23
0.0085881295
33
0.0000000000
40
0.0000000000
40
0.0000000000
40
0.0000000000
40
0.0000000000
40
1.0000000000
40
1.0000000000
40
1.0000000000
40
1.0000000000
10
0.2167819874
20
-10.1429632090
30
0.0000000000
10
0.2167825944
20
-10.1401004991
30
0.0000000000
10
0.2167832001
20
-10.1372377893
30
0.0000000000
10
0.2167838046
20
-10.1343750795
30
0.0000000000
11
0.2167819874
21
-10.1429632090
31
0.0000000000
11
0.2167838046
21
-10.1343750795
31
0.0000000000
0
SPLINE
5
3D0
100
AcDbEntity
8
0
100
AcDbSpline
62
7
6
CONTINUOUS
70
0
71
3
72
8
73
4
74
2
42
0.0000001000
43
0.0000001000
44
0.0000000001
12
0.0000018136
22
0.0085881494
32
0.0000000000
13
0.0000018064
23
0.0085881494
33
0.0000000000
40
0.0000000000
40
0.0000000000
40
0.0000000000
40
0.0000000000
40
1.0000000000
40
1.0000000000
40
1.0000000000
40
1.0000000000
10
0.2167838046
20
-10.1343750795
30
0.0000000000
10
0.2167844091
20
-10.1315123630
30
0.0000000000
10
0.2167850124
20
-10.1286496465
30
0.0000000000
10
0.2167856146
20
-10.1257869300
30
0.0000000000
11
0.2167838046
21
-10.1343750795
31
0.0000000000
11
0.2167856146
21
-10.1257869300
31
0.0000000000
0
SPLINE
5
3D1
100
AcDbEntity
8
0
100
AcDbSpline
62
7
6
CONTINUOUS
70
0
71
3
72
8
73
4
74
2
42
0.0000001000
43
0.0000001000
44
0.0000000001
12
0.0000018064
22
0.0085881693
32
0.0000000000
13
0.0000017993
23
0.0085881693
33
0.0000000000
40
0.0000000000
40
0.0000000000
40
0.0000000000
40
0.0000000000
40
1.0000000000
40
1.0000000000
40
1.0000000000
40
1.0000000000
10
0.2167856146
20
-10.1257869300
30
0.0000000000
10
0.2167862167
20
-10.1229242069
30
0.0000000000
10
0.2167868177
20
-10.1200614838
30
0.0000000000
10
0.2167874174
20
-10.1171987607
30
0.0000000000
11
0.2167856146
21
-10.1257869300
31
0.0000000000
11
0.2167874174
21
-10.1171987607
31
0.0000000000
0
SPLINE
5
3D2
100
AcDbEntity
8
0
100
AcDbSpline
62
7
6
CONTINUOUS
70
0
71
3
72
11
73
7
74
5
42
0.0000001000
43
0.0000001000
44
0.0000000001
12
-0.0044445077
22
-0.1805764311
32
0.0000000000
13
-0.0000006037
23
-0.1806311189
33
0.0000000000
40
0.0000000000
40
0.0000000000
40
0.0000000000
40
0.0000000000
40
0.1534461691
40
0.3876025083
40
0.6795661487
40
1.0000000000
40
1.0000000000
40
1.0000000000
40
1.0000000000
10
-4.8885327261
20
-18.8366914651
30
0.0000000000
10
-4.8887600570
20
-18.8459277189
30
0.0000000000
10
-4.8890635769
20
-18.8692643037
30
0.0000000000
10
-4.8893919516
20
-18.9101796249
30
0.0000000000
10
-4.8895982246
20
-18.9611507878
30
0.0000000000
10
-4.8896460265
20
-18.9980234422
30
0.0000000000
10
-4.8896460910
20
-19.0173168839
30
0.0000000000
11
-4.8885327261
21
-18.8366914651
31
0.0000000000
11
-4.8889821597
21
-18.8644049743
31
0.0000000000
11
-4.8893390539
21
-18.9066993901
31
0.0000000000
11
-4.8895682361
21
-18.9594366111
31
0.0000000000
11
-4.8896460910
21
-19.0173168839
31
0.0000000000
0
SPLINE
5
3D3
100
AcDbEntity
8
0
100
AcDbSpline
62
7
6
CONTINUOUS
70
0
71
3
72
11
73
7
74
5
42
0.0000001000
43
0.0000001000
44
0.0000000001
12
-0.0044445077
22
-0.1805764311
32
0.0000000000
13
-0.0000006037
23
-0.1806311189
33
0.0000000000
40
0.0000000000
40
0.0000000000
40
0.0000000000
40
0.0000000000
40
0.1534461691
40
0.3876025083
40
0.6795661487
40
1.0000000000
40
1.0000000000
40
1.0000000000
40
1.0000000000
10
8.9114672739
20
-18.8366914651
30
0.0000000000
10
8.9112399430
20
-18.8459277189
30
0.0000000000
10
8.9109364231
20
-18.8692643037
30
0.0000000000
10
8.9106080484
20
-18.9101796249
30
0.0000000000
10
8.9104017754
20
-18.9611507878
30
0.0000000000
10
8.9103539735
20
-18.9980234422
30
0.0000000000
10
8.9103539090
20
-19.0173168839
30
0.0000000000
11
8.9114672739
21
-18.8366914651
31
0.0000000000
11
8.9110178403
21
-18.8644049743
31
0.0000000000
11
8.9106609461
21
-18.9066993901
31
0.0000000000
11
8.9104317639
21
-18.9594366111
31
0.0000000000
11
8.9103539090
21
-19.0173168839
31
0.0000000000
0
SPLINE
5
3D4
100
AcDbEntity
8
0
100
AcDbSpline
62
7
6
CONTINUOUS
70
0
71
3
72
11
73
7
74
5
42
0.0000001000
43
0.0000001000
44
0.0000000001
12
-0.0000025599
22
-0.1806311204
32
0.0000000000
13
0.0044232735
23
-0.1805769540
33
0.0000000000
40
0.0000000000
40
0.0000000000
40
0.0000000000
40
0.0000000000
40
0.3217102940
40
0.6135353252
40
0.8473154052
40
1.0000000000
40
1.0000000000
40
1.0000000000
40
1.0000000000
10
-4.8896460910
20
18.6828906544
30
0.0000000000
10
-4.8896463655
20
18.6635203574
30
0.0000000000
10
-4.8895978714
20
18.6265791901
30
0.0000000000
10
-4.8893904870
20
18.5755621872
30
0.0000000000
10
-4.8890633219
20
18.5347236904
30
0.0000000000
10
-4.8887578481
20
18.5114556753
30
0.0000000000
10
-4.8885327261
20
18.5022652356
30
0.0000000000
11
-4.8896460910
21
18.6828906544
31
0.0000000000
11
-4.8895675549
21
18.6247798166
31
0.0000000000
11
-4.8893377855
21
18.5720676350
31
0.0000000000
11
-4.8889806365
21
18.5298411876
31
0.0000000000
11
-4.8885327261
21
18.5022652356
31
0.0000000000
0
SPLINE
5
3D5
100
AcDbEntity
8
0
100
AcDbSpline
62
7
6
CONTINUOUS
70
0
71
3
72
11
73
7
74
5
42
0.0000001000
43
0.0000001000
44
0.0000000001
12
-0.0000025599
22
-0.1806311204
32
0.0000000000
13
0.0044232735
23
-0.1805769540
33
0.0000000000
40
0.0000000000
40
0.0000000000
40
0.0000000000
40
0.0000000000
40
0.3217102940
40
0.6135353252
40
0.8473154052
40
1.0000000000
40
1.0000000000
40
1.0000000000
40
1.0000000000
10
8.9103539090
20
18.6828906544
30
0.0000000000
10
8.9103536345
20
18.6635203574
30
0.0000000000
10
8.9104021286
20
18.6265791901
30
0.0000000000
10
8.9106095130
20
18.5755621872
30
0.0000000000
10
8.9109366781
20
18.5347236904
30
0.0000000000
10
8.9112421519
20
18.5114556753
30
0.0000000000
10
8.9114672739
20
18.5022652356
30
0.0000000000
11
8.9103539090
21
18.6828906544
31
0.0000000000
11
8.9104324451
21
18.6247798166
31
0.0000000000
11
8.9106622145
21
18.5720676350
31
0.0000000000
11
8.9110193635
21
18.5298411876
31
0.0000000000
11
8.9114672739
21
18.5022652356
31
0.0000000000
0
SPLINE
5
3D6
100
AcDbEntity
8
0
100
AcDbSpline
62
7
6
CONTINUOUS
70
0
71
3
72
11
73
7
74
5
42
0.0000001000
43
0.0000001000
44
0.0000000001
12
0.0000000000
22
-0.3122705094
32
0.0000000000
13
-0.3122705094
23
0.0000000000
33
0.0000000000
40
0.0000000000
40
0.0000000000
40
0.0000000000
40
0.0000000000
40
0.2505269837
40
0.5012379798
40
0.7512776228
40
1.0000000000
40
1.0000000000
40
1.0000000000
40
1.0000000000
10
-8.4463034509
20
22.4330003756
30
0.0000000000
10
-8.4463034509
20
22.4069229793
30
0.0000000000
10
-8.4567374779
20
22.3541774851
30
0.0000000000
10
-8.5013685883
20
22.2875671013
30
0.0000000000
10
-8.5678769911
20
22.2431364238
30
0.0000000000
10
-8.6203563843
20
22.2327868852
30
0.0000000000
10
-8.6462459388
20
22.2327868852
30
0.0000000000
11
-8.4463034509
21
22.4330003756
31
0.0000000000
11
-8.4615658454
21
22.3562714066
31
0.0000000000
11
-8.5050904886
21
22.2911954909
31
0.0000000000
11
-8.5700595386
21
22.2478883324
31
0.0000000000
11
-8.6462459388
21
22.2327868852
31
0.0000000000
0
SPLINE
5
3D7
100
AcDbEntity
8
0
100
AcDbSpline
62
7
6
CONTINUOUS
70
0
71
3
72
11
73
7
74
5
42
0.0000001000
43
0.0000001000
44
0.0000000001
12
-0.3122705094
22
0.0000000000
32
0.0000000000
13
0.0000000000
23
0.3122705094
33
0.0000000000
40
0.0000000000
40
0.0000000000
40
0.0000000000
40
0.0000000000
40
0.2487223772
40
0.4987620202
40
0.7494730163
40
1.0000000000
40
1.0000000000
40
1.0000000000
40
1.0000000000
10
-5.3463609630
20
22.2327868852
30
0.0000000000
10
-5.3722505175
20
22.2327868852
30
0.0000000000
10
-5.4247299107
20
22.2431364238
30
0.0000000000
10
-5.4912383135
20
22.2875671013
30
0.0000000000
10
-5.5358694239
20
22.3541774851
30
0.0000000000
10
-5.5463034509
20
22.4069229793
30
0.0000000000
10
-5.5463034509
20
22.4330003756
30
0.0000000000
11
-5.3463609630
21
22.2327868852
31
0.0000000000
11
-5.4225473632
21
22.2478883324
31
0.0000000000
11
-5.4875164133
21
22.2911954909
31
0.0000000000
11
-5.5310410565
21
22.3562714066
31
0.0000000000
11
-5.5463034509
21
22.4330003756
31
0.0000000000
0
SPLINE
5
3D8
100
AcDbEntity
8
0
100
AcDbSpline
62
7
6
CONTINUOUS
70
0
71
3
72
11
73
7
74
5
42
0.0000001000
43
0.0000001000
44
0.0000000001
12
0.0000000000
22
-0.3122705094
32
0.0000000000
13
-0.3122705094
23
0.0000000000
33
0.0000000000
40
0.0000000000
40
0.0000000000
40
0.0000000000
40
0.0000000000
40
0.2505269837
40
0.5012379798
40
0.7512776228
40
1.0000000000
40
1.0000000000
40
1.0000000000
40
1.0000000000
10
8.9536965491
20
22.4330003756
30
0.0000000000
10
8.9536965491
20
22.4069229793
30
0.0000000000
10
8.9432625221
20
22.3541774851
30
0.0000000000
10
8.8986314117
20
22.2875671013
30
0.0000000000
10
8.8321230089
20
22.2431364238
30
0.0000000000
10
8.7796436157
20
22.2327868852
30
0.0000000000
10
8.7537540612
20
22.2327868852
30
0.0000000000
11
8.9536965491
21
22.4330003756
31
0.0000000000
11
8.9384341546
21
22.3562714066
31
0.0000000000
11
8.8949095114
21
22.2911954909
31
0.0000000000
11
8.8299404614
21
22.2478883324
31
0.0000000000
11
8.7537540612
21
22.2327868852
31
0.0000000000
0
SPLINE
5
3D9
100
AcDbEntity
8
0
100
AcDbSpline
62
7
6
CONTINUOUS
70
0
71
3
72
11
73
7
74
5
42
0.0000001000
43
0.0000001000
44
0.0000000001
12
-0.3122705094
22
0.0000000000
32
0.0000000000
13
-0.0000000000
23
0.3122705094
33
0.0000000000
40
0.0000000000
40
0.0000000000
40
0.0000000000
40
0.0000000000
40
0.2487223772
40
0.4987620202
40
0.7494730163
40
1.0000000000
40
1.0000000000
40
1.0000000000
40
1.0000000000
10
12.0536390370
20
22.2327868852
30
0.0000000000
10
12.0277494825
20
22.2327868852
30
0.0000000000
10
11.9752700893
20
22.2431364238
30
0.0000000000
10
11.9087616865
20
22.2875671013
30
0.0000000000
10
11.8641305761
20
22.3541774851
30
0.0000000000
10
11.8536965491
20
22.4069229793
30
0.0000000000
10
11.8536965491
20
22.4330003756
30
0.0000000000
11
12.0536390370
21
22.2327868852
31
0.0000000000
11
11.9774526368
21
22.2478883324
31
0.0000000000
11
11.9124835867
21
22.2911954909
31
0.0000000000
11
11.8689589435
21
22.3562714066
31
0.0000000000
11
11.8536965491
21
22.4330003756
31
0.0000000000
0
SPLINE
5
3DA
100
AcDbEntity
8
0
100
AcDbSpline
62
7
6
CONTINUOUS
70
0
71
3
72
11
73
7
74
5
42
0.0000001000
43
0.0000001000
44
0.0000000001
12
0.3122705094
22
0.0000000000
32
0.0000000000
13
0.0000000000
23
-0.3122705094
33
0.0000000000
40
0.0000000000
40
0.0000000000
40
0.0000000000
40
0.0000000000
40
0.2487223772
40
0.4987620202
40
0.7494730163
40
1.0000000000
40
1.0000000000
40
1.0000000000
40
1.0000000000
10
-8.6462459388
20
-22.5672131148
30
0.0000000000
10
-8.6203563843
20
-22.5672131148
30
0.0000000000
10
-8.5678769911
20
-22.5775626533
30
0.0000000000
10
-8.5013685883
20
-22.6219933308
30
0.0000000000
10
-8.4567374779
20
-22.6886037146
30
0.0000000000
10
-8.4463034509
20
-22.7413492088
30
0.0000000000
10
-8.4463034509
20
-22.7674266051
30
0.0000000000
11
-8.6462459388
21
-22.5672131148
31
0.0000000000
11
-8.5700595386
21
-22.5823145619
31
0.0000000000
11
-8.5050904886
21
-22.6256217204
31
0.0000000000
11
-8.4615658454
21
-22.6906976361
31
0.0000000000
11
-8.4463034509
21
-22.7674266051
31
0.0000000000
0
SPLINE
5
3DB
100
AcDbEntity
8
0
100
AcDbSpline
62
7
6
CONTINUOUS
70
0
71
3
72
11
73
7
74
5
42
0.0000001000
43
0.0000001000
44
0.0000000001
12
0.0000000000
22
0.3122705094
32
0.0000000000
13
0.3122705094
23
0.0000000000
33
0.0000000000
40
0.0000000000
40
0.0000000000
40
0.0000000000
40
0.0000000000
40
0.2505269837
40
0.5012379798
40
0.7512776228
40
1.0000000000
40
1.0000000000
40
1.0000000000
40
1.0000000000
10
-5.5463034509
20
-22.7674266051
30
0.0000000000
10
-5.5463034509
20
-22.7413492088
30
0.0000000000
10
-5.5358694239
20
-22.6886037146
30
0.0000000000
10
-5.4912383135
20
-22.6219933308
30
0.0000000000
10
-5.4247299107
20
-22.5775626533
30
0.0000000000
10
-5.3722505175
20
-22.5672131148
30
0.0000000000
10
-5.3463609630
20
-22.5672131148
30
0.0000000000
11
-5.5463034509
21
-22.7674266051
31
0.0000000000
11
-5.5310410565
21
-22.6906976361
31
0.0000000000
11
-5.4875164133
21
-22.6256217204
31
0.0000000000
11
-5.4225473632
21
-22.5823145619
31
0.0000000000
11
-5.3463609630
21
-22.5672131148
31
0.0000000000
0
SPLINE
5
3DC
100
AcDbEntity
8
0
100
AcDbSpline
62
7
6
CONTINUOUS
70
0
71
3
72
11
73
7
74
5
42
0.0000001000
43
0.0000001000
44
0.0000000001
12
0.3122705094
22
0.0000000000
32
0.0000000000
13
-0.0000000000
23
-0.3122705094
33
0.0000000000
40
0.0000000000
40
0.0000000000
40
0.0000000000
40
0.0000000000
40
0.2487223772
40
0.4987620202
40
0.7494730163
40
1.0000000000
40
1.0000000000
40
1.0000000000
40
1.0000000000
10
8.7537540612
20
-22.5672131148
30
0.0000000000
10
8.7796436157
20
-22.5672131148
30
0.0000000000
10
8.8321230089
20
-22.5775626533
30
0.0000000000
10
8.8986314117
20
-22.6219933308
30
0.0000000000
10
8.9432625221
20
-22.6886037146
30
0.0000000000
10
8.9536965491
20
-22.7413492088
30
0.0000000000
10
8.9536965491
20
-22.7674266051
30
0.0000000000
11
8.7537540612
21
-22.5672131148
31
0.0000000000
11
8.8299404614
21
-22.5823145619
31
0.0000000000
11
8.8949095114
21
-22.6256217204
31
0.0000000000
11
8.9384341546
21
-22.6906976361
31
0.0000000000
11
8.9536965491
21
-22.7674266051
31
0.0000000000
0
SPLINE
5
3DD
100
AcDbEntity
8
0
100
AcDbSpline
62
7
6
CONTINUOUS
70
0
71
3
72
11
73
7
74
5
42
0.0000001000
43
0.0000001000
44
0.0000000001
12
0.0000000000
22
0.3122705094
32
0.0000000000
13
0.3122705094
23
0.0000000000
33
0.0000000000
40
0.0000000000
40
0.0000000000
40
0.0000000000
40
0.0000000000
40
0.2505269837
40
0.5012379798
40
0.7512776228
40
1.0000000000
40
1.0000000000
40
1.0000000000
40
1.0000000000
10
11.8536965491
20
-22.7674266051
30
0.0000000000
10
11.8536965491
20
-22.7413492088
30
0.0000000000
10
11.8641305761
20
-22.6886037146
30
0.0000000000
10
11.9087616865
20
-22.6219933308
30
0.0000000000
10
11.9752700893
20
-22.5775626533
30
0.0000000000
10
12.0277494825
20
-22.5672131148
30
0.0000000000
10
12.0536390370
20
-22.5672131148
30
0.0000000000
11
11.8536965491
21
-22.7674266051
31
0.0000000000
11
11.8689589435
21
-22.6906976361
31
0.0000000000
11
11.9124835867
21
-22.6256217204
31
0.0000000000
11
11.9774526368
21
-22.5823145619
31
0.0000000000
11
12.0536390370
21
-22.5672131148
31
0.0000000000
0
SPLINE
5
3DE
100
AcDbEntity
8
0
100
AcDbSpline
62
7
6
CONTINUOUS
70
0
71
3
72
10
73
6
74
4
42
0.0000001000
43
0.0000001000
44
0.0000000001
12
2.9511422099
22
-0.4377151624
32
0.0000000000
13
2.9511422099
23
0.4377151624
33
0.0000000000
40
0.0000000000
40
0.0000000000
40
0.0000000000
40
0.0000000000
40
0.3333381236
40
0.6666619499
40
1.0000000000
40
1.0000000000
40
1.0000000000
40
1.0000000000
10
0.2167709344
20
-10.1944915658
30
0.0000000000
10
0.5446803366
20
-10.2431272827
30
0.0000000000
10
1.2057385544
20
-10.3082345620
30
0.0000000000
10
2.2016546901
20
-10.3082345512
30
0.0000000000
10
2.8627128338
20
-10.2431272720
30
0.0000000000
10
3.1906221638
20
-10.1944915658
30
0.0000000000
11
0.2167709344
21
-10.1944915658
31
0.0000000000
11
1.2064730563
21
-10.2919584386
31
0.0000000000
11
2.2009202610
21
-10.2919584278
31
0.0000000000
11
3.1906221638
21
-10.1944915658
31
0.0000000000
0
SPLINE
5
3DF
100
AcDbEntity
8
0
100
AcDbSpline
62
7
6
CONTINUOUS
70
0
71
3
72
18
73
14
74
12
42
0.0000001000
43
0.0000001000
44
0.0000000001
12
0.0000132796
22
-0.3923546691
32
0.0000000000
13
0.3923546691
23
-0.0000132796
33
0.0000000000
40
0.0000000000
40
0.0000000000
40
0.0000000000
40
0.0000000000
40
0.0909209466
40
0.1818426652
40
0.2727646341
40
0.3636866866
40
0.4546085102
40
0.5455298998
40
0.6364502323
40
0.7273711591
40
0.8182867494
40
0.9092020002
40
1.0000000000
40
1.0000000000
40
1.0000000000
40
1.0000000000
10
-8.4419316169
20
-24.4128455115
30
0.0000000000
10
-8.4419312145
20
-24.4247365975
30
0.0000000000
10
-8.4402278194
20
-24.4485537443
30
0.0000000000
10
-8.4326170211
20
-24.4835243068
30
0.0000000000
10
-8.4201054755
20
-24.5170632048
30
0.0000000000
10
-8.4029480030
20
-24.5484779294
30
0.0000000000
10
-8.3814940186
20
-24.5771313493
30
0.0000000000
10
-8.3561805368
20
-24.6024393188
30
0.0000000000
10
-8.3275227502
20
-24.6238868881
30
0.0000000000
10
-8.2961053797
20
-24.6410370537
30
0.0000000000
10
-8.2625656188
20
-24.6535409547
30
0.0000000000
10
-8.2276109300
20
-24.6611410197
30
0.0000000000
10
-8.2038108541
20
-24.6628408788
30
0.0000000000
10
-8.1919358477
20
-24.6628412808
30
0.0000000000
11
-8.4419316169
21
-24.4128455115
31
0.0000000000
11
-8.4393852191
21
-24.4484277710
31
0.0000000000
11
-8.4318002449
21
-24.4832856411
31
0.0000000000
11
-8.4193311592
21
-24.5167091635
31
0.0000000000
11
-8.4022318940
21
-24.5480177473
31
0.0000000000
11
-8.3808507063
21
-24.5765738447
31
0.0000000000
11
-8.3556230343
21
-24.6017960234
31
0.0000000000
11
-8.3270627749
21
-24.6231706748
31
0.0000000000
11
-8.2957509110
21
-24.6402630110
31
0.0000000000
11
-8.2623271328
21
-24.6527242488
31
0.0000000000
11
-8.2274702373
21
-24.6603017633
31
0.0000000000
11
-8.1919358477
21
-24.6628412808
31
0.0000000000
0
SPLINE
5
3E0
100
AcDbEntity
8
0
100
AcDbSpline
62
7
6
CONTINUOUS
70
0
71
3
72
9
73
5
74
3
42
0.0000001000
43
0.0000001000
44
0.0000000001
12
0.0000000000
22
-0.0475573588
32
0.0000000000
13
0.0090083279
23
-0.0467385388
33
0.0000000000
40
0.0000000000
40
0.0000000000
40
0.0000000000
40
0.0000000000
40
0.7500208510
40
1.0000000000
40
1.0000000000
40
1.0000000000
40
1.0000000000
10
-8.4463034509
20
-24.4172173455
30
0.0000000000
10
-8.4463034509
20
-24.4291070158
30
0.0000000000
10
-8.4451687377
20
-24.4449827474
30
0.0000000000
10
-8.4425364923
20
-24.4606348570
30
0.0000000000
10
-8.4417858609
20
-24.4645294104
30
0.0000000000
11
-8.4463034509
21
-24.4172173455
31
0.0000000000
11
-8.4437589251
21
-24.4527954809
31
0.0000000000
11
-8.4417858609
21
-24.4645294104
31
0.0000000000
0
SPLINE
5
3E1
100
AcDbEntity
8
0
100
AcDbSpline
62
7
6
CONTINUOUS
70
0
71
3
72
10
73
6
74
4
42
0.0000001000
43
0.0000001000
44
0.0000000001
12
0.0157652643
22
-0.0817960248
32
0.0000000000
13
0.0416482642
23
-0.0721402392
33
0.0000000000
40
0.0000000000
40
0.0000000000
40
0.0000000000
40
0.0000000000
40
0.2857257878
40
0.7142907385
40
1.0000000000
40
1.0000000000
40
1.0000000000
40
1.0000000000
10
-8.4417858609
20
-24.4645294104
30
0.0000000000
10
-8.4402843467
20
-24.4723198216
30
0.0000000000
10
-8.4356041573
20
-24.4916136714
30
0.0000000000
10
-8.4258761127
20
-24.5176972603
30
0.0000000000
10
-8.4167771170
20
-24.5353450741
30
0.0000000000
10
-8.4128106854
20
-24.5422154523
30
0.0000000000
11
-8.4417858609
21
-24.4645294104
31
0.0000000000
11
-8.4361770926
21
-24.4876493938
31
0.0000000000
11
-8.4237122231
21
-24.5210695611
31
0.0000000000
11
-8.4128106854
21
-24.5422154523
31
0.0000000000
0
SPLINE
5
3E2
100
AcDbEntity
8
0
100
AcDbSpline
62
7
6
CONTINUOUS
70
0
71
3
72
12
73
8
74
6
42
0.0000001000
43
0.0000001000
44
0.0000000001
12
0.0654463912
22
-0.1133617068
32
0.0000000000
13
0.1133617068
23
-0.0654463912
33
0.0000000000
40
0.0000000000
40
0.0000000000
40
0.0000000000
40
0.0000000000
40
0.0909094935
40
0.3636364896
40
0.6363635104
40
0.9090905065
40
1.0000000000
40
1.0000000000
40
1.0000000000
40
1.0000000000
10
-8.4128106854
20
-24.5422154523
30
0.0000000000
10
-8.4108274526
20
-24.5456506707
30
0.0000000000
10
-8.4025677110
20
-24.5592027491
30
0.0000000000
10
-8.3858856253
20
-24.5814876127
30
0.0000000000
10
-8.3605779489
20
-24.6067952892
30
0.0000000000
10
-8.3382930852
20
-24.6234773748
30
0.0000000000
10
-8.3247410069
20
-24.6317371165
30
0.0000000000
10
-8.3213057884
20
-24.6337203492
30
0.0000000000
11
-8.4128106854
21
-24.5422154523
31
0.0000000000
11
-8.4066180091
21
-24.5523756207
31
0.0000000000
11
-8.3852424098
21
-24.5809302338
31
0.0000000000
11
-8.3600205700
21
-24.6061520736
31
0.0000000000
11
-8.3314659568
21
-24.6275276729
31
0.0000000000
11
-8.3213057884
21
-24.6337203492
31
0.0000000000
0
SPLINE
5
3E3
100
AcDbEntity
8
0
100
AcDbSpline
62
7
6
CONTINUOUS
70
0
71
3
72
11
73
7
74
5
42
0.0000001000
43
0.0000001000
44
0.0000000001
12
0.1133614279
22
-0.0654462302
32
0.0000000000
13
0.1307863814
23
0.0000000000
33
0.0000000000
40
0.0000000000
40
0.0000000000
40
0.0000000000
40
0.0000000000
40
0.1818178798
40
0.4545453732
40
0.7272727455
40
1.0000000000
40
1.0000000000
40
1.0000000000
40
1.0000000000
10
-8.3213057884
20
-24.6337203492
30
0.0000000000
10
-8.3144354103
20
-24.6376867808
30
0.0000000000
10
-8.2967875964
20
-24.6467857765
30
0.0000000000
10
-8.2669782545
20
-24.6579033650
30
0.0000000000
10
-8.2320116166
20
-24.6655109972
30
0.0000000000
10
-8.2081973520
20
-24.6672131148
30
0.0000000000
10
-8.1963076817
20
-24.6672131148
30
0.0000000000
11
-8.3213057884
21
-24.6337203492
31
0.0000000000
11
-8.3001598972
21
-24.6446218869
31
0.0000000000
11
-8.2667397299
21
-24.6570867565
31
0.0000000000
11
-8.2318858171
21
-24.6646685889
31
0.0000000000
11
-8.1963076817
21
-24.6672131148
31
0.0000000000
0
SPLINE
5
3E4
100
AcDbEntity
8
0
100
AcDbSpline
62
7
6
CONTINUOUS
70
0
71
3
72
18
73
14
74
12
42
0.0000001000
43
0.0000001000
44
0.0000000001
12
0.3923546692
22
0.0000132796
32
0.0000000000
13
0.0000132796
23
0.3923546692
33
0.0000000000
40
0.0000000000
40
0.0000000000
40
0.0000000000
40
0.0000000000
40
0.0909083271
40
0.1818170744
40
0.2727261901
40
0.3636355924
40
0.4545451767
40
0.5454548233
40
0.6363644076
40
0.7272738099
40
0.8181829256
40
0.9090916729
40
1.0000000000
40
1.0000000000
40
1.0000000000
40
1.0000000000
10
-5.8006710541
20
-24.6628412808
30
0.0000000000
10
-5.7887816186
20
-24.6628408783
30
0.0000000000
10
-5.7649678332
20
-24.6611379609
30
0.0000000000
10
-5.7300020033
20
-24.6535292939
30
0.0000000000
10
-5.6964672385
20
-24.6410212144
30
0.0000000000
10
-5.6650556822
20
-24.6238683449
30
0.0000000000
10
-5.6364042058
20
-24.6024198404
30
0.0000000000
10
-5.6110967252
20
-24.5771123599
30
0.0000000000
10
-5.5896482208
20
-24.5484608835
30
0.0000000000
10
-5.5724953513
20
-24.5170493271
30
0.0000000000
10
-5.5599872717
20
-24.4835145624
30
0.0000000000
10
-5.5523786048
20
-24.4485487325
30
0.0000000000
10
-5.5506756873
20
-24.4247349471
30
0.0000000000
10
-5.5506752849
20
-24.4128455115
30
0.0000000000
11
-5.8006710541
21
-24.6628412808
31
0.0000000000
11
-5.7650937080
21
-24.6602955896
31
0.0000000000
11
-5.7302405830
21
-24.6527127452
31
0.0000000000
11
-5.6968211575
21
-24.6402471056
31
0.0000000000
11
-5.6655157255
21
-24.6231524246
31
0.0000000000
11
-5.6369615478
21
-24.6017766854
31
0.0000000000
11
-5.6117398803
21
-24.5765550179
31
0.0000000000
11
-5.5903641411
21
-24.5480008402
31
0.0000000000
11
-5.5732694600
21
-24.5166954082
31
0.0000000000
11
-5.5608038205
21
-24.4832759827
31
0.0000000000
11
-5.5532209761
21
-24.4484228576
31
0.0000000000
11
-5.5506752849
21
-24.4128455115
31
0.0000000000
0
SPLINE
5
3E5
100
AcDbEntity
8
0
100
AcDbSpline
62
7
6
CONTINUOUS
70
0
71
3
72
9
73
5
74
3
42
0.0000001000
43
0.0000001000
44
0.0000000001
12
0.0475573588
22
0.0000000000
32
0.0000000000
13
0.0467385388
23
0.0090083279
33
0.0000000000
40
0.0000000000
40
0.0000000000
40
0.0000000000
40
0.0000000000
40
0.7500208510
40
1.0000000000
40
1.0000000000
40
1.0000000000
40
1.0000000000
10
-5.7962992201
20
-24.6672131148
30
0.0000000000
10
-5.7844095499
20
-24.6672131148
30
0.0000000000
10
-5.7685338182
20
-24.6660784015
30
0.0000000000
10
-5.7528817087
20
-24.6634461561
30
0.0000000000
10
-5.7489871553
20
-24.6626955247
30
0.0000000000
11
-5.7962992201
21
-24.6672131148
31
0.0000000000
11
-5.7607210848
21
-24.6646685889
31
0.0000000000
11
-5.7489871553
21
-24.6626955247
31
0.0000000000
0
SPLINE
5
3E6
100
AcDbEntity
8
0
100
AcDbSpline
62
7
6
CONTINUOUS
70
0
71
3
72
10
73
6
74
4
42
0.0000001000
43
0.0000001000
44
0.0000000001
12
0.0817960248
22
0.0157652643
32
0.0000000000
13
0.0721402392
23
0.0416482642
33
0.0000000000
40
0.0000000000
40
0.0000000000
40
0.0000000000
40
0.0000000000
40
0.2857257878
40
0.7142907385
40
1.0000000000
40
1.0000000000
40
1.0000000000
40
1.0000000000
10
-5.7489871553
20
-24.6626955247
30
0.0000000000
10
-5.7411967441
20
-24.6611940106
30
0.0000000000
10
-5.7219028943
20
-24.6565138211
30
0.0000000000
10
-5.6958193054
20
-24.6467857765
30
0.0000000000
10
-5.6781714916
20
-24.6376867808
30
0.0000000000
10
-5.6713011134
20
-24.6337203492
30
0.0000000000
11
-5.7489871553
21
-24.6626955247
31
0.0000000000
11
-5.7258671719
21
-24.6570867565
31
0.0000000000
11
-5.6924470046
21
-24.6446218869
31
0.0000000000
11
-5.6713011134
21
-24.6337203492
31
0.0000000000
0
SPLINE
5
3E7
100
AcDbEntity
8
0
100
AcDbSpline
62
7
6
CONTINUOUS
70
0
71
3
72
12
73
8
74
6
42
0.0000001000
43
0.0000001000
44
0.0000000001
12
0.1133617068
22
0.0654463912
32
0.0000000000
13
0.0654463912
23
0.1133617068
33
0.0000000000
40
0.0000000000
40
0.0000000000
40
0.0000000000
40
0.0000000000
40
0.0909094935
40
0.3636364896
40
0.6363635104
40
0.9090905065
40
1.0000000000
40
1.0000000000
40
1.0000000000
40
1.0000000000
10
-5.6713011134
20
-24.6337203492
30
0.0000000000
10
-5.6678658949
20
-24.6317371165
30
0.0000000000
10
-5.6543138166
20
-24.6234773748
30
0.0000000000
10
-5.6320289529
20
-24.6067952892
30
0.0000000000
10
-5.6067212765
20
-24.5814876127
30
0.0000000000
10
-5.5900391908
20
-24.5592027491
30
0.0000000000
10
-5.5817794492
20
-24.5456506707
30
0.0000000000
10
-5.5797962165
20
-24.5422154523
30
0.0000000000
11
-5.6713011134
21
-24.6337203492
31
0.0000000000
11
-5.6611409450
21
-24.6275276729
31
0.0000000000
11
-5.6325863319
21
-24.6061520736
31
0.0000000000
11
-5.6073644921
21
-24.5809302338
31
0.0000000000
11
-5.5859888928
21
-24.5523756207
31
0.0000000000
11
-5.5797962165
21
-24.5422154523
31
0.0000000000
0
SPLINE
5
3E8
100
AcDbEntity
8
0
100
AcDbSpline
62
7
6
CONTINUOUS
70
0
71
3
72
11
73
7
74
5
42
0.0000001000
43
0.0000001000
44
0.0000000001
12
0.0654462302
22
0.1133614279
32
0.0000000000
13
0.0000000000
23
0.1307863814
33
0.0000000000
40
0.0000000000
40
0.0000000000
40
0.0000000000
40
0.0000000000
40
0.1818178798
40
0.4545453732
40
0.7272727455
40
1.0000000000
40
1.0000000000
40
1.0000000000
40
1.0000000000
10
-5.5797962165
20
-24.5422154523
30
0.0000000000
10
-5.5758297849
20
-24.5353450741
30
0.0000000000
10
-5.5667307891
20
-24.5176972603
30
0.0000000000
10
-5.5556132007
20
-24.4878879183
30
0.0000000000
10
-5.5480055685
20
-24.4529212804
30
0.0000000000
10
-5.5463034509
20
-24.4291070158
30
0.0000000000
10
-5.5463034509
20
-24.4172173455
30
0.0000000000
11
-5.5797962165
21
-24.5422154523
31
0.0000000000
11
-5.5688946787
21
-24.5210695611
31
0.0000000000
11
-5.5564298092
21
-24.4876493938
31
0.0000000000
11
-5.5488479768
21
-24.4527954809
31
0.0000000000
11
-5.5463034509
21
-24.4172173455
31
0.0000000000
0
SPLINE
5
3E9
100
AcDbEntity
8
0
100
AcDbSpline
62
7
6
CONTINUOUS
70
0
71
3
72
18
73
14
74
12
42
0.0000001000
43
0.0000001000
44
0.0000000001
12
0.3923546691
22
0.0000132796
32
0.0000000000
13
0.0000132796
23
0.3923546691
33
0.0000000000
40
0.0000000000
40
0.0000000000
40
0.0000000000
40
0.0000000000
40
0.0907979998
40
0.1817132506
40
0.2726288409
40
0.3635497677
40
0.4544701002
40
0.5453914898
40
0.6363133134
40
0.7272353659
40
0.8181573348
40
0.9090790534
40
1.0000000000
40
1.0000000000
40
1.0000000000
40
1.0000000000
10
11.5993289459
20
-24.6628412808
30
0.0000000000
10
11.6112039523
20
-24.6628408788
30
0.0000000000
10
11.6350040281
20
-24.6611410197
30
0.0000000000
10
11.6699587170
20
-24.6535409547
30
0.0000000000
10
11.7034984778
20
-24.6410370537
30
0.0000000000
10
11.7349158483
20
-24.6238868881
30
0.0000000000
10
11.7635736349
20
-24.6024393188
30
0.0000000000
10
11.7888871168
20
-24.5771313493
30
0.0000000000
10
11.8103411012
20
-24.5484779294
30
0.0000000000
10
11.8274985736
20
-24.5170632048
30
0.0000000000
10
11.8400101193
20
-24.4835243068
30
0.0000000000
10
11.8476209176
20
-24.4485537443
30
0.0000000000
10
11.8493243126
20
-24.4247365975
30
0.0000000000
10
11.8493247151
20
-24.4128455115
30
0.0000000000
11
11.5993289459
21
-24.6628412808
31
0.0000000000
11
11.6348633355
21
-24.6603017633
31
0.0000000000
11
11.6697202310
21
-24.6527242488
31
0.0000000000
11
11.7031440092
21
-24.6402630110
31
0.0000000000
11
11.7344558731
21
-24.6231706748
31
0.0000000000
11
11.7630161325
21
-24.6017960234
31
0.0000000000
11
11.7882438044
21
-24.5765738447
31
0.0000000000
11
11.8096249921
21
-24.5480177473
31
0.0000000000
11
11.8267242573
21
-24.5167091635
31
0.0000000000
11
11.8391933430
21
-24.4832856411
31
0.0000000000
11
11.8467783173
21
-24.4484277710
31
0.0000000000
11
11.8493247151
21
-24.4128455115
31
0.0000000000
0
SPLINE
5
3EA
100
AcDbEntity
8
0
100
AcDbSpline
62
7
6
CONTINUOUS
70
0
71
3
72
9
73
5
74
3
42
0.0000001000
43
0.0000001000
44
0.0000000001
12
0.0475573588
22
0.0000000000
32
0.0000000000
13
0.0467385388
23
0.0090083279
33
0.0000000000
40
0.0000000000
40
0.0000000000
40
0.0000000000
40
0.0000000000
40
0.7500208510
40
1.0000000000
40
1.0000000000
40
1.0000000000
40
1.0000000000
10
11.6037007799
20
-24.6672131148
30
0.0000000000
10
11.6155904501
20
-24.6672131148
30
0.0000000000
10
11.6314661818
20
-24.6660784015
30
0.0000000000
10
11.6471182913
20
-24.6634461561
30
0.0000000000
10
11.6510128447
20
-24.6626955247
30
0.0000000000
11
11.6037007799
21
-24.6672131148
31
0.0000000000
11
11.6392789152
21
-24.6646685889
31
0.0000000000
11
11.6510128447
21
-24.6626955247
31
0.0000000000
0
SPLINE
5
3EB
100
AcDbEntity
8
0
100
AcDbSpline
62
7
6
CONTINUOUS
70
0
71
3
72
10
73
6
74
4
42
0.0000001000
43
0.0000001000
44
0.0000000001
12
0.0817960248
22
0.0157652643
32
0.0000000000
13
0.0721402392
23
0.0416482642
33
0.0000000000
40
0.0000000000
40
0.0000000000
40
0.0000000000
40
0.0000000000
40
0.2857257878
40
0.7142907385
40
1.0000000000
40
1.0000000000
40
1.0000000000
40
1.0000000000
10
11.6510128447
20
-24.6626955247
30
0.0000000000
10
11.6588032559
20
-24.6611940106
30
0.0000000000
10
11.6780971057
20
-24.6565138211
30
0.0000000000
10
11.7041806946
20
-24.6467857765
30
0.0000000000
10
11.7218285084
20
-24.6376867808
30
0.0000000000
10
11.7286988866
20
-24.6337203492
30
0.0000000000
11
11.6510128447
21
-24.6626955247
31
0.0000000000
11
11.6741328281
21
-24.6570867565
31
0.0000000000
11
11.7075529954
21
-24.6446218869
31
0.0000000000
11
11.7286988866
21
-24.6337203492
31
0.0000000000
0
SPLINE
5
3EC
100
AcDbEntity
8
0
100
AcDbSpline
62
7
6
CONTINUOUS
70
0
71
3
72
12
73
8
74
6
42
0.0000001000
43
0.0000001000
44
0.0000000001
12
0.1133617068
22
0.0654463912
32
0.0000000000
13
0.0654463912
23
0.1133617068
33
0.0000000000
40
0.0000000000
40
0.0000000000
40
0.0000000000
40
0.0000000000
40
0.0909094935
40
0.3636364896
40
0.6363635104
40
0.9090905065
40
1.0000000000
40
1.0000000000
40
1.0000000000
40
1.0000000000
10
11.7286988866
20
-24.6337203492
30
0.0000000000
10
11.7321341051
20
-24.6317371165
30
0.0000000000
10
11.7456861834
20
-24.6234773748
30
0.0000000000
10
11.7679710471
20
-24.6067952892
30
0.0000000000
10
11.7932787235
20
-24.5814876127
30
0.0000000000
10
11.8099608092
20
-24.5592027491
30
0.0000000000
10
11.8182205508
20
-24.5456506707
30
0.0000000000
10
11.8202037835
20
-24.5422154523
30
0.0000000000
11
11.7286988866
21
-24.6337203492
31
0.0000000000
11
11.7388590550
21
-24.6275276729
31
0.0000000000
11
11.7674136681
21
-24.6061520736
31
0.0000000000
11
11.7926355079
21
-24.5809302338
31
0.0000000000
11
11.8140111072
21
-24.5523756207
31
0.0000000000
11
11.8202037835
21
-24.5422154523
31
0.0000000000
0
SPLINE
5
3ED
100
AcDbEntity
8
0
100
AcDbSpline
62
7
6
CONTINUOUS
70
0
71
3
72
11
73
7
74
5
42
0.0000001000
43
0.0000001000
44
0.0000000001
12
0.0654462302
22
0.1133614279
32
0.0000000000
13
0.0000000000
23
0.1307863814
33
0.0000000000
40
0.0000000000
40
0.0000000000
40
0.0000000000
40
0.0000000000
40
0.1818178798
40
0.4545453732
40
0.7272727455
40
1.0000000000
40
1.0000000000
40
1.0000000000
40
1.0000000000
10
11.8202037835
20
-24.5422154523
30
0.0000000000
10
11.8241702151
20
-24.5353450741
30
0.0000000000
10
11.8332692109
20
-24.5176972603
30
0.0000000000
10
11.8443867993
20
-24.4878879183
30
0.0000000000
10
11.8519944315
20
-24.4529212804
30
0.0000000000
10
11.8536965491
20
-24.4291070158
30
0.0000000000
10
11.8536965491
20
-24.4172173455
30
0.0000000000
11
11.8202037835
21
-24.5422154523
31
0.0000000000
11
11.8311053213
21
-24.5210695611
31
0.0000000000
11
11.8435701908
21
-24.4876493938
31
0.0000000000
11
11.8511520232
21
-24.4527954809
31
0.0000000000
11
11.8536965491
21
-24.4172173455
31
0.0000000000
0
SPLINE
5
3EE
100
AcDbEntity
8
0
100
AcDbSpline
62
7
6
CONTINUOUS
70
0
71
3
72
18
73
14
74
12
42
0.0000001000
43
0.0000001000
44
0.0000000001
12
0.0000132796
22
-0.3923546692
32
0.0000000000
13
0.3923546692
23
-0.0000132796
33
0.0000000000
40
0.0000000000
40
0.0000000000
40
0.0000000000
40
0.0000000000
40
0.0909083271
40
0.1818170744
40
0.2727261901
40
0.3636355924
40
0.4545451767
40
0.5454548233
40
0.6363644076
40
0.7272738099
40
0.8181829256
40
0.9090916729
40
1.0000000000
40
1.0000000000
40
1.0000000000
40
1.0000000000
10
8.9580683831
20
-24.4128455115
30
0.0000000000
10
8.9580687855
20
-24.4247349471
30
0.0000000000
10
8.9597717030
20
-24.4485487325
30
0.0000000000
10
8.9673803699
20
-24.4835145624
30
0.0000000000
10
8.9798884495
20
-24.5170493271
30
0.0000000000
10
8.9970413189
20
-24.5484608835
30
0.0000000000
10
9.0184898234
20
-24.5771123599
30
0.0000000000
10
9.0437973039
20
-24.6024198404
30
0.0000000000
10
9.0724487803
20
-24.6238683449
30
0.0000000000
10
9.1038603367
20
-24.6410212144
30
0.0000000000
10
9.1373951014
20
-24.6535292939
30
0.0000000000
10
9.1723609314
20
-24.6611379609
30
0.0000000000
10
9.1961747168
20
-24.6628408783
30
0.0000000000
10
9.2080641523
20
-24.6628412808
30
0.0000000000
11
8.9580683831
21
-24.4128455115
31
0.0000000000
11
8.9606140742
21
-24.4484228576
31
0.0000000000
11
8.9681969187
21
-24.4832759827
31
0.0000000000
11
8.9806625582
21
-24.5166954082
31
0.0000000000
11
8.9977572393
21
-24.5480008402
31
0.0000000000
11
9.0191329784
21
-24.5765550179
31
0.0000000000
11
9.0443546460
21
-24.6017766854
31
0.0000000000
11
9.0729088236
21
-24.6231524246
31
0.0000000000
11
9.1042142556
21
-24.6402471056
31
0.0000000000
11
9.1376336811
21
-24.6527127452
31
0.0000000000
11
9.1724868062
21
-24.6602955896
31
0.0000000000
11
9.2080641523
21
-24.6628412808
31
0.0000000000
0
SPLINE
5
3EF
100
AcDbEntity
8
0
100
AcDbSpline
62
7
6
CONTINUOUS
70
0
71
3
72
9
73
5
74
3
42
0.0000001000
43
0.0000001000
44
0.0000000001
12
0.0000000000
22
-0.0475573588
32
0.0000000000
13
0.0090083279
23
-0.0467385388
33
0.0000000000
40
0.0000000000
40
0.0000000000
40
0.0000000000
40
0.0000000000
40
0.7500208510
40
1.0000000000
40
1.0000000000
40
1.0000000000
40
1.0000000000
10
8.9536965491
20
-24.4172173455
30
0.0000000000
10
8.9536965491
20
-24.4291070158
30
0.0000000000
10
8.9548312623
20
-24.4449827474
30
0.0000000000
10
8.9574635077
20
-24.4606348570
30
0.0000000000
10
8.9582141391
20
-24.4645294104
30
0.0000000000
11
8.9536965491
21
-24.4172173455
31
0.0000000000
11
8.9562410749
21
-24.4527954809
31
0.0000000000
11
8.9582141391
21
-24.4645294104
31
0.0000000000
0
SPLINE
5
3F0
100
AcDbEntity
8
0
100
AcDbSpline
62
7
6
CONTINUOUS
70
0
71
3
72
10
73
6
74
4
42
0.0000001000
43
0.0000001000
44
0.0000000001
12
0.0157652643
22
-0.0817960248
32
0.0000000000
13
0.0416482642
23
-0.0721402392
33
0.0000000000
40
0.0000000000
40
0.0000000000
40
0.0000000000
40
0.0000000000
40
0.2857257878
40
0.7142907385
40
1.0000000000
40
1.0000000000
40
1.0000000000
40
1.0000000000
10
8.9582141391
20
-24.4645294104
30
0.0000000000
10
8.9597156533
20
-24.4723198216
30
0.0000000000
10
8.9643958427
20
-24.4916136714
30
0.0000000000
10
8.9741238873
20
-24.5176972603
30
0.0000000000
10
8.9832228830
20
-24.5353450741
30
0.0000000000
10
8.9871893146
20
-24.5422154523
30
0.0000000000
11
8.9582141391
21
-24.4645294104
31
0.0000000000
11
8.9638229074
21
-24.4876493938
31
0.0000000000
11
8.9762877769
21
-24.5210695611
31
0.0000000000
11
8.9871893146
21
-24.5422154523
31
0.0000000000
0
SPLINE
5
3F1
100
AcDbEntity
8
0
100
AcDbSpline
62
7
6
CONTINUOUS
70
0
71
3
72
12
73
8
74
6
42
0.0000001000
43
0.0000001000
44
0.0000000001
12
0.0654463912
22
-0.1133617068
32
0.0000000000
13
0.1133617068
23
-0.0654463912
33
0.0000000000
40
0.0000000000
40
0.0000000000
40
0.0000000000
40
0.0000000000
40
0.0909094935
40
0.3636364896
40
0.6363635104
40
0.9090905065
40
1.0000000000
40
1.0000000000
40
1.0000000000
40
1.0000000000
10
8.9871893146
20
-24.5422154523
30
0.0000000000
10
8.9891725474
20
-24.5456506707
30
0.0000000000
10
8.9974322890
20
-24.5592027491
30
0.0000000000
10
9.0141143747
20
-24.5814876127
30
0.0000000000
10
9.0394220511
20
-24.6067952892
30
0.0000000000
10
9.0617069148
20
-24.6234773748
30
0.0000000000
10
9.0752589931
20
-24.6317371165
30
0.0000000000
10
9.0786942116
20
-24.6337203492
30
0.0000000000
11
8.9871893146
21
-24.5422154523
31
0.0000000000
11
8.9933819909
21
-24.5523756207
31
0.0000000000
11
9.0147575902
21
-24.5809302338
31
0.0000000000
11
9.0399794300
21
-24.6061520736
31
0.0000000000
11
9.0685340432
21
-24.6275276729
31
0.0000000000
11
9.0786942116
21
-24.6337203492
31
0.0000000000
0
SPLINE
5
3F2
100
AcDbEntity
8
0
100
AcDbSpline
62
7
6
CONTINUOUS
70
0
71
3
72
11
73
7
74
5
42
0.0000001000
43
0.0000001000
44
0.0000000001
12
0.1133614279
22
-0.0654462302
32
0.0000000000
13
0.1307863814
23
0.0000000000
33
0.0000000000
40
0.0000000000
40
0.0000000000
40
0.0000000000
40
0.0000000000
40
0.1818178798
40
0.4545453732
40
0.7272727455
40
1.0000000000
40
1.0000000000
40
1.0000000000
40
1.0000000000
10
9.0786942116
20
-24.6337203492
30
0.0000000000
10
9.0855645897
20
-24.6376867808
30
0.0000000000
10
9.1032124036
20
-24.6467857765
30
0.0000000000
10
9.1330217455
20
-24.6579033650
30
0.0000000000
10
9.1679883834
20
-24.6655109972
30
0.0000000000
10
9.1918026480
20
-24.6672131148
30
0.0000000000
10
9.2036923183
20
-24.6672131148
30
0.0000000000
11
9.0786942116
21
-24.6337203492
31
0.0000000000
11
9.0998401028
21
-24.6446218869
31
0.0000000000
11
9.1332602701
21
-24.6570867565
31
0.0000000000
11
9.1681141829
21
-24.6646685889
31
0.0000000000
11
9.2036923183
21
-24.6672131148
31
0.0000000000
0
SPLINE
5
3F3
100
AcDbEntity
8
0
100
AcDbSpline
62
7
6
CONTINUOUS
70
0
71
3
72
18
73
14
74
12
42
0.0000001000
43
0.0000001000
44
0.0000000001
12
-0.3923546691
22
-0.0000132796
32
0.0000000000
13
-0.0000132796
23
-0.3923546691
33
0.0000000000
40
0.0000000000
40
0.0000000000
40
0.0000000000
40
0.0000000000
40
0.0907979998
40
0.1817132506
40
0.2726288409
40
0.3635497677
40
0.4544701002
40
0.5453914898
40
0.6363133134
40
0.7272353659
40
0.8181573348
40
0.9090790534
40
1.0000000000
40
1.0000000000
40
1.0000000000
40
1.0000000000
10
-8.1919358477
20
24.3284150512
30
0.0000000000
10
-8.2038108541
20
24.3284146493
30
0.0000000000
10
-8.2276109300
20
24.3267147902
30
0.0000000000
10
-8.2625656188
20
24.3191147251
30
0.0000000000
10
-8.2961053797
20
24.3066108242
30
0.0000000000
10
-8.3275227502
20
24.2894606585
30
0.0000000000
10
-8.3561805368
20
24.2680130893
30
0.0000000000
10
-8.3814940186
20
24.2427051198
30
0.0000000000
10
-8.4029480030
20
24.2140516999
30
0.0000000000
10
-8.4201054755
20
24.1826369753
30
0.0000000000
10
-8.4326170211
20
24.1490980772
30
0.0000000000
10
-8.4402278194
20
24.1141275148
30
0.0000000000
10
-8.4419312145
20
24.0903103680
30
0.0000000000
10
-8.4419316169
20
24.0784192820
30
0.0000000000
11
-8.1919358477
21
24.3284150512
31
0.0000000000
11
-8.2274702373
21
24.3258755338
31
0.0000000000
11
-8.2623271328
21
24.3182980193
31
0.0000000000
11
-8.2957509110
21
24.3058367815
31
0.0000000000
11
-8.3270627749
21
24.2887444453
31
0.0000000000
11
-8.3556230343
21
24.2673697939
31
0.0000000000
11
-8.3808507063
21
24.2421476152
31
0.0000000000
11
-8.4022318940
21
24.2135915178
31
0.0000000000
11
-8.4193311592
21
24.1822829340
31
0.0000000000
11
-8.4318002449
21
24.1488594116
31
0.0000000000
11
-8.4393852191
21
24.1140015415
31
0.0000000000
11
-8.4419316169
21
24.0784192820
31
0.0000000000
0
SPLINE
5
3F4
100
AcDbEntity
8
0
100
AcDbSpline
62
7
6
CONTINUOUS
70
0
71
3
72
9
73
5
74
3
42
0.0000001000
43
0.0000001000
44
0.0000000001
12
-0.0475573588
22
0.0000000000
32
0.0000000000
13
-0.0467385388
23
-0.0090083279
33
0.0000000000
40
0.0000000000
40
0.0000000000
40
0.0000000000
40
0.0000000000
40
0.7500208510
40
1.0000000000
40
1.0000000000
40
1.0000000000
40
1.0000000000
10
-8.1963076817
20
24.3327868852
30
0.0000000000
10
-8.2081973520
20
24.3327868852
30
0.0000000000
10
-8.2240730836
20
24.3316521720
30
0.0000000000
10
-8.2397251932
20
24.3290199266
30
0.0000000000
10
-8.2436197466
20
24.3282692952
30
0.0000000000
11
-8.1963076817
21
24.3327868852
31
0.0000000000
11
-8.2318858171
21
24.3302423594
31
0.0000000000
11
-8.2436197466
21
24.3282692952
31
0.0000000000
0
SPLINE
5
3F5
100
AcDbEntity
8
0
100
AcDbSpline
62
7
6
CONTINUOUS
70
0
71
3
72
10
73
6
74
4
42
0.0000001000
43
0.0000001000
44
0.0000000001
12
-0.0817960248
22
-0.0157652643
32
0.0000000000
13
-0.0721402392
23
-0.0416482642
33
0.0000000000
40
0.0000000000
40
0.0000000000
40
0.0000000000
40
0.0000000000
40
0.2857257878
40
0.7142907385
40
1.0000000000
40
1.0000000000
40
1.0000000000
40
1.0000000000
10
-8.2436197466
20
24.3282692952
30
0.0000000000
10
-8.2514101578
20
24.3267677811
30
0.0000000000
10
-8.2707040075
20
24.3220875916
30
0.0000000000
10
-8.2967875964
20
24.3123595470
30
0.0000000000
10
-8.3144354103
20
24.3032605513
30
0.0000000000
10
-8.3213057884
20
24.2992941197
30
0.0000000000
11
-8.2436197466
21
24.3282692952
31
0.0000000000
11
-8.2667397299
21
24.3226605270
31
0.0000000000
11
-8.3001598972
21
24.3101956574
31
0.0000000000
11
-8.3213057884
21
24.2992941197
31
0.0000000000
0
SPLINE
5
3F6
100
AcDbEntity
8
0
100
AcDbSpline
62
7
6
CONTINUOUS
70
0
71
3
72
12
73
8
74
6
42
0.0000001000
43
0.0000001000
44
0.0000000001
12
-0.1133617068
22
-0.0654463912
32
0.0000000000
13
-0.0654463912
23
-0.1133617068
33
0.0000000000
40
0.0000000000
40
0.0000000000
40
0.0000000000
40
0.0000000000
40
0.0909094935
40
0.3636364896
40
0.6363635104
40
0.9090905065
40
1.0000000000
40
1.0000000000
40
1.0000000000
40
1.0000000000
10
-8.3213057884
20
24.2992941197
30
0.0000000000
10
-8.3247410069
20
24.2973108869
30
0.0000000000
10
-8.3382930852
20
24.2890511453
30
0.0000000000
10
-8.3605779489
20
24.2723690597
30
0.0000000000
10
-8.3858856253
20
24.2470613832
30
0.0000000000
10
-8.4025677110
20
24.2247765195
30
0.0000000000
10
-8.4108274526
20
24.2112244412
30
0.0000000000
10
-8.4128106854
20
24.2077892228
30
0.0000000000
11
-8.3213057884
21
24.2992941197
31
0.0000000000
11
-8.3314659568
21
24.2931014434
31
0.0000000000
11
-8.3600205700
21
24.2717258441
31
0.0000000000
11
-8.3852424098
21
24.2465040043
31
0.0000000000
11
-8.4066180091
21
24.2179493912
31
0.0000000000
11
-8.4128106854
21
24.2077892228
31
0.0000000000
0
SPLINE
5
3F7
100
AcDbEntity
8
0
100
AcDbSpline
62
7
6
CONTINUOUS
70
0
71
3
72
11
73
7
74
5
42
0.0000001000
43
0.0000001000
44
0.0000000001
12
-0.0654462302
22
-0.1133614279
32
0.0000000000
13
-0.0000000000
23
-0.1307863814
33
0.0000000000
40
0.0000000000
40
0.0000000000
40
0.0000000000
40
0.0000000000
40
0.1818178798
40
0.4545453732
40
0.7272727455
40
1.0000000000
40
1.0000000000
40
1.0000000000
40
1.0000000000
10
-8.4128106854
20
24.2077892228
30
0.0000000000
10
-8.4167771170
20
24.2009188446
30
0.0000000000
10
-8.4258761127
20
24.1832710308
30
0.0000000000
10
-8.4369937012
20
24.1534616888
30
0.0000000000
10
-8.4446013334
20
24.1184950509
30
0.0000000000
10
-8.4463034509
20
24.0946807863
30
0.0000000000
10
-8.4463034509
20
24.0827911160
30
0.0000000000
11
-8.4128106854
21
24.2077892228
31
0.0000000000
11
-8.4237122231
21
24.1866433315
31
0.0000000000
11
-8.4361770926
21
24.1532231642
31
0.0000000000
11
-8.4437589251
21
24.1183692514
31
0.0000000000
11
-8.4463034509
21
24.0827911160
31
0.0000000000
0
SPLINE
5
3F8
100
AcDbEntity
8
0
100
AcDbSpline
62
7
6
CONTINUOUS
70
0
71
3
72
18
73
14
74
12
42
0.0000001000
43
0.0000001000
44
0.0000000001
12
-0.0000132796
22
0.3923546692
32
0.0000000000
13
-0.3923546692
23
0.0000132796
33
0.0000000000
40
0.0000000000
40
0.0000000000
40
0.0000000000
40
0.0000000000
40
0.0909083271
40
0.1818170744
40
0.2727261901
40
0.3636355924
40
0.4545451767
40
0.5454548233
40
0.6363644076
40
0.7272738099
40
0.8181829256
40
0.9090916729
40
1.0000000000
40
1.0000000000
40
1.0000000000
40
1.0000000000
10
-5.5506752849
20
24.0784192820
30
0.0000000000
10
-5.5506756873
20
24.0903087176
30
0.0000000000
10
-5.5523786048
20
24.1141225030
30
0.0000000000
10
-5.5599872717
20
24.1490883329
30
0.0000000000
10
-5.5724953513
20
24.1826230976
30
0.0000000000
10
-5.5896482208
20
24.2140346540
30
0.0000000000
10
-5.6110967252
20
24.2426861304
30
0.0000000000
10
-5.6364042058
20
24.2679936109
30
0.0000000000
10
-5.6650556822
20
24.2894421154
30
0.0000000000
10
-5.6964672385
20
24.3065949849
30
0.0000000000
10
-5.7300020033
20
24.3191030644
30
0.0000000000
10
-5.7649678332
20
24.3267117314
30
0.0000000000
10
-5.7887816186
20
24.3284146488
30
0.0000000000
10
-5.8006710541
20
24.3284150512
30
0.0000000000
11
-5.5506752849
21
24.0784192820
31
0.0000000000
11
-5.5532209761
21
24.1139966281
31
0.0000000000
11
-5.5608038205
21
24.1488497532
31
0.0000000000
11
-5.5732694600
21
24.1822691787
31
0.0000000000
11
-5.5903641411
21
24.2135746107
31
0.0000000000
11
-5.6117398803
21
24.2421287883
31
0.0000000000
11
-5.6369615478
21
24.2673504559
31
0.0000000000
11
-5.6655157255
21
24.2887261951
31
0.0000000000
11
-5.6968211575
21
24.3058208761
31
0.0000000000
11
-5.7302405830
21
24.3182865157
31
0.0000000000
11
-5.7650937080
21
24.3258693601
31
0.0000000000
11
-5.8006710541
21
24.3284150512
31
0.0000000000
0
SPLINE
5
3F9
100
AcDbEntity
8
0
100
AcDbSpline
62
7
6
CONTINUOUS
70
0
71
3
72
9
73
5
74
3
42
0.0000001000
43
0.0000001000
44
0.0000000001
12
0.0000000000
22
0.0475573588
32
0.0000000000
13
-0.0090083279
23
0.0467385388
33
0.0000000000
40
0.0000000000
40
0.0000000000
40
0.0000000000
40
0.0000000000
40
0.7500208510
40
1.0000000000
40
1.0000000000
40
1.0000000000
40
1.0000000000
10
-5.5463034509
20
24.0827911160
30
0.0000000000
10
-5.5463034509
20
24.0946807863
30
0.0000000000
10
-5.5474381642
20
24.1105565179
30
0.0000000000
10
-5.5500704096
20
24.1262086275
30
0.0000000000
10
-5.5508210409
20
24.1301031809
30
0.0000000000
11
-5.5463034509
21
24.0827911160
31
0.0000000000
11
-5.5488479768
21
24.1183692514
31
0.0000000000
11
-5.5508210409
21
24.1301031809
31
0.0000000000
0
SPLINE
5
3FA
100
AcDbEntity
8
0
100
AcDbSpline
62
7
6
CONTINUOUS
70
0
71
3
72
10
73
6
74
4
42
0.0000001000
43
0.0000001000
44
0.0000000001
12
-0.0157652643
22
0.0817960248
32
0.0000000000
13
-0.0416482642
23
0.0721402392
33
0.0000000000
40
0.0000000000
40
0.0000000000
40
0.0000000000
40
0.0000000000
40
0.2857257878
40
0.7142907385
40
1.0000000000
40
1.0000000000
40
1.0000000000
40
1.0000000000
10
-5.5508210409
20
24.1301031809
30
0.0000000000
10
-5.5523225551
20
24.1378935921
30
0.0000000000
10
-5.5570027446
20
24.1571874419
30
0.0000000000
10
-5.5667307891
20
24.1832710308
30
0.0000000000
10
-5.5758297849
20
24.2009188446
30
0.0000000000
10
-5.5797962165
20
24.2077892228
30
0.0000000000
11
-5.5508210409
21
24.1301031809
31
0.0000000000
11
-5.5564298092
21
24.1532231642
31
0.0000000000
11
-5.5688946787
21
24.1866433315
31
0.0000000000
11
-5.5797962165
21
24.2077892228
31
0.0000000000
0
SPLINE
5
3FB
100
AcDbEntity
8
0
100
AcDbSpline
62
7
6
CONTINUOUS
70
0
71
3
72
12
73
8
74
6
42
0.0000001000
43
0.0000001000
44
0.0000000001
12
-0.0654463912
22
0.1133617068
32
0.0000000000
13
-0.1133617068
23
0.0654463912
33
0.0000000000
40
0.0000000000
40
0.0000000000
40
0.0000000000
40
0.0000000000
40
0.0909094935
40
0.3636364896
40
0.6363635104
40
0.9090905065
40
1.0000000000
40
1.0000000000
40
1.0000000000
40
1.0000000000
10
-5.5797962165
20
24.2077892228
30
0.0000000000
10
-5.5817794492
20
24.2112244412
30
0.0000000000
10
-5.5900391908
20
24.2247765195
30
0.0000000000
10
-5.6067212765
20
24.2470613832
30
0.0000000000
10
-5.6320289529
20
24.2723690597
30
0.0000000000
10
-5.6543138166
20
24.2890511453
30
0.0000000000
10
-5.6678658949
20
24.2973108869
30
0.0000000000
10
-5.6713011134
20
24.2992941197
30
0.0000000000
11
-5.5797962165
21
24.2077892228
31
0.0000000000
11
-5.5859888928
21
24.2179493912
31
0.0000000000
11
-5.6073644921
21
24.2465040043
31
0.0000000000
11
-5.6325863319
21
24.2717258441
31
0.0000000000
11
-5.6611409450
21
24.2931014434
31
0.0000000000
11
-5.6713011134
21
24.2992941197
31
0.0000000000
0
SPLINE
5
3FC
100
AcDbEntity
8
0
100
AcDbSpline
62
7
6
CONTINUOUS
70
0
71
3
72
11
73
7
74
5
42
0.0000001000
43
0.0000001000
44
0.0000000001
12
-0.1133614279
22
0.0654462302
32
0.0000000000
13
-0.1307863814
23
0.0000000000
33
0.0000000000
40
0.0000000000
40
0.0000000000
40
0.0000000000
40
0.0000000000
40
0.1818178798
40
0.4545453732
40
0.7272727455
40
1.0000000000
40
1.0000000000
40
1.0000000000
40
1.0000000000
10
-5.6713011134
20
24.2992941197
30
0.0000000000
10
-5.6781714916
20
24.3032605513
30
0.0000000000
10
-5.6958193054
20
24.3123595470
30
0.0000000000
10
-5.7256286474
20
24.3234771355
30
0.0000000000
10
-5.7605952852
20
24.3310847677
30
0.0000000000
10
-5.7844095499
20
24.3327868852
30
0.0000000000
10
-5.7962992201
20
24.3327868852
30
0.0000000000
11
-5.6713011134
21
24.2992941197
31
0.0000000000
11
-5.6924470046
21
24.3101956574
31
0.0000000000
11
-5.7258671719
21
24.3226605270
31
0.0000000000
11
-5.7607210848
21
24.3302423594
31
0.0000000000
11
-5.7962992201
21
24.3327868852
31
0.0000000000
0
SPLINE
5
3FD
100
AcDbEntity
8
0
100
AcDbSpline
62
7
6
CONTINUOUS
70
0
71
3
72
18
73
14
74
12
42
0.0000001000
43
0.0000001000
44
0.0000000001
12
-0.3923546691
22
-0.0000132796
32
0.0000000000
13
-0.0000132796
23
-0.3923546691
33
0.0000000000
40
0.0000000000
40
0.0000000000
40
0.0000000000
40
0.0000000000
40
0.0907979998
40
0.1817132506
40
0.2726288409
40
0.3635497677
40
0.4544701002
40
0.5453914898
40
0.6363133134
40
0.7272353659
40
0.8181573348
40
0.9090790534
40
1.0000000000
40
1.0000000000
40
1.0000000000
40
1.0000000000
10
9.2080641523
20
24.3284150512
30
0.0000000000
10
9.1961891459
20
24.3284146493
30
0.0000000000
10
9.1723890700
20
24.3267147902
30
0.0000000000
10
9.1374343812
20
24.3191147251
30
0.0000000000
10
9.1038946203
20
24.3066108242
30
0.0000000000
10
9.0724772498
20
24.2894606585
30
0.0000000000
10
9.0438194632
20
24.2680130893
30
0.0000000000
10
9.0185059814
20
24.2427051198
30
0.0000000000
10
8.9970519970
20
24.2140516999
30
0.0000000000
10
8.9798945245
20
24.1826369753
30
0.0000000000
10
8.9673829789
20
24.1490980772
30
0.0000000000
10
8.9597721806
20
24.1141275148
30
0.0000000000
10
8.9580687855
20
24.0903103680
30
0.0000000000
10
8.9580683831
20
24.0784192820
30
0.0000000000
11
9.2080641523
21
24.3284150512
31
0.0000000000
11
9.1725297627
21
24.3258755338
31
0.0000000000
11
9.1376728672
21
24.3182980193
31
0.0000000000
11
9.1042490890
21
24.3058367815
31
0.0000000000
11
9.0729372251
21
24.2887444453
31
0.0000000000
11
9.0443769657
21
24.2673697939
31
0.0000000000
11
9.0191492937
21
24.2421476152
31
0.0000000000
11
8.9977681060
21
24.2135915178
31
0.0000000000
11
8.9806688408
21
24.1822829340
31
0.0000000000
11
8.9681997551
21
24.1488594116
31
0.0000000000
11
8.9606147809
21
24.1140015415
31
0.0000000000
11
8.9580683831
21
24.0784192820
31
0.0000000000
0
SPLINE
5
3FE
100
AcDbEntity
8
0
100
AcDbSpline
62
7
6
CONTINUOUS
70
0
71
3
72
9
73
5
74
3
42
0.0000001000
43
0.0000001000
44
0.0000000001
12
-0.0475573588
22
0.0000000000
32
0.0000000000
13
-0.0467385388
23
-0.0090083279
33
0.0000000000
40
0.0000000000
40
0.0000000000
40
0.0000000000
40
0.0000000000
40
0.7500208510
40
1.0000000000
40
1.0000000000
40
1.0000000000
40
1.0000000000
10
9.2036923183
20
24.3327868852
30
0.0000000000
10
9.1918026480
20
24.3327868852
30
0.0000000000
10
9.1759269164
20
24.3316521720
30
0.0000000000
10
9.1602748068
20
24.3290199266
30
0.0000000000
10
9.1563802534
20
24.3282692952
30
0.0000000000
11
9.2036923183
21
24.3327868852
31
0.0000000000
11
9.1681141829
21
24.3302423594
31
0.0000000000
11
9.1563802534
21
24.3282692952
31
0.0000000000
0
SPLINE
5
3FF
100
AcDbEntity
8
0
100
AcDbSpline
62
7
6
CONTINUOUS
70
0
71
3
72
10
73
6
74
4
42
0.0000001000
43
0.0000001000
44
0.0000000001
12
-0.0817960248
22
-0.0157652643
32
0.0000000000
13
-0.0721402392
23
-0.0416482642
33
0.0000000000
40
0.0000000000
40
0.0000000000
40
0.0000000000
40
0.0000000000
40
0.2857257878
40
0.7142907385
40
1.0000000000
40
1.0000000000
40
1.0000000000
40
1.0000000000
10
9.1563802534
20
24.3282692952
30
0.0000000000
10
9.1485898422
20
24.3267677811
30
0.0000000000
10
9.1292959925
20
24.3220875916
30
0.0000000000
10
9.1032124036
20
24.3123595470
30
0.0000000000
10
9.0855645897
20
24.3032605513
30
0.0000000000
10
9.0786942116
20
24.2992941197
30
0.0000000000
11
9.1563802534
21
24.3282692952
31
0.0000000000
11
9.1332602701
21
24.3226605270
31
0.0000000000
11
9.0998401028
21
24.3101956574
31
0.0000000000
11
9.0786942116
21
24.2992941197
31
0.0000000000
0
SPLINE
5
400
100
AcDbEntity
8
0
100
AcDbSpline
62
7
6
CONTINUOUS
70
0
71
3
72
12
73
8
74
6
42
0.0000001000
43
0.0000001000
44
0.0000000001
12
-0.1133617068
22
-0.0654463912
32
0.0000000000
13
-0.0654463912
23
-0.1133617068
33
0.0000000000
40
0.0000000000
40
0.0000000000
40
0.0000000000
40
0.0000000000
40
0.0909094935
40
0.3636364896
40
0.6363635104
40
0.9090905065
40
1.0000000000
40
1.0000000000
40
1.0000000000
40
1.0000000000
10
9.0786942116
20
24.2992941197
30
0.0000000000
10
9.0752589931
20
24.2973108869
30
0.0000000000
10
9.0617069148
20
24.2890511453
30
0.0000000000
10
9.0394220511
20
24.2723690597
30
0.0000000000
10
9.0141143747
20
24.2470613832
30
0.0000000000
10
8.9974322890
20
24.2247765195
30
0.0000000000
10
8.9891725474
20
24.2112244412
30
0.0000000000
10
8.9871893146
20
24.2077892228
30
0.0000000000
11
9.0786942116
21
24.2992941197
31
0.0000000000
11
9.0685340432
21
24.2931014434
31
0.0000000000
11
9.0399794300
21
24.2717258441
31
0.0000000000
11
9.0147575902
21
24.2465040043
31
0.0000000000
11
8.9933819909
21
24.2179493912
31
0.0000000000
11
8.9871893146
21
24.2077892228
31
0.0000000000
0
SPLINE
5
401
100
AcDbEntity
8
0
100
AcDbSpline
62
7
6
CONTINUOUS
70
0
71
3
72
11
73
7
74
5
42
0.0000001000
43
0.0000001000
44
0.0000000001
12
-0.0654462302
22
-0.1133614279
32
0.0000000000
13
-0.0000000000
23
-0.1307863814
33
0.0000000000
40
0.0000000000
40
0.0000000000
40
0.0000000000
40
0.0000000000
40
0.1818178798
40
0.4545453732
40
0.7272727455
40
1.0000000000
40
1.0000000000
40
1.0000000000
40
1.0000000000
10
8.9871893146
20
24.2077892228
30
0.0000000000
10
8.9832228830
20
24.2009188446
30
0.0000000000
10
8.9741238873
20
24.1832710308
30
0.0000000000
10
8.9630062988
20
24.1534616888
30
0.0000000000
10
8.9553986666
20
24.1184950509
30
0.0000000000
10
8.9536965491
20
24.0946807863
30
0.0000000000
10
8.9536965491
20
24.0827911160
30
0.0000000000
11
8.9871893146
21
24.2077892228
31
0.0000000000
11
8.9762877769
21
24.1866433315
31
0.0000000000
11
8.9638229074
21
24.1532231642
31
0.0000000000
11
8.9562410749
21
24.1183692514
31
0.0000000000
11
8.9536965491
21
24.0827911160
31
0.0000000000
0
SPLINE
5
402
100
AcDbEntity
8
0
100
AcDbSpline
62
7
6
CONTINUOUS
70
0
71
3
72
18
73
14
74
12
42
0.0000001000
43
0.0000001000
44
0.0000000001
12
-0.0000132796
22
0.3923546691
32
0.0000000000
13
-0.3923546691
23
0.0000132796
33
0.0000000000
40
0.0000000000
40
0.0000000000
40
0.0000000000
40
0.0000000000
40
0.0909209466
40
0.1818426652
40
0.2727646341
40
0.3636866866
40
0.4546085102
40
0.5455298998
40
0.6364502323
40
0.7273711591
40
0.8182867494
40
0.9092020002
40
1.0000000000
40
1.0000000000
40
1.0000000000
40
1.0000000000
10
11.8493247151
20
24.0784192820
30
0.0000000000
10
11.8493243126
20
24.0903103680
30
0.0000000000
10
11.8476209176
20
24.1141275148
30
0.0000000000
10
11.8400101193
20
24.1490980772
30
0.0000000000
10
11.8274985736
20
24.1826369753
30
0.0000000000
10
11.8103411012
20
24.2140516999
30
0.0000000000
10
11.7888871168
20
24.2427051198
30
0.0000000000
10
11.7635736349
20
24.2680130893
30
0.0000000000
10
11.7349158483
20
24.2894606585
30
0.0000000000
10
11.7034984778
20
24.3066108242
30
0.0000000000
10
11.6699587170
20
24.3191147251
30
0.0000000000
10
11.6350040281
20
24.3267147902
30
0.0000000000
10
11.6112039523
20
24.3284146493
30
0.0000000000
10
11.5993289459
20
24.3284150512
30
0.0000000000
11
11.8493247151
21
24.0784192820
31
0.0000000000
11
11.8467783173
21
24.1140015415
31
0.0000000000
11
11.8391933430
21
24.1488594116
31
0.0000000000
11
11.8267242573
21
24.1822829340
31
0.0000000000
11
11.8096249921
21
24.2135915178
31
0.0000000000
11
11.7882438044
21
24.2421476152
31
0.0000000000
11
11.7630161325
21
24.2673697939
31
0.0000000000
11
11.7344558731
21
24.2887444453
31
0.0000000000
11
11.7031440092
21
24.3058367815
31
0.0000000000
11
11.6697202310
21
24.3182980193
31
0.0000000000
11
11.6348633355
21
24.3258755338
31
0.0000000000
11
11.5993289459
21
24.3284150512
31
0.0000000000
0
SPLINE
5
403
100
AcDbEntity
8
0
100
AcDbSpline
62
7
6
CONTINUOUS
70
0
71
3
72
9
73
5
74
3
42
0.0000001000
43
0.0000001000
44
0.0000000001
12
0.0000000000
22
0.0475573588
32
0.0000000000
13
-0.0090083279
23
0.0467385388
33
0.0000000000
40
0.0000000000
40
0.0000000000
40
0.0000000000
40
0.0000000000
40
0.7500208510
40
1.0000000000
40
1.0000000000
40
1.0000000000
40
1.0000000000
10
11.8536965491
20
24.0827911160
30
0.0000000000
10
11.8536965491
20
24.0946807863
30
0.0000000000
10
11.8525618358
20
24.1105565179
30
0.0000000000
10
11.8499295904
20
24.1262086275
30
0.0000000000
10
11.8491789591
20
24.1301031809
30
0.0000000000
11
11.8536965491
21
24.0827911160
31
0.0000000000
11
11.8511520232
21
24.1183692514
31
0.0000000000
11
11.8491789591
21
24.1301031809
31
0.0000000000
0
SPLINE
5
404
100
AcDbEntity
8
0
100
AcDbSpline
62
7
6
CONTINUOUS
70
0
71
3
72
10
73
6
74
4
42
0.0000001000
43
0.0000001000
44
0.0000000001
12
-0.0157652643
22
0.0817960248
32
0.0000000000
13
-0.0416482642
23
0.0721402392
33
0.0000000000
40
0.0000000000
40
0.0000000000
40
0.0000000000
40
0.0000000000
40
0.2857257878
40
0.7142907385
40
1.0000000000
40
1.0000000000
40
1.0000000000
40
1.0000000000
10
11.8491789591
20
24.1301031809
30
0.0000000000
10
11.8476774449
20
24.1378935921
30
0.0000000000
10
11.8429972554
20
24.1571874419
30
0.0000000000
10
11.8332692109
20
24.1832710308
30
0.0000000000
10
11.8241702151
20
24.2009188446
30
0.0000000000
10
11.8202037835
20
24.2077892228
30
0.0000000000
11
11.8491789591
21
24.1301031809
31
0.0000000000
11
11.8435701908
21
24.1532231642
31
0.0000000000
11
11.8311053213
21
24.1866433315
31
0.0000000000
11
11.8202037835
21
24.2077892228
31
0.0000000000
0
SPLINE
5
405
100
AcDbEntity
8
0
100
AcDbSpline
62
7
6
CONTINUOUS
70
0
71
3
72
12
73
8
74
6
42
0.0000001000
43
0.0000001000
44
0.0000000001
12
-0.0654463912
22
0.1133617068
32
0.0000000000
13
-0.1133617068
23
0.0654463912
33
0.0000000000
40
0.0000000000
40
0.0000000000
40
0.0000000000
40
0.0000000000
40
0.0909094935
40
0.3636364896
40
0.6363635104
40
0.9090905065
40
1.0000000000
40
1.0000000000
40
1.0000000000
40
1.0000000000
10
11.8202037835
20
24.2077892228
30
0.0000000000
10
11.8182205508
20
24.2112244412
30
0.0000000000
10
11.8099608092
20
24.2247765195
30
0.0000000000
10
11.7932787235
20
24.2470613832
30
0.0000000000
10
11.7679710471
20
24.2723690597
30
0.0000000000
10
11.7456861834
20
24.2890511453
30
0.0000000000
10
11.7321341051
20
24.2973108869
30
0.0000000000
10
11.7286988866
20
24.2992941197
30
0.0000000000
11
11.8202037835
21
24.2077892228
31
0.0000000000
11
11.8140111072
21
24.2179493912
31
0.0000000000
11
11.7926355079
21
24.2465040043
31
0.0000000000
11
11.7674136681
21
24.2717258441
31
0.0000000000
11
11.7388590550
21
24.2931014434
31
0.0000000000
11
11.7286988866
21
24.2992941197
31
0.0000000000
0
SPLINE
5
406
100
AcDbEntity
8
0
100
AcDbSpline
62
7
6
CONTINUOUS
70
0
71
3
72
11
73
7
74
5
42
0.0000001000
43
0.0000001000
44
0.0000000001
12
-0.1133614279
22
0.0654462302
32
0.0000000000
13
-0.1307863814
23
0.0000000000
33
0.0000000000
40
0.0000000000
40
0.0000000000
40
0.0000000000
40
0.0000000000
40
0.1818178798
40
0.4545453732
40
0.7272727455
40
1.0000000000
40
1.0000000000
40
1.0000000000
40
1.0000000000
10
11.7286988866
20
24.2992941197
30
0.0000000000
10
11.7218285084
20
24.3032605513
30
0.0000000000
10
11.7041806946
20
24.3123595470
30
0.0000000000
10
11.6743713526
20
24.3234771355
30
0.0000000000
10
11.6394047148
20
24.3310847677
30
0.0000000000
10
11.6155904501
20
24.3327868852
30
0.0000000000
10
11.6037007799
20
24.3327868852
30
0.0000000000
11
11.7286988866
21
24.2992941197
31
0.0000000000
11
11.7075529954
21
24.3101956574
31
0.0000000000
11
11.6741328281
21
24.3226605270
31
0.0000000000
11
11.6392789152
21
24.3302423594
31
0.0000000000
11
11.6037007799
21
24.3327868852
31
0.0000000000
0
SPLINE
5
407
100
AcDbEntity
8
0
100
AcDbSpline
62
7
6
CONTINUOUS
70
0
71
3
72
8
73
4
74
2
42
0.0000001000
43
0.0000001000
44
0.0000000001
12
0.0017480002
22
-0.0017480002
32
0.0000000000
13
0.0001440396
23
-0.0024678456
33
0.0000000000
40
0.0000000000
40
0.0000000000
40
0.0000000000
40
0.0000000000
40
1.0000000000
40
1.0000000000
40
1.0000000000
40
1.0000000000
10
-2.7026528041
20
23.7891362384
30
0.0000000000
10
-2.7020701373
20
23.7885535717
30
0.0000000000
10
-2.7024292171
20
23.7875017735
30
0.0000000000
10
-2.7023812039
20
23.7866791583
30
0.0000000000
11
-2.7026528041
21
23.7891362384
31
0.0000000000
11
-2.7023812039
21
23.7866791583
31
0.0000000000
0
SPLINE
5
408
100
AcDbEntity
8
0
100
AcDbSpline
62
7
6
CONTINUOUS
70
0
71
3
72
16
73
12
74
10
42
0.0000001000
43
0.0000001000
44
0.0000000001
12
0.0000000000
22
1.5108333805
32
0.0000000000
13
-0.0000000000
23
-1.5108333805
33
0.0000000000
40
0.0000000000
40
0.0000000000
40
0.0000000000
40
0.0000000000
40
0.1174297571
40
0.2302526980
40
0.3406739543
40
0.4467200433
40
0.5532799567
40
0.6593260457
40
0.7697473020
40
0.8825702429
40
1.0000000000
40
1.0000000000
40
1.0000000000
40
1.0000000000
10
8.1347542935
20
-12.2857431039
30
0.0000000000
10
8.1347542935
20
-12.2266041716
30
0.0000000000
10
8.1545489605
20
-12.1096596866
30
0.0000000000
10
8.2391662023
20
-11.9568096967
30
0.0000000000
10
8.3663730967
20
-11.8450218335
30
0.0000000000
10
8.5216178617
20
-11.7857635166
30
0.0000000000
10
8.6857752365
20
-11.7857635166
30
0.0000000000
10
8.8410200014
20
-11.8450218335
30
0.0000000000
10
8.9682268959
20
-11.9568096967
30
0.0000000000
10
9.0528441376
20
-12.1096596866
30
0.0000000000
10
9.0726388046
20
-12.2266041716
30
0.0000000000
10
9.0726388046
20
-12.2857431039
30
0.0000000000
11
8.1347542935
21
-12.2857431039
31
0.0000000000
11
8.1646718338
21
-12.1108669746
31
0.0000000000
11
8.2476269565
21
-11.9619578669
31
0.0000000000
11
8.3733741184
21
-11.8523254227
31
0.0000000000
11
8.5231994120
21
-11.7955611760
31
0.0000000000
11
8.6841936861
21
-11.7955611760
31
0.0000000000
11
8.8340189797
21
-11.8523254227
31
0.0000000000
11
8.9597661417
21
-11.9619578669
31
0.0000000000
11
9.0427212644
21
-12.1108669746
31
0.0000000000
11
9.0726388046
21
-12.2857431039
31
0.0000000000
0
SPLINE
5
409
100
AcDbEntity
8
0
100
AcDbSpline
62
9
6
CONTINUOUS
70
0
71
3
72
11
73
7
74
5
42
0.0000001000
43
0.0000001000
44
0.0000000001
12
0.0044655625
22
-0.1805759118
32
0.0000000000
13
0.0000000828
23
-0.1806311190
33
0.0000000000
40
0.0000000000
40
0.0000000000
40
0.0000000000
40
0.0000000000
40
0.1534418472
40
0.3876054300
40
0.6795629846
40
1.0000000000
40
1.0000000000
40
1.0000000000
40
1.0000000000
10
8.2959258243
20
-18.8366914651
30
0.0000000000
10
8.2961542257
20
-18.8459274322
30
0.0000000000
10
8.2964559350
20
-18.8692642380
30
0.0000000000
10
8.2967853262
20
-18.9101793428
30
0.0000000000
10
8.2969912345
20
-18.9611507756
30
0.0000000000
10
8.2970391803
20
-18.9980232516
30
0.0000000000
10
8.2970391891
20
-19.0173168839
30
0.0000000000
11
8.2959258243
21
-18.8366914651
31
0.0000000000
11
8.2963752626
21
-18.8644041934
31
0.0000000000
11
8.2967321457
21
-18.9066999178
31
0.0000000000
11
8.2969613498
21
-18.9594360395
31
0.0000000000
11
8.2970391891
21
-19.0173168839
31
0.0000000000
0
SPLINE
5
40A
100
AcDbEntity
8
0
100
AcDbSpline
62
7
6
CONTINUOUS
70
0
71
3
72
8
73
4
74
2
42
0.0000001000
43
0.0000001000
44
0.0000000001
12
-0.0017480002
22
-0.0017480002
32
0.0000000000
13
-0.0001440396
23
-0.0024678456
33
0.0000000000
40
0.0000000000
40
0.0000000000
40
0.0000000000
40
0.0000000000
40
1.0000000000
40
1.0000000000
40
1.0000000000
40
1.0000000000
10
6.1100459022
20
23.7891362384
30
0.0000000000
10
6.1094632355
20
23.7885535717
30
0.0000000000
10
6.1098223152
20
23.7875017735
30
0.0000000000
10
6.1097743020
20
23.7866791583
30
0.0000000000
11
6.1100459022
21
23.7891362384
31
0.0000000000
11
6.1097743020
21
23.7866791583
31
0.0000000000
0
SPLINE
5
40B
100
AcDbEntity
8
0
100
AcDbSpline
62
9
6
CONTINUOUS
70
0
71
3
72
15
73
11
74
9
42
0.0000001000
43
0.0000001000
44
0.0000000001
12
0.0029458291
22
0.9316476089
32
0.0000000000
13
0.0028473530
23
-0.9316479151
33
0.0000000000
40
0.0000000000
40
0.0000000000
40
0.0000000000
40
0.0000000000
40
0.1215690120
40
0.2451812752
40
0.3716141992
40
0.5000011629
40
0.6283877963
40
0.7548199097
40
0.8784313418
40
1.0000000000
40
1.0000000000
40
1.0000000000
40
1.0000000000
10
8.2959256786
20
-18.8366945068
30
0.0000000000
10
8.2960450524
20
-18.7989413470
30
0.0000000000
10
8.3126029843
20
-18.7219597300
30
0.0000000000
10
8.3817948407
20
-18.6258649852
30
0.0000000000
10
8.4840189896
20
-18.5622020293
30
0.0000000000
10
8.6037121109
20
-18.5400264609
30
0.0000000000
10
8.7234029910
20
-18.5622128776
30
0.0000000000
10
8.8256206323
20
-18.6258852507
30
0.0000000000
10
8.8948024429
20
-18.7219865624
30
0.0000000000
10
8.9113521265
20
-18.7989695960
30
0.0000000000
10
8.9114675094
20
-18.8367226583
30
0.0000000000
11
8.2959256786
21
-18.8366945068
31
0.0000000000
11
8.3196175351
21
-18.7259401215
31
0.0000000000
11
8.3863986921
21
-18.6321161255
31
0.0000000000
11
8.4861397375
21
-18.5694538076
31
0.0000000000
11
8.6037118811
21
-18.5474578314
31
0.0000000000
11
8.7212816990
21
-18.5694645618
31
0.0000000000
11
8.8210161205
21
-18.6321360026
31
0.0000000000
11
8.8877873599
21
-18.7259661066
31
0.0000000000
11
8.9114675094
21
-18.8367226583
31
0.0000000000
0
SPLINE
5
40C
100
AcDbEntity
8
0
100
AcDbSpline
62
7
6
CONTINUOUS
70
0
71
3
72
9
73
5
74
3
42
0.0000001000
43
0.0000001000
44
0.0000000001
12
0.0001229116
22
-0.0021058575
32
0.0000000000
13
0.0026060595
23
-0.0009722932
33
0.0000000000
40
0.0000000000
40
0.0000000000
40
0.0000000000
40
0.0000000000
40
0.8427341930
40
1.0000000000
40
1.0000000000
40
1.0000000000
40
1.0000000000
10
6.1097743020
20
-24.1211053878
30
0.0000000000
10
6.1098088293
20
-24.1216969472
30
0.0000000000
10
6.1094313520
20
-24.1226011064
30
0.0000000000
10
6.1100917790
20
-24.1230223624
30
0.0000000000
10
6.1102283937
20
-24.1230733318
30
0.0000000000
11
6.1097743020
21
-24.1211053878
31
0.0000000000
11
6.1099097238
21
-24.1228779206
31
0.0000000000
11
6.1102283937
21
-24.1230733318
31
0.0000000000
0
SPLINE
5
40D
100
AcDbEntity
8
0
100
AcDbSpline
62
7
6
CONTINUOUS
70
0
71
3
72
13
73
9
74
7
42
0.0000001000
43
0.0000001000
44
0.0000000001
12
0.1276199922
22
0.7664010208
32
0.0000000000
13
0.0009268395
23
0.7769533628
33
0.0000000000
40
0.0000000000
40
0.0000000000
40
0.0000000000
40
0.0000000000
40
0.0437624368
40
0.1479153844
40
0.3044853335
40
0.5059435894
40
0.7444256154
40
1.0000000000
40
1.0000000000
40
1.0000000000
40
1.0000000000
10
9.0592434337
20
-20.7336353709
30
0.0000000000
10
9.0611050876
20
-20.7224555121
30
0.0000000000
10
9.0606713982
20
-20.6839147468
30
0.0000000000
10
9.0635101164
20
-20.6052760970
30
0.0000000000
10
9.0641474157
20
-20.4854823534
30
0.0000000000
10
9.0655383989
20
-20.3310397039
30
0.0000000000
10
9.0662337137
20
-20.1508994538
30
0.0000000000
10
9.0665352332
20
-20.0229501455
30
0.0000000000
10
9.0666141920
20
-19.9567603530
30
0.0000000000
11
9.0592434337
21
-20.7336353709
31
0.0000000000
11
9.0610071370
21
-20.6996797480
31
0.0000000000
11
9.0626909037
21
-20.6187752267
31
0.0000000000
11
9.0641507694
21
-20.4971363518
31
0.0000000000
11
9.0653291702
21
-20.3406170069
31
0.0000000000
11
9.0661717980
21
-20.1553293790
31
0.0000000000
11
9.0666141920
21
-19.9567603530
31
0.0000000000
0
SPLINE
5
40E
100
AcDbEntity
8
0
100
AcDbSpline
62
7
6
CONTINUOUS
70
0
71
3
72
9
73
5
74
3
42
0.0000001000
43
0.0000001000
44
0.0000000001
12
-0.0001229116
22
-0.0021058575
32
0.0000000000
13
-0.0026060595
23
-0.0009722932
33
0.0000000000
40
0.0000000000
40
0.0000000000
40
0.0000000000
40
0.0000000000
40
0.8427341930
40
1.0000000000
40
1.0000000000
40
1.0000000000
40
1.0000000000
10
-2.7023812039
20
-24.1211053878
30
0.0000000000
10
-2.7024157312
20
-24.1216969472
30
0.0000000000
10
-2.7020382539
20
-24.1226011064
30
0.0000000000
10
-2.7026986808
20
-24.1230223624
30
0.0000000000
10
-2.7028352955
20
-24.1230733318
30
0.0000000000
11
-2.7023812039
21
-24.1211053878
31
0.0000000000
11
-2.7025166257
21
-24.1228779206
31
0.0000000000
11
-2.7028352955
21
-24.1230733318
31
0.0000000000
0
SPLINE
5
40F
100
AcDbEntity
8
0
100
AcDbSpline
62
7
6
CONTINUOUS
70
0
71
3
72
13
73
9
74
7
42
0.0000001000
43
0.0000001000
44
0.0000000001
12
-0.7119176766
22
-0.7215316689
32
0.0000000000
13
0.3203017887
23
-0.9616867950
33
0.0000000000
40
0.0000000000
40
0.0000000000
40
0.0000000000
40
0.0000000000
40
0.2905946340
40
0.5374819863
40
0.7326654485
40
0.8797809635
40
0.9686139076
40
1.0000000000
40
1.0000000000
40
1.0000000000
40
1.0000000000
10
11.2279380224
20
-19.9886703764
30
0.0000000000
10
11.1589782035
20
-20.0585614535
30
0.0000000000
10
11.0323033566
20
-20.1883353849
30
0.0000000000
10
10.8597409942
20
-20.3671295180
30
0.0000000000
10
10.7269080118
20
-20.5121857954
30
0.0000000000
10
10.6218846948
20
-20.6212108723
30
0.0000000000
10
10.5771938090
20
-20.6888586277
30
0.0000000000
10
10.5391369737
20
-20.7235741740
30
0.0000000000
10
10.5424879809
20
-20.7336353709
30
0.0000000000
11
11.2279380224
21
-19.9886703764
31
0.0000000000
11
11.0220267216
21
-20.1992944722
31
0.0000000000
11
10.8489525315
21
-20.3800454843
31
0.0000000000
11
10.7140512740
21
-20.5247638454
31
0.0000000000
11
10.6146975698
21
-20.6359644988
31
0.0000000000
11
10.5577841723
21
-20.7057402295
31
0.0000000000
11
10.5424879809
21
-20.7336353709
31
0.0000000000
0
SPLINE
5
410
100
AcDbEntity
8
0
100
AcDbSpline
62
9
6
CONTINUOUS
70
0
71
3
72
15
73
11
74
9
42
0.0000001000
43
0.0000001000
44
0.0000000001
12
0.0028835704
22
-0.9316032618
32
0.0000000000
13
0.0028835705
23
0.9316032618
33
0.0000000000
40
0.0000000000
40
0.0000000000
40
0.0000000000
40
0.0000000000
40
0.1215620727
40
0.2451712150
40
0.3716065753
40
0.5000000000
40
0.6283934247
40
0.7548287851
40
0.8784379274
40
1.0000000000
40
1.0000000000
40
1.0000000000
40
1.0000000000
10
-5.5040741757
20
18.5022652356
30
0.0000000000
10
-5.5039573314
20
18.4645160277
30
0.0000000000
10
-5.4874036156
20
18.3875400028
30
0.0000000000
10
-5.4182157500
20
18.2914519233
30
0.0000000000
10
-5.3159946447
20
18.2277919628
30
0.0000000000
10
-5.1963034509
20
18.2056138755
30
0.0000000000
10
-5.0766122571
20
18.2277919628
30
0.0000000000
10
-4.9743911519
20
18.2914519233
30
0.0000000000
10
-4.9052032863
20
18.3875400028
30
0.0000000000
10
-4.8886495704
20
18.4645160278
30
0.0000000000
10
-4.8885327261
20
18.5022652356
30
0.0000000000
11
-5.5040741757
21
18.5022652356
31
0.0000000000
11
-5.4803893638
21
18.3915214918
31
0.0000000000
11
-5.4136134792
21
18.2977040700
31
0.0000000000
11
-5.3138753051
21
18.2350435014
31
0.0000000000
11
-5.1963034509
21
18.2130443441
31
0.0000000000
11
-5.0787315968
21
18.2350435014
31
0.0000000000
11
-4.9789934226
21
18.2977040700
31
0.0000000000
11
-4.9122175381
21
18.3915214919
31
0.0000000000
11
-4.8885327261
21
18.5022652356
31
0.0000000000
0
SPLINE
5
411
100
AcDbEntity
8
0
100
AcDbSpline
62
7
6
CONTINUOUS
70
0
71
3
72
9
73
5
74
3
42
0.0000001000
43
0.0000001000
44
0.0000000001
12
0.0000761378
22
-0.0319100498
32
0.0000000000
13
0.0000966056
23
-0.0319099944
33
0.0000000000
40
0.0000000000
40
0.0000000000
40
0.0000000000
40
0.0000000000
40
0.5033880599
40
1.0000000000
40
1.0000000000
40
1.0000000000
40
1.0000000000
10
11.2278516792
20
-19.9567603530
30
0.0000000000
10
11.2278644548
20
-19.9621147323
30
0.0000000000
10
11.2278915374
20
-19.9727514116
30
0.0000000000
10
11.2279220306
20
-19.9833880817
30
0.0000000000
10
11.2279380224
20
-19.9886703764
30
0.0000000000
11
11.2278516792
21
-19.9567603530
31
0.0000000000
11
11.2278925852
21
-19.9728234847
31
0.0000000000
11
11.2279380224
21
-19.9886703764
31
0.0000000000
0
SPLINE
5
412
100
AcDbEntity
8
0
100
AcDbSpline
62
7
6
CONTINUOUS
70
0
71
3
72
16
73
12
74
10
42
0.0000001000
43
0.0000001000
44
0.0000000001
12
0.0000000000
22
-1.5108333805
32
0.0000000000
13
0.0000000000
23
1.5108333805
33
0.0000000000
40
0.0000000000
40
0.0000000000
40
0.0000000000
40
0.0000000000
40
0.1174297571
40
0.2302526980
40
0.3406739543
40
0.4467200433
40
0.5532799567
40
0.6593260457
40
0.7697473020
40
0.8825702429
40
1.0000000000
40
1.0000000000
40
1.0000000000
40
1.0000000000
10
-4.7273611954
20
11.9513168744
30
0.0000000000
10
-4.7273611954
20
11.8921779421
30
0.0000000000
10
-4.7471558624
20
11.7752334571
30
0.0000000000
10
-4.8317731041
20
11.6223834672
30
0.0000000000
10
-4.9589799986
20
11.5105956040
30
0.0000000000
10
-5.1142247635
20
11.4513372871
30
0.0000000000
10
-5.2783821383
20
11.4513372871
30
0.0000000000
10
-5.4336269033
20
11.5105956040
30
0.0000000000
10
-5.5608337977
20
11.6223834672
30
0.0000000000
10
-5.6454510395
20
11.7752334571
30
0.0000000000
10
-5.6652457065
20
11.8921779421
30
0.0000000000
10
-5.6652457065
20
11.9513168744
30
0.0000000000
11
-4.7273611954
21
11.9513168744
31
0.0000000000
11
-4.7572787356
21
11.7764407451
31
0.0000000000
11
-4.8402338583
21
11.6275316374
31
0.0000000000
11
-4.9659810203
21
11.5178991932
31
0.0000000000
11
-5.1158063139
21
11.4611349465
31
0.0000000000
11
-5.2768005880
21
11.4611349465
31
0.0000000000
11
-5.4266258816
21
11.5178991932
31
0.0000000000
11
-5.5523730435
21
11.6275316374
31
0.0000000000
11
-5.6353281662
21
11.7764407451
31
0.0000000000
11
-5.6652457065
21
11.9513168744
31
0.0000000000
0
SPLINE
5
413
100
AcDbEntity
8
0
100
AcDbSpline
62
7
6
CONTINUOUS
70
0
71
3
72
9
73
5
74
3
42
0.0000001000
43
0.0000001000
44
0.0000000001
12
0.0000966056
22
0.0319099944
32
0.0000000000
13
0.0000761378
23
0.0319100498
33
0.0000000000
40
0.0000000000
40
0.0000000000
40
0.0000000000
40
0.0000000000
40
0.4965552944
40
1.0000000000
40
1.0000000000
40
1.0000000000
40
1.0000000000
10
-7.8205449243
20
-19.9886703764
30
0.0000000000
10
-7.8205289343
20
-19.9833886842
30
0.0000000000
10
-7.8204984409
20
-19.9727520141
30
0.0000000000
10
-7.8204713581
20
-19.9621153349
30
0.0000000000
10
-7.8204585810
20
-19.9567603530
30
0.0000000000
11
-7.8205449243
21
-19.9886703764
31
0.0000000000
11
-7.8204994919
21
-19.9728252923
31
0.0000000000
11
-7.8204585810
21
-19.9567603530
31
0.0000000000
0
SPLINE
5
414
100
AcDbEntity
8
0
100
AcDbSpline
62
9
6
CONTINUOUS
70
0
71
3
72
11
73
7
74
5
42
0.0000001000
43
0.0000001000
44
0.0000000001
12
0.0000026063
22
-0.1806311205
32
0.0000000000
13
-0.0044419608
23
-0.1805764954
33
0.0000000000
40
0.0000000000
40
0.0000000000
40
0.0000000000
40
0.0000000000
40
0.3217126298
40
0.6135324645
40
0.8473204430
40
1.0000000000
40
1.0000000000
40
1.0000000000
40
1.0000000000
10
-5.5029608109
20
18.6828906544
30
0.0000000000
10
-5.5029605314
20
18.6635202167
30
0.0000000000
10
-5.5030090902
20
18.6265792239
30
0.0000000000
10
-5.5032161786
20
18.5755619090
30
0.0000000000
10
-5.5035442261
20
18.5347235755
30
0.0000000000
10
-5.5038481102
20
18.5114553487
30
0.0000000000
10
-5.5040741757
20
18.5022652356
30
0.0000000000
11
-5.5029608109
21
18.6828906544
31
0.0000000000
11
-5.5030393340
21
18.6247793946
31
0.0000000000
11
-5.5032691229
21
18.5720681517
31
0.0000000000
11
-5.5036262592
21
18.5298402774
31
0.0000000000
11
-5.5040741757
21
18.5022652356
31
0.0000000000
0
SPLINE
5
415
100
AcDbEntity
8
0
100
AcDbSpline
62
7
6
CONTINUOUS
70
0
71
3
72
13
73
9
74
7
42
0.0000001000
43
0.0000001000
44
0.0000000001
12
0.3203017887
22
0.9616867950
32
0.0000000000
13
-0.7119176766
23
0.7215316689
33
0.0000000000
40
0.0000000000
40
0.0000000000
40
0.0000000000
40
0.0000000000
40
0.0313860924
40
0.1202190365
40
0.2673345515
40
0.4625180137
40
0.7094053660
40
1.0000000000
40
1.0000000000
40
1.0000000000
40
1.0000000000
10
-7.1350948828
20
-20.7336353709
30
0.0000000000
10
-7.1317438756
20
-20.7235741740
30
0.0000000000
10
-7.1698007109
20
-20.6888586277
30
0.0000000000
10
-7.2144915967
20
-20.6212108723
30
0.0000000000
10
-7.3195149136
20
-20.5121857954
30
0.0000000000
10
-7.4523478960
20
-20.3671295180
30
0.0000000000
10
-7.6249102585
20
-20.1883353849
30
0.0000000000
10
-7.7515851054
20
-20.0585614535
30
0.0000000000
10
-7.8205449243
20
-19.9886703764
30
0.0000000000
11
-7.1350948828
21
-20.7336353709
31
0.0000000000
11
-7.1503910741
21
-20.7057402295
31
0.0000000000
11
-7.2073044716
21
-20.6359644988
31
0.0000000000
11
-7.3066581758
21
-20.5247638454
31
0.0000000000
11
-7.4415594333
21
-20.3800454843
31
0.0000000000
11
-7.6146336235
21
-20.1992944722
31
0.0000000000
11
-7.8205449243
21
-19.9886703764
31
0.0000000000
0
SPLINE
5
416
100
AcDbEntity
8
0
100
AcDbSpline
62
7
6
CONTINUOUS
70
0
71
3
72
13
73
9
74
7
42
0.0000001000
43
0.0000001000
44
0.0000000001
12
0.0009268395
22
-0.7769533628
32
0.0000000000
13
0.1276199922
23
-0.7664010208
33
0.0000000000
40
0.0000000000
40
0.0000000000
40
0.0000000000
40
0.0000000000
40
0.2555743846
40
0.4940564106
40
0.6955146665
40
0.8520846156
40
0.9562375632
40
1.0000000000
40
1.0000000000
40
1.0000000000
40
1.0000000000
10
-5.6592210938
20
-19.9567603530
30
0.0000000000
10
-5.6591421350
20
-20.0229501455
30
0.0000000000
10
-5.6588406156
20
-20.1508994538
30
0.0000000000
10
-5.6581453008
20
-20.3310397039
30
0.0000000000
10
-5.6567543176
20
-20.4854823534
30
0.0000000000
10
-5.6561170182
20
-20.6052760970
30
0.0000000000
10
-5.6532783001
20
-20.6839147468
30
0.0000000000
10
-5.6537119895
20
-20.7224555121
30
0.0000000000
10
-5.6518503355
20
-20.7336353709
30
0.0000000000
11
-5.6592210938
21
-19.9567603530
31
0.0000000000
11
-5.6587786999
21
-20.1553293790
31
0.0000000000
11
-5.6579360720
21
-20.3406170069
31
0.0000000000
11
-5.6567576712
21
-20.4971363518
31
0.0000000000
11
-5.6552978056
21
-20.6187752267
31
0.0000000000
11
-5.6536140388
21
-20.6996797480
31
0.0000000000
11
-5.6518503355
21
-20.7336353709
31
0.0000000000
0
SPLINE
5
417
100
AcDbEntity
8
0
100
AcDbSpline
62
7
6
CONTINUOUS
70
0
71
3
72
13
73
9
74
7
42
0.0000001000
43
0.0000001000
44
0.0000000001
12
0.7119171939
22
0.7215311797
32
0.0000000000
13
-0.3203015715
23
0.9616861429
33
0.0000000000
40
0.0000000000
40
0.0000000000
40
0.0000000000
40
0.0000000000
40
0.2906410198
40
0.5377908085
40
0.7328858031
40
0.8797397472
40
0.9685178918
40
1.0000000000
40
1.0000000000
40
1.0000000000
40
1.0000000000
10
-7.8205449243
20
19.6542441469
30
0.0000000000
10
-7.7515741445
20
19.7241463329
30
0.0000000000
10
-7.6248269769
20
19.8539950542
30
0.0000000000
10
-7.4522122740
20
20.0328432370
30
0.0000000000
10
-7.3194032415
20
20.1778826945
30
0.0000000000
10
-7.2144820283
20
20.2868017505
30
0.0000000000
10
-7.1698358262
20
20.3544019904
30
0.0000000000
10
-7.1317336265
20
20.3891171723
30
0.0000000000
10
-7.1350948828
20
20.3992091414
30
0.0000000000
11
-7.8205449243
21
19.6542441469
31
0.0000000000
11
-7.6146010626
21
19.8649018845
31
0.0000000000
11
-7.4413446078
21
20.0458464334
31
0.0000000000
11
-7.3065076933
21
20.1905019984
31
0.0000000000
11
-7.2073321625
21
20.3015061629
31
0.0000000000
11
-7.1504489993
21
20.3712347950
31
0.0000000000
11
-7.1350948828
21
20.3992091414
31
0.0000000000
0
SPLINE
5
418
100
AcDbEntity
8
0
100
AcDbSpline
62
7
6
CONTINUOUS
70
0
71
3
72
9
73
5
74
3
42
0.0000001000
43
0.0000001000
44
0.0000000001
12
-0.0000761378
22
0.0319100498
32
0.0000000000
13
-0.0000966056
23
0.0319099944
33
0.0000000000
40
0.0000000000
40
0.0000000000
40
0.0000000000
40
0.0000000000
40
0.5033238038
40
1.0000000000
40
1.0000000000
40
1.0000000000
40
1.0000000000
10
-7.8204585810
20
19.6223341235
30
0.0000000000
10
-7.8204713550
20
19.6276878193
30
0.0000000000
10
-7.8204984374
20
19.6383244986
30
0.0000000000
10
-7.8205289304
20
19.6489611687
30
0.0000000000
10
-7.8205449243
20
19.6542441469
30
0.0000000000
11
-7.8204585810
21
19.6223341235
31
0.0000000000
11
-7.8204994814
21
19.6383952048
31
0.0000000000
11
-7.8205449243
21
19.6542441469
31
0.0000000000
0
SPLINE
5
419
100
AcDbEntity
8
0
100
AcDbSpline
62
7
6
CONTINUOUS
70
0
71
3
72
13
73
9
74
7
42
0.0000001000
43
0.0000001000
44
0.0000000001
12
-0.1276199923
22
-0.7664010216
32
0.0000000000
13
-0.0009268395
23
-0.7769533637
33
0.0000000000
40
0.0000000000
40
0.0000000000
40
0.0000000000
40
0.0000000000
40
0.0437665140
40
0.1477465653
40
0.3041508964
40
0.5056594130
40
0.7444394885
40
1.0000000000
40
1.0000000000
40
1.0000000000
40
1.0000000000
10
-5.6518503355
20
20.3992091414
30
0.0000000000
10
-5.6537121629
20
20.3880282410
30
0.0000000000
10
-5.6532784108
20
20.3495313905
30
0.0000000000
10
-5.6561144082
20
20.2709790294
30
0.0000000000
10
-5.6567524502
20
20.1512600457
30
0.0000000000
10
-5.6581447054
20
19.9967701109
30
0.0000000000
10
-5.6588404410
20
19.8165432260
30
0.0000000000
10
-5.6591421393
20
19.6885203231
30
0.0000000000
10
-5.6592210938
20
19.6223341235
30
0.0000000000
11
-5.6518503355
21
20.3992091414
31
0.0000000000
11
-5.6536141348
21
20.3652503514
31
0.0000000000
11
-5.6552957757
21
20.2844801473
31
0.0000000000
11
-5.6567552061
21
20.1629699538
31
0.0000000000
11
-5.6579347626
21
20.0064115662
31
0.0000000000
11
-5.6587787357
21
19.8208923710
31
0.0000000000
11
-5.6592210938
21
19.6223341235
31
0.0000000000
0
SPLINE
5
41A
100
AcDbEntity
8
0
100
AcDbSpline
62
9
6
CONTINUOUS
70
0
71
3
72
15
73
11
74
9
42
0.0000001000
43
0.0000001000
44
0.0000000001
12
0.0028835704
22
-0.9316032618
32
0.0000000000
13
0.0028835705
23
0.9316032618
33
0.0000000000
40
0.0000000000
40
0.0000000000
40
0.0000000000
40
0.0000000000
40
0.1215620727
40
0.2451712150
40
0.3716065753
40
0.5000000000
40
0.6283934247
40
0.7548287851
40
0.8784379274
40
1.0000000000
40
1.0000000000
40
1.0000000000
40
1.0000000000
10
8.2959258243
20
18.5022652356
30
0.0000000000
10
8.2960426686
20
18.4645160277
30
0.0000000000
10
8.3125963844
20
18.3875400028
30
0.0000000000
10
8.3817842500
20
18.2914519233
30
0.0000000000
10
8.4840053553
20
18.2277919628
30
0.0000000000
10
8.6036965491
20
18.2056138755
30
0.0000000000
10
8.7233877429
20
18.2277919628
30
0.0000000000
10
8.8256088481
20
18.2914519233
30
0.0000000000
10
8.8947967137
20
18.3875400028
30
0.0000000000
10
8.9113504296
20
18.4645160278
30
0.0000000000
10
8.9114672739
20
18.5022652356
30
0.0000000000
11
8.2959258243
21
18.5022652356
31
0.0000000000
11
8.3196106362
21
18.3915214918
31
0.0000000000
11
8.3863865208
21
18.2977040700
31
0.0000000000
11
8.4861246949
21
18.2350435014
31
0.0000000000
11
8.6036965491
21
18.2130443441
31
0.0000000000
11
8.7212684032
21
18.2350435014
31
0.0000000000
11
8.8210065774
21
18.2977040700
31
0.0000000000
11
8.8877824619
21
18.3915214919
31
0.0000000000
11
8.9114672739
21
18.5022652356
31
0.0000000000
0
SPLINE
5
41B
100
AcDbEntity
8
0
100
AcDbSpline
62
7
6
CONTINUOUS
70
0
71
3
72
16
73
12
74
10
42
0.0000001000
43
0.0000001000
44
0.0000000001
12
0.0000000000
22
-1.5108333805
32
0.0000000000
13
0.0000000000
23
1.5108333805
33
0.0000000000
40
0.0000000000
40
0.0000000000
40
0.0000000000
40
0.0000000000
40
0.1174297571
40
0.2302526980
40
0.3406739543
40
0.4467200433
40
0.5532799567
40
0.6593260457
40
0.7697473020
40
0.8825702429
40
1.0000000000
40
1.0000000000
40
1.0000000000
40
1.0000000000
10
9.0726388046
20
11.9513168744
30
0.0000000000
10
9.0726388046
20
11.8921779421
30
0.0000000000
10
9.0528441376
20
11.7752334571
30
0.0000000000
10
8.9682268959
20
11.6223834672
30
0.0000000000
10
8.8410200014
20
11.5105956040
30
0.0000000000
10
8.6857752365
20
11.4513372871
30
0.0000000000
10
8.5216178617
20
11.4513372871
30
0.0000000000
10
8.3663730967
20
11.5105956040
30
0.0000000000
10
8.2391662023
20
11.6223834672
30
0.0000000000
10
8.1545489605
20
11.7752334571
30
0.0000000000
10
8.1347542935
20
11.8921779421
30
0.0000000000
10
8.1347542935
20
11.9513168744
30
0.0000000000
11
9.0726388046
21
11.9513168744
31
0.0000000000
11
9.0427212644
21
11.7764407451
31
0.0000000000
11
8.9597661417
21
11.6275316374
31
0.0000000000
11
8.8340189797
21
11.5178991932
31
0.0000000000
11
8.6841936861
21
11.4611349465
31
0.0000000000
11
8.5231994120
21
11.4611349465
31
0.0000000000
11
8.3733741184
21
11.5178991932
31
0.0000000000
11
8.2476269565
21
11.6275316374
31
0.0000000000
11
8.1646718338
21
11.7764407451
31
0.0000000000
11
8.1347542935
21
11.9513168744
31
0.0000000000
0
SPLINE
5
41C
100
AcDbEntity
8
0
100
AcDbSpline
62
9
6
CONTINUOUS
70
0
71
3
72
11
73
7
74
5
42
0.0000001000
43
0.0000001000
44
0.0000000001
12
0.0000026063
22
-0.1806311205
32
0.0000000000
13
-0.0044419608
23
-0.1805764954
33
0.0000000000
40
0.0000000000
40
0.0000000000
40
0.0000000000
40
0.0000000000
40
0.3217126298
40
0.6135324645
40
0.8473204430
40
1.0000000000
40
1.0000000000
40
1.0000000000
40
1.0000000000
10
8.2970391891
20
18.6828906544
30
0.0000000000
10
8.2970394686
20
18.6635202167
30
0.0000000000
10
8.2969909098
20
18.6265792239
30
0.0000000000
10
8.2967838214
20
18.5755619090
30
0.0000000000
10
8.2964557739
20
18.5347235755
30
0.0000000000
10
8.2961518898
20
18.5114553487
30
0.0000000000
10
8.2959258243
20
18.5022652356
30
0.0000000000
11
8.2970391891
21
18.6828906544
31
0.0000000000
11
8.2969606660
21
18.6247793946
31
0.0000000000
11
8.2967308771
21
18.5720681517
31
0.0000000000
11
8.2963737408
21
18.5298402774
31
0.0000000000
11
8.2959258243
21
18.5022652356
31
0.0000000000
0
SPLINE
5
41D
100
AcDbEntity
8
0
100
AcDbSpline
62
7
6
CONTINUOUS
70
0
71
3
72
10
73
6
74
4
42
0.0000001000
43
0.0000001000
44
0.0000000001
12
-0.0862905115
22
0.0995415072
32
0.0000000000
13
-0.0882513606
23
0.0978072666
33
0.0000000000
40
0.0000000000
40
0.0000000000
40
0.0000000000
40
0.0000000000
40
0.3342926250
40
0.6676116632
40
1.0000000000
40
1.0000000000
40
1.0000000000
40
1.0000000000
10
11.3536965491
20
3.6935037580
30
0.0000000000
10
11.3440811219
20
3.7045957553
30
0.0000000000
10
11.3248043264
20
3.7266834732
30
0.0000000000
10
11.2957110107
20
3.7595755581
30
0.0000000000
10
11.2761991321
20
3.7813437072
30
0.0000000000
10
11.2664212244
20
3.7921803720
30
0.0000000000
11
11.3536965491
21
3.6935037580
31
0.0000000000
11
11.3247395478
21
3.7266834456
31
0.0000000000
11
11.2956477717
21
3.7595739924
31
0.0000000000
11
11.2664212244
21
3.7921803720
31
0.0000000000
0
SPLINE
5
41E
100
AcDbEntity
8
0
100
AcDbSpline
62
7
6
CONTINUOUS
70
0
71
3
72
10
73
6
74
4
42
0.0000001000
43
0.0000001000
44
0.0000000001
12
0.0882513606
22
0.0978072666
32
0.0000000000
13
0.0862905115
23
0.0995415072
33
0.0000000000
40
0.0000000000
40
0.0000000000
40
0.0000000000
40
0.0000000000
40
0.3323883368
40
0.6657073750
40
1.0000000000
40
1.0000000000
40
1.0000000000
40
1.0000000000
10
11.2664212244
20
-4.1266066015
30
0.0000000000
10
11.2761991321
20
-4.1157699367
30
0.0000000000
10
11.2957110107
20
-4.0940017876
30
0.0000000000
10
11.3248043264
20
-4.0611097027
30
0.0000000000
10
11.3440811219
20
-4.0390219848
30
0.0000000000
10
11.3536965491
20
-4.0279299875
30
0.0000000000
11
11.2664212244
21
-4.1266066015
31
0.0000000000
11
11.2956477717
21
-4.0940002219
31
0.0000000000
11
11.3247395478
21
-4.0611096751
31
0.0000000000
11
11.3536965491
21
-4.0279299875
31
0.0000000000
0
SPLINE
5
41F
100
AcDbEntity
8
0
100
AcDbSpline
62
7
6
CONTINUOUS
70
0
71
3
72
11
73
7
74
5
42
0.0000001000
43
0.0000001000
44
0.0000000001
12
-0.0173612672
22
7.2762694626
32
0.0000000000
13
-0.0067804439
23
7.2762870155
33
0.0000000000
40
0.0000000000
40
0.0000000000
40
0.0000000000
40
0.0000000000
40
0.2492042744
40
0.4990139970
40
0.7493134831
40
1.0000000000
40
1.0000000000
40
1.0000000000
40
1.0000000000
10
11.2278516792
20
-19.9567603530
30
0.0000000000
10
11.2264095118
20
-19.3523345358
30
0.0000000000
10
11.2237439173
20
-18.1420138915
30
0.0000000000
10
11.2204043448
20
-16.3246094761
30
0.0000000000
10
11.2177196670
20
-14.5036088960
30
0.0000000000
10
11.2163681248
20
-13.2885031061
30
0.0000000000
10
11.2158015361
20
-12.6804807569
30
0.0000000000
11
11.2278516792
21
-19.9567603530
31
0.0000000000
11
11.2238572756
21
-18.1434821395
31
0.0000000000
11
11.2205164693
21
-16.3257971791
31
0.0000000000
11
11.2178308491
21
-14.5045474677
31
0.0000000000
11
11.2158015361
21
-12.6804807569
31
0.0000000000
0
SPLINE
5
420
100
AcDbEntity
8
0
100
AcDbSpline
62
7
6
CONTINUOUS
70
0
71
3
72
11
73
7
74
5
42
0.0000001000
43
0.0000001000
44
0.0000000001
12
0.0067804439
22
7.2762870155
32
0.0000000000
13
0.0173612672
23
7.2762694626
33
0.0000000000
40
0.0000000000
40
0.0000000000
40
0.0000000000
40
0.0000000000
40
0.2506865169
40
0.5009860030
40
0.7507957256
40
1.0000000000
40
1.0000000000
40
1.0000000000
40
1.0000000000
10
11.2158015361
20
12.3460545274
30
0.0000000000
10
11.2163681248
20
12.9540768766
30
0.0000000000
10
11.2177196670
20
14.1691826665
30
0.0000000000
10
11.2204043448
20
15.9901832466
30
0.0000000000
10
11.2237439173
20
17.8075876619
30
0.0000000000
10
11.2264095118
20
19.0179083063
30
0.0000000000
10
11.2278516792
20
19.6223341235
30
0.0000000000
11
11.2158015361
21
12.3460545274
31
0.0000000000
11
11.2178308491
21
14.1701212382
31
0.0000000000
11
11.2205164693
21
15.9913709496
31
0.0000000000
11
11.2238572756
21
17.8090559100
31
0.0000000000
11
11.2278516792
21
19.6223341235
31
0.0000000000
0
SPLINE
5
421
100
AcDbEntity
8
0
100
AcDbSpline
62
7
6
CONTINUOUS
70
0
71
3
72
11
73
7
74
5
42
0.0000001000
43
0.0000001000
44
0.0000000001
12
-0.0067804439
22
7.2762870155
32
0.0000000000
13
-0.0173612672
23
7.2762694626
33
0.0000000000
40
0.0000000000
40
0.0000000000
40
0.0000000000
40
0.0000000000
40
0.2506865169
40
0.5009860030
40
0.7507957256
40
1.0000000000
40
1.0000000000
40
1.0000000000
40
1.0000000000
10
-7.8084084380
20
12.3460545274
30
0.0000000000
10
-7.8089750266
20
12.9540768766
30
0.0000000000
10
-7.8103265689
20
14.1691826665
30
0.0000000000
10
-7.8130112466
20
15.9901832466
30
0.0000000000
10
-7.8163508191
20
17.8075876619
30
0.0000000000
10
-7.8190164137
20
19.0179083063
30
0.0000000000
10
-7.8204585810
20
19.6223341235
30
0.0000000000
11
-7.8084084380
21
12.3460545274
31
0.0000000000
11
-7.8104377509
21
14.1701212382
31
0.0000000000
11
-7.8131233711
21
15.9913709496
31
0.0000000000
11
-7.8164641774
21
17.8090559100
31
0.0000000000
11
-7.8204585810
21
19.6223341235
31
0.0000000000
0
SPLINE
5
422
100
AcDbEntity
8
0
100
AcDbSpline
62
7
6
CONTINUOUS
70
0
71
3
72
11
73
7
74
5
42
0.0000001000
43
0.0000001000
44
0.0000000001
12
0.0173612672
22
7.2762694626
32
0.0000000000
13
0.0067804439
23
7.2762870155
33
0.0000000000
40
0.0000000000
40
0.0000000000
40
0.0000000000
40
0.0000000000
40
0.2492042744
40
0.4990139970
40
0.7493134831
40
1.0000000000
40
1.0000000000
40
1.0000000000
40
1.0000000000
10
-7.8204585810
20
-19.9567603530
30
0.0000000000
10
-7.8190164137
20
-19.3523345358
30
0.0000000000
10
-7.8163508191
20
-18.1420138915
30
0.0000000000
10
-7.8130112466
20
-16.3246094761
30
0.0000000000
10
-7.8103265689
20
-14.5036088960
30
0.0000000000
10
-7.8089750266
20
-13.2885031061
30
0.0000000000
10
-7.8084084380
20
-12.6804807569
30
0.0000000000
11
-7.8204585810
21
-19.9567603530
31
0.0000000000
11
-7.8164641774
21
-18.1434821395
31
0.0000000000
11
-7.8131233711
21
-16.3257971791
31
0.0000000000
11
-7.8104377509
21
-14.5045474677
31
0.0000000000
11
-7.8084084380
21
-12.6804807569
31
0.0000000000
0
SPLINE
5
423
100
AcDbEntity
8
0
100
AcDbSpline
62
7
6
CONTINUOUS
70
0
71
3
72
10
73
6
74
4
42
0.0000001000
43
0.0000001000
44
0.0000000001
12
0.0862905115
22
-0.0995415072
32
0.0000000000
13
0.0882513606
23
-0.0978072666
33
0.0000000000
40
0.0000000000
40
0.0000000000
40
0.0000000000
40
0.0000000000
40
0.3342926250
40
0.6676116632
40
1.0000000000
40
1.0000000000
40
1.0000000000
40
1.0000000000
10
-7.9463034509
20
-4.0279299875
30
0.0000000000
10
-7.9366880237
20
-4.0390219848
30
0.0000000000
10
-7.9174112283
20
-4.0611097027
30
0.0000000000
10
-7.8883179126
20
-4.0940017876
30
0.0000000000
10
-7.8688060339
20
-4.1157699367
30
0.0000000000
10
-7.8590281263
20
-4.1266066015
30
0.0000000000
11
-7.9463034509
21
-4.0279299875
31
0.0000000000
11
-7.9173464496
21
-4.0611096751
31
0.0000000000
11
-7.8882546735
21
-4.0940002219
31
0.0000000000
11
-7.8590281263
21
-4.1266066015
31
0.0000000000
0
SPLINE
5
424
100
AcDbEntity
8
0
100
AcDbSpline
62
7
6
CONTINUOUS
70
0
71
3
72
10
73
6
74
4
42
0.0000001000
43
0.0000001000
44
0.0000000001
12
-0.0882513606
22
-0.0978072666
32
0.0000000000
13
-0.0862905115
23
-0.0995415072
33
0.0000000000
40
0.0000000000
40
0.0000000000
40
0.0000000000
40
0.0000000000
40
0.3323883368
40
0.6657073750
40
1.0000000000
40
1.0000000000
40
1.0000000000
40
1.0000000000
10
-7.8590281263
20
3.7921803720
30
0.0000000000
10
-7.8688060339
20
3.7813437072
30
0.0000000000
10
-7.8883179126
20
3.7595755581
30
0.0000000000
10
-7.9174112283
20
3.7266834732
30
0.0000000000
10
-7.9366880237
20
3.7045957553
30
0.0000000000
10
-7.9463034509
20
3.6935037580
30
0.0000000000
11
-7.8590281263
21
3.7921803720
31
0.0000000000
11
-7.8882546735
21
3.7595739924
31
0.0000000000
11
-7.9173464496
21
3.7266834456
31
0.0000000000
11
-7.9463034509
21
3.6935037580
31
0.0000000000
0
SPLINE
5
425
100
AcDbEntity
8
0
100
AcDbSpline
62
7
6
CONTINUOUS
70
0
71
3
72
20
73
16
74
14
42
0.0000001000
43
0.0000001000
44
0.0000000001
12
0.4645166834
22
-0.4879965431
32
0.0000000000
13
0.0392566728
23
-0.6725884989
33
0.0000000000
40
0.0000000000
40
0.0000000000
40
0.0000000000
40
0.0000000000
40
0.1376924970
40
0.2732041083
40
0.4019552266
40
0.5195374983
40
0.6233985078
40
0.7130440951
40
0.7890379647
40
0.8518561666
40
0.9022776034
40
0.9412923958
40
0.9701171226
40
0.9894788456
40
1.0000000000
40
1.0000000000
40
1.0000000000
40
1.0000000000
10
5.6567392590
20
-23.6235709295
30
0.0000000000
10
5.6780594130
20
-23.6459687503
30
0.0000000000
10
5.7203620916
20
-23.6904095866
30
0.0000000000
10
5.7825542307
20
-23.7558377632
30
0.0000000000
10
5.8415421162
20
-23.8180805999
30
0.0000000000
10
5.8955030803
20
-23.8752941407
30
0.0000000000
10
5.9432605083
20
-23.9262864909
30
0.0000000000
10
5.9844156835
20
-23.9706635552
30
0.0000000000
10
6.0190501482
20
-24.0085199478
30
0.0000000000
10
6.0474276146
20
-24.0401472604
30
0.0000000000
10
6.0699301775
20
-24.0659174001
30
0.0000000000
10
6.0869215606
20
-24.0862757110
30
0.0000000000
10
6.0990848103
20
-24.1017633985
30
0.0000000000
10
6.1062891482
20
-24.1125786038
30
0.0000000000
10
6.1096366269
20
-24.1187465853
30
0.0000000000
10
6.1097743020
20
-24.1211053878
30
0.0000000000
11
5.6567392590
21
-23.6235709295
31
0.0000000000
11
5.7206917937
21
-23.6907719371
31
0.0000000000
11
5.7835833684
21
-23.7569542332
31
0.0000000000
11
5.8432410714
21
-23.8199261504
31
0.0000000000
11
5.8975816828
21
-23.8775695363
31
0.0000000000
11
5.9453977811
21
-23.9286583442
31
0.0000000000
11
5.9864466749
21
-23.9729619637
31
0.0000000000
11
6.0209793165
21
-24.0107626872
31
0.0000000000
11
6.0492112146
21
-24.0422931702
31
0.0000000000
11
6.0714989515
21
-24.0679302147
31
0.0000000000
11
6.0882915760
21
-24.0881524401
31
0.0000000000
11
6.1001156087
21
-24.1035581347
31
0.0000000000
11
6.1072398487
21
-24.1144855178
31
0.0000000000
11
6.1097743020
21
-24.1211053878
31
0.0000000000
0
SPLINE
5
426
100
AcDbEntity
8
0
100
AcDbSpline
62
7
6
CONTINUOUS
70
0
71
3
72
13
73
9
74
7
42
0.0000001000
43
0.0000001000
44
0.0000000001
12
-0.0009268395
22
0.7769533637
32
0.0000000000
13
-0.1276199923
23
0.7664010216
33
0.0000000000
40
0.0000000000
40
0.0000000000
40
0.0000000000
40
0.0000000000
40
0.2555605115
40
0.4943405870
40
0.6958491036
40
0.8522534347
40
0.9562334860
40
1.0000000000
40
1.0000000000
40
1.0000000000
40
1.0000000000
10
9.0666141920
20
19.6223341235
30
0.0000000000
10
9.0665352374
20
19.6885203231
30
0.0000000000
10
9.0662335392
20
19.8165432260
30
0.0000000000
10
9.0655378035
20
19.9967701109
30
0.0000000000
10
9.0641455483
20
20.1512600457
30
0.0000000000
10
9.0635075063
20
20.2709790294
30
0.0000000000
10
9.0606715090
20
20.3495313905
30
0.0000000000
10
9.0611052611
20
20.3880282410
30
0.0000000000
10
9.0592434337
20
20.3992091414
30
0.0000000000
11
9.0666141920
21
19.6223341235
31
0.0000000000
11
9.0661718338
21
19.8208923710
31
0.0000000000
11
9.0653278608
21
20.0064115662
31
0.0000000000
11
9.0641483042
21
20.1629699538
31
0.0000000000
11
9.0626888738
21
20.2844801473
31
0.0000000000
11
9.0610072329
21
20.3652503514
31
0.0000000000
11
9.0592434337
21
20.3992091414
31
0.0000000000
0
SPLINE
5
427
100
AcDbEntity
8
0
100
AcDbSpline
62
7
6
CONTINUOUS
70
0
71
3
72
20
73
16
74
14
42
0.0000001000
43
0.0000001000
44
0.0000000001
12
0.4646868985
22
-0.4881753620
32
0.0000000000
13
0.0000000000
23
-0.6739800425
33
0.0000000000
40
0.0000000000
40
0.0000000000
40
0.0000000000
40
0.0000000000
40
0.1383453987
40
0.2743387740
40
0.4034314658
40
0.5212850016
40
0.6253097961
40
0.7149830465
40
0.7908869774
40
0.8535154546
40
0.9036785302
40
0.9423973740
40
0.9709008363
40
0.9898871653
40
1.0000000000
40
1.0000000000
40
1.0000000000
40
1.0000000000
10
-2.2493461609
20
-23.6235709295
30
0.0000000000
10
-2.2279170628
20
-23.6460832011
30
0.0000000000
10
-2.1854231263
20
-23.6907249597
30
0.0000000000
10
-2.1229801612
20
-23.7564179256
30
0.0000000000
10
-2.0638027762
20
-23.8188632790
30
0.0000000000
10
-2.0097048039
20
-23.8762270221
30
0.0000000000
10
-1.9618628093
20
-23.9273177715
30
0.0000000000
10
-1.9206832708
20
-23.9717333206
30
0.0000000000
10
-1.8860823720
20
-24.0095699935
30
0.0000000000
10
-1.8577882096
20
-24.0411283967
30
0.0000000000
10
-1.8353994297
20
-24.0667984618
30
0.0000000000
10
-1.8185582467
20
-24.0870245325
30
0.0000000000
10
-1.8065376895
20
-24.1023819054
30
0.0000000000
10
-1.7995554642
20
-24.1129967076
30
0.0000000000
10
-1.7963034509
20
-24.1190891093
30
0.0000000000
10
-1.7963034509
20
-24.1213610588
30
0.0000000000
11
-2.2493461609
21
-23.6235709295
31
0.0000000000
11
-2.1850669169
21
-23.6911154066
31
0.0000000000
11
-2.1219291757
21
-23.7575578513
31
0.0000000000
11
-2.0620926968
21
-23.8207213063
31
0.0000000000
11
-2.0076094250
21
-23.8785213575
31
0.0000000000
11
-1.9597047038
21
-23.9297135335
31
0.0000000000
11
-1.9186345308
21
-23.9740530243
31
0.0000000000
11
-1.8841392053
21
-24.0118311439
31
0.0000000000
11
-1.8559947260
21
-24.0432890746
31
0.0000000000
11
-1.8338300862
21
-24.0688188858
31
0.0000000000
11
-1.8171826073
21
-24.0889148672
31
0.0000000000
11
-1.8055224006
21
-24.1041822526
31
0.0000000000
11
-1.7985970340
21
-24.1149427046
31
0.0000000000
11
-1.7963034509
21
-24.1213610588
31
0.0000000000
0
SPLINE
5
428
100
AcDbEntity
8
0
100
AcDbSpline
62
7
6
CONTINUOUS
70
0
71
3
72
20
73
16
74
14
42
0.0000001000
43
0.0000001000
44
0.0000000001
12
0.0392566707
22
0.6725884623
32
0.0000000000
13
0.4645166581
23
0.4879965165
33
0.0000000000
40
0.0000000000
40
0.0000000000
40
0.0000000000
40
0.0000000000
40
0.0105272862
40
0.0298989129
40
0.0587327465
40
0.0977498622
40
0.1481655874
40
0.2109758150
40
0.2869640673
40
0.3766131765
40
0.4804862274
40
0.5980619866
40
0.7267707712
40
0.8622612818
40
1.0000000000
40
1.0000000000
40
1.0000000000
40
1.0000000000
10
-2.7023812039
20
-24.1211053878
30
0.0000000000
10
-2.7022434485
20
-24.1187452107
30
0.0000000000
10
-2.6988932966
20
-24.1125742204
30
0.0000000000
10
-2.6916855042
20
-24.1017547994
30
0.0000000000
10
-2.6795186810
20
-24.0862637224
30
0.0000000000
10
-2.6625261730
20
-24.0659047130
30
0.0000000000
10
-2.6400250837
20
-24.0401366715
30
0.0000000000
10
-2.6116504254
20
-24.0085126698
30
0.0000000000
10
-2.5770174473
20
-23.9706579851
30
0.0000000000
10
-2.5358607268
20
-23.9262793125
30
0.0000000000
10
-2.4881018734
20
-23.8752855174
30
0.0000000000
10
-2.4341465563
20
-23.8180780185
30
0.0000000000
10
-2.3751694886
20
-23.7558465783
30
0.0000000000
10
-2.3129800367
20
-23.6904211877
30
0.0000000000
10
-2.2706734706
20
-23.6459762677
30
0.0000000000
10
-2.2493461609
20
-23.6235709295
30
0.0000000000
11
-2.7023812039
21
-24.1211053878
31
0.0000000000
11
-2.6998447395
21
-24.1144818645
31
0.0000000000
11
-2.6927161778
21
-24.1035493345
31
0.0000000000
11
-2.6808878487
21
-24.0881392045
31
0.0000000000
11
-2.6640938314
21
-24.0679161030
31
0.0000000000
11
-2.6418083912
21
-24.0422821632
31
0.0000000000
11
-2.6135799685
21
-24.0107557830
31
0.0000000000
11
-2.5790498344
21
-23.9729578986
31
0.0000000000
11
-2.5379993013
21
-23.9286525677
31
0.0000000000
11
-2.4901776257
21
-23.8775578733
31
0.0000000000
11
-2.4358399965
21
-23.8199177121
31
0.0000000000
11
-2.3762019143
21
-23.7569665019
31
0.0000000000
11
-2.3133201546
21
-23.6907944968
31
0.0000000000
11
-2.2493461609
21
-23.6235709295
31
0.0000000000
0
SPLINE
5
429
100
AcDbEntity
8
0
100
AcDbSpline
62
7
6
CONTINUOUS
70
0
71
3
72
9
73
5
74
3
42
0.0000001000
43
0.0000001000
44
0.0000000001
12
-0.0000966056
22
-0.0319099944
32
0.0000000000
13
-0.0000761378
23
-0.0319100498
33
0.0000000000
40
0.0000000000
40
0.0000000000
40
0.0000000000
40
0.0000000000
40
0.4966274174
40
1.0000000000
40
1.0000000000
40
1.0000000000
40
1.0000000000
10
11.2279380224
20
19.6542441469
30
0.0000000000
10
11.2279220301
20
19.6489616875
30
0.0000000000
10
11.2278915370
20
19.6383250175
30
0.0000000000
10
11.2278644544
20
19.6276883382
30
0.0000000000
10
11.2278516792
20
19.6223341235
30
0.0000000000
11
11.2279380224
21
19.6542441469
31
0.0000000000
11
11.2278925838
21
19.6383967613
31
0.0000000000
11
11.2278516792
21
19.6223341235
31
0.0000000000
0
SPLINE
5
42A
100
AcDbEntity
8
0
100
AcDbSpline
62
7
6
CONTINUOUS
70
0
71
3
72
13
73
9
74
7
42
0.0000001000
43
0.0000001000
44
0.0000000001
12
-0.3203015715
22
-0.9616861429
32
0.0000000000
13
0.7119171939
23
-0.7215311797
33
0.0000000000
40
0.0000000000
40
0.0000000000
40
0.0000000000
40
0.0000000000
40
0.0314821082
40
0.1202602528
40
0.2671141969
40
0.4622091915
40
0.7093589802
40
1.0000000000
40
1.0000000000
40
1.0000000000
40
1.0000000000
10
10.5424879809
20
20.3992091414
30
0.0000000000
10
10.5391267247
20
20.3891171723
30
0.0000000000
10
10.5772289243
20
20.3544019904
30
0.0000000000
10
10.6218751265
20
20.2868017505
30
0.0000000000
10
10.7267963396
20
20.1778826945
30
0.0000000000
10
10.8596053721
20
20.0328432370
30
0.0000000000
10
11.0322200750
20
19.8539950542
30
0.0000000000
10
11.1589672427
20
19.7241463329
30
0.0000000000
10
11.2279380224
20
19.6542441469
30
0.0000000000
11
10.5424879809
21
20.3992091414
31
0.0000000000
11
10.5578420975
21
20.3712347950
31
0.0000000000
11
10.6147252607
21
20.3015061629
31
0.0000000000
11
10.7139007914
21
20.1905019984
31
0.0000000000
11
10.8487377059
21
20.0458464334
31
0.0000000000
11
11.0219941607
21
19.8649018845
31
0.0000000000
11
11.2279380224
21
19.6542441469
31
0.0000000000
0
SPLINE
5
42B
100
AcDbEntity
8
0
100
AcDbSpline
62
7
6
CONTINUOUS
70
0
71
3
72
13
73
9
74
7
42
0.0000001000
43
0.0000001000
44
0.0000000001
12
-0.0008859486
22
0.7845725987
32
0.0000000000
13
-0.5547769586
23
0.5547769586
33
0.0000000000
40
0.0000000000
40
0.0000000000
40
0.0000000000
40
0.0000000000
40
0.2623513838
40
0.5069820447
40
0.7112750859
40
0.8667988793
40
0.9656676344
40
1.0000000000
40
1.0000000000
40
1.0000000000
40
1.0000000000
10
-4.7326544071
20
18.9923853500
30
0.0000000000
10
-4.7327318837
20
19.0609965856
30
0.0000000000
10
-4.7332318363
20
19.1934759756
30
0.0000000000
10
-4.7331882433
20
19.3799265391
30
0.0000000000
10
-4.7368061756
20
19.5367723574
30
0.0000000000
10
-4.7321806067
20
19.6597414967
30
0.0000000000
10
-4.7449432809
20
19.7295701235
30
0.0000000000
10
-4.7340261761
20
19.7705096104
30
0.0000000000
10
-4.7403751112
20
19.7768585455
30
0.0000000000
11
-4.7326544071
21
18.9923853500
31
0.0000000000
11
-4.7331071124
21
19.1982186903
31
0.0000000000
11
-4.7339918460
21
19.3901472868
31
0.0000000000
11
-4.7352341130
21
19.5504252971
31
0.0000000000
11
-4.7367709770
21
19.6724354027
31
0.0000000000
11
-4.7385374756
21
19.7499850515
31
0.0000000000
11
-4.7403751112
21
19.7768585455
31
0.0000000000
0
SPLINE
5
42C
100
AcDbEntity
8
0
100
AcDbSpline
62
7
6
CONTINUOUS
70
0
71
3
72
13
73
9
74
7
42
0.0000001000
43
0.0000001000
44
0.0000000001
12
-0.5547769586
22
-0.5547769586
32
0.0000000000
13
-0.0008859486
23
-0.7845725987
33
0.0000000000
40
0.0000000000
40
0.0000000000
40
0.0000000000
40
0.0000000000
40
0.0343323656
40
0.1332011207
40
0.2887249141
40
0.4930179553
40
0.7376486162
40
1.0000000000
40
1.0000000000
40
1.0000000000
40
1.0000000000
10
8.1477682094
20
19.7768585455
30
0.0000000000
10
8.1414192743
20
19.7705096104
30
0.0000000000
10
8.1523363791
20
19.7295701235
30
0.0000000000
10
8.1395737049
20
19.6597414967
30
0.0000000000
10
8.1441992738
20
19.5367723574
30
0.0000000000
10
8.1405813415
20
19.3799265391
30
0.0000000000
10
8.1406249345
20
19.1934759756
30
0.0000000000
10
8.1401249819
20
19.0609965856
30
0.0000000000
10
8.1400475052
20
18.9923853500
30
0.0000000000
11
8.1477682094
21
19.7768585455
31
0.0000000000
11
8.1459305738
21
19.7499850515
31
0.0000000000
11
8.1441640752
21
19.6724354027
31
0.0000000000
11
8.1426272111
21
19.5504252971
31
0.0000000000
11
8.1413849442
21
19.3901472868
31
0.0000000000
11
8.1405002106
21
19.1982186903
31
0.0000000000
11
8.1400475052
21
18.9923853500
31
0.0000000000
0
SPLINE
5
42D
100
AcDbEntity
8
0
100
AcDbSpline
62
7
6
CONTINUOUS
70
0
71
3
72
13
73
9
74
7
42
0.0000001000
43
0.0000001000
44
0.0000000001
12
0.0008859486
22
-0.7845725987
32
0.0000000000
13
0.5547769586
23
-0.5547769586
33
0.0000000000
40
0.0000000000
40
0.0000000000
40
0.0000000000
40
0.0000000000
40
0.2623513838
40
0.5069820447
40
0.7112750859
40
0.8667988793
40
0.9656676344
40
1.0000000000
40
1.0000000000
40
1.0000000000
40
1.0000000000
10
8.1400475052
20
-19.3268115795
30
0.0000000000
10
8.1401249819
20
-19.3954228151
30
0.0000000000
10
8.1406249345
20
-19.5279022051
30
0.0000000000
10
8.1405813415
20
-19.7143527687
30
0.0000000000
10
8.1441992738
20
-19.8711985869
30
0.0000000000
10
8.1395737049
20
-19.9941677262
30
0.0000000000
10
8.1523363791
20
-20.0639963530
30
0.0000000000
10
8.1414192743
20
-20.1049358399
30
0.0000000000
10
8.1477682094
20
-20.1112847751
30
0.0000000000
11
8.1400475052
21
-19.3268115795
31
0.0000000000
11
8.1405002106
21
-19.5326449198
31
0.0000000000
11
8.1413849442
21
-19.7245735164
31
0.0000000000
11
8.1426272111
21
-19.8848515267
31
0.0000000000
11
8.1441640752
21
-20.0068616322
31
0.0000000000
11
8.1459305738
21
-20.0844112810
31
0.0000000000
11
8.1477682094
21
-20.1112847751
31
0.0000000000
0
SPLINE
5
42E
100
AcDbEntity
8
0
100
AcDbSpline
62
7
6
CONTINUOUS
70
0
71
3
72
13
73
9
74
7
42
0.0000001000
43
0.0000001000
44
0.0000000001
12
0.5547769586
22
0.5547769586
32
0.0000000000
13
0.0008859486
23
0.7845725987
33
0.0000000000
40
0.0000000000
40
0.0000000000
40
0.0000000000
40
0.0000000000
40
0.0343323656
40
0.1332011207
40
0.2887249141
40
0.4930179553
40
0.7376486162
40
1.0000000000
40
1.0000000000
40
1.0000000000
40
1.0000000000
10
-4.7403751112
20
-20.1112847751
30
0.0000000000
10
-4.7340261761
20
-20.1049358399
30
0.0000000000
10
-4.7449432809
20
-20.0639963530
30
0.0000000000
10
-4.7321806067
20
-19.9941677262
30
0.0000000000
10
-4.7368061756
20
-19.8711985869
30
0.0000000000
10
-4.7331882433
20
-19.7143527687
30
0.0000000000
10
-4.7332318363
20
-19.5279022051
30
0.0000000000
10
-4.7327318837
20
-19.3954228151
30
0.0000000000
10
-4.7326544071
20
-19.3268115795
30
0.0000000000
11
-4.7403751112
21
-20.1112847751
31
0.0000000000
11
-4.7385374756
21
-20.0844112810
31
0.0000000000
11
-4.7367709770
21
-20.0068616322
31
0.0000000000
11
-4.7352341130
21
-19.8848515267
31
0.0000000000
11
-4.7339918460
21
-19.7245735164
31
0.0000000000
11
-4.7331071124
21
-19.5326449198
31
0.0000000000
11
-4.7326544071
21
-19.3268115795
31
0.0000000000
0
SPLINE
5
42F
100
AcDbEntity
8
0
100
AcDbSpline
62
7
6
CONTINUOUS
70
0
71
3
72
20
73
16
74
14
42
0.0000001000
43
0.0000001000
44
0.0000000001
12
-0.4646867855
22
0.4881752433
32
0.0000000000
13
-0.0000000000
23
0.6739798786
33
0.0000000000
40
0.0000000000
40
0.0000000000
40
0.0000000000
40
0.0000000000
40
0.1388713231
40
0.2749115227
40
0.4037834237
40
0.5214526785
40
0.6254136342
40
0.7150230414
40
0.7908650114
40
0.8533989954
40
0.9034986065
40
0.9422325024
40
0.9708206345
40
0.9898666645
40
1.0000000000
40
1.0000000000
40
1.0000000000
40
1.0000000000
10
5.6567392590
20
23.2891446999
30
0.0000000000
10
5.6352287028
20
23.3117425473
30
0.0000000000
10
5.5926460589
20
23.3564774941
30
0.0000000000
10
5.5301489167
20
23.4222280251
30
0.0000000000
10
5.4710273660
20
23.4846153788
30
0.0000000000
10
5.4170020848
20
23.5419028458
30
0.0000000000
10
5.3692082956
20
23.5929426954
30
0.0000000000
10
5.3280579601
20
23.6373271996
30
0.0000000000
10
5.2934905314
20
23.6751273947
30
0.0000000000
10
5.2652290470
20
23.7066487287
30
0.0000000000
10
5.2428602114
20
23.7322935504
30
0.0000000000
10
5.2260116907
20
23.7525239499
30
0.0000000000
10
5.2139652414
20
23.7679072545
30
0.0000000000
10
5.2069607364
20
23.7785501751
30
0.0000000000
10
5.2036965491
20
23.7846582746
30
0.0000000000
10
5.2036965491
20
23.7869348293
30
0.0000000000
11
5.6567392590
21
23.2891446999
31
0.0000000000
11
5.5922157333
21
23.3569459922
31
0.0000000000
11
5.5290565728
21
23.4234115870
31
0.0000000000
11
5.4693228912
21
23.4864674160
31
0.0000000000
11
5.4149252007
21
23.5441774284
31
0.0000000000
11
5.3670501725
21
23.5953384406
31
0.0000000000
11
5.3260094555
21
23.6396465438
31
0.0000000000
11
5.2915423228
21
23.6773938392
31
0.0000000000
11
5.2634398599
21
23.7088038921
31
0.0000000000
11
5.2413018456
21
23.7343001633
31
0.0000000000
11
5.2246452516
21
23.7544017588
31
0.0000000000
11
5.2129470166
21
23.7697118995
31
0.0000000000
11
5.2059967403
21
23.7805041658
31
0.0000000000
11
5.2036965491
21
23.7869348293
31
0.0000000000
0
SPLINE
5
430
100
AcDbEntity
8
0
100
AcDbSpline
62
7
6
CONTINUOUS
70
0
71
3
72
20
73
16
74
14
42
0.0000001000
43
0.0000001000
44
0.0000000001
12
-0.0392566671
22
-0.6725884001
32
0.0000000000
13
-0.4645166152
23
-0.4879964714
33
0.0000000000
40
0.0000000000
40
0.0000000000
40
0.0000000000
40
0.0000000000
40
0.0105350590
40
0.0299438888
40
0.0588398542
40
0.0978545055
40
0.1482120786
40
0.2109386931
40
0.2868777404
40
0.3764553953
40
0.4802422333
40
0.5976470591
40
0.7262204869
40
0.8618061527
40
1.0000000000
40
1.0000000000
40
1.0000000000
40
1.0000000000
10
6.1097743020
20
23.7866791583
30
0.0000000000
10
6.1096364449
20
23.7843172388
30
0.0000000000
10
6.1062801925
20
23.7781373886
30
0.0000000000
10
6.0990577992
20
23.7672994654
30
0.0000000000
10
6.0868753201
20
23.7517926931
30
0.0000000000
10
6.0698813004
20
23.7314345459
30
0.0000000000
10
6.0474009896
20
23.7056914038
30
0.0000000000
10
6.0190550118
20
23.6740992858
30
0.0000000000
10
5.9844532666
20
23.6362782138
30
0.0000000000
10
5.9433285065
20
23.5919332712
30
0.0000000000
10
5.8956205247
20
23.5409929487
30
0.0000000000
10
5.8417261845
20
23.4838491172
30
0.0000000000
10
5.7827822004
20
23.4216516612
30
0.0000000000
10
5.7205288072
20
23.3561584970
30
0.0000000000
10
5.6781370384
20
23.3116240699
30
0.0000000000
10
5.6567392590
20
23.2891446999
30
0.0000000000
11
6.1097743020
21
23.7866791583
31
0.0000000000
11
6.1072352881
21
23.7800510045
31
0.0000000000
11
6.1000915361
21
23.7690984583
31
0.0000000000
11
6.0882357167
21
23.7536566616
31
0.0000000000
11
6.0714411691
21
23.7334361618
31
0.0000000000
11
6.0491807136
21
23.7078324202
31
0.0000000000
11
6.0209898179
21
23.6763480586
31
0.0000000000
11
5.9864822941
21
23.6385744268
31
0.0000000000
11
5.9454648339
21
23.5943040890
31
0.0000000000
11
5.8976832685
21
23.5432514190
31
0.0000000000
11
5.8434251164
21
23.4856946132
31
0.0000000000
11
5.7838502204
21
23.4228091737
31
0.0000000000
11
5.7209245824
21
23.3565904381
31
0.0000000000
11
5.6567392590
21
23.2891446999
31
0.0000000000
0
SPLINE
5
431
100
AcDbEntity
8
0
100
AcDbSpline
62
7
6
CONTINUOUS
70
0
71
3
72
20
73
16
74
14
42
0.0000001000
43
0.0000001000
44
0.0000000001
12
-0.4645165876
22
0.4879964425
32
0.0000000000
13
-0.0392566647
23
0.6725883602
33
0.0000000000
40
0.0000000000
40
0.0000000000
40
0.0000000000
40
0.0000000000
40
0.1382329167
40
0.2737962112
40
0.4023280308
40
0.5197265990
40
0.6235247092
40
0.7131061512
40
0.7890389568
40
0.8517593797
40
0.9021124849
40
0.9411324929
40
0.9700381349
40
0.9894583388
40
1.0000000000
40
1.0000000000
40
1.0000000000
40
1.0000000000
10
-2.2493461609
20
23.2891446999
30
0.0000000000
10
-2.2707499884
20
23.3116304238
30
0.0000000000
10
-2.3131443404
20
23.3561675643
30
0.0000000000
10
-2.3753938590
20
23.4216566857
30
0.0000000000
10
-2.4343269879
20
23.4838426904
30
0.0000000000
10
-2.4882157242
20
23.5409805041
30
0.0000000000
10
-2.5359251083
20
23.5919222159
30
0.0000000000
10
-2.5770512638
20
23.6362685598
30
0.0000000000
10
-2.6116517696
20
23.6740881305
30
0.0000000000
10
-2.6399953436
20
23.7056772990
30
0.0000000000
10
-2.6624751274
20
23.7314193239
30
0.0000000000
10
-2.6794710261
20
23.7517789527
30
0.0000000000
10
-2.6916578393
20
23.7672899755
30
0.0000000000
10
-2.6988840495
20
23.7781325243
30
0.0000000000
10
-2.7022432604
20
23.7843157588
30
0.0000000000
10
-2.7023812039
20
23.7866791583
30
0.0000000000
11
-2.2493461609
21
23.2891446999
31
0.0000000000
11
-2.3135496219
21
23.3566095063
31
0.0000000000
11
-2.3764648592
21
23.4228173259
31
0.0000000000
11
-2.4360204782
21
23.4856824055
31
0.0000000000
11
-2.4902757770
21
23.5432361008
31
0.0000000000
11
-2.5380625818
21
23.5942942631
31
0.0000000000
11
-2.5790818263
21
23.6385664212
31
0.0000000000
11
-2.6135865931
21
23.6763368717
31
0.0000000000
11
-2.6417748600
21
23.7078179844
31
0.0000000000
11
-2.6640336237
21
23.7334192054
31
0.0000000000
11
-2.6808309263
21
23.7536421064
31
0.0000000000
11
-2.6926913376
21
23.7690885954
31
0.0000000000
11
-2.6998400240
21
23.7800470714
31
0.0000000000
11
-2.7023812039
21
23.7866791583
31
0.0000000000
0
SPLINE
5
432
100
AcDbEntity
8
0
100
AcDbSpline
62
7
6
CONTINUOUS
70
0
71
3
72
11
73
7
74
5
42
0.0000001000
43
0.0000001000
44
0.0000000001
12
0.0000000000
22
-0.0650167575
32
0.0000000000
13
-0.0420659776
23
-0.0494993135
33
0.0000000000
40
0.0000000000
40
0.0000000000
40
0.0000000000
40
0.0000000000
40
0.1049754499
40
0.3022888118
40
0.5985372888
40
1.0000000000
40
1.0000000000
40
1.0000000000
40
1.0000000000
10
-1.7963034509
20
23.7869348293
30
0.0000000000
10
-1.7963034509
20
23.7846597749
30
0.0000000000
10
-1.7995645048
20
23.7785552078
30
0.0000000000
10
-1.8065651379
20
23.7679170234
30
0.0000000000
10
-1.8186070034
20
23.7525382094
30
0.0000000000
10
-1.8282643521
20
23.7409419461
30
0.0000000000
10
-1.8338936592
20
23.7343179032
30
0.0000000000
11
-1.7963034509
21
23.7869348293
31
0.0000000000
11
-1.7986014889
21
23.7805081757
31
0.0000000000
11
-1.8055466415
21
23.7697220848
31
0.0000000000
11
-1.8172401370
21
23.7544167677
31
0.0000000000
11
-1.8338936592
21
23.7343179032
31
0.0000000000
0
SPLINE
5
433
100
AcDbEntity
8
0
100
AcDbSpline
62
7
6
CONTINUOUS
70
0
71
3
72
16
73
12
74
10
42
0.0000001000
43
0.0000001000
44
0.0000000001
12
-0.3940004393
22
-0.4636229176
32
0.0000000000
13
-0.4198599192
23
-0.4410825197
33
0.0000000000
40
0.0000000000
40
0.0000000000
40
0.0000000000
40
0.0000000000
40
0.0554530572
40
0.1246695785
40
0.2086153044
40
0.3077875392
40
0.4228360716
40
0.5530765658
40
0.6957543055
40
0.8463438697
40
1.0000000000
40
1.0000000000
40
1.0000000000
40
1.0000000000
10
-1.8338936592
20
23.7343179032
30
0.0000000000
10
-1.8411765022
20
23.7257481338
30
0.0000000000
10
-1.8578225029
20
23.7066638600
30
0.0000000000
10
-1.8860861315
20
23.6751398337
30
0.0000000000
10
-1.9206545671
20
23.6373383653
30
0.0000000000
10
-1.9618034640
20
23.5929552898
30
0.0000000000
10
-2.0095960490
20
23.5419166046
30
0.0000000000
10
-2.0636272580
20
23.4846227689
30
0.0000000000
10
-2.1227599328
20
23.4222236771
30
0.0000000000
10
-2.1852612266
20
23.3564688107
30
0.0000000000
10
-2.2278414774
20
23.3117363777
30
0.0000000000
10
-2.2493461609
20
23.2891446999
30
0.0000000000
11
-1.8338936592
21
23.7343179032
31
0.0000000000
11
-1.8560331636
21
23.7088192976
31
0.0000000000
11
-1.8841378983
21
23.6774063591
31
0.0000000000
11
-1.9186075616
21
23.6396561020
31
0.0000000000
11
-1.9596463817
21
23.5953499207
31
0.0000000000
11
-2.0075163801
21
23.5441941631
31
0.0000000000
11
-2.0619174229
21
23.4864805027
31
0.0000000000
11
-2.1216706424
21
23.4234040344
31
0.0000000000
11
-2.1848402467
21
23.3569274770
31
0.0000000000
11
-2.2493461609
21
23.2891446999
31
0.0000000000
0
SPLINE
5
434
100
AcDbEntity
8
0
100
AcDbSpline
62
7
6
CONTINUOUS
70
0
71
3
72
10
73
6
74
4
42
0.0000001000
43
0.0000001000
44
0.0000000001
12
-0.0030964729
22
-6.6463323173
32
0.0000000000
13
-0.0075051128
23
-6.6463288012
33
0.0000000000
40
0.0000000000
40
0.0000000000
40
0.0000000000
40
0.0000000000
40
0.3340733030
40
0.6674822423
40
1.0000000000
40
1.0000000000
40
1.0000000000
40
1.0000000000
10
-4.7273611954
20
-12.6804807569
30
0.0000000000
10
-4.7277060117
20
-13.4206014870
30
0.0000000000
10
-4.7285573276
20
-14.8993710162
30
0.0000000000
10
-4.7303211910
20
-17.1148146765
30
0.0000000000
10
-4.7318225460
20
-18.5901374629
30
0.0000000000
10
-4.7326544071
20
-19.3268115795
30
0.0000000000
11
-4.7273611954
21
-12.6804807569
31
0.0000000000
11
-4.7286398452
21
-14.9008428201
31
0.0000000000
11
-4.7304046695
21
-17.1167889658
31
0.0000000000
11
-4.7326544071
21
-19.3268115795
31
0.0000000000
0
SPLINE
5
435
100
AcDbEntity
8
0
100
AcDbSpline
62
7
6
CONTINUOUS
70
0
71
3
72
11
73
7
74
5
42
0.0000001000
43
0.0000001000
44
0.0000000001
12
0.0000000000
22
0.0649382085
32
0.0000000000
13
0.0420122218
23
0.0494420004
33
0.0000000000
40
0.0000000000
40
0.0000000000
40
0.0000000000
40
0.0000000000
40
0.1050234638
40
0.3021860866
40
0.5981132932
40
1.0000000000
40
1.0000000000
40
1.0000000000
40
1.0000000000
10
5.2036965491
20
-24.1213610588
30
0.0000000000
10
5.2036965491
20
-24.1190877136
30
0.0000000000
10
5.2069514055
20
-24.1129921572
30
0.0000000000
10
5.2139371265
20
-24.1023730535
30
0.0000000000
10
5.2259614918
20
-24.0870120630
30
0.0000000000
10
5.2356077689
20
-24.0754273880
30
0.0000000000
10
5.2412358200
20
-24.0688040271
30
0.0000000000
11
5.2036965491
21
-24.1213610588
31
0.0000000000
11
5.2059921344
21
-24.1149389740
31
0.0000000000
11
5.2129220161
21
-24.1041731266
31
0.0000000000
11
5.2245865976
21
-24.0889012583
31
0.0000000000
11
5.2412358200
21
-24.0688040271
31
0.0000000000
0
SPLINE
5
436
100
AcDbEntity
8
0
100
AcDbSpline
62
7
6
CONTINUOUS
70
0
71
3
72
16
73
12
74
10
42
0.0000001000
43
0.0000001000
44
0.0000000001
12
0.3940237865
22
0.4637061161
32
0.0000000000
13
0.4199141259
23
0.4411394664
33
0.0000000000
40
0.0000000000
40
0.0000000000
40
0.0000000000
40
0.0000000000
40
0.0555057941
40
0.1248040123
40
0.2087952621
40
0.3080339199
40
0.4231630014
40
0.5535741923
40
0.6963838821
40
0.8468540534
40
1.0000000000
40
1.0000000000
40
1.0000000000
40
1.0000000000
10
5.2412358200
20
-24.0688040271
30
0.0000000000
10
5.2485260211
20
-24.0602245684
30
0.0000000000
10
5.2651916232
20
-24.0411168015
30
0.0000000000
10
5.2934832291
20
-24.0095614597
30
0.0000000000
10
5.3280828598
20
-23.9717262810
30
0.0000000000
10
5.3692639638
20
-23.9273091195
30
0.0000000000
10
5.4171071947
20
-23.8762171396
30
0.0000000000
10
5.4711992265
20
-23.8188597566
30
0.0000000000
10
5.5303655766
20
-23.7564260320
30
0.0000000000
10
5.5928055861
20
-23.6907361355
30
0.0000000000
10
5.6353032102
20
-23.6460905032
30
0.0000000000
10
5.6567392590
20
-23.6235709295
30
0.0000000000
11
5.2412358200
21
-24.0688040271
31
0.0000000000
11
5.2633983729
21
-24.0432771234
31
0.0000000000
11
5.2915397553
21
-24.0118229067
31
0.0000000000
11
5.3260327443
21
-23.9740474655
31
0.0000000000
11
5.3671046606
21
-23.9297061699
31
0.0000000000
11
5.4150147451
21
-23.8785083488
31
0.0000000000
11
5.4694945763
21
-23.8207120164
31
0.0000000000
11
5.5293112284
21
-23.7575694896
31
0.0000000000
11
5.5924391709
21
-23.6911373202
31
0.0000000000
11
5.6567392590
21
-23.6235709295
31
0.0000000000
0
SPLINE
5
437
100
AcDbEntity
8
0
100
AcDbSpline
62
7
6
CONTINUOUS
70
0
71
3
72
17
73
13
74
11
42
0.0000001000
43
0.0000001000
44
0.0000000001
12
0.0000000000
22
0.3138390385
32
0.0000000000
13
-0.3138390385
23
0.0000000000
33
0.0000000000
40
0.0000000000
40
0.0000000000
40
0.0000000000
40
0.0000000000
40
0.1000013680
40
0.2000016332
40
0.3000034370
40
0.4000022503
40
0.5000058131
40
0.6000087280
40
0.7000059548
40
0.8000051471
40
0.9000022532
40
1.0000000000
40
1.0000000000
40
1.0000000000
40
1.0000000000
10
0.7036965491
20
23.6269656707
30
0.0000000000
10
0.7036965491
20
23.6374271151
30
0.0000000000
10
0.7020482224
20
23.6583870489
30
0.0000000000
10
0.6946916282
20
23.6890236247
30
0.0000000000
10
0.6826321521
20
23.7181398934
30
0.0000000000
10
0.6661664885
20
23.7450093691
30
0.0000000000
10
0.6457001010
20
23.7689728995
30
0.0000000000
10
0.6217368536
20
23.7894393621
30
0.0000000000
10
0.5948679240
20
23.8059049467
30
0.0000000000
10
0.5657524331
20
23.8179642876
30
0.0000000000
10
0.5351168388
20
23.8253207597
30
0.0000000000
10
0.5141576146
20
23.8269690554
30
0.0000000000
10
0.5036965491
20
23.8269690554
30
0.0000000000
11
0.7036965491
21
23.6269656707
31
0.0000000000
11
0.7012341910
21
23.6582532587
31
0.0000000000
11
0.6939078481
21
23.6887701286
31
0.0000000000
11
0.6818976754
21
23.7177656577
31
0.0000000000
11
0.6655000075
21
23.7445246287
31
0.0000000000
11
0.6451172133
21
23.7683901123
31
0.0000000000
11
0.6212520317
21
23.7887729470
31
0.0000000000
11
0.5944935925
21
23.8051705297
31
0.0000000000
11
0.5654988829
21
23.8171805391
31
0.0000000000
11
0.5349830014
21
23.8245067517
31
0.0000000000
11
0.5036965491
21
23.8269690554
31
0.0000000000
0
SPLINE
5
438
100
AcDbEntity
8
0
100
AcDbSpline
62
7
6
CONTINUOUS
70
0
71
3
72
17
73
13
74
11
42
0.0000001000
43
0.0000001000
44
0.0000000001
12
-0.3138390385
22
0.0000000000
32
0.0000000000
13
0.0000000000
23
-0.3138390385
33
0.0000000000
40
0.0000000000
40
0.0000000000
40
0.0000000000
40
0.0000000000
40
0.0999977468
40
0.1999948529
40
0.2999940452
40
0.3999912720
40
0.4999941869
40
0.5999977497
40
0.6999965630
40
0.7999983668
40
0.8999986320
40
1.0000000000
40
1.0000000000
40
1.0000000000
40
1.0000000000
10
2.9036965491
20
23.8269690554
30
0.0000000000
10
2.8932354835
20
23.8269690554
30
0.0000000000
10
2.8722762594
20
23.8253207597
30
0.0000000000
10
2.8416406650
20
23.8179642876
30
0.0000000000
10
2.8125251741
20
23.8059049467
30
0.0000000000
10
2.7856562446
20
23.7894393621
30
0.0000000000
10
2.7616929971
20
23.7689728995
30
0.0000000000
10
2.7412266097
20
23.7450093691
30
0.0000000000
10
2.7247609460
20
23.7181398934
30
0.0000000000
10
2.7127014699
20
23.6890236247
30
0.0000000000
10
2.7053448758
20
23.6583870489
30
0.0000000000
10
2.7036965491
20
23.6374271151
30
0.0000000000
10
2.7036965491
20
23.6269656707
30
0.0000000000
11
2.9036965491
21
23.8269690554
31
0.0000000000
11
2.8724100968
21
23.8245067517
31
0.0000000000
11
2.8418942153
21
23.8171805391
31
0.0000000000
11
2.8128995057
21
23.8051705297
31
0.0000000000
11
2.7861410664
21
23.7887729470
31
0.0000000000
11
2.7622758848
21
23.7683901123
31
0.0000000000
11
2.7418930907
21
23.7445246287
31
0.0000000000
11
2.7254954227
21
23.7177656577
31
0.0000000000
11
2.7134852500
21
23.6887701286
31
0.0000000000
11
2.7061589072
21
23.6582532587
31
0.0000000000
11
2.7036965491
21
23.6269656707
31
0.0000000000
0
SPLINE
5
439
100
AcDbEntity
8
0
100
AcDbSpline
62
7
6
CONTINUOUS
70
0
71
3
72
10
73
6
74
4
42
0.0000001000
43
0.0000001000
44
0.0000000001
12
0.0075051128
22
-6.6463288012
32
0.0000000000
13
0.0030964729
23
-6.6463323173
33
0.0000000000
40
0.0000000000
40
0.0000000000
40
0.0000000000
40
0.0000000000
40
0.3325177577
40
0.6659266970
40
1.0000000000
40
1.0000000000
40
1.0000000000
40
1.0000000000
10
-4.7326544071
20
18.9923853500
30
0.0000000000
10
-4.7318225460
20
18.2557112334
30
0.0000000000
10
-4.7303211910
20
16.7803884470
30
0.0000000000
10
-4.7285573276
20
14.5649447867
30
0.0000000000
10
-4.7277060117
20
13.0861752575
30
0.0000000000
10
-4.7273611954
20
12.3460545274
30
0.0000000000
11
-4.7326544071
21
18.9923853500
31
0.0000000000
11
-4.7304046695
21
16.7823627362
31
0.0000000000
11
-4.7286398452
21
14.5664165906
31
0.0000000000
11
-4.7273611954
21
12.3460545274
31
0.0000000000
0
SPLINE
5
43A
100
AcDbEntity
8
0
100
AcDbSpline
62
7
6
CONTINUOUS
70
0
71
3
72
20
73
16
74
14
42
0.0000001000
43
0.0000001000
44
0.0000000001
12
0.0000000000
22
-0.7849039878
32
0.0000000000
13
0.7849039878
23
0.0000000000
33
0.0000000000
40
0.0000000000
40
0.0000000000
40
0.0000000000
40
0.0000000000
40
0.0766711417
40
0.1537567778
40
0.2306436098
40
0.3073661863
40
0.3845607487
40
0.4616513950
40
0.5383075132
40
0.6154062635
40
0.6926006714
40
0.7693193439
40
0.8462196277
40
0.9233208052
40
1.0000000000
40
1.0000000000
40
1.0000000000
40
1.0000000000
10
-9.4380129265
20
-22.0614122080
30
0.0000000000
10
-9.4380129265
20
-22.0814720363
30
0.0000000000
10
-9.4355861844
20
-22.1217420409
30
0.0000000000
10
-9.4246982076
20
-22.1812391527
30
0.0000000000
10
-9.4067075299
20
-22.2390092049
30
0.0000000000
10
-9.3818836313
20
-22.2942169931
30
0.0000000000
10
-9.3505542585
20
-22.3460764511
30
0.0000000000
10
-9.3131966455
20
-22.3937540839
30
0.0000000000
10
-9.2703869269
20
-22.4365652002
30
0.0000000000
10
-9.2227086440
20
-22.4739254139
30
0.0000000000
10
-9.1708490273
20
-22.5052565564
30
0.0000000000
10
-9.1156397991
20
-22.5300831781
30
0.0000000000
10
-9.0578639564
20
-22.5480775311
30
0.0000000000
10
-8.9983573934
20
-22.5589680702
30
0.0000000000
10
-8.9580812079
20
-22.5613952849
30
0.0000000000
10
-8.9380192726
20
-22.5613952849
30
0.0000000000
11
-9.4380129265
21
-22.0614122080
31
0.0000000000
11
-9.4343913193
21
-22.1214826197
31
0.0000000000
11
-9.4235010301
21
-22.1809992999
31
0.0000000000
11
-9.4055567577
21
-22.2386185542
31
0.0000000000
11
-9.3808610342
21
-22.2935417035
31
0.0000000000
11
-9.3495304781
21
-22.3454028944
31
0.0000000000
11
-9.3122108242
21
-22.3930322231
31
0.0000000000
11
-9.2696665412
21
-22.4355779073
31
0.0000000000
11
-9.2220332313
21
-22.4729027933
31
0.0000000000
11
-9.1701728946
21
-22.5042345287
31
0.0000000000
11
-9.1152533175
21
-22.5289307247
31
0.0000000000
11
-9.0576245153
21
-22.5468798475
31
0.0000000000
11
-8.9980959846
21
-22.5577731456
31
0.0000000000
11
-8.9380192726
21
-22.5613952849
31
0.0000000000
0
SPLINE
5
43B
100
AcDbEntity
8
0
100
AcDbSpline
62
7
6
CONTINUOUS
70
0
71
3
72
10
73
6
74
4
42
0.0000001000
43
0.0000001000
44
0.0000000001
12
-0.0075051128
22
6.6463288012
32
0.0000000000
13
-0.0030964729
23
6.6463323173
33
0.0000000000
40
0.0000000000
40
0.0000000000
40
0.0000000000
40
0.0000000000
40
0.3325177577
40
0.6659266970
40
1.0000000000
40
1.0000000000
40
1.0000000000
40
1.0000000000
10
8.1400475052
20
-19.3268115795
30
0.0000000000
10
8.1392156441
20
-18.5901374629
30
0.0000000000
10
8.1377142892
20
-17.1148146765
30
0.0000000000
10
8.1359504258
20
-14.8993710162
30
0.0000000000
10
8.1350991098
20
-13.4206014870
30
0.0000000000
10
8.1347542935
20
-12.6804807569
30
0.0000000000
11
8.1400475052
21
-19.3268115795
31
0.0000000000
11
8.1377977677
21
-17.1167889658
31
0.0000000000
11
8.1360329433
21
-14.9008428201
31
0.0000000000
11
8.1347542935
21
-12.6804807569
31
0.0000000000
0
SPLINE
5
43C
100
AcDbEntity
8
0
100
AcDbSpline
62
7
6
CONTINUOUS
70
0
71
3
72
17
73
13
74
11
42
0.0000001000
43
0.0000001000
44
0.0000000001
12
0.3138390385
22
0.0000000000
32
0.0000000000
13
0.0000000000
23
0.3138390385
33
0.0000000000
40
0.0000000000
40
0.0000000000
40
0.0000000000
40
0.0000000000
40
0.0999977468
40
0.1999948529
40
0.2999940452
40
0.3999912720
40
0.4999941869
40
0.5999977497
40
0.6999965630
40
0.7999983668
40
0.8999986320
40
1.0000000000
40
1.0000000000
40
1.0000000000
40
1.0000000000
10
0.5036965491
20
-24.1613952849
30
0.0000000000
10
0.5141576146
20
-24.1613952849
30
0.0000000000
10
0.5351168388
20
-24.1597469892
30
0.0000000000
10
0.5657524331
20
-24.1523905171
30
0.0000000000
10
0.5948679240
20
-24.1403311762
30
0.0000000000
10
0.6217368536
20
-24.1238655916
30
0.0000000000
10
0.6457001010
20
-24.1033991290
30
0.0000000000
10
0.6661664885
20
-24.0794355986
30
0.0000000000
10
0.6826321521
20
-24.0525661229
30
0.0000000000
10
0.6946916282
20
-24.0234498542
30
0.0000000000
10
0.7020482224
20
-23.9928132784
30
0.0000000000
10
0.7036965491
20
-23.9718533447
30
0.0000000000
10
0.7036965491
20
-23.9613919003
30
0.0000000000
11
0.5036965491
21
-24.1613952849
31
0.0000000000
11
0.5349830014
21
-24.1589329812
31
0.0000000000
11
0.5654988829
21
-24.1516067686
31
0.0000000000
11
0.5944935925
21
-24.1395967592
31
0.0000000000
11
0.6212520317
21
-24.1231991765
31
0.0000000000
11
0.6451172133
21
-24.1028163418
31
0.0000000000
11
0.6655000075
21
-24.0789508582
31
0.0000000000
11
0.6818976754
21
-24.0521918872
31
0.0000000000
11
0.6939078481
21
-24.0231963581
31
0.0000000000
11
0.7012341910
21
-23.9926794882
31
0.0000000000
11
0.7036965491
21
-23.9613919003
31
0.0000000000
0
SPLINE
5
43D
100
AcDbEntity
8
0
100
AcDbSpline
62
7
6
CONTINUOUS
70
0
71
3
72
20
73
16
74
14
42
0.0000001000
43
0.0000001000
44
0.0000000001
12
-0.7849039878
22
0.0000000000
32
0.0000000000
13
0.0000000000
23
-0.7849039878
33
0.0000000000
40
0.0000000000
40
0.0000000000
40
0.0000000000
40
0.0000000000
40
0.0766791948
40
0.1537803723
40
0.2306806561
40
0.3073993286
40
0.3845937365
40
0.4616924868
40
0.5383486050
40
0.6154392513
40
0.6926338137
40
0.7693563902
40
0.8462432222
40
0.9233288583
40
1.0000000000
40
1.0000000000
40
1.0000000000
40
1.0000000000
10
-8.9380192726
20
22.2269690554
30
0.0000000000
10
-8.9580812079
20
22.2269690554
30
0.0000000000
10
-8.9983573934
20
22.2245418407
30
0.0000000000
10
-9.0578639564
20
22.2136513016
30
0.0000000000
10
-9.1156397991
20
22.1956569486
30
0.0000000000
10
-9.1708490273
20
22.1708303269
30
0.0000000000
10
-9.2227086440
20
22.1394991844
30
0.0000000000
10
-9.2703869269
20
22.1021389707
30
0.0000000000
10
-9.3131966455
20
22.0593278544
30
0.0000000000
10
-9.3505542585
20
22.0116502216
30
0.0000000000
10
-9.3818836313
20
21.9597907635
30
0.0000000000
10
-9.4067075299
20
21.9045829754
30
0.0000000000
10
-9.4246982076
20
21.8468129232
30
0.0000000000
10
-9.4355861844
20
21.7873158114
30
0.0000000000
10
-9.4380129265
20
21.7470458068
30
0.0000000000
10
-9.4380129265
20
21.7269859785
30
0.0000000000
11
-8.9380192726
21
22.2269690554
31
0.0000000000
11
-8.9980959846
21
22.2233469161
31
0.0000000000
11
-9.0576245153
21
22.2124536180
31
0.0000000000
11
-9.1152533175
21
22.1945044952
31
0.0000000000
11
-9.1701728946
21
22.1698082992
31
0.0000000000
11
-9.2220332313
21
22.1384765638
31
0.0000000000
11
-9.2696665412
21
22.1011516778
31
0.0000000000
11
-9.3122108242
21
22.0586059936
31
0.0000000000
11
-9.3495304781
21
22.0109766649
31
0.0000000000
11
-9.3808610342
21
21.9591154740
31
0.0000000000
11
-9.4055567577
21
21.9041923247
31
0.0000000000
11
-9.4235010301
21
21.8465730704
31
0.0000000000
11
-9.4343913193
21
21.7870563901
31
0.0000000000
11
-9.4380129265
21
21.7269859785
31
0.0000000000
0
SPLINE
5
43E
100
AcDbEntity
8
0
100
AcDbSpline
62
7
6
CONTINUOUS
70
0
71
3
72
10
73
6
74
4
42
0.0000001000
43
0.0000001000
44
0.0000000001
12
0.0030964729
22
6.6463323173
32
0.0000000000
13
0.0075051128
23
6.6463288012
33
0.0000000000
40
0.0000000000
40
0.0000000000
40
0.0000000000
40
0.0000000000
40
0.3340733030
40
0.6674822423
40
1.0000000000
40
1.0000000000
40
1.0000000000
40
1.0000000000
10
8.1347542935
20
12.3460545274
30
0.0000000000
10
8.1350991098
20
13.0861752575
30
0.0000000000
10
8.1359504258
20
14.5649447867
30
0.0000000000
10
8.1377142892
20
16.7803884470
30
0.0000000000
10
8.1392156441
20
18.2557112334
30
0.0000000000
10
8.1400475052
20
18.9923853500
30
0.0000000000
11
8.1347542935
21
12.3460545274
31
0.0000000000
11
8.1360329433
21
14.5664165906
31
0.0000000000
11
8.1377977677
21
16.7823627362
31
0.0000000000
11
8.1400475052
21
18.9923853500
31
0.0000000000
0
SPLINE
5
43F
100
AcDbEntity
8
0
100
AcDbSpline
62
7
6
CONTINUOUS
70
0
71
3
72
17
73
13
74
11
42
0.0000001000
43
0.0000001000
44
0.0000000001
12
0.0000000000
22
-0.3138390385
32
0.0000000000
13
0.3138390385
23
0.0000000000
33
0.0000000000
40
0.0000000000
40
0.0000000000
40
0.0000000000
40
0.0000000000
40
0.1000013680
40
0.2000016332
40
0.3000034370
40
0.4000022503
40
0.5000058131
40
0.6000087280
40
0.7000059548
40
0.8000051471
40
0.9000022532
40
1.0000000000
40
1.0000000000
40
1.0000000000
40
1.0000000000
10
2.7036965491
20
-23.9613919003
30
0.0000000000
10
2.7036965491
20
-23.9718533447
30
0.0000000000
10
2.7053448758
20
-23.9928132784
30
0.0000000000
10
2.7127014699
20
-24.0234498542
30
0.0000000000
10
2.7247609460
20
-24.0525661229
30
0.0000000000
10
2.7412266097
20
-24.0794355986
30
0.0000000000
10
2.7616929971
20
-24.1033991290
30
0.0000000000
10
2.7856562446
20
-24.1238655916
30
0.0000000000
10
2.8125251741
20
-24.1403311762
30
0.0000000000
10
2.8416406650
20
-24.1523905171
30
0.0000000000
10
2.8722762594
20
-24.1597469892
30
0.0000000000
10
2.8932354835
20
-24.1613952849
30
0.0000000000
10
2.9036965491
20
-24.1613952849
30
0.0000000000
11
2.7036965491
21
-23.9613919003
31
0.0000000000
11
2.7061589072
21
-23.9926794882
31
0.0000000000
11
2.7134852500
21
-24.0231963581
31
0.0000000000
11
2.7254954227
21
-24.0521918872
31
0.0000000000
11
2.7418930907
21
-24.0789508582
31
0.0000000000
11
2.7622758848
21
-24.1028163418
31
0.0000000000
11
2.7861410664
21
-24.1231991765
31
0.0000000000
11
2.8128995057
21
-24.1395967592
31
0.0000000000
11
2.8418942153
21
-24.1516067686
31
0.0000000000
11
2.8724100968
21
-24.1589329812
31
0.0000000000
11
2.9036965491
21
-24.1613952849
31
0.0000000000
0
SPLINE
5
440
100
AcDbEntity
8
0
100
AcDbSpline
62
7
6
CONTINUOUS
70
0
71
3
72
20
73
16
74
14
42
0.0000001000
43
0.0000001000
44
0.0000000001
12
0.7849039878
22
0.0000000000
32
0.0000000000
13
0.0000000000
23
0.7849039878
33
0.0000000000
40
0.0000000000
40
0.0000000000
40
0.0000000000
40
0.0000000000
40
0.0766791948
40
0.1537803723
40
0.2306806561
40
0.3073993286
40
0.3845937365
40
0.4616924868
40
0.5383486050
40
0.6154392513
40
0.6926338137
40
0.7693563902
40
0.8462432222
40
0.9233288583
40
1.0000000000
40
1.0000000000
40
1.0000000000
40
1.0000000000
10
12.3454123708
20
-22.5613952849
30
0.0000000000
10
12.3654743060
20
-22.5613952849
30
0.0000000000
10
12.4057504915
20
-22.5589680702
30
0.0000000000
10
12.4652570546
20
-22.5480775311
30
0.0000000000
10
12.5230328972
20
-22.5300831781
30
0.0000000000
10
12.5782421255
20
-22.5052565564
30
0.0000000000
10
12.6301017422
20
-22.4739254139
30
0.0000000000
10
12.6777800251
20
-22.4365652002
30
0.0000000000
10
12.7205897436
20
-22.3937540839
30
0.0000000000
10
12.7579473567
20
-22.3460764511
30
0.0000000000
10
12.7892767294
20
-22.2942169931
30
0.0000000000
10
12.8141006281
20
-22.2390092049
30
0.0000000000
10
12.8320913058
20
-22.1812391527
30
0.0000000000
10
12.8429792825
20
-22.1217420409
30
0.0000000000
10
12.8454060247
20
-22.0814720363
30
0.0000000000
10
12.8454060247
20
-22.0614122080
30
0.0000000000
11
12.3454123708
21
-22.5613952849
31
0.0000000000
11
12.4054890827
21
-22.5577731456
31
0.0000000000
11
12.4650176135
21
-22.5468798475
31
0.0000000000
11
12.5226464157
21
-22.5289307247
31
0.0000000000
11
12.5775659928
21
-22.5042345287
31
0.0000000000
11
12.6294263295
21
-22.4729027933
31
0.0000000000
11
12.6770596394
21
-22.4355779073
31
0.0000000000
11
12.7196039224
21
-22.3930322231
31
0.0000000000
11
12.7569235763
21
-22.3454028944
31
0.0000000000
11
12.7882541324
21
-22.2935417035
31
0.0000000000
11
12.8129498558
21
-22.2386185542
31
0.0000000000
11
12.8308941282
21
-22.1809992999
31
0.0000000000
11
12.8417844174
21
-22.1214826197
31
0.0000000000
11
12.8454060247
21
-22.0614122080
31
0.0000000000
0
SPLINE
5
441
100
AcDbEntity
8
0
100
AcDbSpline
62
7
6
CONTINUOUS
70
0
71
3
72
20
73
16
74
14
42
0.0000001000
43
0.0000001000
44
0.0000000001
12
0.0000000000
22
0.7849039878
32
0.0000000000
13
-0.7849039878
23
0.0000000000
33
0.0000000000
40
0.0000000000
40
0.0000000000
40
0.0000000000
40
0.0000000000
40
0.0766711417
40
0.1537567778
40
0.2306436098
40
0.3073661863
40
0.3845607487
40
0.4616513950
40
0.5383075132
40
0.6154062635
40
0.6926006714
40
0.7693193439
40
0.8462196277
40
0.9233208052
40
1.0000000000
40
1.0000000000
40
1.0000000000
40
1.0000000000
10
12.8454060247
20
21.7269859785
30
0.0000000000
10
12.8454060247
20
21.7470458068
30
0.0000000000
10
12.8429792825
20
21.7873158114
30
0.0000000000
10
12.8320913058
20
21.8468129232
30
0.0000000000
10
12.8141006281
20
21.9045829754
30
0.0000000000
10
12.7892767294
20
21.9597907635
30
0.0000000000
10
12.7579473567
20
22.0116502216
30
0.0000000000
10
12.7205897436
20
22.0593278544
30
0.0000000000
10
12.6777800251
20
22.1021389707
30
0.0000000000
10
12.6301017422
20
22.1394991844
30
0.0000000000
10
12.5782421255
20
22.1708303269
30
0.0000000000
10
12.5230328972
20
22.1956569486
30
0.0000000000
10
12.4652570546
20
22.2136513016
30
0.0000000000
10
12.4057504915
20
22.2245418407
30
0.0000000000
10
12.3654743060
20
22.2269690554
30
0.0000000000
10
12.3454123708
20
22.2269690554
30
0.0000000000
11
12.8454060247
21
21.7269859785
31
0.0000000000
11
12.8417844174
21
21.7870563901
31
0.0000000000
11
12.8308941282
21
21.8465730704
31
0.0000000000
11
12.8129498558
21
21.9041923247
31
0.0000000000
11
12.7882541324
21
21.9591154740
31
0.0000000000
11
12.7569235763
21
22.0109766649
31
0.0000000000
11
12.7196039224
21
22.0586059936
31
0.0000000000
11
12.6770596394
21
22.1011516778
31
0.0000000000
11
12.6294263295
21
22.1384765638
31
0.0000000000
11
12.5775659928
21
22.1698082992
31
0.0000000000
11
12.5226464157
21
22.1945044952
31
0.0000000000
11
12.4650176135
21
22.2124536180
31
0.0000000000
11
12.4054890827
21
22.2233469161
31
0.0000000000
11
12.3454123708
21
22.2269690554
31
0.0000000000
0
SPLINE
5
442
100
AcDbEntity
8
0
100
AcDbSpline
62
7
6
CONTINUOUS
70
0
71
3
72
18
73
14
74
12
42
0.0000001000
43
0.0000001000
44
0.0000000001
12
0.4220894472
22
0.0000000000
32
0.0000000000
13
-0.0000000000
23
-0.4220894472
33
0.0000000000
40
0.0000000000
40
0.0000000000
40
0.0000000000
40
0.0000000000
40
0.0776652719
40
0.1563493938
40
0.2365970700
40
0.3195726025
40
0.4057184484
40
0.4958124164
40
0.5899418736
40
0.6880724625
40
0.7898330809
40
0.8940909649
40
1.0000000000
40
1.0000000000
40
1.0000000000
40
1.0000000000
10
-5.7955804531
20
-23.2898628456
30
0.0000000000
10
-5.7846532225
20
-23.2898628456
30
0.0000000000
10
-5.7626194822
20
-23.2915369515
30
0.0000000000
10
-5.7300713585
20
-23.2990740301
30
0.0000000000
10
-5.6983187761
20
-23.3116806098
30
0.0000000000
10
-5.6678762395
20
-23.3293772805
30
0.0000000000
10
-5.6392557013
20
-23.3521878548
30
0.0000000000
10
-5.6131256368
20
-23.3800106851
30
0.0000000000
10
-5.5902063056
20
-23.4126181682
30
0.0000000000
10
-5.5712751689
20
-23.4495472370
30
0.0000000000
10
-5.5570931934
20
-23.4900640310
30
0.0000000000
10
-5.5482892809
20
-23.5331883612
30
0.0000000000
10
-5.5463034509
20
-23.5627972343
30
0.0000000000
10
-5.5463034509
20
-23.5776982630
30
0.0000000000
11
-5.7955804531
21
-23.2898628456
31
0.0000000000
11
-5.7628926365
21
-23.2923419507
31
0.0000000000
11
-5.7305321992
21
-23.2998133362
31
0.0000000000
11
-5.6990390545
21
-23.3122822461
31
0.0000000000
11
-5.6687381908
21
-23.3298457013
31
0.0000000000
11
-5.6402712965
21
-23.3524681815
31
0.0000000000
11
-5.6141974163
21
-23.3801495785
31
0.0000000000
11
-5.5913046384
21
-23.4126222916
31
0.0000000000
11
-5.5723644097
21
-23.4494580717
31
0.0000000000
11
-5.5581346946
21
-23.4899845650
31
0.0000000000
11
-5.5493069357
21
-23.5330961892
31
0.0000000000
11
-5.5463034509
21
-23.5776982630
31
0.0000000000
0
SPLINE
5
443
100
AcDbEntity
8
0
100
AcDbSpline
62
9
6
CONTINUOUS
70
0
71
3
72
18
73
14
74
12
42
0.0000001000
43
0.0000001000
44
0.0000000001
12
-0.0012300470
22
0.3662149009
32
0.0000000000
13
-0.3662158046
23
0.0009225687
33
0.0000000000
40
0.0000000000
40
0.0000000000
40
0.0000000000
40
0.0000000000
40
0.0842351835
40
0.1691282730
40
0.2551195891
40
0.3426056523
40
0.4318362164
40
0.5229156189
40
0.6157961265
40
0.7102918552
40
0.8060988660
40
0.9028204681
40
1.0000000000
40
1.0000000000
40
1.0000000000
40
1.0000000000
10
-5.5506752849
20
-24.0115506821
30
0.0000000000
10
-5.5507098227
20
-24.0012679556
30
0.0000000000
10
-5.5524881864
20
-23.9805883571
30
0.0000000000
10
-5.5602127598
20
-23.9502840019
30
0.0000000000
10
-5.5728339722
20
-23.9212342443
30
0.0000000000
10
-5.5900796596
20
-23.8940494886
30
0.0000000000
10
-5.6115868509
20
-23.8692746916
30
0.0000000000
10
-5.6369094316
20
-23.8474053779
30
0.0000000000
10
-5.6655293124
20
-23.8288744599
30
0.0000000000
10
-5.6968653724
20
-23.8140475653
30
0.0000000000
10
-5.7302872243
20
-23.8032166421
30
0.0000000000
10
-5.7651158044
20
-23.7965948213
30
0.0000000000
10
-5.7888081607
20
-23.7950742160
30
0.0000000000
10
-5.8006710541
20
-23.7950443311
30
0.0000000000
11
-5.5506752849
21
-24.0115506821
31
0.0000000000
11
-5.5533104159
21
-23.9808150840
31
0.0000000000
11
-5.5609627178
21
-23.9506822744
31
0.0000000000
11
-5.5734769119
21
-23.9217840358
31
0.0000000000
11
-5.5906003418
21
-23.8947049291
31
0.0000000000
11
-5.6119850497
21
-23.8699960361
31
0.0000000000
11
-5.6371974226
21
-23.8481584439
31
0.0000000000
11
-5.6657258964
21
-23.8296353016
31
0.0000000000
11
-5.6969917674
21
-23.8148023541
31
0.0000000000
11
-5.7303607976
21
-23.8039604933
31
0.0000000000
11
-5.7651557149
21
-23.7973296962
31
0.0000000000
11
-5.8006710541
21
-23.7950443311
31
0.0000000000
0
SPLINE
5
444
100
AcDbEntity
8
0
100
AcDbSpline
62
9
6
CONTINUOUS
70
0
71
3
72
18
73
14
74
12
42
0.0000001000
43
0.0000001000
44
0.0000000001
12
0.0012300469
22
0.3662148875
32
0.0000000000
13
0.3662157912
23
0.0009225687
33
0.0000000000
40
0.0000000000
40
0.0000000000
40
0.0000000000
40
0.0000000000
40
0.0842917733
40
0.1691857338
40
0.2551786798
40
0.3426611748
40
0.4318880673
40
0.5229629903
40
0.6158387450
40
0.7103295894
40
0.8061307215
40
0.9028472123
40
1.0000000000
40
1.0000000000
40
1.0000000000
40
1.0000000000
10
-8.4419316169
20
-24.0115506821
30
0.0000000000
10
-8.4418970560
20
-24.0012610480
30
0.0000000000
10
-8.4401169195
20
-23.9805743617
30
0.0000000000
10
-8.4323872452
20
-23.9502638618
30
0.0000000000
10
-8.4197629685
20
-23.9212155749
30
0.0000000000
10
-8.4025149420
20
-23.8940331458
30
0.0000000000
10
-8.3810065193
20
-23.8692613440
30
0.0000000000
10
-8.3556834752
20
-23.8473950152
30
0.0000000000
10
-8.3270638477
20
-23.8288669188
30
0.0000000000
10
-8.2957286957
20
-23.8140425813
30
0.0000000000
10
-8.2623082095
20
-23.8032138018
30
0.0000000000
10
-8.2274839219
20
-23.7965941595
30
0.0000000000
10
-8.2037954760
20
-23.7950742078
30
0.0000000000
10
-8.1919358477
20
-23.7950443311
30
0.0000000000
11
-8.4419316169
21
-24.0115506821
31
0.0000000000
11
-8.4392930209
21
-23.9807945820
31
0.0000000000
11
-8.4316373584
21
-23.9506622982
31
0.0000000000
11
-8.4191198325
21
-23.9217648534
31
0.0000000000
11
-8.4019943917
21
-23.8946885659
31
0.0000000000
11
-8.3806083809
21
-23.8699825806
31
0.0000000000
11
-8.3553955717
21
-23.8481479998
31
0.0000000000
11
-8.3268673421
21
-23.8296276801
31
0.0000000000
11
-8.2956022622
21
-23.8147972413
31
0.0000000000
11
-8.2622347790
21
-23.8039575905
31
0.0000000000
11
-8.2274414506
21
-23.7973284617
31
0.0000000000
11
-8.1919358477
21
-23.7950443311
31
0.0000000000
0
SPLINE
5
445
100
AcDbEntity
8
0
100
AcDbSpline
62
7
6
CONTINUOUS
70
0
71
3
72
18
73
14
74
12
42
0.0000001000
43
0.0000001000
44
0.0000000001
12
0.0000000000
22
0.4220894472
32
0.0000000000
13
0.4220894472
23
-0.0000000000
33
0.0000000000
40
0.0000000000
40
0.0000000000
40
0.0000000000
40
0.0000000000
40
0.1059090351
40
0.2101669191
40
0.3119275375
40
0.4100581264
40
0.5041875836
40
0.5942815516
40
0.6804273975
40
0.7634029300
40
0.8436506062
40
0.9223347281
40
1.0000000000
40
1.0000000000
40
1.0000000000
40
1.0000000000
10
-8.4463034509
20
-23.5776982630
30
0.0000000000
10
-8.4463034509
20
-23.5627972343
30
0.0000000000
10
-8.4443176210
20
-23.5331883612
30
0.0000000000
10
-8.4355137085
20
-23.4900640310
30
0.0000000000
10
-8.4213317330
20
-23.4495472370
30
0.0000000000
10
-8.4024005962
20
-23.4126181682
30
0.0000000000
10
-8.3794812651
20
-23.3800106851
30
0.0000000000
10
-8.3533512005
20
-23.3521878548
30
0.0000000000
10
-8.3247306623
20
-23.3293772805
30
0.0000000000
10
-8.2942881258
20
-23.3116806098
30
0.0000000000
10
-8.2625355433
20
-23.2990740301
30
0.0000000000
10
-8.2299874197
20
-23.2915369515
30
0.0000000000
10
-8.2079536794
20
-23.2898628456
30
0.0000000000
10
-8.1970264488
20
-23.2898628456
30
0.0000000000
11
-8.4463034509
21
-23.5776982630
31
0.0000000000
11
-8.4432999661
21
-23.5330961892
31
0.0000000000
11
-8.4344722073
21
-23.4899845650
31
0.0000000000
11
-8.4202424922
21
-23.4494580717
31
0.0000000000
11
-8.4013022635
21
-23.4126222916
31
0.0000000000
11
-8.3784094855
21
-23.3801495785
31
0.0000000000
11
-8.3523356054
21
-23.3524681815
31
0.0000000000
11
-8.3238687110
21
-23.3298457013
31
0.0000000000
11
-8.2935678474
21
-23.3122822461
31
0.0000000000
11
-8.2620747027
21
-23.2998133362
31
0.0000000000
11
-8.2297142653
21
-23.2923419507
31
0.0000000000
11
-8.1970264488
21
-23.2898628456
31
0.0000000000
0
SPLINE
5
446
100
AcDbEntity
8
0
100
AcDbSpline
62
9
6
CONTINUOUS
70
0
71
3
72
18
73
14
74
12
42
0.0000001000
43
0.0000001000
44
0.0000000001
12
0.0012300470
22
0.3662149009
32
0.0000000000
13
0.3662158046
23
0.0009225687
33
0.0000000000
40
0.0000000000
40
0.0000000000
40
0.0000000000
40
0.0000000000
40
0.0842351835
40
0.1691282730
40
0.2551195891
40
0.3426056523
40
0.4318362164
40
0.5229156189
40
0.6157961265
40
0.7102918552
40
0.8060988660
40
0.9028204681
40
1.0000000000
40
1.0000000000
40
1.0000000000
40
1.0000000000
10
8.9580683831
20
-24.0115506821
30
0.0000000000
10
8.9581029208
20
-24.0012679556
30
0.0000000000
10
8.9598812846
20
-23.9805883571
30
0.0000000000
10
8.9676058580
20
-23.9502840019
30
0.0000000000
10
8.9802270703
20
-23.9212342443
30
0.0000000000
10
8.9974727577
20
-23.8940494886
30
0.0000000000
10
9.0189799491
20
-23.8692746916
30
0.0000000000
10
9.0443025298
20
-23.8474053779
30
0.0000000000
10
9.0729224106
20
-23.8288744599
30
0.0000000000
10
9.1042584705
20
-23.8140475653
30
0.0000000000
10
9.1376803225
20
-23.8032166421
30
0.0000000000
10
9.1725089025
20
-23.7965948213
30
0.0000000000
10
9.1962012588
20
-23.7950742160
30
0.0000000000
10
9.2080641523
20
-23.7950443311
30
0.0000000000
11
8.9580683831
21
-24.0115506821
31
0.0000000000
11
8.9607035141
21
-23.9808150840
31
0.0000000000
11
8.9683558160
21
-23.9506822744
31
0.0000000000
11
8.9808700100
21
-23.9217840358
31
0.0000000000
11
8.9979934400
21
-23.8947049291
31
0.0000000000
11
9.0193781478
21
-23.8699960361
31
0.0000000000
11
9.0445905208
21
-23.8481584439
31
0.0000000000
11
9.0731189945
21
-23.8296353016
31
0.0000000000
11
9.1043848656
21
-23.8148023541
31
0.0000000000
11
9.1377538957
21
-23.8039604933
31
0.0000000000
11
9.1725488131
21
-23.7973296962
31
0.0000000000
11
9.2080641523
21
-23.7950443311
31
0.0000000000
0
SPLINE
5
447
100
AcDbEntity
8
0
100
AcDbSpline
62
7
6
CONTINUOUS
70
0
71
3
72
18
73
14
74
12
42
0.0000001000
43
0.0000001000
44
0.0000000001
12
0.0000000000
22
0.4220894472
32
0.0000000000
13
0.4220894472
23
0.0000000000
33
0.0000000000
40
0.0000000000
40
0.0000000000
40
0.0000000000
40
0.0000000000
40
0.1059090351
40
0.2101669191
40
0.3119275375
40
0.4100581264
40
0.5041875836
40
0.5942815516
40
0.6804273975
40
0.7634029300
40
0.8436506062
40
0.9223347281
40
1.0000000000
40
1.0000000000
40
1.0000000000
40
1.0000000000
10
8.9536965491
20
-23.5776982630
30
0.0000000000
10
8.9536965491
20
-23.5627972343
30
0.0000000000
10
8.9556823790
20
-23.5331883612
30
0.0000000000
10
8.9644862915
20
-23.4900640310
30
0.0000000000
10
8.9786682670
20
-23.4495472370
30
0.0000000000
10
8.9975994038
20
-23.4126181682
30
0.0000000000
10
9.0205187349
20
-23.3800106851
30
0.0000000000
10
9.0466487995
20
-23.3521878548
30
0.0000000000
10
9.0752693377
20
-23.3293772805
30
0.0000000000
10
9.1057118742
20
-23.3116806098
30
0.0000000000
10
9.1374644567
20
-23.2990740301
30
0.0000000000
10
9.1700125803
20
-23.2915369515
30
0.0000000000
10
9.1920463206
20
-23.2898628456
30
0.0000000000
10
9.2029735512
20
-23.2898628456
30
0.0000000000
11
8.9536965491
21
-23.5776982630
31
0.0000000000
11
8.9567000339
21
-23.5330961892
31
0.0000000000
11
8.9655277927
21
-23.4899845650
31
0.0000000000
11
8.9797575078
21
-23.4494580717
31
0.0000000000
11
8.9986977365
21
-23.4126222916
31
0.0000000000
11
9.0215905145
21
-23.3801495785
31
0.0000000000
11
9.0476643946
21
-23.3524681815
31
0.0000000000
11
9.0761312890
21
-23.3298457013
31
0.0000000000
11
9.1064321526
21
-23.3122822461
31
0.0000000000
11
9.1379252973
21
-23.2998133362
31
0.0000000000
11
9.1702857347
21
-23.2923419507
31
0.0000000000
11
9.2029735512
21
-23.2898628456
31
0.0000000000
0
SPLINE
5
448
100
AcDbEntity
8
0
100
AcDbSpline
62
7
6
CONTINUOUS
70
0
71
3
72
18
73
14
74
12
42
0.0000001000
43
0.0000001000
44
0.0000000001
12
0.4220894472
22
0.0000000000
32
0.0000000000
13
0.0000000000
23
-0.4220894472
33
0.0000000000
40
0.0000000000
40
0.0000000000
40
0.0000000000
40
0.0000000000
40
0.0776652719
40
0.1563493938
40
0.2365970700
40
0.3195726025
40
0.4057184484
40
0.4958124164
40
0.5899418736
40
0.6880724625
40
0.7898330809
40
0.8940909649
40
1.0000000000
40
1.0000000000
40
1.0000000000
40
1.0000000000
10
11.6044195469
20
-23.2898628456
30
0.0000000000
10
11.6153467775
20
-23.2898628456
30
0.0000000000
10
11.6373805178
20
-23.2915369515
30
0.0000000000
10
11.6699286415
20
-23.2990740301
30
0.0000000000
10
11.7016812239
20
-23.3116806098
30
0.0000000000
10
11.7321237605
20
-23.3293772805
30
0.0000000000
10
11.7607442987
20
-23.3521878548
30
0.0000000000
10
11.7868743632
20
-23.3800106851
30
0.0000000000
10
11.8097936944
20
-23.4126181682
30
0.0000000000
10
11.8287248311
20
-23.4495472370
30
0.0000000000
10
11.8429068066
20
-23.4900640310
30
0.0000000000
10
11.8517107191
20
-23.5331883612
30
0.0000000000
10
11.8536965491
20
-23.5627972343
30
0.0000000000
10
11.8536965491
20
-23.5776982630
30
0.0000000000
11
11.6044195469
21
-23.2898628456
31
0.0000000000
11
11.6371073635
21
-23.2923419507
31
0.0000000000
11
11.6694678008
21
-23.2998133362
31
0.0000000000
11
11.7009609455
21
-23.3122822461
31
0.0000000000
11
11.7312618092
21
-23.3298457013
31
0.0000000000
11
11.7597287035
21
-23.3524681815
31
0.0000000000
11
11.7858025837
21
-23.3801495785
31
0.0000000000
11
11.8086953616
21
-23.4126222916
31
0.0000000000
11
11.8276355903
21
-23.4494580717
31
0.0000000000
11
11.8418653054
21
-23.4899845650
31
0.0000000000
11
11.8506930643
21
-23.5330961892
31
0.0000000000
11
11.8536965491
21
-23.5776982630
31
0.0000000000
0
SPLINE
5
449
100
AcDbEntity
8
0
100
AcDbSpline
62
7
6
CONTINUOUS
70
0
71
3
72
32
73
28
74
26
42
0.0000001000
43
0.0000001000
44
0.0000000001
12
-0.6407329712
22
0.6407329712
32
0.0000000000
13
-0.0000000000
23
-0.9061332577
33
0.0000000000
40
0.0000000000
40
0.0000000000
40
0.0000000000
40
0.0000000000
40
0.0043069725
40
0.0163919153
40
0.0360729346
40
0.0630421591
40
0.0968762501
40
0.1370439022
40
0.1829140150
40
0.2337660174
40
0.2888008725
40
0.3471539500
40
0.4079083789
40
0.4701096322
40
0.5327805248
40
0.5949363991
40
0.6556005566
40
0.7138199080
40
0.7686796671
40
0.8193179791
40
0.8649391463
40
0.9048265250
40
0.9383534049
40
0.9649933132
40
0.9843280882
40
0.9960553636
40
1.0000000000
40
1.0000000000
40
1.0000000000
40
1.0000000000
10
6.1097743020
20
-22.5232908677
30
0.0000000000
10
6.1088544289
20
-22.5223709946
30
0.0000000000
10
6.1030439774
20
-22.5237881313
30
0.0000000000
10
6.0929512195
20
-22.5219838969
30
0.0000000000
10
6.0747711876
20
-22.5225370444
30
0.0000000000
10
6.0506525984
20
-22.5218894377
30
0.0000000000
10
6.0200845908
20
-22.5217564095
30
0.0000000000
10
5.9839035982
20
-22.5214613749
30
0.0000000000
10
5.9425492601
20
-22.5212561565
30
0.0000000000
10
5.8967148446
20
-22.5210614433
30
0.0000000000
10
5.8471065559
20
-22.5209072678
30
0.0000000000
10
5.7945081816
20
-22.5207880261
30
0.0000000000
10
5.7397448700
20
-22.5207081561
30
0.0000000000
10
5.6836774306
20
-22.5206682753
30
0.0000000000
10
5.6271866337
20
-22.5206692180
30
0.0000000000
10
5.5711602109
20
-22.5207109986
30
0.0000000000
10
5.5164781015
20
-22.5207926357
30
0.0000000000
10
5.4640008529
20
-22.5209138650
30
0.0000000000
10
5.4145484251
20
-22.5210689039
30
0.0000000000
10
5.3689131336
20
-22.5212677148
30
0.0000000000
10
5.3277625326
20
-22.5214660644
30
0.0000000000
10
5.2918970711
20
-22.5217871297
30
0.0000000000
10
5.2614256480
20
-22.5218499757
30
0.0000000000
10
5.2380794185
20
-22.5226841181
30
0.0000000000
10
5.2191164262
20
-22.5217078817
30
0.0000000000
10
5.2112794624
20
-22.5242359286
30
0.0000000000
10
5.2036965491
20
-22.5221147462
30
0.0000000000
10
5.2036965491
20
-22.5233062016
30
0.0000000000
11
6.1097743020
21
-22.5232908677
31
0.0000000000
11
6.1058855545
21
-22.5229612626
31
0.0000000000
11
6.0949397856
21
-22.5226370755
31
0.0000000000
11
6.0771089183
21
-22.5223234008
31
0.0000000000
11
6.0526730269
21
-22.5220251669
31
0.0000000000
11
6.0220160933
21
-22.5217470609
31
0.0000000000
11
5.9856197313
21
-22.5214934520
31
0.0000000000
11
5.9440559063
21
-22.5212683259
31
0.0000000000
11
5.8979776203
21
-22.5210752194
31
0.0000000000
11
5.8481089583
21
-22.5209171671
31
0.0000000000
11
5.7952334314
21
-22.5207966522
31
0.0000000000
11
5.7401818825
21
-22.5207155682
31
0.0000000000
11
5.6838192727
21
-22.5206751891
31
0.0000000000
11
5.6270310926
21
-22.5206761492
31
0.0000000000
11
5.5707096037
21
-22.5207184339
31
0.0000000000
11
5.5157398556
21
-22.5208013785
31
0.0000000000
11
5.4629855068
21
-22.5209236801
31
0.0000000000
11
5.4132755112
21
-22.5210834168
31
0.0000000000
11
5.3673908655
21
-22.5212780791
31
0.0000000000
11
5.3260526294
21
-22.5215046080
31
0.0000000000
11
5.2899102473
21
-22.5217594446
31
0.0000000000
11
5.2595317089
21
-22.5220385840
31
0.0000000000
11
5.2353942545
21
-22.5223376407
31
0.0000000000
11
5.2178771908
21
-22.5226519148
31
0.0000000000
11
5.2072556739
21
-22.5229764685
31
0.0000000000
11
5.2036965491
21
-22.5233062016
31
0.0000000000
0
SPLINE
5
44A
100
AcDbEntity
8
0
100
AcDbSpline
62
9
6
CONTINUOUS
70
0
71
3
72
18
73
14
74
12
42
0.0000001000
43
0.0000001000
44
0.0000000001
12
-0.0012300469
22
0.3662148875
32
0.0000000000
13
-0.3662157912
23
0.0009225687
33
0.0000000000
40
0.0000000000
40
0.0000000000
40
0.0000000000
40
0.0000000000
40
0.0842917733
40
0.1691857338
40
0.2551786798
40
0.3426611748
40
0.4318880673
40
0.5229629903
40
0.6158387450
40
0.7103295894
40
0.8061307215
40
0.9028472123
40
1.0000000000
40
1.0000000000
40
1.0000000000
40
1.0000000000
10
11.8493247151
20
-24.0115506821
30
0.0000000000
10
11.8492901541
20
-24.0012610480
30
0.0000000000
10
11.8475100177
20
-23.9805743617
30
0.0000000000
10
11.8397803433
20
-23.9502638618
30
0.0000000000
10
11.8271560666
20
-23.9212155749
30
0.0000000000
10
11.8099080401
20
-23.8940331458
30
0.0000000000
10
11.7883996174
20
-23.8692613440
30
0.0000000000
10
11.7630765734
20
-23.8473950152
30
0.0000000000
10
11.7344569458
20
-23.8288669188
30
0.0000000000
10
11.7031217938
20
-23.8140425813
30
0.0000000000
10
11.6697013077
20
-23.8032138018
30
0.0000000000
10
11.6348770201
20
-23.7965941595
30
0.0000000000
10
11.6111885742
20
-23.7950742078
30
0.0000000000
10
11.5993289459
20
-23.7950443311
30
0.0000000000
11
11.8493247151
21
-24.0115506821
31
0.0000000000
11
11.8466861190
21
-23.9807945820
31
0.0000000000
11
11.8390304566
21
-23.9506622982
31
0.0000000000
11
11.8265129307
21
-23.9217648534
31
0.0000000000
11
11.8093874898
21
-23.8946885659
31
0.0000000000
11
11.7880014791
21
-23.8699825806
31
0.0000000000
11
11.7627886698
21
-23.8481479998
31
0.0000000000
11
11.7342604403
21
-23.8296276801
31
0.0000000000
11
11.7029953603
21
-23.8147972413
31
0.0000000000
11
11.6696278771
21
-23.8039575905
31
0.0000000000
11
11.6348345488
21
-23.7973284617
31
0.0000000000
11
11.5993289459
21
-23.7950443311
31
0.0000000000
0
SPLINE
5
44B
100
AcDbEntity
8
0
100
AcDbSpline
62
7
6
CONTINUOUS
70
0
71
3
72
32
73
28
74
26
42
0.0000001000
43
0.0000001000
44
0.0000000001
12
0.0000000000
22
0.9061332577
32
0.0000000000
13
-0.6407329712
23
-0.6407329712
33
0.0000000000
40
0.0000000000
40
0.0000000000
40
0.0000000000
40
0.0000000000
40
0.0039446364
40
0.0156719118
40
0.0350066868
40
0.0616465951
40
0.0951734750
40
0.1350608537
40
0.1806820209
40
0.2313203329
40
0.2861800920
40
0.3443994434
40
0.4050636009
40
0.4672194752
40
0.5298903678
40
0.5920916211
40
0.6528460500
40
0.7111991275
40
0.7662339826
40
0.8170859850
40
0.8629560978
40
0.9031237499
40
0.9369578409
40
0.9639270654
40
0.9836080847
40
0.9956930275
40
1.0000000000
40
1.0000000000
40
1.0000000000
40
1.0000000000
10
-1.7963034509
20
-22.5233062016
30
0.0000000000
10
-1.7963034509
20
-22.5221147462
30
0.0000000000
10
-1.8038863642
20
-22.5242359286
30
0.0000000000
10
-1.8117233280
20
-22.5217078817
30
0.0000000000
10
-1.8306863203
20
-22.5226841181
30
0.0000000000
10
-1.8540325499
20
-22.5218499757
30
0.0000000000
10
-1.8845039729
20
-22.5217871297
30
0.0000000000
10
-1.9203694344
20
-22.5214660644
30
0.0000000000
10
-1.9615200355
20
-22.5212677148
30
0.0000000000
10
-2.0071553270
20
-22.5210689039
30
0.0000000000
10
-2.0566077547
20
-22.5209138650
30
0.0000000000
10
-2.1090850033
20
-22.5207926357
30
0.0000000000
10
-2.1637671127
20
-22.5207109986
30
0.0000000000
10
-2.2197935356
20
-22.5206692180
30
0.0000000000
10
-2.2762843325
20
-22.5206682753
30
0.0000000000
10
-2.3323517718
20
-22.5207081561
30
0.0000000000
10
-2.3871150834
20
-22.5207880261
30
0.0000000000
10
-2.4397134578
20
-22.5209072678
30
0.0000000000
10
-2.4893217464
20
-22.5210614433
30
0.0000000000
10
-2.5351561619
20
-22.5212561565
30
0.0000000000
10
-2.5765105001
20
-22.5214613749
30
0.0000000000
10
-2.6126914926
20
-22.5217564095
30
0.0000000000
10
-2.6432595002
20
-22.5218894377
30
0.0000000000
10
-2.6673780894
20
-22.5225370444
30
0.0000000000
10
-2.6855581214
20
-22.5219838969
30
0.0000000000
10
-2.6956508793
20
-22.5237881313
30
0.0000000000
10
-2.7014613308
20
-22.5223709946
30
0.0000000000
10
-2.7023812039
20
-22.5232908677
30
0.0000000000
11
-1.7963034509
21
-22.5233062016
31
0.0000000000
11
-1.7998625758
21
-22.5229764685
31
0.0000000000
11
-1.8104840926
21
-22.5226519148
31
0.0000000000
11
-1.8280011564
21
-22.5223376407
31
0.0000000000
11
-1.8521386107
21
-22.5220385840
31
0.0000000000
11
-1.8825171492
21
-22.5217594446
31
0.0000000000
11
-1.9186595312
21
-22.5215046080
31
0.0000000000
11
-1.9599977674
21
-22.5212780791
31
0.0000000000
11
-2.0058824130
21
-22.5210834168
31
0.0000000000
11
-2.0555924086
21
-22.5209236801
31
0.0000000000
11
-2.1083467574
21
-22.5208013785
31
0.0000000000
11
-2.1633165055
21
-22.5207184339
31
0.0000000000
11
-2.2196379944
21
-22.5206761492
31
0.0000000000
11
-2.2764261746
21
-22.5206751891
31
0.0000000000
11
-2.3327887843
21
-22.5207155682
31
0.0000000000
11
-2.3878403332
21
-22.5207966522
31
0.0000000000
11
-2.4407158601
21
-22.5209171671
31
0.0000000000
11
-2.4905845221
21
-22.5210752194
31
0.0000000000
11
-2.5366628081
21
-22.5212683259
31
0.0000000000
11
-2.5782266332
21
-22.5214934520
31
0.0000000000
11
-2.6146229951
21
-22.5217470609
31
0.0000000000
11
-2.6452799288
21
-22.5220251669
31
0.0000000000
11
-2.6697158202
21
-22.5223234008
31
0.0000000000
11
-2.6875466875
21
-22.5226370755
31
0.0000000000
11
-2.6984924563
21
-22.5229612626
31
0.0000000000
11
-2.7023812039
21
-22.5232908677
31
0.0000000000
0
SPLINE
5
44C
100
AcDbEntity
8
0
100
AcDbSpline
62
7
6
CONTINUOUS
70
0
71
3
72
32
73
28
74
26
42
0.0000001000
43
0.0000001000
44
0.0000000001
12
0.0000000000
22
-0.9061332577
32
0.0000000000
13
0.6407329712
23
0.6407329712
33
0.0000000000
40
0.0000000000
40
0.0000000000
40
0.0000000000
40
0.0000000000
40
0.0039446364
40
0.0156719118
40
0.0350066868
40
0.0616465951
40
0.0951734750
40
0.1350608537
40
0.1806820209
40
0.2313203329
40
0.2861800920
40
0.3443994434
40
0.4050636009
40
0.4672194752
40
0.5298903678
40
0.5920916211
40
0.6528460500
40
0.7111991275
40
0.7662339826
40
0.8170859850
40
0.8629560978
40
0.9031237499
40
0.9369578409
40
0.9639270654
40
0.9836080847
40
0.9956930275
40
1.0000000000
40
1.0000000000
40
1.0000000000
40
1.0000000000
10
5.2036965491
20
22.1888799721
30
0.0000000000
10
5.2036965491
20
22.1876885167
30
0.0000000000
10
5.2112794624
20
22.1898096991
30
0.0000000000
10
5.2191164262
20
22.1872816522
30
0.0000000000
10
5.2380794185
20
22.1882578886
30
0.0000000000
10
5.2614256480
20
22.1874237462
30
0.0000000000
10
5.2918970711
20
22.1873609002
30
0.0000000000
10
5.3277625326
20
22.1870398349
30
0.0000000000
10
5.3689131336
20
22.1868414853
30
0.0000000000
10
5.4145484251
20
22.1866426744
30
0.0000000000
10
5.4640008529
20
22.1864876355
30
0.0000000000
10
5.5164781015
20
22.1863664062
30
0.0000000000
10
5.5711602109
20
22.1862847691
30
0.0000000000
10
5.6271866337
20
22.1862429885
30
0.0000000000
10
5.6836774306
20
22.1862420458
30
0.0000000000
10
5.7397448700
20
22.1862819266
30
0.0000000000
10
5.7945081816
20
22.1863617966
30
0.0000000000
10
5.8471065559
20
22.1864810383
30
0.0000000000
10
5.8967148446
20
22.1866352138
30
0.0000000000
10
5.9425492601
20
22.1868299270
30
0.0000000000
10
5.9839035982
20
22.1870351454
30
0.0000000000
10
6.0200845908
20
22.1873301800
30
0.0000000000
10
6.0506525984
20
22.1874632082
30
0.0000000000
10
6.0747711876
20
22.1881108149
30
0.0000000000
10
6.0929512195
20
22.1875576674
30
0.0000000000
10
6.1030439774
20
22.1893619018
30
0.0000000000
10
6.1088544289
20
22.1879447651
30
0.0000000000
10
6.1097743020
20
22.1888646382
30
0.0000000000
11
5.2036965491
21
22.1888799721
31
0.0000000000
11
5.2072556739
21
22.1885502390
31
0.0000000000
11
5.2178771908
21
22.1882256853
31
0.0000000000
11
5.2353942545
21
22.1879114112
31
0.0000000000
11
5.2595317089
21
22.1876123545
31
0.0000000000
11
5.2899102473
21
22.1873332151
31
0.0000000000
11
5.3260526294
21
22.1870783785
31
0.0000000000
11
5.3673908655
21
22.1868518496
31
0.0000000000
11
5.4132755112
21
22.1866571873
31
0.0000000000
11
5.4629855068
21
22.1864974506
31
0.0000000000
11
5.5157398556
21
22.1863751490
31
0.0000000000
11
5.5707096037
21
22.1862922043
31
0.0000000000
11
5.6270310926
21
22.1862499197
31
0.0000000000
11
5.6838192727
21
22.1862489595
31
0.0000000000
11
5.7401818825
21
22.1862893387
31
0.0000000000
11
5.7952334314
21
22.1863704227
31
0.0000000000
11
5.8481089583
21
22.1864909376
31
0.0000000000
11
5.8979776203
21
22.1866489899
31
0.0000000000
11
5.9440559063
21
22.1868420964
31
0.0000000000
11
5.9856197313
21
22.1870672225
31
0.0000000000
11
6.0220160933
21
22.1873208314
31
0.0000000000
11
6.0526730269
21
22.1875989374
31
0.0000000000
11
6.0771089183
21
22.1878971713
31
0.0000000000
11
6.0949397856
21
22.1882108459
31
0.0000000000
11
6.1058855545
21
22.1885350331
31
0.0000000000
11
6.1097743020
21
22.1888646382
31
0.0000000000
0
SPLINE
5
44D
100
AcDbEntity
8
0
100
AcDbSpline
62
7
6
CONTINUOUS
70
0
71
3
72
32
73
28
74
26
42
0.0000001000
43
0.0000001000
44
0.0000000001
12
0.6407329712
22
-0.6407329712
32
0.0000000000
13
0.0000000000
23
0.9061332577
33
0.0000000000
40
0.0000000000
40
0.0000000000
40
0.0000000000
40
0.0000000000
40
0.0043069725
40
0.0163919153
40
0.0360729346
40
0.0630421591
40
0.0968762501
40
0.1370439022
40
0.1829140150
40
0.2337660174
40
0.2888008725
40
0.3471539500
40
0.4079083789
40
0.4701096322
40
0.5327805248
40
0.5949363991
40
0.6556005566
40
0.7138199080
40
0.7686796671
40
0.8193179791
40
0.8649391463
40
0.9048265250
40
0.9383534049
40
0.9649933132
40
0.9843280882
40
0.9960553636
40
1.0000000000
40
1.0000000000
40
1.0000000000
40
1.0000000000
10
-2.7023812039
20
22.1888646382
30
0.0000000000
10
-2.7014613308
20
22.1879447651
30
0.0000000000
10
-2.6956508793
20
22.1893619018
30
0.0000000000
10
-2.6855581214
20
22.1875576674
30
0.0000000000
10
-2.6673780894
20
22.1881108149
30
0.0000000000
10
-2.6432595002
20
22.1874632082
30
0.0000000000
10
-2.6126914926
20
22.1873301800
30
0.0000000000
10
-2.5765105001
20
22.1870351454
30
0.0000000000
10
-2.5351561619
20
22.1868299270
30
0.0000000000
10
-2.4893217464
20
22.1866352138
30
0.0000000000
10
-2.4397134578
20
22.1864810383
30
0.0000000000
10
-2.3871150834
20
22.1863617966
30
0.0000000000
10
-2.3323517718
20
22.1862819266
30
0.0000000000
10
-2.2762843325
20
22.1862420458
30
0.0000000000
10
-2.2197935356
20
22.1862429885
30
0.0000000000
10
-2.1637671127
20
22.1862847691
30
0.0000000000
10
-2.1090850033
20
22.1863664062
30
0.0000000000
10
-2.0566077547
20
22.1864876355
30
0.0000000000
10
-2.0071553270
20
22.1866426744
30
0.0000000000
10
-1.9615200355
20
22.1868414853
30
0.0000000000
10
-1.9203694344
20
22.1870398349
30
0.0000000000
10
-1.8845039729
20
22.1873609002
30
0.0000000000
10
-1.8540325499
20
22.1874237462
30
0.0000000000
10
-1.8306863203
20
22.1882578886
30
0.0000000000
10
-1.8117233280
20
22.1872816522
30
0.0000000000
10
-1.8038863642
20
22.1898096991
30
0.0000000000
10
-1.7963034509
20
22.1876885167
30
0.0000000000
10
-1.7963034509
20
22.1888799721
30
0.0000000000
11
-2.7023812039
21
22.1888646382
31
0.0000000000
11
-2.6984924563
21
22.1885350331
31
0.0000000000
11
-2.6875466875
21
22.1882108459
31
0.0000000000
11
-2.6697158202
21
22.1878971713
31
0.0000000000
11
-2.6452799288
21
22.1875989374
31
0.0000000000
11
-2.6146229951
21
22.1873208314
31
0.0000000000
11
-2.5782266332
21
22.1870672225
31
0.0000000000
11
-2.5366628081
21
22.1868420964
31
0.0000000000
11
-2.4905845221
21
22.1866489899
31
0.0000000000
11
-2.4407158601
21
22.1864909376
31
0.0000000000
11
-2.3878403332
21
22.1863704227
31
0.0000000000
11
-2.3327887843
21
22.1862893387
31
0.0000000000
11
-2.2764261746
21
22.1862489595
31
0.0000000000
11
-2.2196379944
21
22.1862499197
31
0.0000000000
11
-2.1633165055
21
22.1862922043
31
0.0000000000
11
-2.1083467574
21
22.1863751490
31
0.0000000000
11
-2.0555924086
21
22.1864974506
31
0.0000000000
11
-2.0058824130
21
22.1866571873
31
0.0000000000
11
-1.9599977674
21
22.1868518496
31
0.0000000000
11
-1.9186595312
21
22.1870783785
31
0.0000000000
11
-1.8825171492
21
22.1873332151
31
0.0000000000
11
-1.8521386107
21
22.1876123545
31
0.0000000000
11
-1.8280011564
21
22.1879114112
31
0.0000000000
11
-1.8104840926
21
22.1882256853
31
0.0000000000
11
-1.7998625758
21
22.1885502390
31
0.0000000000
11
-1.7963034509
21
22.1888799721
31
0.0000000000
0
SPLINE
5
44E
100
AcDbEntity
8
0
100
AcDbSpline
62
7
6
CONTINUOUS
70
0
71
3
72
11
73
7
74
5
42
0.0000001000
43
0.0000001000
44
0.0000000001
12
-0.3103190565
22
0.4388574184
32
0.0000000000
13
-0.2908031263
23
0.4520257650
33
0.0000000000
40
0.0000000000
40
0.0000000000
40
0.0000000000
40
0.0000000000
40
0.2557937571
40
0.5094340121
40
0.7584327277
40
1.0000000000
40
1.0000000000
40
1.0000000000
40
1.0000000000
10
-5.8629491052
20
21.1687738339
30
0.0000000000
10
-5.8894083309
20
21.2061928299
30
0.0000000000
10
-5.9421045008
20
21.2807154305
30
0.0000000000
10
-6.0200577566
20
21.3920159144
30
0.0000000000
10
-6.0954911189
20
21.5019633180
30
0.0000000000
10
-6.1440313379
20
21.5752446153
30
0.0000000000
10
-6.1674475105
20
21.6116428256
30
0.0000000000
11
-5.8629491052
21
21.1687738339
31
0.0000000000
11
-5.9422426729
21
21.2810902490
31
0.0000000000
11
-6.0203529222
21
21.3928234136
31
0.0000000000
11
-6.0959393514
21
21.5032689131
31
0.0000000000
11
-6.1674475105
21
21.6116428256
31
0.0000000000
0
SPLINE
5
44F
100
AcDbEntity
8
0
100
AcDbSpline
62
7
6
CONTINUOUS
70
0
71
3
72
11
73
7
74
5
42
0.0000001000
43
0.0000001000
44
0.0000000001
12
-0.2908031263
22
-0.4520257650
32
0.0000000000
13
-0.3103190565
23
-0.4388574184
33
0.0000000000
40
0.0000000000
40
0.0000000000
40
0.0000000000
40
0.0000000000
40
0.2415672723
40
0.4905659879
40
0.7442062429
40
1.0000000000
40
1.0000000000
40
1.0000000000
40
1.0000000000
10
9.5748406087
20
21.6116428256
30
0.0000000000
10
9.5514244360
20
21.5752446153
30
0.0000000000
10
9.5028842171
20
21.5019633180
30
0.0000000000
10
9.4274508548
20
21.3920159144
30
0.0000000000
10
9.3494975990
20
21.2807154305
30
0.0000000000
10
9.2968014291
20
21.2061928299
30
0.0000000000
10
9.2703422033
20
21.1687738339
30
0.0000000000
11
9.5748406087
21
21.6116428256
31
0.0000000000
11
9.5033324495
21
21.5032689131
31
0.0000000000
11
9.4277460204
21
21.3928234136
31
0.0000000000
11
9.3496357710
21
21.2810902490
31
0.0000000000
11
9.2703422033
21
21.1687738339
31
0.0000000000
0
SPLINE
5
450
100
AcDbEntity
8
0
100
AcDbSpline
62
7
6
CONTINUOUS
70
0
71
3
72
11
73
7
74
5
42
0.0000001000
43
0.0000001000
44
0.0000000001
12
0.3103190565
22
-0.4388574184
32
0.0000000000
13
0.2908031263
23
-0.4520257650
33
0.0000000000
40
0.0000000000
40
0.0000000000
40
0.0000000000
40
0.0000000000
40
0.2557937571
40
0.5094340121
40
0.7584327277
40
1.0000000000
40
1.0000000000
40
1.0000000000
40
1.0000000000
10
9.2703422033
20
-21.5032000634
30
0.0000000000
10
9.2968014291
20
-21.5406190594
30
0.0000000000
10
9.3494975990
20
-21.6151416600
30
0.0000000000
10
9.4274508548
20
-21.7264421439
30
0.0000000000
10
9.5028842171
20
-21.8363895475
30
0.0000000000
10
9.5514244360
20
-21.9096708448
30
0.0000000000
10
9.5748406087
20
-21.9460690552
30
0.0000000000
11
9.2703422033
21
-21.5032000634
31
0.0000000000
11
9.3496357710
21
-21.6155164785
31
0.0000000000
11
9.4277460204
21
-21.7272496431
31
0.0000000000
11
9.5033324495
21
-21.8376951427
31
0.0000000000
11
9.5748406087
21
-21.9460690552
31
0.0000000000
0
SPLINE
5
451
100
AcDbEntity
8
0
100
AcDbSpline
62
7
6
CONTINUOUS
70
0
71
3
72
11
73
7
74
5
42
0.0000001000
43
0.0000001000
44
0.0000000001
12
0.2908031263
22
0.4520257650
32
0.0000000000
13
0.3103190565
23
0.4388574184
33
0.0000000000
40
0.0000000000
40
0.0000000000
40
0.0000000000
40
0.0000000000
40
0.2415672723
40
0.4905659879
40
0.7442062429
40
1.0000000000
40
1.0000000000
40
1.0000000000
40
1.0000000000
10
-6.1674475105
20
-21.9460690552
30
0.0000000000
10
-6.1440313379
20
-21.9096708448
30
0.0000000000
10
-6.0954911189
20
-21.8363895475
30
0.0000000000
10
-6.0200577566
20
-21.7264421439
30
0.0000000000
10
-5.9421045008
20
-21.6151416600
30
0.0000000000
10
-5.8894083309
20
-21.5406190594
30
0.0000000000
10
-5.8629491052
20
-21.5032000634
30
0.0000000000
11
-6.1674475105
21
-21.9460690552
31
0.0000000000
11
-6.0959393514
21
-21.8376951427
31
0.0000000000
11
-6.0203529222
21
-21.7272496431
31
0.0000000000
11
-5.9422426729
21
-21.6155164785
31
0.0000000000
11
-5.8629491052
21
-21.5032000634
31
0.0000000000
0
SPLINE
5
452
100
AcDbEntity
8
0
100
AcDbSpline
62
7
6
CONTINUOUS
70
0
71
3
72
10
73
6
74
4
42
0.0000001000
43
0.0000001000
44
0.0000000001
12
0.0033899611
22
7.2762814428
32
0.0000000000
13
0.0086799816
23
7.2762770553
33
0.0000000000
40
0.0000000000
40
0.0000000000
40
0.0000000000
40
0.0000000000
40
0.3341728452
40
0.6675968680
40
1.0000000000
40
1.0000000000
40
1.0000000000
40
1.0000000000
10
-5.6652457065
20
12.3460545274
30
0.0000000000
10
-5.6648680955
20
13.1565664182
30
0.0000000000
10
-5.6639190277
20
14.7757739019
30
0.0000000000
10
-5.6619115631
20
17.2012005032
30
0.0000000000
10
-5.6601828448
20
18.8161150292
30
0.0000000000
10
-5.6592210938
20
19.6223341235
30
0.0000000000
11
-5.6652457065
21
12.3460545274
31
0.0000000000
11
-5.6638199663
21
14.7775900457
31
0.0000000000
11
-5.6618111894
21
17.2036765067
31
0.0000000000
11
-5.6592210938
21
19.6223341235
31
0.0000000000
0
SPLINE
5
453
100
AcDbEntity
8
0
100
AcDbSpline
62
7
6
CONTINUOUS
70
0
71
3
72
10
73
6
74
4
42
0.0000001000
43
0.0000001000
44
0.0000000001
12
-0.0086799816
22
7.2762770553
32
0.0000000000
13
-0.0033899611
23
7.2762814428
33
0.0000000000
40
0.0000000000
40
0.0000000000
40
0.0000000000
40
0.0000000000
40
0.3324031320
40
0.6658271548
40
1.0000000000
40
1.0000000000
40
1.0000000000
40
1.0000000000
10
-5.6592210938
20
-19.9567603530
30
0.0000000000
10
-5.6601828448
20
-19.1505412587
30
0.0000000000
10
-5.6619115631
20
-17.5356267328
30
0.0000000000
10
-5.6639190277
20
-15.1102001314
30
0.0000000000
10
-5.6648680955
20
-13.4909926477
30
0.0000000000
10
-5.6652457065
20
-12.6804807569
30
0.0000000000
11
-5.6592210938
21
-19.9567603530
31
0.0000000000
11
-5.6618111894
21
-17.5381027362
31
0.0000000000
11
-5.6638199663
21
-15.1120162752
31
0.0000000000
11
-5.6652457065
21
-12.6804807569
31
0.0000000000
0
SPLINE
5
454
100
AcDbEntity
8
0
100
AcDbSpline
62
7
6
CONTINUOUS
70
0
71
3
72
10
73
6
74
4
42
0.0000001000
43
0.0000001000
44
0.0000000001
12
0.0086799816
22
-7.2762770553
32
0.0000000000
13
0.0033899611
23
-7.2762814428
33
0.0000000000
40
0.0000000000
40
0.0000000000
40
0.0000000000
40
0.0000000000
40
0.3324031320
40
0.6658271548
40
1.0000000000
40
1.0000000000
40
1.0000000000
40
1.0000000000
10
9.0666141920
20
19.6223341235
30
0.0000000000
10
9.0675759430
20
18.8161150292
30
0.0000000000
10
9.0693046612
20
17.2012005032
30
0.0000000000
10
9.0713121258
20
14.7757739019
30
0.0000000000
10
9.0722611936
20
13.1565664182
30
0.0000000000
10
9.0726388046
20
12.3460545274
30
0.0000000000
11
9.0666141920
21
19.6223341235
31
0.0000000000
11
9.0692042876
21
17.2036765067
31
0.0000000000
11
9.0712130645
21
14.7775900457
31
0.0000000000
11
9.0726388046
21
12.3460545274
31
0.0000000000
0
SPLINE
5
455
100
AcDbEntity
8
0
100
AcDbSpline
62
7
6
CONTINUOUS
70
0
71
3
72
10
73
6
74
4
42
0.0000001000
43
0.0000001000
44
0.0000000001
12
-0.0033899611
22
-7.2762814428
32
0.0000000000
13
-0.0086799816
23
-7.2762770553
33
0.0000000000
40
0.0000000000
40
0.0000000000
40
0.0000000000
40
0.0000000000
40
0.3341728452
40
0.6675968680
40
1.0000000000
40
1.0000000000
40
1.0000000000
40
1.0000000000
10
9.0726388046
20
-12.6804807569
30
0.0000000000
10
9.0722611936
20
-13.4909926477
30
0.0000000000
10
9.0713121258
20
-15.1102001314
30
0.0000000000
10
9.0693046612
20
-17.5356267328
30
0.0000000000
10
9.0675759430
20
-19.1505412587
30
0.0000000000
10
9.0666141920
20
-19.9567603530
30
0.0000000000
11
9.0726388046
21
-12.6804807569
31
0.0000000000
11
9.0712130645
21
-15.1120162752
31
0.0000000000
11
9.0692042876
21
-17.5381027362
31
0.0000000000
11
9.0666141920
21
-19.9567603530
31
0.0000000000
0
SPLINE
5
456
100
AcDbEntity
8
0
100
AcDbSpline
62
7
6
CONTINUOUS
70
0
71
3
72
18
73
14
74
12
42
0.0000001000
43
0.0000001000
44
0.0000000001
12
-0.4220894472
22
0.0000000000
32
0.0000000000
13
0.0000000000
23
0.4220894472
33
0.0000000000
40
0.0000000000
40
0.0000000000
40
0.0000000000
40
0.0000000000
40
0.0776652719
40
0.1563493938
40
0.2365970700
40
0.3195726025
40
0.4057184484
40
0.4958124164
40
0.5899418736
40
0.6880724625
40
0.7898330809
40
0.8940909649
40
1.0000000000
40
1.0000000000
40
1.0000000000
40
1.0000000000
10
-8.1970264488
20
22.9554366161
30
0.0000000000
10
-8.2079536794
20
22.9554366161
30
0.0000000000
10
-8.2299874197
20
22.9571107220
30
0.0000000000
10
-8.2625355433
20
22.9646478005
30
0.0000000000
10
-8.2942881258
20
22.9772543803
30
0.0000000000
10
-8.3247306623
20
22.9949510510
30
0.0000000000
10
-8.3533512005
20
23.0177616253
30
0.0000000000
10
-8.3794812651
20
23.0455844556
30
0.0000000000
10
-8.4024005962
20
23.0781919387
30
0.0000000000
10
-8.4213317330
20
23.1151210074
30
0.0000000000
10
-8.4355137085
20
23.1556378015
30
0.0000000000
10
-8.4443176210
20
23.1987621317
30
0.0000000000
10
-8.4463034509
20
23.2283710048
30
0.0000000000
10
-8.4463034509
20
23.2432720335
30
0.0000000000
11
-8.1970264488
21
22.9554366161
31
0.0000000000
11
-8.2297142653
21
22.9579157212
31
0.0000000000
11
-8.2620747027
21
22.9653871067
31
0.0000000000
11
-8.2935678474
21
22.9778560166
31
0.0000000000
11
-8.3238687110
21
22.9954194718
31
0.0000000000
11
-8.3523356054
21
23.0180419520
31
0.0000000000
11
-8.3784094855
21
23.0457233490
31
0.0000000000
11
-8.4013022635
21
23.0781960621
31
0.0000000000
11
-8.4202424922
21
23.1150318422
31
0.0000000000
11
-8.4344722073
21
23.1555583355
31
0.0000000000
11
-8.4432999661
21
23.1986699597
31
0.0000000000
11
-8.4463034509
21
23.2432720335
31
0.0000000000
0
SPLINE
5
457
100
AcDbEntity
8
0
100
AcDbSpline
62
7
6
CONTINUOUS
70
0
71
3
72
16
73
12
74
10
42
0.0000001000
43
0.0000001000
44
0.0000000001
12
-0.0000000000
22
1.5108333805
32
0.0000000000
13
-0.0000000000
23
-1.5108333805
33
0.0000000000
40
0.0000000000
40
0.0000000000
40
0.0000000000
40
0.0000000000
40
0.1174297571
40
0.2302526980
40
0.3406739543
40
0.4467200433
40
0.5532799567
40
0.6593260457
40
0.7697473020
40
0.8825702429
40
1.0000000000
40
1.0000000000
40
1.0000000000
40
1.0000000000
10
-5.6652457065
20
-12.2857431039
30
0.0000000000
10
-5.6652457065
20
-12.2266041716
30
0.0000000000
10
-5.6454510395
20
-12.1096596866
30
0.0000000000
10
-5.5608337977
20
-11.9568096967
30
0.0000000000
10
-5.4336269033
20
-11.8450218335
30
0.0000000000
10
-5.2783821383
20
-11.7857635166
30
0.0000000000
10
-5.1142247635
20
-11.7857635166
30
0.0000000000
10
-4.9589799986
20
-11.8450218335
30
0.0000000000
10
-4.8317731041
20
-11.9568096967
30
0.0000000000
10
-4.7471558624
20
-12.1096596866
30
0.0000000000
10
-4.7273611954
20
-12.2266041716
30
0.0000000000
10
-4.7273611954
20
-12.2857431039
30
0.0000000000
11
-5.6652457065
21
-12.2857431039
31
0.0000000000
11
-5.6353281662
21
-12.1108669746
31
0.0000000000
11
-5.5523730435
21
-11.9619578669
31
0.0000000000
11
-5.4266258816
21
-11.8523254227
31
0.0000000000
11
-5.2768005880
21
-11.7955611760
31
0.0000000000
11
-5.1158063139
21
-11.7955611760
31
0.0000000000
11
-4.9659810203
21
-11.8523254227
31
0.0000000000
11
-4.8402338583
21
-11.9619578669
31
0.0000000000
11
-4.7572787356
21
-12.1108669746
31
0.0000000000
11
-4.7273611954
21
-12.2857431039
31
0.0000000000
0
SPLINE
5
458
100
AcDbEntity
8
0
100
AcDbSpline
62
9
6
CONTINUOUS
70
0
71
3
72
11
73
7
74
5
42
0.0000001000
43
0.0000001000
44
0.0000000001
12
0.0044655625
22
-0.1805759118
32
0.0000000000
13
0.0000000828
23
-0.1806311190
33
0.0000000000
40
0.0000000000
40
0.0000000000
40
0.0000000000
40
0.0000000000
40
0.1534418472
40
0.3876054300
40
0.6795629846
40
1.0000000000
40
1.0000000000
40
1.0000000000
40
1.0000000000
10
-5.5040741757
20
-18.8366914651
30
0.0000000000
10
-5.5038457743
20
-18.8459274322
30
0.0000000000
10
-5.5035440650
20
-18.8692642380
30
0.0000000000
10
-5.5032146738
20
-18.9101793428
30
0.0000000000
10
-5.5030087655
20
-18.9611507756
30
0.0000000000
10
-5.5029608197
20
-18.9980232516
30
0.0000000000
10
-5.5029608109
20
-19.0173168839
30
0.0000000000
11
-5.5040741757
21
-18.8366914651
31
0.0000000000
11
-5.5036247374
21
-18.8644041934
31
0.0000000000
11
-5.5032678543
21
-18.9066999178
31
0.0000000000
11
-5.5030386502
21
-18.9594360395
31
0.0000000000
11
-5.5029608109
21
-19.0173168839
31
0.0000000000
0
SPLINE
5
459
100
AcDbEntity
8
0
100
AcDbSpline
62
9
6
CONTINUOUS
70
0
71
3
72
18
73
14
74
12
42
0.0000001000
43
0.0000001000
44
0.0000000001
12
0.0012300469
22
-0.3662148900
32
0.0000000000
13
0.3662157937
23
-0.0009225687
33
0.0000000000
40
0.0000000000
40
0.0000000000
40
0.0000000000
40
0.0000000000
40
0.0842901845
40
0.1691825236
40
0.2551733573
40
0.3426537911
40
0.4318785657
40
0.5229513183
40
0.6158248362
40
0.7103132260
40
0.8061126036
40
0.9028273866
40
1.0000000000
40
1.0000000000
40
1.0000000000
40
1.0000000000
10
-8.4419316169
20
23.6771244525
30
0.0000000000
10
-8.4418970566
20
23.6668350123
30
0.0000000000
10
-8.4401169866
20
23.6461487198
30
0.0000000000
10
-8.4323876146
20
23.6158388207
30
0.0000000000
10
-8.4197638528
20
23.5867910911
30
0.0000000000
10
-8.4025165449
20
23.5596091246
30
0.0000000000
10
-8.3810089801
20
23.5348376134
30
0.0000000000
10
-8.3556869023
20
23.5129713936
30
0.0000000000
10
-8.3270683285
20
23.4944432211
30
0.0000000000
10
-8.2957342041
20
23.4796185656
30
0.0000000000
10
-8.2623146551
20
23.4687892452
30
0.0000000000
10
-8.2274885697
20
23.4621683776
30
0.0000000000
10
-8.2037978963
20
23.4606479844
30
0.0000000000
10
-8.1919358477
20
23.4606181016
30
0.0000000000
11
-8.4419316169
21
23.6771244525
31
0.0000000000
11
-8.4392931182
21
23.6463689279
31
0.0000000000
11
-8.4316377397
21
23.6162371844
31
0.0000000000
11
-8.4191207473
21
23.5873403513
31
0.0000000000
11
-8.4019960096
21
23.5602645119
31
0.0000000000
11
-8.3806108491
21
23.5355588162
31
0.0000000000
11
-8.3553989978
21
23.5137243430
31
0.0000000000
11
-8.3268718004
21
23.4952039373
31
0.0000000000
11
-8.2956078433
21
23.4803732285
31
0.0000000000
11
-8.2622412193
21
23.4695330116
31
0.0000000000
11
-8.2274486675
21
23.4629031472
31
0.0000000000
11
-8.1919358477
21
23.4606181016
31
0.0000000000
0
SPLINE
5
45A
100
AcDbEntity
8
0
100
AcDbSpline
62
9
6
CONTINUOUS
70
0
71
3
72
15
73
11
74
9
42
0.0000001000
43
0.0000001000
44
0.0000000001
12
0.0029458291
22
0.9316476089
32
0.0000000000
13
0.0028473530
23
-0.9316479151
33
0.0000000000
40
0.0000000000
40
0.0000000000
40
0.0000000000
40
0.0000000000
40
0.1215690120
40
0.2451812752
40
0.3716141992
40
0.5000011629
40
0.6283877963
40
0.7548199097
40
0.8784313418
40
1.0000000000
40
1.0000000000
40
1.0000000000
40
1.0000000000
10
-5.5040743214
20
-18.8366945068
30
0.0000000000
10
-5.5039549476
20
-18.7989413470
30
0.0000000000
10
-5.4873970157
20
-18.7219597300
30
0.0000000000
10
-5.4182051593
20
-18.6258649852
30
0.0000000000
10
-5.3159810104
20
-18.5622020293
30
0.0000000000
10
-5.1962878891
20
-18.5400264609
30
0.0000000000
10
-5.0765970090
20
-18.5622128776
30
0.0000000000
10
-4.9743793677
20
-18.6258852507
30
0.0000000000
10
-4.9051975571
20
-18.7219865624
30
0.0000000000
10
-4.8886478735
20
-18.7989695960
30
0.0000000000
10
-4.8885324906
20
-18.8367226583
30
0.0000000000
11
-5.5040743214
21
-18.8366945068
31
0.0000000000
11
-5.4803824649
21
-18.7259401215
31
0.0000000000
11
-5.4136013079
21
-18.6321161255
31
0.0000000000
11
-5.3138602625
21
-18.5694538076
31
0.0000000000
11
-5.1962881189
21
-18.5474578314
31
0.0000000000
11
-5.0787183010
21
-18.5694645618
31
0.0000000000
11
-4.9789838795
21
-18.6321360026
31
0.0000000000
11
-4.9122126401
21
-18.7259661066
31
0.0000000000
11
-4.8885324906
21
-18.8367226583
31
0.0000000000
0
SPLINE
5
45B
100
AcDbEntity
8
0
100
AcDbSpline
62
9
6
CONTINUOUS
70
0
71
3
72
18
73
14
74
12
42
0.0000001000
43
0.0000001000
44
0.0000000001
12
-0.0012300469
22
-0.3662148900
32
0.0000000000
13
-0.3662157937
23
-0.0009225687
33
0.0000000000
40
0.0000000000
40
0.0000000000
40
0.0000000000
40
0.0000000000
40
0.0842901845
40
0.1691825236
40
0.2551733573
40
0.3426537911
40
0.4318785657
40
0.5229513183
40
0.6158248362
40
0.7103132260
40
0.8061126036
40
0.9028273866
40
1.0000000000
40
1.0000000000
40
1.0000000000
40
1.0000000000
10
-5.5506752849
20
23.6771244525
30
0.0000000000
10
-5.5507098452
20
23.6668350123
30
0.0000000000
10
-5.5524899153
20
23.6461487198
30
0.0000000000
10
-5.5602192872
20
23.6158388207
30
0.0000000000
10
-5.5728430490
20
23.5867910911
30
0.0000000000
10
-5.5900903570
20
23.5596091246
30
0.0000000000
10
-5.6115979218
20
23.5348376134
30
0.0000000000
10
-5.6369199995
20
23.5129713936
30
0.0000000000
10
-5.6655385733
20
23.4944432211
30
0.0000000000
10
-5.6968726977
20
23.4796185656
30
0.0000000000
10
-5.7302922467
20
23.4687892452
30
0.0000000000
10
-5.7651183321
20
23.4621683776
30
0.0000000000
10
-5.7888090056
20
23.4606479844
30
0.0000000000
10
-5.8006710541
20
23.4606181016
30
0.0000000000
11
-5.5506752849
21
23.6771244525
31
0.0000000000
11
-5.5533137837
21
23.6463689279
31
0.0000000000
11
-5.5609691621
21
23.6162371844
31
0.0000000000
11
-5.5734861545
21
23.5873403513
31
0.0000000000
11
-5.5906108922
21
23.5602645119
31
0.0000000000
11
-5.6119960528
21
23.5355588162
31
0.0000000000
11
-5.6372079040
21
23.5137243430
31
0.0000000000
11
-5.6657351014
21
23.4952039373
31
0.0000000000
11
-5.6969990586
21
23.4803732285
31
0.0000000000
11
-5.7303656826
21
23.4695330116
31
0.0000000000
11
-5.7651582343
21
23.4629031472
31
0.0000000000
11
-5.8006710541
21
23.4606181016
31
0.0000000000
0
SPLINE
5
45C
100
AcDbEntity
8
0
100
AcDbSpline
62
7
6
CONTINUOUS
70
0
71
3
72
18
73
14
74
12
42
0.0000001000
43
0.0000001000
44
0.0000000001
12
0.0000000000
22
-0.4220894472
32
0.0000000000
13
-0.4220894472
23
-0.0000000000
33
0.0000000000
40
0.0000000000
40
0.0000000000
40
0.0000000000
40
0.0000000000
40
0.1059090351
40
0.2101669191
40
0.3119275375
40
0.4100581264
40
0.5041875836
40
0.5942815516
40
0.6804273975
40
0.7634029300
40
0.8436506062
40
0.9223347281
40
1.0000000000
40
1.0000000000
40
1.0000000000
40
1.0000000000
10
-5.5463034509
20
23.2432720335
30
0.0000000000
10
-5.5463034509
20
23.2283710048
30
0.0000000000
10
-5.5482892809
20
23.1987621317
30
0.0000000000
10
-5.5570931934
20
23.1556378015
30
0.0000000000
10
-5.5712751689
20
23.1151210074
30
0.0000000000
10
-5.5902063056
20
23.0781919387
30
0.0000000000
10
-5.6131256368
20
23.0455844556
30
0.0000000000
10
-5.6392557013
20
23.0177616253
30
0.0000000000
10
-5.6678762395
20
22.9949510510
30
0.0000000000
10
-5.6983187761
20
22.9772543803
30
0.0000000000
10
-5.7300713585
20
22.9646478005
30
0.0000000000
10
-5.7626194822
20
22.9571107220
30
0.0000000000
10
-5.7846532225
20
22.9554366161
30
0.0000000000
10
-5.7955804531
20
22.9554366161
30
0.0000000000
11
-5.5463034509
21
23.2432720335
31
0.0000000000
11
-5.5493069357
21
23.1986699597
31
0.0000000000
11
-5.5581346946
21
23.1555583355
31
0.0000000000
11
-5.5723644097
21
23.1150318422
31
0.0000000000
11
-5.5913046384
21
23.0781960621
31
0.0000000000
11
-5.6141974163
21
23.0457233490
31
0.0000000000
11
-5.6402712965
21
23.0180419520
31
0.0000000000
11
-5.6687381908
21
22.9954194718
31
0.0000000000
11
-5.6990390545
21
22.9778560166
31
0.0000000000
11
-5.7305321992
21
22.9653871067
31
0.0000000000
11
-5.7628926365
21
22.9579157212
31
0.0000000000
11
-5.7955804531
21
22.9554366161
31
0.0000000000
0
SPLINE
5
45D
100
AcDbEntity
8
0
100
AcDbSpline
62
7
6
CONTINUOUS
70
0
71
3
72
18
73
14
74
12
42
0.0000001000
43
0.0000001000
44
0.0000000001
12
-0.4220894472
22
0.0000000000
32
0.0000000000
13
0.0000000000
23
0.4220894472
33
0.0000000000
40
0.0000000000
40
0.0000000000
40
0.0000000000
40
0.0000000000
40
0.0776652719
40
0.1563493938
40
0.2365970700
40
0.3195726025
40
0.4057184484
40
0.4958124164
40
0.5899418736
40
0.6880724625
40
0.7898330809
40
0.8940909649
40
1.0000000000
40
1.0000000000
40
1.0000000000
40
1.0000000000
10
9.2029735512
20
22.9554366161
30
0.0000000000
10
9.1920463206
20
22.9554366161
30
0.0000000000
10
9.1700125803
20
22.9571107220
30
0.0000000000
10
9.1374644567
20
22.9646478005
30
0.0000000000
10
9.1057118742
20
22.9772543803
30
0.0000000000
10
9.0752693377
20
22.9949510510
30
0.0000000000
10
9.0466487995
20
23.0177616253
30
0.0000000000
10
9.0205187349
20
23.0455844556
30
0.0000000000
10
8.9975994038
20
23.0781919387
30
0.0000000000
10
8.9786682670
20
23.1151210074
30
0.0000000000
10
8.9644862915
20
23.1556378015
30
0.0000000000
10
8.9556823790
20
23.1987621317
30
0.0000000000
10
8.9536965491
20
23.2283710048
30
0.0000000000
10
8.9536965491
20
23.2432720335
30
0.0000000000
11
9.2029735512
21
22.9554366161
31
0.0000000000
11
9.1702857347
21
22.9579157212
31
0.0000000000
11
9.1379252973
21
22.9653871067
31
0.0000000000
11
9.1064321526
21
22.9778560166
31
0.0000000000
11
9.0761312890
21
22.9954194718
31
0.0000000000
11
9.0476643946
21
23.0180419520
31
0.0000000000
11
9.0215905145
21
23.0457233490
31
0.0000000000
11
8.9986977365
21
23.0781960621
31
0.0000000000
11
8.9797575078
21
23.1150318422
31
0.0000000000
11
8.9655277927
21
23.1555583355
31
0.0000000000
11
8.9567000339
21
23.1986699597
31
0.0000000000
11
8.9536965491
21
23.2432720335
31
0.0000000000
0
SPLINE
5
45E
100
AcDbEntity
8
0
100
AcDbSpline
62
9
6
CONTINUOUS
70
0
71
3
72
18
73
14
74
12
42
0.0000001000
43
0.0000001000
44
0.0000000001
12
0.0012300469
22
-0.3662148900
32
0.0000000000
13
0.3662157937
23
-0.0009225687
33
0.0000000000
40
0.0000000000
40
0.0000000000
40
0.0000000000
40
0.0000000000
40
0.0842901845
40
0.1691825236
40
0.2551733573
40
0.3426537911
40
0.4318785657
40
0.5229513183
40
0.6158248362
40
0.7103132260
40
0.8061126036
40
0.9028273866
40
1.0000000000
40
1.0000000000
40
1.0000000000
40
1.0000000000
10
8.9580683831
20
23.6771244525
30
0.0000000000
10
8.9581029434
20
23.6668350123
30
0.0000000000
10
8.9598830134
20
23.6461487198
30
0.0000000000
10
8.9676123854
20
23.6158388207
30
0.0000000000
10
8.9802361472
20
23.5867910911
30
0.0000000000
10
8.9974834551
20
23.5596091246
30
0.0000000000
10
9.0189910199
20
23.5348376134
30
0.0000000000
10
9.0443130977
20
23.5129713936
30
0.0000000000
10
9.0729316715
20
23.4944432211
30
0.0000000000
10
9.1042657959
20
23.4796185656
30
0.0000000000
10
9.1376853449
20
23.4687892452
30
0.0000000000
10
9.1725114303
20
23.4621683776
30
0.0000000000
10
9.1962021037
20
23.4606479844
30
0.0000000000
10
9.2080641523
20
23.4606181016
30
0.0000000000
11
8.9580683831
21
23.6771244525
31
0.0000000000
11
8.9607068818
21
23.6463689279
31
0.0000000000
11
8.9683622603
21
23.6162371844
31
0.0000000000
11
8.9808792527
21
23.5873403513
31
0.0000000000
11
8.9980039904
21
23.5602645119
31
0.0000000000
11
9.0193891509
21
23.5355588162
31
0.0000000000
11
9.0446010022
21
23.5137243430
31
0.0000000000
11
9.0731281996
21
23.4952039373
31
0.0000000000
11
9.1043921567
21
23.4803732285
31
0.0000000000
11
9.1377587807
21
23.4695330116
31
0.0000000000
11
9.1725513325
21
23.4629031472
31
0.0000000000
11
9.2080641523
21
23.4606181016
31
0.0000000000
0
SPLINE
5
45F
100
AcDbEntity
8
0
100
AcDbSpline
62
7
6
CONTINUOUS
70
0
71
3
72
18
73
14
74
12
42
0.0000001000
43
0.0000001000
44
0.0000000001
12
0.0000000000
22
-0.4220894472
32
0.0000000000
13
-0.4220894472
23
-0.0000000000
33
0.0000000000
40
0.0000000000
40
0.0000000000
40
0.0000000000
40
0.0000000000
40
0.1059090351
40
0.2101669191
40
0.3119275375
40
0.4100581264
40
0.5041875836
40
0.5942815516
40
0.6804273975
40
0.7634029300
40
0.8436506062
40
0.9223347281
40
1.0000000000
40
1.0000000000
40
1.0000000000
40
1.0000000000
10
11.8536965491
20
23.2432720335
30
0.0000000000
10
11.8536965491
20
23.2283710048
30
0.0000000000
10
11.8517107191
20
23.1987621317
30
0.0000000000
10
11.8429068066
20
23.1556378015
30
0.0000000000
10
11.8287248311
20
23.1151210074
30
0.0000000000
10
11.8097936944
20
23.0781919387
30
0.0000000000
10
11.7868743632
20
23.0455844556
30
0.0000000000
10
11.7607442987
20
23.0177616253
30
0.0000000000
10
11.7321237605
20
22.9949510510
30
0.0000000000
10
11.7016812239
20
22.9772543803
30
0.0000000000
10
11.6699286415
20
22.9646478005
30
0.0000000000
10
11.6373805178
20
22.9571107220
30
0.0000000000
10
11.6153467775
20
22.9554366161
30
0.0000000000
10
11.6044195469
20
22.9554366161
30
0.0000000000
11
11.8536965491
21
23.2432720335
31
0.0000000000
11
11.8506930643
21
23.1986699597
31
0.0000000000
11
11.8418653054
21
23.1555583355
31
0.0000000000
11
11.8276355903
21
23.1150318422
31
0.0000000000
11
11.8086953616
21
23.0781960621
31
0.0000000000
11
11.7858025837
21
23.0457233490
31
0.0000000000
11
11.7597287035
21
23.0180419520
31
0.0000000000
11
11.7312618092
21
22.9954194718
31
0.0000000000
11
11.7009609455
21
22.9778560166
31
0.0000000000
11
11.6694678008
21
22.9653871067
31
0.0000000000
11
11.6371073635
21
22.9579157212
31
0.0000000000
11
11.6044195469
21
22.9554366161
31
0.0000000000
0
SPLINE
5
460
100
AcDbEntity
8
0
100
AcDbSpline
62
9
6
CONTINUOUS
70
0
71
3
72
18
73
14
74
12
42
0.0000001000
43
0.0000001000
44
0.0000000001
12
-0.0012300469
22
-0.3662148900
32
0.0000000000
13
-0.3662157937
23
-0.0009225687
33
0.0000000000
40
0.0000000000
40
0.0000000000
40
0.0000000000
40
0.0000000000
40
0.0842901845
40
0.1691825236
40
0.2551733573
40
0.3426537911
40
0.4318785657
40
0.5229513183
40
0.6158248362
40
0.7103132260
40
0.8061126036
40
0.9028273866
40
1.0000000000
40
1.0000000000
40
1.0000000000
40
1.0000000000
10
11.8493247151
20
23.6771244525
30
0.0000000000
10
11.8492901548
20
23.6668350123
30
0.0000000000
10
11.8475100847
20
23.6461487198
30
0.0000000000
10
11.8397807128
20
23.6158388207
30
0.0000000000
10
11.8271569510
20
23.5867910911
30
0.0000000000
10
11.8099096430
20
23.5596091246
30
0.0000000000
10
11.7884020782
20
23.5348376134
30
0.0000000000
10
11.7630800005
20
23.5129713936
30
0.0000000000
10
11.7344614267
20
23.4944432211
30
0.0000000000
10
11.7031273023
20
23.4796185656
30
0.0000000000
10
11.6697077533
20
23.4687892452
30
0.0000000000
10
11.6348816679
20
23.4621683776
30
0.0000000000
10
11.6111909944
20
23.4606479844
30
0.0000000000
10
11.5993289459
20
23.4606181016
30
0.0000000000
11
11.8493247151
21
23.6771244525
31
0.0000000000
11
11.8466862163
21
23.6463689279
31
0.0000000000
11
11.8390308379
21
23.6162371844
31
0.0000000000
11
11.8265138455
21
23.5873403513
31
0.0000000000
11
11.8093891078
21
23.5602645119
31
0.0000000000
11
11.7880039472
21
23.5355588162
31
0.0000000000
11
11.7627920960
21
23.5137243430
31
0.0000000000
11
11.7342648986
21
23.4952039373
31
0.0000000000
11
11.7030009414
21
23.4803732285
31
0.0000000000
11
11.6696343174
21
23.4695330116
31
0.0000000000
11
11.6348417657
21
23.4629031472
31
0.0000000000
11
11.5993289459
21
23.4606181016
31
0.0000000000
0
ENDSEC
0
SECTION
2
OBJECTS
0
DICTIONARY
5
461
100
AcDbDictionary
3
ACAD_GROUP
350
462
3
ACAD_MLINESTYLE
350
463
0
DICTIONARY
5
462
102
{ACAD_REACTORS
330
461
102
}
100
AcDbDictionary
0
DICTIONARY
5
463
102
{ACAD_REACTORS
330
461
102
}
100
AcDbDictionary
3
STANDARD
350
464
0
MLINESTYLE
5
464
102
{ACAD_REACTORS
330
463
102
}
100
AcDbMlineStyle
2
STANDARD
70
0
3

62
256
51
90.0
52
90.0
71
2
49
0.5
62
256
6
BYLAYER
49
-0.5
62
256
6
BYLAYER
0
ENDSEC
0
EOF
