0
SECTION
2
HEADER
9
$ACADVER
1
AC1014
9
$HANDSEED
5
       4BD
9
$EXTMAX
10
297.0000000000
20
210.0000000000
9
$EXTMIN
10
0.0000000000
20
0.0000000000
9
$LIMMIN
10
0.0000000000
20
0.0000000000
9
$LIMMAX
10
297.0000000000
20
210.0000000000
9
$VIEWCTR
10
148.5000000000
20
105.0000000000
9
$VIEWSIZE
40
210.0000000000
9
$CLAYER
8
0
9
$LTSCALE
40
16.3350000000
9
$CELTYPE
6
BYLAYER
9
$DIMSCALE
40
1
9
$DIMASZ
40
3.0000000000
9
$DIMEXO
40
1.8562500000
9
$DIMDLI
40
11.2860000000
9
$DIMEXE
40
5.3460000000
9
$DIMCEN
40
2.6730000000
9
$DIMLFAC
40
1.0000000000
9
$DIMTXT
40
3.0000000000
9
$DIMTOL
70
1
9
$DIMLIM
70
0
9
$DIMTFAC
40
1.0000000000
9
$DIMTP
40
0.0100000000
9
$DIMTM
40
0.0100000000
9
$MEASUREMENT
70
1
0
ENDSEC
0
SECTION
2
CLASSES
0
ENDSEC
0
SECTION
2
TABLES
0
TABLE
2
VPORT
5
8
100
AcDbSymbolTable
70
2
0
VPORT
5
1F4
100
AcDbSymbolTableRecord
100
AcDbViewportTableRecord
2
*ACTIVE
70
0
10
0.0
20
0.0
11
1.0
21
1.0
12
148.5000000000
22
105.0000000000
13
0.0
23
0.0
14
1.0
24
1.0
15
0.0
25
0.0
16
0.0
26
0.0
36
1.0
17
0.0
27
0.0
37
0.0
40
210.0000000000
41
1.4142857143
42
50.0
43
0.0
44
0.0
50
0.0
51
0.0
71
0
72
100
73
1
74
1
75
0
76
0
77
0
78
0
0
ENDTAB
0
TABLE
2
LTYPE
5
5
100
AcDbSymbolTable
70
6
0
LTYPE
5
14
100
AcDbSymbolTableRecord
100
AcDbLinetypeTableRecord
2
BYBLOCK
70
0
3

72
65
73
0
40
0.0
0
LTYPE
5
15
100
AcDbSymbolTableRecord
100
AcDbLinetypeTableRecord
2
BYLAYER
70
0
3

72
65
73
0
40
0.0
0
LTYPE
5
16
100
AcDbSymbolTableRecord
100
AcDbLinetypeTableRecord
2
CONTINUOUS
70
64
3
Solid line
72
65
73
0
40
0
0
LTYPE
5
1F5
100
AcDbSymbolTableRecord
100
AcDbLinetypeTableRecord
2
CENTER
70
64
3
____ _ ____ _ ____ _ ____ _ ____ _ ____ _ ____
72
65
73
4
40
0.6
49
0.375
74
0
49
-0.075
74
0
49
0.075
74
0
49
-0.075
74
0
0
LTYPE
5
1F6
100
AcDbSymbolTableRecord
100
AcDbLinetypeTableRecord
2
HIDDEN
70
64
3
- - - - - - - - - - - - - - - - - - - -
72
65
73
2
40
0.2
49
0.1
74
0
49
-0.1
74
0
0
LTYPE
5
1F7
100
AcDbSymbolTableRecord
100
AcDbLinetypeTableRecord
2
PHANTOM
70
64
3
_____ _ _ _____ _ _ _____ _ _ _____
72
65
73
6
40
0.8
49
0.45
74
0
49
-0.05
74
0
49
0.1
74
0
49
-0.05
74
0
49
0.1
74
0
49
-0.05
74
0
0
LTYPE
5
1F8
100
AcDbSymbolTableRecord
100
AcDbLinetypeTableRecord
2
DOT
70
64
3
. . . . . . . . . . . . . . . . . . . .
72
65
73
2
40
0.2
49
0.1
74
0
49
-0.1
74
0
0
LTYPE
5
1F9
100
AcDbSymbolTableRecord
100
AcDbLinetypeTableRecord
2
DASHED
70
64
3
- - - - - - - - - - - - - - - - - - - -
72
65
73
2
40
0.2
49
0.1
74
0
49
-0.1
74
0
0
ENDTAB
0
TABLE
2
LAYER
5
2
100
AcDbSymbolTable
70
36
0
LAYER
5
10
100
AcDbSymbolTableRecord
100
AcDbLayerTableRecord
2
0
70
0
62
7
6
CONTINUOUS
0
LAYER
5
1FA
100
AcDbSymbolTableRecord
100
AcDbLayerTableRecord
2
DEFAULT_1
70
0
62
7
6
CENTER
0
LAYER
5
1FB
100
AcDbSymbolTableRecord
100
AcDbLayerTableRecord
2
DEFAULT_2
70
0
62
8
6
HIDDEN
0
LAYER
5
1FC
100
AcDbSymbolTableRecord
100
AcDbLayerTableRecord
2
DEFAULT_3
70
0
62
7
6
PHANTOM
0
LAYER
5
1FD
100
AcDbSymbolTableRecord
100
AcDbLayerTableRecord
2
_BLACK_HOLE
70
0
62
7
6
CONTINUOUS
0
LAYER
5
1FE
100
AcDbSymbolTableRecord
100
AcDbLayerTableRecord
2
ASSI
70
0
62
7
6
CONTINUOUS
0
LAYER
5
1FF
100
AcDbSymbolTableRecord
100
AcDbLayerTableRecord
2
COORDINATE
70
0
62
7
6
CONTINUOUS
0
LAYER
5
200
100
AcDbSymbolTableRecord
100
AcDbLayerTableRecord
2
COORD_ORIGINE
70
0
62
7
6
CONTINUOUS
0
LAYER
5
201
100
AcDbSymbolTableRecord
100
AcDbLayerTableRecord
2
CURVE
70
0
62
7
6
CONTINUOUS
0
LAYER
5
202
100
AcDbSymbolTableRecord
100
AcDbLayerTableRecord
2
DATA_SHARING
70
0
62
7
6
CONTINUOUS
0
LAYER
5
203
100
AcDbSymbolTableRecord
100
AcDbLayerTableRecord
2
DRAFT
70
0
62
7
6
CONTINUOUS
0
LAYER
5
204
100
AcDbSymbolTableRecord
100
AcDbLayerTableRecord
2
IMPORT_SCRITTE
70
0
62
7
6
CONTINUOUS
0
LAYER
5
205
100
AcDbSymbolTableRecord
100
AcDbLayerTableRecord
2
LAY0001
70
0
62
7
6
CONTINUOUS
0
LAYER
5
206
100
AcDbSymbolTableRecord
100
AcDbLayerTableRecord
2
NOTE
70
0
62
7
6
CONTINUOUS
0
LAYER
5
207
100
AcDbSymbolTableRecord
100
AcDbLayerTableRecord
2
PIANI
70
0
62
7
6
CONTINUOUS
0
LAYER
5
208
100
AcDbSymbolTableRecord
100
AcDbLayerTableRecord
2
PIANI_ORIGINE
70
0
62
7
6
CONTINUOUS
0
LAYER
5
209
100
AcDbSymbolTableRecord
100
AcDbLayerTableRecord
2
PIANI_RIFERIMENTO
70
0
62
7
6
CONTINUOUS
0
LAYER
5
20A
100
AcDbSymbolTableRecord
100
AcDbLayerTableRecord
2
PUNTI
70
0
62
7
6
CONTINUOUS
0
LAYER
5
20B
100
AcDbSymbolTableRecord
100
AcDbLayerTableRecord
2
RACCORDO
70
0
62
7
6
CONTINUOUS
0
LAYER
5
20C
100
AcDbSymbolTableRecord
100
AcDbLayerTableRecord
2
SKELETON
70
0
62
7
6
CONTINUOUS
0
LAYER
5
20D
100
AcDbSymbolTableRecord
100
AcDbLayerTableRecord
2
SMUSSO
70
0
62
7
6
CONTINUOUS
0
LAYER
5
20E
100
AcDbSymbolTableRecord
100
AcDbLayerTableRecord
2
SUPERFICI
70
0
62
7
6
CONTINUOUS
0
LAYER
5
20F
100
AcDbSymbolTableRecord
100
AcDbLayerTableRecord
2
TRASH
70
0
62
7
6
CONTINUOUS
0
LAYER
5
210
100
AcDbSymbolTableRecord
100
AcDbLayerTableRecord
2
XSEC_DATUMS
70
0
62
7
6
CONTINUOUS
0
ENDTAB
0
TABLE
2
STYLE
5
3
100
AcDbSymbolTable
70
1
0
STYLE
5
11
100
AcDbSymbolTableRecord
100
AcDbTextStyleTableRecord
2
STANDARD
70
0
40
0.0
41
0.8000000000
50
0.0
71
0
42
0.2
3
txt
4

0
ENDTAB
0
TABLE
2
VIEW
5
6
100
AcDbSymbolTable
70
0
0
ENDTAB
0
TABLE
2
UCS
5
7
100
AcDbSymbolTable
70
0
0
ENDTAB
0
TABLE
2
APPID
5
9
100
AcDbSymbolTable
70
1
0
APPID
5
211
100
AcDbSymbolTableRecord
100
AcDbRegAppTableRecord
2
ACAD
70
0
0
ENDTAB
0
TABLE
2
DIMSTYLE
5
A
100
AcDbSymbolTable
70
1
0
DIMSTYLE
105
212
100
AcDbSymbolTableRecord
100
AcDbDimStyleTableRecord
2
STANDARD
70
0
3

4

5

6

7

40
1.0
41
3.0000000000
42
0.0625
43
0.38
44
0.18
45
0.0
46
0.0
47
0.0100000000
48
0.0100000000
140
3.0000000000
141
0.09
142
0.0
143
25.4
144
1.0000000000
145
0.0
146
1.0000000000
147
0.09
71
1
72
0
73
0
74
0
75
0
76
0
77
1
78
8
170
0
171
2
172
0
173
0
174
0
175
0
176
0
177
0
178
0
270
2
271
2
272
2
273
2
274
2
340
11
275
0
280
0
281
0
282
0
283
1
284
8
285
0
286
0
287
3
288
0
0
ENDTAB
0
TABLE
2
BLOCK_RECORD
5
1
100
AcDbSymbolTable
70
0
0
BLOCK_RECORD
5
1B
100
AcDbSymbolTableRecord
100
AcDbBlockTableRecord
2
*MODEL_SPACE
0
BLOCK_RECORD
5
1C
100
AcDbSymbolTableRecord
100
AcDbBlockTableRecord
2
*PAPER_SPACE
0
ENDTAB
0
ENDSEC
0
SECTION
2
BLOCKS
0
BLOCK
5
1E
100
AcDbEntity
8
0
100
AcDbBlockBegin
2
*MODEL_SPACE
70
0
10
0.0
20
0.0
30
0.0
3
*MODEL_SPACE
1

0
ENDBLK
5
1F
100
AcDbEntity
8
0
100
AcDbBlockEnd
0
BLOCK
5
20
100
AcDbEntity
8
0
100
AcDbBlockBegin
2
*PAPER_SPACE
70
0
10
0.0
20
0.0
30
0.0
3
*PAPER_SPACE
1

0
ENDBLK
5
21
100
AcDbEntity
8
0
100
AcDbBlockEnd
0
ENDSEC
0
SECTION
2
ENTITIES
0
LINE
5
213
100
AcDbEntity
8
0
100
AcDbLine
62
7
6
CONTINUOUS
10
9.9886096003
20
-23.6828333168
11
7.5886011387
21
-23.6828333168
0
LINE
5
214
100
AcDbEntity
8
0
100
AcDbLine
62
7
6
CONTINUOUS
10
-7.4113903997
20
-23.6828333168
11
-9.8113988613
21
-23.6828333168
0
LINE
5
215
100
AcDbEntity
8
0
100
AcDbLine
62
7
6
CONTINUOUS
10
-9.8070270273
20
-23.6784614828
11
-7.4157622337
21
-23.6784614828
0
LINE
5
216
100
AcDbEntity
8
0
100
AcDbLine
62
7
6
CONTINUOUS
10
7.5929729727
20
-23.6784614828
11
9.9842377663
21
-23.6784614828
0
LINE
5
217
100
AcDbEntity
8
0
100
AcDbLine
62
9
6
CONTINUOUS
10
7.3429772035
20
-23.4284657136
11
10.2342335355
21
-23.4284657136
0
LINE
5
218
100
AcDbEntity
8
0
100
AcDbLine
62
9
6
CONTINUOUS
10
-7.1657664645
20
-23.4284657136
11
-10.0570227965
21
-23.4284657136
0
LINE
5
219
100
AcDbEntity
8
0
100
AcDbLine
62
7
6
CONTINUOUS
10
-4.3613946305
20
-23.1828333168
11
-1.1113946305
21
-23.1828333168
0
LINE
5
21A
100
AcDbEntity
8
0
100
AcDbLine
62
7
6
CONTINUOUS
10
1.2886053695
20
-23.1828333168
11
4.5386053695
21
-23.1828333168
0
LINE
5
21B
100
AcDbEntity
8
0
100
AcDbLine
62
7
6
CONTINUOUS
10
-3.4113946305
20
-23.1770154870
11
-1.1113946305
21
-23.1770154870
0
LINE
5
21C
100
AcDbEntity
8
0
100
AcDbLine
62
7
6
CONTINUOUS
10
1.2886053695
20
-23.1770154870
11
3.5886053695
21
-23.1770154870
0
LINE
5
21D
100
AcDbEntity
8
0
100
AcDbLine
62
7
6
CONTINUOUS
10
-4.3177439836
20
-23.1391826699
11
-3.4113946305
21
-23.1391826699
0
LINE
5
21E
100
AcDbEntity
8
0
100
AcDbLine
62
7
6
CONTINUOUS
10
3.5886053695
20
-23.1391826699
11
4.4949547226
21
-23.1391826699
0
LINE
5
21F
100
AcDbEntity
8
0
100
AcDbLine
62
9
6
CONTINUOUS
10
7.3429772035
20
-23.0271708841
11
10.2342335355
21
-23.0271708841
0
LINE
5
220
100
AcDbEntity
8
0
100
AcDbLine
62
9
6
CONTINUOUS
10
-7.1657664645
20
-23.0271708841
11
-10.0570227965
21
-23.0271708841
0
LINE
5
221
100
AcDbEntity
8
0
100
AcDbLine
62
9
6
CONTINUOUS
10
9.9842377663
20
-22.8106645331
11
7.5929729727
21
-22.8106645331
0
LINE
5
222
100
AcDbEntity
8
0
100
AcDbLine
62
9
6
CONTINUOUS
10
-7.4157622337
20
-22.8106645331
11
-9.8070270273
21
-22.8106645331
0
LINE
5
223
100
AcDbEntity
8
0
100
AcDbLine
62
7
6
CONTINUOUS
10
-9.5613946305
20
21.0162063334
11
-8.8612882929
21
21.7171666832
0
LINE
5
224
100
AcDbEntity
8
0
100
AcDbLine
62
9
6
CONTINUOUS
10
-7.4113903997
20
25.3171666832
11
-7.4157622337
21
25.3127948492
0
LINE
5
225
100
AcDbEntity
8
0
100
AcDbLine
62
9
6
CONTINUOUS
10
-7.1613946305
20
25.0671709140
11
-7.1657664645
21
25.0627990800
0
LINE
5
226
100
AcDbEntity
8
0
100
AcDbLine
62
7
6
CONTINUOUS
10
-8.1613946305
20
22.2171666832
11
-7.1672124603
21
23.2113488534
0
LINE
5
227
100
AcDbEntity
8
0
100
AcDbLine
62
7
6
CONTINUOUS
10
-7.9779641323
20
21.9005971814
11
-8.1613946305
21
21.7171666832
0
LINE
5
228
100
AcDbEntity
8
0
100
AcDbLine
62
7
6
CONTINUOUS
10
-9.8121176284
20
-22.3054830476
11
-7.4106716326
21
-22.3054830476
0
LINE
5
229
100
AcDbEntity
8
0
100
AcDbLine
62
7
6
CONTINUOUS
10
9.9893283674
20
-22.3054830476
11
7.5878823716
21
-22.3054830476
0
LINE
5
22A
100
AcDbEntity
8
0
100
AcDbLine
62
7
6
CONTINUOUS
10
-10.5609024770
20
-21.5828333168
11
-4.3613946305
21
-21.5828333168
0
LINE
5
22B
100
AcDbEntity
8
0
100
AcDbLine
62
7
6
CONTINUOUS
10
4.5386053695
20
-21.5828333168
11
10.7381132160
21
-21.5828333168
0
LINE
5
22C
100
AcDbEntity
8
0
100
AcDbLine
62
7
6
CONTINUOUS
10
-0.9113946305
20
-21.5775972812
11
1.0886053695
21
-21.5775972812
0
LINE
5
22D
100
AcDbEntity
8
0
100
AcDbLine
62
7
6
CONTINUOUS
10
-10.5531104522
20
-21.5770154870
11
-7.1672124603
21
-21.5770154870
0
LINE
5
22E
100
AcDbEntity
8
0
100
AcDbLine
62
7
6
CONTINUOUS
10
-3.4113946305
20
-21.5770154870
11
-2.9113946305
21
-21.5770154870
0
LINE
5
22F
100
AcDbEntity
8
0
100
AcDbLine
62
7
6
CONTINUOUS
10
3.0886053695
20
-21.5770154870
11
3.5886053695
21
-21.5770154870
0
LINE
5
230
100
AcDbEntity
8
0
100
AcDbLine
62
7
6
CONTINUOUS
10
7.3444231993
20
-21.5770154870
11
10.7303211912
21
-21.5770154870
0
LINE
5
231
100
AcDbEntity
8
0
100
AcDbLine
62
9
6
CONTINUOUS
10
-7.2254246050
20
-21.5188033423
11
-2.9113946305
21
-21.5188033423
0
LINE
5
232
100
AcDbEntity
8
0
100
AcDbLine
62
9
6
CONTINUOUS
10
3.0886053695
20
-21.5188033423
11
7.4026353440
21
-21.5188033423
0
LINE
5
233
100
AcDbEntity
8
0
100
AcDbLine
62
7
6
CONTINUOUS
10
-2.9113946305
20
-20.8828333168
11
3.0886053695
21
-20.8828333168
0
LINE
5
234
100
AcDbEntity
8
0
100
AcDbLine
62
9
6
CONTINUOUS
10
-7.4780402847
20
-20.5188202654
11
-2.9113946305
21
-20.5188202654
0
LINE
5
235
100
AcDbEntity
8
0
100
AcDbLine
62
9
6
CONTINUOUS
10
3.0886053695
20
-20.5188202654
11
7.6552510237
21
-20.5188202654
0
LINE
5
236
100
AcDbEntity
8
0
100
AcDbLine
62
7
6
CONTINUOUS
10
7.6552510237
20
-20.2748390310
11
7.0943475817
21
-20.2748390310
0
LINE
5
237
100
AcDbEntity
8
0
100
AcDbLine
62
7
6
CONTINUOUS
10
-6.9171368427
20
-20.2748390310
11
-7.4780402847
21
-20.2748390310
0
LINE
5
238
100
AcDbEntity
8
0
100
AcDbLine
62
7
6
CONTINUOUS
10
11.2551876812
20
-20.2054830476
11
11.2303148451
21
-20.2054830476
0
LINE
5
239
100
AcDbEntity
8
0
100
AcDbLine
62
7
6
CONTINUOUS
10
-11.0779769422
20
-20.2054830476
11
-11.0531041061
21
-20.2054830476
0
LINE
5
23A
100
AcDbEntity
8
0
100
AcDbLine
62
7
6
CONTINUOUS
10
-8.8612882929
20
-20.0828333168
11
-7.2113946305
21
-20.0828333168
0
LINE
5
23B
100
AcDbEntity
8
0
100
AcDbLine
62
7
6
CONTINUOUS
10
7.3886053695
20
-20.0828333168
11
9.0384990319
21
-20.0828333168
0
LINE
5
23C
100
AcDbEntity
8
0
100
AcDbLine
62
7
6
CONTINUOUS
10
-2.9113946305
20
-19.9828333168
11
3.0886053695
21
-19.9828333168
0
LINE
5
23D
100
AcDbEntity
8
0
100
AcDbLine
62
9
6
CONTINUOUS
10
8.9216380620
20
-19.7319653056
11
7.4470314045
21
-19.7319653056
0
LINE
5
23E
100
AcDbEntity
8
0
100
AcDbLine
62
9
6
CONTINUOUS
10
-7.2698206655
20
-19.7319653056
11
-8.7444273230
21
-19.7319653056
0
LINE
5
23F
100
AcDbEntity
8
0
100
AcDbLine
62
9
6
CONTINUOUS
10
6.8828631573
20
-19.3828333168
11
-6.7056524183
21
-19.3828333168
0
LINE
5
240
100
AcDbEntity
8
0
100
AcDbLine
62
9
6
CONTINUOUS
10
9.3181168443
20
-19.3022295236
11
7.4511240185
21
-19.3022295236
0
LINE
5
241
100
AcDbEntity
8
0
100
AcDbLine
62
9
6
CONTINUOUS
10
-7.2739132795
20
-19.3022295236
11
-9.1409061053
21
-19.3022295236
0
LINE
5
242
100
AcDbEntity
8
0
100
AcDbLine
62
9
6
CONTINUOUS
10
-7.4113903997
20
-23.6828333168
11
-7.4157622337
21
-23.6784614828
0
LINE
5
243
100
AcDbEntity
8
0
100
AcDbLine
62
9
6
CONTINUOUS
10
-7.1613946305
20
-23.4328375476
11
-7.1657664645
21
-23.4284657136
0
LINE
5
244
100
AcDbEntity
8
0
100
AcDbLine
62
7
6
CONTINUOUS
10
-7.1672124603
20
-21.5770154870
11
-8.1613946305
21
-20.5828333168
0
LINE
5
245
100
AcDbEntity
8
0
100
AcDbLine
62
7
6
CONTINUOUS
10
-7.9779641323
20
-20.2662638150
11
-8.1613946305
21
-20.0828333168
0
LINE
5
246
100
AcDbEntity
8
0
100
AcDbLine
62
7
6
CONTINUOUS
10
-9.5613946305
20
-19.3818729670
11
-8.8612882929
21
-20.0828333168
0
LINE
5
247
100
AcDbEntity
8
0
100
AcDbLine
62
7
6
CONTINUOUS
10
6.6828555416
20
-19.1828333168
11
-6.5056448026
21
-19.1828333168
0
LINE
5
248
100
AcDbEntity
8
0
100
AcDbLine
62
9
6
CONTINUOUS
10
-6.3482133809
20
-18.7492918866
11
6.5254241199
21
-18.7492918866
0
LINE
5
249
100
AcDbEntity
8
0
100
AcDbLine
62
9
6
CONTINUOUS
10
-6.5056600337
20
-17.8228748244
11
-7.1171292273
21
-17.8228748244
0
LINE
5
24A
100
AcDbEntity
8
0
100
AcDbLine
62
9
6
CONTINUOUS
10
6.6828707727
20
-17.8228748244
11
7.2943399663
21
-17.8228748244
0
LINE
5
24B
100
AcDbEntity
8
0
100
AcDbLine
62
9
6
CONTINUOUS
10
7.0943475817
20
-17.6349363003
11
6.8828631573
21
-17.6349363003
0
LINE
5
24C
100
AcDbEntity
8
0
100
AcDbLine
62
9
6
CONTINUOUS
10
-6.7056524183
20
-17.6349363003
11
-6.9171368427
21
-17.6349363003
0
LINE
5
24D
100
AcDbEntity
8
0
100
AcDbLine
62
7
6
CONTINUOUS
10
-7.1171292273
20
21.9057118489
11
-7.2113946305
21
21.7171666832
0
LINE
5
24E
100
AcDbEntity
8
0
100
AcDbLine
62
7
6
CONTINUOUS
10
4.4949547226
20
24.7735160364
11
4.5386053695
21
24.8171666832
0
LINE
5
24F
100
AcDbEntity
8
0
100
AcDbLine
62
7
6
CONTINUOUS
10
4.5386053695
20
-23.1828333168
11
4.4949547226
21
-23.1391826699
0
LINE
5
250
100
AcDbEntity
8
0
100
AcDbLine
62
7
6
CONTINUOUS
10
-7.1171292273
20
-20.2713784824
11
-7.2113946305
21
-20.0828333168
0
LINE
5
251
100
AcDbEntity
8
0
100
AcDbLine
62
7
6
CONTINUOUS
10
-11.0779769422
20
-20.2054830476
11
-11.0613946305
21
-20.7539658033
0
LINE
5
252
100
AcDbEntity
8
0
100
AcDbLine
62
7
6
CONTINUOUS
10
-11.0531041061
20
21.8398164140
11
-11.0618309739
21
22.4171666832
0
LINE
5
253
100
AcDbEntity
8
0
100
AcDbLine
62
9
6
CONTINUOUS
10
-10.0570227965
20
-23.0271708841
11
-10.0613946305
21
-22.5933184650
0
LINE
5
254
100
AcDbEntity
8
0
100
AcDbLine
62
9
6
CONTINUOUS
10
-9.8070270273
20
-22.8106645331
11
-9.8121176284
21
-22.3054830476
0
LINE
5
255
100
AcDbEntity
8
0
100
AcDbLine
62
7
6
CONTINUOUS
10
-11.0779769422
20
21.8398164140
11
-11.0779769422
21
-20.2054830476
0
LINE
5
256
100
AcDbEntity
8
0
100
AcDbLine
62
7
6
CONTINUOUS
10
-11.0618309739
20
22.7171836063
11
-11.0618309739
21
22.4171666832
0
LINE
5
257
100
AcDbEntity
8
0
100
AcDbLine
62
7
6
CONTINUOUS
10
-11.0618309739
20
-21.0828502398
11
-11.0618309739
21
-20.7828333168
0
LINE
5
258
100
AcDbEntity
8
0
100
AcDbLine
62
7
6
CONTINUOUS
10
-11.0531041061
20
22.7113657765
11
-11.0531041061
21
21.8398164140
0
LINE
5
259
100
AcDbEntity
8
0
100
AcDbLine
62
7
6
CONTINUOUS
10
-11.0531041061
20
-20.2054830476
11
-11.0531041061
21
-21.0770324100
0
LINE
5
25A
100
AcDbEntity
8
0
100
AcDbLine
62
7
6
CONTINUOUS
10
-10.0613946305
20
-21.7830468071
11
-10.0613946305
21
-23.4328375476
0
LINE
5
25B
100
AcDbEntity
8
0
100
AcDbLine
62
7
6
CONTINUOUS
10
-10.0613946305
20
23.4173801736
11
-10.0613946305
21
25.0671709140
0
LINE
5
25C
100
AcDbEntity
8
0
100
AcDbLine
62
7
6
CONTINUOUS
10
-10.0570227965
20
25.0627990800
11
-10.0570227965
21
24.6615042505
0
LINE
5
25D
100
AcDbEntity
8
0
100
AcDbLine
62
7
6
CONTINUOUS
10
-10.0570227965
20
-23.0271708841
11
-10.0570227965
21
-23.4284657136
0
LINE
5
25E
100
AcDbEntity
8
0
100
AcDbLine
62
9
6
CONTINUOUS
10
-9.8070270273
20
-22.8106645331
11
-9.8070270273
21
-23.6784614828
0
LINE
5
25F
100
AcDbEntity
8
0
100
AcDbLine
62
9
6
CONTINUOUS
10
-9.8070270273
20
24.4449978996
11
-9.8070270273
21
25.3127948492
0
LINE
5
260
100
AcDbEntity
8
0
100
AcDbLine
62
9
6
CONTINUOUS
10
-10.0613946305
20
24.2276518314
11
-10.0570227965
21
24.6615042505
0
LINE
5
261
100
AcDbEntity
8
0
100
AcDbLine
62
9
6
CONTINUOUS
10
-9.8121176284
20
23.9398164140
11
-9.8070270273
21
24.4449978996
0
LINE
5
262
100
AcDbEntity
8
0
100
AcDbLine
62
7
6
CONTINUOUS
10
-11.0531041061
20
-20.2054830476
11
-11.0618309739
21
-20.7828333168
0
LINE
5
263
100
AcDbEntity
8
0
100
AcDbLine
62
7
6
CONTINUOUS
10
-11.0779769422
20
21.8398164140
11
-11.0613946305
21
22.3882991698
0
LINE
5
264
100
AcDbEntity
8
0
100
AcDbLine
62
7
6
CONTINUOUS
10
-7.2698206655
20
21.3662986720
11
-7.2113946305
21
21.7171666832
0
LINE
5
265
100
AcDbEntity
8
0
100
AcDbLine
62
7
6
CONTINUOUS
10
4.5386053695
20
23.2171666832
11
4.4946831225
21
23.1732444362
0
LINE
5
266
100
AcDbEntity
8
0
100
AcDbLine
62
9
6
CONTINUOUS
10
9.9886096003
20
25.3171666832
11
9.9842377663
21
25.3127948492
0
LINE
5
267
100
AcDbEntity
8
0
100
AcDbLine
62
9
6
CONTINUOUS
10
10.2386053695
20
25.0671709140
11
10.2342335355
21
25.0627990800
0
LINE
5
268
100
AcDbEntity
8
0
100
AcDbLine
62
9
6
CONTINUOUS
10
10.7390480590
20
23.2171666832
11
10.7303211912
21
23.2113488534
0
LINE
5
269
100
AcDbEntity
8
0
100
AcDbLine
62
9
6
CONTINUOUS
10
11.2390417129
20
22.7171836063
11
11.2303148451
21
22.7113657765
0
LINE
5
26A
100
AcDbEntity
8
0
100
AcDbLine
62
7
6
CONTINUOUS
10
9.6007103566
20
-11.6961009589
11
7.4575476251
21
-11.6961009589
0
LINE
5
26B
100
AcDbEntity
8
0
100
AcDbLine
62
7
6
CONTINUOUS
10
6.5196631140
20
-11.6961009589
11
-6.3424523749
21
-11.6961009589
0
LINE
5
26C
100
AcDbEntity
8
0
100
AcDbLine
62
7
6
CONTINUOUS
10
-7.2803368860
20
-11.6961009589
11
-9.4234996176
21
-11.6961009589
0
LINE
5
26D
100
AcDbEntity
8
0
100
AcDbLine
62
7
6
CONTINUOUS
10
-7.0809262233
20
-10.8037958891
11
-6.5418630377
21
-10.8037958891
0
LINE
5
26E
100
AcDbEntity
8
0
100
AcDbLine
62
7
6
CONTINUOUS
10
7.2581369623
20
-10.8037958891
11
6.7190737767
21
-10.8037958891
0
LINE
5
26F
100
AcDbEntity
8
0
100
AcDbLine
62
9
6
CONTINUOUS
10
10.7303211912
20
-21.5770154870
11
10.7390480590
21
-21.5828333168
0
LINE
5
270
100
AcDbEntity
8
0
100
AcDbLine
62
9
6
CONTINUOUS
10
11.2303148451
20
-21.0770324100
11
11.2390417129
21
-21.0828502398
0
LINE
5
271
100
AcDbEntity
8
0
100
AcDbLine
62
7
6
CONTINUOUS
10
4.5386053695
20
-21.5828333168
11
4.4946831225
21
-21.5389110697
0
LINE
5
272
100
AcDbEntity
8
0
100
AcDbLine
62
9
6
CONTINUOUS
10
9.9886096003
20
-23.6828333168
11
9.9842377663
21
-23.6784614828
0
LINE
5
273
100
AcDbEntity
8
0
100
AcDbLine
62
9
6
CONTINUOUS
10
10.2386053695
20
-23.4328375476
11
10.2342335355
21
-23.4284657136
0
LINE
5
274
100
AcDbEntity
8
0
100
AcDbLine
62
7
6
CONTINUOUS
10
-7.2113946305
20
-20.0828333168
11
-7.2698206655
21
-19.7319653056
0
LINE
5
275
100
AcDbEntity
8
0
100
AcDbLine
62
9
6
CONTINUOUS
10
-7.1171292273
20
-17.8228748244
11
-7.2803368860
21
-11.0159962038
0
LINE
5
276
100
AcDbEntity
8
0
100
AcDbLine
62
9
6
CONTINUOUS
10
-6.9171368427
20
-17.6349363003
11
-7.0809262233
21
-10.8037958891
0
LINE
5
277
100
AcDbEntity
8
0
100
AcDbLine
62
9
6
CONTINUOUS
10
-7.4157622337
20
24.4449978996
11
-7.4106716326
21
23.9398164140
0
LINE
5
278
100
AcDbEntity
8
0
100
AcDbLine
62
9
6
CONTINUOUS
10
-7.1657664645
20
24.6615042505
11
-7.1613946305
21
24.2276518314
0
LINE
5
279
100
AcDbEntity
8
0
100
AcDbLine
62
7
6
CONTINUOUS
10
-9.5613946305
20
21.0162063334
11
-9.5613946305
21
-19.3818729670
0
LINE
5
27A
100
AcDbEntity
8
0
100
AcDbLine
62
7
6
CONTINUOUS
10
-9.4234996176
20
-11.6961009589
11
-9.4234996176
21
13.3304343254
0
LINE
5
27B
100
AcDbEntity
8
0
100
AcDbLine
62
7
6
CONTINUOUS
10
-8.1613946305
20
-20.5828333168
11
-8.1613946305
21
-20.0828333168
0
LINE
5
27C
100
AcDbEntity
8
0
100
AcDbLine
62
7
6
CONTINUOUS
10
-8.1613946305
20
21.7171666832
11
-8.1613946305
21
22.2171666832
0
LINE
5
27D
100
AcDbEntity
8
0
100
AcDbLine
62
9
6
CONTINUOUS
10
-7.9779641323
20
22.4005971814
11
-7.9779641323
21
21.9005971814
0
LINE
5
27E
100
AcDbEntity
8
0
100
AcDbLine
62
9
6
CONTINUOUS
10
-7.9779641323
20
-20.2662638150
11
-7.9779641323
21
-20.7662638150
0
LINE
5
27F
100
AcDbEntity
8
0
100
AcDbLine
62
9
6
CONTINUOUS
10
-7.4780402847
20
22.1531536319
11
-7.4780402847
21
21.9091723974
0
LINE
5
280
100
AcDbEntity
8
0
100
AcDbLine
62
9
6
CONTINUOUS
10
-7.4780402847
20
-20.2748390310
11
-7.4780402847
21
-20.5188202654
0
LINE
5
281
100
AcDbEntity
8
0
100
AcDbLine
62
9
6
CONTINUOUS
10
-7.4157622337
20
-22.8106645331
11
-7.4157622337
21
-23.6784614828
0
LINE
5
282
100
AcDbEntity
8
0
100
AcDbLine
62
9
6
CONTINUOUS
10
-7.4157622337
20
24.4449978996
11
-7.4157622337
21
25.3127948492
0
LINE
5
283
100
AcDbEntity
8
0
100
AcDbLine
62
7
6
CONTINUOUS
10
-7.2803368860
20
-11.6961009589
11
-7.2803368860
21
-11.0159962038
0
LINE
5
284
100
AcDbEntity
8
0
100
AcDbLine
62
7
6
CONTINUOUS
10
-7.2803368860
20
12.6503295703
11
-7.2803368860
21
13.3304343254
0
LINE
5
285
100
AcDbEntity
8
0
100
AcDbLine
62
7
6
CONTINUOUS
10
-7.1657664645
20
-23.4284657136
11
-7.1657664645
21
-23.0271708841
0
LINE
5
286
100
AcDbEntity
8
0
100
AcDbLine
62
7
6
CONTINUOUS
10
-7.1657664645
20
24.6615042505
11
-7.1657664645
21
25.0627990800
0
LINE
5
287
100
AcDbEntity
8
0
100
AcDbLine
62
7
6
CONTINUOUS
10
-7.1613946305
20
-21.7830468071
11
-7.1613946305
21
-23.4328375476
0
LINE
5
288
100
AcDbEntity
8
0
100
AcDbLine
62
7
6
CONTINUOUS
10
-7.1613946305
20
23.4173801736
11
-7.1613946305
21
25.0671709140
0
LINE
5
289
100
AcDbEntity
8
0
100
AcDbLine
62
7
6
CONTINUOUS
10
-7.1171292273
20
21.9057118489
11
-7.1171292273
21
19.4572081909
0
LINE
5
28A
100
AcDbEntity
8
0
100
AcDbLine
62
7
6
CONTINUOUS
10
-7.1171292273
20
-17.8228748244
11
-7.1171292273
21
-20.2713784824
0
LINE
5
28B
100
AcDbEntity
8
0
100
AcDbLine
62
9
6
CONTINUOUS
10
-6.9171368427
20
21.9091723974
11
-6.9171368427
21
19.2692696667
0
LINE
5
28C
100
AcDbEntity
8
0
100
AcDbLine
62
9
6
CONTINUOUS
10
-6.9171368427
20
-20.2748390310
11
-6.9171368427
21
-17.6349363003
0
LINE
5
28D
100
AcDbEntity
8
0
100
AcDbLine
62
9
6
CONTINUOUS
10
-6.7056524183
20
-19.3828333168
11
-6.7056524183
21
-17.6349363003
0
LINE
5
28E
100
AcDbEntity
8
0
100
AcDbLine
62
9
6
CONTINUOUS
10
-6.7056524183
20
19.2692696667
11
-6.7056524183
21
21.0171666832
0
LINE
5
28F
100
AcDbEntity
8
0
100
AcDbLine
62
7
6
CONTINUOUS
10
-6.5056600337
20
-19.1828333168
11
-6.5056600337
21
-17.8228748244
0
LINE
5
290
100
AcDbEntity
8
0
100
AcDbLine
62
7
6
CONTINUOUS
10
-6.5056600337
20
19.4572081909
11
-6.5056600337
21
20.8171666832
0
LINE
5
291
100
AcDbEntity
8
0
100
AcDbLine
62
7
6
CONTINUOUS
10
-6.3424523749
20
-11.6961009589
11
-6.3424523749
21
-11.0159962038
0
LINE
5
292
100
AcDbEntity
8
0
100
AcDbLine
62
7
6
CONTINUOUS
10
-6.3424523749
20
12.6503295703
11
-6.3424523749
21
13.3304343254
0
LINE
5
293
100
AcDbEntity
8
0
100
AcDbLine
62
9
6
CONTINUOUS
10
-7.4106716326
20
-22.3054830476
11
-7.4157622337
21
-22.8106645331
0
LINE
5
294
100
AcDbEntity
8
0
100
AcDbLine
62
9
6
CONTINUOUS
10
-7.1613946305
20
-22.5933184650
11
-7.1657664645
21
-23.0271708841
0
LINE
5
295
100
AcDbEntity
8
0
100
AcDbLine
62
9
6
CONTINUOUS
10
-7.2803368860
20
12.6503295703
11
-7.1171292273
21
19.4572081909
0
LINE
5
296
100
AcDbEntity
8
0
100
AcDbLine
62
9
6
CONTINUOUS
10
-7.0809262233
20
12.4381292556
11
-6.9171368427
21
19.2692696667
0
LINE
5
297
100
AcDbEntity
8
0
100
AcDbLine
62
7
6
CONTINUOUS
10
-2.6988946379
20
6.5852517934
11
-2.8238946305
21
6.5214220138
0
LINE
5
298
100
AcDbEntity
8
0
100
AcDbLine
62
7
6
CONTINUOUS
10
-2.0238946305
20
-7.1828333168
11
-1.8363946305
21
-7.1828333168
0
LINE
5
299
100
AcDbEntity
8
0
100
AcDbLine
62
7
6
CONTINUOUS
10
2.1719387202
20
-7.0658120690
11
2.3177720188
21
-7.0658120690
0
LINE
5
29A
100
AcDbEntity
8
0
100
AcDbLine
62
7
6
CONTINUOUS
10
1.5886053695
20
-6.4700673549
11
2.1719387202
21
-6.4700673549
0
LINE
5
29B
100
AcDbEntity
8
0
100
AcDbLine
62
7
6
CONTINUOUS
10
2.3177720188
20
-6.4700673549
11
2.9011053695
21
-6.4700673549
0
LINE
5
29C
100
AcDbEntity
8
0
100
AcDbLine
62
7
6
CONTINUOUS
10
2.9011053695
20
-6.3211312024
11
2.3177720188
21
-6.3211312024
0
LINE
5
29D
100
AcDbEntity
8
0
100
AcDbLine
62
7
6
CONTINUOUS
10
2.1719387202
20
-6.3211312024
11
1.5886053695
21
-6.3211312024
0
LINE
5
29E
100
AcDbEntity
8
0
100
AcDbLine
62
7
6
CONTINUOUS
10
2.3177720188
20
-5.7253865926
11
2.1719387202
21
-5.7253865926
0
LINE
5
29F
100
AcDbEntity
8
0
100
AcDbLine
62
7
6
CONTINUOUS
10
-1.8363946305
20
-5.6828333168
11
-2.0238946305
21
-5.6828333168
0
LINE
5
2A0
100
AcDbEntity
8
0
100
AcDbLine
62
7
6
CONTINUOUS
10
-0.0863946901
20
-6.7998545943
11
0.0073553099
21
-6.8636843739
0
LINE
5
2A1
100
AcDbEntity
8
0
100
AcDbLine
62
9
6
CONTINUOUS
10
-6.7056524183
20
19.2692696667
11
-6.5418630377
21
12.4381292556
0
LINE
5
2A2
100
AcDbEntity
8
0
100
AcDbLine
62
9
6
CONTINUOUS
10
-6.5056600337
20
19.4572081909
11
-6.3424523749
21
12.6503295703
0
LINE
5
2A3
100
AcDbEntity
8
0
100
AcDbLine
62
7
6
CONTINUOUS
10
-4.3613946305
20
24.8171666832
11
-4.3613946305
21
24.1851116304
0
LINE
5
2A4
100
AcDbEntity
8
0
100
AcDbLine
62
7
6
CONTINUOUS
10
-4.3613946305
20
23.7492217361
11
-4.3613946305
21
23.2171666832
0
LINE
5
2A5
100
AcDbEntity
8
0
100
AcDbLine
62
7
6
CONTINUOUS
10
-4.3613946305
20
-21.5828333168
11
-4.3613946305
21
-22.1148883696
0
LINE
5
2A6
100
AcDbEntity
8
0
100
AcDbLine
62
7
6
CONTINUOUS
10
-4.3613946305
20
-22.5507782639
11
-4.3613946305
21
-23.1828333168
0
LINE
5
2A7
100
AcDbEntity
8
0
100
AcDbLine
62
7
6
CONTINUOUS
10
-4.3174723834
20
-23.1367255898
11
-4.3174723834
21
-21.5389110697
0
LINE
5
2A8
100
AcDbEntity
8
0
100
AcDbLine
62
7
6
CONTINUOUS
10
-4.3174723834
20
23.1732444362
11
-4.3174723834
21
24.7710589563
0
LINE
5
2A9
100
AcDbEntity
8
0
100
AcDbLine
62
9
6
CONTINUOUS
10
-4.0027432621
20
2.4086676196
11
-4.0027432621
21
-4.0743342532
0
LINE
5
2AA
100
AcDbEntity
8
0
100
AcDbLine
62
9
6
CONTINUOUS
10
-3.5028194145
20
2.4086676196
11
-3.5028194145
21
-4.0743342532
0
LINE
5
2AB
100
AcDbEntity
8
0
100
AcDbLine
62
7
6
CONTINUOUS
10
-3.4113946305
20
-21.5389264037
11
-3.4113946305
21
-23.1770154870
0
LINE
5
2AC
100
AcDbEntity
8
0
100
AcDbLine
62
7
6
CONTINUOUS
10
-3.4113946305
20
23.1732597701
11
-3.4113946305
21
24.8113488534
0
LINE
5
2AD
100
AcDbEntity
8
0
100
AcDbLine
62
9
6
CONTINUOUS
10
-3.3297705654
20
2.2356187705
11
-3.3297705654
21
-3.9012854041
0
LINE
5
2AE
100
AcDbEntity
8
0
100
AcDbLine
62
9
6
CONTINUOUS
10
-3.0298162568
20
2.2356187705
11
-3.0298162568
21
1.2414952023
0
LINE
5
2AF
100
AcDbEntity
8
0
100
AcDbLine
62
9
6
CONTINUOUS
10
-3.0298162568
20
0.3928381642
11
-3.0298162568
21
-3.9012854041
0
LINE
5
2B0
100
AcDbEntity
8
0
100
AcDbLine
62
7
6
CONTINUOUS
10
-3.0113946305
20
5.2767411546
11
-3.0113946305
21
5.1171666832
0
LINE
5
2B1
100
AcDbEntity
8
0
100
AcDbLine
62
9
6
CONTINUOUS
10
-3.0028955669
20
3.4085153148
11
-3.0028955669
21
2.9085914672
0
LINE
5
2B2
100
AcDbEntity
8
0
100
AcDbLine
62
9
6
CONTINUOUS
10
-3.0028955669
20
-5.0741819483
11
-3.0028955669
21
-4.5742581008
0
LINE
5
2B3
100
AcDbEntity
8
0
100
AcDbLine
62
7
6
CONTINUOUS
10
-2.9113946305
20
-19.9828333168
11
-2.9113946305
21
-21.5770154870
0
LINE
5
2B4
100
AcDbEntity
8
0
100
AcDbLine
62
7
6
CONTINUOUS
10
-2.9113946305
20
21.6171666832
11
-2.9113946305
21
23.2113488534
0
LINE
5
2B5
100
AcDbEntity
8
0
100
AcDbLine
62
9
6
CONTINUOUS
10
-6.5418630377
20
-10.8037958891
11
-6.7056524183
21
-17.6349363003
0
LINE
5
2B6
100
AcDbEntity
8
0
100
AcDbLine
62
9
6
CONTINUOUS
10
-6.3424523749
20
-11.0159962038
11
-6.5056600337
21
-17.8228748244
0
LINE
5
2B7
100
AcDbEntity
8
0
100
AcDbLine
62
7
6
CONTINUOUS
10
-2.9488946286
20
6.3937624545
11
-2.9801446296
21
6.2661028953
0
LINE
5
2B8
100
AcDbEntity
8
0
100
AcDbLine
62
7
6
CONTINUOUS
10
-1.9176446007
20
6.0746134670
11
-1.8863946305
21
6.2022730263
0
LINE
5
2B9
100
AcDbEntity
8
0
100
AcDbLine
62
7
6
CONTINUOUS
10
-2.0738946305
20
6.2022730263
11
-2.1363946603
21
6.0746134670
0
LINE
5
2BA
100
AcDbEntity
8
0
100
AcDbLine
62
7
6
CONTINUOUS
10
-2.8238946305
20
6.2661028953
11
-2.7613946230
21
6.3618475647
0
LINE
5
2BB
100
AcDbEntity
8
0
100
AcDbLine
62
7
6
CONTINUOUS
10
-1.9801446305
20
5.9788687976
11
-1.9176446007
21
6.0746134670
0
LINE
5
2BC
100
AcDbEntity
8
0
100
AcDbLine
62
7
6
CONTINUOUS
10
-2.8238946305
20
6.5214220138
11
-2.9488946286
21
6.3937624545
0
LINE
5
2BD
100
AcDbEntity
8
0
100
AcDbLine
62
7
6
CONTINUOUS
10
-2.1363946603
20
6.0746134670
11
-3.0113946305
21
5.2767411546
0
LINE
5
2BE
100
AcDbEntity
8
0
100
AcDbLine
62
7
6
CONTINUOUS
10
-2.7613946230
20
5.2767411546
11
-1.9801446305
21
5.9788687976
0
LINE
5
2BF
100
AcDbEntity
8
0
100
AcDbLine
62
7
6
CONTINUOUS
10
-2.7613946230
20
6.3618475647
11
-2.6676446230
21
6.4256773444
0
LINE
5
2C0
100
AcDbEntity
8
0
100
AcDbLine
62
9
6
CONTINUOUS
10
-3.0028955669
20
-5.0741819483
11
3.1801063059
21
-5.0741819483
0
LINE
5
2C1
100
AcDbEntity
8
0
100
AcDbLine
62
9
6
CONTINUOUS
10
-3.0028955669
20
-4.5742581008
11
3.1801063059
21
-4.5742581008
0
LINE
5
2C2
100
AcDbEntity
8
0
100
AcDbLine
62
9
6
CONTINUOUS
10
-2.8298467178
20
-4.4012092517
11
3.0070574568
21
-4.4012092517
0
LINE
5
2C3
100
AcDbEntity
8
0
100
AcDbLine
62
9
6
CONTINUOUS
10
-2.8298467178
20
-4.1012549431
11
3.0070574568
21
-4.1012549431
0
LINE
5
2C4
100
AcDbEntity
8
0
100
AcDbLine
62
7
6
CONTINUOUS
10
-1.9113946305
20
-4.0828333168
11
2.0886053807
21
-4.0828333168
0
LINE
5
2C5
100
AcDbEntity
8
0
100
AcDbLine
62
9
6
CONTINUOUS
10
-4.0027432621
20
-4.0743342532
11
-3.5028194145
21
-4.0743342532
0
LINE
5
2C6
100
AcDbEntity
8
0
100
AcDbLine
62
9
6
CONTINUOUS
10
4.1799540011
20
-4.0743342532
11
3.6800301535
21
-4.0743342532
0
LINE
5
2C7
100
AcDbEntity
8
0
100
AcDbLine
62
9
6
CONTINUOUS
10
3.2070269958
20
-3.9012854041
11
3.5069813044
21
-3.9012854041
0
LINE
5
2C8
100
AcDbEntity
8
0
100
AcDbLine
62
9
6
CONTINUOUS
10
-3.0298162568
20
-3.9012854041
11
-3.3297705654
21
-3.9012854152
0
LINE
5
2C9
100
AcDbEntity
8
0
100
AcDbLine
62
9
6
CONTINUOUS
10
-1.9113946305
20
-3.7828333168
11
2.0886053695
21
-3.7828333168
0
LINE
5
2CA
100
AcDbEntity
8
0
100
AcDbLine
62
9
6
CONTINUOUS
10
2.2886053695
20
-3.5828333168
11
2.5886053695
21
-3.5828333168
0
LINE
5
2CB
100
AcDbEntity
8
0
100
AcDbLine
62
9
6
CONTINUOUS
10
-2.1113946305
20
-3.5828333168
11
-2.4113946305
21
-3.5828333279
0
LINE
5
2CC
100
AcDbEntity
8
0
100
AcDbLine
62
7
6
CONTINUOUS
10
1.3167882000
20
-3.0610161473
11
-1.1395774610
21
-3.0610161473
0
LINE
5
2CD
100
AcDbEntity
8
0
100
AcDbLine
62
3
6
CONTINUOUS
10
1.3167882000
20
-3.0328333168
11
-1.1395774610
21
-3.0328333168
0
LINE
5
2CE
100
AcDbEntity
8
0
100
AcDbLine
62
7
6
CONTINUOUS
10
-1.1395774610
20
-2.3328333168
11
1.3167882000
21
-2.3328333168
0
LINE
5
2CF
100
AcDbEntity
8
0
100
AcDbLine
62
7
6
CONTINUOUS
10
-1.1395774610
20
-2.3046504862
11
1.3167882000
21
-2.3046504862
0
LINE
5
2D0
100
AcDbEntity
8
0
100
AcDbLine
62
7
6
CONTINUOUS
10
0.4136053695
20
-6.0658120839
11
0.3198553695
21
-6.0019822149
0
LINE
5
2D1
100
AcDbEntity
8
0
100
AcDbLine
62
9
6
CONTINUOUS
10
-2.8298467178
20
-4.1012549431
11
-2.8298467178
21
-4.4012092517
0
LINE
5
2D2
100
AcDbEntity
8
0
100
AcDbLine
62
9
6
CONTINUOUS
10
-2.8298467178
20
2.4355883096
11
-2.8298467289
21
2.7355426181
0
LINE
5
2D3
100
AcDbEntity
8
0
100
AcDbLine
62
7
6
CONTINUOUS
10
-2.4113946305
20
-1.6828333168
11
-2.4113946305
21
-3.5828333279
0
LINE
5
2D4
100
AcDbEntity
8
0
100
AcDbLine
62
7
6
CONTINUOUS
10
-2.2113946305
20
-5.9062375455
11
-2.2113946305
21
-6.1615567534
0
LINE
5
2D5
100
AcDbEntity
8
0
100
AcDbLine
62
9
6
CONTINUOUS
10
-2.1113946305
20
-1.6828333168
11
-2.1113946305
21
-3.5828333168
0
LINE
5
2D6
100
AcDbEntity
8
0
100
AcDbLine
62
7
6
CONTINUOUS
10
-2.0738946305
20
6.2661028953
11
-2.0738946305
21
6.2022730263
0
LINE
5
2D7
100
AcDbEntity
8
0
100
AcDbLine
62
7
6
CONTINUOUS
10
-2.0238946305
20
-5.9381524353
11
-2.0238946305
21
-7.1828333168
0
LINE
5
2D8
100
AcDbEntity
8
0
100
AcDbLine
62
9
6
CONTINUOUS
10
-1.9113946305
20
-3.7828333168
11
-1.9113946305
21
-4.0828333168
0
LINE
5
2D9
100
AcDbEntity
8
0
100
AcDbLine
62
9
6
CONTINUOUS
10
-1.9113946305
20
-1.4828333168
11
-1.9113946417
21
-1.1828333168
0
LINE
5
2DA
100
AcDbEntity
8
0
100
AcDbLine
62
7
6
CONTINUOUS
10
-1.8863946305
20
5.1171666832
11
-1.8863946305
21
5.2767411546
0
LINE
5
2DB
100
AcDbEntity
8
0
100
AcDbLine
62
7
6
CONTINUOUS
10
-1.8863946305
20
6.2022730263
11
-1.8863946305
21
6.2661028953
0
LINE
5
2DC
100
AcDbEntity
8
0
100
AcDbLine
62
7
6
CONTINUOUS
10
-1.8363946305
20
-7.1828333168
11
-1.8363946305
21
-5.6828333168
0
LINE
5
2DD
100
AcDbEntity
8
0
100
AcDbLine
62
9
6
CONTINUOUS
10
-1.8216192677
20
3.4085153148
11
-1.8216192677
21
2.9085914672
0
LINE
5
2DE
100
AcDbEntity
8
0
100
AcDbLine
62
9
6
CONTINUOUS
10
-1.7779426961
20
2.4355883092
11
-1.7779426961
21
2.7355426181
0
LINE
5
2DF
100
AcDbEntity
8
0
100
AcDbLine
62
7
6
CONTINUOUS
10
-1.3113946305
20
2.4171666832
11
-1.3113946305
21
-1.1828333168
0
LINE
5
2E0
100
AcDbEntity
8
0
100
AcDbLine
62
7
6
CONTINUOUS
10
-1.1395774610
20
-3.0610161473
11
-1.1395774610
21
-2.3046504862
0
LINE
5
2E1
100
AcDbEntity
8
0
100
AcDbLine
62
7
6
CONTINUOUS
10
-1.1113946305
20
-2.3328333168
11
-1.1113946305
21
-3.0328333168
0
LINE
5
2E2
100
AcDbEntity
8
0
100
AcDbLine
62
9
6
CONTINUOUS
10
-1.1113946305
20
-23.1828333168
11
-1.1113946305
21
-23.1770154870
0
LINE
5
2E3
100
AcDbEntity
8
0
100
AcDbLine
62
9
6
CONTINUOUS
10
-1.0113946305
20
2.4171666832
11
-1.0113946305
21
-1.4828333168
0
LINE
5
2E4
100
AcDbEntity
8
0
100
AcDbLine
62
7
6
CONTINUOUS
10
-0.9113946305
20
24.6113454687
11
-0.9113946305
21
23.2119306476
0
LINE
5
2E5
100
AcDbEntity
8
0
100
AcDbLine
62
7
6
CONTINUOUS
10
-0.9113946305
20
-21.5775972812
11
-0.9113946305
21
-22.9770121023
0
LINE
5
2E6
100
AcDbEntity
8
0
100
AcDbLine
62
9
6
CONTINUOUS
10
-0.8113946305
20
2.6171666832
11
-0.8113946417
21
2.9171666832
0
LINE
5
2E7
100
AcDbEntity
8
0
100
AcDbLine
62
7
6
CONTINUOUS
10
-0.2895774610
20
-0.4110161473
11
-0.2895774610
21
2.0453495138
0
LINE
5
2E8
100
AcDbEntity
8
0
100
AcDbLine
62
7
6
CONTINUOUS
10
-0.2613946305
20
-0.4110161473
11
-0.2613946305
21
2.0453495138
0
LINE
5
2E9
100
AcDbEntity
8
0
100
AcDbLine
62
9
6
CONTINUOUS
10
-0.1113946305
20
-2.3328333168
11
-0.1113946305
21
-3.0328333168
0
LINE
5
2EA
100
AcDbEntity
8
0
100
AcDbLine
62
9
6
CONTINUOUS
10
0.2886053695
20
-2.3328333168
11
0.2886053695
21
-3.0328333168
0
LINE
5
2EB
100
AcDbEntity
8
0
100
AcDbLine
62
3
6
CONTINUOUS
10
0.4386053695
20
2.0453495138
11
0.4386053695
21
-0.4110161473
0
LINE
5
2EC
100
AcDbEntity
8
0
100
AcDbLine
62
7
6
CONTINUOUS
10
0.4667882000
20
2.0453495138
11
0.4667882000
21
-0.4110161473
0
LINE
5
2ED
100
AcDbEntity
8
0
100
AcDbLine
62
7
6
CONTINUOUS
10
-9.5613946305
20
-19.3818729670
11
-9.4356259426
21
-19.0042600700
0
LINE
5
2EE
100
AcDbEntity
8
0
100
AcDbLine
62
7
6
CONTINUOUS
10
-8.8612882929
20
-20.0828333168
11
-8.7444273230
21
-19.7319653056
0
LINE
5
2EF
100
AcDbEntity
8
0
100
AcDbLine
62
7
6
CONTINUOUS
10
0.2698553695
20
6.2980177851
11
-0.1363946901
21
5.5001454057
0
LINE
5
2F0
100
AcDbEntity
8
0
100
AcDbLine
62
7
6
CONTINUOUS
10
-0.0426446901
20
5.4363156261
11
0.3636053695
21
6.2341879161
0
LINE
5
2F1
100
AcDbEntity
8
0
100
AcDbLine
62
9
6
CONTINUOUS
10
1.9988300067
20
3.4085153148
11
1.5646880437
21
3.1604815349
0
LINE
5
2F2
100
AcDbEntity
8
0
100
AcDbLine
62
9
6
CONTINUOUS
10
1.3951397679
20
2.8201257989
11
1.6751114222
21
2.9279027513
0
LINE
5
2F3
100
AcDbEntity
8
0
100
AcDbLine
62
9
6
CONTINUOUS
10
2.2886053695
20
-1.6828333168
11
2.5886053695
21
-1.6828333056
0
LINE
5
2F4
100
AcDbEntity
8
0
100
AcDbLine
62
9
6
CONTINUOUS
10
-2.1113946305
20
-1.6828333168
11
-2.4113946305
21
-1.6828333168
0
LINE
5
2F5
100
AcDbEntity
8
0
100
AcDbLine
62
9
6
CONTINUOUS
10
2.0886053695
20
-1.4828333168
11
1.1886053695
21
-1.4828333168
0
LINE
5
2F6
100
AcDbEntity
8
0
100
AcDbLine
62
9
6
CONTINUOUS
10
-1.0113946305
20
-1.4828333168
11
-1.9113946305
21
-1.4828333168
0
LINE
5
2F7
100
AcDbEntity
8
0
100
AcDbLine
62
7
6
CONTINUOUS
10
2.0886053695
20
-1.1828333168
11
1.4886053695
21
-1.1828333168
0
LINE
5
2F8
100
AcDbEntity
8
0
100
AcDbLine
62
7
6
CONTINUOUS
10
-1.3113946305
20
-1.1828333168
11
-1.9113946417
21
-1.1828333168
0
LINE
5
2F9
100
AcDbEntity
8
0
100
AcDbLine
62
7
6
CONTINUOUS
10
0.4667882000
20
-0.4110161473
11
-0.2895774610
21
-0.4110161473
0
LINE
5
2FA
100
AcDbEntity
8
0
100
AcDbLine
62
7
6
CONTINUOUS
10
-0.2613946305
20
-0.3828333168
11
0.4386053695
21
-0.3828333168
0
LINE
5
2FB
100
AcDbEntity
8
0
100
AcDbLine
62
9
6
CONTINUOUS
10
-0.2613946305
20
0.6171666832
11
0.4386053695
21
0.6171666832
0
LINE
5
2FC
100
AcDbEntity
8
0
100
AcDbLine
62
9
6
CONTINUOUS
10
-0.2613946305
20
1.0171666832
11
0.4386053695
21
1.0171666832
0
LINE
5
2FD
100
AcDbEntity
8
0
100
AcDbLine
62
9
6
CONTINUOUS
10
3.0070574568
20
-4.4012092517
11
3.1801063059
21
-4.5742581008
0
LINE
5
2FE
100
AcDbEntity
8
0
100
AcDbLine
62
9
6
CONTINUOUS
10
-3.3297705654
20
2.2356187705
11
-3.5028194145
21
2.4086676196
0
LINE
5
2FF
100
AcDbEntity
8
0
100
AcDbLine
62
9
6
CONTINUOUS
10
3.5069813044
20
-3.9012854041
11
3.6800301535
21
-4.0743342532
0
LINE
5
300
100
AcDbEntity
8
0
100
AcDbLine
62
9
6
CONTINUOUS
10
-2.8298467178
20
2.7355426181
11
-3.0028955669
21
2.9085914672
0
LINE
5
301
100
AcDbEntity
8
0
100
AcDbLine
62
7
6
CONTINUOUS
10
-9.4356259426
20
20.6385934365
11
-9.5613946305
21
21.0162063334
0
LINE
5
302
100
AcDbEntity
8
0
100
AcDbLine
62
7
6
CONTINUOUS
10
-8.7444273230
20
21.3662986720
11
-8.8612882929
21
21.7171666832
0
LINE
5
303
100
AcDbEntity
8
0
100
AcDbLine
62
7
6
CONTINUOUS
10
-1.8863946305
20
6.2661028953
11
-1.9176446007
21
6.3937624545
0
LINE
5
304
100
AcDbEntity
8
0
100
AcDbLine
62
9
6
CONTINUOUS
10
0.9886053695
20
2.6171666832
11
0.9886053695
21
2.9171666832
0
LINE
5
305
100
AcDbEntity
8
0
100
AcDbLine
62
7
6
CONTINUOUS
10
1.0886053695
20
24.6113454687
11
1.0886053695
21
23.2119306476
0
LINE
5
306
100
AcDbEntity
8
0
100
AcDbLine
62
7
6
CONTINUOUS
10
1.0886053695
20
-21.5775972812
11
1.0886053695
21
-22.9770121023
0
LINE
5
307
100
AcDbEntity
8
0
100
AcDbLine
62
9
6
CONTINUOUS
10
1.1886053695
20
-1.4828333168
11
1.1886053695
21
2.4171666832
0
LINE
5
308
100
AcDbEntity
8
0
100
AcDbLine
62
7
6
CONTINUOUS
10
1.2886053695
20
-2.3328333168
11
1.2886053695
21
-3.0328333168
0
LINE
5
309
100
AcDbEntity
8
0
100
AcDbLine
62
9
6
CONTINUOUS
10
1.2886053695
20
-23.1770154870
11
1.2886053695
21
-23.1828333168
0
LINE
5
30A
100
AcDbEntity
8
0
100
AcDbLine
62
7
6
CONTINUOUS
10
1.3167882000
20
-2.3046504862
11
1.3167882000
21
-3.0610161473
0
LINE
5
30B
100
AcDbEntity
8
0
100
AcDbLine
62
7
6
CONTINUOUS
10
1.4886053695
20
-1.1828333168
11
1.4886053695
21
2.4171666944
0
LINE
5
30C
100
AcDbEntity
8
0
100
AcDbLine
62
7
6
CONTINUOUS
10
1.5886053695
20
-6.3211312024
11
1.5886053695
21
-6.4700673549
0
LINE
5
30D
100
AcDbEntity
8
0
100
AcDbLine
62
7
6
CONTINUOUS
10
1.7886053695
20
6.0554645689
11
1.7886053695
21
5.6831240834
0
LINE
5
30E
100
AcDbEntity
8
0
100
AcDbLine
62
9
6
CONTINUOUS
10
1.9551534352
20
2.4355883092
11
1.9551534330
21
2.7355426181
0
LINE
5
30F
100
AcDbEntity
8
0
100
AcDbLine
62
9
6
CONTINUOUS
10
1.9988300067
20
3.4085153148
11
1.9988300067
21
2.9085914672
0
LINE
5
310
100
AcDbEntity
8
0
100
AcDbLine
62
9
6
CONTINUOUS
10
2.0886053695
20
-3.7828333168
11
2.0886053807
21
-4.0828333168
0
LINE
5
311
100
AcDbEntity
8
0
100
AcDbLine
62
9
6
CONTINUOUS
10
2.0886053695
20
-1.4828333168
11
2.0886053695
21
-1.1828333168
0
LINE
5
312
100
AcDbEntity
8
0
100
AcDbLine
62
7
6
CONTINUOUS
10
2.1719387202
20
-5.7253865926
11
2.1719387202
21
-6.3211312024
0
LINE
5
313
100
AcDbEntity
8
0
100
AcDbLine
62
7
6
CONTINUOUS
10
2.1719387202
20
-6.4700673549
11
2.1719387202
21
-7.0658120690
0
LINE
5
314
100
AcDbEntity
8
0
100
AcDbLine
62
9
6
CONTINUOUS
10
2.2886053695
20
-3.5828333168
11
2.2886053695
21
-1.6828333168
0
LINE
5
315
100
AcDbEntity
8
0
100
AcDbLine
62
7
6
CONTINUOUS
10
2.3177720188
20
-7.0658120690
11
2.3177720188
21
-6.4700673549
0
LINE
5
316
100
AcDbEntity
8
0
100
AcDbLine
62
7
6
CONTINUOUS
10
2.3177720188
20
-6.3211312024
11
2.3177720188
21
-5.7253865926
0
LINE
5
317
100
AcDbEntity
8
0
100
AcDbLine
62
7
6
CONTINUOUS
10
2.5886053695
20
-3.5828333168
11
2.5886053695
21
-1.6828333168
0
LINE
5
318
100
AcDbEntity
8
0
100
AcDbLine
62
7
6
CONTINUOUS
10
2.8094386681
20
5.6831240834
11
2.8094386681
21
6.0554645689
0
LINE
5
319
100
AcDbEntity
8
0
100
AcDbLine
62
7
6
CONTINUOUS
10
2.9011053695
20
-6.4700673549
11
2.9011053695
21
-6.3211312024
0
LINE
5
31A
100
AcDbEntity
8
0
100
AcDbLine
62
9
6
CONTINUOUS
10
3.0070574568
20
-4.1012549431
11
3.0070574679
21
-4.4012092517
0
LINE
5
31B
100
AcDbEntity
8
0
100
AcDbLine
62
9
6
CONTINUOUS
10
3.0070574568
20
2.4355883096
11
3.0070574568
21
2.7355426181
0
LINE
5
31C
100
AcDbEntity
8
0
100
AcDbLine
62
7
6
CONTINUOUS
10
3.0886053695
20
-21.5770154870
11
3.0886053695
21
-19.9828333168
0
LINE
5
31D
100
AcDbEntity
8
0
100
AcDbLine
62
7
6
CONTINUOUS
10
3.0886053695
20
21.6171666832
11
3.0886053695
21
23.2113488534
0
LINE
5
31E
100
AcDbEntity
8
0
100
AcDbLine
62
9
6
CONTINUOUS
10
3.1801063059
20
3.4085153148
11
3.1801063059
21
2.9085914672
0
LINE
5
31F
100
AcDbEntity
8
0
100
AcDbLine
62
9
6
CONTINUOUS
10
3.1801063059
20
-5.0741819483
11
3.1801063059
21
-4.5742581008
0
LINE
5
320
100
AcDbEntity
8
0
100
AcDbLine
62
9
6
CONTINUOUS
10
3.2070269958
20
-3.9012854041
11
3.2070269958
21
0.3928381642
0
LINE
5
321
100
AcDbEntity
8
0
100
AcDbLine
62
9
6
CONTINUOUS
10
3.2070269958
20
1.2414952023
11
3.2070269958
21
2.2356187705
0
LINE
5
322
100
AcDbEntity
8
0
100
AcDbLine
62
9
6
CONTINUOUS
10
3.5069813044
20
-3.9012854041
11
3.5069813044
21
2.2356187705
0
LINE
5
323
100
AcDbEntity
8
0
100
AcDbLine
62
7
6
CONTINUOUS
10
3.5886053695
20
-21.5389264037
11
3.5886053695
21
-23.1770154870
0
LINE
5
324
100
AcDbEntity
8
0
100
AcDbLine
62
7
6
CONTINUOUS
10
3.5886053695
20
23.1732597701
11
3.5886053695
21
24.8113488534
0
LINE
5
325
100
AcDbEntity
8
0
100
AcDbLine
62
9
6
CONTINUOUS
10
3.6800301535
20
-4.0743342532
11
3.6800301535
21
2.4086676196
0
LINE
5
326
100
AcDbEntity
8
0
100
AcDbLine
62
7
6
CONTINUOUS
10
8.9216380620
20
21.3662986720
11
9.0384990319
21
21.7171666832
0
LINE
5
327
100
AcDbEntity
8
0
100
AcDbLine
62
7
6
CONTINUOUS
10
9.6128366816
20
20.6385934365
11
9.7386053695
21
21.0162063334
0
LINE
5
328
100
AcDbEntity
8
0
100
AcDbLine
62
7
6
CONTINUOUS
10
0.3198553695
20
-6.0019822149
11
-0.0863946901
21
-6.7998545943
0
LINE
5
329
100
AcDbEntity
8
0
100
AcDbLine
62
7
6
CONTINUOUS
10
0.0073553099
20
-6.8636843739
11
0.4136053695
21
-6.0658120839
0
LINE
5
32A
100
AcDbEntity
8
0
100
AcDbLine
62
7
6
CONTINUOUS
10
-2.0238946305
20
-5.6828333168
11
-2.2113946305
21
-5.9062375455
0
LINE
5
32B
100
AcDbEntity
8
0
100
AcDbLine
62
7
6
CONTINUOUS
10
-2.2113946305
20
-6.1615567534
11
-2.0238946305
21
-5.9381524353
0
LINE
5
32C
100
AcDbEntity
8
0
100
AcDbLine
62
9
6
CONTINUOUS
10
3.0070574568
20
2.7355426181
11
3.1801063059
21
2.9085914672
0
LINE
5
32D
100
AcDbEntity
8
0
100
AcDbLine
62
9
6
CONTINUOUS
10
-3.3297705654
20
-3.9012854041
11
-3.5028194145
21
-4.0743342532
0
LINE
5
32E
100
AcDbEntity
8
0
100
AcDbLine
62
9
6
CONTINUOUS
10
3.5069813044
20
2.2356187705
11
3.6800301535
21
2.4086676196
0
LINE
5
32F
100
AcDbEntity
8
0
100
AcDbLine
62
9
6
CONTINUOUS
10
-2.8298467178
20
-4.4012092517
11
-3.0028955669
21
-4.5742581008
0
LINE
5
330
100
AcDbEntity
8
0
100
AcDbLine
62
7
6
CONTINUOUS
10
-0.2613946305
20
2.0171666832
11
0.4386053695
21
2.0171666832
0
LINE
5
331
100
AcDbEntity
8
0
100
AcDbLine
62
7
6
CONTINUOUS
10
-0.2895774610
20
2.0453495138
11
0.4667882000
21
2.0453495138
0
LINE
5
332
100
AcDbEntity
8
0
100
AcDbLine
62
9
6
CONTINUOUS
10
3.2070269958
20
2.2356187705
11
3.5069813044
21
2.2356187817
0
LINE
5
333
100
AcDbEntity
8
0
100
AcDbLine
62
9
6
CONTINUOUS
10
-3.0298162568
20
2.2356187705
11
-3.3297705654
21
2.2356187705
0
LINE
5
334
100
AcDbEntity
8
0
100
AcDbLine
62
9
6
CONTINUOUS
10
-4.0027432621
20
2.4086676196
11
-3.5028194145
21
2.4086676196
0
LINE
5
335
100
AcDbEntity
8
0
100
AcDbLine
62
9
6
CONTINUOUS
10
4.1799540011
20
2.4086676196
11
3.6800301535
21
2.4086676196
0
LINE
5
336
100
AcDbEntity
8
0
100
AcDbLine
62
9
6
CONTINUOUS
10
1.1886053695
20
2.4171666832
11
1.4886053695
21
2.4171666944
0
LINE
5
337
100
AcDbEntity
8
0
100
AcDbLine
62
9
6
CONTINUOUS
10
-1.0113946305
20
2.4171666832
11
-1.3113946305
21
2.4171666832
0
LINE
5
338
100
AcDbEntity
8
0
100
AcDbLine
62
9
6
CONTINUOUS
10
3.0070574568
20
2.4355883096
11
1.9551534352
21
2.4355883092
0
LINE
5
339
100
AcDbEntity
8
0
100
AcDbLine
62
9
6
CONTINUOUS
10
-1.7779426961
20
2.4355883092
11
-2.8298467178
21
2.4355883096
0
LINE
5
33A
100
AcDbEntity
8
0
100
AcDbLine
62
9
6
CONTINUOUS
10
0.9886053695
20
2.6171666832
11
-0.8113946305
21
2.6171666832
0
LINE
5
33B
100
AcDbEntity
8
0
100
AcDbLine
62
9
6
CONTINUOUS
10
3.0070574568
20
2.7355426181
11
1.9551534354
21
2.7355426181
0
LINE
5
33C
100
AcDbEntity
8
0
100
AcDbLine
62
9
6
CONTINUOUS
10
-1.7779426963
20
2.7355426181
11
-2.8298467178
21
2.7355426181
0
LINE
5
33D
100
AcDbEntity
8
0
100
AcDbLine
62
9
6
CONTINUOUS
10
3.1801063059
20
2.9085914672
11
1.9988300021
21
2.9085914672
0
LINE
5
33E
100
AcDbEntity
8
0
100
AcDbLine
62
9
6
CONTINUOUS
10
-1.8216192631
20
2.9085914672
11
-3.0028955669
21
2.9085914672
0
LINE
5
33F
100
AcDbEntity
8
0
100
AcDbLine
62
7
6
CONTINUOUS
10
0.9886053695
20
2.9171666832
11
-0.8113946305
21
2.9171666832
0
LINE
5
340
100
AcDbEntity
8
0
100
AcDbLine
62
9
6
CONTINUOUS
10
3.1801063059
20
3.4085153148
11
1.9986851050
21
3.4085153148
0
LINE
5
341
100
AcDbEntity
8
0
100
AcDbLine
62
9
6
CONTINUOUS
10
-1.8216083642
20
3.4085153148
11
-3.0028955669
21
3.4085153148
0
LINE
5
342
100
AcDbEntity
8
0
100
AcDbLine
62
9
6
CONTINUOUS
10
-1.2179290289
20
2.8201257989
11
-1.4979006832
21
2.9279027511
0
LINE
5
343
100
AcDbEntity
8
0
100
AcDbLine
62
9
6
CONTINUOUS
10
-1.8216192677
20
3.4085153148
11
-1.3874773047
21
3.1604815349
0
LINE
5
344
100
AcDbEntity
8
0
100
AcDbLine
62
7
6
CONTINUOUS
10
-2.2301446603
20
6.4256773444
11
-2.1363946603
21
6.3618475647
0
LINE
5
345
100
AcDbEntity
8
0
100
AcDbLine
62
7
6
CONTINUOUS
10
-0.1363946901
20
5.5001454057
11
-0.0426446901
21
5.4363156261
0
LINE
5
346
100
AcDbEntity
8
0
100
AcDbLine
62
7
6
CONTINUOUS
10
-1.9176446007
20
6.3937624545
11
-2.0426446603
21
6.5214220138
0
LINE
5
347
100
AcDbEntity
8
0
100
AcDbLine
62
7
6
CONTINUOUS
10
-2.1363946603
20
6.3618475647
11
-2.0738946305
21
6.2661028953
0
LINE
5
348
100
AcDbEntity
8
0
100
AcDbLine
62
7
6
CONTINUOUS
10
9.0384990319
20
-20.0828333168
11
8.9216380620
21
-19.7319653056
0
LINE
5
349
100
AcDbEntity
8
0
100
AcDbLine
62
7
6
CONTINUOUS
10
9.7386053695
20
-19.3818729670
11
9.6128366816
21
-19.0042600700
0
LINE
5
34A
100
AcDbEntity
8
0
100
AcDbLine
62
9
6
CONTINUOUS
10
6.6828707727
20
-17.8228748244
11
6.5196631140
21
-11.0159962038
0
LINE
5
34B
100
AcDbEntity
8
0
100
AcDbLine
62
9
6
CONTINUOUS
10
6.8828631573
20
-17.6349363003
11
6.7190737767
21
-10.8037958891
0
LINE
5
34C
100
AcDbEntity
8
0
100
AcDbLine
62
9
6
CONTINUOUS
10
7.3429772035
20
-23.0271708841
11
7.3386053695
21
-22.5933184650
0
LINE
5
34D
100
AcDbEntity
8
0
100
AcDbLine
62
9
6
CONTINUOUS
10
7.5929729727
20
-22.8106645331
11
7.5878823716
21
-22.3054830476
0
LINE
5
34E
100
AcDbEntity
8
0
100
AcDbLine
62
9
6
CONTINUOUS
10
4.1799540011
20
-4.0743342532
11
4.1799540011
21
2.4086676196
0
LINE
5
34F
100
AcDbEntity
8
0
100
AcDbLine
62
7
6
CONTINUOUS
10
4.4946831225
20
-23.1367255898
11
4.4946831225
21
-21.5389110697
0
LINE
5
350
100
AcDbEntity
8
0
100
AcDbLine
62
7
6
CONTINUOUS
10
4.4946831225
20
23.1732444362
11
4.4946831225
21
24.7710589563
0
LINE
5
351
100
AcDbEntity
8
0
100
AcDbLine
62
7
6
CONTINUOUS
10
4.5386053695
20
-23.1828333168
11
4.5386053695
21
-22.5507782639
0
LINE
5
352
100
AcDbEntity
8
0
100
AcDbLine
62
7
6
CONTINUOUS
10
4.5386053695
20
-22.1148883696
11
4.5386053695
21
-21.5828333168
0
LINE
5
353
100
AcDbEntity
8
0
100
AcDbLine
62
7
6
CONTINUOUS
10
4.5386053695
20
23.2171666832
11
4.5386053695
21
23.7492217361
0
LINE
5
354
100
AcDbEntity
8
0
100
AcDbLine
62
7
6
CONTINUOUS
10
4.5386053695
20
24.1851116304
11
4.5386053695
21
24.8171666832
0
LINE
5
355
100
AcDbEntity
8
0
100
AcDbLine
62
7
6
CONTINUOUS
10
6.5196631140
20
-11.6961009589
11
6.5196631140
21
-11.0159962038
0
LINE
5
356
100
AcDbEntity
8
0
100
AcDbLine
62
7
6
CONTINUOUS
10
6.5196631140
20
12.6503295703
11
6.5196631140
21
13.3304343254
0
LINE
5
357
100
AcDbEntity
8
0
100
AcDbLine
62
7
6
CONTINUOUS
10
6.6828707727
20
20.8171666832
11
6.6828707727
21
19.4572081909
0
LINE
5
358
100
AcDbEntity
8
0
100
AcDbLine
62
7
6
CONTINUOUS
10
6.6828707727
20
-17.8228748244
11
6.6828707727
21
-19.1828333168
0
LINE
5
359
100
AcDbEntity
8
0
100
AcDbLine
62
9
6
CONTINUOUS
10
6.8828631573
20
21.0171666832
11
6.8828631573
21
19.2692696667
0
LINE
5
35A
100
AcDbEntity
8
0
100
AcDbLine
62
9
6
CONTINUOUS
10
6.8828631573
20
-19.3828333168
11
6.8828631573
21
-17.6349363003
0
LINE
5
35B
100
AcDbEntity
8
0
100
AcDbLine
62
9
6
CONTINUOUS
10
7.0943475817
20
-20.2748390310
11
7.0943475817
21
-17.6349363003
0
LINE
5
35C
100
AcDbEntity
8
0
100
AcDbLine
62
9
6
CONTINUOUS
10
7.0943475817
20
19.2692696667
11
7.0943475817
21
21.9091723974
0
LINE
5
35D
100
AcDbEntity
8
0
100
AcDbLine
62
7
6
CONTINUOUS
10
7.2943399663
20
-20.2713784824
11
7.2943399663
21
-17.8228748244
0
LINE
5
35E
100
AcDbEntity
8
0
100
AcDbLine
62
7
6
CONTINUOUS
10
7.2943399663
20
19.4572081909
11
7.2943399663
21
21.9057118489
0
LINE
5
35F
100
AcDbEntity
8
0
100
AcDbLine
62
7
6
CONTINUOUS
10
7.3386053695
20
-21.7830468071
11
7.3386053695
21
-23.4328375476
0
LINE
5
360
100
AcDbEntity
8
0
100
AcDbLine
62
7
6
CONTINUOUS
10
7.3386053695
20
23.4173801736
11
7.3386053695
21
25.0671709140
0
LINE
5
361
100
AcDbEntity
8
0
100
AcDbLine
62
7
6
CONTINUOUS
10
7.3429772035
20
25.0627990800
11
7.3429772035
21
24.6615042505
0
LINE
5
362
100
AcDbEntity
8
0
100
AcDbLine
62
7
6
CONTINUOUS
10
7.3429772035
20
-23.0271708841
11
7.3429772035
21
-23.4284657136
0
LINE
5
363
100
AcDbEntity
8
0
100
AcDbLine
62
9
6
CONTINUOUS
10
7.3386053695
20
24.2276518314
11
7.3429772035
21
24.6615042505
0
LINE
5
364
100
AcDbEntity
8
0
100
AcDbLine
62
9
6
CONTINUOUS
10
7.5878823716
20
23.9398164140
11
7.5929729727
21
24.4449978996
0
LINE
5
365
100
AcDbEntity
8
0
100
AcDbLine
62
9
6
CONTINUOUS
10
6.5196631140
20
12.6503295703
11
6.6828707727
21
19.4572081909
0
LINE
5
366
100
AcDbEntity
8
0
100
AcDbLine
62
9
6
CONTINUOUS
10
6.7190737767
20
12.4381292556
11
6.8828631573
21
19.2692696667
0
LINE
5
367
100
AcDbEntity
8
0
100
AcDbLine
62
7
6
CONTINUOUS
10
-2.6676446230
20
6.4256773444
11
-2.5113946156
21
6.4575922342
0
LINE
5
368
100
AcDbEntity
8
0
100
AcDbLine
62
7
6
CONTINUOUS
10
-2.4801446454
20
6.6171666832
11
-2.6988946379
21
6.5852517934
0
LINE
5
369
100
AcDbEntity
8
0
100
AcDbLine
62
7
6
CONTINUOUS
10
-3.0113946305
20
5.1171666832
11
-1.8863946305
21
5.1171666832
0
LINE
5
36A
100
AcDbEntity
8
0
100
AcDbLine
62
7
6
CONTINUOUS
10
-1.8863946305
20
5.2767411546
11
-2.7613946230
21
5.2767411546
0
LINE
5
36B
100
AcDbEntity
8
0
100
AcDbLine
62
7
6
CONTINUOUS
10
1.7886053695
20
5.6831240834
11
2.8094386681
21
5.6831240834
0
LINE
5
36C
100
AcDbEntity
8
0
100
AcDbLine
62
7
6
CONTINUOUS
10
2.8094386681
20
6.0554645689
11
1.7886053695
21
6.0554645689
0
LINE
5
36D
100
AcDbEntity
8
0
100
AcDbLine
62
7
6
CONTINUOUS
10
-2.9801446296
20
6.2661028953
11
-2.8238946305
21
6.2661028953
0
LINE
5
36E
100
AcDbEntity
8
0
100
AcDbLine
62
7
6
CONTINUOUS
10
-2.5113946156
20
6.4575922342
11
-2.3863946454
21
6.4575922342
0
LINE
5
36F
100
AcDbEntity
8
0
100
AcDbLine
62
7
6
CONTINUOUS
10
-2.3551446305
20
6.6171666832
11
-2.4801446454
21
6.6171666832
0
LINE
5
370
100
AcDbEntity
8
0
100
AcDbLine
62
7
6
CONTINUOUS
10
-2.1676446305
20
6.5852517934
11
-2.3551446305
21
6.6171666832
0
LINE
5
371
100
AcDbEntity
8
0
100
AcDbLine
62
7
6
CONTINUOUS
10
-2.3863946454
20
6.4575922342
11
-2.2301446603
21
6.4256773444
0
LINE
5
372
100
AcDbEntity
8
0
100
AcDbLine
62
7
6
CONTINUOUS
10
-2.0426446603
20
6.5214220138
11
-2.1676446305
21
6.5852517934
0
LINE
5
373
100
AcDbEntity
8
0
100
AcDbLine
62
7
6
CONTINUOUS
10
0.3636053695
20
6.2341879161
11
0.2698553695
21
6.2980177851
0
LINE
5
374
100
AcDbEntity
8
0
100
AcDbLine
62
9
6
CONTINUOUS
10
7.0943475817
20
19.2692696667
11
7.2581369623
21
12.4381292556
0
LINE
5
375
100
AcDbEntity
8
0
100
AcDbLine
62
9
6
CONTINUOUS
10
7.2943399663
20
19.4572081909
11
7.4575476251
21
12.6503295703
0
LINE
5
376
100
AcDbEntity
8
0
100
AcDbLine
62
9
6
CONTINUOUS
10
9.9842377663
20
24.4449978996
11
9.9893283674
21
23.9398164140
0
LINE
5
377
100
AcDbEntity
8
0
100
AcDbLine
62
9
6
CONTINUOUS
10
10.2342335355
20
24.6615042505
11
10.2386053695
21
24.2276518314
0
LINE
5
378
100
AcDbEntity
8
0
100
AcDbLine
62
7
6
CONTINUOUS
10
7.4575476251
20
-11.6961009589
11
7.4575476251
21
-11.0159962038
0
LINE
5
379
100
AcDbEntity
8
0
100
AcDbLine
62
7
6
CONTINUOUS
10
7.4575476251
20
12.6503295703
11
7.4575476251
21
13.3304343254
0
LINE
5
37A
100
AcDbEntity
8
0
100
AcDbLine
62
9
6
CONTINUOUS
10
7.5929729727
20
-22.8106645331
11
7.5929729727
21
-23.6784614828
0
LINE
5
37B
100
AcDbEntity
8
0
100
AcDbLine
62
9
6
CONTINUOUS
10
7.5929729727
20
24.4449978996
11
7.5929729727
21
25.3127948492
0
LINE
5
37C
100
AcDbEntity
8
0
100
AcDbLine
62
9
6
CONTINUOUS
10
7.6552510237
20
22.1531536319
11
7.6552510237
21
21.9091723974
0
LINE
5
37D
100
AcDbEntity
8
0
100
AcDbLine
62
9
6
CONTINUOUS
10
7.6552510237
20
-20.2748390310
11
7.6552510237
21
-20.5188202654
0
LINE
5
37E
100
AcDbEntity
8
0
100
AcDbLine
62
9
6
CONTINUOUS
10
8.1551748713
20
22.4005971814
11
8.1551748713
21
21.9005971814
0
LINE
5
37F
100
AcDbEntity
8
0
100
AcDbLine
62
9
6
CONTINUOUS
10
8.1551748713
20
-20.2662638150
11
8.1551748713
21
-20.7662638150
0
LINE
5
380
100
AcDbEntity
8
0
100
AcDbLine
62
7
6
CONTINUOUS
10
8.3386053695
20
22.2171666832
11
8.3386053695
21
21.7171666832
0
LINE
5
381
100
AcDbEntity
8
0
100
AcDbLine
62
7
6
CONTINUOUS
10
8.3386053695
20
-20.0828333168
11
8.3386053695
21
-20.5828333168
0
LINE
5
382
100
AcDbEntity
8
0
100
AcDbLine
62
7
6
CONTINUOUS
10
9.6007103566
20
-11.6961009589
11
9.6007103566
21
13.3304343254
0
LINE
5
383
100
AcDbEntity
8
0
100
AcDbLine
62
7
6
CONTINUOUS
10
9.7386053695
20
21.0162063334
11
9.7386053695
21
-19.3818729670
0
LINE
5
384
100
AcDbEntity
8
0
100
AcDbLine
62
9
6
CONTINUOUS
10
9.9842377663
20
-22.8106645331
11
9.9842377663
21
-23.6784614828
0
LINE
5
385
100
AcDbEntity
8
0
100
AcDbLine
62
9
6
CONTINUOUS
10
9.9842377663
20
24.4449978996
11
9.9842377663
21
25.3127948492
0
LINE
5
386
100
AcDbEntity
8
0
100
AcDbLine
62
7
6
CONTINUOUS
10
10.2342335355
20
-23.4284657136
11
10.2342335355
21
-23.0271708841
0
LINE
5
387
100
AcDbEntity
8
0
100
AcDbLine
62
7
6
CONTINUOUS
10
10.2342335355
20
24.6615042505
11
10.2342335355
21
25.0627990800
0
LINE
5
388
100
AcDbEntity
8
0
100
AcDbLine
62
7
6
CONTINUOUS
10
10.2386053695
20
-21.7830468071
11
10.2386053695
21
-23.4328375476
0
LINE
5
389
100
AcDbEntity
8
0
100
AcDbLine
62
7
6
CONTINUOUS
10
10.2386053695
20
23.4173801736
11
10.2386053695
21
25.0671709140
0
LINE
5
38A
100
AcDbEntity
8
0
100
AcDbLine
62
9
6
CONTINUOUS
10
9.9893283674
20
-22.3054830476
11
9.9842377663
21
-22.8106645331
0
LINE
5
38B
100
AcDbEntity
8
0
100
AcDbLine
62
9
6
CONTINUOUS
10
10.2386053695
20
-22.5933184650
11
10.2342335355
21
-23.0271708841
0
LINE
5
38C
100
AcDbEntity
8
0
100
AcDbLine
62
9
6
CONTINUOUS
10
7.2581369623
20
-10.8037958891
11
7.0943475817
21
-17.6349363003
0
LINE
5
38D
100
AcDbEntity
8
0
100
AcDbLine
62
9
6
CONTINUOUS
10
7.4575476251
20
-11.0159962038
11
7.2943399663
21
-17.8228748244
0
LINE
5
38E
100
AcDbEntity
8
0
100
AcDbLine
62
7
6
CONTINUOUS
10
7.3886053695
20
-20.0828333168
11
7.4470314045
21
-19.7319653056
0
LINE
5
38F
100
AcDbEntity
8
0
100
AcDbLine
62
9
6
CONTINUOUS
10
-10.0613946305
20
-23.4328375476
11
-10.0570227965
21
-23.4284657136
0
LINE
5
390
100
AcDbEntity
8
0
100
AcDbLine
62
9
6
CONTINUOUS
10
-9.8113988613
20
-23.6828333168
11
-9.8070270273
21
-23.6784614828
0
LINE
5
391
100
AcDbEntity
8
0
100
AcDbLine
62
9
6
CONTINUOUS
10
-10.0613946305
20
25.0671709140
11
-10.0570227965
21
25.0627990800
0
LINE
5
392
100
AcDbEntity
8
0
100
AcDbLine
62
9
6
CONTINUOUS
10
-9.8113988613
20
25.3171666832
11
-9.8070270273
21
25.3127948492
0
LINE
5
393
100
AcDbEntity
8
0
100
AcDbLine
62
7
6
CONTINUOUS
10
7.4470314045
20
21.3662986720
11
7.3886053695
21
21.7171666832
0
LINE
5
394
100
AcDbEntity
8
0
100
AcDbLine
62
7
6
CONTINUOUS
10
11.2551876812
20
21.8398164140
11
11.2386053695
21
22.3882991698
0
LINE
5
395
100
AcDbEntity
8
0
100
AcDbLine
62
7
6
CONTINUOUS
10
11.2303148451
20
-20.2054830476
11
11.2390417129
21
-20.7828333168
0
LINE
5
396
100
AcDbEntity
8
0
100
AcDbLine
62
7
6
CONTINUOUS
10
11.2303148451
20
22.7113657765
11
11.2303148451
21
21.8398164140
0
LINE
5
397
100
AcDbEntity
8
0
100
AcDbLine
62
7
6
CONTINUOUS
10
11.2303148451
20
-20.2054830476
11
11.2303148451
21
-21.0770324100
0
LINE
5
398
100
AcDbEntity
8
0
100
AcDbLine
62
7
6
CONTINUOUS
10
11.2390417129
20
22.7171836063
11
11.2390417129
21
22.4171666832
0
LINE
5
399
100
AcDbEntity
8
0
100
AcDbLine
62
7
6
CONTINUOUS
10
11.2390417129
20
-21.0828502398
11
11.2390417129
21
-20.7828333168
0
LINE
5
39A
100
AcDbEntity
8
0
100
AcDbLine
62
7
6
CONTINUOUS
10
11.2551876812
20
21.8398164140
11
11.2551876812
21
-20.2054830476
0
LINE
5
39B
100
AcDbEntity
8
0
100
AcDbLine
62
7
6
CONTINUOUS
10
11.2303148451
20
21.8398164140
11
11.2390417129
21
22.4171666832
0
LINE
5
39C
100
AcDbEntity
8
0
100
AcDbLine
62
7
6
CONTINUOUS
10
11.2551876812
20
-20.2054830476
11
11.2386053695
21
-20.7539658033
0
LINE
5
39D
100
AcDbEntity
8
0
100
AcDbLine
62
7
6
CONTINUOUS
10
-4.3613946305
20
-21.5828333168
11
-4.3174723834
21
-21.5389110697
0
LINE
5
39E
100
AcDbEntity
8
0
100
AcDbLine
62
7
6
CONTINUOUS
10
-4.3177439836
20
-23.1391826699
11
-4.3613946305
21
-23.1828333168
0
LINE
5
39F
100
AcDbEntity
8
0
100
AcDbLine
62
9
6
CONTINUOUS
10
-11.0618309739
20
-21.0828502398
11
-11.0531041061
21
-21.0770324100
0
LINE
5
3A0
100
AcDbEntity
8
0
100
AcDbLine
62
9
6
CONTINUOUS
10
-10.5618373200
20
-21.5828333168
11
-10.5531104522
21
-21.5770154870
0
LINE
5
3A1
100
AcDbEntity
8
0
100
AcDbLine
62
7
6
CONTINUOUS
10
-7.0809262233
20
12.4381292556
11
-6.5418630377
21
12.4381292556
0
LINE
5
3A2
100
AcDbEntity
8
0
100
AcDbLine
62
7
6
CONTINUOUS
10
7.2581369623
20
12.4381292556
11
6.7190737767
21
12.4381292556
0
LINE
5
3A3
100
AcDbEntity
8
0
100
AcDbLine
62
7
6
CONTINUOUS
10
9.6007103566
20
13.3304343254
11
7.4575476251
21
13.3304343254
0
LINE
5
3A4
100
AcDbEntity
8
0
100
AcDbLine
62
7
6
CONTINUOUS
10
6.5196631140
20
13.3304343254
11
-6.3424523749
21
13.3304343254
0
LINE
5
3A5
100
AcDbEntity
8
0
100
AcDbLine
62
7
6
CONTINUOUS
10
-7.2803368860
20
13.3304343254
11
-9.4234996176
21
13.3304343254
0
LINE
5
3A6
100
AcDbEntity
8
0
100
AcDbLine
62
9
6
CONTINUOUS
10
-11.0531041061
20
22.7113657765
11
-11.0618309739
21
22.7171836063
0
LINE
5
3A7
100
AcDbEntity
8
0
100
AcDbLine
62
9
6
CONTINUOUS
10
-10.5531104522
20
23.2113488534
11
-10.5618373200
21
23.2171666832
0
LINE
5
3A8
100
AcDbEntity
8
0
100
AcDbLine
62
7
6
CONTINUOUS
10
-4.3613946305
20
23.2171666832
11
-4.3174723834
21
23.1732444362
0
LINE
5
3A9
100
AcDbEntity
8
0
100
AcDbLine
62
7
6
CONTINUOUS
10
-4.3177439836
20
24.7735160364
11
-4.3613946305
21
24.8171666832
0
LINE
5
3AA
100
AcDbEntity
8
0
100
AcDbLine
62
7
6
CONTINUOUS
10
7.2943399663
20
-20.2713784824
11
7.3886053695
21
-20.0828333168
0
LINE
5
3AB
100
AcDbEntity
8
0
100
AcDbLine
62
7
6
CONTINUOUS
10
7.2943399663
20
21.9057118489
11
7.3886053695
21
21.7171666832
0
LINE
5
3AC
100
AcDbEntity
8
0
100
AcDbLine
62
7
6
CONTINUOUS
10
8.1551748713
20
-20.2662638150
11
8.3386053695
21
-20.0828333168
0
LINE
5
3AD
100
AcDbEntity
8
0
100
AcDbLine
62
9
6
CONTINUOUS
10
-6.9171368427
20
19.2692696667
11
-6.7056524183
21
19.2692696667
0
LINE
5
3AE
100
AcDbEntity
8
0
100
AcDbLine
62
9
6
CONTINUOUS
10
6.8828631573
20
19.2692696667
11
7.0943475817
21
19.2692696667
0
LINE
5
3AF
100
AcDbEntity
8
0
100
AcDbLine
62
9
6
CONTINUOUS
10
-6.5056600337
20
19.4572081909
11
-7.1171292273
21
19.4572081909
0
LINE
5
3B0
100
AcDbEntity
8
0
100
AcDbLine
62
9
6
CONTINUOUS
10
6.6828707727
20
19.4572081909
11
7.2943399663
21
19.4572081909
0
LINE
5
3B1
100
AcDbEntity
8
0
100
AcDbLine
62
9
6
CONTINUOUS
10
6.5254241199
20
20.3836252530
11
-6.3482133809
21
20.3836252530
0
LINE
5
3B2
100
AcDbEntity
8
0
100
AcDbLine
62
7
6
CONTINUOUS
10
-6.5056448026
20
20.8171666832
11
6.6828555416
21
20.8171666832
0
LINE
5
3B3
100
AcDbEntity
8
0
100
AcDbLine
62
9
6
CONTINUOUS
10
9.3181168443
20
20.9365628900
11
7.4511240185
21
20.9365628900
0
LINE
5
3B4
100
AcDbEntity
8
0
100
AcDbLine
62
9
6
CONTINUOUS
10
-7.2739132795
20
20.9365628900
11
-9.1409061053
21
20.9365628900
0
LINE
5
3B5
100
AcDbEntity
8
0
100
AcDbLine
62
9
6
CONTINUOUS
10
-6.7056524183
20
21.0171666832
11
6.8828631573
21
21.0171666832
0
LINE
5
3B6
100
AcDbEntity
8
0
100
AcDbLine
62
9
6
CONTINUOUS
10
8.9216380620
20
21.3662986720
11
7.4470314045
21
21.3662986720
0
LINE
5
3B7
100
AcDbEntity
8
0
100
AcDbLine
62
9
6
CONTINUOUS
10
-7.2698206655
20
21.3662986720
11
-8.7444273230
21
21.3662986720
0
LINE
5
3B8
100
AcDbEntity
8
0
100
AcDbLine
62
7
6
CONTINUOUS
10
-2.9113946305
20
21.6171666832
11
3.0886053695
21
21.6171666832
0
LINE
5
3B9
100
AcDbEntity
8
0
100
AcDbLine
62
7
6
CONTINUOUS
10
-7.2113946305
20
21.7171666832
11
-8.8612882929
21
21.7171666832
0
LINE
5
3BA
100
AcDbEntity
8
0
100
AcDbLine
62
7
6
CONTINUOUS
10
7.3886053695
20
21.7171666832
11
9.0384990319
21
21.7171666832
0
LINE
5
3BB
100
AcDbEntity
8
0
100
AcDbLine
62
7
6
CONTINUOUS
10
8.1551748713
20
21.9005971814
11
8.3386053695
21
21.7171666832
0
LINE
5
3BC
100
AcDbEntity
8
0
100
AcDbLine
62
7
6
CONTINUOUS
10
9.7386053695
20
-19.3818729670
11
9.0384990319
21
-20.0828333168
0
LINE
5
3BD
100
AcDbEntity
8
0
100
AcDbLine
62
7
6
CONTINUOUS
10
7.3444231993
20
-21.5770154870
11
8.3386053695
21
-20.5828333168
0
LINE
5
3BE
100
AcDbEntity
8
0
100
AcDbLine
62
9
6
CONTINUOUS
10
7.3386053695
20
-23.4328375476
11
7.3429772035
21
-23.4284657136
0
LINE
5
3BF
100
AcDbEntity
8
0
100
AcDbLine
62
9
6
CONTINUOUS
10
7.5886011387
20
-23.6828333168
11
7.5929729727
21
-23.6784614828
0
LINE
5
3C0
100
AcDbEntity
8
0
100
AcDbLine
62
7
6
CONTINUOUS
10
11.2303148451
20
21.8398164140
11
11.2551876812
21
21.8398164140
0
LINE
5
3C1
100
AcDbEntity
8
0
100
AcDbLine
62
7
6
CONTINUOUS
10
-11.0531041061
20
21.8398164140
11
-11.0779769422
21
21.8398164140
0
LINE
5
3C2
100
AcDbEntity
8
0
100
AcDbLine
62
7
6
CONTINUOUS
10
-7.4780402847
20
21.9091723974
11
-6.9171368427
21
21.9091723974
0
LINE
5
3C3
100
AcDbEntity
8
0
100
AcDbLine
62
7
6
CONTINUOUS
10
7.0943475817
20
21.9091723974
11
7.6552510237
21
21.9091723974
0
LINE
5
3C4
100
AcDbEntity
8
0
100
AcDbLine
62
9
6
CONTINUOUS
10
7.6552510237
20
22.1531536319
11
3.0886053695
21
22.1531536319
0
LINE
5
3C5
100
AcDbEntity
8
0
100
AcDbLine
62
9
6
CONTINUOUS
10
-2.9113946305
20
22.1531536319
11
-7.4780402847
21
22.1531536319
0
LINE
5
3C6
100
AcDbEntity
8
0
100
AcDbLine
62
7
6
CONTINUOUS
10
3.0886053695
20
22.5171666832
11
-2.9113946305
21
22.5171666832
0
LINE
5
3C7
100
AcDbEntity
8
0
100
AcDbLine
62
9
6
CONTINUOUS
10
7.4026353440
20
23.1531367087
11
3.0886053695
21
23.1531367087
0
LINE
5
3C8
100
AcDbEntity
8
0
100
AcDbLine
62
9
6
CONTINUOUS
10
-2.9113946305
20
23.1531367087
11
-7.2254246050
21
23.1531367087
0
LINE
5
3C9
100
AcDbEntity
8
0
100
AcDbLine
62
7
6
CONTINUOUS
10
-10.5531104522
20
23.2113488534
11
-7.1672124603
21
23.2113488534
0
LINE
5
3CA
100
AcDbEntity
8
0
100
AcDbLine
62
7
6
CONTINUOUS
10
3.5886053695
20
23.2113488534
11
3.0886053695
21
23.2113488534
0
LINE
5
3CB
100
AcDbEntity
8
0
100
AcDbLine
62
7
6
CONTINUOUS
10
-2.9113946305
20
23.2113488534
11
-3.4113946305
21
23.2113488534
0
LINE
5
3CC
100
AcDbEntity
8
0
100
AcDbLine
62
7
6
CONTINUOUS
10
7.3444231993
20
23.2113488534
11
10.7303211912
21
23.2113488534
0
LINE
5
3CD
100
AcDbEntity
8
0
100
AcDbLine
62
7
6
CONTINUOUS
10
-0.9113946305
20
23.2119306476
11
1.0886053695
21
23.2119306476
0
LINE
5
3CE
100
AcDbEntity
8
0
100
AcDbLine
62
7
6
CONTINUOUS
10
-4.3613946305
20
23.2171666832
11
-10.5618373200
21
23.2171666832
0
LINE
5
3CF
100
AcDbEntity
8
0
100
AcDbLine
62
7
6
CONTINUOUS
10
4.5386053695
20
23.2171666832
11
10.7390480590
21
23.2171666832
0
LINE
5
3D0
100
AcDbEntity
8
0
100
AcDbLine
62
7
6
CONTINUOUS
10
-9.8121176284
20
23.9398164140
11
-7.4106716326
21
23.9398164140
0
LINE
5
3D1
100
AcDbEntity
8
0
100
AcDbLine
62
7
6
CONTINUOUS
10
9.9893283674
20
23.9398164140
11
7.5878823716
21
23.9398164140
0
LINE
5
3D2
100
AcDbEntity
8
0
100
AcDbLine
62
9
6
CONTINUOUS
10
-9.8070270273
20
24.4449978996
11
-7.4157622337
21
24.4449978996
0
LINE
5
3D3
100
AcDbEntity
8
0
100
AcDbLine
62
9
6
CONTINUOUS
10
7.5929729727
20
24.4449978996
11
9.9842377663
21
24.4449978996
0
LINE
5
3D4
100
AcDbEntity
8
0
100
AcDbLine
62
9
6
CONTINUOUS
10
-7.1657664645
20
24.6615042505
11
-10.0570227965
21
24.6615042505
0
LINE
5
3D5
100
AcDbEntity
8
0
100
AcDbLine
62
9
6
CONTINUOUS
10
7.3429772035
20
24.6615042505
11
10.2342335355
21
24.6615042505
0
LINE
5
3D6
100
AcDbEntity
8
0
100
AcDbLine
62
7
6
CONTINUOUS
10
-4.3177439836
20
24.7735160364
11
-3.4113946305
21
24.7735160364
0
LINE
5
3D7
100
AcDbEntity
8
0
100
AcDbLine
62
7
6
CONTINUOUS
10
3.5886053695
20
24.7735160364
11
4.4949547226
21
24.7735160364
0
LINE
5
3D8
100
AcDbEntity
8
0
100
AcDbLine
62
7
6
CONTINUOUS
10
-3.4113946305
20
24.8113488534
11
-1.1113946305
21
24.8113488534
0
LINE
5
3D9
100
AcDbEntity
8
0
100
AcDbLine
62
7
6
CONTINUOUS
10
1.2886053695
20
24.8113488534
11
3.5886053695
21
24.8113488534
0
LINE
5
3DA
100
AcDbEntity
8
0
100
AcDbLine
62
7
6
CONTINUOUS
10
4.5386053695
20
24.8171666832
11
1.2886053695
21
24.8171666832
0
LINE
5
3DB
100
AcDbEntity
8
0
100
AcDbLine
62
7
6
CONTINUOUS
10
-1.1113946305
20
24.8171666832
11
-4.3613946305
21
24.8171666832
0
LINE
5
3DC
100
AcDbEntity
8
0
100
AcDbLine
62
9
6
CONTINUOUS
10
7.3429772035
20
25.0627990800
11
10.2342335355
21
25.0627990800
0
LINE
5
3DD
100
AcDbEntity
8
0
100
AcDbLine
62
9
6
CONTINUOUS
10
-7.1657664645
20
25.0627990800
11
-10.0570227965
21
25.0627990800
0
LINE
5
3DE
100
AcDbEntity
8
0
100
AcDbLine
62
7
6
CONTINUOUS
10
8.3386053695
20
22.2171666832
11
7.3444231993
21
23.2113488534
0
LINE
5
3DF
100
AcDbEntity
8
0
100
AcDbLine
62
9
6
CONTINUOUS
10
7.3386053695
20
25.0671709140
11
7.3429772035
21
25.0627990800
0
LINE
5
3E0
100
AcDbEntity
8
0
100
AcDbLine
62
9
6
CONTINUOUS
10
7.5886011387
20
25.3171666832
11
7.5929729727
21
25.3127948492
0
LINE
5
3E1
100
AcDbEntity
8
0
100
AcDbLine
62
7
6
CONTINUOUS
10
9.7386053695
20
21.0162063334
11
9.0384990319
21
21.7171666832
0
LINE
5
3E2
100
AcDbEntity
8
0
100
AcDbLine
62
7
6
CONTINUOUS
10
9.9842377663
20
25.3127948492
11
7.5929729727
21
25.3127948492
0
LINE
5
3E3
100
AcDbEntity
8
0
100
AcDbLine
62
7
6
CONTINUOUS
10
-7.4157622337
20
25.3127948492
11
-9.8070270273
21
25.3127948492
0
LINE
5
3E4
100
AcDbEntity
8
0
100
AcDbLine
62
7
6
CONTINUOUS
10
-9.8113988613
20
25.3171666832
11
-7.4113903997
21
25.3171666832
0
LINE
5
3E5
100
AcDbEntity
8
0
100
AcDbLine
62
7
6
CONTINUOUS
10
7.5886011387
20
25.3171666832
11
9.9886096003
21
25.3171666832
0
CIRCLE
5
3E6
100
AcDbEntity
8
0
100
AcDbCircle
62
7
6
CONTINUOUS
10
-2.4113946305
20
0.8171666832
40
0.7500000000
0
CIRCLE
5
3E7
100
AcDbEntity
8
0
100
AcDbCircle
62
7
6
CONTINUOUS
10
2.5886053695
20
0.8171666832
40
0.7500000000
0
ARC
5
3E8
100
AcDbEntity
8
0
100
AcDbCircle
62
7
6
CONTINUOUS
10
2.0886053695
20
-3.5828333168
40
0.5000000000
100
AcDbArc
50
270.0000000000
51
360.0000000000
0
ARC
5
3E9
100
AcDbEntity
8
0
100
AcDbCircle
62
7
6
CONTINUOUS
10
-1.9113946305
20
-3.5828333168
40
0.5000000000
100
AcDbArc
50
180.0000000000
51
270.0000000000
0
ARC
5
3EA
100
AcDbEntity
8
0
100
AcDbCircle
62
7
6
CONTINUOUS
10
0.9886053695
20
2.4171666832
40
0.5000000000
100
AcDbArc
50
0.0000000000
51
90.0000000000
0
ARC
5
3EB
100
AcDbEntity
8
0
100
AcDbCircle
62
7
6
CONTINUOUS
10
-0.8113946305
20
2.4171666832
40
0.5000000000
100
AcDbArc
50
90.0000000000
51
180.0000000000
0
ARC
5
3EC
100
AcDbEntity
8
0
100
AcDbCircle
62
7
6
CONTINUOUS
10
2.0886053695
20
-1.6828333168
40
0.5000000000
100
AcDbArc
50
0.0000000000
51
90.0000000000
0
ARC
5
3ED
100
AcDbEntity
8
0
100
AcDbCircle
62
7
6
CONTINUOUS
10
-1.9113946305
20
-1.6828333168
40
0.5000000000
100
AcDbArc
50
90.0000000000
51
180.0000000000
0
ARC
5
3EE
100
AcDbEntity
8
0
100
AcDbCircle
62
7
6
CONTINUOUS
10
0.0886053695
20
2.3171666832
40
1.7000000000
100
AcDbArc
50
21.0545428199
51
158.9454571801
0
ARC
5
3EF
100
AcDbEntity
8
0
100
AcDbCircle
62
7
6
CONTINUOUS
10
-3.9113946305
20
-22.3328333168
40
0.5000000000
100
AcDbArc
50
144.3637748935
51
215.6362251065
0
ARC
5
3F0
100
AcDbEntity
8
0
100
AcDbCircle
62
7
6
CONTINUOUS
10
4.0886053695
20
-22.3328333168
40
0.5000000000
100
AcDbArc
50
324.3637748935
51
35.6362251065
0
ARC
5
3F1
100
AcDbEntity
8
0
100
AcDbCircle
62
7
6
CONTINUOUS
10
4.0886053695
20
23.9671666832
40
0.5000000000
100
AcDbArc
50
324.3637748935
51
35.6362251065
0
ARC
5
3F2
100
AcDbEntity
8
0
100
AcDbCircle
62
7
6
CONTINUOUS
10
-3.9113946305
20
23.9671666832
40
0.5000000000
100
AcDbArc
50
144.3637748935
51
215.6362251065
0
ARC
5
3F3
100
AcDbEntity
8
0
100
AcDbCircle
62
9
6
CONTINUOUS
10
0.9886053695
20
2.4171666832
40
0.1999958329
100
AcDbArc
50
0.0000000000
51
90.0000000000
0
ARC
5
3F4
100
AcDbEntity
8
0
100
AcDbCircle
62
9
6
CONTINUOUS
10
-0.8113946305
20
2.4171666832
40
0.1999958329
100
AcDbArc
50
90.0000000000
51
180.0000000000
0
ARC
5
3F5
100
AcDbEntity
8
0
100
AcDbCircle
62
9
6
CONTINUOUS
10
-1.9113946305
20
-1.6828333168
40
0.1999958329
100
AcDbArc
50
90.0000000000
51
180.0000000000
0
ARC
5
3F6
100
AcDbEntity
8
0
100
AcDbCircle
62
9
6
CONTINUOUS
10
-1.9113946305
20
-3.5828333168
40
0.1999958329
100
AcDbArc
50
180.0000000000
51
270.0000000000
0
ARC
5
3F7
100
AcDbEntity
8
0
100
AcDbCircle
62
9
6
CONTINUOUS
10
2.0886053695
20
-3.5828333168
40
0.1999958329
100
AcDbArc
50
270.0000000000
51
360.0000000000
0
ARC
5
3F8
100
AcDbEntity
8
0
100
AcDbCircle
62
9
6
CONTINUOUS
10
2.0886053695
20
-1.6828333168
40
0.1999958329
100
AcDbArc
50
0.0000000000
51
90.0000000000
0
ARC
5
3F9
100
AcDbEntity
8
0
100
AcDbCircle
62
9
6
CONTINUOUS
10
0.0886053695
20
2.3171666832
40
1.3999956289
100
AcDbArc
50
21.0545428223
51
158.9454571777
0
ARC
5
3FA
100
AcDbEntity
8
0
100
AcDbCircle
62
9
6
CONTINUOUS
10
0.0886053695
20
2.3171666832
40
2.2000000000
100
AcDbArc
50
29.7420432456
51
150.2596880317
0
SPLINE
5
3FB
100
AcDbEntity
8
0
100
AcDbSpline
62
7
6
CONTINUOUS
70
0
71
3
72
11
73
7
74
5
42
0.0000001000
43
0.0000001000
44
0.0000000001
12
-0.3597761825
22
-0.0000589724
32
0.0000000000
13
-0.1292737118
23
0.3357487341
33
0.0000000000
40
0.0000000000
40
0.0000000000
40
0.0000000000
40
0.0000000000
40
0.2516103633
40
0.5007714793
40
0.7496128530
40
1.0000000000
40
1.0000000000
40
1.0000000000
40
1.0000000000
10
1.9551534352
20
2.7355426174
30
0.0000000000
10
1.9249789632
20
2.7355376713
30
0.0000000000
10
1.8645305729
20
2.7447579601
30
0.0000000000
10
1.7825432529
20
2.7847106312
30
0.0000000000
10
1.7160508161
20
2.8469183752
30
0.0000000000
10
1.6859009183
20
2.8998803636
30
0.0000000000
10
1.6751114264
20
2.9279027528
30
0.0000000000
11
1.9551534352
21
2.7355426174
31
0.0000000000
11
1.8656682336
21
2.7492133071
31
0.0000000000
11
1.7850670060
21
2.7884455980
31
0.0000000000
11
1.7197175045
21
2.8496384270
31
0.0000000000
11
1.6751114264
21
2.9279027528
31
0.0000000000
0
SPLINE
5
3FC
100
AcDbEntity
8
0
100
AcDbSpline
62
7
6
CONTINUOUS
70
0
71
3
72
11
73
7
74
5
42
0.0000001000
43
0.0000001000
44
0.0000000001
12
-0.1292738051
22
-0.3357486981
32
0.0000000000
13
-0.3597761825
23
0.0000590487
33
0.0000000000
40
0.0000000000
40
0.0000000000
40
0.0000000000
40
0.0000000000
40
0.2503873495
40
0.4992285814
40
0.7483895236
40
1.0000000000
40
1.0000000000
40
1.0000000000
40
1.0000000000
10
-1.4979006874
20
2.9279027528
30
0.0000000000
10
-1.5086901958
20
2.8998803440
30
0.0000000000
10
-1.5388400934
20
2.8469183468
30
0.0000000000
10
-1.6053325336
20
2.7847106252
30
0.0000000000
10
-1.6873198268
20
2.7447579662
30
0.0000000000
10
-1.7477682106
20
2.7355376649
30
0.0000000000
10
-1.7779426962
20
2.7355426174
30
0.0000000000
11
-1.4979006874
21
2.9279027528
31
0.0000000000
11
-1.5425068111
21
2.8496383692
31
0.0000000000
11
-1.6078562852
21
2.7884455855
31
0.0000000000
11
-1.6884574553
21
2.7492133194
31
0.0000000000
11
-1.7779426962
21
2.7355426174
31
0.0000000000
0
SPLINE
5
3FD
100
AcDbEntity
8
0
100
AcDbSpline
62
7
6
CONTINUOUS
70
0
71
3
72
11
73
7
74
5
42
0.0000001000
43
0.0000001000
44
0.0000000001
12
-0.3122705094
22
0.0000000000
32
0.0000000000
13
-0.0000000000
23
0.3122705094
33
0.0000000000
40
0.0000000000
40
0.0000000000
40
0.0000000000
40
0.0000000000
40
0.2487223811
40
0.4987620217
40
0.7494730136
40
1.0000000000
40
1.0000000000
40
1.0000000000
40
1.0000000000
10
-6.9614521426
20
23.2171666832
30
0.0000000000
10
-6.9873416975
20
23.2171666832
30
0.0000000000
10
-7.0398210909
20
23.2275162220
30
0.0000000000
10
-7.1063294932
20
23.2719468996
30
0.0000000000
10
-7.1509606034
20
23.3385572829
30
0.0000000000
10
-7.1613946305
20
23.3913027770
30
0.0000000000
10
-7.1613946305
20
23.4173801736
30
0.0000000000
11
-6.9614521426
21
23.2171666832
31
0.0000000000
11
-7.0376385439
21
23.2322681308
31
0.0000000000
11
-7.1026075932
21
23.2755752892
31
0.0000000000
11
-7.1461322357
21
23.3406512038
31
0.0000000000
11
-7.1613946305
21
23.4173801736
31
0.0000000000
0
SPLINE
5
3FE
100
AcDbEntity
8
0
100
AcDbSpline
62
7
6
CONTINUOUS
70
0
71
3
72
11
73
7
74
5
42
0.0000001000
43
0.0000001000
44
0.0000000001
12
0.0000000000
22
-0.3122705094
32
0.0000000000
13
-0.3122705094
23
0.0000000000
33
0.0000000000
40
0.0000000000
40
0.0000000000
40
0.0000000000
40
0.0000000000
40
0.2505269864
40
0.5012379783
40
0.7512776189
40
1.0000000000
40
1.0000000000
40
1.0000000000
40
1.0000000000
10
-10.0613946305
20
23.4173801736
30
0.0000000000
10
-10.0613946305
20
23.3913027770
30
0.0000000000
10
-10.0718286576
20
23.3385572829
30
0.0000000000
10
-10.1164597678
20
23.2719468996
30
0.0000000000
10
-10.1829681701
20
23.2275162220
30
0.0000000000
10
-10.2354475635
20
23.2171666832
30
0.0000000000
10
-10.2613371184
20
23.2171666832
30
0.0000000000
11
-10.0613946305
21
23.4173801736
31
0.0000000000
11
-10.0766570253
21
23.3406512038
31
0.0000000000
11
-10.1201816678
21
23.2755752892
31
0.0000000000
11
-10.1851507171
21
23.2322681308
31
0.0000000000
11
-10.2613371184
21
23.2171666832
31
0.0000000000
0
SPLINE
5
3FF
100
AcDbEntity
8
0
100
AcDbSpline
62
7
6
CONTINUOUS
70
0
71
3
72
11
73
7
74
5
42
0.0000001000
43
0.0000001000
44
0.0000000001
12
-0.3122705094
22
0.0000000000
32
0.0000000000
13
0.0000000000
23
0.3122705094
33
0.0000000000
40
0.0000000000
40
0.0000000000
40
0.0000000000
40
0.0000000000
40
0.2487223811
40
0.4987620217
40
0.7494730136
40
1.0000000000
40
1.0000000000
40
1.0000000000
40
1.0000000000
10
10.4385478574
20
23.2171666832
30
0.0000000000
10
10.4126583025
20
23.2171666832
30
0.0000000000
10
10.3601789091
20
23.2275162220
30
0.0000000000
10
10.2936705068
20
23.2719468996
30
0.0000000000
10
10.2490393966
20
23.3385572829
30
0.0000000000
10
10.2386053695
20
23.3913027770
30
0.0000000000
10
10.2386053695
20
23.4173801736
30
0.0000000000
11
10.4385478574
21
23.2171666832
31
0.0000000000
11
10.3623614561
21
23.2322681308
31
0.0000000000
11
10.2973924068
21
23.2755752892
31
0.0000000000
11
10.2538677643
21
23.3406512038
31
0.0000000000
11
10.2386053695
21
23.4173801736
31
0.0000000000
0
SPLINE
5
400
100
AcDbEntity
8
0
100
AcDbSpline
62
7
6
CONTINUOUS
70
0
71
3
72
11
73
7
74
5
42
0.0000001000
43
0.0000001000
44
0.0000000001
12
0.0000000000
22
-0.3122705094
32
0.0000000000
13
-0.3122705094
23
0.0000000000
33
0.0000000000
40
0.0000000000
40
0.0000000000
40
0.0000000000
40
0.0000000000
40
0.2505269864
40
0.5012379783
40
0.7512776189
40
1.0000000000
40
1.0000000000
40
1.0000000000
40
1.0000000000
10
7.3386053695
20
23.4173801736
30
0.0000000000
10
7.3386053695
20
23.3913027770
30
0.0000000000
10
7.3281713424
20
23.3385572829
30
0.0000000000
10
7.2835402322
20
23.2719468996
30
0.0000000000
10
7.2170318299
20
23.2275162220
30
0.0000000000
10
7.1645524365
20
23.2171666832
30
0.0000000000
10
7.1386628816
20
23.2171666832
30
0.0000000000
11
7.3386053695
21
23.4173801736
31
0.0000000000
11
7.3233429747
21
23.3406512038
31
0.0000000000
11
7.2798183322
21
23.2755752892
31
0.0000000000
11
7.2148492829
21
23.2322681308
31
0.0000000000
11
7.1386628816
21
23.2171666832
31
0.0000000000
0
SPLINE
5
401
100
AcDbEntity
8
0
100
AcDbSpline
62
7
6
CONTINUOUS
70
0
71
3
72
11
73
7
74
5
42
0.0000001000
43
0.0000001000
44
0.0000000001
12
0.3122705094
22
0.0000000000
32
0.0000000000
13
0.0000000000
23
-0.3122705094
33
0.0000000000
40
0.0000000000
40
0.0000000000
40
0.0000000000
40
0.0000000000
40
0.2487223811
40
0.4987620217
40
0.7494730136
40
1.0000000000
40
1.0000000000
40
1.0000000000
40
1.0000000000
10
-10.2613371184
20
-21.5828333168
30
0.0000000000
10
-10.2354475635
20
-21.5828333168
30
0.0000000000
10
-10.1829681701
20
-21.5931828555
30
0.0000000000
10
-10.1164597678
20
-21.6376135331
30
0.0000000000
10
-10.0718286576
20
-21.7042239165
30
0.0000000000
10
-10.0613946305
20
-21.7569694105
30
0.0000000000
10
-10.0613946305
20
-21.7830468071
30
0.0000000000
11
-10.2613371184
21
-21.5828333168
31
0.0000000000
11
-10.1851507171
21
-21.5979347644
31
0.0000000000
11
-10.1201816678
21
-21.6412419228
31
0.0000000000
11
-10.0766570253
21
-21.7063178373
31
0.0000000000
11
-10.0613946305
21
-21.7830468071
31
0.0000000000
0
SPLINE
5
402
100
AcDbEntity
8
0
100
AcDbSpline
62
7
6
CONTINUOUS
70
0
71
3
72
11
73
7
74
5
42
0.0000001000
43
0.0000001000
44
0.0000000001
12
0.0000000000
22
0.3122705094
32
0.0000000000
13
0.3122705094
23
0.0000000000
33
0.0000000000
40
0.0000000000
40
0.0000000000
40
0.0000000000
40
0.0000000000
40
0.2505269864
40
0.5012379783
40
0.7512776189
40
1.0000000000
40
1.0000000000
40
1.0000000000
40
1.0000000000
10
-7.1613946305
20
-21.7830468071
30
0.0000000000
10
-7.1613946305
20
-21.7569694105
30
0.0000000000
10
-7.1509606034
20
-21.7042239165
30
0.0000000000
10
-7.1063294932
20
-21.6376135331
30
0.0000000000
10
-7.0398210909
20
-21.5931828555
30
0.0000000000
10
-6.9873416975
20
-21.5828333168
30
0.0000000000
10
-6.9614521426
20
-21.5828333168
30
0.0000000000
11
-7.1613946305
21
-21.7830468071
31
0.0000000000
11
-7.1461322357
21
-21.7063178373
31
0.0000000000
11
-7.1026075932
21
-21.6412419228
31
0.0000000000
11
-7.0376385439
21
-21.5979347644
31
0.0000000000
11
-6.9614521426
21
-21.5828333168
31
0.0000000000
0
SPLINE
5
403
100
AcDbEntity
8
0
100
AcDbSpline
62
7
6
CONTINUOUS
70
0
71
3
72
11
73
7
74
5
42
0.0000001000
43
0.0000001000
44
0.0000000001
12
0.3122705094
22
0.0000000000
32
0.0000000000
13
0.0000000000
23
-0.3122705094
33
0.0000000000
40
0.0000000000
40
0.0000000000
40
0.0000000000
40
0.0000000000
40
0.2487223811
40
0.4987620217
40
0.7494730136
40
1.0000000000
40
1.0000000000
40
1.0000000000
40
1.0000000000
10
7.1386628816
20
-21.5828333168
30
0.0000000000
10
7.1645524365
20
-21.5828333168
30
0.0000000000
10
7.2170318299
20
-21.5931828555
30
0.0000000000
10
7.2835402322
20
-21.6376135331
30
0.0000000000
10
7.3281713424
20
-21.7042239165
30
0.0000000000
10
7.3386053695
20
-21.7569694105
30
0.0000000000
10
7.3386053695
20
-21.7830468071
30
0.0000000000
11
7.1386628816
21
-21.5828333168
31
0.0000000000
11
7.2148492829
21
-21.5979347644
31
0.0000000000
11
7.2798183322
21
-21.6412419228
31
0.0000000000
11
7.3233429747
21
-21.7063178373
31
0.0000000000
11
7.3386053695
21
-21.7830468071
31
0.0000000000
0
SPLINE
5
404
100
AcDbEntity
8
0
100
AcDbSpline
62
7
6
CONTINUOUS
70
0
71
3
72
11
73
7
74
5
42
0.0000001000
43
0.0000001000
44
0.0000000001
12
0.0000000000
22
0.3122705094
32
0.0000000000
13
0.3122705094
23
-0.0000000000
33
0.0000000000
40
0.0000000000
40
0.0000000000
40
0.0000000000
40
0.0000000000
40
0.2505269864
40
0.5012379783
40
0.7512776189
40
1.0000000000
40
1.0000000000
40
1.0000000000
40
1.0000000000
10
10.2386053695
20
-21.7830468071
30
0.0000000000
10
10.2386053695
20
-21.7569694105
30
0.0000000000
10
10.2490393966
20
-21.7042239165
30
0.0000000000
10
10.2936705068
20
-21.6376135331
30
0.0000000000
10
10.3601789091
20
-21.5931828555
30
0.0000000000
10
10.4126583025
20
-21.5828333168
30
0.0000000000
10
10.4385478574
20
-21.5828333168
30
0.0000000000
11
10.2386053695
21
-21.7830468071
31
0.0000000000
11
10.2538677643
21
-21.7063178373
31
0.0000000000
11
10.2973924068
21
-21.6412419228
31
0.0000000000
11
10.3623614561
21
-21.5979347644
31
0.0000000000
11
10.4385478574
21
-21.5828333168
31
0.0000000000
0
SPLINE
5
405
100
AcDbEntity
8
0
100
AcDbSpline
62
7
6
CONTINUOUS
70
0
71
3
72
18
73
14
74
12
42
0.0000001000
43
0.0000001000
44
0.0000000001
12
0.0000132796
22
-0.3923546691
32
0.0000000000
13
0.3923546691
23
-0.0000132796
33
0.0000000000
40
0.0000000000
40
0.0000000000
40
0.0000000000
40
0.0000000000
40
0.0909209466
40
0.1818426652
40
0.2727646341
40
0.3636866866
40
0.4546085102
40
0.5455298998
40
0.6364502323
40
0.7273711591
40
0.8182867494
40
0.9092020002
40
1.0000000000
40
1.0000000000
40
1.0000000000
40
1.0000000000
10
-10.0570227965
20
-23.4284657136
30
0.0000000000
10
-10.0570223940
20
-23.4403567995
30
0.0000000000
10
-10.0553189990
20
-23.4641739463
30
0.0000000000
10
-10.0477082007
20
-23.4991445088
30
0.0000000000
10
-10.0351966550
20
-23.5326834068
30
0.0000000000
10
-10.0180391826
20
-23.5640981314
30
0.0000000000
10
-9.9965851982
20
-23.5927515513
30
0.0000000000
10
-9.9712717163
20
-23.6180595208
30
0.0000000000
10
-9.9426139298
20
-23.6395070901
30
0.0000000000
10
-9.9111965592
20
-23.6566572557
30
0.0000000000
10
-9.8776567984
20
-23.6691611567
30
0.0000000000
10
-9.8427021095
20
-23.6767612218
30
0.0000000000
10
-9.8189020337
20
-23.6784610808
30
0.0000000000
10
-9.8070270273
20
-23.6784614828
30
0.0000000000
11
-10.0570227965
21
-23.4284657136
31
0.0000000000
11
-10.0544763987
21
-23.4640479731
31
0.0000000000
11
-10.0468914245
21
-23.4989058432
31
0.0000000000
11
-10.0344223387
21
-23.5323293655
31
0.0000000000
11
-10.0173230735
21
-23.5636379493
31
0.0000000000
11
-9.9959418859
21
-23.5921940467
31
0.0000000000
11
-9.9707142139
21
-23.6174162254
31
0.0000000000
11
-9.9421539545
21
-23.6387908769
31
0.0000000000
11
-9.9108420906
21
-23.6558832131
31
0.0000000000
11
-9.8774183124
21
-23.6683444508
31
0.0000000000
11
-9.8425614169
21
-23.6759219653
31
0.0000000000
11
-9.8070270273
21
-23.6784614828
31
0.0000000000
0
SPLINE
5
406
100
AcDbEntity
8
0
100
AcDbSpline
62
7
6
CONTINUOUS
70
0
71
3
72
9
73
5
74
3
42
0.0000001000
43
0.0000001000
44
0.0000000001
12
0.0000000000
22
-0.0475573588
32
0.0000000000
13
0.0090083279
23
-0.0467385388
33
0.0000000000
40
0.0000000000
40
0.0000000000
40
0.0000000000
40
0.0000000000
40
0.7500208510
40
1.0000000000
40
1.0000000000
40
1.0000000000
40
1.0000000000
10
-10.0613946305
20
-23.4328375476
30
0.0000000000
10
-10.0613946305
20
-23.4447272178
30
0.0000000000
10
-10.0602599173
20
-23.4606029494
30
0.0000000000
10
-10.0576276719
20
-23.4762550590
30
0.0000000000
10
-10.0568770405
20
-23.4801496124
30
0.0000000000
11
-10.0613946305
21
-23.4328375476
31
0.0000000000
11
-10.0588501046
21
-23.4684156829
31
0.0000000000
11
-10.0568770405
21
-23.4801496124
31
0.0000000000
0
SPLINE
5
407
100
AcDbEntity
8
0
100
AcDbSpline
62
7
6
CONTINUOUS
70
0
71
3
72
10
73
6
74
4
42
0.0000001000
43
0.0000001000
44
0.0000000001
12
0.0157652643
22
-0.0817960248
32
0.0000000000
13
0.0416482642
23
-0.0721402392
33
0.0000000000
40
0.0000000000
40
0.0000000000
40
0.0000000000
40
0.0000000000
40
0.2857257878
40
0.7142907385
40
1.0000000000
40
1.0000000000
40
1.0000000000
40
1.0000000000
10
-10.0568770405
20
-23.4801496124
30
0.0000000000
10
-10.0553755263
20
-23.4879400236
30
0.0000000000
10
-10.0506953369
20
-23.5072338734
30
0.0000000000
10
-10.0409672923
20
-23.5333174623
30
0.0000000000
10
-10.0318682966
20
-23.5509652761
30
0.0000000000
10
-10.0279018649
20
-23.5578356543
30
0.0000000000
11
-10.0568770405
21
-23.4801496124
31
0.0000000000
11
-10.0512682722
21
-23.5032695958
31
0.0000000000
11
-10.0388034027
21
-23.5366897631
31
0.0000000000
11
-10.0279018649
21
-23.5578356543
31
0.0000000000
0
SPLINE
5
408
100
AcDbEntity
8
0
100
AcDbSpline
62
7
6
CONTINUOUS
70
0
71
3
72
12
73
8
74
6
42
0.0000001000
43
0.0000001000
44
0.0000000001
12
0.0654463912
22
-0.1133617068
32
0.0000000000
13
0.1133617068
23
-0.0654463912
33
0.0000000000
40
0.0000000000
40
0.0000000000
40
0.0000000000
40
0.0000000000
40
0.0909094935
40
0.3636364896
40
0.6363635104
40
0.9090905065
40
1.0000000000
40
1.0000000000
40
1.0000000000
40
1.0000000000
10
-10.0279018649
20
-23.5578356543
30
0.0000000000
10
-10.0259186322
20
-23.5612708727
30
0.0000000000
10
-10.0176588906
20
-23.5748229511
30
0.0000000000
10
-10.0009768049
20
-23.5971078148
30
0.0000000000
10
-9.9756691285
20
-23.6224154912
30
0.0000000000
10
-9.9533842648
20
-23.6390975769
30
0.0000000000
10
-9.9398321865
20
-23.6473573185
30
0.0000000000
10
-9.9363969680
20
-23.6493405512
30
0.0000000000
11
-10.0279018649
21
-23.5578356543
31
0.0000000000
11
-10.0217091886
21
-23.5679958227
31
0.0000000000
11
-10.0003335894
21
-23.5965504358
31
0.0000000000
11
-9.9751117496
21
-23.6217722756
31
0.0000000000
11
-9.9465571364
21
-23.6431478749
31
0.0000000000
11
-9.9363969680
21
-23.6493405512
31
0.0000000000
0
SPLINE
5
409
100
AcDbEntity
8
0
100
AcDbSpline
62
7
6
CONTINUOUS
70
0
71
3
72
11
73
7
74
5
42
0.0000001000
43
0.0000001000
44
0.0000000001
12
0.1133614279
22
-0.0654462302
32
0.0000000000
13
0.1307863814
23
-0.0000000000
33
0.0000000000
40
0.0000000000
40
0.0000000000
40
0.0000000000
40
0.0000000000
40
0.1818178798
40
0.4545453732
40
0.7272727455
40
1.0000000000
40
1.0000000000
40
1.0000000000
40
1.0000000000
10
-9.9363969680
20
-23.6493405512
30
0.0000000000
10
-9.9295265899
20
-23.6533069828
30
0.0000000000
10
-9.9118787760
20
-23.6624059786
30
0.0000000000
10
-9.8820694341
20
-23.6735235670
30
0.0000000000
10
-9.8471027962
20
-23.6811311992
30
0.0000000000
10
-9.8232885315
20
-23.6828333168
30
0.0000000000
10
-9.8113988613
20
-23.6828333168
30
0.0000000000
11
-9.9363969680
21
-23.6493405512
31
0.0000000000
11
-9.9152510768
21
-23.6602420890
31
0.0000000000
11
-9.8818309095
21
-23.6727069585
31
0.0000000000
11
-9.8469769966
21
-23.6802887909
31
0.0000000000
11
-9.8113988613
21
-23.6828333168
31
0.0000000000
0
SPLINE
5
40A
100
AcDbEntity
8
0
100
AcDbSpline
62
7
6
CONTINUOUS
70
0
71
3
72
18
73
14
74
12
42
0.0000001000
43
0.0000001000
44
0.0000000001
12
0.3923546692
22
0.0000132796
32
0.0000000000
13
0.0000132796
23
0.3923546692
33
0.0000000000
40
0.0000000000
40
0.0000000000
40
0.0000000000
40
0.0000000000
40
0.0909083271
40
0.1818170744
40
0.2727261901
40
0.3636355924
40
0.4545451767
40
0.5454548233
40
0.6363644076
40
0.7272738099
40
0.8181829256
40
0.9090916729
40
1.0000000000
40
1.0000000000
40
1.0000000000
40
1.0000000000
10
-7.4157622337
20
-23.6784614828
30
0.0000000000
10
-7.4038727982
20
-23.6784610804
30
0.0000000000
10
-7.3800590128
20
-23.6767581629
30
0.0000000000
10
-7.3450931828
20
-23.6691494960
30
0.0000000000
10
-7.3115584181
20
-23.6566414164
30
0.0000000000
10
-7.2801468617
20
-23.6394885469
30
0.0000000000
10
-7.2514953853
20
-23.6180400425
30
0.0000000000
10
-7.2261879048
20
-23.5927325619
30
0.0000000000
10
-7.2047394004
20
-23.5640810855
30
0.0000000000
10
-7.1875865309
20
-23.5326695292
30
0.0000000000
10
-7.1750784513
20
-23.4991347644
30
0.0000000000
10
-7.1674697844
20
-23.4641689345
30
0.0000000000
10
-7.1657668669
20
-23.4403551491
30
0.0000000000
10
-7.1657664645
20
-23.4284657136
30
0.0000000000
11
-7.4157622337
21
-23.6784614828
31
0.0000000000
11
-7.3801848876
21
-23.6759157916
31
0.0000000000
11
-7.3453317625
21
-23.6683329472
31
0.0000000000
11
-7.3119123370
21
-23.6558673077
31
0.0000000000
11
-7.2806069050
21
-23.6387726266
31
0.0000000000
11
-7.2520527274
21
-23.6173968874
31
0.0000000000
11
-7.2268310598
21
-23.5921752199
31
0.0000000000
11
-7.2054553207
21
-23.5636210422
31
0.0000000000
11
-7.1883606396
21
-23.5323156102
31
0.0000000000
11
-7.1758950001
21
-23.4988961847
31
0.0000000000
11
-7.1683121556
21
-23.4640430597
31
0.0000000000
11
-7.1657664645
21
-23.4284657136
31
0.0000000000
0
SPLINE
5
40B
100
AcDbEntity
8
0
100
AcDbSpline
62
7
6
CONTINUOUS
70
0
71
3
72
9
73
5
74
3
42
0.0000001000
43
0.0000001000
44
0.0000000001
12
0.0475573588
22
0.0000000000
32
0.0000000000
13
0.0467385388
23
0.0090083279
33
0.0000000000
40
0.0000000000
40
0.0000000000
40
0.0000000000
40
0.0000000000
40
0.7500208510
40
1.0000000000
40
1.0000000000
40
1.0000000000
40
1.0000000000
10
-7.4113903997
20
-23.6828333168
30
0.0000000000
10
-7.3995007295
20
-23.6828333168
30
0.0000000000
10
-7.3836249978
20
-23.6816986035
30
0.0000000000
10
-7.3679728883
20
-23.6790663581
30
0.0000000000
10
-7.3640783349
20
-23.6783157268
30
0.0000000000
11
-7.4113903997
21
-23.6828333168
31
0.0000000000
11
-7.3758122644
21
-23.6802887909
31
0.0000000000
11
-7.3640783349
21
-23.6783157268
31
0.0000000000
0
SPLINE
5
40C
100
AcDbEntity
8
0
100
AcDbSpline
62
7
6
CONTINUOUS
70
0
71
3
72
10
73
6
74
4
42
0.0000001000
43
0.0000001000
44
0.0000000001
12
0.0817960248
22
0.0157652643
32
0.0000000000
13
0.0721402392
23
0.0416482642
33
0.0000000000
40
0.0000000000
40
0.0000000000
40
0.0000000000
40
0.0000000000
40
0.2857257878
40
0.7142907385
40
1.0000000000
40
1.0000000000
40
1.0000000000
40
1.0000000000
10
-7.3640783349
20
-23.6783157268
30
0.0000000000
10
-7.3562879237
20
-23.6768142126
30
0.0000000000
10
-7.3369940739
20
-23.6721340231
30
0.0000000000
10
-7.3109104850
20
-23.6624059786
30
0.0000000000
10
-7.2932626711
20
-23.6533069828
30
0.0000000000
10
-7.2863922930
20
-23.6493405512
30
0.0000000000
11
-7.3640783349
21
-23.6783157268
31
0.0000000000
11
-7.3409583515
21
-23.6727069585
31
0.0000000000
11
-7.3075381842
21
-23.6602420890
31
0.0000000000
11
-7.2863922930
21
-23.6493405512
31
0.0000000000
0
SPLINE
5
40D
100
AcDbEntity
8
0
100
AcDbSpline
62
7
6
CONTINUOUS
70
0
71
3
72
12
73
8
74
6
42
0.0000001000
43
0.0000001000
44
0.0000000001
12
0.1133617068
22
0.0654463912
32
0.0000000000
13
0.0654463912
23
0.1133617068
33
0.0000000000
40
0.0000000000
40
0.0000000000
40
0.0000000000
40
0.0000000000
40
0.0909094935
40
0.3636364896
40
0.6363635104
40
0.9090905065
40
1.0000000000
40
1.0000000000
40
1.0000000000
40
1.0000000000
10
-7.2863922930
20
-23.6493405512
30
0.0000000000
10
-7.2829570745
20
-23.6473573185
30
0.0000000000
10
-7.2694049962
20
-23.6390975769
30
0.0000000000
10
-7.2471201325
20
-23.6224154912
30
0.0000000000
10
-7.2218124561
20
-23.5971078148
30
0.0000000000
10
-7.2051303704
20
-23.5748229511
30
0.0000000000
10
-7.1968706288
20
-23.5612708727
30
0.0000000000
10
-7.1948873960
20
-23.5578356543
30
0.0000000000
11
-7.2863922930
21
-23.6493405512
31
0.0000000000
11
-7.2762321246
21
-23.6431478749
31
0.0000000000
11
-7.2476775114
21
-23.6217722756
31
0.0000000000
11
-7.2224556716
21
-23.5965504358
31
0.0000000000
11
-7.2010800724
21
-23.5679958227
31
0.0000000000
11
-7.1948873960
21
-23.5578356543
31
0.0000000000
0
SPLINE
5
40E
100
AcDbEntity
8
0
100
AcDbSpline
62
7
6
CONTINUOUS
70
0
71
3
72
11
73
7
74
5
42
0.0000001000
43
0.0000001000
44
0.0000000001
12
0.0654462302
22
0.1133614279
32
0.0000000000
13
-0.0000000000
23
0.1307863814
33
0.0000000000
40
0.0000000000
40
0.0000000000
40
0.0000000000
40
0.0000000000
40
0.1818178798
40
0.4545453732
40
0.7272727455
40
1.0000000000
40
1.0000000000
40
1.0000000000
40
1.0000000000
10
-7.1948873960
20
-23.5578356543
30
0.0000000000
10
-7.1909209644
20
-23.5509652761
30
0.0000000000
10
-7.1818219687
20
-23.5333174623
30
0.0000000000
10
-7.1707043802
20
-23.5035081203
30
0.0000000000
10
-7.1630967480
20
-23.4685414825
30
0.0000000000
10
-7.1613946305
20
-23.4447272178
30
0.0000000000
10
-7.1613946305
20
-23.4328375476
30
0.0000000000
11
-7.1948873960
21
-23.5578356543
31
0.0000000000
11
-7.1839858583
21
-23.5366897631
31
0.0000000000
11
-7.1715209888
21
-23.5032695958
31
0.0000000000
11
-7.1639391563
21
-23.4684156829
31
0.0000000000
11
-7.1613946305
21
-23.4328375476
31
0.0000000000
0
SPLINE
5
40F
100
AcDbEntity
8
0
100
AcDbSpline
62
7
6
CONTINUOUS
70
0
71
3
72
18
73
14
74
12
42
0.0000001000
43
0.0000001000
44
0.0000000001
12
0.3923546691
22
0.0000132796
32
0.0000000000
13
0.0000132796
23
0.3923546691
33
0.0000000000
40
0.0000000000
40
0.0000000000
40
0.0000000000
40
0.0000000000
40
0.0907979998
40
0.1817132506
40
0.2726288409
40
0.3635497677
40
0.4544701002
40
0.5453914898
40
0.6363133134
40
0.7272353659
40
0.8181573348
40
0.9090790534
40
1.0000000000
40
1.0000000000
40
1.0000000000
40
1.0000000000
10
9.9842377663
20
-23.6784614828
30
0.0000000000
10
9.9961127727
20
-23.6784610808
30
0.0000000000
10
10.0199128486
20
-23.6767612218
30
0.0000000000
10
10.0548675374
20
-23.6691611567
30
0.0000000000
10
10.0884072983
20
-23.6566572557
30
0.0000000000
10
10.1198246688
20
-23.6395070901
30
0.0000000000
10
10.1484824553
20
-23.6180595208
30
0.0000000000
10
10.1737959372
20
-23.5927515513
30
0.0000000000
10
10.1952499216
20
-23.5640981314
30
0.0000000000
10
10.2124073940
20
-23.5326834068
30
0.0000000000
10
10.2249189397
20
-23.4991445088
30
0.0000000000
10
10.2325297380
20
-23.4641739463
30
0.0000000000
10
10.2342331330
20
-23.4403567995
30
0.0000000000
10
10.2342335355
20
-23.4284657136
30
0.0000000000
11
9.9842377663
21
-23.6784614828
31
0.0000000000
11
10.0197721559
21
-23.6759219653
31
0.0000000000
11
10.0546290514
21
-23.6683444508
31
0.0000000000
11
10.0880528296
21
-23.6558832131
31
0.0000000000
11
10.1193646935
21
-23.6387908769
31
0.0000000000
11
10.1479249529
21
-23.6174162254
31
0.0000000000
11
10.1731526249
21
-23.5921940467
31
0.0000000000
11
10.1945338125
21
-23.5636379493
31
0.0000000000
11
10.2116330777
21
-23.5323293655
31
0.0000000000
11
10.2241021635
21
-23.4989058432
31
0.0000000000
11
10.2316871377
21
-23.4640479731
31
0.0000000000
11
10.2342335355
21
-23.4284657136
31
0.0000000000
0
SPLINE
5
410
100
AcDbEntity
8
0
100
AcDbSpline
62
7
6
CONTINUOUS
70
0
71
3
72
9
73
5
74
3
42
0.0000001000
43
0.0000001000
44
0.0000000001
12
0.0475573588
22
0.0000000000
32
0.0000000000
13
0.0467385388
23
0.0090083279
33
0.0000000000
40
0.0000000000
40
0.0000000000
40
0.0000000000
40
0.0000000000
40
0.7500208510
40
1.0000000000
40
1.0000000000
40
1.0000000000
40
1.0000000000
10
9.9886096003
20
-23.6828333168
30
0.0000000000
10
10.0004992705
20
-23.6828333168
30
0.0000000000
10
10.0163750022
20
-23.6816986035
30
0.0000000000
10
10.0320271117
20
-23.6790663581
30
0.0000000000
10
10.0359216651
20
-23.6783157268
30
0.0000000000
11
9.9886096003
21
-23.6828333168
31
0.0000000000
11
10.0241877356
21
-23.6802887909
31
0.0000000000
11
10.0359216651
21
-23.6783157268
31
0.0000000000
0
SPLINE
5
411
100
AcDbEntity
8
0
100
AcDbSpline
62
7
6
CONTINUOUS
70
0
71
3
72
10
73
6
74
4
42
0.0000001000
43
0.0000001000
44
0.0000000001
12
0.0817960248
22
0.0157652643
32
0.0000000000
13
0.0721402392
23
0.0416482642
33
0.0000000000
40
0.0000000000
40
0.0000000000
40
0.0000000000
40
0.0000000000
40
0.2857257878
40
0.7142907385
40
1.0000000000
40
1.0000000000
40
1.0000000000
40
1.0000000000
10
10.0359216651
20
-23.6783157268
30
0.0000000000
10
10.0437120763
20
-23.6768142126
30
0.0000000000
10
10.0630059261
20
-23.6721340231
30
0.0000000000
10
10.0890895150
20
-23.6624059786
30
0.0000000000
10
10.1067373289
20
-23.6533069828
30
0.0000000000
10
10.1136077070
20
-23.6493405512
30
0.0000000000
11
10.0359216651
21
-23.6783157268
31
0.0000000000
11
10.0590416485
21
-23.6727069585
31
0.0000000000
11
10.0924618158
21
-23.6602420890
31
0.0000000000
11
10.1136077070
21
-23.6493405512
31
0.0000000000
0
SPLINE
5
412
100
AcDbEntity
8
0
100
AcDbSpline
62
7
6
CONTINUOUS
70
0
71
3
72
12
73
8
74
6
42
0.0000001000
43
0.0000001000
44
0.0000000001
12
0.1133617068
22
0.0654463912
32
0.0000000000
13
0.0654463912
23
0.1133617068
33
0.0000000000
40
0.0000000000
40
0.0000000000
40
0.0000000000
40
0.0000000000
40
0.0909094935
40
0.3636364896
40
0.6363635104
40
0.9090905065
40
1.0000000000
40
1.0000000000
40
1.0000000000
40
1.0000000000
10
10.1136077070
20
-23.6493405512
30
0.0000000000
10
10.1170429255
20
-23.6473573185
30
0.0000000000
10
10.1305950038
20
-23.6390975769
30
0.0000000000
10
10.1528798675
20
-23.6224154912
30
0.0000000000
10
10.1781875439
20
-23.5971078148
30
0.0000000000
10
10.1948696296
20
-23.5748229511
30
0.0000000000
10
10.2031293712
20
-23.5612708727
30
0.0000000000
10
10.2051126040
20
-23.5578356543
30
0.0000000000
11
10.1136077070
21
-23.6493405512
31
0.0000000000
11
10.1237678754
21
-23.6431478749
31
0.0000000000
11
10.1523224886
21
-23.6217722756
31
0.0000000000
11
10.1775443284
21
-23.5965504358
31
0.0000000000
11
10.1989199276
21
-23.5679958227
31
0.0000000000
11
10.2051126040
21
-23.5578356543
31
0.0000000000
0
SPLINE
5
413
100
AcDbEntity
8
0
100
AcDbSpline
62
7
6
CONTINUOUS
70
0
71
3
72
11
73
7
74
5
42
0.0000001000
43
0.0000001000
44
0.0000000001
12
0.0654462302
22
0.1133614279
32
0.0000000000
13
-0.0000000000
23
0.1307863814
33
0.0000000000
40
0.0000000000
40
0.0000000000
40
0.0000000000
40
0.0000000000
40
0.1818178798
40
0.4545453732
40
0.7272727455
40
1.0000000000
40
1.0000000000
40
1.0000000000
40
1.0000000000
10
10.2051126040
20
-23.5578356543
30
0.0000000000
10
10.2090790356
20
-23.5509652761
30
0.0000000000
10
10.2181780313
20
-23.5333174623
30
0.0000000000
10
10.2292956198
20
-23.5035081203
30
0.0000000000
10
10.2369032520
20
-23.4685414825
30
0.0000000000
10
10.2386053695
20
-23.4447272178
30
0.0000000000
10
10.2386053695
20
-23.4328375476
30
0.0000000000
11
10.2051126040
21
-23.5578356543
31
0.0000000000
11
10.2160141417
21
-23.5366897631
31
0.0000000000
11
10.2284790112
21
-23.5032695958
31
0.0000000000
11
10.2360608437
21
-23.4684156829
31
0.0000000000
11
10.2386053695
21
-23.4328375476
31
0.0000000000
0
SPLINE
5
414
100
AcDbEntity
8
0
100
AcDbSpline
62
7
6
CONTINUOUS
70
0
71
3
72
18
73
14
74
12
42
0.0000001000
43
0.0000001000
44
0.0000000001
12
0.0000132796
22
-0.3923546692
32
0.0000000000
13
0.3923546692
23
-0.0000132796
33
0.0000000000
40
0.0000000000
40
0.0000000000
40
0.0000000000
40
0.0000000000
40
0.0909083271
40
0.1818170744
40
0.2727261901
40
0.3636355924
40
0.4545451767
40
0.5454548233
40
0.6363644076
40
0.7272738099
40
0.8181829256
40
0.9090916729
40
1.0000000000
40
1.0000000000
40
1.0000000000
40
1.0000000000
10
7.3429772035
20
-23.4284657136
30
0.0000000000
10
7.3429776059
20
-23.4403551491
30
0.0000000000
10
7.3446805234
20
-23.4641689345
30
0.0000000000
10
7.3522891903
20
-23.4991347644
30
0.0000000000
10
7.3647972699
20
-23.5326695292
30
0.0000000000
10
7.3819501394
20
-23.5640810855
30
0.0000000000
10
7.4033986438
20
-23.5927325619
30
0.0000000000
10
7.4287061243
20
-23.6180400425
30
0.0000000000
10
7.4573576008
20
-23.6394885469
30
0.0000000000
10
7.4887691571
20
-23.6566414164
30
0.0000000000
10
7.5223039218
20
-23.6691494960
30
0.0000000000
10
7.5572697518
20
-23.6767581629
30
0.0000000000
10
7.5810835372
20
-23.6784610804
30
0.0000000000
10
7.5929729727
20
-23.6784614828
30
0.0000000000
11
7.3429772035
21
-23.4284657136
31
0.0000000000
11
7.3455228947
21
-23.4640430597
31
0.0000000000
11
7.3531057391
21
-23.4988961847
31
0.0000000000
11
7.3655713786
21
-23.5323156102
31
0.0000000000
11
7.3826660597
21
-23.5636210422
31
0.0000000000
11
7.4040417988
21
-23.5921752199
31
0.0000000000
11
7.4292634664
21
-23.6173968874
31
0.0000000000
11
7.4578176440
21
-23.6387726266
31
0.0000000000
11
7.4891230761
21
-23.6558673077
31
0.0000000000
11
7.5225425015
21
-23.6683329472
31
0.0000000000
11
7.5573956266
21
-23.6759157916
31
0.0000000000
11
7.5929729727
21
-23.6784614828
31
0.0000000000
0
SPLINE
5
415
100
AcDbEntity
8
0
100
AcDbSpline
62
7
6
CONTINUOUS
70
0
71
3
72
9
73
5
74
3
42
0.0000001000
43
0.0000001000
44
0.0000000001
12
0.0000000000
22
-0.0475573588
32
0.0000000000
13
0.0090083279
23
-0.0467385388
33
0.0000000000
40
0.0000000000
40
0.0000000000
40
0.0000000000
40
0.0000000000
40
0.7500208510
40
1.0000000000
40
1.0000000000
40
1.0000000000
40
1.0000000000
10
7.3386053695
20
-23.4328375476
30
0.0000000000
10
7.3386053695
20
-23.4447272178
30
0.0000000000
10
7.3397400827
20
-23.4606029494
30
0.0000000000
10
7.3423723281
20
-23.4762550590
30
0.0000000000
10
7.3431229595
20
-23.4801496124
30
0.0000000000
11
7.3386053695
21
-23.4328375476
31
0.0000000000
11
7.3411498954
21
-23.4684156829
31
0.0000000000
11
7.3431229595
21
-23.4801496124
31
0.0000000000
0
SPLINE
5
416
100
AcDbEntity
8
0
100
AcDbSpline
62
7
6
CONTINUOUS
70
0
71
3
72
10
73
6
74
4
42
0.0000001000
43
0.0000001000
44
0.0000000001
12
0.0157652643
22
-0.0817960248
32
0.0000000000
13
0.0416482642
23
-0.0721402392
33
0.0000000000
40
0.0000000000
40
0.0000000000
40
0.0000000000
40
0.0000000000
40
0.2857257878
40
0.7142907385
40
1.0000000000
40
1.0000000000
40
1.0000000000
40
1.0000000000
10
7.3431229595
20
-23.4801496124
30
0.0000000000
10
7.3446244737
20
-23.4879400236
30
0.0000000000
10
7.3493046631
20
-23.5072338734
30
0.0000000000
10
7.3590327077
20
-23.5333174623
30
0.0000000000
10
7.3681317034
20
-23.5509652761
30
0.0000000000
10
7.3720981351
20
-23.5578356543
30
0.0000000000
11
7.3431229595
21
-23.4801496124
31
0.0000000000
11
7.3487317278
21
-23.5032695958
31
0.0000000000
11
7.3611965973
21
-23.5366897631
31
0.0000000000
11
7.3720981351
21
-23.5578356543
31
0.0000000000
0
SPLINE
5
417
100
AcDbEntity
8
0
100
AcDbSpline
62
7
6
CONTINUOUS
70
0
71
3
72
12
73
8
74
6
42
0.0000001000
43
0.0000001000
44
0.0000000001
12
0.0654463912
22
-0.1133617068
32
0.0000000000
13
0.1133617068
23
-0.0654463912
33
0.0000000000
40
0.0000000000
40
0.0000000000
40
0.0000000000
40
0.0000000000
40
0.0909094935
40
0.3636364896
40
0.6363635104
40
0.9090905065
40
1.0000000000
40
1.0000000000
40
1.0000000000
40
1.0000000000
10
7.3720981351
20
-23.5578356543
30
0.0000000000
10
7.3740813678
20
-23.5612708727
30
0.0000000000
10
7.3823411094
20
-23.5748229511
30
0.0000000000
10
7.3990231951
20
-23.5971078148
30
0.0000000000
10
7.4243308715
20
-23.6224154912
30
0.0000000000
10
7.4466157352
20
-23.6390975769
30
0.0000000000
10
7.4601678135
20
-23.6473573185
30
0.0000000000
10
7.4636030320
20
-23.6493405512
30
0.0000000000
11
7.3720981351
21
-23.5578356543
31
0.0000000000
11
7.3782908114
21
-23.5679958227
31
0.0000000000
11
7.3996664106
21
-23.5965504358
31
0.0000000000
11
7.4248882504
21
-23.6217722756
31
0.0000000000
11
7.4534428636
21
-23.6431478749
31
0.0000000000
11
7.4636030320
21
-23.6493405512
31
0.0000000000
0
SPLINE
5
418
100
AcDbEntity
8
0
100
AcDbSpline
62
7
6
CONTINUOUS
70
0
71
3
72
11
73
7
74
5
42
0.0000001000
43
0.0000001000
44
0.0000000001
12
0.1133614279
22
-0.0654462302
32
0.0000000000
13
0.1307863814
23
-0.0000000000
33
0.0000000000
40
0.0000000000
40
0.0000000000
40
0.0000000000
40
0.0000000000
40
0.1818178798
40
0.4545453732
40
0.7272727455
40
1.0000000000
40
1.0000000000
40
1.0000000000
40
1.0000000000
10
7.4636030320
20
-23.6493405512
30
0.0000000000
10
7.4704734101
20
-23.6533069828
30
0.0000000000
10
7.4881212240
20
-23.6624059786
30
0.0000000000
10
7.5179305659
20
-23.6735235670
30
0.0000000000
10
7.5528972038
20
-23.6811311992
30
0.0000000000
10
7.5767114685
20
-23.6828333168
30
0.0000000000
10
7.5886011387
20
-23.6828333168
30
0.0000000000
11
7.4636030320
21
-23.6493405512
31
0.0000000000
11
7.4847489232
21
-23.6602420890
31
0.0000000000
11
7.5181690905
21
-23.6727069585
31
0.0000000000
11
7.5530230034
21
-23.6802887909
31
0.0000000000
11
7.5886011387
21
-23.6828333168
31
0.0000000000
0
SPLINE
5
419
100
AcDbEntity
8
0
100
AcDbSpline
62
7
6
CONTINUOUS
70
0
71
3
72
18
73
14
74
12
42
0.0000001000
43
0.0000001000
44
0.0000000001
12
-0.3923546691
22
-0.0000132796
32
0.0000000000
13
-0.0000132796
23
-0.3923546691
33
0.0000000000
40
0.0000000000
40
0.0000000000
40
0.0000000000
40
0.0000000000
40
0.0907979998
40
0.1817132506
40
0.2726288409
40
0.3635497677
40
0.4544701002
40
0.5453914898
40
0.6363133134
40
0.7272353659
40
0.8181573348
40
0.9090790534
40
1.0000000000
40
1.0000000000
40
1.0000000000
40
1.0000000000
10
-9.8070270273
20
25.3127948492
30
0.0000000000
10
-9.8189020337
20
25.3127944473
30
0.0000000000
10
-9.8427021095
20
25.3110945882
30
0.0000000000
10
-9.8776567984
20
25.3034945231
30
0.0000000000
10
-9.9111965592
20
25.2909906222
30
0.0000000000
10
-9.9426139298
20
25.2738404565
30
0.0000000000
10
-9.9712717163
20
25.2523928873
30
0.0000000000
10
-9.9965851982
20
25.2270849178
30
0.0000000000
10
-10.0180391826
20
25.1984314978
30
0.0000000000
10
-10.0351966550
20
25.1670167733
30
0.0000000000
10
-10.0477082007
20
25.1334778752
30
0.0000000000
10
-10.0553189990
20
25.0985073128
30
0.0000000000
10
-10.0570223940
20
25.0746901660
30
0.0000000000
10
-10.0570227965
20
25.0627990800
30
0.0000000000
11
-9.8070270273
21
25.3127948492
31
0.0000000000
11
-9.8425614169
21
25.3102553318
31
0.0000000000
11
-9.8774183124
21
25.3026778173
31
0.0000000000
11
-9.9108420906
21
25.2902165795
31
0.0000000000
11
-9.9421539545
21
25.2731242433
31
0.0000000000
11
-9.9707142139
21
25.2517495919
31
0.0000000000
11
-9.9959418859
21
25.2265274131
31
0.0000000000
11
-10.0173230735
21
25.1979713158
31
0.0000000000
11
-10.0344223387
21
25.1666627320
31
0.0000000000
11
-10.0468914245
21
25.1332392096
31
0.0000000000
11
-10.0544763987
21
25.0983813395
31
0.0000000000
11
-10.0570227965
21
25.0627990800
31
0.0000000000
0
SPLINE
5
41A
100
AcDbEntity
8
0
100
AcDbSpline
62
7
6
CONTINUOUS
70
0
71
3
72
9
73
5
74
3
42
0.0000001000
43
0.0000001000
44
0.0000000001
12
-0.0475573588
22
0.0000000000
32
0.0000000000
13
-0.0467385388
23
-0.0090083279
33
0.0000000000
40
0.0000000000
40
0.0000000000
40
0.0000000000
40
0.0000000000
40
0.7500208510
40
1.0000000000
40
1.0000000000
40
1.0000000000
40
1.0000000000
10
-9.8113988613
20
25.3171666832
30
0.0000000000
10
-9.8232885315
20
25.3171666832
30
0.0000000000
10
-9.8391642632
20
25.3160319700
30
0.0000000000
10
-9.8548163727
20
25.3133997246
30
0.0000000000
10
-9.8587109261
20
25.3126490932
30
0.0000000000
11
-9.8113988613
21
25.3171666832
31
0.0000000000
11
-9.8469769966
21
25.3146221574
31
0.0000000000
11
-9.8587109261
21
25.3126490932
31
0.0000000000
0
SPLINE
5
41B
100
AcDbEntity
8
0
100
AcDbSpline
62
7
6
CONTINUOUS
70
0
71
3
72
10
73
6
74
4
42
0.0000001000
43
0.0000001000
44
0.0000000001
12
-0.0817960248
22
-0.0157652643
32
0.0000000000
13
-0.0721402392
23
-0.0416482642
33
0.0000000000
40
0.0000000000
40
0.0000000000
40
0.0000000000
40
0.0000000000
40
0.2857257878
40
0.7142907385
40
1.0000000000
40
1.0000000000
40
1.0000000000
40
1.0000000000
10
-9.8587109261
20
25.3126490932
30
0.0000000000
10
-9.8665013373
20
25.3111475790
30
0.0000000000
10
-9.8857951871
20
25.3064673896
30
0.0000000000
10
-9.9118787760
20
25.2967393450
30
0.0000000000
10
-9.9295265899
20
25.2876403493
30
0.0000000000
10
-9.9363969680
20
25.2836739177
30
0.0000000000
11
-9.8587109261
21
25.3126490932
31
0.0000000000
11
-9.8818309095
21
25.3070403249
31
0.0000000000
11
-9.9152510768
21
25.2945754554
31
0.0000000000
11
-9.9363969680
21
25.2836739177
31
0.0000000000
0
SPLINE
5
41C
100
AcDbEntity
8
0
100
AcDbSpline
62
7
6
CONTINUOUS
70
0
71
3
72
12
73
8
74
6
42
0.0000001000
43
0.0000001000
44
0.0000000001
12
-0.1133617068
22
-0.0654463912
32
0.0000000000
13
-0.0654463912
23
-0.1133617068
33
0.0000000000
40
0.0000000000
40
0.0000000000
40
0.0000000000
40
0.0000000000
40
0.0909094935
40
0.3636364896
40
0.6363635104
40
0.9090905065
40
1.0000000000
40
1.0000000000
40
1.0000000000
40
1.0000000000
10
-9.9363969680
20
25.2836739177
30
0.0000000000
10
-9.9398321865
20
25.2816906849
30
0.0000000000
10
-9.9533842648
20
25.2734309433
30
0.0000000000
10
-9.9756691285
20
25.2567488576
30
0.0000000000
10
-10.0009768049
20
25.2314411812
30
0.0000000000
10
-10.0176588906
20
25.2091563175
30
0.0000000000
10
-10.0259186322
20
25.1956042392
30
0.0000000000
10
-10.0279018649
20
25.1921690208
30
0.0000000000
11
-9.9363969680
21
25.2836739177
31
0.0000000000
11
-9.9465571364
21
25.2774812414
31
0.0000000000
11
-9.9751117496
21
25.2561056421
31
0.0000000000
11
-10.0003335894
21
25.2308838023
31
0.0000000000
11
-10.0217091886
21
25.2023291891
31
0.0000000000
11
-10.0279018649
21
25.1921690208
31
0.0000000000
0
SPLINE
5
41D
100
AcDbEntity
8
0
100
AcDbSpline
62
7
6
CONTINUOUS
70
0
71
3
72
11
73
7
74
5
42
0.0000001000
43
0.0000001000
44
0.0000000001
12
-0.0654462302
22
-0.1133614279
32
0.0000000000
13
0.0000000000
23
-0.1307863814
33
0.0000000000
40
0.0000000000
40
0.0000000000
40
0.0000000000
40
0.0000000000
40
0.1818178798
40
0.4545453732
40
0.7272727455
40
1.0000000000
40
1.0000000000
40
1.0000000000
40
1.0000000000
10
-10.0279018649
20
25.1921690208
30
0.0000000000
10
-10.0318682966
20
25.1852986426
30
0.0000000000
10
-10.0409672923
20
25.1676508287
30
0.0000000000
10
-10.0520848807
20
25.1378414868
30
0.0000000000
10
-10.0596925129
20
25.1028748489
30
0.0000000000
10
-10.0613946305
20
25.0790605843
30
0.0000000000
10
-10.0613946305
20
25.0671709140
30
0.0000000000
11
-10.0279018649
21
25.1921690208
31
0.0000000000
11
-10.0388034027
21
25.1710231295
31
0.0000000000
11
-10.0512682722
21
25.1376029622
31
0.0000000000
11
-10.0588501046
21
25.1027490494
31
0.0000000000
11
-10.0613946305
21
25.0671709140
31
0.0000000000
0
SPLINE
5
41E
100
AcDbEntity
8
0
100
AcDbSpline
62
7
6
CONTINUOUS
70
0
71
3
72
18
73
14
74
12
42
0.0000001000
43
0.0000001000
44
0.0000000001
12
-0.0000132796
22
0.3923546692
32
0.0000000000
13
-0.3923546692
23
0.0000132796
33
0.0000000000
40
0.0000000000
40
0.0000000000
40
0.0000000000
40
0.0000000000
40
0.0909083271
40
0.1818170744
40
0.2727261901
40
0.3636355924
40
0.4545451767
40
0.5454548233
40
0.6363644076
40
0.7272738099
40
0.8181829256
40
0.9090916729
40
1.0000000000
40
1.0000000000
40
1.0000000000
40
1.0000000000
10
-7.1657664645
20
25.0627990800
30
0.0000000000
10
-7.1657668669
20
25.0746885156
30
0.0000000000
10
-7.1674697844
20
25.0985023009
30
0.0000000000
10
-7.1750784513
20
25.1334681309
30
0.0000000000
10
-7.1875865309
20
25.1670028956
30
0.0000000000
10
-7.2047394004
20
25.1984144520
30
0.0000000000
10
-7.2261879048
20
25.2270659284
30
0.0000000000
10
-7.2514953853
20
25.2523734089
30
0.0000000000
10
-7.2801468617
20
25.2738219134
30
0.0000000000
10
-7.3115584181
20
25.2909747828
30
0.0000000000
10
-7.3450931828
20
25.3034828624
30
0.0000000000
10
-7.3800590128
20
25.3110915294
30
0.0000000000
10
-7.4038727982
20
25.3127944468
30
0.0000000000
10
-7.4157622337
20
25.3127948492
30
0.0000000000
11
-7.1657664645
21
25.0627990800
31
0.0000000000
11
-7.1683121556
21
25.0983764261
31
0.0000000000
11
-7.1758950001
21
25.1332295512
31
0.0000000000
11
-7.1883606396
21
25.1666489767
31
0.0000000000
11
-7.2054553207
21
25.1979544087
31
0.0000000000
11
-7.2268310598
21
25.2265085863
31
0.0000000000
11
-7.2520527274
21
25.2517302539
31
0.0000000000
11
-7.2806069050
21
25.2731059930
31
0.0000000000
11
-7.3119123370
21
25.2902006741
31
0.0000000000
11
-7.3453317625
21
25.3026663136
31
0.0000000000
11
-7.3801848876
21
25.3102491581
31
0.0000000000
11
-7.4157622337
21
25.3127948492
31
0.0000000000
0
SPLINE
5
41F
100
AcDbEntity
8
0
100
AcDbSpline
62
7
6
CONTINUOUS
70
0
71
3
72
9
73
5
74
3
42
0.0000001000
43
0.0000001000
44
0.0000000001
12
0.0000000000
22
0.0475573588
32
0.0000000000
13
-0.0090083279
23
0.0467385388
33
0.0000000000
40
0.0000000000
40
0.0000000000
40
0.0000000000
40
0.0000000000
40
0.7500208510
40
1.0000000000
40
1.0000000000
40
1.0000000000
40
1.0000000000
10
-7.1613946305
20
25.0671709140
30
0.0000000000
10
-7.1613946305
20
25.0790605843
30
0.0000000000
10
-7.1625293437
20
25.0949363159
30
0.0000000000
10
-7.1651615891
20
25.1105884255
30
0.0000000000
10
-7.1659122205
20
25.1144829789
30
0.0000000000
11
-7.1613946305
21
25.0671709140
31
0.0000000000
11
-7.1639391563
21
25.1027490494
31
0.0000000000
11
-7.1659122205
21
25.1144829789
31
0.0000000000
0
SPLINE
5
420
100
AcDbEntity
8
0
100
AcDbSpline
62
7
6
CONTINUOUS
70
0
71
3
72
10
73
6
74
4
42
0.0000001000
43
0.0000001000
44
0.0000000001
12
-0.0157652643
22
0.0817960248
32
0.0000000000
13
-0.0416482642
23
0.0721402392
33
0.0000000000
40
0.0000000000
40
0.0000000000
40
0.0000000000
40
0.0000000000
40
0.2857257878
40
0.7142907385
40
1.0000000000
40
1.0000000000
40
1.0000000000
40
1.0000000000
10
-7.1659122205
20
25.1144829789
30
0.0000000000
10
-7.1674137347
20
25.1222733901
30
0.0000000000
10
-7.1720939241
20
25.1415672398
30
0.0000000000
10
-7.1818219687
20
25.1676508287
30
0.0000000000
10
-7.1909209644
20
25.1852986426
30
0.0000000000
10
-7.1948873960
20
25.1921690208
30
0.0000000000
11
-7.1659122205
21
25.1144829789
31
0.0000000000
11
-7.1715209888
21
25.1376029622
31
0.0000000000
11
-7.1839858583
21
25.1710231295
31
0.0000000000
11
-7.1948873960
21
25.1921690208
31
0.0000000000
0
SPLINE
5
421
100
AcDbEntity
8
0
100
AcDbSpline
62
7
6
CONTINUOUS
70
0
71
3
72
12
73
8
74
6
42
0.0000001000
43
0.0000001000
44
0.0000000001
12
-0.0654463912
22
0.1133617068
32
0.0000000000
13
-0.1133617068
23
0.0654463912
33
0.0000000000
40
0.0000000000
40
0.0000000000
40
0.0000000000
40
0.0000000000
40
0.0909094935
40
0.3636364896
40
0.6363635104
40
0.9090905065
40
1.0000000000
40
1.0000000000
40
1.0000000000
40
1.0000000000
10
-7.1948873960
20
25.1921690208
30
0.0000000000
10
-7.1968706288
20
25.1956042392
30
0.0000000000
10
-7.2051303704
20
25.2091563175
30
0.0000000000
10
-7.2218124561
20
25.2314411812
30
0.0000000000
10
-7.2471201325
20
25.2567488576
30
0.0000000000
10
-7.2694049962
20
25.2734309433
30
0.0000000000
10
-7.2829570745
20
25.2816906849
30
0.0000000000
10
-7.2863922930
20
25.2836739177
30
0.0000000000
11
-7.1948873960
21
25.1921690208
31
0.0000000000
11
-7.2010800724
21
25.2023291891
31
0.0000000000
11
-7.2224556716
21
25.2308838023
31
0.0000000000
11
-7.2476775114
21
25.2561056421
31
0.0000000000
11
-7.2762321246
21
25.2774812414
31
0.0000000000
11
-7.2863922930
21
25.2836739177
31
0.0000000000
0
SPLINE
5
422
100
AcDbEntity
8
0
100
AcDbSpline
62
7
6
CONTINUOUS
70
0
71
3
72
11
73
7
74
5
42
0.0000001000
43
0.0000001000
44
0.0000000001
12
-0.1133614279
22
0.0654462302
32
0.0000000000
13
-0.1307863814
23
0.0000000000
33
0.0000000000
40
0.0000000000
40
0.0000000000
40
0.0000000000
40
0.0000000000
40
0.1818178798
40
0.4545453732
40
0.7272727455
40
1.0000000000
40
1.0000000000
40
1.0000000000
40
1.0000000000
10
-7.2863922930
20
25.2836739177
30
0.0000000000
10
-7.2932626711
20
25.2876403493
30
0.0000000000
10
-7.3109104850
20
25.2967393450
30
0.0000000000
10
-7.3407198269
20
25.3078569335
30
0.0000000000
10
-7.3756864648
20
25.3154645657
30
0.0000000000
10
-7.3995007295
20
25.3171666832
30
0.0000000000
10
-7.4113903997
20
25.3171666832
30
0.0000000000
11
-7.2863922930
21
25.2836739177
31
0.0000000000
11
-7.3075381842
21
25.2945754554
31
0.0000000000
11
-7.3409583515
21
25.3070403249
31
0.0000000000
11
-7.3758122644
21
25.3146221574
31
0.0000000000
11
-7.4113903997
21
25.3171666832
31
0.0000000000
0
SPLINE
5
423
100
AcDbEntity
8
0
100
AcDbSpline
62
7
6
CONTINUOUS
70
0
71
3
72
18
73
14
74
12
42
0.0000001000
43
0.0000001000
44
0.0000000001
12
-0.3923546691
22
-0.0000132796
32
0.0000000000
13
-0.0000132796
23
-0.3923546691
33
0.0000000000
40
0.0000000000
40
0.0000000000
40
0.0000000000
40
0.0000000000
40
0.0907979998
40
0.1817132506
40
0.2726288409
40
0.3635497677
40
0.4544701002
40
0.5453914898
40
0.6363133134
40
0.7272353659
40
0.8181573348
40
0.9090790534
40
1.0000000000
40
1.0000000000
40
1.0000000000
40
1.0000000000
10
7.5929729727
20
25.3127948492
30
0.0000000000
10
7.5810979663
20
25.3127944473
30
0.0000000000
10
7.5572978905
20
25.3110945882
30
0.0000000000
10
7.5223432016
20
25.3034945231
30
0.0000000000
10
7.4888034408
20
25.2909906222
30
0.0000000000
10
7.4573860702
20
25.2738404565
30
0.0000000000
10
7.4287282837
20
25.2523928873
30
0.0000000000
10
7.4034148018
20
25.2270849178
30
0.0000000000
10
7.3819608174
20
25.1984314978
30
0.0000000000
10
7.3648033450
20
25.1670167733
30
0.0000000000
10
7.3522917993
20
25.1334778752
30
0.0000000000
10
7.3446810010
20
25.0985073128
30
0.0000000000
10
7.3429776060
20
25.0746901660
30
0.0000000000
10
7.3429772035
20
25.0627990800
30
0.0000000000
11
7.5929729727
21
25.3127948492
31
0.0000000000
11
7.5574385831
21
25.3102553318
31
0.0000000000
11
7.5225816876
21
25.3026778173
31
0.0000000000
11
7.4891579094
21
25.2902165795
31
0.0000000000
11
7.4578460455
21
25.2731242433
31
0.0000000000
11
7.4292857861
21
25.2517495919
31
0.0000000000
11
7.4040581141
21
25.2265274131
31
0.0000000000
11
7.3826769265
21
25.1979713158
31
0.0000000000
11
7.3655776613
21
25.1666627320
31
0.0000000000
11
7.3531085755
21
25.1332392096
31
0.0000000000
11
7.3455236013
21
25.0983813395
31
0.0000000000
11
7.3429772035
21
25.0627990800
31
0.0000000000
0
SPLINE
5
424
100
AcDbEntity
8
0
100
AcDbSpline
62
7
6
CONTINUOUS
70
0
71
3
72
9
73
5
74
3
42
0.0000001000
43
0.0000001000
44
0.0000000001
12
-0.0475573588
22
0.0000000000
32
0.0000000000
13
-0.0467385388
23
-0.0090083279
33
0.0000000000
40
0.0000000000
40
0.0000000000
40
0.0000000000
40
0.0000000000
40
0.7500208510
40
1.0000000000
40
1.0000000000
40
1.0000000000
40
1.0000000000
10
7.5886011387
20
25.3171666832
30
0.0000000000
10
7.5767114685
20
25.3171666832
30
0.0000000000
10
7.5608357368
20
25.3160319700
30
0.0000000000
10
7.5451836273
20
25.3133997246
30
0.0000000000
10
7.5412890739
20
25.3126490932
30
0.0000000000
11
7.5886011387
21
25.3171666832
31
0.0000000000
11
7.5530230034
21
25.3146221574
31
0.0000000000
11
7.5412890739
21
25.3126490932
31
0.0000000000
0
SPLINE
5
425
100
AcDbEntity
8
0
100
AcDbSpline
62
7
6
CONTINUOUS
70
0
71
3
72
10
73
6
74
4
42
0.0000001000
43
0.0000001000
44
0.0000000001
12
-0.0817960248
22
-0.0157652643
32
0.0000000000
13
-0.0721402392
23
-0.0416482642
33
0.0000000000
40
0.0000000000
40
0.0000000000
40
0.0000000000
40
0.0000000000
40
0.2857257878
40
0.7142907385
40
1.0000000000
40
1.0000000000
40
1.0000000000
40
1.0000000000
10
7.5412890739
20
25.3126490932
30
0.0000000000
10
7.5334986627
20
25.3111475790
30
0.0000000000
10
7.5142048129
20
25.3064673896
30
0.0000000000
10
7.4881212240
20
25.2967393450
30
0.0000000000
10
7.4704734101
20
25.2876403493
30
0.0000000000
10
7.4636030320
20
25.2836739177
30
0.0000000000
11
7.5412890739
21
25.3126490932
31
0.0000000000
11
7.5181690905
21
25.3070403249
31
0.0000000000
11
7.4847489232
21
25.2945754554
31
0.0000000000
11
7.4636030320
21
25.2836739177
31
0.0000000000
0
SPLINE
5
426
100
AcDbEntity
8
0
100
AcDbSpline
62
7
6
CONTINUOUS
70
0
71
3
72
12
73
8
74
6
42
0.0000001000
43
0.0000001000
44
0.0000000001
12
-0.1133617068
22
-0.0654463912
32
0.0000000000
13
-0.0654463912
23
-0.1133617068
33
0.0000000000
40
0.0000000000
40
0.0000000000
40
0.0000000000
40
0.0000000000
40
0.0909094935
40
0.3636364896
40
0.6363635104
40
0.9090905065
40
1.0000000000
40
1.0000000000
40
1.0000000000
40
1.0000000000
10
7.4636030320
20
25.2836739177
30
0.0000000000
10
7.4601678135
20
25.2816906849
30
0.0000000000
10
7.4466157352
20
25.2734309433
30
0.0000000000
10
7.4243308715
20
25.2567488576
30
0.0000000000
10
7.3990231951
20
25.2314411812
30
0.0000000000
10
7.3823411094
20
25.2091563175
30
0.0000000000
10
7.3740813678
20
25.1956042392
30
0.0000000000
10
7.3720981351
20
25.1921690208
30
0.0000000000
11
7.4636030320
21
25.2836739177
31
0.0000000000
11
7.4534428636
21
25.2774812414
31
0.0000000000
11
7.4248882504
21
25.2561056421
31
0.0000000000
11
7.3996664106
21
25.2308838023
31
0.0000000000
11
7.3782908114
21
25.2023291891
31
0.0000000000
11
7.3720981351
21
25.1921690208
31
0.0000000000
0
SPLINE
5
427
100
AcDbEntity
8
0
100
AcDbSpline
62
7
6
CONTINUOUS
70
0
71
3
72
11
73
7
74
5
42
0.0000001000
43
0.0000001000
44
0.0000000001
12
-0.0654462302
22
-0.1133614279
32
0.0000000000
13
0.0000000000
23
-0.1307863814
33
0.0000000000
40
0.0000000000
40
0.0000000000
40
0.0000000000
40
0.0000000000
40
0.1818178798
40
0.4545453732
40
0.7272727455
40
1.0000000000
40
1.0000000000
40
1.0000000000
40
1.0000000000
10
7.3720981351
20
25.1921690208
30
0.0000000000
10
7.3681317034
20
25.1852986426
30
0.0000000000
10
7.3590327077
20
25.1676508287
30
0.0000000000
10
7.3479151193
20
25.1378414868
30
0.0000000000
10
7.3403074871
20
25.1028748489
30
0.0000000000
10
7.3386053695
20
25.0790605843
30
0.0000000000
10
7.3386053695
20
25.0671709140
30
0.0000000000
11
7.3720981351
21
25.1921690208
31
0.0000000000
11
7.3611965973
21
25.1710231295
31
0.0000000000
11
7.3487317278
21
25.1376029622
31
0.0000000000
11
7.3411498954
21
25.1027490494
31
0.0000000000
11
7.3386053695
21
25.0671709140
31
0.0000000000
0
SPLINE
5
428
100
AcDbEntity
8
0
100
AcDbSpline
62
7
6
CONTINUOUS
70
0
71
3
72
20
73
16
74
14
42
0.0000001000
43
0.0000001000
44
0.0000000001
12
-0.7848337152
22
0.0000039780
32
0.0000000000
13
0.0000035535
23
-0.7848337152
33
0.0000000000
40
0.0000000000
40
0.0000000000
40
0.0000000000
40
0.0000000000
40
0.0766128207
40
0.1536399235
40
0.2304640867
40
0.3071084831
40
0.3842388304
40
0.4612915504
40
0.5379226200
40
0.6150130979
40
0.6922376387
40
0.7690194909
40
0.8459914279
40
0.9231901544
40
1.0000000000
40
1.0000000000
40
1.0000000000
40
1.0000000000
10
-10.5609024770
20
23.2171666832
30
0.0000000000
10
-10.5809452519
20
23.2171667848
30
0.0000000000
10
-10.6211810949
20
23.2147414130
30
0.0000000000
10
-10.6806259606
20
23.2038586696
30
0.0000000000
10
-10.7383385140
20
23.1858768189
30
0.0000000000
10
-10.7934874271
20
23.1610661190
30
0.0000000000
10
-10.8452942659
20
23.1297514011
30
0.0000000000
10
-10.8929307422
20
23.0924039510
30
0.0000000000
10
-10.9357111324
20
23.0495975367
30
0.0000000000
10
-10.9730519961
20
23.0019120906
30
0.0000000000
10
-11.0043756902
20
22.9500283000
30
0.0000000000
10
-11.0292017628
20
22.8947774022
30
0.0000000000
10
-11.0471988377
20
22.8369444549
30
0.0000000000
10
-11.0580934932
20
22.7773644563
30
0.0000000000
10
-11.0605219682
20
22.7370321500
30
0.0000000000
10
-11.0605218772
20
22.7169378312
30
0.0000000000
11
-10.5609024770
21
23.2171666832
31
0.0000000000
11
-10.6209217541
21
23.2135470410
31
0.0000000000
11
-10.6803871091
21
23.2026615806
31
0.0000000000
11
-10.7379516743
21
23.1847252878
31
0.0000000000
11
-10.7928090624
21
23.1600460824
31
0.0000000000
11
-10.8446150401
21
23.1287320918
31
0.0000000000
11
-10.8922062235
21
23.0914208036
31
0.0000000000
11
-10.9347209422
21
23.0488809788
31
0.0000000000
11
-10.9720235099
21
23.0012453158
31
0.0000000000
11
-11.0033490684
21
22.9493599580
31
0.0000000000
11
-11.0280480210
21
22.8943931660
31
0.0000000000
11
-11.0459991379
21
22.8367117462
31
0.0000000000
11
-11.0568968112
21
22.7771116938
31
0.0000000000
11
-11.0605218772
21
22.7169378312
31
0.0000000000
0
SPLINE
5
429
100
AcDbEntity
8
0
100
AcDbSpline
62
7
6
CONTINUOUS
70
0
71
3
72
18
73
14
74
12
42
0.0000001000
43
0.0000001000
44
0.0000000001
12
-0.0000132796
22
0.3923546691
32
0.0000000000
13
-0.3923546691
23
0.0000132796
33
0.0000000000
40
0.0000000000
40
0.0000000000
40
0.0000000000
40
0.0000000000
40
0.0909209466
40
0.1818426652
40
0.2727646341
40
0.3636866866
40
0.4546085102
40
0.5455298998
40
0.6364502323
40
0.7273711591
40
0.8182867494
40
0.9092020002
40
1.0000000000
40
1.0000000000
40
1.0000000000
40
1.0000000000
10
10.2342335355
20
25.0627990800
30
0.0000000000
10
10.2342331330
20
25.0746901660
30
0.0000000000
10
10.2325297380
20
25.0985073128
30
0.0000000000
10
10.2249189397
20
25.1334778752
30
0.0000000000
10
10.2124073940
20
25.1670167733
30
0.0000000000
10
10.1952499216
20
25.1984314978
30
0.0000000000
10
10.1737959372
20
25.2270849178
30
0.0000000000
10
10.1484824553
20
25.2523928873
30
0.0000000000
10
10.1198246688
20
25.2738404565
30
0.0000000000
10
10.0884072983
20
25.2909906222
30
0.0000000000
10
10.0548675374
20
25.3034945231
30
0.0000000000
10
10.0199128486
20
25.3110945882
30
0.0000000000
10
9.9961127727
20
25.3127944473
30
0.0000000000
10
9.9842377663
20
25.3127948492
30
0.0000000000
11
10.2342335355
21
25.0627990800
31
0.0000000000
11
10.2316871377
21
25.0983813395
31
0.0000000000
11
10.2241021635
21
25.1332392096
31
0.0000000000
11
10.2116330777
21
25.1666627320
31
0.0000000000
11
10.1945338125
21
25.1979713158
31
0.0000000000
11
10.1731526249
21
25.2265274131
31
0.0000000000
11
10.1479249529
21
25.2517495919
31
0.0000000000
11
10.1193646935
21
25.2731242433
31
0.0000000000
11
10.0880528296
21
25.2902165795
31
0.0000000000
11
10.0546290514
21
25.3026778173
31
0.0000000000
11
10.0197721559
21
25.3102553318
31
0.0000000000
11
9.9842377663
21
25.3127948492
31
0.0000000000
0
SPLINE
5
42A
100
AcDbEntity
8
0
100
AcDbSpline
62
7
6
CONTINUOUS
70
0
71
3
72
9
73
5
74
3
42
0.0000001000
43
0.0000001000
44
0.0000000001
12
0.0000000000
22
0.0475573588
32
0.0000000000
13
-0.0090083279
23
0.0467385388
33
0.0000000000
40
0.0000000000
40
0.0000000000
40
0.0000000000
40
0.0000000000
40
0.7500208510
40
1.0000000000
40
1.0000000000
40
1.0000000000
40
1.0000000000
10
10.2386053695
20
25.0671709140
30
0.0000000000
10
10.2386053695
20
25.0790605843
30
0.0000000000
10
10.2374706563
20
25.0949363159
30
0.0000000000
10
10.2348384109
20
25.1105884255
30
0.0000000000
10
10.2340877795
20
25.1144829789
30
0.0000000000
11
10.2386053695
21
25.0671709140
31
0.0000000000
11
10.2360608437
21
25.1027490494
31
0.0000000000
11
10.2340877795
21
25.1144829789
31
0.0000000000
0
SPLINE
5
42B
100
AcDbEntity
8
0
100
AcDbSpline
62
7
6
CONTINUOUS
70
0
71
3
72
10
73
6
74
4
42
0.0000001000
43
0.0000001000
44
0.0000000001
12
-0.0157652643
22
0.0817960248
32
0.0000000000
13
-0.0416482642
23
0.0721402392
33
0.0000000000
40
0.0000000000
40
0.0000000000
40
0.0000000000
40
0.0000000000
40
0.2857257878
40
0.7142907385
40
1.0000000000
40
1.0000000000
40
1.0000000000
40
1.0000000000
10
10.2340877795
20
25.1144829789
30
0.0000000000
10
10.2325862653
20
25.1222733901
30
0.0000000000
10
10.2279060759
20
25.1415672398
30
0.0000000000
10
10.2181780313
20
25.1676508287
30
0.0000000000
10
10.2090790356
20
25.1852986426
30
0.0000000000
10
10.2051126040
20
25.1921690208
30
0.0000000000
11
10.2340877795
21
25.1144829789
31
0.0000000000
11
10.2284790112
21
25.1376029622
31
0.0000000000
11
10.2160141417
21
25.1710231295
31
0.0000000000
11
10.2051126040
21
25.1921690208
31
0.0000000000
0
SPLINE
5
42C
100
AcDbEntity
8
0
100
AcDbSpline
62
7
6
CONTINUOUS
70
0
71
3
72
12
73
8
74
6
42
0.0000001000
43
0.0000001000
44
0.0000000001
12
-0.0654463912
22
0.1133617068
32
0.0000000000
13
-0.1133617068
23
0.0654463912
33
0.0000000000
40
0.0000000000
40
0.0000000000
40
0.0000000000
40
0.0000000000
40
0.0909094935
40
0.3636364896
40
0.6363635104
40
0.9090905065
40
1.0000000000
40
1.0000000000
40
1.0000000000
40
1.0000000000
10
10.2051126040
20
25.1921690208
30
0.0000000000
10
10.2031293712
20
25.1956042392
30
0.0000000000
10
10.1948696296
20
25.2091563175
30
0.0000000000
10
10.1781875439
20
25.2314411812
30
0.0000000000
10
10.1528798675
20
25.2567488576
30
0.0000000000
10
10.1305950038
20
25.2734309433
30
0.0000000000
10
10.1170429255
20
25.2816906849
30
0.0000000000
10
10.1136077070
20
25.2836739177
30
0.0000000000
11
10.2051126040
21
25.1921690208
31
0.0000000000
11
10.1989199276
21
25.2023291891
31
0.0000000000
11
10.1775443284
21
25.2308838023
31
0.0000000000
11
10.1523224886
21
25.2561056421
31
0.0000000000
11
10.1237678754
21
25.2774812414
31
0.0000000000
11
10.1136077070
21
25.2836739177
31
0.0000000000
0
SPLINE
5
42D
100
AcDbEntity
8
0
100
AcDbSpline
62
7
6
CONTINUOUS
70
0
71
3
72
11
73
7
74
5
42
0.0000001000
43
0.0000001000
44
0.0000000001
12
-0.1133614279
22
0.0654462302
32
0.0000000000
13
-0.1307863814
23
0.0000000000
33
0.0000000000
40
0.0000000000
40
0.0000000000
40
0.0000000000
40
0.0000000000
40
0.1818178798
40
0.4545453732
40
0.7272727455
40
1.0000000000
40
1.0000000000
40
1.0000000000
40
1.0000000000
10
10.1136077070
20
25.2836739177
30
0.0000000000
10
10.1067373289
20
25.2876403493
30
0.0000000000
10
10.0890895150
20
25.2967393450
30
0.0000000000
10
10.0592801731
20
25.3078569335
30
0.0000000000
10
10.0243135352
20
25.3154645657
30
0.0000000000
10
10.0004992705
20
25.3171666832
30
0.0000000000
10
9.9886096003
20
25.3171666832
30
0.0000000000
11
10.1136077070
21
25.2836739177
31
0.0000000000
11
10.0924618158
21
25.2945754554
31
0.0000000000
11
10.0590416485
21
25.3070403249
31
0.0000000000
11
10.0241877356
21
25.3146221574
31
0.0000000000
11
9.9886096003
21
25.3171666832
31
0.0000000000
0
SPLINE
5
42E
100
AcDbEntity
8
0
100
AcDbSpline
62
7
6
CONTINUOUS
70
0
71
3
72
20
73
16
74
14
42
0.0000001000
43
0.0000001000
44
0.0000000001
12
-0.0000035535
22
-0.7848337152
32
0.0000000000
13
0.7848337152
23
0.0000039780
33
0.0000000000
40
0.0000000000
40
0.0000000000
40
0.0000000000
40
0.0000000000
40
0.0768098456
40
0.1540085721
40
0.2309805090
40
0.3077623613
40
0.3849869020
40
0.4620773798
40
0.5387084495
40
0.6157611694
40
0.6928915167
40
0.7695359130
40
0.8463600763
40
0.9233871790
40
1.0000000000
40
1.0000000000
40
1.0000000000
40
1.0000000000
10
-11.0605218772
20
-21.0826044647
30
0.0000000000
10
-11.0605219682
20
-21.1026987835
30
0.0000000000
10
-11.0580934932
20
-21.1430310898
30
0.0000000000
10
-11.0471988377
20
-21.2026110884
30
0.0000000000
10
-11.0292017628
20
-21.2604440357
30
0.0000000000
10
-11.0043756902
20
-21.3156949335
30
0.0000000000
10
-10.9730519962
20
-21.3675787241
30
0.0000000000
10
-10.9357111324
20
-21.4152641702
30
0.0000000000
10
-10.8929307423
20
-21.4580705844
30
0.0000000000
10
-10.8452942660
20
-21.4954180346
30
0.0000000000
10
-10.7934874273
20
-21.5267327525
30
0.0000000000
10
-10.7383385142
20
-21.5515434524
30
0.0000000000
10
-10.6806259608
20
-21.5695253031
30
0.0000000000
10
-10.6211810950
20
-21.5804080465
30
0.0000000000
10
-10.5809452520
20
-21.5828334184
30
0.0000000000
10
-10.5609024770
20
-21.5828333168
30
0.0000000000
11
-11.0605218772
21
-21.0826044647
31
0.0000000000
11
-11.0568968112
21
-21.1427783273
31
0.0000000000
11
-11.0459991379
21
-21.2023783797
31
0.0000000000
11
-11.0280480210
21
-21.2600597995
31
0.0000000000
11
-11.0033490685
21
-21.3150265915
31
0.0000000000
11
-10.9720235100
21
-21.3669119492
31
0.0000000000
11
-10.9347209422
21
-21.4145476123
31
0.0000000000
11
-10.8922062236
21
-21.4570874371
31
0.0000000000
11
-10.8446150402
21
-21.4943987253
31
0.0000000000
11
-10.7928090625
21
-21.5257127158
31
0.0000000000
11
-10.7379516745
21
-21.5503919213
31
0.0000000000
11
-10.6803871093
21
-21.5683282141
31
0.0000000000
11
-10.6209217543
21
-21.5792136745
31
0.0000000000
11
-10.5609024770
21
-21.5828333168
31
0.0000000000
0
SPLINE
5
42F
100
AcDbEntity
8
0
100
AcDbSpline
62
7
6
CONTINUOUS
70
0
71
3
72
20
73
16
74
14
42
0.0000001000
43
0.0000001000
44
0.0000000001
12
0.0000035535
22
0.7848337152
32
0.0000000000
13
-0.7848337152
23
-0.0000039780
33
0.0000000000
40
0.0000000000
40
0.0000000000
40
0.0000000000
40
0.0000000000
40
0.0768098456
40
0.1540085721
40
0.2309805090
40
0.3077623613
40
0.3849869020
40
0.4620773798
40
0.5387084495
40
0.6157611694
40
0.6928915167
40
0.7695359130
40
0.8463600763
40
0.9233871790
40
1.0000000000
40
1.0000000000
40
1.0000000000
40
1.0000000000
10
11.2377326163
20
22.7169378312
30
0.0000000000
10
11.2377327072
20
22.7370321500
30
0.0000000000
10
11.2353042322
20
22.7773644563
30
0.0000000000
10
11.2244095768
20
22.8369444549
30
0.0000000000
10
11.2064125018
20
22.8947774022
30
0.0000000000
10
11.1815864292
20
22.9500282999
30
0.0000000000
10
11.1502627352
20
23.0019120905
30
0.0000000000
10
11.1129218714
20
23.0495975367
30
0.0000000000
10
11.0701414813
20
23.0924039509
30
0.0000000000
10
11.0225050050
20
23.1297514011
30
0.0000000000
10
10.9706981663
20
23.1610661189
30
0.0000000000
10
10.9155492532
20
23.1858768189
30
0.0000000000
10
10.8578366998
20
23.2038586695
30
0.0000000000
10
10.7983918340
20
23.2147414130
30
0.0000000000
10
10.7581559910
20
23.2171667848
30
0.0000000000
10
10.7381132160
20
23.2171666832
30
0.0000000000
11
11.2377326163
21
22.7169378312
31
0.0000000000
11
11.2341075502
21
22.7771116938
31
0.0000000000
11
11.2232098770
21
22.8367117462
31
0.0000000000
11
11.2052587600
21
22.8943931660
31
0.0000000000
11
11.1805598075
21
22.9493599579
31
0.0000000000
11
11.1492342490
21
23.0012453157
31
0.0000000000
11
11.1119316812
21
23.0488809787
31
0.0000000000
11
11.0694169626
21
23.0914208036
31
0.0000000000
11
11.0218257792
21
23.1287320917
31
0.0000000000
11
10.9700198015
21
23.1600460823
31
0.0000000000
11
10.9151624135
21
23.1847252878
31
0.0000000000
11
10.8575978483
21
23.2026615805
31
0.0000000000
11
10.7981324933
21
23.2135470410
31
0.0000000000
11
10.7381132160
21
23.2171666832
31
0.0000000000
0
SPLINE
5
430
100
AcDbEntity
8
0
100
AcDbSpline
62
7
6
CONTINUOUS
70
0
71
3
72
20
73
16
74
14
42
0.0000001000
43
0.0000001000
44
0.0000000001
12
0.7848337152
22
-0.0000039780
32
0.0000000000
13
-0.0000035535
23
0.7848337152
33
0.0000000000
40
0.0000000000
40
0.0000000000
40
0.0000000000
40
0.0000000000
40
0.0766128207
40
0.1536399235
40
0.2304640867
40
0.3071084831
40
0.3842388304
40
0.4612915504
40
0.5379226200
40
0.6150130979
40
0.6922376387
40
0.7690194909
40
0.8459914279
40
0.9231901544
40
1.0000000000
40
1.0000000000
40
1.0000000000
40
1.0000000000
10
10.7381132160
20
-21.5828333168
30
0.0000000000
10
10.7581559909
20
-21.5828334184
30
0.0000000000
10
10.7983918339
20
-21.5804080466
30
0.0000000000
10
10.8578366996
20
-21.5695253031
30
0.0000000000
10
10.9155492530
20
-21.5515434525
30
0.0000000000
10
10.9706981662
20
-21.5267327525
30
0.0000000000
10
11.0225050049
20
-21.4954180347
30
0.0000000000
10
11.0701414813
20
-21.4580705845
30
0.0000000000
10
11.1129218714
20
-21.4152641703
30
0.0000000000
10
11.1502627351
20
-21.3675787241
30
0.0000000000
10
11.1815864292
20
-21.3156949335
30
0.0000000000
10
11.2064125018
20
-21.2604440357
30
0.0000000000
10
11.2244095767
20
-21.2026110885
30
0.0000000000
10
11.2353042322
20
-21.1430310898
30
0.0000000000
10
11.2377327072
20
-21.1026987835
30
0.0000000000
10
11.2377326163
20
-21.0826044647
30
0.0000000000
11
10.7381132160
21
-21.5828333168
31
0.0000000000
11
10.7981324931
21
-21.5792136746
31
0.0000000000
11
10.8575978481
21
-21.5683282141
31
0.0000000000
11
10.9151624134
21
-21.5503919214
31
0.0000000000
11
10.9700198014
21
-21.5257127159
31
0.0000000000
11
11.0218257791
21
-21.4943987254
31
0.0000000000
11
11.0694169625
21
-21.4570874372
31
0.0000000000
11
11.1119316812
21
-21.4145476123
31
0.0000000000
11
11.1492342490
21
-21.3669119493
31
0.0000000000
11
11.1805598074
21
-21.3150265915
31
0.0000000000
11
11.2052587600
21
-21.2600597996
31
0.0000000000
11
11.2232098769
21
-21.2023783798
31
0.0000000000
11
11.2341075502
21
-21.1427783273
31
0.0000000000
11
11.2377326163
21
-21.0826044647
31
0.0000000000
0
SPLINE
5
431
100
AcDbEntity
8
0
100
AcDbSpline
62
7
6
CONTINUOUS
70
0
71
3
72
9
73
5
74
3
42
0.0000001000
43
0.0000001000
44
0.0000000001
12
-0.0001229116
22
-0.0021058575
32
0.0000000000
13
-0.0026060595
23
-0.0009722932
33
0.0000000000
40
0.0000000000
40
0.0000000000
40
0.0000000000
40
0.0000000000
40
0.8427341930
40
1.0000000000
40
1.0000000000
40
1.0000000000
40
1.0000000000
10
-4.3174723834
20
-23.1367255898
30
0.0000000000
10
-4.3175069107
20
-23.1373171492
30
0.0000000000
10
-4.3171294335
20
-23.1382213084
30
0.0000000000
10
-4.3177898604
20
-23.1386425644
30
0.0000000000
10
-4.3179264751
20
-23.1386935339
30
0.0000000000
11
-4.3174723834
21
-23.1367255898
31
0.0000000000
11
-4.3176078053
21
-23.1384981226
31
0.0000000000
11
-4.3179264751
21
-23.1386935339
31
0.0000000000
0
SPLINE
5
432
100
AcDbEntity
8
0
100
AcDbSpline
62
7
6
CONTINUOUS
70
0
71
3
72
12
73
8
74
6
42
0.0000001000
43
0.0000001000
44
0.0000000001
12
-0.1999961928
22
0.1999961928
32
0.0000000000
13
-0.2828373283
23
0.0000000000
33
0.0000000000
40
0.0000000000
40
0.0000000000
40
0.0000000000
40
0.0000000000
40
0.2614882701
40
0.5187300412
40
0.7487715681
40
0.9244664710
40
1.0000000000
40
1.0000000000
40
1.0000000000
40
1.0000000000
10
6.8828631573
20
-19.3828333168
30
0.0000000000
10
6.8654309378
20
-19.3654010973
30
0.0000000000
10
6.8309618191
20
-19.3305491052
30
0.0000000000
10
6.7805639427
20
-19.2817912777
30
0.0000000000
10
6.7378248495
20
-19.2340759310
30
0.0000000000
10
6.7023359652
20
-19.2102030903
30
0.0000000000
10
6.6899920066
20
-19.1828333168
30
0.0000000000
10
6.6828707727
20
-19.1828333168
30
0.0000000000
11
6.8828631573
21
-19.3828333168
31
0.0000000000
11
6.8305664989
21
-19.3305366583
31
0.0000000000
11
6.7791191240
21
-19.2790892834
31
0.0000000000
11
6.7331116944
21
-19.2330818539
31
0.0000000000
11
6.6979733828
21
-19.1979435422
31
0.0000000000
11
6.6828707727
21
-19.1828333168
31
0.0000000000
0
SPLINE
5
433
100
AcDbEntity
8
0
100
AcDbSpline
62
7
6
CONTINUOUS
70
0
71
3
72
12
73
8
74
6
42
0.0000001000
43
0.0000001000
44
0.0000000001
12
0.1999961928
22
0.1999961928
32
0.0000000000
13
0.2828373283
23
0.0000000000
33
0.0000000000
40
0.0000000000
40
0.0000000000
40
0.0000000000
40
0.0000000000
40
0.2614882701
40
0.5187300412
40
0.7487715681
40
0.9244664710
40
1.0000000000
40
1.0000000000
40
1.0000000000
40
1.0000000000
10
-6.7056524183
20
-19.3828333168
30
0.0000000000
10
-6.6882201988
20
-19.3654010973
30
0.0000000000
10
-6.6537510801
20
-19.3305491052
30
0.0000000000
10
-6.6033532036
20
-19.2817912777
30
0.0000000000
10
-6.5606141105
20
-19.2340759310
30
0.0000000000
10
-6.5251252262
20
-19.2102030903
30
0.0000000000
10
-6.5127812675
20
-19.1828333168
30
0.0000000000
10
-6.5056600337
20
-19.1828333168
30
0.0000000000
11
-6.7056524183
21
-19.3828333168
31
0.0000000000
11
-6.6533557598
21
-19.3305366583
31
0.0000000000
11
-6.6019083850
21
-19.2790892834
31
0.0000000000
11
-6.5559009554
21
-19.2330818539
31
0.0000000000
11
-6.5207626438
21
-19.1979435422
31
0.0000000000
11
-6.5056600337
21
-19.1828333168
31
0.0000000000
0
SPLINE
5
434
100
AcDbEntity
8
0
100
AcDbSpline
62
7
6
CONTINUOUS
70
0
71
3
72
11
73
7
74
5
42
0.0000001000
43
0.0000001000
44
0.0000000001
12
-0.2000674997
22
0.0000000000
32
0.0000000000
13
-0.0894674545
23
0.1789485374
33
0.0000000000
40
0.0000000000
40
0.0000000000
40
0.0000000000
40
0.0000000000
40
0.3790072945
40
0.7027962556
40
0.9209967133
40
1.0000000000
40
1.0000000000
40
1.0000000000
40
1.0000000000
10
-6.9171368427
20
-20.2748390310
30
0.0000000000
10
-6.9424125233
20
-20.2748390310
30
0.0000000000
10
-6.9884500051
20
-20.2735785287
30
0.0000000000
10
-7.0528196570
20
-20.2768783653
30
0.0000000000
10
-7.0883222246
20
-20.2681048937
30
0.0000000000
10
-7.1147731530
20
-20.2760909900
30
0.0000000000
10
-7.1171292273
20
-20.2713784824
30
0.0000000000
11
-6.9171368427
21
-20.2748390310
31
0.0000000000
11
-6.9929634366
21
-20.2745783996
31
0.0000000000
11
-7.0577387699
21
-20.2738307577
31
0.0000000000
11
-7.1013791041
21
-20.2727062407
31
0.0000000000
11
-7.1171292273
21
-20.2713784824
31
0.0000000000
0
SPLINE
5
435
100
AcDbEntity
8
0
100
AcDbSpline
62
7
6
CONTINUOUS
70
0
71
3
72
11
73
7
74
5
42
0.0000001000
43
0.0000001000
44
0.0000000001
12
0.0894674545
22
0.1789485374
32
0.0000000000
13
0.2000674997
23
-0.0000000000
33
0.0000000000
40
0.0000000000
40
0.0000000000
40
0.0000000000
40
0.0000000000
40
0.0790032867
40
0.2972037444
40
0.6209927055
40
1.0000000000
40
1.0000000000
40
1.0000000000
40
1.0000000000
10
-7.1171292273
20
21.9057118489
30
0.0000000000
10
-7.1147731530
20
21.9104243564
30
0.0000000000
10
-7.0883222246
20
21.9024382601
30
0.0000000000
10
-7.0528196570
20
21.9112117317
30
0.0000000000
10
-6.9884500051
20
21.9079118951
30
0.0000000000
10
-6.9424125233
20
21.9091723974
30
0.0000000000
10
-6.9171368427
20
21.9091723974
30
0.0000000000
11
-7.1171292273
21
21.9057118489
31
0.0000000000
11
-7.1013791041
21
21.9070396071
31
0.0000000000
11
-7.0577387699
21
21.9081641242
31
0.0000000000
11
-6.9929634366
21
21.9089117661
31
0.0000000000
11
-6.9171368427
21
21.9091723974
31
0.0000000000
0
SPLINE
5
436
100
AcDbEntity
8
0
100
AcDbSpline
62
7
6
CONTINUOUS
70
0
71
3
72
12
73
8
74
6
42
0.0000001000
43
0.0000001000
44
0.0000000001
12
0.1999961928
22
-0.1999961928
32
0.0000000000
13
0.2828373283
23
0.0000000000
33
0.0000000000
40
0.0000000000
40
0.0000000000
40
0.0000000000
40
0.0000000000
40
0.2614882701
40
0.5187300412
40
0.7487715681
40
0.9244664710
40
1.0000000000
40
1.0000000000
40
1.0000000000
40
1.0000000000
10
-6.7056524183
20
21.0171666832
30
0.0000000000
10
-6.6882201988
20
20.9997344637
30
0.0000000000
10
-6.6537510801
20
20.9648824717
30
0.0000000000
10
-6.6033532036
20
20.9161246442
30
0.0000000000
10
-6.5606141105
20
20.8684092974
30
0.0000000000
10
-6.5251252262
20
20.8445364568
30
0.0000000000
10
-6.5127812675
20
20.8171666832
30
0.0000000000
10
-6.5056600337
20
20.8171666832
30
0.0000000000
11
-6.7056524183
21
21.0171666832
31
0.0000000000
11
-6.6533557598
21
20.9648700248
31
0.0000000000
11
-6.6019083850
21
20.9134226499
31
0.0000000000
11
-6.5559009554
21
20.8674152203
31
0.0000000000
11
-6.5207626438
21
20.8322769087
31
0.0000000000
11
-6.5056600337
21
20.8171666832
31
0.0000000000
0
SPLINE
5
437
100
AcDbEntity
8
0
100
AcDbSpline
62
7
6
CONTINUOUS
70
0
71
3
72
12
73
8
74
6
42
0.0000001000
43
0.0000001000
44
0.0000000001
12
-0.1999961928
22
-0.1999961928
32
0.0000000000
13
-0.2828373283
23
0.0000000000
33
0.0000000000
40
0.0000000000
40
0.0000000000
40
0.0000000000
40
0.0000000000
40
0.2614882701
40
0.5187300412
40
0.7487715681
40
0.9244664710
40
1.0000000000
40
1.0000000000
40
1.0000000000
40
1.0000000000
10
6.8828631573
20
21.0171666832
30
0.0000000000
10
6.8654309378
20
20.9997344637
30
0.0000000000
10
6.8309618191
20
20.9648824717
30
0.0000000000
10
6.7805639427
20
20.9161246442
30
0.0000000000
10
6.7378248495
20
20.8684092974
30
0.0000000000
10
6.7023359652
20
20.8445364568
30
0.0000000000
10
6.6899920066
20
20.8171666832
30
0.0000000000
10
6.6828707727
20
20.8171666832
30
0.0000000000
11
6.8828631573
21
21.0171666832
31
0.0000000000
11
6.8305664989
21
20.9648700248
31
0.0000000000
11
6.7791191240
21
20.9134226499
31
0.0000000000
11
6.7331116944
21
20.8674152203
31
0.0000000000
11
6.6979733828
21
20.8322769087
31
0.0000000000
11
6.6828707727
21
20.8171666832
31
0.0000000000
0
SPLINE
5
438
100
AcDbEntity
8
0
100
AcDbSpline
62
7
6
CONTINUOUS
70
0
71
3
72
11
73
7
74
5
42
0.0000001000
43
0.0000001000
44
0.0000000001
12
0.2000674997
22
0.0000000000
32
0.0000000000
13
0.0894674545
23
-0.1789485374
33
0.0000000000
40
0.0000000000
40
0.0000000000
40
0.0000000000
40
0.0000000000
40
0.3790072945
40
0.7027962556
40
0.9209967133
40
1.0000000000
40
1.0000000000
40
1.0000000000
40
1.0000000000
10
7.0943475817
20
21.9091723974
30
0.0000000000
10
7.1196232623
20
21.9091723974
30
0.0000000000
10
7.1656607442
20
21.9079118951
30
0.0000000000
10
7.2300303960
20
21.9112117317
30
0.0000000000
10
7.2655329636
20
21.9024382601
30
0.0000000000
10
7.2919838920
20
21.9104243564
30
0.0000000000
10
7.2943399663
20
21.9057118489
30
0.0000000000
11
7.0943475817
21
21.9091723974
31
0.0000000000
11
7.1701741756
21
21.9089117661
31
0.0000000000
11
7.2349495089
21
21.9081641242
31
0.0000000000
11
7.2785898432
21
21.9070396071
31
0.0000000000
11
7.2943399663
21
21.9057118489
31
0.0000000000
0
SPLINE
5
439
100
AcDbEntity
8
0
100
AcDbSpline
62
9
6
CONTINUOUS
70
0
71
3
72
11
73
7
74
5
42
0.0000001000
43
0.0000001000
44
0.0000000001
12
0.3025269272
22
-0.0008485158
32
0.0000000000
13
0.0009608481
23
-0.3025265913
33
0.0000000000
40
0.0000000000
40
0.0000000000
40
0.0000000000
40
0.0000000000
40
0.2570137375
40
0.5101150989
40
0.7572996185
40
1.0000000000
40
1.0000000000
40
1.0000000000
40
1.0000000000
10
-6.7056524183
20
-17.6349363003
30
0.0000000000
10
-6.6797345596
20
-17.6350089937
30
0.0000000000
10
-6.6278110292
20
-17.6447129490
30
0.0000000000
10
-6.5615076995
20
-17.6861118411
30
0.0000000000
10
-6.5165185646
20
-17.7484572309
30
0.0000000000
10
-6.5057377664
20
-17.7984003847
30
0.0000000000
10
-6.5056600337
20
-17.8228748244
30
0.0000000000
11
-6.7056524183
21
-17.6349363003
31
0.0000000000
11
-6.6292561950
21
-17.6494029253
31
0.0000000000
11
-6.5644470144
21
-17.6901800957
31
0.0000000000
11
-6.5210545083
21
-17.7510831235
31
0.0000000000
11
-6.5056600337
21
-17.8228748244
31
0.0000000000
0
SPLINE
5
43A
100
AcDbEntity
8
0
100
AcDbSpline
62
7
6
CONTINUOUS
70
0
71
3
72
11
73
7
74
5
42
0.0000001000
43
0.0000001000
44
0.0000000001
12
0.3213282478
22
0.0000000000
32
0.0000000000
13
0.0000000000
23
-0.3213282478
33
0.0000000000
40
0.0000000000
40
0.0000000000
40
0.0000000000
40
0.0000000000
40
0.2379300286
40
0.4844163253
40
0.7385242783
40
1.0000000000
40
1.0000000000
40
1.0000000000
40
1.0000000000
10
-6.5418630377
20
-10.8037958891
30
0.0000000000
10
-6.5163784913
20
-10.8037958891
30
0.0000000000
10
-6.4639042268
20
-10.8146957867
30
0.0000000000
10
-6.3975819736
20
-10.8615521341
30
0.0000000000
10
-6.3528821539
20
-10.9321885709
30
0.0000000000
10
-6.3424523749
20
-10.9879896920
30
0.0000000000
10
-6.3424523749
20
-11.0159962038
30
0.0000000000
11
-6.5418630377
21
-10.8037958891
31
0.0000000000
11
-6.4669955117
21
-10.8192882256
31
0.0000000000
11
-6.4020467535
21
-10.8646178580
31
0.0000000000
11
-6.3581268159
21
-10.9334517052
31
0.0000000000
11
-6.3424523749
21
-11.0159962038
31
0.0000000000
0
SPLINE
5
43B
100
AcDbEntity
8
0
100
AcDbSpline
62
7
6
CONTINUOUS
70
0
71
3
72
11
73
7
74
5
42
0.0000001000
43
0.0000001000
44
0.0000000001
12
-0.0174846231
22
7.3081488644
32
0.0000000000
13
-0.0068101510
23
7.3081666071
33
0.0000000000
40
0.0000000000
40
0.0000000000
40
0.0000000000
40
0.0000000000
40
0.2491997413
40
0.4990081542
40
0.7493094811
40
1.0000000000
40
1.0000000000
40
1.0000000000
40
1.0000000000
10
9.6128366816
20
-19.0042600700
30
0.0000000000
10
9.6113842938
20
-18.3971971346
30
0.0000000000
10
9.6087001995
20
-17.1815879615
30
0.0000000000
10
9.6053387138
20
-15.3562307155
30
0.0000000000
10
9.6026378842
20
-13.5272407500
30
0.0000000000
10
9.6012794367
20
-12.3067969852
30
0.0000000000
10
9.6007103566
20
-11.6961009589
30
0.0000000000
11
9.6128366816
21
-19.0042600700
31
0.0000000000
11
9.6088145740
21
-17.1830704931
31
0.0000000000
11
9.6054518359
21
-15.3574312960
31
0.0000000000
11
9.6027500505
21
-13.5281886978
31
0.0000000000
11
9.6007103566
21
-11.6961009589
31
0.0000000000
0
SPLINE
5
43C
100
AcDbEntity
8
0
100
AcDbSpline
62
7
6
CONTINUOUS
70
0
71
3
72
11
73
7
74
5
42
0.0000001000
43
0.0000001000
44
0.0000000001
12
0.0068101510
22
7.3081666071
32
0.0000000000
13
0.0174846231
23
7.3081488644
33
0.0000000000
40
0.0000000000
40
0.0000000000
40
0.0000000000
40
0.0000000000
40
0.2506905189
40
0.5009918458
40
0.7508002587
40
1.0000000000
40
1.0000000000
40
1.0000000000
40
1.0000000000
10
9.6007103566
20
13.3304343254
30
0.0000000000
10
9.6012794367
20
13.9411303517
30
0.0000000000
10
9.6026378842
20
15.1615741165
30
0.0000000000
10
9.6053387138
20
16.9905640820
30
0.0000000000
10
9.6087001995
20
18.8159213279
30
0.0000000000
10
9.6113842938
20
20.0315305011
30
0.0000000000
10
9.6128366816
20
20.6385934365
30
0.0000000000
11
9.6007103566
21
13.3304343254
31
0.0000000000
11
9.6027500505
21
15.1625220643
31
0.0000000000
11
9.6054518359
21
16.9917646625
31
0.0000000000
11
9.6088145740
21
18.8174038595
31
0.0000000000
11
9.6128366816
21
20.6385934365
31
0.0000000000
0
SPLINE
5
43D
100
AcDbEntity
8
0
100
AcDbSpline
62
7
6
CONTINUOUS
70
0
71
3
72
11
73
7
74
5
42
0.0000001000
43
0.0000001000
44
0.0000000001
12
-0.0068101510
22
7.3081666071
32
0.0000000000
13
-0.0174846231
23
7.3081488644
33
0.0000000000
40
0.0000000000
40
0.0000000000
40
0.0000000000
40
0.0000000000
40
0.2506905189
40
0.5009918458
40
0.7508002587
40
1.0000000000
40
1.0000000000
40
1.0000000000
40
1.0000000000
10
-9.4234996176
20
13.3304343254
30
0.0000000000
10
-9.4240686977
20
13.9411303517
30
0.0000000000
10
-9.4254271452
20
15.1615741165
30
0.0000000000
10
-9.4281279747
20
16.9905640820
30
0.0000000000
10
-9.4314894605
20
18.8159213279
30
0.0000000000
10
-9.4341735548
20
20.0315305011
30
0.0000000000
10
-9.4356259426
20
20.6385934365
30
0.0000000000
11
-9.4234996176
21
13.3304343254
31
0.0000000000
11
-9.4255393115
21
15.1625220643
31
0.0000000000
11
-9.4282410969
21
16.9917646625
31
0.0000000000
11
-9.4316038350
21
18.8174038595
31
0.0000000000
11
-9.4356259426
21
20.6385934365
31
0.0000000000
0
SPLINE
5
43E
100
AcDbEntity
8
0
100
AcDbSpline
62
7
6
CONTINUOUS
70
0
71
3
72
11
73
7
74
5
42
0.0000001000
43
0.0000001000
44
0.0000000001
12
0.0174846231
22
7.3081488644
32
0.0000000000
13
0.0068101510
23
7.3081666071
33
0.0000000000
40
0.0000000000
40
0.0000000000
40
0.0000000000
40
0.0000000000
40
0.2491997413
40
0.4990081542
40
0.7493094811
40
1.0000000000
40
1.0000000000
40
1.0000000000
40
1.0000000000
10
-9.4356259426
20
-19.0042600700
30
0.0000000000
10
-9.4341735548
20
-18.3971971346
30
0.0000000000
10
-9.4314894605
20
-17.1815879615
30
0.0000000000
10
-9.4281279747
20
-15.3562307155
30
0.0000000000
10
-9.4254271452
20
-13.5272407500
30
0.0000000000
10
-9.4240686977
20
-12.3067969852
30
0.0000000000
10
-9.4234996176
20
-11.6961009589
30
0.0000000000
11
-9.4356259426
21
-19.0042600700
31
0.0000000000
11
-9.4316038350
21
-17.1830704931
31
0.0000000000
11
-9.4282410969
21
-15.3574312960
31
0.0000000000
11
-9.4255393115
21
-13.5281886978
31
0.0000000000
11
-9.4234996176
21
-11.6961009589
31
0.0000000000
0
SPLINE
5
43F
100
AcDbEntity
8
0
100
AcDbSpline
62
7
6
CONTINUOUS
70
0
71
3
72
20
73
16
74
14
42
0.0000001000
43
0.0000001000
44
0.0000000001
12
0.4645166834
22
-0.4879965431
32
0.0000000000
13
0.0392566728
23
-0.6725884989
33
0.0000000000
40
0.0000000000
40
0.0000000000
40
0.0000000000
40
0.0000000000
40
0.1376924970
40
0.2732041083
40
0.4019552266
40
0.5195374983
40
0.6233985078
40
0.7130440951
40
0.7890379647
40
0.8518561666
40
0.9022776034
40
0.9412923958
40
0.9701171226
40
0.9894788456
40
1.0000000000
40
1.0000000000
40
1.0000000000
40
1.0000000000
10
4.0416480794
20
-22.6391911315
30
0.0000000000
10
4.0629682334
20
-22.6615889523
30
0.0000000000
10
4.1052709121
20
-22.7060297887
30
0.0000000000
10
4.1674630511
20
-22.7714579652
30
0.0000000000
10
4.2264509367
20
-22.8337008019
30
0.0000000000
10
4.2804119007
20
-22.8909143428
30
0.0000000000
10
4.3281693287
20
-22.9419066930
30
0.0000000000
10
4.3693245040
20
-22.9862837572
30
0.0000000000
10
4.4039589686
20
-23.0241401498
30
0.0000000000
10
4.4323364350
20
-23.0557674624
30
0.0000000000
10
4.4548389979
20
-23.0815376021
30
0.0000000000
10
4.4718303810
20
-23.1018959131
30
0.0000000000
10
4.4839936308
20
-23.1173836005
30
0.0000000000
10
4.4911979686
20
-23.1281988058
30
0.0000000000
10
4.4945454473
20
-23.1343667873
30
0.0000000000
10
4.4946831225
20
-23.1367255898
30
0.0000000000
11
4.0416480794
21
-22.6391911315
31
0.0000000000
11
4.1056006141
21
-22.7063921391
31
0.0000000000
11
4.1684921889
21
-22.7725744353
31
0.0000000000
11
4.2281498919
21
-22.8355463524
31
0.0000000000
11
4.2824905032
21
-22.8931897383
31
0.0000000000
11
4.3303066015
21
-22.9442785463
31
0.0000000000
11
4.3713554953
21
-22.9885821657
31
0.0000000000
11
4.4058881369
21
-23.0263828892
31
0.0000000000
11
4.4341200351
21
-23.0579133722
31
0.0000000000
11
4.4564077719
21
-23.0835504168
31
0.0000000000
11
4.4732003964
21
-23.1037726422
31
0.0000000000
11
4.4850244291
21
-23.1191783367
31
0.0000000000
11
4.4921486691
21
-23.1301057198
31
0.0000000000
11
4.4946831225
21
-23.1367255898
31
0.0000000000
0
SPLINE
5
440
100
AcDbEntity
8
0
100
AcDbSpline
62
7
6
CONTINUOUS
70
0
71
3
72
11
73
7
74
5
42
0.0000001000
43
0.0000001000
44
0.0000000001
12
0.0000000000
22
0.3213282478
32
0.0000000000
13
0.3213282478
23
0.0000000000
33
0.0000000000
40
0.0000000000
40
0.0000000000
40
0.0000000000
40
0.0000000000
40
0.2614757217
40
0.5155836747
40
0.7620699714
40
1.0000000000
40
1.0000000000
40
1.0000000000
40
1.0000000000
10
-7.2803368860
20
-11.0159962038
30
0.0000000000
10
-7.2803368860
20
-10.9879896920
30
0.0000000000
10
-7.2699071071
20
-10.9321885709
30
0.0000000000
10
-7.2252072874
20
-10.8615521341
30
0.0000000000
10
-7.1588850342
20
-10.8146957867
30
0.0000000000
10
-7.1064107697
20
-10.8037958891
30
0.0000000000
10
-7.0809262233
20
-10.8037958891
30
0.0000000000
11
-7.2803368860
21
-11.0159962038
31
0.0000000000
11
-7.2646624451
21
-10.9334517052
31
0.0000000000
11
-7.2207425075
21
-10.8646178580
31
0.0000000000
11
-7.1557937493
21
-10.8192882256
31
0.0000000000
11
-7.0809262233
21
-10.8037958891
31
0.0000000000
0
SPLINE
5
441
100
AcDbEntity
8
0
100
AcDbSpline
62
7
6
CONTINUOUS
70
0
71
3
72
20
73
16
74
14
42
0.0000001000
43
0.0000001000
44
0.0000000001
12
0.4646868985
22
-0.4881753620
32
0.0000000000
13
0.0000000000
23
-0.6739800425
33
0.0000000000
40
0.0000000000
40
0.0000000000
40
0.0000000000
40
0.0000000000
40
0.1383453987
40
0.2743387740
40
0.4034314658
40
0.5212850016
40
0.6253097961
40
0.7149830465
40
0.7908869774
40
0.8535154546
40
0.9036785302
40
0.9423973740
40
0.9709008363
40
0.9898871653
40
1.0000000000
40
1.0000000000
40
1.0000000000
40
1.0000000000
10
-3.8644373404
20
-22.6391911315
30
0.0000000000
10
-3.8430082424
20
-22.6617034032
30
0.0000000000
10
-3.8005143059
20
-22.7063451617
30
0.0000000000
10
-3.7380713407
20
-22.7720381277
30
0.0000000000
10
-3.6788939557
20
-22.8344834810
30
0.0000000000
10
-3.6247959835
20
-22.8918472242
30
0.0000000000
10
-3.5769539888
20
-22.9429379735
30
0.0000000000
10
-3.5357744504
20
-22.9873535226
30
0.0000000000
10
-3.5011735516
20
-23.0251901955
30
0.0000000000
10
-3.4728793891
20
-23.0567485987
30
0.0000000000
10
-3.4504906093
20
-23.0824186638
30
0.0000000000
10
-3.4336494263
20
-23.1026447345
30
0.0000000000
10
-3.4216288691
20
-23.1180021074
30
0.0000000000
10
-3.4146466438
20
-23.1286169096
30
0.0000000000
10
-3.4113946305
20
-23.1347093113
30
0.0000000000
10
-3.4113946305
20
-23.1369812609
30
0.0000000000
11
-3.8644373404
21
-22.6391911315
31
0.0000000000
11
-3.8001580965
21
-22.7067356086
31
0.0000000000
11
-3.7370203553
21
-22.7731780533
31
0.0000000000
11
-3.6771838764
21
-22.8363415083
31
0.0000000000
11
-3.6227006046
21
-22.8941415595
31
0.0000000000
11
-3.5747958834
21
-22.9453337355
31
0.0000000000
11
-3.5337257104
21
-22.9896732263
31
0.0000000000
11
-3.4992303848
21
-23.0274513459
31
0.0000000000
11
-3.4710859056
21
-23.0589092766
31
0.0000000000
11
-3.4489212658
21
-23.0844390878
31
0.0000000000
11
-3.4322737869
21
-23.1045350692
31
0.0000000000
11
-3.4206135801
21
-23.1198024547
31
0.0000000000
11
-3.4136882136
21
-23.1305629067
31
0.0000000000
11
-3.4113946305
21
-23.1369812609
31
0.0000000000
0
SPLINE
5
442
100
AcDbEntity
8
0
100
AcDbSpline
62
7
6
CONTINUOUS
70
0
71
3
72
20
73
16
74
14
42
0.0000001000
43
0.0000001000
44
0.0000000001
12
0.0392566707
22
0.6725884623
32
0.0000000000
13
0.4645166581
23
0.4879965165
33
0.0000000000
40
0.0000000000
40
0.0000000000
40
0.0000000000
40
0.0000000000
40
0.0105272862
40
0.0298989129
40
0.0587327465
40
0.0977498622
40
0.1481655874
40
0.2109758150
40
0.2869640673
40
0.3766131765
40
0.4804862274
40
0.5980619866
40
0.7267707712
40
0.8622612818
40
1.0000000000
40
1.0000000000
40
1.0000000000
40
1.0000000000
10
-4.3174723834
20
-23.1367255898
30
0.0000000000
10
-4.3173346280
20
-23.1343654127
30
0.0000000000
10
-4.3139844762
20
-23.1281944224
30
0.0000000000
10
-4.3067766837
20
-23.1173750014
30
0.0000000000
10
-4.2946098606
20
-23.1018839244
30
0.0000000000
10
-4.2776173525
20
-23.0815249150
30
0.0000000000
10
-4.2551162632
20
-23.0557568735
30
0.0000000000
10
-4.2267416050
20
-23.0241328718
30
0.0000000000
10
-4.1921086269
20
-22.9862781871
30
0.0000000000
10
-4.1509519063
20
-22.9418995145
30
0.0000000000
10
-4.1031930530
20
-22.8909057194
30
0.0000000000
10
-4.0492377359
20
-22.8336982205
30
0.0000000000
10
-3.9902606681
20
-22.7714667803
30
0.0000000000
10
-3.9280712162
20
-22.7060413897
30
0.0000000000
10
-3.8857646501
20
-22.6615964697
30
0.0000000000
10
-3.8644373404
20
-22.6391911315
30
0.0000000000
11
-4.3174723834
21
-23.1367255898
31
0.0000000000
11
-4.3149359191
21
-23.1301020666
31
0.0000000000
11
-4.3078073574
21
-23.1191695366
31
0.0000000000
11
-4.2959790283
21
-23.1037594065
31
0.0000000000
11
-4.2791850110
21
-23.0835363050
31
0.0000000000
11
-4.2568995708
21
-23.0579023653
31
0.0000000000
11
-4.2286711480
21
-23.0263759850
31
0.0000000000
11
-4.1941410140
21
-22.9885781006
31
0.0000000000
11
-4.1530904809
21
-22.9442727697
31
0.0000000000
11
-4.1052688053
21
-22.8931780754
31
0.0000000000
11
-4.0509311760
21
-22.8355379141
31
0.0000000000
11
-3.9912930938
21
-22.7725867039
31
0.0000000000
11
-3.9284113341
21
-22.7064146989
31
0.0000000000
11
-3.8644373404
21
-22.6391911315
31
0.0000000000
0
SPLINE
5
443
100
AcDbEntity
8
0
100
AcDbSpline
62
9
6
CONTINUOUS
70
0
71
3
72
11
73
7
74
5
42
0.0000001000
43
0.0000001000
44
0.0000000001
12
0.0009608481
22
0.3025265913
32
0.0000000000
13
0.3025269272
23
0.0008485158
33
0.0000000000
40
0.0000000000
40
0.0000000000
40
0.0000000000
40
0.0000000000
40
0.2427003815
40
0.4898849011
40
0.7429862625
40
1.0000000000
40
1.0000000000
40
1.0000000000
40
1.0000000000
10
-7.1171292273
20
-17.8228748244
30
0.0000000000
10
-7.1170514946
20
-17.7984003847
30
0.0000000000
10
-7.1062706964
20
-17.7484572309
30
0.0000000000
10
-7.0612815615
20
-17.6861118411
30
0.0000000000
10
-6.9949782318
20
-17.6447129490
30
0.0000000000
10
-6.9430547014
20
-17.6350089937
30
0.0000000000
10
-6.9171368427
20
-17.6349363003
30
0.0000000000
11
-7.1171292273
21
-17.8228748244
31
0.0000000000
11
-7.1017347527
21
-17.7510831235
31
0.0000000000
11
-7.0583422466
21
-17.6901800957
31
0.0000000000
11
-6.9935330660
21
-17.6494029253
31
0.0000000000
11
-6.9171368427
21
-17.6349363003
31
0.0000000000
0
SPLINE
5
444
100
AcDbEntity
8
0
100
AcDbSpline
62
7
6
CONTINUOUS
70
0
71
3
72
11
73
7
74
5
42
0.0000001000
43
0.0000001000
44
0.0000000001
12
0.3213282478
22
0.0000000000
32
0.0000000000
13
0.0000000000
23
-0.3213282478
33
0.0000000000
40
0.0000000000
40
0.0000000000
40
0.0000000000
40
0.0000000000
40
0.2379300286
40
0.4844163253
40
0.7385242783
40
1.0000000000
40
1.0000000000
40
1.0000000000
40
1.0000000000
10
7.2581369623
20
-10.8037958891
30
0.0000000000
10
7.2836215087
20
-10.8037958891
30
0.0000000000
10
7.3360957732
20
-10.8146957867
30
0.0000000000
10
7.4024180264
20
-10.8615521341
30
0.0000000000
10
7.4471178461
20
-10.9321885709
30
0.0000000000
10
7.4575476251
20
-10.9879896920
30
0.0000000000
10
7.4575476251
20
-11.0159962038
30
0.0000000000
11
7.2581369623
21
-10.8037958891
31
0.0000000000
11
7.3330044883
21
-10.8192882256
31
0.0000000000
11
7.3979532465
21
-10.8646178580
31
0.0000000000
11
7.4418731841
21
-10.9334517052
31
0.0000000000
11
7.4575476251
21
-11.0159962038
31
0.0000000000
0
SPLINE
5
445
100
AcDbEntity
8
0
100
AcDbSpline
62
9
6
CONTINUOUS
70
0
71
3
72
11
73
7
74
5
42
0.0000001000
43
0.0000001000
44
0.0000000001
12
0.3025269272
22
-0.0008485158
32
0.0000000000
13
0.0009608481
23
-0.3025265913
33
0.0000000000
40
0.0000000000
40
0.0000000000
40
0.0000000000
40
0.0000000000
40
0.2570137375
40
0.5101150989
40
0.7572996185
40
1.0000000000
40
1.0000000000
40
1.0000000000
40
1.0000000000
10
7.0943475817
20
-17.6349363003
30
0.0000000000
10
7.1202654404
20
-17.6350089937
30
0.0000000000
10
7.1721889708
20
-17.6447129490
30
0.0000000000
10
7.2384923005
20
-17.6861118411
30
0.0000000000
10
7.2834814354
20
-17.7484572309
30
0.0000000000
10
7.2942622336
20
-17.7984003847
30
0.0000000000
10
7.2943399663
20
-17.8228748244
30
0.0000000000
11
7.0943475817
21
-17.6349363003
31
0.0000000000
11
7.1707438050
21
-17.6494029253
31
0.0000000000
11
7.2355529856
21
-17.6901800957
31
0.0000000000
11
7.2789454917
21
-17.7510831235
31
0.0000000000
11
7.2943399663
21
-17.8228748244
31
0.0000000000
0
SPLINE
5
446
100
AcDbEntity
8
0
100
AcDbSpline
62
7
6
CONTINUOUS
70
0
71
3
72
11
73
7
74
5
42
0.0000001000
43
0.0000001000
44
0.0000000001
12
0.0000000000
22
0.3213282478
32
0.0000000000
13
0.3213282478
23
0.0000000000
33
0.0000000000
40
0.0000000000
40
0.0000000000
40
0.0000000000
40
0.0000000000
40
0.2614757217
40
0.5155836747
40
0.7620699714
40
1.0000000000
40
1.0000000000
40
1.0000000000
40
1.0000000000
10
6.5196631140
20
-11.0159962038
30
0.0000000000
10
6.5196631140
20
-10.9879896920
30
0.0000000000
10
6.5300928929
20
-10.9321885709
30
0.0000000000
10
6.5747927126
20
-10.8615521341
30
0.0000000000
10
6.6411149658
20
-10.8146957867
30
0.0000000000
10
6.6935892303
20
-10.8037958891
30
0.0000000000
10
6.7190737767
20
-10.8037958891
30
0.0000000000
11
6.5196631140
21
-11.0159962038
31
0.0000000000
11
6.5353375549
21
-10.9334517052
31
0.0000000000
11
6.5792574925
21
-10.8646178580
31
0.0000000000
11
6.6442062507
21
-10.8192882256
31
0.0000000000
11
6.7190737767
21
-10.8037958891
31
0.0000000000
0
SPLINE
5
447
100
AcDbEntity
8
0
100
AcDbSpline
62
9
6
CONTINUOUS
70
0
71
3
72
11
73
7
74
5
42
0.0000001000
43
0.0000001000
44
0.0000000001
12
0.0009608481
22
0.3025265913
32
0.0000000000
13
0.3025269272
23
0.0008485158
33
0.0000000000
40
0.0000000000
40
0.0000000000
40
0.0000000000
40
0.0000000000
40
0.2427003815
40
0.4898849011
40
0.7429862625
40
1.0000000000
40
1.0000000000
40
1.0000000000
40
1.0000000000
10
6.6828707727
20
-17.8228748244
30
0.0000000000
10
6.6829485054
20
-17.7984003847
30
0.0000000000
10
6.6937293036
20
-17.7484572309
30
0.0000000000
10
6.7387184385
20
-17.6861118411
30
0.0000000000
10
6.8050217682
20
-17.6447129490
30
0.0000000000
10
6.8569452986
20
-17.6350089937
30
0.0000000000
10
6.8828631573
20
-17.6349363003
30
0.0000000000
11
6.6828707727
21
-17.8228748244
31
0.0000000000
11
6.6982652473
21
-17.7510831235
31
0.0000000000
11
6.7416577534
21
-17.6901800957
31
0.0000000000
11
6.8064669340
21
-17.6494029253
31
0.0000000000
11
6.8828631573
21
-17.6349363003
31
0.0000000000
0
SPLINE
5
448
100
AcDbEntity
8
0
100
AcDbSpline
62
7
6
CONTINUOUS
70
0
71
3
72
11
73
7
74
5
42
0.0000001000
43
0.0000001000
44
0.0000000001
12
0.0000000000
22
-0.3213282478
32
0.0000000000
13
-0.3213282478
23
0.0000000000
33
0.0000000000
40
0.0000000000
40
0.0000000000
40
0.0000000000
40
0.0000000000
40
0.2614757217
40
0.5155836747
40
0.7620699714
40
1.0000000000
40
1.0000000000
40
1.0000000000
40
1.0000000000
10
7.4575476251
20
12.6503295703
30
0.0000000000
10
7.4575476251
20
12.6223230584
30
0.0000000000
10
7.4471178461
20
12.5665219373
30
0.0000000000
10
7.4024180264
20
12.4958855005
30
0.0000000000
10
7.3360957732
20
12.4490291532
30
0.0000000000
10
7.2836215087
20
12.4381292556
30
0.0000000000
10
7.2581369623
20
12.4381292556
30
0.0000000000
11
7.4575476251
21
12.6503295703
31
0.0000000000
11
7.4418731841
21
12.5677850717
31
0.0000000000
11
7.3979532465
21
12.4989512244
31
0.0000000000
11
7.3330044883
21
12.4536215920
31
0.0000000000
11
7.2581369623
21
12.4381292556
31
0.0000000000
0
SPLINE
5
449
100
AcDbEntity
8
0
100
AcDbSpline
62
9
6
CONTINUOUS
70
0
71
3
72
11
73
7
74
5
42
0.0000001000
43
0.0000001000
44
0.0000000001
12
-0.0009608481
22
-0.3025265913
32
0.0000000000
13
-0.3025269272
23
-0.0008485158
33
0.0000000000
40
0.0000000000
40
0.0000000000
40
0.0000000000
40
0.0000000000
40
0.2427003815
40
0.4898849011
40
0.7429862625
40
1.0000000000
40
1.0000000000
40
1.0000000000
40
1.0000000000
10
7.2943399663
20
19.4572081909
30
0.0000000000
10
7.2942622336
20
19.4327337512
30
0.0000000000
10
7.2834814354
20
19.3827905973
30
0.0000000000
10
7.2384923005
20
19.3204452076
30
0.0000000000
10
7.1721889708
20
19.2790463155
30
0.0000000000
10
7.1202654404
20
19.2693423601
30
0.0000000000
10
7.0943475817
20
19.2692696667
30
0.0000000000
11
7.2943399663
21
19.4572081909
31
0.0000000000
11
7.2789454917
21
19.3854164900
31
0.0000000000
11
7.2355529856
21
19.3245134622
31
0.0000000000
11
7.1707438050
21
19.2837362917
31
0.0000000000
11
7.0943475817
21
19.2692696667
31
0.0000000000
0
SPLINE
5
44A
100
AcDbEntity
8
0
100
AcDbSpline
62
9
6
CONTINUOUS
70
0
71
3
72
11
73
7
74
5
42
0.0000001000
43
0.0000001000
44
0.0000000001
12
-0.3025269272
22
0.0008485158
32
0.0000000000
13
-0.0009608481
23
0.3025265913
33
0.0000000000
40
0.0000000000
40
0.0000000000
40
0.0000000000
40
0.0000000000
40
0.2570137375
40
0.5101150989
40
0.7572996185
40
1.0000000000
40
1.0000000000
40
1.0000000000
40
1.0000000000
10
6.8828631573
20
19.2692696667
30
0.0000000000
10
6.8569452986
20
19.2693423601
30
0.0000000000
10
6.8050217682
20
19.2790463155
30
0.0000000000
10
6.7387184385
20
19.3204452076
30
0.0000000000
10
6.6937293036
20
19.3827905973
30
0.0000000000
10
6.6829485054
20
19.4327337512
30
0.0000000000
10
6.6828707727
20
19.4572081909
30
0.0000000000
11
6.8828631573
21
19.2692696667
31
0.0000000000
11
6.8064669340
21
19.2837362917
31
0.0000000000
11
6.7416577534
21
19.3245134622
31
0.0000000000
11
6.6982652473
21
19.3854164900
31
0.0000000000
11
6.6828707727
21
19.4572081909
31
0.0000000000
0
SPLINE
5
44B
100
AcDbEntity
8
0
100
AcDbSpline
62
7
6
CONTINUOUS
70
0
71
3
72
11
73
7
74
5
42
0.0000001000
43
0.0000001000
44
0.0000000001
12
-0.3213282478
22
0.0000000000
32
0.0000000000
13
0.0000000000
23
0.3213282478
33
0.0000000000
40
0.0000000000
40
0.0000000000
40
0.0000000000
40
0.0000000000
40
0.2379300286
40
0.4844163253
40
0.7385242783
40
1.0000000000
40
1.0000000000
40
1.0000000000
40
1.0000000000
10
6.7190737767
20
12.4381292556
30
0.0000000000
10
6.6935892303
20
12.4381292556
30
0.0000000000
10
6.6411149658
20
12.4490291532
30
0.0000000000
10
6.5747927126
20
12.4958855005
30
0.0000000000
10
6.5300928929
20
12.5665219373
30
0.0000000000
10
6.5196631140
20
12.6223230584
30
0.0000000000
10
6.5196631140
20
12.6503295703
30
0.0000000000
11
6.7190737767
21
12.4381292556
31
0.0000000000
11
6.6442062507
21
12.4536215920
31
0.0000000000
11
6.5792574925
21
12.4989512244
31
0.0000000000
11
6.5353375549
21
12.5677850717
31
0.0000000000
11
6.5196631140
21
12.6503295703
31
0.0000000000
0
SPLINE
5
44C
100
AcDbEntity
8
0
100
AcDbSpline
62
7
6
CONTINUOUS
70
0
71
3
72
11
73
7
74
5
42
0.0000001000
43
0.0000001000
44
0.0000000001
12
0.0000000000
22
-0.3213282478
32
0.0000000000
13
-0.3213282478
23
0.0000000000
33
0.0000000000
40
0.0000000000
40
0.0000000000
40
0.0000000000
40
0.0000000000
40
0.2614757217
40
0.5155836747
40
0.7620699714
40
1.0000000000
40
1.0000000000
40
1.0000000000
40
1.0000000000
10
-6.3424523749
20
12.6503295703
30
0.0000000000
10
-6.3424523749
20
12.6223230584
30
0.0000000000
10
-6.3528821539
20
12.5665219373
30
0.0000000000
10
-6.3975819736
20
12.4958855005
30
0.0000000000
10
-6.4639042268
20
12.4490291532
30
0.0000000000
10
-6.5163784913
20
12.4381292556
30
0.0000000000
10
-6.5418630377
20
12.4381292556
30
0.0000000000
11
-6.3424523749
21
12.6503295703
31
0.0000000000
11
-6.3581268159
21
12.5677850717
31
0.0000000000
11
-6.4020467535
21
12.4989512244
31
0.0000000000
11
-6.4669955117
21
12.4536215920
31
0.0000000000
11
-6.5418630377
21
12.4381292556
31
0.0000000000
0
SPLINE
5
44D
100
AcDbEntity
8
0
100
AcDbSpline
62
9
6
CONTINUOUS
70
0
71
3
72
11
73
7
74
5
42
0.0000001000
43
0.0000001000
44
0.0000000001
12
-0.0009608481
22
-0.3025265913
32
0.0000000000
13
-0.3025269272
23
-0.0008485158
33
0.0000000000
40
0.0000000000
40
0.0000000000
40
0.0000000000
40
0.0000000000
40
0.2427003815
40
0.4898849011
40
0.7429862625
40
1.0000000000
40
1.0000000000
40
1.0000000000
40
1.0000000000
10
-6.5056600337
20
19.4572081909
30
0.0000000000
10
-6.5057377664
20
19.4327337512
30
0.0000000000
10
-6.5165185646
20
19.3827905973
30
0.0000000000
10
-6.5615076995
20
19.3204452076
30
0.0000000000
10
-6.6278110292
20
19.2790463155
30
0.0000000000
10
-6.6797345596
20
19.2693423601
30
0.0000000000
10
-6.7056524183
20
19.2692696667
30
0.0000000000
11
-6.5056600337
21
19.4572081909
31
0.0000000000
11
-6.5210545083
21
19.3854164900
31
0.0000000000
11
-6.5644470144
21
19.3245134622
31
0.0000000000
11
-6.6292561950
21
19.2837362917
31
0.0000000000
11
-6.7056524183
21
19.2692696667
31
0.0000000000
0
SPLINE
5
44E
100
AcDbEntity
8
0
100
AcDbSpline
62
7
6
CONTINUOUS
70
0
71
3
72
11
73
7
74
5
42
0.0000001000
43
0.0000001000
44
0.0000000001
12
-0.3213282478
22
0.0000000000
32
0.0000000000
13
-0.0000000000
23
0.3213282478
33
0.0000000000
40
0.0000000000
40
0.0000000000
40
0.0000000000
40
0.0000000000
40
0.2379300286
40
0.4844163253
40
0.7385242783
40
1.0000000000
40
1.0000000000
40
1.0000000000
40
1.0000000000
10
-7.0809262233
20
12.4381292556
30
0.0000000000
10
-7.1064107697
20
12.4381292556
30
0.0000000000
10
-7.1588850342
20
12.4490291532
30
0.0000000000
10
-7.2252072874
20
12.4958855005
30
0.0000000000
10
-7.2699071071
20
12.5665219373
30
0.0000000000
10
-7.2803368860
20
12.6223230584
30
0.0000000000
10
-7.2803368860
20
12.6503295703
30
0.0000000000
11
-7.0809262233
21
12.4381292556
31
0.0000000000
11
-7.1557937493
21
12.4536215920
31
0.0000000000
11
-7.2207425075
21
12.4989512244
31
0.0000000000
11
-7.2646624451
21
12.5677850717
31
0.0000000000
11
-7.2803368860
21
12.6503295703
31
0.0000000000
0
SPLINE
5
44F
100
AcDbEntity
8
0
100
AcDbSpline
62
9
6
CONTINUOUS
70
0
71
3
72
11
73
7
74
5
42
0.0000001000
43
0.0000001000
44
0.0000000001
12
-0.3025269272
22
0.0008485158
32
0.0000000000
13
-0.0009608481
23
0.3025265913
33
0.0000000000
40
0.0000000000
40
0.0000000000
40
0.0000000000
40
0.0000000000
40
0.2570137375
40
0.5101150989
40
0.7572996185
40
1.0000000000
40
1.0000000000
40
1.0000000000
40
1.0000000000
10
-6.9171368427
20
19.2692696667
30
0.0000000000
10
-6.9430547014
20
19.2693423601
30
0.0000000000
10
-6.9949782318
20
19.2790463155
30
0.0000000000
10
-7.0612815615
20
19.3204452076
30
0.0000000000
10
-7.1062706964
20
19.3827905973
30
0.0000000000
10
-7.1170514946
20
19.4327337512
30
0.0000000000
10
-7.1171292273
20
19.4572081909
30
0.0000000000
11
-6.9171368427
21
19.2692696667
31
0.0000000000
11
-6.9935330660
21
19.2837362917
31
0.0000000000
11
-7.0583422466
21
19.3245134622
31
0.0000000000
11
-7.1017347527
21
19.3854164900
31
0.0000000000
11
-7.1171292273
21
19.4572081909
31
0.0000000000
0
SPLINE
5
450
100
AcDbEntity
8
0
100
AcDbSpline
62
9
6
CONTINUOUS
70
0
71
3
72
12
73
8
74
6
42
0.0000001000
43
0.0000001000
44
0.0000000001
12
0.0000649432
22
0.7820134910
32
0.0000000000
13
-0.7820134822
23
0.0001341188
33
0.0000000000
40
0.0000000000
40
0.0000000000
40
0.0000000000
40
0.0000000000
40
0.2001206409
40
0.4002165290
40
0.6003496668
40
0.7999979666
40
1.0000000000
40
1.0000000000
40
1.0000000000
40
1.0000000000
10
3.5069813044
20
2.2356187705
30
0.0000000000
10
3.5069856365
20
2.2877844509
30
0.0000000000
10
3.4903459437
20
2.3928422330
30
0.0000000000
10
3.4180885044
20
2.5344423666
30
0.0000000000
10
3.3055948944
20
2.6468321189
30
0.0000000000
10
3.1641013710
20
2.7189465152
30
0.0000000000
10
3.0591922190
20
2.7355336768
30
0.0000000000
10
3.0070574568
20
2.7355426181
30
0.0000000000
11
3.5069813044
21
2.2356187705
31
0.0000000000
11
3.4824614551
21
2.3901829999
31
0.0000000000
11
3.4113735160
21
2.5295808861
31
0.0000000000
11
3.3006568838
21
2.6401982910
31
0.0000000000
11
3.1615323782
21
2.7110517987
31
0.0000000000
11
3.0070574568
21
2.7355426181
31
0.0000000000
0
SPLINE
5
451
100
AcDbEntity
8
0
100
AcDbSpline
62
9
6
CONTINUOUS
70
0
71
3
72
15
73
11
74
9
42
0.0000001000
43
0.0000001000
44
0.0000000001
12
0.0002496411
22
0.7840892725
32
0.0000000000
13
-0.7840892823
23
-0.0002167168
33
0.0000000000
40
0.0000000000
40
0.0000000000
40
0.0000000000
40
0.0000000000
40
0.1130253348
40
0.2385067528
40
0.3718249837
40
0.5083356735
40
0.6438636750
40
0.7741493241
40
0.8919593743
40
1.0000000000
40
1.0000000000
40
1.0000000000
40
1.0000000000
10
3.6800301535
20
2.4086676196
30
0.0000000000
10
3.6800395587
20
2.4382082705
30
0.0000000000
10
3.6745096178
20
2.5006802889
30
0.0000000000
10
3.6478883879
20
2.5947804108
30
0.0000000000
10
3.5999154596
20
2.6871529447
30
0.0000000000
10
3.5318570377
20
2.7694115243
30
0.0000000000
10
3.4485268580
20
2.8348478568
30
0.0000000000
10
3.3578942206
20
2.8793736059
30
0.0000000000
10
3.2674921575
20
2.9035973882
30
0.0000000000
10
3.2083441381
20
2.9085992719
30
0.0000000000
10
3.1801063059
20
2.9085914672
30
0.0000000000
11
3.6800301535
21
2.4086676196
31
0.0000000000
11
3.6722054949
21
2.4969434713
31
0.0000000000
11
3.6454220958
21
2.5916164545
31
0.0000000000
11
3.5972371114
21
2.6843819599
31
0.0000000000
11
3.5290051024
21
2.7668514748
31
0.0000000000
11
3.4454280102
21
2.8324818385
31
0.0000000000
11
3.3537435218
21
2.8775342316
31
0.0000000000
11
3.2645176545
21
2.9014429498
31
0.0000000000
11
3.1801063059
21
2.9085914672
31
0.0000000000
0
SPLINE
5
452
100
AcDbEntity
8
0
100
AcDbSpline
62
9
6
CONTINUOUS
70
0
71
3
72
12
73
8
74
6
42
0.0000001000
43
0.0000001000
44
0.0000000001
12
0.7820134910
22
-0.0000649432
32
0.0000000000
13
0.0001341188
23
0.7820134822
33
0.0000000000
40
0.0000000000
40
0.0000000000
40
0.0000000000
40
0.0000000000
40
0.2001206409
40
0.4002165290
40
0.6003496668
40
0.7999979666
40
1.0000000000
40
1.0000000000
40
1.0000000000
40
1.0000000000
10
3.0070574568
20
-4.4012092517
30
0.0000000000
10
3.0592231371
20
-4.4012135838
30
0.0000000000
10
3.1642809193
20
-4.3845738910
30
0.0000000000
10
3.3058810529
20
-4.3123164516
30
0.0000000000
10
3.4182708052
20
-4.1998228416
30
0.0000000000
10
3.4903852015
20
-4.0583293183
30
0.0000000000
10
3.5069723630
20
-3.9534201663
30
0.0000000000
10
3.5069813044
20
-3.9012854041
30
0.0000000000
11
3.0070574568
21
-4.4012092517
31
0.0000000000
11
3.1616216862
21
-4.3766894024
31
0.0000000000
11
3.3010195723
21
-4.3056014632
31
0.0000000000
11
3.4116369772
21
-4.1948848310
31
0.0000000000
11
3.4824904850
21
-4.0557603255
31
0.0000000000
11
3.5069813044
21
-3.9012854041
31
0.0000000000
0
SPLINE
5
453
100
AcDbEntity
8
0
100
AcDbSpline
62
7
6
CONTINUOUS
70
0
71
3
72
20
73
16
74
14
42
0.0000001000
43
0.0000001000
44
0.0000000001
12
-0.4646867855
22
0.4881752433
32
0.0000000000
13
0.0000000000
23
0.6739798786
33
0.0000000000
40
0.0000000000
40
0.0000000000
40
0.0000000000
40
0.0000000000
40
0.1388713231
40
0.2749115227
40
0.4037834237
40
0.5214526785
40
0.6254136342
40
0.7150230414
40
0.7908650114
40
0.8533989954
40
0.9034986065
40
0.9422325024
40
0.9708206345
40
0.9898666645
40
1.0000000000
40
1.0000000000
40
1.0000000000
40
1.0000000000
10
4.0416480794
20
24.2735244979
30
0.0000000000
10
4.0201375232
20
24.2961223453
30
0.0000000000
10
3.9775548793
20
24.3408572921
30
0.0000000000
10
3.9150577371
20
24.4066078231
30
0.0000000000
10
3.8559361864
20
24.4689951768
30
0.0000000000
10
3.8019109052
20
24.5262826438
30
0.0000000000
10
3.7541171161
20
24.5773224934
30
0.0000000000
10
3.7129667805
20
24.6217069976
30
0.0000000000
10
3.6783993518
20
24.6595071927
30
0.0000000000
10
3.6501378674
20
24.6910285267
30
0.0000000000
10
3.6277690319
20
24.7166733484
30
0.0000000000
10
3.6109205112
20
24.7369037479
30
0.0000000000
10
3.5988740619
20
24.7522870524
30
0.0000000000
10
3.5918695569
20
24.7629299731
30
0.0000000000
10
3.5886053695
20
24.7690380726
30
0.0000000000
10
3.5886053695
20
24.7713146273
30
0.0000000000
11
4.0416480794
21
24.2735244979
31
0.0000000000
11
3.9771245538
21
24.3413257902
31
0.0000000000
11
3.9139653933
21
24.4077913850
31
0.0000000000
11
3.8542317116
21
24.4708472140
31
0.0000000000
11
3.7998340211
21
24.5285572264
31
0.0000000000
11
3.7519589929
21
24.5797182386
31
0.0000000000
11
3.7109182759
21
24.6240263417
31
0.0000000000
11
3.6764511432
21
24.6617736372
31
0.0000000000
11
3.6483486804
21
24.6931836901
31
0.0000000000
11
3.6262106660
21
24.7186799612
31
0.0000000000
11
3.6095540721
21
24.7387815568
31
0.0000000000
11
3.5978558370
21
24.7540916975
31
0.0000000000
11
3.5909055608
21
24.7648839638
31
0.0000000000
11
3.5886053695
21
24.7713146273
31
0.0000000000
0
SPLINE
5
454
100
AcDbEntity
8
0
100
AcDbSpline
62
7
6
CONTINUOUS
70
0
71
3
72
20
73
16
74
14
42
0.0000001000
43
0.0000001000
44
0.0000000001
12
-0.0392566671
22
-0.6725884001
32
0.0000000000
13
-0.4645166152
23
-0.4879964714
33
0.0000000000
40
0.0000000000
40
0.0000000000
40
0.0000000000
40
0.0000000000
40
0.0105350590
40
0.0299438888
40
0.0588398542
40
0.0978545055
40
0.1482120786
40
0.2109386931
40
0.2868777404
40
0.3764553953
40
0.4802422333
40
0.5976470591
40
0.7262204869
40
0.8618061527
40
1.0000000000
40
1.0000000000
40
1.0000000000
40
1.0000000000
10
4.4946831225
20
24.7710589563
30
0.0000000000
10
4.4945452654
20
24.7686970368
30
0.0000000000
10
4.4911890129
20
24.7625171866
30
0.0000000000
10
4.4839666196
20
24.7516792634
30
0.0000000000
10
4.4717841405
20
24.7361724910
30
0.0000000000
10
4.4547901208
20
24.7158143439
30
0.0000000000
10
4.4323098101
20
24.6900712017
30
0.0000000000
10
4.4039638323
20
24.6584790837
30
0.0000000000
10
4.3693620870
20
24.6206580118
30
0.0000000000
10
4.3282373269
20
24.5763130691
30
0.0000000000
10
4.2805293451
20
24.5253727467
30
0.0000000000
10
4.2266350049
20
24.4682289152
30
0.0000000000
10
4.1676910208
20
24.4060314591
30
0.0000000000
10
4.1054376277
20
24.3405382949
30
0.0000000000
10
4.0630458588
20
24.2960038679
30
0.0000000000
10
4.0416480794
20
24.2735244979
30
0.0000000000
11
4.4946831225
21
24.7710589563
31
0.0000000000
11
4.4921441086
21
24.7644308025
31
0.0000000000
11
4.4850003566
21
24.7534782562
31
0.0000000000
11
4.4731445371
21
24.7380364596
31
0.0000000000
11
4.4563499896
21
24.7178159598
31
0.0000000000
11
4.4340895340
21
24.6922122182
31
0.0000000000
11
4.4058986383
21
24.6607278565
31
0.0000000000
11
4.3713911145
21
24.6229542248
31
0.0000000000
11
4.3303736543
21
24.5786838870
31
0.0000000000
11
4.2825920890
21
24.5276312170
31
0.0000000000
11
4.2283339368
21
24.4700744112
31
0.0000000000
11
4.1687590409
21
24.4071889717
31
0.0000000000
11
4.1058334028
21
24.3409702361
31
0.0000000000
11
4.0416480794
21
24.2735244979
31
0.0000000000
0
SPLINE
5
455
100
AcDbEntity
8
0
100
AcDbSpline
62
7
6
CONTINUOUS
70
0
71
3
72
20
73
16
74
14
42
0.0000001000
43
0.0000001000
44
0.0000000001
12
-0.4645165876
22
0.4879964425
32
0.0000000000
13
-0.0392566647
23
0.6725883602
33
0.0000000000
40
0.0000000000
40
0.0000000000
40
0.0000000000
40
0.0000000000
40
0.1382329167
40
0.2737962112
40
0.4023280308
40
0.5197265990
40
0.6235247092
40
0.7131061512
40
0.7890389568
40
0.8517593797
40
0.9021124849
40
0.9411324929
40
0.9700381349
40
0.9894583388
40
1.0000000000
40
1.0000000000
40
1.0000000000
40
1.0000000000
10
-3.8644373404
20
24.2735244979
30
0.0000000000
10
-3.8858411680
20
24.2960102218
30
0.0000000000
10
-3.9282355200
20
24.3405473623
30
0.0000000000
10
-3.9904850386
20
24.4060364837
30
0.0000000000
10
-4.0494181675
20
24.4682224884
30
0.0000000000
10
-4.1033069038
20
24.5253603020
30
0.0000000000
10
-4.1510162879
20
24.5763020139
30
0.0000000000
10
-4.1921424434
20
24.6206483578
30
0.0000000000
10
-4.2267429492
20
24.6584679285
30
0.0000000000
10
-4.2550865232
20
24.6900570970
30
0.0000000000
10
-4.2775663070
20
24.7157991219
30
0.0000000000
10
-4.2945622057
20
24.7361587506
30
0.0000000000
10
-4.3067490189
20
24.7516697735
30
0.0000000000
10
-4.3139752290
20
24.7625123223
30
0.0000000000
10
-4.3173344400
20
24.7686955567
30
0.0000000000
10
-4.3174723834
20
24.7710589563
30
0.0000000000
11
-3.8644373404
21
24.2735244979
31
0.0000000000
11
-3.9286408015
21
24.3409893043
31
0.0000000000
11
-3.9915560388
21
24.4071971238
31
0.0000000000
11
-4.0511116578
21
24.4700622035
31
0.0000000000
11
-4.1053669565
21
24.5276158988
31
0.0000000000
11
-4.1531537614
21
24.5786740611
31
0.0000000000
11
-4.1941730058
21
24.6229462192
31
0.0000000000
11
-4.2286777726
21
24.6607166696
31
0.0000000000
11
-4.2568660396
21
24.6921977823
31
0.0000000000
11
-4.2791248033
21
24.7177990034
31
0.0000000000
11
-4.2959221058
21
24.7380219044
31
0.0000000000
11
-4.3077825172
21
24.7534683934
31
0.0000000000
11
-4.3149312035
21
24.7644268694
31
0.0000000000
11
-4.3174723834
21
24.7710589563
31
0.0000000000
0
SPLINE
5
456
100
AcDbEntity
8
0
100
AcDbSpline
62
7
6
CONTINUOUS
70
0
71
3
72
11
73
7
74
5
42
0.0000001000
43
0.0000001000
44
0.0000000001
12
0.0000000000
22
-0.0650167575
32
0.0000000000
13
-0.0420659776
23
-0.0494993135
33
0.0000000000
40
0.0000000000
40
0.0000000000
40
0.0000000000
40
0.0000000000
40
0.1049754499
40
0.3022888118
40
0.5985372888
40
1.0000000000
40
1.0000000000
40
1.0000000000
40
1.0000000000
10
-3.4113946305
20
24.7713146273
30
0.0000000000
10
-3.4113946305
20
24.7690395729
30
0.0000000000
10
-3.4146556843
20
24.7629350058
30
0.0000000000
10
-3.4216563175
20
24.7522968214
30
0.0000000000
10
-3.4336981830
20
24.7369180074
30
0.0000000000
10
-3.4433555317
20
24.7253217441
30
0.0000000000
10
-3.4489848388
20
24.7186977012
30
0.0000000000
11
-3.4113946305
21
24.7713146273
31
0.0000000000
11
-3.4136926685
21
24.7648879737
31
0.0000000000
11
-3.4206378210
21
24.7541018827
31
0.0000000000
11
-3.4323313165
21
24.7387965657
31
0.0000000000
11
-3.4489848388
21
24.7186977012
31
0.0000000000
0
SPLINE
5
457
100
AcDbEntity
8
0
100
AcDbSpline
62
7
6
CONTINUOUS
70
0
71
3
72
16
73
12
74
10
42
0.0000001000
43
0.0000001000
44
0.0000000001
12
-0.3940004393
22
-0.4636229176
32
0.0000000000
13
-0.4198599192
23
-0.4410825197
33
0.0000000000
40
0.0000000000
40
0.0000000000
40
0.0000000000
40
0.0000000000
40
0.0554530572
40
0.1246695785
40
0.2086153044
40
0.3077875392
40
0.4228360716
40
0.5530765658
40
0.6957543055
40
0.8463438697
40
1.0000000000
40
1.0000000000
40
1.0000000000
40
1.0000000000
10
-3.4489848388
20
24.7186977012
30
0.0000000000
10
-3.4562676818
20
24.7101279318
30
0.0000000000
10
-3.4729136825
20
24.6910436580
30
0.0000000000
10
-3.5011773111
20
24.6595196317
30
0.0000000000
10
-3.5357457467
20
24.6217181633
30
0.0000000000
10
-3.5768946436
20
24.5773350878
30
0.0000000000
10
-3.6246872286
20
24.5262964026
30
0.0000000000
10
-3.6787184376
20
24.4690025669
30
0.0000000000
10
-3.7378511123
20
24.4066034751
30
0.0000000000
10
-3.8003524062
20
24.3408486087
30
0.0000000000
10
-3.8429326569
20
24.2961161756
30
0.0000000000
10
-3.8644373404
20
24.2735244979
30
0.0000000000
11
-3.4489848388
21
24.7186977012
31
0.0000000000
11
-3.4711243432
21
24.6931990955
31
0.0000000000
11
-3.4992290778
21
24.6617861571
31
0.0000000000
11
-3.5336987412
21
24.6240359000
31
0.0000000000
11
-3.5747375612
21
24.5797297187
31
0.0000000000
11
-3.6226075596
21
24.5285739611
31
0.0000000000
11
-3.6770086024
21
24.4708603007
31
0.0000000000
11
-3.7367618220
21
24.4077838324
31
0.0000000000
11
-3.7999314263
21
24.3413072750
31
0.0000000000
11
-3.8644373404
21
24.2735244979
31
0.0000000000
0
SPLINE
5
458
100
AcDbEntity
8
0
100
AcDbSpline
62
9
6
CONTINUOUS
70
0
71
3
72
15
73
11
74
9
42
0.0000001000
43
0.0000001000
44
0.0000000001
12
0.7840892725
22
-0.0002496411
32
0.0000000000
13
-0.0002167168
23
0.7840892823
33
0.0000000000
40
0.0000000000
40
0.0000000000
40
0.0000000000
40
0.0000000000
40
0.1130253348
40
0.2385067528
40
0.3718249837
40
0.5083356735
40
0.6438636750
40
0.7741493241
40
0.8919593743
40
1.0000000000
40
1.0000000000
40
1.0000000000
40
1.0000000000
10
3.1801063059
20
-4.5742581008
30
0.0000000000
10
3.2096469568
20
-4.5742675060
30
0.0000000000
10
3.2721189751
20
-4.5687375651
30
0.0000000000
10
3.3662190971
20
-4.5421163351
30
0.0000000000
10
3.4585916310
20
-4.4941434069
30
0.0000000000
10
3.5408502106
20
-4.4260849850
30
0.0000000000
10
3.6062865431
20
-4.3427548053
30
0.0000000000
10
3.6508122922
20
-4.2521221678
30
0.0000000000
10
3.6750360745
20
-4.1617201048
30
0.0000000000
10
3.6800379582
20
-4.1025720854
30
0.0000000000
10
3.6800301535
20
-4.0743342532
30
0.0000000000
11
3.1801063059
21
-4.5742581008
31
0.0000000000
11
3.2683821576
21
-4.5664334422
31
0.0000000000
11
3.3630551408
21
-4.5396500430
31
0.0000000000
11
3.4558206462
21
-4.4914650586
31
0.0000000000
11
3.5382901611
21
-4.4232330497
31
0.0000000000
11
3.6039205248
21
-4.3396559575
31
0.0000000000
11
3.6489729179
21
-4.2479714691
31
0.0000000000
11
3.6728816361
21
-4.1587456017
31
0.0000000000
11
3.6800301535
21
-4.0743342532
31
0.0000000000
0
SPLINE
5
459
100
AcDbEntity
8
0
100
AcDbSpline
62
9
6
CONTINUOUS
70
0
71
3
72
12
73
8
74
6
42
0.0000001000
43
0.0000001000
44
0.0000000001
12
-0.0000649432
22
-0.7820134910
32
0.0000000000
13
0.7820134822
23
-0.0001341188
33
0.0000000000
40
0.0000000000
40
0.0000000000
40
0.0000000000
40
0.0000000000
40
0.2001206409
40
0.4002165290
40
0.6003496668
40
0.7999979666
40
1.0000000000
40
1.0000000000
40
1.0000000000
40
1.0000000000
10
-3.3297705654
20
-3.9012854041
30
0.0000000000
10
-3.3297748975
20
-3.9534510844
30
0.0000000000
10
-3.3131352047
20
-4.0585088665
30
0.0000000000
10
-3.2408777654
20
-4.2001090001
30
0.0000000000
10
-3.1283841554
20
-4.3124987525
30
0.0000000000
10
-2.9868906320
20
-4.3846131487
30
0.0000000000
10
-2.8819814800
20
-4.4012003103
30
0.0000000000
10
-2.8298467178
20
-4.4012092517
30
0.0000000000
11
-3.3297705654
21
-3.9012854041
31
0.0000000000
11
-3.3052507161
21
-4.0558496334
31
0.0000000000
11
-3.2341627770
21
-4.1952475196
31
0.0000000000
11
-3.1234461448
21
-4.3058649245
31
0.0000000000
11
-2.9843216392
21
-4.3767184322
31
0.0000000000
11
-2.8298467178
21
-4.4012092517
31
0.0000000000
0
SPLINE
5
45A
100
AcDbEntity
8
0
100
AcDbSpline
62
9
6
CONTINUOUS
70
0
71
3
72
15
73
11
74
9
42
0.0000001000
43
0.0000001000
44
0.0000000001
12
-0.0002496411
22
-0.7840892725
32
0.0000000000
13
0.7840892823
23
0.0002167168
33
0.0000000000
40
0.0000000000
40
0.0000000000
40
0.0000000000
40
0.0000000000
40
0.1130253348
40
0.2385067528
40
0.3718249837
40
0.5083356735
40
0.6438636750
40
0.7741493241
40
0.8919593743
40
1.0000000000
40
1.0000000000
40
1.0000000000
40
1.0000000000
10
-3.5028194145
20
-4.0743342532
30
0.0000000000
10
-3.5028288197
20
-4.1038749040
30
0.0000000000
10
-3.4972988788
20
-4.1663469224
30
0.0000000000
10
-3.4706776489
20
-4.2604470444
30
0.0000000000
10
-3.4227047206
20
-4.3528195783
30
0.0000000000
10
-3.3546462987
20
-4.4350781579
30
0.0000000000
10
-3.2713161190
20
-4.5005144904
30
0.0000000000
10
-3.1806834815
20
-4.5450402395
30
0.0000000000
10
-3.0902814185
20
-4.5692640218
30
0.0000000000
10
-3.0311333991
20
-4.5742659055
30
0.0000000000
10
-3.0028955669
20
-4.5742581008
30
0.0000000000
11
-3.5028194145
21
-4.0743342532
31
0.0000000000
11
-3.4949947559
21
-4.1626101048
31
0.0000000000
11
-3.4682113568
21
-4.2572830881
31
0.0000000000
11
-3.4200263724
21
-4.3500485935
31
0.0000000000
11
-3.3517943634
21
-4.4325181084
31
0.0000000000
11
-3.2682172712
21
-4.4981484720
31
0.0000000000
11
-3.1765327828
21
-4.5432008652
31
0.0000000000
11
-3.0873069154
21
-4.5671095834
31
0.0000000000
11
-3.0028955669
21
-4.5742581008
31
0.0000000000
0
SPLINE
5
45B
100
AcDbEntity
8
0
100
AcDbSpline
62
9
6
CONTINUOUS
70
0
71
3
72
12
73
8
74
6
42
0.0000001000
43
0.0000001000
44
0.0000000001
12
-0.7820134910
22
0.0000649432
32
0.0000000000
13
-0.0001341188
23
-0.7820134822
33
0.0000000000
40
0.0000000000
40
0.0000000000
40
0.0000000000
40
0.0000000000
40
0.2001206409
40
0.4002165290
40
0.6003496668
40
0.7999979666
40
1.0000000000
40
1.0000000000
40
1.0000000000
40
1.0000000000
10
-2.8298467178
20
2.7355426181
30
0.0000000000
10
-2.8820123981
20
2.7355469503
30
0.0000000000
10
-2.9870701803
20
2.7189072574
30
0.0000000000
10
-3.1286703138
20
2.6466498181
30
0.0000000000
10
-3.2410600662
20
2.5341562081
30
0.0000000000
10
-3.3131744625
20
2.3926626847
30
0.0000000000
10
-3.3297616240
20
2.2877535327
30
0.0000000000
10
-3.3297705654
20
2.2356187705
30
0.0000000000
11
-2.8298467178
21
2.7355426181
31
0.0000000000
11
-2.9844109472
21
2.7110227688
31
0.0000000000
11
-3.1238088333
21
2.6399348297
31
0.0000000000
11
-3.2344262382
21
2.5292181975
31
0.0000000000
11
-3.3052797460
21
2.3900936919
31
0.0000000000
11
-3.3297705654
21
2.2356187705
31
0.0000000000
0
SPLINE
5
45C
100
AcDbEntity
8
0
100
AcDbSpline
62
9
6
CONTINUOUS
70
0
71
3
72
15
73
11
74
9
42
0.0000001000
43
0.0000001000
44
0.0000000001
12
-0.7840892725
22
0.0002496411
32
0.0000000000
13
0.0002167168
23
-0.7840892823
33
0.0000000000
40
0.0000000000
40
0.0000000000
40
0.0000000000
40
0.0000000000
40
0.1130253348
40
0.2385067528
40
0.3718249837
40
0.5083356735
40
0.6438636750
40
0.7741493241
40
0.8919593743
40
1.0000000000
40
1.0000000000
40
1.0000000000
40
1.0000000000
10
-3.0028955669
20
2.9085914672
30
0.0000000000
10
-3.0324362177
20
2.9086008725
30
0.0000000000
10
-3.0949082361
20
2.9030709315
30
0.0000000000
10
-3.1890083581
20
2.8764497016
30
0.0000000000
10
-3.2813808920
20
2.8284767733
30
0.0000000000
10
-3.3636394716
20
2.7604183515
30
0.0000000000
10
-3.4290758041
20
2.6770881717
30
0.0000000000
10
-3.4736015532
20
2.5864555343
30
0.0000000000
10
-3.4978253355
20
2.4960534712
30
0.0000000000
10
-3.5028272192
20
2.4369054519
30
0.0000000000
10
-3.5028194145
20
2.4086676196
30
0.0000000000
11
-3.0028955669
21
2.9085914672
31
0.0000000000
11
-3.0911714186
21
2.9007668087
31
0.0000000000
11
-3.1858444018
21
2.8739834095
31
0.0000000000
11
-3.2786099072
21
2.8257984251
31
0.0000000000
11
-3.3610794221
21
2.7575664161
31
0.0000000000
11
-3.4267097857
21
2.6739893239
31
0.0000000000
11
-3.4717621789
21
2.5823048355
31
0.0000000000
11
-3.4956708971
21
2.4930789682
31
0.0000000000
11
-3.5028194145
21
2.4086676196
31
0.0000000000
0
SPLINE
5
45D
100
AcDbEntity
8
0
100
AcDbSpline
62
7
6
CONTINUOUS
70
0
71
3
72
12
73
8
74
6
42
0.0000001000
43
0.0000001000
44
0.0000000001
12
0.4116070682
22
0.4161964108
32
0.0000000000
13
-0.1849699449
23
0.5553610991
33
0.0000000000
40
0.0000000000
40
0.0000000000
40
0.0000000000
40
0.0000000000
40
0.3349282430
40
0.6111568725
40
0.8191519693
40
0.9521657582
40
1.0000000000
40
1.0000000000
40
1.0000000000
40
1.0000000000
10
-9.1409061053
20
20.9365628900
30
0.0000000000
10
-9.0949531612
20
20.9830282009
30
0.0000000000
10
-9.0106942460
20
21.0682556773
30
0.0000000000
10
-8.9031522204
20
21.1836817878
30
0.0000000000
10
-8.8143519611
20
21.2722881870
30
0.0000000000
10
-8.7775119039
20
21.3289583284
30
0.0000000000
10
-8.7414780240
20
21.3574435797
30
0.0000000000
10
-8.7444273230
20
21.3662986720
30
0.0000000000
11
-9.1409061053
21
20.9365628900
31
0.0000000000
11
-9.0038098114
21
21.0767088491
31
0.0000000000
11
-8.8922114788
21
21.1937131403
31
0.0000000000
11
-8.8097967701
21
21.2833294700
31
0.0000000000
11
-8.7592176872
21
21.3425238039
31
0.0000000000
11
-8.7444273230
21
21.3662986720
31
0.0000000000
0
SPLINE
5
45E
100
AcDbEntity
8
0
100
AcDbSpline
62
7
6
CONTINUOUS
70
0
71
3
72
9
73
5
74
3
42
0.0000001000
43
0.0000001000
44
0.0000000001
12
0.2947379863
22
0.2979515017
32
0.0000000000
13
0.2947016115
23
0.2979874798
33
0.0000000000
40
0.0000000000
40
0.0000000000
40
0.0000000000
40
0.0000000000
40
0.5000964104
40
1.0000000000
40
1.0000000000
40
1.0000000000
40
1.0000000000
10
-9.4356259426
20
20.6385934365
30
0.0000000000
10
-9.3864934730
20
20.6882615953
30
0.0000000000
10
-9.2882504595
20
20.7875817124
30
0.0000000000
10
-9.1900135698
20
20.8869078864
30
0.0000000000
10
-9.1409061053
20
20.9365628900
30
0.0000000000
11
-9.4356259426
21
20.6385934365
31
0.0000000000
11
-9.2882330477
21
20.7876023782
31
0.0000000000
11
-9.1409061053
21
20.9365628900
31
0.0000000000
0
SPLINE
5
45F
100
AcDbEntity
8
0
100
AcDbSpline
62
7
6
CONTINUOUS
70
0
71
3
72
12
73
8
74
6
42
0.0000001000
43
0.0000001000
44
0.0000000001
12
-0.1849699449
22
-0.5553610991
32
0.0000000000
13
0.4116070682
23
-0.4161964108
33
0.0000000000
40
0.0000000000
40
0.0000000000
40
0.0000000000
40
0.0000000000
40
0.0478342418
40
0.1808480307
40
0.3888431275
40
0.6650717570
40
1.0000000000
40
1.0000000000
40
1.0000000000
40
1.0000000000
10
8.9216380620
20
21.3662986720
30
0.0000000000
10
8.9186887630
20
21.3574435797
30
0.0000000000
10
8.9547226429
20
21.3289583284
30
0.0000000000
10
8.9915627001
20
21.2722881870
30
0.0000000000
10
9.0803629594
20
21.1836817878
30
0.0000000000
10
9.1879049850
20
21.0682556773
30
0.0000000000
10
9.2721639003
20
20.9830282009
30
0.0000000000
10
9.3181168443
20
20.9365628900
30
0.0000000000
11
8.9216380620
21
21.3662986720
31
0.0000000000
11
8.9364284262
21
21.3425238039
31
0.0000000000
11
8.9870075091
21
21.2833294700
31
0.0000000000
11
9.0694222178
21
21.1937131403
31
0.0000000000
11
9.1810205504
21
21.0767088491
31
0.0000000000
11
9.3181168443
21
20.9365628900
31
0.0000000000
0
SPLINE
5
460
100
AcDbEntity
8
0
100
AcDbSpline
62
7
6
CONTINUOUS
70
0
71
3
72
9
73
5
74
3
42
0.0000001000
43
0.0000001000
44
0.0000000001
12
-0.2947379863
22
0.2979515017
32
0.0000000000
13
-0.2947016115
23
0.2979874798
33
0.0000000000
40
0.0000000000
40
0.0000000000
40
0.0000000000
40
0.0000000000
40
0.5000964104
40
1.0000000000
40
1.0000000000
40
1.0000000000
40
1.0000000000
10
9.6128366816
20
20.6385934365
30
0.0000000000
10
9.5637042120
20
20.6882615953
30
0.0000000000
10
9.4654611985
20
20.7875817124
30
0.0000000000
10
9.3672243088
20
20.8869078864
30
0.0000000000
10
9.3181168443
20
20.9365628900
30
0.0000000000
11
9.6128366816
21
20.6385934365
31
0.0000000000
11
9.4654437867
21
20.7876023782
31
0.0000000000
11
9.3181168443
21
20.9365628900
31
0.0000000000
0
SPLINE
5
461
100
AcDbEntity
8
0
100
AcDbSpline
62
7
6
CONTINUOUS
70
0
71
3
72
12
73
8
74
6
42
0.0000001000
43
0.0000001000
44
0.0000000001
12
-0.4116074043
22
-0.4161967506
32
0.0000000000
13
0.1849700959
23
-0.5553615526
33
0.0000000000
40
0.0000000000
40
0.0000000000
40
0.0000000000
40
0.0000000000
40
0.3349108521
40
0.6105974006
40
0.8191791956
40
0.9523302430
40
1.0000000000
40
1.0000000000
40
1.0000000000
40
1.0000000000
10
9.3181168443
20
-19.3022295236
30
0.0000000000
10
9.2721662488
20
-19.3486924597
30
0.0000000000
10
9.1879846577
20
-19.4338423770
30
0.0000000000
10
9.0804331987
20
-19.5492698109
30
0.0000000000
10
8.9915945655
20
-19.6379042013
30
0.0000000000
10
8.9546982934
20
-19.6946481196
30
0.0000000000
10
8.9186989022
20
-19.7231406555
30
0.0000000000
10
8.9216380620
20
-19.7319653056
30
0.0000000000
11
9.3181168443
21
-19.3022295236
31
0.0000000000
11
9.1810275140
21
-19.4423682779
31
0.0000000000
11
9.0696461440
21
-19.5591411902
31
0.0000000000
11
8.9869966222
21
-19.6490082838
31
0.0000000000
11
8.9363686977
21
-19.7082666483
31
0.0000000000
11
8.9216380620
21
-19.7319653056
31
0.0000000000
0
SPLINE
5
462
100
AcDbEntity
8
0
100
AcDbSpline
62
7
6
CONTINUOUS
70
0
71
3
72
9
73
5
74
3
42
0.0000001000
43
0.0000001000
44
0.0000000001
12
-0.2947379863
22
-0.2979515017
32
0.0000000000
13
-0.2947016115
23
-0.2979874798
33
0.0000000000
40
0.0000000000
40
0.0000000000
40
0.0000000000
40
0.0000000000
40
0.5000964104
40
1.0000000000
40
1.0000000000
40
1.0000000000
40
1.0000000000
10
9.6128366816
20
-19.0042600700
30
0.0000000000
10
9.5637042120
20
-19.0539282288
30
0.0000000000
10
9.4654611985
20
-19.1532483459
30
0.0000000000
10
9.3672243088
20
-19.2525745200
30
0.0000000000
10
9.3181168443
20
-19.3022295236
30
0.0000000000
11
9.6128366816
21
-19.0042600700
31
0.0000000000
11
9.4654437867
21
-19.1532690117
31
0.0000000000
11
9.3181168443
21
-19.3022295236
31
0.0000000000
0
SPLINE
5
463
100
AcDbEntity
8
0
100
AcDbSpline
62
7
6
CONTINUOUS
70
0
71
3
72
12
73
8
74
6
42
0.0000001000
43
0.0000001000
44
0.0000000001
12
0.1849700959
22
0.5553615526
32
0.0000000000
13
-0.4116074043
23
0.4161967506
33
0.0000000000
40
0.0000000000
40
0.0000000000
40
0.0000000000
40
0.0000000000
40
0.0476697570
40
0.1808208044
40
0.3894025994
40
0.6650891479
40
1.0000000000
40
1.0000000000
40
1.0000000000
40
1.0000000000
10
-8.7444273230
20
-19.7319653056
30
0.0000000000
10
-8.7414881632
20
-19.7231406555
30
0.0000000000
10
-8.7774875544
20
-19.6946481196
30
0.0000000000
10
-8.8143838264
20
-19.6379042013
30
0.0000000000
10
-8.9032224597
20
-19.5492698109
30
0.0000000000
10
-9.0107739186
20
-19.4338423770
30
0.0000000000
10
-9.0949555098
20
-19.3486924597
30
0.0000000000
10
-9.1409061053
20
-19.3022295236
30
0.0000000000
11
-8.7444273230
21
-19.7319653056
31
0.0000000000
11
-8.7591579587
21
-19.7082666483
31
0.0000000000
11
-8.8097858832
21
-19.6490082838
31
0.0000000000
11
-8.8924354050
21
-19.5591411902
31
0.0000000000
11
-9.0038167750
21
-19.4423682779
31
0.0000000000
11
-9.1409061053
21
-19.3022295236
31
0.0000000000
0
SPLINE
5
464
100
AcDbEntity
8
0
100
AcDbSpline
62
7
6
CONTINUOUS
70
0
71
3
72
9
73
5
74
3
42
0.0000001000
43
0.0000001000
44
0.0000000001
12
0.2947379863
22
-0.2979515017
32
0.0000000000
13
0.2947016115
23
-0.2979874798
33
0.0000000000
40
0.0000000000
40
0.0000000000
40
0.0000000000
40
0.0000000000
40
0.5000964104
40
1.0000000000
40
1.0000000000
40
1.0000000000
40
1.0000000000
10
-9.4356259426
20
-19.0042600700
30
0.0000000000
10
-9.3864934730
20
-19.0539282288
30
0.0000000000
10
-9.2882504595
20
-19.1532483459
30
0.0000000000
10
-9.1900135698
20
-19.2525745200
30
0.0000000000
10
-9.1409061053
20
-19.3022295236
30
0.0000000000
11
-9.4356259426
21
-19.0042600700
31
0.0000000000
11
-9.2882330477
21
-19.1532690117
31
0.0000000000
11
-9.1409061053
21
-19.3022295236
31
0.0000000000
0
SPLINE
5
465
100
AcDbEntity
8
0
100
AcDbSpline
62
9
6
CONTINUOUS
70
0
71
3
72
15
73
11
74
9
42
0.0000001000
43
0.0000001000
44
0.0000000001
12
-0.0000326576
22
-1.5680019117
32
0.0000000000
13
1.5680019106
23
-0.0000669424
33
0.0000000000
40
0.0000000000
40
0.0000000000
40
0.0000000000
40
0.0000000000
40
0.1129883943
40
0.2383799744
40
0.3716090426
40
0.5080987757
40
0.6437017100
40
0.7741272758
40
0.8919971034
40
1.0000000000
40
1.0000000000
40
1.0000000000
40
1.0000000000
10
-4.0027432621
20
-4.0743342532
30
0.0000000000
10
-4.0027444920
20
-4.1333895926
30
0.0000000000
10
-3.9916464034
20
-4.2582489195
30
0.0000000000
10
-3.9384113459
20
-4.4463068892
30
0.0000000000
10
-3.8425366560
20
-4.6309396561
30
0.0000000000
10
-3.7064994411
20
-4.7954632679
30
0.0000000000
10
-3.5398319289
20
-4.9264529527
30
0.0000000000
10
-3.3584887789
20
-5.0156263002
30
0.0000000000
10
-3.1776358591
20
-5.0641415585
30
0.0000000000
10
-3.0593451496
20
-5.0741795383
30
0.0000000000
10
-3.0028955669
20
-5.0741819483
30
0.0000000000
11
-4.0027432621
21
-4.0743342532
31
0.0000000000
11
-3.9870451465
21
-4.2508034210
31
0.0000000000
11
-3.9334911669
21
-4.4399835722
31
0.0000000000
11
-3.8372092661
21
-4.6253762371
31
0.0000000000
11
-3.7008316239
21
-4.7903127598
31
0.0000000000
11
-3.5336576738
21
-4.9216997523
31
0.0000000000
11
-3.3501451486
21
-5.0119576362
31
0.0000000000
11
-3.1716361935
21
-5.0598432068
31
0.0000000000
11
-3.0028955669
21
-5.0741819483
31
0.0000000000
0
SPLINE
5
466
100
AcDbEntity
8
0
100
AcDbSpline
62
7
6
CONTINUOUS
70
0
71
3
72
12
73
8
74
6
42
0.0000001000
43
0.0000001000
44
0.0000000001
12
0.0005074526
22
-0.4335961866
32
0.0000000000
13
0.4335964835
23
0.0000000000
33
0.0000000000
40
0.0000000000
40
0.0000000000
40
0.0000000000
40
0.0000000000
40
0.3165733569
40
0.5972916288
40
0.8144026111
40
0.9528900814
40
1.0000000000
40
1.0000000000
40
1.0000000000
40
1.0000000000
10
6.5254241199
20
-18.7492918866
30
0.0000000000
10
6.5254776686
20
-18.7950468867
30
0.0000000000
10
6.5249241421
20
-18.8822339939
30
0.0000000000
10
6.5284072595
20
-18.9966900892
30
0.0000000000
10
6.5221117460
20
-19.0967453667
30
0.0000000000
10
6.5364820620
20
-19.1397095545
30
0.0000000000
10
6.5229399394
20
-19.1828333168
30
0.0000000000
10
6.5297488378
20
-19.1828333168
30
0.0000000000
11
6.5254241199
21
-18.7492918866
31
0.0000000000
11
6.5257640230
21
-18.8865565601
31
0.0000000000
11
6.5264362021
21
-19.0082731596
31
0.0000000000
11
6.5273755485
21
-19.1024070314
31
0.0000000000
11
6.5285154841
21
-19.1624438904
31
0.0000000000
11
6.5297488378
21
-19.1828333168
31
0.0000000000
0
SPLINE
5
467
100
AcDbEntity
8
0
100
AcDbSpline
62
7
6
CONTINUOUS
70
0
71
3
72
10
73
6
74
4
42
0.0000001000
43
0.0000001000
44
0.0000000001
12
-0.0082545900
22
7.0531885797
32
0.0000000000
13
-0.0032860259
23
7.0531926445
33
0.0000000000
40
0.0000000000
40
0.0000000000
40
0.0000000000
40
0.0000000000
40
0.3324501367
40
0.6658675471
40
1.0000000000
40
1.0000000000
40
1.0000000000
40
1.0000000000
10
6.5254241199
20
-18.7492918866
30
0.0000000000
10
6.5245093734
20
-17.9676807175
30
0.0000000000
10
6.5228628654
20
-16.4021840341
30
0.0000000000
10
6.5209432024
20
-14.0511203284
30
0.0000000000
10
6.5200291033
20
-12.4816678119
30
0.0000000000
10
6.5196631140
20
-11.6961009589
30
0.0000000000
11
6.5254241199
21
-18.7492918866
31
0.0000000000
11
6.5229570566
21
-16.4044580712
31
0.0000000000
11
6.5210362213
21
-14.0528013736
31
0.0000000000
11
6.5196631140
21
-11.6961009589
31
0.0000000000
0
SPLINE
5
468
100
AcDbEntity
8
0
100
AcDbSpline
62
7
6
CONTINUOUS
70
0
71
3
72
12
73
8
74
6
42
0.0000001000
43
0.0000001000
44
0.0000000001
12
-0.4335964835
22
0.0000000000
32
0.0000000000
13
-0.0005074526
23
-0.4335961866
33
0.0000000000
40
0.0000000000
40
0.0000000000
40
0.0000000000
40
0.0000000000
40
0.0471099186
40
0.1855973889
40
0.4027083712
40
0.6834266431
40
1.0000000000
40
1.0000000000
40
1.0000000000
40
1.0000000000
10
6.5297488378
20
20.8171666832
30
0.0000000000
10
6.5229399394
20
20.8171666832
30
0.0000000000
10
6.5364820620
20
20.7740429210
30
0.0000000000
10
6.5221117460
20
20.7310787332
30
0.0000000000
10
6.5284072595
20
20.6310234556
30
0.0000000000
10
6.5249241421
20
20.5165673604
30
0.0000000000
10
6.5254776686
20
20.4293802531
30
0.0000000000
10
6.5254241199
20
20.3836252530
30
0.0000000000
11
6.5297488378
21
20.8171666832
31
0.0000000000
11
6.5285154841
21
20.7967772568
31
0.0000000000
11
6.5273755485
21
20.7367403978
31
0.0000000000
11
6.5264362021
21
20.6426065261
31
0.0000000000
11
6.5257640230
21
20.5208899265
31
0.0000000000
11
6.5254241199
21
20.3836252530
31
0.0000000000
0
SPLINE
5
469
100
AcDbEntity
8
0
100
AcDbSpline
62
9
6
CONTINUOUS
70
0
71
3
72
15
73
11
74
9
42
0.0000001000
43
0.0000001000
44
0.0000000001
12
1.5680019117
22
-0.0000326576
32
0.0000000000
13
0.0000669424
23
1.5680019106
33
0.0000000000
40
0.0000000000
40
0.0000000000
40
0.0000000000
40
0.0000000000
40
0.1129883943
40
0.2383799744
40
0.3716090426
40
0.5080987757
40
0.6437017100
40
0.7741272758
40
0.8919971034
40
1.0000000000
40
1.0000000000
40
1.0000000000
40
1.0000000000
10
3.1801063059
20
-5.0741819483
30
0.0000000000
10
3.2391616453
20
-5.0741831783
30
0.0000000000
10
3.3640209723
20
-5.0630850896
30
0.0000000000
10
3.5520789419
20
-5.0098500321
30
0.0000000000
10
3.7367117088
20
-4.9139753422
30
0.0000000000
10
3.9012353206
20
-4.7779381274
30
0.0000000000
10
4.0322250054
20
-4.6112706152
30
0.0000000000
10
4.1213983529
20
-4.4299274652
30
0.0000000000
10
4.1699136112
20
-4.2490745454
30
0.0000000000
10
4.1799515911
20
-4.1307838359
30
0.0000000000
10
4.1799540011
20
-4.0743342532
30
0.0000000000
11
3.1801063059
21
-5.0741819483
31
0.0000000000
11
3.3565754737
21
-5.0584838328
31
0.0000000000
11
3.5457556249
21
-5.0049298531
31
0.0000000000
11
3.7311482898
21
-4.9086479524
31
0.0000000000
11
3.8960848125
21
-4.7722703102
31
0.0000000000
11
4.0274718051
21
-4.6050963601
31
0.0000000000
11
4.1177296889
21
-4.4215838349
31
0.0000000000
11
4.1656152596
21
-4.2430748798
31
0.0000000000
11
4.1799540011
21
-4.0743342532
31
0.0000000000
0
SPLINE
5
46A
100
AcDbEntity
8
0
100
AcDbSpline
62
7
6
CONTINUOUS
70
0
71
3
72
10
73
6
74
4
42
0.0000001000
43
0.0000001000
44
0.0000000001
12
0.0032860259
22
7.0531926445
32
0.0000000000
13
0.0082545900
23
7.0531885797
33
0.0000000000
40
0.0000000000
40
0.0000000000
40
0.0000000000
40
0.0000000000
40
0.3341324529
40
0.6675498633
40
1.0000000000
40
1.0000000000
40
1.0000000000
40
1.0000000000
10
6.5196631140
20
13.3304343254
30
0.0000000000
10
6.5200291033
20
14.1160011783
30
0.0000000000
10
6.5209432024
20
15.6854536949
30
0.0000000000
10
6.5228628654
20
18.0365174006
30
0.0000000000
10
6.5245093734
20
19.6020140839
30
0.0000000000
10
6.5254241199
20
20.3836252530
30
0.0000000000
11
6.5196631140
21
13.3304343254
31
0.0000000000
11
6.5210362213
21
15.6871347400
31
0.0000000000
11
6.5229570566
21
18.0387914377
31
0.0000000000
11
6.5254241199
21
20.3836252530
31
0.0000000000
0
SPLINE
5
46B
100
AcDbEntity
8
0
100
AcDbSpline
62
7
6
CONTINUOUS
70
0
71
3
72
11
73
7
74
5
42
0.0000001000
43
0.0000001000
44
0.0000000001
12
-0.0005270533
22
0.4297756428
32
0.0000000000
13
-0.0705936405
23
0.4239385791
33
0.0000000000
40
0.0000000000
40
0.0000000000
40
0.0000000000
40
0.0000000000
40
0.3782494553
40
0.6960131160
40
0.9115836159
40
1.0000000000
40
1.0000000000
40
1.0000000000
40
1.0000000000
10
7.4511240185
20
20.9365628900
30
0.0000000000
10
7.4510575660
20
20.9907503576
30
0.0000000000
10
7.4505004722
20
21.0904226866
30
0.0000000000
10
7.4507270299
20
21.2211441661
30
0.0000000000
10
7.4475905412
20
21.3099427699
30
0.0000000000
10
7.4491119493
20
21.3538043000
30
0.0000000000
10
7.4470314045
20
21.3662986720
30
0.0000000000
11
7.4511240185
21
20.9365628900
31
0.0000000000
11
7.4506676792
21
21.0991247746
31
0.0000000000
11
7.4497503016
21
21.2356888775
31
0.0000000000
11
7.4484853643
21
21.3283272617
31
0.0000000000
11
7.4470314045
21
21.3662986720
31
0.0000000000
0
SPLINE
5
46C
100
AcDbEntity
8
0
100
AcDbSpline
62
7
6
CONTINUOUS
70
0
71
3
72
10
73
6
74
4
42
0.0000001000
43
0.0000001000
44
0.0000000001
12
0.0093277366
22
-7.6061257204
32
0.0000000000
13
0.0035436352
23
-7.6061306144
33
0.0000000000
40
0.0000000000
40
0.0000000000
40
0.0000000000
40
0.0000000000
40
0.3323471514
40
0.6657778486
40
1.0000000000
40
1.0000000000
40
1.0000000000
40
1.0000000000
10
7.4511240185
20
20.9365628900
30
0.0000000000
10
7.4521573674
20
20.0939381514
30
0.0000000000
10
7.4540110815
20
18.4059412053
30
0.0000000000
10
7.4561514094
20
15.8705649377
30
0.0000000000
10
7.4571528379
20
14.1778134380
30
0.0000000000
10
7.4575476251
20
13.3304343254
30
0.0000000000
11
7.4511240185
21
20.9365628900
31
0.0000000000
11
7.4539012304
21
18.4086882988
31
0.0000000000
11
7.4560430769
21
15.8725714940
31
0.0000000000
11
7.4575476251
21
13.3304343254
31
0.0000000000
0
SPLINE
5
46D
100
AcDbEntity
8
0
100
AcDbSpline
62
7
6
CONTINUOUS
70
0
71
3
72
17
73
13
74
11
42
0.0000001000
43
0.0000001000
44
0.0000000001
12
0.0000000000
22
0.3138390385
32
0.0000000000
13
-0.3138390385
23
-0.0000000000
33
0.0000000000
40
0.0000000000
40
0.0000000000
40
0.0000000000
40
0.0000000000
40
0.1000013680
40
0.2000016332
40
0.3000034370
40
0.4000022503
40
0.5000058131
40
0.6000087280
40
0.7000059548
40
0.8000051471
40
0.9000022532
40
1.0000000000
40
1.0000000000
40
1.0000000000
40
1.0000000000
10
-0.9113946305
20
24.6113454687
30
0.0000000000
10
-0.9113946305
20
24.6218069131
30
0.0000000000
10
-0.9130429572
20
24.6427668469
30
0.0000000000
10
-0.9203995514
20
24.6734034227
30
0.0000000000
10
-0.9324590275
20
24.7025196914
30
0.0000000000
10
-0.9489246911
20
24.7293891671
30
0.0000000000
10
-0.9693910785
20
24.7533526975
30
0.0000000000
10
-0.9933543260
20
24.7738191601
30
0.0000000000
10
-1.0202232555
20
24.7902847446
30
0.0000000000
10
-1.0493387465
20
24.8023440856
30
0.0000000000
10
-1.0799743408
20
24.8097005577
30
0.0000000000
10
-1.1009335649
20
24.8113488534
30
0.0000000000
10
-1.1113946305
20
24.8113488534
30
0.0000000000
11
-0.9113946305
21
24.6113454687
31
0.0000000000
11
-0.9138569886
21
24.6426330567
31
0.0000000000
11
-0.9211833315
21
24.6731499266
31
0.0000000000
11
-0.9331935042
21
24.7021454556
31
0.0000000000
11
-0.9495911721
21
24.7289044267
31
0.0000000000
11
-0.9699739662
21
24.7527699103
31
0.0000000000
11
-0.9938391478
21
24.7731527450
31
0.0000000000
11
-1.0205975871
21
24.7895503277
31
0.0000000000
11
-1.0495922967
21
24.8015603371
31
0.0000000000
11
-1.0801081782
21
24.8088865497
31
0.0000000000
11
-1.1113946305
21
24.8113488534
31
0.0000000000
0
SPLINE
5
46E
100
AcDbEntity
8
0
100
AcDbSpline
62
7
6
CONTINUOUS
70
0
71
3
72
17
73
13
74
11
42
0.0000001000
43
0.0000001000
44
0.0000000001
12
-0.3138390385
22
0.0000000000
32
0.0000000000
13
0.0000000000
23
-0.3138390385
33
0.0000000000
40
0.0000000000
40
0.0000000000
40
0.0000000000
40
0.0000000000
40
0.0999977468
40
0.1999948529
40
0.2999940452
40
0.3999912720
40
0.4999941869
40
0.5999977497
40
0.6999965630
40
0.7999983668
40
0.8999986320
40
1.0000000000
40
1.0000000000
40
1.0000000000
40
1.0000000000
10
1.2886053695
20
24.8113488534
30
0.0000000000
10
1.2781443039
20
24.8113488534
30
0.0000000000
10
1.2571850798
20
24.8097005577
30
0.0000000000
10
1.2265494855
20
24.8023440856
30
0.0000000000
10
1.1974339945
20
24.7902847446
30
0.0000000000
10
1.1705650650
20
24.7738191601
30
0.0000000000
10
1.1466018175
20
24.7533526975
30
0.0000000000
10
1.1261354301
20
24.7293891671
30
0.0000000000
10
1.1096697665
20
24.7025196914
30
0.0000000000
10
1.0976102904
20
24.6734034227
30
0.0000000000
10
1.0902536962
20
24.6427668469
30
0.0000000000
10
1.0886053695
20
24.6218069131
30
0.0000000000
10
1.0886053695
20
24.6113454687
30
0.0000000000
11
1.2886053695
21
24.8113488534
31
0.0000000000
11
1.2573189172
21
24.8088865497
31
0.0000000000
11
1.2268030357
21
24.8015603371
31
0.0000000000
11
1.1978083261
21
24.7895503277
31
0.0000000000
11
1.1710498868
21
24.7731527450
31
0.0000000000
11
1.1471847052
21
24.7527699103
31
0.0000000000
11
1.1268019111
21
24.7289044267
31
0.0000000000
11
1.1104042432
21
24.7021454556
31
0.0000000000
11
1.0983940705
21
24.6731499266
31
0.0000000000
11
1.0910677276
21
24.6426330567
31
0.0000000000
11
1.0886053695
21
24.6113454687
31
0.0000000000
0
SPLINE
5
46F
100
AcDbEntity
8
0
100
AcDbSpline
62
7
6
CONTINUOUS
70
0
71
3
72
11
73
7
74
5
42
0.0000001000
43
0.0000001000
44
0.0000000001
12
0.0705936415
22
0.4239385851
32
0.0000000000
13
0.0005270534
23
0.4297756489
33
0.0000000000
40
0.0000000000
40
0.0000000000
40
0.0000000000
40
0.0000000000
40
0.0882937017
40
0.3042944332
40
0.6215070157
40
1.0000000000
40
1.0000000000
40
1.0000000000
40
1.0000000000
10
7.4470314045
20
-19.7319653056
30
0.0000000000
10
7.4491090625
20
-19.7194882699
30
0.0000000000
10
7.4475891210
20
-19.6755825909
30
0.0000000000
10
7.4507254289
20
-19.5868190749
30
0.0000000000
10
7.4505006667
20
-19.4560801557
30
0.0000000000
10
7.4510575232
20
-19.3564518795
30
0.0000000000
10
7.4511240185
20
-19.3022295236
30
0.0000000000
11
7.4470314045
21
-19.7319653056
31
0.0000000000
11
7.4484842628
21
-19.6940466171
31
0.0000000000
11
7.4497515604
21
-19.6012233434
31
0.0000000000
11
7.4506672002
21
-19.4648960724
31
0.0000000000
11
7.4511240185
21
-19.3022295236
31
0.0000000000
0
SPLINE
5
470
100
AcDbEntity
8
0
100
AcDbSpline
62
9
6
CONTINUOUS
70
0
71
3
72
15
73
11
74
9
42
0.0000001000
43
0.0000001000
44
0.0000000001
12
0.0000326576
22
1.5680019117
32
0.0000000000
13
-1.5680019106
23
0.0000669424
33
0.0000000000
40
0.0000000000
40
0.0000000000
40
0.0000000000
40
0.0000000000
40
0.1129883943
40
0.2383799744
40
0.3716090426
40
0.5080987757
40
0.6437017100
40
0.7741272758
40
0.8919971034
40
1.0000000000
40
1.0000000000
40
1.0000000000
40
1.0000000000
10
4.1799540011
20
2.4086676196
30
0.0000000000
10
4.1799552310
20
2.4677229590
30
0.0000000000
10
4.1688571424
20
2.5925822860
30
0.0000000000
10
4.1156220849
20
2.7806402556
30
0.0000000000
10
4.0197473950
20
2.9652730225
30
0.0000000000
10
3.8837101801
20
3.1297966343
30
0.0000000000
10
3.7170426679
20
3.2607863191
30
0.0000000000
10
3.5356995179
20
3.3499596667
30
0.0000000000
10
3.3548465981
20
3.3984749249
30
0.0000000000
10
3.2365558886
20
3.4085129048
30
0.0000000000
10
3.1801063059
20
3.4085153148
30
0.0000000000
11
4.1799540011
21
2.4086676196
31
0.0000000000
11
4.1642558855
21
2.5851367874
31
0.0000000000
11
4.1107019059
21
2.7743169386
31
0.0000000000
11
4.0144200051
21
2.9597096036
31
0.0000000000
11
3.8780423629
21
3.1246461262
31
0.0000000000
11
3.7108684129
21
3.2560331188
31
0.0000000000
11
3.5273558876
21
3.3462910026
31
0.0000000000
11
3.3488469325
21
3.3941765733
31
0.0000000000
11
3.1801063059
21
3.4085153148
31
0.0000000000
0
SPLINE
5
471
100
AcDbEntity
8
0
100
AcDbSpline
62
7
6
CONTINUOUS
70
0
71
3
72
17
73
13
74
11
42
0.0000001000
43
0.0000001000
44
0.0000000001
12
0.3138390385
22
0.0000000000
32
0.0000000000
13
0.0000000000
23
0.3138390385
33
0.0000000000
40
0.0000000000
40
0.0000000000
40
0.0000000000
40
0.0000000000
40
0.0999977468
40
0.1999948529
40
0.2999940452
40
0.3999912720
40
0.4999941869
40
0.5999977497
40
0.6999965630
40
0.7999983668
40
0.8999986320
40
1.0000000000
40
1.0000000000
40
1.0000000000
40
1.0000000000
10
-1.1113946305
20
-23.1770154870
30
0.0000000000
10
-1.1009335649
20
-23.1770154870
30
0.0000000000
10
-1.0799743408
20
-23.1753671913
30
0.0000000000
10
-1.0493387465
20
-23.1680107191
30
0.0000000000
10
-1.0202232555
20
-23.1559513782
30
0.0000000000
10
-0.9933543260
20
-23.1394857937
30
0.0000000000
10
-0.9693910785
20
-23.1190193311
30
0.0000000000
10
-0.9489246911
20
-23.0950558006
30
0.0000000000
10
-0.9324590275
20
-23.0681863249
30
0.0000000000
10
-0.9203995514
20
-23.0390700562
30
0.0000000000
10
-0.9130429572
20
-23.0084334804
30
0.0000000000
10
-0.9113946305
20
-22.9874735467
30
0.0000000000
10
-0.9113946305
20
-22.9770121023
30
0.0000000000
11
-1.1113946305
21
-23.1770154870
31
0.0000000000
11
-1.0801081782
21
-23.1745531832
31
0.0000000000
11
-1.0495922967
21
-23.1672269706
31
0.0000000000
11
-1.0205975871
21
-23.1552169612
31
0.0000000000
11
-0.9938391478
21
-23.1388193785
31
0.0000000000
11
-0.9699739662
21
-23.1184365438
31
0.0000000000
11
-0.9495911721
21
-23.0945710602
31
0.0000000000
11
-0.9331935042
21
-23.0678120892
31
0.0000000000
11
-0.9211833315
21
-23.0388165601
31
0.0000000000
11
-0.9138569886
21
-23.0082996903
31
0.0000000000
11
-0.9113946305
21
-22.9770121023
31
0.0000000000
0
SPLINE
5
472
100
AcDbEntity
8
0
100
AcDbSpline
62
7
6
CONTINUOUS
70
0
71
3
72
10
73
6
74
4
42
0.0000001000
43
0.0000001000
44
0.0000000001
12
-0.0035436352
22
-7.6061306144
32
0.0000000000
13
-0.0093277366
23
-7.6061257204
33
0.0000000000
40
0.0000000000
40
0.0000000000
40
0.0000000000
40
0.0000000000
40
0.3342221514
40
0.6676528486
40
1.0000000000
40
1.0000000000
40
1.0000000000
40
1.0000000000
10
7.4575476251
20
-11.6961009589
30
0.0000000000
10
7.4571528379
20
-12.5434800716
30
0.0000000000
10
7.4561514094
20
-14.2362315712
30
0.0000000000
10
7.4540110815
20
-16.7716078388
30
0.0000000000
10
7.4521573674
20
-18.4596047849
30
0.0000000000
10
7.4511240185
20
-19.3022295236
30
0.0000000000
11
7.4575476251
21
-11.6961009589
31
0.0000000000
11
7.4560430769
21
-14.2382381276
31
0.0000000000
11
7.4539012304
21
-16.7743549323
31
0.0000000000
11
7.4511240185
21
-19.3022295236
31
0.0000000000
0
SPLINE
5
473
100
AcDbEntity
8
0
100
AcDbSpline
62
7
6
CONTINUOUS
70
0
71
3
72
12
73
8
74
6
42
0.0000001000
43
0.0000001000
44
0.0000000001
12
-0.3536371175
22
-0.3536371175
32
0.0000000000
13
-0.5001184077
23
0.0000000000
33
0.0000000000
40
0.0000000000
40
0.0000000000
40
0.0000000000
40
0.0000000000
40
0.0534593593
40
0.1973525978
40
0.4180363294
40
0.6943998014
40
1.0000000000
40
1.0000000000
40
1.0000000000
40
1.0000000000
10
8.1551748713
20
-20.2662638150
30
0.0000000000
10
8.1488731334
20
-20.2725655529
30
0.0000000000
10
8.1103081164
20
-20.2639630725
30
0.0000000000
10
8.0456970033
20
-20.2751646819
30
0.0000000000
10
7.9362739615
20
-20.2721190930
30
0.0000000000
10
7.8034718460
20
-20.2750584753
30
0.0000000000
10
7.7061964520
20
-20.2748390310
30
0.0000000000
10
7.6552510237
20
-20.2748390310
30
0.0000000000
11
8.1551748713
21
-20.2662638150
31
0.0000000000
11
8.1285715619
21
-20.2689242926
31
0.0000000000
11
8.0566476383
21
-20.2713153554
31
0.0000000000
11
7.9462958722
21
-20.2732080697
31
0.0000000000
11
7.8080867376
21
-20.2744213056
31
0.0000000000
11
7.6552510237
21
-20.2748390310
31
0.0000000000
0
SPLINE
5
474
100
AcDbEntity
8
0
100
AcDbSpline
62
7
6
CONTINUOUS
70
0
71
3
72
12
73
8
74
6
42
0.0000001000
43
0.0000001000
44
0.0000000001
12
-0.5001184077
22
0.0000000000
32
0.0000000000
13
-0.3536371175
23
0.3536371175
33
0.0000000000
40
0.0000000000
40
0.0000000000
40
0.0000000000
40
0.0000000000
40
0.3056001986
40
0.5819636706
40
0.8026474022
40
0.9465406407
40
1.0000000000
40
1.0000000000
40
1.0000000000
40
1.0000000000
10
-7.4780402847
20
-20.2748390310
30
0.0000000000
10
-7.5289857130
20
-20.2748390310
30
0.0000000000
10
-7.6262611070
20
-20.2750584753
30
0.0000000000
10
-7.7590632225
20
-20.2721190930
30
0.0000000000
10
-7.8684862643
20
-20.2751646819
30
0.0000000000
10
-7.9330973774
20
-20.2639630725
30
0.0000000000
10
-7.9716623944
20
-20.2725655529
30
0.0000000000
10
-7.9779641323
20
-20.2662638150
30
0.0000000000
11
-7.4780402847
21
-20.2748390310
31
0.0000000000
11
-7.6308759986
21
-20.2744213056
31
0.0000000000
11
-7.7690851332
21
-20.2732080697
31
0.0000000000
11
-7.8794368993
21
-20.2713153554
31
0.0000000000
11
-7.9513608229
21
-20.2689242926
31
0.0000000000
11
-7.9779641323
21
-20.2662638150
31
0.0000000000
0
SPLINE
5
475
100
AcDbEntity
8
0
100
AcDbSpline
62
7
6
CONTINUOUS
70
0
71
3
72
17
73
13
74
11
42
0.0000001000
43
0.0000001000
44
0.0000000001
12
0.0000000000
22
-0.3138390385
32
0.0000000000
13
0.3138390385
23
0.0000000000
33
0.0000000000
40
0.0000000000
40
0.0000000000
40
0.0000000000
40
0.0000000000
40
0.1000013680
40
0.2000016332
40
0.3000034370
40
0.4000022503
40
0.5000058131
40
0.6000087280
40
0.7000059548
40
0.8000051471
40
0.9000022532
40
1.0000000000
40
1.0000000000
40
1.0000000000
40
1.0000000000
10
1.0886053695
20
-22.9770121023
30
0.0000000000
10
1.0886053695
20
-22.9874735467
30
0.0000000000
10
1.0902536962
20
-23.0084334804
30
0.0000000000
10
1.0976102904
20
-23.0390700562
30
0.0000000000
10
1.1096697665
20
-23.0681863249
30
0.0000000000
10
1.1261354301
20
-23.0950558006
30
0.0000000000
10
1.1466018175
20
-23.1190193311
30
0.0000000000
10
1.1705650650
20
-23.1394857937
30
0.0000000000
10
1.1974339945
20
-23.1559513782
30
0.0000000000
10
1.2265494855
20
-23.1680107191
30
0.0000000000
10
1.2571850798
20
-23.1753671913
30
0.0000000000
10
1.2781443039
20
-23.1770154870
30
0.0000000000
10
1.2886053695
20
-23.1770154870
30
0.0000000000
11
1.0886053695
21
-22.9770121023
31
0.0000000000
11
1.0910677276
21
-23.0082996903
31
0.0000000000
11
1.0983940705
21
-23.0388165601
31
0.0000000000
11
1.1104042432
21
-23.0678120892
31
0.0000000000
11
1.1268019111
21
-23.0945710602
31
0.0000000000
11
1.1471847052
21
-23.1184365438
31
0.0000000000
11
1.1710498868
21
-23.1388193785
31
0.0000000000
11
1.1978083261
21
-23.1552169612
31
0.0000000000
11
1.2268030357
21
-23.1672269706
31
0.0000000000
11
1.2573189172
21
-23.1745531832
31
0.0000000000
11
1.2886053695
21
-23.1770154870
31
0.0000000000
0
SPLINE
5
476
100
AcDbEntity
8
0
100
AcDbSpline
62
7
6
CONTINUOUS
70
0
71
3
72
11
73
7
74
5
42
0.0000001000
43
0.0000001000
44
0.0000000001
12
-0.0705936408
22
-0.4239385806
32
0.0000000000
13
-0.0005270533
23
-0.4297756443
33
0.0000000000
40
0.0000000000
40
0.0000000000
40
0.0000000000
40
0.0000000000
40
0.0883897069
40
0.3039602973
40
0.6217348305
40
1.0000000000
40
1.0000000000
40
1.0000000000
40
1.0000000000
10
-7.2698206655
20
21.3662986720
30
0.0000000000
10
-7.2719005825
20
21.3538080698
30
0.0000000000
10
-7.2703798207
20
21.3099504066
30
0.0000000000
10
-7.2735162186
20
21.2211540551
30
0.0000000000
10
-7.2732897087
20
21.0904287437
30
0.0000000000
10
-7.2738468242
20
20.9907526090
30
0.0000000000
10
-7.2739132795
20
20.9365628900
30
0.0000000000
11
-7.2698206655
21
21.3662986720
31
0.0000000000
11
-7.2712743859
21
21.3283387260
31
0.0000000000
11
-7.2725394537
21
21.2357003044
31
0.0000000000
11
-7.2734569092
21
21.0991315286
31
0.0000000000
11
-7.2739132795
21
20.9365628900
31
0.0000000000
0
SPLINE
5
477
100
AcDbEntity
8
0
100
AcDbSpline
62
7
6
CONTINUOUS
70
0
71
3
72
10
73
6
74
4
42
0.0000001000
43
0.0000001000
44
0.0000000001
12
0.0035436352
22
7.6061306144
32
0.0000000000
13
0.0093277366
23
7.6061257204
33
0.0000000000
40
0.0000000000
40
0.0000000000
40
0.0000000000
40
0.0000000000
40
0.3342221514
40
0.6676528486
40
1.0000000000
40
1.0000000000
40
1.0000000000
40
1.0000000000
10
-7.2803368860
20
13.3304343254
30
0.0000000000
10
-7.2799420989
20
14.1778134380
30
0.0000000000
10
-7.2789406704
20
15.8705649377
30
0.0000000000
10
-7.2768003425
20
18.4059412053
30
0.0000000000
10
-7.2749466284
20
20.0939381514
30
0.0000000000
10
-7.2739132795
20
20.9365628900
30
0.0000000000
11
-7.2803368860
21
13.3304343254
31
0.0000000000
11
-7.2788323378
21
15.8725714940
31
0.0000000000
11
-7.2766904914
21
18.4086882988
31
0.0000000000
11
-7.2739132795
21
20.9365628900
31
0.0000000000
0
SPLINE
5
478
100
AcDbEntity
8
0
100
AcDbSpline
62
7
6
CONTINUOUS
70
0
71
3
72
11
73
7
74
5
42
0.0000001000
43
0.0000001000
44
0.0000000001
12
0.0005270534
22
-0.4297756476
32
0.0000000000
13
0.0705936413
23
-0.4239385838
33
0.0000000000
40
0.0000000000
40
0.0000000000
40
0.0000000000
40
0.0000000000
40
0.3784793808
40
0.6956829514
40
0.9116836264
40
1.0000000000
40
1.0000000000
40
1.0000000000
40
1.0000000000
10
-7.2739132795
20
-19.3022295236
30
0.0000000000
10
-7.2738467866
20
-19.3564499306
30
0.0000000000
10
-7.2732899487
20
-19.4560749694
30
0.0000000000
10
-7.2735147525
20
-19.5868106322
30
0.0000000000
10
-7.2703783656
20
-19.6755760978
30
0.0000000000
10
-7.2718988569
20
-19.7194850661
30
0.0000000000
10
-7.2698206655
20
-19.7319653056
30
0.0000000000
11
-7.2739132795
21
-19.3022295236
31
0.0000000000
11
-7.2734564880
21
-19.4648902255
31
0.0000000000
11
-7.2725409139
21
-19.6012136234
31
0.0000000000
11
-7.2712737274
21
-19.6940368740
31
0.0000000000
11
-7.2698206655
21
-19.7319653056
31
0.0000000000
0
SPLINE
5
479
100
AcDbEntity
8
0
100
AcDbSpline
62
7
6
CONTINUOUS
70
0
71
3
72
10
73
6
74
4
42
0.0000001000
43
0.0000001000
44
0.0000000001
12
-0.0093277366
22
7.6061257204
32
0.0000000000
13
-0.0035436352
23
7.6061306144
33
0.0000000000
40
0.0000000000
40
0.0000000000
40
0.0000000000
40
0.0000000000
40
0.3323471514
40
0.6657778486
40
1.0000000000
40
1.0000000000
40
1.0000000000
40
1.0000000000
10
-7.2739132795
20
-19.3022295236
30
0.0000000000
10
-7.2749466284
20
-18.4596047849
30
0.0000000000
10
-7.2768003425
20
-16.7716078388
30
0.0000000000
10
-7.2789406704
20
-14.2362315712
30
0.0000000000
10
-7.2799420989
20
-12.5434800716
30
0.0000000000
10
-7.2803368860
20
-11.6961009589
30
0.0000000000
11
-7.2739132795
21
-19.3022295236
31
0.0000000000
11
-7.2766904914
21
-16.7743549323
31
0.0000000000
11
-7.2788323378
21
-14.2382381276
31
0.0000000000
11
-7.2803368860
21
-11.6961009589
31
0.0000000000
0
SPLINE
5
47A
100
AcDbEntity
8
0
100
AcDbSpline
62
7
6
CONTINUOUS
70
0
71
3
72
10
73
6
74
4
42
0.0000001000
43
0.0000001000
44
0.0000000001
12
-0.0032860259
22
-7.0531926445
32
0.0000000000
13
-0.0082545900
23
-7.0531885797
33
0.0000000000
40
0.0000000000
40
0.0000000000
40
0.0000000000
40
0.0000000000
40
0.3341324529
40
0.6675498633
40
1.0000000000
40
1.0000000000
40
1.0000000000
40
1.0000000000
10
-6.3424523749
20
-11.6961009589
30
0.0000000000
10
-6.3428183642
20
-12.4816678119
30
0.0000000000
10
-6.3437324634
20
-14.0511203284
30
0.0000000000
10
-6.3456521264
20
-16.4021840341
30
0.0000000000
10
-6.3472986344
20
-17.9676807175
30
0.0000000000
10
-6.3482133809
20
-18.7492918866
30
0.0000000000
11
-6.3424523749
21
-11.6961009589
31
0.0000000000
11
-6.3438254823
21
-14.0528013736
31
0.0000000000
11
-6.3457463176
21
-16.4044580712
31
0.0000000000
11
-6.3482133809
21
-18.7492918866
31
0.0000000000
0
SPLINE
5
47B
100
AcDbEntity
8
0
100
AcDbSpline
62
7
6
CONTINUOUS
70
0
71
3
72
12
73
8
74
6
42
0.0000001000
43
0.0000001000
44
0.0000000001
12
-0.0005074526
22
0.4335961866
32
0.0000000000
13
-0.4335964835
23
-0.0000000000
33
0.0000000000
40
0.0000000000
40
0.0000000000
40
0.0000000000
40
0.0000000000
40
0.3165733569
40
0.5972916288
40
0.8144026111
40
0.9528900814
40
1.0000000000
40
1.0000000000
40
1.0000000000
40
1.0000000000
10
-6.3482133809
20
20.3836252530
30
0.0000000000
10
-6.3482669296
20
20.4293802531
30
0.0000000000
10
-6.3477134031
20
20.5165673604
30
0.0000000000
10
-6.3511965205
20
20.6310234556
30
0.0000000000
10
-6.3449010070
20
20.7310787332
30
0.0000000000
10
-6.3592713229
20
20.7740429210
30
0.0000000000
10
-6.3457292004
20
20.8171666832
30
0.0000000000
10
-6.3525380987
20
20.8171666832
30
0.0000000000
11
-6.3482133809
21
20.3836252530
31
0.0000000000
11
-6.3485532840
21
20.5208899265
31
0.0000000000
11
-6.3492254631
21
20.6426065261
31
0.0000000000
11
-6.3501648095
21
20.7367403978
31
0.0000000000
11
-6.3513047451
21
20.7967772568
31
0.0000000000
11
-6.3525380987
21
20.8171666832
31
0.0000000000
0
SPLINE
5
47C
100
AcDbEntity
8
0
100
AcDbSpline
62
7
6
CONTINUOUS
70
0
71
3
72
10
73
6
74
4
42
0.0000001000
43
0.0000001000
44
0.0000000001
12
0.0082545900
22
-7.0531885797
32
0.0000000000
13
0.0032860259
23
-7.0531926445
33
0.0000000000
40
0.0000000000
40
0.0000000000
40
0.0000000000
40
0.0000000000
40
0.3324501367
40
0.6658675471
40
1.0000000000
40
1.0000000000
40
1.0000000000
40
1.0000000000
10
-6.3482133809
20
20.3836252530
30
0.0000000000
10
-6.3472986344
20
19.6020140839
30
0.0000000000
10
-6.3456521264
20
18.0365174006
30
0.0000000000
10
-6.3437324634
20
15.6854536949
30
0.0000000000
10
-6.3428183642
20
14.1160011783
30
0.0000000000
10
-6.3424523749
20
13.3304343254
30
0.0000000000
11
-6.3482133809
21
20.3836252530
31
0.0000000000
11
-6.3457463176
21
18.0387914377
31
0.0000000000
11
-6.3438254823
21
15.6871347400
31
0.0000000000
11
-6.3424523749
21
13.3304343254
31
0.0000000000
0
SPLINE
5
47D
100
AcDbEntity
8
0
100
AcDbSpline
62
7
6
CONTINUOUS
70
0
71
3
72
11
73
7
74
5
42
0.0000001000
43
0.0000001000
44
0.0000000001
12
0.0000000000
22
0.0649382085
32
0.0000000000
13
0.0420122218
23
0.0494420004
33
0.0000000000
40
0.0000000000
40
0.0000000000
40
0.0000000000
40
0.0000000000
40
0.1050234638
40
0.3021860866
40
0.5981132932
40
1.0000000000
40
1.0000000000
40
1.0000000000
40
1.0000000000
10
3.5886053695
20
-23.1369812609
30
0.0000000000
10
3.5886053695
20
-23.1347079157
30
0.0000000000
10
3.5918602259
20
-23.1286123592
30
0.0000000000
10
3.5988459469
20
-23.1179932556
30
0.0000000000
10
3.6108703123
20
-23.1026322650
30
0.0000000000
10
3.6205165893
20
-23.0910475901
30
0.0000000000
10
3.6261446405
20
-23.0844242292
30
0.0000000000
11
3.5886053695
21
-23.1369812609
31
0.0000000000
11
3.5909009549
21
-23.1305591760
31
0.0000000000
11
3.5978308365
21
-23.1197933286
31
0.0000000000
11
3.6094954180
21
-23.1045214603
31
0.0000000000
11
3.6261446405
21
-23.0844242292
31
0.0000000000
0
SPLINE
5
47E
100
AcDbEntity
8
0
100
AcDbSpline
62
7
6
CONTINUOUS
70
0
71
3
72
16
73
12
74
10
42
0.0000001000
43
0.0000001000
44
0.0000000001
12
0.3940237865
22
0.4637061161
32
0.0000000000
13
0.4199141259
23
0.4411394664
33
0.0000000000
40
0.0000000000
40
0.0000000000
40
0.0000000000
40
0.0000000000
40
0.0555057941
40
0.1248040123
40
0.2087952621
40
0.3080339199
40
0.4231630014
40
0.5535741923
40
0.6963838821
40
0.8468540534
40
1.0000000000
40
1.0000000000
40
1.0000000000
40
1.0000000000
10
3.6261446405
20
-23.0844242292
30
0.0000000000
10
3.6334348415
20
-23.0758447704
30
0.0000000000
10
3.6501004436
20
-23.0567370035
30
0.0000000000
10
3.6783920495
20
-23.0251816617
30
0.0000000000
10
3.7129916802
20
-22.9873464830
30
0.0000000000
10
3.7541727842
20
-22.9429293216
30
0.0000000000
10
3.8020160151
20
-22.8918373416
30
0.0000000000
10
3.8561080469
20
-22.8344799587
30
0.0000000000
10
3.9152743970
20
-22.7720462340
30
0.0000000000
10
3.9777144065
20
-22.7063563376
30
0.0000000000
10
4.0202120307
20
-22.6617107052
30
0.0000000000
10
4.0416480794
20
-22.6391911315
30
0.0000000000
11
3.6261446405
21
-23.0844242292
31
0.0000000000
11
3.6483071933
21
-23.0588973254
31
0.0000000000
11
3.6764485758
21
-23.0274431087
31
0.0000000000
11
3.7109415647
21
-22.9896676675
31
0.0000000000
11
3.7520134810
21
-22.9453263719
31
0.0000000000
11
3.7999235655
21
-22.8941285508
31
0.0000000000
11
3.8544033968
21
-22.8363322184
31
0.0000000000
11
3.9142200488
21
-22.7731896916
31
0.0000000000
11
3.9773479913
21
-22.7067575222
31
0.0000000000
11
4.0416480794
21
-22.6391911315
31
0.0000000000
0
SPLINE
5
47F
100
AcDbEntity
8
0
100
AcDbSpline
62
7
6
CONTINUOUS
70
0
71
3
72
12
73
8
74
6
42
0.0000001000
43
0.0000001000
44
0.0000000001
12
-0.5001184077
22
0.0000000000
32
0.0000000000
13
-0.3536371175
23
-0.3536371175
33
0.0000000000
40
0.0000000000
40
0.0000000000
40
0.0000000000
40
0.0000000000
40
0.3056001986
40
0.5819636706
40
0.8026474022
40
0.9465406407
40
1.0000000000
40
1.0000000000
40
1.0000000000
40
1.0000000000
10
-7.4780402847
20
21.9091723974
30
0.0000000000
10
-7.5289857130
20
21.9091723974
30
0.0000000000
10
-7.6262611070
20
21.9093918417
30
0.0000000000
10
-7.7590632225
20
21.9064524594
30
0.0000000000
10
-7.8684862643
20
21.9094980484
30
0.0000000000
10
-7.9330973774
20
21.8982964390
30
0.0000000000
10
-7.9716623944
20
21.9068989193
30
0.0000000000
10
-7.9779641323
20
21.9005971814
30
0.0000000000
11
-7.4780402847
21
21.9091723974
31
0.0000000000
11
-7.6308759986
21
21.9087546721
31
0.0000000000
11
-7.7690851332
21
21.9075414362
31
0.0000000000
11
-7.8794368993
21
21.9056487218
31
0.0000000000
11
-7.9513608229
21
21.9032576591
31
0.0000000000
11
-7.9779641323
21
21.9005971814
31
0.0000000000
0
SPLINE
5
480
100
AcDbEntity
8
0
100
AcDbSpline
62
9
6
CONTINUOUS
70
0
71
3
72
10
73
6
74
4
42
0.0000001000
43
0.0000001000
44
0.0000000001
12
-0.0831532001
22
-0.1674688817
32
0.0000000000
13
-0.0671552899
23
-0.1745005675
33
0.0000000000
40
0.0000000000
40
0.0000000000
40
0.0000000000
40
0.0000000000
40
0.3391087548
40
0.6722816896
40
1.0000000000
40
1.0000000000
40
1.0000000000
40
1.0000000000
10
-1.7027304702
20
2.9066588687
30
0.0000000000
10
-1.7121297962
20
2.8877288141
30
0.0000000000
10
-1.7301705072
20
2.8499018605
30
0.0000000000
10
-1.7552224397
20
2.7928229056
30
0.0000000000
10
-1.7706066903
20
2.7546049618
30
0.0000000000
10
-1.7779426963
20
2.7355426181
30
0.0000000000
11
-1.7027304702
21
2.9066588687
31
0.0000000000
11
-1.7300247908
21
2.8494289050
31
0.0000000000
11
-1.7550611426
21
2.7923857698
31
0.0000000000
11
-1.7779426963
21
2.7355426181
31
0.0000000000
0
SPLINE
5
481
100
AcDbEntity
8
0
100
AcDbSpline
62
9
6
CONTINUOUS
70
0
71
3
72
22
73
18
74
16
42
0.0000001000
43
0.0000001000
44
0.0000000001
12
0.1189565028
22
-0.0001009436
32
0.0000000000
13
-0.0580741453
23
-0.1077432086
33
0.0000000000
40
0.0000000000
40
0.0000000000
40
0.0000000000
40
0.0000000000
40
0.1786757595
40
0.3559360627
40
0.5248149915
40
0.6783455874
40
0.7471783243
40
0.8095618056
40
0.8646256737
40
0.9115000516
40
0.9493161115
40
0.9772078049
40
0.9871641177
40
0.9943215159
40
0.9985877581
40
0.9999852389
40
1.0000000000
40
1.0000000000
40
1.0000000000
40
1.0000000000
10
-1.8216192631
20
2.9085915156
30
0.0000000000
10
-1.8145343819
20
2.9085855036
30
0.0000000000
10
-1.8004207622
20
2.9085466736
30
0.0000000000
10
-1.7796110367
20
2.9084201294
30
0.0000000000
10
-1.7597989273
20
2.9082340453
30
0.0000000000
10
-1.7442864460
20
2.9080314979
30
0.0000000000
10
-1.7329974452
20
2.9078419395
30
0.0000000000
10
-1.7256118226
20
2.9076957396
30
0.0000000000
10
-1.7190998959
20
2.9075423078
30
0.0000000000
10
-1.7135547596
20
2.9073818718
30
0.0000000000
10
-1.7091092869
20
2.9072210811
30
0.0000000000
10
-1.7060786545
20
2.9070680864
30
0.0000000000
10
-1.7043450227
20
2.9069485903
30
0.0000000000
10
-1.7034238968
20
2.9068496323
30
0.0000000000
10
-1.7030567204
20
2.9068005861
30
0.0000000000
10
-1.7027000637
20
2.9067076763
30
0.0000000000
10
-1.7027261878
20
2.9066572447
30
0.0000000000
10
-1.7027264735
20
2.9066567145
30
0.0000000000
11
-1.8216192631
21
2.9085915156
31
0.0000000000
11
-1.8003646879
21
2.9085346771
31
0.0000000000
11
-1.7792788061
21
2.9084061902
31
0.0000000000
11
-1.7591904573
21
2.9082154772
31
0.0000000000
11
-1.7409286115
21
2.9079719602
31
0.0000000000
11
-1.7327416803
21
2.9078333446
31
0.0000000000
11
-1.7253222385
21
2.9076850614
31
0.0000000000
11
-1.7187739074
21
2.9075282882
31
0.0000000000
11
-1.7132003081
21
2.9073642029
31
0.0000000000
11
-1.7087050619
21
2.9071939833
31
0.0000000000
11
-1.7053917900
21
2.9070188071
31
0.0000000000
11
-1.7042107761
21
2.9069297283
31
0.0000000000
11
-1.7033641137
21
2.9068398520
31
0.0000000000
11
-1.7028647555
21
2.9067493255
31
0.0000000000
11
-1.7027256542
21
2.9066582959
31
0.0000000000
11
-1.7027264735
21
2.9066567145
31
0.0000000000
0
SPLINE
5
482
100
AcDbEntity
8
0
100
AcDbSpline
62
9
6
CONTINUOUS
70
0
71
3
72
22
73
18
74
16
42
0.0000001000
43
0.0000001000
44
0.0000000001
12
-0.1189564900
22
-0.0001009436
32
0.0000000000
13
0.0580640838
23
-0.1077408720
33
0.0000000000
40
0.0000000000
40
0.0000000000
40
0.0000000000
40
0.0000000000
40
0.1786757671
40
0.3559360770
40
0.5248150104
40
0.6783456091
40
0.7471783470
40
0.8095618291
40
0.8646256979
40
0.9115000765
40
0.9493161370
40
0.9772078313
40
0.9871641446
40
0.9943215433
40
0.9985877861
40
0.9999852674
40
1.0000000000
40
1.0000000000
40
1.0000000000
40
1.0000000000
10
1.9988300021
20
2.9085915155
30
0.0000000000
10
1.9917451214
20
2.9085855035
30
0.0000000000
10
1.9776315026
20
2.9085466735
30
0.0000000000
10
1.9568217786
20
2.9084201293
30
0.0000000000
10
1.9370096708
20
2.9082340453
30
0.0000000000
10
1.9214971908
20
2.9080314978
30
0.0000000000
10
1.9102081910
20
2.9078419395
30
0.0000000000
10
1.9028225692
20
2.9076957396
30
0.0000000000
10
1.8963106430
20
2.9075423078
30
0.0000000000
10
1.8907655073
20
2.9073818718
30
0.0000000000
10
1.8863200349
20
2.9072210811
30
0.0000000000
10
1.8832894028
20
2.9070680864
30
0.0000000000
10
1.8815557711
20
2.9069485903
30
0.0000000000
10
1.8806346453
20
2.9068496324
30
0.0000000000
10
1.8802674688
20
2.9068005860
30
0.0000000000
10
1.8799108139
20
2.9067076769
30
0.0000000000
10
1.8799369351
20
2.9066572467
30
0.0000000000
10
1.8799372202
20
2.9066567176
30
0.0000000000
11
1.9988300021
21
2.9085915155
31
0.0000000000
11
1.9775754283
21
2.9085346770
31
0.0000000000
11
1.9564895479
21
2.9084061902
31
0.0000000000
11
1.9364012008
21
2.9082154772
31
0.0000000000
11
1.9181393566
21
2.9079719602
31
0.0000000000
11
1.9099524262
21
2.9078333446
31
0.0000000000
11
1.9025329851
21
2.9076850613
31
0.0000000000
11
1.8959846545
21
2.9075282882
31
0.0000000000
11
1.8904110558
21
2.9073642029
31
0.0000000000
11
1.8859158100
21
2.9071939833
31
0.0000000000
11
1.8826025384
21
2.9070188070
31
0.0000000000
11
1.8814215245
21
2.9069297283
31
0.0000000000
11
1.8805748622
21
2.9068398520
31
0.0000000000
11
1.8800755040
21
2.9067493255
31
0.0000000000
11
1.8799364026
21
2.9066582959
31
0.0000000000
11
1.8799372202
21
2.9066567176
31
0.0000000000
0
SPLINE
5
483
100
AcDbEntity
8
0
100
AcDbSpline
62
9
6
CONTINUOUS
70
0
71
3
72
10
73
6
74
4
42
0.0000001000
43
0.0000001000
44
0.0000000001
12
-0.0671552895
22
0.1745005664
32
0.0000000000
13
-0.0831531996
23
0.1674688806
33
0.0000000000
40
0.0000000000
40
0.0000000000
40
0.0000000000
40
0.0000000000
40
0.3277182895
40
0.6608912027
40
1.0000000000
40
1.0000000000
40
1.0000000000
40
1.0000000000
10
1.9551534354
20
2.7355426181
30
0.0000000000
10
1.9478174298
20
2.7546049605
30
0.0000000000
10
1.9324331804
20
2.7928229016
30
0.0000000000
10
1.9073812481
20
2.8499018561
30
0.0000000000
10
1.8893405371
20
2.8877288109
30
0.0000000000
10
1.8799412099
20
2.9066588677
30
0.0000000000
11
1.9551534354
21
2.7355426181
31
0.0000000000
11
1.9322718833
21
2.7923857658
31
0.0000000000
11
1.9072355335
21
2.8494288970
31
0.0000000000
11
1.8799412099
21
2.9066588677
31
0.0000000000
0
SPLINE
5
484
100
AcDbEntity
8
0
100
AcDbSpline
62
7
6
CONTINUOUS
70
0
71
3
72
12
73
8
74
6
42
0.0000001000
43
0.0000001000
44
0.0000000001
12
-0.3536371175
22
0.3536371175
32
0.0000000000
13
-0.5001184077
23
0.0000000000
33
0.0000000000
40
0.0000000000
40
0.0000000000
40
0.0000000000
40
0.0000000000
40
0.0534593593
40
0.1973525978
40
0.4180363294
40
0.6943998014
40
1.0000000000
40
1.0000000000
40
1.0000000000
40
1.0000000000
10
8.1551748713
20
21.9005971814
30
0.0000000000
10
8.1488731334
20
21.9068989193
30
0.0000000000
10
8.1103081164
20
21.8982964390
30
0.0000000000
10
8.0456970033
20
21.9094980484
30
0.0000000000
10
7.9362739615
20
21.9064524594
30
0.0000000000
10
7.8034718460
20
21.9093918417
30
0.0000000000
10
7.7061964520
20
21.9091723974
30
0.0000000000
10
7.6552510237
20
21.9091723974
30
0.0000000000
11
8.1551748713
21
21.9005971814
31
0.0000000000
11
8.1285715619
21
21.9032576591
31
0.0000000000
11
8.0566476383
21
21.9056487218
31
0.0000000000
11
7.9462958722
21
21.9075414362
31
0.0000000000
11
7.8080867376
21
21.9087546721
31
0.0000000000
11
7.6552510237
21
21.9091723974
31
0.0000000000
0
SPLINE
5
485
100
AcDbEntity
8
0
100
AcDbSpline
62
7
6
CONTINUOUS
70
0
71
3
72
12
73
8
74
6
42
0.0000001000
43
0.0000001000
44
0.0000000001
12
0.4335964835
22
0.0000000000
32
0.0000000000
13
0.0005074526
23
0.4335961866
33
0.0000000000
40
0.0000000000
40
0.0000000000
40
0.0000000000
40
0.0000000000
40
0.0471099186
40
0.1855973889
40
0.4027083712
40
0.6834266431
40
1.0000000000
40
1.0000000000
40
1.0000000000
40
1.0000000000
10
-6.3525380987
20
-19.1828333168
30
0.0000000000
10
-6.3457292004
20
-19.1828333168
30
0.0000000000
10
-6.3592713229
20
-19.1397095545
30
0.0000000000
10
-6.3449010070
20
-19.0967453667
30
0.0000000000
10
-6.3511965205
20
-18.9966900892
30
0.0000000000
10
-6.3477134031
20
-18.8822339939
30
0.0000000000
10
-6.3482669296
20
-18.7950468867
30
0.0000000000
10
-6.3482133809
20
-18.7492918866
30
0.0000000000
11
-6.3525380987
21
-19.1828333168
31
0.0000000000
11
-6.3513047451
21
-19.1624438904
31
0.0000000000
11
-6.3501648095
21
-19.1024070314
31
0.0000000000
11
-6.3492254631
21
-19.0082731596
31
0.0000000000
11
-6.3485532840
21
-18.8865565601
31
0.0000000000
11
-6.3482133809
21
-18.7492918866
31
0.0000000000
0
SPLINE
5
486
100
AcDbEntity
8
0
100
AcDbSpline
62
9
6
CONTINUOUS
70
0
71
3
72
12
73
8
74
6
42
0.0000001000
43
0.0000001000
44
0.0000000001
12
0.0001875590
22
0.3128202548
32
0.0000000000
13
-0.3128203104
23
-0.0000194953
33
0.0000000000
40
0.0000000000
40
0.0000000000
40
0.0000000000
40
0.0000000000
40
0.2000211307
40
0.4005022263
40
0.6009852447
40
0.8009915166
40
1.0000000000
40
1.0000000000
40
1.0000000000
40
1.0000000000
10
3.2070269958
20
2.2356187705
30
0.0000000000
10
3.2070395011
20
2.2564756576
30
0.0000000000
10
3.2003804897
20
2.2985318825
30
0.0000000000
10
3.1714402867
20
2.3552363285
30
0.0000000000
10
3.1263207119
20
2.4002433708
30
0.0000000000
10
3.0697061108
20
2.4290073444
30
0.0000000000
10
3.0278087553
20
2.4355896028
30
0.0000000000
10
3.0070574568
20
2.4355883096
30
0.0000000000
11
3.2070269958
21
2.2356187705
31
0.0000000000
11
3.1972386310
21
2.2974190695
31
0.0000000000
11
3.1687415890
21
2.3532852889
31
0.0000000000
11
3.1243420485
21
2.3975783144
31
0.0000000000
11
3.0685526773
21
2.4258988626
31
0.0000000000
11
3.0070574568
21
2.4355883096
31
0.0000000000
0
SPLINE
5
487
100
AcDbEntity
8
0
100
AcDbSpline
62
9
6
CONTINUOUS
70
0
71
3
72
11
73
7
74
5
42
0.0000001000
43
0.0000001000
44
0.0000000001
12
-0.7193852718
22
-0.0003175323
32
0.0000000000
13
-0.2585083849
23
0.6713335126
33
0.0000000000
40
0.0000000000
40
0.0000000000
40
0.0000000000
40
0.0000000000
40
0.2515912781
40
0.5008032704
40
0.7496184163
40
1.0000000000
40
1.0000000000
40
1.0000000000
40
1.0000000000
10
1.9551534352
20
2.4355883092
30
0.0000000000
10
1.8948230818
20
2.4355616797
30
0.0000000000
10
1.7739443361
20
2.4539861287
30
0.0000000000
10
1.6099890383
20
2.5338393376
30
0.0000000000
10
1.4770197781
20
2.6582150007
30
0.0000000000
10
1.4167150142
20
2.7640959495
30
0.0000000000
10
1.3951397679
20
2.8201257989
30
0.0000000000
11
1.9551534352
21
2.4355883092
31
0.0000000000
11
1.7762330307
21
2.4628877421
31
0.0000000000
11
1.6150212723
21
2.5413217378
31
0.0000000000
11
1.4843504111
21
2.6636490320
31
0.0000000000
11
1.3951397679
21
2.8201257989
31
0.0000000000
0
SPLINE
5
488
100
AcDbEntity
8
0
100
AcDbSpline
62
9
6
CONTINUOUS
70
0
71
3
72
11
73
7
74
5
42
0.0000001000
43
0.0000001000
44
0.0000000001
12
-0.2585086506
22
-0.6713334198
32
0.0000000000
13
-0.7193852807
23
0.0003176234
33
0.0000000000
40
0.0000000000
40
0.0000000000
40
0.0000000000
40
0.0000000000
40
0.2503815866
40
0.4991967310
40
0.7484087205
40
1.0000000000
40
1.0000000000
40
1.0000000000
40
1.0000000000
10
-1.2179290289
20
2.8201257989
30
0.0000000000
10
-1.2395042976
20
2.7640959567
30
0.0000000000
10
-1.2998089796
20
2.6582149551
30
0.0000000000
10
-1.4327783358
20
2.5338393861
30
0.0000000000
10
-1.5967335776
20
2.4539860820
30
0.0000000000
10
-1.7176123417
20
2.4355616721
30
0.0000000000
10
-1.7779426961
20
2.4355883092
30
0.0000000000
11
-1.2179290289
21
2.8201257989
31
0.0000000000
11
-1.3071396498
21
2.6636490144
31
0.0000000000
11
-1.4378105448
21
2.5413217546
31
0.0000000000
11
-1.5990222852
21
2.4628877214
31
0.0000000000
11
-1.7779426961
21
2.4355883092
31
0.0000000000
0
SPLINE
5
489
100
AcDbEntity
8
0
100
AcDbSpline
62
9
6
CONTINUOUS
70
0
71
3
72
12
73
8
74
6
42
0.0000001000
43
0.0000001000
44
0.0000000001
12
-0.3128202548
22
0.0001875590
32
0.0000000000
13
0.0000194953
23
-0.3128203104
33
0.0000000000
40
0.0000000000
40
0.0000000000
40
0.0000000000
40
0.0000000000
40
0.2000211307
40
0.4005022263
40
0.6009852447
40
0.8009915166
40
1.0000000000
40
1.0000000000
40
1.0000000000
40
1.0000000000
10
-2.8298467178
20
2.4355883096
30
0.0000000000
10
-2.8507036048
20
2.4356008148
30
0.0000000000
10
-2.8927598298
20
2.4289418035
30
0.0000000000
10
-2.9494642757
20
2.4000016004
30
0.0000000000
10
-2.9944713180
20
2.3548820256
30
0.0000000000
10
-3.0232352917
20
2.2982674245
30
0.0000000000
10
-3.0298175501
20
2.2563700691
30
0.0000000000
10
-3.0298162568
20
2.2356187705
30
0.0000000000
11
-2.8298467178
21
2.4355883096
31
0.0000000000
11
-2.8916470167
21
2.4257999447
31
0.0000000000
11
-2.9475132361
21
2.3973029028
31
0.0000000000
11
-2.9918062617
21
2.3529033622
31
0.0000000000
11
-3.0201268098
21
2.2971139910
31
0.0000000000
11
-3.0298162568
21
2.2356187705
31
0.0000000000
0
SPLINE
5
48A
100
AcDbEntity
8
0
100
AcDbSpline
62
9
6
CONTINUOUS
70
0
71
3
72
12
73
8
74
6
42
0.0000001000
43
0.0000001000
44
0.0000000001
12
-0.0001875590
22
-0.3128202548
32
0.0000000000
13
0.3128203104
23
0.0000194953
33
0.0000000000
40
0.0000000000
40
0.0000000000
40
0.0000000000
40
0.0000000000
40
0.2000211307
40
0.4005022263
40
0.6009852447
40
0.8009915166
40
1.0000000000
40
1.0000000000
40
1.0000000000
40
1.0000000000
10
-3.0298162568
20
-3.9012854041
30
0.0000000000
10
-3.0298287621
20
-3.9221422911
30
0.0000000000
10
-3.0231697507
20
-3.9641985160
30
0.0000000000
10
-2.9942295477
20
-4.0209029620
30
0.0000000000
10
-2.9491099729
20
-4.0659100043
30
0.0000000000
10
-2.8924953718
20
-4.0946739780
30
0.0000000000
10
-2.8505980163
20
-4.1012562364
30
0.0000000000
10
-2.8298467178
20
-4.1012549431
30
0.0000000000
11
-3.0298162568
21
-3.9012854041
31
0.0000000000
11
-3.0200278920
21
-3.9630857030
31
0.0000000000
11
-2.9915308500
21
-4.0189519224
31
0.0000000000
11
-2.9471313095
21
-4.0632449480
31
0.0000000000
11
-2.8913419383
21
-4.0915654961
31
0.0000000000
11
-2.8298467178
21
-4.1012549431
31
0.0000000000
0
SPLINE
5
48B
100
AcDbEntity
8
0
100
AcDbSpline
62
7
6
CONTINUOUS
70
0
71
3
72
32
73
28
74
26
42
0.0000001000
43
0.0000001000
44
0.0000000001
12
-0.6407329712
22
0.6407329712
32
0.0000000000
13
0.0000000000
23
-0.9061332577
33
0.0000000000
40
0.0000000000
40
0.0000000000
40
0.0000000000
40
0.0000000000
40
0.0043069725
40
0.0163919153
40
0.0360729346
40
0.0630421591
40
0.0968762501
40
0.1370439022
40
0.1829140150
40
0.2337660174
40
0.2888008725
40
0.3471539500
40
0.4079083789
40
0.4701096322
40
0.5327805248
40
0.5949363991
40
0.6556005566
40
0.7138199080
40
0.7686796671
40
0.8193179791
40
0.8649391463
40
0.9048265250
40
0.9383534049
40
0.9649933132
40
0.9843280882
40
0.9960553636
40
1.0000000000
40
1.0000000000
40
1.0000000000
40
1.0000000000
10
4.4946831225
20
-21.5389110697
30
0.0000000000
10
4.4937632494
20
-21.5379911966
30
0.0000000000
10
4.4879527978
20
-21.5394083333
30
0.0000000000
10
4.4778600399
20
-21.5376040989
30
0.0000000000
10
4.4596800080
20
-21.5381572464
30
0.0000000000
10
4.4355614188
20
-21.5375096398
30
0.0000000000
10
4.4049934112
20
-21.5373766116
30
0.0000000000
10
4.3688124186
20
-21.5370815769
30
0.0000000000
10
4.3274580805
20
-21.5368763585
30
0.0000000000
10
4.2816236650
20
-21.5366816453
30
0.0000000000
10
4.2320153764
20
-21.5365274698
30
0.0000000000
10
4.1794170020
20
-21.5364082281
30
0.0000000000
10
4.1246536904
20
-21.5363283581
30
0.0000000000
10
4.0685862510
20
-21.5362884773
30
0.0000000000
10
4.0120954541
20
-21.5362894200
30
0.0000000000
10
3.9560690313
20
-21.5363312006
30
0.0000000000
10
3.9013869219
20
-21.5364128377
30
0.0000000000
10
3.8489096733
20
-21.5365340671
30
0.0000000000
10
3.7994572456
20
-21.5366891060
30
0.0000000000
10
3.7538219541
20
-21.5368879168
30
0.0000000000
10
3.7126713530
20
-21.5370862664
30
0.0000000000
10
3.6768058915
20
-21.5374073317
30
0.0000000000
10
3.6463344684
20
-21.5374701778
30
0.0000000000
10
3.6229882389
20
-21.5383043202
30
0.0000000000
10
3.6040252466
20
-21.5373280838
30
0.0000000000
10
3.5961882828
20
-21.5398561306
30
0.0000000000
10
3.5886053695
20
-21.5377349483
30
0.0000000000
10
3.5886053695
20
-21.5389264037
30
0.0000000000
11
4.4946831225
21
-21.5389110697
31
0.0000000000
11
4.4907943749
21
-21.5385814646
31
0.0000000000
11
4.4798486061
21
-21.5382572775
31
0.0000000000
11
4.4620177387
21
-21.5379436028
31
0.0000000000
11
4.4375818474
21
-21.5376453690
31
0.0000000000
11
4.4069249137
21
-21.5373672629
31
0.0000000000
11
4.3705285518
21
-21.5371136540
31
0.0000000000
11
4.3289647267
21
-21.5368885279
31
0.0000000000
11
4.2828864407
21
-21.5366954214
31
0.0000000000
11
4.2330177787
21
-21.5365373691
31
0.0000000000
11
4.1801422518
21
-21.5364168542
31
0.0000000000
11
4.1250907029
21
-21.5363357702
31
0.0000000000
11
4.0687280931
21
-21.5362953911
31
0.0000000000
11
4.0119399130
21
-21.5362963513
31
0.0000000000
11
3.9556184241
21
-21.5363386359
31
0.0000000000
11
3.9006486760
21
-21.5364215805
31
0.0000000000
11
3.8478943272
21
-21.5365438821
31
0.0000000000
11
3.7981843316
21
-21.5367036188
31
0.0000000000
11
3.7522996859
21
-21.5368982811
31
0.0000000000
11
3.7109614498
21
-21.5371248100
31
0.0000000000
11
3.6748190677
21
-21.5373796466
31
0.0000000000
11
3.6444405293
21
-21.5376587860
31
0.0000000000
11
3.6203030750
21
-21.5379578427
31
0.0000000000
11
3.6027860112
21
-21.5382721168
31
0.0000000000
11
3.5921644944
21
-21.5385966706
31
0.0000000000
11
3.5886053695
21
-21.5389264037
31
0.0000000000
0
SPLINE
5
48C
100
AcDbEntity
8
0
100
AcDbSpline
62
7
6
CONTINUOUS
70
0
71
3
72
32
73
28
74
26
42
0.0000001000
43
0.0000001000
44
0.0000000001
12
0.0000000000
22
0.9061332577
32
0.0000000000
13
-0.6407329712
23
-0.6407329712
33
0.0000000000
40
0.0000000000
40
0.0000000000
40
0.0000000000
40
0.0000000000
40
0.0039446364
40
0.0156719118
40
0.0350066868
40
0.0616465951
40
0.0951734750
40
0.1350608537
40
0.1806820209
40
0.2313203329
40
0.2861800920
40
0.3443994434
40
0.4050636009
40
0.4672194752
40
0.5298903678
40
0.5920916211
40
0.6528460500
40
0.7111991275
40
0.7662339826
40
0.8170859850
40
0.8629560978
40
0.9031237499
40
0.9369578409
40
0.9639270654
40
0.9836080847
40
0.9956930275
40
1.0000000000
40
1.0000000000
40
1.0000000000
40
1.0000000000
10
-3.4113946305
20
-21.5389264037
30
0.0000000000
10
-3.4113946305
20
-21.5377349483
30
0.0000000000
10
-3.4189775438
20
-21.5398561306
30
0.0000000000
10
-3.4268145076
20
-21.5373280838
30
0.0000000000
10
-3.4457774999
20
-21.5383043202
30
0.0000000000
10
-3.4691237294
20
-21.5374701778
30
0.0000000000
10
-3.4995951525
20
-21.5374073317
30
0.0000000000
10
-3.5354606140
20
-21.5370862664
30
0.0000000000
10
-3.5766112150
20
-21.5368879168
30
0.0000000000
10
-3.6222465066
20
-21.5366891060
30
0.0000000000
10
-3.6716989343
20
-21.5365340671
30
0.0000000000
10
-3.7241761829
20
-21.5364128377
30
0.0000000000
10
-3.7788582923
20
-21.5363312006
30
0.0000000000
10
-3.8348847151
20
-21.5362894200
30
0.0000000000
10
-3.8913755120
20
-21.5362884773
30
0.0000000000
10
-3.9474429514
20
-21.5363283581
30
0.0000000000
10
-4.0022062630
20
-21.5364082281
30
0.0000000000
10
-4.0548046374
20
-21.5365274698
30
0.0000000000
10
-4.1044129260
20
-21.5366816453
30
0.0000000000
10
-4.1502473415
20
-21.5368763585
30
0.0000000000
10
-4.1916016796
20
-21.5370815769
30
0.0000000000
10
-4.2277826722
20
-21.5373766116
30
0.0000000000
10
-4.2583506798
20
-21.5375096398
30
0.0000000000
10
-4.2824692690
20
-21.5381572464
30
0.0000000000
10
-4.3006493009
20
-21.5376040989
30
0.0000000000
10
-4.3107420588
20
-21.5394083333
30
0.0000000000
10
-4.3165525104
20
-21.5379911966
30
0.0000000000
10
-4.3174723834
20
-21.5389110697
30
0.0000000000
11
-3.4113946305
21
-21.5389264037
31
0.0000000000
11
-3.4149537554
21
-21.5385966706
31
0.0000000000
11
-3.4255752722
21
-21.5382721168
31
0.0000000000
11
-3.4430923359
21
-21.5379578427
31
0.0000000000
11
-3.4672297903
21
-21.5376587860
31
0.0000000000
11
-3.4976083287
21
-21.5373796466
31
0.0000000000
11
-3.5337507108
21
-21.5371248100
31
0.0000000000
11
-3.5750889469
21
-21.5368982811
31
0.0000000000
11
-3.6209735926
21
-21.5367036188
31
0.0000000000
11
-3.6706835882
21
-21.5365438821
31
0.0000000000
11
-3.7234379370
21
-21.5364215805
31
0.0000000000
11
-3.7784076851
21
-21.5363386359
31
0.0000000000
11
-3.8347291740
21
-21.5362963513
31
0.0000000000
11
-3.8915173541
21
-21.5362953911
31
0.0000000000
11
-3.9478799639
21
-21.5363357702
31
0.0000000000
11
-4.0029315128
21
-21.5364168542
31
0.0000000000
11
-4.0558070397
21
-21.5365373691
31
0.0000000000
11
-4.1056757017
21
-21.5366954214
31
0.0000000000
11
-4.1517539877
21
-21.5368885279
31
0.0000000000
11
-4.1933178128
21
-21.5371136540
31
0.0000000000
11
-4.2297141747
21
-21.5373672629
31
0.0000000000
11
-4.2603711083
21
-21.5376453690
31
0.0000000000
11
-4.2848069997
21
-21.5379436028
31
0.0000000000
11
-4.3026378671
21
-21.5382572775
31
0.0000000000
11
-4.3135836359
21
-21.5385814646
31
0.0000000000
11
-4.3174723834
21
-21.5389110697
31
0.0000000000
0
SPLINE
5
48D
100
AcDbEntity
8
0
100
AcDbSpline
62
9
6
CONTINUOUS
70
0
71
3
72
12
73
8
74
6
42
0.0000001000
43
0.0000001000
44
0.0000000001
12
0.3128202548
22
-0.0001875590
32
0.0000000000
13
-0.0000194953
23
0.3128203104
33
0.0000000000
40
0.0000000000
40
0.0000000000
40
0.0000000000
40
0.0000000000
40
0.2000211307
40
0.4005022263
40
0.6009852447
40
0.8009915166
40
1.0000000000
40
1.0000000000
40
1.0000000000
40
1.0000000000
10
3.0070574568
20
-4.1012549431
30
0.0000000000
10
3.0279143438
20
-4.1012674484
30
0.0000000000
10
3.0699705688
20
-4.0946084370
30
0.0000000000
10
3.1266750148
20
-4.0656682340
30
0.0000000000
10
3.1716820570
20
-4.0205486592
30
0.0000000000
10
3.2004460307
20
-3.9639340581
30
0.0000000000
10
3.2070282891
20
-3.9220367026
30
0.0000000000
10
3.2070269958
20
-3.9012854041
30
0.0000000000
11
3.0070574568
21
-4.1012549431
31
0.0000000000
11
3.0688577558
21
-4.0914665783
31
0.0000000000
11
3.1247239751
21
-4.0629695363
31
0.0000000000
11
3.1690170007
21
-4.0185699958
31
0.0000000000
11
3.1973375488
21
-3.9627806246
31
0.0000000000
11
3.2070269958
21
-3.9012854041
31
0.0000000000
0
SPLINE
5
48E
100
AcDbEntity
8
0
100
AcDbSpline
62
7
6
CONTINUOUS
70
0
71
3
72
32
73
28
74
26
42
0.0000001000
43
0.0000001000
44
0.0000000001
12
0.0000000000
22
-0.9061332577
32
0.0000000000
13
0.6407329712
23
0.6407329712
33
0.0000000000
40
0.0000000000
40
0.0000000000
40
0.0000000000
40
0.0000000000
40
0.0039446364
40
0.0156719118
40
0.0350066868
40
0.0616465951
40
0.0951734750
40
0.1350608537
40
0.1806820209
40
0.2313203329
40
0.2861800920
40
0.3443994434
40
0.4050636009
40
0.4672194752
40
0.5298903678
40
0.5920916211
40
0.6528460500
40
0.7111991275
40
0.7662339826
40
0.8170859850
40
0.8629560978
40
0.9031237499
40
0.9369578409
40
0.9639270654
40
0.9836080847
40
0.9956930275
40
1.0000000000
40
1.0000000000
40
1.0000000000
40
1.0000000000
10
3.5886053695
20
23.1732597701
30
0.0000000000
10
3.5886053695
20
23.1720683147
30
0.0000000000
10
3.5961882828
20
23.1741894971
30
0.0000000000
10
3.6040252466
20
23.1716614502
30
0.0000000000
10
3.6229882389
20
23.1726376866
30
0.0000000000
10
3.6463344684
20
23.1718035442
30
0.0000000000
10
3.6768058915
20
23.1717406981
30
0.0000000000
10
3.7126713530
20
23.1714196328
30
0.0000000000
10
3.7538219541
20
23.1712212833
30
0.0000000000
10
3.7994572456
20
23.1710224724
30
0.0000000000
10
3.8489096733
20
23.1708674335
30
0.0000000000
10
3.9013869219
20
23.1707462042
30
0.0000000000
10
3.9560690313
20
23.1706645671
30
0.0000000000
10
4.0120954541
20
23.1706227865
30
0.0000000000
10
4.0685862510
20
23.1706218438
30
0.0000000000
10
4.1246536904
20
23.1706617246
30
0.0000000000
10
4.1794170020
20
23.1707415946
30
0.0000000000
10
4.2320153764
20
23.1708608362
30
0.0000000000
10
4.2816236650
20
23.1710150118
30
0.0000000000
10
4.3274580805
20
23.1712097250
30
0.0000000000
10
4.3688124186
20
23.1714149434
30
0.0000000000
10
4.4049934112
20
23.1717099780
30
0.0000000000
10
4.4355614188
20
23.1718430062
30
0.0000000000
10
4.4596800080
20
23.1724906129
30
0.0000000000
10
4.4778600399
20
23.1719374654
30
0.0000000000
10
4.4879527978
20
23.1737416997
30
0.0000000000
10
4.4937632494
20
23.1723245631
30
0.0000000000
10
4.4946831225
20
23.1732444362
30
0.0000000000
11
3.5886053695
21
23.1732597701
31
0.0000000000
11
3.5921644944
21
23.1729300370
31
0.0000000000
11
3.6027860112
21
23.1726054833
31
0.0000000000
11
3.6203030750
21
23.1722912092
31
0.0000000000
11
3.6444405293
21
23.1719921525
31
0.0000000000
11
3.6748190677
21
23.1717130131
31
0.0000000000
11
3.7109614498
21
23.1714581765
31
0.0000000000
11
3.7522996859
21
23.1712316476
31
0.0000000000
11
3.7981843316
21
23.1710369853
31
0.0000000000
11
3.8478943272
21
23.1708772486
31
0.0000000000
11
3.9006486760
21
23.1707549470
31
0.0000000000
11
3.9556184241
21
23.1706720023
31
0.0000000000
11
4.0119399130
21
23.1706297177
31
0.0000000000
11
4.0687280931
21
23.1706287575
31
0.0000000000
11
4.1250907029
21
23.1706691367
31
0.0000000000
11
4.1801422518
21
23.1707502207
31
0.0000000000
11
4.2330177787
21
23.1708707356
31
0.0000000000
11
4.2828864407
21
23.1710287879
31
0.0000000000
11
4.3289647267
21
23.1712218944
31
0.0000000000
11
4.3705285518
21
23.1714470205
31
0.0000000000
11
4.4069249137
21
23.1717006294
31
0.0000000000
11
4.4375818474
21
23.1719787354
31
0.0000000000
11
4.4620177387
21
23.1722769693
31
0.0000000000
11
4.4798486061
21
23.1725906439
31
0.0000000000
11
4.4907943749
21
23.1729148311
31
0.0000000000
11
4.4946831225
21
23.1732444362
31
0.0000000000
0
SPLINE
5
48F
100
AcDbEntity
8
0
100
AcDbSpline
62
7
6
CONTINUOUS
70
0
71
3
72
13
73
9
74
7
42
0.0000001000
43
0.0000001000
44
0.0000000001
12
-0.3000000000
22
0.3000000000
32
0.0000000000
13
-0.3000000000
23
0.3000000000
33
0.0000000000
40
0.0000000000
40
0.0000000000
40
0.0000000000
40
0.0000000000
40
0.2174906642
40
0.4354383120
40
0.6399626827
40
0.8168993412
40
0.9470932219
40
1.0000000000
40
1.0000000000
40
1.0000000000
40
1.0000000000
10
-1.0113946305
20
-1.4828333168
30
0.0000000000
10
-1.0331436969
20
-1.4610842503
30
0.0000000000
10
-1.0766875281
20
-1.4175404191
30
0.0000000000
10
-1.1406837964
20
-1.3535441509
30
0.0000000000
10
-1.2006246641
20
-1.2936032832
30
0.0000000000
10
-1.2517901551
20
-1.2424377922
30
0.0000000000
10
-1.2877938868
20
-1.2064340605
30
0.0000000000
10
-1.3061039527
20
-1.1881239946
30
0.0000000000
10
-1.3113946305
20
-1.1828333168
30
0.0000000000
11
-1.0113946305
21
-1.4828333168
31
0.0000000000
11
-1.0766418298
21
-1.4175861175
31
0.0000000000
11
-1.1420261241
21
-1.3522018232
31
0.0000000000
11
-1.2033834353
21
-1.2908445120
31
0.0000000000
11
-1.2564644328
21
-1.2377635144
31
0.0000000000
11
-1.2955225971
21
-1.1987053502
31
0.0000000000
11
-1.3113946305
21
-1.1828333168
31
0.0000000000
0
SPLINE
5
490
100
AcDbEntity
8
0
100
AcDbSpline
62
7
6
CONTINUOUS
70
0
71
3
72
32
73
28
74
26
42
0.0000001000
43
0.0000001000
44
0.0000000001
12
0.6407329712
22
-0.6407329712
32
0.0000000000
13
0.0000000000
23
0.9061332577
33
0.0000000000
40
0.0000000000
40
0.0000000000
40
0.0000000000
40
0.0000000000
40
0.0043069725
40
0.0163919153
40
0.0360729346
40
0.0630421591
40
0.0968762501
40
0.1370439022
40
0.1829140150
40
0.2337660174
40
0.2888008725
40
0.3471539500
40
0.4079083789
40
0.4701096322
40
0.5327805248
40
0.5949363991
40
0.6556005566
40
0.7138199080
40
0.7686796671
40
0.8193179791
40
0.8649391463
40
0.9048265250
40
0.9383534049
40
0.9649933132
40
0.9843280882
40
0.9960553636
40
1.0000000000
40
1.0000000000
40
1.0000000000
40
1.0000000000
10
-4.3174723834
20
23.1732444362
30
0.0000000000
10
-4.3165525104
20
23.1723245631
30
0.0000000000
10
-4.3107420588
20
23.1737416997
30
0.0000000000
10
-4.3006493009
20
23.1719374654
30
0.0000000000
10
-4.2824692690
20
23.1724906129
30
0.0000000000
10
-4.2583506798
20
23.1718430062
30
0.0000000000
10
-4.2277826722
20
23.1717099780
30
0.0000000000
10
-4.1916016796
20
23.1714149434
30
0.0000000000
10
-4.1502473415
20
23.1712097250
30
0.0000000000
10
-4.1044129260
20
23.1710150118
30
0.0000000000
10
-4.0548046374
20
23.1708608362
30
0.0000000000
10
-4.0022062630
20
23.1707415946
30
0.0000000000
10
-3.9474429514
20
23.1706617246
30
0.0000000000
10
-3.8913755120
20
23.1706218438
30
0.0000000000
10
-3.8348847151
20
23.1706227865
30
0.0000000000
10
-3.7788582923
20
23.1706645671
30
0.0000000000
10
-3.7241761829
20
23.1707462042
30
0.0000000000
10
-3.6716989343
20
23.1708674335
30
0.0000000000
10
-3.6222465066
20
23.1710224724
30
0.0000000000
10
-3.5766112150
20
23.1712212833
30
0.0000000000
10
-3.5354606140
20
23.1714196328
30
0.0000000000
10
-3.4995951525
20
23.1717406981
30
0.0000000000
10
-3.4691237294
20
23.1718035442
30
0.0000000000
10
-3.4457774999
20
23.1726376866
30
0.0000000000
10
-3.4268145076
20
23.1716614502
30
0.0000000000
10
-3.4189775438
20
23.1741894971
30
0.0000000000
10
-3.4113946305
20
23.1720683147
30
0.0000000000
10
-3.4113946305
20
23.1732597701
30
0.0000000000
11
-4.3174723834
21
23.1732444362
31
0.0000000000
11
-4.3135836359
21
23.1729148311
31
0.0000000000
11
-4.3026378671
21
23.1725906439
31
0.0000000000
11
-4.2848069997
21
23.1722769693
31
0.0000000000
11
-4.2603711083
21
23.1719787354
31
0.0000000000
11
-4.2297141747
21
23.1717006294
31
0.0000000000
11
-4.1933178128
21
23.1714470205
31
0.0000000000
11
-4.1517539877
21
23.1712218944
31
0.0000000000
11
-4.1056757017
21
23.1710287879
31
0.0000000000
11
-4.0558070397
21
23.1708707356
31
0.0000000000
11
-4.0029315128
21
23.1707502207
31
0.0000000000
11
-3.9478799639
21
23.1706691367
31
0.0000000000
11
-3.8915173541
21
23.1706287575
31
0.0000000000
11
-3.8347291740
21
23.1706297177
31
0.0000000000
11
-3.7784076851
21
23.1706720023
31
0.0000000000
11
-3.7234379370
21
23.1707549470
31
0.0000000000
11
-3.6706835882
21
23.1708772486
31
0.0000000000
11
-3.6209735926
21
23.1710369853
31
0.0000000000
11
-3.5750889469
21
23.1712316476
31
0.0000000000
11
-3.5337507108
21
23.1714581765
31
0.0000000000
11
-3.4976083287
21
23.1717130131
31
0.0000000000
11
-3.4672297903
21
23.1719921525
31
0.0000000000
11
-3.4430923359
21
23.1722912092
31
0.0000000000
11
-3.4255752722
21
23.1726054833
31
0.0000000000
11
-3.4149537554
21
23.1729300370
31
0.0000000000
11
-3.4113946305
21
23.1732597701
31
0.0000000000
0
SPLINE
5
491
100
AcDbEntity
8
0
100
AcDbSpline
62
7
6
CONTINUOUS
70
0
71
3
72
11
73
7
74
5
42
0.0000001000
43
0.0000001000
44
0.0000000001
12
-0.3103190565
22
0.4388574184
32
0.0000000000
13
-0.2908031263
23
0.4520257650
33
0.0000000000
40
0.0000000000
40
0.0000000000
40
0.0000000000
40
0.0000000000
40
0.2557937571
40
0.5094340121
40
0.7584327277
40
1.0000000000
40
1.0000000000
40
1.0000000000
40
1.0000000000
10
-7.4780402847
20
22.1531536319
30
0.0000000000
10
-7.5044995105
20
22.1905726278
30
0.0000000000
10
-7.5571956804
20
22.2650952285
30
0.0000000000
10
-7.6351489362
20
22.3763957124
30
0.0000000000
10
-7.7105822985
20
22.4863431160
30
0.0000000000
10
-7.7591225174
20
22.5596244133
30
0.0000000000
10
-7.7825386901
20
22.5960226236
30
0.0000000000
11
-7.4780402847
21
22.1531536319
31
0.0000000000
11
-7.5573338524
21
22.2654700470
31
0.0000000000
11
-7.6354441018
21
22.3772032116
31
0.0000000000
11
-7.7110305309
21
22.4876487111
31
0.0000000000
11
-7.7825386901
21
22.5960226236
31
0.0000000000
0
SPLINE
5
492
100
AcDbEntity
8
0
100
AcDbSpline
62
7
6
CONTINUOUS
70
0
71
3
72
11
73
7
74
5
42
0.0000001000
43
0.0000001000
44
0.0000000001
12
-0.2908031263
22
-0.4520257650
32
0.0000000000
13
-0.3103190565
23
-0.4388574184
33
0.0000000000
40
0.0000000000
40
0.0000000000
40
0.0000000000
40
0.0000000000
40
0.2415672723
40
0.4905659879
40
0.7442062429
40
1.0000000000
40
1.0000000000
40
1.0000000000
40
1.0000000000
10
7.9597494291
20
22.5960226236
30
0.0000000000
10
7.9363332564
20
22.5596244133
30
0.0000000000
10
7.8877930375
20
22.4863431160
30
0.0000000000
10
7.8123596752
20
22.3763957124
30
0.0000000000
10
7.7344064194
20
22.2650952285
30
0.0000000000
10
7.6817102495
20
22.1905726278
30
0.0000000000
10
7.6552510237
20
22.1531536319
30
0.0000000000
11
7.9597494291
21
22.5960226236
31
0.0000000000
11
7.8882412700
21
22.4876487111
31
0.0000000000
11
7.8126548408
21
22.3772032116
31
0.0000000000
11
7.7345445914
21
22.2654700470
31
0.0000000000
11
7.6552510237
21
22.1531536319
31
0.0000000000
0
SPLINE
5
493
100
AcDbEntity
8
0
100
AcDbSpline
62
7
6
CONTINUOUS
70
0
71
3
72
11
73
7
74
5
42
0.0000001000
43
0.0000001000
44
0.0000000001
12
0.3103190565
22
-0.4388574184
32
0.0000000000
13
0.2908031263
23
-0.4520257650
33
0.0000000000
40
0.0000000000
40
0.0000000000
40
0.0000000000
40
0.0000000000
40
0.2557937571
40
0.5094340121
40
0.7584327277
40
1.0000000000
40
1.0000000000
40
1.0000000000
40
1.0000000000
10
7.6552510237
20
-20.5188202654
30
0.0000000000
10
7.6817102495
20
-20.5562392614
30
0.0000000000
10
7.7344064194
20
-20.6307618620
30
0.0000000000
10
7.8123596752
20
-20.7420623460
30
0.0000000000
10
7.8877930375
20
-20.8520097495
30
0.0000000000
10
7.9363332564
20
-20.9252910468
30
0.0000000000
10
7.9597494291
20
-20.9616892572
30
0.0000000000
11
7.6552510237
21
-20.5188202654
31
0.0000000000
11
7.7345445914
21
-20.6311366806
31
0.0000000000
11
7.8126548408
21
-20.7428698451
31
0.0000000000
11
7.8882412700
21
-20.8533153447
31
0.0000000000
11
7.9597494291
21
-20.9616892572
31
0.0000000000
0
SPLINE
5
494
100
AcDbEntity
8
0
100
AcDbSpline
62
7
6
CONTINUOUS
70
0
71
3
72
13
73
9
74
7
42
0.0000001000
43
0.0000001000
44
0.0000000001
12
0.3000000000
22
0.3000000000
32
0.0000000000
13
0.3000000000
23
0.3000000000
33
0.0000000000
40
0.0000000000
40
0.0000000000
40
0.0000000000
40
0.0000000000
40
0.2174906642
40
0.4354383120
40
0.6399626827
40
0.8168993412
40
0.9470932219
40
1.0000000000
40
1.0000000000
40
1.0000000000
40
1.0000000000
10
1.1886053695
20
-1.4828333168
30
0.0000000000
10
1.2103544359
20
-1.4610842503
30
0.0000000000
10
1.2538982671
20
-1.4175404191
30
0.0000000000
10
1.3178945354
20
-1.3535441509
30
0.0000000000
10
1.3778354031
20
-1.2936032832
30
0.0000000000
10
1.4290008941
20
-1.2424377922
30
0.0000000000
10
1.4650046258
20
-1.2064340605
30
0.0000000000
10
1.4833146917
20
-1.1881239946
30
0.0000000000
10
1.4886053695
20
-1.1828333168
30
0.0000000000
11
1.1886053695
21
-1.4828333168
31
0.0000000000
11
1.2538525688
21
-1.4175861175
31
0.0000000000
11
1.3192368631
21
-1.3522018232
31
0.0000000000
11
1.3805941743
21
-1.2908445120
31
0.0000000000
11
1.4336751719
21
-1.2377635144
31
0.0000000000
11
1.4727333361
21
-1.1987053502
31
0.0000000000
11
1.4886053695
21
-1.1828333168
31
0.0000000000
0
SPLINE
5
495
100
AcDbEntity
8
0
100
AcDbSpline
62
7
6
CONTINUOUS
70
0
71
3
72
11
73
7
74
5
42
0.0000001000
43
0.0000001000
44
0.0000000001
12
0.2908031263
22
0.4520257650
32
0.0000000000
13
0.3103190565
23
0.4388574184
33
0.0000000000
40
0.0000000000
40
0.0000000000
40
0.0000000000
40
0.0000000000
40
0.2415672723
40
0.4905659879
40
0.7442062429
40
1.0000000000
40
1.0000000000
40
1.0000000000
40
1.0000000000
10
-7.7825386901
20
-20.9616892572
30
0.0000000000
10
-7.7591225174
20
-20.9252910468
30
0.0000000000
10
-7.7105822985
20
-20.8520097495
30
0.0000000000
10
-7.6351489362
20
-20.7420623460
30
0.0000000000
10
-7.5571956804
20
-20.6307618620
30
0.0000000000
10
-7.5044995105
20
-20.5562392614
30
0.0000000000
10
-7.4780402847
20
-20.5188202654
30
0.0000000000
11
-7.7825386901
21
-20.9616892572
31
0.0000000000
11
-7.7110305309
21
-20.8533153447
31
0.0000000000
11
-7.6354441018
21
-20.7428698451
31
0.0000000000
11
-7.5573338524
21
-20.6311366806
31
0.0000000000
11
-7.4780402847
21
-20.5188202654
31
0.0000000000
0
SPLINE
5
496
100
AcDbEntity
8
0
100
AcDbSpline
62
7
6
CONTINUOUS
70
0
71
3
72
20
73
16
74
14
42
0.0000001000
43
0.0000001000
44
0.0000000001
12
0.0000000000
22
-0.7849039878
32
0.0000000000
13
0.7849039878
23
0.0000000000
33
0.0000000000
40
0.0000000000
40
0.0000000000
40
0.0000000000
40
0.0000000000
40
0.0766711417
40
0.1537567778
40
0.2306436098
40
0.3073661863
40
0.3845607487
40
0.4616513950
40
0.5383075132
40
0.6154062635
40
0.6926006714
40
0.7693193439
40
0.8462196277
40
0.9233208052
40
1.0000000000
40
1.0000000000
40
1.0000000000
40
1.0000000000
10
-11.0531041061
20
-21.0770324100
30
0.0000000000
10
-11.0531041061
20
-21.0970922383
30
0.0000000000
10
-11.0506773639
20
-21.1373622429
30
0.0000000000
10
-11.0397893872
20
-21.1968593547
30
0.0000000000
10
-11.0217987095
20
-21.2546294069
30
0.0000000000
10
-10.9969748109
20
-21.3098371951
30
0.0000000000
10
-10.9656454381
20
-21.3616966531
30
0.0000000000
10
-10.9282878251
20
-21.4093742859
30
0.0000000000
10
-10.8854781065
20
-21.4521854022
30
0.0000000000
10
-10.8377998236
20
-21.4895456159
30
0.0000000000
10
-10.7859402069
20
-21.5208767584
30
0.0000000000
10
-10.7307309786
20
-21.5457033802
30
0.0000000000
10
-10.6729551360
20
-21.5636977331
30
0.0000000000
10
-10.6134485730
20
-21.5745882722
30
0.0000000000
10
-10.5731723874
20
-21.5770154870
30
0.0000000000
10
-10.5531104522
20
-21.5770154870
30
0.0000000000
11
-11.0531041061
21
-21.0770324100
31
0.0000000000
11
-11.0494824988
21
-21.1371028217
31
0.0000000000
11
-11.0385922097
21
-21.1966195020
31
0.0000000000
11
-11.0206479372
21
-21.2542387562
31
0.0000000000
11
-10.9959522138
21
-21.3091619055
31
0.0000000000
11
-10.9646216577
21
-21.3610230964
31
0.0000000000
11
-10.9273020038
21
-21.4086524251
31
0.0000000000
11
-10.8847577208
21
-21.4511981093
31
0.0000000000
11
-10.8371244109
21
-21.4885229954
31
0.0000000000
11
-10.7852640742
21
-21.5198547307
31
0.0000000000
11
-10.7303444971
21
-21.5445509267
31
0.0000000000
11
-10.6727156949
21
-21.5625000495
31
0.0000000000
11
-10.6131871642
21
-21.5733933476
31
0.0000000000
11
-10.5531104522
21
-21.5770154870
31
0.0000000000
0
SPLINE
5
497
100
AcDbEntity
8
0
100
AcDbSpline
62
7
6
CONTINUOUS
70
0
71
3
72
20
73
16
74
14
42
0.0000001000
43
0.0000001000
44
0.0000000001
12
-0.7849039878
22
0.0000000000
32
0.0000000000
13
-0.0000000000
23
-0.7849039878
33
0.0000000000
40
0.0000000000
40
0.0000000000
40
0.0000000000
40
0.0000000000
40
0.0766791948
40
0.1537803723
40
0.2306806561
40
0.3073993286
40
0.3845937365
40
0.4616924868
40
0.5383486050
40
0.6154392513
40
0.6926338137
40
0.7693563902
40
0.8462432222
40
0.9233288583
40
1.0000000000
40
1.0000000000
40
1.0000000000
40
1.0000000000
10
-10.5531104522
20
23.2113488534
30
0.0000000000
10
-10.5731723874
20
23.2113488534
30
0.0000000000
10
-10.6134485730
20
23.2089216387
30
0.0000000000
10
-10.6729551360
20
23.1980310996
30
0.0000000000
10
-10.7307309786
20
23.1800367466
30
0.0000000000
10
-10.7859402069
20
23.1552101249
30
0.0000000000
10
-10.8377998236
20
23.1238789823
30
0.0000000000
10
-10.8854781065
20
23.0865187686
30
0.0000000000
10
-10.9282878251
20
23.0437076524
30
0.0000000000
10
-10.9656454381
20
22.9960300195
30
0.0000000000
10
-10.9969748109
20
22.9441705615
30
0.0000000000
10
-11.0217987095
20
22.8889627733
30
0.0000000000
10
-11.0397893872
20
22.8311927211
30
0.0000000000
10
-11.0506773639
20
22.7716956094
30
0.0000000000
10
-11.0531041061
20
22.7314256047
30
0.0000000000
10
-11.0531041061
20
22.7113657765
30
0.0000000000
11
-10.5531104522
21
23.2113488534
31
0.0000000000
11
-10.6131871642
21
23.2077267141
31
0.0000000000
11
-10.6727156949
21
23.1968334160
31
0.0000000000
11
-10.7303444971
21
23.1788842931
31
0.0000000000
11
-10.7852640742
21
23.1541880972
31
0.0000000000
11
-10.8371244109
21
23.1228563618
31
0.0000000000
11
-10.8847577208
21
23.0855314757
31
0.0000000000
11
-10.9273020038
21
23.0429857916
31
0.0000000000
11
-10.9646216577
21
22.9953564629
31
0.0000000000
11
-10.9959522138
21
22.9434952720
31
0.0000000000
11
-11.0206479372
21
22.8885721227
31
0.0000000000
11
-11.0385922097
21
22.8309528684
31
0.0000000000
11
-11.0494824988
21
22.7714361881
31
0.0000000000
11
-11.0531041061
21
22.7113657765
31
0.0000000000
0
SPLINE
5
498
100
AcDbEntity
8
0
100
AcDbSpline
62
7
6
CONTINUOUS
70
0
71
3
72
20
73
16
74
14
42
0.0000001000
43
0.0000001000
44
0.0000000001
12
0.7849039878
22
0.0000000000
32
0.0000000000
13
0.0000000000
23
0.7849039878
33
0.0000000000
40
0.0000000000
40
0.0000000000
40
0.0000000000
40
0.0000000000
40
0.0766791948
40
0.1537803723
40
0.2306806561
40
0.3073993286
40
0.3845937365
40
0.4616924868
40
0.5383486050
40
0.6154392513
40
0.6926338137
40
0.7693563902
40
0.8462432222
40
0.9233288583
40
1.0000000000
40
1.0000000000
40
1.0000000000
40
1.0000000000
10
10.7303211912
20
-21.5770154870
30
0.0000000000
10
10.7503831264
20
-21.5770154870
30
0.0000000000
10
10.7906593120
20
-21.5745882722
30
0.0000000000
10
10.8501658750
20
-21.5636977331
30
0.0000000000
10
10.9079417177
20
-21.5457033802
30
0.0000000000
10
10.9631509459
20
-21.5208767584
30
0.0000000000
10
11.0150105626
20
-21.4895456159
30
0.0000000000
10
11.0626888455
20
-21.4521854022
30
0.0000000000
10
11.1054985641
20
-21.4093742859
30
0.0000000000
10
11.1428561771
20
-21.3616966531
30
0.0000000000
10
11.1741855499
20
-21.3098371951
30
0.0000000000
10
11.1990094485
20
-21.2546294069
30
0.0000000000
10
11.2170001262
20
-21.1968593547
30
0.0000000000
10
11.2278881030
20
-21.1373622429
30
0.0000000000
10
11.2303148451
20
-21.0970922383
30
0.0000000000
10
11.2303148451
20
-21.0770324100
30
0.0000000000
11
10.7303211912
21
-21.5770154870
31
0.0000000000
11
10.7903979032
21
-21.5733933476
31
0.0000000000
11
10.8499264339
21
-21.5625000495
31
0.0000000000
11
10.9075552361
21
-21.5445509267
31
0.0000000000
11
10.9624748132
21
-21.5198547307
31
0.0000000000
11
11.0143351499
21
-21.4885229954
31
0.0000000000
11
11.0619684598
21
-21.4511981093
31
0.0000000000
11
11.1045127428
21
-21.4086524251
31
0.0000000000
11
11.1418323967
21
-21.3610230964
31
0.0000000000
11
11.1731629528
21
-21.3091619055
31
0.0000000000
11
11.1978586762
21
-21.2542387562
31
0.0000000000
11
11.2158029487
21
-21.1966195020
31
0.0000000000
11
11.2266932378
21
-21.1371028217
31
0.0000000000
11
11.2303148451
21
-21.0770324100
31
0.0000000000
0
SPLINE
5
499
100
AcDbEntity
8
0
100
AcDbSpline
62
9
6
CONTINUOUS
70
0
71
3
72
8
73
4
74
2
42
0.0000001000
43
0.0000001000
44
0.0000000001
12
-0.0790269737
22
-0.0000092528
32
0.0000000000
13
-0.0765009441
23
0.0206515118
33
0.0000000000
40
0.0000000000
40
0.0000000000
40
0.0000000000
40
0.0000000000
40
1.0000000000
40
1.0000000000
40
1.0000000000
40
1.0000000000
10
1.8799417329
20
2.9066582960
30
0.0000000000
10
1.8535994083
20
2.9066552118
30
0.0000000000
10
1.8270768910
20
2.9101827571
30
0.0000000000
10
1.8015765763
20
2.9170665944
30
0.0000000000
11
1.8799417329
21
2.9066582960
31
0.0000000000
11
1.8015765763
21
2.9170665944
31
0.0000000000
0
SPLINE
5
49A
100
AcDbEntity
8
0
100
AcDbSpline
62
9
6
CONTINUOUS
70
0
71
3
72
14
73
10
74
8
42
0.0000001000
43
0.0000001000
44
0.0000000001
12
-0.2300335137
22
0.0620977933
32
0.0000000000
13
-0.1168822474
23
0.2071164243
33
0.0000000000
40
0.0000000000
40
0.0000000000
40
0.0000000000
40
0.0000000000
40
0.0166510516
40
0.1916657460
40
0.3666771707
40
0.5416857840
40
0.7166921893
40
0.8916969316
40
1.0000000000
40
1.0000000000
40
1.0000000000
40
1.0000000000
10
1.8015765763
20
2.9170665944
30
0.0000000000
10
1.8002998097
20
2.9174112589
30
0.0000000000
10
1.7856327913
20
2.9214754477
30
0.0000000000
10
1.7582610160
20
2.9313778653
30
0.0000000000
10
1.7213486535
20
2.9508476388
30
0.0000000000
10
1.6874999113
20
2.9752328987
30
0.0000000000
10
1.6573445890
20
3.0040675421
30
0.0000000000
10
1.6347591138
20
3.0326310267
30
0.0000000000
10
1.6228775143
20
3.0517255773
30
0.0000000000
10
1.6186579456
20
3.0592026920
30
0.0000000000
11
1.8015765763
21
2.9170665944
31
0.0000000000
11
1.7977541149
21
2.9181258074
31
0.0000000000
11
1.7586408678
21
2.9322597742
31
0.0000000000
11
1.7218589738
21
2.9516670608
31
0.0000000000
11
1.6881152781
21
2.9759746301
31
0.0000000000
11
1.6580582685
21
3.0047153235
31
0.0000000000
11
1.6322656409
21
3.0373367701
31
0.0000000000
11
1.6186579456
21
3.0592026920
31
0.0000000000
0
SPLINE
5
49B
100
AcDbEntity
8
0
100
AcDbSpline
62
9
6
CONTINUOUS
70
0
71
3
72
8
73
4
74
2
42
0.0000001000
43
0.0000001000
44
0.0000000001
12
-0.0077953267
22
0.0138133910
32
0.0000000000
13
-0.0070484130
23
0.0141948041
33
0.0000000000
40
0.0000000000
40
0.0000000000
40
0.0000000000
40
0.0000000000
40
1.0000000000
40
1.0000000000
40
1.0000000000
40
1.0000000000
10
1.6186579456
20
3.0592026920
30
0.0000000000
10
1.6160595034
20
3.0638071557
30
0.0000000000
10
1.6135833729
20
3.0684789835
30
0.0000000000
10
1.6112339019
20
3.0732105849
30
0.0000000000
11
1.6186579456
21
3.0592026920
31
0.0000000000
11
1.6112339019
21
3.0732105849
31
0.0000000000
0
SPLINE
5
49C
100
AcDbEntity
8
0
100
AcDbSpline
62
7
6
CONTINUOUS
70
0
71
3
72
20
73
16
74
14
42
0.0000001000
43
0.0000001000
44
0.0000000001
12
0.0000000000
22
0.7849039878
32
0.0000000000
13
-0.7849039878
23
0.0000000000
33
0.0000000000
40
0.0000000000
40
0.0000000000
40
0.0000000000
40
0.0000000000
40
0.0766711417
40
0.1537567778
40
0.2306436098
40
0.3073661863
40
0.3845607487
40
0.4616513950
40
0.5383075132
40
0.6154062635
40
0.6926006714
40
0.7693193439
40
0.8462196277
40
0.9233208052
40
1.0000000000
40
1.0000000000
40
1.0000000000
40
1.0000000000
10
11.2303148451
20
22.7113657765
30
0.0000000000
10
11.2303148451
20
22.7314256047
30
0.0000000000
10
11.2278881030
20
22.7716956094
30
0.0000000000
10
11.2170001262
20
22.8311927211
30
0.0000000000
10
11.1990094485
20
22.8889627733
30
0.0000000000
10
11.1741855499
20
22.9441705615
30
0.0000000000
10
11.1428561771
20
22.9960300195
30
0.0000000000
10
11.1054985641
20
23.0437076524
30
0.0000000000
10
11.0626888455
20
23.0865187686
30
0.0000000000
10
11.0150105626
20
23.1238789823
30
0.0000000000
10
10.9631509459
20
23.1552101249
30
0.0000000000
10
10.9079417177
20
23.1800367466
30
0.0000000000
10
10.8501658750
20
23.1980310996
30
0.0000000000
10
10.7906593120
20
23.2089216387
30
0.0000000000
10
10.7503831264
20
23.2113488534
30
0.0000000000
10
10.7303211912
20
23.2113488534
30
0.0000000000
11
11.2303148451
21
22.7113657765
31
0.0000000000
11
11.2266932378
21
22.7714361881
31
0.0000000000
11
11.2158029487
21
22.8309528684
31
0.0000000000
11
11.1978586762
21
22.8885721227
31
0.0000000000
11
11.1731629528
21
22.9434952720
31
0.0000000000
11
11.1418323967
21
22.9953564629
31
0.0000000000
11
11.1045127428
21
23.0429857916
31
0.0000000000
11
11.0619684598
21
23.0855314757
31
0.0000000000
11
11.0143351499
21
23.1228563618
31
0.0000000000
11
10.9624748132
21
23.1541880972
31
0.0000000000
11
10.9075552361
21
23.1788842931
31
0.0000000000
11
10.8499264339
21
23.1968334160
31
0.0000000000
11
10.7903979032
21
23.2077267141
31
0.0000000000
11
10.7303211912
21
23.2113488534
31
0.0000000000
0
SPLINE
5
49D
100
AcDbEntity
8
0
100
AcDbSpline
62
9
6
CONTINUOUS
70
0
71
3
72
8
73
4
74
2
42
0.0000001000
43
0.0000001000
44
0.0000000001
12
-0.0070482181
22
-0.0141942557
32
0.0000000000
13
-0.0077950755
23
-0.0138128676
33
0.0000000000
40
0.0000000000
40
0.0000000000
40
0.0000000000
40
0.0000000000
40
1.0000000000
40
1.0000000000
40
1.0000000000
40
1.0000000000
10
-1.4340237418
20
3.0732094190
30
0.0000000000
10
-1.4363731478
20
3.0684780005
30
0.0000000000
10
-1.4388492038
20
3.0638063517
30
0.0000000000
10
-1.4414475623
20
3.0592020624
30
0.0000000000
11
-1.4340237418
21
3.0732094190
31
0.0000000000
11
-1.4414475623
21
3.0592020624
31
0.0000000000
0
SPLINE
5
49E
100
AcDbEntity
8
0
100
AcDbSpline
62
9
6
CONTINUOUS
70
0
71
3
72
14
73
10
74
8
42
0.0000001000
43
0.0000001000
44
0.0000000001
12
-0.1168823966
22
-0.2071155149
32
0.0000000000
13
-0.2300328125
23
-0.0620976055
33
0.0000000000
40
0.0000000000
40
0.0000000000
40
0.0000000000
40
0.0000000000
40
0.1083003369
40
0.2833056134
40
0.4583125523
40
0.6333216983
40
0.8083336547
40
0.9833488797
40
1.0000000000
40
1.0000000000
40
1.0000000000
40
1.0000000000
10
-1.4414475623
20
3.0592020624
30
0.0000000000
10
-1.4456670299
20
3.0517251691
30
0.0000000000
10
-1.4575485235
20
3.0326308403
30
0.0000000000
10
-1.4801338475
20
3.0040675461
30
0.0000000000
10
-1.5102891691
20
2.9752329019
30
0.0000000000
10
-1.5441379105
20
2.9508476412
30
0.0000000000
10
-1.5810502721
20
2.9313778668
30
0.0000000000
10
-1.6084220481
20
2.9214754481
30
0.0000000000
10
-1.6230890677
20
2.9174112588
30
0.0000000000
10
-1.6243658357
20
2.9170665939
30
0.0000000000
11
-1.4414475623
21
3.0592020624
31
0.0000000000
11
-1.4550548996
21
3.0373367746
31
0.0000000000
11
-1.4808475270
21
3.0047153275
31
0.0000000000
11
-1.5109045360
21
2.9759746333
31
0.0000000000
11
-1.5446482309
21
2.9516670632
31
0.0000000000
11
-1.5814301240
21
2.9322597757
31
0.0000000000
11
-1.6205433702
21
2.9181258081
31
0.0000000000
11
-1.6243658357
21
2.9170665939
31
0.0000000000
0
SPLINE
5
49F
100
AcDbEntity
8
0
100
AcDbSpline
62
9
6
CONTINUOUS
70
0
71
3
72
8
73
4
74
2
42
0.0000001000
43
0.0000001000
44
0.0000000001
12
-0.0765009456
22
-0.0206515127
32
0.0000000000
13
-0.0790269752
23
0.0000092547
33
0.0000000000
40
0.0000000000
40
0.0000000000
40
0.0000000000
40
0.0000000000
40
1.0000000000
40
1.0000000000
40
1.0000000000
40
1.0000000000
10
-1.6243658357
20
2.9170665939
30
0.0000000000
10
-1.6498661509
20
2.9101827563
30
0.0000000000
10
-1.6763886688
20
2.9066552111
30
0.0000000000
10
-1.7027309938
20
2.9066582960
30
0.0000000000
11
-1.6243658357
21
2.9170665939
31
0.0000000000
11
-1.7027309938
21
2.9066582960
31
0.0000000000
0
SPLINE
5
4A0
100
AcDbEntity
8
0
100
AcDbSpline
62
9
6
CONTINUOUS
70
0
71
3
72
15
73
11
74
9
42
0.0000001000
43
0.0000001000
44
0.0000000001
12
-1.5680019117
22
0.0000326576
32
0.0000000000
13
-0.0000669424
23
-1.5680019106
33
0.0000000000
40
0.0000000000
40
0.0000000000
40
0.0000000000
40
0.0000000000
40
0.1129883943
40
0.2383799744
40
0.3716090426
40
0.5080987757
40
0.6437017100
40
0.7741272758
40
0.8919971034
40
1.0000000000
40
1.0000000000
40
1.0000000000
40
1.0000000000
10
-3.0028955669
20
3.4085153148
30
0.0000000000
10
-3.0619509063
20
3.4085165448
30
0.0000000000
10
-3.1868102333
20
3.3974184561
30
0.0000000000
10
-3.3748682029
20
3.3441833986
30
0.0000000000
10
-3.5595009698
20
3.2483087087
30
0.0000000000
10
-3.7240245816
20
3.1122714939
30
0.0000000000
10
-3.8550142664
20
2.9456039816
30
0.0000000000
10
-3.9441876139
20
2.7642608317
30
0.0000000000
10
-3.9927028722
20
2.5834079119
30
0.0000000000
10
-4.0027408521
20
2.4651172024
30
0.0000000000
10
-4.0027432621
20
2.4086676196
30
0.0000000000
11
-3.0028955669
21
3.4085153148
31
0.0000000000
11
-3.1793647347
21
3.3928171993
31
0.0000000000
11
-3.3685448859
21
3.3392632196
31
0.0000000000
11
-3.5539375508
21
3.2429813188
31
0.0000000000
11
-3.7188740735
21
3.1066036766
31
0.0000000000
11
-3.8502610660
21
2.9394297266
31
0.0000000000
11
-3.9405189499
21
2.7559172013
31
0.0000000000
11
-3.9884045206
21
2.5774082462
31
0.0000000000
11
-4.0027432621
21
2.4086676196
31
0.0000000000
0
SPLINE
5
4A1
100
AcDbEntity
8
0
100
AcDbSpline
62
7
6
CONTINUOUS
70
0
71
3
72
18
73
14
74
12
42
0.0000001000
43
0.0000001000
44
0.0000000001
12
0.0000000000
22
-0.4220894472
32
0.0000000000
13
-0.4220894472
23
-0.0000000000
33
0.0000000000
40
0.0000000000
40
0.0000000000
40
0.0000000000
40
0.0000000000
40
0.1059090351
40
0.2101669191
40
0.3119275375
40
0.4100581264
40
0.5041875836
40
0.5942815516
40
0.6804273975
40
0.7634029300
40
0.8436506062
40
0.9223347281
40
1.0000000000
40
1.0000000000
40
1.0000000000
40
1.0000000000
10
10.2386053695
20
24.2276518314
30
0.0000000000
10
10.2386053695
20
24.2127508027
30
0.0000000000
10
10.2366195396
20
24.1831419297
30
0.0000000000
10
10.2278156270
20
24.1400175995
30
0.0000000000
10
10.2136336515
20
24.0995008054
30
0.0000000000
10
10.1947025148
20
24.0625717366
30
0.0000000000
10
10.1717831836
20
24.0299642536
30
0.0000000000
10
10.1456531191
20
24.0021414232
30
0.0000000000
10
10.1170325809
20
23.9793308490
30
0.0000000000
10
10.0865900443
20
23.9616341783
30
0.0000000000
10
10.0548374619
20
23.9490275985
30
0.0000000000
10
10.0222893382
20
23.9414905200
30
0.0000000000
10
10.0002555979
20
23.9398164140
30
0.0000000000
10
9.9893283674
20
23.9398164140
30
0.0000000000
11
10.2386053695
21
24.2276518314
31
0.0000000000
11
10.2356018847
21
24.1830497577
31
0.0000000000
11
10.2267741258
21
24.1399381335
31
0.0000000000
11
10.2125444107
21
24.0994116402
31
0.0000000000
11
10.1936041821
21
24.0625758601
31
0.0000000000
11
10.1707114041
21
24.0301031470
31
0.0000000000
11
10.1446375239
21
24.0024217500
31
0.0000000000
11
10.1161706296
21
23.9797992698
31
0.0000000000
11
10.0858697660
21
23.9622358145
31
0.0000000000
11
10.0543766213
21
23.9497669047
31
0.0000000000
11
10.0220161839
21
23.9422955192
31
0.0000000000
11
9.9893283674
21
23.9398164140
31
0.0000000000
0
SPLINE
5
4A2
100
AcDbEntity
8
0
100
AcDbSpline
62
9
6
CONTINUOUS
70
0
71
3
72
18
73
14
74
12
42
0.0000001000
43
0.0000001000
44
0.0000000001
12
-0.0012300469
22
-0.3662148900
32
0.0000000000
13
-0.3662157937
23
-0.0009225687
33
0.0000000000
40
0.0000000000
40
0.0000000000
40
0.0000000000
40
0.0000000000
40
0.0842901845
40
0.1691825236
40
0.2551733573
40
0.3426537911
40
0.4318785657
40
0.5229513183
40
0.6158248362
40
0.7103132260
40
0.8061126036
40
0.9028273866
40
1.0000000000
40
1.0000000000
40
1.0000000000
40
1.0000000000
10
10.2342335355
20
24.6615042505
30
0.0000000000
10
10.2341989752
20
24.6512148103
30
0.0000000000
10
10.2324189052
20
24.6305285178
30
0.0000000000
10
10.2246895332
20
24.6002186187
30
0.0000000000
10
10.2120657714
20
24.5711708891
30
0.0000000000
10
10.1948184635
20
24.5439889225
30
0.0000000000
10
10.1733108986
20
24.5192174114
30
0.0000000000
10
10.1479888209
20
24.4973511915
30
0.0000000000
10
10.1193702471
20
24.4788230190
30
0.0000000000
10
10.0880361227
20
24.4639983636
30
0.0000000000
10
10.0546165737
20
24.4531690431
30
0.0000000000
10
10.0197904883
20
24.4465481756
30
0.0000000000
10
9.9960998149
20
24.4450277824
30
0.0000000000
10
9.9842377663
20
24.4449978996
30
0.0000000000
11
10.2342335355
21
24.6615042505
31
0.0000000000
11
10.2315950367
21
24.6307487259
31
0.0000000000
11
10.2239396583
21
24.6006169823
31
0.0000000000
11
10.2114226659
21
24.5717201493
31
0.0000000000
11
10.1942979282
21
24.5446443099
31
0.0000000000
11
10.1729127677
21
24.5199386142
31
0.0000000000
11
10.1477009164
21
24.4981041410
31
0.0000000000
11
10.1191737190
21
24.4795837353
31
0.0000000000
11
10.0879097619
21
24.4647530265
31
0.0000000000
11
10.0545431378
21
24.4539128096
31
0.0000000000
11
10.0197505861
21
24.4472829452
31
0.0000000000
11
9.9842377663
21
24.4449978996
31
0.0000000000
0
SPLINE
5
4A3
100
AcDbEntity
8
0
100
AcDbSpline
62
9
6
CONTINUOUS
70
0
71
3
72
18
73
14
74
12
42
0.0000001000
43
0.0000001000
44
0.0000000001
12
0.0012300469
22
-0.3662148900
32
0.0000000000
13
0.3662157937
23
-0.0009225687
33
0.0000000000
40
0.0000000000
40
0.0000000000
40
0.0000000000
40
0.0000000000
40
0.0842901845
40
0.1691825236
40
0.2551733573
40
0.3426537911
40
0.4318785657
40
0.5229513183
40
0.6158248362
40
0.7103132260
40
0.8061126036
40
0.9028273866
40
1.0000000000
40
1.0000000000
40
1.0000000000
40
1.0000000000
10
7.3429772035
20
24.6615042505
30
0.0000000000
10
7.3430117638
20
24.6512148103
30
0.0000000000
10
7.3447918338
20
24.6305285178
30
0.0000000000
10
7.3525212058
20
24.6002186187
30
0.0000000000
10
7.3651449676
20
24.5711708891
30
0.0000000000
10
7.3823922756
20
24.5439889225
30
0.0000000000
10
7.4038998404
20
24.5192174114
30
0.0000000000
10
7.4292219181
20
24.4973511915
30
0.0000000000
10
7.4578404919
20
24.4788230190
30
0.0000000000
10
7.4891746163
20
24.4639983636
30
0.0000000000
10
7.5225941653
20
24.4531690431
30
0.0000000000
10
7.5574202507
20
24.4465481756
30
0.0000000000
10
7.5811109241
20
24.4450277824
30
0.0000000000
10
7.5929729727
20
24.4449978996
30
0.0000000000
11
7.3429772035
21
24.6615042505
31
0.0000000000
11
7.3456157023
21
24.6307487259
31
0.0000000000
11
7.3532710807
21
24.6006169823
31
0.0000000000
11
7.3657880731
21
24.5717201493
31
0.0000000000
11
7.3829128108
21
24.5446443099
31
0.0000000000
11
7.4042979713
21
24.5199386142
31
0.0000000000
11
7.4295098226
21
24.4981041410
31
0.0000000000
11
7.4580370200
21
24.4795837353
31
0.0000000000
11
7.4893009772
21
24.4647530265
31
0.0000000000
11
7.5226676012
21
24.4539128096
31
0.0000000000
11
7.5574601529
21
24.4472829452
31
0.0000000000
11
7.5929729727
21
24.4449978996
31
0.0000000000
0
SPLINE
5
4A4
100
AcDbEntity
8
0
100
AcDbSpline
62
7
6
CONTINUOUS
70
0
71
3
72
18
73
14
74
12
42
0.0000001000
43
0.0000001000
44
0.0000000001
12
-0.4220894472
22
0.0000000000
32
0.0000000000
13
0.0000000000
23
0.4220894472
33
0.0000000000
40
0.0000000000
40
0.0000000000
40
0.0000000000
40
0.0000000000
40
0.0776652719
40
0.1563493938
40
0.2365970700
40
0.3195726025
40
0.4057184484
40
0.4958124164
40
0.5899418736
40
0.6880724625
40
0.7898330809
40
0.8940909649
40
1.0000000000
40
1.0000000000
40
1.0000000000
40
1.0000000000
10
7.5878823716
20
23.9398164140
30
0.0000000000
10
7.5769551411
20
23.9398164140
30
0.0000000000
10
7.5549214008
20
23.9414905200
30
0.0000000000
10
7.5223732771
20
23.9490275985
30
0.0000000000
10
7.4906206947
20
23.9616341783
30
0.0000000000
10
7.4601781581
20
23.9793308490
30
0.0000000000
10
7.4315576199
20
24.0021414232
30
0.0000000000
10
7.4054275554
20
24.0299642536
30
0.0000000000
10
7.3825082242
20
24.0625717366
30
0.0000000000
10
7.3635770875
20
24.0995008054
30
0.0000000000
10
7.3493951120
20
24.1400175995
30
0.0000000000
10
7.3405911994
20
24.1831419297
30
0.0000000000
10
7.3386053695
20
24.2127508027
30
0.0000000000
10
7.3386053695
20
24.2276518314
30
0.0000000000
11
7.5878823716
21
23.9398164140
31
0.0000000000
11
7.5551945551
21
23.9422955192
31
0.0000000000
11
7.5228341177
21
23.9497669047
31
0.0000000000
11
7.4913409731
21
23.9622358145
31
0.0000000000
11
7.4610401094
21
23.9797992698
31
0.0000000000
11
7.4325732151
21
24.0024217500
31
0.0000000000
11
7.4064993349
21
24.0301031470
31
0.0000000000
11
7.3836065569
21
24.0625758601
31
0.0000000000
11
7.3646663283
21
24.0994116402
31
0.0000000000
11
7.3504366132
21
24.1399381335
31
0.0000000000
11
7.3416088543
21
24.1830497577
31
0.0000000000
11
7.3386053695
21
24.2276518314
31
0.0000000000
0
SPLINE
5
4A5
100
AcDbEntity
8
0
100
AcDbSpline
62
9
6
CONTINUOUS
70
0
71
3
72
11
73
7
74
5
42
0.0000001000
43
0.0000001000
44
0.0000000001
12
0.2983578105
22
0.0838447583
32
0.0000000000
13
-0.2645117980
23
0.1558386799
33
0.0000000000
40
0.0000000000
40
0.0000000000
40
0.0000000000
40
0.0000000000
40
0.0926036594
40
0.3257897386
40
0.6476419508
40
1.0000000000
40
1.0000000000
40
1.0000000000
40
1.0000000000
10
1.9988300067
20
2.9085914672
30
0.0000000000
10
2.0080396817
20
2.9111795777
30
0.0000000000
10
1.9398568361
20
2.9319153900
30
0.0000000000
10
1.9131256703
20
2.9605072721
30
0.0000000000
10
1.8169815507
20
3.0081207206
30
0.0000000000
10
1.7609002768
20
3.0441423611
30
0.0000000000
10
1.7298326564
20
3.0624460322
30
0.0000000000
11
1.9988300067
21
2.9085914672
31
0.0000000000
11
1.9737009669
21
2.9224543396
31
0.0000000000
11
1.9104486479
21
2.9574084427
31
0.0000000000
11
1.8237131402
21
3.0066667766
31
0.0000000000
11
1.7298326564
21
3.0624460322
31
0.0000000000
0
SPLINE
5
4A6
100
AcDbEntity
8
0
100
AcDbSpline
62
9
6
CONTINUOUS
70
0
71
3
72
10
73
6
74
4
42
0.0000001000
43
0.0000001000
44
0.0000000001
12
-0.1639532870
22
0.0965940423
32
0.0000000000
13
-0.0952924609
23
0.1667936390
33
0.0000000000
40
0.0000000000
40
0.0000000000
40
0.0000000000
40
0.0000000000
40
0.5123805323
40
0.8609969508
40
1.0000000000
40
1.0000000000
40
1.0000000000
40
1.0000000000
10
1.7298326564
20
3.0624460322
30
0.0000000000
10
1.7018304989
20
3.0789436678
30
0.0000000000
10
1.6523758416
20
3.1059533485
30
0.0000000000
10
1.6013685340
20
3.1410891663
30
0.0000000000
10
1.5691033579
20
3.1527532601
30
0.0000000000
10
1.5646880437
20
3.1604815349
30
0.0000000000
11
1.7298326564
21
3.0624460322
31
0.0000000000
11
1.6449305120
21
3.1122388621
31
0.0000000000
11
1.5868979067
21
3.1456588137
31
0.0000000000
11
1.5646880437
21
3.1604815349
31
0.0000000000
0
SPLINE
5
4A7
100
AcDbEntity
8
0
100
AcDbSpline
62
9
6
CONTINUOUS
70
0
71
3
72
10
73
6
74
4
42
0.0000001000
43
0.0000001000
44
0.0000000001
12
-0.0952924609
22
-0.1667936390
32
0.0000000000
13
-0.1639532869
23
-0.0965940425
33
0.0000000000
40
0.0000000000
40
0.0000000000
40
0.0000000000
40
0.0000000000
40
0.1390030499
40
0.4876194674
40
1.0000000000
40
1.0000000000
40
1.0000000000
40
1.0000000000
10
-1.3874773047
20
3.1604815349
30
0.0000000000
10
-1.3918926189
20
3.1527532600
30
0.0000000000
10
-1.4241577949
20
3.1410891661
30
0.0000000000
10
-1.4751651027
20
3.1059533487
30
0.0000000000
10
-1.5246197599
20
3.0789436679
30
0.0000000000
10
-1.5526219174
20
3.0624460323
30
0.0000000000
11
-1.3874773047
21
3.1604815349
31
0.0000000000
11
-1.4096871678
21
3.1456588136
31
0.0000000000
11
-1.4677197729
21
3.1122388622
31
0.0000000000
11
-1.5526219174
21
3.0624460323
31
0.0000000000
0
SPLINE
5
4A8
100
AcDbEntity
8
0
100
AcDbSpline
62
9
6
CONTINUOUS
70
0
71
3
72
11
73
7
74
5
42
0.0000001000
43
0.0000001000
44
0.0000000001
12
-0.2645117978
22
-0.1558386802
32
0.0000000000
13
0.2983578102
23
-0.0838447593
33
0.0000000000
40
0.0000000000
40
0.0000000000
40
0.0000000000
40
0.0000000000
40
0.3523580492
40
0.6742102616
40
0.9073963402
40
1.0000000000
40
1.0000000000
40
1.0000000000
40
1.0000000000
10
-1.5526219174
20
3.0624460323
30
0.0000000000
10
-1.5836895377
20
3.0441423611
30
0.0000000000
10
-1.6397708117
20
3.0081207205
30
0.0000000000
10
-1.7359149314
20
2.9605072723
30
0.0000000000
10
-1.7626460971
20
2.9319153898
30
0.0000000000
10
-1.8308289427
20
2.9111795777
30
0.0000000000
10
-1.8216192677
20
2.9085914672
30
0.0000000000
11
-1.5526219174
21
3.0624460323
31
0.0000000000
11
-1.6465024012
21
3.0066667766
31
0.0000000000
11
-1.7332379090
21
2.9574084427
31
0.0000000000
11
-1.7964902277
21
2.9224543395
31
0.0000000000
11
-1.8216192677
21
2.9085914672
31
0.0000000000
0
SPLINE
5
4A9
100
AcDbEntity
8
0
100
AcDbSpline
62
7
6
CONTINUOUS
70
0
71
3
72
18
73
14
74
12
42
0.0000001000
43
0.0000001000
44
0.0000000001
12
0.0000000000
22
-0.4220894472
32
0.0000000000
13
-0.4220894472
23
-0.0000000000
33
0.0000000000
40
0.0000000000
40
0.0000000000
40
0.0000000000
40
0.0000000000
40
0.1059090351
40
0.2101669191
40
0.3119275375
40
0.4100581264
40
0.5041875836
40
0.5942815516
40
0.6804273975
40
0.7634029300
40
0.8436506062
40
0.9223347281
40
1.0000000000
40
1.0000000000
40
1.0000000000
40
1.0000000000
10
-7.1613946305
20
24.2276518314
30
0.0000000000
10
-7.1613946305
20
24.2127508027
30
0.0000000000
10
-7.1633804604
20
24.1831419297
30
0.0000000000
10
-7.1721843730
20
24.1400175995
30
0.0000000000
10
-7.1863663485
20
24.0995008054
30
0.0000000000
10
-7.2052974852
20
24.0625717366
30
0.0000000000
10
-7.2282168164
20
24.0299642536
30
0.0000000000
10
-7.2543468809
20
24.0021414232
30
0.0000000000
10
-7.2829674191
20
23.9793308490
30
0.0000000000
10
-7.3134099557
20
23.9616341783
30
0.0000000000
10
-7.3451625381
20
23.9490275985
30
0.0000000000
10
-7.3777106618
20
23.9414905200
30
0.0000000000
10
-7.3997444021
20
23.9398164140
30
0.0000000000
10
-7.4106716326
20
23.9398164140
30
0.0000000000
11
-7.1613946305
21
24.2276518314
31
0.0000000000
11
-7.1643981153
21
24.1830497577
31
0.0000000000
11
-7.1732258742
21
24.1399381335
31
0.0000000000
11
-7.1874555893
21
24.0994116402
31
0.0000000000
11
-7.2063958179
21
24.0625758601
31
0.0000000000
11
-7.2292885959
21
24.0301031470
31
0.0000000000
11
-7.2553624761
21
24.0024217500
31
0.0000000000
11
-7.2838293704
21
23.9797992698
31
0.0000000000
11
-7.3141302340
21
23.9622358145
31
0.0000000000
11
-7.3456233787
21
23.9497669047
31
0.0000000000
11
-7.3779838161
21
23.9422955192
31
0.0000000000
11
-7.4106716326
21
23.9398164140
31
0.0000000000
0
SPLINE
5
4AA
100
AcDbEntity
8
0
100
AcDbSpline
62
9
6
CONTINUOUS
70
0
71
3
72
18
73
14
74
12
42
0.0000001000
43
0.0000001000
44
0.0000000001
12
-0.0012300469
22
-0.3662148900
32
0.0000000000
13
-0.3662157937
23
-0.0009225687
33
0.0000000000
40
0.0000000000
40
0.0000000000
40
0.0000000000
40
0.0000000000
40
0.0842901845
40
0.1691825236
40
0.2551733573
40
0.3426537911
40
0.4318785657
40
0.5229513183
40
0.6158248362
40
0.7103132260
40
0.8061126036
40
0.9028273866
40
1.0000000000
40
1.0000000000
40
1.0000000000
40
1.0000000000
10
-7.1657664645
20
24.6615042505
30
0.0000000000
10
-7.1658010248
20
24.6512148103
30
0.0000000000
10
-7.1675810948
20
24.6305285178
30
0.0000000000
10
-7.1753104668
20
24.6002186187
30
0.0000000000
10
-7.1879342286
20
24.5711708891
30
0.0000000000
10
-7.2051815365
20
24.5439889225
30
0.0000000000
10
-7.2266891014
20
24.5192174114
30
0.0000000000
10
-7.2520111791
20
24.4973511915
30
0.0000000000
10
-7.2806297529
20
24.4788230190
30
0.0000000000
10
-7.3119638773
20
24.4639983636
30
0.0000000000
10
-7.3453834263
20
24.4531690431
30
0.0000000000
10
-7.3802095117
20
24.4465481756
30
0.0000000000
10
-7.4039001851
20
24.4450277824
30
0.0000000000
10
-7.4157622337
20
24.4449978996
30
0.0000000000
11
-7.1657664645
21
24.6615042505
31
0.0000000000
11
-7.1684049633
21
24.6307487259
31
0.0000000000
11
-7.1760603417
21
24.6006169823
31
0.0000000000
11
-7.1885773341
21
24.5717201493
31
0.0000000000
11
-7.2057020718
21
24.5446443099
31
0.0000000000
11
-7.2270872323
21
24.5199386142
31
0.0000000000
11
-7.2522990836
21
24.4981041410
31
0.0000000000
11
-7.2808262810
21
24.4795837353
31
0.0000000000
11
-7.3120902381
21
24.4647530265
31
0.0000000000
11
-7.3454568622
21
24.4539128096
31
0.0000000000
11
-7.3802494139
21
24.4472829452
31
0.0000000000
11
-7.4157622337
21
24.4449978996
31
0.0000000000
0
SPLINE
5
4AB
100
AcDbEntity
8
0
100
AcDbSpline
62
9
6
CONTINUOUS
70
0
71
3
72
18
73
14
74
12
42
0.0000001000
43
0.0000001000
44
0.0000000001
12
0.0012300469
22
-0.3662148900
32
0.0000000000
13
0.3662157937
23
-0.0009225687
33
0.0000000000
40
0.0000000000
40
0.0000000000
40
0.0000000000
40
0.0000000000
40
0.0842901845
40
0.1691825236
40
0.2551733573
40
0.3426537911
40
0.4318785657
40
0.5229513183
40
0.6158248362
40
0.7103132260
40
0.8061126036
40
0.9028273866
40
1.0000000000
40
1.0000000000
40
1.0000000000
40
1.0000000000
10
-10.0570227965
20
24.6615042505
30
0.0000000000
10
-10.0569882362
20
24.6512148103
30
0.0000000000
10
-10.0552081662
20
24.6305285178
30
0.0000000000
10
-10.0474787942
20
24.6002186187
30
0.0000000000
10
-10.0348550324
20
24.5711708891
30
0.0000000000
10
-10.0176077244
20
24.5439889225
30
0.0000000000
10
-9.9961001596
20
24.5192174114
30
0.0000000000
10
-9.9707780819
20
24.4973511915
30
0.0000000000
10
-9.9421595081
20
24.4788230190
30
0.0000000000
10
-9.9108253837
20
24.4639983636
30
0.0000000000
10
-9.8774058347
20
24.4531690431
30
0.0000000000
10
-9.8425797493
20
24.4465481756
30
0.0000000000
10
-9.8188890759
20
24.4450277824
30
0.0000000000
10
-9.8070270273
20
24.4449978996
30
0.0000000000
11
-10.0570227965
21
24.6615042505
31
0.0000000000
11
-10.0543842977
21
24.6307487259
31
0.0000000000
11
-10.0467289193
21
24.6006169823
31
0.0000000000
11
-10.0342119269
21
24.5717201493
31
0.0000000000
11
-10.0170871892
21
24.5446443099
31
0.0000000000
11
-9.9957020287
21
24.5199386142
31
0.0000000000
11
-9.9704901774
21
24.4981041410
31
0.0000000000
11
-9.9419629800
21
24.4795837353
31
0.0000000000
11
-9.9106990228
21
24.4647530265
31
0.0000000000
11
-9.8773323988
21
24.4539128096
31
0.0000000000
11
-9.8425398471
21
24.4472829452
31
0.0000000000
11
-9.8070270273
21
24.4449978996
31
0.0000000000
0
SPLINE
5
4AC
100
AcDbEntity
8
0
100
AcDbSpline
62
7
6
CONTINUOUS
70
0
71
3
72
18
73
14
74
12
42
0.0000001000
43
0.0000001000
44
0.0000000001
12
-0.4220894472
22
0.0000000000
32
0.0000000000
13
0.0000000000
23
0.4220894472
33
0.0000000000
40
0.0000000000
40
0.0000000000
40
0.0000000000
40
0.0000000000
40
0.0776652719
40
0.1563493938
40
0.2365970700
40
0.3195726025
40
0.4057184484
40
0.4958124164
40
0.5899418736
40
0.6880724625
40
0.7898330809
40
0.8940909649
40
1.0000000000
40
1.0000000000
40
1.0000000000
40
1.0000000000
10
-9.8121176284
20
23.9398164140
30
0.0000000000
10
-9.8230448589
20
23.9398164140
30
0.0000000000
10
-9.8450785992
20
23.9414905200
30
0.0000000000
10
-9.8776267229
20
23.9490275985
30
0.0000000000
10
-9.9093793053
20
23.9616341783
30
0.0000000000
10
-9.9398218419
20
23.9793308490
30
0.0000000000
10
-9.9684423801
20
24.0021414232
30
0.0000000000
10
-9.9945724446
20
24.0299642536
30
0.0000000000
10
-10.0174917758
20
24.0625717366
30
0.0000000000
10
-10.0364229125
20
24.0995008054
30
0.0000000000
10
-10.0506048880
20
24.1400175995
30
0.0000000000
10
-10.0594088006
20
24.1831419297
30
0.0000000000
10
-10.0613946305
20
24.2127508027
30
0.0000000000
10
-10.0613946305
20
24.2276518314
30
0.0000000000
11
-9.8121176284
21
23.9398164140
31
0.0000000000
11
-9.8448054449
21
23.9422955192
31
0.0000000000
11
-9.8771658823
21
23.9497669047
31
0.0000000000
11
-9.9086590269
21
23.9622358145
31
0.0000000000
11
-9.9389598906
21
23.9797992698
31
0.0000000000
11
-9.9674267849
21
24.0024217500
31
0.0000000000
11
-9.9935006651
21
24.0301031470
31
0.0000000000
11
-10.0163934431
21
24.0625758601
31
0.0000000000
11
-10.0353336717
21
24.0994116402
31
0.0000000000
11
-10.0495633868
21
24.1399381335
31
0.0000000000
11
-10.0583911457
21
24.1830497577
31
0.0000000000
11
-10.0613946305
21
24.2276518314
31
0.0000000000
0
SPLINE
5
4AD
100
AcDbEntity
8
0
100
AcDbSpline
62
9
6
CONTINUOUS
70
0
71
3
72
18
73
14
74
12
42
0.0000001000
43
0.0000001000
44
0.0000000001
12
-0.0012300469
22
0.3662148875
32
0.0000000000
13
-0.3662157912
23
0.0009225687
33
0.0000000000
40
0.0000000000
40
0.0000000000
40
0.0000000000
40
0.0000000000
40
0.0842917733
40
0.1691857338
40
0.2551786798
40
0.3426611748
40
0.4318880673
40
0.5229629903
40
0.6158387450
40
0.7103295894
40
0.8061307215
40
0.9028472123
40
1.0000000000
40
1.0000000000
40
1.0000000000
40
1.0000000000
10
10.2342335355
20
-23.0271708841
30
0.0000000000
10
10.2341989746
20
-23.0168812500
30
0.0000000000
10
10.2324188381
20
-22.9961945637
30
0.0000000000
10
10.2246891638
20
-22.9658840638
30
0.0000000000
10
10.2120648870
20
-22.9368357770
30
0.0000000000
10
10.1948168605
20
-22.9096533479
30
0.0000000000
10
10.1733084379
20
-22.8848815461
30
0.0000000000
10
10.1479853938
20
-22.8630152173
30
0.0000000000
10
10.1193657663
20
-22.8444871208
30
0.0000000000
10
10.0880306142
20
-22.8296627833
30
0.0000000000
10
10.0546101281
20
-22.8188340039
30
0.0000000000
10
10.0197858405
20
-22.8122143615
30
0.0000000000
10
9.9960973946
20
-22.8106944098
30
0.0000000000
10
9.9842377663
20
-22.8106645331
30
0.0000000000
11
10.2342335355
21
-23.0271708841
31
0.0000000000
11
10.2315949395
21
-22.9964147841
31
0.0000000000
11
10.2239392770
21
-22.9662825002
31
0.0000000000
11
10.2114217511
21
-22.9373850554
31
0.0000000000
11
10.1942963102
21
-22.9103087679
31
0.0000000000
11
10.1729102995
21
-22.8856027826
31
0.0000000000
11
10.1476974903
21
-22.8637682018
31
0.0000000000
11
10.1191692607
21
-22.8452478821
31
0.0000000000
11
10.0879041808
21
-22.8304174433
31
0.0000000000
11
10.0545366976
21
-22.8195777925
31
0.0000000000
11
10.0197433692
21
-22.8129486637
31
0.0000000000
11
9.9842377663
21
-22.8106645331
31
0.0000000000
0
SPLINE
5
4AE
100
AcDbEntity
8
0
100
AcDbSpline
62
7
6
CONTINUOUS
70
0
71
3
72
18
73
14
74
12
42
0.0000001000
43
0.0000001000
44
0.0000000001
12
0.4220894472
22
0.0000000000
32
0.0000000000
13
-0.0000000000
23
-0.4220894472
33
0.0000000000
40
0.0000000000
40
0.0000000000
40
0.0000000000
40
0.0000000000
40
0.0776652719
40
0.1563493938
40
0.2365970700
40
0.3195726025
40
0.4057184484
40
0.4958124164
40
0.5899418736
40
0.6880724625
40
0.7898330809
40
0.8940909649
40
1.0000000000
40
1.0000000000
40
1.0000000000
40
1.0000000000
10
9.9893283674
20
-22.3054830476
30
0.0000000000
10
10.0002555979
20
-22.3054830476
30
0.0000000000
10
10.0222893382
20
-22.3071571535
30
0.0000000000
10
10.0548374619
20
-22.3146942321
30
0.0000000000
10
10.0865900443
20
-22.3273008118
30
0.0000000000
10
10.1170325809
20
-22.3449974826
30
0.0000000000
10
10.1456531191
20
-22.3678080568
30
0.0000000000
10
10.1717831836
20
-22.3956308871
30
0.0000000000
10
10.1947025148
20
-22.4282383702
30
0.0000000000
10
10.2136336515
20
-22.4651674390
30
0.0000000000
10
10.2278156270
20
-22.5056842330
30
0.0000000000
10
10.2366195396
20
-22.5488085632
30
0.0000000000
10
10.2386053695
20
-22.5784174363
30
0.0000000000
10
10.2386053695
20
-22.5933184650
30
0.0000000000
11
9.9893283674
21
-22.3054830476
31
0.0000000000
11
10.0220161839
21
-22.3079621527
31
0.0000000000
11
10.0543766213
21
-22.3154335382
31
0.0000000000
11
10.0858697660
21
-22.3279024481
31
0.0000000000
11
10.1161706296
21
-22.3454659033
31
0.0000000000
11
10.1446375239
21
-22.3680883835
31
0.0000000000
11
10.1707114041
21
-22.3957697805
31
0.0000000000
11
10.1936041821
21
-22.4282424936
31
0.0000000000
11
10.2125444107
21
-22.4650782737
31
0.0000000000
11
10.2267741258
21
-22.5056047670
31
0.0000000000
11
10.2356018847
21
-22.5487163912
31
0.0000000000
11
10.2386053695
21
-22.5933184650
31
0.0000000000
0
SPLINE
5
4AF
100
AcDbEntity
8
0
100
AcDbSpline
62
7
6
CONTINUOUS
70
0
71
3
72
8
73
4
74
2
42
0.0000001000
43
0.0000001000
44
0.0000000001
12
0.0017480002
22
-0.0017480002
32
0.0000000000
13
0.0001440396
23
-0.0024678456
33
0.0000000000
40
0.0000000000
40
0.0000000000
40
0.0000000000
40
0.0000000000
40
1.0000000000
40
1.0000000000
40
1.0000000000
40
1.0000000000
10
-4.3177439836
20
24.7735160364
30
0.0000000000
10
-4.3171613169
20
24.7729333696
30
0.0000000000
10
-4.3175203967
20
24.7718815715
30
0.0000000000
10
-4.3174723834
20
24.7710589563
30
0.0000000000
11
-4.3177439836
21
24.7735160364
31
0.0000000000
11
-4.3174723834
21
24.7710589563
31
0.0000000000
0
SPLINE
5
4B0
100
AcDbEntity
8
0
100
AcDbSpline
62
7
6
CONTINUOUS
70
0
71
3
72
18
73
14
74
12
42
0.0000001000
43
0.0000001000
44
0.0000000001
12
0.0000000000
22
0.4220894472
32
0.0000000000
13
0.4220894472
23
0.0000000000
33
0.0000000000
40
0.0000000000
40
0.0000000000
40
0.0000000000
40
0.0000000000
40
0.1059090351
40
0.2101669191
40
0.3119275375
40
0.4100581264
40
0.5041875836
40
0.5942815516
40
0.6804273975
40
0.7634029300
40
0.8436506062
40
0.9223347281
40
1.0000000000
40
1.0000000000
40
1.0000000000
40
1.0000000000
10
7.3386053695
20
-22.5933184650
30
0.0000000000
10
7.3386053695
20
-22.5784174363
30
0.0000000000
10
7.3405911994
20
-22.5488085632
30
0.0000000000
10
7.3493951120
20
-22.5056842330
30
0.0000000000
10
7.3635770875
20
-22.4651674390
30
0.0000000000
10
7.3825082242
20
-22.4282383702
30
0.0000000000
10
7.4054275554
20
-22.3956308871
30
0.0000000000
10
7.4315576199
20
-22.3678080568
30
0.0000000000
10
7.4601781581
20
-22.3449974826
30
0.0000000000
10
7.4906206947
20
-22.3273008118
30
0.0000000000
10
7.5223732771
20
-22.3146942321
30
0.0000000000
10
7.5549214008
20
-22.3071571535
30
0.0000000000
10
7.5769551411
20
-22.3054830476
30
0.0000000000
10
7.5878823716
20
-22.3054830476
30
0.0000000000
11
7.3386053695
21
-22.5933184650
31
0.0000000000
11
7.3416088543
21
-22.5487163912
31
0.0000000000
11
7.3504366132
21
-22.5056047670
31
0.0000000000
11
7.3646663283
21
-22.4650782737
31
0.0000000000
11
7.3836065569
21
-22.4282424936
31
0.0000000000
11
7.4064993349
21
-22.3957697805
31
0.0000000000
11
7.4325732151
21
-22.3680883835
31
0.0000000000
11
7.4610401094
21
-22.3454659033
31
0.0000000000
11
7.4913409731
21
-22.3279024481
31
0.0000000000
11
7.5228341177
21
-22.3154335382
31
0.0000000000
11
7.5551945551
21
-22.3079621527
31
0.0000000000
11
7.5878823716
21
-22.3054830476
31
0.0000000000
0
SPLINE
5
4B1
100
AcDbEntity
8
0
100
AcDbSpline
62
9
6
CONTINUOUS
70
0
71
3
72
18
73
14
74
12
42
0.0000001000
43
0.0000001000
44
0.0000000001
12
0.0012300470
22
0.3662149009
32
0.0000000000
13
0.3662158046
23
0.0009225687
33
0.0000000000
40
0.0000000000
40
0.0000000000
40
0.0000000000
40
0.0000000000
40
0.0842351835
40
0.1691282730
40
0.2551195891
40
0.3426056523
40
0.4318362164
40
0.5229156189
40
0.6157961265
40
0.7102918552
40
0.8060988660
40
0.9028204681
40
1.0000000000
40
1.0000000000
40
1.0000000000
40
1.0000000000
10
7.3429772035
20
-23.0271708841
30
0.0000000000
10
7.3430117413
20
-23.0168881576
30
0.0000000000
10
7.3447901050
20
-22.9962085591
30
0.0000000000
10
7.3525146784
20
-22.9659042039
30
0.0000000000
10
7.3651358908
20
-22.9368544463
30
0.0000000000
10
7.3823815781
20
-22.9096696906
30
0.0000000000
10
7.4038887695
20
-22.8848948936
30
0.0000000000
10
7.4292113502
20
-22.8630255799
30
0.0000000000
10
7.4578312310
20
-22.8444946619
30
0.0000000000
10
7.4891672909
20
-22.8296677673
30
0.0000000000
10
7.5225891429
20
-22.8188368441
30
0.0000000000
10
7.5574177230
20
-22.8122150234
30
0.0000000000
10
7.5811100792
20
-22.8106944181
30
0.0000000000
10
7.5929729727
20
-22.8106645331
30
0.0000000000
11
7.3429772035
21
-23.0271708841
31
0.0000000000
11
7.3456123345
21
-22.9964352860
31
0.0000000000
11
7.3532646364
21
-22.9663024764
31
0.0000000000
11
7.3657788305
21
-22.9374042378
31
0.0000000000
11
7.3829022604
21
-22.9103251311
31
0.0000000000
11
7.4042869683
21
-22.8856162382
31
0.0000000000
11
7.4294993412
21
-22.8637786459
31
0.0000000000
11
7.4580278149
21
-22.8452555036
31
0.0000000000
11
7.4892936860
21
-22.8304225561
31
0.0000000000
11
7.5226627162
21
-22.8195806953
31
0.0000000000
11
7.5574576335
21
-22.8129498982
31
0.0000000000
11
7.5929729727
21
-22.8106645331
31
0.0000000000
0
SPLINE
5
4B2
100
AcDbEntity
8
0
100
AcDbSpline
62
7
6
CONTINUOUS
70
0
71
3
72
18
73
14
74
12
42
0.0000001000
43
0.0000001000
44
0.0000000001
12
0.0000000000
22
0.4220894472
32
0.0000000000
13
0.4220894472
23
0.0000000000
33
0.0000000000
40
0.0000000000
40
0.0000000000
40
0.0000000000
40
0.0000000000
40
0.1059090351
40
0.2101669191
40
0.3119275375
40
0.4100581264
40
0.5041875836
40
0.5942815516
40
0.6804273975
40
0.7634029300
40
0.8436506062
40
0.9223347281
40
1.0000000000
40
1.0000000000
40
1.0000000000
40
1.0000000000
10
-10.0613946305
20
-22.5933184650
30
0.0000000000
10
-10.0613946305
20
-22.5784174363
30
0.0000000000
10
-10.0594088006
20
-22.5488085632
30
0.0000000000
10
-10.0506048880
20
-22.5056842330
30
0.0000000000
10
-10.0364229125
20
-22.4651674390
30
0.0000000000
10
-10.0174917758
20
-22.4282383702
30
0.0000000000
10
-9.9945724446
20
-22.3956308871
30
0.0000000000
10
-9.9684423801
20
-22.3678080568
30
0.0000000000
10
-9.9398218419
20
-22.3449974826
30
0.0000000000
10
-9.9093793053
20
-22.3273008118
30
0.0000000000
10
-9.8776267229
20
-22.3146942321
30
0.0000000000
10
-9.8450785992
20
-22.3071571535
30
0.0000000000
10
-9.8230448589
20
-22.3054830476
30
0.0000000000
10
-9.8121176284
20
-22.3054830476
30
0.0000000000
11
-10.0613946305
21
-22.5933184650
31
0.0000000000
11
-10.0583911457
21
-22.5487163912
31
0.0000000000
11
-10.0495633868
21
-22.5056047670
31
0.0000000000
11
-10.0353336717
21
-22.4650782737
31
0.0000000000
11
-10.0163934431
21
-22.4282424936
31
0.0000000000
11
-9.9935006651
21
-22.3957697805
31
0.0000000000
11
-9.9674267849
21
-22.3680883835
31
0.0000000000
11
-9.9389598906
21
-22.3454659033
31
0.0000000000
11
-9.9086590269
21
-22.3279024481
31
0.0000000000
11
-9.8771658823
21
-22.3154335382
31
0.0000000000
11
-9.8448054449
21
-22.3079621527
31
0.0000000000
11
-9.8121176284
21
-22.3054830476
31
0.0000000000
0
SPLINE
5
4B3
100
AcDbEntity
8
0
100
AcDbSpline
62
9
6
CONTINUOUS
70
0
71
3
72
18
73
14
74
12
42
0.0000001000
43
0.0000001000
44
0.0000000001
12
0.0012300469
22
0.3662148875
32
0.0000000000
13
0.3662157912
23
0.0009225687
33
0.0000000000
40
0.0000000000
40
0.0000000000
40
0.0000000000
40
0.0000000000
40
0.0842917733
40
0.1691857338
40
0.2551786798
40
0.3426611748
40
0.4318880673
40
0.5229629903
40
0.6158387450
40
0.7103295894
40
0.8061307215
40
0.9028472123
40
1.0000000000
40
1.0000000000
40
1.0000000000
40
1.0000000000
10
-10.0570227965
20
-23.0271708841
30
0.0000000000
10
-10.0569882355
20
-23.0168812500
30
0.0000000000
10
-10.0552080991
20
-22.9961945637
30
0.0000000000
10
-10.0474784248
20
-22.9658840638
30
0.0000000000
10
-10.0348541480
20
-22.9368357770
30
0.0000000000
10
-10.0176061215
20
-22.9096533479
30
0.0000000000
10
-9.9960976989
20
-22.8848815461
30
0.0000000000
10
-9.9707746548
20
-22.8630152173
30
0.0000000000
10
-9.9421550273
20
-22.8444871208
30
0.0000000000
10
-9.9108198752
20
-22.8296627833
30
0.0000000000
10
-9.8773993891
20
-22.8188340039
30
0.0000000000
10
-9.8425751015
20
-22.8122143615
30
0.0000000000
10
-9.8188866556
20
-22.8106944098
30
0.0000000000
10
-9.8070270273
20
-22.8106645331
30
0.0000000000
11
-10.0570227965
21
-23.0271708841
31
0.0000000000
11
-10.0543842004
21
-22.9964147841
31
0.0000000000
11
-10.0467285380
21
-22.9662825002
31
0.0000000000
11
-10.0342110121
21
-22.9373850554
31
0.0000000000
11
-10.0170855712
21
-22.9103087679
31
0.0000000000
11
-9.9956995605
21
-22.8856027826
31
0.0000000000
11
-9.9704867512
21
-22.8637682018
31
0.0000000000
11
-9.9419585217
21
-22.8452478821
31
0.0000000000
11
-9.9106934418
21
-22.8304174433
31
0.0000000000
11
-9.8773259586
21
-22.8195777925
31
0.0000000000
11
-9.8425326302
21
-22.8129486637
31
0.0000000000
11
-9.8070270273
21
-22.8106645331
31
0.0000000000
0
SPLINE
5
4B4
100
AcDbEntity
8
0
100
AcDbSpline
62
9
6
CONTINUOUS
70
0
71
3
72
18
73
14
74
12
42
0.0000001000
43
0.0000001000
44
0.0000000001
12
-0.0012300470
22
0.3662149009
32
0.0000000000
13
-0.3662158046
23
0.0009225687
33
0.0000000000
40
0.0000000000
40
0.0000000000
40
0.0000000000
40
0.0000000000
40
0.0842351835
40
0.1691282730
40
0.2551195891
40
0.3426056523
40
0.4318362164
40
0.5229156189
40
0.6157961265
40
0.7102918552
40
0.8060988660
40
0.9028204681
40
1.0000000000
40
1.0000000000
40
1.0000000000
40
1.0000000000
10
-7.1657664645
20
-23.0271708841
30
0.0000000000
10
-7.1658010022
20
-23.0168881576
30
0.0000000000
10
-7.1675793660
20
-22.9962085591
30
0.0000000000
10
-7.1753039394
20
-22.9659042039
30
0.0000000000
10
-7.1879251517
20
-22.9368544463
30
0.0000000000
10
-7.2051708391
20
-22.9096696906
30
0.0000000000
10
-7.2266780305
20
-22.8848948936
30
0.0000000000
10
-7.2520006112
20
-22.8630255799
30
0.0000000000
10
-7.2806204920
20
-22.8444946619
30
0.0000000000
10
-7.3119565519
20
-22.8296677673
30
0.0000000000
10
-7.3453784039
20
-22.8188368441
30
0.0000000000
10
-7.3802069840
20
-22.8122150234
30
0.0000000000
10
-7.4038993402
20
-22.8106944181
30
0.0000000000
10
-7.4157622337
20
-22.8106645331
30
0.0000000000
11
-7.1657664645
21
-23.0271708841
31
0.0000000000
11
-7.1684015955
21
-22.9964352860
31
0.0000000000
11
-7.1760538974
21
-22.9663024764
31
0.0000000000
11
-7.1885680914
21
-22.9374042378
31
0.0000000000
11
-7.2056915214
21
-22.9103251311
31
0.0000000000
11
-7.2270762292
21
-22.8856162382
31
0.0000000000
11
-7.2522886022
21
-22.8637786459
31
0.0000000000
11
-7.2808170759
21
-22.8452555036
31
0.0000000000
11
-7.3120829470
21
-22.8304225561
31
0.0000000000
11
-7.3454519772
21
-22.8195806953
31
0.0000000000
11
-7.3802468945
21
-22.8129498982
31
0.0000000000
11
-7.4157622337
21
-22.8106645331
31
0.0000000000
0
SPLINE
5
4B5
100
AcDbEntity
8
0
100
AcDbSpline
62
7
6
CONTINUOUS
70
0
71
3
72
18
73
14
74
12
42
0.0000001000
43
0.0000001000
44
0.0000000001
12
0.4220894472
22
0.0000000000
32
0.0000000000
13
0.0000000000
23
-0.4220894472
33
0.0000000000
40
0.0000000000
40
0.0000000000
40
0.0000000000
40
0.0000000000
40
0.0776652719
40
0.1563493938
40
0.2365970700
40
0.3195726025
40
0.4057184484
40
0.4958124164
40
0.5899418736
40
0.6880724625
40
0.7898330809
40
0.8940909649
40
1.0000000000
40
1.0000000000
40
1.0000000000
40
1.0000000000
10
-7.4106716326
20
-22.3054830476
30
0.0000000000
10
-7.3997444021
20
-22.3054830476
30
0.0000000000
10
-7.3777106618
20
-22.3071571535
30
0.0000000000
10
-7.3451625381
20
-22.3146942321
30
0.0000000000
10
-7.3134099557
20
-22.3273008118
30
0.0000000000
10
-7.2829674191
20
-22.3449974826
30
0.0000000000
10
-7.2543468809
20
-22.3678080568
30
0.0000000000
10
-7.2282168164
20
-22.3956308871
30
0.0000000000
10
-7.2052974852
20
-22.4282383702
30
0.0000000000
10
-7.1863663485
20
-22.4651674390
30
0.0000000000
10
-7.1721843730
20
-22.5056842330
30
0.0000000000
10
-7.1633804604
20
-22.5488085632
30
0.0000000000
10
-7.1613946305
20
-22.5784174363
30
0.0000000000
10
-7.1613946305
20
-22.5933184650
30
0.0000000000
11
-7.4106716326
21
-22.3054830476
31
0.0000000000
11
-7.3779838161
21
-22.3079621527
31
0.0000000000
11
-7.3456233787
21
-22.3154335382
31
0.0000000000
11
-7.3141302340
21
-22.3279024481
31
0.0000000000
11
-7.2838293704
21
-22.3454659033
31
0.0000000000
11
-7.2553624761
21
-22.3680883835
31
0.0000000000
11
-7.2292885959
21
-22.3957697805
31
0.0000000000
11
-7.2063958179
21
-22.4282424936
31
0.0000000000
11
-7.1874555893
21
-22.4650782737
31
0.0000000000
11
-7.1732258742
21
-22.5056047670
31
0.0000000000
11
-7.1643981153
21
-22.5487163912
31
0.0000000000
11
-7.1613946305
21
-22.5933184650
31
0.0000000000
0
SPLINE
5
4B6
100
AcDbEntity
8
0
100
AcDbSpline
62
7
6
CONTINUOUS
70
0
71
3
72
11
73
7
74
5
42
0.0000001000
43
0.0000001000
44
0.0000000001
12
-0.0894674545
22
-0.1789485374
32
0.0000000000
13
-0.2000674997
23
-0.0000000000
33
0.0000000000
40
0.0000000000
40
0.0000000000
40
0.0000000000
40
0.0000000000
40
0.0790032867
40
0.2972037444
40
0.6209927055
40
1.0000000000
40
1.0000000000
40
1.0000000000
40
1.0000000000
10
7.2943399663
20
-20.2713784824
30
0.0000000000
10
7.2919838920
20
-20.2760909900
30
0.0000000000
10
7.2655329636
20
-20.2681048937
30
0.0000000000
10
7.2300303960
20
-20.2768783653
30
0.0000000000
10
7.1656607442
20
-20.2735785287
30
0.0000000000
10
7.1196232623
20
-20.2748390310
30
0.0000000000
10
7.0943475817
20
-20.2748390310
30
0.0000000000
11
7.2943399663
21
-20.2713784824
31
0.0000000000
11
7.2785898432
21
-20.2727062407
31
0.0000000000
11
7.2349495089
21
-20.2738307577
31
0.0000000000
11
7.1701741756
21
-20.2745783996
31
0.0000000000
11
7.0943475817
21
-20.2748390310
31
0.0000000000
0
SPLINE
5
4B7
100
AcDbEntity
8
0
100
AcDbSpline
62
7
6
CONTINUOUS
70
0
71
3
72
8
73
4
74
2
42
0.0000001000
43
0.0000001000
44
0.0000000001
12
-0.0017480002
22
-0.0017480002
32
0.0000000000
13
-0.0001440396
23
-0.0024678456
33
0.0000000000
40
0.0000000000
40
0.0000000000
40
0.0000000000
40
0.0000000000
40
1.0000000000
40
1.0000000000
40
1.0000000000
40
1.0000000000
10
4.4949547226
20
24.7735160364
30
0.0000000000
10
4.4943720559
20
24.7729333696
30
0.0000000000
10
4.4947311357
20
24.7718815715
30
0.0000000000
10
4.4946831225
20
24.7710589563
30
0.0000000000
11
4.4949547226
21
24.7735160364
31
0.0000000000
11
4.4946831225
21
24.7710589563
31
0.0000000000
0
SPLINE
5
4B8
100
AcDbEntity
8
0
100
AcDbSpline
62
7
6
CONTINUOUS
70
0
71
3
72
9
73
5
74
3
42
0.0000001000
43
0.0000001000
44
0.0000000001
12
0.0001229116
22
-0.0021058575
32
0.0000000000
13
0.0026060595
23
-0.0009722932
33
0.0000000000
40
0.0000000000
40
0.0000000000
40
0.0000000000
40
0.0000000000
40
0.8427341930
40
1.0000000000
40
1.0000000000
40
1.0000000000
40
1.0000000000
10
4.4946831225
20
-23.1367255898
30
0.0000000000
10
4.4947176497
20
-23.1373171492
30
0.0000000000
10
4.4943401725
20
-23.1382213084
30
0.0000000000
10
4.4950005994
20
-23.1386425644
30
0.0000000000
10
4.4951372141
20
-23.1386935339
30
0.0000000000
11
4.4946831225
21
-23.1367255898
31
0.0000000000
11
4.4948185443
21
-23.1384981226
31
0.0000000000
11
4.4951372141
21
-23.1386935339
31
0.0000000000
0
ENDSEC
0
SECTION
2
OBJECTS
0
DICTIONARY
5
4B9
100
AcDbDictionary
3
ACAD_GROUP
350
4BA
3
ACAD_MLINESTYLE
350
4BB
0
DICTIONARY
5
4BA
102
{ACAD_REACTORS
330
4B9
102
}
100
AcDbDictionary
0
DICTIONARY
5
4BB
102
{ACAD_REACTORS
330
4B9
102
}
100
AcDbDictionary
3
STANDARD
350
4BC
0
MLINESTYLE
5
4BC
102
{ACAD_REACTORS
330
4BB
102
}
100
AcDbMlineStyle
2
STANDARD
70
0
3

62
256
51
90.0
52
90.0
71
2
49
0.5
62
256
6
BYLAYER
49
-0.5
62
256
6
BYLAYER
0
ENDSEC
0
EOF
