  0
SECTION
  2
HEADER
  9
$ACADVER
  1
AC1015
  9
$DWGCODEPAGE
  3
ANSI_1252
  9
$EXTMAX
 10
297.0
 20
210.0
 30
0.0
  9
$EXTMIN
 10
0.0
 20
0.0
 30
0.0
  9
$LIMMIN
 10
0.0
 20
0.0
  9
$LIMMAX
 10
297.0
 20
210.0
  9
$VIEWCTR
 10
148.5
 20
105.0
  9
$VIEWSIZE
 40
210.0
  9
$CLAYER
  8
0
  9
$LTSCALE
 40
16.335
  9
$CELTYPE
  6
BYLAYER
  9
$DIMSCALE
 40
1.0
  9
$DIMASZ
 40
3.0
  9
$DIMEXO
 40
1.85625
  9
$DIMDLI
 40
11.286
  9
$DIMEXE
 40
5.346
  9
$DIMCEN
 40
2.673
  9
$DIMLFAC
 40
1.0
  9
$DIMBLK
  1
_FILLED
  9
$DIMTXT
 40
3.0
  9
$DIMTOL
 70
1
  9
$DIMLIM
 70
0
  9
$DIMTFAC
 40
1.0
  9
$DIMTP
 40
0.01
  9
$DIMTM
 40
0.01
  9
$PDMODE
 70
3
  9
$PDSIZE
 40
3.0
  9
$HANDSEED
  5
81B
  9
$TILEMODE
 70
1
  9
$MEASUREMENT
 70
1
  9
$INSUNITS
 70
4
  0
ENDSEC
  0
SECTION
  2
CLASSES
  0
CLASS
  1
ACDBDICTIONARYWDFLT
  2
AcDbDictionaryWithDefault
  3
AutoCAD 2000
 90
0
280
0
281
0
  0
CLASS
  1
ACDBPLACEHOLDER
  2
AcDbPlaceHolder
  3
AutoCAD 2000
 90
0
280
0
281
0
  0
CLASS
  1
LAYOUT
  2
AcDbLayout
  3
AutoCAD 2000
 90
0
280
0
281
0
  0
ENDSEC
  0
SECTION
  2
TABLES
  0
TABLE
  2
VPORT
  5
8
100
AcDbSymbolTable
 70
2
  0
VPORT
  5
1F4
100
AcDbSymbolTableRecord
100
AcDbViewportTableRecord
  2
*ACTIVE
 70
0
 10
0.0
 20
0.0
 11
1.0
 21
1.0
 12
148.5
 22
105.0
 13
0.0
 23
0.0
 14
1.0
 24
1.0
 15
0.0
 25
0.0
 16
0.0
 26
0.0
 36
1.0
 17
0.0
 27
0.0
 37
0.0
 40
210.0
 41
1.4142857143
 42
50.0
 43
0.0
 44
0.0
 50
0.0
 51
0.0
 71
0
 72
100
 73
1
 74
1
 75
0
 76
0
 77
0
 78
0
  0
ENDTAB
  0
TABLE
  2
LTYPE
  5
5
100
AcDbSymbolTable
 70
6
  0
LTYPE
  5
14
100
AcDbSymbolTableRecord
100
AcDbLinetypeTableRecord
  2
BYBLOCK
 70
0
  3

 72
65
 73
0
 40
0.0
  0
LTYPE
  5
15
100
AcDbSymbolTableRecord
100
AcDbLinetypeTableRecord
  2
BYLAYER
 70
0
  3

 72
65
 73
0
 40
0.0
  0
LTYPE
  5
16
100
AcDbSymbolTableRecord
100
AcDbLinetypeTableRecord
  2
CONTINUOUS
 70
64
  3
Solid line
 72
65
 73
0
 40
0.0
  0
LTYPE
  5
1F5
100
AcDbSymbolTableRecord
100
AcDbLinetypeTableRecord
  2
CENTER
 70
64
  3
____ _ ____ _ ____ _ ____ _ ____ _ ____ _ ____
 72
65
 73
4
 40
0.6
 49
0.375
 74
0
 49
-0.075
 74
0
 49
0.075
 74
0
 49
-0.075
 74
0
  0
LTYPE
  5
1F6
100
AcDbSymbolTableRecord
100
AcDbLinetypeTableRecord
  2
HIDDEN
 70
64
  3
- - - - - - - - - - - - - - - - - - - -
 72
65
 73
2
 40
0.2
 49
0.1
 74
0
 49
-0.1
 74
0
  0
LTYPE
  5
1F7
100
AcDbSymbolTableRecord
100
AcDbLinetypeTableRecord
  2
PHANTOM
 70
64
  3
_____ _ _ _____ _ _ _____ _ _ _____
 72
65
 73
6
 40
0.8
 49
0.45
 74
0
 49
-0.05
 74
0
 49
0.1
 74
0
 49
-0.05
 74
0
 49
0.1
 74
0
 49
-0.05
 74
0
  0
LTYPE
  5
1F8
100
AcDbSymbolTableRecord
100
AcDbLinetypeTableRecord
  2
DOT
 70
64
  3
. . . . . . . . . . . . . . . . . . . .
 72
65
 73
2
 40
0.2
 49
0.1
 74
0
 49
-0.1
 74
0
  0
LTYPE
  5
1F9
100
AcDbSymbolTableRecord
100
AcDbLinetypeTableRecord
  2
DASHED
 70
64
  3
- - - - - - - - - - - - - - - - - - - -
 72
65
 73
2
 40
0.2
 49
0.1
 74
0
 49
-0.1
 74
0
  0
ENDTAB
  0
TABLE
  2
LAYER
  5
2
100
AcDbSymbolTable
 70
36
  0
LAYER
  5
10
100
AcDbSymbolTableRecord
100
AcDbLayerTableRecord
  2
0
 70
0
 62
7
  6
CONTINUOUS
370
-3
390
F
  0
LAYER
  5
1FA
100
AcDbSymbolTableRecord
100
AcDbLayerTableRecord
  2
DEFAULT_1
 70
0
 62
7
  6
CENTER
370
-3
390
F
  0
LAYER
  5
1FB
100
AcDbSymbolTableRecord
100
AcDbLayerTableRecord
  2
DEFAULT_2
 70
0
 62
7
  6
HIDDEN
370
-3
390
F
  0
LAYER
  5
1FC
100
AcDbSymbolTableRecord
100
AcDbLayerTableRecord
  2
DEFAULT_3
 70
0
 62
7
  6
PHANTOM
370
-3
390
F
  0
LAYER
  5
1FD
100
AcDbSymbolTableRecord
100
AcDbLayerTableRecord
  2
ASSI
 70
0
 62
7
  6
CONTINUOUS
370
-3
390
F
  0
LAYER
  5
1FE
100
AcDbSymbolTableRecord
100
AcDbLayerTableRecord
  2
COORDINATE
 70
0
 62
7
  6
CONTINUOUS
370
-3
390
F
  0
LAYER
  5
1FF
100
AcDbSymbolTableRecord
100
AcDbLayerTableRecord
  2
COORD_ORIGINE
 70
0
 62
7
  6
CONTINUOUS
370
-3
390
F
  0
LAYER
  5
200
100
AcDbSymbolTableRecord
100
AcDbLayerTableRecord
  2
COPY_PUBLISH
 70
0
 62
7
  6
CONTINUOUS
370
-3
390
F
  0
LAYER
  5
201
100
AcDbSymbolTableRecord
100
AcDbLayerTableRecord
  2
COSMETIC
 70
0
 62
7
  6
CONTINUOUS
370
-3
390
F
  0
LAYER
  5
202
100
AcDbSymbolTableRecord
100
AcDbLayerTableRecord
  2
CURVE
 70
0
 62
7
  6
CONTINUOUS
370
-3
390
F
  0
LAYER
  5
203
100
AcDbSymbolTableRecord
100
AcDbLayerTableRecord
  2
DRAFT
 70
0
 62
7
  6
CONTINUOUS
370
-3
390
F
  0
LAYER
  5
204
100
AcDbSymbolTableRecord
100
AcDbLayerTableRecord
  2
IMPORT_IGES
 70
0
 62
7
  6
CONTINUOUS
370
-3
390
F
  0
LAYER
  5
205
100
AcDbSymbolTableRecord
100
AcDbLayerTableRecord
  2
NOTE
 70
0
 62
7
  6
CONTINUOUS
370
-3
390
F
  0
LAYER
  5
206
100
AcDbSymbolTableRecord
100
AcDbLayerTableRecord
  2
PIANI
 70
0
 62
7
  6
CONTINUOUS
370
-3
390
F
  0
LAYER
  5
207
100
AcDbSymbolTableRecord
100
AcDbLayerTableRecord
  2
PIANI_ORIGINE
 70
0
 62
7
  6
CONTINUOUS
370
-3
390
F
  0
LAYER
  5
208
100
AcDbSymbolTableRecord
100
AcDbLayerTableRecord
  2
PIANI_SFORMI
 70
0
 62
7
  6
CONTINUOUS
370
-3
390
F
  0
LAYER
  5
209
100
AcDbSymbolTableRecord
100
AcDbLayerTableRecord
  2
PUNTI
 70
0
 62
7
  6
CONTINUOUS
370
-3
390
F
  0
LAYER
  5
20A
100
AcDbSymbolTableRecord
100
AcDbLayerTableRecord
  2
RACCORDO
 70
0
 62
7
  6
CONTINUOUS
370
-3
390
F
  0
LAYER
  5
20B
100
AcDbSymbolTableRecord
100
AcDbLayerTableRecord
  2
SKEL
 70
0
 62
7
  6
CONTINUOUS
370
-3
390
F
  0
LAYER
  5
20C
100
AcDbSymbolTableRecord
100
AcDbLayerTableRecord
  2
SMUSSO
 70
0
 62
7
  6
CONTINUOUS
370
-3
390
F
  0
LAYER
  5
20D
100
AcDbSymbolTableRecord
100
AcDbLayerTableRecord
  2
SNAPLINE
 70
0
 62
7
  6
CONTINUOUS
370
-3
390
F
  0
LAYER
  5
20E
100
AcDbSymbolTableRecord
100
AcDbLayerTableRecord
  2
SUPERFICI
 70
0
 62
7
  6
CONTINUOUS
370
-3
390
F
  0
LAYER
  5
20F
100
AcDbSymbolTableRecord
100
AcDbLayerTableRecord
  2
TRASH
 70
0
 62
7
  6
CONTINUOUS
370
-3
390
F
  0
LAYER
  5
210
100
AcDbSymbolTableRecord
100
AcDbLayerTableRecord
  2
XSEC_DATUMS
 70
0
 62
7
  6
CONTINUOUS
370
-3
390
F
  0
LAYER
  5
211
100
AcDbSymbolTableRecord
100
AcDbLayerTableRecord
  2
Z030100_COP
 70
0
 62
7
  6
CONTINUOUS
370
-3
390
F
  0
ENDTAB
  0
TABLE
  2
STYLE
  5
3
100
AcDbSymbolTable
 70
1
  0
STYLE
  5
11
100
AcDbSymbolTableRecord
100
AcDbTextStyleTableRecord
  2
STANDARD
 70
0
 40
0.0
 41
0.8
 50
0.0
 71
0
 42
0.2
  3
txt
  4

  0
STYLE
  5
212
100
AcDbSymbolTableRecord
100
AcDbTextStyleTableRecord
  2
TEXTSTYLE_1
 70
0
 40
0.0
 41
0.8
 50
0.0
 71
0
 42
0.2
  3
gdt
  4

  0
ENDTAB
  0
TABLE
  2
VIEW
  5
6
100
AcDbSymbolTable
 70
0
  0
ENDTAB
  0
TABLE
  2
UCS
  5
7
100
AcDbSymbolTable
 70
0
  0
ENDTAB
  0
TABLE
  2
APPID
  5
9
100
AcDbSymbolTable
 70
1
  0
APPID
  5
213
100
AcDbSymbolTableRecord
100
AcDbRegAppTableRecord
  2
ACAD
 70
0
  0
ENDTAB
  0
TABLE
  2
BLOCK_RECORD
  5
1
100
AcDbSymbolTable
 70
0
  0
BLOCK_RECORD
  5
214
100
AcDbSymbolTableRecord
100
AcDbBlockTableRecord
  2
*Model_Space
  0
BLOCK_RECORD
  5
215
100
AcDbSymbolTableRecord
100
AcDbBlockTableRecord
  2
*Paper_Space
  0
ENDTAB
  0
TABLE
  2
DIMSTYLE
  5
A
100
AcDbSymbolTable
 70
1
100
AcDbDimStyleTable
 71
0
  0
DIMSTYLE
105
216
100
AcDbSymbolTableRecord
100
AcDbDimStyleTableRecord
  2
STANDARD
 70
0
  3

  4

 40
1.0
 41
3.0
 42
0.0625
 43
0.38
 44
0.18
 45
0.0
 46
0.0
 47
0.01
 48
0.01
140
3.0
141
0.09
142
0.0
143
25.4
144
1.0
145
0.0
146
1.0
147
0.09
 71
1.0
 72
0.0
 73
0
 74
0
 75
0
 76
0
 77
1
 78
8
170
0
171
2
172
0
173
0
174
0
175
0
176
0
177
0
178
0
270
2
271
2
272
2
273
2
274
2
275
0
280
0
281
0
282
0
283
1
284
8
285
0
286
0
287
3
288
0
340
11
  0
ENDTAB
  0
ENDSEC
  0
SECTION
  2
BLOCKS
  0
BLOCK
  5
20
100
AcDbEntity
  8
0
100
AcDbBlockBegin
  2
*Model_Space
 70
0
 10
0.0
 20
0.0
 30
0.0
  3
*Model_Space
  1

  0
ENDBLK
  5
21
100
AcDbEntity
  8
0
100
AcDbBlockEnd
  0
BLOCK
  5
1C
100
AcDbEntity
  8
0
100
AcDbBlockBegin
  2
*Paper_Space
 70
0
 10
0.0
 20
0.0
 30
0.0
  3
*Paper_Space
  1

  0
ENDBLK
  5
1D
100
AcDbEntity
  8
0
100
AcDbBlockEnd
  0
ENDSEC
  0
SECTION
  2
ENTITIES
  0
LINE
  5
217
100
AcDbEntity
  8
ASSI
100
AcDbLine
 62
7
  6
CONTINUOUS
 10
-9.8956323968
 20
-24.495628166
 11
-7.5043676032
 21
-24.495628166
  0
LINE
  5
218
100
AcDbEntity
  8
0
100
AcDbLine
 62
7
  6
CONTINUOUS
 10
-9.8956323968
 20
-24.495628166
 11
-7.5043676032
 21
-24.495628166
  0
LINE
  5
219
100
AcDbEntity
  8
ASSI
100
AcDbLine
 62
7
  6
CONTINUOUS
 10
7.5043676032
 20
-24.495628166
 11
9.8956323968
 21
-24.495628166
  0
LINE
  5
21A
100
AcDbEntity
  8
0
100
AcDbLine
 62
7
  6
CONTINUOUS
 10
7.5043676032
 20
-24.495628166
 11
9.8956323968
 21
-24.495628166
  0
LINE
  5
21B
100
AcDbEntity
  8
ASSI
100
AcDbLine
 62
253
  6
CONTINUOUS
 10
7.254371834
 20
-24.2456323968
 11
10.145628166
 21
-24.2456323968
  0
LINE
  5
21C
100
AcDbEntity
  8
0
100
AcDbLine
 62
253
  6
CONTINUOUS
 10
7.254371834
 20
-24.2456323968
 11
10.145628166
 21
-24.2456323968
  0
LINE
  5
21D
100
AcDbEntity
  8
ASSI
100
AcDbLine
 62
253
  6
CONTINUOUS
 10
-7.254371834
 20
-24.2456323968
 11
-10.145628166
 21
-24.2456323968
  0
LINE
  5
21E
100
AcDbEntity
  8
0
100
AcDbLine
 62
253
  6
CONTINUOUS
 10
-7.254371834
 20
-24.2456323968
 11
-10.145628166
 21
-24.2456323968
  0
LINE
  5
21F
100
AcDbEntity
  8
ASSI
100
AcDbLine
 62
7
  6
CONTINUOUS
 10
-4.45
 20
-24.0
 11
-3.5567500259
 21
-24.0
  0
LINE
  5
220
100
AcDbEntity
  8
0
100
AcDbLine
 62
7
  6
CONTINUOUS
 10
-4.45
 20
-24.0
 11
-3.5567500259
 21
-24.0
  0
LINE
  5
221
100
AcDbEntity
  8
ASSI
100
AcDbLine
 62
7
  6
CONTINUOUS
 10
3.5567500259
 20
-24.0
 11
4.45
 21
-24.0
  0
LINE
  5
222
100
AcDbEntity
  8
0
100
AcDbLine
 62
7
  6
CONTINUOUS
 10
3.5567500259
 20
-24.0
 11
4.45
 21
-24.0
  0
LINE
  5
223
100
AcDbEntity
  8
ASSI
100
AcDbLine
 62
7
  6
CONTINUOUS
 10
-3.5
 20
-23.9941821702
 11
-1.2087243294
 21
-23.9941821702
  0
LINE
  5
224
100
AcDbEntity
  8
0
100
AcDbLine
 62
7
  6
CONTINUOUS
 10
-3.5
 20
-23.9941821702
 11
-1.2087243294
 21
-23.9941821702
  0
LINE
  5
225
100
AcDbEntity
  8
ASSI
100
AcDbLine
 62
7
  6
CONTINUOUS
 10
1.2087243294
 20
-23.9941821702
 11
3.5
 21
-23.9941821702
  0
LINE
  5
226
100
AcDbEntity
  8
0
100
AcDbLine
 62
7
  6
CONTINUOUS
 10
1.2087243294
 20
-23.9941821702
 11
3.5
 21
-23.9941821702
  0
LINE
  5
227
100
AcDbEntity
  8
ASSI
100
AcDbLine
 62
7
  6
CONTINUOUS
 10
-4.4063493531
 20
-23.9563493531
 11
-3.5567500259
 21
-23.9563493531
  0
LINE
  5
228
100
AcDbEntity
  8
0
100
AcDbLine
 62
7
  6
CONTINUOUS
 10
-4.4063493531
 20
-23.9563493531
 11
-3.5567500259
 21
-23.9563493531
  0
LINE
  5
229
100
AcDbEntity
  8
ASSI
100
AcDbLine
 62
7
  6
CONTINUOUS
 10
3.5567500259
 20
-23.9563493531
 11
4.4063493531
 21
-23.9563493531
  0
LINE
  5
22A
100
AcDbEntity
  8
0
100
AcDbLine
 62
7
  6
CONTINUOUS
 10
3.5567500259
 20
-23.9563493531
 11
4.4063493531
 21
-23.9563493531
  0
LINE
  5
22B
100
AcDbEntity
  8
ASSI
100
AcDbLine
 62
253
  6
CONTINUOUS
 10
7.254371834
 20
-23.8443375673
 11
10.145628166
 21
-23.8443375673
  0
LINE
  5
22C
100
AcDbEntity
  8
0
100
AcDbLine
 62
253
  6
CONTINUOUS
 10
7.254371834
 20
-23.8443375673
 11
10.145628166
 21
-23.8443375673
  0
LINE
  5
22D
100
AcDbEntity
  8
ASSI
100
AcDbLine
 62
253
  6
CONTINUOUS
 10
-7.254371834
 20
-23.8443375673
 11
-10.145628166
 21
-23.8443375673
  0
LINE
  5
22E
100
AcDbEntity
  8
0
100
AcDbLine
 62
253
  6
CONTINUOUS
 10
-7.254371834
 20
-23.8443375673
 11
-10.145628166
 21
-23.8443375673
  0
LINE
  5
22F
100
AcDbEntity
  8
ASSI
100
AcDbLine
 62
253
  6
CONTINUOUS
 10
9.8956323968
 20
-23.6278312164
 11
7.5043676032
 21
-23.6278312164
  0
LINE
  5
230
100
AcDbEntity
  8
0
100
AcDbLine
 62
253
  6
CONTINUOUS
 10
9.8956323968
 20
-23.6278312164
 11
7.5043676032
 21
-23.6278312164
  0
LINE
  5
231
100
AcDbEntity
  8
ASSI
100
AcDbLine
 62
253
  6
CONTINUOUS
 10
-7.5043676032
 20
-23.6278312164
 11
-9.8956323968
 21
-23.6278312164
  0
LINE
  5
232
100
AcDbEntity
  8
0
100
AcDbLine
 62
253
  6
CONTINUOUS
 10
-7.5043676032
 20
-23.6278312164
 11
-9.8956323968
 21
-23.6278312164
  0
LINE
  5
233
100
AcDbEntity
  8
ASSI
100
AcDbLine
 62
7
  6
CONTINUOUS
 10
-3.5
 20
23.9941821702
 11
-3.5567500259
 21
23.9563493531
  0
LINE
  5
234
100
AcDbEntity
  8
0
100
AcDbLine
 62
7
  6
CONTINUOUS
 10
-3.5
 20
23.9941821702
 11
-3.5567500259
 21
23.9563493531
  0
LINE
  5
235
100
AcDbEntity
  8
ASSI
100
AcDbLine
 62
7
  6
CONTINUOUS
 10
-8.0665695018
 20
20.9917082642
 11
-8.25
 21
20.9
  0
LINE
  5
236
100
AcDbEntity
  8
0
100
AcDbLine
 62
7
  6
CONTINUOUS
 10
-8.0665695018
 20
20.9917082642
 11
-8.25
 21
20.9
  0
LINE
  5
237
100
AcDbEntity
  8
ASSI
100
AcDbLine
 62
7
  6
CONTINUOUS
 10
-8.0665695018
 20
21.4537354271
 11
-8.25
 21
21.4
  0
LINE
  5
238
100
AcDbEntity
  8
0
100
AcDbLine
 62
7
  6
CONTINUOUS
 10
-8.0665695018
 20
21.4537354271
 11
-8.25
 21
21.4
  0
LINE
  5
239
100
AcDbEntity
  8
ASSI
100
AcDbLine
 62
7
  6
CONTINUOUS
 10
-9.9007229979
 20
-23.1226497308
 11
-7.4992770021
 21
-23.1226497308
  0
LINE
  5
23A
100
AcDbEntity
  8
0
100
AcDbLine
 62
7
  6
CONTINUOUS
 10
-9.9007229979
 20
-23.1226497308
 11
-7.4992770021
 21
-23.1226497308
  0
LINE
  5
23B
100
AcDbEntity
  8
ASSI
100
AcDbLine
 62
7
  6
CONTINUOUS
 10
9.9007229979
 20
-23.1226497308
 11
7.4992770021
 21
-23.1226497308
  0
LINE
  5
23C
100
AcDbEntity
  8
0
100
AcDbLine
 62
7
  6
CONTINUOUS
 10
9.9007229979
 20
-23.1226497308
 11
7.4992770021
 21
-23.1226497308
  0
LINE
  5
23D
100
AcDbEntity
  8
ASSI
100
AcDbLine
 62
7
  6
CONTINUOUS
 10
-7.0500575117
 20
-22.4
 11
-4.45
 21
-22.4
  0
LINE
  5
23E
100
AcDbEntity
  8
RACCORDO
100
AcDbLine
 62
7
  6
CONTINUOUS
 10
-7.1905416262
 20
-22.4
 11
-4.45
 21
-22.4
  0
LINE
  5
23F
100
AcDbEntity
  8
ASSI
100
AcDbLine
 62
7
  6
CONTINUOUS
 10
4.45
 20
-22.4
 11
7.0500575117
 21
-22.4
  0
LINE
  5
240
100
AcDbEntity
  8
RACCORDO
100
AcDbLine
 62
7
  6
CONTINUOUS
 10
4.45
 20
-22.4
 11
7.1905416262
 21
-22.4
  0
LINE
  5
241
100
AcDbEntity
  8
ASSI
100
AcDbLine
 62
7
  6
CONTINUOUS
 10
-1.0087268678
 20
-22.3947639644
 11
1.0087268678
 21
-22.3947639644
  0
LINE
  5
242
100
AcDbEntity
  8
0
100
AcDbLine
 62
7
  6
CONTINUOUS
 10
-1.0087268678
 20
-22.3947639644
 11
1.0087268678
 21
-22.3947639644
  0
LINE
  5
243
100
AcDbEntity
  8
ASSI
100
AcDbLine
 62
7
  6
CONTINUOUS
 10
-10.6412794783
 20
-22.3941821702
 11
-7.2558178298
 21
-22.3941821702
  0
LINE
  5
244
100
AcDbEntity
  8
0
100
AcDbLine
 62
7
  6
CONTINUOUS
 10
-10.6412794783
 20
-22.3941821702
 11
-7.2558178298
 21
-22.3941821702
  0
LINE
  5
245
100
AcDbEntity
  8
ASSI
100
AcDbLine
 62
7
  6
CONTINUOUS
 10
-3.5
 20
-22.3941821702
 11
-3.0
 21
-22.3941821702
  0
LINE
  5
246
100
AcDbEntity
  8
0
100
AcDbLine
 62
7
  6
CONTINUOUS
 10
-3.5
 20
-22.3941821702
 11
-3.0
 21
-22.3941821702
  0
LINE
  5
247
100
AcDbEntity
  8
ASSI
100
AcDbLine
 62
7
  6
CONTINUOUS
 10
3.0
 20
-22.3941821702
 11
3.5
 21
-22.3941821702
  0
LINE
  5
248
100
AcDbEntity
  8
0
100
AcDbLine
 62
7
  6
CONTINUOUS
 10
3.0
 20
-22.3941821702
 11
3.5
 21
-22.3941821702
  0
LINE
  5
249
100
AcDbEntity
  8
ASSI
100
AcDbLine
 62
7
  6
CONTINUOUS
 10
7.2558178298
 20
-22.3941821702
 11
10.6412794783
 21
-22.3941821702
  0
LINE
  5
24A
100
AcDbEntity
  8
0
100
AcDbLine
 62
7
  6
CONTINUOUS
 10
7.2558178298
 20
-22.3941821702
 11
10.6412794783
 21
-22.3941821702
  0
LINE
  5
24B
100
AcDbEntity
  8
ASSI
100
AcDbLine
 62
253
  6
CONTINUOUS
 10
-7.1905416262
 20
-22.3359700255
 11
-3.0873194485
 21
-22.3359700255
  0
LINE
  5
24C
100
AcDbEntity
  8
0
100
AcDbLine
 62
7
  6
CONTINUOUS
 10
-7.1905416262
 20
-22.3359700255
 11
-3.0873194485
 21
-22.3359700255
  0
LINE
  5
24D
100
AcDbEntity
  8
ASSI
100
AcDbLine
 62
253
  6
CONTINUOUS
 10
3.0873194485
 20
-22.3359700255
 11
7.1905416262
 21
-22.3359700255
  0
LINE
  5
24E
100
AcDbEntity
  8
0
100
AcDbLine
 62
7
  6
CONTINUOUS
 10
3.0873194485
 20
-22.3359700255
 11
7.1905416262
 21
-22.3359700255
  0
LINE
  5
24F
100
AcDbEntity
  8
ASSI
100
AcDbLine
 62
7
  6
CONTINUOUS
 10
3.0
 20
-21.7
 11
-3.0
 21
-21.7
  0
LINE
  5
250
100
AcDbEntity
  8
0
100
AcDbLine
 62
7
  6
CONTINUOUS
 10
3.0
 20
-21.7
 11
-3.0
 21
-21.7
  0
LINE
  5
251
100
AcDbEntity
  8
ASSI
100
AcDbLine
 62
7
  6
CONTINUOUS
 10
-8.0665695018
 20
-21.4537354271
 11
-8.25
 21
-21.4
  0
LINE
  5
252
100
AcDbEntity
  8
0
100
AcDbLine
 62
7
  6
CONTINUOUS
 10
-8.0665695018
 20
-21.4537354271
 11
-8.25
 21
-21.4
  0
LINE
  5
253
100
AcDbEntity
  8
ASSI
100
AcDbLine
 62
7
  6
CONTINUOUS
 10
-8.0665695018
 20
-20.9917082642
 11
-8.25
 21
-20.9
  0
LINE
  5
254
100
AcDbEntity
  8
0
100
AcDbLine
 62
7
  6
CONTINUOUS
 10
-8.0665695018
 20
-20.9917082642
 11
-8.25
 21
-20.9
  0
LINE
  5
255
100
AcDbEntity
  8
ASSI
100
AcDbLine
 62
7
  6
CONTINUOUS
 10
-3.5
 20
-23.9941821702
 11
-3.5567500259
 21
-23.9563493531
  0
LINE
  5
256
100
AcDbEntity
  8
0
100
AcDbLine
 62
7
  6
CONTINUOUS
 10
-3.5
 20
-23.9941821702
 11
-3.5567500259
 21
-23.9563493531
  0
LINE
  5
257
100
AcDbEntity
  8
ASSI
100
AcDbLine
 62
7
  6
CONTINUOUS
 10
-9.65
 20
20.1990396502
 11
-8.9498936624
 21
20.9
  0
LINE
  5
258
100
AcDbEntity
  8
0
100
AcDbLine
 62
7
  6
CONTINUOUS
 10
-9.65
 20
20.1990396502
 11
-8.9498936624
 21
20.9
  0
LINE
  5
259
100
AcDbEntity
  8
ASSI
100
AcDbLine
 62
7
  6
CONTINUOUS
 10
-7.2558178298
 20
22.3941821702
 11
-8.25
 21
21.4
  0
LINE
  5
25A
100
AcDbEntity
  8
0
100
AcDbLine
 62
7
  6
CONTINUOUS
 10
-7.2558178298
 20
22.3941821702
 11
-8.25
 21
21.4
  0
LINE
  5
25B
100
AcDbEntity
  8
ASSI
100
AcDbLine
 62
7
  6
CONTINUOUS
 10
-7.2040044543
 20
20.9959955457
 11
-7.3
 21
20.9
  0
LINE
  5
25C
100
AcDbEntity
  8
DRAFT
100
AcDbLine
 62
7
  6
CONTINUOUS
 10
-7.2040044543
 20
20.9959955457
 11
-7.3
 21
20.9
  0
LINE
  5
25D
100
AcDbEntity
  8
ASSI
100
AcDbLine
 62
7
  6
CONTINUOUS
 10
-3.5
 20
22.3941821702
 11
-3.5590867224
 21
22.3547915774
  0
LINE
  5
25E
100
AcDbEntity
  8
0
100
AcDbLine
 62
7
  6
CONTINUOUS
 10
-3.5
 20
22.3941821702
 11
-3.5590867224
 21
22.3547915774
  0
LINE
  5
25F
100
AcDbEntity
  8
0
100
AcDbLine
 62
253
  6
CONTINUOUS
 10
-1.0087268678
 20
23.7941889394
 11
-1.0
 21
23.8000067692
  0
LINE
  5
260
100
AcDbEntity
  8
ASSI
100
AcDbLine
 62
7
  6
CONTINUOUS
 10
-3.0
 20
22.3941821702
 11
-3.0873194485
 21
22.3359700255
  0
LINE
  5
261
100
AcDbEntity
  8
0
100
AcDbLine
 62
7
  6
CONTINUOUS
 10
-3.0
 20
22.3941821702
 11
-3.0873194485
 21
22.3359700255
  0
LINE
  5
262
100
AcDbEntity
  8
ASSI
100
AcDbLine
 62
7
  6
CONTINUOUS
 10
3.0762444645
 20
-21.6237555355
 11
-3.0762444645
 21
-21.6237555355
  0
LINE
  5
263
100
AcDbEntity
  8
0
100
AcDbLine
 62
7
  6
CONTINUOUS
 10
3.0762444645
 20
-21.6237555355
 11
-3.0762444645
 21
-21.6237555355
  0
LINE
  5
264
100
AcDbEntity
  8
ASSI
100
AcDbLine
 62
253
  6
CONTINUOUS
 10
-7.5666456542
 20
-21.3359869487
 11
-3.0959955457
 21
-21.3359869487
  0
LINE
  5
265
100
AcDbEntity
  8
0
100
AcDbLine
 62
253
  6
CONTINUOUS
 10
-7.5666456542
 20
-21.3359869487
 11
-3.0959955457
 21
-21.3359869487
  0
LINE
  5
266
100
AcDbEntity
  8
ASSI
100
AcDbLine
 62
253
  6
CONTINUOUS
 10
3.0959955457
 20
-21.3359869487
 11
7.5666456542
 21
-21.3359869487
  0
LINE
  5
267
100
AcDbEntity
  8
0
100
AcDbLine
 62
253
  6
CONTINUOUS
 10
3.0959955457
 20
-21.3359869487
 11
7.5666456542
 21
-21.3359869487
  0
LINE
  5
268
100
AcDbEntity
  8
ASSI
100
AcDbLine
 62
7
  6
CONTINUOUS
 10
11.1674550649
 20
-21.0226497308
 11
11.1412731322
 21
-21.0226497308
  0
LINE
  5
269
100
AcDbEntity
  8
ASSI
100
AcDbLine
 62
7
  6
CONTINUOUS
 10
-11.1674550649
 20
-21.0226497308
 11
-11.1412731322
 21
-21.0226497308
  0
LINE
  5
26A
100
AcDbEntity
  8
0
100
AcDbLine
 62
7
  6
CONTINUOUS
 10
11.1674550649
 20
-21.0226497308
 11
11.1412731322
 21
-21.0226497308
  0
LINE
  5
26B
100
AcDbEntity
  8
0
100
AcDbLine
 62
7
  6
CONTINUOUS
 10
-11.1674550649
 20
-21.0226497308
 11
-11.1412731322
 21
-21.0226497308
  0
LINE
  5
26C
100
AcDbEntity
  8
ASSI
100
AcDbLine
 62
7
  6
CONTINUOUS
 10
7.5666456542
 20
-20.9959955457
 11
7.2040044543
 21
-20.9959955457
  0
LINE
  5
26D
100
AcDbEntity
  8
DRAFT
100
AcDbLine
 62
7
  6
CONTINUOUS
 10
7.5666456542
 20
-20.9959955457
 11
7.2040044543
 21
-20.9959955457
  0
LINE
  5
26E
100
AcDbEntity
  8
ASSI
100
AcDbLine
 62
7
  6
CONTINUOUS
 10
-7.2040044543
 20
-20.9959955457
 11
-7.5666456542
 21
-20.9959955457
  0
LINE
  5
26F
100
AcDbEntity
  8
DRAFT
100
AcDbLine
 62
7
  6
CONTINUOUS
 10
-7.2040044543
 20
-20.9959955457
 11
-7.5666456542
 21
-20.9959955457
  0
LINE
  5
270
100
AcDbEntity
  8
0
100
AcDbLine
 62
7
  6
CONTINUOUS
 10
-8.9498936624
 20
-20.9
 11
-8.25
 21
-20.9
  0
LINE
  5
271
100
AcDbEntity
  8
ASSI
100
AcDbLine
 62
7
  6
CONTINUOUS
 10
-8.9498936624
 20
-20.9
 11
-7.3
 21
-20.9
  0
LINE
  5
272
100
AcDbEntity
  8
DRAFT
100
AcDbLine
 62
7
  6
CONTINUOUS
 10
-8.25
 20
-20.9
 11
-7.3
 21
-20.9
  0
LINE
  5
273
100
AcDbEntity
  8
DRAFT
100
AcDbLine
 62
7
  6
CONTINUOUS
 10
7.3
 20
-20.9
 11
8.25
 21
-20.9
  0
LINE
  5
274
100
AcDbEntity
  8
ASSI
100
AcDbLine
 62
7
  6
CONTINUOUS
 10
7.3
 20
-20.9
 11
8.9498936624
 21
-20.9
  0
LINE
  5
275
100
AcDbEntity
  8
0
100
AcDbLine
 62
7
  6
CONTINUOUS
 10
8.25
 20
-20.9
 11
8.9498936624
 21
-20.9
  0
LINE
  5
276
100
AcDbEntity
  8
ASSI
100
AcDbLine
 62
7
  6
CONTINUOUS
 10
-3.0959955457
 20
-20.8
 11
3.0959955457
 21
-20.8
  0
LINE
  5
277
100
AcDbEntity
  8
0
100
AcDbLine
 62
7
  6
CONTINUOUS
 10
-3.0959955457
 20
-20.8
 11
3.0959955457
 21
-20.8
  0
LINE
  5
278
100
AcDbEntity
  8
ASSI
100
AcDbLine
 62
7
  6
CONTINUOUS
 10
-8.9132380261
 20
-20.7899436635
 11
-7.3183264224
 21
-20.7899436635
  0
LINE
  5
279
100
AcDbEntity
  8
DRAFT
100
AcDbLine
 62
7
  6
CONTINUOUS
 10
-8.9132380261
 20
-20.7899436635
 11
-7.3183264224
 21
-20.7899436635
  0
LINE
  5
27A
100
AcDbEntity
  8
ASSI
100
AcDbLine
 62
7
  6
CONTINUOUS
 10
7.3183264224
 20
-20.7899436635
 11
8.9132380261
 21
-20.7899436635
  0
LINE
  5
27B
100
AcDbEntity
  8
DRAFT
100
AcDbLine
 62
7
  6
CONTINUOUS
 10
7.3183264224
 20
-20.7899436635
 11
8.9132380261
 21
-20.7899436635
  0
LINE
  5
27C
100
AcDbEntity
  8
ASSI
100
AcDbLine
 62
7
  6
CONTINUOUS
 10
6.5959955457
 20
-20.1143219681
 11
-6.5959955457
 21
-20.1143219681
  0
LINE
  5
27D
100
AcDbEntity
  8
DRAFT
100
AcDbLine
 62
7
  6
CONTINUOUS
 10
6.5959955457
 20
-20.1143219681
 11
-6.5959955457
 21
-20.1143219681
  0
LINE
  5
27E
100
AcDbEntity
  8
ASSI
100
AcDbLine
 62
7
  6
CONTINUOUS
 10
-4.2026066368
 20
-20.0322894108
 11
4.2026066368
 21
-20.0322894108
  0
LINE
  5
27F
100
AcDbEntity
  8
RACCORDO
100
AcDbLine
 62
7
  6
CONTINUOUS
 10
-4.2026066368
 20
-20.0322894108
 11
4.2026066368
 21
-20.0322894108
  0
LINE
  5
280
100
AcDbEntity
  8
ASSI
100
AcDbLine
 62
7
  6
CONTINUOUS
 10
-6.4816735776
 20
-20.0
 11
-4.5322894108
 21
-20.0
  0
LINE
  5
281
100
AcDbEntity
  8
DRAFT
100
AcDbLine
 62
7
  6
CONTINUOUS
 10
-6.4816735776
 20
-20.0
 11
-4.5322894108
 21
-20.0
  0
LINE
  5
282
100
AcDbEntity
  8
ASSI
100
AcDbLine
 62
7
  6
CONTINUOUS
 10
4.5322894108
 20
-20.0
 11
6.4816735776
 21
-20.0
  0
LINE
  5
283
100
AcDbEntity
  8
DRAFT
100
AcDbLine
 62
7
  6
CONTINUOUS
 10
4.5322894108
 20
-20.0
 11
6.4816735776
 21
-20.0
  0
LINE
  5
284
100
AcDbEntity
  8
ASSI
100
AcDbLine
 62
7
  6
CONTINUOUS
 10
-3.5
 20
-22.3941821702
 11
-3.5590867224
 21
-22.3547915774
  0
LINE
  5
285
100
AcDbEntity
  8
0
100
AcDbLine
 62
7
  6
CONTINUOUS
 10
-3.5
 20
-22.3941821702
 11
-3.5590867224
 21
-22.3547915774
  0
LINE
  5
286
100
AcDbEntity
  8
0
100
AcDbLine
 62
253
  6
CONTINUOUS
 10
-1.0
 20
-23.8000067692
 11
-1.0087268678
 21
-23.7941889394
  0
LINE
  5
287
100
AcDbEntity
  8
ASSI
100
AcDbLine
 62
7
  6
CONTINUOUS
 10
-3.0
 20
-22.3941821702
 11
-3.0873194485
 21
-22.3359700255
  0
LINE
  5
288
100
AcDbEntity
  8
0
100
AcDbLine
 62
7
  6
CONTINUOUS
 10
-3.0
 20
-22.3941821702
 11
-3.0873194485
 21
-22.3359700255
  0
LINE
  5
289
100
AcDbEntity
  8
ASSI
100
AcDbLine
 62
7
  6
CONTINUOUS
 10
-7.2558178298
 20
-22.3941821702
 11
-8.25
 21
-21.4
  0
LINE
  5
28A
100
AcDbEntity
  8
0
100
AcDbLine
 62
7
  6
CONTINUOUS
 10
-7.2558178298
 20
-22.3941821702
 11
-8.25
 21
-21.4
  0
LINE
  5
28B
100
AcDbEntity
  8
ASSI
100
AcDbLine
 62
7
  6
CONTINUOUS
 10
-7.2040044543
 20
-20.9959955457
 11
-7.3
 21
-20.9
  0
LINE
  5
28C
100
AcDbEntity
  8
DRAFT
100
AcDbLine
 62
7
  6
CONTINUOUS
 10
-7.2040044543
 20
-20.9959955457
 11
-7.3
 21
-20.9
  0
LINE
  5
28D
100
AcDbEntity
  8
ASSI
100
AcDbLine
 62
7
  6
CONTINUOUS
 10
-9.65
 20
-20.1990396502
 11
-8.9498936624
 21
-20.9
  0
LINE
  5
28E
100
AcDbEntity
  8
0
100
AcDbLine
 62
7
  6
CONTINUOUS
 10
-9.65
 20
-20.1990396502
 11
-8.9498936624
 21
-20.9
  0
LINE
  5
28F
100
AcDbEntity
  8
ASSI
100
AcDbLine
 62
7
  6
CONTINUOUS
 10
-9.6133443637
 20
-20.0889833137
 11
-8.9132380261
 21
-20.7899436635
  0
LINE
  5
290
100
AcDbEntity
  8
0
100
AcDbLine
 62
7
  6
CONTINUOUS
 10
-9.6133443637
 20
-20.0889833137
 11
-8.9132380261
 21
-20.7899436635
  0
LINE
  5
291
100
AcDbEntity
  8
ASSI
100
AcDbLine
 62
7
  6
CONTINUOUS
 10
-8.7781811688
 20
17.2218188312
 11
-8.7867049498
 21
17.2132950502
  0
LINE
  5
292
100
AcDbEntity
  8
DRAFT
100
AcDbLine
 62
7
  6
CONTINUOUS
 10
-8.7781811688
 20
17.2218188312
 11
-8.7867049498
 21
17.2132950502
  0
LINE
  5
293
100
AcDbEntity
  8
ASSI
100
AcDbLine
 62
7
  6
CONTINUOUS
 10
-1.0087268678
 20
22.3947639644
 11
-1.0
 21
22.4
  0
LINE
  5
294
100
AcDbEntity
  8
0
100
AcDbLine
 62
7
  6
CONTINUOUS
 10
-1.0087268678
 20
22.3947639644
 11
-1.0
 21
22.4
  0
LINE
  5
295
100
AcDbEntity
  8
DRAFT
100
AcDbLine
 62
7
  6
CONTINUOUS
 10
-7.9152034285
 20
17.3755647702
 11
-7.8
 21
17.4331620976
  0
LINE
  5
296
100
AcDbEntity
  8
ASSI
100
AcDbLine
 62
253
  6
CONTINUOUS
 10
9.6133443637
 20
-19.7897929133
 11
7.3183264224
 21
-19.7897929133
  0
LINE
  5
297
100
AcDbEntity
  8
RACCORDO
100
AcDbLine
 62
253
  6
CONTINUOUS
 10
9.6133443637
 20
-19.7897929133
 11
7.3183264224
 21
-19.7897929133
  0
LINE
  5
298
100
AcDbEntity
  8
ASSI
100
AcDbLine
 62
253
  6
CONTINUOUS
 10
6.4816735776
 20
-19.7897929133
 11
4.5322894108
 21
-19.7897929133
  0
LINE
  5
299
100
AcDbEntity
  8
RACCORDO
100
AcDbLine
 62
253
  6
CONTINUOUS
 10
6.4816735776
 20
-19.7897929133
 11
4.5322894108
 21
-19.7897929133
  0
LINE
  5
29A
100
AcDbEntity
  8
ASSI
100
AcDbLine
 62
253
  6
CONTINUOUS
 10
-4.5322894108
 20
-19.7897929133
 11
-6.4816735776
 21
-19.7897929133
  0
LINE
  5
29B
100
AcDbEntity
  8
RACCORDO
100
AcDbLine
 62
253
  6
CONTINUOUS
 10
-4.5322894108
 20
-19.7897929133
 11
-6.4816735776
 21
-19.7897929133
  0
LINE
  5
29C
100
AcDbEntity
  8
ASSI
100
AcDbLine
 62
253
  6
CONTINUOUS
 10
-7.3183264224
 20
-19.7897929133
 11
-9.6133443637
 21
-19.7897929133
  0
LINE
  5
29D
100
AcDbEntity
  8
RACCORDO
100
AcDbLine
 62
253
  6
CONTINUOUS
 10
-7.3183264224
 20
-19.7897929133
 11
-9.6133443637
 21
-19.7897929133
  0
LINE
  5
29E
100
AcDbEntity
  8
ASSI
100
AcDbLine
 62
253
  6
CONTINUOUS
 10
9.6100360562
 20
-19.5900670064
 11
7.3199804501
 21
-19.5900670064
  0
LINE
  5
29F
100
AcDbEntity
  8
RACCORDO
100
AcDbLine
 62
253
  6
CONTINUOUS
 10
9.6100360562
 20
-19.5900670064
 11
7.3199804501
 21
-19.5900670064
  0
LINE
  5
2A0
100
AcDbEntity
  8
ASSI
100
AcDbLine
 62
253
  6
CONTINUOUS
 10
6.4800195499
 20
-19.5900670064
 11
4.5339434386
 21
-19.5900670064
  0
LINE
  5
2A1
100
AcDbEntity
  8
RACCORDO
100
AcDbLine
 62
253
  6
CONTINUOUS
 10
6.4800195499
 20
-19.5900670064
 11
4.5339434386
 21
-19.5900670064
  0
LINE
  5
2A2
100
AcDbEntity
  8
ASSI
100
AcDbLine
 62
253
  6
CONTINUOUS
 10
-4.5339434386
 20
-19.5900670064
 11
-6.4800195499
 21
-19.5900670064
  0
LINE
  5
2A3
100
AcDbEntity
  8
RACCORDO
100
AcDbLine
 62
253
  6
CONTINUOUS
 10
-4.5339434386
 20
-19.5900670064
 11
-6.4800195499
 21
-19.5900670064
  0
LINE
  5
2A4
100
AcDbEntity
  8
ASSI
100
AcDbLine
 62
253
  6
CONTINUOUS
 10
-7.3199804501
 20
-19.5900670064
 11
-9.6100360562
 21
-19.5900670064
  0
LINE
  5
2A5
100
AcDbEntity
  8
RACCORDO
100
AcDbLine
 62
253
  6
CONTINUOUS
 10
-7.3199804501
 20
-19.5900670064
 11
-9.6100360562
 21
-19.5900670064
  0
LINE
  5
2A6
100
AcDbEntity
  8
ASSI
100
AcDbLine
 62
7
  6
CONTINUOUS
 10
-9.5553984776
 20
-19.4260209733
 11
-7.3472971589
 21
-19.4260209733
  0
LINE
  5
2A7
100
AcDbEntity
  8
DRAFT
100
AcDbLine
 62
7
  6
CONTINUOUS
 10
-9.5553984776
 20
-19.4260209733
 11
-7.3472971589
 21
-19.4260209733
  0
LINE
  5
2A8
100
AcDbEntity
  8
ASSI
100
AcDbLine
 62
7
  6
CONTINUOUS
 10
-6.4527028411
 20
-19.4260209733
 11
-4.5612601473
 21
-19.4260209733
  0
LINE
  5
2A9
100
AcDbEntity
  8
DRAFT
100
AcDbLine
 62
7
  6
CONTINUOUS
 10
-6.4527028411
 20
-19.4260209733
 11
-4.5612601473
 21
-19.4260209733
  0
LINE
  5
2AA
100
AcDbEntity
  8
ASSI
100
AcDbLine
 62
7
  6
CONTINUOUS
 10
4.5612601473
 20
-19.4260209733
 11
6.4527028411
 21
-19.4260209733
  0
LINE
  5
2AB
100
AcDbEntity
  8
DRAFT
100
AcDbLine
 62
7
  6
CONTINUOUS
 10
4.5612601473
 20
-19.4260209733
 11
6.4527028411
 21
-19.4260209733
  0
LINE
  5
2AC
100
AcDbEntity
  8
ASSI
100
AcDbLine
 62
7
  6
CONTINUOUS
 10
7.3472971589
 20
-19.4260209733
 11
9.5553984776
 21
-19.4260209733
  0
LINE
  5
2AD
100
AcDbEntity
  8
DRAFT
100
AcDbLine
 62
7
  6
CONTINUOUS
 10
7.3472971589
 20
-19.4260209733
 11
9.5553984776
 21
-19.4260209733
  0
LINE
  5
2AE
100
AcDbEntity
  8
ASSI
100
AcDbLine
 62
7
  6
CONTINUOUS
 10
-1.0
 20
-22.4
 11
-1.0087268678
 21
-22.3947639644
  0
LINE
  5
2AF
100
AcDbEntity
  8
0
100
AcDbLine
 62
7
  6
CONTINUOUS
 10
-1.0
 20
-22.4
 11
-1.0087268678
 21
-22.3947639644
  0
LINE
  5
2B0
100
AcDbEntity
  8
ASSI
100
AcDbLine
 62
7
  6
CONTINUOUS
 10
-3.0
 20
21.7
 11
-3.0762444645
 21
21.6237555355
  0
LINE
  5
2B1
100
AcDbEntity
  8
0
100
AcDbLine
 62
7
  6
CONTINUOUS
 10
-3.0
 20
21.7
 11
-3.0762444645
 21
21.6237555355
  0
LINE
  5
2B2
100
AcDbEntity
  8
DRAFT
100
AcDbLine
 62
7
  6
CONTINUOUS
 10
-9.4522218454
 20
15.0977781546
 11
-9.55
 21
15.0
  0
LINE
  5
2B3
100
AcDbEntity
  8
ASSI
100
AcDbLine
 62
253
  6
CONTINUOUS
 10
4.5025952137
 20
-17.7956556053
 11
-4.5025952137
 21
-17.7956556053
  0
LINE
  5
2B4
100
AcDbEntity
  8
RACCORDO
100
AcDbLine
 62
253
  6
CONTINUOUS
 10
4.5025952137
 20
-17.7956556053
 11
-4.5025952137
 21
-17.7956556053
  0
LINE
  5
2B5
100
AcDbEntity
  8
ASSI
100
AcDbLine
 62
7
  6
CONTINUOUS
 10
4.2043367793
 20
-17.2956746438
 11
-4.2043367793
 21
-17.2956746438
  0
LINE
  5
2B6
100
AcDbEntity
  8
RACCORDO
100
AcDbLine
 62
7
  6
CONTINUOUS
 10
4.2043367793
 20
-17.2956746438
 11
-4.2043367793
 21
-17.2956746438
  0
LINE
  5
2B7
100
AcDbEntity
  8
ASSI
100
AcDbLine
 62
7
  6
CONTINUOUS
 10
4.2636178101
 20
-17.236393613
 11
-4.2636178101
 21
-17.236393613
  0
LINE
  5
2B8
100
AcDbEntity
  8
RACCORDO
100
AcDbLine
 62
7
  6
CONTINUOUS
 10
4.2636178101
 20
-17.236393613
 11
-4.2636178101
 21
-17.236393613
  0
LINE
  5
2B9
100
AcDbEntity
  8
ASSI
100
AcDbLine
 62
7
  6
CONTINUOUS
 10
-3.9700513793
 20
-16.8647171262
 11
3.9700513793
 21
-16.8647171262
  0
LINE
  5
2BA
100
AcDbEntity
  8
DRAFT
100
AcDbLine
 62
7
  6
CONTINUOUS
 10
-3.9700513793
 20
-16.8647171262
 11
3.9700513793
 21
-16.8647171262
  0
LINE
  5
2BB
100
AcDbEntity
  8
ASSI
100
AcDbLine
 62
7
  6
CONTINUOUS
 10
-8.0300456216
 20
-16.8602367608
 11
-9.5498994568
 21
-16.8602367608
  0
LINE
  5
2BC
100
AcDbEntity
  8
DRAFT
100
AcDbLine
 62
7
  6
CONTINUOUS
 10
-8.0300456216
 20
-16.8602367608
 11
-9.5498994568
 21
-16.8602367608
  0
LINE
  5
2BD
100
AcDbEntity
  8
ASSI
100
AcDbLine
 62
7
  6
CONTINUOUS
 10
8.0344917046
 20
-16.6548771492
 11
9.5494593275
 21
-16.6548771492
  0
LINE
  5
2BE
100
AcDbEntity
  8
DRAFT
100
AcDbLine
 62
7
  6
CONTINUOUS
 10
8.0344917046
 20
-16.6548771492
 11
9.5494593275
 21
-16.6548771492
  0
LINE
  5
2BF
100
AcDbEntity
  8
ASSI
100
AcDbLine
 62
7
  6
CONTINUOUS
 10
-3.7693983204
 20
-16.6228362517
 11
3.7693983204
 21
-16.6228362517
  0
LINE
  5
2C0
100
AcDbEntity
  8
DRAFT
100
AcDbLine
 62
7
  6
CONTINUOUS
 10
-3.7693983204
 20
-16.6228362517
 11
3.7693983204
 21
-16.6228362517
  0
LINE
  5
2C1
100
AcDbEntity
  8
ASSI
100
AcDbLine
 62
7
  6
CONTINUOUS
 10
-9.4820686967
 20
-16.6183558863
 11
-8.2306986805
 21
-16.6183558863
  0
LINE
  5
2C2
100
AcDbEntity
  8
DRAFT
100
AcDbLine
 62
7
  6
CONTINUOUS
 10
-9.4820686967
 20
-16.6183558863
 11
-8.2306986805
 21
-16.6183558863
  0
LINE
  5
2C3
100
AcDbEntity
  8
ASSI
100
AcDbLine
 62
7
  6
CONTINUOUS
 10
9.482508826
 20
-16.4129962748
 11
8.2351447635
 21
-16.4129962748
  0
LINE
  5
2C4
100
AcDbEntity
  8
DRAFT
100
AcDbLine
 62
7
  6
CONTINUOUS
 10
9.482508826
 20
-16.4129962748
 11
8.2351447635
 21
-16.4129962748
  0
LINE
  5
2C5
100
AcDbEntity
  8
ASSI
100
AcDbLine
 62
7
  6
CONTINUOUS
 10
-9.5121049871
 20
-16.4
 11
-9.5
 21
-16.4
  0
LINE
  5
2C6
100
AcDbEntity
  8
DRAFT
100
AcDbLine
 62
7
  6
CONTINUOUS
 10
-9.5121049871
 20
-16.4
 11
-9.5
 21
-16.4
  0
LINE
  5
2C7
100
AcDbEntity
  8
ASSI
100
AcDbLine
 62
7
  6
CONTINUOUS
 10
9.5121049871
 20
-16.2
 11
9.5
 21
-16.2
  0
LINE
  5
2C8
100
AcDbEntity
  8
DRAFT
100
AcDbLine
 62
7
  6
CONTINUOUS
 10
9.5121049871
 20
-16.2
 11
9.5
 21
-16.2
  0
LINE
  5
2C9
100
AcDbEntity
  8
ASSI
100
AcDbLine
 62
7
  6
CONTINUOUS
 10
-8.1206301735
 20
-15.9144125373
 11
-8.0504477322
 21
-15.9178860437
  0
LINE
  5
2CA
100
AcDbEntity
  8
DRAFT
100
AcDbLine
 62
7
  6
CONTINUOUS
 10
-8.1206301735
 20
-15.9144125373
 11
-8.0504477322
 21
-15.9178860437
  0
LINE
  5
2CB
100
AcDbEntity
  8
ASSI
100
AcDbLine
 62
7
  6
CONTINUOUS
 10
-3.0
 20
-21.7
 11
-3.0762444645
 21
-21.6237555355
  0
LINE
  5
2CC
100
AcDbEntity
  8
0
100
AcDbLine
 62
7
  6
CONTINUOUS
 10
-3.0
 20
-21.7
 11
-3.0762444645
 21
-21.6237555355
  0
LINE
  5
2CD
100
AcDbEntity
  8
ASSI
100
AcDbLine
 62
7
  6
CONTINUOUS
 10
-4.5322894108
 20
-20.0
 11
-4.5025952137
 21
-20.0296941971
  0
LINE
  5
2CE
100
AcDbEntity
  8
RACCORDO
100
AcDbLine
 62
7
  6
CONTINUOUS
 10
-4.5322894108
 20
-20.0
 11
-4.5025952137
 21
-20.0296941971
  0
LINE
  5
2CF
100
AcDbEntity
  8
ASSI
100
AcDbLine
 62
7
  6
CONTINUOUS
 10
-8.2306986805
 20
-16.6183558863
 11
-8.0300456216
 21
-16.8602367608
  0
LINE
  5
2D0
100
AcDbEntity
  8
DRAFT
100
AcDbLine
 62
7
  6
CONTINUOUS
 10
-8.2306986805
 20
-16.6183558863
 11
-8.0300456216
 21
-16.8602367608
  0
LINE
  5
2D1
100
AcDbEntity
  8
0
100
AcDbLine
 62
7
  6
CONTINUOUS
 10
-8.175
 20
13.2
 11
-7.475
 21
13.9
  0
LINE
  5
2D2
100
AcDbEntity
  8
ASSI
100
AcDbLine
 62
7
  6
CONTINUOUS
 10
8.2547430141
 20
-15.507774954
 11
8.4118365096
 21
-15.5
  0
LINE
  5
2D3
100
AcDbEntity
  8
DRAFT
100
AcDbLine
 62
7
  6
CONTINUOUS
 10
8.2547430141
 20
-15.507774954
 11
8.4118365096
 21
-15.5
  0
LINE
  5
2D4
100
AcDbEntity
  8
ASSI
100
AcDbLine
 62
7
  6
CONTINUOUS
 10
-3.7452569859
 20
-15.507774954
 11
-3.5881634904
 21
-15.5
  0
LINE
  5
2D5
100
AcDbEntity
  8
DRAFT
100
AcDbLine
 62
7
  6
CONTINUOUS
 10
-3.7452569859
 20
-15.507774954
 11
-3.5881634904
 21
-15.5
  0
LINE
  5
2D6
100
AcDbEntity
  8
ASSI
100
AcDbLine
 62
7
  6
CONTINUOUS
 10
-5.9821139563
 20
-15.9178860437
 11
-8.0504477322
 21
-15.9178860437
  0
LINE
  5
2D7
100
AcDbEntity
  8
DRAFT
100
AcDbLine
 62
7
  6
CONTINUOUS
 10
-5.9821139563
 20
-15.9178860437
 11
-8.0504477322
 21
-15.9178860437
  0
LINE
  5
2D8
100
AcDbEntity
  8
ASSI
100
AcDbLine
 62
7
  6
CONTINUOUS
 10
-8.1206301735
 20
-15.9144125373
 11
-5.9855874627
 21
-15.9144125373
  0
LINE
  5
2D9
100
AcDbEntity
  8
DRAFT
100
AcDbLine
 62
7
  6
CONTINUOUS
 10
-8.1206301735
 20
-15.9144125373
 11
-5.9855874627
 21
-15.9144125373
  0
LINE
  5
2DA
100
AcDbEntity
  8
RACCORDO
100
AcDbLine
 62
7
  6
CONTINUOUS
 10
9.15
 20
-15.507774954
 11
8.2547430141
 21
-15.507774954
  0
LINE
  5
2DB
100
AcDbEntity
  8
RACCORDO
100
AcDbLine
 62
7
  6
CONTINUOUS
 10
3.7452569859
 20
-15.507774954
 11
3.4
 21
-15.507774954
  0
LINE
  5
2DC
100
AcDbEntity
  8
RACCORDO
100
AcDbLine
 62
7
  6
CONTINUOUS
 10
-3.4
 20
-15.507774954
 11
-3.7452569859
 21
-15.507774954
  0
LINE
  5
2DD
100
AcDbEntity
  8
RACCORDO
100
AcDbLine
 62
7
  6
CONTINUOUS
 10
-8.2547430141
 20
-15.507774954
 11
-9.15
 21
-15.507774954
  0
LINE
  5
2DE
100
AcDbEntity
  8
ASSI
100
AcDbLine
 62
7
  6
CONTINUOUS
 10
-9.15
 20
-15.5026180603
 11
-9.5173415065
 21
-15.5026180603
  0
LINE
  5
2DF
100
AcDbEntity
  8
DRAFT
100
AcDbLine
 62
7
  6
CONTINUOUS
 10
-9.15
 20
-15.5026180603
 11
-9.5173415065
 21
-15.5026180603
  0
LINE
  5
2E0
100
AcDbEntity
  8
DRAFT
100
AcDbLine
 62
7
  6
CONTINUOUS
 10
11.1
 20
-15.5
 11
-11.1
 21
-15.5
  0
LINE
  5
2E1
100
AcDbEntity
  8
DRAFT
100
AcDbLine
 62
7
  6
CONTINUOUS
 10
-11.0668379024
 20
-15.4668379024
 11
11.0668379024
 21
-15.4668379024
  0
LINE
  5
2E2
100
AcDbEntity
  8
ASSI
100
AcDbLine
 62
7
  6
CONTINUOUS
 10
-8.2547430141
 20
-15.507774954
 11
-8.3589384154
 21
-15.5026180603
  0
LINE
  5
2E3
100
AcDbEntity
  8
DRAFT
100
AcDbLine
 62
7
  6
CONTINUOUS
 10
-8.2547430141
 20
-15.507774954
 11
-8.3589384154
 21
-15.5026180603
  0
LINE
  5
2E4
100
AcDbEntity
  8
ASSI
100
AcDbLine
 62
7
  6
CONTINUOUS
 10
3.7452569859
 20
-15.507774954
 11
3.5881634904
 21
-15.5
  0
LINE
  5
2E5
100
AcDbEntity
  8
DRAFT
100
AcDbLine
 62
7
  6
CONTINUOUS
 10
3.7452569859
 20
-15.507774954
 11
3.5881634904
 21
-15.5
  0
LINE
  5
2E6
100
AcDbEntity
  8
ASSI
100
AcDbLine
 62
253
  6
CONTINUOUS
 10
-4.563284597
 20
-17.5367039799
 11
-4.5043253562
 21
-17.5956632207
  0
LINE
  5
2E7
100
AcDbEntity
  8
RACCORDO
100
AcDbLine
 62
253
  6
CONTINUOUS
 10
-4.563284597
 20
-17.5367039799
 11
-4.5043253562
 21
-17.5956632207
  0
LINE
  5
2E8
100
AcDbEntity
  8
DRAFT
100
AcDbLine
 62
7
  6
CONTINUOUS
 10
-9.9
 20
-12.0
 11
-9.8851643248
 21
-12.0148356752
  0
LINE
  5
2E9
100
AcDbEntity
  8
ASSI
100
AcDbLine
 62
7
  6
CONTINUOUS
 10
-5.9855874627
 20
-15.9144125373
 11
-5.9821139563
 21
-15.9178860437
  0
LINE
  5
2EA
100
AcDbEntity
  8
DRAFT
100
AcDbLine
 62
7
  6
CONTINUOUS
 10
-5.9855874627
 20
-15.9144125373
 11
-5.9821139563
 21
-15.9178860437
  0
LINE
  5
2EB
100
AcDbEntity
  8
ASSI
100
AcDbLine
 62
253
  6
CONTINUOUS
 10
-4.2636178101
 20
-17.236393613
 11
-4.2043367793
 21
-17.2956746438
  0
LINE
  5
2EC
100
AcDbEntity
  8
RACCORDO
100
AcDbLine
 62
253
  6
CONTINUOUS
 10
-4.2636178101
 20
-17.236393613
 11
-4.2043367793
 21
-17.2956746438
  0
LINE
  5
2ED
100
AcDbEntity
  8
DRAFT
100
AcDbLine
 62
7
  6
CONTINUOUS
 10
-9.5831620976
 20
14.8673010759
 11
-9.55
 21
15.0
  0
LINE
  5
2EE
100
AcDbEntity
  8
ASSI
100
AcDbLine
 62
7
  6
CONTINUOUS
 10
4.4063493531
 20
23.9563493531
 11
4.45
 21
24.0
  0
LINE
  5
2EF
100
AcDbEntity
  8
0
100
AcDbLine
 62
7
  6
CONTINUOUS
 10
4.4063493531
 20
23.9563493531
 11
4.45
 21
24.0
  0
LINE
  5
2F0
100
AcDbEntity
  8
ASSI
100
AcDbLine
 62
7
  6
CONTINUOUS
 10
4.45
 20
22.4
 11
4.406077753
 21
22.356077753
  0
LINE
  5
2F1
100
AcDbEntity
  8
0
100
AcDbLine
 62
7
  6
CONTINUOUS
 10
4.45
 20
22.4
 11
4.406077753
 21
22.356077753
  0
LINE
  5
2F2
100
AcDbEntity
  8
DRAFT
100
AcDbLine
 62
7
  6
CONTINUOUS
 10
7.8663292467
 20
19.0
 11
7.8
 21
18.9668379024
  0
LINE
  5
2F3
100
AcDbEntity
  8
DRAFT
100
AcDbLine
 62
7
  6
CONTINUOUS
 10
-5.484398003
 20
-13.866415146
 11
-5.2897915295
 21
-13.8502568536
  0
LINE
  5
2F4
100
AcDbEntity
  8
DRAFT
100
AcDbLine
 62
7
  6
CONTINUOUS
 10
9.9
 20
-13.9331620976
 11
-9.9
 21
-13.9331620976
  0
LINE
  5
2F5
100
AcDbEntity
  8
DRAFT
100
AcDbLine
 62
7
  6
CONTINUOUS
 10
-9.8851643248
 20
-13.9183264224
 11
-7.2183264224
 21
-13.9183264224
  0
LINE
  5
2F6
100
AcDbEntity
  8
DRAFT
100
AcDbLine
 62
7
  6
CONTINUOUS
 10
7.2183264224
 20
-13.9183264224
 11
9.8851643248
 21
-13.9183264224
  0
LINE
  5
2F7
100
AcDbEntity
  8
DRAFT
100
AcDbLine
 62
7
  6
CONTINUOUS
 10
-7.1755647702
 20
-13.8755647702
 11
-5.5
 21
-13.8755647702
  0
LINE
  5
2F8
100
AcDbEntity
  8
DRAFT
100
AcDbLine
 62
7
  6
CONTINUOUS
 10
-5.2897915295
 20
-13.8502568536
 11
7.1502568536
 21
-13.8502568536
  0
LINE
  5
2F9
100
AcDbEntity
  8
RACCORDO
100
AcDbLine
 62
7
  6
CONTINUOUS
 10
3.1
 20
-13.8204464962
 11
-3.1
 21
-13.8204464962
  0
LINE
  5
2FA
100
AcDbEntity
  8
ASSI
100
AcDbLine
 62
7
  6
CONTINUOUS
 10
-5.4842904416
 20
-13.7
 11
7.1502568536
 21
-13.7
  0
LINE
  5
2FB
100
AcDbEntity
  8
DRAFT
100
AcDbLine
 62
7
  6
CONTINUOUS
 10
-5.4842904416
 20
-13.7
 11
7.1502568536
 21
-13.7
  0
LINE
  5
2FC
100
AcDbEntity
  8
ASSI
100
AcDbLine
 62
7
  6
CONTINUOUS
 10
-9.606485188
 20
-10.321755749
 11
-9.65
 21
-10.3
  0
LINE
  5
2FD
100
AcDbEntity
  8
DRAFT
100
AcDbLine
 62
7
  6
CONTINUOUS
 10
-9.606485188
 20
-10.321755749
 11
-9.65
 21
-10.3
  0
LINE
  5
2FE
100
AcDbEntity
  8
ASSI
100
AcDbLine
 62
7
  6
CONTINUOUS
 10
4.45
 20
-24.0
 11
4.4063493531
 21
-23.9563493531
  0
LINE
  5
2FF
100
AcDbEntity
  8
0
100
AcDbLine
 62
7
  6
CONTINUOUS
 10
4.45
 20
-24.0
 11
4.4063493531
 21
-23.9563493531
  0
LINE
  5
300
100
AcDbEntity
  8
DRAFT
100
AcDbLine
 62
7
  6
CONTINUOUS
 10
-7.2331620976
 20
-12.0
 11
-7.2183264224
 21
-12.0148356752
  0
LINE
  5
301
100
AcDbEntity
  8
ASSI
100
AcDbLine
 62
7
  6
CONTINUOUS
 10
-8.7781811688
 20
-10.3218188312
 11
-8.7867049498
 21
-10.3132950502
  0
LINE
  5
302
100
AcDbEntity
  8
DRAFT
100
AcDbLine
 62
7
  6
CONTINUOUS
 10
-8.7781811688
 20
-10.3218188312
 11
-8.7867049498
 21
-10.3132950502
  0
LINE
  5
303
100
AcDbEntity
  8
ASSI
100
AcDbLine
 62
7
  6
CONTINUOUS
 10
4.45
 20
-22.4
 11
4.406077753
 21
-22.356077753
  0
LINE
  5
304
100
AcDbEntity
  8
0
100
AcDbLine
 62
7
  6
CONTINUOUS
 10
4.45
 20
-22.4
 11
4.406077753
 21
-22.356077753
  0
LINE
  5
305
100
AcDbEntity
  8
DRAFT
100
AcDbLine
 62
7
  6
CONTINUOUS
 10
-7.1755647702
 20
-10.5575973274
 11
-7.2244352298
 21
-10.5087268678
  0
LINE
  5
306
100
AcDbEntity
  8
DRAFT
100
AcDbLine
 62
7
  6
CONTINUOUS
 10
-11.0668379024
 20
-10.7304770786
 11
-11.1
 21
-10.5977781546
  0
LINE
  5
307
100
AcDbEntity
  8
ASSI
100
AcDbLine
 62
7
  6
CONTINUOUS
 10
-9.5
 20
-16.4
 11
-9.4820686967
 21
-16.6183558863
  0
LINE
  5
308
100
AcDbEntity
  8
DRAFT
100
AcDbLine
 62
7
  6
CONTINUOUS
 10
-9.5
 20
-16.4
 11
-9.4820686967
 21
-16.6183558863
  0
LINE
  5
309
100
AcDbEntity
  8
ASSI
100
AcDbLine
 62
7
  6
CONTINUOUS
 10
-11.1674550649
 20
-21.0226497308
 11
-11.15
 21
-21.6
  0
LINE
  5
30A
100
AcDbEntity
  8
0
100
AcDbLine
 62
7
  6
CONTINUOUS
 10
-11.1674550649
 20
-21.0226497308
 11
-11.15
 21
-21.6
  0
LINE
  5
30B
100
AcDbEntity
  8
ASSI
100
AcDbLine
 62
7
  6
CONTINUOUS
 10
-11.1674550649
 20
21.0226497308
 11
-11.1674550649
 21
-21.0226497308
  0
LINE
  5
30C
100
AcDbEntity
  8
0
100
AcDbLine
 62
7
  6
CONTINUOUS
 10
-11.1674550649
 20
21.0226497308
 11
-11.1674550649
 21
-21.0226497308
  0
LINE
  5
30D
100
AcDbEntity
  8
ASSI
100
AcDbLine
 62
7
  6
CONTINUOUS
 10
-11.15
 20
21.900016923
 11
-11.15
 21
21.6
  0
LINE
  5
30E
100
AcDbEntity
  8
0
100
AcDbLine
 62
7
  6
CONTINUOUS
 10
-11.15
 20
21.900016923
 11
-11.15
 21
21.6
  0
LINE
  5
30F
100
AcDbEntity
  8
ASSI
100
AcDbLine
 62
7
  6
CONTINUOUS
 10
-11.15
 20
-21.900016923
 11
-11.15
 21
-21.6
  0
LINE
  5
310
100
AcDbEntity
  8
0
100
AcDbLine
 62
7
  6
CONTINUOUS
 10
-11.15
 20
-21.900016923
 11
-11.15
 21
-21.6
  0
LINE
  5
311
100
AcDbEntity
  8
ASSI
100
AcDbLine
 62
7
  6
CONTINUOUS
 10
-11.1412731322
 20
21.8941990932
 11
-11.1412731322
 21
21.0226497308
  0
LINE
  5
312
100
AcDbEntity
  8
0
100
AcDbLine
 62
7
  6
CONTINUOUS
 10
-11.1412731322
 20
21.8941990932
 11
-11.1412731322
 21
21.0226497308
  0
LINE
  5
313
100
AcDbEntity
  8
ASSI
100
AcDbLine
 62
7
  6
CONTINUOUS
 10
-11.1412731322
 20
-21.0226497308
 11
-11.1412731322
 21
-21.8941990932
  0
LINE
  5
314
100
AcDbEntity
  8
0
100
AcDbLine
 62
7
  6
CONTINUOUS
 10
-11.1412731322
 20
-21.0226497308
 11
-11.1412731322
 21
-21.8941990932
  0
LINE
  5
315
100
AcDbEntity
  8
DRAFT
100
AcDbLine
 62
7
  6
CONTINUOUS
 10
-11.1
 20
-15.5
 11
-11.1
 21
-10.5977781546
  0
LINE
  5
316
100
AcDbEntity
  8
DRAFT
100
AcDbLine
 62
7
  6
CONTINUOUS
 10
-11.1
 20
-8.1
 11
-11.1
 21
19.0
  0
LINE
  5
317
100
AcDbEntity
  8
DRAFT
100
AcDbLine
 62
7
  6
CONTINUOUS
 10
-11.0668379024
 20
-15.4668379024
 11
-11.0668379024
 21
-10.7304770786
  0
LINE
  5
318
100
AcDbEntity
  8
DRAFT
100
AcDbLine
 62
7
  6
CONTINUOUS
 10
-11.0668379024
 20
-7.9673010759
 11
-11.0668379024
 21
18.9668379024
  0
LINE
  5
319
100
AcDbEntity
  8
ASSI
100
AcDbLine
 62
7
  6
CONTINUOUS
 10
-11.15
 20
21.6
 11
-11.1674550649
 21
21.0226497308
  0
LINE
  5
31A
100
AcDbEntity
  8
0
100
AcDbLine
 62
7
  6
CONTINUOUS
 10
-11.15
 20
21.6
 11
-11.1674550649
 21
21.0226497308
  0
LINE
  5
31B
100
AcDbEntity
  8
Z030100_COP
100
AcDbLine
 62
7
  6
CONTINUOUS
 10
-8.75
 20
8.4
 11
-8.175
 21
10.125
  0
LINE
  5
31C
100
AcDbEntity
  8
ASSI
100
AcDbLine
 62
7
  6
CONTINUOUS
 10
7.1905416262
 20
22.3359700255
 11
7.2558178298
 21
22.3941821702
  0
LINE
  5
31D
100
AcDbEntity
  8
0
100
AcDbLine
 62
7
  6
CONTINUOUS
 10
7.1905416262
 20
22.3359700255
 11
7.2558178298
 21
22.3941821702
  0
LINE
  5
31E
100
AcDbEntity
  8
0
100
AcDbLine
 62
253
  6
CONTINUOUS
 10
11.15
 20
21.900016923
 11
11.1412731322
 21
21.8941990932
  0
LINE
  5
31F
100
AcDbEntity
  8
DRAFT
100
AcDbLine
 62
7
  6
CONTINUOUS
 10
9.8851643248
 20
-12.0148356752
 11
7.2183264224
 21
-12.0148356752
  0
LINE
  5
320
100
AcDbEntity
  8
DRAFT
100
AcDbLine
 62
7
  6
CONTINUOUS
 10
-7.2183264224
 20
-12.0148356752
 11
-9.8851643248
 21
-12.0148356752
  0
LINE
  5
321
100
AcDbEntity
  8
DRAFT
100
AcDbLine
 62
7
  6
CONTINUOUS
 10
9.9
 20
-12.0
 11
7.2331620976
 21
-12.0
  0
LINE
  5
322
100
AcDbEntity
  8
DRAFT
100
AcDbLine
 62
7
  6
CONTINUOUS
 10
-7.2331620976
 20
-12.0
 11
-9.9
 21
-12.0
  0
LINE
  5
323
100
AcDbEntity
  8
DRAFT
100
AcDbLine
 62
7
  6
CONTINUOUS
 10
7.1502568536
 20
-11.4825462644
 11
-5.4493803117
 21
-11.4825462644
  0
LINE
  5
324
100
AcDbEntity
  8
DRAFT
100
AcDbLine
 62
7
  6
CONTINUOUS
 10
-5.4493803117
 20
-10.9
 11
7.1502568536
 21
-10.9
  0
LINE
  5
325
100
AcDbEntity
  8
DRAFT
100
AcDbLine
 62
7
  6
CONTINUOUS
 10
-11.0668379024
 20
-10.7304770786
 11
-8.3
 21
-10.7304770786
  0
LINE
  5
326
100
AcDbEntity
  8
DRAFT
100
AcDbLine
 62
7
  6
CONTINUOUS
 10
11.0668379024
 20
-10.7304770786
 11
8.3
 21
-10.7304770786
  0
LINE
  5
327
100
AcDbEntity
  8
DRAFT
100
AcDbLine
 62
7
  6
CONTINUOUS
 10
-5.4922187874
 20
-10.5614876374
 11
-5.5
 21
-10.5575973274
  0
LINE
  5
328
100
AcDbEntity
  8
0
100
AcDbLine
 62
253
  6
CONTINUOUS
 10
11.1412731322
 20
-21.8941990932
 11
11.15
 21
-21.900016923
  0
LINE
  5
329
100
AcDbEntity
  8
ASSI
100
AcDbLine
 62
7
  6
CONTINUOUS
 10
7.1905416262
 20
-22.3359700255
 11
7.2558178298
 21
-22.3941821702
  0
LINE
  5
32A
100
AcDbEntity
  8
0
100
AcDbLine
 62
7
  6
CONTINUOUS
 10
7.1905416262
 20
-22.3359700255
 11
7.2558178298
 21
-22.3941821702
  0
LINE
  5
32B
100
AcDbEntity
  8
DRAFT
100
AcDbLine
 62
7
  6
CONTINUOUS
 10
-9.4522218454
 20
-8.1977781546
 11
-9.55
 21
-8.1
  0
LINE
  5
32C
100
AcDbEntity
  8
DRAFT
100
AcDbLine
 62
7
  6
CONTINUOUS
 10
-7.2331620976
 20
-9.5
 11
-7.2244352298
 21
-9.5087268678
  0
LINE
  5
32D
100
AcDbEntity
  8
ASSI
100
AcDbLine
 62
7
  6
CONTINUOUS
 10
-8.1417809859
 20
-15.5
 11
-8.1206301735
 21
-15.9144125373
  0
LINE
  5
32E
100
AcDbEntity
  8
RACCORDO
100
AcDbLine
 62
7
  6
CONTINUOUS
 10
-8.1417809859
 20
-15.5
 11
-8.1206301735
 21
-15.9144125373
  0
LINE
  5
32F
100
AcDbEntity
  8
ASSI
100
AcDbLine
 62
253
  6
CONTINUOUS
 10
-10.145628166
 20
-23.8443375673
 11
-10.15
 21
-23.4104851482
  0
LINE
  5
330
100
AcDbEntity
  8
0
100
AcDbLine
 62
253
  6
CONTINUOUS
 10
-10.145628166
 20
-23.8443375673
 11
-10.15
 21
-23.4104851482
  0
LINE
  5
331
100
AcDbEntity
  8
ASSI
100
AcDbLine
 62
253
  6
CONTINUOUS
 10
-9.8956323968
 20
-23.6278312164
 11
-9.9007229979
 21
-23.1226497308
  0
LINE
  5
332
100
AcDbEntity
  8
0
100
AcDbLine
 62
253
  6
CONTINUOUS
 10
-9.8956323968
 20
-23.6278312164
 11
-9.9007229979
 21
-23.1226497308
  0
LINE
  5
333
100
AcDbEntity
  8
0
100
AcDbLine
 62
7
  6
CONTINUOUS
 10
-10.15
 20
23.8443375673
 11
-10.15
 21
23.4104851482
  0
LINE
  5
334
100
AcDbEntity
  8
RACCORDO
100
AcDbLine
 62
7
  6
CONTINUOUS
 10
-10.15
 20
-23.4104851482
 11
-10.15
 21
-22.6002134903
  0
LINE
  5
335
100
AcDbEntity
  8
ASSI
100
AcDbLine
 62
7
  6
CONTINUOUS
 10
-10.15
 20
-22.6002134903
 11
-10.15
 21
-23.8443375673
  0
LINE
  5
336
100
AcDbEntity
  8
0
100
AcDbLine
 62
7
  6
CONTINUOUS
 10
-10.15
 20
-23.4104851482
 11
-10.15
 21
-23.8443375673
  0
LINE
  5
337
100
AcDbEntity
  8
ASSI
100
AcDbLine
 62
7
  6
CONTINUOUS
 10
-10.15
 20
22.6002134903
 11
-10.15
 21
23.8443375673
  0
LINE
  5
338
100
AcDbEntity
  8
RACCORDO
100
AcDbLine
 62
7
  6
CONTINUOUS
 10
-10.15
 20
22.6002134903
 11
-10.15
 21
23.4104851482
  0
LINE
  5
339
100
AcDbEntity
  8
ASSI
100
AcDbLine
 62
7
  6
CONTINUOUS
 10
-10.145628166
 20
24.2456323968
 11
-10.145628166
 21
23.8443375673
  0
LINE
  5
33A
100
AcDbEntity
  8
0
100
AcDbLine
 62
7
  6
CONTINUOUS
 10
-10.145628166
 20
24.2456323968
 11
-10.145628166
 21
23.8443375673
  0
LINE
  5
33B
100
AcDbEntity
  8
ASSI
100
AcDbLine
 62
7
  6
CONTINUOUS
 10
-10.145628166
 20
-23.8443375673
 11
-10.145628166
 21
-24.2456323968
  0
LINE
  5
33C
100
AcDbEntity
  8
0
100
AcDbLine
 62
7
  6
CONTINUOUS
 10
-10.145628166
 20
-23.8443375673
 11
-10.145628166
 21
-24.2456323968
  0
LINE
  5
33D
100
AcDbEntity
  8
DRAFT
100
AcDbLine
 62
7
  6
CONTINUOUS
 10
-9.9
 20
13.5
 11
-9.9
 21
-6.6
  0
LINE
  5
33E
100
AcDbEntity
  8
DRAFT
100
AcDbLine
 62
7
  6
CONTINUOUS
 10
-9.9
 20
-12.0
 11
-9.9
 21
-13.9331620976
  0
LINE
  5
33F
100
AcDbEntity
  8
ASSI
100
AcDbLine
 62
253
  6
CONTINUOUS
 10
-9.8956323968
 20
-23.6278312164
 11
-9.8956323968
 21
-24.495628166
  0
LINE
  5
340
100
AcDbEntity
  8
0
100
AcDbLine
 62
253
  6
CONTINUOUS
 10
-9.8956323968
 20
-23.6278312164
 11
-9.8956323968
 21
-24.495628166
  0
LINE
  5
341
100
AcDbEntity
  8
ASSI
100
AcDbLine
 62
253
  6
CONTINUOUS
 10
-9.8956323968
 20
23.6278312164
 11
-9.8956323968
 21
24.495628166
  0
LINE
  5
342
100
AcDbEntity
  8
0
100
AcDbLine
 62
253
  6
CONTINUOUS
 10
-9.8956323968
 20
23.6278312164
 11
-9.8956323968
 21
24.495628166
  0
LINE
  5
343
100
AcDbEntity
  8
DRAFT
100
AcDbLine
 62
7
  6
CONTINUOUS
 10
-9.8851643248
 20
13.4851643248
 11
-9.8851643248
 21
-6.5851643248
  0
LINE
  5
344
100
AcDbEntity
  8
DRAFT
100
AcDbLine
 62
7
  6
CONTINUOUS
 10
-9.8851643248
 20
-12.0148356752
 11
-9.8851643248
 21
-13.9183264224
  0
LINE
  5
345
100
AcDbEntity
  8
ASSI
100
AcDbLine
 62
7
  6
CONTINUOUS
 10
-9.65
 20
20.1990396502
 11
-9.65
 21
19.0
  0
LINE
  5
346
100
AcDbEntity
  8
DRAFT
100
AcDbLine
 62
7
  6
CONTINUOUS
 10
-9.65
 20
20.1990396502
 11
-9.65
 21
19.0
  0
LINE
  5
347
100
AcDbEntity
  8
ASSI
100
AcDbLine
 62
7
  6
CONTINUOUS
 10
-9.65
 20
-8.1
 11
-9.65
 21
-10.5977781546
  0
LINE
  5
348
100
AcDbEntity
  8
DRAFT
100
AcDbLine
 62
7
  6
CONTINUOUS
 10
-9.65
 20
-8.1
 11
-9.65
 21
-10.5977781546
  0
LINE
  5
349
100
AcDbEntity
  8
ASSI
100
AcDbLine
 62
7
  6
CONTINUOUS
 10
-9.65
 20
-15.5
 11
-9.65
 21
-20.1990396502
  0
LINE
  5
34A
100
AcDbEntity
  8
DRAFT
100
AcDbLine
 62
7
  6
CONTINUOUS
 10
-9.65
 20
-15.5
 11
-9.65
 21
-20.1990396502
  0
LINE
  5
34B
100
AcDbEntity
  8
ASSI
100
AcDbLine
 62
7
  6
CONTINUOUS
 10
-9.6133443637
 20
-20.0889833137
 11
-9.6133443637
 21
-19.7897929133
  0
LINE
  5
34C
100
AcDbEntity
  8
RACCORDO
100
AcDbLine
 62
7
  6
CONTINUOUS
 10
-9.6133443637
 20
-20.0889833137
 11
-9.6133443637
 21
-19.7897929133
  0
LINE
  5
34D
100
AcDbEntity
  8
DRAFT
100
AcDbLine
 62
7
  6
CONTINUOUS
 10
-9.5831620976
 20
14.8673010759
 11
-9.5831620976
 21
17.4331620976
  0
LINE
  5
34E
100
AcDbEntity
  8
DRAFT
100
AcDbLine
 62
7
  6
CONTINUOUS
 10
-9.55
 20
17.4
 11
-9.55
 21
15.0
  0
LINE
  5
34F
100
AcDbEntity
  8
ASSI
100
AcDbLine
 62
7
  6
CONTINUOUS
 10
-9.5121049871
 20
-8.1378950129
 11
-9.5121049871
 21
-8.4782370632
  0
LINE
  5
350
100
AcDbEntity
  8
SMUSSO
100
AcDbLine
 62
7
  6
CONTINUOUS
 10
-9.5121049871
 20
-8.1378950129
 11
-9.5121049871
 21
-8.4782370632
  0
LINE
  5
351
100
AcDbEntity
  8
ASSI
100
AcDbLine
 62
7
  6
CONTINUOUS
 10
-9.5121049871
 20
-10.3217629368
 11
-9.5121049871
 21
-10.5598831416
  0
LINE
  5
352
100
AcDbEntity
  8
SMUSSO
100
AcDbLine
 62
7
  6
CONTINUOUS
 10
-9.5121049871
 20
-10.3217629368
 11
-9.5121049871
 21
-10.5598831416
  0
LINE
  5
353
100
AcDbEntity
  8
ASSI
100
AcDbLine
 62
7
  6
CONTINUOUS
 10
-9.5121049871
 20
-15.5
 11
-9.5121049871
 21
-16.4
  0
LINE
  5
354
100
AcDbEntity
  8
DRAFT
100
AcDbLine
 62
7
  6
CONTINUOUS
 10
-9.5121049871
 20
-15.5
 11
-9.5121049871
 21
-16.4
  0
LINE
  5
355
100
AcDbEntity
  8
ASSI
100
AcDbLine
 62
7
  6
CONTINUOUS
 10
-9.5
 20
-16.4
 11
-9.5
 21
-15.9999428868
  0
LINE
  5
356
100
AcDbEntity
  8
RACCORDO
100
AcDbLine
 62
7
  6
CONTINUOUS
 10
-9.5
 20
-16.4
 11
-9.5
 21
-15.9999428868
  0
LINE
  5
357
100
AcDbEntity
  8
DRAFT
100
AcDbLine
 62
7
  6
CONTINUOUS
 10
-9.4522218454
 20
-10.5
 11
-9.4522218454
 21
-10.3217674974
  0
LINE
  5
358
100
AcDbEntity
  8
DRAFT
100
AcDbLine
 62
7
  6
CONTINUOUS
 10
-9.4522218454
 20
-8.4782325026
 11
-9.4522218454
 21
-8.1977781546
  0
LINE
  5
359
100
AcDbEntity
  8
DRAFT
100
AcDbLine
 62
7
  6
CONTINUOUS
 10
-9.4522218454
 20
15.0977781546
 11
-9.4522218454
 21
15.3782325026
  0
LINE
  5
35A
100
AcDbEntity
  8
DRAFT
100
AcDbLine
 62
7
  6
CONTINUOUS
 10
-9.4522218454
 20
17.2217674974
 11
-9.4522218454
 21
17.3755647702
  0
LINE
  5
35B
100
AcDbEntity
  8
RACCORDO
100
AcDbLine
 62
7
  6
CONTINUOUS
 10
-9.45
 20
-15.8055387995
 11
-9.45
 21
-16.6183558863
  0
LINE
  5
35C
100
AcDbEntity
  8
0
100
AcDbLine
 62
7
  6
CONTINUOUS
 10
-9.0
 20
12.0
 11
-9.0
 21
4.6
  0
LINE
  5
35D
100
AcDbEntity
  8
RACCORDO
100
AcDbLine
 62
7
  6
CONTINUOUS
 10
-9.0
 20
4.6
 11
-9.0
 21
-5.9
  0
LINE
  5
35E
100
AcDbEntity
  8
Z030100_COP
100
AcDbLine
 62
7
  6
CONTINUOUS
 10
-8.95
 20
15.3
 11
-8.95
 21
8.4
  0
LINE
  5
35F
100
AcDbEntity
  8
0
100
AcDbLine
 62
7
  6
CONTINUOUS
 10
-8.9
 20
4.7
 11
-8.9
 21
8.3
  0
LINE
  5
360
100
AcDbEntity
  8
ASSI
100
AcDbLine
 62
7
  6
CONTINUOUS
 10
-9.5498994568
 20
-16.8602367608
 11
-9.5553984776
 21
-19.4260209733
  0
LINE
  5
361
100
AcDbEntity
  8
DRAFT
100
AcDbLine
 62
7
  6
CONTINUOUS
 10
-9.5498994568
 20
-16.8602367608
 11
-9.5553984776
 21
-19.4260209733
  0
LINE
  5
362
100
AcDbEntity
  8
ASSI
100
AcDbLine
 62
253
  6
CONTINUOUS
 10
-10.15
 20
23.4104851482
 11
-10.145628166
 21
23.8443375673
  0
LINE
  5
363
100
AcDbEntity
  8
0
100
AcDbLine
 62
253
  6
CONTINUOUS
 10
-10.15
 20
23.4104851482
 11
-10.145628166
 21
23.8443375673
  0
LINE
  5
364
100
AcDbEntity
  8
ASSI
100
AcDbLine
 62
253
  6
CONTINUOUS
 10
-9.9007229979
 20
23.1226497308
 11
-9.8956323968
 21
23.6278312164
  0
LINE
  5
365
100
AcDbEntity
  8
0
100
AcDbLine
 62
253
  6
CONTINUOUS
 10
-9.9007229979
 20
23.1226497308
 11
-9.8956323968
 21
23.6278312164
  0
LINE
  5
366
100
AcDbEntity
  8
ASSI
100
AcDbLine
 62
253
  6
CONTINUOUS
 10
-7.3643094176
 20
18.5586556733
 11
-7.2040044543
 21
20.0049452141
  0
LINE
  5
367
100
AcDbEntity
  8
RACCORDO
100
AcDbLine
 62
253
  6
CONTINUOUS
 10
-7.3643094176
 20
18.5586556733
 11
-7.2040044543
 21
20.0049452141
  0
LINE
  5
368
100
AcDbEntity
  8
ASSI
100
AcDbLine
 62
7
  6
CONTINUOUS
 10
-7.3555468846
 20
20.5664222561
 11
-7.3
 21
20.9
  0
LINE
  5
369
100
AcDbEntity
  8
RACCORDO
100
AcDbLine
 62
7
  6
CONTINUOUS
 10
-7.3555468846
 20
20.5664222561
 11
-7.3
 21
20.9
  0
LINE
  5
36A
100
AcDbEntity
  8
ASSI
100
AcDbLine
 62
7
  6
CONTINUOUS
 10
6.4440923953
 20
19.9624188177
 11
6.5959955457
 21
20.1143219681
  0
LINE
  5
36B
100
AcDbEntity
  8
RACCORDO
100
AcDbLine
 62
7
  6
CONTINUOUS
 10
6.4440923953
 20
19.9624188177
 11
6.5959955457
 21
20.1143219681
  0
LINE
  5
36C
100
AcDbEntity
  8
ASSI
100
AcDbLine
 62
7
  6
CONTINUOUS
 10
9.65
 20
-10.3
 11
8.7867049498
 21
-10.3132950502
  0
LINE
  5
36D
100
AcDbEntity
  8
DRAFT
100
AcDbLine
 62
7
  6
CONTINUOUS
 10
9.65
 20
-10.3
 11
8.7867049498
 21
-10.3132950502
  0
LINE
  5
36E
100
AcDbEntity
  8
DRAFT
100
AcDbLine
 62
7
  6
CONTINUOUS
 10
11.1
 20
-10.5977781546
 11
9.55
 21
-10.5977781546
  0
LINE
  5
36F
100
AcDbEntity
  8
DRAFT
100
AcDbLine
 62
7
  6
CONTINUOUS
 10
-9.55
 20
-10.5977781546
 11
-11.1
 21
-10.5977781546
  0
LINE
  5
370
100
AcDbEntity
  8
DRAFT
100
AcDbLine
 62
7
  6
CONTINUOUS
 10
-5.4922187874
 20
-10.5614876374
 11
7.1716744602
 21
-10.5614876374
  0
LINE
  5
371
100
AcDbEntity
  8
DRAFT
100
AcDbLine
 62
7
  6
CONTINUOUS
 10
-5.5
 20
-10.5575973274
 11
-7.1755647702
 21
-10.5575973274
  0
LINE
  5
372
100
AcDbEntity
  8
DRAFT
100
AcDbLine
 62
7
  6
CONTINUOUS
 10
-7.2244352298
 20
-10.5087268678
 11
7.2244352298
 21
-10.5087268678
  0
LINE
  5
373
100
AcDbEntity
  8
DRAFT
100
AcDbLine
 62
7
  6
CONTINUOUS
 10
-9.4522218454
 20
-10.5
 11
-8.3575973274
 21
-10.5
  0
LINE
  5
374
100
AcDbEntity
  8
DRAFT
100
AcDbLine
 62
7
  6
CONTINUOUS
 10
8.3575973274
 20
-10.5
 11
9.4522218454
 21
-10.5
  0
LINE
  5
375
100
AcDbEntity
  8
DRAFT
100
AcDbLine
 62
7
  6
CONTINUOUS
 10
8.778184492
 20
-9.9
 11
8.3575973274
 21
-9.9
  0
LINE
  5
376
100
AcDbEntity
  8
DRAFT
100
AcDbLine
 62
7
  6
CONTINUOUS
 10
-8.3575973274
 20
-9.9
 11
-8.7781811688
 21
-9.9
  0
LINE
  5
377
100
AcDbEntity
  8
DRAFT
100
AcDbLine
 62
7
  6
CONTINUOUS
 10
7.2244352298
 20
-9.5087268678
 11
-7.2244352298
 21
-9.5087268678
  0
LINE
  5
378
100
AcDbEntity
  8
DRAFT
100
AcDbLine
 62
7
  6
CONTINUOUS
 10
7.2331620976
 20
-9.5
 11
-7.2331620976
 21
-9.5
  0
LINE
  5
379
100
AcDbEntity
  8
ASSI
100
AcDbLine
 62
7
  6
CONTINUOUS
 10
-9.606485188
 20
-10.321755749
 11
-8.7781811688
 21
-10.3218188312
  0
LINE
  5
37A
100
AcDbEntity
  8
DRAFT
100
AcDbLine
 62
7
  6
CONTINUOUS
 10
-9.606485188
 20
-10.321755749
 11
-8.7781811688
 21
-10.3218188312
  0
LINE
  5
37B
100
AcDbEntity
  8
ASSI
100
AcDbLine
 62
7
  6
CONTINUOUS
 10
8.778184492
 20
-10.321815508
 11
9.6062395248
 21
-10.3218785712
  0
LINE
  5
37C
100
AcDbEntity
  8
DRAFT
100
AcDbLine
 62
7
  6
CONTINUOUS
 10
8.778184492
 20
-10.321815508
 11
9.6062395248
 21
-10.3218785712
  0
LINE
  5
37D
100
AcDbEntity
  8
ASSI
100
AcDbLine
 62
7
  6
CONTINUOUS
 10
-8.7867049498
 20
-10.3132950502
 11
-9.65
 21
-10.3
  0
LINE
  5
37E
100
AcDbEntity
  8
DRAFT
100
AcDbLine
 62
7
  6
CONTINUOUS
 10
-8.7867049498
 20
-10.3132950502
 11
-9.65
 21
-10.3
  0
LINE
  5
37F
100
AcDbEntity
  8
ASSI
100
AcDbLine
 62
7
  6
CONTINUOUS
 10
6.4816735776
 20
-20.0
 11
6.5959955457
 21
-20.1143219681
  0
LINE
  5
380
100
AcDbEntity
  8
DRAFT
100
AcDbLine
 62
7
  6
CONTINUOUS
 10
6.4816735776
 20
-20.0
 11
6.5959955457
 21
-20.1143219681
  0
LINE
  5
381
100
AcDbEntity
  8
DRAFT
100
AcDbLine
 62
7
  6
CONTINUOUS
 10
-8.3575973274
 20
-10.5
 11
-8.3
 21
-10.7304770786
  0
LINE
  5
382
100
AcDbEntity
  8
ASSI
100
AcDbLine
 62
7
  6
CONTINUOUS
 10
-7.3
 20
-20.9
 11
-7.3183264224
 21
-20.7899436635
  0
LINE
  5
383
100
AcDbEntity
  8
DRAFT
100
AcDbLine
 62
7
  6
CONTINUOUS
 10
-7.3
 20
-20.9
 11
-7.3183264224
 21
-20.7899436635
  0
LINE
  5
384
100
AcDbEntity
  8
ASSI
100
AcDbLine
 62
7
  6
CONTINUOUS
 10
-7.3472971589
 20
-19.4260209733
 11
-7.3199804501
 21
-19.5900670064
  0
LINE
  5
385
100
AcDbEntity
  8
RACCORDO
100
AcDbLine
 62
7
  6
CONTINUOUS
 10
-7.3472971589
 20
-19.4260209733
 11
-7.3199804501
 21
-19.5900670064
  0
LINE
  5
386
100
AcDbEntity
  8
ASSI
100
AcDbLine
 62
253
  6
CONTINUOUS
 10
-7.2040044543
 20
-20.0049452141
 11
-7.3480695647
 21
-18.7051734659
  0
LINE
  5
387
100
AcDbEntity
  8
RACCORDO
100
AcDbLine
 62
253
  6
CONTINUOUS
 10
-7.2040044543
 20
-20.0049452141
 11
-7.3480695647
 21
-18.7051734659
  0
LINE
  5
388
100
AcDbEntity
  8
ASSI
100
AcDbLine
 62
7
  6
CONTINUOUS
 10
-8.2306986805
 20
-16.6183558863
 11
-8.2547430141
 21
-15.507774954
  0
LINE
  5
389
100
AcDbEntity
  8
DRAFT
100
AcDbLine
 62
7
  6
CONTINUOUS
 10
-8.2306986805
 20
-16.6183558863
 11
-8.2547430141
 21
-15.507774954
  0
LINE
  5
38A
100
AcDbEntity
  8
ASSI
100
AcDbLine
 62
7
  6
CONTINUOUS
 10
-8.0504477322
 20
-15.9178860437
 11
-8.0300456216
 21
-16.8602367608
  0
LINE
  5
38B
100
AcDbEntity
  8
DRAFT
100
AcDbLine
 62
7
  6
CONTINUOUS
 10
-8.0504477322
 20
-15.9178860437
 11
-8.0300456216
 21
-16.8602367608
  0
LINE
  5
38C
100
AcDbEntity
  8
ASSI
100
AcDbLine
 62
253
  6
CONTINUOUS
 10
-7.5043676032
 20
23.6278312164
 11
-7.4992770021
 21
23.1226497308
  0
LINE
  5
38D
100
AcDbEntity
  8
0
100
AcDbLine
 62
253
  6
CONTINUOUS
 10
-7.5043676032
 20
23.6278312164
 11
-7.4992770021
 21
23.1226497308
  0
LINE
  5
38E
100
AcDbEntity
  8
ASSI
100
AcDbLine
 62
7
  6
CONTINUOUS
 10
-7.3472971589
 20
-19.4260209733
 11
-7.3480695647
 21
-18.7051734659
  0
LINE
  5
38F
100
AcDbEntity
  8
RACCORDO
100
AcDbLine
 62
7
  6
CONTINUOUS
 10
-7.3472971589
 20
-19.4260209733
 11
-7.3480695647
 21
-18.7051734659
  0
LINE
  5
390
100
AcDbEntity
  8
ASSI
100
AcDbLine
 62
7
  6
CONTINUOUS
 10
-8.7867049498
 20
17.2132950502
 11
-8.7867049498
 21
15.5667285862
  0
LINE
  5
391
100
AcDbEntity
  8
DRAFT
100
AcDbLine
 62
7
  6
CONTINUOUS
 10
-8.7867049498
 20
17.2132950502
 11
-8.7867049498
 21
15.5667285862
  0
LINE
  5
392
100
AcDbEntity
  8
ASSI
100
AcDbLine
 62
7
  6
CONTINUOUS
 10
-8.7867049498
 20
-8.4867049498
 11
-8.7867049498
 21
-10.3132950502
  0
LINE
  5
393
100
AcDbEntity
  8
DRAFT
100
AcDbLine
 62
7
  6
CONTINUOUS
 10
-8.7867049498
 20
-8.4867049498
 11
-8.7867049498
 21
-10.3132950502
  0
LINE
  5
394
100
AcDbEntity
  8
ASSI
100
AcDbLine
 62
7
  6
CONTINUOUS
 10
-8.7781811688
 20
17.2218188312
 11
-8.7781811688
 21
15.5711657857
  0
LINE
  5
395
100
AcDbEntity
  8
DRAFT
100
AcDbLine
 62
7
  6
CONTINUOUS
 10
-8.7781811688
 20
17.2218188312
 11
-8.7781811688
 21
15.5711657857
  0
LINE
  5
396
100
AcDbEntity
  8
ASSI
100
AcDbLine
 62
7
  6
CONTINUOUS
 10
-8.7781811688
 20
-8.4781811688
 11
-8.7781811688
 21
-10.3218188312
  0
LINE
  5
397
100
AcDbEntity
  8
DRAFT
100
AcDbLine
 62
7
  6
CONTINUOUS
 10
-8.7781811688
 20
-8.4781811688
 11
-8.7781811688
 21
-10.3218188312
  0
LINE
  5
398
100
AcDbEntity
  8
Z030100_COP
100
AcDbLine
 62
253
  6
CONTINUOUS
 10
-8.65
 20
15.6
 11
-8.65
 21
8.7
  0
LINE
  5
399
100
AcDbEntity
  8
DRAFT
100
AcDbLine
 62
7
  6
CONTINUOUS
 10
-8.3575973274
 20
-10.5
 11
-8.3575973274
 21
-9.9
  0
LINE
  5
39A
100
AcDbEntity
  8
DRAFT
100
AcDbLine
 62
7
  6
CONTINUOUS
 10
-8.3575973274
 20
-8.7
 11
-8.3575973274
 21
-8.1977781546
  0
LINE
  5
39B
100
AcDbEntity
  8
DRAFT
100
AcDbLine
 62
7
  6
CONTINUOUS
 10
-8.3
 20
-7.9673010759
 11
-8.3
 21
-10.7304770786
  0
LINE
  5
39C
100
AcDbEntity
  8
ASSI
100
AcDbLine
 62
7
  6
CONTINUOUS
 10
-8.25
 20
-21.4
 11
-8.25
 21
-20.9
  0
LINE
  5
39D
100
AcDbEntity
  8
0
100
AcDbLine
 62
7
  6
CONTINUOUS
 10
-8.25
 20
-21.4
 11
-8.25
 21
-20.9
  0
LINE
  5
39E
100
AcDbEntity
  8
ASSI
100
AcDbLine
 62
7
  6
CONTINUOUS
 10
-8.25
 20
20.9
 11
-8.25
 21
21.4
  0
LINE
  5
39F
100
AcDbEntity
  8
0
100
AcDbLine
 62
7
  6
CONTINUOUS
 10
-8.25
 20
20.9
 11
-8.25
 21
21.4
  0
LINE
  5
3A0
100
AcDbEntity
  8
RACCORDO
100
AcDbLine
 62
253
  6
CONTINUOUS
 10
-8.2
 20
4.6
 11
-8.2
 21
-5.9
  0
LINE
  5
3A1
100
AcDbEntity
  8
0
100
AcDbLine
 62
7
  6
CONTINUOUS
 10
-8.175
 20
8.3
 11
-8.175
 21
13.2
  0
LINE
  5
3A2
100
AcDbEntity
  8
Z030100_COP
100
AcDbLine
 62
7
  6
CONTINUOUS
 10
-8.15
 20
13.225
 11
-8.15
 21
14.1
  0
LINE
  5
3A3
100
AcDbEntity
  8
ASSI
100
AcDbLine
 62
253
  6
CONTINUOUS
 10
-8.0665695018
 20
21.4537354271
 11
-8.0665695018
 21
20.9917082642
  0
LINE
  5
3A4
100
AcDbEntity
  8
0
100
AcDbLine
 62
253
  6
CONTINUOUS
 10
-8.0665695018
 20
21.4537354271
 11
-8.0665695018
 21
20.9917082642
  0
LINE
  5
3A5
100
AcDbEntity
  8
ASSI
100
AcDbLine
 62
253
  6
CONTINUOUS
 10
-8.0665695018
 20
-20.9917082642
 11
-8.0665695018
 21
-21.4537354271
  0
LINE
  5
3A6
100
AcDbEntity
  8
0
100
AcDbLine
 62
253
  6
CONTINUOUS
 10
-8.0665695018
 20
-20.9917082642
 11
-8.0665695018
 21
-21.4537354271
  0
LINE
  5
3A7
100
AcDbEntity
  8
DRAFT
100
AcDbLine
 62
7
  6
CONTINUOUS
 10
-7.9152034285
 20
17.3755647702
 11
-7.9152034285
 21
16.8
  0
LINE
  5
3A8
100
AcDbEntity
  8
DRAFT
100
AcDbLine
 62
7
  6
CONTINUOUS
 10
-7.8
 20
18.9668379024
 11
-7.8
 21
17.4331620976
  0
LINE
  5
3A9
100
AcDbEntity
  8
RACCORDO
100
AcDbLine
 62
253
  6
CONTINUOUS
 10
-7.7122290384
 20
-6.6
 11
-7.7122290384
 21
-7.9
  0
LINE
  5
3AA
100
AcDbEntity
  8
ASSI
100
AcDbLine
 62
253
  6
CONTINUOUS
 10
-7.5666456542
 20
21.3359869487
 11
-7.5666456542
 21
20.9959955457
  0
LINE
  5
3AB
100
AcDbEntity
  8
0
100
AcDbLine
 62
253
  6
CONTINUOUS
 10
-7.5666456542
 20
21.3359869487
 11
-7.5666456542
 21
20.9959955457
  0
LINE
  5
3AC
100
AcDbEntity
  8
ASSI
100
AcDbLine
 62
253
  6
CONTINUOUS
 10
-7.5666456542
 20
-20.9959955457
 11
-7.5666456542
 21
-21.3359869487
  0
LINE
  5
3AD
100
AcDbEntity
  8
0
100
AcDbLine
 62
253
  6
CONTINUOUS
 10
-7.5666456542
 20
-20.9959955457
 11
-7.5666456542
 21
-21.3359869487
  0
LINE
  5
3AE
100
AcDbEntity
  8
ASSI
100
AcDbLine
 62
253
  6
CONTINUOUS
 10
-7.5043676032
 20
-23.6278312164
 11
-7.5043676032
 21
-24.495628166
  0
LINE
  5
3AF
100
AcDbEntity
  8
0
100
AcDbLine
 62
253
  6
CONTINUOUS
 10
-7.5043676032
 20
-23.6278312164
 11
-7.5043676032
 21
-24.495628166
  0
LINE
  5
3B0
100
AcDbEntity
  8
ASSI
100
AcDbLine
 62
253
  6
CONTINUOUS
 10
-7.5043676032
 20
23.6278312164
 11
-7.5043676032
 21
24.495628166
  0
LINE
  5
3B1
100
AcDbEntity
  8
0
100
AcDbLine
 62
253
  6
CONTINUOUS
 10
-7.5043676032
 20
23.6278312164
 11
-7.5043676032
 21
24.495628166
  0
LINE
  5
3B2
100
AcDbEntity
  8
RACCORDO
100
AcDbLine
 62
7
  6
CONTINUOUS
 10
-7.4122404615
 20
-6.5974047863
 11
-7.4122404615
 21
-7.6026179606
  0
LINE
  5
3B3
100
AcDbEntity
  8
DRAFT
100
AcDbLine
 62
7
  6
CONTINUOUS
 10
-7.4
 20
-6.95
 11
-7.4
 21
-7.2
  0
LINE
  5
3B4
100
AcDbEntity
  8
RACCORDO
100
AcDbLine
 62
7
  6
CONTINUOUS
 10
-7.4
 20
-6.95
 11
-7.4
 21
-5.9
  0
LINE
  5
3B5
100
AcDbEntity
  8
ASSI
100
AcDbLine
 62
7
  6
CONTINUOUS
 10
-7.3183264224
 20
-19.7897929133
 11
-7.3183264224
 21
-20.7899436635
  0
LINE
  5
3B6
100
AcDbEntity
  8
RACCORDO
100
AcDbLine
 62
7
  6
CONTINUOUS
 10
-7.3183264224
 20
-19.7897929133
 11
-7.3183264224
 21
-20.7899436635
  0
LINE
  5
3B7
100
AcDbEntity
  8
ASSI
100
AcDbLine
 62
7
  6
CONTINUOUS
 10
-7.254371834
 20
-24.2456323968
 11
-7.254371834
 21
-23.8443375673
  0
LINE
  5
3B8
100
AcDbEntity
  8
0
100
AcDbLine
 62
7
  6
CONTINUOUS
 10
-7.254371834
 20
-24.2456323968
 11
-7.254371834
 21
-23.8443375673
  0
LINE
  5
3B9
100
AcDbEntity
  8
ASSI
100
AcDbLine
 62
7
  6
CONTINUOUS
 10
-7.254371834
 20
23.8443375673
 11
-7.254371834
 21
24.2456323968
  0
LINE
  5
3BA
100
AcDbEntity
  8
0
100
AcDbLine
 62
7
  6
CONTINUOUS
 10
-7.254371834
 20
23.8443375673
 11
-7.254371834
 21
24.2456323968
  0
LINE
  5
3BB
100
AcDbEntity
  8
RACCORDO
100
AcDbLine
 62
7
  6
CONTINUOUS
 10
-7.25
 20
23.4104851482
 11
-7.25
 21
22.6002134903
  0
LINE
  5
3BC
100
AcDbEntity
  8
0
100
AcDbLine
 62
7
  6
CONTINUOUS
 10
-7.25
 20
-23.8443375673
 11
-7.25
 21
-23.4104851482
  0
LINE
  5
3BD
100
AcDbEntity
  8
ASSI
100
AcDbLine
 62
7
  6
CONTINUOUS
 10
-7.25
 20
-22.6002134903
 11
-7.25
 21
-23.8443375673
  0
LINE
  5
3BE
100
AcDbEntity
  8
RACCORDO
100
AcDbLine
 62
7
  6
CONTINUOUS
 10
-7.25
 20
-22.6002134903
 11
-7.25
 21
-23.4104851482
  0
LINE
  5
3BF
100
AcDbEntity
  8
ASSI
100
AcDbLine
 62
7
  6
CONTINUOUS
 10
-7.25
 20
22.6002134903
 11
-7.25
 21
23.8443375673
  0
LINE
  5
3C0
100
AcDbEntity
  8
0
100
AcDbLine
 62
7
  6
CONTINUOUS
 10
-7.25
 20
23.4104851482
 11
-7.25
 21
23.8443375673
  0
LINE
  5
3C1
100
AcDbEntity
  8
DRAFT
100
AcDbLine
 62
7
  6
CONTINUOUS
 10
-7.2331620976
 20
-12.0
 11
-7.2331620976
 21
-9.5
  0
LINE
  5
3C2
100
AcDbEntity
  8
DRAFT
100
AcDbLine
 62
7
  6
CONTINUOUS
 10
-7.2244352298
 20
-10.5087268678
 11
-7.2244352298
 21
-9.5087268678
  0
LINE
  5
3C3
100
AcDbEntity
  8
DRAFT
100
AcDbLine
 62
7
  6
CONTINUOUS
 10
-7.2183264224
 20
-13.9183264224
 11
-7.2183264224
 21
-12.0148356752
  0
LINE
  5
3C4
100
AcDbEntity
  8
ASSI
100
AcDbLine
 62
7
  6
CONTINUOUS
 10
-7.2040044543
 20
20.9959955457
 11
-7.2040044543
 21
20.0049452141
  0
LINE
  5
3C5
100
AcDbEntity
  8
RACCORDO
100
AcDbLine
 62
7
  6
CONTINUOUS
 10
-7.2040044543
 20
20.9959955457
 11
-7.2040044543
 21
20.0049452141
  0
LINE
  5
3C6
100
AcDbEntity
  8
ASSI
100
AcDbLine
 62
7
  6
CONTINUOUS
 10
-7.2040044543
 20
-20.0049452141
 11
-7.2040044543
 21
-20.9959955457
  0
LINE
  5
3C7
100
AcDbEntity
  8
RACCORDO
100
AcDbLine
 62
7
  6
CONTINUOUS
 10
-7.2040044543
 20
-20.0049452141
 11
-7.2040044543
 21
-20.9959955457
  0
LINE
  5
3C8
100
AcDbEntity
  8
DRAFT
100
AcDbLine
 62
7
  6
CONTINUOUS
 10
-7.1755647702
 20
-13.8755647702
 11
-7.1755647702
 21
-10.5575973274
  0
LINE
  5
3C9
100
AcDbEntity
  8
ASSI
100
AcDbLine
 62
253
  6
CONTINUOUS
 10
-7.4992770021
 20
-23.1226497308
 11
-7.5043676032
 21
-23.6278312164
  0
LINE
  5
3CA
100
AcDbEntity
  8
0
100
AcDbLine
 62
253
  6
CONTINUOUS
 10
-7.4992770021
 20
-23.1226497308
 11
-7.5043676032
 21
-23.6278312164
  0
LINE
  5
3CB
100
AcDbEntity
  8
ASSI
100
AcDbLine
 62
7
  6
CONTINUOUS
 10
-9.5121049871
 20
-16.4
 11
-9.5498994568
 21
-16.8602367608
  0
LINE
  5
3CC
100
AcDbEntity
  8
DRAFT
100
AcDbLine
 62
7
  6
CONTINUOUS
 10
-9.5121049871
 20
-16.4
 11
-9.5498994568
 21
-16.8602367608
  0
LINE
  5
3CD
100
AcDbEntity
  8
DRAFT
100
AcDbLine
 62
7
  6
CONTINUOUS
 10
-11.0668379024
 20
-7.9673010759
 11
-11.1
 21
-8.1
  0
LINE
  5
3CE
100
AcDbEntity
  8
ASSI
100
AcDbLine
 62
7
  6
CONTINUOUS
 10
-8.7867049498
 20
-8.4867049498
 11
-9.65
 21
-8.5
  0
LINE
  5
3CF
100
AcDbEntity
  8
DRAFT
100
AcDbLine
 62
7
  6
CONTINUOUS
 10
-8.7867049498
 20
-8.4867049498
 11
-9.65
 21
-8.5
  0
LINE
  5
3D0
100
AcDbEntity
  8
DRAFT
100
AcDbLine
 62
7
  6
CONTINUOUS
 10
8.778184492
 20
-8.7
 11
8.3575973274
 21
-8.7
  0
LINE
  5
3D1
100
AcDbEntity
  8
DRAFT
100
AcDbLine
 62
7
  6
CONTINUOUS
 10
-8.3575973274
 20
-8.7
 11
-8.7781811688
 21
-8.7
  0
LINE
  5
3D2
100
AcDbEntity
  8
ASSI
100
AcDbLine
 62
7
  6
CONTINUOUS
 10
8.778184492
 20
-8.478184492
 11
9.6062395248
 21
-8.4781214288
  0
LINE
  5
3D3
100
AcDbEntity
  8
DRAFT
100
AcDbLine
 62
7
  6
CONTINUOUS
 10
8.778184492
 20
-8.478184492
 11
9.6062395248
 21
-8.4781214288
  0
LINE
  5
3D4
100
AcDbEntity
  8
ASSI
100
AcDbLine
 62
7
  6
CONTINUOUS
 10
-9.606485188
 20
-8.478244251
 11
-8.7781811688
 21
-8.4781811688
  0
LINE
  5
3D5
100
AcDbEntity
  8
DRAFT
100
AcDbLine
 62
7
  6
CONTINUOUS
 10
-9.606485188
 20
-8.478244251
 11
-8.7781811688
 21
-8.4781811688
  0
LINE
  5
3D6
100
AcDbEntity
  8
DRAFT
100
AcDbLine
 62
7
  6
CONTINUOUS
 10
-9.4522218454
 20
-8.1977781546
 11
-8.3575973274
 21
-8.1977781546
  0
LINE
  5
3D7
100
AcDbEntity
  8
DRAFT
100
AcDbLine
 62
7
  6
CONTINUOUS
 10
9.4522218454
 20
-8.1977781546
 11
8.3575973274
 21
-8.1977781546
  0
LINE
  5
3D8
100
AcDbEntity
  8
DRAFT
100
AcDbLine
 62
7
  6
CONTINUOUS
 10
11.1
 20
-8.1
 11
9.55
 21
-8.1
  0
LINE
  5
3D9
100
AcDbEntity
  8
DRAFT
100
AcDbLine
 62
7
  6
CONTINUOUS
 10
-9.55
 20
-8.1
 11
-11.1
 21
-8.1
  0
LINE
  5
3DA
100
AcDbEntity
  8
DRAFT
100
AcDbLine
 62
7
  6
CONTINUOUS
 10
-11.0668379024
 20
-7.9673010759
 11
-8.3
 21
-7.9673010759
  0
LINE
  5
3DB
100
AcDbEntity
  8
DRAFT
100
AcDbLine
 62
7
  6
CONTINUOUS
 10
11.0668379024
 20
-7.9673010759
 11
8.3
 21
-7.9673010759
  0
LINE
  5
3DC
100
AcDbEntity
  8
RACCORDO
100
AcDbLine
 62
7
  6
CONTINUOUS
 10
7.7122290384
 20
-7.9
 11
-7.7122290384
 21
-7.9
  0
LINE
  5
3DD
100
AcDbEntity
  8
RACCORDO
100
AcDbLine
 62
7
  6
CONTINUOUS
 10
-6.0
 20
-7.7
 11
6.0
 21
-7.7
  0
LINE
  5
3DE
100
AcDbEntity
  8
RACCORDO
100
AcDbLine
 62
253
  6
CONTINUOUS
 10
-7.4100659726
 20
-7.3534462075
 11
-6.0
 21
-7.3534462075
  0
LINE
  5
3DF
100
AcDbEntity
  8
RACCORDO
100
AcDbLine
 62
253
  6
CONTINUOUS
 10
6.0
 20
-7.3534462075
 11
7.4100659726
 21
-7.3534462075
  0
LINE
  5
3E0
100
AcDbEntity
  8
RACCORDO
100
AcDbLine
 62
253
  6
CONTINUOUS
 10
-6.0
 20
-7.2277350098
 11
6.0
 21
-7.2277350098
  0
LINE
  5
3E1
100
AcDbEntity
  8
RACCORDO
100
AcDbLine
 62
7
  6
CONTINUOUS
 10
-7.4070186365
 20
-7.2070186365
 11
-6.0
 21
-7.2070186365
  0
LINE
  5
3E2
100
AcDbEntity
  8
RACCORDO
100
AcDbLine
 62
7
  6
CONTINUOUS
 10
6.0
 20
-7.2070186365
 11
7.4070186365
 21
-7.2070186365
  0
LINE
  5
3E3
100
AcDbEntity
  8
DRAFT
100
AcDbLine
 62
7
  6
CONTINUOUS
 10
7.4
 20
-7.2
 11
6.0
 21
-7.2
  0
LINE
  5
3E4
100
AcDbEntity
  8
DRAFT
100
AcDbLine
 62
7
  6
CONTINUOUS
 10
-6.0
 20
-7.2
 11
-7.4
 21
-7.2
  0
LINE
  5
3E5
100
AcDbEntity
  8
ASSI
100
AcDbLine
 62
7
  6
CONTINUOUS
 10
9.65
 20
-8.5
 11
8.7867049498
 21
-8.4867049498
  0
LINE
  5
3E6
100
AcDbEntity
  8
DRAFT
100
AcDbLine
 62
7
  6
CONTINUOUS
 10
9.65
 20
-8.5
 11
8.7867049498
 21
-8.4867049498
  0
LINE
  5
3E7
100
AcDbEntity
  8
ASSI
100
AcDbLine
 62
7
  6
CONTINUOUS
 10
3.9700513793
 20
-16.8647171262
 11
3.7693983204
 21
-16.6228362517
  0
LINE
  5
3E8
100
AcDbEntity
  8
DRAFT
100
AcDbLine
 62
7
  6
CONTINUOUS
 10
3.9700513793
 20
-16.8647171262
 11
3.7693983204
 21
-16.6228362517
  0
LINE
  5
3E9
100
AcDbEntity
  8
ASSI
100
AcDbLine
 62
7
  6
CONTINUOUS
 10
-4.5612601473
 20
-19.4260209733
 11
-4.5339434386
 21
-19.5900670064
  0
LINE
  5
3EA
100
AcDbEntity
  8
RACCORDO
100
AcDbLine
 62
7
  6
CONTINUOUS
 10
-4.5612601473
 20
-19.4260209733
 11
-4.5339434386
 21
-19.5900670064
  0
LINE
  5
3EB
100
AcDbEntity
  8
ASSI
100
AcDbLine
 62
253
  6
CONTINUOUS
 10
-7.254371834
 20
23.8443375673
 11
-7.25
 21
23.4104851482
  0
LINE
  5
3EC
100
AcDbEntity
  8
0
100
AcDbLine
 62
253
  6
CONTINUOUS
 10
-7.254371834
 20
23.8443375673
 11
-7.25
 21
23.4104851482
  0
LINE
  5
3ED
100
AcDbEntity
  8
ASSI
100
AcDbLine
 62
7
  6
CONTINUOUS
 10
-5.9866342698
 20
-15.5
 11
-5.9855874627
 21
-15.9144125373
  0
LINE
  5
3EE
100
AcDbEntity
  8
RACCORDO
100
AcDbLine
 62
7
  6
CONTINUOUS
 10
-5.9866342698
 20
-15.5
 11
-5.9855874627
 21
-15.9144125373
  0
LINE
  5
3EF
100
AcDbEntity
  8
ASSI
100
AcDbLine
 62
7
  6
CONTINUOUS
 10
-5.9825617315
 20
-15.5
 11
-5.9821139563
 21
-15.9178860437
  0
LINE
  5
3F0
100
AcDbEntity
  8
RACCORDO
100
AcDbLine
 62
7
  6
CONTINUOUS
 10
-5.9825617315
 20
-15.5
 11
-5.9821139563
 21
-15.9178860437
  0
LINE
  5
3F1
100
AcDbEntity
  8
ASSI
100
AcDbLine
 62
7
  6
CONTINUOUS
 10
-6.5959955457
 20
-20.1143219681
 11
-6.5959955457
 21
-20.0049452141
  0
LINE
  5
3F2
100
AcDbEntity
  8
RACCORDO
100
AcDbLine
 62
7
  6
CONTINUOUS
 10
-6.5959955457
 20
-20.1143219681
 11
-6.5959955457
 21
-20.0049452141
  0
LINE
  5
3F3
100
AcDbEntity
  8
ASSI
100
AcDbLine
 62
7
  6
CONTINUOUS
 10
-6.5959955457
 20
20.0049452141
 11
-6.5959955457
 21
20.1143219681
  0
LINE
  5
3F4
100
AcDbEntity
  8
RACCORDO
100
AcDbLine
 62
7
  6
CONTINUOUS
 10
-6.5959955457
 20
20.0049452141
 11
-6.5959955457
 21
20.1143219681
  0
LINE
  5
3F5
100
AcDbEntity
  8
RACCORDO
100
AcDbLine
 62
7
  6
CONTINUOUS
 10
-6.5
 20
4.6
 11
-6.5
 21
2.2
  0
LINE
  5
3F6
100
AcDbEntity
  8
ASSI
100
AcDbLine
 62
7
  6
CONTINUOUS
 10
-6.4816735776
 20
-19.7897929133
 11
-6.4816735776
 21
-20.0
  0
LINE
  5
3F7
100
AcDbEntity
  8
RACCORDO
100
AcDbLine
 62
7
  6
CONTINUOUS
 10
-6.4816735776
 20
-19.7897929133
 11
-6.4816735776
 21
-20.0
  0
LINE
  5
3F8
100
AcDbEntity
  8
Z030100_COP
100
AcDbLine
 62
7
  6
CONTINUOUS
 10
-6.35
 20
14.1
 11
-6.35
 21
13.9
  0
LINE
  5
3F9
100
AcDbEntity
  8
RACCORDO
100
AcDbLine
 62
253
  6
CONTINUOUS
 10
-6.0
 20
4.6
 11
-6.0
 21
2.2
  0
LINE
  5
3FA
100
AcDbEntity
  8
RACCORDO
100
AcDbLine
 62
7
  6
CONTINUOUS
 10
-6.0
 20
-7.7
 11
-6.0
 21
-6.95
  0
LINE
  5
3FB
100
AcDbEntity
  8
RACCORDO
100
AcDbLine
 62
7
  6
CONTINUOUS
 10
-5.9
 20
-6.95
 11
-5.9
 21
-5.9
  0
LINE
  5
3FC
100
AcDbEntity
  8
DRAFT
100
AcDbLine
 62
7
  6
CONTINUOUS
 10
-5.5
 20
-10.5575973274
 11
-5.5
 21
-13.8755647702
  0
LINE
  5
3FD
100
AcDbEntity
  8
DRAFT
100
AcDbLine
 62
7
  6
CONTINUOUS
 10
-5.4842904416
 20
-11.5
 11
-5.4842904416
 21
-13.8677105892
  0
LINE
  5
3FE
100
AcDbEntity
  8
Z030100_COP
100
AcDbLine
 62
7
  6
CONTINUOUS
 10
-5.45
 20
14.1
 11
-5.45
 21
13.9
  0
LINE
  5
3FF
100
AcDbEntity
  8
DRAFT
100
AcDbLine
 62
7
  6
CONTINUOUS
 10
-5.4493803117
 20
-11.4825462644
 11
-5.4493803117
 21
-10.9
  0
LINE
  5
400
100
AcDbEntity
  8
ASSI
100
AcDbLine
 62
7
  6
CONTINUOUS
 10
-6.4527028411
 20
-19.4260209733
 11
-6.4519304353
 21
-18.7051734659
  0
LINE
  5
401
100
AcDbEntity
  8
RACCORDO
100
AcDbLine
 62
7
  6
CONTINUOUS
 10
-6.4527028411
 20
-19.4260209733
 11
-6.4519304353
 21
-18.7051734659
  0
LINE
  5
402
100
AcDbEntity
  8
ASSI
100
AcDbLine
 62
253
  6
CONTINUOUS
 10
-7.25
 20
-23.4104851482
 11
-7.254371834
 21
-23.8443375673
  0
LINE
  5
403
100
AcDbEntity
  8
0
100
AcDbLine
 62
253
  6
CONTINUOUS
 10
-7.25
 20
-23.4104851482
 11
-7.254371834
 21
-23.8443375673
  0
LINE
  5
404
100
AcDbEntity
  8
DRAFT
100
AcDbLine
 62
7
  6
CONTINUOUS
 10
-8.3
 20
-7.9673010759
 11
-8.3575973274
 21
-8.1977781546
  0
LINE
  5
405
100
AcDbEntity
  8
0
100
AcDbLine
 62
7
  6
CONTINUOUS
 10
3.575
 20
13.2
 11
4.275
 21
13.9
  0
LINE
  5
406
100
AcDbEntity
  8
DRAFT
100
AcDbLine
 62
7
  6
CONTINUOUS
 10
11.0668379024
 20
18.9668379024
 11
11.1
 21
19.0
  0
LINE
  5
407
100
AcDbEntity
  8
DRAFT
100
AcDbLine
 62
7
  6
CONTINUOUS
 10
9.5831620976
 20
17.4331620976
 11
9.55
 21
17.4
  0
LINE
  5
408
100
AcDbEntity
  8
0
100
AcDbLine
 62
7
  6
CONTINUOUS
 10
-2.85
 20
4.7
 11
-2.95
 21
4.6
  0
LINE
  5
409
100
AcDbEntity
  8
RACCORDO
100
AcDbLine
 62
7
  6
CONTINUOUS
 10
-7.4
 20
-6.95
 11
-5.9
 21
-6.95
  0
LINE
  5
40A
100
AcDbEntity
  8
RACCORDO
100
AcDbLine
 62
7
  6
CONTINUOUS
 10
5.9
 20
-6.95
 11
7.4
 21
-6.95
  0
LINE
  5
40B
100
AcDbEntity
  8
RACCORDO
100
AcDbLine
 62
7
  6
CONTINUOUS
 10
9.9
 20
-6.6
 11
7.7122290384
 21
-6.6
  0
LINE
  5
40C
100
AcDbEntity
  8
RACCORDO
100
AcDbLine
 62
7
  6
CONTINUOUS
 10
-7.7122290384
 20
-6.6
 11
-9.9
 21
-6.6
  0
LINE
  5
40D
100
AcDbEntity
  8
DRAFT
100
AcDbLine
 62
7
  6
CONTINUOUS
 10
9.8851643248
 20
-6.5851643248
 11
7.4
 21
-6.5851643248
  0
LINE
  5
40E
100
AcDbEntity
  8
DRAFT
100
AcDbLine
 62
7
  6
CONTINUOUS
 10
-7.4
 20
-6.5851643248
 11
-9.8851643248
 21
-6.5851643248
  0
LINE
  5
40F
100
AcDbEntity
  8
RACCORDO
100
AcDbLine
 62
253
  6
CONTINUOUS
 10
-7.4
 20
-5.95
 11
-5.9
 21
-5.95
  0
LINE
  5
410
100
AcDbEntity
  8
RACCORDO
100
AcDbLine
 62
253
  6
CONTINUOUS
 10
5.9
 20
-5.95
 11
7.4
 21
-5.95
  0
LINE
  5
411
100
AcDbEntity
  8
RACCORDO
100
AcDbLine
 62
7
  6
CONTINUOUS
 10
9.0
 20
-5.9
 11
7.4
 21
-5.9
  0
LINE
  5
412
100
AcDbEntity
  8
0
100
AcDbLine
 62
7
  6
CONTINUOUS
 10
5.9
 20
-5.9
 11
4.25
 21
-5.9
  0
LINE
  5
413
100
AcDbEntity
  8
0
100
AcDbLine
 62
7
  6
CONTINUOUS
 10
-4.25
 20
-5.9
 11
-5.9
 21
-5.9
  0
LINE
  5
414
100
AcDbEntity
  8
RACCORDO
100
AcDbLine
 62
7
  6
CONTINUOUS
 10
-7.4
 20
-5.9
 11
-9.0
 21
-5.9
  0
LINE
  5
415
100
AcDbEntity
  8
DRAFT
100
AcDbLine
 62
7
  6
CONTINUOUS
 10
-5.4493803117
 20
-10.9
 11
-5.4922187874
 21
-10.5614876374
  0
LINE
  5
416
100
AcDbEntity
  8
ASSI
100
AcDbLine
 62
7
  6
CONTINUOUS
 10
-3.0762444645
 20
-21.6237555355
 11
-3.0959955457
 21
-20.8
  0
LINE
  5
417
100
AcDbEntity
  8
0
100
AcDbLine
 62
7
  6
CONTINUOUS
 10
-3.0762444645
 20
-21.6237555355
 11
-3.0959955457
 21
-20.8
  0
LINE
  5
418
100
AcDbEntity
  8
ASSI
100
AcDbLine
 62
7
  6
CONTINUOUS
 10
-4.5612601473
 20
-19.4260209733
 11
-4.563284597
 21
-17.5367039799
  0
LINE
  5
419
100
AcDbEntity
  8
RACCORDO
100
AcDbLine
 62
7
  6
CONTINUOUS
 10
-4.5612601473
 20
-19.4260209733
 11
-4.563284597
 21
-17.5367039799
  0
LINE
  5
41A
100
AcDbEntity
  8
ASSI
100
AcDbLine
 62
7
  6
CONTINUOUS
 10
-4.5322894108
 20
-19.7897929133
 11
-4.5322894108
 21
-20.0
  0
LINE
  5
41B
100
AcDbEntity
  8
RACCORDO
100
AcDbLine
 62
7
  6
CONTINUOUS
 10
-4.5322894108
 20
-19.7897929133
 11
-4.5322894108
 21
-20.0
  0
LINE
  5
41C
100
AcDbEntity
  8
ASSI
100
AcDbLine
 62
7
  6
CONTINUOUS
 10
-4.5025952137
 20
-17.7956556053
 11
-4.5025952137
 21
-20.0296941971
  0
LINE
  5
41D
100
AcDbEntity
  8
RACCORDO
100
AcDbLine
 62
7
  6
CONTINUOUS
 10
-4.5025952137
 20
-17.7956556053
 11
-4.5025952137
 21
-20.0296941971
  0
LINE
  5
41E
100
AcDbEntity
  8
ASSI
100
AcDbLine
 62
7
  6
CONTINUOUS
 10
-4.45
 20
24.0
 11
-4.45
 21
23.3679449472
  0
LINE
  5
41F
100
AcDbEntity
  8
0
100
AcDbLine
 62
7
  6
CONTINUOUS
 10
-4.45
 20
24.0
 11
-4.45
 21
23.3679449472
  0
LINE
  5
420
100
AcDbEntity
  8
ASSI
100
AcDbLine
 62
7
  6
CONTINUOUS
 10
-4.45
 20
22.9320550528
 11
-4.45
 21
22.4
  0
LINE
  5
421
100
AcDbEntity
  8
0
100
AcDbLine
 62
7
  6
CONTINUOUS
 10
-4.45
 20
22.9320550528
 11
-4.45
 21
22.4
  0
LINE
  5
422
100
AcDbEntity
  8
ASSI
100
AcDbLine
 62
7
  6
CONTINUOUS
 10
-4.45
 20
-22.4
 11
-4.45
 21
-22.9320550528
  0
LINE
  5
423
100
AcDbEntity
  8
0
100
AcDbLine
 62
7
  6
CONTINUOUS
 10
-4.45
 20
-22.4
 11
-4.45
 21
-22.9320550528
  0
LINE
  5
424
100
AcDbEntity
  8
ASSI
100
AcDbLine
 62
7
  6
CONTINUOUS
 10
-4.45
 20
-23.3679449472
 11
-4.45
 21
-24.0
  0
LINE
  5
425
100
AcDbEntity
  8
0
100
AcDbLine
 62
7
  6
CONTINUOUS
 10
-4.45
 20
-23.3679449472
 11
-4.45
 21
-24.0
  0
LINE
  5
426
100
AcDbEntity
  8
ASSI
100
AcDbLine
 62
7
  6
CONTINUOUS
 10
-4.406077753
 20
-23.9538922731
 11
-4.406077753
 21
-22.356077753
  0
LINE
  5
427
100
AcDbEntity
  8
0
100
AcDbLine
 62
7
  6
CONTINUOUS
 10
-4.406077753
 20
-23.9538922731
 11
-4.406077753
 21
-22.356077753
  0
LINE
  5
428
100
AcDbEntity
  8
ASSI
100
AcDbLine
 62
7
  6
CONTINUOUS
 10
-4.406077753
 20
22.356077753
 11
-4.406077753
 21
23.9538922731
  0
LINE
  5
429
100
AcDbEntity
  8
0
100
AcDbLine
 62
7
  6
CONTINUOUS
 10
-4.406077753
 20
22.356077753
 11
-4.406077753
 21
23.9538922731
  0
LINE
  5
42A
100
AcDbEntity
  8
0
100
AcDbLine
 62
7
  6
CONTINUOUS
 10
-4.25
 20
-4.1
 11
-4.25
 21
-5.9
  0
LINE
  5
42B
100
AcDbEntity
  8
ASSI
100
AcDbLine
 62
253
  6
CONTINUOUS
 10
-4.2026066368
 20
-17.7956556053
 11
-4.2026066368
 21
-20.0322894108
  0
LINE
  5
42C
100
AcDbEntity
  8
RACCORDO
100
AcDbLine
 62
253
  6
CONTINUOUS
 10
-4.2026066368
 20
-17.7956556053
 11
-4.2026066368
 21
-20.0322894108
  0
LINE
  5
42D
100
AcDbEntity
  8
Z030100_COP
100
AcDbLine
 62
7
  6
CONTINUOUS
 10
-3.65
 20
13.275
 11
-3.65
 21
14.1
  0
LINE
  5
42E
100
AcDbEntity
  8
0
100
AcDbLine
 62
7
  6
CONTINUOUS
 10
-3.575
 20
13.2
 11
-3.575
 21
8.3
  0
LINE
  5
42F
100
AcDbEntity
  8
ASSI
100
AcDbLine
 62
7
  6
CONTINUOUS
 10
-3.5590867224
 20
-23.8767611455
 11
-3.5590867224
 21
-22.3547915774
  0
LINE
  5
430
100
AcDbEntity
  8
0
100
AcDbLine
 62
7
  6
CONTINUOUS
 10
-3.5590867224
 20
-23.8767611455
 11
-3.5590867224
 21
-22.3547915774
  0
LINE
  5
431
100
AcDbEntity
  8
ASSI
100
AcDbLine
 62
7
  6
CONTINUOUS
 10
-3.5590867224
 20
22.3547915774
 11
-3.5590867224
 21
23.8767611455
  0
LINE
  5
432
100
AcDbEntity
  8
0
100
AcDbLine
 62
7
  6
CONTINUOUS
 10
-3.5590867224
 20
22.3547915774
 11
-3.5590867224
 21
23.8767611455
  0
LINE
  5
433
100
AcDbEntity
  8
ASSI
100
AcDbLine
 62
7
  6
CONTINUOUS
 10
-3.5
 20
23.9941821702
 11
-3.5
 21
22.3941821702
  0
LINE
  5
434
100
AcDbEntity
  8
0
100
AcDbLine
 62
7
  6
CONTINUOUS
 10
-3.5
 20
23.9941821702
 11
-3.5
 21
22.3941821702
  0
LINE
  5
435
100
AcDbEntity
  8
ASSI
100
AcDbLine
 62
7
  6
CONTINUOUS
 10
-3.5
 20
-23.9941821702
 11
-3.5
 21
-22.3941821702
  0
LINE
  5
436
100
AcDbEntity
  8
0
100
AcDbLine
 62
7
  6
CONTINUOUS
 10
-3.5
 20
-23.9941821702
 11
-3.5
 21
-22.3941821702
  0
LINE
  5
437
100
AcDbEntity
  8
ASSI
100
AcDbLine
 62
7
  6
CONTINUOUS
 10
-3.9700513793
 20
-16.8647171262
 11
-3.9405049384
 21
-15.5
  0
LINE
  5
438
100
AcDbEntity
  8
RACCORDO
100
AcDbLine
 62
7
  6
CONTINUOUS
 10
-3.9700513793
 20
-16.8647171262
 11
-3.9405049384
 21
-15.5
  0
LINE
  5
439
100
AcDbEntity
  8
ASSI
100
AcDbLine
 62
7
  6
CONTINUOUS
 10
-3.7452569859
 20
-15.507774954
 11
-3.7693983204
 21
-16.6228362517
  0
LINE
  5
43A
100
AcDbEntity
  8
DRAFT
100
AcDbLine
 62
7
  6
CONTINUOUS
 10
-3.7452569859
 20
-15.507774954
 11
-3.7693983204
 21
-16.6228362517
  0
LINE
  5
43B
100
AcDbEntity
  8
ASSI
100
AcDbLine
 62
7
  6
CONTINUOUS
 10
-3.0959955457
 20
20.8
 11
-3.0762444645
 21
21.6237555355
  0
LINE
  5
43C
100
AcDbEntity
  8
0
100
AcDbLine
 62
7
  6
CONTINUOUS
 10
-3.0959955457
 20
20.8
 11
-3.0762444645
 21
21.6237555355
  0
LINE
  5
43D
100
AcDbEntity
  8
ASSI
100
AcDbLine
 62
253
  6
CONTINUOUS
 10
-6.5959955457
 20
-20.0049452141
 11
-6.4519304353
 21
-18.7051734659
  0
LINE
  5
43E
100
AcDbEntity
  8
RACCORDO
100
AcDbLine
 62
253
  6
CONTINUOUS
 10
-6.5959955457
 20
-20.0049452141
 11
-6.4519304353
 21
-18.7051734659
  0
LINE
  5
43F
100
AcDbEntity
  8
0
100
AcDbLine
 62
7
  6
CONTINUOUS
 10
-4.25
 20
-4.1
 11
4.25
 21
-4.1
  0
LINE
  5
440
100
AcDbEntity
  8
DRAFT
100
AcDbLine
 62
7
  6
CONTINUOUS
 10
7.1502568536
 20
-13.8502568536
 11
7.2183264224
 21
-13.9183264224
  0
LINE
  5
441
100
AcDbEntity
  8
ASSI
100
AcDbLine
 62
253
  6
CONTINUOUS
 10
-6.4356905824
 20
18.5586556733
 11
-6.5959955457
 21
20.0049452141
  0
LINE
  5
442
100
AcDbEntity
  8
RACCORDO
100
AcDbLine
 62
253
  6
CONTINUOUS
 10
-6.4356905824
 20
18.5586556733
 11
-6.5959955457
 21
20.0049452141
  0
LINE
  5
443
100
AcDbEntity
  8
RACCORDO
100
AcDbLine
 62
7
  6
CONTINUOUS
 10
-3.4
 20
-15.5
 11
-3.4
 21
-15.507774954
  0
LINE
  5
444
100
AcDbEntity
  8
0
100
AcDbLine
 62
7
  6
CONTINUOUS
 10
-3.35
 20
9.85
 11
-3.35
 21
8.3
  0
LINE
  5
445
100
AcDbEntity
  8
ASSI
100
AcDbLine
 62
7
  6
CONTINUOUS
 10
-3.0959955457
 20
-21.3359869487
 11
-3.0959955457
 21
-20.8
  0
LINE
  5
446
100
AcDbEntity
  8
0
100
AcDbLine
 62
7
  6
CONTINUOUS
 10
-3.0959955457
 20
-21.3359869487
 11
-3.0959955457
 21
-20.8
  0
LINE
  5
447
100
AcDbEntity
  8
ASSI
100
AcDbLine
 62
7
  6
CONTINUOUS
 10
-3.0959955457
 20
20.8
 11
-3.0959955457
 21
21.3359869487
  0
LINE
  5
448
100
AcDbEntity
  8
0
100
AcDbLine
 62
7
  6
CONTINUOUS
 10
-3.0959955457
 20
20.8
 11
-3.0959955457
 21
21.3359869487
  0
LINE
  5
449
100
AcDbEntity
  8
ASSI
100
AcDbLine
 62
7
  6
CONTINUOUS
 10
-3.0
 20
22.3941821702
 11
-3.0
 21
21.7
  0
LINE
  5
44A
100
AcDbEntity
  8
0
100
AcDbLine
 62
7
  6
CONTINUOUS
 10
-3.0
 20
22.3941821702
 11
-3.0
 21
21.7
  0
LINE
  5
44B
100
AcDbEntity
  8
ASSI
100
AcDbLine
 62
7
  6
CONTINUOUS
 10
-3.0
 20
-21.7
 11
-3.0
 21
-22.3941821702
  0
LINE
  5
44C
100
AcDbEntity
  8
0
100
AcDbLine
 62
7
  6
CONTINUOUS
 10
-3.0
 20
-21.7
 11
-3.0
 21
-22.3941821702
  0
LINE
  5
44D
100
AcDbEntity
  8
0
100
AcDbLine
 62
7
  6
CONTINUOUS
 10
-2.85
 20
8.3
 11
-2.85
 21
4.7
  0
LINE
  5
44E
100
AcDbEntity
  8
Z030100_COP
100
AcDbLine
 62
7
  6
CONTINUOUS
 10
-2.625
 20
10.2
 11
-2.625
 21
12.6
  0
LINE
  5
44F
100
AcDbEntity
  8
SMUSSO
100
AcDbLine
 62
7
  6
CONTINUOUS
 10
-2.05
 20
9.55
 11
-2.05
 21
10.95
  0
LINE
  5
450
100
AcDbEntity
  8
ASSI
100
AcDbLine
 62
7
  6
CONTINUOUS
 10
-6.4527028411
 20
-19.4260209733
 11
-6.4800195499
 21
-19.5900670064
  0
LINE
  5
451
100
AcDbEntity
  8
RACCORDO
100
AcDbLine
 62
7
  6
CONTINUOUS
 10
-6.4527028411
 20
-19.4260209733
 11
-6.4800195499
 21
-19.5900670064
  0
LINE
  5
452
100
AcDbEntity
  8
ASSI
100
AcDbLine
 62
7
  6
CONTINUOUS
 10
-9.5553984776
 20
-19.4260209733
 11
-9.6100360562
 21
-19.5900670064
  0
LINE
  5
453
100
AcDbEntity
  8
RACCORDO
100
AcDbLine
 62
7
  6
CONTINUOUS
 10
-9.5553984776
 20
-19.4260209733
 11
-9.6100360562
 21
-19.5900670064
  0
LINE
  5
454
100
AcDbEntity
  8
ASSI
100
AcDbLine
 62
7
  6
CONTINUOUS
 10
-9.65
 20
-20.1990396502
 11
-9.6133443637
 21
-20.0889833137
  0
LINE
  5
455
100
AcDbEntity
  8
0
100
AcDbLine
 62
7
  6
CONTINUOUS
 10
-9.65
 20
-20.1990396502
 11
-9.6133443637
 21
-20.0889833137
  0
LINE
  5
456
100
AcDbEntity
  8
ASSI
100
AcDbLine
 62
7
  6
CONTINUOUS
 10
-8.9498936624
 20
-20.9
 11
-8.9132380261
 21
-20.7899436635
  0
LINE
  5
457
100
AcDbEntity
  8
0
100
AcDbLine
 62
7
  6
CONTINUOUS
 10
-8.9498936624
 20
-20.9
 11
-8.9132380261
 21
-20.7899436635
  0
LINE
  5
458
100
AcDbEntity
  8
DRAFT
100
AcDbLine
 62
7
  6
CONTINUOUS
 10
9.9
 20
13.5
 11
9.8851643248
 21
13.4851643248
  0
LINE
  5
459
100
AcDbEntity
  8
DRAFT
100
AcDbLine
 62
7
  6
CONTINUOUS
 10
-9.9
 20
-6.6
 11
-9.8851643248
 21
-6.5851643248
  0
LINE
  5
45A
100
AcDbEntity
  8
ASSI
100
AcDbLine
 62
7
  6
CONTINUOUS
 10
9.6062395248
 20
-8.4781214288
 11
9.65
 21
-8.5
  0
LINE
  5
45B
100
AcDbEntity
  8
DRAFT
100
AcDbLine
 62
7
  6
CONTINUOUS
 10
9.6062395248
 20
-8.4781214288
 11
9.65
 21
-8.5
  0
LINE
  5
45C
100
AcDbEntity
  8
DRAFT
100
AcDbLine
 62
7
  6
CONTINUOUS
 10
11.0668379024
 20
-15.4668379024
 11
11.1
 21
-15.5
  0
LINE
  5
45D
100
AcDbEntity
  8
0
100
AcDbLine
 62
7
  6
CONTINUOUS
 10
-8.8
 20
4.6
 11
-8.9
 21
4.7
  0
LINE
  5
45E
100
AcDbEntity
  8
DRAFT
100
AcDbLine
 62
7
  6
CONTINUOUS
 10
9.9
 20
-13.9331620976
 11
9.8851643248
 21
-13.9183264224
  0
LINE
  5
45F
100
AcDbEntity
  8
ASSI
100
AcDbLine
 62
7
  6
CONTINUOUS
 10
-9.5242414733
 20
19.8214572617
 11
-9.65
 21
20.1990396502
  0
LINE
  5
460
100
AcDbEntity
  8
RACCORDO
100
AcDbLine
 62
7
  6
CONTINUOUS
 10
-9.5242414733
 20
19.8214572617
 11
-9.65
 21
20.1990396502
  0
LINE
  5
461
100
AcDbEntity
  8
ASSI
100
AcDbLine
 62
7
  6
CONTINUOUS
 10
-8.8387914318
 20
20.5664222561
 11
-8.9498936624
 21
20.9
  0
LINE
  5
462
100
AcDbEntity
  8
RACCORDO
100
AcDbLine
 62
7
  6
CONTINUOUS
 10
-8.8387914318
 20
20.5664222561
 11
-8.9498936624
 21
20.9
  0
LINE
  5
463
100
AcDbEntity
  8
ASSI
100
AcDbLine
 62
7
  6
CONTINUOUS
 10
-1.0087268678
 20
23.7941889394
 11
-1.0087268678
 21
22.3947639644
  0
LINE
  5
464
100
AcDbEntity
  8
0
100
AcDbLine
 62
7
  6
CONTINUOUS
 10
-1.0087268678
 20
23.7941889394
 11
-1.0087268678
 21
22.3947639644
  0
LINE
  5
465
100
AcDbEntity
  8
ASSI
100
AcDbLine
 62
7
  6
CONTINUOUS
 10
-1.0087268678
 20
-22.3947639644
 11
-1.0087268678
 21
-23.7941889394
  0
LINE
  5
466
100
AcDbEntity
  8
0
100
AcDbLine
 62
7
  6
CONTINUOUS
 10
-1.0087268678
 20
-22.3947639644
 11
-1.0087268678
 21
-23.7941889394
  0
LINE
  5
467
100
AcDbEntity
  8
ASSI
100
AcDbLine
 62
7
  6
CONTINUOUS
 10
-1.0
 20
23.8000067692
 11
-1.0
 21
22.4
  0
LINE
  5
468
100
AcDbEntity
  8
0
100
AcDbLine
 62
7
  6
CONTINUOUS
 10
-1.0
 20
23.8000067692
 11
-1.0
 21
22.4
  0
LINE
  5
469
100
AcDbEntity
  8
ASSI
100
AcDbLine
 62
7
  6
CONTINUOUS
 10
-1.0
 20
-22.4
 11
-1.0
 21
-23.8000067692
  0
LINE
  5
46A
100
AcDbEntity
  8
0
100
AcDbLine
 62
7
  6
CONTINUOUS
 10
-1.0
 20
-22.4
 11
-1.0
 21
-23.8000067692
  0
LINE
  5
46B
100
AcDbEntity
  8
RACCORDO
100
AcDbLine
 62
7
  6
CONTINUOUS
 10
-7.4122404615
 20
-6.5974047863
 11
-7.4
 21
-6.5851643248
  0
LINE
  5
46C
100
AcDbEntity
  8
ASSI
100
AcDbLine
 62
7
  6
CONTINUOUS
 10
-8.7781811688
 20
-8.4781811688
 11
-8.7867049498
 21
-8.4867049498
  0
LINE
  5
46D
100
AcDbEntity
  8
DRAFT
100
AcDbLine
 62
7
  6
CONTINUOUS
 10
-8.7781811688
 20
-8.4781811688
 11
-8.7867049498
 21
-8.4867049498
  0
LINE
  5
46E
100
AcDbEntity
  8
DRAFT
100
AcDbLine
 62
7
  6
CONTINUOUS
 10
9.55
 20
-10.5977781546
 11
9.4522218454
 21
-10.5
  0
LINE
  5
46F
100
AcDbEntity
  8
ASSI
100
AcDbLine
 62
7
  6
CONTINUOUS
 10
8.7867049498
 20
-8.4867049498
 11
8.778184492
 21
-8.478184492
  0
LINE
  5
470
100
AcDbEntity
  8
DRAFT
100
AcDbLine
 62
7
  6
CONTINUOUS
 10
8.7867049498
 20
-8.4867049498
 11
8.778184492
 21
-8.478184492
  0
LINE
  5
471
100
AcDbEntity
  8
ASSI
100
AcDbLine
 62
7
  6
CONTINUOUS
 10
1.0
 20
23.8000067692
 11
1.0
 21
22.4
  0
LINE
  5
472
100
AcDbEntity
  8
0
100
AcDbLine
 62
7
  6
CONTINUOUS
 10
1.0
 20
23.8000067692
 11
1.0
 21
22.4
  0
LINE
  5
473
100
AcDbEntity
  8
ASSI
100
AcDbLine
 62
7
  6
CONTINUOUS
 10
1.0
 20
-22.4
 11
1.0
 21
-23.8000067692
  0
LINE
  5
474
100
AcDbEntity
  8
0
100
AcDbLine
 62
7
  6
CONTINUOUS
 10
1.0
 20
-22.4
 11
1.0
 21
-23.8000067692
  0
LINE
  5
475
100
AcDbEntity
  8
ASSI
100
AcDbLine
 62
7
  6
CONTINUOUS
 10
1.0087268678
 20
23.7941889394
 11
1.0087268678
 21
22.3947639644
  0
LINE
  5
476
100
AcDbEntity
  8
0
100
AcDbLine
 62
7
  6
CONTINUOUS
 10
1.0087268678
 20
23.7941889394
 11
1.0087268678
 21
22.3947639644
  0
LINE
  5
477
100
AcDbEntity
  8
ASSI
100
AcDbLine
 62
7
  6
CONTINUOUS
 10
1.0087268678
 20
-22.3947639644
 11
1.0087268678
 21
-23.7941889394
  0
LINE
  5
478
100
AcDbEntity
  8
0
100
AcDbLine
 62
7
  6
CONTINUOUS
 10
1.0087268678
 20
-22.3947639644
 11
1.0087268678
 21
-23.7941889394
  0
LINE
  5
479
100
AcDbEntity
  8
SMUSSO
100
AcDbLine
 62
7
  6
CONTINUOUS
 10
2.05
 20
10.95
 11
2.05
 21
9.55
  0
LINE
  5
47A
100
AcDbEntity
  8
ASSI
100
AcDbLine
 62
7
  6
CONTINUOUS
 10
8.8387914318
 20
20.5664222561
 11
8.9498936624
 21
20.9
  0
LINE
  5
47B
100
AcDbEntity
  8
RACCORDO
100
AcDbLine
 62
7
  6
CONTINUOUS
 10
8.8387914318
 20
20.5664222561
 11
8.9498936624
 21
20.9
  0
LINE
  5
47C
100
AcDbEntity
  8
DRAFT
100
AcDbLine
 62
7
  6
CONTINUOUS
 10
-9.55
 20
-10.5977781546
 11
-9.4522218454
 21
-10.5
  0
LINE
  5
47D
100
AcDbEntity
  8
RACCORDO
100
AcDbLine
 62
7
  6
CONTINUOUS
 10
7.4122404615
 20
-6.5974047863
 11
7.4
 21
-6.5851643248
  0
LINE
  5
47E
100
AcDbEntity
  8
ASSI
100
AcDbLine
 62
7
  6
CONTINUOUS
 10
8.9498936624
 20
-20.9
 11
8.9132380261
 21
-20.7899436635
  0
LINE
  5
47F
100
AcDbEntity
  8
0
100
AcDbLine
 62
7
  6
CONTINUOUS
 10
8.9498936624
 20
-20.9
 11
8.9132380261
 21
-20.7899436635
  0
LINE
  5
480
100
AcDbEntity
  8
ASSI
100
AcDbLine
 62
7
  6
CONTINUOUS
 10
3.0959955457
 20
20.8
 11
3.0762444645
 21
21.6237555355
  0
LINE
  5
481
100
AcDbEntity
  8
0
100
AcDbLine
 62
7
  6
CONTINUOUS
 10
3.0959955457
 20
20.8
 11
3.0762444645
 21
21.6237555355
  0
LINE
  5
482
100
AcDbEntity
  8
ASSI
100
AcDbLine
 62
7
  6
CONTINUOUS
 10
3.7693983204
 20
-16.6228362517
 11
3.7452569859
 21
-15.507774954
  0
LINE
  5
483
100
AcDbEntity
  8
DRAFT
100
AcDbLine
 62
7
  6
CONTINUOUS
 10
3.7693983204
 20
-16.6228362517
 11
3.7452569859
 21
-15.507774954
  0
LINE
  5
484
100
AcDbEntity
  8
ASSI
100
AcDbLine
 62
7
  6
CONTINUOUS
 10
3.9405049384
 20
-15.5
 11
3.9700513793
 21
-16.8647171262
  0
LINE
  5
485
100
AcDbEntity
  8
RACCORDO
100
AcDbLine
 62
7
  6
CONTINUOUS
 10
3.9405049384
 20
-15.5
 11
3.9700513793
 21
-16.8647171262
  0
LINE
  5
486
100
AcDbEntity
  8
Z030100_COP
100
AcDbLine
 62
7
  6
CONTINUOUS
 10
2.625
 20
10.2
 11
2.625
 21
12.6
  0
LINE
  5
487
100
AcDbEntity
  8
0
100
AcDbLine
 62
7
  6
CONTINUOUS
 10
2.85
 20
4.7
 11
2.85
 21
8.3
  0
LINE
  5
488
100
AcDbEntity
  8
ASSI
100
AcDbLine
 62
7
  6
CONTINUOUS
 10
3.0
 20
-22.3941821702
 11
3.0
 21
-21.7
  0
LINE
  5
489
100
AcDbEntity
  8
0
100
AcDbLine
 62
7
  6
CONTINUOUS
 10
3.0
 20
-22.3941821702
 11
3.0
 21
-21.7
  0
LINE
  5
48A
100
AcDbEntity
  8
ASSI
100
AcDbLine
 62
7
  6
CONTINUOUS
 10
3.0
 20
21.7
 11
3.0
 21
22.3941821702
  0
LINE
  5
48B
100
AcDbEntity
  8
0
100
AcDbLine
 62
7
  6
CONTINUOUS
 10
3.0
 20
21.7
 11
3.0
 21
22.3941821702
  0
LINE
  5
48C
100
AcDbEntity
  8
ASSI
100
AcDbLine
 62
7
  6
CONTINUOUS
 10
3.0959955457
 20
-21.3359869487
 11
3.0959955457
 21
-20.8
  0
LINE
  5
48D
100
AcDbEntity
  8
0
100
AcDbLine
 62
7
  6
CONTINUOUS
 10
3.0959955457
 20
-21.3359869487
 11
3.0959955457
 21
-20.8
  0
LINE
  5
48E
100
AcDbEntity
  8
ASSI
100
AcDbLine
 62
7
  6
CONTINUOUS
 10
3.0959955457
 20
20.8
 11
3.0959955457
 21
21.3359869487
  0
LINE
  5
48F
100
AcDbEntity
  8
0
100
AcDbLine
 62
7
  6
CONTINUOUS
 10
3.0959955457
 20
20.8
 11
3.0959955457
 21
21.3359869487
  0
LINE
  5
490
100
AcDbEntity
  8
0
100
AcDbLine
 62
7
  6
CONTINUOUS
 10
3.35
 20
8.3
 11
3.35
 21
9.85
  0
LINE
  5
491
100
AcDbEntity
  8
RACCORDO
100
AcDbLine
 62
7
  6
CONTINUOUS
 10
3.4
 20
-15.507774954
 11
3.4
 21
-15.5
  0
LINE
  5
492
100
AcDbEntity
  8
ASSI
100
AcDbLine
 62
7
  6
CONTINUOUS
 10
3.5
 20
23.9941821702
 11
3.5
 21
22.3941821702
  0
LINE
  5
493
100
AcDbEntity
  8
0
100
AcDbLine
 62
7
  6
CONTINUOUS
 10
3.5
 20
23.9941821702
 11
3.5
 21
22.3941821702
  0
LINE
  5
494
100
AcDbEntity
  8
ASSI
100
AcDbLine
 62
7
  6
CONTINUOUS
 10
3.5
 20
-23.9941821702
 11
3.5
 21
-22.3941821702
  0
LINE
  5
495
100
AcDbEntity
  8
0
100
AcDbLine
 62
7
  6
CONTINUOUS
 10
3.5
 20
-23.9941821702
 11
3.5
 21
-22.3941821702
  0
LINE
  5
496
100
AcDbEntity
  8
ASSI
100
AcDbLine
 62
7
  6
CONTINUOUS
 10
3.5590867224
 20
-23.8767611455
 11
3.5590867224
 21
-22.3547915774
  0
LINE
  5
497
100
AcDbEntity
  8
0
100
AcDbLine
 62
7
  6
CONTINUOUS
 10
3.5590867224
 20
-23.8767611455
 11
3.5590867224
 21
-22.3547915774
  0
LINE
  5
498
100
AcDbEntity
  8
ASSI
100
AcDbLine
 62
7
  6
CONTINUOUS
 10
3.5590867224
 20
22.3547915774
 11
3.5590867224
 21
23.8767611455
  0
LINE
  5
499
100
AcDbEntity
  8
0
100
AcDbLine
 62
7
  6
CONTINUOUS
 10
3.5590867224
 20
22.3547915774
 11
3.5590867224
 21
23.8767611455
  0
LINE
  5
49A
100
AcDbEntity
  8
0
100
AcDbLine
 62
7
  6
CONTINUOUS
 10
3.575
 20
8.3
 11
3.575
 21
13.2
  0
LINE
  5
49B
100
AcDbEntity
  8
Z030100_COP
100
AcDbLine
 62
7
  6
CONTINUOUS
 10
3.65
 20
13.275
 11
3.65
 21
14.1
  0
LINE
  5
49C
100
AcDbEntity
  8
ASSI
100
AcDbLine
 62
7
  6
CONTINUOUS
 10
3.0762444645
 20
-21.6237555355
 11
3.0959955457
 21
-20.8
  0
LINE
  5
49D
100
AcDbEntity
  8
0
100
AcDbLine
 62
7
  6
CONTINUOUS
 10
3.0762444645
 20
-21.6237555355
 11
3.0959955457
 21
-20.8
  0
LINE
  5
49E
100
AcDbEntity
  8
ASSI
100
AcDbLine
 62
7
  6
CONTINUOUS
 10
9.5242414733
 20
19.8214572617
 11
9.65
 21
20.1990396502
  0
LINE
  5
49F
100
AcDbEntity
  8
RACCORDO
100
AcDbLine
 62
7
  6
CONTINUOUS
 10
9.5242414733
 20
19.8214572617
 11
9.65
 21
20.1990396502
  0
LINE
  5
4A0
100
AcDbEntity
  8
DRAFT
100
AcDbLine
 62
7
  6
CONTINUOUS
 10
-9.9
 20
-13.9331620976
 11
-9.8851643248
 21
-13.9183264224
  0
LINE
  5
4A1
100
AcDbEntity
  8
0
100
AcDbLine
 62
7
  6
CONTINUOUS
 10
8.9
 20
4.7
 11
8.8
 21
4.6
  0
LINE
  5
4A2
100
AcDbEntity
  8
DRAFT
100
AcDbLine
 62
7
  6
CONTINUOUS
 10
-11.1
 20
-15.5
 11
-11.0668379024
 21
-15.4668379024
  0
LINE
  5
4A3
100
AcDbEntity
  8
ASSI
100
AcDbLine
 62
7
  6
CONTINUOUS
 10
-9.606485188
 20
-8.478244251
 11
-9.65
 21
-8.5
  0
LINE
  5
4A4
100
AcDbEntity
  8
DRAFT
100
AcDbLine
 62
7
  6
CONTINUOUS
 10
-9.606485188
 20
-8.478244251
 11
-9.65
 21
-8.5
  0
LINE
  5
4A5
100
AcDbEntity
  8
RACCORDO
100
AcDbLine
 62
7
  6
CONTINUOUS
 10
6.5
 20
2.2
 11
-6.5
 21
2.2
  0
LINE
  5
4A6
100
AcDbEntity
  8
DRAFT
100
AcDbLine
 62
7
  6
CONTINUOUS
 10
9.9
 20
-6.6
 11
9.8851643248
 21
-6.5851643248
  0
LINE
  5
4A7
100
AcDbEntity
  8
DRAFT
100
AcDbLine
 62
7
  6
CONTINUOUS
 10
-9.9
 20
13.5
 11
-9.8851643248
 21
13.4851643248
  0
LINE
  5
4A8
100
AcDbEntity
  8
ASSI
100
AcDbLine
 62
7
  6
CONTINUOUS
 10
9.65
 20
-20.1990396502
 11
9.6133443637
 21
-20.0889833137
  0
LINE
  5
4A9
100
AcDbEntity
  8
0
100
AcDbLine
 62
7
  6
CONTINUOUS
 10
9.65
 20
-20.1990396502
 11
9.6133443637
 21
-20.0889833137
  0
LINE
  5
4AA
100
AcDbEntity
  8
ASSI
100
AcDbLine
 62
7
  6
CONTINUOUS
 10
9.5553984776
 20
-19.4260209733
 11
9.6100360562
 21
-19.5900670064
  0
LINE
  5
4AB
100
AcDbEntity
  8
RACCORDO
100
AcDbLine
 62
7
  6
CONTINUOUS
 10
9.5553984776
 20
-19.4260209733
 11
9.6100360562
 21
-19.5900670064
  0
LINE
  5
4AC
100
AcDbEntity
  8
ASSI
100
AcDbLine
 62
7
  6
CONTINUOUS
 10
6.4527028411
 20
-19.4260209733
 11
6.4800195499
 21
-19.5900670064
  0
LINE
  5
4AD
100
AcDbEntity
  8
RACCORDO
100
AcDbLine
 62
7
  6
CONTINUOUS
 10
6.4527028411
 20
-19.4260209733
 11
6.4800195499
 21
-19.5900670064
  0
LINE
  5
4AE
100
AcDbEntity
  8
ASSI
100
AcDbLine
 62
253
  6
CONTINUOUS
 10
4.2026066368
 20
-17.7956556053
 11
4.2026066368
 21
-20.0322894108
  0
LINE
  5
4AF
100
AcDbEntity
  8
RACCORDO
100
AcDbLine
 62
253
  6
CONTINUOUS
 10
4.2026066368
 20
-17.7956556053
 11
4.2026066368
 21
-20.0322894108
  0
LINE
  5
4B0
100
AcDbEntity
  8
0
100
AcDbLine
 62
7
  6
CONTINUOUS
 10
4.25
 20
-4.1
 11
4.25
 21
-5.9
  0
LINE
  5
4B1
100
AcDbEntity
  8
ASSI
100
AcDbLine
 62
7
  6
CONTINUOUS
 10
4.406077753
 20
-23.9538922731
 11
4.406077753
 21
-22.356077753
  0
LINE
  5
4B2
100
AcDbEntity
  8
0
100
AcDbLine
 62
7
  6
CONTINUOUS
 10
4.406077753
 20
-23.9538922731
 11
4.406077753
 21
-22.356077753
  0
LINE
  5
4B3
100
AcDbEntity
  8
ASSI
100
AcDbLine
 62
7
  6
CONTINUOUS
 10
4.406077753
 20
22.356077753
 11
4.406077753
 21
23.9538922731
  0
LINE
  5
4B4
100
AcDbEntity
  8
0
100
AcDbLine
 62
7
  6
CONTINUOUS
 10
4.406077753
 20
22.356077753
 11
4.406077753
 21
23.9538922731
  0
LINE
  5
4B5
100
AcDbEntity
  8
ASSI
100
AcDbLine
 62
7
  6
CONTINUOUS
 10
4.45
 20
-24.0
 11
4.45
 21
-23.3679449472
  0
LINE
  5
4B6
100
AcDbEntity
  8
0
100
AcDbLine
 62
7
  6
CONTINUOUS
 10
4.45
 20
-24.0
 11
4.45
 21
-23.3679449472
  0
LINE
  5
4B7
100
AcDbEntity
  8
ASSI
100
AcDbLine
 62
7
  6
CONTINUOUS
 10
4.45
 20
-22.9320550528
 11
4.45
 21
-22.4
  0
LINE
  5
4B8
100
AcDbEntity
  8
0
100
AcDbLine
 62
7
  6
CONTINUOUS
 10
4.45
 20
-22.9320550528
 11
4.45
 21
-22.4
  0
LINE
  5
4B9
100
AcDbEntity
  8
ASSI
100
AcDbLine
 62
7
  6
CONTINUOUS
 10
4.45
 20
22.4
 11
4.45
 21
22.9320550528
  0
LINE
  5
4BA
100
AcDbEntity
  8
0
100
AcDbLine
 62
7
  6
CONTINUOUS
 10
4.45
 20
22.4
 11
4.45
 21
22.9320550528
  0
LINE
  5
4BB
100
AcDbEntity
  8
ASSI
100
AcDbLine
 62
7
  6
CONTINUOUS
 10
4.45
 20
23.3679449472
 11
4.45
 21
24.0
  0
LINE
  5
4BC
100
AcDbEntity
  8
0
100
AcDbLine
 62
7
  6
CONTINUOUS
 10
4.45
 20
23.3679449472
 11
4.45
 21
24.0
  0
LINE
  5
4BD
100
AcDbEntity
  8
ASSI
100
AcDbLine
 62
7
  6
CONTINUOUS
 10
4.5025952137
 20
-17.7956556053
 11
4.5025952137
 21
-20.0296941971
  0
LINE
  5
4BE
100
AcDbEntity
  8
RACCORDO
100
AcDbLine
 62
7
  6
CONTINUOUS
 10
4.5025952137
 20
-17.7956556053
 11
4.5025952137
 21
-20.0296941971
  0
LINE
  5
4BF
100
AcDbEntity
  8
ASSI
100
AcDbLine
 62
7
  6
CONTINUOUS
 10
4.5322894108
 20
-19.7897929133
 11
4.5322894108
 21
-20.0
  0
LINE
  5
4C0
100
AcDbEntity
  8
RACCORDO
100
AcDbLine
 62
7
  6
CONTINUOUS
 10
4.5322894108
 20
-19.7897929133
 11
4.5322894108
 21
-20.0
  0
LINE
  5
4C1
100
AcDbEntity
  8
Z030100_COP
100
AcDbLine
 62
7
  6
CONTINUOUS
 10
5.45
 20
14.1
 11
5.45
 21
13.9
  0
LINE
  5
4C2
100
AcDbEntity
  8
ASSI
100
AcDbLine
 62
7
  6
CONTINUOUS
 10
4.5612601473
 20
-19.4260209733
 11
4.563284597
 21
-17.5367039799
  0
LINE
  5
4C3
100
AcDbEntity
  8
RACCORDO
100
AcDbLine
 62
7
  6
CONTINUOUS
 10
4.5612601473
 20
-19.4260209733
 11
4.563284597
 21
-17.5367039799
  0
LINE
  5
4C4
100
AcDbEntity
  8
ASSI
100
AcDbLine
 62
253
  6
CONTINUOUS
 10
6.5959955457
 20
20.0049452141
 11
6.4356905824
 21
18.5586556733
  0
LINE
  5
4C5
100
AcDbEntity
  8
RACCORDO
100
AcDbLine
 62
253
  6
CONTINUOUS
 10
6.5959955457
 20
20.0049452141
 11
6.4356905824
 21
18.5586556733
  0
LINE
  5
4C6
100
AcDbEntity
  8
DRAFT
100
AcDbLine
 62
7
  6
CONTINUOUS
 10
-7.1755647702
 20
-13.8755647702
 11
-7.2183264224
 21
-13.9183264224
  0
LINE
  5
4C7
100
AcDbEntity
  8
RACCORDO
100
AcDbLine
 62
7
  6
CONTINUOUS
 10
-9.0
 20
4.6
 11
9.0
 21
4.6
  0
LINE
  5
4C8
100
AcDbEntity
  8
0
100
AcDbLine
 62
7
  6
CONTINUOUS
 10
2.95
 20
4.6
 11
2.85
 21
4.7
  0
LINE
  5
4C9
100
AcDbEntity
  8
DRAFT
100
AcDbLine
 62
7
  6
CONTINUOUS
 10
-9.5831620976
 20
17.4331620976
 11
-9.55
 21
17.4
  0
LINE
  5
4CA
100
AcDbEntity
  8
DRAFT
100
AcDbLine
 62
7
  6
CONTINUOUS
 10
-11.1
 20
19.0
 11
-11.0668379024
 21
18.9668379024
  0
LINE
  5
4CB
100
AcDbEntity
  8
ASSI
100
AcDbLine
 62
253
  6
CONTINUOUS
 10
6.5959955457
 20
-20.0049452141
 11
6.4519304353
 21
-18.7051734659
  0
LINE
  5
4CC
100
AcDbEntity
  8
RACCORDO
100
AcDbLine
 62
253
  6
CONTINUOUS
 10
6.5959955457
 20
-20.0049452141
 11
6.4519304353
 21
-18.7051734659
  0
LINE
  5
4CD
100
AcDbEntity
  8
ASSI
100
AcDbLine
 62
253
  6
CONTINUOUS
 10
7.254371834
 20
-23.8443375673
 11
7.25
 21
-23.4104851482
  0
LINE
  5
4CE
100
AcDbEntity
  8
0
100
AcDbLine
 62
253
  6
CONTINUOUS
 10
7.254371834
 20
-23.8443375673
 11
7.25
 21
-23.4104851482
  0
LINE
  5
4CF
100
AcDbEntity
  8
ASSI
100
AcDbLine
 62
253
  6
CONTINUOUS
 10
7.5043676032
 20
-23.6278312164
 11
7.4992770021
 21
-23.1226497308
  0
LINE
  5
4D0
100
AcDbEntity
  8
0
100
AcDbLine
 62
253
  6
CONTINUOUS
 10
7.5043676032
 20
-23.6278312164
 11
7.4992770021
 21
-23.1226497308
  0
LINE
  5
4D1
100
AcDbEntity
  8
ASSI
100
AcDbLine
 62
7
  6
CONTINUOUS
 10
6.4527028411
 20
-19.4260209733
 11
6.4519304353
 21
-18.7051734659
  0
LINE
  5
4D2
100
AcDbEntity
  8
RACCORDO
100
AcDbLine
 62
7
  6
CONTINUOUS
 10
6.4527028411
 20
-19.4260209733
 11
6.4519304353
 21
-18.7051734659
  0
LINE
  5
4D3
100
AcDbEntity
  8
RACCORDO
100
AcDbLine
 62
7
  6
CONTINUOUS
 10
5.9
 20
-6.95
 11
5.9
 21
-5.9
  0
LINE
  5
4D4
100
AcDbEntity
  8
RACCORDO
100
AcDbLine
 62
253
  6
CONTINUOUS
 10
6.0
 20
4.6
 11
6.0
 21
2.2
  0
LINE
  5
4D5
100
AcDbEntity
  8
RACCORDO
100
AcDbLine
 62
7
  6
CONTINUOUS
 10
6.0
 20
-7.7
 11
6.0
 21
-6.95
  0
LINE
  5
4D6
100
AcDbEntity
  8
Z030100_COP
100
AcDbLine
 62
7
  6
CONTINUOUS
 10
6.35
 20
14.1
 11
6.35
 21
13.9
  0
LINE
  5
4D7
100
AcDbEntity
  8
ASSI
100
AcDbLine
 62
7
  6
CONTINUOUS
 10
6.4816735776
 20
-19.7897929133
 11
6.4816735776
 21
-20.0
  0
LINE
  5
4D8
100
AcDbEntity
  8
RACCORDO
100
AcDbLine
 62
7
  6
CONTINUOUS
 10
6.4816735776
 20
-19.7897929133
 11
6.4816735776
 21
-20.0
  0
LINE
  5
4D9
100
AcDbEntity
  8
RACCORDO
100
AcDbLine
 62
7
  6
CONTINUOUS
 10
6.5
 20
4.6
 11
6.5
 21
2.2
  0
LINE
  5
4DA
100
AcDbEntity
  8
ASSI
100
AcDbLine
 62
7
  6
CONTINUOUS
 10
6.5959955457
 20
20.1143219681
 11
6.5959955457
 21
20.0049452141
  0
LINE
  5
4DB
100
AcDbEntity
  8
RACCORDO
100
AcDbLine
 62
7
  6
CONTINUOUS
 10
6.5959955457
 20
20.1143219681
 11
6.5959955457
 21
20.0049452141
  0
LINE
  5
4DC
100
AcDbEntity
  8
ASSI
100
AcDbLine
 62
7
  6
CONTINUOUS
 10
6.5959955457
 20
-20.0049452141
 11
6.5959955457
 21
-20.1143219681
  0
LINE
  5
4DD
100
AcDbEntity
  8
RACCORDO
100
AcDbLine
 62
7
  6
CONTINUOUS
 10
6.5959955457
 20
-20.0049452141
 11
6.5959955457
 21
-20.1143219681
  0
LINE
  5
4DE
100
AcDbEntity
  8
DRAFT
100
AcDbLine
 62
7
  6
CONTINUOUS
 10
7.1502568536
 20
-13.8502568536
 11
7.1502568536
 21
-10.9
  0
LINE
  5
4DF
100
AcDbEntity
  8
ASSI
100
AcDbLine
 62
7
  6
CONTINUOUS
 10
7.2040044543
 20
20.9959955457
 11
7.2040044543
 21
20.0049452141
  0
LINE
  5
4E0
100
AcDbEntity
  8
RACCORDO
100
AcDbLine
 62
7
  6
CONTINUOUS
 10
7.2040044543
 20
20.9959955457
 11
7.2040044543
 21
20.0049452141
  0
LINE
  5
4E1
100
AcDbEntity
  8
ASSI
100
AcDbLine
 62
7
  6
CONTINUOUS
 10
7.2040044543
 20
-20.9959955457
 11
7.2040044543
 21
-20.0049452141
  0
LINE
  5
4E2
100
AcDbEntity
  8
RACCORDO
100
AcDbLine
 62
7
  6
CONTINUOUS
 10
7.2040044543
 20
-20.9959955457
 11
7.2040044543
 21
-20.0049452141
  0
LINE
  5
4E3
100
AcDbEntity
  8
DRAFT
100
AcDbLine
 62
7
  6
CONTINUOUS
 10
7.2183264224
 20
-12.0148356752
 11
7.2183264224
 21
-13.9183264224
  0
LINE
  5
4E4
100
AcDbEntity
  8
DRAFT
100
AcDbLine
 62
7
  6
CONTINUOUS
 10
7.2244352298
 20
-9.5087268678
 11
7.2244352298
 21
-10.5087268678
  0
LINE
  5
4E5
100
AcDbEntity
  8
DRAFT
100
AcDbLine
 62
7
  6
CONTINUOUS
 10
7.2331620976
 20
-9.5
 11
7.2331620976
 21
-12.0
  0
LINE
  5
4E6
100
AcDbEntity
  8
0
100
AcDbLine
 62
7
  6
CONTINUOUS
 10
7.25
 20
23.8443375673
 11
7.25
 21
23.4104851482
  0
LINE
  5
4E7
100
AcDbEntity
  8
RACCORDO
100
AcDbLine
 62
7
  6
CONTINUOUS
 10
7.25
 20
-23.4104851482
 11
7.25
 21
-22.6002134903
  0
LINE
  5
4E8
100
AcDbEntity
  8
ASSI
100
AcDbLine
 62
7
  6
CONTINUOUS
 10
7.25
 20
-22.6002134903
 11
7.25
 21
-23.8443375673
  0
LINE
  5
4E9
100
AcDbEntity
  8
0
100
AcDbLine
 62
7
  6
CONTINUOUS
 10
7.25
 20
-23.4104851482
 11
7.25
 21
-23.8443375673
  0
LINE
  5
4EA
100
AcDbEntity
  8
ASSI
100
AcDbLine
 62
7
  6
CONTINUOUS
 10
7.25
 20
22.6002134903
 11
7.25
 21
23.8443375673
  0
LINE
  5
4EB
100
AcDbEntity
  8
RACCORDO
100
AcDbLine
 62
7
  6
CONTINUOUS
 10
7.25
 20
22.6002134903
 11
7.25
 21
23.4104851482
  0
LINE
  5
4EC
100
AcDbEntity
  8
ASSI
100
AcDbLine
 62
7
  6
CONTINUOUS
 10
7.254371834
 20
24.2456323968
 11
7.254371834
 21
23.8443375673
  0
LINE
  5
4ED
100
AcDbEntity
  8
0
100
AcDbLine
 62
7
  6
CONTINUOUS
 10
7.254371834
 20
24.2456323968
 11
7.254371834
 21
23.8443375673
  0
LINE
  5
4EE
100
AcDbEntity
  8
ASSI
100
AcDbLine
 62
7
  6
CONTINUOUS
 10
7.254371834
 20
-23.8443375673
 11
7.254371834
 21
-24.2456323968
  0
LINE
  5
4EF
100
AcDbEntity
  8
0
100
AcDbLine
 62
7
  6
CONTINUOUS
 10
7.254371834
 20
-23.8443375673
 11
7.254371834
 21
-24.2456323968
  0
LINE
  5
4F0
100
AcDbEntity
  8
ASSI
100
AcDbLine
 62
7
  6
CONTINUOUS
 10
7.3183264224
 20
-19.7897929133
 11
7.3183264224
 21
-20.7899436635
  0
LINE
  5
4F1
100
AcDbEntity
  8
RACCORDO
100
AcDbLine
 62
7
  6
CONTINUOUS
 10
7.3183264224
 20
-19.7897929133
 11
7.3183264224
 21
-20.7899436635
  0
LINE
  5
4F2
100
AcDbEntity
  8
DRAFT
100
AcDbLine
 62
7
  6
CONTINUOUS
 10
7.4
 20
-7.2
 11
7.4
 21
-6.95
  0
LINE
  5
4F3
100
AcDbEntity
  8
RACCORDO
100
AcDbLine
 62
7
  6
CONTINUOUS
 10
7.4
 20
-6.95
 11
7.4
 21
-5.9
  0
LINE
  5
4F4
100
AcDbEntity
  8
RACCORDO
100
AcDbLine
 62
7
  6
CONTINUOUS
 10
7.4122404615
 20
-7.6026179606
 11
7.4122404615
 21
-6.5974047863
  0
LINE
  5
4F5
100
AcDbEntity
  8
ASSI
100
AcDbLine
 62
253
  6
CONTINUOUS
 10
7.5043676032
 20
-23.6278312164
 11
7.5043676032
 21
-24.495628166
  0
LINE
  5
4F6
100
AcDbEntity
  8
0
100
AcDbLine
 62
253
  6
CONTINUOUS
 10
7.5043676032
 20
-23.6278312164
 11
7.5043676032
 21
-24.495628166
  0
LINE
  5
4F7
100
AcDbEntity
  8
ASSI
100
AcDbLine
 62
253
  6
CONTINUOUS
 10
7.5043676032
 20
23.6278312164
 11
7.5043676032
 21
24.495628166
  0
LINE
  5
4F8
100
AcDbEntity
  8
0
100
AcDbLine
 62
253
  6
CONTINUOUS
 10
7.5043676032
 20
23.6278312164
 11
7.5043676032
 21
24.495628166
  0
LINE
  5
4F9
100
AcDbEntity
  8
ASSI
100
AcDbLine
 62
7
  6
CONTINUOUS
 10
7.3472971589
 20
-19.4260209733
 11
7.3480695647
 21
-18.7051734659
  0
LINE
  5
4FA
100
AcDbEntity
  8
RACCORDO
100
AcDbLine
 62
7
  6
CONTINUOUS
 10
7.3472971589
 20
-19.4260209733
 11
7.3480695647
 21
-18.7051734659
  0
LINE
  5
4FB
100
AcDbEntity
  8
ASSI
100
AcDbLine
 62
253
  6
CONTINUOUS
 10
7.25
 20
23.4104851482
 11
7.254371834
 21
23.8443375673
  0
LINE
  5
4FC
100
AcDbEntity
  8
0
100
AcDbLine
 62
253
  6
CONTINUOUS
 10
7.25
 20
23.4104851482
 11
7.254371834
 21
23.8443375673
  0
LINE
  5
4FD
100
AcDbEntity
  8
ASSI
100
AcDbLine
 62
253
  6
CONTINUOUS
 10
7.4992770021
 20
23.1226497308
 11
7.5043676032
 21
23.6278312164
  0
LINE
  5
4FE
100
AcDbEntity
  8
0
100
AcDbLine
 62
253
  6
CONTINUOUS
 10
7.4992770021
 20
23.1226497308
 11
7.5043676032
 21
23.6278312164
  0
LINE
  5
4FF
100
AcDbEntity
  8
0
100
AcDbLine
 62
7
  6
CONTINUOUS
 10
-2.85
 20
7.25
 11
2.85
 21
7.25
  0
LINE
  5
500
100
AcDbEntity
  8
0
100
AcDbLine
 62
7
  6
CONTINUOUS
 10
-4.275
 20
13.9
 11
-3.575
 21
13.2
  0
LINE
  5
501
100
AcDbEntity
  8
DRAFT
100
AcDbLine
 62
7
  6
CONTINUOUS
 10
8.3
 20
-7.9673010759
 11
8.3575973274
 21
-8.1977781546
  0
LINE
  5
502
100
AcDbEntity
  8
ASSI
100
AcDbLine
 62
7
  6
CONTINUOUS
 10
9.5121049871
 20
-16.2
 11
9.5494593275
 21
-16.6548771492
  0
LINE
  5
503
100
AcDbEntity
  8
DRAFT
100
AcDbLine
 62
7
  6
CONTINUOUS
 10
9.5121049871
 20
-16.2
 11
9.5494593275
 21
-16.6548771492
  0
LINE
  5
504
100
AcDbEntity
  8
ASSI
100
AcDbLine
 62
253
  6
CONTINUOUS
 10
7.5666456542
 20
21.3359869487
 11
7.5666456542
 21
20.9959955457
  0
LINE
  5
505
100
AcDbEntity
  8
0
100
AcDbLine
 62
253
  6
CONTINUOUS
 10
7.5666456542
 20
21.3359869487
 11
7.5666456542
 21
20.9959955457
  0
LINE
  5
506
100
AcDbEntity
  8
ASSI
100
AcDbLine
 62
253
  6
CONTINUOUS
 10
7.5666456542
 20
-20.9959955457
 11
7.5666456542
 21
-21.3359869487
  0
LINE
  5
507
100
AcDbEntity
  8
0
100
AcDbLine
 62
253
  6
CONTINUOUS
 10
7.5666456542
 20
-20.9959955457
 11
7.5666456542
 21
-21.3359869487
  0
LINE
  5
508
100
AcDbEntity
  8
RACCORDO
100
AcDbLine
 62
253
  6
CONTINUOUS
 10
7.7122290384
 20
-7.9
 11
7.7122290384
 21
-6.6
  0
LINE
  5
509
100
AcDbEntity
  8
DRAFT
100
AcDbLine
 62
7
  6
CONTINUOUS
 10
7.8
 20
18.9668379024
 11
7.8
 21
17.4331620976
  0
LINE
  5
50A
100
AcDbEntity
  8
DRAFT
100
AcDbLine
 62
7
  6
CONTINUOUS
 10
7.9152034285
 20
17.3755647702
 11
7.9152034285
 21
16.8
  0
LINE
  5
50B
100
AcDbEntity
  8
ASSI
100
AcDbLine
 62
253
  6
CONTINUOUS
 10
8.0665695018
 20
21.4537354271
 11
8.0665695018
 21
20.9917082642
  0
LINE
  5
50C
100
AcDbEntity
  8
0
100
AcDbLine
 62
253
  6
CONTINUOUS
 10
8.0665695018
 20
21.4537354271
 11
8.0665695018
 21
20.9917082642
  0
LINE
  5
50D
100
AcDbEntity
  8
ASSI
100
AcDbLine
 62
253
  6
CONTINUOUS
 10
8.0665695018
 20
-20.9917082642
 11
8.0665695018
 21
-21.4537354271
  0
LINE
  5
50E
100
AcDbEntity
  8
0
100
AcDbLine
 62
253
  6
CONTINUOUS
 10
8.0665695018
 20
-20.9917082642
 11
8.0665695018
 21
-21.4537354271
  0
LINE
  5
50F
100
AcDbEntity
  8
Z030100_COP
100
AcDbLine
 62
7
  6
CONTINUOUS
 10
8.15
 20
13.225
 11
8.15
 21
14.1
  0
LINE
  5
510
100
AcDbEntity
  8
0
100
AcDbLine
 62
7
  6
CONTINUOUS
 10
8.175
 20
13.2
 11
8.175
 21
8.3
  0
LINE
  5
511
100
AcDbEntity
  8
RACCORDO
100
AcDbLine
 62
253
  6
CONTINUOUS
 10
8.2
 20
4.6
 11
8.2
 21
-5.9
  0
LINE
  5
512
100
AcDbEntity
  8
ASSI
100
AcDbLine
 62
7
  6
CONTINUOUS
 10
8.25
 20
21.4
 11
8.25
 21
20.9
  0
LINE
  5
513
100
AcDbEntity
  8
0
100
AcDbLine
 62
7
  6
CONTINUOUS
 10
8.25
 20
21.4
 11
8.25
 21
20.9
  0
LINE
  5
514
100
AcDbEntity
  8
ASSI
100
AcDbLine
 62
7
  6
CONTINUOUS
 10
8.25
 20
-20.9
 11
8.25
 21
-21.4
  0
LINE
  5
515
100
AcDbEntity
  8
0
100
AcDbLine
 62
7
  6
CONTINUOUS
 10
8.25
 20
-20.9
 11
8.25
 21
-21.4
  0
LINE
  5
516
100
AcDbEntity
  8
DRAFT
100
AcDbLine
 62
7
  6
CONTINUOUS
 10
8.3
 20
-10.7304770786
 11
8.3
 21
-7.9673010759
  0
LINE
  5
517
100
AcDbEntity
  8
DRAFT
100
AcDbLine
 62
7
  6
CONTINUOUS
 10
8.3575973274
 20
-10.5
 11
8.3575973274
 21
-9.9
  0
LINE
  5
518
100
AcDbEntity
  8
DRAFT
100
AcDbLine
 62
7
  6
CONTINUOUS
 10
8.3575973274
 20
-8.7
 11
8.3575973274
 21
-8.1977781546
  0
LINE
  5
519
100
AcDbEntity
  8
Z030100_COP
100
AcDbLine
 62
253
  6
CONTINUOUS
 10
8.65
 20
15.6
 11
8.65
 21
8.7
  0
LINE
  5
51A
100
AcDbEntity
  8
ASSI
100
AcDbLine
 62
7
  6
CONTINUOUS
 10
8.778184492
 20
17.221815508
 11
8.778184492
 21
15.5711743725
  0
LINE
  5
51B
100
AcDbEntity
  8
DRAFT
100
AcDbLine
 62
7
  6
CONTINUOUS
 10
8.778184492
 20
17.221815508
 11
8.778184492
 21
15.5711743725
  0
LINE
  5
51C
100
AcDbEntity
  8
ASSI
100
AcDbLine
 62
7
  6
CONTINUOUS
 10
8.778184492
 20
-8.478184492
 11
8.778184492
 21
-10.321815508
  0
LINE
  5
51D
100
AcDbEntity
  8
DRAFT
100
AcDbLine
 62
7
  6
CONTINUOUS
 10
8.778184492
 20
-8.478184492
 11
8.778184492
 21
-10.321815508
  0
LINE
  5
51E
100
AcDbEntity
  8
ASSI
100
AcDbLine
 62
7
  6
CONTINUOUS
 10
8.7867049498
 20
17.2132950502
 11
8.7867049498
 21
15.566729405
  0
LINE
  5
51F
100
AcDbEntity
  8
DRAFT
100
AcDbLine
 62
7
  6
CONTINUOUS
 10
8.7867049498
 20
17.2132950502
 11
8.7867049498
 21
15.566729405
  0
LINE
  5
520
100
AcDbEntity
  8
ASSI
100
AcDbLine
 62
7
  6
CONTINUOUS
 10
8.7867049498
 20
-8.4867049498
 11
8.7867049498
 21
-10.3132950502
  0
LINE
  5
521
100
AcDbEntity
  8
DRAFT
100
AcDbLine
 62
7
  6
CONTINUOUS
 10
8.7867049498
 20
-8.4867049498
 11
8.7867049498
 21
-10.3132950502
  0
LINE
  5
522
100
AcDbEntity
  8
0
100
AcDbLine
 62
7
  6
CONTINUOUS
 10
8.9
 20
8.3
 11
8.9
 21
4.7
  0
LINE
  5
523
100
AcDbEntity
  8
Z030100_COP
100
AcDbLine
 62
7
  6
CONTINUOUS
 10
8.95
 20
15.3
 11
8.95
 21
8.4
  0
LINE
  5
524
100
AcDbEntity
  8
RACCORDO
100
AcDbLine
 62
7
  6
CONTINUOUS
 10
9.0
 20
4.6
 11
9.0
 21
-5.9
  0
LINE
  5
525
100
AcDbEntity
  8
0
100
AcDbLine
 62
7
  6
CONTINUOUS
 10
9.0
 20
4.6
 11
9.0
 21
12.0
  0
LINE
  5
526
100
AcDbEntity
  8
ASSI
100
AcDbLine
 62
7
  6
CONTINUOUS
 10
8.0344917046
 20
-16.6548771492
 11
8.0594950616
 21
-15.5
  0
LINE
  5
527
100
AcDbEntity
  8
RACCORDO
100
AcDbLine
 62
7
  6
CONTINUOUS
 10
8.0344917046
 20
-16.6548771492
 11
8.0594950616
 21
-15.5
  0
LINE
  5
528
100
AcDbEntity
  8
ASSI
100
AcDbLine
 62
7
  6
CONTINUOUS
 10
8.2547430141
 20
-15.507774954
 11
8.2351447635
 21
-16.4129962748
  0
LINE
  5
529
100
AcDbEntity
  8
DRAFT
100
AcDbLine
 62
7
  6
CONTINUOUS
 10
8.2547430141
 20
-15.507774954
 11
8.2351447635
 21
-16.4129962748
  0
LINE
  5
52A
100
AcDbEntity
  8
DRAFT
100
AcDbLine
 62
7
  6
CONTINUOUS
 10
7.1502568536
 20
-10.9
 11
7.1716744602
 21
-10.5614876374
  0
LINE
  5
52B
100
AcDbEntity
  8
ASSI
100
AcDbLine
 62
253
  6
CONTINUOUS
 10
7.2040044543
 20
-20.0049452141
 11
7.3480695647
 21
-18.7051734659
  0
LINE
  5
52C
100
AcDbEntity
  8
RACCORDO
100
AcDbLine
 62
253
  6
CONTINUOUS
 10
7.2040044543
 20
-20.0049452141
 11
7.3480695647
 21
-18.7051734659
  0
LINE
  5
52D
100
AcDbEntity
  8
ASSI
100
AcDbLine
 62
7
  6
CONTINUOUS
 10
4.5612601473
 20
-19.4260209733
 11
4.5339434386
 21
-19.5900670064
  0
LINE
  5
52E
100
AcDbEntity
  8
RACCORDO
100
AcDbLine
 62
7
  6
CONTINUOUS
 10
4.5612601473
 20
-19.4260209733
 11
4.5339434386
 21
-19.5900670064
  0
LINE
  5
52F
100
AcDbEntity
  8
ASSI
100
AcDbLine
 62
7
  6
CONTINUOUS
 10
-3.9700513793
 20
-16.8647171262
 11
-3.7693983204
 21
-16.6228362517
  0
LINE
  5
530
100
AcDbEntity
  8
DRAFT
100
AcDbLine
 62
7
  6
CONTINUOUS
 10
-3.9700513793
 20
-16.8647171262
 11
-3.7693983204
 21
-16.6228362517
  0
LINE
  5
531
100
AcDbEntity
  8
DRAFT
100
AcDbLine
 62
7
  6
CONTINUOUS
 10
-5.4842904416
 20
-11.5
 11
-5.4493803117
 21
-11.4825462644
  0
LINE
  5
532
100
AcDbEntity
  8
0
100
AcDbLine
 62
7
  6
CONTINUOUS
 10
-8.9
 20
8.3
 11
-8.175
 21
8.3
  0
LINE
  5
533
100
AcDbEntity
  8
0
100
AcDbLine
 62
7
  6
CONTINUOUS
 10
-3.575
 20
8.3
 11
-2.85
 21
8.3
  0
LINE
  5
534
100
AcDbEntity
  8
0
100
AcDbLine
 62
7
  6
CONTINUOUS
 10
2.85
 20
8.3
 11
3.575
 21
8.3
  0
LINE
  5
535
100
AcDbEntity
  8
0
100
AcDbLine
 62
7
  6
CONTINUOUS
 10
8.175
 20
8.3
 11
8.9
 21
8.3
  0
LINE
  5
536
100
AcDbEntity
  8
Z030100_COP
100
AcDbLine
 62
7
  6
CONTINUOUS
 10
8.95
 20
8.4
 11
8.75
 21
8.4
  0
LINE
  5
537
100
AcDbEntity
  8
Z030100_COP
100
AcDbLine
 62
7
  6
CONTINUOUS
 10
-8.75
 20
8.4
 11
-8.95
 21
8.4
  0
LINE
  5
538
100
AcDbEntity
  8
DRAFT
100
AcDbLine
 62
7
  6
CONTINUOUS
 10
11.0668379024
 20
-7.9673010759
 11
11.1
 21
-8.1
  0
LINE
  5
539
100
AcDbEntity
  8
ASSI
100
AcDbLine
 62
253
  6
CONTINUOUS
 10
7.2040044543
 20
20.0049452141
 11
7.3643094176
 21
18.5586556733
  0
LINE
  5
53A
100
AcDbEntity
  8
RACCORDO
100
AcDbLine
 62
253
  6
CONTINUOUS
 10
7.2040044543
 20
20.0049452141
 11
7.3643094176
 21
18.5586556733
  0
LINE
  5
53B
100
AcDbEntity
  8
ASSI
100
AcDbLine
 62
253
  6
CONTINUOUS
 10
9.8956323968
 20
23.6278312164
 11
9.9007229979
 21
23.1226497308
  0
LINE
  5
53C
100
AcDbEntity
  8
0
100
AcDbLine
 62
253
  6
CONTINUOUS
 10
9.8956323968
 20
23.6278312164
 11
9.9007229979
 21
23.1226497308
  0
LINE
  5
53D
100
AcDbEntity
  8
ASSI
100
AcDbLine
 62
253
  6
CONTINUOUS
 10
10.145628166
 20
23.8443375673
 11
10.15
 21
23.4104851482
  0
LINE
  5
53E
100
AcDbEntity
  8
0
100
AcDbLine
 62
253
  6
CONTINUOUS
 10
10.145628166
 20
23.8443375673
 11
10.15
 21
23.4104851482
  0
LINE
  5
53F
100
AcDbEntity
  8
ASSI
100
AcDbLine
 62
7
  6
CONTINUOUS
 10
9.5494593275
 20
-16.6548771492
 11
9.5553984776
 21
-19.4260209733
  0
LINE
  5
540
100
AcDbEntity
  8
DRAFT
100
AcDbLine
 62
7
  6
CONTINUOUS
 10
9.5494593275
 20
-16.6548771492
 11
9.5553984776
 21
-19.4260209733
  0
LINE
  5
541
100
AcDbEntity
  8
RACCORDO
100
AcDbLine
 62
7
  6
CONTINUOUS
 10
9.45
 20
-16.4129962748
 11
9.45
 21
-15.8055387995
  0
LINE
  5
542
100
AcDbEntity
  8
DRAFT
100
AcDbLine
 62
7
  6
CONTINUOUS
 10
9.4522218454
 20
-10.5
 11
9.4522218454
 21
-10.3218668415
  0
LINE
  5
543
100
AcDbEntity
  8
DRAFT
100
AcDbLine
 62
7
  6
CONTINUOUS
 10
9.4522218454
 20
-8.4781331585
 11
9.4522218454
 21
-8.1977781546
  0
LINE
  5
544
100
AcDbEntity
  8
DRAFT
100
AcDbLine
 62
7
  6
CONTINUOUS
 10
9.4522218454
 20
15.0977781546
 11
9.4522218454
 21
15.3781331585
  0
LINE
  5
545
100
AcDbEntity
  8
DRAFT
100
AcDbLine
 62
7
  6
CONTINUOUS
 10
9.4522218454
 20
17.2218668415
 11
9.4522218454
 21
17.3755647702
  0
LINE
  5
546
100
AcDbEntity
  8
ASSI
100
AcDbLine
 62
7
  6
CONTINUOUS
 10
9.5
 20
-16.2
 11
9.5
 21
-15.9999428868
  0
LINE
  5
547
100
AcDbEntity
  8
RACCORDO
100
AcDbLine
 62
7
  6
CONTINUOUS
 10
9.5
 20
-16.2
 11
9.5
 21
-15.9999428868
  0
LINE
  5
548
100
AcDbEntity
  8
ASSI
100
AcDbLine
 62
7
  6
CONTINUOUS
 10
9.5121049871
 20
-16.2
 11
9.5121049871
 21
-15.5
  0
LINE
  5
549
100
AcDbEntity
  8
SMUSSO
100
AcDbLine
 62
7
  6
CONTINUOUS
 10
9.5121049871
 20
-16.2
 11
9.5121049871
 21
-15.5
  0
LINE
  5
54A
100
AcDbEntity
  8
ASSI
100
AcDbLine
 62
7
  6
CONTINUOUS
 10
9.5121049871
 20
-10.5598831416
 11
9.5121049871
 21
-10.3218714021
  0
LINE
  5
54B
100
AcDbEntity
  8
SMUSSO
100
AcDbLine
 62
7
  6
CONTINUOUS
 10
9.5121049871
 20
-10.5598831416
 11
9.5121049871
 21
-10.3218714021
  0
LINE
  5
54C
100
AcDbEntity
  8
ASSI
100
AcDbLine
 62
7
  6
CONTINUOUS
 10
9.5121049871
 20
-8.4781285979
 11
9.5121049871
 21
-8.1378950129
  0
LINE
  5
54D
100
AcDbEntity
  8
SMUSSO
100
AcDbLine
 62
7
  6
CONTINUOUS
 10
9.5121049871
 20
-8.4781285979
 11
9.5121049871
 21
-8.1378950129
  0
LINE
  5
54E
100
AcDbEntity
  8
DRAFT
100
AcDbLine
 62
7
  6
CONTINUOUS
 10
9.55
 20
15.0
 11
9.55
 21
17.4
  0
LINE
  5
54F
100
AcDbEntity
  8
DRAFT
100
AcDbLine
 62
7
  6
CONTINUOUS
 10
9.5831620976
 20
17.4331620976
 11
9.5831620976
 21
14.8673010759
  0
LINE
  5
550
100
AcDbEntity
  8
ASSI
100
AcDbLine
 62
7
  6
CONTINUOUS
 10
9.6133443637
 20
-20.0889833137
 11
9.6133443637
 21
-19.7897929133
  0
LINE
  5
551
100
AcDbEntity
  8
RACCORDO
100
AcDbLine
 62
7
  6
CONTINUOUS
 10
9.6133443637
 20
-20.0889833137
 11
9.6133443637
 21
-19.7897929133
  0
LINE
  5
552
100
AcDbEntity
  8
ASSI
100
AcDbLine
 62
7
  6
CONTINUOUS
 10
9.65
 20
20.1990396502
 11
9.65
 21
19.0
  0
LINE
  5
553
100
AcDbEntity
  8
DRAFT
100
AcDbLine
 62
7
  6
CONTINUOUS
 10
9.65
 20
20.1990396502
 11
9.65
 21
19.0
  0
LINE
  5
554
100
AcDbEntity
  8
ASSI
100
AcDbLine
 62
7
  6
CONTINUOUS
 10
9.65
 20
-8.1
 11
9.65
 21
-10.5977781546
  0
LINE
  5
555
100
AcDbEntity
  8
DRAFT
100
AcDbLine
 62
7
  6
CONTINUOUS
 10
9.65
 20
-8.1
 11
9.65
 21
-10.5977781546
  0
LINE
  5
556
100
AcDbEntity
  8
ASSI
100
AcDbLine
 62
7
  6
CONTINUOUS
 10
9.65
 20
-15.5
 11
9.65
 21
-20.1990396502
  0
LINE
  5
557
100
AcDbEntity
  8
DRAFT
100
AcDbLine
 62
7
  6
CONTINUOUS
 10
9.65
 20
-15.5
 11
9.65
 21
-20.1990396502
  0
LINE
  5
558
100
AcDbEntity
  8
DRAFT
100
AcDbLine
 62
7
  6
CONTINUOUS
 10
9.8851643248
 20
-13.9183264224
 11
9.8851643248
 21
-12.0148356752
  0
LINE
  5
559
100
AcDbEntity
  8
DRAFT
100
AcDbLine
 62
7
  6
CONTINUOUS
 10
9.8851643248
 20
-6.5851643248
 11
9.8851643248
 21
13.4851643248
  0
LINE
  5
55A
100
AcDbEntity
  8
ASSI
100
AcDbLine
 62
253
  6
CONTINUOUS
 10
9.8956323968
 20
-23.6278312164
 11
9.8956323968
 21
-24.495628166
  0
LINE
  5
55B
100
AcDbEntity
  8
0
100
AcDbLine
 62
253
  6
CONTINUOUS
 10
9.8956323968
 20
-23.6278312164
 11
9.8956323968
 21
-24.495628166
  0
LINE
  5
55C
100
AcDbEntity
  8
ASSI
100
AcDbLine
 62
253
  6
CONTINUOUS
 10
9.8956323968
 20
23.6278312164
 11
9.8956323968
 21
24.495628166
  0
LINE
  5
55D
100
AcDbEntity
  8
0
100
AcDbLine
 62
253
  6
CONTINUOUS
 10
9.8956323968
 20
23.6278312164
 11
9.8956323968
 21
24.495628166
  0
LINE
  5
55E
100
AcDbEntity
  8
DRAFT
100
AcDbLine
 62
7
  6
CONTINUOUS
 10
9.9
 20
-13.9331620976
 11
9.9
 21
-12.0
  0
LINE
  5
55F
100
AcDbEntity
  8
DRAFT
100
AcDbLine
 62
7
  6
CONTINUOUS
 10
9.9
 20
-6.6
 11
9.9
 21
13.5
  0
LINE
  5
560
100
AcDbEntity
  8
ASSI
100
AcDbLine
 62
7
  6
CONTINUOUS
 10
10.145628166
 20
-24.2456323968
 11
10.145628166
 21
-23.8443375673
  0
LINE
  5
561
100
AcDbEntity
  8
0
100
AcDbLine
 62
7
  6
CONTINUOUS
 10
10.145628166
 20
-24.2456323968
 11
10.145628166
 21
-23.8443375673
  0
LINE
  5
562
100
AcDbEntity
  8
ASSI
100
AcDbLine
 62
7
  6
CONTINUOUS
 10
10.145628166
 20
23.8443375673
 11
10.145628166
 21
24.2456323968
  0
LINE
  5
563
100
AcDbEntity
  8
0
100
AcDbLine
 62
7
  6
CONTINUOUS
 10
10.145628166
 20
23.8443375673
 11
10.145628166
 21
24.2456323968
  0
LINE
  5
564
100
AcDbEntity
  8
RACCORDO
100
AcDbLine
 62
7
  6
CONTINUOUS
 10
10.15
 20
23.4104851482
 11
10.15
 21
22.6002134903
  0
LINE
  5
565
100
AcDbEntity
  8
0
100
AcDbLine
 62
7
  6
CONTINUOUS
 10
10.15
 20
-23.8443375673
 11
10.15
 21
-23.4104851482
  0
LINE
  5
566
100
AcDbEntity
  8
ASSI
100
AcDbLine
 62
7
  6
CONTINUOUS
 10
10.15
 20
-22.6002134903
 11
10.15
 21
-23.8443375673
  0
LINE
  5
567
100
AcDbEntity
  8
RACCORDO
100
AcDbLine
 62
7
  6
CONTINUOUS
 10
10.15
 20
-22.6002134903
 11
10.15
 21
-23.4104851482
  0
LINE
  5
568
100
AcDbEntity
  8
ASSI
100
AcDbLine
 62
7
  6
CONTINUOUS
 10
10.15
 20
22.6002134903
 11
10.15
 21
23.8443375673
  0
LINE
  5
569
100
AcDbEntity
  8
0
100
AcDbLine
 62
7
  6
CONTINUOUS
 10
10.15
 20
23.4104851482
 11
10.15
 21
23.8443375673
  0
LINE
  5
56A
100
AcDbEntity
  8
DRAFT
100
AcDbLine
 62
7
  6
CONTINUOUS
 10
11.0668379024
 20
-15.4668379024
 11
11.0668379024
 21
-10.7304770786
  0
LINE
  5
56B
100
AcDbEntity
  8
DRAFT
100
AcDbLine
 62
7
  6
CONTINUOUS
 10
11.0668379024
 20
-7.9673010759
 11
11.0668379024
 21
18.9668379024
  0
LINE
  5
56C
100
AcDbEntity
  8
DRAFT
100
AcDbLine
 62
7
  6
CONTINUOUS
 10
11.1
 20
-15.5
 11
11.1
 21
-10.5977781546
  0
LINE
  5
56D
100
AcDbEntity
  8
DRAFT
100
AcDbLine
 62
7
  6
CONTINUOUS
 10
11.1
 20
-8.1
 11
11.1
 21
19.0
  0
LINE
  5
56E
100
AcDbEntity
  8
ASSI
100
AcDbLine
 62
7
  6
CONTINUOUS
 10
11.1412731322
 20
21.8941990932
 11
11.1412731322
 21
21.0226497308
  0
LINE
  5
56F
100
AcDbEntity
  8
0
100
AcDbLine
 62
7
  6
CONTINUOUS
 10
11.1412731322
 20
21.8941990932
 11
11.1412731322
 21
21.0226497308
  0
LINE
  5
570
100
AcDbEntity
  8
ASSI
100
AcDbLine
 62
7
  6
CONTINUOUS
 10
11.1412731322
 20
-21.0226497308
 11
11.1412731322
 21
-21.8941990932
  0
LINE
  5
571
100
AcDbEntity
  8
0
100
AcDbLine
 62
7
  6
CONTINUOUS
 10
11.1412731322
 20
-21.0226497308
 11
11.1412731322
 21
-21.8941990932
  0
LINE
  5
572
100
AcDbEntity
  8
ASSI
100
AcDbLine
 62
7
  6
CONTINUOUS
 10
11.15
 20
21.900016923
 11
11.15
 21
21.6
  0
LINE
  5
573
100
AcDbEntity
  8
0
100
AcDbLine
 62
7
  6
CONTINUOUS
 10
11.15
 20
21.900016923
 11
11.15
 21
21.6
  0
LINE
  5
574
100
AcDbEntity
  8
ASSI
100
AcDbLine
 62
7
  6
CONTINUOUS
 10
11.15
 20
-21.900016923
 11
11.15
 21
-21.6
  0
LINE
  5
575
100
AcDbEntity
  8
0
100
AcDbLine
 62
7
  6
CONTINUOUS
 10
11.15
 20
-21.900016923
 11
11.15
 21
-21.6
  0
LINE
  5
576
100
AcDbEntity
  8
ASSI
100
AcDbLine
 62
7
  6
CONTINUOUS
 10
11.1674550649
 20
21.0226497308
 11
11.1674550649
 21
-21.0226497308
  0
LINE
  5
577
100
AcDbEntity
  8
0
100
AcDbLine
 62
7
  6
CONTINUOUS
 10
11.1674550649
 20
21.0226497308
 11
11.1674550649
 21
-21.0226497308
  0
LINE
  5
578
100
AcDbEntity
  8
ASSI
100
AcDbLine
 62
253
  6
CONTINUOUS
 10
9.9007229979
 20
-23.1226497308
 11
9.8956323968
 21
-23.6278312164
  0
LINE
  5
579
100
AcDbEntity
  8
0
100
AcDbLine
 62
253
  6
CONTINUOUS
 10
9.9007229979
 20
-23.1226497308
 11
9.8956323968
 21
-23.6278312164
  0
LINE
  5
57A
100
AcDbEntity
  8
ASSI
100
AcDbLine
 62
253
  6
CONTINUOUS
 10
10.15
 20
-23.4104851482
 11
10.145628166
 21
-23.8443375673
  0
LINE
  5
57B
100
AcDbEntity
  8
0
100
AcDbLine
 62
253
  6
CONTINUOUS
 10
10.15
 20
-23.4104851482
 11
10.145628166
 21
-23.8443375673
  0
LINE
  5
57C
100
AcDbEntity
  8
ASSI
100
AcDbLine
 62
7
  6
CONTINUOUS
 10
9.5
 20
-16.2
 11
9.482508826
 21
-16.4129962748
  0
LINE
  5
57D
100
AcDbEntity
  8
DRAFT
100
AcDbLine
 62
7
  6
CONTINUOUS
 10
9.5
 20
-16.2
 11
9.482508826
 21
-16.4129962748
  0
LINE
  5
57E
100
AcDbEntity
  8
ASSI
100
AcDbLine
 62
7
  6
CONTINUOUS
 10
7.3472971589
 20
-19.4260209733
 11
7.3199804501
 21
-19.5900670064
  0
LINE
  5
57F
100
AcDbEntity
  8
RACCORDO
100
AcDbLine
 62
7
  6
CONTINUOUS
 10
7.3472971589
 20
-19.4260209733
 11
7.3199804501
 21
-19.5900670064
  0
LINE
  5
580
100
AcDbEntity
  8
ASSI
100
AcDbLine
 62
7
  6
CONTINUOUS
 10
7.3
 20
-20.9
 11
7.3183264224
 21
-20.7899436635
  0
LINE
  5
581
100
AcDbEntity
  8
DRAFT
100
AcDbLine
 62
7
  6
CONTINUOUS
 10
7.3
 20
-20.9
 11
7.3183264224
 21
-20.7899436635
  0
LINE
  5
582
100
AcDbEntity
  8
DRAFT
100
AcDbLine
 62
7
  6
CONTINUOUS
 10
8.3575973274
 20
-10.5
 11
8.3
 21
-10.7304770786
  0
LINE
  5
583
100
AcDbEntity
  8
ASSI
100
AcDbLine
 62
7
  6
CONTINUOUS
 10
-6.5959955457
 20
-20.1143219681
 11
-6.4816735776
 21
-20.0
  0
LINE
  5
584
100
AcDbEntity
  8
DRAFT
100
AcDbLine
 62
7
  6
CONTINUOUS
 10
-6.5959955457
 20
-20.1143219681
 11
-6.4816735776
 21
-20.0
  0
LINE
  5
585
100
AcDbEntity
  8
DRAFT
100
AcDbLine
 62
7
  6
CONTINUOUS
 10
-5.4842904416
 20
-13.8677105892
 11
-5.5
 21
-13.8755647702
  0
LINE
  5
586
100
AcDbEntity
  8
0
100
AcDbLine
 62
7
  6
CONTINUOUS
 10
-3.35
 20
9.55
 11
-2.05
 21
9.55
  0
LINE
  5
587
100
AcDbEntity
  8
0
100
AcDbLine
 62
7
  6
CONTINUOUS
 10
2.05
 20
9.55
 11
3.35
 21
9.55
  0
LINE
  5
588
100
AcDbEntity
  8
0
100
AcDbLine
 62
7
  6
CONTINUOUS
 10
-3.575
 20
9.85
 11
-3.35
 21
9.85
  0
LINE
  5
589
100
AcDbEntity
  8
0
100
AcDbLine
 62
7
  6
CONTINUOUS
 10
3.35
 20
9.85
 11
3.575
 21
9.85
  0
LINE
  5
58A
100
AcDbEntity
  8
Z030100_COP
100
AcDbLine
 62
7
  6
CONTINUOUS
 10
-3.575
 20
10.2
 11
-2.625
 21
10.2
  0
LINE
  5
58B
100
AcDbEntity
  8
Z030100_COP
100
AcDbLine
 62
7
  6
CONTINUOUS
 10
2.625
 20
10.2
 11
3.575
 21
10.2
  0
LINE
  5
58C
100
AcDbEntity
  8
0
100
AcDbLine
 62
7
  6
CONTINUOUS
 10
2.05
 20
10.8
 11
-2.05
 21
10.8
  0
LINE
  5
58D
100
AcDbEntity
  8
0
100
AcDbLine
 62
7
  6
CONTINUOUS
 10
2.625
 20
10.95
 11
-2.625
 21
10.95
  0
LINE
  5
58E
100
AcDbEntity
  8
ASSI
100
AcDbLine
 62
7
  6
CONTINUOUS
 10
-6.5959955457
 20
20.1143219681
 11
-6.4440923953
 21
19.9624188177
  0
LINE
  5
58F
100
AcDbEntity
  8
RACCORDO
100
AcDbLine
 62
7
  6
CONTINUOUS
 10
-6.5959955457
 20
20.1143219681
 11
-6.4440923953
 21
19.9624188177
  0
LINE
  5
590
100
AcDbEntity
  8
Z030100_COP
100
AcDbLine
 62
7
  6
CONTINUOUS
 10
8.75
 20
8.4
 11
8.175
 21
10.125
  0
LINE
  5
591
100
AcDbEntity
  8
ASSI
100
AcDbLine
 62
7
  6
CONTINUOUS
 10
7.3555468846
 20
20.5664222561
 11
7.3
 21
20.9
  0
LINE
  5
592
100
AcDbEntity
  8
RACCORDO
100
AcDbLine
 62
7
  6
CONTINUOUS
 10
7.3555468846
 20
20.5664222561
 11
7.3
 21
20.9
  0
LINE
  5
593
100
AcDbEntity
  8
ASSI
100
AcDbLine
 62
7
  6
CONTINUOUS
 10
11.15
 20
21.6
 11
11.1674550649
 21
21.0226497308
  0
LINE
  5
594
100
AcDbEntity
  8
0
100
AcDbLine
 62
7
  6
CONTINUOUS
 10
11.15
 20
21.6
 11
11.1674550649
 21
21.0226497308
  0
LINE
  5
595
100
AcDbEntity
  8
ASSI
100
AcDbLine
 62
7
  6
CONTINUOUS
 10
11.1674550649
 20
-21.0226497308
 11
11.15
 21
-21.6
  0
LINE
  5
596
100
AcDbEntity
  8
0
100
AcDbLine
 62
7
  6
CONTINUOUS
 10
11.1674550649
 20
-21.0226497308
 11
11.15
 21
-21.6
  0
LINE
  5
597
100
AcDbEntity
  8
DRAFT
100
AcDbLine
 62
7
  6
CONTINUOUS
 10
7.2331620976
 20
-9.5
 11
7.2244352298
 21
-9.5087268678
  0
LINE
  5
598
100
AcDbEntity
  8
DRAFT
100
AcDbLine
 62
7
  6
CONTINUOUS
 10
9.4522218454
 20
-8.1977781546
 11
9.55
 21
-8.1
  0
LINE
  5
599
100
AcDbEntity
  8
DRAFT
100
AcDbLine
 62
7
  6
CONTINUOUS
 10
7.1716744602
 20
-10.5614876374
 11
7.2244352298
 21
-10.5087268678
  0
LINE
  5
59A
100
AcDbEntity
  8
ASSI
100
AcDbLine
 62
7
  6
CONTINUOUS
 10
-4.45
 20
-22.4
 11
-4.406077753
 21
-22.356077753
  0
LINE
  5
59B
100
AcDbEntity
  8
0
100
AcDbLine
 62
7
  6
CONTINUOUS
 10
-4.45
 20
-22.4
 11
-4.406077753
 21
-22.356077753
  0
LINE
  5
59C
100
AcDbEntity
  8
ASSI
100
AcDbLine
 62
7
  6
CONTINUOUS
 10
-7.1905416262
 20
-22.3359700255
 11
-7.2558178298
 21
-22.3941821702
  0
LINE
  5
59D
100
AcDbEntity
  8
0
100
AcDbLine
 62
7
  6
CONTINUOUS
 10
-7.1905416262
 20
-22.3359700255
 11
-7.2558178298
 21
-22.3941821702
  0
LINE
  5
59E
100
AcDbEntity
  8
0
100
AcDbLine
 62
253
  6
CONTINUOUS
 10
-11.15
 20
-21.900016923
 11
-11.1412731322
 21
-21.8941990932
  0
LINE
  5
59F
100
AcDbEntity
  8
0
100
AcDbLine
 62
7
  6
CONTINUOUS
 10
9.0
 20
12.0
 11
8.95
 21
12.0
  0
LINE
  5
5A0
100
AcDbEntity
  8
0
100
AcDbLine
 62
7
  6
CONTINUOUS
 10
2.625
 20
12.0
 11
-2.625
 21
12.0
  0
LINE
  5
5A1
100
AcDbEntity
  8
0
100
AcDbLine
 62
7
  6
CONTINUOUS
 10
-8.95
 20
12.0
 11
-9.0
 21
12.0
  0
LINE
  5
5A2
100
AcDbEntity
  8
RACCORDO
100
AcDbLine
 62
7
  6
CONTINUOUS
 10
2.625
 20
12.0070186365
 11
-2.625
 21
12.0070186365
  0
LINE
  5
5A3
100
AcDbEntity
  8
RACCORDO
100
AcDbLine
 62
253
  6
CONTINUOUS
 10
2.625
 20
12.1534462075
 11
-2.625
 21
12.1534462075
  0
LINE
  5
5A4
100
AcDbEntity
  8
Z030100_COP
100
AcDbLine
 62
7
  6
CONTINUOUS
 10
-3.575
 20
12.6
 11
-2.3979157617
 21
12.6
  0
LINE
  5
5A5
100
AcDbEntity
  8
Z030100_COP
100
AcDbLine
 62
7
  6
CONTINUOUS
 10
2.3979157617
 20
12.6
 11
3.575
 21
12.6
  0
LINE
  5
5A6
100
AcDbEntity
  8
RACCORDO
100
AcDbLine
 62
7
  6
CONTINUOUS
 10
-2.1532355372
 20
12.7
 11
2.1532355372
 21
12.7
  0
LINE
  5
5A7
100
AcDbEntity
  8
0
100
AcDbLine
 62
253
  6
CONTINUOUS
 10
-11.1412731322
 20
21.8941990932
 11
-11.15
 21
21.900016923
  0
LINE
  5
5A8
100
AcDbEntity
  8
ASSI
100
AcDbLine
 62
7
  6
CONTINUOUS
 10
-7.1905416262
 20
22.3359700255
 11
-7.2558178298
 21
22.3941821702
  0
LINE
  5
5A9
100
AcDbEntity
  8
0
100
AcDbLine
 62
7
  6
CONTINUOUS
 10
-7.1905416262
 20
22.3359700255
 11
-7.2558178298
 21
22.3941821702
  0
LINE
  5
5AA
100
AcDbEntity
  8
ASSI
100
AcDbLine
 62
7
  6
CONTINUOUS
 10
-4.45
 20
22.4
 11
-4.406077753
 21
22.356077753
  0
LINE
  5
5AB
100
AcDbEntity
  8
0
100
AcDbLine
 62
7
  6
CONTINUOUS
 10
-4.45
 20
22.4
 11
-4.406077753
 21
22.356077753
  0
LINE
  5
5AC
100
AcDbEntity
  8
DRAFT
100
AcDbLine
 62
7
  6
CONTINUOUS
 10
9.5831620976
 20
14.8673010759
 11
9.55
 21
15.0
  0
LINE
  5
5AD
100
AcDbEntity
  8
DRAFT
100
AcDbLine
 62
7
  6
CONTINUOUS
 10
11.0668379024
 20
-10.7304770786
 11
11.1
 21
-10.5977781546
  0
LINE
  5
5AE
100
AcDbEntity
  8
ASSI
100
AcDbLine
 62
7
  6
CONTINUOUS
 10
8.7867049498
 20
-10.3132950502
 11
8.778184492
 21
-10.321815508
  0
LINE
  5
5AF
100
AcDbEntity
  8
DRAFT
100
AcDbLine
 62
7
  6
CONTINUOUS
 10
8.7867049498
 20
-10.3132950502
 11
8.778184492
 21
-10.321815508
  0
LINE
  5
5B0
100
AcDbEntity
  8
DRAFT
100
AcDbLine
 62
7
  6
CONTINUOUS
 10
7.2331620976
 20
-12.0
 11
7.2183264224
 21
-12.0148356752
  0
LINE
  5
5B1
100
AcDbEntity
  8
ASSI
100
AcDbLine
 62
7
  6
CONTINUOUS
 10
-4.4063493531
 20
-23.9563493531
 11
-4.45
 21
-24.0
  0
LINE
  5
5B2
100
AcDbEntity
  8
0
100
AcDbLine
 62
7
  6
CONTINUOUS
 10
-4.4063493531
 20
-23.9563493531
 11
-4.45
 21
-24.0
  0
LINE
  5
5B3
100
AcDbEntity
  8
ASSI
100
AcDbLine
 62
7
  6
CONTINUOUS
 10
9.6062395248
 20
-10.3218785712
 11
9.65
 21
-10.3
  0
LINE
  5
5B4
100
AcDbEntity
  8
DRAFT
100
AcDbLine
 62
7
  6
CONTINUOUS
 10
9.6062395248
 20
-10.3218785712
 11
9.65
 21
-10.3
  0
LINE
  5
5B5
100
AcDbEntity
  8
DRAFT
100
AcDbLine
 62
7
  6
CONTINUOUS
 10
9.4522218454
 20
17.3755647702
 11
9.55
 21
17.4
  0
LINE
  5
5B6
100
AcDbEntity
  8
DRAFT
100
AcDbLine
 62
7
  6
CONTINUOUS
 10
9.8851643248
 20
13.4851643248
 11
8.95
 21
13.4851643248
  0
LINE
  5
5B7
100
AcDbEntity
  8
DRAFT
100
AcDbLine
 62
7
  6
CONTINUOUS
 10
-8.95
 20
13.4851643248
 11
-9.8851643248
 21
13.4851643248
  0
LINE
  5
5B8
100
AcDbEntity
  8
DRAFT
100
AcDbLine
 62
7
  6
CONTINUOUS
 10
9.9
 20
13.5
 11
8.95
 21
13.5
  0
LINE
  5
5B9
100
AcDbEntity
  8
DRAFT
100
AcDbLine
 62
7
  6
CONTINUOUS
 10
-8.95
 20
13.5
 11
-9.9
 21
13.5
  0
LINE
  5
5BA
100
AcDbEntity
  8
0
100
AcDbLine
 62
7
  6
CONTINUOUS
 10
-7.475
 20
13.9
 11
-4.275
 21
13.9
  0
LINE
  5
5BB
100
AcDbEntity
  8
0
100
AcDbLine
 62
7
  6
CONTINUOUS
 10
4.275
 20
13.9
 11
7.475
 21
13.9
  0
LINE
  5
5BC
100
AcDbEntity
  8
DRAFT
100
AcDbLine
 62
7
  6
CONTINUOUS
 10
-6.35
 20
14.0
 11
-5.45
 21
14.0
  0
LINE
  5
5BD
100
AcDbEntity
  8
DRAFT
100
AcDbLine
 62
7
  6
CONTINUOUS
 10
5.45
 20
14.0
 11
6.35
 21
14.0
  0
LINE
  5
5BE
100
AcDbEntity
  8
DRAFT
100
AcDbLine
 62
7
  6
CONTINUOUS
 10
-6.35
 20
14.0087268678
 11
-5.45
 21
14.0087268678
  0
LINE
  5
5BF
100
AcDbEntity
  8
DRAFT
100
AcDbLine
 62
7
  6
CONTINUOUS
 10
5.45
 20
14.0087268678
 11
6.35
 21
14.0087268678
  0
LINE
  5
5C0
100
AcDbEntity
  8
Z030100_COP
100
AcDbLine
 62
7
  6
CONTINUOUS
 10
8.15
 20
14.1
 11
3.65
 21
14.1
  0
LINE
  5
5C1
100
AcDbEntity
  8
Z030100_COP
100
AcDbLine
 62
7
  6
CONTINUOUS
 10
-3.65
 20
14.1
 11
-8.15
 21
14.1
  0
LINE
  5
5C2
100
AcDbEntity
  8
DRAFT
100
AcDbLine
 62
7
  6
CONTINUOUS
 10
-9.4522218454
 20
17.3755647702
 11
-9.55
 21
17.4
  0
LINE
  5
5C3
100
AcDbEntity
  8
DRAFT
100
AcDbLine
 62
7
  6
CONTINUOUS
 10
-7.8663292467
 20
19.0
 11
-7.8
 21
18.9668379024
  0
LINE
  5
5C4
100
AcDbEntity
  8
ASSI
100
AcDbLine
 62
7
  6
CONTINUOUS
 10
-4.4063493531
 20
23.9563493531
 11
-4.45
 21
24.0
  0
LINE
  5
5C5
100
AcDbEntity
  8
0
100
AcDbLine
 62
7
  6
CONTINUOUS
 10
-4.4063493531
 20
23.9563493531
 11
-4.45
 21
24.0
  0
LINE
  5
5C6
100
AcDbEntity
  8
ASSI
100
AcDbLine
 62
253
  6
CONTINUOUS
 10
4.2636178101
 20
-17.236393613
 11
4.2043367793
 21
-17.2956746438
  0
LINE
  5
5C7
100
AcDbEntity
  8
RACCORDO
100
AcDbLine
 62
253
  6
CONTINUOUS
 10
4.2636178101
 20
-17.236393613
 11
4.2043367793
 21
-17.2956746438
  0
LINE
  5
5C8
100
AcDbEntity
  8
DRAFT
100
AcDbLine
 62
7
  6
CONTINUOUS
 10
9.9
 20
-12.0
 11
9.8851643248
 21
-12.0148356752
  0
LINE
  5
5C9
100
AcDbEntity
  8
ASSI
100
AcDbLine
 62
253
  6
CONTINUOUS
 10
4.563284597
 20
-17.5367039799
 11
4.5043253562
 21
-17.5956632207
  0
LINE
  5
5CA
100
AcDbEntity
  8
RACCORDO
100
AcDbLine
 62
253
  6
CONTINUOUS
 10
4.563284597
 20
-17.5367039799
 11
4.5043253562
 21
-17.5956632207
  0
LINE
  5
5CB
100
AcDbEntity
  8
ASSI
100
AcDbLine
 62
7
  6
CONTINUOUS
 10
9.55
 20
15.3984599645
 11
8.9361941116
 21
15.389007136
  0
LINE
  5
5CC
100
AcDbEntity
  8
DRAFT
100
AcDbLine
 62
7
  6
CONTINUOUS
 10
9.55
 20
15.3984599645
 11
8.9361941116
 21
15.389007136
  0
LINE
  5
5CD
100
AcDbEntity
  8
DRAFT
100
AcDbLine
 62
7
  6
CONTINUOUS
 10
9.5831620976
 20
14.8673010759
 11
8.95
 21
14.8673010759
  0
LINE
  5
5CE
100
AcDbEntity
  8
DRAFT
100
AcDbLine
 62
7
  6
CONTINUOUS
 10
-8.95
 20
14.8673010759
 11
-9.5831620976
 21
14.8673010759
  0
LINE
  5
5CF
100
AcDbEntity
  8
DRAFT
100
AcDbLine
 62
7
  6
CONTINUOUS
 10
9.4522218454
 20
15.0977781546
 11
8.95
 21
15.0977781546
  0
LINE
  5
5D0
100
AcDbEntity
  8
DRAFT
100
AcDbLine
 62
7
  6
CONTINUOUS
 10
-8.95
 20
15.0977781546
 11
-9.4522218454
 21
15.0977781546
  0
LINE
  5
5D1
100
AcDbEntity
  8
Z030100_COP
100
AcDbLine
 62
253
  6
CONTINUOUS
 10
8.95
 20
15.3
 11
-8.95
 21
15.3
  0
LINE
  5
5D2
100
AcDbEntity
  8
Z030100_COP
100
AcDbLine
 62
7
  6
CONTINUOUS
 10
-8.65
 20
15.6
 11
8.65
 21
15.6
  0
LINE
  5
5D3
100
AcDbEntity
  8
DRAFT
100
AcDbLine
 62
7
  6
CONTINUOUS
 10
8.778184492
 20
15.6
 11
8.65
 21
15.6
  0
LINE
  5
5D4
100
AcDbEntity
  8
DRAFT
100
AcDbLine
 62
7
  6
CONTINUOUS
 10
-8.65
 20
15.6
 11
-8.7781811688
 21
15.6
  0
LINE
  5
5D5
100
AcDbEntity
  8
ASSI
100
AcDbLine
 62
7
  6
CONTINUOUS
 10
-9.55
 20
15.3782399492
 11
-8.9396050433
 21
15.3781934626
  0
LINE
  5
5D6
100
AcDbEntity
  8
DRAFT
100
AcDbLine
 62
7
  6
CONTINUOUS
 10
-9.55
 20
15.3782399492
 11
-8.9396050433
 21
15.3781934626
  0
LINE
  5
5D7
100
AcDbEntity
  8
ASSI
100
AcDbLine
 62
7
  6
CONTINUOUS
 10
8.939585576
 20
15.3781721999
 11
9.55
 21
15.3781257119
  0
LINE
  5
5D8
100
AcDbEntity
  8
DRAFT
100
AcDbLine
 62
7
  6
CONTINUOUS
 10
8.939585576
 20
15.3781721999
 11
9.55
 21
15.3781257119
  0
LINE
  5
5D9
100
AcDbEntity
  8
ASSI
100
AcDbLine
 62
7
  6
CONTINUOUS
 10
-8.9361954984
 20
15.3890071573
 11
-9.55
 21
15.3984599645
  0
LINE
  5
5DA
100
AcDbEntity
  8
DRAFT
100
AcDbLine
 62
7
  6
CONTINUOUS
 10
-8.9361954984
 20
15.3890071573
 11
-9.55
 21
15.3984599645
  0
LINE
  5
5DB
100
AcDbEntity
  8
0
100
AcDbLine
 62
7
  6
CONTINUOUS
 10
7.475
 20
13.9
 11
8.175
 21
13.2
  0
LINE
  5
5DC
100
AcDbEntity
  8
ASSI
100
AcDbLine
 62
7
  6
CONTINUOUS
 10
8.2351447635
 20
-16.4129962748
 11
8.0344917046
 21
-16.6548771492
  0
LINE
  5
5DD
100
AcDbEntity
  8
DRAFT
100
AcDbLine
 62
7
  6
CONTINUOUS
 10
8.2351447635
 20
-16.4129962748
 11
8.0344917046
 21
-16.6548771492
  0
LINE
  5
5DE
100
AcDbEntity
  8
ASSI
100
AcDbLine
 62
7
  6
CONTINUOUS
 10
4.5322894108
 20
-20.0
 11
4.5025952137
 21
-20.0296941971
  0
LINE
  5
5DF
100
AcDbEntity
  8
RACCORDO
100
AcDbLine
 62
7
  6
CONTINUOUS
 10
4.5322894108
 20
-20.0
 11
4.5025952137
 21
-20.0296941971
  0
LINE
  5
5E0
100
AcDbEntity
  8
ASSI
100
AcDbLine
 62
7
  6
CONTINUOUS
 10
3.0
 20
-21.7
 11
3.0762444645
 21
-21.6237555355
  0
LINE
  5
5E1
100
AcDbEntity
  8
0
100
AcDbLine
 62
7
  6
CONTINUOUS
 10
3.0
 20
-21.7
 11
3.0762444645
 21
-21.6237555355
  0
LINE
  5
5E2
100
AcDbEntity
  8
ASSI
100
AcDbLine
 62
7
  6
CONTINUOUS
 10
-8.7867049498
 20
17.2132950502
 11
-9.55
 21
17.2015400355
  0
LINE
  5
5E3
100
AcDbEntity
  8
DRAFT
100
AcDbLine
 62
7
  6
CONTINUOUS
 10
-8.7867049498
 20
17.2132950502
 11
-9.55
 21
17.2015400355
  0
LINE
  5
5E4
100
AcDbEntity
  8
DRAFT
100
AcDbLine
 62
7
  6
CONTINUOUS
 10
8.778184492
 20
16.8
 11
7.9152034285
 21
16.8
  0
LINE
  5
5E5
100
AcDbEntity
  8
DRAFT
100
AcDbLine
 62
7
  6
CONTINUOUS
 10
-7.9152034285
 20
16.8
 11
-8.7781811688
 21
16.8
  0
LINE
  5
5E6
100
AcDbEntity
  8
ASSI
100
AcDbLine
 62
7
  6
CONTINUOUS
 10
8.778184492
 20
17.221815508
 11
9.55
 21
17.2218742881
  0
LINE
  5
5E7
100
AcDbEntity
  8
DRAFT
100
AcDbLine
 62
7
  6
CONTINUOUS
 10
8.778184492
 20
17.221815508
 11
9.55
 21
17.2218742881
  0
LINE
  5
5E8
100
AcDbEntity
  8
ASSI
100
AcDbLine
 62
7
  6
CONTINUOUS
 10
-9.55
 20
17.2217600508
 11
-8.7781811688
 21
17.2218188312
  0
LINE
  5
5E9
100
AcDbEntity
  8
DRAFT
100
AcDbLine
 62
7
  6
CONTINUOUS
 10
-9.55
 20
17.2217600508
 11
-8.7781811688
 21
17.2218188312
  0
LINE
  5
5EA
100
AcDbEntity
  8
DRAFT
100
AcDbLine
 62
7
  6
CONTINUOUS
 10
9.4522218454
 20
17.3755647702
 11
7.9152034285
 21
17.3755647702
  0
LINE
  5
5EB
100
AcDbEntity
  8
DRAFT
100
AcDbLine
 62
7
  6
CONTINUOUS
 10
-7.9152034285
 20
17.3755647702
 11
-9.4522218454
 21
17.3755647702
  0
LINE
  5
5EC
100
AcDbEntity
  8
DRAFT
100
AcDbLine
 62
7
  6
CONTINUOUS
 10
-9.5831620976
 20
17.4331620976
 11
-7.8
 21
17.4331620976
  0
LINE
  5
5ED
100
AcDbEntity
  8
DRAFT
100
AcDbLine
 62
7
  6
CONTINUOUS
 10
7.8
 20
17.4331620976
 11
9.5831620976
 21
17.4331620976
  0
LINE
  5
5EE
100
AcDbEntity
  8
ASSI
100
AcDbLine
 62
7
  6
CONTINUOUS
 10
9.55
 20
17.2015400355
 11
8.7867049498
 21
17.2132950502
  0
LINE
  5
5EF
100
AcDbEntity
  8
DRAFT
100
AcDbLine
 62
7
  6
CONTINUOUS
 10
9.55
 20
17.2015400355
 11
8.7867049498
 21
17.2132950502
  0
LINE
  5
5F0
100
AcDbEntity
  8
DRAFT
100
AcDbLine
 62
7
  6
CONTINUOUS
 10
9.4522218454
 20
15.0977781546
 11
9.55
 21
15.0
  0
LINE
  5
5F1
100
AcDbEntity
  8
ASSI
100
AcDbLine
 62
7
  6
CONTINUOUS
 10
3.0
 20
21.7
 11
3.0762444645
 21
21.6237555355
  0
LINE
  5
5F2
100
AcDbEntity
  8
0
100
AcDbLine
 62
7
  6
CONTINUOUS
 10
3.0
 20
21.7
 11
3.0762444645
 21
21.6237555355
  0
LINE
  5
5F3
100
AcDbEntity
  8
ASSI
100
AcDbLine
 62
7
  6
CONTINUOUS
 10
8.7867049498
 20
17.2132950502
 11
8.778184492
 21
17.221815508
  0
LINE
  5
5F4
100
AcDbEntity
  8
DRAFT
100
AcDbLine
 62
7
  6
CONTINUOUS
 10
8.7867049498
 20
17.2132950502
 11
8.778184492
 21
17.221815508
  0
LINE
  5
5F5
100
AcDbEntity
  8
ASSI
100
AcDbLine
 62
7
  6
CONTINUOUS
 10
7.2040044543
 20
-20.9959955457
 11
7.3
 21
-20.9
  0
LINE
  5
5F6
100
AcDbEntity
  8
DRAFT
100
AcDbLine
 62
7
  6
CONTINUOUS
 10
7.2040044543
 20
-20.9959955457
 11
7.3
 21
-20.9
  0
LINE
  5
5F7
100
AcDbEntity
  8
ASSI
100
AcDbLine
 62
7
  6
CONTINUOUS
 10
3.0
 20
-22.3941821702
 11
3.0873194485
 21
-22.3359700255
  0
LINE
  5
5F8
100
AcDbEntity
  8
0
100
AcDbLine
 62
7
  6
CONTINUOUS
 10
3.0
 20
-22.3941821702
 11
3.0873194485
 21
-22.3359700255
  0
LINE
  5
5F9
100
AcDbEntity
  8
ASSI
100
AcDbLine
 62
7
  6
CONTINUOUS
 10
1.0
 20
-22.4
 11
1.0087268678
 21
-22.3947639644
  0
LINE
  5
5FA
100
AcDbEntity
  8
0
100
AcDbLine
 62
7
  6
CONTINUOUS
 10
1.0
 20
-22.4
 11
1.0087268678
 21
-22.3947639644
  0
LINE
  5
5FB
100
AcDbEntity
  8
DRAFT
100
AcDbLine
 62
7
  6
CONTINUOUS
 10
11.0668379024
 20
18.9668379024
 11
7.8
 21
18.9668379024
  0
LINE
  5
5FC
100
AcDbEntity
  8
DRAFT
100
AcDbLine
 62
7
  6
CONTINUOUS
 10
-7.8
 20
18.9668379024
 11
-11.0668379024
 21
18.9668379024
  0
LINE
  5
5FD
100
AcDbEntity
  8
DRAFT
100
AcDbLine
 62
7
  6
CONTINUOUS
 10
7.8663292467
 20
19.0
 11
11.1
 21
19.0
  0
LINE
  5
5FE
100
AcDbEntity
  8
DRAFT
100
AcDbLine
 62
7
  6
CONTINUOUS
 10
-7.8663292467
 20
19.0
 11
-11.1
 21
19.0
  0
LINE
  5
5FF
100
AcDbEntity
  8
ASSI
100
AcDbLine
 62
253
  6
CONTINUOUS
 10
-6.4363719039
 20
19.1781339054
 11
6.4363719039
 21
19.1781339054
  0
LINE
  5
600
100
AcDbEntity
  8
RACCORDO
100
AcDbLine
 62
253
  6
CONTINUOUS
 10
-6.4363719039
 20
19.1781339054
 11
6.4363719039
 21
19.1781339054
  0
LINE
  5
601
100
AcDbEntity
  8
ASSI
100
AcDbLine
 62
253
  6
CONTINUOUS
 10
9.5241551301
 20
19.7895472382
 11
7.3629176429
 21
19.7895472382
  0
LINE
  5
602
100
AcDbEntity
  8
RACCORDO
100
AcDbLine
 62
253
  6
CONTINUOUS
 10
9.5241551301
 20
19.7895472382
 11
7.3629176429
 21
19.7895472382
  0
LINE
  5
603
100
AcDbEntity
  8
ASSI
100
AcDbLine
 62
253
  6
CONTINUOUS
 10
-7.3629176429
 20
19.7895472382
 11
-9.5241551301
 21
19.7895472382
  0
LINE
  5
604
100
AcDbEntity
  8
RACCORDO
100
AcDbLine
 62
253
  6
CONTINUOUS
 10
-7.3629176429
 20
19.7895472382
 11
-9.5241551301
 21
19.7895472382
  0
LINE
  5
605
100
AcDbEntity
  8
ASSI
100
AcDbLine
 62
253
  6
CONTINUOUS
 10
-6.4440923953
 20
19.9624188177
 11
6.4440923953
 21
19.9624188177
  0
LINE
  5
606
100
AcDbEntity
  8
RACCORDO
100
AcDbLine
 62
253
  6
CONTINUOUS
 10
-6.4440923953
 20
19.9624188177
 11
6.4440923953
 21
19.9624188177
  0
LINE
  5
607
100
AcDbEntity
  8
ASSI
100
AcDbLine
 62
7
  6
CONTINUOUS
 10
-6.5959955457
 20
20.1143219681
 11
6.5959955457
 21
20.1143219681
  0
LINE
  5
608
100
AcDbEntity
  8
DRAFT
100
AcDbLine
 62
7
  6
CONTINUOUS
 10
-6.5959955457
 20
20.1143219681
 11
6.5959955457
 21
20.1143219681
  0
LINE
  5
609
100
AcDbEntity
  8
DRAFT
100
AcDbLine
 62
7
  6
CONTINUOUS
 10
7.9152034285
 20
17.3755647702
 11
7.8
 21
17.4331620976
  0
LINE
  5
60A
100
AcDbEntity
  8
ASSI
100
AcDbLine
 62
7
  6
CONTINUOUS
 10
1.0087268678
 20
22.3947639644
 11
1.0
 21
22.4
  0
LINE
  5
60B
100
AcDbEntity
  8
0
100
AcDbLine
 62
7
  6
CONTINUOUS
 10
1.0087268678
 20
22.3947639644
 11
1.0
 21
22.4
  0
LINE
  5
60C
100
AcDbEntity
  8
ASSI
100
AcDbLine
 62
7
  6
CONTINUOUS
 10
3.0
 20
22.3941821702
 11
3.0873194485
 21
22.3359700255
  0
LINE
  5
60D
100
AcDbEntity
  8
0
100
AcDbLine
 62
7
  6
CONTINUOUS
 10
3.0
 20
22.3941821702
 11
3.0873194485
 21
22.3359700255
  0
LINE
  5
60E
100
AcDbEntity
  8
ASSI
100
AcDbLine
 62
7
  6
CONTINUOUS
 10
7.2040044543
 20
20.9959955457
 11
7.3
 21
20.9
  0
LINE
  5
60F
100
AcDbEntity
  8
DRAFT
100
AcDbLine
 62
7
  6
CONTINUOUS
 10
7.2040044543
 20
20.9959955457
 11
7.3
 21
20.9
  0
LINE
  5
610
100
AcDbEntity
  8
ASSI
100
AcDbLine
 62
7
  6
CONTINUOUS
 10
9.6133443637
 20
-20.0889833137
 11
8.9132380261
 21
-20.7899436635
  0
LINE
  5
611
100
AcDbEntity
  8
0
100
AcDbLine
 62
7
  6
CONTINUOUS
 10
9.6133443637
 20
-20.0889833137
 11
8.9132380261
 21
-20.7899436635
  0
LINE
  5
612
100
AcDbEntity
  8
ASSI
100
AcDbLine
 62
7
  6
CONTINUOUS
 10
9.65
 20
-20.1990396502
 11
8.9498936624
 21
-20.9
  0
LINE
  5
613
100
AcDbEntity
  8
0
100
AcDbLine
 62
7
  6
CONTINUOUS
 10
9.65
 20
-20.1990396502
 11
8.9498936624
 21
-20.9
  0
LINE
  5
614
100
AcDbEntity
  8
ASSI
100
AcDbLine
 62
7
  6
CONTINUOUS
 10
7.2558178298
 20
-22.3941821702
 11
8.25
 21
-21.4
  0
LINE
  5
615
100
AcDbEntity
  8
0
100
AcDbLine
 62
7
  6
CONTINUOUS
 10
7.2558178298
 20
-22.3941821702
 11
8.25
 21
-21.4
  0
LINE
  5
616
100
AcDbEntity
  8
0
100
AcDbLine
 62
253
  6
CONTINUOUS
 10
1.0087268678
 20
-23.7941889394
 11
1.0
 21
-23.8000067692
  0
LINE
  5
617
100
AcDbEntity
  8
ASSI
100
AcDbLine
 62
7
  6
CONTINUOUS
 10
3.5
 20
-22.3941821702
 11
3.5590867224
 21
-22.3547915774
  0
LINE
  5
618
100
AcDbEntity
  8
0
100
AcDbLine
 62
7
  6
CONTINUOUS
 10
3.5
 20
-22.3941821702
 11
3.5590867224
 21
-22.3547915774
  0
LINE
  5
619
100
AcDbEntity
  8
ASSI
100
AcDbLine
 62
7
  6
CONTINUOUS
 10
3.5
 20
-23.9941821702
 11
3.5567500259
 21
-23.9563493531
  0
LINE
  5
61A
100
AcDbEntity
  8
0
100
AcDbLine
 62
7
  6
CONTINUOUS
 10
3.5
 20
-23.9941821702
 11
3.5567500259
 21
-23.9563493531
  0
LINE
  5
61B
100
AcDbEntity
  8
ASSI
100
AcDbLine
 62
253
  6
CONTINUOUS
 10
8.8387914318
 20
20.5664222561
 11
7.3555468846
 21
20.5664222561
  0
LINE
  5
61C
100
AcDbEntity
  8
RACCORDO
100
AcDbLine
 62
253
  6
CONTINUOUS
 10
8.8387914318
 20
20.5664222561
 11
7.3555468846
 21
20.5664222561
  0
LINE
  5
61D
100
AcDbEntity
  8
ASSI
100
AcDbLine
 62
253
  6
CONTINUOUS
 10
-7.3555468846
 20
20.5664222561
 11
-8.8387914318
 21
20.5664222561
  0
LINE
  5
61E
100
AcDbEntity
  8
RACCORDO
100
AcDbLine
 62
253
  6
CONTINUOUS
 10
-7.3555468846
 20
20.5664222561
 11
-8.8387914318
 21
20.5664222561
  0
LINE
  5
61F
100
AcDbEntity
  8
ASSI
100
AcDbLine
 62
7
  6
CONTINUOUS
 10
3.0959955457
 20
20.8
 11
-3.0959955457
 21
20.8
  0
LINE
  5
620
100
AcDbEntity
  8
0
100
AcDbLine
 62
7
  6
CONTINUOUS
 10
3.0959955457
 20
20.8
 11
-3.0959955457
 21
20.8
  0
LINE
  5
621
100
AcDbEntity
  8
0
100
AcDbLine
 62
7
  6
CONTINUOUS
 10
-8.9498936624
 20
20.9
 11
-8.25
 21
20.9
  0
LINE
  5
622
100
AcDbEntity
  8
DRAFT
100
AcDbLine
 62
7
  6
CONTINUOUS
 10
8.25
 20
20.9
 11
7.3
 21
20.9
  0
LINE
  5
623
100
AcDbEntity
  8
ASSI
100
AcDbLine
 62
7
  6
CONTINUOUS
 10
-7.3
 20
20.9
 11
-8.9498936624
 21
20.9
  0
LINE
  5
624
100
AcDbEntity
  8
ASSI
100
AcDbLine
 62
7
  6
CONTINUOUS
 10
7.3
 20
20.9
 11
8.9498936624
 21
20.9
  0
LINE
  5
625
100
AcDbEntity
  8
DRAFT
100
AcDbLine
 62
7
  6
CONTINUOUS
 10
-7.3
 20
20.9
 11
-8.25
 21
20.9
  0
LINE
  5
626
100
AcDbEntity
  8
0
100
AcDbLine
 62
7
  6
CONTINUOUS
 10
8.25
 20
20.9
 11
8.9498936624
 21
20.9
  0
LINE
  5
627
100
AcDbEntity
  8
ASSI
100
AcDbLine
 62
7
  6
CONTINUOUS
 10
-7.5666456542
 20
20.9959955457
 11
-7.2040044543
 21
20.9959955457
  0
LINE
  5
628
100
AcDbEntity
  8
DRAFT
100
AcDbLine
 62
7
  6
CONTINUOUS
 10
-7.5666456542
 20
20.9959955457
 11
-7.2040044543
 21
20.9959955457
  0
LINE
  5
629
100
AcDbEntity
  8
ASSI
100
AcDbLine
 62
7
  6
CONTINUOUS
 10
7.2040044543
 20
20.9959955457
 11
7.5666456542
 21
20.9959955457
  0
LINE
  5
62A
100
AcDbEntity
  8
DRAFT
100
AcDbLine
 62
7
  6
CONTINUOUS
 10
7.2040044543
 20
20.9959955457
 11
7.5666456542
 21
20.9959955457
  0
LINE
  5
62B
100
AcDbEntity
  8
ASSI
100
AcDbLine
 62
7
  6
CONTINUOUS
 10
-11.1674550649
 20
21.0226497308
 11
-11.1412731322
 21
21.0226497308
  0
LINE
  5
62C
100
AcDbEntity
  8
ASSI
100
AcDbLine
 62
7
  6
CONTINUOUS
 10
11.1674550649
 20
21.0226497308
 11
11.1412731322
 21
21.0226497308
  0
LINE
  5
62D
100
AcDbEntity
  8
0
100
AcDbLine
 62
7
  6
CONTINUOUS
 10
-11.1674550649
 20
21.0226497308
 11
-11.1412731322
 21
21.0226497308
  0
LINE
  5
62E
100
AcDbEntity
  8
0
100
AcDbLine
 62
7
  6
CONTINUOUS
 10
11.1674550649
 20
21.0226497308
 11
11.1412731322
 21
21.0226497308
  0
LINE
  5
62F
100
AcDbEntity
  8
ASSI
100
AcDbLine
 62
253
  6
CONTINUOUS
 10
7.5666456542
 20
21.3359869487
 11
3.0959955457
 21
21.3359869487
  0
LINE
  5
630
100
AcDbEntity
  8
0
100
AcDbLine
 62
253
  6
CONTINUOUS
 10
7.5666456542
 20
21.3359869487
 11
3.0959955457
 21
21.3359869487
  0
LINE
  5
631
100
AcDbEntity
  8
ASSI
100
AcDbLine
 62
253
  6
CONTINUOUS
 10
-3.0959955457
 20
21.3359869487
 11
-7.5666456542
 21
21.3359869487
  0
LINE
  5
632
100
AcDbEntity
  8
0
100
AcDbLine
 62
253
  6
CONTINUOUS
 10
-3.0959955457
 20
21.3359869487
 11
-7.5666456542
 21
21.3359869487
  0
LINE
  5
633
100
AcDbEntity
  8
ASSI
100
AcDbLine
 62
7
  6
CONTINUOUS
 10
-3.0762444645
 20
21.6237555355
 11
3.0762444645
 21
21.6237555355
  0
LINE
  5
634
100
AcDbEntity
  8
0
100
AcDbLine
 62
7
  6
CONTINUOUS
 10
-3.0762444645
 20
21.6237555355
 11
3.0762444645
 21
21.6237555355
  0
LINE
  5
635
100
AcDbEntity
  8
ASSI
100
AcDbLine
 62
7
  6
CONTINUOUS
 10
-3.0
 20
21.7
 11
3.0
 21
21.7
  0
LINE
  5
636
100
AcDbEntity
  8
0
100
AcDbLine
 62
7
  6
CONTINUOUS
 10
-3.0
 20
21.7
 11
3.0
 21
21.7
  0
LINE
  5
637
100
AcDbEntity
  8
0
100
AcDbLine
 62
253
  6
CONTINUOUS
 10
1.0
 20
23.8000067692
 11
1.0087268678
 21
23.7941889394
  0
LINE
  5
638
100
AcDbEntity
  8
ASSI
100
AcDbLine
 62
7
  6
CONTINUOUS
 10
3.5
 20
22.3941821702
 11
3.5590867224
 21
22.3547915774
  0
LINE
  5
639
100
AcDbEntity
  8
0
100
AcDbLine
 62
7
  6
CONTINUOUS
 10
3.5
 20
22.3941821702
 11
3.5590867224
 21
22.3547915774
  0
LINE
  5
63A
100
AcDbEntity
  8
ASSI
100
AcDbLine
 62
7
  6
CONTINUOUS
 10
3.5
 20
23.9941821702
 11
3.5567500259
 21
23.9563493531
  0
LINE
  5
63B
100
AcDbEntity
  8
0
100
AcDbLine
 62
7
  6
CONTINUOUS
 10
3.5
 20
23.9941821702
 11
3.5567500259
 21
23.9563493531
  0
LINE
  5
63C
100
AcDbEntity
  8
ASSI
100
AcDbLine
 62
7
  6
CONTINUOUS
 10
7.2558178298
 20
22.3941821702
 11
8.25
 21
21.4
  0
LINE
  5
63D
100
AcDbEntity
  8
0
100
AcDbLine
 62
7
  6
CONTINUOUS
 10
7.2558178298
 20
22.3941821702
 11
8.25
 21
21.4
  0
LINE
  5
63E
100
AcDbEntity
  8
ASSI
100
AcDbLine
 62
7
  6
CONTINUOUS
 10
9.65
 20
20.1990396502
 11
8.9498936624
 21
20.9
  0
LINE
  5
63F
100
AcDbEntity
  8
0
100
AcDbLine
 62
7
  6
CONTINUOUS
 10
9.65
 20
20.1990396502
 11
8.9498936624
 21
20.9
  0
LINE
  5
640
100
AcDbEntity
  8
ASSI
100
AcDbLine
 62
7
  6
CONTINUOUS
 10
8.0665695018
 20
-20.9917082642
 11
8.25
 21
-20.9
  0
LINE
  5
641
100
AcDbEntity
  8
0
100
AcDbLine
 62
7
  6
CONTINUOUS
 10
8.0665695018
 20
-20.9917082642
 11
8.25
 21
-20.9
  0
LINE
  5
642
100
AcDbEntity
  8
ASSI
100
AcDbLine
 62
7
  6
CONTINUOUS
 10
8.0665695018
 20
-21.4537354271
 11
8.25
 21
-21.4
  0
LINE
  5
643
100
AcDbEntity
  8
0
100
AcDbLine
 62
7
  6
CONTINUOUS
 10
8.0665695018
 20
-21.4537354271
 11
8.25
 21
-21.4
  0
LINE
  5
644
100
AcDbEntity
  8
ASSI
100
AcDbLine
 62
253
  6
CONTINUOUS
 10
7.1905416262
 20
22.3359700255
 11
3.0873194485
 21
22.3359700255
  0
LINE
  5
645
100
AcDbEntity
  8
0
100
AcDbLine
 62
7
  6
CONTINUOUS
 10
7.1905416262
 20
22.3359700255
 11
3.0873194485
 21
22.3359700255
  0
LINE
  5
646
100
AcDbEntity
  8
ASSI
100
AcDbLine
 62
253
  6
CONTINUOUS
 10
-3.0873194485
 20
22.3359700255
 11
-7.1905416262
 21
22.3359700255
  0
LINE
  5
647
100
AcDbEntity
  8
0
100
AcDbLine
 62
7
  6
CONTINUOUS
 10
-3.0873194485
 20
22.3359700255
 11
-7.1905416262
 21
22.3359700255
  0
LINE
  5
648
100
AcDbEntity
  8
ASSI
100
AcDbLine
 62
7
  6
CONTINUOUS
 10
-10.6412794783
 20
22.3941821702
 11
-7.2558178298
 21
22.3941821702
  0
LINE
  5
649
100
AcDbEntity
  8
0
100
AcDbLine
 62
7
  6
CONTINUOUS
 10
-10.6412794783
 20
22.3941821702
 11
-7.2558178298
 21
22.3941821702
  0
LINE
  5
64A
100
AcDbEntity
  8
ASSI
100
AcDbLine
 62
7
  6
CONTINUOUS
 10
3.5
 20
22.3941821702
 11
3.0
 21
22.3941821702
  0
LINE
  5
64B
100
AcDbEntity
  8
0
100
AcDbLine
 62
7
  6
CONTINUOUS
 10
3.5
 20
22.3941821702
 11
3.0
 21
22.3941821702
  0
LINE
  5
64C
100
AcDbEntity
  8
ASSI
100
AcDbLine
 62
7
  6
CONTINUOUS
 10
-3.0
 20
22.3941821702
 11
-3.5
 21
22.3941821702
  0
LINE
  5
64D
100
AcDbEntity
  8
0
100
AcDbLine
 62
7
  6
CONTINUOUS
 10
-3.0
 20
22.3941821702
 11
-3.5
 21
22.3941821702
  0
LINE
  5
64E
100
AcDbEntity
  8
ASSI
100
AcDbLine
 62
7
  6
CONTINUOUS
 10
7.2558178298
 20
22.3941821702
 11
10.6412794783
 21
22.3941821702
  0
LINE
  5
64F
100
AcDbEntity
  8
0
100
AcDbLine
 62
7
  6
CONTINUOUS
 10
7.2558178298
 20
22.3941821702
 11
10.6412794783
 21
22.3941821702
  0
LINE
  5
650
100
AcDbEntity
  8
ASSI
100
AcDbLine
 62
7
  6
CONTINUOUS
 10
-1.0087268678
 20
22.3947639644
 11
1.0087268678
 21
22.3947639644
  0
LINE
  5
651
100
AcDbEntity
  8
0
100
AcDbLine
 62
7
  6
CONTINUOUS
 10
-1.0087268678
 20
22.3947639644
 11
1.0087268678
 21
22.3947639644
  0
LINE
  5
652
100
AcDbEntity
  8
ASSI
100
AcDbLine
 62
7
  6
CONTINUOUS
 10
-7.0500575119
 20
22.4
 11
-4.45
 21
22.4
  0
LINE
  5
653
100
AcDbEntity
  8
ASSI
100
AcDbLine
 62
7
  6
CONTINUOUS
 10
4.45
 20
22.4
 11
7.0500575119
 21
22.4
  0
LINE
  5
654
100
AcDbEntity
  8
RACCORDO
100
AcDbLine
 62
7
  6
CONTINUOUS
 10
4.45
 20
22.4
 11
7.1905416262
 21
22.4
  0
LINE
  5
655
100
AcDbEntity
  8
RACCORDO
100
AcDbLine
 62
7
  6
CONTINUOUS
 10
-4.45
 20
22.4
 11
-7.1905416262
 21
22.4
  0
LINE
  5
656
100
AcDbEntity
  8
ASSI
100
AcDbLine
 62
7
  6
CONTINUOUS
 10
-9.9007229979
 20
23.1226497308
 11
-7.4992770021
 21
23.1226497308
  0
LINE
  5
657
100
AcDbEntity
  8
0
100
AcDbLine
 62
7
  6
CONTINUOUS
 10
-9.9007229979
 20
23.1226497308
 11
-7.4992770021
 21
23.1226497308
  0
LINE
  5
658
100
AcDbEntity
  8
ASSI
100
AcDbLine
 62
7
  6
CONTINUOUS
 10
9.9007229979
 20
23.1226497308
 11
7.4992770021
 21
23.1226497308
  0
LINE
  5
659
100
AcDbEntity
  8
0
100
AcDbLine
 62
7
  6
CONTINUOUS
 10
9.9007229979
 20
23.1226497308
 11
7.4992770021
 21
23.1226497308
  0
LINE
  5
65A
100
AcDbEntity
  8
ASSI
100
AcDbLine
 62
253
  6
CONTINUOUS
 10
-9.8956323968
 20
23.6278312164
 11
-7.5043676032
 21
23.6278312164
  0
LINE
  5
65B
100
AcDbEntity
  8
0
100
AcDbLine
 62
253
  6
CONTINUOUS
 10
-9.8956323968
 20
23.6278312164
 11
-7.5043676032
 21
23.6278312164
  0
LINE
  5
65C
100
AcDbEntity
  8
ASSI
100
AcDbLine
 62
253
  6
CONTINUOUS
 10
7.5043676032
 20
23.6278312164
 11
9.8956323968
 21
23.6278312164
  0
LINE
  5
65D
100
AcDbEntity
  8
0
100
AcDbLine
 62
253
  6
CONTINUOUS
 10
7.5043676032
 20
23.6278312164
 11
9.8956323968
 21
23.6278312164
  0
LINE
  5
65E
100
AcDbEntity
  8
ASSI
100
AcDbLine
 62
253
  6
CONTINUOUS
 10
7.254371834
 20
23.8443375673
 11
10.145628166
 21
23.8443375673
  0
LINE
  5
65F
100
AcDbEntity
  8
0
100
AcDbLine
 62
253
  6
CONTINUOUS
 10
7.254371834
 20
23.8443375673
 11
10.145628166
 21
23.8443375673
  0
LINE
  5
660
100
AcDbEntity
  8
ASSI
100
AcDbLine
 62
253
  6
CONTINUOUS
 10
-7.254371834
 20
23.8443375673
 11
-10.145628166
 21
23.8443375673
  0
LINE
  5
661
100
AcDbEntity
  8
0
100
AcDbLine
 62
253
  6
CONTINUOUS
 10
-7.254371834
 20
23.8443375673
 11
-10.145628166
 21
23.8443375673
  0
LINE
  5
662
100
AcDbEntity
  8
ASSI
100
AcDbLine
 62
7
  6
CONTINUOUS
 10
-4.4063493531
 20
23.9563493531
 11
-3.5567500259
 21
23.9563493531
  0
LINE
  5
663
100
AcDbEntity
  8
0
100
AcDbLine
 62
7
  6
CONTINUOUS
 10
-4.4063493531
 20
23.9563493531
 11
-3.5567500259
 21
23.9563493531
  0
LINE
  5
664
100
AcDbEntity
  8
ASSI
100
AcDbLine
 62
7
  6
CONTINUOUS
 10
3.5567500259
 20
23.9563493531
 11
4.4063493531
 21
23.9563493531
  0
LINE
  5
665
100
AcDbEntity
  8
0
100
AcDbLine
 62
7
  6
CONTINUOUS
 10
3.5567500259
 20
23.9563493531
 11
4.4063493531
 21
23.9563493531
  0
LINE
  5
666
100
AcDbEntity
  8
ASSI
100
AcDbLine
 62
7
  6
CONTINUOUS
 10
8.0665695018
 20
21.4537354271
 11
8.25
 21
21.4
  0
LINE
  5
667
100
AcDbEntity
  8
0
100
AcDbLine
 62
7
  6
CONTINUOUS
 10
8.0665695018
 20
21.4537354271
 11
8.25
 21
21.4
  0
LINE
  5
668
100
AcDbEntity
  8
ASSI
100
AcDbLine
 62
7
  6
CONTINUOUS
 10
8.0665695018
 20
20.9917082642
 11
8.25
 21
20.9
  0
LINE
  5
669
100
AcDbEntity
  8
0
100
AcDbLine
 62
7
  6
CONTINUOUS
 10
8.0665695018
 20
20.9917082642
 11
8.25
 21
20.9
  0
LINE
  5
66A
100
AcDbEntity
  8
ASSI
100
AcDbLine
 62
7
  6
CONTINUOUS
 10
-3.5
 20
23.9941821702
 11
-1.2087243294
 21
23.9941821702
  0
LINE
  5
66B
100
AcDbEntity
  8
0
100
AcDbLine
 62
7
  6
CONTINUOUS
 10
-3.5
 20
23.9941821702
 11
-1.2087243294
 21
23.9941821702
  0
LINE
  5
66C
100
AcDbEntity
  8
ASSI
100
AcDbLine
 62
7
  6
CONTINUOUS
 10
1.2087243294
 20
23.9941821702
 11
3.5
 21
23.9941821702
  0
LINE
  5
66D
100
AcDbEntity
  8
0
100
AcDbLine
 62
7
  6
CONTINUOUS
 10
1.2087243294
 20
23.9941821702
 11
3.5
 21
23.9941821702
  0
LINE
  5
66E
100
AcDbEntity
  8
ASSI
100
AcDbLine
 62
7
  6
CONTINUOUS
 10
4.45
 20
24.0
 11
3.5567500259
 21
24.0
  0
LINE
  5
66F
100
AcDbEntity
  8
0
100
AcDbLine
 62
7
  6
CONTINUOUS
 10
4.45
 20
24.0
 11
3.5567500259
 21
24.0
  0
LINE
  5
670
100
AcDbEntity
  8
ASSI
100
AcDbLine
 62
7
  6
CONTINUOUS
 10
-3.5567500259
 20
24.0
 11
-4.45
 21
24.0
  0
LINE
  5
671
100
AcDbEntity
  8
0
100
AcDbLine
 62
7
  6
CONTINUOUS
 10
-3.5567500259
 20
24.0
 11
-4.45
 21
24.0
  0
LINE
  5
672
100
AcDbEntity
  8
ASSI
100
AcDbLine
 62
253
  6
CONTINUOUS
 10
7.254371834
 20
24.2456323968
 11
10.145628166
 21
24.2456323968
  0
LINE
  5
673
100
AcDbEntity
  8
0
100
AcDbLine
 62
253
  6
CONTINUOUS
 10
7.254371834
 20
24.2456323968
 11
10.145628166
 21
24.2456323968
  0
LINE
  5
674
100
AcDbEntity
  8
ASSI
100
AcDbLine
 62
253
  6
CONTINUOUS
 10
-7.254371834
 20
24.2456323968
 11
-10.145628166
 21
24.2456323968
  0
LINE
  5
675
100
AcDbEntity
  8
0
100
AcDbLine
 62
253
  6
CONTINUOUS
 10
-7.254371834
 20
24.2456323968
 11
-10.145628166
 21
24.2456323968
  0
LINE
  5
676
100
AcDbEntity
  8
ASSI
100
AcDbLine
 62
7
  6
CONTINUOUS
 10
9.8956323968
 20
24.495628166
 11
7.5043676032
 21
24.495628166
  0
LINE
  5
677
100
AcDbEntity
  8
0
100
AcDbLine
 62
7
  6
CONTINUOUS
 10
9.8956323968
 20
24.495628166
 11
7.5043676032
 21
24.495628166
  0
LINE
  5
678
100
AcDbEntity
  8
ASSI
100
AcDbLine
 62
7
  6
CONTINUOUS
 10
-7.5043676032
 20
24.495628166
 11
-9.8956323968
 21
24.495628166
  0
LINE
  5
679
100
AcDbEntity
  8
0
100
AcDbLine
 62
7
  6
CONTINUOUS
 10
-7.5043676032
 20
24.495628166
 11
-9.8956323968
 21
24.495628166
  0
ARC
  5
67A
100
AcDbEntity
  8
ASSI
100
AcDbCircle
 62
7
  6
CONTINUOUS
 10
-9.8979592496
 20
-24.2496617058
 40
0.2520545745
100
AcDbArc
 50
186.0289692273
 51
191.9797187696
  0
ARC
  5
67B
100
AcDbEntity
  8
ASSI
100
AcDbCircle
 62
7
  6
CONTINUOUS
 10
-9.8997182339
 20
-24.2481926537
 40
0.2518075087
100
AcDbArc
 50
252.0652430401
 51
269.9349248207
  0
ARC
  5
67C
100
AcDbEntity
  8
0
100
AcDbCircle
 62
7
  6
CONTINUOUS
 10
-9.8991934292
 20
-24.2497025164
 40
0.2508550528
100
AcDbArc
 50
193.659680098
 51
207.249128622
  0
ARC
  5
67D
100
AcDbEntity
  8
0
100
AcDbCircle
 62
7
  6
CONTINUOUS
 10
-9.8999862297
 20
-24.2497365929
 40
0.2502634078
100
AcDbArc
 50
264.1578382274
 51
269.9958787969
  0
ARC
  5
67E
100
AcDbEntity
  8
ASSI
100
AcDbCircle
 62
7
  6
CONTINUOUS
 10
-9.8997650253
 20
-24.2500688726
 40
0.2502036139
100
AcDbArc
 50
191.9743413379
 51
197.9692406447
  0
ARC
  5
67F
100
AcDbEntity
  8
ASSI
100
AcDbCircle
 62
7
  6
CONTINUOUS
 10
-9.8998695825
 20
-24.2498695825
 40
0.2501753007
100
AcDbArc
 50
204.0158680559
 51
245.9841319441
  0
ARC
  5
680
100
AcDbEntity
  8
0
100
AcDbCircle
 62
7
  6
CONTINUOUS
 10
-9.8998495345
 20
-24.2499182843
 40
0.2501729914
100
AcDbArc
 50
207.2739965155
 51
212.7246840126
  0
ARC
  5
681
100
AcDbEntity
  8
0
100
AcDbCircle
 62
7
  6
CONTINUOUS
 10
-9.8999182843
 20
-24.2498495345
 40
0.2501729914
100
AcDbArc
 50
237.2753159874
 51
242.7260034845
  0
ARC
  5
682
100
AcDbEntity
  8
ASSI
100
AcDbCircle
 62
7
  6
CONTINUOUS
 10
-9.8956085052
 20
-24.2456085052
 40
0.2500209265
100
AcDbArc
 50
180.0054751119
 51
269.9945248878
  0
ARC
  5
683
100
AcDbEntity
  8
0
100
AcDbCircle
 62
7
  6
CONTINUOUS
 10
-9.895622453
 20
-24.2456224574
 40
0.2500053353
100
AcDbArc
 50
180.0060721998
 51
269.99394617
  0
ARC
  5
684
100
AcDbEntity
  8
0
100
AcDbCircle
 62
7
  6
CONTINUOUS
 10
-9.9000193393
 20
-24.2500188142
 40
0.2499788132
100
AcDbArc
 50
180.0041212031
 51
193.6353344909
  0
ARC
  5
685
100
AcDbEntity
  8
ASSI
100
AcDbCircle
 62
7
  6
CONTINUOUS
 10
-9.9008070014
 20
-24.2503272993
 40
0.2491327482
100
AcDbArc
 50
197.9866352647
 51
204.007456794
  0
ARC
  5
686
100
AcDbEntity
  8
ASSI
100
AcDbCircle
 62
7
  6
CONTINUOUS
 10
-9.9003272993
 20
-24.2508070014
 40
0.2491327482
100
AcDbArc
 50
245.992543206
 51
252.0133647353
  0
ARC
  5
687
100
AcDbEntity
  8
ASSI
100
AcDbCircle
 62
7
  6
CONTINUOUS
 10
-9.9009055562
 20
-24.2499484332
 40
0.24909445
100
AcDbArc
 50
180.0128343449
 51
186.0345615721
  0
ARC
  5
688
100
AcDbEntity
  8
0
100
AcDbCircle
 62
7
  6
CONTINUOUS
 10
-10.646497078
 20
-21.899782582
 40
0.5035029222
100
AcDbArc
 50
179.9986988641
 51
184.8497608437
  0
ARC
  5
689
100
AcDbEntity
  8
ASSI
100
AcDbCircle
 62
7
  6
CONTINUOUS
 10
-10.6500396797
 20
-21.9000430541
 40
0.4999569776
100
AcDbArc
 50
179.9688393823
 51
269.9609300873
  0
ARC
  5
68A
100
AcDbEntity
  8
0
100
AcDbCircle
 62
7
  6
CONTINUOUS
 10
-10.6500413486
 20
-21.9000583431
 40
0.4999460198
100
AcDbArc
 50
184.8526110777
 51
265.082169765
  0
ARC
  5
68B
100
AcDbEntity
  8
0
100
AcDbCircle
 62
7
  6
CONTINUOUS
 10
-10.6502985816
 20
-21.904914956
 40
0.4950850508
100
AcDbArc
 50
265.0636465424
 51
269.9905081124
  0
ARC
  5
68C
100
AcDbEntity
  8
ASSI
100
AcDbCircle
 62
7
  6
CONTINUOUS
 10
-7.5003382942
 20
-24.2479592496
 40
0.2520545745
100
AcDbArc
 50
276.0289692273
 51
281.9797187696
  0
ARC
  5
68D
100
AcDbEntity
  8
ASSI
100
AcDbCircle
 62
7
  6
CONTINUOUS
 10
-7.5018073463
 20
-24.2497182339
 40
0.2518075087
100
AcDbArc
 50
342.0652430401
 51
359.9349248207
  0
ARC
  5
68E
100
AcDbEntity
  8
0
100
AcDbCircle
 62
7
  6
CONTINUOUS
 10
-7.5002974836
 20
-24.2491934292
 40
0.2508550528
100
AcDbArc
 50
283.659680098
 51
297.249128622
  0
ARC
  5
68F
100
AcDbEntity
  8
0
100
AcDbCircle
 62
7
  6
CONTINUOUS
 10
-7.5002634071
 20
-24.2499862297
 40
0.2502634078
100
AcDbArc
 50
354.1578382274
 51
359.9958787969
  0
ARC
  5
690
100
AcDbEntity
  8
ASSI
100
AcDbCircle
 62
7
  6
CONTINUOUS
 10
-7.4999311274
 20
-24.2497650253
 40
0.2502036139
100
AcDbArc
 50
281.9743413379
 51
287.9692406447
  0
ARC
  5
691
100
AcDbEntity
  8
ASSI
100
AcDbCircle
 62
7
  6
CONTINUOUS
 10
-7.5001304175
 20
-24.2498695825
 40
0.2501753007
100
AcDbArc
 50
294.0158680559
 51
335.9841319441
  0
ARC
  5
692
100
AcDbEntity
  8
0
100
AcDbCircle
 62
7
  6
CONTINUOUS
 10
-7.5000817157
 20
-24.2498495345
 40
0.2501729914
100
AcDbArc
 50
297.2739965155
 51
302.7246840126
  0
ARC
  5
693
100
AcDbEntity
  8
0
100
AcDbCircle
 62
7
  6
CONTINUOUS
 10
-7.5001504655
 20
-24.2499182843
 40
0.2501729914
100
AcDbArc
 50
327.2753159874
 51
332.7260034845
  0
ARC
  5
694
100
AcDbEntity
  8
ASSI
100
AcDbCircle
 62
7
  6
CONTINUOUS
 10
-7.5043914849
 20
-24.2456085151
 40
0.2500209182
100
AcDbArc
 50
270.0054728464
 51
359.9945271536
  0
ARC
  5
695
100
AcDbEntity
  8
0
100
AcDbCircle
 62
7
  6
CONTINUOUS
 10
-7.5043775389
 20
-24.2456224611
 40
0.2500053271
100
AcDbArc
 50
270.0060704802
 51
359.9939295198
  0
ARC
  5
696
100
AcDbEntity
  8
0
100
AcDbCircle
 62
7
  6
CONTINUOUS
 10
-7.4999811858
 20
-24.2500193393
 40
0.2499788132
100
AcDbArc
 50
270.0041212031
 51
283.6353344908
  0
ARC
  5
697
100
AcDbEntity
  8
ASSI
100
AcDbCircle
 62
7
  6
CONTINUOUS
 10
-7.4996727007
 20
-24.2508070014
 40
0.2491327482
100
AcDbArc
 50
287.9866352647
 51
294.007456794
  0
ARC
  5
698
100
AcDbEntity
  8
ASSI
100
AcDbCircle
 62
7
  6
CONTINUOUS
 10
-7.4991929986
 20
-24.2503272993
 40
0.2491327482
100
AcDbArc
 50
335.992543206
 51
342.0133647353
  0
ARC
  5
699
100
AcDbEntity
  8
ASSI
100
AcDbCircle
 62
7
  6
CONTINUOUS
 10
-7.5000515668
 20
-24.2509055562
 40
0.24909445
100
AcDbArc
 50
270.0128343449
 51
276.0345615722
  0
ARC
  5
69A
100
AcDbEntity
  8
RACCORDO
100
AcDbCircle
 62
7
  6
CONTINUOUS
 10
-8.9493777034
 20
-16.0037629386
 40
0.503786371
100
AcDbArc
 50
95.7651207474
 51
99.6904235565
  0
ARC
  5
69B
100
AcDbEntity
  8
ASSI
100
AcDbCircle
 62
7
  6
CONTINUOUS
 10
-4.0
 20
-23.15
 40
0.5
100
AcDbArc
 50
144.3637748935
 51
215.6362251065
  0
ARC
  5
69C
100
AcDbEntity
  8
0
100
AcDbCircle
 62
7
  6
CONTINUOUS
 10
-4.0
 20
-23.15
 40
0.5
100
AcDbArc
 50
144.3637748935
 51
215.6362251065
  0
ARC
  5
69D
100
AcDbEntity
  8
ASSI
100
AcDbCircle
 62
7
  6
CONTINUOUS
 10
-1.2000044316
 20
-23.7999952715
 40
0.2000055598
100
AcDbArc
 50
270.0019967258
 51
359.9967062307
  0
ARC
  5
69E
100
AcDbEntity
  8
0
100
AcDbCircle
 62
7
  6
CONTINUOUS
 10
-1.1999918583
 20
-23.8000077377
 40
0.1999915702
100
AcDbArc
 50
270.0035036563
 51
359.9964922158
  0
ARC
  5
69F
100
AcDbEntity
  8
RACCORDO
100
AcDbCircle
 62
7
  6
CONTINUOUS
 10
-3.1000429696
 20
-14.1222734694
 40
0.3018269763
100
AcDbArc
 50
89.99184309
 51
115.6521892706
  0
ARC
  5
6A0
100
AcDbEntity
  8
ASSI
100
AcDbCircle
 62
253
  6
CONTINUOUS
 10
-4.2043092041
 20
-17.5956907959
 40
0.3000161534
100
AcDbArc
 50
90.0052662018
 51
179.9947337982
  0
ARC
  5
6A1
100
AcDbEntity
  8
RACCORDO
100
AcDbCircle
 62
253
  6
CONTINUOUS
 10
-4.2043092041
 20
-17.5956907959
 40
0.3000161534
100
AcDbArc
 50
90.0052662017
 51
179.9947337983
  0
ARC
  5
6A2
100
AcDbEntity
  8
Z030100_COP
100
AcDbCircle
 62
7
  6
CONTINUOUS
 10
-8.65
 20
15.3
 40
0.3
100
AcDbArc
 50
90.0
 51
180.0
  0
ARC
  5
6A3
100
AcDbEntity
  8
0
100
AcDbCircle
 62
7
  6
CONTINUOUS
 10
-10.646497078
 20
21.899782582
 40
0.5035029222
100
AcDbArc
 50
175.1502391563
 51
180.0013011359
  0
ARC
  5
6A4
100
AcDbEntity
  8
ASSI
100
AcDbCircle
 62
7
  6
CONTINUOUS
 10
-10.6500396795
 20
21.9000430544
 40
0.4999569776
100
AcDbArc
 50
90.0390699424
 51
180.0311606507
  0
ARC
  5
6A5
100
AcDbEntity
  8
0
100
AcDbCircle
 62
7
  6
CONTINUOUS
 10
-10.6500413472
 20
21.9000583445
 40
0.4999460198
100
AcDbArc
 50
94.9178304081
 51
175.1473890922
  0
ARC
  5
6A6
100
AcDbEntity
  8
0
100
AcDbCircle
 62
7
  6
CONTINUOUS
 10
-10.6502985816
 20
21.904914956
 40
0.4950850508
100
AcDbArc
 50
90.0094918876
 51
94.9363534576
  0
ARC
  5
6A7
100
AcDbEntity
  8
ASSI
100
AcDbCircle
 62
7
  6
CONTINUOUS
 10
-9.8996617058
 20
24.2479592496
 40
0.2520545746
100
AcDbArc
 50
96.0289692273
 51
101.9797187695
  0
ARC
  5
6A8
100
AcDbEntity
  8
ASSI
100
AcDbCircle
 62
7
  6
CONTINUOUS
 10
-9.8981926537
 20
24.2497182339
 40
0.2518075087
100
AcDbArc
 50
162.0652430401
 51
179.9349248207
  0
ARC
  5
6A9
100
AcDbEntity
  8
0
100
AcDbCircle
 62
7
  6
CONTINUOUS
 10
-9.8997025164
 20
24.2491934292
 40
0.2508550528
100
AcDbArc
 50
103.659680098
 51
117.249128622
  0
ARC
  5
6AA
100
AcDbEntity
  8
0
100
AcDbCircle
 62
7
  6
CONTINUOUS
 10
-9.8997365929
 20
24.2499862297
 40
0.2502634078
100
AcDbArc
 50
174.1578382274
 51
179.9958787969
  0
ARC
  5
6AB
100
AcDbEntity
  8
ASSI
100
AcDbCircle
 62
7
  6
CONTINUOUS
 10
-9.9000688726
 20
24.2497650253
 40
0.2502036139
100
AcDbArc
 50
101.9743413378
 51
107.9692406448
  0
ARC
  5
6AC
100
AcDbEntity
  8
ASSI
100
AcDbCircle
 62
7
  6
CONTINUOUS
 10
-9.8998695825
 20
24.2498695825
 40
0.2501753007
100
AcDbArc
 50
114.0158680559
 51
155.9841319441
  0
ARC
  5
6AD
100
AcDbEntity
  8
0
100
AcDbCircle
 62
7
  6
CONTINUOUS
 10
-9.8999182843
 20
24.2498495345
 40
0.2501729914
100
AcDbArc
 50
117.2739965155
 51
122.7246840126
  0
ARC
  5
6AE
100
AcDbEntity
  8
0
100
AcDbCircle
 62
7
  6
CONTINUOUS
 10
-9.8998495345
 20
24.2499182843
 40
0.2501729914
100
AcDbArc
 50
147.2753159874
 51
152.7260034845
  0
ARC
  5
6AF
100
AcDbEntity
  8
ASSI
100
AcDbCircle
 62
7
  6
CONTINUOUS
 10
-9.8956085052
 20
24.2456085052
 40
0.2500209265
100
AcDbArc
 50
90.0054751112
 51
179.9945248891
  0
ARC
  5
6B0
100
AcDbEntity
  8
0
100
AcDbCircle
 62
7
  6
CONTINUOUS
 10
-9.895622453
 20
24.2456224574
 40
0.2500053353
100
AcDbArc
 50
90.00605383
 51
179.9939278002
  0
ARC
  5
6B1
100
AcDbEntity
  8
0
100
AcDbCircle
 62
7
  6
CONTINUOUS
 10
-9.9000188142
 20
24.2500193393
 40
0.2499788132
100
AcDbArc
 50
90.0041212031
 51
103.6353344909
  0
ARC
  5
6B2
100
AcDbEntity
  8
ASSI
100
AcDbCircle
 62
7
  6
CONTINUOUS
 10
-9.9003272993
 20
24.2508070014
 40
0.2491327482
100
AcDbArc
 50
107.9866352646
 51
114.007456794
  0
ARC
  5
6B3
100
AcDbEntity
  8
ASSI
100
AcDbCircle
 62
7
  6
CONTINUOUS
 10
-9.9008070014
 20
24.2503272993
 40
0.2491327482
100
AcDbArc
 50
155.992543206
 51
162.0133647353
  0
ARC
  5
6B4
100
AcDbEntity
  8
ASSI
100
AcDbCircle
 62
7
  6
CONTINUOUS
 10
-9.8999484332
 20
24.2509055562
 40
0.24909445
100
AcDbArc
 50
90.0128343449
 51
96.0345615722
  0
ARC
  5
6B5
100
AcDbEntity
  8
ASSI
100
AcDbCircle
 62
7
  6
CONTINUOUS
 10
-7.5020407504
 20
24.2496617058
 40
0.2520545746
100
AcDbArc
 50
6.0289692273
 51
11.9797187696
  0
ARC
  5
6B6
100
AcDbEntity
  8
ASSI
100
AcDbCircle
 62
7
  6
CONTINUOUS
 10
-7.5002817661
 20
24.2481926537
 40
0.2518075087
100
AcDbArc
 50
72.0652430401
 51
89.9349248207
  0
ARC
  5
6B7
100
AcDbEntity
  8
0
100
AcDbCircle
 62
7
  6
CONTINUOUS
 10
-7.5008065708
 20
24.2497025164
 40
0.2508550528
100
AcDbArc
 50
13.659680098
 51
27.249128622
  0
ARC
  5
6B8
100
AcDbEntity
  8
0
100
AcDbCircle
 62
7
  6
CONTINUOUS
 10
-7.5000137703
 20
24.2497365929
 40
0.2502634078
100
AcDbArc
 50
84.1578382274
 51
89.9958787968
  0
ARC
  5
6B9
100
AcDbEntity
  8
ASSI
100
AcDbCircle
 62
7
  6
CONTINUOUS
 10
-7.5002349747
 20
24.2500688726
 40
0.2502036139
100
AcDbArc
 50
11.9743413379
 51
17.9692406447
  0
ARC
  5
6BA
100
AcDbEntity
  8
ASSI
100
AcDbCircle
 62
7
  6
CONTINUOUS
 10
-7.5001304175
 20
24.2498695825
 40
0.2501753007
100
AcDbArc
 50
24.0158680559
 51
65.9841319441
  0
ARC
  5
6BB
100
AcDbEntity
  8
0
100
AcDbCircle
 62
7
  6
CONTINUOUS
 10
-7.5001504655
 20
24.2499182843
 40
0.2501729914
100
AcDbArc
 50
27.2739965156
 51
32.7246840126
  0
ARC
  5
6BC
100
AcDbEntity
  8
0
100
AcDbCircle
 62
7
  6
CONTINUOUS
 10
-7.5000817157
 20
24.2498495345
 40
0.2501729914
100
AcDbArc
 50
57.2753159874
 51
62.7260034845
  0
ARC
  5
6BD
100
AcDbEntity
  8
ASSI
100
AcDbCircle
 62
7
  6
CONTINUOUS
 10
-7.5043914849
 20
24.2456085151
 40
0.2500209182
100
AcDbArc
 50
0.00547285
 51
89.99452715
  0
ARC
  5
6BE
100
AcDbEntity
  8
0
100
AcDbCircle
 62
7
  6
CONTINUOUS
 10
-7.5043775389
 20
24.2456224611
 40
0.2500053271
100
AcDbArc
 50
0.0060704802
 51
89.9939295199
  0
ARC
  5
6BF
100
AcDbEntity
  8
0
100
AcDbCircle
 62
7
  6
CONTINUOUS
 10
-7.4999806607
 20
24.2500188142
 40
0.2499788132
100
AcDbArc
 50
0.0041212031
 51
13.6353344909
  0
ARC
  5
6C0
100
AcDbEntity
  8
ASSI
100
AcDbCircle
 62
7
  6
CONTINUOUS
 10
-7.4991929986
 20
24.2503272993
 40
0.2491327482
100
AcDbArc
 50
17.9866352647
 51
24.007456794
  0
ARC
  5
6C1
100
AcDbEntity
  8
ASSI
100
AcDbCircle
 62
7
  6
CONTINUOUS
 10
-7.4996727007
 20
24.2508070014
 40
0.2491327482
100
AcDbArc
 50
65.992543206
 51
72.0133647354
  0
ARC
  5
6C2
100
AcDbEntity
  8
ASSI
100
AcDbCircle
 62
7
  6
CONTINUOUS
 10
-7.4990944438
 20
24.2499484332
 40
0.24909445
100
AcDbArc
 50
0.0128343449
 51
6.0345615722
  0
ARC
  5
6C3
100
AcDbEntity
  8
ASSI
100
AcDbCircle
 62
7
  6
CONTINUOUS
 10
-4.0
 20
23.15
 40
0.5
100
AcDbArc
 50
144.3637748935
 51
215.6362251065
  0
ARC
  5
6C4
100
AcDbEntity
  8
0
100
AcDbCircle
 62
7
  6
CONTINUOUS
 10
-4.0
 20
23.15
 40
0.5
100
AcDbArc
 50
144.3637748935
 51
215.6362251065
  0
ARC
  5
6C5
100
AcDbEntity
  8
0
100
AcDbCircle
 62
7
  6
CONTINUOUS
 10
-1.1999932435
 20
23.8000067566
 40
0.1999932435
100
AcDbArc
 50
0.0000036163
 51
90.0012084401
  0
ARC
  5
6C6
100
AcDbEntity
  8
ASSI
100
AcDbCircle
 62
7
  6
CONTINUOUS
 10
-1.1999924892
 20
23.8000071317
 40
0.1999877003
100
AcDbArc
 50
5.7695823983
 51
84.2350187066
  0
ARC
  5
6C7
100
AcDbEntity
  8
ASSI
100
AcDbCircle
 62
7
  6
CONTINUOUS
 10
-1.1991898328
 20
23.7999651664
 40
0.1991898371
100
AcDbArc
 50
0.0119667988
 51
5.8048021765
  0
ARC
  5
6C8
100
AcDbEntity
  8
ASSI
100
AcDbCircle
 62
7
  6
CONTINUOUS
 10
4.0
 20
-23.15
 40
0.5
100
AcDbArc
 50
324.3637748935
 51
35.6362251065
  0
ARC
  5
6C9
100
AcDbEntity
  8
0
100
AcDbCircle
 62
7
  6
CONTINUOUS
 10
4.0
 20
-23.15
 40
0.5
100
AcDbArc
 50
324.3637748935
 51
35.6362251065
  0
ARC
  5
6CA
100
AcDbEntity
  8
0
100
AcDbCircle
 62
7
  6
CONTINUOUS
 10
1.1999932435
 20
-23.8000067566
 40
0.1999932435
100
AcDbArc
 50
180.0000036163
 51
270.0012084401
  0
ARC
  5
6CB
100
AcDbEntity
  8
ASSI
100
AcDbCircle
 62
7
  6
CONTINUOUS
 10
1.199978522
 20
-23.8000208726
 40
0.1999701341
100
AcDbArc
 50
185.7660675637
 51
264.2386049215
  0
ARC
  5
6CC
100
AcDbEntity
  8
ASSI
100
AcDbCircle
 62
7
  6
CONTINUOUS
 10
1.1991898328
 20
-23.7999651664
 40
0.1991898371
100
AcDbArc
 50
180.0119667988
 51
185.8048021765
  0
ARC
  5
6CD
100
AcDbEntity
  8
RACCORDO
100
AcDbCircle
 62
7
  6
CONTINUOUS
 10
3.1000429696
 20
-14.1222734694
 40
0.3018269763
100
AcDbArc
 50
64.3478107294
 51
90.00815691
  0
ARC
  5
6CE
100
AcDbEntity
  8
ASSI
100
AcDbCircle
 62
253
  6
CONTINUOUS
 10
4.2043092048
 20
-17.5956907953
 40
0.3000161527
100
AcDbArc
 50
0.0052660734
 51
89.9947339624
  0
ARC
  5
6CF
100
AcDbEntity
  8
RACCORDO
100
AcDbCircle
 62
253
  6
CONTINUOUS
 10
4.2043092049
 20
-17.5956907952
 40
0.3000161526
100
AcDbArc
 50
0.0052660671
 51
89.9947339686
  0
ARC
  5
6D0
100
AcDbEntity
  8
ASSI
100
AcDbCircle
 62
7
  6
CONTINUOUS
 10
10.6490568682
 20
-21.8997175103
 40
0.5009431347
100
AcDbArc
 50
355.1180547833
 51
359.9938651463
  0
ARC
  5
6D1
100
AcDbEntity
  8
0
100
AcDbCircle
 62
7
  6
CONTINUOUS
 10
10.6500382294
 20
-21.9000437425
 40
0.4999579139
100
AcDbArc
 50
270.0392361788
 51
0.0312394202
  0
ARC
  5
6D2
100
AcDbEntity
  8
ASSI
100
AcDbCircle
 62
7
  6
CONTINUOUS
 10
10.6500567092
 20
-21.900085754
 40
0.4999164458
100
AcDbArc
 50
274.9164930141
 51
355.1503542423
  0
ARC
  5
6D3
100
AcDbEntity
  8
ASSI
100
AcDbCircle
 62
7
  6
CONTINUOUS
 10
9.8996617058
 20
-24.2479592496
 40
0.2520545746
100
AcDbArc
 50
276.0289692273
 51
281.9797187696
  0
ARC
  5
6D4
100
AcDbEntity
  8
ASSI
100
AcDbCircle
 62
7
  6
CONTINUOUS
 10
7.5020407504
 20
-24.2496617058
 40
0.2520545745
100
AcDbArc
 50
186.0289692273
 51
191.9797187696
  0
ARC
  5
6D5
100
AcDbEntity
  8
ASSI
100
AcDbCircle
 62
7
  6
CONTINUOUS
 10
9.8981926537
 20
-24.2497182339
 40
0.2518075087
100
AcDbArc
 50
342.0652430401
 51
359.9349248207
  0
ARC
  5
6D6
100
AcDbEntity
  8
ASSI
100
AcDbCircle
 62
7
  6
CONTINUOUS
 10
7.5002817661
 20
-24.2481926537
 40
0.2518075087
100
AcDbArc
 50
252.0652430401
 51
269.9349248207
  0
ARC
  5
6D7
100
AcDbEntity
  8
0
100
AcDbCircle
 62
7
  6
CONTINUOUS
 10
9.8997025164
 20
-24.2491934292
 40
0.2508550528
100
AcDbArc
 50
283.659680098
 51
297.249128622
  0
ARC
  5
6D8
100
AcDbEntity
  8
0
100
AcDbCircle
 62
7
  6
CONTINUOUS
 10
7.5008065708
 20
-24.2497025164
 40
0.2508550528
100
AcDbArc
 50
193.659680098
 51
207.249128622
  0
ARC
  5
6D9
100
AcDbEntity
  8
0
100
AcDbCircle
 62
7
  6
CONTINUOUS
 10
9.8997365929
 20
-24.2499862297
 40
0.2502634078
100
AcDbArc
 50
354.1578382274
 51
359.9958787969
  0
ARC
  5
6DA
100
AcDbEntity
  8
0
100
AcDbCircle
 62
7
  6
CONTINUOUS
 10
7.5000137703
 20
-24.2497365929
 40
0.2502634078
100
AcDbArc
 50
264.1578382274
 51
269.9958787969
  0
ARC
  5
6DB
100
AcDbEntity
  8
ASSI
100
AcDbCircle
 62
7
  6
CONTINUOUS
 10
9.9000688726
 20
-24.2497650253
 40
0.2502036139
100
AcDbArc
 50
281.9743413379
 51
287.9692406447
  0
ARC
  5
6DC
100
AcDbEntity
  8
ASSI
100
AcDbCircle
 62
7
  6
CONTINUOUS
 10
7.5002349747
 20
-24.2500688726
 40
0.2502036139
100
AcDbArc
 50
191.9743413379
 51
197.9692406447
  0
ARC
  5
6DD
100
AcDbEntity
  8
ASSI
100
AcDbCircle
 62
7
  6
CONTINUOUS
 10
9.8998695825
 20
-24.2498695825
 40
0.2501753007
100
AcDbArc
 50
294.0158680559
 51
335.9841319441
  0
ARC
  5
6DE
100
AcDbEntity
  8
ASSI
100
AcDbCircle
 62
7
  6
CONTINUOUS
 10
7.5001304175
 20
-24.2498695825
 40
0.2501753007
100
AcDbArc
 50
204.0158680559
 51
245.9841319441
  0
ARC
  5
6DF
100
AcDbEntity
  8
0
100
AcDbCircle
 62
7
  6
CONTINUOUS
 10
9.8999182843
 20
-24.2498495345
 40
0.2501729914
100
AcDbArc
 50
297.2739965155
 51
302.7246840126
  0
ARC
  5
6E0
100
AcDbEntity
  8
0
100
AcDbCircle
 62
7
  6
CONTINUOUS
 10
9.8998495345
 20
-24.2499182843
 40
0.2501729914
100
AcDbArc
 50
327.2753159874
 51
332.7260034844
  0
ARC
  5
6E1
100
AcDbEntity
  8
0
100
AcDbCircle
 62
7
  6
CONTINUOUS
 10
7.5001504655
 20
-24.2499182843
 40
0.2501729914
100
AcDbArc
 50
207.2739965156
 51
212.7246840126
  0
ARC
  5
6E2
100
AcDbEntity
  8
0
100
AcDbCircle
 62
7
  6
CONTINUOUS
 10
7.5000817157
 20
-24.2498495345
 40
0.2501729914
100
AcDbArc
 50
237.2753159874
 51
242.7260034845
  0
ARC
  5
6E3
100
AcDbEntity
  8
ASSI
100
AcDbCircle
 62
7
  6
CONTINUOUS
 10
9.8956085052
 20
-24.2456085052
 40
0.2500209265
100
AcDbArc
 50
270.0054751128
 51
359.9945248875
  0
ARC
  5
6E4
100
AcDbEntity
  8
ASSI
100
AcDbCircle
 62
7
  6
CONTINUOUS
 10
7.5043914849
 20
-24.2456085151
 40
0.2500209182
100
AcDbArc
 50
180.0054728481
 51
269.9945271519
  0
ARC
  5
6E5
100
AcDbEntity
  8
0
100
AcDbCircle
 62
7
  6
CONTINUOUS
 10
9.895622453
 20
-24.2456224574
 40
0.2500053353
100
AcDbArc
 50
270.00605383
 51
359.9939278002
  0
ARC
  5
6E6
100
AcDbEntity
  8
0
100
AcDbCircle
 62
7
  6
CONTINUOUS
 10
7.5043775389
 20
-24.2456224611
 40
0.2500053271
100
AcDbArc
 50
180.0060704802
 51
269.9939295198
  0
ARC
  5
6E7
100
AcDbEntity
  8
0
100
AcDbCircle
 62
7
  6
CONTINUOUS
 10
9.9000188142
 20
-24.2500193393
 40
0.2499788132
100
AcDbArc
 50
270.0041212031
 51
283.6353344908
  0
ARC
  5
6E8
100
AcDbEntity
  8
0
100
AcDbCircle
 62
7
  6
CONTINUOUS
 10
7.4999806607
 20
-24.2500188142
 40
0.2499788132
100
AcDbArc
 50
180.0041212031
 51
193.6353344908
  0
ARC
  5
6E9
100
AcDbEntity
  8
ASSI
100
AcDbCircle
 62
7
  6
CONTINUOUS
 10
9.9003272993
 20
-24.2508070014
 40
0.2491327482
100
AcDbArc
 50
287.9866352647
 51
294.007456794
  0
ARC
  5
6EA
100
AcDbEntity
  8
ASSI
100
AcDbCircle
 62
7
  6
CONTINUOUS
 10
9.9008070014
 20
-24.2503272993
 40
0.2491327482
100
AcDbArc
 50
335.992543206
 51
342.0133647353
  0
ARC
  5
6EB
100
AcDbEntity
  8
ASSI
100
AcDbCircle
 62
7
  6
CONTINUOUS
 10
7.4991929986
 20
-24.2503272993
 40
0.2491327482
100
AcDbArc
 50
197.9866352647
 51
204.007456794
  0
ARC
  5
6EC
100
AcDbEntity
  8
ASSI
100
AcDbCircle
 62
7
  6
CONTINUOUS
 10
7.4996727007
 20
-24.2508070014
 40
0.2491327482
100
AcDbArc
 50
245.992543206
 51
252.0133647353
  0
ARC
  5
6ED
100
AcDbEntity
  8
ASSI
100
AcDbCircle
 62
7
  6
CONTINUOUS
 10
9.8999484332
 20
-24.2509055562
 40
0.24909445
100
AcDbArc
 50
270.0128343449
 51
276.0345615722
  0
ARC
  5
6EE
100
AcDbEntity
  8
ASSI
100
AcDbCircle
 62
7
  6
CONTINUOUS
 10
7.4990944438
 20
-24.2499484332
 40
0.24909445
100
AcDbArc
 50
180.0128343449
 51
186.0345615722
  0
ARC
  5
6EF
100
AcDbEntity
  8
RACCORDO
100
AcDbCircle
 62
7
  6
CONTINUOUS
 10
8.9493782319
 20
-16.0037594478
 40
0.5037828411
100
AcDbArc
 50
80.3095688711
 51
84.2475053923
  0
ARC
  5
6F0
100
AcDbEntity
  8
Z030100_COP
100
AcDbCircle
 62
7
  6
CONTINUOUS
 10
-0.0
 20
7.1
 40
6.0
100
AcDbArc
 50
66.4435356909
 51
113.5564643091
  0
ARC
  5
6F1
100
AcDbEntity
  8
ASSI
100
AcDbCircle
 62
7
  6
CONTINUOUS
 10
4.0
 20
23.15
 40
0.5
100
AcDbArc
 50
324.3637748935
 51
35.6362251065
  0
ARC
  5
6F2
100
AcDbEntity
  8
0
100
AcDbCircle
 62
7
  6
CONTINUOUS
 10
4.0
 20
23.15
 40
0.5
100
AcDbArc
 50
324.3637748935
 51
35.6362251065
  0
ARC
  5
6F3
100
AcDbEntity
  8
ASSI
100
AcDbCircle
 62
7
  6
CONTINUOUS
 10
1.2000044316
 20
23.7999952715
 40
0.2000055598
100
AcDbArc
 50
90.0019967242
 51
179.9967062253
  0
ARC
  5
6F4
100
AcDbEntity
  8
0
100
AcDbCircle
 62
7
  6
CONTINUOUS
 10
1.1999918583
 20
23.8000077377
 40
0.1999915702
100
AcDbArc
 50
90.0035036563
 51
179.9964922158
  0
ARC
  5
6F5
100
AcDbEntity
  8
Z030100_COP
100
AcDbCircle
 62
7
  6
CONTINUOUS
 10
8.65
 20
15.3
 40
0.3
100
AcDbArc
 50
0.0
 51
90.0
  0
ARC
  5
6F6
100
AcDbEntity
  8
ASSI
100
AcDbCircle
 62
7
  6
CONTINUOUS
 10
7.5003382942
 20
24.2479592496
 40
0.2520545745
100
AcDbArc
 50
96.0289692273
 51
101.9797187696
  0
ARC
  5
6F7
100
AcDbEntity
  8
ASSI
100
AcDbCircle
 62
7
  6
CONTINUOUS
 10
7.5018073463
 20
24.2497182339
 40
0.2518075087
100
AcDbArc
 50
162.0652430401
 51
179.9349248207
  0
ARC
  5
6F8
100
AcDbEntity
  8
0
100
AcDbCircle
 62
7
  6
CONTINUOUS
 10
7.5002974836
 20
24.2491934292
 40
0.2508550528
100
AcDbArc
 50
103.659680098
 51
117.249128622
  0
ARC
  5
6F9
100
AcDbEntity
  8
0
100
AcDbCircle
 62
7
  6
CONTINUOUS
 10
7.5002634071
 20
24.2499862297
 40
0.2502634078
100
AcDbArc
 50
174.1578382274
 51
179.9958787969
  0
ARC
  5
6FA
100
AcDbEntity
  8
ASSI
100
AcDbCircle
 62
7
  6
CONTINUOUS
 10
7.4999311274
 20
24.2497650253
 40
0.2502036139
100
AcDbArc
 50
101.9743413379
 51
107.9692406447
  0
ARC
  5
6FB
100
AcDbEntity
  8
ASSI
100
AcDbCircle
 62
7
  6
CONTINUOUS
 10
7.5001304175
 20
24.2498695825
 40
0.2501753007
100
AcDbArc
 50
114.0158680559
 51
155.9841319441
  0
ARC
  5
6FC
100
AcDbEntity
  8
0
100
AcDbCircle
 62
7
  6
CONTINUOUS
 10
7.5000817157
 20
24.2498495345
 40
0.2501729914
100
AcDbArc
 50
117.2739965155
 51
122.7246840126
  0
ARC
  5
6FD
100
AcDbEntity
  8
0
100
AcDbCircle
 62
7
  6
CONTINUOUS
 10
7.5001504655
 20
24.2499182843
 40
0.2501729914
100
AcDbArc
 50
147.2753159874
 51
152.7260034844
  0
ARC
  5
6FE
100
AcDbEntity
  8
ASSI
100
AcDbCircle
 62
7
  6
CONTINUOUS
 10
7.5043914948
 20
24.2456085052
 40
0.2500209266
100
AcDbArc
 50
90.0054751181
 51
179.9945248822
  0
ARC
  5
6FF
100
AcDbEntity
  8
0
100
AcDbCircle
 62
7
  6
CONTINUOUS
 10
7.504377547
 20
24.2456224574
 40
0.2500053353
100
AcDbArc
 50
90.00605383
 51
179.9939278002
  0
ARC
  5
700
100
AcDbEntity
  8
0
100
AcDbCircle
 62
7
  6
CONTINUOUS
 10
7.4999811858
 20
24.2500193393
 40
0.2499788132
100
AcDbArc
 50
90.0041212032
 51
103.6353344909
  0
ARC
  5
701
100
AcDbEntity
  8
ASSI
100
AcDbCircle
 62
7
  6
CONTINUOUS
 10
7.4996727007
 20
24.2508070014
 40
0.2491327482
100
AcDbArc
 50
107.9866352647
 51
114.007456794
  0
ARC
  5
702
100
AcDbEntity
  8
ASSI
100
AcDbCircle
 62
7
  6
CONTINUOUS
 10
7.4991929986
 20
24.2503272993
 40
0.2491327482
100
AcDbArc
 50
155.992543206
 51
162.0133647353
  0
ARC
  5
703
100
AcDbEntity
  8
ASSI
100
AcDbCircle
 62
7
  6
CONTINUOUS
 10
7.5000515668
 20
24.2509055562
 40
0.24909445
100
AcDbArc
 50
90.0128343449
 51
96.0345615722
  0
ARC
  5
704
100
AcDbEntity
  8
0
100
AcDbCircle
 62
7
  6
CONTINUOUS
 10
10.646497078
 20
21.899782582
 40
0.5035029222
100
AcDbArc
 50
359.9986988641
 51
4.8497608437
  0
ARC
  5
705
100
AcDbEntity
  8
ASSI
100
AcDbCircle
 62
7
  6
CONTINUOUS
 10
10.6500344884
 20
21.9000378698
 40
0.4999633043
100
AcDbArc
 50
359.9694338249
 51
89.9603355686
  0
ARC
  5
706
100
AcDbEntity
  8
0
100
AcDbCircle
 62
7
  6
CONTINUOUS
 10
10.6500413808
 20
21.900058378
 40
0.4999460198
100
AcDbArc
 50
4.8526074016
 51
85.082173098
  0
ARC
  5
707
100
AcDbEntity
  8
0
100
AcDbCircle
 62
7
  6
CONTINUOUS
 10
10.6502985816
 20
21.904914956
 40
0.4950850508
100
AcDbArc
 50
85.0636465424
 51
89.9905081124
  0
ARC
  5
708
100
AcDbEntity
  8
ASSI
100
AcDbCircle
 62
7
  6
CONTINUOUS
 10
9.8979592496
 20
24.2496617058
 40
0.2520545745
100
AcDbArc
 50
6.0289692273
 51
11.9797187695
  0
ARC
  5
709
100
AcDbEntity
  8
ASSI
100
AcDbCircle
 62
7
  6
CONTINUOUS
 10
9.8997182339
 20
24.2481926537
 40
0.2518075087
100
AcDbArc
 50
72.0652430401
 51
89.9349248207
  0
ARC
  5
70A
100
AcDbEntity
  8
0
100
AcDbCircle
 62
7
  6
CONTINUOUS
 10
9.8991934292
 20
24.2497025164
 40
0.2508550528
100
AcDbArc
 50
13.659680098
 51
27.249128622
  0
ARC
  5
70B
100
AcDbEntity
  8
0
100
AcDbCircle
 62
7
  6
CONTINUOUS
 10
9.8999862297
 20
24.2497365929
 40
0.2502634078
100
AcDbArc
 50
84.1578382274
 51
89.9958787968
  0
ARC
  5
70C
100
AcDbEntity
  8
ASSI
100
AcDbCircle
 62
7
  6
CONTINUOUS
 10
9.8997650253
 20
24.2500688726
 40
0.2502036139
100
AcDbArc
 50
11.9743413379
 51
17.9692406447
  0
ARC
  5
70D
100
AcDbEntity
  8
ASSI
100
AcDbCircle
 62
7
  6
CONTINUOUS
 10
9.8998695825
 20
24.2498695825
 40
0.2501753007
100
AcDbArc
 50
24.0158680559
 51
65.9841319441
  0
ARC
  5
70E
100
AcDbEntity
  8
0
100
AcDbCircle
 62
7
  6
CONTINUOUS
 10
9.8998495345
 20
24.2499182843
 40
0.2501729914
100
AcDbArc
 50
27.2739965155
 51
32.7246840126
  0
ARC
  5
70F
100
AcDbEntity
  8
0
100
AcDbCircle
 62
7
  6
CONTINUOUS
 10
9.8999182843
 20
24.2498495345
 40
0.2501729914
100
AcDbArc
 50
57.2753159873
 51
62.7260034845
  0
ARC
  5
710
100
AcDbEntity
  8
ASSI
100
AcDbCircle
 62
7
  6
CONTINUOUS
 10
9.8956085052
 20
24.2456085052
 40
0.2500209265
100
AcDbArc
 50
0.0054751101
 51
89.9945248896
  0
ARC
  5
711
100
AcDbEntity
  8
0
100
AcDbCircle
 62
7
  6
CONTINUOUS
 10
9.895622453
 20
24.2456224574
 40
0.2500053353
100
AcDbArc
 50
0.0060721998
 51
89.99394617
  0
ARC
  5
712
100
AcDbEntity
  8
0
100
AcDbCircle
 62
7
  6
CONTINUOUS
 10
9.9000193393
 20
24.2500188142
 40
0.2499788132
100
AcDbArc
 50
0.0041212031
 51
13.6353344909
  0
ARC
  5
713
100
AcDbEntity
  8
ASSI
100
AcDbCircle
 62
7
  6
CONTINUOUS
 10
9.9008070014
 20
24.2503272993
 40
0.2491327482
100
AcDbArc
 50
17.9866352647
 51
24.007456794
  0
ARC
  5
714
100
AcDbEntity
  8
ASSI
100
AcDbCircle
 62
7
  6
CONTINUOUS
 10
9.9003272993
 20
24.2508070014
 40
0.2491327482
100
AcDbArc
 50
65.992543206
 51
72.0133647354
  0
ARC
  5
715
100
AcDbEntity
  8
ASSI
100
AcDbCircle
 62
7
  6
CONTINUOUS
 10
9.9009055562
 20
24.2499484332
 40
0.24909445
100
AcDbArc
 50
0.0128343449
 51
6.0345615722
  0
SPLINE
  5
716
100
AcDbEntity
  8
RACCORDO
100
AcDbSpline
 62
7
  6
CONTINUOUS
 70
0
 71
3
 72
11
 73
7
 74
5
 42
0.0000001
 43
0.0000001
 44
0.0000000001
 12
0.0
 22
0.4664733964
 32
0.0
 13
-0.4664733964
 23
-0.0
 33
0.0
 40
0.0
 40
0.0
 40
0.0
 40
0.0
 40
0.249135358
 40
0.498778088
 40
0.749136595
 40
1.0
 40
1.0
 40
1.0
 40
1.0
 10
9.45
 20
-15.8055387995
 30
0.0
 10
9.45
 20
-15.7668004606
 30
0.0
 10
9.43434736
 20
-15.6883874792
 30
0.0
 10
9.3674973377
 20
-15.5894116878
 30
0.0
 10
9.2677870047
 20
-15.5232301568
 30
0.0
 10
9.1890070349
 20
-15.507774954
 30
0.0
 10
9.15
 20
-15.507774954
 30
0.0
 11
9.45
 21
-15.8055387995
 31
0.0
 11
9.4271638598
 21
-15.6915895091
 31
0.0
 11
9.3621320344
 21
-15.5949879652
 31
0.0
 11
9.2648050297
 21
-15.5304408771
 31
0.0
 11
9.15
 21
-15.507774954
 31
0.0
  0
SPLINE
  5
717
100
AcDbEntity
  8
RACCORDO
100
AcDbSpline
 62
7
  6
CONTINUOUS
 70
0
 71
3
 72
11
 73
7
 74
5
 42
0.0000001
 43
0.0000001
 44
0.0000000001
 12
-0.4664733964
 22
0.0
 32
0.0
 13
0.0
 23
-0.4664733964
 33
0.0
 40
0.0
 40
0.0
 40
0.0
 40
0.0
 40
0.250863405
 40
0.501221912
 40
0.750864642
 40
1.0
 40
1.0
 40
1.0
 40
1.0
 10
-9.15
 20
-15.507774954
 30
0.0
 10
-9.1890070349
 20
-15.507774954
 30
0.0
 10
-9.2677870047
 20
-15.5232301568
 30
0.0
 10
-9.3674973377
 20
-15.5894116878
 30
0.0
 10
-9.43434736
 20
-15.6883874792
 30
0.0
 10
-9.45
 20
-15.7668004606
 30
0.0
 10
-9.45
 20
-15.8055387995
 30
0.0
 11
-9.15
 21
-15.507774954
 31
0.0
 11
-9.2648050297
 21
-15.5304408771
 31
0.0
 11
-9.3621320344
 21
-15.5949879652
 31
0.0
 11
-9.4271638598
 21
-15.6915895091
 31
0.0
 11
-9.45
 21
-15.8055387995
 31
0.0
  0
SPLINE
  5
718
100
AcDbEntity
  8
ASSI
100
AcDbSpline
 62
7
  6
CONTINUOUS
 70
0
 71
3
 72
18
 73
14
 74
12
 42
0.0000001
 43
0.0000001
 44
0.0000000001
 12
0.4645021388
 22
-0.4879812633
 32
0.0
 13
0.0392554437
 23
-0.6725674393
 33
0.0
 40
0.0
 40
0.0
 40
0.0
 40
0.0
 40
0.1635936457
 40
0.3250051575
 40
0.4813865843
 40
0.6294131743
 40
0.7641188951
 40
0.8242723558
 40
0.8780882431
 40
0.9240783023
 40
0.960678656
 40
0.9863061664
 40
1.0
 40
1.0
 40
1.0
 40
1.0
 10
3.9530427099
 20
-23.4563578147
 30
0.0
 10
3.978372576
 20
-23.482968026
 30
0.0
 10
4.0286945667
 20
-23.5358334391
 30
0.0
 10
4.1031511912
 20
-23.6142103503
 30
0.0
 10
4.1750310452
 20
-23.6902141515
 30
0.0
 10
4.2424944519
 20
-23.7621356263
 30
0.0
 10
4.2947896838
 20
-23.8186651232
 30
0.0
 10
4.3322483906
 20
-23.8600727349
 30
0.0
 10
4.3560931223
 20
-23.8869707797
 30
0.0
 10
4.3759371795
 20
-23.9102248561
 30
0.0
 10
4.3914366904
 20
-23.9291668652
 30
0.0
 10
4.4009698377
 20
-23.9429019589
 30
0.0
 10
4.4058985671
 20
-23.9508222642
 30
0.0
 10
4.406077753
 20
-23.9538922731
 30
0.0
 11
3.9530427099
 21
-23.4563578147
 31
0.0
 11
4.0290189915
 21
-23.5362011226
 31
0.0
 11
4.1038994574
 21
-23.6150577359
 31
0.0
 11
4.1762662005
 21
-23.6916276563
 31
0.0
 11
4.2444541806
 21
-23.7644008227
 31
0.0
 11
4.3059847793
 21
-23.8311096585
 31
0.0
 11
4.3331533278
 21
-23.8611801715
 31
0.0
 11
4.3571555293
 21
-23.888354089
 31
0.0
 11
4.3772454839
 21
-23.9119423396
 31
0.0
 11
4.3926281184
 21
-23.9312139885
 31
0.0
 11
4.4024646109
 21
-23.9454035298
 31
0.0
 11
4.406077753
 21
-23.9538922731
 31
0.0
  0
SPLINE
  5
719
100
AcDbEntity
  8
ASSI
100
AcDbSpline
 62
7
  6
CONTINUOUS
 70
0
 71
3
 72
10
 73
6
 74
4
 42
0.0000001
 43
0.0000001
 44
0.0000000001
 12
0.3811161376
 22
0.4321048217
 32
0.0
 13
0.3972454604
 23
0.417324971
 33
0.0
 40
0.0
 40
0.0
 40
0.0
 40
0.0
 40
0.2092705144
 40
0.4568810068
 40
1.0
 40
1.0
 40
1.0
 40
1.0
 10
3.5590867224
 20
-23.8767611455
 30
0.0
 10
3.5856721792
 20
-23.8466188794
 30
0.0
 10
3.6449998936
 20
-23.7819544622
 30
0.0
 10
3.7763609182
 20
-23.6418543671
 30
0.0
 10
3.8811255251
 20
-23.5319101874
 30
0.0
 10
3.9530427099
 20
-23.4563578147
 30
0.0
 11
3.5590867224
 21
-23.8767611455
 31
0.0
 11
3.6401657822
 21
-23.7875183839
 31
0.0
 11
3.7376302404
 21
-23.68333722
 31
0.0
 11
3.9530427099
 21
-23.4563578147
 31
0.0
  0
SPLINE
  5
71A
100
AcDbEntity
  8
ASSI
100
AcDbSpline
 62
7
  6
CONTINUOUS
 70
0
 71
3
 72
10
 73
6
 74
4
 42
0.0000001
 43
0.0000001
 44
0.0000000001
 12
0.3972454604
 22
-0.417324971
 32
0.0
 13
0.3811161376
 23
-0.4321048217
 33
0.0
 40
0.0
 40
0.0
 40
0.0
 40
0.0
 40
0.543118994
 40
0.7907294862
 40
1.0
 40
1.0
 40
1.0
 40
1.0
 10
-3.9530427099
 20
-23.4563578147
 30
0.0
 10
-3.881125525
 20
-23.5319101875
 30
0.0
 10
-3.776360918
 20
-23.6418543673
 30
0.0
 10
-3.6449998934
 20
-23.7819544624
 30
0.0
 10
-3.5856721791
 20
-23.8466188795
 30
0.0
 10
-3.5590867224
 20
-23.8767611455
 30
0.0
 11
-3.9530427099
 21
-23.4563578147
 31
0.0
 11
-3.7376302401
 21
-23.6833372204
 31
0.0
 11
-3.640165782
 21
-23.7875183841
 31
0.0
 11
-3.5590867224
 21
-23.8767611455
 31
0.0
  0
SPLINE
  5
71B
100
AcDbEntity
  8
ASSI
100
AcDbSpline
 62
7
  6
CONTINUOUS
 70
0
 71
3
 72
18
 73
14
 74
12
 42
0.0000001
 43
0.0000001
 44
0.0000000001
 12
0.0392554437
 22
0.6725674393
 32
0.0
 13
0.4645021388
 23
0.4879812633
 33
0.0
 40
0.0
 40
0.0
 40
0.0
 40
0.0
 40
0.0136938338
 40
0.0393213442
 40
0.075921698
 40
0.1219117571
 40
0.1757276443
 40
0.235881105
 40
0.3705868258
 40
0.5186134158
 40
0.6749948428
 40
0.8364063544
 40
1.0
 40
1.0
 40
1.0
 40
1.0
 10
-4.406077753
 20
-23.9538922731
 30
0.0
 10
-4.4058985671
 20
-23.9508222641
 30
0.0
 10
-4.4009698376
 20
-23.9429019588
 30
0.0
 10
-4.3914366903
 20
-23.9291668651
 30
0.0
 10
-4.3759371794
 20
-23.910224856
 30
0.0
 10
-4.3560931222
 20
-23.8869707796
 30
0.0
 10
-4.3322483905
 20
-23.8600727348
 30
0.0
 10
-4.2947896837
 20
-23.8186651231
 30
0.0
 10
-4.2424944519
 20
-23.7621356262
 30
0.0
 10
-4.1750310452
 20
-23.6902141514
 30
0.0
 10
-4.1031511911
 20
-23.6142103502
 30
0.0
 10
-4.0286945666
 20
-23.5358334391
 30
0.0
 10
-3.978372576
 20
-23.482968026
 30
0.0
 10
-3.9530427099
 20
-23.4563578147
 30
0.0
 11
-4.406077753
 21
-23.9538922731
 31
0.0
 11
-4.4024646108
 21
-23.9454035297
 31
0.0
 11
-4.3926281183
 21
-23.9312139883
 31
0.0
 11
-4.3772454838
 21
-23.9119423394
 31
0.0
 11
-4.3571555292
 21
-23.8883540888
 31
0.0
 11
-4.3331533278
 21
-23.8611801715
 31
0.0
 11
-4.3059847793
 21
-23.8311096585
 31
0.0
 11
-4.2444541805
 21
-23.7644008226
 31
0.0
 11
-4.1762662004
 21
-23.6916276562
 31
0.0
 11
-4.1038994573
 21
-23.6150577358
 31
0.0
 11
-4.0290189914
 21
-23.5362011225
 31
0.0
 11
-3.9530427099
 21
-23.4563578147
 31
0.0
  0
SPLINE
  5
71C
100
AcDbEntity
  8
ASSI
100
AcDbSpline
 62
7
  6
CONTINUOUS
 70
0
 71
3
 72
10
 73
6
 74
4
 42
0.0000001
 43
0.0000001
 44
0.0000000001
 12
-0.3972454604
 22
0.417324971
 32
0.0
 13
-0.3811161376
 23
0.4321048217
 33
0.0
 40
0.0
 40
0.0
 40
0.0
 40
0.0
 40
0.5431189838
 40
0.7907294826
 40
1.0
 40
1.0
 40
1.0
 40
1.0
 10
3.9530427099
 20
23.4563578147
 30
0.0
 10
3.8811255263
 20
23.5319101861
 30
0.0
 10
3.7763609199
 20
23.6418543654
 30
0.0
 10
3.6449998952
 20
23.7819544604
 30
0.0
 10
3.5856721796
 20
23.846618879
 30
0.0
 10
3.5590867224
 20
23.8767611455
 30
0.0
 11
3.9530427099
 21
23.4563578147
 31
0.0
 11
3.7376302441
 21
23.6833372161
 31
0.0
 11
3.6401657834
 21
23.7875183826
 31
0.0
 11
3.5590867224
 21
23.8767611455
 31
0.0
  0
SPLINE
  5
71D
100
AcDbEntity
  8
ASSI
100
AcDbSpline
 62
7
  6
CONTINUOUS
 70
0
 71
3
 72
18
 73
14
 74
12
 42
0.0000001
 43
0.0000001
 44
0.0000000001
 12
-0.0392554437
 22
-0.6725674393
 32
0.0
 13
-0.4645021388
 23
-0.4879812633
 33
0.0
 40
0.0
 40
0.0
 40
0.0
 40
0.0
 40
0.0136938337
 40
0.039321344
 40
0.0759216973
 40
0.1219117558
 40
0.175727642
 40
0.2358811017
 40
0.3705868235
 40
0.5186134153
 40
0.6749948452
 40
0.8364063565
 40
1.0
 40
1.0
 40
1.0
 40
1.0
 10
4.406077753
 20
23.9538922731
 30
0.0
 10
4.4058985671
 20
23.9508222642
 30
0.0
 10
4.4009698376
 20
23.9429019589
 30
0.0
 10
4.3914366904
 20
23.9291668652
 30
0.0
 10
4.3759371797
 20
23.9102248564
 30
0.0
 10
4.3560931228
 20
23.8869707804
 30
0.0
 10
4.3322483916
 20
23.860072736
 30
0.0
 10
4.294789685
 20
23.8186651244
 30
0.0
 10
4.2424944528
 20
23.7621356272
 30
0.0
 10
4.1750310452
 20
23.6902141515
 30
0.0
 10
4.1031511905
 20
23.6142103495
 30
0.0
 10
4.0286945659
 20
23.5358334383
 30
0.0
 10
3.9783725757
 20
23.4829680256
 30
0.0
 10
3.9530427099
 20
23.4563578147
 30
0.0
 11
4.406077753
 21
23.9538922731
 31
0.0
 11
4.4024646108
 21
23.9454035297
 31
0.0
 11
4.3926281184
 21
23.9312139885
 31
0.0
 11
4.3772454841
 21
23.9119423398
 31
0.0
 11
4.3571555298
 21
23.8883540895
 31
0.0
 11
4.3331533288
 21
23.8611801726
 31
0.0
 11
4.3059847807
 21
23.8311096601
 31
0.0
 11
4.2444541816
 21
23.7644008237
 31
0.0
 11
4.1762662007
 21
23.6916276565
 31
0.0
 11
4.1038994562
 21
23.6150577346
 31
0.0
 11
4.0290189904
 21
23.5362011215
 31
0.0
 11
3.9530427099
 21
23.4563578147
 31
0.0
  0
SPLINE
  5
71E
100
AcDbEntity
  8
ASSI
100
AcDbSpline
 62
7
  6
CONTINUOUS
 70
0
 71
3
 72
18
 73
14
 74
12
 42
0.0000001
 43
0.0000001
 44
0.0000000001
 12
-0.4645021388
 22
0.4879812633
 32
0.0
 13
-0.0392554437
 23
0.6725674393
 33
0.0
 40
0.0
 40
0.0
 40
0.0
 40
0.0
 40
0.1635936434
 40
0.3250051547
 40
0.4813865847
 40
0.6294131764
 40
0.7641188983
 40
0.8242723579
 40
0.8780882439
 40
0.9240783023
 40
0.9606786557
 40
0.9863061661
 40
1.0
 40
1.0
 40
1.0
 40
1.0
 10
-3.9530427099
 20
23.4563578147
 30
0.0
 10
-3.9783725757
 20
23.4829680256
 30
0.0
 10
-4.0286945658
 20
23.5358334383
 30
0.0
 10
-4.1031511905
 20
23.6142103495
 30
0.0
 10
-4.1750310452
 20
23.6902141515
 30
0.0
 10
-4.2424944528
 20
23.7621356272
 30
0.0
 10
-4.2947896849
 20
23.8186651244
 30
0.0
 10
-4.3322483915
 20
23.8600727359
 30
0.0
 10
-4.3560931227
 20
23.8869707802
 30
0.0
 10
-4.3759371796
 20
23.9102248562
 30
0.0
 10
-4.3914366903
 20
23.929166865
 30
0.0
 10
-4.4009698375
 20
23.9429019588
 30
0.0
 10
-4.4058985671
 20
23.9508222641
 30
0.0
 10
-4.406077753
 20
23.9538922731
 30
0.0
 11
-3.9530427099
 21
23.4563578147
 31
0.0
 11
-4.0290189904
 21
23.5362011214
 31
0.0
 11
-4.1038994562
 21
23.6150577346
 31
0.0
 11
-4.1762662007
 21
23.6916276564
 31
0.0
 11
-4.2444541816
 21
23.7644008237
 31
0.0
 11
-4.3059847807
 21
23.8311096601
 31
0.0
 11
-4.3331533288
 21
23.8611801726
 31
0.0
 11
-4.3571555296
 21
23.8883540894
 31
0.0
 11
-4.3772454839
 21
23.9119423396
 31
0.0
 11
-4.3926281183
 21
23.9312139883
 31
0.0
 11
-4.4024646107
 21
23.9454035296
 31
0.0
 11
-4.406077753
 21
23.9538922731
 31
0.0
  0
SPLINE
  5
71F
100
AcDbEntity
  8
ASSI
100
AcDbSpline
 62
7
  6
CONTINUOUS
 70
0
 71
3
 72
10
 73
6
 74
4
 42
0.0000001
 43
0.0000001
 44
0.0000000001
 12
-0.3811161376
 22
-0.4321048217
 32
0.0
 13
-0.3972454604
 23
-0.417324971
 33
0.0
 40
0.0
 40
0.0
 40
0.0
 40
0.0
 40
0.2092705169
 40
0.4568810154
 40
1.0
 40
1.0
 40
1.0
 40
1.0
 10
-3.5590867224
 20
23.8767611455
 30
0.0
 10
-3.5856721795
 20
23.8466188791
 30
0.0
 10
-3.644999895
 20
23.7819544606
 30
0.0
 10
-3.7763609197
 20
23.6418543656
 30
0.0
 10
-3.8811255262
 20
23.5319101862
 30
0.0
 10
-3.9530427099
 20
23.4563578147
 30
0.0
 11
-3.5590867224
 21
23.8767611455
 31
0.0
 11
-3.6401657832
 21
23.7875183828
 31
0.0
 11
-3.7376302438
 21
23.6833372164
 31
0.0
 11
-3.9530427099
 21
23.4563578147
 31
0.0
  0
SPLINE
  5
720
100
AcDbEntity
  8
ASSI
100
AcDbSpline
 62
7
  6
CONTINUOUS
 70
0
 71
3
 72
9
 73
5
 74
3
 42
0.0000001
 43
0.0000001
 44
0.0000000001
 12
-0.2540586047
 22
0.3592931244
 32
0.0
 13
-0.2443352963
 23
0.3659748446
 33
0.0
 40
0.0
 40
0.0
 40
0.0
 40
0.0
 40
0.2537038893
 40
1.0
 40
1.0
 40
1.0
 40
1.0
 10
-7.5666456542
 20
21.3359869487
 30
0.0
 10
-7.5881308729
 20
21.3663716363
 30
0.0
 10
-7.6728002144
 20
21.4861438704
 30
0.0
 10
-7.7569045474
 20
21.6063473945
 30
0.0
 10
-7.8176867079
 20
21.6973892622
 30
0.0
 11
-7.5666456542
 21
21.3359869487
 31
0.0
 11
-7.6310563883
 21
21.4271727598
 31
0.0
 11
-7.8176867079
 21
21.6973892622
 31
0.0
  0
SPLINE
  5
721
100
AcDbEntity
  8
ASSI
100
AcDbSpline
 62
7
  6
CONTINUOUS
 70
0
 71
3
 72
9
 73
5
 74
3
 42
0.0000001
 43
0.0000001
 44
0.0000000001
 12
-0.2443381471
 22
-0.3659791146
 32
0.0
 13
-0.254061569
 23
-0.3592973165
 33
0.0
 40
0.0
 40
0.0
 40
0.0
 40
0.0
 40
0.2446640881
 40
1.0
 40
1.0
 40
1.0
 40
1.0
 10
7.8176867079
 20
21.6973892622
 30
0.0
 10
7.7977597845
 20
21.6675419468
 30
0.0
 10
7.7153747383
 20
21.5461750303
 30
0.0
 10
7.6306129299
 20
21.4264503374
 30
0.0
 10
7.5666456542
 20
21.3359869487
 30
0.0
 11
7.8176867079
 21
21.6973892622
 31
0.0
 11
7.7573041859
 21
21.6082519992
 31
0.0
 11
7.5666456542
 21
21.3359869487
 31
0.0
  0
SPLINE
  5
722
100
AcDbEntity
  8
ASSI
100
AcDbSpline
 62
7
  6
CONTINUOUS
 70
0
 71
3
 72
9
 73
5
 74
3
 42
0.0000001
 43
0.0000001
 44
0.0000000001
 12
0.2540586047
 22
-0.3592931244
 32
0.0
 13
0.2443352963
 23
-0.3659748446
 33
0.0
 40
0.0
 40
0.0
 40
0.0
 40
0.0
 40
0.2537038893
 40
1.0
 40
1.0
 40
1.0
 40
1.0
 10
7.5666456542
 20
-21.3359869487
 30
0.0
 10
7.5881308729
 20
-21.3663716363
 30
0.0
 10
7.6728002144
 20
-21.4861438704
 30
0.0
 10
7.7569045474
 20
-21.6063473945
 30
0.0
 10
7.8176867079
 20
-21.6973892622
 30
0.0
 11
7.5666456542
 21
-21.3359869487
 31
0.0
 11
7.6310563883
 21
-21.4271727598
 31
0.0
 11
7.8176867079
 21
-21.6973892622
 31
0.0
  0
SPLINE
  5
723
100
AcDbEntity
  8
ASSI
100
AcDbSpline
 62
7
  6
CONTINUOUS
 70
0
 71
3
 72
9
 73
5
 74
3
 42
0.0000001
 43
0.0000001
 44
0.0000000001
 12
0.2443381471
 22
0.3659791146
 32
0.0
 13
0.254061569
 23
0.3592973165
 33
0.0
 40
0.0
 40
0.0
 40
0.0
 40
0.0
 40
0.2446640881
 40
1.0
 40
1.0
 40
1.0
 40
1.0
 10
-7.8176867079
 20
-21.6973892622
 30
0.0
 10
-7.7977597845
 20
-21.6675419468
 30
0.0
 10
-7.7153747383
 20
-21.5461750303
 30
0.0
 10
-7.6306129299
 20
-21.4264503374
 30
0.0
 10
-7.5666456542
 20
-21.3359869487
 30
0.0
 11
-7.8176867079
 21
-21.6973892622
 31
0.0
 11
-7.7573041859
 21
-21.6082519992
 31
0.0
 11
-7.5666456542
 21
-21.3359869487
 31
0.0
  0
SPLINE
  5
724
100
AcDbEntity
  8
ASSI
100
AcDbSpline
 62
253
  6
CONTINUOUS
 70
0
 71
3
 72
11
 73
7
 74
5
 42
0.0000001
 43
0.0000001
 44
0.0000000001
 12
-0.0012232396
 22
-0.3641881922
 32
0.0
 13
-0.3641890909
 23
-0.000917463
 33
0.0
 40
0.0
 40
0.0
 40
0.0
 40
0.0
 40
0.2331915743
 40
0.4766745745
 40
0.7337783373
 40
1.0
 40
1.0
 40
1.0
 40
1.0
 10
10.145628166
 20
23.8443375673
 30
0.0
 10
10.1455330829
 20
23.816029028
 30
0.0
 10
10.1316084733
 20
23.7574811703
 30
0.0
 10
10.0746567444
 20
23.6858440306
 30
0.0
 10
9.9920100603
 20
23.6388233493
 30
0.0
 10
9.9279507386
 20
23.6279126325
 30
0.0
 10
9.8956323968
 20
23.6278312164
 30
0.0
 11
10.145628166
 21
23.8443375673
 31
0.0
 11
10.1263874378
 21
23.7616197559
 31
0.0
 11
10.0721414133
 21
23.6914736881
 31
0.0
 11
9.9911450817
 21
23.6444944577
 31
0.0
 11
9.8956323968
 21
23.6278312164
 31
0.0
  0
SPLINE
  5
725
100
AcDbEntity
  8
ASSI
100
AcDbSpline
 62
253
  6
CONTINUOUS
 70
0
 71
3
 72
11
 73
7
 74
5
 42
0.0000001
 43
0.0000001
 44
0.0000000001
 12
0.0012232396
 22
-0.3641881922
 32
0.0
 13
0.3641890909
 23
-0.000917463
 33
0.0
 40
0.0
 40
0.0
 40
0.0
 40
0.0
 40
0.2331915743
 40
0.4766745745
 40
0.7337783373
 40
1.0
 40
1.0
 40
1.0
 40
1.0
 10
7.254371834
 20
23.8443375673
 30
0.0
 10
7.2544669171
 20
23.816029028
 30
0.0
 10
7.2683915267
 20
23.7574811703
 30
0.0
 10
7.3253432556
 20
23.6858440306
 30
0.0
 10
7.4079899397
 20
23.6388233493
 30
0.0
 10
7.4720492614
 20
23.6279126325
 30
0.0
 10
7.5043676032
 20
23.6278312164
 30
0.0
 11
7.254371834
 21
23.8443375673
 31
0.0
 11
7.2736125622
 21
23.7616197559
 31
0.0
 11
7.3278585867
 21
23.6914736881
 31
0.0
 11
7.4088549183
 21
23.6444944577
 31
0.0
 11
7.5043676032
 21
23.6278312164
 31
0.0
  0
SPLINE
  5
726
100
AcDbEntity
  8
ASSI
100
AcDbSpline
 62
7
  6
CONTINUOUS
 70
0
 71
3
 72
15
 73
11
 74
9
 42
0.0000001
 43
0.0000001
 44
0.0000000001
 12
0.0
 22
0.9503959376
 32
0.0
 13
0.0
 23
-0.9503959376
 33
0.0
 40
0.0
 40
0.0
 40
0.0
 40
0.0
 40
0.1250195531
 40
0.2500085589
 40
0.3750059495
 40
0.5000004136
 40
0.624994655
 40
0.7499918346
 40
0.8749806614
 40
1.0
 40
1.0
 40
1.0
 40
1.0
 10
7.2040044543
 20
-20.0049452141
 30
0.0
 10
7.2040044543
 20
-19.965339189
 30
0.0
 10
7.1882315846
 20
-19.8852743149
 30
0.0
 10
7.1207438893
 20
-19.7839306803
 30
0.0
 10
7.0195529141
 20
-19.7159229496
 30
0.0
 10
6.8999996553
 20
-19.6920466723
 30
0.0
 10
6.7804465458
 20
-19.7159232313
 30
0.0
 10
6.6792558254
 20
-19.7839309664
 30
0.0
 10
6.6117683603
 20
-19.885274515
 30
0.0
 10
6.5959955457
 20
-19.965339257
 30
0.0
 10
6.5959955457
 20
-20.0049452141
 30
0.0
 11
7.2040044543
 21
-20.0049452141
 31
0.0
 11
7.1809229338
 21
-19.8883905984
 31
0.0
 11
7.1151278282
 21
-19.7894874088
 31
0.0
 11
7.0164918938
 21
-19.7232780246
 31
0.0
 11
6.899999598
 21
-19.7000054161
 31
0.0
 11
6.7835075655
 21
-19.7232782622
 31
0.0
 11
6.6848718902
 21
-19.7894876727
 31
0.0
 11
6.6190769827
 21
-19.8883907896
 31
0.0
 11
6.5959955457
 21
-20.0049452141
 31
0.0
  0
SPLINE
  5
727
100
AcDbEntity
  8
ASSI
100
AcDbSpline
 62
7
  6
CONTINUOUS
 70
0
 71
3
 72
15
 73
11
 74
9
 42
0.0000001
 43
0.0000001
 44
0.0000000001
 12
0.0015596185
 22
-1.4594878225
 32
0.0
 13
0.0015596185
 23
1.4594878225
 33
0.0
 40
0.0
 40
0.0
 40
0.0
 40
0.0
 40
0.1246207075
 40
0.2494576422
 40
0.3746189759
 40
0.499999989
 40
0.6253810109
 40
0.7505423516
 40
0.8753792916
 40
1.0
 40
1.0
 40
1.0
 40
1.0
 10
7.3643094176
 20
18.5586556733
 30
0.0
 10
7.3643742045
 20
18.498028205
 30
0.0
 10
7.3407820587
 20
18.3753607216
 30
0.0
 10
7.2387607124
 20
18.2189611787
 30
0.0
 10
7.0840820341
 20
18.112983917
 30
0.0
 10
6.9000000127
 20
18.0754653343
 30
0.0
 10
6.7159179846
 20
18.1129839069
 30
0.0
 10
6.561239294
 20
18.2189611704
 30
0.0
 10
6.4592179428
 20
18.3753607183
 30
0.0
 10
6.4356257955
 20
18.4980282046
 30
0.0
 10
6.4356905824
 20
18.5586556733
 30
0.0
 11
7.3643094176
 21
18.5586556733
 31
0.0
 11
7.3297358281
 21
18.3800894
 31
0.0
 11
7.2301388865
 21
18.2275227155
 31
0.0
 11
7.0793193072
 21
18.1244579377
 31
0.0
 11
6.9000000165
 21
18.0879788352
 31
0.0
 11
6.720680711
 21
18.1244579297
 31
0.0
 11
6.5698611201
 21
18.2275227089
 31
0.0
 11
6.4702641729
 21
18.380089399
 31
0.0
 11
6.4356905824
 21
18.5586556733
 31
0.0
  0
SPLINE
  5
728
100
AcDbEntity
  8
ASSI
100
AcDbSpline
 62
7
  6
CONTINUOUS
 70
0
 71
3
 72
15
 73
11
 74
9
 42
0.0000001
 43
0.0000001
 44
0.0000000001
 12
0.0015596185
 22
-1.4594878226
 32
0.0
 13
0.0015596185
 23
1.4594878226
 33
0.0
 40
0.0
 40
0.0
 40
0.0
 40
0.0
 40
0.1246207097
 40
0.2494576494
 40
0.3746189907
 40
0.5000000154
 40
0.6253810279
 40
0.7505423604
 40
0.875379294
 40
1.0
 40
1.0
 40
1.0
 40
1.0
 10
-6.4356905824
 20
18.5586556733
 30
0.0
 10
-6.4356257955
 20
18.4980282039
 30
0.0
 10
-6.459217943
 20
18.375360717
 30
0.0
 10
-6.5612392954
 20
18.218961169
 30
0.0
 10
-6.7159179877
 20
18.1129839051
 30
0.0
 10
-6.9000000178
 20
18.0754653341
 30
0.0
 10
-7.0840820391
 20
18.1129839194
 30
0.0
 10
-7.2387607151
 20
18.2189611817
 30
0.0
 10
-7.3407820593
 20
18.3753607236
 30
0.0
 10
-7.3643742045
 20
18.4980282057
 30
0.0
 10
-7.3643094176
 20
18.5586556733
 30
0.0
 11
-6.4356905824
 21
18.5586556733
 31
0.0
 11
-6.4702641735
 21
18.3800893971
 31
0.0
 11
-6.5698611212
 21
18.2275227078
 31
0.0
 11
-6.7206807133
 21
18.1244579287
 31
0.0
 11
-6.900000023
 21
18.0879788352
 31
0.0
 11
-7.0793193123
 21
18.1244579399
 31
0.0
 11
-7.2301388892
 21
18.2275227183
 31
0.0
 11
-7.329735829
 21
18.3800894022
 31
0.0
 11
-7.3643094176
 21
18.5586556733
 31
0.0
  0
SPLINE
  5
729
100
AcDbEntity
  8
ASSI
100
AcDbSpline
 62
7
  6
CONTINUOUS
 70
0
 71
3
 72
15
 73
11
 74
9
 42
0.0000001
 43
0.0000001
 44
0.0000000001
 12
-0.0015093599
 22
1.4086096034
 32
0.0
 13
-0.0015093599
 23
-1.4086096034
 33
0.0
 40
0.0
 40
0.0
 40
0.0
 40
0.0
 40
0.1246217211
 40
0.2494454594
 40
0.3746041031
 40
0.5000002548
 40
0.6253962233
 40
0.7505547479
 40
0.8753784034
 40
1.0
 40
1.0
 40
1.0
 40
1.0
 10
-7.3480695647
 20
-18.7051734659
 30
0.0
 10
-7.3481322644
 20
-18.6466590149
 30
0.0
 10
-7.3253641547
 20
-18.5282748729
 30
0.0
 10
-7.2269327848
 20
-18.3773202783
 30
0.0
 10
-7.0776786518
 20
-18.2749911542
 30
0.0
 10
-6.8999997079
 20
-18.2387479989
 30
0.0
 10
-6.722320891
 20
-18.2749913902
 30
0.0
 10
-6.5730669986
 20
-18.3773205194
 30
0.0
 10
-6.4746357958
 20
-18.5282750318
 30
0.0
 10
-6.4518677357
 20
-18.6466590733
 30
0.0
 10
-6.4519304353
 20
-18.7051734659
 30
0.0
 11
-7.3480695647
 21
-18.7051734659
 31
0.0
 11
-7.3147057977
 21
-18.5328297301
 31
0.0
 11
-7.2186159064
 21
-18.3855808777
 31
0.0
 11
-7.0730839244
 21
-18.2860718298
 31
0.0
 11
-6.8999996332
 21
-18.2508367212
 31
0.0
 11
-6.7269156436
 21
-18.2860720179
 31
0.0
 11
-6.5813838812
 21
-18.38558109
 31
0.0
 11
-6.4852941307
 21
-18.5328298949
 31
0.0
 11
-6.4519304353
 21
-18.7051734659
 31
0.0
  0
SPLINE
  5
72A
100
AcDbEntity
  8
ASSI
100
AcDbSpline
 62
7
  6
CONTINUOUS
 70
0
 71
3
 72
15
 73
11
 74
9
 42
0.0000001
 43
0.0000001
 44
0.0000000001
 12
-0.0015093599
 22
1.4086096035
 32
0.0
 13
-0.0015093599
 23
-1.4086096035
 33
0.0
 40
0.0
 40
0.0
 40
0.0
 40
0.0
 40
0.1246217205
 40
0.2494454555
 40
0.3746040962
 40
0.5000002493
 40
0.6253962226
 40
0.7505547481
 40
0.8753784049
 40
1.0
 40
1.0
 40
1.0
 40
1.0
 10
6.4519304353
 20
-18.7051734659
 30
0.0
 10
6.4518677356
 20
-18.6466590151
 30
0.0
 10
6.4746358442
 20
-18.5282748748
 30
0.0
 10
6.5730672117
 20
-18.3773202828
 30
0.0
 10
6.7223213406
 20
-18.2749911575
 30
0.0
 10
6.9000002854
 20
-18.2387479983
 30
0.0
 10
7.0776791064
 20
-18.2749913885
 30
0.0
 10
7.2269330019
 20
-18.3773205194
 30
0.0
 10
7.3253642041
 20
-18.5282750327
 30
0.0
 10
7.3481322643
 20
-18.646659074
 30
0.0
 10
7.3480695647
 20
-18.7051734659
 30
0.0
 11
6.4519304353
 21
-18.7051734659
 31
0.0
 11
6.4852942016
 21
-18.5328297309
 31
0.0
 11
6.5813840895
 21
-18.3855808818
 31
0.0
 11
6.7269160663
 21
-18.2860718337
 31
0.0
 11
6.9000003588
 21
-18.2508367212
 31
0.0
 11
7.0730843553
 21
-18.2860720174
 31
0.0
 11
7.2186161189
 21
-18.3855810901
 31
0.0
 11
7.3147058698
 21
-18.5328298969
 31
0.0
 11
7.3480695647
 21
-18.7051734659
 31
0.0
  0
SPLINE
  5
72B
100
AcDbEntity
  8
ASSI
100
AcDbSpline
 62
253
  6
CONTINUOUS
 70
0
 71
3
 72
18
 73
14
 74
12
 42
0.0000001
 43
0.0000001
 44
0.0000000001
 12
-0.1911551888
 22
-0.4620082223
 32
0.0
 13
0.0000001182
 23
-0.4999919036
 33
0.0
 40
0.0
 40
0.0
 40
0.0
 40
0.0
 40
0.0056205158
 40
0.0207096132
 40
0.0451247575
 40
0.0786404415
 40
0.1209084934
 40
0.1715596616
 40
0.295971764
 40
0.4471559405
 40
0.6192994736
 40
0.8060378613
 40
1.0
 40
1.0
 40
1.0
 40
1.0
 10
4.2043367793
 20
-17.2956746438
 30
0.0
 10
4.2039786491
 20
-17.2965402186
 30
0.0
 10
4.204426963
 20
-17.3001424797
 30
0.0
 10
4.203767975
 20
-17.3075242579
 30
0.0
 10
4.2038956653
 20
-17.3197683784
 30
0.0
 10
4.2036214307
 20
-17.3364348869
 30
0.0
 10
4.2035176987
 20
-17.3575187106
 30
0.0
 10
4.2032925712
 20
-17.3937338538
 30
0.0
 10
4.2030871802
 20
-17.4481106382
 30
0.0
 10
4.2028751961
 20
-17.5227310311
 30
0.0
 10
4.2027231631
 20
-17.6077410105
 30
0.0
 10
4.2026278982
 20
-17.699880009
 30
0.0
 10
4.2026066292
 20
-17.7633291056
 30
0.0
 10
4.2026066368
 20
-17.7956556053
 30
0.0
 11
4.2043367793
 21
-17.2956746438
 31
0.0
 11
4.2041666934
 21
-17.2984797043
 31
0.0
 11
4.203998416
 21
-17.3060222539
 31
0.0
 11
4.203833595
 21
-17.3182285156
 31
0.0
 11
4.2036737918
 21
-17.3349853243
 31
0.0
 11
4.2035204343
 21
-17.3561184516
 31
0.0
 11
4.2033749327
 21
-17.3814432076
 31
0.0
 11
4.2031128019
 21
-17.4436476992
 31
0.0
 11
4.202897518
 21
-17.5192382568
 31
0.0
 11
4.2027378965
 21
-17.6053084816
 31
0.0
 11
4.2026398095
 21
-17.698676112
 31
0.0
 11
4.2026066368
 21
-17.7956556053
 31
0.0
  0
SPLINE
  5
72C
100
AcDbEntity
  8
ASSI
100
AcDbSpline
 62
253
  6
CONTINUOUS
 70
0
 71
3
 72
11
 73
7
 74
5
 42
0.0000001
 43
0.0000001
 44
0.0000000001
 12
-0.0012232396
 22
-0.3641881922
 32
0.0
 13
-0.3641890909
 23
-0.000917463
 33
0.0
 40
0.0
 40
0.0
 40
0.0
 40
0.0
 40
0.2331915743
 40
0.4766745745
 40
0.7337783373
 40
1.0
 40
1.0
 40
1.0
 40
1.0
 10
-7.254371834
 20
23.8443375673
 30
0.0
 10
-7.2544669171
 20
23.816029028
 30
0.0
 10
-7.2683915267
 20
23.7574811703
 30
0.0
 10
-7.3253432556
 20
23.6858440306
 30
0.0
 10
-7.4079899397
 20
23.6388233493
 30
0.0
 10
-7.4720492614
 20
23.6279126325
 30
0.0
 10
-7.5043676032
 20
23.6278312164
 30
0.0
 11
-7.254371834
 21
23.8443375673
 31
0.0
 11
-7.2736125622
 21
23.7616197559
 31
0.0
 11
-7.3278585867
 21
23.6914736881
 31
0.0
 11
-7.4088549183
 21
23.6444944577
 31
0.0
 11
-7.5043676032
 21
23.6278312164
 31
0.0
  0
SPLINE
  5
72D
100
AcDbEntity
  8
ASSI
100
AcDbSpline
 62
253
  6
CONTINUOUS
 70
0
 71
3
 72
11
 73
7
 74
5
 42
0.0000001
 43
0.0000001
 44
0.0000000001
 12
0.0012232396
 22
-0.3641881922
 32
0.0
 13
0.3641890909
 23
-0.000917463
 33
0.0
 40
0.0
 40
0.0
 40
0.0
 40
0.0
 40
0.2331915743
 40
0.4766745745
 40
0.7337783373
 40
1.0
 40
1.0
 40
1.0
 40
1.0
 10
-10.145628166
 20
23.8443375673
 30
0.0
 10
-10.1455330829
 20
23.816029028
 30
0.0
 10
-10.1316084733
 20
23.7574811703
 30
0.0
 10
-10.0746567444
 20
23.6858440306
 30
0.0
 10
-9.9920100603
 20
23.6388233493
 30
0.0
 10
-9.9279507386
 20
23.6279126325
 30
0.0
 10
-9.8956323968
 20
23.6278312164
 30
0.0
 11
-10.145628166
 21
23.8443375673
 31
0.0
 11
-10.1263874378
 21
23.7616197559
 31
0.0
 11
-10.0721414133
 21
23.6914736881
 31
0.0
 11
-9.9911450817
 21
23.6444944577
 31
0.0
 11
-9.8956323968
 21
23.6278312164
 31
0.0
  0
SPLINE
  5
72E
100
AcDbEntity
  8
ASSI
100
AcDbSpline
 62
253
  6
CONTINUOUS
 70
0
 71
3
 72
11
 73
7
 74
5
 42
0.0000001
 43
0.0000001
 44
0.0000000001
 12
-0.0012232396
 22
0.3641881911
 32
0.0
 13
-0.3641890898
 23
0.000917463
 33
0.0
 40
0.0
 40
0.0
 40
0.0
 40
0.0
 40
0.2331916137
 40
0.4766746591
 40
0.7337784865
 40
1.0
 40
1.0
 40
1.0
 40
1.0
 10
10.145628166
 20
-23.8443375673
 30
0.0
 10
10.1455330829
 20
-23.8160290233
 30
0.0
 10
10.1316084677
 20
-23.7574811558
 30
0.0
 10
10.0746567212
 20
-23.6858440048
 30
0.0
 10
9.992010029
 20
-23.6388233468
 30
0.0
 10
9.9279507203
 20
-23.6279126325
 30
0.0
 10
9.8956323968
 20
-23.6278312164
 30
0.0
 11
10.145628166
 21
-23.8443375673
 31
0.0
 11
10.1263874314
 21
-23.761619743
 31
0.0
 11
10.0721413903
 21
-23.6914736674
 31
0.0
 11
9.991145029
 21
-23.644494442
 31
0.0
 11
9.8956323968
 21
-23.6278312164
 31
0.0
  0
SPLINE
  5
72F
100
AcDbEntity
  8
ASSI
100
AcDbSpline
 62
253
  6
CONTINUOUS
 70
0
 71
3
 72
11
 73
7
 74
5
 42
0.0000001
 43
0.0000001
 44
0.0000000001
 12
0.0012232396
 22
0.3641881885
 32
0.0
 13
0.3641890872
 23
0.000917463
 33
0.0
 40
0.0
 40
0.0
 40
0.0
 40
0.0
 40
0.2331911215
 40
0.4766742664
 40
0.7337781758
 40
1.0
 40
1.0
 40
1.0
 40
1.0
 10
7.254371834
 20
-23.8443375673
 30
0.0
 10
7.2544669169
 20
-23.8160290833
 30
0.0
 10
7.2683915068
 20
-23.7574812729
 30
0.0
 10
7.3253431573
 20
-23.6858440937
 30
0.0
 10
7.4079898845
 20
-23.6388233639
 30
0.0
 10
7.4720492422
 20
-23.6279126326
 30
0.0
 10
7.5043676032
 20
-23.6278312164
 30
0.0
 11
7.254371834
 21
-23.8443375673
 31
0.0
 11
7.2736124995
 21
-23.7616199115
 31
0.0
 11
7.3278585014
 21
-23.6914737607
 31
0.0
 11
7.4088548631
 21
-23.6444944778
 31
0.0
 11
7.5043676032
 21
-23.6278312164
 31
0.0
  0
SPLINE
  5
730
100
AcDbEntity
  8
ASSI
100
AcDbSpline
 62
253
  6
CONTINUOUS
 70
0
 71
3
 72
11
 73
7
 74
5
 42
0.0000001
 43
0.0000001
 44
0.0000000001
 12
0.0012232396
 22
0.3641881911
 32
0.0
 13
0.3641890898
 23
0.000917463
 33
0.0
 40
0.0
 40
0.0
 40
0.0
 40
0.0
 40
0.2331916137
 40
0.4766746591
 40
0.7337784865
 40
1.0
 40
1.0
 40
1.0
 40
1.0
 10
-10.145628166
 20
-23.8443375673
 30
0.0
 10
-10.1455330829
 20
-23.8160290233
 30
0.0
 10
-10.1316084677
 20
-23.7574811558
 30
0.0
 10
-10.0746567212
 20
-23.6858440048
 30
0.0
 10
-9.992010029
 20
-23.6388233468
 30
0.0
 10
-9.9279507203
 20
-23.6279126325
 30
0.0
 10
-9.8956323968
 20
-23.6278312164
 30
0.0
 11
-10.145628166
 21
-23.8443375673
 31
0.0
 11
-10.1263874314
 21
-23.761619743
 31
0.0
 11
-10.0721413903
 21
-23.6914736674
 31
0.0
 11
-9.991145029
 21
-23.644494442
 31
0.0
 11
-9.8956323968
 21
-23.6278312164
 31
0.0
  0
SPLINE
  5
731
100
AcDbEntity
  8
ASSI
100
AcDbSpline
 62
7
  6
CONTINUOUS
 70
0
 71
3
 72
15
 73
11
 74
9
 42
0.0000001
 43
0.0000001
 44
0.0000000001
 12
0.0
 22
0.9503959377
 32
0.0
 13
0.0
 23
-0.9503959377
 33
0.0
 40
0.0
 40
0.0
 40
0.0
 40
0.0
 40
0.1250195563
 40
0.2500085662
 40
0.3750059593
 40
0.5000004213
 40
0.6249946569
 40
0.7499918346
 40
0.8749806591
 40
1.0
 40
1.0
 40
1.0
 40
1.0
 10
-6.5959955457
 20
-20.0049452141
 30
0.0
 10
-6.5959955457
 20
-19.965339188
 30
0.0
 10
-6.6117684165
 20
-19.8852743114
 30
0.0
 10
-6.6792561155
 20
-19.7839306754
 30
0.0
 10
-6.7804470936
 20
-19.7159229461
 30
0.0
 10
-6.9000003513
 20
-19.6920466723
 30
0.0
 10
-7.0195534569
 20
-19.7159232332
 30
0.0
 10
-7.1207441743
 20
-19.7839309666
 30
0.0
 10
-7.1882316398
 20
-19.8852745141
 30
0.0
 10
-7.2040044543
 20
-19.9653392562
 30
0.0
 10
-7.2040044543
 20
-20.0049452141
 30
0.0
 11
-6.5959955457
 21
-20.0049452141
 31
0.0
 11
-6.6190770676
 21
-19.8883905956
 31
0.0
 11
-6.684872177
 21
-19.7894874039
 31
0.0
 11
-6.7835081151
 21
-19.7232780207
 31
0.0
 11
-6.9000004095
 21
-19.7000054157
 31
0.0
 11
-7.0164924363
 21
-19.723278263
 31
0.0
 11
-7.1151281098
 21
-19.7894876728
 31
0.0
 11
-7.1809230167
 21
-19.8883907875
 31
0.0
 11
-7.2040044543
 21
-20.0049452141
 31
0.0
  0
SPLINE
  5
732
100
AcDbEntity
  8
ASSI
100
AcDbSpline
 62
253
  6
CONTINUOUS
 70
0
 71
3
 72
11
 73
7
 74
5
 42
0.0000001
 43
0.0000001
 44
0.0000000001
 12
-0.0012232396
 22
0.3641881885
 32
0.0
 13
-0.3641890872
 23
0.000917463
 33
0.0
 40
0.0
 40
0.0
 40
0.0
 40
0.0
 40
0.2331911215
 40
0.4766742664
 40
0.7337781758
 40
1.0
 40
1.0
 40
1.0
 40
1.0
 10
-7.254371834
 20
-23.8443375673
 30
0.0
 10
-7.2544669169
 20
-23.8160290833
 30
0.0
 10
-7.2683915068
 20
-23.7574812729
 30
0.0
 10
-7.3253431573
 20
-23.6858440937
 30
0.0
 10
-7.4079898845
 20
-23.6388233639
 30
0.0
 10
-7.4720492422
 20
-23.6279126326
 30
0.0
 10
-7.5043676032
 20
-23.6278312164
 30
0.0
 11
-7.254371834
 21
-23.8443375673
 31
0.0
 11
-7.2736124995
 21
-23.7616199115
 31
0.0
 11
-7.3278585014
 21
-23.6914737607
 31
0.0
 11
-7.4088548631
 21
-23.6444944778
 31
0.0
 11
-7.5043676032
 21
-23.6278312164
 31
0.0
  0
SPLINE
  5
733
100
AcDbEntity
  8
ASSI
100
AcDbSpline
 62
253
  6
CONTINUOUS
 70
0
 71
3
 72
18
 73
14
 74
12
 42
0.0000001
 43
0.0000001
 44
0.0000000001
 12
0.1870229805
 22
-0.4636963523
 32
0.0
 13
-0.0000007324
 23
-0.4999919022
 33
0.0
 40
0.0
 40
0.0
 40
0.0
 40
0.0
 40
0.0056315589
 40
0.0207150966
 40
0.045123019
 40
0.0786376768
 40
0.1209078067
 40
0.1715603793
 40
0.295971777
 40
0.447155843
 40
0.6192995207
 40
0.8060378431
 40
1.0
 40
1.0
 40
1.0
 40
1.0
 10
-4.2043367793
 20
-17.2956746438
 30
0.0
 10
-4.2039857023
 20
-17.2965450882
 30
0.0
 10
-4.2044168711
 20
-17.300141154
 30
0.0
 10
-4.2037741465
 20
-17.3075292176
 30
0.0
 10
-4.2038932513
 20
-17.3197674343
 30
0.0
 10
-4.2036227408
 20
-17.3364344552
 30
0.0
 10
-4.2035174271
 20
-17.3575181072
 30
0.0
 10
-4.2032925896
 20
-17.393733977
 30
0.0
 10
-4.2030865039
 20
-17.4481106923
 30
0.0
 10
-4.2028752894
 20
-17.5227310427
 30
0.0
 10
-4.2027233173
 20
-17.6077409944
 30
0.0
 10
-4.2026278659
 20
-17.6998800157
 30
0.0
 10
-4.2026065895
 20
-17.7633291027
 30
0.0
 10
-4.2026066368
 20
-17.7956556053
 30
0.0
 11
-4.2043367793
 21
-17.2956746438
 31
0.0
 11
-4.2041664622
 21
-17.2984852218
 31
0.0
 11
-4.20399842
 21
-17.3060249962
 31
0.0
 11
-4.2038338454
 21
-17.31822765
 31
0.0
 11
-4.2036740507
 21
-17.3349839456
 31
0.0
 11
-4.2035205328
 21
-17.3561181107
 31
0.0
 11
-4.2033747988
 21
-17.3814435675
 31
0.0
 11
-4.2031123989
 21
-17.4436477055
 31
0.0
 11
-4.2028974623
 21
-17.5192382086
 31
0.0
 11
-4.2027380112
 21
-17.6053085058
 31
0.0
 11
-4.2026398088
 21
-17.6986761032
 31
0.0
 11
-4.2026066368
 21
-17.7956556053
 31
0.0
  0
SPLINE
  5
734
100
AcDbEntity
  8
ASSI
100
AcDbSpline
 62
7
  6
CONTINUOUS
 70
0
 71
3
 72
15
 73
11
 74
9
 42
0.0000001
 43
0.0000001
 44
0.0000000001
 12
-0.0
 22
-0.9503959378
 32
0.0
 13
-0.0
 23
0.9503959378
 33
0.0
 40
0.0
 40
0.0
 40
0.0
 40
0.0
 40
0.1250195543
 40
0.2500085548
 40
0.3750059391
 40
0.5000003959
 40
0.6249946445
 40
0.7499918275
 40
0.8749806527
 40
1.0
 40
1.0
 40
1.0
 40
1.0
 10
-7.2040044543
 20
20.0049452141
 30
0.0
 10
-7.2040044543
 20
19.9653391886
 30
0.0
 10
-7.1882315853
 20
19.8852743156
 30
0.0
 10
-7.120743892
 20
19.783930684
 30
0.0
 10
-7.0195529236
 20
19.7159229546
 30
0.0
 10
-6.8999996684
 20
19.6920466728
 30
0.0
 10
-6.7804465559
 20
19.7159232257
 30
0.0
 10
-6.6792558321
 20
19.783930961
 30
0.0
 10
-6.6117683608
 20
19.8852745094
 30
0.0
 10
-6.5959955457
 20
19.9653392542
 30
0.0
 10
-6.5959955457
 20
20.0049452141
 30
0.0
 11
-7.2040044543
 21
20.0049452141
 31
0.0
 11
-7.1809229337
 21
19.8883905972
 31
0.0
 11
-7.1151278312
 21
19.7894874116
 31
0.0
 11
-7.0164919032
 21
19.7232780286
 31
0.0
 11
-6.8999996151
 21
19.7000054164
 31
0.0
 11
-6.7835075747
 21
19.7232782582
 31
0.0
 11
-6.6848718952
 21
19.7894876682
 31
0.0
 11
-6.6190769853
 21
19.8883907817
 31
0.0
 11
-6.5959955457
 21
20.0049452141
 31
0.0
  0
SPLINE
  5
735
100
AcDbEntity
  8
ASSI
100
AcDbSpline
 62
7
  6
CONTINUOUS
 70
0
 71
3
 72
15
 73
11
 74
9
 42
0.0000001
 43
0.0000001
 44
0.0000000001
 12
-0.0
 22
-0.9503959378
 32
0.0
 13
-0.0
 23
0.9503959378
 33
0.0
 40
0.0
 40
0.0
 40
0.0
 40
0.0
 40
0.1250195572
 40
0.2500085679
 40
0.3750059616
 40
0.500000423
 40
0.6249946573
 40
0.7499918346
 40
0.8749806585
 40
1.0
 40
1.0
 40
1.0
 40
1.0
 10
6.5959955457
 20
20.0049452141
 30
0.0
 10
6.5959955457
 20
19.9653391877
 30
0.0
 10
6.6117684167
 20
19.8852743106
 30
0.0
 10
6.6792561167
 20
19.7839306742
 30
0.0
 10
6.7804470953
 20
19.7159229453
 30
0.0
 10
6.9000003528
 20
19.6920466723
 30
0.0
 10
7.0195534575
 20
19.7159232336
 30
0.0
 10
7.1207441741
 20
19.7839309667
 30
0.0
 10
7.1882316398
 20
19.8852745139
 30
0.0
 10
7.2040044543
 20
19.965339256
 30
0.0
 10
7.2040044543
 20
20.0049452141
 30
0.0
 11
6.5959955457
 21
20.0049452141
 31
0.0
 11
6.6190770679
 21
19.8883905947
 31
0.0
 11
6.6848721782
 21
19.7894874028
 31
0.0
 11
6.7835081171
 21
19.7232780198
 31
0.0
 11
6.9000004112
 21
19.7000054157
 31
0.0
 11
7.0164924366
 21
19.7232782631
 31
0.0
 11
7.1151281098
 21
19.7894876728
 31
0.0
 11
7.1809230166
 21
19.888390787
 31
0.0
 11
7.2040044543
 21
20.0049452141
 31
0.0
  0
SPLINE
  5
736
100
AcDbEntity
  8
ASSI
100
AcDbSpline
 62
253
  6
CONTINUOUS
 70
0
 71
3
 72
18
 73
14
 74
12
 42
0.0000001
 43
0.0000001
 44
0.0000000001
 12
-0.1463406332
 22
-0.1363535244
 32
0.0
 13
0.0000001332
 23
-0.2000196604
 33
0.0
 40
0.0
 40
0.0
 40
0.0
 40
0.0
 40
0.0056595009
 40
0.0207718106
 40
0.0451926075
 40
0.0787278535
 40
0.1210229677
 40
0.1716586547
 40
0.2960958346
 40
0.4472150653
 40
0.6193541366
 40
0.8061721096
 40
1.0
 40
1.0
 40
1.0
 40
1.0
 10
4.5043253562
 20
-17.5956632207
 30
0.0
 10
4.5040492846
 20
-17.5959204516
 30
0.0
 10
4.5043108392
 20
-17.5975498463
 30
0.0
 10
4.5038211923
 20
-17.6003358328
 30
0.0
 10
4.5038553271
 20
-17.6053274713
 30
0.0
 10
4.5036208902
 20
-17.6119572618
 30
0.0
 10
4.503502023
 20
-17.620407682
 30
0.0
 10
4.5032835405
 20
-17.6348898084
 30
0.0
 10
4.5030743819
 20
-17.6566427506
 30
0.0
 10
4.5028643962
 20
-17.6864890486
 30
0.0
 10
4.5027117872
 20
-17.7204979165
 30
0.0
 10
4.5026165382
 20
-17.7573535293
 30
0.0
 10
4.5025952051
 20
-17.7827324757
 30
0.0
 10
4.5025952137
 20
-17.7956556053
 30
0.0
 11
4.5043253562
 21
-17.5956632207
 31
0.0
 11
4.5041556878
 21
-17.5967824448
 31
0.0
 11
4.5039873371
 21
-17.5998005121
 31
0.0
 11
4.5038221986
 21
-17.6046823593
 31
0.0
 11
4.503662117
 21
-17.6113881574
 31
0.0
 11
4.5035086071
 21
-17.6198466189
 31
0.0
 11
4.50336305
 21
-17.6299737058
 31
0.0
 11
4.503101166
 21
-17.6548622105
 31
0.0
 11
4.5028862544
 21
-17.6850882636
 31
0.0
 11
4.5027266529
 21
-17.7195190923
 31
0.0
 11
4.5026284061
 21
-17.7568862307
 31
0.0
 11
4.5025952137
 21
-17.7956556053
 31
0.0
  0
SPLINE
  5
737
100
AcDbEntity
  8
ASSI
100
AcDbSpline
 62
253
  6
CONTINUOUS
 70
0
 71
3
 72
18
 73
14
 74
12
 42
0.0000001
 43
0.0000001
 44
0.0000000001
 12
0.1419645396
 22
-0.1409039083
 32
0.0
 13
-0.0000003312
 23
-0.2000196037
 33
0.0
 40
0.0
 40
0.0
 40
0.0
 40
0.0
 40
0.0056863865
 40
0.0207922567
 40
0.0451956102
 40
0.0787222879
 40
0.1210189186
 40
0.1716596497
 40
0.2960979762
 40
0.4472128496
 40
0.6193533268
 40
0.8061724699
 40
1.0
 40
1.0
 40
1.0
 40
1.0
 10
-4.5043253562
 20
-17.5956632207
 30
0.0
 10
-4.5040562678
 20
-17.5959302987
 30
0.0
 10
-4.504301382
 20
-17.5975422183
 30
0.0
 10
-4.5038271713
 20
-17.6003459155
 30
0.0
 10
-4.5038526258
 20
-17.6053257391
 30
0.0
 10
-4.5036218925
 20
-17.6119580218
 30
0.0
 10
-4.5035016637
 20
-17.6204067567
 30
0.0
 10
-4.5032838268
 20
-17.6348901017
 30
0.0
 10
-4.5030742544
 20
-17.6566427159
 30
0.0
 10
-4.5028644221
 20
-17.6864890658
 30
0.0
 10
-4.5027117806
 20
-17.7204977461
 30
0.0
 10
-4.502616534
 20
-17.7573535145
 30
0.0
 10
-4.5025951923
 20
-17.7827325034
 30
0.0
 10
-4.5025952137
 20
-17.7956556053
 30
0.0
 11
-4.5043253562
 21
-17.5956632207
 31
0.0
 11
-4.5041556879
 21
-17.5967878833
 31
0.0
 11
-4.5039873365
 21
-17.5998046596
 31
0.0
 11
-4.5038221975
 21
-17.6046830144
 31
0.0
 11
-4.503662116
 21
-17.6113870963
 31
0.0
 11
-4.5035086065
 21
-17.6198458587
 31
0.0
 11
-4.5033630489
 21
-17.6299739518
 31
0.0
 11
-4.5031011593
 21
-17.6548626787
 31
0.0
 11
-4.5028862467
 21
-17.6850878518
 31
0.0
 11
-4.5027266531
 21
-17.719518952
 31
0.0
 11
-4.5026283991
 21
-17.7568863137
 31
0.0
 11
-4.5025952137
 21
-17.7956556053
 31
0.0
  0
SPLINE
  5
738
100
AcDbEntity
  8
0
100
AcDbSpline
 62
7
  6
CONTINUOUS
 70
0
 71
3
 72
8
 73
4
 74
2
 42
0.0000001
 43
0.0000001
 44
0.0000000001
 12
0.0574597551
 22
-0.0894093869
 32
0.0
 13
0.0894093869
 23
-0.0574597551
 33
0.0
 40
0.0
 40
0.0
 40
0.0
 40
0.0
 40
1.0
 40
1.0
 40
1.0
 40
1.0
 10
-10.1103145581
 20
-24.3851625059
 30
0.0
 10
-10.0911613064
 20
-24.4149656349
 30
0.0
 10
-10.0649656349
 20
-24.4411613064
 30
0.0
 10
-10.0351625059
 20
-24.4603145581
 30
0.0
 11
-10.1103145581
 21
-24.3851625059
 31
0.0
 11
-10.0351625059
 21
-24.4603145581
 31
0.0
  0
SPLINE
  5
739
100
AcDbEntity
  8
0
100
AcDbSpline
 62
7
  6
CONTINUOUS
 70
0
 71
3
 72
8
 73
4
 74
2
 42
0.0000001
 43
0.0000001
 44
0.0000000001
 12
0.0826199591
 22
-0.0425948174
 32
0.0
 13
0.0924708835
 23
-0.0094610679
 33
0.0
 40
0.0
 40
0.0
 40
0.0
 40
0.0
 40
1.0
 40
1.0
 40
1.0
 40
1.0
 10
-10.0145591099
 20
-24.4722096181
 30
0.0
 10
-9.9870191235
 20
-24.4864078905
 30
0.0
 10
-9.9562837605
 20
-24.4955464622
 30
0.0
 10
-9.9254601326
 20
-24.4987001515
 30
0.0
 11
-10.0145591099
 21
-24.4722096181
 31
0.0
 11
-9.9254601326
 21
-24.4987001515
 31
0.0
  0
SPLINE
  5
73A
100
AcDbEntity
  8
0
100
AcDbSpline
 62
7
  6
CONTINUOUS
 70
0
 71
3
 72
8
 73
4
 74
2
 42
0.0000001
 43
0.0000001
 44
0.0000000001
 12
0.0894093869
 22
0.0574597551
 32
0.0
 13
0.0574597551
 23
0.0894093869
 33
0.0
 40
0.0
 40
0.0
 40
0.0
 40
0.0
 40
1.0
 40
1.0
 40
1.0
 40
1.0
 10
-7.3648374941
 20
-24.4603145581
 30
0.0
 10
-7.3350343651
 20
-24.4411613064
 30
0.0
 10
-7.3088386936
 20
-24.4149656349
 30
0.0
 10
-7.2896854419
 20
-24.3851625059
 30
0.0
 11
-7.3648374941
 21
-24.4603145581
 31
0.0
 11
-7.2896854419
 21
-24.3851625059
 31
0.0
  0
SPLINE
  5
73B
100
AcDbEntity
  8
0
100
AcDbSpline
 62
7
  6
CONTINUOUS
 70
0
 71
3
 72
8
 73
4
 74
2
 42
0.0000001
 43
0.0000001
 44
0.0000000001
 12
0.0425948174
 22
0.0826199591
 32
0.0
 13
0.0094610679
 23
0.0924708835
 33
0.0
 40
0.0
 40
0.0
 40
0.0
 40
0.0
 40
1.0
 40
1.0
 40
1.0
 40
1.0
 10
-7.2777903819
 20
-24.3645591099
 30
0.0
 10
-7.2635921095
 20
-24.3370191235
 30
0.0
 10
-7.2544535378
 20
-24.3062837605
 30
0.0
 10
-7.2512998485
 20
-24.2754601326
 30
0.0
 11
-7.2777903819
 21
-24.3645591099
 31
0.0
 11
-7.2512998485
 21
-24.2754601326
 31
0.0
  0
SPLINE
  5
73C
100
AcDbEntity
  8
0
100
AcDbSpline
 62
7
  6
CONTINUOUS
 70
0
 71
3
 72
8
 73
4
 74
2
 42
0.0000001
 43
0.0000001
 44
0.0000000001
 12
0.0894093869
 22
0.0574597551
 32
0.0
 13
0.0574597551
 23
0.0894093869
 33
0.0
 40
0.0
 40
0.0
 40
0.0
 40
0.0
 40
1.0
 40
1.0
 40
1.0
 40
1.0
 10
10.0351625059
 20
-24.4603145581
 30
0.0
 10
10.0649656349
 20
-24.4411613064
 30
0.0
 10
10.0911613064
 20
-24.4149656349
 30
0.0
 10
10.1103145581
 20
-24.3851625059
 30
0.0
 11
10.0351625059
 21
-24.4603145581
 31
0.0
 11
10.1103145581
 21
-24.3851625059
 31
0.0
  0
SPLINE
  5
73D
100
AcDbEntity
  8
0
100
AcDbSpline
 62
7
  6
CONTINUOUS
 70
0
 71
3
 72
8
 73
4
 74
2
 42
0.0000001
 43
0.0000001
 44
0.0000000001
 12
0.0425948174
 22
0.0826199591
 32
0.0
 13
0.0094610679
 23
0.0924708835
 33
0.0
 40
0.0
 40
0.0
 40
0.0
 40
0.0
 40
1.0
 40
1.0
 40
1.0
 40
1.0
 10
10.1222096181
 20
-24.3645591099
 30
0.0
 10
10.1364078905
 20
-24.3370191235
 30
0.0
 10
10.1455464622
 20
-24.3062837605
 30
0.0
 10
10.1487001515
 20
-24.2754601326
 30
0.0
 11
10.1222096181
 21
-24.3645591099
 31
0.0
 11
10.1487001515
 21
-24.2754601326
 31
0.0
  0
SPLINE
  5
73E
100
AcDbEntity
  8
0
100
AcDbSpline
 62
7
  6
CONTINUOUS
 70
0
 71
3
 72
8
 73
4
 74
2
 42
0.0000001
 43
0.0000001
 44
0.0000000001
 12
0.0574597551
 22
-0.0894093869
 32
0.0
 13
0.0894093869
 23
-0.0574597551
 33
0.0
 40
0.0
 40
0.0
 40
0.0
 40
0.0
 40
1.0
 40
1.0
 40
1.0
 40
1.0
 10
7.2896854419
 20
-24.3851625059
 30
0.0
 10
7.3088386936
 20
-24.4149656349
 30
0.0
 10
7.3350343651
 20
-24.4411613064
 30
0.0
 10
7.3648374941
 20
-24.4603145581
 30
0.0
 11
7.2896854419
 21
-24.3851625059
 31
0.0
 11
7.3648374941
 21
-24.4603145581
 31
0.0
  0
SPLINE
  5
73F
100
AcDbEntity
  8
0
100
AcDbSpline
 62
7
  6
CONTINUOUS
 70
0
 71
3
 72
8
 73
4
 74
2
 42
0.0000001
 43
0.0000001
 44
0.0000000001
 12
0.0826199591
 22
-0.0425948174
 32
0.0
 13
0.0924708835
 23
-0.0094610679
 33
0.0
 40
0.0
 40
0.0
 40
0.0
 40
0.0
 40
1.0
 40
1.0
 40
1.0
 40
1.0
 10
7.3854408901
 20
-24.4722096181
 30
0.0
 10
7.4129808765
 20
-24.4864078905
 30
0.0
 10
7.4437162395
 20
-24.4955464622
 30
0.0
 10
7.4745398674
 20
-24.4987001515
 30
0.0
 11
7.3854408901
 21
-24.4722096181
 31
0.0
 11
7.4745398674
 21
-24.4987001515
 31
0.0
  0
SPLINE
  5
740
100
AcDbEntity
  8
0
100
AcDbSpline
 62
7
  6
CONTINUOUS
 70
0
 71
3
 72
8
 73
4
 74
2
 42
0.0000001
 43
0.0000001
 44
0.0000000001
 12
-0.0894093869
 22
-0.0574597551
 32
0.0
 13
-0.0574597551
 23
-0.0894093869
 33
0.0
 40
0.0
 40
0.0
 40
0.0
 40
0.0
 40
1.0
 40
1.0
 40
1.0
 40
1.0
 10
-10.0351625059
 20
24.4603145581
 30
0.0
 10
-10.0649656349
 20
24.4411613064
 30
0.0
 10
-10.0911613064
 20
24.4149656349
 30
0.0
 10
-10.1103145581
 20
24.3851625059
 30
0.0
 11
-10.0351625059
 21
24.4603145581
 31
0.0
 11
-10.1103145581
 21
24.3851625059
 31
0.0
  0
SPLINE
  5
741
100
AcDbEntity
  8
0
100
AcDbSpline
 62
7
  6
CONTINUOUS
 70
0
 71
3
 72
8
 73
4
 74
2
 42
0.0000001
 43
0.0000001
 44
0.0000000001
 12
-0.0425948174
 22
-0.0826199591
 32
0.0
 13
-0.0094610679
 23
-0.0924708835
 33
0.0
 40
0.0
 40
0.0
 40
0.0
 40
0.0
 40
1.0
 40
1.0
 40
1.0
 40
1.0
 10
-10.1222096181
 20
24.3645591099
 30
0.0
 10
-10.1364078905
 20
24.3370191235
 30
0.0
 10
-10.1455464622
 20
24.3062837605
 30
0.0
 10
-10.1487001515
 20
24.2754601326
 30
0.0
 11
-10.1222096181
 21
24.3645591099
 31
0.0
 11
-10.1487001515
 21
24.2754601326
 31
0.0
  0
SPLINE
  5
742
100
AcDbEntity
  8
0
100
AcDbSpline
 62
7
  6
CONTINUOUS
 70
0
 71
3
 72
8
 73
4
 74
2
 42
0.0000001
 43
0.0000001
 44
0.0000000001
 12
-0.0574597551
 22
0.0894093869
 32
0.0
 13
-0.0894093869
 23
0.0574597551
 33
0.0
 40
0.0
 40
0.0
 40
0.0
 40
0.0
 40
1.0
 40
1.0
 40
1.0
 40
1.0
 10
-7.2896854419
 20
24.3851625059
 30
0.0
 10
-7.3088386936
 20
24.4149656349
 30
0.0
 10
-7.3350343651
 20
24.4411613064
 30
0.0
 10
-7.3648374941
 20
24.4603145581
 30
0.0
 11
-7.2896854419
 21
24.3851625059
 31
0.0
 11
-7.3648374941
 21
24.4603145581
 31
0.0
  0
SPLINE
  5
743
100
AcDbEntity
  8
0
100
AcDbSpline
 62
7
  6
CONTINUOUS
 70
0
 71
3
 72
8
 73
4
 74
2
 42
0.0000001
 43
0.0000001
 44
0.0000000001
 12
-0.0826199591
 22
0.0425948174
 32
0.0
 13
-0.0924708835
 23
0.0094610679
 33
0.0
 40
0.0
 40
0.0
 40
0.0
 40
0.0
 40
1.0
 40
1.0
 40
1.0
 40
1.0
 10
-7.3854408901
 20
24.4722096181
 30
0.0
 10
-7.4129808765
 20
24.4864078905
 30
0.0
 10
-7.4437162395
 20
24.4955464622
 30
0.0
 10
-7.4745398674
 20
24.4987001515
 30
0.0
 11
-7.3854408901
 21
24.4722096181
 31
0.0
 11
-7.4745398674
 21
24.4987001515
 31
0.0
  0
SPLINE
  5
744
100
AcDbEntity
  8
0
100
AcDbSpline
 62
7
  6
CONTINUOUS
 70
0
 71
3
 72
8
 73
4
 74
2
 42
0.0000001
 43
0.0000001
 44
0.0000000001
 12
-0.0894093869
 22
-0.0574597551
 32
0.0
 13
-0.0574597551
 23
-0.0894093869
 33
0.0
 40
0.0
 40
0.0
 40
0.0
 40
0.0
 40
1.0
 40
1.0
 40
1.0
 40
1.0
 10
7.3648374941
 20
24.4603145581
 30
0.0
 10
7.3350343651
 20
24.4411613064
 30
0.0
 10
7.3088386936
 20
24.4149656349
 30
0.0
 10
7.2896854419
 20
24.3851625059
 30
0.0
 11
7.3648374941
 21
24.4603145581
 31
0.0
 11
7.2896854419
 21
24.3851625059
 31
0.0
  0
SPLINE
  5
745
100
AcDbEntity
  8
0
100
AcDbSpline
 62
7
  6
CONTINUOUS
 70
0
 71
3
 72
8
 73
4
 74
2
 42
0.0000001
 43
0.0000001
 44
0.0000000001
 12
-0.0425948174
 22
-0.0826199591
 32
0.0
 13
-0.0094610679
 23
-0.0924708835
 33
0.0
 40
0.0
 40
0.0
 40
0.0
 40
0.0
 40
1.0
 40
1.0
 40
1.0
 40
1.0
 10
7.2777903819
 20
24.3645591099
 30
0.0
 10
7.2635921095
 20
24.3370191235
 30
0.0
 10
7.2544535378
 20
24.3062837605
 30
0.0
 10
7.2512998485
 20
24.2754601326
 30
0.0
 11
7.2777903819
 21
24.3645591099
 31
0.0
 11
7.2512998485
 21
24.2754601326
 31
0.0
  0
SPLINE
  5
746
100
AcDbEntity
  8
0
100
AcDbSpline
 62
7
  6
CONTINUOUS
 70
0
 71
3
 72
8
 73
4
 74
2
 42
0.0000001
 43
0.0000001
 44
0.0000000001
 12
-0.0574597551
 22
0.0894093869
 32
0.0
 13
-0.0894093869
 23
0.0574597551
 33
0.0
 40
0.0
 40
0.0
 40
0.0
 40
0.0
 40
1.0
 40
1.0
 40
1.0
 40
1.0
 10
10.1103145581
 20
24.3851625059
 30
0.0
 10
10.0911613064
 20
24.4149656349
 30
0.0
 10
10.0649656349
 20
24.4411613064
 30
0.0
 10
10.0351625059
 20
24.4603145581
 30
0.0
 11
10.1103145581
 21
24.3851625059
 31
0.0
 11
10.0351625059
 21
24.4603145581
 31
0.0
  0
SPLINE
  5
747
100
AcDbEntity
  8
0
100
AcDbSpline
 62
7
  6
CONTINUOUS
 70
0
 71
3
 72
8
 73
4
 74
2
 42
0.0000001
 43
0.0000001
 44
0.0000000001
 12
-0.0826199591
 22
0.0425948174
 32
0.0
 13
-0.0924708835
 23
0.0094610679
 33
0.0
 40
0.0
 40
0.0
 40
0.0
 40
0.0
 40
1.0
 40
1.0
 40
1.0
 40
1.0
 10
10.0145591099
 20
24.4722096181
 30
0.0
 10
9.9870191235
 20
24.4864078905
 30
0.0
 10
9.9562837605
 20
24.4955464622
 30
0.0
 10
9.9254601326
 20
24.4987001515
 30
0.0
 11
10.0145591099
 21
24.4722096181
 31
0.0
 11
9.9254601326
 21
24.4987001515
 31
0.0
  0
SPLINE
  5
748
100
AcDbEntity
  8
RACCORDO
100
AcDbSpline
 62
253
  6
CONTINUOUS
 70
0
 71
3
 72
18
 73
14
 74
12
 42
0.0000001
 43
0.0000001
 44
0.0000000001
 12
-0.1463406301
 22
-0.1363535215
 32
0.0
 13
0.0000001332
 23
-0.2000196561
 33
0.0
 40
0.0
 40
0.0
 40
0.0
 40
0.0
 40
0.0056616561
 40
0.0207778593
 40
0.045200333
 40
0.0787341784
 40
0.1210286917
 40
0.1716641292
 40
0.2961022337
 40
0.4472166761
 40
0.6193426073
 40
0.8061648253
 40
1.0
 40
1.0
 40
1.0
 40
1.0
 10
4.5043253562
 20
-17.5956632207
 30
0.0
 10
4.5040491795
 20
-17.5959205496
 30
0.0
 10
4.5043109455
 20
-17.5975504435
 30
0.0
 10
4.5038211469
 20
-17.6003368909
 30
0.0
 10
4.5038552992
 20
-17.6053288122
 30
0.0
 10
4.5036208388
 20
-17.6119585848
 30
0.0
 10
4.5035019912
 20
-17.6204088534
 30
0.0
 10
4.5032835269
 20
-17.6348909852
 30
0.0
 10
4.5030743845
 20
-17.6566436525
 30
0.0
 10
4.5028643941
 20
-17.6864888164
 30
0.0
 10
4.5027117838
 20
-17.7204967711
 30
0.0
 10
4.5026165505
 20
-17.7573522757
 30
0.0
 10
4.5025952051
 20
-17.7827319903
 30
0.0
 10
4.5025952137
 20
-17.7956556053
 30
0.0
 11
4.5043253562
 21
-17.5956632207
 31
0.0
 11
4.5041556814
 21
-17.5967828798
 31
0.0
 11
4.503987316
 21
-17.5998017262
 31
0.0
 11
4.5038221617
 21
-17.6046839084
 31
0.0
 11
4.503662074
 21
-17.6113894259
 31
0.0
 11
4.5035085734
 21
-17.6198477672
 31
0.0
 11
4.5033630307
 21
-17.6299748042
 31
0.0
 11
4.5031011602
 21
-17.6548634934
 31
0.0
 11
4.5028862502
 21
-17.6850885882
 31
0.0
 11
4.5027266568
 21
-17.7195167879
 31
0.0
 11
4.5026284135
 21
-17.7568847745
 31
0.0
 11
4.5025952137
 21
-17.7956556053
 31
0.0
  0
SPLINE
  5
749
100
AcDbEntity
  8
RACCORDO
100
AcDbSpline
 62
253
  6
CONTINUOUS
 70
0
 71
3
 72
17
 73
13
 74
11
 42
0.0000001
 43
0.0000001
 44
0.0000000001
 12
0.1419645157
 22
-0.1409038846
 32
0.0
 13
-0.0000003312
 23
-0.2000195701
 33
0.0
 40
0.0
 40
0.0
 40
0.0
 40
0.0
 40
0.0056881873
 40
0.0207971904
 40
0.0452015239
 40
0.0787260113
 40
0.1210206737
 40
0.171660219
 40
0.2960990143
 40
0.4472082988
 40
0.6193361289
 40
1.0
 40
1.0
 40
1.0
 40
1.0
 10
-4.5043253562
 20
-17.5956632207
 30
0.0
 10
-4.5040561826
 20
-17.5959303832
 30
0.0
 10
-4.5043014687
 20
-17.5975427057
 30
0.0
 10
-4.50382714
 20
-17.6003467566
 30
0.0
 10
-4.5038526084
 20
-17.6053267091
 30
0.0
 10
-4.5036218605
 20
-17.6119587834
 30
0.0
 10
-4.5035016467
 20
-17.6204071589
 30
0.0
 10
-4.5032838244
 20
-17.6348903234
 30
0.0
 10
-4.5030742751
 20
-17.6566425108
 30
0.0
 10
-4.5028643861
 20
-17.6864876841
 30
0.0
 10
-4.5026540307
 20
-17.733419454
 30
0.0
 10
-4.5025951717
 20
-17.7702755307
 30
0.0
 10
-4.5025952137
 20
-17.7956556053
 30
0.0
 11
-4.5043253562
 21
-17.5956632207
 31
0.0
 11
-4.5041556832
 21
-17.5967882466
 31
0.0
 11
-4.5039873218
 21
-17.5998056496
 31
0.0
 11
-4.5038221727
 21
-17.6046841993
 31
0.0
 11
-4.5036620893
 21
-17.6113878418
 31
0.0
 11
-4.5035085892
 21
-17.6198462092
 31
0.0
 11
-4.5033630439
 21
-17.6299740636
 31
0.0
 11
-4.5031011633
 21
-17.6548628802
 31
0.0
 11
-4.5028862495
 21
-17.6850869302
 31
0.0
 11
-4.5027266603
 21
-17.7195154949
 31
0.0
 11
-4.5025952137
 21
-17.7956556053
 31
0.0
  0
LINE
  5
74A
100
AcDbEntity
  8
SMUSSO
100
AcDbLine
 62
7
  6
CONTINUOUS
 10
9.515084977
 20
15.0349435413
 11
9.5151752742
 21
15.0977204218
  0
LINE
  5
74B
100
AcDbEntity
  8
SMUSSO
100
AcDbLine
 62
7
  6
CONTINUOUS
 10
9.5151752742
 20
15.0977204218
 11
9.5155882208
 21
15.3781526777
  0
LINE
  5
74C
100
AcDbEntity
  8
SMUSSO
100
AcDbLine
 62
7
  6
CONTINUOUS
 10
9.5186939233
 20
17.2219200329
 11
9.5189832584
 21
17.3754793138
  0
LINE
  5
74D
100
AcDbEntity
  8
SMUSSO
100
AcDbLine
 62
7
  6
CONTINUOUS
 10
9.5189832584
 20
17.3754793138
 11
9.51901523
 21
17.3922952188
  0
LINE
  5
74E
100
AcDbEntity
  8
SMUSSO
100
AcDbLine
 62
7
  6
CONTINUOUS
 10
9.5223345817
 20
19.0001166929
 11
9.5241551301
 21
19.7895472382
  0
LINE
  5
74F
100
AcDbEntity
  8
SMUSSO
100
AcDbLine
 62
7
  6
CONTINUOUS
 10
-9.515084977
 20
15.0349435413
 11
-9.5151752742
 21
15.0977204218
  0
LINE
  5
750
100
AcDbEntity
  8
SMUSSO
100
AcDbLine
 62
7
  6
CONTINUOUS
 10
-9.5151752742
 20
15.0977204218
 11
-9.5155883843
 21
15.3782616932
  0
LINE
  5
751
100
AcDbEntity
  8
SMUSSO
100
AcDbLine
 62
7
  6
CONTINUOUS
 10
-9.5186937187
 20
17.2218105585
 11
-9.5189832584
 21
17.3754793138
  0
LINE
  5
752
100
AcDbEntity
  8
SMUSSO
100
AcDbLine
 62
7
  6
CONTINUOUS
 10
-9.5189832584
 20
17.3754793138
 11
-9.51901523
 21
17.3922952188
  0
LINE
  5
753
100
AcDbEntity
  8
SMUSSO
100
AcDbLine
 62
7
  6
CONTINUOUS
 10
-9.5223345817
 20
19.0001166929
 11
-9.5241551301
 21
19.7895472382
  0
SPLINE
  5
754
100
AcDbEntity
  8
0
100
AcDbSpline
 62
7
  6
CONTINUOUS
 70
0
 71
3
 72
18
 73
14
 74
12
 42
0.0000001
 43
0.0000001
 44
0.0000000001
 12
0.4645026772
 22
-0.487981829
 32
0.0
 13
0.0392554892
 23
-0.6725682189
 33
0.0
 40
0.0
 40
0.0
 40
0.0
 40
0.0
 40
0.1636777159
 40
0.3250651091
 40
0.4815207472
 40
0.6295729905
 40
0.7642643442
 40
0.8244081944
 40
0.8781857494
 40
0.9241530687
 40
0.9607159126
 40
0.9863262043
 40
1.0
 40
1.0
 40
1.0
 40
1.0
 10
3.9530427099
 20
-23.4563578147
 30
0.0
 10
3.9783856223
 20
-23.4829817318
 30
0.0
 10
4.0287170546
 20
-23.5358568617
 30
0.0
 10
4.103193902
 20
-23.6142562937
 30
0.0
 10
4.175085966
 20
-23.6902721169
 30
0.0
 10
4.2425622934
 20
-23.7622079911
 30
0.0
 10
4.2948558013
 20
-23.8187396367
 30
0.0
 10
4.332306123
 20
-23.8601361644
 30
0.0
 10
4.3561378569
 20
-23.8870243185
 30
0.0
 10
4.3759696477
 20
-23.9102604776
 30
0.0
 10
4.3914504463
 20
-23.9291937432
 30
0.0
 10
4.4009846715
 20
-23.9429096862
 30
0.0
 10
4.4058988291
 20
-23.9508267529
 30
0.0
 10
4.406077753
 20
-23.9538922731
 30
0.0
 11
3.9530427099
 21
-23.4563578147
 31
0.0
 11
4.0290580898
 21
-23.5362422784
 31
0.0
 11
4.1039271493
 21
-23.6150874893
 31
0.0
 11
4.1763284607
 21
-23.6916937002
 31
0.0
 11
4.2445277278
 21
-23.7644801334
 31
0.0
 11
4.3060506692
 21
-23.8311830072
 31
0.0
 11
4.3332147907
 21
-23.8612488574
 31
0.0
 11
4.3571987918
 21
-23.8884044503
 31
0.0
 11
4.3772780659
 21
-23.911981721
 31
0.0
 11
4.3926431231
 21
-23.9312351025
 31
0.0
 11
4.402474935
 21
-23.9454137973
 31
0.0
 11
4.406077753
 21
-23.9538922731
 31
0.0
  0
SPLINE
  5
755
100
AcDbEntity
  8
0
100
AcDbSpline
 62
7
  6
CONTINUOUS
 70
0
 71
3
 72
10
 73
6
 74
4
 42
0.0000001
 43
0.0000001
 44
0.0000000001
 12
0.3811161314
 22
0.4321048147
 32
0.0
 13
0.397245454
 23
0.4173249643
 33
0.0
 40
0.0
 40
0.0
 40
0.0
 40
0.0
 40
0.2091834984
 40
0.4568376847
 40
1.0
 40
1.0
 40
1.0
 40
1.0
 10
3.5590867224
 20
-23.8767611455
 30
0.0
 10
3.5856611243
 20
-23.8466314133
 30
0.0
 10
3.6449836267
 20
-23.7819735119
 30
0.0
 10
3.7763433889
 20
-23.6418722452
 30
0.0
 10
3.8811197898
 20
-23.5319162126
 30
0.0
 10
3.9530427099
 20
-23.4563578147
 30
0.0
 11
3.5590867224
 21
-23.8767611455
 31
0.0
 11
3.6401321933
 21
-23.7875556071
 31
0.0
 11
3.7376132782
 21
-23.6833555272
 31
0.0
 11
3.9530427099
 21
-23.4563578147
 31
0.0
  0
SPLINE
  5
756
100
AcDbEntity
  8
0
100
AcDbSpline
 62
7
  6
CONTINUOUS
 70
0
 71
3
 72
10
 73
6
 74
4
 42
0.0000001
 43
0.0000001
 44
0.0000000001
 12
0.397245454
 22
-0.4173249643
 32
0.0
 13
0.3811161314
 23
-0.4321048147
 33
0.0
 40
0.0
 40
0.0
 40
0.0
 40
0.0
 40
0.5431623383
 40
0.7908165056
 40
1.0
 40
1.0
 40
1.0
 40
1.0
 10
-3.9530427099
 20
-23.4563578147
 30
0.0
 10
-3.8811197867
 20
-23.5319162158
 30
0.0
 10
-3.7763433853
 20
-23.6418722489
 30
0.0
 10
-3.6449836232
 20
-23.7819735158
 30
0.0
 10
-3.5856611238
 20
-23.8466314138
 30
0.0
 10
-3.5590867224
 20
-23.8767611455
 30
0.0
 11
-3.9530427099
 21
-23.4563578147
 31
0.0
 11
-3.7376132691
 21
-23.6833555368
 31
0.0
 11
-3.6401321917
 21
-23.7875556088
 31
0.0
 11
-3.5590867224
 21
-23.8767611455
 31
0.0
  0
SPLINE
  5
757
100
AcDbEntity
  8
0
100
AcDbSpline
 62
7
  6
CONTINUOUS
 70
0
 71
3
 72
18
 73
14
 74
12
 42
0.0000001
 43
0.0000001
 44
0.0000000001
 12
0.0392554892
 22
0.6725682189
 32
0.0
 13
0.4645026772
 23
0.487981829
 33
0.0
 40
0.0
 40
0.0
 40
0.0
 40
0.0
 40
0.0136738063
 40
0.0392841141
 40
0.0758469671
 40
0.1218142824
 40
0.1755918271
 40
0.2357356681
 40
0.370427019
 40
0.5184792766
 40
0.674934888
 40
0.8363222465
 40
1.0
 40
1.0
 40
1.0
 40
1.0
 10
-4.406077753
 20
-23.9538922731
 30
0.0
 10
-4.405898829
 20
-23.9508267505
 30
0.0
 10
-4.4009846668
 20
-23.9429096789
 30
0.0
 10
-4.3914504364
 20
-23.9291937302
 30
0.0
 10
-4.3759696342
 20
-23.9102604613
 30
0.0
 10
-4.3561378437
 20
-23.8870243035
 30
0.0
 10
-4.3323061131
 20
-23.8601361535
 30
0.0
 10
-4.2948557947
 20
-23.8187396296
 30
0.0
 10
-4.2425622864
 20
-23.7622079836
 30
0.0
 10
-4.1750859612
 20
-23.690272112
 30
0.0
 10
-4.1031939045
 20
-23.6142562965
 30
0.0
 10
-4.0287170609
 20
-23.5358568683
 30
0.0
 10
-3.9783856282
 20
-23.4829817379
 30
0.0
 10
-3.9530427099
 20
-23.4563578147
 30
0.0
 11
-4.406077753
 21
-23.9538922731
 31
0.0
 11
-4.4024749315
 21
-23.9454137911
 31
0.0
 11
-4.3926431123
 21
-23.931235088
 31
0.0
 11
-4.3772780505
 21
-23.9119817024
 31
0.0
 11
-4.3571987777
 21
-23.8884044342
 31
0.0
 11
-4.333214781
 21
-23.8612488467
 31
0.0
 11
-4.3060506636
 21
-23.8311830012
 31
0.0
 11
-4.2445277235
 21
-23.7644801287
 31
0.0
 11
-4.1763284496
 21
-23.6916936886
 31
0.0
 11
-4.1039271505
 21
-23.6150874908
 31
0.0
 11
-4.0290581072
 21
-23.5362422968
 31
0.0
 11
-3.9530427099
 21
-23.4563578147
 31
0.0
  0
SPLINE
  5
758
100
AcDbEntity
  8
0
100
AcDbSpline
 62
7
  6
CONTINUOUS
 70
0
 71
3
 72
10
 73
6
 74
4
 42
0.0000001
 43
0.0000001
 44
0.0000000001
 12
-0.397245454
 22
0.4173249643
 32
0.0
 13
-0.3811161314
 23
0.4321048147
 33
0.0
 40
0.0
 40
0.0
 40
0.0
 40
0.0
 40
0.5431626117
 40
0.7908166328
 40
1.0
 40
1.0
 40
1.0
 40
1.0
 10
3.9530427099
 20
23.4563578147
 30
0.0
 10
3.8811197505
 20
23.5319162539
 30
0.0
 10
3.7763433326
 20
23.6418723049
 30
0.0
 10
3.6449835708
 20
23.7819735721
 30
0.0
 10
3.5856611077
 20
23.8466314321
 30
0.0
 10
3.5590867224
 20
23.8767611455
 30
0.0
 11
3.9530427099
 21
23.4563578147
 31
0.0
 11
3.7376131613
 21
23.6833556516
 31
0.0
 11
3.6401321419
 21
23.7875556625
 31
0.0
 11
3.5590867224
 21
23.8767611455
 31
0.0
  0
SPLINE
  5
759
100
AcDbEntity
  8
0
100
AcDbSpline
 62
7
  6
CONTINUOUS
 70
0
 71
3
 72
18
 73
14
 74
12
 42
0.0000001
 43
0.0000001
 44
0.0000000001
 12
-0.0392554892
 22
-0.6725682188
 32
0.0
 13
-0.4645026771
 23
-0.4879818289
 33
0.0
 40
0.0
 40
0.0
 40
0.0
 40
0.0
 40
0.0136738247
 40
0.0392842078
 40
0.075847115
 40
0.1218143798
 40
0.1755918341
 40
0.2357355972
 40
0.3704268718
 40
0.5184790115
 40
0.6749344637
 40
0.8363218448
 40
1.0
 40
1.0
 40
1.0
 40
1.0
 10
4.406077753
 20
23.9538922731
 30
0.0
 10
4.4058988287
 20
23.9508267464
 30
0.0
 10
4.4009846523
 20
23.942909657
 30
0.0
 10
4.3914504014
 20
23.9291936837
 30
0.0
 10
4.3759695855
 20
23.9102604026
 30
0.0
 10
4.3561378057
 20
23.8870242612
 30
0.0
 10
4.3323061076
 20
23.8601361482
 30
0.0
 10
4.2948558269
 20
23.8187396643
 30
0.0
 10
4.2425623598
 20
23.7622080634
 30
0.0
 10
4.1750860904
 20
23.6902722484
 30
0.0
 10
4.1031940726
 20
23.6142564747
 30
0.0
 10
4.0287171887
 20
23.5358570028
 30
0.0
 10
3.9783856904
 20
23.4829818032
 30
0.0
 10
3.9530427099
 20
23.4563578147
 30
0.0
 11
4.406077753
 21
23.9538922731
 31
0.0
 11
4.4024749251
 21
23.9454137804
 31
0.0
 11
4.3926430742
 21
23.9312350375
 31
0.0
 11
4.3772779871
 21
23.9119816254
 31
0.0
 11
4.3571987344
 21
23.8884043847
 31
0.0
 11
4.3332147775
 21
23.8612488433
 31
0.0
 11
4.3060506957
 21
23.8311830364
 31
0.0
 11
4.2445277908
 21
23.7644802014
 31
0.0
 11
4.1763285722
 21
23.6916938185
 31
0.0
 11
4.1039273469
 21
23.6150876985
 31
0.0
 11
4.0290582936
 21
23.536242493
 31
0.0
 11
3.9530427099
 21
23.4563578147
 31
0.0
  0
SPLINE
  5
75A
100
AcDbEntity
  8
0
100
AcDbSpline
 62
7
  6
CONTINUOUS
 70
0
 71
3
 72
18
 73
14
 74
12
 42
0.0000001
 43
0.0000001
 44
0.0000000001
 12
-0.4645026771
 22
0.4879818288
 32
0.0
 13
-0.0392554892
 23
0.6725682188
 33
0.0
 40
0.0
 40
0.0
 40
0.0
 40
0.0
 40
0.1636781868
 40
0.325065533
 40
0.4815209584
 40
0.6295731111
 40
0.7642643806
 40
0.8244081354
 40
0.8781855804
 40
0.9241528441
 40
0.9607157627
 40
0.9863261637
 40
1.0
 40
1.0
 40
1.0
 40
1.0
 10
-3.9530427099
 20
23.4563578147
 30
0.0
 10
-3.9783856952
 20
23.4829818083
 30
0.0
 10
-4.028717193
 20
23.5358570074
 30
0.0
 10
-4.1031940723
 20
23.6142564745
 30
0.0
 10
-4.1750860825
 20
23.6902722402
 30
0.0
 10
-4.2425623493
 20
23.7622080519
 30
0.0
 10
-4.2948558162
 20
23.8187396528
 30
0.0
 10
-4.3323060936
 20
23.8601361328
 30
0.0
 10
-4.3561377893
 20
23.8870242424
 30
0.0
 10
-4.3759695696
 20
23.9102603836
 30
0.0
 10
-4.3914503904
 20
23.929193669
 30
0.0
 10
-4.4009846471
 20
23.942909649
 30
0.0
 10
-4.4058988286
 20
23.9508267438
 30
0.0
 10
-4.406077753
 20
23.9538922731
 30
0.0
 11
-3.9530427099
 21
23.4563578147
 31
0.0
 11
-4.0290583082
 21
23.5362425085
 31
0.0
 11
-4.1039273454
 21
23.6150876969
 31
0.0
 11
-4.1763285582
 21
23.6916938037
 31
0.0
 11
-4.244527783
 21
23.7644801929
 31
0.0
 11
-4.3060506856
 21
23.8311830253
 31
0.0
 11
-4.3332147638
 21
23.861248828
 31
0.0
 11
-4.3571987168
 21
23.8884043645
 31
0.0
 11
-4.3772779695
 21
23.9119816041
 31
0.0
 11
-4.3926430623
 21
23.9312350216
 31
0.0
 11
-4.4024749212
 21
23.9454137735
 31
0.0
 11
-4.406077753
 21
23.9538922731
 31
0.0
  0
SPLINE
  5
75B
100
AcDbEntity
  8
0
100
AcDbSpline
 62
7
  6
CONTINUOUS
 70
0
 71
3
 72
10
 73
6
 74
4
 42
0.0000001
 43
0.0000001
 44
0.0000000001
 12
-0.3811161314
 22
-0.4321048147
 32
0.0
 13
-0.397245454
 23
-0.4173249643
 33
0.0
 40
0.0
 40
0.0
 40
0.0
 40
0.0
 40
0.2091833594
 40
0.4568373617
 40
1.0
 40
1.0
 40
1.0
 40
1.0
 10
-3.5590867224
 20
23.8767611455
 30
0.0
 10
-3.5856611067
 20
23.8466314333
 30
0.0
 10
-3.6449835664
 20
23.781973577
 30
0.0
 10
-3.776343328
 20
23.6418723096
 30
0.0
 10
-3.881119747
 20
23.5319162576
 30
0.0
 10
-3.9530427099
 20
23.4563578147
 30
0.0
 11
-3.5590867224
 21
23.8767611455
 31
0.0
 11
-3.6401321388
 21
23.7875556658
 31
0.0
 11
-3.7376131507
 21
23.6833556627
 31
0.0
 11
-3.9530427099
 21
23.4563578147
 31
0.0
  0
SPLINE
  5
75C
100
AcDbEntity
  8
RACCORDO
100
AcDbSpline
 62
7
  6
CONTINUOUS
 70
0
 71
3
 72
15
 73
11
 74
9
 42
0.0000001
 43
0.0000001
 44
0.0000000001
 12
0.0015596047
 22
-1.4594748906
 32
0.0
 13
0.0015596047
 23
1.4594748906
 33
0.0
 40
0.0
 40
0.0
 40
0.0
 40
0.0
 40
0.1246181356
 40
0.2494726302
 40
0.3746295387
 40
0.4999986864
 40
0.6253679156
 40
0.7505257156
 40
0.8753818843
 40
1.0
 40
1.0
 40
1.0
 40
1.0
 10
7.3643094176
 20
18.5586556733
 30
0.0
 10
7.3643742026
 20
18.4980299934
 30
0.0
 10
7.3407891767
 20
18.3753510236
 30
0.0
 10
7.2387319392
 20
18.2189724252
 30
0.0
 10
7.0840730075
 20
18.1129730136
 30
0.0
 10
6.9000020129
 20
18.0754715313
 30
0.0
 10
6.715930285
 20
18.1129716091
 30
0.0
 10
6.5612694639
 20
18.2189707318
 30
0.0
 10
6.459211073
 20
18.375350248
 30
0.0
 10
6.4356257974
 20
18.4980300031
 30
0.0
 10
6.4356905824
 20
18.5586556733
 30
0.0
 11
7.3643094176
 21
18.5586556733
 31
0.0
 11
7.3297383474
 21
18.3800943772
 31
0.0
 11
7.2301110214
 21
18.2275188514
 31
0.0
 11
7.0793034013
 21
18.124450889
 31
0.0
 11
6.9000020034
 21
18.0879788357
 31
0.0
 11
6.7207001911
 21
18.1244494493
 31
0.0
 11
6.5698907947
 21
18.2275171186
 31
0.0
 11
6.4702617183
 21
18.3800944194
 31
0.0
 11
6.4356905824
 21
18.5586556733
 31
0.0
  0
SPLINE
  5
75D
100
AcDbEntity
  8
RACCORDO
100
AcDbSpline
 62
7
  6
CONTINUOUS
 70
0
 71
3
 72
15
 73
11
 74
9
 42
0.0000001
 43
0.0000001
 44
0.0000000001
 12
0.0015596047
 22
-1.4594749043
 32
0.0
 13
0.0015596047
 23
1.4594749043
 33
0.0
 40
0.0
 40
0.0
 40
0.0
 40
0.0
 40
0.1246183924
 40
0.2494746144
 40
0.374632492
 40
0.500001874
 40
0.6253711982
 40
0.750528082
 40
0.8753821065
 40
1.0
 40
1.0
 40
1.0
 40
1.0
 10
-6.4356905824
 20
18.5586556733
 30
0.0
 10
-6.4356257972
 20
18.4980298679
 30
0.0
 10
-6.4592111348
 20
18.3753499366
 30
0.0
 10
-6.5612698151
 20
18.2189703542
 30
0.0
 10
-6.7159308944
 20
18.1129713488
 30
0.0
 10
-6.900002883
 20
18.0754715031
 30
0.0
 10
-7.0840739859
 20
18.112973362
 30
0.0
 10
-7.2387324896
 20
18.2189731093
 30
0.0
 10
-7.3407893318
 20
18.3753514784
 30
0.0
 10
-7.3643742025
 20
18.4980301106
 30
0.0
 10
-7.3643094176
 20
18.5586556733
 30
0.0
 11
-6.4356905824
 21
18.5586556733
 31
0.0
 11
-6.4702618576
 21
18.3800940333
 31
0.0
 11
-6.5698911357
 21
18.2275167694
 31
0.0
 11
-6.7207007576
 21
18.1244492264
 31
0.0
 11
-6.9000028448
 21
18.0879788363
 31
0.0
 11
-7.0793044247
 21
18.1244512965
 31
0.0
 11
-7.2301117582
 21
18.2275196171
 31
0.0
 11
-7.3297385026
 21
18.3800947052
 31
0.0
 11
-7.3643094176
 21
18.5586556733
 31
0.0
  0
SPLINE
  5
75E
100
AcDbEntity
  8
RACCORDO
100
AcDbSpline
 62
7
  6
CONTINUOUS
 70
0
 71
3
 72
15
 73
11
 74
9
 42
0.0000001
 43
0.0000001
 44
0.0000000001
 12
-0.0015093473
 22
1.4085978569
 32
0.0
 13
-0.0015093473
 23
-1.4085978569
 33
0.0
 40
0.0
 40
0.0
 40
0.0
 40
0.0
 40
0.1246273117
 40
0.2494769332
 40
0.3746405874
 40
0.5000332938
 40
0.6254281738
 40
0.7505835195
 40
0.8753924635
 40
1.0
 40
1.0
 40
1.0
 40
1.0
 10
-7.3480695647
 20
-18.7051734659
 30
0.0
 10
-7.3481322667
 20
-18.6466568779
 30
0.0
 10
-7.325368286
 20
-18.5282535721
 30
0.0
 10
-7.2268889037
 20
-18.377311872
 30
0.0
 10
-7.0776346626
 20
-18.2749655754
 30
0.0
 10
-6.8999492902
 20
-18.2387526234
 30
0.0
 10
-6.7222739273
 20
-18.2750010377
 30
0.0
 10
-6.5730631069
 20
-18.3773692832
 30
0.0
 10
-6.4746199138
 20
-18.5282909962
 30
0.0
 10
-6.4518677433
 20
-18.646666163
 30
0.0
 10
-6.4519304353
 20
-18.7051734659
 30
0.0
 11
-7.3480695647
 21
-18.7051734659
 31
0.0
 11
-7.3147040312
 21
-18.5328235421
 31
0.0
 11
-7.2185723152
 21
-18.3855602011
 31
0.0
 11
-7.0730333889
 21
-18.2860514097
 31
0.0
 11
-6.8999513319
 21
-18.2508370442
 31
0.0
 11
-6.7268736618
 21
-18.2860883093
 31
0.0
 11
-6.581366271
 21
-18.3856224809
 31
0.0
 11
-6.4852838398
 21
-18.5328495666
 31
0.0
 11
-6.4519304353
 21
-18.7051734659
 31
0.0
  0
SPLINE
  5
75F
100
AcDbEntity
  8
RACCORDO
100
AcDbSpline
 62
7
  6
CONTINUOUS
 70
0
 71
3
 72
15
 73
11
 74
9
 42
0.0000001
 43
0.0000001
 44
0.0000000001
 12
-0.0015093473
 22
1.4085978807
 32
0.0
 13
-0.0015093473
 23
-1.4085978807
 33
0.0
 40
0.0
 40
0.0
 40
0.0
 40
0.0
 40
0.1246273702
 40
0.2494758974
 40
0.3746394236
 40
0.5000325637
 40
0.6254279096
 40
0.7505835047
 40
0.8753927573
 40
1.0
 40
1.0
 40
1.0
 40
1.0
 10
6.4519304353
 20
-18.7051734659
 30
0.0
 10
6.4518677333
 20
-18.6466568494
 30
0.0
 10
6.4746314878
 20
-18.5282539787
 30
0.0
 10
6.5731104806
 20
-18.3773127925
 30
0.0
 10
6.722363928
 20
-18.2749660637
 30
0.0
 10
6.9000496299
 20
-18.2387525243
 30
0.0
 10
7.0777256067
 20
-18.2750007986
 30
0.0
 10
7.2269369501
 20
-18.3773692118
 30
0.0
 10
7.3253800724
 20
-18.5282911548
 30
0.0
 10
7.3481322566
 20
-18.6466662999
 30
0.0
 10
7.3480695647
 20
-18.7051734659
 30
0.0
 11
6.4519304353
 21
-18.7051734659
 31
0.0
 11
6.4852959213
 21
-18.5328234459
 31
0.0
 11
6.581426643
 21
-18.3855612933
 31
0.0
 11
6.7269650374
 21
-18.286052038
 31
0.0
 11
6.9000475906
 21
-18.2508370321
 31
0.0
 11
7.0731259606
 21
-18.2860881648
 31
0.0
 11
7.2186337049
 21
-18.3856224469
 31
0.0
 11
7.3147162787
 21
-18.5328499621
 31
0.0
 11
7.3480695647
 21
-18.7051734659
 31
0.0
  0
SPLINE
  5
760
100
AcDbEntity
  8
RACCORDO
100
AcDbSpline
 62
253
  6
CONTINUOUS
 70
0
 71
3
 72
18
 73
14
 74
12
 42
0.0000001
 43
0.0000001
 44
0.0000000001
 12
-0.1911551867
 22
-0.4620082173
 32
0.0
 13
0.0000001182
 23
-0.4999918982
 33
0.0
 40
0.0
 40
0.0
 40
0.0
 40
0.0
 40
0.0056261372
 40
0.0207204076
 40
0.0451208518
 40
0.078639514
 40
0.1209266785
 40
0.1715602073
 40
0.2960028387
 40
0.4471313298
 40
0.6192822488
 40
0.8061377813
 40
1.0
 40
1.0
 40
1.0
 40
1.0
 10
4.2043367793
 20
-17.2956746438
 30
0.0
 10
4.2039782909
 20
-17.2965410843
 30
0.0
 10
4.2044275116
 20
-17.3001452763
 30
0.0
 10
4.2037680361
 20
-17.3075263841
 30
0.0
 10
4.2038953708
 20
-17.3197693732
 30
0.0
 10
4.2036208785
 20
-17.3364371107
 30
0.0
 10
4.2035171156
 20
-17.3575216793
 30
0.0
 10
4.2032916552
 20
-17.3937421547
 30
0.0
 10
4.2030870426
 20
-17.4481118094
 30
0.0
 10
4.202875508
 20
-17.5227292411
 30
0.0
 10
4.2027233919
 20
-17.6077506934
 30
0.0
 10
4.2026279357
 20
-17.6998937924
 30
0.0
 10
4.2026066292
 20
-17.7633457591
 30
0.0
 10
4.2026066368
 20
-17.7956556053
 30
0.0
 11
4.2043367793
 21
-17.2956746438
 31
0.0
 11
4.2041667943
 21
-17.2984825262
 31
0.0
 11
4.203998429
 21
-17.3060276608
 31
0.0
 11
4.2038333828
 21
-17.3182265688
 31
0.0
 11
4.2036733332
 21
-17.3349848641
 31
0.0
 11
4.2035197967
 21
-17.3561275462
 31
0.0
 11
4.2033742177
 21
-17.3814434819
 31
0.0
 11
4.2031124796
 21
-17.4436632388
 31
0.0
 11
4.2028977535
 21
-17.5192259549
 31
0.0
 11
4.2027381393
 21
-17.6052998716
 31
0.0
 11
4.2026398471
 21
-17.6987260723
 31
0.0
 11
4.2026066368
 21
-17.7956556053
 31
0.0
  0
SPLINE
  5
761
100
AcDbEntity
  8
RACCORDO
100
AcDbSpline
 62
253
  6
CONTINUOUS
 70
0
 71
3
 72
18
 73
14
 74
12
 42
0.0000001
 43
0.0000001
 44
0.0000000001
 12
0.1870229782
 22
-0.4636963468
 32
0.0
 13
-0.0000007324
 23
-0.4999918963
 33
0.0
 40
0.0
 40
0.0
 40
0.0
 40
0.0
 40
0.0056390391
 40
0.0207303037
 40
0.0451222794
 40
0.0786363152
 40
0.1209236549
 40
0.1715593819
 40
0.2960037175
 40
0.4471311773
 40
0.619282123
 40
0.8061378346
 40
1.0
 40
1.0
 40
1.0
 40
1.0
 10
-4.2043367793
 20
-17.2956746438
 30
0.0
 10
-4.203985236
 20
-17.2965462444
 30
0.0
 10
-4.2044174037
 20
-17.3001450059
 30
0.0
 10
-4.2037740595
 20
-17.3075329158
 30
0.0
 10
-4.2038928772
 20
-17.3197696129
 30
0.0
 10
-4.2036223171
 20
-17.3364367458
 30
0.0
 10
-4.2035171539
 20
-17.3575203573
 30
0.0
 10
-4.2032922497
 20
-17.3937417776
 30
0.0
 10
-4.2030871233
 20
-17.4481117437
 30
0.0
 10
-4.2028756787
 20
-17.5227293593
 30
0.0
 10
-4.2027234412
 20
-17.6077506513
 30
0.0
 10
-4.2026279109
 20
-17.6998937822
 30
0.0
 10
-4.2026065895
 20
-17.7633457681
 30
0.0
 10
-4.2026066368
 20
-17.7956556053
 30
0.0
 11
-4.2043367793
 21
-17.2956746438
 31
0.0
 11
-4.2041665034
 21
-17.2984889712
 31
0.0
 11
-4.2039982974
 21
-17.3060326062
 31
0.0
 11
-4.2038335593
 21
-17.3182272837
 31
0.0
 11
-4.203673697
 21
-17.3349832674
 31
0.0
 11
-4.2035201924
 21
-17.3561260373
 31
0.0
 11
-4.203374561
 21
-17.3814430716
 31
0.0
 11
-4.2031127002
 21
-17.4436636799
 31
0.0
 11
-4.2028978892
 21
-17.5192258798
 31
0.0
 11
-4.2027382008
 21
-17.6052998095
 31
0.0
 11
-4.2026398319
 21
-17.6987260993
 31
0.0
 11
-4.2026066368
 21
-17.7956556053
 31
0.0
  0
SPLINE
  5
762
100
AcDbEntity
  8
RACCORDO
100
AcDbSpline
 62
7
  6
CONTINUOUS
 70
0
 71
3
 72
15
 73
11
 74
9
 42
0.0000001
 43
0.0000001
 44
0.0000000001
 12
0.0
 22
0.9503841674
 32
0.0
 13
0.0
 23
-0.9503841674
 33
0.0
 40
0.0
 40
0.0
 40
0.0
 40
0.0
 40
0.1250223177
 40
0.2500569757
 40
0.3750636469
 40
0.5000481864
 40
0.6250321258
 40
0.750028102
 40
0.8750016434
 40
1.0
 40
1.0
 40
1.0
 40
1.0
 10
7.2040044543
 20
-20.0049452141
 30
0.0
 10
7.2040044543
 20
-19.9653388037
 30
0.0
 10
7.188231708
 20
-19.8852585713
 30
0.0
 10
7.1207193188
 20
-19.7839064701
 30
0.0
 10
7.0195045871
 20
-19.7159117196
 30
0.0
 10
6.8999533525
 20
-19.6920541569
 30
0.0
 10
6.7804119093
 20
-19.7159480983
 30
0.0
 10
6.6792408418
 20
-19.7839626971
 30
0.0
 10
6.6117564841
 20
-19.8852920127
 30
0.0
 10
6.5959955457
 20
-19.9653463944
 30
0.0
 10
6.5959955457
 20
-20.0049452141
 30
0.0
 11
7.2040044543
 21
-20.0049452141
 31
0.0
 11
7.180923675
 21
-19.8883892733
 31
0.0
 11
7.1150942916
 21
-19.7894585441
 31
0.0
 11
7.0164396121
 21
-19.7232639035
 31
0.0
 11
6.8999542247
 21
-19.7000123784
 31
0.0
 11
6.7834767309
 21
-19.7233005048
 31
0.0
 11
6.6848506926
 21
-19.7895195789
 31
0.0
 11
6.6190663571
 21
-19.8884105139
 31
0.0
 11
6.5959955457
 21
-20.0049452141
 31
0.0
  0
SPLINE
  5
763
100
AcDbEntity
  8
RACCORDO
100
AcDbSpline
 62
7
  6
CONTINUOUS
 70
0
 71
3
 72
15
 73
11
 74
9
 42
0.0000001
 43
0.0000001
 44
0.0000000001
 12
0.0
 22
0.9503842326
 32
0.0
 13
0.0
 23
-0.9503842326
 33
0.0
 40
0.0
 40
0.0
 40
0.0
 40
0.0
 40
0.1250226321
 40
0.2500585705
 40
0.3750650367
 40
0.5000490933
 40
0.6250325189
 40
0.7500281037
 40
0.8750013165
 40
1.0
 40
1.0
 40
1.0
 40
1.0
 10
-6.5959955457
 20
-20.0049452141
 30
0.0
 10
-6.5959955457
 20
-19.9653387014
 30
0.0
 10
-6.6117685252
 20
-19.8852579949
 30
0.0
 10
-6.6792812976
 20
-19.7839055029
 30
0.0
 10
-6.7804966288
 20
-19.7159112662
 30
0.0
 10
-6.9000475189
 20
-19.6920541809
 30
0.0
 10
-7.0195884628
 20
-19.7159482983
 30
0.0
 10
-7.1207591237
 20
-19.7839627448
 30
0.0
 10
-7.1882435005
 20
-19.8852918853
 30
0.0
 10
-7.2040044543
 20
-19.9653462882
 30
0.0
 10
-7.2040044543
 20
-20.0049452141
 30
0.0
 11
-6.5959955457
 21
-20.0049452141
 31
0.0
 11
-6.6190764764
 21
-19.8883889903
 31
0.0
 11
-6.6849067342
 21
-19.7894573715
 31
0.0
 11
-6.7835616103
 21
-19.7232633591
 31
0.0
 11
-6.9000466406
 21
-19.700012348
 31
0.0
 11
-7.0165236135
 21
-19.723300631
 31
0.0
 11
-7.1151493022
 21
-19.789519573
 31
0.0
 11
-7.1809335368
 21
-19.8884102099
 31
0.0
 11
-7.2040044543
 21
-20.0049452141
 31
0.0
  0
SPLINE
  5
764
100
AcDbEntity
  8
RACCORDO
100
AcDbSpline
 62
7
  6
CONTINUOUS
 70
0
 71
3
 72
15
 73
11
 74
9
 42
0.0000001
 43
0.0000001
 44
0.0000000001
 12
-0.0
 22
-0.9503841835
 32
0.0
 13
-0.0
 23
0.9503841835
 33
0.0
 40
0.0
 40
0.0
 40
0.0
 40
0.0
 40
0.1250225954
 40
0.2500560787
 40
0.3750620501
 40
0.5000461653
 40
0.6250303308
 40
0.7500267126
 40
0.8750004552
 40
1.0
 40
1.0
 40
1.0
 40
1.0
 10
-7.2040044543
 20
20.0049452141
 30
0.0
 10
-7.2040044543
 20
19.9653387151
 30
0.0
 10
-7.1882318097
 20
19.8852587262
 30
0.0
 10
-7.1207196845
 20
19.7839071505
 30
0.0
 10
-7.0195059504
 20
19.7159123397
 30
0.0
 10
-6.8999551377
 20
19.6920541983
 30
0.0
 10
-6.7804134672
 20
19.7159473847
 30
0.0
 10
-6.6792418143
 20
19.7839616442
 30
0.0
 10
-6.6117566799
 20
19.8852911574
 30
0.0
 10
-6.5959955457
 20
19.9653460174
 30
0.0
 10
-6.5959955457
 20
20.0049452141
 30
0.0
 11
-7.2040044543
 21
20.0049452141
 31
0.0
 11
-7.1809236113
 21
19.8883890148
 31
0.0
 11
-7.1150948731
 21
19.7894591948
 31
0.0
 11
-7.01644103
 21
19.7232644977
 31
0.0
 11
-6.8999561678
 21
19.7000123914
 31
0.0
 11
-6.7834783161
 21
19.7232998341
 31
0.0
 11
-6.6848516173
 21
19.7895186194
 31
0.0
 11
-6.619066762
 21
19.8884094409
 31
0.0
 11
-6.5959955457
 21
20.0049452141
 31
0.0
  0
SPLINE
  5
765
100
AcDbEntity
  8
0
100
AcDbSpline
 62
7
  6
CONTINUOUS
 70
0
 71
3
 72
9
 73
5
 74
3
 42
0.0000001
 43
0.0000001
 44
0.0000000001
 12
-0.2540586046
 22
0.3592931243
 32
0.0
 13
-0.2443352963
 23
0.3659748444
 33
0.0
 40
0.0
 40
0.0
 40
0.0
 40
0.0
 40
0.2536987259
 40
1.0
 40
1.0
 40
1.0
 40
1.0
 10
-7.5666456542
 20
21.3359869487
 30
0.0
 10
-7.5881304357
 20
21.3663710179
 30
0.0
 10
-7.67279977
 20
21.4861432571
 30
0.0
 10
-7.7569041269
 20
21.6063467646
 30
0.0
 10
-7.8176867079
 20
21.6973892622
 30
0.0
 11
-7.5666456542
 21
21.3359869487
 31
0.0
 11
-7.6310550765
 21
21.4271709046
 31
0.0
 11
-7.8176867079
 21
21.6973892622
 31
0.0
  0
SPLINE
  5
766
100
AcDbEntity
  8
0
100
AcDbSpline
 62
7
  6
CONTINUOUS
 70
0
 71
3
 72
9
 73
5
 74
3
 42
0.0000001
 43
0.0000001
 44
0.0000000001
 12
-0.2443381483
 22
-0.3659791164
 32
0.0
 13
-0.2540615702
 23
-0.3592973182
 33
0.0
 40
0.0
 40
0.0
 40
0.0
 40
0.0
 40
0.2446707048
 40
1.0
 40
1.0
 40
1.0
 40
1.0
 10
7.8176867079
 20
21.6973892622
 30
0.0
 10
7.7977592455
 20
21.6675411394
 30
0.0
 10
7.7153744724
 20
21.5461740365
 30
0.0
 10
7.6306123698
 20
21.4264495454
 30
0.0
 10
7.5666456542
 20
21.3359869487
 30
0.0
 11
7.8176867079
 21
21.6973892622
 31
0.0
 11
7.7573026487
 21
21.6082495231
 31
0.0
 11
7.5666456542
 21
21.3359869487
 31
0.0
  0
SPLINE
  5
767
100
AcDbEntity
  8
0
100
AcDbSpline
 62
7
  6
CONTINUOUS
 70
0
 71
3
 72
9
 73
5
 74
3
 42
0.0000001
 43
0.0000001
 44
0.0000000001
 12
0.2540586046
 22
-0.3592931243
 32
0.0
 13
0.2443352963
 23
-0.3659748444
 33
0.0
 40
0.0
 40
0.0
 40
0.0
 40
0.0
 40
0.2536987259
 40
1.0
 40
1.0
 40
1.0
 40
1.0
 10
7.5666456542
 20
-21.3359869487
 30
0.0
 10
7.5881304357
 20
-21.3663710179
 30
0.0
 10
7.67279977
 20
-21.4861432571
 30
0.0
 10
7.7569041269
 20
-21.6063467646
 30
0.0
 10
7.8176867079
 20
-21.6973892622
 30
0.0
 11
7.5666456542
 21
-21.3359869487
 31
0.0
 11
7.6310550765
 21
-21.4271709046
 31
0.0
 11
7.8176867079
 21
-21.6973892622
 31
0.0
  0
SPLINE
  5
768
100
AcDbEntity
  8
RACCORDO
100
AcDbSpline
 62
7
  6
CONTINUOUS
 70
0
 71
3
 72
15
 73
11
 74
9
 42
0.0000001
 43
0.0000001
 44
0.0000000001
 12
-0.0
 22
-0.9503842482
 32
0.0
 13
-0.0
 23
0.9503842482
 33
0.0
 40
0.0
 40
0.0
 40
0.0
 40
0.0
 40
0.1250227305
 40
0.2500589328
 40
0.3750653498
 40
0.5000492959
 40
0.6250326038
 40
0.7500280956
 40
0.875001229
 40
1.0
 40
1.0
 40
1.0
 40
1.0
 10
6.5959955457
 20
20.0049452141
 30
0.0
 10
6.5959955457
 20
19.9653386696
 30
0.0
 10
6.6117685781
 20
19.8852578534
 30
0.0
 10
6.6792814466
 20
19.7839052816
 30
0.0
 10
6.7804969021
 20
19.7159111624
 30
0.0
 10
6.9000477136
 20
19.6920541876
 30
0.0
 10
7.0195885425
 20
19.7159483413
 30
0.0
 10
7.1207591094
 20
19.78396275
 30
0.0
 10
7.1882434955
 20
19.8852918489
 30
0.0
 10
7.2040044543
 20
19.9653462598
 30
0.0
 10
7.2040044543
 20
20.0049452141
 30
0.0
 11
6.5959955457
 21
20.0049452141
 31
0.0
 11
6.6190765189
 21
19.8883889014
 31
0.0
 11
6.6849069679
 21
19.7894571062
 31
0.0
 11
6.7835618854
 21
19.7232632359
 31
0.0
 11
6.9000468338
 21
19.7000123414
 31
0.0
 11
7.016523688
 21
19.7233006577
 31
0.0
 11
7.1151492954
 21
19.7895195657
 31
0.0
 11
7.1809335083
 21
19.8884101288
 31
0.0
 11
7.2040044543
 21
20.0049452141
 31
0.0
  0
SPLINE
  5
769
100
AcDbEntity
  8
0
100
AcDbSpline
 62
7
  6
CONTINUOUS
 70
0
 71
3
 72
9
 73
5
 74
3
 42
0.0000001
 43
0.0000001
 44
0.0000000001
 12
0.2443381483
 22
0.3659791164
 32
0.0
 13
0.2540615702
 23
0.3592973182
 33
0.0
 40
0.0
 40
0.0
 40
0.0
 40
0.0
 40
0.2446707048
 40
1.0
 40
1.0
 40
1.0
 40
1.0
 10
-7.8176867079
 20
-21.6973892622
 30
0.0
 10
-7.7977592455
 20
-21.6675411394
 30
0.0
 10
-7.7153744724
 20
-21.5461740365
 30
0.0
 10
-7.6306123698
 20
-21.4264495454
 30
0.0
 10
-7.5666456542
 20
-21.3359869487
 30
0.0
 11
-7.8176867079
 21
-21.6973892622
 31
0.0
 11
-7.7573026487
 21
-21.6082495231
 31
0.0
 11
-7.5666456542
 21
-21.3359869487
 31
0.0
  0
SPLINE
  5
76A
100
AcDbEntity
  8
0
100
AcDbSpline
 62
253
  6
CONTINUOUS
 70
0
 71
3
 72
11
 73
7
 74
5
 42
0.0000001
 43
0.0000001
 44
0.0000000001
 12
-0.0012232482
 22
-0.3641907438
 32
0.0
 13
-0.3641916425
 23
-0.0009174695
 33
0.0
 40
0.0
 40
0.0
 40
0.0
 40
0.0
 40
0.2331623084
 40
0.476670585
 40
0.7338116789
 40
1.0
 40
1.0
 40
1.0
 40
1.0
 10
10.145628166
 20
23.8443375673
 30
0.0
 10
10.1455330942
 20
23.8160323825
 30
0.0
 10
10.1316032365
 20
23.7574892432
 30
0.0
 10
10.0746708123
 20
23.6858281285
 30
0.0
 10
9.9920027722
 20
23.6388299314
 30
0.0
 10
9.9279469174
 20
23.6279126229
 30
0.0
 10
9.8956323968
 20
23.6278312164
 30
0.0
 11
10.145628166
 21
23.8443375673
 31
0.0
 11
10.1263899366
 21
23.7616295068
 31
0.0
 11
10.0721493704
 21
23.6914667969
 31
0.0
 11
9.9911338226
 21
23.6444922937
 31
0.0
 11
9.8956323968
 21
23.6278312164
 31
0.0
  0
SPLINE
  5
76B
100
AcDbEntity
  8
0
100
AcDbSpline
 62
253
  6
CONTINUOUS
 70
0
 71
3
 72
11
 73
7
 74
5
 42
0.0000001
 43
0.0000001
 44
0.0000000001
 12
0.0012232482
 22
-0.3641907438
 32
0.0
 13
0.3641916425
 23
-0.0009174695
 33
0.0
 40
0.0
 40
0.0
 40
0.0
 40
0.0
 40
0.2331623084
 40
0.476670585
 40
0.7338116789
 40
1.0
 40
1.0
 40
1.0
 40
1.0
 10
7.254371834
 20
23.8443375673
 30
0.0
 10
7.2544669058
 20
23.8160323825
 30
0.0
 10
7.2683967635
 20
23.7574892432
 30
0.0
 10
7.3253291877
 20
23.6858281285
 30
0.0
 10
7.4079972278
 20
23.6388299314
 30
0.0
 10
7.4720530826
 20
23.6279126229
 30
0.0
 10
7.5043676032
 20
23.6278312164
 30
0.0
 11
7.254371834
 21
23.8443375673
 31
0.0
 11
7.2736100634
 21
23.7616295068
 31
0.0
 11
7.3278506296
 21
23.6914667969
 31
0.0
 11
7.4088661774
 21
23.6444922937
 31
0.0
 11
7.5043676032
 21
23.6278312164
 31
0.0
  0
SPLINE
  5
76C
100
AcDbEntity
  8
0
100
AcDbSpline
 62
253
  6
CONTINUOUS
 70
0
 71
3
 72
11
 73
7
 74
5
 42
0.0000001
 43
0.0000001
 44
0.0000000001
 12
-0.0012232482
 22
-0.3641907438
 32
0.0
 13
-0.3641916425
 23
-0.0009174695
 33
0.0
 40
0.0
 40
0.0
 40
0.0
 40
0.0
 40
0.2331623084
 40
0.476670585
 40
0.7338116789
 40
1.0
 40
1.0
 40
1.0
 40
1.0
 10
-7.254371834
 20
23.8443375673
 30
0.0
 10
-7.2544669058
 20
23.8160323825
 30
0.0
 10
-7.2683967635
 20
23.7574892432
 30
0.0
 10
-7.3253291877
 20
23.6858281285
 30
0.0
 10
-7.4079972278
 20
23.6388299314
 30
0.0
 10
-7.4720530826
 20
23.6279126229
 30
0.0
 10
-7.5043676032
 20
23.6278312164
 30
0.0
 11
-7.254371834
 21
23.8443375673
 31
0.0
 11
-7.2736100634
 21
23.7616295068
 31
0.0
 11
-7.3278506296
 21
23.6914667969
 31
0.0
 11
-7.4088661774
 21
23.6444922937
 31
0.0
 11
-7.5043676032
 21
23.6278312164
 31
0.0
  0
SPLINE
  5
76D
100
AcDbEntity
  8
0
100
AcDbSpline
 62
253
  6
CONTINUOUS
 70
0
 71
3
 72
11
 73
7
 74
5
 42
0.0000001
 43
0.0000001
 44
0.0000000001
 12
0.0012232482
 22
-0.3641907438
 32
0.0
 13
0.3641916425
 23
-0.0009174695
 33
0.0
 40
0.0
 40
0.0
 40
0.0
 40
0.0
 40
0.2331623084
 40
0.476670585
 40
0.7338116789
 40
1.0
 40
1.0
 40
1.0
 40
1.0
 10
-10.145628166
 20
23.8443375673
 30
0.0
 10
-10.1455330942
 20
23.8160323825
 30
0.0
 10
-10.1316032365
 20
23.7574892432
 30
0.0
 10
-10.0746708123
 20
23.6858281285
 30
0.0
 10
-9.9920027722
 20
23.6388299314
 30
0.0
 10
-9.9279469174
 20
23.6279126229
 30
0.0
 10
-9.8956323968
 20
23.6278312164
 30
0.0
 11
-10.145628166
 21
23.8443375673
 31
0.0
 11
-10.1263899366
 21
23.7616295068
 31
0.0
 11
-10.0721493704
 21
23.6914667969
 31
0.0
 11
-9.9911338226
 21
23.6444922937
 31
0.0
 11
-9.8956323968
 21
23.6278312164
 31
0.0
  0
SPLINE
  5
76E
100
AcDbEntity
  8
0
100
AcDbSpline
 62
253
  6
CONTINUOUS
 70
0
 71
3
 72
11
 73
7
 74
5
 42
0.0000001
 43
0.0000001
 44
0.0000000001
 12
-0.0012232482
 22
0.3641907438
 32
0.0
 13
-0.3641916425
 23
0.0009174695
 33
0.0
 40
0.0
 40
0.0
 40
0.0
 40
0.0
 40
0.2331623162
 40
0.4766706026
 40
0.7338117062
 40
1.0
 40
1.0
 40
1.0
 40
1.0
 10
10.145628166
 20
-23.8443375673
 30
0.0
 10
10.1455330942
 20
-23.8160323815
 30
0.0
 10
10.1316032353
 20
-23.7574892401
 30
0.0
 10
10.0746708074
 20
-23.685828124
 30
0.0
 10
9.9920027666
 20
-23.6388299294
 30
0.0
 10
9.9279469141
 20
-23.6279126229
 30
0.0
 10
9.8956323968
 20
-23.6278312164
 30
0.0
 11
10.145628166
 21
-23.8443375673
 31
0.0
 11
10.1263899352
 21
-23.7616295042
 31
0.0
 11
10.0721493654
 21
-23.6914667926
 31
0.0
 11
9.9911338132
 21
-23.6444922901
 31
0.0
 11
9.8956323968
 21
-23.6278312164
 31
0.0
  0
SPLINE
  5
76F
100
AcDbEntity
  8
0
100
AcDbSpline
 62
253
  6
CONTINUOUS
 70
0
 71
3
 72
11
 73
7
 74
5
 42
0.0000001
 43
0.0000001
 44
0.0000000001
 12
0.0012232482
 22
0.3641907442
 32
0.0
 13
0.3641916429
 23
0.0009174695
 33
0.0
 40
0.0
 40
0.0
 40
0.0
 40
0.0
 40
0.2331622206
 40
0.4766705204
 40
0.7338116472
 40
1.0
 40
1.0
 40
1.0
 40
1.0
 10
7.254371834
 20
-23.8443375673
 30
0.0
 10
7.2544669058
 20
-23.8160323931
 30
0.0
 10
7.2683967542
 20
-23.7574892617
 30
0.0
 10
7.3253291691
 20
-23.6858281428
 30
0.0
 10
7.4079972158
 20
-23.6388299344
 30
0.0
 10
7.4720530787
 20
-23.6279126229
 30
0.0
 10
7.5043676032
 20
-23.6278312164
 30
0.0
 11
7.254371834
 21
-23.8443375673
 31
0.0
 11
7.2736100483
 21
-23.761629536
 31
0.0
 11
7.3278506113
 21
-23.6914668129
 31
0.0
 11
7.4088661663
 21
-23.644492298
 31
0.0
 11
7.5043676032
 21
-23.6278312164
 31
0.0
  0
SPLINE
  5
770
100
AcDbEntity
  8
0
100
AcDbSpline
 62
253
  6
CONTINUOUS
 70
0
 71
3
 72
11
 73
7
 74
5
 42
0.0000001
 43
0.0000001
 44
0.0000000001
 12
0.0012232482
 22
0.3641907438
 32
0.0
 13
0.3641916425
 23
0.0009174695
 33
0.0
 40
0.0
 40
0.0
 40
0.0
 40
0.0
 40
0.2331623162
 40
0.4766706026
 40
0.7338117062
 40
1.0
 40
1.0
 40
1.0
 40
1.0
 10
-10.145628166
 20
-23.8443375673
 30
0.0
 10
-10.1455330942
 20
-23.8160323815
 30
0.0
 10
-10.1316032353
 20
-23.7574892401
 30
0.0
 10
-10.0746708074
 20
-23.685828124
 30
0.0
 10
-9.9920027666
 20
-23.6388299294
 30
0.0
 10
-9.9279469141
 20
-23.6279126229
 30
0.0
 10
-9.8956323968
 20
-23.6278312164
 30
0.0
 11
-10.145628166
 21
-23.8443375673
 31
0.0
 11
-10.1263899352
 21
-23.7616295042
 31
0.0
 11
-10.0721493654
 21
-23.6914667926
 31
0.0
 11
-9.9911338132
 21
-23.6444922901
 31
0.0
 11
-9.8956323968
 21
-23.6278312164
 31
0.0
  0
SPLINE
  5
771
100
AcDbEntity
  8
0
100
AcDbSpline
 62
253
  6
CONTINUOUS
 70
0
 71
3
 72
11
 73
7
 74
5
 42
0.0000001
 43
0.0000001
 44
0.0000000001
 12
-0.0012232482
 22
0.3641907442
 32
0.0
 13
-0.3641916429
 23
0.0009174695
 33
0.0
 40
0.0
 40
0.0
 40
0.0
 40
0.0
 40
0.2331622206
 40
0.4766705204
 40
0.7338116472
 40
1.0
 40
1.0
 40
1.0
 40
1.0
 10
-7.254371834
 20
-23.8443375673
 30
0.0
 10
-7.2544669058
 20
-23.8160323931
 30
0.0
 10
-7.2683967542
 20
-23.7574892617
 30
0.0
 10
-7.3253291691
 20
-23.6858281428
 30
0.0
 10
-7.4079972158
 20
-23.6388299344
 30
0.0
 10
-7.4720530787
 20
-23.6279126229
 30
0.0
 10
-7.5043676032
 20
-23.6278312164
 30
0.0
 11
-7.254371834
 21
-23.8443375673
 31
0.0
 11
-7.2736100483
 21
-23.761629536
 31
0.0
 11
-7.3278506113
 21
-23.6914668129
 31
0.0
 11
-7.4088661663
 21
-23.644492298
 31
0.0
 11
-7.5043676032
 21
-23.6278312164
 31
0.0
  0
ELLIPSE
  5
772
100
AcDbEntity
  8
DRAFT
100
AcDbEllipse
 62
7
  6
CONTINUOUS
 10
-7.9291674805
 20
16.2
 30
0.0
 11
-0.0
 21
1.0
 31
0.0
 40
0.0174550649
 41
-2.2142974356
 42
-0.927295218
  0
ELLIPSE
  5
773
100
AcDbEntity
  8
DRAFT
100
AcDbEllipse
 62
7
  6
CONTINUOUS
 10
7.9291674805
 20
16.2
 30
0.0
 11
0.0
 21
1.0
 31
0.0
 40
0.0174550649
 41
0.927295218
 42
2.2142974356
  0
ELLIPSE
  5
774
100
AcDbEntity
  8
DRAFT
100
AcDbEllipse
 62
7
  6
CONTINUOUS
 10
-8.3645788217
 20
-9.3
 30
0.0
 11
0.0
 21
1.0
 31
0.0
 40
0.0087268678
 41
-2.2142974356
 42
-0.927295218
  0
ELLIPSE
  5
775
100
AcDbEntity
  8
DRAFT
100
AcDbEllipse
 62
7
  6
CONTINUOUS
 10
8.3645788217
 20
-9.3
 30
0.0
 11
-0.0
 21
1.0
 31
0.0
 40
0.0087268678
 41
0.927295218
 42
2.2142974356
  0
ELLIPSE
  5
776
100
AcDbEntity
  8
RACCORDO
100
AcDbEllipse
 62
7
  6
CONTINUOUS
 10
7.7122290384
 20
-7.6
 30
0.0
 11
-0.003796556
 21
0.299975976
 31
0.0
 40
1.0
 41
1.5668674485
 42
3.128937129
  0
ELLIPSE
  5
777
100
AcDbEntity
  8
RACCORDO
100
AcDbEllipse
 62
7
  6
CONTINUOUS
 10
-7.7122290384
 20
-7.6
 30
0.0
 11
0.0
 21
0.3
 31
0.0
 40
1.0
 41
-3.1415926536
 42
-1.5795229731
  0
ELLIPSE
  5
778
100
AcDbEntity
  8
RACCORDO
100
AcDbEllipse
 62
7
  6
CONTINUOUS
 10
-7.7122290384
 20
-6.5973819397
 30
0.0
 11
0.3
 21
-0.0
 31
0.0
 40
0.0087268678
 41
-1.5707963268
 42
-0.0087266463
  0
ELLIPSE
  5
779
100
AcDbEntity
  8
RACCORDO
100
AcDbEllipse
 62
7
  6
CONTINUOUS
 10
7.7122290384
 20
-6.5973819397
 30
0.0
 11
0.3
 21
0.0
 31
0.0
 40
0.0087268678
 41
-3.1328660073
 42
-1.5707963268
  0
ELLIPSE
  5
77A
100
AcDbEntity
  8
ASSI
100
AcDbEllipse
 62
7
  6
CONTINUOUS
 10
-8.999923836
 20
-16.0000190392
 30
0.0
 11
0.4473055582
 21
-0.2236357461
 31
0.0
 40
0.9998096356
 41
-3.1331910784
 42
-2.6780516535
  0
ELLIPSE
  5
77B
100
AcDbEntity
  8
ASSI
100
AcDbEllipse
 62
7
  6
CONTINUOUS
 10
-8.999923836
 20
-16.0000190392
 30
0.0
 11
0.4473055582
 21
-0.2236357461
 31
0.0
 40
0.9998096356
 41
2.1319334397
 42
2.210001812
  0
ELLIPSE
  5
77C
100
AcDbEntity
  8
ASSI
100
AcDbEllipse
 62
7
  6
CONTINUOUS
 10
8.999923836
 20
-16.0000190392
 30
0.0
 11
0.4473055582
 21
0.2236357461
 31
0.0
 40
0.9998096356
 41
0.9315908416
 42
1.1071030277
  0
ELLIPSE
  5
77D
100
AcDbEntity
  8
ASSI
100
AcDbEllipse
 62
7
  6
CONTINUOUS
 10
8.999923836
 20
-16.0000190392
 30
0.0
 11
0.4473055582
 21
0.2236357461
 31
0.0
 40
0.9998096356
 41
-0.4635410001
 42
-0.0084015752
  0
ELLIPSE
  5
77E
100
AcDbEntity
  8
ASSI
100
AcDbEllipse
 62
7
  6
CONTINUOUS
 10
-7.0499966153
 20
22.6002744692
 30
0.0
 11
0.0220972656
 21
0.1990550872
 31
0.0
 40
0.9986126811
 41
-4.601678501
 42
-3.0311866536
  0
ELLIPSE
  5
77F
100
AcDbEntity
  8
ASSI
100
AcDbEllipse
 62
7
  6
CONTINUOUS
 10
-10.3500033847
 20
22.6002744692
 30
0.0
 11
-0.0220972656
 21
0.1990550872
 31
0.0
 40
0.9986126811
 41
-3.2519986536
 42
-1.6815068062
  0
ELLIPSE
  5
780
100
AcDbEntity
  8
ASSI
100
AcDbEllipse
 62
7
  6
CONTINUOUS
 10
10.3500033847
 20
22.6002744692
 30
0.0
 11
0.0220972656
 21
0.1990550872
 31
0.0
 40
0.9986126811
 41
-4.601678501
 42
-3.0311866536
  0
ELLIPSE
  5
781
100
AcDbEntity
  8
ASSI
100
AcDbEllipse
 62
7
  6
CONTINUOUS
 10
7.0499966153
 20
22.6002744692
 30
0.0
 11
-0.0220972656
 21
0.1990550872
 31
0.0
 40
0.9986126811
 41
-3.2519986536
 42
-1.6815068062
  0
ELLIPSE
  5
782
100
AcDbEntity
  8
ASSI
100
AcDbEllipse
 62
7
  6
CONTINUOUS
 10
-10.3500033847
 20
-22.6002744692
 30
0.0
 11
0.0220972656
 21
0.1990550872
 31
0.0
 40
0.9986126811
 41
-1.4600858474
 42
0.110406
  0
ELLIPSE
  5
783
100
AcDbEntity
  8
ASSI
100
AcDbEllipse
 62
7
  6
CONTINUOUS
 10
-7.0499966153
 20
-22.6002744692
 30
0.0
 11
-0.0220972656
 21
0.1990550872
 31
0.0
 40
0.9986126811
 41
-0.110406
 42
1.4600858474
  0
ELLIPSE
  5
784
100
AcDbEntity
  8
ASSI
100
AcDbEllipse
 62
7
  6
CONTINUOUS
 10
7.0499966153
 20
-22.6002744692
 30
0.0
 11
0.0220972656
 21
0.1990550872
 31
0.0
 40
0.9986126811
 41
-1.4600858474
 42
0.110406
  0
ELLIPSE
  5
785
100
AcDbEntity
  8
ASSI
100
AcDbEllipse
 62
7
  6
CONTINUOUS
 10
10.3500033847
 20
-22.6002744692
 30
0.0
 11
-0.0220972656
 21
0.1990550872
 31
0.0
 40
0.9986126811
 41
-0.110406
 42
1.4600858474
  0
ELLIPSE
  5
786
100
AcDbEntity
  8
ASSI
100
AcDbEllipse
 62
7
  6
CONTINUOUS
 10
9.5397199442
 20
19.6676556748
 30
0.0
 11
0.0
 21
0.9
 31
0.0
 40
0.0174550649
 41
1.3990627793
 42
1.4349437612
  0
ELLIPSE
  5
787
100
AcDbEntity
  8
ASSI
100
AcDbEllipse
 62
7
  6
CONTINUOUS
 10
-9.7397507018
 20
19.6676556748
 30
0.0
 11
0.9005489241
 21
0.8994510755
 31
0.0
 40
0.0348994837
 41
-1.3641349085
 42
-0.0174320068
  0
ELLIPSE
  5
788
100
AcDbEntity
  8
ASSI
100
AcDbEllipse
 62
7
  6
CONTINUOUS
 10
9.7397507018
 20
19.6676556748
 30
0.0
 11
0.9005489241
 21
-0.8994510755
 31
0.0
 40
0.0348994837
 41
-3.1241606468
 42
-1.7774577451
  0
ELLIPSE
  5
789
100
AcDbEntity
  8
ASSI
100
AcDbEllipse
 62
7
  6
CONTINUOUS
 10
3.9530427099
 20
-22.3560930869
 30
0.0
 11
0.4530427099
 21
0.0
 31
0.0
 40
0.0058178298
 41
0.0058177642
 42
2.6251434606
  0
ELLIPSE
  5
78A
100
AcDbEntity
  8
ASSI
100
AcDbEllipse
 62
7
  6
CONTINUOUS
 10
-3.9530427099
 20
-22.3560930869
 30
0.0
 11
0.4530427099
 21
-0.0
 31
0.0
 40
0.0058178298
 41
0.516449193
 42
3.1357748894
  0
ELLIPSE
  5
78B
100
AcDbEntity
  8
ASSI
100
AcDbEllipse
 62
7
  6
CONTINUOUS
 10
3.9530427099
 20
22.3560930869
 30
0.0
 11
0.4530427099
 21
0.0
 31
0.0
 40
0.0058178298
 41
-2.6251434606
 42
-0.0058177642
  0
ELLIPSE
  5
78C
100
AcDbEntity
  8
ASSI
100
AcDbEllipse
 62
7
  6
CONTINUOUS
 10
-3.9530427099
 20
22.3560930869
 30
0.0
 11
0.4530427099
 21
0.0
 31
0.0
 40
0.0058178298
 41
-3.1357748894
 42
-0.516449193
  0
ELLIPSE
  5
78D
100
AcDbEntity
  8
ASSI
100
AcDbEllipse
 62
7
  6
CONTINUOUS
 10
-8.1905965035
 20
21.3359869487
 30
0.0
 11
1.0000571192
 21
0.9999809595
 31
0.0
 40
0.0061705924
 41
-1.1948539202
 42
0.0003532199
  0
ELLIPSE
  5
78E
100
AcDbEntity
  8
ASSI
100
AcDbEllipse
 62
7
  6
CONTINUOUS
 10
-3.0872686779
 20
21.3359869487
 30
0.0
 11
-0.0
 21
1.0
 31
0.0
 40
0.0087268678
 41
0.0058177642
 42
1.5707963268
  0
ELLIPSE
  5
78F
100
AcDbEntity
  8
ASSI
100
AcDbEllipse
 62
7
  6
CONTINUOUS
 10
3.0872686779
 20
21.3359869487
 30
0.0
 11
-0.0
 21
1.0
 31
0.0
 40
0.0087268678
 41
-1.5707963268
 42
-0.0058177642
  0
ELLIPSE
  5
790
100
AcDbEntity
  8
ASSI
100
AcDbEllipse
 62
7
  6
CONTINUOUS
 10
8.1905965035
 20
21.3359869487
 30
0.0
 11
1.0000571192
 21
-0.9999809595
 31
0.0
 40
0.0061705924
 41
3.1412394337
 42
4.3364465738
  0
ELLIPSE
  5
791
100
AcDbEntity
  8
ASSI
100
AcDbEllipse
 62
7
  6
CONTINUOUS
 10
8.1905965035
 20
-21.3359869487
 30
0.0
 11
1.0000571192
 21
0.9999809595
 31
0.0
 40
0.0061705924
 41
1.9467387334
 42
3.1419458735
  0
ELLIPSE
  5
792
100
AcDbEntity
  8
ASSI
100
AcDbEllipse
 62
7
  6
CONTINUOUS
 10
3.0872686779
 20
-21.3359869487
 30
0.0
 11
-0.0
 21
1.0
 31
0.0
 40
0.0087268678
 41
-3.1357748894
 42
-1.5707963268
  0
ELLIPSE
  5
793
100
AcDbEntity
  8
ASSI
100
AcDbEllipse
 62
7
  6
CONTINUOUS
 10
-3.0872686779
 20
-21.3359869487
 30
0.0
 11
-0.0
 21
1.0
 31
0.0
 40
0.0087268678
 41
-4.7123889804
 42
-3.1474104178
  0
ELLIPSE
  5
794
100
AcDbEntity
  8
ASSI
100
AcDbEllipse
 62
7
  6
CONTINUOUS
 10
-8.1905965035
 20
-21.3359869487
 30
0.0
 11
1.0000571192
 21
-0.9999809595
 31
0.0
 40
0.0061705924
 41
-0.0003532199
 42
1.1948539202
  0
ELLIPSE
  5
795
100
AcDbEntity
  8
ASSI
100
AcDbEllipse
 62
7
  6
CONTINUOUS
 10
11.0564246054
 20
7.79
 30
0.0
 11
-0.0
 21
88.6
 31
0.0
 40
0.0174550649
 41
1.4850455898
 42
1.4889336053
  0
ELLIPSE
  5
796
100
AcDbEntity
  8
ASSI
100
AcDbEllipse
 62
7
  6
CONTINUOUS
 10
11.0564246054
 20
7.79
 30
0.0
 11
-0.0
 21
88.6
 31
0.0
 40
0.0174550649
 41
1.4622052963
 42
1.4641390142
  0
ELLIPSE
  5
797
100
AcDbEntity
  8
ASSI
100
AcDbEllipse
 62
7
  6
CONTINUOUS
 10
11.0564246054
 20
7.79
 30
0.0
 11
-0.0
 21
88.6
 31
0.0
 40
0.0174550649
 41
1.4349437612
 42
1.4439317673
  0
ELLIPSE
  5
798
100
AcDbEntity
  8
ASSI
100
AcDbEllipse
 62
7
  6
CONTINUOUS
 10
-4.263273149
 20
-17.536726851
 30
0.0
 11
-0.1197781703
 21
0.2754963673
 31
0.0
 40
0.998430313
 41
-0.4095445076
 42
1.1611756667
  0
ELLIPSE
  5
799
100
AcDbEntity
  8
ASSI
100
AcDbEllipse
 62
7
  6
CONTINUOUS
 10
-4.2026066368
 20
-20.0296713505
 30
0.0
 11
0.3
 21
-0.0
 31
0.0
 40
0.0087268678
 41
-3.1328660073
 42
-1.5707963268
  0
ELLIPSE
  5
79A
100
AcDbEntity
  8
ASSI
100
AcDbEllipse
 62
7
  6
CONTINUOUS
 10
4.263273149
 20
-17.536726851
 30
0.0
 11
0.1197781703
 21
0.2754963673
 31
0.0
 40
0.998430313
 41
-1.1611756667
 42
0.4095445076
  0
ELLIPSE
  5
79B
100
AcDbEntity
  8
ASSI
100
AcDbEllipse
 62
7
  6
CONTINUOUS
 10
4.2026066368
 20
-20.0296713505
 30
0.0
 11
0.3
 21
0.0
 31
0.0
 40
0.0087268678
 41
-1.5707963268
 42
-0.0087266463
  0
ELLIPSE
  5
79C
100
AcDbEntity
  8
ASSI
100
AcDbEllipse
 62
7
  6
CONTINUOUS
 10
9.8999957691
 20
23.4113248654
 30
0.0
 11
-0.0029088041
 21
0.2886641433
 31
0.0
 40
0.8660144118
 41
-3.150319066
 42
-1.582431609
  0
ELLIPSE
  5
79D
100
AcDbEntity
  8
ASSI
100
AcDbEllipse
 62
7
  6
CONTINUOUS
 10
7.5000042309
 20
23.4113248654
 30
0.0
 11
0.0029088041
 21
0.2886641433
 31
0.0
 40
0.8660144118
 41
-4.7007536982
 42
-3.1328662411
  0
ELLIPSE
  5
79E
100
AcDbEntity
  8
ASSI
100
AcDbEllipse
 62
7
  6
CONTINUOUS
 10
-7.5000042309
 20
23.4113248654
 30
0.0
 11
-0.0029088041
 21
0.2886641433
 31
0.0
 40
0.8660144118
 41
-3.150319066
 42
-1.582431609
  0
ELLIPSE
  5
79F
100
AcDbEntity
  8
ASSI
100
AcDbEllipse
 62
7
  6
CONTINUOUS
 10
-9.8999957691
 20
23.4113248654
 30
0.0
 11
0.0029088041
 21
0.2886641433
 31
0.0
 40
0.8660144118
 41
-4.7007536982
 42
-3.1328662412
  0
ELLIPSE
  5
7A0
100
AcDbEntity
  8
ASSI
100
AcDbEllipse
 62
7
  6
CONTINUOUS
 10
9.8999957691
 20
-23.4113248654
 30
0.0
 11
0.0029088041
 21
0.2886641433
 31
0.0
 40
0.8660144118
 41
-1.5591610446
 42
0.0087264124
  0
ELLIPSE
  5
7A1
100
AcDbEntity
  8
ASSI
100
AcDbEllipse
 62
7
  6
CONTINUOUS
 10
7.5000042309
 20
-23.4113248654
 30
0.0
 11
-0.0029088041
 21
0.2886641433
 31
0.0
 40
0.8660144118
 41
-0.0087264124
 42
1.5591610446
  0
ELLIPSE
  5
7A2
100
AcDbEntity
  8
ASSI
100
AcDbEllipse
 62
7
  6
CONTINUOUS
 10
-9.8999957691
 20
-23.4113248654
 30
0.0
 11
-0.0029088041
 21
0.2886641433
 31
0.0
 40
0.8660144118
 41
-0.0087264124
 42
1.5591610446
  0
ELLIPSE
  5
7A3
100
AcDbEntity
  8
ASSI
100
AcDbEllipse
 62
7
  6
CONTINUOUS
 10
-7.5000042309
 20
-23.4113248654
 30
0.0
 11
0.0029088041
 21
0.2886641433
 31
0.0
 40
0.8660144118
 41
-1.5591610446
 42
0.0087264124
  0
ELLIPSE
  5
7A4
100
AcDbEntity
  8
ASSI
100
AcDbEllipse
 62
7
  6
CONTINUOUS
 10
-9.6098533507
 20
-19.7897929133
 30
0.0
 11
-0.0
 21
0.2
 31
0.0
 40
0.0174550649
 41
0.0523598776
 42
1.5707963268
  0
ELLIPSE
  5
7A5
100
AcDbEntity
  8
ASSI
100
AcDbEllipse
 62
7
  6
CONTINUOUS
 10
-7.3200717959
 20
-19.7897929133
 30
0.0
 11
-0.0
 21
0.2
 31
0.0
 40
0.0087268678
 41
-1.5707963268
 42
-0.0523598776
  0
ELLIPSE
  5
7A6
100
AcDbEntity
  8
ASSI
100
AcDbEllipse
 62
7
  6
CONTINUOUS
 10
-6.4799282041
 20
-19.7897929133
 30
0.0
 11
0.0
 21
0.2
 31
0.0
 40
0.0087268678
 41
0.0523598776
 42
1.5707963268
  0
ELLIPSE
  5
7A7
100
AcDbEntity
  8
ASSI
100
AcDbEllipse
 62
7
  6
CONTINUOUS
 10
-4.5340347844
 20
-19.7897929133
 30
0.0
 11
-0.0
 21
0.2
 31
0.0
 40
0.0087268678
 41
-1.5707963268
 42
-0.0523598776
  0
ELLIPSE
  5
7A8
100
AcDbEntity
  8
ASSI
100
AcDbEllipse
 62
7
  6
CONTINUOUS
 10
4.5340347844
 20
-19.7897929133
 30
0.0
 11
0.0
 21
0.2
 31
0.0
 40
0.0087268678
 41
0.0523598776
 42
1.5707963268
  0
ELLIPSE
  5
7A9
100
AcDbEntity
  8
ASSI
100
AcDbEllipse
 62
7
  6
CONTINUOUS
 10
6.4799282041
 20
-19.7897929133
 30
0.0
 11
-0.0
 21
0.2
 31
0.0
 40
0.0087268678
 41
-1.5707963268
 42
-0.0523598776
  0
ELLIPSE
  5
7AA
100
AcDbEntity
  8
ASSI
100
AcDbEllipse
 62
7
  6
CONTINUOUS
 10
7.3200717959
 20
-19.7897929133
 30
0.0
 11
-0.0
 21
0.2
 31
0.0
 40
0.0087268678
 41
0.0523598776
 42
1.5707963268
  0
ELLIPSE
  5
7AB
100
AcDbEntity
  8
ASSI
100
AcDbEllipse
 62
7
  6
CONTINUOUS
 10
9.6098533507
 20
-19.7897929133
 30
0.0
 11
-0.0
 21
0.2
 31
0.0
 40
0.0174550649
 41
-1.5707963268
 42
-0.0523598776
  0
ELLIPSE
  5
7AC
100
AcDbEntity
  8
ASSI
100
AcDbEllipse
 62
7
  6
CONTINUOUS
 10
6.4441609351
 20
19.0624530869
 30
0.0
 11
0.0
 21
0.9
 31
0.0
 40
0.0087268678
 41
0.0087266463
 42
1.4419055065
  0
ELLIPSE
  5
7AD
100
AcDbEntity
  8
ASSI
100
AcDbEllipse
 62
7
  6
CONTINUOUS
 10
7.3551358285
 20
19.6676556748
 30
0.0
 11
-0.0
 21
0.9
 31
0.0
 40
0.0087268678
 41
-1.4349437612
 42
-0.0523598776
  0
ELLIPSE
  5
7AE
100
AcDbEntity
  8
ASSI
100
AcDbEllipse
 62
7
  6
CONTINUOUS
 10
-7.3551358285
 20
19.6676556748
 30
0.0
 11
0.0
 21
0.9
 31
0.0
 40
0.0087268678
 41
0.0523598776
 42
1.4349437612
  0
ELLIPSE
  5
7AF
100
AcDbEntity
  8
ASSI
100
AcDbEllipse
 62
7
  6
CONTINUOUS
 10
-6.4441609351
 20
19.0624530869
 30
0.0
 11
0.0
 21
0.9
 31
0.0
 40
0.0087268678
 41
-1.4419055065
 42
-0.0087266463
  0
ELLIPSE
  5
7B0
100
AcDbEntity
  8
ASSI
100
AcDbEllipse
 62
7
  6
CONTINUOUS
 10
-6.5968412527
 20
7.79
 30
0.0
 11
-0.0
 21
88.6
 31
0.0
 40
0.0087268678
 41
1.4349437612
 42
1.4489526822
  0
ELLIPSE
  5
7B1
100
AcDbEntity
  8
ASSI
100
AcDbEllipse
 62
7
  6
CONTINUOUS
 10
-7.2031587473
 20
7.79
 30
0.0
 11
-0.0
 21
88.6
 31
0.0
 40
0.0087268678
 41
-1.4489526822
 42
-1.4419055065
  0
ELLIPSE
  5
7B2
100
AcDbEntity
  8
ASSI
100
AcDbEllipse
 62
7
  6
CONTINUOUS
 10
7.2031587473
 20
7.79
 30
0.0
 11
-0.0
 21
88.6
 31
0.0
 40
0.0087268678
 41
1.4419055065
 42
1.4489526822
  0
ELLIPSE
  5
7B3
100
AcDbEntity
  8
ASSI
100
AcDbEllipse
 62
7
  6
CONTINUOUS
 10
6.5968412527
 20
7.79
 30
0.0
 11
-0.0
 21
88.6
 31
0.0
 40
0.0087268678
 41
-1.4489526822
 42
-1.4349437612
  0
ELLIPSE
  5
7B4
100
AcDbEntity
  8
ASSI
100
AcDbEllipse
 62
7
  6
CONTINUOUS
 10
-9.5397199442
 20
19.6676556748
 30
0.0
 11
0.0
 21
0.9
 31
0.0
 40
0.0174550649
 41
-1.4349437612
 42
-1.3990627793
  0
ELLIPSE
  5
7B5
100
AcDbEntity
  8
ASSI
100
AcDbEllipse
 62
7
  6
CONTINUOUS
 10
-11.0564246054
 20
7.79
 30
0.0
 11
-0.0
 21
88.6
 31
0.0
 40
0.0174550649
 41
-1.4889336053
 42
-1.485044355
  0
ELLIPSE
  5
7B6
100
AcDbEntity
  8
ASSI
100
AcDbEllipse
 62
7
  6
CONTINUOUS
 10
-11.0564246054
 20
7.79
 30
0.0
 11
-0.0
 21
88.6
 31
0.0
 40
0.0174550649
 41
4.8190450507
 42
4.8209800109
  0
ELLIPSE
  5
7B7
100
AcDbEntity
  8
ASSI
100
AcDbEllipse
 62
7
  6
CONTINUOUS
 10
-11.0564246054
 20
7.79
 30
0.0
 11
-0.0
 21
88.6
 31
0.0
 40
0.0174550649
 41
-1.4439317673
 42
-1.4349437612
  0
ELLIPSE
  5
7B8
100
AcDbEntity
  8
ASSI
100
AcDbEllipse
 62
7
  6
CONTINUOUS
 10
10.641254093
 20
21.8941737085
 30
0.0
 11
-0.4160498344
 21
-0.2773626446
 31
0.0
 40
0.9999450019
 41
2.5536219432
 42
4.1243675013
  0
ELLIPSE
  5
7B9
100
AcDbEntity
  8
ASSI
100
AcDbEllipse
 62
7
  6
CONTINUOUS
 10
10.641254093
 20
-21.8941737085
 30
0.0
 11
0.4160498344
 21
-0.2773626446
 31
0.0
 40
0.9999450019
 41
-0.9827748477
 42
0.5879707104
  0
ELLIPSE
  5
7BA
100
AcDbEntity
  8
ASSI
100
AcDbEllipse
 62
7
  6
CONTINUOUS
 10
-10.641254093
 20
-21.8941737085
 30
0.0
 11
0.4160498344
 21
0.2773626446
 31
0.0
 40
0.9999450019
 41
2.5536219432
 42
4.1243675013
  0
ELLIPSE
  5
7BB
100
AcDbEntity
  8
ASSI
100
AcDbEllipse
 62
7
  6
CONTINUOUS
 10
-10.641254093
 20
21.8941737085
 30
0.0
 11
-0.4160498344
 21
0.2773626446
 31
0.0
 40
0.9999450019
 41
-0.9827748477
 42
0.5879707104
  0
ELLIPSE
  5
7BC
100
AcDbEntity
  8
ASSI
100
AcDbEllipse
 62
7
  6
CONTINUOUS
 10
7.5666456542
 20
-21.9537669705
 30
0.0
 11
0.4999904798
 21
0.5000285596
 31
0.0
 40
0.0061705924
 41
0.0112823085
 42
1.0386206835
  0
ELLIPSE
  5
7BD
100
AcDbEntity
  8
ASSI
100
AcDbEllipse
 62
7
  6
CONTINUOUS
 10
-7.5666456542
 20
-21.9537669705
 30
0.0
 11
-0.4999904798
 21
0.5000285596
 31
0.0
 40
0.0061705924
 41
-1.0386206835
 42
-0.0112823085
  0
ELLIPSE
  5
7BE
100
AcDbEntity
  8
ASSI
100
AcDbEllipse
 62
7
  6
CONTINUOUS
 10
-7.5666456542
 20
21.9537669705
 30
0.0
 11
0.4999904798
 21
0.5000285596
 31
0.0
 40
0.0061705924
 41
-3.1303103451
 42
-2.1029719701
  0
ELLIPSE
  5
7BF
100
AcDbEntity
  8
ASSI
100
AcDbEllipse
 62
7
  6
CONTINUOUS
 10
7.5666456542
 20
21.9537669705
 30
0.0
 11
-0.4999904798
 21
0.5000285596
 31
0.0
 40
0.0061705924
 41
-4.1802133371
 42
-3.1528749621
  0
ELLIPSE
  5
7C0
100
AcDbEntity
  8
ASSI
100
AcDbEllipse
 62
7
  6
CONTINUOUS
 10
-3.5567246406
 20
-23.4563578147
 30
0.0
 11
-0.0
 21
0.5
 31
0.0
 40
0.0087268678
 41
-3.7136173455
 42
-3.1474104178
  0
ELLIPSE
  5
7C1
100
AcDbEntity
  8
ASSI
100
AcDbEllipse
 62
7
  6
CONTINUOUS
 10
3.5567246406
 20
-23.4563578147
 30
0.0
 11
0.0
 21
0.5
 31
0.0
 40
0.0087268678
 41
-3.1357748894
 42
-2.5695679617
  0
ELLIPSE
  5
7C2
100
AcDbEntity
  8
ASSI
100
AcDbEllipse
 62
7
  6
CONTINUOUS
 10
3.5567246406
 20
23.4563578147
 30
0.0
 11
0.0
 21
0.5
 31
0.0
 40
0.0087268678
 41
-0.5720246919
 42
-0.0058177642
  0
ELLIPSE
  5
7C3
100
AcDbEntity
  8
ASSI
100
AcDbEllipse
 62
7
  6
CONTINUOUS
 10
-3.5567246406
 20
23.4563578147
 30
0.0
 11
0.0
 21
0.5
 31
0.0
 40
0.0087268678
 41
0.0058177642
 42
0.5720246919
  0
ELLIPSE
  5
7C4
100
AcDbEntity
  8
ASSI
100
AcDbEllipse
 62
7
  6
CONTINUOUS
 10
7.5666456542
 20
-20.9916321118
 30
0.0
 11
0.5
 21
-0.0
 31
0.0
 40
0.0087268678
 41
-1.5707963268
 42
-0.0174532925
  0
ELLIPSE
  5
7C5
100
AcDbEntity
  8
ASSI
100
AcDbEllipse
 62
7
  6
CONTINUOUS
 10
-7.5666456542
 20
-20.9916321118
 30
0.0
 11
0.5
 21
0.0
 31
0.0
 40
0.0087268678
 41
-3.1241393611
 42
-1.5707963268
  0
ELLIPSE
  5
7C6
100
AcDbEntity
  8
ASSI
100
AcDbEllipse
 62
7
  6
CONTINUOUS
 10
-7.5666456542
 20
20.9916321118
 30
0.0
 11
0.5
 21
-0.0
 31
0.0
 40
0.0087268678
 41
1.5707963268
 42
3.1241393611
  0
ELLIPSE
  5
7C7
100
AcDbEntity
  8
ASSI
100
AcDbEllipse
 62
7
  6
CONTINUOUS
 10
7.5666456542
 20
20.9916321118
 30
0.0
 11
0.5
 21
-0.0
 31
0.0
 40
0.0087268678
 41
0.0174532925
 42
1.5707963268
  0
ELLIPSE
  5
7C8
100
AcDbEntity
  8
ASSI
100
AcDbEllipse
 62
7
  6
CONTINUOUS
 10
-1.2087344835
 20
23.7941787855
 30
0.0
 11
-0.1664199338
 21
-0.1109450578
 31
0.0
 40
0.9999450019
 41
2.5536219432
 42
4.1243675013
  0
ELLIPSE
  5
7C9
100
AcDbEntity
  8
ASSI
100
AcDbEllipse
 62
7
  6
CONTINUOUS
 10
1.2087344835
 20
23.7941787855
 30
0.0
 11
-0.1664199338
 21
0.1109450578
 31
0.0
 40
0.9999450019
 41
-0.9827748477
 42
0.5879707104
  0
ELLIPSE
  5
7CA
100
AcDbEntity
  8
ASSI
100
AcDbEllipse
 62
7
  6
CONTINUOUS
 10
1.2087344835
 20
-23.7941787855
 30
0.0
 11
0.1664199338
 21
0.1109450578
 31
0.0
 40
0.9999450019
 41
2.5536219432
 42
4.1243675013
  0
ELLIPSE
  5
7CB
100
AcDbEntity
  8
ASSI
100
AcDbEllipse
 62
7
  6
CONTINUOUS
 10
-1.2087344835
 20
-23.7941787855
 30
0.0
 11
0.1664199338
 21
-0.1109450578
 31
0.0
 40
0.9999450019
 41
-0.9827748477
 42
0.5879707104
  0
ELLIPSE
  5
7CC
100
AcDbEntity
  8
RACCORDO
100
AcDbEllipse
 62
7
  6
CONTINUOUS
 10
-8.999923836
 20
-16.0000190392
 30
0.0
 11
0.4473055582
 21
-0.2236357461
 31
0.0
 40
0.9998096356
 41
-3.1312871673
 42
-2.6780516535
  0
ELLIPSE
  5
7CD
100
AcDbEntity
  8
RACCORDO
100
AcDbEllipse
 62
7
  6
CONTINUOUS
 10
8.999923836
 20
-16.0000190392
 30
0.0
 11
0.4473055582
 21
0.2236357461
 31
0.0
 40
0.9998096356
 41
0.9392249175
 42
1.1071030277
  0
ELLIPSE
  5
7CE
100
AcDbEntity
  8
RACCORDO
100
AcDbEllipse
 62
7
  6
CONTINUOUS
 10
8.999923836
 20
-16.0000190392
 30
0.0
 11
0.4473055582
 21
0.2236357461
 31
0.0
 40
0.9998096356
 41
-0.4635410001
 42
-0.0103054863
  0
ELLIPSE
  5
7CF
100
AcDbEntity
  8
RACCORDO
100
AcDbEllipse
 62
7
  6
CONTINUOUS
 10
-7.0499966153
 20
22.6002744692
 30
0.0
 11
0.0220972656
 21
0.1990550872
 31
0.0
 40
0.9986126811
 41
-4.601678501
 42
-3.0311866536
  0
ELLIPSE
  5
7D0
100
AcDbEntity
  8
RACCORDO
100
AcDbEllipse
 62
7
  6
CONTINUOUS
 10
-10.3500033847
 20
22.6002744692
 30
0.0
 11
-0.0220972656
 21
0.1990550872
 31
0.0
 40
0.9986126811
 41
-3.2519986536
 42
-1.6815068062
  0
ELLIPSE
  5
7D1
100
AcDbEntity
  8
RACCORDO
100
AcDbEllipse
 62
7
  6
CONTINUOUS
 10
10.3500033847
 20
22.6002744692
 30
0.0
 11
0.0220972656
 21
0.1990550872
 31
0.0
 40
0.9986126811
 41
-4.601678501
 42
-3.0311866536
  0
ELLIPSE
  5
7D2
100
AcDbEntity
  8
RACCORDO
100
AcDbEllipse
 62
7
  6
CONTINUOUS
 10
7.0499966153
 20
22.6002744692
 30
0.0
 11
-0.0220972656
 21
0.1990550872
 31
0.0
 40
0.9986126811
 41
-3.2519986536
 42
-1.6815068062
  0
ELLIPSE
  5
7D3
100
AcDbEntity
  8
RACCORDO
100
AcDbEllipse
 62
7
  6
CONTINUOUS
 10
-10.3500033847
 20
-22.6002744692
 30
0.0
 11
0.0220972656
 21
0.1990550872
 31
0.0
 40
0.9986126811
 41
-1.4600858474
 42
0.110406
  0
ELLIPSE
  5
7D4
100
AcDbEntity
  8
RACCORDO
100
AcDbEllipse
 62
7
  6
CONTINUOUS
 10
-7.0499966153
 20
-22.6002744692
 30
0.0
 11
-0.0220972656
 21
0.1990550872
 31
0.0
 40
0.9986126811
 41
-0.110406
 42
1.4600858474
  0
ELLIPSE
  5
7D5
100
AcDbEntity
  8
RACCORDO
100
AcDbEllipse
 62
7
  6
CONTINUOUS
 10
7.0499966153
 20
-22.6002744692
 30
0.0
 11
0.0220972656
 21
0.1990550872
 31
0.0
 40
0.9986126811
 41
-1.4600858474
 42
0.110406
  0
ELLIPSE
  5
7D6
100
AcDbEntity
  8
RACCORDO
100
AcDbEllipse
 62
7
  6
CONTINUOUS
 10
10.3500033847
 20
-22.6002744692
 30
0.0
 11
-0.0220972656
 21
0.1990550872
 31
0.0
 40
0.9986126811
 41
-0.110406
 42
1.4600858474
  0
ELLIPSE
  5
7D7
100
AcDbEntity
  8
RACCORDO
100
AcDbEllipse
 62
7
  6
CONTINUOUS
 10
-4.263273149
 20
-17.536726851
 30
0.0
 11
-0.1197781703
 21
0.2754963673
 31
0.0
 40
0.998430313
 41
-0.4095445076
 42
1.1611756667
  0
ELLIPSE
  5
7D8
100
AcDbEntity
  8
RACCORDO
100
AcDbEllipse
 62
7
  6
CONTINUOUS
 10
-4.2026066368
 20
-20.0296713505
 30
0.0
 11
0.3
 21
-0.0
 31
0.0
 40
0.0087268678
 41
-3.1328660073
 42
-1.5707963268
  0
ELLIPSE
  5
7D9
100
AcDbEntity
  8
RACCORDO
100
AcDbEllipse
 62
7
  6
CONTINUOUS
 10
4.263273149
 20
-17.536726851
 30
0.0
 11
0.1197781703
 21
0.2754963673
 31
0.0
 40
0.998430313
 41
-1.1611756667
 42
0.4095445076
  0
ELLIPSE
  5
7DA
100
AcDbEntity
  8
RACCORDO
100
AcDbEllipse
 62
7
  6
CONTINUOUS
 10
4.2026066368
 20
-20.0296713505
 30
0.0
 11
0.3
 21
0.0
 31
0.0
 40
0.0087268678
 41
-1.5707963268
 42
-0.0087266463
  0
ELLIPSE
  5
7DB
100
AcDbEntity
  8
RACCORDO
100
AcDbEllipse
 62
7
  6
CONTINUOUS
 10
9.5397199442
 20
19.6676556748
 30
0.0
 11
0.0
 21
0.9
 31
0.0
 40
0.0174550649
 41
1.3990627793
 42
1.4349437612
  0
ELLIPSE
  5
7DC
100
AcDbEntity
  8
RACCORDO
100
AcDbEllipse
 62
7
  6
CONTINUOUS
 10
-9.5397199442
 20
19.6676556748
 30
0.0
 11
0.0
 21
0.9
 31
0.0
 40
0.0174550649
 41
-1.4349437612
 42
-1.3990627793
  0
ELLIPSE
  5
7DD
100
AcDbEntity
  8
RACCORDO
100
AcDbEllipse
 62
7
  6
CONTINUOUS
 10
6.4441609351
 20
19.0624530869
 30
0.0
 11
0.0
 21
0.9
 31
0.0
 40
0.0087268678
 41
0.0087266463
 42
1.4419055065
  0
ELLIPSE
  5
7DE
100
AcDbEntity
  8
RACCORDO
100
AcDbEllipse
 62
7
  6
CONTINUOUS
 10
7.3551358285
 20
19.6676556748
 30
0.0
 11
-0.0
 21
0.9
 31
0.0
 40
0.0087268678
 41
-1.4349437612
 42
-0.0523598776
  0
ELLIPSE
  5
7DF
100
AcDbEntity
  8
RACCORDO
100
AcDbEllipse
 62
7
  6
CONTINUOUS
 10
-7.3551358285
 20
19.6676556748
 30
0.0
 11
0.0
 21
0.9
 31
0.0
 40
0.0087268678
 41
0.0523598776
 42
1.4349437612
  0
ELLIPSE
  5
7E0
100
AcDbEntity
  8
RACCORDO
100
AcDbEllipse
 62
7
  6
CONTINUOUS
 10
-6.4441609351
 20
19.0624530869
 30
0.0
 11
0.0
 21
0.9
 31
0.0
 40
0.0087268678
 41
-1.4419055065
 42
-0.0087266463
  0
ELLIPSE
  5
7E1
100
AcDbEntity
  8
RACCORDO
100
AcDbEllipse
 62
7
  6
CONTINUOUS
 10
-9.7397507018
 20
19.6676556748
 30
0.0
 11
0.9005489241
 21
0.8994510755
 31
0.0
 40
0.0348994837
 41
-1.3641349085
 42
-0.0174320068
  0
ELLIPSE
  5
7E2
100
AcDbEntity
  8
RACCORDO
100
AcDbEllipse
 62
7
  6
CONTINUOUS
 10
9.7397507018
 20
19.6676556748
 30
0.0
 11
0.9005489241
 21
-0.8994510755
 31
0.0
 40
0.0348994837
 41
-3.1241606468
 42
-1.7774577451
  0
ELLIPSE
  5
7E3
100
AcDbEntity
  8
RACCORDO
100
AcDbEllipse
 62
7
  6
CONTINUOUS
 10
-9.6098533507
 20
-19.7897929133
 30
0.0
 11
-0.0
 21
0.2
 31
0.0
 40
0.0174550649
 41
0.0523598776
 42
1.5707963268
  0
ELLIPSE
  5
7E4
100
AcDbEntity
  8
RACCORDO
100
AcDbEllipse
 62
7
  6
CONTINUOUS
 10
-7.3200717959
 20
-19.7897929133
 30
0.0
 11
-0.0
 21
0.2
 31
0.0
 40
0.0087268678
 41
-1.5707963268
 42
-0.0523598776
  0
ELLIPSE
  5
7E5
100
AcDbEntity
  8
RACCORDO
100
AcDbEllipse
 62
7
  6
CONTINUOUS
 10
-6.4799282041
 20
-19.7897929133
 30
0.0
 11
0.0
 21
0.2
 31
0.0
 40
0.0087268678
 41
0.0523598776
 42
1.5707963268
  0
ELLIPSE
  5
7E6
100
AcDbEntity
  8
RACCORDO
100
AcDbEllipse
 62
7
  6
CONTINUOUS
 10
-4.5340347844
 20
-19.7897929133
 30
0.0
 11
-0.0
 21
0.2
 31
0.0
 40
0.0087268678
 41
-1.5707963268
 42
-0.0523598776
  0
ELLIPSE
  5
7E7
100
AcDbEntity
  8
RACCORDO
100
AcDbEllipse
 62
7
  6
CONTINUOUS
 10
4.5340347844
 20
-19.7897929133
 30
0.0
 11
0.0
 21
0.2
 31
0.0
 40
0.0087268678
 41
0.0523598776
 42
1.5707963268
  0
ELLIPSE
  5
7E8
100
AcDbEntity
  8
RACCORDO
100
AcDbEllipse
 62
7
  6
CONTINUOUS
 10
6.4799282041
 20
-19.7897929133
 30
0.0
 11
-0.0
 21
0.2
 31
0.0
 40
0.0087268678
 41
-1.5707963268
 42
-0.0523598776
  0
ELLIPSE
  5
7E9
100
AcDbEntity
  8
RACCORDO
100
AcDbEllipse
 62
7
  6
CONTINUOUS
 10
7.3200717959
 20
-19.7897929133
 30
0.0
 11
-0.0
 21
0.2
 31
0.0
 40
0.0087268678
 41
0.0523598776
 42
1.5707963268
  0
ELLIPSE
  5
7EA
100
AcDbEntity
  8
RACCORDO
100
AcDbEllipse
 62
7
  6
CONTINUOUS
 10
9.6098533507
 20
-19.7897929133
 30
0.0
 11
-0.0
 21
0.2
 31
0.0
 40
0.0174550649
 41
-1.5707963268
 42
-0.0523598776
  0
ELLIPSE
  5
7EB
100
AcDbEntity
  8
0
100
AcDbEllipse
 62
7
  6
CONTINUOUS
 10
3.9530427099
 20
-22.3560930869
 30
0.0
 11
0.4530427099
 21
0.0
 31
0.0
 40
0.0058178298
 41
0.0058177642
 42
2.6251434606
  0
ELLIPSE
  5
7EC
100
AcDbEntity
  8
0
100
AcDbEllipse
 62
7
  6
CONTINUOUS
 10
-3.9530427099
 20
-22.3560930869
 30
0.0
 11
0.4530427099
 21
-0.0
 31
0.0
 40
0.0058178298
 41
0.516449193
 42
3.1357748894
  0
ELLIPSE
  5
7ED
100
AcDbEntity
  8
0
100
AcDbEllipse
 62
7
  6
CONTINUOUS
 10
3.9530427099
 20
22.3560930869
 30
0.0
 11
0.4530427099
 21
0.0
 31
0.0
 40
0.0058178298
 41
-2.6251434606
 42
-0.0058177642
  0
ELLIPSE
  5
7EE
100
AcDbEntity
  8
0
100
AcDbEllipse
 62
7
  6
CONTINUOUS
 10
-3.9530427099
 20
22.3560930869
 30
0.0
 11
0.4530427099
 21
0.0
 31
0.0
 40
0.0058178298
 41
-3.1357748894
 42
-0.516449193
  0
ELLIPSE
  5
7EF
100
AcDbEntity
  8
0
100
AcDbEllipse
 62
7
  6
CONTINUOUS
 10
-8.1905965035
 20
21.3359869487
 30
0.0
 11
1.0000571192
 21
0.9999809595
 31
0.0
 40
0.0061705924
 41
-1.1948539202
 42
0.0003532199
  0
ELLIPSE
  5
7F0
100
AcDbEntity
  8
0
100
AcDbEllipse
 62
7
  6
CONTINUOUS
 10
-3.0872686779
 20
21.3359869487
 30
0.0
 11
-0.0
 21
1.0
 31
0.0
 40
0.0087268678
 41
0.0058177642
 42
1.5707963268
  0
ELLIPSE
  5
7F1
100
AcDbEntity
  8
0
100
AcDbEllipse
 62
7
  6
CONTINUOUS
 10
3.0872686779
 20
21.3359869487
 30
0.0
 11
-0.0
 21
1.0
 31
0.0
 40
0.0087268678
 41
-1.5707963268
 42
-0.0058177642
  0
ELLIPSE
  5
7F2
100
AcDbEntity
  8
0
100
AcDbEllipse
 62
7
  6
CONTINUOUS
 10
8.1905965035
 20
21.3359869487
 30
0.0
 11
1.0000571192
 21
-0.9999809595
 31
0.0
 40
0.0061705924
 41
3.1412394337
 42
4.3364465738
  0
ELLIPSE
  5
7F3
100
AcDbEntity
  8
0
100
AcDbEllipse
 62
7
  6
CONTINUOUS
 10
8.1905965035
 20
-21.3359869487
 30
0.0
 11
1.0000571192
 21
0.9999809595
 31
0.0
 40
0.0061705924
 41
1.9467387334
 42
3.1419458735
  0
ELLIPSE
  5
7F4
100
AcDbEntity
  8
0
100
AcDbEllipse
 62
7
  6
CONTINUOUS
 10
3.0872686779
 20
-21.3359869487
 30
0.0
 11
-0.0
 21
1.0
 31
0.0
 40
0.0087268678
 41
-3.1357748894
 42
-1.5707963268
  0
ELLIPSE
  5
7F5
100
AcDbEntity
  8
0
100
AcDbEllipse
 62
7
  6
CONTINUOUS
 10
-3.0872686779
 20
-21.3359869487
 30
0.0
 11
-0.0
 21
1.0
 31
0.0
 40
0.0087268678
 41
-4.7123889804
 42
-3.1474104178
  0
ELLIPSE
  5
7F6
100
AcDbEntity
  8
0
100
AcDbEllipse
 62
7
  6
CONTINUOUS
 10
-8.1905965035
 20
-21.3359869487
 30
0.0
 11
1.0000571192
 21
-0.9999809595
 31
0.0
 40
0.0061705924
 41
-0.0003532199
 42
1.1948539202
  0
ELLIPSE
  5
7F7
100
AcDbEntity
  8
0
100
AcDbEllipse
 62
7
  6
CONTINUOUS
 10
9.8999957691
 20
23.4113248654
 30
0.0
 11
-0.0029088041
 21
0.2886641433
 31
0.0
 40
0.8660144118
 41
-3.150319066
 42
-1.582431609
  0
ELLIPSE
  5
7F8
100
AcDbEntity
  8
0
100
AcDbEllipse
 62
7
  6
CONTINUOUS
 10
7.5000042309
 20
23.4113248654
 30
0.0
 11
0.0029088041
 21
0.2886641433
 31
0.0
 40
0.8660144118
 41
-4.7007536982
 42
-3.1328662411
  0
ELLIPSE
  5
7F9
100
AcDbEntity
  8
0
100
AcDbEllipse
 62
7
  6
CONTINUOUS
 10
-7.5000042309
 20
23.4113248654
 30
0.0
 11
-0.0029088041
 21
0.2886641433
 31
0.0
 40
0.8660144118
 41
-3.150319066
 42
-1.582431609
  0
ELLIPSE
  5
7FA
100
AcDbEntity
  8
0
100
AcDbEllipse
 62
7
  6
CONTINUOUS
 10
-9.8999957691
 20
23.4113248654
 30
0.0
 11
0.0029088041
 21
0.2886641433
 31
0.0
 40
0.8660144118
 41
-4.7007536982
 42
-3.1328662412
  0
ELLIPSE
  5
7FB
100
AcDbEntity
  8
0
100
AcDbEllipse
 62
7
  6
CONTINUOUS
 10
9.8999957691
 20
-23.4113248654
 30
0.0
 11
0.0029088041
 21
0.2886641433
 31
0.0
 40
0.8660144118
 41
-1.5591610446
 42
0.0087264124
  0
ELLIPSE
  5
7FC
100
AcDbEntity
  8
0
100
AcDbEllipse
 62
7
  6
CONTINUOUS
 10
7.5000042309
 20
-23.4113248654
 30
0.0
 11
-0.0029088041
 21
0.2886641433
 31
0.0
 40
0.8660144118
 41
-0.0087264124
 42
1.5591610446
  0
ELLIPSE
  5
7FD
100
AcDbEntity
  8
0
100
AcDbEllipse
 62
7
  6
CONTINUOUS
 10
-9.8999957691
 20
-23.4113248654
 30
0.0
 11
-0.0029088041
 21
0.2886641433
 31
0.0
 40
0.8660144118
 41
-0.0087264124
 42
1.5591610446
  0
ELLIPSE
  5
7FE
100
AcDbEntity
  8
0
100
AcDbEllipse
 62
7
  6
CONTINUOUS
 10
-7.5000042309
 20
-23.4113248654
 30
0.0
 11
0.0029088041
 21
0.2886641433
 31
0.0
 40
0.8660144118
 41
-1.5591610446
 42
0.0087264124
  0
ELLIPSE
  5
7FF
100
AcDbEntity
  8
0
100
AcDbEllipse
 62
7
  6
CONTINUOUS
 10
-1.2087344835
 20
-23.7941787855
 30
0.0
 11
0.1664199338
 21
-0.1109450578
 31
0.0
 40
0.9999450019
 41
-0.9827748477
 42
0.5879707104
  0
ELLIPSE
  5
800
100
AcDbEntity
  8
0
100
AcDbEllipse
 62
7
  6
CONTINUOUS
 10
1.2087344835
 20
-23.7941787855
 30
0.0
 11
0.1664199338
 21
0.1109450578
 31
0.0
 40
0.9999450019
 41
2.5536219432
 42
4.1243675013
  0
ELLIPSE
  5
801
100
AcDbEntity
  8
0
100
AcDbEllipse
 62
7
  6
CONTINUOUS
 10
1.2087344835
 20
23.7941787855
 30
0.0
 11
-0.1664199338
 21
0.1109450578
 31
0.0
 40
0.9999450019
 41
-0.9827748477
 42
0.5879707104
  0
ELLIPSE
  5
802
100
AcDbEntity
  8
0
100
AcDbEllipse
 62
7
  6
CONTINUOUS
 10
-1.2087344835
 20
23.7941787855
 30
0.0
 11
-0.1664199338
 21
-0.1109450578
 31
0.0
 40
0.9999450019
 41
2.5536219432
 42
4.1243675013
  0
ELLIPSE
  5
803
100
AcDbEntity
  8
0
100
AcDbEllipse
 62
7
  6
CONTINUOUS
 10
7.5666456542
 20
20.9916321118
 30
0.0
 11
0.5
 21
-0.0
 31
0.0
 40
0.0087268678
 41
0.0174532925
 42
1.5707963268
  0
ELLIPSE
  5
804
100
AcDbEntity
  8
RACCORDO
100
AcDbEllipse
 62
7
  6
CONTINUOUS
 10
-6.5968412527
 20
7.79
 30
0.0
 11
-0.0
 21
88.6
 31
0.0
 40
0.0087268678
 41
1.4349437612
 42
1.4489526822
  0
ELLIPSE
  5
805
100
AcDbEntity
  8
RACCORDO
100
AcDbEllipse
 62
7
  6
CONTINUOUS
 10
-7.2031587473
 20
7.79
 30
0.0
 11
-0.0
 21
88.6
 31
0.0
 40
0.0087268678
 41
-1.4489526822
 42
-1.4419055065
  0
ELLIPSE
  5
806
100
AcDbEntity
  8
RACCORDO
100
AcDbEllipse
 62
7
  6
CONTINUOUS
 10
7.2031587473
 20
7.79
 30
0.0
 11
-0.0
 21
88.6
 31
0.0
 40
0.0087268678
 41
1.4419055065
 42
1.4489526822
  0
ELLIPSE
  5
807
100
AcDbEntity
  8
RACCORDO
100
AcDbEllipse
 62
7
  6
CONTINUOUS
 10
6.5968412527
 20
7.79
 30
0.0
 11
-0.0
 21
88.6
 31
0.0
 40
0.0087268678
 41
-1.4489526822
 42
-1.4349437612
  0
ELLIPSE
  5
808
100
AcDbEntity
  8
0
100
AcDbEllipse
 62
7
  6
CONTINUOUS
 10
-7.5666456542
 20
20.9916321118
 30
0.0
 11
0.5
 21
-0.0
 31
0.0
 40
0.0087268678
 41
1.5707963268
 42
3.1241393611
  0
ELLIPSE
  5
809
100
AcDbEntity
  8
0
100
AcDbEllipse
 62
7
  6
CONTINUOUS
 10
-7.5666456542
 20
-20.9916321118
 30
0.0
 11
0.5
 21
0.0
 31
0.0
 40
0.0087268678
 41
-3.1241393611
 42
-1.5707963268
  0
ELLIPSE
  5
80A
100
AcDbEntity
  8
0
100
AcDbEllipse
 62
7
  6
CONTINUOUS
 10
4.4063662764
 20
-23.4563578147
 30
0.0
 11
-0.0
 21
0.5
 31
0.0
 40
0.0058178298
 41
-3.2409419489
 42
-3.1474104178
  0
ELLIPSE
  5
80B
100
AcDbEntity
  8
0
100
AcDbEllipse
 62
7
  6
CONTINUOUS
 10
7.5666456542
 20
-20.9916321118
 30
0.0
 11
0.5
 21
-0.0
 31
0.0
 40
0.0087268678
 41
-1.5707963268
 42
-0.0174532925
  0
ELLIPSE
  5
80C
100
AcDbEntity
  8
0
100
AcDbEllipse
 62
7
  6
CONTINUOUS
 10
-3.5567246406
 20
23.4563578147
 30
0.0
 11
0.0
 21
0.5
 31
0.0
 40
0.0087268678
 41
0.0058177642
 42
0.5720246919
  0
ELLIPSE
  5
80D
100
AcDbEntity
  8
0
100
AcDbEllipse
 62
7
  6
CONTINUOUS
 10
3.5567246406
 20
23.4563578147
 30
0.0
 11
0.0
 21
0.5
 31
0.0
 40
0.0087268678
 41
-0.5720246919
 42
-0.0058177642
  0
ELLIPSE
  5
80E
100
AcDbEntity
  8
0
100
AcDbEllipse
 62
7
  6
CONTINUOUS
 10
3.5567246406
 20
-23.4563578147
 30
0.0
 11
0.0
 21
0.5
 31
0.0
 40
0.0087268678
 41
-3.1357748894
 42
-2.5695679617
  0
ELLIPSE
  5
80F
100
AcDbEntity
  8
0
100
AcDbEllipse
 62
7
  6
CONTINUOUS
 10
-3.5567246406
 20
-23.4563578147
 30
0.0
 11
-0.0
 21
0.5
 31
0.0
 40
0.0087268678
 41
-3.7136173455
 42
-3.1474104178
  0
ELLIPSE
  5
810
100
AcDbEntity
  8
0
100
AcDbEllipse
 62
7
  6
CONTINUOUS
 10
7.5666456542
 20
21.9537669705
 30
0.0
 11
-0.4999904798
 21
0.5000285596
 31
0.0
 40
0.0061705924
 41
-4.1802133371
 42
-3.1528749621
  0
ELLIPSE
  5
811
100
AcDbEntity
  8
0
100
AcDbEllipse
 62
7
  6
CONTINUOUS
 10
-4.4063662764
 20
-23.4563578147
 30
0.0
 11
-0.0
 21
0.5
 31
0.0
 40
0.0058178298
 41
-3.1357748894
 42
-3.0422433583
  0
ELLIPSE
  5
812
100
AcDbEntity
  8
0
100
AcDbEllipse
 62
7
  6
CONTINUOUS
 10
-7.5666456542
 20
21.9537669705
 30
0.0
 11
0.4999904798
 21
0.5000285596
 31
0.0
 40
0.0061705924
 41
-3.1303103451
 42
-2.1029719701
  0
ELLIPSE
  5
813
100
AcDbEntity
  8
0
100
AcDbEllipse
 62
7
  6
CONTINUOUS
 10
-7.5666456542
 20
-21.9537669705
 30
0.0
 11
-0.4999904798
 21
0.5000285596
 31
0.0
 40
0.0061705924
 41
-1.0386206835
 42
-0.0112823085
  0
ELLIPSE
  5
814
100
AcDbEntity
  8
0
100
AcDbEllipse
 62
7
  6
CONTINUOUS
 10
7.5666456542
 20
-21.9537669705
 30
0.0
 11
0.4999904798
 21
0.5000285596
 31
0.0
 40
0.0061705924
 41
0.0112823085
 42
1.0386206835
  0
ELLIPSE
  5
815
100
AcDbEntity
  8
0
100
AcDbEllipse
 62
7
  6
CONTINUOUS
 10
-10.641254093
 20
21.8941737085
 30
0.0
 11
-0.4160498344
 21
0.2773626446
 31
0.0
 40
0.9999450019
 41
-0.9827748477
 42
0.5879707104
  0
ELLIPSE
  5
816
100
AcDbEntity
  8
0
100
AcDbEllipse
 62
7
  6
CONTINUOUS
 10
-10.641254093
 20
-21.8941737085
 30
0.0
 11
0.4160498344
 21
0.2773626446
 31
0.0
 40
0.9999450019
 41
2.5536219432
 42
4.1243675013
  0
ELLIPSE
  5
817
100
AcDbEntity
  8
0
100
AcDbEllipse
 62
7
  6
CONTINUOUS
 10
10.641254093
 20
-21.8941737085
 30
0.0
 11
0.4160498344
 21
-0.2773626446
 31
0.0
 40
0.9999450019
 41
-0.9827748477
 42
0.5879707104
  0
ELLIPSE
  5
818
100
AcDbEntity
  8
0
100
AcDbEllipse
 62
7
  6
CONTINUOUS
 10
10.641254093
 20
21.8941737085
 30
0.0
 11
-0.4160498344
 21
-0.2773626446
 31
0.0
 40
0.9999450019
 41
2.5536219432
 42
4.1243675013
  0
ENDSEC
  0
SECTION
  2
OBJECTS
  0
DICTIONARY
  5
C
100
AcDbDictionary
280
0
281
1
  3
ACAD_GROUP
350
D
  3
ACAD_MLINESTYLE
350
17
  3
ACAD_LAYOUT
350
1A
  3
ACAD_PLOTSETTINGS
350
19
  3
ACAD_PLOTSTYLENAME
350
E
  0
DICTIONARY
  5
D
102
{ACAD_REACTORS
330
C
102
}
100
AcDbDictionary
280
0
281
1
  0
ACDBDICTIONARYWDFLT
  5
E
102
{ACAD_REACTORS
330
C
102
}
100
AcDbDictionary
281
1
  3
Normal
350
F
100
AcDbDictionaryWithDefault
340
F
  0
DICTIONARY
  5
17
102
{ACAD_REACTORS
330
C
102
}
100
AcDbDictionary
280
0
281
1
  3
Standard
350
18
  0
DICTIONARY
  5
19
102
{ACAD_REACTORS
330
C
102
}
100
AcDbDictionary
281
1
  0
DICTIONARY
  5
1A
102
{ACAD_REACTORS
330
C
102
}
100
AcDbDictionary
281
1
  3
Model
350
819
  3
Layout1
350
81A
  0
ACDBPLACEHOLDER
  5
F
102
{ACAD_REACTORS
330
E
102
}
  0
MLINESTYLE
  5
18
102
{ACAD_REACTORS
330
17
102
}
100
AcDbMlineStyle
  2
STANDARD
 70
0
  3

 62
256
 51
90.0
 52
90.0
 71
2
 49
0.5
 62
256
  6
BYLAYER
 49
-0.5
 62
256
  6
BYLAYER
  0
LAYOUT
  5
819
102
{ACAD_REACTORS
330
1A
102
}
100
AcDbPlotSettings
  1

  2
none_device
  4
ISO_A4_(297.00_x_210.00_MM)
  6

 40
0.0
 41
0.0
 42
0.0
 43
0.0
 44
297.0
 45
210.0
 46
0.0
 47
0.0
 48
0.0
 49
0.0
140
0.0
141
0.0
142
1.0
143
1.0
 70
1024
 72
1
 73
0
 74
0
  7

 75
0
147
1.0
148
0.0
149
0.0
100
AcDbLayout
  1
Model
 70
0
 71
0
 10
0.0
 20
0.0
 11
297.0
 21
210.0
 12
0.0
 22
0.0
 32
0.0
 14
0.0
 24
0.0
 34
0.0
 15
0.0
 25
0.0
 35
0.0
146
0.0
 13
0.0
 23
0.0
 33
0.0
 16
1.0
 26
0.0
 36
0.0
 17
0.0
 27
1.0
 37
0.0
 76
0
330
214
345
0
346
0
  0
LAYOUT
  5
81A
102
{ACAD_REACTORS
330
1A
102
}
100
AcDbPlotSettings
  1

  2
none_device
  4
ISO_A4_(297.00_x_210.00_MM)
  6

 40
0.0
 41
0.0
 42
0.0
 43
0.0
 44
297.0
 45
210.0
 46
0.0
 47
0.0
 48
0.0
 49
0.0
140
0.0
141
0.0
142
1.0
143
1.0
 70
0
 72
1
 73
0
 74
0
  7

 75
0
147
1.0
148
0.0
149
0.0
100
AcDbLayout
  1
Layout1
 70
0
 71
1
 10
0.0
 20
0.0
 11
297.0
 21
210.0
 12
0.0
 22
0.0
 32
0.0
 14
0.0
 24
0.0
 34
0.0
 15
0.0
 25
0.0
 35
0.0
146
0.0
 13
0.0
 23
0.0
 33
0.0
 16
1.0
 26
0.0
 36
0.0
 17
0.0
 27
1.0
 37
0.0
 76
0
330
215
345
0
346
0
  0
ENDSEC
  0
EOF
