0
SECTION
2
HEADER
9
$ACADVER
1
AC1015
9
$DWGCODEPAGE
3
ANSI_1252
9
$EXTMAX
10
297.0000000000
20
210.0000000000
30
0.0000000000
9
$EXTMIN
10
0.0000000000
20
0.0000000000
30
0.0000000000
9
$LIMMIN
10
0.0000000000
20
0.0000000000
9
$LIMMAX
10
297.0000000000
20
210.0000000000
9
$VIEWCTR
10
148.5000000000
20
105.0000000000
9
$VIEWSIZE
40
210.0000000000
9
$CLAYER
8
0
9
$LTSCALE
40
16.3350000000
9
$CELTYPE
6
BYLAYER
9
$DIMSCALE
40
1
9
$DIMASZ
40
3.0000000000
9
$DIMEXO
40
1.8562500000
9
$DIMDLI
40
11.2860000000
9
$DIMEXE
40
5.3460000000
9
$DIMCEN
40
2.6730000000
9
$DIMLFAC
40
1.0000000000
9
$DIMBLK
1
_FILLED
9
$DIMTXT
40
3.0000000000
9
$DIMTOL
70
1
9
$DIMLIM
70
0
9
$DIMTFAC
40
1.0000000000
9
$DIMTP
40
0.0100000000
9
$DIMTM
40
0.0100000000
9
$PDMODE
70
3
9
$PDSIZE
40
3.0000000000
9
$HANDSEED
5
4FE
9
$MEASUREMENT
70
1
9
$INSUNITS
70
4
0
ENDSEC
0
SECTION
2
CLASSES
0
CLASS
1
ACDBDICTIONARYWDFLT
2
AcDbDictionaryWithDefault
3
AutoCAD 2000
90
0
280
0
281
0
0
CLASS
1
ACDBPLACEHOLDER
2
AcDbPlaceHolder
3
AutoCAD 2000
90
0
280
0
281
0
0
CLASS
1
LAYOUT
2
AcDbLayout
3
AutoCAD 2000
90
0
280
0
281
0
0
ENDSEC
0
SECTION
2
TABLES
0
TABLE
2
VPORT
5
8
100
AcDbSymbolTable
70
2
0
VPORT
5
1F4
100
AcDbSymbolTableRecord
100
AcDbViewportTableRecord
2
*ACTIVE
70
0
10
0.0
20
0.0
11
1.0
21
1.0
12
148.5000000000
22
105.0000000000
13
0.0
23
0.0
14
1.0
24
1.0
15
0.0
25
0.0
16
0.0
26
0.0
36
1.0
17
0.0
27
0.0
37
0.0
40
210.0000000000
41
1.4142857143
42
50.0
43
0.0
44
0.0
50
0.0
51
0.0
71
0
72
100
73
1
74
1
75
0
76
0
77
0
78
0
0
ENDTAB
0
TABLE
2
LTYPE
5
5
100
AcDbSymbolTable
70
6
0
LTYPE
5
14
100
AcDbSymbolTableRecord
100
AcDbLinetypeTableRecord
2
BYBLOCK
70
0
3

72
65
73
0
40
0.0
0
LTYPE
5
15
100
AcDbSymbolTableRecord
100
AcDbLinetypeTableRecord
2
BYLAYER
70
0
3

72
65
73
0
40
0.0
0
LTYPE
5
16
100
AcDbSymbolTableRecord
100
AcDbLinetypeTableRecord
2
CONTINUOUS
70
64
3
Solid line
72
65
73
0
40
0
0
LTYPE
5
1F5
100
AcDbSymbolTableRecord
100
AcDbLinetypeTableRecord
2
CENTER
70
64
3
____ _ ____ _ ____ _ ____ _ ____ _ ____ _ ____
72
65
73
4
40
0.6
49
0.375
74
0
49
-0.075
74
0
49
0.075
74
0
49
-0.075
74
0
0
LTYPE
5
1F6
100
AcDbSymbolTableRecord
100
AcDbLinetypeTableRecord
2
HIDDEN
70
64
3
- - - - - - - - - - - - - - - - - - - -
72
65
73
2
40
0.2
49
0.1
74
0
49
-0.1
74
0
0
LTYPE
5
1F7
100
AcDbSymbolTableRecord
100
AcDbLinetypeTableRecord
2
PHANTOM
70
64
3
_____ _ _ _____ _ _ _____ _ _ _____
72
65
73
6
40
0.8
49
0.45
74
0
49
-0.05
74
0
49
0.1
74
0
49
-0.05
74
0
49
0.1
74
0
49
-0.05
74
0
0
LTYPE
5
1F8
100
AcDbSymbolTableRecord
100
AcDbLinetypeTableRecord
2
DOT
70
64
3
. . . . . . . . . . . . . . . . . . . .
72
65
73
2
40
0.2
49
0.1
74
0
49
-0.1
74
0
0
LTYPE
5
1F9
100
AcDbSymbolTableRecord
100
AcDbLinetypeTableRecord
2
DASHED
70
64
3
- - - - - - - - - - - - - - - - - - - -
72
65
73
2
40
0.2
49
0.1
74
0
49
-0.1
74
0
0
ENDTAB
0
TABLE
2
LAYER
5
2
100
AcDbSymbolTable
70
36
0
LAYER
5
10
100
AcDbSymbolTableRecord
100
AcDbLayerTableRecord
2
0
70
0
62
7
6
CONTINUOUS
370
-3
390
F
0
LAYER
5
1FA
100
AcDbSymbolTableRecord
100
AcDbLayerTableRecord
2
DEFAULT_1
70
0
62
7
6
CENTER
370
-3
390
F
0
LAYER
5
1FB
100
AcDbSymbolTableRecord
100
AcDbLayerTableRecord
2
DEFAULT_2
70
0
62
8
6
HIDDEN
370
-3
390
F
0
LAYER
5
1FC
100
AcDbSymbolTableRecord
100
AcDbLayerTableRecord
2
DEFAULT_3
70
0
62
7
6
PHANTOM
370
-3
390
F
0
LAYER
5
1FD
100
AcDbSymbolTableRecord
100
AcDbLayerTableRecord
2
_BLACK_HOLE
70
0
62
7
6
CONTINUOUS
370
-3
390
F
0
LAYER
5
1FE
100
AcDbSymbolTableRecord
100
AcDbLayerTableRecord
2
ASSI
70
0
62
7
6
CONTINUOUS
370
-3
390
F
0
LAYER
5
1FF
100
AcDbSymbolTableRecord
100
AcDbLayerTableRecord
2
COORDINATE
70
0
62
7
6
CONTINUOUS
370
-3
390
F
0
LAYER
5
200
100
AcDbSymbolTableRecord
100
AcDbLayerTableRecord
2
COORD_ORIGINE
70
0
62
7
6
CONTINUOUS
370
-3
390
F
0
LAYER
5
201
100
AcDbSymbolTableRecord
100
AcDbLayerTableRecord
2
CURVE
70
0
62
7
6
CONTINUOUS
370
-3
390
F
0
LAYER
5
202
100
AcDbSymbolTableRecord
100
AcDbLayerTableRecord
2
DRAFT
70
0
62
7
6
CONTINUOUS
370
-3
390
F
0
LAYER
5
203
100
AcDbSymbolTableRecord
100
AcDbLayerTableRecord
2
IMPORT
70
0
62
7
6
CONTINUOUS
370
-3
390
F
0
LAYER
5
204
100
AcDbSymbolTableRecord
100
AcDbLayerTableRecord
2
NOTE
70
0
62
7
6
CONTINUOUS
370
-3
390
F
0
LAYER
5
205
100
AcDbSymbolTableRecord
100
AcDbLayerTableRecord
2
PIANI
70
0
62
7
6
CONTINUOUS
370
-3
390
F
0
LAYER
5
206
100
AcDbSymbolTableRecord
100
AcDbLayerTableRecord
2
PIANI_ORIGINE
70
0
62
7
6
CONTINUOUS
370
-3
390
F
0
LAYER
5
207
100
AcDbSymbolTableRecord
100
AcDbLayerTableRecord
2
PIANI_SFORMI
70
0
62
7
6
CONTINUOUS
370
-3
390
F
0
LAYER
5
208
100
AcDbSymbolTableRecord
100
AcDbLayerTableRecord
2
PUNTI
70
0
62
7
6
CONTINUOUS
370
-3
390
F
0
LAYER
5
209
100
AcDbSymbolTableRecord
100
AcDbLayerTableRecord
2
RACCORDO
70
0
62
7
6
CONTINUOUS
370
-3
390
F
0
LAYER
5
20A
100
AcDbSymbolTableRecord
100
AcDbLayerTableRecord
2
SMUSSO
70
0
62
7
6
CONTINUOUS
370
-3
390
F
0
LAYER
5
20B
100
AcDbSymbolTableRecord
100
AcDbLayerTableRecord
2
SUPERFICI
70
0
62
7
6
CONTINUOUS
370
-3
390
F
0
LAYER
5
20C
100
AcDbSymbolTableRecord
100
AcDbLayerTableRecord
2
TRASH
70
0
62
7
6
CONTINUOUS
370
-3
390
F
0
LAYER
5
20D
100
AcDbSymbolTableRecord
100
AcDbLayerTableRecord
2
XSEC_DATUMS
70
0
62
7
6
CONTINUOUS
370
-3
390
F
0
ENDTAB
0
TABLE
2
STYLE
5
3
100
AcDbSymbolTable
70
1
0
STYLE
5
11
100
AcDbSymbolTableRecord
100
AcDbTextStyleTableRecord
2
STANDARD
70
0
40
0.0
41
0.8000000000
50
0.0
71
0
42
0.2
3
txt
4

0
ENDTAB
0
TABLE
2
VIEW
5
6
100
AcDbSymbolTable
70
0
0
ENDTAB
0
TABLE
2
UCS
5
7
100
AcDbSymbolTable
70
0
0
ENDTAB
0
TABLE
2
APPID
5
9
100
AcDbSymbolTable
70
1
0
APPID
5
20E
100
AcDbSymbolTableRecord
100
AcDbRegAppTableRecord
2
ACAD
70
0
0
ENDTAB
0
TABLE
2
BLOCK_RECORD
5
1
100
AcDbSymbolTable
70
0
0
BLOCK_RECORD
5
1F
100
AcDbSymbolTableRecord
100
AcDbBlockTableRecord
2
*MODEL_SPACE
0
BLOCK_RECORD
5
1B
100
AcDbSymbolTableRecord
100
AcDbBlockTableRecord
2
*PAPER_SPACE
0
ENDTAB
0
TABLE
2
DIMSTYLE
5
A
100
AcDbSymbolTable
70
1
100
AcDbDimStyleTable
71
0
0
DIMSTYLE
105
20F
100
AcDbSymbolTableRecord
100
AcDbDimStyleTableRecord
2
STANDARD
70
0
3

4

40
1.0
41
3.0000000000
42
0.0625
43
0.38
44
0.18
45
0.0
46
0.0
47
0.0100000000
48
0.0100000000
140
3.0000000000
141
0.09
142
0.0
143
25.4
144
1.0000000000
145
0.0
146
1.0000000000
147
0.09
71
1
72
0
73
0
74
0
75
0
76
0
77
1
78
8
170
0
171
2
172
0
173
0
174
0
175
0
176
0
177
0
178
0
270
2
271
2
272
2
273
2
274
2
275
0
280
0
281
0
282
0
283
1
284
8
285
0
286
0
287
3
288
0
340
11
0
ENDTAB
0
ENDSEC
0
SECTION
2
BLOCKS
0
BLOCK
5
20
100
AcDbEntity
8
0
100
AcDbBlockBegin
2
*MODEL_SPACE
70
0
10
0.0
20
0.0
30
0.0
3
*MODEL_SPACE
1

0
ENDBLK
5
21
100
AcDbEntity
8
0
100
AcDbBlockEnd
0
BLOCK
5
1C
100
AcDbEntity
8
0
100
AcDbBlockBegin
2
*PAPER_SPACE
70
0
10
0.0
20
0.0
30
0.0
3
*PAPER_SPACE
1

0
ENDBLK
5
1D
100
AcDbEntity
8
0
100
AcDbBlockEnd
0
ENDSEC
0
SECTION
2
ENTITIES
0
LINE
5
210
100
AcDbEntity
8
0
100
AcDbLine
62
7
6
CONTINUOUS
10
-10.0409781043
20
-23.9223092250
11
-7.6497133108
21
-23.9223092250
0
LINE
5
211
100
AcDbEntity
8
0
100
AcDbLine
62
7
6
CONTINUOUS
10
7.3590218957
20
-23.9223092250
11
9.7502866892
21
-23.9223092250
0
LINE
5
212
100
AcDbEntity
8
0
100
AcDbLine
62
9
6
CONTINUOUS
10
7.1090261264
20
-23.6723134558
11
10.0002824584
21
-23.6723134558
0
LINE
5
213
100
AcDbEntity
8
0
100
AcDbLine
62
9
6
CONTINUOUS
10
-7.3997175416
20
-23.6723134558
11
-10.2909738736
21
-23.6723134558
0
LINE
5
214
100
AcDbEntity
8
0
100
AcDbLine
62
7
6
CONTINUOUS
10
-4.5953457076
20
-23.4266810590
11
-3.6453457076
21
-23.4266810590
0
LINE
5
215
100
AcDbEntity
8
0
100
AcDbLine
62
7
6
CONTINUOUS
10
3.3546542924
20
-23.4266810590
11
4.3046542924
21
-23.4266810590
0
LINE
5
216
100
AcDbEntity
8
0
100
AcDbLine
62
7
6
CONTINUOUS
10
-3.6453457076
20
-23.4208632292
11
-1.3453457076
21
-23.4208632292
0
LINE
5
217
100
AcDbEntity
8
0
100
AcDbLine
62
7
6
CONTINUOUS
10
1.0546542924
20
-23.4208632292
11
3.3546542924
21
-23.4208632292
0
LINE
5
218
100
AcDbEntity
8
0
100
AcDbLine
62
7
6
CONTINUOUS
10
-4.5516950607
20
-23.3830304121
11
-3.6453457076
21
-23.3830304121
0
LINE
5
219
100
AcDbEntity
8
0
100
AcDbLine
62
7
6
CONTINUOUS
10
3.3546542924
20
-23.3830304121
11
4.2610036456
21
-23.3830304121
0
LINE
5
21A
100
AcDbEntity
8
0
100
AcDbLine
62
9
6
CONTINUOUS
10
7.1090261264
20
-23.2710186263
11
10.0002824584
21
-23.2710186263
0
LINE
5
21B
100
AcDbEntity
8
0
100
AcDbLine
62
9
6
CONTINUOUS
10
-7.3997175416
20
-23.2710186263
11
-10.2909738736
21
-23.2710186263
0
LINE
5
21C
100
AcDbEntity
8
0
100
AcDbLine
62
7
6
CONTINUOUS
10
-9.7953457076
20
20.7723585912
11
-9.0952393700
21
21.4733189410
0
LINE
5
21D
100
AcDbEntity
8
0
100
AcDbLine
62
7
6
CONTINUOUS
10
-8.3953457076
20
21.9733189410
11
-7.4011635374
21
22.9675011112
0
LINE
5
21E
100
AcDbEntity
8
0
100
AcDbLine
62
7
6
CONTINUOUS
10
-8.2119152094
20
22.0270543682
11
-8.3953457076
21
21.9733189410
0
LINE
5
21F
100
AcDbEntity
8
0
100
AcDbLine
62
9
6
CONTINUOUS
10
9.7502866892
20
-23.0545122753
11
7.3590218957
21
-23.0545122753
0
LINE
5
220
100
AcDbEntity
8
0
100
AcDbLine
62
9
6
CONTINUOUS
10
-7.6497133108
20
-23.0545122753
11
-10.0409781043
21
-23.0545122753
0
LINE
5
221
100
AcDbEntity
8
0
100
AcDbLine
62
7
6
CONTINUOUS
10
-10.0460687054
20
-22.5493307898
11
-7.6446227097
21
-22.5493307898
0
LINE
5
222
100
AcDbEntity
8
0
100
AcDbLine
62
7
6
CONTINUOUS
10
9.7553772903
20
-22.5493307898
11
7.3539312946
21
-22.5493307898
0
LINE
5
223
100
AcDbEntity
8
0
100
AcDbLine
62
7
6
CONTINUOUS
10
-7.1954032192
20
-21.8266810590
11
-4.5953457076
21
-21.8266810590
0
LINE
5
224
100
AcDbEntity
8
0
100
AcDbLine
62
7
6
CONTINUOUS
10
4.3046542924
20
-21.8266810590
11
6.9047118041
21
-21.8266810590
0
LINE
5
225
100
AcDbEntity
8
0
100
AcDbLine
62
7
6
CONTINUOUS
10
-1.1453457076
20
-21.8214450234
11
0.8546542924
21
-21.8214450234
0
LINE
5
226
100
AcDbEntity
8
0
100
AcDbLine
62
7
6
CONTINUOUS
10
-10.7870615292
20
-21.8208632292
11
-7.4011635374
21
-21.8208632292
0
LINE
5
227
100
AcDbEntity
8
0
100
AcDbLine
62
7
6
CONTINUOUS
10
-3.6453457076
20
-21.8208632292
11
-3.1453457076
21
-21.8208632292
0
LINE
5
228
100
AcDbEntity
8
0
100
AcDbLine
62
7
6
CONTINUOUS
10
2.8546542924
20
-21.8208632292
11
3.3546542924
21
-21.8208632292
0
LINE
5
229
100
AcDbEntity
8
0
100
AcDbLine
62
7
6
CONTINUOUS
10
7.1104721223
20
-21.8208632292
11
10.4963701141
21
-21.8208632292
0
LINE
5
22A
100
AcDbEntity
8
0
100
AcDbLine
62
7
6
CONTINUOUS
10
-7.3358873337
20
-21.7626510845
11
-3.1453457076
21
-21.7626510845
0
LINE
5
22B
100
AcDbEntity
8
0
100
AcDbLine
62
7
6
CONTINUOUS
10
2.8546542924
20
-21.7626510845
11
7.0451959186
21
-21.7626510845
0
LINE
5
22C
100
AcDbEntity
8
0
100
AcDbLine
62
7
6
CONTINUOUS
10
-8.2119152094
20
-20.8804164861
11
-8.3953457076
21
-20.8266810590
0
LINE
5
22D
100
AcDbEntity
8
0
100
AcDbLine
62
7
6
CONTINUOUS
10
-7.4011635374
20
-21.8208632292
11
-8.3953457076
21
-20.8266810590
0
LINE
5
22E
100
AcDbEntity
8
0
100
AcDbLine
62
7
6
CONTINUOUS
10
-9.7953457076
20
-19.6257207092
11
-9.0952393700
21
-20.3266810590
0
LINE
5
22F
100
AcDbEntity
8
0
100
AcDbLine
62
7
6
CONTINUOUS
10
-9.7586900712
20
-19.5156643727
11
-9.0585837336
21
-20.2166247225
0
LINE
5
230
100
AcDbEntity
8
0
100
AcDbLine
62
7
6
CONTINUOUS
10
-3.1453457076
20
-21.1266810590
11
2.8546542924
21
-21.1266810590
0
LINE
5
231
100
AcDbEntity
8
0
100
AcDbLine
62
9
6
CONTINUOUS
10
-7.7119913618
20
-20.7626680076
11
-3.1453457076
21
-20.7626680076
0
LINE
5
232
100
AcDbEntity
8
0
100
AcDbLine
62
9
6
CONTINUOUS
10
2.8546542924
20
-20.7626680076
11
7.4212999467
21
-20.7626680076
0
LINE
5
233
100
AcDbEntity
8
0
100
AcDbLine
62
7
6
CONTINUOUS
10
-11.3119280192
20
-20.4493307898
11
-11.2870551832
21
-20.4493307898
0
LINE
5
234
100
AcDbEntity
8
0
100
AcDbLine
62
7
6
CONTINUOUS
10
11.0212366041
20
-20.4493307898
11
10.9963637680
21
-20.4493307898
0
LINE
5
235
100
AcDbEntity
8
0
100
AcDbLine
62
7
6
CONTINUOUS
10
7.0586587467
20
-20.3266810590
11
8.8045479549
21
-20.3266810590
0
LINE
5
236
100
AcDbEntity
8
0
100
AcDbLine
62
7
6
CONTINUOUS
10
-7.3493501619
20
-20.3266810590
11
-9.0952393700
21
-20.3266810590
0
LINE
5
237
100
AcDbEntity
8
0
100
AcDbLine
62
7
6
CONTINUOUS
10
-3.1453457076
20
-20.2266810590
11
2.8546542924
21
-20.2266810590
0
LINE
5
238
100
AcDbEntity
8
0
100
AcDbLine
62
7
6
CONTINUOUS
10
-9.0585837336
20
-20.2166247225
11
-7.4636721299
21
-20.2166247225
0
LINE
5
239
100
AcDbEntity
8
0
100
AcDbLine
62
7
6
CONTINUOUS
10
7.1729807148
20
-20.2166247225
11
8.7678923185
21
-20.2166247225
0
LINE
5
23A
100
AcDbEntity
8
0
100
AcDbLine
62
7
6
CONTINUOUS
10
-6.7414582636
20
-19.4266810590
11
6.4507668485
21
-19.4266810590
0
LINE
5
23B
100
AcDbEntity
8
0
100
AcDbLine
62
9
6
CONTINUOUS
10
9.4679986561
20
-19.3153355488
11
7.1729807148
21
-19.3153355488
0
LINE
5
23C
100
AcDbEntity
8
0
100
AcDbLine
62
9
6
CONTINUOUS
10
6.3363278701
20
-19.3153355488
11
4.3860710165
21
-19.3153355488
0
LINE
5
23D
100
AcDbEntity
8
0
100
AcDbLine
62
9
6
CONTINUOUS
10
-4.6767624316
20
-19.3153355488
11
-6.6270192852
21
-19.3153355488
0
LINE
5
23E
100
AcDbEntity
8
0
100
AcDbLine
62
9
6
CONTINUOUS
10
-7.4636721299
20
-19.3153355488
11
-9.7586900712
21
-19.3153355488
0
LINE
5
23F
100
AcDbEntity
8
0
100
AcDbLine
62
9
6
CONTINUOUS
10
9.4630361949
20
-19.0157466884
11
7.1754617565
21
-19.0157466884
0
LINE
5
240
100
AcDbEntity
8
0
100
AcDbLine
62
9
6
CONTINUOUS
10
6.3338468284
20
-19.0157466884
11
4.3885520581
21
-19.0157466884
0
LINE
5
241
100
AcDbEntity
8
0
100
AcDbLine
62
9
6
CONTINUOUS
10
-4.6792434732
20
-19.0157466884
11
-6.6245382435
21
-19.0157466884
0
LINE
5
242
100
AcDbEntity
8
0
100
AcDbLine
62
9
6
CONTINUOUS
10
-7.4661531716
20
-19.0157466884
11
-9.7537276100
21
-19.0157466884
0
LINE
5
243
100
AcDbEntity
8
0
100
AcDbLine
62
7
6
CONTINUOUS
10
-9.7007527383
20
-18.8566928323
11
-7.4926385902
21
-18.8566928323
0
LINE
5
244
100
AcDbEntity
8
0
100
AcDbLine
62
7
6
CONTINUOUS
10
-6.5980528249
20
-18.8566928323
11
-4.7057288919
21
-18.8566928323
0
LINE
5
245
100
AcDbEntity
8
0
100
AcDbLine
62
7
6
CONTINUOUS
10
4.4150374768
20
-18.8566928323
11
6.3073614098
21
-18.8566928323
0
LINE
5
246
100
AcDbEntity
8
0
100
AcDbLine
62
7
6
CONTINUOUS
10
7.2019471751
20
-18.8566928323
11
9.4100613232
21
-18.8566928323
0
LINE
5
247
100
AcDbEntity
8
0
100
AcDbLine
62
7
6
CONTINUOUS
10
-8.3804904711
20
-15.8396773337
11
-8.1798374122
21
-16.0815582082
0
LINE
5
248
100
AcDbEntity
8
0
100
AcDbLine
62
9
6
CONTINUOUS
10
4.3572495062
20
-17.2223366643
11
-4.6479409213
21
-17.2223366643
0
LINE
5
249
100
AcDbEntity
8
0
100
AcDbLine
62
7
6
CONTINUOUS
10
-4.3496824869
20
-16.7223557027
11
4.0589910718
21
-16.7223557027
0
LINE
5
24A
100
AcDbEntity
8
0
100
AcDbLine
62
7
6
CONTINUOUS
10
4.1173984796
20
-16.6639482949
11
-4.4080898947
21
-16.6639482949
0
LINE
5
24B
100
AcDbEntity
8
0
100
AcDbLine
62
7
6
CONTINUOUS
10
-4.1109510039
20
-16.0860385737
11
3.8202595888
21
-16.0860385737
0
LINE
5
24C
100
AcDbEntity
8
0
100
AcDbLine
62
7
6
CONTINUOUS
10
-9.6948050351
20
-16.0815582082
11
-8.1798374122
21
-16.0815582082
0
LINE
5
24D
100
AcDbEntity
8
0
100
AcDbLine
62
7
6
CONTINUOUS
10
9.4041136200
20
-16.0815582082
11
7.8891459971
21
-16.0815582082
0
LINE
5
24E
100
AcDbEntity
8
0
100
AcDbLine
62
7
6
CONTINUOUS
10
-3.9102979450
20
-15.8441576992
11
3.6196065299
21
-15.8441576992
0
LINE
5
24F
100
AcDbEntity
8
0
100
AcDbLine
62
9
6
CONTINUOUS
10
-4.7077566817
20
-16.9642586618
11
-4.6496710638
21
-17.0223442797
0
LINE
5
250
100
AcDbEntity
8
0
100
AcDbLine
62
9
6
CONTINUOUS
10
-4.4080898947
20
-16.6639482949
11
-4.3496824869
21
-16.7223557027
0
LINE
5
251
100
AcDbEntity
8
0
100
AcDbLine
62
7
6
CONTINUOUS
10
4.2610036456
20
24.5296682942
11
4.3046542924
21
24.5733189410
0
LINE
5
252
100
AcDbEntity
8
0
100
AcDbLine
62
7
6
CONTINUOUS
10
8.2409652448
20
-14.1379354325
11
8.0838159766
21
-14.1534920460
0
LINE
5
253
100
AcDbEntity
8
0
100
AcDbLine
62
7
6
CONTINUOUS
10
-9.6278545336
20
-15.8396773337
11
-8.3804904711
21
-15.8396773337
0
LINE
5
254
100
AcDbEntity
8
0
100
AcDbLine
62
7
6
CONTINUOUS
10
9.3371631184
20
-15.8396773337
11
8.0897990560
21
-15.8396773337
0
LINE
5
255
100
AcDbEntity
8
0
100
AcDbLine
62
7
6
CONTINUOUS
10
9.3546542924
20
-15.6266810590
11
9.3667592795
21
-15.6266810590
0
LINE
5
256
100
AcDbEntity
8
0
100
AcDbLine
62
7
6
CONTINUOUS
10
-9.6453457076
20
-15.6266810590
11
-9.6574506946
21
-15.6266810590
0
LINE
5
257
100
AcDbEntity
8
0
100
AcDbLine
62
9
6
CONTINUOUS
10
7.9118806406
20
-15.0314703977
11
3.7974279442
21
-15.0314703977
0
LINE
5
258
100
AcDbEntity
8
0
100
AcDbLine
62
9
6
CONTINUOUS
10
-4.0881193594
20
-15.0314703977
11
-8.2025720558
21
-15.0314703977
0
LINE
5
259
100
AcDbEntity
8
0
100
AcDbLine
62
7
6
CONTINUOUS
10
-9.2953457076
20
-14.9344560130
11
-8.4000887217
21
-14.9344560130
0
LINE
5
25A
100
AcDbEntity
8
0
100
AcDbLine
62
7
6
CONTINUOUS
10
-3.8906026934
20
-14.9344560130
11
-3.5453457076
21
-14.9344560130
0
LINE
5
25B
100
AcDbEntity
8
0
100
AcDbLine
62
7
6
CONTINUOUS
10
3.2546542924
20
-14.9344560130
11
3.5999112783
21
-14.9344560130
0
LINE
5
25C
100
AcDbEntity
8
0
100
AcDbLine
62
7
6
CONTINUOUS
10
8.1093973066
20
-14.9344560130
11
9.0046542924
21
-14.9344560130
0
LINE
5
25D
100
AcDbEntity
8
0
100
AcDbLine
62
7
6
CONTINUOUS
10
-9.0618005386
20
-14.9266810590
11
-8.5571822172
21
-14.9266810590
0
LINE
5
25E
100
AcDbEntity
8
0
100
AcDbLine
62
7
6
CONTINUOUS
10
-3.8906026934
20
-14.9266810590
11
-3.5453457076
21
-14.9266810590
0
LINE
5
25F
100
AcDbEntity
8
0
100
AcDbLine
62
7
6
CONTINUOUS
10
3.2546542924
20
-14.9266810590
11
3.5999112783
21
-14.9266810590
0
LINE
5
260
100
AcDbEntity
8
0
100
AcDbLine
62
7
6
CONTINUOUS
10
8.1093973066
20
-14.9266810590
11
8.7711091235
21
-14.9266810590
0
LINE
5
261
100
AcDbEntity
8
0
100
AcDbLine
62
7
6
CONTINUOUS
10
3.3935015512
20
-14.4266810590
11
3.2546542924
21
-14.4266810590
0
LINE
5
262
100
AcDbEntity
8
0
100
AcDbLine
62
7
6
CONTINUOUS
10
-3.5453457076
20
-14.4266810590
11
-3.6841929663
21
-14.4266810590
0
LINE
5
263
100
AcDbEntity
8
0
100
AcDbLine
62
7
6
CONTINUOUS
10
3.3546542924
20
-14.2063673067
11
3.2546542924
21
-14.2063673067
0
LINE
5
264
100
AcDbEntity
8
0
100
AcDbLine
62
7
6
CONTINUOUS
10
-3.5453457076
20
-14.2063673067
11
-3.6453457076
21
-14.2063673067
0
LINE
5
265
100
AcDbEntity
8
0
100
AcDbLine
62
9
6
CONTINUOUS
10
8.0838159766
20
-14.1534920460
11
3.6254926082
21
-14.1534920460
0
LINE
5
266
100
AcDbEntity
8
0
100
AcDbLine
62
9
6
CONTINUOUS
10
-3.9161840234
20
-14.1534920460
11
-8.3745073918
21
-14.1534920460
0
LINE
5
267
100
AcDbEntity
8
0
100
AcDbLine
62
7
6
CONTINUOUS
10
-8.5316566599
20
-14.1379354325
11
-3.7590347552
21
-14.1379354325
0
LINE
5
268
100
AcDbEntity
8
0
100
AcDbLine
62
7
6
CONTINUOUS
10
3.4683433401
20
-14.1379354325
11
8.2409652448
21
-14.1379354325
0
LINE
5
269
100
AcDbEntity
8
0
100
AcDbLine
62
7
6
CONTINUOUS
10
-8.5316566599
20
-14.1379354325
11
-8.3745073918
21
-14.1534920460
0
LINE
5
26A
100
AcDbEntity
8
0
100
AcDbLine
62
7
6
CONTINUOUS
10
-9.6574506946
20
-11.9266810590
11
-9.7904902742
21
-11.8601663352
0
LINE
5
26B
100
AcDbEntity
8
0
100
AcDbLine
62
7
6
CONTINUOUS
10
4.3046542924
20
-23.4266810590
11
4.2610036456
21
-23.3830304121
0
LINE
5
26C
100
AcDbEntity
8
0
100
AcDbLine
62
7
6
CONTINUOUS
10
-11.3119280192
20
-20.4493307898
11
-11.2953457076
21
-20.9978135455
0
LINE
5
26D
100
AcDbEntity
8
0
100
AcDbLine
62
7
6
CONTINUOUS
10
-11.2870551832
20
21.5959686718
11
-11.2957820509
21
22.1733189410
0
LINE
5
26E
100
AcDbEntity
8
0
100
AcDbLine
62
7
6
CONTINUOUS
10
-11.3119280192
20
21.5959686718
11
-11.3119280192
21
-20.4493307898
0
LINE
5
26F
100
AcDbEntity
8
0
100
AcDbLine
62
7
6
CONTINUOUS
10
-11.2957820509
20
22.4733358641
11
-11.2957820509
21
22.1733189410
0
LINE
5
270
100
AcDbEntity
8
0
100
AcDbLine
62
7
6
CONTINUOUS
10
-11.2957820509
20
-21.3266979820
11
-11.2957820509
21
-21.0266810590
0
LINE
5
271
100
AcDbEntity
8
0
100
AcDbLine
62
7
6
CONTINUOUS
10
-11.2870551832
20
22.4675180342
11
-11.2870551832
21
21.5959686718
0
LINE
5
272
100
AcDbEntity
8
0
100
AcDbLine
62
7
6
CONTINUOUS
10
-11.2870551832
20
-20.4493307898
11
-11.2870551832
21
-21.3208801522
0
LINE
5
273
100
AcDbEntity
8
0
100
AcDbLine
62
7
6
CONTINUOUS
10
-11.2870551832
20
-20.4493307898
11
-11.2957820509
21
-21.0266810590
0
LINE
5
274
100
AcDbEntity
8
0
100
AcDbLine
62
7
6
CONTINUOUS
10
-11.3119280192
20
21.5959686718
11
-11.2953457076
21
22.1444514276
0
LINE
5
275
100
AcDbEntity
8
0
100
AcDbLine
62
7
6
CONTINUOUS
10
4.3046542924
20
22.9733189410
11
4.2607320454
21
22.9293966940
0
LINE
5
276
100
AcDbEntity
8
0
100
AcDbLine
62
7
6
CONTINUOUS
10
7.0451959186
20
22.9092889665
11
7.1104721223
21
22.9675011112
0
LINE
5
277
100
AcDbEntity
8
0
100
AcDbLine
62
9
6
CONTINUOUS
10
10.5050969819
20
22.9733189410
11
10.4963701141
21
22.9675011112
0
LINE
5
278
100
AcDbEntity
8
0
100
AcDbLine
62
9
6
CONTINUOUS
10
11.0050906358
20
22.4733358641
11
10.9963637680
21
22.4675180342
0
LINE
5
279
100
AcDbEntity
8
0
100
AcDbLine
62
7
6
CONTINUOUS
10
-3.7590347552
20
-14.1379354325
11
-3.9161840234
21
-14.1534920460
0
LINE
5
27A
100
AcDbEntity
8
0
100
AcDbLine
62
7
6
CONTINUOUS
10
3.3546542924
20
-13.4310444929
11
3.4590140625
21
-13.4258794642
0
LINE
5
27B
100
AcDbEntity
8
0
100
AcDbLine
62
7
6
CONTINUOUS
10
3.3546542924
20
-13.4310444929
11
-3.6453457076
21
-13.4310444929
0
LINE
5
27C
100
AcDbEntity
8
0
100
AcDbLine
62
7
6
CONTINUOUS
10
-7.1445631512
20
-13.4258794642
11
-3.7497054776
21
-13.4258794642
0
LINE
5
27D
100
AcDbEntity
8
0
100
AcDbLine
62
7
6
CONTINUOUS
10
3.4590140625
20
-13.4258794642
11
6.8538717361
21
-13.4258794642
0
LINE
5
27E
100
AcDbEntity
8
0
100
AcDbLine
62
7
6
CONTINUOUS
10
6.3546542924
20
-13.3455211885
11
-6.6453457076
21
-13.3455211885
0
LINE
5
27F
100
AcDbEntity
8
0
100
AcDbLine
62
7
6
CONTINUOUS
10
6.7647865927
20
-13.3367943207
11
6.6546542924
21
-13.3367943207
0
LINE
5
280
100
AcDbEntity
8
0
100
AcDbLine
62
7
6
CONTINUOUS
10
-6.9453457076
20
-13.3367943207
11
-7.0554780078
21
-13.3367943207
0
LINE
5
281
100
AcDbEntity
8
0
100
AcDbLine
62
9
6
CONTINUOUS
10
-6.9453457076
20
-12.9266810590
11
-6.6453457076
21
-12.9266810590
0
LINE
5
282
100
AcDbEntity
8
0
100
AcDbLine
62
9
6
CONTINUOUS
10
6.6546542924
20
-12.9266810590
11
6.3546542924
21
-12.9266810590
0
LINE
5
283
100
AcDbEntity
8
0
100
AcDbLine
62
7
6
CONTINUOUS
10
-6.3453457076
20
-12.6266810590
11
6.0546542924
21
-12.6266810590
0
LINE
5
284
100
AcDbEntity
8
0
100
AcDbLine
62
9
6
CONTINUOUS
10
-6.3453457076
20
-12.3266810590
11
6.0546542924
21
-12.3266810590
0
LINE
5
285
100
AcDbEntity
8
0
100
AcDbLine
62
7
6
CONTINUOUS
10
-3.6453457076
20
-13.4310444929
11
-3.7497054776
21
-13.4258794642
0
LINE
5
286
100
AcDbEntity
8
0
100
AcDbLine
62
7
6
CONTINUOUS
10
3.4683433401
20
-14.1379354325
11
3.6254926082
21
-14.1534920460
0
LINE
5
287
100
AcDbEntity
8
0
100
AcDbLine
62
9
6
CONTINUOUS
10
10.4963701141
20
-21.8208632292
11
10.5050969819
21
-21.8266810590
0
LINE
5
288
100
AcDbEntity
8
0
100
AcDbLine
62
9
6
CONTINUOUS
10
10.9963637680
20
-21.3208801522
11
11.0050906358
21
-21.3266979820
0
LINE
5
289
100
AcDbEntity
8
0
100
AcDbLine
62
7
6
CONTINUOUS
10
7.0451959186
20
-21.7626510845
11
7.1104721223
21
-21.8208632292
0
LINE
5
28A
100
AcDbEntity
8
0
100
AcDbLine
62
7
6
CONTINUOUS
10
4.3046542924
20
-21.8266810590
11
4.2607320454
21
-21.7827588119
0
LINE
5
28B
100
AcDbEntity
8
0
100
AcDbLine
62
7
6
CONTINUOUS
10
-9.6453457076
20
-15.6266810590
11
-9.6278545336
21
-15.8396773337
0
LINE
5
28C
100
AcDbEntity
8
0
100
AcDbLine
62
9
6
CONTINUOUS
10
-10.2909738736
20
-23.2710186263
11
-10.2953457076
21
-22.8371662072
0
LINE
5
28D
100
AcDbEntity
8
0
100
AcDbLine
62
9
6
CONTINUOUS
10
-10.0409781043
20
-23.0545122753
11
-10.0460687054
21
-22.5493307898
0
LINE
5
28E
100
AcDbEntity
8
0
100
AcDbLine
62
7
6
CONTINUOUS
10
-10.2953457076
20
-22.0268945493
11
-10.2953457076
21
-23.2710186263
0
LINE
5
28F
100
AcDbEntity
8
0
100
AcDbLine
62
7
6
CONTINUOUS
10
-10.2953457076
20
23.1735324313
11
-10.2953457076
21
24.4176565083
0
LINE
5
290
100
AcDbEntity
8
0
100
AcDbLine
62
7
6
CONTINUOUS
10
-10.2909738736
20
24.8189513378
11
-10.2909738736
21
24.4176565083
0
LINE
5
291
100
AcDbEntity
8
0
100
AcDbLine
62
7
6
CONTINUOUS
10
-10.2909738736
20
-23.2710186263
11
-10.2909738736
21
-23.6723134558
0
LINE
5
292
100
AcDbEntity
8
0
100
AcDbLine
62
9
6
CONTINUOUS
10
-10.0409781043
20
-23.0545122753
11
-10.0409781043
21
-23.9223092250
0
LINE
5
293
100
AcDbEntity
8
0
100
AcDbLine
62
9
6
CONTINUOUS
10
-10.0409781043
20
24.2011501574
11
-10.0409781043
21
25.0689471070
0
LINE
5
294
100
AcDbEntity
8
0
100
AcDbLine
62
7
6
CONTINUOUS
10
-9.7953457076
20
-19.6257207092
11
-9.7953457076
21
20.7723585912
0
LINE
5
295
100
AcDbEntity
8
0
100
AcDbLine
62
7
6
CONTINUOUS
10
-9.7586900712
20
-19.5156643727
11
-9.7586900712
21
-19.3153355488
0
LINE
5
296
100
AcDbEntity
8
0
100
AcDbLine
62
7
6
CONTINUOUS
10
-9.6574506946
20
13.0865865832
11
-9.6574506946
21
9.4733189410
0
LINE
5
297
100
AcDbEntity
8
0
100
AcDbLine
62
7
6
CONTINUOUS
10
-9.6574506946
20
8.4733189410
11
-9.6574506946
21
1.0733189410
0
LINE
5
298
100
AcDbEntity
8
0
100
AcDbLine
62
7
6
CONTINUOUS
10
-9.6574506946
20
0.0733189410
11
-9.6574506946
21
-6.6266810590
0
LINE
5
299
100
AcDbEntity
8
0
100
AcDbLine
62
7
6
CONTINUOUS
10
-9.6574506946
20
-7.6266810590
11
-9.6574506946
21
-10.9266810590
0
LINE
5
29A
100
AcDbEntity
8
0
100
AcDbLine
62
7
6
CONTINUOUS
10
-9.6574506946
20
-11.9266810590
11
-9.6574506946
21
-15.6266810590
0
LINE
5
29B
100
AcDbEntity
8
0
100
AcDbLine
62
7
6
CONTINUOUS
10
-9.6453457076
20
-15.4266239457
11
-9.6453457076
21
-15.6266810590
0
LINE
5
29C
100
AcDbEntity
8
0
100
AcDbLine
62
7
6
CONTINUOUS
10
-9.5953457076
20
-15.8396773337
11
-9.5953457076
21
-15.2322198585
0
LINE
5
29D
100
AcDbEntity
8
0
100
AcDbLine
62
7
6
CONTINUOUS
10
-9.4953457076
20
-11.0766810590
11
-9.4953457076
21
12.6233189410
0
LINE
5
29E
100
AcDbEntity
8
0
100
AcDbLine
62
7
6
CONTINUOUS
10
-9.6948050351
20
-16.0815582082
11
-9.7007527383
21
-18.8566928323
0
LINE
5
29F
100
AcDbEntity
8
0
100
AcDbLine
62
9
6
CONTINUOUS
10
-10.2953457076
20
23.9838040892
11
-10.2909738736
21
24.4176565083
0
LINE
5
2A0
100
AcDbEntity
8
0
100
AcDbLine
62
9
6
CONTINUOUS
10
-10.0460687054
20
23.6959686718
11
-10.0409781043
21
24.2011501574
0
LINE
5
2A1
100
AcDbEntity
8
0
100
AcDbLine
62
7
6
CONTINUOUS
10
-7.5008925922
20
21.1397411971
11
-7.4453457076
21
21.4733189410
0
LINE
5
2A2
100
AcDbEntity
8
0
100
AcDbLine
62
9
6
CONTINUOUS
10
-9.7904902742
20
-11.8601663352
11
-8.8996934080
21
-11.8388078126
0
LINE
5
2A3
100
AcDbEntity
8
0
100
AcDbLine
62
9
6
CONTINUOUS
10
-9.7953457076
20
-11.7580334721
11
-8.9936626701
21
-11.7388116203
0
LINE
5
2A4
100
AcDbEntity
8
0
100
AcDbLine
62
7
6
CONTINUOUS
10
8.2664908021
20
-11.9266810590
11
7.3546542924
21
-11.9399487011
0
LINE
5
2A5
100
AcDbEntity
8
0
100
AcDbLine
62
7
6
CONTINUOUS
10
-7.6453457076
20
-11.9399487011
11
-8.5571822172
21
-11.9399487011
0
LINE
5
2A6
100
AcDbEntity
8
0
100
AcDbLine
62
7
6
CONTINUOUS
10
-9.6574506946
20
-11.9266810590
11
-7.6453457076
21
-11.9266810590
0
LINE
5
2A7
100
AcDbEntity
8
0
100
AcDbLine
62
7
6
CONTINUOUS
10
7.3546542924
20
-11.9266810590
11
9.3667592795
21
-11.9266810590
0
LINE
5
2A8
100
AcDbEntity
8
0
100
AcDbLine
62
7
6
CONTINUOUS
10
-8.7117548839
20
-11.8376593920
11
-7.5563240406
21
-11.8376593920
0
LINE
5
2A9
100
AcDbEntity
8
0
100
AcDbLine
62
7
6
CONTINUOUS
10
8.4210634687
20
-11.8376593920
11
7.2656326254
21
-11.8376593920
0
LINE
5
2AA
100
AcDbEntity
8
0
100
AcDbLine
62
9
6
CONTINUOUS
10
-8.7117548839
20
-11.7376631997
11
-7.5554589693
21
-11.7376631997
0
LINE
5
2AB
100
AcDbEntity
8
0
100
AcDbLine
62
9
6
CONTINUOUS
10
8.4210634687
20
-11.7376631997
11
7.2647675542
21
-11.7376631997
0
LINE
5
2AC
100
AcDbEntity
8
0
100
AcDbLine
62
7
6
CONTINUOUS
10
-6.6453457076
20
-11.7266810590
11
6.3546542924
21
-11.7266810590
0
LINE
5
2AD
100
AcDbEntity
8
0
100
AcDbLine
62
7
6
CONTINUOUS
10
8.7546542924
20
-11.5266810590
11
-9.0453457076
21
-11.5266810590
0
LINE
5
2AE
100
AcDbEntity
8
0
100
AcDbLine
62
7
6
CONTINUOUS
10
3.2546542924
20
-11.2266810590
11
8.7546542924
21
-11.2266810590
0
LINE
5
2AF
100
AcDbEntity
8
0
100
AcDbLine
62
7
6
CONTINUOUS
10
-3.5453457076
20
-11.2266810590
11
-9.0453457076
21
-11.2266810590
0
LINE
5
2B0
100
AcDbEntity
8
0
100
AcDbLine
62
7
6
CONTINUOUS
10
-5.1453457076
20
-11.1766810590
11
-3.5453457076
21
-11.1766810590
0
LINE
5
2B1
100
AcDbEntity
8
0
100
AcDbLine
62
7
6
CONTINUOUS
10
3.2546542924
20
-11.1766810590
11
4.8546542924
21
-11.1766810590
0
LINE
5
2B2
100
AcDbEntity
8
0
100
AcDbLine
62
7
6
CONTINUOUS
10
9.2046542924
20
-11.0766810590
11
3.8546542924
21
-11.0766810590
0
LINE
5
2B3
100
AcDbEntity
8
0
100
AcDbLine
62
7
6
CONTINUOUS
10
-4.1453457076
20
-11.0766810590
11
-9.4953457076
21
-11.0766810590
0
LINE
5
2B4
100
AcDbEntity
8
0
100
AcDbLine
62
7
6
CONTINUOUS
10
-9.6574506946
20
-10.9266810590
11
-9.4953457076
21
-10.9266810590
0
LINE
5
2B5
100
AcDbEntity
8
0
100
AcDbLine
62
7
6
CONTINUOUS
10
9.2046542924
20
-10.9266810590
11
9.5046542924
21
-10.9266810590
0
LINE
5
2B6
100
AcDbEntity
8
0
100
AcDbLine
62
9
6
CONTINUOUS
10
-4.1453457076
20
-10.6766810590
11
-3.5453457076
21
-10.6766810590
0
LINE
5
2B7
100
AcDbEntity
8
0
100
AcDbLine
62
9
6
CONTINUOUS
10
3.2546542924
20
-10.6766810590
11
3.8546542924
21
-10.6766810590
0
LINE
5
2B8
100
AcDbEntity
8
0
100
AcDbLine
62
7
6
CONTINUOUS
10
-9.7953457076
20
-10.9726419145
11
-9.4953457076
21
-10.9774372213
0
LINE
5
2B9
100
AcDbEntity
8
0
100
AcDbLine
62
9
6
CONTINUOUS
10
9.4997988591
20
-11.8601663352
11
8.6090019929
21
-11.8388078126
0
LINE
5
2BA
100
AcDbEntity
8
0
100
AcDbLine
62
9
6
CONTINUOUS
10
9.5046542924
20
-11.7580334721
11
8.7029712550
21
-11.7388116203
0
LINE
5
2BB
100
AcDbEntity
8
0
100
AcDbLine
62
7
6
CONTINUOUS
10
-9.6574506946
20
-7.6266810590
11
-9.7904902742
21
-7.5601663352
0
LINE
5
2BC
100
AcDbEntity
8
0
100
AcDbLine
62
7
6
CONTINUOUS
10
-7.4453457076
20
-20.3266810590
11
-7.4636721299
21
-20.2166247225
0
LINE
5
2BD
100
AcDbEntity
8
0
100
AcDbLine
62
7
6
CONTINUOUS
10
-7.4926385902
20
-18.8566928323
11
-7.4661531716
21
-19.0157466884
0
LINE
5
2BE
100
AcDbEntity
8
0
100
AcDbLine
62
9
6
CONTINUOUS
10
-7.4951291765
20
-16.5323539472
11
-7.3493501619
21
-19.4352412855
0
LINE
5
2BF
100
AcDbEntity
8
0
100
AcDbLine
62
7
6
CONTINUOUS
10
-8.4000887217
20
-14.9344560130
11
-8.3804904711
21
-15.8396773337
0
LINE
5
2C0
100
AcDbEntity
8
0
100
AcDbLine
62
7
6
CONTINUOUS
10
-8.2025720558
20
-15.0314703977
11
-8.1798374122
21
-16.0815582082
0
LINE
5
2C1
100
AcDbEntity
8
0
100
AcDbLine
62
9
6
CONTINUOUS
10
-7.6497133108
20
24.2011501574
11
-7.6446227097
21
23.6959686718
0
LINE
5
2C2
100
AcDbEntity
8
0
100
AcDbLine
62
7
6
CONTINUOUS
10
-7.4951291765
20
-16.5323539472
11
-7.4926385902
21
-18.8566928323
0
LINE
5
2C3
100
AcDbEntity
8
0
100
AcDbLine
62
7
6
CONTINUOUS
10
-9.0453457076
20
-11.0766810590
11
-9.0453457076
21
-11.5266810590
0
LINE
5
2C4
100
AcDbEntity
8
0
100
AcDbLine
62
9
6
CONTINUOUS
10
-8.9936626701
20
-11.5266810590
11
-8.9936626701
21
-11.7388116203
0
LINE
5
2C5
100
AcDbEntity
8
0
100
AcDbLine
62
9
6
CONTINUOUS
10
-8.7117548839
20
-11.5266810590
11
-8.7117548839
21
-11.8376593920
0
LINE
5
2C6
100
AcDbEntity
8
0
100
AcDbLine
62
7
6
CONTINUOUS
10
-8.5571822172
20
-11.9399487011
11
-8.5571822172
21
-14.9266810590
0
LINE
5
2C7
100
AcDbEntity
8
0
100
AcDbLine
62
7
6
CONTINUOUS
10
-8.3953457076
20
-20.8266810590
11
-8.3953457076
21
-20.3266810590
0
LINE
5
2C8
100
AcDbEntity
8
0
100
AcDbLine
62
7
6
CONTINUOUS
10
-8.3953457076
20
21.4733189410
11
-8.3953457076
21
21.9733189410
0
LINE
5
2C9
100
AcDbEntity
8
0
100
AcDbLine
62
9
6
CONTINUOUS
10
-8.2119152094
20
22.0270543682
11
-8.2119152094
21
21.4733189410
0
LINE
5
2CA
100
AcDbEntity
8
0
100
AcDbLine
62
9
6
CONTINUOUS
10
-8.2119152094
20
-20.3266810590
11
-8.2119152094
21
-20.8804164861
0
LINE
5
2CB
100
AcDbEntity
8
0
100
AcDbLine
62
9
6
CONTINUOUS
10
-7.7119913618
20
21.9093058897
11
-7.7119913618
21
21.4733189410
0
LINE
5
2CC
100
AcDbEntity
8
0
100
AcDbLine
62
9
6
CONTINUOUS
10
-7.7119913618
20
-20.3266810590
11
-7.7119913618
21
-20.7626680076
0
LINE
5
2CD
100
AcDbEntity
8
0
100
AcDbLine
62
9
6
CONTINUOUS
10
-7.6497133108
20
-23.0545122753
11
-7.6497133108
21
-23.9223092250
0
LINE
5
2CE
100
AcDbEntity
8
0
100
AcDbLine
62
9
6
CONTINUOUS
10
-7.6497133108
20
24.2011501574
11
-7.6497133108
21
25.0689471070
0
LINE
5
2CF
100
AcDbEntity
8
0
100
AcDbLine
62
7
6
CONTINUOUS
10
-7.6453457076
20
-11.9399487011
11
-7.6453457076
21
-11.9266810590
0
LINE
5
2D0
100
AcDbEntity
8
0
100
AcDbLine
62
7
6
CONTINUOUS
10
-7.5554589693
20
-11.7376631997
11
-7.5554589693
21
-12.8368133592
0
LINE
5
2D1
100
AcDbEntity
8
0
100
AcDbLine
62
7
6
CONTINUOUS
10
-7.4636721299
20
-20.2166247225
11
-7.4636721299
21
-19.3153355488
0
LINE
5
2D2
100
AcDbEntity
8
0
100
AcDbLine
62
7
6
CONTINUOUS
10
-7.3997175416
20
-23.6723134558
11
-7.3997175416
21
-23.2710186263
0
LINE
5
2D3
100
AcDbEntity
8
0
100
AcDbLine
62
7
6
CONTINUOUS
10
-7.3997175416
20
24.4176565083
11
-7.3997175416
21
24.8189513378
0
LINE
5
2D4
100
AcDbEntity
8
0
100
AcDbLine
62
7
6
CONTINUOUS
10
-7.3953457076
20
-22.0268945493
11
-7.3953457076
21
-23.2710186263
0
LINE
5
2D5
100
AcDbEntity
8
0
100
AcDbLine
62
7
6
CONTINUOUS
10
-7.3953457076
20
23.1735324313
11
-7.3953457076
21
24.4176565083
0
LINE
5
2D6
100
AcDbEntity
8
0
100
AcDbLine
62
7
6
CONTINUOUS
10
-7.3493501619
20
-20.3266810590
11
-7.3493501619
21
-19.4352412855
0
LINE
5
2D7
100
AcDbEntity
8
0
100
AcDbLine
62
7
6
CONTINUOUS
10
-7.3493501619
20
20.5818791675
11
-7.3493501619
21
21.4733189410
0
LINE
5
2D8
100
AcDbEntity
8
0
100
AcDbLine
62
9
6
CONTINUOUS
10
-7.6446227097
20
-22.5493307898
11
-7.6497133108
21
-23.0545122753
0
LINE
5
2D9
100
AcDbEntity
8
0
100
AcDbLine
62
9
6
CONTINUOUS
10
-7.5113952917
20
17.3550858136
11
-7.3493501619
21
20.5818791675
0
LINE
5
2DA
100
AcDbEntity
8
0
100
AcDbLine
62
7
6
CONTINUOUS
10
-9.6574506946
20
-15.6266810590
11
-9.6948050351
21
-16.0815582082
0
LINE
5
2DB
100
AcDbEntity
8
0
100
AcDbLine
62
7
6
CONTINUOUS
10
3.8202595888
20
-16.0860385737
11
3.6196065299
21
-15.8441576992
0
LINE
5
2DC
100
AcDbEntity
8
0
100
AcDbLine
62
7
6
CONTINUOUS
10
-4.7057288919
20
-18.8566928323
11
-4.6792434732
21
-19.0157466884
0
LINE
5
2DD
100
AcDbEntity
8
0
100
AcDbLine
62
9
6
CONTINUOUS
10
-6.5792961234
20
17.3550858136
11
-6.7409113704
21
20.5733189410
0
LINE
5
2DE
100
AcDbEntity
8
0
100
AcDbLine
62
9
6
CONTINUOUS
10
-7.3997175416
20
24.4176565083
11
-7.3953457076
21
23.9838040892
0
LINE
5
2DF
100
AcDbEntity
8
0
100
AcDbLine
62
9
6
CONTINUOUS
10
-6.9453457076
20
-13.3367943207
11
-6.9453457076
21
-12.9266810590
0
LINE
5
2E0
100
AcDbEntity
8
0
100
AcDbLine
62
7
6
CONTINUOUS
10
-6.6453457076
20
-11.5266810590
11
-6.6453457076
21
-11.7266810590
0
LINE
5
2E1
100
AcDbEntity
8
0
100
AcDbLine
62
7
6
CONTINUOUS
10
-6.6453457076
20
-13.3394123811
11
-6.6453457076
21
-12.9266810590
0
LINE
5
2E2
100
AcDbEntity
8
0
100
AcDbLine
62
7
6
CONTINUOUS
10
-6.6270192852
20
-19.3153355488
11
-6.6270192852
21
-19.4266810590
0
LINE
5
2E3
100
AcDbEntity
8
0
100
AcDbLine
62
9
6
CONTINUOUS
10
-6.3453457076
20
-12.3266810590
11
-6.3453457076
21
-12.6266810590
0
LINE
5
2E4
100
AcDbEntity
8
0
100
AcDbLine
62
7
6
CONTINUOUS
10
-6.0453457076
20
1.1233189410
11
-6.0453457076
21
-1.1766810590
0
LINE
5
2E5
100
AcDbEntity
8
0
100
AcDbLine
62
7
6
CONTINUOUS
10
-5.6453457076
20
13.0865865832
11
-5.6453457076
21
12.9233189410
0
LINE
5
2E6
100
AcDbEntity
8
0
100
AcDbLine
62
7
6
CONTINUOUS
10
-5.6453457076
20
-11.2266810590
11
-5.6453457076
21
-11.5266810590
0
LINE
5
2E7
100
AcDbEntity
8
0
100
AcDbLine
62
7
6
CONTINUOUS
10
-6.5955622386
20
-16.5323539472
11
-6.5980528249
21
-18.8566928323
0
LINE
5
2E8
100
AcDbEntity
8
0
100
AcDbLine
62
9
6
CONTINUOUS
10
-7.3953457076
20
-22.8371662072
11
-7.3997175416
21
-23.2710186263
0
LINE
5
2E9
100
AcDbEntity
8
0
100
AcDbLine
62
9
6
CONTINUOUS
10
-6.5955622386
20
-16.5323539472
11
-6.7409113704
21
-19.4266810590
0
LINE
5
2EA
100
AcDbEntity
8
0
100
AcDbLine
62
9
6
CONTINUOUS
10
-9.4953457076
20
-7.5530896917
11
-9.7904902742
21
-7.5601663352
0
LINE
5
2EB
100
AcDbEntity
8
0
100
AcDbLine
62
9
6
CONTINUOUS
10
-9.4953457076
20
-7.4508404104
11
-9.7953457076
21
-7.4580334721
0
LINE
5
2EC
100
AcDbEntity
8
0
100
AcDbLine
62
9
6
CONTINUOUS
10
9.2046542924
20
-6.8025217076
11
9.5046542924
21
-6.7953286459
0
LINE
5
2ED
100
AcDbEntity
8
0
100
AcDbLine
62
9
6
CONTINUOUS
10
9.2046542924
20
-6.7002724263
11
9.4997988591
21
-6.6931957827
0
LINE
5
2EE
100
AcDbEntity
8
0
100
AcDbLine
62
7
6
CONTINUOUS
10
-9.6574506946
20
-7.6266810590
11
-9.4953457076
21
-7.6266810590
0
LINE
5
2EF
100
AcDbEntity
8
0
100
AcDbLine
62
7
6
CONTINUOUS
10
9.3667592795
20
-7.6266810590
11
9.2046542924
21
-7.6266810590
0
LINE
5
2F0
100
AcDbEntity
8
0
100
AcDbLine
62
7
6
CONTINUOUS
10
3.8546542924
20
-7.0766810590
11
3.2546542924
21
-7.0766810590
0
LINE
5
2F1
100
AcDbEntity
8
0
100
AcDbLine
62
7
6
CONTINUOUS
10
-3.5453457076
20
-7.0766810590
11
-4.1453457076
21
-7.0766810590
0
LINE
5
2F2
100
AcDbEntity
8
0
100
AcDbLine
62
7
6
CONTINUOUS
10
-9.6574506946
20
-6.6266810590
11
-9.4953457076
21
-6.6266810590
0
LINE
5
2F3
100
AcDbEntity
8
0
100
AcDbLine
62
7
6
CONTINUOUS
10
9.3667592795
20
-6.6266810590
11
9.2046542924
21
-6.6266810590
0
LINE
5
2F4
100
AcDbEntity
8
0
100
AcDbLine
62
9
6
CONTINUOUS
10
9.4997988591
20
-7.5601663352
11
9.2046542924
21
-7.5530896917
0
LINE
5
2F5
100
AcDbEntity
8
0
100
AcDbLine
62
9
6
CONTINUOUS
10
9.5046542924
20
-7.4580334721
11
9.2046542924
21
-7.4508404104
0
LINE
5
2F6
100
AcDbEntity
8
0
100
AcDbLine
62
9
6
CONTINUOUS
10
-9.7953457076
20
-6.7953286459
11
-9.4953457076
21
-6.8025217076
0
LINE
5
2F7
100
AcDbEntity
8
0
100
AcDbLine
62
9
6
CONTINUOUS
10
-9.7904902742
20
-6.6931957827
11
-9.4953457076
21
-6.7002724263
0
LINE
5
2F8
100
AcDbEntity
8
0
100
AcDbLine
62
7
6
CONTINUOUS
10
-4.7057288919
20
-18.8566928323
11
-4.7077566817
21
-16.9642586618
0
LINE
5
2F9
100
AcDbEntity
8
0
100
AcDbLine
62
7
6
CONTINUOUS
10
-5.1453457076
20
-11.2266810590
11
-5.1453457076
21
-11.0766810590
0
LINE
5
2FA
100
AcDbEntity
8
0
100
AcDbLine
62
7
6
CONTINUOUS
10
-4.6767624316
20
-19.3153355488
11
-4.6767624316
21
-19.4266810590
0
LINE
5
2FB
100
AcDbEntity
8
0
100
AcDbLine
62
7
6
CONTINUOUS
10
-4.6479409213
20
-17.2223366643
11
-4.6479409213
21
-19.4266810590
0
LINE
5
2FC
100
AcDbEntity
8
0
100
AcDbLine
62
7
6
CONTINUOUS
10
-4.6453457076
20
13.0865865832
11
-4.6453457076
21
12.9233189410
0
LINE
5
2FD
100
AcDbEntity
8
0
100
AcDbLine
62
7
6
CONTINUOUS
10
-4.5953457076
20
24.5733189410
11
-4.5953457076
21
23.9412638882
0
LINE
5
2FE
100
AcDbEntity
8
0
100
AcDbLine
62
7
6
CONTINUOUS
10
-4.5953457076
20
23.5053739938
11
-4.5953457076
21
22.9733189410
0
LINE
5
2FF
100
AcDbEntity
8
0
100
AcDbLine
62
7
6
CONTINUOUS
10
-4.5953457076
20
-21.8266810590
11
-4.5953457076
21
-22.3587361118
0
LINE
5
300
100
AcDbEntity
8
0
100
AcDbLine
62
7
6
CONTINUOUS
10
-4.5953457076
20
-22.7946260062
11
-4.5953457076
21
-23.4266810590
0
LINE
5
301
100
AcDbEntity
8
0
100
AcDbLine
62
7
6
CONTINUOUS
10
-4.5514234605
20
-23.3805733320
11
-4.5514234605
21
-21.7827588119
0
LINE
5
302
100
AcDbEntity
8
0
100
AcDbLine
62
7
6
CONTINUOUS
10
-4.5514234605
20
22.9293966940
11
-4.5514234605
21
24.5272112141
0
LINE
5
303
100
AcDbEntity
8
0
100
AcDbLine
62
7
6
CONTINUOUS
10
-4.4953457076
20
0.4733189410
11
-4.4953457076
21
0.1733189410
0
LINE
5
304
100
AcDbEntity
8
0
100
AcDbLine
62
9
6
CONTINUOUS
10
-4.3479523444
20
-17.2223366643
11
-4.3479523444
21
-19.4266810590
0
LINE
5
305
100
AcDbEntity
8
0
100
AcDbLine
62
7
6
CONTINUOUS
10
-4.1453457076
20
-11.0766810590
11
-4.1453457076
21
-1.1766810590
0
LINE
5
306
100
AcDbEntity
8
0
100
AcDbLine
62
7
6
CONTINUOUS
10
-4.1453457076
20
1.1233189410
11
-4.1453457076
21
4.8233189410
0
LINE
5
307
100
AcDbEntity
8
0
100
AcDbLine
62
7
6
CONTINUOUS
10
-4.0453457076
20
5.7076566923
11
-4.0453457076
21
4.6233189410
0
LINE
5
308
100
AcDbEntity
8
0
100
AcDbLine
62
7
6
CONTINUOUS
10
-3.6453457076
20
-21.7827741459
11
-3.6453457076
21
-23.4208632292
0
LINE
5
309
100
AcDbEntity
8
0
100
AcDbLine
62
7
6
CONTINUOUS
10
-3.6453457076
20
-14.2063673067
11
-3.6453457076
21
-13.4310444929
0
LINE
5
30A
100
AcDbEntity
8
0
100
AcDbLine
62
7
6
CONTINUOUS
10
-3.6453457076
20
22.9294120279
11
-3.6453457076
21
24.5675011112
0
LINE
5
30B
100
AcDbEntity
8
0
100
AcDbLine
62
7
6
CONTINUOUS
10
-3.5453457076
20
-14.9344560130
11
-3.5453457076
21
-13.5448914007
0
LINE
5
30C
100
AcDbEntity
8
0
100
AcDbLine
62
7
6
CONTINUOUS
10
-3.5453457076
20
-11.5266810590
11
-3.5453457076
21
-2.5266810590
0
LINE
5
30D
100
AcDbEntity
8
0
100
AcDbLine
62
7
6
CONTINUOUS
10
-4.0881193594
20
-15.0314703977
11
-4.1109510039
21
-16.0860385737
0
LINE
5
30E
100
AcDbEntity
8
0
100
AcDbLine
62
7
6
CONTINUOUS
10
-3.8906026934
20
-14.9344560130
11
-3.9102979450
21
-15.8441576992
0
LINE
5
30F
100
AcDbEntity
8
0
100
AcDbLine
62
7
6
CONTINUOUS
10
-9.6574506946
20
1.0733189410
11
-9.7904902742
21
1.0068042173
0
LINE
5
310
100
AcDbEntity
8
0
100
AcDbLine
62
7
6
CONTINUOUS
10
-1.5453457076
20
-5.9266810590
11
1.2546542924
21
-5.9266810590
0
LINE
5
311
100
AcDbEntity
8
0
100
AcDbLine
62
7
6
CONTINUOUS
10
1.1046542924
20
-5.0266810590
11
-1.3953457076
21
-5.0266810590
0
LINE
5
312
100
AcDbEntity
8
0
100
AcDbLine
62
7
6
CONTINUOUS
10
-9.6574506946
20
0.0733189410
11
-9.7904902742
21
0.1398336648
0
LINE
5
313
100
AcDbEntity
8
0
100
AcDbLine
62
9
6
CONTINUOUS
10
6.8538717361
20
-13.4258794642
11
6.7647865927
21
-13.3367943207
0
LINE
5
314
100
AcDbEntity
8
0
100
AcDbLine
62
9
6
CONTINUOUS
10
7.3541466712
20
-12.9261924762
11
7.2647675542
21
-12.8368133592
0
LINE
5
315
100
AcDbEntity
8
0
100
AcDbLine
62
7
6
CONTINUOUS
10
-3.4453457076
20
6.4733189410
11
-3.4453457076
21
4.6233189410
0
LINE
5
316
100
AcDbEntity
8
0
100
AcDbLine
62
7
6
CONTINUOUS
10
-3.1953457076
20
4.6233189410
11
-3.1953457076
21
2.1233189410
0
LINE
5
317
100
AcDbEntity
8
0
100
AcDbLine
62
7
6
CONTINUOUS
10
-3.1453457076
20
-20.2266810590
11
-3.1453457076
21
-21.8208632292
0
LINE
5
318
100
AcDbEntity
8
0
100
AcDbLine
62
7
6
CONTINUOUS
10
-3.1453457076
20
21.3733189410
11
-3.1453457076
21
22.9675011112
0
LINE
5
319
100
AcDbEntity
8
0
100
AcDbLine
62
7
6
CONTINUOUS
10
-2.7703457076
20
7.2233189410
11
-2.7703457076
21
7.8395493962
0
LINE
5
31A
100
AcDbEntity
8
0
100
AcDbLine
62
7
6
CONTINUOUS
10
-2.5453457076
20
-1.1766810590
11
-2.5453457076
21
-2.5266810590
0
LINE
5
31B
100
AcDbEntity
8
0
100
AcDbLine
62
7
6
CONTINUOUS
10
-2.2453457076
20
1.1233189410
11
-2.2453457076
21
0.4733189410
0
LINE
5
31C
100
AcDbEntity
8
0
100
AcDbLine
62
7
6
CONTINUOUS
10
-2.2453457076
20
0.1733189410
11
-2.2453457076
21
-1.1766810590
0
LINE
5
31D
100
AcDbEntity
8
0
100
AcDbLine
62
7
6
CONTINUOUS
10
-2.1953457076
20
6.3733189410
11
-2.1953457076
21
7.5733189410
0
LINE
5
31E
100
AcDbEntity
8
0
100
AcDbLine
62
7
6
CONTINUOUS
10
-3.6949767933
20
-14.9247739929
11
-3.6841929663
21
-14.4266810590
0
LINE
5
31F
100
AcDbEntity
8
0
100
AcDbLine
62
7
6
CONTINUOUS
10
-6.5980528249
20
-18.8566928323
11
-6.6245382435
21
-19.0157466884
0
LINE
5
320
100
AcDbEntity
8
0
100
AcDbLine
62
7
6
CONTINUOUS
10
-9.7007527383
20
-18.8566928323
11
-9.7537276100
21
-19.0157466884
0
LINE
5
321
100
AcDbEntity
8
0
100
AcDbLine
62
7
6
CONTINUOUS
10
-9.7953457076
20
-19.6257207092
11
-9.7586900712
21
-19.5156643727
0
LINE
5
322
100
AcDbEntity
8
0
100
AcDbLine
62
7
6
CONTINUOUS
10
-9.0952393700
20
-20.3266810590
11
-9.0585837336
21
-20.2166247225
0
LINE
5
323
100
AcDbEntity
8
0
100
AcDbLine
62
7
6
CONTINUOUS
10
-3.1953457076
20
2.1233189410
11
-3.6953457076
21
1.6233189410
0
LINE
5
324
100
AcDbEntity
8
0
100
AcDbLine
62
7
6
CONTINUOUS
10
9.3667592795
20
8.4733189410
11
9.4997988591
21
8.5398336648
0
LINE
5
325
100
AcDbEntity
8
0
100
AcDbLine
62
7
6
CONTINUOUS
10
1.2546542924
20
-4.0266810590
11
1.1046542924
21
-4.0266810590
0
LINE
5
326
100
AcDbEntity
8
0
100
AcDbLine
62
7
6
CONTINUOUS
10
-1.3953457076
20
-4.0266810590
11
-1.5453457076
21
-4.0266810590
0
LINE
5
327
100
AcDbEntity
8
0
100
AcDbLine
62
7
6
CONTINUOUS
10
1.1046542924
20
-3.9266810590
11
-1.3953457076
21
-3.9266810590
0
LINE
5
328
100
AcDbEntity
8
0
100
AcDbLine
62
7
6
CONTINUOUS
10
1.1046542924
20
-3.5266810590
11
-1.3953457076
21
-3.5266810590
0
LINE
5
329
100
AcDbEntity
8
0
100
AcDbLine
62
7
6
CONTINUOUS
10
7.2656326254
20
-11.8376593920
11
7.3546542924
21
-11.9266810590
0
LINE
5
32A
100
AcDbEntity
8
0
100
AcDbLine
62
7
6
CONTINUOUS
10
-9.6695871809
20
20.3947762027
11
-9.7953457076
21
20.7723585912
0
LINE
5
32B
100
AcDbEntity
8
0
100
AcDbLine
62
7
6
CONTINUOUS
10
-8.9841371394
20
21.1397411971
11
-9.0952393700
21
21.4733189410
0
LINE
5
32C
100
AcDbEntity
8
0
100
AcDbLine
62
7
6
CONTINUOUS
10
-1.5453457076
20
-4.0266810590
11
-1.5453457076
21
-5.9266810590
0
LINE
5
32D
100
AcDbEntity
8
0
100
AcDbLine
62
7
6
CONTINUOUS
10
-1.3953457076
20
-5.0266810590
11
-1.3953457076
21
-3.5266810590
0
LINE
5
32E
100
AcDbEntity
8
0
100
AcDbLine
62
7
6
CONTINUOUS
10
-1.1453457076
20
24.3674977265
11
-1.1453457076
21
22.9680829054
0
LINE
5
32F
100
AcDbEntity
8
0
100
AcDbLine
62
7
6
CONTINUOUS
10
-1.1453457076
20
-21.8214450234
11
-1.1453457076
21
-23.2208598445
0
LINE
5
330
100
AcDbEntity
8
0
100
AcDbLine
62
7
6
CONTINUOUS
10
-3.6841929663
20
-14.4266810590
11
-3.6453457076
21
-14.2063673067
0
LINE
5
331
100
AcDbEntity
8
0
100
AcDbLine
62
7
6
CONTINUOUS
10
-3.5453457076
20
-2.5266810590
11
-2.5453457076
21
-2.5266810590
0
LINE
5
332
100
AcDbEntity
8
0
100
AcDbLine
62
7
6
CONTINUOUS
10
3.2546542924
20
-2.5266810590
11
2.2546542924
21
-2.5266810590
0
LINE
5
333
100
AcDbEntity
8
0
100
AcDbLine
62
7
6
CONTINUOUS
10
-6.0453457076
20
-1.1766810590
11
-2.2453457076
21
-1.1766810590
0
LINE
5
334
100
AcDbEntity
8
0
100
AcDbLine
62
7
6
CONTINUOUS
10
1.9546542924
20
-1.1766810590
11
5.7546542924
21
-1.1766810590
0
LINE
5
335
100
AcDbEntity
8
0
100
AcDbLine
62
7
6
CONTINUOUS
10
9.3667592795
20
-6.6266810590
11
9.4997988591
21
-6.6931957827
0
LINE
5
336
100
AcDbEntity
8
0
100
AcDbLine
62
7
6
CONTINUOUS
10
0.8546542924
20
24.3674977265
11
0.8546542924
21
22.9680829054
0
LINE
5
337
100
AcDbEntity
8
0
100
AcDbLine
62
7
6
CONTINUOUS
10
0.8546542924
20
-21.8214450234
11
0.8546542924
21
-23.2208598445
0
LINE
5
338
100
AcDbEntity
8
0
100
AcDbLine
62
7
6
CONTINUOUS
10
1.1046542924
20
-5.0266810590
11
1.1046542924
21
-3.5266810590
0
LINE
5
339
100
AcDbEntity
8
0
100
AcDbLine
62
7
6
CONTINUOUS
10
1.2546542924
20
-5.9266810590
11
1.2546542924
21
-4.0266810590
0
LINE
5
33A
100
AcDbEntity
8
0
100
AcDbLine
62
7
6
CONTINUOUS
10
1.9046542924
20
7.5733189410
11
1.9046542924
21
6.3733189410
0
LINE
5
33B
100
AcDbEntity
8
0
100
AcDbLine
62
7
6
CONTINUOUS
10
1.9546542924
20
1.1233189410
11
1.9546542924
21
0.4733189410
0
LINE
5
33C
100
AcDbEntity
8
0
100
AcDbLine
62
7
6
CONTINUOUS
10
1.9546542924
20
0.1733189410
11
1.9546542924
21
-1.1766810590
0
LINE
5
33D
100
AcDbEntity
8
0
100
AcDbLine
62
7
6
CONTINUOUS
10
8.6934457243
20
21.1397411971
11
8.8045479549
21
21.4733189410
0
LINE
5
33E
100
AcDbEntity
8
0
100
AcDbLine
62
9
6
CONTINUOUS
10
-9.4953457076
20
0.1469103083
11
-9.7904902742
21
0.1398336648
0
LINE
5
33F
100
AcDbEntity
8
0
100
AcDbLine
62
9
6
CONTINUOUS
10
-9.4953457076
20
0.2491595896
11
-9.7953457076
21
0.2419665279
0
LINE
5
340
100
AcDbEntity
8
0
100
AcDbLine
62
9
6
CONTINUOUS
10
9.2052735144
20
0.8974931394
11
9.5046542924
21
0.9046713541
0
LINE
5
341
100
AcDbEntity
8
0
100
AcDbLine
62
9
6
CONTINUOUS
10
9.2046542924
20
0.9997275737
11
9.4997988591
21
1.0068042173
0
LINE
5
342
100
AcDbEntity
8
0
100
AcDbLine
62
7
6
CONTINUOUS
10
-9.6574506946
20
0.0733189410
11
-9.4953457076
21
0.0733189410
0
LINE
5
343
100
AcDbEntity
8
0
100
AcDbLine
62
7
6
CONTINUOUS
10
9.3667592795
20
0.0733189410
11
9.2046542924
21
0.0733189410
0
LINE
5
344
100
AcDbEntity
8
0
100
AcDbLine
62
7
6
CONTINUOUS
10
-4.4953457076
20
0.1733189410
11
4.2046542924
21
0.1733189410
0
LINE
5
345
100
AcDbEntity
8
0
100
AcDbLine
62
7
6
CONTINUOUS
10
-4.4953457076
20
0.4733189410
11
4.2046542924
21
0.4733189410
0
LINE
5
346
100
AcDbEntity
8
0
100
AcDbLine
62
9
6
CONTINUOUS
10
9.4997988591
20
0.1398336648
11
9.2046542924
21
0.1469103083
0
LINE
5
347
100
AcDbEntity
8
0
100
AcDbLine
62
9
6
CONTINUOUS
10
9.5046542924
20
0.2419665279
11
9.2046542924
21
0.2491595896
0
LINE
5
348
100
AcDbEntity
8
0
100
AcDbLine
62
9
6
CONTINUOUS
10
-9.7953457076
20
0.9046713541
11
-9.4959649295
21
0.8974931394
0
LINE
5
349
100
AcDbEntity
8
0
100
AcDbLine
62
9
6
CONTINUOUS
10
-9.7904902742
20
1.0068042173
11
-9.4953457076
21
0.9997275737
0
LINE
5
34A
100
AcDbEntity
8
0
100
AcDbLine
62
7
6
CONTINUOUS
10
8.8045479549
20
-20.3266810590
11
8.7678923185
21
-20.2166247225
0
LINE
5
34B
100
AcDbEntity
8
0
100
AcDbLine
62
7
6
CONTINUOUS
10
3.3935015512
20
-14.4266810590
11
3.3546542924
21
-14.2063673067
0
LINE
5
34C
100
AcDbEntity
8
0
100
AcDbLine
62
7
6
CONTINUOUS
10
3.4042853782
20
-14.9247739929
11
3.3935015512
21
-14.4266810590
0
LINE
5
34D
100
AcDbEntity
8
0
100
AcDbLine
62
7
6
CONTINUOUS
10
3.5999112783
20
-14.9344560130
11
3.6196065299
21
-15.8441576992
0
LINE
5
34E
100
AcDbEntity
8
0
100
AcDbLine
62
7
6
CONTINUOUS
10
3.7974279442
20
-15.0314703977
11
3.8202595888
21
-16.0860385737
0
LINE
5
34F
100
AcDbEntity
8
0
100
AcDbLine
62
7
6
CONTINUOUS
10
2.2546542924
20
-1.1766810590
11
2.2546542924
21
-2.5266810590
0
LINE
5
350
100
AcDbEntity
8
0
100
AcDbLine
62
7
6
CONTINUOUS
10
2.4796542924
20
7.2233189410
11
2.4796542924
21
7.8395493962
0
LINE
5
351
100
AcDbEntity
8
0
100
AcDbLine
62
7
6
CONTINUOUS
10
2.8546542924
20
-20.2266810590
11
2.8546542924
21
-21.8208632292
0
LINE
5
352
100
AcDbEntity
8
0
100
AcDbLine
62
7
6
CONTINUOUS
10
2.8546542924
20
21.3733189410
11
2.8546542924
21
22.9675011112
0
LINE
5
353
100
AcDbEntity
8
0
100
AcDbLine
62
7
6
CONTINUOUS
10
2.9046542924
20
2.1233189410
11
2.9046542924
21
4.6233189410
0
LINE
5
354
100
AcDbEntity
8
0
100
AcDbLine
62
7
6
CONTINUOUS
10
3.1546542924
20
4.6233189410
11
3.1546542924
21
6.4733189410
0
LINE
5
355
100
AcDbEntity
8
0
100
AcDbLine
62
7
6
CONTINUOUS
10
3.2546542924
20
-13.5448914007
11
3.2546542924
21
-14.9344560130
0
LINE
5
356
100
AcDbEntity
8
0
100
AcDbLine
62
7
6
CONTINUOUS
10
3.2546542924
20
-11.5266810590
11
3.2546542924
21
-2.5266810590
0
LINE
5
357
100
AcDbEntity
8
0
100
AcDbLine
62
7
6
CONTINUOUS
10
3.3546542924
20
-21.7827741459
11
3.3546542924
21
-23.4208632292
0
LINE
5
358
100
AcDbEntity
8
0
100
AcDbLine
62
7
6
CONTINUOUS
10
3.3546542924
20
-14.2063673067
11
3.3546542924
21
-13.4310444929
0
LINE
5
359
100
AcDbEntity
8
0
100
AcDbLine
62
7
6
CONTINUOUS
10
3.3546542924
20
22.9294120279
11
3.3546542924
21
24.5675011112
0
LINE
5
35A
100
AcDbEntity
8
0
100
AcDbLine
62
7
6
CONTINUOUS
10
3.7546542924
20
4.6233189410
11
3.7546542924
21
5.7076566923
0
LINE
5
35B
100
AcDbEntity
8
0
100
AcDbLine
62
7
6
CONTINUOUS
10
3.8546542924
20
-11.0766810590
11
3.8546542924
21
-1.1766810590
0
LINE
5
35C
100
AcDbEntity
8
0
100
AcDbLine
62
7
6
CONTINUOUS
10
3.8546542924
20
1.1233189410
11
3.8546542924
21
4.8233189410
0
LINE
5
35D
100
AcDbEntity
8
0
100
AcDbLine
62
7
6
CONTINUOUS
10
9.3788957658
20
20.3947762027
11
9.5046542924
21
20.7723585912
0
LINE
5
35E
100
AcDbEntity
8
0
100
AcDbLine
62
7
6
CONTINUOUS
10
-9.7904902742
20
-6.6931957827
11
-9.6574506946
21
-6.6266810590
0
LINE
5
35F
100
AcDbEntity
8
0
100
AcDbLine
62
9
6
CONTINUOUS
10
-9.4953457076
20
0.9233189410
11
-6.0453457076
21
0.9233189410
0
LINE
5
360
100
AcDbEntity
8
0
100
AcDbLine
62
9
6
CONTINUOUS
10
5.7546542924
20
0.9233189410
11
9.2046542924
21
0.9233189410
0
LINE
5
361
100
AcDbEntity
8
0
100
AcDbLine
62
7
6
CONTINUOUS
10
-9.6574506946
20
1.0733189410
11
-9.4953457076
21
1.0733189410
0
LINE
5
362
100
AcDbEntity
8
0
100
AcDbLine
62
7
6
CONTINUOUS
10
9.3667592795
20
1.0733189410
11
9.2046542924
21
1.0733189410
0
LINE
5
363
100
AcDbEntity
8
0
100
AcDbLine
62
7
6
CONTINUOUS
10
5.7546542924
20
1.1233189410
11
-6.0453457076
21
1.1233189410
0
LINE
5
364
100
AcDbEntity
8
0
100
AcDbLine
62
7
6
CONTINUOUS
10
-9.4953457076
20
1.2233189410
11
-4.1453457076
21
1.2233189410
0
LINE
5
365
100
AcDbEntity
8
0
100
AcDbLine
62
7
6
CONTINUOUS
10
3.8546542924
20
1.2233189410
11
9.2046542924
21
1.2233189410
0
LINE
5
366
100
AcDbEntity
8
0
100
AcDbLine
62
9
6
CONTINUOUS
10
9.2046542924
20
1.5233189410
11
3.8546542924
21
1.5233189410
0
LINE
5
367
100
AcDbEntity
8
0
100
AcDbLine
62
9
6
CONTINUOUS
10
-4.1453457076
20
1.5233189410
11
-9.4953457076
21
1.5233189410
0
LINE
5
368
100
AcDbEntity
8
0
100
AcDbLine
62
7
6
CONTINUOUS
10
3.8546542924
20
1.6233189410
11
3.4046542924
21
1.6233189410
0
LINE
5
369
100
AcDbEntity
8
0
100
AcDbLine
62
7
6
CONTINUOUS
10
-3.6953457076
20
1.6233189410
11
-4.1453457076
21
1.6233189410
0
LINE
5
36A
100
AcDbEntity
8
0
100
AcDbLine
62
7
6
CONTINUOUS
10
-9.6574506946
20
8.4733189410
11
-9.7904902742
21
8.5398336648
0
LINE
5
36B
100
AcDbEntity
8
0
100
AcDbLine
62
7
6
CONTINUOUS
10
3.4046542924
20
1.6233189410
11
2.9046542924
21
2.1233189410
0
LINE
5
36C
100
AcDbEntity
8
0
100
AcDbLine
62
7
6
CONTINUOUS
10
9.5046542924
20
-19.6257207092
11
9.4679986561
21
-19.5156643727
0
LINE
5
36D
100
AcDbEntity
8
0
100
AcDbLine
62
7
6
CONTINUOUS
10
9.4100613232
20
-18.8566928323
11
9.4630361949
21
-19.0157466884
0
LINE
5
36E
100
AcDbEntity
8
0
100
AcDbLine
62
7
6
CONTINUOUS
10
6.3073614098
20
-18.8566928323
11
6.3338468284
21
-19.0157466884
0
LINE
5
36F
100
AcDbEntity
8
0
100
AcDbLine
62
9
6
CONTINUOUS
10
6.4502199553
20
-19.4266810590
11
6.3048708235
21
-16.5323539472
0
LINE
5
370
100
AcDbEntity
8
0
100
AcDbLine
62
9
6
CONTINUOUS
10
4.0572609293
20
-17.2223366643
11
4.0572609293
21
-19.4266810590
0
LINE
5
371
100
AcDbEntity
8
0
100
AcDbLine
62
7
6
CONTINUOUS
10
4.2046542924
20
0.4733189410
11
4.2046542924
21
0.1733189410
0
LINE
5
372
100
AcDbEntity
8
0
100
AcDbLine
62
7
6
CONTINUOUS
10
4.2607320454
20
-23.3805733320
11
4.2607320454
21
-21.7827588119
0
LINE
5
373
100
AcDbEntity
8
0
100
AcDbLine
62
7
6
CONTINUOUS
10
4.2607320454
20
22.9293966940
11
4.2607320454
21
24.5272112141
0
LINE
5
374
100
AcDbEntity
8
0
100
AcDbLine
62
7
6
CONTINUOUS
10
4.3046542924
20
-23.4266810590
11
4.3046542924
21
-22.7946260062
0
LINE
5
375
100
AcDbEntity
8
0
100
AcDbLine
62
7
6
CONTINUOUS
10
4.3046542924
20
-22.3587361118
11
4.3046542924
21
-21.8266810590
0
LINE
5
376
100
AcDbEntity
8
0
100
AcDbLine
62
7
6
CONTINUOUS
10
4.3046542924
20
22.9733189410
11
4.3046542924
21
23.5053739938
0
LINE
5
377
100
AcDbEntity
8
0
100
AcDbLine
62
7
6
CONTINUOUS
10
4.3046542924
20
23.9412638882
11
4.3046542924
21
24.5733189410
0
LINE
5
378
100
AcDbEntity
8
0
100
AcDbLine
62
7
6
CONTINUOUS
10
4.3546542924
20
12.9233189410
11
4.3546542924
21
13.0865865832
0
LINE
5
379
100
AcDbEntity
8
0
100
AcDbLine
62
7
6
CONTINUOUS
10
4.3572495062
20
-17.2223366643
11
4.3572495062
21
-19.4266810590
0
LINE
5
37A
100
AcDbEntity
8
0
100
AcDbLine
62
7
6
CONTINUOUS
10
4.3860710165
20
-19.3153355488
11
4.3860710165
21
-19.4266810590
0
LINE
5
37B
100
AcDbEntity
8
0
100
AcDbLine
62
7
6
CONTINUOUS
10
4.8546542924
20
-11.0766810590
11
4.8546542924
21
-11.2266810590
0
LINE
5
37C
100
AcDbEntity
8
0
100
AcDbLine
62
7
6
CONTINUOUS
10
5.3546542924
20
-11.2266810590
11
5.3546542924
21
-11.5266810590
0
LINE
5
37D
100
AcDbEntity
8
0
100
AcDbLine
62
7
6
CONTINUOUS
10
5.3546542924
20
12.9233189410
11
5.3546542924
21
13.0865865832
0
LINE
5
37E
100
AcDbEntity
8
0
100
AcDbLine
62
7
6
CONTINUOUS
10
4.4150374768
20
-18.8566928323
11
4.4170652666
21
-16.9642586618
0
LINE
5
37F
100
AcDbEntity
8
0
100
AcDbLine
62
9
6
CONTINUOUS
10
6.4502199553
20
20.5733189410
11
6.2886047083
21
17.3550858136
0
LINE
5
380
100
AcDbEntity
8
0
100
AcDbLine
62
7
6
CONTINUOUS
10
-7.5563240406
20
-11.8376593920
11
-7.6453457076
21
-11.9266810590
0
LINE
5
381
100
AcDbEntity
8
0
100
AcDbLine
62
9
6
CONTINUOUS
10
-7.6448380863
20
-12.9261924762
11
-7.5554589693
21
-12.8368133592
0
LINE
5
382
100
AcDbEntity
8
0
100
AcDbLine
62
9
6
CONTINUOUS
10
-7.1445631512
20
-13.4258794642
11
-7.0554780078
21
-13.3367943207
0
LINE
5
383
100
AcDbEntity
8
0
100
AcDbLine
62
7
6
CONTINUOUS
10
9.3667592795
20
0.0733189410
11
9.4997988591
21
0.1398336648
0
LINE
5
384
100
AcDbEntity
8
0
100
AcDbLine
62
7
6
CONTINUOUS
10
-3.1953457076
20
3.8733189410
11
2.9046542924
21
3.8733189410
0
LINE
5
385
100
AcDbEntity
8
0
100
AcDbLine
62
7
6
CONTINUOUS
10
9.3667592795
20
1.0733189410
11
9.4997988591
21
1.0068042173
0
LINE
5
386
100
AcDbEntity
8
0
100
AcDbLine
62
9
6
CONTINUOUS
10
7.1090261264
20
-23.2710186263
11
7.1046542924
21
-22.8371662072
0
LINE
5
387
100
AcDbEntity
8
0
100
AcDbLine
62
9
6
CONTINUOUS
10
7.3590218957
20
-23.0545122753
11
7.3539312946
21
-22.5493307898
0
LINE
5
388
100
AcDbEntity
8
0
100
AcDbLine
62
7
6
CONTINUOUS
10
6.3048708235
20
-16.5323539472
11
6.3073614098
21
-18.8566928323
0
LINE
5
389
100
AcDbEntity
8
0
100
AcDbLine
62
7
6
CONTINUOUS
10
5.7546542924
20
1.1233189410
11
5.7546542924
21
-1.1766810590
0
LINE
5
38A
100
AcDbEntity
8
0
100
AcDbLine
62
9
6
CONTINUOUS
10
6.0546542924
20
-12.3266810590
11
6.0546542924
21
-12.6266810590
0
LINE
5
38B
100
AcDbEntity
8
0
100
AcDbLine
62
7
6
CONTINUOUS
10
6.3363278701
20
-19.4266810590
11
6.3363278701
21
-19.3153355488
0
LINE
5
38C
100
AcDbEntity
8
0
100
AcDbLine
62
7
6
CONTINUOUS
10
6.3546542924
20
-11.5266810590
11
6.3546542924
21
-11.7266810590
0
LINE
5
38D
100
AcDbEntity
8
0
100
AcDbLine
62
7
6
CONTINUOUS
10
6.3546542924
20
-12.9266810590
11
6.3546542924
21
-13.3394123811
0
LINE
5
38E
100
AcDbEntity
8
0
100
AcDbLine
62
9
6
CONTINUOUS
10
6.6546542924
20
-12.9266810590
11
6.6546542924
21
-13.3367943207
0
LINE
5
38F
100
AcDbEntity
8
0
100
AcDbLine
62
7
6
CONTINUOUS
10
7.0586587467
20
21.4733189410
11
7.0586587467
21
20.5818791675
0
LINE
5
390
100
AcDbEntity
8
0
100
AcDbLine
62
7
6
CONTINUOUS
10
7.0586587467
20
-19.4352412855
11
7.0586587467
21
-20.3266810590
0
LINE
5
391
100
AcDbEntity
8
0
100
AcDbLine
62
7
6
CONTINUOUS
10
7.1046542924
20
-22.0268945493
11
7.1046542924
21
-23.2710186263
0
LINE
5
392
100
AcDbEntity
8
0
100
AcDbLine
62
7
6
CONTINUOUS
10
7.1046542924
20
23.1735324313
11
7.1046542924
21
24.4176565083
0
LINE
5
393
100
AcDbEntity
8
0
100
AcDbLine
62
7
6
CONTINUOUS
10
7.1090261264
20
24.8189513378
11
7.1090261264
21
24.4176565083
0
LINE
5
394
100
AcDbEntity
8
0
100
AcDbLine
62
7
6
CONTINUOUS
10
7.1090261264
20
-23.2710186263
11
7.1090261264
21
-23.6723134558
0
LINE
5
395
100
AcDbEntity
8
0
100
AcDbLine
62
7
6
CONTINUOUS
10
7.1729807148
20
-19.3153355488
11
7.1729807148
21
-20.2166247225
0
LINE
5
396
100
AcDbEntity
8
0
100
AcDbLine
62
7
6
CONTINUOUS
10
7.2647675542
20
-12.8368133592
11
7.2647675542
21
-11.7376631997
0
LINE
5
397
100
AcDbEntity
8
0
100
AcDbLine
62
7
6
CONTINUOUS
10
7.3546542924
20
-11.9266810590
11
7.3546542924
21
-11.9399487011
0
LINE
5
398
100
AcDbEntity
8
0
100
AcDbLine
62
9
6
CONTINUOUS
10
7.3590218957
20
-23.0545122753
11
7.3590218957
21
-23.9223092250
0
LINE
5
399
100
AcDbEntity
8
0
100
AcDbLine
62
9
6
CONTINUOUS
10
7.3590218957
20
24.2011501574
11
7.3590218957
21
25.0689471070
0
LINE
5
39A
100
AcDbEntity
8
0
100
AcDbLine
62
9
6
CONTINUOUS
10
7.4212999467
20
21.9093058897
11
7.4212999467
21
21.4733189410
0
LINE
5
39B
100
AcDbEntity
8
0
100
AcDbLine
62
9
6
CONTINUOUS
10
7.4212999467
20
-20.3266810590
11
7.4212999467
21
-20.7626680076
0
LINE
5
39C
100
AcDbEntity
8
0
100
AcDbLine
62
7
6
CONTINUOUS
10
7.2044377614
20
-16.5323539472
11
7.2019471751
21
-18.8566928323
0
LINE
5
39D
100
AcDbEntity
8
0
100
AcDbLine
62
9
6
CONTINUOUS
10
7.1046542924
20
23.9838040892
11
7.1090261264
21
24.4176565083
0
LINE
5
39E
100
AcDbEntity
8
0
100
AcDbLine
62
9
6
CONTINUOUS
10
7.3539312946
20
23.6959686718
11
7.3590218957
21
24.2011501574
0
LINE
5
39F
100
AcDbEntity
8
0
100
AcDbLine
62
7
6
CONTINUOUS
10
4.4150374768
20
-18.8566928323
11
4.3885520581
21
-19.0157466884
0
LINE
5
3A0
100
AcDbEntity
8
0
100
AcDbLine
62
7
6
CONTINUOUS
10
-4.0453457076
20
4.6233189410
11
-3.1953457076
21
4.6233189410
0
LINE
5
3A1
100
AcDbEntity
8
0
100
AcDbLine
62
7
6
CONTINUOUS
10
2.9046542924
20
4.6233189410
11
3.7546542924
21
4.6233189410
0
LINE
5
3A2
100
AcDbEntity
8
0
100
AcDbLine
62
7
6
CONTINUOUS
10
-3.4453457076
20
6.3733189410
11
-2.1953457076
21
6.3733189410
0
LINE
5
3A3
100
AcDbEntity
8
0
100
AcDbLine
62
7
6
CONTINUOUS
10
1.9046542924
20
6.3733189410
11
3.1546542924
21
6.3733189410
0
LINE
5
3A4
100
AcDbEntity
8
0
100
AcDbLine
62
7
6
CONTINUOUS
10
9.3667592795
20
-15.6266810590
11
9.4041136200
21
-16.0815582082
0
LINE
5
3A5
100
AcDbEntity
8
0
100
AcDbLine
62
9
6
CONTINUOUS
10
7.0586587467
20
20.5818791675
11
7.2207038766
21
17.3550858136
0
LINE
5
3A6
100
AcDbEntity
8
0
100
AcDbLine
62
7
6
CONTINUOUS
10
9.4041136200
20
-16.0815582082
11
9.4100613232
21
-18.8566928323
0
LINE
5
3A7
100
AcDbEntity
8
0
100
AcDbLine
62
9
6
CONTINUOUS
10
7.9212237943
20
22.0270543682
11
7.9212237943
21
21.4733189410
0
LINE
5
3A8
100
AcDbEntity
8
0
100
AcDbLine
62
9
6
CONTINUOUS
10
7.9212237943
20
-20.3266810590
11
7.9212237943
21
-20.8804164861
0
LINE
5
3A9
100
AcDbEntity
8
0
100
AcDbLine
62
7
6
CONTINUOUS
10
8.1046542924
20
21.9733189410
11
8.1046542924
21
21.4733189410
0
LINE
5
3AA
100
AcDbEntity
8
0
100
AcDbLine
62
7
6
CONTINUOUS
10
8.1046542924
20
-20.3266810590
11
8.1046542924
21
-20.8266810590
0
LINE
5
3AB
100
AcDbEntity
8
0
100
AcDbLine
62
7
6
CONTINUOUS
10
8.2664908021
20
-11.9399487011
11
8.2664908021
21
-14.9266810590
0
LINE
5
3AC
100
AcDbEntity
8
0
100
AcDbLine
62
9
6
CONTINUOUS
10
8.4210634687
20
-11.8376593920
11
8.4210634687
21
-11.5266810590
0
LINE
5
3AD
100
AcDbEntity
8
0
100
AcDbLine
62
9
6
CONTINUOUS
10
8.7029712550
20
-11.7388116203
11
8.7029712550
21
-11.5266810590
0
LINE
5
3AE
100
AcDbEntity
8
0
100
AcDbLine
62
7
6
CONTINUOUS
10
8.7546542924
20
-11.5266810590
11
8.7546542924
21
-11.0766810590
0
LINE
5
3AF
100
AcDbEntity
8
0
100
AcDbLine
62
7
6
CONTINUOUS
10
9.2046542924
20
12.6233189410
11
9.2046542924
21
-11.0766810590
0
LINE
5
3B0
100
AcDbEntity
8
0
100
AcDbLine
62
7
6
CONTINUOUS
10
9.3046542924
20
-15.2322198585
11
9.3046542924
21
-15.8396773337
0
LINE
5
3B1
100
AcDbEntity
8
0
100
AcDbLine
62
7
6
CONTINUOUS
10
9.3546542924
20
-15.4266239457
11
9.3546542924
21
-15.6266810590
0
LINE
5
3B2
100
AcDbEntity
8
0
100
AcDbLine
62
7
6
CONTINUOUS
10
9.3667592795
20
-15.6266810590
11
9.3667592795
21
-11.9266810590
0
LINE
5
3B3
100
AcDbEntity
8
0
100
AcDbLine
62
7
6
CONTINUOUS
10
9.3667592795
20
-10.9266810590
11
9.3667592795
21
-7.6266810590
0
LINE
5
3B4
100
AcDbEntity
8
0
100
AcDbLine
62
7
6
CONTINUOUS
10
9.3667592795
20
-6.6266810590
11
9.3667592795
21
0.0733189410
0
LINE
5
3B5
100
AcDbEntity
8
0
100
AcDbLine
62
7
6
CONTINUOUS
10
9.3667592795
20
1.0733189410
11
9.3667592795
21
8.4733189410
0
LINE
5
3B6
100
AcDbEntity
8
0
100
AcDbLine
62
7
6
CONTINUOUS
10
9.3667592795
20
9.4733189410
11
9.3667592795
21
13.0865865832
0
LINE
5
3B7
100
AcDbEntity
8
0
100
AcDbLine
62
7
6
CONTINUOUS
10
7.9118806406
20
-15.0314703977
11
7.8891459971
21
-16.0815582082
0
LINE
5
3B8
100
AcDbEntity
8
0
100
AcDbLine
62
7
6
CONTINUOUS
10
8.1093973066
20
-14.9344560130
11
8.0897990560
21
-15.8396773337
0
LINE
5
3B9
100
AcDbEntity
8
0
100
AcDbLine
62
9
6
CONTINUOUS
10
7.0586587467
20
-19.4352412855
11
7.2044377614
21
-16.5323539472
0
LINE
5
3BA
100
AcDbEntity
8
0
100
AcDbLine
62
7
6
CONTINUOUS
10
-4.1109510039
20
-16.0860385737
11
-3.9102979450
21
-15.8441576992
0
LINE
5
3BB
100
AcDbEntity
8
0
100
AcDbLine
62
7
6
CONTINUOUS
10
-9.6574506946
20
-10.9266810590
11
-9.7953457076
21
-10.9726419145
0
LINE
5
3BC
100
AcDbEntity
8
0
100
AcDbLine
62
7
6
CONTINUOUS
10
-3.7874985607
20
6.4733189410
11
-3.4453457076
21
6.4733189410
0
LINE
5
3BD
100
AcDbEntity
8
0
100
AcDbLine
62
7
6
CONTINUOUS
10
3.1546542924
20
6.4733189410
11
3.4968071456
21
6.4733189410
0
LINE
5
3BE
100
AcDbEntity
8
0
100
AcDbLine
62
7
6
CONTINUOUS
10
-3.3447788719
20
7.2233189410
11
-2.7703457076
21
7.2233189410
0
LINE
5
3BF
100
AcDbEntity
8
0
100
AcDbLine
62
7
6
CONTINUOUS
10
2.4796542924
20
7.2233189410
11
3.0540874568
21
7.2233189410
0
LINE
5
3C0
100
AcDbEntity
8
0
100
AcDbLine
62
7
6
CONTINUOUS
10
2.4796542924
20
7.5733189410
11
-2.7703457076
21
7.5733189410
0
LINE
5
3C1
100
AcDbEntity
8
0
100
AcDbLine
62
7
6
CONTINUOUS
10
2.1124699837
20
8.1233189410
11
-2.4031613988
21
8.1233189410
0
LINE
5
3C2
100
AcDbEntity
8
0
100
AcDbLine
62
7
6
CONTINUOUS
10
10.9963637680
20
-20.4493307898
11
11.0050906358
21
-21.0266810590
0
LINE
5
3C3
100
AcDbEntity
8
0
100
AcDbLine
62
9
6
CONTINUOUS
10
9.7502866892
20
24.2011501574
11
9.7553772903
21
23.6959686718
0
LINE
5
3C4
100
AcDbEntity
8
0
100
AcDbLine
62
9
6
CONTINUOUS
10
10.0002824584
20
24.4176565083
11
10.0046542924
21
23.9838040892
0
LINE
5
3C5
100
AcDbEntity
8
0
100
AcDbLine
62
7
6
CONTINUOUS
10
9.4679986561
20
-19.5156643727
11
9.4679986561
21
-19.3153355488
0
LINE
5
3C6
100
AcDbEntity
8
0
100
AcDbLine
62
7
6
CONTINUOUS
10
9.5046542924
20
20.7723585912
11
9.5046542924
21
-19.6257207092
0
LINE
5
3C7
100
AcDbEntity
8
0
100
AcDbLine
62
9
6
CONTINUOUS
10
9.7502866892
20
-23.0545122753
11
9.7502866892
21
-23.9223092250
0
LINE
5
3C8
100
AcDbEntity
8
0
100
AcDbLine
62
9
6
CONTINUOUS
10
9.7502866892
20
24.2011501574
11
9.7502866892
21
25.0689471070
0
LINE
5
3C9
100
AcDbEntity
8
0
100
AcDbLine
62
7
6
CONTINUOUS
10
10.0002824584
20
-23.6723134558
11
10.0002824584
21
-23.2710186263
0
LINE
5
3CA
100
AcDbEntity
8
0
100
AcDbLine
62
7
6
CONTINUOUS
10
10.0002824584
20
24.4176565083
11
10.0002824584
21
24.8189513378
0
LINE
5
3CB
100
AcDbEntity
8
0
100
AcDbLine
62
7
6
CONTINUOUS
10
10.0046542924
20
-22.0268945493
11
10.0046542924
21
-23.2710186263
0
LINE
5
3CC
100
AcDbEntity
8
0
100
AcDbLine
62
7
6
CONTINUOUS
10
10.0046542924
20
23.1735324313
11
10.0046542924
21
24.4176565083
0
LINE
5
3CD
100
AcDbEntity
8
0
100
AcDbLine
62
7
6
CONTINUOUS
10
10.9963637680
20
22.4675180342
11
10.9963637680
21
21.5959686718
0
LINE
5
3CE
100
AcDbEntity
8
0
100
AcDbLine
62
7
6
CONTINUOUS
10
10.9963637680
20
-20.4493307898
11
10.9963637680
21
-21.3208801522
0
LINE
5
3CF
100
AcDbEntity
8
0
100
AcDbLine
62
7
6
CONTINUOUS
10
11.0050906358
20
22.4733358641
11
11.0050906358
21
22.1733189410
0
LINE
5
3D0
100
AcDbEntity
8
0
100
AcDbLine
62
7
6
CONTINUOUS
10
11.0050906358
20
-21.3266979820
11
11.0050906358
21
-21.0266810590
0
LINE
5
3D1
100
AcDbEntity
8
0
100
AcDbLine
62
7
6
CONTINUOUS
10
11.0212366041
20
21.5959686718
11
11.0212366041
21
-20.4493307898
0
LINE
5
3D2
100
AcDbEntity
8
0
100
AcDbLine
62
9
6
CONTINUOUS
10
9.7553772903
20
-22.5493307898
11
9.7502866892
21
-23.0545122753
0
LINE
5
3D3
100
AcDbEntity
8
0
100
AcDbLine
62
9
6
CONTINUOUS
10
10.0046542924
20
-22.8371662072
11
10.0002824584
21
-23.2710186263
0
LINE
5
3D4
100
AcDbEntity
8
0
100
AcDbLine
62
7
6
CONTINUOUS
10
10.9963637680
20
21.5959686718
11
11.0050906358
21
22.1733189410
0
LINE
5
3D5
100
AcDbEntity
8
0
100
AcDbLine
62
7
6
CONTINUOUS
10
9.3546542924
20
-15.6266810590
11
9.3371631184
21
-15.8396773337
0
LINE
5
3D6
100
AcDbEntity
8
0
100
AcDbLine
62
7
6
CONTINUOUS
10
7.2019471751
20
-18.8566928323
11
7.1754617565
21
-19.0157466884
0
LINE
5
3D7
100
AcDbEntity
8
0
100
AcDbLine
62
7
6
CONTINUOUS
10
7.1546542924
20
-20.3266810590
11
7.1729807148
21
-20.2166247225
0
LINE
5
3D8
100
AcDbEntity
8
0
100
AcDbLine
62
9
6
CONTINUOUS
10
-9.7904902742
20
8.5398336648
11
-9.4953457076
21
8.5469103083
0
LINE
5
3D9
100
AcDbEntity
8
0
100
AcDbLine
62
9
6
CONTINUOUS
10
-9.7953457076
20
8.6419665279
11
-9.4953457076
21
8.6491595896
0
LINE
5
3DA
100
AcDbEntity
8
0
100
AcDbLine
62
9
6
CONTINUOUS
10
9.5046542924
20
9.3046713541
11
9.2046542924
21
9.2974782924
0
LINE
5
3DB
100
AcDbEntity
8
0
100
AcDbLine
62
9
6
CONTINUOUS
10
9.4997988591
20
9.4068042173
11
9.2046542924
21
9.3997275737
0
LINE
5
3DC
100
AcDbEntity
8
0
100
AcDbLine
62
7
6
CONTINUOUS
10
-9.6574506946
20
8.4733189410
11
-9.4953457076
21
8.4733189410
0
LINE
5
3DD
100
AcDbEntity
8
0
100
AcDbLine
62
7
6
CONTINUOUS
10
9.3667592795
20
8.4733189410
11
9.2046542924
21
8.4733189410
0
LINE
5
3DE
100
AcDbEntity
8
0
100
AcDbLine
62
9
6
CONTINUOUS
10
-9.7953457076
20
9.3733189410
11
-9.4953457076
21
9.3733189410
0
LINE
5
3DF
100
AcDbEntity
8
0
100
AcDbLine
62
7
6
CONTINUOUS
10
-9.7904757390
20
9.4733189410
11
-9.4953457076
21
9.4733189410
0
LINE
5
3E0
100
AcDbEntity
8
0
100
AcDbLine
62
7
6
CONTINUOUS
10
9.3667592795
20
9.4733189410
11
9.2046542924
21
9.4733189410
0
LINE
5
3E1
100
AcDbEntity
8
0
100
AcDbLine
62
9
6
CONTINUOUS
10
9.2046542924
20
8.5469103083
11
9.4997988591
21
8.5398336648
0
LINE
5
3E2
100
AcDbEntity
8
0
100
AcDbLine
62
9
6
CONTINUOUS
10
9.2046542924
20
8.6491595896
11
9.5046542924
21
8.6419665279
0
LINE
5
3E3
100
AcDbEntity
8
0
100
AcDbLine
62
7
6
CONTINUOUS
10
7.2102011771
20
21.1397411971
11
7.1546542924
21
21.4733189410
0
LINE
5
3E4
100
AcDbEntity
8
0
100
AcDbLine
62
7
6
CONTINUOUS
10
11.0212366041
20
21.5959686718
11
11.0046542924
21
22.1444514276
0
LINE
5
3E5
100
AcDbEntity
8
0
100
AcDbLine
62
7
6
CONTINUOUS
10
11.0212366041
20
-20.4493307898
11
11.0046542924
21
-20.9978135455
0
LINE
5
3E6
100
AcDbEntity
8
0
100
AcDbLine
62
7
6
CONTINUOUS
10
-4.5953457076
20
-21.8266810590
11
-4.5514234605
21
-21.7827588119
0
LINE
5
3E7
100
AcDbEntity
8
0
100
AcDbLine
62
7
6
CONTINUOUS
10
-7.3358873337
20
-21.7626510845
11
-7.4011635374
21
-21.8208632292
0
LINE
5
3E8
100
AcDbEntity
8
0
100
AcDbLine
62
9
6
CONTINUOUS
10
-11.2957820509
20
-21.3266979820
11
-11.2870551832
21
-21.3208801522
0
LINE
5
3E9
100
AcDbEntity
8
0
100
AcDbLine
62
7
6
CONTINUOUS
10
9.4997988591
20
-7.5601663352
11
9.3667592795
21
-7.6266810590
0
LINE
5
3EA
100
AcDbEntity
8
0
100
AcDbLine
62
7
6
CONTINUOUS
10
9.3667592795
20
9.4733189410
11
9.4997988591
21
9.4068042173
0
LINE
5
3EB
100
AcDbEntity
8
0
100
AcDbLine
62
9
6
CONTINUOUS
10
-11.2870551832
20
22.4675180342
11
-11.2957820509
21
22.4733358641
0
LINE
5
3EC
100
AcDbEntity
8
0
100
AcDbLine
62
7
6
CONTINUOUS
10
-7.3358873337
20
22.9092889665
11
-7.4011635374
21
22.9675011112
0
LINE
5
3ED
100
AcDbEntity
8
0
100
AcDbLine
62
7
6
CONTINUOUS
10
-4.5953457076
20
22.9733189410
11
-4.5514234605
21
22.9293966940
0
LINE
5
3EE
100
AcDbEntity
8
0
100
AcDbLine
62
7
6
CONTINUOUS
10
-4.5516950607
20
-23.3830304121
11
-4.5953457076
21
-23.4266810590
0
LINE
5
3EF
100
AcDbEntity
8
0
100
AcDbLine
62
9
6
CONTINUOUS
10
-10.7957883970
20
-21.8266810590
11
-10.7870615292
21
-21.8208632292
0
LINE
5
3F0
100
AcDbEntity
8
0
100
AcDbLine
62
9
6
CONTINUOUS
10
-9.4953457076
20
12.6233189410
11
9.2046542924
21
12.6233189410
0
LINE
5
3F1
100
AcDbEntity
8
0
100
AcDbLine
62
7
6
CONTINUOUS
10
-9.1953457076
20
12.9233189410
11
8.9046542924
21
12.9233189410
0
LINE
5
3F2
100
AcDbEntity
8
0
100
AcDbLine
62
7
6
CONTINUOUS
10
9.3667592795
20
13.0865865832
11
5.3546542924
21
13.0865865832
0
LINE
5
3F3
100
AcDbEntity
8
0
100
AcDbLine
62
7
6
CONTINUOUS
10
4.3546542924
20
13.0865865832
11
-4.6453457076
21
13.0865865832
0
LINE
5
3F4
100
AcDbEntity
8
0
100
AcDbLine
62
7
6
CONTINUOUS
10
-5.6453457076
20
13.0865865832
11
-9.6574506946
21
13.0865865832
0
LINE
5
3F5
100
AcDbEntity
8
0
100
AcDbLine
62
9
6
CONTINUOUS
10
-10.7870615292
20
22.9675011112
11
-10.7957883970
21
22.9733189410
0
LINE
5
3F6
100
AcDbEntity
8
0
100
AcDbLine
62
7
6
CONTINUOUS
10
-4.5516950607
20
24.5296682942
11
-4.5953457076
21
24.5733189410
0
LINE
5
3F7
100
AcDbEntity
8
0
100
AcDbLine
62
9
6
CONTINUOUS
10
4.1173984796
20
-16.6639482949
11
4.0589910718
21
-16.7223557027
0
LINE
5
3F8
100
AcDbEntity
8
0
100
AcDbLine
62
9
6
CONTINUOUS
10
4.4170652666
20
-16.9642586618
11
4.3589796487
21
-17.0223442797
0
LINE
5
3F9
100
AcDbEntity
8
0
100
AcDbLine
62
7
6
CONTINUOUS
10
9.3667592795
20
-11.9266810590
11
9.4997988591
21
-11.8601663352
0
LINE
5
3FA
100
AcDbEntity
8
0
100
AcDbLine
62
7
6
CONTINUOUS
10
8.0897990560
20
-15.8396773337
11
7.8891459971
21
-16.0815582082
0
LINE
5
3FB
100
AcDbEntity
8
0
100
AcDbLine
62
7
6
CONTINUOUS
10
9.4679986561
20
-19.5156643727
11
8.7678923185
21
-20.2166247225
0
LINE
5
3FC
100
AcDbEntity
8
0
100
AcDbLine
62
7
6
CONTINUOUS
10
9.5046542924
20
-19.6257207092
11
8.8045479549
21
-20.3266810590
0
LINE
5
3FD
100
AcDbEntity
8
0
100
AcDbLine
62
7
6
CONTINUOUS
10
8.1046542924
20
-20.8266810590
11
7.1104721223
21
-21.8208632292
0
LINE
5
3FE
100
AcDbEntity
8
0
100
AcDbLine
62
9
6
CONTINUOUS
10
6.2910691736
20
19.7893850756
11
-6.5817605887
21
19.7893850756
0
LINE
5
3FF
100
AcDbEntity
8
0
100
AcDbLine
62
9
6
CONTINUOUS
10
9.3788094226
20
20.3628661792
11
7.2175719353
21
20.3628661792
0
LINE
5
400
100
AcDbEntity
8
0
100
AcDbLine
62
9
6
CONTINUOUS
10
-7.5082633504
20
20.3628661792
11
-9.6695008377
21
20.3628661792
0
LINE
5
401
100
AcDbEntity
8
0
100
AcDbLine
62
7
6
CONTINUOUS
10
6.4507668485
20
20.5733189410
11
-6.7414582636
21
20.5733189410
0
LINE
5
402
100
AcDbEntity
8
0
100
AcDbLine
62
9
6
CONTINUOUS
10
8.6934457243
20
21.1397411971
11
7.2102011771
21
21.1397411971
0
LINE
5
403
100
AcDbEntity
8
0
100
AcDbLine
62
9
6
CONTINUOUS
10
-7.5008925922
20
21.1397411971
11
-8.9841371394
21
21.1397411971
0
LINE
5
404
100
AcDbEntity
8
0
100
AcDbLine
62
7
6
CONTINUOUS
10
7.1104721223
20
22.9675011112
11
8.1046542924
21
21.9733189410
0
LINE
5
405
100
AcDbEntity
8
0
100
AcDbLine
62
7
6
CONTINUOUS
10
9.5046542924
20
20.7723585912
11
8.8045479549
21
21.4733189410
0
LINE
5
406
100
AcDbEntity
8
0
100
AcDbLine
62
7
6
CONTINUOUS
10
7.9212237943
20
-20.8804164861
11
8.1046542924
21
-20.8266810590
0
LINE
5
407
100
AcDbEntity
8
0
100
AcDbLine
62
7
6
CONTINUOUS
10
-3.1453457076
20
21.3733189410
11
2.8546542924
21
21.3733189410
0
LINE
5
408
100
AcDbEntity
8
0
100
AcDbLine
62
7
6
CONTINUOUS
10
7.0586587467
20
21.4733189410
11
8.8045479549
21
21.4733189410
0
LINE
5
409
100
AcDbEntity
8
0
100
AcDbLine
62
7
6
CONTINUOUS
10
-7.3493501619
20
21.4733189410
11
-9.0952393700
21
21.4733189410
0
LINE
5
40A
100
AcDbEntity
8
0
100
AcDbLine
62
7
6
CONTINUOUS
10
10.9963637680
20
21.5959686718
11
11.0212366041
21
21.5959686718
0
LINE
5
40B
100
AcDbEntity
8
0
100
AcDbLine
62
7
6
CONTINUOUS
10
-11.2870551832
20
21.5959686718
11
-11.3119280192
21
21.5959686718
0
LINE
5
40C
100
AcDbEntity
8
0
100
AcDbLine
62
9
6
CONTINUOUS
10
7.4212999467
20
21.9093058897
11
2.8546542924
21
21.9093058897
0
LINE
5
40D
100
AcDbEntity
8
0
100
AcDbLine
62
9
6
CONTINUOUS
10
-3.1453457076
20
21.9093058897
11
-7.7119913618
21
21.9093058897
0
LINE
5
40E
100
AcDbEntity
8
0
100
AcDbLine
62
7
6
CONTINUOUS
10
2.8546542924
20
22.2733189410
11
-3.1453457076
21
22.2733189410
0
LINE
5
40F
100
AcDbEntity
8
0
100
AcDbLine
62
7
6
CONTINUOUS
10
7.0451959186
20
22.9092889665
11
2.8546542924
21
22.9092889665
0
LINE
5
410
100
AcDbEntity
8
0
100
AcDbLine
62
7
6
CONTINUOUS
10
-3.1453457076
20
22.9092889665
11
-7.3358873337
21
22.9092889665
0
LINE
5
411
100
AcDbEntity
8
0
100
AcDbLine
62
7
6
CONTINUOUS
10
-10.7870615292
20
22.9675011112
11
-7.4011635374
21
22.9675011112
0
LINE
5
412
100
AcDbEntity
8
0
100
AcDbLine
62
7
6
CONTINUOUS
10
3.3546542924
20
22.9675011112
11
2.8546542924
21
22.9675011112
0
LINE
5
413
100
AcDbEntity
8
0
100
AcDbLine
62
7
6
CONTINUOUS
10
-3.1453457076
20
22.9675011112
11
-3.6453457076
21
22.9675011112
0
LINE
5
414
100
AcDbEntity
8
0
100
AcDbLine
62
7
6
CONTINUOUS
10
7.1104721223
20
22.9675011112
11
10.4963701141
21
22.9675011112
0
LINE
5
415
100
AcDbEntity
8
0
100
AcDbLine
62
7
6
CONTINUOUS
10
-1.1453457076
20
22.9680829054
11
0.8546542924
21
22.9680829054
0
LINE
5
416
100
AcDbEntity
8
0
100
AcDbLine
62
7
6
CONTINUOUS
10
-7.1954032194
20
22.9733189410
11
-4.5953457076
21
22.9733189410
0
LINE
5
417
100
AcDbEntity
8
0
100
AcDbLine
62
7
6
CONTINUOUS
10
4.3046542924
20
22.9733189410
11
6.9047118043
21
22.9733189410
0
LINE
5
418
100
AcDbEntity
8
0
100
AcDbLine
62
7
6
CONTINUOUS
10
7.9212237943
20
22.0270543682
11
8.1046542924
21
21.9733189410
0
LINE
5
419
100
AcDbEntity
8
0
100
AcDbLine
62
7
6
CONTINUOUS
10
-10.0460687054
20
23.6959686718
11
-7.6446227097
21
23.6959686718
0
LINE
5
41A
100
AcDbEntity
8
0
100
AcDbLine
62
7
6
CONTINUOUS
10
9.7553772903
20
23.6959686718
11
7.3539312946
21
23.6959686718
0
LINE
5
41B
100
AcDbEntity
8
0
100
AcDbLine
62
9
6
CONTINUOUS
10
-10.0409781043
20
24.2011501574
11
-7.6497133108
21
24.2011501574
0
LINE
5
41C
100
AcDbEntity
8
0
100
AcDbLine
62
9
6
CONTINUOUS
10
7.3590218957
20
24.2011501574
11
9.7502866892
21
24.2011501574
0
LINE
5
41D
100
AcDbEntity
8
0
100
AcDbLine
62
9
6
CONTINUOUS
10
7.1090261264
20
24.4176565083
11
10.0002824584
21
24.4176565083
0
LINE
5
41E
100
AcDbEntity
8
0
100
AcDbLine
62
9
6
CONTINUOUS
10
-7.3997175416
20
24.4176565083
11
-10.2909738736
21
24.4176565083
0
LINE
5
41F
100
AcDbEntity
8
0
100
AcDbLine
62
7
6
CONTINUOUS
10
-4.5516950607
20
24.5296682942
11
-3.6453457076
21
24.5296682942
0
LINE
5
420
100
AcDbEntity
8
0
100
AcDbLine
62
7
6
CONTINUOUS
10
3.3546542924
20
24.5296682942
11
4.2610036456
21
24.5296682942
0
LINE
5
421
100
AcDbEntity
8
0
100
AcDbLine
62
7
6
CONTINUOUS
10
-3.6453457076
20
24.5675011112
11
-1.3453457076
21
24.5675011112
0
LINE
5
422
100
AcDbEntity
8
0
100
AcDbLine
62
7
6
CONTINUOUS
10
1.0546542924
20
24.5675011112
11
3.3546542924
21
24.5675011112
0
LINE
5
423
100
AcDbEntity
8
0
100
AcDbLine
62
7
6
CONTINUOUS
10
4.3046542924
20
24.5733189410
11
3.3546542924
21
24.5733189410
0
LINE
5
424
100
AcDbEntity
8
0
100
AcDbLine
62
7
6
CONTINUOUS
10
-3.6453457076
20
24.5733189410
11
-4.5953457076
21
24.5733189410
0
LINE
5
425
100
AcDbEntity
8
0
100
AcDbLine
62
9
6
CONTINUOUS
10
7.1090261264
20
24.8189513378
11
10.0002824584
21
24.8189513378
0
LINE
5
426
100
AcDbEntity
8
0
100
AcDbLine
62
9
6
CONTINUOUS
10
-7.3997175416
20
24.8189513378
11
-10.2909738736
21
24.8189513378
0
LINE
5
427
100
AcDbEntity
8
0
100
AcDbLine
62
7
6
CONTINUOUS
10
9.7502866892
20
25.0689471070
11
7.3590218957
21
25.0689471070
0
LINE
5
428
100
AcDbEntity
8
0
100
AcDbLine
62
7
6
CONTINUOUS
10
-7.6497133108
20
25.0689471070
11
-10.0409781043
21
25.0689471070
0
ARC
5
429
100
AcDbEntity
8
0
100
AcDbCircle
62
7
6
CONTINUOUS
10
8.9046542924
20
12.6233189410
40
0.3000000000
100
AcDbArc
50
0.0000000000
51
90.0000000000
0
ARC
5
42A
100
AcDbEntity
8
0
100
AcDbCircle
62
7
6
CONTINUOUS
10
-9.1953457076
20
12.6233189410
40
0.3000000000
100
AcDbArc
50
90.0000000000
51
180.0000000000
0
ARC
5
42B
100
AcDbEntity
8
0
100
AcDbCircle
62
7
6
CONTINUOUS
10
-0.1453457076
20
4.8233189410
40
4.0000000000
100
AcDbArc
50
0.0000000000
51
180.0000000000
0
ARC
5
42C
100
AcDbEntity
8
0
100
AcDbCircle
62
7
6
CONTINUOUS
10
6.0546542924
20
-12.9266810590
40
0.3000000000
100
AcDbArc
50
0.0000000000
51
90.0000000000
0
ARC
5
42D
100
AcDbEntity
8
0
100
AcDbCircle
62
7
6
CONTINUOUS
10
-6.3453457076
20
-12.9266810590
40
0.3000000000
100
AcDbArc
50
90.0000000000
51
180.0000000000
0
ARC
5
42E
100
AcDbEntity
8
0
100
AcDbCircle
62
7
6
CONTINUOUS
10
-4.1453457076
20
23.7233189410
40
0.5000000000
100
AcDbArc
50
144.3637748935
51
215.6362251065
0
ARC
5
42F
100
AcDbEntity
8
0
100
AcDbCircle
62
7
6
CONTINUOUS
10
3.8546542924
20
23.7233189410
40
0.5000000000
100
AcDbArc
50
324.3637748935
51
35.6362251065
0
ARC
5
430
100
AcDbEntity
8
0
100
AcDbCircle
62
7
6
CONTINUOUS
10
3.8546542924
20
-22.5766810590
40
0.5000000000
100
AcDbArc
50
324.3637748935
51
35.6362251065
0
ARC
5
431
100
AcDbEntity
8
0
100
AcDbCircle
62
7
6
CONTINUOUS
10
-4.1453457076
20
-22.5766810590
40
0.5000000000
100
AcDbArc
50
144.3637748935
51
215.6362251065
0
ARC
5
432
100
AcDbEntity
8
0
100
AcDbCircle
62
9
6
CONTINUOUS
10
-6.3453457076
20
-12.9266810590
40
0.6000000000
100
AcDbArc
50
90.0000000000
51
180.0000000000
0
ARC
5
433
100
AcDbEntity
8
0
100
AcDbCircle
62
9
6
CONTINUOUS
10
6.0546542924
20
-12.9266810590
40
0.6000000000
100
AcDbArc
50
0.0000000000
51
90.0000000000
0
SPLINE
5
434
100
AcDbEntity
8
0
100
AcDbSpline
62
7
6
CONTINUOUS
70
0
71
3
72
15
73
11
74
9
42
0.0000001000
43
0.0000001000
44
0.0000000001
12
0.0000000000
22
0.4687304617
32
0.0000000000
13
-0.4687304617
23
0.0000000000
33
0.0000000000
40
0.0000000000
40
0.0000000000
40
0.0000000000
40
0.0000000000
40
0.1245409744
40
0.2491520072
40
0.3738923875
40
0.4988015666
40
0.6238931955
40
0.7491531499
40
0.8745417825
40
1.0000000000
40
1.0000000000
40
1.0000000000
40
1.0000000000
10
9.3046542924
20
-15.2322198585
30
0.0000000000
10
9.3046542924
20
-15.2127611423
30
0.0000000000
10
9.3007839826
20
-15.1737233781
30
0.0000000000
10
9.2835933969
20
-15.1175113050
30
0.0000000000
10
9.2556809574
20
-15.0656901570
30
0.0000000000
10
9.2181226281
20
-15.0202814309
30
0.0000000000
10
9.1723671917
20
-14.9830203074
30
0.0000000000
10
9.1201669787
20
-14.9553374514
30
0.0000000000
10
9.0635566117
20
-14.9382923535
30
0.0000000000
10
9.0242563219
20
-14.9344560130
30
0.0000000000
10
9.0046542924
20
-14.9344560130
30
0.0000000000
11
9.3046542924
21
-15.2322198585
31
0.0000000000
11
9.2988898766
21
-15.1741290140
31
0.0000000000
11
9.2818181522
21
-15.1182705681
31
0.0000000000
11
9.2540951761
21
-15.0667911295
31
0.0000000000
11
9.2167863268
21
-15.0216690241
31
0.0000000000
11
9.1713253624
21
-14.9846382693
31
0.0000000000
11
9.1194593222
21
-14.9571219361
31
0.0000000000
11
9.0631813891
21
-14.9401774618
31
0.0000000000
11
9.0046542924
21
-14.9344560130
31
0.0000000000
0
SPLINE
5
435
100
AcDbEntity
8
0
100
AcDbSpline
62
7
6
CONTINUOUS
70
0
71
3
72
15
73
11
74
9
42
0.0000001000
43
0.0000001000
44
0.0000000001
12
-0.4687304617
22
0.0000000000
32
0.0000000000
13
0.0000000000
23
-0.4687304617
33
0.0000000000
40
0.0000000000
40
0.0000000000
40
0.0000000000
40
0.0000000000
40
0.1254582175
40
0.2508468501
40
0.3761068045
40
0.5011984334
40
0.6261076125
40
0.7508479928
40
0.8754590256
40
1.0000000000
40
1.0000000000
40
1.0000000000
40
1.0000000000
10
-9.2953457076
20
-14.9344560130
30
0.0000000000
10
-9.3149477370
20
-14.9344560130
30
0.0000000000
10
-9.3542480268
20
-14.9382923535
30
0.0000000000
10
-9.4108583938
20
-14.9553374514
30
0.0000000000
10
-9.4630586068
20
-14.9830203074
30
0.0000000000
10
-9.5088140432
20
-15.0202814309
30
0.0000000000
10
-9.5463723725
20
-15.0656901570
30
0.0000000000
10
-9.5742848120
20
-15.1175113050
30
0.0000000000
10
-9.5914753977
20
-15.1737233781
30
0.0000000000
10
-9.5953457076
20
-15.2127611423
30
0.0000000000
10
-9.5953457076
20
-15.2322198585
30
0.0000000000
11
-9.2953457076
21
-14.9344560130
31
0.0000000000
11
-9.3538728042
21
-14.9401774618
31
0.0000000000
11
-9.4101507373
21
-14.9571219361
31
0.0000000000
11
-9.4620167775
21
-14.9846382693
31
0.0000000000
11
-9.5074777419
21
-15.0216690241
31
0.0000000000
11
-9.5447865912
21
-15.0667911295
31
0.0000000000
11
-9.5725095673
21
-15.1182705681
31
0.0000000000
11
-9.5895812917
21
-15.1741290140
31
0.0000000000
11
-9.5953457076
21
-15.2322198585
31
0.0000000000
0
SPLINE
5
436
100
AcDbEntity
8
0
100
AcDbSpline
62
7
6
CONTINUOUS
70
0
71
3
72
8
73
4
74
2
42
0.0000001000
43
0.0000001000
44
0.0000000001
12
-0.0881805704
22
0.0000000000
32
0.0000000000
13
-0.0871355742
23
-0.0155186758
33
0.0000000000
40
0.0000000000
40
0.0000000000
40
0.0000000000
40
0.0000000000
40
1.0000000000
40
1.0000000000
40
1.0000000000
40
1.0000000000
10
-9.0618005386
20
-14.9266810590
30
0.0000000000
10
-9.0911940621
20
-14.9266810590
30
0.0000000000
10
-9.1206815884
20
-14.9292972267
30
0.0000000000
10
-9.1497267798
20
-14.9344701187
30
0.0000000000
11
-9.0618005386
21
-14.9266810590
31
0.0000000000
11
-9.1497267798
21
-14.9344701187
31
0.0000000000
0
SPLINE
5
437
100
AcDbEntity
8
0
100
AcDbSpline
62
7
6
CONTINUOUS
70
0
71
3
72
8
73
4
74
2
42
0.0000001000
43
0.0000001000
44
0.0000000001
12
-0.0871355742
22
0.0155186758
32
0.0000000000
13
-0.0881805704
23
0.0000000000
33
0.0000000000
40
0.0000000000
40
0.0000000000
40
0.0000000000
40
0.0000000000
40
1.0000000000
40
1.0000000000
40
1.0000000000
40
1.0000000000
10
8.8590353647
20
-14.9344701187
30
0.0000000000
10
8.8299901733
20
-14.9292972267
30
0.0000000000
10
8.8005026470
20
-14.9266810590
30
0.0000000000
10
8.7711091235
20
-14.9266810590
30
0.0000000000
11
8.8590353647
21
-14.9344701187
31
0.0000000000
11
8.7711091235
21
-14.9266810590
31
0.0000000000
0
SPLINE
5
438
100
AcDbEntity
8
0
100
AcDbSpline
62
7
6
CONTINUOUS
70
0
71
3
72
18
73
14
74
12
42
0.0000001000
43
0.0000001000
44
0.0000000001
12
0.0000132796
22
-0.3923546691
32
0.0000000000
13
0.3923546691
23
-0.0000132796
33
0.0000000000
40
0.0000000000
40
0.0000000000
40
0.0000000000
40
0.0000000000
40
0.0909209466
40
0.1818426652
40
0.2727646341
40
0.3636866866
40
0.4546085102
40
0.5455298998
40
0.6364502323
40
0.7273711591
40
0.8182867494
40
0.9092020002
40
1.0000000000
40
1.0000000000
40
1.0000000000
40
1.0000000000
10
-10.2909738736
20
-23.6723134558
30
0.0000000000
10
-10.2909734711
20
-23.6842045417
30
0.0000000000
10
-10.2892700760
20
-23.7080216885
30
0.0000000000
10
-10.2816592778
20
-23.7429922510
30
0.0000000000
10
-10.2691477321
20
-23.7765311490
30
0.0000000000
10
-10.2519902596
20
-23.8079458736
30
0.0000000000
10
-10.2305362753
20
-23.8365992935
30
0.0000000000
10
-10.2052227934
20
-23.8619072630
30
0.0000000000
10
-10.1765650068
20
-23.8833548323
30
0.0000000000
10
-10.1451476363
20
-23.9005049979
30
0.0000000000
10
-10.1116078754
20
-23.9130088989
30
0.0000000000
10
-10.0766531866
20
-23.9206089640
30
0.0000000000
10
-10.0528531107
20
-23.9223088231
30
0.0000000000
10
-10.0409781043
20
-23.9223092250
30
0.0000000000
11
-10.2909738736
21
-23.6723134558
31
0.0000000000
11
-10.2884274758
21
-23.7078957153
31
0.0000000000
11
-10.2808425015
21
-23.7427535854
31
0.0000000000
11
-10.2683734158
21
-23.7761771077
31
0.0000000000
11
-10.2512741506
21
-23.8074856916
31
0.0000000000
11
-10.2298929629
21
-23.8360417889
31
0.0000000000
11
-10.2046652910
21
-23.8612639676
31
0.0000000000
11
-10.1761050316
21
-23.8826386191
31
0.0000000000
11
-10.1447931677
21
-23.8997309553
31
0.0000000000
11
-10.1113693895
21
-23.9121921930
31
0.0000000000
11
-10.0765124939
21
-23.9197697076
31
0.0000000000
11
-10.0409781043
21
-23.9223092250
31
0.0000000000
0
SPLINE
5
439
100
AcDbEntity
8
0
100
AcDbSpline
62
7
6
CONTINUOUS
70
0
71
3
72
9
73
5
74
3
42
0.0000001000
43
0.0000001000
44
0.0000000001
12
0.0000000000
22
-0.0475573588
32
0.0000000000
13
0.0090083279
23
-0.0467385388
33
0.0000000000
40
0.0000000000
40
0.0000000000
40
0.0000000000
40
0.0000000000
40
0.7500208510
40
1.0000000000
40
1.0000000000
40
1.0000000000
40
1.0000000000
10
-10.2953457076
20
-23.6766852898
30
0.0000000000
10
-10.2953457076
20
-23.6885749600
30
0.0000000000
10
-10.2942109943
20
-23.7044506917
30
0.0000000000
10
-10.2915787489
20
-23.7201028012
30
0.0000000000
10
-10.2908281175
20
-23.7239973546
30
0.0000000000
11
-10.2953457076
21
-23.6766852898
31
0.0000000000
11
-10.2928011817
21
-23.7122634251
31
0.0000000000
11
-10.2908281175
21
-23.7239973546
31
0.0000000000
0
SPLINE
5
43A
100
AcDbEntity
8
0
100
AcDbSpline
62
7
6
CONTINUOUS
70
0
71
3
72
10
73
6
74
4
42
0.0000001000
43
0.0000001000
44
0.0000000001
12
0.0180174245
22
-0.0934810656
32
0.0000000000
13
0.0514684004
23
-0.0800866296
33
0.0000000000
40
0.0000000000
40
0.0000000000
40
0.0000000000
40
0.0000000000
40
0.2500103467
40
0.6250051020
40
1.0000000000
40
1.0000000000
40
1.0000000000
40
1.0000000000
10
-10.2908281175
20
-23.7239973546
30
0.0000000000
10
-10.2893266034
20
-23.7317877658
30
0.0000000000
10
-10.2846464139
20
-23.7510816156
30
0.0000000000
10
-10.2735286612
20
-23.7808913978
30
0.0000000000
10
-10.2620937282
20
-23.8018328724
30
0.0000000000
10
-10.2556602657
20
-23.8118435649
30
0.0000000000
11
-10.2908281175
21
-23.7239973546
31
0.0000000000
11
-10.2852193493
21
-23.7471173380
31
0.0000000000
11
-10.2727544797
21
-23.7805375053
31
0.0000000000
11
-10.2556602657
21
-23.8118435649
31
0.0000000000
0
SPLINE
5
43B
100
AcDbEntity
8
0
100
AcDbSpline
62
7
6
CONTINUOUS
70
0
71
3
72
10
73
6
74
4
42
0.0000001000
43
0.0000001000
44
0.0000000001
12
0.0579011793
22
-0.0900962584
32
0.0000000000
13
0.0900962584
23
-0.0579011793
33
0.0000000000
40
0.0000000000
40
0.0000000000
40
0.0000000000
40
0.0000000000
40
0.3333333233
40
0.6666666767
40
1.0000000000
40
1.0000000000
40
1.0000000000
40
1.0000000000
10
-10.2556602657
20
-23.8118435649
30
0.0000000000
10
-10.2492268015
20
-23.8218542600
30
0.0000000000
10
-10.2349278820
20
-23.8409555570
30
0.0000000000
10
-10.2096202055
20
-23.8662632334
30
0.0000000000
10
-10.1905189085
20
-23.8805621529
30
0.0000000000
10
-10.1805082135
20
-23.8869956171
30
0.0000000000
11
-10.2556602657
21
-23.8118435649
31
0.0000000000
11
-10.2342846664
21
-23.8403981780
31
0.0000000000
11
-10.2090628266
21
-23.8656200178
31
0.0000000000
11
-10.1805082135
21
-23.8869956171
31
0.0000000000
0
SPLINE
5
43C
100
AcDbEntity
8
0
100
AcDbSpline
62
7
6
CONTINUOUS
70
0
71
3
72
11
73
7
74
5
42
0.0000001000
43
0.0000001000
44
0.0000000001
12
0.1201282362
22
-0.0772015028
32
0.0000000000
13
0.1426761344
23
0.0000000000
33
0.0000000000
40
0.0000000000
40
0.0000000000
40
0.0000000000
40
0.0000000000
40
0.2500001537
40
0.5000002124
40
0.7500001602
40
1.0000000000
40
1.0000000000
40
1.0000000000
40
1.0000000000
10
-10.1805082135
20
-23.8869956171
30
0.0000000000
10
-10.1704975210
20
-23.8934290796
30
0.0000000000
10
-10.1495560464
20
-23.9048640127
30
0.0000000000
10
-10.1160205111
20
-23.9173713092
30
0.0000000000
10
-10.0810538732
20
-23.9249789414
30
0.0000000000
10
-10.0572396086
20
-23.9266810590
30
0.0000000000
10
-10.0453499383
20
-23.9266810590
30
0.0000000000
11
-10.1805082135
21
-23.8869956171
31
0.0000000000
11
-10.1492021539
21
-23.9040898312
31
0.0000000000
11
-10.1157819866
21
-23.9165547007
31
0.0000000000
11
-10.0809280737
21
-23.9241365331
31
0.0000000000
11
-10.0453499383
21
-23.9266810590
31
0.0000000000
0
SPLINE
5
43D
100
AcDbEntity
8
0
100
AcDbSpline
62
7
6
CONTINUOUS
70
0
71
3
72
18
73
14
74
12
42
0.0000001000
43
0.0000001000
44
0.0000000001
12
0.3923546692
22
0.0000132796
32
0.0000000000
13
0.0000132796
23
0.3923546692
33
0.0000000000
40
0.0000000000
40
0.0000000000
40
0.0000000000
40
0.0000000000
40
0.0909083271
40
0.1818170744
40
0.2727261901
40
0.3636355924
40
0.4545451767
40
0.5454548233
40
0.6363644076
40
0.7272738099
40
0.8181829256
40
0.9090916729
40
1.0000000000
40
1.0000000000
40
1.0000000000
40
1.0000000000
10
-7.6497133108
20
-23.9223092250
30
0.0000000000
10
-7.6378238752
20
-23.9223088226
30
0.0000000000
10
-7.6140100898
20
-23.9206059051
30
0.0000000000
10
-7.5790442599
20
-23.9129972382
30
0.0000000000
10
-7.5455094952
20
-23.9004891586
30
0.0000000000
10
-7.5140979388
20
-23.8833362891
30
0.0000000000
10
-7.4854464624
20
-23.8618877847
30
0.0000000000
10
-7.4601389819
20
-23.8365803041
30
0.0000000000
10
-7.4386904774
20
-23.8079288277
30
0.0000000000
10
-7.4215376079
20
-23.7765172714
30
0.0000000000
10
-7.4090295284
20
-23.7429825067
30
0.0000000000
10
-7.4014208614
20
-23.7080166767
30
0.0000000000
10
-7.3997179440
20
-23.6842028913
30
0.0000000000
10
-7.3997175416
20
-23.6723134558
30
0.0000000000
11
-7.6497133108
21
-23.9223092250
31
0.0000000000
11
-7.6141359647
21
-23.9197635338
31
0.0000000000
11
-7.5792828396
21
-23.9121806894
31
0.0000000000
11
-7.5458634141
21
-23.8997150499
31
0.0000000000
11
-7.5145579821
21
-23.8826203688
31
0.0000000000
11
-7.4860038044
21
-23.8612446296
31
0.0000000000
11
-7.4607821369
21
-23.8360229621
31
0.0000000000
11
-7.4394063977
21
-23.8074687844
31
0.0000000000
11
-7.4223117167
21
-23.7761633524
31
0.0000000000
11
-7.4098460771
21
-23.7427439270
31
0.0000000000
11
-7.4022632327
21
-23.7078908019
31
0.0000000000
11
-7.3997175416
21
-23.6723134558
31
0.0000000000
0
SPLINE
5
43E
100
AcDbEntity
8
0
100
AcDbSpline
62
7
6
CONTINUOUS
70
0
71
3
72
9
73
5
74
3
42
0.0000001000
43
0.0000001000
44
0.0000000001
12
0.0475573588
22
0.0000000000
32
0.0000000000
13
0.0467385388
23
0.0090083279
33
0.0000000000
40
0.0000000000
40
0.0000000000
40
0.0000000000
40
0.0000000000
40
0.7500208510
40
1.0000000000
40
1.0000000000
40
1.0000000000
40
1.0000000000
10
-7.6453414768
20
-23.9266810590
30
0.0000000000
10
-7.6334518065
20
-23.9266810590
30
0.0000000000
10
-7.6175760749
20
-23.9255463457
30
0.0000000000
10
-7.6019239653
20
-23.9229141004
30
0.0000000000
10
-7.5980294119
20
-23.9221634690
30
0.0000000000
11
-7.6453414768
21
-23.9266810590
31
0.0000000000
11
-7.6097633414
21
-23.9241365331
31
0.0000000000
11
-7.5980294119
21
-23.9221634690
31
0.0000000000
0
SPLINE
5
43F
100
AcDbEntity
8
0
100
AcDbSpline
62
7
6
CONTINUOUS
70
0
71
3
72
10
73
6
74
4
42
0.0000001000
43
0.0000001000
44
0.0000000001
12
0.0934810656
22
0.0180174245
32
0.0000000000
13
0.0800866296
23
0.0514684004
33
0.0000000000
40
0.0000000000
40
0.0000000000
40
0.0000000000
40
0.0000000000
40
0.2500103467
40
0.6250051020
40
1.0000000000
40
1.0000000000
40
1.0000000000
40
1.0000000000
10
-7.5980294119
20
-23.9221634690
30
0.0000000000
10
-7.5902390007
20
-23.9206619548
30
0.0000000000
10
-7.5709451509
20
-23.9159817653
30
0.0000000000
10
-7.5411353687
20
-23.9048640127
30
0.0000000000
10
-7.5201938941
20
-23.8934290796
30
0.0000000000
10
-7.5101832016
20
-23.8869956171
30
0.0000000000
11
-7.5980294119
21
-23.9221634690
31
0.0000000000
11
-7.5749094285
21
-23.9165547007
31
0.0000000000
11
-7.5414892613
21
-23.9040898312
31
0.0000000000
11
-7.5101832016
21
-23.8869956171
31
0.0000000000
0
SPLINE
5
440
100
AcDbEntity
8
0
100
AcDbSpline
62
7
6
CONTINUOUS
70
0
71
3
72
10
73
6
74
4
42
0.0000001000
43
0.0000001000
44
0.0000000001
12
0.0900962584
22
0.0579011793
32
0.0000000000
13
0.0579011793
23
0.0900962584
33
0.0000000000
40
0.0000000000
40
0.0000000000
40
0.0000000000
40
0.0000000000
40
0.3333333233
40
0.6666666767
40
1.0000000000
40
1.0000000000
40
1.0000000000
40
1.0000000000
10
-7.5101832016
20
-23.8869956171
30
0.0000000000
10
-7.5001725066
20
-23.8805621529
30
0.0000000000
10
-7.4810712096
20
-23.8662632334
30
0.0000000000
10
-7.4557635331
20
-23.8409555570
30
0.0000000000
10
-7.4414646136
20
-23.8218542600
30
0.0000000000
10
-7.4350311494
20
-23.8118435649
30
0.0000000000
11
-7.5101832016
21
-23.8869956171
31
0.0000000000
11
-7.4816285885
21
-23.8656200178
31
0.0000000000
11
-7.4564067487
21
-23.8403981780
31
0.0000000000
11
-7.4350311494
21
-23.8118435649
31
0.0000000000
0
SPLINE
5
441
100
AcDbEntity
8
0
100
AcDbSpline
62
7
6
CONTINUOUS
70
0
71
3
72
11
73
7
74
5
42
0.0000001000
43
0.0000001000
44
0.0000000001
12
0.0772015028
22
0.1201282362
32
0.0000000000
13
-0.0000000000
23
0.1426761344
33
0.0000000000
40
0.0000000000
40
0.0000000000
40
0.0000000000
40
0.0000000000
40
0.2500001537
40
0.5000002124
40
0.7500001602
40
1.0000000000
40
1.0000000000
40
1.0000000000
40
1.0000000000
10
-7.4350311494
20
-23.8118435649
30
0.0000000000
10
-7.4285976869
20
-23.8018328724
30
0.0000000000
10
-7.4171627539
20
-23.7808913978
30
0.0000000000
10
-7.4046554573
20
-23.7473558625
30
0.0000000000
10
-7.3970478251
20
-23.7123892247
30
0.0000000000
10
-7.3953457076
20
-23.6885749600
30
0.0000000000
10
-7.3953457076
20
-23.6766852898
30
0.0000000000
11
-7.4350311494
21
-23.8118435649
31
0.0000000000
11
-7.4179369354
21
-23.7805375053
31
0.0000000000
11
-7.4054720658
21
-23.7471173380
31
0.0000000000
11
-7.3978902334
21
-23.7122634251
31
0.0000000000
11
-7.3953457076
21
-23.6766852898
31
0.0000000000
0
SPLINE
5
442
100
AcDbEntity
8
0
100
AcDbSpline
62
7
6
CONTINUOUS
70
0
71
3
72
9
73
5
74
3
42
0.0000001000
43
0.0000001000
44
0.0000000001
12
0.0000000000
22
0.2078196999
32
0.0000000000
13
0.0846353874
23
0.1907740288
33
0.0000000000
40
0.0000000000
40
0.0000000000
40
0.0000000000
40
0.0000000000
40
0.7492437561
40
1.0000000000
40
1.0000000000
40
1.0000000000
40
1.0000000000
10
-9.6453457076
20
-15.4266239457
30
0.0000000000
10
-9.6453457076
20
-15.3747214082
30
0.0000000000
10
-9.6343821720
20
-15.3049669310
30
0.0000000000
10
-9.6094901381
20
-15.2398809277
30
0.0000000000
10
-9.6024158542
20
-15.2239350014
30
0.0000000000
11
-9.6453457076
21
-15.4266239457
31
0.0000000000
11
-9.6210979982
21
-15.2728159187
31
0.0000000000
11
-9.6024158542
21
-15.2239350014
31
0.0000000000
0
SPLINE
5
443
100
AcDbEntity
8
0
100
AcDbSpline
62
7
6
CONTINUOUS
70
0
71
3
72
8
73
4
74
2
42
0.0000001000
43
0.0000001000
44
0.0000000001
12
0.0071827391
22
0.0161903917
32
0.0000000000
13
0.0077498110
23
0.0159233589
33
0.0000000000
40
0.0000000000
40
0.0000000000
40
0.0000000000
40
0.0000000000
40
1.0000000000
40
1.0000000000
40
1.0000000000
40
1.0000000000
10
-9.6024158542
20
-15.2239350014
30
0.0000000000
10
-9.6000216078
20
-15.2185382041
30
0.0000000000
10
-9.5975320091
20
-15.2131843375
30
0.0000000000
10
-9.5949487388
20
-15.2078765512
30
0.0000000000
11
-9.6024158542
21
-15.2239350014
31
0.0000000000
11
-9.5949487388
21
-15.2078765512
31
0.0000000000
0
SPLINE
5
444
100
AcDbEntity
8
0
100
AcDbSpline
62
7
6
CONTINUOUS
70
0
71
3
72
8
73
4
74
2
42
0.0000001000
43
0.0000001000
44
0.0000000001
12
0.0836319699
22
0.0142939212
32
0.0000000000
13
0.0844215047
23
0.0000000000
33
0.0000000000
40
0.0000000000
40
0.0000000000
40
0.0000000000
40
0.0000000000
40
1.0000000000
40
1.0000000000
40
1.0000000000
40
1.0000000000
10
-9.2296097206
20
-14.9338593253
30
0.0000000000
10
-9.2017323973
20
-14.9290946849
30
0.0000000000
10
-9.1734862062
20
-14.9266810590
30
0.0000000000
10
-9.1453457047
20
-14.9266810590
30
0.0000000000
11
-9.2296097206
21
-14.9338593253
31
0.0000000000
11
-9.1453457047
21
-14.9266810590
31
0.0000000000
0
SPLINE
5
445
100
AcDbEntity
8
0
100
AcDbSpline
62
7
6
CONTINUOUS
70
0
71
3
72
8
73
4
74
2
42
0.0000001000
43
0.0000001000
44
0.0000000001
12
0.0844215047
22
0.0000000000
32
0.0000000000
13
0.0836319699
23
-0.0142939212
33
0.0000000000
40
0.0000000000
40
0.0000000000
40
0.0000000000
40
0.0000000000
40
1.0000000000
40
1.0000000000
40
1.0000000000
40
1.0000000000
10
8.8546542895
20
-14.9266810590
30
0.0000000000
10
8.8827947911
20
-14.9266810590
30
0.0000000000
10
8.9110409822
20
-14.9290946849
30
0.0000000000
10
8.9389183055
20
-14.9338593253
30
0.0000000000
11
8.8546542895
21
-14.9266810590
31
0.0000000000
11
8.9389183055
21
-14.9338593253
31
0.0000000000
0
SPLINE
5
446
100
AcDbEntity
8
0
100
AcDbSpline
62
7
6
CONTINUOUS
70
0
71
3
72
8
73
4
74
2
42
0.0000001000
43
0.0000001000
44
0.0000000001
12
0.0100143197
22
-0.0205761931
32
0.0000000000
13
0.0090649711
23
-0.0210174701
33
0.0000000000
40
0.0000000000
40
0.0000000000
40
0.0000000000
40
0.0000000000
40
1.0000000000
40
1.0000000000
40
1.0000000000
40
1.0000000000
10
9.3042573237
20
-15.2078765512
30
0.0000000000
10
9.3075954302
20
-15.2147352822
30
0.0000000000
10
9.3107771253
20
-15.2216709575
30
0.0000000000
10
9.3137987823
20
-15.2286767808
30
0.0000000000
11
9.3042573237
21
-15.2078765512
31
0.0000000000
11
9.3137987823
21
-15.2286767808
31
0.0000000000
0
SPLINE
5
447
100
AcDbEntity
8
0
100
AcDbSpline
62
7
6
CONTINUOUS
70
0
71
3
72
8
73
4
74
2
42
0.0000001000
43
0.0000001000
44
0.0000000001
12
0.0135216781
22
-0.0313505098
32
0.0000000000
13
0.0113490711
23
-0.0322193165
33
0.0000000000
40
0.0000000000
40
0.0000000000
40
0.0000000000
40
0.0000000000
40
1.0000000000
40
1.0000000000
40
1.0000000000
40
1.0000000000
10
9.3137987823
20
-15.2286767808
30
0.0000000000
10
9.3183060084
20
-15.2391269508
30
0.0000000000
10
9.3224571512
20
-15.2497331996
30
0.0000000000
10
9.3262401749
20
-15.2604729718
30
0.0000000000
11
9.3137987823
21
-15.2286767808
31
0.0000000000
11
9.3262401749
21
-15.2604729718
31
0.0000000000
0
SPLINE
5
448
100
AcDbEntity
8
0
100
AcDbSpline
62
7
6
CONTINUOUS
70
0
71
3
72
9
73
5
74
3
42
0.0000001000
43
0.0000001000
44
0.0000000001
12
0.0563093994
22
-0.1598589299
32
0.0000000000
13
0.0000000000
23
-0.1686708004
33
0.0000000000
40
0.0000000000
40
0.0000000000
40
0.0000000000
40
0.0000000000
40
0.0768549613
40
1.0000000000
40
1.0000000000
40
1.0000000000
40
1.0000000000
10
9.3262401749
20
-15.2604729718
30
0.0000000000
10
9.3276827271
20
-15.2645682891
30
0.0000000000
10
9.3457560584
20
-15.3181072205
30
0.0000000000
10
9.3546542924
20
-15.3747214082
30
0.0000000000
10
9.3546542924
20
-15.4266239457
30
0.0000000000
11
9.3262401749
21
-15.2604729718
31
0.0000000000
11
9.3304065831
21
-15.2728159187
31
0.0000000000
11
9.3546542924
21
-15.4266239457
31
0.0000000000
0
SPLINE
5
449
100
AcDbEntity
8
0
100
AcDbSpline
62
7
6
CONTINUOUS
70
0
71
3
72
11
73
7
74
5
42
0.0000001000
43
0.0000001000
44
0.0000000001
12
-0.3122705093
22
0.0000000000
32
0.0000000000
13
0.0000000000
23
0.3122705093
33
0.0000000000
40
0.0000000000
40
0.0000000000
40
0.0000000000
40
0.0000000000
40
0.2487211572
40
0.4987615450
40
0.7494738689
40
1.0000000000
40
1.0000000000
40
1.0000000000
40
1.0000000000
10
-7.1954032197
20
22.9733189410
30
0.0000000000
10
-7.2212926471
20
22.9733189410
30
0.0000000000
10
-7.2737719828
20
22.9836684147
30
0.0000000000
10
-7.3402805352
20
23.0280990579
30
0.0000000000
10
-7.3849117102
20
23.0947095859
30
0.0000000000
10
-7.3953457076
20
23.1474551238
30
0.0000000000
10
-7.3953457076
20
23.1735324313
30
0.0000000000
11
-7.1954032197
21
22.9733189410
31
0.0000000000
11
-7.2715892608
21
22.9884202400
31
0.0000000000
11
-7.3365585628
21
23.0317274398
31
0.0000000000
11
-7.3800834170
21
23.0968037132
31
0.0000000000
11
-7.3953457076
21
23.1735324313
31
0.0000000000
0
SPLINE
5
44A
100
AcDbEntity
8
0
100
AcDbSpline
62
7
6
CONTINUOUS
70
0
71
3
72
11
73
7
74
5
42
0.0000001000
43
0.0000001000
44
0.0000000001
12
0.0000000000
22
-0.3122705093
32
0.0000000000
13
-0.3122705093
23
-0.0000000000
33
0.0000000000
40
0.0000000000
40
0.0000000000
40
0.0000000000
40
0.0000000000
40
0.2505261311
40
0.5012384550
40
0.7512788428
40
1.0000000000
40
1.0000000000
40
1.0000000000
40
1.0000000000
10
-10.2953457076
20
23.1735324313
30
0.0000000000
10
-10.2953457076
20
23.1474551238
30
0.0000000000
10
-10.3057797049
20
23.0947095859
30
0.0000000000
10
-10.3504108799
20
23.0280990579
30
0.0000000000
10
-10.4169194323
20
22.9836684147
30
0.0000000000
10
-10.4693987680
20
22.9733189410
30
0.0000000000
10
-10.4952881954
20
22.9733189410
30
0.0000000000
11
-10.2953457076
21
23.1735324313
31
0.0000000000
11
-10.3106079981
21
23.0968037132
31
0.0000000000
11
-10.3541328523
21
23.0317274398
31
0.0000000000
11
-10.4191021543
21
22.9884202400
31
0.0000000000
11
-10.4952881954
21
22.9733189410
31
0.0000000000
0
SPLINE
5
44B
100
AcDbEntity
8
0
100
AcDbSpline
62
7
6
CONTINUOUS
70
0
71
3
72
11
73
7
74
5
42
0.0000001000
43
0.0000001000
44
0.0000000001
12
-0.3122705093
22
0.0000000000
32
0.0000000000
13
0.0000000000
23
0.3122705093
33
0.0000000000
40
0.0000000000
40
0.0000000000
40
0.0000000000
40
0.0000000000
40
0.2487211572
40
0.4987615450
40
0.7494738689
40
1.0000000000
40
1.0000000000
40
1.0000000000
40
1.0000000000
10
10.2045967803
20
22.9733189410
30
0.0000000000
10
10.1787073529
20
22.9733189410
30
0.0000000000
10
10.1262280172
20
22.9836684147
30
0.0000000000
10
10.0597194648
20
23.0280990579
30
0.0000000000
10
10.0150882898
20
23.0947095859
30
0.0000000000
10
10.0046542924
20
23.1474551238
30
0.0000000000
10
10.0046542924
20
23.1735324313
30
0.0000000000
11
10.2045967803
21
22.9733189410
31
0.0000000000
11
10.1284107392
21
22.9884202400
31
0.0000000000
11
10.0634414372
21
23.0317274398
31
0.0000000000
11
10.0199165830
21
23.0968037132
31
0.0000000000
11
10.0046542924
21
23.1735324313
31
0.0000000000
0
SPLINE
5
44C
100
AcDbEntity
8
0
100
AcDbSpline
62
7
6
CONTINUOUS
70
0
71
3
72
11
73
7
74
5
42
0.0000001000
43
0.0000001000
44
0.0000000001
12
0.0000000000
22
-0.3122705093
32
0.0000000000
13
-0.3122705093
23
0.0000000000
33
0.0000000000
40
0.0000000000
40
0.0000000000
40
0.0000000000
40
0.0000000000
40
0.2505261311
40
0.5012384550
40
0.7512788428
40
1.0000000000
40
1.0000000000
40
1.0000000000
40
1.0000000000
10
7.1046542924
20
23.1735324313
30
0.0000000000
10
7.1046542924
20
23.1474551238
30
0.0000000000
10
7.0942202951
20
23.0947095859
30
0.0000000000
10
7.0495891201
20
23.0280990579
30
0.0000000000
10
6.9830805677
20
22.9836684147
30
0.0000000000
10
6.9306012320
20
22.9733189410
30
0.0000000000
10
6.9047118046
20
22.9733189410
30
0.0000000000
11
7.1046542924
21
23.1735324313
31
0.0000000000
11
7.0893920019
21
23.0968037132
31
0.0000000000
11
7.0458671477
21
23.0317274398
31
0.0000000000
11
6.9808978457
21
22.9884202400
31
0.0000000000
11
6.9047118046
21
22.9733189410
31
0.0000000000
0
SPLINE
5
44D
100
AcDbEntity
8
0
100
AcDbSpline
62
7
6
CONTINUOUS
70
0
71
3
72
11
73
7
74
5
42
0.0000001000
43
0.0000001000
44
0.0000000001
12
0.3122705093
22
0.0000000000
32
0.0000000000
13
0.0000000000
23
-0.3122705093
33
0.0000000000
40
0.0000000000
40
0.0000000000
40
0.0000000000
40
0.0000000000
40
0.2487211572
40
0.4987615450
40
0.7494738689
40
1.0000000000
40
1.0000000000
40
1.0000000000
40
1.0000000000
10
-10.4952881954
20
-21.8266810590
30
0.0000000000
10
-10.4693987680
20
-21.8266810590
30
0.0000000000
10
-10.4169194323
20
-21.8370305327
30
0.0000000000
10
-10.3504108799
20
-21.8814611758
30
0.0000000000
10
-10.3057797049
20
-21.9480717039
30
0.0000000000
10
-10.2953457076
20
-22.0008172418
30
0.0000000000
10
-10.2953457076
20
-22.0268945493
30
0.0000000000
11
-10.4952881954
21
-21.8266810590
31
0.0000000000
11
-10.4191021543
21
-21.8417823579
31
0.0000000000
11
-10.3541328523
21
-21.8850895578
31
0.0000000000
11
-10.3106079981
21
-21.9501658311
31
0.0000000000
11
-10.2953457076
21
-22.0268945493
31
0.0000000000
0
SPLINE
5
44E
100
AcDbEntity
8
0
100
AcDbSpline
62
7
6
CONTINUOUS
70
0
71
3
72
18
73
14
74
12
42
0.0000001000
43
0.0000001000
44
0.0000000001
12
0.3923546691
22
0.0000132796
32
0.0000000000
13
0.0000132796
23
0.3923546691
33
0.0000000000
40
0.0000000000
40
0.0000000000
40
0.0000000000
40
0.0000000000
40
0.0907979998
40
0.1817132506
40
0.2726288409
40
0.3635497677
40
0.4544701002
40
0.5453914898
40
0.6363133134
40
0.7272353659
40
0.8181573348
40
0.9090790534
40
1.0000000000
40
1.0000000000
40
1.0000000000
40
1.0000000000
10
9.7502866892
20
-23.9223092250
30
0.0000000000
10
9.7621616956
20
-23.9223088231
30
0.0000000000
10
9.7859617715
20
-23.9206089640
30
0.0000000000
10
9.8209164603
20
-23.9130088989
30
0.0000000000
10
9.8544562212
20
-23.9005049979
30
0.0000000000
10
9.8858735917
20
-23.8833548323
30
0.0000000000
10
9.9145313783
20
-23.8619072630
30
0.0000000000
10
9.9398448602
20
-23.8365992935
30
0.0000000000
10
9.9612988445
20
-23.8079458736
30
0.0000000000
10
9.9784563170
20
-23.7765311490
30
0.0000000000
10
9.9909678627
20
-23.7429922510
30
0.0000000000
10
9.9985786609
20
-23.7080216885
30
0.0000000000
10
10.0002820560
20
-23.6842045417
30
0.0000000000
10
10.0002824584
20
-23.6723134558
30
0.0000000000
11
9.7502866892
21
-23.9223092250
31
0.0000000000
11
9.7858210788
21
-23.9197697076
31
0.0000000000
11
9.8206779744
21
-23.9121921930
31
0.0000000000
11
9.8541017526
21
-23.8997309553
31
0.0000000000
11
9.8854136164
21
-23.8826386191
31
0.0000000000
11
9.9139738759
21
-23.8612639676
31
0.0000000000
11
9.9392015478
21
-23.8360417889
31
0.0000000000
11
9.9605827355
21
-23.8074856916
31
0.0000000000
11
9.9776820007
21
-23.7761771077
31
0.0000000000
11
9.9901510864
21
-23.7427535854
31
0.0000000000
11
9.9977360607
21
-23.7078957153
31
0.0000000000
11
10.0002824584
21
-23.6723134558
31
0.0000000000
0
SPLINE
5
44F
100
AcDbEntity
8
0
100
AcDbSpline
62
7
6
CONTINUOUS
70
0
71
3
72
9
73
5
74
3
42
0.0000001000
43
0.0000001000
44
0.0000000001
12
0.0475573588
22
0.0000000000
32
0.0000000000
13
0.0467385388
23
0.0090083279
33
0.0000000000
40
0.0000000000
40
0.0000000000
40
0.0000000000
40
0.0000000000
40
0.7500208510
40
1.0000000000
40
1.0000000000
40
1.0000000000
40
1.0000000000
10
9.7546585232
20
-23.9266810590
30
0.0000000000
10
9.7665481935
20
-23.9266810590
30
0.0000000000
10
9.7824239251
20
-23.9255463457
30
0.0000000000
10
9.7980760347
20
-23.9229141004
30
0.0000000000
10
9.8019705881
20
-23.9221634690
30
0.0000000000
11
9.7546585232
21
-23.9266810590
31
0.0000000000
11
9.7902366586
21
-23.9241365331
31
0.0000000000
11
9.8019705881
21
-23.9221634690
31
0.0000000000
0
SPLINE
5
450
100
AcDbEntity
8
0
100
AcDbSpline
62
7
6
CONTINUOUS
70
0
71
3
72
10
73
6
74
4
42
0.0000001000
43
0.0000001000
44
0.0000000001
12
0.0934810656
22
0.0180174245
32
0.0000000000
13
0.0800866296
23
0.0514684004
33
0.0000000000
40
0.0000000000
40
0.0000000000
40
0.0000000000
40
0.0000000000
40
0.2500103467
40
0.6250051020
40
1.0000000000
40
1.0000000000
40
1.0000000000
40
1.0000000000
10
9.8019705881
20
-23.9221634690
30
0.0000000000
10
9.8097609993
20
-23.9206619548
30
0.0000000000
10
9.8290548491
20
-23.9159817653
30
0.0000000000
10
9.8588646313
20
-23.9048640127
30
0.0000000000
10
9.8798061059
20
-23.8934290796
30
0.0000000000
10
9.8898167984
20
-23.8869956171
30
0.0000000000
11
9.8019705881
21
-23.9221634690
31
0.0000000000
11
9.8250905715
21
-23.9165547007
31
0.0000000000
11
9.8585107387
21
-23.9040898312
31
0.0000000000
11
9.8898167984
21
-23.8869956171
31
0.0000000000
0
SPLINE
5
451
100
AcDbEntity
8
0
100
AcDbSpline
62
7
6
CONTINUOUS
70
0
71
3
72
10
73
6
74
4
42
0.0000001000
43
0.0000001000
44
0.0000000001
12
0.0900962584
22
0.0579011793
32
0.0000000000
13
0.0579011793
23
0.0900962584
33
0.0000000000
40
0.0000000000
40
0.0000000000
40
0.0000000000
40
0.0000000000
40
0.3333333233
40
0.6666666767
40
1.0000000000
40
1.0000000000
40
1.0000000000
40
1.0000000000
10
9.8898167984
20
-23.8869956171
30
0.0000000000
10
9.8998274934
20
-23.8805621529
30
0.0000000000
10
9.9189287904
20
-23.8662632334
30
0.0000000000
10
9.9442364669
20
-23.8409555570
30
0.0000000000
10
9.9585353864
20
-23.8218542600
30
0.0000000000
10
9.9649688506
20
-23.8118435649
30
0.0000000000
11
9.8898167984
21
-23.8869956171
31
0.0000000000
11
9.9183714115
21
-23.8656200178
31
0.0000000000
11
9.9435932513
21
-23.8403981780
31
0.0000000000
11
9.9649688506
21
-23.8118435649
31
0.0000000000
0
SPLINE
5
452
100
AcDbEntity
8
0
100
AcDbSpline
62
7
6
CONTINUOUS
70
0
71
3
72
11
73
7
74
5
42
0.0000001000
43
0.0000001000
44
0.0000000001
12
0.0772015028
22
0.1201282362
32
0.0000000000
13
-0.0000000000
23
0.1426761344
33
0.0000000000
40
0.0000000000
40
0.0000000000
40
0.0000000000
40
0.0000000000
40
0.2500001537
40
0.5000002124
40
0.7500001602
40
1.0000000000
40
1.0000000000
40
1.0000000000
40
1.0000000000
10
9.9649688506
20
-23.8118435649
30
0.0000000000
10
9.9714023131
20
-23.8018328724
30
0.0000000000
10
9.9828372461
20
-23.7808913978
30
0.0000000000
10
9.9953445427
20
-23.7473558625
30
0.0000000000
10
10.0029521749
20
-23.7123892247
30
0.0000000000
10
10.0046542924
20
-23.6885749600
30
0.0000000000
10
10.0046542924
20
-23.6766852898
30
0.0000000000
11
9.9649688506
21
-23.8118435649
31
0.0000000000
11
9.9820630646
21
-23.7805375053
31
0.0000000000
11
9.9945279342
21
-23.7471173380
31
0.0000000000
11
10.0021097666
21
-23.7122634251
31
0.0000000000
11
10.0046542924
21
-23.6766852898
31
0.0000000000
0
SPLINE
5
453
100
AcDbEntity
8
0
100
AcDbSpline
62
7
6
CONTINUOUS
70
0
71
3
72
11
73
7
74
5
42
0.0000001000
43
0.0000001000
44
0.0000000001
12
0.0000000000
22
0.3122705093
32
0.0000000000
13
0.3122705093
23
-0.0000000000
33
0.0000000000
40
0.0000000000
40
0.0000000000
40
0.0000000000
40
0.0000000000
40
0.2505261311
40
0.5012384550
40
0.7512788428
40
1.0000000000
40
1.0000000000
40
1.0000000000
40
1.0000000000
10
-7.3953457076
20
-22.0268945493
30
0.0000000000
10
-7.3953457076
20
-22.0008172418
30
0.0000000000
10
-7.3849117102
20
-21.9480717039
30
0.0000000000
10
-7.3402805352
20
-21.8814611758
30
0.0000000000
10
-7.2737719828
20
-21.8370305327
30
0.0000000000
10
-7.2212926471
20
-21.8266810590
30
0.0000000000
10
-7.1954032197
20
-21.8266810590
30
0.0000000000
11
-7.3953457076
21
-22.0268945493
31
0.0000000000
11
-7.3800834170
21
-21.9501658311
31
0.0000000000
11
-7.3365585628
21
-21.8850895578
31
0.0000000000
11
-7.2715892608
21
-21.8417823579
31
0.0000000000
11
-7.1954032197
21
-21.8266810590
31
0.0000000000
0
SPLINE
5
454
100
AcDbEntity
8
0
100
AcDbSpline
62
7
6
CONTINUOUS
70
0
71
3
72
11
73
7
74
5
42
0.0000001000
43
0.0000001000
44
0.0000000001
12
0.3122705093
22
0.0000000000
32
0.0000000000
13
-0.0000000000
23
-0.3122705093
33
0.0000000000
40
0.0000000000
40
0.0000000000
40
0.0000000000
40
0.0000000000
40
0.2487211572
40
0.4987615450
40
0.7494738689
40
1.0000000000
40
1.0000000000
40
1.0000000000
40
1.0000000000
10
6.9047118046
20
-21.8266810590
30
0.0000000000
10
6.9306012320
20
-21.8266810590
30
0.0000000000
10
6.9830805677
20
-21.8370305327
30
0.0000000000
10
7.0495891201
20
-21.8814611758
30
0.0000000000
10
7.0942202951
20
-21.9480717039
30
0.0000000000
10
7.1046542924
20
-22.0008172418
30
0.0000000000
10
7.1046542924
20
-22.0268945493
30
0.0000000000
11
6.9047118046
21
-21.8266810590
31
0.0000000000
11
6.9808978457
21
-21.8417823579
31
0.0000000000
11
7.0458671477
21
-21.8850895578
31
0.0000000000
11
7.0893920019
21
-21.9501658311
31
0.0000000000
11
7.1046542924
21
-22.0268945493
31
0.0000000000
0
SPLINE
5
455
100
AcDbEntity
8
0
100
AcDbSpline
62
7
6
CONTINUOUS
70
0
71
3
72
18
73
14
74
12
42
0.0000001000
43
0.0000001000
44
0.0000000001
12
0.0000132796
22
-0.3923546692
32
0.0000000000
13
0.3923546692
23
-0.0000132796
33
0.0000000000
40
0.0000000000
40
0.0000000000
40
0.0000000000
40
0.0000000000
40
0.0909083271
40
0.1818170744
40
0.2727261901
40
0.3636355924
40
0.4545451767
40
0.5454548233
40
0.6363644076
40
0.7272738099
40
0.8181829256
40
0.9090916729
40
1.0000000000
40
1.0000000000
40
1.0000000000
40
1.0000000000
10
7.1090261264
20
-23.6723134558
30
0.0000000000
10
7.1090265289
20
-23.6842028913
30
0.0000000000
10
7.1107294463
20
-23.7080166767
30
0.0000000000
10
7.1183381133
20
-23.7429825067
30
0.0000000000
10
7.1308461928
20
-23.7765172714
30
0.0000000000
10
7.1479990623
20
-23.8079288277
30
0.0000000000
10
7.1694475668
20
-23.8365803041
30
0.0000000000
10
7.1947550473
20
-23.8618877847
30
0.0000000000
10
7.2234065237
20
-23.8833362891
30
0.0000000000
10
7.2548180801
20
-23.9004891586
30
0.0000000000
10
7.2883528448
20
-23.9129972382
30
0.0000000000
10
7.3233186747
20
-23.9206059051
30
0.0000000000
10
7.3471324601
20
-23.9223088226
30
0.0000000000
10
7.3590218957
20
-23.9223092250
30
0.0000000000
11
7.1090261264
21
-23.6723134558
31
0.0000000000
11
7.1115718176
21
-23.7078908019
31
0.0000000000
11
7.1191546620
21
-23.7427439270
31
0.0000000000
11
7.1316203016
21
-23.7761633524
31
0.0000000000
11
7.1487149826
21
-23.8074687844
31
0.0000000000
11
7.1700907218
21
-23.8360229621
31
0.0000000000
11
7.1953123893
21
-23.8612446296
31
0.0000000000
11
7.2238665670
21
-23.8826203688
31
0.0000000000
11
7.2551719990
21
-23.8997150499
31
0.0000000000
11
7.2885914245
21
-23.9121806894
31
0.0000000000
11
7.3234445496
21
-23.9197635338
31
0.0000000000
11
7.3590218957
21
-23.9223092250
31
0.0000000000
0
SPLINE
5
456
100
AcDbEntity
8
0
100
AcDbSpline
62
7
6
CONTINUOUS
70
0
71
3
72
9
73
5
74
3
42
0.0000001000
43
0.0000001000
44
0.0000000001
12
0.0000000000
22
-0.0475573588
32
0.0000000000
13
0.0090083279
23
-0.0467385388
33
0.0000000000
40
0.0000000000
40
0.0000000000
40
0.0000000000
40
0.0000000000
40
0.7500208510
40
1.0000000000
40
1.0000000000
40
1.0000000000
40
1.0000000000
10
7.1046542924
20
-23.6766852898
30
0.0000000000
10
7.1046542924
20
-23.6885749600
30
0.0000000000
10
7.1057890057
20
-23.7044506917
30
0.0000000000
10
7.1084212511
20
-23.7201028012
30
0.0000000000
10
7.1091718825
20
-23.7239973546
30
0.0000000000
11
7.1046542924
21
-23.6766852898
31
0.0000000000
11
7.1071988183
21
-23.7122634251
31
0.0000000000
11
7.1091718825
21
-23.7239973546
31
0.0000000000
0
SPLINE
5
457
100
AcDbEntity
8
0
100
AcDbSpline
62
7
6
CONTINUOUS
70
0
71
3
72
10
73
6
74
4
42
0.0000001000
43
0.0000001000
44
0.0000000001
12
0.0180174245
22
-0.0934810656
32
0.0000000000
13
0.0514684004
23
-0.0800866296
33
0.0000000000
40
0.0000000000
40
0.0000000000
40
0.0000000000
40
0.0000000000
40
0.2500103467
40
0.6250051020
40
1.0000000000
40
1.0000000000
40
1.0000000000
40
1.0000000000
10
7.1091718825
20
-23.7239973546
30
0.0000000000
10
7.1106733966
20
-23.7317877658
30
0.0000000000
10
7.1153535861
20
-23.7510816156
30
0.0000000000
10
7.1264713388
20
-23.7808913978
30
0.0000000000
10
7.1379062718
20
-23.8018328724
30
0.0000000000
10
7.1443397343
20
-23.8118435649
30
0.0000000000
11
7.1091718825
21
-23.7239973546
31
0.0000000000
11
7.1147806507
21
-23.7471173380
31
0.0000000000
11
7.1272455203
21
-23.7805375053
31
0.0000000000
11
7.1443397343
21
-23.8118435649
31
0.0000000000
0
SPLINE
5
458
100
AcDbEntity
8
0
100
AcDbSpline
62
7
6
CONTINUOUS
70
0
71
3
72
10
73
6
74
4
42
0.0000001000
43
0.0000001000
44
0.0000000001
12
0.0579011793
22
-0.0900962584
32
0.0000000000
13
0.0900962584
23
-0.0579011793
33
0.0000000000
40
0.0000000000
40
0.0000000000
40
0.0000000000
40
0.0000000000
40
0.3333333233
40
0.6666666767
40
1.0000000000
40
1.0000000000
40
1.0000000000
40
1.0000000000
10
7.1443397343
20
-23.8118435649
30
0.0000000000
10
7.1507731985
20
-23.8218542600
30
0.0000000000
10
7.1650721180
20
-23.8409555570
30
0.0000000000
10
7.1903797945
20
-23.8662632334
30
0.0000000000
10
7.2094810915
20
-23.8805621529
30
0.0000000000
10
7.2194917865
20
-23.8869956171
30
0.0000000000
11
7.1443397343
21
-23.8118435649
31
0.0000000000
11
7.1657153336
21
-23.8403981780
31
0.0000000000
11
7.1909371734
21
-23.8656200178
31
0.0000000000
11
7.2194917865
21
-23.8869956171
31
0.0000000000
0
SPLINE
5
459
100
AcDbEntity
8
0
100
AcDbSpline
62
7
6
CONTINUOUS
70
0
71
3
72
11
73
7
74
5
42
0.0000001000
43
0.0000001000
44
0.0000000001
12
0.1201282362
22
-0.0772015028
32
0.0000000000
13
0.1426761344
23
0.0000000000
33
0.0000000000
40
0.0000000000
40
0.0000000000
40
0.0000000000
40
0.0000000000
40
0.2500001537
40
0.5000002124
40
0.7500001602
40
1.0000000000
40
1.0000000000
40
1.0000000000
40
1.0000000000
10
7.2194917865
20
-23.8869956171
30
0.0000000000
10
7.2295024790
20
-23.8934290796
30
0.0000000000
10
7.2504439536
20
-23.9048640127
30
0.0000000000
10
7.2839794889
20
-23.9173713092
30
0.0000000000
10
7.3189461268
20
-23.9249789414
30
0.0000000000
10
7.3427603914
20
-23.9266810590
30
0.0000000000
10
7.3546500617
20
-23.9266810590
30
0.0000000000
11
7.2194917865
21
-23.8869956171
31
0.0000000000
11
7.2507978461
21
-23.9040898312
31
0.0000000000
11
7.2842180134
21
-23.9165547007
31
0.0000000000
11
7.3190719263
21
-23.9241365331
31
0.0000000000
11
7.3546500617
21
-23.9266810590
31
0.0000000000
0
SPLINE
5
45A
100
AcDbEntity
8
0
100
AcDbSpline
62
7
6
CONTINUOUS
70
0
71
3
72
11
73
7
74
5
42
0.0000001000
43
0.0000001000
44
0.0000000001
12
0.0000000000
22
0.3122705093
32
0.0000000000
13
0.3122705093
23
0.0000000000
33
0.0000000000
40
0.0000000000
40
0.0000000000
40
0.0000000000
40
0.0000000000
40
0.2505261311
40
0.5012384550
40
0.7512788428
40
1.0000000000
40
1.0000000000
40
1.0000000000
40
1.0000000000
10
10.0046542924
20
-22.0268945493
30
0.0000000000
10
10.0046542924
20
-22.0008172418
30
0.0000000000
10
10.0150882898
20
-21.9480717039
30
0.0000000000
10
10.0597194648
20
-21.8814611758
30
0.0000000000
10
10.1262280172
20
-21.8370305327
30
0.0000000000
10
10.1787073529
20
-21.8266810590
30
0.0000000000
10
10.2045967803
20
-21.8266810590
30
0.0000000000
11
10.0046542924
21
-22.0268945493
31
0.0000000000
11
10.0199165830
21
-21.9501658311
31
0.0000000000
11
10.0634414372
21
-21.8850895578
31
0.0000000000
11
10.1284107392
21
-21.8417823579
31
0.0000000000
11
10.2045967803
21
-21.8266810590
31
0.0000000000
0
SPLINE
5
45B
100
AcDbEntity
8
0
100
AcDbSpline
62
7
6
CONTINUOUS
70
0
71
3
72
18
73
14
74
12
42
0.0000001000
43
0.0000001000
44
0.0000000001
12
-0.3923546691
22
-0.0000132796
32
0.0000000000
13
-0.0000132796
23
-0.3923546691
33
0.0000000000
40
0.0000000000
40
0.0000000000
40
0.0000000000
40
0.0000000000
40
0.0907979998
40
0.1817132506
40
0.2726288409
40
0.3635497677
40
0.4544701002
40
0.5453914898
40
0.6363133134
40
0.7272353659
40
0.8181573348
40
0.9090790534
40
1.0000000000
40
1.0000000000
40
1.0000000000
40
1.0000000000
10
-10.0409781043
20
25.0689471070
30
0.0000000000
10
-10.0528531107
20
25.0689467051
30
0.0000000000
10
-10.0766531866
20
25.0672468460
30
0.0000000000
10
-10.1116078754
20
25.0596467809
30
0.0000000000
10
-10.1451476363
20
25.0471428800
30
0.0000000000
10
-10.1765650068
20
25.0299927143
30
0.0000000000
10
-10.2052227934
20
25.0085451451
30
0.0000000000
10
-10.2305362753
20
24.9832371756
30
0.0000000000
10
-10.2519902596
20
24.9545837556
30
0.0000000000
10
-10.2691477321
20
24.9231690310
30
0.0000000000
10
-10.2816592778
20
24.8896301330
30
0.0000000000
10
-10.2892700760
20
24.8546595706
30
0.0000000000
10
-10.2909734711
20
24.8308424238
30
0.0000000000
10
-10.2909738736
20
24.8189513378
30
0.0000000000
11
-10.0409781043
21
25.0689471070
31
0.0000000000
11
-10.0765124939
21
25.0664075896
31
0.0000000000
11
-10.1113693895
21
25.0588300751
31
0.0000000000
11
-10.1447931677
21
25.0463688373
31
0.0000000000
11
-10.1761050316
21
25.0292765011
31
0.0000000000
11
-10.2046652910
21
25.0079018497
31
0.0000000000
11
-10.2298929629
21
24.9826796709
31
0.0000000000
11
-10.2512741506
21
24.9541235736
31
0.0000000000
11
-10.2683734158
21
24.9228149898
31
0.0000000000
11
-10.2808425015
21
24.8893914674
31
0.0000000000
11
-10.2884274758
21
24.8545335973
31
0.0000000000
11
-10.2909738736
21
24.8189513378
31
0.0000000000
0
SPLINE
5
45C
100
AcDbEntity
8
0
100
AcDbSpline
62
7
6
CONTINUOUS
70
0
71
3
72
9
73
5
74
3
42
0.0000001000
43
0.0000001000
44
0.0000000001
12
-0.0475573588
22
0.0000000000
32
0.0000000000
13
-0.0467385388
23
-0.0090083279
33
0.0000000000
40
0.0000000000
40
0.0000000000
40
0.0000000000
40
0.0000000000
40
0.7500208510
40
1.0000000000
40
1.0000000000
40
1.0000000000
40
1.0000000000
10
-10.0453499383
20
25.0733189410
30
0.0000000000
10
-10.0572396086
20
25.0733189410
30
0.0000000000
10
-10.0731153402
20
25.0721842278
30
0.0000000000
10
-10.0887674498
20
25.0695519824
30
0.0000000000
10
-10.0926620032
20
25.0688013510
30
0.0000000000
11
-10.0453499383
21
25.0733189410
31
0.0000000000
11
-10.0809280737
21
25.0707744152
31
0.0000000000
11
-10.0926620032
21
25.0688013510
31
0.0000000000
0
SPLINE
5
45D
100
AcDbEntity
8
0
100
AcDbSpline
62
7
6
CONTINUOUS
70
0
71
3
72
10
73
6
74
4
42
0.0000001000
43
0.0000001000
44
0.0000000001
12
-0.0934810656
22
-0.0180174245
32
0.0000000000
13
-0.0800866296
23
-0.0514684004
33
0.0000000000
40
0.0000000000
40
0.0000000000
40
0.0000000000
40
0.0000000000
40
0.2500103467
40
0.6250051020
40
1.0000000000
40
1.0000000000
40
1.0000000000
40
1.0000000000
10
-10.0926620032
20
25.0688013510
30
0.0000000000
10
-10.1004524144
20
25.0672998368
30
0.0000000000
10
-10.1197462642
20
25.0626196474
30
0.0000000000
10
-10.1495560464
20
25.0515018947
30
0.0000000000
10
-10.1704975210
20
25.0400669617
30
0.0000000000
10
-10.1805082135
20
25.0336334992
30
0.0000000000
11
-10.0926620032
21
25.0688013510
31
0.0000000000
11
-10.1157819866
21
25.0631925827
31
0.0000000000
11
-10.1492021539
21
25.0507277132
31
0.0000000000
11
-10.1805082135
21
25.0336334992
31
0.0000000000
0
SPLINE
5
45E
100
AcDbEntity
8
0
100
AcDbSpline
62
7
6
CONTINUOUS
70
0
71
3
72
10
73
6
74
4
42
0.0000001000
43
0.0000001000
44
0.0000000001
12
-0.0900962584
22
-0.0579011793
32
0.0000000000
13
-0.0579011793
23
-0.0900962584
33
0.0000000000
40
0.0000000000
40
0.0000000000
40
0.0000000000
40
0.0000000000
40
0.3333333233
40
0.6666666767
40
1.0000000000
40
1.0000000000
40
1.0000000000
40
1.0000000000
10
-10.1805082135
20
25.0336334992
30
0.0000000000
10
-10.1905189085
20
25.0272000350
30
0.0000000000
10
-10.2096202055
20
25.0129011154
30
0.0000000000
10
-10.2349278820
20
24.9875934390
30
0.0000000000
10
-10.2492268015
20
24.9684921420
30
0.0000000000
10
-10.2556602657
20
24.9584814469
30
0.0000000000
11
-10.1805082135
21
25.0336334992
31
0.0000000000
11
-10.2090628266
21
25.0122578999
31
0.0000000000
11
-10.2342846664
21
24.9870360601
31
0.0000000000
11
-10.2556602657
21
24.9584814469
31
0.0000000000
0
SPLINE
5
45F
100
AcDbEntity
8
0
100
AcDbSpline
62
7
6
CONTINUOUS
70
0
71
3
72
11
73
7
74
5
42
0.0000001000
43
0.0000001000
44
0.0000000001
12
-0.0772015028
22
-0.1201282362
32
0.0000000000
13
-0.0000000000
23
-0.1426761344
33
0.0000000000
40
0.0000000000
40
0.0000000000
40
0.0000000000
40
0.0000000000
40
0.2500001537
40
0.5000002124
40
0.7500001602
40
1.0000000000
40
1.0000000000
40
1.0000000000
40
1.0000000000
10
-10.2556602657
20
24.9584814469
30
0.0000000000
10
-10.2620937282
20
24.9484707544
30
0.0000000000
10
-10.2735286612
20
24.9275292799
30
0.0000000000
10
-10.2860359578
20
24.8939937446
30
0.0000000000
10
-10.2936435900
20
24.8590271067
30
0.0000000000
10
-10.2953457076
20
24.8352128421
30
0.0000000000
10
-10.2953457076
20
24.8233231718
30
0.0000000000
11
-10.2556602657
21
24.9584814469
31
0.0000000000
11
-10.2727544797
21
24.9271753873
31
0.0000000000
11
-10.2852193493
21
24.8937552200
31
0.0000000000
11
-10.2928011817
21
24.8589013072
31
0.0000000000
11
-10.2953457076
21
24.8233231718
31
0.0000000000
0
SPLINE
5
460
100
AcDbEntity
8
0
100
AcDbSpline
62
7
6
CONTINUOUS
70
0
71
3
72
18
73
14
74
12
42
0.0000001000
43
0.0000001000
44
0.0000000001
12
-0.0000132796
22
0.3923546692
32
0.0000000000
13
-0.3923546692
23
0.0000132796
33
0.0000000000
40
0.0000000000
40
0.0000000000
40
0.0000000000
40
0.0000000000
40
0.0909083271
40
0.1818170744
40
0.2727261901
40
0.3636355924
40
0.4545451767
40
0.5454548233
40
0.6363644076
40
0.7272738099
40
0.8181829256
40
0.9090916729
40
1.0000000000
40
1.0000000000
40
1.0000000000
40
1.0000000000
10
-7.3997175416
20
24.8189513378
30
0.0000000000
10
-7.3997179440
20
24.8308407733
30
0.0000000000
10
-7.4014208614
20
24.8546545587
30
0.0000000000
10
-7.4090295284
20
24.8896203887
30
0.0000000000
10
-7.4215376079
20
24.9231551534
30
0.0000000000
10
-7.4386904774
20
24.9545667098
30
0.0000000000
10
-7.4601389819
20
24.9832181862
30
0.0000000000
10
-7.4854464624
20
25.0085256667
30
0.0000000000
10
-7.5140979388
20
25.0299741712
30
0.0000000000
10
-7.5455094952
20
25.0471270406
30
0.0000000000
10
-7.5790442599
20
25.0596351202
30
0.0000000000
10
-7.6140100898
20
25.0672437871
30
0.0000000000
10
-7.6378238752
20
25.0689467046
30
0.0000000000
10
-7.6497133108
20
25.0689471070
30
0.0000000000
11
-7.3997175416
21
24.8189513378
31
0.0000000000
11
-7.4022632327
21
24.8545286839
31
0.0000000000
11
-7.4098460771
21
24.8893818090
31
0.0000000000
11
-7.4223117167
21
24.9228012345
31
0.0000000000
11
-7.4394063977
21
24.9541066665
31
0.0000000000
11
-7.4607821369
21
24.9826608441
31
0.0000000000
11
-7.4860038044
21
25.0078825117
31
0.0000000000
11
-7.5145579821
21
25.0292582508
31
0.0000000000
11
-7.5458634141
21
25.0463529319
31
0.0000000000
11
-7.5792828396
21
25.0588185714
31
0.0000000000
11
-7.6141359647
21
25.0664014159
31
0.0000000000
11
-7.6497133108
21
25.0689471070
31
0.0000000000
0
SPLINE
5
461
100
AcDbEntity
8
0
100
AcDbSpline
62
7
6
CONTINUOUS
70
0
71
3
72
9
73
5
74
3
42
0.0000001000
43
0.0000001000
44
0.0000000001
12
0.0000000000
22
0.0475573588
32
0.0000000000
13
-0.0090083279
23
0.0467385388
33
0.0000000000
40
0.0000000000
40
0.0000000000
40
0.0000000000
40
0.0000000000
40
0.7500208510
40
1.0000000000
40
1.0000000000
40
1.0000000000
40
1.0000000000
10
-7.3953457076
20
24.8233231718
30
0.0000000000
10
-7.3953457076
20
24.8352128421
30
0.0000000000
10
-7.3964804208
20
24.8510885737
30
0.0000000000
10
-7.3991126662
20
24.8667406833
30
0.0000000000
10
-7.3998632976
20
24.8706352367
30
0.0000000000
11
-7.3953457076
21
24.8233231718
31
0.0000000000
11
-7.3978902334
21
24.8589013072
31
0.0000000000
11
-7.3998632976
21
24.8706352367
31
0.0000000000
0
SPLINE
5
462
100
AcDbEntity
8
0
100
AcDbSpline
62
7
6
CONTINUOUS
70
0
71
3
72
10
73
6
74
4
42
0.0000001000
43
0.0000001000
44
0.0000000001
12
-0.0180174245
22
0.0934810656
32
0.0000000000
13
-0.0514684004
23
0.0800866296
33
0.0000000000
40
0.0000000000
40
0.0000000000
40
0.0000000000
40
0.0000000000
40
0.2500103467
40
0.6250051020
40
1.0000000000
40
1.0000000000
40
1.0000000000
40
1.0000000000
10
-7.3998632976
20
24.8706352367
30
0.0000000000
10
-7.4013648117
20
24.8784256479
30
0.0000000000
10
-7.4060450012
20
24.8977194976
30
0.0000000000
10
-7.4171627539
20
24.9275292799
30
0.0000000000
10
-7.4285976869
20
24.9484707544
30
0.0000000000
10
-7.4350311494
20
24.9584814469
30
0.0000000000
11
-7.3998632976
21
24.8706352367
31
0.0000000000
11
-7.4054720658
21
24.8937552200
31
0.0000000000
11
-7.4179369354
21
24.9271753873
31
0.0000000000
11
-7.4350311494
21
24.9584814469
31
0.0000000000
0
SPLINE
5
463
100
AcDbEntity
8
0
100
AcDbSpline
62
7
6
CONTINUOUS
70
0
71
3
72
10
73
6
74
4
42
0.0000001000
43
0.0000001000
44
0.0000000001
12
-0.0579011793
22
0.0900962584
32
0.0000000000
13
-0.0900962584
23
0.0579011793
33
0.0000000000
40
0.0000000000
40
0.0000000000
40
0.0000000000
40
0.0000000000
40
0.3333333233
40
0.6666666767
40
1.0000000000
40
1.0000000000
40
1.0000000000
40
1.0000000000
10
-7.4350311494
20
24.9584814469
30
0.0000000000
10
-7.4414646136
20
24.9684921420
30
0.0000000000
10
-7.4557635331
20
24.9875934390
30
0.0000000000
10
-7.4810712096
20
25.0129011154
30
0.0000000000
10
-7.5001725066
20
25.0272000350
30
0.0000000000
10
-7.5101832016
20
25.0336334992
30
0.0000000000
11
-7.4350311494
21
24.9584814469
31
0.0000000000
11
-7.4564067487
21
24.9870360601
31
0.0000000000
11
-7.4816285885
21
25.0122578999
31
0.0000000000
11
-7.5101832016
21
25.0336334992
31
0.0000000000
0
SPLINE
5
464
100
AcDbEntity
8
0
100
AcDbSpline
62
7
6
CONTINUOUS
70
0
71
3
72
11
73
7
74
5
42
0.0000001000
43
0.0000001000
44
0.0000000001
12
-0.1201282362
22
0.0772015028
32
0.0000000000
13
-0.1426761344
23
0.0000000000
33
0.0000000000
40
0.0000000000
40
0.0000000000
40
0.0000000000
40
0.0000000000
40
0.2500001537
40
0.5000002124
40
0.7500001602
40
1.0000000000
40
1.0000000000
40
1.0000000000
40
1.0000000000
10
-7.5101832016
20
25.0336334992
30
0.0000000000
10
-7.5201938941
20
25.0400669617
30
0.0000000000
10
-7.5411353687
20
25.0515018947
30
0.0000000000
10
-7.5746709040
20
25.0640091913
30
0.0000000000
10
-7.6096375419
20
25.0716168235
30
0.0000000000
10
-7.6334518065
20
25.0733189410
30
0.0000000000
10
-7.6453414768
20
25.0733189410
30
0.0000000000
11
-7.5101832016
21
25.0336334992
31
0.0000000000
11
-7.5414892613
21
25.0507277132
31
0.0000000000
11
-7.5749094285
21
25.0631925827
31
0.0000000000
11
-7.6097633414
21
25.0707744152
31
0.0000000000
11
-7.6453414768
21
25.0733189410
31
0.0000000000
0
SPLINE
5
465
100
AcDbEntity
8
0
100
AcDbSpline
62
7
6
CONTINUOUS
70
0
71
3
72
18
73
14
74
12
42
0.0000001000
43
0.0000001000
44
0.0000000001
12
-0.3923546691
22
-0.0000132796
32
0.0000000000
13
-0.0000132796
23
-0.3923546691
33
0.0000000000
40
0.0000000000
40
0.0000000000
40
0.0000000000
40
0.0000000000
40
0.0907979998
40
0.1817132506
40
0.2726288409
40
0.3635497677
40
0.4544701002
40
0.5453914898
40
0.6363133134
40
0.7272353659
40
0.8181573348
40
0.9090790534
40
1.0000000000
40
1.0000000000
40
1.0000000000
40
1.0000000000
10
7.3590218957
20
25.0689471070
30
0.0000000000
10
7.3471468893
20
25.0689467051
30
0.0000000000
10
7.3233468134
20
25.0672468460
30
0.0000000000
10
7.2883921246
20
25.0596467809
30
0.0000000000
10
7.2548523637
20
25.0471428800
30
0.0000000000
10
7.2234349932
20
25.0299927143
30
0.0000000000
10
7.1947772066
20
25.0085451451
30
0.0000000000
10
7.1694637247
20
24.9832371756
30
0.0000000000
10
7.1480097404
20
24.9545837556
30
0.0000000000
10
7.1308522679
20
24.9231690310
30
0.0000000000
10
7.1183407222
20
24.8896301330
30
0.0000000000
10
7.1107299240
20
24.8546595706
30
0.0000000000
10
7.1090265289
20
24.8308424238
30
0.0000000000
10
7.1090261264
20
24.8189513378
30
0.0000000000
11
7.3590218957
21
25.0689471070
31
0.0000000000
11
7.3234875061
21
25.0664075896
31
0.0000000000
11
7.2886306105
21
25.0588300751
31
0.0000000000
11
7.2552068323
21
25.0463688373
31
0.0000000000
11
7.2238949684
21
25.0292765011
31
0.0000000000
11
7.1953347090
21
25.0079018497
31
0.0000000000
11
7.1701070371
21
24.9826796709
31
0.0000000000
11
7.1487258494
21
24.9541235736
31
0.0000000000
11
7.1316265842
21
24.9228149898
31
0.0000000000
11
7.1191574985
21
24.8893914674
31
0.0000000000
11
7.1115725242
21
24.8545335973
31
0.0000000000
11
7.1090261264
21
24.8189513378
31
0.0000000000
0
SPLINE
5
466
100
AcDbEntity
8
0
100
AcDbSpline
62
7
6
CONTINUOUS
70
0
71
3
72
9
73
5
74
3
42
0.0000001000
43
0.0000001000
44
0.0000000001
12
-0.0475573588
22
0.0000000000
32
0.0000000000
13
-0.0467385388
23
-0.0090083279
33
0.0000000000
40
0.0000000000
40
0.0000000000
40
0.0000000000
40
0.0000000000
40
0.7500208510
40
1.0000000000
40
1.0000000000
40
1.0000000000
40
1.0000000000
10
7.3546500617
20
25.0733189410
30
0.0000000000
10
7.3427603914
20
25.0733189410
30
0.0000000000
10
7.3268846598
20
25.0721842278
30
0.0000000000
10
7.3112325502
20
25.0695519824
30
0.0000000000
10
7.3073379968
20
25.0688013510
30
0.0000000000
11
7.3546500617
21
25.0733189410
31
0.0000000000
11
7.3190719263
21
25.0707744152
31
0.0000000000
11
7.3073379968
21
25.0688013510
31
0.0000000000
0
SPLINE
5
467
100
AcDbEntity
8
0
100
AcDbSpline
62
7
6
CONTINUOUS
70
0
71
3
72
10
73
6
74
4
42
0.0000001000
43
0.0000001000
44
0.0000000001
12
-0.0934810656
22
-0.0180174245
32
0.0000000000
13
-0.0800866296
23
-0.0514684004
33
0.0000000000
40
0.0000000000
40
0.0000000000
40
0.0000000000
40
0.0000000000
40
0.2500103467
40
0.6250051020
40
1.0000000000
40
1.0000000000
40
1.0000000000
40
1.0000000000
10
7.3073379968
20
25.0688013510
30
0.0000000000
10
7.2995475856
20
25.0672998368
30
0.0000000000
10
7.2802537358
20
25.0626196474
30
0.0000000000
10
7.2504439536
20
25.0515018947
30
0.0000000000
10
7.2295024790
20
25.0400669617
30
0.0000000000
10
7.2194917865
20
25.0336334992
30
0.0000000000
11
7.3073379968
21
25.0688013510
31
0.0000000000
11
7.2842180134
21
25.0631925827
31
0.0000000000
11
7.2507978461
21
25.0507277132
31
0.0000000000
11
7.2194917865
21
25.0336334992
31
0.0000000000
0
SPLINE
5
468
100
AcDbEntity
8
0
100
AcDbSpline
62
7
6
CONTINUOUS
70
0
71
3
72
10
73
6
74
4
42
0.0000001000
43
0.0000001000
44
0.0000000001
12
-0.0900962584
22
-0.0579011793
32
0.0000000000
13
-0.0579011793
23
-0.0900962584
33
0.0000000000
40
0.0000000000
40
0.0000000000
40
0.0000000000
40
0.0000000000
40
0.3333333233
40
0.6666666767
40
1.0000000000
40
1.0000000000
40
1.0000000000
40
1.0000000000
10
7.2194917865
20
25.0336334992
30
0.0000000000
10
7.2094810915
20
25.0272000350
30
0.0000000000
10
7.1903797945
20
25.0129011154
30
0.0000000000
10
7.1650721180
20
24.9875934390
30
0.0000000000
10
7.1507731985
20
24.9684921420
30
0.0000000000
10
7.1443397343
20
24.9584814469
30
0.0000000000
11
7.2194917865
21
25.0336334992
31
0.0000000000
11
7.1909371734
21
25.0122578999
31
0.0000000000
11
7.1657153336
21
24.9870360601
31
0.0000000000
11
7.1443397343
21
24.9584814469
31
0.0000000000
0
SPLINE
5
469
100
AcDbEntity
8
0
100
AcDbSpline
62
7
6
CONTINUOUS
70
0
71
3
72
11
73
7
74
5
42
0.0000001000
43
0.0000001000
44
0.0000000001
12
-0.0772015028
22
-0.1201282362
32
0.0000000000
13
0.0000000000
23
-0.1426761344
33
0.0000000000
40
0.0000000000
40
0.0000000000
40
0.0000000000
40
0.0000000000
40
0.2500001537
40
0.5000002124
40
0.7500001602
40
1.0000000000
40
1.0000000000
40
1.0000000000
40
1.0000000000
10
7.1443397343
20
24.9584814469
30
0.0000000000
10
7.1379062718
20
24.9484707544
30
0.0000000000
10
7.1264713388
20
24.9275292799
30
0.0000000000
10
7.1139640422
20
24.8939937446
30
0.0000000000
10
7.1063564100
20
24.8590271067
30
0.0000000000
10
7.1046542924
20
24.8352128421
30
0.0000000000
10
7.1046542924
20
24.8233231718
30
0.0000000000
11
7.1443397343
21
24.9584814469
31
0.0000000000
11
7.1272455203
21
24.9271753873
31
0.0000000000
11
7.1147806507
21
24.8937552200
31
0.0000000000
11
7.1071988183
21
24.8589013072
31
0.0000000000
11
7.1046542924
21
24.8233231718
31
0.0000000000
0
SPLINE
5
46A
100
AcDbEntity
8
0
100
AcDbSpline
62
7
6
CONTINUOUS
70
0
71
3
72
18
73
14
74
12
42
0.0000001000
43
0.0000001000
44
0.0000000001
12
-0.0000132796
22
0.3923546691
32
0.0000000000
13
-0.3923546691
23
0.0000132796
33
0.0000000000
40
0.0000000000
40
0.0000000000
40
0.0000000000
40
0.0000000000
40
0.0909209466
40
0.1818426652
40
0.2727646341
40
0.3636866866
40
0.4546085102
40
0.5455298998
40
0.6364502323
40
0.7273711591
40
0.8182867494
40
0.9092020002
40
1.0000000000
40
1.0000000000
40
1.0000000000
40
1.0000000000
10
10.0002824584
20
24.8189513378
30
0.0000000000
10
10.0002820560
20
24.8308424238
30
0.0000000000
10
9.9985786609
20
24.8546595706
30
0.0000000000
10
9.9909678627
20
24.8896301330
30
0.0000000000
10
9.9784563170
20
24.9231690310
30
0.0000000000
10
9.9612988445
20
24.9545837556
30
0.0000000000
10
9.9398448602
20
24.9832371756
30
0.0000000000
10
9.9145313783
20
25.0085451451
30
0.0000000000
10
9.8858735917
20
25.0299927143
30
0.0000000000
10
9.8544562212
20
25.0471428800
30
0.0000000000
10
9.8209164603
20
25.0596467809
30
0.0000000000
10
9.7859617715
20
25.0672468460
30
0.0000000000
10
9.7621616956
20
25.0689467051
30
0.0000000000
10
9.7502866892
20
25.0689471070
30
0.0000000000
11
10.0002824584
21
24.8189513378
31
0.0000000000
11
9.9977360607
21
24.8545335973
31
0.0000000000
11
9.9901510864
21
24.8893914674
31
0.0000000000
11
9.9776820007
21
24.9228149898
31
0.0000000000
11
9.9605827355
21
24.9541235736
31
0.0000000000
11
9.9392015478
21
24.9826796709
31
0.0000000000
11
9.9139738759
21
25.0079018497
31
0.0000000000
11
9.8854136164
21
25.0292765011
31
0.0000000000
11
9.8541017526
21
25.0463688373
31
0.0000000000
11
9.8206779744
21
25.0588300751
31
0.0000000000
11
9.7858210788
21
25.0664075896
31
0.0000000000
11
9.7502866892
21
25.0689471070
31
0.0000000000
0
SPLINE
5
46B
100
AcDbEntity
8
0
100
AcDbSpline
62
7
6
CONTINUOUS
70
0
71
3
72
9
73
5
74
3
42
0.0000001000
43
0.0000001000
44
0.0000000001
12
0.0000000000
22
0.0475573588
32
0.0000000000
13
-0.0090083279
23
0.0467385388
33
0.0000000000
40
0.0000000000
40
0.0000000000
40
0.0000000000
40
0.0000000000
40
0.7500208510
40
1.0000000000
40
1.0000000000
40
1.0000000000
40
1.0000000000
10
10.0046542924
20
24.8233231718
30
0.0000000000
10
10.0046542924
20
24.8352128421
30
0.0000000000
10
10.0035195792
20
24.8510885737
30
0.0000000000
10
10.0008873338
20
24.8667406833
30
0.0000000000
10
10.0001367024
20
24.8706352367
30
0.0000000000
11
10.0046542924
21
24.8233231718
31
0.0000000000
11
10.0021097666
21
24.8589013072
31
0.0000000000
11
10.0001367024
21
24.8706352367
31
0.0000000000
0
SPLINE
5
46C
100
AcDbEntity
8
0
100
AcDbSpline
62
7
6
CONTINUOUS
70
0
71
3
72
10
73
6
74
4
42
0.0000001000
43
0.0000001000
44
0.0000000001
12
-0.0180174245
22
0.0934810656
32
0.0000000000
13
-0.0514684004
23
0.0800866296
33
0.0000000000
40
0.0000000000
40
0.0000000000
40
0.0000000000
40
0.0000000000
40
0.2500103467
40
0.6250051020
40
1.0000000000
40
1.0000000000
40
1.0000000000
40
1.0000000000
10
10.0001367024
20
24.8706352367
30
0.0000000000
10
9.9986351883
20
24.8784256479
30
0.0000000000
10
9.9939549988
20
24.8977194976
30
0.0000000000
10
9.9828372461
20
24.9275292799
30
0.0000000000
10
9.9714023131
20
24.9484707544
30
0.0000000000
10
9.9649688506
20
24.9584814469
30
0.0000000000
11
10.0001367024
21
24.8706352367
31
0.0000000000
11
9.9945279342
21
24.8937552200
31
0.0000000000
11
9.9820630646
21
24.9271753873
31
0.0000000000
11
9.9649688506
21
24.9584814469
31
0.0000000000
0
SPLINE
5
46D
100
AcDbEntity
8
0
100
AcDbSpline
62
7
6
CONTINUOUS
70
0
71
3
72
10
73
6
74
4
42
0.0000001000
43
0.0000001000
44
0.0000000001
12
-0.0579011793
22
0.0900962584
32
0.0000000000
13
-0.0900962584
23
0.0579011793
33
0.0000000000
40
0.0000000000
40
0.0000000000
40
0.0000000000
40
0.0000000000
40
0.3333333233
40
0.6666666767
40
1.0000000000
40
1.0000000000
40
1.0000000000
40
1.0000000000
10
9.9649688506
20
24.9584814469
30
0.0000000000
10
9.9585353864
20
24.9684921420
30
0.0000000000
10
9.9442364669
20
24.9875934390
30
0.0000000000
10
9.9189287904
20
25.0129011154
30
0.0000000000
10
9.8998274934
20
25.0272000350
30
0.0000000000
10
9.8898167984
20
25.0336334992
30
0.0000000000
11
9.9649688506
21
24.9584814469
31
0.0000000000
11
9.9435932513
21
24.9870360601
31
0.0000000000
11
9.9183714115
21
25.0122578999
31
0.0000000000
11
9.8898167984
21
25.0336334992
31
0.0000000000
0
SPLINE
5
46E
100
AcDbEntity
8
0
100
AcDbSpline
62
7
6
CONTINUOUS
70
0
71
3
72
11
73
7
74
5
42
0.0000001000
43
0.0000001000
44
0.0000000001
12
-0.1201282362
22
0.0772015028
32
0.0000000000
13
-0.1426761344
23
0.0000000000
33
0.0000000000
40
0.0000000000
40
0.0000000000
40
0.0000000000
40
0.0000000000
40
0.2500001537
40
0.5000002124
40
0.7500001602
40
1.0000000000
40
1.0000000000
40
1.0000000000
40
1.0000000000
10
9.8898167984
20
25.0336334992
30
0.0000000000
10
9.8798061059
20
25.0400669617
30
0.0000000000
10
9.8588646313
20
25.0515018947
30
0.0000000000
10
9.8253290960
20
25.0640091913
30
0.0000000000
10
9.7903624581
20
25.0716168235
30
0.0000000000
10
9.7665481935
20
25.0733189410
30
0.0000000000
10
9.7546585232
20
25.0733189410
30
0.0000000000
11
9.8898167984
21
25.0336334992
31
0.0000000000
11
9.8585107387
21
25.0507277132
31
0.0000000000
11
9.8250905715
21
25.0631925827
31
0.0000000000
11
9.7902366586
21
25.0707744152
31
0.0000000000
11
9.7546585232
21
25.0733189410
31
0.0000000000
0
SPLINE
5
46F
100
AcDbEntity
8
0
100
AcDbSpline
62
7
6
CONTINUOUS
70
0
71
3
72
20
73
16
74
14
42
0.0000001000
43
0.0000001000
44
0.0000000001
12
0.7848337152
22
-0.0000039780
32
0.0000000000
13
-0.0000035535
23
0.7848337152
33
0.0000000000
40
0.0000000000
40
0.0000000000
40
0.0000000000
40
0.0000000000
40
0.0766128207
40
0.1536399235
40
0.2304640867
40
0.3071084831
40
0.3842388304
40
0.4612915504
40
0.5379226200
40
0.6150130979
40
0.6922376387
40
0.7690194909
40
0.8459914279
40
0.9231901544
40
1.0000000000
40
1.0000000000
40
1.0000000000
40
1.0000000000
10
10.5041621389
20
-21.8266810590
30
0.0000000000
10
10.5242049138
20
-21.8266811606
30
0.0000000000
10
10.5644407568
20
-21.8242557888
30
0.0000000000
10
10.6238856226
20
-21.8133730453
30
0.0000000000
10
10.6815981760
20
-21.7953911947
30
0.0000000000
10
10.7367470891
20
-21.7705804948
30
0.0000000000
10
10.7885539279
20
-21.7392657769
30
0.0000000000
10
10.8361904042
20
-21.7019183267
30
0.0000000000
10
10.8789707943
20
-21.6591119125
30
0.0000000000
10
10.9163116581
20
-21.6114264664
30
0.0000000000
10
10.9476353521
20
-21.5595426757
30
0.0000000000
10
10.9724614247
20
-21.5042917779
30
0.0000000000
10
10.9904584997
20
-21.4464588307
30
0.0000000000
10
11.0013531551
20
-21.3868788320
30
0.0000000000
10
11.0037816302
20
-21.3465465257
30
0.0000000000
10
11.0037815392
20
-21.3264522069
30
0.0000000000
11
10.5041621389
21
-21.8266810590
31
0.0000000000
11
10.5641814160
21
-21.8230614168
31
0.0000000000
11
10.6236467711
21
-21.8121759563
31
0.0000000000
11
10.6812113363
21
-21.7942396636
31
0.0000000000
11
10.7360687243
21
-21.7695604581
31
0.0000000000
11
10.7878747020
21
-21.7382464676
31
0.0000000000
11
10.8354658855
21
-21.7009351794
31
0.0000000000
11
10.8779806041
21
-21.6583953545
31
0.0000000000
11
10.9152831719
21
-21.6107596915
31
0.0000000000
11
10.9466087304
21
-21.5588743337
31
0.0000000000
11
10.9713076830
21
-21.5039075418
31
0.0000000000
11
10.9892587999
21
-21.4462261220
31
0.0000000000
11
11.0001564732
21
-21.3866260695
31
0.0000000000
11
11.0037815392
21
-21.3264522069
31
0.0000000000
0
SPLINE
5
470
100
AcDbEntity
8
0
100
AcDbSpline
62
7
6
CONTINUOUS
70
0
71
3
72
20
73
16
74
14
42
0.0000001000
43
0.0000001000
44
0.0000000001
12
0.0000035535
22
0.7848337152
32
0.0000000000
13
-0.7848337152
23
-0.0000039780
33
0.0000000000
40
0.0000000000
40
0.0000000000
40
0.0000000000
40
0.0000000000
40
0.0768098456
40
0.1540085721
40
0.2309805090
40
0.3077623613
40
0.3849869020
40
0.4620773798
40
0.5387084495
40
0.6157611694
40
0.6928915167
40
0.7695359130
40
0.8463600763
40
0.9233871790
40
1.0000000000
40
1.0000000000
40
1.0000000000
40
1.0000000000
10
11.0037815392
20
22.4730900890
30
0.0000000000
10
11.0037816302
20
22.4931844078
30
0.0000000000
10
11.0013531551
20
22.5335167141
30
0.0000000000
10
10.9904584997
20
22.5930967127
30
0.0000000000
10
10.9724614247
20
22.6509296599
30
0.0000000000
10
10.9476353522
20
22.7061805577
30
0.0000000000
10
10.9163116581
20
22.7580643483
30
0.0000000000
10
10.8789707944
20
22.8057497945
30
0.0000000000
10
10.8361904043
20
22.8485562087
30
0.0000000000
10
10.7885539280
20
22.8859036589
30
0.0000000000
10
10.7367470892
20
22.9172183767
30
0.0000000000
10
10.6815981761
20
22.9420290767
30
0.0000000000
10
10.6238856227
20
22.9600109273
30
0.0000000000
10
10.5644407570
20
22.9708936708
30
0.0000000000
10
10.5242049139
20
22.9733190426
30
0.0000000000
10
10.5041621389
20
22.9733189410
30
0.0000000000
11
11.0037815392
21
22.4730900890
31
0.0000000000
11
11.0001564732
21
22.5332639516
31
0.0000000000
11
10.9892587999
21
22.5928640040
31
0.0000000000
11
10.9713076830
21
22.6505454238
31
0.0000000000
11
10.9466087304
21
22.7055122157
31
0.0000000000
11
10.9152831719
21
22.7573975735
31
0.0000000000
11
10.8779806042
21
22.8050332365
31
0.0000000000
11
10.8354658856
21
22.8475730614
31
0.0000000000
11
10.7878747021
21
22.8848843495
31
0.0000000000
11
10.7360687245
21
22.9161983401
31
0.0000000000
11
10.6812113365
21
22.9408775456
31
0.0000000000
11
10.6236467713
21
22.9588138383
31
0.0000000000
11
10.5641814162
21
22.9696992988
31
0.0000000000
11
10.5041621389
21
22.9733189410
31
0.0000000000
0
SPLINE
5
471
100
AcDbEntity
8
0
100
AcDbSpline
62
7
6
CONTINUOUS
70
0
71
3
72
20
73
16
74
14
42
0.0000001000
43
0.0000001000
44
0.0000000001
12
-0.0000035535
22
-0.7848337152
32
0.0000000000
13
0.7848337152
23
0.0000039780
33
0.0000000000
40
0.0000000000
40
0.0000000000
40
0.0000000000
40
0.0000000000
40
0.0768098456
40
0.1540085721
40
0.2309805090
40
0.3077623613
40
0.3849869020
40
0.4620773798
40
0.5387084495
40
0.6157611694
40
0.6928915167
40
0.7695359130
40
0.8463600763
40
0.9233871790
40
1.0000000000
40
1.0000000000
40
1.0000000000
40
1.0000000000
10
-11.2944729543
20
-21.3264522069
30
0.0000000000
10
-11.2944730453
20
-21.3465465257
30
0.0000000000
10
-11.2920445702
20
-21.3868788320
30
0.0000000000
10
-11.2811499148
20
-21.4464588306
30
0.0000000000
10
-11.2631528399
20
-21.5042917779
30
0.0000000000
10
-11.2383267673
20
-21.5595426757
30
0.0000000000
10
-11.2070030732
20
-21.6114264663
30
0.0000000000
10
-11.1696622095
20
-21.6591119124
30
0.0000000000
10
-11.1268818194
20
-21.7019183266
30
0.0000000000
10
-11.0792453431
20
-21.7392657768
30
0.0000000000
10
-11.0274385043
20
-21.7705804947
30
0.0000000000
10
-10.9722895912
20
-21.7953911946
30
0.0000000000
10
-10.9145770378
20
-21.8133730453
30
0.0000000000
10
-10.8551321721
20
-21.8242557888
30
0.0000000000
10
-10.8148963290
20
-21.8266811606
30
0.0000000000
10
-10.7948535540
20
-21.8266810590
30
0.0000000000
11
-11.2944729543
21
-21.3264522069
31
0.0000000000
11
-11.2908478883
21
-21.3866260695
31
0.0000000000
11
-11.2799502150
21
-21.4462261219
31
0.0000000000
11
-11.2619990981
21
-21.5039075417
31
0.0000000000
11
-11.2373001455
21
-21.5588743337
31
0.0000000000
11
-11.2059745871
21
-21.6107596914
31
0.0000000000
11
-11.1686720193
21
-21.6583953545
31
0.0000000000
11
-11.1261573007
21
-21.7009351793
31
0.0000000000
11
-11.0785661172
21
-21.7382464675
31
0.0000000000
11
-11.0267601396
21
-21.7695604580
31
0.0000000000
11
-10.9719027516
21
-21.7942396635
31
0.0000000000
11
-10.9143381864
21
-21.8121759563
31
0.0000000000
11
-10.8548728314
21
-21.8230614168
31
0.0000000000
11
-10.7948535540
21
-21.8266810590
31
0.0000000000
0
SPLINE
5
472
100
AcDbEntity
8
0
100
AcDbSpline
62
7
6
CONTINUOUS
70
0
71
3
72
20
73
16
74
14
42
0.0000001000
43
0.0000001000
44
0.0000000001
12
-0.7848337152
22
0.0000039780
32
0.0000000000
13
0.0000035535
23
-0.7848337152
33
0.0000000000
40
0.0000000000
40
0.0000000000
40
0.0000000000
40
0.0000000000
40
0.0766128207
40
0.1536399235
40
0.2304640867
40
0.3071084831
40
0.3842388304
40
0.4612915504
40
0.5379226200
40
0.6150130979
40
0.6922376387
40
0.7690194909
40
0.8459914279
40
0.9231901544
40
1.0000000000
40
1.0000000000
40
1.0000000000
40
1.0000000000
10
-10.7948535540
20
22.9733189410
30
0.0000000000
10
-10.8148963290
20
22.9733190426
30
0.0000000000
10
-10.8551321719
20
22.9708936708
30
0.0000000000
10
-10.9145770377
20
22.9600109274
30
0.0000000000
10
-10.9722895911
20
22.9420290767
30
0.0000000000
10
-11.0274385042
20
22.9172183768
30
0.0000000000
10
-11.0792453430
20
22.8859036589
30
0.0000000000
10
-11.1268818193
20
22.8485562088
30
0.0000000000
10
-11.1696622094
20
22.8057497945
30
0.0000000000
10
-11.2070030732
20
22.7580643484
30
0.0000000000
10
-11.2383267672
20
22.7061805578
30
0.0000000000
10
-11.2631528398
20
22.6509296600
30
0.0000000000
10
-11.2811499148
20
22.5930967127
30
0.0000000000
10
-11.2920445702
20
22.5335167141
30
0.0000000000
10
-11.2944730453
20
22.4931844078
30
0.0000000000
10
-11.2944729543
20
22.4730900890
30
0.0000000000
11
-10.7948535540
21
22.9733189410
31
0.0000000000
11
-10.8548728312
21
22.9696992988
31
0.0000000000
11
-10.9143381862
21
22.9588138384
31
0.0000000000
11
-10.9719027514
21
22.9408775456
31
0.0000000000
11
-11.0267601394
21
22.9161983402
31
0.0000000000
11
-11.0785661171
21
22.8848843496
31
0.0000000000
11
-11.1261573006
21
22.8475730614
31
0.0000000000
11
-11.1686720192
21
22.8050332366
31
0.0000000000
11
-11.2059745870
21
22.7573975735
31
0.0000000000
11
-11.2373001455
21
22.7055122158
31
0.0000000000
11
-11.2619990981
21
22.6505454238
31
0.0000000000
11
-11.2799502150
21
22.5928640040
31
0.0000000000
11
-11.2908478883
21
22.5332639516
31
0.0000000000
11
-11.2944729543
21
22.4730900890
31
0.0000000000
0
SPLINE
5
473
100
AcDbEntity
8
0
100
AcDbSpline
62
7
6
CONTINUOUS
70
0
71
3
72
11
73
7
74
5
42
0.0000001000
43
0.0000001000
44
0.0000000001
12
-0.0067804439
22
7.2762870155
32
0.0000000000
13
-0.0173612672
23
7.2762694626
33
0.0000000000
40
0.0000000000
40
0.0000000000
40
0.0000000000
40
0.0000000000
40
0.2506865169
40
0.5009860030
40
0.7507957256
40
1.0000000000
40
1.0000000000
40
1.0000000000
40
1.0000000000
10
-9.6574506946
20
13.0865865832
30
0.0000000000
10
-9.6580172832
20
13.6946089324
30
0.0000000000
10
-9.6593688255
20
14.9097147223
30
0.0000000000
10
-9.6620535032
20
16.7307153024
30
0.0000000000
10
-9.6653930757
20
18.5481197177
30
0.0000000000
10
-9.6680586703
20
19.7584403621
30
0.0000000000
10
-9.6695008377
20
20.3628661792
30
0.0000000000
11
-9.6574506946
21
13.0865865832
31
0.0000000000
11
-9.6594800075
21
14.9106532940
31
0.0000000000
11
-9.6621656277
21
16.7319030053
31
0.0000000000
11
-9.6655064341
21
18.5495879658
31
0.0000000000
11
-9.6695008377
21
20.3628661792
31
0.0000000000
0
SPLINE
5
474
100
AcDbEntity
8
0
100
AcDbSpline
62
7
6
CONTINUOUS
70
0
71
3
72
20
73
16
74
14
42
0.0000001000
43
0.0000001000
44
0.0000000001
12
0.4645166834
22
-0.4879965431
32
0.0000000000
13
0.0392566728
23
-0.6725884989
33
0.0000000000
40
0.0000000000
40
0.0000000000
40
0.0000000000
40
0.0000000000
40
0.1376924970
40
0.2732041083
40
0.4019552266
40
0.5195374983
40
0.6233985078
40
0.7130440951
40
0.7890379647
40
0.8518561666
40
0.9022776034
40
0.9412923958
40
0.9701171226
40
0.9894788456
40
1.0000000000
40
1.0000000000
40
1.0000000000
40
1.0000000000
10
3.8076970024
20
-22.8830388737
30
0.0000000000
10
3.8290171564
20
-22.9054366945
30
0.0000000000
10
3.8713198350
20
-22.9498775309
30
0.0000000000
10
3.9335119741
20
-23.0153057074
30
0.0000000000
10
3.9924998596
20
-23.0775485441
30
0.0000000000
10
4.0464608236
20
-23.1347620850
30
0.0000000000
10
4.0942182517
20
-23.1857544352
30
0.0000000000
10
4.1353734269
20
-23.2301314994
30
0.0000000000
10
4.1700078916
20
-23.2679878920
30
0.0000000000
10
4.1983853580
20
-23.2996152046
30
0.0000000000
10
4.2208879208
20
-23.3253853443
30
0.0000000000
10
4.2378793039
20
-23.3457436553
30
0.0000000000
10
4.2500425537
20
-23.3612313427
30
0.0000000000
10
4.2572468916
20
-23.3720465480
30
0.0000000000
10
4.2605943702
20
-23.3782145295
30
0.0000000000
10
4.2607320454
20
-23.3805733320
30
0.0000000000
11
3.8076970024
21
-22.8830388737
31
0.0000000000
11
3.8716495371
21
-22.9502398813
31
0.0000000000
11
3.9345411118
21
-23.0164221775
31
0.0000000000
11
3.9941988148
21
-23.0793940946
31
0.0000000000
11
4.0485394262
21
-23.1370374805
31
0.0000000000
11
4.0963555245
21
-23.1881262885
31
0.0000000000
11
4.1374044182
21
-23.2324299079
31
0.0000000000
11
4.1719370598
21
-23.2702306314
31
0.0000000000
11
4.2001689580
21
-23.3017611144
31
0.0000000000
11
4.2224566948
21
-23.3273981590
31
0.0000000000
11
4.2392493193
21
-23.3476203844
31
0.0000000000
11
4.2510733520
21
-23.3630260789
31
0.0000000000
11
4.2581975920
21
-23.3739534620
31
0.0000000000
11
4.2607320454
21
-23.3805733320
31
0.0000000000
0
SPLINE
5
475
100
AcDbEntity
8
0
100
AcDbSpline
62
7
6
CONTINUOUS
70
0
71
3
72
16
73
12
74
10
42
0.0000001000
43
0.0000001000
44
0.0000000001
12
0.0916507667
22
-0.0458218934
32
0.0000000000
13
0.0000000000
23
-0.1024671116
33
0.0000000000
40
0.0000000000
40
0.0000000000
40
0.0000000000
40
0.0000000000
40
0.0199865820
40
0.0631509015
40
0.1263679540
40
0.2080815354
40
0.3096045213
40
0.4344049395
40
0.5857441645
40
0.7729066416
40
1.0000000000
40
1.0000000000
40
1.0000000000
40
1.0000000000
10
9.4997988591
20
-6.6931957827
30
0.0000000000
10
9.5004094542
20
-6.6935010571
30
0.0000000000
10
9.5007393623
20
-6.6960772502
30
0.0000000000
10
9.5015814693
20
-6.6999725490
30
0.0000000000
10
9.5021308562
20
-6.7065467881
30
0.0000000000
10
9.5027720298
20
-6.7148717364
30
0.0000000000
10
9.5033175401
20
-6.7254051861
30
0.0000000000
10
9.5038261704
20
-6.7382853550
30
0.0000000000
10
9.5042563553
20
-6.7541076698
30
0.0000000000
10
9.5045754379
20
-6.7734224024
30
0.0000000000
10
9.5046542924
20
-6.7875721104
30
0.0000000000
10
9.5046542924
20
-6.7953286439
30
0.0000000000
11
9.4997988591
21
-6.6931957827
31
0.0000000000
11
9.5006273865
21
-6.6950686715
31
0.0000000000
11
9.5013822823
21
-6.6994266965
31
0.0000000000
11
9.5020680299
21
-6.7058679652
31
0.0000000000
11
9.5026902240
21
-6.7142177702
31
0.0000000000
11
9.5032570019
21
-6.7246050859
31
0.0000000000
11
9.5037668369
21
-6.7373828571
31
0.0000000000
11
9.5041984392
21
-6.7528841429
31
0.0000000000
11
9.5045213018
21
-6.7720594235
31
0.0000000000
11
9.5046542924
21
-6.7953286439
31
0.0000000000
0
SPLINE
5
476
100
AcDbEntity
8
0
100
AcDbSpline
62
7
6
CONTINUOUS
70
0
71
3
72
20
73
16
74
14
42
0.0000001000
43
0.0000001000
44
0.0000000001
12
0.4646868985
22
-0.4881753620
32
0.0000000000
13
0.0000000000
23
-0.6739800425
33
0.0000000000
40
0.0000000000
40
0.0000000000
40
0.0000000000
40
0.0000000000
40
0.1383453987
40
0.2743387740
40
0.4034314658
40
0.5212850016
40
0.6253097961
40
0.7149830465
40
0.7908869774
40
0.8535154546
40
0.9036785302
40
0.9423973740
40
0.9709008363
40
0.9898871653
40
1.0000000000
40
1.0000000000
40
1.0000000000
40
1.0000000000
10
-4.0983884175
20
-22.8830388737
30
0.0000000000
10
-4.0769593194
20
-22.9055511454
30
0.0000000000
10
-4.0344653830
20
-22.9501929039
30
0.0000000000
10
-3.9720224178
20
-23.0158858699
30
0.0000000000
10
-3.9128450328
20
-23.0783312232
30
0.0000000000
10
-3.8587470605
20
-23.1356949664
30
0.0000000000
10
-3.8109050659
20
-23.1867857157
30
0.0000000000
10
-3.7697255275
20
-23.2312012648
30
0.0000000000
10
-3.7351246286
20
-23.2690379377
30
0.0000000000
10
-3.7068304662
20
-23.3005963409
30
0.0000000000
10
-3.6844416864
20
-23.3262664060
30
0.0000000000
10
-3.6676005034
20
-23.3464924767
30
0.0000000000
10
-3.6555799461
20
-23.3618498496
30
0.0000000000
10
-3.6485977209
20
-23.3724646518
30
0.0000000000
10
-3.6453457076
20
-23.3785570535
30
0.0000000000
10
-3.6453457076
20
-23.3808290031
30
0.0000000000
11
-4.0983884175
21
-22.8830388737
31
0.0000000000
11
-4.0341091736
21
-22.9505833508
31
0.0000000000
11
-3.9709714323
21
-23.0170257955
31
0.0000000000
11
-3.9111349534
21
-23.0801892505
31
0.0000000000
11
-3.8566516817
21
-23.1379893017
31
0.0000000000
11
-3.8087469605
21
-23.1891814777
31
0.0000000000
11
-3.7676767874
21
-23.2335209685
31
0.0000000000
11
-3.7331814619
21
-23.2712990881
31
0.0000000000
11
-3.7050369827
21
-23.3027570188
31
0.0000000000
11
-3.6828723429
21
-23.3282868301
31
0.0000000000
11
-3.6662248640
21
-23.3483828114
31
0.0000000000
11
-3.6545646572
21
-23.3636501969
31
0.0000000000
11
-3.6476392907
21
-23.3744106489
31
0.0000000000
11
-3.6453457076
21
-23.3808290031
31
0.0000000000
0
SPLINE
5
477
100
AcDbEntity
8
0
100
AcDbSpline
62
7
6
CONTINUOUS
70
0
71
3
72
20
73
16
74
14
42
0.0000001000
43
0.0000001000
44
0.0000000001
12
0.0392566707
22
0.6725884623
32
0.0000000000
13
0.4645166581
23
0.4879965165
33
0.0000000000
40
0.0000000000
40
0.0000000000
40
0.0000000000
40
0.0000000000
40
0.0105272862
40
0.0298989129
40
0.0587327465
40
0.0977498622
40
0.1481655874
40
0.2109758150
40
0.2869640673
40
0.3766131765
40
0.4804862274
40
0.5980619866
40
0.7267707712
40
0.8622612818
40
1.0000000000
40
1.0000000000
40
1.0000000000
40
1.0000000000
10
-4.5514234605
20
-23.3805733320
30
0.0000000000
10
-4.5512857051
20
-23.3782131549
30
0.0000000000
10
-4.5479355533
20
-23.3720421646
30
0.0000000000
10
-4.5407277608
20
-23.3612227436
30
0.0000000000
10
-4.5285609377
20
-23.3457316666
30
0.0000000000
10
-4.5115684296
20
-23.3253726572
30
0.0000000000
10
-4.4890673403
20
-23.2996046157
30
0.0000000000
10
-4.4606926820
20
-23.2679806140
30
0.0000000000
10
-4.4260597039
20
-23.2301259293
30
0.0000000000
10
-4.3849029834
20
-23.1857472567
30
0.0000000000
10
-4.3371441300
20
-23.1347534616
30
0.0000000000
10
-4.2831888130
20
-23.0775459627
30
0.0000000000
10
-4.2242117452
20
-23.0153145225
30
0.0000000000
10
-4.1620222933
20
-22.9498891319
30
0.0000000000
10
-4.1197157272
20
-22.9054442119
30
0.0000000000
10
-4.0983884175
20
-22.8830388737
30
0.0000000000
11
-4.5514234605
21
-23.3805733320
31
0.0000000000
11
-4.5488869961
21
-23.3739498088
31
0.0000000000
11
-4.5417584344
21
-23.3630172788
31
0.0000000000
11
-4.5299301054
21
-23.3476071487
31
0.0000000000
11
-4.5131360880
21
-23.3273840472
31
0.0000000000
11
-4.4908506479
21
-23.3017501075
31
0.0000000000
11
-4.4626222251
21
-23.2702237273
31
0.0000000000
11
-4.4280920911
21
-23.2324258428
31
0.0000000000
11
-4.3870415579
21
-23.1881205119
31
0.0000000000
11
-4.3392198823
21
-23.1370258176
31
0.0000000000
11
-4.2848822531
21
-23.0793856564
31
0.0000000000
11
-4.2252441709
21
-23.0164344461
31
0.0000000000
11
-4.1623624112
21
-22.9502624411
31
0.0000000000
11
-4.0983884175
21
-22.8830388737
31
0.0000000000
0
SPLINE
5
478
100
AcDbEntity
8
0
100
AcDbSpline
62
7
6
CONTINUOUS
70
0
71
3
72
16
73
12
74
10
42
0.0000001000
43
0.0000001000
44
0.0000000001
12
-0.0916507667
22
0.0458218934
32
0.0000000000
13
0.0000000000
23
0.1024671116
33
0.0000000000
40
0.0000000000
40
0.0000000000
40
0.0000000000
40
0.0000000000
40
0.0199865820
40
0.0631509015
40
0.1263679540
40
0.2080815354
40
0.3096045213
40
0.4344049395
40
0.5857441645
40
0.7729066416
40
1.0000000000
40
1.0000000000
40
1.0000000000
40
1.0000000000
10
-9.7904902742
20
-7.5601663352
30
0.0000000000
10
-9.7911008693
20
-7.5598610609
30
0.0000000000
10
-9.7914307774
20
-7.5572848677
30
0.0000000000
10
-9.7922728844
20
-7.5533895689
30
0.0000000000
10
-9.7928222713
20
-7.5468153298
30
0.0000000000
10
-9.7934634449
20
-7.5384903815
30
0.0000000000
10
-9.7940089552
20
-7.5279569319
30
0.0000000000
10
-9.7945175855
20
-7.5150767630
30
0.0000000000
10
-9.7949477704
20
-7.4992544482
30
0.0000000000
10
-9.7952668530
20
-7.4799397155
30
0.0000000000
10
-9.7953457076
20
-7.4657900075
30
0.0000000000
10
-9.7953457076
20
-7.4580334741
30
0.0000000000
11
-9.7904902742
21
-7.5601663352
31
0.0000000000
11
-9.7913188016
21
-7.5582934464
31
0.0000000000
11
-9.7920736974
21
-7.5539354215
31
0.0000000000
11
-9.7927594450
21
-7.5474941528
31
0.0000000000
11
-9.7933816391
21
-7.5391443477
31
0.0000000000
11
-9.7939484170
21
-7.5287570321
31
0.0000000000
11
-9.7944582520
21
-7.5159792609
31
0.0000000000
11
-9.7948898543
21
-7.5004779750
31
0.0000000000
11
-9.7952127169
21
-7.4813026945
31
0.0000000000
11
-9.7953457076
21
-7.4580334741
31
0.0000000000
0
SPLINE
5
479
100
AcDbEntity
8
0
100
AcDbSpline
62
7
6
CONTINUOUS
70
0
71
3
72
16
73
12
74
10
42
0.0000001000
43
0.0000001000
44
0.0000000001
12
0.0000000000
22
0.1024674445
32
0.0000000000
13
0.0916510645
23
0.0458220422
33
0.0000000000
40
0.0000000000
40
0.0000000000
40
0.0000000000
40
0.0000000000
40
0.2280397230
40
0.4162351695
40
0.5675367451
40
0.6920305970
40
0.7933353119
40
0.8747137100
40
0.9374877488
40
0.9802327601
40
1.0000000000
40
1.0000000000
40
1.0000000000
40
1.0000000000
10
-9.7953457076
20
-6.7953286439
30
0.0000000000
10
-9.7953457076
20
-6.7875397614
30
0.0000000000
10
-9.7952661507
20
-6.7733223977
30
0.0000000000
10
-9.7949444301
20
-6.7539413176
30
0.0000000000
10
-9.7945113539
20
-6.7380954929
30
0.0000000000
10
-9.7940011959
20
-6.7252345375
30
0.0000000000
10
-9.7934545784
20
-6.7147306264
30
0.0000000000
10
-9.7928135515
20
-6.7064393312
30
0.0000000000
10
-9.7922631851
20
-6.6999079389
30
0.0000000000
10
-9.7914274459
20
-6.6960446270
30
0.0000000000
10
-9.7910941703
20
-6.6934977078
30
0.0000000000
10
-9.7904902742
20
-6.6931957827
30
0.0000000000
11
-9.7953457076
21
-6.7953286439
31
0.0000000000
11
-9.7952115925
21
-6.7719623811
31
0.0000000000
11
-9.7948852814
21
-6.7526812357
31
0.0000000000
11
-9.7944515144
21
-6.7371838192
31
0.0000000000
11
-9.7939405401
21
-6.7244374902
31
0.0000000000
11
-9.7933723760
21
-6.7140726156
31
0.0000000000
11
-9.7927496582
21
-6.7057572635
31
0.0000000000
11
-9.7920650624
21
-6.6993615030
31
0.0000000000
11
-9.7913133144
21
-6.6950465256
31
0.0000000000
11
-9.7904902742
21
-6.6931957827
31
0.0000000000
0
SPLINE
5
47A
100
AcDbEntity
8
0
100
AcDbSpline
62
7
6
CONTINUOUS
70
0
71
3
72
16
73
12
74
10
42
0.0000001000
43
0.0000001000
44
0.0000000001
12
-0.0916507667
22
0.0458218934
32
0.0000000000
13
0.0000000000
23
0.1024671116
33
0.0000000000
40
0.0000000000
40
0.0000000000
40
0.0000000000
40
0.0000000000
40
0.0199865820
40
0.0631509015
40
0.1263679540
40
0.2080815354
40
0.3096045213
40
0.4344049395
40
0.5857441645
40
0.7729066416
40
1.0000000000
40
1.0000000000
40
1.0000000000
40
1.0000000000
10
-9.7904902742
20
0.1398336648
30
0.0000000000
10
-9.7911008693
20
0.1401389391
30
0.0000000000
10
-9.7914307774
20
0.1427151323
30
0.0000000000
10
-9.7922728844
20
0.1466104311
30
0.0000000000
10
-9.7928222713
20
0.1531846702
30
0.0000000000
10
-9.7934634449
20
0.1615096185
30
0.0000000000
10
-9.7940089552
20
0.1720430681
30
0.0000000000
10
-9.7945175855
20
0.1849232370
30
0.0000000000
10
-9.7949477704
20
0.2007455518
30
0.0000000000
10
-9.7952668530
20
0.2200602845
30
0.0000000000
10
-9.7953457076
20
0.2342099925
30
0.0000000000
10
-9.7953457076
20
0.2419665259
30
0.0000000000
11
-9.7904902742
21
0.1398336648
31
0.0000000000
11
-9.7913188016
21
0.1417065536
31
0.0000000000
11
-9.7920736974
21
0.1460645785
31
0.0000000000
11
-9.7927594450
21
0.1525058472
31
0.0000000000
11
-9.7933816391
21
0.1608556523
31
0.0000000000
11
-9.7939484170
21
0.1712429679
31
0.0000000000
11
-9.7944582520
21
0.1840207391
31
0.0000000000
11
-9.7948898543
21
0.1995220250
31
0.0000000000
11
-9.7952127169
21
0.2186973055
31
0.0000000000
11
-9.7953457076
21
0.2419665259
31
0.0000000000
0
SPLINE
5
47B
100
AcDbEntity
8
0
100
AcDbSpline
62
7
6
CONTINUOUS
70
0
71
3
72
16
73
12
74
10
42
0.0000001000
43
0.0000001000
44
0.0000000001
12
0.0000000000
22
0.1024674445
32
0.0000000000
13
0.0916510645
23
0.0458220422
33
0.0000000000
40
0.0000000000
40
0.0000000000
40
0.0000000000
40
0.0000000000
40
0.2280397230
40
0.4162351695
40
0.5675367451
40
0.6920305970
40
0.7933353119
40
0.8747137100
40
0.9374877488
40
0.9802327601
40
1.0000000000
40
1.0000000000
40
1.0000000000
40
1.0000000000
10
-9.7953457076
20
0.9046713561
30
0.0000000000
10
-9.7953457076
20
0.9124602386
30
0.0000000000
10
-9.7952661507
20
0.9266776023
30
0.0000000000
10
-9.7949444301
20
0.9460586824
30
0.0000000000
10
-9.7945113539
20
0.9619045071
30
0.0000000000
10
-9.7940011959
20
0.9747654625
30
0.0000000000
10
-9.7934545784
20
0.9852693736
30
0.0000000000
10
-9.7928135515
20
0.9935606688
30
0.0000000000
10
-9.7922631851
20
1.0000920611
30
0.0000000000
10
-9.7914274459
20
1.0039553730
30
0.0000000000
10
-9.7910941703
20
1.0065022922
30
0.0000000000
10
-9.7904902742
20
1.0068042173
30
0.0000000000
11
-9.7953457076
21
0.9046713561
31
0.0000000000
11
-9.7952115925
21
0.9280376189
31
0.0000000000
11
-9.7948852814
21
0.9473187643
31
0.0000000000
11
-9.7944515144
21
0.9628161808
31
0.0000000000
11
-9.7939405401
21
0.9755625098
31
0.0000000000
11
-9.7933723760
21
0.9859273844
31
0.0000000000
11
-9.7927496582
21
0.9942427365
31
0.0000000000
11
-9.7920650624
21
1.0006384970
31
0.0000000000
11
-9.7913133144
21
1.0049534744
31
0.0000000000
11
-9.7904902742
21
1.0068042173
31
0.0000000000
0
SPLINE
5
47C
100
AcDbEntity
8
0
100
AcDbSpline
62
7
6
CONTINUOUS
70
0
71
3
72
20
73
16
74
14
42
0.0000001000
43
0.0000001000
44
0.0000000001
12
-0.4646867855
22
0.4881752433
32
0.0000000000
13
-0.0000000000
23
0.6739798786
33
0.0000000000
40
0.0000000000
40
0.0000000000
40
0.0000000000
40
0.0000000000
40
0.1388713231
40
0.2749115227
40
0.4037834237
40
0.5214526785
40
0.6254136342
40
0.7150230414
40
0.7908650114
40
0.8533989954
40
0.9034986065
40
0.9422325024
40
0.9708206345
40
0.9898666645
40
1.0000000000
40
1.0000000000
40
1.0000000000
40
1.0000000000
10
3.8076970024
20
24.0296767557
30
0.0000000000
10
3.7861864461
20
24.0522746030
30
0.0000000000
10
3.7436038023
20
24.0970095499
30
0.0000000000
10
3.6811066601
20
24.1627600809
30
0.0000000000
10
3.6219851093
20
24.2251474346
30
0.0000000000
10
3.5679598281
20
24.2824349016
30
0.0000000000
10
3.5201660390
20
24.3334747512
30
0.0000000000
10
3.4790157034
20
24.3778592554
30
0.0000000000
10
3.4444482747
20
24.4156594505
30
0.0000000000
10
3.4161867904
20
24.4471807845
30
0.0000000000
10
3.3938179548
20
24.4728256062
30
0.0000000000
10
3.3769694341
20
24.4930560056
30
0.0000000000
10
3.3649229848
20
24.5084393102
30
0.0000000000
10
3.3579184798
20
24.5190822309
30
0.0000000000
10
3.3546542924
20
24.5251903304
30
0.0000000000
10
3.3546542924
20
24.5274668851
30
0.0000000000
11
3.8076970024
21
24.0296767557
31
0.0000000000
11
3.7431734767
21
24.0974780480
31
0.0000000000
11
3.6800143162
21
24.1639436428
31
0.0000000000
11
3.6202806346
21
24.2269994718
31
0.0000000000
11
3.5658829440
21
24.2847094842
31
0.0000000000
11
3.5180079159
21
24.3358704964
31
0.0000000000
11
3.4769671988
21
24.3801785995
31
0.0000000000
11
3.4425000662
21
24.4179258950
31
0.0000000000
11
3.4143976033
21
24.4493359479
31
0.0000000000
11
3.3922595890
21
24.4748322190
31
0.0000000000
11
3.3756029950
21
24.4949338146
31
0.0000000000
11
3.3639047600
21
24.5102439553
31
0.0000000000
11
3.3569544837
21
24.5210362215
31
0.0000000000
11
3.3546542924
21
24.5274668851
31
0.0000000000
0
SPLINE
5
47D
100
AcDbEntity
8
0
100
AcDbSpline
62
7
6
CONTINUOUS
70
0
71
3
72
20
73
16
74
14
42
0.0000001000
43
0.0000001000
44
0.0000000001
12
-0.0392566671
22
-0.6725884001
32
0.0000000000
13
-0.4645166152
23
-0.4879964714
33
0.0000000000
40
0.0000000000
40
0.0000000000
40
0.0000000000
40
0.0000000000
40
0.0105350590
40
0.0299438888
40
0.0588398542
40
0.0978545055
40
0.1482120786
40
0.2109386931
40
0.2868777404
40
0.3764553953
40
0.4802422333
40
0.5976470591
40
0.7262204869
40
0.8618061527
40
1.0000000000
40
1.0000000000
40
1.0000000000
40
1.0000000000
10
4.2607320454
20
24.5272112141
30
0.0000000000
10
4.2605941883
20
24.5248492946
30
0.0000000000
10
4.2572379359
20
24.5186694444
30
0.0000000000
10
4.2500155426
20
24.5078315212
30
0.0000000000
10
4.2378330635
20
24.4923247488
30
0.0000000000
10
4.2208390438
20
24.4719666016
30
0.0000000000
10
4.1983587330
20
24.4462234595
30
0.0000000000
10
4.1700127552
20
24.4146313415
30
0.0000000000
10
4.1354110099
20
24.3768102696
30
0.0000000000
10
4.0942862498
20
24.3324653269
30
0.0000000000
10
4.0465782680
20
24.2815250045
30
0.0000000000
10
3.9926839278
20
24.2243811730
30
0.0000000000
10
3.9337399437
20
24.1621837169
30
0.0000000000
10
3.8714865506
20
24.0966905527
30
0.0000000000
10
3.8290947818
20
24.0521561257
30
0.0000000000
10
3.8076970024
20
24.0296767557
30
0.0000000000
11
4.2607320454
21
24.5272112141
31
0.0000000000
11
4.2581930315
21
24.5205830603
31
0.0000000000
11
4.2510492795
21
24.5096305140
31
0.0000000000
11
4.2391934601
21
24.4941887174
31
0.0000000000
11
4.2223989125
21
24.4739682176
31
0.0000000000
11
4.2001384569
21
24.4483644760
31
0.0000000000
11
4.1719475613
21
24.4168801143
31
0.0000000000
11
4.1374400374
21
24.3791064826
31
0.0000000000
11
4.0964225773
21
24.3348361448
31
0.0000000000
11
4.0486410119
21
24.2837834748
31
0.0000000000
11
3.9943828598
21
24.2262266690
31
0.0000000000
11
3.9348079638
21
24.1633412295
31
0.0000000000
11
3.8718823257
21
24.0971224939
31
0.0000000000
11
3.8076970024
21
24.0296767557
31
0.0000000000
0
SPLINE
5
47E
100
AcDbEntity
8
0
100
AcDbSpline
62
7
6
CONTINUOUS
70
0
71
3
72
20
73
16
74
14
42
0.0000001000
43
0.0000001000
44
0.0000000001
12
-0.4645165876
22
0.4879964425
32
0.0000000000
13
-0.0392566647
23
0.6725883602
33
0.0000000000
40
0.0000000000
40
0.0000000000
40
0.0000000000
40
0.0000000000
40
0.1382329167
40
0.2737962112
40
0.4023280308
40
0.5197265990
40
0.6235247092
40
0.7131061512
40
0.7890389568
40
0.8517593797
40
0.9021124849
40
0.9411324929
40
0.9700381349
40
0.9894583388
40
1.0000000000
40
1.0000000000
40
1.0000000000
40
1.0000000000
10
-4.0983884175
20
24.0296767557
30
0.0000000000
10
-4.1197922451
20
24.0521624796
30
0.0000000000
10
-4.1621865970
20
24.0966996201
30
0.0000000000
10
-4.2244361157
20
24.1621887415
30
0.0000000000
10
-4.2833692445
20
24.2243747462
30
0.0000000000
10
-4.3372579808
20
24.2815125598
30
0.0000000000
10
-4.3849673649
20
24.3324542717
30
0.0000000000
10
-4.4260935204
20
24.3768006156
30
0.0000000000
10
-4.4606940263
20
24.4146201863
30
0.0000000000
10
-4.4890376002
20
24.4462093548
30
0.0000000000
10
-4.5115173841
20
24.4719513797
30
0.0000000000
10
-4.5285132828
20
24.4923110084
30
0.0000000000
10
-4.5407000959
20
24.5078220313
30
0.0000000000
10
-4.5479263061
20
24.5186645801
30
0.0000000000
10
-4.5512855170
20
24.5248478145
30
0.0000000000
10
-4.5514234605
20
24.5272112141
30
0.0000000000
11
-4.0983884175
21
24.0296767557
31
0.0000000000
11
-4.1625918786
21
24.0971415621
31
0.0000000000
11
-4.2255071159
21
24.1633493816
31
0.0000000000
11
-4.2850627349
21
24.2262144613
31
0.0000000000
11
-4.3393180336
21
24.2837681565
31
0.0000000000
11
-4.3871048384
21
24.3348263189
31
0.0000000000
11
-4.4281240829
21
24.3790984770
31
0.0000000000
11
-4.4626288497
21
24.4168689274
31
0.0000000000
11
-4.4908171167
21
24.4483500401
31
0.0000000000
11
-4.5130758804
21
24.4739512612
31
0.0000000000
11
-4.5298731829
21
24.4941741622
31
0.0000000000
11
-4.5417335943
21
24.5096206512
31
0.0000000000
11
-4.5488822806
21
24.5205791272
31
0.0000000000
11
-4.5514234605
21
24.5272112141
31
0.0000000000
0
SPLINE
5
47F
100
AcDbEntity
8
0
100
AcDbSpline
62
7
6
CONTINUOUS
70
0
71
3
72
11
73
7
74
5
42
0.0000001000
43
0.0000001000
44
0.0000000001
12
0.0000000000
22
-0.0650167575
32
0.0000000000
13
-0.0420659776
23
-0.0494993135
33
0.0000000000
40
0.0000000000
40
0.0000000000
40
0.0000000000
40
0.0000000000
40
0.1049754499
40
0.3022888118
40
0.5985372888
40
1.0000000000
40
1.0000000000
40
1.0000000000
40
1.0000000000
10
-3.6453457076
20
24.5274668851
30
0.0000000000
10
-3.6453457076
20
24.5251918306
30
0.0000000000
10
-3.6486067614
20
24.5190872636
30
0.0000000000
10
-3.6556073945
20
24.5084490792
30
0.0000000000
10
-3.6676492600
20
24.4930702652
30
0.0000000000
10
-3.6773066087
20
24.4814740019
30
0.0000000000
10
-3.6829359159
20
24.4748499590
30
0.0000000000
11
-3.6453457076
21
24.5274668851
31
0.0000000000
11
-3.6476437456
21
24.5210402315
31
0.0000000000
11
-3.6545888981
21
24.5102541405
31
0.0000000000
11
-3.6662823936
21
24.4949488235
31
0.0000000000
11
-3.6829359159
21
24.4748499590
31
0.0000000000
0
SPLINE
5
480
100
AcDbEntity
8
0
100
AcDbSpline
62
7
6
CONTINUOUS
70
0
71
3
72
16
73
12
74
10
42
0.0000001000
43
0.0000001000
44
0.0000000001
12
-0.3940004393
22
-0.4636229176
32
0.0000000000
13
-0.4198599192
23
-0.4410825197
33
0.0000000000
40
0.0000000000
40
0.0000000000
40
0.0000000000
40
0.0000000000
40
0.0554530572
40
0.1246695785
40
0.2086153044
40
0.3077875392
40
0.4228360716
40
0.5530765658
40
0.6957543055
40
0.8463438697
40
1.0000000000
40
1.0000000000
40
1.0000000000
40
1.0000000000
10
-3.6829359159
20
24.4748499590
30
0.0000000000
10
-3.6902187588
20
24.4662801896
30
0.0000000000
10
-3.7068647596
20
24.4471959158
30
0.0000000000
10
-3.7351283881
20
24.4156718895
30
0.0000000000
10
-3.7696968237
20
24.3778704210
30
0.0000000000
10
-3.8108457206
20
24.3334873456
30
0.0000000000
10
-3.8586383057
20
24.2824486604
30
0.0000000000
10
-3.9126695147
20
24.2251548247
30
0.0000000000
10
-3.9718021894
20
24.1627557329
30
0.0000000000
10
-4.0343034833
20
24.0970008664
30
0.0000000000
10
-4.0768837340
20
24.0522684334
30
0.0000000000
10
-4.0983884175
20
24.0296767557
30
0.0000000000
11
-3.6829359159
21
24.4748499590
31
0.0000000000
11
-3.7050754202
21
24.4493513533
31
0.0000000000
11
-3.7331801549
21
24.4179384149
31
0.0000000000
11
-3.7676498182
21
24.3801881578
31
0.0000000000
11
-3.8086886383
21
24.3358819765
31
0.0000000000
11
-3.8565586367
21
24.2847262189
31
0.0000000000
11
-3.9109596795
21
24.2270125585
31
0.0000000000
11
-3.9707128991
21
24.1639360902
31
0.0000000000
11
-4.0338825034
21
24.0974595328
31
0.0000000000
11
-4.0983884175
21
24.0296767557
31
0.0000000000
0
SPLINE
5
481
100
AcDbEntity
8
0
100
AcDbSpline
62
7
6
CONTINUOUS
70
0
71
3
72
13
73
9
74
7
42
0.0000001000
43
0.0000001000
44
0.0000000001
12
0.7119171872
22
0.7215311729
32
0.0000000000
13
-0.3203015685
23
0.9616861339
33
0.0000000000
40
0.0000000000
40
0.0000000000
40
0.0000000000
40
0.0000000000
40
0.2906365066
40
0.5377848849
40
0.7328806570
40
0.8797364453
40
0.9685166968
40
1.0000000000
40
1.0000000000
40
1.0000000000
40
1.0000000000
10
-9.6695871809
20
20.3947762027
30
0.0000000000
10
-9.6006174728
20
20.4646773025
30
0.0000000000
10
-9.4738716927
20
20.5945245872
30
0.0000000000
10
-9.3012581633
20
20.7733714654
30
0.0000000000
10
-9.1684488166
20
20.9184111873
30
0.0000000000
10
-9.0635263129
20
21.0273313187
30
0.0000000000
10
-9.0188793396
20
21.0949328712
30
0.0000000000
10
-8.9807757556
20
21.1296488451
30
0.0000000000
10
-8.9841371394
20
21.1397411971
30
0.0000000000
11
-9.6695871809
21
20.3947762027
31
0.0000000000
11
-9.4636465028
21
20.6054306510
31
0.0000000000
11
-9.2903909934
21
20.7863741226
31
0.0000000000
11
-9.1555534768
21
20.9310302014
31
0.0000000000
11
-9.0563766108
21
21.0420356776
31
0.0000000000
11
-8.9994919770
21
21.1117658651
31
0.0000000000
11
-8.9841371394
21
21.1397411971
31
0.0000000000
0
SPLINE
5
482
100
AcDbEntity
8
0
100
AcDbSpline
62
7
6
CONTINUOUS
70
0
71
3
72
13
73
9
74
7
42
0.0000001000
43
0.0000001000
44
0.0000000001
12
-0.3203015685
22
-0.9616861339
32
0.0000000000
13
0.7119171872
23
-0.7215311729
33
0.0000000000
40
0.0000000000
40
0.0000000000
40
0.0000000000
40
0.0000000000
40
0.0314833032
40
0.1202635547
40
0.2671193430
40
0.4622151151
40
0.7093634934
40
1.0000000000
40
1.0000000000
40
1.0000000000
40
1.0000000000
10
8.6934457243
20
21.1397411971
30
0.0000000000
10
8.6900843405
20
21.1296488451
30
0.0000000000
10
8.7281879245
20
21.0949328712
30
0.0000000000
10
8.7728348978
20
21.0273313187
30
0.0000000000
10
8.8777574015
20
20.9184111873
30
0.0000000000
10
9.0105667482
20
20.7733714654
30
0.0000000000
10
9.1831802776
20
20.5945245872
30
0.0000000000
10
9.3099260577
20
20.4646773025
30
0.0000000000
10
9.3788957658
20
20.3947762027
30
0.0000000000
11
8.6934457243
21
21.1397411971
31
0.0000000000
11
8.7088005619
21
21.1117658651
31
0.0000000000
11
8.7656851957
21
21.0420356776
31
0.0000000000
11
8.8648620617
21
20.9310302014
31
0.0000000000
11
8.9996995783
21
20.7863741226
31
0.0000000000
11
9.1729550877
21
20.6054306510
31
0.0000000000
11
9.3788957658
21
20.3947762027
31
0.0000000000
0
SPLINE
5
483
100
AcDbEntity
8
0
100
AcDbSpline
62
7
6
CONTINUOUS
70
0
71
3
72
12
73
8
74
6
42
0.0000001000
43
0.0000001000
44
0.0000000001
12
-0.0004407288
22
-0.7820673793
32
0.0000000000
13
-0.7820675034
23
0.0000000000
33
0.0000000000
40
0.0000000000
40
0.0000000000
40
0.0000000000
40
0.0000000000
40
0.1997333132
40
0.4007548314
40
0.5998478933
40
0.8004114338
40
1.0000000000
40
1.0000000000
40
1.0000000000
40
1.0000000000
10
7.3541466712
20
-12.9261924762
30
0.0000000000
10
7.3541173285
20
-12.9782607792
30
0.0000000000
10
7.3374499807
20
-13.0834557121
30
0.0000000000
10
7.2650938632
20
-13.2249113312
30
0.0000000000
10
7.1523824139
20
-13.3373406361
30
0.0000000000
10
7.0109455980
20
-13.4093399893
30
0.0000000000
10
6.9059023133
20
-13.4258794642
30
0.0000000000
10
6.8538717361
20
-13.4258794642
30
0.0000000000
11
7.3541466712
21
-12.9261924762
31
0.0000000000
11
7.3296360447
21
-13.0804624036
31
0.0000000000
11
7.2580929270
21
-13.2204528320
31
0.0000000000
11
7.1478595362
21
-13.3304182892
31
0.0000000000
11
7.0080532036
21
-13.4015339555
31
0.0000000000
11
6.8538717361
21
-13.4258794642
31
0.0000000000
0
SPLINE
5
484
100
AcDbEntity
8
0
100
AcDbSpline
62
7
6
CONTINUOUS
70
0
71
3
72
12
73
8
74
6
42
0.0000001000
43
0.0000001000
44
0.0000000001
12
-0.7820675114
22
0.0000000000
32
0.0000000000
13
-0.0004407288
23
0.7820673872
33
0.0000000000
40
0.0000000000
40
0.0000000000
40
0.0000000000
40
0.0000000000
40
0.1996015965
40
0.4006068012
40
0.5997043620
40
0.8002845603
40
1.0000000000
40
1.0000000000
40
1.0000000000
40
1.0000000000
10
-7.1445631512
20
-13.4258794642
30
0.0000000000
10
-7.1965971258
20
-13.4258794642
30
0.0000000000
10
-7.3017589447
20
-13.4093207621
30
0.0000000000
10
-7.4432893565
20
-13.3372079846
30
0.0000000000
10
-7.5559194363
20
-13.2246951411
30
0.0000000000
10
-7.6281613449
20
-13.0833313045
30
0.0000000000
10
-7.6448087462
20
-12.9782561203
30
0.0000000000
10
-7.6448380863
20
-12.9261924762
30
0.0000000000
11
-7.1445631512
21
-13.4258794642
31
0.0000000000
11
-7.2987544351
21
-13.4015307762
31
0.0000000000
11
-7.4388422539
21
-13.3302066576
31
0.0000000000
11
-7.5489985630
21
-13.2201590044
31
0.0000000000
11
-7.6203318374
21
-13.0804489471
31
0.0000000000
11
-7.6448380863
21
-12.9261924762
31
0.0000000000
0
SPLINE
5
485
100
AcDbEntity
8
0
100
AcDbSpline
62
7
6
CONTINUOUS
70
0
71
3
72
17
73
13
74
11
42
0.0000001000
43
0.0000001000
44
0.0000000001
12
0.0000000000
22
0.3138390385
32
0.0000000000
13
-0.3138390385
23
-0.0000000000
33
0.0000000000
40
0.0000000000
40
0.0000000000
40
0.0000000000
40
0.0000000000
40
0.1000013680
40
0.2000016332
40
0.3000034370
40
0.4000022503
40
0.5000058131
40
0.6000087280
40
0.7000059548
40
0.8000051471
40
0.9000022532
40
1.0000000000
40
1.0000000000
40
1.0000000000
40
1.0000000000
10
-1.1453457076
20
24.3674977265
30
0.0000000000
10
-1.1453457076
20
24.3779591709
30
0.0000000000
10
-1.1469940343
20
24.3989191047
30
0.0000000000
10
-1.1543506284
20
24.4295556805
30
0.0000000000
10
-1.1664101045
20
24.4586719492
30
0.0000000000
10
-1.1828757682
20
24.4855414249
30
0.0000000000
10
-1.2033421556
20
24.5095049553
30
0.0000000000
10
-1.2273054031
20
24.5299714179
30
0.0000000000
10
-1.2541743326
20
24.5464370024
30
0.0000000000
10
-1.2832898235
20
24.5584963434
30
0.0000000000
10
-1.3139254179
20
24.5658528155
30
0.0000000000
10
-1.3348846420
20
24.5675011112
30
0.0000000000
10
-1.3453457076
20
24.5675011112
30
0.0000000000
11
-1.1453457076
21
24.3674977265
31
0.0000000000
11
-1.1478080656
21
24.3987853145
31
0.0000000000
11
-1.1551344085
21
24.4293021843
31
0.0000000000
11
-1.1671445812
21
24.4582977134
31
0.0000000000
11
-1.1835422491
21
24.4850566845
31
0.0000000000
11
-1.2039250433
21
24.5089221681
31
0.0000000000
11
-1.2277902249
21
24.5293050027
31
0.0000000000
11
-1.2545486642
21
24.5457025855
31
0.0000000000
11
-1.2835433738
21
24.5577125949
31
0.0000000000
11
-1.3140592553
21
24.5650388075
31
0.0000000000
11
-1.3453457076
21
24.5675011112
31
0.0000000000
0
SPLINE
5
486
100
AcDbEntity
8
0
100
AcDbSpline
62
7
6
CONTINUOUS
70
0
71
3
72
12
73
8
74
6
42
0.0000001000
43
0.0000001000
44
0.0000000001
12
0.4693761297
22
0.0000000000
32
0.0000000000
13
-0.0005029478
23
-0.4693758602
33
0.0000000000
40
0.0000000000
40
0.0000000000
40
0.0000000000
40
0.0000000000
40
0.1993580107
40
0.3994942431
40
0.5989599851
40
0.7991810613
40
1.0000000000
40
1.0000000000
40
1.0000000000
40
1.0000000000
10
4.1173984796
20
-16.6639482949
30
0.0000000000
10
4.1485897768
20
-16.6639482949
30
0.0000000000
10
4.2115328668
20
-16.6738686644
30
0.0000000000
10
4.2963548291
20
-16.7171108811
30
0.0000000000
10
4.3638200582
20
-16.7845989625
30
0.0000000000
10
4.4071658935
20
-16.8696359715
30
0.0000000000
10
4.4170989337
20
-16.9328388077
30
0.0000000000
10
4.4170652666
20
-16.9642586618
30
0.0000000000
11
4.1173984796
21
-16.6639482949
31
0.0000000000
11
4.2098243120
21
-16.6785612573
31
0.0000000000
11
4.2935288844
21
-16.7212005849
31
0.0000000000
11
4.3597241591
21
-16.7874102876
31
0.0000000000
11
4.4023831724
21
-16.8711495250
31
0.0000000000
11
4.4170652666
21
-16.9642586618
31
0.0000000000
0
SPLINE
5
487
100
AcDbEntity
8
0
100
AcDbSpline
62
9
6
CONTINUOUS
70
0
71
3
72
11
73
7
74
5
42
0.0000001000
43
0.0000001000
44
0.0000000001
12
-0.0000356505
22
0.4681881857
32
0.0000000000
13
-0.4681881857
23
0.0000356505
33
0.0000000000
40
0.0000000000
40
0.0000000000
40
0.0000000000
40
0.0000000000
40
0.2499862756
40
0.4999858076
40
0.7499927171
40
1.0000000000
40
1.0000000000
40
1.0000000000
40
1.0000000000
10
4.3589796487
20
-17.0223442797
30
0.0000000000
10
4.3589766780
20
-16.9833307394
30
0.0000000000
10
4.3433617811
20
-16.9044490502
30
0.0000000000
10
4.2766018751
20
-16.8047416756
30
0.0000000000
10
4.1768942199
20
-16.7379758537
30
0.0000000000
10
4.0980078905
20
-16.7223586737
30
0.0000000000
10
4.0589910718
20
-16.7223557028
30
0.0000000000
11
4.3589796487
21
-17.0223442797
31
0.0000000000
11
4.3361398591
21
-16.9075538140
31
0.0000000000
11
4.2711117437
21
-16.8102331889
31
0.0000000000
11
4.1737908020
21
-16.7451993303
31
0.0000000000
11
4.0589910718
21
-16.7223557028
31
0.0000000000
0
SPLINE
5
488
100
AcDbEntity
8
0
100
AcDbSpline
62
7
6
CONTINUOUS
70
0
71
3
72
17
73
13
74
11
42
0.0000001000
43
0.0000001000
44
0.0000000001
12
-0.3138390385
22
0.0000000000
32
0.0000000000
13
-0.0000000000
23
-0.3138390385
33
0.0000000000
40
0.0000000000
40
0.0000000000
40
0.0000000000
40
0.0000000000
40
0.0999977468
40
0.1999948529
40
0.2999940452
40
0.3999912720
40
0.4999941869
40
0.5999977497
40
0.6999965630
40
0.7999983668
40
0.8999986320
40
1.0000000000
40
1.0000000000
40
1.0000000000
40
1.0000000000
10
1.0546542924
20
24.5675011112
30
0.0000000000
10
1.0441932269
20
24.5675011112
30
0.0000000000
10
1.0232340028
20
24.5658528155
30
0.0000000000
10
0.9925984084
20
24.5584963434
30
0.0000000000
10
0.9634829175
20
24.5464370024
30
0.0000000000
10
0.9366139879
20
24.5299714179
30
0.0000000000
10
0.9126507405
20
24.5095049553
30
0.0000000000
10
0.8921843531
20
24.4855414249
30
0.0000000000
10
0.8757186894
20
24.4586719492
30
0.0000000000
10
0.8636592133
20
24.4295556805
30
0.0000000000
10
0.8563026192
20
24.3989191047
30
0.0000000000
10
0.8546542924
20
24.3779591709
30
0.0000000000
10
0.8546542924
20
24.3674977265
30
0.0000000000
11
1.0546542924
21
24.5675011112
31
0.0000000000
11
1.0233678402
21
24.5650388075
31
0.0000000000
11
0.9928519587
21
24.5577125949
31
0.0000000000
11
0.9638572491
21
24.5457025855
31
0.0000000000
11
0.9370988098
21
24.5293050027
31
0.0000000000
11
0.9132336282
21
24.5089221681
31
0.0000000000
11
0.8928508340
21
24.4850566845
31
0.0000000000
11
0.8764531661
21
24.4582977134
31
0.0000000000
11
0.8644429934
21
24.4293021843
31
0.0000000000
11
0.8571166505
21
24.3987853145
31
0.0000000000
11
0.8546542924
21
24.3674977265
31
0.0000000000
0
SPLINE
5
489
100
AcDbEntity
8
0
100
AcDbSpline
62
7
6
CONTINUOUS
70
0
71
3
72
12
73
8
74
6
42
0.0000001000
43
0.0000001000
44
0.0000000001
12
-0.0005029478
22
0.4693758554
32
0.0000000000
13
0.4693761249
23
0.0000000000
33
0.0000000000
40
0.0000000000
40
0.0000000000
40
0.0000000000
40
0.0000000000
40
0.2007114208
40
0.4014441158
40
0.6008818597
40
0.8005309603
40
1.0000000000
40
1.0000000000
40
1.0000000000
40
1.0000000000
10
-4.7077566817
20
-16.9642586618
30
0.0000000000
10
-4.7077903308
20
-16.9328556301
30
0.0000000000
10
-4.6978534069
20
-16.8695903906
30
0.0000000000
10
-4.6544563272
20
-16.7845017299
30
0.0000000000
10
-4.5869493557
20
-16.7170569653
30
0.0000000000
10
-4.5021836310
20
-16.6738655644
30
0.0000000000
10
-4.4392985630
20
-16.6639482949
30
0.0000000000
10
-4.4080898947
20
-16.6639482949
30
0.0000000000
11
-4.7077566817
21
-16.9642586618
31
0.0000000000
11
-4.6930903634
21
-16.8711981285
31
0.0000000000
11
-4.6503026189
21
-16.7872549679
31
0.0000000000
11
-4.5840756920
21
-16.7210955201
31
0.0000000000
11
-4.5005659131
21
-16.6785775403
31
0.0000000000
11
-4.4080898947
21
-16.6639482949
31
0.0000000000
0
SPLINE
5
48A
100
AcDbEntity
8
0
100
AcDbSpline
62
9
6
CONTINUOUS
70
0
71
3
72
11
73
7
74
5
42
0.0000001000
43
0.0000001000
44
0.0000000001
12
-0.4681881857
22
-0.0000356509
32
0.0000000000
13
-0.0000356506
23
-0.4681881857
33
0.0000000000
40
0.0000000000
40
0.0000000000
40
0.0000000000
40
0.0000000000
40
0.2500056985
40
0.5000119065
40
0.7500119253
40
1.0000000000
40
1.0000000000
40
1.0000000000
40
1.0000000000
10
-4.3496824869
20
-16.7223557027
30
0.0000000000
10
-4.3886990583
20
-16.7223586737
30
0.0000000000
10
-4.4675850151
20
-16.7379756772
30
0.0000000000
10
-4.5672926249
20
-16.8047410203
30
0.0000000000
10
-4.6340530049
20
-16.9044483947
30
0.0000000000
10
-4.6496680930
20
-16.9833304586
30
0.0000000000
10
-4.6496710638
20
-17.0223442797
30
0.0000000000
11
-4.3496824869
21
-16.7223557027
31
0.0000000000
11
-4.4644815183
21
-16.7451990409
31
0.0000000000
11
-4.5618023872
21
-16.8102324173
31
0.0000000000
11
-4.6268309455
21
-16.9075530205
31
0.0000000000
11
-4.6496710638
21
-17.0223442797
31
0.0000000000
0
SPLINE
5
48B
100
AcDbEntity
8
0
100
AcDbSpline
62
7
6
CONTINUOUS
70
0
71
3
72
17
73
13
74
11
42
0.0000001000
43
0.0000001000
44
0.0000000001
12
0.3138390385
22
0.0000000000
32
0.0000000000
13
0.0000000000
23
0.3138390385
33
0.0000000000
40
0.0000000000
40
0.0000000000
40
0.0000000000
40
0.0000000000
40
0.0999977468
40
0.1999948529
40
0.2999940452
40
0.3999912720
40
0.4999941869
40
0.5999977497
40
0.6999965630
40
0.7999983668
40
0.8999986320
40
1.0000000000
40
1.0000000000
40
1.0000000000
40
1.0000000000
10
-1.3453457076
20
-23.4208632292
30
0.0000000000
10
-1.3348846420
20
-23.4208632292
30
0.0000000000
10
-1.3139254179
20
-23.4192149335
30
0.0000000000
10
-1.2832898235
20
-23.4118584613
30
0.0000000000
10
-1.2541743326
20
-23.3997991204
30
0.0000000000
10
-1.2273054031
20
-23.3833335359
30
0.0000000000
10
-1.2033421556
20
-23.3628670733
30
0.0000000000
10
-1.1828757682
20
-23.3389035428
30
0.0000000000
10
-1.1664101045
20
-23.3120340671
30
0.0000000000
10
-1.1543506284
20
-23.2829177985
30
0.0000000000
10
-1.1469940343
20
-23.2522812226
30
0.0000000000
10
-1.1453457076
20
-23.2313212889
30
0.0000000000
10
-1.1453457076
20
-23.2208598445
30
0.0000000000
11
-1.3453457076
21
-23.4208632292
31
0.0000000000
11
-1.3140592553
21
-23.4184009254
31
0.0000000000
11
-1.2835433738
21
-23.4110747128
31
0.0000000000
11
-1.2545486642
21
-23.3990647035
31
0.0000000000
11
-1.2277902249
21
-23.3826671207
31
0.0000000000
11
-1.2039250433
21
-23.3622842860
31
0.0000000000
11
-1.1835422491
21
-23.3384188024
31
0.0000000000
11
-1.1671445812
21
-23.3116598314
31
0.0000000000
11
-1.1551344085
21
-23.2826643023
31
0.0000000000
11
-1.1478080656
21
-23.2521474325
31
0.0000000000
11
-1.1453457076
21
-23.2208598445
31
0.0000000000
0
SPLINE
5
48C
100
AcDbEntity
8
0
100
AcDbSpline
62
7
6
CONTINUOUS
70
0
71
3
72
17
73
13
74
11
42
0.0000001000
43
0.0000001000
44
0.0000000001
12
0.0000000000
22
-0.3138390385
32
0.0000000000
13
0.3138390385
23
0.0000000000
33
0.0000000000
40
0.0000000000
40
0.0000000000
40
0.0000000000
40
0.0000000000
40
0.1000013680
40
0.2000016332
40
0.3000034370
40
0.4000022503
40
0.5000058131
40
0.6000087280
40
0.7000059548
40
0.8000051471
40
0.9000022532
40
1.0000000000
40
1.0000000000
40
1.0000000000
40
1.0000000000
10
0.8546542924
20
-23.2208598445
30
0.0000000000
10
0.8546542924
20
-23.2313212889
30
0.0000000000
10
0.8563026192
20
-23.2522812226
30
0.0000000000
10
0.8636592133
20
-23.2829177985
30
0.0000000000
10
0.8757186894
20
-23.3120340671
30
0.0000000000
10
0.8921843531
20
-23.3389035428
30
0.0000000000
10
0.9126507405
20
-23.3628670733
30
0.0000000000
10
0.9366139879
20
-23.3833335359
30
0.0000000000
10
0.9634829175
20
-23.3997991204
30
0.0000000000
10
0.9925984084
20
-23.4118584613
30
0.0000000000
10
1.0232340028
20
-23.4192149335
30
0.0000000000
10
1.0441932269
20
-23.4208632292
30
0.0000000000
10
1.0546542924
20
-23.4208632292
30
0.0000000000
11
0.8546542924
21
-23.2208598445
31
0.0000000000
11
0.8571166505
21
-23.2521474325
31
0.0000000000
11
0.8644429934
21
-23.2826643023
31
0.0000000000
11
0.8764531661
21
-23.3116598314
31
0.0000000000
11
0.8928508340
21
-23.3384188024
31
0.0000000000
11
0.9132336282
21
-23.3622842860
31
0.0000000000
11
0.9370988098
21
-23.3826671207
31
0.0000000000
11
0.9638572491
21
-23.3990647035
31
0.0000000000
11
0.9928519587
21
-23.4110747128
31
0.0000000000
11
1.0233678402
21
-23.4184009254
31
0.0000000000
11
1.0546542924
21
-23.4208632292
31
0.0000000000
0
SPLINE
5
48D
100
AcDbEntity
8
0
100
AcDbSpline
62
7
6
CONTINUOUS
70
0
71
3
72
11
73
7
74
5
42
0.0000001000
43
0.0000001000
44
0.0000000001
12
0.0000000000
22
0.0649382085
32
0.0000000000
13
0.0420122218
23
0.0494420004
33
0.0000000000
40
0.0000000000
40
0.0000000000
40
0.0000000000
40
0.0000000000
40
0.1050234638
40
0.3021860866
40
0.5981132932
40
1.0000000000
40
1.0000000000
40
1.0000000000
40
1.0000000000
10
3.3546542924
20
-23.3808290031
30
0.0000000000
10
3.3546542924
20
-23.3785556579
30
0.0000000000
10
3.3579091488
20
-23.3724601014
30
0.0000000000
10
3.3648948698
20
-23.3618409978
30
0.0000000000
10
3.3769192352
20
-23.3464800072
30
0.0000000000
10
3.3865655122
20
-23.3348953323
30
0.0000000000
10
3.3921935634
20
-23.3282719714
30
0.0000000000
11
3.3546542924
21
-23.3808290031
31
0.0000000000
11
3.3569498778
21
-23.3744069183
31
0.0000000000
11
3.3638797595
21
-23.3636410708
31
0.0000000000
11
3.3755443409
21
-23.3483692025
31
0.0000000000
11
3.3921935634
21
-23.3282719714
31
0.0000000000
0
SPLINE
5
48E
100
AcDbEntity
8
0
100
AcDbSpline
62
7
6
CONTINUOUS
70
0
71
3
72
16
73
12
74
10
42
0.0000001000
43
0.0000001000
44
0.0000000001
12
0.3940237865
22
0.4637061161
32
0.0000000000
13
0.4199141259
23
0.4411394664
33
0.0000000000
40
0.0000000000
40
0.0000000000
40
0.0000000000
40
0.0000000000
40
0.0555057941
40
0.1248040123
40
0.2087952621
40
0.3080339199
40
0.4231630014
40
0.5535741923
40
0.6963838821
40
0.8468540534
40
1.0000000000
40
1.0000000000
40
1.0000000000
40
1.0000000000
10
3.3921935634
20
-23.3282719714
30
0.0000000000
10
3.3994837645
20
-23.3196925126
30
0.0000000000
10
3.4161493665
20
-23.3005847457
30
0.0000000000
10
3.4444409725
20
-23.2690294040
30
0.0000000000
10
3.4790406032
20
-23.2311942252
30
0.0000000000
10
3.5202217072
20
-23.1867770638
30
0.0000000000
10
3.5680649381
20
-23.1356850838
30
0.0000000000
10
3.6221569699
20
-23.0783277009
30
0.0000000000
10
3.6813233200
20
-23.0158939762
30
0.0000000000
10
3.7437633294
20
-22.9502040798
30
0.0000000000
10
3.7862609536
20
-22.9055584474
30
0.0000000000
10
3.8076970024
20
-22.8830388737
30
0.0000000000
11
3.3921935634
21
-23.3282719714
31
0.0000000000
11
3.4143561162
21
-23.3027450676
31
0.0000000000
11
3.4424974987
21
-23.2712908510
31
0.0000000000
11
3.4769904877
21
-23.2335154097
31
0.0000000000
11
3.5180624039
21
-23.1891741141
31
0.0000000000
11
3.5659724885
21
-23.1379762930
31
0.0000000000
11
3.6204523197
21
-23.0801799606
31
0.0000000000
11
3.6802689718
21
-23.0170374338
31
0.0000000000
11
3.7433969143
21
-22.9506052644
31
0.0000000000
11
3.8076970024
21
-22.8830388737
31
0.0000000000
0
SPLINE
5
48F
100
AcDbEntity
8
0
100
AcDbSpline
62
7
6
CONTINUOUS
70
0
71
3
72
17
73
13
74
11
42
0.0000001000
43
0.0000001000
44
0.0000000001
12
0.0009318317
22
1.5895133181
32
0.0000000000
13
0.0009318317
23
-1.5895133181
33
0.0000000000
40
0.0000000000
40
0.0000000000
40
0.0000000000
40
0.0000000000
40
0.1024904963
40
0.2071755374
40
0.3081159090
40
0.4044107606
40
0.5001741490
40
0.5959309200
40
0.6922037689
40
0.7930031135
40
0.8975092854
40
1.0000000000
40
1.0000000000
40
1.0000000000
40
1.0000000000
10
4.3552935111
20
14.3017395692
30
0.0000000000
10
4.3553253457
20
14.3560429055
30
0.0000000000
10
4.3722847140
20
14.4665329339
30
0.0000000000
10
4.4466361129
20
14.6148949833
30
0.0000000000
10
4.5613427778
20
14.7302924198
30
0.0000000000
10
4.7018032428
20
14.8021454682
30
0.0000000000
10
4.8549360563
20
14.8265450428
30
0.0000000000
10
5.0080283652
20
14.8019712331
30
0.0000000000
10
5.1483284331
20
14.7300082970
30
0.0000000000
10
5.2628081445
20
14.6146569882
30
0.0000000000
10
5.3370379828
20
14.4664385216
30
0.0000000000
10
5.3539832391
20
14.3560430212
30
0.0000000000
10
5.3540150738
20
14.3017395692
30
0.0000000000
11
4.3552935111
21
14.3017395692
31
0.0000000000
11
4.3801895670
21
14.4627360490
31
0.0000000000
11
4.4549272667
21
14.6114057131
31
0.0000000000
11
4.5682460178
21
14.7249918446
31
0.0000000000
11
4.7046006435
21
14.7945287725
31
0.0000000000
11
4.8549347856
21
14.8183976633
31
0.0000000000
11
5.0052310594
21
14.7943579814
31
0.0000000000
11
5.1414793076
21
14.7246896376
31
0.0000000000
11
5.2545498529
21
14.6111725990
31
0.0000000000
11
5.3291189118
21
14.4627363838
31
0.0000000000
11
5.3540150738
21
14.3017395692
31
0.0000000000
0
SPLINE
5
490
100
AcDbEntity
8
0
100
AcDbSpline
62
7
6
CONTINUOUS
70
0
71
3
72
10
73
6
74
4
42
0.0000001000
43
0.0000001000
44
0.0000000001
12
0.0021671645
22
2.4342995502
32
0.0000000000
13
0.0027627216
23
2.4342989472
33
0.0000000000
40
0.0000000000
40
0.0000000000
40
0.0000000000
40
0.0000000000
40
0.3336846136
40
0.6670264105
40
1.0000000000
40
1.0000000000
40
1.0000000000
40
1.0000000000
10
6.2886047083
20
17.3550858136
30
0.0000000000
10
6.2888457581
20
17.6258485818
30
0.0000000000
10
6.2893496006
20
18.1670959262
30
0.0000000000
10
6.2901710534
20
18.9785290161
30
0.0000000000
10
6.2907625358
20
19.5191993228
30
0.0000000000
10
6.2910691736
20
19.7893850756
30
0.0000000000
11
6.2886047083
21
17.3550858136
31
0.0000000000
11
6.2893608929
21
18.1673740882
31
0.0000000000
11
6.2901824020
21
18.9788277802
31
0.0000000000
11
6.2910691736
21
19.7893850756
31
0.0000000000
0
SPLINE
5
491
100
AcDbEntity
8
0
100
AcDbSpline
62
9
6
CONTINUOUS
70
0
71
3
72
14
73
10
74
8
42
0.0000001000
43
0.0000001000
44
0.0000000001
12
-0.2818757503
22
0.0045061308
32
0.0000000000
13
-0.2819117660
23
0.0000001396
33
0.0000000000
40
0.0000000000
40
0.0000000000
40
0.0000000000
40
0.0000000000
40
0.0749662835
40
0.1828611575
40
0.3211782677
40
0.4829622508
40
0.6570409144
40
0.8297614990
40
1.0000000000
40
1.0000000000
40
1.0000000000
40
1.0000000000
10
8.7029712550
20
-11.7388116203
30
0.0000000000
10
8.6959275292
20
-11.7386990177
30
0.0000000000
10
8.6787450020
20
-11.7384994785
30
0.0000000000
10
8.6485646610
20
-11.7382566188
30
0.0000000000
10
8.6102256021
20
-11.7380417741
30
0.0000000000
10
8.5656669754
20
-11.7378687048
30
0.0000000000
10
8.5178752498
20
-11.7377475899
30
0.0000000000
10
8.4692889502
20
-11.7376780996
30
0.0000000000
10
8.4370608809
20
-11.7376632076
30
0.0000000000
10
8.4210634687
20
-11.7376631997
30
0.0000000000
11
8.7029712550
21
-11.7388116203
31
0.0000000000
11
8.6818390506
21
-11.7385457077
31
0.0000000000
11
8.6514232869
21
-11.7382904770
31
0.0000000000
11
8.6124307213
21
-11.7380644334
31
0.0000000000
11
8.5668222735
21
-11.7378830773
31
0.0000000000
11
8.5177476137
21
-11.7377563314
31
0.0000000000
11
8.4690556999
21
-11.7376856798
31
0.0000000000
11
8.4210634687
21
-11.7376631997
31
0.0000000000
0
SPLINE
5
492
100
AcDbEntity
8
0
100
AcDbSpline
62
9
6
CONTINUOUS
70
0
71
3
72
14
73
10
74
8
42
0.0000001000
43
0.0000001000
44
0.0000000001
12
0.2818757766
22
0.0045046547
32
0.0000000000
13
0.2819117687
23
0.0000001189
33
0.0000000000
40
0.0000000000
40
0.0000000000
40
0.0000000000
40
0.0000000000
40
0.0708574344
40
0.1742189166
40
0.3091316662
40
0.4698158488
40
0.6464072575
40
0.8269967248
40
1.0000000000
40
1.0000000000
40
1.0000000000
40
1.0000000000
10
-8.9936626701
20
-11.7388116203
30
0.0000000000
10
-8.9870050053
20
-11.7387052242
30
0.0000000000
10
-8.9706345904
20
-11.7385119211
30
0.0000000000
10
-8.9415862770
20
-11.7382728910
30
0.0000000000
10
-8.9040965039
20
-11.7380568965
30
0.0000000000
10
-8.8597250293
20
-11.7378792777
30
0.0000000000
10
-8.8110610967
20
-11.7377519628
30
0.0000000000
10
-8.7612394243
20
-11.7376788122
30
0.0000000000
10
-8.7280121036
20
-11.7376632065
30
0.0000000000
10
-8.7117548839
20
-11.7376631997
30
0.0000000000
11
-8.9936626701
21
-11.7388116203
31
0.0000000000
11
-8.9736887396
21
-11.7385576777
31
0.0000000000
11
-8.9445509938
21
-11.7383076823
31
0.0000000000
11
-8.9065181773
21
-11.7380810235
31
0.0000000000
11
-8.8612197962
21
-11.7378952374
31
0.0000000000
11
-8.8114367771
21
-11.7377623639
31
0.0000000000
11
-8.7605265376
21
-11.7376864203
31
0.0000000000
11
-8.7117548839
21
-11.7376631997
31
0.0000000000
0
SPLINE
5
493
100
AcDbEntity
8
0
100
AcDbSpline
62
7
6
CONTINUOUS
70
0
71
3
72
13
73
9
74
7
42
0.0000001000
43
0.0000001000
44
0.0000000001
12
-0.0009268395
22
0.7769533637
32
0.0000000000
13
-0.1276199923
23
0.7664010216
33
0.0000000000
40
0.0000000000
40
0.0000000000
40
0.0000000000
40
0.0000000000
40
0.2555604789
40
0.4943404336
40
0.6958491394
40
0.8522535467
40
0.9562334662
40
1.0000000000
40
1.0000000000
40
1.0000000000
40
1.0000000000
10
7.2175719353
20
20.3628661792
30
0.0000000000
10
7.2174929808
20
20.4290523705
30
0.0000000000
10
7.2171912827
20
20.5570752336
30
0.0000000000
10
7.2164955471
20
20.7373021278
30
0.0000000000
10
7.2151032915
20
20.8917921000
30
0.0000000000
10
7.2144652496
20
21.0115111184
30
0.0000000000
10
7.2116292525
20
21.0900634703
30
0.0000000000
10
7.2120630053
20
21.1285602917
30
0.0000000000
10
7.2102011771
20
21.1397411971
30
0.0000000000
11
7.2175719353
21
20.3628661792
31
0.0000000000
11
7.2171295773
21
20.5614244015
31
0.0000000000
11
7.2162856049
21
20.7469435028
31
0.0000000000
11
7.2151060473
21
20.9035020374
31
0.0000000000
11
7.2136466158
21
21.0250122901
31
0.0000000000
11
7.2119649767
21
21.1057823918
31
0.0000000000
11
7.2102011771
21
21.1397411971
31
0.0000000000
0
SPLINE
5
494
100
AcDbEntity
8
0
100
AcDbSpline
62
7
6
CONTINUOUS
70
0
71
3
72
10
73
6
74
4
42
0.0000001000
43
0.0000001000
44
0.0000000001
12
0.0035880263
22
-3.0077798664
32
0.0000000000
13
0.0026777131
23
-3.0077808146
33
0.0000000000
40
0.0000000000
40
0.0000000000
40
0.0000000000
40
0.0000000000
40
0.3328731415
40
0.6662216296
40
1.0000000000
40
1.0000000000
40
1.0000000000
40
1.0000000000
10
7.2175719353
20
20.3628661792
30
0.0000000000
10
7.2179700545
20
20.0291298015
30
0.0000000000
10
7.2187329999
20
19.3611804259
30
0.0000000000
10
7.2197769114
20
18.3585869657
30
0.0000000000
10
7.2204059557
20
17.6897298732
30
0.0000000000
10
7.2207038766
20
17.3550858136
30
0.0000000000
11
7.2175719353
21
20.3628661792
31
0.0000000000
11
7.2187156123
21
19.3616569869
31
0.0000000000
11
7.2197596401
21
18.3590179461
31
0.0000000000
11
7.2207038766
21
17.3550858136
31
0.0000000000
0
SPLINE
5
495
100
AcDbEntity
8
0
100
AcDbSpline
62
7
6
CONTINUOUS
70
0
71
3
72
17
73
13
74
11
42
0.0000001000
43
0.0000001000
44
0.0000000001
12
0.0009318318
22
1.5895133835
32
0.0000000000
13
0.0009318318
23
-1.5895133835
33
0.0000000000
40
0.0000000000
40
0.0000000000
40
0.0000000000
40
0.0000000000
40
0.1024913671
40
0.2071595961
40
0.3080977717
40
0.4044004993
40
0.5001767455
40
0.5959456849
40
0.6922260687
40
0.7930189981
40
0.8975036661
40
1.0000000000
40
1.0000000000
40
1.0000000000
40
1.0000000000
10
-5.6447064889
20
14.3017395692
30
0.0000000000
10
-5.6446746540
20
14.3560433691
30
0.0000000000
10
-5.6277163823
20
14.4665249944
30
0.0000000000
10
-5.5533732026
20
14.6148790546
30
0.0000000000
10
-5.4386771273
20
14.7302784008
30
0.0000000000
10
-5.2982107698
20
14.8021427525
30
0.0000000000
10
-5.1450600513
20
14.8265472142
30
0.0000000000
10
-4.9919504733
20
14.8019660562
30
0.0000000000
10
-4.8516480688
20
14.7299911167
30
0.0000000000
10
-4.7371833766
20
14.6146408751
30
0.0000000000
10
-4.6629617540
20
14.4664332355
30
0.0000000000
10
-4.6460167626
20
14.3560460007
30
0.0000000000
10
-4.6459849262
20
14.3017395692
30
0.0000000000
11
-5.6447064889
21
14.3017395692
31
0.0000000000
11
-5.6198100079
21
14.4627373906
31
0.0000000000
11
-5.5450877702
21
14.6113849255
31
0.0000000000
11
-5.4317776226
21
14.7249747188
31
0.0000000000
11
-5.2954150608
21
14.7945236548
31
0.0000000000
11
-5.1450610309
21
14.8183976608
31
0.0000000000
11
-4.9947463452
21
14.7943505895
31
0.0000000000
11
-4.8584916430
21
14.7246685474
31
0.0000000000
11
-4.7454351724
21
14.6111518729
31
0.0000000000
11
-4.6708838205
21
14.4627450061
31
0.0000000000
11
-4.6459849262
21
14.3017395692
31
0.0000000000
0
SPLINE
5
496
100
AcDbEntity
8
0
100
AcDbSpline
62
7
6
CONTINUOUS
70
0
71
3
72
11
73
7
74
5
42
0.0000001000
43
0.0000001000
44
0.0000000001
12
-0.3342655936
22
-0.0979221265
32
0.0000000000
13
-0.2471787110
23
-0.2454076501
33
0.0000000000
40
0.0000000000
40
0.0000000000
40
0.0000000000
40
0.0000000000
40
0.0663218380
40
0.2590813501
40
0.5737266360
40
1.0000000000
40
1.0000000000
40
1.0000000000
40
1.0000000000
10
7.9212237943
20
-20.8804164861
30
0.0000000000
10
7.9138340914
20
-20.8825812779
30
0.0000000000
10
7.8955447423
20
-20.9099425409
30
0.0000000000
10
7.8445237337
20
-20.9501693143
30
0.0000000000
10
7.7691686715
20
-21.0297853852
30
0.0000000000
10
7.7074629005
20
-21.0892000730
30
0.0000000000
10
7.6723410003
20
-21.1240703212
30
0.0000000000
11
7.9212237943
21
-20.8804164861
31
0.0000000000
11
7.9041590638
21
-20.8959870115
31
0.0000000000
11
7.8559649640
21
-20.9427331917
31
0.0000000000
11
7.7778338452
21
-21.0195877942
31
0.0000000000
11
7.6723410003
21
-21.1240703212
31
0.0000000000
0
SPLINE
5
497
100
AcDbEntity
8
0
100
AcDbSpline
62
7
6
CONTINUOUS
70
0
71
3
72
11
73
7
74
5
42
0.0000001000
43
0.0000001000
44
0.0000000001
12
-0.2471787110
22
0.2454076501
32
0.0000000000
13
-0.3342655936
23
0.0979221265
33
0.0000000000
40
0.0000000000
40
0.0000000000
40
0.0000000000
40
0.0000000000
40
0.4262724796
40
0.7409185505
40
0.9336781216
40
1.0000000000
40
1.0000000000
40
1.0000000000
40
1.0000000000
10
-7.9630324154
20
-21.1240703212
30
0.0000000000
10
-7.9981542428
20
-21.0892001453
30
0.0000000000
10
-8.0598600047
20
-21.0297854641
30
0.0000000000
10
-8.1352150602
20
-20.9501693908
30
0.0000000000
10
-8.1862361464
20
-20.9099425534
30
0.0000000000
10
-8.2045255020
20
-20.8825812792
30
0.0000000000
10
-8.2119152094
20
-20.8804164861
30
0.0000000000
11
-7.9630324154
21
-21.1240703212
31
0.0000000000
11
-8.0685250411
21
-21.0195880107
31
0.0000000000
11
-8.1466563543
21
-20.9427332159
31
0.0000000000
11
-8.1948504687
21
-20.8959870212
31
0.0000000000
11
-8.2119152094
21
-20.8804164861
31
0.0000000000
0
SPLINE
5
498
100
AcDbEntity
8
0
100
AcDbSpline
62
7
6
CONTINUOUS
70
0
71
3
72
16
73
12
74
10
42
0.0000001000
43
0.0000001000
44
0.0000000001
12
-0.0916203966
22
0.0458067095
32
0.0000000000
13
0.0000000000
23
0.1024331573
33
0.0000000000
40
0.0000000000
40
0.0000000000
40
0.0000000000
40
0.0000000000
40
0.0523868478
40
0.1048796880
40
0.1724549163
40
0.2550355722
40
0.3545624729
40
0.4748927101
40
0.6180277130
40
0.7937758678
40
1.0000000000
40
1.0000000000
40
1.0000000000
40
1.0000000000
10
-9.7904902742
20
-11.8601663352
30
0.0000000000
10
-9.7920901754
20
-11.8593664455
30
0.0000000000
10
-9.7916468291
20
-11.8546147280
30
0.0000000000
10
-9.7927584020
20
-11.8492823726
30
0.0000000000
10
-9.7931546096
20
-11.8421992674
30
0.0000000000
10
-9.7937361059
20
-11.8337571810
30
0.0000000000
10
-9.7941983193
20
-11.8234177190
30
0.0000000000
10
-9.7946401822
20
-11.8110393888
30
0.0000000000
10
-9.7950093731
20
-11.7960441209
30
0.0000000000
10
-9.7952796474
20
-11.7781174801
30
0.0000000000
10
-9.7953457076
20
-11.7650748704
30
0.0000000000
10
-9.7953457076
20
-11.7580334741
30
0.0000000000
11
-9.7904902742
21
-11.8601663352
31
0.0000000000
11
-9.7919265511
21
-11.8549959700
31
0.0000000000
11
-9.7925581340
21
-11.8496561843
31
0.0000000000
11
-9.7931366394
21
-11.8427584571
31
0.0000000000
11
-9.7936666565
21
-11.8343160809
31
0.0000000000
11
-9.7941525131
21
-11.8241328100
31
0.0000000000
11
-9.7945917196
21
-11.8118148315
31
0.0000000000
11
-9.7949610228
21
-11.7971577130
31
0.0000000000
11
-9.7952363258
21
-11.7791573798
31
0.0000000000
11
-9.7953457076
21
-11.7580334741
31
0.0000000000
0
SPLINE
5
499
100
AcDbEntity
8
0
100
AcDbSpline
62
7
6
CONTINUOUS
70
0
71
3
72
13
73
9
74
7
42
0.0000001000
43
0.0000001000
44
0.0000000001
12
-0.1276199923
22
-0.7664010216
32
0.0000000000
13
-0.0009268395
23
-0.7769533637
33
0.0000000000
40
0.0000000000
40
0.0000000000
40
0.0000000000
40
0.0000000000
40
0.0437665338
40
0.1477464533
40
0.3041508606
40
0.5056595664
40
0.7444395211
40
1.0000000000
40
1.0000000000
40
1.0000000000
40
1.0000000000
10
-7.5008925922
20
21.1397411971
30
0.0000000000
10
-7.5027544204
20
21.1285602917
30
0.0000000000
10
-7.5023206676
20
21.0900634703
30
0.0000000000
10
-7.5051566647
20
21.0115111184
30
0.0000000000
10
-7.5057947066
20
20.8917921000
30
0.0000000000
10
-7.5071869622
20
20.7373021278
30
0.0000000000
10
-7.5078826978
20
20.5570752336
30
0.0000000000
10
-7.5081843959
20
20.4290523705
30
0.0000000000
10
-7.5082633504
20
20.3628661792
30
0.0000000000
11
-7.5008925922
21
21.1397411971
31
0.0000000000
11
-7.5026563918
21
21.1057823918
31
0.0000000000
11
-7.5043380310
21
21.0250122901
31
0.0000000000
11
-7.5057974624
21
20.9035020374
31
0.0000000000
11
-7.5069770200
21
20.7469435028
31
0.0000000000
11
-7.5078209924
21
20.5614244015
31
0.0000000000
11
-7.5082633504
21
20.3628661792
31
0.0000000000
0
SPLINE
5
49A
100
AcDbEntity
8
0
100
AcDbSpline
62
7
6
CONTINUOUS
70
0
71
3
72
10
73
6
74
4
42
0.0000001000
43
0.0000001000
44
0.0000000001
12
0.0026777131
22
3.0077808146
32
0.0000000000
13
0.0035880263
23
3.0077798664
33
0.0000000000
40
0.0000000000
40
0.0000000000
40
0.0000000000
40
0.0000000000
40
0.3337783704
40
0.6671268585
40
1.0000000000
40
1.0000000000
40
1.0000000000
40
1.0000000000
10
-7.5113952917
20
17.3550858136
30
0.0000000000
10
-7.5110973708
20
17.6897298732
30
0.0000000000
10
-7.5104683265
20
18.3585869657
30
0.0000000000
10
-7.5094244150
20
19.3611804259
30
0.0000000000
10
-7.5086614696
20
20.0291298015
30
0.0000000000
10
-7.5082633504
20
20.3628661792
30
0.0000000000
11
-7.5113952917
21
17.3550858136
31
0.0000000000
11
-7.5104510552
21
18.3590179461
31
0.0000000000
11
-7.5094070275
21
19.3616569869
31
0.0000000000
11
-7.5082633504
21
20.3628661792
31
0.0000000000
0
SPLINE
5
49B
100
AcDbEntity
8
0
100
AcDbSpline
62
7
6
CONTINUOUS
70
0
71
3
72
13
73
9
74
7
42
0.0000001000
43
0.0000001000
44
0.0000000001
12
-0.0008898173
22
0.7840389132
32
0.0000000000
13
-0.7840394182
23
0.0000000000
33
0.0000000000
40
0.0000000000
40
0.0000000000
40
0.0000000000
40
0.0000000000
40
0.2638865210
40
0.5097480277
40
0.7145874941
40
0.8698744324
40
0.9676316658
40
1.0000000000
40
1.0000000000
40
1.0000000000
40
1.0000000000
10
-6.5817605887
20
19.7893850756
30
0.0000000000
10
-6.5818388589
20
19.8583508426
30
0.0000000000
10
-6.5824550414
20
19.9911873333
30
0.0000000000
10
-6.5819655551
20
20.1794826643
30
0.0000000000
10
-6.5868591944
20
20.3335274232
30
0.0000000000
10
-6.5791911286
20
20.4637506899
30
0.0000000000
10
-6.5974452628
20
20.5187800275
30
0.0000000000
10
-6.5810898333
20
20.5733189410
30
0.0000000000
10
-6.5895491833
20
20.5733189410
30
0.0000000000
11
-6.5817605887
21
19.7893850756
31
0.0000000000
11
-6.5822181216
21
19.9962820041
31
0.0000000000
11
-6.5831124063
21
20.1890450423
31
0.0000000000
11
-6.5843672559
21
20.3496423560
31
0.0000000000
11
-6.5859184195
21
20.4713835550
31
0.0000000000
11
-6.5876996146
21
20.5480083798
31
0.0000000000
11
-6.5895491833
21
20.5733189410
31
0.0000000000
0
SPLINE
5
49C
100
AcDbEntity
8
0
100
AcDbSpline
62
7
6
CONTINUOUS
70
0
71
3
72
10
73
6
74
4
42
0.0000001000
43
0.0000001000
44
0.0000000001
12
0.0027627216
22
-2.4342989472
32
0.0000000000
13
0.0021671645
23
-2.4342995502
33
0.0000000000
40
0.0000000000
40
0.0000000000
40
0.0000000000
40
0.0000000000
40
0.3329735895
40
0.6663153864
40
1.0000000000
40
1.0000000000
40
1.0000000000
40
1.0000000000
10
-6.5817605887
20
19.7893850756
30
0.0000000000
10
-6.5814539509
20
19.5191993228
30
0.0000000000
10
-6.5808624685
20
18.9785290161
30
0.0000000000
10
-6.5800410157
20
18.1670959262
30
0.0000000000
10
-6.5795371732
20
17.6258485818
30
0.0000000000
10
-6.5792961234
20
17.3550858136
30
0.0000000000
11
-6.5817605887
21
19.7893850756
31
0.0000000000
11
-6.5808738171
21
18.9788277802
31
0.0000000000
11
-6.5800523080
21
18.1673740882
31
0.0000000000
11
-6.5792961234
21
17.3550858136
31
0.0000000000
0
SPLINE
5
49D
100
AcDbEntity
8
0
100
AcDbSpline
62
9
6
CONTINUOUS
70
0
71
3
72
10
73
6
74
4
42
0.0000001000
43
0.0000001000
44
0.0000000001
12
0.0004221517
22
-0.1505125787
32
0.0000000000
13
0.1505124116
23
-0.0004780392
33
0.0000000000
40
0.0000000000
40
0.0000000000
40
0.0000000000
40
0.0000000000
40
0.3421516015
40
0.6757298250
40
1.0000000000
40
1.0000000000
40
1.0000000000
40
1.0000000000
10
-8.9936626701
20
-11.7388116203
30
0.0000000000
10
-8.9936145235
20
-11.7559776603
30
0.0000000000
10
-8.9850318330
20
-11.7904618431
30
0.0000000000
10
-8.9495705985
20
-11.8289366089
30
0.0000000000
10
-8.9159623034
20
-11.8387561413
30
0.0000000000
10
-8.8996934080
20
-11.8388078126
30
0.0000000000
11
-8.9936626701
21
-11.7388116203
31
0.0000000000
11
-8.9809798752
21
-11.7887237824
31
0.0000000000
11
-8.9465972361
21
-11.8253116078
31
0.0000000000
11
-8.8996934080
21
-11.8388078126
31
0.0000000000
0
SPLINE
5
49E
100
AcDbEntity
8
0
100
AcDbSpline
62
7
6
CONTINUOUS
70
0
71
3
72
11
73
7
74
5
42
0.0000001000
43
0.0000001000
44
0.0000000001
12
0.0000000000
22
-0.1000056032
32
0.0000000000
13
-0.0707146402
23
-0.0707146402
33
0.0000000000
40
0.0000000000
40
0.0000000000
40
0.0000000000
40
0.0000000000
40
0.3775118879
40
0.7024866747
40
0.9218704658
40
1.0000000000
40
1.0000000000
40
1.0000000000
40
1.0000000000
10
-7.5554589693
20
-11.7376631997
30
0.0000000000
10
-7.5554589693
20
-11.7502476344
30
0.0000000000
10
-7.5559714766
20
-11.7734432526
30
0.0000000000
10
-7.5544344554
20
-11.8049663423
30
0.0000000000
10
-7.5580561042
20
-11.8241287294
30
0.0000000000
10
-7.5544824066
20
-11.8358177580
30
0.0000000000
10
-7.5563240406
20
-11.8376593920
30
0.0000000000
11
-7.5554589693
21
-11.7376631997
31
0.0000000000
11
-7.5555235513
21
-11.7754164485
31
0.0000000000
11
-7.5557105964
21
-11.8079152098
31
0.0000000000
11
-7.5559935486
21
-11.8298529935
31
0.0000000000
11
-7.5563240406
21
-11.8376593920
31
0.0000000000
0
SPLINE
5
49F
100
AcDbEntity
8
0
100
AcDbSpline
62
7
6
CONTINUOUS
70
0
71
3
72
16
73
12
74
10
42
0.0000001000
43
0.0000001000
44
0.0000000001
12
-0.0000000000
22
0.9489129556
32
0.0000000000
13
-0.0259368117
23
-0.9485584215
33
0.0000000000
40
0.0000000000
40
0.0000000000
40
0.0000000000
40
0.0000000000
40
0.1113190344
40
0.2263509719
40
0.3375162054
40
0.4463864734
40
0.5543650690
40
0.6629876749
40
0.7738073256
40
0.8882734847
40
1.0000000000
40
1.0000000000
40
1.0000000000
40
1.0000000000
10
7.0586587467
20
-19.4352412855
30
0.0000000000
10
7.0586587467
20
-19.4000305942
30
0.0000000000
10
7.0463732253
20
-19.3278566172
30
0.0000000000
10
6.9926336457
20
-19.2330862265
30
0.0000000000
10
6.9102460247
20
-19.1630271126
30
0.0000000000
10
6.8111280206
20
-19.1259416077
30
0.0000000000
10
6.7061383552
20
-19.1245659500
30
0.0000000000
10
6.6062610007
20
-19.1589504103
30
0.0000000000
10
6.5223065438
20
-19.2265180323
30
0.0000000000
10
6.4660261888
20
-19.3195867211
30
0.0000000000
10
6.4517327917
20
-19.3913546833
30
0.0000000000
10
6.4507668485
20
-19.4266810590
30
0.0000000000
11
7.0586587467
21
-19.4352412855
31
0.0000000000
11
7.0408294126
21
-19.3311247647
31
0.0000000000
11
6.9869482751
21
-19.2361947821
31
0.0000000000
11
6.9065202197
21
-19.1679404664
31
0.0000000000
11
6.8097434744
21
-19.1317895512
31
0.0000000000
11
6.7072899549
21
-19.1304490758
31
0.0000000000
11
6.6098138405
21
-19.1639532917
31
0.0000000000
11
6.5278260041
21
-19.2298034413
31
0.0000000000
11
6.4715818086
21
-19.3227257310
31
0.0000000000
11
6.4507668485
21
-19.4266810590
31
0.0000000000
0
SPLINE
5
4A0
100
AcDbEntity
8
0
100
AcDbSpline
62
7
6
CONTINUOUS
70
0
71
3
72
16
73
12
74
10
42
0.0000001000
43
0.0000001000
44
0.0000000001
12
0.0000000000
22
-0.1024674445
32
0.0000000000
13
-0.0916510645
23
-0.0458220422
33
0.0000000000
40
0.0000000000
40
0.0000000000
40
0.0000000000
40
0.0000000000
40
0.2280397230
40
0.4162351695
40
0.5675367451
40
0.6920305970
40
0.7933353119
40
0.8747137100
40
0.9374877488
40
0.9802327601
40
1.0000000000
40
1.0000000000
40
1.0000000000
40
1.0000000000
10
9.5046542924
20
-11.7580334741
30
0.0000000000
10
9.5046542924
20
-11.7658223566
30
0.0000000000
10
9.5045747356
20
-11.7800397203
30
0.0000000000
10
9.5042530150
20
-11.7994208004
30
0.0000000000
10
9.5038199388
20
-11.8152666250
30
0.0000000000
10
9.5033097808
20
-11.8281275804
30
0.0000000000
10
9.5027631633
20
-11.8386314915
30
0.0000000000
10
9.5021221364
20
-11.8469227868
30
0.0000000000
10
9.5015717700
20
-11.8534541790
30
0.0000000000
10
9.5007360308
20
-11.8573174910
30
0.0000000000
10
9.5004027552
20
-11.8598644101
30
0.0000000000
10
9.4997988591
20
-11.8601663352
30
0.0000000000
11
9.5046542924
21
-11.7580334741
31
0.0000000000
11
9.5045201774
21
-11.7813997368
31
0.0000000000
11
9.5041938663
21
-11.8006808822
31
0.0000000000
11
9.5037600993
21
-11.8161782987
31
0.0000000000
11
9.5032491250
21
-11.8289246277
31
0.0000000000
11
9.5026809609
21
-11.8392895023
31
0.0000000000
11
9.5020582431
21
-11.8476048545
31
0.0000000000
11
9.5013736473
21
-11.8540006149
31
0.0000000000
11
9.5006218993
21
-11.8583155924
31
0.0000000000
11
9.4997988591
21
-11.8601663352
31
0.0000000000
0
SPLINE
5
4A1
100
AcDbEntity
8
0
100
AcDbSpline
62
7
6
CONTINUOUS
70
0
71
3
72
17
73
13
74
11
42
0.0000001000
43
0.0000001000
44
0.0000000001
12
-0.0015370929
22
1.4344913966
32
0.0000000000
13
-0.0015370929
23
-1.4344913966
33
0.0000000000
40
0.0000000000
40
0.0000000000
40
0.0000000000
40
0.0000000000
40
0.1035462772
40
0.2088604648
40
0.3102357412
40
0.4070580399
40
0.5031658884
40
0.5993919017
40
0.6964795937
40
0.7965033555
40
0.8978462067
40
1.0000000000
40
1.0000000000
40
1.0000000000
40
1.0000000000
10
6.3048708235
20
-16.5323539472
30
0.0000000000
10
6.3048177700
20
-16.4828418659
30
0.0000000000
10
6.3202494583
20
-16.3822783027
30
0.0000000000
10
6.3881167022
20
-16.2475929059
30
0.0000000000
10
6.4925810969
20
-16.1432658218
30
0.0000000000
10
6.6203231996
20
-16.0788544636
30
0.0000000000
10
6.7593916574
20
-16.0579291722
30
0.0000000000
10
6.8981091394
20
-16.0818492207
30
0.0000000000
10
7.0240206016
20
-16.1487885669
30
0.0000000000
10
7.1247073810
20
-16.2532769287
30
0.0000000000
10
7.1896560242
20
-16.3855340874
30
0.0000000000
10
7.2044901014
20
-16.4835077013
30
0.0000000000
10
7.2044377614
20
-16.5323539472
30
0.0000000000
11
6.3048708235
21
-16.5323539472
31
0.0000000000
11
6.3275559839
21
-16.3855601307
31
0.0000000000
11
6.3957087810
21
-16.2507340907
31
0.0000000000
11
6.4988076098
21
-16.1481758010
31
0.0000000000
11
6.6229121860
21
-16.0858162149
31
0.0000000000
11
6.7592554087
21
-16.0653822033
31
0.0000000000
11
6.8952986015
21
-16.0887497017
31
0.0000000000
11
7.0183667122
21
-16.1539478737
31
0.0000000000
11
7.1181325082
21
-16.2570703528
31
0.0000000000
11
7.1823618291
21
-16.3874875277
31
0.0000000000
11
7.2044377614
21
-16.5323539472
31
0.0000000000
0
SPLINE
5
4A2
100
AcDbEntity
8
0
100
AcDbSpline
62
7
6
CONTINUOUS
70
0
71
3
72
16
73
12
74
10
42
0.0000001000
43
0.0000001000
44
0.0000000001
12
-0.0259367995
22
0.9485579760
32
0.0000000000
13
-0.0000000000
23
-0.9489125099
33
0.0000000000
40
0.0000000000
40
0.0000000000
40
0.0000000000
40
0.0000000000
40
0.1115957136
40
0.2260800314
40
0.3367752288
40
0.4452584738
40
0.5530933096
40
0.6618193181
40
0.7729679735
40
0.8883967561
40
1.0000000000
40
1.0000000000
40
1.0000000000
40
1.0000000000
10
-6.7414582636
20
-19.4266810590
30
0.0000000000
10
-6.7424230755
20
-19.3913960576
30
0.0000000000
10
-6.7566939200
20
-19.3196653099
30
0.0000000000
10
-6.8129002393
20
-19.2266392851
30
0.0000000000
10
-6.8967516340
20
-19.1590789639
30
0.0000000000
10
-6.9964656041
20
-19.1246410012
30
0.0000000000
10
-7.1013136879
20
-19.1258633520
30
0.0000000000
10
-7.2004045962
20
-19.1627244342
30
0.0000000000
10
-7.2829988667
20
-19.2326559615
30
0.0000000000
10
-7.3369956377
20
-19.3275470598
30
0.0000000000
10
-7.3493501619
20
-19.3999407141
30
0.0000000000
10
-7.3493501619
20
-19.4352412855
30
0.0000000000
11
-6.7414582636
21
-19.4266810590
31
0.0000000000
11
-6.7622278932
21
-19.3228432905
31
0.0000000000
11
-6.8184457533
21
-19.2298849876
31
0.0000000000
11
-6.9003050585
21
-19.1640635028
31
0.0000000000
11
-6.9976231413
21
-19.1305066474
31
0.0000000000
11
-7.0999420327
21
-19.1316978014
31
0.0000000000
11
-7.1966587225
21
-19.1676176298
31
0.0000000000
11
-7.2772195424
21
-19.2356907444
31
0.0000000000
11
-7.3314296091
21
-19.3308668304
31
0.0000000000
11
-7.3493501619
21
-19.4352412855
31
0.0000000000
0
SPLINE
5
4A3
100
AcDbEntity
8
0
100
AcDbSpline
62
7
6
CONTINUOUS
70
0
71
3
72
11
73
7
74
5
42
0.0000001000
43
0.0000001000
44
0.0000000001
12
-0.2471787110
22
-0.2454076501
32
0.0000000000
13
-0.3342655936
23
-0.0979221265
33
0.0000000000
40
0.0000000000
40
0.0000000000
40
0.0000000000
40
0.0000000000
40
0.4262724796
40
0.7409185505
40
0.9336781216
40
1.0000000000
40
1.0000000000
40
1.0000000000
40
1.0000000000
10
-7.9630324154
20
22.2707082032
30
0.0000000000
10
-7.9981542428
20
22.2358380274
30
0.0000000000
10
-8.0598600047
20
22.1764233461
30
0.0000000000
10
-8.1352150602
20
22.0968072729
30
0.0000000000
10
-8.1862361464
20
22.0565804355
30
0.0000000000
10
-8.2045255020
20
22.0292191613
30
0.0000000000
10
-8.2119152094
20
22.0270543682
30
0.0000000000
11
-7.9630324154
21
22.2707082032
31
0.0000000000
11
-8.0685250411
21
22.1662258927
31
0.0000000000
11
-8.1466563543
21
22.0893710979
31
0.0000000000
11
-8.1948504687
21
22.0426249033
31
0.0000000000
11
-8.2119152094
21
22.0270543682
31
0.0000000000
0
SPLINE
5
4A4
100
AcDbEntity
8
0
100
AcDbSpline
62
7
6
CONTINUOUS
70
0
71
3
72
11
73
7
74
5
42
0.0000001000
43
0.0000001000
44
0.0000000001
12
-0.3342655936
22
0.0979221265
32
0.0000000000
13
-0.2471787110
23
0.2454076501
33
0.0000000000
40
0.0000000000
40
0.0000000000
40
0.0000000000
40
0.0000000000
40
0.0663218380
40
0.2590813501
40
0.5737266360
40
1.0000000000
40
1.0000000000
40
1.0000000000
40
1.0000000000
10
7.9212237943
20
22.0270543682
30
0.0000000000
10
7.9138340914
20
22.0292191600
30
0.0000000000
10
7.8955447423
20
22.0565804230
30
0.0000000000
10
7.8445237337
20
22.0968071963
30
0.0000000000
10
7.7691686715
20
22.1764232673
30
0.0000000000
10
7.7074629005
20
22.2358379550
30
0.0000000000
10
7.6723410003
20
22.2707082032
30
0.0000000000
11
7.9212237943
21
22.0270543682
31
0.0000000000
11
7.9041590638
21
22.0426248936
31
0.0000000000
11
7.8559649640
21
22.0893710737
31
0.0000000000
11
7.7778338452
21
22.1662256763
31
0.0000000000
11
7.6723410003
21
22.2707082032
31
0.0000000000
0
SPLINE
5
4A5
100
AcDbEntity
8
0
100
AcDbSpline
62
7
6
CONTINUOUS
70
0
71
3
72
17
73
13
74
11
42
0.0000001000
43
0.0000001000
44
0.0000000001
12
-0.0015370924
22
1.4344909610
32
0.0000000000
13
-0.0015370924
23
-1.4344909610
33
0.0000000000
40
0.0000000000
40
0.0000000000
40
0.0000000000
40
0.0000000000
40
0.1035265877
40
0.2090862109
40
0.3105903025
40
0.4073829139
40
0.5034303808
40
0.5995761329
40
0.6966008777
40
0.7965472728
40
0.8978622119
40
1.0000000000
40
1.0000000000
40
1.0000000000
40
1.0000000000
10
-7.4951291765
20
-16.5323539472
30
0.0000000000
10
-7.4951822199
20
-16.4828512957
30
0.0000000000
10
-7.4797376113
20
-16.3821803946
30
0.0000000000
10
-7.4117451260
20
-16.2473497336
30
0.0000000000
10
-7.3070608346
20
-16.1429959153
30
0.0000000000
10
-7.1792311427
20
-16.0787196224
30
0.0000000000
10
-7.0402268121
20
-16.0579445774
30
0.0000000000
10
-6.9016292030
20
-16.0819511266
30
0.0000000000
10
-6.7758486540
20
-16.1489014577
30
0.0000000000
10
-6.6752485895
20
-16.2533539997
30
0.0000000000
10
-6.6103383449
20
-16.3855631268
30
0.0000000000
10
-6.5955099068
20
-16.4835153692
30
0.0000000000
10
-6.5955622386
20
-16.5323539472
30
0.0000000000
11
-7.4951291765
21
-16.5323539472
31
0.0000000000
11
-7.4724527024
21
-16.3855874137
31
0.0000000000
11
-7.4040980468
21
-16.2504689705
31
0.0000000000
11
-7.3007735127
21
-16.1478757124
31
0.0000000000
11
-7.1766376780
21
-16.0856734712
31
0.0000000000
11
-7.0403601192
21
-16.0653864529
31
0.0000000000
11
-6.9044479751
21
-16.0888363119
31
0.0000000000
11
-6.7814923158
21
-16.1540537337
31
0.0000000000
11
-6.6818307818
21
-16.2571225945
31
0.0000000000
11
-6.6176312034
21
-16.3875097354
31
0.0000000000
11
-6.5955622386
21
-16.5323539472
31
0.0000000000
0
SPLINE
5
4A6
100
AcDbEntity
8
0
100
AcDbSpline
62
7
6
CONTINUOUS
70
0
71
3
72
16
73
12
74
10
42
0.0000001000
43
0.0000001000
44
0.0000000001
12
0.0000000000
22
-0.9489127475
32
0.0000000000
13
0.0259368060
23
0.9485582135
33
0.0000000000
40
0.0000000000
40
0.0000000000
40
0.0000000000
40
0.0000000000
40
0.1113119160
40
0.2262063636
40
0.3372665225
40
0.4460332263
40
0.5539849031
40
0.6626168009
40
0.7735264028
40
0.8883544835
40
1.0000000000
40
1.0000000000
40
1.0000000000
40
1.0000000000
10
-7.3493501619
20
20.5818791675
30
0.0000000000
10
-7.3493501619
20
20.5466707355
30
0.0000000000
10
-7.3370729975
20
20.4745425904
30
0.0000000000
10
-7.2833982803
20
20.3798350790
30
0.0000000000
10
-7.2011424615
20
20.3097997386
30
0.0000000000
10
-7.1021356382
20
20.2726467740
30
0.0000000000
10
-6.9971876991
20
20.2711473224
30
0.0000000000
10
-6.8972464931
20
20.3054193553
30
0.0000000000
10
-6.8131035785
20
20.3729946234
30
0.0000000000
10
-6.7567241649
20
20.4661630120
30
0.0000000000
10
-6.7424235063
20
20.5380181838
30
0.0000000000
10
-6.7414582636
20
20.5733189410
30
0.0000000000
11
-7.3493501619
21
20.5818791675
31
0.0000000000
11
-7.3315231177
21
20.4777691312
31
0.0000000000
11
-7.2777288395
21
20.3829398955
31
0.0000000000
11
-7.1974193467
21
20.3147000335
31
0.0000000000
11
-7.1007695823
21
20.2784902253
31
0.0000000000
11
-6.9983432790
21
20.2770292462
31
0.0000000000
11
-6.9008186208
21
20.3104190574
31
0.0000000000
11
-6.8186963370
21
20.3762379921
31
0.0000000000
11
-6.7622451498
21
20.4694364028
31
0.0000000000
11
-6.7414582636
21
20.5733189410
31
0.0000000000
0
SPLINE
5
4A7
100
AcDbEntity
8
0
100
AcDbSpline
62
7
6
CONTINUOUS
70
0
71
3
72
32
73
28
74
26
42
0.0000001000
43
0.0000001000
44
0.0000000001
12
-0.6407329712
22
0.6407329712
32
0.0000000000
13
0.0000000000
23
-0.9061332577
33
0.0000000000
40
0.0000000000
40
0.0000000000
40
0.0000000000
40
0.0000000000
40
0.0043069725
40
0.0163919153
40
0.0360729346
40
0.0630421591
40
0.0968762501
40
0.1370439022
40
0.1829140150
40
0.2337660174
40
0.2888008725
40
0.3471539500
40
0.4079083789
40
0.4701096322
40
0.5327805248
40
0.5949363991
40
0.6556005566
40
0.7138199080
40
0.7686796671
40
0.8193179791
40
0.8649391463
40
0.9048265250
40
0.9383534049
40
0.9649933132
40
0.9843280882
40
0.9960553636
40
1.0000000000
40
1.0000000000
40
1.0000000000
40
1.0000000000
10
4.2607320454
20
-21.7827588119
30
0.0000000000
10
4.2598121723
20
-21.7818389388
30
0.0000000000
10
4.2540017208
20
-21.7832560755
30
0.0000000000
10
4.2439089629
20
-21.7814518411
30
0.0000000000
10
4.2257289309
20
-21.7820049886
30
0.0000000000
10
4.2016103418
20
-21.7813573820
30
0.0000000000
10
4.1710423342
20
-21.7812243538
30
0.0000000000
10
4.1348613416
20
-21.7809293191
30
0.0000000000
10
4.0935070035
20
-21.7807241007
30
0.0000000000
10
4.0476725880
20
-21.7805293875
30
0.0000000000
10
3.9980642993
20
-21.7803752120
30
0.0000000000
10
3.9454659250
20
-21.7802559704
30
0.0000000000
10
3.8907026134
20
-21.7801761003
30
0.0000000000
10
3.8346351740
20
-21.7801362196
30
0.0000000000
10
3.7781443771
20
-21.7801371622
30
0.0000000000
10
3.7221179542
20
-21.7801789428
30
0.0000000000
10
3.6674358448
20
-21.7802605800
30
0.0000000000
10
3.6149585962
20
-21.7803818093
30
0.0000000000
10
3.5655061685
20
-21.7805368482
30
0.0000000000
10
3.5198708770
20
-21.7807356590
30
0.0000000000
10
3.4787202759
20
-21.7809340086
30
0.0000000000
10
3.4428548144
20
-21.7812550739
30
0.0000000000
10
3.4123833914
20
-21.7813179200
30
0.0000000000
10
3.3890371619
20
-21.7821520624
30
0.0000000000
10
3.3700741695
20
-21.7811758260
30
0.0000000000
10
3.3622372057
20
-21.7837038728
30
0.0000000000
10
3.3546542924
20
-21.7815826905
30
0.0000000000
10
3.3546542924
20
-21.7827741459
30
0.0000000000
11
4.2607320454
21
-21.7827588119
31
0.0000000000
11
4.2568432979
21
-21.7824292068
31
0.0000000000
11
4.2458975290
21
-21.7821050197
31
0.0000000000
11
4.2280666617
21
-21.7817913450
31
0.0000000000
11
4.2036307703
21
-21.7814931112
31
0.0000000000
11
4.1729738366
21
-21.7812150051
31
0.0000000000
11
4.1365774747
21
-21.7809613963
31
0.0000000000
11
4.0950136496
21
-21.7807362701
31
0.0000000000
11
4.0489353637
21
-21.7805431636
31
0.0000000000
11
3.9990667017
21
-21.7803851114
31
0.0000000000
11
3.9461911748
21
-21.7802645964
31
0.0000000000
11
3.8911396259
21
-21.7801835124
31
0.0000000000
11
3.8347770161
21
-21.7801431333
31
0.0000000000
11
3.7779888360
21
-21.7801440935
31
0.0000000000
11
3.7216673471
21
-21.7801863781
31
0.0000000000
11
3.6666975990
21
-21.7802693227
31
0.0000000000
11
3.6139432502
21
-21.7803916243
31
0.0000000000
11
3.5642332546
21
-21.7805513610
31
0.0000000000
11
3.5183486089
21
-21.7807460233
31
0.0000000000
11
3.4770103727
21
-21.7809725522
31
0.0000000000
11
3.4408679907
21
-21.7812273888
31
0.0000000000
11
3.4104894523
21
-21.7815065282
31
0.0000000000
11
3.3863519979
21
-21.7818055849
31
0.0000000000
11
3.3688349342
21
-21.7821198590
31
0.0000000000
11
3.3582134173
21
-21.7824444128
31
0.0000000000
11
3.3546542924
21
-21.7827741459
31
0.0000000000
0
SPLINE
5
4A8
100
AcDbEntity
8
0
100
AcDbSpline
62
7
6
CONTINUOUS
70
0
71
3
72
17
73
13
74
11
42
0.0000001000
43
0.0000001000
44
0.0000000001
12
0.0013202969
22
-1.4830430072
32
0.0000000000
13
0.0013202969
23
1.4830430072
33
0.0000000000
40
0.0000000000
40
0.0000000000
40
0.0000000000
40
0.0000000000
40
0.1030982459
40
0.2084990804
40
0.3101205611
40
0.4071984569
40
0.5036827819
40
0.6002858791
40
0.6975501613
40
0.7974130774
40
0.8983826350
40
1.0000000000
40
1.0000000000
40
1.0000000000
40
1.0000000000
10
-6.5792961234
20
17.3550858136
30
0.0000000000
10
-6.5792507499
20
17.3041194360
30
0.0000000000
10
-6.5952122081
20
17.2003349018
30
0.0000000000
10
-6.6655600925
20
17.0612167011
30
0.0000000000
10
-6.7740740960
20
16.9534342037
30
0.0000000000
10
-6.9067231675
20
16.8870369274
30
0.0000000000
10
-7.0510327813
20
16.8656436476
30
0.0000000000
10
-7.1948641328
20
16.8906112736
30
0.0000000000
10
-7.3251864849
20
16.9599339414
30
0.0000000000
10
-7.4291871600
20
17.0677905800
30
0.0000000000
10
-7.4961524320
20
17.2040173701
30
0.0000000000
10
-7.5114400134
20
17.3048515060
30
0.0000000000
10
-7.5113952917
20
17.3550858136
30
0.0000000000
11
-6.5792961234
21
17.3550858136
31
0.0000000000
11
-6.6026975084
21
17.2039880356
31
0.0000000000
11
-6.6733933079
21
17.0645743323
31
0.0000000000
11
-6.7805050461
21
16.9585540316
31
0.0000000000
11
-6.9093248652
21
16.8942653742
31
0.0000000000
11
-7.0508789047
21
16.8733528488
31
0.0000000000
11
-7.1920484540
21
16.8977757544
31
0.0000000000
11
-7.3194840648
21
16.9653583806
31
0.0000000000
11
-7.4224712439
21
17.0717894117
31
0.0000000000
11
-7.4886644260
21
17.2061069673
31
0.0000000000
11
-7.5113952917
21
17.3550858136
31
0.0000000000
0
SPLINE
5
4A9
100
AcDbEntity
8
0
100
AcDbSpline
62
7
6
CONTINUOUS
70
0
71
3
72
32
73
28
74
26
42
0.0000001000
43
0.0000001000
44
0.0000000001
12
0.0000000000
22
0.9061332577
32
0.0000000000
13
-0.6407329712
23
-0.6407329712
33
0.0000000000
40
0.0000000000
40
0.0000000000
40
0.0000000000
40
0.0000000000
40
0.0039446364
40
0.0156719118
40
0.0350066868
40
0.0616465951
40
0.0951734750
40
0.1350608537
40
0.1806820209
40
0.2313203329
40
0.2861800920
40
0.3443994434
40
0.4050636009
40
0.4672194752
40
0.5298903678
40
0.5920916211
40
0.6528460500
40
0.7111991275
40
0.7662339826
40
0.8170859850
40
0.8629560978
40
0.9031237499
40
0.9369578409
40
0.9639270654
40
0.9836080847
40
0.9956930275
40
1.0000000000
40
1.0000000000
40
1.0000000000
40
1.0000000000
10
-3.6453457076
20
-21.7827741459
30
0.0000000000
10
-3.6453457076
20
-21.7815826905
30
0.0000000000
10
-3.6529286209
20
-21.7837038728
30
0.0000000000
10
-3.6607655846
20
-21.7811758260
30
0.0000000000
10
-3.6797285770
20
-21.7821520624
30
0.0000000000
10
-3.7030748065
20
-21.7813179200
30
0.0000000000
10
-3.7335462295
20
-21.7812550739
30
0.0000000000
10
-3.7694116910
20
-21.7809340086
30
0.0000000000
10
-3.8105622921
20
-21.7807356590
30
0.0000000000
10
-3.8561975836
20
-21.7805368482
30
0.0000000000
10
-3.9056500113
20
-21.7803818093
30
0.0000000000
10
-3.9581272599
20
-21.7802605800
30
0.0000000000
10
-4.0128093693
20
-21.7801789428
30
0.0000000000
10
-4.0688357922
20
-21.7801371622
30
0.0000000000
10
-4.1253265891
20
-21.7801362196
30
0.0000000000
10
-4.1813940285
20
-21.7801761003
30
0.0000000000
10
-4.2361573401
20
-21.7802559704
30
0.0000000000
10
-4.2887557144
20
-21.7803752120
30
0.0000000000
10
-4.3383640031
20
-21.7805293875
30
0.0000000000
10
-4.3841984186
20
-21.7807241007
30
0.0000000000
10
-4.4255527567
20
-21.7809293191
30
0.0000000000
10
-4.4617337493
20
-21.7812243538
30
0.0000000000
10
-4.4923017569
20
-21.7813573820
30
0.0000000000
10
-4.5164203460
20
-21.7820049886
30
0.0000000000
10
-4.5346003780
20
-21.7814518411
30
0.0000000000
10
-4.5446931359
20
-21.7832560755
30
0.0000000000
10
-4.5505035874
20
-21.7818389388
30
0.0000000000
10
-4.5514234605
20
-21.7827588119
30
0.0000000000
11
-3.6453457076
21
-21.7827741459
31
0.0000000000
11
-3.6489048324
21
-21.7824444128
31
0.0000000000
11
-3.6595263493
21
-21.7821198590
31
0.0000000000
11
-3.6770434130
21
-21.7818055849
31
0.0000000000
11
-3.7011808674
21
-21.7815065282
31
0.0000000000
11
-3.7315594058
21
-21.7812273888
31
0.0000000000
11
-3.7677017878
21
-21.7809725522
31
0.0000000000
11
-3.8090400240
21
-21.7807460233
31
0.0000000000
11
-3.8549246697
21
-21.7805513610
31
0.0000000000
11
-3.9046346653
21
-21.7803916243
31
0.0000000000
11
-3.9573890141
21
-21.7802693227
31
0.0000000000
11
-4.0123587622
21
-21.7801863781
31
0.0000000000
11
-4.0686802511
21
-21.7801440935
31
0.0000000000
11
-4.1254684312
21
-21.7801431333
31
0.0000000000
11
-4.1818310410
21
-21.7801835124
31
0.0000000000
11
-4.2368825899
21
-21.7802645964
31
0.0000000000
11
-4.2897581168
21
-21.7803851114
31
0.0000000000
11
-4.3396267788
21
-21.7805431636
31
0.0000000000
11
-4.3857050647
21
-21.7807362701
31
0.0000000000
11
-4.4272688898
21
-21.7809613963
31
0.0000000000
11
-4.4636652517
21
-21.7812150051
31
0.0000000000
11
-4.4943221854
21
-21.7814931112
31
0.0000000000
11
-4.5187580768
21
-21.7817913450
31
0.0000000000
11
-4.5365889441
21
-21.7821050197
31
0.0000000000
11
-4.5475347130
21
-21.7824292068
31
0.0000000000
11
-4.5514234605
21
-21.7827588119
31
0.0000000000
0
SPLINE
5
4AA
100
AcDbEntity
8
0
100
AcDbSpline
62
7
6
CONTINUOUS
70
0
71
3
72
32
73
28
74
26
42
0.0000001000
43
0.0000001000
44
0.0000000001
12
0.0000000000
22
-0.9061332577
32
0.0000000000
13
0.6407329712
23
0.6407329712
33
0.0000000000
40
0.0000000000
40
0.0000000000
40
0.0000000000
40
0.0000000000
40
0.0039446364
40
0.0156719118
40
0.0350066868
40
0.0616465951
40
0.0951734750
40
0.1350608537
40
0.1806820209
40
0.2313203329
40
0.2861800920
40
0.3443994434
40
0.4050636009
40
0.4672194752
40
0.5298903678
40
0.5920916211
40
0.6528460500
40
0.7111991275
40
0.7662339826
40
0.8170859850
40
0.8629560978
40
0.9031237499
40
0.9369578409
40
0.9639270654
40
0.9836080847
40
0.9956930275
40
1.0000000000
40
1.0000000000
40
1.0000000000
40
1.0000000000
10
3.3546542924
20
22.9294120279
30
0.0000000000
10
3.3546542924
20
22.9282205725
30
0.0000000000
10
3.3622372057
20
22.9303417549
30
0.0000000000
10
3.3700741695
20
22.9278137080
30
0.0000000000
10
3.3890371619
20
22.9287899444
30
0.0000000000
10
3.4123833914
20
22.9279558020
30
0.0000000000
10
3.4428548144
20
22.9278929559
30
0.0000000000
10
3.4787202759
20
22.9275718906
30
0.0000000000
10
3.5198708770
20
22.9273735411
30
0.0000000000
10
3.5655061685
20
22.9271747302
30
0.0000000000
10
3.6149585962
20
22.9270196913
30
0.0000000000
10
3.6674358448
20
22.9268984620
30
0.0000000000
10
3.7221179542
20
22.9268168249
30
0.0000000000
10
3.7781443771
20
22.9267750443
30
0.0000000000
10
3.8346351740
20
22.9267741016
30
0.0000000000
10
3.8907026134
20
22.9268139824
30
0.0000000000
10
3.9454659250
20
22.9268938524
30
0.0000000000
10
3.9980642993
20
22.9270130940
30
0.0000000000
10
4.0476725880
20
22.9271672695
30
0.0000000000
10
4.0935070035
20
22.9273619828
30
0.0000000000
10
4.1348613416
20
22.9275672011
30
0.0000000000
10
4.1710423342
20
22.9278622358
30
0.0000000000
10
4.2016103418
20
22.9279952640
30
0.0000000000
10
4.2257289309
20
22.9286428707
30
0.0000000000
10
4.2439089629
20
22.9280897232
30
0.0000000000
10
4.2540017208
20
22.9298939575
30
0.0000000000
10
4.2598121723
20
22.9284768209
30
0.0000000000
10
4.2607320454
20
22.9293966940
30
0.0000000000
11
3.3546542924
21
22.9294120279
31
0.0000000000
11
3.3582134173
21
22.9290822948
31
0.0000000000
11
3.3688349342
21
22.9287577411
31
0.0000000000
11
3.3863519979
21
22.9284434670
31
0.0000000000
11
3.4104894523
21
22.9281444103
31
0.0000000000
11
3.4408679907
21
22.9278652709
31
0.0000000000
11
3.4770103727
21
22.9276104343
31
0.0000000000
11
3.5183486089
21
22.9273839054
31
0.0000000000
11
3.5642332546
21
22.9271892431
31
0.0000000000
11
3.6139432502
21
22.9270295063
31
0.0000000000
11
3.6666975990
21
22.9269072048
31
0.0000000000
11
3.7216673471
21
22.9268242601
31
0.0000000000
11
3.7779888360
21
22.9267819755
31
0.0000000000
11
3.8347770161
21
22.9267810153
31
0.0000000000
11
3.8911396259
21
22.9268213945
31
0.0000000000
11
3.9461911748
21
22.9269024784
31
0.0000000000
11
3.9990667017
21
22.9270229934
31
0.0000000000
11
4.0489353637
21
22.9271810457
31
0.0000000000
11
4.0950136496
21
22.9273741522
31
0.0000000000
11
4.1365774747
21
22.9275992783
31
0.0000000000
11
4.1729738366
21
22.9278528872
31
0.0000000000
11
4.2036307703
21
22.9281309932
31
0.0000000000
11
4.2280666617
21
22.9284292271
31
0.0000000000
11
4.2458975290
21
22.9287429017
31
0.0000000000
11
4.2568432979
21
22.9290670889
31
0.0000000000
11
4.2607320454
21
22.9293966940
31
0.0000000000
0
SPLINE
5
4AB
100
AcDbEntity
8
0
100
AcDbSpline
62
7
6
CONTINUOUS
70
0
71
3
72
32
73
28
74
26
42
0.0000001000
43
0.0000001000
44
0.0000000001
12
0.6407329712
22
-0.6407329712
32
0.0000000000
13
0.0000000000
23
0.9061332577
33
0.0000000000
40
0.0000000000
40
0.0000000000
40
0.0000000000
40
0.0000000000
40
0.0043069725
40
0.0163919153
40
0.0360729346
40
0.0630421591
40
0.0968762501
40
0.1370439022
40
0.1829140150
40
0.2337660174
40
0.2888008725
40
0.3471539500
40
0.4079083789
40
0.4701096322
40
0.5327805248
40
0.5949363991
40
0.6556005566
40
0.7138199080
40
0.7686796671
40
0.8193179791
40
0.8649391463
40
0.9048265250
40
0.9383534049
40
0.9649933132
40
0.9843280882
40
0.9960553636
40
1.0000000000
40
1.0000000000
40
1.0000000000
40
1.0000000000
10
-4.5514234605
20
22.9293966940
30
0.0000000000
10
-4.5505035874
20
22.9284768209
30
0.0000000000
10
-4.5446931359
20
22.9298939575
30
0.0000000000
10
-4.5346003780
20
22.9280897232
30
0.0000000000
10
-4.5164203460
20
22.9286428707
30
0.0000000000
10
-4.4923017569
20
22.9279952640
30
0.0000000000
10
-4.4617337493
20
22.9278622358
30
0.0000000000
10
-4.4255527567
20
22.9275672011
30
0.0000000000
10
-4.3841984186
20
22.9273619828
30
0.0000000000
10
-4.3383640031
20
22.9271672695
30
0.0000000000
10
-4.2887557144
20
22.9270130940
30
0.0000000000
10
-4.2361573401
20
22.9268938524
30
0.0000000000
10
-4.1813940285
20
22.9268139824
30
0.0000000000
10
-4.1253265891
20
22.9267741016
30
0.0000000000
10
-4.0688357922
20
22.9267750443
30
0.0000000000
10
-4.0128093693
20
22.9268168249
30
0.0000000000
10
-3.9581272599
20
22.9268984620
30
0.0000000000
10
-3.9056500113
20
22.9270196913
30
0.0000000000
10
-3.8561975836
20
22.9271747302
30
0.0000000000
10
-3.8105622921
20
22.9273735411
30
0.0000000000
10
-3.7694116910
20
22.9275718906
30
0.0000000000
10
-3.7335462295
20
22.9278929559
30
0.0000000000
10
-3.7030748065
20
22.9279558020
30
0.0000000000
10
-3.6797285770
20
22.9287899444
30
0.0000000000
10
-3.6607655846
20
22.9278137080
30
0.0000000000
10
-3.6529286209
20
22.9303417549
30
0.0000000000
10
-3.6453457076
20
22.9282205725
30
0.0000000000
10
-3.6453457076
20
22.9294120279
30
0.0000000000
11
-4.5514234605
21
22.9293966940
31
0.0000000000
11
-4.5475347130
21
22.9290670889
31
0.0000000000
11
-4.5365889441
21
22.9287429017
31
0.0000000000
11
-4.5187580768
21
22.9284292271
31
0.0000000000
11
-4.4943221854
21
22.9281309932
31
0.0000000000
11
-4.4636652517
21
22.9278528872
31
0.0000000000
11
-4.4272688898
21
22.9275992783
31
0.0000000000
11
-4.3857050647
21
22.9273741522
31
0.0000000000
11
-4.3396267788
21
22.9271810457
31
0.0000000000
11
-4.2897581168
21
22.9270229934
31
0.0000000000
11
-4.2368825899
21
22.9269024784
31
0.0000000000
11
-4.1818310410
21
22.9268213945
31
0.0000000000
11
-4.1254684312
21
22.9267810153
31
0.0000000000
11
-4.0686802511
21
22.9267819755
31
0.0000000000
11
-4.0123587622
21
22.9268242601
31
0.0000000000
11
-3.9573890141
21
22.9269072048
31
0.0000000000
11
-3.9046346653
21
22.9270295063
31
0.0000000000
11
-3.8549246697
21
22.9271892431
31
0.0000000000
11
-3.8090400240
21
22.9273839054
31
0.0000000000
11
-3.7677017878
21
22.9276104343
31
0.0000000000
11
-3.7315594058
21
22.9278652709
31
0.0000000000
11
-3.7011808674
21
22.9281444103
31
0.0000000000
11
-3.6770434130
21
22.9284434670
31
0.0000000000
11
-3.6595263493
21
22.9287577411
31
0.0000000000
11
-3.6489048324
21
22.9290822948
31
0.0000000000
11
-3.6453457076
21
22.9294120279
31
0.0000000000
0
SPLINE
5
4AC
100
AcDbEntity
8
0
100
AcDbSpline
62
7
6
CONTINUOUS
70
0
71
3
72
10
73
6
74
4
42
0.0000001000
43
0.0000001000
44
0.0000000001
12
-0.2540625234
22
0.3592986663
32
0.0000000000
13
-0.2443390651
23
0.3659804895
33
0.0000000000
40
0.0000000000
40
0.0000000000
40
0.0000000000
40
0.0000000000
40
0.3380847372
40
0.6726985715
40
1.0000000000
40
1.0000000000
40
1.0000000000
40
1.0000000000
10
-7.7119913618
20
21.9093058897
30
0.0000000000
10
-7.7406229156
20
21.9497970214
30
0.0000000000
10
-7.7975931078
20
22.0303631024
30
0.0000000000
10
-7.8816478788
20
22.1505752583
30
0.0000000000
10
-7.9363749071
20
22.2307795575
30
0.0000000000
10
-7.9630324154
20
22.2707082032
30
0.0000000000
11
-7.7119913618
21
21.9093058897
31
0.0000000000
11
-7.7977792847
21
22.0308546901
31
0.0000000000
11
-7.8820299396
21
22.1516163295
31
0.0000000000
11
-7.9630324154
21
22.2707082032
31
0.0000000000
0
SPLINE
5
4AD
100
AcDbEntity
8
0
100
AcDbSpline
62
7
6
CONTINUOUS
70
0
71
3
72
12
73
8
74
6
42
0.0000001000
43
0.0000001000
44
0.0000000001
12
0.6314034456
22
0.6344383628
32
0.0000000000
13
-0.6680364719
23
0.5957429139
33
0.0000000000
40
0.0000000000
40
0.0000000000
40
0.0000000000
40
0.0000000000
40
0.3597724925
40
0.6438190188
40
0.8450503063
40
0.9623020219
40
1.0000000000
40
1.0000000000
40
1.0000000000
40
1.0000000000
10
-7.9630324154
20
22.2707082032
30
0.0000000000
10
-7.8873118850
20
22.3467926936
30
0.0000000000
10
-7.7489030458
20
22.4833229072
30
0.0000000000
10
-7.5818313077
20
22.6617044750
30
0.0000000000
10
-7.4333987622
20
22.7918906376
30
0.0000000000
10
-7.3975789275
20
22.8648395407
30
0.0000000000
10
-7.3274927923
20
22.9018028654
30
0.0000000000
10
-7.3358873337
20
22.9092889665
30
0.0000000000
11
-7.9630324154
21
22.2707082032
31
0.0000000000
11
-7.7360963887
21
22.4991859383
31
0.0000000000
11
-7.5573708613
21
22.6800132697
31
0.0000000000
11
-7.4312462420
21
22.8086044175
31
0.0000000000
11
-7.3583694421
21
22.8841265913
31
0.0000000000
11
-7.3358873337
21
22.9092889665
31
0.0000000000
0
SPLINE
5
4AE
100
AcDbEntity
8
0
100
AcDbSpline
62
7
6
CONTINUOUS
70
0
71
3
72
12
73
8
74
6
42
0.0000001000
43
0.0000001000
44
0.0000000001
12
-0.6680364719
22
-0.5957429139
32
0.0000000000
13
0.6314034456
23
-0.6344383628
33
0.0000000000
40
0.0000000000
40
0.0000000000
40
0.0000000000
40
0.0000000000
40
0.0376979781
40
0.1549496937
40
0.3561809812
40
0.6402275075
40
1.0000000000
40
1.0000000000
40
1.0000000000
40
1.0000000000
10
7.0451959186
20
22.9092889665
30
0.0000000000
10
7.0368013772
20
22.9018028654
30
0.0000000000
10
7.1068875124
20
22.8648395407
30
0.0000000000
10
7.1427073471
20
22.7918906376
30
0.0000000000
10
7.2911398926
20
22.6617044750
30
0.0000000000
10
7.4582116307
20
22.4833229072
30
0.0000000000
10
7.5966204698
20
22.3467926936
30
0.0000000000
10
7.6723410003
20
22.2707082032
30
0.0000000000
11
7.0451959186
21
22.9092889665
31
0.0000000000
11
7.0676780270
21
22.8841265913
31
0.0000000000
11
7.1405548269
21
22.8086044175
31
0.0000000000
11
7.2666794462
21
22.6800132697
31
0.0000000000
11
7.4454049736
21
22.4991859383
31
0.0000000000
11
7.6723410003
21
22.2707082032
31
0.0000000000
0
SPLINE
5
4AF
100
AcDbEntity
8
0
100
AcDbSpline
62
7
6
CONTINUOUS
70
0
71
3
72
10
73
6
74
4
42
0.0000001000
43
0.0000001000
44
0.0000000001
12
-0.2443390651
22
-0.3659804895
32
0.0000000000
13
-0.2540625234
23
-0.3592986663
33
0.0000000000
40
0.0000000000
40
0.0000000000
40
0.0000000000
40
0.0000000000
40
0.3273014285
40
0.6619152628
40
1.0000000000
40
1.0000000000
40
1.0000000000
40
1.0000000000
10
7.6723410003
20
22.2707082032
30
0.0000000000
10
7.6456834920
20
22.2307795575
30
0.0000000000
10
7.5909564637
20
22.1505752583
30
0.0000000000
10
7.5069016927
20
22.0303631024
30
0.0000000000
10
7.4499315005
20
21.9497970214
30
0.0000000000
10
7.4212999467
20
21.9093058897
30
0.0000000000
11
7.6723410003
21
22.2707082032
31
0.0000000000
11
7.5913385245
21
22.1516163295
31
0.0000000000
11
7.5070878696
21
22.0308546901
31
0.0000000000
11
7.4212999467
21
21.9093058897
31
0.0000000000
0
SPLINE
5
4B0
100
AcDbEntity
8
0
100
AcDbSpline
62
7
6
CONTINUOUS
70
0
71
3
72
10
73
6
74
4
42
0.0000001000
43
0.0000001000
44
0.0000000001
12
0.2540625234
22
-0.3592986663
32
0.0000000000
13
0.2443390651
23
-0.3659804895
33
0.0000000000
40
0.0000000000
40
0.0000000000
40
0.0000000000
40
0.0000000000
40
0.3380847372
40
0.6726985715
40
1.0000000000
40
1.0000000000
40
1.0000000000
40
1.0000000000
10
7.4212999467
20
-20.7626680076
30
0.0000000000
10
7.4499315005
20
-20.8031591394
30
0.0000000000
10
7.5069016927
20
-20.8837252204
30
0.0000000000
10
7.5909564637
20
-21.0039373762
30
0.0000000000
10
7.6456834920
20
-21.0841416755
30
0.0000000000
10
7.6723410003
20
-21.1240703212
30
0.0000000000
11
7.4212999467
21
-20.7626680076
31
0.0000000000
11
7.5070878696
21
-20.8842168081
31
0.0000000000
11
7.5913385245
21
-21.0049784475
31
0.0000000000
11
7.6723410003
21
-21.1240703212
31
0.0000000000
0
SPLINE
5
4B1
100
AcDbEntity
8
0
100
AcDbSpline
62
7
6
CONTINUOUS
70
0
71
3
72
12
73
8
74
6
42
0.0000001000
43
0.0000001000
44
0.0000000001
12
-0.6314034456
22
-0.6344383628
32
0.0000000000
13
0.6680364719
23
-0.5957429139
33
0.0000000000
40
0.0000000000
40
0.0000000000
40
0.0000000000
40
0.0000000000
40
0.3597724925
40
0.6438190188
40
0.8450503063
40
0.9623020219
40
1.0000000000
40
1.0000000000
40
1.0000000000
40
1.0000000000
10
7.6723410003
20
-21.1240703212
30
0.0000000000
10
7.5966204698
20
-21.2001548115
30
0.0000000000
10
7.4582116307
20
-21.3366850252
30
0.0000000000
10
7.2911398926
20
-21.5150665929
30
0.0000000000
10
7.1427073471
20
-21.6452527555
30
0.0000000000
10
7.1068875124
20
-21.7182016586
30
0.0000000000
10
7.0368013772
20
-21.7551649834
30
0.0000000000
10
7.0451959186
20
-21.7626510845
30
0.0000000000
11
7.6723410003
21
-21.1240703212
31
0.0000000000
11
7.4454049736
21
-21.3525480563
31
0.0000000000
11
7.2666794462
21
-21.5333753877
31
0.0000000000
11
7.1405548269
21
-21.6619665354
31
0.0000000000
11
7.0676780270
21
-21.7374887093
31
0.0000000000
11
7.0451959186
21
-21.7626510845
31
0.0000000000
0
SPLINE
5
4B2
100
AcDbEntity
8
0
100
AcDbSpline
62
7
6
CONTINUOUS
70
0
71
3
72
12
73
8
74
6
42
0.0000001000
43
0.0000001000
44
0.0000000001
12
0.6680364719
22
0.5957429139
32
0.0000000000
13
-0.6314034456
23
0.6344383628
33
0.0000000000
40
0.0000000000
40
0.0000000000
40
0.0000000000
40
0.0000000000
40
0.0376979781
40
0.1549496937
40
0.3561809812
40
0.6402275075
40
1.0000000000
40
1.0000000000
40
1.0000000000
40
1.0000000000
10
-7.3358873337
20
-21.7626510845
30
0.0000000000
10
-7.3274927923
20
-21.7551649834
30
0.0000000000
10
-7.3975789275
20
-21.7182016586
30
0.0000000000
10
-7.4333987622
20
-21.6452527555
30
0.0000000000
10
-7.5818313077
20
-21.5150665929
30
0.0000000000
10
-7.7489030458
20
-21.3366850252
30
0.0000000000
10
-7.8873118850
20
-21.2001548115
30
0.0000000000
10
-7.9630324154
20
-21.1240703212
30
0.0000000000
11
-7.3358873337
21
-21.7626510845
31
0.0000000000
11
-7.3583694421
21
-21.7374887093
31
0.0000000000
11
-7.4312462420
21
-21.6619665354
31
0.0000000000
11
-7.5573708613
21
-21.5333753877
31
0.0000000000
11
-7.7360963887
21
-21.3525480563
31
0.0000000000
11
-7.9630324154
21
-21.1240703212
31
0.0000000000
0
SPLINE
5
4B3
100
AcDbEntity
8
0
100
AcDbSpline
62
7
6
CONTINUOUS
70
0
71
3
72
10
73
6
74
4
42
0.0000001000
43
0.0000001000
44
0.0000000001
12
0.2443390651
22
0.3659804895
32
0.0000000000
13
0.2540625234
23
0.3592986663
33
0.0000000000
40
0.0000000000
40
0.0000000000
40
0.0000000000
40
0.0000000000
40
0.3273014285
40
0.6619152628
40
1.0000000000
40
1.0000000000
40
1.0000000000
40
1.0000000000
10
-7.9630324154
20
-21.1240703212
30
0.0000000000
10
-7.9363749071
20
-21.0841416755
30
0.0000000000
10
-7.8816478788
20
-21.0039373762
30
0.0000000000
10
-7.7975931078
20
-20.8837252204
30
0.0000000000
10
-7.7406229156
20
-20.8031591394
30
0.0000000000
10
-7.7119913618
20
-20.7626680076
30
0.0000000000
11
-7.9630324154
21
-21.1240703212
31
0.0000000000
11
-7.8820299396
21
-21.0049784475
31
0.0000000000
11
-7.7977792847
21
-20.8842168081
31
0.0000000000
11
-7.7119913618
21
-20.7626680076
31
0.0000000000
0
SPLINE
5
4B4
100
AcDbEntity
8
0
100
AcDbSpline
62
7
6
CONTINUOUS
70
0
71
3
72
16
73
12
74
10
42
0.0000001000
43
0.0000001000
44
0.0000000001
12
0.0259367992
22
-0.9485579651
32
0.0000000000
13
-0.0000000000
23
0.9489124990
33
0.0000000000
40
0.0000000000
40
0.0000000000
40
0.0000000000
40
0.0000000000
40
0.1115710433
40
0.2263144107
40
0.3371020815
40
0.4456253033
40
0.5534729703
40
0.6621402937
40
0.7731964999
40
0.8884220435
40
1.0000000000
40
1.0000000000
40
1.0000000000
40
1.0000000000
10
6.4507668485
20
20.5733189410
30
0.0000000000
10
6.4517314470
20
20.5380417404
30
0.0000000000
10
6.4660135019
20
20.4662376419
30
0.0000000000
10
6.5223104951
20
20.3731292939
30
0.0000000000
10
6.6063231694
20
20.3055626193
30
0.0000000000
10
6.7061212726
20
20.2712196659
30
0.0000000000
10
6.8109665390
20
20.2725683558
30
0.0000000000
10
6.9099717379
20
20.3095241458
30
0.0000000000
10
6.9924152585
20
20.3794513279
30
0.0000000000
10
7.0463190850
20
20.4742655492
30
0.0000000000
10
7.0586587467
20
20.5465865950
30
0.0000000000
10
7.0586587467
20
20.5818791675
30
0.0000000000
11
6.4507668485
21
20.5733189410
31
0.0000000000
11
6.4715279369
21
20.4695033391
31
0.0000000000
11
6.5279035362
21
20.3763531676
31
0.0000000000
11
6.6098896872
21
20.3105494706
31
0.0000000000
11
6.7072808608
21
20.2770884139
31
0.0000000000
11
6.8096104218
21
20.2784025803
31
0.0000000000
11
6.9062345941
21
20.3144113806
31
0.0000000000
11
6.9866693074
21
20.3824977518
31
0.0000000000
11
7.0407463215
21
20.4775276650
31
0.0000000000
11
7.0586587467
21
20.5818791675
31
0.0000000000
0
SPLINE
5
4B5
100
AcDbEntity
8
0
100
AcDbSpline
62
9
6
CONTINUOUS
70
0
71
3
72
10
73
6
74
4
42
0.0000001000
43
0.0000001000
44
0.0000000001
12
0.1505124119
22
0.0004780392
32
0.0000000000
13
0.0004221517
23
0.1505125790
33
0.0000000000
40
0.0000000000
40
0.0000000000
40
0.0000000000
40
0.0000000000
40
0.3242696710
40
0.6578479174
40
1.0000000000
40
1.0000000000
40
1.0000000000
40
1.0000000000
10
8.6090019929
20
-11.8388078126
30
0.0000000000
10
8.6252708630
20
-11.8387561414
30
0.0000000000
10
8.6588791318
20
-11.8289366333
30
0.0000000000
10
8.6943403986
20
-11.7904618953
30
0.0000000000
10
8.7029231083
20
-11.7559776844
30
0.0000000000
10
8.7029712550
20
-11.7388116203
30
0.0000000000
11
8.6090019929
21
-11.8388078126
31
0.0000000000
11
8.6559057540
21
-11.8253116491
31
0.0000000000
11
8.6902884243
21
-11.7887238481
31
0.0000000000
11
8.7029712550
21
-11.7388116203
31
0.0000000000
0
SPLINE
5
4B6
100
AcDbEntity
8
0
100
AcDbSpline
62
7
6
CONTINUOUS
70
0
71
3
72
17
73
13
74
11
42
0.0000001000
43
0.0000001000
44
0.0000000001
12
0.0013202971
22
-1.4830432846
32
0.0000000000
13
0.0013202971
23
1.4830432846
33
0.0000000000
40
0.0000000000
40
0.0000000000
40
0.0000000000
40
0.0000000000
40
0.1031184576
40
0.2084022519
40
0.3099260131
40
0.4070009216
40
0.5034899133
40
0.6001172585
40
0.6974081696
40
0.7973217589
40
0.8982899294
40
1.0000000000
40
1.0000000000
40
1.0000000000
40
1.0000000000
10
7.2207038766
20
17.3550858136
30
0.0000000000
10
7.2207492590
20
17.3041094349
30
0.0000000000
10
7.2047916364
20
17.2003722624
30
0.0000000000
10
7.1345066348
20
17.0613393034
30
0.0000000000
10
7.0261241091
20
16.9535876715
30
0.0000000000
10
6.8935609364
20
16.8871268545
30
0.0000000000
10
6.7492523021
20
16.8656378396
30
0.0000000000
10
6.6053769883
20
16.8905239935
30
0.0000000000
10
6.4749731597
20
16.9598051574
30
0.0000000000
10
6.3709041941
20
17.0676533134
30
0.0000000000
10
6.3038691200
20
17.2039244231
30
0.0000000000
10
6.2885599458
20
17.3048056678
30
0.0000000000
10
6.2886047083
20
17.3550858136
30
0.0000000000
11
7.2207038766
21
17.3550858136
31
0.0000000000
11
7.1972932636
21
17.2039591038
31
0.0000000000
11
7.1266925280
21
17.0646917800
31
0.0000000000
11
7.0197328940
21
16.9587238008
31
0.0000000000
11
6.8909582032
21
16.8943546436
31
0.0000000000
11
6.7494108702
21
16.8733493901
31
0.0000000000
11
6.6081912391
21
16.8976937682
31
0.0000000000
11
6.4806864998
21
16.9652303526
31
0.0000000000
11
6.3776076330
21
17.0716772606
31
0.0000000000
11
6.3113772708
21
17.2059742247
31
0.0000000000
11
6.2886047083
21
17.3550858136
31
0.0000000000
0
SPLINE
5
4B7
100
AcDbEntity
8
0
100
AcDbSpline
62
7
6
CONTINUOUS
70
0
71
3
72
11
73
7
74
5
42
0.0000001000
43
0.0000001000
44
0.0000000001
12
-0.0707146523
22
0.0707146523
32
0.0000000000
13
0.0000000000
23
0.1000056203
33
0.0000000000
40
0.0000000000
40
0.0000000000
40
0.0000000000
40
0.0000000000
40
0.0773644923
40
0.2945361859
40
0.6206568475
40
1.0000000000
40
1.0000000000
40
1.0000000000
40
1.0000000000
10
7.2656326254
20
-11.8376593920
30
0.0000000000
10
7.2638090244
20
-11.8358357909
30
0.0000000000
10
7.2673429568
20
-11.8242640557
30
0.0000000000
10
7.2637399984
20
-11.8051544753
30
0.0000000000
10
7.2652849035
20
-11.7736013258
30
0.0000000000
10
7.2647675542
20
-11.7503086821
30
0.0000000000
10
7.2647675542
20
-11.7376631997
30
0.0000000000
11
7.2656326254
21
-11.8376593920
31
0.0000000000
11
7.2653037266
21
-11.8299295019
31
0.0000000000
11
7.2650217570
21
-11.8082129425
31
0.0000000000
11
7.2648327897
21
-11.7755995909
31
0.0000000000
11
7.2647675542
21
-11.7376631997
31
0.0000000000
0
SPLINE
5
4B8
100
AcDbEntity
8
0
100
AcDbSpline
62
9
6
CONTINUOUS
70
0
71
3
72
12
73
8
74
6
42
0.0000001000
43
0.0000001000
44
0.0000000001
12
-0.1871099930
22
-0.4636582305
32
0.0000000000
13
0.0000028711
23
-0.4999891041
33
0.0000000000
40
0.0000000000
40
0.0000000000
40
0.0000000000
40
0.0000000000
40
0.0510981554
40
0.1937119896
40
0.4147411886
40
0.6924492415
40
1.0000000000
40
1.0000000000
40
1.0000000000
40
1.0000000000
10
4.0589910718
20
-16.7223557027
30
0.0000000000
10
4.0558040799
20
-16.7302530629
30
0.0000000000
10
4.0620460905
20
-16.7639687694
30
0.0000000000
10
4.0556663244
20
-16.8317918512
30
0.0000000000
10
4.0584324720
20
-16.9393542120
30
0.0000000000
10
4.0569996802
20
-17.0734705465
30
0.0000000000
10
4.0572606349
20
-17.1710793215
30
0.0000000000
10
4.0572609293
20
-17.2223366643
30
0.0000000000
11
4.0589910718
21
-16.7223557027
31
0.0000000000
11
4.0584554957
21
-16.7478986094
31
0.0000000000
11
4.0579741294
21
-16.8192023478
31
0.0000000000
11
4.0575914667
21
-16.9297138765
31
0.0000000000
11
4.0573456315
21
-17.0685646594
31
0.0000000000
11
4.0572609293
21
-17.2223366643
31
0.0000000000
0
SPLINE
5
4B9
100
AcDbEntity
8
0
100
AcDbSpline
62
9
6
CONTINUOUS
70
0
71
3
72
12
73
8
74
6
42
0.0000001000
43
0.0000001000
44
0.0000000001
12
0.1880456957
22
-0.4632795303
32
0.0000000000
13
-0.0000000543
23
-0.4999891067
33
0.0000000000
40
0.0000000000
40
0.0000000000
40
0.0000000000
40
0.0000000000
40
0.0511022467
40
0.1939406739
40
0.4151834393
40
0.6925407724
40
1.0000000000
40
1.0000000000
40
1.0000000000
40
1.0000000000
10
-4.3496824869
20
-16.7223557027
30
0.0000000000
10
-4.3464793010
20
-16.7302472444
30
0.0000000000
10
-4.3527643491
20
-16.7640175175
30
0.0000000000
10
-4.3463415273
20
-16.8318986707
30
0.0000000000
10
-4.3491272995
20
-16.9394830654
30
0.0000000000
10
-4.3476894587
20
-17.0735588723
30
0.0000000000
10
-4.3479523388
20
-17.1710945761
30
0.0000000000
10
-4.3479523444
20
-17.2223366643
30
0.0000000000
11
-4.3496824869
21
-16.7223557027
31
0.0000000000
11
-4.3491467792
21
-16.7479006528
31
0.0000000000
11
-4.3486647260
21
-16.8193166836
31
0.0000000000
11
-4.3482821161
21
-16.9299349945
31
0.0000000000
11
-4.3480369236
21
-17.0686104230
31
0.0000000000
11
-4.3479523444
21
-17.2223366643
31
0.0000000000
0
SPLINE
5
4BA
100
AcDbEntity
8
0
100
AcDbSpline
62
7
6
CONTINUOUS
70
0
71
3
72
15
73
11
74
9
42
0.0000001000
43
0.0000001000
44
0.0000000001
12
0.0947032279
22
-0.2843407278
32
0.0000000000
13
0.0000000000
23
-0.2996970986
33
0.0000000000
40
0.0000000000
40
0.0000000000
40
0.0000000000
40
0.0000000000
40
0.0280251961
40
0.0908367813
40
0.1862634662
40
0.3108991957
40
0.4602784357
40
0.6290411010
40
0.8111283904
40
1.0000000000
40
1.0000000000
40
1.0000000000
40
1.0000000000
10
9.4630361949
20
-19.0157466884
30
0.0000000000
10
9.4639208871
20
-19.0184029233
30
0.0000000000
10
9.4639883648
20
-19.0276580242
30
0.0000000000
10
9.4653176701
20
-19.0460857250
30
0.0000000000
10
9.4658550344
20
-19.0744156767
30
0.0000000000
10
9.4666693384
20
-19.1112832230
30
0.0000000000
10
9.4672207019
20
-19.1555241335
30
0.0000000000
10
9.4676707400
20
-19.2054910189
30
0.0000000000
10
9.4679373183
20
-19.2594092617
30
0.0000000000
10
9.4679986561
20
-19.2964674577
30
0.0000000000
10
9.4679986561
20
-19.3153355488
30
0.0000000000
11
9.4630361949
21
-19.0157466884
31
0.0000000000
11
9.4640178077
21
-19.0240881998
31
0.0000000000
11
9.4649543331
21
-19.0428893389
31
0.0000000000
11
9.4658121470
21
-19.0714755718
31
0.0000000000
11
9.4665604389
21
-19.1088210423
31
0.0000000000
11
9.4671723267
21
-19.1535853853
31
0.0000000000
11
9.4676258152
21
-19.2041610334
31
0.0000000000
11
9.4679046003
21
-19.2587313536
31
0.0000000000
11
9.4679986561
21
-19.3153355488
31
0.0000000000
0
SPLINE
5
4BB
100
AcDbEntity
8
0
100
AcDbSpline
62
7
6
CONTINUOUS
70
0
71
3
72
16
73
12
74
10
42
0.0000001000
43
0.0000001000
44
0.0000000001
12
-0.0916203692
22
0.0458066958
32
0.0000000000
13
0.0000000000
23
0.1024331266
33
0.0000000000
40
0.0000000000
40
0.0000000000
40
0.0000000000
40
0.0000000000
40
0.0524249487
40
0.1049605300
40
0.1725833291
40
0.2551920971
40
0.3547603892
40
0.4753873884
40
0.6190590311
40
0.7938248049
40
1.0000000000
40
1.0000000000
40
1.0000000000
40
1.0000000000
10
-9.7904902742
20
8.5398336648
30
0.0000000000
10
-9.7920913385
20
8.5406341360
30
0.0000000000
10
-9.7916470518
20
8.5453896815
30
0.0000000000
10
-9.7927593525
20
8.5507259454
30
0.0000000000
10
-9.7931554669
20
8.5578132379
30
0.0000000000
10
-9.7937370025
20
8.5662593002
30
0.0000000000
10
-9.7941995400
20
8.5766112842
30
0.0000000000
10
-9.7946420643
20
8.5890194502
30
0.0000000000
10
-9.7950103201
20
8.6040096568
30
0.0000000000
10
-9.7952798450
20
8.6219194110
30
0.0000000000
10
-9.7953457076
20
8.6349268027
30
0.0000000000
10
-9.7953457076
20
8.6419665259
30
0.0000000000
11
-9.7904902742
21
8.5398336648
31
0.0000000000
11
-9.7919271193
21
8.5450079211
31
0.0000000000
11
-9.7925589483
21
8.5503520846
31
0.0000000000
11
-9.7931375893
21
8.5572546883
31
0.0000000000
11
-9.7936675348
21
8.5656999518
31
0.0000000000
11
-9.7941533549
21
8.5758874660
31
0.0000000000
11
-9.7945932581
21
8.5882358335
31
0.0000000000
11
-9.7949631757
21
8.6029479193
31
0.0000000000
11
-9.7952363782
21
8.6208476391
31
0.0000000000
11
-9.7953457076
21
8.6419665259
31
0.0000000000
0
SPLINE
5
4BC
100
AcDbEntity
8
0
100
AcDbSpline
62
7
6
CONTINUOUS
70
0
71
3
72
15
73
11
74
9
42
0.0000001000
43
0.0000001000
44
0.0000000001
12
0.0000000000
22
0.2996159562
32
0.0000000000
13
0.0492139691
23
0.2955464540
33
0.0000000000
40
0.0000000000
40
0.0000000000
40
0.0000000000
40
0.0000000000
40
0.1889123410
40
0.3710393138
40
0.5398392229
40
0.6892497862
40
0.8139058362
40
0.9093328462
40
0.9721087213
40
1.0000000000
40
1.0000000000
40
1.0000000000
40
1.0000000000
10
7.1729807148
20
-19.3153355488
30
0.0000000000
10
7.1729807148
20
-19.2964684983
30
0.0000000000
10
7.1730114202
20
-19.2594121308
30
0.0000000000
10
7.1731445057
20
-19.2054971464
30
0.0000000000
10
7.1733700731
20
-19.1555289130
30
0.0000000000
10
7.1736439078
20
-19.1112967469
30
0.0000000000
10
7.1740561151
20
-19.0744052039
30
0.0000000000
10
7.1743120175
20
-19.0461360275
30
0.0000000000
10
7.1750013979
20
-19.0275987657
30
0.0000000000
10
7.1750042096
20
-19.0184944112
30
0.0000000000
10
7.1754617565
20
-19.0157466884
30
0.0000000000
11
7.1729807148
21
-19.3153355488
31
0.0000000000
11
7.1730277340
21
-19.2587344167
31
0.0000000000
11
7.1731671022
21
-19.2041664475
31
0.0000000000
11
7.1733938121
21
-19.1535918095
31
0.0000000000
11
7.1736997188
21
-19.1088270659
31
0.0000000000
11
7.1740738322
21
-19.0714799980
31
0.0000000000
11
7.1745027145
21
-19.0428917601
31
0.0000000000
11
7.1749709614
21
-19.0240889357
31
0.0000000000
11
7.1754617565
21
-19.0157466884
31
0.0000000000
0
SPLINE
5
4BD
100
AcDbEntity
8
0
100
AcDbSpline
62
7
6
CONTINUOUS
70
0
71
3
72
15
73
11
74
9
42
0.0000001000
43
0.0000001000
44
0.0000000001
12
0.0492139691
22
-0.2955464540
32
0.0000000000
13
0.0000000000
23
-0.2996159562
33
0.0000000000
40
0.0000000000
40
0.0000000000
40
0.0000000000
40
0.0000000000
40
0.0278912920
40
0.0906672278
40
0.1860943391
40
0.3107504702
40
0.4601610306
40
0.6289608503
40
0.8110877138
40
1.0000000000
40
1.0000000000
40
1.0000000000
40
1.0000000000
10
6.3338468284
20
-19.0157466884
30
0.0000000000
10
6.3343043755
20
-19.0184944126
30
0.0000000000
10
6.3343071871
20
-19.0275987745
30
0.0000000000
10
6.3349965681
20
-19.0461360537
30
0.0000000000
10
6.3352524704
20
-19.0744052544
30
0.0000000000
10
6.3356646777
20
-19.1112968153
30
0.0000000000
10
6.3359385122
20
-19.1555289803
30
0.0000000000
10
6.3361640794
20
-19.2054971936
30
0.0000000000
10
6.3362971647
20
-19.2594121527
30
0.0000000000
10
6.3363278701
20
-19.2964685037
30
0.0000000000
10
6.3363278701
20
-19.3153355488
30
0.0000000000
11
6.3338468284
21
-19.0157466884
31
0.0000000000
11
6.3343376236
21
-19.0240889397
31
0.0000000000
11
6.3348058708
21
-19.0428917822
31
0.0000000000
11
6.3352347533
21
-19.0714800505
31
0.0000000000
11
6.3356088668
21
-19.1088271427
31
0.0000000000
11
6.3359147732
21
-19.1535918854
31
0.0000000000
11
6.3361414829
21
-19.2041664967
31
0.0000000000
11
6.3362808510
21
-19.2587344331
31
0.0000000000
11
6.3363278701
21
-19.3153355488
31
0.0000000000
0
SPLINE
5
4BE
100
AcDbEntity
8
0
100
AcDbSpline
62
7
6
CONTINUOUS
70
0
71
3
72
15
73
11
74
9
42
0.0000001000
43
0.0000001000
44
0.0000000001
12
0.0000000000
22
0.2996159562
32
0.0000000000
13
0.0492139691
23
0.2955464540
33
0.0000000000
40
0.0000000000
40
0.0000000000
40
0.0000000000
40
0.0000000000
40
0.1889123410
40
0.3710393138
40
0.5398392229
40
0.6892497862
40
0.8139058362
40
0.9093328462
40
0.9721087213
40
1.0000000000
40
1.0000000000
40
1.0000000000
40
1.0000000000
10
4.3860710165
20
-19.3153355488
30
0.0000000000
10
4.3860710165
20
-19.2964684983
30
0.0000000000
10
4.3861017219
20
-19.2594121308
30
0.0000000000
10
4.3862348074
20
-19.2054971464
30
0.0000000000
10
4.3864603748
20
-19.1555289130
30
0.0000000000
10
4.3867342095
20
-19.1112967469
30
0.0000000000
10
4.3871464168
20
-19.0744052039
30
0.0000000000
10
4.3874023192
20
-19.0461360275
30
0.0000000000
10
4.3880916995
20
-19.0275987657
30
0.0000000000
10
4.3880945113
20
-19.0184944112
30
0.0000000000
10
4.3885520581
20
-19.0157466884
30
0.0000000000
11
4.3860710165
21
-19.3153355488
31
0.0000000000
11
4.3861180357
21
-19.2587344167
31
0.0000000000
11
4.3862574039
21
-19.2041664475
31
0.0000000000
11
4.3864841138
21
-19.1535918095
31
0.0000000000
11
4.3867900204
21
-19.1088270659
31
0.0000000000
11
4.3871641339
21
-19.0714799980
31
0.0000000000
11
4.3875930162
21
-19.0428917601
31
0.0000000000
11
4.3880612631
21
-19.0240889357
31
0.0000000000
11
4.3885520581
21
-19.0157466884
31
0.0000000000
0
SPLINE
5
4BF
100
AcDbEntity
8
0
100
AcDbSpline
62
7
6
CONTINUOUS
70
0
71
3
72
16
73
12
74
10
42
0.0000001000
43
0.0000001000
44
0.0000000001
12
0.0000000000
22
-0.1024334791
32
0.0000000000
13
-0.0916206844
23
-0.0458068534
33
0.0000000000
40
0.0000000000
40
0.0000000000
40
0.0000000000
40
0.0000000000
40
0.2067895268
40
0.3827147585
40
0.5261390617
40
0.6465271368
40
0.7460298809
40
0.8284638105
40
0.8958047943
40
0.9480137827
40
1.0000000000
40
1.0000000000
40
1.0000000000
40
1.0000000000
10
9.5046542924
20
8.6419665259
30
0.0000000000
10
9.5046542924
20
8.6349058024
30
0.0000000000
10
9.5045879268
20
8.6218377977
30
0.0000000000
10
9.5043164771
20
8.6038758885
30
0.0000000000
10
9.5039459618
20
8.5888626867
30
0.0000000000
10
9.5035025397
20
8.5764733615
30
0.0000000000
10
9.5030390780
20
8.5661377491
30
0.0000000000
10
9.5024569223
20
8.5577095113
30
0.0000000000
10
9.5020597117
20
8.5506497072
30
0.0000000000
10
9.5009529308
20
8.5453457430
30
0.0000000000
10
9.5013865300
20
8.5406274398
30
0.0000000000
10
9.4997988591
20
8.5398336648
30
0.0000000000
11
9.5046542924
21
8.6419665259
31
0.0000000000
11
9.5045443038
21
8.6207846408
31
0.0000000000
11
9.5042680513
21
8.6027661249
31
0.0000000000
11
9.5038970850
21
8.5880793588
31
0.0000000000
11
9.5034564519
21
8.5757554642
31
0.0000000000
11
9.5029692471
21
8.5655747030
31
0.0000000000
11
9.5024384084
21
8.5571474111
31
0.0000000000
11
9.5018598038
21
8.5502737495
31
0.0000000000
11
9.5012291480
21
8.5449631163
31
0.0000000000
11
9.4997988591
21
8.5398336648
31
0.0000000000
0
SPLINE
5
4C0
100
AcDbEntity
8
0
100
AcDbSpline
62
7
6
CONTINUOUS
70
0
71
3
72
15
73
11
74
9
42
0.0000001000
43
0.0000001000
44
0.0000000001
12
0.0492139691
22
-0.2955464540
32
0.0000000000
13
0.0000000000
23
-0.2996159562
33
0.0000000000
40
0.0000000000
40
0.0000000000
40
0.0000000000
40
0.0000000000
40
0.0278912920
40
0.0906672278
40
0.1860943391
40
0.3107504702
40
0.4601610306
40
0.6289608503
40
0.8110877138
40
1.0000000000
40
1.0000000000
40
1.0000000000
40
1.0000000000
10
-4.6792434732
20
-19.0157466884
30
0.0000000000
10
-4.6787859262
20
-19.0184944126
30
0.0000000000
10
-4.6787831146
20
-19.0275987745
30
0.0000000000
10
-4.6780937336
20
-19.0461360537
30
0.0000000000
10
-4.6778378313
20
-19.0744052544
30
0.0000000000
10
-4.6774256240
20
-19.1112968153
30
0.0000000000
10
-4.6771517895
20
-19.1555289803
30
0.0000000000
10
-4.6769262223
20
-19.2054971936
30
0.0000000000
10
-4.6767931370
20
-19.2594121527
30
0.0000000000
10
-4.6767624316
20
-19.2964685037
30
0.0000000000
10
-4.6767624316
20
-19.3153355488
30
0.0000000000
11
-4.6792434732
21
-19.0157466884
31
0.0000000000
11
-4.6787526781
21
-19.0240889397
31
0.0000000000
11
-4.6782844309
21
-19.0428917822
31
0.0000000000
11
-4.6778555484
21
-19.0714800505
31
0.0000000000
11
-4.6774814349
21
-19.1088271427
31
0.0000000000
11
-4.6771755285
21
-19.1535918854
31
0.0000000000
11
-4.6769488188
21
-19.2041664967
31
0.0000000000
11
-4.6768094507
21
-19.2587344331
31
0.0000000000
11
-4.6767624316
21
-19.3153355488
31
0.0000000000
0
SPLINE
5
4C1
100
AcDbEntity
8
0
100
AcDbSpline
62
7
6
CONTINUOUS
70
0
71
3
72
15
73
11
74
9
42
0.0000001000
43
0.0000001000
44
0.0000000001
12
0.0000000000
22
0.2996159562
32
0.0000000000
13
0.0492139691
23
0.2955464540
33
0.0000000000
40
0.0000000000
40
0.0000000000
40
0.0000000000
40
0.0000000000
40
0.1889123410
40
0.3710393138
40
0.5398392229
40
0.6892497862
40
0.8139058362
40
0.9093328462
40
0.9721087213
40
1.0000000000
40
1.0000000000
40
1.0000000000
40
1.0000000000
10
-6.6270192852
20
-19.3153355488
30
0.0000000000
10
-6.6270192852
20
-19.2964684983
30
0.0000000000
10
-6.6269885798
20
-19.2594121308
30
0.0000000000
10
-6.6268554943
20
-19.2054971464
30
0.0000000000
10
-6.6266299269
20
-19.1555289130
30
0.0000000000
10
-6.6263560922
20
-19.1112967469
30
0.0000000000
10
-6.6259438849
20
-19.0744052039
30
0.0000000000
10
-6.6256879825
20
-19.0461360275
30
0.0000000000
10
-6.6249986021
20
-19.0275987657
30
0.0000000000
10
-6.6249957904
20
-19.0184944112
30
0.0000000000
10
-6.6245382435
20
-19.0157466884
30
0.0000000000
11
-6.6270192852
21
-19.3153355488
31
0.0000000000
11
-6.6269722660
21
-19.2587344167
31
0.0000000000
11
-6.6268328978
21
-19.2041664475
31
0.0000000000
11
-6.6266061879
21
-19.1535918095
31
0.0000000000
11
-6.6263002812
21
-19.1088270659
31
0.0000000000
11
-6.6259261678
21
-19.0714799980
31
0.0000000000
11
-6.6254972855
21
-19.0428917601
31
0.0000000000
11
-6.6250290386
21
-19.0240889357
31
0.0000000000
11
-6.6245382435
21
-19.0157466884
31
0.0000000000
0
SPLINE
5
4C2
100
AcDbEntity
8
0
100
AcDbSpline
62
7
6
CONTINUOUS
70
0
71
3
72
15
73
11
74
9
42
0.0000001000
43
0.0000001000
44
0.0000000001
12
0.0492139691
22
-0.2955464540
32
0.0000000000
13
0.0000000000
23
-0.2996159562
33
0.0000000000
40
0.0000000000
40
0.0000000000
40
0.0000000000
40
0.0000000000
40
0.0278912920
40
0.0906672278
40
0.1860943391
40
0.3107504702
40
0.4601610306
40
0.6289608503
40
0.8110877138
40
1.0000000000
40
1.0000000000
40
1.0000000000
40
1.0000000000
10
-7.4661531716
20
-19.0157466884
30
0.0000000000
10
-7.4656956245
20
-19.0184944126
30
0.0000000000
10
-7.4656928129
20
-19.0275987745
30
0.0000000000
10
-7.4650034319
20
-19.0461360537
30
0.0000000000
10
-7.4647475296
20
-19.0744052544
30
0.0000000000
10
-7.4643353223
20
-19.1112968153
30
0.0000000000
10
-7.4640614878
20
-19.1555289803
30
0.0000000000
10
-7.4638359206
20
-19.2054971936
30
0.0000000000
10
-7.4637028353
20
-19.2594121527
30
0.0000000000
10
-7.4636721299
20
-19.2964685037
30
0.0000000000
10
-7.4636721299
20
-19.3153355488
30
0.0000000000
11
-7.4661531716
21
-19.0157466884
31
0.0000000000
11
-7.4656623764
21
-19.0240889397
31
0.0000000000
11
-7.4651941292
21
-19.0428917822
31
0.0000000000
11
-7.4647652467
21
-19.0714800505
31
0.0000000000
11
-7.4643911332
21
-19.1088271427
31
0.0000000000
11
-7.4640852268
21
-19.1535918854
31
0.0000000000
11
-7.4638585171
21
-19.2041664967
31
0.0000000000
11
-7.4637191490
21
-19.2587344331
31
0.0000000000
11
-7.4636721299
21
-19.3153355488
31
0.0000000000
0
SPLINE
5
4C3
100
AcDbEntity
8
0
100
AcDbSpline
62
7
6
CONTINUOUS
70
0
71
3
72
15
73
11
74
9
42
0.0000001000
43
0.0000001000
44
0.0000000001
12
0.0000000000
22
0.2996970986
32
0.0000000000
13
0.0947032279
23
0.2843407278
33
0.0000000000
40
0.0000000000
40
0.0000000000
40
0.0000000000
40
0.0000000000
40
0.1888718284
40
0.3709595554
40
0.5397225779
40
0.6891018295
40
0.8137372349
40
0.9091635147
40
0.9719748574
40
1.0000000000
40
1.0000000000
40
1.0000000000
40
1.0000000000
10
-9.7586900712
20
-19.3153355488
30
0.0000000000
10
-9.7586900712
20
-19.2964674358
30
0.0000000000
10
-9.7586287332
20
-19.2594091742
30
0.0000000000
10
-9.7583621540
20
-19.2054908302
30
0.0000000000
10
-9.7579121142
20
-19.1555238643
30
0.0000000000
10
-9.7573607491
20
-19.1112829493
30
0.0000000000
10
-9.7565464449
20
-19.0744154746
30
0.0000000000
10
-9.7560090803
20
-19.0460856204
30
0.0000000000
10
-9.7546797792
20
-19.0276579888
30
0.0000000000
10
-9.7546123005
20
-19.0184029182
30
0.0000000000
10
-9.7537276100
20
-19.0157466884
30
0.0000000000
11
-9.7586900712
21
-19.3153355488
31
0.0000000000
11
-9.7585960152
21
-19.2587312880
31
0.0000000000
11
-9.7583172289
21
-19.2041608367
31
0.0000000000
11
-9.7578637384
21
-19.1535850816
31
0.0000000000
11
-9.7572518489
21
-19.1088207351
31
0.0000000000
11
-9.7565035569
21
-19.0714753617
31
0.0000000000
11
-9.7556457449
21
-19.0428892503
31
0.0000000000
11
-9.7547092216
21
-19.0240881838
31
0.0000000000
11
-9.7537276100
21
-19.0157466884
31
0.0000000000
0
SPLINE
5
4C4
100
AcDbEntity
8
0
100
AcDbSpline
62
7
6
CONTINUOUS
70
0
71
3
72
18
73
14
74
12
42
0.0000001000
43
0.0000001000
44
0.0000000001
12
0.0000000000
22
-0.4220894472
32
0.0000000000
13
-0.4220894472
23
-0.0000000000
33
0.0000000000
40
0.0000000000
40
0.0000000000
40
0.0000000000
40
0.0000000000
40
0.1059090351
40
0.2101669191
40
0.3119275375
40
0.4100581264
40
0.5041875836
40
0.5942815516
40
0.6804273975
40
0.7634029300
40
0.8436506062
40
0.9223347281
40
1.0000000000
40
1.0000000000
40
1.0000000000
40
1.0000000000
10
10.0046542924
20
23.9838040892
30
0.0000000000
10
10.0046542924
20
23.9689030605
30
0.0000000000
10
10.0026684625
20
23.9392941875
30
0.0000000000
10
9.9938645500
20
23.8961698573
30
0.0000000000
10
9.9796825745
20
23.8556530632
30
0.0000000000
10
9.9607514378
20
23.8187239944
30
0.0000000000
10
9.9378321066
20
23.7861165114
30
0.0000000000
10
9.9117020421
20
23.7582936810
30
0.0000000000
10
9.8830815038
20
23.7354831068
30
0.0000000000
10
9.8526389673
20
23.7177864361
30
0.0000000000
10
9.8208863848
20
23.7051798563
30
0.0000000000
10
9.7883382612
20
23.6976427778
30
0.0000000000
10
9.7663045209
20
23.6959686718
30
0.0000000000
10
9.7553772903
20
23.6959686718
30
0.0000000000
11
10.0046542924
21
23.9838040892
31
0.0000000000
11
10.0016508076
21
23.9392020155
31
0.0000000000
11
9.9928230488
21
23.8960903913
31
0.0000000000
11
9.9785933337
21
23.8555638980
31
0.0000000000
11
9.9596531050
21
23.8187281179
31
0.0000000000
11
9.9367603270
21
23.7862554048
31
0.0000000000
11
9.9106864469
21
23.7585740078
31
0.0000000000
11
9.8822195526
21
23.7359515276
31
0.0000000000
11
9.8519186889
21
23.7183880723
31
0.0000000000
11
9.8204255442
21
23.7059191624
31
0.0000000000
11
9.7880651068
21
23.6984477770
31
0.0000000000
11
9.7553772903
21
23.6959686718
31
0.0000000000
0
SPLINE
5
4C5
100
AcDbEntity
8
0
100
AcDbSpline
62
9
6
CONTINUOUS
70
0
71
3
72
18
73
14
74
12
42
0.0000001000
43
0.0000001000
44
0.0000000001
12
-0.0012300469
22
-0.3662148900
32
0.0000000000
13
-0.3662157937
23
-0.0009225687
33
0.0000000000
40
0.0000000000
40
0.0000000000
40
0.0000000000
40
0.0000000000
40
0.0842901845
40
0.1691825236
40
0.2551733573
40
0.3426537911
40
0.4318785657
40
0.5229513183
40
0.6158248362
40
0.7103132260
40
0.8061126036
40
0.9028273866
40
1.0000000000
40
1.0000000000
40
1.0000000000
40
1.0000000000
10
10.0002824584
20
24.4176565083
30
0.0000000000
10
10.0002478982
20
24.4073670681
30
0.0000000000
10
9.9984678281
20
24.3866807755
30
0.0000000000
10
9.9907384562
20
24.3563708765
30
0.0000000000
10
9.9781146943
20
24.3273231469
30
0.0000000000
10
9.9608673864
20
24.3001411803
30
0.0000000000
10
9.9393598216
20
24.2753696691
30
0.0000000000
10
9.9140377439
20
24.2535034493
30
0.0000000000
10
9.8854191701
20
24.2349752768
30
0.0000000000
10
9.8540850457
20
24.2201506214
30
0.0000000000
10
9.8206654967
20
24.2093213009
30
0.0000000000
10
9.7858394113
20
24.2027004334
30
0.0000000000
10
9.7621487378
20
24.2011800402
30
0.0000000000
10
9.7502866892
20
24.2011501574
30
0.0000000000
11
10.0002824584
21
24.4176565083
31
0.0000000000
11
9.9976439597
21
24.3869009837
31
0.0000000000
11
9.9899885812
21
24.3567692401
31
0.0000000000
11
9.9774715888
21
24.3278724071
31
0.0000000000
11
9.9603468511
21
24.3007965677
31
0.0000000000
11
9.9389616906
21
24.2760908720
31
0.0000000000
11
9.9137498393
21
24.2542563988
31
0.0000000000
11
9.8852226420
21
24.2357359931
31
0.0000000000
11
9.8539586848
21
24.2209052843
31
0.0000000000
11
9.8205920608
21
24.2100650674
31
0.0000000000
11
9.7857995090
21
24.2034352030
31
0.0000000000
11
9.7502866892
21
24.2011501574
31
0.0000000000
0
SPLINE
5
4C6
100
AcDbEntity
8
0
100
AcDbSpline
62
9
6
CONTINUOUS
70
0
71
3
72
18
73
14
74
12
42
0.0000001000
43
0.0000001000
44
0.0000000001
12
0.0012300469
22
-0.3662148900
32
0.0000000000
13
0.3662157937
23
-0.0009225687
33
0.0000000000
40
0.0000000000
40
0.0000000000
40
0.0000000000
40
0.0000000000
40
0.0842901845
40
0.1691825236
40
0.2551733573
40
0.3426537911
40
0.4318785657
40
0.5229513183
40
0.6158248362
40
0.7103132260
40
0.8061126036
40
0.9028273866
40
1.0000000000
40
1.0000000000
40
1.0000000000
40
1.0000000000
10
7.1090261264
20
24.4176565083
30
0.0000000000
10
7.1090606867
20
24.4073670681
30
0.0000000000
10
7.1108407568
20
24.3866807755
30
0.0000000000
10
7.1185701287
20
24.3563708765
30
0.0000000000
10
7.1311938906
20
24.3273231469
30
0.0000000000
10
7.1484411985
20
24.3001411803
30
0.0000000000
10
7.1699487633
20
24.2753696691
30
0.0000000000
10
7.1952708410
20
24.2535034493
30
0.0000000000
10
7.2238894148
20
24.2349752768
30
0.0000000000
10
7.2552235392
20
24.2201506214
30
0.0000000000
10
7.2886430882
20
24.2093213009
30
0.0000000000
10
7.3234691736
20
24.2027004334
30
0.0000000000
10
7.3471598471
20
24.2011800402
30
0.0000000000
10
7.3590218957
20
24.2011501574
30
0.0000000000
11
7.1090261264
21
24.4176565083
31
0.0000000000
11
7.1116646252
21
24.3869009837
31
0.0000000000
11
7.1193200037
21
24.3567692401
31
0.0000000000
11
7.1318369961
21
24.3278724071
31
0.0000000000
11
7.1489617338
21
24.3007965677
31
0.0000000000
11
7.1703468943
21
24.2760908720
31
0.0000000000
11
7.1955587456
21
24.2542563988
31
0.0000000000
11
7.2240859429
21
24.2357359931
31
0.0000000000
11
7.2553499001
21
24.2209052843
31
0.0000000000
11
7.2887165241
21
24.2100650674
31
0.0000000000
11
7.3235090759
21
24.2034352030
31
0.0000000000
11
7.3590218957
21
24.2011501574
31
0.0000000000
0
SPLINE
5
4C7
100
AcDbEntity
8
0
100
AcDbSpline
62
7
6
CONTINUOUS
70
0
71
3
72
18
73
14
74
12
42
0.0000001000
43
0.0000001000
44
0.0000000001
12
-0.4220894472
22
0.0000000000
32
0.0000000000
13
0.0000000000
23
0.4220894472
33
0.0000000000
40
0.0000000000
40
0.0000000000
40
0.0000000000
40
0.0000000000
40
0.0776652719
40
0.1563493938
40
0.2365970700
40
0.3195726025
40
0.4057184484
40
0.4958124164
40
0.5899418736
40
0.6880724625
40
0.7898330809
40
0.8940909649
40
1.0000000000
40
1.0000000000
40
1.0000000000
40
1.0000000000
10
7.3539312946
20
23.6959686718
30
0.0000000000
10
7.3430040640
20
23.6959686718
30
0.0000000000
10
7.3209703237
20
23.6976427778
30
0.0000000000
10
7.2884222000
20
23.7051798563
30
0.0000000000
10
7.2566696176
20
23.7177864361
30
0.0000000000
10
7.2262270811
20
23.7354831068
30
0.0000000000
10
7.1976065428
20
23.7582936810
30
0.0000000000
10
7.1714764783
20
23.7861165114
30
0.0000000000
10
7.1485571471
20
23.8187239944
30
0.0000000000
10
7.1296260104
20
23.8556530632
30
0.0000000000
10
7.1154440349
20
23.8961698573
30
0.0000000000
10
7.1066401224
20
23.9392941875
30
0.0000000000
10
7.1046542924
20
23.9689030605
30
0.0000000000
10
7.1046542924
20
23.9838040892
30
0.0000000000
11
7.3539312946
21
23.6959686718
31
0.0000000000
11
7.3212434781
21
23.6984477770
31
0.0000000000
11
7.2888830407
21
23.7059191624
31
0.0000000000
11
7.2573898960
21
23.7183880723
31
0.0000000000
11
7.2270890323
21
23.7359515276
31
0.0000000000
11
7.1986221380
21
23.7585740078
31
0.0000000000
11
7.1725482579
21
23.7862554048
31
0.0000000000
11
7.1496554799
21
23.8187281179
31
0.0000000000
11
7.1307152512
21
23.8555638980
31
0.0000000000
11
7.1164855361
21
23.8960903913
31
0.0000000000
11
7.1076577773
21
23.9392020155
31
0.0000000000
11
7.1046542924
21
23.9838040892
31
0.0000000000
0
SPLINE
5
4C8
100
AcDbEntity
8
0
100
AcDbSpline
62
7
6
CONTINUOUS
70
0
71
3
72
18
73
14
74
12
42
0.0000001000
43
0.0000001000
44
0.0000000001
12
0.0000000000
22
-0.4220894472
32
0.0000000000
13
-0.4220894472
23
-0.0000000000
33
0.0000000000
40
0.0000000000
40
0.0000000000
40
0.0000000000
40
0.0000000000
40
0.1059090351
40
0.2101669191
40
0.3119275375
40
0.4100581264
40
0.5041875836
40
0.5942815516
40
0.6804273975
40
0.7634029300
40
0.8436506062
40
0.9223347281
40
1.0000000000
40
1.0000000000
40
1.0000000000
40
1.0000000000
10
-7.3953457076
20
23.9838040892
30
0.0000000000
10
-7.3953457076
20
23.9689030605
30
0.0000000000
10
-7.3973315375
20
23.9392941875
30
0.0000000000
10
-7.4061354500
20
23.8961698573
30
0.0000000000
10
-7.4203174255
20
23.8556530632
30
0.0000000000
10
-7.4392485622
20
23.8187239944
30
0.0000000000
10
-7.4621678934
20
23.7861165114
30
0.0000000000
10
-7.4882979579
20
23.7582936810
30
0.0000000000
10
-7.5169184962
20
23.7354831068
30
0.0000000000
10
-7.5473610327
20
23.7177864361
30
0.0000000000
10
-7.5791136152
20
23.7051798563
30
0.0000000000
10
-7.6116617388
20
23.6976427778
30
0.0000000000
10
-7.6336954791
20
23.6959686718
30
0.0000000000
10
-7.6446227097
20
23.6959686718
30
0.0000000000
11
-7.3953457076
21
23.9838040892
31
0.0000000000
11
-7.3983491924
21
23.9392020155
31
0.0000000000
11
-7.4071769512
21
23.8960903913
31
0.0000000000
11
-7.4214066663
21
23.8555638980
31
0.0000000000
11
-7.4403468950
21
23.8187281179
31
0.0000000000
11
-7.4632396730
21
23.7862554048
31
0.0000000000
11
-7.4893135531
21
23.7585740078
31
0.0000000000
11
-7.5177804474
21
23.7359515276
31
0.0000000000
11
-7.5480813111
21
23.7183880723
31
0.0000000000
11
-7.5795744558
21
23.7059191624
31
0.0000000000
11
-7.6119348932
21
23.6984477770
31
0.0000000000
11
-7.6446227097
21
23.6959686718
31
0.0000000000
0
SPLINE
5
4C9
100
AcDbEntity
8
0
100
AcDbSpline
62
9
6
CONTINUOUS
70
0
71
3
72
18
73
14
74
12
42
0.0000001000
43
0.0000001000
44
0.0000000001
12
-0.0012300469
22
-0.3662148900
32
0.0000000000
13
-0.3662157937
23
-0.0009225687
33
0.0000000000
40
0.0000000000
40
0.0000000000
40
0.0000000000
40
0.0000000000
40
0.0842901845
40
0.1691825236
40
0.2551733573
40
0.3426537911
40
0.4318785657
40
0.5229513183
40
0.6158248362
40
0.7103132260
40
0.8061126036
40
0.9028273866
40
1.0000000000
40
1.0000000000
40
1.0000000000
40
1.0000000000
10
-7.3997175416
20
24.4176565083
30
0.0000000000
10
-7.3997521018
20
24.4073670681
30
0.0000000000
10
-7.4015321719
20
24.3866807755
30
0.0000000000
10
-7.4092615438
20
24.3563708765
30
0.0000000000
10
-7.4218853057
20
24.3273231469
30
0.0000000000
10
-7.4391326136
20
24.3001411803
30
0.0000000000
10
-7.4606401784
20
24.2753696691
30
0.0000000000
10
-7.4859622561
20
24.2535034493
30
0.0000000000
10
-7.5145808299
20
24.2349752768
30
0.0000000000
10
-7.5459149543
20
24.2201506214
30
0.0000000000
10
-7.5793345033
20
24.2093213009
30
0.0000000000
10
-7.6141605887
20
24.2027004334
30
0.0000000000
10
-7.6378512622
20
24.2011800402
30
0.0000000000
10
-7.6497133108
20
24.2011501574
30
0.0000000000
11
-7.3997175416
21
24.4176565083
31
0.0000000000
11
-7.4023560403
21
24.3869009837
31
0.0000000000
11
-7.4100114188
21
24.3567692401
31
0.0000000000
11
-7.4225284112
21
24.3278724071
31
0.0000000000
11
-7.4396531489
21
24.3007965677
31
0.0000000000
11
-7.4610383094
21
24.2760908720
31
0.0000000000
11
-7.4862501607
21
24.2542563988
31
0.0000000000
11
-7.5147773580
21
24.2357359931
31
0.0000000000
11
-7.5460413152
21
24.2209052843
31
0.0000000000
11
-7.5794079392
21
24.2100650674
31
0.0000000000
11
-7.6142004910
21
24.2034352030
31
0.0000000000
11
-7.6497133108
21
24.2011501574
31
0.0000000000
0
SPLINE
5
4CA
100
AcDbEntity
8
0
100
AcDbSpline
62
9
6
CONTINUOUS
70
0
71
3
72
18
73
14
74
12
42
0.0000001000
43
0.0000001000
44
0.0000000001
12
0.0012300469
22
-0.3662148900
32
0.0000000000
13
0.3662157937
23
-0.0009225687
33
0.0000000000
40
0.0000000000
40
0.0000000000
40
0.0000000000
40
0.0000000000
40
0.0842901845
40
0.1691825236
40
0.2551733573
40
0.3426537911
40
0.4318785657
40
0.5229513183
40
0.6158248362
40
0.7103132260
40
0.8061126036
40
0.9028273866
40
1.0000000000
40
1.0000000000
40
1.0000000000
40
1.0000000000
10
-10.2909738736
20
24.4176565083
30
0.0000000000
10
-10.2909393133
20
24.4073670681
30
0.0000000000
10
-10.2891592432
20
24.3866807755
30
0.0000000000
10
-10.2814298713
20
24.3563708765
30
0.0000000000
10
-10.2688061094
20
24.3273231469
30
0.0000000000
10
-10.2515588015
20
24.3001411803
30
0.0000000000
10
-10.2300512367
20
24.2753696691
30
0.0000000000
10
-10.2047291590
20
24.2535034493
30
0.0000000000
10
-10.1761105852
20
24.2349752768
30
0.0000000000
10
-10.1447764608
20
24.2201506214
30
0.0000000000
10
-10.1113569118
20
24.2093213009
30
0.0000000000
10
-10.0765308264
20
24.2027004334
30
0.0000000000
10
-10.0528401529
20
24.2011800402
30
0.0000000000
10
-10.0409781043
20
24.2011501574
30
0.0000000000
11
-10.2909738736
21
24.4176565083
31
0.0000000000
11
-10.2883353748
21
24.3869009837
31
0.0000000000
11
-10.2806799963
21
24.3567692401
31
0.0000000000
11
-10.2681630039
21
24.3278724071
31
0.0000000000
11
-10.2510382662
21
24.3007965677
31
0.0000000000
11
-10.2296531057
21
24.2760908720
31
0.0000000000
11
-10.2044412544
21
24.2542563988
31
0.0000000000
11
-10.1759140571
21
24.2357359931
31
0.0000000000
11
-10.1446500999
21
24.2209052843
31
0.0000000000
11
-10.1112834759
21
24.2100650674
31
0.0000000000
11
-10.0764909241
21
24.2034352030
31
0.0000000000
11
-10.0409781043
21
24.2011501574
31
0.0000000000
0
SPLINE
5
4CB
100
AcDbEntity
8
0
100
AcDbSpline
62
7
6
CONTINUOUS
70
0
71
3
72
18
73
14
74
12
42
0.0000001000
43
0.0000001000
44
0.0000000001
12
-0.4220894472
22
0.0000000000
32
0.0000000000
13
-0.0000000000
23
0.4220894472
33
0.0000000000
40
0.0000000000
40
0.0000000000
40
0.0000000000
40
0.0000000000
40
0.0776652719
40
0.1563493938
40
0.2365970700
40
0.3195726025
40
0.4057184484
40
0.4958124164
40
0.5899418736
40
0.6880724625
40
0.7898330809
40
0.8940909649
40
1.0000000000
40
1.0000000000
40
1.0000000000
40
1.0000000000
10
-10.0460687054
20
23.6959686718
30
0.0000000000
10
-10.0569959360
20
23.6959686718
30
0.0000000000
10
-10.0790296763
20
23.6976427778
30
0.0000000000
10
-10.1115778000
20
23.7051798563
30
0.0000000000
10
-10.1433303824
20
23.7177864361
30
0.0000000000
10
-10.1737729189
20
23.7354831068
30
0.0000000000
10
-10.2023934572
20
23.7582936810
30
0.0000000000
10
-10.2285235217
20
23.7861165114
30
0.0000000000
10
-10.2514428529
20
23.8187239944
30
0.0000000000
10
-10.2703739896
20
23.8556530632
30
0.0000000000
10
-10.2845559651
20
23.8961698573
30
0.0000000000
10
-10.2933598776
20
23.9392941875
30
0.0000000000
10
-10.2953457076
20
23.9689030605
30
0.0000000000
10
-10.2953457076
20
23.9838040892
30
0.0000000000
11
-10.0460687054
21
23.6959686718
31
0.0000000000
11
-10.0787565219
21
23.6984477770
31
0.0000000000
11
-10.1111169593
21
23.7059191624
31
0.0000000000
11
-10.1426101040
21
23.7183880723
31
0.0000000000
11
-10.1729109677
21
23.7359515276
31
0.0000000000
11
-10.2013778620
21
23.7585740078
31
0.0000000000
11
-10.2274517421
21
23.7862554048
31
0.0000000000
11
-10.2503445201
21
23.8187281179
31
0.0000000000
11
-10.2692847488
21
23.8555638980
31
0.0000000000
11
-10.2835144639
21
23.8960903913
31
0.0000000000
11
-10.2923422227
21
23.9392020155
31
0.0000000000
11
-10.2953457076
21
23.9838040892
31
0.0000000000
0
SPLINE
5
4CC
100
AcDbEntity
8
0
100
AcDbSpline
62
9
6
CONTINUOUS
70
0
71
3
72
18
73
14
74
12
42
0.0000001000
43
0.0000001000
44
0.0000000001
12
-0.0012300469
22
0.3662148875
32
0.0000000000
13
-0.3662157912
23
0.0009225687
33
0.0000000000
40
0.0000000000
40
0.0000000000
40
0.0000000000
40
0.0000000000
40
0.0842917733
40
0.1691857338
40
0.2551786798
40
0.3426611748
40
0.4318880673
40
0.5229629903
40
0.6158387450
40
0.7103295894
40
0.8061307215
40
0.9028472123
40
1.0000000000
40
1.0000000000
40
1.0000000000
40
1.0000000000
10
10.0002824584
20
-23.2710186263
30
0.0000000000
10
10.0002478975
20
-23.2607289922
30
0.0000000000
10
9.9984677610
20
-23.2400423059
30
0.0000000000
10
9.9907380867
20
-23.2097318060
30
0.0000000000
10
9.9781138100
20
-23.1806835192
30
0.0000000000
10
9.9608657835
20
-23.1535010901
30
0.0000000000
10
9.9393573608
20
-23.1287292883
30
0.0000000000
10
9.9140343167
20
-23.1068629595
30
0.0000000000
10
9.8854146892
20
-23.0883348630
30
0.0000000000
10
9.8540795372
20
-23.0735105255
30
0.0000000000
10
9.8206590510
20
-23.0626817461
30
0.0000000000
10
9.7858347635
20
-23.0560621037
30
0.0000000000
10
9.7621463176
20
-23.0545421520
30
0.0000000000
10
9.7502866892
20
-23.0545122753
30
0.0000000000
11
10.0002824584
21
-23.2710186263
31
0.0000000000
11
9.9976438624
21
-23.2402625263
31
0.0000000000
11
9.9899881999
21
-23.2101302424
31
0.0000000000
11
9.9774706740
21
-23.1812327976
31
0.0000000000
11
9.9603452332
21
-23.1541565102
31
0.0000000000
11
9.9389592224
21
-23.1294505248
31
0.0000000000
11
9.9137464132
21
-23.1076159440
31
0.0000000000
11
9.8852181837
21
-23.0890956243
31
0.0000000000
11
9.8539531037
21
-23.0742651855
31
0.0000000000
11
9.8205856205
21
-23.0634255347
31
0.0000000000
11
9.7857922922
21
-23.0567964059
31
0.0000000000
11
9.7502866892
21
-23.0545122753
31
0.0000000000
0
SPLINE
5
4CD
100
AcDbEntity
8
0
100
AcDbSpline
62
7
6
CONTINUOUS
70
0
71
3
72
18
73
14
74
12
42
0.0000001000
43
0.0000001000
44
0.0000000001
12
0.4220894472
22
0.0000000000
32
0.0000000000
13
0.0000000000
23
-0.4220894472
33
0.0000000000
40
0.0000000000
40
0.0000000000
40
0.0000000000
40
0.0000000000
40
0.0776652719
40
0.1563493938
40
0.2365970700
40
0.3195726025
40
0.4057184484
40
0.4958124164
40
0.5899418736
40
0.6880724625
40
0.7898330809
40
0.8940909649
40
1.0000000000
40
1.0000000000
40
1.0000000000
40
1.0000000000
10
9.7553772903
20
-22.5493307898
30
0.0000000000
10
9.7663045209
20
-22.5493307898
30
0.0000000000
10
9.7883382612
20
-22.5510048958
30
0.0000000000
10
9.8208863848
20
-22.5585419743
30
0.0000000000
10
9.8526389673
20
-22.5711485540
30
0.0000000000
10
9.8830815038
20
-22.5888452248
30
0.0000000000
10
9.9117020421
20
-22.6116557990
30
0.0000000000
10
9.9378321066
20
-22.6394786294
30
0.0000000000
10
9.9607514378
20
-22.6720861124
30
0.0000000000
10
9.9796825745
20
-22.7090151812
30
0.0000000000
10
9.9938645500
20
-22.7495319752
30
0.0000000000
10
10.0026684625
20
-22.7926563054
30
0.0000000000
10
10.0046542924
20
-22.8222651785
30
0.0000000000
10
10.0046542924
20
-22.8371662072
30
0.0000000000
11
9.7553772903
21
-22.5493307898
31
0.0000000000
11
9.7880651068
21
-22.5518098949
31
0.0000000000
11
9.8204255442
21
-22.5592812804
31
0.0000000000
11
9.8519186889
21
-22.5717501903
31
0.0000000000
11
9.8822195526
21
-22.5893136456
31
0.0000000000
11
9.9106864469
21
-22.6119361257
31
0.0000000000
11
9.9367603270
21
-22.6396175227
31
0.0000000000
11
9.9596531050
21
-22.6720902358
31
0.0000000000
11
9.9785933337
21
-22.7089260160
31
0.0000000000
11
9.9928230488
21
-22.7494525092
31
0.0000000000
11
10.0016508076
21
-22.7925641334
31
0.0000000000
11
10.0046542924
21
-22.8371662072
31
0.0000000000
0
SPLINE
5
4CE
100
AcDbEntity
8
0
100
AcDbSpline
62
7
6
CONTINUOUS
70
0
71
3
72
18
73
14
74
12
42
0.0000001000
43
0.0000001000
44
0.0000000001
12
0.0000000000
22
0.4220894472
32
0.0000000000
13
0.4220894472
23
0.0000000000
33
0.0000000000
40
0.0000000000
40
0.0000000000
40
0.0000000000
40
0.0000000000
40
0.1059090351
40
0.2101669191
40
0.3119275375
40
0.4100581264
40
0.5041875836
40
0.5942815516
40
0.6804273975
40
0.7634029300
40
0.8436506062
40
0.9223347281
40
1.0000000000
40
1.0000000000
40
1.0000000000
40
1.0000000000
10
7.1046542924
20
-22.8371662072
30
0.0000000000
10
7.1046542924
20
-22.8222651785
30
0.0000000000
10
7.1066401224
20
-22.7926563054
30
0.0000000000
10
7.1154440349
20
-22.7495319752
30
0.0000000000
10
7.1296260104
20
-22.7090151812
30
0.0000000000
10
7.1485571471
20
-22.6720861124
30
0.0000000000
10
7.1714764783
20
-22.6394786294
30
0.0000000000
10
7.1976065428
20
-22.6116557990
30
0.0000000000
10
7.2262270811
20
-22.5888452248
30
0.0000000000
10
7.2566696176
20
-22.5711485540
30
0.0000000000
10
7.2884222000
20
-22.5585419743
30
0.0000000000
10
7.3209703237
20
-22.5510048958
30
0.0000000000
10
7.3430040640
20
-22.5493307898
30
0.0000000000
10
7.3539312946
20
-22.5493307898
30
0.0000000000
11
7.1046542924
21
-22.8371662072
31
0.0000000000
11
7.1076577773
21
-22.7925641334
31
0.0000000000
11
7.1164855361
21
-22.7494525092
31
0.0000000000
11
7.1307152512
21
-22.7089260160
31
0.0000000000
11
7.1496554799
21
-22.6720902358
31
0.0000000000
11
7.1725482579
21
-22.6396175227
31
0.0000000000
11
7.1986221380
21
-22.6119361257
31
0.0000000000
11
7.2270890323
21
-22.5893136456
31
0.0000000000
11
7.2573898960
21
-22.5717501903
31
0.0000000000
11
7.2888830407
21
-22.5592812804
31
0.0000000000
11
7.3212434781
21
-22.5518098949
31
0.0000000000
11
7.3539312946
21
-22.5493307898
31
0.0000000000
0
SPLINE
5
4CF
100
AcDbEntity
8
0
100
AcDbSpline
62
9
6
CONTINUOUS
70
0
71
3
72
18
73
14
74
12
42
0.0000001000
43
0.0000001000
44
0.0000000001
12
0.0012300470
22
0.3662149009
32
0.0000000000
13
0.3662158046
23
0.0009225687
33
0.0000000000
40
0.0000000000
40
0.0000000000
40
0.0000000000
40
0.0000000000
40
0.0842351835
40
0.1691282730
40
0.2551195891
40
0.3426056523
40
0.4318362164
40
0.5229156189
40
0.6157961265
40
0.7102918552
40
0.8060988660
40
0.9028204681
40
1.0000000000
40
1.0000000000
40
1.0000000000
40
1.0000000000
10
7.1090261264
20
-23.2710186263
30
0.0000000000
10
7.1090606642
20
-23.2607358998
30
0.0000000000
10
7.1108390279
20
-23.2400563013
30
0.0000000000
10
7.1185636013
20
-23.2097519462
30
0.0000000000
10
7.1311848137
20
-23.1807021885
30
0.0000000000
10
7.1484305011
20
-23.1535174328
30
0.0000000000
10
7.1699376924
20
-23.1287426359
30
0.0000000000
10
7.1952602731
20
-23.1068733221
30
0.0000000000
10
7.2238801539
20
-23.0883424041
30
0.0000000000
10
7.2552162139
20
-23.0735155095
30
0.0000000000
10
7.2886380659
20
-23.0626845863
30
0.0000000000
10
7.3234666459
20
-23.0560627656
30
0.0000000000
10
7.3471590022
20
-23.0545421603
30
0.0000000000
10
7.3590218957
20
-23.0545122753
30
0.0000000000
11
7.1090261264
21
-23.2710186263
31
0.0000000000
11
7.1116612574
21
-23.2402830282
31
0.0000000000
11
7.1193135594
21
-23.2101502186
31
0.0000000000
11
7.1318277534
21
-23.1812519800
31
0.0000000000
11
7.1489511833
21
-23.1541728733
31
0.0000000000
11
7.1703358912
21
-23.1294639804
31
0.0000000000
11
7.1955482641
21
-23.1076263881
31
0.0000000000
11
7.2240767379
21
-23.0891032458
31
0.0000000000
11
7.2553426089
21
-23.0742702983
31
0.0000000000
11
7.2887116391
21
-23.0634284375
31
0.0000000000
11
7.3235065564
21
-23.0567976404
31
0.0000000000
11
7.3590218957
21
-23.0545122753
31
0.0000000000
0
SPLINE
5
4D0
100
AcDbEntity
8
0
100
AcDbSpline
62
7
6
CONTINUOUS
70
0
71
3
72
18
73
14
74
12
42
0.0000001000
43
0.0000001000
44
0.0000000001
12
0.0000000000
22
0.4220894472
32
0.0000000000
13
0.4220894472
23
0.0000000000
33
0.0000000000
40
0.0000000000
40
0.0000000000
40
0.0000000000
40
0.0000000000
40
0.1059090351
40
0.2101669191
40
0.3119275375
40
0.4100581264
40
0.5041875836
40
0.5942815516
40
0.6804273975
40
0.7634029300
40
0.8436506062
40
0.9223347281
40
1.0000000000
40
1.0000000000
40
1.0000000000
40
1.0000000000
10
-10.2953457076
20
-22.8371662072
30
0.0000000000
10
-10.2953457076
20
-22.8222651785
30
0.0000000000
10
-10.2933598776
20
-22.7926563054
30
0.0000000000
10
-10.2845559651
20
-22.7495319752
30
0.0000000000
10
-10.2703739896
20
-22.7090151812
30
0.0000000000
10
-10.2514428529
20
-22.6720861124
30
0.0000000000
10
-10.2285235217
20
-22.6394786294
30
0.0000000000
10
-10.2023934572
20
-22.6116557990
30
0.0000000000
10
-10.1737729189
20
-22.5888452248
30
0.0000000000
10
-10.1433303824
20
-22.5711485540
30
0.0000000000
10
-10.1115778000
20
-22.5585419743
30
0.0000000000
10
-10.0790296763
20
-22.5510048958
30
0.0000000000
10
-10.0569959360
20
-22.5493307898
30
0.0000000000
10
-10.0460687054
20
-22.5493307898
30
0.0000000000
11
-10.2953457076
21
-22.8371662072
31
0.0000000000
11
-10.2923422227
21
-22.7925641334
31
0.0000000000
11
-10.2835144639
21
-22.7494525092
31
0.0000000000
11
-10.2692847488
21
-22.7089260160
31
0.0000000000
11
-10.2503445201
21
-22.6720902358
31
0.0000000000
11
-10.2274517421
21
-22.6396175227
31
0.0000000000
11
-10.2013778620
21
-22.6119361257
31
0.0000000000
11
-10.1729109677
21
-22.5893136456
31
0.0000000000
11
-10.1426101040
21
-22.5717501903
31
0.0000000000
11
-10.1111169593
21
-22.5592812804
31
0.0000000000
11
-10.0787565219
21
-22.5518098949
31
0.0000000000
11
-10.0460687054
21
-22.5493307898
31
0.0000000000
0
SPLINE
5
4D1
100
AcDbEntity
8
0
100
AcDbSpline
62
9
6
CONTINUOUS
70
0
71
3
72
18
73
14
74
12
42
0.0000001000
43
0.0000001000
44
0.0000000001
12
0.0012300469
22
0.3662148875
32
0.0000000000
13
0.3662157912
23
0.0009225687
33
0.0000000000
40
0.0000000000
40
0.0000000000
40
0.0000000000
40
0.0000000000
40
0.0842917733
40
0.1691857338
40
0.2551786798
40
0.3426611748
40
0.4318880673
40
0.5229629903
40
0.6158387450
40
0.7103295894
40
0.8061307215
40
0.9028472123
40
1.0000000000
40
1.0000000000
40
1.0000000000
40
1.0000000000
10
-10.2909738736
20
-23.2710186263
30
0.0000000000
10
-10.2909393126
20
-23.2607289922
30
0.0000000000
10
-10.2891591761
20
-23.2400423059
30
0.0000000000
10
-10.2814295018
20
-23.2097318060
30
0.0000000000
10
-10.2688052251
20
-23.1806835192
30
0.0000000000
10
-10.2515571986
20
-23.1535010901
30
0.0000000000
10
-10.2300487759
20
-23.1287292883
30
0.0000000000
10
-10.2047257318
20
-23.1068629595
30
0.0000000000
10
-10.1761061043
20
-23.0883348630
30
0.0000000000
10
-10.1447709523
20
-23.0735105255
30
0.0000000000
10
-10.1113504661
20
-23.0626817461
30
0.0000000000
10
-10.0765261786
20
-23.0560621037
30
0.0000000000
10
-10.0528377327
20
-23.0545421520
30
0.0000000000
10
-10.0409781043
20
-23.0545122753
30
0.0000000000
11
-10.2909738736
21
-23.2710186263
31
0.0000000000
11
-10.2883352775
21
-23.2402625263
31
0.0000000000
11
-10.2806796151
21
-23.2101302424
31
0.0000000000
11
-10.2681620892
21
-23.1812327976
31
0.0000000000
11
-10.2510366483
21
-23.1541565102
31
0.0000000000
11
-10.2296506375
21
-23.1294505248
31
0.0000000000
11
-10.2044378283
21
-23.1076159440
31
0.0000000000
11
-10.1759095988
21
-23.0890956243
31
0.0000000000
11
-10.1446445188
21
-23.0742651855
31
0.0000000000
11
-10.1112770356
21
-23.0634255347
31
0.0000000000
11
-10.0764837073
21
-23.0567964059
31
0.0000000000
11
-10.0409781043
21
-23.0545122753
31
0.0000000000
0
SPLINE
5
4D2
100
AcDbEntity
8
0
100
AcDbSpline
62
9
6
CONTINUOUS
70
0
71
3
72
18
73
14
74
12
42
0.0000001000
43
0.0000001000
44
0.0000000001
12
-0.0012300470
22
0.3662149009
32
0.0000000000
13
-0.3662158046
23
0.0009225687
33
0.0000000000
40
0.0000000000
40
0.0000000000
40
0.0000000000
40
0.0000000000
40
0.0842351835
40
0.1691282730
40
0.2551195891
40
0.3426056523
40
0.4318362164
40
0.5229156189
40
0.6157961265
40
0.7102918552
40
0.8060988660
40
0.9028204681
40
1.0000000000
40
1.0000000000
40
1.0000000000
40
1.0000000000
10
-7.3997175416
20
-23.2710186263
30
0.0000000000
10
-7.3997520793
20
-23.2607358998
30
0.0000000000
10
-7.4015304431
20
-23.2400563013
30
0.0000000000
10
-7.4092550164
20
-23.2097519462
30
0.0000000000
10
-7.4218762288
20
-23.1807021885
30
0.0000000000
10
-7.4391219162
20
-23.1535174328
30
0.0000000000
10
-7.4606291075
20
-23.1287426359
30
0.0000000000
10
-7.4859516882
20
-23.1068733221
30
0.0000000000
10
-7.5145715690
20
-23.0883424041
30
0.0000000000
10
-7.5459076290
20
-23.0735155095
30
0.0000000000
10
-7.5793294810
20
-23.0626845863
30
0.0000000000
10
-7.6141580610
20
-23.0560627656
30
0.0000000000
10
-7.6378504173
20
-23.0545421603
30
0.0000000000
10
-7.6497133108
20
-23.0545122753
30
0.0000000000
11
-7.3997175416
21
-23.2710186263
31
0.0000000000
11
-7.4023526726
21
-23.2402830282
31
0.0000000000
11
-7.4100049745
21
-23.2101502186
31
0.0000000000
11
-7.4225191685
21
-23.1812519800
31
0.0000000000
11
-7.4396425984
21
-23.1541728733
31
0.0000000000
11
-7.4610273063
21
-23.1294639804
31
0.0000000000
11
-7.4862396793
21
-23.1076263881
31
0.0000000000
11
-7.5147681530
21
-23.0891032458
31
0.0000000000
11
-7.5460340240
21
-23.0742702983
31
0.0000000000
11
-7.5794030542
21
-23.0634284375
31
0.0000000000
11
-7.6141979715
21
-23.0567976404
31
0.0000000000
11
-7.6497133108
21
-23.0545122753
31
0.0000000000
0
SPLINE
5
4D3
100
AcDbEntity
8
0
100
AcDbSpline
62
7
6
CONTINUOUS
70
0
71
3
72
18
73
14
74
12
42
0.0000001000
43
0.0000001000
44
0.0000000001
12
0.4220894472
22
0.0000000000
32
0.0000000000
13
0.0000000000
23
-0.4220894472
33
0.0000000000
40
0.0000000000
40
0.0000000000
40
0.0000000000
40
0.0000000000
40
0.0776652719
40
0.1563493938
40
0.2365970700
40
0.3195726025
40
0.4057184484
40
0.4958124164
40
0.5899418736
40
0.6880724625
40
0.7898330809
40
0.8940909649
40
1.0000000000
40
1.0000000000
40
1.0000000000
40
1.0000000000
10
-7.6446227097
20
-22.5493307898
30
0.0000000000
10
-7.6336954791
20
-22.5493307898
30
0.0000000000
10
-7.6116617388
20
-22.5510048958
30
0.0000000000
10
-7.5791136152
20
-22.5585419743
30
0.0000000000
10
-7.5473610327
20
-22.5711485540
30
0.0000000000
10
-7.5169184962
20
-22.5888452248
30
0.0000000000
10
-7.4882979579
20
-22.6116557990
30
0.0000000000
10
-7.4621678934
20
-22.6394786294
30
0.0000000000
10
-7.4392485622
20
-22.6720861124
30
0.0000000000
10
-7.4203174255
20
-22.7090151812
30
0.0000000000
10
-7.4061354500
20
-22.7495319752
30
0.0000000000
10
-7.3973315375
20
-22.7926563054
30
0.0000000000
10
-7.3953457076
20
-22.8222651785
30
0.0000000000
10
-7.3953457076
20
-22.8371662072
30
0.0000000000
11
-7.6446227097
21
-22.5493307898
31
0.0000000000
11
-7.6119348932
21
-22.5518098949
31
0.0000000000
11
-7.5795744558
21
-22.5592812804
31
0.0000000000
11
-7.5480813111
21
-22.5717501903
31
0.0000000000
11
-7.5177804474
21
-22.5893136456
31
0.0000000000
11
-7.4893135531
21
-22.6119361257
31
0.0000000000
11
-7.4632396730
21
-22.6396175227
31
0.0000000000
11
-7.4403468950
21
-22.6720902358
31
0.0000000000
11
-7.4214066663
21
-22.7089260160
31
0.0000000000
11
-7.4071769512
21
-22.7494525092
31
0.0000000000
11
-7.3983491924
21
-22.7925641334
31
0.0000000000
11
-7.3953457076
21
-22.8371662072
31
0.0000000000
0
SPLINE
5
4D4
100
AcDbEntity
8
0
100
AcDbSpline
62
9
6
CONTINUOUS
70
0
71
3
72
8
73
4
74
2
42
0.0000001000
43
0.0000001000
44
0.0000000001
12
-0.0339129772
22
-1.3784206282
32
0.0000000000
13
-0.0339129772
23
-1.3784206282
33
0.0000000000
40
0.0000000000
40
0.0000000000
40
0.0000000000
40
0.0000000000
40
1.0000000000
40
1.0000000000
40
1.0000000000
40
1.0000000000
10
-4.6459849262
20
14.3017395692
30
0.0000000000
10
-4.6572892519
20
13.8422660265
30
0.0000000000
10
-4.6685935777
20
13.3827924838
30
0.0000000000
10
-4.6798979034
20
12.9233189410
30
0.0000000000
11
-4.6459849262
21
14.3017395692
31
0.0000000000
11
-4.6798979034
21
12.9233189410
31
0.0000000000
0
SPLINE
5
4D5
100
AcDbEntity
8
0
100
AcDbSpline
62
9
6
CONTINUOUS
70
0
71
3
72
8
73
4
74
2
42
0.0000001000
43
0.0000001000
44
0.0000000001
12
0.0339129772
22
-1.3784206282
32
0.0000000000
13
0.0339129772
23
-1.3784206282
33
0.0000000000
40
0.0000000000
40
0.0000000000
40
0.0000000000
40
0.0000000000
40
1.0000000000
40
1.0000000000
40
1.0000000000
40
1.0000000000
10
-5.6447064889
20
14.3017395692
30
0.0000000000
10
-5.6334021632
20
13.8422660265
30
0.0000000000
10
-5.6220978374
20
13.3827924838
30
0.0000000000
10
-5.6107935117
20
12.9233189410
30
0.0000000000
11
-5.6447064889
21
14.3017395692
31
0.0000000000
11
-5.6107935117
21
12.9233189410
31
0.0000000000
0
SPLINE
5
4D6
100
AcDbEntity
8
0
100
AcDbSpline
62
9
6
CONTINUOUS
70
0
71
3
72
8
73
4
74
2
42
0.0000001000
43
0.0000001000
44
0.0000000001
12
0.0339129772
22
-1.3784206282
32
0.0000000000
13
0.0339129772
23
-1.3784206282
33
0.0000000000
40
0.0000000000
40
0.0000000000
40
0.0000000000
40
0.0000000000
40
1.0000000000
40
1.0000000000
40
1.0000000000
40
1.0000000000
10
4.3552935111
20
14.3017395692
30
0.0000000000
10
4.3665978368
20
13.8422660265
30
0.0000000000
10
4.3779021626
20
13.3827924838
30
0.0000000000
10
4.3892064883
20
12.9233189410
30
0.0000000000
11
4.3552935111
21
14.3017395692
31
0.0000000000
11
4.3892064883
21
12.9233189410
31
0.0000000000
0
SPLINE
5
4D7
100
AcDbEntity
8
0
100
AcDbSpline
62
9
6
CONTINUOUS
70
0
71
3
72
8
73
4
74
2
42
0.0000001000
43
0.0000001000
44
0.0000000001
12
-0.0339129772
22
-1.3784206282
32
0.0000000000
13
-0.0339129772
23
-1.3784206282
33
0.0000000000
40
0.0000000000
40
0.0000000000
40
0.0000000000
40
0.0000000000
40
1.0000000000
40
1.0000000000
40
1.0000000000
40
1.0000000000
10
5.3540150738
20
14.3017395692
30
0.0000000000
10
5.3427107481
20
13.8422660265
30
0.0000000000
10
5.3314064223
20
13.3827924838
30
0.0000000000
10
5.3201020966
20
12.9233189410
30
0.0000000000
11
5.3540150738
21
14.3017395692
31
0.0000000000
11
5.3201020966
21
12.9233189410
31
0.0000000000
0
SPLINE
5
4D8
100
AcDbEntity
8
0
100
AcDbSpline
62
7
6
CONTINUOUS
70
0
71
3
72
16
73
12
74
10
42
0.0000001000
43
0.0000001000
44
0.0000000001
12
0.0916203692
22
-0.0458066958
32
0.0000000000
13
0.0000000000
23
-0.1024331266
33
0.0000000000
40
0.0000000000
40
0.0000000000
40
0.0000000000
40
0.0000000000
40
0.0524249487
40
0.1049605300
40
0.1725833291
40
0.2551920971
40
0.3547603892
40
0.4753873884
40
0.6190590311
40
0.7938248049
40
1.0000000000
40
1.0000000000
40
1.0000000000
40
1.0000000000
10
9.4997988591
20
9.4068042173
30
0.0000000000
10
9.5013999234
20
9.4060037461
30
0.0000000000
10
9.5009556367
20
9.4012482005
30
0.0000000000
10
9.5020679374
20
9.3959119366
30
0.0000000000
10
9.5024640518
20
9.3888246441
30
0.0000000000
10
9.5030455874
20
9.3803785818
30
0.0000000000
10
9.5035081249
20
9.3700265979
30
0.0000000000
10
9.5039506492
20
9.3576184318
30
0.0000000000
10
9.5043189050
20
9.3426282253
30
0.0000000000
10
9.5045884299
20
9.3247184711
30
0.0000000000
10
9.5046542924
20
9.3117110794
30
0.0000000000
10
9.5046542924
20
9.3046713561
30
0.0000000000
11
9.4997988591
21
9.4068042173
31
0.0000000000
11
9.5012357042
21
9.4016299610
31
0.0000000000
11
9.5018675332
21
9.3962857974
31
0.0000000000
11
9.5024461742
21
9.3893831938
31
0.0000000000
11
9.5029761197
21
9.3809379302
31
0.0000000000
11
9.5034619398
21
9.3707504160
31
0.0000000000
11
9.5039018430
21
9.3584020485
31
0.0000000000
11
9.5042717605
21
9.3436899628
31
0.0000000000
11
9.5045449631
21
9.3257902430
31
0.0000000000
11
9.5046542924
21
9.3046713561
31
0.0000000000
0
SPLINE
5
4D9
100
AcDbEntity
8
0
100
AcDbSpline
62
7
6
CONTINUOUS
70
0
71
3
72
9
73
5
74
3
42
0.0000001000
43
0.0000001000
44
0.0000000001
12
-0.0005557910
22
0.9862437494
32
0.0000000000
13
-0.0004594831
23
0.9862437990
33
0.0000000000
40
0.0000000000
40
0.0000000000
40
0.0000000000
40
0.0000000000
40
0.4999178009
40
1.0000000000
40
1.0000000000
40
1.0000000000
40
1.0000000000
10
-7.6448380863
20
-12.9261924762
30
0.0000000000
10
-7.6449307030
20
-12.7618455408
30
0.0000000000
10
-7.6451079342
20
-12.4330976197
30
0.0000000000
10
-7.6452691145
20
-12.1043496904
30
0.0000000000
10
-7.6453457076
20
-11.9399487011
30
0.0000000000
11
-7.6448380863
21
-12.9261924762
31
0.0000000000
11
-7.6451038936
21
-12.4331516633
31
0.0000000000
11
-7.6453457076
21
-11.9399487011
31
0.0000000000
0
SPLINE
5
4DA
100
AcDbEntity
8
0
100
AcDbSpline
62
7
6
CONTINUOUS
70
0
71
3
72
10
73
6
74
4
42
0.0000001000
43
0.0000001000
44
0.0000000001
12
-0.0303677249
22
2.1979267421
32
0.0000000000
13
-0.0206909784
23
2.1980391365
33
0.0000000000
40
0.0000000000
40
0.0000000000
40
0.0000000000
40
0.0000000000
40
0.3331562482
40
0.6664968577
40
1.0000000000
40
1.0000000000
40
1.0000000000
40
1.0000000000
10
-8.5316566599
20
-14.1379354325
30
0.0000000000
10
-8.5350290590
20
-13.8938510901
30
0.0000000000
10
-8.5414167168
20
-13.4055422954
30
0.0000000000
10
-8.5499249515
20
-12.6728792857
30
0.0000000000
10
-8.5548820484
20
-12.1842996875
30
0.0000000000
10
-8.5571822172
20
-11.9399487011
30
0.0000000000
11
-8.5316566599
21
-14.1379354325
31
0.0000000000
11
-8.5412358125
21
-13.4056751691
31
0.0000000000
11
-8.5497445144
21
-12.6729964065
31
0.0000000000
11
-8.5571822172
21
-11.9399487011
31
0.0000000000
0
SPLINE
5
4DB
100
AcDbEntity
8
0
100
AcDbSpline
62
7
6
CONTINUOUS
70
0
71
3
72
9
73
5
74
3
42
0.0000001000
43
0.0000001000
44
0.0000000001
12
0.0005557910
22
0.9862437494
32
0.0000000000
13
0.0004594831
23
0.9862437990
33
0.0000000000
40
0.0000000000
40
0.0000000000
40
0.0000000000
40
0.0000000000
40
0.4999178009
40
1.0000000000
40
1.0000000000
40
1.0000000000
40
1.0000000000
10
7.3541466712
20
-12.9261924762
30
0.0000000000
10
7.3542392878
20
-12.7618455408
30
0.0000000000
10
7.3544165191
20
-12.4330976197
30
0.0000000000
10
7.3545776993
20
-12.1043496904
30
0.0000000000
10
7.3546542924
20
-11.9399487011
30
0.0000000000
11
7.3541466712
21
-12.9261924762
31
0.0000000000
11
7.3544124785
21
-12.4331516633
31
0.0000000000
11
7.3546542924
21
-11.9399487011
31
0.0000000000
0
SPLINE
5
4DC
100
AcDbEntity
8
0
100
AcDbSpline
62
7
6
CONTINUOUS
70
0
71
3
72
10
73
6
74
4
42
0.0000001000
43
0.0000001000
44
0.0000000001
12
0.0303677249
22
2.1979267421
32
0.0000000000
13
0.0206909784
23
2.1980391365
33
0.0000000000
40
0.0000000000
40
0.0000000000
40
0.0000000000
40
0.0000000000
40
0.3331562482
40
0.6664968576
40
1.0000000000
40
1.0000000000
40
1.0000000000
40
1.0000000000
10
8.2409652448
20
-14.1379354325
30
0.0000000000
10
8.2443376439
20
-13.8938510901
30
0.0000000000
10
8.2507253017
20
-13.4055422954
30
0.0000000000
10
8.2592335364
20
-12.6728792857
30
0.0000000000
10
8.2641906333
20
-12.1842996875
30
0.0000000000
10
8.2664908021
20
-11.9399487011
30
0.0000000000
11
8.2409652448
21
-14.1379354325
31
0.0000000000
11
8.2505443974
21
-13.4056751691
31
0.0000000000
11
8.2590530993
21
-12.6729964065
31
0.0000000000
11
8.2664908021
21
-11.9399487011
31
0.0000000000
0
SPLINE
5
4DD
100
AcDbEntity
8
0
100
AcDbSpline
62
7
6
CONTINUOUS
70
0
71
3
72
10
73
6
74
4
42
0.0000001000
43
0.0000001000
44
0.0000000001
12
0.0007123678
22
-1.2151529460
32
0.0000000000
13
0.0005661300
23
-1.2151530229
33
0.0000000000
40
0.0000000000
40
0.0000000000
40
0.0000000000
40
0.0000000000
40
0.3332400780
40
0.6665747829
40
1.0000000000
40
1.0000000000
40
1.0000000000
40
1.0000000000
10
5.3540150738
20
14.3017395692
30
0.0000000000
10
5.3540942036
20
14.1667603484
30
0.0000000000
10
5.3542470649
20
13.8967635748
30
0.0000000000
10
5.3544601355
20
13.4917125791
30
0.0000000000
10
5.3545913718
20
13.2216408033
30
0.0000000000
10
5.3546542924
20
13.0865865832
30
0.0000000000
11
5.3540150738
21
14.3017395692
31
0.0000000000
11
5.3542443355
21
13.8968019021
31
0.0000000000
11
5.3544574093
21
13.4917492398
31
0.0000000000
11
5.3546542924
21
13.0865865832
31
0.0000000000
0
SPLINE
5
4DE
100
AcDbEntity
8
0
100
AcDbSpline
62
7
6
CONTINUOUS
70
0
71
3
72
10
73
6
74
4
42
0.0000001000
43
0.0000001000
44
0.0000000001
12
-0.0007123678
22
-1.2151529460
32
0.0000000000
13
-0.0005661300
23
-1.2151530229
33
0.0000000000
40
0.0000000000
40
0.0000000000
40
0.0000000000
40
0.0000000000
40
0.3332400780
40
0.6665747829
40
1.0000000000
40
1.0000000000
40
1.0000000000
40
1.0000000000
10
4.3552935111
20
14.3017395692
30
0.0000000000
10
4.3552143813
20
14.1667603484
30
0.0000000000
10
4.3550615200
20
13.8967635748
30
0.0000000000
10
4.3548484494
20
13.4917125791
30
0.0000000000
10
4.3547172131
20
13.2216408033
30
0.0000000000
10
4.3546542924
20
13.0865865832
30
0.0000000000
11
4.3552935111
21
14.3017395692
31
0.0000000000
11
4.3550642494
21
13.8968019021
31
0.0000000000
11
4.3548511756
21
13.4917492398
31
0.0000000000
11
4.3546542924
21
13.0865865832
31
0.0000000000
0
SPLINE
5
4DF
100
AcDbEntity
8
0
100
AcDbSpline
62
7
6
CONTINUOUS
70
0
71
3
72
10
73
6
74
4
42
0.0000001000
43
0.0000001000
44
0.0000000001
12
-0.0005661300
22
1.2151530229
32
0.0000000000
13
-0.0007123678
23
1.2151529460
33
0.0000000000
40
0.0000000000
40
0.0000000000
40
0.0000000000
40
0.0000000000
40
0.3334252171
40
0.6667599220
40
1.0000000000
40
1.0000000000
40
1.0000000000
40
1.0000000000
10
-4.6453457076
20
13.0865865832
30
0.0000000000
10
-4.6454086282
20
13.2216408033
30
0.0000000000
10
-4.6455398645
20
13.4917125791
30
0.0000000000
10
-4.6457529351
20
13.8967635748
30
0.0000000000
10
-4.6459057964
20
14.1667603484
30
0.0000000000
10
-4.6459849262
20
14.3017395692
30
0.0000000000
11
-4.6453457076
21
13.0865865832
31
0.0000000000
11
-4.6455425907
21
13.4917492398
31
0.0000000000
11
-4.6457556645
21
13.8968019021
31
0.0000000000
11
-4.6459849262
21
14.3017395692
31
0.0000000000
0
SPLINE
5
4E0
100
AcDbEntity
8
0
100
AcDbSpline
62
7
6
CONTINUOUS
70
0
71
3
72
10
73
6
74
4
42
0.0000001000
43
0.0000001000
44
0.0000000001
12
0.0005661300
22
1.2151530229
32
0.0000000000
13
0.0007123678
23
1.2151529460
33
0.0000000000
40
0.0000000000
40
0.0000000000
40
0.0000000000
40
0.0000000000
40
0.3334252171
40
0.6667599220
40
1.0000000000
40
1.0000000000
40
1.0000000000
40
1.0000000000
10
-5.6453457076
20
13.0865865832
30
0.0000000000
10
-5.6452827869
20
13.2216408033
30
0.0000000000
10
-5.6451515506
20
13.4917125791
30
0.0000000000
10
-5.6449384800
20
13.8967635748
30
0.0000000000
10
-5.6447856187
20
14.1667603484
30
0.0000000000
10
-5.6447064889
20
14.3017395692
30
0.0000000000
11
-5.6453457076
21
13.0865865832
31
0.0000000000
11
-5.6451488244
21
13.4917492398
31
0.0000000000
11
-5.6449357506
21
13.8968019021
31
0.0000000000
11
-5.6447064889
21
14.3017395692
31
0.0000000000
0
SPLINE
5
4E1
100
AcDbEntity
8
0
100
AcDbSpline
62
7
6
CONTINUOUS
70
0
71
3
72
8
73
4
74
2
42
0.0000001000
43
0.0000001000
44
0.0000000001
12
0.0017480002
22
-0.0017480002
32
0.0000000000
13
0.0001440396
23
-0.0024678456
33
0.0000000000
40
0.0000000000
40
0.0000000000
40
0.0000000000
40
0.0000000000
40
1.0000000000
40
1.0000000000
40
1.0000000000
40
1.0000000000
10
-4.5516950607
20
24.5296682942
30
0.0000000000
10
-4.5511123940
20
24.5290856274
30
0.0000000000
10
-4.5514714737
20
24.5280338293
30
0.0000000000
10
-4.5514234605
20
24.5272112141
30
0.0000000000
11
-4.5516950607
21
24.5296682942
31
0.0000000000
11
-4.5514234605
21
24.5272112141
31
0.0000000000
0
SPLINE
5
4E2
100
AcDbEntity
8
0
100
AcDbSpline
62
7
6
CONTINUOUS
70
0
71
3
72
8
73
4
74
2
42
0.0000001000
43
0.0000001000
44
0.0000000001
12
-0.0017480002
22
-0.0017480002
32
0.0000000000
13
-0.0001440396
23
-0.0024678456
33
0.0000000000
40
0.0000000000
40
0.0000000000
40
0.0000000000
40
0.0000000000
40
1.0000000000
40
1.0000000000
40
1.0000000000
40
1.0000000000
10
4.2610036456
20
24.5296682942
30
0.0000000000
10
4.2604209789
20
24.5290856274
30
0.0000000000
10
4.2607800586
20
24.5280338293
30
0.0000000000
10
4.2607320454
20
24.5272112141
30
0.0000000000
11
4.2610036456
21
24.5296682942
31
0.0000000000
11
4.2607320454
21
24.5272112141
31
0.0000000000
0
SPLINE
5
4E3
100
AcDbEntity
8
0
100
AcDbSpline
62
7
6
CONTINUOUS
70
0
71
3
72
16
73
12
74
10
42
0.0000001000
43
0.0000001000
44
0.0000000001
12
0.0916507667
22
-0.0458218934
32
0.0000000000
13
-0.0000000000
23
-0.1024671116
33
0.0000000000
40
0.0000000000
40
0.0000000000
40
0.0000000000
40
0.0000000000
40
0.0199865820
40
0.0631509015
40
0.1263679540
40
0.2080815354
40
0.3096045213
40
0.4344049395
40
0.5857441645
40
0.7729066416
40
1.0000000000
40
1.0000000000
40
1.0000000000
40
1.0000000000
10
9.4997988591
20
1.0068042173
30
0.0000000000
10
9.5004094542
20
1.0064989429
30
0.0000000000
10
9.5007393623
20
1.0039227498
30
0.0000000000
10
9.5015814693
20
1.0000274510
30
0.0000000000
10
9.5021308562
20
0.9934532119
30
0.0000000000
10
9.5027720298
20
0.9851282636
30
0.0000000000
10
9.5033175401
20
0.9745948139
30
0.0000000000
10
9.5038261704
20
0.9617146450
30
0.0000000000
10
9.5042563553
20
0.9458923302
30
0.0000000000
10
9.5045754379
20
0.9265775976
30
0.0000000000
10
9.5046542924
20
0.9124278896
30
0.0000000000
10
9.5046542924
20
0.9046713561
30
0.0000000000
11
9.4997988591
21
1.0068042173
31
0.0000000000
11
9.5006273865
21
1.0049313285
31
0.0000000000
11
9.5013822823
21
1.0005733035
31
0.0000000000
11
9.5020680299
21
0.9941320348
31
0.0000000000
11
9.5026902240
21
0.9857822298
31
0.0000000000
11
9.5032570019
21
0.9753949141
31
0.0000000000
11
9.5037668369
21
0.9626171429
31
0.0000000000
11
9.5041984392
21
0.9471158571
31
0.0000000000
11
9.5045213018
21
0.9279405765
31
0.0000000000
11
9.5046542924
21
0.9046713561
31
0.0000000000
0
SPLINE
5
4E4
100
AcDbEntity
8
0
100
AcDbSpline
62
7
6
CONTINUOUS
70
0
71
3
72
9
73
5
74
3
42
0.0000001000
43
0.0000001000
44
0.0000000001
12
0.0001229116
22
-0.0021058575
32
0.0000000000
13
0.0026060595
23
-0.0009722932
33
0.0000000000
40
0.0000000000
40
0.0000000000
40
0.0000000000
40
0.0000000000
40
0.8427341930
40
1.0000000000
40
1.0000000000
40
1.0000000000
40
1.0000000000
10
4.2607320454
20
-23.3805733320
30
0.0000000000
10
4.2607665727
20
-23.3811648914
30
0.0000000000
10
4.2603890954
20
-23.3820690506
30
0.0000000000
10
4.2610495224
20
-23.3824903066
30
0.0000000000
10
4.2611861371
20
-23.3825412761
30
0.0000000000
11
4.2607320454
21
-23.3805733320
31
0.0000000000
11
4.2608674672
21
-23.3823458648
31
0.0000000000
11
4.2611861371
21
-23.3825412761
31
0.0000000000
0
SPLINE
5
4E5
100
AcDbEntity
8
0
100
AcDbSpline
62
7
6
CONTINUOUS
70
0
71
3
72
16
73
12
74
10
42
0.0000001000
43
0.0000001000
44
0.0000000001
12
0.0000000000
22
-0.1024674445
32
0.0000000000
13
-0.0916510645
23
-0.0458220422
33
0.0000000000
40
0.0000000000
40
0.0000000000
40
0.0000000000
40
0.0000000000
40
0.2280397230
40
0.4162351695
40
0.5675367451
40
0.6920305970
40
0.7933353119
40
0.8747137100
40
0.9374877488
40
0.9802327601
40
1.0000000000
40
1.0000000000
40
1.0000000000
40
1.0000000000
10
9.5046542924
20
0.2419665259
30
0.0000000000
10
9.5046542924
20
0.2341776434
30
0.0000000000
10
9.5045747356
20
0.2199602797
30
0.0000000000
10
9.5042530150
20
0.2005791996
30
0.0000000000
10
9.5038199388
20
0.1847333750
30
0.0000000000
10
9.5033097808
20
0.1718724196
30
0.0000000000
10
9.5027631633
20
0.1613685085
30
0.0000000000
10
9.5021221364
20
0.1530772132
30
0.0000000000
10
9.5015717700
20
0.1465458210
30
0.0000000000
10
9.5007360308
20
0.1426825090
30
0.0000000000
10
9.5004027552
20
0.1401355899
30
0.0000000000
10
9.4997988591
20
0.1398336648
30
0.0000000000
11
9.5046542924
21
0.2419665259
31
0.0000000000
11
9.5045201774
21
0.2186002632
31
0.0000000000
11
9.5041938663
21
0.1993191178
31
0.0000000000
11
9.5037600993
21
0.1838217013
31
0.0000000000
11
9.5032491250
21
0.1710753723
31
0.0000000000
11
9.5026809609
21
0.1607104977
31
0.0000000000
11
9.5020582431
21
0.1523951455
31
0.0000000000
11
9.5013736473
21
0.1459993851
31
0.0000000000
11
9.5006218993
21
0.1416844076
31
0.0000000000
11
9.4997988591
21
0.1398336648
31
0.0000000000
0
SPLINE
5
4E6
100
AcDbEntity
8
0
100
AcDbSpline
62
7
6
CONTINUOUS
70
0
71
3
72
9
73
5
74
3
42
0.0000001000
43
0.0000001000
44
0.0000000001
12
-0.0001229116
22
-0.0021058575
32
0.0000000000
13
-0.0026060595
23
-0.0009722932
33
0.0000000000
40
0.0000000000
40
0.0000000000
40
0.0000000000
40
0.0000000000
40
0.8427341930
40
1.0000000000
40
1.0000000000
40
1.0000000000
40
1.0000000000
10
-4.5514234605
20
-23.3805733320
30
0.0000000000
10
-4.5514579878
20
-23.3811648914
30
0.0000000000
10
-4.5510805105
20
-23.3820690506
30
0.0000000000
10
-4.5517409375
20
-23.3824903066
30
0.0000000000
10
-4.5518775522
20
-23.3825412761
30
0.0000000000
11
-4.5514234605
21
-23.3805733320
31
0.0000000000
11
-4.5515588823
21
-23.3823458648
31
0.0000000000
11
-4.5518775522
21
-23.3825412761
31
0.0000000000
0
SPLINE
5
4E7
100
AcDbEntity
8
0
100
AcDbSpline
62
7
6
CONTINUOUS
70
0
71
3
72
20
73
16
74
14
42
0.0000001000
43
0.0000001000
44
0.0000000001
12
0.0000000000
22
0.7849039878
32
0.0000000000
13
-0.7849039878
23
0.0000000000
33
0.0000000000
40
0.0000000000
40
0.0000000000
40
0.0000000000
40
0.0000000000
40
0.0766711417
40
0.1537567778
40
0.2306436098
40
0.3073661863
40
0.3845607487
40
0.4616513950
40
0.5383075132
40
0.6154062635
40
0.6926006714
40
0.7693193439
40
0.8462196277
40
0.9233208052
40
1.0000000000
40
1.0000000000
40
1.0000000000
40
1.0000000000
10
10.9963637680
20
22.4675180342
30
0.0000000000
10
10.9963637680
20
22.4875778625
30
0.0000000000
10
10.9939370259
20
22.5278478672
30
0.0000000000
10
10.9830490492
20
22.5873449789
30
0.0000000000
10
10.9650583714
20
22.6451150311
30
0.0000000000
10
10.9402344728
20
22.7003228193
30
0.0000000000
10
10.9089051000
20
22.7521822773
30
0.0000000000
10
10.8715474870
20
22.7998599102
30
0.0000000000
10
10.8287377684
20
22.8426710264
30
0.0000000000
10
10.7810594856
20
22.8800312401
30
0.0000000000
10
10.7291998689
20
22.9113623827
30
0.0000000000
10
10.6739906406
20
22.9361890044
30
0.0000000000
10
10.6162147980
20
22.9541833574
30
0.0000000000
10
10.5567082349
20
22.9650738965
30
0.0000000000
10
10.5164320494
20
22.9675011112
30
0.0000000000
10
10.4963701141
20
22.9675011112
30
0.0000000000
11
10.9963637680
21
22.4675180342
31
0.0000000000
11
10.9927421608
21
22.5275884459
31
0.0000000000
11
10.9818518716
21
22.5871051262
31
0.0000000000
11
10.9639075992
21
22.6447243805
31
0.0000000000
11
10.9392118758
21
22.6996475298
31
0.0000000000
11
10.9078813196
21
22.7515087207
31
0.0000000000
11
10.8705616658
21
22.7991380493
31
0.0000000000
11
10.8280173827
21
22.8416837335
31
0.0000000000
11
10.7803840728
21
22.8790086196
31
0.0000000000
11
10.7285237361
21
22.9103403550
31
0.0000000000
11
10.6736041591
21
22.9350365509
31
0.0000000000
11
10.6159753568
21
22.9529856738
31
0.0000000000
11
10.5564468261
21
22.9638789719
31
0.0000000000
11
10.4963701141
21
22.9675011112
31
0.0000000000
0
SPLINE
5
4E8
100
AcDbEntity
8
0
100
AcDbSpline
62
7
6
CONTINUOUS
70
0
71
3
72
20
73
16
74
14
42
0.0000001000
43
0.0000001000
44
0.0000000001
12
0.7849039878
22
0.0000000000
32
0.0000000000
13
-0.0000000000
23
0.7849039878
33
0.0000000000
40
0.0000000000
40
0.0000000000
40
0.0000000000
40
0.0000000000
40
0.0766791948
40
0.1537803723
40
0.2306806561
40
0.3073993286
40
0.3845937365
40
0.4616924868
40
0.5383486050
40
0.6154392513
40
0.6926338137
40
0.7693563902
40
0.8462432222
40
0.9233288583
40
1.0000000000
40
1.0000000000
40
1.0000000000
40
1.0000000000
10
10.4963701141
20
-21.8208632292
30
0.0000000000
10
10.5164320494
20
-21.8208632292
30
0.0000000000
10
10.5567082349
20
-21.8184360145
30
0.0000000000
10
10.6162147980
20
-21.8075454753
30
0.0000000000
10
10.6739906406
20
-21.7895511224
30
0.0000000000
10
10.7291998689
20
-21.7647245006
30
0.0000000000
10
10.7810594856
20
-21.7333933581
30
0.0000000000
10
10.8287377684
20
-21.6960331444
30
0.0000000000
10
10.8715474870
20
-21.6532220281
30
0.0000000000
10
10.9089051000
20
-21.6055443953
30
0.0000000000
10
10.9402344728
20
-21.5536849373
30
0.0000000000
10
10.9650583714
20
-21.4984771491
30
0.0000000000
10
10.9830490492
20
-21.4407070969
30
0.0000000000
10
10.9939370259
20
-21.3812099851
30
0.0000000000
10
10.9963637680
20
-21.3409399805
30
0.0000000000
10
10.9963637680
20
-21.3208801522
30
0.0000000000
11
10.4963701141
21
-21.8208632292
31
0.0000000000
11
10.5564468261
21
-21.8172410898
31
0.0000000000
11
10.6159753568
21
-21.8063477917
31
0.0000000000
11
10.6736041591
21
-21.7883986689
31
0.0000000000
11
10.7285237361
21
-21.7637024729
31
0.0000000000
11
10.7803840728
21
-21.7323707376
31
0.0000000000
11
10.8280173827
21
-21.6950458515
31
0.0000000000
11
10.8705616658
21
-21.6525001673
31
0.0000000000
11
10.9078813196
21
-21.6048708386
31
0.0000000000
11
10.9392118758
21
-21.5530096477
31
0.0000000000
11
10.9639075992
21
-21.4980864984
31
0.0000000000
11
10.9818518716
21
-21.4404672442
31
0.0000000000
11
10.9927421608
21
-21.3809505639
31
0.0000000000
11
10.9963637680
21
-21.3208801522
31
0.0000000000
0
SPLINE
5
4E9
100
AcDbEntity
8
0
100
AcDbSpline
62
7
6
CONTINUOUS
70
0
71
3
72
20
73
16
74
14
42
0.0000001000
43
0.0000001000
44
0.0000000001
12
-0.7849039878
22
0.0000000000
32
0.0000000000
13
-0.0000000000
23
-0.7849039878
33
0.0000000000
40
0.0000000000
40
0.0000000000
40
0.0000000000
40
0.0000000000
40
0.0766791948
40
0.1537803723
40
0.2306806561
40
0.3073993286
40
0.3845937365
40
0.4616924868
40
0.5383486050
40
0.6154392513
40
0.6926338137
40
0.7693563902
40
0.8462432222
40
0.9233288583
40
1.0000000000
40
1.0000000000
40
1.0000000000
40
1.0000000000
10
-10.7870615292
20
22.9675011112
30
0.0000000000
10
-10.8071234645
20
22.9675011112
30
0.0000000000
10
-10.8473996500
20
22.9650738965
30
0.0000000000
10
-10.9069062131
20
22.9541833574
30
0.0000000000
10
-10.9646820557
20
22.9361890044
30
0.0000000000
10
-11.0198912840
20
22.9113623827
30
0.0000000000
10
-11.0717509007
20
22.8800312401
30
0.0000000000
10
-11.1194291835
20
22.8426710264
30
0.0000000000
10
-11.1622389021
20
22.7998599102
30
0.0000000000
10
-11.1995965152
20
22.7521822773
30
0.0000000000
10
-11.2309258879
20
22.7003228193
30
0.0000000000
10
-11.2557497866
20
22.6451150311
30
0.0000000000
10
-11.2737404643
20
22.5873449789
30
0.0000000000
10
-11.2846284410
20
22.5278478672
30
0.0000000000
10
-11.2870551832
20
22.4875778625
30
0.0000000000
10
-11.2870551832
20
22.4675180342
30
0.0000000000
11
-10.7870615292
21
22.9675011112
31
0.0000000000
11
-10.8471382412
21
22.9638789719
31
0.0000000000
11
-10.9066667719
21
22.9529856738
31
0.0000000000
11
-10.9642955742
21
22.9350365509
31
0.0000000000
11
-11.0192151513
21
22.9103403550
31
0.0000000000
11
-11.0710754879
21
22.8790086196
31
0.0000000000
11
-11.1187087978
21
22.8416837335
31
0.0000000000
11
-11.1612530809
21
22.7991380493
31
0.0000000000
11
-11.1985727347
21
22.7515087207
31
0.0000000000
11
-11.2299032909
21
22.6996475298
31
0.0000000000
11
-11.2545990143
21
22.6447243805
31
0.0000000000
11
-11.2725432867
21
22.5871051262
31
0.0000000000
11
-11.2834335759
21
22.5275884459
31
0.0000000000
11
-11.2870551832
21
22.4675180342
31
0.0000000000
0
SPLINE
5
4EA
100
AcDbEntity
8
0
100
AcDbSpline
62
7
6
CONTINUOUS
70
0
71
3
72
20
73
16
74
14
42
0.0000001000
43
0.0000001000
44
0.0000000001
12
0.0000000000
22
-0.7849039878
32
0.0000000000
13
0.7849039878
23
0.0000000000
33
0.0000000000
40
0.0000000000
40
0.0000000000
40
0.0000000000
40
0.0000000000
40
0.0766711417
40
0.1537567778
40
0.2306436098
40
0.3073661863
40
0.3845607487
40
0.4616513950
40
0.5383075132
40
0.6154062635
40
0.6926006714
40
0.7693193439
40
0.8462196277
40
0.9233208052
40
1.0000000000
40
1.0000000000
40
1.0000000000
40
1.0000000000
10
-11.2870551832
20
-21.3208801522
30
0.0000000000
10
-11.2870551832
20
-21.3409399805
30
0.0000000000
10
-11.2846284410
20
-21.3812099851
30
0.0000000000
10
-11.2737404643
20
-21.4407070969
30
0.0000000000
10
-11.2557497866
20
-21.4984771491
30
0.0000000000
10
-11.2309258879
20
-21.5536849373
30
0.0000000000
10
-11.1995965152
20
-21.6055443953
30
0.0000000000
10
-11.1622389021
20
-21.6532220281
30
0.0000000000
10
-11.1194291835
20
-21.6960331444
30
0.0000000000
10
-11.0717509007
20
-21.7333933581
30
0.0000000000
10
-11.0198912840
20
-21.7647245006
30
0.0000000000
10
-10.9646820557
20
-21.7895511224
30
0.0000000000
10
-10.9069062131
20
-21.8075454753
30
0.0000000000
10
-10.8473996500
20
-21.8184360145
30
0.0000000000
10
-10.8071234645
20
-21.8208632292
30
0.0000000000
10
-10.7870615292
20
-21.8208632292
30
0.0000000000
11
-11.2870551832
21
-21.3208801522
31
0.0000000000
11
-11.2834335759
21
-21.3809505639
31
0.0000000000
11
-11.2725432867
21
-21.4404672442
31
0.0000000000
11
-11.2545990143
21
-21.4980864984
31
0.0000000000
11
-11.2299032909
21
-21.5530096477
31
0.0000000000
11
-11.1985727347
21
-21.6048708386
31
0.0000000000
11
-11.1612530809
21
-21.6525001673
31
0.0000000000
11
-11.1187087978
21
-21.6950458515
31
0.0000000000
11
-11.0710754879
21
-21.7323707376
31
0.0000000000
11
-11.0192151513
21
-21.7637024729
31
0.0000000000
11
-10.9642955742
21
-21.7883986689
31
0.0000000000
11
-10.9066667719
21
-21.8063477917
31
0.0000000000
11
-10.8471382412
21
-21.8172410898
31
0.0000000000
11
-10.7870615292
21
-21.8208632292
31
0.0000000000
0
SPLINE
5
4EB
100
AcDbEntity
8
0
100
AcDbSpline
62
9
6
CONTINUOUS
70
0
71
3
72
12
73
8
74
6
42
0.0000001000
43
0.0000001000
44
0.0000000001
12
0.1429444551
22
-0.1398999121
32
0.0000000000
13
-0.0000001024
23
-0.2000127562
33
0.0000000000
40
0.0000000000
40
0.0000000000
40
0.0000000000
40
0.0000000000
40
0.0508597267
40
0.1938868037
40
0.4156282421
40
0.6936985216
40
1.0000000000
40
1.0000000000
40
1.0000000000
40
1.0000000000
10
-4.6496710638
20
-17.0223442797
30
0.0000000000
10
-4.6472476918
20
-17.0247160368
30
0.0000000000
10
-4.6517308348
20
-17.0399989965
30
0.0000000000
10
-4.6469248201
20
-17.0655596492
30
0.0000000000
10
-4.6488751350
20
-17.1095317028
30
0.0000000000
10
-4.6477630906
20
-17.1628433396
30
0.0000000000
10
-4.6479409108
20
-17.2019152633
30
0.0000000000
10
-4.6479409213
20
-17.2223366643
30
0.0000000000
11
-4.6496710638
21
-17.0223442797
31
0.0000000000
11
-4.6491369430
21
-17.0325028419
31
0.0000000000
11
-4.6486536442
21
-17.0611059990
31
0.0000000000
11
-4.6482700653
21
-17.1054554565
31
0.0000000000
11
-4.6480248344
21
-17.1610725188
31
0.0000000000
11
-4.6479409213
21
-17.2223366643
31
0.0000000000
0
SPLINE
5
4EC
100
AcDbEntity
8
0
100
AcDbSpline
62
9
6
CONTINUOUS
70
0
71
3
72
12
73
8
74
6
42
0.0000001000
43
0.0000001000
44
0.0000000001
12
-0.1419864544
22
-0.1408721216
32
0.0000000000
13
0.0000010403
23
-0.2000127693
33
0.0000000000
40
0.0000000000
40
0.0000000000
40
0.0000000000
40
0.0000000000
40
0.0506625436
40
0.1932059668
40
0.4144476945
40
0.6926330177
40
1.0000000000
40
1.0000000000
40
1.0000000000
40
1.0000000000
10
4.3589796487
20
-17.0223442797
30
0.0000000000
10
4.3565818504
20
-17.0247232597
30
0.0000000000
10
4.3610086068
20
-17.0399137353
30
0.0000000000
10
4.3562517785
20
-17.0654371042
30
0.0000000000
10
4.3581800946
20
-17.1093316152
30
0.0000000000
10
4.3570726676
20
-17.1626948380
30
0.0000000000
10
4.3572493996
20
-17.2018442238
30
0.0000000000
10
4.3572495062
20
-17.2223366643
30
0.0000000000
11
4.3589796487
21
-17.0223442797
31
0.0000000000
11
4.3584465644
21
-17.0324634034
31
0.0000000000
11
4.3579638663
21
-17.0609698217
31
0.0000000000
11
4.3575801305
21
-17.1052193285
31
0.0000000000
11
4.3573340195
21
-17.1608594011
31
0.0000000000
11
4.3572495062
21
-17.2223366643
31
0.0000000000
0
SPLINE
5
4ED
100
AcDbEntity
8
0
100
AcDbSpline
62
7
6
CONTINUOUS
70
0
71
3
72
16
73
12
74
10
42
0.0000001000
43
0.0000001000
44
0.0000000001
12
0.0000000000
22
-0.1024674445
32
0.0000000000
13
-0.0916510645
23
-0.0458220422
33
0.0000000000
40
0.0000000000
40
0.0000000000
40
0.0000000000
40
0.0000000000
40
0.2280397230
40
0.4162351695
40
0.5675367451
40
0.6920305970
40
0.7933353119
40
0.8747137100
40
0.9374877488
40
0.9802327601
40
1.0000000000
40
1.0000000000
40
1.0000000000
40
1.0000000000
10
9.5046542924
20
-7.4580334741
30
0.0000000000
10
9.5046542924
20
-7.4658223566
30
0.0000000000
10
9.5045747356
20
-7.4800397203
30
0.0000000000
10
9.5042530150
20
-7.4994208004
30
0.0000000000
10
9.5038199388
20
-7.5152666250
30
0.0000000000
10
9.5033097808
20
-7.5281275804
30
0.0000000000
10
9.5027631633
20
-7.5386314915
30
0.0000000000
10
9.5021221364
20
-7.5469227868
30
0.0000000000
10
9.5015717700
20
-7.5534541790
30
0.0000000000
10
9.5007360308
20
-7.5573174910
30
0.0000000000
10
9.5004027552
20
-7.5598644101
30
0.0000000000
10
9.4997988591
20
-7.5601663352
30
0.0000000000
11
9.5046542924
21
-7.4580334741
31
0.0000000000
11
9.5045201774
21
-7.4813997368
31
0.0000000000
11
9.5041938663
21
-7.5006808822
31
0.0000000000
11
9.5037600993
21
-7.5161782987
31
0.0000000000
11
9.5032491250
21
-7.5289246277
31
0.0000000000
11
9.5026809609
21
-7.5392895023
31
0.0000000000
11
9.5020582431
21
-7.5476048545
31
0.0000000000
11
9.5013736473
21
-7.5540006149
31
0.0000000000
11
9.5006218993
21
-7.5583155924
31
0.0000000000
11
9.4997988591
21
-7.5601663352
31
0.0000000000
0
SPLINE
5
4EE
100
AcDbEntity
8
0
100
AcDbSpline
62
9
6
CONTINUOUS
70
0
71
3
72
14
73
10
74
8
42
0.0000001000
43
0.0000001000
44
0.0000000001
12
0.1878905091
22
0.0045045335
32
0.0000000000
13
0.1879444978
23
0.0000000683
33
0.0000000000
40
0.0000000000
40
0.0000000000
40
0.0000000000
40
0.0000000000
40
0.0708614932
40
0.1742406007
40
0.3091857332
40
0.4698941563
40
0.6464841196
40
0.8270432235
40
1.0000000000
40
1.0000000000
40
1.0000000000
40
1.0000000000
10
-8.8996934080
20
-11.8388078126
30
0.0000000000
10
-8.8952553407
20
-11.8387014133
30
0.0000000000
10
-8.8843410455
20
-11.8385081035
30
0.0000000000
10
-8.8649725840
20
-11.8382690430
30
0.0000000000
10
-8.8399747958
20
-11.8380530348
30
0.0000000000
10
-8.8103901186
20
-11.8378754188
30
0.0000000000
10
-8.7779475250
20
-11.8377481259
30
0.0000000000
10
-8.7447374336
20
-11.8376749986
30
0.0000000000
10
-8.7225903087
20
-11.8376593959
30
0.0000000000
10
-8.7117548839
20
-11.8376593920
30
0.0000000000
11
-8.8996934080
21
-11.8388078126
31
0.0000000000
11
-8.8863778015
21
-11.8385538701
31
0.0000000000
11
-8.8669498758
21
-11.8383038472
31
0.0000000000
11
-8.8415886938
21
-11.8380771575
31
0.0000000000
11
-8.8113850013
21
-11.8378913695
31
0.0000000000
11
-8.7781961552
21
-11.8377585191
31
0.0000000000
11
-8.7442611501
21
-11.8376826014
31
0.0000000000
11
-8.7117548839
21
-11.8376593920
31
0.0000000000
0
SPLINE
5
4EF
100
AcDbEntity
8
0
100
AcDbSpline
62
9
6
CONTINUOUS
70
0
71
3
72
14
73
10
74
8
42
0.0000001000
43
0.0000001000
44
0.0000000001
12
-0.1878904758
22
0.0045057512
32
0.0000000000
13
-0.1879444936
23
0.0000000804
33
0.0000000000
40
0.0000000000
40
0.0000000000
40
0.0000000000
40
0.0000000000
40
0.0749819182
40
0.1828314865
40
0.3210403344
40
0.4827251195
40
0.6568259317
40
0.8296548588
40
1.0000000000
40
1.0000000000
40
1.0000000000
40
1.0000000000
10
8.6090019929
20
-11.8388078126
30
0.0000000000
10
8.6043058635
20
-11.8386951960
30
0.0000000000
10
8.5928533703
20
-11.8384957454
30
0.0000000000
10
8.5727422377
20
-11.8382529372
30
0.0000000000
10
8.5471987180
20
-11.8380381622
30
0.0000000000
10
8.5175043226
20
-11.8378650628
30
0.0000000000
10
8.4856407664
20
-11.8377438785
30
0.0000000000
10
8.4532345079
20
-11.8376743104
30
0.0000000000
10
8.4317352792
20
-11.8376593965
30
0.0000000000
10
8.4210634687
20
-11.8376593920
30
0.0000000000
11
8.6090019929
21
-11.8388078126
31
0.0000000000
11
8.5949120635
21
-11.8385418895
31
0.0000000000
11
8.5746439368
21
-11.8382867508
31
0.0000000000
11
8.5486693274
21
-11.8380608177
31
0.0000000000
11
8.5182821034
21
-11.8378794789
31
0.0000000000
11
8.4855610603
21
-11.8377526421
31
0.0000000000
11
8.4530788921
21
-11.8376818997
31
0.0000000000
11
8.4210634687
21
-11.8376593920
31
0.0000000000
0
SPLINE
5
4F0
100
AcDbEntity
8
0
100
AcDbSpline
62
7
6
CONTINUOUS
70
0
71
3
72
13
73
9
74
7
42
0.0000001000
43
0.0000001000
44
0.0000000001
12
-0.7840394182
22
0.0000000000
32
0.0000000000
13
-0.0008898173
23
-0.7840389132
33
0.0000000000
40
0.0000000000
40
0.0000000000
40
0.0000000000
40
0.0000000000
40
0.0323683342
40
0.1301255676
40
0.2854125059
40
0.4902519723
40
0.7361134790
40
1.0000000000
40
1.0000000000
40
1.0000000000
40
1.0000000000
10
6.2988577682
20
20.5733189410
30
0.0000000000
10
6.2903984182
20
20.5733189410
30
0.0000000000
10
6.3067538477
20
20.5187800275
30
0.0000000000
10
6.2884997135
20
20.4637506899
30
0.0000000000
10
6.2961677793
20
20.3335274232
30
0.0000000000
10
6.2912741400
20
20.1794826643
30
0.0000000000
10
6.2917636263
20
19.9911873333
30
0.0000000000
10
6.2911474438
20
19.8583508426
30
0.0000000000
10
6.2910691736
20
19.7893850756
30
0.0000000000
11
6.2988577682
21
20.5733189410
31
0.0000000000
11
6.2970081995
21
20.5480083798
31
0.0000000000
11
6.2952270044
21
20.4713835550
31
0.0000000000
11
6.2936758408
21
20.3496423560
31
0.0000000000
11
6.2924209912
21
20.1890450423
31
0.0000000000
11
6.2915267065
21
19.9962820041
31
0.0000000000
11
6.2910691736
21
19.7893850756
31
0.0000000000
0
SPLINE
5
4F1
100
AcDbEntity
8
0
100
AcDbSpline
62
7
6
CONTINUOUS
70
0
71
3
72
13
73
9
74
7
42
0.0000001000
43
0.0000001000
44
0.0000000001
12
-0.0197849928
22
0.9138467338
32
0.0000000000
13
-0.9096148487
23
0.0900451319
33
0.0000000000
40
0.0000000000
40
0.0000000000
40
0.0000000000
40
0.0000000000
40
0.2488432233
40
0.4828653475
40
0.6812291891
40
0.8362715465
40
0.9426077193
40
1.0000000000
40
1.0000000000
40
1.0000000000
40
1.0000000000
10
3.7974279442
20
-15.0314703977
30
0.0000000000
10
3.7957868238
20
-14.9556688755
30
0.0000000000
10
3.7896881585
20
-14.8086563402
30
0.0000000000
10
3.7712389637
20
-14.6016697626
30
0.0000000000
10
3.7459209089
20
-14.4248489031
30
0.0000000000
10
3.7124586525
20
-14.2871471538
30
0.0000000000
10
3.6809871503
20
-14.1982251557
30
0.0000000000
10
3.6428942318
20
-14.1552146778
30
0.0000000000
10
3.6254926082
20
-14.1534920460
30
0.0000000000
11
3.7974279442
21
-15.0314703977
31
0.0000000000
11
3.7876476250
21
-14.8042229074
31
0.0000000000
11
3.7682444556
21
-14.5911942567
31
0.0000000000
11
3.7407486378
21
-14.4119745600
31
0.0000000000
11
3.7065277005
21
-14.2744501524
31
0.0000000000
11
3.6669054868
21
-14.1856949830
31
0.0000000000
11
3.6254926082
21
-14.1534920460
31
0.0000000000
0
SPLINE
5
4F2
100
AcDbEntity
8
0
100
AcDbSpline
62
7
6
CONTINUOUS
70
0
71
3
72
10
73
6
74
4
42
0.0000001000
43
0.0000001000
44
0.0000000001
12
-0.0098380501
22
0.7120491745
32
0.0000000000
13
-0.0088207969
23
0.7120625027
33
0.0000000000
40
0.0000000000
40
0.0000000000
40
0.0000000000
40
0.0000000000
40
0.3332695243
40
0.6666036221
40
1.0000000000
40
1.0000000000
40
1.0000000000
40
1.0000000000
10
3.4683433401
20
-14.1379354325
30
0.0000000000
10
3.4672504327
20
-14.0588340027
30
0.0000000000
10
3.4651021043
20
-13.9006152928
30
0.0000000000
10
3.4619923560
20
-13.6632632772
30
0.0000000000
10
3.4599943364
20
-13.5050124839
30
0.0000000000
10
3.4590140625
20
-13.4258794642
30
0.0000000000
11
3.4683433401
21
-14.1379354325
31
0.0000000000
11
3.4651211485
21
-13.9006303686
31
0.0000000000
11
3.4620113822
21
-13.6632778168
31
0.0000000000
11
3.4590140625
21
-13.4258794642
31
0.0000000000
0
SPLINE
5
4F3
100
AcDbEntity
8
0
100
AcDbSpline
62
7
6
CONTINUOUS
70
0
71
3
72
13
73
9
74
7
42
0.0000001000
43
0.0000001000
44
0.0000000001
12
-0.9096148487
22
-0.0900451319
32
0.0000000000
13
-0.0197849928
23
-0.9138467338
33
0.0000000000
40
0.0000000000
40
0.0000000000
40
0.0000000000
40
0.0000000000
40
0.0573922807
40
0.1637284535
40
0.3187708109
40
0.5171346525
40
0.7511567767
40
1.0000000000
40
1.0000000000
40
1.0000000000
40
1.0000000000
10
-3.9161840234
20
-14.1534920460
30
0.0000000000
10
-3.9335856469
20
-14.1552146778
30
0.0000000000
10
-3.9716785654
20
-14.1982251557
30
0.0000000000
10
-4.0031500676
20
-14.2871471538
30
0.0000000000
10
-4.0366123240
20
-14.4248489031
30
0.0000000000
10
-4.0619303788
20
-14.6016697626
30
0.0000000000
10
-4.0803795736
20
-14.8086563402
30
0.0000000000
10
-4.0864782389
20
-14.9556688755
30
0.0000000000
10
-4.0881193594
20
-15.0314703977
30
0.0000000000
11
-3.9161840234
21
-14.1534920460
31
0.0000000000
11
-3.9575969019
21
-14.1856949830
31
0.0000000000
11
-3.9972191156
21
-14.2744501524
31
0.0000000000
11
-4.0314400529
21
-14.4119745600
31
0.0000000000
11
-4.0589358707
21
-14.5911942567
31
0.0000000000
11
-4.0783390401
21
-14.8042229074
31
0.0000000000
11
-4.0881193594
21
-15.0314703977
31
0.0000000000
0
SPLINE
5
4F4
100
AcDbEntity
8
0
100
AcDbSpline
62
7
6
CONTINUOUS
70
0
71
3
72
10
73
6
74
4
42
0.0000001000
43
0.0000001000
44
0.0000000001
12
0.0098380501
22
0.7120491745
32
0.0000000000
13
0.0088207969
23
0.7120625027
33
0.0000000000
40
0.0000000000
40
0.0000000000
40
0.0000000000
40
0.0000000000
40
0.3332695243
40
0.6666036221
40
1.0000000000
40
1.0000000000
40
1.0000000000
40
1.0000000000
10
-3.7590347552
20
-14.1379354325
30
0.0000000000
10
-3.7579418478
20
-14.0588340027
30
0.0000000000
10
-3.7557935194
20
-13.9006152928
30
0.0000000000
10
-3.7526837711
20
-13.6632632772
30
0.0000000000
10
-3.7506857515
20
-13.5050124839
30
0.0000000000
10
-3.7497054776
20
-13.4258794642
30
0.0000000000
11
-3.7590347552
21
-14.1379354325
31
0.0000000000
11
-3.7558125636
21
-13.9006303686
31
0.0000000000
11
-3.7527027973
21
-13.6632778168
31
0.0000000000
11
-3.7497054776
21
-13.4258794642
31
0.0000000000
0
SPLINE
5
4F5
100
AcDbEntity
8
0
100
AcDbSpline
62
7
6
CONTINUOUS
70
0
71
3
72
12
73
8
74
6
42
0.0000001000
43
0.0000001000
44
0.0000000001
12
-0.3000319640
22
0.0000000000
32
0.0000000000
13
0.0000000000
23
-0.3000319640
33
0.0000000000
40
0.0000000000
40
0.0000000000
40
0.0000000000
40
0.0000000000
40
0.3091086487
40
0.5877859069
40
0.8085354869
40
0.9509999405
40
1.0000000000
40
1.0000000000
40
1.0000000000
40
1.0000000000
10
6.6546542924
20
-13.3367943207
30
0.0000000000
10
6.6237401341
20
-13.3367943207
30
0.0000000000
10
6.5643842664
20
-13.3363622025
30
0.0000000000
10
6.4857242835
20
-13.3386662458
30
0.0000000000
10
6.4158958005
20
-13.3341513118
30
0.0000000000
10
6.3854679920
20
-13.3443755359
30
0.0000000000
10
6.3546542924
20
-13.3345118530
30
0.0000000000
10
6.3546542924
20
-13.3394123811
30
0.0000000000
11
6.6546542924
21
-13.3367943207
31
0.0000000000
11
6.5619119061
21
-13.3369225635
31
0.0000000000
11
6.4783006480
21
-13.3372944403
31
0.0000000000
11
6.4120712368
21
-13.3378720590
31
0.0000000000
11
6.3693336049
21
-13.3386034562
31
0.0000000000
11
6.3546542924
21
-13.3394123811
31
0.0000000000
0
SPLINE
5
4F6
100
AcDbEntity
8
0
100
AcDbSpline
62
7
6
CONTINUOUS
70
0
71
3
72
12
73
8
74
6
42
0.0000001000
43
0.0000001000
44
0.0000000001
12
0.0000000000
22
0.3000319640
32
0.0000000000
13
-0.3000319640
23
0.0000000000
33
0.0000000000
40
0.0000000000
40
0.0000000000
40
0.0000000000
40
0.0000000000
40
0.0490000595
40
0.1914645131
40
0.4122140931
40
0.6908913513
40
1.0000000000
40
1.0000000000
40
1.0000000000
40
1.0000000000
10
-6.6453457076
20
-13.3394123811
30
0.0000000000
10
-6.6453457076
20
-13.3345118530
30
0.0000000000
10
-6.6761594071
20
-13.3443755359
30
0.0000000000
10
-6.7065872156
20
-13.3341513118
30
0.0000000000
10
-6.7764156986
20
-13.3386662458
30
0.0000000000
10
-6.8550756815
20
-13.3363622025
30
0.0000000000
10
-6.9144315492
20
-13.3367943207
30
0.0000000000
10
-6.9453457076
20
-13.3367943207
30
0.0000000000
11
-6.6453457076
21
-13.3394123811
31
0.0000000000
11
-6.6600250200
21
-13.3386034562
31
0.0000000000
11
-6.7027626519
21
-13.3378720590
31
0.0000000000
11
-6.7689920631
21
-13.3372944403
31
0.0000000000
11
-6.8526033212
21
-13.3369225635
31
0.0000000000
11
-6.9453457076
21
-13.3367943207
31
0.0000000000
0
SPLINE
5
4F7
100
AcDbEntity
8
0
100
AcDbSpline
62
7
6
CONTINUOUS
70
0
71
3
72
13
73
9
74
7
42
0.0000001000
43
0.0000001000
44
0.0000000001
12
-0.9096148487
22
-0.0900451319
32
0.0000000000
13
-0.0197849928
23
-0.9138467338
33
0.0000000000
40
0.0000000000
40
0.0000000000
40
0.0000000000
40
0.0000000000
40
0.0573922807
40
0.1637284535
40
0.3187708109
40
0.5171346525
40
0.7511567767
40
1.0000000000
40
1.0000000000
40
1.0000000000
40
1.0000000000
10
8.0838159766
20
-14.1534920460
30
0.0000000000
10
8.0664143531
20
-14.1552146778
30
0.0000000000
10
8.0283214346
20
-14.1982251557
30
0.0000000000
10
7.9968499324
20
-14.2871471538
30
0.0000000000
10
7.9633876760
20
-14.4248489031
30
0.0000000000
10
7.9380696212
20
-14.6016697626
30
0.0000000000
10
7.9196204264
20
-14.8086563402
30
0.0000000000
10
7.9135217611
20
-14.9556688755
30
0.0000000000
10
7.9118806406
20
-15.0314703977
30
0.0000000000
11
8.0838159766
21
-14.1534920460
31
0.0000000000
11
8.0424030981
21
-14.1856949830
31
0.0000000000
11
8.0027808844
21
-14.2744501524
31
0.0000000000
11
7.9685599471
21
-14.4119745600
31
0.0000000000
11
7.9410641293
21
-14.5911942567
31
0.0000000000
11
7.9216609599
21
-14.8042229074
31
0.0000000000
11
7.9118806406
21
-15.0314703977
31
0.0000000000
0
SPLINE
5
4F8
100
AcDbEntity
8
0
100
AcDbSpline
62
7
6
CONTINUOUS
70
0
71
3
72
13
73
9
74
7
42
0.0000001000
43
0.0000001000
44
0.0000000001
12
-0.0197849928
22
0.9138467338
32
0.0000000000
13
-0.9096148487
23
0.0900451319
33
0.0000000000
40
0.0000000000
40
0.0000000000
40
0.0000000000
40
0.0000000000
40
0.2488432233
40
0.4828653475
40
0.6812291891
40
0.8362715465
40
0.9426077193
40
1.0000000000
40
1.0000000000
40
1.0000000000
40
1.0000000000
10
-8.2025720558
20
-15.0314703977
30
0.0000000000
10
-8.2042131762
20
-14.9556688755
30
0.0000000000
10
-8.2103118415
20
-14.8086563402
30
0.0000000000
10
-8.2287610363
20
-14.6016697626
30
0.0000000000
10
-8.2540790911
20
-14.4248489031
30
0.0000000000
10
-8.2875413475
20
-14.2871471538
30
0.0000000000
10
-8.3190128497
20
-14.1982251557
30
0.0000000000
10
-8.3571057682
20
-14.1552146778
30
0.0000000000
10
-8.3745073918
20
-14.1534920460
30
0.0000000000
11
-8.2025720558
21
-15.0314703977
31
0.0000000000
11
-8.2123523750
21
-14.8042229074
31
0.0000000000
11
-8.2317555444
21
-14.5911942567
31
0.0000000000
11
-8.2592513622
21
-14.4119745600
31
0.0000000000
11
-8.2934722995
21
-14.2744501524
31
0.0000000000
11
-8.3330945132
21
-14.1856949830
31
0.0000000000
11
-8.3745073918
21
-14.1534920460
31
0.0000000000
0
SPLINE
5
4F9
100
AcDbEntity
8
0
100
AcDbSpline
62
7
6
CONTINUOUS
70
0
71
3
72
12
73
8
74
6
42
0.0000001000
43
0.0000001000
44
0.0000000001
12
0.0000000000
22
-0.7821449697
32
0.0000000000
13
0.7821449697
23
0.0000000000
33
0.0000000000
40
0.0000000000
40
0.0000000000
40
0.0000000000
40
0.0000000000
40
0.1990953157
40
0.4000811767
40
0.5996316116
40
0.8010586841
40
1.0000000000
40
1.0000000000
40
1.0000000000
40
1.0000000000
10
-7.5554589693
20
-12.8368133592
30
0.0000000000
10
-7.5554589693
20
-12.8887204924
30
0.0000000000
10
-7.5389513454
20
-12.9937521451
30
0.0000000000
10
-7.4668871855
20
-13.1353103097
30
0.0000000000
10
-7.3540805856
20
-13.2481694672
30
0.0000000000
10
-7.2124496851
20
-13.3202889375
30
0.0000000000
10
-7.1073449909
20
-13.3367943207
30
0.0000000000
10
-7.0554780078
20
-13.3367943207
30
0.0000000000
11
-7.5554589693
21
-12.8368133592
31
0.0000000000
11
-7.5312101701
21
-12.9906351719
31
0.0000000000
11
-7.4599356279
21
-13.1307487145
31
0.0000000000
11
-7.3495973754
21
-13.2411371882
31
0.0000000000
11
-7.2091837930
21
-13.3125830203
31
0.0000000000
11
-7.0554780078
21
-13.3367943207
31
0.0000000000
0
SPLINE
5
4FA
100
AcDbEntity
8
0
100
AcDbSpline
62
7
6
CONTINUOUS
70
0
71
3
72
12
73
8
74
6
42
0.0000001000
43
0.0000001000
44
0.0000000001
12
0.7821449697
22
0.0000000000
32
0.0000000000
13
0.0000000000
23
0.7821449697
33
0.0000000000
40
0.0000000000
40
0.0000000000
40
0.0000000000
40
0.0000000000
40
0.1990953157
40
0.4000811767
40
0.5996316116
40
0.8010586841
40
1.0000000000
40
1.0000000000
40
1.0000000000
40
1.0000000000
10
6.7647865927
20
-13.3367943207
30
0.0000000000
10
6.8166937259
20
-13.3367943207
30
0.0000000000
10
6.9217253786
20
-13.3202866968
30
0.0000000000
10
7.0632835432
20
-13.2482225369
30
0.0000000000
10
7.1761427007
20
-13.1354159370
30
0.0000000000
10
7.2482621710
20
-12.9937850366
30
0.0000000000
10
7.2647675542
20
-12.8886803424
30
0.0000000000
10
7.2647675542
20
-12.8368133592
30
0.0000000000
11
6.7647865927
21
-13.3367943207
31
0.0000000000
11
6.9186084053
21
-13.3125455215
31
0.0000000000
11
7.0587219480
21
-13.2412709793
31
0.0000000000
11
7.1691104216
21
-13.1309327269
31
0.0000000000
11
7.2405562537
21
-12.9905191444
31
0.0000000000
11
7.2647675542
21
-12.8368133592
31
0.0000000000
0
SPLINE
5
4FB
100
AcDbEntity
8
0
100
AcDbSpline
62
7
6
CONTINUOUS
70
0
71
3
72
11
73
7
74
5
42
0.0000001000
43
0.0000001000
44
0.0000000001
12
0.0067804439
22
7.2762870155
32
0.0000000000
13
0.0173612672
23
7.2762694626
33
0.0000000000
40
0.0000000000
40
0.0000000000
40
0.0000000000
40
0.0000000000
40
0.2506865169
40
0.5009860030
40
0.7507957256
40
1.0000000000
40
1.0000000000
40
1.0000000000
40
1.0000000000
10
9.3667592795
20
13.0865865832
30
0.0000000000
10
9.3673258681
20
13.6946089324
30
0.0000000000
10
9.3686774104
20
14.9097147223
30
0.0000000000
10
9.3713620881
20
16.7307153024
30
0.0000000000
10
9.3747016606
20
18.5481197177
30
0.0000000000
10
9.3773672552
20
19.7584403621
30
0.0000000000
10
9.3788094226
20
20.3628661792
30
0.0000000000
11
9.3667592795
21
13.0865865832
31
0.0000000000
11
9.3687885924
21
14.9106532940
31
0.0000000000
11
9.3714742126
21
16.7319030053
31
0.0000000000
11
9.3748150190
21
18.5495879658
31
0.0000000000
11
9.3788094226
21
20.3628661792
31
0.0000000000
0
SPLINE
5
4FC
100
AcDbEntity
8
0
100
AcDbSpline
62
7
6
CONTINUOUS
70
0
71
3
72
9
73
5
74
3
42
0.0000001000
43
0.0000001000
44
0.0000000001
12
-0.0000966056
22
-0.0319099944
32
0.0000000000
13
-0.0000761378
23
-0.0319100498
33
0.0000000000
40
0.0000000000
40
0.0000000000
40
0.0000000000
40
0.0000000000
40
0.4966273037
40
1.0000000000
40
1.0000000000
40
1.0000000000
40
1.0000000000
10
9.3788957658
20
20.3947762027
30
0.0000000000
10
9.3788797735
20
20.3894937445
30
0.0000000000
10
9.3788492803
20
20.3788570745
30
0.0000000000
10
9.3788221978
20
20.3682203952
30
0.0000000000
10
9.3788094226
20
20.3628661792
30
0.0000000000
11
9.3788957658
21
20.3947762027
31
0.0000000000
11
9.3788503272
21
20.3789288207
31
0.0000000000
11
9.3788094226
21
20.3628661792
31
0.0000000000
0
SPLINE
5
4FD
100
AcDbEntity
8
0
100
AcDbSpline
62
7
6
CONTINUOUS
70
0
71
3
72
9
73
5
74
3
42
0.0000001000
43
0.0000001000
44
0.0000000001
12
-0.0000761378
22
0.0319100498
32
0.0000000000
13
-0.0000966056
23
0.0319099944
33
0.0000000000
40
0.0000000000
40
0.0000000000
40
0.0000000000
40
0.0000000000
40
0.5033238948
40
1.0000000000
40
1.0000000000
40
1.0000000000
40
1.0000000000
10
-9.6695008377
20
20.3628661792
30
0.0000000000
10
-9.6695136116
20
20.3682198761
30
0.0000000000
10
-9.6695406940
20
20.3788565554
30
0.0000000000
10
-9.6695711870
20
20.3894932254
30
0.0000000000
10
-9.6695871809
20
20.3947762027
30
0.0000000000
11
-9.6695008377
21
20.3628661792
31
0.0000000000
11
-9.6695417381
21
20.3789272634
31
0.0000000000
11
-9.6695871809
21
20.3947762027
31
0.0000000000
0
ENDSEC
0
SECTION
2
OBJECTS
0
DICTIONARY
5
C
100
AcDbDictionary
280
0
281
1
3
ACAD_GROUP
350
D
3
ACAD_MLINESTYLE
350
17
3
ACAD_LAYOUT
350
1A
3
ACAD_PLOTSETTINGS
350
19
3
ACAD_PLOTSTYLENAME
350
E
0
DICTIONARY
5
D
102
{ACAD_REACTORS
330
C
102
}
100
AcDbDictionary
280
0
281
1
0
ACDBDICTIONARYWDFLT
5
E
102
{ACAD_REACTORS
330
C
102
}
100
AcDbDictionary
281
1
3
Normal
350
F
100
AcDbDictionaryWithDefault
340
F
0
DICTIONARY
5
17
102
{ACAD_REACTORS
330
C
102
}
100
AcDbDictionary
280
0
281
1
3
Standard
350
18
0
DICTIONARY
5
19
102
{ACAD_REACTORS
330
C
102
}
100
AcDbDictionary
281
1
0
DICTIONARY
5
1A
102
{ACAD_REACTORS
330
C
102
}
100
AcDbDictionary
281
1
3
Layout1
350
1E
3
Model
350
22
0
ACDBPLACEHOLDER
5
F
102
{ACAD_REACTORS
330
E
102
}
0
MLINESTYLE
5
18
102
{ACAD_REACTORS
330
17
102
}
100
AcDbMlineStyle
2
STANDARD
70
0
3

62
256
51
90.0
52
90.0
71
2
49
0.5
62
256
6
BYLAYER
49
-0.5
62
256
6
BYLAYER
0
LAYOUT
5
1E
102
{ACAD_REACTORS
330
1A
102
}
100
AcDbPlotSettings
1

2

4

6

40
0.0
41
0.0
42
0.0
43
0.0
44
0.0
45
0.0
46
0.0
47
0.0
48
0.0
49
0.0
140
0.0
141
0.0
142
1.0
143
1.0
70
0
72
0
73
0
74
0
7

75
0
147
1.0
148
0.0
149
0.0
100
AcDbLayout
1
Layout1
70
0
71
0
10
0.0
20
0.0
11
0.0
21
0.0
12
0.0
22
0.0
32
0.0
14
0.0
24
0.0
34
0.0
15
0.0
25
0.0
35
0.0
146
0.0
13
0.0
23
0.0
33
0.0
16
0.0
26
0.0
36
0.0
17
0.0
27
0.0
37
0.0
76
0
330
1B
331
0
345
0
346
0
0
LAYOUT
5
22
102
{ACAD_REACTORS
330
1A
102
}
100
AcDbPlotSettings
1

2

4

6

40
0.0
41
0.0
42
0.0
43
0.0
44
0.0
45
0.0
46
0.0
47
0.0
48
0.0
49
0.0
140
0.0
141
0.0
142
1.0
143
1.0
70
0
72
0
73
0
74
0
7

75
0
147
1.0
148
0.0
149
0.0
100
AcDbLayout
1
Model
70
0
71
0
10
0.0
20
0.0
11
0.0
21
0.0
12
0.0
22
0.0
32
0.0
14
0.0
24
0.0
34
0.0
15
0.0
25
0.0
35
0.0
146
0.0
13
0.0
23
0.0
33
0.0
16
0.0
26
0.0
36
0.0
17
0.0
27
0.0
37
0.0
76
0
330
1F
331
0
345
0
346
0
0
ENDSEC
0
EOF
