  0
SECTION
  2
HEADER
  9
$ACADVER
  1
AC1015
  9
$DWGCODEPAGE
  3
ANSI_1252
  9
$EXTMAX
 10
297.0
 20
210.0
 30
0.0
  9
$EXTMIN
 10
0.0
 20
0.0
 30
0.0
  9
$LIMMIN
 10
0.0
 20
0.0
  9
$LIMMAX
 10
297.0
 20
210.0
  9
$VIEWCTR
 10
148.5
 20
105.0
  9
$VIEWSIZE
 40
210.0
  9
$CLAYER
  8
0
  9
$LTSCALE
 40
16.335
  9
$CELTYPE
  6
BYLAYER
  9
$DIMSCALE
 40
1.0
  9
$DIMASZ
 40
3.0
  9
$DIMEXO
 40
1.85625
  9
$DIMDLI
 40
11.286
  9
$DIMEXE
 40
5.346
  9
$DIMCEN
 40
2.673
  9
$DIMLFAC
 40
1.0
  9
$DIMBLK
  1
_FILLED
  9
$DIMTXT
 40
3.0
  9
$DIMTOL
 70
1
  9
$DIMLIM
 70
0
  9
$DIMTFAC
 40
1.0
  9
$DIMTP
 40
0.01
  9
$DIMTM
 40
0.01
  9
$PDMODE
 70
3
  9
$PDSIZE
 40
3.0
  9
$HANDSEED
  5
8A2
  9
$TILEMODE
 70
1
  9
$MEASUREMENT
 70
1
  9
$INSUNITS
 70
4
  0
ENDSEC
  0
SECTION
  2
CLASSES
  0
CLASS
  1
ACDBDICTIONARYWDFLT
  2
AcDbDictionaryWithDefault
  3
AutoCAD 2000
 90
0
280
0
281
0
  0
CLASS
  1
ACDBPLACEHOLDER
  2
AcDbPlaceHolder
  3
AutoCAD 2000
 90
0
280
0
281
0
  0
CLASS
  1
LAYOUT
  2
AcDbLayout
  3
AutoCAD 2000
 90
0
280
0
281
0
  0
ENDSEC
  0
SECTION
  2
TABLES
  0
TABLE
  2
VPORT
  5
8
100
AcDbSymbolTable
 70
2
  0
VPORT
  5
1F4
100
AcDbSymbolTableRecord
100
AcDbViewportTableRecord
  2
*ACTIVE
 70
0
 10
0.0
 20
0.0
 11
1.0
 21
1.0
 12
148.5
 22
105.0
 13
0.0
 23
0.0
 14
1.0
 24
1.0
 15
0.0
 25
0.0
 16
0.0
 26
0.0
 36
1.0
 17
0.0
 27
0.0
 37
0.0
 40
210.0
 41
1.4142857143
 42
50.0
 43
0.0
 44
0.0
 50
0.0
 51
0.0
 71
0
 72
100
 73
1
 74
1
 75
0
 76
0
 77
0
 78
0
  0
ENDTAB
  0
TABLE
  2
LTYPE
  5
5
100
AcDbSymbolTable
 70
6
  0
LTYPE
  5
14
100
AcDbSymbolTableRecord
100
AcDbLinetypeTableRecord
  2
BYBLOCK
 70
0
  3

 72
65
 73
0
 40
0.0
  0
LTYPE
  5
15
100
AcDbSymbolTableRecord
100
AcDbLinetypeTableRecord
  2
BYLAYER
 70
0
  3

 72
65
 73
0
 40
0.0
  0
LTYPE
  5
16
100
AcDbSymbolTableRecord
100
AcDbLinetypeTableRecord
  2
CONTINUOUS
 70
64
  3
Solid line
 72
65
 73
0
 40
0.0
  0
LTYPE
  5
1F5
100
AcDbSymbolTableRecord
100
AcDbLinetypeTableRecord
  2
CENTER
 70
64
  3
____ _ ____ _ ____ _ ____ _ ____ _ ____ _ ____
 72
65
 73
4
 40
0.6
 49
0.375
 74
0
 49
-0.075
 74
0
 49
0.075
 74
0
 49
-0.075
 74
0
  0
LTYPE
  5
1F6
100
AcDbSymbolTableRecord
100
AcDbLinetypeTableRecord
  2
HIDDEN
 70
64
  3
- - - - - - - - - - - - - - - - - - - -
 72
65
 73
2
 40
0.2
 49
0.1
 74
0
 49
-0.1
 74
0
  0
LTYPE
  5
1F7
100
AcDbSymbolTableRecord
100
AcDbLinetypeTableRecord
  2
PHANTOM
 70
64
  3
_____ _ _ _____ _ _ _____ _ _ _____
 72
65
 73
6
 40
0.8
 49
0.45
 74
0
 49
-0.05
 74
0
 49
0.1
 74
0
 49
-0.05
 74
0
 49
0.1
 74
0
 49
-0.05
 74
0
  0
LTYPE
  5
1F8
100
AcDbSymbolTableRecord
100
AcDbLinetypeTableRecord
  2
DOT
 70
64
  3
. . . . . . . . . . . . . . . . . . . .
 72
65
 73
2
 40
0.2
 49
0.1
 74
0
 49
-0.1
 74
0
  0
LTYPE
  5
1F9
100
AcDbSymbolTableRecord
100
AcDbLinetypeTableRecord
  2
DASHED
 70
64
  3
- - - - - - - - - - - - - - - - - - - -
 72
65
 73
2
 40
0.2
 49
0.1
 74
0
 49
-0.1
 74
0
  0
ENDTAB
  0
TABLE
  2
LAYER
  5
2
100
AcDbSymbolTable
 70
36
  0
LAYER
  5
10
100
AcDbSymbolTableRecord
100
AcDbLayerTableRecord
  2
0
 70
0
 62
7
  6
CONTINUOUS
370
-3
390
F
  0
LAYER
  5
1FA
100
AcDbSymbolTableRecord
100
AcDbLayerTableRecord
  2
DEFAULT_1
 70
0
 62
7
  6
CENTER
370
-3
390
F
  0
LAYER
  5
1FB
100
AcDbSymbolTableRecord
100
AcDbLayerTableRecord
  2
DEFAULT_2
 70
0
 62
7
  6
HIDDEN
370
-3
390
F
  0
LAYER
  5
1FC
100
AcDbSymbolTableRecord
100
AcDbLayerTableRecord
  2
DEFAULT_3
 70
0
 62
7
  6
PHANTOM
370
-3
390
F
  0
LAYER
  5
1FD
100
AcDbSymbolTableRecord
100
AcDbLayerTableRecord
  2
ASSI
 70
0
 62
7
  6
CONTINUOUS
370
-3
390
F
  0
LAYER
  5
1FE
100
AcDbSymbolTableRecord
100
AcDbLayerTableRecord
  2
COLOR17
 70
0
 62
7
  6
CONTINUOUS
370
-3
390
F
  0
LAYER
  5
1FF
100
AcDbSymbolTableRecord
100
AcDbLayerTableRecord
  2
COLOR3
 70
0
 62
7
  6
CONTINUOUS
370
-3
390
F
  0
LAYER
  5
200
100
AcDbSymbolTableRecord
100
AcDbLayerTableRecord
  2
COLOR5
 70
0
 62
7
  6
CONTINUOUS
370
-3
390
F
  0
LAYER
  5
201
100
AcDbSymbolTableRecord
100
AcDbLayerTableRecord
  2
COORDINATE
 70
0
 62
7
  6
CONTINUOUS
370
-3
390
F
  0
LAYER
  5
202
100
AcDbSymbolTableRecord
100
AcDbLayerTableRecord
  2
COORD_ORIGINE
 70
0
 62
7
  6
CONTINUOUS
370
-3
390
F
  0
LAYER
  5
203
100
AcDbSymbolTableRecord
100
AcDbLayerTableRecord
  2
COPY_PUBLISH
 70
0
 62
7
  6
CONTINUOUS
370
-3
390
F
  0
LAYER
  5
204
100
AcDbSymbolTableRecord
100
AcDbLayerTableRecord
  2
COSMETICI
 70
0
 62
7
  6
CONTINUOUS
370
-3
390
F
  0
LAYER
  5
205
100
AcDbSymbolTableRecord
100
AcDbLayerTableRecord
  2
CURVE
 70
0
 62
7
  6
CONTINUOUS
370
-3
390
F
  0
LAYER
  5
206
100
AcDbSymbolTableRecord
100
AcDbLayerTableRecord
  2
DRAFT
 70
0
 62
7
  6
CONTINUOUS
370
-3
390
F
  0
LAYER
  5
207
100
AcDbSymbolTableRecord
100
AcDbLayerTableRecord
  2
IMPORT
 70
0
 62
7
  6
CONTINUOUS
370
-3
390
F
  0
LAYER
  5
208
100
AcDbSymbolTableRecord
100
AcDbLayerTableRecord
  2
IMPORT_IGES
 70
0
 62
7
  6
CONTINUOUS
370
-3
390
F
  0
LAYER
  5
209
100
AcDbSymbolTableRecord
100
AcDbLayerTableRecord
  2
INCISIONI_LASER
 70
0
 62
7
  6
CONTINUOUS
370
-3
390
F
  0
LAYER
  5
20A
100
AcDbSymbolTableRecord
100
AcDbLayerTableRecord
  2
NOTE
 70
0
 62
7
  6
CONTINUOUS
370
-3
390
F
  0
LAYER
  5
20B
100
AcDbSymbolTableRecord
100
AcDbLayerTableRecord
  2
PIANI
 70
0
 62
7
  6
CONTINUOUS
370
-3
390
F
  0
LAYER
  5
20C
100
AcDbSymbolTableRecord
100
AcDbLayerTableRecord
  2
PIANI_ORIGINE
 70
0
 62
7
  6
CONTINUOUS
370
-3
390
F
  0
LAYER
  5
20D
100
AcDbSymbolTableRecord
100
AcDbLayerTableRecord
  2
PIANI_SFORMI
 70
0
 62
7
  6
CONTINUOUS
370
-3
390
F
  0
LAYER
  5
20E
100
AcDbSymbolTableRecord
100
AcDbLayerTableRecord
  2
PUNTI
 70
0
 62
7
  6
CONTINUOUS
370
-3
390
F
  0
LAYER
  5
20F
100
AcDbSymbolTableRecord
100
AcDbLayerTableRecord
  2
RACCORDO
 70
0
 62
7
  6
CONTINUOUS
370
-3
390
F
  0
LAYER
  5
210
100
AcDbSymbolTableRecord
100
AcDbLayerTableRecord
  2
SIMBOLI
 70
0
 62
7
  6
CONTINUOUS
370
-3
390
F
  0
LAYER
  5
211
100
AcDbSymbolTableRecord
100
AcDbLayerTableRecord
  2
SMUSSO
 70
0
 62
7
  6
CONTINUOUS
370
-3
390
F
  0
LAYER
  5
212
100
AcDbSymbolTableRecord
100
AcDbLayerTableRecord
  2
SNAPLINE
 70
0
 62
7
  6
CONTINUOUS
370
-3
390
F
  0
LAYER
  5
213
100
AcDbSymbolTableRecord
100
AcDbLayerTableRecord
  2
SUPERFICI
 70
0
 62
7
  6
CONTINUOUS
370
-3
390
F
  0
LAYER
  5
214
100
AcDbSymbolTableRecord
100
AcDbLayerTableRecord
  2
TRASH
 70
0
 62
7
  6
CONTINUOUS
370
-3
390
F
  0
LAYER
  5
215
100
AcDbSymbolTableRecord
100
AcDbLayerTableRecord
  2
XSEC_DATUMS
 70
0
 62
7
  6
CONTINUOUS
370
-3
390
F
  0
LAYER
  5
216
100
AcDbSymbolTableRecord
100
AcDbLayerTableRecord
  2
___SHELL
 70
0
 62
7
  6
CONTINUOUS
370
-3
390
F
  0
ENDTAB
  0
TABLE
  2
STYLE
  5
3
100
AcDbSymbolTable
 70
1
  0
STYLE
  5
11
100
AcDbSymbolTableRecord
100
AcDbTextStyleTableRecord
  2
STANDARD
 70
0
 40
0.0
 41
0.8
 50
0.0
 71
0
 42
0.2
  3
txt
  4

  0
STYLE
  5
217
100
AcDbSymbolTableRecord
100
AcDbTextStyleTableRecord
  2
TEXTSTYLE_1
 70
0
 40
0.0
 41
0.8
 50
0.0
 71
0
 42
0.2
  3
gdt
  4

  0
ENDTAB
  0
TABLE
  2
VIEW
  5
6
100
AcDbSymbolTable
 70
0
  0
ENDTAB
  0
TABLE
  2
UCS
  5
7
100
AcDbSymbolTable
 70
0
  0
ENDTAB
  0
TABLE
  2
APPID
  5
9
100
AcDbSymbolTable
 70
1
  0
APPID
  5
218
100
AcDbSymbolTableRecord
100
AcDbRegAppTableRecord
  2
ACAD
 70
0
  0
ENDTAB
  0
TABLE
  2
BLOCK_RECORD
  5
1
100
AcDbSymbolTable
 70
0
  0
BLOCK_RECORD
  5
219
100
AcDbSymbolTableRecord
100
AcDbBlockTableRecord
  2
*Model_Space
  0
BLOCK_RECORD
  5
21A
100
AcDbSymbolTableRecord
100
AcDbBlockTableRecord
  2
*Paper_Space
  0
ENDTAB
  0
TABLE
  2
DIMSTYLE
  5
A
100
AcDbSymbolTable
 70
1
100
AcDbDimStyleTable
 71
0
  0
DIMSTYLE
105
21B
100
AcDbSymbolTableRecord
100
AcDbDimStyleTableRecord
  2
STANDARD
 70
0
  3

  4

 40
1.0
 41
3.0
 42
0.0625
 43
0.38
 44
0.18
 45
0.0
 46
0.0
 47
0.01
 48
0.01
140
3.0
141
0.09
142
0.0
143
25.4
144
1.0
145
0.0
146
1.0
147
0.09
 71
1.0
 72
0.0
 73
0
 74
0
 75
0
 76
0
 77
1
 78
8
170
0
171
2
172
0
173
0
174
0
175
0
176
0
177
0
178
0
270
2
271
2
272
2
273
2
274
2
275
0
280
0
281
0
282
0
283
1
284
8
285
0
286
0
287
3
288
0
340
11
  0
ENDTAB
  0
ENDSEC
  0
SECTION
  2
BLOCKS
  0
BLOCK
  5
20
100
AcDbEntity
  8
0
100
AcDbBlockBegin
  2
*Model_Space
 70
0
 10
0.0
 20
0.0
 30
0.0
  3
*Model_Space
  1

  0
ENDBLK
  5
21
100
AcDbEntity
  8
0
100
AcDbBlockEnd
  0
BLOCK
  5
1C
100
AcDbEntity
  8
0
100
AcDbBlockBegin
  2
*Paper_Space
 70
0
 10
0.0
 20
0.0
 30
0.0
  3
*Paper_Space
  1

  0
ENDBLK
  5
1D
100
AcDbEntity
  8
0
100
AcDbBlockEnd
  0
ENDSEC
  0
SECTION
  2
ENTITIES
  0
LWPOLYLINE
  5
21C
100
AcDbEntity
  8
0
100
AcDbPolyline
 62
7
  6
CONTINUOUS
 90
12
 70
0
 10
-11.9417112724
 20
24.4665073916
 10
-11.9518713501
 20
24.4603145581
 10
-11.9617252493
 20
24.4536452955
 10
-11.971250648
 20
24.4465147107
 10
-11.9804259632
 20
24.4389389589
 10
-11.9892304102
 20
24.4309352005
 10
-11.9976440446
 20
24.4225215661
 10
-12.005647803
 20
24.4137171191
 10
-12.0132235549
 20
24.4045418038
 10
-12.0203541396
 20
24.3950164051
 10
-12.0270234023
 20
24.3851625059
 10
-12.0332162358
 20
24.3750024283
  0
LWPOLYLINE
  5
21D
100
AcDbEntity
  8
0
100
AcDbPolyline
 62
7
  6
CONTINUOUS
 90
12
 70
0
 10
-11.9417112724
 20
-24.4665073916
 10
-11.9312680318
 20
-24.4722097688
 10
-11.9205652905
 20
-24.4774087722
 10
-11.9096272935
 20
-24.4820926258
 10
-11.8984788179
 20
-24.4862507213
 10
-11.8871451232
 20
-24.4898736417
 10
-11.875651883
 20
-24.4929531817
 10
-11.8640251316
 20
-24.4954823677
 10
-11.8522912103
 20
-24.4974554741
 10
-11.8404766997
 20
-24.4988680342
 10
-11.8286083602
 20
-24.4997168498
 10
-11.8167130749
 20
-24.5
  0
LWPOLYLINE
  5
21E
100
AcDbEntity
  8
0
100
AcDbPolyline
 62
7
  6
CONTINUOUS
 90
8
 70
0
 10
8.0306074433
 20
-24.4954823677
 10
8.0422341946
 20
-24.4929531817
 10
8.0537274348
 20
-24.4898736417
 10
8.0650611296
 20
-24.4862507213
 10
8.0762096051
 20
-24.4820926258
 10
8.0871476021
 20
-24.4774087722
 10
8.0978503434
 20
-24.4722097688
 10
8.1082935841
 20
-24.4665073916
  0
LWPOLYLINE
  5
21F
100
AcDbEntity
  8
0
100
AcDbPolyline
 62
7
  6
CONTINUOUS
 90
5
 70
0
 10
7.9832953866
 20
-24.5
 10
7.9951906719
 20
-24.4997168498
 10
8.0070590114
 20
-24.4988680342
 10
8.018873522
 20
-24.4974554741
 10
8.0306074433
 20
-24.4954823677
  0
LWPOLYLINE
  5
220
100
AcDbEntity
  8
0
100
AcDbPolyline
 62
7
  6
CONTINUOUS
 90
34
 70
0
 10
7.9789235526
 20
-24.495628166
 10
7.9907990242
 20
-24.4953455463
 10
8.0026527667
 20
-24.4944986445
 10
8.0144579422
 20
-24.4930886486
 10
8.0261894369
 20
-24.4911177026
 10
8.0378188721
 20
-24.4885897127
 10
8.0493148377
 20
-24.4855111341
 10
8.0606496028
 20
-24.4818895243
 10
8.0717992148
 20
-24.4777326699
 10
8.082738616
 20
-24.4730498963
 10
8.0934431508
 20
-24.467851711
 10
8.1038884042
 20
-24.4621499225
 10
8.1140504798
 20
-24.4559575601
 10
8.1239062645
 20
-24.4492887229
 10
8.133433526
 20
-24.4421584695
 10
8.1426107393
 20
-24.4345829086
 10
8.1514171308
 20
-24.4265791771
 10
8.1598327171
 20
-24.4181654255
 10
8.1678384112
 20
-24.4093607299
 10
8.1754160677
 20
-24.4001850429
 10
8.1825485188
 20
-24.3906591487
 10
8.1892195989
 20
-24.3808046326
 10
8.1954141912
 20
-24.3706438204
 10
8.2011182564
 20
-24.3601997352
 10
8.2063188641
 20
-24.3494960488
 10
8.2110042284
 20
-24.3385570152
 10
8.2151637327
 20
-24.3274074189
 10
8.2187879498
 20
-24.3160725264
 10
8.2218686684
 20
-24.3045780153
 10
8.2243989055
 20
-24.292949936
 10
8.2263729241
 20
-24.2812146563
 10
8.2277862529
 20
-24.269398774
 10
8.228635693
 20
-24.2575290557
 10
8.2289193218
 20
-24.2456323968
  0
LWPOLYLINE
  5
221
100
AcDbEntity
  8
0
100
AcDbPolyline
 62
7
  6
CONTINUOUS
 90
5
 70
0
 10
-9.4167046134
 20
-24.5
 10
-9.4048093281
 20
-24.4997168498
 10
-9.3929409886
 20
-24.4988680342
 10
-9.381126478
 20
-24.4974554741
 10
-9.3693925567
 20
-24.4954823677
  0
LWPOLYLINE
  5
222
100
AcDbEntity
  8
0
100
AcDbPolyline
 62
7
  6
CONTINUOUS
 90
34
 70
0
 10
-9.4210764474
 20
-24.495628166
 10
-9.4091814258
 20
-24.4953446152
 10
-9.3973133492
 20
-24.4944954103
 10
-9.3854991013
 20
-24.4930824749
 10
-9.373765444
 20
-24.4911090096
 10
-9.3621389568
 20
-24.4885794848
 10
-9.3506459762
 20
-24.4854996304
 10
-9.3393125364
 20
-24.481876423
 10
-9.3281643101
 20
-24.47771807
 10
-9.3172265507
 20
-24.4730339909
 10
-9.3065240346
 20
-24.4678347962
 10
-9.2960810053
 20
-24.4621322634
 10
-9.2859211187
 20
-24.4559393098
 10
-9.2760673892
 20
-24.449269964
 10
-9.2665421377
 20
-24.4421393334
 10
-9.2573669411
 20
-24.4345635707
 10
-9.2485625831
 20
-24.4265598365
 10
-9.2401490077
 20
-24.4181462611
 10
-9.2321452735
 20
-24.4093419031
 10
-9.2245695107
 20
-24.4001667064
 10
-9.2174388802
 20
-24.390641455
 10
-9.2107695343
 20
-24.3807877255
 10
-9.2045765808
 20
-24.3706278389
 10
-9.1988740479
 20
-24.3601848096
 10
-9.1936748533
 20
-24.3494822935
 10
-9.1889907742
 20
-24.338544534
 10
-9.1848324211
 20
-24.3273963078
 10
-9.1812092137
 20
-24.316062868
 10
-9.1781293594
 20
-24.3045698874
 10
-9.1755998346
 20
-24.2929434001
 10
-9.1736263693
 20
-24.2812097429
 10
-9.1722134339
 20
-24.269395495
 10
-9.171364229
 20
-24.2575274183
 10
-9.1710806782
 20
-24.2456323968
  0
LINE
  5
223
100
AcDbEntity
  8
0
100
AcDbLine
 62
7
  6
CONTINUOUS
 10
-11.8123412409
 20
-24.495628166
 11
-9.4210764474
 21
-24.495628166
  0
LINE
  5
224
100
AcDbEntity
  8
0
100
AcDbLine
 62
7
  6
CONTINUOUS
 10
5.5876587591
 20
-24.495628166
 11
7.9789235526
 21
-24.495628166
  0
LINE
  5
225
100
AcDbEntity
  8
0
100
AcDbLine
 62
253
  6
CONTINUOUS
 10
5.3376629898
 20
-24.2456323968
 11
8.2289193218
 21
-24.2456323968
  0
LINE
  5
226
100
AcDbEntity
  8
0
100
AcDbLine
 62
253
  6
CONTINUOUS
 10
-9.1710806782
 20
-24.2456323968
 11
-12.0623370102
 21
-24.2456323968
  0
LINE
  5
227
100
AcDbEntity
  8
0
100
AcDbLine
 62
7
  6
CONTINUOUS
 10
-6.3667088442
 20
-24.0
 11
-3.1167088442
 21
-24.0
  0
LINE
  5
228
100
AcDbEntity
  8
0
100
AcDbLine
 62
7
  6
CONTINUOUS
 10
-0.7167088442
 20
-24.0
 11
2.5332911558
 21
-24.0
  0
LINE
  5
229
100
AcDbEntity
  8
0
100
AcDbLine
 62
7
  6
CONTINUOUS
 10
-5.4167088442
 20
-23.9941821702
 11
-3.1167088442
 21
-23.9941821702
  0
LINE
  5
22A
100
AcDbEntity
  8
0
100
AcDbLine
 62
7
  6
CONTINUOUS
 10
-0.7167088442
 20
-23.9941821702
 11
1.5832911558
 21
-23.9941821702
  0
LINE
  5
22B
100
AcDbEntity
  8
0
100
AcDbLine
 62
7
  6
CONTINUOUS
 10
-6.3230581973
 20
-23.9563493531
 11
-5.4167088442
 21
-23.9563493531
  0
LINE
  5
22C
100
AcDbEntity
  8
0
100
AcDbLine
 62
7
  6
CONTINUOUS
 10
1.5832911558
 20
-23.9563493531
 11
2.489640509
 21
-23.9563493531
  0
LINE
  5
22D
100
AcDbEntity
  8
0
100
AcDbLine
 62
253
  6
CONTINUOUS
 10
5.3376629898
 20
-23.8443375673
 11
8.2289193218
 21
-23.8443375673
  0
LINE
  5
22E
100
AcDbEntity
  8
0
100
AcDbLine
 62
253
  6
CONTINUOUS
 10
-9.1710806782
 20
-23.8443375673
 11
-12.0623370102
 21
-23.8443375673
  0
LWPOLYLINE
  5
22F
100
AcDbEntity
  8
0
100
AcDbPolyline
 62
7
  6
CONTINUOUS
 90
12
 70
0
 10
-12.0332162358
 20
24.3750024283
 10
-12.038918613
 20
24.3645591876
 10
-12.0441176163
 20
24.3538564463
 10
-12.0488014699
 20
24.3429184493
 10
-12.0529595655
 20
24.3317699738
 10
-12.0565824859
 20
24.320436279
 10
-12.0596620259
 20
24.3089430388
 10
-12.0621912119
 20
24.2973162875
 10
-12.0641643183
 20
24.2855823661
 10
-12.0655768784
 20
24.2737678556
 10
-12.0664256939
 20
24.261899516
 10
-12.0667088442
 20
24.2500042308
  0
LINE
  5
230
100
AcDbEntity
  8
0
100
AcDbLine
 62
7
  6
CONTINUOUS
 10
-11.5667088442
 20
20.1990396502
 11
-10.8666025066
 21
20.9
  0
LINE
  5
231
100
AcDbEntity
  8
DRAFT
100
AcDbLine
 62
7
  6
CONTINUOUS
 10
-10.1667088442
 20
21.4
 11
-9.172526674
 21
22.3941821702
  0
LINE
  5
232
100
AcDbEntity
  8
DRAFT
100
AcDbLine
 62
7
  6
CONTINUOUS
 10
-9.983278346
 20
21.4537354271
 11
-10.1667088442
 21
21.4
  0
LWPOLYLINE
  5
233
100
AcDbEntity
  8
0
100
AcDbPolyline
 62
7
  6
CONTINUOUS
 90
40
 70
0
 10
8.7327990023
 20
-22.4
 10
8.7528125111
 20
-22.3995989119
 10
8.7728297534
 20
-22.3983931752
 10
8.7928182794
 20
-22.3963803578
 10
8.8127632306
 20
-22.3935564624
 10
8.8326136075
 20
-22.3899231464
 10
8.8522836345
 20
-22.3854948974
 10
8.8717238792
 20
-22.380286152
 10
8.8909216682
 20
-22.3743036902
 10
8.9098481997
 20
-22.3675586046
 10
8.9284563319
 20
-22.36007091
 10
8.9467345735
 20
-22.3518484808
 10
8.9647055877
 20
-22.3428793991
 10
8.9823691142
 20
-22.333155703
 10
8.9996616413
 20
-22.3227040858
 10
9.0165115654
 20
-22.3115654086
 10
9.0328867475
 20
-22.2997623963
 10
9.0487664511
 20
-22.2873115832
 10
9.0641027489
 20
-22.2742541204
 10
9.0788479696
 20
-22.2606393471
 10
9.0930090625
 20
-22.2464698921
 10
9.1066174675
 20
-22.2317142956
 10
9.1196700114
 20
-22.2163658932
 10
9.1321175927
 20
-22.2004718186
 10
9.1439200353
 20
-22.1840786325
 10
9.1550609306
 20
-22.1672060781
 10
9.1655166312
 20
-22.1498868057
 10
9.1752455938
 20
-22.1321932748
 10
9.1842210869
 20
-22.1141884054
 10
9.1924504804
 20
-22.0958728483
 10
9.1999445463
 20
-22.0772264828
 10
9.2066949458
 20
-22.0582621661
 10
9.2126821976
 20
-22.0390258389
 10
9.2178956633
 20
-22.019545063
 10
9.2223284599
 20
-21.9998321985
 10
9.2259658655
 20
-21.9799370232
 10
9.2287933366
 20
-21.9599450105
 10
9.2308090173
 20
-21.9399070889
 10
9.2320166341
 20
-21.9198382917
 10
9.2324184026
 20
-21.8997711479
  0
LINE
  5
234
100
AcDbEntity
  8
0
100
AcDbLine
 62
253
  6
CONTINUOUS
 10
7.9789235526
 20
-23.6278312164
 11
5.5876587591
 21
-23.6278312164
  0
LINE
  5
235
100
AcDbEntity
  8
0
100
AcDbLine
 62
253
  6
CONTINUOUS
 10
-9.4210764474
 20
-23.6278312164
 11
-11.8123412409
 21
-23.6278312164
  0
LINE
  5
236
100
AcDbEntity
  8
0
100
AcDbLine
 62
7
  6
CONTINUOUS
 10
-11.817431842
 20
-23.1226497308
 11
-9.4159858463
 21
-23.1226497308
  0
LINE
  5
237
100
AcDbEntity
  8
0
100
AcDbLine
 62
7
  6
CONTINUOUS
 10
7.9840141537
 20
-23.1226497308
 11
5.582568158
 21
-23.1226497308
  0
LINE
  5
238
100
AcDbEntity
  8
RACCORDO
100
AcDbLine
 62
7
  6
CONTINUOUS
 10
-12.5662166906
 20
-22.4
 11
-6.3667088442
 21
-22.4
  0
LINE
  5
239
100
AcDbEntity
  8
RACCORDO
100
AcDbLine
 62
7
  6
CONTINUOUS
 10
2.5332911558
 20
-22.4
 11
8.7327990023
 21
-22.4
  0
LINE
  5
23A
100
AcDbEntity
  8
0
100
AcDbLine
 62
7
  6
CONTINUOUS
 10
-2.9167088442
 20
-22.3947639644
 11
-0.9167088442
 21
-22.3947639644
  0
LINE
  5
23B
100
AcDbEntity
  8
DRAFT
100
AcDbLine
 62
7
  6
CONTINUOUS
 10
-12.5584246659
 20
-22.3941821702
 11
-9.172526674
 21
-22.3941821702
  0
LINE
  5
23C
100
AcDbEntity
  8
0
100
AcDbLine
 62
7
  6
CONTINUOUS
 10
-5.4167088442
 20
-22.3941821702
 11
-4.9167088442
 21
-22.3941821702
  0
LINE
  5
23D
100
AcDbEntity
  8
0
100
AcDbLine
 62
7
  6
CONTINUOUS
 10
1.0832911558
 20
-22.3941821702
 11
1.5832911558
 21
-22.3941821702
  0
LINE
  5
23E
100
AcDbEntity
  8
DRAFT
100
AcDbLine
 62
7
  6
CONTINUOUS
 10
5.3391089857
 20
-22.3941821702
 11
8.7250069775
 21
-22.3941821702
  0
LINE
  5
23F
100
AcDbEntity
  8
DRAFT
100
AcDbLine
 62
253
  6
CONTINUOUS
 10
-9.1072504704
 20
-22.3359700255
 11
-4.9167088442
 21
-22.3359700255
  0
LINE
  5
240
100
AcDbEntity
  8
DRAFT
100
AcDbLine
 62
253
  6
CONTINUOUS
 10
1.0832911558
 20
-22.3359700255
 11
5.273832782
 21
-22.3359700255
  0
LINE
  5
241
100
AcDbEntity
  8
DRAFT
100
AcDbLine
 62
7
  6
CONTINUOUS
 10
-9.983278346
 20
-21.4537354271
 11
-10.1667088442
 21
-21.4
  0
LINE
  5
242
100
AcDbEntity
  8
DRAFT
100
AcDbLine
 62
7
  6
CONTINUOUS
 10
-9.172526674
 20
-22.3941821702
 11
-10.1667088442
 21
-21.4
  0
LINE
  5
243
100
AcDbEntity
  8
0
100
AcDbLine
 62
7
  6
CONTINUOUS
 10
-11.5667088442
 20
-20.1990396502
 11
-10.8666025066
 21
-20.9
  0
LINE
  5
244
100
AcDbEntity
  8
0
100
AcDbLine
 62
7
  6
CONTINUOUS
 10
-11.5300532078
 20
-20.0889833137
 11
-10.8299468702
 21
-20.7899436635
  0
LWPOLYLINE
  5
245
100
AcDbEntity
  8
0
100
AcDbPolyline
 62
7
  6
CONTINUOUS
 90
12
 70
0
 10
-12.0332162358
 20
-24.3750024283
 10
-12.0270234023
 20
-24.3851625059
 10
-12.0203541396
 20
-24.3950164051
 10
-12.0132235549
 20
-24.4045418038
 10
-12.005647803
 20
-24.4137171191
 10
-11.9976440446
 20
-24.4225215661
 10
-11.9892304102
 20
-24.4309352005
 10
-11.9804259632
 20
-24.4389389589
 10
-11.971250648
 20
-24.4465147107
 10
-11.9617252493
 20
-24.4536452955
 10
-11.9518713501
 20
-24.4603145581
 10
-11.9417112724
 20
-24.4665073916
  0
LINE
  5
246
100
AcDbEntity
  8
0
100
AcDbLine
 62
7
  6
CONTINUOUS
 10
-5.5153131452
 20
23.8327482979
 11
-5.5390129548
 21
23.8068692168
  0
LINE
  5
247
100
AcDbEntity
  8
0
100
AcDbLine
 62
7
  6
CONTINUOUS
 10
-5.5390129548
 20
23.8068692168
 11
-5.5800517749
 21
23.7625630355
  0
LINE
  5
248
100
AcDbEntity
  8
0
100
AcDbLine
 62
7
  6
CONTINUOUS
 10
-5.5800517749
 20
23.7625630355
 11
-5.6453709
 21
23.6928537842
  0
LINE
  5
249
100
AcDbEntity
  8
0
100
AcDbLine
 62
7
  6
CONTINUOUS
 10
-5.6453709
 20
23.6928537842
 11
-5.8697515541
 21
23.4563578147
  0
LWPOLYLINE
  5
24A
100
AcDbEntity
  8
0
100
AcDbPolyline
 62
7
  6
CONTINUOUS
 90
8
 70
0
 10
-9.3693925567
 20
-24.4954823677
 10
-9.3577658054
 20
-24.4929531817
 10
-9.3462725652
 20
-24.4898736417
 10
-9.3349388704
 20
-24.4862507213
 10
-9.3237903949
 20
-24.4820926258
 10
-9.3128523979
 20
-24.4774087722
 10
-9.3021496566
 20
-24.4722097688
 10
-9.2917064159
 20
-24.4665073916
  0
LINE
  5
24B
100
AcDbEntity
  8
0
100
AcDbLine
 62
7
  6
CONTINUOUS
 10
-4.9167088442
 20
-21.7
 11
1.0832911558
 21
-21.7
  0
LINE
  5
24C
100
AcDbEntity
  8
0
100
AcDbLine
 62
253
  6
CONTINUOUS
 10
-9.4833544984
 20
-21.3359869487
 11
-4.9167088442
 21
-21.3359869487
  0
LINE
  5
24D
100
AcDbEntity
  8
0
100
AcDbLine
 62
253
  6
CONTINUOUS
 10
1.0832911558
 20
-21.3359869487
 11
5.6499368101
 21
-21.3359869487
  0
LINE
  5
24E
100
AcDbEntity
  8
0
100
AcDbLine
 62
7
  6
CONTINUOUS
 10
-13.0832911558
 20
-21.0226497308
 11
-13.0584183198
 21
-21.0226497308
  0
LINE
  5
24F
100
AcDbEntity
  8
0
100
AcDbLine
 62
7
  6
CONTINUOUS
 10
9.2498734675
 20
-21.0226497308
 11
9.2250006314
 21
-21.0226497308
  0
LINE
  5
250
100
AcDbEntity
  8
DRAFT
100
AcDbLine
 62
7
  6
CONTINUOUS
 10
-9.4833544984
 20
-20.9
 11
-9.1207132985
 21
-20.9
  0
LINE
  5
251
100
AcDbEntity
  8
DRAFT
100
AcDbLine
 62
7
  6
CONTINUOUS
 10
5.2872956101
 20
-20.9
 11
5.6499368101
 21
-20.9
  0
LINE
  5
252
100
AcDbEntity
  8
0
100
AcDbLine
 62
7
  6
CONTINUOUS
 10
5.6499368101
 20
-20.9
 11
7.0331848183
 21
-20.9
  0
LINE
  5
253
100
AcDbEntity
  8
0
100
AcDbLine
 62
7
  6
CONTINUOUS
 10
-9.4833544984
 20
-20.9
 11
-10.8666025066
 21
-20.9
  0
LINE
  5
254
100
AcDbEntity
  8
0
100
AcDbLine
 62
7
  6
CONTINUOUS
 10
-4.9167088442
 20
-20.8
 11
1.0832911558
 21
-20.8
  0
LINE
  5
255
100
AcDbEntity
  8
DRAFT
100
AcDbLine
 62
7
  6
CONTINUOUS
 10
-10.8299468702
 20
-20.7899436635
 11
-9.2350352665
 21
-20.7899436635
  0
LINE
  5
256
100
AcDbEntity
  8
DRAFT
100
AcDbLine
 62
7
  6
CONTINUOUS
 10
5.4016175782
 20
-20.7899436635
 11
6.9965291819
 21
-20.7899436635
  0
LINE
  5
257
100
AcDbEntity
  8
0
100
AcDbLine
 62
7
  6
CONTINUOUS
 10
-5.8697515541
 20
-23.4563578147
 11
-5.6454874457
 21
-23.6927296758
  0
LINE
  5
258
100
AcDbEntity
  8
0
100
AcDbLine
 62
7
  6
CONTINUOUS
 10
-5.6454874457
 20
-23.6927296758
 11
-5.5801100971
 21
-23.7625004187
  0
LINE
  5
259
100
AcDbEntity
  8
0
100
AcDbLine
 62
7
  6
CONTINUOUS
 10
-5.5801100971
 20
-23.7625004187
 11
-5.539039924
 21
-23.8068399095
  0
LINE
  5
25A
100
AcDbEntity
  8
0
100
AcDbLine
 62
7
  6
CONTINUOUS
 10
-5.539039924
 20
-23.8068399095
 11
-5.5153242321
 21
-23.8327364985
  0
LWPOLYLINE
  5
25B
100
AcDbEntity
  8
0
100
AcDbPolyline
 62
7
  6
CONTINUOUS
 90
5
 70
0
 10
-5.4542990525
 20
23.901531018
 10
-5.4610483756
 20
23.8936505129
 10
-5.4684183459
 20
23.8851700367
 10
-5.4764385568
 20
23.8760324123
 10
-5.4851245328
 20
23.8662342471
  0
LWPOLYLINE
  5
25C
100
AcDbEntity
  8
0
100
AcDbPolyline
 62
7
  6
CONTINUOUS
 90
3
 70
0
 10
-5.4851245328
 20
23.8662342471
 10
-5.5045432915
 20
23.8446194739
 10
-5.5153131452
 20
23.8327482979
  0
LINE
  5
25D
100
AcDbEntity
  8
RACCORDO
100
AcDbLine
 62
7
  6
CONTINUOUS
 10
-8.5128129865
 20
-20.0
 11
4.6793952982
 21
-20.0
  0
LINE
  5
25E
100
AcDbEntity
  8
RACCORDO
100
AcDbLine
 62
253
  6
CONTINUOUS
 10
7.6966355195
 20
-19.88468937
 11
5.4016175782
 21
-19.88468937
  0
LINE
  5
25F
100
AcDbEntity
  8
RACCORDO
100
AcDbLine
 62
253
  6
CONTINUOUS
 10
4.5649647335
 20
-19.88468937
 11
2.6155805667
 21
-19.88468937
  0
LINE
  5
260
100
AcDbEntity
  8
RACCORDO
100
AcDbLine
 62
253
  6
CONTINUOUS
 10
-6.448998255
 20
-19.88468937
 11
-8.3983824218
 21
-19.88468937
  0
LINE
  5
261
100
AcDbEntity
  8
RACCORDO
100
AcDbLine
 62
253
  6
CONTINUOUS
 10
-9.2350352665
 20
-19.88468937
 11
-11.5300532078
 21
-19.88468937
  0
LINE
  5
262
100
AcDbEntity
  8
RACCORDO
100
AcDbLine
 62
253
  6
CONTINUOUS
 10
7.6916730583
 20
-19.5851005096
 11
5.4040986198
 21
-19.5851005096
  0
LINE
  5
263
100
AcDbEntity
  8
RACCORDO
100
AcDbLine
 62
253
  6
CONTINUOUS
 10
4.5624836918
 20
-19.5851005096
 11
2.6180616083
 21
-19.5851005096
  0
LINE
  5
264
100
AcDbEntity
  8
RACCORDO
100
AcDbLine
 62
253
  6
CONTINUOUS
 10
-6.4514792966
 20
-19.5851005096
 11
-8.3959013802
 21
-19.5851005096
  0
LINE
  5
265
100
AcDbEntity
  8
RACCORDO
100
AcDbLine
 62
253
  6
CONTINUOUS
 10
-9.2375163082
 20
-19.5851005096
 11
-11.5250907466
 21
-19.5851005096
  0
LINE
  5
266
100
AcDbEntity
  8
DRAFT
100
AcDbLine
 62
7
  6
CONTINUOUS
 10
-11.4721073217
 20
-19.4260209733
 11
-9.264006003
 21
-19.4260209733
  0
LINE
  5
267
100
AcDbEntity
  8
DRAFT
100
AcDbLine
 62
7
  6
CONTINUOUS
 10
-8.3694116853
 20
-19.4260209733
 11
-6.4779689915
 21
-19.4260209733
  0
LINE
  5
268
100
AcDbEntity
  8
DRAFT
100
AcDbLine
 62
7
  6
CONTINUOUS
 10
2.6445513032
 20
-19.4260209733
 11
4.535993997
 21
-19.4260209733
  0
LINE
  5
269
100
AcDbEntity
  8
DRAFT
100
AcDbLine
 62
7
  6
CONTINUOUS
 10
5.4305883147
 20
-19.4260209733
 11
7.6386896334
 21
-19.4260209733
  0
LWPOLYLINE
  5
26A
100
AcDbEntity
  8
0
100
AcDbPolyline
 62
7
  6
CONTINUOUS
 90
12
 70
0
 10
5.4582887276
 20
-24.4665073916
 10
5.4687319682
 20
-24.4722097688
 10
5.4794347095
 20
-24.4774087722
 10
5.4903727065
 20
-24.4820926258
 10
5.5015211821
 20
-24.4862507213
 10
5.5128548768
 20
-24.4898736417
 10
5.524348117
 20
-24.4929531817
 10
5.5359748684
 20
-24.4954823677
 10
5.5477087897
 20
-24.4974554741
 10
5.5595233003
 20
-24.4988680342
 10
5.5713916398
 20
-24.4997168498
 10
5.5832869251
 20
-24.5
  0
LWPOLYLINE
  5
26B
100
AcDbEntity
  8
0
100
AcDbPolyline
 62
7
  6
CONTINUOUS
 90
19
 70
0
 10
-5.5153242321
 20
-23.8327364985
 10
-5.4944731761
 20
-23.8557917282
 10
-5.4850985576
 20
-23.866263184
 10
-5.4764001193
 20
-23.8760759598
 10
-5.4683689598
 20
-23.8852262698
 10
-5.4609898269
 20
-23.8937178999
 10
-5.4542354795
 20
-23.9016057711
 10
-5.4481007892
 20
-23.9088857743
 10
-5.442565047
 20
-23.9155620187
 10
-5.4375880006
 20
-23.9217017524
 10
-5.4331608731
 20
-23.9273154781
 10
-5.4292804201
 20
-23.9323926932
 10
-5.4259277938
 20
-23.9369691379
 10
-5.4230987917
 20
-23.9410506206
 10
-5.420792519
 20
-23.9446313329
 10
-5.4190024273
 20
-23.9477295899
 10
-5.4177261713
 20
-23.9503514966
 10
-5.4169626174
 20
-23.952490948
 10
-5.4167088442
 20
-23.9541479441
  0
LINE
  5
26C
100
AcDbEntity
  8
DRAFT
100
AcDbLine
 62
7
  6
CONTINUOUS
 10
-10.1474075247
 20
-16.6183558863
 11
-9.9467544658
 21
-16.8602367608
  0
LWPOLYLINE
  5
26D
100
AcDbEntity
  8
0
100
AcDbPolyline
 62
7
  6
CONTINUOUS
 90
12
 70
0
 10
5.4582887276
 20
24.4665073916
 10
5.4481286499
 20
24.4603145581
 10
5.4382747507
 20
24.4536452955
 10
5.428749352
 20
24.4465147107
 10
5.4195740368
 20
24.4389389589
 10
5.4107695898
 20
24.4309352005
 10
5.4023559554
 20
24.4225215661
 10
5.394352197
 20
24.4137171191
 10
5.3867764451
 20
24.4045418038
 10
5.3796458604
 20
24.3950164051
 10
5.3729765977
 20
24.3851625059
 10
5.3667837642
 20
24.3750024283
  0
LWPOLYLINE
  5
26E
100
AcDbEntity
  8
RACCORDO
100
AcDbPolyline
 62
253
  6
CONTINUOUS
 90
13
 70
0
 10
-6.1210456235
 20
-17.2956746438
 10
-6.1602016522
 20
-17.2982440247
 10
-6.1986874843
 20
-17.3059021786
 10
-6.2358446549
 20
-17.3185179819
 10
-6.271037476
 20
-17.3358755068
 10
-6.3036638369
 20
-17.3576776838
 10
-6.3331655237
 20
-17.3835513583
 10
-6.3590378705
 20
-17.4130537517
 10
-6.3808383481
 20
-17.4456800463
 10
-6.3981940821
 20
-17.4808719615
 10
-6.4108082745
 20
-17.518027363
 10
-6.4184652649
 20
-17.5565105734
 10
-6.4210342004
 20
-17.5956632207
  0
LINE
  5
26F
100
AcDbEntity
  8
RACCORDO
100
AcDbLine
 62
253
  6
CONTINUOUS
 10
2.5858863696
 20
-17.7956556053
 11
-6.4193040579
 21
-17.7956556053
  0
LINE
  5
270
100
AcDbEntity
  8
RACCORDO
100
AcDbLine
 62
7
  6
CONTINUOUS
 10
-6.1210456235
 20
-17.2956746438
 11
2.2876279352
 21
-17.2956746438
  0
LINE
  5
271
100
AcDbEntity
  8
RACCORDO
100
AcDbLine
 62
7
  6
CONTINUOUS
 10
2.3469089659
 20
-17.236393613
 11
-6.1803266542
 21
-17.236393613
  0
LINE
  5
272
100
AcDbEntity
  8
DRAFT
100
AcDbLine
 62
7
  6
CONTINUOUS
 10
-5.8867602235
 20
-16.8647171262
 11
2.0533425352
 21
-16.8647171262
  0
LINE
  5
273
100
AcDbEntity
  8
DRAFT
100
AcDbLine
 62
7
  6
CONTINUOUS
 10
-11.466608301
 20
-16.8602367608
 11
-9.9467544658
 21
-16.8602367608
  0
LINE
  5
274
100
AcDbEntity
  8
DRAFT
100
AcDbLine
 62
7
  6
CONTINUOUS
 10
7.6327504834
 20
-16.6548771492
 11
6.1177828605
 21
-16.6548771492
  0
LINE
  5
275
100
AcDbEntity
  8
DRAFT
100
AcDbLine
 62
7
  6
CONTINUOUS
 10
-5.6861071646
 20
-16.6228362517
 11
1.8526894763
 21
-16.6228362517
  0
LINE
  5
276
100
AcDbEntity
  8
DRAFT
100
AcDbLine
 62
7
  6
CONTINUOUS
 10
-11.3987775409
 20
-16.6183558863
 11
-10.1474075247
 21
-16.6183558863
  0
LINE
  5
277
100
AcDbEntity
  8
RACCORDO
100
AcDbLine
 62
253
  6
CONTINUOUS
 10
-6.4799934412
 20
-17.5367039799
 11
-6.4210342004
 21
-17.5956632207
  0
LINE
  5
278
100
AcDbEntity
  8
RACCORDO
100
AcDbLine
 62
253
  6
CONTINUOUS
 10
-6.1803266542
 20
-17.236393613
 11
-6.1210456235
 21
-17.2956746438
  0
LWPOLYLINE
  5
279
100
AcDbEntity
  8
RACCORDO
100
AcDbPolyline
 62
7
  6
CONTINUOUS
 90
18
 70
0
 10
-11.5618534108
 20
-12.4334852763
 10
-11.5621093232
 20
-12.4331926487
 10
-11.5623586225
 20
-12.4326723809
 10
-11.5626013087
 20
-12.4319244726
 10
-11.562837281
 20
-12.4309371263
 10
-11.5630666401
 20
-12.4297221396
 10
-11.5632896885
 20
-12.4283149059
 10
-11.5635063891
 20
-12.4267208423
 10
-11.563716779
 20
-12.4249345316
 10
-11.5639212714
 20
-12.4229751163
 10
-11.5641198341
 20
-12.4208484849
 10
-11.5643124993
 20
-12.418548749
 10
-11.5644997769
 20
-12.4160773854
 10
-11.5646816766
 20
-12.4134421548
 10
-11.5648581886
 20
-12.4106352966
 10
-11.565029794
 20
-12.4076350058
 10
-11.5651967451
 20
-12.4044485997
 10
-11.5653587895
 20
-12.4010687608
  0
LWPOLYLINE
  5
27A
100
AcDbEntity
  8
0
100
AcDbPolyline
 62
7
  6
CONTINUOUS
 90
8
 70
0
 10
-12.0621912119
 20
-24.2973162875
 10
-12.0596620259
 20
-24.3089430388
 10
-12.0565824859
 20
-24.320436279
 10
-12.0529595655
 20
-24.3317699738
 10
-12.0488014699
 20
-24.3429184493
 10
-12.0441176163
 20
-24.3538564463
 10
-12.038918613
 20
-24.3645591876
 10
-12.0332162358
 20
-24.3750024283
  0
LINE
  5
27B
100
AcDbEntity
  8
0
100
AcDbLine
 62
7
  6
CONTINUOUS
 10
2.2939440231
 20
23.7282150757
 11
2.1634448272
 21
23.5900222885
  0
LINE
  5
27C
100
AcDbEntity
  8
0
100
AcDbLine
 62
7
  6
CONTINUOUS
 10
2.1634448272
 20
23.5900222885
 11
2.0363338658
 21
23.4563578147
  0
LINE
  5
27D
100
AcDbEntity
  8
0
100
AcDbLine
 62
7
  6
CONTINUOUS
 10
2.489640509
 20
23.9563493531
 11
2.5332911558
 21
24.0
  0
LINE
  5
27E
100
AcDbEntity
  8
RACCORDO
100
AcDbLine
 62
7
  6
CONTINUOUS
 10
6.4696021082
 20
-14.7112543736
 11
6.31245284
 21
-14.726810987
  0
LINE
  5
27F
100
AcDbEntity
  8
DRAFT
100
AcDbLine
 62
7
  6
CONTINUOUS
 10
6.33803417
 20
-15.507774954
 11
6.4951276655
 21
-15.5
  0
LINE
  5
280
100
AcDbEntity
  8
DRAFT
100
AcDbLine
 62
7
  6
CONTINUOUS
 10
-5.66196583
 20
-15.507774954
 11
-5.4663399299
 21
-15.4980929339
  0
LWPOLYLINE
  5
281
100
AcDbEntity
  8
RACCORDO
100
AcDbPolyline
 62
7
  6
CONTINUOUS
 90
25
 70
0
 10
-11.0667088442
 20
-15.507774954
 10
-11.0864677834
 20
-15.5084351008
 10
-11.1059768156
 20
-15.5103422504
 10
-11.1252359408
 20
-15.5134964028
 10
-11.1443252599
 20
-15.5179216754
 10
-11.1631646721
 20
-15.5235939508
 10
-11.1815138739
 20
-15.5304408771
 10
-11.1993665858
 20
-15.5384775016
 10
-11.2167290875
 20
-15.547688777
 10
-11.2333799141
 20
-15.5579572103
 10
-11.2493099491
 20
-15.5692963437
 10
-11.2645283091
 20
-15.5816926349
 10
-11.2788408785
 20
-15.5949879652
 10
-11.2922360543
 20
-15.6091938509
 10
-11.3047254396
 20
-15.6242987755
 10
-11.3161497278
 20
-15.6401100705
 10
-11.3264952754
 20
-15.6566367843
 10
-11.3357757258
 20
-15.6738698685
 10
-11.3438727039
 20
-15.6915895091
 10
-11.3507710495
 20
-15.7098019387
 10
-11.3564859227
 20
-15.7285009247
 10
-11.3609444283
 20
-15.747447955
 10
-11.3641222678
 20
-15.7665635256
 10
-11.3660437398
 20
-15.7859271404
 10
-11.3667088442
 20
-15.8055387995
  0
LINE
  5
282
100
AcDbEntity
  8
DRAFT
100
AcDbLine
 62
7
  6
CONTINUOUS
 10
7.5657999818
 20
-16.4129962748
 11
6.3184359194
 21
-16.4129962748
  0
LINE
  5
283
100
AcDbEntity
  8
DRAFT
100
AcDbLine
 62
7
  6
CONTINUOUS
 10
-11.4167088442
 20
-16.4
 11
-11.4288138312
 21
-16.4
  0
LINE
  5
284
100
AcDbEntity
  8
DRAFT
100
AcDbLine
 62
7
  6
CONTINUOUS
 10
7.5832911558
 20
-16.2
 11
7.5953961429
 21
-16.2
  0
LINE
  5
285
100
AcDbEntity
  8
RACCORDO
100
AcDbLine
 62
253
  6
CONTINUOUS
 10
6.140517504
 20
-15.6047893388
 11
2.0260648076
 21
-15.6047893388
  0
LINE
  5
286
100
AcDbEntity
  8
RACCORDO
100
AcDbLine
 62
253
  6
CONTINUOUS
 10
-5.859482496
 20
-15.6047893388
 11
-9.9739351924
 21
-15.6047893388
  0
LINE
  5
287
100
AcDbEntity
  8
RACCORDO
100
AcDbLine
 62
7
  6
CONTINUOUS
 10
-11.0667088442
 20
-15.507774954
 11
-10.1714518583
 21
-15.507774954
  0
LINE
  5
288
100
AcDbEntity
  8
RACCORDO
100
AcDbLine
 62
7
  6
CONTINUOUS
 10
-5.66196583
 20
-15.507774954
 11
-5.3167088442
 21
-15.507774954
  0
LINE
  5
289
100
AcDbEntity
  8
RACCORDO
100
AcDbLine
 62
7
  6
CONTINUOUS
 10
1.4832911558
 20
-15.507774954
 11
1.8285481417
 21
-15.507774954
  0
LINE
  5
28A
100
AcDbEntity
  8
RACCORDO
100
AcDbLine
 62
7
  6
CONTINUOUS
 10
6.33803417
 20
-15.507774954
 11
7.2332911558
 21
-15.507774954
  0
LINE
  5
28B
100
AcDbEntity
  8
RACCORDO
100
AcDbLine
 62
7
  6
CONTINUOUS
 10
-10.9167088413
 20
-15.5
 11
-10.3285453538
 21
-15.5
  0
LINE
  5
28C
100
AcDbEntity
  8
RACCORDO
100
AcDbLine
 62
7
  6
CONTINUOUS
 10
7.0832911529
 20
-15.5
 11
6.4951276655
 21
-15.5
  0
LINE
  5
28D
100
AcDbEntity
  8
RACCORDO
100
AcDbLine
 62
7
  6
CONTINUOUS
 10
-5.4663399299
 20
-15.5
 11
-5.3167088442
 21
-15.5
  0
LINE
  5
28E
100
AcDbEntity
  8
RACCORDO
100
AcDbLine
 62
7
  6
CONTINUOUS
 10
1.4832911558
 20
-15.5
 11
1.6329222416
 21
-15.5
  0
LINE
  5
28F
100
AcDbEntity
  8
DRAFT
100
AcDbLine
 62
7
  6
CONTINUOUS
 10
-5.4663399299
 20
-15.4980929339
 11
-5.3167088442
 21
-15.4980929339
  0
LINE
  5
290
100
AcDbEntity
  8
DRAFT
100
AcDbLine
 62
7
  6
CONTINUOUS
 10
1.4832911558
 20
-15.4980929339
 11
1.6329222416
 21
-15.4980929339
  0
LINE
  5
291
100
AcDbEntity
  8
DRAFT
100
AcDbLine
 62
7
  6
CONTINUOUS
 10
1.6221384146
 20
-15.0
 11
1.4832911558
 21
-15.0
  0
LINE
  5
292
100
AcDbEntity
  8
DRAFT
100
AcDbLine
 62
7
  6
CONTINUOUS
 10
-5.3167088442
 20
-15.0
 11
-5.4555561029
 21
-15.0
  0
LINE
  5
293
100
AcDbEntity
  8
DRAFT
100
AcDbLine
 62
7
  6
CONTINUOUS
 10
1.5832911558
 20
-14.7796862477
 11
1.4832911558
 21
-14.7796862477
  0
LINE
  5
294
100
AcDbEntity
  8
DRAFT
100
AcDbLine
 62
7
  6
CONTINUOUS
 10
-5.3167088442
 20
-14.7796862477
 11
-5.4167088442
 21
-14.7796862477
  0
LINE
  5
295
100
AcDbEntity
  8
RACCORDO
100
AcDbLine
 62
253
  6
CONTINUOUS
 10
6.31245284
 20
-14.726810987
 11
1.8541294716
 21
-14.726810987
  0
LINE
  5
296
100
AcDbEntity
  8
RACCORDO
100
AcDbLine
 62
253
  6
CONTINUOUS
 10
-5.68754716
 20
-14.726810987
 11
-10.1458705284
 21
-14.726810987
  0
LINE
  5
297
100
AcDbEntity
  8
DRAFT
100
AcDbLine
 62
7
  6
CONTINUOUS
 10
-10.3030197965
 20
-14.7112543736
 11
-5.5303978918
 21
-14.7112543736
  0
LINE
  5
298
100
AcDbEntity
  8
DRAFT
100
AcDbLine
 62
7
  6
CONTINUOUS
 10
1.6969802035
 20
-14.7112543736
 11
6.4696021082
 21
-14.7112543736
  0
LINE
  5
299
100
AcDbEntity
  8
DRAFT
100
AcDbLine
 62
7
  6
CONTINUOUS
 10
-10.1714518583
 20
-15.507774954
 11
-10.3285453538
 21
-15.5
  0
LINE
  5
29A
100
AcDbEntity
  8
DRAFT
100
AcDbLine
 62
7
  6
CONTINUOUS
 10
1.8285481417
 20
-15.507774954
 11
1.6329222416
 21
-15.4980929339
  0
LINE
  5
29B
100
AcDbEntity
  8
RACCORDO
100
AcDbLine
 62
7
  6
CONTINUOUS
 10
-10.3030197965
 20
-14.7112543736
 11
-10.1458705284
 21
-14.726810987
  0
LINE
  5
29C
100
AcDbEntity
  8
RACCORDO
100
AcDbLine
 62
7
  6
CONTINUOUS
 10
-11.4288138312
 20
-12.5
 11
-11.5618534108
 21
-12.4334852763
  0
LINE
  5
29D
100
AcDbEntity
  8
DRAFT
100
AcDbLine
 62
7
  6
CONTINUOUS
 10
-9.2167088442
 20
-11.5
 11
-9.1992551086
 21
-11.5116356596
  0
LINE
  5
29E
100
AcDbEntity
  8
0
100
AcDbLine
 62
7
  6
CONTINUOUS
 10
2.5332911558
 20
-24.0
 11
2.489640509
 21
-23.9563493531
  0
LINE
  5
29F
100
AcDbEntity
  8
0
100
AcDbLine
 62
7
  6
CONTINUOUS
 10
2.0363338658
 20
-23.4563578147
 11
2.2597457776
 21
-23.6918248369
  0
LINE
  5
2A0
100
AcDbEntity
  8
0
100
AcDbLine
 62
7
  6
CONTINUOUS
 10
2.2597457776
 20
-23.6918248369
 11
2.2938573062
 21
-23.7281228518
  0
LINE
  5
2A1
100
AcDbEntity
  8
DRAFT
100
AcDbLine
 62
7
  6
CONTINUOUS
 10
-11.4167088442
 20
-16.4
 11
-11.3987775409
 21
-16.6183558863
  0
LINE
  5
2A2
100
AcDbEntity
  8
0
100
AcDbLine
 62
7
  6
CONTINUOUS
 10
-13.0832911558
 20
-21.0226497308
 11
-13.0667088442
 21
-21.5711324865
  0
LWPOLYLINE
  5
2A3
100
AcDbEntity
  8
0
100
AcDbPolyline
 62
7
  6
CONTINUOUS
 90
40
 70
0
 10
-13.0658360909
 20
-21.8997711479
 10
-13.0654343224
 20
-21.9198382916
 10
-13.0642267056
 20
-21.9399070889
 10
-13.0622110249
 20
-21.9599450105
 10
-13.0593835538
 20
-21.9799370232
 10
-13.0557461482
 20
-21.9998321984
 10
-13.0513133516
 20
-22.019545063
 10
-13.046099886
 20
-22.0390258388
 10
-13.0401126341
 20
-22.058262166
 10
-13.0333622347
 20
-22.0772264828
 10
-13.0258681688
 20
-22.0958728482
 10
-13.0176387752
 20
-22.1141884053
 10
-13.0086632821
 20
-22.1321932747
 10
-12.9989343196
 20
-22.1498868057
 10
-12.988478619
 20
-22.167206078
 10
-12.9773377237
 20
-22.1840786325
 10
-12.9655352811
 20
-22.2004718186
 10
-12.9530876998
 20
-22.2163658932
 10
-12.9400351559
 20
-22.2317142955
 10
-12.9264267509
 20
-22.246469892
 10
-12.912265658
 20
-22.2606393471
 10
-12.8975204373
 20
-22.2742541203
 10
-12.8821841395
 20
-22.2873115831
 10
-12.8663044359
 20
-22.2997623962
 10
-12.8499292538
 20
-22.3115654085
 10
-12.8330793297
 20
-22.3227040857
 10
-12.8157868026
 20
-22.3331557029
 10
-12.7981232762
 20
-22.3428793991
 10
-12.780152262
 20
-22.3518484807
 10
-12.7618740204
 20
-22.3600709099
 10
-12.7432658882
 20
-22.3675586046
 10
-12.7243393567
 20
-22.3743036902
 10
-12.7051415676
 20
-22.380286152
 10
-12.685701323
 20
-22.3854948973
 10
-12.6660312961
 20
-22.3899231464
 10
-12.6461809191
 20
-22.3935564624
 10
-12.626235968
 20
-22.3963803578
 10
-12.6062474418
 20
-22.3983931752
 10
-12.5862301995
 20
-22.3995989119
 10
-12.5662166906
 20
-22.4
  0
LINE
  5
2A4
100
AcDbEntity
  8
0
100
AcDbLine
 62
7
  6
CONTINUOUS
 10
-13.0584183198
 20
21.0226497308
 11
-13.0671451875
 21
21.6
  0
LINE
  5
2A5
100
AcDbEntity
  8
0
100
AcDbLine
 62
7
  6
CONTINUOUS
 10
-13.0832911558
 20
21.0226497308
 11
-13.0832911558
 21
-21.0226497308
  0
LINE
  5
2A6
100
AcDbEntity
  8
0
100
AcDbLine
 62
7
  6
CONTINUOUS
 10
-13.0671451875
 20
21.900016923
 11
-13.0671451875
 21
21.6
  0
LINE
  5
2A7
100
AcDbEntity
  8
0
100
AcDbLine
 62
7
  6
CONTINUOUS
 10
-13.0671451875
 20
-21.900016923
 11
-13.0671451875
 21
-21.6
  0
LINE
  5
2A8
100
AcDbEntity
  8
0
100
AcDbLine
 62
7
  6
CONTINUOUS
 10
-13.0584183198
 20
21.8941990932
 11
-13.0584183198
 21
21.0226497308
  0
LINE
  5
2A9
100
AcDbEntity
  8
0
100
AcDbLine
 62
7
  6
CONTINUOUS
 10
-13.0584183198
 20
-21.0226497308
 11
-13.0584183198
 21
-21.8941990932
  0
LINE
  5
2AA
100
AcDbEntity
  8
0
100
AcDbLine
 62
7
  6
CONTINUOUS
 10
-13.0584183198
 20
-21.0226497308
 11
-13.0671451875
 21
-21.6
  0
LINE
  5
2AB
100
AcDbEntity
  8
0
100
AcDbLine
 62
7
  6
CONTINUOUS
 10
-13.0832911558
 20
21.0226497308
 11
-13.0667088442
 21
21.5711324865
  0
LWPOLYLINE
  5
2AC
100
AcDbEntity
  8
IMPORT_IGES
100
AcDbPolyline
 62
253
  6
CONTINUOUS
 90
10
 70
0
 10
-8.7934748364
 20
10.7226887176
 10
-8.7902085368
 20
10.7279486638
 10
-8.7868345679
 20
10.7327144886
 10
-8.7833523257
 20
10.73698617
 10
-8.7798529348
 20
10.7408013616
 10
-8.7762455528
 20
10.7441223451
 10
-8.7722520388
 20
10.7468361568
 10
-8.7677744821
 20
10.7489052627
 10
-8.7629007873
 20
10.7503674366
 10
-8.7576275347
 20
10.7512228026
  0
LINE
  5
2AD
100
AcDbEntity
  8
0
100
AcDbLine
 62
7
  6
CONTINUOUS
 10
2.4200562385
 20
23.8652192852
 11
2.4005844247
 21
23.8435611733
  0
LINE
  5
2AE
100
AcDbEntity
  8
0
100
AcDbLine
 62
7
  6
CONTINUOUS
 10
2.4005844247
 20
23.8435611733
 11
2.3782967529
 21
23.8190929256
  0
LINE
  5
2AF
100
AcDbEntity
  8
0
100
AcDbLine
 62
7
  6
CONTINUOUS
 10
2.3782967529
 20
23.8190929256
 11
2.3531396043
 21
23.7917631973
  0
LWPOLYLINE
  5
2B0
100
AcDbEntity
  8
0
100
AcDbPolyline
 62
7
  6
CONTINUOUS
 90
3
 70
0
 10
2.3531396043
 20
23.7917631973
 10
2.3098768934
 20
23.745242936
 10
2.2939440231
 20
23.7282150757
  0
LINE
  5
2B1
100
AcDbEntity
  8
IMPORT_IGES
100
AcDbLine
 62
7
  6
CONTINUOUS
 10
-10.0853923547
 20
9.7843765662
 11
-9.0076371495
 21
10.8621317713
  0
LINE
  5
2B2
100
AcDbEntity
  8
0
100
AcDbLine
 62
7
  6
CONTINUOUS
 10
2.5332911558
 20
22.4
 11
2.4893689088
 21
22.356077753
  0
LINE
  5
2B3
100
AcDbEntity
  8
IMPORT_IGES
100
AcDbLine
 62
253
  6
CONTINUOUS
 10
-9.8757713573
 20
9.6404371128
 11
-9.1197104854
 21
10.3965277095
  0
LINE
  5
2B4
100
AcDbEntity
  8
RACCORDO
100
AcDbLine
 62
7
  6
CONTINUOUS
 10
-10.201354388
 20
7.9653544562
 11
-10.2667088442
 21
7.9
  0
LINE
  5
2B5
100
AcDbEntity
  8
DRAFT
100
AcDbLine
 62
7
  6
CONTINUOUS
 10
5.273832782
 20
22.3359700255
 11
5.3391089857
 21
22.3941821702
  0
LINE
  5
2B6
100
AcDbEntity
  8
0
100
AcDbLine
 62
253
  6
CONTINUOUS
 10
8.7337338453
 20
22.4
 11
8.7250069775
 21
22.3941821702
  0
LINE
  5
2B7
100
AcDbEntity
  8
0
100
AcDbLine
 62
253
  6
CONTINUOUS
 10
9.2337274992
 20
21.900016923
 11
9.2250006314
 21
21.8941990932
  0
LWPOLYLINE
  5
2B8
100
AcDbEntity
  8
IMPORT_IGES
100
AcDbPolyline
 62
253
  6
CONTINUOUS
 90
10
 70
0
 10
-9.2611302009
 20
10.6086387199
 10
-9.2514375063
 20
10.613826999
 10
-9.2395691686
 20
10.612206609
 10
-9.2258803519
 20
10.6035460237
 10
-9.2111556631
 20
10.5875664772
 10
-9.1955173218
 20
10.5643527646
 10
-9.1782154411
 20
10.533956627
 10
-9.1592377478
 20
10.4960369264
 10
-9.1395188177
 20
10.4502760229
 10
-9.1197121265
 20
10.3965277092
  0
LWPOLYLINE
  5
2B9
100
AcDbEntity
  8
RACCORDO
100
AcDbPolyline
 62
7
  6
CONTINUOUS
 90
3
 70
0
 10
-10.9507820154
 20
-15.507774954
 10
-10.9189698052
 20
-15.5027378738
 10
-10.9165719891
 20
-15.5026122558
  0
LINE
  5
2BA
100
AcDbEntity
  8
RACCORDO
100
AcDbLine
 62
7
  6
CONTINUOUS
 10
-5.5303978918
 20
-14.7112543736
 11
-5.68754716
 21
-14.726810987
  0
LWPOLYLINE
  5
2BB
100
AcDbEntity
  8
RACCORDO
100
AcDbPolyline
 62
253
  6
CONTINUOUS
 90
10
 70
0
 10
6.8376388563
 20
-12.4121267536
 10
6.8539257822
 20
-12.4105616202
 10
6.869719727
 20
-12.4060170476
 10
6.8845426174
 20
-12.3986305901
 10
6.8979457721
 20
-12.3886258241
 10
6.9095234812
 20
-12.3763055823
 10
6.9189252877
 20
-12.3620427892
 10
6.9258665994
 20
-12.3462691699
 10
6.930137302
 20
-12.3294621811
 10
6.9316081184
 20
-12.3121305613
  0
LINE
  5
2BC
100
AcDbEntity
  8
DRAFT
100
AcDbLine
 62
7
  6
CONTINUOUS
 10
1.5832911558
 20
-14.0043634339
 11
1.6876509259
 21
-13.9991984052
  0
LINE
  5
2BD
100
AcDbEntity
  8
DRAFT
100
AcDbLine
 62
7
  6
CONTINUOUS
 10
1.5832911558
 20
-14.0043634339
 11
-5.4167088442
 21
-14.0043634339
  0
LINE
  5
2BE
100
AcDbEntity
  8
RACCORDO
100
AcDbLine
 62
7
  6
CONTINUOUS
 10
-8.9159262878
 20
-13.9991984052
 11
-5.5210686142
 21
-13.9991984052
  0
LINE
  5
2BF
100
AcDbEntity
  8
RACCORDO
100
AcDbLine
 62
7
  6
CONTINUOUS
 10
1.6876509259
 20
-13.9991984052
 11
5.0825085995
 21
-13.9991984052
  0
LINE
  5
2C0
100
AcDbEntity
  8
DRAFT
100
AcDbLine
 62
7
  6
CONTINUOUS
 10
4.5832911558
 20
-13.9188401295
 11
-8.4167088442
 21
-13.9188401295
  0
LINE
  5
2C1
100
AcDbEntity
  8
RACCORDO
100
AcDbLine
 62
7
  6
CONTINUOUS
 10
4.9934234561
 20
-13.9101132618
 11
4.8832911558
 21
-13.9101132618
  0
LINE
  5
2C2
100
AcDbEntity
  8
RACCORDO
100
AcDbLine
 62
7
  6
CONTINUOUS
 10
-8.7167088442
 20
-13.9101132618
 11
-8.8268411444
 21
-13.9101132618
  0
LINE
  5
2C3
100
AcDbEntity
  8
RACCORDO
100
AcDbLine
 62
253
  6
CONTINUOUS
 10
-8.7167088442
 20
-13.5
 11
-8.4167088442
 21
-13.5
  0
LINE
  5
2C4
100
AcDbEntity
  8
RACCORDO
100
AcDbLine
 62
253
  6
CONTINUOUS
 10
4.8832911558
 20
-13.5
 11
4.5832911558
 21
-13.5
  0
LINE
  5
2C5
100
AcDbEntity
  8
RACCORDO
100
AcDbLine
 62
7
  6
CONTINUOUS
 10
-8.1167088442
 20
-13.2
 11
4.2832911558
 21
-13.2
  0
LINE
  5
2C6
100
AcDbEntity
  8
RACCORDO
100
AcDbLine
 62
253
  6
CONTINUOUS
 10
-8.1167088442
 20
-12.9
 11
4.2832911558
 21
-12.9
  0
LINE
  5
2C7
100
AcDbEntity
  8
DRAFT
100
AcDbLine
 62
7
  6
CONTINUOUS
 10
-5.4167088442
 20
-14.0043634339
 11
-5.5210686142
 21
-13.9991984052
  0
LWPOLYLINE
  5
2C8
100
AcDbEntity
  8
RACCORDO
100
AcDbPolyline
 62
7
  6
CONTINUOUS
 90
16
 70
0
 10
-8.9159262878
 20
-13.9991984052
 10
-8.9679545836
 20
-13.9964862391
 10
-9.0195411948
 20
-13.9883530625
 10
-9.0701175627
 20
-13.9748497202
 10
-9.1192077781
 20
-13.9560482272
 10
-9.1661613106
 20
-13.9321400855
 10
-9.2102053905
 20
-13.9035255986
 10
-9.2507369248
 20
-13.8706956184
 10
-9.2875174486
 20
-13.8339494843
 10
-9.3203616966
 20
-13.7934779495
 10
-9.3489650423
 20
-13.7495487277
 10
-9.372864864
 20
-13.7027474515
 10
-9.3916949764
 20
-13.6537678808
 10
-9.4052546644
 20
-13.6032252177
 10
-9.4134457369
 20
-13.5516170734
 10
-9.416201223
 20
-13.4995114173
  0
LINE
  5
2C9
100
AcDbEntity
  8
RACCORDO
100
AcDbLine
 62
7
  6
CONTINUOUS
 10
1.6969802035
 20
-14.7112543736
 11
1.8541294716
 21
-14.726810987
  0
LWPOLYLINE
  5
2CA
100
AcDbEntity
  8
RACCORDO
100
AcDbPolyline
 62
7
  6
CONTINUOUS
 90
3
 70
0
 10
7.1173643271
 20
-15.507774954
 10
7.0855521169
 20
-15.5027378738
 10
7.0831543008
 20
-15.5026122558
  0
LINE
  5
2CB
100
AcDbEntity
  8
IMPORT_IGES
100
AcDbLine
 62
253
  6
CONTINUOUS
 10
-8.1898522201
 20
-10.7375492881
 11
-8.9667138451
 21
-10.2911911821
  0
LINE
  5
2CC
100
AcDbEntity
  8
IMPORT_IGES
100
AcDbLine
 62
7
  6
CONTINUOUS
 10
-8.2898522705
 20
-10.9098076293
 11
-10.0218769811
 21
-9.9098226964
  0
LINE
  5
2CD
100
AcDbEntity
  8
IMPORT_IGES
100
AcDbLine
 62
253
  6
CONTINUOUS
 10
-9.3667088112
 20
-10.1812645708
 11
-9.8719140797
 21
-9.8895904447
  0
LINE
  5
2CE
100
AcDbEntity
  8
0
100
AcDbLine
 62
253
  6
CONTINUOUS
 10
8.7250069775
 20
-22.3941821702
 11
8.7337338453
 21
-22.4
  0
LINE
  5
2CF
100
AcDbEntity
  8
0
100
AcDbLine
 62
253
  6
CONTINUOUS
 10
9.2250006314
 20
-21.8941990932
 11
9.2337274992
 21
-21.900016923
  0
LWPOLYLINE
  5
2D0
100
AcDbEntity
  8
IMPORT_IGES
100
AcDbPolyline
 62
253
  6
CONTINUOUS
 90
4
 70
0
 10
-10.0811275498
 20
-9.8230205932
 10
-10.0514962033
 20
-9.8430452747
 10
-10.018929119
 20
-9.8597707232
 10
-9.9840535254
 20
-9.87292622
  0
LINE
  5
2D1
100
AcDbEntity
  8
DRAFT
100
AcDbLine
 62
7
  6
CONTINUOUS
 10
5.273832782
 20
-22.3359700255
 11
5.3391089857
 21
-22.3941821702
  0
LINE
  5
2D2
100
AcDbEntity
  8
0
100
AcDbLine
 62
7
  6
CONTINUOUS
 10
2.5332911558
 20
-22.4
 11
2.4893689088
 21
-22.356077753
  0
LINE
  5
2D3
100
AcDbEntity
  8
0
100
AcDbLine
 62
7
  6
CONTINUOUS
 10
2.2938573062
 20
-23.7281228518
 11
2.3394201312
 21
-23.7769565572
  0
LINE
  5
2D4
100
AcDbEntity
  8
0
100
AcDbLine
 62
7
  6
CONTINUOUS
 10
2.3394201312
 20
-23.7769565572
 11
2.3660412816
 21
-23.805748849
  0
LINE
  5
2D5
100
AcDbEntity
  8
0
100
AcDbLine
 62
7
  6
CONTINUOUS
 10
2.3660412816
 20
-23.805748849
 11
2.3897758271
 21
-23.8316546415
  0
LWPOLYLINE
  5
2D6
100
AcDbEntity
  8
0
100
AcDbPolyline
 62
7
  6
CONTINUOUS
 90
19
 70
0
 10
2.3897758271
 20
-23.8316546415
 10
2.4106696307
 20
-23.8547424712
 10
2.4200737212
 20
-23.8652386765
 10
2.4288058214
 20
-23.8750800554
 10
2.4368747923
 20
-23.8842628368
 10
2.4442953831
 20
-23.8927907917
 10
2.4510935582
 20
-23.9007171
 10
2.4572745331
 20
-23.9080373295
 10
2.462858932
 20
-23.9147559125
 10
2.4678861827
 20
-23.9209393254
 10
2.4723649749
 20
-23.9265972003
 10
2.4762996468
 20
-23.9317199052
 10
2.4797102154
 20
-23.9363450199
 10
2.4826012414
 20
-23.9404787452
 10
2.4849736632
 20
-23.9441148804
 10
2.4868344554
 20
-23.947272403
 10
2.4881861655
 20
-23.9499576389
 10
2.4890299712
 20
-23.9521642623
 10
2.4893689088
 20
-23.9538922731
  0
LWPOLYLINE
  5
2D7
100
AcDbEntity
  8
IMPORT_IGES
100
AcDbPolyline
 62
253
  6
CONTINUOUS
 90
3
 70
0
 10
-9.0098214012
 20
-10.2414126579
 10
-9.0502447786
 20
-10.1956655886
 10
-9.0862352713
 20
-10.1544494947
  0
LWPOLYLINE
  5
2D8
100
AcDbEntity
  8
IMPORT_IGES
100
AcDbPolyline
 62
253
  6
CONTINUOUS
 90
3
 70
0
 10
-9.0862352713
 20
-10.1544494947
 10
-9.1019361838
 20
-10.1362740556
 10
-9.1288172527
 20
-10.1046674797
  0
LWPOLYLINE
  5
2D9
100
AcDbEntity
  8
IMPORT_IGES
100
AcDbPolyline
 62
253
  6
CONTINUOUS
 90
3
 70
0
 10
-8.9667138452
 20
-10.2911911821
 10
-8.9884882956
 20
-10.2657783284
 10
-9.0098214012
 20
-10.2414126579
  0
LWPOLYLINE
  5
2DA
100
AcDbEntity
  8
IMPORT_IGES
100
AcDbPolyline
 62
253
  6
CONTINUOUS
 90
4
 70
0
 10
-9.1288172527
 20
-10.1046674797
 10
-9.1401531579
 20
-10.0911456203
 10
-9.1496937093
 20
-10.0792881848
 10
-9.1624672001
 20
-10.0632021024
  0
LWPOLYLINE
  5
2DB
100
AcDbEntity
  8
RACCORDO
100
AcDbPolyline
 62
7
  6
CONTINUOUS
 90
16
 70
0
 10
-11.5618534108
 20
-8.1334852763
 10
-11.5621377681
 20
-8.1331371058
 10
-11.5624139441
 20
-8.1325128088
 10
-11.5626819387
 20
-8.1316123854
 10
-11.562941586
 20
-8.1304209506
 10
-11.563193052
 20
-8.1289533894
 10
-11.5634368348
 20
-8.1272543565
 10
-11.5636728933
 20
-8.1253322663
 10
-11.5639012687
 20
-8.1231787046
 10
-11.5641225826
 20
-8.1208130833
 10
-11.5643367407
 20
-8.1182466499
 10
-11.5645438374
 20
-8.115468157
 10
-11.5647447767
 20
-8.1124632741
 10
-11.5649399165
 20
-8.1092402963
 10
-11.565128899
 20
-8.1057909285
 10
-11.5653115545
 20
-8.1020759546
  0
LWPOLYLINE
  5
2DC
100
AcDbEntity
  8
IMPORT_IGES
100
AcDbPolyline
 62
253
  6
CONTINUOUS
 90
3
 70
0
 10
-9.1624672001
 20
-10.0632021024
 10
-9.1656512223
 20
-10.058957061
 10
-9.1667088442
 20
-10.0571443343
  0
LWPOLYLINE
  5
2DD
100
AcDbEntity
  8
IMPORT_IGES
100
AcDbPolyline
 62
253
  6
CONTINUOUS
 90
7
 70
0
 10
-10.1718574008
 20
-9.6552357219
 10
-10.1687343078
 20
-9.6865184208
 10
-10.1605228373
 20
-9.7171442733
 10
-10.1473784852
 20
-9.7465908303
 10
-10.1295283696
 20
-9.7743742886
 10
-10.1072974263
 20
-9.8000072758
 10
-10.0811275498
 20
-9.8230205932
  0
LWPOLYLINE
  5
2DE
100
AcDbEntity
  8
RACCORDO
100
AcDbPolyline
 62
253
  6
CONTINUOUS
 90
10
 70
0
 10
-10.7650258067
 20
-12.3121305613
 10
-10.7635549958
 20
-12.3294621486
 10
-10.7592843065
 20
-12.3462691151
 10
-10.7523430118
 20
-12.3620427234
 10
-10.7429412218
 20
-12.376305516
 10
-10.7313635248
 20
-12.3886257666
 10
-10.7179603727
 20
-12.3986305488
 10
-10.7031374724
 20
-12.4060170253
 10
-10.687343505
 20
-12.4105616136
 10
-10.6710565446
 20
-12.4121267536
  0
LINE
  5
2DF
100
AcDbEntity
  8
RACCORDO
100
AcDbLine
 62
7
  6
CONTINUOUS
 10
-11.5653115545
 20
-8.1020759546
 11
-11.5656593484
 21
-8.0938477158
  0
LINE
  5
2E0
100
AcDbEntity
  8
RACCORDO
100
AcDbLine
 62
7
  6
CONTINUOUS
 10
-11.5653115545
 20
-0.4020759546
 11
-11.5656593484
 21
-0.3938477158
  0
LINE
  5
2E1
100
AcDbEntity
  8
RACCORDO
100
AcDbLine
 62
7
  6
CONTINUOUS
 10
-11.5653587895
 20
-12.4010687608
 11
-11.5656680972
 21
-12.3935904998
  0
LINE
  5
2E2
100
AcDbEntity
  8
RACCORDO
100
AcDbLine
 62
7
  6
CONTINUOUS
 10
-11.5653595878
 20
7.9989481137
 11
-11.56566912
 21
8.0064370588
  0
LINE
  5
2E3
100
AcDbEntity
  8
RACCORDO
100
AcDbLine
 62
7
  6
CONTINUOUS
 10
-11.5656680972
 20
-12.3935904998
 11
-11.5659548568
 21
-12.3851337515
  0
LINE
  5
2E4
100
AcDbEntity
  8
RACCORDO
100
AcDbLine
 62
7
  6
CONTINUOUS
 10
-11.56566912
 20
8.0064370588
 11
-11.5659563954
 21
8.0149169136
  0
LINE
  5
2E5
100
AcDbEntity
  8
RACCORDO
100
AcDbLine
 62
7
  6
CONTINUOUS
 10
-11.5656593484
 20
-8.0938477158
 11
-11.5659750791
 21
-8.0844689007
  0
LINE
  5
2E6
100
AcDbEntity
  8
RACCORDO
100
AcDbLine
 62
7
  6
CONTINUOUS
 10
-11.5656593484
 20
-0.3938477158
 11
-11.5659750791
 21
-0.3844689007
  0
LWPOLYLINE
  5
2E7
100
AcDbEntity
  8
0
100
AcDbPolyline
 62
253
  6
CONTINUOUS
 90
34
 70
0
 10
-12.0623370102
 20
23.8443375673
 10
-12.0620203594
 20
23.8340547998
 10
-12.0611401977
 20
23.8237952398
 10
-12.0596985114
 20
23.8135820427
 10
-12.0576985543
 20
23.803438259
 10
-12.0551448403
 20
23.7933867826
 10
-12.0520431329
 20
23.7834502991
 10
-12.0484004325
 20
23.7736512346
 10
-12.0442249605
 20
23.764011705
 10
-12.0395261406
 20
23.7545534661
 10
-12.0343145777
 20
23.7452978646
 10
-12.0286020342
 20
23.7362657898
 10
-12.0224014028
 20
23.7274776267
 10
-12.0157266781
 20
23.7189532096
 10
-12.0085929244
 20
23.7107117775
 10
-12.0010162423
 20
23.702771931
 10
-11.9930137319
 20
23.6951515897
 10
-11.9846034543
 20
23.6878679524
 10
-11.975804391
 20
23.6809374578
 10
-11.9666364011
 20
23.6743757476
 10
-11.9571201762
 20
23.6681976311
 10
-11.9472771937
 20
23.6624170521
 10
-11.9371296687
 20
23.6570470569
 10
-11.9267005037
 20
23.6520997654
 10
-11.9160132365
 20
23.6475863432
 10
-11.9050919878
 20
23.6435169769
 10
-11.8939614061
 20
23.6399008509
 10
-11.8826466125
 20
23.6367461264
 10
-11.8711731438
 20
23.6340599235
 10
-11.8595668951
 20
23.6318483049
 10
-11.8478540608
 20
23.630116262
 10
-11.8360610761
 20
23.6288677039
 10
-11.8242145572
 20
23.6281054486
 10
-11.8123412409
 20
23.6278312164
  0
LINE
  5
2E8
100
AcDbEntity
  8
RACCORDO
100
AcDbLine
 62
7
  6
CONTINUOUS
 10
-11.5659548568
 20
-12.3851337515
 11
-11.5662106108
 21
-12.3756966202
  0
LINE
  5
2E9
100
AcDbEntity
  8
RACCORDO
100
AcDbLine
 62
7
  6
CONTINUOUS
 10
-11.5659563954
 20
8.0149169136
 11
-11.566212763
 21
8.024401304
  0
LINE
  5
2EA
100
AcDbEntity
  8
RACCORDO
100
AcDbLine
 62
7
  6
CONTINUOUS
 10
-11.5659750791
 20
-8.0844689007
 11
-11.5662529914
 21
-8.0737968945
  0
LINE
  5
2EB
100
AcDbEntity
  8
RACCORDO
100
AcDbLine
 62
7
  6
CONTINUOUS
 10
-11.5659750791
 20
-0.3844689007
 11
-11.5662529914
 21
-0.3737968945
  0
LWPOLYLINE
  5
2EC
100
AcDbEntity
  8
0
100
AcDbPolyline
 62
7
  6
CONTINUOUS
 90
5
 70
0
 10
-12.0667088442
 20
-24.2500042308
 10
-12.0664256939
 20
-24.261899516
 10
-12.0655768784
 20
-24.2737678556
 10
-12.0641643183
 20
-24.2855823661
 10
-12.0621912119
 20
-24.2973162875
  0
LWPOLYLINE
  5
2ED
100
AcDbEntity
  8
0
100
AcDbPolyline
 62
7
  6
CONTINUOUS
 90
34
 70
0
 10
-12.0623370102
 20
-24.2456323968
 10
-12.0620533813
 20
-24.2575290557
 10
-12.0612039412
 20
-24.269398774
 10
-12.0597906124
 20
-24.2812146563
 10
-12.0578165938
 20
-24.292949936
 10
-12.0552863567
 20
-24.3045780153
 10
-12.0522056381
 20
-24.3160725264
 10
-12.048581421
 20
-24.3274074189
 10
-12.0444219167
 20
-24.3385570152
 10
-12.0397365524
 20
-24.3494960488
 10
-12.0345359448
 20
-24.3601997352
 10
-12.0288318795
 20
-24.3706438204
 10
-12.0226372872
 20
-24.3808046326
 10
-12.0159662071
 20
-24.3906591487
 10
-12.0088337561
 20
-24.4001850429
 10
-12.0012560995
 20
-24.4093607299
 10
-11.9932504054
 20
-24.4181654255
 10
-11.9848348191
 20
-24.4265791771
 10
-11.9760284276
 20
-24.4345829086
 10
-11.9668512143
 20
-24.4421584695
 10
-11.9573239529
 20
-24.4492887229
 10
-11.9474681682
 20
-24.4559575601
 10
-11.9373060926
 20
-24.4621499225
 10
-11.9268608391
 20
-24.467851711
 10
-11.9161563043
 20
-24.4730498963
 10
-11.9052169031
 20
-24.4777326699
 10
-11.8940672912
 20
-24.4818895243
 10
-11.8827325261
 20
-24.4855111341
 10
-11.8712365604
 20
-24.4885897127
 10
-11.8596071252
 20
-24.4911177026
 10
-11.8478756305
 20
-24.4930886486
 10
-11.836070455
 20
-24.4944986445
 10
-11.8242167125
 20
-24.4953455463
 10
-11.8123412409
 20
-24.495628166
  0
LINE
  5
2EE
100
AcDbEntity
  8
RACCORDO
100
AcDbLine
 62
7
  6
CONTINUOUS
 10
-11.5662106108
 20
-12.3756966202
 11
-11.5664290356
 21
-12.3648398575
  0
LINE
  5
2EF
100
AcDbEntity
  8
RACCORDO
100
AcDbLine
 62
7
  6
CONTINUOUS
 10
-11.566212763
 20
8.024401304
 11
-11.5664306135
 21
8.0352402212
  0
LINE
  5
2F0
100
AcDbEntity
  8
RACCORDO
100
AcDbLine
 62
7
  6
CONTINUOUS
 10
-11.5662529914
 20
-8.0737968945
 11
-11.5664863249
 21
-8.061452707
  0
LINE
  5
2F1
100
AcDbEntity
  8
RACCORDO
100
AcDbLine
 62
7
  6
CONTINUOUS
 10
-11.5662529914
 20
-0.3737968945
 11
-11.5664863249
 21
-0.361452707
  0
LINE
  5
2F2
100
AcDbEntity
  8
RACCORDO
100
AcDbLine
 62
7
  6
CONTINUOUS
 10
-11.5664290356
 20
-12.3648398575
 11
-11.5665994625
 21
-12.352476305
  0
LINE
  5
2F3
100
AcDbEntity
  8
RACCORDO
100
AcDbLine
 62
7
  6
CONTINUOUS
 10
-11.5664306135
 20
8.0352402212
 11
-11.566599515
 21
8.047528714
  0
LINE
  5
2F4
100
AcDbEntity
  8
0
100
AcDbLine
 62
253
  6
CONTINUOUS
 10
-12.0623370102
 20
-23.8443375673
 11
-12.0667088442
 21
-23.4104851482
  0
LINE
  5
2F5
100
AcDbEntity
  8
0
100
AcDbLine
 62
253
  6
CONTINUOUS
 10
-11.8123412409
 20
-23.6278312164
 11
-11.817431842
 21
-23.1226497308
  0
LINE
  5
2F6
100
AcDbEntity
  8
RACCORDO
100
AcDbLine
 62
7
  6
CONTINUOUS
 10
-11.5664863249
 20
-8.061452707
 11
-11.5666412807
 21
-8.0473201007
  0
LINE
  5
2F7
100
AcDbEntity
  8
RACCORDO
100
AcDbLine
 62
7
  6
CONTINUOUS
 10
-11.5664863249
 20
-0.361452707
 11
-11.5666412807
 21
-0.3473201007
  0
LINE
  5
2F8
100
AcDbEntity
  8
RACCORDO
100
AcDbLine
 62
7
  6
CONTINUOUS
 10
-11.5665994625
 20
-12.352476305
 11
-11.5666908193
 21
-12.338740774
  0
LINE
  5
2F9
100
AcDbEntity
  8
RACCORDO
100
AcDbLine
 62
7
  6
CONTINUOUS
 10
-11.566599515
 20
8.047528714
 11
-11.5666906092
 21
8.0612502774
  0
LINE
  5
2FA
100
AcDbEntity
  8
RACCORDO
100
AcDbLine
 62
7
  6
CONTINUOUS
 10
-11.5666412807
 20
-8.0473201007
 11
-11.5667088442
 21
-8.0313524151
  0
LINE
  5
2FB
100
AcDbEntity
  8
RACCORDO
100
AcDbLine
 62
7
  6
CONTINUOUS
 10
-11.5666412807
 20
-0.3473201007
 11
-11.5667088442
 21
-0.3313524151
  0
LINE
  5
2FC
100
AcDbEntity
  8
0
100
AcDbLine
 62
7
  6
CONTINUOUS
 10
-12.0667088442
 20
23.8443375673
 11
-12.0667088442
 21
23.4104851482
  0
LINE
  5
2FD
100
AcDbEntity
  8
RACCORDO
100
AcDbLine
 62
7
  6
CONTINUOUS
 10
-12.0667088442
 20
-23.4104851482
 11
-12.0667088442
 21
-22.6002134903
  0
LINE
  5
2FE
100
AcDbEntity
  8
0
100
AcDbLine
 62
7
  6
CONTINUOUS
 10
-12.0667088442
 20
-23.4104851482
 11
-12.0667088442
 21
-23.8443375673
  0
LINE
  5
2FF
100
AcDbEntity
  8
RACCORDO
100
AcDbLine
 62
7
  6
CONTINUOUS
 10
-12.0667088442
 20
22.6002134903
 11
-12.0667088442
 21
23.4104851482
  0
LINE
  5
300
100
AcDbEntity
  8
0
100
AcDbLine
 62
7
  6
CONTINUOUS
 10
-12.0623370102
 20
24.2456323968
 11
-12.0623370102
 21
23.8443375673
  0
LINE
  5
301
100
AcDbEntity
  8
0
100
AcDbLine
 62
7
  6
CONTINUOUS
 10
-12.0623370102
 20
-23.8443375673
 11
-12.0623370102
 21
-24.2456323968
  0
LINE
  5
302
100
AcDbEntity
  8
0
100
AcDbLine
 62
253
  6
CONTINUOUS
 10
-11.8123412409
 20
-23.6278312164
 11
-11.8123412409
 21
-24.495628166
  0
LINE
  5
303
100
AcDbEntity
  8
0
100
AcDbLine
 62
253
  6
CONTINUOUS
 10
-11.8123412409
 20
23.6278312164
 11
-11.8123412409
 21
24.495628166
  0
LINE
  5
304
100
AcDbEntity
  8
RACCORDO
100
AcDbLine
 62
7
  6
CONTINUOUS
 10
-11.5667088442
 20
-20.1990396502
 11
-11.5667088442
 21
0.3313524141
  0
LINE
  5
305
100
AcDbEntity
  8
RACCORDO
100
AcDbLine
 62
7
  6
CONTINUOUS
 10
-11.5667088442
 20
0.3313524151
 11
-11.5667088442
 21
20.1990396502
  0
LINE
  5
306
100
AcDbEntity
  8
RACCORDO
100
AcDbLine
 62
7
  6
CONTINUOUS
 10
-11.5300532078
 20
-20.0889833137
 11
-11.5300532078
 21
-19.88468937
  0
LINE
  5
307
100
AcDbEntity
  8
0
100
AcDbLine
 62
7
  6
CONTINUOUS
 10
-11.4288138312
 20
12.5132676422
 11
-11.4288138312
 21
8.9
  0
LINE
  5
308
100
AcDbEntity
  8
DRAFT
100
AcDbLine
 62
7
  6
CONTINUOUS
 10
-11.4288138312
 20
7.9
 11
-11.4288138312
 21
0.5
  0
LINE
  5
309
100
AcDbEntity
  8
DRAFT
100
AcDbLine
 62
7
  6
CONTINUOUS
 10
-11.4288138312
 20
-0.5
 11
-11.4288138312
 21
-7.2
  0
LINE
  5
30A
100
AcDbEntity
  8
DRAFT
100
AcDbLine
 62
7
  6
CONTINUOUS
 10
-11.4288138312
 20
-8.2
 11
-11.4288138312
 21
-11.5
  0
LINE
  5
30B
100
AcDbEntity
  8
DRAFT
100
AcDbLine
 62
7
  6
CONTINUOUS
 10
-11.4288138312
 20
-12.5
 11
-11.4288138312
 21
-16.4
  0
LINE
  5
30C
100
AcDbEntity
  8
RACCORDO
100
AcDbLine
 62
7
  6
CONTINUOUS
 10
-11.4167088442
 20
-15.9999428868
 11
-11.4167088442
 21
-16.4
  0
LINE
  5
30D
100
AcDbEntity
  8
RACCORDO
100
AcDbLine
 62
7
  6
CONTINUOUS
 10
-11.3667088442
 20
-16.6183558863
 11
-11.3667088442
 21
-15.8055387995
  0
LINE
  5
30E
100
AcDbEntity
  8
DRAFT
100
AcDbLine
 62
7
  6
CONTINUOUS
 10
-11.466608301
 20
-16.8602367608
 11
-11.4721073217
 21
-19.4260209733
  0
LINE
  5
30F
100
AcDbEntity
  8
RACCORDO
100
AcDbLine
 62
7
  6
CONTINUOUS
 10
-11.5667088442
 20
0.3313524151
 11
-11.5666407894
 21
0.3473838149
  0
LINE
  5
310
100
AcDbEntity
  8
RACCORDO
100
AcDbLine
 62
7
  6
CONTINUOUS
 10
-11.5667088442
 20
-7.3686475849
 11
-11.5666407894
 21
-7.3526161851
  0
LINE
  5
311
100
AcDbEntity
  8
0
100
AcDbLine
 62
253
  6
CONTINUOUS
 10
-12.0667088442
 20
23.4104851482
 11
-12.0623370102
 21
23.8443375673
  0
LINE
  5
312
100
AcDbEntity
  8
0
100
AcDbLine
 62
253
  6
CONTINUOUS
 10
-11.817431842
 20
23.1226497308
 11
-11.8123412409
 21
23.6278312164
  0
LINE
  5
313
100
AcDbEntity
  8
RACCORDO
100
AcDbLine
 62
7
  6
CONTINUOUS
 10
-11.5666407894
 20
0.3473838149
 11
-11.5664841756
 21
0.3615884478
  0
LINE
  5
314
100
AcDbEntity
  8
RACCORDO
100
AcDbLine
 62
7
  6
CONTINUOUS
 10
-11.5666407894
 20
-7.3526161851
 11
-11.5664841756
 21
-7.3384115522
  0
LINE
  5
315
100
AcDbEntity
  8
RACCORDO
100
AcDbLine
 62
7
  6
CONTINUOUS
 10
-11.5664841756
 20
0.3615884478
 11
-11.5662484185
 21
0.3739998014
  0
LINE
  5
316
100
AcDbEntity
  8
RACCORDO
100
AcDbLine
 62
7
  6
CONTINUOUS
 10
-11.5664841756
 20
-7.3384115522
 11
-11.5662484185
 21
-7.3260001986
  0
LINE
  5
317
100
AcDbEntity
  8
RACCORDO
100
AcDbLine
 62
7
  6
CONTINUOUS
 10
-11.5662484185
 20
0.3739998014
 11
-11.5659689395
 21
0.3846753348
  0
LINE
  5
318
100
AcDbEntity
  8
RACCORDO
100
AcDbLine
 62
7
  6
CONTINUOUS
 10
-11.5662484185
 20
-7.3260001986
 11
-11.5659689395
 21
-7.3153246652
  0
LWPOLYLINE
  5
319
100
AcDbEntity
  8
0
100
AcDbPolyline
 62
253
  6
CONTINUOUS
 90
34
 70
0
 10
-12.0623370102
 20
-23.8443375673
 10
-12.0620203482
 20
-23.8340546062
 10
-12.0611401539
 20
-23.823794854
 10
-12.0596984141
 20
-23.8135814673
 10
-12.057698384
 20
-23.8034375035
 10
-12.055144577
 20
-23.7933858521
 10
-12.0520427517
 20
-23.7834491834
 10
-12.048399901
 20
-23.773649913
 10
-12.044224248
 20
-23.7640101717
 10
-12.0395252258
 20
-23.7545517387
 10
-12.0343134457
 20
-23.7452959695
 10
-12.028600668
 20
-23.7362637463
 10
-12.0223997849
 20
-23.7274754512
 10
-12.0157247912
 20
-23.7189509186
 10
-12.0085907537
 20
-23.7107093898
 10
-12.0010137741
 20
-23.7027694659
 10
-11.9930109546
 20
-23.6951490678
 10
-11.9846003575
 20
-23.6878653946
 10
-11.9758009649
 20
-23.680934885
 10
-11.966632639
 20
-23.6743731824
 10
-11.9571160715
 20
-23.6681950956
 10
-11.9472727354
 20
-23.6624145653
 10
-11.937124834
 20
-23.6570446328
 10
-11.9266952831
 20
-23.6520974265
 10
-11.9160076554
 20
-23.6475841265
 10
-11.9050860955
 20
-23.6435149235
 10
-11.8939552358
 20
-23.6398989896
 10
-11.8826401722
 20
-23.6367444758
 10
-11.8711661502
 20
-23.6340584395
 10
-11.8595593528
 20
-23.6318470295
 10
-11.8478468439
 20
-23.630115347
 10
-11.836055367
 20
-23.6288672183
 10
-11.8242112562
 20
-23.6281053043
 10
-11.8123412409
 20
-23.6278312164
  0
LINE
  5
31A
100
AcDbEntity
  8
RACCORDO
100
AcDbLine
 62
7
  6
CONTINUOUS
 10
-11.5659689395
 20
0.3846753348
 11
-11.5656521642
 21
0.394037982
  0
LINE
  5
31B
100
AcDbEntity
  8
RACCORDO
100
AcDbLine
 62
7
  6
CONTINUOUS
 10
-11.5659689395
 20
-7.3153246652
 11
-11.5656521642
 21
-7.305962018
  0
LWPOLYLINE
  5
31C
100
AcDbEntity
  8
RACCORDO
100
AcDbPolyline
 62
7
  6
CONTINUOUS
 90
17
 70
0
 10
-11.5656521642
 20
0.394037982
 10
-11.5653036775
 20
0.4022435503
 10
-11.5651205463
 20
0.405950822
 10
-11.5649310607
 20
0.4093934877
 10
-11.5647355135
 20
0.4126084288
 10
-11.5645342737
 20
0.4156031267
 10
-11.5643269724
 20
0.4183700999
 10
-11.5641127957
 20
0.4209237851
 10
-11.5638916678
 20
0.4232749648
 10
-11.5636636645
 20
0.4254128565
 10
-11.5634281998
 20
0.42731955
 10
-11.5631852318
 20
0.4290032773
 10
-11.5629348023
 20
0.4304558064
 10
-11.5626764515
 20
0.4316345314
 10
-11.562410026
 20
0.4325252504
 10
-11.5621356791
 20
0.4331421654
 10
-11.5618534108
 20
0.4334852763
  0
LWPOLYLINE
  5
31D
100
AcDbEntity
  8
RACCORDO
100
AcDbPolyline
 62
7
  6
CONTINUOUS
 90
17
 70
0
 10
-11.5656521642
 20
-7.305962018
 10
-11.5653036775
 20
-7.2977564497
 10
-11.5651205463
 20
-7.294049178
 10
-11.5649310607
 20
-7.2906065123
 10
-11.5647355135
 20
-7.2873915712
 10
-11.5645342737
 20
-7.2843968733
 10
-11.5643269724
 20
-7.2816299001
 10
-11.5641127957
 20
-7.2790762149
 10
-11.5638916678
 20
-7.2767250352
 10
-11.5636636645
 20
-7.2745871435
 10
-11.5634281998
 20
-7.27268045
 10
-11.5631852318
 20
-7.2709967227
 10
-11.5629348023
 20
-7.2695441936
 10
-11.5626764515
 20
-7.2683654686
 10
-11.562410026
 20
-7.2674747496
 10
-11.5621356791
 20
-7.2668578346
 10
-11.5618534108
 20
-7.2665147237
  0
LINE
  5
31E
100
AcDbEntity
  8
RACCORDO
100
AcDbLine
 62
7
  6
CONTINUOUS
 10
-9.2722557288
 20
20.5664222561
 11
-9.2167088442
 21
20.9
  0
LWPOLYLINE
  5
31F
100
AcDbEntity
  8
IMPORT_IGES
100
AcDbPolyline
 62
253
  6
CONTINUOUS
 90
5
 70
0
 10
-8.9060030655
 20
10.4958030965
 10
-8.9145667505
 20
10.4780698167
 10
-8.9173648255
 20
10.4725413774
 10
-8.9191084944
 20
10.4689248829
 10
-8.9197088442
 20
10.4672173636
  0
LWPOLYLINE
  5
320
100
AcDbEntity
  8
IMPORT_IGES
100
AcDbPolyline
 62
253
  6
CONTINUOUS
 90
3
 70
0
 10
-8.7934748364
 20
10.7226887176
 10
-8.8193860981
 20
10.6694864987
 10
-8.8311670375
 20
10.6456130758
  0
LWPOLYLINE
  5
321
100
AcDbEntity
  8
IMPORT_IGES
100
AcDbPolyline
 62
253
  6
CONTINUOUS
 90
4
 70
0
 10
-8.8844923146
 20
10.5389253483
 10
-8.8955807178
 20
10.5162416455
 10
-8.9007665447
 20
10.5061514334
 10
-8.9060030655
 20
10.4958030965
  0
LINE
  5
322
100
AcDbEntity
  8
IMPORT_IGES
100
AcDbLine
 62
253
  6
CONTINUOUS
 10
-8.8616145262
 20
10.5848943826
 11
-8.8844923146
 21
10.5389253483
  0
LINE
  5
323
100
AcDbEntity
  8
IMPORT_IGES
100
AcDbLine
 62
253
  6
CONTINUOUS
 10
-8.8311670375
 20
10.6456130758
 11
-8.8616145262
 21
10.5848943826
  0
LINE
  5
324
100
AcDbEntity
  8
RACCORDO
100
AcDbLine
 62
253
  6
CONTINUOUS
 10
-10.2667088442
 20
5.9999961923
 11
-10.2351082537
 21
6.0315967827
  0
LWPOLYLINE
  5
325
100
AcDbEntity
  8
IMPORT_IGES
100
AcDbPolyline
 62
253
  6
CONTINUOUS
 90
8
 70
0
 10
-5.8753795122
 20
10.7482239013
 10
-5.8581302004
 20
10.7621320344
 10
-5.83846113
 20
10.7743291397
 10
-5.8167088442
 20
10.7846065215
 10
-5.7932455306
 20
10.7927883308
 10
-5.7684726532
 20
10.7987345747
 10
-5.7428140826
 20
10.8023435113
 10
-5.7167088442
 20
10.8035533906
  0
LINE
  5
326
100
AcDbEntity
  8
IMPORT_IGES
100
AcDbLine
 62
253
  6
CONTINUOUS
 10
6.1142407578
 20
-9.8823041024
 11
6.1508372825
 21
-9.8728625734
  0
LINE
  5
327
100
AcDbEntity
  8
RACCORDO
100
AcDbLine
 62
253
  6
CONTINUOUS
 10
-11.5667088442
 20
-12.3313524131
 11
-10.7650258067
 21
-12.3121305613
  0
LINE
  5
328
100
AcDbEntity
  8
RACCORDO
100
AcDbLine
 62
253
  6
CONTINUOUS
 10
-11.5618534108
 20
-12.4334852763
 11
-10.6672971632
 21
-12.4120416707
  0
LINE
  5
329
100
AcDbEntity
  8
RACCORDO
100
AcDbLine
 62
253
  6
CONTINUOUS
 10
-10.6672971632
 20
-12.4120416707
 11
-10.6577409575
 21
-12.4118728114
  0
LINE
  5
32A
100
AcDbEntity
  8
DRAFT
100
AcDbLine
 62
7
  6
CONTINUOUS
 10
6.4951276655
 20
-12.5
 11
5.5832911558
 21
-12.5132676422
  0
LINE
  5
32B
100
AcDbEntity
  8
RACCORDO
100
AcDbLine
 62
253
  6
CONTINUOUS
 10
-10.6577409575
 20
-12.4118728114
 11
-10.6383130425
 21
-12.4116227886
  0
LINE
  5
32C
100
AcDbEntity
  8
RACCORDO
100
AcDbLine
 62
253
  6
CONTINUOUS
 10
-10.7650258067
 20
-12.3121305613
 11
-10.7450519056
 21
-12.3118766191
  0
LINE
  5
32D
100
AcDbEntity
  8
RACCORDO
100
AcDbLine
 62
253
  6
CONTINUOUS
 10
-10.6383130425
 20
-12.4116227886
 11
-10.5932165277
 21
-12.4112668038
  0
LINE
  5
32E
100
AcDbEntity
  8
RACCORDO
100
AcDbLine
 62
253
  6
CONTINUOUS
 10
-10.7450519056
 20
-12.3118766191
 11
-10.6914583513
 21
-12.3114716257
  0
LINE
  5
32F
100
AcDbEntity
  8
RACCORDO
100
AcDbLine
 62
253
  6
CONTINUOUS
 10
-10.5932165277
 20
-12.4112668038
 11
-10.5046301022
 21
-12.4109879494
  0
LINE
  5
330
100
AcDbEntity
  8
RACCORDO
100
AcDbLine
 62
253
  6
CONTINUOUS
 10
-10.6914583513
 20
-12.3114716257
 11
-10.5318896489
 21
-12.3110053613
  0
LINE
  5
331
100
AcDbEntity
  8
RACCORDO
100
AcDbLine
 62
253
  6
CONTINUOUS
 10
-10.5046301022
 20
-12.4109879494
 11
-10.4831180205
 21
-12.410978333
  0
LINE
  5
332
100
AcDbEntity
  8
DRAFT
100
AcDbLine
 62
7
  6
CONTINUOUS
 10
-9.4167088442
 20
-12.5132676422
 11
-10.3285453538
 21
-12.5132676422
  0
LINE
  5
333
100
AcDbEntity
  8
DRAFT
100
AcDbLine
 62
7
  6
CONTINUOUS
 10
-11.4288138312
 20
-12.5
 11
-9.4167088442
 21
-12.5
  0
LINE
  5
334
100
AcDbEntity
  8
DRAFT
100
AcDbLine
 62
7
  6
CONTINUOUS
 10
6.4951276655
 20
-12.5
 11
5.5832911558
 21
-12.5
  0
LINE
  5
335
100
AcDbEntity
  8
RACCORDO
100
AcDbLine
 62
7
  6
CONTINUOUS
 10
6.4951276655
 20
-12.5
 11
7.5953961429
 21
-12.5
  0
LINE
  5
336
100
AcDbEntity
  8
RACCORDO
100
AcDbLine
 62
7
  6
CONTINUOUS
 10
-10.4831180205
 20
-12.410978333
 11
-9.3276871772
 21
-12.410978333
  0
LINE
  5
337
100
AcDbEntity
  8
RACCORDO
100
AcDbLine
 62
7
  6
CONTINUOUS
 10
6.6497003321
 20
-12.410978333
 11
5.4942694888
 21
-12.410978333
  0
LINE
  5
338
100
AcDbEntity
  8
RACCORDO
100
AcDbLine
 62
253
  6
CONTINUOUS
 10
-10.5318896489
 20
-12.3110053613
 11
-9.3268221059
 21
-12.3109821407
  0
LINE
  5
339
100
AcDbEntity
  8
0
100
AcDbLine
 62
7
  6
CONTINUOUS
 10
-8.4167088442
 20
-12.3
 11
4.5832911558
 21
-12.3
  0
LINE
  5
33A
100
AcDbEntity
  8
RACCORDO
100
AcDbLine
 62
7
  6
CONTINUOUS
 10
-10.4831180205
 20
-11.5599236471
 11
-8.4167088442
 21
-11.5599236471
  0
LINE
  5
33B
100
AcDbEntity
  8
RACCORDO
100
AcDbLine
 62
7
  6
CONTINUOUS
 10
-9.1992551086
 20
-11.5116356596
 11
-8.7167088442
 21
-11.5116356596
  0
LINE
  5
33C
100
AcDbEntity
  8
DRAFT
100
AcDbLine
 62
7
  6
CONTINUOUS
 10
-11.4288138312
 20
-11.5
 11
-9.2167088442
 21
-11.5
  0
LINE
  5
33D
100
AcDbEntity
  8
RACCORDO
100
AcDbLine
 62
7
  6
CONTINUOUS
 10
4.5832911558
 20
-11.5
 11
7.7332911558
 21
-11.5
  0
LINE
  5
33E
100
AcDbEntity
  8
0
100
AcDbLine
 62
7
  6
CONTINUOUS
 10
1.8173837069
 20
-11.3117237174
 11
1.04699228
 21
-11.3117237174
  0
LINE
  5
33F
100
AcDbEntity
  8
0
100
AcDbLine
 62
7
  6
CONTINUOUS
 10
0.9513339061
 20
-11.3117237174
 11
-1.090801261
 21
-11.3117237174
  0
LINE
  5
340
100
AcDbEntity
  8
0
100
AcDbLine
 62
7
  6
CONTINUOUS
 10
-1.0960288165
 20
-11.3117237174
 11
-5.6508012038
 21
-11.3117237174
  0
LINE
  5
341
100
AcDbEntity
  8
RACCORDO
100
AcDbLine
 62
253
  6
CONTINUOUS
 10
-8.4167088442
 20
-11.2878679656
 11
-5.6508012038
 21
-11.2878679656
  0
LINE
  5
342
100
AcDbEntity
  8
RACCORDO
100
AcDbLine
 62
253
  6
CONTINUOUS
 10
0.9513339061
 20
-11.2878679656
 11
1.04699228
 21
-11.2878679656
  0
LINE
  5
343
100
AcDbEntity
  8
RACCORDO
100
AcDbLine
 62
253
  6
CONTINUOUS
 10
1.8173837069
 20
-11.2878679656
 11
4.5832911558
 21
-11.2878679656
  0
LINE
  5
344
100
AcDbEntity
  8
IMPORT_IGES
100
AcDbLine
 62
7
  6
CONTINUOUS
 10
3.505977812
 20
-11.2117237174
 11
1.806375893
 21
-11.2117237174
  0
LINE
  5
345
100
AcDbEntity
  8
IMPORT_IGES
100
AcDbLine
 62
7
  6
CONTINUOUS
 10
1.047541817
 20
-11.2117237174
 11
0.9513339061
 21
-11.2117237174
  0
LINE
  5
346
100
AcDbEntity
  8
IMPORT_IGES
100
AcDbLine
 62
7
  6
CONTINUOUS
 10
0.2407288331
 20
-11.2117237174
 11
-0.2580611926
 21
-11.2117237174
  0
LINE
  5
347
100
AcDbEntity
  8
IMPORT_IGES
100
AcDbLine
 62
7
  6
CONTINUOUS
 10
-0.7483102065
 20
-11.2117237174
 11
-1.5161395293
 21
-11.2117237174
  0
LINE
  5
348
100
AcDbEntity
  8
IMPORT_IGES
100
AcDbLine
 62
7
  6
CONTINUOUS
 10
-2.0063884001
 20
-11.2117237174
 11
-2.6641077346
 21
-11.2117237174
  0
LINE
  5
349
100
AcDbEntity
  8
IMPORT_IGES
100
AcDbLine
 62
7
  6
CONTINUOUS
 10
-3.2009961325
 20
-11.2117237174
 11
-3.217061308
 21
-11.2117237174
  0
LINE
  5
34A
100
AcDbEntity
  8
IMPORT_IGES
100
AcDbLine
 62
7
  6
CONTINUOUS
 10
-3.7498197061
 20
-11.2117237174
 11
-4.3090898666
 21
-11.2117237174
  0
LINE
  5
34B
100
AcDbEntity
  8
IMPORT_IGES
100
AcDbLine
 62
7
  6
CONTINUOUS
 10
-4.8459784705
 20
-11.2117237174
 11
-4.862043646
 21
-11.2117237174
  0
LINE
  5
34C
100
AcDbEntity
  8
IMPORT_IGES
100
AcDbLine
 62
7
  6
CONTINUOUS
 10
-5.3948020441
 20
-11.2117237174
 11
-7.3393955003
 21
-11.2117237174
  0
LINE
  5
34D
100
AcDbEntity
  8
0
100
AcDbLine
 62
7
  6
CONTINUOUS
 10
3.505977812
 20
-11.2117237174
 11
-7.3393955003
 21
-11.2117237174
  0
LINE
  5
34E
100
AcDbEntity
  8
RACCORDO
100
AcDbLine
 62
7
  6
CONTINUOUS
 10
-8.4167088442
 20
-11.2
 11
-7.3522869929
 21
-11.2
  0
LINE
  5
34F
100
AcDbEntity
  8
RACCORDO
100
AcDbLine
 62
7
  6
CONTINUOUS
 10
3.5188693993
 20
-11.2
 11
4.5832911558
 21
-11.2
  0
LINE
  5
350
100
AcDbEntity
  8
IMPORT_IGES
100
AcDbLine
 62
7
  6
CONTINUOUS
 10
3.9832885242
 20
-11.15
 11
-7.8634153737
 21
-11.15
  0
LINE
  5
351
100
AcDbEntity
  8
IMPORT_IGES
100
AcDbLine
 62
253
  6
CONTINUOUS
 10
4.0832910737
 20
-11.05
 11
-7.9167085581
 21
-11.05
  0
LINE
  5
352
100
AcDbEntity
  8
IMPORT_IGES
100
AcDbLine
 62
7
  6
CONTINUOUS
 10
4.3064345896
 20
-10.95
 11
-8.1398561389
 21
-10.95
  0
LINE
  5
353
100
AcDbEntity
  8
RACCORDO
100
AcDbLine
 62
253
  6
CONTINUOUS
 10
6.826478693
 20
-12.3113175897
 11
5.4934044176
 21
-12.3109821407
  0
LINE
  5
354
100
AcDbEntity
  8
RACCORDO
100
AcDbLine
 62
253
  6
CONTINUOUS
 10
6.7469189638
 20
-12.4111984199
 11
6.6497003321
 21
-12.410978333
  0
LINE
  5
355
100
AcDbEntity
  8
RACCORDO
100
AcDbLine
 62
253
  6
CONTINUOUS
 10
6.9013688288
 20
-12.3117776997
 11
6.826478693
 21
-12.3113175897
  0
LINE
  5
356
100
AcDbEntity
  8
RACCORDO
100
AcDbLine
 62
253
  6
CONTINUOUS
 10
6.7952087454
 20
-12.4115265659
 11
6.7469189638
 21
-12.4111984199
  0
LINE
  5
357
100
AcDbEntity
  8
RACCORDO
100
AcDbLine
 62
253
  6
CONTINUOUS
 10
6.8174618943
 20
-12.4117739039
 11
6.7952087454
 21
-12.4115265659
  0
LWPOLYLINE
  5
358
100
AcDbEntity
  8
RACCORDO
100
AcDbPolyline
 62
253
  6
CONTINUOUS
 90
3
 70
0
 10
6.9316081184
 20
-12.3121305613
 10
6.9255545986
 20
-12.312040737
 10
6.9013688288
 20
-12.3117776997
  0
LINE
  5
359
100
AcDbEntity
  8
RACCORDO
100
AcDbLine
 62
7
  6
CONTINUOUS
 10
-11.5667088442
 20
-11.5459608555
 11
-10.7650258067
 21
-11.5587752426
  0
LINE
  5
35A
100
AcDbEntity
  8
RACCORDO
100
AcDbLine
 62
253
  6
CONTINUOUS
 10
6.8289320449
 20
-12.4119482734
 11
6.8174618943
 21
-12.4117739039
  0
LINE
  5
35B
100
AcDbEntity
  8
RACCORDO
100
AcDbLine
 62
253
  6
CONTINUOUS
 10
6.8376388563
 20
-12.4121267536
 11
6.8289320449
 21
-12.4119482734
  0
LINE
  5
35C
100
AcDbEntity
  8
RACCORDO
100
AcDbLine
 62
253
  6
CONTINUOUS
 10
7.7284357224
 20
-12.4334852763
 11
6.8376388563
 21
-12.4121267536
  0
LINE
  5
35D
100
AcDbEntity
  8
RACCORDO
100
AcDbLine
 62
253
  6
CONTINUOUS
 10
7.7332911558
 20
-12.3313524131
 11
6.9316081184
 21
-12.3121305613
  0
LWPOLYLINE
  5
35E
100
AcDbEntity
  8
IMPORT_IGES
100
AcDbPolyline
 62
253
  6
CONTINUOUS
 90
10
 70
0
 10
-8.139852272
 20
-10.7508823024
 10
-8.1457099666
 20
-10.7507083201
 10
-8.1515060617
 20
-10.7502033906
 10
-8.1572405573
 20
-10.749367514
 10
-8.1629320355
 20
-10.7481952488
 10
-8.1685619142
 20
-10.7466920367
 10
-8.1740744467
 20
-10.744874202
 10
-8.1794510507
 20
-10.7427471862
 10
-8.1847103085
 20
-10.7403055481
 10
-8.1898522201
 20
-10.7375492881
  0
LWPOLYLINE
  5
35F
100
AcDbEntity
  8
IMPORT_IGES
100
AcDbPolyline
 62
253
  6
CONTINUOUS
 90
3
 70
0
 10
-9.9474981159
 20
-9.8823364101
 10
-9.909867325
 20
-9.887904116
 10
-9.8717877807
 20
-9.8895896286
  0
LINE
  5
360
100
AcDbEntity
  8
IMPORT_IGES
100
AcDbLine
 62
253
  6
CONTINUOUS
 10
-9.9840535254
 20
-9.87292622
 11
-9.9474981159
 21
-9.8823364101
  0
LINE
  5
361
100
AcDbEntity
  8
RACCORDO
100
AcDbLine
 62
7
  6
CONTINUOUS
 10
-11.4288138312
 20
-8.2
 11
-11.5618534108
 21
-8.1334852763
  0
LINE
  5
362
100
AcDbEntity
  8
IMPORT_IGES
100
AcDbLine
 62
7
  6
CONTINUOUS
 10
-9.2967916624
 20
-7.9542999891
 11
-9.3667088442
 21
-7.8451539777
  0
LINE
  5
363
100
AcDbEntity
  8
DRAFT
100
AcDbLine
 62
7
  6
CONTINUOUS
 10
-9.2167088442
 20
-20.9
 11
-9.2350352665
 21
-20.7899436635
  0
LINE
  5
364
100
AcDbEntity
  8
RACCORDO
100
AcDbLine
 62
7
  6
CONTINUOUS
 10
-9.264006003
 20
-19.4260209733
 11
-9.2375163082
 21
-19.5851005096
  0
LWPOLYLINE
  5
365
100
AcDbEntity
  8
RACCORDO
100
AcDbPolyline
 62
253
  6
CONTINUOUS
 90
10
 70
0
 10
-10.7650258067
 20
8.0878694387
 10
-10.7635549958
 20
8.0705378514
 10
-10.7592843065
 20
8.0537308849
 10
-10.7523430118
 20
8.0379572766
 10
-10.7429412218
 20
8.023694484
 10
-10.7313635248
 20
8.0113742334
 10
-10.7179603727
 20
8.0013694512
 10
-10.7031374724
 20
7.9939829747
 10
-10.687343505
 20
7.9894383864
 10
-10.6710565446
 20
7.9878732464
  0
LWPOLYLINE
  5
366
100
AcDbEntity
  8
RACCORDO
100
AcDbPolyline
 62
7
  6
CONTINUOUS
 90
28
 70
0
 10
-8.5128129865
 20
-20.0
 10
-8.5157372363
 20
-19.9642510923
 10
-8.5226215204
 20
-19.9296786113
 10
-8.5334658389
 20
-19.8962825569
 10
-8.5486390238
 20
-19.8634445579
 10
-8.5677722431
 20
-19.8317829855
 10
-8.5897590006
 20
-19.8031529535
 10
-8.6146090202
 20
-19.7779859168
 10
-8.642312578
 20
-19.7558504205
 10
-8.6717340061
 20
-19.7373072127
 10
-8.7028831485
 20
-19.7224522863
 10
-8.7357501612
 20
-19.7111896485
 10
-8.7691698441
 20
-19.7037920696
 10
-8.8031498713
 20
-19.700353444
 10
-8.8376825687
 20
-19.7007798774
 10
-8.8715797138
 20
-19.7050624568
 10
-8.9048341339
 20
-19.7132958389
 10
-8.9374530018
 20
-19.7253853671
 10
-8.9682696129
 20
-19.7410381587
 10
-8.9972721559
 20
-19.7603486111
 10
-9.0244724422
 20
-19.783222327
 10
-9.0487392015
 20
-19.8090832317
 10
-9.0700568196
 20
-19.8383907562
 10
-9.0884409107
 20
-19.8706854695
 10
-9.1028070469
 20
-19.9040130043
 10
-9.1127937523
 20
-19.937721905
 10
-9.1187625028
 20
-19.9724636272
 10
-9.1207132985
 20
-20.0082381709
  0
LINE
  5
367
100
AcDbEntity
  8
RACCORDO
100
AcDbLine
 62
253
  6
CONTINUOUS
 10
-9.1207132985
 20
-20.0082381709
 11
-9.2663775511
 21
-17.2127744921
  0
LWPOLYLINE
  5
368
100
AcDbEntity
  8
0
100
AcDbPolyline
 62
253
  6
CONTINUOUS
 90
34
 70
0
 10
-9.1710806782
 20
-23.8443375673
 10
-9.1713968054
 20
-23.8340637895
 10
-9.1722757176
 20
-23.8238108791
 10
-9.1737158092
 20
-23.8136019692
 10
-9.1757143751
 20
-23.8034593699
 10
-9.178267191
 20
-23.7934067803
 10
-9.1813681111
 20
-23.7834691596
 10
-9.1850098191
 20
-23.7736697274
 10
-9.1891843245
 20
-23.7640297916
 10
-9.1938823051
 20
-23.7545709211
 10
-9.1990932616
 20
-23.7453143541
 10
-9.2048054028
 20
-23.7362811256
 10
-9.2110057351
 20
-23.7274918143
 10
-9.2176802111
 20
-23.7189663226
 10
-9.2248138089
 20
-23.7107238287
 10
-9.2323904429
 20
-23.7027829214
 10
-9.2403930252
 20
-23.6951615168
 10
-9.2488034834
 20
-23.6878768325
 10
-9.2576028159
 20
-23.6809453292
 10
-9.2667711527
 20
-23.6743826581
 10
-9.2762878045
 20
-23.6682036281
 10
-9.2861312896
 20
-23.6624221869
 10
-9.2962793884
 20
-23.6570513849
 10
-9.3067091933
 20
-23.6521033459
 10
-9.3173971606
 20
-23.6475892394
 10
-9.3283191773
 20
-23.6435192505
 10
-9.3394505765
 20
-23.6399025721
 10
-9.3507661908
 20
-23.6367473785
 10
-9.3622404487
 20
-23.6340607927
 10
-9.3738474744
 20
-23.6318488662
 10
-9.3855611082
 20
-23.6301165815
 10
-9.397354923
 20
-23.6288678476
 10
-9.4092022836
 20
-23.6281054856
 10
-9.4210764474
 20
-23.6278312164
  0
LINE
  5
369
100
AcDbEntity
  8
DRAFT
100
AcDbLine
 62
7
  6
CONTINUOUS
 10
-10.1714518583
 20
-15.507774954
 11
-10.1474075247
 21
-16.6183558863
  0
LINE
  5
36A
100
AcDbEntity
  8
RACCORDO
100
AcDbLine
 62
7
  6
CONTINUOUS
 10
-9.9739351924
 20
-15.6047893388
 11
-9.9467544658
 21
-16.8602367608
  0
LINE
  5
36B
100
AcDbEntity
  8
IMPORT_IGES
100
AcDbLine
 62
253
  6
CONTINUOUS
 10
-9.9582871294
 20
-4.7388371703
 11
-9.9697335723
 21
-4.1688776069
  0
LINE
  5
36C
100
AcDbEntity
  8
IMPORT_IGES
100
AcDbLine
 62
253
  6
CONTINUOUS
 10
-9.8721392468
 20
-9.8493180328
 11
-9.9016959226
 21
-8.1815039995
  0
LINE
  5
36D
100
AcDbEntity
  8
IMPORT_IGES
100
AcDbLine
 62
7
  6
CONTINUOUS
 10
-10.1718574007
 20
-9.6552357234
 11
-10.3394301386
 21
-0.055
  0
LINE
  5
36E
100
AcDbEntity
  8
IMPORT_IGES
100
AcDbLine
 62
253
  6
CONTINUOUS
 10
-9.9697335723
 20
-4.1688776069
 11
-10.023441215
 21
-1.0919876444
  0
LINE
  5
36F
100
AcDbEntity
  8
IMPORT_IGES
100
AcDbLine
 62
253
  6
CONTINUOUS
 10
-9.9040662445
 20
-7.8451539726
 11
-9.9582871294
 21
-4.7388371703
  0
LINE
  5
370
100
AcDbEntity
  8
IMPORT_IGES
100
AcDbLine
 62
7
  6
CONTINUOUS
 10
-10.0356199893
 20
-0.2710841037
 11
-10.023441215
 21
-1.0919876444
  0
LINE
  5
371
100
AcDbEntity
  8
IMPORT_IGES
100
AcDbLine
 62
253
  6
CONTINUOUS
 10
-10.0387627856
 20
-0.0549999076
 11
-10.0356201426
 21
-0.2710854105
  0
LINE
  5
372
100
AcDbEntity
  8
0
100
AcDbLine
 62
253
  6
CONTINUOUS
 10
-9.4210764474
 20
23.6278312164
 11
-9.4159858463
 21
23.1226497308
  0
LINE
  5
373
100
AcDbEntity
  8
IMPORT_IGES
100
AcDbLine
 62
7
  6
CONTINUOUS
 10
-9.9040662445
 20
-7.8451539726
 11
-9.9016959226
 21
-8.1815036063
  0
LINE
  5
374
100
AcDbEntity
  8
IMPORT_IGES
100
AcDbLine
 62
253
  6
CONTINUOUS
 10
-9.8719140797
 20
-9.8895904447
 11
-9.8721392468
 21
-9.8493180328
  0
LINE
  5
375
100
AcDbEntity
  8
RACCORDO
100
AcDbLine
 62
7
  6
CONTINUOUS
 10
-9.2663775511
 20
-17.2127744921
 11
-9.264006003
 21
-19.4260209733
  0
LINE
  5
376
100
AcDbEntity
  8
RACCORDO
100
AcDbLine
 62
253
  6
CONTINUOUS
 10
-10.7650258067
 20
8.8
 11
-10.7650258067
 21
8.0878694387
  0
LINE
  5
377
100
AcDbEntity
  8
RACCORDO
100
AcDbLine
 62
253
  6
CONTINUOUS
 10
-10.7650258067
 20
0.3121305613
 11
-10.7650258067
 21
-0.3121305613
  0
LINE
  5
378
100
AcDbEntity
  8
RACCORDO
100
AcDbLine
 62
253
  6
CONTINUOUS
 10
-10.7650258067
 20
-7.3878694387
 11
-10.7650258067
 21
-8.0121305613
  0
LINE
  5
379
100
AcDbEntity
  8
RACCORDO
100
AcDbLine
 62
253
  6
CONTINUOUS
 10
-10.7650258067
 20
-11.5587752426
 11
-10.7650258067
 21
-12.3121305613
  0
LINE
  5
37A
100
AcDbEntity
  8
RACCORDO
100
AcDbLine
 62
253
  6
CONTINUOUS
 10
-10.4831180205
 20
8.9
 11
-10.4831180205
 21
7.989021667
  0
LINE
  5
37B
100
AcDbEntity
  8
RACCORDO
100
AcDbLine
 62
253
  6
CONTINUOUS
 10
-10.4831180205
 20
-11.5599236471
 11
-10.4831180205
 21
-12.410978333
  0
LINE
  5
37C
100
AcDbEntity
  8
RACCORDO
100
AcDbLine
 62
253
  6
CONTINUOUS
 10
-10.4831180205
 20
-8.110978333
 11
-10.4831180205
 21
-7.289021667
  0
LINE
  5
37D
100
AcDbEntity
  8
RACCORDO
100
AcDbLine
 62
253
  6
CONTINUOUS
 10
-10.4831180205
 20
-0.410978333
 11
-10.4831180205
 21
0.410978333
  0
LINE
  5
37E
100
AcDbEntity
  8
DRAFT
100
AcDbLine
 62
7
  6
CONTINUOUS
 10
-10.3285453538
 20
-12.5132676422
 11
-10.3285453538
 21
-15.5
  0
LINE
  5
37F
100
AcDbEntity
  8
DRAFT
100
AcDbLine
 62
7
  6
CONTINUOUS
 10
-10.2667088442
 20
-9.6
 11
-10.2667088442
 21
-8.2
  0
LINE
  5
380
100
AcDbEntity
  8
RACCORDO
100
AcDbLine
 62
7
  6
CONTINUOUS
 10
-10.2667088442
 20
5.9999961923
 11
-10.2667088442
 21
7.9
  0
LINE
  5
381
100
AcDbEntity
  8
DRAFT
100
AcDbLine
 62
7
  6
CONTINUOUS
 10
-10.2492551086
 20
-9.5825462644
 11
-10.2492551086
 21
-8.1825462644
  0
LINE
  5
382
100
AcDbEntity
  8
DRAFT
100
AcDbLine
 62
7
  6
CONTINUOUS
 10
-10.1667088442
 20
-21.4
 11
-10.1667088442
 21
-20.9
  0
LINE
  5
383
100
AcDbEntity
  8
DRAFT
100
AcDbLine
 62
7
  6
CONTINUOUS
 10
-10.1667088442
 20
20.9
 11
-10.1667088442
 21
21.4
  0
LINE
  5
384
100
AcDbEntity
  8
DRAFT
100
AcDbLine
 62
253
  6
CONTINUOUS
 10
-9.983278346
 20
21.4537354271
 11
-9.983278346
 21
20.9
  0
LINE
  5
385
100
AcDbEntity
  8
DRAFT
100
AcDbLine
 62
253
  6
CONTINUOUS
 10
-9.983278346
 20
-20.9
 11
-9.983278346
 21
-21.4537354271
  0
LINE
  5
386
100
AcDbEntity
  8
0
100
AcDbLine
 62
253
  6
CONTINUOUS
 10
-9.4833544984
 20
21.3359869487
 11
-9.4833544984
 21
20.9
  0
LINE
  5
387
100
AcDbEntity
  8
0
100
AcDbLine
 62
253
  6
CONTINUOUS
 10
-9.4833544984
 20
-20.9
 11
-9.4833544984
 21
-21.3359869487
  0
LINE
  5
388
100
AcDbEntity
  8
0
100
AcDbLine
 62
253
  6
CONTINUOUS
 10
-9.4210764474
 20
-23.6278312164
 11
-9.4210764474
 21
-24.495628166
  0
LINE
  5
389
100
AcDbEntity
  8
0
100
AcDbLine
 62
253
  6
CONTINUOUS
 10
-9.4210764474
 20
23.6278312164
 11
-9.4210764474
 21
24.495628166
  0
LINE
  5
38A
100
AcDbEntity
  8
DRAFT
100
AcDbLine
 62
7
  6
CONTINUOUS
 10
-9.4167088442
 20
-12.5132676422
 11
-9.4167088442
 21
-12.5
  0
LINE
  5
38B
100
AcDbEntity
  8
IMPORT_IGES
100
AcDbLine
 62
253
  6
CONTINUOUS
 10
-9.3667088112
 20
-10.1812645708
 11
-9.3667088441
 21
-8.6420020066
  0
LINE
  5
38C
100
AcDbEntity
  8
IMPORT_IGES
100
AcDbLine
 62
253
  6
CONTINUOUS
 10
-9.3667088442
 20
-7.8451539777
 11
-9.3666983641
 21
-0.4528334326
  0
LINE
  5
38D
100
AcDbEntity
  8
RACCORDO
100
AcDbLine
 62
7
  6
CONTINUOUS
 10
-9.3268221059
 20
-12.3109821407
 11
-9.3268221059
 21
-13.4101323002
  0
LINE
  5
38E
100
AcDbEntity
  8
RACCORDO
100
AcDbLine
 62
7
  6
CONTINUOUS
 10
-9.2350352665
 20
-20.7899436635
 11
-9.2350352665
 21
-19.88468937
  0
LINE
  5
38F
100
AcDbEntity
  8
DRAFT
100
AcDbLine
 62
7
  6
CONTINUOUS
 10
-9.2167088442
 20
-11.5
 11
-9.2167088442
 21
-10.374686737
  0
LINE
  5
390
100
AcDbEntity
  8
DRAFT
100
AcDbLine
 62
7
  6
CONTINUOUS
 10
-9.1992551086
 20
-11.5116356596
 11
-9.1992551086
 21
-10.3847636559
  0
LINE
  5
391
100
AcDbEntity
  8
0
100
AcDbLine
 62
7
  6
CONTINUOUS
 10
-9.1710806782
 20
-24.2456323968
 11
-9.1710806782
 21
-23.8443375673
  0
LINE
  5
392
100
AcDbEntity
  8
0
100
AcDbLine
 62
7
  6
CONTINUOUS
 10
-9.1710806782
 20
23.8443375673
 11
-9.1710806782
 21
24.2456323968
  0
LINE
  5
393
100
AcDbEntity
  8
RACCORDO
100
AcDbLine
 62
7
  6
CONTINUOUS
 10
-9.1667088442
 20
23.4104851482
 11
-9.1667088442
 21
22.6002134903
  0
LINE
  5
394
100
AcDbEntity
  8
0
100
AcDbLine
 62
7
  6
CONTINUOUS
 10
-9.1667088442
 20
-23.8443375673
 11
-9.1667088442
 21
-23.4104851482
  0
LINE
  5
395
100
AcDbEntity
  8
RACCORDO
100
AcDbLine
 62
7
  6
CONTINUOUS
 10
-9.1667088442
 20
-22.6002134903
 11
-9.1667088442
 21
-23.4104851482
  0
LINE
  5
396
100
AcDbEntity
  8
IMPORT_IGES
100
AcDbLine
 62
7
  6
CONTINUOUS
 10
-9.1667088442
 20
-10.0571442482
 11
-9.1667088442
 21
-8.4822748922
  0
LINE
  5
397
100
AcDbEntity
  8
0
100
AcDbLine
 62
7
  6
CONTINUOUS
 10
-9.1667088442
 20
23.4104851482
 11
-9.1667088442
 21
23.8443375673
  0
LINE
  5
398
100
AcDbEntity
  8
RACCORDO
100
AcDbLine
 62
7
  6
CONTINUOUS
 10
-9.1207132985
 20
-20.9
 11
-9.1207132985
 21
-20.0082381709
  0
LINE
  5
399
100
AcDbEntity
  8
RACCORDO
100
AcDbLine
 62
7
  6
CONTINUOUS
 10
-9.1207132985
 20
20.0082381709
 11
-9.1207132985
 21
20.9
  0
LINE
  5
39A
100
AcDbEntity
  8
IMPORT_IGES
100
AcDbLine
 62
253
  6
CONTINUOUS
 10
-9.1197104854
 20
10.3965277095
 11
-9.1197088442
 21
8.0694332493
  0
LINE
  5
39B
100
AcDbEntity
  8
IMPORT_IGES
100
AcDbLine
 62
7
  6
CONTINUOUS
 10
-9.9051917649
 20
7.7428932188
 11
-9.9027231045
 21
8.0964466088
  0
LINE
  5
39C
100
AcDbEntity
  8
0
100
AcDbLine
 62
253
  6
CONTINUOUS
 10
-9.4159858463
 20
-23.1226497308
 11
-9.4210764474
 21
-23.6278312164
  0
LINE
  5
39D
100
AcDbEntity
  8
IMPORT_IGES
100
AcDbLine
 62
7
  6
CONTINUOUS
 10
-10.2286437904
 20
6.4019456371
 11
-10.1732146275
 21
9.5774802551
  0
LINE
  5
39E
100
AcDbEntity
  8
IMPORT_IGES
100
AcDbLine
 62
7
  6
CONTINUOUS
 10
-10.3394301386
 20
-0.055
 11
-10.226724564
 21
6.4018980425
  0
LINE
  5
39F
100
AcDbEntity
  8
IMPORT_IGES
100
AcDbLine
 62
253
  6
CONTINUOUS
 10
-9.9027232459
 20
8.0964466092
 11
-9.8757713573
 21
9.6404371128
  0
LINE
  5
3A0
100
AcDbEntity
  8
IMPORT_IGES
100
AcDbLine
 62
253
  6
CONTINUOUS
 10
-9.9113794464
 20
7.3884011851
 11
-9.9051917649
 21
7.7428932181
  0
LINE
  5
3A1
100
AcDbEntity
  8
IMPORT_IGES
100
AcDbLine
 62
253
  6
CONTINUOUS
 10
-10.0387627856
 20
-0.0549999076
 11
-9.9268031586
 21
6.3952710701
  0
LWPOLYLINE
  5
3A2
100
AcDbEntity
  8
0
100
AcDbPolyline
 62
253
  6
CONTINUOUS
 90
34
 70
0
 10
-9.1710806782
 20
23.8443375673
 10
-9.1713973289
 20
23.8340547998
 10
-9.1722774906
 20
23.8237952398
 10
-9.1737191769
 20
23.8135820427
 10
-9.175719134
 20
23.803438259
 10
-9.178272848
 20
23.7933867826
 10
-9.1813745554
 20
23.7834502991
 10
-9.1850172558
 20
23.7736512346
 10
-9.1891927278
 20
23.764011705
 10
-9.1938915478
 20
23.7545534661
 10
-9.1991031106
 20
23.7452978646
 10
-9.2048156541
 20
23.7362657898
 10
-9.2110162855
 20
23.7274776267
 10
-9.2176910102
 20
23.7189532096
 10
-9.2248247639
 20
23.7107117775
 10
-9.232401446
 20
23.702771931
 10
-9.2404039564
 20
23.6951515897
 10
-9.248814234
 20
23.6878679524
 10
-9.2576132973
 20
23.6809374578
 10
-9.2667812872
 20
23.6743757476
 10
-9.2762975122
 20
23.6681976311
 10
-9.2861404946
 20
23.6624170521
 10
-9.2962880196
 20
23.6570470569
 10
-9.3067171846
 20
23.6520997654
 10
-9.3174044518
 20
23.6475863432
 10
-9.3283257005
 20
23.6435169769
 10
-9.3394562822
 20
23.6399008509
 10
-9.3507710758
 20
23.6367461264
 10
-9.3622445445
 20
23.6340599235
 10
-9.3738507933
 20
23.6318483049
 10
-9.3855636276
 20
23.630116262
 10
-9.3973566122
 20
23.6288677039
 10
-9.4092031311
 20
23.6281054486
 10
-9.4210764474
 20
23.6278312164
  0
LWPOLYLINE
  5
3A3
100
AcDbEntity
  8
RACCORDO
100
AcDbPolyline
 62
7
  6
CONTINUOUS
 90
31
 70
0
 10
-8.3507656218
 20
16.9004479216
 10
-8.3533025065
 20
16.8489059314
 10
-8.3610924362
 20
16.7986505639
 10
-8.374135411
 20
16.7496820616
 10
-8.3928325967
 20
16.7011969173
 10
-8.4167828275
 20
16.6539990124
 10
-8.4447826054
 20
16.6105000473
 10
-8.4769756501
 20
16.5711947246
 10
-8.5132182418
 20
16.5355894506
 10
-8.5518757231
 20
16.5046139027
 10
-8.5927354506
 20
16.4785171563
 10
-8.6360100675
 20
16.4570510474
 10
-8.6807028466
 20
16.4403994064
 10
-8.7269685719
 20
16.4285507102
 10
-8.7746524593
 20
16.4215169404
 10
-8.8222934292
 20
16.4195170855
 10
-8.8699006851
 20
16.4227054345
 10
-8.9174650236
 20
16.4309276781
 10
-8.9634977546
 20
16.4439397922
 10
-9.0078995013
 20
16.4618212194
 10
-9.0507696406
 20
16.4844920189
 10
-9.0909176127
 20
16.5114690187
 10
-9.1284021757
 20
16.5429967591
 10
-9.1631645716
 20
16.5788298287
 10
-9.1938379669
 20
16.6177502124
 10
-9.2202120689
 20
16.6598406441
 10
-9.2424971703
 20
16.7050175122
 10
-9.2599573163
 20
16.7518136021
 10
-9.2723471885
 20
16.7997397576
 10
-9.2799121052
 20
16.8492846294
 10
-9.2826520665
 20
16.9004479216
  0
LINE
  5
3A4
100
AcDbEntity
  8
RACCORDO
100
AcDbLine
 62
253
  6
CONTINUOUS
 10
-9.2826520665
 20
16.9004479216
 11
-9.1207132985
 21
20.0082381709
  0
LINE
  5
3A5
100
AcDbEntity
  8
DRAFT
100
AcDbLine
 62
7
  6
CONTINUOUS
 10
-11.4288138312
 20
-16.4
 11
-11.466608301
 21
-16.8602367608
  0
LWPOLYLINE
  5
3A6
100
AcDbEntity
  8
IMPORT_IGES
100
AcDbPolyline
 62
253
  6
CONTINUOUS
 90
3
 70
0
 10
-5.890144849
 20
-10.752401958
 10
-5.8918708273
 20
-10.7524929589
 10
-5.8970063372
 20
-10.7525418203
  0
LWPOLYLINE
  5
3A7
100
AcDbEntity
  8
IMPORT_IGES
100
AcDbPolyline
 62
253
  6
CONTINUOUS
 90
3
 70
0
 10
6.0384854039
 20
-9.889590653
 10
6.0765802911
 20
-9.8878917596
 10
6.1142407578
 20
-9.8823041024
  0
LWPOLYLINE
  5
3A8
100
AcDbEntity
  8
IMPORT_IGES
100
AcDbPolyline
 62
253
  6
CONTINUOUS
 90
3
 70
0
 10
2.2567385464
 20
-10.750882232
 10
2.1348802918
 20
-10.7521534949
 10
2.0834877405
 20
-10.7525790528
  0
LINE
  5
3A9
100
AcDbEntity
  8
IMPORT_IGES
100
AcDbLine
 62
253
  6
CONTINUOUS
 10
-8.139852272
 20
-10.7508823024
 11
-6.0901608834
 21
-10.7508823024
  0
LINE
  5
3AA
100
AcDbEntity
  8
IMPORT_IGES
100
AcDbLine
 62
253
  6
CONTINUOUS
 10
2.2567333397
 20
-10.7508821734
 11
4.3064345911
 21
-10.7508821734
  0
LINE
  5
3AB
100
AcDbEntity
  8
IMPORT_IGES
100
AcDbLine
 62
253
  6
CONTINUOUS
 10
1.8610955494
 20
-10.5472710107
 11
-5.6945132375
 21
-10.5472710152
  0
LINE
  5
3AC
100
AcDbEntity
  8
DRAFT
100
AcDbLine
 62
7
  6
CONTINUOUS
 10
6.4332911558
 20
-9.6
 11
6.3384397125
 21
-9.6
  0
LINE
  5
3AD
100
AcDbEntity
  8
DRAFT
100
AcDbLine
 62
7
  6
CONTINUOUS
 10
-10.1728798948
 20
-9.6
 11
-10.2667088442
 21
-9.6
  0
LINE
  5
3AE
100
AcDbEntity
  8
DRAFT
100
AcDbLine
 62
7
  6
CONTINUOUS
 10
6.4158374203
 20
-9.5825462644
 11
6.3397085116
 21
-9.5825462644
  0
LINE
  5
3AF
100
AcDbEntity
  8
DRAFT
100
AcDbLine
 62
7
  6
CONTINUOUS
 10
-10.1728798948
 20
-9.5825462644
 11
-10.2492551086
 21
-9.5825462644
  0
LWPOLYLINE
  5
3B0
100
AcDbEntity
  8
IMPORT_IGES
100
AcDbPolyline
 62
253
  6
CONTINUOUS
 90
5
 70
0
 10
2.0834877405
 20
-10.7525790528
 10
2.0719335904
 20
-10.7525484639
 10
2.06353609
 20
-10.7523322918
 10
2.0584415096
 20
-10.7519691892
 10
2.0567384858
 20
-10.7514595596
  0
LINE
  5
3B1
100
AcDbEntity
  8
IMPORT_IGES
100
AcDbLine
 62
253
  6
CONTINUOUS
 10
-5.8970063372
 20
-10.7525418203
 11
-5.9170215313
 21
-10.7525111471
  0
LINE
  5
3B2
100
AcDbEntity
  8
IMPORT_IGES
100
AcDbLine
 62
253
  6
CONTINUOUS
 10
-5.9170215313
 20
-10.7525111471
 11
-6.0382258967
 21
-10.7514862945
  0
LINE
  5
3B3
100
AcDbEntity
  8
IMPORT_IGES
100
AcDbLine
 62
253
  6
CONTINUOUS
 10
-6.0382258967
 20
-10.7514862945
 11
-6.0902097395
 21
-10.7508906715
  0
LWPOLYLINE
  5
3B4
100
AcDbEntity
  8
IMPORT_IGES
100
AcDbPolyline
 62
253
  6
CONTINUOUS
 90
13
 70
0
 10
-5.6944802089
 20
-10.5472708738
 10
-5.7208369507
 20
-10.5459958849
 10
-5.7467959568
 20
-10.5419439172
 10
-5.7718972756
 20
-10.5351662905
 10
-5.7958310517
 20
-10.525698087
 10
-5.8180000103
 20
-10.5137239779
 10
-5.837650098
 20
-10.4997206576
 10
-5.8543617609
 20
-10.4842320893
 10
-5.8682300163
 20
-10.4674446536
 10
-5.8793413971
 20
-10.4493625669
 10
-5.8875481847
 20
-10.4301542378
 10
-5.8926319026
 20
-10.4102325628
 10
-5.8944988167
 20
-10.3899456087
  0
LWPOLYLINE
  5
3B5
100
AcDbEntity
  8
IMPORT_IGES
100
AcDbPolyline
 62
253
  6
CONTINUOUS
 90
6
 70
0
 10
5.5332911404
 20
-10.1812646504
 10
5.507480468
 20
-10.1799289717
 10
5.4821883534
 20
-10.1759625949
 10
5.4578282208
 20
-10.1694584775
 10
5.4349043787
 20
-10.1606012045
 10
5.4136476409
 20
-10.1495323007
  0
LWPOLYLINE
  5
3B6
100
AcDbEntity
  8
RACCORDO
100
AcDbPolyline
 62
253
  6
CONTINUOUS
 90
10
 70
0
 10
-10.6710565446
 20
-8.1121267536
 10
-10.6873435179
 20
-8.1105616111
 10
-10.7031374939
 20
-8.1060170169
 10
-10.7179603978
 20
-8.0986305333
 10
-10.7313635489
 20
-8.088625745
 10
-10.7429412414
 20
-8.0763054911
 10
-10.7523430251
 20
-8.0620426988
 10
-10.7592843136
 20
-8.0462690945
 10
-10.7635549978
 20
-8.0294621364
 10
-10.7650258067
 20
-8.0121305613
  0
LWPOLYLINE
  5
3B7
100
AcDbEntity
  8
IMPORT_IGES
100
AcDbPolyline
 62
7
  6
CONTINUOUS
 90
5
 70
0
 10
-6.0926935804
 20
-8.3825380693
 10
-6.0709828906
 20
-8.3854635279
 10
-6.0501848895
 20
-8.3896773756
 10
-6.0304845111
 20
-8.3950449199
 10
-6.0121764879
 20
-8.4013765366
  0
LWPOLYLINE
  5
3B8
100
AcDbEntity
  8
IMPORT_IGES
100
AcDbPolyline
 62
253
  6
CONTINUOUS
 90
4
 70
0
 10
-5.9294744814
 20
-8.4808118158
 10
-5.9322145484
 20
-8.4803575025
 10
-5.9433103219
 20
-8.4791262097
 10
-5.9571645283
 20
-8.4780275707
  0
LINE
  5
3B9
100
AcDbEntity
  8
IMPORT_IGES
100
AcDbLine
 62
7
  6
CONTINUOUS
 10
-6.0121764879
 20
-8.4013765366
 11
-6.0049377801
 21
-8.4043394369
  0
LWPOLYLINE
  5
3BA
100
AcDbEntity
  8
IMPORT_IGES
100
AcDbPolyline
 62
7
  6
CONTINUOUS
 90
6
 70
0
 10
-6.0049786306
 20
-8.4044392395
 10
-6.0004032237
 20
-8.406599632
 10
-5.9875442522
 20
-8.4137433196
 10
-5.9756490327
 20
-8.4219581309
 10
-5.9648956512
 20
-8.4310064057
 10
-5.9553464651
 20
-8.4406773203
  0
LWPOLYLINE
  5
3BB
100
AcDbEntity
  8
IMPORT_IGES
100
AcDbPolyline
 62
253
  6
CONTINUOUS
 90
6
 70
0
 10
-5.9768831889
 20
-8.2067231028
 10
-5.9931570535
 20
-8.1978925827
 10
-6.0108538098
 20
-8.190816064
 10
-6.0296480185
 20
-8.1856558943
 10
-6.0492547221
 20
-8.182521018
 10
-6.0693335473
 20
-8.1815015194
  0
LINE
  5
3BC
100
AcDbEntity
  8
DRAFT
100
AcDbLine
 62
7
  6
CONTINUOUS
 10
2.0533425352
 20
-16.8647171262
 11
1.8526894763
 21
-16.6228362517
  0
LWPOLYLINE
  5
3BD
100
AcDbEntity
  8
IMPORT_IGES
100
AcDbPolyline
 62
7
  6
CONTINUOUS
 90
8
 70
0
 10
-5.9553464651
 20
-8.4406773203
 10
-5.9469702862
 20
-8.4508302544
 10
-5.9397381311
 20
-8.4613260553
 10
-5.9336796554
 20
-8.4719050201
 10
-5.9287872186
 20
-8.4822674771
 10
-5.9249162426
 20
-8.4923464705
 10
-5.921986314
 20
-8.5019207
 10
-5.9199513983
 20
-8.5104679139
  0
LWPOLYLINE
  5
3BE
100
AcDbEntity
  8
RACCORDO
100
AcDbPolyline
 62
7
  6
CONTINUOUS
 90
16
 70
0
 10
-11.5618534108
 20
-0.4334852763
 10
-11.5621377681
 20
-0.4331371058
 10
-11.5624139441
 20
-0.4325128088
 10
-11.5626819387
 20
-0.4316123854
 10
-11.562941586
 20
-0.4304209506
 10
-11.563193052
 20
-0.4289533894
 10
-11.5634368348
 20
-0.4272543565
 10
-11.5636728933
 20
-0.4253322663
 10
-11.5639012687
 20
-0.4231787046
 10
-11.5641225826
 20
-0.4208130833
 10
-11.5643367407
 20
-0.4182466499
 10
-11.5645438374
 20
-0.415468157
 10
-11.5647447767
 20
-0.4124632741
 10
-11.5649399165
 20
-0.4092402963
 10
-11.565128899
 20
-0.4057909285
 10
-11.5653115545
 20
-0.4020759546
  0
LWPOLYLINE
  5
3BF
100
AcDbEntity
  8
IMPORT_IGES
100
AcDbPolyline
 62
253
  6
CONTINUOUS
 90
13
 70
0
 10
-10.2696879041
 20
-4.0505299365
 10
-10.2669119307
 20
-4.0663988954
 10
-10.2592285413
 20
-4.081852287
 10
-10.2468257404
 20
-4.0966408583
 10
-10.2300664752
 20
-4.1104602873
 10
-10.209221953
 20
-4.1231805314
 10
-10.1842495517
 20
-4.134787263
 10
-10.1552211844
 20
-4.1451075311
 10
-10.1226700596
 20
-4.1538276226
 10
-10.0872238711
 20
-4.1607088839
 10
-10.049513484
 20
-4.165584943
 10
-10.010121343
 20
-4.168338965
 10
-9.9697337366
 20
-4.1688776093
  0
LWPOLYLINE
  5
3C0
100
AcDbEntity
  8
IMPORT_IGES
100
AcDbPolyline
 62
253
  6
CONTINUOUS
 90
13
 70
0
 10
-10.3233952714
 20
-0.9736369292
 10
-10.3206189688
 20
-0.9895068083
 10
-10.3129348924
 20
-1.0049606939
 10
-10.3005314348
 20
-1.0197493413
 10
-10.283772097
 20
-1.0335683515
 10
-10.262928304
 20
-1.0462879099
 10
-10.2379569183
 20
-1.0578941066
 10
-10.2089296249
 20
-1.0682139274
 10
-10.1763796571
 20
-1.076933724
 10
-10.1409341017
 20
-1.0838152659
 10
-10.1032234889
 20
-1.0886922131
 10
-10.0638303496
 20
-1.0914474641
 10
-10.02344097
 20
-1.0919875572
  0
LINE
  5
3C1
100
AcDbEntity
  8
RACCORDO
100
AcDbLine
 62
7
  6
CONTINUOUS
 10
-6.4779689915
 20
-19.4260209733
 11
-6.4514792966
 21
-19.5851005096
  0
LWPOLYLINE
  5
3C2
100
AcDbEntity
  8
RACCORDO
100
AcDbPolyline
 62
7
  6
CONTINUOUS
 90
28
 70
0
 10
-9.1207132985
 20
20.0082381709
 10
-9.1187704474
 20
19.9725478485
 10
-9.1128292625
 20
19.9378840147
 10
-9.1028897437
 20
19.9042466696
 10
-9.0886022282
 20
19.8709940563
 10
-9.0703163789
 20
19.8387679316
 10
-9.0490811839
 20
19.8094935661
 10
-9.0248689123
 20
19.7836104902
 10
-8.997707295
 20
19.7606791734
 10
-8.9687285125
 20
19.7413062952
 10
-8.9379184779
 20
19.7255931586
 10
-8.905291278
 20
19.7134384605
 10
-8.8720213536
 20
19.7051449717
 10
-8.8381031424
 20
19.7008098908
 10
-8.8035422067
 20
19.7003360192
 10
-8.7695296746
 20
19.7037345305
 10
-8.7360731921
 20
19.7110994363
 10
-8.7031651133
 20
19.722336725
 10
-8.6719736276
 20
19.7371755362
 10
-8.6425074072
 20
19.7557136063
 10
-8.61475778
 20
19.7778531989
 10
-8.5898669199
 20
19.803030245
 10
-8.5678461895
 20
19.8316771255
 10
-8.5486842261
 20
19.8633614594
 10
-8.5334891156
 20
19.896222035
 10
-8.5226302198
 20
19.9296384484
 10
-8.5157381767
 20
19.9642311033
 10
-8.5128129865
 20
20.0
  0
LINE
  5
3C3
100
AcDbEntity
  8
RACCORDO
100
AcDbLine
 62
253
  6
CONTINUOUS
 10
-8.3507656218
 20
16.9004479216
 11
-8.5122751205
 21
20.0
  0
LWPOLYLINE
  5
3C4
100
AcDbEntity
  8
0
100
AcDbPolyline
 62
7
  6
CONTINUOUS
 90
34
 70
0
 10
-9.1710806782
 20
24.2456323968
 10
-9.171364229
 20
24.2575274183
 10
-9.1722134339
 20
24.269395495
 10
-9.1736263693
 20
24.2812097429
 10
-9.1755998346
 20
24.2929434001
 10
-9.1781293594
 20
24.3045698874
 10
-9.1812092137
 20
24.316062868
 10
-9.1848324211
 20
24.3273963078
 10
-9.1889907742
 20
24.338544534
 10
-9.1936748533
 20
24.3494822935
 10
-9.1988740479
 20
24.3601848096
 10
-9.2045765808
 20
24.3706278389
 10
-9.2107695343
 20
24.3807877255
 10
-9.2174388802
 20
24.390641455
 10
-9.2245695107
 20
24.4001667064
 10
-9.2321452735
 20
24.4093419031
 10
-9.2401490077
 20
24.4181462611
 10
-9.2485625831
 20
24.4265598365
 10
-9.2573669411
 20
24.4345635707
 10
-9.2665421377
 20
24.4421393334
 10
-9.2760673892
 20
24.449269964
 10
-9.2859211187
 20
24.4559393098
 10
-9.2960810053
 20
24.4621322634
 10
-9.3065240346
 20
24.4678347962
 10
-9.3172265507
 20
24.4730339909
 10
-9.3281643101
 20
24.47771807
 10
-9.3393125364
 20
24.481876423
 10
-9.3506459762
 20
24.4854996304
 10
-9.3621389568
 20
24.4885794848
 10
-9.373765444
 20
24.4911090096
 10
-9.3854991013
 20
24.4930824749
 10
-9.3973133492
 20
24.4944954103
 10
-9.4091814258
 20
24.4953446152
 10
-9.4210764474
 20
24.495628166
  0
LWPOLYLINE
  5
3C5
100
AcDbEntity
  8
0
100
AcDbPolyline
 62
7
  6
CONTINUOUS
 90
5
 70
0
 10
-9.1667088442
 20
24.2500042308
 10
-9.1669919944
 20
24.261899516
 10
-9.1678408099
 20
24.2737678556
 10
-9.16925337
 20
24.2855823661
 10
-9.1712264764
 20
24.2973162875
  0
LINE
  5
3C6
100
AcDbEntity
  8
0
100
AcDbLine
 62
253
  6
CONTINUOUS
 10
-9.1710806782
 20
23.8443375673
 11
-9.1667088442
 21
23.4104851482
  0
LINE
  5
3C7
100
AcDbEntity
  8
IMPORT_IGES
100
AcDbLine
 62
253
  6
CONTINUOUS
 10
-8.9668666029
 20
-0.0710831898
 11
-8.9667330212
 21
-0.2710818644
  0
LINE
  5
3C8
100
AcDbEntity
  8
IMPORT_IGES
100
AcDbLine
 62
253
  6
CONTINUOUS
 10
-8.9667124103
 20
-8.3405803827
 11
-8.9667138451
 21
-10.2911911821
  0
LINE
  5
3C9
100
AcDbEntity
  8
IMPORT_IGES
100
AcDbLine
 62
7
  6
CONTINUOUS
 10
-8.9197088442
 20
8.1485687875
 11
-8.9197088442
 21
10.4672173642
  0
LINE
  5
3CA
100
AcDbEntity
  8
IMPORT_IGES
100
AcDbLine
 62
253
  6
CONTINUOUS
 10
-8.7197088442
 20
8.2018593491
 11
-8.7197088513
 21
10.95
  0
LINE
  5
3CB
100
AcDbEntity
  8
RACCORDO
100
AcDbLine
 62
253
  6
CONTINUOUS
 10
-8.7167088442
 20
-13.9101132618
 11
-8.7167088442
 21
-13.5
  0
LINE
  5
3CC
100
AcDbEntity
  8
RACCORDO
100
AcDbLine
 62
253
  6
CONTINUOUS
 10
-8.7167088442
 20
-11.5116356596
 11
-8.7167088442
 21
-10.6633618716
  0
LINE
  5
3CD
100
AcDbEntity
  8
DRAFT
100
AcDbLine
 62
7
  6
CONTINUOUS
 10
-8.4167088442
 20
-11.5599236471
 11
-8.4167088442
 21
-12.3
  0
LINE
  5
3CE
100
AcDbEntity
  8
RACCORDO
100
AcDbLine
 62
7
  6
CONTINUOUS
 10
-8.4167088442
 20
-13.9127313221
 11
-8.4167088442
 21
-13.5
  0
LINE
  5
3CF
100
AcDbEntity
  8
RACCORDO
100
AcDbLine
 62
7
  6
CONTINUOUS
 10
-8.4167088442
 20
-11.5555928127
 11
-8.4167088442
 21
-10.8365669523
  0
LINE
  5
3D0
100
AcDbEntity
  8
RACCORDO
100
AcDbLine
 62
7
  6
CONTINUOUS
 10
-8.3983824218
 20
-19.88468937
 11
-8.3983824218
 21
-20.0
  0
LINE
  5
3D1
100
AcDbEntity
  8
IMPORT_IGES
100
AcDbLine
 62
253
  6
CONTINUOUS
 10
-8.2667088441
 20
0.545
 11
-8.2667088442
 21
1.945
  0
LINE
  5
3D2
100
AcDbEntity
  8
IMPORT_IGES
100
AcDbLine
 62
253
  6
CONTINUOUS
 10
-8.139852272
 20
-10.7508823024
 11
-8.1398522595
 21
-10.95
  0
LINE
  5
3D3
100
AcDbEntity
  8
RACCORDO
100
AcDbLine
 62
253
  6
CONTINUOUS
 10
-8.1167088442
 20
-12.9
 11
-8.1167088442
 21
-13.2
  0
LINE
  5
3D4
100
AcDbEntity
  8
IMPORT_IGES
100
AcDbLine
 62
253
  6
CONTINUOUS
 10
-8.0667092673
 20
11.15
 11
-8.0667093748
 21
10.95
  0
LINE
  5
3D5
100
AcDbEntity
  8
IMPORT_IGES
100
AcDbLine
 62
7
  6
CONTINUOUS
 10
-7.9667088442
 20
1.945
 11
-7.9667088442
 21
-0.455
  0
LINE
  5
3D6
100
AcDbEntity
  8
IMPORT_IGES
100
AcDbLine
 62
7
  6
CONTINUOUS
 10
-7.8634153737
 20
-11.15
 11
-7.8634153737
 21
-11.1381387631
  0
LINE
  5
3D7
100
AcDbEntity
  8
IMPORT_IGES
100
AcDbLine
 62
7
  6
CONTINUOUS
 10
-7.6667088442
 20
-0.9743342048
 11
-7.6667088442
 21
-6.4663853498
  0
LINE
  5
3D8
100
AcDbEntity
  8
IMPORT_IGES
100
AcDbLine
 62
253
  6
CONTINUOUS
 10
-7.6667088442
 20
-0.455
 11
-7.6667088442
 21
1.945
  0
LINE
  5
3D9
100
AcDbEntity
  8
IMPORT_IGES
100
AcDbLine
 62
253
  6
CONTINUOUS
 10
-7.5667089858
 20
-11.1499999994
 11
-7.5667101937
 21
-10.95
  0
LINE
  5
3DA
100
AcDbEntity
  8
IMPORT_IGES
100
AcDbLine
 62
253
  6
CONTINUOUS
 10
-7.4667088441
 20
-1.0458098149
 11
-7.4667088442
 21
-7.8451489625
  0
LINE
  5
3DB
100
AcDbEntity
  8
DRAFT
100
AcDbLine
 62
7
  6
CONTINUOUS
 10
-7.4167088442
 20
12.5132676422
 11
-7.4167088442
 21
11.15
  0
LINE
  5
3DC
100
AcDbEntity
  8
IMPORT_IGES
100
AcDbLine
 62
253
  6
CONTINUOUS
 10
-7.3667088441
 20
-1.055
 11
-7.3667088442
 21
-0.755
  0
LINE
  5
3DD
100
AcDbEntity
  8
RACCORDO
100
AcDbLine
 62
7
  6
CONTINUOUS
 10
-8.3670401372
 20
-17.2127744921
 11
-8.3694116853
 21
-19.4260209733
  0
LINE
  5
3DE
100
AcDbEntity
  8
0
100
AcDbLine
 62
253
  6
CONTINUOUS
 10
-9.1667088442
 20
-23.4104851482
 11
-9.1710806782
 21
-23.8443375673
  0
LWPOLYLINE
  5
3DF
100
AcDbEntity
  8
RACCORDO
100
AcDbPolyline
 62
7
  6
CONTINUOUS
 90
31
 70
0
 10
-9.2663775511
 20
-17.2127744921
 10
-9.2638891334
 20
-17.1626817126
 10
-9.2563410808
 20
-17.1138897017
 10
-9.2437333932
 20
-17.0663984594
 10
-9.2256745942
 20
-17.0194461018
 10
-9.2025561603
 20
-16.9737945128
 10
-9.1755525208
 20
-16.9317293436
 10
-9.1445366256
 20
-16.8937196972
 10
-9.1096355248
 20
-16.8592964706
 10
-9.0724047978
 20
-16.8293380056
 10
-9.0330393193
 20
-16.8040750005
 10
-8.9913442147
 20
-16.7832767572
 10
-8.9482904398
 20
-16.7671295223
 10
-8.9037372029
 20
-16.7556261312
 10
-8.8578252958
 20
-16.7487737485
 10
-8.8119480492
 20
-16.7467801155
 10
-8.7660994294
 20
-16.7497880762
 10
-8.7202854702
 20
-16.7576547864
 10
-8.675917604
 20
-16.7701594546
 10
-8.6330835885
 20
-16.7873747993
 10
-8.5916956659
 20
-16.809228102
 10
-8.5529019952
 20
-16.835280416
 10
-8.5166341404
 20
-16.8657795291
 10
-8.4829605374
 20
-16.9004776534
 10
-8.4532346531
 20
-16.9381924789
 10
-8.4276649851
 20
-16.9790000147
 10
-8.4060430358
 20
-17.0228242517
 10
-8.389096779
 20
-17.0682548517
 10
-8.3770688726
 20
-17.1148217021
 10
-8.3697166586
 20
-17.1629949156
 10
-8.3670401372
 20
-17.2127744921
  0
LWPOLYLINE
  5
3E0
100
AcDbEntity
  8
RACCORDO
100
AcDbPolyline
 62
7
  6
CONTINUOUS
 90
31
 70
0
 10
-7.4160696255
 20
13.7284206282
 10
-7.4133069947
 20
13.7834590687
 10
-7.4050081679
 20
13.8371249588
 10
-7.3911731448
 20
13.8894184485
 10
-7.3713857087
 20
13.9411809996
 10
-7.3460620764
 20
13.9915713799
 10
-7.316450899
 20
14.0380659953
 10
-7.2823930045
 20
14.0801571423
 10
-7.2440475648
 20
14.1183533652
 10
-7.2031407468
 20
14.1516557868
 10
-7.1599123488
 20
14.1797925303
 10
-7.1141225724
 20
14.2030362125
 10
-7.0667781892
 20
14.2212047165
 10
-7.0176951301
 20
14.2343207604
 10
-6.9670574641
 20
14.2423620163
 10
-6.9164241697
 20
14.2450787198
 10
-6.8657956234
 20
14.2423028487
 10
-6.8151714487
 20
14.2342024244
 10
-6.7661094937
 20
14.2210316524
 10
-6.7187905876
 20
14.2028081834
 10
-6.6730339011
 20
14.1795139753
 10
-6.6298547948
 20
14.1513496175
 10
-6.5890248
 20
14.1180500867
 10
-6.5507723852
 20
14.0798796697
 10
-6.5167983167
 20
14.0378329427
 10
-6.4872566518
 20
13.9914153292
 10
-6.4619933332
 20
13.9411205709
 10
-6.4422469555
 20
13.8894260601
 10
-6.4284303836
 20
13.8371576238
 10
-6.4201307528
 20
13.7834891977
 10
-6.4173480628
 20
13.7284206282
  0
LINE
  5
3E1
100
AcDbEntity
  8
RACCORDO
100
AcDbLine
 62
253
  6
CONTINUOUS
 10
-8.5122751205
 20
-20.0
 11
-8.3670401372
 21
-17.2127744921
  0
LWPOLYLINE
  5
3E2
100
AcDbEntity
  8
IMPORT_IGES
100
AcDbPolyline
 62
253
  6
CONTINUOUS
 90
5
 70
0
 10
-9.1667088442
 20
-10.0215376376
 10
-9.1683813148
 20
-10.0421508702
 10
-9.1733477726
 20
-10.0623499873
 10
-9.1814918216
 20
-10.0818048116
 10
-9.192582333
 20
-10.1001125916
  0
LWPOLYLINE
  5
3E3
100
AcDbEntity
  8
IMPORT_IGES
100
AcDbPolyline
 62
7
  6
CONTINUOUS
 90
14
 70
0
 10
-9.1667056716
 20
-8.480809703
 10
-9.1665461287
 20
-8.4790763907
 10
-9.1660083966
 20
-8.4759898339
 10
-9.1648127033
 20
-8.471744807
 10
-9.1623255893
 20
-8.4658260378
 10
-9.1584981196
 20
-8.4590845116
 10
-9.1531414945
 20
-8.4516456081
 10
-9.1456895409
 20
-8.4432547129
 10
-9.1360852115
 20
-8.4343653855
 10
-9.1243808837
 20
-8.4253721702
 10
-9.1103895115
 20
-8.4164490866
 10
-9.0938853434
 20
-8.4077976474
 10
-9.0750114927
 20
-8.3998082438
 10
-9.0541225244
 20
-8.3928916726
  0
LWPOLYLINE
  5
3E4
100
AcDbEntity
  8
IMPORT_IGES
100
AcDbPolyline
 62
253
  6
CONTINUOUS
 90
10
 70
0
 10
-9.3667088441
 20
-8.6420020066
 10
-9.3623365697
 20
-8.6048034418
 10
-9.3540685097
 20
-8.5701289095
 10
-9.3419046641
 20
-8.5379784098
 10
-9.3255933352
 20
-8.508507501
 10
-9.3053862208
 20
-8.4815606248
 10
-9.2820384138
 20
-8.4566711058
 10
-9.2554824399
 20
-8.4334901921
 10
-9.2257857735
 20
-8.4123666357
 10
-9.1939059303
 20
-8.3938800171
  0
LWPOLYLINE
  5
3E5
100
AcDbEntity
  8
0
100
AcDbPolyline
 62
7
  6
CONTINUOUS
 90
13
 70
0
 10
-5.4167088442
 20
23.9541479441
 10
-5.4169629925
 20
23.9524901082
 10
-5.4177279117
 20
23.9503478903
 10
-5.4190068822
 20
23.9477212905
 10
-5.4208015797
 20
23.9446162269
 10
-5.4231146095
 20
23.9410267813
 10
-5.4259520347
 20
23.9369351995
 10
-5.4293151957
 20
23.9323457235
 10
-5.4332078488
 20
23.9272541112
 10
-5.4376455302
 20
23.9216298825
 10
-5.4426284727
 20
23.915485329
 10
-5.4481658108
 20
23.9088081591
 10
-5.4542990525
 20
23.901531018
  0
LWPOLYLINE
  5
3E6
100
AcDbEntity
  8
IMPORT_IGES
100
AcDbPolyline
 62
253
  6
CONTINUOUS
 90
13
 70
0
 10
-9.1667088927
 20
-1.0096539321
 10
-9.1683828124
 20
-1.0202341318
 10
-9.1733490741
 20
-1.0306506586
 10
-9.1814921022
 20
-1.0406842151
 10
-9.1925819743
 20
-1.0501272818
 10
-9.2064420744
 20
-1.0588843669
 10
-9.2230917496
 20
-1.0669370759
 10
-9.2424765792
 20
-1.0741650726
 10
-9.2642430406
 20
-1.080353188
 10
-9.2879696598
 20
-1.0853338561
 10
-9.31323101
 20
-1.08898773
 10
-9.3396323257
 20
-1.0912291618
 10
-9.3667088441
 20
-1.0919877028
  0
LWPOLYLINE
  5
3E7
100
AcDbEntity
  8
IMPORT_IGES
100
AcDbPolyline
 62
253
  6
CONTINUOUS
 90
15
 70
0
 10
-6.2825894159
 20
4.903248457
 10
-6.2313495696
 20
5.0451953736
 10
-6.1555028643
 20
5.2201533469
 10
-6.0658671308
 20
5.3993850448
 10
-5.9634134346
 20
5.5789696712
 10
-5.8512008675
 20
5.7543322964
 10
-5.7286185472
 20
5.9245550639
 10
-5.5962773559
 20
6.0905558303
 10
-5.4590690328
 20
6.2505132356
 10
-5.3233144032
 20
6.3985752181
 10
-5.1826926418
 20
6.5405938395
 10
-5.0231330108
 20
6.6923039247
 10
-4.8399452644
 20
6.8589504153
 10
-4.6378196485
 20
7.0352883697
 10
-4.416756163
 20
7.2213177878
  0
LWPOLYLINE
  5
3E8
100
AcDbEntity
  8
IMPORT_IGES
100
AcDbPolyline
 62
253
  6
CONTINUOUS
 90
19
 70
0
 10
-9.3142069438
 20
-0.2710854105
 10
-9.3208372041
 20
-0.2843720104
 10
-9.3268245624
 20
-0.297001862
 10
-9.3321690186
 20
-0.3089745785
 10
-9.3367643234
 20
-0.3201194809
 10
-9.3407167262
 20
-0.3306069303
 10
-9.3443449748
 20
-0.3409480627
 10
-9.347732502
 20
-0.3512619807
 10
-9.350795875
 20
-0.3614291404
 10
-9.353603544
 20
-0.3716024207
 10
-9.3561907769
 20
-0.3819214886
 10
-9.3585223059
 20
-0.3922460477
 10
-9.3605607773
 20
-0.4023091694
 10
-9.3622887152
 20
-0.4121642336
 10
-9.3637235956
 20
-0.4217578364
 10
-9.3648804932
 20
-0.4306636119
 10
-9.3657644329
 20
-0.438740006
 10
-9.3663703899
 20
-0.4461297611
 10
-9.3666983641
 20
-0.4528334326
  0
LINE
  5
3E9
100
AcDbEntity
  8
IMPORT_IGES
100
AcDbLine
 62
253
  6
CONTINUOUS
 10
-4.4926436355
 20
7.1058531341
 11
-4.4167404538
 21
7.2213468442
  0
LINE
  5
3EA
100
AcDbEntity
  8
IMPORT_IGES
100
AcDbLine
 62
253
  6
CONTINUOUS
 10
-4.8188572789
 20
6.6149581552
 11
-4.7218118064
 21
6.7618542326
  0
LINE
  5
3EB
100
AcDbEntity
  8
IMPORT_IGES
100
AcDbLine
 62
253
  6
CONTINUOUS
 10
-4.7218118064
 20
6.7618542326
 11
-4.4926436355
 21
7.1058531341
  0
LWPOLYLINE
  5
3EC
100
AcDbEntity
  8
DRAFT
100
AcDbPolyline
 62
7
  6
CONTINUOUS
 90
4
 70
0
 10
5.9009778637
 20
21.6973892622
 10
5.8473371219
 20
21.6182814201
 10
5.8199753879
 20
21.5782973885
 10
5.792189378
 20
21.5381681977
  0
LWPOLYLINE
  5
3ED
100
AcDbEntity
  8
IMPORT_IGES
100
AcDbPolyline
 62
253
  6
CONTINUOUS
 90
10
 70
0
 10
-9.3142069438
 20
-0.271086715
 10
-9.286338869
 20
-0.2312287525
 10
-9.2552935253
 20
-0.1955827491
 10
-9.2210709127
 20
-0.1641487049
 10
-9.1830098004
 20
-0.1366641518
 10
-9.1417714192
 20
-0.1133915579
 10
-9.0993394612
 20
-0.0951183274
 10
-9.0563751572
 20
-0.0821069282
 10
-9.0122172765
 20
-0.0740948923
 10
-8.966865819
 20
-0.0710822198
  0
LWPOLYLINE
  5
3EE
100
AcDbEntity
  8
DRAFT
100
AcDbPolyline
 62
7
  6
CONTINUOUS
 90
3
 70
0
 10
5.792189378
 20
21.5381681977
 10
5.6787035919
 20
21.3764763181
 10
5.6499368101
 20
21.3359869487
  0
LWPOLYLINE
  5
3EF
100
AcDbEntity
  8
IMPORT_IGES
100
AcDbPolyline
 62
253
  6
CONTINUOUS
 90
13
 70
0
 10
4.9620867427
 20
10.9499974091
 10
4.9572945451
 20
10.9483923246
 10
4.9525053658
 20
10.9435008113
 10
4.9478459534
 20
10.9353415953
 10
4.9434972909
 20
10.9242861769
 10
4.9395017726
 20
10.9106058452
 10
4.9357930599
 20
10.894034525
 10
4.9324633303
 20
10.8747431385
 10
4.9296297571
 20
10.8532570471
 10
4.9273165466
 20
10.8295691956
 10
4.9256002219
 20
10.8040867242
 10
4.9245537156
 20
10.7777157085
 10
4.9241887512
 20
10.7512228488
  0
LWPOLYLINE
  5
3F0
100
AcDbEntity
  8
IMPORT_IGES
100
AcDbPolyline
 62
7
  6
CONTINUOUS
 90
3
 70
0
 10
2.2027212333
 20
-8.3933606307
 10
2.2257051654
 20
-8.3876924639
 10
2.2501331287
 20
-8.3835896712
  0
LWPOLYLINE
  5
3F1
100
AcDbEntity
  8
IMPORT_IGES
100
AcDbPolyline
 62
253
  6
CONTINUOUS
 90
3
 70
0
 10
-9.0476129406
 20
-8.3473168656
 10
-9.0078085797
 20
-8.3425698851
 10
-8.9667117734
 20
-8.3405804277
  0
LWPOLYLINE
  5
3F2
100
AcDbEntity
  8
RACCORDO
100
AcDbPolyline
 62
253
  6
CONTINUOUS
 90
10
 70
0
 10
6.8376388563
 20
-8.1121267536
 10
6.8539257822
 20
-8.1105616202
 10
6.869719727
 20
-8.1060170476
 10
6.8845426174
 20
-8.0986305901
 10
6.8979457721
 20
-8.0886258241
 10
6.9095234812
 20
-8.0763055823
 10
6.9189252877
 20
-8.0620427892
 10
6.9258665994
 20
-8.0462691699
 10
6.930137302
 20
-8.0294621811
 10
6.9316081184
 20
-8.0121305613
  0
LINE
  5
3F3
100
AcDbEntity
  8
IMPORT_IGES
100
AcDbLine
 62
7
  6
CONTINUOUS
 10
2.2501331287
 20
-8.3835896712
 11
2.2750563907
 21
-8.3813216186
  0
LWPOLYLINE
  5
3F4
100
AcDbEntity
  8
IMPORT_IGES
100
AcDbPolyline
 62
253
  6
CONTINUOUS
 90
13
 70
0
 10
-9.3667088112
 20
-8.6420020066
 10
-9.3408981467
 20
-8.6406663084
 10
-9.315606038
 20
-8.636699918
 10
-9.2912459092
 20
-8.630195792
 10
-9.2683220682
 20
-8.6213385165
 10
-9.2470653299
 20
-8.6102696141
 10
-9.2275183259
 20
-8.5969729731
 10
-9.2099727058
 20
-8.5814916084
 10
-9.1949513343
 20
-8.5641081862
 10
-9.1828609385
 20
-8.5451592578
 10
-9.1739912456
 20
-8.5249845581
 10
-9.1685502009
 20
-8.5038993755
 10
-9.1667088442
 20
-8.4822748922
  0
LWPOLYLINE
  5
3F5
100
AcDbEntity
  8
IMPORT_IGES
100
AcDbPolyline
 62
253
  6
CONTINUOUS
 90
13
 70
0
 10
1.8961874067
 20
-7.622413084
 10
1.9225441529
 20
-7.6211377719
 10
1.9485031623
 20
-7.6170855618
 10
1.9736044832
 20
-7.6103077736
 10
1.9975382601
 20
-7.6008395161
 10
2.0197072184
 20
-7.5888654339
 10
2.0393573056
 20
-7.5748621406
 10
2.0560689686
 20
-7.5593735723
 10
2.0699372239
 20
-7.5425861367
 10
2.0810486047
 20
-7.52450405
 10
2.0892553923
 20
-7.5052957208
 10
2.0943391103
 20
-7.4853740458
 10
2.0962060243
 20
-7.4650870917
  0
LWPOLYLINE
  5
3F6
100
AcDbEntity
  8
IMPORT_IGES
100
AcDbPolyline
 62
253
  6
CONTINUOUS
 90
8
 70
0
 10
2.2359239661
 20
-8.181501764
 10
2.2168384025
 20
-8.1824187905
 10
2.1980908546
 20
-8.1852637603
 10
2.1799835977
 20
-8.1899832617
 10
2.1628779344
 20
-8.1964622612
 10
2.1469644853
 20
-8.2046067582
 10
2.1323151345
 20
-8.2144154651
 10
2.1191545272
 20
-8.2258481306
  0
LWPOLYLINE
  5
3F7
100
AcDbEntity
  8
IMPORT_IGES
100
AcDbPolyline
 62
253
  6
CONTINUOUS
 90
13
 70
0
 10
2.2344347213
 20
-8.343813051
 10
2.2151420675
 20
-8.3446967782
 10
2.1962396675
 20
-8.3475418698
 10
2.1780335046
 20
-8.3522785884
 10
2.1608983682
 20
-8.3587697238
 10
2.1450013781
 20
-8.36690948
 10
2.1303661393
 20
-8.3767104332
 10
2.1172058526
 20
-8.3881427763
 10
2.1059083705
 20
-8.40100023
 10
2.0967739665
 20
-8.4150382698
 10
2.0900179794
 20
-8.4300090488
 10
2.0857959526
 20
-8.445681552
 10
2.0842366022
 20
-8.4617837821
  0
LWPOLYLINE
  5
3F8
100
AcDbEntity
  8
IMPORT_IGES
100
AcDbPolyline
 62
7
  6
CONTINUOUS
 90
13
 70
0
 10
2.2375673491
 20
-8.0830942709
 10
2.2179942384
 20
-8.0837965114
 10
2.1987926917
 20
-8.0861820365
 10
2.1802870455
 20
-8.090196752
 10
2.162796674
 20
-8.0957409287
 10
2.1465995966
 20
-8.1027191581
 10
2.131935932
 20
-8.1110512251
 10
2.119053588
 20
-8.1205842488
 10
2.1081652821
 20
-8.1311471277
 10
2.0994351239
 20
-8.1426153725
 10
2.0930204764
 20
-8.1548098127
 10
2.0890528162
 20
-8.1674921086
 10
2.0876154059
 20
-8.1804299495
  0
LINE
  5
3F9
100
AcDbEntity
  8
IMPORT_IGES
100
AcDbLine
 62
7
  6
CONTINUOUS
 10
2.2750563907
 20
-8.3813216186
 11
2.2927749649
 21
-8.3808530221
  0
LINE
  5
3FA
100
AcDbEntity
  8
RACCORDO
100
AcDbLine
 62
253
  6
CONTINUOUS
 10
-10.7650258067
 20
-8.0121305613
 11
-11.5667088442
 21
-8.0313524131
  0
LINE
  5
3FB
100
AcDbEntity
  8
RACCORDO
100
AcDbLine
 62
253
  6
CONTINUOUS
 10
6.9316081184
 20
-7.3878694387
 11
7.7332911558
 21
-7.3686475869
  0
LINE
  5
3FC
100
AcDbEntity
  8
RACCORDO
100
AcDbLine
 62
253
  6
CONTINUOUS
 10
-10.6670463713
 20
-8.1120369144
 11
-11.5618534108
 21
-8.1334852763
  0
LINE
  5
3FD
100
AcDbEntity
  8
RACCORDO
100
AcDbLine
 62
253
  6
CONTINUOUS
 10
6.833628683
 20
-7.2879630856
 11
7.7284357224
 21
-7.2665147237
  0
LINE
  5
3FE
100
AcDbEntity
  8
RACCORDO
100
AcDbLine
 62
253
  6
CONTINUOUS
 10
-10.656966625
 20
-8.1118608307
 11
-10.6670463713
 21
-8.1120369144
  0
LINE
  5
3FF
100
AcDbEntity
  8
RACCORDO
100
AcDbLine
 62
253
  6
CONTINUOUS
 10
6.8235489366
 20
-7.2881391693
 11
6.833628683
 21
-7.2879630856
  0
LINE
  5
400
100
AcDbEntity
  8
RACCORDO
100
AcDbLine
 62
253
  6
CONTINUOUS
 10
-10.6366985059
 20
-8.111605692
 11
-10.656966625
 21
-8.1118608307
  0
LINE
  5
401
100
AcDbEntity
  8
RACCORDO
100
AcDbLine
 62
253
  6
CONTINUOUS
 10
6.8032808175
 20
-7.288394308
 11
6.8235489366
 21
-7.2881391693
  0
LINE
  5
402
100
AcDbEntity
  8
RACCORDO
100
AcDbLine
 62
253
  6
CONTINUOUS
 10
-10.7438936186
 20
-8.0118646489
 11
-10.7650258067
 21
-8.0121305613
  0
LINE
  5
403
100
AcDbEntity
  8
RACCORDO
100
AcDbLine
 62
253
  6
CONTINUOUS
 10
6.9104759303
 20
-7.3881353511
 11
6.9316081184
 21
-7.3878694387
  0
LWPOLYLINE
  5
404
100
AcDbEntity
  8
IMPORT_IGES
100
AcDbPolyline
 62
253
  6
CONTINUOUS
 90
13
 70
0
 10
-9.9040662062
 20
-7.8451539719
 10
-9.9428202955
 20
-7.8455030495
 10
-9.9807653517
 20
-7.8452155447
 10
-10.0172829026
 20
-7.844304285
 10
-10.0516122398
 20
-7.842801845
 10
-10.083424354
 20
-7.8407368584
 10
-10.1126869301
 20
-7.8381032355
 10
-10.1389727966
 20
-7.8349024062
 10
-10.1614914878
 20
-7.8311880701
 10
-10.1796338402
 20
-7.8270291684
 10
-10.1929670905
 20
-7.8224982516
 10
-10.2011812692
 20
-7.8176639632
 10
-10.2040205674
 20
-7.8126091373
  0
LINE
  5
405
100
AcDbEntity
  8
RACCORDO
100
AcDbLine
 62
253
  6
CONTINUOUS
 10
-10.5908020366
 20
-8.1112531774
 11
-10.6366985059
 21
-8.111605692
  0
LINE
  5
406
100
AcDbEntity
  8
RACCORDO
100
AcDbLine
 62
253
  6
CONTINUOUS
 10
6.7573843483
 20
-7.2887468226
 11
6.8032808175
 21
-7.288394308
  0
LWPOLYLINE
  5
407
100
AcDbEntity
  8
IMPORT_IGES
100
AcDbPolyline
 62
253
  6
CONTINUOUS
 90
10
 70
0
 10
2.2927814633
 20
-8.3405803557
 10
2.2862067884
 20
-8.3406181796
 10
2.2796476124
 20
-8.3407368835
 10
2.2731039352
 20
-8.3409364676
 10
2.2665658537
 20
-8.3412176547
 10
2.260043271
 20
-8.3415797219
 10
2.2535658962
 20
-8.3420205003
 10
2.2471436322
 20
-8.3425392671
 10
2.2407665762
 20
-8.3431367452
 10
2.234434728
 20
-8.3438129345
  0
LINE
  5
408
100
AcDbEntity
  8
RACCORDO
100
AcDbLine
 62
253
  6
CONTINUOUS
 10
-10.6883242406
 20
-8.0114543312
 11
-10.7438936186
 21
-8.0118646489
  0
LINE
  5
409
100
AcDbEntity
  8
RACCORDO
100
AcDbLine
 62
253
  6
CONTINUOUS
 10
6.8549065523
 20
-7.3885456688
 11
6.9104759303
 21
-7.3881353511
  0
LINE
  5
40A
100
AcDbEntity
  8
RACCORDO
100
AcDbLine
 62
253
  6
CONTINUOUS
 10
-10.5044097611
 20
-8.1109879787
 11
-10.5908020366
 21
-8.1112531774
  0
LINE
  5
40B
100
AcDbEntity
  8
RACCORDO
100
AcDbLine
 62
253
  6
CONTINUOUS
 10
6.6709920728
 20
-7.2890120213
 11
6.7573843483
 21
-7.2887468226
  0
LINE
  5
40C
100
AcDbEntity
  8
RACCORDO
100
AcDbLine
 62
253
  6
CONTINUOUS
 10
-10.5149638117
 20
-8.0109917751
 11
-10.6883242406
 21
-8.0114543312
  0
LINE
  5
40D
100
AcDbEntity
  8
RACCORDO
100
AcDbLine
 62
253
  6
CONTINUOUS
 10
6.6815461233
 20
-7.3890082249
 11
6.8549065523
 21
-7.3885456688
  0
LINE
  5
40E
100
AcDbEntity
  8
RACCORDO
100
AcDbLine
 62
253
  6
CONTINUOUS
 10
-10.4831180205
 20
-8.110978333
 11
-10.5044097611
 21
-8.1109879787
  0
LINE
  5
40F
100
AcDbEntity
  8
RACCORDO
100
AcDbLine
 62
253
  6
CONTINUOUS
 10
6.6497003321
 20
-7.289021667
 11
6.6709920728
 21
-7.2890120213
  0
LINE
  5
410
100
AcDbEntity
  8
IMPORT_IGES
100
AcDbLine
 62
7
  6
CONTINUOUS
 10
5.1332911557
 20
-8.3808532807
 11
2.292776638
 21
-8.3808532807
  0
LINE
  5
411
100
AcDbEntity
  8
IMPORT_IGES
100
AcDbLine
 62
7
  6
CONTINUOUS
 10
-6.1261994424
 20
-8.3808532807
 11
-8.9667124103
 21
-8.3808532807
  0
LINE
  5
412
100
AcDbEntity
  8
IMPORT_IGES
100
AcDbLine
 62
253
  6
CONTINUOUS
 10
-8.9667117734
 20
-8.3405804277
 11
-6.1261994437
 21
-8.3405803827
  0
LINE
  5
413
100
AcDbEntity
  8
IMPORT_IGES
100
AcDbLine
 62
253
  6
CONTINUOUS
 10
2.2927814633
 20
-8.3405803557
 11
5.1332902653
 21
-8.3405803359
  0
LINE
  5
414
100
AcDbEntity
  8
DRAFT
100
AcDbLine
 62
7
  6
CONTINUOUS
 10
-11.4288138312
 20
-8.2
 11
-10.2667088442
 21
-8.2
  0
LINE
  5
415
100
AcDbEntity
  8
DRAFT
100
AcDbLine
 62
7
  6
CONTINUOUS
 10
7.5953961429
 20
-8.2
 11
6.4332911558
 21
-8.2
  0
LINE
  5
416
100
AcDbEntity
  8
RACCORDO
100
AcDbLine
 62
7
  6
CONTINUOUS
 10
-10.2492551086
 20
-8.1825462644
 11
-10.1975632909
 21
-8.1825462644
  0
LINE
  5
417
100
AcDbEntity
  8
RACCORDO
100
AcDbLine
 62
7
  6
CONTINUOUS
 10
6.4158374203
 20
-8.1825462644
 11
6.3641456025
 21
-8.1825462644
  0
LINE
  5
418
100
AcDbEntity
  8
IMPORT_IGES
100
AcDbLine
 62
253
  6
CONTINUOUS
 10
2.2359239648
 20
-8.1815015967
 11
6.0683001637
 21
-8.181503443
  0
LINE
  5
419
100
AcDbEntity
  8
IMPORT_IGES
100
AcDbLine
 62
253
  6
CONTINUOUS
 10
-6.0693335463
 20
-8.181501341
 11
-9.9016959226
 21
-8.1815039995
  0
LINE
  5
41A
100
AcDbEntity
  8
RACCORDO
100
AcDbLine
 62
7
  6
CONTINUOUS
 10
6.6497003321
 20
-8.110978333
 11
6.3653948254
 21
-8.110978333
  0
LINE
  5
41B
100
AcDbEntity
  8
RACCORDO
100
AcDbLine
 62
7
  6
CONTINUOUS
 10
-10.1988125137
 20
-8.110978333
 11
-10.4831180205
 21
-8.110978333
  0
LINE
  5
41C
100
AcDbEntity
  8
IMPORT_IGES
100
AcDbLine
 62
7
  6
CONTINUOUS
 10
-6.4667088442
 20
-8.0830938817
 11
-6.0710220397
 21
-8.0830946273
  0
LINE
  5
41D
100
AcDbEntity
  8
IMPORT_IGES
100
AcDbLine
 62
7
  6
CONTINUOUS
 10
2.6332911558
 20
-8.0830940215
 11
2.2376043518
 21
-8.0830942548
  0
LINE
  5
41E
100
AcDbEntity
  8
RACCORDO
100
AcDbLine
 62
253
  6
CONTINUOUS
 10
-10.2005579538
 20
-8.0109821407
 11
-10.5149638117
 21
-8.0109917751
  0
LINE
  5
41F
100
AcDbEntity
  8
IMPORT_IGES
100
AcDbLine
 62
7
  6
CONTINUOUS
 10
5.463373974
 20
-7.9542999891
 11
3.7032083376
 21
-7.9542999891
  0
LINE
  5
420
100
AcDbEntity
  8
IMPORT_IGES
100
AcDbLine
 62
7
  6
CONTINUOUS
 10
-7.536626026
 20
-7.9542999891
 11
-9.2967916624
 21
-7.9542999891
  0
LINE
  5
421
100
AcDbEntity
  8
IMPORT_IGES
100
AcDbLine
 62
253
  6
CONTINUOUS
 10
6.0706485546
 20
-7.8451539653
 11
5.5332911558
 21
-7.8451539698
  0
LINE
  5
422
100
AcDbEntity
  8
IMPORT_IGES
100
AcDbLine
 62
253
  6
CONTINUOUS
 10
-9.3667088442
 20
-7.8451539777
 11
-9.9040662445
 21
-7.8451539726
  0
LINE
  5
423
100
AcDbEntity
  8
IMPORT_IGES
100
AcDbLine
 62
253
  6
CONTINUOUS
 10
3.6332911558
 20
-7.8451319631
 11
2.8064214894
 21
-7.8451457132
  0
LINE
  5
424
100
AcDbEntity
  8
IMPORT_IGES
100
AcDbLine
 62
253
  6
CONTINUOUS
 10
-7.4667088442
 20
-7.8451489625
 11
-6.6398391777
 21
-7.8451552779
  0
LINE
  5
425
100
AcDbEntity
  8
IMPORT_IGES
100
AcDbLine
 62
253
  6
CONTINUOUS
 10
-5.7296380721
 20
-7.6224178635
 11
1.8962204369
 21
-7.6224132299
  0
LINE
  5
426
100
AcDbEntity
  8
RACCORDO
100
AcDbLine
 62
253
  6
CONTINUOUS
 10
6.3779966924
 20
-7.3890178593
 11
6.6815461233
 21
-7.3890082249
  0
LINE
  5
427
100
AcDbEntity
  8
RACCORDO
100
AcDbLine
 62
7
  6
CONTINUOUS
 10
-10.4831180205
 20
-7.289021667
 11
-10.2131598207
 21
-7.289021667
  0
LINE
  5
428
100
AcDbEntity
  8
RACCORDO
100
AcDbLine
 62
7
  6
CONTINUOUS
 10
6.3797421324
 20
-7.289021667
 11
6.6497003321
 21
-7.289021667
  0
LINE
  5
429
100
AcDbEntity
  8
RACCORDO
100
AcDbLine
 62
7
  6
CONTINUOUS
 10
-11.4288138312
 20
-7.2
 11
-10.2147136997
 21
-7.2
  0
LINE
  5
42A
100
AcDbEntity
  8
RACCORDO
100
AcDbLine
 62
7
  6
CONTINUOUS
 10
7.5953961429
 20
-7.2
 11
6.3812960114
 21
-7.2
  0
LINE
  5
42B
100
AcDbEntity
  8
RACCORDO
100
AcDbLine
 62
253
  6
CONTINUOUS
 10
6.826478693
 20
-8.0113175897
 11
6.3671402655
 21
-8.0109821407
  0
LINE
  5
42C
100
AcDbEntity
  8
RACCORDO
100
AcDbLine
 62
253
  6
CONTINUOUS
 10
-10.6598963813
 20
-7.3886824103
 11
-10.2114143807
 21
-7.3890178593
  0
LINE
  5
42D
100
AcDbEntity
  8
RACCORDO
100
AcDbLine
 62
253
  6
CONTINUOUS
 10
6.7469189638
 20
-8.1111984199
 11
6.6497003321
 21
-8.110978333
  0
LINE
  5
42E
100
AcDbEntity
  8
RACCORDO
100
AcDbLine
 62
253
  6
CONTINUOUS
 10
-10.5803366522
 20
-7.2888015801
 11
-10.4831180205
 21
-7.289021667
  0
LWPOLYLINE
  5
42F
100
AcDbEntity
  8
IMPORT_IGES
100
AcDbPolyline
 62
253
  6
CONTINUOUS
 90
10
 70
0
 10
-6.1261994437
 20
-8.3405803827
 10
-6.1196562546
 20
-8.3406170632
 10
-6.1131205168
 20
-8.3407348913
 10
-6.1065922301
 20
-8.340933867
 10
-6.100061706
 20
-8.3412147043
 10
-6.093538633
 20
-8.3415766893
 10
-6.0870520776
 20
-8.3420176799
 10
-6.0806117284
 20
-8.3425369622
 10
-6.0742078968
 20
-8.3431352501
 10
-6.0678405827
 20
-8.3438125438
  0
LWPOLYLINE
  5
430
100
AcDbEntity
  8
IMPORT_IGES
100
AcDbPolyline
 62
253
  6
CONTINUOUS
 90
11
 70
0
 10
2.2841212795
 20
-8.4751640381
 10
2.2582902184
 20
-8.4749533788
 10
2.2329862846
 20
-8.4749454415
 10
2.2086226558
 20
-8.4751380041
 10
2.1857096793
 20
-8.4755229494
 10
2.1644676126
 20
-8.4760923007
 10
2.1449176074
 20
-8.4768483893
 10
2.127345045
 20
-8.4777916518
 10
2.1122894617
 20
-8.4789079099
 10
2.1001709335
 20
-8.4801784191
 10
2.0959892526
 20
-8.480838374
  0
LINE
  5
431
100
AcDbEntity
  8
RACCORDO
100
AcDbLine
 62
253
  6
CONTINUOUS
 10
6.9013688288
 20
-8.0117776997
 11
6.826478693
 21
-8.0113175897
  0
LINE
  5
432
100
AcDbEntity
  8
RACCORDO
100
AcDbLine
 62
253
  6
CONTINUOUS
 10
-10.7347865172
 20
-7.3882223003
 11
-10.6598963813
 21
-7.3886824103
  0
LINE
  5
433
100
AcDbEntity
  8
RACCORDO
100
AcDbLine
 62
253
  6
CONTINUOUS
 10
6.7952087454
 20
-8.1115265659
 11
6.7469189638
 21
-8.1111984199
  0
LINE
  5
434
100
AcDbEntity
  8
RACCORDO
100
AcDbLine
 62
253
  6
CONTINUOUS
 10
-10.6286264338
 20
-7.2884734341
 11
-10.5803366522
 21
-7.2888015801
  0
LWPOLYLINE
  5
435
100
AcDbEntity
  8
IMPORT_IGES
100
AcDbPolyline
 62
253
  6
CONTINUOUS
 90
13
 70
0
 10
6.0706485688
 20
-7.8451540964
 10
6.1092141889
 20
-7.8455030168
 10
6.1470485032
 20
-7.8452204676
 10
6.1835334698
 20
-7.8443157027
 10
6.2179236928
 20
-7.8428165569
 10
6.2498517681
 20
-7.8407488564
 10
6.2792113953
 20
-7.8381094068
 10
6.3055640156
 20
-7.8349012648
 10
6.3281271935
 20
-7.8311778612
 10
6.3462758824
 20
-7.8270127969
 10
6.359588012
 20
-7.8224815734
 10
6.3677764099
 20
-7.8176525612
 10
6.3706028791
 20
-7.8126091381
  0
LWPOLYLINE
  5
436
100
AcDbEntity
  8
IMPORT_IGES
100
AcDbPolyline
 62
7
  6
CONTINUOUS
 90
5
 70
0
 10
5.133291104
 20
-8.380851355
 10
5.1410830359
 20
-8.3809421833
 10
5.1660180211
 20
-8.3824791553
 10
5.190295346
 20
-8.3858493842
 10
5.2133532188
 20
-8.3908798701
  0
LINE
  5
437
100
AcDbEntity
  8
RACCORDO
100
AcDbLine
 62
253
  6
CONTINUOUS
 10
6.8174618943
 20
-8.1117739039
 11
6.7952087454
 21
-8.1115265659
  0
LINE
  5
438
100
AcDbEntity
  8
RACCORDO
100
AcDbLine
 62
253
  6
CONTINUOUS
 10
-10.6508795826
 20
-7.2882260961
 11
-10.6286264338
 21
-7.2884734341
  0
LWPOLYLINE
  5
439
100
AcDbEntity
  8
RACCORDO
100
AcDbPolyline
 62
253
  6
CONTINUOUS
 90
3
 70
0
 10
6.9316081184
 20
-8.0121305613
 10
6.9255545986
 20
-8.012040737
 10
6.9013688288
 20
-8.0117776997
  0
LWPOLYLINE
  5
43A
100
AcDbEntity
  8
RACCORDO
100
AcDbPolyline
 62
253
  6
CONTINUOUS
 90
3
 70
0
 10
-10.7650258067
 20
-7.3878694387
 10
-10.7589722869
 20
-7.387959263
 10
-10.7347865172
 20
-7.3882223003
  0
LINE
  5
43B
100
AcDbEntity
  8
RACCORDO
100
AcDbLine
 62
253
  6
CONTINUOUS
 10
6.8289320449
 20
-8.1119482734
 11
6.8174618943
 21
-8.1117739039
  0
LINE
  5
43C
100
AcDbEntity
  8
RACCORDO
100
AcDbLine
 62
253
  6
CONTINUOUS
 10
-10.6623497332
 20
-7.2880517266
 11
-10.6508795826
 21
-7.2882260961
  0
LWPOLYLINE
  5
43D
100
AcDbEntity
  8
IMPORT_IGES
100
AcDbPolyline
 62
7
  6
CONTINUOUS
 90
3
 70
0
 10
-6.1261994908
 20
-8.3808520753
 10
-6.1146075997
 20
-8.381051574
 10
-6.0926935804
 20
-8.3825380693
  0
LINE
  5
43E
100
AcDbEntity
  8
RACCORDO
100
AcDbLine
 62
253
  6
CONTINUOUS
 10
6.8376388563
 20
-8.1121267536
 11
6.8289320449
 21
-8.1119482734
  0
LINE
  5
43F
100
AcDbEntity
  8
RACCORDO
100
AcDbLine
 62
253
  6
CONTINUOUS
 10
-10.6710565446
 20
-7.2878732464
 11
-10.6623497332
 21
-7.2880517266
  0
LINE
  5
440
100
AcDbEntity
  8
RACCORDO
100
AcDbLine
 62
253
  6
CONTINUOUS
 10
7.7284357224
 20
-8.1334852763
 11
6.8376388563
 21
-8.1121267536
  0
LINE
  5
441
100
AcDbEntity
  8
RACCORDO
100
AcDbLine
 62
253
  6
CONTINUOUS
 10
7.7332911558
 20
-8.0313524131
 11
6.9316081184
 21
-8.0121305613
  0
LINE
  5
442
100
AcDbEntity
  8
RACCORDO
100
AcDbLine
 62
253
  6
CONTINUOUS
 10
-11.5667088442
 20
-7.3686475869
 11
-10.7650258067
 21
-7.3878694387
  0
LINE
  5
443
100
AcDbEntity
  8
RACCORDO
100
AcDbLine
 62
253
  6
CONTINUOUS
 10
-11.5618534108
 20
-7.2665147237
 11
-10.6710565446
 21
-7.2878732464
  0
LWPOLYLINE
  5
444
100
AcDbEntity
  8
IMPORT_IGES
100
AcDbPolyline
 62
7
  6
CONTINUOUS
 90
13
 70
0
 10
-6.070988455
 20
-8.0830944316
 10
-6.0514096154
 20
-8.0837977383
 10
-6.0322036397
 20
-8.086184841
 10
-6.01369501
 20
-8.0902013073
 10
-5.9962033376
 20
-8.0957467317
 10
-5.9800063053
 20
-8.102725677
 10
-5.9653433055
 20
-8.1110587487
 10
-5.9524616189
 20
-8.1205940061
 10
-5.9415745657
 20
-8.1311592929
 10
-5.9328468769
 20
-8.142627846
 10
-5.9264352431
 20
-8.1548195006
 10
-5.9224698902
 20
-8.1674965445
 10
-5.9210330819
 20
-8.1804309723
  0
LWPOLYLINE
  5
445
100
AcDbEntity
  8
IMPORT_IGES
100
AcDbPolyline
 62
253
  6
CONTINUOUS
 90
13
 70
0
 10
-9.9015860805
 20
-8.181503282
 10
-9.9398929827
 20
-8.179797508
 10
-9.9774846412
 20
-8.1742152234
 10
-10.013755318
 20
-8.1648752703
 10
-10.0479738619
 20
-8.1520238567
 10
-10.0797792712
 20
-8.1358572911
 10
-10.1090677676
 20
-8.1163666524
 10
-10.1354108384
 20
-8.0936140376
 10
-10.1580403837
 20
-8.0680070655
 10
-10.1763407002
 20
-8.0400629897
 10
-10.1898947838
 20
-8.0102903636
 10
-10.1984180778
 20
-7.9791396084
 10
-10.2016721619
 20
-7.9471491975
  0
LWPOLYLINE
  5
446
100
AcDbEntity
  8
IMPORT_IGES
100
AcDbPolyline
 62
253
  6
CONTINUOUS
 90
13
 70
0
 10
-6.0676051874
 20
-8.3438016609
 10
-6.0485547098
 20
-8.3446928184
 10
-6.0298077349
 20
-8.3475109966
 10
-6.0116685125
 20
-8.3522122694
 10
-5.9944646717
 20
-8.3587075988
 10
-5.9784389033
 20
-8.3669010171
 10
-5.9637703026
 20
-8.3767234339
 10
-5.9507389976
 20
-8.3880311691
 10
-5.9395803755
 20
-8.4006698178
 10
-5.930452365
 20
-8.4145682431
 10
-5.9235952128
 20
-8.429569988
 10
-5.9192655075
 20
-8.4454015212
 10
-5.9176541878
 20
-8.4617923
  0
LWPOLYLINE
  5
447
100
AcDbEntity
  8
IMPORT_IGES
100
AcDbPolyline
 62
253
  6
CONTINUOUS
 90
13
 70
0
 10
5.5332911558
 20
-8.6420018257
 10
5.5077471972
 20
-8.6406937073
 10
5.4826120625
 20
-8.6367887762
 10
5.45829849
 20
-8.6303480795
 10
5.4352903198
 20
-8.6215120464
 10
5.4138711022
 20
-8.6104024716
 10
5.3941848138
 20
-8.5970379119
 10
5.3765368809
 20
-8.5814731413
 10
5.3614451674
 20
-8.5639894201
 10
5.3493456537
 20
-8.5449767784
 10
5.3405112014
 20
-8.5248045923
 10
5.3351121341
 20
-8.5037799556
 10
5.3332911557
 20
-8.4822750741
  0
LWPOLYLINE
  5
448
100
AcDbEntity
  8
IMPORT_IGES
100
AcDbPolyline
 62
253
  6
CONTINUOUS
 90
8
 70
0
 10
-5.9571645283
 20
-8.4780275707
 10
-5.9738109704
 20
-8.4770634089
 10
-5.9932133025
 20
-8.4762502145
 10
-6.0150105434
 20
-8.4756158798
 10
-6.0387574297
 20
-8.475180278
 10
-6.0640162632
 20
-8.4749552981
 10
-6.0903986737
 20
-8.4749480632
 10
-6.1174398222
 20
-8.4751628453
  0
LINE
  5
449
100
AcDbEntity
  8
IMPORT_IGES
100
AcDbLine
 62
253
  6
CONTINUOUS
 10
5.1332902653
 20
-8.3405803359
 11
5.1775456609
 21
-8.3433907123
  0
LINE
  5
44A
100
AcDbEntity
  8
IMPORT_IGES
100
AcDbLine
 62
253
  6
CONTINUOUS
 10
5.1775456609
 20
-8.3433907123
 11
5.2196107857
 21
-8.3488095358
  0
LWPOLYLINE
  5
44B
100
AcDbEntity
  8
IMPORT_IGES
100
AcDbPolyline
 62
253
  6
CONTINUOUS
 90
9
 70
0
 10
-6.6667088442
 20
-5.8638753356
 10
-6.6650363733
 20
-5.8644360734
 10
-6.6600699155
 20
-5.8649855454
 10
-6.6519258667
 20
-5.8655147701
 10
-6.6408353554
 20
-5.8660127913
 10
-6.6269755882
 20
-5.8664745945
 10
-6.6103263905
 20
-5.8668992537
 10
-6.5909416213
 20
-5.8672804328
 10
-6.54544859
 20
-5.8678694368
  0
LINE
  5
44C
100
AcDbEntity
  8
DRAFT
100
AcDbLine
 62
7
  6
CONTINUOUS
 10
5.6499368101
 20
-21.3359869487
 11
5.7072995662
 21
-21.4170151614
  0
LWPOLYLINE
  5
44D
100
AcDbEntity
  8
DRAFT
100
AcDbPolyline
 62
7
  6
CONTINUOUS
 90
3
 70
0
 10
5.7072995662
 20
-21.4170151614
 10
5.792189378
 20
-21.5381681977
 10
5.8199753879
 20
-21.5782973885
  0
LWPOLYLINE
  5
44E
100
AcDbEntity
  8
DRAFT
100
AcDbPolyline
 62
7
  6
CONTINUOUS
 90
3
 70
0
 10
5.8199753879
 20
-21.5782973885
 10
5.8743379472
 20
-21.6580046829
 10
5.9009778637
 20
-21.6973892622
  0
LWPOLYLINE
  5
44F
100
AcDbEntity
  8
0
100
AcDbPolyline
 62
7
  6
CONTINUOUS
 90
12
 70
0
 10
5.3667837642
 20
-24.3750024283
 10
5.3729765977
 20
-24.3851625059
 10
5.3796458604
 20
-24.3950164051
 10
5.3867764451
 20
-24.4045418038
 10
5.394352197
 20
-24.4137171191
 10
5.4023559554
 20
-24.4225215661
 10
5.4107695898
 20
-24.4309352005
 10
5.4195740368
 20
-24.4389389589
 10
5.428749352
 20
-24.4465147107
 10
5.4382747507
 20
-24.4536452955
 10
5.4481286499
 20
-24.4603145581
 10
5.4582887276
 20
-24.4665073916
  0
LWPOLYLINE
  5
450
100
AcDbEntity
  8
IMPORT_IGES
100
AcDbPolyline
 62
253
  6
CONTINUOUS
 90
10
 70
0
 10
-5.89831129
 20
-6.1764277373
 10
-5.906463784
 20
-6.1622977486
 10
-5.9162318822
 20
-6.1483092844
 10
-5.9274175147
 20
-6.1347769067
 10
-5.9395840729
 20
-6.1221620776
 10
-5.9525734355
 20
-6.1105267686
 10
-5.9666577066
 20
-6.0996382362
 10
-5.9817698306
 20
-6.089655738
 10
-5.9973926193
 20
-6.0809864481
 10
-6.0131682323
 20
-6.0738233983
  0
LWPOLYLINE
  5
451
100
AcDbEntity
  8
IMPORT_IGES
100
AcDbPolyline
 62
253
  6
CONTINUOUS
 90
13
 70
0
 10
-7.6667088401
 20
-4.7136529364
 10
-7.6650335009
 20
-4.7169011451
 10
-7.6600676414
 20
-4.720084619
 10
-7.6519258667
 20
-4.7231513346
 10
-7.6408368146
 20
-4.7260379287
 10
-7.6269764755
 20
-4.7287150762
 10
-7.6103263905
 20
-4.7311768821
 10
-7.5909416212
 20
-4.7333864937
 10
-7.569175218
 20
-4.7352782135
 10
-7.54544859
 20
-4.7368008202
 10
-7.520187132
 20
-4.7379178269
 10
-7.4937856274
 20
-4.7386030461
 10
-7.4667088442
 20
-4.7388349378
  0
LWPOLYLINE
  5
452
100
AcDbEntity
  8
IMPORT_IGES
100
AcDbPolyline
 62
7
  6
CONTINUOUS
 90
46
 70
0
 10
-6.6398391777
 20
-7.8451565739
 10
-6.6353511703
 20
-7.8571441225
 10
-6.6308316565
 20
-7.8686507345
 10
-6.6262806363
 20
-7.8796751497
 10
-6.6216809379
 20
-7.8901956805
 10
-6.6170497332
 20
-7.9002351413
 10
-6.6124385373
 20
-7.9098596843
 10
-6.607855958
 20
-7.9190739549
 10
-6.6032933875
 20
-7.9278773461
 10
-6.5987765173
 20
-7.9363272665
 10
-6.5943098359
 20
-7.9444301334
 10
-6.5898888547
 20
-7.9521847451
 10
-6.5855257991
 20
-7.9596360281
 10
-6.5812230157
 20
-7.9667901962
 10
-6.5769781578
 20
-7.9736465696
 10
-6.5727964108
 20
-7.9802387882
 10
-6.5686795402
 20
-7.9865717297
 10
-6.5646257805
 20
-7.9926460137
 10
-6.5606350206
 20
-7.9984881046
 10
-6.5567086142
 20
-8.0041022677
 10
-6.5528452077
 20
-8.0094894809
 10
-6.549040629
 20
-8.0146706225
 10
-6.5452956843
 20
-8.019650062
 10
-6.5416095675
 20
-8.0244283192
 10
-6.5379756887
 20
-8.0290199985
 10
-6.5343948488
 20
-8.0334293215
 10
-6.5308662468
 20
-8.0376566393
 10
-6.5273808906
 20
-8.041710435
 10
-6.5239402744
 20
-8.0455946933
 10
-6.5205429039
 20
-8.049309761
 10
-6.5171753036
 20
-8.0528585208
 10
-6.5138401485
 20
-8.0562455557
 10
-6.5105347637
 20
-8.0594704269
 10
-6.5072376489
 20
-8.0625285198
 10
-6.5039480181
 20
-8.0654299808
 10
-6.5006666575
 20
-8.0681686651
 10
-6.4973744253
 20
-8.070715954
 10
-6.494080425
 20
-8.0730800333
 10
-6.4907755533
 20
-8.0752570413
 10
-6.4874133587
 20
-8.0772010791
 10
-6.4839500114
 20
-8.0789320309
 10
-6.4804293412
 20
-8.0804342964
 10
-6.4769363856
 20
-8.0816097602
 10
-6.4734994905
 20
-8.0824272617
 10
-6.47009031
 20
-8.0829216697
 10
-6.4667088442
 20
-8.0830938817
  0
LWPOLYLINE
  5
453
100
AcDbEntity
  8
IMPORT_IGES
100
AcDbPolyline
 62
7
  6
CONTINUOUS
 90
14
 70
0
 10
-6.067840582
 20
-8.343815082
 10
-6.0658827878
 20
-8.3508090635
 10
-6.0631343512
 20
-8.3575086278
 10
-6.0597258297
 20
-8.3638595824
 10
-6.055925447
 20
-8.3697971052
 10
-6.0516928885
 20
-8.3752875787
 10
-6.0467341735
 20
-8.3803511048
 10
-6.041110163
 20
-8.3849913068
 10
-6.035010656
 20
-8.389226532
 10
-6.0283825306
 20
-8.3931439574
 10
-6.0212388097
 20
-8.3968276813
 10
-6.0137034437
 20
-8.4003590309
 10
-6.0058854488
 20
-8.4038292126
 10
-6.0049204197
 20
-8.4042507179
  0
LWPOLYLINE
  5
454
100
AcDbEntity
  8
IMPORT_IGES
100
AcDbPolyline
 62
253
  6
CONTINUOUS
 90
13
 70
0
 10
-7.6667088442
 20
-4.0864896401
 10
-7.6650363966
 20
-4.0971223269
 10
-7.6600700411
 20
-4.1075414422
 10
-7.6519261267
 20
-4.1175766762
 10
-7.6408357161
 20
-4.1270202879
 10
-7.6269759857
 20
-4.1357771694
 10
-7.6103268089
 20
-4.1438297136
 10
-7.5909420955
 20
-4.1510576903
 10
-7.5691757461
 20
-4.15724579
 10
-7.5454491101
 20
-4.1622266729
 10
-7.5201875522
 20
-4.1658810447
 10
-7.4937858726
 20
-4.1681231583
 10
-7.4667088441
 20
-4.168882542
  0
LWPOLYLINE
  5
455
100
AcDbEntity
  8
IMPORT_IGES
100
AcDbPolyline
 62
253
  6
CONTINUOUS
 90
13
 70
0
 10
-7.6667088442
 20
-1.0095966325
 10
-7.6650363558
 20
-1.0202294483
 10
-7.6600699017
 20
-1.0306486519
 10
-7.6519258667
 20
-1.0406839314
 10
-7.6408353643
 20
-1.0501275368
 10
-7.6269755936
 20
-1.0588843781
 10
-7.6103263905
 20
-1.0669368839
 10
-7.5909416213
 20
-1.0741649052
 10
-7.569175218
 20
-1.0803530475
 10
-7.54544859
 20
-1.0853337571
 10
-7.520187132
 20
-1.0889876791
 10
-7.4937856274
 20
-1.0912291494
 10
-7.4667088442
 20
-1.0919877073
  0
LWPOLYLINE
  5
456
100
AcDbEntity
  8
RACCORDO
100
AcDbPolyline
 62
253
  6
CONTINUOUS
 90
5
 70
0
 10
-6.4210342004
 20
-17.5956632207
 10
-6.4208505132
 20
-17.5970000086
 10
-6.420672473
 20
-17.6003861958
 10
-6.4205000796
 20
-17.6058217825
 10
-6.4203315221
 20
-17.6134067054
  0
LWPOLYLINE
  5
457
100
AcDbEntity
  8
IMPORT_IGES
100
AcDbPolyline
 62
253
  6
CONTINUOUS
 90
13
 70
0
 10
-5.9296237143
 20
-7.4650869514
 10
-5.927631385
 20
-7.4860876844
 10
-5.9221678197
 20
-7.5067553488
 10
-5.9133045017
 20
-7.526697157
 10
-5.9010900146
 20
-7.5456662134
 10
-5.8857645558
 20
-7.5631883631
 10
-5.8679363062
 20
-7.5786686515
 10
-5.8482926404
 20
-7.5917802388
 10
-5.8270654871
 20
-7.6026017997
 10
-5.8042588241
 20
-7.6112024956
 10
-5.7800857277
 20
-7.6174669032
 10
-5.7550664482
 20
-7.6212267748
 10
-5.7296051035
 20
-7.6224123498
  0
LWPOLYLINE
  5
458
100
AcDbEntity
  8
IMPORT_IGES
100
AcDbPolyline
 62
253
  6
CONTINUOUS
 90
8
 70
0
 10
-5.9196032181
 20
-8.2994960772
 10
-5.9210211464
 20
-8.2841805008
 10
-5.9248689128
 20
-8.2691868726
 10
-5.9310639525
 20
-8.2547571699
 10
-5.9394412983
 20
-8.2411837874
 10
-5.9498728516
 20
-8.2286071491
 10
-5.962366663
 20
-8.2170636882
 10
-5.9768831889
 20
-8.2067231028
  0
LWPOLYLINE
  5
459
100
AcDbEntity
  8
RACCORDO
100
AcDbPolyline
 62
253
  6
CONTINUOUS
 90
3
 70
0
 10
-6.1210456235
 20
-17.2956746438
 10
-6.1208610926
 20
-17.2988384083
 10
-6.1206825234
 20
-17.3073854795
  0
LINE
  5
45A
100
AcDbEntity
  8
IMPORT_IGES
100
AcDbLine
 62
253
  6
CONTINUOUS
 10
-6.1206205889
 20
-8.3806626415
 11
-6.1174118095
 21
-8.4751625089
  0
LINE
  5
45B
100
AcDbEntity
  8
RACCORDO
100
AcDbLine
 62
253
  6
CONTINUOUS
 10
-7.4160696255
 20
13.7284206282
 11
-7.3526333142
 21
11.15
  0
LWPOLYLINE
  5
45C
100
AcDbEntity
  8
IMPORT_IGES
100
AcDbPolyline
 62
7
  6
CONTINUOUS
 90
10
 70
0
 10
-6.6667088442
 20
-7.6829598042
 10
-6.6662798223
 20
-7.7024399887
 10
-6.665187671
 20
-7.7216225365
 10
-6.6634323902
 20
-7.7405074474
 10
-6.6609819728
 20
-7.7591840269
 10
-6.657868426
 20
-7.7775629695
 10
-6.6541877709
 20
-7.7953763575
 10
-6.6499720147
 20
-7.8125348854
 10
-6.6451891503
 20
-7.8291278589
 10
-6.6398391777
 20
-7.8451552779
  0
LINE
  5
45D
100
AcDbEntity
  8
IMPORT_IGES
100
AcDbLine
 62
253
  6
CONTINUOUS
 10
-6.0710220397
 20
-8.0830942834
 11
-6.0693335463
 21
-8.181501341
  0
LINE
  5
45E
100
AcDbEntity
  8
RACCORDO
100
AcDbLine
 62
253
  6
CONTINUOUS
 10
-6.4203315221
 20
-17.6134067054
 11
-6.4200167808
 21
-17.634424939
  0
LINE
  5
45F
100
AcDbEntity
  8
IMPORT_IGES
100
AcDbLine
 62
7
  6
CONTINUOUS
 10
-5.8901441677
 20
-10.7525582689
 11
-5.9423173567
 21
-6.4080843038
  0
LINE
  5
460
100
AcDbEntity
  8
IMPORT_IGES
100
AcDbLine
 62
253
  6
CONTINUOUS
 10
-5.6945132375
 20
-10.5472710152
 11
-5.7296380721
 21
-7.6224178635
  0
LINE
  5
461
100
AcDbEntity
  8
IMPORT_IGES
100
AcDbLine
 62
253
  6
CONTINUOUS
 10
-5.7371021252
 20
-6.8455020228
 11
-5.7488383912
 21
-5.8682203415
  0
LINE
  5
462
100
AcDbEntity
  8
IMPORT_IGES
100
AcDbLine
 62
7
  6
CONTINUOUS
 10
-6.1174118095
 20
-8.4751625089
 11
-6.0901608834
 21
-10.7508823024
  0
LINE
  5
463
100
AcDbEntity
  8
IMPORT_IGES
100
AcDbLine
 62
253
  6
CONTINUOUS
 10
-6.0923222115
 20
-6.3038306226
 11
-6.0710220397
 21
-8.0830946273
  0
LINE
  5
464
100
AcDbEntity
  8
IMPORT_IGES
100
AcDbLine
 62
7
  6
CONTINUOUS
 10
-5.6901600079
 20
-10.95
 11
-5.6945139111
 21
-10.5472710223
  0
LINE
  5
465
100
AcDbEntity
  8
IMPORT_IGES
100
AcDbLine
 62
7
  6
CONTINUOUS
 10
-5.7371018869
 20
-6.8455020204
 11
-5.7296380721
 21
-7.6224155467
  0
LINE
  5
466
100
AcDbEntity
  8
IMPORT_IGES
100
AcDbLine
 62
253
  6
CONTINUOUS
 10
-6.0678405827
 20
-8.3438125438
 11
-6.0693335463
 21
-8.181501341
  0
LINE
  5
467
100
AcDbEntity
  8
RACCORDO
100
AcDbLine
 62
253
  6
CONTINUOUS
 10
-6.1206825234
 20
-17.3073854795
 11
-6.1203415739
 21
-17.340181287
  0
LINE
  5
468
100
AcDbEntity
  8
RACCORDO
100
AcDbLine
 62
253
  6
CONTINUOUS
 10
-6.4200167808
 20
-17.634424939
 11
-6.4196332019
 21
-17.6787743972
  0
LINE
  5
469
100
AcDbEntity
  8
RACCORDO
100
AcDbLine
 62
253
  6
CONTINUOUS
 10
-6.1203415739
 20
-17.340181287
 11
-6.1196452527
 21
-17.5032539353
  0
LWPOLYLINE
  5
46A
100
AcDbEntity
  8
RACCORDO
100
AcDbPolyline
 62
253
  6
CONTINUOUS
 90
3
 70
0
 10
-6.4196332019
 20
-17.6787743972
 10
-6.4193141048
 20
-17.7746067695
 10
-6.4193040579
 20
-17.7956556053
  0
LINE
  5
46B
100
AcDbEntity
  8
RACCORDO
100
AcDbLine
 62
7
  6
CONTINUOUS
 10
-6.4779689915
 20
-19.4260209733
 11
-6.4799934412
 21
-17.5367039799
  0
LINE
  5
46C
100
AcDbEntity
  8
IMPORT_IGES
100
AcDbLine
 62
253
  6
CONTINUOUS
 10
-7.0167088442
 20
-0.755
 11
-7.0167088442
 21
-1.055
  0
LINE
  5
46D
100
AcDbEntity
  8
IMPORT_IGES
100
AcDbLine
 62
253
  6
CONTINUOUS
 10
-6.9667088442
 20
2.645
 11
-6.9667088442
 21
3.245
  0
LINE
  5
46E
100
AcDbEntity
  8
IMPORT_IGES
100
AcDbLine
 62
253
  6
CONTINUOUS
 10
-6.7167088442
 20
-0.455
 11
-6.7167080257
 21
6.3440525646
  0
LINE
  5
46F
100
AcDbEntity
  8
IMPORT_IGES
100
AcDbLine
 62
7
  6
CONTINUOUS
 10
-6.6667088442
 20
-7.6829598037
 11
-6.6667088442
 21
-1.1904696055
  0
LINE
  5
470
100
AcDbEntity
  8
IMPORT_IGES
100
AcDbLine
 62
253
  6
CONTINUOUS
 10
-6.4667088442
 20
-8.0830938817
 11
-6.4667088442
 21
-0.9360899655
  0
LINE
  5
471
100
AcDbEntity
  8
IMPORT_IGES
100
AcDbLine
 62
7
  6
CONTINUOUS
 10
-6.4667088442
 20
-0.9360899655
 11
-6.4667088442
 21
-0.6941633693
  0
LINE
  5
472
100
AcDbEntity
  8
RACCORDO
100
AcDbLine
 62
7
  6
CONTINUOUS
 10
-6.448998255
 20
-19.88468937
 11
-6.448998255
 21
-20.0
  0
LINE
  5
473
100
AcDbEntity
  8
RACCORDO
100
AcDbLine
 62
7
  6
CONTINUOUS
 10
-6.4193040579
 20
-17.7956556053
 11
-6.4193040579
 21
-20.0
  0
LINE
  5
474
100
AcDbEntity
  8
DRAFT
100
AcDbLine
 62
7
  6
CONTINUOUS
 10
-6.4167088442
 20
12.5132676422
 11
-6.4167088442
 21
11.15
  0
LINE
  5
475
100
AcDbEntity
  8
IMPORT_IGES
100
AcDbLine
 62
7
  6
CONTINUOUS
 10
-6.4167088442
 20
-0.4550000001
 11
-6.4167088442
 21
3.2772667015
  0
LINE
  5
476
100
AcDbEntity
  8
IMPORT_IGES
100
AcDbLine
 62
7
  6
CONTINUOUS
 10
-6.4167088442
 20
4.5605817051
 11
-6.4167088442
 21
6.344603557
  0
LINE
  5
477
100
AcDbEntity
  8
0
100
AcDbLine
 62
7
  6
CONTINUOUS
 10
-6.3667088442
 20
24.0
 11
-6.3667088442
 21
23.3679449472
  0
LINE
  5
478
100
AcDbEntity
  8
0
100
AcDbLine
 62
7
  6
CONTINUOUS
 10
-6.3667088442
 20
22.9320550528
 11
-6.3667088442
 21
22.4
  0
LINE
  5
479
100
AcDbEntity
  8
0
100
AcDbLine
 62
7
  6
CONTINUOUS
 10
-6.3667088442
 20
-22.4
 11
-6.3667088442
 21
-22.9320550528
  0
LINE
  5
47A
100
AcDbEntity
  8
0
100
AcDbLine
 62
7
  6
CONTINUOUS
 10
-6.3667088442
 20
-23.3679449472
 11
-6.3667088442
 21
-24.0
  0
LINE
  5
47B
100
AcDbEntity
  8
0
100
AcDbLine
 62
7
  6
CONTINUOUS
 10
-6.3227865971
 20
-23.9538922731
 11
-6.3227865971
 21
-22.356077753
  0
LINE
  5
47C
100
AcDbEntity
  8
0
100
AcDbLine
 62
7
  6
CONTINUOUS
 10
-6.3227865971
 20
22.356077753
 11
-6.3227865971
 21
23.9538922731
  0
LINE
  5
47D
100
AcDbEntity
  8
IMPORT_IGES
100
AcDbLine
 62
253
  6
CONTINUOUS
 10
-6.1261994423
 20
-8.3808532759
 11
-6.1261994437
 21
-8.3405804277
  0
LINE
  5
47E
100
AcDbEntity
  8
RACCORDO
100
AcDbLine
 62
253
  6
CONTINUOUS
 10
-6.1196452527
 20
-17.5032539353
 11
-6.119315481
 21
-20.0
  0
LINE
  5
47F
100
AcDbEntity
  8
IMPORT_IGES
100
AcDbLine
 62
253
  6
CONTINUOUS
 10
-6.1167088442
 20
8.5748812075
 11
-6.1167088434
 21
10.95
  0
LINE
  5
480
100
AcDbEntity
  8
IMPORT_IGES
100
AcDbLine
 62
253
  6
CONTINUOUS
 10
-6.0901608834
 20
-10.7508823024
 11
-6.0901680941
 21
-10.95
  0
LINE
  5
481
100
AcDbEntity
  8
IMPORT_IGES
100
AcDbLine
 62
7
  6
CONTINUOUS
 10
-6.0215623465
 20
7.6358577305
 11
-6.0215623465
 21
7.5676759124
  0
LINE
  5
482
100
AcDbEntity
  8
IMPORT_IGES
100
AcDbLine
 62
253
  6
CONTINUOUS
 10
-6.0044601809
 20
3.1132052805
 11
-6.0044601811
 21
3.3132052805
  0
LINE
  5
483
100
AcDbEntity
  8
IMPORT_IGES
100
AcDbLine
 62
7
  6
CONTINUOUS
 10
-5.9167088442
 20
10.75
 11
-5.9167088442
 21
8.5866771736
  0
LINE
  5
484
100
AcDbEntity
  8
0
100
AcDbLine
 62
7
  6
CONTINUOUS
 10
-5.6508012038
 20
-11.2117237174
 11
-5.6508012038
 21
-11.3117237174
  0
LINE
  5
485
100
AcDbEntity
  8
0
100
AcDbLine
 62
253
  6
CONTINUOUS
 10
-5.5613342831
 20
-11.2117237174
 11
-5.5613342831
 21
-11.3117237174
  0
LINE
  5
486
100
AcDbEntity
  8
0
100
AcDbLine
 62
253
  6
CONTINUOUS
 10
-5.4731499892
 20
-11.2117237174
 11
-5.4731499892
 21
-11.3117237174
  0
LINE
  5
487
100
AcDbEntity
  8
0
100
AcDbLine
 62
7
  6
CONTINUOUS
 10
-5.4167088442
 20
-22.3560930869
 11
-5.4167088442
 21
-23.9941821702
  0
LINE
  5
488
100
AcDbEntity
  8
DRAFT
100
AcDbLine
 62
7
  6
CONTINUOUS
 10
-5.4167088442
 20
-14.7796862477
 11
-5.4167088442
 21
-14.0043634339
  0
LINE
  5
489
100
AcDbEntity
  8
0
100
AcDbLine
 62
7
  6
CONTINUOUS
 10
-5.4167088442
 20
22.3560930869
 11
-5.4167088442
 21
23.9541479441
  0
LINE
  5
48A
100
AcDbEntity
  8
0
100
AcDbLine
 62
7
  6
CONTINUOUS
 10
-5.4167088442
 20
23.9563493531
 11
-5.4167088442
 21
23.9941821702
  0
LINE
  5
48B
100
AcDbEntity
  8
RACCORDO
100
AcDbLine
 62
7
  6
CONTINUOUS
 10
-5.3167088442
 20
-15.507774954
 11
-5.3167088442
 21
-14.1182103417
  0
LWPOLYLINE
  5
48C
100
AcDbEntity
  8
IMPORT_IGES
100
AcDbPolyline
 62
253
  6
CONTINUOUS
 90
5
 70
0
 10
-5.7167088442
 20
3.1132052805
 10
-5.7166261082
 20
2.7665843596
 10
-5.7170631424
 20
2.716270204
 10
-5.7177385987
 20
2.6649577753
 10
-5.7186524771
 20
2.6132065629
  0
LWPOLYLINE
  5
48D
100
AcDbEntity
  8
IMPORT_IGES
100
AcDbPolyline
 62
253
  6
CONTINUOUS
 90
10
 70
0
 10
-5.9423173663
 20
-6.4080835056
 10
-5.9420363413
 20
-6.3792684516
 10
-5.9405163983
 20
-6.3511815178
 10
-5.9378010321
 20
-6.3238415365
 10
-5.9339627137
 20
-6.2972097392
 10
-5.9290448919
 20
-6.2713227586
 10
-5.9230101011
 20
-6.2462916039
 10
-5.9158422679
 20
-6.2221517712
 10
-5.9075979901
 20
-6.1988642784
 10
-5.8983138584
 20
-6.1764276556
  0
LWPOLYLINE
  5
48E
100
AcDbEntity
  8
IMPORT_IGES
100
AcDbPolyline
 62
253
  6
CONTINUOUS
 90
7
 70
0
 10
-6.1167088442
 20
8.5748812075
 10
-6.1247836927
 20
8.1863345751
 10
-6.149399338
 20
7.7988011896
 10
-6.1905557799
 20
7.412313853
 10
-6.2483749866
 20
7.0259106829
 10
-6.32273499
 20
6.6406197805
 10
-6.3304974439
 20
6.6079382964
  0
LINE
  5
48F
100
AcDbEntity
  8
RACCORDO
100
AcDbLine
 62
7
  6
CONTINUOUS
 10
-5.859482496
 20
-15.6047893388
 11
-5.8867602235
 21
-16.8647171262
  0
LINE
  5
490
100
AcDbEntity
  8
DRAFT
100
AcDbLine
 62
7
  6
CONTINUOUS
 10
-5.66196583
 20
-15.507774954
 11
-5.6861071646
 21
-16.6228362517
  0
LINE
  5
491
100
AcDbEntity
  8
RACCORDO
100
AcDbLine
 62
253
  6
CONTINUOUS
 10
-6.4173480628
 20
13.7284206282
 11
-6.4807843741
 21
11.15
  0
LINE
  5
492
100
AcDbEntity
  8
IMPORT_IGES
100
AcDbLine
 62
253
  6
CONTINUOUS
 10
-5.73775686
 20
8.096447098
 11
-5.7420625613
 21
7.9929399047
  0
LINE
  5
493
100
AcDbEntity
  8
IMPORT_IGES
100
AcDbLine
 62
253
  6
CONTINUOUS
 10
-5.7420625613
 20
7.9929399047
 11
-5.7497735233
 21
7.8297602697
  0
LINE
  5
494
100
AcDbEntity
  8
IMPORT_IGES
100
AcDbLine
 62
253
  6
CONTINUOUS
 10
-5.7497735233
 20
7.8297602697
 11
-5.754255229
 21
7.7428932182
  0
LWPOLYLINE
  5
495
100
AcDbEntity
  8
IMPORT_IGES
100
AcDbPolyline
 62
253
  6
CONTINUOUS
 90
10
 70
0
 10
-5.7377312786
 20
8.0964466623
 10
-5.7333188931
 20
8.1665898451
 10
-5.7294256135
 20
8.2367445714
 10
-5.7260514398
 20
8.3069108412
 10
-5.7231963333
 20
8.3770905884
 10
-5.7208603327
 20
8.4472818791
 10
-5.7190435543
 20
8.5174789117
 10
-5.7177460369
 20
8.5876797523
 10
-5.7169677417
 20
8.6578863348
 10
-5.7167088442
 20
10.95
  0
LWPOLYLINE
  5
496
100
AcDbEntity
  8
IMPORT_IGES
100
AcDbPolyline
 62
7
  6
CONTINUOUS
 90
10
 70
0
 10
-6.6621684797
 20
-1.0919876275
 10
-6.6631243
 20
-1.1029098869
 10
-6.66396732
 20
-1.1138379198
 10
-6.6646975399
 20
-1.1247717261
 10
-6.6653150043
 20
-1.1357122763
 10
-6.6658196685
 20
-1.1466585999
 10
-6.6662113981
 20
-1.1576077858
 10
-6.6664901481
 20
-1.1685588635
 10
-6.6666559635
 20
-1.1795128034
 10
-6.6667088442
 20
-1.1904696055
  0
LWPOLYLINE
  5
497
100
AcDbEntity
  8
IMPORT_IGES
100
AcDbPolyline
 62
253
  6
CONTINUOUS
 90
13
 70
0
 10
-5.9167088442
 20
8.5866771729
 10
-5.9150397805
 20
8.6049096152
 10
-5.9100812822
 20
8.6227819842
 10
-5.9019463366
 20
8.6400021161
 10
-5.8908612978
 20
8.6562147949
 10
-5.877001249
 20
8.6712537375
 10
-5.8603497847
 20
8.685082791
 10
-5.8409636694
 20
8.6974941301
 10
-5.8191951549
 20
8.7081197915
 10
-5.7954651598
 20
8.716672385
 10
-5.7701989723
 20
8.7229469
 10
-5.7437918487
 20
8.726796022
 10
-5.7167088442
 20
8.7280986591
  0
LWPOLYLINE
  5
498
100
AcDbEntity
  8
IMPORT_IGES
100
AcDbPolyline
 62
253
  6
CONTINUOUS
 90
6
 70
0
 10
-5.9167088442
 20
10.6621320344
 10
-5.9149978164
 20
10.6805912255
 10
-5.9098940094
 20
10.6987345747
 10
-5.9014847507
 20
10.7162516444
 10
-5.8899139249
 20
10.7328427125
 10
-5.8753795122
 20
10.7482239013
  0
LINE
  5
499
100
AcDbEntity
  8
IMPORT_IGES
100
AcDbLine
 62
7
  6
CONTINUOUS
 10
-5.9534647788
 20
7.7606570943
 11
-6.0583755899
 21
6.969602164
  0
LWPOLYLINE
  5
49A
100
AcDbEntity
  8
IMPORT_IGES
100
AcDbPolyline
 62
7
  6
CONTINUOUS
 90
4
 70
0
 10
-6.6334614539
 20
-0.9156500466
 10
-6.6357013705
 20
-0.9265975866
 10
-6.6500450888
 20
-1.0088068398
 10
-6.6621684797
 20
-1.0919876754
  0
LWPOLYLINE
  5
49B
100
AcDbEntity
  8
IMPORT_IGES
100
AcDbPolyline
 62
7
  6
CONTINUOUS
 90
31
 70
0
 10
-9.2967916624
 20
-7.9542999891
 10
-9.2872350604
 20
-7.9227560858
 10
-9.2782934219
 20
-7.8901063649
 10
-9.2699667469
 20
-7.8563508266
 10
-9.262339275
 20
-7.8214984454
 10
-9.2553267666
 20
-7.7855402468
 10
-9.2486765027
 20
-7.7484493063
 10
-9.2423337906
 20
-7.7102202249
 10
-9.2363533231
 20
-7.6708584017
 10
-9.2306464591
 20
-7.6303531097
 10
-9.2251978892
 20
-7.5887301105
 10
-9.2200229228
 20
-7.5459636426
 10
-9.2150788473
 20
-7.5019656948
 10
-9.2103561991
 20
-7.4567452191
 10
-9.2058644417
 20
-7.4102932634
 10
-9.2015892532
 20
-7.362494961
 10
-9.1975234129
 20
-7.3133426428
 10
-9.1936741414
 20
-7.2628439779
 10
-9.1900487793
 20
-7.2109071062
 10
-9.1866424561
 20
-7.1575333275
 10
-9.1834600423
 20
-7.1027213422
 10
-9.1805234885
 20
-7.0463753914
 10
-9.177827868
 20
-6.9884971036
 10
-9.1753781077
 20
-6.9290848504
 10
-9.1732109384
 20
-6.8680379879
 10
-9.1713203425
 20
-6.8053542047
 10
-9.1697123376
 20
-6.7410358121
 10
-9.168441707
 20
-6.6749891013
 10
-9.1675267118
 20
-6.6071828358
 10
-9.1669490908
 20
-6.5376482519
 10
-9.1667088442
 20
-0.4710739544
  0
LWPOLYLINE
  5
49C
100
AcDbEntity
  8
IMPORT_IGES
100
AcDbPolyline
 62
253
  6
CONTINUOUS
 90
3
 70
0
 10
-4.5542683144
 20
6.7779419294
 10
-4.5199243518
 20
6.885524281
 10
-4.416756163
 20
7.2213177878
  0
LINE
  5
49D
100
AcDbEntity
  8
IMPORT_IGES
100
AcDbLine
 62
253
  6
CONTINUOUS
 10
-7.0139679105
 20
-1.0559703216
 11
-7.0267184285
 21
-1.0919875797
  0
LWPOLYLINE
  5
49E
100
AcDbEntity
  8
0
100
AcDbPolyline
 62
7
  6
CONTINUOUS
 90
12
 70
0
 10
5.3667837642
 20
24.3750024283
 10
5.361081387
 20
24.3645591876
 10
5.3558823837
 20
24.3538564463
 10
5.3511985301
 20
24.3429184493
 10
5.3470404345
 20
24.3317699738
 10
5.3434175141
 20
24.320436279
 10
5.3403379741
 20
24.3089430388
 10
5.3378087881
 20
24.2973162875
 10
5.3358356817
 20
24.2855823661
 10
5.3344231216
 20
24.2737678556
 10
5.3335743061
 20
24.261899516
 10
5.3332911558
 20
24.2500042308
  0
LWPOLYLINE
  5
49F
100
AcDbEntity
  8
IMPORT_IGES
100
AcDbPolyline
 62
253
  6
CONTINUOUS
 90
6
 70
0
 10
-9.1442278107
 20
-0.3710813008
 10
-9.1562192199
 20
-0.3864668702
 10
-9.1682622898
 20
-0.4007696309
 10
-9.181170157
 20
-0.413597917
 10
-9.1958987453
 20
-0.4243329929
 10
-9.2130821436
 20
-0.4328161965
  0
LINE
  5
4A0
100
AcDbEntity
  8
IMPORT_IGES
100
AcDbLine
 62
253
  6
CONTINUOUS
 10
-7.9667088442
 20
-0.0184195839
 11
-8.0227903866
 21
-0.0710819827
  0
LINE
  5
4A1
100
AcDbEntity
  8
RACCORDO
100
AcDbLine
 62
7
  6
CONTINUOUS
 10
-11.4288138312
 20
0.5
 11
-11.5618534108
 21
0.4334852763
  0
LWPOLYLINE
  5
4A2
100
AcDbEntity
  8
IMPORT_IGES
100
AcDbPolyline
 62
7
  6
CONTINUOUS
 90
5
 70
0
 10
-9.0541225244
 20
-8.3928916726
 10
-9.0315125063
 20
-8.38734287
 10
-9.0075826957
 20
-8.3833993114
 10
-8.9831584306
 20
-8.3812630301
 10
-8.9667124066
 20
-8.3808547176
  0
LWPOLYLINE
  5
4A3
100
AcDbEntity
  8
RACCORDO
100
AcDbPolyline
 62
253
  6
CONTINUOUS
 90
10
 70
0
 10
-10.6710565446
 20
-7.2878732464
 10
-10.6873434705
 20
-7.2894383798
 10
-10.7031374153
 20
-7.2939829524
 10
-10.7179603057
 20
-7.3013694099
 10
-10.7313634604
 20
-7.3113741759
 10
-10.7429411695
 20
-7.3236944177
 10
-10.752342976
 20
-7.3379572108
 10
-10.7592842877
 20
-7.3537308301
 10
-10.7635549903
 20
-7.3705378189
 10
-10.7650258067
 20
-7.3878694387
  0
LWPOLYLINE
  5
4A4
100
AcDbEntity
  8
IMPORT_IGES
100
AcDbPolyline
 62
253
  6
CONTINUOUS
 90
13
 70
0
 10
2.2588931747
 20
-6.3038303399
 10
2.2396626797
 20
-6.3045897925
 10
2.2208118775
 20
-6.3070761535
 10
2.2026451227
 20
-6.3112315332
 10
2.185537907
 20
-6.3169375972
 10
2.16965665
 20
-6.3241048495
 10
2.1550236472
 20
-6.3327505532
 10
2.141851577
 20
-6.3428557446
 10
2.1305388705
 20
-6.3542380933
 10
2.1213982886
 20
-6.3666737276
 10
2.1146470684
 20
-6.3799390372
 10
2.1104379573
 20
-6.3938315491
 10
2.1088994196
 20
-6.4081050235
  0
LINE
  5
4A5
100
AcDbEntity
  8
IMPORT_IGES
100
AcDbLine
 62
253
  6
CONTINUOUS
 10
2.7575239329
 20
-5.8672804328
 11
2.7120309017
 21
-5.8678694368
  0
LINE
  5
4A6
100
AcDbEntity
  8
IMPORT_IGES
100
AcDbLine
 62
253
  6
CONTINUOUS
 10
2.0884309936
 20
-6.8454496887
 11
2.0451064873
 21
-6.8459027196
  0
LWPOLYLINE
  5
4A7
100
AcDbEntity
  8
IMPORT_IGES
100
AcDbPolyline
 62
253
  6
CONTINUOUS
 90
5
 70
0
 10
-5.7370954843
 20
-6.845501943
 10
-5.7889558403
 20
-6.8460093473
 10
-5.8137494436
 20
-6.8461000504
 10
-5.8372138792
 20
-6.846032071
 10
-5.9103259799
 20
-6.8455245698
  0
LWPOLYLINE
  5
4A8
100
AcDbEntity
  8
IMPORT_IGES
100
AcDbPolyline
 62
253
  6
CONTINUOUS
 90
5
 70
0
 10
-5.9103259799
 20
-6.8455245698
 10
-5.9218715492
 20
-6.8456104625
 10
-5.930260337
 20
-6.8458975027
 10
-5.9353477462
 20
-6.8463549221
 10
-5.9370464874
 20
-6.8469908552
  0
LWPOLYLINE
  5
4A9
100
AcDbEntity
  8
IMPORT_IGES
100
AcDbPolyline
 62
253
  6
CONTINUOUS
 90
3
 70
0
 10
2.0451064873
 20
-6.8459027196
 10
2.0037083221
 20
-6.8461666689
 10
1.9802501498
 20
-6.8461797309
  0
LINE
  5
4AA
100
AcDbEntity
  8
IMPORT_IGES
100
AcDbLine
 62
253
  6
CONTINUOUS
 10
2.7120309017
 20
-5.8678694368
 11
2.6603679391
 21
-5.868180338
  0
LINE
  5
4AB
100
AcDbEntity
  8
IMPORT_IGES
100
AcDbLine
 62
253
  6
CONTINUOUS
 10
-5.7371021252
 20
-6.8455020228
 11
1.9036844369
 21
-6.8455020228
  0
LINE
  5
4AC
100
AcDbEntity
  8
IMPORT_IGES
100
AcDbLine
 62
253
  6
CONTINUOUS
 10
2.6332911558
 20
-6.073834867
 11
2.1797501079
 21
-6.0738215284
  0
LINE
  5
4AD
100
AcDbEntity
  8
IMPORT_IGES
100
AcDbLine
 62
253
  6
CONTINUOUS
 10
-6.013168231
 20
-6.0738283964
 11
-6.4667088442
 21
-6.073834867
  0
LINE
  5
4AE
100
AcDbEntity
  8
IMPORT_IGES
100
AcDbLine
 62
253
  6
CONTINUOUS
 10
1.9154207028
 20
-5.8682203415
 11
2.6603679391
 21
-5.868180338
  0
LINE
  5
4AF
100
AcDbEntity
  8
IMPORT_IGES
100
AcDbLine
 62
253
  6
CONTINUOUS
 10
-6.4937856274
 20
-5.868180338
 11
-5.7488383912
 21
-5.8682203415
  0
LINE
  5
4B0
100
AcDbEntity
  8
IMPORT_IGES
100
AcDbLine
 62
253
  6
CONTINUOUS
 10
-6.54544859
 20
-5.8678694368
 11
-6.4937856274
 21
-5.868180338
  0
LWPOLYLINE
  5
4B1
100
AcDbEntity
  8
IMPORT_IGES
100
AcDbPolyline
 62
253
  6
CONTINUOUS
 90
3
 70
0
 10
1.9802501498
 20
-6.8461797309
 10
1.929803091
 20
-6.8458308306
 10
1.9036777959
 20
-6.8455019433
  0
LWPOLYLINE
  5
4B2
100
AcDbEntity
  8
IMPORT_IGES
100
AcDbPolyline
 62
253
  6
CONTINUOUS
 90
13
 70
0
 10
-6.0923557959
 20
-6.3038308302
 10
-6.0731389581
 20
-6.3045851839
 10
-6.0542889441
 20
-6.3070660134
 10
-6.0361108931
 20
-6.3112186752
 10
-6.0189744848
 20
-6.3169308501
 10
-6.0030579526
 20
-6.3241139395
 10
-5.988406923
 20
-6.3327743064
 10
-5.9752404293
 20
-6.3428819789
 10
-5.963941138
 20
-6.3542573577
 10
-5.9548100685
 20
-6.3666838639
 10
-5.9480630168
 20
-6.3799417734
 10
-5.943855794
 20
-6.393826174
 10
-5.9423172199
 20
-6.4080956972
  0
LWPOLYLINE
  5
4B3
100
AcDbEntity
  8
IMPORT_IGES
100
AcDbPolyline
 62
253
  6
CONTINUOUS
 90
13
 70
0
 10
-6.4667088442
 20
-6.0738348672
 10
-6.4925195235
 20
-6.0726522517
 10
-6.5178116433
 20
-6.0691404357
 10
-6.5421717792
 20
-6.0633817236
 10
-6.5650956223
 20
-6.0555395478
 10
-6.5863523596
 20
-6.0457392124
 10
-6.6058993626
 20
-6.0339664518
 10
-6.6234449827
 20
-6.02025935
 10
-6.6384663543
 20
-6.0048681786
 10
-6.6505567499
 20
-5.988090919
 10
-6.6594264426
 20
-5.9702283708
 10
-6.6648674872
 20
-5.9515596878
 10
-6.6667088442
 20
-5.932413511
  0
LWPOLYLINE
  5
4B4
100
AcDbEntity
  8
IMPORT_IGES
100
AcDbPolyline
 62
253
  6
CONTINUOUS
 90
4
 70
0
 10
2.1036458533
 20
-6.8455707489
 10
2.1019376177
 20
-6.8454543133
 10
2.096836424
 20
-6.845416758
 10
2.0884309936
 20
-6.8454496887
  0
LWPOLYLINE
  5
4B5
100
AcDbEntity
  8
RACCORDO
100
AcDbPolyline
 62
253
  6
CONTINUOUS
 90
10
 70
0
 10
6.8376388563
 20
-7.2878732464
 10
6.8539258296
 20
-7.2894383889
 10
6.8697198056
 20
-7.2939829831
 10
6.8845427095
 20
-7.3013694667
 10
6.8979458606
 20
-7.311374255
 10
6.9095235531
 20
-7.3236945089
 10
6.9189253368
 20
-7.3379573012
 10
6.9258666252
 20
-7.3537309055
 10
6.9301373095
 20
-7.3705378636
 10
6.9316081184
 20
-7.3878694387
  0
LWPOLYLINE
  5
4B6
100
AcDbEntity
  8
IMPORT_IGES
100
AcDbPolyline
 62
253
  6
CONTINUOUS
 90
5
 70
0
 10
5.2196107857
 20
-8.3488095358
 10
5.2594856397
 20
-8.3568368062
 10
5.2972475357
 20
-8.3675228595
 10
5.3328191609
 20
-8.3808173598
 10
5.3659685773
 20
-8.3965692993
  0
LWPOLYLINE
  5
4B7
100
AcDbEntity
  8
IMPORT_IGES
100
AcDbPolyline
 62
7
  6
CONTINUOUS
 90
15
 70
0
 10
5.2133532188
 20
-8.3908798701
 10
5.2346429978
 20
-8.3973002012
 10
5.2537684274
 20
-8.4047520919
 10
5.2706481535
 20
-8.4129226638
 10
5.2851197926
 20
-8.421438601
 10
5.2971794719
 20
-8.4299424825
 10
5.3071926269
 20
-8.4383431026
 10
5.3153776286
 20
-8.4465487491
 10
5.3217152765
 20
-8.4542289253
 10
5.3262712014
 20
-8.4610018023
 10
5.3295402112
 20
-8.4671510007
 10
5.3316761298
 20
-8.4725931268
 10
5.3327070592
 20
-8.4765510499
 10
5.3331697687
 20
-8.479504827
 10
5.3332883296
 20
-8.4809606773
  0
LINE
  5
4B8
100
AcDbEntity
  8
RACCORDO
100
AcDbLine
 62
7
  6
CONTINUOUS
 10
-11.4288138312
 20
-0.5
 11
-11.5618534108
 21
-0.4334852763
  0
LWPOLYLINE
  5
4B9
100
AcDbEntity
  8
IMPORT_IGES
100
AcDbPolyline
 62
253
  6
CONTINUOUS
 90
7
 70
0
 10
5.4136476409
 20
-10.1495323007
 10
5.3941006375
 20
-10.1362356585
 10
5.3765550173
 20
-10.1207542906
 10
5.3615336458
 20
-10.1033708651
 10
5.3494432501
 20
-10.0844219433
 10
5.3405735573
 20
-10.0642472634
 10
5.3351325127
 20
-10.0431621104
  0
LINE
  5
4BA
100
AcDbEntity
  8
RACCORDO
100
AcDbLine
 62
253
  6
CONTINUOUS
 10
5.0825085995
 20
-13.9991984052
 11
4.9934234561
 21
-13.9101132618
  0
LINE
  5
4BB
100
AcDbEntity
  8
RACCORDO
100
AcDbLine
 62
253
  6
CONTINUOUS
 10
5.5827835346
 20
-13.4995114173
 11
5.4934044176
 21
-13.4101323002
  0
LWPOLYLINE
  5
4BC
100
AcDbEntity
  8
IMPORT_IGES
100
AcDbPolyline
 62
7
  6
CONTINUOUS
 90
10
 70
0
 10
-8.0227906645
 20
-0.071081606
 10
-8.0718085113
 20
-0.0128983375
 10
-8.1154836258
 20
0.048196282
 10
-8.1538160079
 20
0.1122022527
 10
-8.1869872903
 20
0.1795779616
 10
-8.2148158404
 20
0.2498650215
 10
-8.2367567606
 20
0.3216882714
 10
-8.2526284183
 20
0.3945893243
 10
-8.2626124462
 20
0.4690265671
 10
-8.2667088441
 20
0.545
  0
LINE
  5
4BD
100
AcDbEntity
  8
0
100
AcDbLine
 62
7
  6
CONTINUOUS
 10
-5.1554276686
 20
-11.2117237174
 11
-5.1554276686
 21
-11.3117237174
  0
LINE
  5
4BE
100
AcDbEntity
  8
0
100
AcDbLine
 62
7
  6
CONTINUOUS
 10
-5.1204098921
 20
-11.2117237174
 11
-5.1204098921
 21
-11.3117237174
  0
LINE
  5
4BF
100
AcDbEntity
  8
0
100
AcDbLine
 62
7
  6
CONTINUOUS
 10
-4.9167088442
 20
-20.8
 11
-4.9167088442
 21
-22.3941821702
  0
LINE
  5
4C0
100
AcDbEntity
  8
0
100
AcDbLine
 62
7
  6
CONTINUOUS
 10
-4.9167088442
 20
20.8
 11
-4.9167088442
 21
22.3941821702
  0
LINE
  5
4C1
100
AcDbEntity
  8
0
100
AcDbLine
 62
7
  6
CONTINUOUS
 10
-4.8539330702
 20
-11.2117237174
 11
-4.8539330702
 21
-11.3117237174
  0
LINE
  5
4C2
100
AcDbEntity
  8
IMPORT_IGES
100
AcDbLine
 62
7
  6
CONTINUOUS
 10
-4.8215623465
 20
3.6144957592
 11
-4.8215623465
 21
3.6227891219
  0
LINE
  5
4C3
100
AcDbEntity
  8
0
100
AcDbLine
 62
7
  6
CONTINUOUS
 10
-4.5925809126
 20
-11.2117237174
 11
-4.5925809126
 21
-11.3117237174
  0
LINE
  5
4C4
100
AcDbEntity
  8
0
100
AcDbLine
 62
7
  6
CONTINUOUS
 10
-4.5575631361
 20
-11.2117237174
 11
-4.5575631361
 21
-11.3117237174
  0
LINE
  5
4C5
100
AcDbEntity
  8
IMPORT_IGES
100
AcDbLine
 62
253
  6
CONTINUOUS
 10
-4.5215623465
 20
3.85570592
 11
-4.5215623465
 21
3.6097338544
  0
LINE
  5
4C6
100
AcDbEntity
  8
IMPORT_IGES
100
AcDbLine
 62
253
  6
CONTINUOUS
 10
-4.5215623465
 20
-3.6438955742
 11
-4.5215623465
 21
-3.8467035702
  0
LINE
  5
4C7
100
AcDbEntity
  8
0
100
AcDbLine
 62
253
  6
CONTINUOUS
 10
-4.2125094634
 20
-11.2117237174
 11
-4.2125094634
 21
-11.3117237174
  0
LINE
  5
4C8
100
AcDbEntity
  8
0
100
AcDbLine
 62
253
  6
CONTINUOUS
 10
-4.1339330458
 20
-11.2117237174
 11
-4.1339330458
 21
-11.3117237174
  0
LINE
  5
4C9
100
AcDbEntity
  8
0
100
AcDbLine
 62
7
  6
CONTINUOUS
 10
-4.0493779402
 20
-11.2117237174
 11
-4.0493779402
 21
-11.3117237174
  0
LINE
  5
4CA
100
AcDbEntity
  8
0
100
AcDbLine
 62
7
  6
CONTINUOUS
 10
-4.0058188658
 20
-11.2117237174
 11
-4.0058188658
 21
-11.3117237174
  0
LINE
  5
4CB
100
AcDbEntity
  8
0
100
AcDbLine
 62
253
  6
CONTINUOUS
 10
-3.9163520895
 20
-11.2117237174
 11
-3.9163520895
 21
-11.3117237174
  0
LINE
  5
4CC
100
AcDbEntity
  8
0
100
AcDbLine
 62
253
  6
CONTINUOUS
 10
-3.8281676512
 20
-11.2117237174
 11
-3.8281676512
 21
-11.3117237174
  0
LINE
  5
4CD
100
AcDbEntity
  8
IMPORT_IGES
100
AcDbLine
 62
253
  6
CONTINUOUS
 10
-3.6215621693
 20
-4.3441429566
 11
-3.6215623465
 21
-3.6438955742
  0
LINE
  5
4CE
100
AcDbEntity
  8
IMPORT_IGES
100
AcDbLine
 62
253
  6
CONTINUOUS
 10
-3.6215618622
 20
3.6097338544
 11
-3.6215616785
 21
4.3449477132
  0
LINE
  5
4CF
100
AcDbEntity
  8
0
100
AcDbLine
 62
7
  6
CONTINUOUS
 10
-3.5104453307
 20
-11.2117237174
 11
-3.5104453307
 21
-11.3117237174
  0
LINE
  5
4D0
100
AcDbEntity
  8
0
100
AcDbLine
 62
7
  6
CONTINUOUS
 10
-3.4754275542
 20
-11.2117237174
 11
-3.4754275542
 21
-11.3117237174
  0
LINE
  5
4D1
100
AcDbEntity
  8
DRAFT
100
AcDbLine
 62
7
  6
CONTINUOUS
 10
-5.4663399299
 20
-15.4980929339
 11
-5.4555561029
 21
-15.0
  0
LINE
  5
4D2
100
AcDbEntity
  8
RACCORDO
100
AcDbLine
 62
7
  6
CONTINUOUS
 10
-8.3694116853
 20
-19.4260209733
 11
-8.3959013802
 21
-19.5851005096
  0
LINE
  5
4D3
100
AcDbEntity
  8
RACCORDO
100
AcDbLine
 62
7
  6
CONTINUOUS
 10
-11.4721073217
 20
-19.4260209733
 11
-11.5250907466
 21
-19.5851005096
  0
LINE
  5
4D4
100
AcDbEntity
  8
0
100
AcDbLine
 62
7
  6
CONTINUOUS
 10
-11.5667088442
 20
-20.1990396502
 11
-11.5300532078
 21
-20.0889833137
  0
LINE
  5
4D5
100
AcDbEntity
  8
0
100
AcDbLine
 62
7
  6
CONTINUOUS
 10
-10.8666025066
 20
-20.9
 11
-10.8299468702
 21
-20.7899436635
  0
LINE
  5
4D6
100
AcDbEntity
  8
RACCORDO
100
AcDbLine
 62
7
  6
CONTINUOUS
 10
7.5953961429
 20
7.9
 11
7.7284357224
 21
7.9665147237
  0
LWPOLYLINE
  5
4D7
100
AcDbEntity
  8
IMPORT_IGES
100
AcDbPolyline
 62
253
  6
CONTINUOUS
 90
13
 70
0
 10
3.6332911558
 20
-4.1688807149
 10
3.6591021485
 20
-4.1681917139
 10
3.6843944825
 20
-4.1661457118
 10
3.7087547289
 20
-4.1627906733
 10
3.7316785568
 20
-4.1582218341
 10
3.7529351964
 20
-4.152512205
 10
3.772482106
 20
-4.1456534593
 10
3.7900281366
 20
-4.1376675243
 10
3.8050497501
 20
-4.1287004156
 10
3.8171392843
 20
-4.1189266262
 10
3.8260076665
 20
-4.1085218491
 10
3.8314483077
 20
-4.097648474
 10
3.8332911548
 20
-4.0864978885
  0
LWPOLYLINE
  5
4D8
100
AcDbEntity
  8
IMPORT_IGES
100
AcDbPolyline
 62
253
  6
CONTINUOUS
 90
13
 70
0
 10
-9.3667088442
 20
-4.1688807149
 10
-9.3408978515
 20
-4.1681917139
 10
-9.3156055175
 20
-4.1661457118
 10
-9.2912452711
 20
-4.1627906733
 10
-9.2683214432
 20
-4.1582218341
 10
-9.2470648036
 20
-4.152512205
 10
-9.227517894
 20
-4.1456534593
 10
-9.2099718634
 20
-4.1376675243
 10
-9.1949502499
 20
-4.1287004156
 10
-9.1828607157
 20
-4.1189266262
 10
-9.1739923335
 20
-4.1085218491
 10
-9.1685516923
 20
-4.097648474
 10
-9.1667088452
 20
-4.0864978885
  0
LWPOLYLINE
  5
4D9
100
AcDbEntity
  8
IMPORT_IGES
100
AcDbPolyline
 62
253
  6
CONTINUOUS
 90
13
 70
0
 10
6.1363159119
 20
-4.1688807123
 10
6.17495357
 20
-4.1684111395
 10
6.2127883691
 20
-4.1659053059
 10
6.2492073953
 20
-4.1614302995
 10
6.2834562021
 20
-4.1551229573
 10
6.3152088154
 20
-4.1470895137
 10
6.3444344649
 20
-4.1373114349
 10
6.370710362
 20
-4.1258107769
 10
6.3932525092
 20
-4.1127935669
 10
6.4114563578
 20
-4.0985073628
 10
6.4248912744
 20
-4.0832042937
 10
6.43324797
 20
-4.0671190113
 10
6.4362702181
 20
-4.0505298058
  0
LWPOLYLINE
  5
4DA
100
AcDbEntity
  8
IMPORT_IGES
100
AcDbPolyline
 62
253
  6
CONTINUOUS
 90
13
 70
0
 10
-9.9582872594
 20
-4.7388349419
 10
-9.997041136
 20
-4.7391840145
 10
-10.0349860145
 20
-4.7388965122
 10
-10.0715034298
 20
-4.7379852612
 10
-10.1058326699
 20
-4.7364828352
 10
-10.1376447349
 20
-4.7344178657
 10
-10.1669073276
 20
-4.7317842587
 10
-10.1931932694
 20
-4.728583441
 10
-10.2157120744
 20
-4.7248691104
 10
-10.2338545636
 20
-4.7207102048
 10
-10.2471879484
 20
-4.716179273
 10
-10.255402229
 20
-4.7113449583
 10
-10.258241568
 20
-4.7062900951
  0
LWPOLYLINE
  5
4DB
100
AcDbEntity
  8
IMPORT_IGES
100
AcDbPolyline
 62
253
  6
CONTINUOUS
 90
13
 70
0
 10
-9.3667088442
 20
-4.7388362272
 10
-9.3408981649
 20
-4.7386250311
 10
-9.3156060451
 20
-4.7379991493
 10
-9.2912459092
 20
-4.7369732402
 10
-9.2683220661
 20
-4.7355764587
 10
-9.2470653289
 20
-4.7338310735
 10
-9.2275183259
 20
-4.7317344009
 10
-9.2099727057
 20
-4.7292931756
 10
-9.1949513342
 20
-4.7265520187
 10
-9.1828609385
 20
-4.7235640006
 10
-9.1739912458
 20
-4.7203826932
 10
-9.1685502011
 20
-4.7170578138
 10
-9.1667088442
 20
-4.7136478931
  0
LWPOLYLINE
  5
4DC
100
AcDbEntity
  8
IMPORT_IGES
100
AcDbPolyline
 62
253
  6
CONTINUOUS
 90
13
 70
0
 10
3.6332911558
 20
-4.7388338308
 10
3.6591018351
 20
-4.7386236998
 10
3.6843939549
 20
-4.7379986168
 10
3.7087540908
 20
-4.7369732402
 10
3.7316779339
 20
-4.7355766362
 10
3.7529346711
 20
-4.7338311623
 10
3.7724816741
 20
-4.7317344009
 10
3.7900272943
 20
-4.7292931756
 10
3.8050486658
 20
-4.7265520187
 10
3.8171390615
 20
-4.7235640006
 10
3.8260087542
 20
-4.7203826932
 10
3.8314497989
 20
-4.7170578138
 10
3.8332911558
 20
-4.7136478931
  0
LINE
  5
4DD
100
AcDbEntity
  8
IMPORT_IGES
100
AcDbLine
 62
253
  6
CONTINUOUS
 10
3.6332911558
 20
-4.7388340209
 11
2.8332911558
 21
-4.7388401477
  0
LINE
  5
4DE
100
AcDbEntity
  8
IMPORT_IGES
100
AcDbLine
 62
253
  6
CONTINUOUS
 10
-9.3667088442
 20
-4.7388366987
 11
-9.9582871294
 21
-4.7388371703
  0
LINE
  5
4DF
100
AcDbEntity
  8
IMPORT_IGES
100
AcDbLine
 62
253
  6
CONTINUOUS
 10
-7.4667088442
 20
-4.7388340414
 11
-6.6667088442
 21
-4.738841877
  0
LINE
  5
4E0
100
AcDbEntity
  8
IMPORT_IGES
100
AcDbLine
 62
253
  6
CONTINUOUS
 10
5.5332911558
 20
-4.738839919
 11
6.1248693409
 21
-4.7388424615
  0
LINE
  5
4E1
100
AcDbEntity
  8
IMPORT_IGES
100
AcDbLine
 62
7
  6
CONTINUOUS
 10
-3.0215623465
 20
-4.3165189879
 11
-0.8118553418
 21
-4.3165189879
  0
LINE
  5
4E2
100
AcDbEntity
  8
IMPORT_IGES
100
AcDbLine
 62
253
  6
CONTINUOUS
 10
-9.9697335723
 20
-4.1688776069
 11
-9.3667088441
 21
-4.1688786577
  0
LINE
  5
4E3
100
AcDbEntity
  8
IMPORT_IGES
100
AcDbLine
 62
253
  6
CONTINUOUS
 10
5.5332911558
 20
-4.1688799861
 11
6.1363158341
 21
-4.1688797904
  0
LINE
  5
4E4
100
AcDbEntity
  8
IMPORT_IGES
100
AcDbLine
 62
253
  6
CONTINUOUS
 10
2.8332911558
 20
-4.1688751909
 11
3.6332911559
 21
-4.168881256
  0
LINE
  5
4E5
100
AcDbEntity
  8
IMPORT_IGES
100
AcDbLine
 62
253
  6
CONTINUOUS
 10
-7.4667088442
 20
-4.1688827651
 11
-6.6667088442
 21
-4.1688773296
  0
LINE
  5
4E6
100
AcDbEntity
  8
IMPORT_IGES
100
AcDbLine
 62
7
  6
CONTINUOUS
 10
-3.3215623465
 20
-3.7459970184
 11
-0.5118553418
 21
-3.7459970184
  0
LINE
  5
4E7
100
AcDbEntity
  8
IMPORT_IGES
100
AcDbLine
 62
7
  6
CONTINUOUS
 10
0.6881446582
 20
-3.6438955742
 11
-0.2118553418
 21
-3.6438955742
  0
LINE
  5
4E8
100
AcDbEntity
  8
IMPORT_IGES
100
AcDbLine
 62
7
  6
CONTINUOUS
 10
-3.6215623465
 20
-3.6438955742
 11
-4.5215623465
 21
-3.6438955742
  0
LINE
  5
4E9
100
AcDbEntity
  8
IMPORT_IGES
100
AcDbLine
 62
7
  6
CONTINUOUS
 10
0.9932800398
 20
-3.611752717
 11
-4.8266974677
 21
-3.611752717
  0
LWPOLYLINE
  5
4EA
100
AcDbEntity
  8
IMPORT_IGES
100
AcDbPolyline
 62
253
  6
CONTINUOUS
 90
13
 70
0
 10
5.5332911558
 20
-4.7388349378
 10
5.5074801632
 20
-4.7386243096
 10
5.4821878292
 20
-4.7379988452
 10
5.4578275828
 20
-4.7369732075
 10
5.4349037549
 20
-4.7355765098
 10
5.4136471153
 20
-4.7338310719
 10
5.3941002057
 20
-4.7317343481
 10
5.37655372
 20
-4.7292929695
 10
5.3615318109
 20
-4.7265516314
 10
5.3494430274
 20
-4.723563935
 10
5.3405758206
 20
-4.7203837202
 10
5.3351354926
 20
-4.717060559
 10
5.3332911599
 20
-4.7136529364
  0
LWPOLYLINE
  5
4EB
100
AcDbEntity
  8
IMPORT_IGES
100
AcDbPolyline
 62
253
  6
CONTINUOUS
 90
13
 70
0
 10
6.1248693822
 20
-4.7388424622
 10
6.1636236143
 20
-4.7391881913
 10
6.2015687936
 20
-4.7388981723
 10
6.2380864444
 20
-4.737985233
 10
6.2724158485
 20
-4.7364822273
 10
6.3042279999
 20
-4.73441751
 10
6.3334905973
 20
-4.7317841542
 10
6.3597764728
 20
-4.7285833107
 10
6.3822951489
 20
-4.7248689587
 10
6.4004374557
 20
-4.7207100406
 10
6.4137706306
 20
-4.7161791084
 10
6.4219847078
 20
-4.7113448058
 10
6.4248238797
 20
-4.7062900932
  0
LWPOLYLINE
  5
4EC
100
AcDbEntity
  8
IMPORT_IGES
100
AcDbPolyline
 62
253
  6
CONTINUOUS
 90
13
 70
0
 10
5.5332911558
 20
-4.1688801819
 10
5.5074804765
 20
-4.1681914346
 10
5.4821883567
 20
-4.1661456508
 10
5.4578282209
 20
-4.1627907804
 10
5.4349043778
 20
-4.1582220186
 10
5.4136476406
 20
-4.1525123863
 10
5.3941006375
 20
-4.1456536317
 10
5.3765550118
 20
-4.1376679592
 10
5.3615336366
 20
-4.1287011579
 10
5.3494432502
 20
-4.1189268405
 10
5.340573572
 20
-4.108520256
 10
5.3351325312
 20
-4.0976440348
 10
5.3332911558
 20
-4.0864896401
  0
LINE
  5
4ED
100
AcDbEntity
  8
IMPORT_IGES
100
AcDbLine
 62
253
  6
CONTINUOUS
 10
-9.1442275528
 20
-0.3710814526
 11
-9.3142069438
 21
-0.271086715
  0
LWPOLYLINE
  5
4EE
100
AcDbEntity
  8
IMPORT_IGES
100
AcDbPolyline
 62
253
  6
CONTINUOUS
 90
10
 70
0
 10
5.3659685773
 20
-8.3965692993
 10
5.3968099501
 20
-8.4148895158
 10
5.4252291141
 20
-8.4356671716
 10
5.4506516359
 20
-8.4584187459
 10
5.4731014919
 20
-8.4827390492
 10
5.4925547055
 20
-8.509033271
 10
5.5083649136
 20
-8.5380334592
 10
5.5203166615
 20
-8.56998363
 10
5.5286254038
 20
-8.6046397672
 10
5.5332911404
 20
-8.6420018709
  0
LWPOLYLINE
  5
4EF
100
AcDbEntity
  8
IMPORT_IGES
100
AcDbPolyline
 62
253
  6
CONTINUOUS
 90
4
 70
0
 10
2.0773363494
 20
-5.9924647942
 10
1.9842836102
 20
-5.920646814
 10
1.9505444939
 20
-5.8947568546
 10
1.9154207028
 20
-5.8682203415
  0
LINE
  5
4F0
100
AcDbEntity
  8
RACCORDO
100
AcDbLine
 62
7
  6
CONTINUOUS
 10
5.4942694888
 20
-12.410978333
 11
5.5832911558
 21
-12.5
  0
LWPOLYLINE
  5
4F1
100
AcDbEntity
  8
RACCORDO
100
AcDbPolyline
 62
7
  6
CONTINUOUS
 90
18
 70
0
 10
-11.5618534108
 20
7.9665147237
 10
-11.5621094127
 20
7.9668074829
 10
-11.5623588036
 20
7.9673280892
 10
-11.5626015835
 20
7.9680765425
 10
-11.5628376539
 20
7.969064654
 10
-11.5630671133
 20
7.9702806126
 10
-11.5632902566
 20
7.9716889851
 10
-11.5635070469
 20
7.9732843784
 10
-11.5637175212
 20
7.9750721855
 10
-11.5639220858
 20
7.9770331526
 10
-11.5641207095
 20
7.9791614462
 10
-11.5643134235
 20
7.9814628998
 10
-11.5645007268
 20
7.98393576
 10
-11.5646826167
 20
7.9865720501
 10
-11.5648590959
 20
7.9893797468
 10
-11.5650306723
 20
7.9923810269
 10
-11.5651975815
 20
7.9955677786
 10
-11.5653595878
 20
7.9989481137
  0
LINE
  5
4F2
100
AcDbEntity
  8
RACCORDO
100
AcDbLine
 62
7
  6
CONTINUOUS
 10
-11.4409503175
 20
19.8214572617
 11
-11.5667088442
 21
20.1990396502
  0
LINE
  5
4F3
100
AcDbEntity
  8
RACCORDO
100
AcDbLine
 62
7
  6
CONTINUOUS
 10
-10.755500276
 20
20.5664222561
 11
-10.8666025066
 21
20.9
  0
LWPOLYLINE
  5
4F4
100
AcDbEntity
  8
0
100
AcDbPolyline
 62
7
  6
CONTINUOUS
 90
8
 70
0
 10
-9.1712264764
 20
24.2973162875
 10
-9.1737556624
 20
24.3089430388
 10
-9.1768352025
 20
24.320436279
 10
-9.1804581228
 20
24.3317699738
 10
-9.1846162184
 20
24.3429184493
 10
-9.189300072
 20
24.3538564463
 10
-9.1944990753
 20
24.3645591876
 10
-9.2002014525
 20
24.3750024283
  0
LINE
  5
4F5
100
AcDbEntity
  8
IMPORT_IGES
100
AcDbLine
 62
7
  6
CONTINUOUS
 10
-3.3215623465
 20
-4.4545137633
 11
-3.3215623465
 21
-3.6510384313
  0
LINE
  5
4F6
100
AcDbEntity
  8
IMPORT_IGES
100
AcDbLine
 62
7
  6
CONTINUOUS
 10
-3.3215623465
 20
3.6144957592
 11
-3.3215623465
 21
4.4545346441
  0
LINE
  5
4F7
100
AcDbEntity
  8
0
100
AcDbLine
 62
7
  6
CONTINUOUS
 10
-3.2089507323
 20
-11.2117237174
 11
-3.2089507323
 21
-11.3117237174
  0
LINE
  5
4F8
100
AcDbEntity
  8
IMPORT_IGES
100
AcDbLine
 62
7
  6
CONTINUOUS
 10
-3.0215623465
 20
-4.5410889427
 11
-3.0215623465
 21
-4.3165189879
  0
LINE
  5
4F9
100
AcDbEntity
  8
IMPORT_IGES
100
AcDbLine
 62
7
  6
CONTINUOUS
 10
-3.0215623465
 20
4.3755287456
 11
-3.0215623465
 21
4.541057624
  0
LINE
  5
4FA
100
AcDbEntity
  8
0
100
AcDbLine
 62
7
  6
CONTINUOUS
 10
-2.9475985747
 20
-11.2117237174
 11
-2.9475985747
 21
-11.3117237174
  0
LINE
  5
4FB
100
AcDbEntity
  8
0
100
AcDbLine
 62
7
  6
CONTINUOUS
 10
-2.9167088442
 20
23.7941787855
 11
-2.9167088442
 21
22.3947639644
  0
LINE
  5
4FC
100
AcDbEntity
  8
0
100
AcDbLine
 62
7
  6
CONTINUOUS
 10
-2.9167088442
 20
-22.3947639644
 11
-2.9167088442
 21
-23.7941787855
  0
LINE
  5
4FD
100
AcDbEntity
  8
0
100
AcDbLine
 62
7
  6
CONTINUOUS
 10
-2.9125807982
 20
-11.2117237174
 11
-2.9125807982
 21
-11.3117237174
  0
LINE
  5
4FE
100
AcDbEntity
  8
0
100
AcDbLine
 62
253
  6
CONTINUOUS
 10
-2.5675274115
 20
-11.2117237174
 11
-2.5675274115
 21
-11.3117237174
  0
LINE
  5
4FF
100
AcDbEntity
  8
IMPORT_IGES
100
AcDbLine
 62
7
  6
CONTINUOUS
 10
-2.5167088442
 20
3.888305283
 11
-2.5167088442
 21
4.6400356936
  0
LINE
  5
500
100
AcDbEntity
  8
0
100
AcDbLine
 62
253
  6
CONTINUOUS
 10
-2.4889507685
 20
-11.2117237174
 11
-2.4889507685
 21
-11.3117237174
  0
LINE
  5
501
100
AcDbEntity
  8
0
100
AcDbLine
 62
7
  6
CONTINUOUS
 10
-2.4043956023
 20
-11.2117237174
 11
-2.4043956023
 21
-11.3117237174
  0
LINE
  5
502
100
AcDbEntity
  8
0
100
AcDbLine
 62
7
  6
CONTINUOUS
 10
-2.3488797408
 20
-11.2117237174
 11
-2.3488797408
 21
-11.3117237174
  0
LINE
  5
503
100
AcDbEntity
  8
0
100
AcDbLine
 62
253
  6
CONTINUOUS
 10
-2.2250363132
 20
-11.2117237174
 11
-2.2250363132
 21
-11.3117237174
  0
LINE
  5
504
100
AcDbEntity
  8
0
100
AcDbLine
 62
253
  6
CONTINUOUS
 10
-2.1319401007
 20
-11.2117237174
 11
-2.1319401007
 21
-11.3117237174
  0
LINE
  5
505
100
AcDbEntity
  8
0
100
AcDbLine
 62
7
  6
CONTINUOUS
 10
-2.0063884001
 20
-11.2117237174
 11
-2.0063884001
 21
-11.3117237174
  0
LINE
  5
506
100
AcDbEntity
  8
DRAFT
100
AcDbLine
 62
7
  6
CONTINUOUS
 10
-5.4555561029
 20
-15.0
 11
-5.4167088442
 21
-14.7796862477
  0
LWPOLYLINE
  5
507
100
AcDbEntity
  8
0
100
AcDbPolyline
 62
7
  6
CONTINUOUS
 90
17
 70
0
 10
2.4893689088
 20
23.9538922731
 10
2.4890295436
 20
23.9521633765
 10
2.4881843324
 20
23.9499539919
 10
2.4868298949
 20
23.9472641193
 10
2.484964514
 20
23.9440998644
 10
2.4825854077
 20
23.9404551215
 10
2.4796861429
 20
23.936311573
 10
2.4762653479
 20
23.9316738335
 10
2.4723189421
 20
23.9265372884
 10
2.4678303235
 20
23.9208697763
 10
2.4627983587
 20
23.9146829671
 10
2.4572138894
 20
23.9079651908
 10
2.4510357759
 20
23.9006492766
 10
2.4442435828
 20
23.8927312555
 10
2.4368327965
 20
23.8842150963
 10
2.4287753203
 20
23.875045535
 10
2.4200562385
 20
23.8652192852
  0
LWPOLYLINE
  5
508
100
AcDbEntity
  8
IMPORT_IGES
100
AcDbPolyline
 62
253
  6
CONTINUOUS
 90
3
 70
0
 10
-5.8983138584
 20
-6.1764276556
 10
-5.8852570624
 20
-6.1478097709
 10
-5.870983393
 20
-6.1176966325
  0
LINE
  5
509
100
AcDbEntity
  8
IMPORT_IGES
100
AcDbLine
 62
253
  6
CONTINUOUS
 10
-5.870983393
 20
-6.1176966325
 11
-5.8227748313
 21
-6.0181562904
  0
LINE
  5
50A
100
AcDbEntity
  8
IMPORT_IGES
100
AcDbLine
 62
253
  6
CONTINUOUS
 10
-5.7679906702
 20
-5.9073903514
 11
-5.7488317503
 21
-5.8682202618
  0
LWPOLYLINE
  5
50B
100
AcDbEntity
  8
IMPORT_IGES
100
AcDbPolyline
 62
253
  6
CONTINUOUS
 90
3
 70
0
 10
-5.8227748313
 20
-6.0181562904
 10
-5.8051812694
 20
-5.9823005675
 10
-5.7679906702
 20
-5.9073903514
  0
LINE
  5
50C
100
AcDbEntity
  8
IMPORT_IGES
100
AcDbLine
 62
253
  6
CONTINUOUS
 10
-8.1898520396
 20
-10.7375490169
 11
-8.27549528
 21
-10.885426135
  0
LINE
  5
50D
100
AcDbEntity
  8
IMPORT_IGES
100
AcDbLine
 62
253
  6
CONTINUOUS
 10
-8.9667138454
 20
-10.2911912295
 11
-9.0151695869
 21
-10.3747148007
  0
LWPOLYLINE
  5
50E
100
AcDbEntity
  8
IMPORT_IGES
100
AcDbPolyline
 62
253
  6
CONTINUOUS
 90
4
 70
0
 10
-8.27549528
 20
-10.885426135
 10
-8.2861251955
 20
-10.903604567
 10
-8.2888868143
 20
-10.9082629183
 10
-8.2898511367
 20
-10.9098077498
  0
LINE
  5
50F
100
AcDbEntity
  8
IMPORT_IGES
100
AcDbLine
 62
253
  6
CONTINUOUS
 10
-9.0151695869
 20
-10.3747148007
 11
-9.0445417918
 21
-10.4248177683
  0
LWPOLYLINE
  5
510
100
AcDbEntity
  8
IMPORT_IGES
100
AcDbPolyline
 62
253
  6
CONTINUOUS
 90
5
 70
0
 10
-9.0445417918
 20
-10.4248177683
 10
-9.058141751
 20
-10.4476812761
 10
-9.0627868332
 20
-10.4553303032
 10
-9.0656685448
 20
-10.4599074685
 10
-9.0667084418
 20
-10.4612885539
  0
LINE
  5
511
100
AcDbEntity
  8
IMPORT_IGES
100
AcDbLine
 62
7
  6
CONTINUOUS
 10
-7.4667088442
 20
-7.8451400551
 11
-7.5366260259
 21
-7.9542999891
  0
LINE
  5
512
100
AcDbEntity
  8
IMPORT_IGES
100
AcDbLine
 62
253
  6
CONTINUOUS
 10
0.8976750319
 20
6.4342446924
 11
1.008043027
 21
6.601034697
  0
LINE
  5
513
100
AcDbEntity
  8
IMPORT_IGES
100
AcDbLine
 62
7
  6
CONTINUOUS
 10
2.4881446582
 20
6.9398543419
 11
2.312919839
 21
6.7630773917
  0
LWPOLYLINE
  5
514
100
AcDbEntity
  8
IMPORT_IGES
100
AcDbPolyline
 62
253
  6
CONTINUOUS
 90
7
 70
0
 10
-9.2130821436
 20
-0.4328161965
 10
-9.2323571427
 20
-0.4395297214
 10
-9.2533997182
 20
-0.4446746459
 10
-9.2759745614
 20
-0.4479775681
 10
-9.2991620487
 20
-0.4501238207
 10
-9.3222875061
 20
-0.4519019248
 10
-9.3449562701
 20
-0.4529734833
  0
LWPOLYLINE
  5
515
100
AcDbEntity
  8
IMPORT_IGES
100
AcDbPolyline
 62
253
  6
CONTINUOUS
 90
5
 70
0
 10
-8.0227906645
 20
-0.071081606
 10
-8.0065814878
 20
-0.0777916958
 10
-7.9900722194
 20
-0.0843033495
 10
-7.9732628593
 20
-0.0906105702
 10
-7.9667088442
 20
-0.0929432846
  0
LINE
  5
516
100
AcDbEntity
  8
RACCORDO
100
AcDbLine
 62
7
  6
CONTINUOUS
 10
7.5953961429
 20
-7.2
 11
7.7284357224
 21
-7.2665147237
  0
LINE
  5
517
100
AcDbEntity
  8
IMPORT_IGES
100
AcDbLine
 62
253
  6
CONTINUOUS
 10
2.105393328
 20
-6.0144137004
 11
2.0773363494
 21
-5.9924647942
  0
LINE
  5
518
100
AcDbEntity
  8
IMPORT_IGES
100
AcDbLine
 62
253
  6
CONTINUOUS
 10
2.1797501079
 20
-6.0738281976
 11
2.105393328
 21
-6.0144137004
  0
LINE
  5
519
100
AcDbEntity
  8
DRAFT
100
AcDbLine
 62
7
  6
CONTINUOUS
 10
6.4158374203
 20
-9.5825462644
 11
6.4332911558
 21
-9.6
  0
LWPOLYLINE
  5
51A
100
AcDbEntity
  8
IMPORT_IGES
100
AcDbPolyline
 62
253
  6
CONTINUOUS
 90
10
 70
0
 10
5.5332911241
 20
-10.1812646504
 10
5.5458003601
 20
-10.1957745145
 10
5.5582581111
 20
-10.2080969659
 10
5.5705133609
 20
-10.2181796791
 10
5.5823800666
 20
-10.2260191056
 10
5.5937586455
 20
-10.2315672194
 10
5.6046404483
 20
-10.2347426751
 10
5.614947768
 20
-10.2355492
 10
5.6245310793
 20
-10.2340633499
 10
5.6332902258
 20
-10.2303497067
  0
LWPOLYLINE
  5
51B
100
AcDbEntity
  8
IMPORT_IGES
100
AcDbPolyline
 62
253
  6
CONTINUOUS
 90
10
 70
0
 10
2.1797501079
 20
-6.0738215284
 10
2.1955010826
 20
-6.0946714365
 10
2.209601681
 20
-6.1167310993
 10
2.222051903
 20
-6.140000517
 10
2.232970512
 20
-6.1645238222
 10
2.2422387445
 20
-6.1902568822
 10
2.249500311
 20
-6.2170672988
 10
2.2546364481
 20
-6.2449109393
 10
2.2577659191
 20
-6.2738319363
 10
2.258888724
 20
-6.3038302899
  0
LWPOLYLINE
  5
51C
100
AcDbEntity
  8
IMPORT_IGES
100
AcDbPolyline
 62
253
  6
CONTINUOUS
 90
10
 70
0
 10
-9.875776064
 20
9.6404394662
 10
-9.903114063
 20
9.6814350506
 10
-9.9309443608
 20
9.7169034296
 10
-9.9585967599
 20
9.7464639041
 10
-9.9854786259
 20
9.7702214226
 10
-10.0107213435
 20
9.7873692746
 10
-10.0335311153
 20
9.7968683549
 10
-10.0536375186
 20
9.7989925144
 10
-10.0709438379
 20
9.7946390452
 10
-10.0853923547
 20
9.7843765662
  0
LWPOLYLINE
  5
51D
100
AcDbEntity
  8
IMPORT_IGES
100
AcDbPolyline
 62
253
  6
CONTINUOUS
 90
3
 70
0
 10
4.4564345745
 20
-10.9098076322
 10
4.4555779055
 20
-10.908443823
 10
4.4530715779
 20
-10.9042226165
  0
LINE
  5
51E
100
AcDbEntity
  8
IMPORT_IGES
100
AcDbLine
 62
253
  6
CONTINUOUS
 10
4.4530715779
 20
-10.9042226165
 11
4.4280954464
 21
-10.8613805393
  0
LINE
  5
51F
100
AcDbEntity
  8
IMPORT_IGES
100
AcDbLine
 62
253
  6
CONTINUOUS
 10
4.4280954464
 20
-10.8613805393
 11
4.3829205936
 21
-10.7833897701
  0
LINE
  5
520
100
AcDbEntity
  8
0
100
AcDbLine
 62
7
  6
CONTINUOUS
 10
-1.5161395293
 20
-11.2117237174
 11
-1.5161395293
 21
-11.3117237174
  0
LINE
  5
521
100
AcDbEntity
  8
0
100
AcDbLine
 62
253
  6
CONTINUOUS
 10
-1.3649650794
 20
-11.2117237174
 11
-1.3649650794
 21
-11.3117237174
  0
LINE
  5
522
100
AcDbEntity
  8
IMPORT_IGES
100
AcDbLine
 62
7
  6
CONTINUOUS
 10
-1.3167088442
 20
4.640035451
 11
-1.3167088442
 21
3.888305283
  0
LINE
  5
523
100
AcDbEntity
  8
0
100
AcDbLine
 62
253
  6
CONTINUOUS
 10
-1.2761394899
 20
-11.2117237174
 11
-1.2761394899
 21
-11.3117237174
  0
LINE
  5
524
100
AcDbEntity
  8
0
100
AcDbLine
 62
7
  6
CONTINUOUS
 10
-1.1736481886
 20
-11.2117237174
 11
-1.1736481886
 21
-11.3117237174
  0
LINE
  5
525
100
AcDbEntity
  8
0
100
AcDbLine
 62
7
  6
CONTINUOUS
 10
-1.1298611914
 20
-11.3117237174
 11
-1.1298611914
 21
-11.2117237174
  0
LINE
  5
526
100
AcDbEntity
  8
0
100
AcDbLine
 62
7
  6
CONTINUOUS
 10
-1.1089268458
 20
-11.2117237174
 11
-1.1089268458
 21
-11.3117237174
  0
LINE
  5
527
100
AcDbEntity
  8
0
100
AcDbLine
 62
7
  6
CONTINUOUS
 10
-1.0960288165
 20
-11.2117237174
 11
-1.0960288165
 21
-11.3117237174
  0
LINE
  5
528
100
AcDbEntity
  8
0
100
AcDbLine
 62
7
  6
CONTINUOUS
 10
-1.090801261
 20
-11.2117237174
 11
-1.090801261
 21
-11.3117237174
  0
LINE
  5
529
100
AcDbEntity
  8
0
100
AcDbLine
 62
253
  6
CONTINUOUS
 10
-0.9669578949
 20
-11.2117237174
 11
-0.9669578949
 21
-11.3117237174
  0
LINE
  5
52A
100
AcDbEntity
  8
0
100
AcDbLine
 62
7
  6
CONTINUOUS
 10
-0.9167088442
 20
23.7941787855
 11
-0.9167088442
 21
22.3947639644
  0
LINE
  5
52B
100
AcDbEntity
  8
0
100
AcDbLine
 62
7
  6
CONTINUOUS
 10
-0.9167088442
 20
-22.3947639644
 11
-0.9167088442
 21
-23.7941787855
  0
LINE
  5
52C
100
AcDbEntity
  8
0
100
AcDbLine
 62
253
  6
CONTINUOUS
 10
-0.8738619071
 20
-11.2117237174
 11
-0.8738619071
 21
-11.3117237174
  0
LINE
  5
52D
100
AcDbEntity
  8
IMPORT_IGES
100
AcDbLine
 62
7
  6
CONTINUOUS
 10
-0.8118553418
 20
-4.54108908
 11
-0.8118553418
 21
-4.3165189879
  0
LINE
  5
52E
100
AcDbEntity
  8
IMPORT_IGES
100
AcDbLine
 62
7
  6
CONTINUOUS
 10
-0.8118553418
 20
4.3755287456
 11
-0.8118553418
 21
4.5410575459
  0
LINE
  5
52F
100
AcDbEntity
  8
0
100
AcDbLine
 62
7
  6
CONTINUOUS
 10
-0.7483102065
 20
-11.2117237174
 11
-0.7483102065
 21
-11.3117237174
  0
LINE
  5
530
100
AcDbEntity
  8
IMPORT_IGES
100
AcDbLine
 62
7
  6
CONTINUOUS
 10
-0.5118553418
 20
-4.4545139339
 11
-0.5118553418
 21
-3.6510384313
  0
LINE
  5
531
100
AcDbEntity
  8
IMPORT_IGES
100
AcDbLine
 62
7
  6
CONTINUOUS
 10
-0.5118553418
 20
3.6144957592
 11
-0.5118553418
 21
4.4545345534
  0
LINE
  5
532
100
AcDbEntity
  8
0
100
AcDbLine
 62
7
  6
CONTINUOUS
 10
-0.2580611926
 20
-11.2117237174
 11
-0.2580611926
 21
-11.3117237174
  0
LINE
  5
533
100
AcDbEntity
  8
IMPORT_IGES
100
AcDbLine
 62
253
  6
CONTINUOUS
 10
-0.2118558266
 20
-3.6438955742
 11
-0.2118558266
 21
-4.344142906
  0
LINE
  5
534
100
AcDbEntity
  8
IMPORT_IGES
100
AcDbLine
 62
253
  6
CONTINUOUS
 10
-0.2118558292
 20
3.6097338544
 11
-0.2118558292
 21
4.3449475257
  0
LINE
  5
535
100
AcDbEntity
  8
0
100
AcDbLine
 62
253
  6
CONTINUOUS
 10
-0.1068867426
 20
-11.2117237174
 11
-0.1068867426
 21
-11.3117237174
  0
LINE
  5
536
100
AcDbEntity
  8
0
100
AcDbLine
 62
253
  6
CONTINUOUS
 10
-0.0180611532
 20
-11.2117237174
 11
-0.0180611532
 21
-11.3117237174
  0
LINE
  5
537
100
AcDbEntity
  8
0
100
AcDbLine
 62
7
  6
CONTINUOUS
 10
0.084430005
 20
-11.2117237174
 11
0.084430005
 21
-11.3117237174
  0
LINE
  5
538
100
AcDbEntity
  8
0
100
AcDbLine
 62
7
  6
CONTINUOUS
 10
0.2193765897
 20
-11.2117237174
 11
0.2193765897
 21
-11.3117237174
  0
LINE
  5
539
100
AcDbEntity
  8
0
100
AcDbLine
 62
7
  6
CONTINUOUS
 10
0.2407288331
 20
-11.2117237174
 11
0.2407288331
 21
-11.3117237174
  0
LWPOLYLINE
  5
53A
100
AcDbEntity
  8
0
100
AcDbPolyline
 62
7
  6
CONTINUOUS
 90
17
 70
0
 10
-6.3227865971
 20
-23.9538922731
 10
-6.3224473804
 20
-23.9521632105
 10
-6.3216028777
 20
-23.9499553694
 10
-6.3202501327
 20
-23.9472687498
 10
-6.3183880463
 20
-23.9441095958
 10
-6.3160141534
 20
-23.9404716634
 10
-6.313121571
 20
-23.9363362198
 10
-6.3097094402
 20
-23.9317094421
 10
-6.3057732924
 20
-23.9265851532
 10
-6.301293242
 20
-23.9209260898
 10
-6.2962651182
 20
-23.9147419737
 10
-6.2906802796
 20
-23.9080230831
 10
-6.2844992246
 20
-23.9007029882
 10
-6.2777014367
 20
-23.892777383
 10
-6.2702817189
 20
-23.8842505736
 10
-6.2622137845
 20
-23.8750690485
 10
-6.2534827822
 20
-23.8652290101
  0
LINE
  5
53B
100
AcDbEntity
  8
RACCORDO
100
AcDbLine
 62
7
  6
CONTINUOUS
 10
6.9220825877
 20
20.5664222561
 11
7.0331848183
 21
20.9
  0
LWPOLYLINE
  5
53C
100
AcDbEntity
  8
IMPORT_IGES
100
AcDbPolyline
 62
253
  6
CONTINUOUS
 90
10
 70
0
 10
-6.013168231
 20
-6.0738283964
 10
-6.0290625295
 20
-6.0949308187
 10
-6.0432588163
 20
-6.1171836886
 10
-6.0557570915
 20
-6.1405870062
 10
-6.06665981
 20
-6.1651902414
 10
-6.0758645169
 20
-6.1909439242
 10
-6.083063847
 20
-6.2176996447
 10
-6.0881553453
 20
-6.245407933
 10
-6.0912414668
 20
-6.2741182589
 10
-6.0923222115
 20
-6.3038306226
  0
LWPOLYLINE
  5
53D
100
AcDbEntity
  8
IMPORT_IGES
100
AcDbPolyline
 62
253
  6
CONTINUOUS
 90
4
 70
0
 10
-9.192582333
 20
-10.1001125916
 10
-9.2064421002
 20
-10.1170889844
 10
-9.2230912978
 20
-10.1326999226
 10
-9.2424760671
 20
-10.1467124779
  0
LWPOLYLINE
  5
53E
100
AcDbEntity
  8
IMPORT_IGES
100
AcDbPolyline
 62
253
  6
CONTINUOUS
 90
6
 70
0
 10
-9.3667087784
 20
-10.1812645708
 10
-9.3791879485
 20
-10.1957424578
 10
-9.3916237441
 20
-10.2080497922
 10
-9.4038655521
 20
-10.2181308401
 10
-9.4157267709
 20
-10.2259785808
 10
-9.4271075193
 20
-10.2315408155
  0
LINE
  5
53F
100
AcDbEntity
  8
DRAFT
100
AcDbLine
 62
7
  6
CONTINUOUS
 10
-10.2492551086
 20
-8.1825462644
 11
-10.2667088442
 21
-8.2
  0
LINE
  5
540
100
AcDbEntity
  8
DRAFT
100
AcDbLine
 62
7
  6
CONTINUOUS
 10
-10.2492551086
 20
-9.5825462644
 11
-10.2667088442
 21
-9.6
  0
LWPOLYLINE
  5
541
100
AcDbEntity
  8
RACCORDO
100
AcDbPolyline
 62
253
  6
CONTINUOUS
 90
10
 70
0
 10
6.8376388563
 20
-0.4121267536
 10
6.8539257822
 20
-0.4105616202
 10
6.869719727
 20
-0.4060170476
 10
6.8845426174
 20
-0.3986305901
 10
6.8979457721
 20
-0.3886258241
 10
6.9095234812
 20
-0.3763055823
 10
6.9189252877
 20
-0.3620427892
 10
6.9258665994
 20
-0.3462691699
 10
6.930137302
 20
-0.3294621811
 10
6.9316081184
 20
-0.3121305613
  0
LWPOLYLINE
  5
542
100
AcDbEntity
  8
IMPORT_IGES
100
AcDbPolyline
 62
7
  6
CONTINUOUS
 90
10
 70
0
 10
-8.9668666161
 20
-0.2710562344
 10
-8.9885457207
 20
-0.2722539046
 10
-9.0106199336
 20
-0.275918836
 10
-9.03278763
 20
-0.2822188579
 10
-9.0549857545
 20
-0.2914377203
 10
-9.0765149112
 20
-0.3035946131
 10
-9.0962740644
 20
-0.3180600262
 10
-9.1139661654
 20
-0.3342461277
 10
-9.1298897388
 20
-0.3520182944
 10
-9.1442275528
 20
-0.3710814526
  0
LINE
  5
543
100
AcDbEntity
  8
RACCORDO
100
AcDbLine
 62
253
  6
CONTINUOUS
 10
-10.7650258067
 20
-0.3121305613
 11
-11.5667088442
 21
-0.3313524131
  0
LINE
  5
544
100
AcDbEntity
  8
RACCORDO
100
AcDbLine
 62
253
  6
CONTINUOUS
 10
6.9316081184
 20
0.3121305613
 11
7.7332911558
 21
0.3313524131
  0
LINE
  5
545
100
AcDbEntity
  8
RACCORDO
100
AcDbLine
 62
253
  6
CONTINUOUS
 10
6.8376388563
 20
0.4121267536
 11
7.7284357224
 21
0.4334852763
  0
LINE
  5
546
100
AcDbEntity
  8
RACCORDO
100
AcDbLine
 62
253
  6
CONTINUOUS
 10
-10.6670463713
 20
-0.4120369144
 11
-11.5618534108
 21
-0.4334852763
  0
LINE
  5
547
100
AcDbEntity
  8
IMPORT_IGES
100
AcDbLine
 62
253
  6
CONTINUOUS
 10
-10.0356201426
 20
-0.271084106
 11
-10.3355670237
 21
-0.2763177048
  0
LINE
  5
548
100
AcDbEntity
  8
RACCORDO
100
AcDbLine
 62
253
  6
CONTINUOUS
 10
-10.656966625
 20
-0.4118608307
 11
-10.6670463713
 21
-0.4120369144
  0
LWPOLYLINE
  5
549
100
AcDbEntity
  8
IMPORT_IGES
100
AcDbPolyline
 62
253
  6
CONTINUOUS
 90
13
 70
0
 10
6.1900232694
 20
-1.0919872869
 10
6.2286584534
 20
-1.0915179981
 10
6.2664918785
 20
-1.0890125707
 10
6.302910626
 20
-1.0845379268
 10
6.3371604824
 20
-1.0782306544
 10
6.3689148903
 20
-1.0701969009
 10
6.3981419546
 20
-1.060418383
 10
6.4244187317
 20
-1.0489172691
 10
6.446961368
 20
-1.0358995633
 10
6.4651650916
 20
-1.0216130809
 10
6.4785994687
 20
-1.0063100992
 10
6.4869556047
 20
-0.9902252403
 10
6.4899775853
 20
-0.9736368005
  0
LINE
  5
54A
100
AcDbEntity
  8
RACCORDO
100
AcDbLine
 62
253
  6
CONTINUOUS
 10
-10.6366985059
 20
-0.411605692
 11
-10.656966625
 21
-0.4118608307
  0
LINE
  5
54B
100
AcDbEntity
  8
RACCORDO
100
AcDbLine
 62
253
  6
CONTINUOUS
 10
-10.7438936186
 20
-0.3118646489
 11
-10.7650258067
 21
-0.3121305613
  0
LWPOLYLINE
  5
54C
100
AcDbEntity
  8
RACCORDO
100
AcDbPolyline
 62
253
  6
CONTINUOUS
 90
3
 70
0
 10
6.9013688288
 20
0.3117776997
 10
6.9104759303
 20
0.3118646489
 10
6.9316081184
 20
0.3121305613
  0
LWPOLYLINE
  5
54D
100
AcDbEntity
  8
IMPORT_IGES
100
AcDbPolyline
 62
253
  6
CONTINUOUS
 90
13
 70
0
 10
5.5332911558
 20
-0.4528325501
 10
5.507168767
 20
-0.4530700157
 10
5.4815242949
 20
-0.4535383855
 10
5.456793659
 20
-0.4542378162
 10
5.4334091082
 20
-0.455168961
 10
5.41174633
 20
-0.456332203
 10
5.3921300907
 20
-0.4577262543
 10
5.3748994531
 20
-0.4593544192
 10
5.3603509684
 20
-0.4612177672
 10
5.3487164109
 20
-0.4633119685
 10
5.3402164033
 20
-0.4656422697
 10
5.3350350029
 20
-0.4682258113
 10
5.3332911558
 20
-0.4710819857
  0
LINE
  5
54E
100
AcDbEntity
  8
RACCORDO
100
AcDbLine
 62
253
  6
CONTINUOUS
 10
-10.5908020366
 20
-0.4112531774
 11
-10.6366985059
 21
-0.411605692
  0
LINE
  5
54F
100
AcDbEntity
  8
RACCORDO
100
AcDbLine
 62
253
  6
CONTINUOUS
 10
-10.6883242406
 20
-0.3114543312
 11
-10.7438936186
 21
-0.3118646489
  0
LINE
  5
550
100
AcDbEntity
  8
RACCORDO
100
AcDbLine
 62
253
  6
CONTINUOUS
 10
-10.5044097611
 20
-0.4109879787
 11
-10.5908020366
 21
-0.4112531774
  0
LINE
  5
551
100
AcDbEntity
  8
RACCORDO
100
AcDbLine
 62
253
  6
CONTINUOUS
 10
-10.5149638117
 20
-0.3109917751
 11
-10.6883242406
 21
-0.3114543312
  0
LINE
  5
552
100
AcDbEntity
  8
RACCORDO
100
AcDbLine
 62
253
  6
CONTINUOUS
 10
-10.4831180205
 20
-0.410978333
 11
-10.5044097611
 21
-0.4109879787
  0
LINE
  5
553
100
AcDbEntity
  8
IMPORT_IGES
100
AcDbLine
 62
253
  6
CONTINUOUS
 10
5.5332911558
 20
-1.0919877069
 11
6.1900233463
 21
-1.091987288
  0
LINE
  5
554
100
AcDbEntity
  8
IMPORT_IGES
100
AcDbLine
 62
253
  6
CONTINUOUS
 10
-10.023441215
 20
-1.0919876444
 11
-9.366708844
 21
-1.0919876736
  0
LINE
  5
555
100
AcDbEntity
  8
IMPORT_IGES
100
AcDbLine
 62
253
  6
CONTINUOUS
 10
-7.4667088441
 20
-1.0919875574
 11
-6.6621684797
 21
-1.0919876275
  0
LINE
  5
556
100
AcDbEntity
  8
IMPORT_IGES
100
AcDbLine
 62
253
  6
CONTINUOUS
 10
2.8287507914
 20
-1.0919869261
 11
3.6332911559
 21
-1.0919856479
  0
LINE
  5
557
100
AcDbEntity
  8
IMPORT_IGES
100
AcDbLine
 62
7
  6
CONTINUOUS
 10
-7.3667088441
 20
-1.055
 11
-7.0167088442
 21
-1.055
  0
LINE
  5
558
100
AcDbEntity
  8
IMPORT_IGES
100
AcDbLine
 62
7
  6
CONTINUOUS
 10
3.1832911559
 20
-1.055
 11
3.5332911558
 21
-1.055
  0
LINE
  5
559
100
AcDbEntity
  8
IMPORT_IGES
100
AcDbLine
 62
7
  6
CONTINUOUS
 10
-6.3527349897
 20
-0.9360899655
 11
-6.4667088442
 21
-0.9360899655
  0
LINE
  5
55A
100
AcDbEntity
  8
IMPORT_IGES
100
AcDbLine
 62
253
  6
CONTINUOUS
 10
-7.3667088442
 20
-0.755
 11
-7.0167088442
 21
-0.755
  0
LINE
  5
55B
100
AcDbEntity
  8
IMPORT_IGES
100
AcDbLine
 62
253
  6
CONTINUOUS
 10
3.1832911558
 20
-0.755
 11
3.5332911558
 21
-0.755
  0
LINE
  5
55C
100
AcDbEntity
  8
RACCORDO
100
AcDbLine
 62
7
  6
CONTINUOUS
 10
-11.4288138312
 20
-0.5
 11
-10.3316626347
 21
-0.5
  0
LINE
  5
55D
100
AcDbEntity
  8
RACCORDO
100
AcDbLine
 62
7
  6
CONTINUOUS
 10
7.5953961429
 20
-0.5
 11
6.4982449464
 21
-0.5
  0
LINE
  5
55E
100
AcDbEntity
  8
IMPORT_IGES
100
AcDbLine
 62
253
  6
CONTINUOUS
 10
-6.7167088442
 20
-0.455
 11
-6.4167088442
 21
-0.4550000001
  0
LINE
  5
55F
100
AcDbEntity
  8
IMPORT_IGES
100
AcDbLine
 62
253
  6
CONTINUOUS
 10
-7.9667088442
 20
-0.455
 11
-7.6667088442
 21
-0.455
  0
LINE
  5
560
100
AcDbEntity
  8
IMPORT_IGES
100
AcDbLine
 62
253
  6
CONTINUOUS
 10
2.8832911558
 20
-0.455
 11
2.5832911558
 21
-0.455
  0
LINE
  5
561
100
AcDbEntity
  8
IMPORT_IGES
100
AcDbLine
 62
253
  6
CONTINUOUS
 10
3.8332911558
 20
-0.455
 11
4.1332911558
 21
-0.4550000001
  0
LINE
  5
562
100
AcDbEntity
  8
RACCORDO
100
AcDbLine
 62
7
  6
CONTINUOUS
 10
6.6497003321
 20
-0.410978333
 11
6.4997988254
 21
-0.410978333
  0
LINE
  5
563
100
AcDbEntity
  8
RACCORDO
100
AcDbLine
 62
7
  6
CONTINUOUS
 10
-10.3332165137
 20
-0.410978333
 11
-10.4831180205
 21
-0.410978333
  0
LINE
  5
564
100
AcDbEntity
  8
RACCORDO
100
AcDbLine
 62
253
  6
CONTINUOUS
 10
-10.3355670237
 20
-0.3109821407
 11
-10.5149638117
 21
-0.3109917751
  0
LINE
  5
565
100
AcDbEntity
  8
IMPORT_IGES
100
AcDbLine
 62
253
  6
CONTINUOUS
 10
5.4807894012
 20
-0.271084954
 11
6.2026759709
 21
-0.2710821499
  0
LINE
  5
566
100
AcDbEntity
  8
IMPORT_IGES
100
AcDbLine
 62
253
  6
CONTINUOUS
 10
-10.0356201426
 20
-0.2710854105
 11
-9.3142069438
 21
-0.271086715
  0
LINE
  5
567
100
AcDbEntity
  8
IMPORT_IGES
100
AcDbLine
 62
7
  6
CONTINUOUS
 10
4.1332911558
 20
-0.2710819831
 11
5.1334459595
 21
-0.2710819831
  0
LINE
  5
568
100
AcDbEntity
  8
IMPORT_IGES
100
AcDbLine
 62
7
  6
CONTINUOUS
 10
-7.9667088442
 20
-0.2710819831
 11
-8.966725545
 21
-0.271081983
  0
LINE
  5
569
100
AcDbEntity
  8
IMPORT_IGES
100
AcDbLine
 62
253
  6
CONTINUOUS
 10
4.1893642268
 20
-0.0710827939
 11
5.1334453568
 21
-0.0710822837
  0
LINE
  5
56A
100
AcDbEntity
  8
IMPORT_IGES
100
AcDbLine
 62
253
  6
CONTINUOUS
 10
-8.966865819
 20
-0.0710822198
 11
-8.0227906645
 21
-0.071081606
  0
LINE
  5
56B
100
AcDbEntity
  8
IMPORT_IGES
100
AcDbLine
 62
7
  6
CONTINUOUS
 10
-10.3394301386
 20
-0.055
 11
-10.038762787
 21
-0.0549999076
  0
LINE
  5
56C
100
AcDbEntity
  8
IMPORT_IGES
100
AcDbLine
 62
7
  6
CONTINUOUS
 10
6.5060124503
 20
-0.055
 11
6.205663533
 21
-0.0549943904
  0
LINE
  5
56D
100
AcDbEntity
  8
IMPORT_IGES
100
AcDbLine
 62
7
  6
CONTINUOUS
 10
2.5186574137
 20
-0.9359777403
 11
2.6332911558
 21
-0.9360899655
  0
LINE
  5
56E
100
AcDbEntity
  8
RACCORDO
100
AcDbLine
 62
253
  6
CONTINUOUS
 10
6.826478693
 20
-0.3113175897
 11
6.5021493355
 21
-0.3109821407
  0
LINE
  5
56F
100
AcDbEntity
  8
RACCORDO
100
AcDbLine
 62
253
  6
CONTINUOUS
 10
6.7469189638
 20
-0.4111984199
 11
6.6497003321
 21
-0.410978333
  0
LWPOLYLINE
  5
570
100
AcDbEntity
  8
IMPORT_IGES
100
AcDbPolyline
 62
253
  6
CONTINUOUS
 90
9
 70
0
 10
5.5332905287
 20
-0.4528329011
 10
5.5111502392
 20
-0.4526583091
 10
5.4885365128
 20
-0.451392598
 10
5.4659482519
 20
-0.4497438115
 10
5.4438919568
 20
-0.4478799586
 10
5.4227682982
 20
-0.44518751
 10
5.4028954998
 20
-0.4410119659
 10
5.384609232
 20
-0.4353411247
 10
5.3680328061
 20
-0.4278857813
  0
LINE
  5
571
100
AcDbEntity
  8
RACCORDO
100
AcDbLine
 62
253
  6
CONTINUOUS
 10
6.9013688288
 20
-0.3117776997
 11
6.826478693
 21
-0.3113175897
  0
LINE
  5
572
100
AcDbEntity
  8
RACCORDO
100
AcDbLine
 62
253
  6
CONTINUOUS
 10
6.7952087454
 20
-0.4115265659
 11
6.7469189638
 21
-0.4111984199
  0
LWPOLYLINE
  5
573
100
AcDbEntity
  8
IMPORT_IGES
100
AcDbPolyline
 62
253
  6
CONTINUOUS
 90
13
 70
0
 10
-9.3666983603
 20
-0.452834058
 10
-9.3405399631
 20
-0.4530724962
 10
-9.3148660854
 20
-0.4535412842
 10
-9.2901138477
 20
-0.4542401356
 10
-9.2667149016
 20
-0.4551692652
 10
-9.2450464445
 20
-0.4563298674
 10
-9.2254358786
 20
-0.4577228234
 10
-9.2082211331
 20
-0.4593541319
 10
-9.1936945465
 20
-0.4612226647
 10
-9.1820842032
 20
-0.4633191257
 10
-9.1736070824
 20
-0.4656473806
 10
-9.16844357
 20
-0.4682265698
 10
-9.1667088442
 20
-0.4710732349
  0
LINE
  5
574
100
AcDbEntity
  8
RACCORDO
100
AcDbLine
 62
253
  6
CONTINUOUS
 10
-10.7519380393
 20
0.3119520995
 11
-10.7013721125
 21
0.3115302532
  0
LINE
  5
575
100
AcDbEntity
  8
RACCORDO
100
AcDbLine
 62
253
  6
CONTINUOUS
 10
6.8174618943
 20
-0.4117739039
 11
6.7952087454
 21
-0.4115265659
  0
LWPOLYLINE
  5
576
100
AcDbEntity
  8
RACCORDO
100
AcDbPolyline
 62
253
  6
CONTINUOUS
 90
3
 70
0
 10
6.9316081184
 20
-0.3121305613
 10
6.9255545986
 20
-0.312040737
 10
6.9013688288
 20
-0.3117776997
  0
LINE
  5
577
100
AcDbEntity
  8
RACCORDO
100
AcDbLine
 62
253
  6
CONTINUOUS
 10
-10.7650258067
 20
0.3121305613
 11
-10.7519380393
 21
0.3119520995
  0
LINE
  5
578
100
AcDbEntity
  8
RACCORDO
100
AcDbLine
 62
253
  6
CONTINUOUS
 10
6.8289320449
 20
-0.4119482734
 11
6.8174618943
 21
-0.4117739039
  0
LINE
  5
579
100
AcDbEntity
  8
IMPORT_IGES
100
AcDbLine
 62
253
  6
CONTINUOUS
 10
6.2021950308
 20
-0.2710817554
 11
6.5021493354
 21
-0.276317705
  0
LINE
  5
57A
100
AcDbEntity
  8
RACCORDO
100
AcDbLine
 62
253
  6
CONTINUOUS
 10
-10.6670463724
 20
0.4120369144
 11
-10.6569666268
 21
0.4118608307
  0
LINE
  5
57B
100
AcDbEntity
  8
RACCORDO
100
AcDbLine
 62
253
  6
CONTINUOUS
 10
6.8376388563
 20
-0.4121267536
 11
6.8289320449
 21
-0.4119482734
  0
LINE
  5
57C
100
AcDbEntity
  8
RACCORDO
100
AcDbLine
 62
253
  6
CONTINUOUS
 10
7.7284357224
 20
-0.4334852763
 11
6.8376388563
 21
-0.4121267536
  0
LINE
  5
57D
100
AcDbEntity
  8
RACCORDO
100
AcDbLine
 62
253
  6
CONTINUOUS
 10
7.7332911558
 20
-0.3313524131
 11
6.9316081184
 21
-0.3121305613
  0
LINE
  5
57E
100
AcDbEntity
  8
RACCORDO
100
AcDbLine
 62
253
  6
CONTINUOUS
 10
-11.5667088442
 20
0.3313524131
 11
-10.7650258067
 21
0.3121305613
  0
LINE
  5
57F
100
AcDbEntity
  8
RACCORDO
100
AcDbLine
 62
253
  6
CONTINUOUS
 10
-11.5618534108
 20
0.4334852763
 11
-10.6670463724
 21
0.4120369144
  0
LWPOLYLINE
  5
580
100
AcDbEntity
  8
IMPORT_IGES
100
AcDbPolyline
 62
253
  6
CONTINUOUS
 90
13
 70
0
 10
5.5332911558
 20
-1.0919877073
 10
5.5074808363
 20
-1.0912987424
 10
5.4821889624
 20
-1.0892528275
 10
5.4578289535
 20
-1.0858978958
 10
5.4349050929
 20
-1.0813291379
 10
5.4136482436
 20
-1.0756195444
 10
5.3941011333
 20
-1.068760822
 10
5.3765554434
 20
-1.0607751759
 10
5.3615339983
 20
-1.0518084001
 10
5.3494435059
 20
-1.0420340789
 10
5.3405737059
 20
-1.0316274471
 10
5.3351325697
 20
-1.0207511432
 10
5.3332911558
 20
-1.0095966325
  0
LWPOLYLINE
  5
581
100
AcDbEntity
  8
RACCORDO
100
AcDbPolyline
 62
253
  6
CONTINUOUS
 90
10
 70
0
 10
-10.6710565446
 20
-0.4121267536
 10
-10.6873435179
 20
-0.4105616111
 10
-10.7031374939
 20
-0.4060170169
 10
-10.7179603978
 20
-0.3986305333
 10
-10.7313635489
 20
-0.388625745
 10
-10.7429412414
 20
-0.3763054911
 10
-10.7523430251
 20
-0.3620426988
 10
-10.7592843136
 20
-0.3462690945
 10
-10.7635549978
 20
-0.3294621364
 10
-10.7650258067
 20
-0.3121305613
  0
LINE
  5
582
100
AcDbEntity
  8
DRAFT
100
AcDbLine
 62
7
  6
CONTINUOUS
 10
6.4158374203
 20
-8.1825462644
 11
6.4332911558
 21
-8.2
  0
LINE
  5
583
100
AcDbEntity
  8
IMPORT_IGES
100
AcDbLine
 62
253
  6
CONTINUOUS
 10
-4.8414607153
 20
6.601034697
 11
-4.7310927202
 21
6.4342446924
  0
LINE
  5
584
100
AcDbEntity
  8
IMPORT_IGES
100
AcDbLine
 62
7
  6
CONTINUOUS
 10
3.7032083376
 20
-7.9542999891
 11
3.6332911558
 21
-7.8451319631
  0
LWPOLYLINE
  5
585
100
AcDbEntity
  8
IMPORT_IGES
100
AcDbPolyline
 62
253
  6
CONTINUOUS
 90
4
 70
0
 10
5.2247934324
 20
-10.4477958596
 10
5.2294074892
 20
-10.4553912056
 10
5.2322634251
 20
-10.4599247336
 10
5.2332909375
 20
-10.4612870004
  0
LINE
  5
586
100
AcDbEntity
  8
IMPORT_IGES
100
AcDbLine
 62
253
  6
CONTINUOUS
 10
5.2113057282
 20
-10.4251263737
 11
5.2247934324
 21
-10.4477958596
  0
LINE
  5
587
100
AcDbEntity
  8
IMPORT_IGES
100
AcDbLine
 62
253
  6
CONTINUOUS
 10
5.182220785
 20
-10.375521083
 11
5.2113057282
 21
-10.4251263737
  0
LINE
  5
588
100
AcDbEntity
  8
IMPORT_IGES
100
AcDbLine
 62
253
  6
CONTINUOUS
 10
5.1332950099
 20
-10.2911914861
 11
5.182220785
 21
-10.375521083
  0
LINE
  5
589
100
AcDbEntity
  8
IMPORT_IGES
100
AcDbLine
 62
253
  6
CONTINUOUS
 10
4.3829205936
 20
-10.7833897701
 11
4.356434
 21
-10.7375484859
  0
LWPOLYLINE
  5
58A
100
AcDbEntity
  8
IMPORT_IGES
100
AcDbPolyline
 62
253
  6
CONTINUOUS
 90
3
 70
0
 10
1.9717427166
 20
-5.9822580694
 10
1.9893342476
 20
-6.0181097247
 10
2.0375516638
 20
-6.1176657832
  0
LWPOLYLINE
  5
58B
100
AcDbEntity
  8
IMPORT_IGES
100
AcDbPolyline
 62
253
  6
CONTINUOUS
 90
3
 70
0
 10
1.9154140618
 20
-5.8682202618
 10
1.9345635033
 20
-5.9073712031
 10
1.9717427166
 20
-5.9822580694
  0
LWPOLYLINE
  5
58C
100
AcDbEntity
  8
IMPORT_IGES
100
AcDbPolyline
 62
253
  6
CONTINUOUS
 90
3
 70
0
 10
2.0375516638
 20
-6.1176657832
 10
2.0518322811
 20
-6.1477928477
 10
2.0648967935
 20
-6.1764290221
  0
LWPOLYLINE
  5
58D
100
AcDbEntity
  8
IMPORT_IGES
100
AcDbPolyline
 62
253
  6
CONTINUOUS
 90
10
 70
0
 10
2.0648967935
 20
-6.1764290221
 10
2.0741682285
 20
-6.1988306047
 10
2.0824047897
 20
-6.2220886315
 10
2.0895692346
 20
-6.2462045469
 10
2.0956034756
 20
-6.2712128893
 10
2.1005237829
 20
-6.2970825657
 10
2.1043680957
 20
-6.3237157871
 10
2.1070909402
 20
-6.3510802907
 10
2.1086167918
 20
-6.3792103941
 10
2.1088996955
 20
-6.4080820471
  0
LINE
  5
58E
100
AcDbEntity
  8
0
100
AcDbLine
 62
7
  6
CONTINUOUS
 10
7.0331848183
 20
-20.9
 11
6.9965291819
 21
-20.7899436635
  0
LWPOLYLINE
  5
58F
100
AcDbEntity
  8
0
100
AcDbPolyline
 62
7
  6
CONTINUOUS
 90
8
 70
0
 10
5.3378087881
 20
-24.2973162875
 10
5.3403379741
 20
-24.3089430388
 10
5.3434175141
 20
-24.320436279
 10
5.3470404345
 20
-24.3317699738
 10
5.3511985301
 20
-24.3429184493
 10
5.3558823837
 20
-24.3538564463
 10
5.361081387
 20
-24.3645591876
 10
5.3667837642
 20
-24.3750024283
  0
LINE
  5
590
100
AcDbEntity
  8
DRAFT
100
AcDbLine
 62
7
  6
CONTINUOUS
 10
1.6221384146
 20
-15.0
 11
1.5832911558
 21
-14.7796862477
  0
LWPOLYLINE
  5
591
100
AcDbEntity
  8
RACCORDO
100
AcDbPolyline
 62
253
  6
CONTINUOUS
 90
13
 70
0
 10
2.5876165121
 20
-17.5956632207
 10
2.585047623
 20
-17.5565109262
 10
2.5773907524
 20
-17.5180279832
 10
2.5647767224
 20
-17.4808727549
 10
2.5474211616
 20
-17.4456809155
 10
2.525620839
 20
-17.4130546077
 10
2.499748607
 20
-17.3835521298
 10
2.4702469714
 20
-17.3576783151
 10
2.4376205845
 20
-17.3358759668
 10
2.4024276653
 20
-17.3185182713
 10
2.3652703283
 20
-17.3059023212
 10
2.3267842603
 20
-17.2982440637
 10
2.2876279351
 20
-17.2956746438
  0
LINE
  5
592
100
AcDbEntity
  8
DRAFT
100
AcDbLine
 62
7
  6
CONTINUOUS
 10
1.6329222416
 20
-15.4980929339
 11
1.6221384146
 21
-15.0
  0
LINE
  5
593
100
AcDbEntity
  8
DRAFT
100
AcDbLine
 62
7
  6
CONTINUOUS
 10
1.8285481417
 20
-15.507774954
 11
1.8526894763
 21
-16.6228362517
  0
LINE
  5
594
100
AcDbEntity
  8
RACCORDO
100
AcDbLine
 62
7
  6
CONTINUOUS
 10
2.0260648076
 20
-15.6047893388
 11
2.0533425352
 21
-16.8647171262
  0
LWPOLYLINE
  5
595
100
AcDbEntity
  8
IMPORT_IGES
100
AcDbPolyline
 62
253
  6
CONTINUOUS
 90
9
 70
0
 10
1.8835501496
 20
8.6578863295
 10
1.8843278712
 20
8.5876797428
 10
1.8856250063
 20
8.5174788991
 10
1.887441619
 20
8.4472818658
 10
1.889777645
 20
8.3770905754
 10
1.8926328915
 20
8.3069108254
 10
1.8960072941
 20
8.2367445483
 10
1.8999009171
 20
8.1665898115
 10
1.9043137605
 20
8.0964466152
  0
LINE
  5
596
100
AcDbEntity
  8
0
100
AcDbLine
 62
253
  6
CONTINUOUS
 10
0.379945958
 20
-11.2117237174
 11
0.379945958
 21
-11.3117237174
  0
LINE
  5
597
100
AcDbEntity
  8
IMPORT_IGES
100
AcDbLine
 62
253
  6
CONTINUOUS
 10
0.6881446582
 20
-3.8467036178
 11
0.6881446582
 21
-3.6438955742
  0
LINE
  5
598
100
AcDbEntity
  8
IMPORT_IGES
100
AcDbLine
 62
253
  6
CONTINUOUS
 10
0.6881446582
 20
3.6097338544
 11
0.6881446582
 21
3.8557062027
  0
LINE
  5
599
100
AcDbEntity
  8
0
100
AcDbLine
 62
253
  6
CONTINUOUS
 10
0.7241452951
 20
-11.2117237174
 11
0.7241452951
 21
-11.3117237174
  0
LINE
  5
59A
100
AcDbEntity
  8
0
100
AcDbLine
 62
253
  6
CONTINUOUS
 10
0.889839222
 20
-11.2117237174
 11
0.889839222
 21
-11.3117237174
  0
LINE
  5
59B
100
AcDbEntity
  8
0
100
AcDbLine
 62
7
  6
CONTINUOUS
 10
0.9513339061
 20
-11.2117237174
 11
0.9513339061
 21
-11.3117237174
  0
LINE
  5
59C
100
AcDbEntity
  8
IMPORT_IGES
100
AcDbLine
 62
7
  6
CONTINUOUS
 10
0.9881446582
 20
3.6227884036
 11
0.9881446582
 21
3.6144957592
  0
LINE
  5
59D
100
AcDbEntity
  8
0
100
AcDbLine
 62
7
  6
CONTINUOUS
 10
1.04699228
 20
-11.2117237174
 11
1.04699228
 21
-11.3117237174
  0
LINE
  5
59E
100
AcDbEntity
  8
0
100
AcDbLine
 62
7
  6
CONTINUOUS
 10
1.0832911558
 20
-20.8
 11
1.0832911558
 21
-22.3941821702
  0
LINE
  5
59F
100
AcDbEntity
  8
0
100
AcDbLine
 62
7
  6
CONTINUOUS
 10
1.0832911558
 20
20.8
 11
1.0832911558
 21
22.3941821702
  0
LINE
  5
5A0
100
AcDbEntity
  8
0
100
AcDbLine
 62
253
  6
CONTINUOUS
 10
1.2664940273
 20
-11.2117237174
 11
1.2664940273
 21
-11.3117237174
  0
LINE
  5
5A1
100
AcDbEntity
  8
RACCORDO
100
AcDbLine
 62
7
  6
CONTINUOUS
 10
1.4832911558
 20
-14.1182103417
 11
1.4832911558
 21
-15.507774954
  0
LINE
  5
5A2
100
AcDbEntity
  8
0
100
AcDbLine
 62
7
  6
CONTINUOUS
 10
1.5832911558
 20
-22.3560930869
 11
1.5832911558
 21
-23.9941821702
  0
LINE
  5
5A3
100
AcDbEntity
  8
DRAFT
100
AcDbLine
 62
7
  6
CONTINUOUS
 10
1.5832911558
 20
-14.7796862477
 11
1.5832911558
 21
-14.0043634339
  0
LINE
  5
5A4
100
AcDbEntity
  8
0
100
AcDbLine
 62
7
  6
CONTINUOUS
 10
1.5832911558
 20
22.3560930869
 11
1.5832911558
 21
23.9541479441
  0
LINE
  5
5A5
100
AcDbEntity
  8
0
100
AcDbLine
 62
7
  6
CONTINUOUS
 10
1.5832911558
 20
23.9563493531
 11
1.5832911558
 21
23.9941821702
  0
LINE
  5
5A6
100
AcDbEntity
  8
0
100
AcDbLine
 62
253
  6
CONTINUOUS
 10
1.7567431319
 20
-11.2117237174
 11
1.7567431319
 21
-11.3117237174
  0
LINE
  5
5A7
100
AcDbEntity
  8
0
100
AcDbLine
 62
7
  6
CONTINUOUS
 10
1.7849281866
 20
-11.2117237174
 11
1.7849281866
 21
-11.3117237174
  0
LINE
  5
5A8
100
AcDbEntity
  8
0
100
AcDbLine
 62
7
  6
CONTINUOUS
 10
1.8173837069
 20
-11.2117237174
 11
1.8173837069
 21
-11.3117237174
  0
LINE
  5
5A9
100
AcDbEntity
  8
IMPORT_IGES
100
AcDbLine
 62
253
  6
CONTINUOUS
 10
1.8832911558
 20
10.95
 11
1.8835501496
 21
8.6578863295
  0
LINE
  5
5AA
100
AcDbEntity
  8
IMPORT_IGES
100
AcDbLine
 62
7
  6
CONTINUOUS
 10
2.0832911558
 20
8.5866771736
 11
2.0832911558
 21
10.75
  0
LWPOLYLINE
  5
5AB
100
AcDbEntity
  8
IMPORT_IGES
100
AcDbPolyline
 62
253
  6
CONTINUOUS
 90
6
 70
0
 10
1.8832911558
 20
3.1132052805
 10
1.8830943869
 20
2.8153509188
 10
1.8832070381
 20
2.7666182959
 10
1.8836441931
 20
2.716296733
 10
1.8843201101
 20
2.6649729196
 10
1.8852347888
 20
2.6132065629
  0
LINE
  5
5AC
100
AcDbEntity
  8
IMPORT_IGES
100
AcDbLine
 62
7
  6
CONTINUOUS
 10
1.8962206762
 20
-7.6224132307
 11
1.9036844366
 21
-6.845502023
  0
LINE
  5
5AD
100
AcDbEntity
  8
IMPORT_IGES
100
AcDbLine
 62
7
  6
CONTINUOUS
 10
1.8610955236
 20
-10.5472710106
 11
1.8567440154
 21
-10.9499999995
  0
LINE
  5
5AE
100
AcDbEntity
  8
IMPORT_IGES
100
AcDbLine
 62
253
  6
CONTINUOUS
 10
1.9154207028
 20
-5.8682203415
 11
1.9036844369
 21
-6.8455020228
  0
LINE
  5
5AF
100
AcDbEntity
  8
IMPORT_IGES
100
AcDbLine
 62
253
  6
CONTINUOUS
 10
1.8962204369
 20
-7.6224132299
 11
1.8610955494
 21
-10.5472710107
  0
LWPOLYLINE
  5
5B0
100
AcDbEntity
  8
RACCORDO
100
AcDbPolyline
 62
7
  6
CONTINUOUS
 90
31
 70
0
 10
2.5839303745
 20
13.7284206282
 10
2.5866910984
 20
13.7834560135
 10
2.5949897837
 20
13.8371214567
 10
2.6088264303
 20
13.8894171076
 10
2.6286180976
 20
13.9411862521
 10
2.6539477263
 20
13.991585833
 10
2.683564138
 20
14.038086783
 10
2.7176260209
 20
14.0801789286
 10
2.7559746869
 20
14.1183732849
 10
2.7968828935
 20
14.1516729125
 10
2.8401103139
 20
14.1798060162
 10
2.885897275
 20
14.2030451313
 10
2.933237515
 20
14.2212098342
 10
2.9823147755
 20
14.2343231993
 10
3.032945315
 20
14.2423625423
 10
3.0835716469
 20
14.2450787223
 10
3.1341935036
 20
14.2423041544
 10
3.1848111528
 20
14.2342064227
 10
3.233867911
 20
14.2210390442
 10
3.2811830197
 20
14.2028201947
 10
3.3269372374
 20
14.1795313071
 10
3.3701161559
 20
14.1513707075
 10
3.4109491871
 20
14.1180731705
 10
3.4492069191
 20
14.0799031847
 10
3.4831867084
 20
14.0378536688
 10
3.5127347636
 20
13.9914270141
 10
3.538004876
 20
13.9411199936
 10
3.5577557765
 20
13.8894174387
 10
3.5715737086
 20
13.8371476567
 10
3.5798724289
 20
13.7834821042
 10
3.5826519372
 20
13.7284206282
  0
LINE
  5
5B1
100
AcDbEntity
  8
RACCORDO
100
AcDbLine
 62
7
  6
CONTINUOUS
 10
7.6075326292
 20
19.8214572617
 11
7.7332911558
 21
20.1990396502
  0
LWPOLYLINE
  5
5B2
100
AcDbEntity
  8
IMPORT_IGES
100
AcDbPolyline
 62
253
  6
CONTINUOUS
 90
10
 70
0
 10
5.2862911562
 20
10.3965066857
 10
5.3061539109
 20
10.4503990741
 10
5.3259143304
 20
10.4962397086
 10
5.3449165697
 20
10.5341853627
 10
5.3622329417
 20
10.5645639725
 10
5.3778725887
 20
10.5877286801
 10
5.3925741371
 20
10.6036461236
 10
5.4062207151
 20
10.6122502146
 10
5.4180468385
 20
10.613832836
 10
5.4277125123
 20
10.6086387202
  0
LWPOLYLINE
  5
5B3
100
AcDbEntity
  8
IMPORT_IGES
100
AcDbPolyline
 62
253
  6
CONTINUOUS
 90
4
 70
0
 10
-6.013168231
 20
-6.0738219254
 10
-5.9390165223
 20
-6.0145894082
 10
-5.9109851569
 20
-5.9926604625
 10
-5.8178686334
 20
-5.9207761773
  0
LWPOLYLINE
  5
5B4
100
AcDbEntity
  8
IMPORT_IGES
100
AcDbPolyline
 62
253
  6
CONTINUOUS
 90
3
 70
0
 10
-5.8178686334
 20
-5.9207761773
 10
-5.7840582038
 20
-5.894830359
 10
-5.7488383912
 20
-5.8682203415
  0
LINE
  5
5B5
100
AcDbEntity
  8
RACCORDO
100
AcDbLine
 62
7
  6
CONTINUOUS
 10
-11.5618534108
 20
-7.2665147237
 11
-11.4288138312
 21
-7.2
  0
LWPOLYLINE
  5
5B6
100
AcDbEntity
  8
IMPORT_IGES
100
AcDbPolyline
 62
253
  6
CONTINUOUS
 90
5
 70
0
 10
4.1332911558
 20
-0.092939914
 10
4.1398388764
 20
-0.0906093979
 10
4.1566476535
 20
-0.0843027143
 10
4.1731561037
 20
-0.0777920177
 10
4.1893642268
 20
-0.0710833041
  0
LWPOLYLINE
  5
5B7
100
AcDbEntity
  8
RACCORDO
100
AcDbPolyline
 62
253
  6
CONTINUOUS
 90
10
 70
0
 10
-10.6710565446
 20
0.4121267536
 10
-10.6873434705
 20
0.4105616202
 10
-10.7031374153
 20
0.4060170476
 10
-10.7179603057
 20
0.3986305901
 10
-10.7313634604
 20
0.3886258241
 10
-10.7429411695
 20
0.3763055823
 10
-10.752342976
 20
0.3620427892
 10
-10.7592842877
 20
0.3462691699
 10
-10.7635549903
 20
0.3294621811
 10
-10.7650258067
 20
0.3121305613
  0
LINE
  5
5B8
100
AcDbEntity
  8
RACCORDO
100
AcDbLine
 62
253
  6
CONTINUOUS
 10
6.8289320431
 20
0.4119482734
 11
6.8376388563
 21
0.4121267536
  0
LINE
  5
5B9
100
AcDbEntity
  8
RACCORDO
100
AcDbLine
 62
253
  6
CONTINUOUS
 10
6.8106883829
 20
0.4116881754
 11
6.8289320431
 21
0.4119482734
  0
LINE
  5
5BA
100
AcDbEntity
  8
RACCORDO
100
AcDbLine
 62
253
  6
CONTINUOUS
 10
6.7773062016
 20
0.4113797588
 11
6.8106883829
 21
0.4116881754
  0
LINE
  5
5BB
100
AcDbEntity
  8
RACCORDO
100
AcDbLine
 62
253
  6
CONTINUOUS
 10
6.826478693
 20
0.3113175897
 11
6.9013688288
 21
0.3117776997
  0
LINE
  5
5BC
100
AcDbEntity
  8
RACCORDO
100
AcDbLine
 62
253
  6
CONTINUOUS
 10
6.7033355386
 20
0.4110420607
 11
6.7773062016
 21
0.4113797588
  0
LINE
  5
5BD
100
AcDbEntity
  8
RACCORDO
100
AcDbLine
 62
253
  6
CONTINUOUS
 10
6.6497003321
 20
0.410978333
 11
6.7033355386
 21
0.4110420607
  0
LINE
  5
5BE
100
AcDbEntity
  8
RACCORDO
100
AcDbLine
 62
253
  6
CONTINUOUS
 10
6.4996242083
 20
0.3109821407
 11
6.826478693
 21
0.3113175897
  0
LINE
  5
5BF
100
AcDbEntity
  8
RACCORDO
100
AcDbLine
 62
7
  6
CONTINUOUS
 10
-10.4831180205
 20
0.410978333
 11
-10.3312964566
 21
0.410978333
  0
LINE
  5
5C0
100
AcDbEntity
  8
RACCORDO
100
AcDbLine
 62
7
  6
CONTINUOUS
 10
6.4978787682
 20
0.410978333
 11
6.6497003321
 21
0.410978333
  0
LINE
  5
5C1
100
AcDbEntity
  8
RACCORDO
100
AcDbLine
 62
7
  6
CONTINUOUS
 10
-11.4288138312
 20
0.5
 11
-10.3297425776
 21
0.5
  0
LINE
  5
5C2
100
AcDbEntity
  8
RACCORDO
100
AcDbLine
 62
7
  6
CONTINUOUS
 10
7.5953961429
 20
0.5
 11
6.4963248893
 21
0.5
  0
LINE
  5
5C3
100
AcDbEntity
  8
IMPORT_IGES
100
AcDbLine
 62
253
  6
CONTINUOUS
 10
4.4332911558
 20
0.545
 11
4.1332911558
 21
0.545
  0
LINE
  5
5C4
100
AcDbEntity
  8
IMPORT_IGES
100
AcDbLine
 62
253
  6
CONTINUOUS
 10
-7.9667088442
 20
0.545
 11
-8.2667088442
 21
0.545
  0
LINE
  5
5C5
100
AcDbEntity
  8
IMPORT_IGES
100
AcDbLine
 62
253
  6
CONTINUOUS
 10
4.4332911558
 20
1.945
 11
3.8332911558
 21
1.945
  0
LINE
  5
5C6
100
AcDbEntity
  8
IMPORT_IGES
100
AcDbLine
 62
253
  6
CONTINUOUS
 10
-7.6667088442
 20
1.945
 11
-8.2667088441
 21
1.945
  0
LINE
  5
5C7
100
AcDbEntity
  8
IMPORT_IGES
100
AcDbLine
 62
7
  6
CONTINUOUS
 10
2.1793657639
 20
2.085
 11
2.5832911558
 21
2.085
  0
LINE
  5
5C8
100
AcDbEntity
  8
IMPORT_IGES
100
AcDbLine
 62
7
  6
CONTINUOUS
 10
-6.0127834522
 20
2.085
 11
-6.4167088442
 21
2.085
  0
LINE
  5
5C9
100
AcDbEntity
  8
RACCORDO
100
AcDbLine
 62
253
  6
CONTINUOUS
 10
-10.6598963813
 20
0.3113175897
 11
-10.3330418966
 21
0.3109821407
  0
LINE
  5
5CA
100
AcDbEntity
  8
RACCORDO
100
AcDbLine
 62
253
  6
CONTINUOUS
 10
-10.5803366522
 20
0.4111984199
 11
-10.4831180205
 21
0.410978333
  0
LINE
  5
5CB
100
AcDbEntity
  8
RACCORDO
100
AcDbLine
 62
253
  6
CONTINUOUS
 10
-10.7013721125
 20
0.3115302532
 11
-10.6598963813
 21
0.3113175897
  0
LINE
  5
5CC
100
AcDbEntity
  8
RACCORDO
100
AcDbLine
 62
253
  6
CONTINUOUS
 10
-10.6286264338
 20
0.4115265659
 11
-10.5803366522
 21
0.4111984199
  0
LWPOLYLINE
  5
5CD
100
AcDbEntity
  8
RACCORDO
100
AcDbPolyline
 62
253
  6
CONTINUOUS
 90
3
 70
0
 10
-10.6569666268
 20
0.4118608307
 10
-10.6508795826
 20
0.4117739039
 10
-10.6286264338
 20
0.4115265659
  0
LWPOLYLINE
  5
5CE
100
AcDbEntity
  8
IMPORT_IGES
100
AcDbPolyline
 62
253
  6
CONTINUOUS
 90
10
 70
0
 10
5.1334453568
 20
-0.0710822837
 10
5.1788727743
 20
-0.074113944
 10
5.2230849892
 20
-0.0821442184
 10
5.2660820015
 20
-0.095173107
 10
5.3085214194
 20
-0.1134684757
 10
5.3497456348
 20
-0.1367624586
 10
5.3877818231
 20
-0.1642514576
 10
5.4219723762
 20
-0.1956676069
 10
5.4529749022
 20
-0.2312787724
 10
5.4807894012
 20
-0.271084954
  0
LWPOLYLINE
  5
5CF
100
AcDbEntity
  8
RACCORDO
100
AcDbPolyline
 62
253
  6
CONTINUOUS
 90
10
 70
0
 10
6.8376388563
 20
0.4121267536
 10
6.8539258296
 20
0.4105616111
 10
6.8697198056
 20
0.4060170169
 10
6.8845427095
 20
0.3986305333
 10
6.8979458606
 20
0.388625745
 10
6.9095235531
 20
0.3763054911
 10
6.9189253368
 20
0.3620426988
 10
6.9258666252
 20
0.3462690945
 10
6.9301373095
 20
0.3294621364
 10
6.9316081184
 20
0.3121305613
  0
LINE
  5
5D0
100
AcDbEntity
  8
RACCORDO
100
AcDbLine
 62
7
  6
CONTINUOUS
 10
-11.4288138312
 20
7.9
 11
-11.5618534108
 21
7.9665147237
  0
LINE
  5
5D1
100
AcDbEntity
  8
IMPORT_IGES
100
AcDbLine
 62
7
  6
CONTINUOUS
 10
-6.1463375273
 20
6.7630773917
 11
-6.3215623465
 21
6.9398543419
  0
LWPOLYLINE
  5
5D2
100
AcDbEntity
  8
IMPORT_IGES
100
AcDbPolyline
 62
253
  6
CONTINUOUS
 90
13
 70
0
 10
-8.7935085035
 20
10.7226299935
 10
-8.8134620711
 20
10.7446350939
 10
-8.8351112242
 20
10.7665806359
 10
-8.8576988588
 20
10.7876133843
 10
-8.8800391318
 20
10.806659099
 10
-8.9016072262
 20
10.8233762792
 10
-8.9226178828
 20
10.8379562376
 10
-8.9423663278
 20
10.8498766759
 10
-8.9601823768
 20
10.8587615109
 10
-8.9761537607
 20
10.8646358314
 10
-8.9897746544
 20
10.8671950402
 10
-9.0003423197
 20
10.8662883829
 10
-9.0076370757
 20
10.8621318774
  0
LWPOLYLINE
  5
5D3
100
AcDbEntity
  8
RACCORDO
100
AcDbPolyline
 62
7
  6
CONTINUOUS
 90
16
 70
0
 10
7.7284357224
 20
-7.2665147237
 10
7.7287200798
 20
-7.2668628942
 10
7.7289962557
 20
-7.2674871912
 10
7.7292642504
 20
-7.2683876146
 10
7.7295238977
 20
-7.2695790494
 10
7.7297753637
 20
-7.2710466106
 10
7.7300191465
 20
-7.2727456435
 10
7.730255205
 20
-7.2746677337
 10
7.7304835804
 20
-7.2768212954
 10
7.7307048942
 20
-7.2791869167
 10
7.7309190524
 20
-7.2817533501
 10
7.7311261491
 20
-7.284531843
 10
7.7313270883
 20
-7.2875367259
 10
7.7315222282
 20
-7.2907597037
 10
7.7317112107
 20
-7.2942090715
 10
7.7318938662
 20
-7.2979240454
  0
LINE
  5
5D4
100
AcDbEntity
  8
0
100
AcDbLine
 62
7
  6
CONTINUOUS
 10
7.7332911558
 20
-20.1990396502
 11
7.6966355195
 21
-20.0889833137
  0
LINE
  5
5D5
100
AcDbEntity
  8
RACCORDO
100
AcDbLine
 62
7
  6
CONTINUOUS
 10
7.6386896334
 20
-19.4260209733
 11
7.6916730583
 21
-19.5851005096
  0
LINE
  5
5D6
100
AcDbEntity
  8
RACCORDO
100
AcDbLine
 62
7
  6
CONTINUOUS
 10
4.535993997
 20
-19.4260209733
 11
4.5624836918
 21
-19.5851005096
  0
LWPOLYLINE
  5
5D7
100
AcDbEntity
  8
IMPORT_IGES
100
AcDbPolyline
 62
7
  6
CONTINUOUS
 90
11
 70
0
 10
2.8287507914
 20
-1.0919857543
 10
2.8265485088
 20
-1.0711090777
 10
2.8241655525
 20
-1.0507995411
 10
2.8216019223
 20
-1.0310692954
 10
2.8188275438
 20
-1.0119587304
 10
2.8158724914
 20
-0.9934496706
 10
2.812826989
 20
-0.9754642635
 10
2.8097025042
 20
-0.9580059509
 10
2.8064875694
 20
-0.9410873133
 10
2.8032380055
 20
-0.9246416498
 10
2.8017121746
 20
-0.9172060215
  0
LWPOLYLINE
  5
5D8
100
AcDbEntity
  8
IMPORT_IGES
100
AcDbPolyline
 62
253
  6
CONTINUOUS
 90
6
 70
0
 10
2.0832911558
 20
10.6621320344
 10
2.0815801281
 20
10.6805912255
 10
2.0764763211
 20
10.6987345747
 10
2.0680670623
 20
10.7162516444
 10
2.0564962366
 20
10.7328427125
 10
2.0419618239
 20
10.7482239013
  0
LINE
  5
5D9
100
AcDbEntity
  8
RACCORDO
100
AcDbLine
 62
253
  6
CONTINUOUS
 10
4.6788574321
 20
-20.0
 11
4.5336224489
 21
-17.2127744921
  0
LINE
  5
5DA
100
AcDbEntity
  8
IMPORT_IGES
100
AcDbLine
 62
253
  6
CONTINUOUS
 10
1.9142449927
 20
7.8723459288
 11
1.9208121128
 21
7.7428918817
  0
LINE
  5
5DB
100
AcDbEntity
  8
IMPORT_IGES
100
AcDbLine
 62
253
  6
CONTINUOUS
 10
1.9086177553
 20
7.9929302822
 11
1.9142449927
 21
7.8723459288
  0
LINE
  5
5DC
100
AcDbEntity
  8
IMPORT_IGES
100
AcDbLine
 62
253
  6
CONTINUOUS
 10
1.9043134529
 20
8.0964466064
 11
1.9086177553
 21
7.9929302822
  0
LINE
  5
5DD
100
AcDbEntity
  8
RACCORDO
100
AcDbLine
 62
253
  6
CONTINUOUS
 10
2.5839303745
 20
13.7284206282
 11
2.6473666858
 21
11.15
  0
LWPOLYLINE
  5
5DE
100
AcDbEntity
  8
IMPORT_IGES
100
AcDbPolyline
 62
7
  6
CONTINUOUS
 90
10
 70
0
 10
2.8332911558
 20
-1.1904696055
 10
2.8332382611
 20
-1.1795127206
 10
2.8330724352
 20
-1.1685586979
 10
2.8327936781
 20
-1.1576075373
 10
2.832401945
 20
-1.1466582667
 10
2.8318972808
 20
-1.1357118583
 10
2.8312798199
 20
-1.1247712284
 10
2.8305496071
 20
-1.1138373491
 10
2.8297065976
 20
-1.1029092483
 10
2.8287507914
 20
-1.0919869261
  0
LINE
  5
5DF
100
AcDbEntity
  8
IMPORT_IGES
100
AcDbLine
 62
253
  6
CONTINUOUS
 10
2.1710424928
 20
3.1132052805
 11
2.1710424928
 21
3.3132052805
  0
LINE
  5
5E0
100
AcDbEntity
  8
IMPORT_IGES
100
AcDbLine
 62
7
  6
CONTINUOUS
 10
2.1881446582
 20
8.188305283
 11
2.1881446582
 21
7.6484451431
  0
LINE
  5
5E1
100
AcDbEntity
  8
IMPORT_IGES
100
AcDbLine
 62
7
  6
CONTINUOUS
 10
2.1881446582
 20
7.5676759124
 11
2.1881446582
 21
7.6358577305
  0
LINE
  5
5E2
100
AcDbEntity
  8
IMPORT_IGES
100
AcDbLine
 62
253
  6
CONTINUOUS
 10
2.2567504351
 20
-10.95
 11
2.2567333397
 21
-10.7508821734
  0
LINE
  5
5E3
100
AcDbEntity
  8
IMPORT_IGES
100
AcDbLine
 62
253
  6
CONTINUOUS
 10
2.2832911558
 20
8.5748812075
 11
2.283291101
 21
10.95
  0
LINE
  5
5E4
100
AcDbEntity
  8
IMPORT_IGES
100
AcDbLine
 62
253
  6
CONTINUOUS
 10
2.292776638
 20
-8.3808532803
 11
2.292776638
 21
-8.3405803829
  0
LINE
  5
5E5
100
AcDbEntity
  8
0
100
AcDbLine
 62
7
  6
CONTINUOUS
 10
2.4893689088
 20
-23.9538922731
 11
2.4893689088
 21
-22.356077753
  0
LINE
  5
5E6
100
AcDbEntity
  8
0
100
AcDbLine
 62
7
  6
CONTINUOUS
 10
2.4893689088
 20
22.356077753
 11
2.4893689088
 21
23.9538922731
  0
LINE
  5
5E7
100
AcDbEntity
  8
0
100
AcDbLine
 62
7
  6
CONTINUOUS
 10
2.5332911558
 20
-24.0
 11
2.5332911558
 21
-23.3679449472
  0
LINE
  5
5E8
100
AcDbEntity
  8
0
100
AcDbLine
 62
7
  6
CONTINUOUS
 10
2.5332911558
 20
-22.9320550528
 11
2.5332911558
 21
-22.4
  0
LINE
  5
5E9
100
AcDbEntity
  8
0
100
AcDbLine
 62
7
  6
CONTINUOUS
 10
2.5332911558
 20
22.4
 11
2.5332911558
 21
22.9320550528
  0
LINE
  5
5EA
100
AcDbEntity
  8
0
100
AcDbLine
 62
7
  6
CONTINUOUS
 10
2.5332911558
 20
23.3679449472
 11
2.5332911558
 21
24.0
  0
LINE
  5
5EB
100
AcDbEntity
  8
IMPORT_IGES
100
AcDbLine
 62
7
  6
CONTINUOUS
 10
2.5832911558
 20
6.344599476
 11
2.5832911558
 21
4.5605817051
  0
LINE
  5
5EC
100
AcDbEntity
  8
IMPORT_IGES
100
AcDbLine
 62
7
  6
CONTINUOUS
 10
2.5832911558
 20
3.2772667053
 11
2.5832911558
 21
-0.455
  0
LINE
  5
5ED
100
AcDbEntity
  8
DRAFT
100
AcDbLine
 62
7
  6
CONTINUOUS
 10
2.5832911558
 20
11.15
 11
2.5832911558
 21
12.5132676422
  0
LINE
  5
5EE
100
AcDbEntity
  8
RACCORDO
100
AcDbLine
 62
7
  6
CONTINUOUS
 10
2.5858863696
 20
-17.7956556053
 11
2.5858863696
 21
-20.0
  0
LINE
  5
5EF
100
AcDbEntity
  8
RACCORDO
100
AcDbLine
 62
7
  6
CONTINUOUS
 10
2.6155805667
 20
-19.88468937
 11
2.6155805667
 21
-20.0
  0
LINE
  5
5F0
100
AcDbEntity
  8
IMPORT_IGES
100
AcDbLine
 62
7
  6
CONTINUOUS
 10
2.6332911558
 20
-0.6933071266
 11
2.6332911558
 21
-0.9360899655
  0
LINE
  5
5F1
100
AcDbEntity
  8
IMPORT_IGES
100
AcDbLine
 62
253
  6
CONTINUOUS
 10
2.6332911558
 20
-8.0830940215
 11
2.6332911558
 21
-0.9360899655
  0
LINE
  5
5F2
100
AcDbEntity
  8
IMPORT_IGES
100
AcDbLine
 62
7
  6
CONTINUOUS
 10
2.8332911558
 20
-7.6829598037
 11
2.8332911558
 21
-1.1904696055
  0
LINE
  5
5F3
100
AcDbEntity
  8
IMPORT_IGES
100
AcDbLine
 62
253
  6
CONTINUOUS
 10
2.8832939397
 20
6.3443620484
 11
2.8832911558
 21
-0.455
  0
LINE
  5
5F4
100
AcDbEntity
  8
IMPORT_IGES
100
AcDbLine
 62
253
  6
CONTINUOUS
 10
3.1332911558
 20
3.245
 11
3.1332911558
 21
2.645
  0
LINE
  5
5F5
100
AcDbEntity
  8
IMPORT_IGES
100
AcDbLine
 62
253
  6
CONTINUOUS
 10
3.1832911559
 20
-1.055
 11
3.1832911558
 21
-0.755
  0
LINE
  5
5F6
100
AcDbEntity
  8
IMPORT_IGES
100
AcDbLine
 62
253
  6
CONTINUOUS
 10
3.5332911558
 20
-1.055
 11
3.5332911558
 21
-0.755
  0
LINE
  5
5F7
100
AcDbEntity
  8
DRAFT
100
AcDbLine
 62
7
  6
CONTINUOUS
 10
3.5832911558
 20
11.15
 11
3.5832911558
 21
12.5132676422
  0
LINE
  5
5F8
100
AcDbEntity
  8
IMPORT_IGES
100
AcDbLine
 62
253
  6
CONTINUOUS
 10
3.6332911558
 20
-7.8451319631
 11
3.6332911559
 21
-1.0458081025
  0
LINE
  5
5F9
100
AcDbEntity
  8
IMPORT_IGES
100
AcDbLine
 62
253
  6
CONTINUOUS
 10
3.7332913324
 20
-10.95
 11
3.7332912965
 21
-11.1499999993
  0
LINE
  5
5FA
100
AcDbEntity
  8
IMPORT_IGES
100
AcDbLine
 62
253
  6
CONTINUOUS
 10
3.8332911558
 20
1.945
 11
3.8332911558
 21
-0.455
  0
LINE
  5
5FB
100
AcDbEntity
  8
RACCORDO
100
AcDbLine
 62
7
  6
CONTINUOUS
 10
2.6445513032
 20
-19.4260209733
 11
2.6465757529
 21
-17.5367039799
  0
LINE
  5
5FC
100
AcDbEntity
  8
RACCORDO
100
AcDbLine
 62
253
  6
CONTINUOUS
 10
2.2866109928
 20
-17.3925212893
 11
2.2858977927
 21
-20.0
  0
LINE
  5
5FD
100
AcDbEntity
  8
RACCORDO
100
AcDbLine
 62
253
  6
CONTINUOUS
 10
2.5861187774
 20
-17.6960250282
 11
2.5858863696
 21
-17.7956556053
  0
LINE
  5
5FE
100
AcDbEntity
  8
RACCORDO
100
AcDbLine
 62
253
  6
CONTINUOUS
 10
2.58646039
 20
-17.6474505737
 11
2.5861187774
 21
-17.6960250282
  0
LINE
  5
5FF
100
AcDbEntity
  8
IMPORT_IGES
100
AcDbLine
 62
253
  6
CONTINUOUS
 10
2.234434728
 20
-8.3438129345
 11
2.2359239648
 21
-8.1815015967
  0
LINE
  5
600
100
AcDbEntity
  8
IMPORT_IGES
100
AcDbLine
 62
7
  6
CONTINUOUS
 10
2.0567150018
 20
-10.7535140118
 11
2.1088996832
 21
-6.4080830712
  0
LINE
  5
601
100
AcDbEntity
  8
IMPORT_IGES
100
AcDbLine
 62
253
  6
CONTINUOUS
 10
2.2376043518
 20
-8.0830942548
 11
2.258888724
 21
-6.3038302899
  0
LINE
  5
602
100
AcDbEntity
  8
IMPORT_IGES
100
AcDbLine
 62
253
  6
CONTINUOUS
 10
2.2359239648
 20
-8.1815023568
 11
2.2376043518
 21
-8.0830942858
  0
LWPOLYLINE
  5
603
100
AcDbEntity
  8
IMPORT_IGES
100
AcDbPolyline
 62
7
  6
CONTINUOUS
 90
10
 70
0
 10
2.2567333397
 20
-10.7508821734
 10
2.2627331016
 20
-10.4980825263
 10
2.267246031
 20
-10.2452464476
 10
2.2702721281
 20
-9.9923834491
 10
2.2708192113
 20
-9.7395034842
 10
2.2698794621
 20
-9.486615655
 10
2.2704294251
 20
-9.2337282129
 10
2.2734612818
 20
-8.9808502815
 10
2.2779828507
 20
-8.7279918557
 10
2.2839941318
 20
-8.475162509
  0
LINE
  5
604
100
AcDbEntity
  8
RACCORDO
100
AcDbLine
 62
253
  6
CONTINUOUS
 10
3.5826519372
 20
13.7284206282
 11
3.5191768045
 21
11.1484220729
  0
LINE
  5
605
100
AcDbEntity
  8
IMPORT_IGES
100
AcDbLine
 62
253
  6
CONTINUOUS
 10
2.2839941318
 20
-8.475162509
 11
2.2872000412
 21
-8.3806640917
  0
LINE
  5
606
100
AcDbEntity
  8
RACCORDO
100
AcDbLine
 62
253
  6
CONTINUOUS
 10
4.5173479335
 20
16.9004479216
 11
4.6788574321
 21
20.0
  0
LWPOLYLINE
  5
607
100
AcDbEntity
  8
RACCORDO
100
AcDbPolyline
 62
253
  6
CONTINUOUS
 90
5
 70
0
 10
2.2876279352
 20
-17.2956746438
 10
2.2874433865
 20
-17.2988404221
 10
2.2872648611
 20
-17.307388864
 10
2.287092359
 20
-17.3212175517
 10
2.2866109928
 20
-17.3925212893
  0
LWPOLYLINE
  5
608
100
AcDbEntity
  8
IMPORT_IGES
100
AcDbPolyline
 62
253
  6
CONTINUOUS
 90
13
 70
0
 10
2.8332911558
 20
-5.9324135107
 10
2.831618685
 20
-5.9506644171
 10
2.8266522272
 20
-5.9685486465
 10
2.8185081784
 20
-5.9857738638
 10
2.807417667
 20
-6.0019834687
 10
2.7935578999
 20
-6.0170142517
 10
2.7769087022
 20
-6.0308360701
 10
2.7575239329
 20
-6.0432426971
 10
2.7357575297
 20
-6.0538644108
 10
2.7120309017
 20
-6.0624136116
 10
2.6867694437
 20
-6.0686854314
 10
2.6603679391
 20
-6.072532831
 10
2.6332911558
 20
-6.073834867
  0
LWPOLYLINE
  5
609
100
AcDbEntity
  8
IMPORT_IGES
100
AcDbPolyline
 62
253
  6
CONTINUOUS
 90
13
 70
0
 10
2.06108113
 20
-10.3899454684
 10
2.0590888006
 20
-10.4109462125
 10
2.0536252351
 20
-10.4316138852
 10
2.0447619172
 20
-10.451555699
 10
2.0325474301
 20
-10.4705247572
 10
2.0172219713
 20
-10.4880469059
 10
1.9993937217
 20
-10.5035271935
 10
1.979750056
 20
-10.5166387807
 10
1.9585229028
 20
-10.5274603417
 10
1.9357162398
 20
-10.5360610375
 10
1.9115431435
 20
-10.5423254452
 10
1.886523864
 20
-10.5460853169
 10
1.8610625193
 20
-10.5472708919
  0
LWPOLYLINE
  5
60A
100
AcDbEntity
  8
IMPORT_IGES
100
AcDbPolyline
 62
253
  6
CONTINUOUS
 90
13
 70
0
 10
3.8332911073
 20
-1.0096539323
 10
3.8316171876
 20
-1.0202341318
 10
3.8266509259
 20
-1.0306506586
 10
3.8185078978
 20
-1.0406842151
 10
3.8074180257
 20
-1.0501272818
 10
3.7935579256
 20
-1.0588843669
 10
3.7769082504
 20
-1.0669370759
 10
3.7575234208
 20
-1.0741651093
 10
3.7357569594
 20
-1.0803532613
 10
3.7120303402
 20
-1.0853338561
 10
3.68676899
 20
-1.0889875101
 10
3.6603676743
 20
-1.0912286121
 10
3.6332911559
 20
-1.0919867132
  0
LWPOLYLINE
  5
60B
100
AcDbEntity
  8
0
100
AcDbPolyline
 62
7
  6
CONTINUOUS
 90
12
 70
0
 10
-9.2002014525
 20
-24.3750024283
 10
-9.1944990753
 20
-24.3645591876
 10
-9.189300072
 20
-24.3538564463
 10
-9.1846162184
 20
-24.3429184493
 10
-9.1804581228
 20
-24.3317699738
 10
-9.1768352025
 20
-24.320436279
 10
-9.1737556624
 20
-24.3089430388
 10
-9.1712264764
 20
-24.2973162875
 10
-9.16925337
 20
-24.2855823661
 10
-9.1678408099
 20
-24.2737678556
 10
-9.1669919944
 20
-24.261899516
 10
-9.1667088442
 20
-24.2500042308
  0
LWPOLYLINE
  5
60C
100
AcDbEntity
  8
IMPORT_IGES
100
AcDbPolyline
 62
7
  6
CONTINUOUS
 90
10
 70
0
 10
4.1893642268
 20
-0.0710827939
 10
4.2382671054
 20
-0.0130890465
 10
4.2818654604
 20
0.0478597758
 10
4.3201592918
 20
0.1117636731
 10
4.3533425303
 20
0.1790761133
 10
4.3812212451
 20
0.2493436285
 10
4.4032136443
 20
0.3212058151
 10
4.4191257971
 20
0.3942092053
 10
4.4291516343
 20
0.4688072669
 10
4.4332911557
 20
0.545
  0
LINE
  5
60D
100
AcDbEntity
  8
RACCORDO
100
AcDbLine
 62
7
  6
CONTINUOUS
 10
-9.3276871772
 20
-12.410978333
 11
-9.4167088442
 21
-12.5
  0
LINE
  5
60E
100
AcDbEntity
  8
RACCORDO
100
AcDbLine
 62
253
  6
CONTINUOUS
 10
-9.416201223
 20
-13.4995114173
 11
-9.3268221059
 21
-13.4101323002
  0
LINE
  5
60F
100
AcDbEntity
  8
RACCORDO
100
AcDbLine
 62
253
  6
CONTINUOUS
 10
-8.9159262878
 20
-13.9991984052
 11
-8.8268411444
 21
-13.9101132618
  0
LINE
  5
610
100
AcDbEntity
  8
IMPORT_IGES
100
AcDbLine
 62
253
  6
CONTINUOUS
 10
5.3108076942
 20
-0.3710818598
 11
5.4807894012
 21
-0.271087758
  0
LWPOLYLINE
  5
611
100
AcDbEntity
  8
IMPORT_IGES
100
AcDbPolyline
 62
253
  6
CONTINUOUS
 90
10
 70
0
 10
-9.8719030922
 20
-9.889590653
 10
-9.8902918142
 20
-9.900185218
 10
-9.9086502822
 20
-9.9088625867
 10
-9.9268283483
 20
-9.9155157566
 10
-9.9447518277
 20
-9.9200672399
 10
-9.9621803997
 20
-9.9224040141
 10
-9.978739194
 20
-9.9224794655
 10
-9.9942417046
 20
-9.9203564886
 10
-10.0086600331
 20
-9.9161056004
 10
-10.0219030921
 20
-9.9098076212
  0
LINE
  5
612
100
AcDbEntity
  8
RACCORDO
100
AcDbLine
 62
7
  6
CONTINUOUS
 10
7.5953961429
 20
-0.5
 11
7.7284357224
 21
-0.4334852763
  0
LWPOLYLINE
  5
613
100
AcDbEntity
  8
IMPORT_IGES
100
AcDbPolyline
 62
253
  6
CONTINUOUS
 90
5
 70
0
 10
-9.1939059303
 20
-8.3938800171
 10
-9.1598651719
 20
-8.3781833348
 10
-9.1236412366
 20
-8.3651235904
 10
-9.0861248561
 20
-8.354821369
 10
-9.0476129406
 20
-8.3473168656
  0
LINE
  5
614
100
AcDbEntity
  8
IMPORT_IGES
100
AcDbLine
 62
253
  6
CONTINUOUS
 10
2.7658117931
 20
3.7922589292
 11
2.5675553597
 21
3.765907713
  0
LINE
  5
615
100
AcDbEntity
  8
IMPORT_IGES
100
AcDbLine
 62
253
  6
CONTINUOUS
 10
-6.419298719
 20
3.2451045053
 11
-6.4167088442
 21
3.2451623704
  0
LINE
  5
616
100
AcDbEntity
  8
IMPORT_IGES
100
AcDbLine
 62
253
  6
CONTINUOUS
 10
-6.4396680141
 20
3.2450127055
 11
-6.419298719
 21
3.2451045053
  0
LINE
  5
617
100
AcDbEntity
  8
IMPORT_IGES
100
AcDbLine
 62
253
  6
CONTINUOUS
 10
3.1332911558
 20
2.645
 11
2.5832911558
 21
2.645
  0
LINE
  5
618
100
AcDbEntity
  8
IMPORT_IGES
100
AcDbLine
 62
253
  6
CONTINUOUS
 10
-6.4167088442
 20
2.645
 11
-6.9667088442
 21
2.645
  0
LINE
  5
619
100
AcDbEntity
  8
IMPORT_IGES
100
AcDbLine
 62
7
  6
CONTINUOUS
 10
3.1332911557
 20
2.945
 11
2.8832911558
 21
2.945
  0
LINE
  5
61A
100
AcDbEntity
  8
IMPORT_IGES
100
AcDbLine
 62
7
  6
CONTINUOUS
 10
-6.7167088441
 20
2.945
 11
-6.9667088442
 21
2.945
  0
LINE
  5
61B
100
AcDbEntity
  8
IMPORT_IGES
100
AcDbLine
 62
7
  6
CONTINUOUS
 10
2.1710424928
 20
3.1132052805
 11
1.5099628576
 21
3.1132052805
  0
LINE
  5
61C
100
AcDbEntity
  8
IMPORT_IGES
100
AcDbLine
 62
7
  6
CONTINUOUS
 10
-5.343380546
 20
3.1132052805
 11
-6.0044601805
 21
3.1132052805
  0
LINE
  5
61D
100
AcDbEntity
  8
IMPORT_IGES
100
AcDbLine
 62
253
  6
CONTINUOUS
 10
2.5832911558
 20
3.244999947
 11
3.1332911558
 21
3.245
  0
LINE
  5
61E
100
AcDbEntity
  8
IMPORT_IGES
100
AcDbLine
 62
253
  6
CONTINUOUS
 10
-6.0044601811
 20
3.3132052805
 11
-5.159688329
 21
3.3132052805
  0
LINE
  5
61F
100
AcDbEntity
  8
IMPORT_IGES
100
AcDbLine
 62
253
  6
CONTINUOUS
 10
1.3262706406
 20
3.3132052805
 11
2.1710424928
 21
3.3132052805
  0
LINE
  5
620
100
AcDbEntity
  8
IMPORT_IGES
100
AcDbLine
 62
7
  6
CONTINUOUS
 10
-4.8624865914
 20
3.588305283
 11
-2.8167088442
 21
3.588305283
  0
LINE
  5
621
100
AcDbEntity
  8
IMPORT_IGES
100
AcDbLine
 62
7
  6
CONTINUOUS
 10
-1.0167088442
 20
3.588305283
 11
1.0290689194
 21
3.588305283
  0
LINE
  5
622
100
AcDbEntity
  8
IMPORT_IGES
100
AcDbLine
 62
7
  6
CONTINUOUS
 10
-4.5215623465
 20
3.6097338544
 11
-3.6215623465
 21
3.6097338544
  0
LINE
  5
623
100
AcDbEntity
  8
IMPORT_IGES
100
AcDbLine
 62
7
  6
CONTINUOUS
 10
-0.2118553418
 20
3.6097338544
 11
0.6881446582
 21
3.6097338544
  0
LINE
  5
624
100
AcDbEntity
  8
IMPORT_IGES
100
AcDbLine
 62
7
  6
CONTINUOUS
 10
-3.3215623465
 20
3.6760253122
 11
-2.6047248495
 21
3.6760253122
  0
LINE
  5
625
100
AcDbEntity
  8
IMPORT_IGES
100
AcDbLine
 62
7
  6
CONTINUOUS
 10
-1.2286928388
 20
3.6760253122
 11
-0.5118553418
 21
3.6760253122
  0
LINE
  5
626
100
AcDbEntity
  8
IMPORT_IGES
100
AcDbLine
 62
253
  6
CONTINUOUS
 10
-6.9667088441
 20
3.245
 11
-6.4396680141
 21
3.2450127055
  0
LINE
  5
627
100
AcDbEntity
  8
IMPORT_IGES
100
AcDbLine
 62
253
  6
CONTINUOUS
 10
-6.5992294814
 20
3.7922589293
 11
-6.400973048
 21
3.765907713
  0
LINE
  5
628
100
AcDbEntity
  8
RACCORDO
100
AcDbLine
 62
7
  6
CONTINUOUS
 10
7.5953961429
 20
0.5
 11
7.7284357224
 21
0.4334852763
  0
LWPOLYLINE
  5
629
100
AcDbEntity
  8
IMPORT_IGES
100
AcDbPolyline
 62
253
  6
CONTINUOUS
 90
4
 70
0
 10
5.3680328061
 20
-0.4278857813
 10
5.3528534348
 20
-0.4175263293
 10
5.3385829448
 20
-0.4040770689
 10
5.324788698
 20
-0.3884053443
  0
LINE
  5
62A
100
AcDbEntity
  8
IMPORT_IGES
100
AcDbLine
 62
253
  6
CONTINUOUS
 10
4.1332911558
 20
-0.0184368386
 11
4.1893642267
 21
-0.0710833041
  0
LINE
  5
62B
100
AcDbEntity
  8
IMPORT_IGES
100
AcDbLine
 62
253
  6
CONTINUOUS
 10
5.324788698
 20
-0.3884053443
 11
5.3108076942
 21
-0.3710818598
  0
LINE
  5
62C
100
AcDbEntity
  8
IMPORT_IGES
100
AcDbLine
 62
253
  6
CONTINUOUS
 10
3.180596587
 20
-1.0548577458
 11
3.1932994217
 21
-1.0919857543
  0
LINE
  5
62D
100
AcDbEntity
  8
IMPORT_IGES
100
AcDbLine
 62
253
  6
CONTINUOUS
 10
0.720693268
 20
6.7780388601
 11
0.6845741496
 21
6.8913800612
  0
LINE
  5
62E
100
AcDbEntity
  8
IMPORT_IGES
100
AcDbLine
 62
253
  6
CONTINUOUS
 10
0.6845741496
 20
6.8913800612
 11
0.5833384747
 21
7.2213177878
  0
LINE
  5
62F
100
AcDbEntity
  8
IMPORT_IGES
100
AcDbLine
 62
253
  6
CONTINUOUS
 10
5.3351325127
 20
-10.0431621104
 11
5.3332911557
 21
-10.021537665
  0
LWPOLYLINE
  5
630
100
AcDbEntity
  8
IMPORT_IGES
100
AcDbPolyline
 62
253
  6
CONTINUOUS
 90
13
 70
0
 10
5.5332911557
 20
-0.4528306519
 10
5.5327887778
 20
-0.4444636679
 10
5.5314824886
 20
-0.4338755363
 10
5.5293722881
 20
-0.4210635747
 10
5.5263147155
 20
-0.4050793375
 10
5.5224532316
 20
-0.3868646595
 10
5.5182182193
 20
-0.3692572668
 10
5.5139396361
 20
-0.3536161067
 10
5.5092875244
 20
-0.3385872428
 10
5.5037023941
 20
-0.3229423423
 10
5.4969977485
 20
-0.3062719569
 10
5.4893600842
 20
-0.2889867318
 10
5.4807894012
 20
-0.271087758
  0
LWPOLYLINE
  5
631
100
AcDbEntity
  8
RACCORDO
100
AcDbPolyline
 62
7
  6
CONTINUOUS
 90
28
 70
0
 10
5.2872956101
 20
-20.0082381709
 10
5.2853613754
 20
-19.9725559614
 10
5.2794193651
 20
-19.9378897926
 10
5.2694695792
 20
-19.9042396644
 10
5.2551603913
 20
-19.8709571288
 10
5.2368434277
 20
-19.8386906339
 10
5.2155735677
 20
-19.8093855238
 10
5.1913241766
 20
-19.7834884958
 10
5.164121889
 20
-19.7605528526
 10
5.1351014883
 20
-19.7411838456
 10
5.104245738
 20
-19.7254827339
 10
5.0715718745
 20
-19.7133482586
 10
5.0382663904
 20
-19.7050818944
 10
5.00432858
 20
-19.7007829386
 10
4.969759149
 20
-19.700352094
 10
4.935746708
 20
-19.7037929442
 10
4.9022977182
 20
-19.7111998565
 10
4.8694057182
 20
-19.7224784635
 10
4.8382399345
 20
-19.737349246
 10
4.8088099363
 20
-19.755915324
 10
4.7811061544
 20
-19.7780735774
 10
4.7562691069
 20
-19.8032351273
 10
4.7343209664
 20
-19.8317998248
 10
4.7152395604
 20
-19.8633678187
 10
4.7000988904
 20
-19.8961506764
 10
4.689256957
 20
-19.9295522537
 10
4.6823557595
 20
-19.964168695
 10
4.6793952982
 20
-20.0
  0
LWPOLYLINE
  5
632
100
AcDbEntity
  8
0
100
AcDbPolyline
 62
7
  6
CONTINUOUS
 90
5
 70
0
 10
5.3332911558
 20
-24.2500042308
 10
5.3335743061
 20
-24.261899516
 10
5.3344231216
 20
-24.2737678556
 10
5.3358356817
 20
-24.2855823661
 10
5.3378087881
 20
-24.2973162875
  0
LWPOLYLINE
  5
633
100
AcDbEntity
  8
0
100
AcDbPolyline
 62
7
  6
CONTINUOUS
 90
34
 70
0
 10
5.3376629898
 20
-24.2456323968
 10
5.3379465407
 20
-24.2575274183
 10
5.3387957456
 20
-24.269395495
 10
5.340208681
 20
-24.2812097429
 10
5.3421821463
 20
-24.2929434001
 10
5.3447116711
 20
-24.3045698874
 10
5.3477915254
 20
-24.316062868
 10
5.3514147328
 20
-24.3273963078
 10
5.3555730859
 20
-24.338544534
 10
5.360257165
 20
-24.3494822935
 10
5.3654563596
 20
-24.3601848096
 10
5.3711588925
 20
-24.3706278389
 10
5.377351846
 20
-24.3807877255
 10
5.3840211919
 20
-24.390641455
 10
5.3911518224
 20
-24.4001667064
 10
5.3987275852
 20
-24.4093419031
 10
5.4067313194
 20
-24.4181462611
 10
5.4151448948
 20
-24.4265598365
 10
5.4239492527
 20
-24.4345635707
 10
5.4331244494
 20
-24.4421393334
 10
5.4426497009
 20
-24.449269964
 10
5.4525034304
 20
-24.4559393098
 10
5.462663317
 20
-24.4621322634
 10
5.4731063462
 20
-24.4678347962
 10
5.4838088624
 20
-24.4730339909
 10
5.4947466218
 20
-24.47771807
 10
5.5058948481
 20
-24.481876423
 10
5.5172282879
 20
-24.4854996304
 10
5.5287212685
 20
-24.4885794848
 10
5.5403477557
 20
-24.4911090096
 10
5.552081413
 20
-24.4930824749
 10
5.5638956609
 20
-24.4944954103
 10
5.5757637375
 20
-24.4953446152
 10
5.5876587591
 20
-24.495628166
  0
LINE
  5
634
100
AcDbEntity
  8
0
100
AcDbLine
 62
253
  6
CONTINUOUS
 10
5.3376629898
 20
-23.8443375673
 11
5.3332911558
 21
-23.4104851482
  0
LINE
  5
635
100
AcDbEntity
  8
0
100
AcDbLine
 62
253
  6
CONTINUOUS
 10
5.5876587591
 20
-23.6278312164
 11
5.582568158
 21
-23.1226497308
  0
LINE
  5
636
100
AcDbEntity
  8
RACCORDO
100
AcDbLine
 62
7
  6
CONTINUOUS
 10
4.5336224489
 20
-17.2127744921
 11
4.535993997
 21
-19.4260209733
  0
LINE
  5
637
100
AcDbEntity
  8
IMPORT_IGES
100
AcDbLine
 62
7
  6
CONTINUOUS
 10
4.1332911558
 20
1.945
 11
4.1332911558
 21
-0.4550000001
  0
LINE
  5
638
100
AcDbEntity
  8
IMPORT_IGES
100
AcDbLine
 62
253
  6
CONTINUOUS
 10
4.2332911558
 20
10.95
 11
4.233291579
 21
11.15
  0
LINE
  5
639
100
AcDbEntity
  8
RACCORDO
100
AcDbLine
 62
253
  6
CONTINUOUS
 10
4.2832911558
 20
-12.9
 11
4.2832911558
 21
-13.2
  0
LINE
  5
63A
100
AcDbEntity
  8
IMPORT_IGES
100
AcDbLine
 62
253
  6
CONTINUOUS
 10
4.3064345911
 20
-10.7508821734
 11
4.3064346506
 21
-10.95
  0
LINE
  5
63B
100
AcDbEntity
  8
IMPORT_IGES
100
AcDbLine
 62
253
  6
CONTINUOUS
 10
4.4332911557
 20
0.545
 11
4.4332911558
 21
1.945
  0
LINE
  5
63C
100
AcDbEntity
  8
RACCORDO
100
AcDbLine
 62
7
  6
CONTINUOUS
 10
4.5649647335
 20
-20.0
 11
4.5649647335
 21
-19.88468937
  0
LINE
  5
63D
100
AcDbEntity
  8
0
100
AcDbLine
 62
7
  6
CONTINUOUS
 10
4.5832911558
 20
-11.5
 11
4.5832911558
 21
-12.3
  0
LINE
  5
63E
100
AcDbEntity
  8
RACCORDO
100
AcDbLine
 62
7
  6
CONTINUOUS
 10
4.5832911558
 20
-13.5
 11
4.5832911558
 21
-13.9127313221
  0
LINE
  5
63F
100
AcDbEntity
  8
RACCORDO
100
AcDbLine
 62
7
  6
CONTINUOUS
 10
4.5832911558
 20
-11.5
 11
4.5832911558
 21
-10.8365669523
  0
LINE
  5
640
100
AcDbEntity
  8
RACCORDO
100
AcDbLine
 62
253
  6
CONTINUOUS
 10
4.8832911558
 20
-10.6633618716
 11
4.8832911558
 21
-11.5
  0
LINE
  5
641
100
AcDbEntity
  8
RACCORDO
100
AcDbLine
 62
253
  6
CONTINUOUS
 10
4.8832911558
 20
-13.5
 11
4.8832911558
 21
-13.9101132618
  0
LINE
  5
642
100
AcDbEntity
  8
IMPORT_IGES
100
AcDbLine
 62
253
  6
CONTINUOUS
 10
4.8862911573
 20
10.95
 11
4.8862893379
 21
8.201858569
  0
LINE
  5
643
100
AcDbEntity
  8
IMPORT_IGES
100
AcDbLine
 62
7
  6
CONTINUOUS
 10
5.0862911558
 20
10.4672162206
 11
5.0862911558
 21
8.1485647603
  0
LINE
  5
644
100
AcDbEntity
  8
IMPORT_IGES
100
AcDbLine
 62
253
  6
CONTINUOUS
 10
5.1332902653
 20
-8.3405803557
 11
5.1332944902
 21
-10.2911905861
  0
LINE
  5
645
100
AcDbEntity
  8
IMPORT_IGES
100
AcDbLine
 62
253
  6
CONTINUOUS
 10
5.1334453568
 20
-0.0710827939
 11
5.1334459696
 21
-0.2710819827
  0
LINE
  5
646
100
AcDbEntity
  8
IMPORT_IGES
100
AcDbLine
 62
253
  6
CONTINUOUS
 10
5.2862911558
 20
10.3965066856
 11
5.2862911558
 21
8.0694368637
  0
LINE
  5
647
100
AcDbEntity
  8
RACCORDO
100
AcDbLine
 62
7
  6
CONTINUOUS
 10
5.2872956101
 20
20.9
 11
5.2872956101
 21
20.0082381709
  0
LINE
  5
648
100
AcDbEntity
  8
RACCORDO
100
AcDbLine
 62
7
  6
CONTINUOUS
 10
5.2872956101
 20
-20.0082381709
 11
5.2872956101
 21
-20.9
  0
LINE
  5
649
100
AcDbEntity
  8
0
100
AcDbLine
 62
7
  6
CONTINUOUS
 10
5.3332911558
 20
23.8443375673
 11
5.3332911558
 21
23.4104851482
  0
LINE
  5
64A
100
AcDbEntity
  8
IMPORT_IGES
100
AcDbLine
 62
7
  6
CONTINUOUS
 10
5.3332911558
 20
-0.4710819846
 11
5.3332911558
 21
-6.4663853498
  0
LINE
  5
64B
100
AcDbEntity
  8
IMPORT_IGES
100
AcDbLine
 62
7
  6
CONTINUOUS
 10
5.3332911557
 20
-8.4822750736
 11
5.3332911557
 21
-10.0571440889
  0
LINE
  5
64C
100
AcDbEntity
  8
RACCORDO
100
AcDbLine
 62
7
  6
CONTINUOUS
 10
5.3332911558
 20
-23.4104851482
 11
5.3332911558
 21
-22.6002134903
  0
LINE
  5
64D
100
AcDbEntity
  8
0
100
AcDbLine
 62
7
  6
CONTINUOUS
 10
5.3332911558
 20
-23.4104851482
 11
5.3332911558
 21
-23.8443375673
  0
LINE
  5
64E
100
AcDbEntity
  8
RACCORDO
100
AcDbLine
 62
7
  6
CONTINUOUS
 10
5.3332911558
 20
22.6002134903
 11
5.3332911558
 21
23.4104851482
  0
LINE
  5
64F
100
AcDbEntity
  8
0
100
AcDbLine
 62
7
  6
CONTINUOUS
 10
5.3376629898
 20
24.2456323968
 11
5.3376629898
 21
23.8443375673
  0
LINE
  5
650
100
AcDbEntity
  8
0
100
AcDbLine
 62
7
  6
CONTINUOUS
 10
5.3376629898
 20
-23.8443375673
 11
5.3376629898
 21
-24.2456323968
  0
LINE
  5
651
100
AcDbEntity
  8
DRAFT
100
AcDbLine
 62
7
  6
CONTINUOUS
 10
5.3658374203
 20
-10.3847636559
 11
5.3658374203
 21
-11.5
  0
LINE
  5
652
100
AcDbEntity
  8
DRAFT
100
AcDbLine
 62
7
  6
CONTINUOUS
 10
5.3832911558
 20
-10.374686737
 11
5.3832911558
 21
-11.5
  0
LINE
  5
653
100
AcDbEntity
  8
RACCORDO
100
AcDbLine
 62
7
  6
CONTINUOUS
 10
5.4016175782
 20
-19.88468937
 11
5.4016175782
 21
-20.7899436635
  0
LINE
  5
654
100
AcDbEntity
  8
RACCORDO
100
AcDbLine
 62
7
  6
CONTINUOUS
 10
5.4934044176
 20
-13.4101323002
 11
5.4934044176
 21
-12.3109821407
  0
LINE
  5
655
100
AcDbEntity
  8
IMPORT_IGES
100
AcDbLine
 62
253
  6
CONTINUOUS
 10
5.5332911404
 20
-8.6420018709
 11
5.5332911241
 21
-10.1812646504
  0
LINE
  5
656
100
AcDbEntity
  8
IMPORT_IGES
100
AcDbLine
 62
253
  6
CONTINUOUS
 10
5.5332911558
 20
-7.8451539698
 11
5.5332911557
 21
-0.4528306519
  0
LINE
  5
657
100
AcDbEntity
  8
DRAFT
100
AcDbLine
 62
7
  6
CONTINUOUS
 10
5.5832911558
 20
-12.5
 11
5.5832911558
 21
-12.5132676422
  0
LINE
  5
658
100
AcDbEntity
  8
0
100
AcDbLine
 62
253
  6
CONTINUOUS
 10
5.5876587591
 20
-23.6278312164
 11
5.5876587591
 21
-24.495628166
  0
LINE
  5
659
100
AcDbEntity
  8
0
100
AcDbLine
 62
253
  6
CONTINUOUS
 10
5.5876587591
 20
23.6278312164
 11
5.5876587591
 21
24.495628166
  0
LINE
  5
65A
100
AcDbEntity
  8
0
100
AcDbLine
 62
253
  6
CONTINUOUS
 10
5.6499368101
 20
21.3359869487
 11
5.6499368101
 21
20.9
  0
LINE
  5
65B
100
AcDbEntity
  8
0
100
AcDbLine
 62
253
  6
CONTINUOUS
 10
5.6499368101
 20
-20.9
 11
5.6499368101
 21
-21.3359869487
  0
LINE
  5
65C
100
AcDbEntity
  8
RACCORDO
100
AcDbLine
 62
7
  6
CONTINUOUS
 10
5.4329598628
 20
-17.2127744921
 11
5.4305883147
 21
-19.4260209733
  0
LINE
  5
65D
100
AcDbEntity
  8
0
100
AcDbLine
 62
253
  6
CONTINUOUS
 10
5.3332911558
 20
23.4104851482
 11
5.3376629898
 21
23.8443375673
  0
LINE
  5
65E
100
AcDbEntity
  8
0
100
AcDbLine
 62
253
  6
CONTINUOUS
 10
5.582568158
 20
23.1226497308
 11
5.5876587591
 21
23.6278312164
  0
LWPOLYLINE
  5
65F
100
AcDbEntity
  8
RACCORDO
100
AcDbPolyline
 62
7
  6
CONTINUOUS
 90
31
 70
0
 10
5.4492343782
 20
16.9004479216
 10
5.4466988869
 20
16.8489050793
 10
5.4389080212
 20
16.7986467799
 10
5.4258617812
 20
16.7496732655
 10
5.4071579395
 20
16.7011790961
 10
5.3831987235
 20
16.6539700852
 10
5.3551908153
 20
16.6104637311
 10
5.3229911951
 20
16.5711574851
 10
5.2867428827
 20
16.535555006
 10
5.2480816202
 20
16.5045835258
 10
5.2072204709
 20
16.4784918806
 10
5.1639463714
 20
16.4570321457
 10
5.1192558733
 20
16.440386422
 10
5.0729947156
 20
16.4285428767
 10
5.0253171594
 20
16.4215138011
 10
4.977682539
 20
16.4195173831
 10
4.930081352
 20
16.4227074752
 10
4.8825231009
 20
16.4309302047
 10
4.8364956279
 20
16.4439420566
 10
4.7920980098
 20
16.461822456
 10
4.7492311698
 20
16.4844914797
 10
4.7090857199
 20
16.5114665177
 10
4.6716027473
 20
16.5429924808
 10
4.6368411649
 20
16.578823587
 10
4.606168323
 20
16.6177412733
 10
4.5797948789
 20
16.6598265484
 10
4.5575101754
 20
16.7049975262
 10
4.5400495912
 20
16.7517916185
 10
4.5276582527
 20
16.7997212108
 10
4.5200910334
 20
16.8492734107
 10
4.5173479335
 20
16.9004479216
  0
LWPOLYLINE
  5
660
100
AcDbEntity
  8
RACCORDO
100
AcDbPolyline
 62
7
  6
CONTINUOUS
 90
31
 70
0
 10
4.5336224489
 20
-17.2127744921
 10
4.5361219858
 20
-17.1626633578
 10
4.5436710941
 20
-17.1138680352
 10
4.5562697736
 20
-17.0663885241
 10
4.5743054797
 20
-17.0194728059
 10
4.597390757
 20
-16.9738728992
 10
4.6243632397
 20
-16.9318448603
 10
4.6553518887
 20
-16.893845208
 10
4.6902277431
 20
-16.8594174234
 10
4.7274415545
 20
-16.8294480064
 10
4.7668014258
 20
-16.8041676827
 10
4.808499254
 20
-16.7833457267
 10
4.8515614814
 20
-16.767176461
 10
4.8961295546
 20
-16.7556544569
 10
4.9420620269
 20
-16.7487851431
 10
4.9879610013
 20
-16.7467791281
 10
5.0338324521
 20
-16.749780752
 10
5.0796704048
 20
-16.7576456746
 10
5.1240590392
 20
-16.7701514841
 10
5.1669089482
 20
-16.787370907
 10
5.2083095388
 20
-16.8092312167
 10
5.2471132119
 20
-16.835291821
 10
5.2833883689
 20
-16.8657999958
 10
5.3170666084
 20
-16.9005084651
 10
5.3467951269
 20
-16.9382348097
 10
5.3723658281
 20
-16.9790600352
 10
5.3939868084
 20
-17.022903136
 10
5.4109295534
 20
-17.0683386757
 10
5.4229512251
 20
-17.1148915089
 10
5.4302946616
 20
-17.1630367811
 10
5.4329598628
 20
-17.2127744921
  0
LWPOLYLINE
  5
661
100
AcDbEntity
  8
RACCORDO
100
AcDbPolyline
 62
253
  6
CONTINUOUS
 90
7
 70
0
 10
2.5876165121
 20
-17.5956632207
 10
2.5874332188
 20
-17.5969932294
 10
2.587255524
 20
-17.6003662708
 10
2.5870834277
 20
-17.6057823451
 10
2.5869151308
 20
-17.6133393858
 10
2.5867524323
 20
-17.6229394592
 10
2.58646039
 20
-17.6474505737
  0
LWPOLYLINE
  5
662
100
AcDbEntity
  8
0
100
AcDbPolyline
 62
7
  6
CONTINUOUS
 90
13
 70
0
 10
1.5832911558
 20
-23.9541479441
 10
1.5835451788
 20
-23.9524898894
 10
1.5843094275
 20
-23.9503491945
 10
1.5855867412
 20
-23.9477258593
 10
1.5873781765
 20
-23.9446258933
 10
1.5896859918
 20
-23.9410432871
 10
1.5925166229
 20
-23.9369600118
 10
1.5958708506
 20
-23.9323818855
 10
1.5997527897
 20
-23.9273030902
 10
1.6041812043
 20
-23.9216881435
 10
1.6091592159
 20
-23.9155475997
 10
1.6146955306
 20
-23.9088709045
 10
1.6208304268
 20
-23.9015909124
  0
LINE
  5
663
100
AcDbEntity
  8
RACCORDO
100
AcDbLine
 62
7
  6
CONTINUOUS
 10
2.6445513032
 20
-19.4260209733
 11
2.6180616083
 21
-19.5851005096
  0
LWPOLYLINE
  5
664
100
AcDbEntity
  8
IMPORT_IGES
100
AcDbPolyline
 62
7
  6
CONTINUOUS
 90
10
 70
0
 10
2.0878389445
 20
-8.504510915
 10
2.090086617
 20
-8.496504746
 10
2.0930014326
 20
-8.4880359285
 10
2.0966822675
 20
-8.4791689253
 10
2.101025292
 20
-8.4703649545
 10
2.1059501317
 20
-8.4618402333
 10
2.111525548
 20
-8.453515459
 10
2.1177985645
 20
-8.4453952618
 10
2.1247552919
 20
-8.4375727522
 10
2.1323725301
 20
-8.4301345729
  0
LINE
  5
665
100
AcDbEntity
  8
IMPORT_IGES
100
AcDbLine
 62
7
  6
CONTINUOUS
 10
2.2324704976
 20
-8.3508013436
 11
2.2344347271
 21
-8.3438166698
  0
LWPOLYLINE
  5
666
100
AcDbEntity
  8
IMPORT_IGES
100
AcDbPolyline
 62
7
  6
CONTINUOUS
 90
10
 70
0
 10
2.8064214894
 20
-7.8451457132
 10
2.811768083
 20
-7.8291356317
 10
2.8165487007
 20
-7.8125556476
 10
2.8207633424
 20
-7.7954057609
 10
2.8244443988
 20
-7.7775962931
 10
2.8275594793
 20
-7.7592169227
 10
2.8300114124
 20
-7.740536685
 10
2.8317678076
 20
-7.7216452585
 10
2.8328610554
 20
-7.7024529647
 10
2.8332911558
 20
-7.6829598037
  0
LWPOLYLINE
  5
667
100
AcDbEntity
  8
IMPORT_IGES
100
AcDbPolyline
 62
7
  6
CONTINUOUS
 90
46
 70
0
 10
2.8064225955
 20
-7.8451502999
 10
2.8020044642
 20
-7.8571450121
 10
2.797474873
 20
-7.868640328
 10
2.7928760649
 20
-7.8796445046
 10
2.788261474
 20
-7.8901540533
 10
2.7836548075
 20
-7.9001936533
 10
2.7790440343
 20
-7.9098122758
 10
2.7744520739
 20
-7.9190190752
 10
2.7699063721
 20
-7.9278235151
 10
2.7653899232
 20
-7.9362700543
 10
2.7609172385
 20
-7.944368224
 10
2.7565078905
 20
-7.9521243319
 10
2.7521449635
 20
-7.9595739769
 10
2.747838044
 20
-7.966725628
 10
2.7436011041
 20
-7.9735839962
 10
2.7394190729
 20
-7.9801759843
 10
2.7352990506
 20
-7.9865079987
 10
2.7312505936
 20
-7.9925845858
 10
2.7272592336
 20
-7.9984274983
 10
2.723330203
 20
-8.004041913
 10
2.7194701673
 20
-8.0094316416
 10
2.7156646867
 20
-8.0146144484
 10
2.7119173794
 20
-8.0195950546
 10
2.7082331665
 20
-8.0243759717
 10
2.7045980644
 20
-8.0289700111
 10
2.7010149135
 20
-8.0333812298
 10
2.6974870568
 20
-8.0376113
 10
2.6940001845
 20
-8.0416680315
 10
2.690557298
 20
-8.0455545943
 10
2.6871599009
 20
-8.0492722084
 10
2.6837905992
 20
-8.0528243598
 10
2.6804530767
 20
-8.0562140128
 10
2.6771469025
 20
-8.0594411838
 10
2.6738477813
 20
-8.0625032959
 10
2.6705556192
 20
-8.0654077877
 10
2.6672727799
 20
-8.0681483232
 10
2.6639781007
 20
-8.0706999722
 10
2.660681305
 20
-8.0730667097
 10
2.6573745111
 20
-8.0752443983
 10
2.6540096393
 20
-8.0771934376
 10
2.6505435162
 20
-8.0789297888
 10
2.6470206247
 20
-8.0804325374
 10
2.6435245231
 20
-8.0816080857
 10
2.6400839583
 20
-8.0824273391
 10
2.6366724913
 20
-8.0829222817
 10
2.6332911558
 20
-8.0830940215
  0
LWPOLYLINE
  5
668
100
AcDbEntity
  8
DRAFT
100
AcDbPolyline
 62
7
  6
CONTINUOUS
 90
4
 70
0
 10
-9.734395552
 20
-21.6973892622
 10
-9.6807548103
 20
-21.6182814201
 10
-9.6533930762
 20
-21.5782973885
 10
-9.6256070663
 20
-21.5381681977
  0
LWPOLYLINE
  5
669
100
AcDbEntity
  8
DRAFT
100
AcDbPolyline
 62
7
  6
CONTINUOUS
 90
3
 70
0
 10
-9.6256070663
 20
-21.5381681977
 10
-9.5121212803
 20
-21.3764763181
 10
-9.4833544984
 20
-21.3359869487
  0
LWPOLYLINE
  5
66A
100
AcDbEntity
  8
IMPORT_IGES
100
AcDbPolyline
 62
253
  6
CONTINUOUS
 90
6
 70
0
 10
-9.2424760671
 20
-10.1467124779
 10
-9.2642424703
 20
-10.1587090787
 10
-9.2879690983
 20
-10.168364898
 10
-9.3132305563
 20
-10.1754485495
 10
-9.339632061
 20
-10.179793961
 10
-9.3667088442
 20
-10.1812645341
  0
LINE
  5
66B
100
AcDbEntity
  8
IMPORT_IGES
100
AcDbLine
 62
253
  6
CONTINUOUS
 10
-3.0215623465
 20
4.3755287456
 11
-2.5167088442
 21
4.3755287456
  0
LINE
  5
66C
100
AcDbEntity
  8
IMPORT_IGES
100
AcDbLine
 62
253
  6
CONTINUOUS
 10
-1.3167088442
 20
4.3755287456
 11
-0.8118553418
 21
4.3755287456
  0
LWPOLYLINE
  5
66D
100
AcDbEntity
  8
IMPORT_IGES
100
AcDbPolyline
 62
7
  6
CONTINUOUS
 90
10
 70
0
 10
5.3108076198
 20
-0.3710819036
 10
5.2977069935
 20
-0.3536102175
 10
5.2829093396
 20
-0.3367174541
 10
5.2660996245
 20
-0.3207883686
 10
5.2467581313
 20
-0.306008553
 10
5.2251179531
 20
-0.2932029753
 10
5.2024657212
 20
-0.2833193988
 10
5.1795903385
 20
-0.2764668192
 10
5.1564747648
 20
-0.2724040746
 10
5.1334464518
 20
-0.2710540368
  0
LINE
  5
66E
100
AcDbEntity
  8
DRAFT
100
AcDbLine
 62
7
  6
CONTINUOUS
 10
-9.4833544984
 20
21.3359869487
 11
-9.5407172546
 21
21.4170151614
  0
LWPOLYLINE
  5
66F
100
AcDbEntity
  8
DRAFT
100
AcDbPolyline
 62
7
  6
CONTINUOUS
 90
3
 70
0
 10
-9.5407172546
 20
21.4170151614
 10
-9.6256070663
 20
21.5381681977
 10
-9.6533930762
 20
21.5782973885
  0
LWPOLYLINE
  5
670
100
AcDbEntity
  8
DRAFT
100
AcDbPolyline
 62
7
  6
CONTINUOUS
 90
3
 70
0
 10
-9.6533930762
 20
21.5782973885
 10
-9.7077556355
 20
21.6580046829
 10
-9.734395552
 20
21.6973892622
  0
LWPOLYLINE
  5
671
100
AcDbEntity
  8
IMPORT_IGES
100
AcDbPolyline
 62
253
  6
CONTINUOUS
 90
3
 70
0
 10
0.5833227655
 20
7.2213468442
 10
0.6597425587
 20
7.1050523934
 10
0.8904890731
 20
6.7586795433
  0
LINE
  5
672
100
AcDbEntity
  8
IMPORT_IGES
100
AcDbLine
 62
253
  6
CONTINUOUS
 10
0.8904890731
 20
6.7586795433
 11
0.9854315395
 21
6.6149631146
  0
LWPOLYLINE
  5
673
100
AcDbEntity
  8
0
100
AcDbPolyline
 62
7
  6
CONTINUOUS
 90
12
 70
0
 10
-9.2002014525
 20
24.3750024283
 10
-9.206394286
 20
24.3851625059
 10
-9.2130635487
 20
24.3950164051
 10
-9.2201941334
 20
24.4045418038
 10
-9.2277698853
 20
24.4137171191
 10
-9.2357736437
 20
24.4225215661
 10
-9.2441872781
 20
24.4309352005
 10
-9.2529917251
 20
24.4389389589
 10
-9.2621670403
 20
24.4465147107
 10
-9.271692439
 20
24.4536452955
 10
-9.2815463383
 20
24.4603145581
 10
-9.2917064159
 20
24.4665073916
  0
LWPOLYLINE
  5
674
100
AcDbEntity
  8
IMPORT_IGES
100
AcDbPolyline
 62
253
  6
CONTINUOUS
 90
7
 70
0
 10
2.4970803121
 20
6.6079380564
 10
2.4893120289
 20
6.6406444692
 10
2.4149533003
 20
7.0259348533
 10
2.3571353734
 20
7.4123350882
 10
2.3159798325
 20
7.7988177732
 10
2.2913650933
 20
8.1863440813
 10
2.2832911558
 20
8.5748812075
  0
LWPOLYLINE
  5
675
100
AcDbEntity
  8
IMPORT_IGES
100
AcDbPolyline
 62
253
  6
CONTINUOUS
 90
13
 70
0
 10
6.3692598662
 20
7.889550297
 10
6.3662543982
 20
7.916972422
 10
6.358247464
 20
7.9438444921
 10
6.3453739234
 20
7.9697139049
 10
6.3278506036
 20
7.9941449446
 10
6.3059726471
 20
8.0167261241
 10
6.2801085413
 20
8.0370771158
 10
6.2506939114
 20
8.054855152
 10
6.2182241838
 20
8.0697607987
 10
6.1832462414
 20
8.0815430022
 10
6.1463492127
 20
8.0900033166
 10
6.1081545488
 20
8.094999246
 10
6.069305557
 20
8.0964466446
  0
LWPOLYLINE
  5
676
100
AcDbEntity
  8
IMPORT_IGES
100
AcDbPolyline
 62
253
  6
CONTINUOUS
 90
3
 70
0
 10
6.3423093117
 20
9.4335465263
 10
6.3393515143
 20
9.4607326598
 10
6.3315208808
 20
9.4872718948
  0
LWPOLYLINE
  5
677
100
AcDbEntity
  8
RACCORDO
100
AcDbPolyline
 62
253
  6
CONTINUOUS
 90
10
 70
0
 10
6.9316081184
 20
8.7121305613
 10
6.9301373075
 20
8.7294621486
 10
6.9258666182
 20
8.7462691151
 10
6.9189253235
 20
8.7620427234
 10
6.9095235335
 20
8.776305516
 10
6.8979458365
 20
8.7886257666
 10
6.8845426844
 20
8.7986305488
 10
6.8697197841
 20
8.8060170253
 10
6.8539258167
 20
8.8105616136
 10
6.8376388563
 20
8.8121267536
  0
LWPOLYLINE
  5
678
100
AcDbEntity
  8
RACCORDO
100
AcDbPolyline
 62
7
  6
CONTINUOUS
 90
28
 70
0
 10
4.6793952982
 20
20.0
 10
4.6823351983
 20
19.9642315257
 10
4.6892202006
 20
19.9296571769
 10
4.700050305
 20
19.8962769536
 10
4.7151890649
 20
19.863484376
 10
4.7342729269
 20
19.8318859239
 10
4.7562112311
 20
19.8033010361
 10
4.7810180957
 20
19.7781461027
 10
4.8086794026
 20
19.7560047336
 10
4.8380621368
 20
19.7374471981
 10
4.8691761293
 20
19.7225714162
 10
4.9020115493
 20
19.711279468
 10
4.9354058889
 20
19.7038478629
 10
4.9693656875
 20
19.700369474
 10
5.0038844058
 20
19.7007514282
 10
5.0377799178
 20
19.7049916165
 10
5.071049057
 20
19.7131847478
 10
5.10369499
 20
19.7252361131
 10
5.1345450904
 20
19.7408594762
 10
5.1635866137
 20
19.7601467214
 10
5.1908323045
 20
19.7830059645
 10
5.2151477697
 20
19.8088753167
 10
5.2365230794
 20
19.8382319916
 10
5.2549681637
 20
19.8705987757
 10
5.2693784192
 20
19.9039821386
 10
5.2793856449
 20
19.9377175705
 10
5.2853580419
 20
19.9724695812
 10
5.2872956101
 20
20.0082381709
  0
LINE
  5
679
100
AcDbEntity
  8
DRAFT
100
AcDbLine
 62
7
  6
CONTINUOUS
 10
7.5953961429
 20
-16.2
 11
7.6327504834
 21
-16.6548771492
  0
LINE
  5
67A
100
AcDbEntity
  8
RACCORDO
100
AcDbLine
 62
253
  6
CONTINUOUS
 10
5.4492343782
 20
16.9004479216
 11
5.2872956101
 21
20.0082381709
  0
LINE
  5
67B
100
AcDbEntity
  8
RACCORDO
100
AcDbLine
 62
7
  6
CONTINUOUS
 10
7.7318938662
 20
-7.2979240454
 11
7.7322416601
 21
-7.3061522842
  0
LWPOLYLINE
  5
67C
100
AcDbEntity
  8
RACCORDO
100
AcDbPolyline
 62
7
  6
CONTINUOUS
 90
25
 70
0
 10
7.5332911558
 20
-15.8055387995
 10
7.5326260515
 20
-15.7859271404
 10
7.5307045795
 20
-15.7665635256
 10
7.52752674
 20
-15.747447955
 10
7.5230682344
 20
-15.7285009247
 10
7.5173533612
 20
-15.7098019387
 10
7.5104550156
 20
-15.6915895091
 10
7.5023580375
 20
-15.6738698685
 10
7.493077587
 20
-15.6566367843
 10
7.4827320395
 20
-15.6401100705
 10
7.4713077513
 20
-15.6242987755
 10
7.458818366
 20
-15.6091938509
 10
7.4454231902
 20
-15.5949879652
 10
7.4311106208
 20
-15.5816926349
 10
7.4158922608
 20
-15.5692963437
 10
7.3999622257
 20
-15.5579572103
 10
7.3833113992
 20
-15.547688777
 10
7.3659488975
 20
-15.5384775016
 10
7.3480961856
 20
-15.5304408771
 10
7.3297469837
 20
-15.5235939508
 10
7.3109075716
 20
-15.5179216754
 10
7.2918182524
 20
-15.5134964028
 10
7.2725591273
 20
-15.5103422504
 10
7.2530500951
 20
-15.5084351008
 10
7.2332911558
 20
-15.507774954
  0
LINE
  5
67D
100
AcDbEntity
  8
RACCORDO
100
AcDbLine
 62
7
  6
CONTINUOUS
 10
7.7322416601
 20
-7.3061522842
 11
7.7325573907
 21
-7.3155310993
  0
LWPOLYLINE
  5
67E
100
AcDbEntity
  8
0
100
AcDbPolyline
 62
253
  6
CONTINUOUS
 90
34
 70
0
 10
5.3376629898
 20
23.8443375673
 10
5.3379796406
 20
23.8340547998
 10
5.3388598023
 20
23.8237952398
 10
5.3403014886
 20
23.8135820427
 10
5.3423014457
 20
23.803438259
 10
5.3448551597
 20
23.7933867826
 10
5.3479568671
 20
23.7834502991
 10
5.3515995675
 20
23.7736512346
 10
5.3557750395
 20
23.764011705
 10
5.3604738594
 20
23.7545534661
 10
5.3656854223
 20
23.7452978646
 10
5.3713979658
 20
23.7362657898
 10
5.3775985972
 20
23.7274776267
 10
5.3842733219
 20
23.7189532096
 10
5.3914070756
 20
23.7107117775
 10
5.3989837577
 20
23.702771931
 10
5.4069862681
 20
23.6951515897
 10
5.4153965457
 20
23.6878679524
 10
5.424195609
 20
23.6809374578
 10
5.4333635989
 20
23.6743757476
 10
5.4428798238
 20
23.6681976311
 10
5.4527228063
 20
23.6624170521
 10
5.4628703313
 20
23.6570470569
 10
5.4732994963
 20
23.6520997654
 10
5.4839867635
 20
23.6475863432
 10
5.4949080122
 20
23.6435169769
 10
5.5060385939
 20
23.6399008509
 10
5.5173533875
 20
23.6367461264
 10
5.5288268562
 20
23.6340599235
 10
5.5404331049
 20
23.6318483049
 10
5.5521459392
 20
23.630116262
 10
5.5639389239
 20
23.6288677039
 10
5.5757854428
 20
23.6281054486
 10
5.5876587591
 20
23.6278312164
  0
LWPOLYLINE
  5
67F
100
AcDbEntity
  8
0
100
AcDbPolyline
 62
253
  6
CONTINUOUS
 90
34
 70
0
 10
8.2289193218
 20
-23.8443375673
 10
8.2286026598
 20
-23.8340546062
 10
8.2277224656
 20
-23.823794854
 10
8.2262807258
 20
-23.8135814673
 10
8.2242806957
 20
-23.8034375035
 10
8.2217268887
 20
-23.7933858521
 10
8.2186250633
 20
-23.7834491834
 10
8.2149822126
 20
-23.773649913
 10
8.2108065597
 20
-23.7640101717
 10
8.2061075374
 20
-23.7545517387
 10
8.2008957574
 20
-23.7452959695
 10
8.1951829797
 20
-23.7362637463
 10
8.1889820966
 20
-23.7274754512
 10
8.1823071029
 20
-23.7189509186
 10
8.1751730654
 20
-23.7107093898
 10
8.1675960858
 20
-23.7027694659
 10
8.1595932662
 20
-23.6951490678
 10
8.1511826691
 20
-23.6878653946
 10
8.1423832766
 20
-23.680934885
 10
8.1332149507
 20
-23.6743731824
 10
8.1236983832
 20
-23.6681950956
 10
8.113855047
 20
-23.6624145653
 10
8.1037071457
 20
-23.6570446328
 10
8.0932775948
 20
-23.6520974265
 10
8.0825899671
 20
-23.6475841265
 10
8.0716684072
 20
-23.6435149235
 10
8.0605375475
 20
-23.6398989896
 10
8.0492224839
 20
-23.6367444758
 10
8.0377484619
 20
-23.6340584395
 10
8.0261416645
 20
-23.6318470295
 10
8.0144291556
 20
-23.630115347
 10
8.0026376786
 20
-23.6288672183
 10
7.9907935679
 20
-23.6281053043
 10
7.9789235526
 20
-23.6278312164
  0
LINE
  5
680
100
AcDbEntity
  8
RACCORDO
100
AcDbLine
 62
7
  6
CONTINUOUS
 10
7.7325573907
 20
-7.3155310993
 11
7.7328353031
 21
-7.3262031055
  0
LINE
  5
681
100
AcDbEntity
  8
IMPORT_IGES
100
AcDbLine
 62
253
  6
CONTINUOUS
 10
6.0717740766
 20
7.7428932182
 11
6.0779617809
 21
7.3883998778
  0
LINE
  5
682
100
AcDbEntity
  8
IMPORT_IGES
100
AcDbLine
 62
253
  6
CONTINUOUS
 10
6.0423536756
 20
9.6404371412
 11
6.0693055576
 21
8.0964466092
  0
LINE
  5
683
100
AcDbEntity
  8
IMPORT_IGES
100
AcDbLine
 62
7
  6
CONTINUOUS
 10
6.5060124503
 20
-0.055
 11
6.3933068034
 21
6.4019021835
  0
LINE
  5
684
100
AcDbEntity
  8
IMPORT_IGES
100
AcDbLine
 62
7
  6
CONTINUOUS
 10
6.3952258119
 20
6.4019622604
 11
6.3397969392
 21
9.5774802551
  0
LINE
  5
685
100
AcDbEntity
  8
IMPORT_IGES
100
AcDbLine
 62
253
  6
CONTINUOUS
 10
6.0934410238
 20
6.3924136332
 11
6.2053466902
 21
-0.054999921
  0
LWPOLYLINE
  5
686
100
AcDbEntity
  8
RACCORDO
100
AcDbPolyline
 62
7
  6
CONTINUOUS
 90
3
 70
0
 10
7.7328353031
 20
-7.3262031055
 10
7.7330686366
 20
-7.338547293
 10
7.7331581654
 20
-7.3453783786
  0
LINE
  5
687
100
AcDbEntity
  8
IMPORT_IGES
100
AcDbLine
 62
7
  6
CONTINUOUS
 10
6.0693055576
 20
8.0964466092
 11
6.0717742244
 21
7.7428932188
  0
LINE
  5
688
100
AcDbEntity
  8
DRAFT
100
AcDbLine
 62
7
  6
CONTINUOUS
 10
7.6327504834
 20
-16.6548771492
 11
7.6386896334
 21
-19.4260209733
  0
LINE
  5
689
100
AcDbEntity
  8
DRAFT
100
AcDbLine
 62
253
  6
CONTINUOUS
 10
6.1498606577
 20
21.4537354271
 11
6.1498606577
 21
20.9
  0
LINE
  5
68A
100
AcDbEntity
  8
DRAFT
100
AcDbLine
 62
253
  6
CONTINUOUS
 10
6.1498606577
 20
-20.9
 11
6.1498606577
 21
-21.4537354271
  0
LINE
  5
68B
100
AcDbEntity
  8
DRAFT
100
AcDbLine
 62
7
  6
CONTINUOUS
 10
6.3332911558
 20
21.4
 11
6.3332911558
 21
20.9
  0
LINE
  5
68C
100
AcDbEntity
  8
DRAFT
100
AcDbLine
 62
7
  6
CONTINUOUS
 10
6.3332911558
 20
-20.9
 11
6.3332911558
 21
-21.4
  0
LINE
  5
68D
100
AcDbEntity
  8
DRAFT
100
AcDbLine
 62
7
  6
CONTINUOUS
 10
6.4158374203
 20
-8.1825462644
 11
6.4158374203
 21
-9.5825462644
  0
LINE
  5
68E
100
AcDbEntity
  8
RACCORDO
100
AcDbLine
 62
7
  6
CONTINUOUS
 10
6.4332911558
 20
7.9
 11
6.4332911558
 21
5.9999961923
  0
LINE
  5
68F
100
AcDbEntity
  8
DRAFT
100
AcDbLine
 62
7
  6
CONTINUOUS
 10
6.4332911558
 20
-8.2
 11
6.4332911558
 21
-9.6
  0
LINE
  5
690
100
AcDbEntity
  8
DRAFT
100
AcDbLine
 62
7
  6
CONTINUOUS
 10
6.4951276655
 20
-12.5132676422
 11
6.4951276655
 21
-15.5
  0
LINE
  5
691
100
AcDbEntity
  8
RACCORDO
100
AcDbLine
 62
253
  6
CONTINUOUS
 10
6.6497003321
 20
-12.410978333
 11
6.6497003321
 21
-11.5
  0
LINE
  5
692
100
AcDbEntity
  8
RACCORDO
100
AcDbLine
 62
253
  6
CONTINUOUS
 10
6.6497003321
 20
-8.110978333
 11
6.6497003321
 21
-7.289021667
  0
LINE
  5
693
100
AcDbEntity
  8
RACCORDO
100
AcDbLine
 62
253
  6
CONTINUOUS
 10
6.6497003321
 20
-0.410978333
 11
6.6497003321
 21
0.410978333
  0
LINE
  5
694
100
AcDbEntity
  8
RACCORDO
100
AcDbLine
 62
253
  6
CONTINUOUS
 10
6.6497003321
 20
7.989021667
 11
6.6497003321
 21
8.810978333
  0
LINE
  5
695
100
AcDbEntity
  8
RACCORDO
100
AcDbLine
 62
253
  6
CONTINUOUS
 10
6.9316081184
 20
-12.3121305613
 11
6.9316081184
 21
-11.5
  0
LINE
  5
696
100
AcDbEntity
  8
RACCORDO
100
AcDbLine
 62
253
  6
CONTINUOUS
 10
6.9316081184
 20
-8.0121305613
 11
6.9316081184
 21
-7.3878694387
  0
LINE
  5
697
100
AcDbEntity
  8
RACCORDO
100
AcDbLine
 62
253
  6
CONTINUOUS
 10
6.9316081184
 20
-0.3121305613
 11
6.9316081184
 21
0.3121305613
  0
LINE
  5
698
100
AcDbEntity
  8
RACCORDO
100
AcDbLine
 62
253
  6
CONTINUOUS
 10
6.9316081184
 20
8.0878694387
 11
6.9316081184
 21
8.7121305613
  0
LINE
  5
699
100
AcDbEntity
  8
RACCORDO
100
AcDbLine
 62
7
  6
CONTINUOUS
 10
7.5332911558
 20
-15.8055387995
 11
7.5332911558
 21
-16.4129962748
  0
LINE
  5
69A
100
AcDbEntity
  8
RACCORDO
100
AcDbLine
 62
7
  6
CONTINUOUS
 10
7.5832911558
 20
-15.9999428868
 11
7.5832911558
 21
-16.2
  0
LINE
  5
69B
100
AcDbEntity
  8
DRAFT
100
AcDbLine
 62
7
  6
CONTINUOUS
 10
7.5953961429
 20
-16.2
 11
7.5953961429
 21
-12.5
  0
LINE
  5
69C
100
AcDbEntity
  8
DRAFT
100
AcDbLine
 62
7
  6
CONTINUOUS
 10
7.5953961429
 20
-11.5
 11
7.5953961429
 21
-8.2
  0
LINE
  5
69D
100
AcDbEntity
  8
DRAFT
100
AcDbLine
 62
7
  6
CONTINUOUS
 10
7.5953961429
 20
-7.2
 11
7.5953961429
 21
-0.5
  0
LINE
  5
69E
100
AcDbEntity
  8
DRAFT
100
AcDbLine
 62
7
  6
CONTINUOUS
 10
7.5953961429
 20
0.5
 11
7.5953961429
 21
7.9
  0
LINE
  5
69F
100
AcDbEntity
  8
DRAFT
100
AcDbLine
 62
7
  6
CONTINUOUS
 10
7.5953961429
 20
8.9
 11
7.5953961429
 21
12.5132676422
  0
LINE
  5
6A0
100
AcDbEntity
  8
IMPORT_IGES
100
AcDbLine
 62
7
  6
CONTINUOUS
 10
6.0706485546
 20
-7.8451539698
 11
6.0683001332
 21
-8.181503769
  0
LINE
  5
6A1
100
AcDbEntity
  8
IMPORT_IGES
100
AcDbLine
 62
253
  6
CONTINUOUS
 10
6.0392103352
 20
-9.8493178939
 11
6.0389056487
 21
-9.8895873508
  0
LINE
  5
6A2
100
AcDbEntity
  8
DRAFT
100
AcDbLine
 62
7
  6
CONTINUOUS
 10
6.4791812608
 20
-13.9789941101
 11
6.4951276655
 21
-12.5132676422
  0
LINE
  5
6A3
100
AcDbEntity
  8
IMPORT_IGES
100
AcDbLine
 62
253
  6
CONTINUOUS
 10
6.2026759709
 20
-0.2710821499
 11
6.2053466902
 21
-0.054999921
  0
LINE
  5
6A4
100
AcDbEntity
  8
DRAFT
100
AcDbLine
 62
7
  6
CONTINUOUS
 10
6.4696021082
 20
-14.7112543736
 11
6.4791812608
 21
-13.9789941101
  0
LINE
  5
6A5
100
AcDbEntity
  8
RACCORDO
100
AcDbLine
 62
7
  6
CONTINUOUS
 10
7.7331811674
 20
8.0474657157
 11
7.733010173
 21
8.0350894166
  0
LINE
  5
6A6
100
AcDbEntity
  8
IMPORT_IGES
100
AcDbLine
 62
7
  6
CONTINUOUS
 10
6.2026759709
 20
-0.2710821499
 11
6.1900233463
 21
-1.091987288
  0
LINE
  5
6A7
100
AcDbEntity
  8
IMPORT_IGES
100
AcDbLine
 62
253
  6
CONTINUOUS
 10
6.1248693409
 20
-4.7388424615
 11
6.0706485546
 21
-7.8451539653
  0
LINE
  5
6A8
100
AcDbEntity
  8
IMPORT_IGES
100
AcDbLine
 62
253
  6
CONTINUOUS
 10
6.1900233463
 20
-1.091987288
 11
6.1363158341
 21
-4.1688797904
  0
LINE
  5
6A9
100
AcDbEntity
  8
IMPORT_IGES
100
AcDbLine
 62
253
  6
CONTINUOUS
 10
6.0683001637
 20
-8.181503443
 11
6.0392103352
 21
-9.8493178939
  0
LINE
  5
6AA
100
AcDbEntity
  8
IMPORT_IGES
100
AcDbLine
 62
7
  6
CONTINUOUS
 10
6.3384397124
 20
-9.6552357219
 11
6.5060124503
 21
-0.055
  0
LINE
  5
6AB
100
AcDbEntity
  8
IMPORT_IGES
100
AcDbLine
 62
253
  6
CONTINUOUS
 10
6.1363158341
 20
-4.1688797904
 11
6.1248693409
 21
-4.7388424615
  0
LINE
  5
6AC
100
AcDbEntity
  8
RACCORDO
100
AcDbLine
 62
7
  6
CONTINUOUS
 10
6.140517504
 20
-15.6047893388
 11
6.1177828605
 21
-16.6548771492
  0
LINE
  5
6AD
100
AcDbEntity
  8
DRAFT
100
AcDbLine
 62
7
  6
CONTINUOUS
 10
6.33803417
 20
-15.507774954
 11
6.3184359194
 21
-16.4129962748
  0
LINE
  5
6AE
100
AcDbEntity
  8
RACCORDO
100
AcDbLine
 62
7
  6
CONTINUOUS
 10
7.733010173
 20
8.0350894166
 11
7.7327908558
 21
8.0242173054
  0
LINE
  5
6AF
100
AcDbEntity
  8
RACCORDO
100
AcDbLine
 62
7
  6
CONTINUOUS
 10
7.7327908558
 20
8.0242173054
 11
7.732533949
 21
8.0147604388
  0
LWPOLYLINE
  5
6B0
100
AcDbEntity
  8
0
100
AcDbPolyline
 62
253
  6
CONTINUOUS
 90
34
 70
0
 10
5.3376629898
 20
-23.8443375673
 10
5.337979117
 20
-23.8340637895
 10
5.3388580293
 20
-23.8238108791
 10
5.3402981208
 20
-23.8136019692
 10
5.3422966868
 20
-23.8034593699
 10
5.3448495027
 20
-23.7934067803
 10
5.3479504228
 20
-23.7834691596
 10
5.3515921308
 20
-23.7736697274
 10
5.3557666362
 20
-23.7640297916
 10
5.3604646168
 20
-23.7545709211
 10
5.3656755733
 20
-23.7453143541
 10
5.3713877145
 20
-23.7362811256
 10
5.3775880467
 20
-23.7274918143
 10
5.3842625228
 20
-23.7189663226
 10
5.3913961206
 20
-23.7107238287
 10
5.3989727546
 20
-23.7027829214
 10
5.4069753368
 20
-23.6951615168
 10
5.4153857951
 20
-23.6878768325
 10
5.4241851275
 20
-23.6809453292
 10
5.4333534644
 20
-23.6743826581
 10
5.4428701162
 20
-23.6682036281
 10
5.4527136013
 20
-23.6624221869
 10
5.4628617001
 20
-23.6570513849
 10
5.4732915049
 20
-23.6521033459
 10
5.4839794723
 20
-23.6475892394
 10
5.494901489
 20
-23.6435192505
 10
5.5060328881
 20
-23.6399025721
 10
5.5173485025
 20
-23.6367473785
 10
5.5288227604
 20
-23.6340607927
 10
5.5404297861
 20
-23.6318488662
 10
5.5521434198
 20
-23.6301165815
 10
5.5639372347
 20
-23.6288678476
 10
5.5757845953
 20
-23.6281054856
 10
5.5876587591
 20
-23.6278312164
  0
LWPOLYLINE
  5
6B1
100
AcDbEntity
  8
0
100
AcDbPolyline
 62
253
  6
CONTINUOUS
 90
34
 70
0
 10
8.2289193218
 20
23.8443375673
 10
8.2286026711
 20
23.8340547998
 10
8.2277225094
 20
23.8237952398
 10
8.2262808231
 20
23.8135820427
 10
8.224280866
 20
23.803438259
 10
8.221727152
 20
23.7933867826
 10
8.2186254446
 20
23.7834502991
 10
8.2149827442
 20
23.7736512346
 10
8.2108072722
 20
23.764011705
 10
8.2061084522
 20
23.7545534661
 10
8.2008968894
 20
23.7452978646
 10
8.1951843459
 20
23.7362657898
 10
8.1889837145
 20
23.7274776267
 10
8.1823089898
 20
23.7189532096
 10
8.1751752361
 20
23.7107117775
 10
8.167598554
 20
23.702771931
 10
8.1595960436
 20
23.6951515897
 10
8.151185766
 20
23.6878679524
 10
8.1423867027
 20
23.6809374578
 10
8.1332187128
 20
23.6743757476
 10
8.1237024878
 20
23.6681976311
 10
8.1138595054
 20
23.6624170521
 10
8.1037119804
 20
23.6570470569
 10
8.0932828154
 20
23.6520997654
 10
8.0825955482
 20
23.6475863432
 10
8.0716742995
 20
23.6435169769
 10
8.0605437178
 20
23.6399008509
 10
8.0492289242
 20
23.6367461264
 10
8.0377554555
 20
23.6340599235
 10
8.0261492067
 20
23.6318483049
 10
8.0144363724
 20
23.630116262
 10
8.0026433878
 20
23.6288677039
 10
7.9907968689
 20
23.6281054486
 10
7.9789235526
 20
23.6278312164
  0
LINE
  5
6B2
100
AcDbEntity
  8
RACCORDO
100
AcDbLine
 62
7
  6
CONTINUOUS
 10
7.732533949
 20
8.0147604388
 11
7.7322462237
 21
8.0062982433
  0
LWPOLYLINE
  5
6B3
100
AcDbEntity
  8
RACCORDO
100
AcDbPolyline
 62
7
  6
CONTINUOUS
 90
19
 70
0
 10
7.7322462237
 20
8.0062982433
 10
7.7319359803
 20
7.99881926
 10
7.7317734699
 20
7.995440104
 10
7.7316061114
 20
7.9922557779
 10
7.7314341664
 20
7.9892592511
 10
7.7312573732
 20
7.9864575542
 10
7.7310752727
 20
7.9838284828
 10
7.7308878705
 20
7.9813642873
 10
7.730695161
 20
7.9790727175
 10
7.730496668
 20
7.9769548174
 10
7.7302923606
 20
7.9750048208
 10
7.7300822696
 20
7.9732284941
 10
7.7298660122
 20
7.9716441803
 10
7.7296435524
 20
7.9702466061
 10
7.7294149261
 20
7.9690410449
 10
7.7291798576
 20
7.9680616597
 10
7.7289382548
 20
7.9673198384
 10
7.7286902098
 20
7.966804193
 10
7.7284357224
 20
7.9665147237
  0
LINE
  5
6B4
100
AcDbEntity
  8
RACCORDO
100
AcDbLine
 62
253
  6
CONTINUOUS
 10
5.2872956101
 20
-20.0082381709
 11
5.4329598628
 21
-17.2127744921
  0
LWPOLYLINE
  5
6B5
100
AcDbEntity
  8
RACCORDO
100
AcDbPolyline
 62
7
  6
CONTINUOUS
 90
16
 70
0
 10
5.5827835346
 20
-13.4995114173
 10
5.5800314579
 20
-13.5515847233
 10
5.5718427645
 20
-13.6031980114
 10
5.5582729109
 20
-13.6537813358
 10
5.5393987459
 20
-13.7028560025
 10
5.5154166193
 20
-13.7497744512
 10
5.4867297903
 20
-13.793771773
 10
5.4538307958
 20
-13.834247462
 10
5.4170218757
 20
-13.8709631056
 10
5.3764964037
 20
-13.9037372273
 10
5.3325214061
 20
-13.9322683069
 10
5.2856853769
 20
-13.9560947515
 10
5.2366900594
 20
-13.974852899
 10
5.1861536824
 20
-13.9883466831
 10
5.1345709937
 20
-13.996482683
 10
5.0825085995
 20
-13.9991984052
  0
LWPOLYLINE
  5
6B6
100
AcDbEntity
  8
RACCORDO
100
AcDbPolyline
 62
253
  6
CONTINUOUS
 90
10
 70
0
 10
6.9316081184
 20
8.0878694387
 10
6.9301373095
 20
8.0705378636
 10
6.9258666253
 20
8.0537309055
 10
6.9189253368
 20
8.0379573012
 10
6.9095235531
 20
8.0236945089
 10
6.8979458606
 20
8.011374255
 10
6.8845427095
 20
8.0013694667
 10
6.8697198056
 20
7.9939829831
 10
6.8539258296
 20
7.9894383889
 10
6.8376388563
 20
7.9878732464
  0
LWPOLYLINE
  5
6B7
100
AcDbEntity
  8
IMPORT_IGES
100
AcDbPolyline
 62
253
  6
CONTINUOUS
 90
13
 70
0
 10
6.3682544737
 20
-7.9471491959
 10
6.3652651142
 20
-7.9776936873
 10
6.3574445423
 20
-8.0075637696
 10
6.3449632246
 20
-8.0362803816
 10
6.3281566897
 20
-8.0632639468
 10
6.3072825424
 20
-8.0882419742
 10
6.2823205991
 20
-8.1111512626
 10
6.2533705408
 20
-8.131644537
 10
6.2209428728
 20
-8.1491330585
 10
6.1856176453
 20
-8.1631639067
 10
6.1479975404
 20
-8.173397706
 10
6.1086687423
 20
-8.1795798105
 10
6.0683111501
 20
-8.1815038383
  0
LWPOLYLINE
  5
6B8
100
AcDbEntity
  8
IMPORT_IGES
100
AcDbPolyline
 62
7
  6
CONTINUOUS
 90
31
 70
0
 10
3.7032083376
 20
-7.9542999891
 10
3.7127649322
 20
-7.922756117
 10
3.7217065659
 20
-7.8901064173
 10
3.7300332386
 20
-7.8563508899
 10
3.7376607115
 20
-7.8214985077
 10
3.7446732235
 20
-7.7855402977
 10
3.7513234912
 20
-7.7484493415
 10
3.7576662069
 20
-7.7102202397
 10
3.7636466782
 20
-7.6708583916
 10
3.7693535454
 20
-7.6303530767
 10
3.7748021172
 20
-7.5887300614
 10
3.7799770847
 20
-7.5459635792
 10
3.7849211618
 20
-7.5019656105
 10
3.7896438126
 20
-7.4567451013
 10
3.7941355729
 20
-7.4102931056
 10
3.7984107637
 20
-7.362494765
 10
3.8024766054
 20
-7.3133424125
 10
3.8063258777
 20
-7.2628437151
 10
3.8099512401
 20
-7.2109068165
 10
3.8133575628
 20
-7.157533017
 10
3.8165399757
 20
-7.1027210163
 10
3.8194765281
 20
-7.0463750565
 10
3.8221721468
 20
-6.9884967653
 10
3.8246219051
 20
-6.9290845151
 10
3.8267890723
 20
-6.8680376657
 10
3.8286796657
 20
-6.8053539058
 10
3.8302876682
 20
-6.7410355467
 10
3.8315582966
 20
-6.6749888822
 10
3.8324732903
 20
-6.6071826768
 10
3.83305091
 20
-6.537648166
 10
3.8332911559
 20
-0.9746152423
  0
LINE
  5
6B9
100
AcDbEntity
  8
DRAFT
100
AcDbLine
 62
7
  6
CONTINUOUS
 10
-5.8867602235
 20
-16.8647171262
 11
-5.6861071646
 21
-16.6228362517
  0
LWPOLYLINE
  5
6BA
100
AcDbEntity
  8
IMPORT_IGES
100
AcDbPolyline
 62
253
  6
CONTINUOUS
 90
6
 70
0
 10
2.1191545272
 20
-8.2258481306
 10
2.1078567997
 20
-8.2387060172
 10
2.0987222403
 20
-8.2527446387
 10
2.0919662446
 20
-8.2677161561
 10
2.0877444298
 20
-8.2833895183
 10
2.0861855706
 20
-8.2994926932
  0
LWPOLYLINE
  5
6BB
100
AcDbEntity
  8
IMPORT_IGES
100
AcDbPolyline
 62
7
  6
CONTINUOUS
 90
6
 70
0
 10
2.2134620916
 20
-8.3802468276
 10
2.2183777274
 20
-8.3751999237
 10
2.2225742524
 20
-8.3697330298
 10
2.2263444642
 20
-8.3638189632
 10
2.2297311526
 20
-8.3574864738
 10
2.2324704976
 20
-8.3508013436
  0
LWPOLYLINE
  5
6BC
100
AcDbEntity
  8
IMPORT_IGES
100
AcDbPolyline
 62
253
  6
CONTINUOUS
 90
10
 70
0
 10
2.1797501091
 20
-6.0738230025
 10
2.1645904256
 20
-6.0806768718
 10
2.1493967463
 20
-6.0890249051
 10
2.1344976879
 20
-6.0987433064
 10
2.1203673857
 20
-6.1095241416
 10
2.1071431249
 20
-6.1212274948
 10
2.0947025508
 20
-6.133995988
 10
2.0832618386
 20
-6.1477248566
 10
2.0732500432
 20
-6.1619801113
 10
2.0648942204
 20
-6.1764291034
  0
LWPOLYLINE
  5
6BD
100
AcDbEntity
  8
IMPORT_IGES
100
AcDbPolyline
 62
253
  6
CONTINUOUS
 90
8
 70
0
 10
2.8332911558
 20
-5.8638753356
 10
2.831618685
 20
-5.8644360734
 10
2.8266522272
 20
-5.8649855454
 10
2.8185081784
 20
-5.8655147701
 10
2.807417667
 20
-5.8660127913
 10
2.7935578999
 20
-5.8664745945
 10
2.7769087022
 20
-5.8668992537
 10
2.7575239329
 20
-5.8672804328
  0
LINE
  5
6BE
100
AcDbEntity
  8
DRAFT
100
AcDbLine
 62
7
  6
CONTINUOUS
 10
-11.4288138312
 20
-11.5
 11
-11.5667088442
 21
-11.5459608555
  0
LWPOLYLINE
  5
6BF
100
AcDbEntity
  8
IMPORT_IGES
100
AcDbPolyline
 62
253
  6
CONTINUOUS
 90
5
 70
0
 10
-9.4271075193
 20
-10.2315408155
 10
-9.4379991383
 20
-10.2347314447
 10
-9.4483226427
 20
-10.2355499646
 10
-9.4579260128
 20
-10.2340693152
 10
-9.4667088442
 20
-10.2303491697
  0
LINE
  5
6C0
100
AcDbEntity
  8
IMPORT_IGES
100
AcDbLine
 62
253
  6
CONTINUOUS
 10
2.2249579016
 20
6.969602164
 11
2.0280044991
 21
6.9348263547
  0
LWPOLYLINE
  5
6C1
100
AcDbEntity
  8
IMPORT_IGES
100
AcDbPolyline
 62
253
  6
CONTINUOUS
 90
3
 70
0
 10
5.236091831
 20
8.0918478418
 10
5.2601859174
 20
8.09523673
 10
5.2862911558
 20
8.0964466093
  0
LINE
  5
6C2
100
AcDbEntity
  8
IMPORT_IGES
100
AcDbLine
 62
253
  6
CONTINUOUS
 10
2.1200470905
 20
7.7606570943
 11
1.9208375407
 21
7.7428932188
  0
LINE
  5
6C3
100
AcDbEntity
  8
IMPORT_IGES
100
AcDbLine
 62
7
  6
CONTINUOUS
 10
6.3907189076
 20
6.401794473
 11
6.3933064778
 21
6.4019208396
  0
LWPOLYLINE
  5
6C4
100
AcDbEntity
  8
IMPORT_IGES
100
AcDbPolyline
 62
7
  6
CONTINUOUS
 90
3
 70
0
 10
2.5832911558
 20
6.344599476
 10
2.5858809549
 20
6.344697702
 10
2.5935871444
 20
6.3447576036
  0
LINE
  5
6C5
100
AcDbEntity
  8
IMPORT_IGES
100
AcDbLine
 62
7
  6
CONTINUOUS
 10
6.2436265111
 20
6.3970812158
 11
6.3907189076
 21
6.401794473
  0
LINE
  5
6C6
100
AcDbEntity
  8
IMPORT_IGES
100
AcDbLine
 62
7
  6
CONTINUOUS
 10
6.0931228205
 20
6.3924587123
 11
6.2436265111
 21
6.3970812158
  0
LINE
  5
6C7
100
AcDbEntity
  8
IMPORT_IGES
100
AcDbLine
 62
253
  6
CONTINUOUS
 10
6.3717283851
 20
7.7481289397
 11
6.0717740766
 21
7.7428932184
  0
LINE
  5
6C8
100
AcDbEntity
  8
IMPORT_IGES
100
AcDbLine
 62
7
  6
CONTINUOUS
 10
-6.4192987049
 20
6.344593207
 11
-6.4167088442
 21
6.3446238705
  0
LINE
  5
6C9
100
AcDbEntity
  8
IMPORT_IGES
100
AcDbLine
 62
7
  6
CONTINUOUS
 10
-6.7167080257
 20
6.3440525646
 11
-6.4192987049
 21
6.344593207
  0
LINE
  5
6CA
100
AcDbEntity
  8
IMPORT_IGES
100
AcDbLine
 62
7
  6
CONTINUOUS
 10
2.2048885319
 20
7.088305283
 11
2.3481542394
 21
7.088305283
  0
LINE
  5
6CB
100
AcDbEntity
  8
IMPORT_IGES
100
AcDbLine
 62
7
  6
CONTINUOUS
 10
-6.0426330163
 20
7.088305283
 11
-6.1815719278
 21
7.088305283
  0
LWPOLYLINE
  5
6CC
100
AcDbEntity
  8
IMPORT_IGES
100
AcDbPolyline
 62
7
  6
CONTINUOUS
 90
3
 70
0
 10
2.5935871444
 20
6.3447576036
 10
2.6236138201
 20
6.3447526878
 10
2.8832898398
 20
6.3440741648
  0
LINE
  5
6CD
100
AcDbEntity
  8
IMPORT_IGES
100
AcDbLine
 62
7
  6
CONTINUOUS
 10
-9.9267940567
 20
6.3966544877
 11
-10.226724564
 21
6.4018980425
  0
LINE
  5
6CE
100
AcDbEntity
  8
IMPORT_IGES
100
AcDbLine
 62
253
  6
CONTINUOUS
 10
-9.9051917654
 20
7.7428931884
 11
-10.2051460734
 21
7.7481289407
  0
LINE
  5
6CF
100
AcDbEntity
  8
IMPORT_IGES
100
AcDbLine
 62
253
  6
CONTINUOUS
 10
-5.9534647788
 20
7.7606570943
 11
-5.7542552337
 21
7.7428931668
  0
LWPOLYLINE
  5
6D0
100
AcDbEntity
  8
IMPORT_IGES
100
AcDbPolyline
 62
253
  6
CONTINUOUS
 90
3
 70
0
 10
-9.069516443
 20
8.0918488157
 10
-9.0936036057
 20
8.0952367301
 10
-9.1197088442
 20
8.0964466094
  0
LINE
  5
6D1
100
AcDbEntity
  8
IMPORT_IGES
100
AcDbLine
 62
253
  6
CONTINUOUS
 10
-5.8614221866
 20
6.9348263546
 11
-6.0583755899
 21
6.969602164
  0
LWPOLYLINE
  5
6D2
100
AcDbEntity
  8
IMPORT_IGES
100
AcDbPolyline
 62
253
  6
CONTINUOUS
 90
13
 70
0
 10
-8.7955061878
 20
10.9499999605
 10
-8.7906452533
 20
10.9483482818
 10
-8.785781735
 20
10.9433050758
 10
-8.7810452559
 20
10.934870884
 10
-8.7766013301
 20
10.9233474054
 10
-8.7725189505
 20
10.9090230944
 10
-8.7687914942
 20
10.8918768852
 10
-8.765520653
 20
10.8723311633
 10
-8.7627811528
 20
10.8508931723
 10
-8.7605703765
 20
10.8274819445
 10
-8.758946865
 20
10.8024811356
 10
-8.7579673362
 20
10.7768212403
 10
-8.7576275344
 20
10.7512228026
  0
LWPOLYLINE
  5
6D3
100
AcDbEntity
  8
IMPORT_IGES
100
AcDbPolyline
 62
253
  6
CONTINUOUS
 90
15
 70
0
 10
0.5833227655
 20
7.2213468442
 10
0.8044253655
 20
7.035276942
 10
1.0065821936
 20
6.8589051878
 10
1.1897932497
 20
6.6922315817
 10
1.3493663851
 20
6.5405031184
 10
1.4899937487
 20
6.3984728032
 10
1.6257517864
 20
6.2503996519
 10
1.7629638741
 20
6.0904283039
 10
1.895306636
 20
5.9244141198
 10
2.0178863917
 20
5.7541821976
 10
2.1300906596
 20
5.5788155462
 10
2.2325319212
 20
5.3992311567
 10
2.3221539402
 20
5.2200050999
 10
2.3979853171
 20
5.0450586035
 10
2.4491543417
 20
4.903284227
  0
LWPOLYLINE
  5
6D4
100
AcDbEntity
  8
RACCORDO
100
AcDbPolyline
 62
7
  6
CONTINUOUS
 90
16
 70
0
 10
7.7284357224
 20
0.4334852763
 10
7.7287200798
 20
0.4331371058
 10
7.7289962557
 20
0.4325128088
 10
7.7292642504
 20
0.4316123854
 10
7.7295238977
 20
0.4304209506
 10
7.7297753637
 20
0.4289533894
 10
7.7300191465
 20
0.4272543565
 10
7.730255205
 20
0.4253322663
 10
7.7304835804
 20
0.4231787046
 10
7.7307048942
 20
0.4208130833
 10
7.7309190524
 20
0.4182466499
 10
7.7311261491
 20
0.415468157
 10
7.7313270883
 20
0.4124632741
 10
7.7315222282
 20
0.4092402963
 10
7.7317112107
 20
0.4057909285
 10
7.7318938662
 20
0.4020759546
  0
LINE
  5
6D5
100
AcDbEntity
  8
RACCORDO
100
AcDbLine
 62
7
  6
CONTINUOUS
 10
7.7318938662
 20
0.4020759546
 11
7.7322416601
 21
0.3938477158
  0
LINE
  5
6D6
100
AcDbEntity
  8
RACCORDO
100
AcDbLine
 62
7
  6
CONTINUOUS
 10
7.7319418995
 20
8.8010518863
 11
7.7322514316
 21
8.7935629412
  0
LINE
  5
6D7
100
AcDbEntity
  8
RACCORDO
100
AcDbLine
 62
7
  6
CONTINUOUS
 10
7.7322514316
 20
8.7935629412
 11
7.732538707
 21
8.7850830864
  0
LINE
  5
6D8
100
AcDbEntity
  8
RACCORDO
100
AcDbLine
 62
7
  6
CONTINUOUS
 10
7.7322416601
 20
0.3938477158
 11
7.7325573907
 21
0.3844689007
  0
LINE
  5
6D9
100
AcDbEntity
  8
RACCORDO
100
AcDbLine
 62
7
  6
CONTINUOUS
 10
7.732538707
 20
8.7850830864
 11
7.7327950747
 21
8.775598696
  0
LINE
  5
6DA
100
AcDbEntity
  8
RACCORDO
100
AcDbLine
 62
7
  6
CONTINUOUS
 10
7.7325573907
 20
0.3844689007
 11
7.7328353031
 21
0.3737968945
  0
LWPOLYLINE
  5
6DB
100
AcDbEntity
  8
0
100
AcDbPolyline
 62
7
  6
CONTINUOUS
 90
34
 70
0
 10
8.2289193218
 20
24.2456323968
 10
8.228635693
 20
24.2575290557
 10
8.2277862529
 20
24.269398774
 10
8.2263729241
 20
24.2812146563
 10
8.2243989055
 20
24.292949936
 10
8.2218686684
 20
24.3045780153
 10
8.2187879498
 20
24.3160725264
 10
8.2151637327
 20
24.3274074189
 10
8.2110042284
 20
24.3385570152
 10
8.2063188641
 20
24.3494960488
 10
8.2011182564
 20
24.3601997352
 10
8.1954141912
 20
24.3706438204
 10
8.1892195989
 20
24.3808046326
 10
8.1825485188
 20
24.3906591487
 10
8.1754160677
 20
24.4001850429
 10
8.1678384112
 20
24.4093607299
 10
8.1598327171
 20
24.4181654255
 10
8.1514171308
 20
24.4265791771
 10
8.1426107393
 20
24.4345829086
 10
8.133433526
 20
24.4421584695
 10
8.1239062645
 20
24.4492887229
 10
8.1140504798
 20
24.4559575601
 10
8.1038884042
 20
24.4621499225
 10
8.0934431508
 20
24.467851711
 10
8.082738616
 20
24.4730498963
 10
8.0717992148
 20
24.4777326699
 10
8.0606496028
 20
24.4818895243
 10
8.0493148377
 20
24.4855111341
 10
8.0378188721
 20
24.4885897127
 10
8.0261894369
 20
24.4911177026
 10
8.0144579422
 20
24.4930886486
 10
8.0026527667
 20
24.4944986445
 10
7.9907990242
 20
24.4953455463
 10
7.9789235526
 20
24.495628166
  0
LWPOLYLINE
  5
6DC
100
AcDbEntity
  8
0
100
AcDbPolyline
 62
7
  6
CONTINUOUS
 90
5
 70
0
 10
8.2332911558
 20
24.2500042308
 10
8.2330080056
 20
24.261899516
 10
8.2321591901
 20
24.2737678556
 10
8.23074663
 20
24.2855823661
 10
8.2287735236
 20
24.2973162875
  0
LINE
  5
6DD
100
AcDbEntity
  8
RACCORDO
100
AcDbLine
 62
7
  6
CONTINUOUS
 10
7.7327950747
 20
8.775598696
 11
7.7330129252
 21
8.7647597788
  0
LINE
  5
6DE
100
AcDbEntity
  8
RACCORDO
100
AcDbLine
 62
7
  6
CONTINUOUS
 10
7.7328353031
 20
0.3737968945
 11
7.7330686366
 21
0.361452707
  0
LINE
  5
6DF
100
AcDbEntity
  8
0
100
AcDbLine
 62
7
  6
CONTINUOUS
 10
9.2250006314
 20
-21.0226497308
 11
9.2337274992
 21
-21.6
  0
LINE
  5
6E0
100
AcDbEntity
  8
RACCORDO
100
AcDbLine
 62
7
  6
CONTINUOUS
 10
7.7330129252
 20
8.7647597788
 11
7.7331818267
 21
8.752471286
  0
LINE
  5
6E1
100
AcDbEntity
  8
0
100
AcDbLine
 62
253
  6
CONTINUOUS
 10
7.9789235526
 20
23.6278312164
 11
7.9840141537
 21
23.1226497308
  0
LINE
  5
6E2
100
AcDbEntity
  8
0
100
AcDbLine
 62
253
  6
CONTINUOUS
 10
8.2289193218
 20
23.8443375673
 11
8.2332911558
 21
23.4104851482
  0
LINE
  5
6E3
100
AcDbEntity
  8
RACCORDO
100
AcDbLine
 62
7
  6
CONTINUOUS
 10
7.7330686366
 20
0.361452707
 11
7.7332235924
 21
0.3473201007
  0
LINE
  5
6E4
100
AcDbEntity
  8
RACCORDO
100
AcDbLine
 62
7
  6
CONTINUOUS
 10
7.7331581654
 20
-7.3453783786
 11
7.7332679226
 21
-7.3604363014
  0
LINE
  5
6E5
100
AcDbEntity
  8
RACCORDO
100
AcDbLine
 62
7
  6
CONTINUOUS
 10
7.7331818267
 20
8.752471286
 11
7.7332729209
 21
8.7387497226
  0
LINE
  5
6E6
100
AcDbEntity
  8
RACCORDO
100
AcDbLine
 62
7
  6
CONTINUOUS
 10
7.7332235924
 20
0.3473201007
 11
7.7332911558
 21
0.3313524151
  0
LINE
  5
6E7
100
AcDbEntity
  8
RACCORDO
100
AcDbLine
 62
7
  6
CONTINUOUS
 10
7.6966355195
 20
-20.0889833137
 11
7.6966355195
 21
-19.88468937
  0
LINE
  5
6E8
100
AcDbEntity
  8
RACCORDO
100
AcDbLine
 62
7
  6
CONTINUOUS
 10
7.7332911558
 20
20.1990396502
 11
7.7332911558
 21
-20.1990396502
  0
LINE
  5
6E9
100
AcDbEntity
  8
0
100
AcDbLine
 62
253
  6
CONTINUOUS
 10
7.9789235526
 20
-23.6278312164
 11
7.9789235526
 21
-24.495628166
  0
LINE
  5
6EA
100
AcDbEntity
  8
0
100
AcDbLine
 62
253
  6
CONTINUOUS
 10
7.9789235526
 20
23.6278312164
 11
7.9789235526
 21
24.495628166
  0
LINE
  5
6EB
100
AcDbEntity
  8
0
100
AcDbLine
 62
7
  6
CONTINUOUS
 10
8.2289193218
 20
-24.2456323968
 11
8.2289193218
 21
-23.8443375673
  0
LINE
  5
6EC
100
AcDbEntity
  8
0
100
AcDbLine
 62
7
  6
CONTINUOUS
 10
8.2289193218
 20
23.8443375673
 11
8.2289193218
 21
24.2456323968
  0
LINE
  5
6ED
100
AcDbEntity
  8
RACCORDO
100
AcDbLine
 62
7
  6
CONTINUOUS
 10
8.2332911558
 20
23.4104851482
 11
8.2332911558
 21
22.6002134903
  0
LINE
  5
6EE
100
AcDbEntity
  8
0
100
AcDbLine
 62
7
  6
CONTINUOUS
 10
8.2332911558
 20
-23.8443375673
 11
8.2332911558
 21
-23.4104851482
  0
LINE
  5
6EF
100
AcDbEntity
  8
RACCORDO
100
AcDbLine
 62
7
  6
CONTINUOUS
 10
8.2332911558
 20
-22.6002134903
 11
8.2332911558
 21
-23.4104851482
  0
LINE
  5
6F0
100
AcDbEntity
  8
0
100
AcDbLine
 62
7
  6
CONTINUOUS
 10
8.2332911558
 20
23.4104851482
 11
8.2332911558
 21
23.8443375673
  0
LINE
  5
6F1
100
AcDbEntity
  8
0
100
AcDbLine
 62
7
  6
CONTINUOUS
 10
9.2250006314
 20
21.8941990932
 11
9.2250006314
 21
21.0226497308
  0
LINE
  5
6F2
100
AcDbEntity
  8
0
100
AcDbLine
 62
7
  6
CONTINUOUS
 10
9.2250006314
 20
-21.0226497308
 11
9.2250006314
 21
-21.8941990932
  0
LINE
  5
6F3
100
AcDbEntity
  8
0
100
AcDbLine
 62
7
  6
CONTINUOUS
 10
9.2337274992
 20
21.900016923
 11
9.2337274992
 21
21.6
  0
LINE
  5
6F4
100
AcDbEntity
  8
0
100
AcDbLine
 62
7
  6
CONTINUOUS
 10
9.2337274992
 20
-21.900016923
 11
9.2337274992
 21
-21.6
  0
LINE
  5
6F5
100
AcDbEntity
  8
0
100
AcDbLine
 62
7
  6
CONTINUOUS
 10
9.2498734675
 20
21.0226497308
 11
9.2498734675
 21
-21.0226497308
  0
LINE
  5
6F6
100
AcDbEntity
  8
RACCORDO
100
AcDbLine
 62
7
  6
CONTINUOUS
 10
7.7332729668
 20
8.0612354778
 11
7.7331811674
 21
8.0474657157
  0
LINE
  5
6F7
100
AcDbEntity
  8
RACCORDO
100
AcDbLine
 62
7
  6
CONTINUOUS
 10
7.733267806
 20
-0.3395950655
 11
7.733157041
 21
-0.3547186631
  0
LINE
  5
6F8
100
AcDbEntity
  8
RACCORDO
100
AcDbLine
 62
7
  6
CONTINUOUS
 10
7.733267806
 20
-8.0395950655
 11
7.733157041
 21
-8.0547186631
  0
LINE
  5
6F9
100
AcDbEntity
  8
RACCORDO
100
AcDbLine
 62
7
  6
CONTINUOUS
 10
7.733267806
 20
-12.3395950655
 11
7.733157041
 21
-12.3547186631
  0
LINE
  5
6FA
100
AcDbEntity
  8
0
100
AcDbLine
 62
253
  6
CONTINUOUS
 10
7.9840141537
 20
-23.1226497308
 11
7.9789235526
 21
-23.6278312164
  0
LINE
  5
6FB
100
AcDbEntity
  8
0
100
AcDbLine
 62
253
  6
CONTINUOUS
 10
8.2332911558
 20
-23.4104851482
 11
8.2289193218
 21
-23.8443375673
  0
LINE
  5
6FC
100
AcDbEntity
  8
0
100
AcDbLine
 62
7
  6
CONTINUOUS
 10
9.2250006314
 20
21.0226497308
 11
9.2337274992
 21
21.6
  0
LINE
  5
6FD
100
AcDbEntity
  8
RACCORDO
100
AcDbLine
 62
7
  6
CONTINUOUS
 10
7.733157041
 20
-0.3547186631
 11
7.7329545785
 21
-0.3680043313
  0
LINE
  5
6FE
100
AcDbEntity
  8
RACCORDO
100
AcDbLine
 62
7
  6
CONTINUOUS
 10
7.733157041
 20
-8.0547186631
 11
7.7329545785
 21
-8.0680043313
  0
LINE
  5
6FF
100
AcDbEntity
  8
RACCORDO
100
AcDbLine
 62
7
  6
CONTINUOUS
 10
7.733157041
 20
-12.3547186631
 11
7.7329545785
 21
-12.3680043313
  0
LINE
  5
700
100
AcDbEntity
  8
RACCORDO
100
AcDbLine
 62
7
  6
CONTINUOUS
 10
7.7329545785
 20
-0.3680043313
 11
7.7326969605
 21
-0.3795477748
  0
LINE
  5
701
100
AcDbEntity
  8
RACCORDO
100
AcDbLine
 62
7
  6
CONTINUOUS
 10
7.7329545785
 20
-8.0680043313
 11
7.7326969605
 21
-8.0795477748
  0
LINE
  5
702
100
AcDbEntity
  8
RACCORDO
100
AcDbLine
 62
7
  6
CONTINUOUS
 10
7.7329545785
 20
-12.3680043313
 11
7.7326969605
 21
-12.3795477748
  0
LWPOLYLINE
  5
703
100
AcDbEntity
  8
RACCORDO
100
AcDbPolyline
 62
7
  6
CONTINUOUS
 90
3
 70
0
 10
7.7326969605
 20
-0.3795477748
 10
7.7323969634
 20
-0.3894972186
 10
7.7322344759
 20
-0.394037982
  0
LWPOLYLINE
  5
704
100
AcDbEntity
  8
RACCORDO
100
AcDbPolyline
 62
7
  6
CONTINUOUS
 90
3
 70
0
 10
7.7326969605
 20
-8.0795477748
 10
7.7323969634
 20
-8.0894972186
 10
7.7322344759
 20
-8.094037982
  0
LWPOLYLINE
  5
705
100
AcDbEntity
  8
RACCORDO
100
AcDbPolyline
 62
7
  6
CONTINUOUS
 90
3
 70
0
 10
7.7326969605
 20
-12.3795477748
 10
7.7323969634
 20
-12.3894972186
 10
7.7322344759
 20
-12.394037982
  0
LWPOLYLINE
  5
706
100
AcDbEntity
  8
RACCORDO
100
AcDbPolyline
 62
7
  6
CONTINUOUS
 90
17
 70
0
 10
7.7322344759
 20
-0.394037982
 10
7.7318859892
 20
-0.4022435503
 10
7.731702858
 20
-0.405950822
 10
7.7315133724
 20
-0.4093934877
 10
7.7313178252
 20
-0.4126084288
 10
7.7311165854
 20
-0.4156031267
 10
7.7309092841
 20
-0.4183700999
 10
7.7306951074
 20
-0.4209237851
 10
7.7304739795
 20
-0.4232749648
 10
7.7302459762
 20
-0.4254128565
 10
7.7300105115
 20
-0.42731955
 10
7.7297675435
 20
-0.4290032773
 10
7.729517114
 20
-0.4304558064
 10
7.7292587632
 20
-0.4316345314
 10
7.7289923377
 20
-0.4325252504
 10
7.7287179907
 20
-0.4331421654
 10
7.7284357224
 20
-0.4334852763
  0
LWPOLYLINE
  5
707
100
AcDbEntity
  8
RACCORDO
100
AcDbPolyline
 62
7
  6
CONTINUOUS
 90
17
 70
0
 10
7.7322344759
 20
-8.094037982
 10
7.7318859892
 20
-8.1022435503
 10
7.731702858
 20
-8.105950822
 10
7.7315133724
 20
-8.1093934877
 10
7.7313178252
 20
-8.1126084288
 10
7.7311165854
 20
-8.1156031267
 10
7.7309092841
 20
-8.1183700999
 10
7.7306951074
 20
-8.1209237851
 10
7.7304739795
 20
-8.1232749648
 10
7.7302459762
 20
-8.1254128565
 10
7.7300105115
 20
-8.12731955
 10
7.7297675435
 20
-8.1290032773
 10
7.729517114
 20
-8.1304558064
 10
7.7292587632
 20
-8.1316345314
 10
7.7289923377
 20
-8.1325252504
 10
7.7287179907
 20
-8.1331421654
 10
7.7284357224
 20
-8.1334852763
  0
LWPOLYLINE
  5
708
100
AcDbEntity
  8
RACCORDO
100
AcDbPolyline
 62
7
  6
CONTINUOUS
 90
17
 70
0
 10
7.7322344759
 20
-12.394037982
 10
7.7318859892
 20
-12.4022435503
 10
7.731702858
 20
-12.405950822
 10
7.7315133724
 20
-12.4093934877
 10
7.7313178252
 20
-12.4126084288
 10
7.7311165854
 20
-12.4156031267
 10
7.7309092841
 20
-12.4183700999
 10
7.7306951074
 20
-12.4209237851
 10
7.7304739795
 20
-12.4232749648
 10
7.7302459762
 20
-12.4254128565
 10
7.7300105115
 20
-12.42731955
 10
7.7297675435
 20
-12.4290032773
 10
7.729517114
 20
-12.4304558064
 10
7.7292587632
 20
-12.4316345314
 10
7.7289923377
 20
-12.4325252504
 10
7.7287179907
 20
-12.4331421654
 10
7.7284357224
 20
-12.4334852763
  0
LINE
  5
709
100
AcDbEntity
  8
DRAFT
100
AcDbLine
 62
7
  6
CONTINUOUS
 10
7.5832911558
 20
-16.2
 11
7.5657999818
 21
-16.4129962748
  0
LINE
  5
70A
100
AcDbEntity
  8
RACCORDO
100
AcDbLine
 62
7
  6
CONTINUOUS
 10
5.4305883147
 20
-19.4260209733
 11
5.4040986198
 21
-19.5851005096
  0
LINE
  5
70B
100
AcDbEntity
  8
DRAFT
100
AcDbLine
 62
7
  6
CONTINUOUS
 10
5.3832911558
 20
-20.9
 11
5.4016175782
 21
-20.7899436635
  0
LINE
  5
70C
100
AcDbEntity
  8
IMPORT_IGES
100
AcDbLine
 62
7
  6
CONTINUOUS
 10
5.5332911558
 20
-7.8451539743
 11
5.4633739741
 21
-7.9542999891
  0
LWPOLYLINE
  5
70D
100
AcDbEntity
  8
IMPORT_IGES
100
AcDbPolyline
 62
7
  6
CONTINUOUS
 90
6
 70
0
 10
2.1323725301
 20
-8.4301345729
 10
2.1406902223
 20
-8.4231045648
 10
2.1496447536
 20
-8.4165966108
 10
2.1591883959
 20
-8.410690801
 10
2.169381942
 20
-8.405404148
 10
2.1723123047
 20
-8.4040623165
  0
LWPOLYLINE
  5
70E
100
AcDbEntity
  8
IMPORT_IGES
100
AcDbPolyline
 62
7
  6
CONTINUOUS
 90
5
 70
0
 10
2.1316217949
 20
-8.4236278783
 10
2.1397925898
 20
-8.4190233504
 10
2.1480660007
 20
-8.4148227854
 10
2.1563745937
 20
-8.4109264659
 10
2.1647150084
 20
-8.4072087984
  0
LWPOLYLINE
  5
70F
100
AcDbEntity
  8
IMPORT_IGES
100
AcDbPolyline
 62
7
  6
CONTINUOUS
 90
7
 70
0
 10
2.1722652603
 20
-8.4039198069
 10
2.1806250172
 20
-8.4002149053
 10
2.1881500053
 20
-8.3966888266
 10
2.1952770323
 20
-8.3930093955
 10
2.2018621852
 20
-8.3890997327
 10
2.2078977652
 20
-8.3848752866
 10
2.2134620916
 20
-8.3802468276
  0
LINE
  5
710
100
AcDbEntity
  8
IMPORT_IGES
100
AcDbLine
 62
7
  6
CONTINUOUS
 10
2.1647150084
 20
-8.4072087984
 11
2.1722652603
 21
-8.4039198069
  0
LWPOLYLINE
  5
711
100
AcDbEntity
  8
IMPORT_IGES
100
AcDbPolyline
 62
7
  6
CONTINUOUS
 90
3
 70
0
 10
2.1678504673
 20
-8.4058408926
 10
2.1814650805
 20
-8.4003505412
 10
2.2027212333
 20
-8.3933606307
  0
LWPOLYLINE
  5
712
100
AcDbEntity
  8
IMPORT_IGES
100
AcDbPolyline
 62
253
  6
CONTINUOUS
 90
13
 70
0
 10
-9.902722529
 20
8.096446603
 10
-9.9415718428
 20
8.0949992437
 10
-9.9797667476
 20
8.0900033089
 10
-10.0166639303
 20
8.081542967
 10
-10.0516419188
 20
8.0697607453
 10
-10.0841116215
 20
8.0548551056
 10
-10.1135262302
 20
8.0370770805
 10
-10.1393903361
 20
8.0167260876
 10
-10.1612682926
 20
7.9941449068
 10
-10.1787916124
 20
7.9697138697
 10
-10.1916651528
 20
7.9438444647
 10
-10.1996720867
 20
7.9169724064
 10
-10.2026775545
 20
7.889550297
  0
LINE
  5
713
100
AcDbEntity
  8
RACCORDO
100
AcDbLine
 62
253
  6
CONTINUOUS
 10
-11.5667088442
 20
8.0686475869
 11
-10.7650258067
 21
8.0878694387
  0
LINE
  5
714
100
AcDbEntity
  8
RACCORDO
100
AcDbLine
 62
253
  6
CONTINUOUS
 10
7.7332911558
 20
8.7313524131
 11
6.9316081184
 21
8.7121305613
  0
LINE
  5
715
100
AcDbEntity
  8
RACCORDO
100
AcDbLine
 62
253
  6
CONTINUOUS
 10
-11.5618534108
 20
7.9665147237
 11
-10.6672971632
 21
7.9879583293
  0
LINE
  5
716
100
AcDbEntity
  8
RACCORDO
100
AcDbLine
 62
253
  6
CONTINUOUS
 10
7.7284357224
 20
8.8334852763
 11
6.8338794748
 21
8.8120416707
  0
LINE
  5
717
100
AcDbEntity
  8
RACCORDO
100
AcDbLine
 62
253
  6
CONTINUOUS
 10
-10.6672971632
 20
7.9879583293
 11
-10.6577409575
 21
7.9881271886
  0
LINE
  5
718
100
AcDbEntity
  8
RACCORDO
100
AcDbLine
 62
253
  6
CONTINUOUS
 10
6.8338794748
 20
8.8120416707
 11
6.8243232692
 21
8.8118728114
  0
LINE
  5
719
100
AcDbEntity
  8
RACCORDO
100
AcDbLine
 62
253
  6
CONTINUOUS
 10
-10.6577409575
 20
7.9881271886
 11
-10.6383130425
 21
7.9883772114
  0
LINE
  5
71A
100
AcDbEntity
  8
RACCORDO
100
AcDbLine
 62
253
  6
CONTINUOUS
 10
6.8243232692
 20
8.8118728114
 11
6.8048953541
 21
8.8116227886
  0
LINE
  5
71B
100
AcDbEntity
  8
RACCORDO
100
AcDbLine
 62
253
  6
CONTINUOUS
 10
-10.7650258067
 20
8.0878694387
 11
-10.7450519056
 21
8.0881233809
  0
LINE
  5
71C
100
AcDbEntity
  8
RACCORDO
100
AcDbLine
 62
253
  6
CONTINUOUS
 10
6.9316081184
 20
8.7121305613
 11
6.9116342173
 21
8.7118766191
  0
LWPOLYLINE
  5
71D
100
AcDbEntity
  8
IMPORT_IGES
100
AcDbPolyline
 62
253
  6
CONTINUOUS
 90
13
 70
0
 10
-5.7377305898
 20
8.0964465866
 10
-5.7624272545
 20
8.096184745
 10
-5.7870862536
 20
8.0937074191
 10
-5.811090384
 20
8.0890112794
 10
-5.8335539017
 20
8.0823099053
 10
-5.8542766286
 20
8.073771392
 10
-5.8735977595
 20
8.0632326831
 10
-5.8910689298
 20
8.0507856678
 10
-5.906107105
 20
8.0367491435
 10
-5.9185957212
 20
8.0211156318
 10
-5.9281574086
 20
8.0041331511
 10
-5.93441572
 20
7.9863710385
 10
-5.9372887009
 20
7.9683231794
  0
LINE
  5
71E
100
AcDbEntity
  8
RACCORDO
100
AcDbLine
 62
253
  6
CONTINUOUS
 10
-10.6383130425
 20
7.9883772114
 11
-10.5932165277
 21
7.9887331962
  0
LINE
  5
71F
100
AcDbEntity
  8
RACCORDO
100
AcDbLine
 62
253
  6
CONTINUOUS
 10
6.8048953541
 20
8.8116227886
 11
6.7597988393
 21
8.8112668038
  0
LINE
  5
720
100
AcDbEntity
  8
RACCORDO
100
AcDbLine
 62
253
  6
CONTINUOUS
 10
-10.7450519056
 20
8.0881233809
 11
-10.6914583513
 21
8.0885283743
  0
LINE
  5
721
100
AcDbEntity
  8
RACCORDO
100
AcDbLine
 62
253
  6
CONTINUOUS
 10
6.9116342173
 20
8.7118766191
 11
6.8580406629
 21
8.7114716257
  0
LWPOLYLINE
  5
722
100
AcDbEntity
  8
IMPORT_IGES
100
AcDbPolyline
 62
253
  6
CONTINUOUS
 90
13
 70
0
 10
-6.1167088442
 20
8.5748812075
 10
-6.0909243857
 20
8.5749796495
 10
-6.065649119
 20
8.5752721036
 10
-6.0412962257
 20
8.575751906
 10
-6.0183680492
 20
8.5764057063
 10
-5.9970997588
 20
8.5772231783
 10
-5.9775425072
 20
8.5782052895
 10
-5.9599902119
 20
8.5793453122
 10
-5.944963246
 20
8.5806258538
 10
-5.9328680441
 20
8.5820322167
 10
-5.9239945351
 20
8.5835426728
 10
-5.918551052
 20
8.5851305111
 10
-5.9167088442
 20
8.5867682816
  0
LINE
  5
723
100
AcDbEntity
  8
RACCORDO
100
AcDbLine
 62
253
  6
CONTINUOUS
 10
-10.5932165277
 20
7.9887331962
 11
-10.5046301022
 21
7.9890120506
  0
LINE
  5
724
100
AcDbEntity
  8
RACCORDO
100
AcDbLine
 62
253
  6
CONTINUOUS
 10
6.7597988393
 20
8.8112668038
 11
6.6712124139
 21
8.8109879494
  0
LINE
  5
725
100
AcDbEntity
  8
RACCORDO
100
AcDbLine
 62
253
  6
CONTINUOUS
 10
-10.6914583513
 20
8.0885283743
 11
-10.5318896489
 21
8.0889946387
  0
LINE
  5
726
100
AcDbEntity
  8
RACCORDO
100
AcDbLine
 62
253
  6
CONTINUOUS
 10
6.8580406629
 20
8.7114716257
 11
6.6984719605
 21
8.7110053613
  0
LINE
  5
727
100
AcDbEntity
  8
RACCORDO
100
AcDbLine
 62
253
  6
CONTINUOUS
 10
-10.5046301022
 20
7.9890120506
 11
-10.4831180205
 21
7.989021667
  0
LINE
  5
728
100
AcDbEntity
  8
RACCORDO
100
AcDbLine
 62
253
  6
CONTINUOUS
 10
6.6712124139
 20
8.8109879494
 11
6.6497003321
 21
8.810978333
  0
LINE
  5
729
100
AcDbEntity
  8
IMPORT_IGES
100
AcDbLine
 62
7
  6
CONTINUOUS
 10
2.1881446582
 20
7.688305283
 11
2.1268467268
 21
7.688305283
  0
LINE
  5
72A
100
AcDbEntity
  8
IMPORT_IGES
100
AcDbLine
 62
7
  6
CONTINUOUS
 10
-5.9630601772
 20
7.688305283
 11
-6.0215623465
 21
7.688305283
  0
LINE
  5
72B
100
AcDbEntity
  8
IMPORT_IGES
100
AcDbLine
 62
253
  6
CONTINUOUS
 10
6.0717740766
 20
7.7428932182
 11
5.7765055408
 21
7.7428932181
  0
LINE
  5
72C
100
AcDbEntity
  8
IMPORT_IGES
100
AcDbLine
 62
253
  6
CONTINUOUS
 10
1.9208375407
 20
7.7428932181
 11
-5.754255229
 21
7.7428932188
  0
LINE
  5
72D
100
AcDbEntity
  8
IMPORT_IGES
100
AcDbLine
 62
253
  6
CONTINUOUS
 10
-9.6099266116
 20
7.7428932181
 11
-9.9051917649
 21
7.7428932181
  0
LINE
  5
72E
100
AcDbEntity
  8
DRAFT
100
AcDbLine
 62
7
  6
CONTINUOUS
 10
-11.4288138312
 20
7.9
 11
-10.2667088442
 21
7.9
  0
LINE
  5
72F
100
AcDbEntity
  8
DRAFT
100
AcDbLine
 62
7
  6
CONTINUOUS
 10
7.5953961429
 20
7.9
 11
6.4332911558
 21
7.9
  0
LINE
  5
730
100
AcDbEntity
  8
RACCORDO
100
AcDbLine
 62
7
  6
CONTINUOUS
 10
-10.4831180205
 20
7.989021667
 11
-10.2009412753
 21
7.989021667
  0
LINE
  5
731
100
AcDbEntity
  8
RACCORDO
100
AcDbLine
 62
7
  6
CONTINUOUS
 10
6.367523587
 20
7.989021667
 11
6.6497003321
 21
7.989021667
  0
LINE
  5
732
100
AcDbEntity
  8
RACCORDO
100
AcDbLine
 62
253
  6
CONTINUOUS
 10
-10.5318896489
 20
8.0889946387
 11
-10.1991958352
 21
8.0890178593
  0
LINE
  5
733
100
AcDbEntity
  8
IMPORT_IGES
100
AcDbLine
 62
253
  6
CONTINUOUS
 10
5.2862911558
 20
8.0964466093
 11
6.0693055576
 21
8.0964466092
  0
LINE
  5
734
100
AcDbEntity
  8
IMPORT_IGES
100
AcDbLine
 62
253
  6
CONTINUOUS
 10
-9.1197104854
 20
8.0964466091
 11
-9.9027232459
 21
8.0964466092
  0
LINE
  5
735
100
AcDbEntity
  8
IMPORT_IGES
100
AcDbLine
 62
253
  6
CONTINUOUS
 10
1.9043137605
 20
8.0964466152
 11
-5.7377312786
 21
8.0964466623
  0
LINE
  5
736
100
AcDbEntity
  8
RACCORDO
100
AcDbLine
 62
253
  6
CONTINUOUS
 10
6.6984719605
 20
8.7110053613
 11
6.35492172
 21
8.7109821407
  0
LINE
  5
737
100
AcDbEntity
  8
RACCORDO
100
AcDbLine
 62
253
  6
CONTINUOUS
 10
-11.5667088442
 20
8.8
 11
-10.1867855958
 21
8.8
  0
LINE
  5
738
100
AcDbEntity
  8
RACCORDO
100
AcDbLine
 62
7
  6
CONTINUOUS
 10
6.6497003321
 20
8.810978333
 11
6.35317628
 21
8.810978333
  0
LINE
  5
739
100
AcDbEntity
  8
RACCORDO
100
AcDbLine
 62
7
  6
CONTINUOUS
 10
-11.5618388756
 20
8.9
 11
-10.1850400893
 21
8.9
  0
LINE
  5
73A
100
AcDbEntity
  8
DRAFT
100
AcDbLine
 62
7
  6
CONTINUOUS
 10
7.5953961429
 20
8.9
 11
6.351622401
 21
8.9
  0
LWPOLYLINE
  5
73B
100
AcDbEntity
  8
IMPORT_IGES
100
AcDbPolyline
 62
253
  6
CONTINUOUS
 90
13
 70
0
 10
2.2832911558
 20
8.5748812075
 10
2.2571859174
 20
8.5749821256
 10
2.2315273468
 20
8.5752831512
 10
2.2067544694
 20
8.5757791336
 10
2.1832911558
 20
8.5764615866
 10
2.16153887
 20
8.5773188331
 10
2.1418697996
 20
8.5783362057
 10
2.1246204878
 20
8.5794962968
 10
2.1100860751
 20
8.580779257
 10
2.0985152493
 20
8.5821631344
 10
2.0901059906
 20
8.5836242506
 10
2.0850021836
 20
8.5851376053
 10
2.0832911558
 20
8.5866773047
  0
LINE
  5
73C
100
AcDbEntity
  8
RACCORDO
100
AcDbLine
 62
253
  6
CONTINUOUS
 10
6.6497003321
 20
7.989021667
 11
6.7382799044
 21
7.9888410269
  0
LINE
  5
73D
100
AcDbEntity
  8
RACCORDO
100
AcDbLine
 62
253
  6
CONTINUOUS
 10
6.3657781469
 20
8.0890178593
 11
6.8297357072
 21
8.0886684125
  0
LINE
  5
73E
100
AcDbEntity
  8
RACCORDO
100
AcDbLine
 62
253
  6
CONTINUOUS
 10
6.8297357072
 20
8.0886684125
 11
6.9028226415
 21
8.0882091402
  0
LINE
  5
73F
100
AcDbEntity
  8
RACCORDO
100
AcDbLine
 62
253
  6
CONTINUOUS
 10
6.7382799044
 20
7.9888410269
 11
6.7968896977
 21
7.9884576439
  0
LWPOLYLINE
  5
740
100
AcDbEntity
  8
IMPORT_IGES
100
AcDbPolyline
 62
253
  6
CONTINUOUS
 90
13
 70
0
 10
1.9043134425
 20
8.0964390047
 10
1.9290095389
 20
8.0961772403
 10
1.9536680099
 20
8.0937001276
 10
1.9776716932
 20
8.089004325
 10
2.0001349269
 20
8.0823033656
 10
2.0208574957
 20
8.0737653239
 10
2.0401784781
 20
8.0632272043
 10
2.0576495312
 20
8.0507809182
 10
2.0726876982
 20
8.0367452301
 10
2.0851764451
 20
8.0211126761
 10
2.094738456
 20
8.0041312477
 10
2.1009973222
 20
7.9863702098
 10
2.1038710916
 20
7.9683233834
  0
LWPOLYLINE
  5
741
100
AcDbEntity
  8
RACCORDO
100
AcDbPolyline
 62
253
  6
CONTINUOUS
 90
3
 70
0
 10
6.9028226415
 20
8.0882091402
 10
6.9258715998
 20
8.0879549321
 10
6.9316081184
 20
8.0878694387
  0
LINE
  5
742
100
AcDbEntity
  8
RACCORDO
100
AcDbLine
 62
253
  6
CONTINUOUS
 10
6.7968896977
 20
7.9884576439
 11
6.8184259995
 21
7.9882129737
  0
LINE
  5
743
100
AcDbEntity
  8
RACCORDO
100
AcDbLine
 62
253
  6
CONTINUOUS
 10
6.8184259995
 20
7.9882129737
 11
6.8293970804
 21
7.9880437418
  0
LINE
  5
744
100
AcDbEntity
  8
RACCORDO
100
AcDbLine
 62
253
  6
CONTINUOUS
 10
6.8293970804
 20
7.9880437418
 11
6.8376388563
 21
7.9878732464
  0
LINE
  5
745
100
AcDbEntity
  8
RACCORDO
100
AcDbLine
 62
253
  6
CONTINUOUS
 10
6.8376388563
 20
7.9878732464
 11
7.7284357224
 21
7.9665147237
  0
LINE
  5
746
100
AcDbEntity
  8
RACCORDO
100
AcDbLine
 62
253
  6
CONTINUOUS
 10
6.9316081184
 20
8.0878694387
 11
7.7332911558
 21
8.0686475869
  0
LWPOLYLINE
  5
747
100
AcDbEntity
  8
IMPORT_IGES
100
AcDbPolyline
 62
253
  6
CONTINUOUS
 90
13
 70
0
 10
1.8832911558
 20
8.7280986591
 10
1.909075641
 20
8.7269184529
 10
1.9343509261
 20
8.7234122652
 10
1.958703829
 20
8.7176599901
 10
1.9816320056
 20
8.7098216842
 10
2.0029002889
 20
8.7000211498
 10
2.0224575309
 20
8.6882467866
 10
2.0400098151
 20
8.6745387379
 10
2.0550367698
 20
8.6591460785
 10
2.0671319636
 20
8.6423664284
 10
2.076005468
 20
8.6245005068
 10
2.0814489486
 20
8.6058278071
 10
2.0832911558
 20
8.5866771729
  0
LINE
  5
748
100
AcDbEntity
  8
RACCORDO
100
AcDbLine
 62
253
  6
CONTINUOUS
 10
6.4332911558
 20
5.9999961923
 11
6.4016905654
 21
6.0315967827
  0
LWPOLYLINE
  5
749
100
AcDbEntity
  8
IMPORT_IGES
100
AcDbPolyline
 62
253
  6
CONTINUOUS
 90
8
 70
0
 10
5.0546818367
 20
10.5314272108
 10
5.0618166252
 20
10.5173262597
 10
5.0683652291
 20
10.5040593513
 10
5.0741003812
 20
10.4921806508
 10
5.0790096341
 20
10.4824801696
 10
5.0828775237
 20
10.4752196791
 10
5.0853938123
 20
10.4701325895
 10
5.0862911546
 20
10.467215077
  0
LWPOLYLINE
  5
74A
100
AcDbEntity
  8
IMPORT_IGES
100
AcDbPolyline
 62
253
  6
CONTINUOUS
 90
3
 70
0
 10
4.9597295174
 20
10.7216618726
 10
5.0382579095
 20
10.5646709268
 10
5.0546818367
 20
10.5314272108
  0
LINE
  5
74B
100
AcDbEntity
  8
RACCORDO
100
AcDbLine
 62
7
  6
CONTINUOUS
 10
5.4388380405
 20
20.5664222561
 11
5.3832911558
 21
20.9
  0
LINE
  5
74C
100
AcDbEntity
  8
0
100
AcDbLine
 62
7
  6
CONTINUOUS
 10
9.2498734675
 20
21.0226497308
 11
9.2332911558
 21
21.5711324865
  0
LWPOLYLINE
  5
74D
100
AcDbEntity
  8
0
100
AcDbPolyline
 62
7
  6
CONTINUOUS
 90
40
 70
0
 10
9.2324184026
 20
21.8997711479
 10
9.2320166341
 20
21.9198382916
 10
9.2308090173
 20
21.9399070889
 10
9.2287933366
 20
21.9599450105
 10
9.2259658655
 20
21.9799370232
 10
9.2223284599
 20
21.9998321984
 10
9.2178956633
 20
22.019545063
 10
9.2126821976
 20
22.0390258388
 10
9.2066949458
 20
22.058262166
 10
9.1999445464
 20
22.0772264828
 10
9.1924504805
 20
22.0958728482
 10
9.1842210869
 20
22.1141884053
 10
9.1752455938
 20
22.1321932747
 10
9.1655166313
 20
22.1498868057
 10
9.1550609307
 20
22.167206078
 10
9.1439200353
 20
22.1840786325
 10
9.1321175928
 20
22.2004718186
 10
9.1196700114
 20
22.2163658932
 10
9.1066174676
 20
22.2317142955
 10
9.0930090626
 20
22.246469892
 10
9.0788479697
 20
22.2606393471
 10
9.064102749
 20
22.2742541203
 10
9.0487664512
 20
22.2873115831
 10
9.0328867476
 20
22.2997623962
 10
9.0165115655
 20
22.3115654085
 10
8.9996616414
 20
22.3227040857
 10
8.9823691143
 20
22.3331557029
 10
8.9647055879
 20
22.3428793991
 10
8.9467345736
 20
22.3518484807
 10
8.9284563321
 20
22.3600709099
 10
8.9098481998
 20
22.3675586046
 10
8.8909216684
 20
22.3743036902
 10
8.8717238793
 20
22.380286152
 10
8.8522836347
 20
22.3854948973
 10
8.8326136077
 20
22.3899231464
 10
8.8127632308
 20
22.3935564624
 10
8.7928182796
 20
22.3963803578
 10
8.7728297535
 20
22.3983931752
 10
8.7528125112
 20
22.3995989119
 10
8.7327990023
 20
22.4
  0
LINE
  5
74E
100
AcDbEntity
  8
0
100
AcDbLine
 62
7
  6
CONTINUOUS
 10
9.2498734675
 20
-21.0226497308
 11
9.2332911558
 21
-21.5711324865
  0
LWPOLYLINE
  5
74F
100
AcDbEntity
  8
IMPORT_IGES
100
AcDbPolyline
 62
253
  6
CONTINUOUS
 90
3
 70
0
 10
5.3291147139
 20
-10.063103835
 10
5.3322514501
 20
-10.0589133251
 10
5.3332911557
 20
-10.057144341
  0
LWPOLYLINE
  5
750
100
AcDbEntity
  8
IMPORT_IGES
100
AcDbPolyline
 62
253
  6
CONTINUOUS
 90
5
 70
0
 10
5.2689926645
 20
-10.1357011747
 10
5.2957430179
 20
-10.1042422498
 10
5.3070106992
 20
-10.0908052313
 10
5.3164808547
 20
-10.0790415899
 10
5.3291147139
 20
-10.063103835
  0
LWPOLYLINE
  5
751
100
AcDbEntity
  8
IMPORT_IGES
100
AcDbPolyline
 62
253
  6
CONTINUOUS
 90
4
 70
0
 10
5.1332911558
 20
-10.2911905861
 10
5.1552310027
 20
-10.2655927769
 10
5.1767005448
 20
-10.2410759594
 10
5.217299448
 20
-10.1951263278
  0
LWPOLYLINE
  5
752
100
AcDbEntity
  8
IMPORT_IGES
100
AcDbPolyline
 62
253
  6
CONTINUOUS
 90
3
 70
0
 10
5.217299448
 20
-10.1951263278
 10
5.253328298
 20
-10.1538439367
 10
5.2689926645
 20
-10.1357011747
  0
LINE
  5
753
100
AcDbEntity
  8
0
100
AcDbLine
 62
7
  6
CONTINUOUS
 10
-6.2534827822
 20
-23.8652290101
 11
-6.2339853617
 21
-23.8435426683
  0
LINE
  5
754
100
AcDbEntity
  8
0
100
AcDbLine
 62
7
  6
CONTINUOUS
 10
-6.3667088442
 20
-22.4
 11
-6.3227865971
 21
-22.356077753
  0
LINE
  5
755
100
AcDbEntity
  8
DRAFT
100
AcDbLine
 62
7
  6
CONTINUOUS
 10
-9.1072504704
 20
-22.3359700255
 11
-9.172526674
 21
-22.3941821702
  0
LINE
  5
756
100
AcDbEntity
  8
0
100
AcDbLine
 62
253
  6
CONTINUOUS
 10
-13.0671451875
 20
-21.900016923
 11
-13.0584183198
 21
-21.8941990932
  0
LINE
  5
757
100
AcDbEntity
  8
RACCORDO
100
AcDbLine
 62
7
  6
CONTINUOUS
 10
7.7284357224
 20
-8.1334852763
 11
7.5953961429
 21
-8.2
  0
LWPOLYLINE
  5
758
100
AcDbEntity
  8
IMPORT_IGES
100
AcDbPolyline
 62
253
  6
CONTINUOUS
 90
4
 70
0
 10
2.083291157
 20
10.750000765
 10
2.0850049646
 20
10.7501726076
 10
2.090111275
 20
10.7503310733
 10
2.0985226349
 20
10.75047887
  0
LWPOLYLINE
  5
759
100
AcDbEntity
  8
RACCORDO
100
AcDbPolyline
 62
253
  6
CONTINUOUS
 90
10
 70
0
 10
-10.6710565446
 20
8.9
 10
-10.6873740881
 20
8.8984807842
 10
-10.7031958462
 20
8.8939692927
 10
-10.7180410832
 20
8.8866025972
 10
-10.7314587333
 20
8.8766045236
 10
-10.7430411036
 20
8.8642788524
 10
-10.7524362636
 20
8.8500000907
 10
-10.759358741
 20
8.8342020899
 10
-10.763598195
 20
8.8173648626
 10
-10.7650258067
 20
8.8
  0
LWPOLYLINE
  5
75A
100
AcDbEntity
  8
IMPORT_IGES
100
AcDbPolyline
 62
253
  6
CONTINUOUS
 90
13
 70
0
 10
5.2862911558
 20
10.396506661
 10
5.2608519813
 20
10.3953579827
 10
5.2357819218
 20
10.3919224657
 10
5.2114929985
 20
10.3862440552
 10
5.1884620961
 20
10.3784333389
 10
5.1669902615
 20
10.3685914645
 10
5.1472552788
 20
10.3567441088
 10
5.1295681116
 20
10.3429428232
 10
5.114445447
 20
10.3274353282
 10
5.1023333573
 20
10.3105809278
 10
5.0935008892
 20
10.2927145083
 10
5.0881083261
 20
10.2741059125
 10
5.0862911558
 20
10.2550853298
  0
LWPOLYLINE
  5
75B
100
AcDbEntity
  8
IMPORT_IGES
100
AcDbPolyline
 62
253
  6
CONTINUOUS
 90
13
 70
0
 10
-9.8757726909
 20
9.6404428721
 10
-9.914285574
 20
9.6390234463
 10
-9.952004254
 20
9.6341442085
 10
-9.9883215112
 20
9.6259283488
 10
-10.0224897682
 20
9.6146194488
 10
-10.0541850036
 20
9.6004026806
 10
-10.0833757943
 20
9.5832474631
 10
-10.1096435004
 20
9.5631979404
 10
-10.1322109659
 20
9.5406156959
 10
-10.1504778597
 20
9.5159303233
 10
-10.1640160894
 20
9.4895763192
 10
-10.172517821
 20
9.4619563741
 10
-10.1757270001
 20
9.4335465263
  0
LINE
  5
75C
100
AcDbEntity
  8
IMPORT_IGES
100
AcDbLine
 62
253
  6
CONTINUOUS
 10
2.0985226349
 20
10.75047887
 11
2.1246304129
 21
10.7507617447
  0
LINE
  5
75D
100
AcDbEntity
  8
IMPORT_IGES
100
AcDbLine
 62
253
  6
CONTINUOUS
 10
2.1246304129
 20
10.7507617447
 11
2.2067624437
 21
10.7511525828
  0
LINE
  5
75E
100
AcDbEntity
  8
IMPORT_IGES
100
AcDbLine
 62
253
  6
CONTINUOUS
 10
-8.7576275347
 20
10.7512228026
 11
-6.1167088438
 21
10.7512452069
  0
LINE
  5
75F
100
AcDbEntity
  8
IMPORT_IGES
100
AcDbLine
 62
253
  6
CONTINUOUS
 10
1.8832911558
 20
10.8035533907
 11
-5.7167088442
 21
10.8035533909
  0
LINE
  5
760
100
AcDbEntity
  8
IMPORT_IGES
100
AcDbLine
 62
7
  6
CONTINUOUS
 10
4.9620878148
 20
10.95
 11
-8.7955061878
 21
10.95
  0
LINE
  5
761
100
AcDbEntity
  8
IMPORT_IGES
100
AcDbLine
 62
253
  6
CONTINUOUS
 10
4.5832911558
 20
11.05
 11
-8.4167088442
 21
11.05
  0
LINE
  5
762
100
AcDbEntity
  8
IMPORT_IGES
100
AcDbLine
 62
7
  6
CONTINUOUS
 10
4.4830189635
 20
11.15
 11
-8.3167088442
 21
11.15
  0
LINE
  5
763
100
AcDbEntity
  8
IMPORT_IGES
100
AcDbLine
 62
253
  6
CONTINUOUS
 10
4.9242193544
 20
10.7512225932
 11
2.2067624437
 21
10.7511525828
  0
LINE
  5
764
100
AcDbEntity
  8
IMPORT_IGES
100
AcDbLine
 62
253
  6
CONTINUOUS
 10
-6.1167088437
 20
10.751244565
 11
-5.9949592203
 21
10.7509878203
  0
LWPOLYLINE
  5
765
100
AcDbEntity
  8
IMPORT_IGES
100
AcDbPolyline
 62
253
  6
CONTINUOUS
 90
6
 70
0
 10
-5.9949592203
 20
10.7509878203
 10
-5.94350551
 20
10.750622144
 10
-5.9319341364
 20
10.7504779296
 10
-5.9235242999
 20
10.7503301768
 10
-5.9184200487
 20
10.7501717698
 10
-5.9167088442
 20
10.75
  0
LWPOLYLINE
  5
766
100
AcDbEntity
  8
IMPORT_IGES
100
AcDbPolyline
 62
253
  6
CONTINUOUS
 90
13
 70
0
 10
-9.1197104854
 20
10.3965277095
 10
-9.0936045097
 20
10.3953085706
 10
-9.0679453874
 20
10.3916926088
 10
-9.0431721577
 20
10.3857416263
 10
-9.0197087389
 20
10.3775582167
 10
-8.9979565101
 20
10.3672816304
 10
-8.9782874879
 20
10.3550853298
 10
-8.9610381761
 20
10.3411771967
 10
-8.9465037634
 20
10.3257960079
 10
-8.9349329377
 20
10.3092049398
 10
-8.9265236789
 20
10.2916878702
 10
-8.9214198719
 20
10.273544521
 10
-8.9197088442
 20
10.2550853298
  0
LWPOLYLINE
  5
767
100
AcDbEntity
  8
IMPORT_IGES
100
AcDbPolyline
 62
253
  6
CONTINUOUS
 90
10
 70
0
 10
4.9242193544
 20
10.7512225932
 10
4.929185099
 20
10.7505064906
 10
4.9338318551
 20
10.7491783277
 10
4.9381618174
 20
10.7472380218
 10
4.942099329
 20
10.7447253994
 10
4.9457270684
 20
10.7416004688
 10
4.9492813937
 20
10.7377435435
 10
4.9528390852
 20
10.7331148174
 10
4.9563218445
 20
10.7277542387
 10
4.9597295174
 20
10.7216618726
  0
LINE
  5
768
100
AcDbEntity
  8
RACCORDO
100
AcDbLine
 62
7
  6
CONTINUOUS
 10
7.5953961429
 20
8.9
 11
7.7284357224
 21
8.8334852763
  0
LINE
  5
769
100
AcDbEntity
  8
0
100
AcDbLine
 62
253
  6
CONTINUOUS
 10
-13.0584183198
 20
21.8941990932
 11
-13.0671451875
 21
21.900016923
  0
LWPOLYLINE
  5
76A
100
AcDbEntity
  8
IMPORT_IGES
100
AcDbPolyline
 62
253
  6
CONTINUOUS
 90
8
 70
0
 10
2.0419618239
 20
10.7482239013
 10
2.0247125121
 20
10.7621320344
 10
2.0050434416
 20
10.7743291397
 10
1.9832911558
 20
10.7846065215
 10
1.9598278423
 20
10.7927883308
 10
1.9350549649
 20
10.7987345748
 10
1.9093963943
 20
10.8023435114
 10
1.8832911558
 20
10.8035533907
  0
LINE
  5
76B
100
AcDbEntity
  8
DRAFT
100
AcDbLine
 62
7
  6
CONTINUOUS
 10
-9.1072504704
 20
22.3359700255
 11
-9.172526674
 21
22.3941821702
  0
LINE
  5
76C
100
AcDbEntity
  8
RACCORDO
100
AcDbLine
 62
7
  6
CONTINUOUS
 10
6.3679366997
 20
7.9653544562
 11
6.4332911558
 21
7.9
  0
LINE
  5
76D
100
AcDbEntity
  8
IMPORT_IGES
100
AcDbLine
 62
253
  6
CONTINUOUS
 10
5.2862911558
 20
10.3965066856
 11
6.0423536756
 21
9.6404371412
  0
LINE
  5
76E
100
AcDbEntity
  8
0
100
AcDbLine
 62
7
  6
CONTINUOUS
 10
-6.3667088442
 20
22.4
 11
-6.3227865971
 21
22.356077753
  0
LINE
  5
76F
100
AcDbEntity
  8
IMPORT_IGES
100
AcDbLine
 62
7
  6
CONTINUOUS
 10
6.2519753748
 20
9.7843758577
 11
5.1742193758
 21
10.8621318567
  0
LWPOLYLINE
  5
770
100
AcDbEntity
  8
0
100
AcDbPolyline
 62
7
  6
CONTINUOUS
 90
18
 70
0
 10
-6.2339919863
 20
23.8435499864
 10
-6.2534619779
 20
23.8652058808
 10
-6.2621802533
 20
23.8750310991
 10
-6.2702368658
 20
23.884199584
 10
-6.2776469359
 20
23.8927147477
 10
-6.284439017
 20
23.9006323202
 10
-6.2906176892
 20
23.9079485854
 10
-6.2962031208
 20
23.9146672595
 10
-6.3012363195
 20
23.9208552212
 10
-6.3057263197
 20
23.9265240819
 10
-6.3096742494
 20
23.9316622301
 10
-6.3130967309
 20
23.9363017102
 10
-6.3159977794
 20
23.9404472176
 10
-6.3183785833
 20
23.9440940568
 10
-6.3202454172
 20
23.9472601861
 10
-6.3216009804
 20
23.9499515917
 10
-6.3224469372
 20
23.9521622873
 10
-6.3227865971
 20
23.9538922731
  0
LWPOLYLINE
  5
771
100
AcDbEntity
  8
IMPORT_IGES
100
AcDbPolyline
 62
253
  6
CONTINUOUS
 90
11
 70
0
 10
6.3315208808
 20
9.4872718948
 10
6.3190066746
 20
9.512738074
 10
6.3021718395
 20
9.5366088502
 10
6.2812863018
 20
9.5586597544
 10
6.2563077582
 20
9.5788677695
 10
6.2273091254
 20
9.5969383214
 10
6.1948209059
 20
9.6123309637
 10
6.1594653242
 20
9.6246314847
 10
6.1218673
 20
9.6335479015
 10
6.0826038537
 20
9.6388728427
 10
6.042354389
 20
9.6404371474
  0
LINE
  5
772
100
AcDbEntity
  8
0
100
AcDbLine
 62
7
  6
CONTINUOUS
 10
-6.2339853617
 20
-23.8435426683
 11
-6.2116825545
 21
-23.8190583896
  0
LINE
  5
773
100
AcDbEntity
  8
0
100
AcDbLine
 62
7
  6
CONTINUOUS
 10
-6.2116825545
 20
-23.8190583896
 11
-6.186507992
 21
-23.7917098312
  0
LINE
  5
774
100
AcDbEntity
  8
0
100
AcDbLine
 62
7
  6
CONTINUOUS
 10
-6.186507992
 20
-23.7917098312
 11
-6.1432106026
 21
-23.7451532286
  0
LINE
  5
775
100
AcDbEntity
  8
0
100
AcDbLine
 62
7
  6
CONTINUOUS
 10
-6.1432106026
 20
-23.7451532286
 11
-6.0750083052
 21
-23.6725538202
  0
LINE
  5
776
100
AcDbEntity
  8
0
100
AcDbLine
 62
7
  6
CONTINUOUS
 10
-6.0750083052
 20
-23.6725538202
 11
-6.0368758024
 21
-23.6322335604
  0
LINE
  5
777
100
AcDbEntity
  8
0
100
AcDbLine
 62
7
  6
CONTINUOUS
 10
-6.0368758024
 20
-23.6322335604
 11
-5.8697515541
 21
-23.4563578147
  0
LINE
  5
778
100
AcDbEntity
  8
0
100
AcDbLine
 62
7
  6
CONTINUOUS
 10
-6.3230581973
 20
-23.9563493531
 11
-6.3667088442
 21
-24.0
  0
LWPOLYLINE
  5
779
100
AcDbEntity
  8
IMPORT_IGES
100
AcDbPolyline
 62
253
  6
CONTINUOUS
 90
7
 70
0
 10
6.2480515981
 20
-9.8227566963
 10
6.2742048837
 20
-9.7996800112
 10
6.2963908631
 20
-9.7740001626
 10
6.3141623197
 20
-9.7462178779
 10
6.327214049
 20
-9.7168372377
 10
6.3353498464
 20
-9.6863365307
 10
6.3384397124
 20
-9.6552357218
  0
LINE
  5
77A
100
AcDbEntity
  8
0
100
AcDbLine
 62
253
  6
CONTINUOUS
 10
-12.5671515336
 20
-22.4
 11
-12.5584246659
 21
-22.3941821702
  0
LINE
  5
77B
100
AcDbEntity
  8
IMPORT_IGES
100
AcDbLine
 62
7
  6
CONTINUOUS
 10
6.1884854039
 20
-9.9098076211
 11
4.4564289748
 21
-10.9098108667
  0
LINE
  5
77C
100
AcDbEntity
  8
IMPORT_IGES
100
AcDbLine
 62
253
  6
CONTINUOUS
 10
6.0389056487
 20
-9.8895873508
 11
5.5332911241
 21
-10.1812646504
  0
LINE
  5
77D
100
AcDbEntity
  8
IMPORT_IGES
100
AcDbLine
 62
253
  6
CONTINUOUS
 10
5.1332944902
 20
-10.2911905861
 11
4.356434587
 21
-10.7375493447
  0
LWPOLYLINE
  5
77E
100
AcDbEntity
  8
IMPORT_IGES
100
AcDbPolyline
 62
253
  6
CONTINUOUS
 90
10
 70
0
 10
4.356434587
 20
-10.7375493447
 10
4.3512920716
 20
-10.7403058168
 10
4.3460323558
 20
-10.7427475945
 10
4.3406554396
 20
-10.7448746774
 10
4.3351427357
 20
-10.7466924873
 10
4.3295128315
 20
-10.748195602
 10
4.3238214888
 20
-10.7493677556
 10
4.3180872948
 20
-10.7502035262
 10
4.3122916622
 20
-10.7507083356
 10
4.3064345911
 20
-10.7508821837
  0
LWPOLYLINE
  5
77F
100
AcDbEntity
  8
IMPORT_IGES
100
AcDbPolyline
 62
253
  6
CONTINUOUS
 90
10
 70
0
 10
6.1884854039
 20
-9.9098076211
 10
6.1752478277
 20
-9.9161035055
 10
6.1608348068
 20
-9.920354183
 10
6.1453371159
 20
-9.9224784544
 10
6.128779894
 20
-9.9224067337
 10
6.1113518724
 20
-9.9200743005
 10
6.0934352043
 20
-9.9155233871
 10
6.0752726071
 20
-9.9088654439
 10
6.0569357137
 20
-9.9001790123
 10
6.0385746414
 20
-9.8895708374
  0
LWPOLYLINE
  5
780
100
AcDbEntity
  8
IMPORT_IGES
100
AcDbPolyline
 62
253
  6
CONTINUOUS
 90
4
 70
0
 10
6.1508372825
 20
-9.8728625734
 10
6.1857733775
 20
-9.8596545859
 10
6.2183999834
 20
-9.8428551285
 10
6.2480515981
 20
-9.8227566963
  0
LINE
  5
781
100
AcDbEntity
  8
DRAFT
100
AcDbLine
 62
7
  6
CONTINUOUS
 10
7.5953961429
 20
12.5132676422
 11
3.5832911558
 21
12.5132676422
  0
LINE
  5
782
100
AcDbEntity
  8
DRAFT
100
AcDbLine
 62
7
  6
CONTINUOUS
 10
2.5832911558
 20
12.5132676422
 11
-6.4167088442
 21
12.5132676422
  0
LINE
  5
783
100
AcDbEntity
  8
DRAFT
100
AcDbLine
 62
7
  6
CONTINUOUS
 10
-7.4167088442
 20
12.5132676422
 11
-11.4288138312
 21
12.5132676422
  0
LWPOLYLINE
  5
784
100
AcDbEntity
  8
IMPORT_IGES
100
AcDbPolyline
 62
253
  6
CONTINUOUS
 90
13
 70
0
 10
5.1742176294
 20
10.8621336307
 10
5.1668825747
 20
10.8663011091
 10
5.156243868
 20
10.8671878381
 10
5.1425244925
 20
10.8645750658
 10
5.1264387856
 20
10.858617984
 10
5.1085006782
 20
10.8496273747
 10
5.0886208547
 20
10.8375773491
 10
5.0674527997
 20
10.8228314657
 10
5.0457389625
 20
10.8059373548
 10
5.0233470323
 20
10.7867764813
 10
5.0008254736
 20
10.7657322328
 10
4.9793191211
 20
10.7438633822
 10
4.9595558152
 20
10.7220094336
  0
LINE
  5
785
100
AcDbEntity
  8
0
100
AcDbLine
 62
253
  6
CONTINUOUS
 10
-12.5584246659
 20
22.3941821702
 11
-12.5671515336
 21
22.4
  0
LWPOLYLINE
  5
786
100
AcDbEntity
  8
IMPORT_IGES
100
AcDbPolyline
 62
253
  6
CONTINUOUS
 90
10
 70
0
 10
6.2519732922
 20
9.7843779403
 10
6.2379947043
 20
9.7944589806
 10
6.2212511851
 20
9.7989793195
 10
6.2016800896
 20
9.7972746144
 10
6.1792383931
 20
9.7883662675
 10
6.1541218064
 20
9.7718118221
 10
6.1271267895
 20
9.7483982236
 10
6.0991071048
 20
9.7187543029
 10
6.0706194922
 20
9.6826791741
 10
6.042358359
 20
9.6404394829
  0
LINE
  5
787
100
AcDbEntity
  8
0
100
AcDbLine
 62
7
  6
CONTINUOUS
 10
-6.3230581973
 20
23.9563493531
 11
-6.3667088442
 21
24.0
  0
LINE
  5
788
100
AcDbEntity
  8
0
100
AcDbLine
 62
7
  6
CONTINUOUS
 10
-5.8697515541
 20
23.4563578147
 11
-6.0932739546
 21
23.691942519
  0
LINE
  5
789
100
AcDbEntity
  8
0
100
AcDbLine
 62
7
  6
CONTINUOUS
 10
-6.0932739546
 20
23.691942519
 11
-6.158467975
 21
23.7615073779
  0
LINE
  5
78A
100
AcDbEntity
  8
0
100
AcDbLine
 62
7
  6
CONTINUOUS
 10
-6.158467975
 20
23.7615073779
 11
-6.1994872195
 21
23.805779536
  0
LWPOLYLINE
  5
78B
100
AcDbEntity
  8
0
100
AcDbPolyline
 62
7
  6
CONTINUOUS
 90
3
 70
0
 10
-6.1994872195
 20
23.805779536
 10
-6.2232046831
 20
23.8316665171
 10
-6.2339919863
 20
23.8435499864
  0
LWPOLYLINE
  5
78C
100
AcDbEntity
  8
RACCORDO
100
AcDbPolyline
 62
7
  6
CONTINUOUS
 90
18
 70
0
 10
7.7284357224
 20
8.8334852763
 10
7.7286917244
 20
8.8331925171
 10
7.7289411153
 20
8.8326719108
 10
7.7291838952
 20
8.8319234575
 10
7.7294199656
 20
8.830935346
 10
7.729649425
 20
8.8297193874
 10
7.7298725683
 20
8.8283110149
 10
7.7300893586
 20
8.8267156216
 10
7.7302998329
 20
8.8249278145
 10
7.7305043974
 20
8.8229668474
 10
7.7307030212
 20
8.8208385538
 10
7.7308957352
 20
8.8185371002
 10
7.7310830385
 20
8.81606424
 10
7.7312649283
 20
8.8134279499
 10
7.7314414076
 20
8.8106202532
 10
7.731612984
 20
8.8076189731
 10
7.7317798931
 20
8.8044322214
 10
7.7319418995
 20
8.8010518863
  0
LWPOLYLINE
  5
78D
100
AcDbEntity
  8
0
100
AcDbPolyline
 62
7
  6
CONTINUOUS
 90
8
 70
0
 10
8.2287735236
 20
24.2973162875
 10
8.2262443376
 20
24.3089430388
 10
8.2231647975
 20
24.320436279
 10
8.2195418772
 20
24.3317699738
 10
8.2153837816
 20
24.3429184493
 10
8.210699928
 20
24.3538564463
 10
8.2055009247
 20
24.3645591876
 10
8.1997985475
 20
24.3750024283
  0
LINE
  5
78E
100
AcDbEntity
  8
RACCORDO
100
AcDbLine
 62
253
  6
CONTINUOUS
 10
2.3469089659
 20
-17.236393613
 11
2.2876279352
 21
-17.2956746438
  0
LINE
  5
78F
100
AcDbEntity
  8
RACCORDO
100
AcDbLine
 62
253
  6
CONTINUOUS
 10
2.6465757529
 20
-17.5367039799
 11
2.5876165121
 21
-17.5956632207
  0
LINE
  5
790
100
AcDbEntity
  8
RACCORDO
100
AcDbLine
 62
7
  6
CONTINUOUS
 10
7.5953961429
 20
-12.5
 11
7.7284357224
 21
-12.4334852763
  0
LINE
  5
791
100
AcDbEntity
  8
DRAFT
100
AcDbLine
 62
7
  6
CONTINUOUS
 10
6.3184359194
 20
-16.4129962748
 11
6.1177828605
 21
-16.6548771492
  0
LWPOLYLINE
  5
792
100
AcDbEntity
  8
0
100
AcDbPolyline
 62
7
  6
CONTINUOUS
 90
5
 70
0
 10
1.6208304268
 20
-23.9015909124
 10
1.6275844681
 20
-23.8937036725
 10
1.6349627856
 20
-23.8852131357
 10
1.6429929796
 20
-23.8760640086
 10
1.6516904364
 20
-23.8662524494
  0
LWPOLYLINE
  5
793
100
AcDbEntity
  8
0
100
AcDbPolyline
 62
7
  6
CONTINUOUS
 90
12
 70
0
 10
-9.2917064159
 20
-24.4665073916
 10
-9.2815463383
 20
-24.4603145581
 10
-9.271692439
 20
-24.4536452955
 10
-9.2621670403
 20
-24.4465147107
 10
-9.2529917251
 20
-24.4389389589
 10
-9.2441872781
 20
-24.4309352005
 10
-9.2357736437
 20
-24.4225215661
 10
-9.2277698853
 20
-24.4137171191
 10
-9.2201941334
 20
-24.4045418038
 10
-9.2130635487
 20
-24.3950164051
 10
-9.206394286
 20
-24.3851625059
 10
-9.2002014525
 20
-24.3750024283
  0
LINE
  5
794
100
AcDbEntity
  8
0
100
AcDbLine
 62
7
  6
CONTINUOUS
 10
1.6516904364
 20
-23.8662524494
 11
1.6711343621
 21
-23.844609792
  0
LINE
  5
795
100
AcDbEntity
  8
0
100
AcDbLine
 62
7
  6
CONTINUOUS
 10
1.6711343621
 20
-23.844609792
 11
1.6934062937
 21
-23.8201466435
  0
LINE
  5
796
100
AcDbEntity
  8
0
100
AcDbLine
 62
7
  6
CONTINUOUS
 10
1.6934062937
 20
-23.8201466435
 11
1.7185747854
 21
-23.7927942239
  0
LINE
  5
797
100
AcDbEntity
  8
0
100
AcDbLine
 62
7
  6
CONTINUOUS
 10
1.7185747854
 20
-23.7927942239
 11
1.7619156532
 21
-23.7461793948
  0
LINE
  5
798
100
AcDbEntity
  8
0
100
AcDbLine
 62
7
  6
CONTINUOUS
 10
1.7619156532
 20
-23.7461793948
 11
1.8302739465
 21
-23.6734047495
  0
LWPOLYLINE
  5
799
100
AcDbEntity
  8
0
100
AcDbPolyline
 62
7
  6
CONTINUOUS
 90
3
 70
0
 10
1.8302739465
 20
-23.6734047495
 10
1.9720337777
 20
-23.5239242054
 10
2.0363338658
 20
-23.4563578147
  0
LWPOLYLINE
  5
79A
100
AcDbEntity
  8
0
100
AcDbPolyline
 62
7
  6
CONTINUOUS
 90
12
 70
0
 10
-9.2917064159
 20
24.4665073916
 10
-9.3021496566
 20
24.4722097688
 10
-9.3128523979
 20
24.4774087722
 10
-9.3237903949
 20
24.4820926258
 10
-9.3349388704
 20
24.4862507213
 10
-9.3462725652
 20
24.4898736417
 10
-9.3577658054
 20
24.4929531817
 10
-9.3693925567
 20
24.4954823677
 10
-9.381126478
 20
24.4974554741
 10
-9.3929409886
 20
24.4988680342
 10
-9.4048093281
 20
24.4997168498
 10
-9.4167046134
 20
24.5
  0
LINE
  5
79B
100
AcDbEntity
  8
0
100
AcDbLine
 62
7
  6
CONTINUOUS
 10
2.0363338658
 20
23.4563578147
 11
1.8119690546
 21
23.6928369767
  0
LINE
  5
79C
100
AcDbEntity
  8
0
100
AcDbLine
 62
7
  6
CONTINUOUS
 10
1.8119690546
 20
23.6928369767
 11
1.7466447793
 21
23.7625515554
  0
LINE
  5
79D
100
AcDbEntity
  8
0
100
AcDbLine
 62
7
  6
CONTINUOUS
 10
1.7466447793
 20
23.7625515554
 11
1.7056040622
 21
23.8068596585
  0
LINE
  5
79E
100
AcDbEntity
  8
0
100
AcDbLine
 62
7
  6
CONTINUOUS
 10
1.7056040622
 20
23.8068596585
 11
1.6819058163
 21
23.8327369404
  0
LWPOLYLINE
  5
79F
100
AcDbEntity
  8
0
100
AcDbPolyline
 62
7
  6
CONTINUOUS
 90
19
 70
0
 10
1.6819058163
 20
23.8327369404
 10
1.6610794579
 20
23.8557654259
 10
1.6517197443
 20
23.8662197598
 10
1.6430344667
 20
23.8760170069
 10
1.6350150505
 20
23.8851536246
 10
1.6276457396
 20
23.8936331555
 10
1.6208964523
 20
23.901513278
 10
1.614762542
 20
23.9087908768
 10
1.6092241259
 20
23.9154690671
 10
1.6042398584
 20
23.9216148736
 10
1.5998007442
 20
23.9272405051
 10
1.5959065278
 20
23.9323337527
 10
1.5925416234
 20
23.9369250142
 10
1.5897023396
 20
23.9410186345
 10
1.5873875443
 20
23.9446102688
 10
1.5855913471
 20
23.9477172805
 10
1.5843112291
 20
23.9503454576
 10
1.5835455677
 20
23.9524890121
 10
1.5832911558
 20
23.9541479441
  0
LWPOLYLINE
  5
7A0
100
AcDbEntity
  8
0
100
AcDbPolyline
 62
7
  6
CONTINUOUS
 90
12
 70
0
 10
8.1997985475
 20
-24.3750024283
 10
8.2055009247
 20
-24.3645591876
 10
8.210699928
 20
-24.3538564463
 10
8.2153837816
 20
-24.3429184493
 10
8.2195418772
 20
-24.3317699738
 10
8.2231647975
 20
-24.320436279
 10
8.2262443376
 20
-24.3089430388
 10
8.2287735236
 20
-24.2973162875
 10
8.23074663
 20
-24.2855823661
 10
8.2321591901
 20
-24.2737678556
 10
8.2330080056
 20
-24.261899516
 10
8.2332911558
 20
-24.2500042308
  0
LINE
  5
7A1
100
AcDbEntity
  8
0
100
AcDbLine
 62
7
  6
CONTINUOUS
 10
7.6966355195
 20
-20.0889833137
 11
6.9965291819
 21
-20.7899436635
  0
LINE
  5
7A2
100
AcDbEntity
  8
0
100
AcDbLine
 62
7
  6
CONTINUOUS
 10
7.7332911558
 20
-20.1990396502
 11
7.0331848183
 21
-20.9
  0
LINE
  5
7A3
100
AcDbEntity
  8
DRAFT
100
AcDbLine
 62
7
  6
CONTINUOUS
 10
6.3332911558
 20
-21.4
 11
5.3391089857
 21
-22.3941821702
  0
LINE
  5
7A4
100
AcDbEntity
  8
RACCORDO
100
AcDbLine
 62
253
  6
CONTINUOUS
 10
4.519706037
 20
19.2160661345
 11
-8.3531237253
 21
19.2160661345
  0
LINE
  5
7A5
100
AcDbEntity
  8
RACCORDO
100
AcDbLine
 62
253
  6
CONTINUOUS
 10
7.6074462859
 20
19.7895472382
 11
5.4462087987
 21
19.7895472382
  0
LINE
  5
7A6
100
AcDbEntity
  8
RACCORDO
100
AcDbLine
 62
253
  6
CONTINUOUS
 10
-9.279626487
 20
19.7895472382
 11
-11.4408639743
 21
19.7895472382
  0
LINE
  5
7A7
100
AcDbEntity
  8
RACCORDO
100
AcDbLine
 62
7
  6
CONTINUOUS
 10
4.6793952982
 20
20.0
 11
-8.5128129865
 21
20.0
  0
LINE
  5
7A8
100
AcDbEntity
  8
RACCORDO
100
AcDbLine
 62
253
  6
CONTINUOUS
 10
6.9220825877
 20
20.5664222561
 11
5.4388380405
 21
20.5664222561
  0
LINE
  5
7A9
100
AcDbEntity
  8
RACCORDO
100
AcDbLine
 62
253
  6
CONTINUOUS
 10
-9.2722557288
 20
20.5664222561
 11
-10.755500276
 21
20.5664222561
  0
LINE
  5
7AA
100
AcDbEntity
  8
DRAFT
100
AcDbLine
 62
7
  6
CONTINUOUS
 10
5.3391089857
 20
22.3941821702
 11
6.3332911558
 21
21.4
  0
LINE
  5
7AB
100
AcDbEntity
  8
0
100
AcDbLine
 62
7
  6
CONTINUOUS
 10
7.7332911558
 20
20.1990396502
 11
7.0331848183
 21
20.9
  0
LWPOLYLINE
  5
7AC
100
AcDbEntity
  8
0
100
AcDbPolyline
 62
7
  6
CONTINUOUS
 90
12
 70
0
 10
8.1997985475
 20
24.3750024283
 10
8.193605714
 20
24.3851625059
 10
8.1869364513
 20
24.3950164051
 10
8.1798058666
 20
24.4045418038
 10
8.1722301147
 20
24.4137171191
 10
8.1642263563
 20
24.4225215661
 10
8.1558127219
 20
24.4309352005
 10
8.1470082749
 20
24.4389389589
 10
8.1378329597
 20
24.4465147107
 10
8.128307561
 20
24.4536452955
 10
8.1184536617
 20
24.4603145581
 10
8.1082935841
 20
24.4665073916
  0
LINE
  5
7AD
100
AcDbEntity
  8
DRAFT
100
AcDbLine
 62
7
  6
CONTINUOUS
 10
6.1498606577
 20
-21.4537354271
 11
6.3332911558
 21
-21.4
  0
LINE
  5
7AE
100
AcDbEntity
  8
0
100
AcDbLine
 62
7
  6
CONTINUOUS
 10
-4.9167088442
 20
20.8
 11
1.0832911558
 21
20.8
  0
LINE
  5
7AF
100
AcDbEntity
  8
DRAFT
100
AcDbLine
 62
7
  6
CONTINUOUS
 10
5.6499368101
 20
20.9
 11
5.2872956101
 21
20.9
  0
LINE
  5
7B0
100
AcDbEntity
  8
0
100
AcDbLine
 62
7
  6
CONTINUOUS
 10
5.6499368101
 20
20.9
 11
7.0331848183
 21
20.9
  0
LINE
  5
7B1
100
AcDbEntity
  8
DRAFT
100
AcDbLine
 62
7
  6
CONTINUOUS
 10
-9.1207132985
 20
20.9
 11
-9.4833544984
 21
20.9
  0
LINE
  5
7B2
100
AcDbEntity
  8
0
100
AcDbLine
 62
7
  6
CONTINUOUS
 10
-9.4833544984
 20
20.9
 11
-10.8666025066
 21
20.9
  0
LINE
  5
7B3
100
AcDbEntity
  8
0
100
AcDbLine
 62
7
  6
CONTINUOUS
 10
9.2250006314
 20
21.0226497308
 11
9.2498734675
 21
21.0226497308
  0
LINE
  5
7B4
100
AcDbEntity
  8
0
100
AcDbLine
 62
7
  6
CONTINUOUS
 10
-13.0584183198
 20
21.0226497308
 11
-13.0832911558
 21
21.0226497308
  0
LINE
  5
7B5
100
AcDbEntity
  8
0
100
AcDbLine
 62
253
  6
CONTINUOUS
 10
5.6499368101
 20
21.3359869487
 11
1.0832911558
 21
21.3359869487
  0
LINE
  5
7B6
100
AcDbEntity
  8
0
100
AcDbLine
 62
253
  6
CONTINUOUS
 10
-4.9167088442
 20
21.3359869487
 11
-9.4833544984
 21
21.3359869487
  0
LINE
  5
7B7
100
AcDbEntity
  8
0
100
AcDbLine
 62
7
  6
CONTINUOUS
 10
1.0832911558
 20
21.7
 11
-4.9167088442
 21
21.7
  0
LINE
  5
7B8
100
AcDbEntity
  8
DRAFT
100
AcDbLine
 62
253
  6
CONTINUOUS
 10
5.273832782
 20
22.3359700255
 11
1.0832911558
 21
22.3359700255
  0
LINE
  5
7B9
100
AcDbEntity
  8
DRAFT
100
AcDbLine
 62
253
  6
CONTINUOUS
 10
-4.9167088442
 20
22.3359700255
 11
-9.1072504704
 21
22.3359700255
  0
LINE
  5
7BA
100
AcDbEntity
  8
DRAFT
100
AcDbLine
 62
7
  6
CONTINUOUS
 10
-12.5584246659
 20
22.3941821702
 11
-9.172526674
 21
22.3941821702
  0
LINE
  5
7BB
100
AcDbEntity
  8
0
100
AcDbLine
 62
7
  6
CONTINUOUS
 10
1.5832911558
 20
22.3941821702
 11
1.0832911558
 21
22.3941821702
  0
LINE
  5
7BC
100
AcDbEntity
  8
DRAFT
100
AcDbLine
 62
7
  6
CONTINUOUS
 10
5.3391089857
 20
22.3941821702
 11
8.7250069775
 21
22.3941821702
  0
LINE
  5
7BD
100
AcDbEntity
  8
0
100
AcDbLine
 62
7
  6
CONTINUOUS
 10
-4.9167088442
 20
22.3941821702
 11
-5.4167088442
 21
22.3941821702
  0
LINE
  5
7BE
100
AcDbEntity
  8
0
100
AcDbLine
 62
7
  6
CONTINUOUS
 10
-2.9167088442
 20
22.3947639644
 11
-0.9167088442
 21
22.3947639644
  0
LINE
  5
7BF
100
AcDbEntity
  8
RACCORDO
100
AcDbLine
 62
7
  6
CONTINUOUS
 10
2.5332911558
 20
22.4
 11
8.7337338453
 21
22.4
  0
LINE
  5
7C0
100
AcDbEntity
  8
RACCORDO
100
AcDbLine
 62
7
  6
CONTINUOUS
 10
-6.3667088442
 20
22.4
 11
-12.5671515336
 21
22.4
  0
LINE
  5
7C1
100
AcDbEntity
  8
DRAFT
100
AcDbLine
 62
7
  6
CONTINUOUS
 10
6.1498606577
 20
21.4537354271
 11
6.3332911558
 21
21.4
  0
LWPOLYLINE
  5
7C2
100
AcDbEntity
  8
0
100
AcDbPolyline
 62
7
  6
CONTINUOUS
 90
8
 70
0
 10
5.5359748684
 20
24.4954823677
 10
5.524348117
 20
24.4929531817
 10
5.5128548768
 20
24.4898736417
 10
5.5015211821
 20
24.4862507213
 10
5.4903727065
 20
24.4820926258
 10
5.4794347095
 20
24.4774087722
 10
5.4687319682
 20
24.4722097688
 10
5.4582887276
 20
24.4665073916
  0
LWPOLYLINE
  5
7C3
100
AcDbEntity
  8
0
100
AcDbPolyline
 62
7
  6
CONTINUOUS
 90
40
 70
0
 10
-12.5662166906
 20
22.4
 10
-12.5862301994
 20
22.3995989119
 10
-12.6062474417
 20
22.3983931752
 10
-12.6262359678
 20
22.3963803578
 10
-12.6461809189
 20
22.3935564624
 10
-12.6660312959
 20
22.3899231464
 10
-12.6857013228
 20
22.3854948974
 10
-12.7051415675
 20
22.380286152
 10
-12.7243393566
 20
22.3743036902
 10
-12.743265888
 20
22.3675586046
 10
-12.7618740202
 20
22.36007091
 10
-12.7801522618
 20
22.3518484808
 10
-12.7981232761
 20
22.3428793991
 10
-12.8157868025
 20
22.333155703
 10
-12.8330793296
 20
22.3227040858
 10
-12.8499292537
 20
22.3115654086
 10
-12.8663044358
 20
22.2997623963
 10
-12.8821841394
 20
22.2873115832
 10
-12.8975204372
 20
22.2742541204
 10
-12.9122656579
 20
22.2606393471
 10
-12.9264267508
 20
22.2464698921
 10
-12.9400351558
 20
22.2317142956
 10
-12.9530876997
 20
22.2163658932
 10
-12.965535281
 20
22.2004718186
 10
-12.9773377236
 20
22.1840786325
 10
-12.988478619
 20
22.1672060781
 10
-12.9989343195
 20
22.1498868057
 10
-13.0086632821
 20
22.1321932748
 10
-13.0176387752
 20
22.1141884054
 10
-13.0258681688
 20
22.0958728483
 10
-13.0333622347
 20
22.0772264828
 10
-13.0401126341
 20
22.0582621661
 10
-13.046099886
 20
22.0390258389
 10
-13.0513133516
 20
22.019545063
 10
-13.0557461482
 20
21.9998321985
 10
-13.0593835538
 20
21.9799370232
 10
-13.0622110249
 20
21.9599450105
 10
-13.0642267056
 20
21.9399070889
 10
-13.0654343224
 20
21.9198382917
 10
-13.0658360909
 20
21.8997711479
  0
LINE
  5
7C4
100
AcDbEntity
  8
0
100
AcDbLine
 62
7
  6
CONTINUOUS
 10
-11.817431842
 20
23.1226497308
 11
-9.4159858463
 21
23.1226497308
  0
LINE
  5
7C5
100
AcDbEntity
  8
0
100
AcDbLine
 62
7
  6
CONTINUOUS
 10
7.9840141537
 20
23.1226497308
 11
5.582568158
 21
23.1226497308
  0
LINE
  5
7C6
100
AcDbEntity
  8
0
100
AcDbLine
 62
253
  6
CONTINUOUS
 10
-11.8123412409
 20
23.6278312164
 11
-9.4210764474
 21
23.6278312164
  0
LINE
  5
7C7
100
AcDbEntity
  8
0
100
AcDbLine
 62
253
  6
CONTINUOUS
 10
5.5876587591
 20
23.6278312164
 11
7.9789235526
 21
23.6278312164
  0
LINE
  5
7C8
100
AcDbEntity
  8
0
100
AcDbLine
 62
253
  6
CONTINUOUS
 10
5.3376629898
 20
23.8443375673
 11
8.2289193218
 21
23.8443375673
  0
LINE
  5
7C9
100
AcDbEntity
  8
0
100
AcDbLine
 62
253
  6
CONTINUOUS
 10
-9.1710806782
 20
23.8443375673
 11
-12.0623370102
 21
23.8443375673
  0
LINE
  5
7CA
100
AcDbEntity
  8
0
100
AcDbLine
 62
7
  6
CONTINUOUS
 10
-6.3230581973
 20
23.9563493531
 11
-5.4167088442
 21
23.9563493531
  0
LINE
  5
7CB
100
AcDbEntity
  8
0
100
AcDbLine
 62
7
  6
CONTINUOUS
 10
1.5832911558
 20
23.9563493531
 11
2.489640509
 21
23.9563493531
  0
LINE
  5
7CC
100
AcDbEntity
  8
0
100
AcDbLine
 62
7
  6
CONTINUOUS
 10
-5.4167088442
 20
23.9941821702
 11
-3.1167088442
 21
23.9941821702
  0
LINE
  5
7CD
100
AcDbEntity
  8
0
100
AcDbLine
 62
7
  6
CONTINUOUS
 10
-0.7167088442
 20
23.9941821702
 11
1.5832911558
 21
23.9941821702
  0
LINE
  5
7CE
100
AcDbEntity
  8
0
100
AcDbLine
 62
7
  6
CONTINUOUS
 10
2.5332911558
 20
24.0
 11
-0.7167088442
 21
24.0
  0
LINE
  5
7CF
100
AcDbEntity
  8
0
100
AcDbLine
 62
7
  6
CONTINUOUS
 10
-3.1167088442
 20
24.0
 11
-6.3667088442
 21
24.0
  0
LINE
  5
7D0
100
AcDbEntity
  8
0
100
AcDbLine
 62
253
  6
CONTINUOUS
 10
5.3376629898
 20
24.2456323968
 11
8.2289193218
 21
24.2456323968
  0
LINE
  5
7D1
100
AcDbEntity
  8
0
100
AcDbLine
 62
253
  6
CONTINUOUS
 10
-9.1710806782
 20
24.2456323968
 11
-12.0623370102
 21
24.2456323968
  0
LWPOLYLINE
  5
7D2
100
AcDbEntity
  8
0
100
AcDbPolyline
 62
7
  6
CONTINUOUS
 90
12
 70
0
 10
8.1082935841
 20
-24.4665073916
 10
8.1184536617
 20
-24.4603145581
 10
8.128307561
 20
-24.4536452955
 10
8.1378329597
 20
-24.4465147107
 10
8.1470082749
 20
-24.4389389589
 10
8.1558127219
 20
-24.4309352005
 10
8.1642263563
 20
-24.4225215661
 10
8.1722301147
 20
-24.4137171191
 10
8.1798058666
 20
-24.4045418038
 10
8.1869364513
 20
-24.3950164051
 10
8.193605714
 20
-24.3851625059
 10
8.1997985475
 20
-24.3750024283
  0
LWPOLYLINE
  5
7D3
100
AcDbEntity
  8
0
100
AcDbPolyline
 62
7
  6
CONTINUOUS
 90
8
 70
0
 10
-11.8640251316
 20
24.4954823677
 10
-11.875651883
 20
24.4929531817
 10
-11.8871451232
 20
24.4898736417
 10
-11.8984788179
 20
24.4862507213
 10
-11.9096272935
 20
24.4820926258
 10
-11.9205652905
 20
24.4774087722
 10
-11.9312680318
 20
24.4722097688
 10
-11.9417112724
 20
24.4665073916
  0
LWPOLYLINE
  5
7D4
100
AcDbEntity
  8
0
100
AcDbPolyline
 62
7
  6
CONTINUOUS
 90
34
 70
0
 10
5.5876587591
 20
24.495628166
 10
5.5757832875
 20
24.4953455463
 10
5.563929545
 20
24.4944986445
 10
5.5521243695
 20
24.4930886486
 10
5.5403928748
 20
24.4911177026
 10
5.5287634396
 20
24.4885897127
 10
5.5172674739
 20
24.4855111341
 10
5.5059327088
 20
24.4818895243
 10
5.4947830969
 20
24.4777326699
 10
5.4838436957
 20
24.4730498963
 10
5.4731391609
 20
24.467851711
 10
5.4626939074
 20
24.4621499225
 10
5.4525318318
 20
24.4559575601
 10
5.4426760471
 20
24.4492887229
 10
5.4331487857
 20
24.4421584695
 10
5.4239715724
 20
24.4345829086
 10
5.4151651809
 20
24.4265791771
 10
5.4067495946
 20
24.4181654255
 10
5.3987439005
 20
24.4093607299
 10
5.3911662439
 20
24.4001850429
 10
5.3840337929
 20
24.3906591487
 10
5.3773627128
 20
24.3808046326
 10
5.3711681205
 20
24.3706438204
 10
5.3654640552
 20
24.3601997352
 10
5.3602634476
 20
24.3494960488
 10
5.3555780833
 20
24.3385570152
 10
5.351418579
 20
24.3274074189
 10
5.3477943619
 20
24.3160725264
 10
5.3447136433
 20
24.3045780153
 10
5.3421834062
 20
24.292949936
 10
5.3402093876
 20
24.2812146563
 10
5.3387960588
 20
24.269398774
 10
5.3379466187
 20
24.2575290557
 10
5.3376629898
 20
24.2456323968
  0
LWPOLYLINE
  5
7D5
100
AcDbEntity
  8
0
100
AcDbPolyline
 62
7
  6
CONTINUOUS
 90
5
 70
0
 10
5.5832869251
 20
24.5
 10
5.5713916398
 20
24.4997168498
 10
5.5595233003
 20
24.4988680342
 10
5.5477087897
 20
24.4974554741
 10
5.5359748684
 20
24.4954823677
  0
LWPOLYLINE
  5
7D6
100
AcDbEntity
  8
0
100
AcDbPolyline
 62
7
  6
CONTINUOUS
 90
34
 70
0
 10
-11.8123412409
 20
24.495628166
 10
-11.8242167125
 20
24.4953455463
 10
-11.836070455
 20
24.4944986445
 10
-11.8478756305
 20
24.4930886486
 10
-11.8596071252
 20
24.4911177026
 10
-11.8712365604
 20
24.4885897127
 10
-11.8827325261
 20
24.4855111341
 10
-11.8940672912
 20
24.4818895243
 10
-11.9052169031
 20
24.4777326699
 10
-11.9161563043
 20
24.4730498963
 10
-11.9268608391
 20
24.467851711
 10
-11.9373060926
 20
24.4621499225
 10
-11.9474681682
 20
24.4559575601
 10
-11.9573239529
 20
24.4492887229
 10
-11.9668512143
 20
24.4421584695
 10
-11.9760284276
 20
24.4345829086
 10
-11.9848348191
 20
24.4265791771
 10
-11.9932504054
 20
24.4181654255
 10
-12.0012560995
 20
24.4093607299
 10
-12.0088337561
 20
24.4001850429
 10
-12.0159662071
 20
24.3906591487
 10
-12.0226372872
 20
24.3808046326
 10
-12.0288318795
 20
24.3706438204
 10
-12.0345359448
 20
24.3601997352
 10
-12.0397365524
 20
24.3494960488
 10
-12.0444219167
 20
24.3385570152
 10
-12.048581421
 20
24.3274074189
 10
-12.0522056381
 20
24.3160725264
 10
-12.0552863567
 20
24.3045780153
 10
-12.0578165938
 20
24.292949936
 10
-12.0597906124
 20
24.2812146563
 10
-12.0612039412
 20
24.269398774
 10
-12.0620533813
 20
24.2575290557
 10
-12.0623370102
 20
24.2456323968
  0
LWPOLYLINE
  5
7D7
100
AcDbEntity
  8
0
100
AcDbPolyline
 62
7
  6
CONTINUOUS
 90
5
 70
0
 10
-11.8167130749
 20
24.5
 10
-11.8286083602
 20
24.4997168498
 10
-11.8404766997
 20
24.4988680342
 10
-11.8522912103
 20
24.4974554741
 10
-11.8640251316
 20
24.4954823677
  0
LINE
  5
7D8
100
AcDbEntity
  8
0
100
AcDbLine
 62
7
  6
CONTINUOUS
 10
7.9789235526
 20
24.495628166
 11
5.5876587591
 21
24.495628166
  0
LINE
  5
7D9
100
AcDbEntity
  8
0
100
AcDbLine
 62
7
  6
CONTINUOUS
 10
-9.4210764474
 20
24.495628166
 11
-11.8123412409
 21
24.495628166
  0
LWPOLYLINE
  5
7DA
100
AcDbEntity
  8
0
100
AcDbPolyline
 62
7
  6
CONTINUOUS
 90
12
 70
0
 10
8.1082935841
 20
24.4665073916
 10
8.0978503434
 20
24.4722097688
 10
8.0871476021
 20
24.4774087722
 10
8.0762096051
 20
24.4820926258
 10
8.0650611296
 20
24.4862507213
 10
8.0537274348
 20
24.4898736417
 10
8.0422341946
 20
24.4929531817
 10
8.0306074433
 20
24.4954823677
 10
8.018873522
 20
24.4974554741
 10
8.0070590114
 20
24.4988680342
 10
7.9951906719
 20
24.4997168498
 10
7.9832953866
 20
24.5
  0
CIRCLE
  5
7DB
100
AcDbEntity
  8
RACCORDO
100
AcDbCircle
 62
253
  6
CONTINUOUS
 10
-11.9167088442
 20
-21.3
 40
0.6999894264
  0
CIRCLE
  5
7DC
100
AcDbEntity
  8
RACCORDO
100
AcDbCircle
 62
7
  6
CONTINUOUS
 10
-11.9167088442
 20
-21.3
 40
0.5
  0
ARC
  5
7DD
100
AcDbEntity
  8
IMPORT_IGES
100
AcDbCircle
 62
7
  6
CONTINUOUS
 10
-9.8719052519
 20
-9.650000366
 40
0.2999990457
100
AcDbArc
 50
180.9998575135
 51
240.0057583378
  0
ARC
  5
7DE
100
AcDbEntity
  8
IMPORT_IGES
100
AcDbCircle
 62
7
  6
CONTINUOUS
 10
-9.3667088442
 20
-10.0571440889
 40
0.2
100
AcDbArc
 50
240.0000032026
 51
359.9999543684
  0
ARC
  5
7DF
100
AcDbEntity
  8
IMPORT_IGES
100
AcDbCircle
 62
7
  6
CONTINUOUS
 10
-8.9667088442
 20
-0.471081983
 40
0.2
100
AcDbArc
 50
90.0000000761
 51
179.9990411618
  0
ARC
  5
7E0
100
AcDbEntity
  8
RACCORDO
100
AcDbCircle
 62
253
  6
CONTINUOUS
 10
-8.1167088442
 20
-13.5
 40
0.6
100
AcDbArc
 50
90.0
 51
180.0
  0
ARC
  5
7E1
100
AcDbEntity
  8
0
100
AcDbCircle
 62
7
  6
CONTINUOUS
 10
-5.9167088442
 20
-23.15
 40
0.5
100
AcDbArc
 50
144.3637748935
 51
215.6362251065
  0
ARC
  5
7E2
100
AcDbEntity
  8
RACCORDO
100
AcDbCircle
 62
7
  6
CONTINUOUS
 10
-8.1167088442
 20
-13.5
 40
0.3
100
AcDbArc
 50
90.0
 51
180.0
  0
ARC
  5
7E3
100
AcDbEntity
  8
IMPORT_IGES
100
AcDbCircle
 62
7
  6
CONTINUOUS
 10
-7.0167088442
 20
-0.455
 40
0.6
100
AcDbArc
 50
269.9999999999
 51
360.0
  0
ARC
  5
7E4
100
AcDbEntity
  8
IMPORT_IGES
100
AcDbCircle
 62
7
  6
CONTINUOUS
 10
-7.3667088442
 20
-0.455
 40
0.6
100
AcDbArc
 50
180.0
 51
270.0
  0
ARC
  5
7E5
100
AcDbEntity
  8
IMPORT_IGES
100
AcDbCircle
 62
7
  6
CONTINUOUS
 10
-8.1398522846
 20
-10.65
 40
0.3
100
AcDbArc
 50
240.0000120939
 51
270.0000000642
  0
ARC
  5
7E6
100
AcDbEntity
  8
IMPORT_IGES
100
AcDbCircle
 62
253
  6
CONTINUOUS
 10
-7.0167088442
 20
-0.455
 40
0.3
100
AcDbArc
 50
270.0
 51
359.9999999999
  0
ARC
  5
7E7
100
AcDbEntity
  8
IMPORT_IGES
100
AcDbCircle
 62
253
  6
CONTINUOUS
 10
-7.3667088442
 20
-0.455
 40
0.3
100
AcDbArc
 50
180.0
 51
270.0
  0
ARC
  5
7E8
100
AcDbEntity
  8
IMPORT_IGES
100
AcDbCircle
 62
7
  6
CONTINUOUS
 10
-5.6901634342
 20
-10.7499981243
 40
0.1999996962
100
AcDbArc
 50
180.6869390008
 51
270.0029465965
  0
ARC
  5
7E9
100
AcDbEntity
  8
IMPORT_IGES
100
AcDbCircle
 62
7
  6
CONTINUOUS
 10
-7.8167088442
 20
-11.05
 40
0.1
100
AcDbArc
 50
179.9999999998
 51
270.0012693104
  0
ARC
  5
7EA
100
AcDbEntity
  8
IMPORT_IGES
100
AcDbCircle
 62
7
  6
CONTINUOUS
 10
-8.0167088442
 20
-11.05
 40
0.1
100
AcDbArc
 50
0.0000000003
 51
89.9975836551
  0
ARC
  5
7EB
100
AcDbEntity
  8
IMPORT_IGES
100
AcDbCircle
 62
253
  6
CONTINUOUS
 10
-15.2167088442
 20
8.5866773029
 40
9.5
100
AcDbArc
 50
349.9865678122
 51
354.9043096237
  0
ARC
  5
7EC
100
AcDbEntity
  8
IMPORT_IGES
100
AcDbCircle
 62
7
  6
CONTINUOUS
 10
-15.2167088442
 20
8.5866773029
 40
9.3
100
AcDbArc
 50
349.9865678122
 51
0.0001398085
  0
ARC
  5
7ED
100
AcDbEntity
  8
IMPORT_IGES
100
AcDbCircle
 62
7
  6
CONTINUOUS
 10
-9.8732603189
 20
9.5722445332
 40
0.3
100
AcDbArc
 50
135.0000018621
 51
179.0
  0
ARC
  5
7EE
100
AcDbEntity
  8
IMPORT_IGES
100
AcDbCircle
 62
7
  6
CONTINUOUS
 10
-9.1197088442
 20
10.4672173642
 40
0.2
100
AcDbArc
 50
0.0
 51
135.000001097
  0
CIRCLE
  5
7EF
100
AcDbEntity
  8
RACCORDO
100
AcDbCircle
 62
253
  6
CONTINUOUS
 10
-11.9167088442
 20
21.3
 40
0.6999894264
  0
CIRCLE
  5
7F0
100
AcDbEntity
  8
RACCORDO
100
AcDbCircle
 62
7
  6
CONTINUOUS
 10
-11.9167088442
 20
21.3
 40
0.5
  0
ARC
  5
7F1
100
AcDbEntity
  8
IMPORT_IGES
100
AcDbCircle
 62
7
  6
CONTINUOUS
 10
-8.3222168503
 20
6.3399886066
 40
1.905513565
100
AcDbArc
 50
0.1395587833
 51
178.1372298283
  0
ARC
  5
7F2
100
AcDbEntity
  8
IMPORT_IGES
100
AcDbCircle
 62
253
  6
CONTINUOUS
 10
-8.3222168503
 20
6.3399886066
 40
1.6054856081
100
AcDbArc
 50
0.1450301271
 51
178.0267814416
  0
ARC
  5
7F3
100
AcDbEntity
  8
IMPORT_IGES
100
AcDbCircle
 62
253
  6
CONTINUOUS
 10
-6.9667088442
 20
1.945
 40
1.3
100
AcDbArc
 50
89.999999999
 51
180.0
  0
ARC
  5
7F4
100
AcDbEntity
  8
IMPORT_IGES
100
AcDbCircle
 62
7
  6
CONTINUOUS
 10
-6.9667088442
 20
1.945
 40
1.0
100
AcDbArc
 50
90.0
 51
180.0
  0
ARC
  5
7F5
100
AcDbEntity
  8
IMPORT_IGES
100
AcDbCircle
 62
253
  6
CONTINUOUS
 10
-5.7167088442
 20
3.3132052805
 40
0.7
100
AcDbArc
 50
186.1256577714
 51
269.8387858744
  0
ARC
  5
7F6
100
AcDbEntity
  8
IMPORT_IGES
100
AcDbCircle
 62
253
  6
CONTINUOUS
 10
-6.9667088442
 20
1.945
 40
0.7
100
AcDbArc
 50
90.0
 51
180.0
  0
ARC
  5
7F7
100
AcDbEntity
  8
IMPORT_IGES
100
AcDbCircle
 62
7
  6
CONTINUOUS
 10
-6.5613916858
 20
2.3283292674
 40
0.6
100
AcDbArc
 50
283.9720463855
 51
334.8767063357
  0
ARC
  5
7F8
100
AcDbEntity
  8
IMPORT_IGES
100
AcDbCircle
 62
7
  6
CONTINUOUS
 10
-6.0044601811
 20
3.7132052805
 40
0.6
100
AcDbArc
 50
172.4289186542
 51
269.9999999999
  0
ARC
  5
7F9
100
AcDbEntity
  8
IMPORT_IGES
100
AcDbCircle
 62
253
  6
CONTINUOUS
 10
-6.0044601811
 20
3.7132052805
 40
0.4
100
AcDbArc
 50
172.4289186646
 51
269.9999999999
  0
ARC
  5
7FA
100
AcDbEntity
  8
IMPORT_IGES
100
AcDbCircle
 62
7
  6
CONTINUOUS
 10
-6.7167088442
 20
2.645
 40
0.3
100
AcDbArc
 50
0.0
 51
90.0000000002
  0
ARC
  5
7FB
100
AcDbEntity
  8
IMPORT_IGES
100
AcDbCircle
 62
253
  6
CONTINUOUS
 10
-6.5507590982
 20
7.0565416876
 40
0.7
100
AcDbArc
 50
280.7609054582
 51
349.9865678122
  0
ARC
  5
7FC
100
AcDbEntity
  8
IMPORT_IGES
100
AcDbCircle
 62
7
  6
CONTINUOUS
 10
-6.5507590982
 20
7.0565416876
 40
0.5
100
AcDbArc
 50
283.6943991251
 51
349.9865678122
  0
ARC
  5
7FD
100
AcDbEntity
  8
IMPORT_IGES
100
AcDbCircle
 62
7
  6
CONTINUOUS
 10
-8.7955048521
 20
10.65
 40
0.3
100
AcDbArc
 50
90.0
 51
135.000071038
  0
ARC
  5
7FE
100
AcDbEntity
  8
IMPORT_IGES
100
AcDbCircle
 62
7
  6
CONTINUOUS
 10
-5.7167088442
 20
10.75
 40
0.2
100
AcDbArc
 50
90.000000014
 51
179.9999999998
  0
ARC
  5
7FF
100
AcDbEntity
  8
IMPORT_IGES
100
AcDbCircle
 62
7
  6
CONTINUOUS
 10
-8.3167088442
 20
11.05
 40
0.1
100
AcDbArc
 50
89.9985366611
 51
179.9999999999
  0
ARC
  5
800
100
AcDbEntity
  8
IMPORT_IGES
100
AcDbCircle
 62
7
  6
CONTINUOUS
 10
-8.5167088442
 20
11.05
 40
0.1
100
AcDbArc
 50
270.0028894103
 51
360.0
  0
ARC
  5
801
100
AcDbEntity
  8
IMPORT_IGES
100
AcDbCircle
 62
7
  6
CONTINUOUS
 10
-2.6341008126
 20
3.2652346042
 40
4.0
100
AcDbArc
 50
123.4933347856
 51
172.4289186646
  0
ARC
  5
802
100
AcDbEntity
  8
IMPORT_IGES
100
AcDbCircle
 62
253
  6
CONTINUOUS
 10
-2.6341008126
 20
3.2652346042
 40
3.8
100
AcDbArc
 50
123.4933347857
 51
172.4289186646
  0
ARC
  5
803
100
AcDbEntity
  8
IMPORT_IGES
100
AcDbCircle
 62
7
  6
CONTINUOUS
 10
-2.8167088442
 20
3.888305283
 40
0.3
100
AcDbArc
 50
270.0
 51
360.0
  0
ARC
  5
804
100
AcDbEntity
  8
0
100
AcDbCircle
 62
7
  6
CONTINUOUS
 10
-5.9167088442
 20
23.15
 40
0.5
100
AcDbArc
 50
144.3637748935
 51
215.6362251065
  0
ARC
  5
805
100
AcDbEntity
  8
0
100
AcDbCircle
 62
7
  6
CONTINUOUS
 10
2.0832911558
 20
-23.15
 40
0.5
100
AcDbArc
 50
324.3637748935
 51
35.6362251065
  0
ARC
  5
806
100
AcDbEntity
  8
IMPORT_IGES
100
AcDbCircle
 62
7
  6
CONTINUOUS
 10
-1.9167088442
 20
-0.18
 40
4.5
100
AcDbArc
 50
183.051925112
 51
356.9480150513
  0
ARC
  5
807
100
AcDbEntity
  8
IMPORT_IGES
100
AcDbCircle
 62
7
  6
CONTINUOUS
 10
1.8567524251
 20
-10.7499918865
 40
0.1999984052
100
AcDbArc
 50
269.9972218018
 51
359.4199982135
  0
CIRCLE
  5
808
100
AcDbEntity
  8
RACCORDO
100
AcDbCircle
 62
253
  6
CONTINUOUS
 10
8.0832911558
 20
-21.3
 40
0.6999894264
  0
ARC
  5
809
100
AcDbEntity
  8
RACCORDO
100
AcDbCircle
 62
253
  6
CONTINUOUS
 10
4.2832911558
 20
-13.5
 40
0.6
100
AcDbArc
 50
0.0
 51
90.0
  0
CIRCLE
  5
80A
100
AcDbEntity
  8
RACCORDO
100
AcDbCircle
 62
7
  6
CONTINUOUS
 10
8.0832911558
 20
-21.3
 40
0.5
  0
ARC
  5
80B
100
AcDbEntity
  8
RACCORDO
100
AcDbCircle
 62
7
  6
CONTINUOUS
 10
4.2832911558
 20
-13.5
 40
0.3
100
AcDbArc
 50
0.0
 51
90.0
  0
ARC
  5
80C
100
AcDbEntity
  8
IMPORT_IGES
100
AcDbCircle
 62
7
  6
CONTINUOUS
 10
3.1832911558
 20
-0.455
 40
0.6
100
AcDbArc
 50
180.0
 51
270.0
  0
ARC
  5
80D
100
AcDbEntity
  8
IMPORT_IGES
100
AcDbCircle
 62
7
  6
CONTINUOUS
 10
3.5332911558
 20
-0.455
 40
0.6
100
AcDbArc
 50
269.9999999999
 51
360.0
  0
ARC
  5
80E
100
AcDbEntity
  8
IMPORT_IGES
100
AcDbCircle
 62
7
  6
CONTINUOUS
 10
4.3064345963
 20
-10.65
 40
0.3
100
AcDbArc
 50
269.9999717711
 51
299.9999553967
  0
ARC
  5
80F
100
AcDbEntity
  8
IMPORT_IGES
100
AcDbCircle
 62
253
  6
CONTINUOUS
 10
3.5332911558
 20
-0.455
 40
0.3
100
AcDbArc
 50
270.0000000001
 51
359.9999999999
  0
ARC
  5
810
100
AcDbEntity
  8
IMPORT_IGES
100
AcDbCircle
 62
253
  6
CONTINUOUS
 10
3.1832911558
 20
-0.455
 40
0.3
100
AcDbArc
 50
180.0
 51
270.0
  0
ARC
  5
811
100
AcDbEntity
  8
IMPORT_IGES
100
AcDbCircle
 62
7
  6
CONTINUOUS
 10
6.0384878272
 20
-9.6500005556
 40
0.2999989024
100
AcDbArc
 50
300.0000000008
 51
359.0003443683
  0
ARC
  5
812
100
AcDbEntity
  8
IMPORT_IGES
100
AcDbCircle
 62
7
  6
CONTINUOUS
 10
5.5332911557
 20
-10.057144089
 40
0.2
100
AcDbArc
 50
180.0000360725
 51
300.0000003414
  0
ARC
  5
813
100
AcDbEntity
  8
IMPORT_IGES
100
AcDbCircle
 62
7
  6
CONTINUOUS
 10
5.1332911558
 20
-0.4710819831
 40
0.2
100
AcDbArc
 50
0.0
 51
89.9855208623
  0
ARC
  5
814
100
AcDbEntity
  8
IMPORT_IGES
100
AcDbCircle
 62
7
  6
CONTINUOUS
 10
4.1832911558
 20
-11.05
 40
0.1
100
AcDbArc
 50
90.0032404254
 51
179.9999999998
  0
ARC
  5
815
100
AcDbEntity
  8
IMPORT_IGES
100
AcDbCircle
 62
7
  6
CONTINUOUS
 10
3.9832911558
 20
-11.05
 40
0.1
100
AcDbArc
 50
269.998492417
 51
360.0
  0
ARC
  5
816
100
AcDbEntity
  8
IMPORT_IGES
100
AcDbCircle
 62
253
  6
CONTINUOUS
 10
-1.9167088442
 20
0.1502977476
 40
7.4999707336
100
AcDbArc
 50
70.5285040378
 51
109.4716831012
  0
ARC
  5
817
100
AcDbEntity
  8
IMPORT_IGES
100
AcDbCircle
 62
7
  6
CONTINUOUS
 10
-1.9167088442
 20
2.181099574
 40
5.3
100
AcDbArc
 50
56.5066652144
 51
123.4933347856
  0
ARC
  5
818
100
AcDbEntity
  8
IMPORT_IGES
100
AcDbCircle
 62
253
  6
CONTINUOUS
 10
-1.9167088442
 20
2.181099574
 40
5.0999439942
100
AcDbArc
 50
56.5066652143
 51
123.4933347857
  0
ARC
  5
819
100
AcDbEntity
  8
IMPORT_IGES
100
AcDbCircle
 62
7
  6
CONTINUOUS
 10
-1.9167088442
 20
0.1502977476
 40
4.53
100
AcDbArc
 50
25.1232936643
 51
154.8767063357
  0
ARC
  5
81A
100
AcDbEntity
  8
IMPORT_IGES
100
AcDbCircle
 62
7
  6
CONTINUOUS
 10
-1.1993168758
 20
3.2652346042
 40
4.0
100
AcDbArc
 50
7.571081337
 51
56.5066652144
  0
ARC
  5
81B
100
AcDbEntity
  8
IMPORT_IGES
100
AcDbCircle
 62
253
  6
CONTINUOUS
 10
-1.1993168758
 20
3.2652346042
 40
3.8
100
AcDbArc
 50
7.5710813354
 51
56.5066652143
  0
ARC
  5
81C
100
AcDbEntity
  8
IMPORT_IGES
100
AcDbCircle
 62
7
  6
CONTINUOUS
 10
-1.0167088442
 20
3.888305283
 40
0.3
100
AcDbArc
 50
180.0
 51
270.0
  0
ARC
  5
81D
100
AcDbEntity
  8
IMPORT_IGES
100
AcDbCircle
 62
253
  6
CONTINUOUS
 10
1.8832911558
 20
3.3132052805
 40
0.7
100
AcDbArc
 50
270.1612141257
 51
354.4162937363
  0
ARC
  5
81E
100
AcDbEntity
  8
IMPORT_IGES
100
AcDbCircle
 62
7
  6
CONTINUOUS
 10
2.1710424928
 20
3.7132052805
 40
0.6
100
AcDbArc
 50
269.9999999428
 51
7.5710813447
  0
ARC
  5
81F
100
AcDbEntity
  8
IMPORT_IGES
100
AcDbCircle
 62
253
  6
CONTINUOUS
 10
2.1710424928
 20
3.7132052805
 40
0.4
100
AcDbArc
 50
270.0000000002
 51
7.5710813353
  0
ARC
  5
820
100
AcDbEntity
  8
IMPORT_IGES
100
AcDbCircle
 62
253
  6
CONTINUOUS
 10
3.1332911558
 20
1.945
 40
1.3
100
AcDbArc
 50
0.0
 51
90.0
  0
ARC
  5
821
100
AcDbEntity
  8
IMPORT_IGES
100
AcDbCircle
 62
7
  6
CONTINUOUS
 10
3.1332911558
 20
1.945
 40
1.0
100
AcDbArc
 50
0.0
 51
90.0
  0
ARC
  5
822
100
AcDbEntity
  8
IMPORT_IGES
100
AcDbCircle
 62
253
  6
CONTINUOUS
 10
3.1332911558
 20
1.945
 40
0.7
100
AcDbArc
 50
0.0
 51
90.0
  0
ARC
  5
823
100
AcDbEntity
  8
IMPORT_IGES
100
AcDbCircle
 62
7
  6
CONTINUOUS
 10
2.7279739974
 20
2.3283292674
 40
0.6
100
AcDbArc
 50
205.1232936644
 51
256.0468877463
  0
ARC
  5
824
100
AcDbEntity
  8
IMPORT_IGES
100
AcDbCircle
 62
7
  6
CONTINUOUS
 10
2.8832911558
 20
2.645
 40
0.3
100
AcDbArc
 50
90.0000000003
 51
179.9999999994
  0
ARC
  5
825
100
AcDbEntity
  8
IMPORT_IGES
100
AcDbCircle
 62
7
  6
CONTINUOUS
 10
4.488799162
 20
6.3399886066
 40
1.905513565
100
AcDbArc
 50
1.8627654693
 51
179.8604365352
  0
ARC
  5
826
100
AcDbEntity
  8
IMPORT_IGES
100
AcDbCircle
 62
253
  6
CONTINUOUS
 10
4.488799162
 20
6.3399886066
 40
1.605485616
100
AcDbArc
 50
1.8712366982
 51
179.8439250555
  0
ARC
  5
827
100
AcDbEntity
  8
IMPORT_IGES
100
AcDbCircle
 62
253
  6
CONTINUOUS
 10
2.7173414099
 20
7.0565416876
 40
0.7
100
AcDbArc
 50
190.0134321878
 51
259.2439469407
  0
ARC
  5
828
100
AcDbEntity
  8
IMPORT_IGES
100
AcDbCircle
 62
7
  6
CONTINUOUS
 10
2.7173414099
 20
7.0565416876
 40
0.5
100
AcDbArc
 50
190.0134321878
 51
256.3053094334
  0
ARC
  5
829
100
AcDbEntity
  8
IMPORT_IGES
100
AcDbCircle
 62
7
  6
CONTINUOUS
 10
1.8832911558
 20
10.75
 40
0.2
100
AcDbArc
 50
0.0000000002
 51
90.0
  0
ARC
  5
82A
100
AcDbEntity
  8
IMPORT_IGES
100
AcDbCircle
 62
7
  6
CONTINUOUS
 10
4.4832911558
 20
11.05
 40
0.1
100
AcDbArc
 50
0.0000000001
 51
90.0014633388
  0
ARC
  5
82B
100
AcDbEntity
  8
IMPORT_IGES
100
AcDbCircle
 62
7
  6
CONTINUOUS
 10
4.6832911558
 20
11.05
 40
0.1
100
AcDbArc
 50
179.9999999999
 51
269.9971105898
  0
ARC
  5
82C
100
AcDbEntity
  8
0
100
AcDbCircle
 62
7
  6
CONTINUOUS
 10
2.0832911558
 20
23.15
 40
0.5
100
AcDbArc
 50
324.3637748935
 51
35.6362251065
  0
ARC
  5
82D
100
AcDbEntity
  8
IMPORT_IGES
100
AcDbCircle
 62
253
  6
CONTINUOUS
 10
11.3832911558
 20
8.5866773029
 40
9.5
100
AcDbArc
 50
185.0956903802
 51
190.0134321878
  0
ARC
  5
82E
100
AcDbEntity
  8
IMPORT_IGES
100
AcDbCircle
 62
7
  6
CONTINUOUS
 10
11.3832911558
 20
8.5866773029
 40
9.3
100
AcDbArc
 50
180.0000007965
 51
190.0134321859
  0
ARC
  5
82F
100
AcDbEntity
  8
IMPORT_IGES
100
AcDbCircle
 62
7
  6
CONTINUOUS
 10
4.9620871638
 20
10.65
 40
0.3
100
AcDbArc
 50
44.9999520207
 51
89.9997513231
  0
ARC
  5
830
100
AcDbEntity
  8
IMPORT_IGES
100
AcDbCircle
 62
7
  6
CONTINUOUS
 10
6.0398426306
 20
9.5722445332
 40
0.3
100
AcDbArc
 50
1.0
 51
44.9999963826
  0
ARC
  5
831
100
AcDbEntity
  8
IMPORT_IGES
100
AcDbCircle
 62
7
  6
CONTINUOUS
 10
5.2862911558
 20
10.4672173642
 40
0.2
100
AcDbArc
 50
44.9999998017
 51
180.0
  0
CIRCLE
  5
832
100
AcDbEntity
  8
RACCORDO
100
AcDbCircle
 62
253
  6
CONTINUOUS
 10
8.0832911558
 20
21.3
 40
0.6999894264
  0
CIRCLE
  5
833
100
AcDbEntity
  8
RACCORDO
100
AcDbCircle
 62
7
  6
CONTINUOUS
 10
8.0832911558
 20
21.3
 40
0.5
  0
ELLIPSE
  5
834
100
AcDbEntity
  8
IMPORT_IGES
100
AcDbEllipse
 62
7
  6
CONTINUOUS
 10
-7.3393955003
 20
-9.2117237174
 30
0.0
 11
0.0
 21
2.0
 31
0.0
 40
0.0633224816
 41
-3.3881354374
 42
-3.1415926536
  0
ELLIPSE
  5
835
100
AcDbEntity
  8
IMPORT_IGES
100
AcDbEllipse
 62
7
  6
CONTINUOUS
 10
3.505977812
 20
-9.2117237174
 30
0.0
 11
0.0
 21
2.0
 31
0.0
 40
0.0633224816
 41
-3.1415926536
 42
-2.8950499539
  0
ELLIPSE
  5
836
100
AcDbEntity
  8
IMPORT_IGES
100
AcDbEllipse
 62
7
  6
CONTINUOUS
 10
-3.6215623465
 20
-3.6510384313
 30
0.0
 11
0.3
 21
-0.0
 31
0.0
 40
0.0238095238
 41
-0.0
 42
1.5707963268
  0
ELLIPSE
  5
837
100
AcDbEntity
  8
IMPORT_IGES
100
AcDbEllipse
 62
7
  6
CONTINUOUS
 10
-0.1118553418
 20
4.3755287456
 30
0.0
 11
0.2678784027
 21
0.6467156728
 31
0.0
 40
1.0
 41
-4.3196898987
 42
-3.3571391508
  0
ELLIPSE
  5
838
100
AcDbEntity
  8
IMPORT_IGES
100
AcDbEllipse
 62
7
  6
CONTINUOUS
 10
-3.7215623465
 20
4.3755287456
 30
0.0
 11
0.0184539869
 21
0.699756708
 31
0.0
 40
1.0
 41
-2.5069811817
 42
-1.5444304338
  0
ELLIPSE
  5
839
100
AcDbEntity
  8
IMPORT_IGES
100
AcDbEllipse
 62
7
  6
CONTINUOUS
 10
0.6881446582
 20
3.6144957592
 30
0.0
 11
0.3
 21
0.0
 31
0.0
 40
0.0158730159
 41
-1.5707963268
 42
0.0
  0
ELLIPSE
  5
83A
100
AcDbEntity
  8
IMPORT_IGES
100
AcDbEllipse
 62
7
  6
CONTINUOUS
 10
0.6881446582
 20
-3.6510384313
 30
0.0
 11
0.3
 21
-0.0
 31
0.0
 40
0.0238095238
 41
0.517709493
 42
1.5707963268
  0
ELLIPSE
  5
83B
100
AcDbEntity
  8
IMPORT_IGES
100
AcDbEllipse
 62
7
  6
CONTINUOUS
 10
-3.6215623465
 20
3.6144957592
 30
0.0
 11
0.3
 21
0.0
 31
0.0
 40
0.0158730159
 41
-1.5707963268
 42
0.0
  0
ELLIPSE
  5
83C
100
AcDbEntity
  8
IMPORT_IGES
100
AcDbEllipse
 62
7
  6
CONTINUOUS
 10
-0.2118553418
 20
3.6144957592
 30
0.0
 11
0.3
 21
0.0
 31
0.0
 40
0.0158730159
 41
-3.1415926536
 42
-1.5707963268
  0
ELLIPSE
  5
83D
100
AcDbEntity
  8
IMPORT_IGES
100
AcDbEllipse
 62
7
  6
CONTINUOUS
 10
-6.3215623465
 20
7.6484451431
 30
0.0
 11
0.3
 21
0.0
 31
0.0
 40
0.020979021
 41
-0.5228872352
 42
-0.0
  0
ELLIPSE
  5
83E
100
AcDbEntity
  8
IMPORT_IGES
100
AcDbEllipse
 62
7
  6
CONTINUOUS
 10
-3.7116101351
 20
-4.4341372239
 30
0.0
 11
0.0025785652
 21
0.6999952507
 31
0.0
 40
1.0
 41
-1.3982857458
 42
-0.5873397397
  0
ELLIPSE
  5
83F
100
AcDbEntity
  8
IMPORT_IGES
100
AcDbEllipse
 62
7
  6
CONTINUOUS
 10
-0.2118553418
 20
-3.6510384313
 30
0.0
 11
0.3
 21
-0.0
 31
0.0
 40
0.0238095238
 41
1.5707963268
 42
3.1415926536
  0
ELLIPSE
  5
840
100
AcDbEntity
  8
IMPORT_IGES
100
AcDbEllipse
 62
7
  6
CONTINUOUS
 10
-0.1218075532
 20
-4.4341372239
 30
0.0
 11
0.214179254
 21
0.6664287262
 31
0.0
 40
1.0
 41
0.9019809199
 42
1.712926926
  0
ELLIPSE
  5
841
100
AcDbEntity
  8
IMPORT_IGES
100
AcDbEllipse
 62
7
  6
CONTINUOUS
 10
-4.5215623465
 20
3.6144957592
 30
0.0
 11
0.3
 21
0.0
 31
0.0
 40
0.0158730159
 41
3.1415926536
 42
4.7123889804
  0
ELLIPSE
  5
842
100
AcDbEntity
  8
IMPORT_IGES
100
AcDbEllipse
 62
7
  6
CONTINUOUS
 10
-4.5215623465
 20
-3.6510384313
 30
0.0
 11
0.3
 21
0.0
 31
0.0
 40
0.0238095238
 41
1.5707963268
 42
2.6238824923
  0
ELLIPSE
  5
843
100
AcDbEntity
  8
IMPORT_IGES
100
AcDbEllipse
 62
7
  6
CONTINUOUS
 10
5.5332911558
 20
-6.4663853497
 30
0.0
 11
0.0
 21
1.5881180375
 31
0.0
 40
0.1259352235
 41
-4.7123889803
 42
-3.4987217427
  0
ELLIPSE
  5
844
100
AcDbEntity
  8
IMPORT_IGES
100
AcDbEllipse
 62
7
  6
CONTINUOUS
 10
-7.4667088442
 20
-6.4663853496
 30
0.0
 11
0.0
 21
1.5881180375
 31
0.0
 40
0.1259352235
 41
-4.7123889803
 42
-3.4987217427
  0
ELLIPSE
  5
845
100
AcDbEntity
  8
RACCORDO
100
AcDbEllipse
 62
7
  6
CONTINUOUS
 10
-10.9166326801
 20
-16.0000190392
 30
0.0
 11
0.4473055582
 21
-0.2236357461
 31
0.0
 40
0.9998096356
 41
-3.1308609679
 42
-2.6780516535
  0
ELLIPSE
  5
846
100
AcDbEntity
  8
RACCORDO
100
AcDbEllipse
 62
7
  6
CONTINUOUS
 10
-10.9166326801
 20
-16.0000190392
 30
0.0
 11
0.4473055582
 21
-0.2236357461
 31
0.0
 40
0.9998096356
 41
2.0344896259
 42
2.2038115821
  0
ELLIPSE
  5
847
100
AcDbEntity
  8
RACCORDO
100
AcDbEllipse
 62
7
  6
CONTINUOUS
 10
7.0832149918
 20
-16.0000190392
 30
0.0
 11
0.4473055582
 21
0.2236357461
 31
0.0
 40
0.9998096356
 41
0.9377810714
 42
1.1071030277
  0
ELLIPSE
  5
848
100
AcDbEntity
  8
RACCORDO
100
AcDbEllipse
 62
7
  6
CONTINUOUS
 10
7.0832149918
 20
-16.0000190392
 30
0.0
 11
0.4473055582
 21
0.2236357461
 31
0.0
 40
0.9998096356
 41
-0.4635410001
 42
-0.0107316857
  0
ELLIPSE
  5
849
100
AcDbEntity
  8
RACCORDO
100
AcDbEllipse
 62
7
  6
CONTINUOUS
 10
-8.9667054595
 20
22.6002744692
 30
0.0
 11
0.0220972656
 21
0.1990550872
 31
0.0
 40
0.9986126811
 41
-4.601678501
 42
-3.031186653
  0
ELLIPSE
  5
84A
100
AcDbEntity
  8
RACCORDO
100
AcDbEllipse
 62
7
  6
CONTINUOUS
 10
-12.2667122288
 20
22.6002744692
 30
0.0
 11
-0.0220972656
 21
0.1990550872
 31
0.0
 40
0.9986126811
 41
-3.2519986542
 42
-1.6815068062
  0
ELLIPSE
  5
84B
100
AcDbEntity
  8
RACCORDO
100
AcDbEllipse
 62
7
  6
CONTINUOUS
 10
8.4332945405
 20
22.6002744692
 30
0.0
 11
0.0220972656
 21
0.1990550872
 31
0.0
 40
0.9986126811
 41
-4.601678501
 42
-3.031186653
  0
ELLIPSE
  5
84C
100
AcDbEntity
  8
RACCORDO
100
AcDbEllipse
 62
7
  6
CONTINUOUS
 10
5.1332877712
 20
22.6002744692
 30
0.0
 11
-0.0220972656
 21
0.1990550872
 31
0.0
 40
0.9986126811
 41
-3.2519986542
 42
-1.6815068062
  0
ELLIPSE
  5
84D
100
AcDbEntity
  8
RACCORDO
100
AcDbEllipse
 62
7
  6
CONTINUOUS
 10
-12.2667122288
 20
-22.6002744692
 30
0.0
 11
0.0220972656
 21
0.1990550872
 31
0.0
 40
0.9986126811
 41
-1.4600858474
 42
0.1104060006
  0
ELLIPSE
  5
84E
100
AcDbEntity
  8
RACCORDO
100
AcDbEllipse
 62
7
  6
CONTINUOUS
 10
-8.9667054595
 20
-22.6002744692
 30
0.0
 11
-0.0220972656
 21
0.1990550872
 31
0.0
 40
0.9986126811
 41
-0.1104060006
 42
1.4600858474
  0
ELLIPSE
  5
84F
100
AcDbEntity
  8
RACCORDO
100
AcDbEllipse
 62
7
  6
CONTINUOUS
 10
5.1332877712
 20
-22.6002744692
 30
0.0
 11
0.0220972656
 21
0.1990550872
 31
0.0
 40
0.9986126811
 41
-1.4600858474
 42
0.1104060006
  0
ELLIPSE
  5
850
100
AcDbEntity
  8
RACCORDO
100
AcDbEllipse
 62
7
  6
CONTINUOUS
 10
8.4332945405
 20
-22.6002744692
 30
0.0
 11
-0.0220972656
 21
0.1990550872
 31
0.0
 40
0.9986126811
 41
-0.1104060006
 42
1.4600858474
  0
ELLIPSE
  5
851
100
AcDbEntity
  8
RACCORDO
100
AcDbEllipse
 62
7
  6
CONTINUOUS
 10
-11.656459546
 20
19.6676556748
 30
0.0
 11
0.9005489241
 21
0.8994510755
 31
0.0
 40
0.0348994837
 41
-1.3641349085
 42
-0.0174320068
  0
ELLIPSE
  5
852
100
AcDbEntity
  8
RACCORDO
100
AcDbEllipse
 62
7
  6
CONTINUOUS
 10
7.8230418577
 20
19.6676556748
 30
0.0
 11
0.9005489241
 21
-0.8994510755
 31
0.0
 40
0.0348994837
 41
-3.1241606468
 42
-1.7774577451
  0
ELLIPSE
  5
853
100
AcDbEntity
  8
0
100
AcDbEllipse
 62
7
  6
CONTINUOUS
 10
-0.7167088442
 20
23.7941787855
 30
0.0
 11
0.0
 21
0.2000033847
 31
0.0
 40
0.9999830769
 41
0.0
 42
1.5707963268
  0
ELLIPSE
  5
854
100
AcDbEntity
  8
0
100
AcDbEllipse
 62
7
  6
CONTINUOUS
 10
-3.1167088442
 20
-23.7941787855
 30
0.0
 11
-0.0
 21
-0.2000033847
 31
0.0
 40
0.9999830769
 41
0.0
 42
1.5707963268
  0
ELLIPSE
  5
855
100
AcDbEntity
  8
0
100
AcDbEllipse
 62
7
  6
CONTINUOUS
 10
-3.1167088442
 20
23.7941787855
 30
0.0
 11
-0.0
 21
-0.2000033847
 31
0.0
 40
0.9999830769
 41
1.5707963268
 42
3.1415926536
  0
ELLIPSE
  5
856
100
AcDbEntity
  8
0
100
AcDbEllipse
 62
7
  6
CONTINUOUS
 10
-0.7167088442
 20
-23.7941787855
 30
0.0
 11
0.0
 21
0.2000033847
 31
0.0
 40
0.9999830769
 41
1.5707963268
 42
3.1415926536
  0
ELLIPSE
  5
857
100
AcDbEntity
  8
RACCORDO
100
AcDbEllipse
 62
7
  6
CONTINUOUS
 10
5.0832721166
 20
10.3999809608
 30
0.0
 11
0.3535803156
 21
0.3535803156
 31
0.0
 40
0.9999238505
 41
-0.6721097206
 42
0.6887008752
  0
ELLIPSE
  5
858
100
AcDbEntity
  8
RACCORDO
100
AcDbEllipse
 62
7
  6
CONTINUOUS
 10
-8.916689805
 20
10.3999809608
 30
0.0
 11
-0.3535803156
 21
0.3535803156
 31
0.0
 40
0.9999238505
 41
-0.3679392257
 42
0.6721695984
  0
ELLIPSE
  5
859
100
AcDbEntity
  8
RACCORDO
100
AcDbEllipse
 62
7
  6
CONTINUOUS
 10
-8.916689805
 20
10.3999809608
 30
0.0
 11
0.3535803156
 21
-0.3535803156
 31
0.0
 40
0.9999238505
 41
2.4620335335
 42
2.7736534279
  0
ELLIPSE
  5
85A
100
AcDbEntity
  8
RACCORDO
100
AcDbEllipse
 62
7
  6
CONTINUOUS
 10
-8.7167088442
 20
-11.5098903107
 30
0.0
 11
0.3
 21
0.0
 31
0.0
 40
0.0058178298
 41
-1.5707963268
 42
-0.0
  0
ELLIPSE
  5
85B
100
AcDbEntity
  8
RACCORDO
100
AcDbEllipse
 62
7
  6
CONTINUOUS
 10
2.3465643048
 20
-17.536726851
 30
0.0
 11
0.1197781703
 21
0.2754963673
 31
0.0
 40
0.998430313
 41
-1.1611756667
 42
0.4095445076
  0
ELLIPSE
  5
85C
100
AcDbEntity
  8
RACCORDO
100
AcDbEllipse
 62
7
  6
CONTINUOUS
 10
-6.1799819932
 20
-17.536726851
 30
0.0
 11
-0.1197781703
 21
0.2754963673
 31
0.0
 40
0.998430313
 41
-0.4095445076
 42
1.1611756667
  0
ELLIPSE
  5
85D
100
AcDbEntity
  8
0
100
AcDbEllipse
 62
7
  6
CONTINUOUS
 10
2.0363338658
 20
-22.3560930869
 30
0.0
 11
0.4530427099
 21
0.0
 31
0.0
 40
0.0058178298
 41
0.0058177642
 42
3.1415926536
  0
ELLIPSE
  5
85E
100
AcDbEntity
  8
0
100
AcDbEllipse
 62
7
  6
CONTINUOUS
 10
-5.8697515541
 20
-22.3560930869
 30
0.0
 11
0.4530427099
 21
-0.0
 31
0.0
 40
0.0058178298
 41
-0.0
 42
3.1357748894
  0
ELLIPSE
  5
85F
100
AcDbEntity
  8
0
100
AcDbEllipse
 62
7
  6
CONTINUOUS
 10
2.0363338658
 20
22.3560930869
 30
0.0
 11
0.4530427099
 21
-0.0
 31
0.0
 40
0.0058178298
 41
-3.1415926536
 42
-0.0058177642
  0
ELLIPSE
  5
860
100
AcDbEntity
  8
0
100
AcDbEllipse
 62
7
  6
CONTINUOUS
 10
-5.8697515541
 20
22.3560930869
 30
0.0
 11
0.4530427099
 21
-0.0
 31
0.0
 40
0.0058178298
 41
-3.1357748894
 42
-0.0
  0
ELLIPSE
  5
861
100
AcDbEntity
  8
DRAFT
100
AcDbEllipse
 62
7
  6
CONTINUOUS
 10
-10.1073053476
 20
21.3359869487
 30
0.0
 11
1.0000571192
 21
0.9999809595
 31
0.0
 40
0.0061705924
 41
-1.1948539202
 42
0.0003532199
  0
ELLIPSE
  5
862
100
AcDbEntity
  8
DRAFT
100
AcDbEllipse
 62
7
  6
CONTINUOUS
 10
6.2738876593
 20
21.3359869487
 30
0.0
 11
1.0000571192
 21
-0.9999809595
 31
0.0
 40
0.0061705924
 41
3.1412394337
 42
4.3364465738
  0
ELLIPSE
  5
863
100
AcDbEntity
  8
DRAFT
100
AcDbEllipse
 62
7
  6
CONTINUOUS
 10
6.2738876593
 20
-21.3359869487
 30
0.0
 11
1.0000571192
 21
0.9999809595
 31
0.0
 40
0.0061705924
 41
1.9467387334
 42
3.1419458735
  0
ELLIPSE
  5
864
100
AcDbEntity
  8
DRAFT
100
AcDbEllipse
 62
7
  6
CONTINUOUS
 10
-10.1073053476
 20
-21.3359869487
 30
0.0
 11
1.0000571192
 21
-0.9999809595
 31
0.0
 40
0.0061705924
 41
-0.0003532199
 42
1.1948539202
  0
ELLIPSE
  5
865
100
AcDbEntity
  8
0
100
AcDbEllipse
 62
7
  6
CONTINUOUS
 10
7.983286925
 20
23.4113248654
 30
0.0
 11
-0.0029088041
 21
0.2886641433
 31
0.0
 40
0.8660144118
 41
-3.150319066
 42
-1.582431609
  0
ELLIPSE
  5
866
100
AcDbEntity
  8
0
100
AcDbEllipse
 62
7
  6
CONTINUOUS
 10
5.5832953867
 20
23.4113248654
 30
0.0
 11
0.0029088041
 21
0.2886641433
 31
0.0
 40
0.8660144118
 41
-4.7007536982
 42
-3.1328662412
  0
ELLIPSE
  5
867
100
AcDbEntity
  8
0
100
AcDbEllipse
 62
7
  6
CONTINUOUS
 10
-9.416713075
 20
23.4113248654
 30
0.0
 11
-0.0029088041
 21
0.2886641433
 31
0.0
 40
0.8660144118
 41
-3.150319066
 42
-1.582431609
  0
ELLIPSE
  5
868
100
AcDbEntity
  8
0
100
AcDbEllipse
 62
7
  6
CONTINUOUS
 10
-11.8167046133
 20
23.4113248654
 30
0.0
 11
0.0029088041
 21
0.2886641433
 31
0.0
 40
0.8660144118
 41
-4.7007536982
 42
-3.1328662412
  0
ELLIPSE
  5
869
100
AcDbEntity
  8
0
100
AcDbEllipse
 62
7
  6
CONTINUOUS
 10
7.983286925
 20
-23.4113248654
 30
0.0
 11
0.0029088041
 21
0.2886641433
 31
0.0
 40
0.8660144118
 41
-1.5591610446
 42
0.0087264124
  0
ELLIPSE
  5
86A
100
AcDbEntity
  8
0
100
AcDbEllipse
 62
7
  6
CONTINUOUS
 10
2.4896574323
 20
-23.4563578147
 30
0.0
 11
-0.0
 21
0.5
 31
0.0
 40
0.0058178298
 41
-3.2409419489
 42
-3.1474104178
  0
ELLIPSE
  5
86B
100
AcDbEntity
  8
0
100
AcDbEllipse
 62
7
  6
CONTINUOUS
 10
5.5832953867
 20
-23.4113248654
 30
0.0
 11
-0.0029088041
 21
0.2886641433
 31
0.0
 40
0.8660144118
 41
-0.0087264124
 42
1.5591610446
  0
ELLIPSE
  5
86C
100
AcDbEntity
  8
0
100
AcDbEllipse
 62
7
  6
CONTINUOUS
 10
-11.8167046133
 20
-23.4113248654
 30
0.0
 11
-0.0029088041
 21
0.2886641433
 31
0.0
 40
0.8660144118
 41
-0.0087264124
 42
1.5591610446
  0
ELLIPSE
  5
86D
100
AcDbEntity
  8
0
100
AcDbEllipse
 62
7
  6
CONTINUOUS
 10
-9.416713075
 20
-23.4113248654
 30
0.0
 11
0.0029088041
 21
0.2886641433
 31
0.0
 40
0.8660144118
 41
-1.5591610446
 42
0.0087264124
  0
ELLIPSE
  5
86E
100
AcDbEntity
  8
RACCORDO
100
AcDbEllipse
 62
7
  6
CONTINUOUS
 10
-9.2376533269
 20
-19.88468937
 30
0.0
 11
0.0
 21
0.3
 31
0.0
 40
0.0087268678
 41
-1.5707963268
 42
-0.0523598776
  0
ELLIPSE
  5
86F
100
AcDbEntity
  8
RACCORDO
100
AcDbEllipse
 62
7
  6
CONTINUOUS
 10
-11.5248166883
 20
-19.88468937
 30
0.0
 11
-0.0
 21
0.3
 31
0.0
 40
0.0174550649
 41
0.0523598776
 42
1.5707963268
  0
ELLIPSE
  5
870
100
AcDbEntity
  8
RACCORDO
100
AcDbEllipse
 62
7
  6
CONTINUOUS
 10
-6.4516163153
 20
-19.88468937
 30
0.0
 11
0.0
 21
0.3
 31
0.0
 40
0.0087268678
 41
-1.5707963268
 42
-0.0523598776
  0
ELLIPSE
  5
871
100
AcDbEntity
  8
RACCORDO
100
AcDbEllipse
 62
7
  6
CONTINUOUS
 10
-8.3957643615
 20
-19.88468937
 30
0.0
 11
0.0
 21
0.3
 31
0.0
 40
0.0087268678
 41
0.0523598776
 42
1.5707963268
  0
ELLIPSE
  5
872
100
AcDbEntity
  8
RACCORDO
100
AcDbEllipse
 62
7
  6
CONTINUOUS
 10
4.5623466731
 20
-19.88468937
 30
0.0
 11
-0.0
 21
0.3
 31
0.0
 40
0.0087268678
 41
-1.5707963268
 42
-0.0523598776
  0
ELLIPSE
  5
873
100
AcDbEntity
  8
RACCORDO
100
AcDbEllipse
 62
7
  6
CONTINUOUS
 10
2.618198627
 20
-19.88468937
 30
0.0
 11
-0.0
 21
0.3
 31
0.0
 40
0.0087268678
 41
0.0523598776
 42
1.5707963268
  0
ELLIPSE
  5
874
100
AcDbEntity
  8
0
100
AcDbEllipse
 62
7
  6
CONTINUOUS
 10
-6.3230751206
 20
-23.4563578147
 30
0.0
 11
-0.0
 21
0.5
 31
0.0
 40
0.0058178298
 41
-3.1357748894
 42
-3.0422433583
  0
ELLIPSE
  5
875
100
AcDbEntity
  8
RACCORDO
100
AcDbEllipse
 62
7
  6
CONTINUOUS
 10
7.691399
 20
-19.88468937
 30
0.0
 11
-0.0
 21
0.3
 31
0.0
 40
0.0174550649
 41
-1.5707963268
 42
-0.0523598776
  0
ELLIPSE
  5
876
100
AcDbEntity
  8
RACCORDO
100
AcDbEllipse
 62
7
  6
CONTINUOUS
 10
5.4042356385
 20
-19.88468937
 30
0.0
 11
-0.0
 21
0.3
 31
0.0
 40
0.0087268678
 41
0.0523598776
 42
1.5707963268
  0
ELLIPSE
  5
877
100
AcDbEntity
  8
RACCORDO
100
AcDbEllipse
 62
7
  6
CONTINUOUS
 10
4.5274946315
 20
19.1
 30
0.0
 11
0.0
 21
0.9
 31
0.0
 40
0.0087268678
 41
-0.0
 42
1.4414737845
  0
ELLIPSE
  5
878
100
AcDbEntity
  8
RACCORDO
100
AcDbEllipse
 62
7
  6
CONTINUOUS
 10
-8.6446078413
 20
-7.79
 30
0.0
 11
0.0
 21
88.6
 31
0.0
 40
0.0087268678
 41
-4.6590536787
 42
-4.6479028577
  0
ELLIPSE
  5
879
100
AcDbEntity
  8
DRAFT
100
AcDbEllipse
 62
7
  6
CONTINUOUS
 10
5.2718099969
 20
-7.79
 30
0.0
 11
0.0
 21
88.6
 31
0.0
 40
0.1763269807
 41
-4.6590536787
 42
-4.6341913147
  0
ELLIPSE
  5
87A
100
AcDbEntity
  8
RACCORDO
100
AcDbEllipse
 62
7
  6
CONTINUOUS
 10
4.811190153
 20
-7.79
 30
0.0
 11
0.0
 21
88.6
 31
0.0
 40
0.0087268678
 41
-1.6352824494
 42
-1.6241316285
  0
ELLIPSE
  5
87B
100
AcDbEntity
  8
RACCORDO
100
AcDbEllipse
 62
7
  6
CONTINUOUS
 10
2.811190153
 20
7.79
 30
0.0
 11
0.0
 21
88.6
 31
0.0
 40
0.0087268678
 41
-1.5174610251
 42
-1.5037209781
  0
ELLIPSE
  5
87C
100
AcDbEntity
  8
RACCORDO
100
AcDbEllipse
 62
7
  6
CONTINUOUS
 10
3.3553921587
 20
7.79
 30
0.0
 11
0.0
 21
88.6
 31
0.0
 40
0.0087268678
 41
1.5037209781
 42
1.5174610251
  0
ELLIPSE
  5
87D
100
AcDbEntity
  8
RACCORDO
100
AcDbEllipse
 62
7
  6
CONTINUOUS
 10
-7.188809847
 20
7.79
 30
0.0
 11
0.0
 21
88.6
 31
0.0
 40
0.0087268678
 41
-1.5174610251
 42
-1.5037209781
  0
ELLIPSE
  5
87E
100
AcDbEntity
  8
RACCORDO
100
AcDbEllipse
 62
7
  6
CONTINUOUS
 10
-6.6446078413
 20
7.79
 30
0.0
 11
0.0
 21
88.6
 31
0.0
 40
0.0087268678
 41
1.5037209781
 42
1.5174610251
  0
ELLIPSE
  5
87F
100
AcDbEntity
  8
RACCORDO
100
AcDbEllipse
 62
7
  6
CONTINUOUS
 10
-9.3276947927
 20
-12.3109821407
 30
0.0
 11
0.0
 21
0.1
 31
0.0
 40
0.0087268678
 41
-3.1328660073
 42
-1.5707963268
  0
ELLIPSE
  5
880
100
AcDbEntity
  8
0
100
AcDbEllipse
 62
7
  6
CONTINUOUS
 10
8.7249815922
 20
21.8941737085
 30
0.0
 11
-0.4160498344
 21
-0.2773626446
 31
0.0
 40
0.9999450019
 41
2.5536219432
 42
4.1243675013
  0
ELLIPSE
  5
881
100
AcDbEntity
  8
0
100
AcDbEllipse
 62
7
  6
CONTINUOUS
 10
8.7249815922
 20
-21.8941737085
 30
0.0
 11
0.4160498344
 21
-0.2773626446
 31
0.0
 40
0.9999450019
 41
-0.9827748477
 42
0.5879707104
  0
ELLIPSE
  5
882
100
AcDbEntity
  8
0
100
AcDbEllipse
 62
7
  6
CONTINUOUS
 10
-12.5583992806
 20
21.8941737085
 30
0.0
 11
-0.4160498344
 21
0.2773626446
 31
0.0
 40
0.9999450019
 41
-0.9827748477
 42
0.5879707104
  0
ELLIPSE
  5
883
100
AcDbEntity
  8
0
100
AcDbEllipse
 62
7
  6
CONTINUOUS
 10
-12.5583992806
 20
-21.8941737085
 30
0.0
 11
0.4160498344
 21
0.2773626446
 31
0.0
 40
0.9999450019
 41
2.5536219432
 42
4.1243675013
  0
ELLIPSE
  5
884
100
AcDbEntity
  8
RACCORDO
100
AcDbEllipse
 62
7
  6
CONTINUOUS
 10
4.8832911558
 20
-13.9127313221
 30
0.0
 11
0.3
 21
-0.0
 31
0.0
 40
0.0087268678
 41
1.5707963268
 42
3.1415926536
  0
ELLIPSE
  5
885
100
AcDbEntity
  8
RACCORDO
100
AcDbEllipse
 62
7
  6
CONTINUOUS
 10
-8.7167088442
 20
-13.9127313221
 30
0.0
 11
0.3
 21
0.0
 31
0.0
 40
0.0087268678
 41
0.0
 42
1.5707963268
  0
ELLIPSE
  5
886
100
AcDbEntity
  8
RACCORDO
100
AcDbEllipse
 62
7
  6
CONTINUOUS
 10
1.8510521415
 20
-15.7266586822
 30
0.0
 11
0.0
 21
1.0
 31
0.0
 40
0.1763269807
 41
-1.4486232792
 42
-0.0174532925
  0
ELLIPSE
  5
887
100
AcDbEntity
  8
DRAFT
100
AcDbEllipse
 62
7
  6
CONTINUOUS
 10
17.2718099969
 20
-7.79
 30
0.0
 11
0.0
 21
88.6
 31
0.0
 40
0.1763269807
 41
-4.6422502412
 42
-4.6341913147
  0
ELLIPSE
  5
888
100
AcDbEntity
  8
RACCORDO
100
AcDbEllipse
 62
7
  6
CONTINUOUS
 10
6.3155301702
 20
-15.7266586822
 30
0.0
 11
0.0
 21
1.0
 31
0.0
 40
0.1763269807
 41
0.0174532925
 42
1.4486232792
  0
ELLIPSE
  5
889
100
AcDbEntity
  8
RACCORDO
100
AcDbEllipse
 62
7
  6
CONTINUOUS
 10
-10.1489478585
 20
-15.7266586822
 30
0.0
 11
-0.0
 21
1.0
 31
0.0
 40
0.1763269807
 41
-1.4486232792
 42
-0.0174532925
  0
ELLIPSE
  5
88A
100
AcDbEntity
  8
RACCORDO
100
AcDbEllipse
 62
7
  6
CONTINUOUS
 10
-5.6844698298
 20
-15.7266586822
 30
0.0
 11
0.0
 21
1.0
 31
0.0
 40
0.1763269807
 41
0.0174532925
 42
1.4486232792
  0
ELLIPSE
  5
88B
100
AcDbEntity
  8
DRAFT
100
AcDbEllipse
 62
7
  6
CONTINUOUS
 10
-21.1052276852
 20
-7.79
 30
0.0
 11
0.0
 21
88.6
 31
0.0
 40
0.1763269807
 41
-1.6489939924
 42
-1.640935066
  0
ELLIPSE
  5
88C
100
AcDbEntity
  8
RACCORDO
100
AcDbEllipse
 62
7
  6
CONTINUOUS
 10
9.1397157612
 20
7.79
 30
0.0
 11
0.0
 21
88.6
 31
0.0
 40
0.0174550649
 41
1.4349437612
 42
1.5174610251
  0
ELLIPSE
  5
88D
100
AcDbEntity
  8
RACCORDO
100
AcDbEllipse
 62
7
  6
CONTINUOUS
 10
7.6230111
 20
19.6676556748
 30
0.0
 11
0.0
 21
0.9
 31
0.0
 40
0.0174550649
 41
1.3990627793
 42
1.4349437612
  0
ELLIPSE
  5
88E
100
AcDbEntity
  8
DRAFT
100
AcDbEllipse
 62
7
  6
CONTINUOUS
 10
5.6499368101
 20
-21.9537669705
 30
0.0
 11
0.4999904798
 21
0.5000285596
 31
0.0
 40
0.0061705924
 41
0.0112823085
 42
1.0386206835
  0
ELLIPSE
  5
88F
100
AcDbEntity
  8
DRAFT
100
AcDbEllipse
 62
7
  6
CONTINUOUS
 10
-9.4833544984
 20
-21.9537669705
 30
0.0
 11
-0.4999904798
 21
0.5000285596
 31
0.0
 40
0.0061705924
 41
-1.0386206835
 42
-0.0112823085
  0
ELLIPSE
  5
890
100
AcDbEntity
  8
DRAFT
100
AcDbEllipse
 62
7
  6
CONTINUOUS
 10
-9.4833544984
 20
21.9537669705
 30
0.0
 11
0.4999904798
 21
0.5000285596
 31
0.0
 40
0.0061705924
 41
-3.1303103451
 42
-2.1029719701
  0
ELLIPSE
  5
891
100
AcDbEntity
  8
DRAFT
100
AcDbEllipse
 62
7
  6
CONTINUOUS
 10
5.6499368101
 20
21.9537669705
 30
0.0
 11
-0.4999904798
 21
0.5000285596
 31
0.0
 40
0.0061705924
 41
-4.1802133371
 42
-3.1528749621
  0
ELLIPSE
  5
892
100
AcDbEntity
  8
RACCORDO
100
AcDbEllipse
 62
7
  6
CONTINUOUS
 10
-10.1667050363
 20
6.0000038078
 30
0.0
 11
0.0707160631
 21
0.0707160631
 31
0.0
 40
0.9999238505
 41
2.3562325665
 42
3.1734245724
  0
ELLIPSE
  5
893
100
AcDbEntity
  8
RACCORDO
100
AcDbEllipse
 62
7
  6
CONTINUOUS
 10
-8.3609123199
 20
19.1
 30
0.0
 11
0.0
 21
0.9
 31
0.0
 40
0.0087268678
 41
-1.4414737845
 42
0.0
  0
ELLIPSE
  5
894
100
AcDbEntity
  8
RACCORDO
100
AcDbEllipse
 62
7
  6
CONTINUOUS
 10
-9.1198675915
 20
7.79
 30
0.0
 11
0.0
 21
88.6
 31
0.0
 40
0.0087268678
 41
-1.4677875296
 42
-1.4414737845
  0
ELLIPSE
  5
895
100
AcDbEntity
  8
RACCORDO
100
AcDbEllipse
 62
7
  6
CONTINUOUS
 10
-8.5135500969
 20
7.79
 30
0.0
 11
0.0
 21
88.6
 31
0.0
 40
0.0087268678
 41
1.4349437612
 42
1.4677875296
  0
ELLIPSE
  5
896
100
AcDbEntity
  8
RACCORDO
100
AcDbEllipse
 62
7
  6
CONTINUOUS
 10
-9.2718446727
 20
19.6676556748
 30
0.0
 11
0.0
 21
0.9
 31
0.0
 40
0.0087268678
 41
0.0523598776
 42
1.4349437612
  0
ELLIPSE
  5
897
100
AcDbEntity
  8
RACCORDO
100
AcDbEllipse
 62
7
  6
CONTINUOUS
 10
5.4384269844
 20
19.6676556748
 30
0.0
 11
0.0
 21
0.9
 31
0.0
 40
0.0087268678
 41
-1.4349437612
 42
-0.0523598776
  0
ELLIPSE
  5
898
100
AcDbEntity
  8
RACCORDO
100
AcDbEllipse
 62
7
  6
CONTINUOUS
 10
4.6801324085
 20
7.79
 30
0.0
 11
0.0
 21
88.6
 31
0.0
 40
0.0087268678
 41
-1.4677875296
 42
-1.4349437612
  0
ELLIPSE
  5
899
100
AcDbEntity
  8
RACCORDO
100
AcDbEllipse
 62
7
  6
CONTINUOUS
 10
5.2864499031
 20
7.79
 30
0.0
 11
0.0
 21
88.6
 31
0.0
 40
0.0087268678
 41
1.4414737845
 42
1.4677875296
  0
ELLIPSE
  5
89A
100
AcDbEntity
  8
RACCORDO
100
AcDbEllipse
 62
7
  6
CONTINUOUS
 10
-11.4564287883
 20
19.6676556748
 30
0.0
 11
0.0
 21
0.9
 31
0.0
 40
0.0174550649
 41
-1.4349437612
 42
-1.3990627793
  0
ELLIPSE
  5
89B
100
AcDbEntity
  8
RACCORDO
100
AcDbEllipse
 62
7
  6
CONTINUOUS
 10
-12.9731334496
 20
7.79
 30
0.0
 11
0.0
 21
88.6
 31
0.0
 40
0.0174550649
 41
-1.5174610251
 42
-1.4349437612
  0
ELLIPSE
  5
89C
100
AcDbEntity
  8
RACCORDO
100
AcDbEllipse
 62
7
  6
CONTINUOUS
 10
6.333287348
 20
6.0000038078
 30
0.0
 11
0.0707160631
 21
-0.0707160631
 31
0.0
 40
0.9999238505
 41
-0.0320165112
 42
0.7853600873
  0
ELLIPSE
  5
89D
100
AcDbEntity
  8
RACCORDO
100
AcDbEllipse
 62
7
  6
CONTINUOUS
 10
4.9933853784
 20
-13.4100942226
 30
0.0
 11
0.3535803156
 21
-0.3535803156
 31
0.0
 40
0.9999238505
 41
-0.7853600872
 42
0.7853600872
  0
ELLIPSE
  5
89E
100
AcDbEntity
  8
RACCORDO
100
AcDbEllipse
 62
7
  6
CONTINUOUS
 10
-8.8268030667
 20
-13.4100942226
 30
0.0
 11
-0.3535803156
 21
-0.3535803156
 31
0.0
 40
0.9999238505
 41
-0.7853600872
 42
0.7853600872
  0
ELLIPSE
  5
89F
100
AcDbEntity
  8
RACCORDO
100
AcDbEllipse
 62
7
  6
CONTINUOUS
 10
-10.4831180205
 20
-11.5581782981
 30
0.0
 11
0.3
 21
-0.0
 31
0.0
 40
0.0058178298
 41
-2.7925268032
 42
-1.5707963268
  0
ENDSEC
  0
SECTION
  2
OBJECTS
  0
DICTIONARY
  5
C
100
AcDbDictionary
280
0
281
1
  3
ACAD_GROUP
350
D
  3
ACAD_MLINESTYLE
350
17
  3
ACAD_LAYOUT
350
1A
  3
ACAD_PLOTSETTINGS
350
19
  3
ACAD_PLOTSTYLENAME
350
E
  0
DICTIONARY
  5
D
102
{ACAD_REACTORS
330
C
102
}
100
AcDbDictionary
280
0
281
1
  0
ACDBDICTIONARYWDFLT
  5
E
102
{ACAD_REACTORS
330
C
102
}
100
AcDbDictionary
281
1
  3
Normal
350
F
100
AcDbDictionaryWithDefault
340
F
  0
DICTIONARY
  5
17
102
{ACAD_REACTORS
330
C
102
}
100
AcDbDictionary
280
0
281
1
  3
Standard
350
18
  0
DICTIONARY
  5
19
102
{ACAD_REACTORS
330
C
102
}
100
AcDbDictionary
281
1
  0
DICTIONARY
  5
1A
102
{ACAD_REACTORS
330
C
102
}
100
AcDbDictionary
281
1
  3
Model
350
8A0
  3
Layout1
350
8A1
  0
ACDBPLACEHOLDER
  5
F
102
{ACAD_REACTORS
330
E
102
}
  0
MLINESTYLE
  5
18
102
{ACAD_REACTORS
330
17
102
}
100
AcDbMlineStyle
  2
STANDARD
 70
0
  3

 62
256
 51
90.0
 52
90.0
 71
2
 49
0.5
 62
256
  6
BYLAYER
 49
-0.5
 62
256
  6
BYLAYER
  0
LAYOUT
  5
8A0
102
{ACAD_REACTORS
330
1A
102
}
100
AcDbPlotSettings
  1

  2
none_device
  4
ISO_A4_(297.00_x_210.00_MM)
  6

 40
0.0
 41
0.0
 42
0.0
 43
0.0
 44
297.0
 45
210.0
 46
0.0
 47
0.0
 48
0.0
 49
0.0
140
0.0
141
0.0
142
1.0
143
1.0
 70
1024
 72
1
 73
0
 74
0
  7

 75
0
147
1.0
148
0.0
149
0.0
100
AcDbLayout
  1
Model
 70
0
 71
0
 10
0.0
 20
0.0
 11
297.0
 21
210.0
 12
0.0
 22
0.0
 32
0.0
 14
0.0
 24
0.0
 34
0.0
 15
0.0
 25
0.0
 35
0.0
146
0.0
 13
0.0
 23
0.0
 33
0.0
 16
1.0
 26
0.0
 36
0.0
 17
0.0
 27
1.0
 37
0.0
 76
0
330
219
345
0
346
0
  0
LAYOUT
  5
8A1
102
{ACAD_REACTORS
330
1A
102
}
100
AcDbPlotSettings
  1

  2
none_device
  4
ISO_A4_(297.00_x_210.00_MM)
  6

 40
0.0
 41
0.0
 42
0.0
 43
0.0
 44
297.0
 45
210.0
 46
0.0
 47
0.0
 48
0.0
 49
0.0
140
0.0
141
0.0
142
1.0
143
1.0
 70
0
 72
1
 73
0
 74
0
  7

 75
0
147
1.0
148
0.0
149
0.0
100
AcDbLayout
  1
Layout1
 70
0
 71
1
 10
0.0
 20
0.0
 11
297.0
 21
210.0
 12
0.0
 22
0.0
 32
0.0
 14
0.0
 24
0.0
 34
0.0
 15
0.0
 25
0.0
 35
0.0
146
0.0
 13
0.0
 23
0.0
 33
0.0
 16
1.0
 26
0.0
 36
0.0
 17
0.0
 27
1.0
 37
0.0
 76
0
330
21A
345
0
346
0
  0
ENDSEC
  0
EOF
