  0
SECTION
  2
HEADER
  9
$ACADVER
  1
AC1021
  9
$DWGCODEPAGE
  3
ANSI_1252
  9
$EXTMAX
 10
558.8
 20
431.8
 30
0.0
  9
$EXTMIN
 10
0.0
 20
0.0
 30
0.0
  9
$LIMMIN
 10
0.0
 20
0.0
  9
$LIMMAX
 10
558.8
 20
431.8
  9
$VIEWCTR
 10
279.4
 20
215.9
  9
$VIEWSIZE
 40
431.8
  9
$CLAYER
  8
0
  9
$LTSCALE
 40
30.734
  9
$CELTYPE
  6
BYLAYER
  9
$DIMSCALE
 40
1.0
  9
$DIMASZ
 40
3.0
  9
$DIMEXO
 40
0.5
  9
$DIMDLI
 40
21.2344
  9
$DIMEXE
 40
1.5
  9
$DIMCEN
 40
5.0292
  9
$DIMLFAC
 40
1.0
  9
$DIMBLK
  1
_FILLED
  9
$DIMALT
 70
0
  9
$DIMALTF
 40
25.4
  9
$DIMTXT
 40
3.0
  9
$DIMTOL
 70
1
  9
$DIMLIM
 70
0
  9
$DIMTFAC
 40
1.0
  9
$DIMTP
 40
0.01
  9
$DIMTM
 40
0.01
  9
$DIMGAP
 40
0.625
  9
$DIMDSEP
 70
44
  9
$AUNITS
 70
0
  9
$PDMODE
 70
3
  9
$PDSIZE
 40
3.0
  9
$HANDSEED
  5
649
  9
$TILEMODE
 70
1
  9
$MEASUREMENT
 70
1
  9
$INSUNITS
 70
4
  0
ENDSEC
  0
SECTION
  2
CLASSES
  0
CLASS
  1
ACDBDICTIONARYWDFLT
  2
AcDbDictionaryWithDefault
  3
AutoCAD 2000
 90
0
 91
1
280
0
281
0
  0
CLASS
  1
ACDBPLACEHOLDER
  2
AcDbPlaceHolder
  3
AutoCAD 2000
 90
0
 91
1
280
0
281
0
  0
CLASS
  1
LAYOUT
  2
AcDbLayout
  3
AutoCAD 2000
 90
0
 91
0
280
0
281
0
  0
ENDSEC
  0
SECTION
  2
TABLES
  0
TABLE
  2
VPORT
  5
8
100
AcDbSymbolTable
 70
2
  0
VPORT
  5
1F4
100
AcDbSymbolTableRecord
100
AcDbViewportTableRecord
  2
*ACTIVE
 70
0
 10
0.0
 20
0.0
 11
1.0
 21
1.0
 12
279.4
 22
215.9
 13
0.0
 23
0.0
 14
1.0
 24
1.0
 15
0.0
 25
0.0
 16
0.0
 26
0.0
 36
1.0
 17
0.0
 27
0.0
 37
0.0
 40
431.8
 41
1.2941176471
 42
50.0
 43
0.0
 44
0.0
 50
0.0
 51
0.0
 71
0
 72
100
 73
1
 74
1
 75
0
 76
0
 77
0
 78
0
  0
ENDTAB
  0
TABLE
  2
LTYPE
  5
5
100
AcDbSymbolTable
 70
6
  0
LTYPE
  5
14
100
AcDbSymbolTableRecord
100
AcDbLinetypeTableRecord
  2
BYBLOCK
 70
0
  3

 72
65
 73
0
 40
0.0
  0
LTYPE
  5
15
100
AcDbSymbolTableRecord
100
AcDbLinetypeTableRecord
  2
BYLAYER
 70
0
  3

 72
65
 73
0
 40
0.0
  0
LTYPE
  5
16
100
AcDbSymbolTableRecord
100
AcDbLinetypeTableRecord
  2
CONTINUOUS
 70
64
  3
Solid line
 72
65
 73
0
 40
0.0
  0
LTYPE
  5
1F5
100
AcDbSymbolTableRecord
100
AcDbLinetypeTableRecord
  2
CENTER
 70
64
  3
____ _ ____ _ ____ _ ____ _ ____ _ ____ _ ____
 72
65
 73
4
 40
0.6
 49
0.375
 74
0
 49
-0.075
 74
0
 49
0.075
 74
0
 49
-0.075
 74
0
  0
LTYPE
  5
1F6
100
AcDbSymbolTableRecord
100
AcDbLinetypeTableRecord
  2
HIDDEN
 70
64
  3
- - - - - - - - - - - - - - - - - - - -
 72
65
 73
2
 40
0.2
 49
0.1
 74
0
 49
-0.1
 74
0
  0
LTYPE
  5
1F7
100
AcDbSymbolTableRecord
100
AcDbLinetypeTableRecord
  2
PHANTOM
 70
64
  3
_____ _ _ _____ _ _ _____ _ _ _____
 72
65
 73
6
 40
0.8
 49
0.45
 74
0
 49
-0.05
 74
0
 49
0.1
 74
0
 49
-0.05
 74
0
 49
0.1
 74
0
 49
-0.05
 74
0
  0
LTYPE
  5
1F8
100
AcDbSymbolTableRecord
100
AcDbLinetypeTableRecord
  2
DOT
 70
64
  3
. . . . . . . . . . . . . . . . . . . .
 72
65
 73
2
 40
0.2
 49
0.1
 74
0
 49
-0.1
 74
0
  0
LTYPE
  5
1F9
100
AcDbSymbolTableRecord
100
AcDbLinetypeTableRecord
  2
DASHED
 70
64
  3
- - - - - - - - - - - - - - - - - - - -
 72
65
 73
2
 40
0.2
 49
0.1
 74
0
 49
-0.1
 74
0
  0
ENDTAB
  0
TABLE
  2
LAYER
  5
2
100
AcDbSymbolTable
 70
36
  0
LAYER
  5
10
100
AcDbSymbolTableRecord
100
AcDbLayerTableRecord
  2
0
 70
0
 62
7
  6
CONTINUOUS
370
-3
390
F
  0
LAYER
  5
1FA
100
AcDbSymbolTableRecord
100
AcDbLayerTableRecord
  2
DEFAULT_1
 70
0
 62
7
  6
CENTER
370
-3
390
F
  0
LAYER
  5
1FB
100
AcDbSymbolTableRecord
100
AcDbLayerTableRecord
  2
DEFAULT_2
 70
0
 62
7
  6
HIDDEN
370
-3
390
F
  0
LAYER
  5
1FC
100
AcDbSymbolTableRecord
100
AcDbLayerTableRecord
  2
DEFAULT_3
 70
0
 62
7
  6
PHANTOM
370
-3
390
F
  0
LAYER
  5
1FD
100
AcDbSymbolTableRecord
100
AcDbLayerTableRecord
  2
ASSI
 70
0
 62
7
  6
CONTINUOUS
370
-3
390
F
  0
LAYER
  5
1FE
100
AcDbSymbolTableRecord
100
AcDbLayerTableRecord
  2
COLOR11
 70
0
 62
7
  6
CONTINUOUS
370
-3
390
F
  0
LAYER
  5
1FF
100
AcDbSymbolTableRecord
100
AcDbLayerTableRecord
  2
COLOR5
 70
0
 62
7
  6
CONTINUOUS
370
-3
390
F
  0
LAYER
  5
200
100
AcDbSymbolTableRecord
100
AcDbLayerTableRecord
  2
COLOR9
 70
0
 62
7
  6
CONTINUOUS
370
-3
390
F
  0
LAYER
  5
201
100
AcDbSymbolTableRecord
100
AcDbLayerTableRecord
  2
COORDINATE
 70
0
 62
7
  6
CONTINUOUS
370
-3
390
F
  0
LAYER
  5
202
100
AcDbSymbolTableRecord
100
AcDbLayerTableRecord
  2
COORD_ORIGINE
 70
0
 62
7
  6
CONTINUOUS
370
-3
390
F
  0
LAYER
  5
203
100
AcDbSymbolTableRecord
100
AcDbLayerTableRecord
  2
COPY_PUBLISH
 70
0
 62
7
  6
CONTINUOUS
370
-3
390
F
  0
LAYER
  5
204
100
AcDbSymbolTableRecord
100
AcDbLayerTableRecord
  2
COSMETIC
 70
0
 62
7
  6
CONTINUOUS
370
-3
390
F
  0
LAYER
  5
205
100
AcDbSymbolTableRecord
100
AcDbLayerTableRecord
  2
COSMETICI
 70
0
 62
7
  6
CONTINUOUS
370
-3
390
F
  0
LAYER
  5
206
100
AcDbSymbolTableRecord
100
AcDbLayerTableRecord
  2
CURVE
 70
0
 62
7
  6
CONTINUOUS
370
-3
390
F
  0
LAYER
  5
207
100
AcDbSymbolTableRecord
100
AcDbLayerTableRecord
  2
DRAFT
 70
0
 62
7
  6
CONTINUOUS
370
-3
390
F
  0
LAYER
  5
208
100
AcDbSymbolTableRecord
100
AcDbLayerTableRecord
  2
HDMI_222
 70
0
 62
7
  6
CONTINUOUS
370
-3
390
F
  0
LAYER
  5
209
100
AcDbSymbolTableRecord
100
AcDbLayerTableRecord
  2
HDMI_222_1
 70
0
 62
7
  6
CONTINUOUS
370
-3
390
F
  0
LAYER
  5
20A
100
AcDbSymbolTableRecord
100
AcDbLayerTableRecord
  2
HDMI_BASE
 70
0
 62
7
  6
CONTINUOUS
370
-3
390
F
  0
LAYER
  5
20B
100
AcDbSymbolTableRecord
100
AcDbLayerTableRecord
  2
HDMI_BASE_1
 70
0
 62
7
  6
CONTINUOUS
370
-3
390
F
  0
LAYER
  5
20C
100
AcDbSymbolTableRecord
100
AcDbLayerTableRecord
  2
HDMI_COVER
 70
0
 62
7
  6
CONTINUOUS
370
-3
390
F
  0
LAYER
  5
20D
100
AcDbSymbolTableRecord
100
AcDbLayerTableRecord
  2
HDMI_COVER_1
 70
0
 62
7
  6
CONTINUOUS
370
-3
390
F
  0
LAYER
  5
20E
100
AcDbSymbolTableRecord
100
AcDbLayerTableRecord
  2
IMPORT_IGES
 70
0
 62
7
  6
CONTINUOUS
370
-3
390
F
  0
LAYER
  5
20F
100
AcDbSymbolTableRecord
100
AcDbLayerTableRecord
  2
INCISIONI
 70
0
 62
7
  6
CONTINUOUS
370
-3
390
F
  0
LAYER
  5
210
100
AcDbSymbolTableRecord
100
AcDbLayerTableRecord
  2
INTFCLR_1
 70
0
 62
7
  6
CONTINUOUS
370
-3
390
F
  0
LAYER
  5
211
100
AcDbSymbolTableRecord
100
AcDbLayerTableRecord
  2
INTFCLR_3807
 70
0
 62
7
  6
CONTINUOUS
370
-3
390
F
  0
LAYER
  5
212
100
AcDbSymbolTableRecord
100
AcDbLayerTableRecord
  2
INTFCLR_9191
 70
0
 62
7
  6
CONTINUOUS
370
-3
390
F
  0
LAYER
  5
213
100
AcDbSymbolTableRecord
100
AcDbLayerTableRecord
  2
INTF_1
 70
0
 62
7
  6
CONTINUOUS
370
-3
390
F
  0
LAYER
  5
214
100
AcDbSymbolTableRecord
100
AcDbLayerTableRecord
  2
INTF_14
 70
0
 62
7
  6
CONTINUOUS
370
-3
390
F
  0
LAYER
  5
215
100
AcDbSymbolTableRecord
100
AcDbLayerTableRecord
  2
INTF_3
 70
0
 62
7
  6
CONTINUOUS
370
-3
390
F
  0
LAYER
  5
216
100
AcDbSymbolTableRecord
100
AcDbLayerTableRecord
  2
INTF_5
 70
0
 62
7
  6
CONTINUOUS
370
-3
390
F
  0
LAYER
  5
217
100
AcDbSymbolTableRecord
100
AcDbLayerTableRecord
  2
NOTE
 70
0
 62
7
  6
CONTINUOUS
370
-3
390
F
  0
LAYER
  5
218
100
AcDbSymbolTableRecord
100
AcDbLayerTableRecord
  2
PIANI
 70
0
 62
7
  6
CONTINUOUS
370
-3
390
F
  0
LAYER
  5
219
100
AcDbSymbolTableRecord
100
AcDbLayerTableRecord
  2
PIANI_ORIGINE
 70
0
 62
7
  6
CONTINUOUS
370
-3
390
F
  0
LAYER
  5
21A
100
AcDbSymbolTableRecord
100
AcDbLayerTableRecord
  2
PIANI_SFORMI
 70
0
 62
7
  6
CONTINUOUS
370
-3
390
F
  0
LAYER
  5
21B
100
AcDbSymbolTableRecord
100
AcDbLayerTableRecord
  2
PUNTI
 70
0
 62
7
  6
CONTINUOUS
370
-3
390
F
  0
LAYER
  5
21C
100
AcDbSymbolTableRecord
100
AcDbLayerTableRecord
  2
RACCORDO
 70
0
 62
7
  6
CONTINUOUS
370
-3
390
F
  0
LAYER
  5
21D
100
AcDbSymbolTableRecord
100
AcDbLayerTableRecord
  2
SIMBOLI
 70
0
 62
7
  6
CONTINUOUS
370
-3
390
F
  0
LAYER
  5
21E
100
AcDbSymbolTableRecord
100
AcDbLayerTableRecord
  2
SMUSSO
 70
0
 62
7
  6
CONTINUOUS
370
-3
390
F
  0
LAYER
  5
21F
100
AcDbSymbolTableRecord
100
AcDbLayerTableRecord
  2
SNAPLINE
 70
0
 62
7
  6
CONTINUOUS
370
-3
390
F
  0
LAYER
  5
220
100
AcDbSymbolTableRecord
100
AcDbLayerTableRecord
  2
SUPERFICI
 70
0
 62
7
  6
CONTINUOUS
370
-3
390
F
  0
LAYER
  5
221
100
AcDbSymbolTableRecord
100
AcDbLayerTableRecord
  2
TRASH
 70
0
 62
7
  6
CONTINUOUS
370
-3
390
F
  0
LAYER
  5
222
100
AcDbSymbolTableRecord
100
AcDbLayerTableRecord
  2
XSEC_DATUMS
 70
0
 62
7
  6
CONTINUOUS
370
-3
390
F
  0
LAYER
  5
223
100
AcDbSymbolTableRecord
100
AcDbLayerTableRecord
  2
___SHELL
 70
0
 62
7
  6
CONTINUOUS
370
-3
390
F
  0
ENDTAB
  0
TABLE
  2
STYLE
  5
3
100
AcDbSymbolTable
 70
1
  0
STYLE
  5
11
100
AcDbSymbolTableRecord
100
AcDbTextStyleTableRecord
  2
STANDARD
 70
0
 40
0.0
 41
0.8
 50
0.0
 71
0
 42
0.2
  3
txt
  4

  0
STYLE
  5
224
100
AcDbSymbolTableRecord
100
AcDbTextStyleTableRecord
  2
TEXTSTYLE_1
 70
0
 40
0.0
 41
0.8
 50
0.0
 71
0
 42
0.2
  3
gdt
  4

  0
ENDTAB
  0
TABLE
  2
VIEW
  5
6
100
AcDbSymbolTable
 70
0
  0
ENDTAB
  0
TABLE
  2
UCS
  5
7
100
AcDbSymbolTable
 70
0
  0
ENDTAB
  0
TABLE
  2
APPID
  5
9
100
AcDbSymbolTable
 70
1
  0
APPID
  5
225
100
AcDbSymbolTableRecord
100
AcDbRegAppTableRecord
  2
ACAD
 70
0
  0
ENDTAB
  0
TABLE
  2
BLOCK_RECORD
  5
1
100
AcDbSymbolTable
 70
0
  0
BLOCK_RECORD
  5
226
100
AcDbSymbolTableRecord
100
AcDbBlockTableRecord
  2
*Model_Space
  0
BLOCK_RECORD
  5
227
100
AcDbSymbolTableRecord
100
AcDbBlockTableRecord
  2
*Paper_Space
  0
ENDTAB
  0
TABLE
  2
DIMSTYLE
  5
A
100
AcDbSymbolTable
 70
1
100
AcDbDimStyleTable
 71
0
  0
DIMSTYLE
105
228
100
AcDbSymbolTableRecord
100
AcDbDimStyleTableRecord
  2
STANDARD
 70
0
  3

  4

 40
1.0
 41
3.0
 42
0.5
 43
0.38
 44
1.5
 45
0.0
 46
0.0
 47
0.01
 48
0.01
140
3.0
141
0.09
142
0.0
143
25.4
144
1.0
145
0.0
146
1.0
147
0.625
 71
1.0
 72
0.0
 73
0
 74
0
 75
0
 76
0
 77
1
 78
8
170
0
171
1
172
0
173
0
174
0
175
0
176
0
177
0
178
0
270
2
271
2
272
2
273
2
274
2
275
0
280
0
281
0
282
0
283
1
284
8
285
0
286
0
287
3
288
0
340
11
278
44
  0
ENDTAB
  0
ENDSEC
  0
SECTION
  2
BLOCKS
  0
BLOCK
  5
20
100
AcDbEntity
  8
0
100
AcDbBlockBegin
  2
*Model_Space
 70
0
 10
0.0
 20
0.0
 30
0.0
  3
*Model_Space
  1

  0
ENDBLK
  5
21
100
AcDbEntity
  8
0
100
AcDbBlockEnd
  0
BLOCK
  5
1C
100
AcDbEntity
  8
0
100
AcDbBlockBegin
  2
*Paper_Space
 70
0
 10
0.0
 20
0.0
 30
0.0
  3
*Paper_Space
  1

  0
ENDBLK
  5
1D
100
AcDbEntity
  8
0
100
AcDbBlockEnd
  0
ENDSEC
  0
SECTION
  2
ENTITIES
  0
LINE
  5
229
100
AcDbEntity
  8
0
100
AcDbLine
 62
7
  6
CONTINUOUS
 10
7.4
 20
-96.25
 11
-7.4
 21
-96.25
  0
LINE
  5
22A
100
AcDbEntity
  8
ASSI
100
AcDbLine
 62
7
  6
CONTINUOUS
 10
-8.0665695018
 20
92.7037354271
 11
-8.25
 21
92.65
  0
LINE
  5
22B
100
AcDbEntity
  8
0
100
AcDbLine
 62
7
  6
CONTINUOUS
 10
-7.4
 20
-93.25
 11
7.4
 21
-93.25
  0
LINE
  5
22C
100
AcDbEntity
  8
0
100
AcDbLine
 62
7
  6
CONTINUOUS
 10
-6.05
 20
-90.65
 11
6.05
 21
-90.65
  0
LINE
  5
22D
100
AcDbEntity
  8
0
100
AcDbLine
 62
7
  6
CONTINUOUS
 10
-6.05
 20
-88.55
 11
6.05
 21
-88.55
  0
LINE
  5
22E
100
AcDbEntity
  8
0
100
AcDbLine
 62
7
  6
CONTINUOUS
 10
-6.05
 20
-88.05
 11
6.05
 21
-88.05
  0
LINE
  5
22F
100
AcDbEntity
  8
0
100
AcDbLine
 62
7
  6
CONTINUOUS
 10
7.4
 20
-86.25
 11
8.2
 21
-86.25
  0
LINE
  5
230
100
AcDbEntity
  8
0
100
AcDbLine
 62
7
  6
CONTINUOUS
 10
-7.4
 20
-86.25
 11
-8.2
 21
-86.25
  0
LWPOLYLINE
  5
231
100
AcDbEntity
  8
ASSI
100
AcDbPolyline
 62
7
  6
CONTINUOUS
 90
7
 70
0
 10
-10.0637171191
 20
95.6889389589
 10
-10.0725215661
 20
95.6809352005
 10
-10.0809352005
 20
95.6725215661
 10
-10.0889389589
 20
95.6637171191
 10
-10.0965147107
 20
95.6545418038
 10
-10.1036452955
 20
95.6450164051
 10
-10.1103145581
 20
95.6351625059
  0
LINE
  5
232
100
AcDbEntity
  8
0
100
AcDbLine
 62
7
  6
CONTINUOUS
 10
-6.05
 20
-79.25
 11
6.05
 21
-79.25
  0
LINE
  5
233
100
AcDbEntity
  8
ASSI
100
AcDbLine
 62
7
  6
CONTINUOUS
 10
-9.65
 20
91.4490396502
 11
-8.9498936624
 21
92.15
  0
LINE
  5
234
100
AcDbEntity
  8
ASSI
100
AcDbLine
 62
7
  6
CONTINUOUS
 10
-8.25
 20
92.65
 11
-7.2558178298
 21
93.6441821702
  0
LINE
  5
235
100
AcDbEntity
  8
ASSI
100
AcDbLine
 62
253
  6
CONTINUOUS
 10
10.6504426895
 20
93.65
 11
10.6417158217
 21
93.6441821702
  0
LINE
  5
236
100
AcDbEntity
  8
ASSI
100
AcDbLine
 62
253
  6
CONTINUOUS
 10
11.1504363434
 20
93.150016923
 11
11.1417094756
 21
93.1441990932
  0
LWPOLYLINE
  5
237
100
AcDbEntity
  8
ASSI
100
AcDbPolyline
 62
7
  6
CONTINUOUS
 90
11
 70
0
 10
-4.5719975647
 20
82.0780024353
 10
-4.573210481
 20
82.0774420942
 10
-4.5751966822
 20
82.0769010441
 10
-4.5779561684
 20
82.0763792851
 10
-4.5815508925
 20
82.0758775633
 10
-4.5859189015
 20
82.0753951325
 10
-4.5908743363
 20
82.0749297547
 10
-4.596390971
 20
82.074481544
 10
-4.6024950315
 20
82.0740503861
 10
-4.6090793359
 20
82.0736337006
 10
-4.6161275606
 20
82.073231261
  0
LWPOLYLINE
  5
238
100
AcDbEntity
  8
ASSI
100
AcDbPolyline
 62
7
  6
CONTINUOUS
 90
11
 70
0
 10
5.4280024353
 20
82.0780024353
 10
5.4267889075
 20
82.0774419805
 10
5.4248021866
 20
82.076900849
 10
5.4220422726
 20
82.0763790407
 10
5.4184471923
 20
82.0758773106
 10
5.4140789189
 20
82.0753949037
 10
5.4091233718
 20
82.0749295558
 10
5.4036067908
 20
82.0744813734
 10
5.3975029361
 20
82.07405025
 10
5.3909190083
 20
82.0736336014
 10
5.3838714895
 20
82.0732312062
  0
LWPOLYLINE
  5
239
100
AcDbEntity
  8
ASSI
100
AcDbPolyline
 62
7
  6
CONTINUOUS
 90
4
 70
0
 10
6.3762945881
 20
81.1635140816
 10
6.3648701469
 20
81.1602110506
 10
6.3263877338
 20
81.1525623291
 10
6.2872572544
 20
81.15
  0
LWPOLYLINE
  5
23A
100
AcDbEntity
  8
ASSI
100
AcDbPolyline
 62
7
  6
CONTINUOUS
 90
5
 70
0
 10
-3.5375902083
 20
95.151531018
 10
-3.5443395314
 20
95.1436505129
 10
-3.5517095018
 20
95.1351700367
 10
-3.5597297127
 20
95.1260324123
 10
-3.5684156887
 20
95.1162342471
  0
LINE
  5
23B
100
AcDbEntity
  8
ASSI
100
AcDbLine
 62
7
  6
CONTINUOUS
 10
-3.5684156887
 20
95.1162342471
 11
-3.5878344473
 21
95.0946194739
  0
LINE
  5
23C
100
AcDbEntity
  8
ASSI
100
AcDbLine
 62
7
  6
CONTINUOUS
 10
-3.5878344473
 20
95.0946194739
 11
-3.6100907975
 21
95.0701729753
  0
LINE
  5
23D
100
AcDbEntity
  8
ASSI
100
AcDbLine
 62
7
  6
CONTINUOUS
 10
-3.6100907975
 20
95.0701729753
 11
-3.6352415326
 21
95.0428398017
  0
LINE
  5
23E
100
AcDbEntity
  8
ASSI
100
AcDbLine
 62
7
  6
CONTINUOUS
 10
-3.6352415326
 20
95.0428398017
 11
-3.6785477516
 21
94.9962613776
  0
LINE
  5
23F
100
AcDbEntity
  8
ASSI
100
AcDbLine
 62
7
  6
CONTINUOUS
 10
-3.6785477516
 20
94.9962613776
 11
-3.7468256444
 21
94.9235716346
  0
LWPOLYLINE
  5
240
100
AcDbEntity
  8
ASSI
100
AcDbPolyline
 62
7
  6
CONTINUOUS
 90
3
 70
0
 10
-3.7468256444
 20
94.9235716346
 10
-3.8885367958
 20
94.7741405918
 10
-3.9530427099
 20
94.7063578147
  0
LINE
  5
241
100
AcDbEntity
  8
ASSI
100
AcDbLine
 62
7
  6
CONTINUOUS
 10
4.4063493531
 20
95.2063493531
 11
4.45
 21
95.25
  0
LWPOLYLINE
  5
242
100
AcDbEntity
  8
ASSI
100
AcDbPolyline
 62
7
  6
CONTINUOUS
 90
7
 70
0
 10
7.3362828809
 20
95.6889389589
 10
7.3274784339
 20
95.6809352005
 10
7.3190647995
 20
95.6725215661
 10
7.3110610411
 20
95.6637171191
 10
7.3034852893
 20
95.6545418038
 10
7.2963547045
 20
95.6450164051
 10
7.2896854419
 20
95.6351625059
  0
LINE
  5
243
100
AcDbEntity
  8
ASSI
100
AcDbLine
 62
7
  6
CONTINUOUS
 10
7.1905416262
 20
93.5859700255
 11
7.2558178298
 21
93.6441821702
  0
LINE
  5
244
100
AcDbEntity
  8
ASSI
100
AcDbLine
 62
7
  6
CONTINUOUS
 10
9.5121049871
 20
79.15
 11
9.6451445666
 21
79.2165147237
  0
LWPOLYLINE
  5
245
100
AcDbEntity
  8
ASSI
100
AcDbPolyline
 62
253
  6
CONTINUOUS
 90
8
 70
0
 10
8.2
 20
77.2447643445
 10
8.2127104371
 20
77.2506923144
 10
8.2269883112
 20
77.260690844
 10
8.2393131279
 20
77.2730164222
 10
8.2493104664
 20
77.2872943788
 10
8.2566767418
 20
77.3030907921
 10
8.2611883685
 20
77.3199257258
 10
8.2627084755
 20
77.3372877168
  0
LWPOLYLINE
  5
246
100
AcDbEntity
  8
0
100
AcDbPolyline
 62
7
  6
CONTINUOUS
 90
12
 70
0
 10
-7.7
 20
-69.2541741001
 10
-7.7119344667
 20
-69.2560724197
 10
-7.7243755179
 20
-69.2574551508
 10
-7.7373140273
 20
-69.2583222936
 10
-7.7507306277
 20
-69.2586219519
 10
-7.7646201221
 20
-69.2584060218
 10
-7.7789910219
 20
-69.2578301914
 10
-7.7937982256
 20
-69.2568940673
 10
-7.8090463936
 20
-69.255598043
 10
-7.8248119377
 20
-69.254098987
 10
-7.8410644676
 20
-69.2523957953
 10
-7.9106793215
 20
-69.2445035687
  0
LWPOLYLINE
  5
247
100
AcDbEntity
  8
0
100
AcDbPolyline
 62
7
  6
CONTINUOUS
 90
21
 70
0
 10
-8.1070448182
 20
-69.239937075
 10
-8.1196000266
 20
-69.2417957818
 10
-8.1308398093
 20
-69.2437985271
 10
-8.1407856788
 20
-69.2459321154
 10
-8.1495917934
 20
-69.2482097423
 10
-8.1574043876
 20
-69.2504729724
 10
-8.1642845556
 20
-69.2527096638
 10
-8.1703110272
 20
-69.2549319584
 10
-8.1756197581
 20
-69.257017847
 10
-8.1802730252
 20
-69.2589726942
 10
-8.1843004726
 20
-69.2607911353
 10
-8.1877625124
 20
-69.2623350671
 10
-8.1907014293
 20
-69.26360645
 10
-8.1931563302
 20
-69.2646033237
 10
-8.1951730235
 20
-69.2651817036
 10
-8.1967905031
 20
-69.2653313848
 10
-8.1980385763
 20
-69.2650625723
 10
-8.1989480644
 20
-69.2642618965
 10
-8.1995544739
 20
-69.2628915675
 10
-8.1998939967
 20
-69.2609893753
 10
-8.2
 20
-69.2585553197
  0
LWPOLYLINE
  5
248
100
AcDbEntity
  8
0
100
AcDbPolyline
 62
7
  6
CONTINUOUS
 90
11
 70
0
 10
7.8411241644
 20
-69.2523894273
 10
7.8248675609
 20
-69.2540933333
 10
7.8090902017
 20
-69.2555939185
 10
7.7938254859
 20
-69.2568919264
 10
7.7790037352
 20
-69.2578295066
 10
7.7646220742
 20
-69.2584057535
 10
7.7507239821
 20
-69.2586215727
 10
7.7373026879
 20
-69.2583218303
 10
7.7243639934
 20
-69.2574548151
 10
7.7119267211
 20
-69.2560722384
 10
7.7
 20
-69.2541741001
  0
LINE
  5
249
100
AcDbEntity
  8
0
100
AcDbLine
 62
7
  6
CONTINUOUS
 10
7.6600401797
 20
-69.25
 11
-7.6600401797
 21
-69.25
  0
LWPOLYLINE
  5
24A
100
AcDbEntity
  8
0
100
AcDbPolyline
 62
7
  6
CONTINUOUS
 90
12
 70
0
 10
-7.9106793215
 20
-69.2445035687
 10
-7.9291861624
 20
-69.242596356
 10
-7.9481440117
 20
-69.2408125325
 10
-7.9673847673
 20
-69.2391613861
 10
-7.9867073505
 20
-69.2378463081
 10
-8.0062062333
 20
-69.2368980444
 10
-8.025562289
 20
-69.2362858491
 10
-8.0440305678
 20
-69.2361208745
 10
-8.0615170027
 20
-69.2364752252
 10
-8.078054391
 20
-69.2372767967
 10
-8.0932397152
 20
-69.2384204287
 10
-8.1070448182
 20
-69.239937075
  0
LWPOLYLINE
  5
24B
100
AcDbEntity
  8
0
100
AcDbPolyline
 62
7
  6
CONTINUOUS
 90
13
 70
0
 10
8.1071359726
 20
-69.239948856
 10
8.0933343956
 20
-69.2384293759
 10
8.0781558415
 20
-69.2372829531
 10
8.0616258641
 20
-69.2364784724
 10
8.0441424156
 20
-69.2361215093
 10
8.0256688281
 20
-69.2362841673
 10
8.0063015664
 20
-69.2368943427
 10
7.9867899308
 20
-69.2378413003
 10
7.9674527987
 20
-69.2391562777
 10
7.9481962836
 20
-69.2408080372
 10
7.9292282366
 20
-69.2425921305
 10
7.9107223817
 20
-69.2444986848
 10
7.8411241644
 20
-69.2523894273
  0
LWPOLYLINE
  5
24C
100
AcDbEntity
  8
ASSI
100
AcDbPolyline
 62
7
  6
CONTINUOUS
 90
13
 70
0
 10
-10.1103145581
 20
95.6351625059
 10
-10.1165073916
 20
95.6250024283
 10
-10.1222097688
 20
95.6145591876
 10
-10.1274087722
 20
95.6038564463
 10
-10.1320926258
 20
95.5929184493
 10
-10.1362507213
 20
95.5817699738
 10
-10.1398736417
 20
95.570436279
 10
-10.1429531817
 20
95.5589430388
 10
-10.1454823677
 20
95.5473162875
 10
-10.1474554741
 20
95.5355823661
 10
-10.1488680342
 20
95.5237678556
 10
-10.1497168498
 20
95.511899516
 10
-10.15
 20
95.5000042308
  0
LINE
  5
24D
100
AcDbEntity
  8
ASSI
100
AcDbLine
 62
7
  6
CONTINUOUS
 10
4.3367650827
 20
95.1152192852
 11
4.3172932688
 21
95.0935611733
  0
LINE
  5
24E
100
AcDbEntity
  8
ASSI
100
AcDbLine
 62
7
  6
CONTINUOUS
 10
4.3172932688
 20
95.0935611733
 11
4.2950055971
 21
95.0690929256
  0
LINE
  5
24F
100
AcDbEntity
  8
ASSI
100
AcDbLine
 62
7
  6
CONTINUOUS
 10
4.2950055971
 20
95.0690929256
 11
4.2698484485
 21
95.0417631973
  0
LINE
  5
250
100
AcDbEntity
  8
ASSI
100
AcDbLine
 62
7
  6
CONTINUOUS
 10
4.2698484485
 20
95.0417631973
 11
4.2265857376
 21
94.995242936
  0
LINE
  5
251
100
AcDbEntity
  8
ASSI
100
AcDbLine
 62
7
  6
CONTINUOUS
 10
4.2265857376
 20
94.995242936
 11
4.1584643827
 21
94.9227289374
  0
LWPOLYLINE
  5
252
100
AcDbEntity
  8
ASSI
100
AcDbPolyline
 62
7
  6
CONTINUOUS
 90
3
 70
0
 10
4.1584643827
 20
94.9227289374
 10
4.0172280333
 20
94.7738035528
 10
3.9530427099
 20
94.7063578147
  0
LINE
  5
253
100
AcDbEntity
  8
ASSI
100
AcDbLine
 62
7
  6
CONTINUOUS
 10
4.45
 20
93.65
 11
4.406077753
 21
93.606077753
  0
LINE
  5
254
100
AcDbEntity
  8
ASSI
100
AcDbLine
 62
7
  6
CONTINUOUS
 10
-6.5872915245
 20
82.0627084755
 11
-6.5811598705
 21
82.0688401295
  0
LINE
  5
255
100
AcDbEntity
  8
ASSI
100
AcDbLine
 62
7
  6
CONTINUOUS
 10
-4.5
 20
82.15
 11
-4.5719975647
 21
82.0780024353
  0
LINE
  5
256
100
AcDbEntity
  8
ASSI
100
AcDbLine
 62
253
  6
CONTINUOUS
 10
-8.2500038077
 20
77.15
 11
-8.2000019038
 21
77.2000019038
  0
LWPOLYLINE
  5
257
100
AcDbEntity
  8
ASSI
100
AcDbPolyline
 62
7
  6
CONTINUOUS
 90
13
 70
0
 10
-8.1609821407
 20
79.3390178593
 10
-8.171999984
 20
79.3282798073
 10
-8.1828568043
 20
79.3173731727
 10
-8.1935526019
 20
79.3064473981
 10
-8.2042619039
 20
79.2957162678
 10
-8.2148101831
 20
79.2853148304
 10
-8.2246738572
 20
79.2753261428
 10
-8.2339544616
 20
79.266048495
 10
-8.2425504609
 20
79.2576903792
 10
-8.2496336666
 20
79.2503663334
 10
-8.2549280157
 20
79.2444693965
 10
-8.2587095712
 20
79.2405326916
 10
-8.260978333
 20
79.239021667
  0
LINE
  5
258
100
AcDbEntity
  8
ASSI
100
AcDbLine
 62
7
  6
CONTINUOUS
 10
9.5121049871
 20
70.75
 11
9.6451445666
 21
70.8165147237
  0
LWPOLYLINE
  5
259
100
AcDbEntity
  8
0
100
AcDbPolyline
 62
7
  6
CONTINUOUS
 90
36
 70
0
 10
1.8633867426
 20
-59.5847909642
 10
2.8703308238
 20
-59.4759824463
 10
3.0423675679
 20
-59.4583559069
 10
3.2114634714
 20
-59.4420646927
 10
3.3766651382
 20
-59.4272941338
 10
3.5387399098
 20
-59.4138589002
 10
3.6974656307
 20
-59.4020813176
 10
3.8526065637
 20
-59.3920211543
 10
4.0042345741
 20
-59.3836186419
 10
4.1525838171
 20
-59.3770168017
 10
4.297645685
 20
-59.3722414744
 10
4.43924394
 20
-59.3692668193
 10
4.5773443661
 20
-59.3681583349
 10
4.7117296862
 20
-59.3689331746
 10
4.8424563159
 20
-59.3715741851
 10
4.9698669216
 20
-59.3760954053
 10
5.09387123
 20
-59.3825064622
 10
5.2143357662
 20
-59.3907977288
 10
5.3314737407
 20
-59.4009543633
 10
5.4454271489
 20
-59.4130494224
 10
5.5557525767
 20
-59.4270098495
 10
5.6618136717
 20
-59.442601633
 10
5.7636553445
 20
-59.4599334546
 10
5.8610716877
 20
-59.4788966327
 10
5.9532271879
 20
-59.4989311102
 10
6.0402163301
 20
-59.5201347865
 10
6.1220416444
 20
-59.5424097622
 10
6.1979862415
 20
-59.5649022832
 10
6.2682441591
 20
-59.5876499001
 10
6.3330261138
 20
-59.6106150622
 10
6.3919112952
 20
-59.6328313633
 10
6.4450521034
 20
-59.6541998537
 10
6.4929865839
 20
-59.6748194831
 10
6.5360051101
 20
-59.6940206952
 10
6.5743825014
 20
-59.7117273995
 10
6.6387788546
 20
-59.742444272
  0
LINE
  5
25A
100
AcDbEntity
  8
0
100
AcDbLine
 62
7
  6
CONTINUOUS
 10
6.4992307237
 20
-57.75
 11
-6.4992307237
 21
-57.75
  0
LWPOLYLINE
  5
25B
100
AcDbEntity
  8
0
100
AcDbPolyline
 62
7
  6
CONTINUOUS
 90
17
 70
0
 10
-1.8522215092
 20
-59.5859558971
 10
-1.702038503
 20
-59.6008719986
 10
-1.556155475
 20
-59.6143236083
 10
-1.4146638999
 20
-59.6263806878
 10
-1.2778926328
 20
-59.6365096041
 10
-1.1461117549
 20
-59.6446211688
 10
-1.019285311
 20
-59.6508045703
 10
-0.8972606208
 20
-59.6547937407
 10
-0.7802388379
 20
-59.65651888
 10
-0.6681682366
 20
-59.6560497882
 10
-0.5604943756
 20
-59.6533297968
 10
-0.4573447316
 20
-59.6483066589
 10
-0.3586787663
 20
-59.6410326213
 10
-0.2636733578
 20
-59.6316077565
 10
-0.1720688345
 20
-59.620065422
 10
-0.0841718941
 20
-59.6063722604
 10
-0.0
 20
-59.5905282716
  0
LINE
  5
25C
100
AcDbEntity
  8
0
100
AcDbLine
 62
7
  6
CONTINUOUS
 10
-2.991592522
 20
-59.4634067681
 11
-2.6559399359
 21
-59.4986361378
  0
LINE
  5
25D
100
AcDbEntity
  8
0
100
AcDbLine
 62
7
  6
CONTINUOUS
 10
-2.6559399359
 20
-59.4986361378
 11
-1.8522215092
 21
-59.5859558971
  0
LWPOLYLINE
  5
25E
100
AcDbEntity
  8
0
100
AcDbPolyline
 62
7
  6
CONTINUOUS
 90
17
 70
0
 10
-0.0
 20
-59.5905282716
 10
0.0835581248
 20
-59.6063088025
 10
0.1711351851
 20
-59.6199656552
 10
0.262713685
 20
-59.6314988299
 10
0.3580727386
 20
-59.6409591538
 10
0.4573849757
 20
-59.6482957997
 10
0.561214296
 20
-59.6533562849
 10
0.6695781861
 20
-59.6560648825
 10
0.7823707238
 20
-59.6564973195
 10
0.8999554906
 20
-59.6547282944
 10
1.0221525749
 20
-59.6507021363
 10
1.1489946728
 20
-59.644474516
 10
1.2811386637
 20
-59.6362871444
 10
1.4184187621
 20
-59.6260839691
 10
1.5607581711
 20
-59.6139210425
 10
1.7089023848
 20
-59.6002082334
 10
1.8633867426
 20
-59.5847909642
  0
LINE
  5
25F
100
AcDbEntity
  8
ASSI
100
AcDbLine
 62
7
  6
CONTINUOUS
 10
5.4280024353
 20
82.0780024353
 11
5.5
 21
82.15
  0
LINE
  5
260
100
AcDbEntity
  8
ASSI
100
AcDbLine
 62
253
  6
CONTINUOUS
 10
7.0000190385
 20
82.15
 11
6.9101323002
 21
82.0601132618
  0
LINE
  5
261
100
AcDbEntity
  8
ASSI
100
AcDbLine
 62
253
  6
CONTINUOUS
 10
7.5
 20
81.6500190385
 11
7.4101132618
 21
81.5601323002
  0
LINE
  5
262
100
AcDbEntity
  8
ASSI
100
AcDbLine
 62
7
  6
CONTINUOUS
 10
7.410978333
 20
80.060978333
 11
7.5
 21
80.15
  0
LWPOLYLINE
  5
263
100
AcDbEntity
  8
RACCORDO
100
AcDbPolyline
 62
7
  6
CONTINUOUS
 90
3
 70
0
 10
-9.1999907927
 20
55.6830315682
 10
-9.153358993
 20
55.7067860309
 10
-9.1045001531
 20
55.7255364706
  0
LINE
  5
264
100
AcDbEntity
  8
ASSI
100
AcDbLine
 62
7
  6
CONTINUOUS
 10
9.6451445666
 20
63.1165147237
 11
9.5121049871
 21
63.05
  0
LWPOLYLINE
  5
265
100
AcDbEntity
  8
0
100
AcDbPolyline
 62
7
  6
CONTINUOUS
 90
8
 70
0
 10
-6.749468269
 20
56.7012312845
 10
-6.7494143788
 20
56.7012473307
 10
-6.7493564958
 20
56.7013110427
 10
-6.7492943837
 20
56.7013738796
 10
-6.7492256509
 20
56.701288889
 10
-6.7491490197
 20
56.7010070868
 10
-6.7490646411
 20
56.7005774572
 10
-6.7489719423
 20
56.7
  0
LINE
  5
266
100
AcDbEntity
  8
0
100
AcDbLine
 62
7
  6
CONTINUOUS
 10
-6.4992307237
 20
-56.25
 11
6.4992307237
 21
-56.25
  0
LINE
  5
267
100
AcDbEntity
  8
0
100
AcDbLine
 62
7
  6
CONTINUOUS
 10
6.8
 20
-54.75
 11
2.0
 21
-54.75
  0
LINE
  5
268
100
AcDbEntity
  8
0
100
AcDbLine
 62
7
  6
CONTINUOUS
 10
-2.0
 20
-54.75
 11
-6.8
 21
-54.75
  0
LINE
  5
269
100
AcDbEntity
  8
0
100
AcDbLine
 62
7
  6
CONTINUOUS
 10
-6.8
 20
-53.25
 11
-2.0
 21
-53.25
  0
LINE
  5
26A
100
AcDbEntity
  8
0
100
AcDbLine
 62
7
  6
CONTINUOUS
 10
2.0
 20
-53.25
 11
6.8
 21
-53.25
  0
LINE
  5
26B
100
AcDbEntity
  8
0
100
AcDbLine
 62
253
  6
CONTINUOUS
 10
-6.7999999997
 20
-51.75
 11
6.7999999997
 21
-51.75
  0
LINE
  5
26C
100
AcDbEntity
  8
0
100
AcDbLine
 62
7
  6
CONTINUOUS
 10
6.2999999763
 20
-51.25
 11
-6.2999999763
 21
-51.25
  0
LWPOLYLINE
  5
26D
100
AcDbEntity
  8
0
100
AcDbPolyline
 62
7
  6
CONTINUOUS
 90
16
 70
0
 10
6.6387788546
 20
-59.742444272
 10
6.6654880112
 20
-59.7549655859
 10
6.688903086
 20
-59.765627198
 10
6.7093783452
 20
-59.7741305336
 10
6.7271549875
 20
-59.7804318807
 10
6.7424284308
 20
-59.7845749514
 10
6.7554331736
 20
-59.7863923066
 10
6.7663604549
 20
-59.7858155211
 10
6.7753997314
 20
-59.7829130201
 10
6.7827504965
 20
-59.7777226404
 10
6.7885761011
 20
-59.7701674328
 10
6.7930293291
 20
-59.7603243464
 10
6.7962653383
 20
-59.7484620655
 10
6.798421452
 20
-59.7346701515
 10
6.7996249738
 20
-59.7188590429
 10
6.7999999997
 20
-59.7010287398
  0
LWPOLYLINE
  5
26E
100
AcDbEntity
  8
ASSI
100
AcDbPolyline
 62
7
  6
CONTINUOUS
 90
4
 70
0
 10
7.8176867079
 20
92.9473892622
 10
7.7640459661
 20
92.8682814201
 10
7.736684232
 20
92.8282973885
 10
7.7088982221
 20
92.7881681977
  0
LWPOLYLINE
  5
26F
100
AcDbEntity
  8
ASSI
100
AcDbPolyline
 62
7
  6
CONTINUOUS
 90
3
 70
0
 10
7.7088982221
 20
92.7881681977
 10
7.5954124361
 20
92.6264763181
 10
7.5666456542
 20
92.5859869487
  0
LINE
  5
270
100
AcDbEntity
  8
ASSI
100
AcDbLine
 62
253
  6
CONTINUOUS
 10
-6.9992174437
 20
57.2508015948
 11
-6.9247405723
 21
57.3252784662
  0
LWPOLYLINE
  5
271
100
AcDbEntity
  8
RACCORDO
100
AcDbPolyline
 62
7
  6
CONTINUOUS
 90
4
 70
0
 10
-9.2921897001
 20
55.6139719437
 10
-9.2845578984
 20
55.6216023812
 10
-9.2438840491
 20
55.6545330431
 10
-9.1999907927
 20
55.6830315682
  0
LWPOLYLINE
  5
272
100
AcDbEntity
  8
0
100
AcDbPolyline
 62
7
  6
CONTINUOUS
 90
16
 70
0
 10
-6.7489719423
 20
56.7
 10
-6.7483768376
 20
56.700450863
 10
-6.7476455354
 20
56.7007481569
 10
-6.7467775867
 20
56.7008918819
 10
-6.745772356
 20
56.7008226467
 10
-6.7446295397
 20
56.7005998425
 10
-6.743349406
 20
56.7004016427
 10
-6.7419298176
 20
56.7002871677
 10
-6.7403721148
 20
56.7001972971
 10
-6.7386838044
 20
56.7001328432
 10
-6.7368713839
 20
56.7000961984
 10
-6.7349322172
 20
56.7000849702
 10
-6.7328605336
 20
56.7000927936
 10
-6.7306649904
 20
56.7001193735
 10
-6.72833832
 20
56.7001650048
 10
-6.7231773122
 20
56.7002965176
  0
LINE
  5
273
100
AcDbEntity
  8
ASSI
100
AcDbLine
 62
253
  6
CONTINUOUS
 10
-11.1504363434
 20
49.349983077
 11
-11.1417094756
 21
49.3558009068
  0
LINE
  5
274
100
AcDbEntity
  8
ASSI
100
AcDbLine
 62
253
  6
CONTINUOUS
 10
-10.6504426895
 20
48.85
 11
-10.6417158217
 21
48.8558178298
  0
LINE
  5
275
100
AcDbEntity
  8
ASSI
100
AcDbLine
 62
7
  6
CONTINUOUS
 10
8.0665695018
 20
49.7962645729
 11
8.25
 21
49.85
  0
LWPOLYLINE
  5
276
100
AcDbEntity
  8
0
100
AcDbPolyline
 62
7
  6
CONTINUOUS
 90
16
 70
0
 10
6.3000929159
 20
-51.2500000086
 10
6.3526670964
 20
-51.2527815612
 10
6.4041466771
 20
-51.2609668016
 10
6.4539976211
 20
-51.2743060515
 10
6.5014680195
 20
-51.2923859299
 10
6.5464047816
 20
-51.3149314036
 10
6.5891262888
 20
-51.3420710981
 10
6.6293065535
 20
-51.3737591282
 10
6.6662678704
 20
-51.4096357144
 10
6.6996631871
 20
-51.4495514409
 10
6.7290712202
 20
-51.493294161
 10
6.7539351942
 20
-51.5403745264
 10
6.7737583843
 20
-51.5901469643
 10
6.7881997329
 20
-51.6420137949
 10
6.7970168504
 20
-51.6954633133
 10
6.7999999866
 20
-51.7498856005
  0
LWPOLYLINE
  5
277
100
AcDbEntity
  8
ASSI
100
AcDbPolyline
 62
7
  6
CONTINUOUS
 90
13
 70
0
 10
7.2896854419
 20
95.6351625059
 10
7.2834926084
 20
95.6250024283
 10
7.2777902312
 20
95.6145591876
 10
7.2725912278
 20
95.6038564463
 10
7.2679073742
 20
95.5929184493
 10
7.2637492787
 20
95.5817699738
 10
7.2601263583
 20
95.570436279
 10
7.2570468183
 20
95.5589430388
 10
7.2545176323
 20
95.5473162875
 10
7.2525445259
 20
95.5355823661
 10
7.2511319658
 20
95.5237678556
 10
7.2502831502
 20
95.511899516
 10
7.25
 20
95.5000042308
  0
LINE
  5
278
100
AcDbEntity
  8
0
100
AcDbLine
 62
253
  6
CONTINUOUS
 10
5.1276845188
 20
61.6778273241
 11
0.1177970134
 21
56.7
  0
LINE
  5
279
100
AcDbEntity
  8
ASSI
100
AcDbLine
 62
7
  6
CONTINUOUS
 10
-7.1905416262
 20
48.9140299745
 11
-7.2558178298
 21
48.8558178298
  0
LWPOLYLINE
  5
27A
100
AcDbEntity
  8
ASSI
100
AcDbPolyline
 62
7
  6
CONTINUOUS
 90
10
 70
0
 10
-7.3648374941
 20
46.7896854419
 10
-7.3549835949
 20
46.7963547045
 10
-7.3454581962
 20
46.8034852893
 10
-7.3362828809
 20
46.8110610411
 10
-7.3274784339
 20
46.8190647995
 10
-7.3190647995
 20
46.8274784339
 10
-7.3110610411
 20
46.8362828809
 10
-7.3034852893
 20
46.8454581962
 10
-7.2963547045
 20
46.8549835949
 10
-7.2896854419
 20
46.8648374941
  0
LINE
  5
27B
100
AcDbEntity
  8
0
100
AcDbLine
 62
253
  6
CONTINUOUS
 10
0.0
 20
-60.2057112216
 11
7.6600401797
 21
-69.25
  0
LWPOLYLINE
  5
27C
100
AcDbEntity
  8
ASSI
100
AcDbPolyline
 62
7
  6
CONTINUOUS
 90
4
 70
0
 10
-7.8176867079
 20
49.5526107378
 10
-7.7640459661
 20
49.6317185799
 10
-7.736684232
 20
49.6717026115
 10
-7.7088982221
 20
49.7118318023
  0
LWPOLYLINE
  5
27D
100
AcDbEntity
  8
ASSI
100
AcDbPolyline
 62
7
  6
CONTINUOUS
 90
3
 70
0
 10
-7.7088982221
 20
49.7118318023
 10
-7.5954124361
 20
49.8735236819
 10
-7.5666456542
 20
49.9140130513
  0
LINE
  5
27E
100
AcDbEntity
  8
ASSI
100
AcDbLine
 62
7
  6
CONTINUOUS
 10
-4.3367739381
 20
47.3847709899
 11
-4.3172765175
 21
47.4064573317
  0
LINE
  5
27F
100
AcDbEntity
  8
ASSI
100
AcDbLine
 62
7
  6
CONTINUOUS
 10
-4.3172765175
 20
47.4064573317
 11
-4.2949737104
 21
47.4309416104
  0
LINE
  5
280
100
AcDbEntity
  8
ASSI
100
AcDbLine
 62
7
  6
CONTINUOUS
 10
-4.2949737104
 20
47.4309416104
 11
-4.2697991478
 21
47.4582901688
  0
LINE
  5
281
100
AcDbEntity
  8
ASSI
100
AcDbLine
 62
7
  6
CONTINUOUS
 10
-4.2697991478
 20
47.4582901688
 11
-4.2265017585
 21
47.5048467714
  0
LINE
  5
282
100
AcDbEntity
  8
ASSI
100
AcDbLine
 62
7
  6
CONTINUOUS
 10
-4.2265017585
 20
47.5048467714
 11
-4.158299461
 21
47.5774461798
  0
LWPOLYLINE
  5
283
100
AcDbEntity
  8
ASSI
100
AcDbPolyline
 62
7
  6
CONTINUOUS
 90
3
 70
0
 10
-4.158299461
 20
47.5774461798
 10
-4.0170167036
 20
47.7264186179
 10
-3.9530427099
 20
47.7936421853
  0
LINE
  5
284
100
AcDbEntity
  8
ASSI
100
AcDbLine
 62
7
  6
CONTINUOUS
 10
-4.4063493531
 20
47.2936506469
 11
-4.45
 21
47.25
  0
LWPOLYLINE
  5
285
100
AcDbEntity
  8
ASSI
100
AcDbPolyline
 62
7
  6
CONTINUOUS
 90
13
 70
0
 10
-7.2896854419
 20
46.8648374941
 10
-7.2834926084
 20
46.8749975717
 10
-7.2777902312
 20
46.8854408124
 10
-7.2725912278
 20
46.8961435537
 10
-7.2679073742
 20
46.9070815507
 10
-7.2637492787
 20
46.9182300262
 10
-7.2601263583
 20
46.929563721
 10
-7.2570468183
 20
46.9410569612
 10
-7.2545176323
 20
46.9526837125
 10
-7.2525445259
 20
46.9644176339
 10
-7.2511319658
 20
46.9762321444
 10
-7.2502831502
 20
46.988100484
 10
-7.25
 20
46.9999957692
  0
LWPOLYLINE
  5
286
100
AcDbEntity
  8
0
100
AcDbPolyline
 62
7
  6
CONTINUOUS
 90
7
 70
0
 10
6.7458880824
 20
56.7
 10
6.7462424987
 20
56.7005437425
 10
6.7465679285
 20
56.7009422764
 10
6.7468661824
 20
56.7011956018
 10
6.7471384035
 20
56.7012554717
 10
6.7473869003
 20
56.7011701331
 10
6.7476148831
 20
56.7010843266
  0
LINE
  5
287
100
AcDbEntity
  8
ASSI
100
AcDbLine
 62
7
  6
CONTINUOUS
 10
3.65
 20
47.4730882684
 11
3.6945996055
 21
47.5208961016
  0
LINE
  5
288
100
AcDbEntity
  8
ASSI
100
AcDbLine
 62
7
  6
CONTINUOUS
 10
3.6945996055
 20
47.5208961016
 11
3.8256146793
 21
47.6596436251
  0
LINE
  5
289
100
AcDbEntity
  8
ASSI
100
AcDbLine
 62
7
  6
CONTINUOUS
 10
3.8256146793
 20
47.6596436251
 11
3.9530427099
 21
47.7936421853
  0
LINE
  5
28A
100
AcDbEntity
  8
ASSI
100
AcDbLine
 62
7
  6
CONTINUOUS
 10
8.25
 20
49.85
 11
7.2558178298
 21
48.8558178298
  0
LWPOLYLINE
  5
28B
100
AcDbEntity
  8
ASSI
100
AcDbPolyline
 62
7
  6
CONTINUOUS
 90
7
 70
0
 10
10.0637171191
 20
46.8110610411
 10
10.0725215661
 20
46.8190647995
 10
10.0809352005
 20
46.8274784339
 10
10.0889389589
 20
46.8362828809
 10
10.0965147107
 20
46.8454581962
 10
10.1036452955
 20
46.8549835949
 10
10.1103145581
 20
46.8648374941
  0
LINE
  5
28C
100
AcDbEntity
  8
ASSI
100
AcDbLine
 62
7
  6
CONTINUOUS
 10
-7.3555468846
 20
91.8164222561
 11
-7.3
 21
92.15
  0
LWPOLYLINE
  5
28D
100
AcDbEntity
  8
0
100
AcDbPolyline
 62
253
  6
CONTINUOUS
 90
20
 70
0
 10
-8.15
 20
61.7420445785
 10
-8.1494235022
 20
61.744301839
 10
-8.1477581014
 20
61.7464996697
 10
-8.1450981621
 20
61.7486380706
 10
-8.1415417678
 20
61.7507058027
 10
-8.1371749748
 20
61.752714105
 10
-8.1320574808
 20
61.7546966945
 10
-8.1262568066
 20
61.7566733955
 10
-8.1198461589
 20
61.7586243837
 10
-8.1128712503
 20
61.7605239021
 10
-8.1053869204
 20
61.7623782217
 10
-8.0974550644
 20
61.7641810716
 10
-8.0891201576
 20
61.7658878821
 10
-8.0804291445
 20
61.7674873193
 10
-8.0714372186
 20
61.768990717
 10
-8.0621968857
 20
61.7703875079
 10
-8.0527713756
 20
61.7716577775
 10
-8.0431933011
 20
61.7728214401
 10
-8.0334614154
 20
61.7739276719
 10
-8.0236346383
 20
61.774982126
  0
LINE
  5
28E
100
AcDbEntity
  8
ASSI
100
AcDbLine
 62
7
  6
CONTINUOUS
 10
8.8387914318
 20
91.8164222561
 11
8.9498936624
 21
92.15
  0
LINE
  5
28F
100
AcDbEntity
  8
ASSI
100
AcDbLine
 62
7
  6
CONTINUOUS
 10
9.5242414733
 20
91.0714572617
 11
9.65
 21
91.4490396502
  0
LINE
  5
290
100
AcDbEntity
  8
0
100
AcDbLine
 62
7
  6
CONTINUOUS
 10
8.1388156058
 20
61.6601836396
 11
8.1388834203
 21
61.6603088622
  0
LWPOLYLINE
  5
291
100
AcDbEntity
  8
0
100
AcDbPolyline
 62
253
  6
CONTINUOUS
 90
10
 70
0
 10
8.1379511698
 20
61.6580184724
 10
8.1380481706
 20
61.6581785056
 10
8.1381451515
 20
61.6583584084
 10
8.1382419892
 20
61.6585581807
 10
8.1383384626
 20
61.6587774683
 10
8.1384345408
 20
61.6590166254
 10
8.1385303889
 20
61.6592767148
 10
8.1386259813
 20
61.6595580907
 10
8.1387210959
 20
61.659860399
 10
8.1388156058
 20
61.6601836396
  0
LINE
  5
292
100
AcDbEntity
  8
ASSI
100
AcDbLine
 62
7
  6
CONTINUOUS
 10
-11.1665823117
 20
92.2726497308
 11
-11.15
 21
92.8211324865
  0
LWPOLYLINE
  5
293
100
AcDbEntity
  8
ASSI
100
AcDbPolyline
 62
7
  6
CONTINUOUS
 90
13
 70
0
 10
-3.5
 20
95.2041479441
 10
-3.5002541483
 20
95.2024901082
 10
-3.5010190675
 20
95.2003478903
 10
-3.502298038
 20
95.1977212905
 10
-3.5040927356
 20
95.1946162269
 10
-3.5064057653
 20
95.1910267813
 10
-3.5092431906
 20
95.1869351995
 10
-3.5126063515
 20
95.1823457235
 10
-3.5164990046
 20
95.1772541112
 10
-3.520936686
 20
95.1716298825
 10
-3.5259196285
 20
95.165485329
 10
-3.5314569667
 20
95.1588081591
 10
-3.5375902083
 20
95.151531018
  0
LWPOLYLINE
  5
294
100
AcDbEntity
  8
ASSI
100
AcDbPolyline
 62
7
  6
CONTINUOUS
 90
17
 70
0
 10
-4.406077753
 20
47.2961077269
 10
-4.4057385362
 20
47.2978367895
 10
-4.4048940336
 20
47.3000446306
 10
-4.4035412886
 20
47.3027312502
 10
-4.4016792021
 20
47.3058904042
 10
-4.3993053092
 20
47.3095283366
 10
-4.3964127269
 20
47.3136637802
 10
-4.393000596
 20
47.3182905579
 10
-4.3890644483
 20
47.3234148468
 10
-4.3845843978
 20
47.3290739102
 10
-4.3795562741
 20
47.3352580263
 10
-4.3739714355
 20
47.3419769169
 10
-4.3677903805
 20
47.3492970118
 10
-4.3609925925
 20
47.357222617
 10
-4.3535728747
 20
47.3657494264
 10
-4.3455049403
 20
47.3749309515
 10
-4.3367739381
 20
47.3847709899
  0
LWPOLYLINE
  5
295
100
AcDbEntity
  8
ASSI
100
AcDbPolyline
 62
7
  6
CONTINUOUS
 90
17
 70
0
 10
4.406077753
 20
95.2038922731
 10
4.4057383877
 20
95.2021633765
 10
4.4048931765
 20
95.1999539919
 10
4.4035387391
 20
95.1972641193
 10
4.4016733582
 20
95.1940998644
 10
4.3992942519
 20
95.1904551215
 10
4.396394987
 20
95.186311573
 10
4.3929741921
 20
95.1816738335
 10
4.3890277862
 20
95.1765372884
 10
4.3845391676
 20
95.1708697763
 10
4.3795072028
 20
95.1646829671
 10
4.3739227336
 20
95.1579651908
 10
4.3677446201
 20
95.1506492766
 10
4.360952427
 20
95.1427312555
 10
4.3535416407
 20
95.1342150963
 10
4.3454841645
 20
95.125045535
 10
4.3367650827
 20
95.1152192852
  0
LINE
  5
296
100
AcDbEntity
  8
0
100
AcDbLine
 62
7
  6
CONTINUOUS
 10
-6.75
 20
56.7013768442
 11
-6.7499880877
 21
56.7014325538
  0
LWPOLYLINE
  5
297
100
AcDbEntity
  8
ASSI
100
AcDbPolyline
 62
7
  6
CONTINUOUS
 90
13
 70
0
 10
10.1103145581
 20
46.8648374941
 10
10.1165073916
 20
46.8749975717
 10
10.1222097688
 20
46.8854408124
 10
10.1274087722
 20
46.8961435537
 10
10.1320926258
 20
46.9070815507
 10
10.1362507213
 20
46.9182300262
 10
10.1398736417
 20
46.929563721
 10
10.1429531817
 20
46.9410569612
 10
10.1454823677
 20
46.9526837125
 10
10.1474554741
 20
46.9644176339
 10
10.1488680342
 20
46.9762321444
 10
10.1497168498
 20
46.988100484
 10
10.15
 20
46.9999957692
  0
LWPOLYLINE
  5
298
100
AcDbEntity
  8
ASSI
100
AcDbPolyline
 62
253
  6
CONTINUOUS
 90
34
 70
0
 10
-10.145628166
 20
95.0943375673
 10
-10.1453115153
 20
95.0840547998
 10
-10.1444313535
 20
95.0737952398
 10
-10.1429896672
 20
95.0635820427
 10
-10.1409897102
 20
95.053438259
 10
-10.1384359962
 20
95.0433867826
 10
-10.1353342888
 20
95.0334502991
 10
-10.1316915884
 20
95.0236512346
 10
-10.1275161163
 20
95.014011705
 10
-10.1228172964
 20
95.0045534661
 10
-10.1176057336
 20
94.9952978646
 10
-10.1118931901
 20
94.9862657898
 10
-10.1056925587
 20
94.9774776267
 10
-10.0990178339
 20
94.9689532096
 10
-10.0918840803
 20
94.9607117775
 10
-10.0843073982
 20
94.952771931
 10
-10.0763048877
 20
94.9451515897
 10
-10.0678946101
 20
94.9378679524
 10
-10.0590955469
 20
94.9309374578
 10
-10.049927557
 20
94.9243757476
 10
-10.040411332
 20
94.9181976311
 10
-10.0305683495
 20
94.9124170521
 10
-10.0204208246
 20
94.9070470569
 10
-10.0099916595
 20
94.9020997654
 10
-9.9993043923
 20
94.8975863432
 10
-9.9883831436
 20
94.8935169769
 10
-9.9772525619
 20
94.8899008509
 10
-9.9659377683
 20
94.8867461264
 10
-9.9544642997
 20
94.8840599235
 10
-9.9428580509
 20
94.8818483049
 10
-9.9311452166
 20
94.880116262
 10
-9.919352232
 20
94.8788677039
 10
-9.9075057131
 20
94.8781054486
 10
-9.8956323968
 20
94.8778312164
  0
LWPOLYLINE
  5
299
100
AcDbEntity
  8
ASSI
100
AcDbPolyline
 62
253
  6
CONTINUOUS
 90
34
 70
0
 10
-7.254371834
 20
47.4056624327
 10
-7.2546879612
 20
47.4159362105
 10
-7.2555668735
 20
47.4261891209
 10
-7.257006965
 20
47.4363980308
 10
-7.2590055309
 20
47.4465406301
 10
-7.2615583468
 20
47.4565932197
 10
-7.2646592669
 20
47.4665308404
 10
-7.2683009749
 20
47.4763302726
 10
-7.2724754803
 20
47.4859702084
 10
-7.2771734609
 20
47.4954290789
 10
-7.2823844175
 20
47.5046856459
 10
-7.2880965586
 20
47.5137188744
 10
-7.2942968909
 20
47.5225081857
 10
-7.3009713669
 20
47.5310336774
 10
-7.3081049647
 20
47.5392761713
 10
-7.3156815988
 20
47.5472170786
 10
-7.323684181
 20
47.5548384832
 10
-7.3320946393
 20
47.5621231675
 10
-7.3408939717
 20
47.5690546708
 10
-7.3500623086
 20
47.5756173419
 10
-7.3595789604
 20
47.5817963719
 10
-7.3694224454
 20
47.5875778131
 10
-7.3795705442
 20
47.5929486151
 10
-7.3900003491
 20
47.5978966541
 10
-7.4006883165
 20
47.6024107606
 10
-7.4116103331
 20
47.6064807495
 10
-7.4227417323
 20
47.6100974279
 10
-7.4340573467
 20
47.6132526215
 10
-7.4455316046
 20
47.6159392073
 10
-7.4571386303
 20
47.6181511338
 10
-7.468852264
 20
47.6198834185
 10
-7.4806460789
 20
47.6211321524
 10
-7.4924934395
 20
47.6218945144
 10
-7.5043676032
 20
47.6221687836
  0
LINE
  5
29A
100
AcDbEntity
  8
ASSI
100
AcDbLine
 62
7
  6
CONTINUOUS
 10
-11.1665823117
 20
50.2273502692
 11
-11.15
 21
49.6788675135
  0
LWPOLYLINE
  5
29B
100
AcDbEntity
  8
ASSI
100
AcDbPolyline
 62
7
  6
CONTINUOUS
 90
6
 70
0
 10
-10.1456238859
 20
47.0029131701
 10
-10.1453445371
 20
46.9924709443
 10
-10.144495097
 20
46.980601226
 10
-10.1430817682
 20
46.9687853437
 10
-10.1411077496
 20
46.957050064
 10
-10.1385775126
 20
46.9454219847
  0
LWPOLYLINE
  5
29C
100
AcDbEntity
  8
ASSI
100
AcDbPolyline
 62
7
  6
CONTINUOUS
 90
5
 70
0
 10
-10.15
 20
46.9999957692
 10
-10.1497168498
 20
46.988100484
 10
-10.1488680342
 20
46.9762321444
 10
-10.1474554741
 20
46.9644176339
 10
-10.1454823677
 20
46.9526837125
  0
LINE
  5
29D
100
AcDbEntity
  8
ASSI
100
AcDbLine
 62
7
  6
CONTINUOUS
 10
-8.2547430141
 20
55.742225046
 11
-8.2527463206
 21
55.65
  0
LWPOLYLINE
  5
29E
100
AcDbEntity
  8
0
100
AcDbPolyline
 62
7
  6
CONTINUOUS
 90
17
 70
0
 10
-6.7999999997
 20
-59.7010287398
 10
-6.7996278853
 20
-59.7188010034
 10
-6.7984328867
 20
-59.7345712161
 10
-6.7962905379
 20
-59.7483393778
 10
-6.7930742638
 20
-59.7601983563
 10
-6.7886456929
 20
-59.7700552838
 10
-6.7828435289
 20
-59.7776315569
 10
-6.7755129565
 20
-59.7828570828
 10
-6.7664851281
 20
-59.7858019543
 10
-6.7555394097
 20
-59.7863978466
 10
-6.7424745078
 20
-59.7845802367
 10
-6.7270865743
 20
-59.7804136475
 10
-6.7091040932
 20
-59.7740233229
 10
-6.6883010152
 20
-59.7653555602
 10
-6.6644195774
 20
-59.7544640621
 10
-6.6370798864
 20
-59.7416351799
 10
-6.5708600522
 20
-59.7100672588
  0
LWPOLYLINE
  5
29F
100
AcDbEntity
  8
ASSI
100
AcDbPolyline
 62
7
  6
CONTINUOUS
 90
40
 70
0
 10
-11.1491272468
 20
49.3502288521
 10
-11.1487254783
 20
49.3301617084
 10
-11.1475178615
 20
49.3100929111
 10
-11.1455021807
 20
49.2900549895
 10
-11.1426747096
 20
49.2700629768
 10
-11.139037304
 20
49.2501678016
 10
-11.1346045075
 20
49.230454937
 10
-11.1293910418
 20
49.2109741612
 10
-11.12340379
 20
49.191737834
 10
-11.1166533905
 20
49.1727735172
 10
-11.1091593246
 20
49.1541271518
 10
-11.1009299311
 20
49.1358115947
 10
-11.091954438
 20
49.1178067253
 10
-11.0822254754
 20
49.1001131943
 10
-11.0717697748
 20
49.082793922
 10
-11.0606288795
 20
49.0659213675
 10
-11.0488264369
 20
49.0495281814
 10
-11.0363788556
 20
49.0336341068
 10
-11.0233263117
 20
49.0182857045
 10
-11.0097179067
 20
49.003530108
 10
-10.9955568139
 20
48.9893606529
 10
-10.9808115931
 20
48.9757458797
 10
-10.9654752953
 20
48.9626884169
 10
-10.9495955918
 20
48.9502376038
 10
-10.9332204097
 20
48.9384345915
 10
-10.9163704856
 20
48.9272959143
 10
-10.8990779585
 20
48.9168442971
 10
-10.881414432
 20
48.9071206009
 10
-10.8634434178
 20
48.8981515193
 10
-10.8451651762
 20
48.8899290901
 10
-10.826557044
 20
48.8824413954
 10
-10.8076305126
 20
48.8756963098
 10
-10.7884327235
 20
48.869713848
 10
-10.7689924788
 20
48.8645051027
 10
-10.7493224519
 20
48.8600768536
 10
-10.729472075
 20
48.8564435376
 10
-10.7095271238
 20
48.8536196422
 10
-10.6895385977
 20
48.8516068248
 10
-10.6695213554
 20
48.8504010881
 10
-10.6495078465
 20
48.85
  0
LWPOLYLINE
  5
2A0
100
AcDbEntity
  8
0
100
AcDbPolyline
 62
253
  6
CONTINUOUS
 90
10
 70
0
 10
-8.15
 20
61.7420445785
 10
-8.1498504383
 20
61.7325823051
 10
-8.1494019017
 20
61.7231294597
 10
-8.148654837
 20
61.7136954676
 10
-8.1476099888
 20
61.7042897387
 10
-8.1462683981
 20
61.694921648
 10
-8.1446314
 20
61.6856005265
 10
-8.1427006246
 20
61.6763356652
 10
-8.140477996
 20
61.6671363056
 10
-8.1379657288
 20
61.6580116208
  0
LINE
  5
2A1
100
AcDbEntity
  8
ASSI
100
AcDbLine
 62
7
  6
CONTINUOUS
 10
-11.1417094756
 20
92.2726497308
 11
-11.1504363434
 21
92.85
  0
LINE
  5
2A2
100
AcDbEntity
  8
ASSI
100
AcDbLine
 62
253
  6
CONTINUOUS
 10
-10.145628166
 20
47.4056624327
 11
-10.15
 21
47.8395148518
  0
LINE
  5
2A3
100
AcDbEntity
  8
ASSI
100
AcDbLine
 62
253
  6
CONTINUOUS
 10
-9.8956323968
 20
47.6221687836
 11
-9.9007229979
 21
48.1273502692
  0
LINE
  5
2A4
100
AcDbEntity
  8
ASSI
100
AcDbLine
 62
253
  6
CONTINUOUS
 10
-7.5043676032
 20
94.8778312164
 11
-7.4992770021
 21
94.3726497308
  0
LINE
  5
2A5
100
AcDbEntity
  8
ASSI
100
AcDbLine
 62
253
  6
CONTINUOUS
 10
-7.254371834
 20
95.0943375673
 11
-7.25
 21
94.6604851482
  0
LINE
  5
2A6
100
AcDbEntity
  8
ASSI
100
AcDbLine
 62
253
  6
CONTINUOUS
 10
-10.145628166
 20
47.0043676032
 11
-10.1456238859
 21
47.0029131701
  0
LINE
  5
2A7
100
AcDbEntity
  8
ASSI
100
AcDbLine
 62
7
  6
CONTINUOUS
 10
-11.1665823117
 20
92.2726497308
 11
-11.1665823117
 21
50.2273502692
  0
LINE
  5
2A8
100
AcDbEntity
  8
ASSI
100
AcDbLine
 62
7
  6
CONTINUOUS
 10
-11.1504363434
 20
93.150016923
 11
-11.1504363434
 21
92.85
  0
LINE
  5
2A9
100
AcDbEntity
  8
ASSI
100
AcDbLine
 62
7
  6
CONTINUOUS
 10
-11.1504363434
 20
49.349983077
 11
-11.1504363434
 21
49.65
  0
LINE
  5
2AA
100
AcDbEntity
  8
ASSI
100
AcDbLine
 62
7
  6
CONTINUOUS
 10
-11.1417094756
 20
93.1441990932
 11
-11.1417094756
 21
92.2726497308
  0
LINE
  5
2AB
100
AcDbEntity
  8
ASSI
100
AcDbLine
 62
7
  6
CONTINUOUS
 10
-11.1417094756
 20
50.2273502692
 11
-11.1417094756
 21
49.3558009068
  0
LINE
  5
2AC
100
AcDbEntity
  8
ASSI
100
AcDbLine
 62
7
  6
CONTINUOUS
 10
-10.15
 20
47.4056624327
 11
-10.15
 21
48.6497865097
  0
LINE
  5
2AD
100
AcDbEntity
  8
ASSI
100
AcDbLine
 62
7
  6
CONTINUOUS
 10
-10.15
 20
93.8502134903
 11
-10.15
 21
95.0943375673
  0
LINE
  5
2AE
100
AcDbEntity
  8
ASSI
100
AcDbLine
 62
7
  6
CONTINUOUS
 10
-10.145628166
 20
95.4956323968
 11
-10.145628166
 21
95.0943375673
  0
LINE
  5
2AF
100
AcDbEntity
  8
ASSI
100
AcDbLine
 62
7
  6
CONTINUOUS
 10
-10.145628166
 20
47.4056624327
 11
-10.145628166
 21
47.0043676032
  0
LINE
  5
2B0
100
AcDbEntity
  8
ASSI
100
AcDbLine
 62
253
  6
CONTINUOUS
 10
-9.8956323968
 20
46.754371834
 11
-9.8956323968
 21
47.6221687836
  0
LINE
  5
2B1
100
AcDbEntity
  8
ASSI
100
AcDbLine
 62
253
  6
CONTINUOUS
 10
-9.8956323968
 20
94.8778312164
 11
-9.8956323968
 21
95.745628166
  0
LINE
  5
2B2
100
AcDbEntity
  8
ASSI
100
AcDbLine
 62
7
  6
CONTINUOUS
 10
-9.65
 20
80.15
 11
-9.65
 21
91.4490396502
  0
LINE
  5
2B3
100
AcDbEntity
  8
ASSI
100
AcDbLine
 62
7
  6
CONTINUOUS
 10
-9.5121049871
 20
83.7632676422
 11
-9.5121049871
 21
80.15
  0
LINE
  5
2B4
100
AcDbEntity
  8
ASSI
100
AcDbLine
 62
253
  6
CONTINUOUS
 10
-8.5664091763
 20
80.15
 11
-8.5664091763
 21
80.05
  0
LINE
  5
2B5
100
AcDbEntity
  8
ASSI
100
AcDbLine
 62
253
  6
CONTINUOUS
 10
-8.5664091763
 20
71.660978333
 11
-8.5664091763
 21
71.5609821407
  0
LINE
  5
2B6
100
AcDbEntity
  8
ASSI
100
AcDbLine
 62
253
  6
CONTINUOUS
 10
-8.5664091763
 20
63.960978333
 11
-8.5664091763
 21
63.8609821407
  0
LINE
  5
2B7
100
AcDbEntity
  8
ASSI
100
AcDbLine
 62
253
  6
CONTINUOUS
 10
-8.5664091763
 20
58.9390178593
 11
-8.5664091763
 21
58.839021667
  0
LINE
  5
2B8
100
AcDbEntity
  8
ASSI
100
AcDbLine
 62
7
  6
CONTINUOUS
 10
-8.260978333
 20
77.5372801014
 11
-8.260978333
 21
79.239021667
  0
LINE
  5
2B9
100
AcDbEntity
  8
ASSI
100
AcDbLine
 62
7
  6
CONTINUOUS
 10
-8.25
 20
49.85
 11
-8.25
 21
50.35
  0
LINE
  5
2BA
100
AcDbEntity
  8
ASSI
100
AcDbLine
 62
7
  6
CONTINUOUS
 10
-8.25
 20
92.15
 11
-8.25
 21
92.65
  0
LINE
  5
2BB
100
AcDbEntity
  8
0
100
AcDbLine
 62
7
  6
CONTINUOUS
 10
-8.2
 20
78.3
 11
-8.2
 21
62.2
  0
LINE
  5
2BC
100
AcDbEntity
  8
0
100
AcDbLine
 62
7
  6
CONTINUOUS
 10
-8.2
 20
-86.25
 11
-8.2
 21
-69.2585553198
  0
LINE
  5
2BD
100
AcDbEntity
  8
ASSI
100
AcDbLine
 62
253
  6
CONTINUOUS
 10
-8.1609821407
 20
78.4917593723
 11
-8.1609821407
 21
79.3390178593
  0
LINE
  5
2BE
100
AcDbEntity
  8
0
100
AcDbLine
 62
7
  6
CONTINUOUS
 10
-8.15
 20
61.7420445785
 11
-8.15
 21
78.3000000946
  0
LINE
  5
2BF
100
AcDbEntity
  8
ASSI
100
AcDbLine
 62
253
  6
CONTINUOUS
 10
-8.0665695018
 20
92.7037354271
 11
-8.0665695018
 21
92.15
  0
LINE
  5
2C0
100
AcDbEntity
  8
ASSI
100
AcDbLine
 62
253
  6
CONTINUOUS
 10
-8.0665695018
 20
50.35
 11
-8.0665695018
 21
49.7962645729
  0
LINE
  5
2C1
100
AcDbEntity
  8
ASSI
100
AcDbLine
 62
253
  6
CONTINUOUS
 10
-7.7372801014
 20
78.7917149754
 11
-7.7372801014
 21
79.15
  0
LINE
  5
2C2
100
AcDbEntity
  8
0
100
AcDbLine
 62
253
  6
CONTINUOUS
 10
-7.7
 20
-69.2541741001
 11
-7.7
 21
-86.25
  0
LINE
  5
2C3
100
AcDbEntity
  8
0
100
AcDbLine
 62
253
  6
CONTINUOUS
 10
-7.6409308157
 20
78.8
 11
-7.6409308157
 21
78.7993147674
  0
LINE
  5
2C4
100
AcDbEntity
  8
ASSI
100
AcDbLine
 62
253
  6
CONTINUOUS
 10
-7.5666456542
 20
92.5859869487
 11
-7.5666456542
 21
92.15
  0
LINE
  5
2C5
100
AcDbEntity
  8
ASSI
100
AcDbLine
 62
253
  6
CONTINUOUS
 10
-7.5666456542
 20
50.35
 11
-7.5666456542
 21
49.9140130513
  0
LINE
  5
2C6
100
AcDbEntity
  8
ASSI
100
AcDbLine
 62
253
  6
CONTINUOUS
 10
-7.5043676032
 20
46.754371834
 11
-7.5043676032
 21
47.6221687836
  0
LINE
  5
2C7
100
AcDbEntity
  8
ASSI
100
AcDbLine
 62
253
  6
CONTINUOUS
 10
-7.5043676032
 20
94.8778312164
 11
-7.5043676032
 21
95.745628166
  0
LINE
  5
2C8
100
AcDbEntity
  8
ASSI
100
AcDbLine
 62
7
  6
CONTINUOUS
 10
-7.5
 20
80.15
 11
-7.5
 21
81.6500190385
  0
LINE
  5
2C9
100
AcDbEntity
  8
ASSI
100
AcDbLine
 62
7
  6
CONTINUOUS
 10
-7.4372915245
 20
78.8
 11
-7.4372915245
 21
79.15
  0
LINE
  5
2CA
100
AcDbEntity
  8
ASSI
100
AcDbLine
 62
7
  6
CONTINUOUS
 10
-7.4101132618
 20
81.5601323002
 11
-7.4101132618
 21
80.15
  0
LINE
  5
2CB
100
AcDbEntity
  8
ASSI
100
AcDbLine
 62
7
  6
CONTINUOUS
 10
-7.4101132618
 20
58.9390178593
 11
-7.4101132618
 21
58.839021667
  0
LINE
  5
2CC
100
AcDbEntity
  8
0
100
AcDbLine
 62
7
  6
CONTINUOUS
 10
-7.4
 20
-86.25
 11
-7.4
 21
-96.25
  0
LINE
  5
2CD
100
AcDbEntity
  8
ASSI
100
AcDbLine
 62
7
  6
CONTINUOUS
 10
-7.35
 20
79.15
 11
-7.35
 21
78.8
  0
LINE
  5
2CE
100
AcDbEntity
  8
ASSI
100
AcDbLine
 62
7
  6
CONTINUOUS
 10
-7.254371834
 20
47.0043676032
 11
-7.254371834
 21
47.4056624327
  0
LINE
  5
2CF
100
AcDbEntity
  8
ASSI
100
AcDbLine
 62
7
  6
CONTINUOUS
 10
-7.254371834
 20
95.0943375673
 11
-7.254371834
 21
95.4956323968
  0
LINE
  5
2D0
100
AcDbEntity
  8
ASSI
100
AcDbLine
 62
7
  6
CONTINUOUS
 10
-7.25
 20
47.4056624327
 11
-7.25
 21
48.6497865097
  0
LINE
  5
2D1
100
AcDbEntity
  8
ASSI
100
AcDbLine
 62
7
  6
CONTINUOUS
 10
-7.25
 20
93.8502134903
 11
-7.25
 21
95.0943375673
  0
LINE
  5
2D2
100
AcDbEntity
  8
ASSI
100
AcDbLine
 62
7
  6
CONTINUOUS
 10
-7.2040044543
 20
91.2582381709
 11
-7.2040044543
 21
92.15
  0
LINE
  5
2D3
100
AcDbEntity
  8
ASSI
100
AcDbLine
 62
253
  6
CONTINUOUS
 10
-6.8872801014
 20
81.45
 11
-6.8872801014
 21
82.0601132618
  0
LINE
  5
2D4
100
AcDbEntity
  8
0
100
AcDbLine
 62
7
  6
CONTINUOUS
 10
-6.7999999997
 20
-59.7010287398
 11
-6.7999999997
 21
-54.75
  0
LINE
  5
2D5
100
AcDbEntity
  8
0
100
AcDbLine
 62
7
  6
CONTINUOUS
 10
-6.7999999997
 20
-53.25
 11
-6.7999999997
 21
-51.75
  0
LINE
  5
2D6
100
AcDbEntity
  8
0
100
AcDbLine
 62
7
  6
CONTINUOUS
 10
-6.75
 20
56.7013768442
 11
-6.75
 21
55.25
  0
LINE
  5
2D7
100
AcDbEntity
  8
0
100
AcDbLine
 62
7
  6
CONTINUOUS
 10
-6.75
 20
49.25
 11
-6.75
 21
53.75
  0
LINE
  5
2D8
100
AcDbEntity
  8
ASSI
100
AcDbLine
 62
7
  6
CONTINUOUS
 10
-6.5872915245
 20
81.45
 11
-6.5872915245
 21
82.0627084755
  0
LINE
  5
2D9
100
AcDbEntity
  8
ASSI
100
AcDbLine
 62
7
  6
CONTINUOUS
 10
-6.5811598705
 20
82.0688401295
 11
-6.5811598705
 21
81.45
  0
LINE
  5
2DA
100
AcDbEntity
  8
ASSI
100
AcDbLine
 62
7
  6
CONTINUOUS
 10
-6.5
 20
79.15
 11
-6.5
 21
79.85
  0
LINE
  5
2DB
100
AcDbEntity
  8
0
100
AcDbLine
 62
7
  6
CONTINUOUS
 10
-6.4992307237
 20
-57.75
 11
-6.4992307237
 21
-56.25
  0
LINE
  5
2DC
100
AcDbEntity
  8
0
100
AcDbLine
 62
7
  6
CONTINUOUS
 10
-6.4468984791
 20
50.75
 11
-6.4468984791
 21
52.25
  0
LINE
  5
2DD
100
AcDbEntity
  8
ASSI
100
AcDbLine
 62
253
  6
CONTINUOUS
 10
-6.2872572543
 20
80.85
 11
-6.2872572543
 21
81.15
  0
LINE
  5
2DE
100
AcDbEntity
  8
0
100
AcDbLine
 62
7
  6
CONTINUOUS
 10
-6.25
 20
53.75
 11
-6.25
 21
55.25
  0
LINE
  5
2DF
100
AcDbEntity
  8
0
100
AcDbLine
 62
7
  6
CONTINUOUS
 10
-6.05
 20
-79.25
 11
-6.05
 21
-90.65
  0
LINE
  5
2E0
100
AcDbEntity
  8
0
100
AcDbLine
 62
7
  6
CONTINUOUS
 10
-6.0
 20
79.15
 11
-6.0
 21
78.8
  0
LINE
  5
2E1
100
AcDbEntity
  8
0
100
AcDbLine
 62
7
  6
CONTINUOUS
 10
-5.75
 20
-53.25
 11
-5.75
 21
-54.75
  0
LINE
  5
2E2
100
AcDbEntity
  8
ASSI
100
AcDbLine
 62
253
  6
CONTINUOUS
 10
-10.15
 20
94.6604851482
 11
-10.145628166
 21
95.0943375673
  0
LINE
  5
2E3
100
AcDbEntity
  8
ASSI
100
AcDbLine
 62
253
  6
CONTINUOUS
 10
-9.9007229979
 20
94.3726497308
 11
-9.8956323968
 21
94.8778312164
  0
LINE
  5
2E4
100
AcDbEntity
  8
ASSI
100
AcDbLine
 62
253
  6
CONTINUOUS
 10
-7.4992770021
 20
48.1273502692
 11
-7.5043676032
 21
47.6221687836
  0
LINE
  5
2E5
100
AcDbEntity
  8
ASSI
100
AcDbLine
 62
253
  6
CONTINUOUS
 10
-7.25
 20
47.8395148518
 11
-7.254371834
 21
47.4056624327
  0
LINE
  5
2E6
100
AcDbEntity
  8
ASSI
100
AcDbLine
 62
7
  6
CONTINUOUS
 10
-11.1417094756
 20
50.2273502692
 11
-11.1504363434
 21
49.65
  0
LINE
  5
2E7
100
AcDbEntity
  8
ASSI
100
AcDbLine
 62
253
  6
CONTINUOUS
 10
-4.5006392186
 20
84.9784206282
 11
-4.5719975647
 21
82.0780024353
  0
LWPOLYLINE
  5
2E8
100
AcDbEntity
  8
ASSI
100
AcDbPolyline
 62
253
  6
CONTINUOUS
 90
34
 70
0
 10
-10.145628166
 20
47.4056624327
 10
-10.145311504
 20
47.4159453938
 10
-10.1444313098
 20
47.426205146
 10
-10.1429895699
 20
47.4364185327
 10
-10.1409895398
 20
47.4465624965
 10
-10.1384357329
 20
47.4566141479
 10
-10.1353339075
 20
47.4665508166
 10
-10.1316910568
 20
47.476350087
 10
-10.1275154039
 20
47.4859898283
 10
-10.1228163816
 20
47.4954482613
 10
-10.1176046015
 20
47.5047040305
 10
-10.1118918239
 20
47.5137362537
 10
-10.1056909407
 20
47.5225245488
 10
-10.0990159471
 20
47.5310490814
 10
-10.0918819095
 20
47.5392906102
 10
-10.08430493
 20
47.5472305341
 10
-10.0763021104
 20
47.5548509322
 10
-10.0678915133
 20
47.5621346054
 10
-10.0590921207
 20
47.569065115
 10
-10.0499237948
 20
47.5756268176
 10
-10.0404072274
 20
47.5818049044
 10
-10.0305638912
 20
47.5875854347
 10
-10.0204159898
 20
47.5929553672
 10
-10.0099864389
 20
47.5979025735
 10
-9.9992988113
 20
47.6024158735
 10
-9.9883772514
 20
47.6064850765
 10
-9.9772463916
 20
47.6101010104
 10
-9.9659313281
 20
47.6132555242
 10
-9.954457306
 20
47.6159415605
 10
-9.9428505087
 20
47.6181529705
 10
-9.9311379997
 20
47.619884653
 10
-9.9193465228
 20
47.6211327817
 10
-9.907502412
 20
47.6218946957
 10
-9.8956323968
 20
47.6221687836
  0
LWPOLYLINE
  5
2E9
100
AcDbEntity
  8
ASSI
100
AcDbPolyline
 62
253
  6
CONTINUOUS
 90
34
 70
0
 10
-7.254371834
 20
95.0943375673
 10
-7.2546884847
 20
95.0840547998
 10
-7.2555686465
 20
95.0737952398
 10
-7.2570103328
 20
95.0635820427
 10
-7.2590102898
 20
95.053438259
 10
-7.2615640038
 20
95.0433867826
 10
-7.2646657112
 20
95.0334502991
 10
-7.2683084116
 20
95.0236512346
 10
-7.2724838837
 20
95.014011705
 10
-7.2771827036
 20
95.0045534661
 10
-7.2823942664
 20
94.9952978646
 10
-7.2881068099
 20
94.9862657898
 10
-7.2943074413
 20
94.9774776267
 10
-7.3009821661
 20
94.9689532096
 10
-7.3081159197
 20
94.9607117775
 10
-7.3156926018
 20
94.952771931
 10
-7.3236951123
 20
94.9451515897
 10
-7.3321053899
 20
94.9378679524
 10
-7.3409044531
 20
94.9309374578
 10
-7.350072443
 20
94.9243757476
 10
-7.359588668
 20
94.9181976311
 10
-7.3694316505
 20
94.9124170521
 10
-7.3795791754
 20
94.9070470569
 10
-7.3900083405
 20
94.9020997654
 10
-7.4006956077
 20
94.8975863432
 10
-7.4116168564
 20
94.8935169769
 10
-7.4227474381
 20
94.8899008509
 10
-7.4340622317
 20
94.8867461264
 10
-7.4455357003
 20
94.8840599235
 10
-7.4571419491
 20
94.8818483049
 10
-7.4688547834
 20
94.880116262
 10
-7.480647768
 20
94.8788677039
 10
-7.4924942869
 20
94.8781054486
 10
-7.5043676032
 20
94.8778312164
  0
LWPOLYLINE
  5
2EA
100
AcDbEntity
  8
0
100
AcDbPolyline
 62
253
  6
CONTINUOUS
 90
25
 70
0
 10
-8.1500247814
 20
75.426285695
 10
-8.1436071992
 20
75.6221970645
 10
-8.1243700591
 20
75.8172705148
 10
-8.0923957003
 20
76.0106707541
 10
-8.0478209915
 20
76.2015691996
 10
-7.9908367799
 20
76.3891488345
 10
-7.9216871132
 20
76.5726076556
 10
-7.8406681255
 20
76.7511601037
 10
-7.7481267484
 20
76.924041383
 10
-7.6444593012
 20
77.0905119846
 10
-7.5301097494
 20
77.2498591523
 10
-7.4055677839
 20
77.4014002395
 10
-7.271366751
 20
77.5444865099
 10
-7.1280813787
 20
77.6785053746
 10
-6.9763252889
 20
77.8028826691
 10
-6.8167483542
 20
77.9170853811
 10
-6.6500339713
 20
78.0206245813
 10
-6.4768961013
 20
78.113056712
 10
-6.298076164
 20
78.1939851185
 10
-6.1143399512
 20
78.2630632666
 10
-5.9264743177
 20
78.3199952615
 10
-5.7352837411
 20
78.3645362771
 10
-5.5415869602
 20
78.3964951752
 10
-5.3462134877
 20
78.415735345
 10
-5.15
 20
78.4221742988
  0
LWPOLYLINE
  5
2EB
100
AcDbEntity
  8
0
100
AcDbPolyline
 62
253
  6
CONTINUOUS
 90
39
 70
0
 10
-8.149999801
 20
78.3000001732
 10
-8.1485664082
 20
78.3303705721
 10
-8.1444791371
 20
78.3603938557
 10
-8.1380601464
 20
78.3897885319
 10
-8.1296468904
 20
78.4182741036
 10
-8.1195439181
 20
78.4456990795
 10
-8.1079817327
 20
78.4720422397
 10
-8.0952190677
 20
78.4971724037
 10
-8.0814998925
 20
78.5210155812
 10
-8.0669546213
 20
78.5436743329
 10
-8.051760703
 20
78.5651370065
 10
-8.0361118986
 20
78.5853303107
 10
-8.0201040622
 20
78.6042842992
 10
-8.0038504466
 20
78.6219899713
 10
-7.9875021627
 20
78.6384709101
 10
-7.9711868793
 20
78.6538113589
 10
-7.9550841167
 20
78.6680677651
 10
-7.9392397632
 20
78.6812223689
 10
-7.9235364966
 20
78.6932671075
 10
-7.9078925575
 20
78.7041517249
 10
-7.8924585722
 20
78.7140555607
 10
-7.8774720836
 20
78.7232803764
 10
-7.8632570061
 20
78.7319187166
 10
-7.8496688903
 20
78.7398856017
 10
-7.8362305164
 20
78.7471821473
 10
-7.8227602241
 20
78.7538307363
 10
-7.8094437688
 20
78.759875243
 10
-7.7962992327
 20
78.7653580182
 10
-7.7834820277
 20
78.7702438348
 10
-7.7708477723
 20
78.7746328584
 10
-7.7579686741
 20
78.7787226271
 10
-7.7443986861
 20
78.7825930818
 10
-7.7305942142
 20
78.786106224
 10
-7.7175154514
 20
78.7891369431
 10
-7.7061416487
 20
78.7916092665
 10
-7.6955662661
 20
78.7937007827
 10
-7.6839298308
 20
78.7956053561
 10
-7.6706174725
 20
78.7972753703
 10
-7.6562755236
 20
78.7985470755
  0
LWPOLYLINE
  5
2EC
100
AcDbEntity
  8
ASSI
100
AcDbPolyline
 62
7
  6
CONTINUOUS
 90
31
 70
0
 10
-6.4340567777
 20
88.1504479216
 10
-6.4365936624
 20
88.0989059314
 10
-6.4443835921
 20
88.0486505639
 10
-6.4574265668
 20
87.9996820616
 10
-6.4761237526
 20
87.9511969173
 10
-6.5000739834
 20
87.9039990124
 10
-6.5280737612
 20
87.8605000473
 10
-6.5602668059
 20
87.8211947246
 10
-6.5965093977
 20
87.7855894506
 10
-6.635166879
 20
87.7546139027
 10
-6.6760266064
 20
87.7285171563
 10
-6.7193012234
 20
87.7070510474
 10
-6.7639940025
 20
87.6903994064
 10
-6.8102597277
 20
87.6785507102
 10
-6.8579436151
 20
87.6715169404
 10
-6.905584585
 20
87.6695170855
 10
-6.953191841
 20
87.6727054345
 10
-7.0007561794
 20
87.6809276781
 10
-7.0467889104
 20
87.6939397922
 10
-7.0911906572
 20
87.7118212194
 10
-7.1340607964
 20
87.7344920189
 10
-7.1742087686
 20
87.7614690187
 10
-7.2116933316
 20
87.7929967591
 10
-7.2464557274
 20
87.8288298287
 10
-7.2771291228
 20
87.8677502124
 10
-7.3035032247
 20
87.9098406441
 10
-7.3257883262
 20
87.9550175122
 10
-7.3432484722
 20
88.0018136021
 10
-7.3556383443
 20
88.0497397576
 10
-7.3632032611
 20
88.0992846294
 10
-7.3659432223
 20
88.1504479216
  0
LWPOLYLINE
  5
2ED
100
AcDbEntity
  8
ASSI
100
AcDbPolyline
 62
7
  6
CONTINUOUS
 90
31
 70
0
 10
-5.4993607814
 20
84.9784206282
 10
-5.4965981506
 20
85.0334590687
 10
-5.4882993237
 20
85.0871249588
 10
-5.4744643007
 20
85.1394184485
 10
-5.4546768645
 20
85.1911809996
 10
-5.4293532322
 20
85.2415713799
 10
-5.3997420548
 20
85.2880659953
 10
-5.3656841603
 20
85.3301571423
 10
-5.3273387207
 20
85.3683533652
 10
-5.2864319027
 20
85.4016557868
 10
-5.2432035047
 20
85.4297925303
 10
-5.1974137283
 20
85.4530362125
 10
-5.150069345
 20
85.4712047165
 10
-5.1009862859
 20
85.4843207604
 10
-5.05034862
 20
85.4923620163
 10
-4.9997153255
 20
85.4950787198
 10
-4.9490867793
 20
85.4923028487
 10
-4.8984626046
 20
85.4842024244
 10
-4.8494006495
 20
85.4710316524
 10
-4.8020817434
 20
85.4528081834
 10
-4.756325057
 20
85.4295139753
 10
-4.7131459507
 20
85.4013496175
 10
-4.6723159558
 20
85.3680500867
 10
-4.634063541
 20
85.3298796697
 10
-4.6000894726
 20
85.2878329427
 10
-4.5705478076
 20
85.2414153292
 10
-4.545284489
 20
85.1911205709
 10
-4.5255381113
 20
85.1394260601
 10
-4.5117215395
 20
85.0871576238
 10
-4.5034219086
 20
85.0334891977
 10
-4.5006392186
 20
84.9784206282
  0
LINE
  5
2EE
100
AcDbEntity
  8
ASSI
100
AcDbLine
 62
253
  6
CONTINUOUS
 10
-7.3659432223
 20
88.1504479216
 11
-7.2040044543
 21
91.2582381709
  0
LINE
  5
2EF
100
AcDbEntity
  8
0
100
AcDbLine
 62
253
  6
CONTINUOUS
 10
-5.15
 20
61.7230372496
 11
-5.1525466008
 21
61.6759399495
  0
LINE
  5
2F0
100
AcDbEntity
  8
0
100
AcDbLine
 62
7
  6
CONTINUOUS
 10
6.75
 20
56.7013768442
 11
8.1388834202
 21
61.6603088621
  0
LINE
  5
2F1
100
AcDbEntity
  8
0
100
AcDbLine
 62
253
  6
CONTINUOUS
 10
8.1388156058
 20
61.6601836396
 11
6.7455026947
 21
56.7
  0
LWPOLYLINE
  5
2F2
100
AcDbEntity
  8
ASSI
100
AcDbPolyline
 62
253
  6
CONTINUOUS
 90
8
 70
0
 10
-8.2627084755
 20
77.3372877168
 10
-8.2611881333
 20
77.3199243933
 10
-8.2566759416
 20
77.3030885947
 10
-8.2493089877
 20
77.2872918186
 10
-8.2393110913
 20
77.2730139957
 10
-8.226986004
 20
77.2606889084
 10
-8.2127081811
 20
77.2506910121
 10
-8.2
 20
77.2447644495
  0
LWPOLYLINE
  5
2F3
100
AcDbEntity
  8
ASSI
100
AcDbPolyline
 62
7
  6
CONTINUOUS
 90
28
 70
0
 10
-7.2040044543
 20
91.2582381709
 10
-7.2020616033
 20
91.2225478485
 10
-7.1961204183
 20
91.1878840147
 10
-7.1861808995
 20
91.1542466696
 10
-7.1718933841
 20
91.1209940563
 10
-7.1536075348
 20
91.0887679316
 10
-7.1323723397
 20
91.0594935661
 10
-7.1081600682
 20
91.0336104902
 10
-7.0809984509
 20
91.0106791734
 10
-7.0520196683
 20
90.9913062952
 10
-7.0212096337
 20
90.9755931586
 10
-6.9885824338
 20
90.9634384605
 10
-6.9553125094
 20
90.9551449717
 10
-6.9213942982
 20
90.9508098908
 10
-6.8868333625
 20
90.9503360192
 10
-6.8528208304
 20
90.9537345305
 10
-6.819364348
 20
90.9610994363
 10
-6.7864562691
 20
90.972336725
 10
-6.7552647835
 20
90.9871755362
 10
-6.7257985631
 20
91.0057136063
 10
-6.6980489359
 20
91.0278531989
 10
-6.6731580757
 20
91.053030245
 10
-6.6511373453
 20
91.0816771255
 10
-6.631975382
 20
91.1133614594
 10
-6.6167802714
 20
91.146222035
 10
-6.6059213756
 20
91.1796384484
 10
-6.5990293326
 20
91.2142311033
 10
-6.5961041423
 20
91.25
  0
LINE
  5
2F4
100
AcDbEntity
  8
ASSI
100
AcDbLine
 62
253
  6
CONTINUOUS
 10
-6.4340567777
 20
88.1504479216
 11
-6.5955662763
 21
91.25
  0
LWPOLYLINE
  5
2F5
100
AcDbEntity
  8
ASSI
100
AcDbPolyline
 62
253
  6
CONTINUOUS
 90
19
 70
0
 10
-6.8872801014
 20
81.45
 10
-6.88483666
 20
81.3969385597
 10
-6.8779936515
 20
81.3450733058
 10
-6.8667510757
 20
81.2944042384
 10
-6.850931918
 20
81.2445465723
 10
-6.8307131931
 20
81.1958850926
 10
-6.8066259453
 20
81.1495741549
 10
-6.7786171404
 20
81.1057198637
 10
-6.7467398126
 20
81.0642161144
 10
-6.7116841094
 20
81.0258989486
 10
-6.6734085038
 20
80.9908224829
 10
-6.6319545228
 20
80.9589326007
 10
-6.588136894
 20
80.9309029945
 10
-6.5418555905
 20
80.9067781741
 10
-6.4932106392
 20
80.8865136296
 10
-6.4433168491
 20
80.8706495237
 10
-6.3925458231
 20
80.8593659105
 10
-6.3405259582
 20
80.852482736
 10
-6.2872572544
 20
80.85
  0
LINE
  5
2F6
100
AcDbEntity
  8
ASSI
100
AcDbLine
 62
253
  6
CONTINUOUS
 10
-5.4993607814
 20
84.9784206282
 11
-5.4280024353
 21
82.0780024353
  0
LWPOLYLINE
  5
2F7
100
AcDbEntity
  8
ASSI
100
AcDbPolyline
 62
7
  6
CONTINUOUS
 90
34
 70
0
 10
-7.254371834
 20
95.4956323968
 10
-7.2546553848
 20
95.5075274183
 10
-7.2555045897
 20
95.519395495
 10
-7.2569175251
 20
95.5312097429
 10
-7.2588909904
 20
95.5429434001
 10
-7.2614205152
 20
95.5545698874
 10
-7.2645003696
 20
95.566062868
 10
-7.268123577
 20
95.5773963078
 10
-7.27228193
 20
95.588544534
 10
-7.2769660091
 20
95.5994822935
 10
-7.2821652038
 20
95.6101848096
 10
-7.2878677366
 20
95.6206278389
 10
-7.2940606902
 20
95.6307877255
 10
-7.300730036
 20
95.640641455
 10
-7.3078606666
 20
95.6501667064
 10
-7.3154364293
 20
95.6593419031
 10
-7.3234401635
 20
95.6681462611
 10
-7.3318537389
 20
95.6765598365
 10
-7.3406580969
 20
95.6845635707
 10
-7.3498332936
 20
95.6921393334
 10
-7.359358545
 20
95.699269964
 10
-7.3692122745
 20
95.7059393098
 10
-7.3793721611
 20
95.7121322634
 10
-7.3898151904
 20
95.7178347962
 10
-7.4005177065
 20
95.7230339909
 10
-7.411455466
 20
95.72771807
 10
-7.4226036922
 20
95.731876423
 10
-7.433937132
 20
95.7354996304
 10
-7.4454301126
 20
95.7385794848
 10
-7.4570565999
 20
95.7411090096
 10
-7.4687902571
 20
95.7430824749
 10
-7.480604505
 20
95.7444954103
 10
-7.4924725817
 20
95.7453446152
 10
-7.5043676032
 20
95.745628166
  0
LWPOLYLINE
  5
2F8
100
AcDbEntity
  8
ASSI
100
AcDbPolyline
 62
7
  6
CONTINUOUS
 90
5
 70
0
 10
-7.25
 20
95.5000042308
 10
-7.2502831502
 20
95.511899516
 10
-7.2511319658
 20
95.5237678556
 10
-7.2525445259
 20
95.5355823661
 10
-7.2545176323
 20
95.5473162875
  0
LINE
  5
2F9
100
AcDbEntity
  8
0
100
AcDbLine
 62
7
  6
CONTINUOUS
 10
-5.5509008278
 20
55.25
 11
-5.5509008278
 21
53.75
  0
LINE
  5
2FA
100
AcDbEntity
  8
ASSI
100
AcDbLine
 62
7
  6
CONTINUOUS
 10
-5.5
 20
83.7632676422
 11
-5.5
 21
82.15
  0
LINE
  5
2FB
100
AcDbEntity
  8
0
100
AcDbLine
 62
7
  6
CONTINUOUS
 10
-5.3909646632
 20
52.25
 11
-5.3909646632
 21
50.75
  0
LINE
  5
2FC
100
AcDbEntity
  8
0
100
AcDbLine
 62
253
  6
CONTINUOUS
 10
-5.15
 20
61.7230372496
 11
-5.15
 21
78.4221743
  0
LINE
  5
2FD
100
AcDbEntity
  8
ASSI
100
AcDbLine
 62
7
  6
CONTINUOUS
 10
-4.5
 20
83.7632676422
 11
-4.5
 21
82.15
  0
LINE
  5
2FE
100
AcDbEntity
  8
ASSI
100
AcDbLine
 62
7
  6
CONTINUOUS
 10
-4.45
 20
95.25
 11
-4.45
 21
94.6179449472
  0
LINE
  5
2FF
100
AcDbEntity
  8
ASSI
100
AcDbLine
 62
7
  6
CONTINUOUS
 10
-4.45
 20
94.1820550528
 11
-4.45
 21
93.65
  0
LINE
  5
300
100
AcDbEntity
  8
ASSI
100
AcDbLine
 62
7
  6
CONTINUOUS
 10
-4.45
 20
48.75
 11
-4.45
 21
48.3179449472
  0
LINE
  5
301
100
AcDbEntity
  8
ASSI
100
AcDbLine
 62
7
  6
CONTINUOUS
 10
-4.45
 20
47.8820550528
 11
-4.45
 21
47.25
  0
LINE
  5
302
100
AcDbEntity
  8
ASSI
100
AcDbLine
 62
7
  6
CONTINUOUS
 10
-4.406077753
 20
47.2961077269
 11
-4.406077753
 21
48.75
  0
LINE
  5
303
100
AcDbEntity
  8
ASSI
100
AcDbLine
 62
7
  6
CONTINUOUS
 10
-4.406077753
 20
93.606077753
 11
-4.406077753
 21
95.2038922731
  0
LINE
  5
304
100
AcDbEntity
  8
0
100
AcDbLine
 62
7
  6
CONTINUOUS
 10
-3.65
 20
-51.25
 11
-3.65
 21
48.75
  0
LINE
  5
305
100
AcDbEntity
  8
ASSI
100
AcDbLine
 62
7
  6
CONTINUOUS
 10
-3.5
 20
93.6060930869
 11
-3.5
 21
95.2041479441
  0
LINE
  5
306
100
AcDbEntity
  8
ASSI
100
AcDbLine
 62
7
  6
CONTINUOUS
 10
-3.5
 20
95.2063493531
 11
-3.5
 21
95.2441821702
  0
LINE
  5
307
100
AcDbEntity
  8
0
100
AcDbLine
 62
7
  6
CONTINUOUS
 10
-3.4369317712
 20
-53.25
 11
-3.4369317712
 21
-54.75
  0
LINE
  5
308
100
AcDbEntity
  8
0
100
AcDbLine
 62
7
  6
CONTINUOUS
 10
-3.1721443851
 20
-56.25
 11
-3.1721443851
 21
-57.75
  0
LINE
  5
309
100
AcDbEntity
  8
ASSI
100
AcDbLine
 62
7
  6
CONTINUOUS
 10
-3.0
 20
92.05
 11
-3.0
 21
93.6441821702
  0
LINE
  5
30A
100
AcDbEntity
  8
0
100
AcDbLine
 62
7
  6
CONTINUOUS
 10
-2.0
 20
55.25
 11
-2.0
 21
53.75
  0
LINE
  5
30B
100
AcDbEntity
  8
0
100
AcDbLine
 62
7
  6
CONTINUOUS
 10
-2.0
 20
-53.25
 11
-2.0
 21
-54.75
  0
LINE
  5
30C
100
AcDbEntity
  8
0
100
AcDbLine
 62
7
  6
CONTINUOUS
 10
-1.5
 20
52.25
 11
-1.5
 21
50.75
  0
LINE
  5
30D
100
AcDbEntity
  8
0
100
AcDbLine
 62
7
  6
CONTINUOUS
 10
-1.5
 20
-57.75
 11
-1.5
 21
-56.25
  0
LINE
  5
30E
100
AcDbEntity
  8
ASSI
100
AcDbLine
 62
253
  6
CONTINUOUS
 10
-1.2
 20
95.2441821702
 11
-1.2
 21
95.25
  0
LINE
  5
30F
100
AcDbEntity
  8
ASSI
100
AcDbLine
 62
7
  6
CONTINUOUS
 10
-1.0
 20
95.0441787855
 11
-1.0
 21
93.6447639644
  0
LINE
  5
310
100
AcDbEntity
  8
0
100
AcDbLine
 62
7
  6
CONTINUOUS
 10
0.0
 20
-59.5905282716
 11
-0.0000000004
 21
-60.2057112166
  0
LINE
  5
311
100
AcDbEntity
  8
0
100
AcDbLine
 62
253
  6
CONTINUOUS
 10
-5.1276793216
 20
61.7224165459
 11
-5.1276844898
 21
61.6778272953
  0
LWPOLYLINE
  5
312
100
AcDbEntity
  8
ASSI
100
AcDbPolyline
 62
7
  6
CONTINUOUS
 90
31
 70
0
 10
4.5006392186
 20
84.9784206282
 10
4.5033999426
 20
85.0334560135
 10
4.5116986279
 20
85.0871214567
 10
4.5255352745
 20
85.1394171076
 10
4.5453269418
 20
85.1911862521
 10
4.5706565704
 20
85.241585833
 10
4.6002729822
 20
85.288086783
 10
4.634334865
 20
85.3301789286
 10
4.672683531
 20
85.3683732849
 10
4.7135917377
 20
85.4016729125
 10
4.7568191581
 20
85.4298060162
 10
4.8026061192
 20
85.4530451313
 10
4.8499463592
 20
85.4712098342
 10
4.8990236197
 20
85.4843231993
 10
4.9496541591
 20
85.4923625423
 10
5.000280491
 20
85.4950787223
 10
5.0509023478
 20
85.4923041544
 10
5.101519997
 20
85.4842064227
 10
5.1505767552
 20
85.4710390442
 10
5.1978918639
 20
85.4528201947
 10
5.2436460815
 20
85.4295313071
 10
5.286825
 20
85.4013707075
 10
5.3276580312
 20
85.3680731705
 10
5.3659157633
 20
85.3299031847
 10
5.3998955526
 20
85.2878536688
 10
5.4294436077
 20
85.2414270141
 10
5.4547137201
 20
85.1911199936
 10
5.4744646206
 20
85.1394174387
 10
5.4882825528
 20
85.0871476567
 10
5.496581273
 20
85.0334821042
 10
5.4993607814
 20
84.9784206282
  0
LWPOLYLINE
  5
313
100
AcDbEntity
  8
ASSI
100
AcDbPolyline
 62
7
  6
CONTINUOUS
 90
9
 70
0
 10
-10.1454823677
 20
46.9526837125
 10
-10.1429531817
 20
46.9410569612
 10
-10.1398736417
 20
46.929563721
 10
-10.1362507213
 20
46.9182300262
 10
-10.1320926258
 20
46.9070815507
 10
-10.1274087722
 20
46.8961435537
 10
-10.1222097688
 20
46.8854408124
 10
-10.1165073916
 20
46.8749975717
 10
-10.1103145581
 20
46.8648374941
  0
LWPOLYLINE
  5
314
100
AcDbEntity
  8
0
100
AcDbPolyline
 62
7
  6
CONTINUOUS
 90
9
 70
0
 10
6.9054457693
 20
-60.3233408192
 10
6.8937787966
 20
-60.2467871102
 10
6.8816811658
 20
-60.1698781387
 10
6.8691516212
 20
-60.0926131467
 10
6.8561893184
 20
-60.0149939444
 10
6.8427939025
 20
-59.9370249181
 10
6.8289646366
 20
-59.8587079343
 10
6.814700326
 20
-59.7800423307
 10
6.8
 20
-59.7010287398
  0
LINE
  5
315
100
AcDbEntity
  8
0
100
AcDbLine
 62
7
  6
CONTINUOUS
 10
8.2
 20
-69.25
 11
6.9054457693
 21
-60.3233408192
  0
LINE
  5
316
100
AcDbEntity
  8
ASSI
100
AcDbLine
 62
253
  6
CONTINUOUS
 10
4.5006392186
 20
84.9784206282
 11
4.5719975647
 21
82.0780024353
  0
LINE
  5
317
100
AcDbEntity
  8
ASSI
100
AcDbLine
 62
7
  6
CONTINUOUS
 10
1.0
 20
95.0441787855
 11
1.0
 21
93.6447639644
  0
LINE
  5
318
100
AcDbEntity
  8
ASSI
100
AcDbLine
 62
253
  6
CONTINUOUS
 10
1.2
 20
95.25
 11
1.2
 21
95.2441821702
  0
LINE
  5
319
100
AcDbEntity
  8
0
100
AcDbLine
 62
7
  6
CONTINUOUS
 10
1.5
 20
-57.75
 11
1.5
 21
-56.25
  0
LINE
  5
31A
100
AcDbEntity
  8
0
100
AcDbLine
 62
7
  6
CONTINUOUS
 10
1.5
 20
50.75
 11
1.5
 21
52.25
  0
LINE
  5
31B
100
AcDbEntity
  8
0
100
AcDbLine
 62
7
  6
CONTINUOUS
 10
2.0
 20
-54.75
 11
2.0
 21
-53.25
  0
LINE
  5
31C
100
AcDbEntity
  8
0
100
AcDbLine
 62
7
  6
CONTINUOUS
 10
2.0
 20
53.75
 11
2.0
 21
55.25
  0
LINE
  5
31D
100
AcDbEntity
  8
ASSI
100
AcDbLine
 62
7
  6
CONTINUOUS
 10
3.0
 20
92.05
 11
3.0
 21
93.6441821702
  0
LINE
  5
31E
100
AcDbEntity
  8
0
100
AcDbLine
 62
7
  6
CONTINUOUS
 10
3.1721443851
 20
-57.75
 11
3.1721443851
 21
-56.25
  0
LINE
  5
31F
100
AcDbEntity
  8
0
100
AcDbLine
 62
7
  6
CONTINUOUS
 10
3.4369317712
 20
-54.75
 11
3.4369317712
 21
-53.25
  0
LINE
  5
320
100
AcDbEntity
  8
ASSI
100
AcDbLine
 62
7
  6
CONTINUOUS
 10
3.5
 20
93.6060930869
 11
3.5
 21
95.2041479441
  0
LINE
  5
321
100
AcDbEntity
  8
ASSI
100
AcDbLine
 62
7
  6
CONTINUOUS
 10
3.5
 20
95.2063493531
 11
3.5
 21
95.2441821702
  0
LINE
  5
322
100
AcDbEntity
  8
0
100
AcDbLine
 62
7
  6
CONTINUOUS
 10
3.65
 20
-51.25
 11
3.65
 21
48.75
  0
LINE
  5
323
100
AcDbEntity
  8
ASSI
100
AcDbLine
 62
7
  6
CONTINUOUS
 10
4.406077753
 20
47.2961077269
 11
4.406077753
 21
48.75
  0
LINE
  5
324
100
AcDbEntity
  8
ASSI
100
AcDbLine
 62
7
  6
CONTINUOUS
 10
4.406077753
 20
93.606077753
 11
4.406077753
 21
95.2038922731
  0
LINE
  5
325
100
AcDbEntity
  8
ASSI
100
AcDbLine
 62
7
  6
CONTINUOUS
 10
4.45
 20
47.25
 11
4.45
 21
47.8820550528
  0
LINE
  5
326
100
AcDbEntity
  8
ASSI
100
AcDbLine
 62
7
  6
CONTINUOUS
 10
4.45
 20
48.3179449472
 11
4.45
 21
48.75
  0
LINE
  5
327
100
AcDbEntity
  8
ASSI
100
AcDbLine
 62
7
  6
CONTINUOUS
 10
4.45
 20
93.65
 11
4.45
 21
94.1820550528
  0
LINE
  5
328
100
AcDbEntity
  8
ASSI
100
AcDbLine
 62
7
  6
CONTINUOUS
 10
4.45
 20
94.6179449472
 11
4.45
 21
95.25
  0
LINE
  5
329
100
AcDbEntity
  8
ASSI
100
AcDbLine
 62
7
  6
CONTINUOUS
 10
4.5
 20
82.15
 11
4.5
 21
83.7632676422
  0
LINE
  5
32A
100
AcDbEntity
  8
0
100
AcDbLine
 62
253
  6
CONTINUOUS
 10
5.1276793802
 20
61.7224165459
 11
5.127684519
 21
61.6778273241
  0
LINE
  5
32B
100
AcDbEntity
  8
0
100
AcDbLine
 62
253
  6
CONTINUOUS
 10
5.15
 20
78.4221743
 11
5.15
 21
61.7230436001
  0
LINE
  5
32C
100
AcDbEntity
  8
0
100
AcDbLine
 62
7
  6
CONTINUOUS
 10
5.3909646632
 20
52.25
 11
5.3909646632
 21
50.75
  0
LINE
  5
32D
100
AcDbEntity
  8
ASSI
100
AcDbLine
 62
7
  6
CONTINUOUS
 10
5.5
 20
82.15
 11
5.5
 21
83.7632676422
  0
LINE
  5
32E
100
AcDbEntity
  8
0
100
AcDbLine
 62
7
  6
CONTINUOUS
 10
5.5509008278
 20
55.25
 11
5.5509008278
 21
53.75
  0
LINE
  5
32F
100
AcDbEntity
  8
0
100
AcDbLine
 62
7
  6
CONTINUOUS
 10
5.75
 20
-54.75
 11
5.75
 21
-53.25
  0
LINE
  5
330
100
AcDbEntity
  8
0
100
AcDbLine
 62
7
  6
CONTINUOUS
 10
6.0
 20
79.15
 11
6.0
 21
78.8
  0
LINE
  5
331
100
AcDbEntity
  8
0
100
AcDbLine
 62
7
  6
CONTINUOUS
 10
6.05
 20
-79.25
 11
6.05
 21
-90.65
  0
LINE
  5
332
100
AcDbEntity
  8
0
100
AcDbLine
 62
7
  6
CONTINUOUS
 10
6.25
 20
53.75
 11
6.25
 21
55.25
  0
LINE
  5
333
100
AcDbEntity
  8
ASSI
100
AcDbLine
 62
253
  6
CONTINUOUS
 10
6.2872572556
 20
80.85
 11
6.2872572551
 21
81.15
  0
LINE
  5
334
100
AcDbEntity
  8
0
100
AcDbLine
 62
7
  6
CONTINUOUS
 10
6.4468984791
 20
50.75
 11
6.4468984791
 21
52.25
  0
LINE
  5
335
100
AcDbEntity
  8
0
100
AcDbLine
 62
7
  6
CONTINUOUS
 10
6.4992307237
 20
-56.25
 11
6.4992307237
 21
-57.75
  0
LINE
  5
336
100
AcDbEntity
  8
ASSI
100
AcDbLine
 62
7
  6
CONTINUOUS
 10
6.5
 20
79.15
 11
6.5
 21
79.85
  0
LINE
  5
337
100
AcDbEntity
  8
ASSI
100
AcDbLine
 62
7
  6
CONTINUOUS
 10
6.5811598705
 20
81.45
 11
6.5811598705
 21
82.0688401295
  0
LINE
  5
338
100
AcDbEntity
  8
ASSI
100
AcDbLine
 62
7
  6
CONTINUOUS
 10
6.5872915245
 20
82.0627084755
 11
6.5872915245
 21
81.45
  0
LINE
  5
339
100
AcDbEntity
  8
0
100
AcDbLine
 62
7
  6
CONTINUOUS
 10
6.75
 20
56.7013768442
 11
6.75
 21
55.25
  0
LINE
  5
33A
100
AcDbEntity
  8
0
100
AcDbLine
 62
7
  6
CONTINUOUS
 10
6.75
 20
49.25
 11
6.75
 21
53.75
  0
LINE
  5
33B
100
AcDbEntity
  8
0
100
AcDbLine
 62
7
  6
CONTINUOUS
 10
6.7999999997
 20
-51.75
 11
6.7999999997
 21
-53.25
  0
LINE
  5
33C
100
AcDbEntity
  8
0
100
AcDbLine
 62
7
  6
CONTINUOUS
 10
6.7999999997
 20
-54.75
 11
6.7999999997
 21
-59.7010287398
  0
LINE
  5
33D
100
AcDbEntity
  8
ASSI
100
AcDbLine
 62
253
  6
CONTINUOUS
 10
6.8872801014
 20
82.0601132618
 11
6.8872801014
 21
81.45
  0
LINE
  5
33E
100
AcDbEntity
  8
ASSI
100
AcDbLine
 62
7
  6
CONTINUOUS
 10
7.2040044543
 20
92.15
 11
7.2040044543
 21
91.2582381709
  0
LINE
  5
33F
100
AcDbEntity
  8
ASSI
100
AcDbLine
 62
7
  6
CONTINUOUS
 10
7.25
 20
47.4056624327
 11
7.25
 21
48.6497865097
  0
LINE
  5
340
100
AcDbEntity
  8
ASSI
100
AcDbLine
 62
7
  6
CONTINUOUS
 10
7.25
 20
93.8502134903
 11
7.25
 21
95.0943375673
  0
LINE
  5
341
100
AcDbEntity
  8
ASSI
100
AcDbLine
 62
7
  6
CONTINUOUS
 10
7.254371834
 20
95.4956323968
 11
7.254371834
 21
95.0943375673
  0
LINE
  5
342
100
AcDbEntity
  8
ASSI
100
AcDbLine
 62
7
  6
CONTINUOUS
 10
7.254371834
 20
47.4056624327
 11
7.254371834
 21
47.0043676032
  0
LINE
  5
343
100
AcDbEntity
  8
ASSI
100
AcDbLine
 62
253
  6
CONTINUOUS
 10
7.25
 20
94.6604851482
 11
7.254371834
 21
95.0943375673
  0
LINE
  5
344
100
AcDbEntity
  8
ASSI
100
AcDbLine
 62
253
  6
CONTINUOUS
 10
7.4992770021
 20
94.3726497308
 11
7.5043676032
 21
94.8778312164
  0
LWPOLYLINE
  5
345
100
AcDbEntity
  8
0
100
AcDbPolyline
 62
253
  6
CONTINUOUS
 90
10
 70
0
 10
8.15
 20
61.7421043328
 10
8.1498502503
 20
61.7326358359
 10
8.1494011506
 20
61.7231767918
 10
8.1486531493
 20
61.713736644
 10
8.1476069933
 20
61.7043248166
 10
8.1462637268
 20
61.6949507059
 10
8.144624691
 20
61.6856236704
 10
8.1426915222
 20
61.6763530215
 10
8.1404661504
 20
61.6671480145
 10
8.1388834202
 20
61.6603088621
  0
LINE
  5
346
100
AcDbEntity
  8
ASSI
100
AcDbLine
 62
7
  6
CONTINUOUS
 10
8.2547430141
 20
55.742225046
 11
8.2527463206
 21
55.65
  0
LINE
  5
347
100
AcDbEntity
  8
ASSI
100
AcDbLine
 62
253
  6
CONTINUOUS
 10
5.4993607814
 20
84.9784206282
 11
5.4280024353
 21
82.0780024353
  0
LWPOLYLINE
  5
348
100
AcDbEntity
  8
ASSI
100
AcDbPolyline
 62
253
  6
CONTINUOUS
 90
34
 70
0
 10
7.254371834
 20
47.4056624327
 10
7.2546879612
 20
47.4159362105
 10
7.2555668735
 20
47.4261891209
 10
7.257006965
 20
47.4363980308
 10
7.2590055309
 20
47.4465406301
 10
7.2615583468
 20
47.4565932197
 10
7.2646592669
 20
47.4665308404
 10
7.2683009749
 20
47.4763302726
 10
7.2724754803
 20
47.4859702084
 10
7.2771734609
 20
47.4954290789
 10
7.2823844175
 20
47.5046856459
 10
7.2880965586
 20
47.5137188744
 10
7.2942968909
 20
47.5225081857
 10
7.3009713669
 20
47.5310336774
 10
7.3081049647
 20
47.5392761713
 10
7.3156815988
 20
47.5472170786
 10
7.323684181
 20
47.5548384832
 10
7.3320946393
 20
47.5621231675
 10
7.3408939717
 20
47.5690546708
 10
7.3500623086
 20
47.5756173419
 10
7.3595789604
 20
47.5817963719
 10
7.3694224454
 20
47.5875778131
 10
7.3795705442
 20
47.5929486151
 10
7.3900003491
 20
47.5978966541
 10
7.4006883165
 20
47.6024107606
 10
7.4116103331
 20
47.6064807495
 10
7.4227417323
 20
47.6100974279
 10
7.4340573467
 20
47.6132526215
 10
7.4455316046
 20
47.6159392073
 10
7.4571386303
 20
47.6181511338
 10
7.468852264
 20
47.6198834185
 10
7.4806460789
 20
47.6211321524
 10
7.4924934395
 20
47.6218945144
 10
7.5043676032
 20
47.6221687836
  0
LWPOLYLINE
  5
349
100
AcDbEntity
  8
ASSI
100
AcDbPolyline
 62
253
  6
CONTINUOUS
 90
34
 70
0
 10
10.145628166
 20
95.0943375673
 10
10.1453115153
 20
95.0840547998
 10
10.1444313535
 20
95.0737952398
 10
10.1429896672
 20
95.0635820427
 10
10.1409897102
 20
95.053438259
 10
10.1384359962
 20
95.0433867826
 10
10.1353342888
 20
95.0334502991
 10
10.1316915884
 20
95.0236512346
 10
10.1275161163
 20
95.014011705
 10
10.1228172964
 20
95.0045534661
 10
10.1176057336
 20
94.9952978646
 10
10.1118931901
 20
94.9862657898
 10
10.1056925587
 20
94.9774776267
 10
10.0990178339
 20
94.9689532096
 10
10.0918840803
 20
94.9607117775
 10
10.0843073982
 20
94.952771931
 10
10.0763048877
 20
94.9451515897
 10
10.0678946101
 20
94.9378679524
 10
10.0590955469
 20
94.9309374578
 10
10.049927557
 20
94.9243757476
 10
10.040411332
 20
94.9181976311
 10
10.0305683495
 20
94.9124170521
 10
10.0204208246
 20
94.9070470569
 10
10.0099916595
 20
94.9020997654
 10
9.9993043923
 20
94.8975863432
 10
9.9883831436
 20
94.8935169769
 10
9.9772525619
 20
94.8899008509
 10
9.9659377683
 20
94.8867461264
 10
9.9544642997
 20
94.8840599235
 10
9.9428580509
 20
94.8818483049
 10
9.9311452166
 20
94.880116262
 10
9.919352232
 20
94.8788677039
 10
9.9075057131
 20
94.8781054486
 10
9.8956323968
 20
94.8778312164
  0
LINE
  5
34A
100
AcDbEntity
  8
ASSI
100
AcDbLine
 62
7
  6
CONTINUOUS
 10
9.6492427932
 20
79.2647604388
 11
9.6489550679
 21
79.2562982433
  0
LWPOLYLINE
  5
34B
100
AcDbEntity
  8
ASSI
100
AcDbPolyline
 62
7
  6
CONTINUOUS
 90
19
 70
0
 10
9.6489550679
 20
79.2562982433
 10
9.6486448245
 20
79.24881926
 10
9.6484823141
 20
79.245440104
 10
9.6483149555
 20
79.2422557779
 10
9.6481430106
 20
79.2392592511
 10
9.6479662174
 20
79.2364575542
 10
9.6477841169
 20
79.2338284828
 10
9.6475967147
 20
79.2313642873
 10
9.6474040052
 20
79.2290727175
 10
9.6472055122
 20
79.2269548174
 10
9.6470012047
 20
79.2250048208
 10
9.6467911138
 20
79.2232284941
 10
9.6465748563
 20
79.2216441803
 10
9.6463523966
 20
79.2202466061
 10
9.6461237703
 20
79.2190410449
 10
9.6458887017
 20
79.2180616597
 10
9.645647099
 20
79.2173198384
 10
9.6453990539
 20
79.216804193
 10
9.6451445666
 20
79.2165147237
  0
LWPOLYLINE
  5
34C
100
AcDbEntity
  8
ASSI
100
AcDbPolyline
 62
7
  6
CONTINUOUS
 90
17
 70
0
 10
9.64894332
 20
70.855962018
 10
9.6485948334
 20
70.8477564497
 10
9.6484117022
 20
70.844049178
 10
9.6482222165
 20
70.8406065123
 10
9.6480266694
 20
70.8373915712
 10
9.6478254296
 20
70.8343968733
 10
9.6476181282
 20
70.8316299001
 10
9.6474039516
 20
70.8290762149
 10
9.6471828236
 20
70.8267250352
 10
9.6469548203
 20
70.8245871435
 10
9.6467193557
 20
70.82268045
 10
9.6464763876
 20
70.8209967227
 10
9.6462259582
 20
70.8195441936
 10
9.6459676074
 20
70.8183654686
 10
9.6457011818
 20
70.8174747496
 10
9.6454268349
 20
70.8168578346
 10
9.6451445666
 20
70.8165147237
  0
LWPOLYLINE
  5
34D
100
AcDbEntity
  8
ASSI
100
AcDbPolyline
 62
7
  6
CONTINUOUS
 90
17
 70
0
 10
9.64894332
 20
63.155962018
 10
9.6485948334
 20
63.1477564497
 10
9.6484117022
 20
63.144049178
 10
9.6482222165
 20
63.1406065123
 10
9.6480266694
 20
63.1373915712
 10
9.6478254296
 20
63.1343968733
 10
9.6476181282
 20
63.1316299001
 10
9.6474039516
 20
63.1290762149
 10
9.6471828236
 20
63.1267250352
 10
9.6469548203
 20
63.1245871435
 10
9.6467193557
 20
63.12268045
 10
9.6464763876
 20
63.1209967227
 10
9.6462259582
 20
63.1195441936
 10
9.6459676074
 20
63.1183654686
 10
9.6457011818
 20
63.1174747496
 10
9.6454268349
 20
63.1168578346
 10
9.6451445666
 20
63.1165147237
  0
LWPOLYLINE
  5
34E
100
AcDbEntity
  8
ASSI
100
AcDbPolyline
 62
7
  6
CONTINUOUS
 90
31
 70
0
 10
7.3659432223
 20
88.1504479216
 10
7.363407731
 20
88.0989050793
 10
7.3556168654
 20
88.0486467799
 10
7.3425706254
 20
87.9996732655
 10
7.3238667837
 20
87.9511790961
 10
7.2999075676
 20
87.9039700852
 10
7.2718996595
 20
87.8604637311
 10
7.2397000392
 20
87.8211574851
 10
7.2034517269
 20
87.785555006
 10
7.1647904644
 20
87.7545835258
 10
7.123929315
 20
87.7284918806
 10
7.0806552155
 20
87.7070321457
 10
7.0359647174
 20
87.690386422
 10
6.9897035598
 20
87.6785428767
 10
6.9420260035
 20
87.6715138011
 10
6.8943913832
 20
87.6695173831
 10
6.8467901961
 20
87.6727074752
 10
6.799231945
 20
87.6809302047
 10
6.753204472
 20
87.6939420566
 10
6.7088068539
 20
87.711822456
 10
6.6659400139
 20
87.7344914797
 10
6.625794564
 20
87.7614665177
 10
6.5883115915
 20
87.7929924808
 10
6.553550009
 20
87.828823587
 10
6.5228771672
 20
87.8677412733
 10
6.4965037231
 20
87.9098265484
 10
6.4742190196
 20
87.9549975262
 10
6.4567584354
 20
88.0017916185
 10
6.4443670968
 20
88.0497212108
 10
6.4367998776
 20
88.0992734107
 10
6.4340567777
 20
88.1504479216
  0
LINE
  5
34F
100
AcDbEntity
  8
ASSI
100
AcDbLine
 62
253
  6
CONTINUOUS
 10
6.4340567777
 20
88.1504479216
 11
6.5955662763
 21
91.25
  0
LWPOLYLINE
  5
350
100
AcDbEntity
  8
ASSI
100
AcDbPolyline
 62
253
  6
CONTINUOUS
 90
11
 70
0
 10
6.5872915245
 20
81.45
 10
6.5847413295
 20
81.410969125
 10
6.5771231929
 20
81.3725603261
 10
6.5645505108
 20
81.335431191
 10
6.5472154241
 20
81.3002095335
 10
6.5254031651
 20
81.2675186017
 10
6.4995022667
 20
81.2379567394
 10
6.4699602606
 20
81.2120352082
 10
6.43728015
 20
81.1901957266
 10
6.4020448983
 20
81.1728235087
 10
6.3762945881
 20
81.1635140816
  0
LWPOLYLINE
  5
351
100
AcDbEntity
  8
ASSI
100
AcDbPolyline
 62
253
  6
CONTINUOUS
 90
10
 70
0
 10
8.8483169625
 20
79.3378694387
 10
8.8468461537
 20
79.3205378636
 10
8.8425754694
 20
79.3037309055
 10
8.835634181
 20
79.2879573012
 10
8.8262323972
 20
79.2736945089
 10
8.8146547047
 20
79.261374255
 10
8.8012515536
 20
79.2513694667
 10
8.7864286497
 20
79.2439829831
 10
8.7706346738
 20
79.2394383889
 10
8.7543477005
 20
79.2378732464
  0
LWPOLYLINE
  5
352
100
AcDbEntity
  8
0
100
AcDbPolyline
 62
7
  6
CONTINUOUS
 90
10
 70
0
 10
-8.2
 20
-69.25
 10
-6.9054457693
 20
-60.3233408192
 10
-6.8937787966
 20
-60.2467871102
 10
-6.8816811658
 20
-60.1698781387
 10
-6.8691516212
 20
-60.0926131467
 10
-6.8561893184
 20
-60.0149939444
 10
-6.8427939025
 20
-59.9370249181
 10
-6.8289646366
 20
-59.8587079343
 10
-6.814700326
 20
-59.7800423307
 10
-6.8
 20
-59.7010287398
  0
LWPOLYLINE
  5
353
100
AcDbEntity
  8
ASSI
100
AcDbPolyline
 62
7
  6
CONTINUOUS
 90
27
 70
0
 10
-10.1385775126
 20
46.9454219847
 10
-10.135496794
 20
46.9339274736
 10
-10.1318725768
 20
46.9225925811
 10
-10.1277130725
 20
46.9114429848
 10
-10.1230277082
 20
46.9005039512
 10
-10.1178271006
 20
46.8898002648
 10
-10.1121230353
 20
46.8793561796
 10
-10.105928443
 20
46.8691953674
 10
-10.0992573629
 20
46.8593408513
 10
-10.0921249119
 20
46.8498149571
 10
-10.0845472554
 20
46.8406392701
 10
-10.0765415612
 20
46.8318345745
 10
-10.068125975
 20
46.8234208229
 10
-10.0593195834
 20
46.8154170914
 10
-10.0501423702
 20
46.8078415305
 10
-10.0406151087
 20
46.8007112771
 10
-10.030759324
 20
46.7940424399
 10
-10.0205972484
 20
46.7878500775
 10
-10.0101519949
 20
46.782148289
 10
-9.9994474601
 20
46.7769501037
 10
-9.988508059
 20
46.7722673301
 10
-9.977358447
 20
46.7681104757
 10
-9.9660236819
 20
46.7644888659
 10
-9.9545277163
 20
46.7614102873
 10
-9.942898281
 20
46.7588822974
 10
-9.9311667864
 20
46.7569113514
 10
-9.9225124747
 20
46.7558220464
  0
LWPOLYLINE
  5
354
100
AcDbEntity
  8
0
100
AcDbPolyline
 62
253
  6
CONTINUOUS
 90
32
 70
0
 10
-5.15
 20
78.4221743
 10
-5.1509974865
 20
78.4300019323
 10
-5.1541046649
 20
78.4378069861
 10
-5.1593215351
 20
78.4455894615
 10
-5.1666526057
 20
78.4533423919
 10
-5.176093368
 20
78.461072744
 10
-5.1876302968
 20
78.4688014171
 10
-5.2012374709
 20
78.4765277084
 10
-5.2169408114
 20
78.4842523208
 10
-5.2348045558
 20
78.4919982624
 10
-5.2548275568
 20
78.4997727981
 10
-5.2770109617
 20
78.5075686629
 10
-5.3014224499
 20
78.51538707
 10
-5.3280560498
 20
78.5232260716
 10
-5.356917733
 20
78.5310876154
 10
-5.3880930936
 20
78.5389787583
 10
-5.421573808
 20
78.5468998591
 10
-5.4573681998
 20
78.554850559
 10
-5.4955868331
 20
78.5628368384
 10
-5.5362223571
 20
78.5708585553
 10
-5.5792821226
 20
78.5789158518
 10
-5.6248987459
 20
78.5870151348
 10
-5.673063811
 20
78.5951563497
 10
-5.7237857339
 20
78.6033395511
 10
-5.7772223792
 20
78.6115713094
 10
-5.8333646669
 20
78.6198515404
 10
-5.8922216769
 20
78.6281803282
 10
-5.9539785133
 20
78.636564496
 10
-6.0186253001
 20
78.6450039505
 10
-6.0861719133
 20
78.6534987849
 10
-6.1568330846
 20
78.6620561027
 10
-6.3074773122
 20
78.6793579793
  0
LINE
  5
355
100
AcDbEntity
  8
0
100
AcDbLine
 62
253
  6
CONTINUOUS
 10
5.15
 20
61.7230436001
 11
5.152572771
 21
61.6759207155
  0
LINE
  5
356
100
AcDbEntity
  8
ASSI
100
AcDbLine
 62
253
  6
CONTINUOUS
 10
7.3659432223
 20
88.1504479216
 11
7.2040044543
 21
91.2582381709
  0
LINE
  5
357
100
AcDbEntity
  8
ASSI
100
AcDbLine
 62
7
  6
CONTINUOUS
 10
9.6486027103
 20
63.9520759546
 11
9.6489505042
 21
63.9438477158
  0
LINE
  5
358
100
AcDbEntity
  8
ASSI
100
AcDbLine
 62
7
  6
CONTINUOUS
 10
9.6486027103
 20
71.6520759546
 11
9.6489505042
 21
71.6438477158
  0
LINE
  5
359
100
AcDbEntity
  8
ASSI
100
AcDbLine
 62
7
  6
CONTINUOUS
 10
9.6486507436
 20
80.0510518863
 11
9.6489602758
 21
80.0435629412
  0
LWPOLYLINE
  5
35A
100
AcDbEntity
  8
0
100
AcDbPolyline
 62
253
  6
CONTINUOUS
 90
25
 70
0
 10
8.1499999998
 20
75.4262856958
 10
8.1435743358
 20
75.6222272774
 10
8.1243299735
 20
75.8173290014
 10
8.0923494221
 20
76.0107552656
 10
8.0477697463
 20
76.2016773627
 10
7.9907819247
 20
76.3892778646
 10
7.9216299822
 20
76.572754317
 10
7.8406100822
 20
76.7513213263
 10
7.7480691918
 20
76.9242141394
 10
7.6444034541
 20
77.0906928932
 10
7.5300567566
 20
77.2500448523
 10
7.4055187226
 20
77.4015876624
 10
7.2713224125
 20
77.5446726398
 10
7.1280424004
 20
77.6786871352
 10
6.9762921683
 20
77.8030572595
 10
6.8167212449
 20
77.9172504572
 10
6.6500128384
 20
78.0207777085
 10
6.4768807431
 20
78.113195596
 10
6.2980660361
 20
78.1941081551
 10
6.1143343366
 20
78.2631687995
 10
5.926472353
 20
78.3200816163
 10
5.7352842744
 20
78.3646024407
 10
5.5415886802
 20
78.3965403159
 10
5.3462150498
 20
78.4157583718
 10
5.15
 20
78.4221741162
  0
LINE
  5
35B
100
AcDbEntity
  8
ASSI
100
AcDbLine
 62
7
  6
CONTINUOUS
 10
9.6489602758
 20
80.0435629412
 11
9.6492475512
 21
80.0350830864
  0
LINE
  5
35C
100
AcDbEntity
  8
ASSI
100
AcDbLine
 62
7
  6
CONTINUOUS
 10
9.6489505042
 20
63.9438477158
 11
9.6492662349
 21
63.9344689007
  0
LINE
  5
35D
100
AcDbEntity
  8
ASSI
100
AcDbLine
 62
7
  6
CONTINUOUS
 10
9.6489505042
 20
71.6438477158
 11
9.6492662349
 21
71.6344689007
  0
LWPOLYLINE
  5
35E
100
AcDbEntity
  8
ASSI
100
AcDbPolyline
 62
253
  6
CONTINUOUS
 90
34
 70
0
 10
7.254371834
 20
95.0943375673
 10
7.2546884847
 20
95.0840547998
 10
7.2555686465
 20
95.0737952398
 10
7.2570103328
 20
95.0635820427
 10
7.2590102898
 20
95.053438259
 10
7.2615640038
 20
95.0433867826
 10
7.2646657112
 20
95.0334502991
 10
7.2683084116
 20
95.0236512346
 10
7.2724838837
 20
95.014011705
 10
7.2771827036
 20
95.0045534661
 10
7.2823942664
 20
94.9952978646
 10
7.2881068099
 20
94.9862657898
 10
7.2943074413
 20
94.9774776267
 10
7.3009821661
 20
94.9689532096
 10
7.3081159197
 20
94.9607117775
 10
7.3156926018
 20
94.952771931
 10
7.3236951123
 20
94.9451515897
 10
7.3321053899
 20
94.9378679524
 10
7.3409044531
 20
94.9309374578
 10
7.350072443
 20
94.9243757476
 10
7.359588668
 20
94.9181976311
 10
7.3694316505
 20
94.9124170521
 10
7.3795791754
 20
94.9070470569
 10
7.3900083405
 20
94.9020997654
 10
7.4006956077
 20
94.8975863432
 10
7.4116168564
 20
94.8935169769
 10
7.4227474381
 20
94.8899008509
 10
7.4340622317
 20
94.8867461264
 10
7.4455357003
 20
94.8840599235
 10
7.4571419491
 20
94.8818483049
 10
7.4688547834
 20
94.880116262
 10
7.480647768
 20
94.8788677039
 10
7.4924942869
 20
94.8781054486
 10
7.5043676032
 20
94.8778312164
  0
LWPOLYLINE
  5
35F
100
AcDbEntity
  8
ASSI
100
AcDbPolyline
 62
253
  6
CONTINUOUS
 90
34
 70
0
 10
10.145628166
 20
47.4056624327
 10
10.145311504
 20
47.4159453938
 10
10.1444313098
 20
47.426205146
 10
10.1429895699
 20
47.4364185327
 10
10.1409895398
 20
47.4465624965
 10
10.1384357329
 20
47.4566141479
 10
10.1353339075
 20
47.4665508166
 10
10.1316910568
 20
47.476350087
 10
10.1275154039
 20
47.4859898283
 10
10.1228163816
 20
47.4954482613
 10
10.1176046015
 20
47.5047040305
 10
10.1118918239
 20
47.5137362537
 10
10.1056909407
 20
47.5225245488
 10
10.0990159471
 20
47.5310490814
 10
10.0918819095
 20
47.5392906102
 10
10.08430493
 20
47.5472305341
 10
10.0763021104
 20
47.5548509322
 10
10.0678915133
 20
47.5621346054
 10
10.0590921207
 20
47.569065115
 10
10.0499237948
 20
47.5756268176
 10
10.0404072274
 20
47.5818049044
 10
10.0305638912
 20
47.5875854347
 10
10.0204159898
 20
47.5929553672
 10
10.0099864389
 20
47.5979025735
 10
9.9992988113
 20
47.6024158735
 10
9.9883772514
 20
47.6064850765
 10
9.9772463916
 20
47.6101010104
 10
9.9659313281
 20
47.6132555242
 10
9.954457306
 20
47.6159415605
 10
9.9428505087
 20
47.6181529705
 10
9.9311379997
 20
47.619884653
 10
9.9193465228
 20
47.6211327817
 10
9.907502412
 20
47.6218946957
 10
9.8956323968
 20
47.6221687836
  0
LWPOLYLINE
  5
360
100
AcDbEntity
  8
ASSI
100
AcDbPolyline
 62
7
  6
CONTINUOUS
 90
6
 70
0
 10
10.1456238859
 20
95.4970868299
 10
10.1453445371
 20
95.5075290557
 10
10.144495097
 20
95.519398774
 10
10.1430817682
 20
95.5312146563
 10
10.1411077496
 20
95.542949936
 10
10.1385775126
 20
95.5545780153
  0
LINE
  5
361
100
AcDbEntity
  8
ASSI
100
AcDbLine
 62
7
  6
CONTINUOUS
 10
9.6492475512
 20
80.0350830864
 11
9.6495039189
 21
80.025598696
  0
LINE
  5
362
100
AcDbEntity
  8
ASSI
100
AcDbLine
 62
7
  6
CONTINUOUS
 10
9.6492662349
 20
63.9344689007
 11
9.6495441472
 21
63.9237968945
  0
LINE
  5
363
100
AcDbEntity
  8
ASSI
100
AcDbLine
 62
7
  6
CONTINUOUS
 10
9.6492662349
 20
71.6344689007
 11
9.6495441472
 21
71.6237968945
  0
LWPOLYLINE
  5
364
100
AcDbEntity
  8
ASSI
100
AcDbPolyline
 62
7
  6
CONTINUOUS
 90
5
 70
0
 10
7.25
 20
46.9999957692
 10
7.2502831502
 20
46.988100484
 10
7.2511319658
 20
46.9762321444
 10
7.2525445259
 20
46.9644176339
 10
7.2545176323
 20
46.9526837125
  0
LWPOLYLINE
  5
365
100
AcDbEntity
  8
ASSI
100
AcDbPolyline
 62
7
  6
CONTINUOUS
 90
34
 70
0
 10
7.254371834
 20
47.0043676032
 10
7.2546553848
 20
46.9924725817
 10
7.2555045897
 20
46.980604505
 10
7.2569175251
 20
46.9687902571
 10
7.2588909904
 20
46.9570565999
 10
7.2614205152
 20
46.9454301126
 10
7.2645003696
 20
46.933937132
 10
7.268123577
 20
46.9226036922
 10
7.27228193
 20
46.911455466
 10
7.2769660091
 20
46.9005177065
 10
7.2821652038
 20
46.8898151904
 10
7.2878677366
 20
46.8793721611
 10
7.2940606902
 20
46.8692122745
 10
7.300730036
 20
46.859358545
 10
7.3078606666
 20
46.8498332936
 10
7.3154364293
 20
46.8406580969
 10
7.3234401635
 20
46.8318537389
 10
7.3318537389
 20
46.8234401635
 10
7.3406580969
 20
46.8154364293
 10
7.3498332936
 20
46.8078606666
 10
7.359358545
 20
46.800730036
 10
7.3692122745
 20
46.7940606902
 10
7.3793721611
 20
46.7878677366
 10
7.3898151904
 20
46.7821652038
 10
7.4005177065
 20
46.7769660091
 10
7.411455466
 20
46.77228193
 10
7.4226036922
 20
46.768123577
 10
7.433937132
 20
46.7645003696
 10
7.4454301126
 20
46.7614205152
 10
7.4570565999
 20
46.7588909904
 10
7.4687902571
 20
46.7569175251
 10
7.480604505
 20
46.7555045897
 10
7.4924725817
 20
46.7546553848
 10
7.5043676032
 20
46.754371834
  0
LWPOLYLINE
  5
366
100
AcDbEntity
  8
ASSI
100
AcDbPolyline
 62
7
  6
CONTINUOUS
 90
5
 70
0
 10
10.15
 20
95.5000042308
 10
10.1497168498
 20
95.511899516
 10
10.1488680342
 20
95.5237678556
 10
10.1474554741
 20
95.5355823661
 10
10.1454823677
 20
95.5473162875
  0
LWPOLYLINE
  5
367
100
AcDbEntity
  8
ASSI
100
AcDbPolyline
 62
7
  6
CONTINUOUS
 90
40
 70
0
 10
11.1491272468
 20
93.1497711479
 10
11.1487254783
 20
93.1698382916
 10
11.1475178615
 20
93.1899070889
 10
11.1455021807
 20
93.2099450105
 10
11.1426747096
 20
93.2299370232
 10
11.139037304
 20
93.2498321984
 10
11.1346045075
 20
93.269545063
 10
11.1293910418
 20
93.2890258388
 10
11.12340379
 20
93.308262166
 10
11.1166533905
 20
93.3272264828
 10
11.1091593246
 20
93.3458728482
 10
11.1009299311
 20
93.3641884053
 10
11.091954438
 20
93.3821932747
 10
11.0822254754
 20
93.3998868057
 10
11.0717697748
 20
93.417206078
 10
11.0606288795
 20
93.4340786325
 10
11.0488264369
 20
93.4504718186
 10
11.0363788556
 20
93.4663658932
 10
11.0233263117
 20
93.4817142955
 10
11.0097179067
 20
93.496469892
 10
10.9955568139
 20
93.5106393471
 10
10.9808115931
 20
93.5242541203
 10
10.9654752953
 20
93.5373115831
 10
10.9495955918
 20
93.5497623962
 10
10.9332204097
 20
93.5615654085
 10
10.9163704856
 20
93.5727040857
 10
10.8990779585
 20
93.5831557029
 10
10.881414432
 20
93.5928793991
 10
10.8634434178
 20
93.6018484807
 10
10.8451651762
 20
93.6100709099
 10
10.826557044
 20
93.6175586046
 10
10.8076305126
 20
93.6243036902
 10
10.7884327235
 20
93.630286152
 10
10.7689924788
 20
93.6354948973
 10
10.7493224519
 20
93.6399231464
 10
10.729472075
 20
93.6435564624
 10
10.7095271238
 20
93.6463803578
 10
10.6895385977
 20
93.6483931752
 10
10.6695213554
 20
93.6495989119
 10
10.6495078465
 20
93.65
  0
LINE
  5
368
100
AcDbEntity
  8
ASSI
100
AcDbLine
 62
7
  6
CONTINUOUS
 10
9.6495039189
 20
80.025598696
 11
9.6497217694
 21
80.0147597788
  0
LINE
  5
369
100
AcDbEntity
  8
ASSI
100
AcDbLine
 62
7
  6
CONTINUOUS
 10
9.6495441472
 20
63.9237968945
 11
9.6497774807
 21
63.911452707
  0
LINE
  5
36A
100
AcDbEntity
  8
ASSI
100
AcDbLine
 62
7
  6
CONTINUOUS
 10
9.6495441472
 20
71.6237968945
 11
9.6497774807
 21
71.611452707
  0
LINE
  5
36B
100
AcDbEntity
  8
ASSI
100
AcDbLine
 62
7
  6
CONTINUOUS
 10
11.1417094756
 20
50.2273502692
 11
11.1504363434
 21
49.65
  0
LINE
  5
36C
100
AcDbEntity
  8
ASSI
100
AcDbLine
 62
253
  6
CONTINUOUS
 10
8.262005178
 20
77.3550616261
 11
8.2616910534
 21
77.3760545313
  0
LINE
  5
36D
100
AcDbEntity
  8
ASSI
100
AcDbLine
 62
7
  6
CONTINUOUS
 10
9.6497217694
 20
80.0147597788
 11
9.6498906708
 21
80.002471286
  0
LINE
  5
36E
100
AcDbEntity
  8
ASSI
100
AcDbLine
 62
253
  6
CONTINUOUS
 10
7.254371834
 20
47.4056624327
 11
7.25
 21
47.8395148518
  0
LINE
  5
36F
100
AcDbEntity
  8
ASSI
100
AcDbLine
 62
253
  6
CONTINUOUS
 10
7.5043676032
 20
47.6221687836
 11
7.4992770021
 21
48.1273502692
  0
LINE
  5
370
100
AcDbEntity
  8
ASSI
100
AcDbLine
 62
253
  6
CONTINUOUS
 10
9.8956323968
 20
94.8778312164
 11
9.9007229979
 21
94.3726497308
  0
LINE
  5
371
100
AcDbEntity
  8
ASSI
100
AcDbLine
 62
253
  6
CONTINUOUS
 10
10.145628166
 20
95.0943375673
 11
10.15
 21
94.6604851482
  0
LINE
  5
372
100
AcDbEntity
  8
ASSI
100
AcDbLine
 62
7
  6
CONTINUOUS
 10
9.6497774807
 20
63.911452707
 11
9.6499324366
 21
63.8973201007
  0
LINE
  5
373
100
AcDbEntity
  8
ASSI
100
AcDbLine
 62
7
  6
CONTINUOUS
 10
9.6497774807
 20
71.611452707
 11
9.6499324366
 21
71.5973201007
  0
LINE
  5
374
100
AcDbEntity
  8
ASSI
100
AcDbLine
 62
253
  6
CONTINUOUS
 10
8.2616910534
 20
77.3760545313
 11
8.2613085312
 21
77.4202361142
  0
LINE
  5
375
100
AcDbEntity
  8
ASSI
100
AcDbLine
 62
7
  6
CONTINUOUS
 10
9.6498906708
 20
80.002471286
 11
9.6499817651
 21
79.9887497226
  0
LINE
  5
376
100
AcDbEntity
  8
ASSI
100
AcDbLine
 62
253
  6
CONTINUOUS
 10
10.145628166
 20
95.4956323968
 11
10.1456238859
 21
95.4970868299
  0
LINE
  5
377
100
AcDbEntity
  8
ASSI
100
AcDbLine
 62
7
  6
CONTINUOUS
 10
9.6499324366
 20
63.8973201007
 11
9.65
 21
63.8813524151
  0
LINE
  5
378
100
AcDbEntity
  8
ASSI
100
AcDbLine
 62
7
  6
CONTINUOUS
 10
9.6499324366
 20
71.5973201007
 11
9.65
 21
71.5813524151
  0
LINE
  5
379
100
AcDbEntity
  8
0
100
AcDbLine
 62
7
  6
CONTINUOUS
 10
8.150001143
 20
75.451721279
 11
8.1499119323
 21
75.479987718
  0
LWPOLYLINE
  5
37A
100
AcDbEntity
  8
ASSI
100
AcDbPolyline
 62
253
  6
CONTINUOUS
 90
3
 70
0
 10
8.2613085312
 20
77.4202361142
 10
8.2609886341
 20
77.5161177722
 10
8.260978333
 20
77.5372801014
  0
LINE
  5
37B
100
AcDbEntity
  8
ASSI
100
AcDbLine
 62
7
  6
CONTINUOUS
 10
7.35
 20
78.8
 11
7.35
 21
79.15
  0
LINE
  5
37C
100
AcDbEntity
  8
0
100
AcDbLine
 62
7
  6
CONTINUOUS
 10
7.4
 20
-96.25
 11
7.4
 21
-86.25
  0
LINE
  5
37D
100
AcDbEntity
  8
ASSI
100
AcDbLine
 62
7
  6
CONTINUOUS
 10
7.4101132618
 20
58.839021667
 11
7.4101132618
 21
58.9390178593
  0
LINE
  5
37E
100
AcDbEntity
  8
ASSI
100
AcDbLine
 62
7
  6
CONTINUOUS
 10
7.4101132618
 20
79.9609821407
 11
7.4101132618
 21
81.5601323002
  0
LINE
  5
37F
100
AcDbEntity
  8
ASSI
100
AcDbLine
 62
7
  6
CONTINUOUS
 10
7.4372915245
 20
78.8
 11
7.4372915245
 21
79.15
  0
LINE
  5
380
100
AcDbEntity
  8
ASSI
100
AcDbLine
 62
7
  6
CONTINUOUS
 10
7.5
 20
81.6500190385
 11
7.5
 21
80.15
  0
LINE
  5
381
100
AcDbEntity
  8
ASSI
100
AcDbLine
 62
253
  6
CONTINUOUS
 10
7.5043676032
 20
46.754371834
 11
7.5043676032
 21
47.6221687836
  0
LINE
  5
382
100
AcDbEntity
  8
ASSI
100
AcDbLine
 62
253
  6
CONTINUOUS
 10
7.5043676032
 20
94.8778312164
 11
7.5043676032
 21
95.745628166
  0
LINE
  5
383
100
AcDbEntity
  8
ASSI
100
AcDbLine
 62
253
  6
CONTINUOUS
 10
7.5666456542
 20
92.5859869487
 11
7.5666456542
 21
92.15
  0
LINE
  5
384
100
AcDbEntity
  8
ASSI
100
AcDbLine
 62
253
  6
CONTINUOUS
 10
7.5666456542
 20
50.35
 11
7.5666456542
 21
49.9140130513
  0
LINE
  5
385
100
AcDbEntity
  8
0
100
AcDbLine
 62
253
  6
CONTINUOUS
 10
7.7
 20
-69.2541741001
 11
7.7
 21
-86.25
  0
LINE
  5
386
100
AcDbEntity
  8
ASSI
100
AcDbLine
 62
253
  6
CONTINUOUS
 10
7.7372801014
 20
78.7981151573
 11
7.7372801014
 21
79.15
  0
LINE
  5
387
100
AcDbEntity
  8
ASSI
100
AcDbLine
 62
253
  6
CONTINUOUS
 10
8.0665695018
 20
92.7037354271
 11
8.0665695018
 21
92.15
  0
LINE
  5
388
100
AcDbEntity
  8
ASSI
100
AcDbLine
 62
253
  6
CONTINUOUS
 10
8.0665695018
 20
50.35
 11
8.0665695018
 21
49.7962645729
  0
LINE
  5
389
100
AcDbEntity
  8
0
100
AcDbLine
 62
7
  6
CONTINUOUS
 10
8.15
 20
78.3000000953
 11
8.15
 21
61.7413350111
  0
LINE
  5
38A
100
AcDbEntity
  8
0
100
AcDbLine
 62
7
  6
CONTINUOUS
 10
8.1500911007
 20
75.534244801
 11
8.1500910244
 21
75.5353638729
  0
LINE
  5
38B
100
AcDbEntity
  8
ASSI
100
AcDbLine
 62
253
  6
CONTINUOUS
 10
8.1609821407
 20
78.491760235
 11
8.1609821407
 21
79.3390178593
  0
LINE
  5
38C
100
AcDbEntity
  8
0
100
AcDbLine
 62
7
  6
CONTINUOUS
 10
8.2
 20
78.3
 11
8.2
 21
62.2
  0
LINE
  5
38D
100
AcDbEntity
  8
0
100
AcDbLine
 62
7
  6
CONTINUOUS
 10
8.2
 20
-69.25
 11
8.2
 21
-86.25
  0
LINE
  5
38E
100
AcDbEntity
  8
ASSI
100
AcDbLine
 62
7
  6
CONTINUOUS
 10
8.25
 20
92.65
 11
8.25
 21
92.15
  0
LINE
  5
38F
100
AcDbEntity
  8
ASSI
100
AcDbLine
 62
7
  6
CONTINUOUS
 10
8.25
 20
50.35
 11
8.25
 21
49.85
  0
LINE
  5
390
100
AcDbEntity
  8
ASSI
100
AcDbLine
 62
7
  6
CONTINUOUS
 10
8.260978333
 20
77.5372801014
 11
8.260978333
 21
79.239021667
  0
LINE
  5
391
100
AcDbEntity
  8
ASSI
100
AcDbLine
 62
7
  6
CONTINUOUS
 10
8.3325462644
 20
63.0674537356
 11
8.3325462644
 21
61.6674537356
  0
LINE
  5
392
100
AcDbEntity
  8
ASSI
100
AcDbLine
 62
7
  6
CONTINUOUS
 10
8.35
 20
79.15
 11
8.35
 21
77.2499961923
  0
LINE
  5
393
100
AcDbEntity
  8
ASSI
100
AcDbLine
 62
7
  6
CONTINUOUS
 10
8.35
 20
63.05
 11
8.35
 21
61.65
  0
LINE
  5
394
100
AcDbEntity
  8
ASSI
100
AcDbLine
 62
253
  6
CONTINUOUS
 10
8.5664091763
 20
58.839021667
 11
8.5664091763
 21
59.75
  0
LINE
  5
395
100
AcDbEntity
  8
ASSI
100
AcDbLine
 62
253
  6
CONTINUOUS
 10
8.5664091763
 20
63.139021667
 11
8.5664091763
 21
63.960978333
  0
LINE
  5
396
100
AcDbEntity
  8
ASSI
100
AcDbLine
 62
253
  6
CONTINUOUS
 10
8.5664091763
 20
70.839021667
 11
8.5664091763
 21
71.660978333
  0
LINE
  5
397
100
AcDbEntity
  8
ASSI
100
AcDbLine
 62
253
  6
CONTINUOUS
 10
8.5664091763
 20
79.239021667
 11
8.5664091763
 21
80.060978333
  0
LINE
  5
398
100
AcDbEntity
  8
ASSI
100
AcDbLine
 62
253
  6
CONTINUOUS
 10
8.8483169625
 20
63.2378694387
 11
8.8483169625
 21
63.8621305613
  0
LINE
  5
399
100
AcDbEntity
  8
ASSI
100
AcDbLine
 62
253
  6
CONTINUOUS
 10
8.8483169625
 20
70.9378694387
 11
8.8483169625
 21
71.5621305613
  0
LINE
  5
39A
100
AcDbEntity
  8
ASSI
100
AcDbLine
 62
253
  6
CONTINUOUS
 10
8.8483169625
 20
79.3378694387
 11
8.8483169625
 21
79.9621305613
  0
LINE
  5
39B
100
AcDbEntity
  8
ASSI
100
AcDbLine
 62
7
  6
CONTINUOUS
 10
9.5121049871
 20
59.75
 11
9.5121049871
 21
63.05
  0
LINE
  5
39C
100
AcDbEntity
  8
ASSI
100
AcDbLine
 62
7
  6
CONTINUOUS
 10
9.5121049871
 20
64.05
 11
9.5121049871
 21
70.75
  0
LINE
  5
39D
100
AcDbEntity
  8
ASSI
100
AcDbLine
 62
7
  6
CONTINUOUS
 10
9.5121049871
 20
71.75
 11
9.5121049871
 21
79.15
  0
LINE
  5
39E
100
AcDbEntity
  8
ASSI
100
AcDbLine
 62
7
  6
CONTINUOUS
 10
9.5121049871
 20
80.15
 11
9.5121049871
 21
83.7632676422
  0
LINE
  5
39F
100
AcDbEntity
  8
ASSI
100
AcDbLine
 62
7
  6
CONTINUOUS
 10
9.65
 20
91.4490396502
 11
9.65
 21
58.9186475859
  0
LINE
  5
3A0
100
AcDbEntity
  8
ASSI
100
AcDbLine
 62
253
  6
CONTINUOUS
 10
9.8956323968
 20
46.754371834
 11
9.8956323968
 21
47.6221687836
  0
LINE
  5
3A1
100
AcDbEntity
  8
ASSI
100
AcDbLine
 62
253
  6
CONTINUOUS
 10
9.8956323968
 20
94.8778312164
 11
9.8956323968
 21
95.745628166
  0
LINE
  5
3A2
100
AcDbEntity
  8
ASSI
100
AcDbLine
 62
7
  6
CONTINUOUS
 10
10.145628166
 20
47.0043676032
 11
10.145628166
 21
47.4056624327
  0
LINE
  5
3A3
100
AcDbEntity
  8
ASSI
100
AcDbLine
 62
7
  6
CONTINUOUS
 10
10.145628166
 20
95.0943375673
 11
10.145628166
 21
95.4956323968
  0
LINE
  5
3A4
100
AcDbEntity
  8
ASSI
100
AcDbLine
 62
7
  6
CONTINUOUS
 10
10.15
 20
47.4056624327
 11
10.15
 21
48.6497865097
  0
LINE
  5
3A5
100
AcDbEntity
  8
ASSI
100
AcDbLine
 62
7
  6
CONTINUOUS
 10
10.15
 20
93.8502134903
 11
10.15
 21
95.0943375673
  0
LINE
  5
3A6
100
AcDbEntity
  8
ASSI
100
AcDbLine
 62
7
  6
CONTINUOUS
 10
11.1417094756
 20
93.1441990932
 11
11.1417094756
 21
92.2726497308
  0
LINE
  5
3A7
100
AcDbEntity
  8
ASSI
100
AcDbLine
 62
7
  6
CONTINUOUS
 10
11.1417094756
 20
50.2273502692
 11
11.1417094756
 21
49.3558009068
  0
LINE
  5
3A8
100
AcDbEntity
  8
ASSI
100
AcDbLine
 62
7
  6
CONTINUOUS
 10
11.1504363434
 20
93.150016923
 11
11.1504363434
 21
92.85
  0
LINE
  5
3A9
100
AcDbEntity
  8
ASSI
100
AcDbLine
 62
7
  6
CONTINUOUS
 10
11.1504363434
 20
49.349983077
 11
11.1504363434
 21
49.65
  0
LINE
  5
3AA
100
AcDbEntity
  8
ASSI
100
AcDbLine
 62
7
  6
CONTINUOUS
 10
11.1665823117
 20
92.2726497308
 11
11.1665823117
 21
50.2273502692
  0
LINE
  5
3AB
100
AcDbEntity
  8
ASSI
100
AcDbLine
 62
7
  6
CONTINUOUS
 10
9.649981811
 20
79.3112354778
 11
9.6498900116
 21
79.2974657157
  0
LINE
  5
3AC
100
AcDbEntity
  8
ASSI
100
AcDbLine
 62
7
  6
CONTINUOUS
 10
9.6499766502
 20
70.9104049345
 11
9.6498658851
 21
70.8952813369
  0
LINE
  5
3AD
100
AcDbEntity
  8
ASSI
100
AcDbLine
 62
7
  6
CONTINUOUS
 10
9.6499766502
 20
63.2104049345
 11
9.6498658851
 21
63.1952813369
  0
LINE
  5
3AE
100
AcDbEntity
  8
ASSI
100
AcDbLine
 62
253
  6
CONTINUOUS
 10
9.9007229979
 20
48.1273502692
 11
9.8956323968
 21
47.6221687836
  0
LINE
  5
3AF
100
AcDbEntity
  8
ASSI
100
AcDbLine
 62
253
  6
CONTINUOUS
 10
10.15
 20
47.8395148518
 11
10.145628166
 21
47.4056624327
  0
LINE
  5
3B0
100
AcDbEntity
  8
ASSI
100
AcDbLine
 62
7
  6
CONTINUOUS
 10
11.1417094756
 20
92.2726497308
 11
11.1504363434
 21
92.85
  0
LINE
  5
3B1
100
AcDbEntity
  8
ASSI
100
AcDbLine
 62
7
  6
CONTINUOUS
 10
9.6498900116
 20
79.2974657157
 11
9.6497190171
 21
79.2850894166
  0
LINE
  5
3B2
100
AcDbEntity
  8
ASSI
100
AcDbLine
 62
7
  6
CONTINUOUS
 10
9.6498658851
 20
70.8952813369
 11
9.6496634227
 21
70.8819956687
  0
LINE
  5
3B3
100
AcDbEntity
  8
ASSI
100
AcDbLine
 62
7
  6
CONTINUOUS
 10
9.6498658851
 20
63.1952813369
 11
9.6496634227
 21
63.1819956687
  0
LINE
  5
3B4
100
AcDbEntity
  8
ASSI
100
AcDbLine
 62
7
  6
CONTINUOUS
 10
9.6497190171
 20
79.2850894166
 11
9.6494997
 21
79.2742173054
  0
LINE
  5
3B5
100
AcDbEntity
  8
ASSI
100
AcDbLine
 62
7
  6
CONTINUOUS
 10
9.6496634227
 20
70.8819956687
 11
9.6494058047
 21
70.8704522252
  0
LINE
  5
3B6
100
AcDbEntity
  8
ASSI
100
AcDbLine
 62
7
  6
CONTINUOUS
 10
9.6496634227
 20
63.1819956687
 11
9.6494058047
 21
63.1704522252
  0
LINE
  5
3B7
100
AcDbEntity
  8
ASSI
100
AcDbLine
 62
7
  6
CONTINUOUS
 10
9.6494997
 20
79.2742173054
 11
9.6492427932
 21
79.2647604388
  0
LINE
  5
3B8
100
AcDbEntity
  8
ASSI
100
AcDbLine
 62
7
  6
CONTINUOUS
 10
11.1665823117
 20
50.2273502692
 11
11.15
 21
49.6788675135
  0
LWPOLYLINE
  5
3B9
100
AcDbEntity
  8
ASSI
100
AcDbPolyline
 62
7
  6
CONTINUOUS
 90
3
 70
0
 10
9.6494058047
 20
70.8704522252
 10
9.6491058075
 20
70.8605027814
 10
9.64894332
 20
70.855962018
  0
LWPOLYLINE
  5
3BA
100
AcDbEntity
  8
ASSI
100
AcDbPolyline
 62
7
  6
CONTINUOUS
 90
3
 70
0
 10
9.6494058047
 20
63.1704522252
 10
9.6491058075
 20
63.1605027814
 10
9.64894332
 20
63.155962018
  0
LWPOLYLINE
  5
3BB
100
AcDbEntity
  8
0
100
AcDbPolyline
 62
7
  6
CONTINUOUS
 90
21
 70
0
 10
8.2
 20
-69.2585553197
 10
8.1998940848
 20
-69.2609886447
 10
8.1995548327
 20
-69.2628904484
 10
8.1989488849
 20
-69.2642607306
 10
8.1980400313
 20
-69.2650617517
 10
8.1967927843
 20
-69.2653312515
 10
8.1951764524
 20
-69.2651824493
 10
8.1931613771
 20
-69.2646051329
 10
8.1907085949
 20
-69.2636095146
 10
8.1877722863
 20
-69.26233945
 10
8.1843131784
 20
-69.2607968223
 10
8.1802892011
 20
-69.2589797484
 10
8.1756406612
 20
-69.2570264349
 10
8.1703386914
 20
-69.2549424772
 10
8.1643208451
 20
-69.2527222798
 10
8.157450443
 20
-69.2504872636
 10
8.1496492738
 20
-69.2482252886
 10
8.1408558605
 20
-69.2459484947
 10
8.1309210573
 20
-69.2438147224
 10
8.1196878402
 20
-69.2418102784
 10
8.1071359726
 20
-69.239948856
  0
LINE
  5
3BC
100
AcDbEntity
  8
0
100
AcDbLine
 62
7
  6
CONTINUOUS
 10
-6.749970366
 20
56.7013755582
 11
-6.7499524837
 21
56.7013164915
  0
LWPOLYLINE
  5
3BD
100
AcDbEntity
  8
0
100
AcDbPolyline
 62
253
  6
CONTINUOUS
 90
10
 70
0
 10
-8.1388657881
 20
61.6602750688
 10
-8.1387675035
 20
61.6599372417
 10
-8.1386685632
 20
61.6596213055
 10
-8.1385691037
 20
61.6593272604
 10
-8.1384693848
 20
61.6590555366
 10
-8.1383694169
 20
61.6588057038
 10
-8.1382689515
 20
61.6585764712
 10
-8.1381679823
 20
61.6583674084
 10
-8.1380667548
 20
61.6581789457
 10
-8.1379653877
 20
61.6580110831
  0
LINE
  5
3BE
100
AcDbEntity
  8
0
100
AcDbLine
 62
253
  6
CONTINUOUS
 10
-6.75
 20
56.7013768442
 11
-6.7485863785
 21
56.7
  0
LINE
  5
3BF
100
AcDbEntity
  8
0
100
AcDbLine
 62
7
  6
CONTINUOUS
 10
-8.1388657881
 20
61.6602750688
 11
-6.75
 21
56.7013768442
  0
LWPOLYLINE
  5
3C0
100
AcDbEntity
  8
ASSI
100
AcDbPolyline
 62
7
  6
CONTINUOUS
 90
9
 70
0
 10
-7.2545176323
 20
95.5473162875
 10
-7.2570468183
 20
95.5589430388
 10
-7.2601263583
 20
95.570436279
 10
-7.2637492787
 20
95.5817699738
 10
-7.2679073742
 20
95.5929184493
 10
-7.2725912278
 20
95.6038564463
 10
-7.2777902312
 20
95.6145591876
 10
-7.2834926084
 20
95.6250024283
 10
-7.2896854419
 20
95.6351625059
  0
LWPOLYLINE
  5
3C1
100
AcDbEntity
  8
ASSI
100
AcDbPolyline
 62
253
  6
CONTINUOUS
 90
10
 70
0
 10
8.8483169625
 20
79.9621305613
 10
8.8468461516
 20
79.9794621486
 10
8.8425754624
 20
79.9962691151
 10
8.8356341676
 20
80.0120427234
 10
8.8262323776
 20
80.026305516
 10
8.8146546806
 20
80.0386257666
 10
8.8012515285
 20
80.0486305488
 10
8.7864286283
 20
80.0560170253
 10
8.7706346608
 20
80.0605616136
 10
8.7543477005
 20
80.0621267536
  0
LWPOLYLINE
  5
3C2
100
AcDbEntity
  8
ASSI
100
AcDbPolyline
 62
7
  6
CONTINUOUS
 90
28
 70
0
 10
6.5961041423
 20
91.25
 10
6.5990440425
 20
91.2142315257
 10
6.6059290448
 20
91.1796571769
 10
6.6167591492
 20
91.1462769536
 10
6.631897909
 20
91.113484376
 10
6.650981771
 20
91.0818859239
 10
6.6729200752
 20
91.0533010361
 10
6.6977269399
 20
91.0281461027
 10
6.7253882467
 20
91.0060047336
 10
6.7547709809
 20
90.9874471981
 10
6.7858849735
 20
90.9725714162
 10
6.8187203934
 20
90.961279468
 10
6.852114733
 20
90.9538478629
 10
6.8860745316
 20
90.950369474
 10
6.9205932499
 20
90.9507514282
 10
6.954488762
 20
90.9549916165
 10
6.9877579012
 20
90.9631847478
 10
7.0204038342
 20
90.9752361131
 10
7.0512539346
 20
90.9908594762
 10
7.0802954579
 20
91.0101467214
 10
7.1075411486
 20
91.0330059645
 10
7.1318566138
 20
91.0588753167
 10
7.1532319236
 20
91.0882319916
 10
7.1716770078
 20
91.1205987757
 10
7.1860872633
 20
91.1539821386
 10
7.196094489
 20
91.1877175705
 10
7.202066886
 20
91.2224695812
 10
7.2040044543
 20
91.2582381709
  0
LINE
  5
3C3
100
AcDbEntity
  8
ASSI
100
AcDbLine
 62
7
  6
CONTINUOUS
 10
11.1665823117
 20
92.2726497308
 11
11.15
 21
92.8211324865
  0
LWPOLYLINE
  5
3C4
100
AcDbEntity
  8
ASSI
100
AcDbPolyline
 62
7
  6
CONTINUOUS
 90
7
 70
0
 10
-10.1103145581
 20
46.8648374941
 10
-10.1036452955
 20
46.8549835949
 10
-10.0965147107
 20
46.8454581962
 10
-10.0889389589
 20
46.8362828809
 10
-10.0809352005
 20
46.8274784339
 10
-10.0725215661
 20
46.8190647995
 10
-10.0637171191
 20
46.8110610411
  0
LINE
  5
3C5
100
AcDbEntity
  8
ASSI
100
AcDbLine
 62
7
  6
CONTINUOUS
 10
-9.5242414733
 20
91.0714572617
 11
-9.65
 21
91.4490396502
  0
LWPOLYLINE
  5
3C6
100
AcDbEntity
  8
ASSI
100
AcDbPolyline
 62
7
  6
CONTINUOUS
 90
9
 70
0
 10
7.2545176323
 20
46.9526837125
 10
7.2570468183
 20
46.9410569612
 10
7.2601263583
 20
46.929563721
 10
7.2637492787
 20
46.9182300262
 10
7.2679073742
 20
46.9070815507
 10
7.2725912278
 20
46.8961435537
 10
7.2777902312
 20
46.8854408124
 10
7.2834926084
 20
46.8749975717
 10
7.2896854419
 20
46.8648374941
  0
LWPOLYLINE
  5
3C7
100
AcDbEntity
  8
ASSI
100
AcDbPolyline
 62
253
  6
CONTINUOUS
 90
5
 70
0
 10
8.2627084755
 20
77.3372877168
 10
8.2625243748
 20
77.3386401506
 10
8.2623460862
 20
77.3420360652
 10
8.2621736098
 20
77.3474754605
 10
8.262005178
 20
77.3550616261
  0
LINE
  5
3C8
100
AcDbEntity
  8
ASSI
100
AcDbLine
 62
7
  6
CONTINUOUS
 10
-8.8387914318
 20
91.8164222561
 11
-8.9498936624
 21
92.15
  0
LINE
  5
3C9
100
AcDbEntity
  8
ASSI
100
AcDbLine
 62
7
  6
CONTINUOUS
 10
7.3555468846
 20
91.8164222561
 11
7.3
 21
92.15
  0
LWPOLYLINE
  5
3CA
100
AcDbEntity
  8
ASSI
100
AcDbPolyline
 62
7
  6
CONTINUOUS
 90
16
 70
0
 10
-10.0637171191
 20
46.8110610411
 10
-10.0545418038
 20
46.8034852893
 10
-10.0450164051
 20
46.7963547045
 10
-10.0351625059
 20
46.7896854419
 10
-10.0250024283
 20
46.7834926084
 10
-10.0145591876
 20
46.7777902312
 10
-10.0038564463
 20
46.7725912278
 10
-9.9929184493
 20
46.7679073742
 10
-9.9817699738
 20
46.7637492787
 10
-9.970436279
 20
46.7601263583
 10
-9.9589430388
 20
46.7570468183
 10
-9.9473162875
 20
46.7545176323
 10
-9.9355823661
 20
46.7525445259
 10
-9.9237678556
 20
46.7511319658
 10
-9.911899516
 20
46.7502831502
 10
-9.9000042308
 20
46.75
  0
LINE
  5
3CB
100
AcDbEntity
  8
ASSI
100
AcDbLine
 62
7
  6
CONTINUOUS
 10
-7.2558178298
 20
48.8558178298
 11
-8.25
 21
49.85
  0
LINE
  5
3CC
100
AcDbEntity
  8
ASSI
100
AcDbLine
 62
7
  6
CONTINUOUS
 10
-3.9530427099
 20
47.7936421853
 11
-3.7287786016
 21
47.5572703242
  0
LWPOLYLINE
  5
3CD
100
AcDbEntity
  8
ASSI
100
AcDbPolyline
 62
7
  6
CONTINUOUS
 90
3
 70
0
 10
-3.7287786016
 20
47.5572703242
 10
-3.6634012529
 20
47.4874995813
 10
-3.65
 20
47.4730882529
  0
LWPOLYLINE
  5
3CE
100
AcDbEntity
  8
ASSI
100
AcDbPolyline
 62
7
  6
CONTINUOUS
 90
10
 70
0
 10
7.2896854419
 20
46.8648374941
 10
7.2963547045
 20
46.8549835949
 10
7.3034852893
 20
46.8454581962
 10
7.3110610411
 20
46.8362828809
 10
7.3190647995
 20
46.8274784339
 10
7.3274784339
 20
46.8190647995
 10
7.3362828809
 20
46.8110610411
 10
7.3454581962
 20
46.8034852893
 10
7.3549835949
 20
46.7963547045
 10
7.3648374941
 20
46.7896854419
  0
LWPOLYLINE
  5
3CF
100
AcDbEntity
  8
ASSI
100
AcDbPolyline
 62
7
  6
CONTINUOUS
 90
9
 70
0
 10
10.1454823677
 20
95.5473162875
 10
10.1429531817
 20
95.5589430388
 10
10.1398736417
 20
95.570436279
 10
10.1362507213
 20
95.5817699738
 10
10.1320926258
 20
95.5929184493
 10
10.1274087722
 20
95.6038564463
 10
10.1222097688
 20
95.6145591876
 10
10.1165073916
 20
95.6250024283
 10
10.1103145581
 20
95.6351625059
  0
LINE
  5
3D0
100
AcDbEntity
  8
0
100
AcDbLine
 62
253
  6
CONTINUOUS
 10
-7.6600401797
 20
-69.25
 11
0.0
 21
-60.2057112216
  0
LINE
  5
3D1
100
AcDbEntity
  8
ASSI
100
AcDbLine
 62
7
  6
CONTINUOUS
 10
4.45
 20
47.25
 11
4.4063493531
 21
47.2936506469
  0
LINE
  5
3D2
100
AcDbEntity
  8
ASSI
100
AcDbLine
 62
7
  6
CONTINUOUS
 10
3.9530427099
 20
47.7936421853
 11
4.1764546218
 21
47.5581751631
  0
LINE
  5
3D3
100
AcDbEntity
  8
ASSI
100
AcDbLine
 62
7
  6
CONTINUOUS
 10
4.1764546218
 20
47.5581751631
 11
4.241701232
 21
47.4885547705
  0
LINE
  5
3D4
100
AcDbEntity
  8
ASSI
100
AcDbLine
 62
7
  6
CONTINUOUS
 10
4.241701232
 20
47.4885547705
 11
4.2827501258
 21
47.444251151
  0
LINE
  5
3D5
100
AcDbEntity
  8
ASSI
100
AcDbLine
 62
7
  6
CONTINUOUS
 10
4.2827501258
 20
47.444251151
 11
4.3064846713
 21
47.4183453585
  0
LWPOLYLINE
  5
3D6
100
AcDbEntity
  8
ASSI
100
AcDbPolyline
 62
7
  6
CONTINUOUS
 90
19
 70
0
 10
4.3064846713
 20
47.4183453585
 10
4.3273784749
 20
47.3952575288
 10
4.3367825654
 20
47.3847613235
 10
4.3455146656
 20
47.3749199446
 10
4.3535836365
 20
47.3657371632
 10
4.3610042272
 20
47.3572092083
 10
4.3678024024
 20
47.3492829
 10
4.3739833772
 20
47.3419626705
 10
4.3795677762
 20
47.3352440875
 10
4.3845950269
 20
47.3290606746
 10
4.3890738191
 20
47.3234027997
 10
4.393008491
 20
47.3182800948
 10
4.3964190596
 20
47.3136549801
 10
4.3993100856
 20
47.3095212548
 10
4.4016825074
 20
47.3058851196
 10
4.4035432996
 20
47.302727597
 10
4.4048950096
 20
47.3000423611
 10
4.4057388153
 20
47.2978357377
 10
4.406077753
 20
47.2961077269
  0
LWPOLYLINE
  5
3D7
100
AcDbEntity
  8
0
100
AcDbPolyline
 62
253
  6
CONTINUOUS
 90
15
 70
0
 10
-8.1379653877
 20
61.6580110831
 10
-8.1359523756
 20
61.6556953919
 10
-8.1328848754
 20
61.6534760445
 10
-8.1288464666
 20
61.6513530409
 10
-8.1239117749
 20
61.6493081713
 10
-8.118164247
 20
61.6473596455
 10
-8.1116976876
 20
61.6455620937
 10
-8.1045920707
 20
61.6439386331
 10
-8.0969110378
 20
61.6424661465
 10
-8.0887217473
 20
61.6411299124
 10
-8.0800909733
 20
61.6399399352
 10
-8.0710798608
 20
61.6388862105
 10
-8.0617453374
 20
61.6379240036
 10
-8.0521559206
 20
61.6370667816
 10
-8.0119479753
 20
61.6339799513
  0
LINE
  5
3D8
100
AcDbEntity
  8
ASSI
100
AcDbLine
 62
7
  6
CONTINUOUS
 10
7.5666456542
 20
49.9140130513
 11
7.6240084104
 21
49.8329848386
  0
LWPOLYLINE
  5
3D9
100
AcDbEntity
  8
ASSI
100
AcDbPolyline
 62
7
  6
CONTINUOUS
 90
3
 70
0
 10
7.6240084104
 20
49.8329848386
 10
7.7088982221
 20
49.7118318023
 10
7.736684232
 20
49.6717026115
  0
LWPOLYLINE
  5
3DA
100
AcDbEntity
  8
ASSI
100
AcDbPolyline
 62
7
  6
CONTINUOUS
 90
3
 70
0
 10
7.736684232
 20
49.6717026115
 10
7.7910467914
 20
49.5919953171
 10
7.8176867079
 20
49.5526107378
  0
LWPOLYLINE
  5
3DB
100
AcDbEntity
  8
ASSI
100
AcDbPolyline
 62
7
  6
CONTINUOUS
 90
27
 70
0
 10
10.1385775126
 20
95.5545780153
 10
10.135496794
 20
95.5660725264
 10
10.1318725768
 20
95.5774074189
 10
10.1277130725
 20
95.5885570152
 10
10.1230277082
 20
95.5994960488
 10
10.1178271006
 20
95.6101997352
 10
10.1121230353
 20
95.6206438204
 10
10.105928443
 20
95.6308046326
 10
10.0992573629
 20
95.6406591487
 10
10.0921249119
 20
95.6501850429
 10
10.0845472554
 20
95.6593607299
 10
10.0765415612
 20
95.6681654255
 10
10.068125975
 20
95.6765791771
 10
10.0593195834
 20
95.6845829086
 10
10.0501423702
 20
95.6921584695
 10
10.0406151087
 20
95.6992887229
 10
10.030759324
 20
95.7059575601
 10
10.0205972484
 20
95.7121499225
 10
10.0101519949
 20
95.717851711
 10
9.9994474601
 20
95.7230498963
 10
9.988508059
 20
95.7277326699
 10
9.977358447
 20
95.7318895243
 10
9.9660236819
 20
95.7355111341
 10
9.9545277163
 20
95.7385897127
 10
9.942898281
 20
95.7411177026
 10
9.9311667864
 20
95.7430886486
 10
9.9225124747
 20
95.7441779536
  0
LWPOLYLINE
  5
3DC
100
AcDbEntity
  8
ASSI
100
AcDbPolyline
 62
7
  6
CONTINUOUS
 90
29
 70
0
 10
9.9545277163
 20
46.7614102873
 10
9.9660236819
 20
46.7644888659
 10
9.977358447
 20
46.7681104757
 10
9.988508059
 20
46.7722673301
 10
9.9994474601
 20
46.7769501037
 10
10.0101519949
 20
46.782148289
 10
10.0205972484
 20
46.7878500775
 10
10.030759324
 20
46.7940424399
 10
10.0406151087
 20
46.8007112771
 10
10.0501423702
 20
46.8078415305
 10
10.0593195834
 20
46.8154170914
 10
10.068125975
 20
46.8234208229
 10
10.0765415612
 20
46.8318345745
 10
10.0845472554
 20
46.8406392701
 10
10.0921249119
 20
46.8498149571
 10
10.0992573629
 20
46.8593408513
 10
10.105928443
 20
46.8691953674
 10
10.1121230353
 20
46.8793561796
 10
10.1178271006
 20
46.8898002648
 10
10.1230277082
 20
46.9005039512
 10
10.1277130725
 20
46.9114429848
 10
10.1318725768
 20
46.9225925811
 10
10.135496794
 20
46.9339274736
 10
10.1385775126
 20
46.9454219847
 10
10.1411077496
 20
46.957050064
 10
10.1430817682
 20
46.9687853437
 10
10.144495097
 20
46.980601226
 10
10.1453445371
 20
46.9924709443
 10
10.145628166
 20
47.0043676032
  0
LWPOLYLINE
  5
3DD
100
AcDbEntity
  8
ASSI
100
AcDbPolyline
 62
7
  6
CONTINUOUS
 90
12
 70
0
 10
9.9473162875
 20
46.7545176323
 10
9.9589430388
 20
46.7570468183
 10
9.970436279
 20
46.7601263583
 10
9.9817699738
 20
46.7637492787
 10
9.9929184493
 20
46.7679073742
 10
10.0038564463
 20
46.7725912278
 10
10.0145591876
 20
46.7777902312
 10
10.0250024283
 20
46.7834926084
 10
10.0351625059
 20
46.7896854419
 10
10.0450164051
 20
46.7963547045
 10
10.0545418038
 20
46.8034852893
 10
10.0637171191
 20
46.8110610411
  0
LWPOLYLINE
  5
3DE
100
AcDbEntity
  8
ASSI
100
AcDbPolyline
 62
7
  6
CONTINUOUS
 90
4
 70
0
 10
9.9225124747
 20
46.7558220464
 10
9.9311667864
 20
46.7569113514
 10
9.942898281
 20
46.7588822974
 10
9.9545277163
 20
46.7614102873
  0
LWPOLYLINE
  5
3DF
100
AcDbEntity
  8
ASSI
100
AcDbPolyline
 62
253
  6
CONTINUOUS
 90
4
 70
0
 10
-9.9225124747
 20
46.7558220464
 10
-9.9193616109
 20
46.7555013555
 10
-9.9075078683
 20
46.7546544537
 10
-9.8956323968
 20
46.754371834
  0
LINE
  5
3E0
100
AcDbEntity
  8
ASSI
100
AcDbLine
 62
7
  6
CONTINUOUS
 10
-8.0665695018
 20
49.7962645729
 11
-8.25
 21
49.85
  0
LWPOLYLINE
  5
3E1
100
AcDbEntity
  8
ASSI
100
AcDbPolyline
 62
7
  6
CONTINUOUS
 90
13
 70
0
 10
7.3648374941
 20
46.7896854419
 10
7.3749975717
 20
46.7834926084
 10
7.3854408124
 20
46.7777902312
 10
7.3961435537
 20
46.7725912278
 10
7.4070815507
 20
46.7679073742
 10
7.4182300262
 20
46.7637492787
 10
7.429563721
 20
46.7601263583
 10
7.4410569612
 20
46.7570468183
 10
7.4526837125
 20
46.7545176323
 10
7.4644176339
 20
46.7525445259
 10
7.4762321444
 20
46.7511319658
 10
7.488100484
 20
46.7502831502
 10
7.4999957692
 20
46.75
  0
LINE
  5
3E2
100
AcDbEntity
  8
ASSI
100
AcDbLine
 62
7
  6
CONTINUOUS
 10
7.1905416262
 20
48.9140299745
 11
7.2558178298
 21
48.8558178298
  0
LINE
  5
3E3
100
AcDbEntity
  8
0
100
AcDbLine
 62
253
  6
CONTINUOUS
 10
-5.1276844898
 20
61.6778272953
 11
-0.1177970134
 21
56.7
  0
LINE
  5
3E4
100
AcDbEntity
  8
ASSI
100
AcDbLine
 62
253
  6
CONTINUOUS
 10
6.9992174437
 20
57.2508015948
 11
6.9247405723
 21
57.3252784662
  0
LWPOLYLINE
  5
3E5
100
AcDbEntity
  8
RACCORDO
100
AcDbPolyline
 62
7
  6
CONTINUOUS
 90
4
 70
0
 10
9.2921897001
 20
55.6139719437
 10
9.2845578984
 20
55.6216023812
 10
9.2438840491
 20
55.6545330431
 10
9.1999907927
 20
55.6830315682
  0
LWPOLYLINE
  5
3E6
100
AcDbEntity
  8
ASSI
100
AcDbPolyline
 62
7
  6
CONTINUOUS
 90
3
 70
0
 10
-7.736684232
 20
92.8282973885
 10
-7.7910467914
 20
92.9080046829
 10
-7.8176867079
 20
92.9473892622
  0
LWPOLYLINE
  5
3E7
100
AcDbEntity
  8
0
100
AcDbPolyline
 62
7
  6
CONTINUOUS
 90
33
 70
0
 10
-6.5708600522
 20
-59.7100672588
 10
-6.531152627
 20
-59.6918105804
 10
-6.4864090429
 20
-59.6719466408
 10
-6.4363390196
 20
-59.6505786755
 10
-6.3806552413
 20
-59.6284497484
 10
-6.3186742298
 20
-59.6054248797
 10
-6.2502926016
 20
-59.5816390493
 10
-6.1763114154
 20
-59.558240261
 10
-6.0965992385
 20
-59.5353080613
 10
-6.0109597875
 20
-59.5127629036
 10
-5.9204990882
 20
-59.4915141523
 10
-5.8254409058
 20
-59.4717137715
 10
-5.7256564019
 20
-59.453209797
 10
-5.622023274
 20
-59.4364557013
 10
-5.5150712088
 20
-59.421574388
 10
-5.4046001271
 20
-59.4084429534
 10
-5.2904675582
 20
-59.3971461589
 10
-5.1728282211
 20
-59.3877026107
 10
-5.0517716
 20
-59.3800937026
 10
-4.9269906408
 20
-59.3743483771
 10
-4.7984528801
 20
-59.3704779282
 10
-4.6663622004
 20
-59.3684710618
 10
-4.5307257692
 20
-59.3683228386
 10
-4.3916812747
 20
-59.3700556521
 10
-4.2492758732
 20
-59.3736471087
 10
-4.1033632216
 20
-59.3790250884
 10
-3.9539573344
 20
-59.3862245047
 10
-3.8012132275
 20
-59.395210444
 10
-3.6451840621
 20
-59.4058060456
 10
-3.4855887427
 20
-59.4181076409
 10
-3.3228877287
 20
-59.4320188985
 10
-3.1583027962
 20
-59.4470739625
 10
-2.991592522
 20
-59.4634067681
  0
LWPOLYLINE
  5
3E8
100
AcDbEntity
  8
ASSI
100
AcDbPolyline
 62
7
  6
CONTINUOUS
 90
9
 70
0
 10
-7.4526837125
 20
46.7545176323
 10
-7.4410569612
 20
46.7570468183
 10
-7.429563721
 20
46.7601263583
 10
-7.4182300262
 20
46.7637492787
 10
-7.4070815507
 20
46.7679073742
 10
-7.3961435537
 20
46.7725912278
 10
-7.3854408124
 20
46.7777902312
 10
-7.3749975717
 20
46.7834926084
 10
-7.3648374941
 20
46.7896854419
  0
LWPOLYLINE
  5
3E9
100
AcDbEntity
  8
ASSI
100
AcDbPolyline
 62
7
  6
CONTINUOUS
 90
5
 70
0
 10
9.9000042308
 20
46.75
 10
9.911899516
 20
46.7502831502
 10
9.9237678556
 20
46.7511319658
 10
9.9355823661
 20
46.7525445259
 10
9.9473162875
 20
46.7545176323
  0
LWPOLYLINE
  5
3EA
100
AcDbEntity
  8
ASSI
100
AcDbPolyline
 62
253
  6
CONTINUOUS
 90
4
 70
0
 10
9.8956323968
 20
46.754371834
 10
9.9075078683
 20
46.7546544537
 10
9.9193616109
 20
46.7555013555
 10
9.9225124747
 20
46.7558220464
  0
LWPOLYLINE
  5
3EB
100
AcDbEntity
  8
ASSI
100
AcDbPolyline
 62
7
  6
CONTINUOUS
 90
5
 70
0
 10
-7.4999957692
 20
46.75
 10
-7.488100484
 20
46.7502831502
 10
-7.4762321444
 20
46.7511319658
 10
-7.4644176339
 20
46.7525445259
 10
-7.4526837125
 20
46.7545176323
  0
LWPOLYLINE
  5
3EC
100
AcDbEntity
  8
ASSI
100
AcDbPolyline
 62
7
  6
CONTINUOUS
 90
34
 70
0
 10
-7.5043676032
 20
46.754371834
 10
-7.4924725817
 20
46.7546553848
 10
-7.480604505
 20
46.7555045897
 10
-7.4687902571
 20
46.7569175251
 10
-7.4570565999
 20
46.7588909904
 10
-7.4454301126
 20
46.7614205152
 10
-7.433937132
 20
46.7645003696
 10
-7.4226036922
 20
46.768123577
 10
-7.411455466
 20
46.77228193
 10
-7.4005177065
 20
46.7769660091
 10
-7.3898151904
 20
46.7821652038
 10
-7.3793721611
 20
46.7878677366
 10
-7.3692122745
 20
46.7940606902
 10
-7.359358545
 20
46.800730036
 10
-7.3498332936
 20
46.8078606666
 10
-7.3406580969
 20
46.8154364293
 10
-7.3318537389
 20
46.8234401635
 10
-7.3234401635
 20
46.8318537389
 10
-7.3154364293
 20
46.8406580969
 10
-7.3078606666
 20
46.8498332936
 10
-7.300730036
 20
46.859358545
 10
-7.2940606902
 20
46.8692122745
 10
-7.2878677366
 20
46.8793721611
 10
-7.2821652038
 20
46.8898151904
 10
-7.2769660091
 20
46.9005177065
 10
-7.27228193
 20
46.911455466
 10
-7.268123577
 20
46.9226036922
 10
-7.2645003696
 20
46.933937132
 10
-7.2614205152
 20
46.9454301126
 10
-7.2588909904
 20
46.9570565999
 10
-7.2569175251
 20
46.9687902571
 10
-7.2555045897
 20
46.980604505
 10
-7.2546553848
 20
46.9924725817
 10
-7.254371834
 20
47.0043676032
  0
LWPOLYLINE
  5
3ED
100
AcDbEntity
  8
ASSI
100
AcDbPolyline
 62
7
  6
CONTINUOUS
 90
40
 70
0
 10
10.6495078465
 20
48.85
 10
10.6695213553
 20
48.8504010881
 10
10.6895385975
 20
48.8516068248
 10
10.7095271236
 20
48.8536196422
 10
10.7294720748
 20
48.8564435376
 10
10.7493224517
 20
48.8600768536
 10
10.7689924786
 20
48.8645051026
 10
10.7884327233
 20
48.869713848
 10
10.8076305124
 20
48.8756963098
 10
10.8265570439
 20
48.8824413954
 10
10.8451651761
 20
48.88992909
 10
10.8634434177
 20
48.8981515192
 10
10.8814144319
 20
48.9071206009
 10
10.8990779584
 20
48.916844297
 10
10.9163704854
 20
48.9272959142
 10
10.9332204096
 20
48.9384345914
 10
10.9495955917
 20
48.9502376037
 10
10.9654752952
 20
48.9626884168
 10
10.980811593
 20
48.9757458796
 10
10.9955568138
 20
48.9893606529
 10
11.0097179067
 20
49.0035301079
 10
11.0233263117
 20
49.0182857044
 10
11.0363788555
 20
49.0336341068
 10
11.0488264369
 20
49.0495281814
 10
11.0606288795
 20
49.0659213675
 10
11.0717697748
 20
49.0827939219
 10
11.0822254754
 20
49.1001131943
 10
11.0919544379
 20
49.1178067252
 10
11.100929931
 20
49.1358115946
 10
11.1091593246
 20
49.1541271517
 10
11.1166533905
 20
49.1727735172
 10
11.12340379
 20
49.1917378339
 10
11.1293910418
 20
49.2109741611
 10
11.1346045074
 20
49.230454937
 10
11.139037304
 20
49.2501678015
 10
11.1426747096
 20
49.2700629768
 10
11.1455021807
 20
49.2900549895
 10
11.1475178615
 20
49.3100929111
 10
11.1487254783
 20
49.3301617083
 10
11.1491272468
 20
49.3502288521
  0
LINE
  5
3EE
100
AcDbEntity
  8
ASSI
100
AcDbLine
 62
7
  6
CONTINUOUS
 10
-9.8956323968
 20
46.754371834
 11
-7.5043676032
 21
46.754371834
  0
LINE
  5
3EF
100
AcDbEntity
  8
ASSI
100
AcDbLine
 62
7
  6
CONTINUOUS
 10
7.5043676032
 20
46.754371834
 11
9.8956323968
 21
46.754371834
  0
LINE
  5
3F0
100
AcDbEntity
  8
ASSI
100
AcDbLine
 62
253
  6
CONTINUOUS
 10
7.254371834
 20
47.0043676032
 11
10.145628166
 21
47.0043676032
  0
LINE
  5
3F1
100
AcDbEntity
  8
ASSI
100
AcDbLine
 62
253
  6
CONTINUOUS
 10
-7.254371834
 20
47.0043676032
 11
-10.145628166
 21
47.0043676032
  0
LINE
  5
3F2
100
AcDbEntity
  8
ASSI
100
AcDbLine
 62
7
  6
CONTINUOUS
 10
-4.45
 20
47.25
 11
-3.65
 21
47.25
  0
LINE
  5
3F3
100
AcDbEntity
  8
ASSI
100
AcDbLine
 62
7
  6
CONTINUOUS
 10
3.65
 20
47.25
 11
4.45
 21
47.25
  0
LINE
  5
3F4
100
AcDbEntity
  8
ASSI
100
AcDbLine
 62
7
  6
CONTINUOUS
 10
-4.4063493531
 20
47.2936506469
 11
-3.65
 21
47.2936506469
  0
LINE
  5
3F5
100
AcDbEntity
  8
ASSI
100
AcDbLine
 62
7
  6
CONTINUOUS
 10
3.65
 20
47.2936506469
 11
4.4063493531
 21
47.2936506469
  0
LINE
  5
3F6
100
AcDbEntity
  8
ASSI
100
AcDbLine
 62
253
  6
CONTINUOUS
 10
7.254371834
 20
47.4056624327
 11
10.145628166
 21
47.4056624327
  0
LINE
  5
3F7
100
AcDbEntity
  8
ASSI
100
AcDbLine
 62
253
  6
CONTINUOUS
 10
-7.254371834
 20
47.4056624327
 11
-10.145628166
 21
47.4056624327
  0
LINE
  5
3F8
100
AcDbEntity
  8
ASSI
100
AcDbLine
 62
253
  6
CONTINUOUS
 10
9.8956323968
 20
47.6221687836
 11
7.5043676032
 21
47.6221687836
  0
LINE
  5
3F9
100
AcDbEntity
  8
ASSI
100
AcDbLine
 62
253
  6
CONTINUOUS
 10
-7.5043676032
 20
47.6221687836
 11
-9.8956323968
 21
47.6221687836
  0
LINE
  5
3FA
100
AcDbEntity
  8
ASSI
100
AcDbLine
 62
7
  6
CONTINUOUS
 10
-9.9007229979
 20
48.1273502692
 11
-7.4992770021
 21
48.1273502692
  0
LINE
  5
3FB
100
AcDbEntity
  8
ASSI
100
AcDbLine
 62
7
  6
CONTINUOUS
 10
9.9007229979
 20
48.1273502692
 11
7.4992770021
 21
48.1273502692
  0
LINE
  5
3FC
100
AcDbEntity
  8
0
100
AcDbLine
 62
7
  6
CONTINUOUS
 10
6.25
 20
48.75
 11
-6.25
 21
48.75
  0
LINE
  5
3FD
100
AcDbEntity
  8
ASSI
100
AcDbLine
 62
7
  6
CONTINUOUS
 10
-7.0500575117
 20
48.85
 11
-6.5494601419
 21
48.85
  0
LINE
  5
3FE
100
AcDbEntity
  8
ASSI
100
AcDbLine
 62
7
  6
CONTINUOUS
 10
6.5494601427
 20
48.85
 11
7.0500575117
 21
48.85
  0
LINE
  5
3FF
100
AcDbEntity
  8
ASSI
100
AcDbLine
 62
7
  6
CONTINUOUS
 10
-10.6417158217
 20
48.8558178298
 11
-7.2558178298
 21
48.8558178298
  0
LINE
  5
400
100
AcDbEntity
  8
ASSI
100
AcDbLine
 62
7
  6
CONTINUOUS
 10
7.2558178298
 20
48.8558178298
 11
10.6417158217
 21
48.8558178298
  0
LINE
  5
401
100
AcDbEntity
  8
ASSI
100
AcDbLine
 62
7
  6
CONTINUOUS
 10
-7.1905416262
 20
48.9140299745
 11
-6.6201677064
 21
48.9140299745
  0
LINE
  5
402
100
AcDbEntity
  8
ASSI
100
AcDbLine
 62
7
  6
CONTINUOUS
 10
6.6201677055
 20
48.9140299745
 11
7.1905416262
 21
48.9140299745
  0
LINE
  5
403
100
AcDbEntity
  8
0
100
AcDbLine
 62
253
  6
CONTINUOUS
 10
6.75
 20
49.25
 11
-6.75
 21
49.25
  0
LINE
  5
404
100
AcDbEntity
  8
ASSI
100
AcDbLine
 62
253
  6
CONTINUOUS
 10
-7.5666456542
 20
49.9140130513
 11
-6.75
 21
49.9140130513
  0
LINE
  5
405
100
AcDbEntity
  8
ASSI
100
AcDbLine
 62
253
  6
CONTINUOUS
 10
6.75
 20
49.9140130513
 11
7.5666456542
 21
49.9140130513
  0
LINE
  5
406
100
AcDbEntity
  8
ASSI
100
AcDbLine
 62
7
  6
CONTINUOUS
 10
11.1665823117
 20
50.2273502692
 11
11.1417094756
 21
50.2273502692
  0
LINE
  5
407
100
AcDbEntity
  8
ASSI
100
AcDbLine
 62
7
  6
CONTINUOUS
 10
-11.1665823117
 20
50.2273502692
 11
-11.1417094756
 21
50.2273502692
  0
LINE
  5
408
100
AcDbEntity
  8
ASSI
100
AcDbLine
 62
7
  6
CONTINUOUS
 10
-7.2040044543
 20
50.35
 11
-8.25
 21
50.35
  0
LINE
  5
409
100
AcDbEntity
  8
ASSI
100
AcDbLine
 62
7
  6
CONTINUOUS
 10
7.2040044543
 20
50.35
 11
8.25
 21
50.35
  0
LINE
  5
40A
100
AcDbEntity
  8
0
100
AcDbLine
 62
7
  6
CONTINUOUS
 10
-6.4468984791
 20
50.75
 11
6.4468984791
 21
50.75
  0
LINE
  5
40B
100
AcDbEntity
  8
0
100
AcDbLine
 62
7
  6
CONTINUOUS
 10
-6.4468984791
 20
52.25
 11
6.4468984791
 21
52.25
  0
LINE
  5
40C
100
AcDbEntity
  8
ASSI
100
AcDbLine
 62
253
  6
CONTINUOUS
 10
10.6417158217
 20
48.8558178298
 11
10.6504426895
 21
48.85
  0
LINE
  5
40D
100
AcDbEntity
  8
ASSI
100
AcDbLine
 62
253
  6
CONTINUOUS
 10
11.1417094756
 20
49.3558009068
 11
11.1504363434
 21
49.349983077
  0
LINE
  5
40E
100
AcDbEntity
  8
ASSI
100
AcDbLine
 62
7
  6
CONTINUOUS
 10
8.3325462644
 20
61.6674537356
 11
8.35
 21
61.65
  0
LINE
  5
40F
100
AcDbEntity
  8
ASSI
100
AcDbLine
 62
7
  6
CONTINUOUS
 10
8.3325462644
 20
63.0674537356
 11
8.35
 21
63.05
  0
LINE
  5
410
100
AcDbEntity
  8
ASSI
100
AcDbLine
 62
253
  6
CONTINUOUS
 10
-7.5
 20
81.6500190385
 11
-7.4101132618
 21
81.5601323002
  0
LWPOLYLINE
  5
411
100
AcDbEntity
  8
ASSI
100
AcDbPolyline
 62
7
  6
CONTINUOUS
 90
16
 70
0
 10
9.6451445666
 20
63.9834852763
 10
9.6454289239
 20
63.9831371058
 10
9.6457050999
 20
63.9825128088
 10
9.6459730946
 20
63.9816123854
 10
9.6462327419
 20
63.9804209506
 10
9.6464842078
 20
63.9789533894
 10
9.6467279906
 20
63.9772543565
 10
9.6469640492
 20
63.9753322663
 10
9.6471924245
 20
63.9731787046
 10
9.6474137384
 20
63.9708130833
 10
9.6476278966
 20
63.9682466499
 10
9.6478349932
 20
63.965468157
 10
9.6480359325
 20
63.9624632741
 10
9.6482310724
 20
63.9592402963
 10
9.6484200549
 20
63.9557909285
 10
9.6486027103
 20
63.9520759546
  0
LINE
  5
412
100
AcDbEntity
  8
ASSI
100
AcDbLine
 62
7
  6
CONTINUOUS
 10
-7.5666456542
 20
92.5859869487
 11
-7.6240084104
 21
92.6670151614
  0
LWPOLYLINE
  5
413
100
AcDbEntity
  8
ASSI
100
AcDbPolyline
 62
7
  6
CONTINUOUS
 90
3
 70
0
 10
-7.6240084104
 20
92.6670151614
 10
-7.7088982221
 20
92.7881681977
 10
-7.736684232
 20
92.8282973885
  0
LWPOLYLINE
  5
414
100
AcDbEntity
  8
ASSI
100
AcDbPolyline
 62
7
  6
CONTINUOUS
 90
10
 70
0
 10
-7.2896854419
 20
95.6351625059
 10
-7.2963547045
 20
95.6450164051
 10
-7.3034852893
 20
95.6545418038
 10
-7.3110610411
 20
95.6637171191
 10
-7.3190647995
 20
95.6725215661
 10
-7.3274784339
 20
95.6809352005
 10
-7.3362828809
 20
95.6889389589
 10
-7.3454581962
 20
95.6965147107
 10
-7.3549835949
 20
95.7036452955
 10
-7.3648374941
 20
95.7103145581
  0
LWPOLYLINE
  5
415
100
AcDbEntity
  8
RACCORDO
100
AcDbPolyline
 62
7
  6
CONTINUOUS
 90
4
 70
0
 10
-9.1045001531
 20
55.7255364706
 10
-9.0539496804
 20
55.7390778403
 10
-9.002260961
 20
55.7472621262
 10
-8.9998631449
 20
55.7473877442
  0
LWPOLYLINE
  5
416
100
AcDbEntity
  8
0
100
AcDbPolyline
 62
7
  6
CONTINUOUS
 90
5
 70
0
 10
-0.1178037435
 20
56.7
 10
-0.1121743919
 20
56.7010208825
 10
-0.1067604495
 20
56.7017802968
 10
-0.1015619282
 20
56.7022782428
 10
-0.0966161823
 20
56.7024281392
  0
LINE
  5
417
100
AcDbEntity
  8
ASSI
100
AcDbLine
 62
7
  6
CONTINUOUS
 10
8.2547430141
 20
55.742225046
 11
8.4118365096
 21
55.75
  0
LINE
  5
418
100
AcDbEntity
  8
0
100
AcDbLine
 62
7
  6
CONTINUOUS
 10
-6.7231773122
 20
56.7002965176
 11
-6.6975424481
 21
56.7010677107
  0
LWPOLYLINE
  5
419
100
AcDbEntity
  8
0
100
AcDbPolyline
 62
7
  6
CONTINUOUS
 90
6
 70
0
 10
0.1178037435
 20
56.7
 10
0.1469521427
 20
56.7007855343
 10
0.1761303079
 20
56.7013073051
 10
0.2053376833
 20
56.7015653121
 10
0.2345797651
 20
56.7014573936
 10
0.2931294609
 20
56.7007567517
  0
LWPOLYLINE
  5
41A
100
AcDbEntity
  8
0
100
AcDbPolyline
 62
7
  6
CONTINUOUS
 90
6
 70
0
 10
0.088059482
 20
56.7022085759
 10
0.0976892984
 20
56.702432787
 10
0.1026099608
 20
56.7022820496
 10
0.1076030837
 20
56.7017830912
 10
0.1126676797
 20
56.701022408
 10
0.1178037435
 20
56.7
  0
LINE
  5
41B
100
AcDbEntity
  8
0
100
AcDbLine
 62
7
  6
CONTINUOUS
 10
-6.6975424481
 20
56.7010677107
 11
-6.6872196929
 21
56.7013084263
  0
LINE
  5
41C
100
AcDbEntity
  8
0
100
AcDbLine
 62
7
  6
CONTINUOUS
 10
-6.6872196929
 20
56.7013084263
 11
-6.6753184649
 21
56.7015235359
  0
LWPOLYLINE
  5
41D
100
AcDbEntity
  8
0
100
AcDbPolyline
 62
7
  6
CONTINUOUS
 90
6
 70
0
 10
-0.0380884671
 20
56.7021291389
 10
-0.0336214532
 20
56.7022029447
 10
-0.0291748341
 20
56.7023145095
 10
-0.0247403201
 20
56.702447103
 10
-0.0203005425
 20
56.7025537774
 10
-0.0158572484
 20
56.7026148757
  0
LINE
  5
41E
100
AcDbEntity
  8
0
100
AcDbLine
 62
7
  6
CONTINUOUS
 10
-0.2946550813
 20
56.7006386862
 11
-0.2356348572
 21
56.7013810529
  0
LINE
  5
41F
100
AcDbEntity
  8
0
100
AcDbLine
 62
7
  6
CONTINUOUS
 10
-6.6753184649
 20
56.7015235359
 11
-6.661754458
 21
56.7016911547
  0
LINE
  5
420
100
AcDbEntity
  8
0
100
AcDbLine
 62
7
  6
CONTINUOUS
 10
-0.0470512895
 20
56.7020413707
 11
-0.0380884671
 21
56.7021291389
  0
LINE
  5
421
100
AcDbEntity
  8
0
100
AcDbLine
 62
7
  6
CONTINUOUS
 10
-6.661754458
 20
56.7016911547
 11
-6.6463419712
 21
56.7017989579
  0
LINE
  5
422
100
AcDbEntity
  8
0
100
AcDbLine
 62
7
  6
CONTINUOUS
 10
-0.0158572484
 20
56.7026148757
 11
-0.0069322773
 21
56.7026713378
  0
LWPOLYLINE
  5
423
100
AcDbEntity
  8
0
100
AcDbPolyline
 62
7
  6
CONTINUOUS
 90
5
 70
0
 10
-0.2356348572
 20
56.7013810529
 10
-0.2061504843
 20
56.7015104237
 10
-0.1766832703
 20
56.7012716337
 10
-0.1472341675
 20
56.7007681591
 10
-0.1178037435
 20
56.7
  0
LINE
  5
424
100
AcDbEntity
  8
0
100
AcDbLine
 62
7
  6
CONTINUOUS
 10
0.0605690503
 20
56.7020414975
 11
0.088059482
 21
56.7022085759
  0
LINE
  5
425
100
AcDbEntity
  8
0
100
AcDbLine
 62
7
  6
CONTINUOUS
 10
-0.3833123283
 20
56.7001786433
 11
-0.2946550813
 21
56.7006386862
  0
LINE
  5
426
100
AcDbEntity
  8
0
100
AcDbLine
 62
7
  6
CONTINUOUS
 10
6.3577418809
 20
56.7007425758
 11
6.5677133601
 21
56.7016720376
  0
LINE
  5
427
100
AcDbEntity
  8
0
100
AcDbLine
 62
7
  6
CONTINUOUS
 10
0.4677841565
 20
56.7002740472
 11
1.0157762224
 21
56.7022960372
  0
LINE
  5
428
100
AcDbEntity
  8
0
100
AcDbLine
 62
7
  6
CONTINUOUS
 10
-6.75
 20
53.75
 11
-2.0
 21
53.75
  0
LINE
  5
429
100
AcDbEntity
  8
0
100
AcDbLine
 62
7
  6
CONTINUOUS
 10
2.0
 20
53.75
 11
6.75
 21
53.75
  0
LINE
  5
42A
100
AcDbEntity
  8
0
100
AcDbLine
 62
7
  6
CONTINUOUS
 10
-6.75
 20
55.25
 11
-2.0
 21
55.25
  0
LINE
  5
42B
100
AcDbEntity
  8
0
100
AcDbLine
 62
7
  6
CONTINUOUS
 10
2.0
 20
55.25
 11
6.75
 21
55.25
  0
LINE
  5
42C
100
AcDbEntity
  8
RACCORDO
100
AcDbLine
 62
7
  6
CONTINUOUS
 10
9.15
 20
55.65
 11
6.75
 21
55.65
  0
LINE
  5
42D
100
AcDbEntity
  8
RACCORDO
100
AcDbLine
 62
7
  6
CONTINUOUS
 10
-6.75
 20
55.65
 11
-9.15
 21
55.65
  0
LINE
  5
42E
100
AcDbEntity
  8
RACCORDO
100
AcDbLine
 62
7
  6
CONTINUOUS
 10
-8.9376764876
 20
55.7438387145
 11
-8.2873473005
 21
55.7438387145
  0
LINE
  5
42F
100
AcDbEntity
  8
RACCORDO
100
AcDbLine
 62
7
  6
CONTINUOUS
 10
8.2873473005
 20
55.7438387145
 11
8.9376764876
 21
55.7438387145
  0
LINE
  5
430
100
AcDbEntity
  8
ASSI
100
AcDbLine
 62
7
  6
CONTINUOUS
 10
-8.9999999971
 20
55.75
 11
-8.4118365096
 21
55.75
  0
LINE
  5
431
100
AcDbEntity
  8
ASSI
100
AcDbLine
 62
7
  6
CONTINUOUS
 10
8.9999999971
 20
55.75
 11
8.4118365096
 21
55.75
  0
LINE
  5
432
100
AcDbEntity
  8
0
100
AcDbLine
 62
7
  6
CONTINUOUS
 10
-2.3208669953
 20
56.70089673
 11
-1.2907647989
 21
56.7025021872
  0
LINE
  5
433
100
AcDbEntity
  8
ASSI
100
AcDbLine
 62
7
  6
CONTINUOUS
 10
-6.9992174437
 20
57.2508015948
 11
-6.9038813043
 21
57.2508015948
  0
LINE
  5
434
100
AcDbEntity
  8
ASSI
100
AcDbLine
 62
7
  6
CONTINUOUS
 10
6.9038813043
 20
57.2508015948
 11
6.9992174437
 21
57.2508015948
  0
LINE
  5
435
100
AcDbEntity
  8
ASSI
100
AcDbLine
 62
7
  6
CONTINUOUS
 10
-8.5664091763
 20
58.839021667
 11
-7.410978333
 21
58.839021667
  0
LINE
  5
436
100
AcDbEntity
  8
ASSI
100
AcDbLine
 62
7
  6
CONTINUOUS
 10
8.5664091763
 20
58.839021667
 11
7.410978333
 21
58.839021667
  0
LINE
  5
437
100
AcDbEntity
  8
0
100
AcDbLine
 62
7
  6
CONTINUOUS
 10
6.0326307705
 20
56.7007178797
 11
6.3577418809
 21
56.7007425758
  0
LINE
  5
438
100
AcDbEntity
  8
0
100
AcDbLine
 62
7
  6
CONTINUOUS
 10
-6.6463419712
 20
56.7017989579
 11
-6.6192855992
 21
56.701833965
  0
LINE
  5
439
100
AcDbEntity
  8
0
100
AcDbLine
 62
7
  6
CONTINUOUS
 10
-0.0560384348
 20
56.7020289293
 11
-0.0470512895
 21
56.7020413707
  0
LINE
  5
43A
100
AcDbEntity
  8
0
100
AcDbLine
 62
7
  6
CONTINUOUS
 10
-0.0069322773
 20
56.7026713378
 11
0.0021479405
 21
56.7026778546
  0
LINE
  5
43B
100
AcDbEntity
  8
0
100
AcDbLine
 62
7
  6
CONTINUOUS
 10
-0.5000119533
 20
56.7001511026
 11
-0.3833123283
 21
56.7001786433
  0
LINE
  5
43C
100
AcDbEntity
  8
0
100
AcDbLine
 62
7
  6
CONTINUOUS
 10
1.0157762224
 20
56.7022960372
 11
1.3865385891
 21
56.7023036511
  0
LWPOLYLINE
  5
43D
100
AcDbEntity
  8
0
100
AcDbPolyline
 62
7
  6
CONTINUOUS
 90
13
 70
0
 10
6.7187844363
 20
56.7002949623
 10
6.7219827918
 20
56.7002899559
 10
6.7250076557
 20
56.700300305
 10
6.727871093
 20
56.7003305615
 10
6.7305781852
 20
56.7003827058
 10
6.7331185823
 20
56.7004547575
 10
6.7354810763
 20
56.7005453276
 10
6.7376641903
 20
56.7007085773
 10
6.7396695831
 20
56.7008903454
 10
6.7414938991
 20
56.700926759
 10
6.7431371405
 20
56.7007631938
 10
6.7446015331
 20
56.7004542742
 10
6.7458880824
 20
56.7
  0
LINE
  5
43E
100
AcDbEntity
  8
0
100
AcDbLine
 62
7
  6
CONTINUOUS
 10
6.5677133601
 20
56.7016720376
 11
6.603969019
 21
56.701672969
  0
LINE
  5
43F
100
AcDbEntity
  8
0
100
AcDbLine
 62
7
  6
CONTINUOUS
 10
1.3865385891
 20
56.7023036511
 11
6.0326307705
 21
56.7007178797
  0
LINE
  5
440
100
AcDbEntity
  8
0
100
AcDbLine
 62
7
  6
CONTINUOUS
 10
-6.4623113652
 20
56.7009112412
 11
-2.3208669953
 21
56.70089673
  0
LINE
  5
441
100
AcDbEntity
  8
0
100
AcDbLine
 62
7
  6
CONTINUOUS
 10
-1.2907647989
 20
56.7025021872
 11
-0.9370906299
 21
56.7020371259
  0
LINE
  5
442
100
AcDbEntity
  8
0
100
AcDbLine
 62
7
  6
CONTINUOUS
 10
0.3517876261
 20
56.7004327379
 11
0.4677841565
 21
56.7002740472
  0
LWPOLYLINE
  5
443
100
AcDbEntity
  8
0
100
AcDbPolyline
 62
7
  6
CONTINUOUS
 90
3
 70
0
 10
0.047105008
 20
56.702044352
 10
0.0515928427
 20
56.7020285228
 10
0.0605690503
 20
56.7020414975
  0
LINE
  5
444
100
AcDbEntity
  8
ASSI
100
AcDbLine
 62
253
  6
CONTINUOUS
 10
8.7431875371
 20
58.9386824103
 11
7.4101132618
 21
58.9390178593
  0
LINE
  5
445
100
AcDbEntity
  8
0
100
AcDbLine
 62
7
  6
CONTINUOUS
 10
-0.9370906299
 20
56.7020371259
 11
-0.5000119533
 21
56.7001511026
  0
LWPOLYLINE
  5
446
100
AcDbEntity
  8
0
100
AcDbPolyline
 62
7
  6
CONTINUOUS
 90
8
 70
0
 10
0.0021479405
 20
56.7026778546
 10
0.0156836932
 20
56.7026190065
 10
0.0201686069
 20
56.7025633242
 10
0.0246457448
 20
56.7024572889
 10
0.0291169375
 20
56.7023231506
 10
0.0335969823
 20
56.7022098896
 10
0.0380953873
 20
56.7021347668
 10
0.047105008
 20
56.702044352
  0
LINE
  5
447
100
AcDbEntity
  8
0
100
AcDbLine
 62
7
  6
CONTINUOUS
 10
0.2931294609
 20
56.7007567517
 11
0.3517876261
 21
56.7004327379
  0
LINE
  5
448
100
AcDbEntity
  8
0
100
AcDbLine
 62
7
  6
CONTINUOUS
 10
-6.6192855992
 20
56.701833965
 11
-6.5611838638
 21
56.7015476971
  0
LWPOLYLINE
  5
449
100
AcDbEntity
  8
0
100
AcDbPolyline
 62
7
  6
CONTINUOUS
 90
3
 70
0
 10
-0.0872589933
 20
56.7022032713
 10
-0.0783091903
 20
56.7021422189
 10
-0.0560384348
 20
56.7020289293
  0
LINE
  5
44A
100
AcDbEntity
  8
0
100
AcDbLine
 62
7
  6
CONTINUOUS
 10
-6.5611838638
 20
56.7015476971
 11
-6.4623113652
 21
56.7009112412
  0
LINE
  5
44B
100
AcDbEntity
  8
0
100
AcDbLine
 62
7
  6
CONTINUOUS
 10
6.603969019
 20
56.701672969
 11
6.6340569756
 21
56.7015065802
  0
LINE
  5
44C
100
AcDbEntity
  8
ASSI
100
AcDbLine
 62
253
  6
CONTINUOUS
 10
8.818077673
 20
58.9382223003
 11
8.7431875371
 21
58.9386824103
  0
LINE
  5
44D
100
AcDbEntity
  8
0
100
AcDbLine
 62
7
  6
CONTINUOUS
 10
6.7118956629
 20
56.7003505589
 11
6.7187844363
 21
56.7002949623
  0
LINE
  5
44E
100
AcDbEntity
  8
0
100
AcDbLine
 62
7
  6
CONTINUOUS
 10
6.6340569756
 20
56.7015065802
 11
6.6589400265
 21
56.7012190277
  0
LWPOLYLINE
  5
44F
100
AcDbEntity
  8
ASSI
100
AcDbPolyline
 62
253
  6
CONTINUOUS
 90
3
 70
0
 10
8.8483169625
 20
58.9378694387
 10
8.8422634428
 20
58.937959263
 10
8.818077673
 20
58.9382223003
  0
LINE
  5
450
100
AcDbEntity
  8
0
100
AcDbLine
 62
7
  6
CONTINUOUS
 10
6.6998697246
 20
56.7005253326
 11
6.7118956629
 21
56.7003505589
  0
LINE
  5
451
100
AcDbEntity
  8
0
100
AcDbLine
 62
7
  6
CONTINUOUS
 10
6.6589400265
 20
56.7012190277
 11
6.6998697246
 21
56.7005253326
  0
LINE
  5
452
100
AcDbEntity
  8
0
100
AcDbLine
 62
7
  6
CONTINUOUS
 10
-0.0966161823
 20
56.7024281392
 11
-0.0872589933
 21
56.7022032713
  0
LINE
  5
453
100
AcDbEntity
  8
ASSI
100
AcDbLine
 62
7
  6
CONTINUOUS
 10
-8.2547430141
 20
55.742225046
 11
-8.4118365096
 21
55.75
  0
LWPOLYLINE
  5
454
100
AcDbEntity
  8
0
100
AcDbPolyline
 62
7
  6
CONTINUOUS
 90
18
 70
0
 10
6.7476148831
 20
56.7010843266
 10
6.7484978826
 20
56.7009084303
 10
6.7486342251
 20
56.7008860725
 10
6.7487603364
 20
56.7008699582
 10
6.7488766789
 20
56.7008598736
 10
6.7489850225
 20
56.7008575708
 10
6.749085813
 20
56.7008632314
 10
6.7491792955
 20
56.7008766738
 10
6.7492665946
 20
56.7008991062
 10
6.7493478702
 20
56.7009311162
 10
6.749423361
 20
56.7009721161
 10
6.7494940147
 20
56.7010215513
 10
6.7495599693
 20
56.7010822258
 10
6.7496211515
 20
56.7011513356
 10
6.7496779495
 20
56.7012199131
 10
6.7497304452
 20
56.7012896602
 10
6.7497784339
 20
56.701358875
 10
6.7498218059
 20
56.7014134845
  0
LWPOLYLINE
  5
455
100
AcDbEntity
  8
0
100
AcDbPolyline
 62
7
  6
CONTINUOUS
 90
3
 70
0
 10
6.7480144328
 20
56.7010050682
 10
6.7481898365
 20
56.7009688405
 10
6.7483506179
 20
56.7009368177
  0
LWPOLYLINE
  5
456
100
AcDbEntity
  8
RACCORDO
100
AcDbPolyline
 62
7
  6
CONTINUOUS
 90
4
 70
0
 10
9.1045001531
 20
55.7255364706
 10
9.0539496804
 20
55.7390778403
 10
9.002260961
 20
55.7472621262
 10
8.9998631449
 20
55.7473877442
  0
LWPOLYLINE
  5
457
100
AcDbEntity
  8
RACCORDO
100
AcDbPolyline
 62
7
  6
CONTINUOUS
 90
3
 70
0
 10
9.1999907927
 20
55.6830315682
 10
9.153358993
 20
55.7067860309
 10
9.1045001531
 20
55.7255364706
  0
LINE
  5
458
100
AcDbEntity
  8
ASSI
100
AcDbLine
 62
253
  6
CONTINUOUS
 10
-7.0000190385
 20
82.15
 11
-6.9101323002
 21
82.0601132618
  0
LINE
  5
459
100
AcDbEntity
  8
ASSI
100
AcDbLine
 62
7
  6
CONTINUOUS
 10
-5.5
 20
82.15
 11
-5.4280024353
 21
82.0780024353
  0
LWPOLYLINE
  5
45A
100
AcDbEntity
  8
ASSI
100
AcDbPolyline
 62
7
  6
CONTINUOUS
 90
16
 70
0
 10
9.6451445666
 20
71.6834852763
 10
9.6454289239
 20
71.6831371058
 10
9.6457050999
 20
71.6825128088
 10
9.6459730946
 20
71.6816123854
 10
9.6462327419
 20
71.6804209506
 10
9.6464842078
 20
71.6789533894
 10
9.6467279906
 20
71.6772543565
 10
9.6469640492
 20
71.6753322663
 10
9.6471924245
 20
71.6731787046
 10
9.6474137384
 20
71.6708130833
 10
9.6476278966
 20
71.6682466499
 10
9.6478349932
 20
71.665468157
 10
9.6480359325
 20
71.6624632741
 10
9.6482310724
 20
71.6592402963
 10
9.6484200549
 20
71.6557909285
 10
9.6486027103
 20
71.6520759546
  0
LINE
  5
45B
100
AcDbEntity
  8
0
100
AcDbLine
 62
253
  6
CONTINUOUS
 10
-8.0236346383
 20
61.774982126
 11
-8.0036604295
 21
61.7769509582
  0
LWPOLYLINE
  5
45C
100
AcDbEntity
  8
ASSI
100
AcDbPolyline
 62
253
  6
CONTINUOUS
 90
10
 70
0
 10
8.7543477005
 20
63.1378732464
 10
8.7706346263
 20
63.1394383798
 10
8.7864285711
 20
63.1439829524
 10
8.8012514615
 20
63.1513694099
 10
8.8146546163
 20
63.1613741759
 10
8.8262323253
 20
63.1736944177
 10
8.8356341318
 20
63.1879572108
 10
8.8425754435
 20
63.2037308301
 10
8.8468461461
 20
63.2205378189
 10
8.8483169625
 20
63.2378694387
  0
LWPOLYLINE
  5
45D
100
AcDbEntity
  8
0
100
AcDbPolyline
 62
253
  6
CONTINUOUS
 90
12
 70
0
 10
8.0524922924
 20
61.6382552843
 10
8.0638532859
 20
61.6393204158
 10
8.0748015961
 20
61.6404834648
 10
8.0852402978
 20
61.6417337219
 10
8.0950663416
 20
61.6430818964
 10
8.1042110113
 20
61.6446301543
 10
8.1125783937
 20
61.6464239332
 10
8.1200268075
 20
61.6484177956
 10
8.126414482
 20
61.6505775953
 10
8.1316129988
 20
61.6528919503
 10
8.135501989
 20
61.6553722427
 10
8.1379511698
 20
61.6580184724
  0
LINE
  5
45E
100
AcDbEntity
  8
0
100
AcDbLine
 62
253
  6
CONTINUOUS
 10
-8.0036604295
 20
61.7769509582
 11
-7.9831336644
 21
61.778830844
  0
LINE
  5
45F
100
AcDbEntity
  8
0
100
AcDbLine
 62
253
  6
CONTINUOUS
 10
-7.9831336644
 20
61.778830844
 11
-7.9617066759
 21
61.7806602461
  0
LINE
  5
460
100
AcDbEntity
  8
0
100
AcDbLine
 62
253
  6
CONTINUOUS
 10
-7.9617066759
 20
61.7806602461
 11
-7.9391771425
 21
61.7824459127
  0
LWPOLYLINE
  5
461
100
AcDbEntity
  8
0
100
AcDbPolyline
 62
253
  6
CONTINUOUS
 90
4
 70
0
 10
-7.9391771425
 20
61.7824459127
 10
-7.9151752803
 20
61.7841711506
 10
-7.9026365204
 20
61.7849783115
 10
-7.8896894434
 20
61.7857281917
  0
LWPOLYLINE
  5
462
100
AcDbEntity
  8
0
100
AcDbPolyline
 62
253
  6
CONTINUOUS
 90
9
 70
0
 10
-5.1497967247
 20
61.6760844834
 10
-5.147078039
 20
61.6762429992
 10
-5.1443448254
 20
61.6764181605
 10
-5.1415951
 20
61.6766096485
 10
-5.1388306097
 20
61.6768177821
 10
-5.1360568477
 20
61.6770435179
 10
-5.1332755801
 20
61.6772871748
 10
-5.1304848303
 20
61.6775484339
 10
-5.1276844897
 20
61.6778272952
  0
LINE
  5
463
100
AcDbEntity
  8
0
100
AcDbLine
 62
253
  6
CONTINUOUS
 10
-5.4640446658
 20
61.6591656175
 11
-5.1497967247
 21
61.6760844834
  0
LINE
  5
464
100
AcDbEntity
  8
0
100
AcDbLine
 62
253
  6
CONTINUOUS
 10
-7.8896894434
 20
61.7857281917
 11
-7.8628246435
 21
61.7870946866
  0
LINE
  5
465
100
AcDbEntity
  8
0
100
AcDbLine
 62
253
  6
CONTINUOUS
 10
5.3805774186
 20
61.7338923604
 11
5.7983539988
 21
61.7549604491
  0
LINE
  5
466
100
AcDbEntity
  8
0
100
AcDbLine
 62
253
  6
CONTINUOUS
 10
5.15
 20
61.7230436001
 11
5.3805774186
 21
61.7338923604
  0
LINE
  5
467
100
AcDbEntity
  8
0
100
AcDbLine
 62
253
  6
CONTINUOUS
 10
-5.5749152304
 20
61.653929696
 11
-5.4640446658
 21
61.6591656175
  0
LINE
  5
468
100
AcDbEntity
  8
0
100
AcDbLine
 62
253
  6
CONTINUOUS
 10
5.7983539988
 20
61.7549604491
 11
5.9230536673
 21
61.7607534111
  0
LWPOLYLINE
  5
469
100
AcDbEntity
  8
0
100
AcDbPolyline
 62
253
  6
CONTINUOUS
 90
8
 70
0
 10
7.9522676126
 20
61.6314430558
 10
7.9651472027
 20
61.6319792104
 10
7.9780369493
 20
61.6326301888
 10
7.9908706813
 20
61.6333729459
 10
8.0036051834
 20
61.6342035063
 10
8.0162111167
 20
61.6351405196
 10
8.0286227205
 20
61.6361653362
 10
8.0524922924
 20
61.6382552843
  0
LINE
  5
46A
100
AcDbEntity
  8
0
100
AcDbLine
 62
253
  6
CONTINUOUS
 10
-7.8628246435
 20
61.7870946866
 11
-7.8350213034
 21
61.7882937418
  0
LINE
  5
46B
100
AcDbEntity
  8
0
100
AcDbLine
 62
253
  6
CONTINUOUS
 10
5.9230536673
 20
61.7607534111
 11
6.3249001427
 21
61.7771777993
  0
LINE
  5
46C
100
AcDbEntity
  8
0
100
AcDbLine
 62
253
  6
CONTINUOUS
 10
-5.6783984194
 20
61.6497313338
 11
-5.5749152304
 21
61.653929696
  0
LINE
  5
46D
100
AcDbEntity
  8
0
100
AcDbLine
 62
253
  6
CONTINUOUS
 10
-7.2413794405
 20
61.7860068923
 11
-7.1887952362
 21
61.7881076554
  0
LINE
  5
46E
100
AcDbEntity
  8
0
100
AcDbLine
 62
253
  6
CONTINUOUS
 10
-7.8350213034
 20
61.7882937418
 11
-7.792954922
 21
61.7898656466
  0
LINE
  5
46F
100
AcDbEntity
  8
0
100
AcDbLine
 62
253
  6
CONTINUOUS
 10
6.3249001427
 20
61.7771777993
 11
6.434068153
 21
61.7811943376
  0
LINE
  5
470
100
AcDbEntity
  8
0
100
AcDbLine
 62
253
  6
CONTINUOUS
 10
-5.8203715649
 20
61.6449653817
 11
-5.6783984194
 21
61.6497313338
  0
LINE
  5
471
100
AcDbEntity
  8
0
100
AcDbLine
 62
253
  6
CONTINUOUS
 10
7.9137309348
 20
61.6301740959
 11
7.9522676126
 21
61.6314430558
  0
LINE
  5
472
100
AcDbEntity
  8
0
100
AcDbLine
 62
253
  6
CONTINUOUS
 10
-7.1887952362
 20
61.7881076554
 11
-7.1618107351
 21
61.7890047224
  0
LINE
  5
473
100
AcDbEntity
  8
0
100
AcDbLine
 62
253
  6
CONTINUOUS
 10
-6.1305935595
 20
61.6350078767
 11
-5.8203715649
 21
61.6449653817
  0
LINE
  5
474
100
AcDbEntity
  8
0
100
AcDbLine
 62
253
  6
CONTINUOUS
 10
-7.792954922
 20
61.7898656466
 11
-7.75168907
 21
61.7911744103
  0
LINE
  5
475
100
AcDbEntity
  8
0
100
AcDbLine
 62
253
  6
CONTINUOUS
 10
6.434068153
 20
61.7811943376
 11
6.5745969352
 21
61.7856083329
  0
LINE
  5
476
100
AcDbEntity
  8
0
100
AcDbLine
 62
253
  6
CONTINUOUS
 10
7.8503537805
 20
61.628340245
 11
7.9137309348
 21
61.6301740959
  0
LINE
  5
477
100
AcDbEntity
  8
0
100
AcDbLine
 62
253
  6
CONTINUOUS
 10
-7.1618107351
 20
61.7890047224
 11
-7.1346727173
 21
61.7897654582
  0
LINE
  5
478
100
AcDbEntity
  8
0
100
AcDbLine
 62
253
  6
CONTINUOUS
 10
-6.2264042068
 20
61.6323844972
 11
-6.1305935595
 21
61.6350078767
  0
LINE
  5
479
100
AcDbEntity
  8
0
100
AcDbLine
 62
253
  6
CONTINUOUS
 10
6.5745969352
 20
61.7856083329
 11
6.754742797
 21
61.7905418972
  0
LINE
  5
47A
100
AcDbEntity
  8
ASSI
100
AcDbLine
 62
253
  6
CONTINUOUS
 10
8.8483169625
 20
63.8621305613
 11
9.65
 21
63.8813524131
  0
LINE
  5
47B
100
AcDbEntity
  8
0
100
AcDbLine
 62
253
  6
CONTINUOUS
 10
-7.75168907
 20
61.7911744103
 11
-7.7249524578
 21
61.791837705
  0
LINE
  5
47C
100
AcDbEntity
  8
ASSI
100
AcDbLine
 62
253
  6
CONTINUOUS
 10
8.7503375272
 20
63.9620369144
 11
9.6451445666
 21
63.9834852763
  0
LINE
  5
47D
100
AcDbEntity
  8
0
100
AcDbLine
 62
253
  6
CONTINUOUS
 10
-7.1346727173
 20
61.7897654582
 11
-7.1067173807
 21
61.790404257
  0
LINE
  5
47E
100
AcDbEntity
  8
0
100
AcDbLine
 62
253
  6
CONTINUOUS
 10
-6.2874736873
 20
61.6310736034
 11
-6.2264042068
 21
61.6323844972
  0
LINE
  5
47F
100
AcDbEntity
  8
0
100
AcDbLine
 62
253
  6
CONTINUOUS
 10
6.754742797
 20
61.7905418972
 11
6.8291898962
 21
61.7921376583
  0
LINE
  5
480
100
AcDbEntity
  8
0
100
AcDbLine
 62
253
  6
CONTINUOUS
 10
-7.7249524578
 20
61.791837705
 11
-7.6989667664
 21
61.7923111818
  0
LWPOLYLINE
  5
481
100
AcDbEntity
  8
0
100
AcDbPolyline
 62
253
  6
CONTINUOUS
 90
3
 70
0
 10
7.8136297541
 20
61.627623042
 10
7.8257093949
 20
61.6278186626
 10
7.8503537805
 20
61.628340245
  0
LINE
  5
482
100
AcDbEntity
  8
ASSI
100
AcDbLine
 62
253
  6
CONTINUOUS
 10
8.7402577808
 20
63.9618608307
 11
8.7503375272
 21
63.9620369144
  0
LINE
  5
483
100
AcDbEntity
  8
0
100
AcDbLine
 62
253
  6
CONTINUOUS
 10
7.2040962817
 20
61.6250088674
 11
7.2644888176
 21
61.6260314494
  0
LINE
  5
484
100
AcDbEntity
  8
0
100
AcDbLine
 62
253
  6
CONTINUOUS
 10
6.8291898962
 20
61.7921376583
 11
6.9154524085
 21
61.793528067
  0
LINE
  5
485
100
AcDbEntity
  8
0
100
AcDbLine
 62
253
  6
CONTINUOUS
 10
-7.1067173807
 20
61.790404257
 11
-7.0765749634
 21
61.7909000955
  0
LINE
  5
486
100
AcDbEntity
  8
0
100
AcDbLine
 62
253
  6
CONTINUOUS
 10
-6.5866181688
 20
61.6262877087
 11
-6.2874736873
 21
61.6310736034
  0
LINE
  5
487
100
AcDbEntity
  8
0
100
AcDbLine
 62
253
  6
CONTINUOUS
 10
-7.463777705
 20
61.6250305221
 11
-7.3496563668
 21
61.6269447706
  0
LINE
  5
488
100
AcDbEntity
  8
0
100
AcDbLine
 62
253
  6
CONTINUOUS
 10
7.6017851601
 20
61.7859819458
 11
7.6763491095
 21
61.7870840276
  0
LINE
  5
489
100
AcDbEntity
  8
0
100
AcDbLine
 62
253
  6
CONTINUOUS
 10
7.3520030481
 20
61.6268436606
 11
7.4001334199
 21
61.6274454258
  0
LINE
  5
48A
100
AcDbEntity
  8
ASSI
100
AcDbLine
 62
253
  6
CONTINUOUS
 10
8.7199896617
 20
63.961605692
 11
8.7402577808
 21
63.9618608307
  0
LINE
  5
48B
100
AcDbEntity
  8
0
100
AcDbLine
 62
253
  6
CONTINUOUS
 10
7.1211360727
 20
61.6239189501
 11
7.2040962817
 21
61.6250088674
  0
LINE
  5
48C
100
AcDbEntity
  8
ASSI
100
AcDbLine
 62
253
  6
CONTINUOUS
 10
8.8271847744
 20
63.8618646489
 11
8.8483169625
 21
63.8621305613
  0
LINE
  5
48D
100
AcDbEntity
  8
0
100
AcDbLine
 62
253
  6
CONTINUOUS
 10
-7.3031351217
 20
61.6272468978
 11
-7.2763639766
 21
61.6275434487
  0
LINE
  5
48E
100
AcDbEntity
  8
0
100
AcDbLine
 62
253
  6
CONTINUOUS
 10
6.9154524085
 20
61.793528067
 11
6.9932155087
 21
61.794461126
  0
LINE
  5
48F
100
AcDbEntity
  8
0
100
AcDbLine
 62
253
  6
CONTINUOUS
 10
-7.6989667664
 20
61.7923111818
 11
-7.6738584858
 21
61.7926143471
  0
LINE
  5
490
100
AcDbEntity
  8
0
100
AcDbLine
 62
253
  6
CONTINUOUS
 10
7.2644888176
 20
61.6260314494
 11
7.3050407407
 21
61.6265219178
  0
LWPOLYLINE
  5
491
100
AcDbEntity
  8
0
100
AcDbPolyline
 62
253
  6
CONTINUOUS
 90
9
 70
0
 10
5.1301877176
 20
61.7224258186
 10
5.1326890623
 20
61.7224504933
 10
5.1351834141
 20
61.7224905701
 10
5.1376708722
 20
61.7225464517
 10
5.1401513375
 20
61.7226177353
 10
5.1426245126
 20
61.7227032128
 10
5.1450902985
 20
61.7228024814
 10
5.1475487943
 20
61.7229159438
 10
5.15
 20
61.7230436001
  0
LINE
  5
492
100
AcDbEntity
  8
0
100
AcDbLine
 62
253
  6
CONTINUOUS
 10
-7.0765749634
 20
61.7909000955
 11
-7.0426514512
 21
61.7912742584
  0
LINE
  5
493
100
AcDbEntity
  8
0
100
AcDbLine
 62
253
  6
CONTINUOUS
 10
-6.6410187534
 20
61.6256967371
 11
-6.5866181688
 21
61.6262877087
  0
LINE
  5
494
100
AcDbEntity
  8
0
100
AcDbLine
 62
253
  6
CONTINUOUS
 10
7.7900787475
 20
61.6273929168
 11
7.8136297541
 21
61.627623042
  0
LINE
  5
495
100
AcDbEntity
  8
0
100
AcDbLine
 62
253
  6
CONTINUOUS
 10
7.5799430675
 20
61.785772852
 11
7.6017851601
 21
61.7859819458
  0
LINE
  5
496
100
AcDbEntity
  8
0
100
AcDbLine
 62
253
  6
CONTINUOUS
 10
7.5798754323
 20
61.6265687461
 11
7.6280362921
 21
61.6269622298
  0
LINE
  5
497
100
AcDbEntity
  8
0
100
AcDbLine
 62
253
  6
CONTINUOUS
 10
-7.5711103472
 20
61.6239360864
 11
-7.463777705
 21
61.6250305221
  0
LINE
  5
498
100
AcDbEntity
  8
0
100
AcDbLine
 62
253
  6
CONTINUOUS
 10
6.9932155087
 20
61.794461126
 11
7.0310360825
 21
61.7947352405
  0
LINE
  5
499
100
AcDbEntity
  8
ASSI
100
AcDbLine
 62
253
  6
CONTINUOUS
 10
8.6740931924
 20
63.9612531774
 11
8.7199896617
 21
63.961605692
  0
LINE
  5
49A
100
AcDbEntity
  8
0
100
AcDbLine
 62
253
  6
CONTINUOUS
 10
7.4887426458
 20
61.7852905809
 11
7.5275722045
 21
61.7855868159
  0
LINE
  5
49B
100
AcDbEntity
  8
ASSI
100
AcDbLine
 62
253
  6
CONTINUOUS
 10
8.7716153964
 20
63.8614543312
 11
8.8271847744
 21
63.8618646489
  0
LINE
  5
49C
100
AcDbEntity
  8
0
100
AcDbLine
 62
253
  6
CONTINUOUS
 10
-7.6738584858
 20
61.7926143471
 11
-7.6379243628
 21
61.7928772166
  0
LINE
  5
49D
100
AcDbEntity
  8
0
100
AcDbLine
 62
253
  6
CONTINUOUS
 10
7.6763491095
 20
61.7870840276
 11
7.6954414456
 21
61.787218841
  0
LINE
  5
49E
100
AcDbEntity
  8
0
100
AcDbLine
 62
253
  6
CONTINUOUS
 10
-7.0426514512
 20
61.7912742584
 11
-7.0038138526
 21
61.791533509
  0
LINE
  5
49F
100
AcDbEntity
  8
0
100
AcDbLine
 62
253
  6
CONTINUOUS
 10
7.3050407407
 20
61.6265219178
 11
7.3520030481
 21
61.6268436606
  0
LINE
  5
4A0
100
AcDbEntity
  8
0
100
AcDbLine
 62
253
  6
CONTINUOUS
 10
-7.3496563668
 20
61.6269447706
 11
-7.3031351217
 21
61.6272468978
  0
LINE
  5
4A1
100
AcDbEntity
  8
0
100
AcDbLine
 62
253
  6
CONTINUOUS
 10
7.7132243054
 20
61.6269137288
 11
7.7900787475
 21
61.6273929168
  0
LINE
  5
4A2
100
AcDbEntity
  8
0
100
AcDbLine
 62
253
  6
CONTINUOUS
 10
-7.2763639766
 20
61.6275434487
 11
-7.2391411392
 21
61.6277449278
  0
LINE
  5
4A3
100
AcDbEntity
  8
0
100
AcDbLine
 62
253
  6
CONTINUOUS
 10
6.9613200974
 20
61.6231191721
 11
7.1211360727
 21
61.6239189501
  0
LINE
  5
4A4
100
AcDbEntity
  8
0
100
AcDbLine
 62
253
  6
CONTINUOUS
 10
7.4001334199
 20
61.6274454258
 11
7.4567675881
 21
61.6277723429
  0
LINE
  5
4A5
100
AcDbEntity
  8
0
100
AcDbLine
 62
253
  6
CONTINUOUS
 10
7.5653154674
 20
61.626514368
 11
7.5798754323
 21
61.6265687461
  0
LINE
  5
4A6
100
AcDbEntity
  8
0
100
AcDbLine
 62
253
  6
CONTINUOUS
 10
-6.8516647114
 20
61.6247703516
 11
-6.6410187534
 21
61.6256967371
  0
LINE
  5
4A7
100
AcDbEntity
  8
0
100
AcDbLine
 62
253
  6
CONTINUOUS
 10
-7.2391411392
 20
61.6277449278
 11
-7.1948845534
 21
61.627873906
  0
LINE
  5
4A8
100
AcDbEntity
  8
0
100
AcDbLine
 62
253
  6
CONTINUOUS
 10
7.0310360825
 20
61.7947352405
 11
7.0685778472
 21
61.7948441847
  0
LWPOLYLINE
  5
4A9
100
AcDbEntity
  8
0
100
AcDbPolyline
 62
253
  6
CONTINUOUS
 90
3
 70
0
 10
7.5275722045
 20
61.7855868159
 10
7.5579684029
 20
61.7856777512
 10
7.5799430675
 20
61.785772852
  0
LINE
  5
4AA
100
AcDbEntity
  8
0
100
AcDbLine
 62
253
  6
CONTINUOUS
 10
-7.6379243628
 20
61.7928772166
 11
-7.6041949618
 21
61.7929693766
  0
LINE
  5
4AB
100
AcDbEntity
  8
ASSI
100
AcDbLine
 62
253
  6
CONTINUOUS
 10
8.587700917
 20
63.9609879787
 11
8.6740931924
 21
63.9612531774
  0
LINE
  5
4AC
100
AcDbEntity
  8
0
100
AcDbLine
 62
253
  6
CONTINUOUS
 10
7.4731338272
 20
61.7852472583
 11
7.4887426458
 21
61.7852905809
  0
LINE
  5
4AD
100
AcDbEntity
  8
ASSI
100
AcDbLine
 62
253
  6
CONTINUOUS
 10
8.5982549675
 20
63.8609917751
 11
8.7716153964
 21
63.8614543312
  0
LINE
  5
4AE
100
AcDbEntity
  8
0
100
AcDbLine
 62
253
  6
CONTINUOUS
 10
7.6280362921
 20
61.6269622298
 11
7.6547535651
 21
61.6270351256
  0
LINE
  5
4AF
100
AcDbEntity
  8
ASSI
100
AcDbLine
 62
253
  6
CONTINUOUS
 10
8.5664091763
 20
63.960978333
 11
8.587700917
 21
63.9609879787
  0
LINE
  5
4B0
100
AcDbEntity
  8
ASSI
100
AcDbLine
 62
7
  6
CONTINUOUS
 10
7.6038496072
 20
59.75
 11
9.65
 21
59.75
  0
LINE
  5
4B1
100
AcDbEntity
  8
ASSI
100
AcDbLine
 62
7
  6
CONTINUOUS
 10
8.35
 20
61.65
 11
8.1388834203
 21
61.65
  0
LINE
  5
4B2
100
AcDbEntity
  8
ASSI
100
AcDbLine
 62
7
  6
CONTINUOUS
 10
8.3325462644
 20
61.6674537356
 11
8.1388834203
 21
61.6674537356
  0
LINE
  5
4B3
100
AcDbEntity
  8
0
100
AcDbLine
 62
253
  6
CONTINUOUS
 10
-5.1276844898
 20
61.6778272953
 11
5.127684519
 21
61.6778273243
  0
LINE
  5
4B4
100
AcDbEntity
  8
0
100
AcDbLine
 62
253
  6
CONTINUOUS
 10
-5.1276793216
 20
61.7224165459
 11
5.1301877176
 21
61.7224258186
  0
LINE
  5
4B5
100
AcDbEntity
  8
ASSI
100
AcDbLine
 62
7
  6
CONTINUOUS
 10
9.5121049871
 20
63.05
 11
8.35
 21
63.05
  0
LINE
  5
4B6
100
AcDbEntity
  8
ASSI
100
AcDbLine
 62
7
  6
CONTINUOUS
 10
8.3325462644
 20
63.0674537356
 11
8.2
 21
63.0674537356
  0
LINE
  5
4B7
100
AcDbEntity
  8
ASSI
100
AcDbLine
 62
7
  6
CONTINUOUS
 10
8.5664091763
 20
63.139021667
 11
8.2
 21
63.139021667
  0
LINE
  5
4B8
100
AcDbEntity
  8
ASSI
100
AcDbLine
 62
7
  6
CONTINUOUS
 10
-8.2
 20
63.139021667
 11
-8.5664091763
 21
63.139021667
  0
LINE
  5
4B9
100
AcDbEntity
  8
ASSI
100
AcDbLine
 62
253
  6
CONTINUOUS
 10
-8.2
 20
63.2390178593
 11
-8.5664091763
 21
63.2390178593
  0
LINE
  5
4BA
100
AcDbEntity
  8
ASSI
100
AcDbLine
 62
253
  6
CONTINUOUS
 10
8.2
 20
63.8609821407
 11
8.5982549675
 21
63.8609917751
  0
LINE
  5
4BB
100
AcDbEntity
  8
ASSI
100
AcDbLine
 62
7
  6
CONTINUOUS
 10
-8.5664091763
 20
63.960978333
 11
-8.2
 21
63.960978333
  0
LINE
  5
4BC
100
AcDbEntity
  8
ASSI
100
AcDbLine
 62
7
  6
CONTINUOUS
 10
8.2
 20
63.960978333
 11
8.5664091763
 21
63.960978333
  0
LINE
  5
4BD
100
AcDbEntity
  8
ASSI
100
AcDbLine
 62
7
  6
CONTINUOUS
 10
9.5121049871
 20
64.05
 11
8.2
 21
64.05
  0
LINE
  5
4BE
100
AcDbEntity
  8
0
100
AcDbLine
 62
253
  6
CONTINUOUS
 10
-7.604119691
 20
61.6238738521
 11
-7.5711103472
 21
61.6239360864
  0
LINE
  5
4BF
100
AcDbEntity
  8
0
100
AcDbLine
 62
253
  6
CONTINUOUS
 10
-7.0038138526
 20
61.791533509
 11
-6.9599050702
 21
61.7915929106
  0
LINE
  5
4C0
100
AcDbEntity
  8
0
100
AcDbLine
 62
253
  6
CONTINUOUS
 10
7.6830476231
 20
61.6269117766
 11
7.7132243054
 21
61.6269137288
  0
LINE
  5
4C1
100
AcDbEntity
  8
0
100
AcDbLine
 62
253
  6
CONTINUOUS
 10
7.6954414456
 20
61.787218841
 11
7.7152882504
 21
61.7872182363
  0
LINE
  5
4C2
100
AcDbEntity
  8
0
100
AcDbLine
 62
253
  6
CONTINUOUS
 10
-6.8852019709
 20
61.6247950333
 11
-6.8516647114
 21
61.6247703516
  0
LWPOLYLINE
  5
4C3
100
AcDbEntity
  8
0
100
AcDbPolyline
 62
253
  6
CONTINUOUS
 90
3
 70
0
 10
7.4567675881
 20
61.6277723429
 10
7.4718905413
 20
61.6277684014
 10
7.4793052216
 20
61.627709779
  0
LINE
  5
4C4
100
AcDbEntity
  8
0
100
AcDbLine
 62
253
  6
CONTINUOUS
 10
6.9062976474
 20
61.6231729541
 11
6.9613200974
 21
61.6231191721
  0
LINE
  5
4C5
100
AcDbEntity
  8
0
100
AcDbLine
 62
253
  6
CONTINUOUS
 10
7.551060946
 20
61.6265379217
 11
7.5653154674
 21
61.626514368
  0
LWPOLYLINE
  5
4C6
100
AcDbEntity
  8
0
100
AcDbPolyline
 62
253
  6
CONTINUOUS
 90
3
 70
0
 10
-7.1948845534
 20
61.627873906
 10
-7.1775746894
 20
61.62783465
 10
-7.1689010156
 20
61.6277733038
  0
LINE
  5
4C7
100
AcDbEntity
  8
0
100
AcDbLine
 62
253
  6
CONTINUOUS
 10
-7.6041949618
 20
61.7929693766
 11
-7.5829803281
 21
61.7929191931
  0
LINE
  5
4C8
100
AcDbEntity
  8
ASSI
100
AcDbLine
 62
253
  6
CONTINUOUS
 10
8.7431875371
 20
63.2386824103
 11
8.2
 21
63.2390178593
  0
LINE
  5
4C9
100
AcDbEntity
  8
ASSI
100
AcDbLine
 62
253
  6
CONTINUOUS
 10
8.663627808
 20
63.1388015801
 11
8.5664091763
 21
63.139021667
  0
LINE
  5
4CA
100
AcDbEntity
  8
0
100
AcDbLine
 62
253
  6
CONTINUOUS
 10
7.0685778472
 20
61.7948441847
 11
7.1243123229
 21
61.7946903795
  0
LINE
  5
4CB
100
AcDbEntity
  8
0
100
AcDbLine
 62
253
  6
CONTINUOUS
 10
7.6547535651
 20
61.6270351256
 11
7.6830476231
 21
61.6269117766
  0
LINE
  5
4CC
100
AcDbEntity
  8
0
100
AcDbLine
 62
253
  6
CONTINUOUS
 10
-7.7157097733
 20
61.6241255095
 11
-7.604119691
 21
61.6238738521
  0
LINE
  5
4CD
100
AcDbEntity
  8
0
100
AcDbLine
 62
253
  6
CONTINUOUS
 10
6.7107645056
 20
61.6242101454
 11
6.9062976474
 21
61.6231729541
  0
LINE
  5
4CE
100
AcDbEntity
  8
0
100
AcDbLine
 62
253
  6
CONTINUOUS
 10
-6.9599050702
 20
61.7915929106
 11
-6.9110267658
 21
61.7913227382
  0
LINE
  5
4CF
100
AcDbEntity
  8
0
100
AcDbLine
 62
253
  6
CONTINUOUS
 10
-7.0216967993
 20
61.6256784529
 11
-6.8852019709
 21
61.6247950333
  0
LINE
  5
4D0
100
AcDbEntity
  8
0
100
AcDbLine
 62
253
  6
CONTINUOUS
 10
7.1243123229
 20
61.7946903795
 11
7.1606960544
 21
61.7944224288
  0
LINE
  5
4D1
100
AcDbEntity
  8
0
100
AcDbLine
 62
253
  6
CONTINUOUS
 10
-7.5829803281
 20
61.7929191931
 11
-7.5628375814
 21
61.792771091
  0
LINE
  5
4D2
100
AcDbEntity
  8
ASSI
100
AcDbLine
 62
253
  6
CONTINUOUS
 10
8.818077673
 20
63.2382223003
 11
8.7431875371
 21
63.2386824103
  0
LINE
  5
4D3
100
AcDbEntity
  8
ASSI
100
AcDbLine
 62
253
  6
CONTINUOUS
 10
8.7119175896
 20
63.1384734341
 11
8.663627808
 21
63.1388015801
  0
LINE
  5
4D4
100
AcDbEntity
  8
0
100
AcDbLine
 62
253
  6
CONTINUOUS
 10
7.7152882504
 20
61.7872182363
 11
7.7357652511
 21
61.787060243
  0
LINE
  5
4D5
100
AcDbEntity
  8
0
100
AcDbLine
 62
253
  6
CONTINUOUS
 10
7.536941254
 20
61.6266501516
 11
7.551060946
 21
61.6265379217
  0
LINE
  5
4D6
100
AcDbEntity
  8
0
100
AcDbLine
 62
253
  6
CONTINUOUS
 10
-7.7429398114
 20
61.6243991161
 11
-7.7157097733
 21
61.6241255095
  0
LINE
  5
4D7
100
AcDbEntity
  8
0
100
AcDbLine
 62
253
  6
CONTINUOUS
 10
6.627877829
 20
61.6250791156
 11
6.7107645056
 21
61.6242101454
  0
LINE
  5
4D8
100
AcDbEntity
  8
0
100
AcDbLine
 62
253
  6
CONTINUOUS
 10
-7.0429742281
 20
61.6259138929
 11
-7.0216967993
 21
61.6256784529
  0
LINE
  5
4D9
100
AcDbEntity
  8
ASSI
100
AcDbLine
 62
253
  6
CONTINUOUS
 10
8.7341707385
 20
63.1382260961
 11
8.7119175896
 21
63.1384734341
  0
LWPOLYLINE
  5
4DA
100
AcDbEntity
  8
0
100
AcDbPolyline
 62
253
  6
CONTINUOUS
 90
3
 70
0
 10
7.4491860851
 20
61.78544926
 10
7.4573224946
 20
61.7853441388
 10
7.4731338272
 20
61.7852472583
  0
LINE
  5
4DB
100
AcDbEntity
  8
0
100
AcDbLine
 62
253
  6
CONTINUOUS
 10
-6.9110267658
 20
61.7913227382
 11
-6.8178520892
 21
61.7902836017
  0
LINE
  5
4DC
100
AcDbEntity
  8
0
100
AcDbLine
 62
253
  6
CONTINUOUS
 10
7.1606960544
 20
61.7944224288
 11
7.1960112803
 21
61.7939717627
  0
LWPOLYLINE
  5
4DD
100
AcDbEntity
  8
ASSI
100
AcDbPolyline
 62
253
  6
CONTINUOUS
 90
3
 70
0
 10
8.8483169625
 20
63.2378694387
 10
8.8422634428
 20
63.237959263
 10
8.818077673
 20
63.2382223003
  0
LINE
  5
4DE
100
AcDbEntity
  8
0
100
AcDbLine
 62
253
  6
CONTINUOUS
 10
-7.5628375814
 20
61.792771091
 11
-7.5347794385
 21
61.7923915206
  0
LINE
  5
4DF
100
AcDbEntity
  8
0
100
AcDbLine
 62
253
  6
CONTINUOUS
 10
7.4793052216
 20
61.627709779
 11
7.4939200723
 21
61.6275033279
  0
LINE
  5
4E0
100
AcDbEntity
  8
0
100
AcDbLine
 62
253
  6
CONTINUOUS
 10
7.7357652511
 20
61.787060243
 11
7.7677163172
 21
61.7866199049
  0
LINE
  5
4E1
100
AcDbEntity
  8
0
100
AcDbLine
 62
253
  6
CONTINUOUS
 10
-7.1689010156
 20
61.6277733038
 11
-7.0429742281
 21
61.6259138929
  0
LINE
  5
4E2
100
AcDbEntity
  8
ASSI
100
AcDbLine
 62
253
  6
CONTINUOUS
 10
8.745640889
 20
63.1380517266
 11
8.7341707385
 21
63.1382260961
  0
LINE
  5
4E3
100
AcDbEntity
  8
0
100
AcDbLine
 62
253
  6
CONTINUOUS
 10
6.3308733228
 20
61.6299174942
 11
6.627877829
 21
61.6250791156
  0
LINE
  5
4E4
100
AcDbEntity
  8
0
100
AcDbLine
 62
253
  6
CONTINUOUS
 10
7.5226801807
 20
61.6268716001
 11
7.536941254
 21
61.6266501516
  0
LINE
  5
4E5
100
AcDbEntity
  8
0
100
AcDbLine
 62
253
  6
CONTINUOUS
 10
-6.8178520892
 20
61.7902836017
 11
-6.7530341059
 21
61.7892436808
  0
LINE
  5
4E6
100
AcDbEntity
  8
0
100
AcDbLine
 62
253
  6
CONTINUOUS
 10
-7.7708428611
 20
61.6248654622
 11
-7.7429398114
 21
61.6243991161
  0
LINE
  5
4E7
100
AcDbEntity
  8
0
100
AcDbLine
 62
253
  6
CONTINUOUS
 10
7.1960112803
 20
61.7939717627
 11
7.2300725134
 21
61.7933275303
  0
LINE
  5
4E8
100
AcDbEntity
  8
0
100
AcDbLine
 62
253
  6
CONTINUOUS
 10
-7.5347794385
 20
61.7923915206
 11
-7.5010602002
 21
61.7917478072
  0
LINE
  5
4E9
100
AcDbEntity
  8
0
100
AcDbLine
 62
253
  6
CONTINUOUS
 10
7.4322948889
 20
61.7857858573
 11
7.4491860851
 21
61.78544926
  0
LINE
  5
4EA
100
AcDbEntity
  8
0
100
AcDbLine
 62
253
  6
CONTINUOUS
 10
7.7677163172
 20
61.7866199049
 11
7.8011649291
 21
61.7859466754
  0
LINE
  5
4EB
100
AcDbEntity
  8
0
100
AcDbLine
 62
253
  6
CONTINUOUS
 10
-6.7530341059
 20
61.7892436808
 11
-6.7045304655
 21
61.7882257899
  0
LINE
  5
4EC
100
AcDbEntity
  8
ASSI
100
AcDbLine
 62
253
  6
CONTINUOUS
 10
8.7543477005
 20
63.1378732464
 11
8.745640889
 21
63.1380517266
  0
LINE
  5
4ED
100
AcDbEntity
  8
0
100
AcDbLine
 62
253
  6
CONTINUOUS
 10
6.2277553112
 20
61.6321629591
 11
6.3308733228
 21
61.6299174942
  0
LINE
  5
4EE
100
AcDbEntity
  8
ASSI
100
AcDbLine
 62
253
  6
CONTINUOUS
 10
9.6451445666
 20
63.1165147237
 11
8.7543477005
 21
63.1378732464
  0
LINE
  5
4EF
100
AcDbEntity
  8
ASSI
100
AcDbLine
 62
253
  6
CONTINUOUS
 10
9.65
 20
63.2186475869
 11
8.8483169625
 21
63.2378694387
  0
LINE
  5
4F0
100
AcDbEntity
  8
0
100
AcDbLine
 62
253
  6
CONTINUOUS
 10
7.4939200723
 20
61.6275033279
 11
7.5226801807
 21
61.6268716001
  0
LINE
  5
4F1
100
AcDbEntity
  8
0
100
AcDbLine
 62
253
  6
CONTINUOUS
 10
-7.5010602002
 20
61.7917478072
 11
-7.4777031089
 21
61.7911860085
  0
LWPOLYLINE
  5
4F2
100
AcDbEntity
  8
0
100
AcDbPolyline
 62
253
  6
CONTINUOUS
 90
3
 70
0
 10
7.2300725134
 20
61.7933275303
 10
7.2626840581
 20
61.7925030723
 10
7.2783709759
 20
61.7920208307
  0
LINE
  5
4F3
100
AcDbEntity
  8
0
100
AcDbLine
 62
253
  6
CONTINUOUS
 10
-6.7045304655
 20
61.7882257899
 11
-6.5311324902
 21
61.7836375397
  0
LINE
  5
4F4
100
AcDbEntity
  8
0
100
AcDbLine
 62
253
  6
CONTINUOUS
 10
7.8011649291
 20
61.7859466754
 11
7.8242925376
 21
61.7853122574
  0
LINE
  5
4F5
100
AcDbEntity
  8
0
100
AcDbLine
 62
253
  6
CONTINUOUS
 10
6.1261752691
 20
61.6350161102
 11
6.2277553112
 21
61.6321629591
  0
LINE
  5
4F6
100
AcDbEntity
  8
0
100
AcDbLine
 62
253
  6
CONTINUOUS
 10
-7.4777031089
 20
61.7911860085
 11
-7.4549761519
 21
61.7905148702
  0
LINE
  5
4F7
100
AcDbEntity
  8
0
100
AcDbLine
 62
253
  6
CONTINUOUS
 10
-6.5311324902
 20
61.7836375397
 11
-6.404324272
 21
61.7797563271
  0
LINE
  5
4F8
100
AcDbEntity
  8
0
100
AcDbLine
 62
253
  6
CONTINUOUS
 10
5.7470459479
 20
61.6474634965
 11
6.1261752691
 21
61.6350161102
  0
LINE
  5
4F9
100
AcDbEntity
  8
0
100
AcDbLine
 62
253
  6
CONTINUOUS
 10
7.8242925376
 20
61.7853122574
 11
7.8480144748
 21
61.784506292
  0
LWPOLYLINE
  5
4FA
100
AcDbEntity
  8
0
100
AcDbPolyline
 62
253
  6
CONTINUOUS
 90
4
 70
0
 10
7.3946841876
 20
61.786932967
 10
7.4046920619
 20
61.7865726324
 10
7.4142240522
 20
61.7862734624
 10
7.4322948889
 20
61.7857858573
  0
LINE
  5
4FB
100
AcDbEntity
  8
0
100
AcDbLine
 62
253
  6
CONTINUOUS
 10
-7.4549761519
 20
61.7905148702
 11
-7.4245095817
 21
61.7894202965
  0
LINE
  5
4FC
100
AcDbEntity
  8
0
100
AcDbLine
 62
253
  6
CONTINUOUS
 10
-6.404324272
 20
61.7797563271
 11
-6.3097667597
 21
61.7763000636
  0
LINE
  5
4FD
100
AcDbEntity
  8
0
100
AcDbLine
 62
253
  6
CONTINUOUS
 10
7.2783709759
 20
61.7920208307
 11
7.3085377809
 21
61.7908938009
  0
LINE
  5
4FE
100
AcDbEntity
  8
0
100
AcDbLine
 62
253
  6
CONTINUOUS
 10
5.6238637141
 20
61.6521441724
 11
5.7470459479
 21
61.6474634965
  0
LINE
  5
4FF
100
AcDbEntity
  8
0
100
AcDbLine
 62
253
  6
CONTINUOUS
 10
7.8480144748
 20
61.784506292
 11
7.8722497099
 21
61.7835427061
  0
LWPOLYLINE
  5
500
100
AcDbEntity
  8
0
100
AcDbPolyline
 62
253
  6
CONTINUOUS
 90
13
 70
0
 10
-7.354017586
 20
61.786312901
 10
-7.3459774715
 20
61.7859807075
 10
-7.3377994811
 20
61.785680077
 10
-7.3294859493
 20
61.7854112615
 10
-7.3209339072
 20
61.7852033178
 10
-7.3120143774
 20
61.7850674345
 10
-7.3028501497
 20
61.7849924231
 10
-7.2937183147
 20
61.784973775
 10
-7.284672519
 20
61.7850110841
 10
-7.2756618833
 20
61.7851047565
 10
-7.2668120518
 20
61.7852515025
 10
-7.258239263
 20
61.7854573724
 10
-7.2413794405
 20
61.7860068923
  0
LINE
  5
501
100
AcDbEntity
  8
0
100
AcDbLine
 62
253
  6
CONTINUOUS
 10
-6.3097667597
 20
61.7763000636
 11
-5.9178049076
 21
61.7604274867
  0
LINE
  5
502
100
AcDbEntity
  8
0
100
AcDbLine
 62
253
  6
CONTINUOUS
 10
-7.4245095817
 20
61.7894202965
 11
-7.3934329547
 21
61.7881397846
  0
LINE
  5
503
100
AcDbEntity
  8
0
100
AcDbLine
 62
253
  6
CONTINUOUS
 10
7.3732048874
 20
61.7878615118
 11
7.3946841876
 21
61.786932967
  0
LINE
  5
504
100
AcDbEntity
  8
0
100
AcDbLine
 62
253
  6
CONTINUOUS
 10
5.5025770817
 20
61.6575254611
 11
5.6238637141
 21
61.6521441724
  0
LINE
  5
505
100
AcDbEntity
  8
0
100
AcDbLine
 62
253
  6
CONTINUOUS
 10
-5.9178049076
 20
61.7604274867
 11
-5.8288116142
 21
61.7563872203
  0
LWPOLYLINE
  5
506
100
AcDbEntity
  8
0
100
AcDbPolyline
 62
253
  6
CONTINUOUS
 90
3
 70
0
 10
7.3085377809
 20
61.7908938009
 10
7.3363377551
 20
61.7896565832
 10
7.3732048874
 20
61.7878615118
  0
LINE
  5
507
100
AcDbEntity
  8
0
100
AcDbLine
 62
253
  6
CONTINUOUS
 10
-7.3934329547
 20
61.7881397846
 11
-7.354017586
 21
61.786312901
  0
LINE
  5
508
100
AcDbEntity
  8
0
100
AcDbLine
 62
253
  6
CONTINUOUS
 10
7.8722497099
 20
61.7835427061
 11
7.9094111757
 21
61.7818622876
  0
LINE
  5
509
100
AcDbEntity
  8
0
100
AcDbLine
 62
253
  6
CONTINUOUS
 10
-5.4657881628
 20
61.7377804291
 11
-5.15
 21
61.7230372496
  0
LWPOLYLINE
  5
50A
100
AcDbEntity
  8
0
100
AcDbPolyline
 62
253
  6
CONTINUOUS
 90
8
 70
0
 10
-7.9483097634
 20
61.6297656967
 10
-7.9372699247
 20
61.6292043689
 10
-7.9260308142
 20
61.6286921075
 10
-7.9146113024
 20
61.6282272279
 10
-7.9029012806
 20
61.6278106866
 10
-7.8909054744
 20
61.6274524119
 10
-7.8786542809
 20
61.6271424755
 10
-7.7708428611
 20
61.6248654622
  0
LWPOLYLINE
  5
50B
100
AcDbEntity
  8
0
100
AcDbPolyline
 62
253
  6
CONTINUOUS
 90
10
 70
0
 10
-5.15
 20
61.7230372496
 10
-5.1475486518
 20
61.7229108351
 10
-5.1450900517
 20
61.7227984878
 10
-5.1426241997
 20
61.7227002079
 10
-5.1401510022
 20
61.7226156026
 10
-5.1376705529
 20
61.7225450645
 10
-5.1351831321
 20
61.722489772
 10
-5.1326888334
 20
61.7224501177
 10
-5.1301875632
 20
61.722425709
 10
-5.1276793216
 20
61.7224165459
  0
LINE
  5
50C
100
AcDbEntity
  8
0
100
AcDbLine
 62
253
  6
CONTINUOUS
 10
5.379647021
 20
61.6637170132
 11
5.5025770817
 21
61.6575254611
  0
LINE
  5
50D
100
AcDbEntity
  8
0
100
AcDbLine
 62
253
  6
CONTINUOUS
 10
-5.8288116142
 20
61.7563872203
 11
-5.4657881628
 21
61.7377804291
  0
LINE
  5
50E
100
AcDbEntity
  8
0
100
AcDbLine
 62
253
  6
CONTINUOUS
 10
5.1498334218
 20
61.6760655955
 11
5.379647021
 21
61.6637170132
  0
LWPOLYLINE
  5
50F
100
AcDbEntity
  8
0
100
AcDbPolyline
 62
253
  6
CONTINUOUS
 90
25
 70
0
 10
7.9094111757
 20
61.7818622876
 10
7.9345465651
 20
61.7805402287
 10
7.9471502183
 20
61.7798077696
 10
7.9597612239
 20
61.7789918129
 10
7.9723335901
 20
61.7780754087
 10
7.9848383867
 20
61.7770755069
 10
7.9972853901
 20
61.7760089333
 10
8.009619604
 20
61.7748784388
 10
8.0218009002
 20
61.7736812724
 10
8.0338438851
 20
61.7724260076
 10
8.0456950116
 20
61.7711316413
 10
8.057280022
 20
61.7697791766
 10
8.0685634775
 20
61.7683201957
 10
8.0794761463
 20
61.7667525001
 10
8.0899313304
 20
61.7650782883
 10
8.0998549816
 20
61.7632557391
 10
8.1091535531
 20
61.761246563
 10
8.1177455341
 20
61.7590890493
 10
8.1255594476
 20
61.7568562454
 10
8.1324871193
 20
61.7545695406
 10
8.1384246776
 20
61.7522075455
 10
8.1432777057
 20
61.7497791393
 10
8.1469190656
 20
61.7472872816
 10
8.1492061511
 20
61.7447290127
 10
8.15
 20
61.7421043328
  0
LWPOLYLINE
  5
510
100
AcDbEntity
  8
0
100
AcDbPolyline
 62
253
  6
CONTINUOUS
 90
3
 70
0
 10
-7.9805476945
 20
61.631722824
 10
-7.9698854428
 20
61.631024487
 10
-7.9483097634
 20
61.6297656967
  0
LINE
  5
511
100
AcDbEntity
  8
0
100
AcDbLine
 62
253
  6
CONTINUOUS
 10
-8.0119479753
 20
61.6339799513
 11
-7.9805476945
 21
61.631722824
  0
LWPOLYLINE
  5
512
100
AcDbEntity
  8
ASSI
100
AcDbPolyline
 62
253
  6
CONTINUOUS
 90
10
 70
0
 10
8.7543477005
 20
63.9621267536
 10
8.7706346738
 20
63.9605616111
 10
8.7864286497
 20
63.9560170169
 10
8.8012515536
 20
63.9486305333
 10
8.8146547047
 20
63.938625745
 10
8.8262323972
 20
63.9263054911
 10
8.835634181
 20
63.9120426988
 10
8.8425754694
 20
63.8962690945
 10
8.8468461536
 20
63.8794621364
 10
8.8483169625
 20
63.8621305613
  0
LWPOLYLINE
  5
513
100
AcDbEntity
  8
0
100
AcDbPolyline
 62
253
  6
CONTINUOUS
 90
9
 70
0
 10
5.1276845188
 20
61.6778273241
 10
5.1304882549
 20
61.6775453191
 10
5.1332822884
 20
61.677281172
 10
5.1360667227
 20
61.6770348829
 10
5.1388426637
 20
61.6768068325
 10
5.1416092082
 20
61.6765966401
 10
5.1443634482
 20
61.6764031634
 10
5.1471044845
 20
61.6762260216
 10
5.1498334218
 20
61.6760655955
  0
LINE
  5
514
100
AcDbEntity
  8
ASSI
100
AcDbLine
 62
7
  6
CONTINUOUS
 10
9.5121049871
 20
64.05
 11
9.6451445666
 21
63.9834852763
  0
LINE
  5
515
100
AcDbEntity
  8
ASSI
100
AcDbLine
 62
7
  6
CONTINUOUS
 10
-7.1905416262
 20
93.5859700255
 11
-7.2558178298
 21
93.6441821702
  0
LWPOLYLINE
  5
516
100
AcDbEntity
  8
ASSI
100
AcDbPolyline
 62
7
  6
CONTINUOUS
 90
13
 70
0
 10
8.1609821407
 20
79.3390178593
 10
8.171999984
 20
79.3282798073
 10
8.1828568043
 20
79.3173731727
 10
8.1935526019
 20
79.3064473981
 10
8.2042619039
 20
79.2957162678
 10
8.2148101831
 20
79.2853148304
 10
8.2246738572
 20
79.2753261428
 10
8.2339544616
 20
79.266048495
 10
8.2425504609
 20
79.2576903792
 10
8.2496336666
 20
79.2503663334
 10
8.2549280157
 20
79.2444693965
 10
8.2587095712
 20
79.2405326916
 10
8.260978333
 20
79.239021667
  0
LINE
  5
517
100
AcDbEntity
  8
ASSI
100
AcDbLine
 62
253
  6
CONTINUOUS
 10
8.2500038077
 20
77.15
 11
8.2
 21
77.2000038077
  0
LINE
  5
518
100
AcDbEntity
  8
ASSI
100
AcDbLine
 62
253
  6
CONTINUOUS
 10
8.35
 20
77.2499961923
 11
8.2627084755
 21
77.3372877168
  0
LINE
  5
519
100
AcDbEntity
  8
ASSI
100
AcDbLine
 62
7
  6
CONTINUOUS
 10
4.5
 20
82.15
 11
4.5719975647
 21
82.0780024353
  0
LINE
  5
51A
100
AcDbEntity
  8
ASSI
100
AcDbLine
 62
7
  6
CONTINUOUS
 10
8.260978333
 20
79.239021667
 11
8.35
 21
79.15
  0
LINE
  5
51B
100
AcDbEntity
  8
ASSI
100
AcDbLine
 62
7
  6
CONTINUOUS
 10
6.5872915245
 20
82.0627084755
 11
6.5811598705
 21
82.0688401295
  0
LINE
  5
51C
100
AcDbEntity
  8
ASSI
100
AcDbLine
 62
7
  6
CONTINUOUS
 10
-4.45
 20
93.65
 11
-4.406077753
 21
93.606077753
  0
LINE
  5
51D
100
AcDbEntity
  8
ASSI
100
AcDbLine
 62
7
  6
CONTINUOUS
 10
-4.4063493531
 20
95.2063493531
 11
-4.45
 21
95.25
  0
LINE
  5
51E
100
AcDbEntity
  8
ASSI
100
AcDbLine
 62
7
  6
CONTINUOUS
 10
-3.9530427099
 20
94.7063578147
 11
-4.1765651105
 21
94.941942519
  0
LINE
  5
51F
100
AcDbEntity
  8
ASSI
100
AcDbLine
 62
7
  6
CONTINUOUS
 10
-4.1765651105
 20
94.941942519
 11
-4.2417591309
 21
95.0115073779
  0
LINE
  5
520
100
AcDbEntity
  8
ASSI
100
AcDbLine
 62
7
  6
CONTINUOUS
 10
-4.2417591309
 20
95.0115073779
 11
-4.2827783753
 21
95.055779536
  0
LINE
  5
521
100
AcDbEntity
  8
ASSI
100
AcDbLine
 62
7
  6
CONTINUOUS
 10
-4.2827783753
 20
95.055779536
 11
-4.306495839
 21
95.0816665171
  0
LWPOLYLINE
  5
522
100
AcDbEntity
  8
ASSI
100
AcDbPolyline
 62
7
  6
CONTINUOUS
 90
19
 70
0
 10
-4.306495839
 20
95.0816665171
 10
-4.327364519
 20
95.1047273413
 10
-4.3367531337
 20
95.1152058808
 10
-4.3454714091
 20
95.1250310991
 10
-4.3535280217
 20
95.134199584
 10
-4.3609380918
 20
95.1427147477
 10
-4.3677301728
 20
95.1506323202
 10
-4.3739088451
 20
95.1579485854
 10
-4.3794942766
 20
95.1646672595
 10
-4.3845274753
 20
95.1708552212
 10
-4.3890174755
 20
95.1765240819
 10
-4.3929654053
 20
95.1816622301
 10
-4.3963878867
 20
95.1863017102
 10
-4.3992889353
 20
95.1904472176
 10
-4.4016697392
 20
95.1940940568
 10
-4.403536573
 20
95.1972601861
 10
-4.4048921362
 20
95.1999515917
 10
-4.4057380931
 20
95.2021622873
 10
-4.406077753
 20
95.2038922731
  0
LWPOLYLINE
  5
523
100
AcDbEntity
  8
ASSI
100
AcDbPolyline
 62
7
  6
CONTINUOUS
 90
18
 70
0
 10
9.6451445666
 20
80.0834852763
 10
9.6454005686
 20
80.0831925171
 10
9.6456499595
 20
80.0826719108
 10
9.6458927393
 20
80.0819234575
 10
9.6461288098
 20
80.080935346
 10
9.6463582691
 20
80.0797193874
 10
9.6465814125
 20
80.0783110149
 10
9.6467982028
 20
80.0767156216
 10
9.6470086771
 20
80.0749278145
 10
9.6472132416
 20
80.0729668474
 10
9.6474118654
 20
80.0708385538
 10
9.6476045793
 20
80.0685371002
 10
9.6477918827
 20
80.06606424
 10
9.6479737725
 20
80.0634279499
 10
9.6481502517
 20
80.0606202532
 10
9.6483218281
 20
80.0576189731
 10
9.6484887373
 20
80.0544322214
 10
9.6486507436
 20
80.0510518863
  0
LWPOLYLINE
  5
524
100
AcDbEntity
  8
ASSI
100
AcDbPolyline
 62
7
  6
CONTINUOUS
 90
7
 70
0
 10
10.1103145581
 20
95.6351625059
 10
10.1036452955
 20
95.6450164051
 10
10.0965147107
 20
95.6545418038
 10
10.0889389589
 20
95.6637171191
 10
10.0809352005
 20
95.6725215661
 10
10.0725215661
 20
95.6809352005
 10
10.0637171191
 20
95.6889389589
  0
LWPOLYLINE
  5
525
100
AcDbEntity
  8
ASSI
100
AcDbPolyline
 62
253
  6
CONTINUOUS
 90
10
 70
0
 10
8.7543477005
 20
70.8378732464
 10
8.7706346263
 20
70.8394383798
 10
8.7864285711
 20
70.8439829524
 10
8.8012514615
 20
70.8513694099
 10
8.8146546163
 20
70.8613741759
 10
8.8262323253
 20
70.8736944177
 10
8.8356341318
 20
70.8879572108
 10
8.8425754435
 20
70.9037308301
 10
8.8468461461
 20
70.9205378189
 10
8.8483169625
 20
70.9378694387
  0
LINE
  5
526
100
AcDbEntity
  8
ASSI
100
AcDbLine
 62
253
  6
CONTINUOUS
 10
8.8483169625
 20
71.5621305613
 11
9.65
 21
71.5813524131
  0
LINE
  5
527
100
AcDbEntity
  8
ASSI
100
AcDbLine
 62
253
  6
CONTINUOUS
 10
8.7503375272
 20
71.6620369144
 11
9.6451445666
 21
71.6834852763
  0
LINE
  5
528
100
AcDbEntity
  8
ASSI
100
AcDbLine
 62
253
  6
CONTINUOUS
 10
8.7402577808
 20
71.6618608307
 11
8.7503375272
 21
71.6620369144
  0
LINE
  5
529
100
AcDbEntity
  8
ASSI
100
AcDbLine
 62
253
  6
CONTINUOUS
 10
8.7199896617
 20
71.661605692
 11
8.7402577808
 21
71.6618608307
  0
LINE
  5
52A
100
AcDbEntity
  8
ASSI
100
AcDbLine
 62
253
  6
CONTINUOUS
 10
8.8271847744
 20
71.5618646489
 11
8.8483169625
 21
71.5621305613
  0
LINE
  5
52B
100
AcDbEntity
  8
ASSI
100
AcDbLine
 62
253
  6
CONTINUOUS
 10
8.6740931924
 20
71.6612531774
 11
8.7199896617
 21
71.661605692
  0
LINE
  5
52C
100
AcDbEntity
  8
ASSI
100
AcDbLine
 62
253
  6
CONTINUOUS
 10
8.7716153964
 20
71.5614543312
 11
8.8271847744
 21
71.5618646489
  0
LINE
  5
52D
100
AcDbEntity
  8
ASSI
100
AcDbLine
 62
253
  6
CONTINUOUS
 10
8.587700917
 20
71.6609879787
 11
8.6740931924
 21
71.6612531774
  0
LINE
  5
52E
100
AcDbEntity
  8
ASSI
100
AcDbLine
 62
253
  6
CONTINUOUS
 10
8.5982549675
 20
71.5609917751
 11
8.7716153964
 21
71.5614543312
  0
LINE
  5
52F
100
AcDbEntity
  8
ASSI
100
AcDbLine
 62
253
  6
CONTINUOUS
 10
8.5664091763
 20
71.660978333
 11
8.587700917
 21
71.6609879787
  0
LINE
  5
530
100
AcDbEntity
  8
ASSI
100
AcDbLine
 62
7
  6
CONTINUOUS
 10
9.5121049871
 20
70.75
 11
8.2
 21
70.75
  0
LINE
  5
531
100
AcDbEntity
  8
ASSI
100
AcDbLine
 62
7
  6
CONTINUOUS
 10
8.5664091763
 20
70.839021667
 11
8.2
 21
70.839021667
  0
LINE
  5
532
100
AcDbEntity
  8
ASSI
100
AcDbLine
 62
7
  6
CONTINUOUS
 10
-8.2
 20
70.839021667
 11
-8.5664091763
 21
70.839021667
  0
LINE
  5
533
100
AcDbEntity
  8
ASSI
100
AcDbLine
 62
253
  6
CONTINUOUS
 10
-8.2
 20
70.9390178593
 11
-8.5664091763
 21
70.9390178593
  0
LINE
  5
534
100
AcDbEntity
  8
ASSI
100
AcDbLine
 62
253
  6
CONTINUOUS
 10
8.2
 20
71.5609821407
 11
8.5982549675
 21
71.5609917751
  0
LINE
  5
535
100
AcDbEntity
  8
ASSI
100
AcDbLine
 62
7
  6
CONTINUOUS
 10
-8.5664091763
 20
71.660978333
 11
-8.2
 21
71.660978333
  0
LINE
  5
536
100
AcDbEntity
  8
ASSI
100
AcDbLine
 62
7
  6
CONTINUOUS
 10
8.2
 20
71.660978333
 11
8.5664091763
 21
71.660978333
  0
LINE
  5
537
100
AcDbEntity
  8
ASSI
100
AcDbLine
 62
7
  6
CONTINUOUS
 10
9.5121049871
 20
71.75
 11
8.2
 21
71.75
  0
LINE
  5
538
100
AcDbEntity
  8
ASSI
100
AcDbLine
 62
253
  6
CONTINUOUS
 10
8.7431875371
 20
70.9386824103
 11
8.2
 21
70.9390178593
  0
LINE
  5
539
100
AcDbEntity
  8
ASSI
100
AcDbLine
 62
253
  6
CONTINUOUS
 10
8.663627808
 20
70.8388015801
 11
8.5664091763
 21
70.839021667
  0
LINE
  5
53A
100
AcDbEntity
  8
ASSI
100
AcDbLine
 62
253
  6
CONTINUOUS
 10
8.818077673
 20
70.9382223003
 11
8.7431875371
 21
70.9386824103
  0
LINE
  5
53B
100
AcDbEntity
  8
ASSI
100
AcDbLine
 62
253
  6
CONTINUOUS
 10
8.7119175896
 20
70.8384734341
 11
8.663627808
 21
70.8388015801
  0
LINE
  5
53C
100
AcDbEntity
  8
ASSI
100
AcDbLine
 62
253
  6
CONTINUOUS
 10
8.7341707385
 20
70.8382260961
 11
8.7119175896
 21
70.8384734341
  0
LWPOLYLINE
  5
53D
100
AcDbEntity
  8
ASSI
100
AcDbPolyline
 62
253
  6
CONTINUOUS
 90
3
 70
0
 10
8.8483169625
 20
70.9378694387
 10
8.8422634428
 20
70.937959263
 10
8.818077673
 20
70.9382223003
  0
LINE
  5
53E
100
AcDbEntity
  8
ASSI
100
AcDbLine
 62
253
  6
CONTINUOUS
 10
8.745640889
 20
70.8380517266
 11
8.7341707385
 21
70.8382260961
  0
LINE
  5
53F
100
AcDbEntity
  8
ASSI
100
AcDbLine
 62
253
  6
CONTINUOUS
 10
8.7543477005
 20
70.8378732464
 11
8.745640889
 21
70.8380517266
  0
LINE
  5
540
100
AcDbEntity
  8
ASSI
100
AcDbLine
 62
253
  6
CONTINUOUS
 10
9.6451445666
 20
70.8165147237
 11
8.7543477005
 21
70.8378732464
  0
LINE
  5
541
100
AcDbEntity
  8
ASSI
100
AcDbLine
 62
253
  6
CONTINUOUS
 10
9.65
 20
70.9186475869
 11
8.8483169625
 21
70.9378694387
  0
LINE
  5
542
100
AcDbEntity
  8
ASSI
100
AcDbLine
 62
7
  6
CONTINUOUS
 10
9.5121049871
 20
71.75
 11
9.6451445666
 21
71.6834852763
  0
LWPOLYLINE
  5
543
100
AcDbEntity
  8
ASSI
100
AcDbPolyline
 62
7
  6
CONTINUOUS
 90
13
 70
0
 10
-4.7587036269
 20
82.0688401295
 10
-4.7956813646
 20
82.0933810155
 10
-4.8339462605
 20
82.1135162038
 10
-4.8734983145
 20
82.1292456946
 10
-4.9147700167
 20
82.1406340747
 10
-4.9573288771
 20
82.1476167572
 10
-4.9998774251
 20
82.149999981
 10
-5.0423928312
 20
82.147662975
 10
-5.084897925
 20
82.1407265102
 10
-5.1261637243
 20
82.1293591381
 10
-5.1657805684
 20
82.1136170425
 10
-5.204158118
 20
82.0934440397
 10
-5.2412963731
 20
82.0688401295
  0
LWPOLYLINE
  5
544
100
AcDbEntity
  8
ASSI
100
AcDbPolyline
 62
7
  6
CONTINUOUS
 90
13
 70
0
 10
5.2412963731
 20
82.0688401295
 10
5.2043181875
 20
82.0933811395
 10
5.1660530703
 20
82.1135164023
 10
5.1265010214
 20
82.1292459178
 10
5.0852295885
 20
82.1406342098
 10
5.042671224
 20
82.1476167545
 10
5.0001232849
 20
82.1499999807
 10
4.957608804
 20
82.1476633048
 10
4.9151047485
 20
82.1407273103
 10
4.8738393771
 20
82.1293601776
 10
4.8342221096
 20
82.1136179666
 10
4.7958435261
 20
82.0934446172
 10
4.7587036269
 20
82.0688401295
  0
LINE
  5
545
100
AcDbEntity
  8
ASSI
100
AcDbLine
 62
253
  6
CONTINUOUS
 10
-11.1417094756
 20
93.1441990932
 11
-11.1504363434
 21
93.150016923
  0
LINE
  5
546
100
AcDbEntity
  8
ASSI
100
AcDbLine
 62
253
  6
CONTINUOUS
 10
-10.6417158217
 20
93.6441821702
 11
-10.6504426895
 21
93.65
  0
LINE
  5
547
100
AcDbEntity
  8
ASSI
100
AcDbLine
 62
7
  6
CONTINUOUS
 10
7.2558178298
 20
93.6441821702
 11
8.25
 21
92.65
  0
LINE
  5
548
100
AcDbEntity
  8
ASSI
100
AcDbLine
 62
7
  6
CONTINUOUS
 10
9.65
 20
91.4490396502
 11
8.9498936624
 21
92.15
  0
LINE
  5
549
100
AcDbEntity
  8
ASSI
100
AcDbLine
 62
7
  6
CONTINUOUS
 10
3.9530427099
 20
94.7063578147
 11
3.7286778988
 21
94.9428369767
  0
LINE
  5
54A
100
AcDbEntity
  8
ASSI
100
AcDbLine
 62
7
  6
CONTINUOUS
 10
3.7286778988
 20
94.9428369767
 11
3.6633536234
 21
95.0125515554
  0
LINE
  5
54B
100
AcDbEntity
  8
ASSI
100
AcDbLine
 62
7
  6
CONTINUOUS
 10
3.6633536234
 20
95.0125515554
 11
3.6223129064
 21
95.0568596585
  0
LINE
  5
54C
100
AcDbEntity
  8
ASSI
100
AcDbLine
 62
7
  6
CONTINUOUS
 10
3.6223129064
 20
95.0568596585
 11
3.5986146604
 21
95.0827369404
  0
LWPOLYLINE
  5
54D
100
AcDbEntity
  8
ASSI
100
AcDbPolyline
 62
7
  6
CONTINUOUS
 90
19
 70
0
 10
3.5986146604
 20
95.0827369404
 10
3.577788302
 20
95.1057654259
 10
3.5684285884
 20
95.1162197598
 10
3.5597433108
 20
95.1260170069
 10
3.5517238946
 20
95.1351536246
 10
3.5443545838
 20
95.1436331555
 10
3.5376052965
 20
95.151513278
 10
3.5314713862
 20
95.1587908768
 10
3.52593297
 20
95.1654690671
 10
3.5209487025
 20
95.1716148736
 10
3.5165095884
 20
95.1772405051
 10
3.5126153719
 20
95.1823337527
 10
3.5092504675
 20
95.1869250142
 10
3.5064111837
 20
95.1910186345
 10
3.5040963884
 20
95.1946102688
 10
3.5023001913
 20
95.1977172805
 10
3.5010200733
 20
95.2003454576
 10
3.5002544119
 20
95.2024890121
 10
3.5
 20
95.2041479441
  0
LWPOLYLINE
  5
54E
100
AcDbEntity
  8
0
100
AcDbPolyline
 62
253
  6
CONTINUOUS
 90
30
 70
0
 10
6.0861502423
 20
78.6534961101
 10
6.0186123977
 20
78.6450022984
 10
5.9539736934
 20
78.6365638545
 10
5.8922242659
 20
78.6281806862
 10
5.8333739787
 20
78.6198528857
 10
5.7772377674
 20
78.6115736287
 10
5.7238065162
 20
78.603342824
 10
5.6730893409
 20
78.5951605627
 10
5.6249285244
 20
78.5870202941
 10
5.5793157859
 20
78.5789219902
 10
5.5362594062
 20
78.5708656789
 10
5.4956265099
 20
78.5628448933
 10
5.4574094012
 20
78.5548594082
 10
5.4216157759
 20
78.5469094488
 10
5.3881358453
 20
78.5389892236
 10
5.3569620896
 20
78.5310993283
 10
5.3281020285
 20
78.5232391672
 10
5.301468433
 20
78.5154011619
 10
5.2770537698
 20
78.5075827717
 10
5.2548655722
 20
78.4997865371
 10
5.2348392106
 20
78.492012502
 10
5.2169755275
 20
78.4842686457
 10
5.2012736803
 20
78.4765469888
 10
5.1876665117
 20
78.468823636
 10
5.1761270965
 20
78.4610989856
 10
5.1666823598
 20
78.4533726392
 10
5.15934592
 20
78.4456195065
 10
5.1541223165
 20
78.437831224
 10
5.1510070098
 20
78.4300161552
 10
5.15
 20
78.4221743
  0
LINE
  5
54F
100
AcDbEntity
  8
0
100
AcDbLine
 62
253
  6
CONTINUOUS
 10
6.2305564269
 20
78.6706710348
 11
6.0861502423
 21
78.6534961101
  0
LINE
  5
550
100
AcDbEntity
  8
0
100
AcDbLine
 62
253
  6
CONTINUOUS
 10
6.3876542176
 20
78.6881031429
 11
6.2305564269
 21
78.6706710348
  0
LINE
  5
551
100
AcDbEntity
  8
0
100
AcDbLine
 62
253
  6
CONTINUOUS
 10
6.5581723395
 20
78.7058145344
 11
6.3876542176
 21
78.6881031429
  0
LINE
  5
552
100
AcDbEntity
  8
0
100
AcDbLine
 62
253
  6
CONTINUOUS
 10
6.7429718105
 20
78.7238286586
 11
6.5581723395
 21
78.7058145344
  0
LINE
  5
553
100
AcDbEntity
  8
0
100
AcDbLine
 62
253
  6
CONTINUOUS
 10
6.9426602266
 20
78.742161513
 11
6.7429718105
 21
78.7238286586
  0
LINE
  5
554
100
AcDbEntity
  8
0
100
AcDbLine
 62
253
  6
CONTINUOUS
 10
7.1581944973
 20
78.7608376493
 11
6.9426602266
 21
78.742161513
  0
LWPOLYLINE
  5
555
100
AcDbEntity
  8
0
100
AcDbPolyline
 62
253
  6
CONTINUOUS
 90
3
 70
0
 10
7.6409308178
 20
78.7993147674
 10
7.5137116877
 20
78.7895530964
 10
7.1581944973
 20
78.7608376493
  0
LINE
  5
556
100
AcDbEntity
  8
0
100
AcDbLine
 62
253
  6
CONTINUOUS
 10
8.15
 20
74.427656161
 11
-8.15
 21
74.427656161
  0
LINE
  5
557
100
AcDbEntity
  8
ASSI
100
AcDbLine
 62
7
  6
CONTINUOUS
 10
8.2500038077
 20
77.15
 11
8.2
 21
77.15
  0
LINE
  5
558
100
AcDbEntity
  8
ASSI
100
AcDbLine
 62
253
  6
CONTINUOUS
 10
-8.260978333
 20
77.5372801014
 11
-8.2
 21
77.5372801014
  0
LINE
  5
559
100
AcDbEntity
  8
ASSI
100
AcDbLine
 62
253
  6
CONTINUOUS
 10
8.2
 20
77.5372800945
 11
8.260978333
 21
77.5372801014
  0
LINE
  5
55A
100
AcDbEntity
  8
0
100
AcDbLine
 62
253
  6
CONTINUOUS
 10
5.15
 20
78.4221743
 11
-5.15
 21
78.4221743
  0
LINE
  5
55B
100
AcDbEntity
  8
0
100
AcDbLine
 62
253
  6
CONTINUOUS
 10
-7.2724970331
 20
78.7703307079
 11
-7.6409418009
 21
78.7993147674
  0
LINE
  5
55C
100
AcDbEntity
  8
0
100
AcDbLine
 62
253
  6
CONTINUOUS
 10
-7.0486270241
 20
78.7514725025
 11
-7.2724970331
 21
78.7703307079
  0
LINE
  5
55D
100
AcDbEntity
  8
0
100
AcDbLine
 62
253
  6
CONTINUOUS
 10
-6.8409691779
 20
78.7329647716
 11
-7.0486270241
 21
78.7514725025
  0
LWPOLYLINE
  5
55E
100
AcDbEntity
  8
ASSI
100
AcDbPolyline
 62
253
  6
CONTINUOUS
 90
10
 70
0
 10
8.7543477005
 20
71.6621267536
 10
8.7706346738
 20
71.6605616111
 10
8.7864286497
 20
71.6560170169
 10
8.8012515536
 20
71.6486305333
 10
8.8146547047
 20
71.638625745
 10
8.8262323972
 20
71.6263054911
 10
8.835634181
 20
71.6120426988
 10
8.8425754694
 20
71.5962690945
 10
8.8468461536
 20
71.5794621364
 10
8.8483169625
 20
71.5621305613
  0
LINE
  5
55F
100
AcDbEntity
  8
0
100
AcDbLine
 62
253
  6
CONTINUOUS
 10
-6.6488620358
 20
78.7147931222
 11
-6.8409691779
 21
78.7329647716
  0
LINE
  5
560
100
AcDbEntity
  8
0
100
AcDbLine
 62
253
  6
CONTINUOUS
 10
-6.4713099652
 20
78.6969319189
 11
-6.6488620358
 21
78.7147931222
  0
LINE
  5
561
100
AcDbEntity
  8
0
100
AcDbLine
 62
253
  6
CONTINUOUS
 10
-6.3074773122
 20
78.6793579793
 11
-6.4713099652
 21
78.6969319189
  0
LWPOLYLINE
  5
562
100
AcDbEntity
  8
0
100
AcDbPolyline
 62
253
  6
CONTINUOUS
 90
30
 70
0
 10
7.7415721389
 20
78.7827210905
 10
7.7686935129
 20
78.7753419305
 10
7.7824135164
 20
78.7709634267
 10
7.7954175425
 20
78.7658162558
 10
7.8083200993
 20
78.7599883713
 10
7.8218353496
 20
78.7535816784
 10
7.8361662606
 20
78.7466857604
 10
7.850977764
 20
78.7391907255
 10
7.8661202082
 20
78.7309024643
 10
7.8814833229
 20
78.7217186606
 10
7.8971225995
 20
78.7116418282
 10
7.9131467558
 20
78.700600294
 10
7.9295191383
 20
78.6885633237
 10
7.9461320903
 20
78.675484612
 10
7.9629564381
 20
78.6612653809
 10
7.9798962412
 20
78.6458634302
 10
7.996844755
 20
78.6292585903
 10
8.0137320069
 20
78.6113823783
 10
8.0304104223
 20
78.5922342142
 10
8.0467413099
 20
78.5718053495
 10
8.0626285908
 20
78.5500234344
 10
8.0778715221
 20
78.5269363109
 10
8.0922743865
 20
78.5025754092
 10
8.1056884433
 20
78.4768609158
 10
8.1178486002
 20
78.4498940956
 10
8.1284864738
 20
78.4217924174
 10
8.137363166
 20
78.3925405549
 10
8.1441504254
 20
78.3622851944
 10
8.1484794808
 20
78.3313379603
 10
8.1499998023
 20
78.3000013492
  0
LINE
  5
563
100
AcDbEntity
  8
0
100
AcDbLine
 62
253
  6
CONTINUOUS
 10
7.7196098805
 20
78.7893240047
 11
7.7415721389
 21
78.7827210905
  0
LWPOLYLINE
  5
564
100
AcDbEntity
  8
ASSI
100
AcDbPolyline
 62
253
  6
CONTINUOUS
 90
11
 70
0
 10
-6.3762928866
 20
81.1635135529
 10
-6.4018572541
 20
81.1727458911
 10
-6.4370853523
 20
81.1900833639
 10
-6.4697806217
 20
81.2118974244
 10
-6.4993443067
 20
81.2377987813
 10
-6.5252653876
 20
81.2673389753
 10
-6.5471030729
 20
81.3000147605
 10
-6.5644729037
 20
81.3352435787
 10
-6.5770829698
 20
81.3724099627
 10
-6.5847298677
 20
81.4108819013
 10
-6.5872915245
 20
81.45
  0
LINE
  5
565
100
AcDbEntity
  8
ASSI
100
AcDbLine
 62
7
  6
CONTINUOUS
 10
9.5121049871
 20
80.15
 11
9.6451445666
 21
80.0834852763
  0
LWPOLYLINE
  5
566
100
AcDbEntity
  8
ASSI
100
AcDbPolyline
 62
7
  6
CONTINUOUS
 90
13
 70
0
 10
-7.3648374941
 20
95.7103145581
 10
-7.3749975717
 20
95.7165073916
 10
-7.3854408124
 20
95.7222097688
 10
-7.3961435537
 20
95.7274087722
 10
-7.4070815507
 20
95.7320926258
 10
-7.4182300262
 20
95.7362507213
 10
-7.429563721
 20
95.7398736417
 10
-7.4410569612
 20
95.7429531817
 10
-7.4526837125
 20
95.7454823677
 10
-7.4644176339
 20
95.7474554741
 10
-7.4762321444
 20
95.7488680342
 10
-7.488100484
 20
95.7497168498
 10
-7.4999957692
 20
95.75
  0
LINE
  5
567
100
AcDbEntity
  8
0
100
AcDbLine
 62
253
  6
CONTINUOUS
 10
-7.6562755236
 20
78.7985470755
 11
-7.6409308211
 21
78.7993147672
  0
LINE
  5
568
100
AcDbEntity
  8
ASSI
100
AcDbLine
 62
7
  6
CONTINUOUS
 10
5.3838714895
 20
82.0732312062
 11
5.3683939864
 21
82.0724679209
  0
LINE
  5
569
100
AcDbEntity
  8
ASSI
100
AcDbLine
 62
7
  6
CONTINUOUS
 10
-4.6161275606
 20
82.073231261
 11
-4.6316065308
 21
82.0724678976
  0
LWPOLYLINE
  5
56A
100
AcDbEntity
  8
ASSI
100
AcDbPolyline
 62
253
  6
CONTINUOUS
 90
19
 70
0
 10
6.2872572544
 20
80.85
 10
6.3403231904
 20
80.8524436562
 10
6.3921925827
 20
80.8592869768
 10
6.4428654316
 20
80.8705299617
 10
6.4927265881
 20
80.8863497167
 10
6.541391201
 20
80.9065691361
 10
6.5877047166
 20
80.9306569029
 10
6.6315609416
 20
80.9586660645
 10
6.6730660692
 20
80.9905435734
 10
6.7113841253
 20
81.0255989701
 10
6.7464609138
 20
81.0638737029
 10
6.7783506307
 20
81.1053263235
 10
6.8063798895
 20
81.1491420271
 10
6.8305041889
 20
81.1954207452
 10
6.8507680301
 20
81.2440625464
 10
6.8666315302
 20
81.2939528324
 10
6.8779147283
 20
81.3447200702
 10
6.8847975854
 20
81.3967357928
 10
6.8872801014
 20
81.45
  0
LINE
  5
56B
100
AcDbEntity
  8
ASSI
100
AcDbLine
 62
7
  6
CONTINUOUS
 10
5.3683939864
 20
82.0724679209
 11
5.3512422888
 21
82.0717542479
  0
LINE
  5
56C
100
AcDbEntity
  8
ASSI
100
AcDbLine
 62
7
  6
CONTINUOUS
 10
-4.6316065308
 20
82.0724678976
 11
-4.6487581077
 21
82.0717542312
  0
LINE
  5
56D
100
AcDbEntity
  8
ASSI
100
AcDbLine
 62
7
  6
CONTINUOUS
 10
5.3512422888
 20
82.0717542479
 11
5.3325214931
 21
82.0710878227
  0
LINE
  5
56E
100
AcDbEntity
  8
ASSI
100
AcDbLine
 62
7
  6
CONTINUOUS
 10
-4.6487581077
 20
82.0717542312
 11
-4.6674782795
 21
82.0710878295
  0
LINE
  5
56F
100
AcDbEntity
  8
ASSI
100
AcDbLine
 62
7
  6
CONTINUOUS
 10
5.3325214931
 20
82.0710878227
 11
5.3015512856
 21
82.0701714444
  0
LINE
  5
570
100
AcDbEntity
  8
ASSI
100
AcDbLine
 62
7
  6
CONTINUOUS
 10
-4.6674782795
 20
82.0710878295
 11
-4.6984473453
 21
82.0701714804
  0
LWPOLYLINE
  5
571
100
AcDbEntity
  8
0
100
AcDbPolyline
 62
253
  6
CONTINUOUS
 90
10
 70
0
 10
7.6409308178
 20
78.8
 10
7.6405995724
 20
78.7999915802
 10
7.6403511387
 20
78.7999662798
 10
7.6401855166
 20
78.7999240377
 10
7.6401027065
 20
78.7998647388
 10
7.6401027081
 20
78.7997883501
 10
7.6401855201
 20
78.7996950577
 10
7.6403511422
 20
78.7995850209
 10
7.6405995748
 20
78.7994582358
 10
7.6409308178
 20
78.7993147674
  0
LINE
  5
572
100
AcDbEntity
  8
ASSI
100
AcDbLine
 62
253
  6
CONTINUOUS
 10
9.65
 20
79.9813524131
 11
8.8483169625
 21
79.9621305613
  0
LINE
  5
573
100
AcDbEntity
  8
ASSI
100
AcDbLine
 62
253
  6
CONTINUOUS
 10
9.6451445666
 20
80.0834852763
 11
8.750588319
 21
80.0620416707
  0
LINE
  5
574
100
AcDbEntity
  8
ASSI
100
AcDbLine
 62
7
  6
CONTINUOUS
 10
5.3015512856
 20
82.0701714444
 11
5.2668185065
 21
82.0693450446
  0
LINE
  5
575
100
AcDbEntity
  8
ASSI
100
AcDbLine
 62
7
  6
CONTINUOUS
 10
-4.6984473453
 20
82.0701714804
 11
-4.733180091
 21
82.0693450762
  0
LINE
  5
576
100
AcDbEntity
  8
ASSI
100
AcDbLine
 62
7
  6
CONTINUOUS
 10
5.2668185065
 20
82.0693450446
 11
5.2412963731
 21
82.0688401295
  0
LINE
  5
577
100
AcDbEntity
  8
ASSI
100
AcDbLine
 62
7
  6
CONTINUOUS
 10
-4.733180091
 20
82.0693450762
 11
-4.7587036269
 21
82.0688401295
  0
LINE
  5
578
100
AcDbEntity
  8
ASSI
100
AcDbLine
 62
253
  6
CONTINUOUS
 10
8.750588319
 20
80.0620416707
 11
8.7410321134
 21
80.0618728114
  0
LINE
  5
579
100
AcDbEntity
  8
ASSI
100
AcDbLine
 62
253
  6
CONTINUOUS
 10
8.7410321134
 20
80.0618728114
 11
8.7216041983
 21
80.0616227886
  0
LINE
  5
57A
100
AcDbEntity
  8
ASSI
100
AcDbLine
 62
253
  6
CONTINUOUS
 10
8.8483169625
 20
79.9621305613
 11
8.8283430614
 21
79.9618766191
  0
LINE
  5
57B
100
AcDbEntity
  8
ASSI
100
AcDbLine
 62
253
  6
CONTINUOUS
 10
8.7216041983
 20
80.0616227886
 11
8.6765076835
 21
80.0612668038
  0
LINE
  5
57C
100
AcDbEntity
  8
ASSI
100
AcDbLine
 62
253
  6
CONTINUOUS
 10
8.8283430614
 20
79.9618766191
 11
8.7747495071
 21
79.9614716257
  0
LINE
  5
57D
100
AcDbEntity
  8
ASSI
100
AcDbLine
 62
253
  6
CONTINUOUS
 10
8.6765076835
 20
80.0612668038
 11
8.5879212581
 21
80.0609879494
  0
LINE
  5
57E
100
AcDbEntity
  8
ASSI
100
AcDbLine
 62
253
  6
CONTINUOUS
 10
8.7747495071
 20
79.9614716257
 11
8.6151808047
 21
79.9610053613
  0
LINE
  5
57F
100
AcDbEntity
  8
ASSI
100
AcDbLine
 62
253
  6
CONTINUOUS
 10
8.5879212581
 20
80.0609879494
 11
8.5664091763
 21
80.060978333
  0
LINE
  5
580
100
AcDbEntity
  8
0
100
AcDbLine
 62
253
  6
CONTINUOUS
 10
-7.6409418009
 20
78.7993147674
 11
7.6409308178
 21
78.7993147674
  0
LINE
  5
581
100
AcDbEntity
  8
0
100
AcDbLine
 62
7
  6
CONTINUOUS
 10
-7.6499999005
 20
78.8
 11
7.6499999011
 21
78.8
  0
LINE
  5
582
100
AcDbEntity
  8
ASSI
100
AcDbLine
 62
7
  6
CONTINUOUS
 10
9.5121049871
 20
79.15
 11
8.35
 21
79.15
  0
LINE
  5
583
100
AcDbEntity
  8
ASSI
100
AcDbLine
 62
7
  6
CONTINUOUS
 10
-7.7372801014
 20
79.15
 11
7.7372801014
 21
79.15
  0
LINE
  5
584
100
AcDbEntity
  8
ASSI
100
AcDbLine
 62
253
  6
CONTINUOUS
 10
6.5
 20
79.1910050506
 11
-6.5
 21
79.1910050506
  0
LINE
  5
585
100
AcDbEntity
  8
ASSI
100
AcDbLine
 62
7
  6
CONTINUOUS
 10
-8.5664091763
 20
79.239021667
 11
-8.260978333
 21
79.239021667
  0
LINE
  5
586
100
AcDbEntity
  8
ASSI
100
AcDbLine
 62
7
  6
CONTINUOUS
 10
8.260978333
 20
79.239021667
 11
8.5664091763
 21
79.239021667
  0
LINE
  5
587
100
AcDbEntity
  8
ASSI
100
AcDbLine
 62
253
  6
CONTINUOUS
 10
-8.5664091763
 20
79.3390178593
 11
-8.1609821407
 21
79.3390178593
  0
LINE
  5
588
100
AcDbEntity
  8
ASSI
100
AcDbLine
 62
7
  6
CONTINUOUS
 10
-6.5
 20
79.85
 11
6.5
 21
79.85
  0
LINE
  5
589
100
AcDbEntity
  8
ASSI
100
AcDbLine
 62
253
  6
CONTINUOUS
 10
8.6151808047
 20
79.9610053613
 11
7.4101132618
 21
79.9609821407
  0
LINE
  5
58A
100
AcDbEntity
  8
ASSI
100
AcDbLine
 62
7
  6
CONTINUOUS
 10
8.5664091763
 20
80.060978333
 11
7.410978333
 21
80.060978333
  0
LINE
  5
58B
100
AcDbEntity
  8
ASSI
100
AcDbLine
 62
7
  6
CONTINUOUS
 10
-9.6451300314
 20
80.15
 11
-7.4109859485
 21
80.15
  0
LINE
  5
58C
100
AcDbEntity
  8
ASSI
100
AcDbLine
 62
7
  6
CONTINUOUS
 10
9.5121049871
 20
80.15
 11
7.5
 21
80.15
  0
LINE
  5
58D
100
AcDbEntity
  8
ASSI
100
AcDbLine
 62
253
  6
CONTINUOUS
 10
6.2872572544
 20
80.85
 11
-6.2872572544
 21
80.85
  0
LINE
  5
58E
100
AcDbEntity
  8
ASSI
100
AcDbLine
 62
7
  6
CONTINUOUS
 10
6.2872572544
 20
81.15
 11
-6.2872572544
 21
81.15
  0
LINE
  5
58F
100
AcDbEntity
  8
ASSI
100
AcDbLine
 62
253
  6
CONTINUOUS
 10
-6.8872801014
 20
81.4499999988
 11
-6.5872915245
 21
81.4499999992
  0
LINE
  5
590
100
AcDbEntity
  8
ASSI
100
AcDbLine
 62
253
  6
CONTINUOUS
 10
6.8872801014
 20
81.4500000001
 11
6.5872915245
 21
81.4500000001
  0
LINE
  5
591
100
AcDbEntity
  8
ASSI
100
AcDbLine
 62
7
  6
CONTINUOUS
 10
-6.9101323002
 20
82.0601132618
 11
-6.8872801014
 21
82.0601132618
  0
LINE
  5
592
100
AcDbEntity
  8
ASSI
100
AcDbLine
 62
7
  6
CONTINUOUS
 10
6.8872801014
 20
82.0601132618
 11
6.9101323002
 21
82.0601132618
  0
LINE
  5
593
100
AcDbEntity
  8
ASSI
100
AcDbLine
 62
7
  6
CONTINUOUS
 10
6.5811598705
 20
82.0688401295
 11
5.2412963731
 21
82.0688401295
  0
LINE
  5
594
100
AcDbEntity
  8
ASSI
100
AcDbLine
 62
7
  6
CONTINUOUS
 10
4.7587036269
 20
82.0688401295
 11
-4.7587036269
 21
82.0688401295
  0
LINE
  5
595
100
AcDbEntity
  8
ASSI
100
AcDbLine
 62
7
  6
CONTINUOUS
 10
-5.2412963731
 20
82.0688401295
 11
-6.5811598705
 21
82.0688401295
  0
LINE
  5
596
100
AcDbEntity
  8
ASSI
100
AcDbLine
 62
7
  6
CONTINUOUS
 10
-7.0000190385
 20
82.15
 11
-5.5
 21
82.15
  0
LINE
  5
597
100
AcDbEntity
  8
ASSI
100
AcDbLine
 62
7
  6
CONTINUOUS
 10
-4.5
 20
82.15
 11
4.5
 21
82.15
  0
LINE
  5
598
100
AcDbEntity
  8
ASSI
100
AcDbLine
 62
7
  6
CONTINUOUS
 10
5.5
 20
82.15
 11
7.0000190385
 21
82.15
  0
LINE
  5
599
100
AcDbEntity
  8
ASSI
100
AcDbLine
 62
7
  6
CONTINUOUS
 10
9.5121049871
 20
83.7632676422
 11
5.5
 21
83.7632676422
  0
LINE
  5
59A
100
AcDbEntity
  8
ASSI
100
AcDbLine
 62
7
  6
CONTINUOUS
 10
4.5
 20
83.7632676422
 11
-4.5
 21
83.7632676422
  0
LINE
  5
59B
100
AcDbEntity
  8
ASSI
100
AcDbLine
 62
7
  6
CONTINUOUS
 10
-5.5
 20
83.7632676422
 11
-9.5121049871
 21
83.7632676422
  0
LINE
  5
59C
100
AcDbEntity
  8
ASSI
100
AcDbLine
 62
253
  6
CONTINUOUS
 10
8.5664091763
 20
79.239021667
 11
8.6549887485
 21
79.2388410269
  0
LINE
  5
59D
100
AcDbEntity
  8
ASSI
100
AcDbLine
 62
253
  6
CONTINUOUS
 10
8.1609821407
 20
79.3390178593
 11
8.7464445514
 21
79.3386684125
  0
LINE
  5
59E
100
AcDbEntity
  8
ASSI
100
AcDbLine
 62
253
  6
CONTINUOUS
 10
8.7464445514
 20
79.3386684125
 11
8.8195314856
 21
79.3382091402
  0
LINE
  5
59F
100
AcDbEntity
  8
ASSI
100
AcDbLine
 62
253
  6
CONTINUOUS
 10
8.6549887485
 20
79.2388410269
 11
8.7135985419
 21
79.2384576439
  0
LWPOLYLINE
  5
5A0
100
AcDbEntity
  8
ASSI
100
AcDbPolyline
 62
253
  6
CONTINUOUS
 90
3
 70
0
 10
8.8195314856
 20
79.3382091402
 10
8.8425804439
 20
79.3379549321
 10
8.8483169625
 20
79.3378694387
  0
LINE
  5
5A1
100
AcDbEntity
  8
ASSI
100
AcDbLine
 62
253
  6
CONTINUOUS
 10
8.7135985419
 20
79.2384576439
 11
8.7351348437
 21
79.2382129737
  0
LINE
  5
5A2
100
AcDbEntity
  8
ASSI
100
AcDbLine
 62
253
  6
CONTINUOUS
 10
8.7351348437
 20
79.2382129737
 11
8.7461059246
 21
79.2380437418
  0
LINE
  5
5A3
100
AcDbEntity
  8
ASSI
100
AcDbLine
 62
7
  6
CONTINUOUS
 10
-5.2412963731
 20
82.0688401295
 11
-5.2802428651
 21
82.0696429355
  0
LINE
  5
5A4
100
AcDbEntity
  8
ASSI
100
AcDbLine
 62
7
  6
CONTINUOUS
 10
4.7587036269
 20
82.0688401295
 11
4.7197587096
 21
82.069642899
  0
LINE
  5
5A5
100
AcDbEntity
  8
ASSI
100
AcDbLine
 62
253
  6
CONTINUOUS
 10
8.7461059246
 20
79.2380437418
 11
8.7543477005
 21
79.2378732464
  0
LINE
  5
5A6
100
AcDbEntity
  8
ASSI
100
AcDbLine
 62
253
  6
CONTINUOUS
 10
8.7543477005
 20
79.2378732464
 11
9.6451445666
 21
79.2165147237
  0
LINE
  5
5A7
100
AcDbEntity
  8
ASSI
100
AcDbLine
 62
253
  6
CONTINUOUS
 10
8.8483169625
 20
79.3378694387
 11
9.65
 21
79.3186475869
  0
LINE
  5
5A8
100
AcDbEntity
  8
ASSI
100
AcDbLine
 62
7
  6
CONTINUOUS
 10
-5.2802428651
 20
82.0696429355
 11
-5.3143070348
 21
82.0705254043
  0
LINE
  5
5A9
100
AcDbEntity
  8
ASSI
100
AcDbLine
 62
7
  6
CONTINUOUS
 10
4.7197587096
 20
82.069642899
 11
4.6856942037
 21
82.0705253685
  0
LINE
  5
5AA
100
AcDbEntity
  8
ASSI
100
AcDbLine
 62
7
  6
CONTINUOUS
 10
-5.3143070348
 20
82.0705254043
 11
-5.3347371062
 21
82.0711616689
  0
LINE
  5
5AB
100
AcDbEntity
  8
ASSI
100
AcDbLine
 62
7
  6
CONTINUOUS
 10
4.6856942037
 20
82.0705253685
 11
4.6652640279
 21
82.0711616309
  0
LINE
  5
5AC
100
AcDbEntity
  8
ASSI
100
AcDbLine
 62
7
  6
CONTINUOUS
 10
-5.3347371062
 20
82.0711616689
 11
-5.3534254527
 21
82.0718388339
  0
LINE
  5
5AD
100
AcDbEntity
  8
ASSI
100
AcDbLine
 62
7
  6
CONTINUOUS
 10
4.6652640279
 20
82.0711616309
 11
4.6465755512
 21
82.0718387962
  0
LWPOLYLINE
  5
5AE
100
AcDbEntity
  8
ASSI
100
AcDbPolyline
 62
7
  6
CONTINUOUS
 90
14
 70
0
 10
-5.3534254527
 20
82.0718388339
 10
-5.3703683365
 20
82.0725581065
 10
-5.3781570729
 20
82.072933538
 10
-5.3854887528
 20
82.0733198606
 10
-5.3923318272
 20
82.0737192054
 10
-5.398704789
 20
82.0741313871
 10
-5.4045891451
 20
82.0745565911
 10
-5.4098978671
 20
82.0749975044
 10
-5.41465696
 20
82.0754541274
 10
-5.4188404187
 20
82.0759264597
 10
-5.4222831999
 20
82.076417188
 10
-5.4249302892
 20
82.0769272078
 10
-5.426836701
 20
82.0774556236
 10
-5.4280024353
 20
82.0780024353
  0
LWPOLYLINE
  5
5AF
100
AcDbEntity
  8
ASSI
100
AcDbPolyline
 62
7
  6
CONTINUOUS
 90
14
 70
0
 10
4.6465755512
 20
82.0718387962
 10
4.6296327167
 20
82.0725580579
 10
4.6218445513
 20
82.0729334524
 10
4.6145136698
 20
82.0733197236
 10
4.6076712237
 20
82.0737190185
 10
4.6012986023
 20
82.0741311535
 10
4.5954144163
 20
82.0745563122
 10
4.5901056494
 20
82.0749971925
 10
4.5853462312
 20
82.0754537895
 10
4.5811622321
 20
82.0759261081
 10
4.5777188464
 20
82.0764168607
 10
4.5750711391
 20
82.0769269515
 10
4.5731640451
 20
82.0774554764
 10
4.5719975647
 20
82.0780024353
  0
LWPOLYLINE
  5
5B0
100
AcDbEntity
  8
ASSI
100
AcDbPolyline
 62
7
  6
CONTINUOUS
 90
4
 70
0
 10
-6.2872572544
 20
81.15
 10
-6.3263004911
 20
81.1525508672
 10
-6.3647197539
 20
81.1601708225
 10
-6.3762928866
 20
81.1635135529
  0
LWPOLYLINE
  5
5B1
100
AcDbEntity
  8
0
100
AcDbPolyline
 62
253
  6
CONTINUOUS
 90
4
 70
0
 10
7.6408103581
 20
78.7993056554
 10
7.6491718591
 20
78.7986264667
 10
7.658811745
 20
78.7977218921
 10
7.6822105063
 20
78.7953170935
  0
LINE
  5
5B2
100
AcDbEntity
  8
0
100
AcDbLine
 62
253
  6
CONTINUOUS
 10
7.6822105063
 20
78.7953170935
 11
7.6957762205
 21
78.7938400876
  0
LWPOLYLINE
  5
5B3
100
AcDbEntity
  8
0
100
AcDbPolyline
 62
253
  6
CONTINUOUS
 90
3
 70
0
 10
7.6957762205
 20
78.7938400876
 10
7.7085751721
 20
78.7919139221
 10
7.7196098805
 20
78.7893240047
  0
LWPOLYLINE
  5
5B4
100
AcDbEntity
  8
ASSI
100
AcDbPolyline
 62
7
  6
CONTINUOUS
 90
16
 70
0
 10
10.0637171191
 20
95.6889389589
 10
10.0545418038
 20
95.6965147107
 10
10.0450164051
 20
95.7036452955
 10
10.0351625059
 20
95.7103145581
 10
10.0250024283
 20
95.7165073916
 10
10.0145591876
 20
95.7222097688
 10
10.0038564463
 20
95.7274087722
 10
9.9929184493
 20
95.7320926258
 10
9.9817699738
 20
95.7362507213
 10
9.970436279
 20
95.7398736417
 10
9.9589430388
 20
95.7429531817
 10
9.9473162875
 20
95.7454823677
 10
9.9355823661
 20
95.7474554741
 10
9.9237678556
 20
95.7488680342
 10
9.911899516
 20
95.7497168498
 10
9.9000042308
 20
95.75
  0
LWPOLYLINE
  5
5B5
100
AcDbEntity
  8
ASSI
100
AcDbPolyline
 62
7
  6
CONTINUOUS
 90
29
 70
0
 10
7.4454722837
 20
95.7385897127
 10
7.4339763181
 20
95.7355111341
 10
7.422641553
 20
95.7318895243
 10
7.411491941
 20
95.7277326699
 10
7.4005525399
 20
95.7230498963
 10
7.3898480051
 20
95.717851711
 10
7.3794027516
 20
95.7121499225
 10
7.369240676
 20
95.7059575601
 10
7.3593848913
 20
95.6992887229
 10
7.3498576298
 20
95.6921584695
 10
7.3406804166
 20
95.6845829086
 10
7.331874025
 20
95.6765791771
 10
7.3234584388
 20
95.6681654255
 10
7.3154527446
 20
95.6593607299
 10
7.3078750881
 20
95.6501850429
 10
7.3007426371
 20
95.6406591487
 10
7.294071557
 20
95.6308046326
 10
7.2878769647
 20
95.6206438204
 10
7.2821728994
 20
95.6101997352
 10
7.2769722918
 20
95.5994960488
 10
7.2722869275
 20
95.5885570152
 10
7.2681274232
 20
95.5774074189
 10
7.264503206
 20
95.5660725264
 10
7.2614224874
 20
95.5545780153
 10
7.2588922504
 20
95.542949936
 10
7.2569182318
 20
95.5312146563
 10
7.255504903
 20
95.519398774
 10
7.2546554629
 20
95.5075290557
 10
7.254371834
 20
95.4956323968
  0
LWPOLYLINE
  5
5B6
100
AcDbEntity
  8
ASSI
100
AcDbPolyline
 62
7
  6
CONTINUOUS
 90
29
 70
0
 10
-9.9545277163
 20
95.7385897127
 10
-9.9660236819
 20
95.7355111341
 10
-9.977358447
 20
95.7318895243
 10
-9.988508059
 20
95.7277326699
 10
-9.9994474601
 20
95.7230498963
 10
-10.0101519949
 20
95.717851711
 10
-10.0205972484
 20
95.7121499225
 10
-10.030759324
 20
95.7059575601
 10
-10.0406151087
 20
95.6992887229
 10
-10.0501423702
 20
95.6921584695
 10
-10.0593195834
 20
95.6845829086
 10
-10.068125975
 20
95.6765791771
 10
-10.0765415612
 20
95.6681654255
 10
-10.0845472554
 20
95.6593607299
 10
-10.0921249119
 20
95.6501850429
 10
-10.0992573629
 20
95.6406591487
 10
-10.105928443
 20
95.6308046326
 10
-10.1121230353
 20
95.6206438204
 10
-10.1178271006
 20
95.6101997352
 10
-10.1230277082
 20
95.5994960488
 10
-10.1277130725
 20
95.5885570152
 10
-10.1318725768
 20
95.5774074189
 10
-10.135496794
 20
95.5660725264
 10
-10.1385775126
 20
95.5545780153
 10
-10.1411077496
 20
95.542949936
 10
-10.1430817682
 20
95.5312146563
 10
-10.144495097
 20
95.519398774
 10
-10.1453445371
 20
95.5075290557
 10
-10.145628166
 20
95.4956323968
  0
LWPOLYLINE
  5
5B7
100
AcDbEntity
  8
ASSI
100
AcDbPolyline
 62
7
  6
CONTINUOUS
 90
12
 70
0
 10
7.4526837125
 20
95.7454823677
 10
7.4410569612
 20
95.7429531817
 10
7.429563721
 20
95.7398736417
 10
7.4182300262
 20
95.7362507213
 10
7.4070815507
 20
95.7320926258
 10
7.3961435537
 20
95.7274087722
 10
7.3854408124
 20
95.7222097688
 10
7.3749975717
 20
95.7165073916
 10
7.3648374941
 20
95.7103145581
 10
7.3549835949
 20
95.7036452955
 10
7.3454581962
 20
95.6965147107
 10
7.3362828809
 20
95.6889389589
  0
LWPOLYLINE
  5
5B8
100
AcDbEntity
  8
ASSI
100
AcDbPolyline
 62
7
  6
CONTINUOUS
 90
12
 70
0
 10
-9.9473162875
 20
95.7454823677
 10
-9.9589430388
 20
95.7429531817
 10
-9.970436279
 20
95.7398736417
 10
-9.9817699738
 20
95.7362507213
 10
-9.9929184493
 20
95.7320926258
 10
-10.0038564463
 20
95.7274087722
 10
-10.0145591876
 20
95.7222097688
 10
-10.0250024283
 20
95.7165073916
 10
-10.0351625059
 20
95.7103145581
 10
-10.0450164051
 20
95.7036452955
 10
-10.0545418038
 20
95.6965147107
 10
-10.0637171191
 20
95.6889389589
  0
LWPOLYLINE
  5
5B9
100
AcDbEntity
  8
ASSI
100
AcDbPolyline
 62
7
  6
CONTINUOUS
 90
4
 70
0
 10
7.4774875253
 20
95.7441779536
 10
7.4688332136
 20
95.7430886486
 10
7.457101719
 20
95.7411177026
 10
7.4454722837
 20
95.7385897127
  0
LWPOLYLINE
  5
5BA
100
AcDbEntity
  8
ASSI
100
AcDbPolyline
 62
7
  6
CONTINUOUS
 90
4
 70
0
 10
-9.9225124747
 20
95.7441779536
 10
-9.9311667864
 20
95.7430886486
 10
-9.942898281
 20
95.7411177026
 10
-9.9545277163
 20
95.7385897127
  0
LWPOLYLINE
  5
5BB
100
AcDbEntity
  8
ASSI
100
AcDbPolyline
 62
253
  6
CONTINUOUS
 90
4
 70
0
 10
7.5043676032
 20
95.745628166
 10
7.4924921317
 20
95.7453455463
 10
7.4806383891
 20
95.7444986445
 10
7.4774875253
 20
95.7441779536
  0
LWPOLYLINE
  5
5BC
100
AcDbEntity
  8
ASSI
100
AcDbPolyline
 62
7
  6
CONTINUOUS
 90
5
 70
0
 10
7.4999957692
 20
95.75
 10
7.488100484
 20
95.7497168498
 10
7.4762321444
 20
95.7488680342
 10
7.4644176339
 20
95.7474554741
 10
7.4526837125
 20
95.7454823677
  0
LWPOLYLINE
  5
5BD
100
AcDbEntity
  8
ASSI
100
AcDbPolyline
 62
253
  6
CONTINUOUS
 90
4
 70
0
 10
-9.8956323968
 20
95.745628166
 10
-9.9075078683
 20
95.7453455463
 10
-9.9193616109
 20
95.7444986445
 10
-9.9225124747
 20
95.7441779536
  0
LWPOLYLINE
  5
5BE
100
AcDbEntity
  8
ASSI
100
AcDbPolyline
 62
7
  6
CONTINUOUS
 90
5
 70
0
 10
-9.9000042308
 20
95.75
 10
-9.911899516
 20
95.7497168498
 10
-9.9237678556
 20
95.7488680342
 10
-9.9355823661
 20
95.7474554741
 10
-9.9473162875
 20
95.7454823677
  0
LWPOLYLINE
  5
5BF
100
AcDbEntity
  8
ASSI
100
AcDbPolyline
 62
7
  6
CONTINUOUS
 90
40
 70
0
 10
-10.6495078465
 20
93.65
 10
-10.6695213553
 20
93.6495989119
 10
-10.6895385975
 20
93.6483931752
 10
-10.7095271236
 20
93.6463803578
 10
-10.7294720748
 20
93.6435564624
 10
-10.7493224517
 20
93.6399231464
 10
-10.7689924786
 20
93.6354948974
 10
-10.7884327233
 20
93.630286152
 10
-10.8076305124
 20
93.6243036902
 10
-10.8265570439
 20
93.6175586046
 10
-10.8451651761
 20
93.61007091
 10
-10.8634434177
 20
93.6018484808
 10
-10.8814144319
 20
93.5928793991
 10
-10.8990779584
 20
93.583155703
 10
-10.9163704854
 20
93.5727040858
 10
-10.9332204096
 20
93.5615654086
 10
-10.9495955917
 20
93.5497623963
 10
-10.9654752952
 20
93.5373115832
 10
-10.980811593
 20
93.5242541204
 10
-10.9955568138
 20
93.5106393471
 10
-11.0097179067
 20
93.4964698921
 10
-11.0233263117
 20
93.4817142956
 10
-11.0363788555
 20
93.4663658932
 10
-11.0488264369
 20
93.4504718186
 10
-11.0606288795
 20
93.4340786325
 10
-11.0717697748
 20
93.4172060781
 10
-11.0822254754
 20
93.3998868057
 10
-11.0919544379
 20
93.3821932748
 10
-11.100929931
 20
93.3641884054
 10
-11.1091593246
 20
93.3458728483
 10
-11.1166533905
 20
93.3272264828
 10
-11.12340379
 20
93.3082621661
 10
-11.1293910418
 20
93.2890258389
 10
-11.1346045074
 20
93.269545063
 10
-11.139037304
 20
93.2498321985
 10
-11.1426747096
 20
93.2299370232
 10
-11.1455021807
 20
93.2099450105
 10
-11.1475178615
 20
93.1899070889
 10
-11.1487254783
 20
93.1698382917
 10
-11.1491272468
 20
93.1497711479
  0
LINE
  5
5C0
100
AcDbEntity
  8
ASSI
100
AcDbLine
 62
253
  6
CONTINUOUS
 10
6.4364148811
 20
90.4660661345
 11
-6.4364148811
 21
90.4660661345
  0
LINE
  5
5C1
100
AcDbEntity
  8
ASSI
100
AcDbLine
 62
253
  6
CONTINUOUS
 10
9.5241551301
 20
91.0395472382
 11
7.3629176429
 21
91.0395472382
  0
LINE
  5
5C2
100
AcDbEntity
  8
ASSI
100
AcDbLine
 62
253
  6
CONTINUOUS
 10
-7.3629176429
 20
91.0395472382
 11
-9.5241551301
 21
91.0395472382
  0
LINE
  5
5C3
100
AcDbEntity
  8
ASSI
100
AcDbLine
 62
7
  6
CONTINUOUS
 10
6.5961041423
 20
91.25
 11
-6.5961041423
 21
91.25
  0
LINE
  5
5C4
100
AcDbEntity
  8
ASSI
100
AcDbLine
 62
253
  6
CONTINUOUS
 10
8.8387914318
 20
91.8164222561
 11
7.3555468846
 21
91.8164222561
  0
LINE
  5
5C5
100
AcDbEntity
  8
ASSI
100
AcDbLine
 62
253
  6
CONTINUOUS
 10
-7.3555468846
 20
91.8164222561
 11
-8.8387914318
 21
91.8164222561
  0
LINE
  5
5C6
100
AcDbEntity
  8
ASSI
100
AcDbLine
 62
7
  6
CONTINUOUS
 10
-3.0
 20
92.05
 11
3.0
 21
92.05
  0
LINE
  5
5C7
100
AcDbEntity
  8
ASSI
100
AcDbLine
 62
7
  6
CONTINUOUS
 10
-7.2040044543
 20
92.15
 11
-8.9498936624
 21
92.15
  0
LINE
  5
5C8
100
AcDbEntity
  8
ASSI
100
AcDbLine
 62
7
  6
CONTINUOUS
 10
7.2040044543
 20
92.15
 11
8.9498936624
 21
92.15
  0
LINE
  5
5C9
100
AcDbEntity
  8
ASSI
100
AcDbLine
 62
7
  6
CONTINUOUS
 10
11.1417094756
 20
92.2726497308
 11
11.1665823117
 21
92.2726497308
  0
LINE
  5
5CA
100
AcDbEntity
  8
ASSI
100
AcDbLine
 62
7
  6
CONTINUOUS
 10
-11.1417094756
 20
92.2726497308
 11
-11.1665823117
 21
92.2726497308
  0
LINE
  5
5CB
100
AcDbEntity
  8
ASSI
100
AcDbLine
 62
253
  6
CONTINUOUS
 10
7.5666456542
 20
92.5859869487
 11
3.0
 21
92.5859869487
  0
LINE
  5
5CC
100
AcDbEntity
  8
ASSI
100
AcDbLine
 62
253
  6
CONTINUOUS
 10
-3.0
 20
92.5859869487
 11
-7.5666456542
 21
92.5859869487
  0
LINE
  5
5CD
100
AcDbEntity
  8
ASSI
100
AcDbLine
 62
7
  6
CONTINUOUS
 10
3.0
 20
92.95
 11
-3.0
 21
92.95
  0
LINE
  5
5CE
100
AcDbEntity
  8
ASSI
100
AcDbLine
 62
7
  6
CONTINUOUS
 10
7.1905416262
 20
93.5859700255
 11
3.0
 21
93.5859700255
  0
LINE
  5
5CF
100
AcDbEntity
  8
ASSI
100
AcDbLine
 62
7
  6
CONTINUOUS
 10
-3.0
 20
93.5859700255
 11
-7.1905416262
 21
93.5859700255
  0
LINE
  5
5D0
100
AcDbEntity
  8
ASSI
100
AcDbLine
 62
7
  6
CONTINUOUS
 10
-10.6417158217
 20
93.6441821702
 11
-7.2558178298
 21
93.6441821702
  0
LINE
  5
5D1
100
AcDbEntity
  8
ASSI
100
AcDbLine
 62
7
  6
CONTINUOUS
 10
3.5
 20
93.6441821702
 11
3.0
 21
93.6441821702
  0
LINE
  5
5D2
100
AcDbEntity
  8
ASSI
100
AcDbLine
 62
7
  6
CONTINUOUS
 10
-3.0
 20
93.6441821702
 11
-3.5
 21
93.6441821702
  0
LINE
  5
5D3
100
AcDbEntity
  8
ASSI
100
AcDbLine
 62
7
  6
CONTINUOUS
 10
7.2558178298
 20
93.6441821702
 11
10.6417158217
 21
93.6441821702
  0
LINE
  5
5D4
100
AcDbEntity
  8
ASSI
100
AcDbLine
 62
7
  6
CONTINUOUS
 10
-1.0
 20
93.6447639644
 11
1.0
 21
93.6447639644
  0
LINE
  5
5D5
100
AcDbEntity
  8
ASSI
100
AcDbLine
 62
7
  6
CONTINUOUS
 10
-7.0500575119
 20
93.65
 11
-4.45
 21
93.65
  0
LINE
  5
5D6
100
AcDbEntity
  8
ASSI
100
AcDbLine
 62
7
  6
CONTINUOUS
 10
4.45
 20
93.65
 11
7.0500575119
 21
93.65
  0
LINE
  5
5D7
100
AcDbEntity
  8
ASSI
100
AcDbLine
 62
7
  6
CONTINUOUS
 10
-9.9007229979
 20
94.3726497308
 11
-7.4992770021
 21
94.3726497308
  0
LINE
  5
5D8
100
AcDbEntity
  8
ASSI
100
AcDbLine
 62
7
  6
CONTINUOUS
 10
9.9007229979
 20
94.3726497308
 11
7.4992770021
 21
94.3726497308
  0
LINE
  5
5D9
100
AcDbEntity
  8
ASSI
100
AcDbLine
 62
253
  6
CONTINUOUS
 10
-9.8956323968
 20
94.8778312164
 11
-7.5043676032
 21
94.8778312164
  0
LINE
  5
5DA
100
AcDbEntity
  8
ASSI
100
AcDbLine
 62
253
  6
CONTINUOUS
 10
7.5043676032
 20
94.8778312164
 11
9.8956323968
 21
94.8778312164
  0
LINE
  5
5DB
100
AcDbEntity
  8
ASSI
100
AcDbLine
 62
253
  6
CONTINUOUS
 10
7.254371834
 20
95.0943375673
 11
10.145628166
 21
95.0943375673
  0
LINE
  5
5DC
100
AcDbEntity
  8
ASSI
100
AcDbLine
 62
253
  6
CONTINUOUS
 10
-7.254371834
 20
95.0943375673
 11
-10.145628166
 21
95.0943375673
  0
LINE
  5
5DD
100
AcDbEntity
  8
ASSI
100
AcDbLine
 62
7
  6
CONTINUOUS
 10
-4.4063493531
 20
95.2063493531
 11
-3.5
 21
95.2063493531
  0
LINE
  5
5DE
100
AcDbEntity
  8
ASSI
100
AcDbLine
 62
7
  6
CONTINUOUS
 10
3.5
 20
95.2063493531
 11
4.4063493531
 21
95.2063493531
  0
LINE
  5
5DF
100
AcDbEntity
  8
ASSI
100
AcDbLine
 62
7
  6
CONTINUOUS
 10
-3.5
 20
95.2441821702
 11
-1.2
 21
95.2441821702
  0
LINE
  5
5E0
100
AcDbEntity
  8
ASSI
100
AcDbLine
 62
7
  6
CONTINUOUS
 10
1.2
 20
95.2441821702
 11
3.5
 21
95.2441821702
  0
LINE
  5
5E1
100
AcDbEntity
  8
ASSI
100
AcDbLine
 62
7
  6
CONTINUOUS
 10
4.45
 20
95.25
 11
3.5
 21
95.25
  0
LINE
  5
5E2
100
AcDbEntity
  8
ASSI
100
AcDbLine
 62
7
  6
CONTINUOUS
 10
-3.5
 20
95.25
 11
-4.45
 21
95.25
  0
LINE
  5
5E3
100
AcDbEntity
  8
ASSI
100
AcDbLine
 62
253
  6
CONTINUOUS
 10
7.254371834
 20
95.4956323968
 11
10.145628166
 21
95.4956323968
  0
LINE
  5
5E4
100
AcDbEntity
  8
ASSI
100
AcDbLine
 62
253
  6
CONTINUOUS
 10
-7.254371834
 20
95.4956323968
 11
-10.145628166
 21
95.4956323968
  0
LINE
  5
5E5
100
AcDbEntity
  8
ASSI
100
AcDbLine
 62
7
  6
CONTINUOUS
 10
9.8956323968
 20
95.745628166
 11
7.5043676032
 21
95.745628166
  0
LINE
  5
5E6
100
AcDbEntity
  8
ASSI
100
AcDbLine
 62
7
  6
CONTINUOUS
 10
-7.5043676032
 20
95.745628166
 11
-9.8956323968
 21
95.745628166
  0
LWPOLYLINE
  5
5E7
100
AcDbEntity
  8
ASSI
100
AcDbPolyline
 62
253
  6
CONTINUOUS
 90
4
 70
0
 10
9.9225124747
 20
95.7441779536
 10
9.9193616109
 20
95.7444986445
 10
9.9075078683
 20
95.7453455463
 10
9.8956323968
 20
95.745628166
  0
LINE
  5
5E8
100
AcDbEntity
  8
ASSI
100
AcDbLine
 62
7
  6
CONTINUOUS
 10
8.0665695018
 20
92.7037354271
 11
8.25
 21
92.65
  0
ARC
  5
5E9
100
AcDbEntity
  8
0
100
AcDbCircle
 62
7
  6
CONTINUOUS
 10
-6.2999999997
 20
-51.75
 40
0.5
100
AcDbArc
 50
90.0106530217
 51
179.9868907873
  0
CIRCLE
  5
5EA
100
AcDbEntity
  8
ASSI
100
AcDbCircle
 62
253
  6
CONTINUOUS
 10
-10.0
 20
92.55
 40
0.6999894264
  0
CIRCLE
  5
5EB
100
AcDbEntity
  8
ASSI
100
AcDbCircle
 62
253
  6
CONTINUOUS
 10
-10.0
 20
49.95
 40
0.6999894264
  0
CIRCLE
  5
5EC
100
AcDbEntity
  8
ASSI
100
AcDbCircle
 62
7
  6
CONTINUOUS
 10
-10.0
 20
49.95
 40
0.5
  0
CIRCLE
  5
5ED
100
AcDbEntity
  8
ASSI
100
AcDbCircle
 62
7
  6
CONTINUOUS
 10
-10.0
 20
92.55
 40
0.5
  0
ARC
  5
5EE
100
AcDbEntity
  8
ASSI
100
AcDbCircle
 62
7
  6
CONTINUOUS
 10
-4.0
 20
94.4
 40
0.5
100
AcDbArc
 50
144.3637748935
 51
215.6362251065
  0
ARC
  5
5EF
100
AcDbEntity
  8
ASSI
100
AcDbCircle
 62
7
  6
CONTINUOUS
 10
-4.0
 20
48.1
 40
0.5
100
AcDbArc
 50
144.3637748935
 51
215.6362251065
  0
ARC
  5
5F0
100
AcDbEntity
  8
0
100
AcDbCircle
 62
7
  6
CONTINUOUS
 10
-7.6499998143
 20
78.3
 40
0.5
100
AcDbArc
 50
90.000009877
 51
179.9999783248
  0
ARC
  5
5F1
100
AcDbEntity
  8
0
100
AcDbCircle
 62
7
  6
CONTINUOUS
 10
-6.25
 20
49.25
 40
0.5
100
AcDbArc
 50
180.0
 51
270.0
  0
ARC
  5
5F2
100
AcDbEntity
  8
0
100
AcDbCircle
 62
7
  6
CONTINUOUS
 10
-7.7
 20
62.2
 40
0.5
100
AcDbArc
 50
180.0
 51
198.58901677
  0
ARC
  5
5F3
100
AcDbEntity
  8
0
100
AcDbCircle
 62
7
  6
CONTINUOUS
 10
-7.7
 20
78.3
 40
0.5
100
AcDbArc
 50
87.1340160174
 51
180.0
  0
ARC
  5
5F4
100
AcDbEntity
  8
RACCORDO
100
AcDbCircle
 62
7
  6
CONTINUOUS
 10
-9.15
 20
55.35
 40
0.3
100
AcDbArc
 50
90.0
 51
180.0
  0
ARC
  5
5F5
100
AcDbEntity
  8
0
100
AcDbCircle
 62
7
  6
CONTINUOUS
 10
-7.85
 20
61.7412476345
 40
0.3
100
AcDbArc
 50
180.0
 51
195.6588253642
  0
CIRCLE
  5
5F6
100
AcDbEntity
  8
ASSI
100
AcDbCircle
 62
253
  6
CONTINUOUS
 10
10.0
 20
92.55
 40
0.6999894264
  0
CIRCLE
  5
5F7
100
AcDbEntity
  8
ASSI
100
AcDbCircle
 62
253
  6
CONTINUOUS
 10
10.0
 20
49.95
 40
0.6999894264
  0
CIRCLE
  5
5F8
100
AcDbEntity
  8
ASSI
100
AcDbCircle
 62
7
  6
CONTINUOUS
 10
10.0
 20
49.95
 40
0.5
  0
CIRCLE
  5
5F9
100
AcDbEntity
  8
ASSI
100
AcDbCircle
 62
7
  6
CONTINUOUS
 10
10.0
 20
92.55
 40
0.5
  0
ARC
  5
5FA
100
AcDbEntity
  8
ASSI
100
AcDbCircle
 62
7
  6
CONTINUOUS
 10
4.0
 20
94.4
 40
0.5
100
AcDbArc
 50
324.3637748935
 51
35.6362251065
  0
ARC
  5
5FB
100
AcDbEntity
  8
ASSI
100
AcDbCircle
 62
7
  6
CONTINUOUS
 10
4.0
 20
48.1
 40
0.5
100
AcDbArc
 50
324.3637748935
 51
35.6362251065
  0
ARC
  5
5FC
100
AcDbEntity
  8
0
100
AcDbCircle
 62
7
  6
CONTINUOUS
 10
7.7
 20
78.3
 40
0.5
100
AcDbArc
 50
0.0
 51
92.8659839826
  0
ARC
  5
5FD
100
AcDbEntity
  8
0
100
AcDbCircle
 62
7
  6
CONTINUOUS
 10
7.65
 20
78.3
 40
0.5
100
AcDbArc
 50
0.0000109233
 51
90.0000113299
  0
ARC
  5
5FE
100
AcDbEntity
  8
0
100
AcDbCircle
 62
7
  6
CONTINUOUS
 10
6.25
 20
49.25
 40
0.5
100
AcDbArc
 50
270.0
 51
360.0
  0
ARC
  5
5FF
100
AcDbEntity
  8
0
100
AcDbCircle
 62
7
  6
CONTINUOUS
 10
7.7
 20
62.2
 40
0.5
100
AcDbArc
 50
341.41098323
 51
360.0
  0
ARC
  5
600
100
AcDbEntity
  8
RACCORDO
100
AcDbCircle
 62
7
  6
CONTINUOUS
 10
9.15
 20
55.35
 40
0.3
100
AcDbArc
 50
0.0
 51
90.0
  0
ARC
  5
601
100
AcDbEntity
  8
0
100
AcDbCircle
 62
7
  6
CONTINUOUS
 10
7.85
 20
61.7413350111
 40
0.3
100
AcDbArc
 50
344.3057051055
 51
360.0
  0
ELLIPSE
  5
602
100
AcDbEntity
  8
RACCORDO
100
AcDbEllipse
 62
7
  6
CONTINUOUS
 10
8.9365275299
 20
55.2432833179
 30
0.0
 11
0.2780317936
 21
0.4166986433
 31
0.0
 40
0.9975148671
 41
6.1895108911
 42
6.8704261861
  0
ELLIPSE
  5
603
100
AcDbEntity
  8
RACCORDO
100
AcDbEllipse
 62
7
  6
CONTINUOUS
 10
-8.9365275299
 20
55.2432833179
 30
0.0
 11
-0.2780317936
 21
0.4166986433
 31
0.0
 40
0.9975148671
 41
5.6959444283
 42
6.3768597232
  0
ELLIPSE
  5
604
100
AcDbEntity
  8
ASSI
100
AcDbEllipse
 62
7
  6
CONTINUOUS
 10
-8.999923836
 20
55.2499809608
 30
0.0
 11
0.4473055582
 21
-0.2236357461
 31
0.0
 40
0.9998096356
 41
2.0344896259
 42
3.6051336537
  0
ELLIPSE
  5
605
100
AcDbEntity
  8
ASSI
100
AcDbEllipse
 62
7
  6
CONTINUOUS
 10
8.999923836
 20
55.2499809608
 30
0.0
 11
0.4473055582
 21
0.2236357461
 31
0.0
 40
0.9998096356
 41
-0.4635410001
 42
1.1071030277
  0
ELLIPSE
  5
606
100
AcDbEntity
  8
ASSI
100
AcDbEllipse
 62
7
  6
CONTINUOUS
 10
-7.0499966153
 20
93.8502744692
 30
0.0
 11
0.0220972656
 21
0.1990550872
 31
0.0
 40
0.9986126811
 41
-4.601678501
 42
-3.031186653
  0
ELLIPSE
  5
607
100
AcDbEntity
  8
ASSI
100
AcDbEllipse
 62
7
  6
CONTINUOUS
 10
-10.3500033847
 20
93.8502744692
 30
0.0
 11
-0.0220972656
 21
0.1990550872
 31
0.0
 40
0.9986126811
 41
-3.2519986542
 42
-1.6815068062
  0
ELLIPSE
  5
608
100
AcDbEntity
  8
ASSI
100
AcDbEllipse
 62
7
  6
CONTINUOUS
 10
10.3500033847
 20
93.8502744692
 30
0.0
 11
0.0220972656
 21
0.1990550872
 31
0.0
 40
0.9986126811
 41
-4.601678501
 42
-3.031186653
  0
ELLIPSE
  5
609
100
AcDbEntity
  8
ASSI
100
AcDbEllipse
 62
7
  6
CONTINUOUS
 10
7.0499966153
 20
93.8502744692
 30
0.0
 11
-0.0220972656
 21
0.1990550872
 31
0.0
 40
0.9986126811
 41
-3.2519986542
 42
-1.6815068062
  0
ELLIPSE
  5
60A
100
AcDbEntity
  8
ASSI
100
AcDbEllipse
 62
7
  6
CONTINUOUS
 10
-10.3500033847
 20
48.6497255308
 30
0.0
 11
0.0220972656
 21
0.1990550872
 31
0.0
 40
0.9986126811
 41
-1.4600858474
 42
0.1104060006
  0
ELLIPSE
  5
60B
100
AcDbEntity
  8
ASSI
100
AcDbEllipse
 62
7
  6
CONTINUOUS
 10
-7.0499966153
 20
48.6497255308
 30
0.0
 11
-0.0220972656
 21
0.1990550872
 31
0.0
 40
0.9986126811
 41
-0.1104060006
 42
1.4600858474
  0
ELLIPSE
  5
60C
100
AcDbEntity
  8
ASSI
100
AcDbEllipse
 62
7
  6
CONTINUOUS
 10
7.0499966153
 20
48.6497255308
 30
0.0
 11
0.0220972656
 21
0.1990550872
 31
0.0
 40
0.9986126811
 41
-1.4600858474
 42
0.1104060006
  0
ELLIPSE
  5
60D
100
AcDbEntity
  8
ASSI
100
AcDbEllipse
 62
7
  6
CONTINUOUS
 10
10.3500033847
 20
48.6497255308
 30
0.0
 11
-0.0220972656
 21
0.1990550872
 31
0.0
 40
0.9986126811
 41
-0.1104060006
 42
1.4600858474
  0
ELLIPSE
  5
60E
100
AcDbEntity
  8
ASSI
100
AcDbEllipse
 62
7
  6
CONTINUOUS
 10
3.9530427099
 20
93.6060930869
 30
0.0
 11
0.4530427099
 21
0.0
 31
0.0
 40
0.0058178298
 41
3.1415926536
 42
6.277367543
  0
ELLIPSE
  5
60F
100
AcDbEntity
  8
ASSI
100
AcDbEllipse
 62
7
  6
CONTINUOUS
 10
-3.9530427099
 20
93.6060930869
 30
0.0
 11
0.4530427099
 21
0.0
 31
0.0
 40
0.0058178298
 41
-3.1357748894
 42
0.0
  0
ELLIPSE
  5
610
100
AcDbEntity
  8
ASSI
100
AcDbEllipse
 62
7
  6
CONTINUOUS
 10
-8.1905965035
 20
92.5859869487
 30
0.0
 11
1.0000571192
 21
0.9999809595
 31
0.0
 40
0.0061705924
 41
-1.1948539202
 42
0.0003532199
  0
ELLIPSE
  5
611
100
AcDbEntity
  8
ASSI
100
AcDbEllipse
 62
7
  6
CONTINUOUS
 10
8.1905965035
 20
92.5859869487
 30
0.0
 11
1.0000571192
 21
-0.9999809595
 31
0.0
 40
0.0061705924
 41
3.1412394337
 42
4.3364465738
  0
ELLIPSE
  5
612
100
AcDbEntity
  8
ASSI
100
AcDbEllipse
 62
7
  6
CONTINUOUS
 10
8.1905965035
 20
49.9140130513
 30
0.0
 11
1.0000571192
 21
0.9999809595
 31
0.0
 40
0.0061705924
 41
1.9467387334
 42
3.1419458735
  0
ELLIPSE
  5
613
100
AcDbEntity
  8
ASSI
100
AcDbEllipse
 62
7
  6
CONTINUOUS
 10
-8.1905965035
 20
49.9140130513
 30
0.0
 11
1.0000571192
 21
-0.9999809595
 31
0.0
 40
0.0061705924
 41
-0.0003532199
 42
1.1948539202
  0
ELLIPSE
  5
614
100
AcDbEntity
  8
ASSI
100
AcDbEllipse
 62
7
  6
CONTINUOUS
 10
9.8999957691
 20
94.6613248654
 30
0.0
 11
-0.0029088041
 21
0.2886641433
 31
0.0
 40
0.8660144118
 41
-3.150319066
 42
-1.582431609
  0
ELLIPSE
  5
615
100
AcDbEntity
  8
ASSI
100
AcDbEllipse
 62
7
  6
CONTINUOUS
 10
7.5000042309
 20
94.6613248654
 30
0.0
 11
0.0029088041
 21
0.2886641433
 31
0.0
 40
0.8660144118
 41
-4.7007536982
 42
-3.1328662412
  0
ELLIPSE
  5
616
100
AcDbEntity
  8
ASSI
100
AcDbEllipse
 62
7
  6
CONTINUOUS
 10
-7.5000042309
 20
94.6613248654
 30
0.0
 11
-0.0029088041
 21
0.2886641433
 31
0.0
 40
0.8660144118
 41
-3.150319066
 42
-1.582431609
  0
ELLIPSE
  5
617
100
AcDbEntity
  8
ASSI
100
AcDbEllipse
 62
7
  6
CONTINUOUS
 10
-9.8999957691
 20
94.6613248654
 30
0.0
 11
0.0029088041
 21
0.2886641433
 31
0.0
 40
0.8660144118
 41
-4.7007536982
 42
-3.1328662412
  0
ELLIPSE
  5
618
100
AcDbEntity
  8
ASSI
100
AcDbEllipse
 62
7
  6
CONTINUOUS
 10
9.8999957691
 20
47.8386751346
 30
0.0
 11
0.0029088041
 21
0.2886641433
 31
0.0
 40
0.8660144118
 41
-1.5591610446
 42
0.0087264124
  0
ELLIPSE
  5
619
100
AcDbEntity
  8
ASSI
100
AcDbEllipse
 62
7
  6
CONTINUOUS
 10
7.5000042309
 20
47.8386751346
 30
0.0
 11
-0.0029088041
 21
0.2886641433
 31
0.0
 40
0.8660144118
 41
-0.0087264124
 42
1.5591610446
  0
ELLIPSE
  5
61A
100
AcDbEntity
  8
ASSI
100
AcDbEllipse
 62
7
  6
CONTINUOUS
 10
-9.8999957691
 20
47.8386751346
 30
0.0
 11
-0.0029088041
 21
0.2886641433
 31
0.0
 40
0.8660144118
 41
-0.0087264124
 42
1.5591610446
  0
ELLIPSE
  5
61B
100
AcDbEntity
  8
ASSI
100
AcDbEllipse
 62
7
  6
CONTINUOUS
 10
-7.5000042309
 20
47.8386751346
 30
0.0
 11
0.0029088041
 21
0.2886641433
 31
0.0
 40
0.8660144118
 41
-1.5591610446
 42
0.0087264124
  0
ELLIPSE
  5
61C
100
AcDbEntity
  8
ASSI
100
AcDbEllipse
 62
7
  6
CONTINUOUS
 10
-7.4109859485
 20
58.9390178593
 30
0.0
 11
0.0
 21
0.1
 31
0.0
 40
0.0087268678
 41
-3.1328660073
 42
-1.5707963268
  0
ELLIPSE
  5
61D
100
AcDbEntity
  8
ASSI
100
AcDbEllipse
 62
7
  6
CONTINUOUS
 10
8.2499961922
 20
77.2500038078
 30
0.0
 11
-0.0707160631
 21
0.0707160631
 31
0.0
 40
0.9999238505
 41
-3.9269527408
 42
-2.3562325664
  0
ELLIPSE
  5
61E
100
AcDbEntity
  8
ASSI
100
AcDbEllipse
 62
7
  6
CONTINUOUS
 10
7.4109859485
 20
79.9609821407
 30
0.0
 11
0.0
 21
0.1
 31
0.0
 40
0.0087268678
 41
0.0087266463
 42
1.5707963268
  0
ELLIPSE
  5
61F
100
AcDbEntity
  8
ASSI
100
AcDbEllipse
 62
7
  6
CONTINUOUS
 10
4.7278989971
 20
79.04
 30
0.0
 11
-0.0
 21
88.6
 31
0.0
 40
0.0087268678
 41
-1.5174610251
 42
-1.5037209781
  0
ELLIPSE
  5
620
100
AcDbEntity
  8
ASSI
100
AcDbEllipse
 62
7
  6
CONTINUOUS
 10
5.2721010029
 20
79.04
 30
0.0
 11
-0.0
 21
88.6
 31
0.0
 40
0.0087268678
 41
1.5037209781
 42
1.5174610251
  0
ELLIPSE
  5
621
100
AcDbEntity
  8
ASSI
100
AcDbEllipse
 62
7
  6
CONTINUOUS
 10
-5.2721010029
 20
79.04
 30
0.0
 11
0.0
 21
88.6
 31
0.0
 40
0.0087268678
 41
-1.5174610251
 42
-1.5037209781
  0
ELLIPSE
  5
622
100
AcDbEntity
  8
ASSI
100
AcDbEllipse
 62
7
  6
CONTINUOUS
 10
-4.7278989971
 20
79.04
 30
0.0
 11
-0.0
 21
88.6
 31
0.0
 40
0.0087268678
 41
1.5037209781
 42
1.5174610251
  0
ELLIPSE
  5
623
100
AcDbEntity
  8
ASSI
100
AcDbEllipse
 62
7
  6
CONTINUOUS
 10
-9.7397507018
 20
90.9176556748
 30
0.0
 11
0.9005489241
 21
0.8994510755
 31
0.0
 40
0.0348994837
 41
-1.3641349085
 42
-0.0174320068
  0
ELLIPSE
  5
624
100
AcDbEntity
  8
ASSI
100
AcDbEllipse
 62
7
  6
CONTINUOUS
 10
6.9999809608
 20
81.6499809608
 30
0.0
 11
0.3535803156
 21
0.3535803156
 31
0.0
 40
0.9999238505
 41
-0.7853600872
 42
0.7853600872
  0
ELLIPSE
  5
625
100
AcDbEntity
  8
ASSI
100
AcDbEllipse
 62
7
  6
CONTINUOUS
 10
-6.9999809608
 20
81.6499809608
 30
0.0
 11
-0.3535803156
 21
0.3535803156
 31
0.0
 40
0.9999238505
 41
-0.7853600872
 42
0.7853600872
  0
ELLIPSE
  5
626
100
AcDbEntity
  8
ASSI
100
AcDbEllipse
 62
7
  6
CONTINUOUS
 10
10.6416904364
 20
93.1441737085
 30
0.0
 11
-0.4160498344
 21
-0.2773626446
 31
0.0
 40
0.9999450019
 41
2.5536219432
 42
4.1243675013
  0
ELLIPSE
  5
627
100
AcDbEntity
  8
ASSI
100
AcDbEllipse
 62
7
  6
CONTINUOUS
 10
10.6416904364
 20
49.3558262915
 30
0.0
 11
0.4160498344
 21
-0.2773626446
 31
0.0
 40
0.9999450019
 41
-0.9827748477
 42
0.5879707104
  0
ELLIPSE
  5
628
100
AcDbEntity
  8
ASSI
100
AcDbEllipse
 62
7
  6
CONTINUOUS
 10
-10.6416904364
 20
93.1441737085
 30
0.0
 11
-0.4160498344
 21
0.2773626446
 31
0.0
 40
0.9999450019
 41
-0.9827748477
 42
0.5879707104
  0
ELLIPSE
  5
629
100
AcDbEntity
  8
ASSI
100
AcDbEllipse
 62
7
  6
CONTINUOUS
 10
-10.6416904364
 20
49.3558262915
 30
0.0
 11
0.4160498344
 21
0.2773626446
 31
0.0
 40
0.9999450019
 41
2.5536219432
 42
4.1243675013
  0
ELLIPSE
  5
62A
100
AcDbEntity
  8
ASSI
100
AcDbEllipse
 62
7
  6
CONTINUOUS
 10
4.4063662764
 20
47.7936421853
 30
0.0
 11
0.0
 21
0.5
 31
0.0
 40
0.0058178298
 41
-3.2409419489
 42
-3.1474104178
  0
ELLIPSE
  5
62B
100
AcDbEntity
  8
ASSI
100
AcDbEllipse
 62
7
  6
CONTINUOUS
 10
-4.4063662764
 20
47.7936421853
 30
0.0
 11
0.0
 21
0.5
 31
0.0
 40
0.0058178298
 41
-3.1357748894
 42
-3.0422433583
  0
ELLIPSE
  5
62C
100
AcDbEntity
  8
ASSI
100
AcDbEllipse
 62
7
  6
CONTINUOUS
 10
-1.2
 20
95.0441787855
 30
0.0
 11
0.0
 21
-0.2000033847
 31
0.0
 40
0.9999830769
 41
1.5707963268
 42
3.1415926536
  0
ELLIPSE
  5
62D
100
AcDbEntity
  8
ASSI
100
AcDbEllipse
 62
7
  6
CONTINUOUS
 10
9.7397507018
 20
90.9176556748
 30
0.0
 11
0.9005489241
 21
-0.8994510755
 31
0.0
 40
0.0348994837
 41
-3.1241606468
 42
-1.7774577451
  0
ELLIPSE
  5
62E
100
AcDbEntity
  8
ASSI
100
AcDbEllipse
 62
7
  6
CONTINUOUS
 10
7.5666456542
 20
49.2962330295
 30
0.0
 11
0.4999904798
 21
0.5000285596
 31
0.0
 40
0.0061705924
 41
0.0112823085
 42
1.0386206835
  0
ELLIPSE
  5
62F
100
AcDbEntity
  8
ASSI
100
AcDbEllipse
 62
7
  6
CONTINUOUS
 10
-7.5666456542
 20
49.2962330295
 30
0.0
 11
-0.4999904798
 21
0.5000285596
 31
0.0
 40
0.0061705924
 41
-1.0386206835
 42
-0.0112823085
  0
ELLIPSE
  5
630
100
AcDbEntity
  8
ASSI
100
AcDbEllipse
 62
7
  6
CONTINUOUS
 10
-7.5666456542
 20
93.2037669705
 30
0.0
 11
0.4999904798
 21
0.5000285596
 31
0.0
 40
0.0061705924
 41
-3.1303103451
 42
-2.1029719701
  0
ELLIPSE
  5
631
100
AcDbEntity
  8
ASSI
100
AcDbEllipse
 62
7
  6
CONTINUOUS
 10
7.5666456542
 20
93.2037669705
 30
0.0
 11
-0.4999904798
 21
0.5000285596
 31
0.0
 40
0.0061705924
 41
-4.1802133371
 42
-3.1528749621
  0
ELLIPSE
  5
632
100
AcDbEntity
  8
ASSI
100
AcDbEllipse
 62
7
  6
CONTINUOUS
 10
-6.4442034757
 20
90.35
 30
0.0
 11
-0.0
 21
0.9
 31
0.0
 40
0.0087268678
 41
-1.4414737845
 42
-0.0
  0
ELLIPSE
  5
633
100
AcDbEntity
  8
ASSI
100
AcDbEllipse
 62
7
  6
CONTINUOUS
 10
-7.2031587473
 20
79.04
 30
0.0
 11
-0.0
 21
88.6
 31
0.0
 40
0.0087268678
 41
-1.4677875296
 42
-1.4414737845
  0
ELLIPSE
  5
634
100
AcDbEntity
  8
ASSI
100
AcDbEllipse
 62
7
  6
CONTINUOUS
 10
-6.5968412527
 20
79.04
 30
0.0
 11
-0.0
 21
88.6
 31
0.0
 40
0.0087268678
 41
1.4349437612
 42
1.4677875296
  0
ELLIPSE
  5
635
100
AcDbEntity
  8
ASSI
100
AcDbEllipse
 62
7
  6
CONTINUOUS
 10
-7.3551358285
 20
90.9176556748
 30
0.0
 11
0.0
 21
0.9
 31
0.0
 40
0.0087268678
 41
0.0523598776
 42
1.4349437612
  0
ELLIPSE
  5
636
100
AcDbEntity
  8
ASSI
100
AcDbEllipse
 62
7
  6
CONTINUOUS
 10
7.3551358285
 20
90.9176556748
 30
0.0
 11
-0.0
 21
0.9
 31
0.0
 40
0.0087268678
 41
-1.4349437612
 42
-0.0523598776
  0
ELLIPSE
  5
637
100
AcDbEntity
  8
ASSI
100
AcDbEllipse
 62
7
  6
CONTINUOUS
 10
6.5968412527
 20
79.04
 30
0.0
 11
0.0
 21
88.6
 31
0.0
 40
0.0087268678
 41
-1.4677875296
 42
-1.4349437612
  0
ELLIPSE
  5
638
100
AcDbEntity
  8
ASSI
100
AcDbEllipse
 62
7
  6
CONTINUOUS
 10
7.2031587473
 20
79.04
 30
0.0
 11
-0.0
 21
88.6
 31
0.0
 40
0.0087268678
 41
1.4414737845
 42
1.4677875296
  0
ELLIPSE
  5
639
100
AcDbEntity
  8
ASSI
100
AcDbEllipse
 62
7
  6
CONTINUOUS
 10
6.4442034757
 20
90.35
 30
0.0
 11
-0.0
 21
0.9
 31
0.0
 40
0.0087268678
 41
0.0
 42
1.4414737845
  0
ELLIPSE
  5
63A
100
AcDbEntity
  8
ASSI
100
AcDbEllipse
 62
7
  6
CONTINUOUS
 10
-6.9100942226
 20
81.5600942226
 30
0.0
 11
-0.3535803156
 21
0.3535803156
 31
0.0
 40
0.9999238505
 41
-0.7853600872
 42
0.7853600872
  0
ELLIPSE
  5
63B
100
AcDbEntity
  8
ASSI
100
AcDbEllipse
 62
7
  6
CONTINUOUS
 10
6.9100942226
 20
81.5600942226
 30
0.0
 11
0.3535803156
 21
0.3535803156
 31
0.0
 40
0.9999238505
 41
-0.7853600872
 42
0.7853600872
  0
ELLIPSE
  5
63C
100
AcDbEntity
  8
ASSI
100
AcDbEllipse
 62
7
  6
CONTINUOUS
 10
-6.8872801014
 20
82.0627313221
 30
0.0
 11
0.3
 21
-0.0
 31
0.0
 40
0.0087268678
 41
-1.5707963268
 42
-0.0087266463
  0
ELLIPSE
  5
63D
100
AcDbEntity
  8
ASSI
100
AcDbEllipse
 62
7
  6
CONTINUOUS
 10
6.8872801014
 20
82.0627313221
 30
0.0
 11
0.3
 21
-0.0
 31
0.0
 40
0.0087268678
 41
-3.1328660073
 42
-1.5707963268
  0
ELLIPSE
  5
63E
100
AcDbEntity
  8
ASSI
100
AcDbEllipse
 62
7
  6
CONTINUOUS
 10
1.2
 20
95.0441787855
 30
0.0
 11
-0.0
 21
0.2000033847
 31
0.0
 40
0.9999830769
 41
0.0
 42
1.5707963268
  0
ELLIPSE
  5
63F
100
AcDbEntity
  8
ASSI
100
AcDbEllipse
 62
7
  6
CONTINUOUS
 10
6.2811484469
 20
81.45
 30
0.0
 11
-0.3000114235
 21
-0.0
 31
0.0
 40
0.9999619231
 41
7.853981634
 42
9.4247779608
  0
ELLIPSE
  5
640
100
AcDbEntity
  8
ASSI
100
AcDbEllipse
 62
7
  6
CONTINUOUS
 10
-6.2811484469
 20
81.45
 30
0.0
 11
0.3000114235
 21
0.0
 31
0.0
 40
0.9999619231
 41
3.1415926536
 42
4.7123889804
  0
ELLIPSE
  5
641
100
AcDbEntity
  8
ASSI
100
AcDbEllipse
 62
7
  6
CONTINUOUS
 10
11.0564246054
 20
79.04
 30
0.0
 11
-0.0
 21
88.6
 31
0.0
 40
0.0174550649
 41
1.4349437612
 42
1.5174610251
  0
ELLIPSE
  5
642
100
AcDbEntity
  8
ASSI
100
AcDbEllipse
 62
7
  6
CONTINUOUS
 10
9.5397199442
 20
90.9176556748
 30
0.0
 11
-0.0
 21
0.9
 31
0.0
 40
0.0174550649
 41
1.3990627793
 42
1.4349437612
  0
ELLIPSE
  5
643
100
AcDbEntity
  8
ASSI
100
AcDbEllipse
 62
7
  6
CONTINUOUS
 10
-9.5397199442
 20
90.9176556748
 30
0.0
 11
-0.0
 21
0.9
 31
0.0
 40
0.0174550649
 41
-1.4349437612
 42
-1.3990627793
  0
ELLIPSE
  5
644
100
AcDbEntity
  8
ASSI
100
AcDbEllipse
 62
7
  6
CONTINUOUS
 10
-11.0564246054
 20
79.04
 30
0.0
 11
0.0
 21
88.6
 31
0.0
 40
0.0174550649
 41
-1.5174610251
 42
-1.4349437612
  0
ELLIPSE
  5
645
100
AcDbEntity
  8
0
100
AcDbEllipse
 62
7
  6
CONTINUOUS
 10
-7.9272458672
 20
-69.6227884304
 30
0.0
 11
-0.3377875124
 21
-0.3484669583
 31
0.0
 40
0.3920991259
 41
-2.7783735663
 42
-2.6285875453
  0
ELLIPSE
  5
646
100
AcDbEntity
  8
0
100
AcDbEllipse
 62
7
  6
CONTINUOUS
 10
7.9272458672
 20
-69.6227884304
 30
0.0
 11
-0.3377875124
 21
0.3484669583
 31
0.0
 40
0.3920991259
 41
-0.5130051083
 42
-0.3632190873
  0
ENDSEC
  0
SECTION
  2
OBJECTS
  0
DICTIONARY
  5
C
100
AcDbDictionary
280
0
281
1
  3
ACAD_GROUP
350
D
  3
ACAD_MLINESTYLE
350
17
  3
ACAD_LAYOUT
350
1A
  3
ACAD_PLOTSETTINGS
350
19
  3
ACAD_PLOTSTYLENAME
350
E
  0
DICTIONARY
  5
D
102
{ACAD_REACTORS
330
C
102
}
100
AcDbDictionary
280
0
281
1
  0
ACDBDICTIONARYWDFLT
  5
E
102
{ACAD_REACTORS
330
C
102
}
100
AcDbDictionary
281
1
  3
Normal
350
F
100
AcDbDictionaryWithDefault
340
F
  0
DICTIONARY
  5
17
102
{ACAD_REACTORS
330
C
102
}
100
AcDbDictionary
280
0
281
1
  3
Standard
350
18
  0
DICTIONARY
  5
19
102
{ACAD_REACTORS
330
C
102
}
100
AcDbDictionary
281
1
  0
DICTIONARY
  5
1A
102
{ACAD_REACTORS
330
C
102
}
100
AcDbDictionary
281
1
  3
Model
350
647
  3
Layout1
350
648
  0
ACDBPLACEHOLDER
  5
F
102
{ACAD_REACTORS
330
E
102
}
  0
MLINESTYLE
  5
18
102
{ACAD_REACTORS
330
17
102
}
100
AcDbMlineStyle
  2
STANDARD
 70
0
  3

 62
256
 51
90.0
 52
90.0
 71
2
 49
0.5
 62
256
  6
BYLAYER
 49
-0.5
 62
256
  6
BYLAYER
  0
LAYOUT
  5
647
102
{ACAD_REACTORS
330
1A
102
}
100
AcDbPlotSettings
  1

  2
none_device
  4
ANSI_C_(22.00_x_17.00_Inches)
  6

 40
0.0
 41
0.0
 42
0.0
 43
0.0
 44
558.8
 45
431.8
 46
0.0
 47
0.0
 48
0.0
 49
0.0
140
0.0
141
0.0
142
1.0
143
1.0
 70
1024
 72
1
 73
0
 74
0
  7

 75
0
147
1.0
148
0.0
149
0.0
100
AcDbLayout
  1
Model
 70
0
 71
0
 10
0.0
 20
0.0
 11
558.8
 21
431.8
 12
0.0
 22
0.0
 32
0.0
 14
0.0
 24
0.0
 34
0.0
 15
0.0
 25
0.0
 35
0.0
146
0.0
 13
0.0
 23
0.0
 33
0.0
 16
1.0
 26
0.0
 36
0.0
 17
0.0
 27
1.0
 37
0.0
 76
0
330
226
345
0
346
0
  0
LAYOUT
  5
648
102
{ACAD_REACTORS
330
1A
102
}
100
AcDbPlotSettings
  1

  2
none_device
  4
ANSI_C_(22.00_x_17.00_Inches)
  6

 40
0.0
 41
0.0
 42
0.0
 43
0.0
 44
558.8
 45
431.8
 46
0.0
 47
0.0
 48
0.0
 49
0.0
140
0.0
141
0.0
142
1.0
143
1.0
 70
0
 72
1
 73
0
 74
0
  7

 75
0
147
1.0
148
0.0
149
0.0
100
AcDbLayout
  1
Layout1
 70
0
 71
1
 10
0.0
 20
0.0
 11
558.8
 21
431.8
 12
0.0
 22
0.0
 32
0.0
 14
0.0
 24
0.0
 34
0.0
 15
0.0
 25
0.0
 35
0.0
146
0.0
 13
0.0
 23
0.0
 33
0.0
 16
1.0
 26
0.0
 36
0.0
 17
0.0
 27
1.0
 37
0.0
 76
0
330
227
345
0
346
0
  0
ENDSEC
  0
EOF
