  0
SECTION
  2
HEADER
  9
$ACADVER
  1
AC1021
  9
$DWGCODEPAGE
  3
ANSI_1252
  9
$EXTMAX
 10
558.8
 20
431.8
 30
0.0
  9
$EXTMIN
 10
0.0
 20
0.0
 30
0.0
  9
$LIMMIN
 10
0.0
 20
0.0
  9
$LIMMAX
 10
558.8
 20
431.8
  9
$VIEWCTR
 10
279.4
 20
215.9
  9
$VIEWSIZE
 40
431.8
  9
$CLAYER
  8
0
  9
$LTSCALE
 40
30.734
  9
$CELTYPE
  6
BYLAYER
  9
$DIMSCALE
 40
1.0
  9
$DIMASZ
 40
3.0
  9
$DIMEXO
 40
0.5
  9
$DIMDLI
 40
21.2344
  9
$DIMEXE
 40
1.5
  9
$DIMCEN
 40
5.0292
  9
$DIMLFAC
 40
1.0
  9
$DIMBLK
  1
_FILLED
  9
$DIMALT
 70
0
  9
$DIMALTF
 40
25.4
  9
$DIMTXT
 40
3.0
  9
$DIMTOL
 70
1
  9
$DIMLIM
 70
0
  9
$DIMTFAC
 40
1.0
  9
$DIMTP
 40
0.01
  9
$DIMTM
 40
0.01
  9
$DIMGAP
 40
0.625
  9
$DIMDSEP
 70
44
  9
$AUNITS
 70
0
  9
$PDMODE
 70
3
  9
$PDSIZE
 40
3.0
  9
$HANDSEED
  5
8F3
  9
$TILEMODE
 70
1
  9
$MEASUREMENT
 70
1
  9
$INSUNITS
 70
4
  0
ENDSEC
  0
SECTION
  2
CLASSES
  0
CLASS
  1
ACDBDICTIONARYWDFLT
  2
AcDbDictionaryWithDefault
  3
AutoCAD 2000
 90
0
 91
1
280
0
281
0
  0
CLASS
  1
ACDBPLACEHOLDER
  2
AcDbPlaceHolder
  3
AutoCAD 2000
 90
0
 91
1
280
0
281
0
  0
CLASS
  1
LAYOUT
  2
AcDbLayout
  3
AutoCAD 2000
 90
0
 91
0
280
0
281
0
  0
ENDSEC
  0
SECTION
  2
TABLES
  0
TABLE
  2
VPORT
  5
8
100
AcDbSymbolTable
 70
2
  0
VPORT
  5
1F4
100
AcDbSymbolTableRecord
100
AcDbViewportTableRecord
  2
*ACTIVE
 70
0
 10
0.0
 20
0.0
 11
1.0
 21
1.0
 12
279.4
 22
215.9
 13
0.0
 23
0.0
 14
1.0
 24
1.0
 15
0.0
 25
0.0
 16
0.0
 26
0.0
 36
1.0
 17
0.0
 27
0.0
 37
0.0
 40
431.8
 41
1.2941176471
 42
50.0
 43
0.0
 44
0.0
 50
0.0
 51
0.0
 71
0
 72
100
 73
1
 74
1
 75
0
 76
0
 77
0
 78
0
  0
ENDTAB
  0
TABLE
  2
LTYPE
  5
5
100
AcDbSymbolTable
 70
6
  0
LTYPE
  5
14
100
AcDbSymbolTableRecord
100
AcDbLinetypeTableRecord
  2
BYBLOCK
 70
0
  3

 72
65
 73
0
 40
0.0
  0
LTYPE
  5
15
100
AcDbSymbolTableRecord
100
AcDbLinetypeTableRecord
  2
BYLAYER
 70
0
  3

 72
65
 73
0
 40
0.0
  0
LTYPE
  5
16
100
AcDbSymbolTableRecord
100
AcDbLinetypeTableRecord
  2
CONTINUOUS
 70
64
  3
Solid line
 72
65
 73
0
 40
0.0
  0
LTYPE
  5
1F5
100
AcDbSymbolTableRecord
100
AcDbLinetypeTableRecord
  2
CENTER
 70
64
  3
____ _ ____ _ ____ _ ____ _ ____ _ ____ _ ____
 72
65
 73
4
 40
0.6
 49
0.375
 74
0
 49
-0.075
 74
0
 49
0.075
 74
0
 49
-0.075
 74
0
  0
LTYPE
  5
1F6
100
AcDbSymbolTableRecord
100
AcDbLinetypeTableRecord
  2
HIDDEN
 70
64
  3
- - - - - - - - - - - - - - - - - - - -
 72
65
 73
2
 40
0.2
 49
0.1
 74
0
 49
-0.1
 74
0
  0
LTYPE
  5
1F7
100
AcDbSymbolTableRecord
100
AcDbLinetypeTableRecord
  2
PHANTOM
 70
64
  3
_____ _ _ _____ _ _ _____ _ _ _____
 72
65
 73
6
 40
0.8
 49
0.45
 74
0
 49
-0.05
 74
0
 49
0.1
 74
0
 49
-0.05
 74
0
 49
0.1
 74
0
 49
-0.05
 74
0
  0
LTYPE
  5
1F8
100
AcDbSymbolTableRecord
100
AcDbLinetypeTableRecord
  2
DOT
 70
64
  3
. . . . . . . . . . . . . . . . . . . .
 72
65
 73
2
 40
0.2
 49
0.1
 74
0
 49
-0.1
 74
0
  0
LTYPE
  5
1F9
100
AcDbSymbolTableRecord
100
AcDbLinetypeTableRecord
  2
DASHED
 70
64
  3
- - - - - - - - - - - - - - - - - - - -
 72
65
 73
2
 40
0.2
 49
0.1
 74
0
 49
-0.1
 74
0
  0
ENDTAB
  0
TABLE
  2
LAYER
  5
2
100
AcDbSymbolTable
 70
36
  0
LAYER
  5
10
100
AcDbSymbolTableRecord
100
AcDbLayerTableRecord
  2
0
 70
0
 62
7
  6
CONTINUOUS
370
-3
390
F
  0
LAYER
  5
1FA
100
AcDbSymbolTableRecord
100
AcDbLayerTableRecord
  2
DEFAULT_1
 70
0
 62
7
  6
CENTER
370
-3
390
F
  0
LAYER
  5
1FB
100
AcDbSymbolTableRecord
100
AcDbLayerTableRecord
  2
DEFAULT_2
 70
0
 62
7
  6
HIDDEN
370
-3
390
F
  0
LAYER
  5
1FC
100
AcDbSymbolTableRecord
100
AcDbLayerTableRecord
  2
DEFAULT_3
 70
0
 62
7
  6
PHANTOM
370
-3
390
F
  0
LAYER
  5
1FD
100
AcDbSymbolTableRecord
100
AcDbLayerTableRecord
  2
ASSI
 70
0
 62
7
  6
CONTINUOUS
370
-3
390
F
  0
LAYER
  5
1FE
100
AcDbSymbolTableRecord
100
AcDbLayerTableRecord
  2
COORDINATE
 70
0
 62
7
  6
CONTINUOUS
370
-3
390
F
  0
LAYER
  5
1FF
100
AcDbSymbolTableRecord
100
AcDbLayerTableRecord
  2
COORD_ORIGINE
 70
0
 62
7
  6
CONTINUOUS
370
-3
390
F
  0
LAYER
  5
200
100
AcDbSymbolTableRecord
100
AcDbLayerTableRecord
  2
COPY_PUBLISH
 70
0
 62
7
  6
CONTINUOUS
370
-3
390
F
  0
LAYER
  5
201
100
AcDbSymbolTableRecord
100
AcDbLayerTableRecord
  2
COSMETICI
 70
0
 62
7
  6
CONTINUOUS
370
-3
390
F
  0
LAYER
  5
202
100
AcDbSymbolTableRecord
100
AcDbLayerTableRecord
  2
CURVE
 70
0
 62
7
  6
CONTINUOUS
370
-3
390
F
  0
LAYER
  5
203
100
AcDbSymbolTableRecord
100
AcDbLayerTableRecord
  2
DRAFT
 70
0
 62
7
  6
CONTINUOUS
370
-3
390
F
  0
LAYER
  5
204
100
AcDbSymbolTableRecord
100
AcDbLayerTableRecord
  2
IMPORT_IGES
 70
0
 62
7
  6
CONTINUOUS
370
-3
390
F
  0
LAYER
  5
205
100
AcDbSymbolTableRecord
100
AcDbLayerTableRecord
  2
NOTE
 70
0
 62
7
  6
CONTINUOUS
370
-3
390
F
  0
LAYER
  5
206
100
AcDbSymbolTableRecord
100
AcDbLayerTableRecord
  2
PIANI
 70
0
 62
7
  6
CONTINUOUS
370
-3
390
F
  0
LAYER
  5
207
100
AcDbSymbolTableRecord
100
AcDbLayerTableRecord
  2
PIANI_ORIGINE
 70
0
 62
7
  6
CONTINUOUS
370
-3
390
F
  0
LAYER
  5
208
100
AcDbSymbolTableRecord
100
AcDbLayerTableRecord
  2
PIANI_SFORMI
 70
0
 62
7
  6
CONTINUOUS
370
-3
390
F
  0
LAYER
  5
209
100
AcDbSymbolTableRecord
100
AcDbLayerTableRecord
  2
PUNTI
 70
0
 62
7
  6
CONTINUOUS
370
-3
390
F
  0
LAYER
  5
20A
100
AcDbSymbolTableRecord
100
AcDbLayerTableRecord
  2
RACCORDO
 70
0
 62
7
  6
CONTINUOUS
370
-3
390
F
  0
LAYER
  5
20B
100
AcDbSymbolTableRecord
100
AcDbLayerTableRecord
  2
SIMBOLI
 70
0
 62
7
  6
CONTINUOUS
370
-3
390
F
  0
LAYER
  5
20C
100
AcDbSymbolTableRecord
100
AcDbLayerTableRecord
  2
SMUSSO
 70
0
 62
7
  6
CONTINUOUS
370
-3
390
F
  0
LAYER
  5
20D
100
AcDbSymbolTableRecord
100
AcDbLayerTableRecord
  2
SNAPLINE
 70
0
 62
7
  6
CONTINUOUS
370
-3
390
F
  0
LAYER
  5
20E
100
AcDbSymbolTableRecord
100
AcDbLayerTableRecord
  2
SUPERFICI
 70
0
 62
7
  6
CONTINUOUS
370
-3
390
F
  0
LAYER
  5
20F
100
AcDbSymbolTableRecord
100
AcDbLayerTableRecord
  2
TRASH
 70
0
 62
7
  6
CONTINUOUS
370
-3
390
F
  0
LAYER
  5
210
100
AcDbSymbolTableRecord
100
AcDbLayerTableRecord
  2
XSEC_DATUMS
 70
0
 62
7
  6
CONTINUOUS
370
-3
390
F
  0
ENDTAB
  0
TABLE
  2
STYLE
  5
3
100
AcDbSymbolTable
 70
1
  0
STYLE
  5
11
100
AcDbSymbolTableRecord
100
AcDbTextStyleTableRecord
  2
STANDARD
 70
0
 40
0.0
 41
0.8
 50
0.0
 71
0
 42
0.2
  3
txt
  4

  0
STYLE
  5
211
100
AcDbSymbolTableRecord
100
AcDbTextStyleTableRecord
  2
TEXTSTYLE_1
 70
0
 40
0.0
 41
0.8
 50
0.0
 71
0
 42
0.2
  3
gdt
  4

  0
ENDTAB
  0
TABLE
  2
VIEW
  5
6
100
AcDbSymbolTable
 70
0
  0
ENDTAB
  0
TABLE
  2
UCS
  5
7
100
AcDbSymbolTable
 70
0
  0
ENDTAB
  0
TABLE
  2
APPID
  5
9
100
AcDbSymbolTable
 70
1
  0
APPID
  5
212
100
AcDbSymbolTableRecord
100
AcDbRegAppTableRecord
  2
ACAD
 70
0
  0
ENDTAB
  0
TABLE
  2
BLOCK_RECORD
  5
1
100
AcDbSymbolTable
 70
0
  0
BLOCK_RECORD
  5
213
100
AcDbSymbolTableRecord
100
AcDbBlockTableRecord
  2
*Model_Space
  0
BLOCK_RECORD
  5
214
100
AcDbSymbolTableRecord
100
AcDbBlockTableRecord
  2
*Paper_Space
  0
ENDTAB
  0
TABLE
  2
DIMSTYLE
  5
A
100
AcDbSymbolTable
 70
1
100
AcDbDimStyleTable
 71
0
  0
DIMSTYLE
105
215
100
AcDbSymbolTableRecord
100
AcDbDimStyleTableRecord
  2
STANDARD
 70
0
  3

  4

 40
1.0
 41
3.0
 42
0.5
 43
0.38
 44
1.5
 45
0.0
 46
0.0
 47
0.01
 48
0.01
140
3.0
141
0.09
142
0.0
143
25.4
144
1.0
145
0.0
146
1.0
147
0.625
 71
1.0
 72
0.0
 73
0
 74
0
 75
0
 76
0
 77
1
 78
8
170
0
171
1
172
0
173
0
174
0
175
0
176
0
177
0
178
0
270
2
271
2
272
2
273
2
274
2
275
0
280
0
281
0
282
0
283
1
284
8
285
0
286
0
287
3
288
0
340
11
278
44
  0
ENDTAB
  0
ENDSEC
  0
SECTION
  2
BLOCKS
  0
BLOCK
  5
20
100
AcDbEntity
  8
0
100
AcDbBlockBegin
  2
*Model_Space
 70
0
 10
0.0
 20
0.0
 30
0.0
  3
*Model_Space
  1

  0
ENDBLK
  5
21
100
AcDbEntity
  8
0
100
AcDbBlockEnd
  0
BLOCK
  5
1C
100
AcDbEntity
  8
0
100
AcDbBlockBegin
  2
*Paper_Space
 70
0
 10
0.0
 20
0.0
 30
0.0
  3
*Paper_Space
  1

  0
ENDBLK
  5
1D
100
AcDbEntity
  8
0
100
AcDbBlockEnd
  0
ENDSEC
  0
SECTION
  2
ENTITIES
  0
LWPOLYLINE
  5
216
100
AcDbEntity
  8
0
100
AcDbPolyline
 62
7
  6
CONTINUOUS
 90
4
 70
0
 10
-10.0351625059
 20
24.4603145581
 10
-10.0450164051
 20
24.4536452955
 10
-10.0545418038
 20
24.4465147107
 10
-10.0637171191
 20
24.4389389589
  0
LWPOLYLINE
  5
217
100
AcDbEntity
  8
ASSI
100
AcDbPolyline
 62
7
  6
CONTINUOUS
 90
7
 70
0
 10
-10.0250031366
 20
24.4665069813
 10
-10.0469489068
 20
24.4522552626
 10
-10.0672846821
 20
24.4357876883
 10
-10.0857876883
 20
24.4172846821
 10
-10.1022552626
 20
24.3969489068
 10
-10.1165069813
 20
24.3750031366
 10
-10.1283866972
 20
24.3516877999
  0
LINE
  5
218
100
AcDbEntity
  8
ASSI
100
AcDbLine
 62
7
  6
CONTINUOUS
 10
-10.0016877999
 20
24.4783866972
 11
-10.0250031366
 21
24.4665069813
  0
LWPOLYLINE
  5
219
100
AcDbEntity
  8
ASSI
100
AcDbPolyline
 62
7
  6
CONTINUOUS
 90
3
 70
0
 10
9.9519821969
 20
-24.4945369567
 10
9.9772582821
 20
-24.4877642763
 10
10.0016877999
 20
-24.4783866972
  0
LWPOLYLINE
  5
21A
100
AcDbEntity
  8
0
100
AcDbPolyline
 62
7
  6
CONTINUOUS
 90
26
 70
0
 10
9.9545277163
 20
-24.4885897127
 10
9.9660236819
 20
-24.4855111341
 10
9.977358447
 20
-24.4818895243
 10
9.988508059
 20
-24.4777326699
 10
9.9994474601
 20
-24.4730498963
 10
10.0101519949
 20
-24.467851711
 10
10.0205972484
 20
-24.4621499225
 10
10.030759324
 20
-24.4559575601
 10
10.0406151087
 20
-24.4492887229
 10
10.0501423702
 20
-24.4421584695
 10
10.0593195834
 20
-24.4345829086
 10
10.068125975
 20
-24.4265791771
 10
10.0765415612
 20
-24.4181654255
 10
10.0845472554
 20
-24.4093607299
 10
10.0921249119
 20
-24.4001850429
 10
10.0992573629
 20
-24.3906591487
 10
10.105928443
 20
-24.3808046326
 10
10.1121230353
 20
-24.3706438204
 10
10.1178271006
 20
-24.3601997352
 10
10.1230277082
 20
-24.3494960488
 10
10.1277130725
 20
-24.3385570152
 10
10.1318725768
 20
-24.3274074189
 10
10.135496794
 20
-24.3160725264
 10
10.1385775126
 20
-24.3045780153
 10
10.1411077496
 20
-24.292949936
 10
10.1430817682
 20
-24.2812146563
  0
LWPOLYLINE
  5
21B
100
AcDbEntity
  8
ASSI
100
AcDbPolyline
 62
7
  6
CONTINUOUS
 90
14
 70
0
 10
9.9475771282
 20
-24.4901702663
 10
9.9728457634
 20
-24.4834027437
 10
9.9972753535
 20
-24.474029031
 10
10.0205960432
 20
-24.4621506181
 10
10.0425474347
 20
-24.447899163
 10
10.062887702
 20
-24.4314318691
 10
10.0813952999
 20
-24.4129283166
 10
10.0978672544
 20
-24.3925913542
 10
10.1121230179
 20
-24.3706438507
 10
10.1240063557
 20
-24.3473262874
 10
10.1333869849
 20
-24.3228942697
 10
10.1401620956
 20
-24.2976155726
 10
10.1442574503
 20
-24.2717671924
 10
10.145628166
 20
-24.2456323968
  0
LWPOLYLINE
  5
21C
100
AcDbEntity
  8
0
100
AcDbPolyline
 62
7
  6
CONTINUOUS
 90
9
 70
0
 10
9.9473162875
 20
-24.4954823677
 10
9.9589430388
 20
-24.4929531817
 10
9.970436279
 20
-24.4898736417
 10
9.9817699738
 20
-24.4862507213
 10
9.9929184493
 20
-24.4820926258
 10
10.0038564463
 20
-24.4774087722
 10
10.0145591876
 20
-24.4722097688
 10
10.0250024283
 20
-24.4665073916
 10
10.0351625059
 20
-24.4603145581
  0
LINE
  5
21D
100
AcDbEntity
  8
0
100
AcDbLine
 62
7
  6
CONTINUOUS
 10
9.942898281
 20
-24.4911177026
 11
9.9545277163
 21
-24.4885897127
  0
LINE
  5
21E
100
AcDbEntity
  8
0
100
AcDbLine
 62
7
  6
CONTINUOUS
 10
9.9355823661
 20
-24.4974554741
 11
9.9473162875
 21
-24.4954823677
  0
LINE
  5
21F
100
AcDbEntity
  8
ASSI
100
AcDbLine
 62
7
  6
CONTINUOUS
 10
9.9225124747
 20
-24.4941779536
 11
9.9475771282
 21
-24.4901702663
  0
LINE
  5
220
100
AcDbEntity
  8
ASSI
100
AcDbLine
 62
7
  6
CONTINUOUS
 10
9.9261364629
 20
-24.4986304926
 11
9.9519821969
 21
-24.4945369567
  0
LWPOLYLINE
  5
221
100
AcDbEntity
  8
0
100
AcDbPolyline
 62
7
  6
CONTINUOUS
 90
3
 70
0
 10
9.9225124747
 20
-24.4941779536
 10
9.9311667864
 20
-24.4930886486
 10
9.942898281
 20
-24.4911177026
  0
LINE
  5
222
100
AcDbEntity
  8
0
100
AcDbLine
 62
7
  6
CONTINUOUS
 10
9.9237678556
 20
-24.4988680342
 11
9.9355823661
 21
-24.4974554741
  0
LINE
  5
223
100
AcDbEntity
  8
ASSI
100
AcDbLine
 62
253
  6
CONTINUOUS
 10
9.8956323968
 20
-24.495628166
 11
9.9225124747
 21
-24.4941779536
  0
LINE
  5
224
100
AcDbEntity
  8
ASSI
100
AcDbLine
 62
7
  6
CONTINUOUS
 10
9.9000042308
 20
-24.5
 11
9.9261364629
 21
-24.4986304926
  0
LINE
  5
225
100
AcDbEntity
  8
ASSI
100
AcDbLine
 62
253
  6
CONTINUOUS
 10
-9.9225124747
 20
-24.4941779536
 11
-9.8956323968
 21
-24.495628166
  0
LWPOLYLINE
  5
226
100
AcDbEntity
  8
0
100
AcDbPolyline
 62
253
  6
CONTINUOUS
 90
4
 70
0
 10
-9.9225124747
 20
-24.4941779536
 10
-9.9193616109
 20
-24.4944986445
 10
-9.9075078683
 20
-24.4953455463
 10
-9.8956323968
 20
-24.495628166
  0
LWPOLYLINE
  5
227
100
AcDbEntity
  8
0
100
AcDbPolyline
 62
7
  6
CONTINUOUS
 90
4
 70
0
 10
-9.9355823661
 20
-24.4974554741
 10
-9.9237678556
 20
-24.4988680342
 10
-9.911899516
 20
-24.4997168498
 10
-9.9000042308
 20
-24.5
  0
LWPOLYLINE
  5
228
100
AcDbEntity
  8
0
100
AcDbPolyline
 62
7
  6
CONTINUOUS
 90
4
 70
0
 10
-9.9545277163
 20
-24.4885897127
 10
-9.942898281
 20
-24.4911177026
 10
-9.9311667864
 20
-24.4930886486
 10
-9.9225124747
 20
-24.4941779536
  0
LWPOLYLINE
  5
229
100
AcDbEntity
  8
ASSI
100
AcDbPolyline
 62
7
  6
CONTINUOUS
 90
5
 70
0
 10
-10.0016877999
 20
-24.4783866972
 10
-9.9772582821
 20
-24.4877642763
 10
-9.9519821969
 20
-24.4945369567
 10
-9.9261364629
 20
-24.4986304926
 10
-9.9000042308
 20
-24.5
  0
LINE
  5
22A
100
AcDbEntity
  8
ASSI
100
AcDbLine
 62
7
  6
CONTINUOUS
 10
-10.0250031366
 20
-24.4665069813
 11
-10.0016877999
 21
-24.4783866972
  0
LWPOLYLINE
  5
22B
100
AcDbEntity
  8
0
100
AcDbPolyline
 62
7
  6
CONTINUOUS
 90
10
 70
0
 10
-10.0351625059
 20
-24.4603145581
 10
-10.0250024283
 20
-24.4665073916
 10
-10.0145591876
 20
-24.4722097688
 10
-10.0038564463
 20
-24.4774087722
 10
-9.9929184493
 20
-24.4820926258
 10
-9.9817699738
 20
-24.4862507213
 10
-9.970436279
 20
-24.4898736417
 10
-9.9589430388
 20
-24.4929531817
 10
-9.9473162875
 20
-24.4954823677
 10
-9.9355823661
 20
-24.4974554741
  0
LWPOLYLINE
  5
22C
100
AcDbEntity
  8
0
100
AcDbPolyline
 62
7
  6
CONTINUOUS
 90
4
 70
0
 10
-10.0637171191
 20
-24.4389389589
 10
-10.0545418038
 20
-24.4465147107
 10
-10.0450164051
 20
-24.4536452955
 10
-10.0351625059
 20
-24.4603145581
  0
LWPOLYLINE
  5
22D
100
AcDbEntity
  8
0
100
AcDbPolyline
 62
7
  6
CONTINUOUS
 90
7
 70
0
 10
-10.0637171191
 20
24.4389389589
 10
-10.0725215661
 20
24.4309352005
 10
-10.0809352005
 20
24.4225215661
 10
-10.0889389589
 20
24.4137171191
 10
-10.0965147107
 20
24.4045418038
 10
-10.1036452955
 20
24.3950164051
 10
-10.1103145581
 20
24.3851625059
  0
LINE
  5
22E
100
AcDbEntity
  8
0
100
AcDbLine
 62
7
  6
CONTINUOUS
 10
-7.4762321444
 20
-24.4988680342
 11
-7.4644176339
 21
-24.4974554741
  0
LWPOLYLINE
  5
22F
100
AcDbEntity
  8
0
100
AcDbPolyline
 62
7
  6
CONTINUOUS
 90
29
 70
0
 10
-7.480604505
 20
-24.4944954103
 10
-7.4687902571
 20
-24.4930824749
 10
-7.4570565999
 20
-24.4911090096
 10
-7.4454301126
 20
-24.4885794848
 10
-7.433937132
 20
-24.4854996304
 10
-7.4226036922
 20
-24.481876423
 10
-7.411455466
 20
-24.47771807
 10
-7.4005177065
 20
-24.4730339909
 10
-7.3898151904
 20
-24.4678347962
 10
-7.3793721611
 20
-24.4621322634
 10
-7.3692122745
 20
-24.4559393098
 10
-7.359358545
 20
-24.449269964
 10
-7.3498332936
 20
-24.4421393334
 10
-7.3406580969
 20
-24.4345635707
 10
-7.3318537389
 20
-24.4265598365
 10
-7.3234401635
 20
-24.4181462611
 10
-7.3154364293
 20
-24.4093419031
 10
-7.3078606666
 20
-24.4001667064
 10
-7.300730036
 20
-24.390641455
 10
-7.2940606902
 20
-24.3807877255
 10
-7.2878677366
 20
-24.3706278389
 10
-7.2821652038
 20
-24.3601848096
 10
-7.2769660091
 20
-24.3494822935
 10
-7.27228193
 20
-24.338544534
 10
-7.268123577
 20
-24.3273963078
 10
-7.2645003696
 20
-24.316062868
 10
-7.2614205152
 20
-24.3045698874
 10
-7.2588909904
 20
-24.2929434001
 10
-7.2569175251
 20
-24.2812097429
  0
LINE
  5
230
100
AcDbEntity
  8
ASSI
100
AcDbLine
 62
7
  6
CONTINUOUS
 10
-7.4999957692
 20
-24.5
 11
-7.4738635371
 21
-24.4986304926
  0
LWPOLYLINE
  5
231
100
AcDbEntity
  8
ASSI
100
AcDbPolyline
 62
7
  6
CONTINUOUS
 90
16
 70
0
 10
-7.5043676032
 20
-24.495628166
 10
-7.4782364906
 20
-24.4942578375
 10
-7.4523916636
 20
-24.490163634
 10
-7.4271162714
 20
-24.4833904104
 10
-7.4026872245
 20
-24.4740123724
 10
-7.3793721611
 20
-24.4621322634
 10
-7.357426515
 20
-24.4478802386
 10
-7.3370907169
 20
-24.4314124395
 10
-7.3185875605
 20
-24.4129092831
 10
-7.3021197614
 20
-24.392573485
 10
-7.2878677366
 20
-24.3706278389
 10
-7.2759876276
 20
-24.3473127755
 10
-7.2666095896
 20
-24.3228837286
 10
-7.259836366
 20
-24.2976083364
 10
-7.2557421625
 20
-24.2717635094
 10
-7.254371834
 20
-24.2456323968
  0
LWPOLYLINE
  5
232
100
AcDbEntity
  8
0
100
AcDbPolyline
 62
7
  6
CONTINUOUS
 90
3
 70
0
 10
9.9000042308
 20
-24.5
 10
9.911899516
 20
-24.4997168498
 10
9.9237678556
 20
-24.4988680342
  0
LWPOLYLINE
  5
233
100
AcDbEntity
  8
0
100
AcDbPolyline
 62
253
  6
CONTINUOUS
 90
4
 70
0
 10
9.8956323968
 20
-24.495628166
 10
9.9075078683
 20
-24.4953455463
 10
9.9193616109
 20
-24.4944986445
 10
9.9225124747
 20
-24.4941779536
  0
LWPOLYLINE
  5
234
100
AcDbEntity
  8
0
100
AcDbPolyline
 62
7
  6
CONTINUOUS
 90
3
 70
0
 10
-7.4999957692
 20
-24.5
 10
-7.488100484
 20
-24.4997168498
 10
-7.4762321444
 20
-24.4988680342
  0
LWPOLYLINE
  5
235
100
AcDbEntity
  8
0
100
AcDbPolyline
 62
7
  6
CONTINUOUS
 90
3
 70
0
 10
-7.5043676032
 20
-24.495628166
 10
-7.4924725817
 20
-24.4953446152
 10
-7.480604505
 20
-24.4944954103
  0
LINE
  5
236
100
AcDbEntity
  8
ASSI
100
AcDbLine
 62
7
  6
CONTINUOUS
 10
-9.8956323968
 20
-24.495628166
 11
-7.5043676032
 21
-24.495628166
  0
LINE
  5
237
100
AcDbEntity
  8
0
100
AcDbLine
 62
7
  6
CONTINUOUS
 10
-9.8956323968
 20
-24.495628166
 11
-7.5043676032
 21
-24.495628166
  0
LINE
  5
238
100
AcDbEntity
  8
ASSI
100
AcDbLine
 62
7
  6
CONTINUOUS
 10
7.5043676032
 20
-24.495628166
 11
9.8956323968
 21
-24.495628166
  0
LINE
  5
239
100
AcDbEntity
  8
0
100
AcDbLine
 62
7
  6
CONTINUOUS
 10
7.5043676032
 20
-24.495628166
 11
9.8956323968
 21
-24.495628166
  0
LINE
  5
23A
100
AcDbEntity
  8
ASSI
100
AcDbLine
 62
253
  6
CONTINUOUS
 10
7.254371834
 20
-24.2456323968
 11
10.145628166
 21
-24.2456323968
  0
LINE
  5
23B
100
AcDbEntity
  8
0
100
AcDbLine
 62
253
  6
CONTINUOUS
 10
7.254371834
 20
-24.2456323968
 11
10.145628166
 21
-24.2456323968
  0
LINE
  5
23C
100
AcDbEntity
  8
ASSI
100
AcDbLine
 62
253
  6
CONTINUOUS
 10
-7.254371834
 20
-24.2456323968
 11
-10.145628166
 21
-24.2456323968
  0
LINE
  5
23D
100
AcDbEntity
  8
0
100
AcDbLine
 62
253
  6
CONTINUOUS
 10
-7.254371834
 20
-24.2456323968
 11
-10.145628166
 21
-24.2456323968
  0
LINE
  5
23E
100
AcDbEntity
  8
ASSI
100
AcDbLine
 62
7
  6
CONTINUOUS
 10
-4.45
 20
-24.0
 11
-3.5
 21
-24.0
  0
LINE
  5
23F
100
AcDbEntity
  8
0
100
AcDbLine
 62
7
  6
CONTINUOUS
 10
-4.45
 20
-24.0
 11
-3.5
 21
-24.0
  0
LINE
  5
240
100
AcDbEntity
  8
ASSI
100
AcDbLine
 62
7
  6
CONTINUOUS
 10
3.5
 20
-24.0
 11
4.45
 21
-24.0
  0
LINE
  5
241
100
AcDbEntity
  8
0
100
AcDbLine
 62
7
  6
CONTINUOUS
 10
3.5
 20
-24.0
 11
4.45
 21
-24.0
  0
LINE
  5
242
100
AcDbEntity
  8
ASSI
100
AcDbLine
 62
7
  6
CONTINUOUS
 10
-3.5
 20
-23.9941821702
 11
-1.2
 21
-23.9941821702
  0
LINE
  5
243
100
AcDbEntity
  8
0
100
AcDbLine
 62
7
  6
CONTINUOUS
 10
-3.5
 20
-23.9941821702
 11
-1.2
 21
-23.9941821702
  0
LINE
  5
244
100
AcDbEntity
  8
ASSI
100
AcDbLine
 62
7
  6
CONTINUOUS
 10
1.2
 20
-23.9941821702
 11
3.5
 21
-23.9941821702
  0
LINE
  5
245
100
AcDbEntity
  8
0
100
AcDbLine
 62
7
  6
CONTINUOUS
 10
1.2
 20
-23.9941821702
 11
3.5
 21
-23.9941821702
  0
LINE
  5
246
100
AcDbEntity
  8
ASSI
100
AcDbLine
 62
7
  6
CONTINUOUS
 10
-4.4063493531
 20
-23.9563493531
 11
-3.5
 21
-23.9563493531
  0
LINE
  5
247
100
AcDbEntity
  8
0
100
AcDbLine
 62
7
  6
CONTINUOUS
 10
-4.4063493531
 20
-23.9563493531
 11
-3.5
 21
-23.9563493531
  0
LINE
  5
248
100
AcDbEntity
  8
ASSI
100
AcDbLine
 62
7
  6
CONTINUOUS
 10
3.5
 20
-23.9563493531
 11
4.4063493531
 21
-23.9563493531
  0
LINE
  5
249
100
AcDbEntity
  8
0
100
AcDbLine
 62
7
  6
CONTINUOUS
 10
3.5
 20
-23.9563493531
 11
4.4063493531
 21
-23.9563493531
  0
LINE
  5
24A
100
AcDbEntity
  8
ASSI
100
AcDbLine
 62
253
  6
CONTINUOUS
 10
7.254371834
 20
-23.8443375673
 11
10.145628166
 21
-23.8443375673
  0
LINE
  5
24B
100
AcDbEntity
  8
0
100
AcDbLine
 62
253
  6
CONTINUOUS
 10
7.254371834
 20
-23.8443375673
 11
10.145628166
 21
-23.8443375673
  0
LINE
  5
24C
100
AcDbEntity
  8
ASSI
100
AcDbLine
 62
253
  6
CONTINUOUS
 10
-7.254371834
 20
-23.8443375673
 11
-10.145628166
 21
-23.8443375673
  0
LINE
  5
24D
100
AcDbEntity
  8
0
100
AcDbLine
 62
253
  6
CONTINUOUS
 10
-7.254371834
 20
-23.8443375673
 11
-10.145628166
 21
-23.8443375673
  0
LINE
  5
24E
100
AcDbEntity
  8
ASSI
100
AcDbLine
 62
253
  6
CONTINUOUS
 10
9.8956323968
 20
-23.6278312164
 11
7.5043676032
 21
-23.6278312164
  0
LINE
  5
24F
100
AcDbEntity
  8
0
100
AcDbLine
 62
253
  6
CONTINUOUS
 10
9.8956323968
 20
-23.6278312164
 11
7.5043676032
 21
-23.6278312164
  0
LINE
  5
250
100
AcDbEntity
  8
ASSI
100
AcDbLine
 62
253
  6
CONTINUOUS
 10
-7.5043676032
 20
-23.6278312164
 11
-9.8956323968
 21
-23.6278312164
  0
LINE
  5
251
100
AcDbEntity
  8
0
100
AcDbLine
 62
253
  6
CONTINUOUS
 10
-7.5043676032
 20
-23.6278312164
 11
-9.8956323968
 21
-23.6278312164
  0
LINE
  5
252
100
AcDbEntity
  8
ASSI
100
AcDbLine
 62
7
  6
CONTINUOUS
 10
-9.9007229979
 20
-23.1226497308
 11
-7.4992770021
 21
-23.1226497308
  0
LINE
  5
253
100
AcDbEntity
  8
0
100
AcDbLine
 62
7
  6
CONTINUOUS
 10
-9.9007229979
 20
-23.1226497308
 11
-7.4992770021
 21
-23.1226497308
  0
LINE
  5
254
100
AcDbEntity
  8
ASSI
100
AcDbLine
 62
7
  6
CONTINUOUS
 10
9.9007229979
 20
-23.1226497308
 11
7.4992770021
 21
-23.1226497308
  0
LINE
  5
255
100
AcDbEntity
  8
0
100
AcDbLine
 62
7
  6
CONTINUOUS
 10
9.9007229979
 20
-23.1226497308
 11
7.4992770021
 21
-23.1226497308
  0
LWPOLYLINE
  5
256
100
AcDbEntity
  8
0
100
AcDbPolyline
 62
7
  6
CONTINUOUS
 90
4
 70
0
 10
7.4644176339
 20
-24.4974554741
 10
7.4762321444
 20
-24.4988680342
 10
7.488100484
 20
-24.4997168498
 10
7.4999957692
 20
-24.5
  0
LWPOLYLINE
  5
257
100
AcDbEntity
  8
0
100
AcDbPolyline
 62
7
  6
CONTINUOUS
 90
4
 70
0
 10
7.4687902571
 20
-24.4930824749
 10
7.480604505
 20
-24.4944954103
 10
7.4924725817
 20
-24.4953446152
 10
7.5043676032
 20
-24.495628166
  0
LWPOLYLINE
  5
258
100
AcDbEntity
  8
0
100
AcDbPolyline
 62
7
  6
CONTINUOUS
 90
3
 70
0
 10
-10.1103145581
 20
24.3851625059
 10
-10.1165073916
 20
24.3750024283
 10
-10.1222097688
 20
24.3645591876
  0
LINE
  5
259
100
AcDbEntity
  8
ASSI
100
AcDbLine
 62
7
  6
CONTINUOUS
 10
-8.0665695018
 20
21.4537354271
 11
-8.25
 21
21.4
  0
LINE
  5
25A
100
AcDbEntity
  8
DRAFT
100
AcDbLine
 62
7
  6
CONTINUOUS
 10
-8.0665695018
 20
21.4537354271
 11
-8.25
 21
21.4
  0
LINE
  5
25B
100
AcDbEntity
  8
ASSI
100
AcDbLine
 62
7
  6
CONTINUOUS
 10
-7.4480178031
 20
-24.4945369567
 11
-7.4227417179
 21
-24.4877642763
  0
LWPOLYLINE
  5
25C
100
AcDbEntity
  8
0
100
AcDbPolyline
 62
7
  6
CONTINUOUS
 90
7
 70
0
 10
-7.4526837125
 20
-24.4954823677
 10
-7.4410569612
 20
-24.4929531817
 10
-7.429563721
 20
-24.4898736417
 10
-7.4182300262
 20
-24.4862507213
 10
-7.4070815507
 20
-24.4820926258
 10
-7.3961435537
 20
-24.4774087722
 10
-7.3854408124
 20
-24.4722097688
  0
LINE
  5
25D
100
AcDbEntity
  8
0
100
AcDbLine
 62
7
  6
CONTINUOUS
 10
-7.4644176339
 20
-24.4974554741
 11
-7.4526837125
 21
-24.4954823677
  0
LINE
  5
25E
100
AcDbEntity
  8
ASSI
100
AcDbLine
 62
7
  6
CONTINUOUS
 10
-7.4738635371
 20
-24.4986304926
 11
-7.4480178031
 21
-24.4945369567
  0
LINE
  5
25F
100
AcDbEntity
  8
ASSI
100
AcDbLine
 62
7
  6
CONTINUOUS
 10
-7.0500575117
 20
-22.4
 11
-4.45
 21
-22.4
  0
LINE
  5
260
100
AcDbEntity
  8
RACCORDO
100
AcDbLine
 62
7
  6
CONTINUOUS
 10
-7.0500575117
 20
-22.4
 11
-4.45
 21
-22.4
  0
LINE
  5
261
100
AcDbEntity
  8
ASSI
100
AcDbLine
 62
7
  6
CONTINUOUS
 10
4.45
 20
-22.4
 11
7.0500575117
 21
-22.4
  0
LINE
  5
262
100
AcDbEntity
  8
RACCORDO
100
AcDbLine
 62
7
  6
CONTINUOUS
 10
4.45
 20
-22.4
 11
7.0500575117
 21
-22.4
  0
LINE
  5
263
100
AcDbEntity
  8
ASSI
100
AcDbLine
 62
7
  6
CONTINUOUS
 10
-1.0
 20
-22.3947639644
 11
1.0
 21
-22.3947639644
  0
LINE
  5
264
100
AcDbEntity
  8
0
100
AcDbLine
 62
7
  6
CONTINUOUS
 10
-1.0
 20
-22.3947639644
 11
1.0
 21
-22.3947639644
  0
LINE
  5
265
100
AcDbEntity
  8
ASSI
100
AcDbLine
 62
7
  6
CONTINUOUS
 10
-10.6417158217
 20
-22.3941821702
 11
-7.2558178298
 21
-22.3941821702
  0
LINE
  5
266
100
AcDbEntity
  8
DRAFT
100
AcDbLine
 62
7
  6
CONTINUOUS
 10
-10.6417158217
 20
-22.3941821702
 11
-7.2558178298
 21
-22.3941821702
  0
LINE
  5
267
100
AcDbEntity
  8
ASSI
100
AcDbLine
 62
7
  6
CONTINUOUS
 10
-3.5
 20
-22.3941821702
 11
-3.0
 21
-22.3941821702
  0
LINE
  5
268
100
AcDbEntity
  8
0
100
AcDbLine
 62
7
  6
CONTINUOUS
 10
-3.5
 20
-22.3941821702
 11
-3.0
 21
-22.3941821702
  0
LINE
  5
269
100
AcDbEntity
  8
ASSI
100
AcDbLine
 62
7
  6
CONTINUOUS
 10
3.0
 20
-22.3941821702
 11
3.5
 21
-22.3941821702
  0
LINE
  5
26A
100
AcDbEntity
  8
0
100
AcDbLine
 62
7
  6
CONTINUOUS
 10
3.0
 20
-22.3941821702
 11
3.5
 21
-22.3941821702
  0
LINE
  5
26B
100
AcDbEntity
  8
ASSI
100
AcDbLine
 62
7
  6
CONTINUOUS
 10
7.2558178298
 20
-22.3941821702
 11
10.6417158217
 21
-22.3941821702
  0
LINE
  5
26C
100
AcDbEntity
  8
DRAFT
100
AcDbLine
 62
7
  6
CONTINUOUS
 10
7.2558178298
 20
-22.3941821702
 11
10.6417158217
 21
-22.3941821702
  0
LINE
  5
26D
100
AcDbEntity
  8
ASSI
100
AcDbLine
 62
253
  6
CONTINUOUS
 10
-7.1905416262
 20
-22.3359700255
 11
-3.0
 21
-22.3359700255
  0
LINE
  5
26E
100
AcDbEntity
  8
DRAFT
100
AcDbLine
 62
7
  6
CONTINUOUS
 10
-7.1905416262
 20
-22.3359700255
 11
-3.0
 21
-22.3359700255
  0
LINE
  5
26F
100
AcDbEntity
  8
ASSI
100
AcDbLine
 62
253
  6
CONTINUOUS
 10
3.0
 20
-22.3359700255
 11
7.1905416262
 21
-22.3359700255
  0
LINE
  5
270
100
AcDbEntity
  8
DRAFT
100
AcDbLine
 62
7
  6
CONTINUOUS
 10
3.0
 20
-22.3359700255
 11
7.1905416262
 21
-22.3359700255
  0
LINE
  5
271
100
AcDbEntity
  8
ASSI
100
AcDbLine
 62
7
  6
CONTINUOUS
 10
-3.0
 20
-21.7
 11
3.0
 21
-21.7
  0
LINE
  5
272
100
AcDbEntity
  8
0
100
AcDbLine
 62
7
  6
CONTINUOUS
 10
-3.0
 20
-21.7
 11
3.0
 21
-21.7
  0
LINE
  5
273
100
AcDbEntity
  8
ASSI
100
AcDbLine
 62
253
  6
CONTINUOUS
 10
-7.5666456542
 20
-21.3359869487
 11
-3.0
 21
-21.3359869487
  0
LINE
  5
274
100
AcDbEntity
  8
0
100
AcDbLine
 62
253
  6
CONTINUOUS
 10
-7.5666456542
 20
-21.3359869487
 11
-3.0
 21
-21.3359869487
  0
LINE
  5
275
100
AcDbEntity
  8
ASSI
100
AcDbLine
 62
253
  6
CONTINUOUS
 10
3.0
 20
-21.3359869487
 11
7.5666456542
 21
-21.3359869487
  0
LINE
  5
276
100
AcDbEntity
  8
0
100
AcDbLine
 62
253
  6
CONTINUOUS
 10
3.0
 20
-21.3359869487
 11
7.5666456542
 21
-21.3359869487
  0
LWPOLYLINE
  5
277
100
AcDbEntity
  8
ASSI
100
AcDbPolyline
 62
7
  6
CONTINUOUS
 90
4
 70
0
 10
7.4227417179
 20
-24.4877642763
 10
7.4480178031
 20
-24.4945369567
 10
7.4738635371
 20
-24.4986304926
 10
7.4999957692
 20
-24.5
  0
LINE
  5
278
100
AcDbEntity
  8
ASSI
100
AcDbLine
 62
7
  6
CONTINUOUS
 10
-8.0665695018
 20
-21.4537354271
 11
-8.25
 21
-21.4
  0
LINE
  5
279
100
AcDbEntity
  8
DRAFT
100
AcDbLine
 62
7
  6
CONTINUOUS
 10
-8.0665695018
 20
-21.4537354271
 11
-8.25
 21
-21.4
  0
LWPOLYLINE
  5
27A
100
AcDbEntity
  8
0
100
AcDbPolyline
 62
7
  6
CONTINUOUS
 90
7
 70
0
 10
-10.1103145581
 20
-24.3851625059
 10
-10.1036452955
 20
-24.3950164051
 10
-10.0965147107
 20
-24.4045418038
 10
-10.0889389589
 20
-24.4137171191
 10
-10.0809352005
 20
-24.4225215661
 10
-10.0725215661
 20
-24.4309352005
 10
-10.0637171191
 20
-24.4389389589
  0
LWPOLYLINE
  5
27B
100
AcDbEntity
  8
0
100
AcDbPolyline
 62
7
  6
CONTINUOUS
 90
8
 70
0
 10
-10.1222097688
 20
24.3645591876
 10
-10.1274087722
 20
24.3538564463
 10
-10.1320926258
 20
24.3429184493
 10
-10.1362507213
 20
24.3317699738
 10
-10.1398736417
 20
24.320436279
 10
-10.1429531817
 20
24.3089430388
 10
-10.1454823677
 20
24.2973162875
 10
-10.1474554741
 20
24.2855823661
  0
LINE
  5
27C
100
AcDbEntity
  8
ASSI
100
AcDbLine
 62
7
  6
CONTINUOUS
 10
-9.5242313121
 20
19.8214267532
 11
-8.8258650579
 21
20.5276115984
  0
LINE
  5
27D
100
AcDbEntity
  8
0
100
AcDbLine
 62
7
  6
CONTINUOUS
 10
-9.5242313121
 20
19.8214267532
 11
-8.8258650579
 21
20.5276115984
  0
LINE
  5
27E
100
AcDbEntity
  8
ASSI
100
AcDbLine
 62
7
  6
CONTINUOUS
 10
-9.65
 20
20.1990396502
 11
-8.9498936624
 21
20.9
  0
LINE
  5
27F
100
AcDbEntity
  8
0
100
AcDbLine
 62
7
  6
CONTINUOUS
 10
-9.65
 20
20.1990396502
 11
-8.9498936624
 21
20.9
  0
LINE
  5
280
100
AcDbEntity
  8
ASSI
100
AcDbLine
 62
7
  6
CONTINUOUS
 10
-8.25
 20
21.4
 11
-7.2558178298
 21
22.3941821702
  0
LINE
  5
281
100
AcDbEntity
  8
DRAFT
100
AcDbLine
 62
7
  6
CONTINUOUS
 10
-8.25
 20
21.4
 11
-7.2558178298
 21
22.3941821702
  0
LINE
  5
282
100
AcDbEntity
  8
ASSI
100
AcDbLine
 62
7
  6
CONTINUOUS
 10
-9.65
 20
19.1450129975
 11
-10.2378950129
 21
18.5571179845
  0
LINE
  5
283
100
AcDbEntity
  8
0
100
AcDbLine
 62
7
  6
CONTINUOUS
 10
-9.65
 20
19.1450129975
 11
-10.2378950129
 21
18.5571179845
  0
LINE
  5
284
100
AcDbEntity
  8
ASSI
100
AcDbLine
 62
7
  6
CONTINUOUS
 10
-11.1665823117
 20
-21.0226497308
 11
-11.1417094756
 21
-21.0226497308
  0
LINE
  5
285
100
AcDbEntity
  8
ASSI
100
AcDbLine
 62
7
  6
CONTINUOUS
 10
11.1665823117
 20
-21.0226497308
 11
11.1417094756
 21
-21.0226497308
  0
LINE
  5
286
100
AcDbEntity
  8
0
100
AcDbLine
 62
7
  6
CONTINUOUS
 10
11.1665823117
 20
-21.0226497308
 11
11.1417094756
 21
-21.0226497308
  0
LINE
  5
287
100
AcDbEntity
  8
0
100
AcDbLine
 62
7
  6
CONTINUOUS
 10
-11.1665823117
 20
-21.0226497308
 11
-11.1417094756
 21
-21.0226497308
  0
LINE
  5
288
100
AcDbEntity
  8
ASSI
100
AcDbLine
 62
7
  6
CONTINUOUS
 10
-7.1350621988
 20
-20.9
 11
-8.9498936624
 21
-20.9
  0
LINE
  5
289
100
AcDbEntity
  8
ASSI
100
AcDbLine
 62
7
  6
CONTINUOUS
 10
7.1350621988
 20
-20.9
 11
8.9498936624
 21
-20.9
  0
LINE
  5
28A
100
AcDbEntity
  8
0
100
AcDbLine
 62
7
  6
CONTINUOUS
 10
-7.1350621988
 20
-20.9
 11
-8.9498936624
 21
-20.9
  0
LINE
  5
28B
100
AcDbEntity
  8
0
100
AcDbLine
 62
7
  6
CONTINUOUS
 10
7.1350621988
 20
-20.9
 11
8.9498936624
 21
-20.9
  0
LINE
  5
28C
100
AcDbEntity
  8
ASSI
100
AcDbLine
 62
7
  6
CONTINUOUS
 10
-3.0
 20
-20.8
 11
3.0
 21
-20.8
  0
LINE
  5
28D
100
AcDbEntity
  8
0
100
AcDbLine
 62
7
  6
CONTINUOUS
 10
-3.0
 20
-20.8
 11
3.0
 21
-20.8
  0
LINE
  5
28E
100
AcDbEntity
  8
ASSI
100
AcDbLine
 62
7
  6
CONTINUOUS
 10
-8.9132380261
 20
-20.7899436635
 11
-7.2493841668
 21
-20.7899436635
  0
LINE
  5
28F
100
AcDbEntity
  8
0
100
AcDbLine
 62
7
  6
CONTINUOUS
 10
-8.9132380261
 20
-20.7899436635
 11
-7.2493841668
 21
-20.7899436635
  0
LINE
  5
290
100
AcDbEntity
  8
ASSI
100
AcDbLine
 62
7
  6
CONTINUOUS
 10
7.2493841668
 20
-20.7899436635
 11
8.9132380261
 21
-20.7899436635
  0
LINE
  5
291
100
AcDbEntity
  8
0
100
AcDbLine
 62
7
  6
CONTINUOUS
 10
7.2493841668
 20
-20.7899436635
 11
8.9132380261
 21
-20.7899436635
  0
LINE
  5
292
100
AcDbEntity
  8
ASSI
100
AcDbLine
 62
7
  6
CONTINUOUS
 10
-6.6649378012
 20
-20.0
 11
6.6649378012
 21
-20.0
  0
LINE
  5
293
100
AcDbEntity
  8
0
100
AcDbLine
 62
7
  6
CONTINUOUS
 10
-6.6649378012
 20
-20.0
 11
6.6649378012
 21
-20.0
  0
LINE
  5
294
100
AcDbEntity
  8
ASSI
100
AcDbLine
 62
7
  6
CONTINUOUS
 10
9.6133443637
 20
-19.6
 11
7.2493841668
 21
-19.6
  0
LINE
  5
295
100
AcDbEntity
  8
0
100
AcDbLine
 62
7
  6
CONTINUOUS
 10
9.6133443637
 20
-19.6
 11
7.2493841668
 21
-19.6
  0
LINE
  5
296
100
AcDbEntity
  8
ASSI
100
AcDbLine
 62
7
  6
CONTINUOUS
 10
6.5506158332
 20
-19.6
 11
4.5322894108
 21
-19.6
  0
LINE
  5
297
100
AcDbEntity
  8
0
100
AcDbLine
 62
7
  6
CONTINUOUS
 10
6.5506158332
 20
-19.6
 11
4.5322894108
 21
-19.6
  0
LINE
  5
298
100
AcDbEntity
  8
ASSI
100
AcDbLine
 62
7
  6
CONTINUOUS
 10
-4.5322894108
 20
-19.6
 11
-6.5506158332
 21
-19.6
  0
LINE
  5
299
100
AcDbEntity
  8
0
100
AcDbLine
 62
7
  6
CONTINUOUS
 10
-4.5322894108
 20
-19.6
 11
-6.5506158332
 21
-19.6
  0
LINE
  5
29A
100
AcDbEntity
  8
ASSI
100
AcDbLine
 62
7
  6
CONTINUOUS
 10
-7.2493841668
 20
-19.6
 11
-9.6133443637
 21
-19.6
  0
LINE
  5
29B
100
AcDbEntity
  8
0
100
AcDbLine
 62
7
  6
CONTINUOUS
 10
-7.2493841668
 20
-19.6
 11
-9.6133443637
 21
-19.6
  0
LINE
  5
29C
100
AcDbEntity
  8
ASSI
100
AcDbLine
 62
7
  6
CONTINUOUS
 10
7.3983122001
 20
-24.4783866972
 11
7.4227417179
 21
-24.4877642763
  0
LINE
  5
29D
100
AcDbEntity
  8
ASSI
100
AcDbLine
 62
7
  6
CONTINUOUS
 10
-7.2558178298
 20
-22.3941821702
 11
-8.25
 21
-21.4
  0
LINE
  5
29E
100
AcDbEntity
  8
DRAFT
100
AcDbLine
 62
7
  6
CONTINUOUS
 10
-7.2558178298
 20
-22.3941821702
 11
-8.25
 21
-21.4
  0
LINE
  5
29F
100
AcDbEntity
  8
ASSI
100
AcDbLine
 62
7
  6
CONTINUOUS
 10
-9.65
 20
-20.1990396502
 11
-8.9498936624
 21
-20.9
  0
LINE
  5
2A0
100
AcDbEntity
  8
0
100
AcDbLine
 62
7
  6
CONTINUOUS
 10
-9.65
 20
-20.1990396502
 11
-8.9498936624
 21
-20.9
  0
LINE
  5
2A1
100
AcDbEntity
  8
ASSI
100
AcDbLine
 62
7
  6
CONTINUOUS
 10
-9.6133443637
 20
-20.0889833137
 11
-8.9132380261
 21
-20.7899436635
  0
LINE
  5
2A2
100
AcDbEntity
  8
0
100
AcDbLine
 62
7
  6
CONTINUOUS
 10
-9.6133443637
 20
-20.0889833137
 11
-8.9132380261
 21
-20.7899436635
  0
LWPOLYLINE
  5
2A3
100
AcDbEntity
  8
0
100
AcDbPolyline
 62
7
  6
CONTINUOUS
 90
3
 70
0
 10
-10.1222097688
 20
-24.3645591876
 10
-10.1165073916
 20
-24.3750024283
 10
-10.1103145581
 20
-24.3851625059
  0
LWPOLYLINE
  5
2A4
100
AcDbEntity
  8
ASSI
100
AcDbPolyline
 62
7
  6
CONTINUOUS
 90
7
 70
0
 10
-10.1283866972
 20
-24.3516877999
 10
-10.1165069813
 20
-24.3750031366
 10
-10.1022552626
 20
-24.3969489068
 10
-10.0857876883
 20
-24.4172846821
 10
-10.0672846821
 20
-24.4357876883
 10
-10.0469489068
 20
-24.4522552626
 10
-10.0250031366
 20
-24.4665069813
  0
LINE
  5
2A5
100
AcDbEntity
  8
ASSI
100
AcDbLine
 62
7
  6
CONTINUOUS
 10
-10.1283866972
 20
24.3516877999
 11
-10.1377642763
 21
24.3272582821
  0
LINE
  5
2A6
100
AcDbEntity
  8
ASSI
100
AcDbLine
 62
7
  6
CONTINUOUS
 10
-3.5212454386
 20
23.921182938
 11
-3.533623569
 21
23.9062000137
  0
LINE
  5
2A7
100
AcDbEntity
  8
0
100
AcDbLine
 62
7
  6
CONTINUOUS
 10
-3.5314569667
 20
23.9088081591
 11
-3.5375902083
 21
23.901531018
  0
LWPOLYLINE
  5
2A8
100
AcDbEntity
  8
0
100
AcDbPolyline
 62
7
  6
CONTINUOUS
 90
5
 70
0
 10
-3.5375902083
 20
23.901531018
 10
-3.5443395314
 20
23.8936505129
 10
-3.5517095018
 20
23.8851700367
 10
-3.5597297127
 20
23.8760324123
 10
-3.5684156887
 20
23.8662342471
  0
LWPOLYLINE
  5
2A9
100
AcDbEntity
  8
ASSI
100
AcDbPolyline
 62
7
  6
CONTINUOUS
 90
4
 70
0
 10
-3.533623569
 20
23.9062000137
 10
-3.548976609
 20
23.8883010341
 10
-3.5673475666
 20
23.8673866275
 10
-3.5887357937
 20
23.8435561656
  0
LINE
  5
2AA
100
AcDbEntity
  8
0
100
AcDbLine
 62
7
  6
CONTINUOUS
 10
-3.5684156887
 20
23.8662342471
 11
-3.5878344473
 21
23.8446194739
  0
LINE
  5
2AB
100
AcDbEntity
  8
0
100
AcDbLine
 62
7
  6
CONTINUOUS
 10
-3.5878344473
 20
23.8446194739
 11
-3.6100907975
 21
23.8201729753
  0
LWPOLYLINE
  5
2AC
100
AcDbEntity
  8
ASSI
100
AcDbPolyline
 62
7
  6
CONTINUOUS
 90
3
 70
0
 10
-3.5887357937
 20
23.8435561656
 10
-3.6402559565
 20
23.7874213603
 10
-3.6702103482
 20
23.7551170169
  0
LINE
  5
2AD
100
AcDbEntity
  8
0
100
AcDbLine
 62
7
  6
CONTINUOUS
 10
-3.6100907975
 20
23.8201729753
 11
-3.6352415326
 21
23.7928398017
  0
LINE
  5
2AE
100
AcDbEntity
  8
0
100
AcDbLine
 62
7
  6
CONTINUOUS
 10
-3.6352415326
 20
23.7928398017
 11
-3.6785477516
 21
23.7462613776
  0
LINE
  5
2AF
100
AcDbEntity
  8
ASSI
100
AcDbLine
 62
7
  6
CONTINUOUS
 10
-3.6702103482
 20
23.7551170169
 11
-3.7762707419
 21
23.6422929427
  0
LINE
  5
2B0
100
AcDbEntity
  8
ASSI
100
AcDbLine
 62
7
  6
CONTINUOUS
 10
-3.9057451781
 20
23.5065858816
 11
-3.9530427099
 21
23.4563578147
  0
LINE
  5
2B1
100
AcDbEntity
  8
0
100
AcDbLine
 62
7
  6
CONTINUOUS
 10
-3.6785477516
 20
23.7462613776
 11
-3.7468256444
 21
23.6735716346
  0
LINE
  5
2B2
100
AcDbEntity
  8
0
100
AcDbLine
 62
7
  6
CONTINUOUS
 10
-3.7468256444
 20
23.6735716346
 11
-3.9530427099
 21
23.4563578147
  0
LINE
  5
2B3
100
AcDbEntity
  8
ASSI
100
AcDbLine
 62
7
  6
CONTINUOUS
 10
-3.7762707419
 20
23.6422929427
 11
-3.9057451781
 21
23.5065858816
  0
LINE
  5
2B4
100
AcDbEntity
  8
ASSI
100
AcDbLine
 62
7
  6
CONTINUOUS
 10
-7.9906527792
 20
18.4754175763
 11
-8.9906527792
 21
17.4754175763
  0
LINE
  5
2B5
100
AcDbEntity
  8
0
100
AcDbLine
 62
7
  6
CONTINUOUS
 10
-7.9906527792
 20
18.4754175763
 11
-8.9906527792
 21
17.4754175763
  0
LINE
  5
2B6
100
AcDbEntity
  8
ASSI
100
AcDbLine
 62
7
  6
CONTINUOUS
 10
7.3983122001
 20
24.4783866972
 11
7.3749968634
 21
24.4665069813
  0
LINE
  5
2B7
100
AcDbEntity
  8
ASSI
100
AcDbLine
 62
7
  6
CONTINUOUS
 10
-9.5553984776
 20
-19.4260209733
 11
-7.2783549033
 21
-19.4260209733
  0
LINE
  5
2B8
100
AcDbEntity
  8
0
100
AcDbLine
 62
7
  6
CONTINUOUS
 10
-9.5553984776
 20
-19.4260209733
 11
-7.2783549033
 21
-19.4260209733
  0
LINE
  5
2B9
100
AcDbEntity
  8
ASSI
100
AcDbLine
 62
7
  6
CONTINUOUS
 10
-6.5216450967
 20
-19.4260209733
 11
-4.5612601473
 21
-19.4260209733
  0
LINE
  5
2BA
100
AcDbEntity
  8
0
100
AcDbLine
 62
7
  6
CONTINUOUS
 10
-6.5216450967
 20
-19.4260209733
 11
-4.5612601473
 21
-19.4260209733
  0
LINE
  5
2BB
100
AcDbEntity
  8
ASSI
100
AcDbLine
 62
7
  6
CONTINUOUS
 10
4.5612601473
 20
-19.4260209733
 11
6.5216450967
 21
-19.4260209733
  0
LINE
  5
2BC
100
AcDbEntity
  8
0
100
AcDbLine
 62
7
  6
CONTINUOUS
 10
4.5612601473
 20
-19.4260209733
 11
6.5216450967
 21
-19.4260209733
  0
LINE
  5
2BD
100
AcDbEntity
  8
ASSI
100
AcDbLine
 62
7
  6
CONTINUOUS
 10
7.2783549033
 20
-19.4260209733
 11
9.5553984776
 21
-19.4260209733
  0
LINE
  5
2BE
100
AcDbEntity
  8
0
100
AcDbLine
 62
7
  6
CONTINUOUS
 10
7.2783549033
 20
-19.4260209733
 11
9.5553984776
 21
-19.4260209733
  0
LINE
  5
2BF
100
AcDbEntity
  8
ASSI
100
AcDbLine
 62
253
  6
CONTINUOUS
 10
-4.5
 20
-17.7956556053
 11
4.5
 21
-17.7956556053
  0
LINE
  5
2C0
100
AcDbEntity
  8
RACCORDO
100
AcDbLine
 62
253
  6
CONTINUOUS
 10
-4.5
 20
-17.7956556053
 11
4.5
 21
-17.7956556053
  0
LWPOLYLINE
  5
2C1
100
AcDbEntity
  8
0
100
AcDbPolyline
 62
7
  6
CONTINUOUS
 90
8
 70
0
 10
7.3854408124
 20
-24.4722097688
 10
7.3961435537
 20
-24.4774087722
 10
7.4070815507
 20
-24.4820926258
 10
7.4182300262
 20
-24.4862507213
 10
7.429563721
 20
-24.4898736417
 10
7.4410569612
 20
-24.4929531817
 10
7.4526837125
 20
-24.4954823677
 10
7.4644176339
 20
-24.4974554741
  0
LINE
  5
2C2
100
AcDbEntity
  8
ASSI
100
AcDbLine
 62
7
  6
CONTINUOUS
 10
-3.9057454029
 20
-23.5065856354
 11
-3.7762716222
 21
-23.6422920173
  0
LINE
  5
2C3
100
AcDbEntity
  8
0
100
AcDbLine
 62
7
  6
CONTINUOUS
 10
-3.9530427099
 20
-23.4563578147
 11
-3.7287786016
 21
-23.6927296758
  0
LINE
  5
2C4
100
AcDbEntity
  8
ASSI
100
AcDbLine
 62
7
  6
CONTINUOUS
 10
-3.9530427099
 20
-23.4563578147
 11
-3.9057454029
 21
-23.5065856354
  0
LINE
  5
2C5
100
AcDbEntity
  8
ASSI
100
AcDbLine
 62
7
  6
CONTINUOUS
 10
-3.7762716222
 20
-23.6422920173
 11
-3.6702116442
 21
-23.7551156284
  0
LINE
  5
2C6
100
AcDbEntity
  8
0
100
AcDbLine
 62
7
  6
CONTINUOUS
 10
-3.7287786016
 20
-23.6927296758
 11
-3.6634012529
 21
-23.7625004187
  0
LINE
  5
2C7
100
AcDbEntity
  8
0
100
AcDbLine
 62
7
  6
CONTINUOUS
 10
-3.6634012529
 20
-23.7625004187
 11
-3.6223310799
 21
-23.8068399095
  0
LWPOLYLINE
  5
2C8
100
AcDbEntity
  8
ASSI
100
AcDbPolyline
 62
7
  6
CONTINUOUS
 90
11
 70
0
 10
-3.6702116442
 20
-23.7551156284
 10
-3.6130840289
 20
-23.8169068944
 10
-3.5887370576
 20
-23.8435547768
 10
-3.5673487443
 20
-23.8673853206
 10
-3.5489776341
 20
-23.8882998554
 10
-3.5336243917
 20
-23.9061990317
 10
-3.5212460404
 20
-23.921182199
 10
-3.511783871
 20
-23.933448736
 10
-3.5051577005
 20
-23.9430651023
 10
-3.5012683371
 20
-23.9499648383
 10
-3.5
 20
-23.9541479441
  0
LINE
  5
2C9
100
AcDbEntity
  8
0
100
AcDbLine
 62
7
  6
CONTINUOUS
 10
-3.6223310799
 20
-23.8068399095
 11
-3.5986153879
 21
-23.8327364985
  0
LWPOLYLINE
  5
2CA
100
AcDbEntity
  8
0
100
AcDbPolyline
 62
7
  6
CONTINUOUS
 90
19
 70
0
 10
-3.5986153879
 20
-23.8327364985
 10
-3.5777643319
 20
-23.8557917282
 10
-3.5683897134
 20
-23.866263184
 10
-3.5596912751
 20
-23.8760759598
 10
-3.5516601156
 20
-23.8852262698
 10
-3.5442809828
 20
-23.8937178999
 10
-3.5375266353
 20
-23.9016057711
 10
-3.531391945
 20
-23.9088857743
 10
-3.5258562029
 20
-23.9155620187
 10
-3.5208791564
 20
-23.9217017524
 10
-3.5164520289
 20
-23.9273154781
 10
-3.5125715759
 20
-23.9323926932
 10
-3.5092189496
 20
-23.9369691379
 10
-3.5063899475
 20
-23.9410506206
 10
-3.5040836748
 20
-23.9446313329
 10
-3.5022935831
 20
-23.9477295899
 10
-3.5010173271
 20
-23.9503514966
 10
-3.5002537732
 20
-23.952490948
 10
-3.5
 20
-23.9541479441
  0
LINE
  5
2CB
100
AcDbEntity
  8
ASSI
100
AcDbLine
 62
7
  6
CONTINUOUS
 10
-10.1377642763
 20
-24.3272582821
 11
-10.1283866972
 21
-24.3516877999
  0
LWPOLYLINE
  5
2CC
100
AcDbEntity
  8
ASSI
100
AcDbPolyline
 62
7
  6
CONTINUOUS
 90
4
 70
0
 10
-10.1377642763
 20
24.3272582821
 10
-10.1445369567
 20
24.3019821969
 10
-10.1486304926
 20
24.2761364629
 10
-10.15
 20
24.2500042308
  0
LINE
  5
2CD
100
AcDbEntity
  8
ASSI
100
AcDbLine
 62
7
  6
CONTINUOUS
 10
-6.3516319481
 20
16.4183680519
 11
-6.5
 21
16.27
  0
LINE
  5
2CE
100
AcDbEntity
  8
0
100
AcDbLine
 62
7
  6
CONTINUOUS
 10
-6.3516319481
 20
16.4183680519
 11
-6.5
 21
16.27
  0
LWPOLYLINE
  5
2CF
100
AcDbEntity
  8
0
100
AcDbPolyline
 62
7
  6
CONTINUOUS
 90
4
 70
0
 10
7.3648374941
 20
24.4603145581
 10
7.3549835949
 20
24.4536452955
 10
7.3454581962
 20
24.4465147107
 10
7.3362828809
 20
24.4389389589
  0
LWPOLYLINE
  5
2D0
100
AcDbEntity
  8
ASSI
100
AcDbPolyline
 62
7
  6
CONTINUOUS
 90
7
 70
0
 10
7.3749968634
 20
24.4665069813
 10
7.3530510932
 20
24.4522552626
 10
7.3327153179
 20
24.4357876883
 10
7.3142123117
 20
24.4172846821
 10
7.2977447374
 20
24.3969489068
 10
7.2834930187
 20
24.3750031366
 10
7.2716133028
 20
24.3516877999
  0
LINE
  5
2D1
100
AcDbEntity
  8
ASSI
100
AcDbLine
 62
7
  6
CONTINUOUS
 10
-4.5043253562
 20
-17.2956746438
 11
4.5043253562
 21
-17.2956746438
  0
LINE
  5
2D2
100
AcDbEntity
  8
RACCORDO
100
AcDbLine
 62
7
  6
CONTINUOUS
 10
-4.5043253562
 20
-17.2956746438
 11
4.5043253562
 21
-17.2956746438
  0
LINE
  5
2D3
100
AcDbEntity
  8
ASSI
100
AcDbLine
 62
7
  6
CONTINUOUS
 10
4.563606387
 20
-17.236393613
 11
-4.563606387
 21
-17.236393613
  0
LINE
  5
2D4
100
AcDbEntity
  8
DRAFT
100
AcDbLine
 62
7
  6
CONTINUOUS
 10
4.563606387
 20
-17.236393613
 11
-4.563606387
 21
-17.236393613
  0
LINE
  5
2D5
100
AcDbEntity
  8
ASSI
100
AcDbLine
 62
7
  6
CONTINUOUS
 10
-3.9700513793
 20
-16.8647171262
 11
3.9700513793
 21
-16.8647171262
  0
LINE
  5
2D6
100
AcDbEntity
  8
DRAFT
100
AcDbLine
 62
7
  6
CONTINUOUS
 10
-3.9700513793
 20
-16.8647171262
 11
3.9700513793
 21
-16.8647171262
  0
LINE
  5
2D7
100
AcDbEntity
  8
ASSI
100
AcDbLine
 62
7
  6
CONTINUOUS
 10
-9.5498994568
 20
-16.8602367608
 11
-8.0300456216
 21
-16.8602367608
  0
LINE
  5
2D8
100
AcDbEntity
  8
DRAFT
100
AcDbLine
 62
7
  6
CONTINUOUS
 10
-9.5498994568
 20
-16.8602367608
 11
-8.0300456216
 21
-16.8602367608
  0
LINE
  5
2D9
100
AcDbEntity
  8
ASSI
100
AcDbLine
 62
7
  6
CONTINUOUS
 10
9.5494593275
 20
-16.6548771492
 11
8.0344917046
 21
-16.6548771492
  0
LINE
  5
2DA
100
AcDbEntity
  8
DRAFT
100
AcDbLine
 62
7
  6
CONTINUOUS
 10
9.5494593275
 20
-16.6548771492
 11
8.0344917046
 21
-16.6548771492
  0
LINE
  5
2DB
100
AcDbEntity
  8
ASSI
100
AcDbLine
 62
7
  6
CONTINUOUS
 10
-3.7693983204
 20
-16.6228362517
 11
3.7693983204
 21
-16.6228362517
  0
LINE
  5
2DC
100
AcDbEntity
  8
DRAFT
100
AcDbLine
 62
7
  6
CONTINUOUS
 10
-3.7693983204
 20
-16.6228362517
 11
3.7693983204
 21
-16.6228362517
  0
LINE
  5
2DD
100
AcDbEntity
  8
ASSI
100
AcDbLine
 62
7
  6
CONTINUOUS
 10
-9.4820686967
 20
-16.6183558863
 11
-8.2306986805
 21
-16.6183558863
  0
LINE
  5
2DE
100
AcDbEntity
  8
DRAFT
100
AcDbLine
 62
7
  6
CONTINUOUS
 10
-9.4820686967
 20
-16.6183558863
 11
-8.2306986805
 21
-16.6183558863
  0
LINE
  5
2DF
100
AcDbEntity
  8
ASSI
100
AcDbLine
 62
7
  6
CONTINUOUS
 10
9.482508826
 20
-16.4129962748
 11
8.2351447635
 21
-16.4129962748
  0
LINE
  5
2E0
100
AcDbEntity
  8
DRAFT
100
AcDbLine
 62
7
  6
CONTINUOUS
 10
9.482508826
 20
-16.4129962748
 11
8.2351447635
 21
-16.4129962748
  0
LINE
  5
2E1
100
AcDbEntity
  8
ASSI
100
AcDbLine
 62
7
  6
CONTINUOUS
 10
-9.5
 20
-16.4
 11
-9.5121049871
 21
-16.4
  0
LINE
  5
2E2
100
AcDbEntity
  8
DRAFT
100
AcDbLine
 62
7
  6
CONTINUOUS
 10
-9.5
 20
-16.4
 11
-9.5121049871
 21
-16.4
  0
LINE
  5
2E3
100
AcDbEntity
  8
ASSI
100
AcDbLine
 62
7
  6
CONTINUOUS
 10
9.5
 20
-16.2
 11
9.5121049871
 21
-16.2
  0
LINE
  5
2E4
100
AcDbEntity
  8
DRAFT
100
AcDbLine
 62
7
  6
CONTINUOUS
 10
9.5
 20
-16.2
 11
9.5121049871
 21
-16.2
  0
LWPOLYLINE
  5
2E5
100
AcDbEntity
  8
0
100
AcDbPolyline
 62
7
  6
CONTINUOUS
 90
3
 70
0
 10
7.3648374941
 20
-24.4603145581
 10
7.3749975717
 20
-24.4665073916
 10
7.3854408124
 20
-24.4722097688
  0
LINE
  5
2E6
100
AcDbEntity
  8
ASSI
100
AcDbLine
 62
7
  6
CONTINUOUS
 10
-8.2306986805
 20
-16.6183558863
 11
-8.0300456216
 21
-16.8602367608
  0
LINE
  5
2E7
100
AcDbEntity
  8
DRAFT
100
AcDbLine
 62
7
  6
CONTINUOUS
 10
-8.2306986805
 20
-16.6183558863
 11
-8.0300456216
 21
-16.8602367608
  0
LINE
  5
2E8
100
AcDbEntity
  8
ASSI
100
AcDbLine
 62
7
  6
CONTINUOUS
 10
-10.1445369567
 20
-24.3019821969
 11
-10.1377642763
 21
-24.3272582821
  0
LWPOLYLINE
  5
2E9
100
AcDbEntity
  8
0
100
AcDbPolyline
 62
7
  6
CONTINUOUS
 90
24
 70
0
 10
-10.1385775126
 20
-24.3045780153
 10
-10.135496794
 20
-24.3160725264
 10
-10.1318725768
 20
-24.3274074189
 10
-10.1277130725
 20
-24.3385570152
 10
-10.1230277082
 20
-24.3494960488
 10
-10.1178271006
 20
-24.3601997352
 10
-10.1121230353
 20
-24.3706438204
 10
-10.105928443
 20
-24.3808046326
 10
-10.0992573629
 20
-24.3906591487
 10
-10.0921249119
 20
-24.4001850429
 10
-10.0845472554
 20
-24.4093607299
 10
-10.0765415612
 20
-24.4181654255
 10
-10.068125975
 20
-24.4265791771
 10
-10.0593195834
 20
-24.4345829086
 10
-10.0501423702
 20
-24.4421584695
 10
-10.0406151087
 20
-24.4492887229
 10
-10.030759324
 20
-24.4559575601
 10
-10.0205972484
 20
-24.4621499225
 10
-10.0101519949
 20
-24.467851711
 10
-9.9994474601
 20
-24.4730498963
 10
-9.988508059
 20
-24.4777326699
 10
-9.977358447
 20
-24.4818895243
 10
-9.9660236819
 20
-24.4855111341
 10
-9.9545277163
 20
-24.4885897127
  0
LWPOLYLINE
  5
2EA
100
AcDbEntity
  8
ASSI
100
AcDbPolyline
 62
7
  6
CONTINUOUS
 90
13
 70
0
 10
-10.1401620956
 20
-24.2976155726
 10
-10.1333869849
 20
-24.3228942697
 10
-10.1240063557
 20
-24.3473262874
 10
-10.1121230179
 20
-24.3706438507
 10
-10.0978672544
 20
-24.3925913542
 10
-10.0813952999
 20
-24.4129283166
 10
-10.062887702
 20
-24.4314318691
 10
-10.0425474347
 20
-24.447899163
 10
-10.0205960432
 20
-24.4621506181
 10
-9.9972753535
 20
-24.474029031
 10
-9.9728457634
 20
-24.4834027437
 10
-9.9475771282
 20
-24.4901702663
 10
-9.9225124747
 20
-24.4941779536
  0
LINE
  5
2EB
100
AcDbEntity
  8
ASSI
100
AcDbLine
 62
7
  6
CONTINUOUS
 10
-9.0406132198
 20
11.8038881317
 11
-9.05
 21
11.8
  0
LINE
  5
2EC
100
AcDbEntity
  8
0
100
AcDbLine
 62
7
  6
CONTINUOUS
 10
-9.0406132198
 20
11.8038881317
 11
-9.05
 21
11.8
  0
LINE
  5
2ED
100
AcDbEntity
  8
ASSI
100
AcDbLine
 62
7
  6
CONTINUOUS
 10
8.3863109523
 20
-14.7112543736
 11
8.2291616842
 21
-14.726810987
  0
LINE
  5
2EE
100
AcDbEntity
  8
RACCORDO
100
AcDbLine
 62
7
  6
CONTINUOUS
 10
8.3863109523
 20
-14.7112543736
 11
8.2291616842
 21
-14.726810987
  0
LINE
  5
2EF
100
AcDbEntity
  8
ASSI
100
AcDbLine
 62
7
  6
CONTINUOUS
 10
-3.6136890477
 20
-14.7112543736
 11
-3.7708383158
 21
-14.726810987
  0
LINE
  5
2F0
100
AcDbEntity
  8
RACCORDO
100
AcDbLine
 62
7
  6
CONTINUOUS
 10
-3.6136890477
 20
-14.7112543736
 11
-3.7708383158
 21
-14.726810987
  0
LINE
  5
2F1
100
AcDbEntity
  8
ASSI
100
AcDbLine
 62
7
  6
CONTINUOUS
 10
8.2547430141
 20
-15.507774954
 11
8.4118365096
 21
-15.5
  0
LINE
  5
2F2
100
AcDbEntity
  8
DRAFT
100
AcDbLine
 62
7
  6
CONTINUOUS
 10
8.2547430141
 20
-15.507774954
 11
8.4118365096
 21
-15.5
  0
LINE
  5
2F3
100
AcDbEntity
  8
DRAFT
100
AcDbLine
 62
7
  6
CONTINUOUS
 10
-3.7452569859
 20
-15.507774954
 11
-3.5496310858
 21
-15.4980929339
  0
LINE
  5
2F4
100
AcDbEntity
  8
ASSI
100
AcDbLine
 62
253
  6
CONTINUOUS
 10
8.0572263482
 20
-15.6047893388
 11
3.9427736518
 21
-15.6047893388
  0
LINE
  5
2F5
100
AcDbEntity
  8
RACCORDO
100
AcDbLine
 62
253
  6
CONTINUOUS
 10
8.0572263482
 20
-15.6047893388
 11
3.9427736518
 21
-15.6047893388
  0
LINE
  5
2F6
100
AcDbEntity
  8
ASSI
100
AcDbLine
 62
253
  6
CONTINUOUS
 10
-3.9427736518
 20
-15.6047893388
 11
-8.0572263482
 21
-15.6047893388
  0
LINE
  5
2F7
100
AcDbEntity
  8
RACCORDO
100
AcDbLine
 62
253
  6
CONTINUOUS
 10
-3.9427736518
 20
-15.6047893388
 11
-8.0572263482
 21
-15.6047893388
  0
LINE
  5
2F8
100
AcDbEntity
  8
RACCORDO
100
AcDbLine
 62
7
  6
CONTINUOUS
 10
9.15
 20
-15.6
 11
8.2527463206
 21
-15.6
  0
LINE
  5
2F9
100
AcDbEntity
  8
RACCORDO
100
AcDbLine
 62
7
  6
CONTINUOUS
 10
3.7472536794
 20
-15.6
 11
3.4
 21
-15.6
  0
LINE
  5
2FA
100
AcDbEntity
  8
RACCORDO
100
AcDbLine
 62
7
  6
CONTINUOUS
 10
-3.4
 20
-15.6
 11
-3.7472536794
 21
-15.6
  0
LINE
  5
2FB
100
AcDbEntity
  8
RACCORDO
100
AcDbLine
 62
7
  6
CONTINUOUS
 10
-8.2527463206
 20
-15.6
 11
-9.15
 21
-15.6
  0
LINE
  5
2FC
100
AcDbEntity
  8
RACCORDO
100
AcDbLine
 62
7
  6
CONTINUOUS
 10
-8.9376764876
 20
-15.5061612855
 11
-8.2873473005
 21
-15.5061612855
  0
LINE
  5
2FD
100
AcDbEntity
  8
RACCORDO
100
AcDbLine
 62
7
  6
CONTINUOUS
 10
-3.7126526995
 20
-15.5061612855
 11
-3.4
 21
-15.5061612855
  0
LINE
  5
2FE
100
AcDbEntity
  8
RACCORDO
100
AcDbLine
 62
7
  6
CONTINUOUS
 10
3.4
 20
-15.5061612855
 11
3.7126526995
 21
-15.5061612855
  0
LINE
  5
2FF
100
AcDbEntity
  8
RACCORDO
100
AcDbLine
 62
7
  6
CONTINUOUS
 10
8.2873473005
 20
-15.5061612855
 11
8.9376764876
 21
-15.5061612855
  0
LINE
  5
300
100
AcDbEntity
  8
ASSI
100
AcDbLine
 62
7
  6
CONTINUOUS
 10
-8.9999999971
 20
-15.5
 11
-8.4118365096
 21
-15.5
  0
LINE
  5
301
100
AcDbEntity
  8
RACCORDO
100
AcDbLine
 62
7
  6
CONTINUOUS
 10
-8.9999999971
 20
-15.5
 11
-8.4118365096
 21
-15.5
  0
LINE
  5
302
100
AcDbEntity
  8
ASSI
100
AcDbLine
 62
7
  6
CONTINUOUS
 10
8.9999999971
 20
-15.5
 11
8.4118365096
 21
-15.5
  0
LINE
  5
303
100
AcDbEntity
  8
RACCORDO
100
AcDbLine
 62
7
  6
CONTINUOUS
 10
8.9999999971
 20
-15.5
 11
8.4118365096
 21
-15.5
  0
LINE
  5
304
100
AcDbEntity
  8
RACCORDO
100
AcDbLine
 62
7
  6
CONTINUOUS
 10
-3.5496310858
 20
-15.5
 11
-3.4
 21
-15.5
  0
LINE
  5
305
100
AcDbEntity
  8
RACCORDO
100
AcDbLine
 62
7
  6
CONTINUOUS
 10
3.4
 20
-15.5
 11
3.5496310858
 21
-15.5
  0
LINE
  5
306
100
AcDbEntity
  8
ASSI
100
AcDbLine
 62
7
  6
CONTINUOUS
 10
-3.5496310858
 20
-15.4980929339
 11
-3.4
 21
-15.4980929339
  0
LINE
  5
307
100
AcDbEntity
  8
DRAFT
100
AcDbLine
 62
7
  6
CONTINUOUS
 10
-3.5496310858
 20
-15.4980929339
 11
-3.4
 21
-15.4980929339
  0
LINE
  5
308
100
AcDbEntity
  8
ASSI
100
AcDbLine
 62
7
  6
CONTINUOUS
 10
3.4
 20
-15.4980929339
 11
3.5496310858
 21
-15.4980929339
  0
LINE
  5
309
100
AcDbEntity
  8
DRAFT
100
AcDbLine
 62
7
  6
CONTINUOUS
 10
3.4
 20
-15.4980929339
 11
3.5496310858
 21
-15.4980929339
  0
LINE
  5
30A
100
AcDbEntity
  8
ASSI
100
AcDbLine
 62
7
  6
CONTINUOUS
 10
3.5388472587
 20
-15.0
 11
3.4
 21
-15.0
  0
LINE
  5
30B
100
AcDbEntity
  8
DRAFT
100
AcDbLine
 62
7
  6
CONTINUOUS
 10
3.5388472587
 20
-15.0
 11
3.4
 21
-15.0
  0
LINE
  5
30C
100
AcDbEntity
  8
ASSI
100
AcDbLine
 62
7
  6
CONTINUOUS
 10
-3.4
 20
-15.0
 11
-3.5388472587
 21
-15.0
  0
LINE
  5
30D
100
AcDbEntity
  8
DRAFT
100
AcDbLine
 62
7
  6
CONTINUOUS
 10
-3.4
 20
-15.0
 11
-3.5388472587
 21
-15.0
  0
LINE
  5
30E
100
AcDbEntity
  8
ASSI
100
AcDbLine
 62
7
  6
CONTINUOUS
 10
3.5
 20
-14.7796862477
 11
3.4
 21
-14.7796862477
  0
LINE
  5
30F
100
AcDbEntity
  8
DRAFT
100
AcDbLine
 62
7
  6
CONTINUOUS
 10
3.5
 20
-14.7796862477
 11
3.4
 21
-14.7796862477
  0
LINE
  5
310
100
AcDbEntity
  8
ASSI
100
AcDbLine
 62
7
  6
CONTINUOUS
 10
-3.4
 20
-14.7796862477
 11
-3.5
 21
-14.7796862477
  0
LINE
  5
311
100
AcDbEntity
  8
DRAFT
100
AcDbLine
 62
7
  6
CONTINUOUS
 10
-3.4
 20
-14.7796862477
 11
-3.5
 21
-14.7796862477
  0
LINE
  5
312
100
AcDbEntity
  8
ASSI
100
AcDbLine
 62
253
  6
CONTINUOUS
 10
8.2291616842
 20
-14.726810987
 11
3.7708383158
 21
-14.726810987
  0
LINE
  5
313
100
AcDbEntity
  8
RACCORDO
100
AcDbLine
 62
253
  6
CONTINUOUS
 10
8.2291616842
 20
-14.726810987
 11
3.7708383158
 21
-14.726810987
  0
LINE
  5
314
100
AcDbEntity
  8
ASSI
100
AcDbLine
 62
253
  6
CONTINUOUS
 10
-3.7708383158
 20
-14.726810987
 11
-8.2291616842
 21
-14.726810987
  0
LINE
  5
315
100
AcDbEntity
  8
RACCORDO
100
AcDbLine
 62
253
  6
CONTINUOUS
 10
-3.7708383158
 20
-14.726810987
 11
-8.2291616842
 21
-14.726810987
  0
LINE
  5
316
100
AcDbEntity
  8
ASSI
100
AcDbLine
 62
7
  6
CONTINUOUS
 10
-8.3863109523
 20
-14.7112543736
 11
-3.6136890477
 21
-14.7112543736
  0
LINE
  5
317
100
AcDbEntity
  8
DRAFT
100
AcDbLine
 62
7
  6
CONTINUOUS
 10
-8.3863109523
 20
-14.7112543736
 11
-3.6136890477
 21
-14.7112543736
  0
LINE
  5
318
100
AcDbEntity
  8
ASSI
100
AcDbLine
 62
7
  6
CONTINUOUS
 10
3.6136890477
 20
-14.7112543736
 11
8.3863109523
 21
-14.7112543736
  0
LINE
  5
319
100
AcDbEntity
  8
DRAFT
100
AcDbLine
 62
7
  6
CONTINUOUS
 10
3.6136890477
 20
-14.7112543736
 11
8.3863109523
 21
-14.7112543736
  0
LINE
  5
31A
100
AcDbEntity
  8
ASSI
100
AcDbLine
 62
7
  6
CONTINUOUS
 10
-8.2547430141
 20
-15.507774954
 11
-8.4118365096
 21
-15.5
  0
LINE
  5
31B
100
AcDbEntity
  8
DRAFT
100
AcDbLine
 62
7
  6
CONTINUOUS
 10
-8.2547430141
 20
-15.507774954
 11
-8.4118365096
 21
-15.5
  0
LINE
  5
31C
100
AcDbEntity
  8
DRAFT
100
AcDbLine
 62
7
  6
CONTINUOUS
 10
3.7452569859
 20
-15.507774954
 11
3.5496310858
 21
-15.4980929339
  0
LINE
  5
31D
100
AcDbEntity
  8
ASSI
100
AcDbLine
 62
7
  6
CONTINUOUS
 10
-8.3863109523
 20
-14.7112543736
 11
-8.2291616842
 21
-14.726810987
  0
LINE
  5
31E
100
AcDbEntity
  8
RACCORDO
100
AcDbLine
 62
7
  6
CONTINUOUS
 10
-8.3863109523
 20
-14.7112543736
 11
-8.2291616842
 21
-14.726810987
  0
LINE
  5
31F
100
AcDbEntity
  8
ASSI
100
AcDbLine
 62
7
  6
CONTINUOUS
 10
3.6136890477
 20
-14.7112543736
 11
3.7708383158
 21
-14.726810987
  0
LINE
  5
320
100
AcDbEntity
  8
RACCORDO
100
AcDbLine
 62
7
  6
CONTINUOUS
 10
3.6136890477
 20
-14.7112543736
 11
3.7708383158
 21
-14.726810987
  0
LINE
  5
321
100
AcDbEntity
  8
ASSI
100
AcDbLine
 62
7
  6
CONTINUOUS
 10
-4.5043253562
 20
-17.2956746438
 11
-4.563606387
 21
-17.236393613
  0
LINE
  5
322
100
AcDbEntity
  8
RACCORDO
100
AcDbLine
 62
7
  6
CONTINUOUS
 10
-4.5043253562
 20
-17.2956746438
 11
-4.563606387
 21
-17.236393613
  0
LWPOLYLINE
  5
323
100
AcDbEntity
  8
0
100
AcDbPolyline
 62
7
  6
CONTINUOUS
 90
7
 70
0
 10
-10.1454823677
 20
-24.2973162875
 10
-10.1429531817
 20
-24.3089430388
 10
-10.1398736417
 20
-24.320436279
 10
-10.1362507213
 20
-24.3317699738
 10
-10.1320926258
 20
-24.3429184493
 10
-10.1274087722
 20
-24.3538564463
 10
-10.1222097688
 20
-24.3645591876
  0
LWPOLYLINE
  5
324
100
AcDbEntity
  8
0
100
AcDbPolyline
 62
7
  6
CONTINUOUS
 90
4
 70
0
 10
-10.1474554741
 20
24.2855823661
 10
-10.1488680342
 20
24.2737678556
 10
-10.1497168498
 20
24.261899516
 10
-10.15
 20
24.2500042308
  0
LWPOLYLINE
  5
325
100
AcDbEntity
  8
0
100
AcDbPolyline
 62
7
  6
CONTINUOUS
 90
4
 70
0
 10
-10.1430817682
 20
24.2812146563
 10
-10.144495097
 20
24.269398774
 10
-10.1453445371
 20
24.2575290557
 10
-10.145628166
 20
24.2456323968
  0
LINE
  5
326
100
AcDbEntity
  8
ASSI
100
AcDbLine
 62
7
  6
CONTINUOUS
 10
-8.0361335915
 20
20.5276115984
 11
-7.9906527792
 21
20.6641649932
  0
LINE
  5
327
100
AcDbEntity
  8
0
100
AcDbLine
 62
7
  6
CONTINUOUS
 10
-8.0361335915
 20
20.5276115984
 11
-7.9906527792
 21
20.6641649932
  0
LINE
  5
328
100
AcDbEntity
  8
ASSI
100
AcDbLine
 62
253
  6
CONTINUOUS
 10
-7.2703286495
 20
16.7700000029
 11
-7.1961502733
 21
16.9183680548
  0
LINE
  5
329
100
AcDbEntity
  8
0
100
AcDbLine
 62
253
  6
CONTINUOUS
 10
-7.2703286495
 20
16.7700000029
 11
-7.1961502733
 21
16.9183680548
  0
LINE
  5
32A
100
AcDbEntity
  8
ASSI
100
AcDbLine
 62
7
  6
CONTINUOUS
 10
-6.5200097822
 20
17.4770432671
 11
-6.6038497267
 21
17.309350607
  0
LINE
  5
32B
100
AcDbEntity
  8
0
100
AcDbLine
 62
7
  6
CONTINUOUS
 10
-6.5200097822
 20
17.4770432671
 11
-6.6038497267
 21
17.309350607
  0
LINE
  5
32C
100
AcDbEntity
  8
ASSI
100
AcDbLine
 62
253
  6
CONTINUOUS
 10
-6.7703857627
 20
16.27
 11
-6.6962073865
 21
16.4183680519
  0
LINE
  5
32D
100
AcDbEntity
  8
0
100
AcDbLine
 62
253
  6
CONTINUOUS
 10
-6.7703857627
 20
16.27
 11
-6.6962073865
 21
16.4183680519
  0
LWPOLYLINE
  5
32E
100
AcDbEntity
  8
ASSI
100
AcDbPolyline
 62
253
  6
CONTINUOUS
 90
13
 70
0
 10
-7.9259146609
 20
10.8762666672
 10
-7.9176400561
 20
10.8897321921
 10
-7.908935018
 20
10.9024190495
 10
-7.8997985919
 20
10.9143063617
 10
-7.8902046783
 20
10.9254838825
 10
-7.8801837138
 20
10.9358162618
 10
-7.869827257
 20
10.9449501977
 10
-7.8591388864
 20
10.9528274312
 10
-7.8481427059
 20
10.9594716526
 10
-7.8369715997
 20
10.9646677651
 10
-7.825685973
 20
10.9683431849
 10
-7.814270079
 20
10.9705578717
 10
-7.802747319
 20
10.9713053015
  0
LWPOLYLINE
  5
32F
100
AcDbEntity
  8
0
100
AcDbPolyline
 62
253
  6
CONTINUOUS
 90
10
 70
0
 10
-7.9259146609
 20
10.8762666672
 10
-7.9134625652
 20
10.895937571
 10
-7.9005809146
 20
10.9133967695
 10
-7.8873096654
 20
10.9286284681
 10
-7.8736627955
 20
10.9416679667
 10
-7.8597109177
 20
10.9524502239
 10
-7.8455855849
 20
10.9608194475
 10
-7.8313650324
 20
10.9667269726
 10
-7.8170695851
 20
10.9702217171
 10
-7.802747319
 20
10.9713053015
  0
LINE
  5
330
100
AcDbEntity
  8
0
100
AcDbLine
 62
7
  6
CONTINUOUS
 10
4.3367650827
 20
23.8652192852
 11
4.3172932688
 21
23.8435611733
  0
LINE
  5
331
100
AcDbEntity
  8
0
100
AcDbLine
 62
7
  6
CONTINUOUS
 10
4.3172932688
 20
23.8435611733
 11
4.2950055971
 21
23.8190929256
  0
LWPOLYLINE
  5
332
100
AcDbEntity
  8
ASSI
100
AcDbPolyline
 62
253
  6
CONTINUOUS
 90
16
 70
0
 10
-8.05
 20
10.9997313407
 10
-8.0782183641
 20
10.9690551575
 10
-8.1049644992
 20
10.9354876954
 10
-8.1302384052
 20
10.8990289545
 10
-8.1541137318
 20
10.8595856009
 10
-8.1765168293
 20
10.8172509685
 10
-8.1972267494
 20
10.7723050586
 10
-8.2162594542
 20
10.7247937705
 10
-8.2335989815
 20
10.6746712049
 10
-8.2489764963
 20
10.6220796658
 10
-8.2624440317
 20
10.5670490872
 10
-8.2739495547
 20
10.5095495351
 10
-8.2830681312
 20
10.449633511
 10
-8.2896581165
 20
10.3873185154
 10
-8.2938611553
 20
10.3225870479
 10
-8.295127696
 20
10.2757581504
  0
LWPOLYLINE
  5
333
100
AcDbEntity
  8
ASSI
100
AcDbPolyline
 62
7
  6
CONTINUOUS
 90
3
 70
0
 10
4.3163774735
 20
23.8424834177
 10
4.2648568781
 20
23.7863715185
 10
4.2349420836
 20
23.7541178648
  0
LINE
  5
334
100
AcDbEntity
  8
0
100
AcDbLine
 62
7
  6
CONTINUOUS
 10
4.2950055971
 20
23.8190929256
 11
4.2698484485
 21
23.7917631973
  0
LWPOLYLINE
  5
335
100
AcDbEntity
  8
0
100
AcDbPolyline
 62
253
  6
CONTINUOUS
 90
19
 70
0
 10
-8.05
 20
10.9997313407
 10
-8.0739828244
 20
10.9738677564
 10
-8.09682637
 20
10.9461437564
 10
-8.118530637
 20
10.9165593408
 10
-8.1390896159
 20
10.885097062
 10
-8.158509316
 20
10.8517743675
 10
-8.176807766
 20
10.8166436
 10
-8.1940255295
 20
10.7797077479
 10
-8.210122043
 20
10.7409638227
 10
-8.2249936442
 20
10.7004552018
 10
-8.2386670473
 20
10.6582046068
 10
-8.2511155383
 20
10.614189316
 10
-8.2621553125
 20
10.5683845421
 10
-8.2718275483
 20
10.5208000992
 10
-8.2800910674
 20
10.471426173
 10
-8.2866385307
 20
10.4202085339
 10
-8.2913674921
 20
10.3671291051
 10
-8.2943803977
 20
10.3122059632
 10
-8.2952130551
 20
10.2757581504
  0
LINE
  5
336
100
AcDbEntity
  8
0
100
AcDbLine
 62
7
  6
CONTINUOUS
 10
4.2698484485
 20
23.7917631973
 11
4.2265857376
 21
23.745242936
  0
LINE
  5
337
100
AcDbEntity
  8
ASSI
100
AcDbLine
 62
7
  6
CONTINUOUS
 10
4.2349420836
 20
23.7541178648
 11
4.1291467601
 21
23.6415883965
  0
LINE
  5
338
100
AcDbEntity
  8
ASSI
100
AcDbLine
 62
7
  6
CONTINUOUS
 10
4.0001470626
 20
23.5063771109
 11
3.9530427099
 21
23.4563578147
  0
LINE
  5
339
100
AcDbEntity
  8
0
100
AcDbLine
 62
7
  6
CONTINUOUS
 10
4.2265857376
 20
23.745242936
 11
4.1584643827
 21
23.6727289374
  0
LWPOLYLINE
  5
33A
100
AcDbEntity
  8
0
100
AcDbPolyline
 62
7
  6
CONTINUOUS
 90
3
 70
0
 10
4.1584643827
 20
23.6727289374
 10
4.0172280333
 20
23.5238035528
 10
3.9530427099
 20
23.4563578147
  0
LINE
  5
33B
100
AcDbEntity
  8
ASSI
100
AcDbLine
 62
7
  6
CONTINUOUS
 10
4.1291467601
 20
23.6415883965
 11
4.0001470626
 21
23.5063771109
  0
LINE
  5
33C
100
AcDbEntity
  8
ASSI
100
AcDbLine
 62
7
  6
CONTINUOUS
 10
4.4063493531
 20
23.9563493531
 11
4.45
 21
24.0
  0
LINE
  5
33D
100
AcDbEntity
  8
0
100
AcDbLine
 62
7
  6
CONTINUOUS
 10
4.4063493531
 20
23.9563493531
 11
4.45
 21
24.0
  0
LINE
  5
33E
100
AcDbEntity
  8
ASSI
100
AcDbLine
 62
7
  6
CONTINUOUS
 10
-9.5121049871
 20
9.0
 11
-9.5540885328
 21
8.9580164543
  0
LINE
  5
33F
100
AcDbEntity
  8
0
100
AcDbLine
 62
7
  6
CONTINUOUS
 10
-9.5121049871
 20
9.0
 11
-9.5540885328
 21
8.9580164543
  0
LINE
  5
340
100
AcDbEntity
  8
ASSI
100
AcDbLine
 62
7
  6
CONTINUOUS
 10
4.45
 20
22.4
 11
4.406077753
 21
22.356077753
  0
LINE
  5
341
100
AcDbEntity
  8
0
100
AcDbLine
 62
7
  6
CONTINUOUS
 10
4.45
 20
22.4
 11
4.406077753
 21
22.356077753
  0
LWPOLYLINE
  5
342
100
AcDbEntity
  8
0
100
AcDbPolyline
 62
7
  6
CONTINUOUS
 90
7
 70
0
 10
7.3362828809
 20
24.4389389589
 10
7.3274784339
 20
24.4309352005
 10
7.3190647995
 20
24.4225215661
 10
7.3110610411
 20
24.4137171191
 10
7.3034852893
 20
24.4045418038
 10
7.2963547045
 20
24.3950164051
 10
7.2896854419
 20
24.3851625059
  0
LWPOLYLINE
  5
343
100
AcDbEntity
  8
0
100
AcDbPolyline
 62
253
  6
CONTINUOUS
 90
7
 70
0
 10
-8.0099286992
 20
11.0358873797
 10
-8.0167221528
 20
11.0303238061
 10
-8.023469645
 20
11.0245752593
 10
-8.0301711758
 20
11.0186417394
 10
-8.0368267452
 20
11.0125232463
 10
-8.0434363533
 20
11.00621978
 10
-8.05
 20
10.9997313407
  0
LWPOLYLINE
  5
344
100
AcDbEntity
  8
ASSI
100
AcDbPolyline
 62
253
  6
CONTINUOUS
 90
10
 70
0
 10
-8.0099286992
 20
11.0358873797
 10
-8.0144653609
 20
11.0321985848
 10
-8.0189810012
 20
11.0284270637
 10
-8.0234756203
 20
11.0245728164
 10
-8.0279492879
 20
11.0206350556
 10
-8.0324019342
 20
11.0166145686
 10
-8.0368333495
 20
11.0125137174
 10
-8.041243464
 20
11.0083332893
 10
-8.0456323475
 20
11.0040724971
 10
-8.05
 20
10.9997313407
  0
LINE
  5
345
100
AcDbEntity
  8
ASSI
100
AcDbLine
 62
7
  6
CONTINUOUS
 10
8.040866681
 20
18.4962168554
 11
7.9906527792
 21
18.4754175763
  0
LINE
  5
346
100
AcDbEntity
  8
0
100
AcDbLine
 62
7
  6
CONTINUOUS
 10
8.040866681
 20
18.4962168554
 11
7.9906527792
 21
18.4754175763
  0
LINE
  5
347
100
AcDbEntity
  8
ASSI
100
AcDbLine
 62
7
  6
CONTINUOUS
 10
9.65
 20
19.1450129975
 11
9.522540489
 21
19.0922175394
  0
LINE
  5
348
100
AcDbEntity
  8
0
100
AcDbLine
 62
7
  6
CONTINUOUS
 10
9.65
 20
19.1450129975
 11
9.522540489
 21
19.0922175394
  0
LINE
  5
349
100
AcDbEntity
  8
ASSI
100
AcDbLine
 62
7
  6
CONTINUOUS
 10
-10.2378950129
 20
10.4428820155
 11
-10.0985247911
 21
10.5006110515
  0
LINE
  5
34A
100
AcDbEntity
  8
0
100
AcDbLine
 62
7
  6
CONTINUOUS
 10
-10.2378950129
 20
10.4428820155
 11
-10.0985247911
 21
10.5006110515
  0
LINE
  5
34B
100
AcDbEntity
  8
ASSI
100
AcDbLine
 62
7
  6
CONTINUOUS
 10
10.2378950129
 20
18.5571179845
 11
10.1091494158
 21
18.5037898121
  0
LINE
  5
34C
100
AcDbEntity
  8
0
100
AcDbLine
 62
7
  6
CONTINUOUS
 10
10.2378950129
 20
18.5571179845
 11
10.1091494158
 21
18.5037898121
  0
LINE
  5
34D
100
AcDbEntity
  8
ASSI
100
AcDbLine
 62
7
  6
CONTINUOUS
 10
-9.5121049871
 20
9.9121049871
 11
-9.65
 21
9.8549870025
  0
LINE
  5
34E
100
AcDbEntity
  8
0
100
AcDbLine
 62
7
  6
CONTINUOUS
 10
-9.5121049871
 20
9.9121049871
 11
-9.65
 21
9.8549870025
  0
LINE
  5
34F
100
AcDbEntity
  8
ASSI
100
AcDbLine
 62
7
  6
CONTINUOUS
 10
8.9906527792
 20
17.4754175763
 11
9.0428893018
 21
17.4970546524
  0
LINE
  5
350
100
AcDbEntity
  8
0
100
AcDbLine
 62
7
  6
CONTINUOUS
 10
8.9906527792
 20
17.4754175763
 11
9.0428893018
 21
17.4970546524
  0
LWPOLYLINE
  5
351
100
AcDbEntity
  8
RACCORDO
100
AcDbPolyline
 62
7
  6
CONTINUOUS
 90
4
 70
0
 10
-9.1045001531
 20
-15.5244635294
 10
-9.0539496804
 20
-15.5109221597
 10
-9.002260961
 20
-15.5027378738
 10
-8.9998631449
 20
-15.5026122558
  0
LINE
  5
352
100
AcDbEntity
  8
ASSI
100
AcDbLine
 62
7
  6
CONTINUOUS
 10
-3.6043697006
 20
-14.0
 11
-3.323486441
 21
-14.0
  0
LINE
  5
353
100
AcDbEntity
  8
DRAFT
100
AcDbLine
 62
7
  6
CONTINUOUS
 10
-3.6043697006
 20
-14.0
 11
-3.323486441
 21
-14.0
  0
LINE
  5
354
100
AcDbEntity
  8
ASSI
100
AcDbLine
 62
7
  6
CONTINUOUS
 10
3.323486441
 20
-14.0
 11
3.6043697006
 21
-14.0
  0
LINE
  5
355
100
AcDbEntity
  8
DRAFT
100
AcDbLine
 62
7
  6
CONTINUOUS
 10
3.323486441
 20
-14.0
 11
3.6043697006
 21
-14.0
  0
LINE
  5
356
100
AcDbEntity
  8
RACCORDO
100
AcDbLine
 62
7
  6
CONTINUOUS
 10
3.1
 20
-13.9
 11
-3.1
 21
-13.9
  0
LINE
  5
357
100
AcDbEntity
  8
ASSI
100
AcDbLine
 62
7
  6
CONTINUOUS
 10
8.4118365096
 20
-12.5132676422
 11
-8.4118365096
 21
-12.5132676422
  0
LINE
  5
358
100
AcDbEntity
  8
DRAFT
100
AcDbLine
 62
7
  6
CONTINUOUS
 10
8.4118365096
 20
-12.5132676422
 11
-8.4118365096
 21
-12.5132676422
  0
LWPOLYLINE
  5
359
100
AcDbEntity
  8
RACCORDO
100
AcDbPolyline
 62
7
  6
CONTINUOUS
 90
4
 70
0
 10
9.1045001531
 20
-15.5244635294
 10
9.0539496804
 20
-15.5109221597
 10
9.002260961
 20
-15.5027378738
 10
8.9998631449
 20
-15.5026122558
  0
LINE
  5
35A
100
AcDbEntity
  8
ASSI
100
AcDbLine
 62
7
  6
CONTINUOUS
 10
4.45
 20
-24.0
 11
4.4063493531
 21
-23.9563493531
  0
LINE
  5
35B
100
AcDbEntity
  8
0
100
AcDbLine
 62
7
  6
CONTINUOUS
 10
4.45
 20
-24.0
 11
4.4063493531
 21
-23.9563493531
  0
LINE
  5
35C
100
AcDbEntity
  8
ASSI
100
AcDbLine
 62
7
  6
CONTINUOUS
 10
4.45
 20
-22.4
 11
4.406077753
 21
-22.356077753
  0
LINE
  5
35D
100
AcDbEntity
  8
0
100
AcDbLine
 62
7
  6
CONTINUOUS
 10
4.45
 20
-22.4
 11
4.406077753
 21
-22.356077753
  0
LINE
  5
35E
100
AcDbEntity
  8
ASSI
100
AcDbLine
 62
7
  6
CONTINUOUS
 10
4.0001468395
 20
-23.5063768662
 11
4.1291458747
 21
-23.6415874657
  0
LINE
  5
35F
100
AcDbEntity
  8
0
100
AcDbLine
 62
7
  6
CONTINUOUS
 10
3.9530427099
 20
-23.4563578147
 11
4.1764546218
 21
-23.6918248369
  0
LINE
  5
360
100
AcDbEntity
  8
ASSI
100
AcDbLine
 62
7
  6
CONTINUOUS
 10
3.9530427099
 20
-23.4563578147
 11
4.0001468395
 21
-23.5063768662
  0
LINE
  5
361
100
AcDbEntity
  8
ASSI
100
AcDbLine
 62
7
  6
CONTINUOUS
 10
4.1291458747
 20
-23.6415874657
 11
4.2349407623
 21
-23.7541164494
  0
LINE
  5
362
100
AcDbEntity
  8
0
100
AcDbLine
 62
7
  6
CONTINUOUS
 10
4.1764546218
 20
-23.6918248369
 11
4.241701232
 21
-23.7614452295
  0
LINE
  5
363
100
AcDbEntity
  8
0
100
AcDbLine
 62
7
  6
CONTINUOUS
 10
4.241701232
 20
-23.7614452295
 11
4.2827501258
 21
-23.805748849
  0
LWPOLYLINE
  5
364
100
AcDbEntity
  8
ASSI
100
AcDbPolyline
 62
7
  6
CONTINUOUS
 90
11
 70
0
 10
4.2349407623
 20
-23.7541164494
 10
4.2920157928
 20
-23.8158320863
 10
4.3163761555
 20
-23.8424819717
 10
4.3378046823
 20
-23.8663402873
 10
4.3562436196
 20
-23.8873068733
 10
4.3716922243
 20
-23.905284916
 10
4.3841885509
 20
-23.9203712291
 10
4.393786069
 20
-23.9327560933
 10
4.4005642041
 20
-23.9425029355
 10
4.4046229995
 20
-23.9495483287
 10
4.406077753
 20
-23.9538922731
  0
LINE
  5
365
100
AcDbEntity
  8
0
100
AcDbLine
 62
7
  6
CONTINUOUS
 10
4.2827501258
 20
-23.805748849
 11
4.3064846713
 21
-23.8316546415
  0
LWPOLYLINE
  5
366
100
AcDbEntity
  8
0
100
AcDbPolyline
 62
7
  6
CONTINUOUS
 90
19
 70
0
 10
4.3064846713
 20
-23.8316546415
 10
4.3273784749
 20
-23.8547424712
 10
4.3367825654
 20
-23.8652386765
 10
4.3455146656
 20
-23.8750800554
 10
4.3535836365
 20
-23.8842628368
 10
4.3610042272
 20
-23.8927907917
 10
4.3678024024
 20
-23.9007171
 10
4.3739833772
 20
-23.9080373295
 10
4.3795677762
 20
-23.9147559125
 10
4.3845950269
 20
-23.9209393254
 10
4.3890738191
 20
-23.9265972003
 10
4.393008491
 20
-23.9317199052
 10
4.3964190596
 20
-23.9363450199
 10
4.3993100856
 20
-23.9404787452
 10
4.4016825074
 20
-23.9441148804
 10
4.4035432996
 20
-23.947272403
 10
4.4048950096
 20
-23.9499576389
 10
4.4057388153
 20
-23.9521642623
 10
4.406077753
 20
-23.9538922731
  0
LINE
  5
367
100
AcDbEntity
  8
0
100
AcDbLine
 62
7
  6
CONTINUOUS
 10
-10.1474554741
 20
-24.2855823661
 11
-10.1454823677
 21
-24.2973162875
  0
LINE
  5
368
100
AcDbEntity
  8
ASSI
100
AcDbLine
 62
7
  6
CONTINUOUS
 10
-10.1486304926
 20
-24.2761364629
 11
-10.1445369567
 21
-24.3019821969
  0
LINE
  5
369
100
AcDbEntity
  8
0
100
AcDbLine
 62
7
  6
CONTINUOUS
 10
-10.1488680342
 20
-24.2737678556
 11
-10.1474554741
 21
-24.2855823661
  0
LWPOLYLINE
  5
36A
100
AcDbEntity
  8
0
100
AcDbPolyline
 62
7
  6
CONTINUOUS
 90
4
 70
0
 10
-10.144495097
 20
-24.269398774
 10
-10.1430817682
 20
-24.2812146563
 10
-10.1411077496
 20
-24.292949936
 10
-10.1385775126
 20
-24.3045780153
  0
LINE
  5
36B
100
AcDbEntity
  8
ASSI
100
AcDbLine
 62
7
  6
CONTINUOUS
 10
-9.5
 20
-16.4
 11
-9.4820686967
 21
-16.6183558863
  0
LINE
  5
36C
100
AcDbEntity
  8
DRAFT
100
AcDbLine
 62
7
  6
CONTINUOUS
 10
-9.5
 20
-16.4
 11
-9.4820686967
 21
-16.6183558863
  0
LWPOLYLINE
  5
36D
100
AcDbEntity
  8
ASSI
100
AcDbPolyline
 62
7
  6
CONTINUOUS
 90
3
 70
0
 10
-10.1456238859
 20
-24.2470868299
 10
-10.1442574503
 20
-24.2717671924
 10
-10.1401620956
 20
-24.2976155726
  0
LINE
  5
36E
100
AcDbEntity
  8
ASSI
100
AcDbLine
 62
7
  6
CONTINUOUS
 10
-10.15
 20
-24.2500042308
 11
-10.1486304926
 21
-24.2761364629
  0
LINE
  5
36F
100
AcDbEntity
  8
ASSI
100
AcDbLine
 62
7
  6
CONTINUOUS
 10
-11.1665823117
 20
-21.0226497308
 11
-11.15
 21
-21.5711324865
  0
LINE
  5
370
100
AcDbEntity
  8
0
100
AcDbLine
 62
7
  6
CONTINUOUS
 10
-11.1665823117
 20
-21.0226497308
 11
-11.15
 21
-21.5711324865
  0
LWPOLYLINE
  5
371
100
AcDbEntity
  8
0
100
AcDbPolyline
 62
7
  6
CONTINUOUS
 90
3
 70
0
 10
-10.1456238859
 20
-24.2470868299
 10
-10.1453445371
 20
-24.2575290557
 10
-10.144495097
 20
-24.269398774
  0
LWPOLYLINE
  5
372
100
AcDbEntity
  8
0
100
AcDbPolyline
 62
7
  6
CONTINUOUS
 90
3
 70
0
 10
-10.15
 20
-24.2500042308
 10
-10.1497168498
 20
-24.261899516
 10
-10.1488680342
 20
-24.2737678556
  0
LINE
  5
373
100
AcDbEntity
  8
ASSI
100
AcDbLine
 62
7
  6
CONTINUOUS
 10
-11.1504363434
 20
21.6
 11
-11.15
 21
21.5711324865
  0
LINE
  5
374
100
AcDbEntity
  8
0
100
AcDbLine
 62
7
  6
CONTINUOUS
 10
-11.1504363434
 20
21.6
 11
-11.15
 21
21.5711324865
  0
LINE
  5
375
100
AcDbEntity
  8
DRAFT
100
AcDbLine
 62
7
  6
CONTINUOUS
 10
-10.9942403901
 20
3.2239550184
 11
-11.0
 21
4.1723103964
  0
LINE
  5
376
100
AcDbEntity
  8
ASSI
100
AcDbLine
 62
7
  6
CONTINUOUS
 10
-11.1665823117
 20
21.0226497308
 11
-11.1665823117
 21
5.0
  0
LINE
  5
377
100
AcDbEntity
  8
0
100
AcDbLine
 62
7
  6
CONTINUOUS
 10
-11.1665823117
 20
21.0226497308
 11
-11.1665823117
 21
5.0
  0
LINE
  5
378
100
AcDbEntity
  8
ASSI
100
AcDbLine
 62
7
  6
CONTINUOUS
 10
-11.1665823117
 20
-5.0
 11
-11.1665823117
 21
-21.0226497308
  0
LINE
  5
379
100
AcDbEntity
  8
0
100
AcDbLine
 62
7
  6
CONTINUOUS
 10
-11.1665823117
 20
-5.0
 11
-11.1665823117
 21
-21.0226497308
  0
LINE
  5
37A
100
AcDbEntity
  8
ASSI
100
AcDbLine
 62
7
  6
CONTINUOUS
 10
-11.1504363434
 20
21.900016923
 11
-11.1504363434
 21
21.6
  0
LINE
  5
37B
100
AcDbEntity
  8
0
100
AcDbLine
 62
7
  6
CONTINUOUS
 10
-11.1504363434
 20
21.900016923
 11
-11.1504363434
 21
21.6
  0
LINE
  5
37C
100
AcDbEntity
  8
ASSI
100
AcDbLine
 62
7
  6
CONTINUOUS
 10
-11.1504363434
 20
-21.900016923
 11
-11.1504363434
 21
-21.6
  0
LINE
  5
37D
100
AcDbEntity
  8
0
100
AcDbLine
 62
7
  6
CONTINUOUS
 10
-11.1504363434
 20
-21.900016923
 11
-11.1504363434
 21
-21.6
  0
LINE
  5
37E
100
AcDbEntity
  8
ASSI
100
AcDbLine
 62
7
  6
CONTINUOUS
 10
-11.1417094756
 20
21.8941990932
 11
-11.1417094756
 21
21.0226497308
  0
LINE
  5
37F
100
AcDbEntity
  8
0
100
AcDbLine
 62
7
  6
CONTINUOUS
 10
-11.1417094756
 20
21.8941990932
 11
-11.1417094756
 21
21.0226497308
  0
LINE
  5
380
100
AcDbEntity
  8
ASSI
100
AcDbLine
 62
7
  6
CONTINUOUS
 10
-11.1417094756
 20
-21.0226497308
 11
-11.1417094756
 21
-21.8941990932
  0
LINE
  5
381
100
AcDbEntity
  8
0
100
AcDbLine
 62
7
  6
CONTINUOUS
 10
-11.1417094756
 20
-21.0226497308
 11
-11.1417094756
 21
-21.8941990932
  0
LINE
  5
382
100
AcDbEntity
  8
ASSI
100
AcDbLine
 62
7
  6
CONTINUOUS
 10
-11.1316721818
 20
4.9650898701
 11
-11.1316721818
 21
-4.9650898701
  0
LINE
  5
383
100
AcDbEntity
  8
0
100
AcDbLine
 62
7
  6
CONTINUOUS
 10
-11.1316721818
 20
4.9650898701
 11
-11.1316721818
 21
-4.9650898701
  0
LINE
  5
384
100
AcDbEntity
  8
DRAFT
100
AcDbLine
 62
7
  6
CONTINUOUS
 10
-11.0
 20
4.1723103964
 11
-11.0
 21
-1.8894147313
  0
LINE
  5
385
100
AcDbEntity
  8
DRAFT
100
AcDbLine
 62
7
  6
CONTINUOUS
 10
-10.9942403901
 20
3.2239550184
 11
-10.9942403901
 21
-2.8338615933
  0
LINE
  5
386
100
AcDbEntity
  8
DRAFT
100
AcDbLine
 62
7
  6
CONTINUOUS
 10
-11.0
 20
4.1723103964
 11
-10.9942403901
 21
5.1167572583
  0
LINE
  5
387
100
AcDbEntity
  8
ASSI
100
AcDbLine
 62
7
  6
CONTINUOUS
 10
-11.15
 20
-21.5711324865
 11
-11.1504363434
 21
-21.6
  0
LINE
  5
388
100
AcDbEntity
  8
0
100
AcDbLine
 62
7
  6
CONTINUOUS
 10
-11.15
 20
-21.5711324865
 11
-11.1504363434
 21
-21.6
  0
LINE
  5
389
100
AcDbEntity
  8
ASSI
100
AcDbLine
 62
7
  6
CONTINUOUS
 10
-11.1665823117
 20
21.0226497308
 11
-11.15
 21
21.5711324865
  0
LINE
  5
38A
100
AcDbEntity
  8
0
100
AcDbLine
 62
7
  6
CONTINUOUS
 10
-11.1665823117
 20
21.0226497308
 11
-11.15
 21
21.5711324865
  0
LINE
  5
38B
100
AcDbEntity
  8
ASSI
100
AcDbLine
 62
7
  6
CONTINUOUS
 10
-7.2703286495
 20
20.6641649932
 11
-7.2310577445
 21
20.9
  0
LINE
  5
38C
100
AcDbEntity
  8
0
100
AcDbLine
 62
7
  6
CONTINUOUS
 10
-7.2703286495
 20
20.6641649932
 11
-7.2310577445
 21
20.9
  0
LINE
  5
38D
100
AcDbEntity
  8
ASSI
100
AcDbLine
 62
7
  6
CONTINUOUS
 10
-9.65
 20
7.0783629857
 11
-10.1907663376
 21
6.5375966481
  0
LINE
  5
38E
100
AcDbEntity
  8
0
100
AcDbLine
 62
7
  6
CONTINUOUS
 10
-9.65
 20
7.0783629857
 11
-10.1907663376
 21
6.5375966481
  0
LINE
  5
38F
100
AcDbEntity
  8
ASSI
100
AcDbLine
 62
7
  6
CONTINUOUS
 10
-9.5592336624
 20
7.0407663376
 11
-10.1
 21
6.5
  0
LINE
  5
390
100
AcDbEntity
  8
0
100
AcDbLine
 62
7
  6
CONTINUOUS
 10
-9.5592336624
 20
7.0407663376
 11
-10.1
 21
6.5
  0
LINE
  5
391
100
AcDbEntity
  8
ASSI
100
AcDbLine
 62
7
  6
CONTINUOUS
 10
7.1905416262
 20
22.3359700255
 11
7.2558178298
 21
22.3941821702
  0
LINE
  5
392
100
AcDbEntity
  8
DRAFT
100
AcDbLine
 62
7
  6
CONTINUOUS
 10
7.1905416262
 20
22.3359700255
 11
7.2558178298
 21
22.3941821702
  0
LINE
  5
393
100
AcDbEntity
  8
DRAFT
100
AcDbLine
 62
7
  6
CONTINUOUS
 10
-9.9976142915
 20
5.9331455644
 11
-10.9942403901
 21
5.1167572583
  0
LINE
  5
394
100
AcDbEntity
  8
0
100
AcDbLine
 62
253
  6
CONTINUOUS
 10
11.1504363434
 20
21.900016923
 11
11.1417094756
 21
21.8941990932
  0
LINE
  5
395
100
AcDbEntity
  8
0
100
AcDbLine
 62
7
  6
CONTINUOUS
 10
6.45
 20
-12.3036933041
 11
-6.45
 21
-12.3036933041
  0
LINE
  5
396
100
AcDbEntity
  8
0
100
AcDbLine
 62
7
  6
CONTINUOUS
 10
-4.5
 20
-10.952092431
 11
4.5
 21
-10.952092431
  0
LINE
  5
397
100
AcDbEntity
  8
0
100
AcDbLine
 62
253
  6
CONTINUOUS
 10
11.1417094756
 20
-21.8941990932
 11
11.1504363434
 21
-21.900016923
  0
LINE
  5
398
100
AcDbEntity
  8
ASSI
100
AcDbLine
 62
7
  6
CONTINUOUS
 10
7.1905416262
 20
-22.3359700255
 11
7.2558178298
 21
-22.3941821702
  0
LINE
  5
399
100
AcDbEntity
  8
DRAFT
100
AcDbLine
 62
7
  6
CONTINUOUS
 10
7.1905416262
 20
-22.3359700255
 11
7.2558178298
 21
-22.3941821702
  0
LINE
  5
39A
100
AcDbEntity
  8
ASSI
100
AcDbLine
 62
7
  6
CONTINUOUS
 10
-10.1907663376
 20
-6.5375966481
 11
-9.65
 21
-7.0783629857
  0
LINE
  5
39B
100
AcDbEntity
  8
0
100
AcDbLine
 62
7
  6
CONTINUOUS
 10
-10.1907663376
 20
-6.5375966481
 11
-9.65
 21
-7.0783629857
  0
LINE
  5
39C
100
AcDbEntity
  8
ASSI
100
AcDbLine
 62
7
  6
CONTINUOUS
 10
-10.1
 20
-6.5
 11
-9.5592336624
 21
-7.0407663376
  0
LINE
  5
39D
100
AcDbEntity
  8
0
100
AcDbLine
 62
7
  6
CONTINUOUS
 10
-10.1
 20
-6.5
 11
-9.5592336624
 21
-7.0407663376
  0
LINE
  5
39E
100
AcDbEntity
  8
ASSI
100
AcDbLine
 62
7
  6
CONTINUOUS
 10
-7.2310577445
 20
-20.9
 11
-7.2493841668
 21
-20.7899436635
  0
LINE
  5
39F
100
AcDbEntity
  8
0
100
AcDbLine
 62
7
  6
CONTINUOUS
 10
-7.2310577445
 20
-20.9
 11
-7.2493841668
 21
-20.7899436635
  0
LWPOLYLINE
  5
3A0
100
AcDbEntity
  8
ASSI
100
AcDbPolyline
 62
253
  6
CONTINUOUS
 90
16
 70
0
 10
-7.254371834
 20
-23.8443375673
 10
-7.2558110476
 20
-23.8217569904
 10
-7.2599619096
 20
-23.799420258
 10
-7.2667800258
 20
-23.7775711757
 10
-7.2761922243
 20
-23.7564476688
 10
-7.2880964269
 20
-23.7362813227
 10
-7.3023619255
 20
-23.7172944979
 10
-7.3188325082
 20
-23.6996950389
 10
-7.3373288239
 20
-23.6836745307
 10
-7.3576488061
 20
-23.6694080473
 10
-7.3795705811
 20
-23.6570513664
 10
-7.4028548522
 20
-23.6467393746
 10
-7.4272473073
 20
-23.6385846907
 10
-7.4524815956
 20
-23.6326763275
 10
-7.4782822533
 20
-23.629078752
 10
-7.5043676032
 20
-23.6278312164
  0
LWPOLYLINE
  5
3A1
100
AcDbEntity
  8
ASSI
100
AcDbPolyline
 62
7
  6
CONTINUOUS
 90
40
 70
0
 10
-10.3
 20
0.1950467125
 10
-10.2960712245
 20
0.1184438528
 10
-10.2849322545
 20
0.0432967518
 10
-10.26658309
 20
-0.0303945904
 10
-10.2408121258
 20
-0.1030872256
 10
-10.207830967
 20
-0.1743241021
 10
-10.1682744295
 20
-0.2427340643
 10
-10.1220151342
 20
-0.3082623491
 10
-10.0691804602
 20
-0.3709637197
 10
-10.0107873604
 20
-0.4296313107
 10
-9.9467281562
 20
-0.4841869793
 10
-9.8771105262
 20
-0.5347088684
 10
-9.8032744587
 20
-0.580224541
 10
-9.7251382338
 20
-0.6206370163
 10
-9.6427835713
 20
-0.6560432752
 10
-9.5577956201
 20
-0.6857618241
 10
-9.4701233677
 20
-0.7096824799
 10
-9.3798178265
 20
-0.7279154256
 10
-9.2886171823
 20
-0.7401097166
 10
-9.1965040951
 20
-0.7461483713
 10
-9.1034959049
 20
-0.7461483713
 10
-9.0113828177
 20
-0.7401097166
 10
-8.9201821735
 20
-0.7279154256
 10
-8.8298766323
 20
-0.7096824799
 10
-8.7422043799
 20
-0.6857618241
 10
-8.6572164287
 20
-0.6560432752
 10
-8.5748617662
 20
-0.6206370163
 10
-8.4967255413
 20
-0.580224541
 10
-8.4228894738
 20
-0.5347088684
 10
-8.3532718438
 20
-0.4841869793
 10
-8.2892126396
 20
-0.4296313107
 10
-8.2308195398
 20
-0.3709637197
 10
-8.1779848658
 20
-0.3082623491
 10
-8.1317255705
 20
-0.2427340643
 10
-8.092169033
 20
-0.1743241021
 10
-8.0591878742
 20
-0.1030872256
 10
-8.03341691
 20
-0.0303945904
 10
-8.0150677455
 20
0.0432967518
 10
-8.0039287755
 20
0.1184438528
 10
-8.0
 20
0.1950467125
  0
LWPOLYLINE
  5
3A2
100
AcDbEntity
  8
0
100
AcDbPolyline
 62
253
  6
CONTINUOUS
 90
34
 70
0
 10
-10.145628166
 20
23.8443375673
 10
-10.1453115153
 20
23.8340547998
 10
-10.1444313535
 20
23.8237952398
 10
-10.1429896672
 20
23.8135820427
 10
-10.1409897102
 20
23.803438259
 10
-10.1384359962
 20
23.7933867826
 10
-10.1353342888
 20
23.7834502991
 10
-10.1316915884
 20
23.7736512346
 10
-10.1275161163
 20
23.764011705
 10
-10.1228172964
 20
23.7545534661
 10
-10.1176057336
 20
23.7452978646
 10
-10.1118931901
 20
23.7362657898
 10
-10.1056925587
 20
23.7274776267
 10
-10.0990178339
 20
23.7189532096
 10
-10.0918840803
 20
23.7107117775
 10
-10.0843073982
 20
23.702771931
 10
-10.0763048877
 20
23.6951515897
 10
-10.0678946101
 20
23.6878679524
 10
-10.0590955469
 20
23.6809374578
 10
-10.049927557
 20
23.6743757476
 10
-10.040411332
 20
23.6681976311
 10
-10.0305683495
 20
23.6624170521
 10
-10.0204208246
 20
23.6570470569
 10
-10.0099916595
 20
23.6520997654
 10
-9.9993043923
 20
23.6475863432
 10
-9.9883831436
 20
23.6435169769
 10
-9.9772525619
 20
23.6399008509
 10
-9.9659377683
 20
23.6367461264
 10
-9.9544642997
 20
23.6340599235
 10
-9.9428580509
 20
23.6318483049
 10
-9.9311452166
 20
23.630116262
 10
-9.919352232
 20
23.6288677039
 10
-9.9075057131
 20
23.6281054486
 10
-9.8956323968
 20
23.6278312164
  0
LINE
  5
3A3
100
AcDbEntity
  8
ASSI
100
AcDbLine
 62
253
  6
CONTINUOUS
 10
-10.145628166
 20
-23.8443375673
 11
-10.15
 21
-23.4104851482
  0
LINE
  5
3A4
100
AcDbEntity
  8
0
100
AcDbLine
 62
253
  6
CONTINUOUS
 10
-10.145628166
 20
-23.8443375673
 11
-10.15
 21
-23.4104851482
  0
LINE
  5
3A5
100
AcDbEntity
  8
ASSI
100
AcDbLine
 62
253
  6
CONTINUOUS
 10
-9.8956323968
 20
-23.6278312164
 11
-9.9007229979
 21
-23.1226497308
  0
LINE
  5
3A6
100
AcDbEntity
  8
0
100
AcDbLine
 62
253
  6
CONTINUOUS
 10
-9.8956323968
 20
-23.6278312164
 11
-9.9007229979
 21
-23.1226497308
  0
LINE
  5
3A7
100
AcDbEntity
  8
ASSI
100
AcDbLine
 62
253
  6
CONTINUOUS
 10
-10.145628166
 20
-24.2456323968
 11
-10.1456238859
 21
-24.2470868299
  0
LINE
  5
3A8
100
AcDbEntity
  8
0
100
AcDbLine
 62
253
  6
CONTINUOUS
 10
-10.145628166
 20
-24.2456323968
 11
-10.1456238859
 21
-24.2470868299
  0
LINE
  5
3A9
100
AcDbEntity
  8
DRAFT
100
AcDbLine
 62
7
  6
CONTINUOUS
 10
-9.9976142915
 20
4.0403433245
 11
-10.0
 21
4.9914624407
  0
LINE
  5
3AA
100
AcDbEntity
  8
ASSI
100
AcDbLine
 62
7
  6
CONTINUOUS
 10
-9.522540489
 20
19.0922175394
 11
-9.5242313121
 21
19.8214267532
  0
LINE
  5
3AB
100
AcDbEntity
  8
0
100
AcDbLine
 62
7
  6
CONTINUOUS
 10
-9.522540489
 20
19.0922175394
 11
-9.5242313121
 21
19.8214267532
  0
LINE
  5
3AC
100
AcDbEntity
  8
ASSI
100
AcDbLine
 62
7
  6
CONTINUOUS
 10
-10.2378950129
 20
18.5571179845
 11
-10.2378950129
 21
10.4428820155
  0
LINE
  5
3AD
100
AcDbEntity
  8
0
100
AcDbLine
 62
7
  6
CONTINUOUS
 10
-10.2378950129
 20
18.5571179845
 11
-10.2378950129
 21
10.4428820155
  0
LINE
  5
3AE
100
AcDbEntity
  8
ASSI
100
AcDbLine
 62
7
  6
CONTINUOUS
 10
-10.1907663376
 20
6.5375966481
 11
-10.1907663376
 21
5.7749246709
  0
LINE
  5
3AF
100
AcDbEntity
  8
0
100
AcDbLine
 62
7
  6
CONTINUOUS
 10
-10.1907663376
 20
6.5375966481
 11
-10.1907663376
 21
5.7749246709
  0
LINE
  5
3B0
100
AcDbEntity
  8
ASSI
100
AcDbLine
 62
7
  6
CONTINUOUS
 10
-10.1907663376
 20
-5.0
 11
-10.1907663376
 21
-6.5375966481
  0
LINE
  5
3B1
100
AcDbEntity
  8
0
100
AcDbLine
 62
7
  6
CONTINUOUS
 10
-10.1907663376
 20
-5.0
 11
-10.1907663376
 21
-6.5375966481
  0
LINE
  5
3B2
100
AcDbEntity
  8
ASSI
100
AcDbLine
 62
7
  6
CONTINUOUS
 10
-10.1558562078
 20
-3.5206257101
 11
-10.1558562078
 21
-4.9650898701
  0
LINE
  5
3B3
100
AcDbEntity
  8
0
100
AcDbLine
 62
7
  6
CONTINUOUS
 10
-10.1558562078
 20
-3.5206257101
 11
-10.1558562078
 21
-4.9650898701
  0
LINE
  5
3B4
100
AcDbEntity
  8
0
100
AcDbLine
 62
7
  6
CONTINUOUS
 10
-10.15
 20
23.8443375673
 11
-10.15
 21
23.4104851482
  0
LINE
  5
3B5
100
AcDbEntity
  8
RACCORDO
100
AcDbLine
 62
7
  6
CONTINUOUS
 10
-10.15
 20
-23.4104851482
 11
-10.15
 21
-22.6002134903
  0
LINE
  5
3B6
100
AcDbEntity
  8
ASSI
100
AcDbLine
 62
7
  6
CONTINUOUS
 10
-10.15
 20
-22.6002134903
 11
-10.15
 21
-23.8443375673
  0
LINE
  5
3B7
100
AcDbEntity
  8
0
100
AcDbLine
 62
7
  6
CONTINUOUS
 10
-10.15
 20
-23.4104851482
 11
-10.15
 21
-23.8443375673
  0
LINE
  5
3B8
100
AcDbEntity
  8
ASSI
100
AcDbLine
 62
7
  6
CONTINUOUS
 10
-10.15
 20
22.6002134903
 11
-10.15
 21
23.8443375673
  0
LINE
  5
3B9
100
AcDbEntity
  8
RACCORDO
100
AcDbLine
 62
7
  6
CONTINUOUS
 10
-10.15
 20
22.6002134903
 11
-10.15
 21
23.4104851482
  0
LINE
  5
3BA
100
AcDbEntity
  8
ASSI
100
AcDbLine
 62
7
  6
CONTINUOUS
 10
-10.145628166
 20
24.2456323968
 11
-10.145628166
 21
23.8443375673
  0
LINE
  5
3BB
100
AcDbEntity
  8
0
100
AcDbLine
 62
7
  6
CONTINUOUS
 10
-10.145628166
 20
24.2456323968
 11
-10.145628166
 21
23.8443375673
  0
LINE
  5
3BC
100
AcDbEntity
  8
ASSI
100
AcDbLine
 62
7
  6
CONTINUOUS
 10
-10.145628166
 20
-23.8443375673
 11
-10.145628166
 21
-24.2456323968
  0
LINE
  5
3BD
100
AcDbEntity
  8
0
100
AcDbLine
 62
7
  6
CONTINUOUS
 10
-10.145628166
 20
-23.8443375673
 11
-10.145628166
 21
-24.2456323968
  0
LINE
  5
3BE
100
AcDbEntity
  8
ASSI
100
AcDbLine
 62
7
  6
CONTINUOUS
 10
-10.1
 20
6.5
 11
-10.1
 21
5.849276102
  0
LINE
  5
3BF
100
AcDbEntity
  8
0
100
AcDbLine
 62
7
  6
CONTINUOUS
 10
-10.1
 20
6.5
 11
-10.1
 21
5.849276102
  0
LINE
  5
3C0
100
AcDbEntity
  8
ASSI
100
AcDbLine
 62
7
  6
CONTINUOUS
 10
-10.1
 20
-3.5663804369
 11
-10.1
 21
-6.5
  0
LINE
  5
3C1
100
AcDbEntity
  8
0
100
AcDbLine
 62
7
  6
CONTINUOUS
 10
-10.1
 20
-3.5663804369
 11
-10.1
 21
-6.5
  0
LINE
  5
3C2
100
AcDbEntity
  8
ASSI
100
AcDbLine
 62
253
  6
CONTINUOUS
 10
-9.8956323968
 20
-23.6278312164
 11
-9.8956323968
 21
-24.495628166
  0
LINE
  5
3C3
100
AcDbEntity
  8
0
100
AcDbLine
 62
253
  6
CONTINUOUS
 10
-9.8956323968
 20
-23.6278312164
 11
-9.8956323968
 21
-24.495628166
  0
LINE
  5
3C4
100
AcDbEntity
  8
ASSI
100
AcDbLine
 62
253
  6
CONTINUOUS
 10
-9.8956323968
 20
23.6278312164
 11
-9.8956323968
 21
24.495628166
  0
LINE
  5
3C5
100
AcDbEntity
  8
0
100
AcDbLine
 62
253
  6
CONTINUOUS
 10
-9.8956323968
 20
23.6278312164
 11
-9.8956323968
 21
24.495628166
  0
LINE
  5
3C6
100
AcDbEntity
  8
ASSI
100
AcDbLine
 62
7
  6
CONTINUOUS
 10
-9.65
 20
20.1990396502
 11
-9.65
 21
19.1450129975
  0
LINE
  5
3C7
100
AcDbEntity
  8
0
100
AcDbLine
 62
7
  6
CONTINUOUS
 10
-9.65
 20
20.1990396502
 11
-9.65
 21
19.1450129975
  0
LINE
  5
3C8
100
AcDbEntity
  8
ASSI
100
AcDbLine
 62
7
  6
CONTINUOUS
 10
-9.65
 20
9.8549870025
 11
-9.65
 21
7.0783629857
  0
LINE
  5
3C9
100
AcDbEntity
  8
0
100
AcDbLine
 62
7
  6
CONTINUOUS
 10
-9.65
 20
9.8549870025
 11
-9.65
 21
7.0783629857
  0
LINE
  5
3CA
100
AcDbEntity
  8
ASSI
100
AcDbLine
 62
7
  6
CONTINUOUS
 10
-9.65
 20
-7.0783629857
 11
-9.65
 21
-20.1990396502
  0
LINE
  5
3CB
100
AcDbEntity
  8
0
100
AcDbLine
 62
7
  6
CONTINUOUS
 10
-9.65
 20
-7.0783629857
 11
-9.65
 21
-20.1990396502
  0
LINE
  5
3CC
100
AcDbEntity
  8
ASSI
100
AcDbLine
 62
7
  6
CONTINUOUS
 10
-9.6133443637
 20
-20.0889833137
 11
-9.6133443637
 21
-19.6
  0
LINE
  5
3CD
100
AcDbEntity
  8
DRAFT
100
AcDbLine
 62
7
  6
CONTINUOUS
 10
-9.6133443637
 20
-20.0889833137
 11
-9.6133443637
 21
-19.6
  0
LINE
  5
3CE
100
AcDbEntity
  8
ASSI
100
AcDbLine
 62
7
  6
CONTINUOUS
 10
-9.5592336624
 20
8.6580621458
 11
-9.5592336624
 21
8.5419378542
  0
LINE
  5
3CF
100
AcDbEntity
  8
0
100
AcDbLine
 62
7
  6
CONTINUOUS
 10
-9.5592336624
 20
8.6580621458
 11
-9.5592336624
 21
8.5419378542
  0
LINE
  5
3D0
100
AcDbEntity
  8
ASSI
100
AcDbLine
 62
7
  6
CONTINUOUS
 10
-9.5592336624
 20
-7.0407663376
 11
-9.5592336624
 21
-3.6580621458
  0
LINE
  5
3D1
100
AcDbEntity
  8
0
100
AcDbLine
 62
7
  6
CONTINUOUS
 10
-9.5592336624
 20
-7.0407663376
 11
-9.5592336624
 21
-3.6580621458
  0
LINE
  5
3D2
100
AcDbEntity
  8
ASSI
100
AcDbLine
 62
7
  6
CONTINUOUS
 10
-9.5592336624
 20
5.9331455644
 11
-9.5592336624
 21
7.0407663376
  0
LINE
  5
3D3
100
AcDbEntity
  8
0
100
AcDbLine
 62
7
  6
CONTINUOUS
 10
-9.5592336624
 20
5.9331455644
 11
-9.5592336624
 21
7.0407663376
  0
LINE
  5
3D4
100
AcDbEntity
  8
ASSI
100
AcDbLine
 62
7
  6
CONTINUOUS
 10
-9.5121049871
 20
9.9121049871
 11
-9.5121049871
 21
9.0
  0
LINE
  5
3D5
100
AcDbEntity
  8
0
100
AcDbLine
 62
7
  6
CONTINUOUS
 10
-9.5121049871
 20
9.9121049871
 11
-9.5121049871
 21
9.0
  0
LINE
  5
3D6
100
AcDbEntity
  8
ASSI
100
AcDbLine
 62
7
  6
CONTINUOUS
 10
-9.5121049871
 20
8.2
 11
-9.5121049871
 21
5.9331455644
  0
LINE
  5
3D7
100
AcDbEntity
  8
0
100
AcDbLine
 62
7
  6
CONTINUOUS
 10
-9.5121049871
 20
8.2
 11
-9.5121049871
 21
5.9331455644
  0
LINE
  5
3D8
100
AcDbEntity
  8
ASSI
100
AcDbLine
 62
7
  6
CONTINUOUS
 10
-9.5121049871
 20
-4.0
 11
-9.5121049871
 21
-16.4
  0
LINE
  5
3D9
100
AcDbEntity
  8
DRAFT
100
AcDbLine
 62
7
  6
CONTINUOUS
 10
-9.5121049871
 20
-4.0
 11
-9.5121049871
 21
-16.4
  0
LINE
  5
3DA
100
AcDbEntity
  8
ASSI
100
AcDbLine
 62
7
  6
CONTINUOUS
 10
-9.5
 20
-15.9999428868
 11
-9.5
 21
-16.4
  0
LINE
  5
3DB
100
AcDbEntity
  8
RACCORDO
100
AcDbLine
 62
7
  6
CONTINUOUS
 10
-9.5
 20
-15.9999428868
 11
-9.5
 21
-16.4
  0
LINE
  5
3DC
100
AcDbEntity
  8
RACCORDO
100
AcDbLine
 62
7
  6
CONTINUOUS
 10
-9.45
 20
-15.9
 11
-9.45
 21
-16.6183558863
  0
LINE
  5
3DD
100
AcDbEntity
  8
ASSI
100
AcDbLine
 62
7
  6
CONTINUOUS
 10
-9.3
 20
12.5132676422
 11
-9.3
 21
9.7
  0
LINE
  5
3DE
100
AcDbEntity
  8
0
100
AcDbLine
 62
7
  6
CONTINUOUS
 10
-9.3
 20
12.5132676422
 11
-9.3
 21
9.7
  0
LINE
  5
3DF
100
AcDbEntity
  8
ASSI
100
AcDbLine
 62
7
  6
CONTINUOUS
 10
-9.05
 20
12.5132676422
 11
-9.05
 21
11.8
  0
LINE
  5
3E0
100
AcDbEntity
  8
0
100
AcDbLine
 62
7
  6
CONTINUOUS
 10
-9.05
 20
12.5132676422
 11
-9.05
 21
11.8
  0
LINE
  5
3E1
100
AcDbEntity
  8
ASSI
100
AcDbLine
 62
7
  6
CONTINUOUS
 10
-8.9906527792
 20
17.4754175763
 11
-8.9906527792
 21
15.8915786577
  0
LINE
  5
3E2
100
AcDbEntity
  8
0
100
AcDbLine
 62
7
  6
CONTINUOUS
 10
-8.9906527792
 20
17.4754175763
 11
-8.9906527792
 21
15.8915786577
  0
LINE
  5
3E3
100
AcDbEntity
  8
0
100
AcDbLine
 62
7
  6
CONTINUOUS
 10
-8.9
 20
-5.8132720272
 11
-8.9
 21
-3.6502498994
  0
LINE
  5
3E4
100
AcDbEntity
  8
0
100
AcDbLine
 62
7
  6
CONTINUOUS
 10
-8.9
 20
3.7455693088
 11
-8.9
 21
10.2757581504
  0
LINE
  5
3E5
100
AcDbEntity
  8
ASSI
100
AcDbLine
 62
7
  6
CONTINUOUS
 10
-9.5498994568
 20
-16.8602367608
 11
-9.5553984776
 21
-19.4260209733
  0
LINE
  5
3E6
100
AcDbEntity
  8
DRAFT
100
AcDbLine
 62
7
  6
CONTINUOUS
 10
-9.5498994568
 20
-16.8602367608
 11
-9.5553984776
 21
-19.4260209733
  0
LINE
  5
3E7
100
AcDbEntity
  8
DRAFT
100
AcDbLine
 62
7
  6
CONTINUOUS
 10
-10.0
 20
4.9914624407
 11
-9.9976142915
 21
5.9331455644
  0
LINE
  5
3E8
100
AcDbEntity
  8
ASSI
100
AcDbLine
 62
253
  6
CONTINUOUS
 10
-10.15
 20
23.4104851482
 11
-10.145628166
 21
23.8443375673
  0
LINE
  5
3E9
100
AcDbEntity
  8
0
100
AcDbLine
 62
253
  6
CONTINUOUS
 10
-10.15
 20
23.4104851482
 11
-10.145628166
 21
23.8443375673
  0
LINE
  5
3EA
100
AcDbEntity
  8
ASSI
100
AcDbLine
 62
253
  6
CONTINUOUS
 10
-9.9007229979
 20
23.1226497308
 11
-9.8956323968
 21
23.6278312164
  0
LINE
  5
3EB
100
AcDbEntity
  8
0
100
AcDbLine
 62
253
  6
CONTINUOUS
 10
-9.9007229979
 20
23.1226497308
 11
-9.8956323968
 21
23.6278312164
  0
LINE
  5
3EC
100
AcDbEntity
  8
ASSI
100
AcDbLine
 62
7
  6
CONTINUOUS
 10
-9.0406132198
 20
11.8038881317
 11
-8.9906527792
 21
15.8915786577
  0
LINE
  5
3ED
100
AcDbEntity
  8
0
100
AcDbLine
 62
7
  6
CONTINUOUS
 10
-9.0406132198
 20
11.8038881317
 11
-8.9906527792
 21
15.8915786577
  0
LWPOLYLINE
  5
3EE
100
AcDbEntity
  8
0
100
AcDbPolyline
 62
253
  6
CONTINUOUS
 90
34
 70
0
 10
-10.145628166
 20
-23.8443375673
 10
-10.145311504
 20
-23.8340546062
 10
-10.1444313098
 20
-23.823794854
 10
-10.1429895699
 20
-23.8135814673
 10
-10.1409895398
 20
-23.8034375035
 10
-10.1384357329
 20
-23.7933858521
 10
-10.1353339075
 20
-23.7834491834
 10
-10.1316910568
 20
-23.773649913
 10
-10.1275154039
 20
-23.7640101717
 10
-10.1228163816
 20
-23.7545517387
 10
-10.1176046015
 20
-23.7452959695
 10
-10.1118918239
 20
-23.7362637463
 10
-10.1056909407
 20
-23.7274754512
 10
-10.0990159471
 20
-23.7189509186
 10
-10.0918819095
 20
-23.7107093898
 10
-10.08430493
 20
-23.7027694659
 10
-10.0763021104
 20
-23.6951490678
 10
-10.0678915133
 20
-23.6878653946
 10
-10.0590921207
 20
-23.680934885
 10
-10.0499237948
 20
-23.6743731824
 10
-10.0404072274
 20
-23.6681950956
 10
-10.0305638912
 20
-23.6624145653
 10
-10.0204159898
 20
-23.6570446328
 10
-10.0099864389
 20
-23.6520974265
 10
-9.9992988113
 20
-23.6475841265
 10
-9.9883772514
 20
-23.6435149235
 10
-9.9772463916
 20
-23.6398989896
 10
-9.9659313281
 20
-23.6367444758
 10
-9.954457306
 20
-23.6340584395
 10
-9.9428505087
 20
-23.6318470295
 10
-9.9311379997
 20
-23.630115347
 10
-9.9193465228
 20
-23.6288672183
 10
-9.907502412
 20
-23.6281053043
 10
-9.8956323968
 20
-23.6278312164
  0
LWPOLYLINE
  5
3EF
100
AcDbEntity
  8
ASSI
100
AcDbPolyline
 62
253
  6
CONTINUOUS
 90
16
 70
0
 10
-7.254371834
 20
23.8443375673
 10
-7.2558121477
 20
23.8217481519
 10
-7.2599656195
 20
23.7994053159
 10
-7.2667869113
 20
23.7775529472
 10
-7.276201564
 20
23.7564295797
 10
-7.2881068099
 20
23.7362657898
 10
-7.302372695
 20
23.7172816797
 10
-7.3188434969
 20
23.6996844742
 10
-7.3373394254
 20
23.6836662592
 10
-7.3576585842
 20
23.6694018849
 10
-7.3795791754
 20
23.6570470569
 10
-7.4028619204
 20
23.646736637
 10
-7.4272526715
 20
23.6385831707
 10
-7.4524851864
 20
23.6326756587
 10
-7.4782840345
 20
23.6290785857
 10
-7.5043676032
 20
23.6278312164
  0
LWPOLYLINE
  5
3F0
100
AcDbEntity
  8
ASSI
100
AcDbPolyline
 62
7
  6
CONTINUOUS
 90
5
 70
0
 10
-3.5
 20
23.9541479441
 10
-3.5012682861
 20
23.9499649924
 10
-3.5051575137
 20
23.9430654274
 10
-3.5117834904
 20
23.933449249
 10
-3.5212454386
 20
23.921182938
  0
LINE
  5
3F1
100
AcDbEntity
  8
DRAFT
100
AcDbLine
 62
7
  6
CONTINUOUS
 10
-10.0
 20
4.9914624407
 11
-11.0
 21
4.1723103964
  0
LINE
  5
3F2
100
AcDbEntity
  8
DRAFT
100
AcDbLine
 62
7
  6
CONTINUOUS
 10
-9.9976142915
 20
4.0403433245
 11
-10.9942403901
 21
3.2239550184
  0
LINE
  5
3F3
100
AcDbEntity
  8
0
100
AcDbLine
 62
7
  6
CONTINUOUS
 10
-4.5
 20
-9.9196548456
 11
4.5
 21
-9.9196548456
  0
LINE
  5
3F4
100
AcDbEntity
  8
ASSI
100
AcDbLine
 62
253
  6
CONTINUOUS
 10
7.8014942797
 20
-9.0370983322
 11
6.45
 21
-9.0370983322
  0
LINE
  5
3F5
100
AcDbEntity
  8
0
100
AcDbLine
 62
253
  6
CONTINUOUS
 10
7.8014942797
 20
-9.0370983322
 11
6.45
 21
-9.0370983322
  0
LINE
  5
3F6
100
AcDbEntity
  8
ASSI
100
AcDbLine
 62
253
  6
CONTINUOUS
 10
-6.45
 20
-9.0370983322
 11
-7.8014828721
 21
-9.0370983322
  0
LINE
  5
3F7
100
AcDbEntity
  8
0
100
AcDbLine
 62
253
  6
CONTINUOUS
 10
-6.45
 20
-9.0370983322
 11
-7.8014828721
 21
-9.0370983322
  0
LINE
  5
3F8
100
AcDbEntity
  8
ASSI
100
AcDbLine
 62
253
  6
CONTINUOUS
 10
7.8014903329
 20
-8.8528844434
 11
6.45
 21
-8.8528844434
  0
LINE
  5
3F9
100
AcDbEntity
  8
0
100
AcDbLine
 62
253
  6
CONTINUOUS
 10
7.8014903329
 20
-8.8528844434
 11
6.45
 21
-8.8528844434
  0
LINE
  5
3FA
100
AcDbEntity
  8
ASSI
100
AcDbLine
 62
253
  6
CONTINUOUS
 10
-6.45
 20
-8.8528844434
 11
-7.8014985862
 21
-8.8528844434
  0
LINE
  5
3FB
100
AcDbEntity
  8
0
100
AcDbLine
 62
253
  6
CONTINUOUS
 10
-6.45
 20
-8.8528844434
 11
-7.8014985862
 21
-8.8528844434
  0
LWPOLYLINE
  5
3FC
100
AcDbEntity
  8
0
100
AcDbPolyline
 62
253
  6
CONTINUOUS
 90
37
 70
0
 10
-7.8014828721
 20
-9.0370983322
 10
-7.8159273578
 20
-9.0369201445
 10
-7.8308310366
 20
-9.0360125226
 10
-7.8461939085
 20
-9.0343754664
 10
-7.8620570978
 20
-9.0320674564
 10
-7.8783794803
 20
-9.0290300121
 10
-7.8950376825
 20
-9.025087693
 10
-7.9120535163
 20
-9.0202237394
 10
-7.92940517
 20
-9.014454911
 10
-7.9469038351
 20
-9.007656046
 10
-7.9645357543
 20
-8.9998204448
 10
-7.9823146849
 20
-8.990954807
 10
-8.0000930908
 20
-8.9809540696
 10
-8.0178750091
 20
-8.9698082972
 10
-8.0356564027
 20
-8.9575274253
 10
-8.0532776234
 20
-8.9440361963
 10
-8.0707409003
 20
-8.9293254192
 10
-8.0880440043
 20
-8.9134042852
 10
-8.1050206007
 20
-8.8962251095
 10
-8.1216697084
 20
-8.8777852506
 10
-8.1379923085
 20
-8.85808735
 10
-8.1538250098
 20
-8.8370916488
 10
-8.1691709745
 20
-8.8147984369
 10
-8.1840270404
 20
-8.7912074243
 10
-8.1982203293
 20
-8.7662779816
 10
-8.2117600414
 20
-8.7400102439
 10
-8.2246369766
 20
-8.7124040762
 10
-8.2366506561
 20
-8.6834184431
 10
-8.2478171906
 20
-8.6530518957
 10
-8.2581204695
 20
-8.6213058829
 10
-8.2673116823
 20
-8.5881437173
 10
-8.2754165456
 20
-8.5535638144
 10
-8.2824093428
 20
-8.5175677587
 10
-8.2879641144
 20
-8.4801236158
 10
-8.2919722072
 20
-8.4412207409
 10
-8.2945422743
 20
-8.4008697787
 10
-8.2956743158
 20
-8.3590707294
  0
LWPOLYLINE
  5
3FD
100
AcDbEntity
  8
0
100
AcDbPolyline
 62
253
  6
CONTINUOUS
 90
37
 70
0
 10
-7.8014984162
 20
-8.8528831494
 10
-7.8086849987
 20
-8.8527412973
 10
-7.8161369879
 20
-8.8521653003
 10
-7.8238379855
 20
-8.8511074664
 10
-7.8317649367
 20
-8.8495243084
 10
-7.83989925
 20
-8.8473714023
 10
-7.8482268463
 20
-8.844602013
 10
-7.8567244802
 20
-8.8411757323
 10
-7.8653575665
 20
-8.837058012
 10
-7.8740923782
 20
-8.8322166285
 10
-7.8828866451
 20
-8.8266330874
 10
-7.8917175535
 20
-8.820280949
 10
-7.9005787823
 20
-8.8131188992
 10
-7.9094350161
 20
-8.8051302148
 10
-7.9182511785
 20
-8.7963031422
 10
-7.9270181421
 20
-8.7865997241
 10
-7.9356999563
 20
-8.7760108099
 10
-7.9442610078
 20
-8.7645331497
 10
-7.9526892604
 20
-8.7521327335
 10
-7.9609470532
 20
-8.7388100834
 10
-7.9690013285
 20
-8.7245654028
 10
-7.9768419564
 20
-8.7093582273
 10
-7.9844307004
 20
-8.6931940557
 10
-7.9917336253
 20
-8.676076363
 10
-7.9987392379
 20
-8.6579550042
 10
-8.0054072415
 20
-8.6388387055
 10
-8.0117003735
 20
-8.6187339263
 10
-8.017601101
 20
-8.5975814036
 10
-8.0230645497
 20
-8.5753940931
 10
-8.0280478115
 20
-8.5521816403
 10
-8.0325229534
 20
-8.5278762614
 10
-8.0364369738
 20
-8.5024998421
 10
-8.0397381747
 20
-8.47606431
 10
-8.0423831284
 20
-8.4484863094
 10
-8.0443082579
 20
-8.4197549467
 10
-8.0454412427
 20
-8.3899367679
 10
-8.0457131489
 20
-8.3590707295
  0
LWPOLYLINE
  5
3FE
100
AcDbEntity
  8
ASSI
100
AcDbPolyline
 62
253
  6
CONTINUOUS
 90
19
 70
0
 10
-7.8014828721
 20
-9.0370983322
 10
-7.8386387511
 20
-9.0354660329
 10
-7.8756624148
 20
-9.0297993473
 10
-7.9125538634
 20
-9.0200982754
 10
-7.9495134441
 20
-9.0065143865
 10
-7.9863408095
 20
-8.9888961113
 10
-8.0224349183
 20
-8.9667887419
 10
-8.0579676564
 20
-8.9400451338
 10
-8.0927671377
 20
-8.9088124315
 10
-8.1257166627
 20
-8.8730773602
 10
-8.1568053807
 20
-8.8327466598
 10
-8.1860441424
 20
-8.7879135903
 10
-8.2123487991
 20
-8.7388446577
 10
-8.2357549284
 20
-8.6855153719
 10
-8.2562269527
 20
-8.6279502229
 10
-8.2725739917
 20
-8.5664891865
 10
-8.2843990851
 20
-8.5012455881
 10
-8.2920991932
 20
-8.4321061025
 10
-8.2956743158
 20
-8.3590707294
  0
LWPOLYLINE
  5
3FF
100
AcDbEntity
  8
ASSI
100
AcDbPolyline
 62
253
  6
CONTINUOUS
 90
25
 70
0
 10
-7.8014984162
 20
-8.8528831494
 10
-7.8176176744
 20
-8.8519986702
 10
-7.833978712
 20
-8.8489917726
 10
-7.8504215487
 20
-8.8437752997
 10
-7.866841836
 20
-8.8362833681
 10
-7.8830198077
 20
-8.8265426215
 10
-7.8986576919
 20
-8.8147405744
 10
-7.9136006075
 20
-8.8010716797
 10
-7.9278400313
 20
-8.7856402991
 10
-7.9413461956
 20
-8.7685622275
 10
-7.9540641374
 20
-8.7499985583
 10
-7.9659859805
 20
-8.7300522904
 10
-7.9771508295
 20
-8.7087295714
 10
-7.9875332234
 20
-8.6861244622
 10
-7.9971159343
 20
-8.6623206274
 10
-8.0059261474
 20
-8.6372656414
 10
-8.013934737
 20
-8.6110213058
 10
-8.0211151061
 20
-8.5836511442
 10
-8.0274682425
 20
-8.5550651045
 10
-8.0329515164
 20
-8.5253229486
 10
-8.0375220542
 20
-8.4944669699
 10
-8.0411504862
 20
-8.4623771921
 10
-8.0437763934
 20
-8.42904894
 10
-8.0453212745
 20
-8.3945922311
 10
-8.0457131489
 20
-8.3590707295
  0
LWPOLYLINE
  5
400
100
AcDbEntity
  8
RACCORDO
100
AcDbPolyline
 62
7
  6
CONTINUOUS
 90
3
 70
0
 10
9.1999907927
 20
-15.5669684318
 10
9.153358993
 20
-15.5432139691
 10
9.1045001531
 20
-15.5244635294
  0
LINE
  5
401
100
AcDbEntity
  8
DRAFT
100
AcDbLine
 62
7
  6
CONTINUOUS
 10
-9.9976142915
 20
-3.6502498994
 11
-10.9942403901
 21
-2.8338615933
  0
LINE
  5
402
100
AcDbEntity
  8
ASSI
100
AcDbLine
 62
7
  6
CONTINUOUS
 10
-9.5121049871
 20
-4.0
 11
-9.5540885328
 21
-3.9580164543
  0
LINE
  5
403
100
AcDbEntity
  8
0
100
AcDbLine
 62
7
  6
CONTINUOUS
 10
-9.5121049871
 20
-4.0
 11
-9.5540885328
 21
-3.9580164543
  0
LINE
  5
404
100
AcDbEntity
  8
ASSI
100
AcDbLine
 62
7
  6
CONTINUOUS
 10
-7.2783549033
 20
-19.4260209733
 11
-7.2493841668
 21
-19.6
  0
LINE
  5
405
100
AcDbEntity
  8
0
100
AcDbLine
 62
7
  6
CONTINUOUS
 10
-7.2783549033
 20
-19.4260209733
 11
-7.2493841668
 21
-19.6
  0
LWPOLYLINE
  5
406
100
AcDbEntity
  8
0
100
AcDbPolyline
 62
7
  6
CONTINUOUS
 90
25
 70
0
 10
-6.6649378012
 20
-19.9383357914
 10
-6.667202758
 20
-19.9060333498
 10
-6.6733276441
 20
-19.8752409306
 10
-6.6833124597
 20
-19.845958534
 10
-6.6975533168
 20
-19.8176411519
 10
-6.7156541033
 20
-19.7908337923
 10
-6.736426483
 20
-19.767171479
 10
-6.7599209032
 20
-19.7469954251
 10
-6.7860869165
 20
-19.7299644174
 10
-6.813584844
 20
-19.7166898405
 10
-6.8424249489
 20
-19.7073140024
 10
-6.8725969679
 20
-19.701694595
 10
-6.9027304321
 20
-19.7000160794
 10
-6.932844455
 20
-19.7024262954
 10
-6.962919923
 20
-19.7087774032
 10
-6.9915290264
 20
-19.7188103446
 10
-7.0186402259
 20
-19.7327268196
 10
-7.0442850609
 20
-19.7503251281
 10
-7.0671303391
 20
-19.7707411115
 10
-7.0870162089
 20
-19.794143905
 10
-7.104102522
 20
-19.8203643733
 10
-7.1175356412
 20
-19.8480309526
 10
-7.1270310209
 20
-19.8766864546
 10
-7.1328732068
 20
-19.9067880676
 10
-7.1350621988
 20
-19.9383357914
  0
LWPOLYLINE
  5
407
100
AcDbEntity
  8
ASSI
100
AcDbPolyline
 62
253
  6
CONTINUOUS
 90
16
 70
0
 10
-10.145628166
 20
23.8443375673
 10
-10.1441878523
 20
23.8217481519
 10
-10.1400343805
 20
23.7994053159
 10
-10.1332130887
 20
23.7775529472
 10
-10.123798436
 20
23.7564295797
 10
-10.1118931901
 20
23.7362657898
 10
-10.097627305
 20
23.7172816797
 10
-10.0811565031
 20
23.6996844742
 10
-10.0626605746
 20
23.6836662592
 10
-10.0423414158
 20
23.6694018849
 10
-10.0204208246
 20
23.6570470569
 10
-9.9971380796
 20
23.646736637
 10
-9.9727473285
 20
23.6385831707
 10
-9.9475148136
 20
23.6326756587
 10
-9.9217159655
 20
23.6290785857
 10
-9.8956323968
 20
23.6278312164
  0
LWPOLYLINE
  5
408
100
AcDbEntity
  8
ASSI
100
AcDbPolyline
 62
7
  6
CONTINUOUS
 90
28
 70
0
 10
-6.6649378012
 20
-19.9383357914
 10
-6.6667554857
 20
-19.909814918
 10
-6.6715546431
 20
-19.8824382438
 10
-6.6793352736
 20
-19.8562057689
 10
-6.6902978122
 20
-19.8307969358
 10
-6.7042418238
 20
-19.806532302
 10
-6.7205660026
 20
-19.7843735392
 10
-6.7393573916
 20
-19.764419305
 10
-6.7605289479
 20
-19.7465709417
 10
-6.7832182363
 20
-19.7314941478
 10
-6.8074704795
 20
-19.7192997205
 10
-6.833240455
 20
-19.7098768626
 10
-6.8595300598
 20
-19.703558881
 10
-6.8863530979
 20
-19.7004568398
 10
-6.9136957653
 20
-19.7004596749
 10
-6.9405185472
 20
-19.7035675
 10
-6.9668078781
 20
-19.7098916007
 10
-6.9925773235
 20
-19.7193206915
 10
-7.0168280651
 20
-19.7315210296
 10
-7.0395148115
 20
-19.7466041801
 10
-7.0606828542
 20
-19.7644585781
 10
-7.0794692493
 20
-19.7844157854
 10
-7.0957857911
 20
-19.806573188
 10
-7.1097206855
 20
-19.8308334
 10
-7.1206756061
 20
-19.856235826
 10
-7.1284511107
 20
-19.8824602672
 10
-7.1332466416
 20
-19.9098269224
 10
-7.1350621988
 20
-19.9383357914
  0
LINE
  5
409
100
AcDbEntity
  8
ASSI
100
AcDbLine
 62
253
  6
CONTINUOUS
 10
-7.2808029262
 20
-17.141404475
 11
-7.1350621988
 21
-19.9383357914
  0
LINE
  5
40A
100
AcDbEntity
  8
0
100
AcDbLine
 62
253
  6
CONTINUOUS
 10
-7.2808029262
 20
-17.141404475
 11
-7.1350621988
 21
-19.9383357914
  0
LWPOLYLINE
  5
40B
100
AcDbEntity
  8
ASSI
100
AcDbPolyline
 62
7
  6
CONTINUOUS
 90
40
 70
0
 10
-8.0
 20
0.1950467125
 10
-8.0039287755
 20
0.2716495723
 10
-8.0150677455
 20
0.3467966733
 10
-8.03341691
 20
0.4204880155
 10
-8.0591878742
 20
0.4931806507
 10
-8.092169033
 20
0.5644175272
 10
-8.1317255705
 20
0.6328274894
 10
-8.1779848658
 20
0.6983557742
 10
-8.2308195398
 20
0.7610571448
 10
-8.2892126396
 20
0.8197247358
 10
-8.3532718438
 20
0.8742804044
 10
-8.4228894738
 20
0.9248022935
 10
-8.4967255413
 20
0.9703179661
 10
-8.5748617662
 20
1.0107304414
 10
-8.6572164287
 20
1.0461367003
 10
-8.7422043799
 20
1.0758552492
 10
-8.8298766323
 20
1.099775905
 10
-8.9201821735
 20
1.1180088507
 10
-9.0113828177
 20
1.1302031417
 10
-9.1034959049
 20
1.1362417964
 10
-9.1965040951
 20
1.1362417964
 10
-9.2886171823
 20
1.1302031417
 10
-9.3798178265
 20
1.1180088507
 10
-9.4701233677
 20
1.099775905
 10
-9.5577956201
 20
1.0758552492
 10
-9.6427835713
 20
1.0461367003
 10
-9.7251382338
 20
1.0107304414
 10
-9.8032744587
 20
0.9703179661
 10
-9.8771105262
 20
0.9248022935
 10
-9.9467281562
 20
0.8742804044
 10
-10.0107873604
 20
0.8197247358
 10
-10.0691804602
 20
0.7610571448
 10
-10.1220151342
 20
0.6983557742
 10
-10.1682744295
 20
0.6328274894
 10
-10.207830967
 20
0.5644175272
 10
-10.2408121258
 20
0.4931806507
 10
-10.26658309
 20
0.4204880155
 10
-10.2849322545
 20
0.3467966733
 10
-10.2960712245
 20
0.2716495723
 10
-10.3
 20
0.1950467125
  0
LWPOLYLINE
  5
40C
100
AcDbEntity
  8
0
100
AcDbPolyline
 62
253
  6
CONTINUOUS
 90
34
 70
0
 10
-7.254371834
 20
-23.8443375673
 10
-7.2546879612
 20
-23.8340637895
 10
-7.2555668735
 20
-23.8238108791
 10
-7.257006965
 20
-23.8136019692
 10
-7.2590055309
 20
-23.8034593699
 10
-7.2615583468
 20
-23.7934067803
 10
-7.2646592669
 20
-23.7834691596
 10
-7.2683009749
 20
-23.7736697274
 10
-7.2724754803
 20
-23.7640297916
 10
-7.2771734609
 20
-23.7545709211
 10
-7.2823844175
 20
-23.7453143541
 10
-7.2880965586
 20
-23.7362811256
 10
-7.2942968909
 20
-23.7274918143
 10
-7.3009713669
 20
-23.7189663226
 10
-7.3081049647
 20
-23.7107238287
 10
-7.3156815988
 20
-23.7027829214
 10
-7.323684181
 20
-23.6951615168
 10
-7.3320946393
 20
-23.6878768325
 10
-7.3408939717
 20
-23.6809453292
 10
-7.3500623086
 20
-23.6743826581
 10
-7.3595789604
 20
-23.6682036281
 10
-7.3694224454
 20
-23.6624221869
 10
-7.3795705442
 20
-23.6570513849
 10
-7.3900003491
 20
-23.6521033459
 10
-7.4006883165
 20
-23.6475892394
 10
-7.4116103331
 20
-23.6435192505
 10
-7.4227417323
 20
-23.6399025721
 10
-7.4340573467
 20
-23.6367473785
 10
-7.4455316046
 20
-23.6340607927
 10
-7.4571386303
 20
-23.6318488662
 10
-7.468852264
 20
-23.6301165815
 10
-7.4806460789
 20
-23.6288678476
 10
-7.4924934395
 20
-23.6281054856
 10
-7.5043676032
 20
-23.6278312164
  0
LINE
  5
40D
100
AcDbEntity
  8
ASSI
100
AcDbLine
 62
7
  6
CONTINUOUS
 10
-8.2547430141
 20
-15.507774954
 11
-8.2306986805
 21
-16.6183558863
  0
LINE
  5
40E
100
AcDbEntity
  8
DRAFT
100
AcDbLine
 62
7
  6
CONTINUOUS
 10
-8.2547430141
 20
-15.507774954
 11
-8.2306986805
 21
-16.6183558863
  0
LINE
  5
40F
100
AcDbEntity
  8
ASSI
100
AcDbLine
 62
7
  6
CONTINUOUS
 10
-8.0572263482
 20
-15.6047893388
 11
-8.0300456216
 21
-16.8602367608
  0
LINE
  5
410
100
AcDbEntity
  8
RACCORDO
100
AcDbLine
 62
7
  6
CONTINUOUS
 10
-8.0572263482
 20
-15.6047893388
 11
-8.0300456216
 21
-16.8602367608
  0
LINE
  5
411
100
AcDbEntity
  8
ASSI
100
AcDbLine
 62
253
  6
CONTINUOUS
 10
-7.802747319
 20
10.9713053015
 11
-7.7942462248
 21
10.2757581504
  0
LINE
  5
412
100
AcDbEntity
  8
0
100
AcDbLine
 62
253
  6
CONTINUOUS
 10
-7.802747319
 20
10.9713053015
 11
-7.7942462248
 21
10.2757581504
  0
LINE
  5
413
100
AcDbEntity
  8
ASSI
100
AcDbLine
 62
253
  6
CONTINUOUS
 10
-7.5043676032
 20
23.6278312164
 11
-7.4992770021
 21
23.1226497308
  0
LINE
  5
414
100
AcDbEntity
  8
0
100
AcDbLine
 62
253
  6
CONTINUOUS
 10
-7.5043676032
 20
23.6278312164
 11
-7.4992770021
 21
23.1226497308
  0
LINE
  5
415
100
AcDbEntity
  8
ASSI
100
AcDbLine
 62
253
  6
CONTINUOUS
 10
-7.254371834
 20
23.8443375673
 11
-7.25
 21
23.4104851482
  0
LINE
  5
416
100
AcDbEntity
  8
0
100
AcDbLine
 62
253
  6
CONTINUOUS
 10
-7.254371834
 20
23.8443375673
 11
-7.25
 21
23.4104851482
  0
LINE
  5
417
100
AcDbEntity
  8
ASSI
100
AcDbLine
 62
7
  6
CONTINUOUS
 10
-7.2808029262
 20
-17.141404475
 11
-7.2783549033
 21
-19.4260209733
  0
LINE
  5
418
100
AcDbEntity
  8
0
100
AcDbLine
 62
7
  6
CONTINUOUS
 10
-7.2808029262
 20
-17.141404475
 11
-7.2783549033
 21
-19.4260209733
  0
LINE
  5
419
100
AcDbEntity
  8
ASSI
100
AcDbLine
 62
7
  6
CONTINUOUS
 10
-8.4118365096
 20
-12.5132676422
 11
-8.4118365096
 21
-15.5
  0
LINE
  5
41A
100
AcDbEntity
  8
DRAFT
100
AcDbLine
 62
7
  6
CONTINUOUS
 10
-8.4118365096
 20
-12.5132676422
 11
-8.4118365096
 21
-15.5
  0
LINE
  5
41B
100
AcDbEntity
  8
ASSI
100
AcDbLine
 62
253
  6
CONTINUOUS
 10
-8.2956743158
 20
-8.3590707294
 11
-8.2956743158
 21
-5.8132720272
  0
LINE
  5
41C
100
AcDbEntity
  8
0
100
AcDbLine
 62
253
  6
CONTINUOUS
 10
-8.2956743158
 20
-8.3590707294
 11
-8.2956743158
 21
-5.8132720272
  0
LINE
  5
41D
100
AcDbEntity
  8
ASSI
100
AcDbLine
 62
7
  6
CONTINUOUS
 10
-8.25
 20
-21.4
 11
-8.25
 21
-20.9
  0
LINE
  5
41E
100
AcDbEntity
  8
DRAFT
100
AcDbLine
 62
7
  6
CONTINUOUS
 10
-8.25
 20
-21.4
 11
-8.25
 21
-20.9
  0
LINE
  5
41F
100
AcDbEntity
  8
ASSI
100
AcDbLine
 62
7
  6
CONTINUOUS
 10
-8.25
 20
20.9
 11
-8.25
 21
21.4
  0
LINE
  5
420
100
AcDbEntity
  8
DRAFT
100
AcDbLine
 62
7
  6
CONTINUOUS
 10
-8.25
 20
20.9
 11
-8.25
 21
21.4
  0
LINE
  5
421
100
AcDbEntity
  8
ASSI
100
AcDbLine
 62
253
  6
CONTINUOUS
 10
-8.0665695018
 20
21.4537354271
 11
-8.0665695018
 21
20.9
  0
LINE
  5
422
100
AcDbEntity
  8
DRAFT
100
AcDbLine
 62
253
  6
CONTINUOUS
 10
-8.0665695018
 20
21.4537354271
 11
-8.0665695018
 21
20.9
  0
LINE
  5
423
100
AcDbEntity
  8
ASSI
100
AcDbLine
 62
253
  6
CONTINUOUS
 10
-8.0665695018
 20
-20.9
 11
-8.0665695018
 21
-21.4537354271
  0
LINE
  5
424
100
AcDbEntity
  8
DRAFT
100
AcDbLine
 62
253
  6
CONTINUOUS
 10
-8.0665695018
 20
-20.9
 11
-8.0665695018
 21
-21.4537354271
  0
LINE
  5
425
100
AcDbEntity
  8
ASSI
100
AcDbLine
 62
253
  6
CONTINUOUS
 10
-8.045712392
 20
-8.3583066369
 11
-8.045712392
 21
-5.8132720272
  0
LINE
  5
426
100
AcDbEntity
  8
0
100
AcDbLine
 62
253
  6
CONTINUOUS
 10
-8.045712392
 20
-8.3583066369
 11
-8.045712392
 21
-5.8132720272
  0
LINE
  5
427
100
AcDbEntity
  8
ASSI
100
AcDbLine
 62
7
  6
CONTINUOUS
 10
-7.9906527792
 20
20.6641649932
 11
-7.9906527792
 21
18.4754175763
  0
LINE
  5
428
100
AcDbEntity
  8
0
100
AcDbLine
 62
7
  6
CONTINUOUS
 10
-7.9906527792
 20
20.6641649932
 11
-7.9906527792
 21
18.4754175763
  0
LINE
  5
429
100
AcDbEntity
  8
ASSI
100
AcDbLine
 62
253
  6
CONTINUOUS
 10
-7.8014984107
 20
-9.0370983322
 11
-7.8014984162
 21
-8.8528844434
  0
LINE
  5
42A
100
AcDbEntity
  8
0
100
AcDbLine
 62
253
  6
CONTINUOUS
 10
-7.8014984107
 20
-9.0370983322
 11
-7.8014984162
 21
-8.8528844434
  0
LINE
  5
42B
100
AcDbEntity
  8
ASSI
100
AcDbLine
 62
253
  6
CONTINUOUS
 10
-7.5666456542
 20
21.3359869487
 11
-7.5666456542
 21
20.9
  0
LINE
  5
42C
100
AcDbEntity
  8
0
100
AcDbLine
 62
253
  6
CONTINUOUS
 10
-7.5666456542
 20
21.3359869487
 11
-7.5666456542
 21
20.9
  0
LINE
  5
42D
100
AcDbEntity
  8
ASSI
100
AcDbLine
 62
253
  6
CONTINUOUS
 10
-7.5666456542
 20
-20.9
 11
-7.5666456542
 21
-21.3359869487
  0
LINE
  5
42E
100
AcDbEntity
  8
0
100
AcDbLine
 62
253
  6
CONTINUOUS
 10
-7.5666456542
 20
-20.9
 11
-7.5666456542
 21
-21.3359869487
  0
LINE
  5
42F
100
AcDbEntity
  8
ASSI
100
AcDbLine
 62
253
  6
CONTINUOUS
 10
-7.5043676032
 20
-23.6278312164
 11
-7.5043676032
 21
-24.495628166
  0
LINE
  5
430
100
AcDbEntity
  8
0
100
AcDbLine
 62
253
  6
CONTINUOUS
 10
-7.5043676032
 20
-23.6278312164
 11
-7.5043676032
 21
-24.495628166
  0
LINE
  5
431
100
AcDbEntity
  8
ASSI
100
AcDbLine
 62
253
  6
CONTINUOUS
 10
-7.5043676032
 20
23.6278312164
 11
-7.5043676032
 21
24.495628166
  0
LINE
  5
432
100
AcDbEntity
  8
0
100
AcDbLine
 62
253
  6
CONTINUOUS
 10
-7.5043676032
 20
23.6278312164
 11
-7.5043676032
 21
24.495628166
  0
LINE
  5
433
100
AcDbEntity
  8
ASSI
100
AcDbLine
 62
7
  6
CONTINUOUS
 10
-7.2703286495
 20
16.7700000029
 11
-7.2703286495
 21
20.6641649932
  0
LINE
  5
434
100
AcDbEntity
  8
0
100
AcDbLine
 62
7
  6
CONTINUOUS
 10
-7.2703286495
 20
16.7700000029
 11
-7.2703286495
 21
20.6641649932
  0
LINE
  5
435
100
AcDbEntity
  8
ASSI
100
AcDbLine
 62
7
  6
CONTINUOUS
 10
-7.254371834
 20
-24.2456323968
 11
-7.254371834
 21
-23.8443375673
  0
LINE
  5
436
100
AcDbEntity
  8
0
100
AcDbLine
 62
7
  6
CONTINUOUS
 10
-7.254371834
 20
-24.2456323968
 11
-7.254371834
 21
-23.8443375673
  0
LINE
  5
437
100
AcDbEntity
  8
ASSI
100
AcDbLine
 62
7
  6
CONTINUOUS
 10
-7.254371834
 20
23.8443375673
 11
-7.254371834
 21
24.2456323968
  0
LINE
  5
438
100
AcDbEntity
  8
0
100
AcDbLine
 62
7
  6
CONTINUOUS
 10
-7.254371834
 20
23.8443375673
 11
-7.254371834
 21
24.2456323968
  0
LINE
  5
439
100
AcDbEntity
  8
RACCORDO
100
AcDbLine
 62
7
  6
CONTINUOUS
 10
-7.25
 20
23.4104851482
 11
-7.25
 21
22.6002134903
  0
LINE
  5
43A
100
AcDbEntity
  8
0
100
AcDbLine
 62
7
  6
CONTINUOUS
 10
-7.25
 20
15.9541648703
 11
-7.25
 21
10.2757581504
  0
LINE
  5
43B
100
AcDbEntity
  8
0
100
AcDbLine
 62
7
  6
CONTINUOUS
 10
-7.25
 20
-23.8443375673
 11
-7.25
 21
-23.4104851482
  0
LINE
  5
43C
100
AcDbEntity
  8
ASSI
100
AcDbLine
 62
7
  6
CONTINUOUS
 10
-7.25
 20
-22.6002134903
 11
-7.25
 21
-23.8443375673
  0
LINE
  5
43D
100
AcDbEntity
  8
RACCORDO
100
AcDbLine
 62
7
  6
CONTINUOUS
 10
-7.25
 20
-22.6002134903
 11
-7.25
 21
-23.4104851482
  0
LINE
  5
43E
100
AcDbEntity
  8
ASSI
100
AcDbLine
 62
7
  6
CONTINUOUS
 10
-7.25
 20
22.6002134903
 11
-7.25
 21
23.8443375673
  0
LINE
  5
43F
100
AcDbEntity
  8
0
100
AcDbLine
 62
7
  6
CONTINUOUS
 10
-7.25
 20
23.4104851482
 11
-7.25
 21
23.8443375673
  0
LINE
  5
440
100
AcDbEntity
  8
ASSI
100
AcDbLine
 62
7
  6
CONTINUOUS
 10
-7.2493841668
 20
-20.7899436635
 11
-7.2493841668
 21
-19.6
  0
LINE
  5
441
100
AcDbEntity
  8
0
100
AcDbLine
 62
7
  6
CONTINUOUS
 10
-7.2493841668
 20
-20.7899436635
 11
-7.2493841668
 21
-19.6
  0
LINE
  5
442
100
AcDbEntity
  8
ASSI
100
AcDbLine
 62
7
  6
CONTINUOUS
 10
-7.1961502733
 20
16.9183680548
 11
-7.1961502733
 21
18.7659857438
  0
LINE
  5
443
100
AcDbEntity
  8
0
100
AcDbLine
 62
7
  6
CONTINUOUS
 10
-7.1961502733
 20
16.9183680548
 11
-7.1961502733
 21
18.7659857438
  0
LINE
  5
444
100
AcDbEntity
  8
ASSI
100
AcDbLine
 62
7
  6
CONTINUOUS
 10
-7.1350621988
 20
-20.9
 11
-7.1350621988
 21
-19.9383357914
  0
LINE
  5
445
100
AcDbEntity
  8
0
100
AcDbLine
 62
7
  6
CONTINUOUS
 10
-7.1350621988
 20
-20.9
 11
-7.1350621988
 21
-19.9383357914
  0
LINE
  5
446
100
AcDbEntity
  8
ASSI
100
AcDbLine
 62
7
  6
CONTINUOUS
 10
-7.1350621988
 20
19.9383357914
 11
-7.1350621988
 21
20.9
  0
LINE
  5
447
100
AcDbEntity
  8
0
100
AcDbLine
 62
7
  6
CONTINUOUS
 10
-7.1350621988
 20
19.9383357914
 11
-7.1350621988
 21
20.9
  0
LWPOLYLINE
  5
448
100
AcDbEntity
  8
0
100
AcDbPolyline
 62
253
  6
CONTINUOUS
 90
19
 70
0
 10
-8.0455869779
 20
10.2757581504
 10
-8.045420022
 20
10.3028152771
 10
-8.0441136561
 20
10.3487032629
 10
-8.041866669
 20
10.393068263
 10
-8.0387650152
 20
10.4358450211
 10
-8.0348773606
 20
10.4770484207
 10
-8.0302295465
 20
10.5167691289
 10
-8.0248707178
 20
10.5549994008
 10
-8.018857157
 20
10.5917107591
 10
-8.0121879953
 20
10.6269588493
 10
-8.0048993379
 20
10.6607451627
 10
-7.9970330013
 20
10.6930365589
 10
-7.9885703076
 20
10.7238299769
 10
-7.9795491659
 20
10.7531053042
 10
-7.9699937083
 20
10.7808500728
 10
-7.9598407232
 20
10.8070611181
 10
-7.9490780556
 20
10.8317184211
 10
-7.9377603463
 20
10.8547943699
 10
-7.9259146609
 20
10.8762666672
  0
LWPOLYLINE
  5
449
100
AcDbEntity
  8
ASSI
100
AcDbPolyline
 62
253
  6
CONTINUOUS
 90
13
 70
0
 10
-8.0455109472
 20
10.2757581504
 10
-8.0450789236
 20
10.3193441264
 10
-8.0425870649
 20
10.3812151821
 10
-8.0383341173
 20
10.4409653175
 10
-8.0324763247
 20
10.4984421398
 10
-8.0251008113
 20
10.5536584849
 10
-8.0161167077
 20
10.6067675832
 10
-8.0055945034
 20
10.657747016
 10
-7.9935560292
 20
10.7064623582
 10
-7.9796398572
 20
10.7528262725
 10
-7.9636589718
 20
10.7966875
 10
-7.9457394806
 20
10.8378886709
 10
-7.9259146609
 20
10.8762666672
  0
LINE
  5
44A
100
AcDbEntity
  8
ASSI
100
AcDbLine
 62
253
  6
CONTINUOUS
 10
-7.4992770021
 20
-23.1226497308
 11
-7.5043676032
 21
-23.6278312164
  0
LINE
  5
44B
100
AcDbEntity
  8
0
100
AcDbLine
 62
253
  6
CONTINUOUS
 10
-7.4992770021
 20
-23.1226497308
 11
-7.5043676032
 21
-23.6278312164
  0
LINE
  5
44C
100
AcDbEntity
  8
ASSI
100
AcDbLine
 62
253
  6
CONTINUOUS
 10
-7.25
 20
-23.4104851482
 11
-7.254371834
 21
-23.8443375673
  0
LINE
  5
44D
100
AcDbEntity
  8
0
100
AcDbLine
 62
253
  6
CONTINUOUS
 10
-7.25
 20
-23.4104851482
 11
-7.254371834
 21
-23.8443375673
  0
LINE
  5
44E
100
AcDbEntity
  8
0
100
AcDbLine
 62
253
  6
CONTINUOUS
 10
-7.755547998
 20
-5.8132720272
 11
-7.7680282351
 21
-6.7782334928
  0
LINE
  5
44F
100
AcDbEntity
  8
ASSI
100
AcDbLine
 62
253
  6
CONTINUOUS
 10
-7.755538834
 20
-5.8132720272
 11
-7.7682156191
 21
-6.7915957103
  0
LINE
  5
450
100
AcDbEntity
  8
0
100
AcDbLine
 62
253
  6
CONTINUOUS
 10
-8.0072867561
 20
-5.8132720272
 11
-8.0175215682
 21
-6.5882604251
  0
LINE
  5
451
100
AcDbEntity
  8
ASSI
100
AcDbLine
 62
253
  6
CONTINUOUS
 10
-8.007280339
 20
-5.8132720272
 11
-8.0176531566
 21
-6.5974916629
  0
LINE
  5
452
100
AcDbEntity
  8
0
100
AcDbLine
 62
253
  6
CONTINUOUS
 10
-7.7680282351
 20
-6.7782334928
 11
-7.7793439909
 21
-7.5521488679
  0
LINE
  5
453
100
AcDbEntity
  8
ASSI
100
AcDbLine
 62
253
  6
CONTINUOUS
 10
-7.7682156191
 20
-6.7915957103
 11
-7.7800640067
 21
-7.5983757045
  0
LINE
  5
454
100
AcDbEntity
  8
0
100
AcDbLine
 62
253
  6
CONTINUOUS
 10
-8.0175215682
 20
-6.5882604251
 11
-8.0306796224
 21
-7.4726098967
  0
LINE
  5
455
100
AcDbEntity
  8
ASSI
100
AcDbLine
 62
253
  6
CONTINUOUS
 10
-8.0176531566
 20
-6.5974916629
 11
-8.0312584108
 21
-7.5085934133
  0
LINE
  5
456
100
AcDbEntity
  8
0
100
AcDbLine
 62
253
  6
CONTINUOUS
 10
-7.7793439909
 20
-7.5521488679
 11
-7.791905719
 21
-8.3198975488
  0
LINE
  5
457
100
AcDbEntity
  8
ASSI
100
AcDbLine
 62
253
  6
CONTINUOUS
 10
-7.7800640067
 20
-7.5983757045
 11
-7.7926795809
 21
-8.3651590754
  0
LWPOLYLINE
  5
458
100
AcDbEntity
  8
0
100
AcDbPolyline
 62
253
  6
CONTINUOUS
 90
3
 70
0
 10
-8.0306796224
 20
-7.4726098967
 10
-8.0417359068
 20
-8.1345928603
 10
-8.045712392
 20
-8.3583066369
  0
LWPOLYLINE
  5
459
100
AcDbEntity
  8
ASSI
100
AcDbPolyline
 62
253
  6
CONTINUOUS
 90
3
 70
0
 10
-8.0312584108
 20
-7.5085934133
 10
-8.0420252746
 20
-8.151974891
 10
-8.045712392
 20
-8.3583066369
  0
LINE
  5
45A
100
AcDbEntity
  8
0
100
AcDbLine
 62
253
  6
CONTINUOUS
 10
-7.791905719
 20
-8.3198975488
 11
-7.8014985862
 21
-8.8528844434
  0
LINE
  5
45B
100
AcDbEntity
  8
ASSI
100
AcDbLine
 62
253
  6
CONTINUOUS
 10
-7.7926795809
 20
-8.3651590754
 11
-7.8014985862
 21
-8.8528844434
  0
LWPOLYLINE
  5
45C
100
AcDbEntity
  8
0
100
AcDbPolyline
 62
253
  6
CONTINUOUS
 90
34
 70
0
 10
-7.254371834
 20
23.8443375673
 10
-7.2546884847
 20
23.8340547998
 10
-7.2555686465
 20
23.8237952398
 10
-7.2570103328
 20
23.8135820427
 10
-7.2590102898
 20
23.803438259
 10
-7.2615640038
 20
23.7933867826
 10
-7.2646657112
 20
23.7834502991
 10
-7.2683084116
 20
23.7736512346
 10
-7.2724838837
 20
23.764011705
 10
-7.2771827036
 20
23.7545534661
 10
-7.2823942664
 20
23.7452978646
 10
-7.2881068099
 20
23.7362657898
 10
-7.2943074413
 20
23.7274776267
 10
-7.3009821661
 20
23.7189532096
 10
-7.3081159197
 20
23.7107117775
 10
-7.3156926018
 20
23.702771931
 10
-7.3236951123
 20
23.6951515897
 10
-7.3321053899
 20
23.6878679524
 10
-7.3409044531
 20
23.6809374578
 10
-7.350072443
 20
23.6743757476
 10
-7.359588668
 20
23.6681976311
 10
-7.3694316505
 20
23.6624170521
 10
-7.3795791754
 20
23.6570470569
 10
-7.3900083405
 20
23.6520997654
 10
-7.4006956077
 20
23.6475863432
 10
-7.4116168564
 20
23.6435169769
 10
-7.4227474381
 20
23.6399008509
 10
-7.4340622317
 20
23.6367461264
 10
-7.4455357003
 20
23.6340599235
 10
-7.4571419491
 20
23.6318483049
 10
-7.4688547834
 20
23.630116262
 10
-7.480647768
 20
23.6288677039
 10
-7.4924942869
 20
23.6281054486
 10
-7.5043676032
 20
23.6278312164
  0
LINE
  5
45D
100
AcDbEntity
  8
ASSI
100
AcDbLine
 62
253
  6
CONTINUOUS
 10
-7.1350621988
 20
19.9383357914
 11
-7.1961502733
 21
18.7659857438
  0
LINE
  5
45E
100
AcDbEntity
  8
0
100
AcDbLine
 62
253
  6
CONTINUOUS
 10
-7.1350621988
 20
19.9383357914
 11
-7.1961502733
 21
18.7659857438
  0
LWPOLYLINE
  5
45F
100
AcDbEntity
  8
ASSI
100
AcDbPolyline
 62
7
  6
CONTINUOUS
 90
31
 70
0
 10
-6.6038497267
 20
18.7659857438
 10
-6.6056746948
 20
18.7337408579
 10
-6.6105854684
 20
18.7025647106
 10
-6.6185820473
 20
18.6724573018
 10
-6.6298330364
 20
18.6431166492
 10
-6.6441698308
 20
18.6148447351
 10
-6.6610866168
 20
18.588547507
 10
-6.6806611099
 20
18.5642988151
 10
-6.7028155946
 20
18.5420248092
 10
-6.7268111102
 20
18.5224098865
 10
-6.7526941727
 20
18.5055421331
 10
-6.7804182663
 20
18.4913334629
 10
-6.8091048824
 20
18.4802040148
 10
-6.838783518
 20
18.4722456974
 10
-6.8694246762
 20
18.467366602
 10
-6.9000613583
 20
18.4657111415
 10
-6.9306903641
 20
18.4673762893
 10
-6.9613148939
 20
18.4722650719
 10
-6.9909775491
 20
18.4802309816
 10
-7.0196517706
 20
18.4913647739
 10
-7.0473641176
 20
18.5055756932
 10
-7.0732368694
 20
18.5224449654
 10
-7.0972240563
 20
18.5420611347
 10
-7.1193716481
 20
18.5643356569
 10
-7.1389398329
 20
18.5885841251
 10
-7.1558505806
 20
18.6148811165
 10
-7.1701819214
 20
18.6431520539
 10
-7.1814281332
 20
18.6724887991
 10
-7.1894206422
 20
18.7025886395
 10
-7.1943280222
 20
18.7337542877
 10
-7.1961502733
 20
18.7659857438
  0
LWPOLYLINE
  5
460
100
AcDbEntity
  8
ASSI
100
AcDbPolyline
 62
253
  6
CONTINUOUS
 90
16
 70
0
 10
-10.145628166
 20
-23.8443375673
 10
-10.1441878024
 20
-23.8217477512
 10
-10.1400341766
 20
-23.7994044949
 10
-10.1332126182
 20
-23.7775517018
 10
-10.1237975734
 20
-23.7564279091
 10
-10.1118918112
 20
-23.7362637273
 10
-10.0976253183
 20
-23.7172793153
 10
-10.0811538426
 20
-23.6996819166
 10
-10.0626571876
 20
-23.6836636168
 10
-10.0423372835
 20
-23.6693992808
 10
-10.0204157096
 20
-23.6570444923
 10
-9.9971319835
 20
-23.6467342761
 10
-9.9727410979
 20
-23.6385814053
 10
-9.9475096728
 20
-23.6326747012
 10
-9.9217129104
 20
-23.6290783004
 10
-9.8956323968
 20
-23.6278312164
  0
LWPOLYLINE
  5
461
100
AcDbEntity
  8
0
100
AcDbPolyline
 62
7
  6
CONTINUOUS
 90
25
 70
0
 10
-6.6038497267
 20
18.7659857438
 10
-6.6067055285
 20
18.7252838025
 10
-6.6144232186
 20
18.6864864653
 10
-6.627002797
 20
18.6495937321
 10
-6.6449427402
 20
18.613920166
 10
-6.6677445717
 20
18.580151204
 10
-6.6939128624
 20
18.5503431567
 10
-6.7235118462
 20
18.5249242526
 10
-6.7564772892
 20
18.5034662633
 10
-6.79112106
 20
18.4867408133
 10
-6.8274560378
 20
18.4749275774
 10
-6.8654693433
 20
18.4678468809
 10
-6.9034342077
 20
18.4657313248
 10
-6.9413746927
 20
18.4687672195
 10
-6.9792667366
 20
18.4767682545
 10
-7.0153113841
 20
18.4894080997
 10
-7.0494688949
 20
18.5069408766
 10
-7.0817790093
 20
18.5291124638
 10
-7.110561994
 20
18.554834167
 10
-7.1356164727
 20
18.584319151
 10
-7.1571438216
 20
18.617354251
 10
-7.1740684366
 20
18.6522112791
 10
-7.1860317828
 20
18.6883141726
 10
-7.193392395
 20
18.7262389941
 10
-7.1961502733
 20
18.7659857438
  0
LINE
  5
462
100
AcDbEntity
  8
ASSI
100
AcDbLine
 62
7
  6
CONTINUOUS
 10
-9.5121049871
 20
-16.4
 11
-9.5498994568
 21
-16.8602367608
  0
LINE
  5
463
100
AcDbEntity
  8
DRAFT
100
AcDbLine
 62
7
  6
CONTINUOUS
 10
-9.5121049871
 20
-16.4
 11
-9.5498994568
 21
-16.8602367608
  0
LWPOLYLINE
  5
464
100
AcDbEntity
  8
0
100
AcDbPolyline
 62
7
  6
CONTINUOUS
 90
12
 70
0
 10
-3.5
 20
23.9541479441
 10
-3.5002541483
 20
23.9524901082
 10
-3.5010190675
 20
23.9503478903
 10
-3.502298038
 20
23.9477212905
 10
-3.5040927356
 20
23.9446162269
 10
-3.5064057653
 20
23.9410267813
 10
-3.5092431906
 20
23.9369351995
 10
-3.5126063515
 20
23.9323457235
 10
-3.5164990046
 20
23.9272541112
 10
-3.520936686
 20
23.9216298825
 10
-3.5259196285
 20
23.915485329
 10
-3.5314569667
 20
23.9088081591
  0
LINE
  5
465
100
AcDbEntity
  8
ASSI
100
AcDbLine
 62
7
  6
CONTINUOUS
 10
6.3303359491
 20
17.288054608
 11
6.3516319481
 21
17.309350607
  0
LINE
  5
466
100
AcDbEntity
  8
0
100
AcDbLine
 62
7
  6
CONTINUOUS
 10
6.3303359491
 20
17.288054608
 11
6.3516319481
 21
17.309350607
  0
LINE
  5
467
100
AcDbEntity
  8
ASSI
100
AcDbLine
 62
253
  6
CONTINUOUS
 10
8.2956743158
 20
-8.3590720148
 11
8.045712392
 21
-8.3590720151
  0
LINE
  5
468
100
AcDbEntity
  8
0
100
AcDbLine
 62
253
  6
CONTINUOUS
 10
8.2956743158
 20
-8.3590720148
 11
8.045712392
 21
-8.3590720151
  0
LINE
  5
469
100
AcDbEntity
  8
ASSI
100
AcDbLine
 62
253
  6
CONTINUOUS
 10
-8.045712392
 20
-8.3590707295
 11
-8.2956743158
 21
-8.3590707296
  0
LINE
  5
46A
100
AcDbEntity
  8
0
100
AcDbLine
 62
253
  6
CONTINUOUS
 10
-8.045712392
 20
-8.3590707295
 11
-8.2956743158
 21
-8.3590707296
  0
LINE
  5
46B
100
AcDbEntity
  8
ASSI
100
AcDbLine
 62
7
  6
CONTINUOUS
 10
3.9700513793
 20
-16.8647171262
 11
3.7693983204
 21
-16.6228362517
  0
LINE
  5
46C
100
AcDbEntity
  8
DRAFT
100
AcDbLine
 62
7
  6
CONTINUOUS
 10
3.9700513793
 20
-16.8647171262
 11
3.7693983204
 21
-16.6228362517
  0
LWPOLYLINE
  5
46D
100
AcDbEntity
  8
0
100
AcDbPolyline
 62
7
  6
CONTINUOUS
 90
10
 70
0
 10
7.2896854419
 20
-24.3851625059
 10
7.2963547045
 20
-24.3950164051
 10
7.3034852893
 20
-24.4045418038
 10
7.3110610411
 20
-24.4137171191
 10
7.3190647995
 20
-24.4225215661
 10
7.3274784339
 20
-24.4309352005
 10
7.3362828809
 20
-24.4389389589
 10
7.3454581962
 20
-24.4465147107
 10
7.3549835949
 20
-24.4536452955
 10
7.3648374941
 20
-24.4603145581
  0
LINE
  5
46E
100
AcDbEntity
  8
ASSI
100
AcDbLine
 62
7
  6
CONTINUOUS
 10
-4.5612601473
 20
-19.4260209733
 11
-4.5322894108
 21
-19.6
  0
LINE
  5
46F
100
AcDbEntity
  8
DRAFT
100
AcDbLine
 62
7
  6
CONTINUOUS
 10
-4.5612601473
 20
-19.4260209733
 11
-4.5322894108
 21
-19.6
  0
LWPOLYLINE
  5
470
100
AcDbEntity
  8
0
100
AcDbPolyline
 62
7
  6
CONTINUOUS
 90
25
 70
0
 10
-7.1350621988
 20
19.9383357914
 10
-7.132830668
 20
19.9060898663
 10
-7.1267157217
 20
19.8753214279
 10
-7.1167173599
 20
19.846030476
 10
-7.1024296312
 20
19.8176515945
 10
-7.0842584871
 20
19.7907501996
 10
-7.0634217819
 20
19.76702254
 10
-7.0398782926
 20
19.746836893
 10
-7.0136692423
 20
19.7298249811
 10
-6.9861361547
 20
19.7165782215
 10
-6.9572683221
 20
19.7072349692
 10
-6.9270764522
 20
19.7016568692
 10
-6.896934192
 20
19.7000202723
 10
-6.8668271539
 20
19.7024702051
 10
-6.8367697254
 20
19.708861641
 10
-6.8081787166
 20
19.7189358518
 10
-6.7810754812
 20
19.7329066058
 10
-6.7554386653
 20
19.7505601345
 10
-6.7326210178
 20
19.7709964042
 10
-6.7128025426
 20
19.7943567264
 10
-6.6958032357
 20
19.8204997894
 10
-6.6824358344
 20
19.8481016244
 10
-6.6729712511
 20
19.8767209082
 10
-6.6671385734
 20
19.9067989639
 10
-6.6649378012
 20
19.9383357914
  0
LWPOLYLINE
  5
471
100
AcDbEntity
  8
ASSI
100
AcDbPolyline
 62
7
  6
CONTINUOUS
 90
28
 70
0
 10
-7.1350621988
 20
19.9383357914
 10
-7.1332448853
 20
19.9098157005
 10
-7.1284458575
 20
19.8824393845
 10
-7.1206651154
 20
19.8562068433
 10
-7.1097021166
 20
19.8307972675
 10
-7.0957574034
 20
19.8065314666
 10
-7.0794326033
 20
19.7843718688
 10
-7.060640789
 20
19.7644174711
 10
-7.0394688877
 20
19.7465692764
 10
-7.0167793084
 20
19.7314927227
 10
-6.9925268204
 20
19.7192985364
 10
-6.9667566545
 20
19.7098759909
 10
-6.9404669118
 20
19.7035583443
 10
-6.913643795
 20
19.7004566496
 10
-6.8863011014
 20
19.7004598536
 10
-6.8594783244
 20
19.7035680551
 10
-6.8331890307
 20
19.7098925225
 10
-6.8074196534
 20
19.7193219874
 10
-6.7831689862
 20
19.731522742
 10
-6.7604822374
 20
19.7466065135
 10
-6.7393141986
 20
19.7644615748
 10
-6.7205280375
 20
19.7844190377
 10
-6.7042121818
 20
19.8065759645
 10
-6.6902782037
 20
19.8308352929
 10
-6.6793239882
 20
19.8562369473
 10
-6.67154883
 20
19.8824609026
 10
-6.6667534344
 20
19.909827184
 10
-6.6649378012
 20
19.9383357914
  0
LWPOLYLINE
  5
472
100
AcDbEntity
  8
ASSI
100
AcDbPolyline
 62
7
  6
CONTINUOUS
 90
16
 70
0
 10
-7.254371834
 20
24.2456323968
 10
-7.2557421625
 20
24.2717635094
 10
-7.259836366
 20
24.2976083364
 10
-7.2666095896
 20
24.3228837286
 10
-7.2759876276
 20
24.3473127755
 10
-7.2878677366
 20
24.3706278389
 10
-7.3021197614
 20
24.392573485
 10
-7.3185875605
 20
24.4129092831
 10
-7.3370907169
 20
24.4314124395
 10
-7.357426515
 20
24.4478802386
 10
-7.3793721611
 20
24.4621322634
 10
-7.4026872245
 20
24.4740123724
 10
-7.4271162714
 20
24.4833904104
 10
-7.4523916636
 20
24.490163634
 10
-7.4782364906
 20
24.4942578375
 10
-7.5043676032
 20
24.495628166
  0
LINE
  5
473
100
AcDbEntity
  8
ASSI
100
AcDbLine
 62
7
  6
CONTINUOUS
 10
-7.25
 20
24.2500042308
 11
-7.2513695074
 21
24.2761364629
  0
LINE
  5
474
100
AcDbEntity
  8
ASSI
100
AcDbLine
 62
253
  6
CONTINUOUS
 10
-6.6649378012
 20
19.9383357914
 11
-6.6038497267
 21
18.7659857438
  0
LINE
  5
475
100
AcDbEntity
  8
0
100
AcDbLine
 62
253
  6
CONTINUOUS
 10
-6.6649378012
 20
19.9383357914
 11
-6.6038497267
 21
18.7659857438
  0
LWPOLYLINE
  5
476
100
AcDbEntity
  8
0
100
AcDbPolyline
 62
7
  6
CONTINUOUS
 90
3
 70
0
 10
-7.254371834
 20
24.2456323968
 10
-7.2546553848
 20
24.2575274183
 10
-7.2555045897
 20
24.269395495
  0
LWPOLYLINE
  5
477
100
AcDbEntity
  8
0
100
AcDbPolyline
 62
7
  6
CONTINUOUS
 90
3
 70
0
 10
-7.25
 20
24.2500042308
 10
-7.2502831502
 20
24.261899516
 10
-7.2511319658
 20
24.2737678556
  0
LINE
  5
478
100
AcDbEntity
  8
RACCORDO
100
AcDbLine
 62
7
  6
CONTINUOUS
 10
-6.3942403901
 20
-3.4045057833
 11
-6.3899131307
 21
-4.1120028559
  0
LINE
  5
479
100
AcDbEntity
  8
DRAFT
100
AcDbLine
 62
7
  6
CONTINUOUS
 10
-6.3931931883
 20
-2.8031007712
 11
-6.3852274692
 21
-4.1120028559
  0
LINE
  5
47A
100
AcDbEntity
  8
DRAFT
100
AcDbLine
 62
7
  6
CONTINUOUS
 10
-6.3607299323
 20
-2.4852125236
 11
-6.3696311477
 21
-1.0225926109
  0
LINE
  5
47B
100
AcDbEntity
  8
DRAFT
100
AcDbLine
 62
7
  6
CONTINUOUS
 10
-6.389651054
 20
2.2670158985
 11
-6.3931931883
 21
2.8490483344
  0
LINE
  5
47C
100
AcDbEntity
  8
RACCORDO
100
AcDbLine
 62
7
  6
CONTINUOUS
 10
-6.3939434839
 20
3.7455693088
 11
-6.3849901075
 21
2.2670442641
  0
LINE
  5
47D
100
AcDbEntity
  8
RACCORDO
100
AcDbLine
 62
7
  6
CONTINUOUS
 10
-6.3696311477
 20
-0.2692733792
 11
-6.351828717
 21
-3.209096102
  0
LINE
  5
47E
100
AcDbEntity
  8
RACCORDO
100
AcDbLine
 62
253
  6
CONTINUOUS
 10
-6.0924571802
 20
3.7455693088
 11
-6.0849919352
 21
2.5127883802
  0
LINE
  5
47F
100
AcDbEntity
  8
RACCORDO
100
AcDbLine
 62
253
  6
CONTINUOUS
 10
-6.0696329754
 20
-0.023529263
 11
-6.0518305447
 21
-2.9633519859
  0
LINE
  5
480
100
AcDbEntity
  8
ASSI
100
AcDbLine
 62
7
  6
CONTINUOUS
 10
-6.6649378012
 20
20.0
 11
-6.6649378012
 21
19.9383357914
  0
LINE
  5
481
100
AcDbEntity
  8
0
100
AcDbLine
 62
7
  6
CONTINUOUS
 10
-6.6649378012
 20
20.0
 11
-6.6649378012
 21
19.9383357914
  0
LINE
  5
482
100
AcDbEntity
  8
ASSI
100
AcDbLine
 62
7
  6
CONTINUOUS
 10
-6.6649378012
 20
-19.9383357914
 11
-6.6649378012
 21
-20.0
  0
LINE
  5
483
100
AcDbEntity
  8
0
100
AcDbLine
 62
7
  6
CONTINUOUS
 10
-6.6649378012
 20
-19.9383357914
 11
-6.6649378012
 21
-20.0
  0
LINE
  5
484
100
AcDbEntity
  8
ASSI
100
AcDbLine
 62
7
  6
CONTINUOUS
 10
-6.6038497267
 20
18.7659857438
 11
-6.6038497267
 21
17.309350607
  0
LINE
  5
485
100
AcDbEntity
  8
0
100
AcDbLine
 62
7
  6
CONTINUOUS
 10
-6.6038497267
 20
18.7659857438
 11
-6.6038497267
 21
17.309350607
  0
LINE
  5
486
100
AcDbEntity
  8
ASSI
100
AcDbLine
 62
7
  6
CONTINUOUS
 10
-6.5506158332
 20
-19.6
 11
-6.5506158332
 21
-20.0
  0
LINE
  5
487
100
AcDbEntity
  8
0
100
AcDbLine
 62
7
  6
CONTINUOUS
 10
-6.5506158332
 20
-19.6
 11
-6.5506158332
 21
-20.0
  0
LINE
  5
488
100
AcDbEntity
  8
0
100
AcDbLine
 62
7
  6
CONTINUOUS
 10
-6.55
 20
-3.6502498994
 11
-6.55
 21
-4.5845439608
  0
LINE
  5
489
100
AcDbEntity
  8
ASSI
100
AcDbLine
 62
7
  6
CONTINUOUS
 10
-6.5
 20
15.9541648703
 11
-6.5
 21
16.27
  0
LINE
  5
48A
100
AcDbEntity
  8
0
100
AcDbLine
 62
7
  6
CONTINUOUS
 10
-6.5
 20
15.9541648703
 11
-6.5
 21
16.27
  0
LINE
  5
48B
100
AcDbEntity
  8
0
100
AcDbLine
 62
7
  6
CONTINUOUS
 10
-6.45
 20
-12.3036933041
 11
-6.45
 21
-4.1120028559
  0
LINE
  5
48C
100
AcDbEntity
  8
RACCORDO
100
AcDbLine
 62
7
  6
CONTINUOUS
 10
-6.3942403901
 20
1.501143709
 11
-6.3942403901
 21
3.7455693088
  0
LINE
  5
48D
100
AcDbEntity
  8
DRAFT
100
AcDbLine
 62
7
  6
CONTINUOUS
 10
-6.3931931883
 20
2.8490483344
 11
-6.3931931883
 21
-2.8031007712
  0
LINE
  5
48E
100
AcDbEntity
  8
RACCORDO
100
AcDbLine
 62
7
  6
CONTINUOUS
 10
-6.3849901075
 20
1.501143709
 11
-6.3849901075
 21
2.2670442641
  0
LINE
  5
48F
100
AcDbEntity
  8
RACCORDO
100
AcDbLine
 62
7
  6
CONTINUOUS
 10
-6.3696311477
 20
-0.2692733792
 11
-6.3696311477
 21
-1.0225926109
  0
LINE
  5
490
100
AcDbEntity
  8
DRAFT
100
AcDbLine
 62
7
  6
CONTINUOUS
 10
-6.3607299323
 20
-4.1120028559
 11
-6.3607299323
 21
-2.4852125236
  0
LINE
  5
491
100
AcDbEntity
  8
RACCORDO
100
AcDbLine
 62
7
  6
CONTINUOUS
 10
-6.351828717
 20
-4.1120028559
 11
-6.351828717
 21
-3.209096102
  0
LINE
  5
492
100
AcDbEntity
  8
ASSI
100
AcDbLine
 62
7
  6
CONTINUOUS
 10
-6.3516319481
 20
16.4183680519
 11
-6.3516319481
 21
17.309350607
  0
LINE
  5
493
100
AcDbEntity
  8
0
100
AcDbLine
 62
7
  6
CONTINUOUS
 10
-6.3516319481
 20
16.4183680519
 11
-6.3516319481
 21
17.309350607
  0
LINE
  5
494
100
AcDbEntity
  8
ASSI
100
AcDbLine
 62
7
  6
CONTINUOUS
 10
-6.3258467315
 20
15.764526841
 11
-6.3258467315
 21
15.8009747569
  0
LINE
  5
495
100
AcDbEntity
  8
0
100
AcDbLine
 62
7
  6
CONTINUOUS
 10
-6.3258467315
 20
15.764526841
 11
-6.3258467315
 21
15.8009747569
  0
LINE
  5
496
100
AcDbEntity
  8
ASSI
100
AcDbLine
 62
7
  6
CONTINUOUS
 10
-6.25
 20
5.0562125796
 11
-6.25
 21
13.8475670731
  0
LINE
  5
497
100
AcDbEntity
  8
0
100
AcDbLine
 62
7
  6
CONTINUOUS
 10
-6.15
 20
-4.1120028559
 11
-6.15
 21
-3.5384264195
  0
LINE
  5
498
100
AcDbEntity
  8
0
100
AcDbLine
 62
7
  6
CONTINUOUS
 10
-6.0
 20
2.1974229467
 11
-6.0
 21
-0.023529263
  0
LINE
  5
499
100
AcDbEntity
  8
0
100
AcDbLine
 62
7
  6
CONTINUOUS
 10
-5.9
 20
-3.5384264195
 11
-5.9
 21
-2.9648499832
  0
LINE
  5
49A
100
AcDbEntity
  8
ASSI
100
AcDbLine
 62
7
  6
CONTINUOUS
 10
-6.5191970738
 20
-17.141404475
 11
-6.5216450967
 21
-19.4260209733
  0
LINE
  5
49B
100
AcDbEntity
  8
0
100
AcDbLine
 62
7
  6
CONTINUOUS
 10
-6.5191970738
 20
-17.141404475
 11
-6.5216450967
 21
-19.4260209733
  0
LINE
  5
49C
100
AcDbEntity
  8
ASSI
100
AcDbLine
 62
7
  6
CONTINUOUS
 10
-6.5052970084
 20
19.1629601676
 11
-6.5200097822
 21
17.4770432671
  0
LINE
  5
49D
100
AcDbEntity
  8
0
100
AcDbLine
 62
7
  6
CONTINUOUS
 10
-6.5052970084
 20
19.1629601676
 11
-6.5200097822
 21
17.4770432671
  0
LINE
  5
49E
100
AcDbEntity
  8
ASSI
100
AcDbLine
 62
7
  6
CONTINUOUS
 10
-6.3433119166
 20
14.2409611822
 11
-6.3267937453
 21
15.5924539101
  0
LINE
  5
49F
100
AcDbEntity
  8
0
100
AcDbLine
 62
7
  6
CONTINUOUS
 10
-6.3433119166
 20
14.2409611822
 11
-6.3267937453
 21
15.5924539101
  0
LINE
  5
4A0
100
AcDbEntity
  8
ASSI
100
AcDbLine
 62
7
  6
CONTINUOUS
 10
-6.3093453702
 20
14.9279184107
 11
-6.3225496058
 21
13.8475670731
  0
LINE
  5
4A1
100
AcDbEntity
  8
0
100
AcDbLine
 62
7
  6
CONTINUOUS
 10
-6.3093453702
 20
14.9279184107
 11
-6.3225496058
 21
13.8475670731
  0
LINE
  5
4A2
100
AcDbEntity
  8
ASSI
100
AcDbLine
 62
253
  6
CONTINUOUS
 10
-6.5191970738
 20
-17.141404475
 11
-6.6649378012
 21
-19.9383357914
  0
LINE
  5
4A3
100
AcDbEntity
  8
0
100
AcDbLine
 62
253
  6
CONTINUOUS
 10
-6.5191970738
 20
-17.141404475
 11
-6.6649378012
 21
-19.9383357914
  0
LWPOLYLINE
  5
4A4
100
AcDbEntity
  8
ASSI
100
AcDbPolyline
 62
7
  6
CONTINUOUS
 90
31
 70
0
 10
-7.2808029262
 20
-17.141404475
 10
-7.2783824058
 20
-17.0983306677
 10
-7.2719147334
 20
-17.0567746467
 10
-7.2613999091
 20
-17.0167364119
 10
-7.2465776419
 20
-16.9778058302
 10
-7.2277082227
 20
-16.9403930347
 10
-7.2055725242
 20
-16.9057284248
 10
-7.1800820272
 20
-16.8739519746
 10
-7.1513252508
 20
-16.8449237101
 10
-7.1203486257
 20
-16.8194541086
 10
-7.0871300399
 20
-16.7976738979
 10
-7.0516916052
 20
-16.7794523502
 10
-7.0151460884
 20
-16.7652077598
 10
-6.9774954934
 20
-16.75503774
 10
-6.9387378163
 20
-16.7488446774
 10
-6.8999798115
 20
-16.7467540258
 10
-6.8612211696
 20
-16.7488492831
 10
-6.8224622
 20
-16.7550469514
 10
-6.7848105856
 20
-16.7652219909
 10
-6.7482642315
 20
-16.7794725472
 10
-6.7128252327
 20
-16.7977004746
 10
-6.6796075563
 20
-16.8194862963
 10
-6.6486338636
 20
-16.844961056
 10
-6.6198814934
 20
-16.8739937101
 10
-6.5943964291
 20
-16.9057716507
 10
-6.572267864
 20
-16.9404336609
 10
-6.5534066048
 20
-16.9778409577
 10
-6.5385910558
 20
-17.0167645832
 10
-6.528080685
 20
-17.056794885
 10
-6.5216160244
 20
-17.0983415156
 10
-6.5191970738
 20
-17.141404475
  0
LWPOLYLINE
  5
4A5
100
AcDbEntity
  8
0
100
AcDbPolyline
 62
7
  6
CONTINUOUS
 90
28
 70
0
 10
-7.2808029262
 20
-17.141404475
 10
-7.2779689698
 20
-17.0936354328
 10
-7.2699938797
 20
-17.047646556
 10
-7.2568776557
 20
-17.0034378444
 10
-7.2381356538
 20
-16.9602737285
 10
-7.214252518
 20
-16.9188897779
 10
-7.1866821808
 20
-16.8814927015
 10
-7.1553902583
 20
-16.8485752973
 10
-7.1204111343
 20
-16.8196447674
 10
-7.0833018927
 20
-16.7954294263
 10
-7.0441346224
 20
-16.7760739623
 10
-7.0028372345
 20
-16.7614336871
 10
-6.9607505455
 20
-16.7518028515
 10
-6.9177693299
 20
-16.74728045
 10
-6.8739988132
 20
-16.747767488
 10
-6.8310954891
 20
-16.7532612324
 10
-6.7891198529
 20
-16.7639095671
 10
-6.7480114093
 20
-16.7795646082
 10
-6.7092451651
 20
-16.7997799701
 10
-6.672819113
 20
-16.8247649519
 10
-6.6387352602
 20
-16.8543102546
 10
-6.6084746359
 20
-16.8873415952
 10
-6.5821962375
 20
-16.9240632276
 10
-6.5597410674
 20
-16.964270898
 10
-6.5421131624
 20
-17.0062775623
 10
-6.5296472012
 20
-17.0495208726
 10
-6.522008505
 20
-17.0945631768
 10
-6.5191970738
 20
-17.141404475
  0
LWPOLYLINE
  5
4A6
100
AcDbEntity
  8
0
100
AcDbPolyline
 62
7
  6
CONTINUOUS
 90
3
 70
0
 10
7.2896854419
 20
24.3851625059
 10
7.2834926084
 20
24.3750024283
 10
7.2777902312
 20
24.3645591876
  0
LWPOLYLINE
  5
4A7
100
AcDbEntity
  8
ASSI
100
AcDbPolyline
 62
7
  6
CONTINUOUS
 90
3
 70
0
 10
7.8176867079
 20
21.6973892622
 10
7.7667471527
 20
21.6221692933
 10
7.7400780306
 20
21.5832139905
  0
LWPOLYLINE
  5
4A8
100
AcDbEntity
  8
DRAFT
100
AcDbPolyline
 62
7
  6
CONTINUOUS
 90
4
 70
0
 10
7.8176867079
 20
21.6973892622
 10
7.7640459661
 20
21.6182814201
 10
7.736684232
 20
21.5782973885
 10
7.7088982221
 20
21.5381681977
  0
LINE
  5
4A9
100
AcDbEntity
  8
ASSI
100
AcDbLine
 62
7
  6
CONTINUOUS
 10
7.7400780306
 20
21.5832139905
 11
7.6840912322
 21
21.5027201669
  0
LWPOLYLINE
  5
4AA
100
AcDbEntity
  8
DRAFT
100
AcDbPolyline
 62
7
  6
CONTINUOUS
 90
3
 70
0
 10
7.7088982221
 20
21.5381681977
 10
7.5954124361
 20
21.3764763181
 10
7.5666456542
 20
21.3359869487
  0
LWPOLYLINE
  5
4AB
100
AcDbEntity
  8
ASSI
100
AcDbPolyline
 62
7
  6
CONTINUOUS
 90
3
 70
0
 10
7.6840912322
 20
21.5027201669
 10
7.5966129635
 20
21.3781728951
 10
7.5666456542
 20
21.3359869487
  0
LINE
  5
4AC
100
AcDbEntity
  8
ASSI
100
AcDbLine
 62
7
  6
CONTINUOUS
 10
6.5
 20
16.2699372043
 11
6.3309918611
 21
16.1009290654
  0
LINE
  5
4AD
100
AcDbEntity
  8
0
100
AcDbLine
 62
7
  6
CONTINUOUS
 10
6.5
 20
16.2699372043
 11
6.3309918611
 21
16.1009290654
  0
LINE
  5
4AE
100
AcDbEntity
  8
0
100
AcDbLine
 62
7
  6
CONTINUOUS
 10
4.5
 20
-6.0371801653
 11
-4.5
 21
-6.0371801653
  0
LINE
  5
4AF
100
AcDbEntity
  8
0
100
AcDbLine
 62
7
  6
CONTINUOUS
 10
8.9
 20
-5.8132720272
 11
6.45
 21
-5.8132720272
  0
LINE
  5
4B0
100
AcDbEntity
  8
0
100
AcDbLine
 62
7
  6
CONTINUOUS
 10
-6.45
 20
-5.8132720272
 11
-8.9
 21
-5.8132720272
  0
LINE
  5
4B1
100
AcDbEntity
  8
DRAFT
100
AcDbLine
 62
7
  6
CONTINUOUS
 10
7.5666456542
 20
-21.3359869487
 11
7.6240084104
 21
-21.4170151614
  0
LINE
  5
4B2
100
AcDbEntity
  8
ASSI
100
AcDbLine
 62
7
  6
CONTINUOUS
 10
7.5666456542
 20
-21.3359869487
 11
7.6261555076
 21
-21.4200596364
  0
LWPOLYLINE
  5
4B3
100
AcDbEntity
  8
DRAFT
100
AcDbPolyline
 62
7
  6
CONTINUOUS
 90
3
 70
0
 10
7.6240084104
 20
-21.4170151614
 10
7.7088982221
 20
-21.5381681977
 10
7.736684232
 20
-21.5782973885
  0
LWPOLYLINE
  5
4B4
100
AcDbEntity
  8
ASSI
100
AcDbPolyline
 62
7
  6
CONTINUOUS
 90
3
 70
0
 10
7.6261555076
 20
-21.4200596364
 10
7.7124844129
 20
-21.5433567333
 10
7.7400780306
 20
-21.5832139905
  0
LWPOLYLINE
  5
4B5
100
AcDbEntity
  8
DRAFT
100
AcDbPolyline
 62
7
  6
CONTINUOUS
 90
3
 70
0
 10
7.736684232
 20
-21.5782973885
 10
7.7910467914
 20
-21.6580046829
 10
7.8176867079
 20
-21.6973892622
  0
LWPOLYLINE
  5
4B6
100
AcDbEntity
  8
ASSI
100
AcDbPolyline
 62
7
  6
CONTINUOUS
 90
3
 70
0
 10
7.7400780306
 20
-21.5832139905
 10
7.7926167118
 20
-21.6602426643
 10
7.8176867079
 20
-21.6973892622
  0
LWPOLYLINE
  5
4B7
100
AcDbEntity
  8
0
100
AcDbPolyline
 62
7
  6
CONTINUOUS
 90
3
 70
0
 10
7.2777902312
 20
-24.3645591876
 10
7.2834926084
 20
-24.3750024283
 10
7.2896854419
 20
-24.3851625059
  0
LINE
  5
4B8
100
AcDbEntity
  8
ASSI
100
AcDbLine
 62
7
  6
CONTINUOUS
 10
-4.5612601473
 20
-19.4260209733
 11
-4.563606387
 21
-17.236393613
  0
LINE
  5
4B9
100
AcDbEntity
  8
DRAFT
100
AcDbLine
 62
7
  6
CONTINUOUS
 10
-4.5612601473
 20
-19.4260209733
 11
-4.563606387
 21
-17.236393613
  0
LINE
  5
4BA
100
AcDbEntity
  8
ASSI
100
AcDbLine
 62
7
  6
CONTINUOUS
 10
-4.5322894108
 20
-19.6
 11
-4.5322894108
 21
-20.0
  0
LINE
  5
4BB
100
AcDbEntity
  8
DRAFT
100
AcDbLine
 62
7
  6
CONTINUOUS
 10
-4.5322894108
 20
-19.6
 11
-4.5322894108
 21
-20.0
  0
LINE
  5
4BC
100
AcDbEntity
  8
0
100
AcDbLine
 62
7
  6
CONTINUOUS
 10
-4.5
 20
-6.0371801653
 11
-4.5
 21
-10.952092431
  0
LINE
  5
4BD
100
AcDbEntity
  8
ASSI
100
AcDbLine
 62
7
  6
CONTINUOUS
 10
-4.5
 20
-20.0
 11
-4.5
 21
-17.7956556053
  0
LINE
  5
4BE
100
AcDbEntity
  8
RACCORDO
100
AcDbLine
 62
7
  6
CONTINUOUS
 10
-4.5
 20
-20.0
 11
-4.5
 21
-17.7956556053
  0
LINE
  5
4BF
100
AcDbEntity
  8
ASSI
100
AcDbLine
 62
7
  6
CONTINUOUS
 10
-4.45
 20
24.0
 11
-4.45
 21
23.3679449472
  0
LINE
  5
4C0
100
AcDbEntity
  8
0
100
AcDbLine
 62
7
  6
CONTINUOUS
 10
-4.45
 20
24.0
 11
-4.45
 21
23.3679449472
  0
LINE
  5
4C1
100
AcDbEntity
  8
ASSI
100
AcDbLine
 62
7
  6
CONTINUOUS
 10
-4.45
 20
22.9320550528
 11
-4.45
 21
22.4
  0
LINE
  5
4C2
100
AcDbEntity
  8
0
100
AcDbLine
 62
7
  6
CONTINUOUS
 10
-4.45
 20
22.9320550528
 11
-4.45
 21
22.4
  0
LINE
  5
4C3
100
AcDbEntity
  8
ASSI
100
AcDbLine
 62
7
  6
CONTINUOUS
 10
-4.45
 20
-22.4
 11
-4.45
 21
-22.9320550528
  0
LINE
  5
4C4
100
AcDbEntity
  8
0
100
AcDbLine
 62
7
  6
CONTINUOUS
 10
-4.45
 20
-22.4
 11
-4.45
 21
-22.9320550528
  0
LINE
  5
4C5
100
AcDbEntity
  8
ASSI
100
AcDbLine
 62
7
  6
CONTINUOUS
 10
-4.45
 20
-23.3679449472
 11
-4.45
 21
-24.0
  0
LINE
  5
4C6
100
AcDbEntity
  8
0
100
AcDbLine
 62
7
  6
CONTINUOUS
 10
-4.45
 20
-23.3679449472
 11
-4.45
 21
-24.0
  0
LINE
  5
4C7
100
AcDbEntity
  8
ASSI
100
AcDbLine
 62
7
  6
CONTINUOUS
 10
-4.406077753
 20
-23.9538922731
 11
-4.406077753
 21
-22.356077753
  0
LINE
  5
4C8
100
AcDbEntity
  8
0
100
AcDbLine
 62
7
  6
CONTINUOUS
 10
-4.406077753
 20
-23.9538922731
 11
-4.406077753
 21
-22.356077753
  0
LINE
  5
4C9
100
AcDbEntity
  8
ASSI
100
AcDbLine
 62
7
  6
CONTINUOUS
 10
-4.406077753
 20
22.356077753
 11
-4.406077753
 21
23.9538922731
  0
LINE
  5
4CA
100
AcDbEntity
  8
0
100
AcDbLine
 62
7
  6
CONTINUOUS
 10
-4.406077753
 20
22.356077753
 11
-4.406077753
 21
23.9538922731
  0
LINE
  5
4CB
100
AcDbEntity
  8
ASSI
100
AcDbLine
 62
7
  6
CONTINUOUS
 10
-3.5
 20
-22.3560930869
 11
-3.5
 21
-23.9552966802
  0
LINE
  5
4CC
100
AcDbEntity
  8
ASSI
100
AcDbLine
 62
7
  6
CONTINUOUS
 10
-3.5
 20
-23.9563493531
 11
-3.5
 21
-23.9941821702
  0
LINE
  5
4CD
100
AcDbEntity
  8
0
100
AcDbLine
 62
7
  6
CONTINUOUS
 10
-3.5
 20
-22.3560930869
 11
-3.5
 21
-23.9941821702
  0
LINE
  5
4CE
100
AcDbEntity
  8
ASSI
100
AcDbLine
 62
7
  6
CONTINUOUS
 10
-3.5
 20
-14.7796862477
 11
-3.5
 21
-14.0
  0
LINE
  5
4CF
100
AcDbEntity
  8
DRAFT
100
AcDbLine
 62
7
  6
CONTINUOUS
 10
-3.5
 20
-14.7796862477
 11
-3.5
 21
-14.0
  0
LINE
  5
4D0
100
AcDbEntity
  8
ASSI
100
AcDbLine
 62
7
  6
CONTINUOUS
 10
-3.5
 20
22.3560930869
 11
-3.5
 21
23.955318546
  0
LINE
  5
4D1
100
AcDbEntity
  8
ASSI
100
AcDbLine
 62
7
  6
CONTINUOUS
 10
-3.5
 20
23.9563493531
 11
-3.5
 21
23.9941821702
  0
LINE
  5
4D2
100
AcDbEntity
  8
0
100
AcDbLine
 62
7
  6
CONTINUOUS
 10
-3.5
 20
22.3560930869
 11
-3.5
 21
23.9541479441
  0
LINE
  5
4D3
100
AcDbEntity
  8
0
100
AcDbLine
 62
7
  6
CONTINUOUS
 10
-3.5
 20
23.9563493531
 11
-3.5
 21
23.9941821702
  0
LINE
  5
4D4
100
AcDbEntity
  8
RACCORDO
100
AcDbLine
 62
7
  6
CONTINUOUS
 10
-3.4
 20
-14.2
 11
-3.4
 21
-15.6
  0
LINE
  5
4D5
100
AcDbEntity
  8
ASSI
100
AcDbLine
 62
7
  6
CONTINUOUS
 10
-3.9427736518
 20
-15.6047893388
 11
-3.9700513793
 21
-16.8647171262
  0
LINE
  5
4D6
100
AcDbEntity
  8
RACCORDO
100
AcDbLine
 62
7
  6
CONTINUOUS
 10
-3.9427736518
 20
-15.6047893388
 11
-3.9700513793
 21
-16.8647171262
  0
LINE
  5
4D7
100
AcDbEntity
  8
ASSI
100
AcDbLine
 62
7
  6
CONTINUOUS
 10
-3.7452569859
 20
-15.507774954
 11
-3.7693983204
 21
-16.6228362517
  0
LINE
  5
4D8
100
AcDbEntity
  8
DRAFT
100
AcDbLine
 62
7
  6
CONTINUOUS
 10
-3.7452569859
 20
-15.507774954
 11
-3.7693983204
 21
-16.6228362517
  0
LWPOLYLINE
  5
4D9
100
AcDbEntity
  8
0
100
AcDbPolyline
 62
7
  6
CONTINUOUS
 90
4
 70
0
 10
-7.2569175251
 20
-24.2812097429
 10
-7.2555045897
 20
-24.269395495
 10
-7.2546553848
 20
-24.2575274183
 10
-7.254371834
 20
-24.2456323968
  0
LWPOLYLINE
  5
4DA
100
AcDbEntity
  8
0
100
AcDbPolyline
 62
7
  6
CONTINUOUS
 90
4
 70
0
 10
-7.2525445259
 20
-24.2855823661
 10
-7.2511319658
 20
-24.2737678556
 10
-7.2502831502
 20
-24.261899516
 10
-7.25
 20
-24.2500042308
  0
LWPOLYLINE
  5
4DB
100
AcDbEntity
  8
ASSI
100
AcDbPolyline
 62
7
  6
CONTINUOUS
 90
9
 70
0
 10
4.406077753
 20
23.9538922731
 10
4.4046230587
 20
23.9495485007
 10
4.4005644127
 20
23.9425032942
 10
4.3937864872
 20
23.9327566535
 10
4.3841892045
 20
23.9203720281
 10
4.3716931085
 20
23.9052859685
 10
4.3562447112
 20
23.8873081267
 10
4.3378059242
 20
23.8663416633
 10
4.3163774735
 20
23.8424834177
  0
LWPOLYLINE
  5
4DC
100
AcDbEntity
  8
0
100
AcDbPolyline
 62
7
  6
CONTINUOUS
 90
8
 70
0
 10
7.2777902312
 20
24.3645591876
 10
7.2725912278
 20
24.3538564463
 10
7.2679073742
 20
24.3429184493
 10
7.2637492787
 20
24.3317699738
 10
7.2601263583
 20
24.320436279
 10
7.2570468183
 20
24.3089430388
 10
7.2545176323
 20
24.2973162875
 10
7.2525445259
 20
24.2855823661
  0
LINE
  5
4DD
100
AcDbEntity
  8
ASSI
100
AcDbLine
 62
7
  6
CONTINUOUS
 10
-11.1665823117
 20
-5.0
 11
-11.1316721818
 21
-4.9650898701
  0
LINE
  5
4DE
100
AcDbEntity
  8
0
100
AcDbLine
 62
7
  6
CONTINUOUS
 10
-11.1665823117
 20
-5.0
 11
-11.1316721818
 21
-4.9650898701
  0
LINE
  5
4DF
100
AcDbEntity
  8
ASSI
100
AcDbLine
 62
7
  6
CONTINUOUS
 10
-10.1907663376
 20
-5.0
 11
-10.1558562078
 21
-4.9650898701
  0
LINE
  5
4E0
100
AcDbEntity
  8
0
100
AcDbLine
 62
7
  6
CONTINUOUS
 10
-10.1907663376
 20
-5.0
 11
-10.1558562078
 21
-4.9650898701
  0
LINE
  5
4E1
100
AcDbEntity
  8
ASSI
100
AcDbLine
 62
7
  6
CONTINUOUS
 10
-11.1665823117
 20
-5.0
 11
-10.1907663376
 21
-5.0
  0
LINE
  5
4E2
100
AcDbEntity
  8
0
100
AcDbLine
 62
7
  6
CONTINUOUS
 10
-11.1665823117
 20
-5.0
 11
-10.1907663376
 21
-5.0
  0
LINE
  5
4E3
100
AcDbEntity
  8
ASSI
100
AcDbLine
 62
7
  6
CONTINUOUS
 10
11.1665823117
 20
-5.0
 11
10.1907663376
 21
-5.0
  0
LINE
  5
4E4
100
AcDbEntity
  8
0
100
AcDbLine
 62
7
  6
CONTINUOUS
 10
11.1665823117
 20
-5.0
 11
10.1907663376
 21
-5.0
  0
LINE
  5
4E5
100
AcDbEntity
  8
ASSI
100
AcDbLine
 62
7
  6
CONTINUOUS
 10
-11.1316721818
 20
-4.9650898701
 11
-10.1558562078
 21
-4.9650898701
  0
LINE
  5
4E6
100
AcDbEntity
  8
0
100
AcDbLine
 62
7
  6
CONTINUOUS
 10
-11.1316721818
 20
-4.9650898701
 11
-10.1558562078
 21
-4.9650898701
  0
LINE
  5
4E7
100
AcDbEntity
  8
ASSI
100
AcDbLine
 62
7
  6
CONTINUOUS
 10
10.1558562078
 20
-4.9650898701
 11
11.1316721818
 21
-4.9650898701
  0
LINE
  5
4E8
100
AcDbEntity
  8
0
100
AcDbLine
 62
7
  6
CONTINUOUS
 10
10.1558562078
 20
-4.9650898701
 11
11.1316721818
 21
-4.9650898701
  0
LINE
  5
4E9
100
AcDbEntity
  8
0
100
AcDbLine
 62
7
  6
CONTINUOUS
 10
6.45
 20
-4.6855792922
 11
-6.45
 21
-4.6855792922
  0
LINE
  5
4EA
100
AcDbEntity
  8
0
100
AcDbLine
 62
7
  6
CONTINUOUS
 10
6.55
 20
-4.5845439608
 11
6.45
 21
-4.5845439608
  0
LINE
  5
4EB
100
AcDbEntity
  8
0
100
AcDbLine
 62
7
  6
CONTINUOUS
 10
-6.45
 20
-4.5845439608
 11
-6.55
 21
-4.5845439608
  0
LINE
  5
4EC
100
AcDbEntity
  8
0
100
AcDbLine
 62
7
  6
CONTINUOUS
 10
-6.45
 20
-4.1120028559
 11
-6.15
 21
-4.1120028559
  0
LINE
  5
4ED
100
AcDbEntity
  8
0
100
AcDbLine
 62
7
  6
CONTINUOUS
 10
6.15
 20
-4.1120028559
 11
6.45
 21
-4.1120028559
  0
LINE
  5
4EE
100
AcDbEntity
  8
ASSI
100
AcDbLine
 62
7
  6
CONTINUOUS
 10
-9.5121049871
 20
-4.0
 11
-8.9
 21
-4.0
  0
LINE
  5
4EF
100
AcDbEntity
  8
0
100
AcDbLine
 62
7
  6
CONTINUOUS
 10
-9.5121049871
 20
-4.0
 11
-8.9
 21
-4.0
  0
LINE
  5
4F0
100
AcDbEntity
  8
ASSI
100
AcDbLine
 62
7
  6
CONTINUOUS
 10
8.9
 20
-4.0
 11
9.5121049871
 21
-4.0
  0
LINE
  5
4F1
100
AcDbEntity
  8
0
100
AcDbLine
 62
7
  6
CONTINUOUS
 10
8.9
 20
-4.0
 11
9.5121049871
 21
-4.0
  0
LINE
  5
4F2
100
AcDbEntity
  8
ASSI
100
AcDbLine
 62
253
  6
CONTINUOUS
 10
9.5540885328
 20
-3.9580164543
 11
8.9
 21
-3.9580164543
  0
LINE
  5
4F3
100
AcDbEntity
  8
0
100
AcDbLine
 62
253
  6
CONTINUOUS
 10
9.5540885328
 20
-3.9580164543
 11
8.9
 21
-3.9580164543
  0
LINE
  5
4F4
100
AcDbEntity
  8
ASSI
100
AcDbLine
 62
253
  6
CONTINUOUS
 10
-8.9
 20
-3.9580164543
 11
-9.5540885328
 21
-3.9580164543
  0
LINE
  5
4F5
100
AcDbEntity
  8
0
100
AcDbLine
 62
253
  6
CONTINUOUS
 10
-8.9
 20
-3.9580164543
 11
-9.5540885328
 21
-3.9580164543
  0
LINE
  5
4F6
100
AcDbEntity
  8
ASSI
100
AcDbLine
 62
253
  6
CONTINUOUS
 10
9.5592336624
 20
-3.6580621458
 11
8.9
 21
-3.6580621458
  0
LINE
  5
4F7
100
AcDbEntity
  8
0
100
AcDbLine
 62
253
  6
CONTINUOUS
 10
9.5592336624
 20
-3.6580621458
 11
8.9
 21
-3.6580621458
  0
LINE
  5
4F8
100
AcDbEntity
  8
ASSI
100
AcDbLine
 62
253
  6
CONTINUOUS
 10
-8.9
 20
-3.6580621458
 11
-9.5592336624
 21
-3.6580621458
  0
LINE
  5
4F9
100
AcDbEntity
  8
0
100
AcDbLine
 62
253
  6
CONTINUOUS
 10
-8.9
 20
-3.6580621458
 11
-9.5592336624
 21
-3.6580621458
  0
LINE
  5
4FA
100
AcDbEntity
  8
RACCORDO
100
AcDbLine
 62
7
  6
CONTINUOUS
 10
9.9976142915
 20
-3.6502498994
 11
6.3927373471
 21
-3.6502498994
  0
LINE
  5
4FB
100
AcDbEntity
  8
RACCORDO
100
AcDbLine
 62
7
  6
CONTINUOUS
 10
-6.3927373471
 20
-3.6502498994
 11
-9.9976142915
 21
-3.6502498994
  0
LINE
  5
4FC
100
AcDbEntity
  8
0
100
AcDbLine
 62
7
  6
CONTINUOUS
 10
-6.15
 20
-3.5384264195
 11
-5.9
 21
-3.5384264195
  0
LINE
  5
4FD
100
AcDbEntity
  8
0
100
AcDbLine
 62
7
  6
CONTINUOUS
 10
5.9
 20
-3.5384264195
 11
6.15
 21
-3.5384264195
  0
LWPOLYLINE
  5
4FE
100
AcDbEntity
  8
RACCORDO
100
AcDbPolyline
 62
7
  6
CONTINUOUS
 90
4
 70
0
 10
9.2921897001
 20
-15.6360280563
 10
9.2845578984
 20
-15.6283976188
 10
9.2438840491
 20
-15.5954669569
 10
9.1999907927
 20
-15.5669684318
  0
LINE
  5
4FF
100
AcDbEntity
  8
ASSI
100
AcDbLine
 62
7
  6
CONTINUOUS
 10
-11.1665823117
 20
5.0
 11
-11.1316721818
 21
4.9650898701
  0
LINE
  5
500
100
AcDbEntity
  8
0
100
AcDbLine
 62
7
  6
CONTINUOUS
 10
-11.1665823117
 20
5.0
 11
-11.1316721818
 21
4.9650898701
  0
LWPOLYLINE
  5
501
100
AcDbEntity
  8
ASSI
100
AcDbPolyline
 62
7
  6
CONTINUOUS
 90
8
 70
0
 10
7.2716133028
 20
-24.3516877999
 10
7.2834930187
 20
-24.3750031366
 10
7.2977447374
 20
-24.3969489068
 10
7.3142123117
 20
-24.4172846821
 10
7.3327153179
 20
-24.4357876883
 10
7.3530510932
 20
-24.4522552626
 10
7.3749968634
 20
-24.4665069813
 10
7.3983122001
 20
-24.4783866972
  0
LINE
  5
502
100
AcDbEntity
  8
ASSI
100
AcDbLine
 62
7
  6
CONTINUOUS
 10
-7.2513695074
 20
24.2761364629
 11
-7.2554630433
 21
24.3019821969
  0
LWPOLYLINE
  5
503
100
AcDbEntity
  8
0
100
AcDbPolyline
 62
7
  6
CONTINUOUS
 90
29
 70
0
 10
-7.2555045897
 20
24.269395495
 10
-7.2569175251
 20
24.2812097429
 10
-7.2588909904
 20
24.2929434001
 10
-7.2614205152
 20
24.3045698874
 10
-7.2645003696
 20
24.316062868
 10
-7.268123577
 20
24.3273963078
 10
-7.27228193
 20
24.338544534
 10
-7.2769660091
 20
24.3494822935
 10
-7.2821652038
 20
24.3601848096
 10
-7.2878677366
 20
24.3706278389
 10
-7.2940606902
 20
24.3807877255
 10
-7.300730036
 20
24.390641455
 10
-7.3078606666
 20
24.4001667064
 10
-7.3154364293
 20
24.4093419031
 10
-7.3234401635
 20
24.4181462611
 10
-7.3318537389
 20
24.4265598365
 10
-7.3406580969
 20
24.4345635707
 10
-7.3498332936
 20
24.4421393334
 10
-7.359358545
 20
24.449269964
 10
-7.3692122745
 20
24.4559393098
 10
-7.3793721611
 20
24.4621322634
 10
-7.3898151904
 20
24.4678347962
 10
-7.4005177065
 20
24.4730339909
 10
-7.411455466
 20
24.47771807
 10
-7.4226036922
 20
24.481876423
 10
-7.433937132
 20
24.4854996304
 10
-7.4454301126
 20
24.4885794848
 10
-7.4570565999
 20
24.4911090096
 10
-7.4687902571
 20
24.4930824749
  0
LINE
  5
504
100
AcDbEntity
  8
0
100
AcDbLine
 62
7
  6
CONTINUOUS
 10
-7.2511319658
 20
24.2737678556
 11
-7.2525445259
 21
24.2855823661
  0
LINE
  5
505
100
AcDbEntity
  8
ASSI
100
AcDbLine
 62
7
  6
CONTINUOUS
 10
-3.0
 20
-20.8
 11
-3.0
 21
-22.3941821702
  0
LINE
  5
506
100
AcDbEntity
  8
0
100
AcDbLine
 62
7
  6
CONTINUOUS
 10
-3.0
 20
-20.8
 11
-3.0
 21
-22.3941821702
  0
LINE
  5
507
100
AcDbEntity
  8
ASSI
100
AcDbLine
 62
7
  6
CONTINUOUS
 10
-3.0
 20
20.8
 11
-3.0
 21
22.3941821702
  0
LINE
  5
508
100
AcDbEntity
  8
0
100
AcDbLine
 62
7
  6
CONTINUOUS
 10
-3.0
 20
20.8
 11
-3.0
 21
22.3941821702
  0
LINE
  5
509
100
AcDbEntity
  8
ASSI
100
AcDbLine
 62
7
  6
CONTINUOUS
 10
-3.5496310858
 20
-15.4980929339
 11
-3.5388472587
 21
-15.0
  0
LINE
  5
50A
100
AcDbEntity
  8
DRAFT
100
AcDbLine
 62
7
  6
CONTINUOUS
 10
-3.5496310858
 20
-15.4980929339
 11
-3.5388472587
 21
-15.0
  0
LINE
  5
50B
100
AcDbEntity
  8
ASSI
100
AcDbLine
 62
7
  6
CONTINUOUS
 10
-6.5216450967
 20
-19.4260209733
 11
-6.5506158332
 21
-19.6
  0
LINE
  5
50C
100
AcDbEntity
  8
0
100
AcDbLine
 62
7
  6
CONTINUOUS
 10
-6.5216450967
 20
-19.4260209733
 11
-6.5506158332
 21
-19.6
  0
LINE
  5
50D
100
AcDbEntity
  8
ASSI
100
AcDbLine
 62
7
  6
CONTINUOUS
 10
-9.5553984776
 20
-19.4260209733
 11
-9.6133443637
 21
-19.6
  0
LINE
  5
50E
100
AcDbEntity
  8
DRAFT
100
AcDbLine
 62
7
  6
CONTINUOUS
 10
-9.5553984776
 20
-19.4260209733
 11
-9.6133443637
 21
-19.6
  0
LINE
  5
50F
100
AcDbEntity
  8
ASSI
100
AcDbLine
 62
7
  6
CONTINUOUS
 10
-9.65
 20
-20.1990396502
 11
-9.6133443637
 21
-20.0889833137
  0
LINE
  5
510
100
AcDbEntity
  8
0
100
AcDbLine
 62
7
  6
CONTINUOUS
 10
-9.65
 20
-20.1990396502
 11
-9.6133443637
 21
-20.0889833137
  0
LINE
  5
511
100
AcDbEntity
  8
ASSI
100
AcDbLine
 62
7
  6
CONTINUOUS
 10
-8.9498936624
 20
-20.9
 11
-8.9132380261
 21
-20.7899436635
  0
LINE
  5
512
100
AcDbEntity
  8
0
100
AcDbLine
 62
7
  6
CONTINUOUS
 10
-8.9498936624
 20
-20.9
 11
-8.9132380261
 21
-20.7899436635
  0
LINE
  5
513
100
AcDbEntity
  8
ASSI
100
AcDbLine
 62
7
  6
CONTINUOUS
 10
7.2716133028
 20
24.3516877999
 11
7.2622357237
 21
24.3272582821
  0
LINE
  5
514
100
AcDbEntity
  8
ASSI
100
AcDbLine
 62
7
  6
CONTINUOUS
 10
8.2858754347
 20
11.0358754347
 11
9.0406132198
 21
11.8038881317
  0
LINE
  5
515
100
AcDbEntity
  8
0
100
AcDbLine
 62
7
  6
CONTINUOUS
 10
8.2858754347
 20
11.0358754347
 11
9.0406132198
 21
11.8038881317
  0
LINE
  5
516
100
AcDbEntity
  8
ASSI
100
AcDbLine
 62
7
  6
CONTINUOUS
 10
9.05
 20
11.8
 11
8.2858754347
 21
11.0358754347
  0
LINE
  5
517
100
AcDbEntity
  8
0
100
AcDbLine
 62
7
  6
CONTINUOUS
 10
9.05
 20
11.8
 11
8.2858754347
 21
11.0358754347
  0
LINE
  5
518
100
AcDbEntity
  8
ASSI
100
AcDbLine
 62
7
  6
CONTINUOUS
 10
9.65
 20
7.0783629857
 11
9.5592336624
 21
7.0407663376
  0
LINE
  5
519
100
AcDbEntity
  8
0
100
AcDbLine
 62
7
  6
CONTINUOUS
 10
9.65
 20
7.0783629857
 11
9.5592336624
 21
7.0407663376
  0
LINE
  5
51A
100
AcDbEntity
  8
ASSI
100
AcDbLine
 62
7
  6
CONTINUOUS
 10
10.1
 20
6.5
 11
10.1907663376
 21
6.5375966481
  0
LINE
  5
51B
100
AcDbEntity
  8
0
100
AcDbLine
 62
7
  6
CONTINUOUS
 10
10.1
 20
6.5
 11
10.1907663376
 21
6.5375966481
  0
LINE
  5
51C
100
AcDbEntity
  8
0
100
AcDbLine
 62
7
  6
CONTINUOUS
 10
-6.0518305447
 20
-2.9633519859
 11
6.0518305447
 21
-2.9633519859
  0
LINE
  5
51D
100
AcDbEntity
  8
DRAFT
100
AcDbLine
 62
7
  6
CONTINUOUS
 10
-6.3931931883
 20
-2.8031007712
 11
-6.3607299323
 21
-2.8031007712
  0
LINE
  5
51E
100
AcDbEntity
  8
DRAFT
100
AcDbLine
 62
7
  6
CONTINUOUS
 10
6.3931931883
 20
-2.8031007712
 11
6.3607299323
 21
-2.8031007712
  0
LINE
  5
51F
100
AcDbEntity
  8
ASSI
100
AcDbLine
 62
7
  6
CONTINUOUS
 10
9.65
 20
-7.0783629857
 11
9.5592336624
 21
-7.0407663376
  0
LINE
  5
520
100
AcDbEntity
  8
0
100
AcDbLine
 62
7
  6
CONTINUOUS
 10
9.65
 20
-7.0783629857
 11
9.5592336624
 21
-7.0407663376
  0
LINE
  5
521
100
AcDbEntity
  8
ASSI
100
AcDbLine
 62
7
  6
CONTINUOUS
 10
10.1
 20
-6.5
 11
10.1907663376
 21
-6.5375966481
  0
LINE
  5
522
100
AcDbEntity
  8
0
100
AcDbLine
 62
7
  6
CONTINUOUS
 10
10.1
 20
-6.5
 11
10.1907663376
 21
-6.5375966481
  0
LINE
  5
523
100
AcDbEntity
  8
ASSI
100
AcDbLine
 62
7
  6
CONTINUOUS
 10
7.2622357237
 20
-24.3272582821
 11
7.2716133028
 21
-24.3516877999
  0
LINE
  5
524
100
AcDbEntity
  8
ASSI
100
AcDbLine
 62
7
  6
CONTINUOUS
 10
-9.5242313121
 20
19.8214267532
 11
-9.65
 21
20.1990396502
  0
LINE
  5
525
100
AcDbEntity
  8
0
100
AcDbLine
 62
7
  6
CONTINUOUS
 10
-9.5242313121
 20
19.8214267532
 11
-9.65
 21
20.1990396502
  0
LINE
  5
526
100
AcDbEntity
  8
ASSI
100
AcDbLine
 62
7
  6
CONTINUOUS
 10
-8.8258650579
 20
20.5276115984
 11
-8.9498936624
 21
20.9
  0
LINE
  5
527
100
AcDbEntity
  8
0
100
AcDbLine
 62
7
  6
CONTINUOUS
 10
-8.8258650579
 20
20.5276115984
 11
-8.9498936624
 21
20.9
  0
LWPOLYLINE
  5
528
100
AcDbEntity
  8
0
100
AcDbPolyline
 62
7
  6
CONTINUOUS
 90
7
 70
0
 10
-7.2545176323
 20
24.2973162875
 10
-7.2570468183
 20
24.3089430388
 10
-7.2601263583
 20
24.320436279
 10
-7.2637492787
 20
24.3317699738
 10
-7.2679073742
 20
24.3429184493
 10
-7.2725912278
 20
24.3538564463
 10
-7.2777902312
 20
24.3645591876
  0
LINE
  5
529
100
AcDbEntity
  8
0
100
AcDbLine
 62
7
  6
CONTINUOUS
 10
-7.2525445259
 20
24.2855823661
 11
-7.2545176323
 21
24.2973162875
  0
LINE
  5
52A
100
AcDbEntity
  8
ASSI
100
AcDbLine
 62
7
  6
CONTINUOUS
 10
-1.0
 20
23.7941787855
 11
-1.0
 21
22.3947639644
  0
LINE
  5
52B
100
AcDbEntity
  8
0
100
AcDbLine
 62
7
  6
CONTINUOUS
 10
-1.0
 20
23.7941787855
 11
-1.0
 21
22.3947639644
  0
LINE
  5
52C
100
AcDbEntity
  8
ASSI
100
AcDbLine
 62
7
  6
CONTINUOUS
 10
-1.0
 20
-22.3947639644
 11
-1.0
 21
-23.7941787855
  0
LINE
  5
52D
100
AcDbEntity
  8
0
100
AcDbLine
 62
7
  6
CONTINUOUS
 10
-1.0
 20
-22.3947639644
 11
-1.0
 21
-23.7941787855
  0
LINE
  5
52E
100
AcDbEntity
  8
ASSI
100
AcDbLine
 62
7
  6
CONTINUOUS
 10
-3.5388472587
 20
-15.0
 11
-3.5
 21
-14.7796862477
  0
LINE
  5
52F
100
AcDbEntity
  8
DRAFT
100
AcDbLine
 62
7
  6
CONTINUOUS
 10
-3.5388472587
 20
-15.0
 11
-3.5
 21
-14.7796862477
  0
LWPOLYLINE
  5
530
100
AcDbEntity
  8
0
100
AcDbPolyline
 62
7
  6
CONTINUOUS
 90
17
 70
0
 10
4.406077753
 20
23.9538922731
 10
4.4057383877
 20
23.9521633765
 10
4.4048931765
 20
23.9499539919
 10
4.4035387391
 20
23.9472641193
 10
4.4016733582
 20
23.9440998644
 10
4.3992942519
 20
23.9404551215
 10
4.396394987
 20
23.936311573
 10
4.3929741921
 20
23.9316738335
 10
4.3890277862
 20
23.9265372884
 10
4.3845391676
 20
23.9208697763
 10
4.3795072028
 20
23.9146829671
 10
4.3739227336
 20
23.9079651908
 10
4.3677446201
 20
23.9006492766
 10
4.360952427
 20
23.8927312555
 10
4.3535416407
 20
23.8842150963
 10
4.3454841645
 20
23.875045535
 10
4.3367650827
 20
23.8652192852
  0
LWPOLYLINE
  5
531
100
AcDbEntity
  8
ASSI
100
AcDbPolyline
 62
7
  6
CONTINUOUS
 90
4
 70
0
 10
-7.2622357237
 20
-24.3272582821
 10
-7.2554630433
 20
-24.3019821969
 10
-7.2513695074
 20
-24.2761364629
 10
-7.25
 20
-24.2500042308
  0
LINE
  5
532
100
AcDbEntity
  8
ASSI
100
AcDbLine
 62
7
  6
CONTINUOUS
 10
9.5121049871
 20
9.9121049871
 11
9.3
 21
9.7
  0
LINE
  5
533
100
AcDbEntity
  8
0
100
AcDbLine
 62
7
  6
CONTINUOUS
 10
9.5121049871
 20
9.9121049871
 11
9.3
 21
9.7
  0
LINE
  5
534
100
AcDbEntity
  8
ASSI
100
AcDbLine
 62
7
  6
CONTINUOUS
 10
9.65
 20
9.8549870025
 11
10.2378950129
 21
10.4428820155
  0
LINE
  5
535
100
AcDbEntity
  8
0
100
AcDbLine
 62
7
  6
CONTINUOUS
 10
9.65
 20
9.8549870025
 11
10.2378950129
 21
10.4428820155
  0
LINE
  5
536
100
AcDbEntity
  8
RACCORDO
100
AcDbLine
 62
7
  6
CONTINUOUS
 10
-6.0696329754
 20
-0.023529263
 11
6.0696329754
 21
-0.023529263
  0
LINE
  5
537
100
AcDbEntity
  8
ASSI
100
AcDbLine
 62
7
  6
CONTINUOUS
 10
-9.5121049871
 20
8.2
 11
-9.5540885328
 21
8.2419835457
  0
LINE
  5
538
100
AcDbEntity
  8
0
100
AcDbLine
 62
7
  6
CONTINUOUS
 10
-9.5121049871
 20
8.2
 11
-9.5540885328
 21
8.2419835457
  0
LINE
  5
539
100
AcDbEntity
  8
ASSI
100
AcDbLine
 62
7
  6
CONTINUOUS
 10
-10.2378950129
 20
10.4428820155
 11
-9.65
 21
9.8549870025
  0
LINE
  5
53A
100
AcDbEntity
  8
0
100
AcDbLine
 62
7
  6
CONTINUOUS
 10
-10.2378950129
 20
10.4428820155
 11
-9.65
 21
9.8549870025
  0
LINE
  5
53B
100
AcDbEntity
  8
ASSI
100
AcDbLine
 62
7
  6
CONTINUOUS
 10
-7.2554630433
 20
24.3019821969
 11
-7.2622357237
 21
24.3272582821
  0
LINE
  5
53C
100
AcDbEntity
  8
ASSI
100
AcDbLine
 62
7
  6
CONTINUOUS
 10
1.0
 20
23.7941787855
 11
1.0
 21
22.3947639644
  0
LINE
  5
53D
100
AcDbEntity
  8
0
100
AcDbLine
 62
7
  6
CONTINUOUS
 10
1.0
 20
23.7941787855
 11
1.0
 21
22.3947639644
  0
LINE
  5
53E
100
AcDbEntity
  8
ASSI
100
AcDbLine
 62
7
  6
CONTINUOUS
 10
1.0
 20
-22.3947639644
 11
1.0
 21
-23.7941787855
  0
LINE
  5
53F
100
AcDbEntity
  8
0
100
AcDbLine
 62
7
  6
CONTINUOUS
 10
1.0
 20
-22.3947639644
 11
1.0
 21
-23.7941787855
  0
LWPOLYLINE
  5
540
100
AcDbEntity
  8
0
100
AcDbPolyline
 62
7
  6
CONTINUOUS
 90
17
 70
0
 10
-4.406077753
 20
-23.9538922731
 10
-4.4057385362
 20
-23.9521632105
 10
-4.4048940336
 20
-23.9499553694
 10
-4.4035412886
 20
-23.9472687498
 10
-4.4016792021
 20
-23.9441095958
 10
-4.3993053092
 20
-23.9404716634
 10
-4.3964127269
 20
-23.9363362198
 10
-4.393000596
 20
-23.9317094421
 10
-4.3890644483
 20
-23.9265851532
 10
-4.3845843978
 20
-23.9209260898
 10
-4.3795562741
 20
-23.9147419737
 10
-4.3739714355
 20
-23.9080230831
 10
-4.3677903805
 20
-23.9007029882
 10
-4.3609925925
 20
-23.892777383
 10
-4.3535728747
 20
-23.8842505736
 10
-4.3455049403
 20
-23.8750690485
 10
-4.3367739381
 20
-23.8652290101
  0
LWPOLYLINE
  5
541
100
AcDbEntity
  8
ASSI
100
AcDbPolyline
 62
7
  6
CONTINUOUS
 90
4
 70
0
 10
7.2622357237
 20
24.3272582821
 10
7.2554630433
 20
24.3019821969
 10
7.2513695074
 20
24.2761364629
 10
7.25
 20
24.2500042308
  0
LINE
  5
542
100
AcDbEntity
  8
ASSI
100
AcDbLine
 62
7
  6
CONTINUOUS
 10
8.8258650579
 20
20.5276115984
 11
8.9498936624
 21
20.9
  0
LINE
  5
543
100
AcDbEntity
  8
0
100
AcDbLine
 62
7
  6
CONTINUOUS
 10
8.8258650579
 20
20.5276115984
 11
8.9498936624
 21
20.9
  0
LINE
  5
544
100
AcDbEntity
  8
ASSI
100
AcDbLine
 62
7
  6
CONTINUOUS
 10
-7.2716133028
 20
-24.3516877999
 11
-7.2622357237
 21
-24.3272582821
  0
LINE
  5
545
100
AcDbEntity
  8
ASSI
100
AcDbLine
 62
7
  6
CONTINUOUS
 10
9.5121049871
 20
8.2
 11
9.5540885328
 21
8.2419835457
  0
LINE
  5
546
100
AcDbEntity
  8
0
100
AcDbLine
 62
7
  6
CONTINUOUS
 10
9.5121049871
 20
8.2
 11
9.5540885328
 21
8.2419835457
  0
LINE
  5
547
100
AcDbEntity
  8
DRAFT
100
AcDbLine
 62
7
  6
CONTINUOUS
 10
6.0
 20
1.501143709
 11
6.3849901075
 21
1.501143709
  0
LINE
  5
548
100
AcDbEntity
  8
DRAFT
100
AcDbLine
 62
7
  6
CONTINUOUS
 10
-6.0
 20
1.501143709
 11
-6.3849901075
 21
1.501143709
  0
LINE
  5
549
100
AcDbEntity
  8
ASSI
100
AcDbLine
 62
7
  6
CONTINUOUS
 10
-9.5121049871
 20
9.9121049871
 11
-9.3
 21
9.7
  0
LINE
  5
54A
100
AcDbEntity
  8
0
100
AcDbLine
 62
7
  6
CONTINUOUS
 10
-9.5121049871
 20
9.9121049871
 11
-9.3
 21
9.7
  0
LINE
  5
54B
100
AcDbEntity
  8
ASSI
100
AcDbLine
 62
7
  6
CONTINUOUS
 10
-9.05
 20
11.8
 11
-8.2858754347
 21
11.0358754347
  0
LINE
  5
54C
100
AcDbEntity
  8
0
100
AcDbLine
 62
7
  6
CONTINUOUS
 10
-9.05
 20
11.8
 11
-8.2858754347
 21
11.0358754347
  0
LINE
  5
54D
100
AcDbEntity
  8
ASSI
100
AcDbLine
 62
7
  6
CONTINUOUS
 10
-9.0406132198
 20
11.8038881317
 11
-8.2858754347
 21
11.0358754347
  0
LINE
  5
54E
100
AcDbEntity
  8
0
100
AcDbLine
 62
7
  6
CONTINUOUS
 10
-9.0406132198
 20
11.8038881317
 11
-8.2858754347
 21
11.0358754347
  0
LINE
  5
54F
100
AcDbEntity
  8
ASSI
100
AcDbLine
 62
7
  6
CONTINUOUS
 10
-7.2622357237
 20
24.3272582821
 11
-7.2716133028
 21
24.3516877999
  0
LINE
  5
550
100
AcDbEntity
  8
ASSI
100
AcDbLine
 62
7
  6
CONTINUOUS
 10
8.9498936624
 20
-20.9
 11
8.9132380261
 21
-20.7899436635
  0
LINE
  5
551
100
AcDbEntity
  8
0
100
AcDbLine
 62
7
  6
CONTINUOUS
 10
8.9498936624
 20
-20.9
 11
8.9132380261
 21
-20.7899436635
  0
LINE
  5
552
100
AcDbEntity
  8
ASSI
100
AcDbLine
 62
7
  6
CONTINUOUS
 10
7.2554630433
 20
-24.3019821969
 11
7.2622357237
 21
-24.3272582821
  0
LWPOLYLINE
  5
553
100
AcDbEntity
  8
0
100
AcDbPolyline
 62
7
  6
CONTINUOUS
 90
7
 70
0
 10
7.2545176323
 20
-24.2973162875
 10
7.2570468183
 20
-24.3089430388
 10
7.2601263583
 20
-24.320436279
 10
7.2637492787
 20
-24.3317699738
 10
7.2679073742
 20
-24.3429184493
 10
7.2725912278
 20
-24.3538564463
 10
7.2777902312
 20
-24.3645591876
  0
LINE
  5
554
100
AcDbEntity
  8
ASSI
100
AcDbLine
 62
7
  6
CONTINUOUS
 10
3.5388472587
 20
-15.0
 11
3.5
 21
-14.7796862477
  0
LINE
  5
555
100
AcDbEntity
  8
DRAFT
100
AcDbLine
 62
7
  6
CONTINUOUS
 10
3.5388472587
 20
-15.0
 11
3.5
 21
-14.7796862477
  0
LINE
  5
556
100
AcDbEntity
  8
ASSI
100
AcDbLine
 62
7
  6
CONTINUOUS
 10
3.5496310858
 20
-15.4980929339
 11
3.5388472587
 21
-15.0
  0
LINE
  5
557
100
AcDbEntity
  8
DRAFT
100
AcDbLine
 62
7
  6
CONTINUOUS
 10
3.5496310858
 20
-15.4980929339
 11
3.5388472587
 21
-15.0
  0
LINE
  5
558
100
AcDbEntity
  8
ASSI
100
AcDbLine
 62
7
  6
CONTINUOUS
 10
3.7452569859
 20
-15.507774954
 11
3.7693983204
 21
-16.6228362517
  0
LINE
  5
559
100
AcDbEntity
  8
DRAFT
100
AcDbLine
 62
7
  6
CONTINUOUS
 10
3.7452569859
 20
-15.507774954
 11
3.7693983204
 21
-16.6228362517
  0
LINE
  5
55A
100
AcDbEntity
  8
ASSI
100
AcDbLine
 62
7
  6
CONTINUOUS
 10
3.9427736518
 20
-15.6047893388
 11
3.9700513793
 21
-16.8647171262
  0
LINE
  5
55B
100
AcDbEntity
  8
RACCORDO
100
AcDbLine
 62
7
  6
CONTINUOUS
 10
3.9427736518
 20
-15.6047893388
 11
3.9700513793
 21
-16.8647171262
  0
LINE
  5
55C
100
AcDbEntity
  8
ASSI
100
AcDbLine
 62
7
  6
CONTINUOUS
 10
3.0
 20
-20.8
 11
3.0
 21
-22.3941821702
  0
LINE
  5
55D
100
AcDbEntity
  8
0
100
AcDbLine
 62
7
  6
CONTINUOUS
 10
3.0
 20
-20.8
 11
3.0
 21
-22.3941821702
  0
LINE
  5
55E
100
AcDbEntity
  8
ASSI
100
AcDbLine
 62
7
  6
CONTINUOUS
 10
3.0
 20
20.8
 11
3.0
 21
22.3941821702
  0
LINE
  5
55F
100
AcDbEntity
  8
0
100
AcDbLine
 62
7
  6
CONTINUOUS
 10
3.0
 20
20.8
 11
3.0
 21
22.3941821702
  0
LINE
  5
560
100
AcDbEntity
  8
RACCORDO
100
AcDbLine
 62
7
  6
CONTINUOUS
 10
3.4
 20
-15.6
 11
3.4
 21
-14.2
  0
LINE
  5
561
100
AcDbEntity
  8
ASSI
100
AcDbLine
 62
7
  6
CONTINUOUS
 10
3.5
 20
-22.3560930869
 11
3.5
 21
-23.9552966802
  0
LINE
  5
562
100
AcDbEntity
  8
ASSI
100
AcDbLine
 62
7
  6
CONTINUOUS
 10
3.5
 20
-23.9563493531
 11
3.5
 21
-23.9941821702
  0
LINE
  5
563
100
AcDbEntity
  8
0
100
AcDbLine
 62
7
  6
CONTINUOUS
 10
3.5
 20
-22.3560930869
 11
3.5
 21
-23.9941821702
  0
LINE
  5
564
100
AcDbEntity
  8
ASSI
100
AcDbLine
 62
7
  6
CONTINUOUS
 10
3.5
 20
-14.7796862477
 11
3.5
 21
-14.0
  0
LINE
  5
565
100
AcDbEntity
  8
DRAFT
100
AcDbLine
 62
7
  6
CONTINUOUS
 10
3.5
 20
-14.7796862477
 11
3.5
 21
-14.0
  0
LINE
  5
566
100
AcDbEntity
  8
ASSI
100
AcDbLine
 62
7
  6
CONTINUOUS
 10
3.5
 20
22.3560930869
 11
3.5
 21
23.955318546
  0
LINE
  5
567
100
AcDbEntity
  8
ASSI
100
AcDbLine
 62
7
  6
CONTINUOUS
 10
3.5
 20
23.9563493531
 11
3.5
 21
23.9941821702
  0
LINE
  5
568
100
AcDbEntity
  8
0
100
AcDbLine
 62
7
  6
CONTINUOUS
 10
3.5
 20
22.3560930869
 11
3.5
 21
23.9541479441
  0
LINE
  5
569
100
AcDbEntity
  8
0
100
AcDbLine
 62
7
  6
CONTINUOUS
 10
3.5
 20
23.9563493531
 11
3.5
 21
23.9941821702
  0
LINE
  5
56A
100
AcDbEntity
  8
ASSI
100
AcDbLine
 62
7
  6
CONTINUOUS
 10
9.5242313121
 20
19.8214267532
 11
9.65
 21
20.1990396502
  0
LINE
  5
56B
100
AcDbEntity
  8
0
100
AcDbLine
 62
7
  6
CONTINUOUS
 10
9.5242313121
 20
19.8214267532
 11
9.65
 21
20.1990396502
  0
LWPOLYLINE
  5
56C
100
AcDbEntity
  8
ASSI
100
AcDbPolyline
 62
7
  6
CONTINUOUS
 90
9
 70
0
 10
-4.406077753
 20
-23.9538922731
 10
-4.404623008
 20
-23.9495483537
 10
-4.4005642338
 20
-23.9425029869
 10
-4.3937861282
 20
-23.9327561726
 10
-4.3841886428
 20
-23.9203713415
 10
-4.3716923474
 20
-23.9052850628
 10
-4.356243769
 20
-23.8873070449
 10
-4.3378048466
 20
-23.8663404685
 10
-4.3163763214
 20
-23.8424821527
  0
LINE
  5
56D
100
AcDbEntity
  8
ASSI
100
AcDbLine
 62
7
  6
CONTINUOUS
 10
-10.1
 20
-6.5
 11
-10.1907663376
 21
-6.5375966481
  0
LINE
  5
56E
100
AcDbEntity
  8
0
100
AcDbLine
 62
7
  6
CONTINUOUS
 10
-10.1
 20
-6.5
 11
-10.1907663376
 21
-6.5375966481
  0
LINE
  5
56F
100
AcDbEntity
  8
ASSI
100
AcDbLine
 62
7
  6
CONTINUOUS
 10
-9.65
 20
-7.0783629857
 11
-9.5592336624
 21
-7.0407663376
  0
LINE
  5
570
100
AcDbEntity
  8
0
100
AcDbLine
 62
7
  6
CONTINUOUS
 10
-9.65
 20
-7.0783629857
 11
-9.5592336624
 21
-7.0407663376
  0
LINE
  5
571
100
AcDbEntity
  8
0
100
AcDbLine
 62
7
  6
CONTINUOUS
 10
6.0
 20
2.1974229467
 11
-6.0
 21
2.1974229467
  0
LINE
  5
572
100
AcDbEntity
  8
RACCORDO
100
AcDbLine
 62
7
  6
CONTINUOUS
 10
6.0849919352
 20
2.5127883802
 11
-6.0849919352
 21
2.5127883802
  0
LINE
  5
573
100
AcDbEntity
  8
0
100
AcDbLine
 62
7
  6
CONTINUOUS
 10
8.9
 20
3.7455693088
 11
-8.9
 21
3.7455693088
  0
LINE
  5
574
100
AcDbEntity
  8
ASSI
100
AcDbLine
 62
7
  6
CONTINUOUS
 10
-10.1
 20
6.5
 11
-10.1907663376
 21
6.5375966481
  0
LINE
  5
575
100
AcDbEntity
  8
0
100
AcDbLine
 62
7
  6
CONTINUOUS
 10
-10.1
 20
6.5
 11
-10.1907663376
 21
6.5375966481
  0
LINE
  5
576
100
AcDbEntity
  8
ASSI
100
AcDbLine
 62
7
  6
CONTINUOUS
 10
-9.65
 20
7.0783629857
 11
-9.5592336624
 21
7.0407663376
  0
LINE
  5
577
100
AcDbEntity
  8
0
100
AcDbLine
 62
7
  6
CONTINUOUS
 10
-9.65
 20
7.0783629857
 11
-9.5592336624
 21
7.0407663376
  0
LINE
  5
578
100
AcDbEntity
  8
ASSI
100
AcDbLine
 62
7
  6
CONTINUOUS
 10
10.1907663376
 20
-5.0
 11
10.1558562078
 21
-4.9650898701
  0
LINE
  5
579
100
AcDbEntity
  8
0
100
AcDbLine
 62
7
  6
CONTINUOUS
 10
10.1907663376
 20
-5.0
 11
10.1558562078
 21
-4.9650898701
  0
LINE
  5
57A
100
AcDbEntity
  8
ASSI
100
AcDbLine
 62
7
  6
CONTINUOUS
 10
9.65
 20
-20.1990396502
 11
9.6133443637
 21
-20.0889833137
  0
LINE
  5
57B
100
AcDbEntity
  8
0
100
AcDbLine
 62
7
  6
CONTINUOUS
 10
9.65
 20
-20.1990396502
 11
9.6133443637
 21
-20.0889833137
  0
LINE
  5
57C
100
AcDbEntity
  8
ASSI
100
AcDbLine
 62
7
  6
CONTINUOUS
 10
9.5553984776
 20
-19.4260209733
 11
9.6133443637
 21
-19.6
  0
LINE
  5
57D
100
AcDbEntity
  8
DRAFT
100
AcDbLine
 62
7
  6
CONTINUOUS
 10
9.5553984776
 20
-19.4260209733
 11
9.6133443637
 21
-19.6
  0
LINE
  5
57E
100
AcDbEntity
  8
0
100
AcDbLine
 62
7
  6
CONTINUOUS
 10
7.2525445259
 20
-24.2855823661
 11
7.2545176323
 21
-24.2973162875
  0
LINE
  5
57F
100
AcDbEntity
  8
ASSI
100
AcDbLine
 62
7
  6
CONTINUOUS
 10
6.5216450967
 20
-19.4260209733
 11
6.5506158332
 21
-19.6
  0
LINE
  5
580
100
AcDbEntity
  8
0
100
AcDbLine
 62
7
  6
CONTINUOUS
 10
6.5216450967
 20
-19.4260209733
 11
6.5506158332
 21
-19.6
  0
LINE
  5
581
100
AcDbEntity
  8
ASSI
100
AcDbLine
 62
7
  6
CONTINUOUS
 10
7.2513695074
 20
-24.2761364629
 11
7.2554630433
 21
-24.3019821969
  0
LINE
  5
582
100
AcDbEntity
  8
ASSI
100
AcDbLine
 62
253
  6
CONTINUOUS
 10
6.5191970738
 20
-17.141404475
 11
6.6649378012
 21
-19.9383357914
  0
LINE
  5
583
100
AcDbEntity
  8
0
100
AcDbLine
 62
253
  6
CONTINUOUS
 10
6.5191970738
 20
-17.141404475
 11
6.6649378012
 21
-19.9383357914
  0
LINE
  5
584
100
AcDbEntity
  8
ASSI
100
AcDbLine
 62
7
  6
CONTINUOUS
 10
4.406077753
 20
-23.9538922731
 11
4.406077753
 21
-22.356077753
  0
LINE
  5
585
100
AcDbEntity
  8
0
100
AcDbLine
 62
7
  6
CONTINUOUS
 10
4.406077753
 20
-23.9538922731
 11
4.406077753
 21
-22.356077753
  0
LINE
  5
586
100
AcDbEntity
  8
ASSI
100
AcDbLine
 62
7
  6
CONTINUOUS
 10
4.406077753
 20
22.356077753
 11
4.406077753
 21
23.9538922731
  0
LINE
  5
587
100
AcDbEntity
  8
0
100
AcDbLine
 62
7
  6
CONTINUOUS
 10
4.406077753
 20
22.356077753
 11
4.406077753
 21
23.9538922731
  0
LINE
  5
588
100
AcDbEntity
  8
ASSI
100
AcDbLine
 62
7
  6
CONTINUOUS
 10
4.45
 20
-24.0
 11
4.45
 21
-23.3679449472
  0
LINE
  5
589
100
AcDbEntity
  8
0
100
AcDbLine
 62
7
  6
CONTINUOUS
 10
4.45
 20
-24.0
 11
4.45
 21
-23.3679449472
  0
LINE
  5
58A
100
AcDbEntity
  8
ASSI
100
AcDbLine
 62
7
  6
CONTINUOUS
 10
4.45
 20
-22.9320550528
 11
4.45
 21
-22.4
  0
LINE
  5
58B
100
AcDbEntity
  8
0
100
AcDbLine
 62
7
  6
CONTINUOUS
 10
4.45
 20
-22.9320550528
 11
4.45
 21
-22.4
  0
LINE
  5
58C
100
AcDbEntity
  8
ASSI
100
AcDbLine
 62
7
  6
CONTINUOUS
 10
4.45
 20
22.4
 11
4.45
 21
22.9320550528
  0
LINE
  5
58D
100
AcDbEntity
  8
0
100
AcDbLine
 62
7
  6
CONTINUOUS
 10
4.45
 20
22.4
 11
4.45
 21
22.9320550528
  0
LINE
  5
58E
100
AcDbEntity
  8
ASSI
100
AcDbLine
 62
7
  6
CONTINUOUS
 10
4.45
 20
23.3679449472
 11
4.45
 21
24.0
  0
LINE
  5
58F
100
AcDbEntity
  8
0
100
AcDbLine
 62
7
  6
CONTINUOUS
 10
4.45
 20
23.3679449472
 11
4.45
 21
24.0
  0
LINE
  5
590
100
AcDbEntity
  8
ASSI
100
AcDbLine
 62
7
  6
CONTINUOUS
 10
4.5
 20
-20.0
 11
4.5
 21
-17.7956556053
  0
LINE
  5
591
100
AcDbEntity
  8
RACCORDO
100
AcDbLine
 62
7
  6
CONTINUOUS
 10
4.5
 20
-20.0
 11
4.5
 21
-17.7956556053
  0
LINE
  5
592
100
AcDbEntity
  8
0
100
AcDbLine
 62
7
  6
CONTINUOUS
 10
4.5
 20
-10.952092431
 11
4.5
 21
-6.0371801653
  0
LINE
  5
593
100
AcDbEntity
  8
ASSI
100
AcDbLine
 62
7
  6
CONTINUOUS
 10
4.5322894108
 20
-19.6
 11
4.5322894108
 21
-20.0
  0
LINE
  5
594
100
AcDbEntity
  8
DRAFT
100
AcDbLine
 62
7
  6
CONTINUOUS
 10
4.5322894108
 20
-19.6
 11
4.5322894108
 21
-20.0
  0
LINE
  5
595
100
AcDbEntity
  8
ASSI
100
AcDbLine
 62
7
  6
CONTINUOUS
 10
4.5612601473
 20
-19.4260209733
 11
4.563606387
 21
-17.236393613
  0
LINE
  5
596
100
AcDbEntity
  8
DRAFT
100
AcDbLine
 62
7
  6
CONTINUOUS
 10
4.5612601473
 20
-19.4260209733
 11
4.563606387
 21
-17.236393613
  0
LINE
  5
597
100
AcDbEntity
  8
ASSI
100
AcDbLine
 62
253
  6
CONTINUOUS
 10
6.6649378012
 20
19.9383357914
 11
6.6038497267
 21
18.7659857438
  0
LINE
  5
598
100
AcDbEntity
  8
0
100
AcDbLine
 62
253
  6
CONTINUOUS
 10
6.6649378012
 20
19.9383357914
 11
6.6038497267
 21
18.7659857438
  0
LWPOLYLINE
  5
599
100
AcDbEntity
  8
0
100
AcDbPolyline
 62
7
  6
CONTINUOUS
 90
4
 70
0
 10
7.2525445259
 20
24.2855823661
 10
7.2511319658
 20
24.2737678556
 10
7.2502831502
 20
24.261899516
 10
7.25
 20
24.2500042308
  0
LWPOLYLINE
  5
59A
100
AcDbEntity
  8
0
100
AcDbPolyline
 62
7
  6
CONTINUOUS
 90
4
 70
0
 10
7.2569182318
 20
24.2812146563
 10
7.255504903
 20
24.269398774
 10
7.2546554629
 20
24.2575290557
 10
7.254371834
 20
24.2456323968
  0
LWPOLYLINE
  5
59B
100
AcDbEntity
  8
0
100
AcDbPolyline
 62
7
  6
CONTINUOUS
 90
8
 70
0
 10
-7.2777902312
 20
-24.3645591876
 10
-7.2725912278
 20
-24.3538564463
 10
-7.2679073742
 20
-24.3429184493
 10
-7.2637492787
 20
-24.3317699738
 10
-7.2601263583
 20
-24.320436279
 10
-7.2570468183
 20
-24.3089430388
 10
-7.2545176323
 20
-24.2973162875
 10
-7.2525445259
 20
-24.2855823661
  0
LINE
  5
59C
100
AcDbEntity
  8
ASSI
100
AcDbLine
 62
7
  6
CONTINUOUS
 10
11.1665823117
 20
5.0
 11
11.1316721818
 21
4.9650898701
  0
LINE
  5
59D
100
AcDbEntity
  8
0
100
AcDbLine
 62
7
  6
CONTINUOUS
 10
11.1665823117
 20
5.0
 11
11.1316721818
 21
4.9650898701
  0
LWPOLYLINE
  5
59E
100
AcDbEntity
  8
RACCORDO
100
AcDbPolyline
 62
7
  6
CONTINUOUS
 90
4
 70
0
 10
-9.2921897001
 20
-15.6360280563
 10
-9.2845578984
 20
-15.6283976188
 10
-9.2438840491
 20
-15.5954669569
 10
-9.1999907927
 20
-15.5669684318
  0
LINE
  5
59F
100
AcDbEntity
  8
RACCORDO
100
AcDbLine
 62
7
  6
CONTINUOUS
 10
-9.9976142915
 20
4.0403433245
 11
-8.9
 21
4.0403433245
  0
LINE
  5
5A0
100
AcDbEntity
  8
RACCORDO
100
AcDbLine
 62
7
  6
CONTINUOUS
 10
8.9
 20
4.0403433245
 11
9.9976142915
 21
4.0403433245
  0
LINE
  5
5A1
100
AcDbEntity
  8
ASSI
100
AcDbLine
 62
7
  6
CONTINUOUS
 10
11.1316721818
 20
4.9650898701
 11
10.9951653177
 21
4.9650898701
  0
LINE
  5
5A2
100
AcDbEntity
  8
0
100
AcDbLine
 62
7
  6
CONTINUOUS
 10
11.1316721818
 20
4.9650898701
 11
10.9951653177
 21
4.9650898701
  0
LINE
  5
5A3
100
AcDbEntity
  8
ASSI
100
AcDbLine
 62
7
  6
CONTINUOUS
 10
-10.9951653177
 20
4.9650898701
 11
-11.1316721818
 21
4.9650898701
  0
LINE
  5
5A4
100
AcDbEntity
  8
0
100
AcDbLine
 62
7
  6
CONTINUOUS
 10
-10.9951653177
 20
4.9650898701
 11
-11.1316721818
 21
4.9650898701
  0
LINE
  5
5A5
100
AcDbEntity
  8
DRAFT
100
AcDbLine
 62
7
  6
CONTINUOUS
 10
-10.0
 20
4.9914624407
 11
-8.9
 21
4.9914624407
  0
LINE
  5
5A6
100
AcDbEntity
  8
DRAFT
100
AcDbLine
 62
7
  6
CONTINUOUS
 10
8.9
 20
4.9914624407
 11
10.0
 21
4.9914624407
  0
LINE
  5
5A7
100
AcDbEntity
  8
ASSI
100
AcDbLine
 62
7
  6
CONTINUOUS
 10
11.1665823117
 20
5.0
 11
10.9949524219
 21
5.0
  0
LINE
  5
5A8
100
AcDbEntity
  8
ASSI
100
AcDbLine
 62
7
  6
CONTINUOUS
 10
-11.1665823117
 20
5.0
 11
-10.9949524219
 21
5.0
  0
LINE
  5
5A9
100
AcDbEntity
  8
0
100
AcDbLine
 62
7
  6
CONTINUOUS
 10
-11.1665823117
 20
5.0
 11
-10.9949524219
 21
5.0
  0
LINE
  5
5AA
100
AcDbEntity
  8
0
100
AcDbLine
 62
7
  6
CONTINUOUS
 10
11.1665823117
 20
5.0
 11
10.9949524219
 21
5.0
  0
LINE
  5
5AB
100
AcDbEntity
  8
ASSI
100
AcDbLine
 62
7
  6
CONTINUOUS
 10
8.9
 20
5.0562125796
 11
6.25
 21
5.0562125796
  0
LINE
  5
5AC
100
AcDbEntity
  8
ASSI
100
AcDbLine
 62
7
  6
CONTINUOUS
 10
-6.25
 20
5.0562125796
 11
-8.9
 21
5.0562125796
  0
LWPOLYLINE
  5
5AD
100
AcDbEntity
  8
ASSI
100
AcDbPolyline
 62
7
  6
CONTINUOUS
 90
10
 70
0
 10
-7.802747319
 20
10.9713053015
 10
-7.8187240867
 20
10.9835448006
 10
-7.8365280486
 20
10.9946314262
 10
-7.8561592046
 20
11.0045651783
 10
-7.8777138821
 20
11.0134972388
 10
-7.9010957537
 20
11.0212764259
 10
-7.9260158379
 20
11.0274491935
 10
-7.9523778074
 20
11.0318643599
 10
-7.9802779896
 20
11.034673107
 10
-8.0097163843
 20
11.0358754347
  0
LWPOLYLINE
  5
5AE
100
AcDbEntity
  8
0
100
AcDbPolyline
 62
7
  6
CONTINUOUS
 90
13
 70
0
 10
-7.802747319
 20
10.9713053015
 10
-7.8148796584
 20
10.9806855713
 10
-7.8279760979
 20
10.9894178977
 10
-7.8420366375
 20
10.9975022806
 10
-7.8570726378
 20
11.0049855732
 10
-7.8730727382
 20
11.0118209223
 10
-7.8900028569
 20
11.0178677686
 10
-7.9079008703
 20
11.0231323603
 10
-7.9267289019
 20
11.027608449
 10
-7.9463392403
 20
11.0311367312
 10
-7.9666826482
 20
11.0336641056
 10
-7.9878083629
 20
11.0352436735
 10
-8.0097163843
 20
11.0358754347
  0
LINE
  5
5AF
100
AcDbEntity
  8
ASSI
100
AcDbLine
 62
7
  6
CONTINUOUS
 10
11.1665823117
 20
-5.0
 11
11.1316721818
 21
-4.9650898701
  0
LINE
  5
5B0
100
AcDbEntity
  8
0
100
AcDbLine
 62
7
  6
CONTINUOUS
 10
11.1665823117
 20
-5.0
 11
11.1316721818
 21
-4.9650898701
  0
LWPOLYLINE
  5
5B1
100
AcDbEntity
  8
0
100
AcDbPolyline
 62
7
  6
CONTINUOUS
 90
3
 70
0
 10
-7.2777902312
 20
24.3645591876
 10
-7.2834926084
 20
24.3750024283
 10
-7.2896854419
 20
24.3851625059
  0
LWPOLYLINE
  5
5B2
100
AcDbEntity
  8
ASSI
100
AcDbPolyline
 62
7
  6
CONTINUOUS
 90
8
 70
0
 10
-7.2716133028
 20
24.3516877999
 10
-7.2834930187
 20
24.3750031366
 10
-7.2977447374
 20
24.3969489068
 10
-7.3142123117
 20
24.4172846821
 10
-7.3327153179
 20
24.4357876883
 10
-7.3530510932
 20
24.4522552626
 10
-7.3749968634
 20
24.4665069813
 10
-7.3983122001
 20
24.4783866972
  0
LINE
  5
5B3
100
AcDbEntity
  8
0
100
AcDbLine
 62
7
  6
CONTINUOUS
 10
7.2511319658
 20
-24.2737678556
 11
7.2525445259
 21
-24.2855823661
  0
LWPOLYLINE
  5
5B4
100
AcDbEntity
  8
0
100
AcDbPolyline
 62
7
  6
CONTINUOUS
 90
29
 70
0
 10
7.2555045897
 20
-24.269395495
 10
7.2569175251
 20
-24.2812097429
 10
7.2588909904
 20
-24.2929434001
 10
7.2614205152
 20
-24.3045698874
 10
7.2645003696
 20
-24.316062868
 10
7.268123577
 20
-24.3273963078
 10
7.27228193
 20
-24.338544534
 10
7.2769660091
 20
-24.3494822935
 10
7.2821652038
 20
-24.3601848096
 10
7.2878677366
 20
-24.3706278389
 10
7.2940606902
 20
-24.3807877255
 10
7.300730036
 20
-24.390641455
 10
7.3078606666
 20
-24.4001667064
 10
7.3154364293
 20
-24.4093419031
 10
7.3234401635
 20
-24.4181462611
 10
7.3318537389
 20
-24.4265598365
 10
7.3406580969
 20
-24.4345635707
 10
7.3498332936
 20
-24.4421393334
 10
7.359358545
 20
-24.449269964
 10
7.3692122745
 20
-24.4559393098
 10
7.3793721611
 20
-24.4621322634
 10
7.3898151904
 20
-24.4678347962
 10
7.4005177065
 20
-24.4730339909
 10
7.411455466
 20
-24.47771807
 10
7.4226036922
 20
-24.481876423
 10
7.433937132
 20
-24.4854996304
 10
7.4454301126
 20
-24.4885794848
 10
7.4570565999
 20
-24.4911090096
 10
7.4687902571
 20
-24.4930824749
  0
LWPOLYLINE
  5
5B5
100
AcDbEntity
  8
0
100
AcDbPolyline
 62
7
  6
CONTINUOUS
 90
25
 70
0
 10
7.1350621988
 20
-19.9383357914
 10
7.1330194764
 20
-19.9065663572
 10
7.1270253683
 20
-19.8760912255
 10
7.1170798744
 20
-19.8469103964
 10
7.1027265157
 20
-19.8183638813
 10
7.0844217712
 20
-19.7911116687
 10
7.0635350787
 20
-19.7671337237
 10
7.0401341942
 20
-19.7469407396
 10
7.0141513617
 20
-19.7300220231
 10
6.9867527509
 20
-19.7168254591
 10
6.9578442182
 20
-19.7074149351
 10
6.9275199072
 20
-19.7017265637
 10
6.8972284181
 20
-19.7000165678
 10
6.8669483684
 20
-19.7024770158
 10
6.8367011408
 20
-19.7089158392
 10
6.8079994827
 20
-19.7190130558
 10
6.7809362839
 20
-19.7329412376
 10
6.7554186546
 20
-19.7505278126
 10
6.7326806743
 20
-19.7709350822
 10
6.7128431758
 20
-19.794350558
 10
6.6957853262
 20
-19.8205867285
 10
6.6823787059
 20
-19.8482433605
 10
6.6729138417
 20
-19.8768537094
 10
6.6671002068
 20
-19.9068845197
 10
6.6649378012
 20
-19.9383357914
  0
LWPOLYLINE
  5
5B6
100
AcDbEntity
  8
ASSI
100
AcDbPolyline
 62
7
  6
CONTINUOUS
 90
28
 70
0
 10
7.1350621988
 20
-19.9383357914
 10
7.1332473657
 20
-19.9098227108
 10
7.1284498869
 20
-19.8824506737
 10
7.1206697624
 20
-19.8562196802
 10
7.1097058758
 20
-19.8308075235
 10
7.0957593434
 20
-19.8065364103
 10
7.0794335146
 20
-19.7843729607
 10
7.0606424348
 20
-19.764418173
 10
7.0394720585
 20
-19.746571049
 10
7.0167835986
 20
-19.7314952128
 10
6.9925314138
 20
-19.7193006324
 10
6.9667611455
 20
-19.7098773399
 10
6.9404709303
 20
-19.7035590564
 10
6.9136468261
 20
-19.7004569451
 10
6.8863027751
 20
-19.7004598429
 10
6.8594787402
 20
-19.7035679813
 10
6.8331882812
 20
-19.7098928697
 10
6.8074178384
 20
-19.7193229989
 10
6.7831666956
 20
-19.7315240723
 10
6.7604805601
 20
-19.7466073437
 10
6.7393137246
 20
-19.7644615594
 10
6.7205283506
 20
-19.7844186624
 10
6.7042123186
 20
-19.8065763378
 10
6.690277748
 20
-19.8308369006
 10
6.679323159
 20
-19.8562392386
 10
6.6715480582
 20
-19.882462981
 10
6.666752939
 20
-19.9098284986
 10
6.6649378012
 20
-19.9383357914
  0
LINE
  5
5B7
100
AcDbEntity
  8
ASSI
100
AcDbLine
 62
7
  6
CONTINUOUS
 10
7.25
 20
-24.2500042308
 11
7.2513695074
 21
-24.2761364629
  0
LWPOLYLINE
  5
5B8
100
AcDbEntity
  8
ASSI
100
AcDbPolyline
 62
7
  6
CONTINUOUS
 90
16
 70
0
 10
7.254371834
 20
-24.2456323968
 10
7.2557421625
 20
-24.2717635094
 10
7.259836366
 20
-24.2976083364
 10
7.2666095896
 20
-24.3228837286
 10
7.2759876276
 20
-24.3473127755
 10
7.2878677366
 20
-24.3706278389
 10
7.3021197614
 20
-24.392573485
 10
7.3185875605
 20
-24.4129092831
 10
7.3370907169
 20
-24.4314124395
 10
7.357426515
 20
-24.4478802386
 10
7.3793721611
 20
-24.4621322634
 10
7.4026872245
 20
-24.4740123724
 10
7.4271162714
 20
-24.4833904104
 10
7.4523916636
 20
-24.490163634
 10
7.4782364906
 20
-24.4942578375
 10
7.5043676032
 20
-24.495628166
  0
LWPOLYLINE
  5
5B9
100
AcDbEntity
  8
0
100
AcDbPolyline
 62
7
  6
CONTINUOUS
 90
3
 70
0
 10
7.25
 20
-24.2500042308
 10
7.2502831502
 20
-24.261899516
 10
7.2511319658
 20
-24.2737678556
  0
LWPOLYLINE
  5
5BA
100
AcDbEntity
  8
0
100
AcDbPolyline
 62
7
  6
CONTINUOUS
 90
3
 70
0
 10
7.254371834
 20
-24.2456323968
 10
7.2546553848
 20
-24.2575274183
 10
7.2555045897
 20
-24.269395495
  0
LINE
  5
5BB
100
AcDbEntity
  8
ASSI
100
AcDbLine
 62
7
  6
CONTINUOUS
 10
6.3093453702
 20
14.9279184107
 11
6.3225496058
 21
13.8475670731
  0
LINE
  5
5BC
100
AcDbEntity
  8
0
100
AcDbLine
 62
7
  6
CONTINUOUS
 10
6.3093453702
 20
14.9279184107
 11
6.3225496058
 21
13.8475670731
  0
LINE
  5
5BD
100
AcDbEntity
  8
ASSI
100
AcDbLine
 62
7
  6
CONTINUOUS
 10
6.3433119166
 20
14.2409611822
 11
6.3267937453
 21
15.5924539101
  0
LINE
  5
5BE
100
AcDbEntity
  8
0
100
AcDbLine
 62
7
  6
CONTINUOUS
 10
6.3433119166
 20
14.2409611822
 11
6.3267937453
 21
15.5924539101
  0
LINE
  5
5BF
100
AcDbEntity
  8
ASSI
100
AcDbLine
 62
253
  6
CONTINUOUS
 10
7.254371834
 20
-23.8443375673
 11
7.25
 21
-23.4104851482
  0
LINE
  5
5C0
100
AcDbEntity
  8
0
100
AcDbLine
 62
253
  6
CONTINUOUS
 10
7.254371834
 20
-23.8443375673
 11
7.25
 21
-23.4104851482
  0
LINE
  5
5C1
100
AcDbEntity
  8
ASSI
100
AcDbLine
 62
253
  6
CONTINUOUS
 10
7.5043676032
 20
-23.6278312164
 11
7.4992770021
 21
-23.1226497308
  0
LINE
  5
5C2
100
AcDbEntity
  8
0
100
AcDbLine
 62
253
  6
CONTINUOUS
 10
7.5043676032
 20
-23.6278312164
 11
7.4992770021
 21
-23.1226497308
  0
LINE
  5
5C3
100
AcDbEntity
  8
ASSI
100
AcDbLine
 62
7
  6
CONTINUOUS
 10
6.5052970084
 20
19.1629601676
 11
6.5200097822
 21
17.4770432671
  0
LINE
  5
5C4
100
AcDbEntity
  8
0
100
AcDbLine
 62
7
  6
CONTINUOUS
 10
6.5052970084
 20
19.1629601676
 11
6.5200097822
 21
17.4770432671
  0
LINE
  5
5C5
100
AcDbEntity
  8
ASSI
100
AcDbLine
 62
7
  6
CONTINUOUS
 10
6.5191970738
 20
-17.141404475
 11
6.5216450967
 21
-19.4260209733
  0
LINE
  5
5C6
100
AcDbEntity
  8
0
100
AcDbLine
 62
7
  6
CONTINUOUS
 10
6.5191970738
 20
-17.141404475
 11
6.5216450967
 21
-19.4260209733
  0
LINE
  5
5C7
100
AcDbEntity
  8
0
100
AcDbLine
 62
7
  6
CONTINUOUS
 10
5.9
 20
-2.9648499832
 11
5.9
 21
-3.5384264195
  0
LINE
  5
5C8
100
AcDbEntity
  8
0
100
AcDbLine
 62
7
  6
CONTINUOUS
 10
6.0
 20
2.1974229467
 11
6.0
 21
-0.023529263
  0
LINE
  5
5C9
100
AcDbEntity
  8
0
100
AcDbLine
 62
7
  6
CONTINUOUS
 10
6.15
 20
-3.5384264195
 11
6.15
 21
-4.1120028559
  0
LINE
  5
5CA
100
AcDbEntity
  8
ASSI
100
AcDbLine
 62
7
  6
CONTINUOUS
 10
6.25
 20
5.0562125796
 11
6.25
 21
13.8475670731
  0
LINE
  5
5CB
100
AcDbEntity
  8
ASSI
100
AcDbLine
 62
7
  6
CONTINUOUS
 10
6.3258467315
 20
15.764526841
 11
6.3258467315
 21
15.8009747569
  0
LINE
  5
5CC
100
AcDbEntity
  8
0
100
AcDbLine
 62
7
  6
CONTINUOUS
 10
6.3258467315
 20
15.764526841
 11
6.3258467315
 21
15.8009747569
  0
LINE
  5
5CD
100
AcDbEntity
  8
ASSI
100
AcDbLine
 62
7
  6
CONTINUOUS
 10
6.3516319481
 20
16.4183680519
 11
6.3516319481
 21
17.309350607
  0
LINE
  5
5CE
100
AcDbEntity
  8
0
100
AcDbLine
 62
7
  6
CONTINUOUS
 10
6.3516319481
 20
16.4183680519
 11
6.3516319481
 21
17.309350607
  0
LINE
  5
5CF
100
AcDbEntity
  8
RACCORDO
100
AcDbLine
 62
7
  6
CONTINUOUS
 10
6.351828717
 20
-3.209096102
 11
6.351828717
 21
-4.1120028559
  0
LINE
  5
5D0
100
AcDbEntity
  8
DRAFT
100
AcDbLine
 62
7
  6
CONTINUOUS
 10
6.3607299323
 20
-4.1120028559
 11
6.3607299323
 21
-2.4852125236
  0
LINE
  5
5D1
100
AcDbEntity
  8
RACCORDO
100
AcDbLine
 62
7
  6
CONTINUOUS
 10
6.3696311477
 20
-1.0225926109
 11
6.3696311477
 21
-0.2692733792
  0
LINE
  5
5D2
100
AcDbEntity
  8
RACCORDO
100
AcDbLine
 62
7
  6
CONTINUOUS
 10
6.3849901075
 20
2.2670442641
 11
6.3849901075
 21
1.501143709
  0
LINE
  5
5D3
100
AcDbEntity
  8
DRAFT
100
AcDbLine
 62
7
  6
CONTINUOUS
 10
6.3931931883
 20
2.8490483344
 11
6.3931931883
 21
-2.8031007712
  0
LINE
  5
5D4
100
AcDbEntity
  8
RACCORDO
100
AcDbLine
 62
7
  6
CONTINUOUS
 10
6.3942403901
 20
3.7455693088
 11
6.3942403901
 21
1.501143709
  0
LINE
  5
5D5
100
AcDbEntity
  8
0
100
AcDbLine
 62
7
  6
CONTINUOUS
 10
6.45
 20
-4.1120028559
 11
6.45
 21
-12.3036933041
  0
LINE
  5
5D6
100
AcDbEntity
  8
ASSI
100
AcDbLine
 62
7
  6
CONTINUOUS
 10
6.5
 20
15.9541648703
 11
6.5
 21
16.2699372043
  0
LINE
  5
5D7
100
AcDbEntity
  8
0
100
AcDbLine
 62
7
  6
CONTINUOUS
 10
6.5
 20
15.9541648703
 11
6.5
 21
16.2699372043
  0
LINE
  5
5D8
100
AcDbEntity
  8
0
100
AcDbLine
 62
7
  6
CONTINUOUS
 10
6.55
 20
-3.6502498994
 11
6.55
 21
-4.5845439608
  0
LINE
  5
5D9
100
AcDbEntity
  8
ASSI
100
AcDbLine
 62
7
  6
CONTINUOUS
 10
6.5506158332
 20
-20.0
 11
6.5506158332
 21
-19.6
  0
LINE
  5
5DA
100
AcDbEntity
  8
0
100
AcDbLine
 62
7
  6
CONTINUOUS
 10
6.5506158332
 20
-20.0
 11
6.5506158332
 21
-19.6
  0
LINE
  5
5DB
100
AcDbEntity
  8
ASSI
100
AcDbLine
 62
7
  6
CONTINUOUS
 10
6.6038497267
 20
17.309350607
 11
6.6038497267
 21
18.7659857438
  0
LINE
  5
5DC
100
AcDbEntity
  8
0
100
AcDbLine
 62
7
  6
CONTINUOUS
 10
6.6038497267
 20
17.309350607
 11
6.6038497267
 21
18.7659857438
  0
LINE
  5
5DD
100
AcDbEntity
  8
ASSI
100
AcDbLine
 62
7
  6
CONTINUOUS
 10
6.6649378012
 20
-20.0
 11
6.6649378012
 21
-19.9383357914
  0
LINE
  5
5DE
100
AcDbEntity
  8
0
100
AcDbLine
 62
7
  6
CONTINUOUS
 10
6.6649378012
 20
-20.0
 11
6.6649378012
 21
-19.9383357914
  0
LINE
  5
5DF
100
AcDbEntity
  8
ASSI
100
AcDbLine
 62
7
  6
CONTINUOUS
 10
6.6649378012
 20
19.9383357914
 11
6.6649378012
 21
20.0
  0
LINE
  5
5E0
100
AcDbEntity
  8
0
100
AcDbLine
 62
7
  6
CONTINUOUS
 10
6.6649378012
 20
19.9383357914
 11
6.6649378012
 21
20.0
  0
LINE
  5
5E1
100
AcDbEntity
  8
ASSI
100
AcDbLine
 62
7
  6
CONTINUOUS
 10
7.1350621988
 20
20.9
 11
7.1350621988
 21
19.9383357914
  0
LINE
  5
5E2
100
AcDbEntity
  8
0
100
AcDbLine
 62
7
  6
CONTINUOUS
 10
7.1350621988
 20
20.9
 11
7.1350621988
 21
19.9383357914
  0
LINE
  5
5E3
100
AcDbEntity
  8
ASSI
100
AcDbLine
 62
7
  6
CONTINUOUS
 10
7.1350621988
 20
-19.9383357914
 11
7.1350621988
 21
-20.9
  0
LINE
  5
5E4
100
AcDbEntity
  8
0
100
AcDbLine
 62
7
  6
CONTINUOUS
 10
7.1350621988
 20
-19.9383357914
 11
7.1350621988
 21
-20.9
  0
LINE
  5
5E5
100
AcDbEntity
  8
ASSI
100
AcDbLine
 62
7
  6
CONTINUOUS
 10
7.1961502733
 20
18.7659857438
 11
7.1961502733
 21
16.9183680548
  0
LINE
  5
5E6
100
AcDbEntity
  8
0
100
AcDbLine
 62
7
  6
CONTINUOUS
 10
7.1961502733
 20
18.7659857438
 11
7.1961502733
 21
16.9183680548
  0
LINE
  5
5E7
100
AcDbEntity
  8
ASSI
100
AcDbLine
 62
7
  6
CONTINUOUS
 10
7.2493841668
 20
-19.6
 11
7.2493841668
 21
-20.7899436635
  0
LINE
  5
5E8
100
AcDbEntity
  8
0
100
AcDbLine
 62
7
  6
CONTINUOUS
 10
7.2493841668
 20
-19.6
 11
7.2493841668
 21
-20.7899436635
  0
LINE
  5
5E9
100
AcDbEntity
  8
0
100
AcDbLine
 62
7
  6
CONTINUOUS
 10
7.25
 20
23.8443375673
 11
7.25
 21
23.4104851482
  0
LINE
  5
5EA
100
AcDbEntity
  8
0
100
AcDbLine
 62
7
  6
CONTINUOUS
 10
7.25
 20
15.9541648703
 11
7.25
 21
10.2757581504
  0
LINE
  5
5EB
100
AcDbEntity
  8
RACCORDO
100
AcDbLine
 62
7
  6
CONTINUOUS
 10
7.25
 20
-23.4104851482
 11
7.25
 21
-22.6002134903
  0
LINE
  5
5EC
100
AcDbEntity
  8
ASSI
100
AcDbLine
 62
7
  6
CONTINUOUS
 10
7.25
 20
-22.6002134903
 11
7.25
 21
-23.8443375673
  0
LINE
  5
5ED
100
AcDbEntity
  8
0
100
AcDbLine
 62
7
  6
CONTINUOUS
 10
7.25
 20
-23.4104851482
 11
7.25
 21
-23.8443375673
  0
LINE
  5
5EE
100
AcDbEntity
  8
ASSI
100
AcDbLine
 62
7
  6
CONTINUOUS
 10
7.25
 20
22.6002134903
 11
7.25
 21
23.8443375673
  0
LINE
  5
5EF
100
AcDbEntity
  8
RACCORDO
100
AcDbLine
 62
7
  6
CONTINUOUS
 10
7.25
 20
22.6002134903
 11
7.25
 21
23.4104851482
  0
LINE
  5
5F0
100
AcDbEntity
  8
ASSI
100
AcDbLine
 62
7
  6
CONTINUOUS
 10
7.254371834
 20
24.2456323968
 11
7.254371834
 21
23.8443375673
  0
LINE
  5
5F1
100
AcDbEntity
  8
0
100
AcDbLine
 62
7
  6
CONTINUOUS
 10
7.254371834
 20
24.2456323968
 11
7.254371834
 21
23.8443375673
  0
LINE
  5
5F2
100
AcDbEntity
  8
ASSI
100
AcDbLine
 62
7
  6
CONTINUOUS
 10
7.254371834
 20
-23.8443375673
 11
7.254371834
 21
-24.2456323968
  0
LINE
  5
5F3
100
AcDbEntity
  8
0
100
AcDbLine
 62
7
  6
CONTINUOUS
 10
7.254371834
 20
-23.8443375673
 11
7.254371834
 21
-24.2456323968
  0
LINE
  5
5F4
100
AcDbEntity
  8
ASSI
100
AcDbLine
 62
7
  6
CONTINUOUS
 10
7.2703286495
 20
20.6641649932
 11
7.2703286495
 21
16.7700000029
  0
LINE
  5
5F5
100
AcDbEntity
  8
0
100
AcDbLine
 62
7
  6
CONTINUOUS
 10
7.2703286495
 20
20.6641649932
 11
7.2703286495
 21
16.7700000029
  0
LINE
  5
5F6
100
AcDbEntity
  8
ASSI
100
AcDbLine
 62
7
  6
CONTINUOUS
 10
7.2808029262
 20
-17.141404475
 11
7.2783549033
 21
-19.4260209733
  0
LINE
  5
5F7
100
AcDbEntity
  8
0
100
AcDbLine
 62
7
  6
CONTINUOUS
 10
7.2808029262
 20
-17.141404475
 11
7.2783549033
 21
-19.4260209733
  0
LINE
  5
5F8
100
AcDbEntity
  8
RACCORDO
100
AcDbLine
 62
253
  6
CONTINUOUS
 10
6.0924571802
 20
3.7455693088
 11
6.0849919352
 21
2.5127883802
  0
LINE
  5
5F9
100
AcDbEntity
  8
RACCORDO
100
AcDbLine
 62
253
  6
CONTINUOUS
 10
6.0696329754
 20
-0.023529263
 11
6.0518305447
 21
-2.9633519859
  0
LINE
  5
5FA
100
AcDbEntity
  8
RACCORDO
100
AcDbLine
 62
7
  6
CONTINUOUS
 10
6.3939434839
 20
3.7455693088
 11
6.3849901075
 21
2.2670442641
  0
LINE
  5
5FB
100
AcDbEntity
  8
RACCORDO
100
AcDbLine
 62
7
  6
CONTINUOUS
 10
6.3696311477
 20
-0.2692733792
 11
6.351828717
 21
-3.209096102
  0
LINE
  5
5FC
100
AcDbEntity
  8
DRAFT
100
AcDbLine
 62
7
  6
CONTINUOUS
 10
6.3607299323
 20
-2.4852125236
 11
6.3696311477
 21
-1.0225926109
  0
LINE
  5
5FD
100
AcDbEntity
  8
DRAFT
100
AcDbLine
 62
7
  6
CONTINUOUS
 10
6.389651054
 20
2.2670158985
 11
6.3931931883
 21
2.8490483344
  0
LINE
  5
5FE
100
AcDbEntity
  8
DRAFT
100
AcDbLine
 62
7
  6
CONTINUOUS
 10
6.3931931883
 20
-2.8031007712
 11
6.3852274692
 21
-4.1120028559
  0
LINE
  5
5FF
100
AcDbEntity
  8
RACCORDO
100
AcDbLine
 62
7
  6
CONTINUOUS
 10
6.3942403901
 20
-3.4045057833
 11
6.3899131307
 21
-4.1120028559
  0
LINE
  5
600
100
AcDbEntity
  8
ASSI
100
AcDbLine
 62
253
  6
CONTINUOUS
 10
7.25
 20
23.4104851482
 11
7.254371834
 21
23.8443375673
  0
LINE
  5
601
100
AcDbEntity
  8
0
100
AcDbLine
 62
253
  6
CONTINUOUS
 10
7.25
 20
23.4104851482
 11
7.254371834
 21
23.8443375673
  0
LINE
  5
602
100
AcDbEntity
  8
ASSI
100
AcDbLine
 62
253
  6
CONTINUOUS
 10
7.4992770021
 20
23.1226497308
 11
7.5043676032
 21
23.6278312164
  0
LINE
  5
603
100
AcDbEntity
  8
0
100
AcDbLine
 62
253
  6
CONTINUOUS
 10
7.4992770021
 20
23.1226497308
 11
7.5043676032
 21
23.6278312164
  0
LWPOLYLINE
  5
604
100
AcDbEntity
  8
ASSI
100
AcDbPolyline
 62
7
  6
CONTINUOUS
 90
31
 70
0
 10
7.1961502733
 20
18.7659857438
 10
7.1943339416
 20
18.7337623574
 10
7.1894265181
 20
18.7025965745
 10
7.1814280026
 20
18.672488395
 10
7.1701686576
 20
18.6431303752
 10
7.1558182207
 20
18.6148299588
 10
7.1388859049
 20
18.5885094772
 10
7.1192926085
 20
18.5642479969
 10
7.0971174332
 20
18.5419664515
 10
7.0731068968
 20
18.5223499737
 10
7.047214196
 20
18.5054890397
 10
7.019486134
 20
18.4912931734
 10
6.9908096381
 20
18.4801760794
 10
6.961164196
 20
18.4722298733
 10
6.93057032
 20
18.4673624396
 10
6.8999764742
 20
18.465711136
 10
6.869382595
 20
18.4673674693
 10
6.838788746
 20
18.4722399327
 10
6.8091435821
 20
18.4801913638
 10
6.7804673907
 20
18.4913142136
 10
6.7527398843
 20
18.505516031
 10
6.7268488556
 20
18.5223823003
 10
6.7028413399
 20
18.5420042103
 10
6.6806703019
 20
18.5642905723
 10
6.6610824288
 20
18.5885533043
 10
6.644157924
 20
18.6148694001
 10
6.6298165841
 20
18.6431618659
 10
6.6185644867
 20
18.6725116395
 10
6.6105703243
 20
18.7026123665
 10
6.6056654043
 20
18.7337704013
 10
6.6038497267
 20
18.7659857438
  0
LWPOLYLINE
  5
605
100
AcDbEntity
  8
0
100
AcDbPolyline
 62
7
  6
CONTINUOUS
 90
28
 70
0
 10
7.1961502733
 20
18.7659857438
 10
7.1940673555
 20
18.7303046575
 10
7.188023274
 20
18.6958196276
 10
7.1780180288
 20
18.662530654
 10
7.1637125707
 20
18.629857753
 10
7.1454459489
 20
18.5983809083
 10
7.1242353106
 20
18.5698400716
 10
7.1000377474
 20
18.544597946
 10
7.0728961677
 20
18.5222918285
 10
7.0439564438
 20
18.5035735615
 10
7.0131925481
 20
18.488554571
 10
6.9806305084
 20
18.4771234311
 10
6.9474942805
 20
18.4695977071
 10
6.9137836988
 20
18.4660857384
 10
6.879498929
 20
18.4664791857
 10
6.8458644237
 20
18.4707705952
 10
6.8128512778
 20
18.4791042092
 10
6.7804883964
 20
18.4913357854
 10
6.750086947
 20
18.5070251436
 10
6.721721881
 20
18.5263354817
 10
6.6953182469
 20
18.5491036017
 10
6.6719623578
 20
18.5743997294
 10
6.6517997464
 20
18.6023368796
 10
6.6346848801
 20
18.6328020374
 10
6.6212674734
 20
18.6645263846
 10
6.6117640981
 20
18.6970869817
 10
6.6059581825
 20
18.7309067681
 10
6.6038497267
 20
18.7659857438
  0
LWPOLYLINE
  5
606
100
AcDbEntity
  8
0
100
AcDbPolyline
 62
7
  6
CONTINUOUS
 90
12
 70
0
 10
3.5
 20
-23.9541479441
 10
3.5002540229
 20
-23.9524898894
 10
3.5010182716
 20
-23.9503491945
 10
3.5022955853
 20
-23.9477258593
 10
3.5040870206
 20
-23.9446258933
 10
3.5063948359
 20
-23.9410432871
 10
3.509225467
 20
-23.9369600118
 10
3.5125796948
 20
-23.9323818855
 10
3.5164616339
 20
-23.9273030902
 10
3.5208900485
 20
-23.9216881435
 10
3.5258680601
 20
-23.9155475997
 10
3.5314043747
 20
-23.9088709045
  0
LWPOLYLINE
  5
607
100
AcDbEntity
  8
0
100
AcDbPolyline
 62
7
  6
CONTINUOUS
 90
3
 70
0
 10
-7.2896854419
 20
-24.3851625059
 10
-7.2834926084
 20
-24.3750024283
 10
-7.2777902312
 20
-24.3645591876
  0
LWPOLYLINE
  5
608
100
AcDbEntity
  8
ASSI
100
AcDbPolyline
 62
7
  6
CONTINUOUS
 90
3
 70
0
 10
-7.8176867079
 20
-21.6973892622
 10
-7.7667471527
 20
-21.6221692933
 10
-7.7400780306
 20
-21.5832139905
  0
LWPOLYLINE
  5
609
100
AcDbEntity
  8
DRAFT
100
AcDbPolyline
 62
7
  6
CONTINUOUS
 90
4
 70
0
 10
-7.8176867079
 20
-21.6973892622
 10
-7.7640459661
 20
-21.6182814201
 10
-7.736684232
 20
-21.5782973885
 10
-7.7088982221
 20
-21.5381681977
  0
LINE
  5
60A
100
AcDbEntity
  8
ASSI
100
AcDbLine
 62
7
  6
CONTINUOUS
 10
-7.7400780306
 20
-21.5832139905
 11
-7.6840912322
 21
-21.5027201669
  0
LWPOLYLINE
  5
60B
100
AcDbEntity
  8
ASSI
100
AcDbPolyline
 62
7
  6
CONTINUOUS
 90
3
 70
0
 10
-7.6840912322
 20
-21.5027201669
 10
-7.5966129635
 20
-21.3781728951
 10
-7.5666456542
 20
-21.3359869487
  0
LWPOLYLINE
  5
60C
100
AcDbEntity
  8
DRAFT
100
AcDbPolyline
 62
7
  6
CONTINUOUS
 90
3
 70
0
 10
-7.7088982221
 20
-21.5381681977
 10
-7.5954124361
 20
-21.3764763181
 10
-7.5666456542
 20
-21.3359869487
  0
LINE
  5
60D
100
AcDbEntity
  8
RACCORDO
100
AcDbLine
 62
7
  6
CONTINUOUS
 10
9.9976142915
 20
5.9331455644
 11
8.9
 21
5.9331455644
  0
LINE
  5
60E
100
AcDbEntity
  8
RACCORDO
100
AcDbLine
 62
7
  6
CONTINUOUS
 10
-8.9
 20
5.9331455644
 11
-9.9976142915
 21
5.9331455644
  0
LINE
  5
60F
100
AcDbEntity
  8
ASSI
100
AcDbLine
 62
7
  6
CONTINUOUS
 10
-6.3309918611
 20
16.1009290654
 11
-6.5
 21
16.27
  0
LINE
  5
610
100
AcDbEntity
  8
0
100
AcDbLine
 62
7
  6
CONTINUOUS
 10
-6.3309918611
 20
16.1009290654
 11
-6.5
 21
16.27
  0
LINE
  5
611
100
AcDbEntity
  8
DRAFT
100
AcDbLine
 62
7
  6
CONTINUOUS
 10
-7.5666456542
 20
21.3359869487
 11
-7.6240084104
 21
21.4170151614
  0
LINE
  5
612
100
AcDbEntity
  8
ASSI
100
AcDbLine
 62
7
  6
CONTINUOUS
 10
-7.5666456542
 20
21.3359869487
 11
-7.6261555076
 21
21.4200596364
  0
LWPOLYLINE
  5
613
100
AcDbEntity
  8
DRAFT
100
AcDbPolyline
 62
7
  6
CONTINUOUS
 90
3
 70
0
 10
-7.6240084104
 20
21.4170151614
 10
-7.7088982221
 20
21.5381681977
 10
-7.736684232
 20
21.5782973885
  0
LWPOLYLINE
  5
614
100
AcDbEntity
  8
ASSI
100
AcDbPolyline
 62
7
  6
CONTINUOUS
 90
3
 70
0
 10
-7.6261555076
 20
21.4200596364
 10
-7.7124844129
 20
21.5433567333
 10
-7.7400780306
 20
21.5832139905
  0
LWPOLYLINE
  5
615
100
AcDbEntity
  8
DRAFT
100
AcDbPolyline
 62
7
  6
CONTINUOUS
 90
3
 70
0
 10
-7.736684232
 20
21.5782973885
 10
-7.7910467914
 20
21.6580046829
 10
-7.8176867079
 20
21.6973892622
  0
LWPOLYLINE
  5
616
100
AcDbEntity
  8
ASSI
100
AcDbPolyline
 62
7
  6
CONTINUOUS
 90
3
 70
0
 10
-7.7400780306
 20
21.5832139905
 10
-7.7926167118
 20
21.6602426643
 10
-7.8176867079
 20
21.6973892622
  0
LINE
  5
617
100
AcDbEntity
  8
ASSI
100
AcDbLine
 62
7
  6
CONTINUOUS
 10
9.5121049871
 20
-16.2
 11
9.5494593275
 21
-16.6548771492
  0
LINE
  5
618
100
AcDbEntity
  8
DRAFT
100
AcDbLine
 62
7
  6
CONTINUOUS
 10
9.5121049871
 20
-16.2
 11
9.5494593275
 21
-16.6548771492
  0
LWPOLYLINE
  5
619
100
AcDbEntity
  8
ASSI
100
AcDbPolyline
 62
253
  6
CONTINUOUS
 90
16
 70
0
 10
10.145628166
 20
-23.8443375673
 10
10.1441878024
 20
-23.8217477512
 10
10.1400341766
 20
-23.7994044949
 10
10.1332126182
 20
-23.7775517018
 10
10.1237975734
 20
-23.7564279091
 10
10.1118918112
 20
-23.7362637273
 10
10.0976253183
 20
-23.7172793153
 10
10.0811538426
 20
-23.6996819166
 10
10.0626571876
 20
-23.6836636168
 10
10.0423372835
 20
-23.6693992808
 10
10.0204157096
 20
-23.6570444923
 10
9.9971319835
 20
-23.6467342761
 10
9.9727410979
 20
-23.6385814053
 10
9.9475096728
 20
-23.6326747012
 10
9.9217129104
 20
-23.6290783004
 10
9.8956323968
 20
-23.6278312164
  0
LWPOLYLINE
  5
61A
100
AcDbEntity
  8
ASSI
100
AcDbPolyline
 62
253
  6
CONTINUOUS
 90
16
 70
0
 10
7.254371834
 20
23.8443375673
 10
7.2558121477
 20
23.8217481519
 10
7.2599656195
 20
23.7994053159
 10
7.2667869113
 20
23.7775529472
 10
7.276201564
 20
23.7564295797
 10
7.2881068099
 20
23.7362657898
 10
7.302372695
 20
23.7172816797
 10
7.3188434969
 20
23.6996844742
 10
7.3373394254
 20
23.6836662592
 10
7.3576585842
 20
23.6694018849
 10
7.3795791754
 20
23.6570470569
 10
7.4028619204
 20
23.646736637
 10
7.4272526715
 20
23.6385831707
 10
7.4524851864
 20
23.6326756587
 10
7.4782840345
 20
23.6290785857
 10
7.5043676032
 20
23.6278312164
  0
LWPOLYLINE
  5
61B
100
AcDbEntity
  8
ASSI
100
AcDbPolyline
 62
7
  6
CONTINUOUS
 90
28
 70
0
 10
6.6649378012
 20
19.9383357914
 10
6.6667489788
 20
19.9098360343
 10
6.6715430287
 20
19.8824734717
 10
6.6793199511
 20
19.8562481037
 10
6.6902801986
 20
19.8308368864
 10
6.7042233185
 20
19.8065628637
 10
6.7205479531
 20
19.7843951673
 10
6.7393411905
 20
19.7644347378
 10
6.7605159426
 20
19.7465806347
 10
6.7832095876
 20
19.731499168
 10
6.8074678347
 20
19.7193011863
 10
6.8332449747
 20
19.709875841
 10
6.8595412583
 20
19.7035568967
 10
6.8863699366
 20
19.7004556877
 10
6.9137177585
 20
19.7004608796
 10
6.9405452216
 20
19.7035722344
 10
6.9668392999
 20
19.7099014168
 10
6.9926130194
 20
19.7193367622
 10
7.0168659556
 20
19.7315430387
 10
7.0395520047
 20
19.7466319
 10
7.0607172706
 20
19.7644916923
 10
7.0794996408
 20
19.7844522228
 10
7.0958105086
 20
19.8066106394
 10
7.1097384808
 20
19.8308697942
 10
7.1206872652
 20
19.8562680505
 10
7.1284580976
 20
19.8824848626
 10
7.1332497421
 20
19.9098407763
 10
7.1350621988
 20
19.9383357914
  0
LWPOLYLINE
  5
61C
100
AcDbEntity
  8
0
100
AcDbPolyline
 62
7
  6
CONTINUOUS
 90
28
 70
0
 10
6.6649378012
 20
19.9383357914
 10
6.6665567526
 20
19.9100838124
 10
6.6713432545
 20
19.8827421197
 10
6.679297307
 20
19.8563107134
 10
6.690696444
 20
19.8303066199
 10
6.7052631315
 20
19.8052128128
 10
6.7221647679
 20
19.7824782125
 10
6.741427927
 20
19.7624190269
 10
6.763026035
 20
19.7447190482
 10
6.7860467685
 20
19.729878574
 10
6.8105123545
 20
19.7179823834
 10
6.836400566
 20
19.7089456973
 10
6.8627323986
 20
19.7030144756
 10
6.8895055905
 20
19.7002758214
 10
6.9167224035
 20
19.7006426315
 10
6.9434106184
 20
19.7040995565
 10
6.9695881619
 20
19.7107567876
 10
6.9952371073
 20
19.7205041335
 10
7.0193314553
 20
19.7329956712
 10
7.0418241685
 20
19.7483784125
 10
7.0627622843
 20
19.7665053456
 10
7.0812609155
 20
19.7865895122
 10
7.0971803424
 20
19.8086755081
 10
7.1106602845
 20
19.8327187375
 10
7.1212350141
 20
19.8577984551
 10
7.1287492883
 20
19.8836077457
 10
7.1333583498
 20
19.9104535244
 10
7.1350621988
 20
19.9383357914
  0
LINE
  5
61D
100
AcDbEntity
  8
ASSI
100
AcDbLine
 62
253
  6
CONTINUOUS
 10
7.1350621988
 20
19.9383357914
 11
7.1961502733
 21
18.7659857438
  0
LINE
  5
61E
100
AcDbEntity
  8
0
100
AcDbLine
 62
253
  6
CONTINUOUS
 10
7.1350621988
 20
19.9383357914
 11
7.1961502733
 21
18.7659857438
  0
LWPOLYLINE
  5
61F
100
AcDbEntity
  8
ASSI
100
AcDbPolyline
 62
7
  6
CONTINUOUS
 90
40
 70
0
 10
8.0
 20
0.1950467125
 10
8.0039287755
 20
0.1184438528
 10
8.0150677455
 20
0.0432967518
 10
8.03341691
 20
-0.0303945904
 10
8.0591878742
 20
-0.1030872256
 10
8.092169033
 20
-0.1743241021
 10
8.1317255705
 20
-0.2427340643
 10
8.1779848658
 20
-0.3082623491
 10
8.2308195398
 20
-0.3709637197
 10
8.2892126396
 20
-0.4296313107
 10
8.3532718438
 20
-0.4841869793
 10
8.4228894738
 20
-0.5347088684
 10
8.4967255413
 20
-0.580224541
 10
8.5748617662
 20
-0.6206370163
 10
8.6572164287
 20
-0.6560432752
 10
8.7422043799
 20
-0.6857618241
 10
8.8298766323
 20
-0.7096824799
 10
8.9201821735
 20
-0.7279154256
 10
9.0113828177
 20
-0.7401097166
 10
9.1034959049
 20
-0.7461483713
 10
9.1965040951
 20
-0.7461483713
 10
9.2886171823
 20
-0.7401097166
 10
9.3798178265
 20
-0.7279154256
 10
9.4701233677
 20
-0.7096824799
 10
9.5577956201
 20
-0.6857618241
 10
9.6427835713
 20
-0.6560432752
 10
9.7251382338
 20
-0.6206370163
 10
9.8032744587
 20
-0.580224541
 10
9.8771105262
 20
-0.5347088684
 10
9.9467281562
 20
-0.4841869793
 10
10.0107873604
 20
-0.4296313107
 10
10.0691804602
 20
-0.3709637197
 10
10.1220151342
 20
-0.3082623491
 10
10.1682744295
 20
-0.2427340643
 10
10.207830967
 20
-0.1743241021
 10
10.2408121258
 20
-0.1030872256
 10
10.26658309
 20
-0.0303945904
 10
10.2849322545
 20
0.0432967518
 10
10.2960712245
 20
0.1184438528
 10
10.3
 20
0.1950467125
  0
LWPOLYLINE
  5
620
100
AcDbEntity
  8
0
100
AcDbPolyline
 62
253
  6
CONTINUOUS
 90
34
 70
0
 10
7.254371834
 20
23.8443375673
 10
7.2546884847
 20
23.8340547998
 10
7.2555686465
 20
23.8237952398
 10
7.2570103328
 20
23.8135820427
 10
7.2590102898
 20
23.803438259
 10
7.2615640038
 20
23.7933867826
 10
7.2646657112
 20
23.7834502991
 10
7.2683084116
 20
23.7736512346
 10
7.2724838837
 20
23.764011705
 10
7.2771827036
 20
23.7545534661
 10
7.2823942664
 20
23.7452978646
 10
7.2881068099
 20
23.7362657898
 10
7.2943074413
 20
23.7274776267
 10
7.3009821661
 20
23.7189532096
 10
7.3081159197
 20
23.7107117775
 10
7.3156926018
 20
23.702771931
 10
7.3236951123
 20
23.6951515897
 10
7.3321053899
 20
23.6878679524
 10
7.3409044531
 20
23.6809374578
 10
7.350072443
 20
23.6743757476
 10
7.359588668
 20
23.6681976311
 10
7.3694316505
 20
23.6624170521
 10
7.3795791754
 20
23.6570470569
 10
7.3900083405
 20
23.6520997654
 10
7.4006956077
 20
23.6475863432
 10
7.4116168564
 20
23.6435169769
 10
7.4227474381
 20
23.6399008509
 10
7.4340622317
 20
23.6367461264
 10
7.4455357003
 20
23.6340599235
 10
7.4571419491
 20
23.6318483049
 10
7.4688547834
 20
23.630116262
 10
7.480647768
 20
23.6288677039
 10
7.4924942869
 20
23.6281054486
 10
7.5043676032
 20
23.6278312164
  0
LWPOLYLINE
  5
621
100
AcDbEntity
  8
ASSI
100
AcDbPolyline
 62
253
  6
CONTINUOUS
 90
16
 70
0
 10
8.2951241336
 20
10.2757581504
 10
8.2938539912
 20
10.3226494148
 10
8.2896444494
 20
10.387428784
 10
8.2830456904
 20
10.4497845703
 10
8.2739148678
 20
10.5097357146
 10
8.2623948281
 20
10.567263276
 10
8.2489141102
 20
10.6223104314
 10
8.2335238067
 20
10.6749053005
 10
8.216172825
 20
10.7250197635
 10
8.1971364263
 20
10.7725126382
 10
8.176435061
 20
10.8174258571
 10
8.1540482788
 20
10.8597174877
 10
8.1301899905
 20
10.8991205494
 10
8.1049314997
 20
10.9355460487
 10
8.0782015029
 20
10.9690829791
 10
8.05
 20
10.9997313407
  0
LWPOLYLINE
  5
622
100
AcDbEntity
  8
0
100
AcDbPolyline
 62
253
  6
CONTINUOUS
 90
22
 70
0
 10
8.2953213541
 20
10.2757581504
 10
8.2948960414
 20
10.3002333884
 10
8.2929971548
 20
10.343917522
 10
8.289977656
 20
10.3864988634
 10
8.2857758262
 20
10.4279981325
 10
8.2804533842
 20
10.4683946095
 10
8.2741954863
 20
10.5076261347
 10
8.2670226277
 20
10.5456598251
 10
8.2589143131
 20
10.5825285637
 10
8.2499942131
 20
10.6182688403
 10
8.2403363695
 20
10.6527629004
 10
8.2298667404
 20
10.6861284984
 10
8.2184868709
 20
10.7187553873
 10
8.2063454768
 20
10.7505600268
 10
8.1932938424
 20
10.7816259572
 10
8.1787873654
 20
10.8125935524
 10
8.1630188675
 20
10.8435978812
 10
8.145795527
 20
10.8745038748
 10
8.1259942767
 20
10.9055467007
 10
8.1032407609
 20
10.9368047483
 10
8.0779093354
 20
10.9681996283
 10
8.05
 20
10.9997313407
  0
LINE
  5
623
100
AcDbEntity
  8
0
100
AcDbLine
 62
253
  6
CONTINUOUS
 10
7.8014903329
 20
-8.8528844434
 11
7.7894618583
 21
-8.1776009941
  0
LINE
  5
624
100
AcDbEntity
  8
ASSI
100
AcDbLine
 62
253
  6
CONTINUOUS
 10
7.8014903329
 20
-8.8528844434
 11
7.7883915928
 21
-8.114070158
  0
LINE
  5
625
100
AcDbEntity
  8
ASSI
100
AcDbLine
 62
253
  6
CONTINUOUS
 10
8.045712392
 20
-8.3594816139
 11
8.0347020332
 21
-7.7212639999
  0
LINE
  5
626
100
AcDbEntity
  8
0
100
AcDbLine
 62
253
  6
CONTINUOUS
 10
8.045712392
 20
-8.3594816139
 11
8.0321461369
 21
-7.5639657062
  0
LINE
  5
627
100
AcDbEntity
  8
0
100
AcDbLine
 62
253
  6
CONTINUOUS
 10
7.7894618583
 20
-8.1776009941
 11
7.7772286552
 21
-7.4135715181
  0
LINE
  5
628
100
AcDbEntity
  8
ASSI
100
AcDbLine
 62
253
  6
CONTINUOUS
 10
7.7883915928
 20
-8.114070158
 11
7.776023854
 21
-7.3335526892
  0
LINE
  5
629
100
AcDbEntity
  8
0
100
AcDbLine
 62
253
  6
CONTINUOUS
 10
8.0321461369
 20
-7.5639657062
 11
8.0216218619
 21
-6.8747956114
  0
LINE
  5
62A
100
AcDbEntity
  8
ASSI
100
AcDbLine
 62
253
  6
CONTINUOUS
 10
8.0347020332
 20
-7.7212639999
 11
8.0208939038
 21
-6.8256258989
  0
LINE
  5
62B
100
AcDbEntity
  8
0
100
AcDbLine
 62
253
  6
CONTINUOUS
 10
7.7772286552
 20
-7.4135715181
 11
7.7644363834
 21
-6.5139751447
  0
LINE
  5
62C
100
AcDbEntity
  8
ASSI
100
AcDbLine
 62
253
  6
CONTINUOUS
 10
7.776023854
 20
-7.3335526892
 11
7.7644363834
 21
-6.5139751447
  0
LINE
  5
62D
100
AcDbEntity
  8
0
100
AcDbLine
 62
253
  6
CONTINUOUS
 10
8.0216218619
 20
-6.8747956114
 11
8.0110109725
 21
-6.1051779713
  0
LWPOLYLINE
  5
62E
100
AcDbEntity
  8
ASSI
100
AcDbPolyline
 62
253
  6
CONTINUOUS
 90
3
 70
0
 10
8.0208939038
 20
-6.8256258989
 10
8.0079857843
 20
-5.8701460302
 10
8.0072803075
 20
-5.8132720272
  0
LINE
  5
62F
100
AcDbEntity
  8
0
100
AcDbLine
 62
253
  6
CONTINUOUS
 10
8.0110109725
 20
-6.1051779713
 11
8.0072837809
 21
-5.8132720272
  0
LINE
  5
630
100
AcDbEntity
  8
ASSI
100
AcDbLine
 62
253
  6
CONTINUOUS
 10
7.7644363834
 20
-6.5139751447
 11
7.7555388452
 21
-5.8132720272
  0
LINE
  5
631
100
AcDbEntity
  8
ASSI
100
AcDbLine
 62
7
  6
CONTINUOUS
 10
9.0406132198
 20
11.8038881317
 11
8.9906527792
 21
15.8915786577
  0
LINE
  5
632
100
AcDbEntity
  8
0
100
AcDbLine
 62
7
  6
CONTINUOUS
 10
9.0406132198
 20
11.8038881317
 11
8.9906527792
 21
15.8915786577
  0
LINE
  5
633
100
AcDbEntity
  8
0
100
AcDbLine
 62
253
  6
CONTINUOUS
 10
7.7644363834
 20
-6.5139751447
 11
7.7555425479
 21
-5.8132720272
  0
LINE
  5
634
100
AcDbEntity
  8
ASSI
100
AcDbLine
 62
253
  6
CONTINUOUS
 10
7.5043676032
 20
-23.6278312164
 11
7.5043676032
 21
-24.495628166
  0
LINE
  5
635
100
AcDbEntity
  8
0
100
AcDbLine
 62
253
  6
CONTINUOUS
 10
7.5043676032
 20
-23.6278312164
 11
7.5043676032
 21
-24.495628166
  0
LINE
  5
636
100
AcDbEntity
  8
ASSI
100
AcDbLine
 62
253
  6
CONTINUOUS
 10
7.5043676032
 20
23.6278312164
 11
7.5043676032
 21
24.495628166
  0
LINE
  5
637
100
AcDbEntity
  8
0
100
AcDbLine
 62
253
  6
CONTINUOUS
 10
7.5043676032
 20
23.6278312164
 11
7.5043676032
 21
24.495628166
  0
LINE
  5
638
100
AcDbEntity
  8
ASSI
100
AcDbLine
 62
253
  6
CONTINUOUS
 10
7.5666456542
 20
21.3359869487
 11
7.5666456542
 21
20.9
  0
LINE
  5
639
100
AcDbEntity
  8
0
100
AcDbLine
 62
253
  6
CONTINUOUS
 10
7.5666456542
 20
21.3359869487
 11
7.5666456542
 21
20.9
  0
LINE
  5
63A
100
AcDbEntity
  8
ASSI
100
AcDbLine
 62
253
  6
CONTINUOUS
 10
7.5666456542
 20
-20.9
 11
7.5666456542
 21
-21.3359869487
  0
LINE
  5
63B
100
AcDbEntity
  8
0
100
AcDbLine
 62
253
  6
CONTINUOUS
 10
7.5666456542
 20
-20.9
 11
7.5666456542
 21
-21.3359869487
  0
LINE
  5
63C
100
AcDbEntity
  8
ASSI
100
AcDbLine
 62
253
  6
CONTINUOUS
 10
7.8014984055
 20
-8.8528844434
 11
7.8014983782
 21
-9.0370983322
  0
LINE
  5
63D
100
AcDbEntity
  8
0
100
AcDbLine
 62
253
  6
CONTINUOUS
 10
7.8014984055
 20
-8.8528844434
 11
7.8014983782
 21
-9.0370983322
  0
LINE
  5
63E
100
AcDbEntity
  8
ASSI
100
AcDbLine
 62
7
  6
CONTINUOUS
 10
7.9906527792
 20
20.6641649932
 11
7.9906527792
 21
18.4754175763
  0
LINE
  5
63F
100
AcDbEntity
  8
0
100
AcDbLine
 62
7
  6
CONTINUOUS
 10
7.9906527792
 20
20.6641649932
 11
7.9906527792
 21
18.4754175763
  0
LINE
  5
640
100
AcDbEntity
  8
ASSI
100
AcDbLine
 62
253
  6
CONTINUOUS
 10
8.045712392
 20
-5.8132720272
 11
8.045712392
 21
-8.3594816139
  0
LINE
  5
641
100
AcDbEntity
  8
0
100
AcDbLine
 62
253
  6
CONTINUOUS
 10
8.045712392
 20
-5.8132720272
 11
8.045712392
 21
-8.3594816139
  0
LINE
  5
642
100
AcDbEntity
  8
ASSI
100
AcDbLine
 62
253
  6
CONTINUOUS
 10
8.0665695018
 20
21.4537354271
 11
8.0665695018
 21
20.9
  0
LINE
  5
643
100
AcDbEntity
  8
DRAFT
100
AcDbLine
 62
253
  6
CONTINUOUS
 10
8.0665695018
 20
21.4537354271
 11
8.0665695018
 21
20.9
  0
LINE
  5
644
100
AcDbEntity
  8
ASSI
100
AcDbLine
 62
253
  6
CONTINUOUS
 10
8.0665695018
 20
-20.9
 11
8.0665695018
 21
-21.4537354271
  0
LINE
  5
645
100
AcDbEntity
  8
DRAFT
100
AcDbLine
 62
253
  6
CONTINUOUS
 10
8.0665695018
 20
-20.9
 11
8.0665695018
 21
-21.4537354271
  0
LINE
  5
646
100
AcDbEntity
  8
ASSI
100
AcDbLine
 62
7
  6
CONTINUOUS
 10
8.25
 20
21.4
 11
8.25
 21
20.9
  0
LINE
  5
647
100
AcDbEntity
  8
DRAFT
100
AcDbLine
 62
7
  6
CONTINUOUS
 10
8.25
 20
21.4
 11
8.25
 21
20.9
  0
LINE
  5
648
100
AcDbEntity
  8
ASSI
100
AcDbLine
 62
7
  6
CONTINUOUS
 10
8.25
 20
-20.9
 11
8.25
 21
-21.4
  0
LINE
  5
649
100
AcDbEntity
  8
DRAFT
100
AcDbLine
 62
7
  6
CONTINUOUS
 10
8.25
 20
-20.9
 11
8.25
 21
-21.4
  0
LINE
  5
64A
100
AcDbEntity
  8
ASSI
100
AcDbLine
 62
253
  6
CONTINUOUS
 10
8.2956743158
 20
-5.8132720272
 11
8.2956743158
 21
-8.3590720153
  0
LINE
  5
64B
100
AcDbEntity
  8
0
100
AcDbLine
 62
253
  6
CONTINUOUS
 10
8.2956743158
 20
-5.8132720272
 11
8.2956743158
 21
-8.3590720153
  0
LINE
  5
64C
100
AcDbEntity
  8
ASSI
100
AcDbLine
 62
7
  6
CONTINUOUS
 10
8.4118365096
 20
-12.5132676422
 11
8.4118365096
 21
-15.5
  0
LINE
  5
64D
100
AcDbEntity
  8
DRAFT
100
AcDbLine
 62
7
  6
CONTINUOUS
 10
8.4118365096
 20
-12.5132676422
 11
8.4118365096
 21
-15.5
  0
LINE
  5
64E
100
AcDbEntity
  8
0
100
AcDbLine
 62
7
  6
CONTINUOUS
 10
8.9
 20
-5.8132720272
 11
8.9
 21
-3.6502498994
  0
LINE
  5
64F
100
AcDbEntity
  8
0
100
AcDbLine
 62
7
  6
CONTINUOUS
 10
8.9
 20
3.7455693088
 11
8.9
 21
10.2757581504
  0
LINE
  5
650
100
AcDbEntity
  8
ASSI
100
AcDbLine
 62
7
  6
CONTINUOUS
 10
8.9906527792
 20
15.8915786577
 11
8.9906527792
 21
17.4754175763
  0
LINE
  5
651
100
AcDbEntity
  8
0
100
AcDbLine
 62
7
  6
CONTINUOUS
 10
8.9906527792
 20
15.8915786577
 11
8.9906527792
 21
17.4754175763
  0
LINE
  5
652
100
AcDbEntity
  8
ASSI
100
AcDbLine
 62
7
  6
CONTINUOUS
 10
9.05
 20
12.5132676422
 11
9.05
 21
11.8
  0
LINE
  5
653
100
AcDbEntity
  8
0
100
AcDbLine
 62
7
  6
CONTINUOUS
 10
9.05
 20
12.5132676422
 11
9.05
 21
11.8
  0
LWPOLYLINE
  5
654
100
AcDbEntity
  8
ASSI
100
AcDbPolyline
 62
253
  6
CONTINUOUS
 90
25
 70
0
 10
8.0457138266
 20
-8.3590720151
 10
8.0453336074
 20
-8.3943969816
 10
8.0438091994
 20
-8.4286431048
 10
8.0412136621
 20
-8.4617566766
 10
8.0376286613
 20
-8.4936358605
 10
8.0331218878
 20
-8.5243016301
 10
8.027716149
 20
-8.5538712143
 10
8.0214483859
 20
-8.5822951263
 10
8.0143621397
 20
-8.6095206972
 10
8.0064560307
 20
-8.6356536073
 10
7.9977545281
 20
-8.6606359169
 10
7.9882844894
 20
-8.6843833545
 10
7.9780198097
 20
-8.7069473023
 10
7.9669859823
 20
-8.7282484289
 10
7.9551965163
 20
-8.7482252735
 10
7.9425854835
 20
-8.766888627
 10
7.9291324403
 20
-8.7841321562
 10
7.9148912044
 20
-8.7997689392
 10
7.8999026861
 20
-8.813663291
 10
7.8842271556
 20
-8.8256840562
 10
7.8680041681
 20
-8.8356437259
 10
7.8514560257
 20
-8.8433551653
 10
7.8347541329
 20
-8.8487566639
 10
7.8180429738
 20
-8.8519107633
 10
7.8014984055
 20
-8.8528796525
  0
LINE
  5
655
100
AcDbEntity
  8
ASSI
100
AcDbLine
 62
253
  6
CONTINUOUS
 10
7.7942462248
 20
10.2757581504
 11
7.8027470757
 21
10.9712853932
  0
LINE
  5
656
100
AcDbEntity
  8
0
100
AcDbLine
 62
253
  6
CONTINUOUS
 10
7.7942462248
 20
10.2757581504
 11
7.8027470757
 21
10.9712853932
  0
LWPOLYLINE
  5
657
100
AcDbEntity
  8
0
100
AcDbPolyline
 62
253
  6
CONTINUOUS
 90
19
 70
0
 10
8.0457138266
 20
-8.3590720151
 10
8.0448125229
 20
-8.4093112515
 10
8.0416199787
 20
-8.4574150969
 10
8.0363333155
 20
-8.5032408998
 10
8.0291504857
 20
-8.5465812115
 10
8.0202148136
 20
-8.58734914
 10
8.0096199599
 20
-8.6256353515
 10
7.9974921191
 20
-8.6613363508
 10
7.9839605856
 20
-8.6942568935
 10
7.9690856363
 20
-8.7244036029
 10
7.9529844991
 20
-8.7516703591
 10
7.9358348315
 20
-8.7758362824
 10
7.9177541409
 20
-8.7968108629
 10
7.8989493367
 20
-8.8144656187
 10
7.8796727601
 20
-8.8287398782
 10
7.8600420461
 20
-8.8396747567
 10
7.8402381222
 20
-8.8472543884
 10
7.8206203075
 20
-8.8515785669
 10
7.8014984055
 20
-8.8528796525
  0
LINE
  5
658
100
AcDbEntity
  8
ASSI
100
AcDbLine
 62
7
  6
CONTINUOUS
 10
8.0572263482
 20
-15.6047893388
 11
8.0344917046
 21
-16.6548771492
  0
LINE
  5
659
100
AcDbEntity
  8
RACCORDO
100
AcDbLine
 62
7
  6
CONTINUOUS
 10
8.0572263482
 20
-15.6047893388
 11
8.0344917046
 21
-16.6548771492
  0
LINE
  5
65A
100
AcDbEntity
  8
ASSI
100
AcDbLine
 62
7
  6
CONTINUOUS
 10
8.2547430141
 20
-15.507774954
 11
8.2351447635
 21
-16.4129962748
  0
LINE
  5
65B
100
AcDbEntity
  8
DRAFT
100
AcDbLine
 62
7
  6
CONTINUOUS
 10
8.2547430141
 20
-15.507774954
 11
8.2351447635
 21
-16.4129962748
  0
LWPOLYLINE
  5
65C
100
AcDbEntity
  8
0
100
AcDbPolyline
 62
253
  6
CONTINUOUS
 90
34
 70
0
 10
7.254371834
 20
-23.8443375673
 10
7.2546879612
 20
-23.8340637895
 10
7.2555668735
 20
-23.8238108791
 10
7.257006965
 20
-23.8136019692
 10
7.2590055309
 20
-23.8034593699
 10
7.2615583468
 20
-23.7934067803
 10
7.2646592669
 20
-23.7834691596
 10
7.2683009749
 20
-23.7736697274
 10
7.2724754803
 20
-23.7640297916
 10
7.2771734609
 20
-23.7545709211
 10
7.2823844175
 20
-23.7453143541
 10
7.2880965586
 20
-23.7362811256
 10
7.2942968909
 20
-23.7274918143
 10
7.3009713669
 20
-23.7189663226
 10
7.3081049647
 20
-23.7107238287
 10
7.3156815988
 20
-23.7027829214
 10
7.323684181
 20
-23.6951615168
 10
7.3320946393
 20
-23.6878768325
 10
7.3408939717
 20
-23.6809453292
 10
7.3500623086
 20
-23.6743826581
 10
7.3595789604
 20
-23.6682036281
 10
7.3694224454
 20
-23.6624221869
 10
7.3795705442
 20
-23.6570513849
 10
7.3900003491
 20
-23.6521033459
 10
7.4006883165
 20
-23.6475892394
 10
7.4116103331
 20
-23.6435192505
 10
7.4227417323
 20
-23.6399025721
 10
7.4340573467
 20
-23.6367473785
 10
7.4455316046
 20
-23.6340607927
 10
7.4571386303
 20
-23.6318488662
 10
7.468852264
 20
-23.6301165815
 10
7.4806460789
 20
-23.6288678476
 10
7.4924934395
 20
-23.6281054856
 10
7.5043676032
 20
-23.6278312164
  0
LWPOLYLINE
  5
65D
100
AcDbEntity
  8
0
100
AcDbPolyline
 62
253
  6
CONTINUOUS
 90
19
 70
0
 10
8.2956743158
 20
-8.3590720153
 10
8.2926799634
 20
-8.4273610028
 10
8.2858637181
 20
-8.4925182707
 10
8.2752255798
 20
-8.5545438189
 10
8.2605049002
 20
-8.6135525917
 10
8.2419623275
 20
-8.6694296448
 10
8.2203798069
 20
-8.7218301452
 10
8.1957933094
 20
-8.7707981305
 10
8.1681668638
 20
-8.8162895631
 10
8.138174502
 20
-8.8578274973
 10
8.1057137117
 20
-8.8954354748
 10
8.070887005
 20
-8.9290899539
 10
8.0346759506
 20
-8.9582433633
 10
7.9969931893
 20
-8.9827297674
 10
7.9579260802
 20
-9.0027151019
 10
7.91871827
 20
-9.0181496021
 10
7.8797843076
 20
-9.0290166798
 10
7.8407096442
 20
-9.0353329231
 10
7.8014942797
 20
-9.0370983322
  0
LWPOLYLINE
  5
65E
100
AcDbEntity
  8
ASSI
100
AcDbPolyline
 62
253
  6
CONTINUOUS
 90
19
 70
0
 10
8.2956743158
 20
-8.3590720153
 10
8.2921083354
 20
-8.4320667044
 10
8.2844142121
 20
-8.5011816265
 10
8.2725919459
 20
-8.5664167816
 10
8.2562553565
 20
-8.6278790428
 10
8.2357906243
 20
-8.685461537
 10
8.2123562895
 20
-8.7388436453
 10
8.1859852045
 20
-8.7880187938
 10
8.1566445169
 20
-8.8329935563
 10
8.1253942112
 20
-8.8734670352
 10
8.0921952214
 20
-8.9093551378
 10
8.0570866134
 20
-8.9407419567
 10
8.0212455686
 20
-8.9675788715
 10
7.9847562667
 20
-8.9896962235
 10
7.9475345279
 20
-9.0072636715
 10
7.9105049956
 20
-9.0207415707
 10
7.8739758839
 20
-9.0302833732
 10
7.8376389786
 20
-9.035735627
 10
7.8014942797
 20
-9.0370983322
  0
LINE
  5
65F
100
AcDbEntity
  8
ASSI
100
AcDbLine
 62
253
  6
CONTINUOUS
 10
7.2808029262
 20
-17.141404475
 11
7.1350621988
 21
-19.9383357914
  0
LINE
  5
660
100
AcDbEntity
  8
0
100
AcDbLine
 62
253
  6
CONTINUOUS
 10
7.2808029262
 20
-17.141404475
 11
7.1350621988
 21
-19.9383357914
  0
LWPOLYLINE
  5
661
100
AcDbEntity
  8
ASSI
100
AcDbPolyline
 62
7
  6
CONTINUOUS
 90
31
 70
0
 10
6.5191970738
 20
-17.141404475
 10
6.5216158805
 20
-17.0983361663
 10
6.5280824705
 20
-17.0567835198
 10
6.5385968438
 20
-17.0167465355
 10
6.5534196092
 20
-16.9778140462
 10
6.5722901578
 20
-16.9403972192
 10
6.5944266635
 20
-16.9057295555
 10
6.619917033
 20
-16.8739524572
 10
6.6486733595
 20
-16.8449245224
 10
6.6796500969
 20
-16.8194550468
 10
6.7128700489
 20
-16.7976741808
 10
6.7483104117
 20
-16.7794517741
 10
6.7848572278
 20
-16.7652066708
 10
6.8225079911
 20
-16.7550368434
 10
6.8612652077
 20
-16.7488443196
 10
6.9000224383
 20
-16.7467540259
 10
6.9387797364
 20
-16.7488491462
 10
6.9775370486
 20
-16.7550464967
 10
7.0151877755
 20
-16.7652214525
 10
7.0517347328
 20
-16.7794723859
 10
7.0871751049
 20
-16.7977009245
 10
7.1203938458
 20
-16.8194873263
 10
7.1513678899
 20
-16.844962628
 10
7.1801203028
 20
-16.8739957929
 10
7.2056052359
 20
-16.9057739692
 10
7.2277334481
 20
-16.9404357651
 10
7.2465941804
 20
-16.9778425723
 10
7.261409307
 20
-17.0167657146
 10
7.2719194525
 20
-17.0567956331
 10
7.2783839922
 20
-17.0983418865
 10
7.2808029262
 20
-17.141404475
  0
LWPOLYLINE
  5
662
100
AcDbEntity
  8
0
100
AcDbPolyline
 62
7
  6
CONTINUOUS
 90
28
 70
0
 10
6.5191970738
 20
-17.141404475
 10
6.521849326
 20
-17.094184118
 10
6.5297000196
 20
-17.0485426727
 10
6.5427491547
 20
-17.004480139
 10
6.5615081247
 20
-16.961169297
 10
6.5854655362
 20
-16.9194373666
 10
6.6130872084
 20
-16.8817660082
 10
6.6443475901
 20
-16.8487685744
 10
6.6792722325
 20
-16.8198317126
 10
6.716403609
 20
-16.7955970246
 10
6.7557743578
 20
-16.7761676641
 10
6.7973518407
 20
-16.7614404774
 10
6.8395806158
 20
-16.7517476054
 10
6.8824120971
 20
-16.7472052737
 10
6.9258948706
 20
-16.7476972566
 10
6.9686192526
 20
-16.753207018
 10
7.0106534947
 20
-16.7638794648
 10
7.0519293453
 20
-16.7795696899
 10
7.0908323658
 20
-16.7998264362
 10
7.1273163471
 20
-16.8248703272
 10
7.1614274983
 20
-16.8544807392
 10
7.1916900081
 20
-16.8875445442
 10
7.217933756
 20
-16.9242395103
 10
7.2403288626
 20
-16.9643878695
 10
7.2579098778
 20
-17.0063431888
 10
7.2703549852
 20
-17.0495566573
 10
7.2779860013
 20
-17.094577086
 10
7.2808029262
 20
-17.141404475
  0
LWPOLYLINE
  5
663
100
AcDbEntity
  8
ASSI
100
AcDbPolyline
 62
253
  6
CONTINUOUS
 90
16
 70
0
 10
10.145628166
 20
23.8443375673
 10
10.1441878523
 20
23.8217481519
 10
10.1400343805
 20
23.7994053159
 10
10.1332130887
 20
23.7775529472
 10
10.123798436
 20
23.7564295797
 10
10.1118931901
 20
23.7362657898
 10
10.097627305
 20
23.7172816797
 10
10.0811565031
 20
23.6996844742
 10
10.0626605746
 20
23.6836662592
 10
10.0423414158
 20
23.6694018849
 10
10.0204208246
 20
23.6570470569
 10
9.9971380796
 20
23.646736637
 10
9.9727473285
 20
23.6385831707
 10
9.9475148136
 20
23.6326756587
 10
9.9217159655
 20
23.6290785857
 10
9.8956323968
 20
23.6278312164
  0
LWPOLYLINE
  5
664
100
AcDbEntity
  8
ASSI
100
AcDbPolyline
 62
253
  6
CONTINUOUS
 90
16
 70
0
 10
7.254371834
 20
-23.8443375673
 10
7.2558110476
 20
-23.8217569904
 10
7.2599619096
 20
-23.799420258
 10
7.2667800258
 20
-23.7775711757
 10
7.2761922243
 20
-23.7564476688
 10
7.2880964269
 20
-23.7362813227
 10
7.3023619255
 20
-23.7172944979
 10
7.3188325082
 20
-23.6996950389
 10
7.3373288239
 20
-23.6836745307
 10
7.3576488061
 20
-23.6694080473
 10
7.3795705811
 20
-23.6570513664
 10
7.4028548522
 20
-23.6467393746
 10
7.4272473073
 20
-23.6385846907
 10
7.4524815956
 20
-23.6326763275
 10
7.4782822533
 20
-23.629078752
 10
7.5043676032
 20
-23.6278312164
  0
LINE
  5
665
100
AcDbEntity
  8
ASSI
100
AcDbLine
 62
7
  6
CONTINUOUS
 10
4.5612601473
 20
-19.4260209733
 11
4.5322894108
 21
-19.6
  0
LINE
  5
666
100
AcDbEntity
  8
DRAFT
100
AcDbLine
 62
7
  6
CONTINUOUS
 10
4.5612601473
 20
-19.4260209733
 11
4.5322894108
 21
-19.6
  0
LINE
  5
667
100
AcDbEntity
  8
ASSI
100
AcDbLine
 62
7
  6
CONTINUOUS
 10
-3.9700513793
 20
-16.8647171262
 11
-3.7693983204
 21
-16.6228362517
  0
LINE
  5
668
100
AcDbEntity
  8
DRAFT
100
AcDbLine
 62
7
  6
CONTINUOUS
 10
-3.9700513793
 20
-16.8647171262
 11
-3.7693983204
 21
-16.6228362517
  0
LINE
  5
669
100
AcDbEntity
  8
DRAFT
100
AcDbLine
 62
7
  6
CONTINUOUS
 10
9.9976142915
 20
-3.6502498994
 11
10.9942403901
 21
-2.8338615933
  0
LINE
  5
66A
100
AcDbEntity
  8
ASSI
100
AcDbLine
 62
7
  6
CONTINUOUS
 10
6.25
 20
7.800371928
 11
-6.25
 21
7.800371928
  0
LINE
  5
66B
100
AcDbEntity
  8
ASSI
100
AcDbLine
 62
7
  6
CONTINUOUS
 10
-9.5121049871
 20
8.2
 11
-8.9
 21
8.2
  0
LINE
  5
66C
100
AcDbEntity
  8
0
100
AcDbLine
 62
7
  6
CONTINUOUS
 10
-9.5121049871
 20
8.2
 11
-8.9
 21
8.2
  0
LINE
  5
66D
100
AcDbEntity
  8
ASSI
100
AcDbLine
 62
7
  6
CONTINUOUS
 10
8.9
 20
8.2
 11
9.5121049871
 21
8.2
  0
LINE
  5
66E
100
AcDbEntity
  8
0
100
AcDbLine
 62
7
  6
CONTINUOUS
 10
8.9
 20
8.2
 11
9.5121049871
 21
8.2
  0
LINE
  5
66F
100
AcDbEntity
  8
ASSI
100
AcDbLine
 62
253
  6
CONTINUOUS
 10
-9.5540885328
 20
8.2419835457
 11
-8.9
 21
8.2419835457
  0
LINE
  5
670
100
AcDbEntity
  8
0
100
AcDbLine
 62
253
  6
CONTINUOUS
 10
-9.5540885328
 20
8.2419835457
 11
-8.9
 21
8.2419835457
  0
LINE
  5
671
100
AcDbEntity
  8
ASSI
100
AcDbLine
 62
253
  6
CONTINUOUS
 10
9.5540885328
 20
8.2419835457
 11
8.9
 21
8.2419835457
  0
LINE
  5
672
100
AcDbEntity
  8
0
100
AcDbLine
 62
253
  6
CONTINUOUS
 10
9.5540885328
 20
8.2419835457
 11
8.9
 21
8.2419835457
  0
LINE
  5
673
100
AcDbEntity
  8
ASSI
100
AcDbLine
 62
253
  6
CONTINUOUS
 10
-9.5592336624
 20
8.5419378542
 11
-8.9
 21
8.5419378542
  0
LINE
  5
674
100
AcDbEntity
  8
0
100
AcDbLine
 62
253
  6
CONTINUOUS
 10
-9.5592336624
 20
8.5419378542
 11
-8.9
 21
8.5419378542
  0
LINE
  5
675
100
AcDbEntity
  8
ASSI
100
AcDbLine
 62
253
  6
CONTINUOUS
 10
9.5592336624
 20
8.5419378542
 11
8.9
 21
8.5419378542
  0
LINE
  5
676
100
AcDbEntity
  8
0
100
AcDbLine
 62
253
  6
CONTINUOUS
 10
9.5592336624
 20
8.5419378542
 11
8.9
 21
8.5419378542
  0
LINE
  5
677
100
AcDbEntity
  8
ASSI
100
AcDbLine
 62
253
  6
CONTINUOUS
 10
-9.5592336624
 20
8.6580621458
 11
-8.9
 21
8.6580621458
  0
LINE
  5
678
100
AcDbEntity
  8
0
100
AcDbLine
 62
253
  6
CONTINUOUS
 10
-9.5592336624
 20
8.6580621458
 11
-8.9
 21
8.6580621458
  0
LINE
  5
679
100
AcDbEntity
  8
ASSI
100
AcDbLine
 62
253
  6
CONTINUOUS
 10
8.9
 20
8.6580621458
 11
9.5592336624
 21
8.6580621458
  0
LINE
  5
67A
100
AcDbEntity
  8
0
100
AcDbLine
 62
253
  6
CONTINUOUS
 10
8.9
 20
8.6580621458
 11
9.5592336624
 21
8.6580621458
  0
LINE
  5
67B
100
AcDbEntity
  8
ASSI
100
AcDbLine
 62
253
  6
CONTINUOUS
 10
-9.5540885328
 20
8.9580164543
 11
-8.9
 21
8.9580164543
  0
LINE
  5
67C
100
AcDbEntity
  8
0
100
AcDbLine
 62
253
  6
CONTINUOUS
 10
-9.5540885328
 20
8.9580164543
 11
-8.9
 21
8.9580164543
  0
LINE
  5
67D
100
AcDbEntity
  8
ASSI
100
AcDbLine
 62
253
  6
CONTINUOUS
 10
8.9
 20
8.9580164543
 11
9.5540885328
 21
8.9580164543
  0
LINE
  5
67E
100
AcDbEntity
  8
0
100
AcDbLine
 62
253
  6
CONTINUOUS
 10
8.9
 20
8.9580164543
 11
9.5540885328
 21
8.9580164543
  0
LINE
  5
67F
100
AcDbEntity
  8
ASSI
100
AcDbLine
 62
7
  6
CONTINUOUS
 10
9.5121049871
 20
9.0
 11
8.9
 21
9.0
  0
LINE
  5
680
100
AcDbEntity
  8
0
100
AcDbLine
 62
7
  6
CONTINUOUS
 10
9.5121049871
 20
9.0
 11
8.9
 21
9.0
  0
LINE
  5
681
100
AcDbEntity
  8
ASSI
100
AcDbLine
 62
7
  6
CONTINUOUS
 10
-8.9
 20
9.0
 11
-9.5121049871
 21
9.0
  0
LINE
  5
682
100
AcDbEntity
  8
0
100
AcDbLine
 62
7
  6
CONTINUOUS
 10
-8.9
 20
9.0
 11
-9.5121049871
 21
9.0
  0
LINE
  5
683
100
AcDbEntity
  8
ASSI
100
AcDbLine
 62
7
  6
CONTINUOUS
 10
-6.3303359491
 20
17.288054608
 11
-6.3516319481
 21
17.309350607
  0
LINE
  5
684
100
AcDbEntity
  8
0
100
AcDbLine
 62
7
  6
CONTINUOUS
 10
-6.3303359491
 20
17.288054608
 11
-6.3516319481
 21
17.309350607
  0
LWPOLYLINE
  5
685
100
AcDbEntity
  8
0
100
AcDbPolyline
 62
7
  6
CONTINUOUS
 90
10
 70
0
 10
-7.2896854419
 20
24.3851625059
 10
-7.2963547045
 20
24.3950164051
 10
-7.3034852893
 20
24.4045418038
 10
-7.3110610411
 20
24.4137171191
 10
-7.3190647995
 20
24.4225215661
 10
-7.3274784339
 20
24.4309352005
 10
-7.3362828809
 20
24.4389389589
 10
-7.3454581962
 20
24.4465147107
 10
-7.3549835949
 20
24.4536452955
 10
-7.3648374941
 20
24.4603145581
  0
LWPOLYLINE
  5
686
100
AcDbEntity
  8
ASSI
100
AcDbPolyline
 62
7
  6
CONTINUOUS
 90
40
 70
0
 10
10.3
 20
0.1950467125
 10
10.2960712245
 20
0.2716495723
 10
10.2849322545
 20
0.3467966733
 10
10.26658309
 20
0.4204880155
 10
10.2408121258
 20
0.4931806507
 10
10.207830967
 20
0.5644175272
 10
10.1682744295
 20
0.6328274894
 10
10.1220151342
 20
0.6983557742
 10
10.0691804602
 20
0.7610571448
 10
10.0107873604
 20
0.8197247358
 10
9.9467281562
 20
0.8742804044
 10
9.8771105262
 20
0.9248022935
 10
9.8032744587
 20
0.9703179661
 10
9.7251382338
 20
1.0107304414
 10
9.6427835713
 20
1.0461367003
 10
9.5577956201
 20
1.0758552492
 10
9.4701233677
 20
1.099775905
 10
9.3798178265
 20
1.1180088507
 10
9.2886171823
 20
1.1302031417
 10
9.1965040951
 20
1.1362417964
 10
9.1034959049
 20
1.1362417964
 10
9.0113828177
 20
1.1302031417
 10
8.9201821735
 20
1.1180088507
 10
8.8298766323
 20
1.099775905
 10
8.7422043799
 20
1.0758552492
 10
8.6572164287
 20
1.0461367003
 10
8.5748617662
 20
1.0107304414
 10
8.4967255413
 20
0.9703179661
 10
8.4228894738
 20
0.9248022935
 10
8.3532718438
 20
0.8742804044
 10
8.2892126396
 20
0.8197247358
 10
8.2308195398
 20
0.7610571448
 10
8.1779848658
 20
0.6983557742
 10
8.1317255705
 20
0.6328274894
 10
8.092169033
 20
0.5644175272
 10
8.0591878742
 20
0.4931806507
 10
8.03341691
 20
0.4204880155
 10
8.0150677455
 20
0.3467966733
 10
8.0039287755
 20
0.2716495723
 10
8.0
 20
0.1950467125
  0
LWPOLYLINE
  5
687
100
AcDbEntity
  8
0
100
AcDbPolyline
 62
253
  6
CONTINUOUS
 90
34
 70
0
 10
10.145628166
 20
-23.8443375673
 10
10.145311504
 20
-23.8340546062
 10
10.1444313098
 20
-23.823794854
 10
10.1429895699
 20
-23.8135814673
 10
10.1409895398
 20
-23.8034375035
 10
10.1384357329
 20
-23.7933858521
 10
10.1353339075
 20
-23.7834491834
 10
10.1316910568
 20
-23.773649913
 10
10.1275154039
 20
-23.7640101717
 10
10.1228163816
 20
-23.7545517387
 10
10.1176046015
 20
-23.7452959695
 10
10.1118918239
 20
-23.7362637463
 10
10.1056909407
 20
-23.7274754512
 10
10.0990159471
 20
-23.7189509186
 10
10.0918819095
 20
-23.7107093898
 10
10.08430493
 20
-23.7027694659
 10
10.0763021104
 20
-23.6951490678
 10
10.0678915133
 20
-23.6878653946
 10
10.0590921207
 20
-23.680934885
 10
10.0499237948
 20
-23.6743731824
 10
10.0404072274
 20
-23.6681950956
 10
10.0305638912
 20
-23.6624145653
 10
10.0204159898
 20
-23.6570446328
 10
10.0099864389
 20
-23.6520974265
 10
9.9992988113
 20
-23.6475841265
 10
9.9883772514
 20
-23.6435149235
 10
9.9772463916
 20
-23.6398989896
 10
9.9659313281
 20
-23.6367444758
 10
9.954457306
 20
-23.6340584395
 10
9.9428505087
 20
-23.6318470295
 10
9.9311379997
 20
-23.630115347
 10
9.9193465228
 20
-23.6288672183
 10
9.907502412
 20
-23.6281053043
 10
9.8956323968
 20
-23.6278312164
  0
LWPOLYLINE
  5
688
100
AcDbEntity
  8
0
100
AcDbPolyline
 62
7
  6
CONTINUOUS
 90
3
 70
0
 10
10.1456238859
 20
24.2470868299
 10
10.1453445371
 20
24.2575290557
 10
10.144495097
 20
24.269398774
  0
LWPOLYLINE
  5
689
100
AcDbEntity
  8
0
100
AcDbPolyline
 62
7
  6
CONTINUOUS
 90
3
 70
0
 10
10.15
 20
24.2500042308
 10
10.1497168498
 20
24.261899516
 10
10.1488680342
 20
24.2737678556
  0
LINE
  5
68A
100
AcDbEntity
  8
ASSI
100
AcDbLine
 62
7
  6
CONTINUOUS
 10
11.15
 20
-21.5711324865
 11
11.1504363434
 21
-21.6
  0
LINE
  5
68B
100
AcDbEntity
  8
0
100
AcDbLine
 62
7
  6
CONTINUOUS
 10
11.15
 20
-21.5711324865
 11
11.1504363434
 21
-21.6
  0
LINE
  5
68C
100
AcDbEntity
  8
ASSI
100
AcDbLine
 62
253
  6
CONTINUOUS
 10
9.8956323968
 20
23.6278312164
 11
9.9007229979
 21
23.1226497308
  0
LINE
  5
68D
100
AcDbEntity
  8
0
100
AcDbLine
 62
253
  6
CONTINUOUS
 10
9.8956323968
 20
23.6278312164
 11
9.9007229979
 21
23.1226497308
  0
LINE
  5
68E
100
AcDbEntity
  8
ASSI
100
AcDbLine
 62
253
  6
CONTINUOUS
 10
10.145628166
 20
23.8443375673
 11
10.15
 21
23.4104851482
  0
LINE
  5
68F
100
AcDbEntity
  8
0
100
AcDbLine
 62
253
  6
CONTINUOUS
 10
10.145628166
 20
23.8443375673
 11
10.15
 21
23.4104851482
  0
LINE
  5
690
100
AcDbEntity
  8
ASSI
100
AcDbLine
 62
253
  6
CONTINUOUS
 10
10.145628166
 20
24.2456323968
 11
10.1456238859
 21
24.2470868299
  0
LINE
  5
691
100
AcDbEntity
  8
0
100
AcDbLine
 62
253
  6
CONTINUOUS
 10
10.145628166
 20
24.2456323968
 11
10.1456238859
 21
24.2470868299
  0
LINE
  5
692
100
AcDbEntity
  8
DRAFT
100
AcDbLine
 62
7
  6
CONTINUOUS
 10
9.9976142915
 20
5.9331455644
 11
10.0
 21
4.9914624407
  0
LINE
  5
693
100
AcDbEntity
  8
ASSI
100
AcDbLine
 62
7
  6
CONTINUOUS
 10
9.5494593275
 20
-16.6548771492
 11
9.5553984776
 21
-19.4260209733
  0
LINE
  5
694
100
AcDbEntity
  8
DRAFT
100
AcDbLine
 62
7
  6
CONTINUOUS
 10
9.5494593275
 20
-16.6548771492
 11
9.5553984776
 21
-19.4260209733
  0
LINE
  5
695
100
AcDbEntity
  8
ASSI
100
AcDbLine
 62
7
  6
CONTINUOUS
 10
9.3
 20
12.5132676422
 11
9.3
 21
9.7
  0
LINE
  5
696
100
AcDbEntity
  8
0
100
AcDbLine
 62
7
  6
CONTINUOUS
 10
9.3
 20
12.5132676422
 11
9.3
 21
9.7
  0
LINE
  5
697
100
AcDbEntity
  8
RACCORDO
100
AcDbLine
 62
7
  6
CONTINUOUS
 10
9.45
 20
-16.4129962748
 11
9.45
 21
-15.9
  0
LINE
  5
698
100
AcDbEntity
  8
ASSI
100
AcDbLine
 62
7
  6
CONTINUOUS
 10
9.5
 20
-15.9999428868
 11
9.5
 21
-16.2
  0
LINE
  5
699
100
AcDbEntity
  8
RACCORDO
100
AcDbLine
 62
7
  6
CONTINUOUS
 10
9.5
 20
-15.9999428868
 11
9.5
 21
-16.2
  0
LINE
  5
69A
100
AcDbEntity
  8
ASSI
100
AcDbLine
 62
7
  6
CONTINUOUS
 10
9.5121049871
 20
-16.2
 11
9.5121049871
 21
-4.0
  0
LINE
  5
69B
100
AcDbEntity
  8
DRAFT
100
AcDbLine
 62
7
  6
CONTINUOUS
 10
9.5121049871
 20
-16.2
 11
9.5121049871
 21
-4.0
  0
LINE
  5
69C
100
AcDbEntity
  8
ASSI
100
AcDbLine
 62
7
  6
CONTINUOUS
 10
9.5121049871
 20
5.9331455644
 11
9.5121049871
 21
8.2
  0
LINE
  5
69D
100
AcDbEntity
  8
0
100
AcDbLine
 62
7
  6
CONTINUOUS
 10
9.5121049871
 20
5.9331455644
 11
9.5121049871
 21
8.2
  0
LINE
  5
69E
100
AcDbEntity
  8
ASSI
100
AcDbLine
 62
7
  6
CONTINUOUS
 10
9.5121049871
 20
9.0
 11
9.5121049871
 21
9.9121049871
  0
LINE
  5
69F
100
AcDbEntity
  8
0
100
AcDbLine
 62
7
  6
CONTINUOUS
 10
9.5121049871
 20
9.0
 11
9.5121049871
 21
9.9121049871
  0
LINE
  5
6A0
100
AcDbEntity
  8
ASSI
100
AcDbLine
 62
7
  6
CONTINUOUS
 10
9.5592336624
 20
8.6580621458
 11
9.5592336624
 21
8.5419378542
  0
LINE
  5
6A1
100
AcDbEntity
  8
0
100
AcDbLine
 62
7
  6
CONTINUOUS
 10
9.5592336624
 20
8.6580621458
 11
9.5592336624
 21
8.5419378542
  0
LINE
  5
6A2
100
AcDbEntity
  8
ASSI
100
AcDbLine
 62
7
  6
CONTINUOUS
 10
9.5592336624
 20
7.0407663376
 11
9.5592336624
 21
5.9331455644
  0
LINE
  5
6A3
100
AcDbEntity
  8
0
100
AcDbLine
 62
7
  6
CONTINUOUS
 10
9.5592336624
 20
7.0407663376
 11
9.5592336624
 21
5.9331455644
  0
LINE
  5
6A4
100
AcDbEntity
  8
ASSI
100
AcDbLine
 62
7
  6
CONTINUOUS
 10
9.5592336624
 20
-3.6580621458
 11
9.5592336624
 21
-7.0407663376
  0
LINE
  5
6A5
100
AcDbEntity
  8
0
100
AcDbLine
 62
7
  6
CONTINUOUS
 10
9.5592336624
 20
-3.6580621458
 11
9.5592336624
 21
-7.0407663376
  0
LINE
  5
6A6
100
AcDbEntity
  8
ASSI
100
AcDbLine
 62
7
  6
CONTINUOUS
 10
9.6133443637
 20
-20.0889833137
 11
9.6133443637
 21
-19.6
  0
LINE
  5
6A7
100
AcDbEntity
  8
DRAFT
100
AcDbLine
 62
7
  6
CONTINUOUS
 10
9.6133443637
 20
-20.0889833137
 11
9.6133443637
 21
-19.6
  0
LINE
  5
6A8
100
AcDbEntity
  8
ASSI
100
AcDbLine
 62
7
  6
CONTINUOUS
 10
9.65
 20
20.1990396502
 11
9.65
 21
19.1450129975
  0
LINE
  5
6A9
100
AcDbEntity
  8
0
100
AcDbLine
 62
7
  6
CONTINUOUS
 10
9.65
 20
20.1990396502
 11
9.65
 21
19.1450129975
  0
LINE
  5
6AA
100
AcDbEntity
  8
ASSI
100
AcDbLine
 62
7
  6
CONTINUOUS
 10
9.65
 20
9.8549870025
 11
9.65
 21
7.0783629857
  0
LINE
  5
6AB
100
AcDbEntity
  8
0
100
AcDbLine
 62
7
  6
CONTINUOUS
 10
9.65
 20
9.8549870025
 11
9.65
 21
7.0783629857
  0
LINE
  5
6AC
100
AcDbEntity
  8
ASSI
100
AcDbLine
 62
7
  6
CONTINUOUS
 10
9.65
 20
-7.0783629857
 11
9.65
 21
-20.1990396502
  0
LINE
  5
6AD
100
AcDbEntity
  8
0
100
AcDbLine
 62
7
  6
CONTINUOUS
 10
9.65
 20
-7.0783629857
 11
9.65
 21
-20.1990396502
  0
LINE
  5
6AE
100
AcDbEntity
  8
ASSI
100
AcDbLine
 62
253
  6
CONTINUOUS
 10
9.8956323968
 20
-23.6278312164
 11
9.8956323968
 21
-24.495628166
  0
LINE
  5
6AF
100
AcDbEntity
  8
0
100
AcDbLine
 62
253
  6
CONTINUOUS
 10
9.8956323968
 20
-23.6278312164
 11
9.8956323968
 21
-24.495628166
  0
LINE
  5
6B0
100
AcDbEntity
  8
ASSI
100
AcDbLine
 62
253
  6
CONTINUOUS
 10
9.8956323968
 20
23.6278312164
 11
9.8956323968
 21
24.495628166
  0
LINE
  5
6B1
100
AcDbEntity
  8
0
100
AcDbLine
 62
253
  6
CONTINUOUS
 10
9.8956323968
 20
23.6278312164
 11
9.8956323968
 21
24.495628166
  0
LINE
  5
6B2
100
AcDbEntity
  8
ASSI
100
AcDbLine
 62
7
  6
CONTINUOUS
 10
10.1
 20
-6.5
 11
10.1
 21
-3.5663804369
  0
LINE
  5
6B3
100
AcDbEntity
  8
0
100
AcDbLine
 62
7
  6
CONTINUOUS
 10
10.1
 20
-6.5
 11
10.1
 21
-3.5663804369
  0
LINE
  5
6B4
100
AcDbEntity
  8
ASSI
100
AcDbLine
 62
7
  6
CONTINUOUS
 10
10.1
 20
5.849276102
 11
10.1
 21
6.5
  0
LINE
  5
6B5
100
AcDbEntity
  8
0
100
AcDbLine
 62
7
  6
CONTINUOUS
 10
10.1
 20
5.849276102
 11
10.1
 21
6.5
  0
LINE
  5
6B6
100
AcDbEntity
  8
ASSI
100
AcDbLine
 62
7
  6
CONTINUOUS
 10
10.145628166
 20
-24.2456323968
 11
10.145628166
 21
-23.8443375673
  0
LINE
  5
6B7
100
AcDbEntity
  8
0
100
AcDbLine
 62
7
  6
CONTINUOUS
 10
10.145628166
 20
-24.2456323968
 11
10.145628166
 21
-23.8443375673
  0
LINE
  5
6B8
100
AcDbEntity
  8
ASSI
100
AcDbLine
 62
7
  6
CONTINUOUS
 10
10.145628166
 20
23.8443375673
 11
10.145628166
 21
24.2456323968
  0
LINE
  5
6B9
100
AcDbEntity
  8
0
100
AcDbLine
 62
7
  6
CONTINUOUS
 10
10.145628166
 20
23.8443375673
 11
10.145628166
 21
24.2456323968
  0
LINE
  5
6BA
100
AcDbEntity
  8
RACCORDO
100
AcDbLine
 62
7
  6
CONTINUOUS
 10
10.15
 20
23.4104851482
 11
10.15
 21
22.6002134903
  0
LINE
  5
6BB
100
AcDbEntity
  8
0
100
AcDbLine
 62
7
  6
CONTINUOUS
 10
10.15
 20
-23.8443375673
 11
10.15
 21
-23.4104851482
  0
LINE
  5
6BC
100
AcDbEntity
  8
ASSI
100
AcDbLine
 62
7
  6
CONTINUOUS
 10
10.15
 20
-22.6002134903
 11
10.15
 21
-23.8443375673
  0
LINE
  5
6BD
100
AcDbEntity
  8
RACCORDO
100
AcDbLine
 62
7
  6
CONTINUOUS
 10
10.15
 20
-22.6002134903
 11
10.15
 21
-23.4104851482
  0
LINE
  5
6BE
100
AcDbEntity
  8
ASSI
100
AcDbLine
 62
7
  6
CONTINUOUS
 10
10.15
 20
22.6002134903
 11
10.15
 21
23.8443375673
  0
LINE
  5
6BF
100
AcDbEntity
  8
0
100
AcDbLine
 62
7
  6
CONTINUOUS
 10
10.15
 20
23.4104851482
 11
10.15
 21
23.8443375673
  0
LINE
  5
6C0
100
AcDbEntity
  8
ASSI
100
AcDbLine
 62
7
  6
CONTINUOUS
 10
10.1558562078
 20
-3.5206257101
 11
10.1558562078
 21
-4.9650898701
  0
LINE
  5
6C1
100
AcDbEntity
  8
0
100
AcDbLine
 62
7
  6
CONTINUOUS
 10
10.1558562078
 20
-3.5206257101
 11
10.1558562078
 21
-4.9650898701
  0
LINE
  5
6C2
100
AcDbEntity
  8
ASSI
100
AcDbLine
 62
7
  6
CONTINUOUS
 10
10.1907663376
 20
-6.5375966481
 11
10.1907663376
 21
-5.0
  0
LINE
  5
6C3
100
AcDbEntity
  8
0
100
AcDbLine
 62
7
  6
CONTINUOUS
 10
10.1907663376
 20
-6.5375966481
 11
10.1907663376
 21
-5.0
  0
LINE
  5
6C4
100
AcDbEntity
  8
ASSI
100
AcDbLine
 62
7
  6
CONTINUOUS
 10
10.1907663376
 20
5.7749246709
 11
10.1907663376
 21
6.5375966481
  0
LINE
  5
6C5
100
AcDbEntity
  8
0
100
AcDbLine
 62
7
  6
CONTINUOUS
 10
10.1907663376
 20
5.7749246709
 11
10.1907663376
 21
6.5375966481
  0
LINE
  5
6C6
100
AcDbEntity
  8
ASSI
100
AcDbLine
 62
7
  6
CONTINUOUS
 10
10.2378950129
 20
10.4428820155
 11
10.2378950129
 21
18.5571179845
  0
LINE
  5
6C7
100
AcDbEntity
  8
0
100
AcDbLine
 62
7
  6
CONTINUOUS
 10
10.2378950129
 20
10.4428820155
 11
10.2378950129
 21
18.5571179845
  0
LINE
  5
6C8
100
AcDbEntity
  8
DRAFT
100
AcDbLine
 62
7
  6
CONTINUOUS
 10
10.9942403901
 20
3.2239550184
 11
10.9942403901
 21
-2.8338615933
  0
LINE
  5
6C9
100
AcDbEntity
  8
DRAFT
100
AcDbLine
 62
7
  6
CONTINUOUS
 10
11.0
 20
4.1723103964
 11
11.0
 21
-1.8894147313
  0
LINE
  5
6CA
100
AcDbEntity
  8
ASSI
100
AcDbLine
 62
7
  6
CONTINUOUS
 10
9.522540489
 20
19.0922175394
 11
9.5242313121
 21
19.8214267532
  0
LINE
  5
6CB
100
AcDbEntity
  8
0
100
AcDbLine
 62
7
  6
CONTINUOUS
 10
9.522540489
 20
19.0922175394
 11
9.5242313121
 21
19.8214267532
  0
LINE
  5
6CC
100
AcDbEntity
  8
DRAFT
100
AcDbLine
 62
7
  6
CONTINUOUS
 10
10.0
 20
4.9914624407
 11
9.9976142915
 21
4.0403433245
  0
LINE
  5
6CD
100
AcDbEntity
  8
DRAFT
100
AcDbLine
 62
7
  6
CONTINUOUS
 10
11.0
 20
4.1723103964
 11
10.9942403901
 21
3.2239550184
  0
LINE
  5
6CE
100
AcDbEntity
  8
ASSI
100
AcDbLine
 62
253
  6
CONTINUOUS
 10
9.9007229979
 20
-23.1226497308
 11
9.8956323968
 21
-23.6278312164
  0
LINE
  5
6CF
100
AcDbEntity
  8
0
100
AcDbLine
 62
253
  6
CONTINUOUS
 10
9.9007229979
 20
-23.1226497308
 11
9.8956323968
 21
-23.6278312164
  0
LINE
  5
6D0
100
AcDbEntity
  8
ASSI
100
AcDbLine
 62
253
  6
CONTINUOUS
 10
10.15
 20
-23.4104851482
 11
10.145628166
 21
-23.8443375673
  0
LINE
  5
6D1
100
AcDbEntity
  8
0
100
AcDbLine
 62
253
  6
CONTINUOUS
 10
10.15
 20
-23.4104851482
 11
10.145628166
 21
-23.8443375673
  0
LINE
  5
6D2
100
AcDbEntity
  8
ASSI
100
AcDbLine
 62
7
  6
CONTINUOUS
 10
11.1504363434
 20
21.6
 11
11.15
 21
21.5711324865
  0
LINE
  5
6D3
100
AcDbEntity
  8
0
100
AcDbLine
 62
7
  6
CONTINUOUS
 10
11.1504363434
 20
21.6
 11
11.15
 21
21.5711324865
  0
LWPOLYLINE
  5
6D4
100
AcDbEntity
  8
0
100
AcDbPolyline
 62
253
  6
CONTINUOUS
 90
34
 70
0
 10
10.145628166
 20
23.8443375673
 10
10.1453115153
 20
23.8340547998
 10
10.1444313535
 20
23.8237952398
 10
10.1429896672
 20
23.8135820427
 10
10.1409897102
 20
23.803438259
 10
10.1384359962
 20
23.7933867826
 10
10.1353342888
 20
23.7834502991
 10
10.1316915884
 20
23.7736512346
 10
10.1275161163
 20
23.764011705
 10
10.1228172964
 20
23.7545534661
 10
10.1176057336
 20
23.7452978646
 10
10.1118931901
 20
23.7362657898
 10
10.1056925587
 20
23.7274776267
 10
10.0990178339
 20
23.7189532096
 10
10.0918840803
 20
23.7107117775
 10
10.0843073982
 20
23.702771931
 10
10.0763048877
 20
23.6951515897
 10
10.0678946101
 20
23.6878679524
 10
10.0590955469
 20
23.6809374578
 10
10.049927557
 20
23.6743757476
 10
10.040411332
 20
23.6681976311
 10
10.0305683495
 20
23.6624170521
 10
10.0204208246
 20
23.6570470569
 10
10.0099916595
 20
23.6520997654
 10
9.9993043923
 20
23.6475863432
 10
9.9883831436
 20
23.6435169769
 10
9.9772525619
 20
23.6399008509
 10
9.9659377683
 20
23.6367461264
 10
9.9544642997
 20
23.6340599235
 10
9.9428580509
 20
23.6318483049
 10
9.9311452166
 20
23.630116262
 10
9.919352232
 20
23.6288677039
 10
9.9075057131
 20
23.6281054486
 10
9.8956323968
 20
23.6278312164
  0
LINE
  5
6D5
100
AcDbEntity
  8
ASSI
100
AcDbLine
 62
7
  6
CONTINUOUS
 10
9.5
 20
-16.2
 11
9.482508826
 21
-16.4129962748
  0
LINE
  5
6D6
100
AcDbEntity
  8
DRAFT
100
AcDbLine
 62
7
  6
CONTINUOUS
 10
9.5
 20
-16.2
 11
9.482508826
 21
-16.4129962748
  0
LINE
  5
6D7
100
AcDbEntity
  8
ASSI
100
AcDbLine
 62
7
  6
CONTINUOUS
 10
7.2783549033
 20
-19.4260209733
 11
7.2493841668
 21
-19.6
  0
LINE
  5
6D8
100
AcDbEntity
  8
0
100
AcDbLine
 62
7
  6
CONTINUOUS
 10
7.2783549033
 20
-19.4260209733
 11
7.2493841668
 21
-19.6
  0
LINE
  5
6D9
100
AcDbEntity
  8
ASSI
100
AcDbLine
 62
7
  6
CONTINUOUS
 10
7.2310577445
 20
-20.9
 11
7.2493841668
 21
-20.7899436635
  0
LINE
  5
6DA
100
AcDbEntity
  8
0
100
AcDbLine
 62
7
  6
CONTINUOUS
 10
7.2310577445
 20
-20.9
 11
7.2493841668
 21
-20.7899436635
  0
LWPOLYLINE
  5
6DB
100
AcDbEntity
  8
ASSI
100
AcDbPolyline
 62
7
  6
CONTINUOUS
 90
5
 70
0
 10
3.5
 20
-23.9541479441
 10
3.5012683301
 20
-23.9499648595
 10
3.5051576752
 20
-23.9430651466
 10
3.5117838196
 20
-23.9334488053
 10
3.5212459593
 20
-23.9211822988
  0
LINE
  5
6DC
100
AcDbEntity
  8
ASSI
100
AcDbLine
 62
7
  6
CONTINUOUS
 10
9.5121049871
 20
-4.0
 11
9.5540885328
 21
-3.9580164543
  0
LINE
  5
6DD
100
AcDbEntity
  8
0
100
AcDbLine
 62
7
  6
CONTINUOUS
 10
9.5121049871
 20
-4.0
 11
9.5540885328
 21
-3.9580164543
  0
LWPOLYLINE
  5
6DE
100
AcDbEntity
  8
RACCORDO
100
AcDbPolyline
 62
7
  6
CONTINUOUS
 90
3
 70
0
 10
-9.1999907927
 20
-15.5669684318
 10
-9.153358993
 20
-15.5432139691
 10
-9.1045001531
 20
-15.5244635294
  0
LWPOLYLINE
  5
6DF
100
AcDbEntity
  8
ASSI
100
AcDbPolyline
 62
7
  6
CONTINUOUS
 90
10
 70
0
 10
8.009805689
 20
11.0358754347
 10
7.9803493025
 20
11.0346795066
 10
7.9524342557
 20
11.0318756039
 10
7.9260605488
 20
11.0274637265
 10
7.9011333433
 20
11.0212934893
 10
7.8777474777
 20
11.0135152775
 10
7.8561874666
 20
11.0045802465
 10
7.8365481484
 20
10.9946387813
 10
7.8187346848
 20
10.9835404969
 10
7.8027470757
 20
10.9712853932
  0
LWPOLYLINE
  5
6E0
100
AcDbEntity
  8
0
100
AcDbPolyline
 62
7
  6
CONTINUOUS
 90
13
 70
0
 10
8.009805689
 20
11.0358754347
 10
7.9909275582
 20
11.0354734791
 10
7.9723948115
 20
11.0342703663
 10
7.9542074489
 20
11.0322660963
 10
7.9363840304
 20
11.0294942409
 10
7.9189059959
 20
11.0259212282
 10
7.9017176656
 20
11.0214463432
 10
7.8848676292
 20
11.0161904913
 10
7.8683072969
 20
11.010032767
 10
7.8518352203
 20
11.0025097382
 10
7.8353842498
 20
10.9934669276
 10
7.8190215349
 20
10.9830588126
 10
7.8027470757
 20
10.9712853932
  0
LINE
  5
6E1
100
AcDbEntity
  8
0
100
AcDbLine
 62
7
  6
CONTINUOUS
 10
8.9
 20
10.2757581504
 11
7.25
 21
10.2757581504
  0
LINE
  5
6E2
100
AcDbEntity
  8
0
100
AcDbLine
 62
7
  6
CONTINUOUS
 10
-7.25
 20
10.2757581504
 11
-8.9
 21
10.2757581504
  0
LINE
  5
6E3
100
AcDbEntity
  8
DRAFT
100
AcDbLine
 62
7
  6
CONTINUOUS
 10
9.9976142915
 20
4.0403433245
 11
10.9942403901
 21
3.2239550184
  0
LINE
  5
6E4
100
AcDbEntity
  8
DRAFT
100
AcDbLine
 62
7
  6
CONTINUOUS
 10
10.0
 20
4.9914624407
 11
11.0
 21
4.1723103964
  0
LINE
  5
6E5
100
AcDbEntity
  8
DRAFT
100
AcDbLine
 62
7
  6
CONTINUOUS
 10
9.9976142915
 20
5.9331455644
 11
10.9942403901
 21
5.1167572583
  0
LINE
  5
6E6
100
AcDbEntity
  8
ASSI
100
AcDbLine
 62
7
  6
CONTINUOUS
 10
7.2703286495
 20
20.6641649932
 11
7.2310577445
 21
20.9
  0
LINE
  5
6E7
100
AcDbEntity
  8
0
100
AcDbLine
 62
7
  6
CONTINUOUS
 10
7.2703286495
 20
20.6641649932
 11
7.2310577445
 21
20.9
  0
LWPOLYLINE
  5
6E8
100
AcDbEntity
  8
ASSI
100
AcDbPolyline
 62
7
  6
CONTINUOUS
 90
3
 70
0
 10
10.1456238859
 20
24.2470868299
 10
10.1442574503
 20
24.2717671924
 10
10.1401620956
 20
24.2976155726
  0
LINE
  5
6E9
100
AcDbEntity
  8
ASSI
100
AcDbLine
 62
7
  6
CONTINUOUS
 10
10.15
 20
24.2500042308
 11
10.1486304926
 21
24.2761364629
  0
LINE
  5
6EA
100
AcDbEntity
  8
ASSI
100
AcDbLine
 62
7
  6
CONTINUOUS
 10
11.1665823117
 20
21.0226497308
 11
11.15
 21
21.5711324865
  0
LINE
  5
6EB
100
AcDbEntity
  8
0
100
AcDbLine
 62
7
  6
CONTINUOUS
 10
11.1665823117
 20
21.0226497308
 11
11.15
 21
21.5711324865
  0
LINE
  5
6EC
100
AcDbEntity
  8
DRAFT
100
AcDbLine
 62
7
  6
CONTINUOUS
 10
10.9942403901
 20
5.1167572583
 11
11.0
 21
4.1723103964
  0
LINE
  5
6ED
100
AcDbEntity
  8
ASSI
100
AcDbLine
 62
7
  6
CONTINUOUS
 10
11.1316721818
 20
4.9650898701
 11
11.1316721818
 21
-4.9650898701
  0
LINE
  5
6EE
100
AcDbEntity
  8
0
100
AcDbLine
 62
7
  6
CONTINUOUS
 10
11.1316721818
 20
4.9650898701
 11
11.1316721818
 21
-4.9650898701
  0
LINE
  5
6EF
100
AcDbEntity
  8
ASSI
100
AcDbLine
 62
7
  6
CONTINUOUS
 10
11.1417094756
 20
21.8941990932
 11
11.1417094756
 21
21.0226497308
  0
LINE
  5
6F0
100
AcDbEntity
  8
0
100
AcDbLine
 62
7
  6
CONTINUOUS
 10
11.1417094756
 20
21.8941990932
 11
11.1417094756
 21
21.0226497308
  0
LINE
  5
6F1
100
AcDbEntity
  8
ASSI
100
AcDbLine
 62
7
  6
CONTINUOUS
 10
11.1417094756
 20
-21.0226497308
 11
11.1417094756
 21
-21.8941990932
  0
LINE
  5
6F2
100
AcDbEntity
  8
0
100
AcDbLine
 62
7
  6
CONTINUOUS
 10
11.1417094756
 20
-21.0226497308
 11
11.1417094756
 21
-21.8941990932
  0
LINE
  5
6F3
100
AcDbEntity
  8
ASSI
100
AcDbLine
 62
7
  6
CONTINUOUS
 10
11.1504363434
 20
21.900016923
 11
11.1504363434
 21
21.6
  0
LINE
  5
6F4
100
AcDbEntity
  8
0
100
AcDbLine
 62
7
  6
CONTINUOUS
 10
11.1504363434
 20
21.900016923
 11
11.1504363434
 21
21.6
  0
LINE
  5
6F5
100
AcDbEntity
  8
ASSI
100
AcDbLine
 62
7
  6
CONTINUOUS
 10
11.1504363434
 20
-21.900016923
 11
11.1504363434
 21
-21.6
  0
LINE
  5
6F6
100
AcDbEntity
  8
0
100
AcDbLine
 62
7
  6
CONTINUOUS
 10
11.1504363434
 20
-21.900016923
 11
11.1504363434
 21
-21.6
  0
LINE
  5
6F7
100
AcDbEntity
  8
ASSI
100
AcDbLine
 62
7
  6
CONTINUOUS
 10
11.1665823117
 20
21.0226497308
 11
11.1665823117
 21
5.0
  0
LINE
  5
6F8
100
AcDbEntity
  8
0
100
AcDbLine
 62
7
  6
CONTINUOUS
 10
11.1665823117
 20
21.0226497308
 11
11.1665823117
 21
5.0
  0
LINE
  5
6F9
100
AcDbEntity
  8
ASSI
100
AcDbLine
 62
7
  6
CONTINUOUS
 10
11.1665823117
 20
-5.0
 11
11.1665823117
 21
-21.0226497308
  0
LINE
  5
6FA
100
AcDbEntity
  8
0
100
AcDbLine
 62
7
  6
CONTINUOUS
 10
11.1665823117
 20
-5.0
 11
11.1665823117
 21
-21.0226497308
  0
LINE
  5
6FB
100
AcDbEntity
  8
DRAFT
100
AcDbLine
 62
7
  6
CONTINUOUS
 10
11.0
 20
-1.8894147313
 11
10.9942403901
 21
-2.8338615933
  0
LINE
  5
6FC
100
AcDbEntity
  8
ASSI
100
AcDbLine
 62
7
  6
CONTINUOUS
 10
11.1665823117
 20
-21.0226497308
 11
11.15
 21
-21.5711324865
  0
LINE
  5
6FD
100
AcDbEntity
  8
0
100
AcDbLine
 62
7
  6
CONTINUOUS
 10
11.1665823117
 20
-21.0226497308
 11
11.15
 21
-21.5711324865
  0
LINE
  5
6FE
100
AcDbEntity
  8
0
100
AcDbLine
 62
7
  6
CONTINUOUS
 10
-4.3367739381
 20
-23.8652290101
 11
-4.3172765175
 21
-23.8435426683
  0
LINE
  5
6FF
100
AcDbEntity
  8
ASSI
100
AcDbLine
 62
7
  6
CONTINUOUS
 10
9.5592336624
 20
-7.0407663376
 11
10.1
 21
-6.5
  0
LINE
  5
700
100
AcDbEntity
  8
0
100
AcDbLine
 62
7
  6
CONTINUOUS
 10
9.5592336624
 20
-7.0407663376
 11
10.1
 21
-6.5
  0
LINE
  5
701
100
AcDbEntity
  8
ASSI
100
AcDbLine
 62
7
  6
CONTINUOUS
 10
9.65
 20
-7.0783629857
 11
10.1907663376
 21
-6.5375966481
  0
LINE
  5
702
100
AcDbEntity
  8
0
100
AcDbLine
 62
7
  6
CONTINUOUS
 10
9.65
 20
-7.0783629857
 11
10.1907663376
 21
-6.5375966481
  0
LINE
  5
703
100
AcDbEntity
  8
ASSI
100
AcDbLine
 62
7
  6
CONTINUOUS
 10
-4.45
 20
-22.4
 11
-4.406077753
 21
-22.356077753
  0
LINE
  5
704
100
AcDbEntity
  8
0
100
AcDbLine
 62
7
  6
CONTINUOUS
 10
-4.45
 20
-22.4
 11
-4.406077753
 21
-22.356077753
  0
LINE
  5
705
100
AcDbEntity
  8
ASSI
100
AcDbLine
 62
7
  6
CONTINUOUS
 10
-7.1905416262
 20
-22.3359700255
 11
-7.2558178298
 21
-22.3941821702
  0
LINE
  5
706
100
AcDbEntity
  8
DRAFT
100
AcDbLine
 62
7
  6
CONTINUOUS
 10
-7.1905416262
 20
-22.3359700255
 11
-7.2558178298
 21
-22.3941821702
  0
LINE
  5
707
100
AcDbEntity
  8
0
100
AcDbLine
 62
253
  6
CONTINUOUS
 10
-11.1504363434
 20
-21.900016923
 11
-11.1417094756
 21
-21.8941990932
  0
LINE
  5
708
100
AcDbEntity
  8
ASSI
100
AcDbLine
 62
7
  6
CONTINUOUS
 10
8.0098985976
 20
11.0358799731
 11
8.2858754347
 21
11.0358754347
  0
LINE
  5
709
100
AcDbEntity
  8
0
100
AcDbLine
 62
7
  6
CONTINUOUS
 10
8.0098985976
 20
11.0358799731
 11
8.2858754347
 21
11.0358754347
  0
LINE
  5
70A
100
AcDbEntity
  8
ASSI
100
AcDbLine
 62
7
  6
CONTINUOUS
 10
-8.2858754347
 20
11.0358754347
 11
-8.0099286992
 21
11.0358873797
  0
LINE
  5
70B
100
AcDbEntity
  8
0
100
AcDbLine
 62
7
  6
CONTINUOUS
 10
-8.2858754347
 20
11.0358754347
 11
-8.0099286992
 21
11.0358873797
  0
LINE
  5
70C
100
AcDbEntity
  8
ASSI
100
AcDbLine
 62
7
  6
CONTINUOUS
 10
9.3
 20
12.5132676422
 11
9.05
 21
12.5132676422
  0
LINE
  5
70D
100
AcDbEntity
  8
0
100
AcDbLine
 62
7
  6
CONTINUOUS
 10
9.3
 20
12.5132676422
 11
9.05
 21
12.5132676422
  0
LINE
  5
70E
100
AcDbEntity
  8
ASSI
100
AcDbLine
 62
7
  6
CONTINUOUS
 10
-9.05
 20
12.5132676422
 11
-9.3
 21
12.5132676422
  0
LINE
  5
70F
100
AcDbEntity
  8
0
100
AcDbLine
 62
7
  6
CONTINUOUS
 10
-9.05
 20
12.5132676422
 11
-9.3
 21
12.5132676422
  0
LWPOLYLINE
  5
710
100
AcDbEntity
  8
0
100
AcDbPolyline
 62
253
  6
CONTINUOUS
 90
16
 70
0
 10
7.8027470757
 20
10.9712853932
 10
7.8120791705
 20
10.9708060693
 10
7.8212531321
 20
10.9694083951
 10
7.8302573524
 20
10.9671014998
 10
7.8390632332
 20
10.9638687381
 10
7.8476796524
 20
10.9597459046
 10
7.8561519037
 20
10.9548176398
 10
7.8644776028
 20
10.9491049025
 10
7.8726424707
 20
10.9425987979
 10
7.880673044
 20
10.9353341108
 10
7.8885633915
 20
10.9273181486
 10
7.8963040129
 20
10.9185523904
 10
7.9039146883
 20
10.9090594854
 10
7.9113963243
 20
10.8988484442
 10
7.9187321341
 20
10.8879163651
 10
7.9259146609
 20
10.8762666672
  0
LWPOLYLINE
  5
711
100
AcDbEntity
  8
ASSI
100
AcDbPolyline
 62
253
  6
CONTINUOUS
 90
13
 70
0
 10
7.8027470757
 20
10.9712853932
 10
7.8140190959
 20
10.9706415105
 10
7.8252640505
 20
10.9685154439
 10
7.8364588669
 20
10.9649074642
 10
7.8476563311
 20
10.959731577
 10
7.8587560214
 20
10.9530721475
 10
7.8695115366
 20
10.945203786
 10
7.8798304444
 20
10.936166178
 10
7.8897815987
 20
10.9259631174
 10
7.8993703562
 20
10.9148320721
 10
7.9085942388
 20
10.9028637253
 10
7.9174433855
 20
10.8900028639
 10
7.9259146609
 20
10.8762666672
  0
LINE
  5
712
100
AcDbEntity
  8
ASSI
100
AcDbLine
 62
7
  6
CONTINUOUS
 10
-8.9906527792
 20
17.4754175763
 11
-9.0428893018
 21
17.4970546524
  0
LINE
  5
713
100
AcDbEntity
  8
0
100
AcDbLine
 62
7
  6
CONTINUOUS
 10
-8.9906527792
 20
17.4754175763
 11
-9.0428893018
 21
17.4970546524
  0
LINE
  5
714
100
AcDbEntity
  8
ASSI
100
AcDbLine
 62
7
  6
CONTINUOUS
 10
9.5121049871
 20
9.9121049871
 11
9.65
 21
9.8549870025
  0
LINE
  5
715
100
AcDbEntity
  8
0
100
AcDbLine
 62
7
  6
CONTINUOUS
 10
9.5121049871
 20
9.9121049871
 11
9.65
 21
9.8549870025
  0
LINE
  5
716
100
AcDbEntity
  8
0
100
AcDbLine
 62
253
  6
CONTINUOUS
 10
-11.1417094756
 20
21.8941990932
 11
-11.1504363434
 21
21.900016923
  0
LINE
  5
717
100
AcDbEntity
  8
ASSI
100
AcDbLine
 62
7
  6
CONTINUOUS
 10
-7.1905416262
 20
22.3359700255
 11
-7.2558178298
 21
22.3941821702
  0
LINE
  5
718
100
AcDbEntity
  8
DRAFT
100
AcDbLine
 62
7
  6
CONTINUOUS
 10
-7.1905416262
 20
22.3359700255
 11
-7.2558178298
 21
22.3941821702
  0
LINE
  5
719
100
AcDbEntity
  8
ASSI
100
AcDbLine
 62
7
  6
CONTINUOUS
 10
10.1
 20
6.5
 11
9.5592336624
 21
7.0407663376
  0
LINE
  5
71A
100
AcDbEntity
  8
0
100
AcDbLine
 62
7
  6
CONTINUOUS
 10
10.1
 20
6.5
 11
9.5592336624
 21
7.0407663376
  0
LINE
  5
71B
100
AcDbEntity
  8
ASSI
100
AcDbLine
 62
7
  6
CONTINUOUS
 10
10.1907663376
 20
6.5375966481
 11
9.65
 21
7.0783629857
  0
LINE
  5
71C
100
AcDbEntity
  8
0
100
AcDbLine
 62
7
  6
CONTINUOUS
 10
10.1907663376
 20
6.5375966481
 11
9.65
 21
7.0783629857
  0
LINE
  5
71D
100
AcDbEntity
  8
ASSI
100
AcDbLine
 62
7
  6
CONTINUOUS
 10
-4.45
 20
22.4
 11
-4.406077753
 21
22.356077753
  0
LINE
  5
71E
100
AcDbEntity
  8
0
100
AcDbLine
 62
7
  6
CONTINUOUS
 10
-4.45
 20
22.4
 11
-4.406077753
 21
22.356077753
  0
LWPOLYLINE
  5
71F
100
AcDbEntity
  8
0
100
AcDbPolyline
 62
7
  6
CONTINUOUS
 90
18
 70
0
 10
-4.3172831421
 20
23.8435499864
 10
-4.3367531337
 20
23.8652058808
 10
-4.3454714091
 20
23.8750310991
 10
-4.3535280217
 20
23.884199584
 10
-4.3609380918
 20
23.8927147477
 10
-4.3677301728
 20
23.9006323202
 10
-4.3739088451
 20
23.9079485854
 10
-4.3794942766
 20
23.9146672595
 10
-4.3845274753
 20
23.9208552212
 10
-4.3890174755
 20
23.9265240819
 10
-4.3929654053
 20
23.9316622301
 10
-4.3963878867
 20
23.9363017102
 10
-4.3992889353
 20
23.9404472176
 10
-4.4016697392
 20
23.9440940568
 10
-4.403536573
 20
23.9472601861
 10
-4.4048921362
 20
23.9499515917
 10
-4.4057380931
 20
23.9521622873
 10
-4.406077753
 20
23.9538922731
  0
LWPOLYLINE
  5
720
100
AcDbEntity
  8
0
100
AcDbPolyline
 62
253
  6
CONTINUOUS
 90
22
 70
0
 10
7.9259146609
 20
10.8762666672
 10
7.9398796556
 20
10.8501493502
 10
7.9524074652
 20
10.8239562007
 10
7.9635596957
 20
10.7977979568
 10
7.9732718441
 20
10.7719085091
 10
7.9817788405
 20
10.7462468057
 10
7.9895433032
 20
10.7204590266
 10
7.9966356759
 20
10.6946339378
 10
8.0030435084
 20
10.668750504
 10
8.0090073116
 20
10.6422334832
 10
8.0145551651
 20
10.6150094734
 10
8.0196458083
 20
10.5871764515
 10
8.024354653
 20
10.5583918591
 10
8.0286734366
 20
10.5285628342
 10
8.0325588512
 20
10.4977968433
 10
8.0360047721
 20
10.4660448068
 10
8.0389808033
 20
10.4332911464
 10
8.0414539395
 20
10.3995707343
 10
8.0434006189
 20
10.3649098378
 10
8.0447854436
 20
10.3293260976
 10
8.0455681673
 20
10.2928294794
 10
8.0456339993
 20
10.2757581504
  0
LWPOLYLINE
  5
721
100
AcDbEntity
  8
ASSI
100
AcDbPolyline
 62
253
  6
CONTINUOUS
 90
13
 70
0
 10
7.9259146609
 20
10.8762666672
 10
7.945723047
 20
10.837922261
 10
7.9636317003
 20
10.7967515218
 10
7.9796068179
 20
10.7529168122
 10
7.9935216258
 20
10.7065766746
 10
8.0055622585
 20
10.6578800333
 10
8.016089188
 20
10.6069083937
 10
8.0250801483
 20
10.5537918124
 10
8.0324630301
 20
10.4985565234
 10
8.0383267704
 20
10.4410560653
 10
8.0425838372
 20
10.3812799966
 10
8.045078199
 20
10.3193785328
 10
8.0455108198
 20
10.2757581504
  0
LWPOLYLINE
  5
722
100
AcDbEntity
  8
0
100
AcDbPolyline
 62
7
  6
CONTINUOUS
 90
4
 70
0
 10
10.1430817682
 20
-24.2812146563
 10
10.144495097
 20
-24.269398774
 10
10.1453445371
 20
-24.2575290557
 10
10.145628166
 20
-24.2456323968
  0
LWPOLYLINE
  5
723
100
AcDbEntity
  8
0
100
AcDbPolyline
 62
7
  6
CONTINUOUS
 90
4
 70
0
 10
10.1474554741
 20
-24.2855823661
 10
10.1488680342
 20
-24.2737678556
 10
10.1497168498
 20
-24.261899516
 10
10.15
 20
-24.2500042308
  0
LINE
  5
724
100
AcDbEntity
  8
0
100
AcDbLine
 62
7
  6
CONTINUOUS
 10
-4.3172765175
 20
-23.8435426683
 11
-4.2949737104
 21
-23.8190583896
  0
LWPOLYLINE
  5
725
100
AcDbEntity
  8
ASSI
100
AcDbPolyline
 62
7
  6
CONTINUOUS
 90
3
 70
0
 10
-4.3163763214
 20
-23.8424821527
 10
-4.2648556748
 20
-23.7863702213
 10
-4.2349409085
 20
-23.7541166056
  0
LINE
  5
726
100
AcDbEntity
  8
0
100
AcDbLine
 62
7
  6
CONTINUOUS
 10
-4.2949737104
 20
-23.8190583896
 11
-4.2697991478
 21
-23.7917098312
  0
LINE
  5
727
100
AcDbEntity
  8
0
100
AcDbLine
 62
7
  6
CONTINUOUS
 10
-4.2697991478
 20
-23.7917098312
 11
-4.2265017585
 21
-23.7451532286
  0
LINE
  5
728
100
AcDbEntity
  8
ASSI
100
AcDbLine
 62
7
  6
CONTINUOUS
 10
-4.2349409085
 20
-23.7541166056
 11
-4.1291459884
 21
-23.6415875862
  0
LINE
  5
729
100
AcDbEntity
  8
ASSI
100
AcDbLine
 62
7
  6
CONTINUOUS
 10
-4.0001468778
 20
-23.506376907
 11
-3.9530427099
 21
-23.4563578147
  0
LINE
  5
72A
100
AcDbEntity
  8
0
100
AcDbLine
 62
7
  6
CONTINUOUS
 10
-4.2265017585
 20
-23.7451532286
 11
-4.158299461
 21
-23.6725538202
  0
LINE
  5
72B
100
AcDbEntity
  8
0
100
AcDbLine
 62
7
  6
CONTINUOUS
 10
-4.158299461
 20
-23.6725538202
 11
-4.1201669583
 21
-23.6322335604
  0
LINE
  5
72C
100
AcDbEntity
  8
0
100
AcDbLine
 62
7
  6
CONTINUOUS
 10
-4.1201669583
 20
-23.6322335604
 11
-3.9530427099
 21
-23.4563578147
  0
LINE
  5
72D
100
AcDbEntity
  8
ASSI
100
AcDbLine
 62
7
  6
CONTINUOUS
 10
-4.1291459884
 20
-23.6415875862
 11
-4.0001468778
 21
-23.506376907
  0
LINE
  5
72E
100
AcDbEntity
  8
ASSI
100
AcDbLine
 62
7
  6
CONTINUOUS
 10
-4.4063493531
 20
-23.9563493531
 11
-4.45
 21
-24.0
  0
LINE
  5
72F
100
AcDbEntity
  8
0
100
AcDbLine
 62
7
  6
CONTINUOUS
 10
-4.4063493531
 20
-23.9563493531
 11
-4.45
 21
-24.0
  0
LINE
  5
730
100
AcDbEntity
  8
ASSI
100
AcDbLine
 62
7
  6
CONTINUOUS
 10
6.3397373285
 20
13.8475670731
 11
-6.3397373285
 21
13.8475670731
  0
LINE
  5
731
100
AcDbEntity
  8
0
100
AcDbLine
 62
7
  6
CONTINUOUS
 10
6.3397373285
 20
13.8475670731
 11
-6.3397373285
 21
13.8475670731
  0
LINE
  5
732
100
AcDbEntity
  8
ASSI
100
AcDbLine
 62
7
  6
CONTINUOUS
 10
-10.2378950129
 20
18.5571179845
 11
-10.1091494158
 21
18.5037898121
  0
LINE
  5
733
100
AcDbEntity
  8
0
100
AcDbLine
 62
7
  6
CONTINUOUS
 10
-10.2378950129
 20
18.5571179845
 11
-10.1091494158
 21
18.5037898121
  0
LINE
  5
734
100
AcDbEntity
  8
ASSI
100
AcDbLine
 62
7
  6
CONTINUOUS
 10
10.2378950129
 20
10.4428820155
 11
10.0985247911
 21
10.5006110515
  0
LINE
  5
735
100
AcDbEntity
  8
0
100
AcDbLine
 62
7
  6
CONTINUOUS
 10
10.2378950129
 20
10.4428820155
 11
10.0985247911
 21
10.5006110515
  0
LINE
  5
736
100
AcDbEntity
  8
ASSI
100
AcDbLine
 62
7
  6
CONTINUOUS
 10
-9.65
 20
19.1450129975
 11
-9.522540489
 21
19.0922175394
  0
LINE
  5
737
100
AcDbEntity
  8
0
100
AcDbLine
 62
7
  6
CONTINUOUS
 10
-9.65
 20
19.1450129975
 11
-9.522540489
 21
19.0922175394
  0
LINE
  5
738
100
AcDbEntity
  8
ASSI
100
AcDbLine
 62
7
  6
CONTINUOUS
 10
-8.040866681
 20
18.4962168554
 11
-7.9906527792
 21
18.4754175763
  0
LINE
  5
739
100
AcDbEntity
  8
0
100
AcDbLine
 62
7
  6
CONTINUOUS
 10
-8.040866681
 20
18.4962168554
 11
-7.9906527792
 21
18.4754175763
  0
LINE
  5
73A
100
AcDbEntity
  8
ASSI
100
AcDbLine
 62
7
  6
CONTINUOUS
 10
9.0406132198
 20
11.8038881317
 11
9.05
 21
11.8
  0
LINE
  5
73B
100
AcDbEntity
  8
0
100
AcDbLine
 62
7
  6
CONTINUOUS
 10
9.0406132198
 20
11.8038881317
 11
9.05
 21
11.8
  0
LWPOLYLINE
  5
73C
100
AcDbEntity
  8
0
100
AcDbPolyline
 62
253
  6
CONTINUOUS
 90
7
 70
0
 10
8.05
 20
10.9997313407
 10
8.0434504158
 20
11.0062040964
 10
8.0368472385
 20
11.0124976587
 10
8.030190468
 20
11.0186120276
 10
8.0234801043
 20
11.0245472029
 10
8.0167161475
 20
11.0303031848
 10
8.0098985976
 20
11.0358799731
  0
LWPOLYLINE
  5
73D
100
AcDbEntity
  8
ASSI
100
AcDbPolyline
 62
253
  6
CONTINUOUS
 90
10
 70
0
 10
8.05
 20
10.9997313407
 10
8.045630357
 20
11.0040735471
 10
8.041239022
 20
11.0083347478
 10
8.0368259952
 20
11.0125149428
 10
8.0323910433
 20
11.0166146883
 10
8.0279343995
 20
11.020633428
 10
8.0234567631
 20
11.0245694933
 10
8.0189583672
 20
11.0284223277
 10
8.0144389787
 20
11.0321924877
 10
8.0098985976
 20
11.0358799731
  0
LINE
  5
73E
100
AcDbEntity
  8
ASSI
100
AcDbLine
 62
7
  6
CONTINUOUS
 10
9.5121049871
 20
9.0
 11
9.5540885328
 21
8.9580164543
  0
LINE
  5
73F
100
AcDbEntity
  8
0
100
AcDbLine
 62
7
  6
CONTINUOUS
 10
9.5121049871
 20
9.0
 11
9.5540885328
 21
8.9580164543
  0
LINE
  5
740
100
AcDbEntity
  8
ASSI
100
AcDbLine
 62
7
  6
CONTINUOUS
 10
-4.4063493531
 20
23.9563493531
 11
-4.45
 21
24.0
  0
LINE
  5
741
100
AcDbEntity
  8
0
100
AcDbLine
 62
7
  6
CONTINUOUS
 10
-4.4063493531
 20
23.9563493531
 11
-4.45
 21
24.0
  0
LINE
  5
742
100
AcDbEntity
  8
ASSI
100
AcDbLine
 62
7
  6
CONTINUOUS
 10
-4.0001471037
 20
23.5063771548
 11
-4.1291468841
 21
23.6415885278
  0
LINE
  5
743
100
AcDbEntity
  8
0
100
AcDbLine
 62
7
  6
CONTINUOUS
 10
-3.9530427099
 20
23.4563578147
 11
-4.1765651105
 21
23.691942519
  0
LINE
  5
744
100
AcDbEntity
  8
ASSI
100
AcDbLine
 62
7
  6
CONTINUOUS
 10
-3.9530427099
 20
23.4563578147
 11
-4.0001471037
 21
23.5063771548
  0
LINE
  5
745
100
AcDbEntity
  8
ASSI
100
AcDbLine
 62
7
  6
CONTINUOUS
 10
-4.1291468841
 20
23.6415885278
 11
-4.2349422446
 21
23.7541180368
  0
LINE
  5
746
100
AcDbEntity
  8
0
100
AcDbLine
 62
7
  6
CONTINUOUS
 10
-4.1765651105
 20
23.691942519
 11
-4.2417591309
 21
23.7615073779
  0
LINE
  5
747
100
AcDbEntity
  8
0
100
AcDbLine
 62
7
  6
CONTINUOUS
 10
-4.2417591309
 20
23.7615073779
 11
-4.2827783753
 21
23.805779536
  0
LWPOLYLINE
  5
748
100
AcDbEntity
  8
ASSI
100
AcDbPolyline
 62
7
  6
CONTINUOUS
 90
11
 70
0
 10
-4.2349422446
 20
23.7541180368
 10
-4.2920173217
 20
23.8158337533
 10
-4.3163776535
 20
23.8424836144
 10
-4.3378061012
 20
23.8663418585
 10
-4.3562448712
 20
23.8873083105
 10
-4.3716932399
 20
23.9052861253
 10
-4.3841893025
 20
23.9203721479
 10
-4.3937865503
 20
23.932756738
 10
-4.4005644443
 20
23.9425033488
 10
-4.4046230678
 20
23.9495485272
 10
-4.406077753
 20
23.9538922731
  0
LWPOLYLINE
  5
749
100
AcDbEntity
  8
0
100
AcDbPolyline
 62
7
  6
CONTINUOUS
 90
3
 70
0
 10
-4.2827783753
 20
23.805779536
 10
-4.306495839
 20
23.8316665171
 10
-4.3172831421
 20
23.8435499864
  0
LINE
  5
74A
100
AcDbEntity
  8
ASSI
100
AcDbLine
 62
253
  6
CONTINUOUS
 10
6.6962073865
 20
16.4183680519
 11
6.7703857627
 21
16.27
  0
LINE
  5
74B
100
AcDbEntity
  8
0
100
AcDbLine
 62
253
  6
CONTINUOUS
 10
6.6962073865
 20
16.4183680519
 11
6.7703857627
 21
16.27
  0
LINE
  5
74C
100
AcDbEntity
  8
ASSI
100
AcDbLine
 62
7
  6
CONTINUOUS
 10
6.6038497267
 20
17.309350607
 11
6.5200097822
 21
17.4770432671
  0
LINE
  5
74D
100
AcDbEntity
  8
0
100
AcDbLine
 62
7
  6
CONTINUOUS
 10
6.6038497267
 20
17.309350607
 11
6.5200097822
 21
17.4770432671
  0
LINE
  5
74E
100
AcDbEntity
  8
ASSI
100
AcDbLine
 62
253
  6
CONTINUOUS
 10
7.1961502733
 20
16.9183680548
 11
7.2703286495
 21
16.7700000029
  0
LINE
  5
74F
100
AcDbEntity
  8
0
100
AcDbLine
 62
253
  6
CONTINUOUS
 10
7.1961502733
 20
16.9183680548
 11
7.2703286495
 21
16.7700000029
  0
LINE
  5
750
100
AcDbEntity
  8
ASSI
100
AcDbLine
 62
7
  6
CONTINUOUS
 10
8.0361335915
 20
20.5276115984
 11
7.9906527792
 21
20.6641649932
  0
LINE
  5
751
100
AcDbEntity
  8
0
100
AcDbLine
 62
7
  6
CONTINUOUS
 10
8.0361335915
 20
20.5276115984
 11
7.9906527792
 21
20.6641649932
  0
LINE
  5
752
100
AcDbEntity
  8
0
100
AcDbLine
 62
7
  6
CONTINUOUS
 10
10.1474554741
 20
24.2855823661
 11
10.1454823677
 21
24.2973162875
  0
LINE
  5
753
100
AcDbEntity
  8
ASSI
100
AcDbLine
 62
7
  6
CONTINUOUS
 10
10.1486304926
 20
24.2761364629
 11
10.1445369567
 21
24.3019821969
  0
LWPOLYLINE
  5
754
100
AcDbEntity
  8
0
100
AcDbPolyline
 62
7
  6
CONTINUOUS
 90
4
 70
0
 10
10.144495097
 20
24.269398774
 10
10.1430817682
 20
24.2812146563
 10
10.1411077496
 20
24.292949936
 10
10.1385775126
 20
24.3045780153
  0
LINE
  5
755
100
AcDbEntity
  8
0
100
AcDbLine
 62
7
  6
CONTINUOUS
 10
10.1488680342
 20
24.2737678556
 11
10.1474554741
 21
24.2855823661
  0
LWPOLYLINE
  5
756
100
AcDbEntity
  8
ASSI
100
AcDbPolyline
 62
7
  6
CONTINUOUS
 90
4
 70
0
 10
10.1377642763
 20
-24.3272582821
 10
10.1445369567
 20
-24.3019821969
 10
10.1486304926
 20
-24.2761364629
 10
10.15
 20
-24.2500042308
  0
LINE
  5
757
100
AcDbEntity
  8
ASSI
100
AcDbLine
 62
7
  6
CONTINUOUS
 10
4.563606387
 20
-17.236393613
 11
4.5043253562
 21
-17.2956746438
  0
LINE
  5
758
100
AcDbEntity
  8
RACCORDO
100
AcDbLine
 62
7
  6
CONTINUOUS
 10
4.563606387
 20
-17.236393613
 11
4.5043253562
 21
-17.2956746438
  0
LWPOLYLINE
  5
759
100
AcDbEntity
  8
0
100
AcDbPolyline
 62
7
  6
CONTINUOUS
 90
10
 70
0
 10
-7.3648374941
 20
-24.4603145581
 10
-7.3549835949
 20
-24.4536452955
 10
-7.3454581962
 20
-24.4465147107
 10
-7.3362828809
 20
-24.4389389589
 10
-7.3274784339
 20
-24.4309352005
 10
-7.3190647995
 20
-24.4225215661
 10
-7.3110610411
 20
-24.4137171191
 10
-7.3034852893
 20
-24.4045418038
 10
-7.2963547045
 20
-24.3950164051
 10
-7.2896854419
 20
-24.3851625059
  0
LINE
  5
75A
100
AcDbEntity
  8
ASSI
100
AcDbLine
 62
7
  6
CONTINUOUS
 10
6.5
 20
16.2699372043
 11
6.7703857627
 21
16.27
  0
LINE
  5
75B
100
AcDbEntity
  8
0
100
AcDbLine
 62
7
  6
CONTINUOUS
 10
6.5
 20
16.2699372043
 11
6.7703857627
 21
16.27
  0
LINE
  5
75C
100
AcDbEntity
  8
ASSI
100
AcDbLine
 62
253
  6
CONTINUOUS
 10
6.3093453702
 20
14.9279184107
 11
-6.3093453702
 21
14.9279184107
  0
LINE
  5
75D
100
AcDbEntity
  8
0
100
AcDbLine
 62
253
  6
CONTINUOUS
 10
6.3093453702
 20
14.9279184107
 11
-6.3093453702
 21
14.9279184107
  0
LINE
  5
75E
100
AcDbEntity
  8
ASSI
100
AcDbLine
 62
7
  6
CONTINUOUS
 10
-8.9906527792
 20
15.8915786577
 11
-7.25
 21
15.8915786577
  0
LINE
  5
75F
100
AcDbEntity
  8
0
100
AcDbLine
 62
7
  6
CONTINUOUS
 10
-8.9906527792
 20
15.8915786577
 11
-7.25
 21
15.8915786577
  0
LINE
  5
760
100
AcDbEntity
  8
ASSI
100
AcDbLine
 62
7
  6
CONTINUOUS
 10
7.25
 20
15.8915786577
 11
8.9906527792
 21
15.8915786577
  0
LINE
  5
761
100
AcDbEntity
  8
0
100
AcDbLine
 62
7
  6
CONTINUOUS
 10
7.25
 20
15.8915786577
 11
8.9906527792
 21
15.8915786577
  0
LINE
  5
762
100
AcDbEntity
  8
0
100
AcDbLine
 62
7
  6
CONTINUOUS
 10
7.25
 20
15.9541648703
 11
6.3265901342
 21
15.9541648703
  0
LINE
  5
763
100
AcDbEntity
  8
0
100
AcDbLine
 62
7
  6
CONTINUOUS
 10
-6.3265901342
 20
15.9541648703
 11
-7.25
 21
15.9541648703
  0
LINE
  5
764
100
AcDbEntity
  8
ASSI
100
AcDbLine
 62
7
  6
CONTINUOUS
 10
-6.5
 20
16.27
 11
-6.7703857627
 21
16.27
  0
LINE
  5
765
100
AcDbEntity
  8
0
100
AcDbLine
 62
7
  6
CONTINUOUS
 10
-6.5
 20
16.27
 11
-6.7703857627
 21
16.27
  0
LINE
  5
766
100
AcDbEntity
  8
ASSI
100
AcDbLine
 62
7
  6
CONTINUOUS
 10
6.3516319481
 20
16.4183680519
 11
6.5
 21
16.2699372043
  0
LINE
  5
767
100
AcDbEntity
  8
0
100
AcDbLine
 62
7
  6
CONTINUOUS
 10
6.3516319481
 20
16.4183680519
 11
6.5
 21
16.2699372043
  0
LWPOLYLINE
  5
768
100
AcDbEntity
  8
ASSI
100
AcDbPolyline
 62
7
  6
CONTINUOUS
 90
13
 70
0
 10
10.1401620956
 20
24.2976155726
 10
10.1333869849
 20
24.3228942697
 10
10.1240063557
 20
24.3473262874
 10
10.1121230179
 20
24.3706438507
 10
10.0978672544
 20
24.3925913542
 10
10.0813952999
 20
24.4129283166
 10
10.062887702
 20
24.4314318691
 10
10.0425474347
 20
24.447899163
 10
10.0205960432
 20
24.4621506181
 10
9.9972753535
 20
24.474029031
 10
9.9728457634
 20
24.4834027437
 10
9.9475771282
 20
24.4901702663
 10
9.9225124747
 20
24.4941779536
  0
LWPOLYLINE
  5
769
100
AcDbEntity
  8
0
100
AcDbPolyline
 62
7
  6
CONTINUOUS
 90
24
 70
0
 10
10.1385775126
 20
24.3045780153
 10
10.135496794
 20
24.3160725264
 10
10.1318725768
 20
24.3274074189
 10
10.1277130725
 20
24.3385570152
 10
10.1230277082
 20
24.3494960488
 10
10.1178271006
 20
24.3601997352
 10
10.1121230353
 20
24.3706438204
 10
10.105928443
 20
24.3808046326
 10
10.0992573629
 20
24.3906591487
 10
10.0921249119
 20
24.4001850429
 10
10.0845472554
 20
24.4093607299
 10
10.0765415612
 20
24.4181654255
 10
10.068125975
 20
24.4265791771
 10
10.0593195834
 20
24.4345829086
 10
10.0501423702
 20
24.4421584695
 10
10.0406151087
 20
24.4492887229
 10
10.030759324
 20
24.4559575601
 10
10.0205972484
 20
24.4621499225
 10
10.0101519949
 20
24.467851711
 10
9.9994474601
 20
24.4730498963
 10
9.988508059
 20
24.4777326699
 10
9.977358447
 20
24.4818895243
 10
9.9660236819
 20
24.4855111341
 10
9.9545277163
 20
24.4885897127
  0
LINE
  5
76A
100
AcDbEntity
  8
ASSI
100
AcDbLine
 62
7
  6
CONTINUOUS
 10
10.1445369567
 20
24.3019821969
 11
10.1377642763
 21
24.3272582821
  0
LWPOLYLINE
  5
76B
100
AcDbEntity
  8
0
100
AcDbPolyline
 62
7
  6
CONTINUOUS
 90
7
 70
0
 10
10.1454823677
 20
24.2973162875
 10
10.1429531817
 20
24.3089430388
 10
10.1398736417
 20
24.320436279
 10
10.1362507213
 20
24.3317699738
 10
10.1320926258
 20
24.3429184493
 10
10.1274087722
 20
24.3538564463
 10
10.1222097688
 20
24.3645591876
  0
LINE
  5
76C
100
AcDbEntity
  8
ASSI
100
AcDbLine
 62
7
  6
CONTINUOUS
 10
10.1283866972
 20
-24.3516877999
 11
10.1377642763
 21
-24.3272582821
  0
LINE
  5
76D
100
AcDbEntity
  8
ASSI
100
AcDbLine
 62
7
  6
CONTINUOUS
 10
3.5212459593
 20
-23.9211822988
 11
3.5336242813
 21
-23.9061991639
  0
LINE
  5
76E
100
AcDbEntity
  8
ASSI
100
AcDbLine
 62
7
  6
CONTINUOUS
 10
8.2351447635
 20
-16.4129962748
 11
8.0344917046
 21
-16.6548771492
  0
LINE
  5
76F
100
AcDbEntity
  8
DRAFT
100
AcDbLine
 62
7
  6
CONTINUOUS
 10
8.2351447635
 20
-16.4129962748
 11
8.0344917046
 21
-16.6548771492
  0
LINE
  5
770
100
AcDbEntity
  8
0
100
AcDbLine
 62
7
  6
CONTINUOUS
 10
3.5314043747
 20
-23.9088709045
 11
3.537539271
 21
-23.9015909124
  0
LWPOLYLINE
  5
771
100
AcDbEntity
  8
0
100
AcDbPolyline
 62
7
  6
CONTINUOUS
 90
3
 70
0
 10
-7.3854408124
 20
-24.4722097688
 10
-7.3749975717
 20
-24.4665073916
 10
-7.3648374941
 20
-24.4603145581
  0
LINE
  5
772
100
AcDbEntity
  8
ASSI
100
AcDbLine
 62
7
  6
CONTINUOUS
 10
-6.6962073865
 20
16.4183680519
 11
-6.3516319481
 21
16.4183680519
  0
LINE
  5
773
100
AcDbEntity
  8
ASSI
100
AcDbLine
 62
7
  6
CONTINUOUS
 10
6.6962073865
 20
16.4183680519
 11
6.3516319481
 21
16.4183680519
  0
LINE
  5
774
100
AcDbEntity
  8
0
100
AcDbLine
 62
7
  6
CONTINUOUS
 10
6.6962073865
 20
16.4183680519
 11
6.3516319481
 21
16.4183680519
  0
LINE
  5
775
100
AcDbEntity
  8
0
100
AcDbLine
 62
7
  6
CONTINUOUS
 10
-6.6962073865
 20
16.4183680519
 11
-6.3516319481
 21
16.4183680519
  0
LINE
  5
776
100
AcDbEntity
  8
ASSI
100
AcDbLine
 62
253
  6
CONTINUOUS
 10
6.3303359491
 20
17.288054608
 11
-6.3303359491
 21
17.288054608
  0
LINE
  5
777
100
AcDbEntity
  8
0
100
AcDbLine
 62
253
  6
CONTINUOUS
 10
6.3303359491
 20
17.288054608
 11
-6.3303359491
 21
17.288054608
  0
LINE
  5
778
100
AcDbEntity
  8
ASSI
100
AcDbLine
 62
7
  6
CONTINUOUS
 10
-6.3516319481
 20
17.309350607
 11
-6.6038497267
 21
17.309350607
  0
LINE
  5
779
100
AcDbEntity
  8
ASSI
100
AcDbLine
 62
7
  6
CONTINUOUS
 10
6.3516319481
 20
17.309350607
 11
6.6038497267
 21
17.309350607
  0
LINE
  5
77A
100
AcDbEntity
  8
0
100
AcDbLine
 62
7
  6
CONTINUOUS
 10
6.3516319481
 20
17.309350607
 11
6.6038497267
 21
17.309350607
  0
LINE
  5
77B
100
AcDbEntity
  8
0
100
AcDbLine
 62
7
  6
CONTINUOUS
 10
-6.3516319481
 20
17.309350607
 11
-6.6038497267
 21
17.309350607
  0
LINE
  5
77C
100
AcDbEntity
  8
ASSI
100
AcDbLine
 62
7
  6
CONTINUOUS
 10
-6.5200097822
 20
17.4770432671
 11
6.5200097822
 21
17.4770432671
  0
LINE
  5
77D
100
AcDbEntity
  8
0
100
AcDbLine
 62
7
  6
CONTINUOUS
 10
-6.5200097822
 20
17.4770432671
 11
6.5200097822
 21
17.4770432671
  0
LWPOLYLINE
  5
77E
100
AcDbEntity
  8
0
100
AcDbPolyline
 62
7
  6
CONTINUOUS
 90
3
 70
0
 10
-7.3648374941
 20
24.4603145581
 10
-7.3749975717
 20
24.4665073916
 10
-7.3854408124
 20
24.4722097688
  0
LINE
  5
77F
100
AcDbEntity
  8
ASSI
100
AcDbLine
 62
7
  6
CONTINUOUS
 10
10.1377642763
 20
24.3272582821
 11
10.1283866972
 21
24.3516877999
  0
LWPOLYLINE
  5
780
100
AcDbEntity
  8
0
100
AcDbPolyline
 62
7
  6
CONTINUOUS
 90
8
 70
0
 10
10.1222097688
 20
-24.3645591876
 10
10.1274087722
 20
-24.3538564463
 10
10.1320926258
 20
-24.3429184493
 10
10.1362507213
 20
-24.3317699738
 10
10.1398736417
 20
-24.320436279
 10
10.1429531817
 20
-24.3089430388
 10
10.1454823677
 20
-24.2973162875
 10
10.1474554741
 20
-24.2855823661
  0
LWPOLYLINE
  5
781
100
AcDbEntity
  8
0
100
AcDbPolyline
 62
7
  6
CONTINUOUS
 90
5
 70
0
 10
3.537539271
 20
-23.9015909124
 10
3.5442933123
 20
-23.8937036725
 10
3.5516716298
 20
-23.8852131357
 10
3.5597018238
 20
-23.8760640086
 10
3.5683992806
 20
-23.8662524494
  0
LWPOLYLINE
  5
782
100
AcDbEntity
  8
ASSI
100
AcDbPolyline
 62
7
  6
CONTINUOUS
 90
4
 70
0
 10
3.5336242813
 20
-23.9061991639
 10
3.5489774984
 20
-23.8883000115
 10
3.5673485936
 20
-23.8673854868
 10
3.5887369041
 20
-23.8435549445
  0
LINE
  5
783
100
AcDbEntity
  8
0
100
AcDbLine
 62
7
  6
CONTINUOUS
 10
3.5683992806
 20
-23.8662524494
 11
3.5878432063
 21
-23.844609792
  0
LINE
  5
784
100
AcDbEntity
  8
0
100
AcDbLine
 62
7
  6
CONTINUOUS
 10
3.5878432063
 20
-23.844609792
 11
3.6101151379
 21
-23.8201466435
  0
LWPOLYLINE
  5
785
100
AcDbEntity
  8
ASSI
100
AcDbPolyline
 62
7
  6
CONTINUOUS
 90
3
 70
0
 10
3.5887369041
 20
-23.8435549445
 10
3.6402571352
 20
-23.7874200898
 10
3.6702115048
 20
-23.7551157774
  0
LINE
  5
786
100
AcDbEntity
  8
0
100
AcDbLine
 62
7
  6
CONTINUOUS
 10
3.6101151379
 20
-23.8201466435
 11
3.6352836295
 21
-23.7927942239
  0
LINE
  5
787
100
AcDbEntity
  8
0
100
AcDbLine
 62
7
  6
CONTINUOUS
 10
3.6352836295
 20
-23.7927942239
 11
3.6786244973
 21
-23.7461793948
  0
LINE
  5
788
100
AcDbEntity
  8
ASSI
100
AcDbLine
 62
7
  6
CONTINUOUS
 10
3.6702115048
 20
-23.7551157774
 11
3.7762715106
 21
-23.6422921356
  0
LINE
  5
789
100
AcDbEntity
  8
ASSI
100
AcDbLine
 62
7
  6
CONTINUOUS
 10
3.9057453647
 20
-23.5065856761
 11
3.9530427099
 21
-23.4563578147
  0
LINE
  5
78A
100
AcDbEntity
  8
0
100
AcDbLine
 62
7
  6
CONTINUOUS
 10
3.6786244973
 20
-23.7461793948
 11
3.7469827906
 21
-23.6734047495
  0
LWPOLYLINE
  5
78B
100
AcDbEntity
  8
0
100
AcDbPolyline
 62
7
  6
CONTINUOUS
 90
3
 70
0
 10
3.7469827906
 20
-23.6734047495
 10
3.8887426218
 20
-23.5239242054
 10
3.9530427099
 20
-23.4563578147
  0
LINE
  5
78C
100
AcDbEntity
  8
ASSI
100
AcDbLine
 62
7
  6
CONTINUOUS
 10
3.7762715106
 20
-23.6422921356
 11
3.9057453647
 21
-23.5065856761
  0
LWPOLYLINE
  5
78D
100
AcDbEntity
  8
ASSI
100
AcDbPolyline
 62
7
  6
CONTINUOUS
 90
8
 70
0
 10
-7.3983122001
 20
-24.4783866972
 10
-7.3749968634
 20
-24.4665069813
 10
-7.3530510932
 20
-24.4522552626
 10
-7.3327153179
 20
-24.4357876883
 10
-7.3142123117
 20
-24.4172846821
 10
-7.2977447374
 20
-24.3969489068
 10
-7.2834930187
 20
-24.3750031366
 10
-7.2716133028
 20
-24.3516877999
  0
LINE
  5
78E
100
AcDbEntity
  8
ASSI
100
AcDbLine
 62
7
  6
CONTINUOUS
 10
-6.5052970084
 20
19.1629601676
 11
6.5052970084
 21
19.1629601676
  0
LINE
  5
78F
100
AcDbEntity
  8
0
100
AcDbLine
 62
7
  6
CONTINUOUS
 10
-6.5052970084
 20
19.1629601676
 11
6.5052970084
 21
19.1629601676
  0
LWPOLYLINE
  5
790
100
AcDbEntity
  8
0
100
AcDbPolyline
 62
7
  6
CONTINUOUS
 90
8
 70
0
 10
-7.3854408124
 20
24.4722097688
 10
-7.3961435537
 20
24.4774087722
 10
-7.4070815507
 20
24.4820926258
 10
-7.4182300262
 20
24.4862507213
 10
-7.429563721
 20
24.4898736417
 10
-7.4410569612
 20
24.4929531817
 10
-7.4526837125
 20
24.4954823677
 10
-7.4644176339
 20
24.4974554741
  0
LINE
  5
791
100
AcDbEntity
  8
ASSI
100
AcDbLine
 62
7
  6
CONTINUOUS
 10
8.9906527792
 20
17.4754175763
 11
7.9906527792
 21
18.4754175763
  0
LINE
  5
792
100
AcDbEntity
  8
0
100
AcDbLine
 62
7
  6
CONTINUOUS
 10
8.9906527792
 20
17.4754175763
 11
7.9906527792
 21
18.4754175763
  0
LINE
  5
793
100
AcDbEntity
  8
ASSI
100
AcDbLine
 62
7
  6
CONTINUOUS
 10
3.905745137
 20
23.5065859254
 11
3.77627062
 21
23.6422930719
  0
LINE
  5
794
100
AcDbEntity
  8
0
100
AcDbLine
 62
7
  6
CONTINUOUS
 10
3.9530427099
 20
23.4563578147
 11
3.7286778988
 21
23.6928369767
  0
LINE
  5
795
100
AcDbEntity
  8
ASSI
100
AcDbLine
 62
7
  6
CONTINUOUS
 10
3.9530427099
 20
23.4563578147
 11
3.905745137
 21
23.5065859254
  0
LINE
  5
796
100
AcDbEntity
  8
ASSI
100
AcDbLine
 62
7
  6
CONTINUOUS
 10
3.77627062
 20
23.6422930719
 11
3.6702101943
 21
23.7551171814
  0
LINE
  5
797
100
AcDbEntity
  8
0
100
AcDbLine
 62
7
  6
CONTINUOUS
 10
3.7286778988
 20
23.6928369767
 11
3.6633536234
 21
23.7625515554
  0
LINE
  5
798
100
AcDbEntity
  8
0
100
AcDbLine
 62
7
  6
CONTINUOUS
 10
3.6633536234
 20
23.7625515554
 11
3.6223129064
 21
23.8068596585
  0
LWPOLYLINE
  5
799
100
AcDbEntity
  8
ASSI
100
AcDbPolyline
 62
7
  6
CONTINUOUS
 90
11
 70
0
 10
3.6702101943
 20
23.7551171814
 10
3.6130825534
 20
23.8169085038
 10
3.5887356266
 20
23.8435563483
 10
3.5673474039
 20
23.8673868071
 10
3.5489764632
 20
23.8883012018
 10
3.5336234507
 20
23.9062001553
 10
3.5212453518
 20
23.9211830448
 10
3.5117834355
 20
23.9334493231
 10
3.5051574867
 20
23.9430654746
 10
3.5012682787
 20
23.9499650149
 10
3.5
 20
23.9541479441
  0
LINE
  5
79A
100
AcDbEntity
  8
0
100
AcDbLine
 62
7
  6
CONTINUOUS
 10
3.6223129064
 20
23.8068596585
 11
3.5986146604
 21
23.8327369404
  0
LWPOLYLINE
  5
79B
100
AcDbEntity
  8
0
100
AcDbPolyline
 62
7
  6
CONTINUOUS
 90
19
 70
0
 10
3.5986146604
 20
23.8327369404
 10
3.577788302
 20
23.8557654259
 10
3.5684285884
 20
23.8662197598
 10
3.5597433108
 20
23.8760170069
 10
3.5517238946
 20
23.8851536246
 10
3.5443545838
 20
23.8936331555
 10
3.5376052965
 20
23.901513278
 10
3.5314713862
 20
23.9087908768
 10
3.52593297
 20
23.9154690671
 10
3.5209487025
 20
23.9216148736
 10
3.5165095884
 20
23.9272405051
 10
3.5126153719
 20
23.9323337527
 10
3.5092504675
 20
23.9369250142
 10
3.5064111837
 20
23.9410186345
 10
3.5040963884
 20
23.9446102688
 10
3.5023001913
 20
23.9477172805
 10
3.5010200733
 20
23.9503454576
 10
3.5002544119
 20
23.9524890121
 10
3.5
 20
23.9541479441
  0
LWPOLYLINE
  5
79C
100
AcDbEntity
  8
0
100
AcDbPolyline
 62
7
  6
CONTINUOUS
 90
3
 70
0
 10
10.1103145581
 20
-24.3851625059
 10
10.1165073916
 20
-24.3750024283
 10
10.1222097688
 20
-24.3645591876
  0
LINE
  5
79D
100
AcDbEntity
  8
ASSI
100
AcDbLine
 62
7
  6
CONTINUOUS
 10
9.6133443637
 20
-20.0889833137
 11
8.9132380261
 21
-20.7899436635
  0
LINE
  5
79E
100
AcDbEntity
  8
0
100
AcDbLine
 62
7
  6
CONTINUOUS
 10
9.6133443637
 20
-20.0889833137
 11
8.9132380261
 21
-20.7899436635
  0
LINE
  5
79F
100
AcDbEntity
  8
ASSI
100
AcDbLine
 62
7
  6
CONTINUOUS
 10
9.65
 20
-20.1990396502
 11
8.9498936624
 21
-20.9
  0
LINE
  5
7A0
100
AcDbEntity
  8
0
100
AcDbLine
 62
7
  6
CONTINUOUS
 10
9.65
 20
-20.1990396502
 11
8.9498936624
 21
-20.9
  0
LINE
  5
7A1
100
AcDbEntity
  8
ASSI
100
AcDbLine
 62
7
  6
CONTINUOUS
 10
8.25
 20
-21.4
 11
7.2558178298
 21
-22.3941821702
  0
LINE
  5
7A2
100
AcDbEntity
  8
DRAFT
100
AcDbLine
 62
7
  6
CONTINUOUS
 10
8.25
 20
-21.4
 11
7.2558178298
 21
-22.3941821702
  0
LINE
  5
7A3
100
AcDbEntity
  8
ASSI
100
AcDbLine
 62
7
  6
CONTINUOUS
 10
-7.4227417179
 20
-24.4877642763
 11
-7.3983122001
 21
-24.4783866972
  0
LWPOLYLINE
  5
7A4
100
AcDbEntity
  8
ASSI
100
AcDbPolyline
 62
7
  6
CONTINUOUS
 90
3
 70
0
 10
7.4480178031
 20
24.4945369567
 10
7.4227417179
 20
24.4877642763
 10
7.3983122001
 20
24.4783866972
  0
LWPOLYLINE
  5
7A5
100
AcDbEntity
  8
ASSI
100
AcDbPolyline
 62
7
  6
CONTINUOUS
 90
14
 70
0
 10
7.4524228718
 20
24.4901702663
 10
7.4271542366
 20
24.4834027437
 10
7.4027246465
 20
24.474029031
 10
7.3794039568
 20
24.4621506181
 10
7.3574525653
 20
24.447899163
 10
7.337112298
 20
24.4314318691
 10
7.3186047001
 20
24.4129283166
 10
7.3021327456
 20
24.3925913542
 10
7.2878769821
 20
24.3706438507
 10
7.2759936443
 20
24.3473262874
 10
7.2666130151
 20
24.3228942697
 10
7.2598379044
 20
24.2976155726
 10
7.2557425497
 20
24.2717671924
 10
7.254371834
 20
24.2456323968
  0
LWPOLYLINE
  5
7A6
100
AcDbEntity
  8
0
100
AcDbPolyline
 62
7
  6
CONTINUOUS
 90
26
 70
0
 10
7.4454722837
 20
24.4885897127
 10
7.4339763181
 20
24.4855111341
 10
7.422641553
 20
24.4818895243
 10
7.411491941
 20
24.4777326699
 10
7.4005525399
 20
24.4730498963
 10
7.3898480051
 20
24.467851711
 10
7.3794027516
 20
24.4621499225
 10
7.369240676
 20
24.4559575601
 10
7.3593848913
 20
24.4492887229
 10
7.3498576298
 20
24.4421584695
 10
7.3406804166
 20
24.4345829086
 10
7.331874025
 20
24.4265791771
 10
7.3234584388
 20
24.4181654255
 10
7.3154527446
 20
24.4093607299
 10
7.3078750881
 20
24.4001850429
 10
7.3007426371
 20
24.3906591487
 10
7.294071557
 20
24.3808046326
 10
7.2878769647
 20
24.3706438204
 10
7.2821728994
 20
24.3601997352
 10
7.2769722918
 20
24.3494960488
 10
7.2722869275
 20
24.3385570152
 10
7.2681274232
 20
24.3274074189
 10
7.264503206
 20
24.3160725264
 10
7.2614224874
 20
24.3045780153
 10
7.2588922504
 20
24.292949936
 10
7.2569182318
 20
24.2812146563
  0
LINE
  5
7A7
100
AcDbEntity
  8
ASSI
100
AcDbLine
 62
7
  6
CONTINUOUS
 10
6.6649378012
 20
20.0
 11
-6.6649378012
 21
20.0
  0
LINE
  5
7A8
100
AcDbEntity
  8
0
100
AcDbLine
 62
7
  6
CONTINUOUS
 10
6.6649378012
 20
20.0
 11
-6.6649378012
 21
20.0
  0
LINE
  5
7A9
100
AcDbEntity
  8
ASSI
100
AcDbLine
 62
7
  6
CONTINUOUS
 10
8.8258650579
 20
20.5276115984
 11
8.0361335915
 21
20.5276115984
  0
LINE
  5
7AA
100
AcDbEntity
  8
0
100
AcDbLine
 62
7
  6
CONTINUOUS
 10
8.8258650579
 20
20.5276115984
 11
8.0361335915
 21
20.5276115984
  0
LINE
  5
7AB
100
AcDbEntity
  8
ASSI
100
AcDbLine
 62
7
  6
CONTINUOUS
 10
-8.0361335915
 20
20.5276115984
 11
-8.8258650579
 21
20.5276115984
  0
LINE
  5
7AC
100
AcDbEntity
  8
0
100
AcDbLine
 62
7
  6
CONTINUOUS
 10
-8.0361335915
 20
20.5276115984
 11
-8.8258650579
 21
20.5276115984
  0
LINE
  5
7AD
100
AcDbEntity
  8
ASSI
100
AcDbLine
 62
7
  6
CONTINUOUS
 10
7.2703286495
 20
20.6641649932
 11
7.9906527792
 21
20.6641649932
  0
LINE
  5
7AE
100
AcDbEntity
  8
0
100
AcDbLine
 62
7
  6
CONTINUOUS
 10
7.2703286495
 20
20.6641649932
 11
7.9906527792
 21
20.6641649932
  0
LINE
  5
7AF
100
AcDbEntity
  8
ASSI
100
AcDbLine
 62
7
  6
CONTINUOUS
 10
-7.2703286495
 20
20.6641649932
 11
-7.9906527792
 21
20.6641649932
  0
LINE
  5
7B0
100
AcDbEntity
  8
0
100
AcDbLine
 62
7
  6
CONTINUOUS
 10
-7.2703286495
 20
20.6641649932
 11
-7.9906527792
 21
20.6641649932
  0
LINE
  5
7B1
100
AcDbEntity
  8
ASSI
100
AcDbLine
 62
7
  6
CONTINUOUS
 10
-3.0
 20
20.8
 11
3.0
 21
20.8
  0
LINE
  5
7B2
100
AcDbEntity
  8
0
100
AcDbLine
 62
7
  6
CONTINUOUS
 10
-3.0
 20
20.8
 11
3.0
 21
20.8
  0
LINE
  5
7B3
100
AcDbEntity
  8
ASSI
100
AcDbLine
 62
7
  6
CONTINUOUS
 10
-7.1350621988
 20
20.9
 11
-8.9498936624
 21
20.9
  0
LINE
  5
7B4
100
AcDbEntity
  8
ASSI
100
AcDbLine
 62
7
  6
CONTINUOUS
 10
7.1350621988
 20
20.9
 11
8.9498936624
 21
20.9
  0
LINE
  5
7B5
100
AcDbEntity
  8
0
100
AcDbLine
 62
7
  6
CONTINUOUS
 10
-7.1350621988
 20
20.9
 11
-8.9498936624
 21
20.9
  0
LINE
  5
7B6
100
AcDbEntity
  8
0
100
AcDbLine
 62
7
  6
CONTINUOUS
 10
7.1350621988
 20
20.9
 11
8.9498936624
 21
20.9
  0
LINE
  5
7B7
100
AcDbEntity
  8
ASSI
100
AcDbLine
 62
7
  6
CONTINUOUS
 10
11.1417094756
 20
21.0226497308
 11
11.1665823117
 21
21.0226497308
  0
LINE
  5
7B8
100
AcDbEntity
  8
ASSI
100
AcDbLine
 62
7
  6
CONTINUOUS
 10
-11.1417094756
 20
21.0226497308
 11
-11.1665823117
 21
21.0226497308
  0
LINE
  5
7B9
100
AcDbEntity
  8
0
100
AcDbLine
 62
7
  6
CONTINUOUS
 10
11.1417094756
 20
21.0226497308
 11
11.1665823117
 21
21.0226497308
  0
LINE
  5
7BA
100
AcDbEntity
  8
0
100
AcDbLine
 62
7
  6
CONTINUOUS
 10
-11.1417094756
 20
21.0226497308
 11
-11.1665823117
 21
21.0226497308
  0
LINE
  5
7BB
100
AcDbEntity
  8
ASSI
100
AcDbLine
 62
253
  6
CONTINUOUS
 10
7.5666456542
 20
21.3359869487
 11
3.0
 21
21.3359869487
  0
LINE
  5
7BC
100
AcDbEntity
  8
0
100
AcDbLine
 62
253
  6
CONTINUOUS
 10
7.5666456542
 20
21.3359869487
 11
3.0
 21
21.3359869487
  0
LINE
  5
7BD
100
AcDbEntity
  8
ASSI
100
AcDbLine
 62
253
  6
CONTINUOUS
 10
-3.0
 20
21.3359869487
 11
-7.5666456542
 21
21.3359869487
  0
LINE
  5
7BE
100
AcDbEntity
  8
0
100
AcDbLine
 62
253
  6
CONTINUOUS
 10
-3.0
 20
21.3359869487
 11
-7.5666456542
 21
21.3359869487
  0
LINE
  5
7BF
100
AcDbEntity
  8
ASSI
100
AcDbLine
 62
7
  6
CONTINUOUS
 10
3.0
 20
21.7
 11
-3.0
 21
21.7
  0
LINE
  5
7C0
100
AcDbEntity
  8
0
100
AcDbLine
 62
7
  6
CONTINUOUS
 10
3.0
 20
21.7
 11
-3.0
 21
21.7
  0
LWPOLYLINE
  5
7C1
100
AcDbEntity
  8
ASSI
100
AcDbPolyline
 62
7
  6
CONTINUOUS
 90
4
 70
0
 10
-7.4227417179
 20
24.4877642763
 10
-7.4480178031
 20
24.4945369567
 10
-7.4738635371
 20
24.4986304926
 10
-7.4999957692
 20
24.5
  0
LINE
  5
7C2
100
AcDbEntity
  8
ASSI
100
AcDbLine
 62
7
  6
CONTINUOUS
 10
-7.3983122001
 20
24.4783866972
 11
-7.4227417179
 21
24.4877642763
  0
LINE
  5
7C3
100
AcDbEntity
  8
ASSI
100
AcDbLine
 62
7
  6
CONTINUOUS
 10
10.2378950129
 20
18.5571179845
 11
9.65
 21
19.1450129975
  0
LINE
  5
7C4
100
AcDbEntity
  8
0
100
AcDbLine
 62
7
  6
CONTINUOUS
 10
10.2378950129
 20
18.5571179845
 11
9.65
 21
19.1450129975
  0
LINE
  5
7C5
100
AcDbEntity
  8
ASSI
100
AcDbLine
 62
7
  6
CONTINUOUS
 10
7.2558178298
 20
22.3941821702
 11
8.25
 21
21.4
  0
LINE
  5
7C6
100
AcDbEntity
  8
DRAFT
100
AcDbLine
 62
7
  6
CONTINUOUS
 10
7.2558178298
 20
22.3941821702
 11
8.25
 21
21.4
  0
LINE
  5
7C7
100
AcDbEntity
  8
ASSI
100
AcDbLine
 62
7
  6
CONTINUOUS
 10
9.65
 20
20.1990396502
 11
8.9498936624
 21
20.9
  0
LINE
  5
7C8
100
AcDbEntity
  8
0
100
AcDbLine
 62
7
  6
CONTINUOUS
 10
9.65
 20
20.1990396502
 11
8.9498936624
 21
20.9
  0
LINE
  5
7C9
100
AcDbEntity
  8
ASSI
100
AcDbLine
 62
7
  6
CONTINUOUS
 10
9.5242313121
 20
19.8214267532
 11
8.8258650579
 21
20.5276115984
  0
LINE
  5
7CA
100
AcDbEntity
  8
0
100
AcDbLine
 62
7
  6
CONTINUOUS
 10
9.5242313121
 20
19.8214267532
 11
8.8258650579
 21
20.5276115984
  0
LWPOLYLINE
  5
7CB
100
AcDbEntity
  8
0
100
AcDbPolyline
 62
7
  6
CONTINUOUS
 90
3
 70
0
 10
10.1222097688
 20
24.3645591876
 10
10.1165073916
 20
24.3750024283
 10
10.1103145581
 20
24.3851625059
  0
LWPOLYLINE
  5
7CC
100
AcDbEntity
  8
ASSI
100
AcDbPolyline
 62
7
  6
CONTINUOUS
 90
7
 70
0
 10
10.1283866972
 20
24.3516877999
 10
10.1165069813
 20
24.3750031366
 10
10.1022552626
 20
24.3969489068
 10
10.0857876883
 20
24.4172846821
 10
10.0672846821
 20
24.4357876883
 10
10.0469489068
 20
24.4522552626
 10
10.0250031366
 20
24.4665069813
  0
LINE
  5
7CD
100
AcDbEntity
  8
ASSI
100
AcDbLine
 62
7
  6
CONTINUOUS
 10
8.0665695018
 20
-21.4537354271
 11
8.25
 21
-21.4
  0
LINE
  5
7CE
100
AcDbEntity
  8
DRAFT
100
AcDbLine
 62
7
  6
CONTINUOUS
 10
8.0665695018
 20
-21.4537354271
 11
8.25
 21
-21.4
  0
LWPOLYLINE
  5
7CF
100
AcDbEntity
  8
0
100
AcDbPolyline
 62
7
  6
CONTINUOUS
 90
9
 70
0
 10
7.4526837125
 20
24.4954823677
 10
7.4410569612
 20
24.4929531817
 10
7.429563721
 20
24.4898736417
 10
7.4182300262
 20
24.4862507213
 10
7.4070815507
 20
24.4820926258
 10
7.3961435537
 20
24.4774087722
 10
7.3854408124
 20
24.4722097688
 10
7.3749975717
 20
24.4665073916
 10
7.3648374941
 20
24.4603145581
  0
LINE
  5
7D0
100
AcDbEntity
  8
0
100
AcDbLine
 62
7
  6
CONTINUOUS
 10
7.457101719
 20
24.4911177026
 11
7.4454722837
 21
24.4885897127
  0
LINE
  5
7D1
100
AcDbEntity
  8
0
100
AcDbLine
 62
7
  6
CONTINUOUS
 10
7.4644176339
 20
24.4974554741
 11
7.4526837125
 21
24.4954823677
  0
LINE
  5
7D2
100
AcDbEntity
  8
ASSI
100
AcDbLine
 62
7
  6
CONTINUOUS
 10
7.4774875253
 20
24.4941779536
 11
7.4524228718
 21
24.4901702663
  0
LINE
  5
7D3
100
AcDbEntity
  8
ASSI
100
AcDbLine
 62
7
  6
CONTINUOUS
 10
7.4738635371
 20
24.4986304926
 11
7.4480178031
 21
24.4945369567
  0
LWPOLYLINE
  5
7D4
100
AcDbEntity
  8
0
100
AcDbPolyline
 62
7
  6
CONTINUOUS
 90
3
 70
0
 10
7.4774875253
 20
24.4941779536
 10
7.4688332136
 20
24.4930886486
 10
7.457101719
 20
24.4911177026
  0
LINE
  5
7D5
100
AcDbEntity
  8
0
100
AcDbLine
 62
7
  6
CONTINUOUS
 10
7.4762321444
 20
24.4988680342
 11
7.4644176339
 21
24.4974554741
  0
LINE
  5
7D6
100
AcDbEntity
  8
ASSI
100
AcDbLine
 62
253
  6
CONTINUOUS
 10
7.1905416262
 20
22.3359700255
 11
3.0
 21
22.3359700255
  0
LINE
  5
7D7
100
AcDbEntity
  8
DRAFT
100
AcDbLine
 62
7
  6
CONTINUOUS
 10
7.1905416262
 20
22.3359700255
 11
3.0
 21
22.3359700255
  0
LINE
  5
7D8
100
AcDbEntity
  8
ASSI
100
AcDbLine
 62
253
  6
CONTINUOUS
 10
-3.0
 20
22.3359700255
 11
-7.1905416262
 21
22.3359700255
  0
LINE
  5
7D9
100
AcDbEntity
  8
DRAFT
100
AcDbLine
 62
7
  6
CONTINUOUS
 10
-3.0
 20
22.3359700255
 11
-7.1905416262
 21
22.3359700255
  0
LINE
  5
7DA
100
AcDbEntity
  8
ASSI
100
AcDbLine
 62
7
  6
CONTINUOUS
 10
-10.6417158217
 20
22.3941821702
 11
-7.2558178298
 21
22.3941821702
  0
LINE
  5
7DB
100
AcDbEntity
  8
DRAFT
100
AcDbLine
 62
7
  6
CONTINUOUS
 10
-10.6417158217
 20
22.3941821702
 11
-7.2558178298
 21
22.3941821702
  0
LINE
  5
7DC
100
AcDbEntity
  8
ASSI
100
AcDbLine
 62
7
  6
CONTINUOUS
 10
3.5
 20
22.3941821702
 11
3.0
 21
22.3941821702
  0
LINE
  5
7DD
100
AcDbEntity
  8
0
100
AcDbLine
 62
7
  6
CONTINUOUS
 10
3.5
 20
22.3941821702
 11
3.0
 21
22.3941821702
  0
LINE
  5
7DE
100
AcDbEntity
  8
ASSI
100
AcDbLine
 62
7
  6
CONTINUOUS
 10
-3.0
 20
22.3941821702
 11
-3.5
 21
22.3941821702
  0
LINE
  5
7DF
100
AcDbEntity
  8
0
100
AcDbLine
 62
7
  6
CONTINUOUS
 10
-3.0
 20
22.3941821702
 11
-3.5
 21
22.3941821702
  0
LINE
  5
7E0
100
AcDbEntity
  8
ASSI
100
AcDbLine
 62
7
  6
CONTINUOUS
 10
7.2558178298
 20
22.3941821702
 11
10.6417158217
 21
22.3941821702
  0
LINE
  5
7E1
100
AcDbEntity
  8
DRAFT
100
AcDbLine
 62
7
  6
CONTINUOUS
 10
7.2558178298
 20
22.3941821702
 11
10.6417158217
 21
22.3941821702
  0
LINE
  5
7E2
100
AcDbEntity
  8
ASSI
100
AcDbLine
 62
7
  6
CONTINUOUS
 10
-1.0
 20
22.3947639644
 11
1.0
 21
22.3947639644
  0
LINE
  5
7E3
100
AcDbEntity
  8
0
100
AcDbLine
 62
7
  6
CONTINUOUS
 10
-1.0
 20
22.3947639644
 11
1.0
 21
22.3947639644
  0
LINE
  5
7E4
100
AcDbEntity
  8
ASSI
100
AcDbLine
 62
7
  6
CONTINUOUS
 10
-7.0500575119
 20
22.4
 11
-4.45
 21
22.4
  0
LINE
  5
7E5
100
AcDbEntity
  8
RACCORDO
100
AcDbLine
 62
7
  6
CONTINUOUS
 10
-7.0500575119
 20
22.4
 11
-4.45
 21
22.4
  0
LINE
  5
7E6
100
AcDbEntity
  8
ASSI
100
AcDbLine
 62
7
  6
CONTINUOUS
 10
4.45
 20
22.4
 11
7.0500575119
 21
22.4
  0
LINE
  5
7E7
100
AcDbEntity
  8
RACCORDO
100
AcDbLine
 62
7
  6
CONTINUOUS
 10
4.45
 20
22.4
 11
7.0500575119
 21
22.4
  0
LINE
  5
7E8
100
AcDbEntity
  8
ASSI
100
AcDbLine
 62
7
  6
CONTINUOUS
 10
-9.9007229979
 20
23.1226497308
 11
-7.4992770021
 21
23.1226497308
  0
LINE
  5
7E9
100
AcDbEntity
  8
0
100
AcDbLine
 62
7
  6
CONTINUOUS
 10
-9.9007229979
 20
23.1226497308
 11
-7.4992770021
 21
23.1226497308
  0
LINE
  5
7EA
100
AcDbEntity
  8
ASSI
100
AcDbLine
 62
7
  6
CONTINUOUS
 10
9.9007229979
 20
23.1226497308
 11
7.4992770021
 21
23.1226497308
  0
LINE
  5
7EB
100
AcDbEntity
  8
0
100
AcDbLine
 62
7
  6
CONTINUOUS
 10
9.9007229979
 20
23.1226497308
 11
7.4992770021
 21
23.1226497308
  0
LWPOLYLINE
  5
7EC
100
AcDbEntity
  8
0
100
AcDbPolyline
 62
7
  6
CONTINUOUS
 90
4
 70
0
 10
-7.4687902571
 20
24.4930824749
 10
-7.480604505
 20
24.4944954103
 10
-7.4924725817
 20
24.4953446152
 10
-7.5043676032
 20
24.495628166
  0
LWPOLYLINE
  5
7ED
100
AcDbEntity
  8
0
100
AcDbPolyline
 62
7
  6
CONTINUOUS
 90
4
 70
0
 10
-7.4644176339
 20
24.4974554741
 10
-7.4762321444
 20
24.4988680342
 10
-7.488100484
 20
24.4997168498
 10
-7.4999957692
 20
24.5
  0
LINE
  5
7EE
100
AcDbEntity
  8
ASSI
100
AcDbLine
 62
7
  6
CONTINUOUS
 10
8.0665695018
 20
21.4537354271
 11
8.25
 21
21.4
  0
LINE
  5
7EF
100
AcDbEntity
  8
DRAFT
100
AcDbLine
 62
7
  6
CONTINUOUS
 10
8.0665695018
 20
21.4537354271
 11
8.25
 21
21.4
  0
LWPOLYLINE
  5
7F0
100
AcDbEntity
  8
0
100
AcDbPolyline
 62
7
  6
CONTINUOUS
 90
7
 70
0
 10
10.1103145581
 20
24.3851625059
 10
10.1036452955
 20
24.3950164051
 10
10.0965147107
 20
24.4045418038
 10
10.0889389589
 20
24.4137171191
 10
10.0809352005
 20
24.4225215661
 10
10.0725215661
 20
24.4309352005
 10
10.0637171191
 20
24.4389389589
  0
LWPOLYLINE
  5
7F1
100
AcDbEntity
  8
0
100
AcDbPolyline
 62
7
  6
CONTINUOUS
 90
7
 70
0
 10
10.0637171191
 20
-24.4389389589
 10
10.0725215661
 20
-24.4309352005
 10
10.0809352005
 20
-24.4225215661
 10
10.0889389589
 20
-24.4137171191
 10
10.0965147107
 20
-24.4045418038
 10
10.1036452955
 20
-24.3950164051
 10
10.1103145581
 20
-24.3851625059
  0
LWPOLYLINE
  5
7F2
100
AcDbEntity
  8
0
100
AcDbPolyline
 62
7
  6
CONTINUOUS
 90
4
 70
0
 10
10.0351625059
 20
-24.4603145581
 10
10.0450164051
 20
-24.4536452955
 10
10.0545418038
 20
-24.4465147107
 10
10.0637171191
 20
-24.4389389589
  0
LWPOLYLINE
  5
7F3
100
AcDbEntity
  8
ASSI
100
AcDbPolyline
 62
7
  6
CONTINUOUS
 90
7
 70
0
 10
10.0250031366
 20
-24.4665069813
 10
10.0469489068
 20
-24.4522552626
 10
10.0672846821
 20
-24.4357876883
 10
10.0857876883
 20
-24.4172846821
 10
10.1022552626
 20
-24.3969489068
 10
10.1165069813
 20
-24.3750031366
 10
10.1283866972
 20
-24.3516877999
  0
LINE
  5
7F4
100
AcDbEntity
  8
ASSI
100
AcDbLine
 62
7
  6
CONTINUOUS
 10
10.0016877999
 20
-24.4783866972
 11
10.0250031366
 21
-24.4665069813
  0
LWPOLYLINE
  5
7F5
100
AcDbEntity
  8
ASSI
100
AcDbPolyline
 62
7
  6
CONTINUOUS
 90
3
 70
0
 10
-9.9519821969
 20
24.4945369567
 10
-9.9772582821
 20
24.4877642763
 10
-10.0016877999
 20
24.4783866972
  0
LWPOLYLINE
  5
7F6
100
AcDbEntity
  8
ASSI
100
AcDbPolyline
 62
7
  6
CONTINUOUS
 90
14
 70
0
 10
-9.9475771282
 20
24.4901702663
 10
-9.9728457634
 20
24.4834027437
 10
-9.9972753535
 20
24.474029031
 10
-10.0205960432
 20
24.4621506181
 10
-10.0425474347
 20
24.447899163
 10
-10.062887702
 20
24.4314318691
 10
-10.0813952999
 20
24.4129283166
 10
-10.0978672544
 20
24.3925913542
 10
-10.1121230179
 20
24.3706438507
 10
-10.1240063557
 20
24.3473262874
 10
-10.1333869849
 20
24.3228942697
 10
-10.1401620956
 20
24.2976155726
 10
-10.1442574503
 20
24.2717671924
 10
-10.145628166
 20
24.2456323968
  0
LWPOLYLINE
  5
7F7
100
AcDbEntity
  8
0
100
AcDbPolyline
 62
7
  6
CONTINUOUS
 90
26
 70
0
 10
-9.9545277163
 20
24.4885897127
 10
-9.9660236819
 20
24.4855111341
 10
-9.977358447
 20
24.4818895243
 10
-9.988508059
 20
24.4777326699
 10
-9.9994474601
 20
24.4730498963
 10
-10.0101519949
 20
24.467851711
 10
-10.0205972484
 20
24.4621499225
 10
-10.030759324
 20
24.4559575601
 10
-10.0406151087
 20
24.4492887229
 10
-10.0501423702
 20
24.4421584695
 10
-10.0593195834
 20
24.4345829086
 10
-10.068125975
 20
24.4265791771
 10
-10.0765415612
 20
24.4181654255
 10
-10.0845472554
 20
24.4093607299
 10
-10.0921249119
 20
24.4001850429
 10
-10.0992573629
 20
24.3906591487
 10
-10.105928443
 20
24.3808046326
 10
-10.1121230353
 20
24.3706438204
 10
-10.1178271006
 20
24.3601997352
 10
-10.1230277082
 20
24.3494960488
 10
-10.1277130725
 20
24.3385570152
 10
-10.1318725768
 20
24.3274074189
 10
-10.135496794
 20
24.3160725264
 10
-10.1385775126
 20
24.3045780153
 10
-10.1411077496
 20
24.292949936
 10
-10.1430817682
 20
24.2812146563
  0
LWPOLYLINE
  5
7F8
100
AcDbEntity
  8
0
100
AcDbPolyline
 62
7
  6
CONTINUOUS
 90
9
 70
0
 10
-9.9473162875
 20
24.4954823677
 10
-9.9589430388
 20
24.4929531817
 10
-9.970436279
 20
24.4898736417
 10
-9.9817699738
 20
24.4862507213
 10
-9.9929184493
 20
24.4820926258
 10
-10.0038564463
 20
24.4774087722
 10
-10.0145591876
 20
24.4722097688
 10
-10.0250024283
 20
24.4665073916
 10
-10.0351625059
 20
24.4603145581
  0
LINE
  5
7F9
100
AcDbEntity
  8
0
100
AcDbLine
 62
7
  6
CONTINUOUS
 10
-9.942898281
 20
24.4911177026
 11
-9.9545277163
 21
24.4885897127
  0
LINE
  5
7FA
100
AcDbEntity
  8
0
100
AcDbLine
 62
7
  6
CONTINUOUS
 10
-9.9355823661
 20
24.4974554741
 11
-9.9473162875
 21
24.4954823677
  0
LINE
  5
7FB
100
AcDbEntity
  8
ASSI
100
AcDbLine
 62
7
  6
CONTINUOUS
 10
-9.9225124747
 20
24.4941779536
 11
-9.9475771282
 21
24.4901702663
  0
LINE
  5
7FC
100
AcDbEntity
  8
ASSI
100
AcDbLine
 62
7
  6
CONTINUOUS
 10
-9.9261364629
 20
24.4986304926
 11
-9.9519821969
 21
24.4945369567
  0
LWPOLYLINE
  5
7FD
100
AcDbEntity
  8
0
100
AcDbPolyline
 62
7
  6
CONTINUOUS
 90
3
 70
0
 10
-9.9225124747
 20
24.4941779536
 10
-9.9311667864
 20
24.4930886486
 10
-9.942898281
 20
24.4911177026
  0
LINE
  5
7FE
100
AcDbEntity
  8
0
100
AcDbLine
 62
7
  6
CONTINUOUS
 10
-9.9237678556
 20
24.4988680342
 11
-9.9355823661
 21
24.4974554741
  0
LINE
  5
7FF
100
AcDbEntity
  8
ASSI
100
AcDbLine
 62
253
  6
CONTINUOUS
 10
7.5043676032
 20
24.495628166
 11
7.4774875253
 21
24.4941779536
  0
LINE
  5
800
100
AcDbEntity
  8
ASSI
100
AcDbLine
 62
253
  6
CONTINUOUS
 10
-9.8956323968
 20
24.495628166
 11
-9.9225124747
 21
24.4941779536
  0
LINE
  5
801
100
AcDbEntity
  8
ASSI
100
AcDbLine
 62
7
  6
CONTINUOUS
 10
7.4999957692
 20
24.5
 11
7.4738635371
 21
24.4986304926
  0
LINE
  5
802
100
AcDbEntity
  8
ASSI
100
AcDbLine
 62
7
  6
CONTINUOUS
 10
-9.9000042308
 20
24.5
 11
-9.9261364629
 21
24.4986304926
  0
LWPOLYLINE
  5
803
100
AcDbEntity
  8
0
100
AcDbPolyline
 62
253
  6
CONTINUOUS
 90
4
 70
0
 10
7.5043676032
 20
24.495628166
 10
7.4924921317
 20
24.4953455463
 10
7.4806383891
 20
24.4944986445
 10
7.4774875253
 20
24.4941779536
  0
LWPOLYLINE
  5
804
100
AcDbEntity
  8
0
100
AcDbPolyline
 62
7
  6
CONTINUOUS
 90
3
 70
0
 10
7.4999957692
 20
24.5
 10
7.488100484
 20
24.4997168498
 10
7.4762321444
 20
24.4988680342
  0
LWPOLYLINE
  5
805
100
AcDbEntity
  8
0
100
AcDbPolyline
 62
253
  6
CONTINUOUS
 90
4
 70
0
 10
-9.8956323968
 20
24.495628166
 10
-9.9075078683
 20
24.4953455463
 10
-9.9193616109
 20
24.4944986445
 10
-9.9225124747
 20
24.4941779536
  0
LWPOLYLINE
  5
806
100
AcDbEntity
  8
0
100
AcDbPolyline
 62
7
  6
CONTINUOUS
 90
3
 70
0
 10
-9.9000042308
 20
24.5
 10
-9.911899516
 20
24.4997168498
 10
-9.9237678556
 20
24.4988680342
  0
LINE
  5
807
100
AcDbEntity
  8
ASSI
100
AcDbLine
 62
253
  6
CONTINUOUS
 10
-9.8956323968
 20
23.6278312164
 11
-7.5043676032
 21
23.6278312164
  0
LINE
  5
808
100
AcDbEntity
  8
0
100
AcDbLine
 62
253
  6
CONTINUOUS
 10
-9.8956323968
 20
23.6278312164
 11
-7.5043676032
 21
23.6278312164
  0
LINE
  5
809
100
AcDbEntity
  8
ASSI
100
AcDbLine
 62
253
  6
CONTINUOUS
 10
7.5043676032
 20
23.6278312164
 11
9.8956323968
 21
23.6278312164
  0
LINE
  5
80A
100
AcDbEntity
  8
0
100
AcDbLine
 62
253
  6
CONTINUOUS
 10
7.5043676032
 20
23.6278312164
 11
9.8956323968
 21
23.6278312164
  0
LINE
  5
80B
100
AcDbEntity
  8
ASSI
100
AcDbLine
 62
253
  6
CONTINUOUS
 10
7.254371834
 20
23.8443375673
 11
10.145628166
 21
23.8443375673
  0
LINE
  5
80C
100
AcDbEntity
  8
0
100
AcDbLine
 62
253
  6
CONTINUOUS
 10
7.254371834
 20
23.8443375673
 11
10.145628166
 21
23.8443375673
  0
LINE
  5
80D
100
AcDbEntity
  8
ASSI
100
AcDbLine
 62
253
  6
CONTINUOUS
 10
-7.254371834
 20
23.8443375673
 11
-10.145628166
 21
23.8443375673
  0
LINE
  5
80E
100
AcDbEntity
  8
0
100
AcDbLine
 62
253
  6
CONTINUOUS
 10
-7.254371834
 20
23.8443375673
 11
-10.145628166
 21
23.8443375673
  0
LINE
  5
80F
100
AcDbEntity
  8
ASSI
100
AcDbLine
 62
7
  6
CONTINUOUS
 10
-4.4063493531
 20
23.9563493531
 11
-3.5
 21
23.9563493531
  0
LINE
  5
810
100
AcDbEntity
  8
0
100
AcDbLine
 62
7
  6
CONTINUOUS
 10
-4.4063493531
 20
23.9563493531
 11
-3.5
 21
23.9563493531
  0
LINE
  5
811
100
AcDbEntity
  8
ASSI
100
AcDbLine
 62
7
  6
CONTINUOUS
 10
3.5
 20
23.9563493531
 11
4.4063493531
 21
23.9563493531
  0
LINE
  5
812
100
AcDbEntity
  8
0
100
AcDbLine
 62
7
  6
CONTINUOUS
 10
3.5
 20
23.9563493531
 11
4.4063493531
 21
23.9563493531
  0
LINE
  5
813
100
AcDbEntity
  8
ASSI
100
AcDbLine
 62
7
  6
CONTINUOUS
 10
-3.5
 20
23.9941821702
 11
-1.2
 21
23.9941821702
  0
LINE
  5
814
100
AcDbEntity
  8
0
100
AcDbLine
 62
7
  6
CONTINUOUS
 10
-3.5
 20
23.9941821702
 11
-1.2
 21
23.9941821702
  0
LINE
  5
815
100
AcDbEntity
  8
ASSI
100
AcDbLine
 62
7
  6
CONTINUOUS
 10
1.2
 20
23.9941821702
 11
3.5
 21
23.9941821702
  0
LINE
  5
816
100
AcDbEntity
  8
0
100
AcDbLine
 62
7
  6
CONTINUOUS
 10
1.2
 20
23.9941821702
 11
3.5
 21
23.9941821702
  0
LINE
  5
817
100
AcDbEntity
  8
ASSI
100
AcDbLine
 62
7
  6
CONTINUOUS
 10
4.45
 20
24.0
 11
3.5
 21
24.0
  0
LINE
  5
818
100
AcDbEntity
  8
0
100
AcDbLine
 62
7
  6
CONTINUOUS
 10
4.45
 20
24.0
 11
3.5
 21
24.0
  0
LINE
  5
819
100
AcDbEntity
  8
ASSI
100
AcDbLine
 62
7
  6
CONTINUOUS
 10
-3.5
 20
24.0
 11
-4.45
 21
24.0
  0
LINE
  5
81A
100
AcDbEntity
  8
0
100
AcDbLine
 62
7
  6
CONTINUOUS
 10
-3.5
 20
24.0
 11
-4.45
 21
24.0
  0
LINE
  5
81B
100
AcDbEntity
  8
ASSI
100
AcDbLine
 62
253
  6
CONTINUOUS
 10
7.254371834
 20
24.2456323968
 11
10.145628166
 21
24.2456323968
  0
LINE
  5
81C
100
AcDbEntity
  8
0
100
AcDbLine
 62
253
  6
CONTINUOUS
 10
7.254371834
 20
24.2456323968
 11
10.145628166
 21
24.2456323968
  0
LINE
  5
81D
100
AcDbEntity
  8
ASSI
100
AcDbLine
 62
253
  6
CONTINUOUS
 10
-7.254371834
 20
24.2456323968
 11
-10.145628166
 21
24.2456323968
  0
LINE
  5
81E
100
AcDbEntity
  8
0
100
AcDbLine
 62
253
  6
CONTINUOUS
 10
-7.254371834
 20
24.2456323968
 11
-10.145628166
 21
24.2456323968
  0
LINE
  5
81F
100
AcDbEntity
  8
ASSI
100
AcDbLine
 62
7
  6
CONTINUOUS
 10
9.8956323968
 20
24.495628166
 11
7.5043676032
 21
24.495628166
  0
LINE
  5
820
100
AcDbEntity
  8
0
100
AcDbLine
 62
7
  6
CONTINUOUS
 10
9.8956323968
 20
24.495628166
 11
7.5043676032
 21
24.495628166
  0
LINE
  5
821
100
AcDbEntity
  8
ASSI
100
AcDbLine
 62
7
  6
CONTINUOUS
 10
-7.5043676032
 20
24.495628166
 11
-9.8956323968
 21
24.495628166
  0
LINE
  5
822
100
AcDbEntity
  8
0
100
AcDbLine
 62
7
  6
CONTINUOUS
 10
-7.5043676032
 20
24.495628166
 11
-9.8956323968
 21
24.495628166
  0
LINE
  5
823
100
AcDbEntity
  8
ASSI
100
AcDbLine
 62
253
  6
CONTINUOUS
 10
9.9225124747
 20
24.4941779536
 11
9.8956323968
 21
24.495628166
  0
LWPOLYLINE
  5
824
100
AcDbEntity
  8
0
100
AcDbPolyline
 62
253
  6
CONTINUOUS
 90
4
 70
0
 10
9.9225124747
 20
24.4941779536
 10
9.9193616109
 20
24.4944986445
 10
9.9075078683
 20
24.4953455463
 10
9.8956323968
 20
24.495628166
  0
LWPOLYLINE
  5
825
100
AcDbEntity
  8
0
100
AcDbPolyline
 62
7
  6
CONTINUOUS
 90
4
 70
0
 10
9.9355823661
 20
24.4974554741
 10
9.9237678556
 20
24.4988680342
 10
9.911899516
 20
24.4997168498
 10
9.9000042308
 20
24.5
  0
LWPOLYLINE
  5
826
100
AcDbEntity
  8
0
100
AcDbPolyline
 62
7
  6
CONTINUOUS
 90
4
 70
0
 10
9.9545277163
 20
24.4885897127
 10
9.942898281
 20
24.4911177026
 10
9.9311667864
 20
24.4930886486
 10
9.9225124747
 20
24.4941779536
  0
LWPOLYLINE
  5
827
100
AcDbEntity
  8
ASSI
100
AcDbPolyline
 62
7
  6
CONTINUOUS
 90
5
 70
0
 10
10.0016877999
 20
24.4783866972
 10
9.9772582821
 20
24.4877642763
 10
9.9519821969
 20
24.4945369567
 10
9.9261364629
 20
24.4986304926
 10
9.9000042308
 20
24.5
  0
LINE
  5
828
100
AcDbEntity
  8
ASSI
100
AcDbLine
 62
7
  6
CONTINUOUS
 10
10.0250031366
 20
24.4665069813
 11
10.0016877999
 21
24.4783866972
  0
LWPOLYLINE
  5
829
100
AcDbEntity
  8
0
100
AcDbPolyline
 62
7
  6
CONTINUOUS
 90
10
 70
0
 10
10.0351625059
 20
24.4603145581
 10
10.0250024283
 20
24.4665073916
 10
10.0145591876
 20
24.4722097688
 10
10.0038564463
 20
24.4774087722
 10
9.9929184493
 20
24.4820926258
 10
9.9817699738
 20
24.4862507213
 10
9.970436279
 20
24.4898736417
 10
9.9589430388
 20
24.4929531817
 10
9.9473162875
 20
24.4954823677
 10
9.9355823661
 20
24.4974554741
  0
LWPOLYLINE
  5
82A
100
AcDbEntity
  8
0
100
AcDbPolyline
 62
7
  6
CONTINUOUS
 90
4
 70
0
 10
10.0637171191
 20
24.4389389589
 10
10.0545418038
 20
24.4465147107
 10
10.0450164051
 20
24.4536452955
 10
10.0351625059
 20
24.4603145581
  0
CIRCLE
  5
82B
100
AcDbEntity
  8
ASSI
100
AcDbCircle
 62
253
  6
CONTINUOUS
 10
-10.0
 20
-21.3
 40
0.7
  0
CIRCLE
  5
82C
100
AcDbEntity
  8
RACCORDO
100
AcDbCircle
 62
253
  6
CONTINUOUS
 10
-10.0
 20
-21.3
 40
0.6999895205
  0
CIRCLE
  5
82D
100
AcDbEntity
  8
ASSI
100
AcDbCircle
 62
7
  6
CONTINUOUS
 10
-10.0
 20
-21.3
 40
0.5
  0
ARC
  5
82E
100
AcDbEntity
  8
ASSI
100
AcDbCircle
 62
7
  6
CONTINUOUS
 10
-4.0
 20
-23.15
 40
0.5
100
AcDbArc
 50
144.3637748935
 51
215.6362251065
  0
CIRCLE
  5
82F
100
AcDbEntity
  8
RACCORDO
100
AcDbCircle
 62
7
  6
CONTINUOUS
 10
-10.0
 20
-21.3
 40
0.5
  0
ARC
  5
830
100
AcDbEntity
  8
0
100
AcDbCircle
 62
7
  6
CONTINUOUS
 10
-4.0
 20
-23.15
 40
0.5
100
AcDbArc
 50
144.3637748935
 51
215.6362251065
  0
ARC
  5
831
100
AcDbEntity
  8
RACCORDO
100
AcDbCircle
 62
7
  6
CONTINUOUS
 10
-9.15
 20
-15.9
 40
0.3
100
AcDbArc
 50
90.0
 51
180.0
  0
ARC
  5
832
100
AcDbEntity
  8
RACCORDO
100
AcDbCircle
 62
7
  6
CONTINUOUS
 10
-3.1
 20
-14.2
 40
0.3
100
AcDbArc
 50
90.0
 51
180.0
  0
CIRCLE
  5
833
100
AcDbEntity
  8
ASSI
100
AcDbCircle
 62
253
  6
CONTINUOUS
 10
-10.0
 20
21.3
 40
0.7
  0
CIRCLE
  5
834
100
AcDbEntity
  8
RACCORDO
100
AcDbCircle
 62
253
  6
CONTINUOUS
 10
-10.0
 20
21.3
 40
0.6999895205
  0
CIRCLE
  5
835
100
AcDbEntity
  8
ASSI
100
AcDbCircle
 62
7
  6
CONTINUOUS
 10
-10.0
 20
21.3
 40
0.5
  0
ARC
  5
836
100
AcDbEntity
  8
ASSI
100
AcDbCircle
 62
7
  6
CONTINUOUS
 10
-4.0
 20
23.15
 40
0.5
100
AcDbArc
 50
144.3637748935
 51
215.6362251065
  0
CIRCLE
  5
837
100
AcDbEntity
  8
RACCORDO
100
AcDbCircle
 62
7
  6
CONTINUOUS
 10
-10.0
 20
21.3
 40
0.5
  0
ARC
  5
838
100
AcDbEntity
  8
0
100
AcDbCircle
 62
7
  6
CONTINUOUS
 10
-4.0
 20
23.15
 40
0.5
100
AcDbArc
 50
144.3637748935
 51
215.6362251065
  0
CIRCLE
  5
839
100
AcDbEntity
  8
ASSI
100
AcDbCircle
 62
253
  6
CONTINUOUS
 10
10.0
 20
-21.3
 40
0.7
  0
CIRCLE
  5
83A
100
AcDbEntity
  8
RACCORDO
100
AcDbCircle
 62
253
  6
CONTINUOUS
 10
10.0
 20
-21.3
 40
0.6999895205
  0
CIRCLE
  5
83B
100
AcDbEntity
  8
ASSI
100
AcDbCircle
 62
7
  6
CONTINUOUS
 10
10.0
 20
-21.3
 40
0.5
  0
ARC
  5
83C
100
AcDbEntity
  8
ASSI
100
AcDbCircle
 62
7
  6
CONTINUOUS
 10
4.0
 20
-23.15
 40
0.5
100
AcDbArc
 50
324.3637748935
 51
35.6362251065
  0
CIRCLE
  5
83D
100
AcDbEntity
  8
RACCORDO
100
AcDbCircle
 62
7
  6
CONTINUOUS
 10
10.0
 20
-21.3
 40
0.5
  0
ARC
  5
83E
100
AcDbEntity
  8
0
100
AcDbCircle
 62
7
  6
CONTINUOUS
 10
4.0
 20
-23.15
 40
0.5
100
AcDbArc
 50
324.3637748935
 51
35.6362251065
  0
ARC
  5
83F
100
AcDbEntity
  8
RACCORDO
100
AcDbCircle
 62
7
  6
CONTINUOUS
 10
9.15
 20
-15.9
 40
0.3
100
AcDbArc
 50
0.0
 51
90.0
  0
ARC
  5
840
100
AcDbEntity
  8
RACCORDO
100
AcDbCircle
 62
7
  6
CONTINUOUS
 10
3.1
 20
-14.2
 40
0.3
100
AcDbArc
 50
0.0
 51
90.0
  0
CIRCLE
  5
841
100
AcDbEntity
  8
ASSI
100
AcDbCircle
 62
253
  6
CONTINUOUS
 10
10.0
 20
21.3
 40
0.7
  0
CIRCLE
  5
842
100
AcDbEntity
  8
RACCORDO
100
AcDbCircle
 62
253
  6
CONTINUOUS
 10
10.0
 20
21.3
 40
0.6999895205
  0
CIRCLE
  5
843
100
AcDbEntity
  8
ASSI
100
AcDbCircle
 62
7
  6
CONTINUOUS
 10
10.0
 20
21.3
 40
0.5
  0
ARC
  5
844
100
AcDbEntity
  8
ASSI
100
AcDbCircle
 62
7
  6
CONTINUOUS
 10
4.0
 20
23.15
 40
0.5
100
AcDbArc
 50
324.3637748935
 51
35.6362251065
  0
CIRCLE
  5
845
100
AcDbEntity
  8
RACCORDO
100
AcDbCircle
 62
7
  6
CONTINUOUS
 10
10.0
 20
21.3
 40
0.5
  0
ARC
  5
846
100
AcDbEntity
  8
0
100
AcDbCircle
 62
7
  6
CONTINUOUS
 10
4.0
 20
23.15
 40
0.5
100
AcDbArc
 50
324.3637748935
 51
35.6362251065
  0
ELLIPSE
  5
847
100
AcDbEntity
  8
RACCORDO
100
AcDbEllipse
 62
7
  6
CONTINUOUS
 10
8.9365275299
 20
-16.0067166821
 30
0.0
 11
0.2780317936
 21
0.4166986433
 31
0.0
 40
0.9975148671
 41
6.1895108911
 42
6.8704261861
  0
ELLIPSE
  5
848
100
AcDbEntity
  8
RACCORDO
100
AcDbEllipse
 62
7
  6
CONTINUOUS
 10
-8.9365275299
 20
-16.0067166821
 30
0.0
 11
-0.2780317936
 21
0.4166986433
 31
0.0
 40
0.9975148671
 41
5.6959444283
 42
6.3768597232
  0
ELLIPSE
  5
849
100
AcDbEntity
  8
RACCORDO
100
AcDbEllipse
 62
7
  6
CONTINUOUS
 10
-6.06962932
 20
-0.2692763735
 30
0.0
 11
0.3000018276
 21
-0.0000091016
 31
0.0
 40
0.819152044
 41
1.5708333633
 42
3.1416175055
  0
ELLIPSE
  5
84A
100
AcDbEntity
  8
RACCORDO
100
AcDbEllipse
 62
7
  6
CONTINUOUS
 10
6.06962932
 20
-0.2692763735
 30
0.0
 11
0.3000018276
 21
0.0000091016
 31
0.0
 40
0.819152044
 41
-0.0000248519
 42
1.5707592903
  0
ELLIPSE
  5
84B
100
AcDbEntity
  8
RACCORDO
100
AcDbEllipse
 62
7
  6
CONTINUOUS
 10
6.0518268893
 20
-3.2090990964
 30
0.0
 11
0.3000018276
 21
0.0000091016
 31
0.0
 40
0.819152044
 41
-0.0000248519
 42
1.5707592903
  0
ELLIPSE
  5
84C
100
AcDbEntity
  8
RACCORDO
100
AcDbEllipse
 62
7
  6
CONTINUOUS
 10
-6.0518268893
 20
-3.2090990964
 30
0.0
 11
0.3000018276
 21
-0.0000091016
 31
0.0
 40
0.819152044
 41
1.5708333633
 42
3.1416175055
  0
ELLIPSE
  5
84D
100
AcDbEntity
  8
RACCORDO
100
AcDbEllipse
 62
7
  6
CONTINUOUS
 10
-6.0849882798
 20
2.2670412698
 30
0.0
 11
0.3000018276
 21
-0.0000091016
 31
0.0
 40
0.819152044
 41
1.5708333633
 42
3.1416175055
  0
ELLIPSE
  5
84E
100
AcDbEntity
  8
RACCORDO
100
AcDbEllipse
 62
7
  6
CONTINUOUS
 10
6.0849882798
 20
2.2670412698
 30
0.0
 11
0.3000018276
 21
0.0000091016
 31
0.0
 40
0.819152044
 41
-0.0000248519
 42
1.5707592903
  0
ELLIPSE
  5
84F
100
AcDbEntity
  8
ASSI
100
AcDbEllipse
 62
7
  6
CONTINUOUS
 10
-8.999923836
 20
-16.0000190392
 30
0.0
 11
0.4473055582
 21
-0.2236357461
 31
0.0
 40
0.9998096356
 41
2.0344896259
 42
3.6051336537
  0
ELLIPSE
  5
850
100
AcDbEntity
  8
ASSI
100
AcDbEllipse
 62
7
  6
CONTINUOUS
 10
8.999923836
 20
-16.0000190392
 30
0.0
 11
0.4473055582
 21
0.2236357461
 31
0.0
 40
0.9998096356
 41
-0.4635410001
 42
1.1071030277
  0
ELLIPSE
  5
851
100
AcDbEntity
  8
ASSI
100
AcDbEllipse
 62
7
  6
CONTINUOUS
 10
-7.0499966153
 20
22.6002744692
 30
0.0
 11
0.0220972656
 21
0.1990550872
 31
0.0
 40
0.9986126811
 41
-4.601678501
 42
-3.031186653
  0
ELLIPSE
  5
852
100
AcDbEntity
  8
ASSI
100
AcDbEllipse
 62
7
  6
CONTINUOUS
 10
-10.3500033847
 20
22.6002744692
 30
0.0
 11
-0.0220972656
 21
0.1990550872
 31
0.0
 40
0.9986126811
 41
-3.2519986542
 42
-1.6815068062
  0
ELLIPSE
  5
853
100
AcDbEntity
  8
ASSI
100
AcDbEllipse
 62
7
  6
CONTINUOUS
 10
10.3500033847
 20
22.6002744692
 30
0.0
 11
0.0220972656
 21
0.1990550872
 31
0.0
 40
0.9986126811
 41
-4.601678501
 42
-3.031186653
  0
ELLIPSE
  5
854
100
AcDbEntity
  8
ASSI
100
AcDbEllipse
 62
7
  6
CONTINUOUS
 10
7.0499966153
 20
22.6002744692
 30
0.0
 11
-0.0220972656
 21
0.1990550872
 31
0.0
 40
0.9986126811
 41
-3.2519986542
 42
-1.6815068062
  0
ELLIPSE
  5
855
100
AcDbEntity
  8
ASSI
100
AcDbEllipse
 62
7
  6
CONTINUOUS
 10
-10.3500033847
 20
-22.6002744692
 30
0.0
 11
0.0220972656
 21
0.1990550872
 31
0.0
 40
0.9986126811
 41
-1.4600858474
 42
0.1104060006
  0
ELLIPSE
  5
856
100
AcDbEntity
  8
ASSI
100
AcDbEllipse
 62
7
  6
CONTINUOUS
 10
-7.0499966153
 20
-22.6002744692
 30
0.0
 11
-0.0220972656
 21
0.1990550872
 31
0.0
 40
0.9986126811
 41
-0.1104060006
 42
1.4600858474
  0
ELLIPSE
  5
857
100
AcDbEntity
  8
ASSI
100
AcDbEllipse
 62
7
  6
CONTINUOUS
 10
7.0499966153
 20
-22.6002744692
 30
0.0
 11
0.0220972656
 21
0.1990550872
 31
0.0
 40
0.9986126811
 41
-1.4600858474
 42
0.1104060006
  0
ELLIPSE
  5
858
100
AcDbEntity
  8
ASSI
100
AcDbEllipse
 62
7
  6
CONTINUOUS
 10
10.3500033847
 20
-22.6002744692
 30
0.0
 11
-0.0220972656
 21
0.1990550872
 31
0.0
 40
0.9986126811
 41
-0.1104060006
 42
1.4600858474
  0
ELLIPSE
  5
859
100
AcDbEntity
  8
ASSI
100
AcDbEllipse
 62
7
  6
CONTINUOUS
 10
6.331083251
 20
15.764526841
 30
0.0
 11
0.0
 21
0.3
 31
0.0
 40
0.0174550649
 41
-4.7123889804
 42
-4.1015237422
  0
ELLIPSE
  5
85A
100
AcDbEntity
  8
ASSI
100
AcDbEllipse
 62
7
  6
CONTINUOUS
 10
-6.331083251
 20
15.764526841
 30
0.0
 11
-0.0
 21
0.3
 31
0.0
 40
0.0174550649
 41
-2.181661565
 42
-1.7069567415
  0
ELLIPSE
  5
85B
100
AcDbEntity
  8
ASSI
100
AcDbEllipse
 62
7
  6
CONTINUOUS
 10
6.331083251
 20
15.8009747569
 30
0.0
 11
0.0
 21
0.3
 31
0.0
 40
0.0174550649
 41
0.0174532925
 42
1.4653138374
  0
ELLIPSE
  5
85C
100
AcDbEntity
  8
ASSI
100
AcDbEllipse
 62
7
  6
CONTINUOUS
 10
-6.331083251
 20
15.8009747569
 30
0.0
 11
0.0
 21
0.3
 31
0.0
 40
0.0174550649
 41
-1.5707963268
 42
-0.0174532925
  0
ELLIPSE
  5
85D
100
AcDbEntity
  8
ASSI
100
AcDbEllipse
 62
7
  6
CONTINUOUS
 10
6.3397373285
 20
14.0975670731
 30
0.0
 11
0.0
 21
0.25
 31
0.0
 40
0.0174550649
 41
3.2599255675
 42
5.3232542186
  0
ELLIPSE
  5
85E
100
AcDbEntity
  8
ASSI
100
AcDbEllipse
 62
7
  6
CONTINUOUS
 10
-6.3397373285
 20
14.0975670731
 30
0.0
 11
0.0
 21
0.25
 31
0.0
 40
0.0174550649
 41
1.0782437601
 42
3.1415926536
  0
ELLIPSE
  5
85F
100
AcDbEntity
  8
ASSI
100
AcDbEllipse
 62
7
  6
CONTINUOUS
 10
3.9530427099
 20
-22.3560930869
 30
0.0
 11
0.4530427099
 21
0.0
 31
0.0
 40
0.0058178298
 41
0.0058177642
 42
3.1415926536
  0
ELLIPSE
  5
860
100
AcDbEntity
  8
ASSI
100
AcDbEllipse
 62
7
  6
CONTINUOUS
 10
-3.9530427099
 20
-22.3560930869
 30
0.0
 11
0.4530427099
 21
-0.0
 31
0.0
 40
0.0058178298
 41
0.0
 42
3.1357748894
  0
ELLIPSE
  5
861
100
AcDbEntity
  8
ASSI
100
AcDbEllipse
 62
7
  6
CONTINUOUS
 10
3.9530427099
 20
22.3560930869
 30
0.0
 11
0.4530427099
 21
0.0
 31
0.0
 40
0.0058178298
 41
-3.1415926536
 42
-0.0058177642
  0
ELLIPSE
  5
862
100
AcDbEntity
  8
ASSI
100
AcDbEllipse
 62
7
  6
CONTINUOUS
 10
-3.9530427099
 20
22.3560930869
 30
0.0
 11
0.4530427099
 21
0.0
 31
0.0
 40
0.0058178298
 41
-3.1357748894
 42
-0.0
  0
ELLIPSE
  5
863
100
AcDbEntity
  8
ASSI
100
AcDbEllipse
 62
7
  6
CONTINUOUS
 10
-8.1905965035
 20
21.3359869487
 30
0.0
 11
1.0000571192
 21
0.9999809595
 31
0.0
 40
0.0061705924
 41
-1.1948539202
 42
0.0003532199
  0
ELLIPSE
  5
864
100
AcDbEntity
  8
ASSI
100
AcDbEllipse
 62
7
  6
CONTINUOUS
 10
8.1905965035
 20
21.3359869487
 30
0.0
 11
1.0000571192
 21
-0.9999809595
 31
0.0
 40
0.0061705924
 41
3.1412394337
 42
4.3364465738
  0
ELLIPSE
  5
865
100
AcDbEntity
  8
ASSI
100
AcDbEllipse
 62
7
  6
CONTINUOUS
 10
8.1905965035
 20
-21.3359869487
 30
0.0
 11
1.0000571192
 21
0.9999809595
 31
0.0
 40
0.0061705924
 41
1.9467387334
 42
3.1419458735
  0
ELLIPSE
  5
866
100
AcDbEntity
  8
ASSI
100
AcDbEllipse
 62
7
  6
CONTINUOUS
 10
-8.1905965035
 20
-21.3359869487
 30
0.0
 11
1.0000571192
 21
-0.9999809595
 31
0.0
 40
0.0061705924
 41
-0.0003532199
 42
1.1948539202
  0
ELLIPSE
  5
867
100
AcDbEntity
  8
ASSI
100
AcDbEllipse
 62
7
  6
CONTINUOUS
 10
9.8999957691
 20
23.4113248654
 30
0.0
 11
-0.0029088041
 21
0.2886641433
 31
0.0
 40
0.8660144118
 41
-3.150319066
 42
-1.582431609
  0
ELLIPSE
  5
868
100
AcDbEntity
  8
ASSI
100
AcDbEllipse
 62
7
  6
CONTINUOUS
 10
7.5000042309
 20
23.4113248654
 30
0.0
 11
0.0029088041
 21
0.2886641433
 31
0.0
 40
0.8660144118
 41
-4.7007536982
 42
-3.1328662412
  0
ELLIPSE
  5
869
100
AcDbEntity
  8
ASSI
100
AcDbEllipse
 62
7
  6
CONTINUOUS
 10
-7.5000042309
 20
23.4113248654
 30
0.0
 11
-0.0029088041
 21
0.2886641433
 31
0.0
 40
0.8660144118
 41
-3.150319066
 42
-1.582431609
  0
ELLIPSE
  5
86A
100
AcDbEntity
  8
ASSI
100
AcDbEllipse
 62
7
  6
CONTINUOUS
 10
-9.8999957691
 20
23.4113248654
 30
0.0
 11
0.0029088041
 21
0.2886641433
 31
0.0
 40
0.8660144118
 41
-4.7007536982
 42
-3.1328662411
  0
ELLIPSE
  5
86B
100
AcDbEntity
  8
ASSI
100
AcDbEllipse
 62
7
  6
CONTINUOUS
 10
9.8999957691
 20
-23.4113248654
 30
0.0
 11
0.0029088041
 21
0.2886641433
 31
0.0
 40
0.8660144118
 41
-1.5591610446
 42
0.0087264124
  0
ELLIPSE
  5
86C
100
AcDbEntity
  8
ASSI
100
AcDbEllipse
 62
7
  6
CONTINUOUS
 10
7.5000042309
 20
-23.4113248654
 30
0.0
 11
-0.0029088041
 21
0.2886641433
 31
0.0
 40
0.8660144118
 41
-0.0087264124
 42
1.5591610446
  0
ELLIPSE
  5
86D
100
AcDbEntity
  8
ASSI
100
AcDbEllipse
 62
7
  6
CONTINUOUS
 10
-9.8999957691
 20
-23.4113248654
 30
0.0
 11
-0.0029088041
 21
0.2886641433
 31
0.0
 40
0.8660144118
 41
-0.0087264124
 42
1.5591610446
  0
ELLIPSE
  5
86E
100
AcDbEntity
  8
ASSI
100
AcDbEllipse
 62
7
  6
CONTINUOUS
 10
-7.5000042309
 20
-23.4113248654
 30
0.0
 11
0.0029088041
 21
0.2886641433
 31
0.0
 40
0.8660144118
 41
-1.5591610446
 42
0.0087264124
  0
ELLIPSE
  5
86F
100
AcDbEntity
  8
ASSI
100
AcDbEllipse
 62
7
  6
CONTINUOUS
 10
4.5043634339
 20
-17.7956556053
 30
0.0
 11
0.0
 21
0.5
 31
0.0
 40
0.0087268678
 41
0.0087266463
 42
1.5707963268
  0
ELLIPSE
  5
870
100
AcDbEntity
  8
ASSI
100
AcDbEllipse
 62
7
  6
CONTINUOUS
 10
-4.5043634339
 20
-17.7956556053
 30
0.0
 11
-0.0
 21
0.5
 31
0.0
 40
0.0087268678
 41
-1.5707963268
 42
-0.0087266463
  0
ELLIPSE
  5
871
100
AcDbEntity
  8
ASSI
100
AcDbEllipse
 62
7
  6
CONTINUOUS
 10
9.5539971429
 20
8.6580621458
 30
0.0
 11
0.0
 21
0.3
 31
0.0
 40
0.0174550649
 41
-1.5707963268
 42
-0.0174532925
  0
ELLIPSE
  5
872
100
AcDbEntity
  8
ASSI
100
AcDbEllipse
 62
7
  6
CONTINUOUS
 10
9.5539971429
 20
8.5419378542
 30
0.0
 11
0.0
 21
0.3
 31
0.0
 40
0.0174550649
 41
-3.1241393611
 42
-1.5707963268
  0
ELLIPSE
  5
873
100
AcDbEntity
  8
ASSI
100
AcDbEllipse
 62
7
  6
CONTINUOUS
 10
7.1885188411
 20
-7.79
 30
0.0
 11
-0.0
 21
88.6
 31
0.0
 40
0.1763269807
 41
-4.6590536787
 42
-4.6341913147
  0
ELLIPSE
  5
874
100
AcDbEntity
  8
ASSI
100
AcDbEllipse
 62
7
  6
CONTINUOUS
 10
-7.1885188411
 20
-7.79
 30
0.0
 11
0.0
 21
88.6
 31
0.0
 40
0.1763269807
 41
-1.6489939924
 42
-1.6241316285
  0
ELLIPSE
  5
875
100
AcDbEntity
  8
ASSI
100
AcDbEllipse
 62
7
  6
CONTINUOUS
 10
-9.5739977489
 20
7.79
 30
0.0
 11
88.6202467095
 21
-88.5932500688
 31
0.0
 40
0.0123407145
 41
1.5800410676
 42
1.5890510575
  0
ELLIPSE
  5
876
100
AcDbEntity
  8
ASSI
100
AcDbEllipse
 62
7
  6
CONTINUOUS
 10
-11.6443196183
 20
7.79
 30
0.0
 11
0.0
 21
88.6
 31
0.0
 40
0.0174550649
 41
-1.5401977481
 42
-1.4495765372
  0
ELLIPSE
  5
877
100
AcDbEntity
  8
ASSI
100
AcDbEllipse
 62
7
  6
CONTINUOUS
 10
-22.9939977489
 20
7.79
 30
0.0
 11
88.6202467095
 21
88.5932500688
 31
0.0
 40
0.0123407145
 41
-1.4372326891
 42
-1.4305394183
  0
ELLIPSE
  5
878
100
AcDbEntity
  8
ASSI
100
AcDbEllipse
 62
7
  6
CONTINUOUS
 10
-6.5056803817
 20
7.79
 30
0.0
 11
-0.0
 21
88.6
 31
0.0
 40
0.0174550649
 41
1.42653106
 42
1.4496626421
  0
ELLIPSE
  5
879
100
AcDbEntity
  8
ASSI
100
AcDbEllipse
 62
7
  6
CONTINUOUS
 10
-16.5760022511
 20
7.79
 30
0.0
 11
88.6202467095
 21
88.5932500688
 31
0.0
 40
0.0123407145
 41
1.4620064902
 42
1.4733593615
  0
ELLIPSE
  5
87A
100
AcDbEntity
  8
ASSI
100
AcDbEllipse
 62
7
  6
CONTINUOUS
 10
-7.5056803817
 20
7.79
 30
0.0
 11
-0.0
 21
88.6
 31
0.0
 40
0.0174550649
 41
1.4610155135
 42
1.5174610251
  0
ELLIPSE
  5
87B
100
AcDbEntity
  8
ASSI
100
AcDbEllipse
 62
7
  6
CONTINUOUS
 10
22.9939977489
 20
7.79
 30
0.0
 11
88.6202467095
 21
-88.5932500688
 31
0.0
 40
0.0123407145
 41
-1.7110532353
 42
-1.7043599645
  0
ELLIPSE
  5
87C
100
AcDbEntity
  8
ASSI
100
AcDbEllipse
 62
7
  6
CONTINUOUS
 10
11.6443196183
 20
7.79
 30
0.0
 11
-0.0
 21
88.6
 31
0.0
 40
0.0174550649
 41
1.4495765372
 42
1.5401977481
  0
ELLIPSE
  5
87D
100
AcDbEntity
  8
ASSI
100
AcDbEllipse
 62
7
  6
CONTINUOUS
 10
9.5739977489
 20
7.79
 30
0.0
 11
88.6202467095
 21
88.5932500688
 31
0.0
 40
0.0123407145
 41
1.5525415961
 42
1.561551586
  0
ELLIPSE
  5
87E
100
AcDbEntity
  8
ASSI
100
AcDbEllipse
 62
7
  6
CONTINUOUS
 10
7.5056803817
 20
7.79
 30
0.0
 11
0.0
 21
88.6
 31
0.0
 40
0.0174550649
 41
-1.5174610251
 42
-1.4610155135
  0
ELLIPSE
  5
87F
100
AcDbEntity
  8
ASSI
100
AcDbEllipse
 62
7
  6
CONTINUOUS
 10
16.5760022511
 20
7.79
 30
0.0
 11
88.6202467095
 21
-88.5932500688
 31
0.0
 40
0.0123407145
 41
1.668233292
 42
1.6795861634
  0
ELLIPSE
  5
880
100
AcDbEntity
  8
ASSI
100
AcDbEllipse
 62
7
  6
CONTINUOUS
 10
-1.2
 20
23.7941787855
 30
0.0
 11
0.0
 21
-0.2000033847
 31
0.0
 40
0.9999830769
 41
7.853981634
 42
9.4247779608
  0
ELLIPSE
  5
881
100
AcDbEntity
  8
ASSI
100
AcDbEllipse
 62
7
  6
CONTINUOUS
 10
-9.5539971429
 20
8.6580621458
 30
0.0
 11
0.0
 21
0.3
 31
0.0
 40
0.0174550649
 41
0.0174532925
 42
1.5707963268
  0
ELLIPSE
  5
882
100
AcDbEntity
  8
ASSI
100
AcDbEllipse
 62
7
  6
CONTINUOUS
 10
-9.5539971429
 20
8.5419378542
 30
0.0
 11
0.0
 21
0.3
 31
0.0
 40
0.0174550649
 41
-4.7123889804
 42
-3.1590459461
  0
ELLIPSE
  5
883
100
AcDbEntity
  8
ASSI
100
AcDbEllipse
 62
7
  6
CONTINUOUS
 10
-9.5539971429
 20
-3.6580621458
 30
0.0
 11
0.0
 21
0.3
 31
0.0
 40
0.0174550649
 41
-4.7123889804
 42
-3.1590459461
  0
ELLIPSE
  5
884
100
AcDbEntity
  8
ASSI
100
AcDbEllipse
 62
7
  6
CONTINUOUS
 10
9.5539971429
 20
-3.6580621458
 30
0.0
 11
0.0
 21
0.3
 31
0.0
 40
0.0174550649
 41
-3.1241393611
 42
-1.5707963268
  0
ELLIPSE
  5
885
100
AcDbEntity
  8
ASSI
100
AcDbEllipse
 62
7
  6
CONTINUOUS
 10
6.7703096103
 20
16.770076164
 30
0.0
 11
-0.2236357461
 21
0.4473055582
 31
0.0
 40
0.9998096356
 41
-3.6051336537
 42
-2.0344896259
  0
ELLIPSE
  5
886
100
AcDbEntity
  8
ASSI
100
AcDbEllipse
 62
7
  6
CONTINUOUS
 10
-6.7703096103
 20
16.770076164
 30
0.0
 11
0.2236357461
 21
0.4473055582
 31
0.0
 40
0.9998096356
 41
-4.2486956813
 42
-2.6780516535
  0
ELLIPSE
  5
887
100
AcDbEntity
  8
ASSI
100
AcDbEllipse
 62
7
  6
CONTINUOUS
 10
1.2
 20
23.7941787855
 30
0.0
 11
-0.0
 21
0.2000033847
 31
0.0
 40
0.9999830769
 41
6.2831853072
 42
7.853981634
  0
ELLIPSE
  5
888
100
AcDbEntity
  8
ASSI
100
AcDbEllipse
 62
7
  6
CONTINUOUS
 10
10.6416904364
 20
21.8941737085
 30
0.0
 11
-0.4160498344
 21
-0.2773626446
 31
0.0
 40
0.9999450019
 41
2.5536219432
 42
4.1243675013
  0
ELLIPSE
  5
889
100
AcDbEntity
  8
ASSI
100
AcDbEllipse
 62
7
  6
CONTINUOUS
 10
10.6416904364
 20
-21.8941737085
 30
0.0
 11
0.4160498344
 21
-0.2773626446
 31
0.0
 40
0.9999450019
 41
-0.9827748477
 42
0.5879707104
  0
ELLIPSE
  5
88A
100
AcDbEntity
  8
ASSI
100
AcDbEllipse
 62
7
  6
CONTINUOUS
 10
-10.6416904364
 20
21.8941737085
 30
0.0
 11
-0.4160498344
 21
0.2773626446
 31
0.0
 40
0.9999450019
 41
-0.9827748477
 42
0.5879707104
  0
ELLIPSE
  5
88B
100
AcDbEntity
  8
ASSI
100
AcDbEllipse
 62
7
  6
CONTINUOUS
 10
-10.6416904364
 20
-21.8941737085
 30
0.0
 11
0.4160498344
 21
0.2773626446
 31
0.0
 40
0.9999450019
 41
2.5536219432
 42
4.1243675013
  0
ELLIPSE
  5
88C
100
AcDbEntity
  8
ASSI
100
AcDbEllipse
 62
7
  6
CONTINUOUS
 10
-7.2721010029
 20
7.79
 30
0.0
 11
0.0
 21
88.6
 31
0.0
 40
0.0087268678
 41
-1.4420781982
 42
-1.4325459634
  0
ELLIPSE
  5
88D
100
AcDbEntity
  8
ASSI
100
AcDbEllipse
 62
7
  6
CONTINUOUS
 10
7.2721010029
 20
7.79
 30
0.0
 11
-0.0
 21
88.6
 31
0.0
 40
0.0087268678
 41
1.4325459634
 42
1.4420781982
  0
ELLIPSE
  5
88E
100
AcDbEntity
  8
ASSI
100
AcDbEllipse
 62
7
  6
CONTINUOUS
 10
3.7677609857
 20
-15.7266586822
 30
0.0
 11
0.0
 21
1.0
 31
0.0
 40
0.1763269807
 41
-1.4486232792
 42
-0.0174532925
  0
ELLIPSE
  5
88F
100
AcDbEntity
  8
ASSI
100
AcDbEllipse
 62
7
  6
CONTINUOUS
 10
19.1885188411
 20
-7.79
 30
0.0
 11
-0.0
 21
88.6
 31
0.0
 40
0.1763269807
 41
-4.6422411715
 42
-4.6341913147
  0
ELLIPSE
  5
890
100
AcDbEntity
  8
ASSI
100
AcDbEllipse
 62
7
  6
CONTINUOUS
 10
8.2322390143
 20
-15.7266586822
 30
0.0
 11
0.0
 21
1.0
 31
0.0
 40
0.1763269807
 41
0.0174532925
 42
1.4486232792
  0
ELLIPSE
  5
891
100
AcDbEntity
  8
ASSI
100
AcDbEllipse
 62
7
  6
CONTINUOUS
 10
-8.2322390143
 20
-15.7266586822
 30
0.0
 11
-0.0
 21
1.0
 31
0.0
 40
0.1763269807
 41
-1.4486232792
 42
-0.0174532925
  0
ELLIPSE
  5
892
100
AcDbEntity
  8
ASSI
100
AcDbEllipse
 62
7
  6
CONTINUOUS
 10
-3.7677609857
 20
-15.7266586822
 30
0.0
 11
0.0
 21
1.0
 31
0.0
 40
0.1763269807
 41
0.0174532925
 42
1.4486232792
  0
ELLIPSE
  5
893
100
AcDbEntity
  8
ASSI
100
AcDbEllipse
 62
7
  6
CONTINUOUS
 10
-19.1885188411
 20
-7.79
 30
0.0
 11
0.0
 21
88.6
 31
0.0
 40
0.1763269807
 41
-1.6489939924
 42
-1.6409441357
  0
ELLIPSE
  5
894
100
AcDbEntity
  8
ASSI
100
AcDbEllipse
 62
7
  6
CONTINUOUS
 10
-1.2
 20
-23.7941787855
 30
0.0
 11
0.0
 21
-0.2000033847
 31
0.0
 40
0.9999830769
 41
6.2831853072
 42
7.853981634
  0
ELLIPSE
  5
895
100
AcDbEntity
  8
ASSI
100
AcDbEllipse
 62
7
  6
CONTINUOUS
 10
7.5666456542
 20
-21.9537669705
 30
0.0
 11
0.4999904798
 21
0.5000285596
 31
0.0
 40
0.0061705924
 41
0.0112823085
 42
1.0386206835
  0
ELLIPSE
  5
896
100
AcDbEntity
  8
ASSI
100
AcDbEllipse
 62
7
  6
CONTINUOUS
 10
-7.5666456542
 20
-21.9537669705
 30
0.0
 11
-0.4999904798
 21
0.5000285596
 31
0.0
 40
0.0061705924
 41
-1.0386206835
 42
-0.0112823085
  0
ELLIPSE
  5
897
100
AcDbEntity
  8
ASSI
100
AcDbEllipse
 62
7
  6
CONTINUOUS
 10
-7.5666456542
 20
21.9537669705
 30
0.0
 11
0.4999904798
 21
0.5000285596
 31
0.0
 40
0.0061705924
 41
-3.1303103451
 42
-2.1029719701
  0
ELLIPSE
  5
898
100
AcDbEntity
  8
ASSI
100
AcDbEllipse
 62
7
  6
CONTINUOUS
 10
7.5666456542
 20
21.9537669705
 30
0.0
 11
-0.4999904798
 21
0.5000285596
 31
0.0
 40
0.0061705924
 41
-4.1802133371
 42
-3.1528749621
  0
ELLIPSE
  5
899
100
AcDbEntity
  8
ASSI
100
AcDbEllipse
 62
7
  6
CONTINUOUS
 10
6.5056803817
 20
7.79
 30
0.0
 11
-0.0
 21
88.6
 31
0.0
 40
0.0174550649
 41
-1.4496626421
 42
-1.42653106
  0
ELLIPSE
  5
89A
100
AcDbEntity
  8
ASSI
100
AcDbEllipse
 62
7
  6
CONTINUOUS
 10
1.2
 20
-23.7941787855
 30
0.0
 11
-0.0
 21
0.2000033847
 31
0.0
 40
0.9999830769
 41
7.853981634
 42
9.4247779608
  0
ELLIPSE
  5
89B
100
AcDbEntity
  8
ASSI
100
AcDbEllipse
 62
7
  6
CONTINUOUS
 10
-6.6961312341
 20
16.9184442159
 30
0.0
 11
0.2236357461
 21
0.4473055582
 31
0.0
 40
0.9998096356
 41
2.0344896259
 42
3.6051336537
  0
ELLIPSE
  5
89C
100
AcDbEntity
  8
ASSI
100
AcDbEllipse
 62
7
  6
CONTINUOUS
 10
6.6961312341
 20
16.9184442159
 30
0.0
 11
-0.2236357461
 21
0.4473055582
 31
0.0
 40
0.9998096356
 41
2.6780516535
 42
4.2486956813
  0
ELLIPSE
  5
89D
100
AcDbEntity
  8
ASSI
100
AcDbEllipse
 62
7
  6
CONTINUOUS
 10
6.3307928984
 20
15.7882830652
 30
0.0
 11
0.0
 21
1.5
 31
0.0
 40
0.0174550649
 41
0.0174532925
 42
2.181661565
  0
ELLIPSE
  5
89E
100
AcDbEntity
  8
ASSI
100
AcDbEllipse
 62
7
  6
CONTINUOUS
 10
-6.3307928984
 20
15.7882830652
 30
0.0
 11
0.0
 21
1.5
 31
0.0
 40
0.0174550649
 41
4.1015237422
 42
6.2657320147
  0
ELLIPSE
  5
89F
100
AcDbEntity
  8
RACCORDO
100
AcDbEllipse
 62
7
  6
CONTINUOUS
 10
-8.999923836
 20
-16.0000190392
 30
0.0
 11
0.4473055582
 21
-0.2236357461
 31
0.0
 40
0.9998096356
 41
2.0344896259
 42
3.6051336537
  0
ELLIPSE
  5
8A0
100
AcDbEntity
  8
RACCORDO
100
AcDbEllipse
 62
7
  6
CONTINUOUS
 10
8.999923836
 20
-16.0000190392
 30
0.0
 11
0.4473055582
 21
0.2236357461
 31
0.0
 40
0.9998096356
 41
-0.4635410001
 42
1.1071030277
  0
ELLIPSE
  5
8A1
100
AcDbEntity
  8
RACCORDO
100
AcDbEllipse
 62
7
  6
CONTINUOUS
 10
-7.0499966153
 20
22.6002744692
 30
0.0
 11
0.0220972656
 21
0.1990550872
 31
0.0
 40
0.9986126811
 41
-4.601678501
 42
-3.031186653
  0
ELLIPSE
  5
8A2
100
AcDbEntity
  8
RACCORDO
100
AcDbEllipse
 62
7
  6
CONTINUOUS
 10
-10.3500033847
 20
22.6002744692
 30
0.0
 11
-0.0220972656
 21
0.1990550872
 31
0.0
 40
0.9986126811
 41
-3.2519986542
 42
-1.6815068062
  0
ELLIPSE
  5
8A3
100
AcDbEntity
  8
RACCORDO
100
AcDbEllipse
 62
7
  6
CONTINUOUS
 10
10.3500033847
 20
22.6002744692
 30
0.0
 11
0.0220972656
 21
0.1990550872
 31
0.0
 40
0.9986126811
 41
-4.601678501
 42
-3.031186653
  0
ELLIPSE
  5
8A4
100
AcDbEntity
  8
RACCORDO
100
AcDbEllipse
 62
7
  6
CONTINUOUS
 10
7.0499966153
 20
22.6002744692
 30
0.0
 11
-0.0220972656
 21
0.1990550872
 31
0.0
 40
0.9986126811
 41
-3.2519986542
 42
-1.6815068062
  0
ELLIPSE
  5
8A5
100
AcDbEntity
  8
RACCORDO
100
AcDbEllipse
 62
7
  6
CONTINUOUS
 10
-10.3500033847
 20
-22.6002744692
 30
0.0
 11
0.0220972656
 21
0.1990550872
 31
0.0
 40
0.9986126811
 41
-1.4600858474
 42
0.1104060006
  0
ELLIPSE
  5
8A6
100
AcDbEntity
  8
RACCORDO
100
AcDbEllipse
 62
7
  6
CONTINUOUS
 10
-7.0499966153
 20
-22.6002744692
 30
0.0
 11
-0.0220972656
 21
0.1990550872
 31
0.0
 40
0.9986126811
 41
-0.1104060006
 42
1.4600858474
  0
ELLIPSE
  5
8A7
100
AcDbEntity
  8
RACCORDO
100
AcDbEllipse
 62
7
  6
CONTINUOUS
 10
7.0499966153
 20
-22.6002744692
 30
0.0
 11
0.0220972656
 21
0.1990550872
 31
0.0
 40
0.9986126811
 41
-1.4600858474
 42
0.1104060006
  0
ELLIPSE
  5
8A8
100
AcDbEntity
  8
RACCORDO
100
AcDbEllipse
 62
7
  6
CONTINUOUS
 10
10.3500033847
 20
-22.6002744692
 30
0.0
 11
-0.0220972656
 21
0.1990550872
 31
0.0
 40
0.9986126811
 41
-0.1104060006
 42
1.4600858474
  0
ELLIPSE
  5
8A9
100
AcDbEntity
  8
0
100
AcDbEllipse
 62
7
  6
CONTINUOUS
 10
6.331083251
 20
15.764526841
 30
0.0
 11
0.0
 21
0.3
 31
0.0
 40
0.0174550649
 41
-4.7123889804
 42
-4.1015237422
  0
ELLIPSE
  5
8AA
100
AcDbEntity
  8
0
100
AcDbEllipse
 62
7
  6
CONTINUOUS
 10
-6.331083251
 20
15.764526841
 30
0.0
 11
0.0
 21
0.3
 31
0.0
 40
0.0174550649
 41
-2.181661565
 42
-1.7069567436
  0
ELLIPSE
  5
8AB
100
AcDbEntity
  8
0
100
AcDbEllipse
 62
7
  6
CONTINUOUS
 10
6.331083251
 20
15.8009747569
 30
0.0
 11
0.0
 21
0.3
 31
0.0
 40
0.0174550649
 41
0.0174532925
 42
1.4451696035
  0
ELLIPSE
  5
8AC
100
AcDbEntity
  8
0
100
AcDbEllipse
 62
7
  6
CONTINUOUS
 10
-6.331083251
 20
15.8009747569
 30
0.0
 11
-0.0
 21
0.3
 31
0.0
 40
0.0174550649
 41
-1.5707963268
 42
-0.1431181655
  0
ELLIPSE
  5
8AD
100
AcDbEntity
  8
0
100
AcDbEllipse
 62
7
  6
CONTINUOUS
 10
-6.3397373285
 20
14.0975670731
 30
0.0
 11
0.0
 21
0.25
 31
0.0
 40
0.0174550649
 41
0.9599310886
 42
3.1415926536
  0
ELLIPSE
  5
8AE
100
AcDbEntity
  8
0
100
AcDbEllipse
 62
7
  6
CONTINUOUS
 10
6.3397373285
 20
14.0975670731
 30
0.0
 11
0.0
 21
0.25
 31
0.0
 40
0.0174550649
 41
3.1415926536
 42
5.3232542186
  0
ELLIPSE
  5
8AF
100
AcDbEntity
  8
RACCORDO
100
AcDbEllipse
 62
7
  6
CONTINUOUS
 10
4.5043634339
 20
-17.7956556053
 30
0.0
 11
0.0
 21
0.5
 31
0.0
 40
0.0087268678
 41
0.0087266463
 42
1.5707963268
  0
ELLIPSE
  5
8B0
100
AcDbEntity
  8
RACCORDO
100
AcDbEllipse
 62
7
  6
CONTINUOUS
 10
-4.5043634339
 20
-17.7956556053
 30
0.0
 11
-0.0
 21
0.5
 31
0.0
 40
0.0087268678
 41
-1.5707963268
 42
-0.0087266463
  0
ELLIPSE
  5
8B1
100
AcDbEntity
  8
0
100
AcDbEllipse
 62
7
  6
CONTINUOUS
 10
9.5539971429
 20
8.6580621458
 30
0.0
 11
0.0
 21
0.3
 31
0.0
 40
0.0174550649
 41
-1.5707963268
 42
-0.0174532925
  0
ELLIPSE
  5
8B2
100
AcDbEntity
  8
0
100
AcDbEllipse
 62
7
  6
CONTINUOUS
 10
9.5539971429
 20
8.5419378542
 30
0.0
 11
0.0
 21
0.3
 31
0.0
 40
0.0174550649
 41
-3.1241393611
 42
-1.5707963268
  0
ELLIPSE
  5
8B3
100
AcDbEntity
  8
0
100
AcDbEllipse
 62
7
  6
CONTINUOUS
 10
-1.2
 20
23.7941787855
 30
0.0
 11
0.0
 21
-0.2000033847
 31
0.0
 40
0.9999830769
 41
1.5707963268
 42
3.1415926536
  0
ELLIPSE
  5
8B4
100
AcDbEntity
  8
0
100
AcDbEllipse
 62
7
  6
CONTINUOUS
 10
1.2
 20
23.7941787855
 30
0.0
 11
-0.0
 21
0.2000033847
 31
0.0
 40
0.9999830769
 41
0.0
 42
1.5707963268
  0
ELLIPSE
  5
8B5
100
AcDbEntity
  8
0
100
AcDbEllipse
 62
7
  6
CONTINUOUS
 10
-9.5539971429
 20
8.6580621458
 30
0.0
 11
0.0
 21
0.3
 31
0.0
 40
0.0174550649
 41
0.0174532925
 42
1.5707963268
  0
ELLIPSE
  5
8B6
100
AcDbEntity
  8
0
100
AcDbEllipse
 62
7
  6
CONTINUOUS
 10
-1.2
 20
-23.7941787855
 30
0.0
 11
0.0
 21
-0.2000033847
 31
0.0
 40
0.9999830769
 41
0.0
 42
1.5707963268
  0
ELLIPSE
  5
8B7
100
AcDbEntity
  8
0
100
AcDbEllipse
 62
7
  6
CONTINUOUS
 10
-9.5539971429
 20
8.5419378542
 30
0.0
 11
0.0
 21
0.3
 31
0.0
 40
0.0174550649
 41
-4.7123889804
 42
-3.1590459461
  0
ELLIPSE
  5
8B8
100
AcDbEntity
  8
0
100
AcDbEllipse
 62
7
  6
CONTINUOUS
 10
-9.5539971429
 20
-3.6580621458
 30
0.0
 11
0.0
 21
0.3
 31
0.0
 40
0.0174550649
 41
-4.7123889804
 42
-3.1590459461
  0
ELLIPSE
  5
8B9
100
AcDbEntity
  8
0
100
AcDbEllipse
 62
7
  6
CONTINUOUS
 10
9.5539971429
 20
-3.6580621458
 30
0.0
 11
0.0
 21
0.3
 31
0.0
 40
0.0174550649
 41
-3.1241393611
 42
-1.5707963268
  0
ELLIPSE
  5
8BA
100
AcDbEntity
  8
0
100
AcDbEllipse
 62
7
  6
CONTINUOUS
 10
1.2
 20
-23.7941787855
 30
0.0
 11
-0.0
 21
0.2000033847
 31
0.0
 40
0.9999830769
 41
1.5707963268
 42
3.1415926536
  0
ELLIPSE
  5
8BB
100
AcDbEntity
  8
0
100
AcDbEllipse
 62
7
  6
CONTINUOUS
 10
6.7703096103
 20
16.770076164
 30
0.0
 11
-0.2236357461
 21
0.4473055582
 31
0.0
 40
0.9998096356
 41
-3.6051336537
 42
-2.0344896259
  0
ELLIPSE
  5
8BC
100
AcDbEntity
  8
0
100
AcDbEllipse
 62
7
  6
CONTINUOUS
 10
-6.7703096103
 20
16.770076164
 30
0.0
 11
0.2236357461
 21
0.4473055582
 31
0.0
 40
0.9998096356
 41
-4.2486956813
 42
-2.6780516535
  0
ELLIPSE
  5
8BD
100
AcDbEntity
  8
0
100
AcDbEllipse
 62
7
  6
CONTINUOUS
 10
3.9530427099
 20
-22.3560930869
 30
0.0
 11
0.4530427099
 21
0.0
 31
0.0
 40
0.0058178298
 41
0.0058177642
 42
3.1415926536
  0
ELLIPSE
  5
8BE
100
AcDbEntity
  8
0
100
AcDbEllipse
 62
7
  6
CONTINUOUS
 10
-3.9530427099
 20
-22.3560930869
 30
0.0
 11
0.4530427099
 21
-0.0
 31
0.0
 40
0.0058178298
 41
0.0
 42
3.1357748894
  0
ELLIPSE
  5
8BF
100
AcDbEntity
  8
0
100
AcDbEllipse
 62
7
  6
CONTINUOUS
 10
3.9530427099
 20
22.3560930869
 30
0.0
 11
0.4530427099
 21
0.0
 31
0.0
 40
0.0058178298
 41
-3.1415926536
 42
-0.0058177642
  0
ELLIPSE
  5
8C0
100
AcDbEntity
  8
0
100
AcDbEllipse
 62
7
  6
CONTINUOUS
 10
-3.9530427099
 20
22.3560930869
 30
0.0
 11
0.4530427099
 21
0.0
 31
0.0
 40
0.0058178298
 41
-3.1357748894
 42
-0.0
  0
ELLIPSE
  5
8C1
100
AcDbEntity
  8
DRAFT
100
AcDbEllipse
 62
7
  6
CONTINUOUS
 10
-8.1905965035
 20
21.3359869487
 30
0.0
 11
1.0000571192
 21
0.9999809595
 31
0.0
 40
0.0061705924
 41
-1.1948539202
 42
0.0003532199
  0
ELLIPSE
  5
8C2
100
AcDbEntity
  8
DRAFT
100
AcDbEllipse
 62
7
  6
CONTINUOUS
 10
8.1905965035
 20
21.3359869487
 30
0.0
 11
1.0000571192
 21
-0.9999809595
 31
0.0
 40
0.0061705924
 41
3.1412394337
 42
4.3364465738
  0
ELLIPSE
  5
8C3
100
AcDbEntity
  8
DRAFT
100
AcDbEllipse
 62
7
  6
CONTINUOUS
 10
8.1905965035
 20
-21.3359869487
 30
0.0
 11
1.0000571192
 21
0.9999809595
 31
0.0
 40
0.0061705924
 41
1.9467387334
 42
3.1419458735
  0
ELLIPSE
  5
8C4
100
AcDbEntity
  8
DRAFT
100
AcDbEllipse
 62
7
  6
CONTINUOUS
 10
-8.1905965035
 20
-21.3359869487
 30
0.0
 11
1.0000571192
 21
-0.9999809595
 31
0.0
 40
0.0061705924
 41
-0.0003532199
 42
1.1948539202
  0
ELLIPSE
  5
8C5
100
AcDbEntity
  8
0
100
AcDbEllipse
 62
7
  6
CONTINUOUS
 10
9.8999957691
 20
23.4113248654
 30
0.0
 11
-0.0029088041
 21
0.2886641433
 31
0.0
 40
0.8660144118
 41
-3.150319066
 42
-1.582431609
  0
ELLIPSE
  5
8C6
100
AcDbEntity
  8
0
100
AcDbEllipse
 62
7
  6
CONTINUOUS
 10
7.5000042309
 20
23.4113248654
 30
0.0
 11
0.0029088041
 21
0.2886641433
 31
0.0
 40
0.8660144118
 41
-4.7007536982
 42
-3.1328662412
  0
ELLIPSE
  5
8C7
100
AcDbEntity
  8
0
100
AcDbEllipse
 62
7
  6
CONTINUOUS
 10
-7.5000042309
 20
23.4113248654
 30
0.0
 11
-0.0029088041
 21
0.2886641433
 31
0.0
 40
0.8660144118
 41
-3.150319066
 42
-1.582431609
  0
ELLIPSE
  5
8C8
100
AcDbEntity
  8
0
100
AcDbEllipse
 62
7
  6
CONTINUOUS
 10
-9.8999957691
 20
23.4113248654
 30
0.0
 11
0.0029088041
 21
0.2886641433
 31
0.0
 40
0.8660144118
 41
-4.7007536982
 42
-3.1328662411
  0
ELLIPSE
  5
8C9
100
AcDbEntity
  8
0
100
AcDbEllipse
 62
7
  6
CONTINUOUS
 10
9.8999957691
 20
-23.4113248654
 30
0.0
 11
0.0029088041
 21
0.2886641433
 31
0.0
 40
0.8660144118
 41
-1.5591610446
 42
0.0087264124
  0
ELLIPSE
  5
8CA
100
AcDbEntity
  8
0
100
AcDbEllipse
 62
7
  6
CONTINUOUS
 10
7.5000042309
 20
-23.4113248654
 30
0.0
 11
-0.0029088041
 21
0.2886641433
 31
0.0
 40
0.8660144118
 41
-0.0087264124
 42
1.5591610446
  0
ELLIPSE
  5
8CB
100
AcDbEntity
  8
0
100
AcDbEllipse
 62
7
  6
CONTINUOUS
 10
-9.8999957691
 20
-23.4113248654
 30
0.0
 11
-0.0029088041
 21
0.2886641433
 31
0.0
 40
0.8660144118
 41
-0.0087264124
 42
1.5591610446
  0
ELLIPSE
  5
8CC
100
AcDbEntity
  8
0
100
AcDbEllipse
 62
7
  6
CONTINUOUS
 10
-7.5000042309
 20
-23.4113248654
 30
0.0
 11
0.0029088041
 21
0.2886641433
 31
0.0
 40
0.8660144118
 41
-1.5591610446
 42
0.0087264124
  0
ELLIPSE
  5
8CD
100
AcDbEntity
  8
DRAFT
100
AcDbEllipse
 62
7
  6
CONTINUOUS
 10
7.1885188411
 20
-7.79
 30
0.0
 11
-0.0
 21
88.6
 31
0.0
 40
0.1763269807
 41
-4.6590536787
 42
-4.6341913147
  0
ELLIPSE
  5
8CE
100
AcDbEntity
  8
DRAFT
100
AcDbEllipse
 62
7
  6
CONTINUOUS
 10
-7.1885188411
 20
-7.79
 30
0.0
 11
0.0
 21
88.6
 31
0.0
 40
0.1763269807
 41
-1.6489939924
 42
-1.6241316285
  0
ELLIPSE
  5
8CF
100
AcDbEntity
  8
0
100
AcDbEllipse
 62
7
  6
CONTINUOUS
 10
-9.5739977489
 20
7.79
 30
0.0
 11
88.6202467095
 21
-88.5932500688
 31
0.0
 40
0.0123407145
 41
1.5800410676
 42
1.5890510575
  0
ELLIPSE
  5
8D0
100
AcDbEntity
  8
0
100
AcDbEllipse
 62
7
  6
CONTINUOUS
 10
-11.6443196183
 20
7.79
 30
0.0
 11
0.0
 21
88.6
 31
0.0
 40
0.0174550649
 41
-1.5401977481
 42
-1.4495765372
  0
ELLIPSE
  5
8D1
100
AcDbEntity
  8
0
100
AcDbEllipse
 62
7
  6
CONTINUOUS
 10
-22.9939977489
 20
7.79
 30
0.0
 11
88.6202467095
 21
88.5932500688
 31
0.0
 40
0.0123407145
 41
-1.4372326891
 42
-1.4305394183
  0
ELLIPSE
  5
8D2
100
AcDbEntity
  8
0
100
AcDbEllipse
 62
7
  6
CONTINUOUS
 10
-6.5056803817
 20
7.79
 30
0.0
 11
-0.0
 21
88.6
 31
0.0
 40
0.0174550649
 41
1.42653106
 42
1.4496626421
  0
ELLIPSE
  5
8D3
100
AcDbEntity
  8
0
100
AcDbEllipse
 62
7
  6
CONTINUOUS
 10
-16.5760022511
 20
7.79
 30
0.0
 11
88.6202467095
 21
88.5932500688
 31
0.0
 40
0.0123407145
 41
1.4620064902
 42
1.4733593615
  0
ELLIPSE
  5
8D4
100
AcDbEntity
  8
0
100
AcDbEllipse
 62
7
  6
CONTINUOUS
 10
-7.5056803817
 20
7.79
 30
0.0
 11
-0.0
 21
88.6
 31
0.0
 40
0.0174550649
 41
1.4610155135
 42
1.5174610251
  0
ELLIPSE
  5
8D5
100
AcDbEntity
  8
0
100
AcDbEllipse
 62
7
  6
CONTINUOUS
 10
22.9939977489
 20
7.79
 30
0.0
 11
88.6202467095
 21
-88.5932500688
 31
0.0
 40
0.0123407145
 41
-1.7110532353
 42
-1.7043599645
  0
ELLIPSE
  5
8D6
100
AcDbEntity
  8
0
100
AcDbEllipse
 62
7
  6
CONTINUOUS
 10
11.6443196183
 20
7.79
 30
0.0
 11
-0.0
 21
88.6
 31
0.0
 40
0.0174550649
 41
1.4495765372
 42
1.5401977481
  0
ELLIPSE
  5
8D7
100
AcDbEntity
  8
0
100
AcDbEllipse
 62
7
  6
CONTINUOUS
 10
9.5739977489
 20
7.79
 30
0.0
 11
88.6202467095
 21
88.5932500688
 31
0.0
 40
0.0123407145
 41
1.5525415961
 42
1.561551586
  0
ELLIPSE
  5
8D8
100
AcDbEntity
  8
0
100
AcDbEllipse
 62
7
  6
CONTINUOUS
 10
7.5056803817
 20
7.79
 30
0.0
 11
0.0
 21
88.6
 31
0.0
 40
0.0174550649
 41
-1.5174610251
 42
-1.4610155135
  0
ELLIPSE
  5
8D9
100
AcDbEntity
  8
0
100
AcDbEllipse
 62
7
  6
CONTINUOUS
 10
16.5760022511
 20
7.79
 30
0.0
 11
88.6202467095
 21
-88.5932500688
 31
0.0
 40
0.0123407145
 41
1.668233292
 42
1.6795861634
  0
ELLIPSE
  5
8DA
100
AcDbEntity
  8
0
100
AcDbEllipse
 62
7
  6
CONTINUOUS
 10
4.4063662764
 20
-23.4563578147
 30
0.0
 11
0.0
 21
0.5
 31
0.0
 40
0.0058178298
 41
-3.2409419489
 42
-3.1474104178
  0
ELLIPSE
  5
8DB
100
AcDbEntity
  8
0
100
AcDbEllipse
 62
7
  6
CONTINUOUS
 10
-4.4063662764
 20
-23.4563578147
 30
0.0
 11
-0.0
 21
0.5
 31
0.0
 40
0.0058178298
 41
-3.1357748894
 42
-3.0422433583
  0
ELLIPSE
  5
8DC
100
AcDbEntity
  8
0
100
AcDbEllipse
 62
7
  6
CONTINUOUS
 10
-6.3307928984
 20
15.7882830652
 30
0.0
 11
0.0
 21
1.5
 31
0.0
 40
0.0174550649
 41
4.1015237422
 42
6.2657320147
  0
ELLIPSE
  5
8DD
100
AcDbEntity
  8
0
100
AcDbEllipse
 62
7
  6
CONTINUOUS
 10
6.3307928984
 20
15.7882830652
 30
0.0
 11
-0.0
 21
1.5
 31
0.0
 40
0.0174550649
 41
0.0174532925
 42
2.181661565
  0
ELLIPSE
  5
8DE
100
AcDbEntity
  8
0
100
AcDbEllipse
 62
7
  6
CONTINUOUS
 10
6.6961312341
 20
16.9184442159
 30
0.0
 11
-0.2236357461
 21
0.4473055582
 31
0.0
 40
0.9998096356
 41
2.6780516535
 42
4.2486956813
  0
ELLIPSE
  5
8DF
100
AcDbEntity
  8
0
100
AcDbEllipse
 62
7
  6
CONTINUOUS
 10
-6.6961312341
 20
16.9184442159
 30
0.0
 11
0.2236357461
 21
0.4473055582
 31
0.0
 40
0.9998096356
 41
2.0344896259
 42
3.6051336537
  0
ELLIPSE
  5
8E0
100
AcDbEntity
  8
0
100
AcDbEllipse
 62
7
  6
CONTINUOUS
 10
10.6416904364
 20
21.8941737085
 30
0.0
 11
-0.4160498344
 21
-0.2773626446
 31
0.0
 40
0.9999450019
 41
2.5536219432
 42
4.1243675013
  0
ELLIPSE
  5
8E1
100
AcDbEntity
  8
0
100
AcDbEllipse
 62
7
  6
CONTINUOUS
 10
10.6416904364
 20
-21.8941737085
 30
0.0
 11
0.4160498344
 21
-0.2773626446
 31
0.0
 40
0.9999450019
 41
-0.9827748477
 42
0.5879707104
  0
ELLIPSE
  5
8E2
100
AcDbEntity
  8
0
100
AcDbEllipse
 62
7
  6
CONTINUOUS
 10
-10.6416904364
 20
21.8941737085
 30
0.0
 11
-0.4160498344
 21
0.2773626446
 31
0.0
 40
0.9999450019
 41
-0.9827748477
 42
0.5879707104
  0
ELLIPSE
  5
8E3
100
AcDbEntity
  8
0
100
AcDbEllipse
 62
7
  6
CONTINUOUS
 10
-10.6416904364
 20
-21.8941737085
 30
0.0
 11
0.4160498344
 21
0.2773626446
 31
0.0
 40
0.9999450019
 41
2.5536219432
 42
4.1243675013
  0
ELLIPSE
  5
8E4
100
AcDbEntity
  8
0
100
AcDbEllipse
 62
7
  6
CONTINUOUS
 10
-7.2721010029
 20
7.79
 30
0.0
 11
0.0
 21
88.6
 31
0.0
 40
0.0087268678
 41
-1.4420781982
 42
-1.4325459634
  0
ELLIPSE
  5
8E5
100
AcDbEntity
  8
0
100
AcDbEllipse
 62
7
  6
CONTINUOUS
 10
7.2721010029
 20
7.79
 30
0.0
 11
-0.0
 21
88.6
 31
0.0
 40
0.0087268678
 41
1.4325459634
 42
1.4420781982
  0
ELLIPSE
  5
8E6
100
AcDbEntity
  8
RACCORDO
100
AcDbEllipse
 62
7
  6
CONTINUOUS
 10
3.7677609857
 20
-15.7266586822
 30
0.0
 11
0.0
 21
1.0
 31
0.0
 40
0.1763269807
 41
-1.4486232792
 42
-0.0174532925
  0
ELLIPSE
  5
8E7
100
AcDbEntity
  8
DRAFT
100
AcDbEllipse
 62
7
  6
CONTINUOUS
 10
19.1885188411
 20
-7.79
 30
0.0
 11
-0.0
 21
88.6
 31
0.0
 40
0.1763269807
 41
-4.6422411715
 42
-4.6341913147
  0
ELLIPSE
  5
8E8
100
AcDbEntity
  8
RACCORDO
100
AcDbEllipse
 62
7
  6
CONTINUOUS
 10
8.2322390143
 20
-15.7266586822
 30
0.0
 11
0.0
 21
1.0
 31
0.0
 40
0.1763269807
 41
0.0174532925
 42
1.4486232792
  0
ELLIPSE
  5
8E9
100
AcDbEntity
  8
RACCORDO
100
AcDbEllipse
 62
7
  6
CONTINUOUS
 10
-8.2322390143
 20
-15.7266586822
 30
0.0
 11
-0.0
 21
1.0
 31
0.0
 40
0.1763269807
 41
-1.4486232792
 42
-0.0174532925
  0
ELLIPSE
  5
8EA
100
AcDbEntity
  8
RACCORDO
100
AcDbEllipse
 62
7
  6
CONTINUOUS
 10
-3.7677609857
 20
-15.7266586822
 30
0.0
 11
0.0
 21
1.0
 31
0.0
 40
0.1763269807
 41
0.0174532925
 42
1.4486232792
  0
ELLIPSE
  5
8EB
100
AcDbEntity
  8
DRAFT
100
AcDbEllipse
 62
7
  6
CONTINUOUS
 10
-19.1885188411
 20
-7.79
 30
0.0
 11
0.0
 21
88.6
 31
0.0
 40
0.1763269807
 41
-1.6489939924
 42
-1.6409441357
  0
ELLIPSE
  5
8EC
100
AcDbEntity
  8
0
100
AcDbEllipse
 62
7
  6
CONTINUOUS
 10
6.5056803817
 20
7.79
 30
0.0
 11
-0.0
 21
88.6
 31
0.0
 40
0.0174550649
 41
-1.4496626421
 42
-1.42653106
  0
ELLIPSE
  5
8ED
100
AcDbEntity
  8
DRAFT
100
AcDbEllipse
 62
7
  6
CONTINUOUS
 10
7.5666456542
 20
21.9537669705
 30
0.0
 11
-0.4999904798
 21
0.5000285596
 31
0.0
 40
0.0061705924
 41
-4.1802133371
 42
-3.1528749621
  0
ELLIPSE
  5
8EE
100
AcDbEntity
  8
DRAFT
100
AcDbEllipse
 62
7
  6
CONTINUOUS
 10
-7.5666456542
 20
21.9537669705
 30
0.0
 11
0.4999904798
 21
0.5000285596
 31
0.0
 40
0.0061705924
 41
-3.1303103451
 42
-2.1029719701
  0
ELLIPSE
  5
8EF
100
AcDbEntity
  8
DRAFT
100
AcDbEllipse
 62
7
  6
CONTINUOUS
 10
-7.5666456542
 20
-21.9537669705
 30
0.0
 11
-0.4999904798
 21
0.5000285596
 31
0.0
 40
0.0061705924
 41
-1.0386206835
 42
-0.0112823085
  0
ELLIPSE
  5
8F0
100
AcDbEntity
  8
DRAFT
100
AcDbEllipse
 62
7
  6
CONTINUOUS
 10
7.5666456542
 20
-21.9537669705
 30
0.0
 11
0.4999904798
 21
0.5000285596
 31
0.0
 40
0.0061705924
 41
0.0112823085
 42
1.0386206835
  0
ENDSEC
  0
SECTION
  2
OBJECTS
  0
DICTIONARY
  5
C
100
AcDbDictionary
280
0
281
1
  3
ACAD_GROUP
350
D
  3
ACAD_MLINESTYLE
350
17
  3
ACAD_LAYOUT
350
1A
  3
ACAD_PLOTSETTINGS
350
19
  3
ACAD_PLOTSTYLENAME
350
E
  0
DICTIONARY
  5
D
102
{ACAD_REACTORS
330
C
102
}
100
AcDbDictionary
280
0
281
1
  0
ACDBDICTIONARYWDFLT
  5
E
102
{ACAD_REACTORS
330
C
102
}
100
AcDbDictionary
281
1
  3
Normal
350
F
100
AcDbDictionaryWithDefault
340
F
  0
DICTIONARY
  5
17
102
{ACAD_REACTORS
330
C
102
}
100
AcDbDictionary
280
0
281
1
  3
Standard
350
18
  0
DICTIONARY
  5
19
102
{ACAD_REACTORS
330
C
102
}
100
AcDbDictionary
281
1
  0
DICTIONARY
  5
1A
102
{ACAD_REACTORS
330
C
102
}
100
AcDbDictionary
281
1
  3
Model
350
8F1
  3
Layout1
350
8F2
  0
ACDBPLACEHOLDER
  5
F
102
{ACAD_REACTORS
330
E
102
}
  0
MLINESTYLE
  5
18
102
{ACAD_REACTORS
330
17
102
}
100
AcDbMlineStyle
  2
STANDARD
 70
0
  3

 62
256
 51
90.0
 52
90.0
 71
2
 49
0.5
 62
256
  6
BYLAYER
 49
-0.5
 62
256
  6
BYLAYER
  0
LAYOUT
  5
8F1
102
{ACAD_REACTORS
330
1A
102
}
100
AcDbPlotSettings
  1

  2
none_device
  4
ANSI_C_(22.00_x_17.00_Inches)
  6

 40
0.0
 41
0.0
 42
0.0
 43
0.0
 44
558.8
 45
431.8
 46
0.0
 47
0.0
 48
0.0
 49
0.0
140
0.0
141
0.0
142
1.0
143
1.0
 70
1024
 72
1
 73
0
 74
0
  7

 75
0
147
1.0
148
0.0
149
0.0
100
AcDbLayout
  1
Model
 70
0
 71
0
 10
0.0
 20
0.0
 11
558.8
 21
431.8
 12
0.0
 22
0.0
 32
0.0
 14
0.0
 24
0.0
 34
0.0
 15
0.0
 25
0.0
 35
0.0
146
0.0
 13
0.0
 23
0.0
 33
0.0
 16
1.0
 26
0.0
 36
0.0
 17
0.0
 27
1.0
 37
0.0
 76
0
330
213
345
0
346
0
  0
LAYOUT
  5
8F2
102
{ACAD_REACTORS
330
1A
102
}
100
AcDbPlotSettings
  1

  2
none_device
  4
ANSI_C_(22.00_x_17.00_Inches)
  6

 40
0.0
 41
0.0
 42
0.0
 43
0.0
 44
558.8
 45
431.8
 46
0.0
 47
0.0
 48
0.0
 49
0.0
140
0.0
141
0.0
142
1.0
143
1.0
 70
0
 72
1
 73
0
 74
0
  7

 75
0
147
1.0
148
0.0
149
0.0
100
AcDbLayout
  1
Layout1
 70
0
 71
1
 10
0.0
 20
0.0
 11
558.8
 21
431.8
 12
0.0
 22
0.0
 32
0.0
 14
0.0
 24
0.0
 34
0.0
 15
0.0
 25
0.0
 35
0.0
146
0.0
 13
0.0
 23
0.0
 33
0.0
 16
1.0
 26
0.0
 36
0.0
 17
0.0
 27
1.0
 37
0.0
 76
0
330
214
345
0
346
0
  0
ENDSEC
  0
EOF
