0
SECTION
2
HEADER
9
$ACADVER
1
AC1014
9
$HANDSEED
5
       48C
9
$EXTMAX
10
297.0000000000
20
210.0000000000
9
$EXTMIN
10
0.0000000000
20
0.0000000000
9
$LIMMIN
10
0.0000000000
20
0.0000000000
9
$LIMMAX
10
297.0000000000
20
210.0000000000
9
$VIEWCTR
10
148.5000000000
20
105.0000000000
9
$VIEWSIZE
40
210.0000000000
9
$CLAYER
8
0
9
$LTSCALE
40
16.3350000000
9
$CELTYPE
6
BYLAYER
9
$DIMSCALE
40
1
9
$DIMASZ
40
3.0000000000
9
$DIMEXO
40
1.8562500000
9
$DIMDLI
40
11.2860000000
9
$DIMEXE
40
5.3460000000
9
$DIMCEN
40
2.6730000000
9
$DIMLFAC
40
1.0000000000
9
$DIMTXT
40
3.0000000000
9
$DIMTOL
70
1
9
$DIMLIM
70
0
9
$DIMTFAC
40
1.0000000000
9
$DIMTP
40
0.0100000000
9
$DIMTM
40
0.0100000000
9
$MEASUREMENT
70
1
0
ENDSEC
0
SECTION
2
CLASSES
0
ENDSEC
0
SECTION
2
TABLES
0
TABLE
2
VPORT
5
8
100
AcDbSymbolTable
70
2
0
VPORT
5
1F4
100
AcDbSymbolTableRecord
100
AcDbViewportTableRecord
2
*ACTIVE
70
0
10
0.0
20
0.0
11
1.0
21
1.0
12
148.5000000000
22
105.0000000000
13
0.0
23
0.0
14
1.0
24
1.0
15
0.0
25
0.0
16
0.0
26
0.0
36
1.0
17
0.0
27
0.0
37
0.0
40
210.0000000000
41
1.4142857143
42
50.0
43
0.0
44
0.0
50
0.0
51
0.0
71
0
72
100
73
1
74
1
75
0
76
0
77
0
78
0
0
ENDTAB
0
TABLE
2
LTYPE
5
5
100
AcDbSymbolTable
70
6
0
LTYPE
5
14
100
AcDbSymbolTableRecord
100
AcDbLinetypeTableRecord
2
BYBLOCK
70
0
3

72
65
73
0
40
0.0
0
LTYPE
5
15
100
AcDbSymbolTableRecord
100
AcDbLinetypeTableRecord
2
BYLAYER
70
0
3

72
65
73
0
40
0.0
0
LTYPE
5
16
100
AcDbSymbolTableRecord
100
AcDbLinetypeTableRecord
2
CONTINUOUS
70
64
3
Solid line
72
65
73
0
40
0
0
LTYPE
5
1F5
100
AcDbSymbolTableRecord
100
AcDbLinetypeTableRecord
2
CENTER
70
64
3
____ _ ____ _ ____ _ ____ _ ____ _ ____ _ ____
72
65
73
4
40
0.6
49
0.375
74
0
49
-0.075
74
0
49
0.075
74
0
49
-0.075
74
0
0
LTYPE
5
1F6
100
AcDbSymbolTableRecord
100
AcDbLinetypeTableRecord
2
HIDDEN
70
64
3
- - - - - - - - - - - - - - - - - - - -
72
65
73
2
40
0.2
49
0.1
74
0
49
-0.1
74
0
0
LTYPE
5
1F7
100
AcDbSymbolTableRecord
100
AcDbLinetypeTableRecord
2
PHANTOM
70
64
3
_____ _ _ _____ _ _ _____ _ _ _____
72
65
73
6
40
0.8
49
0.45
74
0
49
-0.05
74
0
49
0.1
74
0
49
-0.05
74
0
49
0.1
74
0
49
-0.05
74
0
0
LTYPE
5
1F8
100
AcDbSymbolTableRecord
100
AcDbLinetypeTableRecord
2
DOT
70
64
3
. . . . . . . . . . . . . . . . . . . .
72
65
73
2
40
0.2
49
0.1
74
0
49
-0.1
74
0
0
LTYPE
5
1F9
100
AcDbSymbolTableRecord
100
AcDbLinetypeTableRecord
2
DASHED
70
64
3
- - - - - - - - - - - - - - - - - - - -
72
65
73
2
40
0.2
49
0.1
74
0
49
-0.1
74
0
0
ENDTAB
0
TABLE
2
LAYER
5
2
100
AcDbSymbolTable
70
36
0
LAYER
5
10
100
AcDbSymbolTableRecord
100
AcDbLayerTableRecord
2
0
70
0
62
7
6
CONTINUOUS
0
LAYER
5
1FA
100
AcDbSymbolTableRecord
100
AcDbLayerTableRecord
2
DEFAULT_1
70
0
62
7
6
CENTER
0
LAYER
5
1FB
100
AcDbSymbolTableRecord
100
AcDbLayerTableRecord
2
DEFAULT_2
70
0
62
8
6
HIDDEN
0
LAYER
5
1FC
100
AcDbSymbolTableRecord
100
AcDbLayerTableRecord
2
DEFAULT_3
70
0
62
7
6
PHANTOM
0
LAYER
5
1FD
100
AcDbSymbolTableRecord
100
AcDbLayerTableRecord
2
_BLACK_HOLE
70
0
62
7
6
CONTINUOUS
0
LAYER
5
1FE
100
AcDbSymbolTableRecord
100
AcDbLayerTableRecord
2
ASSI
70
0
62
7
6
CONTINUOUS
0
LAYER
5
1FF
100
AcDbSymbolTableRecord
100
AcDbLayerTableRecord
2
COORDINATE
70
0
62
7
6
CONTINUOUS
0
LAYER
5
200
100
AcDbSymbolTableRecord
100
AcDbLayerTableRecord
2
COORD_ORIGINE
70
0
62
7
6
CONTINUOUS
0
LAYER
5
201
100
AcDbSymbolTableRecord
100
AcDbLayerTableRecord
2
COPY-PUBBLISH
70
0
62
7
6
CONTINUOUS
0
LAYER
5
202
100
AcDbSymbolTableRecord
100
AcDbLayerTableRecord
2
CURVE
70
0
62
7
6
CONTINUOUS
0
LAYER
5
203
100
AcDbSymbolTableRecord
100
AcDbLayerTableRecord
2
DRAFT
70
0
62
7
6
CONTINUOUS
0
LAYER
5
204
100
AcDbSymbolTableRecord
100
AcDbLayerTableRecord
2
IMPORT
70
0
62
7
6
CONTINUOUS
0
LAYER
5
205
100
AcDbSymbolTableRecord
100
AcDbLayerTableRecord
2
LAY0001
70
0
62
7
6
CONTINUOUS
0
LAYER
5
206
100
AcDbSymbolTableRecord
100
AcDbLayerTableRecord
2
MEC_217
70
0
62
7
6
CONTINUOUS
0
LAYER
5
207
100
AcDbSymbolTableRecord
100
AcDbLayerTableRecord
2
NOTE
70
0
62
7
6
CONTINUOUS
0
LAYER
5
208
100
AcDbSymbolTableRecord
100
AcDbLayerTableRecord
2
PIANI
70
0
62
7
6
CONTINUOUS
0
LAYER
5
209
100
AcDbSymbolTableRecord
100
AcDbLayerTableRecord
2
PIANI_DI_RIFERIMENTO
70
0
62
7
6
CONTINUOUS
0
LAYER
5
20A
100
AcDbSymbolTableRecord
100
AcDbLayerTableRecord
2
PIANI_ORIGINE
70
0
62
7
6
CONTINUOUS
0
LAYER
5
20B
100
AcDbSymbolTableRecord
100
AcDbLayerTableRecord
2
PIANI_RIFERIMENTO
70
0
62
7
6
CONTINUOUS
0
LAYER
5
20C
100
AcDbSymbolTableRecord
100
AcDbLayerTableRecord
2
PUNTI
70
0
62
7
6
CONTINUOUS
0
LAYER
5
20D
100
AcDbSymbolTableRecord
100
AcDbLayerTableRecord
2
RACCORDO
70
0
62
7
6
CONTINUOUS
0
LAYER
5
20E
100
AcDbSymbolTableRecord
100
AcDbLayerTableRecord
2
SKEL
70
0
62
7
6
CONTINUOUS
0
LAYER
5
20F
100
AcDbSymbolTableRecord
100
AcDbLayerTableRecord
2
SMUSSO
70
0
62
7
6
CONTINUOUS
0
LAYER
5
210
100
AcDbSymbolTableRecord
100
AcDbLayerTableRecord
2
SUPERFICI
70
0
62
7
6
CONTINUOUS
0
LAYER
5
211
100
AcDbSymbolTableRecord
100
AcDbLayerTableRecord
2
TRASH
70
0
62
7
6
CONTINUOUS
0
LAYER
5
212
100
AcDbSymbolTableRecord
100
AcDbLayerTableRecord
2
XSEC_DATUMS
70
0
62
7
6
CONTINUOUS
0
ENDTAB
0
TABLE
2
STYLE
5
3
100
AcDbSymbolTable
70
1
0
STYLE
5
11
100
AcDbSymbolTableRecord
100
AcDbTextStyleTableRecord
2
STANDARD
70
0
40
0.0
41
0.8000000000
50
0.0
71
0
42
0.2
3
txt
4

0
ENDTAB
0
TABLE
2
VIEW
5
6
100
AcDbSymbolTable
70
0
0
ENDTAB
0
TABLE
2
UCS
5
7
100
AcDbSymbolTable
70
0
0
ENDTAB
0
TABLE
2
APPID
5
9
100
AcDbSymbolTable
70
1
0
APPID
5
213
100
AcDbSymbolTableRecord
100
AcDbRegAppTableRecord
2
ACAD
70
0
0
ENDTAB
0
TABLE
2
DIMSTYLE
5
A
100
AcDbSymbolTable
70
1
0
DIMSTYLE
105
214
100
AcDbSymbolTableRecord
100
AcDbDimStyleTableRecord
2
STANDARD
70
0
3

4

5

6

7

40
1.0
41
3.0000000000
42
0.0625
43
0.38
44
0.18
45
0.0
46
0.0
47
0.0100000000
48
0.0100000000
140
3.0000000000
141
0.09
142
0.0
143
25.4
144
1.0000000000
145
0.0
146
1.0000000000
147
0.09
71
1
72
0
73
0
74
0
75
0
76
0
77
1
78
8
170
0
171
2
172
0
173
0
174
0
175
0
176
0
177
0
178
0
270
2
271
2
272
2
273
2
274
2
340
11
275
0
280
0
281
0
282
0
283
1
284
8
285
0
286
0
287
3
288
0
0
ENDTAB
0
TABLE
2
BLOCK_RECORD
5
1
100
AcDbSymbolTable
70
0
0
BLOCK_RECORD
5
1B
100
AcDbSymbolTableRecord
100
AcDbBlockTableRecord
2
*MODEL_SPACE
0
BLOCK_RECORD
5
1C
100
AcDbSymbolTableRecord
100
AcDbBlockTableRecord
2
*PAPER_SPACE
0
ENDTAB
0
ENDSEC
0
SECTION
2
BLOCKS
0
BLOCK
5
1E
100
AcDbEntity
8
0
100
AcDbBlockBegin
2
*MODEL_SPACE
70
0
10
0.0
20
0.0
30
0.0
3
*MODEL_SPACE
1

0
ENDBLK
5
1F
100
AcDbEntity
8
0
100
AcDbBlockEnd
0
BLOCK
5
20
100
AcDbEntity
8
0
100
AcDbBlockBegin
2
*PAPER_SPACE
70
0
10
0.0
20
0.0
30
0.0
3
*PAPER_SPACE
1

0
ENDBLK
5
21
100
AcDbEntity
8
0
100
AcDbBlockEnd
0
ENDSEC
0
SECTION
2
ENTITIES
0
LINE
5
215
100
AcDbEntity
8
0
100
AcDbLine
62
7
6
CONTINUOUS
10
11.7785597977
20
-24.0948200857
11
9.3785513361
21
-24.0948200857
0
LINE
5
216
100
AcDbEntity
8
0
100
AcDbLine
62
7
6
CONTINUOUS
10
-5.6214402023
20
-24.0948200857
11
-8.0214486639
21
-24.0948200857
0
LINE
5
217
100
AcDbEntity
8
0
100
AcDbLine
62
7
6
CONTINUOUS
10
-8.0170768299
20
-24.0904482517
11
-5.6258120363
21
-24.0904482517
0
LINE
5
218
100
AcDbEntity
8
0
100
AcDbLine
62
7
6
CONTINUOUS
10
9.3829231701
20
-24.0904482517
11
11.7741879637
21
-24.0904482517
0
LINE
5
219
100
AcDbEntity
8
0
100
AcDbLine
62
9
6
CONTINUOUS
10
-5.3758162671
20
-23.8404524824
11
-8.2670725991
21
-23.8404524824
0
LINE
5
21A
100
AcDbEntity
8
0
100
AcDbLine
62
9
6
CONTINUOUS
10
9.1329274009
20
-23.8404524824
11
12.0241837329
21
-23.8404524824
0
LINE
5
21B
100
AcDbEntity
8
0
100
AcDbLine
62
7
6
CONTINUOUS
10
-2.5714444331
20
-23.5948200857
11
0.6785555669
21
-23.5948200857
0
LINE
5
21C
100
AcDbEntity
8
0
100
AcDbLine
62
7
6
CONTINUOUS
10
3.0785555669
20
-23.5948200857
11
6.3285555669
21
-23.5948200857
0
LINE
5
21D
100
AcDbEntity
8
0
100
AcDbLine
62
7
6
CONTINUOUS
10
-1.6214444331
20
-23.5890022558
11
0.6785555669
21
-23.5890022558
0
LINE
5
21E
100
AcDbEntity
8
0
100
AcDbLine
62
7
6
CONTINUOUS
10
3.0785555669
20
-23.5890022558
11
5.3785555669
21
-23.5890022558
0
LINE
5
21F
100
AcDbEntity
8
0
100
AcDbLine
62
7
6
CONTINUOUS
10
-2.5277937862
20
-23.5511694388
11
-1.6214444331
21
-23.5511694388
0
LINE
5
220
100
AcDbEntity
8
0
100
AcDbLine
62
7
6
CONTINUOUS
10
5.3785555669
20
-23.5511694388
11
6.2849049201
21
-23.5511694388
0
LINE
5
221
100
AcDbEntity
8
0
100
AcDbLine
62
9
6
CONTINUOUS
10
-5.3758162671
20
-23.4391576530
11
-8.2670725991
21
-23.4391576530
0
LINE
5
222
100
AcDbEntity
8
0
100
AcDbLine
62
9
6
CONTINUOUS
10
9.1329274009
20
-23.4391576530
11
12.0241837329
21
-23.4391576530
0
LINE
5
223
100
AcDbEntity
8
0
100
AcDbLine
62
9
6
CONTINUOUS
10
-5.6214402023
20
24.9051799143
11
-5.6258120363
21
24.9008080803
0
LINE
5
224
100
AcDbEntity
8
0
100
AcDbLine
62
9
6
CONTINUOUS
10
-5.3714444331
20
24.6551841451
11
-5.3758162671
21
24.6508123111
0
LINE
5
225
100
AcDbEntity
8
0
100
AcDbLine
62
9
6
CONTINUOUS
10
11.7741879637
20
-23.2226513020
11
9.3829231701
21
-23.2226513020
0
LINE
5
226
100
AcDbEntity
8
0
100
AcDbLine
62
9
6
CONTINUOUS
10
-5.6258120363
20
-23.2226513020
11
-8.0170768299
21
-23.2226513020
0
LINE
5
227
100
AcDbEntity
8
0
100
AcDbLine
62
7
6
CONTINUOUS
10
11.7792785648
20
-22.7174698165
11
9.3778325690
21
-22.7174698165
0
LINE
5
228
100
AcDbEntity
8
0
100
AcDbLine
62
7
6
CONTINUOUS
10
-8.0221674310
20
-22.7174698165
11
-5.6207214352
21
-22.7174698165
0
LINE
5
229
100
AcDbEntity
8
0
100
AcDbLine
62
7
6
CONTINUOUS
10
-8.7709522796
20
-21.9948200857
11
-2.5714444331
21
-21.9948200857
0
LINE
5
22A
100
AcDbEntity
8
0
100
AcDbLine
62
7
6
CONTINUOUS
10
6.3285555669
20
-21.9948200857
11
12.5280634134
21
-21.9948200857
0
LINE
5
22B
100
AcDbEntity
8
0
100
AcDbLine
62
7
6
CONTINUOUS
10
0.8785555669
20
-21.9895840501
11
2.8785555669
21
-21.9895840501
0
LINE
5
22C
100
AcDbEntity
8
0
100
AcDbLine
62
7
6
CONTINUOUS
10
-8.7631602548
20
-21.9890022558
11
-5.3772622629
21
-21.9890022558
0
LINE
5
22D
100
AcDbEntity
8
0
100
AcDbLine
62
7
6
CONTINUOUS
10
-1.6214444331
20
-21.9890022558
11
-1.1214444331
21
-21.9890022558
0
LINE
5
22E
100
AcDbEntity
8
0
100
AcDbLine
62
7
6
CONTINUOUS
10
4.8785555669
20
-21.9890022558
11
5.3785555669
21
-21.9890022558
0
LINE
5
22F
100
AcDbEntity
8
0
100
AcDbLine
62
7
6
CONTINUOUS
10
9.1343733967
20
-21.9890022558
11
12.5202713886
21
-21.9890022558
0
LINE
5
230
100
AcDbEntity
8
0
100
AcDbLine
62
9
6
CONTINUOUS
10
-5.4354744076
20
-21.9307901112
11
-1.1214444331
21
-21.9307901112
0
LINE
5
231
100
AcDbEntity
8
0
100
AcDbLine
62
9
6
CONTINUOUS
10
4.8785555669
20
-21.9307901112
11
9.1925855414
21
-21.9307901112
0
LINE
5
232
100
AcDbEntity
8
0
100
AcDbLine
62
7
6
CONTINUOUS
10
-1.1214444331
20
-21.2948200857
11
4.8785555669
21
-21.2948200857
0
LINE
5
233
100
AcDbEntity
8
0
100
AcDbLine
62
9
6
CONTINUOUS
10
-5.6880900873
20
-20.9308070343
11
-1.1214444331
21
-20.9308070343
0
LINE
5
234
100
AcDbEntity
8
0
100
AcDbLine
62
9
6
CONTINUOUS
10
4.8785555669
20
-20.9308070343
11
9.4452012212
21
-20.9308070343
0
LINE
5
235
100
AcDbEntity
8
0
100
AcDbLine
62
7
6
CONTINUOUS
10
13.0451378786
20
-20.6174698165
11
13.0202650425
21
-20.6174698165
0
LINE
5
236
100
AcDbEntity
8
0
100
AcDbLine
62
7
6
CONTINUOUS
10
-9.2880267448
20
-20.6174698165
11
-9.2631539087
21
-20.6174698165
0
LINE
5
237
100
AcDbEntity
8
0
100
AcDbLine
62
7
6
CONTINUOUS
10
-5.3254488874
20
-20.4948200857
11
-7.0713380955
21
-20.4948200857
0
LINE
5
238
100
AcDbEntity
8
0
100
AcDbLine
62
7
6
CONTINUOUS
10
9.0825600212
20
-20.4948200857
11
10.8284492293
21
-20.4948200857
0
LINE
5
239
100
AcDbEntity
8
0
100
AcDbLine
62
7
6
CONTINUOUS
10
-1.1214444331
20
-20.3948200857
11
4.8785555669
21
-20.3948200857
0
LINE
5
23A
100
AcDbEntity
8
0
100
AcDbLine
62
9
6
CONTINUOUS
10
10.7173469988
20
-20.1612423418
11
9.2341024515
21
-20.1612423418
0
LINE
5
23B
100
AcDbEntity
8
0
100
AcDbLine
62
9
6
CONTINUOUS
10
-5.4769913177
20
-20.1612423418
11
-6.9602358649
21
-20.1612423418
0
LINE
5
23C
100
AcDbEntity
8
0
100
AcDbLine
62
9
6
CONTINUOUS
10
8.4745511126
20
-19.8890778735
11
-4.7174399788
21
-19.8890778735
0
LINE
5
23D
100
AcDbEntity
8
0
100
AcDbLine
62
9
6
CONTINUOUS
10
-5.6214402023
20
-24.0948200857
11
-5.6258120363
21
-24.0904482517
0
LINE
5
23E
100
AcDbEntity
8
0
100
AcDbLine
62
9
6
CONTINUOUS
10
-5.3714444331
20
-23.8448243164
11
-5.3758162671
21
-23.8404524824
0
LINE
5
23F
100
AcDbEntity
8
0
100
AcDbLine
62
7
6
CONTINUOUS
10
-7.7714444331
20
20.6042195645
11
-7.0713380955
21
21.3051799143
0
LINE
5
240
100
AcDbEntity
8
0
100
AcDbLine
62
7
6
CONTINUOUS
10
-7.7260612643
20
20.4679593384
11
-7.0259549267
21
21.1689196882
0
LINE
5
241
100
AcDbEntity
8
0
100
AcDbLine
62
7
6
CONTINUOUS
10
-6.3714444331
20
21.8051799143
11
-5.3772622629
21
22.7993620845
0
LINE
5
242
100
AcDbEntity
8
0
100
AcDbLine
62
7
6
CONTINUOUS
10
8.4728209701
20
-19.6890854889
11
-4.7157098363
21
-19.6890854889
0
LINE
5
243
100
AcDbEntity
8
0
100
AcDbLine
62
9
6
CONTINUOUS
10
-4.5655160934
20
-19.5388917460
11
8.3226272272
21
-19.5388917460
0
LINE
5
244
100
AcDbEntity
8
0
100
AcDbLine
62
9
6
CONTINUOUS
10
9.0825600212
20
-19.4626400119
11
8.4745511126
21
-19.4626400119
0
LINE
5
245
100
AcDbEntity
8
0
100
AcDbLine
62
9
6
CONTINUOUS
10
-4.7174399788
20
-19.4626400119
11
-5.3254488874
21
-19.4626400119
0
LINE
5
246
100
AcDbEntity
8
0
100
AcDbLine
62
9
6
CONTINUOUS
10
11.4027106970
20
-19.3843673239
11
9.2414732098
21
-19.3843673239
0
LINE
5
247
100
AcDbEntity
8
0
100
AcDbLine
62
9
6
CONTINUOUS
10
-5.4843620760
20
-19.3843673239
11
-7.6455995632
21
-19.3843673239
0
LINE
5
248
100
AcDbEntity
8
0
100
AcDbLine
62
9
6
CONTINUOUS
10
9.0840023138
20
-19.2656784613
11
8.4731088200
21
-19.2656784613
0
LINE
5
249
100
AcDbEntity
8
0
100
AcDbLine
62
9
6
CONTINUOUS
10
-4.7159976862
20
-19.2656784613
11
-5.3268911800
21
-19.2656784613
0
LINE
5
24A
100
AcDbEntity
8
0
100
AcDbLine
62
9
6
CONTINUOUS
10
-4.5577953892
20
-18.7544185504
11
8.3149065231
21
-18.7544185504
0
LINE
5
24B
100
AcDbEntity
8
0
100
AcDbLine
62
7
6
CONTINUOUS
10
-5.3772622629
20
-21.9890022558
11
-6.3714444331
21
-20.9948200857
0
LINE
5
24C
100
AcDbEntity
8
0
100
AcDbLine
62
7
6
CONTINUOUS
10
-7.7714444331
20
-19.7938597359
11
-7.0713380955
21
-20.4948200857
0
LINE
5
24D
100
AcDbEntity
8
0
100
AcDbLine
62
7
6
CONTINUOUS
10
-6.4447526870
20
16.8181761891
11
-6.2440996281
21
17.0600570636
0
LINE
5
24E
100
AcDbEntity
8
0
100
AcDbLine
62
7
6
CONTINUOUS
10
-5.4878099829
20
-16.0143026721
11
-4.5550788833
21
-16.0143026721
0
LINE
5
24F
100
AcDbEntity
8
0
100
AcDbLine
62
7
6
CONTINUOUS
10
8.3121900171
20
-16.0143026721
11
9.2449211167
21
-16.0143026721
0
LINE
5
250
100
AcDbEntity
8
0
100
AcDbLine
62
7
6
CONTINUOUS
10
-9.2880267448
20
-20.6174698165
11
-9.2714444331
21
-21.1659525722
0
LINE
5
251
100
AcDbEntity
8
0
100
AcDbLine
62
7
6
CONTINUOUS
10
-9.2880267448
20
21.4278296452
11
-9.2714444331
21
21.9763124009
0
LINE
5
252
100
AcDbEntity
8
0
100
AcDbLine
62
7
6
CONTINUOUS
10
-5.4652587175
20
19.6206500116
11
-5.4483454416
21
19.6883288882
0
LINE
5
253
100
AcDbEntity
8
0
100
AcDbLine
62
7
6
CONTINUOUS
10
6.2849049201
20
24.3615292675
11
6.3285555669
21
24.4051799143
0
LINE
5
254
100
AcDbEntity
8
0
100
AcDbLine
62
7
6
CONTINUOUS
10
6.3285555669
20
22.8051799143
11
6.2846333199
21
22.7612576673
0
LINE
5
255
100
AcDbEntity
8
0
100
AcDbLine
62
7
6
CONTINUOUS
10
11.3906605540
20
-12.1080877278
11
-7.6335494201
21
-12.1080877278
0
LINE
5
256
100
AcDbEntity
8
0
100
AcDbLine
62
7
6
CONTINUOUS
10
6.3285555669
20
-23.5948200857
11
6.2849049201
21
-23.5511694388
0
LINE
5
257
100
AcDbEntity
8
0
100
AcDbLine
62
7
6
CONTINUOUS
10
6.3285555669
20
-21.9948200857
11
6.2846333199
21
-21.9508978386
0
LINE
5
258
100
AcDbEntity
8
0
100
AcDbLine
62
7
6
CONTINUOUS
10
-9.2718807765
20
22.0051799143
11
-9.2714444331
21
21.9763124009
0
LINE
5
259
100
AcDbEntity
8
0
100
AcDbLine
62
9
6
CONTINUOUS
10
-8.2670725991
20
-23.4391576530
11
-8.2714444331
21
-23.0053052339
0
LINE
5
25A
100
AcDbEntity
8
0
100
AcDbLine
62
9
6
CONTINUOUS
10
-8.0170768299
20
-23.2226513020
11
-8.0221674310
21
-22.7174698165
0
LINE
5
25B
100
AcDbEntity
8
0
100
AcDbLine
62
7
6
CONTINUOUS
10
-7.6754512979
20
19.1818892698
11
-7.6709037606
21
17.0600570636
0
LINE
5
25C
100
AcDbEntity
8
0
100
AcDbLine
62
7
6
CONTINUOUS
10
-9.2880267448
20
21.4278296452
11
-9.2880267448
21
-20.6174698165
0
LINE
5
25D
100
AcDbEntity
8
0
100
AcDbLine
62
7
6
CONTINUOUS
10
-9.2718807765
20
22.3051968374
11
-9.2718807765
21
22.0051799143
0
LINE
5
25E
100
AcDbEntity
8
0
100
AcDbLine
62
7
6
CONTINUOUS
10
-9.2718807765
20
-21.4948370087
11
-9.2718807765
21
-21.1948200857
0
LINE
5
25F
100
AcDbEntity
8
0
100
AcDbLine
62
7
6
CONTINUOUS
10
-9.2631539087
20
22.2993790076
11
-9.2631539087
21
21.4278296452
0
LINE
5
260
100
AcDbEntity
8
0
100
AcDbLine
62
7
6
CONTINUOUS
10
-9.2631539087
20
-20.6174698165
11
-9.2631539087
21
-21.4890191789
0
LINE
5
261
100
AcDbEntity
8
0
100
AcDbLine
62
7
6
CONTINUOUS
10
-8.2714444331
20
-22.1950335760
11
-8.2714444331
21
-23.8448243164
0
LINE
5
262
100
AcDbEntity
8
0
100
AcDbLine
62
7
6
CONTINUOUS
10
-8.2714444331
20
23.0053934047
11
-8.2714444331
21
24.6551841451
0
LINE
5
263
100
AcDbEntity
8
0
100
AcDbLine
62
7
6
CONTINUOUS
10
-8.2670725991
20
24.6508123111
11
-8.2670725991
21
24.2495174816
0
LINE
5
264
100
AcDbEntity
8
0
100
AcDbLine
62
7
6
CONTINUOUS
10
-8.2670725991
20
-23.4391576530
11
-8.2670725991
21
-23.8404524824
0
LINE
5
265
100
AcDbEntity
8
0
100
AcDbLine
62
9
6
CONTINUOUS
10
-8.0170768299
20
-23.2226513020
11
-8.0170768299
21
-24.0904482517
0
LINE
5
266
100
AcDbEntity
8
0
100
AcDbLine
62
9
6
CONTINUOUS
10
-8.0170768299
20
24.0330111307
11
-8.0170768299
21
24.9008080803
0
LINE
5
267
100
AcDbEntity
8
0
100
AcDbLine
62
7
6
CONTINUOUS
10
-7.7714444331
20
20.6042195645
11
-7.7714444331
21
-19.7938597359
0
LINE
5
268
100
AcDbEntity
8
0
100
AcDbLine
62
7
6
CONTINUOUS
10
-7.7260612643
20
20.4679593384
11
-7.7260612643
21
20.1880243017
0
LINE
5
269
100
AcDbEntity
8
0
100
AcDbLine
62
7
6
CONTINUOUS
10
-7.6335494201
20
-12.1080877278
11
-7.6335494201
21
16.6051799143
0
LINE
5
26A
100
AcDbEntity
8
0
100
AcDbLine
62
7
6
CONTINUOUS
10
-7.6214444331
20
16.4052377995
11
-7.6214444331
21
16.6051799143
0
LINE
5
26B
100
AcDbEntity
8
0
100
AcDbLine
62
7
6
CONTINUOUS
10
-7.5714444331
20
16.2185115539
11
-7.5714444331
21
16.8181761891
0
LINE
5
26C
100
AcDbEntity
8
0
100
AcDbLine
62
7
6
CONTINUOUS
10
-6.6214444331
20
12.9184475565
11
-6.6214444331
21
15.9051799143
0
LINE
5
26D
100
AcDbEntity
8
0
100
AcDbLine
62
7
6
CONTINUOUS
10
-7.6214444331
20
16.6051799143
11
-7.6193457023
21
16.8181761891
0
LINE
5
26E
100
AcDbEntity
8
0
100
AcDbLine
62
9
6
CONTINUOUS
10
-8.2714444331
20
23.8156650626
11
-8.2670725991
21
24.2495174816
0
LINE
5
26F
100
AcDbEntity
8
0
100
AcDbLine
62
9
6
CONTINUOUS
10
-8.0221674310
20
23.5278296452
11
-8.0170768299
21
24.0330111307
0
LINE
5
270
100
AcDbEntity
8
0
100
AcDbLine
62
7
6
CONTINUOUS
10
-9.2714444331
20
-21.1659525722
11
-9.2718807765
21
-21.1948200857
0
LINE
5
271
100
AcDbEntity
8
0
100
AcDbLine
62
7
6
CONTINUOUS
10
-6.4641822208
20
15.9207477084
11
-6.4447526870
21
16.8181761891
0
LINE
5
272
100
AcDbEntity
8
0
100
AcDbLine
62
7
6
CONTINUOUS
10
-6.2674114383
20
15.9833105709
11
-6.2440996281
21
17.0600570636
0
LINE
5
273
100
AcDbEntity
8
0
100
AcDbLine
62
7
6
CONTINUOUS
10
-5.4441342893
20
21.1689196882
11
-5.4214444331
21
21.3051799143
0
LINE
5
274
100
AcDbEntity
8
0
100
AcDbLine
62
9
6
CONTINUOUS
10
11.7785597977
20
24.9051799143
11
11.7741879637
21
24.9008080803
0
LINE
5
275
100
AcDbEntity
8
0
100
AcDbLine
62
9
6
CONTINUOUS
10
12.0285555669
20
24.6551841451
11
12.0241837329
21
24.6508123111
0
LINE
5
276
100
AcDbEntity
8
0
100
AcDbLine
62
7
6
CONTINUOUS
10
8.4728209701
20
20.4994453175
11
8.3558657107
21
20.3824900581
0
LINE
5
277
100
AcDbEntity
8
0
100
AcDbLine
62
9
6
CONTINUOUS
10
11.7785597977
20
-24.0948200857
11
11.7741879637
21
-24.0904482517
0
LINE
5
278
100
AcDbEntity
8
0
100
AcDbLine
62
9
6
CONTINUOUS
10
12.0285555669
20
-23.8448243164
11
12.0241837329
21
-23.8404524824
0
LINE
5
279
100
AcDbEntity
8
0
100
AcDbLine
62
7
6
CONTINUOUS
10
8.4728209701
20
-19.6890854889
11
8.3226272272
21
-19.5388917460
0
LINE
5
27A
100
AcDbEntity
8
0
100
AcDbLine
62
7
6
CONTINUOUS
10
-5.4214444331
20
-20.4948200857
11
-5.4769913177
21
-20.1612423418
0
LINE
5
27B
100
AcDbEntity
8
0
100
AcDbLine
62
7
6
CONTINUOUS
10
-7.6335494201
20
16.6051799143
11
-7.6709037606
21
17.0600570636
0
LINE
5
27C
100
AcDbEntity
8
0
100
AcDbLine
62
7
6
CONTINUOUS
10
-5.4878099829
20
-16.0143026721
11
-5.3268911800
21
-19.2656784613
0
LINE
5
27D
100
AcDbEntity
8
0
100
AcDbLine
62
7
6
CONTINUOUS
10
-4.7159976862
20
20.0760382900
11
-4.5712763737
21
17.1519339395
0
LINE
5
27E
100
AcDbEntity
8
0
100
AcDbLine
62
9
6
CONTINUOUS
10
-5.6258120363
20
24.0330111307
11
-5.6207214352
21
23.5278296452
0
LINE
5
27F
100
AcDbEntity
8
0
100
AcDbLine
62
9
6
CONTINUOUS
10
-5.3758162671
20
24.2495174816
11
-5.3714444331
21
23.8156650626
0
LINE
5
280
100
AcDbEntity
8
0
100
AcDbLine
62
7
6
CONTINUOUS
10
-4.5734515208
20
19.1818892698
11
-4.5712763737
21
17.1519339395
0
LINE
5
281
100
AcDbEntity
8
0
100
AcDbLine
62
7
6
CONTINUOUS
10
-6.3714444331
20
-20.9948200857
11
-6.3714444331
21
-20.4948200857
0
LINE
5
282
100
AcDbEntity
8
0
100
AcDbLine
62
7
6
CONTINUOUS
10
-6.3714444331
20
21.3051799143
11
-6.3714444331
21
21.8051799143
0
LINE
5
283
100
AcDbEntity
8
0
100
AcDbLine
62
9
6
CONTINUOUS
10
-6.1880139349
20
21.9886104125
11
-6.1880139349
21
21.3051799143
0
LINE
5
284
100
AcDbEntity
8
0
100
AcDbLine
62
9
6
CONTINUOUS
10
-6.1880139349
20
-20.4948200857
11
-6.1880139349
21
-21.1782505838
0
LINE
5
285
100
AcDbEntity
8
0
100
AcDbLine
62
9
6
CONTINUOUS
10
-5.6880900873
20
21.7411668630
11
-5.6880900873
21
21.3051799143
0
LINE
5
286
100
AcDbEntity
8
0
100
AcDbLine
62
9
6
CONTINUOUS
10
-5.6880900873
20
-20.4948200857
11
-5.6880900873
21
-20.9308070343
0
LINE
5
287
100
AcDbEntity
8
0
100
AcDbLine
62
9
6
CONTINUOUS
10
-5.6258120363
20
-23.2226513020
11
-5.6258120363
21
-24.0904482517
0
LINE
5
288
100
AcDbEntity
8
0
100
AcDbLine
62
9
6
CONTINUOUS
10
-5.6258120363
20
24.0330111307
11
-5.6258120363
21
24.9008080803
0
LINE
5
289
100
AcDbEntity
8
0
100
AcDbLine
62
7
6
CONTINUOUS
10
-5.4441342893
20
20.1880243017
11
-5.4441342893
21
21.1689196882
0
LINE
5
28A
100
AcDbEntity
8
0
100
AcDbLine
62
7
6
CONTINUOUS
10
-5.3758162671
20
-23.8404524824
11
-5.3758162671
21
-23.4391576530
0
LINE
5
28B
100
AcDbEntity
8
0
100
AcDbLine
62
7
6
CONTINUOUS
10
-5.3758162671
20
24.2495174816
11
-5.3758162671
21
24.6508123111
0
LINE
5
28C
100
AcDbEntity
8
0
100
AcDbLine
62
7
6
CONTINUOUS
10
-5.3714444331
20
-22.1950335760
11
-5.3714444331
21
-23.8448243164
0
LINE
5
28D
100
AcDbEntity
8
0
100
AcDbLine
62
7
6
CONTINUOUS
10
-5.3714444331
20
23.0053934047
11
-5.3714444331
21
24.6551841451
0
LINE
5
28E
100
AcDbEntity
8
0
100
AcDbLine
62
7
6
CONTINUOUS
10
-5.3254488874
20
-20.4948200857
11
-5.3254488874
21
-19.4626400119
0
LINE
5
28F
100
AcDbEntity
8
0
100
AcDbLine
62
7
6
CONTINUOUS
10
-5.3254488874
20
20.2729998406
11
-5.3254488874
21
21.3051799143
0
LINE
5
290
100
AcDbEntity
8
0
100
AcDbLine
62
7
6
CONTINUOUS
10
-4.7174399788
20
-19.8890778735
11
-4.7174399788
21
-19.4626400119
0
LINE
5
291
100
AcDbEntity
8
0
100
AcDbLine
62
7
6
CONTINUOUS
10
-4.7174399788
20
20.2729998406
11
-4.7174399788
21
20.6994377022
0
LINE
5
292
100
AcDbEntity
8
0
100
AcDbLine
62
7
6
CONTINUOUS
10
-4.5987545768
20
20.3824900581
11
-4.5987545768
21
20.1880243017
0
LINE
5
293
100
AcDbEntity
8
0
100
AcDbLine
62
7
6
CONTINUOUS
10
-4.3714444331
20
4.0136190968
11
-4.3714444331
21
-3.2032592681
0
LINE
5
294
100
AcDbEntity
8
0
100
AcDbLine
62
7
6
CONTINUOUS
10
-3.7441360175
20
-3.8433160200
11
-3.7441360175
21
-3.5654359507
0
LINE
5
295
100
AcDbEntity
8
0
100
AcDbLine
62
7
6
CONTINUOUS
10
-3.7441360175
20
4.3757957794
11
-3.7441360175
21
4.6536758487
0
LINE
5
296
100
AcDbEntity
8
0
100
AcDbLine
62
7
6
CONTINUOUS
10
-3.7214444331
20
-3.9114033900
11
-3.7214444331
21
-3.5785369431
0
LINE
5
297
100
AcDbEntity
8
0
100
AcDbLine
62
7
6
CONTINUOUS
10
-3.7214444331
20
4.3888967718
11
-3.7214444331
21
4.7217632187
0
LINE
5
298
100
AcDbEntity
8
0
100
AcDbLine
62
7
6
CONTINUOUS
10
-5.4694373453
20
19.1818892698
11
-5.4716124925
21
17.1519339395
0
LINE
5
299
100
AcDbEntity
8
0
100
AcDbLine
62
9
6
CONTINUOUS
10
-5.6207214352
20
-22.7174698165
11
-5.6258120363
21
-23.2226513020
0
LINE
5
29A
100
AcDbEntity
8
0
100
AcDbLine
62
9
6
CONTINUOUS
10
-5.3714444331
20
-23.0053052339
11
-5.3758162671
21
-23.4391576530
0
LINE
5
29B
100
AcDbEntity
8
0
100
AcDbLine
62
7
6
CONTINUOUS
10
-5.3268911800
20
20.0760382900
11
-5.4716124925
21
17.1519339395
0
LINE
5
29C
100
AcDbEntity
8
0
100
AcDbLine
62
7
6
CONTINUOUS
10
-4.5550788833
20
-16.0143026721
11
-4.7159976862
21
-19.2656784613
0
LINE
5
29D
100
AcDbEntity
8
0
100
AcDbLine
62
7
6
CONTINUOUS
10
5.5552473130
20
16.8181761891
11
5.7559003719
21
17.0600570636
0
LINE
5
29E
100
AcDbEntity
8
0
100
AcDbLine
62
7
6
CONTINUOUS
10
1.8785555669
20
7.6220582792
11
-4.3714444331
21
4.0136190968
0
LINE
5
29F
100
AcDbEntity
8
0
100
AcDbLine
62
7
6
CONTINUOUS
10
-4.3714444331
20
-3.2032592681
11
1.8785555669
21
-6.8116984505
0
LINE
5
2A0
100
AcDbEntity
8
0
100
AcDbLine
62
7
6
CONTINUOUS
10
-1.9754774279
20
15.9833105709
11
-1.9987892381
21
17.0600570636
0
LINE
5
2A1
100
AcDbEntity
8
0
100
AcDbLine
62
7
6
CONTINUOUS
10
-1.7787066454
20
15.9207477084
11
-1.7981361792
21
16.8181761891
0
LINE
5
2A2
100
AcDbEntity
8
0
100
AcDbLine
62
7
6
CONTINUOUS
10
-1.5721282015
20
15.4051799143
11
-1.5828706451
21
15.9013613951
0
LINE
5
2A3
100
AcDbEntity
8
0
100
AcDbLine
62
7
6
CONTINUOUS
10
-2.5714444331
20
24.4051799143
11
-2.5714444331
21
23.7731248615
0
LINE
5
2A4
100
AcDbEntity
8
0
100
AcDbLine
62
7
6
CONTINUOUS
10
-2.5714444331
20
23.3372349672
11
-2.5714444331
21
22.8051799143
0
LINE
5
2A5
100
AcDbEntity
8
0
100
AcDbLine
62
7
6
CONTINUOUS
10
-2.5714444331
20
-21.9948200857
11
-2.5714444331
21
-22.5268751385
0
LINE
5
2A6
100
AcDbEntity
8
0
100
AcDbLine
62
7
6
CONTINUOUS
10
-2.5714444331
20
-22.9627650328
11
-2.5714444331
21
-23.5948200857
0
LINE
5
2A7
100
AcDbEntity
8
0
100
AcDbLine
62
7
6
CONTINUOUS
10
-2.5275221860
20
-23.5487123587
11
-2.5275221860
21
-21.9508978386
0
LINE
5
2A8
100
AcDbEntity
8
0
100
AcDbLine
62
7
6
CONTINUOUS
10
-2.5275221860
20
22.7612576673
11
-2.5275221860
21
24.3590721874
0
LINE
5
2A9
100
AcDbEntity
8
0
100
AcDbLine
62
7
6
CONTINUOUS
10
-1.6214444331
20
-21.9509131726
11
-1.6214444331
21
-23.5501322985
0
LINE
5
2AA
100
AcDbEntity
8
0
100
AcDbLine
62
7
6
CONTINUOUS
10
-1.6214444331
20
-23.5511694388
11
-1.6214444331
21
-23.5890022558
0
LINE
5
2AB
100
AcDbEntity
8
0
100
AcDbLine
62
7
6
CONTINUOUS
10
-1.6214444331
20
22.7612730012
11
-1.6214444331
21
24.3604921272
0
LINE
5
2AC
100
AcDbEntity
8
0
100
AcDbLine
62
7
6
CONTINUOUS
10
-1.6214444331
20
24.3615292675
11
-1.6214444331
21
24.3993620845
0
LINE
5
2AD
100
AcDbEntity
8
0
100
AcDbLine
62
7
6
CONTINUOUS
10
-1.5332809427
20
15.1051799143
11
-1.5332809427
21
15.2330519464
0
LINE
5
2AE
100
AcDbEntity
8
0
100
AcDbLine
62
7
6
CONTINUOUS
10
-1.5214444331
20
14.5311830961
11
-1.5214444331
21
15.9207477084
0
LINE
5
2AF
100
AcDbEntity
8
0
100
AcDbLine
62
7
6
CONTINUOUS
10
-1.1214444331
20
-20.3948200857
11
-1.1214444331
21
-21.9890022558
0
LINE
5
2B0
100
AcDbEntity
8
0
100
AcDbLine
62
7
6
CONTINUOUS
10
-1.1214444331
20
21.2051799143
11
-1.1214444331
21
22.7993620845
0
LINE
5
2B1
100
AcDbEntity
8
0
100
AcDbLine
62
7
6
CONTINUOUS
10
-7.7714444331
20
-19.7938597359
11
-7.6456859064
21
-19.4162773473
0
LINE
5
2B2
100
AcDbEntity
8
0
100
AcDbLine
62
7
6
CONTINUOUS
10
-7.0713380955
20
-20.4948200857
11
-6.9602358649
21
-20.1612423418
0
LINE
5
2B3
100
AcDbEntity
8
0
100
AcDbLine
62
7
6
CONTINUOUS
10
-7.7260612643
20
20.4679593384
11
-7.7714444331
21
20.6042195645
0
LINE
5
2B4
100
AcDbEntity
8
0
100
AcDbLine
62
7
6
CONTINUOUS
10
-7.0259549267
20
21.1689196882
11
-7.0713380955
21
21.3051799143
0
LINE
5
2B5
100
AcDbEntity
8
0
100
AcDbLine
62
7
6
CONTINUOUS
10
-4.5776301487
20
19.6206500116
11
-4.5945434246
21
19.6883288882
0
LINE
5
2B6
100
AcDbEntity
8
0
100
AcDbLine
62
7
6
CONTINUOUS
10
0.8785555669
20
24.1993586998
11
0.8785555669
21
22.7999438787
0
LINE
5
2B7
100
AcDbEntity
8
0
100
AcDbLine
62
7
6
CONTINUOUS
10
0.8785555669
20
-21.9895840501
11
0.8785555669
21
-23.3889988712
0
LINE
5
2B8
100
AcDbEntity
8
0
100
AcDbLine
62
7
6
CONTINUOUS
10
2.8785555669
20
24.1993586998
11
2.8785555669
21
22.7999438787
0
LINE
5
2B9
100
AcDbEntity
8
0
100
AcDbLine
62
7
6
CONTINUOUS
10
2.8785555669
20
-21.9895840501
11
2.8785555669
21
-23.3889988712
0
LINE
5
2BA
100
AcDbEntity
8
0
100
AcDbLine
62
7
6
CONTINUOUS
10
5.2903920766
20
15.2330519464
11
5.3292393353
21
15.4051799143
0
LINE
5
2BB
100
AcDbEntity
8
0
100
AcDbLine
62
7
6
CONTINUOUS
10
8.3347412825
20
19.6206500116
11
8.3516545584
21
19.6883288882
0
LINE
5
2BC
100
AcDbEntity
8
0
100
AcDbLine
62
7
6
CONTINUOUS
10
10.7830660605
20
21.1689196882
11
10.8284492293
21
21.3051799143
0
LINE
5
2BD
100
AcDbEntity
8
0
100
AcDbLine
62
7
6
CONTINUOUS
10
11.4409203240
20
19.6206500116
11
11.4747494521
21
19.6883288882
0
LINE
5
2BE
100
AcDbEntity
8
0
100
AcDbLine
62
7
6
CONTINUOUS
10
-7.6838091902
20
19.6206500116
11
-7.7176383183
21
19.6883288882
0
LINE
5
2BF
100
AcDbEntity
8
0
100
AcDbLine
62
7
6
CONTINUOUS
10
10.8284492293
20
-20.4948200857
11
10.7173469988
21
-20.1612423418
0
LINE
5
2C0
100
AcDbEntity
8
0
100
AcDbLine
62
7
6
CONTINUOUS
10
-1.5332809427
20
15.2330519464
11
-1.5721282015
21
15.4051799143
0
LINE
5
2C1
100
AcDbEntity
8
0
100
AcDbLine
62
7
6
CONTINUOUS
10
4.8785555669
20
-20.3948200857
11
4.8785555669
21
-21.9890022558
0
LINE
5
2C2
100
AcDbEntity
8
0
100
AcDbLine
62
7
6
CONTINUOUS
10
4.8785555669
20
21.2051799143
11
4.8785555669
21
22.7993620845
0
LINE
5
2C3
100
AcDbEntity
8
0
100
AcDbLine
62
7
6
CONTINUOUS
10
5.2785555669
20
15.9207477084
11
5.2785555669
21
14.5311830961
0
LINE
5
2C4
100
AcDbEntity
8
0
100
AcDbLine
62
7
6
CONTINUOUS
10
5.2903920766
20
15.1051799143
11
5.2903920766
21
15.2330519464
0
LINE
5
2C5
100
AcDbEntity
8
0
100
AcDbLine
62
7
6
CONTINUOUS
10
5.3785555669
20
-21.9509131726
11
5.3785555669
21
-23.5501322985
0
LINE
5
2C6
100
AcDbEntity
8
0
100
AcDbLine
62
7
6
CONTINUOUS
10
5.3785555669
20
-23.5511694388
11
5.3785555669
21
-23.5890022558
0
LINE
5
2C7
100
AcDbEntity
8
0
100
AcDbLine
62
7
6
CONTINUOUS
10
5.3785555669
20
22.7612730012
11
5.3785555669
21
24.3604921272
0
LINE
5
2C8
100
AcDbEntity
8
0
100
AcDbLine
62
7
6
CONTINUOUS
10
5.3785555669
20
24.3615292675
11
5.3785555669
21
24.3993620845
0
LINE
5
2C9
100
AcDbEntity
8
0
100
AcDbLine
62
7
6
CONTINUOUS
10
5.9785555669
20
-1.4495437848
11
5.9785555669
21
2.2599036134
0
LINE
5
2CA
100
AcDbEntity
8
0
100
AcDbLine
62
7
6
CONTINUOUS
10
6.2846333199
20
-23.5487123587
11
6.2846333199
21
-21.9508978386
0
LINE
5
2CB
100
AcDbEntity
8
0
100
AcDbLine
62
7
6
CONTINUOUS
10
6.2846333199
20
22.7612576673
11
6.2846333199
21
24.3590721874
0
LINE
5
2CC
100
AcDbEntity
8
0
100
AcDbLine
62
7
6
CONTINUOUS
10
6.3285555669
20
-23.5948200857
11
6.3285555669
21
-22.9627650328
0
LINE
5
2CD
100
AcDbEntity
8
0
100
AcDbLine
62
7
6
CONTINUOUS
10
6.3285555669
20
-22.5268751385
11
6.3285555669
21
-21.9948200857
0
LINE
5
2CE
100
AcDbEntity
8
0
100
AcDbLine
62
7
6
CONTINUOUS
10
6.3285555669
20
22.8051799143
11
6.3285555669
21
23.3372349672
0
LINE
5
2CF
100
AcDbEntity
8
0
100
AcDbLine
62
7
6
CONTINUOUS
10
6.3285555669
20
23.7731248615
11
6.3285555669
21
24.4051799143
0
LINE
5
2D0
100
AcDbEntity
8
0
100
AcDbLine
62
7
6
CONTINUOUS
10
5.3292393353
20
15.4051799143
11
5.3399817789
21
15.9013613951
0
LINE
5
2D1
100
AcDbEntity
8
0
100
AcDbLine
62
7
6
CONTINUOUS
10
5.5358177792
20
15.9207477084
11
5.5552473130
21
16.8181761891
0
LINE
5
2D2
100
AcDbEntity
8
0
100
AcDbLine
62
7
6
CONTINUOUS
10
5.7325885617
20
15.9833105709
11
5.7559003719
21
17.0600570636
0
LINE
5
2D3
100
AcDbEntity
8
0
100
AcDbLine
62
7
6
CONTINUOUS
10
11.4831723981
20
20.4679593384
11
11.5285555669
21
20.6042195645
0
LINE
5
2D4
100
AcDbEntity
8
0
100
AcDbLine
62
7
6
CONTINUOUS
10
1.8785555669
20
-6.8116984505
11
8.1285555669
21
-3.2032592681
0
LINE
5
2D5
100
AcDbEntity
8
0
100
AcDbLine
62
7
6
CONTINUOUS
10
8.1285555669
20
4.0136190968
11
1.8785555669
21
7.6220582792
0
LINE
5
2D6
100
AcDbEntity
8
0
100
AcDbLine
62
7
6
CONTINUOUS
10
11.5285555669
20
-19.7938597359
11
11.4027970403
21
-19.4162773473
0
LINE
5
2D7
100
AcDbEntity
8
0
100
AcDbLine
62
7
6
CONTINUOUS
10
8.3121900171
20
-16.0143026721
11
8.4731088200
21
-19.2656784613
0
LINE
5
2D8
100
AcDbEntity
8
0
100
AcDbLine
62
7
6
CONTINUOUS
10
9.0840023138
20
20.0760382900
11
9.2287236263
21
17.1519339395
0
LINE
5
2D9
100
AcDbEntity
8
0
100
AcDbLine
62
7
6
CONTINUOUS
10
10.0245225721
20
15.9833105709
11
10.0012107619
21
17.0600570636
0
LINE
5
2DA
100
AcDbEntity
8
0
100
AcDbLine
62
7
6
CONTINUOUS
10
10.2018638208
20
16.8181761891
11
10.2212933546
21
15.9207477084
0
LINE
5
2DB
100
AcDbEntity
8
0
100
AcDbLine
62
9
6
CONTINUOUS
10
9.1329274009
20
-23.4391576530
11
9.1285555669
21
-23.0053052339
0
LINE
5
2DC
100
AcDbEntity
8
0
100
AcDbLine
62
9
6
CONTINUOUS
10
9.3829231701
20
-23.2226513020
11
9.3778325690
21
-22.7174698165
0
LINE
5
2DD
100
AcDbEntity
8
0
100
AcDbLine
62
7
6
CONTINUOUS
10
9.2265484792
20
19.1818892698
11
9.2287236263
21
17.1519339395
0
LINE
5
2DE
100
AcDbEntity
8
0
100
AcDbLine
62
7
6
CONTINUOUS
10
7.4785555669
20
4.7217632187
11
7.4785555669
21
4.3888967718
0
LINE
5
2DF
100
AcDbEntity
8
0
100
AcDbLine
62
7
6
CONTINUOUS
10
7.4785555669
20
-3.5785369431
11
7.4785555669
21
-3.9114033900
0
LINE
5
2E0
100
AcDbEntity
8
0
100
AcDbLine
62
7
6
CONTINUOUS
10
7.5012471513
20
4.6536758487
11
7.5012471513
21
4.3757957794
0
LINE
5
2E1
100
AcDbEntity
8
0
100
AcDbLine
62
7
6
CONTINUOUS
10
7.5012471513
20
-3.5654359507
11
7.5012471513
21
-3.8433160200
0
LINE
5
2E2
100
AcDbEntity
8
0
100
AcDbLine
62
7
6
CONTINUOUS
10
8.1285555669
20
-3.2032592681
11
8.1285555669
21
4.0136190968
0
LINE
5
2E3
100
AcDbEntity
8
0
100
AcDbLine
62
7
6
CONTINUOUS
10
8.3558657107
20
20.1880243017
11
8.3558657107
21
20.3824900581
0
LINE
5
2E4
100
AcDbEntity
8
0
100
AcDbLine
62
7
6
CONTINUOUS
10
8.4745511126
20
20.6994377022
11
8.4745511126
21
20.2729998406
0
LINE
5
2E5
100
AcDbEntity
8
0
100
AcDbLine
62
7
6
CONTINUOUS
10
8.4745511126
20
-19.4626400119
11
8.4745511126
21
-19.8890778735
0
LINE
5
2E6
100
AcDbEntity
8
0
100
AcDbLine
62
7
6
CONTINUOUS
10
9.0825600212
20
21.3051799143
11
9.0825600212
21
20.2729998406
0
LINE
5
2E7
100
AcDbEntity
8
0
100
AcDbLine
62
7
6
CONTINUOUS
10
9.0825600212
20
-19.4626400119
11
9.0825600212
21
-20.4948200857
0
LINE
5
2E8
100
AcDbEntity
8
0
100
AcDbLine
62
7
6
CONTINUOUS
10
9.1285555669
20
-22.1950335760
11
9.1285555669
21
-23.8448243164
0
LINE
5
2E9
100
AcDbEntity
8
0
100
AcDbLine
62
7
6
CONTINUOUS
10
9.1285555669
20
23.0053934047
11
9.1285555669
21
24.6551841451
0
LINE
5
2EA
100
AcDbEntity
8
0
100
AcDbLine
62
7
6
CONTINUOUS
10
9.1329274009
20
24.6508123111
11
9.1329274009
21
24.2495174816
0
LINE
5
2EB
100
AcDbEntity
8
0
100
AcDbLine
62
7
6
CONTINUOUS
10
9.1329274009
20
-23.4391576530
11
9.1329274009
21
-23.8404524824
0
LINE
5
2EC
100
AcDbEntity
8
0
100
AcDbLine
62
7
6
CONTINUOUS
10
9.2012454232
20
21.1689196882
11
9.2012454232
21
20.1880243017
0
LINE
5
2ED
100
AcDbEntity
8
0
100
AcDbLine
62
9
6
CONTINUOUS
10
9.3829231701
20
-23.2226513020
11
9.3829231701
21
-24.0904482517
0
LINE
5
2EE
100
AcDbEntity
8
0
100
AcDbLine
62
9
6
CONTINUOUS
10
9.3829231701
20
24.0330111307
11
9.3829231701
21
24.9008080803
0
LINE
5
2EF
100
AcDbEntity
8
0
100
AcDbLine
62
9
6
CONTINUOUS
10
9.4452012212
20
21.7411668630
11
9.4452012212
21
21.3051799143
0
LINE
5
2F0
100
AcDbEntity
8
0
100
AcDbLine
62
9
6
CONTINUOUS
10
9.4452012212
20
-20.4948200857
11
9.4452012212
21
-20.9308070343
0
LINE
5
2F1
100
AcDbEntity
8
0
100
AcDbLine
62
9
6
CONTINUOUS
10
9.9451250687
20
21.9886104125
11
9.9451250687
21
21.3051799143
0
LINE
5
2F2
100
AcDbEntity
8
0
100
AcDbLine
62
9
6
CONTINUOUS
10
9.9451250687
20
-20.4948200857
11
9.9451250687
21
-21.1782505838
0
LINE
5
2F3
100
AcDbEntity
8
0
100
AcDbLine
62
7
6
CONTINUOUS
10
10.1285555669
20
21.8051799143
11
10.1285555669
21
21.3051799143
0
LINE
5
2F4
100
AcDbEntity
8
0
100
AcDbLine
62
7
6
CONTINUOUS
10
10.1285555669
20
-20.4948200857
11
10.1285555669
21
-20.9948200857
0
LINE
5
2F5
100
AcDbEntity
8
0
100
AcDbLine
62
7
6
CONTINUOUS
10
10.3785555669
20
12.9184475565
11
10.3785555669
21
15.9051799143
0
LINE
5
2F6
100
AcDbEntity
8
0
100
AcDbLine
62
7
6
CONTINUOUS
10
8.3305626547
20
19.1818892698
11
8.3283875075
21
17.1519339395
0
LINE
5
2F7
100
AcDbEntity
8
0
100
AcDbLine
62
9
6
CONTINUOUS
10
9.1285555669
20
23.8156650626
11
9.1329274009
21
24.2495174816
0
LINE
5
2F8
100
AcDbEntity
8
0
100
AcDbLine
62
9
6
CONTINUOUS
10
9.3778325690
20
23.5278296452
11
9.3829231701
21
24.0330111307
0
LINE
5
2F9
100
AcDbEntity
8
0
100
AcDbLine
62
7
6
CONTINUOUS
10
8.4731088200
20
20.0760382900
11
8.3283875075
21
17.1519339395
0
LINE
5
2FA
100
AcDbEntity
8
0
100
AcDbLine
62
7
6
CONTINUOUS
10
9.2449211167
20
-16.0143026721
11
9.0840023138
21
-19.2656784613
0
LINE
5
2FB
100
AcDbEntity
8
0
100
AcDbLine
62
7
6
CONTINUOUS
10
11.3906605540
20
16.6051799143
11
11.4280148945
21
17.0600570636
0
LINE
5
2FC
100
AcDbEntity
8
0
100
AcDbLine
62
7
6
CONTINUOUS
10
-1.7981361792
20
16.8181761891
11
-1.9987892381
21
17.0600570636
0
LINE
5
2FD
100
AcDbEntity
8
0
100
AcDbLine
62
7
6
CONTINUOUS
10
13.0451378786
20
21.4278296452
11
13.0285555669
21
21.9763124009
0
LINE
5
2FE
100
AcDbEntity
8
0
100
AcDbLine
62
7
6
CONTINUOUS
10
13.0285555669
20
-21.1659525722
11
13.0289919103
21
-21.1948200857
0
LINE
5
2FF
100
AcDbEntity
8
0
100
AcDbLine
62
9
6
CONTINUOUS
10
11.7741879637
20
24.0330111307
11
11.7792785648
21
23.5278296452
0
LINE
5
300
100
AcDbEntity
8
0
100
AcDbLine
62
9
6
CONTINUOUS
10
12.0241837329
20
24.2495174816
11
12.0285555669
21
23.8156650626
0
LINE
5
301
100
AcDbEntity
8
0
100
AcDbLine
62
7
6
CONTINUOUS
10
11.3785555669
20
16.6051799143
11
11.3764568361
21
16.8181761891
0
LINE
5
302
100
AcDbEntity
8
0
100
AcDbLine
62
7
6
CONTINUOUS
10
11.3285555669
20
16.8181761891
11
11.3285555669
21
16.2185115539
0
LINE
5
303
100
AcDbEntity
8
0
100
AcDbLine
62
7
6
CONTINUOUS
10
11.3785555669
20
16.4052377995
11
11.3785555669
21
16.6051799143
0
LINE
5
304
100
AcDbEntity
8
0
100
AcDbLine
62
7
6
CONTINUOUS
10
11.3906605540
20
16.6051799143
11
11.3906605540
21
-12.1080877278
0
LINE
5
305
100
AcDbEntity
8
0
100
AcDbLine
62
7
6
CONTINUOUS
10
11.4831723981
20
20.4679593384
11
11.4831723981
21
20.1880243017
0
LINE
5
306
100
AcDbEntity
8
0
100
AcDbLine
62
7
6
CONTINUOUS
10
11.5285555669
20
20.6042195645
11
11.5285555669
21
-19.7938597359
0
LINE
5
307
100
AcDbEntity
8
0
100
AcDbLine
62
9
6
CONTINUOUS
10
11.7741879637
20
-23.2226513020
11
11.7741879637
21
-24.0904482517
0
LINE
5
308
100
AcDbEntity
8
0
100
AcDbLine
62
9
6
CONTINUOUS
10
11.7741879637
20
24.0330111307
11
11.7741879637
21
24.9008080803
0
LINE
5
309
100
AcDbEntity
8
0
100
AcDbLine
62
7
6
CONTINUOUS
10
12.0241837329
20
-23.8404524824
11
12.0241837329
21
-23.4391576530
0
LINE
5
30A
100
AcDbEntity
8
0
100
AcDbLine
62
7
6
CONTINUOUS
10
12.0241837329
20
24.2495174816
11
12.0241837329
21
24.6508123111
0
LINE
5
30B
100
AcDbEntity
8
0
100
AcDbLine
62
7
6
CONTINUOUS
10
12.0285555669
20
-22.1950335760
11
12.0285555669
21
-23.8448243164
0
LINE
5
30C
100
AcDbEntity
8
0
100
AcDbLine
62
7
6
CONTINUOUS
10
12.0285555669
20
23.0053934047
11
12.0285555669
21
24.6551841451
0
LINE
5
30D
100
AcDbEntity
8
0
100
AcDbLine
62
7
6
CONTINUOUS
10
13.0202650425
20
22.2993790076
11
13.0202650425
21
21.4278296452
0
LINE
5
30E
100
AcDbEntity
8
0
100
AcDbLine
62
7
6
CONTINUOUS
10
13.0202650425
20
-20.6174698165
11
13.0202650425
21
-21.4890191789
0
LINE
5
30F
100
AcDbEntity
8
0
100
AcDbLine
62
7
6
CONTINUOUS
10
13.0289919103
20
22.3051968374
11
13.0289919103
21
22.0051799143
0
LINE
5
310
100
AcDbEntity
8
0
100
AcDbLine
62
7
6
CONTINUOUS
10
13.0289919103
20
-21.4948370087
11
13.0289919103
21
-21.1948200857
0
LINE
5
311
100
AcDbEntity
8
0
100
AcDbLine
62
7
6
CONTINUOUS
10
13.0451378786
20
21.4278296452
11
13.0451378786
21
-20.6174698165
0
LINE
5
312
100
AcDbEntity
8
0
100
AcDbLine
62
7
6
CONTINUOUS
10
11.4325624317
20
19.1818892698
11
11.4280148945
21
17.0600570636
0
LINE
5
313
100
AcDbEntity
8
0
100
AcDbLine
62
9
6
CONTINUOUS
10
11.7792785648
20
-22.7174698165
11
11.7741879637
21
-23.2226513020
0
LINE
5
314
100
AcDbEntity
8
0
100
AcDbLine
62
9
6
CONTINUOUS
10
12.0285555669
20
-23.0053052339
11
12.0241837329
21
-23.4391576530
0
LINE
5
315
100
AcDbEntity
8
0
100
AcDbLine
62
7
6
CONTINUOUS
10
13.0289919103
20
22.0051799143
11
13.0285555669
21
21.9763124009
0
LINE
5
316
100
AcDbEntity
8
0
100
AcDbLine
62
7
6
CONTINUOUS
10
13.0451378786
20
-20.6174698165
11
13.0285555669
21
-21.1659525722
0
LINE
5
317
100
AcDbEntity
8
0
100
AcDbLine
62
7
6
CONTINUOUS
10
9.1785555669
20
-20.4948200857
11
9.2341024515
21
-20.1612423418
0
LINE
5
318
100
AcDbEntity
8
0
100
AcDbLine
62
7
6
CONTINUOUS
10
-4.7157098363
20
-19.6890854889
11
-4.5655160934
21
-19.5388917460
0
LINE
5
319
100
AcDbEntity
8
0
100
AcDbLine
62
9
6
CONTINUOUS
10
-8.2714444331
20
-23.8448243164
11
-8.2670725991
21
-23.8404524824
0
LINE
5
31A
100
AcDbEntity
8
0
100
AcDbLine
62
9
6
CONTINUOUS
10
-8.0214486639
20
-24.0948200857
11
-8.0170768299
21
-24.0904482517
0
LINE
5
31B
100
AcDbEntity
8
0
100
AcDbLine
62
7
6
CONTINUOUS
10
-2.5714444331
20
-21.9948200857
11
-2.5275221860
21
-21.9508978386
0
LINE
5
31C
100
AcDbEntity
8
0
100
AcDbLine
62
7
6
CONTINUOUS
10
10.3785555669
20
12.9184475565
11
-6.6214444331
21
12.9184475565
0
LINE
5
31D
100
AcDbEntity
8
0
100
AcDbLine
62
7
6
CONTINUOUS
10
4.9785555669
20
14.2334192506
11
-1.2214444331
21
14.2334192506
0
LINE
5
31E
100
AcDbEntity
8
0
100
AcDbLine
62
7
6
CONTINUOUS
10
-4.7157098363
20
20.4994453175
11
-4.5987545768
21
20.3824900581
0
LINE
5
31F
100
AcDbEntity
8
0
100
AcDbLine
62
9
6
CONTINUOUS
10
-8.2714444331
20
24.6551841451
11
-8.2670725991
21
24.6508123111
0
LINE
5
320
100
AcDbEntity
8
0
100
AcDbLine
62
9
6
CONTINUOUS
10
-8.0214486639
20
24.9051799143
11
-8.0170768299
21
24.9008080803
0
LINE
5
321
100
AcDbEntity
8
0
100
AcDbLine
62
7
6
CONTINUOUS
10
-2.5714444331
20
22.8051799143
11
-2.5275221860
21
22.7612576673
0
LINE
5
322
100
AcDbEntity
8
0
100
AcDbLine
62
7
6
CONTINUOUS
10
9.2223698513
20
19.6206500116
11
9.2054565754
21
19.6883288882
0
LINE
5
323
100
AcDbEntity
8
0
100
AcDbLine
62
7
6
CONTINUOUS
10
9.2012454232
20
21.1689196882
11
9.1785555669
21
21.3051799143
0
LINE
5
324
100
AcDbEntity
8
0
100
AcDbLine
62
7
6
CONTINUOUS
10
-2.5277937862
20
-23.5511694388
11
-2.5714444331
21
-23.5948200857
0
LINE
5
325
100
AcDbEntity
8
0
100
AcDbLine
62
7
6
CONTINUOUS
10
-1.5214444331
20
15.1051799143
11
-6.5960742450
21
15.1051799143
0
LINE
5
326
100
AcDbEntity
8
0
100
AcDbLine
62
7
6
CONTINUOUS
10
5.2785555669
20
15.1051799143
11
10.3531853788
21
15.1051799143
0
LINE
5
327
100
AcDbEntity
8
0
100
AcDbLine
62
7
6
CONTINUOUS
10
-1.5214444331
20
15.2330519464
11
-1.5332809427
21
15.2330519464
0
LINE
5
328
100
AcDbEntity
8
0
100
AcDbLine
62
7
6
CONTINUOUS
10
5.3292393353
20
15.4051799143
11
5.2785555669
21
15.4051799143
0
LINE
5
329
100
AcDbEntity
8
0
100
AcDbLine
62
7
6
CONTINUOUS
10
-1.5214444331
20
15.4051799143
11
-1.5721282015
21
15.4051799143
0
LINE
5
32A
100
AcDbEntity
8
0
100
AcDbLine
62
7
6
CONTINUOUS
10
10.7950103980
20
15.9051799143
11
10.3785555669
21
15.9051799143
0
LINE
5
32B
100
AcDbEntity
8
0
100
AcDbLine
62
7
6
CONTINUOUS
10
5.5358177792
20
15.9051799143
11
5.2785555669
21
15.9051799143
0
LINE
5
32C
100
AcDbEntity
8
0
100
AcDbLine
62
7
6
CONTINUOUS
10
-1.5214444331
20
15.9051799143
11
-1.7787066454
21
15.9051799143
0
LINE
5
32D
100
AcDbEntity
8
0
100
AcDbLine
62
7
6
CONTINUOUS
10
-6.4641822208
20
15.9051799143
11
-7.0378992641
21
15.9051799143
0
LINE
5
32E
100
AcDbEntity
8
0
100
AcDbLine
62
7
6
CONTINUOUS
10
11.0285555669
20
15.9207477084
11
10.2212933546
21
15.9207477084
0
LINE
5
32F
100
AcDbEntity
8
0
100
AcDbLine
62
7
6
CONTINUOUS
10
5.5358177792
20
15.9207477084
11
5.2785555669
21
15.9207477084
0
LINE
5
330
100
AcDbEntity
8
0
100
AcDbLine
62
7
6
CONTINUOUS
10
-1.5214444331
20
15.9207477084
11
-1.7787066454
21
15.9207477084
0
LINE
5
331
100
AcDbEntity
8
0
100
AcDbLine
62
7
6
CONTINUOUS
10
-6.4641822208
20
15.9207477084
11
-7.2714444331
21
15.9207477084
0
LINE
5
332
100
AcDbEntity
8
0
100
AcDbLine
62
9
6
CONTINUOUS
10
10.0245225721
20
15.9833105709
11
5.7325885617
21
15.9833105709
0
LINE
5
333
100
AcDbEntity
8
0
100
AcDbLine
62
9
6
CONTINUOUS
10
-1.9754774279
20
15.9833105709
11
-6.2674114383
21
15.9833105709
0
LINE
5
334
100
AcDbEntity
8
0
100
AcDbLine
62
7
6
CONTINUOUS
10
-7.6214444331
20
16.6051799143
11
-7.6335494201
21
16.6051799143
0
LINE
5
335
100
AcDbEntity
8
0
100
AcDbLine
62
7
6
CONTINUOUS
10
11.3785555669
20
16.6051799143
11
11.3906605540
21
16.6051799143
0
LINE
5
336
100
AcDbEntity
8
0
100
AcDbLine
62
7
6
CONTINUOUS
10
11.3764568361
20
16.8181761891
11
10.2018638208
21
16.8181761891
0
LINE
5
337
100
AcDbEntity
8
0
100
AcDbLine
62
7
6
CONTINUOUS
10
-7.6193457023
20
16.8181761891
11
-6.4447526870
21
16.8181761891
0
LINE
5
338
100
AcDbEntity
8
0
100
AcDbLine
62
7
6
CONTINUOUS
10
-1.7981361792
20
16.8181761891
11
5.5552473130
21
16.8181761891
0
LINE
5
339
100
AcDbEntity
8
0
100
AcDbLine
62
7
6
CONTINUOUS
10
-7.6709037606
20
17.0600570636
11
-6.2440996281
21
17.0600570636
0
LINE
5
33A
100
AcDbEntity
8
0
100
AcDbLine
62
7
6
CONTINUOUS
10
-1.9987892381
20
17.0600570636
11
5.7559003719
21
17.0600570636
0
LINE
5
33B
100
AcDbEntity
8
0
100
AcDbLine
62
7
6
CONTINUOUS
10
10.0012107619
20
17.0600570636
11
11.4280148945
21
17.0600570636
0
LINE
5
33C
100
AcDbEntity
8
0
100
AcDbLine
62
7
6
CONTINUOUS
10
-5.4716124925
20
17.1519339395
11
-4.5712763737
21
17.1519339395
0
LINE
5
33D
100
AcDbEntity
8
0
100
AcDbLine
62
7
6
CONTINUOUS
10
8.3283875075
20
17.1519339395
11
9.2287236263
21
17.1519339395
0
LINE
5
33E
100
AcDbEntity
8
0
100
AcDbLine
62
7
6
CONTINUOUS
10
-2.5277937862
20
24.3615292675
11
-2.5714444331
21
24.4051799143
0
LINE
5
33F
100
AcDbEntity
8
0
100
AcDbLine
62
9
6
CONTINUOUS
10
11.4325624317
20
19.1818892698
11
9.2265484792
21
19.1818892698
0
LINE
5
340
100
AcDbEntity
8
0
100
AcDbLine
62
9
6
CONTINUOUS
10
8.3305626547
20
19.1818892698
11
-4.5734515208
21
19.1818892698
0
LINE
5
341
100
AcDbEntity
8
0
100
AcDbLine
62
9
6
CONTINUOUS
10
-5.4694373453
20
19.1818892698
11
-7.6754512979
21
19.1818892698
0
LINE
5
342
100
AcDbEntity
8
0
100
AcDbLine
62
9
6
CONTINUOUS
10
11.4409203240
20
19.6206500116
11
9.2223698513
21
19.6206500116
0
LINE
5
343
100
AcDbEntity
8
0
100
AcDbLine
62
9
6
CONTINUOUS
10
8.3347412825
20
19.6206500116
11
-4.5776301487
21
19.6206500116
0
LINE
5
344
100
AcDbEntity
8
0
100
AcDbLine
62
9
6
CONTINUOUS
10
-5.4652587175
20
19.6206500116
11
-7.6838091902
21
19.6206500116
0
LINE
5
345
100
AcDbEntity
8
0
100
AcDbLine
62
9
6
CONTINUOUS
10
-7.7176383183
20
19.6883288882
11
-5.4483454416
21
19.6883288882
0
LINE
5
346
100
AcDbEntity
8
0
100
AcDbLine
62
9
6
CONTINUOUS
10
-4.5945434246
20
19.6883288882
11
8.3516545584
21
19.6883288882
0
LINE
5
347
100
AcDbEntity
8
0
100
AcDbLine
62
9
6
CONTINUOUS
10
9.2054565754
20
19.6883288882
11
11.4747494521
21
19.6883288882
0
LINE
5
348
100
AcDbEntity
8
0
100
AcDbLine
62
9
6
CONTINUOUS
10
-5.3268911800
20
20.0760382900
11
-4.7159976862
21
20.0760382900
0
LINE
5
349
100
AcDbEntity
8
0
100
AcDbLine
62
9
6
CONTINUOUS
10
8.4731088200
20
20.0760382900
11
9.0840023138
21
20.0760382900
0
LINE
5
34A
100
AcDbEntity
8
0
100
AcDbLine
62
9
6
CONTINUOUS
10
-7.7260612643
20
20.1880243017
11
-5.4441342893
21
20.1880243017
0
LINE
5
34B
100
AcDbEntity
8
0
100
AcDbLine
62
9
6
CONTINUOUS
10
-4.5987545768
20
20.1880243017
11
8.3558657107
21
20.1880243017
0
LINE
5
34C
100
AcDbEntity
8
0
100
AcDbLine
62
9
6
CONTINUOUS
10
9.2012454232
20
20.1880243017
11
11.4831723981
21
20.1880243017
0
LINE
5
34D
100
AcDbEntity
8
0
100
AcDbLine
62
9
6
CONTINUOUS
10
-5.3254488874
20
20.2729998406
11
-4.7174399788
21
20.2729998406
0
LINE
5
34E
100
AcDbEntity
8
0
100
AcDbLine
62
9
6
CONTINUOUS
10
8.4745511126
20
20.2729998406
11
9.0825600212
21
20.2729998406
0
LINE
5
34F
100
AcDbEntity
8
0
100
AcDbLine
62
7
6
CONTINUOUS
10
8.3558657107
20
20.3824900581
11
-4.5987545768
21
20.3824900581
0
LINE
5
350
100
AcDbEntity
8
0
100
AcDbLine
62
7
6
CONTINUOUS
10
-4.7157098363
20
20.4994453175
11
8.4728209701
21
20.4994453175
0
LINE
5
351
100
AcDbEntity
8
0
100
AcDbLine
62
9
6
CONTINUOUS
10
-4.7174399788
20
20.6994377022
11
8.4745511126
21
20.6994377022
0
LINE
5
352
100
AcDbEntity
8
0
100
AcDbLine
62
7
6
CONTINUOUS
10
-7.0259549267
20
21.1689196882
11
-5.4441342893
21
21.1689196882
0
LINE
5
353
100
AcDbEntity
8
0
100
AcDbLine
62
7
6
CONTINUOUS
10
9.2012454232
20
21.1689196882
11
10.7830660605
21
21.1689196882
0
LINE
5
354
100
AcDbEntity
8
0
100
AcDbLine
62
7
6
CONTINUOUS
10
-1.1214444331
20
21.2051799143
11
4.8785555669
21
21.2051799143
0
LINE
5
355
100
AcDbEntity
8
0
100
AcDbLine
62
7
6
CONTINUOUS
10
-5.3254488874
20
21.3051799143
11
-7.0713380955
21
21.3051799143
0
LINE
5
356
100
AcDbEntity
8
0
100
AcDbLine
62
7
6
CONTINUOUS
10
9.0825600212
20
21.3051799143
11
10.8284492293
21
21.3051799143
0
LINE
5
357
100
AcDbEntity
8
0
100
AcDbLine
62
7
6
CONTINUOUS
10
-9.2631539087
20
21.4278296452
11
-9.2880267448
21
21.4278296452
0
LINE
5
358
100
AcDbEntity
8
0
100
AcDbLine
62
7
6
CONTINUOUS
10
13.0202650425
20
21.4278296452
11
13.0451378786
21
21.4278296452
0
LINE
5
359
100
AcDbEntity
8
0
100
AcDbLine
62
7
6
CONTINUOUS
10
10.2018638208
20
16.8181761891
11
10.0012107619
21
17.0600570636
0
LINE
5
35A
100
AcDbEntity
8
0
100
AcDbLine
62
7
6
CONTINUOUS
10
11.5285555669
20
-19.7938597359
11
10.8284492293
21
-20.4948200857
0
LINE
5
35B
100
AcDbEntity
8
0
100
AcDbLine
62
7
6
CONTINUOUS
10
9.1343733967
20
-21.9890022558
11
10.1285555669
21
-20.9948200857
0
LINE
5
35C
100
AcDbEntity
8
0
100
AcDbLine
62
9
6
CONTINUOUS
10
9.1285555669
20
-23.8448243164
11
9.1329274009
21
-23.8404524824
0
LINE
5
35D
100
AcDbEntity
8
0
100
AcDbLine
62
9
6
CONTINUOUS
10
9.3785513361
20
-24.0948200857
11
9.3829231701
21
-24.0904482517
0
LINE
5
35E
100
AcDbEntity
8
0
100
AcDbLine
62
9
6
CONTINUOUS
10
9.4452012212
20
21.7411668630
11
4.8785555669
21
21.7411668630
0
LINE
5
35F
100
AcDbEntity
8
0
100
AcDbLine
62
9
6
CONTINUOUS
10
-1.1214444331
20
21.7411668630
11
-5.6880900873
21
21.7411668630
0
LINE
5
360
100
AcDbEntity
8
0
100
AcDbLine
62
7
6
CONTINUOUS
10
4.8785555669
20
22.1051799143
11
-1.1214444331
21
22.1051799143
0
LINE
5
361
100
AcDbEntity
8
0
100
AcDbLine
62
9
6
CONTINUOUS
10
9.1925855414
20
22.7411499399
11
4.8785555669
21
22.7411499399
0
LINE
5
362
100
AcDbEntity
8
0
100
AcDbLine
62
9
6
CONTINUOUS
10
-1.1214444331
20
22.7411499399
11
-5.4354744076
21
22.7411499399
0
LINE
5
363
100
AcDbEntity
8
0
100
AcDbLine
62
7
6
CONTINUOUS
10
-8.7631602548
20
22.7993620845
11
-5.3772622629
21
22.7993620845
0
LINE
5
364
100
AcDbEntity
8
0
100
AcDbLine
62
7
6
CONTINUOUS
10
5.3785555669
20
22.7993620845
11
4.8785555669
21
22.7993620845
0
LINE
5
365
100
AcDbEntity
8
0
100
AcDbLine
62
7
6
CONTINUOUS
10
-1.1214444331
20
22.7993620845
11
-1.6214444331
21
22.7993620845
0
LINE
5
366
100
AcDbEntity
8
0
100
AcDbLine
62
7
6
CONTINUOUS
10
9.1343733967
20
22.7993620845
11
12.5202713886
21
22.7993620845
0
LINE
5
367
100
AcDbEntity
8
0
100
AcDbLine
62
7
6
CONTINUOUS
10
0.8785555669
20
22.7999438787
11
2.8785555669
21
22.7999438787
0
LINE
5
368
100
AcDbEntity
8
0
100
AcDbLine
62
7
6
CONTINUOUS
10
-2.5714444331
20
22.8051799143
11
-8.7718871226
21
22.8051799143
0
LINE
5
369
100
AcDbEntity
8
0
100
AcDbLine
62
7
6
CONTINUOUS
10
6.3285555669
20
22.8051799143
11
12.5289982564
21
22.8051799143
0
LINE
5
36A
100
AcDbEntity
8
0
100
AcDbLine
62
7
6
CONTINUOUS
10
11.7792785648
20
23.5278296452
11
9.3778325690
21
23.5278296452
0
LINE
5
36B
100
AcDbEntity
8
0
100
AcDbLine
62
7
6
CONTINUOUS
10
-8.0221674310
20
23.5278296452
11
-5.6207214352
21
23.5278296452
0
LINE
5
36C
100
AcDbEntity
8
0
100
AcDbLine
62
9
6
CONTINUOUS
10
-8.0170768299
20
24.0330111307
11
-5.6258120363
21
24.0330111307
0
LINE
5
36D
100
AcDbEntity
8
0
100
AcDbLine
62
9
6
CONTINUOUS
10
9.3829231701
20
24.0330111307
11
11.7741879637
21
24.0330111307
0
LINE
5
36E
100
AcDbEntity
8
0
100
AcDbLine
62
9
6
CONTINUOUS
10
-5.3758162671
20
24.2495174816
11
-8.2670725991
21
24.2495174816
0
LINE
5
36F
100
AcDbEntity
8
0
100
AcDbLine
62
9
6
CONTINUOUS
10
9.1329274009
20
24.2495174816
11
12.0241837329
21
24.2495174816
0
LINE
5
370
100
AcDbEntity
8
0
100
AcDbLine
62
7
6
CONTINUOUS
10
-2.5277937862
20
24.3615292675
11
-1.6214444331
21
24.3615292675
0
LINE
5
371
100
AcDbEntity
8
0
100
AcDbLine
62
7
6
CONTINUOUS
10
5.3785555669
20
24.3615292675
11
6.2849049201
21
24.3615292675
0
LINE
5
372
100
AcDbEntity
8
0
100
AcDbLine
62
7
6
CONTINUOUS
10
-1.6214444331
20
24.3993620845
11
0.6785555669
21
24.3993620845
0
LINE
5
373
100
AcDbEntity
8
0
100
AcDbLine
62
7
6
CONTINUOUS
10
3.0785555669
20
24.3993620845
11
5.3785555669
21
24.3993620845
0
LINE
5
374
100
AcDbEntity
8
0
100
AcDbLine
62
7
6
CONTINUOUS
10
6.3285555669
20
24.4051799143
11
3.0785555669
21
24.4051799143
0
LINE
5
375
100
AcDbEntity
8
0
100
AcDbLine
62
7
6
CONTINUOUS
10
0.6785555669
20
24.4051799143
11
-2.5714444331
21
24.4051799143
0
LINE
5
376
100
AcDbEntity
8
0
100
AcDbLine
62
9
6
CONTINUOUS
10
-5.3758162671
20
24.6508123111
11
-8.2670725991
21
24.6508123111
0
LINE
5
377
100
AcDbEntity
8
0
100
AcDbLine
62
9
6
CONTINUOUS
10
9.1329274009
20
24.6508123111
11
12.0241837329
21
24.6508123111
0
LINE
5
378
100
AcDbEntity
8
0
100
AcDbLine
62
7
6
CONTINUOUS
10
11.7741879637
20
24.9008080803
11
9.3829231701
21
24.9008080803
0
LINE
5
379
100
AcDbEntity
8
0
100
AcDbLine
62
7
6
CONTINUOUS
10
-5.6258120363
20
24.9008080803
11
-8.0170768299
21
24.9008080803
0
LINE
5
37A
100
AcDbEntity
8
0
100
AcDbLine
62
7
6
CONTINUOUS
10
-8.0214486639
20
24.9051799143
11
-5.6214402023
21
24.9051799143
0
LINE
5
37B
100
AcDbEntity
8
0
100
AcDbLine
62
7
6
CONTINUOUS
10
9.3785513361
20
24.9051799143
11
11.7785597977
21
24.9051799143
0
LINE
5
37C
100
AcDbEntity
8
0
100
AcDbLine
62
7
6
CONTINUOUS
10
10.1285555669
20
21.8051799143
11
9.1343733967
21
22.7993620845
0
LINE
5
37D
100
AcDbEntity
8
0
100
AcDbLine
62
9
6
CONTINUOUS
10
9.1285555669
20
24.6551841451
11
9.1329274009
21
24.6508123111
0
LINE
5
37E
100
AcDbEntity
8
0
100
AcDbLine
62
9
6
CONTINUOUS
10
9.3785513361
20
24.9051799143
11
9.3829231701
21
24.9008080803
0
LINE
5
37F
100
AcDbEntity
8
0
100
AcDbLine
62
7
6
CONTINUOUS
10
11.4831723981
20
20.4679593384
11
10.7830660605
21
21.1689196882
0
LINE
5
380
100
AcDbEntity
8
0
100
AcDbLine
62
7
6
CONTINUOUS
10
11.5285555669
20
20.6042195645
11
10.8284492293
21
21.3051799143
0
CIRCLE
5
381
100
AcDbEntity
8
0
100
AcDbCircle
62
7
6
CONTINUOUS
10
1.8785555669
20
0.4051799143
40
1.0000000000
0
CIRCLE
5
382
100
AcDbEntity
8
0
100
AcDbCircle
62
7
6
CONTINUOUS
10
1.8785555669
20
0.4051799143
40
2.7500000000
0
CIRCLE
5
383
100
AcDbEntity
8
0
100
AcDbCircle
62
7
6
CONTINUOUS
10
1.8785555669
20
0.4051799143
40
4.5000000000
0
CIRCLE
5
384
100
AcDbEntity
8
0
100
AcDbCircle
62
7
6
CONTINUOUS
10
1.8785555669
20
0.4051799143
40
4.0000000000
0
CIRCLE
5
385
100
AcDbEntity
8
0
100
AcDbCircle
62
9
6
CONTINUOUS
10
1.8785555669
20
0.4051799143
40
7.6446720906
0
CIRCLE
5
386
100
AcDbEntity
8
0
100
AcDbCircle
62
9
6
CONTINUOUS
10
1.8785555669
20
0.4051799143
40
7.3447176189
0
CIRCLE
5
387
100
AcDbEntity
8
0
100
AcDbCircle
62
7
6
CONTINUOUS
10
1.8785555669
20
0.4051799143
40
7.6500000000
0
ARC
5
388
100
AcDbEntity
8
0
100
AcDbCircle
62
7
6
CONTINUOUS
10
-2.1214444331
20
-22.7448200857
40
0.5000000000
100
AcDbArc
50
144.3637748935
51
215.6362251065
0
ARC
5
389
100
AcDbEntity
8
0
100
AcDbCircle
62
7
6
CONTINUOUS
10
5.8785555669
20
-22.7448200857
40
0.5000000000
100
AcDbArc
50
324.3637748935
51
35.6362251065
0
ARC
5
38A
100
AcDbEntity
8
0
100
AcDbCircle
62
7
6
CONTINUOUS
10
5.8785555669
20
23.5551799143
40
0.5000000000
100
AcDbArc
50
324.3637748935
51
35.6362251065
0
ARC
5
38B
100
AcDbEntity
8
0
100
AcDbCircle
62
7
6
CONTINUOUS
10
-2.1214444331
20
23.5551799143
40
0.5000000000
100
AcDbArc
50
144.3637748935
51
215.6362251065
0
ARC
5
38C
100
AcDbEntity
8
0
100
AcDbCircle
62
7
6
CONTINUOUS
10
1.8785555669
20
0.4051799143
40
7.2273084156
100
AcDbArc
50
323.4099297526
51
36.5900736443
0
ARC
5
38D
100
AcDbEntity
8
0
100
AcDbCircle
62
7
6
CONTINUOUS
10
1.8785555669
20
0.4051799143
40
7.2273084156
100
AcDbArc
50
143.4099297526
51
216.5900736443
0
ARC
5
38E
100
AcDbEntity
8
0
100
AcDbCircle
62
7
6
CONTINUOUS
10
1.8785555669
20
0.4051799143
40
7.2500000000
100
AcDbArc
50
322.8634550461
51
37.1365500483
0
ARC
5
38F
100
AcDbEntity
8
0
100
AcDbCircle
62
7
6
CONTINUOUS
10
1.8785555669
20
0.4051799143
40
7.2500000000
100
AcDbArc
50
142.8634550463
51
217.1365500483
0
SPLINE
5
390
100
AcDbEntity
8
0
100
AcDbSpline
62
7
6
CONTINUOUS
70
0
71
3
72
15
73
11
74
9
42
0.0000001000
43
0.0000001000
44
0.0000000001
12
0.0000000000
22
-0.4687304617
32
0.0000000000
13
0.4687304617
23
-0.0000000000
33
0.0000000000
40
0.0000000000
40
0.0000000000
40
0.0000000000
40
0.0000000000
40
0.1245409744
40
0.2491520072
40
0.3738923875
40
0.4988015666
40
0.6238931955
40
0.7491531499
40
0.8745417825
40
1.0000000000
40
1.0000000000
40
1.0000000000
40
1.0000000000
10
-7.5714444331
20
16.2185115539
30
0.0000000000
10
-7.5714444331
20
16.1990528378
30
0.0000000000
10
-7.5675741232
20
16.1600150735
30
0.0000000000
10
-7.5503835375
20
16.1038030004
30
0.0000000000
10
-7.5224710980
20
16.0519818524
30
0.0000000000
10
-7.4849127687
20
16.0065731263
30
0.0000000000
10
-7.4391573324
20
15.9693120028
30
0.0000000000
10
-7.3869571193
20
15.9416291468
30
0.0000000000
10
-7.3303467524
20
15.9245840489
30
0.0000000000
10
-7.2910464625
20
15.9207477084
30
0.0000000000
10
-7.2714444331
20
15.9207477084
30
0.0000000000
11
-7.5714444331
21
16.2185115539
31
0.0000000000
11
-7.5656800172
21
16.1604207094
31
0.0000000000
11
-7.5486082928
21
16.1045622635
31
0.0000000000
11
-7.5208853168
21
16.0530828249
31
0.0000000000
11
-7.4835764674
21
16.0079607196
31
0.0000000000
11
-7.4381155030
21
15.9709299647
31
0.0000000000
11
-7.3862494628
21
15.9434136315
31
0.0000000000
11
-7.3299715297
21
15.9264691572
31
0.0000000000
11
-7.2714444331
21
15.9207477084
31
0.0000000000
0
SPLINE
5
391
100
AcDbEntity
8
0
100
AcDbSpline
62
7
6
CONTINUOUS
70
0
71
3
72
15
73
11
74
9
42
0.0000001000
43
0.0000001000
44
0.0000000001
12
0.0000000000
22
-0.4687304617
32
0.0000000000
13
0.4687304617
23
0.0000000000
33
0.0000000000
40
0.0000000000
40
0.0000000000
40
0.0000000000
40
0.0000000000
40
0.1245409744
40
0.2491520072
40
0.3738923875
40
0.4988015666
40
0.6238931955
40
0.7491531499
40
0.8745417825
40
1.0000000000
40
1.0000000000
40
1.0000000000
40
1.0000000000
10
-1.5214444331
20
14.5311830961
30
0.0000000000
10
-1.5214444331
20
14.5117243800
30
0.0000000000
10
-1.5175741232
20
14.4726866157
30
0.0000000000
10
-1.5003835375
20
14.4164745426
30
0.0000000000
10
-1.4724710980
20
14.3646533946
30
0.0000000000
10
-1.4349127687
20
14.3192446685
30
0.0000000000
10
-1.3891573324
20
14.2819835450
30
0.0000000000
10
-1.3369571193
20
14.2543006890
30
0.0000000000
10
-1.2803467524
20
14.2372555911
30
0.0000000000
10
-1.2410464625
20
14.2334192506
30
0.0000000000
10
-1.2214444331
20
14.2334192506
30
0.0000000000
11
-1.5214444331
21
14.5311830961
31
0.0000000000
11
-1.5156800172
21
14.4730922516
31
0.0000000000
11
-1.4986082928
21
14.4172338057
31
0.0000000000
11
-1.4708853168
21
14.3657543671
31
0.0000000000
11
-1.4335764674
21
14.3206322618
31
0.0000000000
11
-1.3881155030
21
14.2836015070
31
0.0000000000
11
-1.3362494628
21
14.2560851738
31
0.0000000000
11
-1.2799715297
21
14.2391406994
31
0.0000000000
11
-1.2214444331
21
14.2334192506
31
0.0000000000
0
SPLINE
5
392
100
AcDbEntity
8
0
100
AcDbSpline
62
7
6
CONTINUOUS
70
0
71
3
72
15
73
11
74
9
42
0.0000001000
43
0.0000001000
44
0.0000000001
12
0.4687304617
22
0.0000000000
32
0.0000000000
13
0.0000000000
23
0.4687304617
33
0.0000000000
40
0.0000000000
40
0.0000000000
40
0.0000000000
40
0.0000000000
40
0.1254582175
40
0.2508468501
40
0.3761068045
40
0.5011984334
40
0.6261076125
40
0.7508479928
40
0.8754590256
40
1.0000000000
40
1.0000000000
40
1.0000000000
40
1.0000000000
10
4.9785555669
20
14.2334192506
30
0.0000000000
10
4.9981575963
20
14.2334192506
30
0.0000000000
10
5.0374578862
20
14.2372555911
30
0.0000000000
10
5.0940682531
20
14.2543006890
30
0.0000000000
10
5.1462684662
20
14.2819835450
30
0.0000000000
10
5.1920239025
20
14.3192446685
30
0.0000000000
10
5.2295822318
20
14.3646533946
30
0.0000000000
10
5.2574946714
20
14.4164745426
30
0.0000000000
10
5.2746852570
20
14.4726866157
30
0.0000000000
10
5.2785555669
20
14.5117243800
30
0.0000000000
10
5.2785555669
20
14.5311830961
30
0.0000000000
11
4.9785555669
21
14.2334192506
31
0.0000000000
11
5.0370826635
21
14.2391406994
31
0.0000000000
11
5.0933605966
21
14.2560851738
31
0.0000000000
11
5.1452266368
21
14.2836015070
31
0.0000000000
11
5.1906876013
21
14.3206322618
31
0.0000000000
11
5.2279964506
21
14.3657543671
31
0.0000000000
11
5.2557194267
21
14.4172338057
31
0.0000000000
11
5.2727911510
21
14.4730922516
31
0.0000000000
11
5.2785555669
21
14.5311830961
31
0.0000000000
0
SPLINE
5
393
100
AcDbEntity
8
0
100
AcDbSpline
62
7
6
CONTINUOUS
70
0
71
3
72
15
73
11
74
9
42
0.0000001000
43
0.0000001000
44
0.0000000001
12
0.4687304617
22
0.0000000000
32
0.0000000000
13
-0.0000000000
23
0.4687304617
33
0.0000000000
40
0.0000000000
40
0.0000000000
40
0.0000000000
40
0.0000000000
40
0.1254582175
40
0.2508468501
40
0.3761068045
40
0.5011984334
40
0.6261076125
40
0.7508479928
40
0.8754590256
40
1.0000000000
40
1.0000000000
40
1.0000000000
40
1.0000000000
10
11.0285555669
20
15.9207477084
30
0.0000000000
10
11.0481575963
20
15.9207477084
30
0.0000000000
10
11.0874578862
20
15.9245840489
30
0.0000000000
10
11.1440682531
20
15.9416291468
30
0.0000000000
10
11.1962684662
20
15.9693120028
30
0.0000000000
10
11.2420239025
20
16.0065731263
30
0.0000000000
10
11.2795822318
20
16.0519818524
30
0.0000000000
10
11.3074946714
20
16.1038030004
30
0.0000000000
10
11.3246852570
20
16.1600150735
30
0.0000000000
10
11.3285555669
20
16.1990528378
30
0.0000000000
10
11.3285555669
20
16.2185115539
30
0.0000000000
11
11.0285555669
21
15.9207477084
31
0.0000000000
11
11.0870826635
21
15.9264691572
31
0.0000000000
11
11.1433605966
21
15.9434136315
31
0.0000000000
11
11.1952266368
21
15.9709299647
31
0.0000000000
11
11.2406876013
21
16.0079607196
31
0.0000000000
11
11.2779964506
21
16.0530828249
31
0.0000000000
11
11.3057194267
21
16.1045622635
31
0.0000000000
11
11.3227911510
21
16.1604207094
31
0.0000000000
11
11.3285555669
21
16.2185115539
31
0.0000000000
0
SPLINE
5
394
100
AcDbEntity
8
0
100
AcDbSpline
62
7
6
CONTINUOUS
70
0
71
3
72
8
73
4
74
2
42
0.0000001000
43
0.0000001000
44
0.0000000001
12
0.1242442272
22
0.0000000000
32
0.0000000000
13
0.1208633287
23
0.0306630559
33
0.0000000000
40
0.0000000000
40
0.0000000000
40
0.0000000000
40
0.0000000000
40
1.0000000000
40
1.0000000000
40
1.0000000000
40
1.0000000000
10
10.7950103980
20
15.9051799143
30
0.0000000000
10
10.8364251404
20
15.9051799143
30
0.0000000000
10
10.8780264983
20
15.9103735588
30
0.0000000000
10
10.9183142745
20
15.9205945775
30
0.0000000000
11
10.7950103980
21
15.9051799143
31
0.0000000000
11
10.9183142745
21
15.9205945775
31
0.0000000000
0
SPLINE
5
395
100
AcDbEntity
8
0
100
AcDbSpline
62
7
6
CONTINUOUS
70
0
71
3
72
8
73
4
74
2
42
0.0000001000
43
0.0000001000
44
0.0000000001
12
0.1208633287
22
-0.0306630559
32
0.0000000000
13
0.1242442272
23
0.0000000000
33
0.0000000000
40
0.0000000000
40
0.0000000000
40
0.0000000000
40
0.0000000000
40
1.0000000000
40
1.0000000000
40
1.0000000000
40
1.0000000000
10
-7.1612031407
20
15.9205945775
30
0.0000000000
10
-7.1209153645
20
15.9103735588
30
0.0000000000
10
-7.0793140065
20
15.9051799143
30
0.0000000000
10
-7.0378992641
20
15.9051799143
30
0.0000000000
11
-7.1612031407
21
15.9205945775
31
0.0000000000
11
-7.0378992641
21
15.9051799143
31
0.0000000000
0
SPLINE
5
396
100
AcDbEntity
8
0
100
AcDbSpline
62
7
6
CONTINUOUS
70
0
71
3
72
9
73
5
74
3
42
0.0000001000
43
0.0000001000
44
0.0000000001
12
0.0000000000
22
-0.0475573588
32
0.0000000000
13
0.0090083279
23
-0.0467385388
33
0.0000000000
40
0.0000000000
40
0.0000000000
40
0.0000000000
40
0.0000000000
40
0.7500208510
40
1.0000000000
40
1.0000000000
40
1.0000000000
40
1.0000000000
10
-8.2714444331
20
-23.8448243164
30
0.0000000000
10
-8.2714444331
20
-23.8567139867
30
0.0000000000
10
-8.2703097198
20
-23.8725897183
30
0.0000000000
10
-8.2676774745
20
-23.8882418279
30
0.0000000000
10
-8.2669268431
20
-23.8921363813
30
0.0000000000
11
-8.2714444331
21
-23.8448243164
31
0.0000000000
11
-8.2688999072
21
-23.8804024518
31
0.0000000000
11
-8.2669268431
21
-23.8921363813
31
0.0000000000
0
SPLINE
5
397
100
AcDbEntity
8
0
100
AcDbSpline
62
7
6
CONTINUOUS
70
0
71
3
72
9
73
5
74
3
42
0.0000001000
43
0.0000001000
44
0.0000000001
12
0.0475573588
22
0.0000000000
32
0.0000000000
13
0.0467385388
23
0.0090083279
33
0.0000000000
40
0.0000000000
40
0.0000000000
40
0.0000000000
40
0.0000000000
40
0.7500208510
40
1.0000000000
40
1.0000000000
40
1.0000000000
40
1.0000000000
10
-5.6214402023
20
-24.0948200857
30
0.0000000000
10
-5.6095505321
20
-24.0948200857
30
0.0000000000
10
-5.5936748004
20
-24.0936853724
30
0.0000000000
10
-5.5780226908
20
-24.0910531270
30
0.0000000000
10
-5.5741281375
20
-24.0903024956
30
0.0000000000
11
-5.6214402023
21
-24.0948200857
31
0.0000000000
11
-5.5858620669
21
-24.0922755598
31
0.0000000000
11
-5.5741281375
21
-24.0903024956
31
0.0000000000
0
SPLINE
5
398
100
AcDbEntity
8
0
100
AcDbSpline
62
7
6
CONTINUOUS
70
0
71
3
72
9
73
5
74
3
42
0.0000001000
43
0.0000001000
44
0.0000000001
12
0.0475573588
22
0.0000000000
32
0.0000000000
13
0.0467385388
23
0.0090083279
33
0.0000000000
40
0.0000000000
40
0.0000000000
40
0.0000000000
40
0.0000000000
40
0.7500208510
40
1.0000000000
40
1.0000000000
40
1.0000000000
40
1.0000000000
10
11.7785597977
20
-24.0948200857
30
0.0000000000
10
11.7904494679
20
-24.0948200857
30
0.0000000000
10
11.8063251996
20
-24.0936853724
30
0.0000000000
10
11.8219773092
20
-24.0910531270
30
0.0000000000
10
11.8258718625
20
-24.0903024956
30
0.0000000000
11
11.7785597977
21
-24.0948200857
31
0.0000000000
11
11.8141379331
21
-24.0922755598
31
0.0000000000
11
11.8258718625
21
-24.0903024956
31
0.0000000000
0
SPLINE
5
399
100
AcDbEntity
8
0
100
AcDbSpline
62
7
6
CONTINUOUS
70
0
71
3
72
9
73
5
74
3
42
0.0000001000
43
0.0000001000
44
0.0000000001
12
0.0000000000
22
-0.0475573588
32
0.0000000000
13
0.0090083279
23
-0.0467385388
33
0.0000000000
40
0.0000000000
40
0.0000000000
40
0.0000000000
40
0.0000000000
40
0.7500208510
40
1.0000000000
40
1.0000000000
40
1.0000000000
40
1.0000000000
10
9.1285555669
20
-23.8448243164
30
0.0000000000
10
9.1285555669
20
-23.8567139867
30
0.0000000000
10
9.1296902802
20
-23.8725897183
30
0.0000000000
10
9.1323225255
20
-23.8882418279
30
0.0000000000
10
9.1330731569
20
-23.8921363813
30
0.0000000000
11
9.1285555669
21
-23.8448243164
31
0.0000000000
11
9.1311000928
21
-23.8804024518
31
0.0000000000
11
9.1330731569
21
-23.8921363813
31
0.0000000000
0
SPLINE
5
39A
100
AcDbEntity
8
0
100
AcDbSpline
62
7
6
CONTINUOUS
70
0
71
3
72
8
73
4
74
2
42
0.0000001000
43
0.0000001000
44
0.0000000001
12
-0.0416497754
22
-0.0319218918
32
0.0000000000
13
-0.0486092185
23
-0.0200274967
33
0.0000000000
40
0.0000000000
40
0.0000000000
40
0.0000000000
40
0.0000000000
40
1.0000000000
40
1.0000000000
40
1.0000000000
40
1.0000000000
10
-8.3498330020
20
22.8464292509
30
0.0000000000
10
-8.3637162605
20
22.8357886203
30
0.0000000000
10
-8.3789974472
20
22.8269571940
30
0.0000000000
10
-8.3952005200
20
22.8202813618
30
0.0000000000
11
-8.3498330020
21
22.8464292509
31
0.0000000000
11
-8.3952005200
21
22.8202813618
31
0.0000000000
0
SPLINE
5
39B
100
AcDbEntity
8
0
100
AcDbSpline
62
7
6
CONTINUOUS
70
0
71
3
72
9
73
5
74
3
42
0.0000001000
43
0.0000001000
44
0.0000000001
12
-0.0318163338
22
-0.0413574937
32
0.0000000000
13
-0.0414149367
23
-0.0317419029
33
0.0000000000
40
0.0000000000
40
0.0000000000
40
0.0000000000
40
0.0000000000
40
0.5002918871
40
1.0000000000
40
1.0000000000
40
1.0000000000
40
1.0000000000
10
9.0869837427
20
22.8831811807
30
0.0000000000
10
9.0816779248
20
22.8762842411
30
0.0000000000
10
9.0701797360
20
22.8631910217
30
0.0000000000
10
9.0570654579
20
22.8517164797
30
0.0000000000
10
9.0501669980
20
22.8464292509
30
0.0000000000
11
9.0869837427
21
22.8831811807
31
0.0000000000
11
9.0697685295
21
22.8635885202
31
0.0000000000
11
9.0501669980
21
22.8464292509
31
0.0000000000
0
SPLINE
5
39C
100
AcDbEntity
8
0
100
AcDbSpline
62
7
6
CONTINUOUS
70
0
71
3
72
8
73
4
74
2
42
0.0000001000
43
0.0000001000
44
0.0000000001
12
-0.0509980452
22
-0.0137276542
32
0.0000000000
13
-0.0523699770
23
0.0000000000
33
0.0000000000
40
0.0000000000
40
0.0000000000
40
0.0000000000
40
0.0000000000
40
1.0000000000
40
1.0000000000
40
1.0000000000
40
1.0000000000
10
8.9806534287
20
22.8121022721
30
0.0000000000
10
8.9636540803
20
22.8075263874
30
0.0000000000
10
8.9460697380
20
22.8051799143
30
0.0000000000
10
8.9286130790
20
22.8051799143
30
0.0000000000
11
8.9806534287
21
22.8121022721
31
0.0000000000
11
8.9286130790
21
22.8051799143
31
0.0000000000
0
SPLINE
5
39D
100
AcDbEntity
8
0
100
AcDbSpline
62
7
6
CONTINUOUS
70
0
71
3
72
8
73
4
74
2
42
0.0000001000
43
0.0000001000
44
0.0000000001
12
0.0509980452
22
0.0137276542
32
0.0000000000
13
0.0523699770
23
0.0000000000
33
0.0000000000
40
0.0000000000
40
0.0000000000
40
0.0000000000
40
0.0000000000
40
1.0000000000
40
1.0000000000
40
1.0000000000
40
1.0000000000
10
-5.2235422949
20
-22.0017424435
30
0.0000000000
10
-5.2065429464
20
-21.9971665587
30
0.0000000000
10
-5.1889586042
20
-21.9948200857
30
0.0000000000
10
-5.1715019452
20
-21.9948200857
30
0.0000000000
11
-5.2235422949
21
-22.0017424435
31
0.0000000000
11
-5.1715019452
21
-21.9948200857
31
0.0000000000
0
SPLINE
5
39E
100
AcDbEntity
8
0
100
AcDbSpline
62
7
6
CONTINUOUS
70
0
71
3
72
9
73
5
74
3
42
0.0000001000
43
0.0000001000
44
0.0000000001
12
-0.0475573588
22
0.0000000000
32
0.0000000000
13
-0.0467385388
23
-0.0090083279
33
0.0000000000
40
0.0000000000
40
0.0000000000
40
0.0000000000
40
0.0000000000
40
0.7500208510
40
1.0000000000
40
1.0000000000
40
1.0000000000
40
1.0000000000
10
-8.0214486639
20
24.9051799143
30
0.0000000000
10
-8.0333383341
20
24.9051799143
30
0.0000000000
10
-8.0492140658
20
24.9040452011
30
0.0000000000
10
-8.0648661753
20
24.9014129557
30
0.0000000000
10
-8.0687607287
20
24.9006623243
30
0.0000000000
11
-8.0214486639
21
24.9051799143
31
0.0000000000
11
-8.0570267992
21
24.9026353885
31
0.0000000000
11
-8.0687607287
21
24.9006623243
31
0.0000000000
0
SPLINE
5
39F
100
AcDbEntity
8
0
100
AcDbSpline
62
7
6
CONTINUOUS
70
0
71
3
72
9
73
5
74
3
42
0.0000001000
43
0.0000001000
44
0.0000000001
12
0.0000000000
22
0.0475573588
32
0.0000000000
13
-0.0090083279
23
0.0467385388
33
0.0000000000
40
0.0000000000
40
0.0000000000
40
0.0000000000
40
0.0000000000
40
0.7500208510
40
1.0000000000
40
1.0000000000
40
1.0000000000
40
1.0000000000
10
-5.3714444331
20
24.6551841451
30
0.0000000000
10
-5.3714444331
20
24.6670738154
30
0.0000000000
10
-5.3725791463
20
24.6829495470
30
0.0000000000
10
-5.3752113917
20
24.6986016566
30
0.0000000000
10
-5.3759620231
20
24.7024962100
30
0.0000000000
11
-5.3714444331
21
24.6551841451
31
0.0000000000
11
-5.3739889589
21
24.6907622805
31
0.0000000000
11
-5.3759620231
21
24.7024962100
31
0.0000000000
0
SPLINE
5
3A0
100
AcDbEntity
8
0
100
AcDbSpline
62
7
6
CONTINUOUS
70
0
71
3
72
9
73
5
74
3
42
0.0000001000
43
0.0000001000
44
0.0000000001
12
-0.0475573588
22
0.0000000000
32
0.0000000000
13
-0.0467385388
23
-0.0090083279
33
0.0000000000
40
0.0000000000
40
0.0000000000
40
0.0000000000
40
0.0000000000
40
0.7500208510
40
1.0000000000
40
1.0000000000
40
1.0000000000
40
1.0000000000
10
9.3785513361
20
24.9051799143
30
0.0000000000
10
9.3666616659
20
24.9051799143
30
0.0000000000
10
9.3507859342
20
24.9040452011
30
0.0000000000
10
9.3351338247
20
24.9014129557
30
0.0000000000
10
9.3312392713
20
24.9006623243
30
0.0000000000
11
9.3785513361
21
24.9051799143
31
0.0000000000
11
9.3429732008
21
24.9026353885
31
0.0000000000
11
9.3312392713
21
24.9006623243
31
0.0000000000
0
SPLINE
5
3A1
100
AcDbEntity
8
0
100
AcDbSpline
62
7
6
CONTINUOUS
70
0
71
3
72
9
73
5
74
3
42
0.0000001000
43
0.0000001000
44
0.0000000001
12
0.0000000000
22
0.0475573588
32
0.0000000000
13
-0.0090083279
23
0.0467385388
33
0.0000000000
40
0.0000000000
40
0.0000000000
40
0.0000000000
40
0.0000000000
40
0.7500208510
40
1.0000000000
40
1.0000000000
40
1.0000000000
40
1.0000000000
10
12.0285555669
20
24.6551841451
30
0.0000000000
10
12.0285555669
20
24.6670738154
30
0.0000000000
10
12.0274208537
20
24.6829495470
30
0.0000000000
10
12.0247886083
20
24.6986016566
30
0.0000000000
10
12.0240379769
20
24.7024962100
30
0.0000000000
11
12.0285555669
21
24.6551841451
31
0.0000000000
11
12.0260110411
21
24.6907622805
31
0.0000000000
11
12.0240379769
21
24.7024962100
31
0.0000000000
0
SPLINE
5
3A2
100
AcDbEntity
8
0
100
AcDbSpline
62
7
6
CONTINUOUS
70
0
71
3
72
20
73
16
74
14
42
0.0000001000
43
0.0000001000
44
0.0000000001
12
0.4645166834
22
-0.4879965431
32
0.0000000000
13
0.0392566728
23
-0.6725884989
33
0.0000000000
40
0.0000000000
40
0.0000000000
40
0.0000000000
40
0.0000000000
40
0.1376924970
40
0.2732041083
40
0.4019552266
40
0.5195374983
40
0.6233985078
40
0.7130440951
40
0.7890379647
40
0.8518561666
40
0.9022776034
40
0.9412923958
40
0.9701171226
40
0.9894788456
40
1.0000000000
40
1.0000000000
40
1.0000000000
40
1.0000000000
10
5.8315982768
20
-23.0511779004
30
0.0000000000
10
5.8529184309
20
-23.0735757212
30
0.0000000000
10
5.8952211095
20
-23.1180165575
30
0.0000000000
10
5.9574132485
20
-23.1834447341
30
0.0000000000
10
6.0164011341
20
-23.2456875708
30
0.0000000000
10
6.0703620981
20
-23.3029011116
30
0.0000000000
10
6.1181195261
20
-23.3538934618
30
0.0000000000
10
6.1592747014
20
-23.3982705261
30
0.0000000000
10
6.1939091660
20
-23.4361269187
30
0.0000000000
10
6.2222866324
20
-23.4677542313
30
0.0000000000
10
6.2447891953
20
-23.4935243710
30
0.0000000000
10
6.2617805784
20
-23.5138826819
30
0.0000000000
10
6.2739438282
20
-23.5293703694
30
0.0000000000
10
6.2811481661
20
-23.5401855747
30
0.0000000000
10
6.2844956447
20
-23.5463535562
30
0.0000000000
10
6.2846333199
20
-23.5487123587
30
0.0000000000
11
5.8315982768
21
-23.0511779004
31
0.0000000000
11
5.8955508115
21
-23.1183789080
31
0.0000000000
11
5.9584423863
21
-23.1845612042
31
0.0000000000
11
6.0181000893
21
-23.2475331213
31
0.0000000000
11
6.0724407007
21
-23.3051765072
31
0.0000000000
11
6.1202567989
21
-23.3562653151
31
0.0000000000
11
6.1613056927
21
-23.4005689346
31
0.0000000000
11
6.1958383343
21
-23.4383696581
31
0.0000000000
11
6.2240702325
21
-23.4699001411
31
0.0000000000
11
6.2463579693
21
-23.4955371856
31
0.0000000000
11
6.2631505938
21
-23.5157594110
31
0.0000000000
11
6.2749746265
21
-23.5311651056
31
0.0000000000
11
6.2820988665
21
-23.5420924887
31
0.0000000000
11
6.2846333199
21
-23.5487123587
31
0.0000000000
0
SPLINE
5
3A3
100
AcDbEntity
8
0
100
AcDbSpline
62
7
6
CONTINUOUS
70
0
71
3
72
20
73
16
74
14
42
0.0000001000
43
0.0000001000
44
0.0000000001
12
0.0392566707
22
0.6725884623
32
0.0000000000
13
0.4645166581
23
0.4879965165
33
0.0000000000
40
0.0000000000
40
0.0000000000
40
0.0000000000
40
0.0000000000
40
0.0105272862
40
0.0298989129
40
0.0587327465
40
0.0977498622
40
0.1481655874
40
0.2109758150
40
0.2869640673
40
0.3766131765
40
0.4804862274
40
0.5980619866
40
0.7267707712
40
0.8622612818
40
1.0000000000
40
1.0000000000
40
1.0000000000
40
1.0000000000
10
-2.5275221860
20
-23.5487123587
30
0.0000000000
10
-2.5273844306
20
-23.5463521816
30
0.0000000000
10
-2.5240342788
20
-23.5401811913
30
0.0000000000
10
-2.5168264863
20
-23.5293617703
30
0.0000000000
10
-2.5046596632
20
-23.5138706933
30
0.0000000000
10
-2.4876671551
20
-23.4935116839
30
0.0000000000
10
-2.4651660658
20
-23.4677436424
30
0.0000000000
10
-2.4367914075
20
-23.4361196407
30
0.0000000000
10
-2.4021584294
20
-23.3982649560
30
0.0000000000
10
-2.3610017089
20
-23.3538862834
30
0.0000000000
10
-2.3132428556
20
-23.3028924883
30
0.0000000000
10
-2.2592875385
20
-23.2456849894
30
0.0000000000
10
-2.2003104707
20
-23.1834535492
30
0.0000000000
10
-2.1381210188
20
-23.1180281586
30
0.0000000000
10
-2.0958144527
20
-23.0735832386
30
0.0000000000
10
-2.0744871430
20
-23.0511779004
30
0.0000000000
11
-2.5275221860
21
-23.5487123587
31
0.0000000000
11
-2.5249857217
21
-23.5420888354
31
0.0000000000
11
-2.5178571599
21
-23.5311563054
31
0.0000000000
11
-2.5060288309
21
-23.5157461754
31
0.0000000000
11
-2.4892348136
21
-23.4955230739
31
0.0000000000
11
-2.4669493734
21
-23.4698891341
31
0.0000000000
11
-2.4387209506
21
-23.4383627539
31
0.0000000000
11
-2.4041908166
21
-23.4005648695
31
0.0000000000
11
-2.3631402835
21
-23.3562595386
31
0.0000000000
11
-2.3153186078
21
-23.3051648443
31
0.0000000000
11
-2.2609809786
21
-23.2475246830
31
0.0000000000
11
-2.2013428964
21
-23.1845734728
31
0.0000000000
11
-2.1384611367
21
-23.1184014677
31
0.0000000000
11
-2.0744871430
21
-23.0511779004
31
0.0000000000
0
SPLINE
5
3A4
100
AcDbEntity
8
0
100
AcDbSpline
62
7
6
CONTINUOUS
70
0
71
3
72
13
73
9
74
7
42
0.0000001000
43
0.0000001000
44
0.0000000001
12
0.9168257723
22
0.0000000000
32
0.0000000000
13
0.0198448393
23
0.9166109748
33
0.0000000000
40
0.0000000000
40
0.0000000000
40
0.0000000000
40
0.0000000000
40
0.0555024500
40
0.1597912220
40
0.3140359924
40
0.5130520844
40
0.7490409209
40
1.0000000000
40
1.0000000000
40
1.0000000000
40
1.0000000000
10
-6.4424241044
20
15.1051799143
30
0.0000000000
10
-6.4254620789
20
15.1051799143
30
0.0000000000
10
-6.3851803068
20
15.1458700126
30
0.0000000000
10
-6.3542928324
20
15.2338159581
30
0.0000000000
10
-6.3197563512
20
15.3709772290
30
0.0000000000
10
-6.2941469236
20
15.5489044310
30
0.0000000000
10
-6.2752550770
20
15.7579237577
30
0.0000000000
10
-6.2690715191
20
15.9066332889
30
0.0000000000
10
-6.2674114383
20
15.9833105709
30
0.0000000000
11
-6.4424241044
21
15.1051799143
31
0.0000000000
11
-6.4004425911
21
15.1339365714
31
0.0000000000
11
-6.3601686519
21
15.2206554739
31
0.0000000000
11
-6.3252922597
21
15.3577029246
31
0.0000000000
11
-6.2972033679
21
15.5379910011
31
0.0000000000
11
-6.2773647974
21
15.7534402081
31
0.0000000000
11
-6.2674114383
21
15.9833105709
31
0.0000000000
0
SPLINE
5
3A5
100
AcDbEntity
8
0
100
AcDbSpline
62
7
6
CONTINUOUS
70
0
71
3
72
20
73
16
74
14
42
0.0000001000
43
0.0000001000
44
0.0000000001
12
-0.0392566671
22
-0.6725884001
32
0.0000000000
13
-0.4645166152
23
-0.4879964714
33
0.0000000000
40
0.0000000000
40
0.0000000000
40
0.0000000000
40
0.0000000000
40
0.0105350590
40
0.0299438888
40
0.0588398542
40
0.0978545055
40
0.1482120786
40
0.2109386931
40
0.2868777404
40
0.3764553953
40
0.4802422333
40
0.5976470591
40
0.7262204869
40
0.8618061527
40
1.0000000000
40
1.0000000000
40
1.0000000000
40
1.0000000000
10
6.2846333199
20
24.3590721874
30
0.0000000000
10
6.2844954628
20
24.3567102679
30
0.0000000000
10
6.2811392103
20
24.3505304177
30
0.0000000000
10
6.2739168171
20
24.3396924945
30
0.0000000000
10
6.2617343379
20
24.3241857222
30
0.0000000000
10
6.2447403182
20
24.3038275750
30
0.0000000000
10
6.2222600075
20
24.2780844328
30
0.0000000000
10
6.1939140297
20
24.2464923149
30
0.0000000000
10
6.1593122844
20
24.2086712429
30
0.0000000000
10
6.1181875243
20
24.1643263003
30
0.0000000000
10
6.0704795425
20
24.1133859778
30
0.0000000000
10
6.0165852023
20
24.0562421463
30
0.0000000000
10
5.9576412182
20
23.9940446903
30
0.0000000000
10
5.8953878251
20
23.9285515260
30
0.0000000000
10
5.8529960562
20
23.8840170990
30
0.0000000000
10
5.8315982768
20
23.8615377290
30
0.0000000000
11
6.2846333199
21
24.3590721874
31
0.0000000000
11
6.2820943060
21
24.3524440336
31
0.0000000000
11
6.2749505540
21
24.3414914874
31
0.0000000000
11
6.2630947346
21
24.3260496907
31
0.0000000000
11
6.2463001870
21
24.3058291909
31
0.0000000000
11
6.2240397314
21
24.2802254493
31
0.0000000000
11
6.1958488357
21
24.2487410877
31
0.0000000000
11
6.1613413119
21
24.2109674559
31
0.0000000000
11
6.1203238517
21
24.1666971181
31
0.0000000000
11
6.0725422864
21
24.1156444481
31
0.0000000000
11
6.0182841342
21
24.0580876423
31
0.0000000000
11
5.9587092383
21
23.9952022028
31
0.0000000000
11
5.8957836002
21
23.9289834672
31
0.0000000000
11
5.8315982768
21
23.8615377290
31
0.0000000000
0
SPLINE
5
3A6
100
AcDbEntity
8
0
100
AcDbSpline
62
7
6
CONTINUOUS
70
0
71
3
72
20
73
16
74
14
42
0.0000001000
43
0.0000001000
44
0.0000000001
12
-0.4645165876
22
0.4879964425
32
0.0000000000
13
-0.0392566647
23
0.6725883602
33
0.0000000000
40
0.0000000000
40
0.0000000000
40
0.0000000000
40
0.0000000000
40
0.1382329167
40
0.2737962112
40
0.4023280308
40
0.5197265990
40
0.6235247092
40
0.7131061512
40
0.7890389568
40
0.8517593797
40
0.9021124849
40
0.9411324929
40
0.9700381349
40
0.9894583388
40
1.0000000000
40
1.0000000000
40
1.0000000000
40
1.0000000000
10
-2.0744871430
20
23.8615377290
30
0.0000000000
10
-2.0958909706
20
23.8840234529
30
0.0000000000
10
-2.1382853226
20
23.9285605934
30
0.0000000000
10
-2.2005348412
20
23.9940497148
30
0.0000000000
10
-2.2594679701
20
24.0562357195
30
0.0000000000
10
-2.3133567064
20
24.1133735332
30
0.0000000000
10
-2.3610660904
20
24.1643152450
30
0.0000000000
10
-2.4021922459
20
24.2086615889
30
0.0000000000
10
-2.4367927518
20
24.2464811596
30
0.0000000000
10
-2.4651363258
20
24.2780703281
30
0.0000000000
10
-2.4876161096
20
24.3038123530
30
0.0000000000
10
-2.5046120083
20
24.3241719818
30
0.0000000000
10
-2.5167988215
20
24.3396830046
30
0.0000000000
10
-2.5240250316
20
24.3505255534
30
0.0000000000
10
-2.5273842425
20
24.3567087879
30
0.0000000000
10
-2.5275221860
20
24.3590721874
30
0.0000000000
11
-2.0744871430
21
23.8615377290
31
0.0000000000
11
-2.1386906041
21
23.9290025354
31
0.0000000000
11
-2.2016058414
21
23.9952103550
31
0.0000000000
11
-2.2611614604
21
24.0580754346
31
0.0000000000
11
-2.3154167591
21
24.1156291299
31
0.0000000000
11
-2.3632035639
21
24.1666872922
31
0.0000000000
11
-2.4042228084
21
24.2109594503
31
0.0000000000
11
-2.4387275752
21
24.2487299008
31
0.0000000000
11
-2.4669158422
21
24.2802110135
31
0.0000000000
11
-2.4891746059
21
24.3058122345
31
0.0000000000
11
-2.5059719084
21
24.3260351355
31
0.0000000000
11
-2.5178323198
21
24.3414816245
31
0.0000000000
11
-2.5249810061
21
24.3524401005
31
0.0000000000
11
-2.5275221860
21
24.3590721874
31
0.0000000000
0
SPLINE
5
3A7
100
AcDbEntity
8
0
100
AcDbSpline
62
7
6
CONTINUOUS
70
0
71
3
72
11
73
7
74
5
42
0.0000001000
43
0.0000001000
44
0.0000000001
12
0.0000000000
22
-0.0650167575
32
0.0000000000
13
-0.0420659776
23
-0.0494993135
33
0.0000000000
40
0.0000000000
40
0.0000000000
40
0.0000000000
40
0.0000000000
40
0.1049754499
40
0.3022888118
40
0.5985372888
40
1.0000000000
40
1.0000000000
40
1.0000000000
40
1.0000000000
10
-1.6214444331
20
24.3593278584
30
0.0000000000
10
-1.6214444331
20
24.3570528040
30
0.0000000000
10
-1.6247054869
20
24.3509482369
30
0.0000000000
10
-1.6317061201
20
24.3403100525
30
0.0000000000
10
-1.6437479856
20
24.3249312385
30
0.0000000000
10
-1.6534053343
20
24.3133349752
30
0.0000000000
10
-1.6590346414
20
24.3067109323
30
0.0000000000
11
-1.6214444331
21
24.3593278584
31
0.0000000000
11
-1.6237424711
21
24.3529012048
31
0.0000000000
11
-1.6306876236
21
24.3421151139
31
0.0000000000
11
-1.6423811191
21
24.3268097968
31
0.0000000000
11
-1.6590346414
21
24.3067109323
31
0.0000000000
0
SPLINE
5
3A8
100
AcDbEntity
8
0
100
AcDbSpline
62
7
6
CONTINUOUS
70
0
71
3
72
13
73
9
74
7
42
0.0000001000
43
0.0000001000
44
0.0000000001
12
0.0198448393
22
-0.9166109748
32
0.0000000000
13
0.9168257723
23
0.0000000000
33
0.0000000000
40
0.0000000000
40
0.0000000000
40
0.0000000000
40
0.0000000000
40
0.2509590791
40
0.4869479156
40
0.6859640076
40
0.8402087780
40
0.9444975500
40
1.0000000000
40
1.0000000000
40
1.0000000000
40
1.0000000000
10
-1.9754774279
20
15.9833105709
30
0.0000000000
10
-1.9738173470
20
15.9066332889
30
0.0000000000
10
-1.9676337891
20
15.7579237577
30
0.0000000000
10
-1.9487419426
20
15.5489044310
30
0.0000000000
10
-1.9231325149
20
15.3709772290
30
0.0000000000
10
-1.8885960338
20
15.2338159581
30
0.0000000000
10
-1.8577085593
20
15.1458700126
30
0.0000000000
10
-1.8174267873
20
15.1051799143
30
0.0000000000
10
-1.8004647618
20
15.1051799143
30
0.0000000000
11
-1.9754774279
21
15.9833105709
31
0.0000000000
11
-1.9655240688
21
15.7534402081
31
0.0000000000
11
-1.9456854982
21
15.5379910011
31
0.0000000000
11
-1.9175966064
21
15.3577029246
31
0.0000000000
11
-1.8827202143
21
15.2206554739
31
0.0000000000
11
-1.8424462751
21
15.1339365714
31
0.0000000000
11
-1.8004647618
21
15.1051799143
31
0.0000000000
0
SPLINE
5
3A9
100
AcDbEntity
8
0
100
AcDbSpline
62
7
6
CONTINUOUS
70
0
71
3
72
13
73
9
74
7
42
0.0000001000
43
0.0000001000
44
0.0000000001
12
0.0198448393
22
-0.9166109748
32
0.0000000000
13
0.9168257723
23
0.0000000000
33
0.0000000000
40
0.0000000000
40
0.0000000000
40
0.0000000000
40
0.0000000000
40
0.2509590791
40
0.4869479156
40
0.6859640076
40
0.8402087780
40
0.9444975500
40
1.0000000000
40
1.0000000000
40
1.0000000000
40
1.0000000000
10
10.0245225721
20
15.9833105709
30
0.0000000000
10
10.0261826530
20
15.9066332889
30
0.0000000000
10
10.0323662109
20
15.7579237577
30
0.0000000000
10
10.0512580574
20
15.5489044310
30
0.0000000000
10
10.0768674851
20
15.3709772290
30
0.0000000000
10
10.1114039662
20
15.2338159581
30
0.0000000000
10
10.1422914407
20
15.1458700126
30
0.0000000000
10
10.1825732127
20
15.1051799143
30
0.0000000000
10
10.1995352382
20
15.1051799143
30
0.0000000000
11
10.0245225721
21
15.9833105709
31
0.0000000000
11
10.0344759312
21
15.7534402081
31
0.0000000000
11
10.0543145018
21
15.5379910011
31
0.0000000000
11
10.0824033936
21
15.3577029246
31
0.0000000000
11
10.1172797857
21
15.2206554739
31
0.0000000000
11
10.1575537249
21
15.1339365714
31
0.0000000000
11
10.1995352382
21
15.1051799143
31
0.0000000000
0
SPLINE
5
3AA
100
AcDbEntity
8
0
100
AcDbSpline
62
7
6
CONTINUOUS
70
0
71
3
72
11
73
7
74
5
42
0.0000001000
43
0.0000001000
44
0.0000000001
12
0.0000000000
22
0.2000111798
32
0.0000000000
13
0.1414292616
23
0.1414292616
33
0.0000000000
40
0.0000000000
40
0.0000000000
40
0.0000000000
40
0.0000000000
40
0.3791283316
40
0.7029900008
40
0.9211892880
40
1.0000000000
40
1.0000000000
40
1.0000000000
40
1.0000000000
10
-4.7174399788
20
-19.8890778735
30
0.0000000000
10
-4.7174399788
20
-19.8638012385
30
0.0000000000
10
-4.7164120636
20
-19.8173773634
30
0.0000000000
10
-4.7194731418
20
-19.7543833615
30
0.0000000000
10
-4.7122682384
20
-19.7161467906
30
0.0000000000
10
-4.7194252166
20
-19.6928008691
30
0.0000000000
10
-4.7157098363
20
-19.6890854889
30
0.0000000000
11
-4.7174399788
21
-19.8890778735
31
0.0000000000
11
-4.7173096616
21
-19.8132480806
31
0.0000000000
11
-4.7169358569
21
-19.7484732046
31
0.0000000000
11
-4.7163736425
21
-19.7048345292
31
0.0000000000
11
-4.7157098363
21
-19.6890854889
31
0.0000000000
0
SPLINE
5
3AB
100
AcDbEntity
8
0
100
AcDbSpline
62
7
6
CONTINUOUS
70
0
71
3
72
9
73
5
74
3
42
0.0000001000
43
0.0000001000
44
0.0000000001
12
0.0000966056
22
0.0319099944
32
0.0000000000
13
0.0000761378
23
0.0319100498
33
0.0000000000
40
0.0000000000
40
0.0000000000
40
0.0000000000
40
0.0000000000
40
0.4965552946
40
1.0000000000
40
1.0000000000
40
1.0000000000
40
1.0000000000
10
-7.6456859064
20
-19.4162773473
30
0.0000000000
10
-7.6456699164
20
-19.4109956551
30
0.0000000000
10
-7.6456394230
20
-19.4003589850
30
0.0000000000
10
-7.6456123402
20
-19.3897223058
30
0.0000000000
10
-7.6455995632
20
-19.3843673239
30
0.0000000000
11
-7.6456859064
21
-19.4162773473
31
0.0000000000
11
-7.6456404741
21
-19.4004322631
31
0.0000000000
11
-7.6455995632
21
-19.3843673239
31
0.0000000000
0
SPLINE
5
3AC
100
AcDbEntity
8
0
100
AcDbSpline
62
7
6
CONTINUOUS
70
0
71
3
72
13
73
9
74
7
42
0.0000001000
43
0.0000001000
44
0.0000000001
12
0.3203017887
22
0.9616867950
32
0.0000000000
13
-0.7119176766
23
0.7215316690
33
0.0000000000
40
0.0000000000
40
0.0000000000
40
0.0000000000
40
0.0000000000
40
0.0313860885
40
0.1202190247
40
0.2673345323
40
0.4625179915
40
0.7094053493
40
1.0000000000
40
1.0000000000
40
1.0000000000
40
1.0000000000
10
-6.9602358649
20
-20.1612423418
30
0.0000000000
10
-6.9568848581
20
-20.1511811462
30
0.0000000000
10
-6.9949416886
20
-20.1164656028
30
0.0000000000
10
-7.0396325715
20
-20.0488178522
30
0.0000000000
10
-7.1446558835
20
-19.9397927795
30
0.0000000000
10
-7.2774888647
20
-19.7947365031
30
0.0000000000
10
-7.4500512315
20
-19.6159423652
30
0.0000000000
10
-7.5767260836
20
-19.4861684284
30
0.0000000000
10
-7.6456859064
20
-19.4162773473
30
0.0000000000
11
-6.9602358649
21
-20.1612423418
31
0.0000000000
11
-6.9755320540
21
-20.1333472036
31
0.0000000000
11
-7.0324454459
21
-20.0635714788
31
0.0000000000
11
-7.1317991449
21
-19.9523708307
31
0.0000000000
11
-7.2667004000
21
-19.8076524716
31
0.0000000000
11
-7.4397745939
21
-19.6269014552
31
0.0000000000
11
-7.6456859064
21
-19.4162773473
31
0.0000000000
0
SPLINE
5
3AD
100
AcDbEntity
8
0
100
AcDbSpline
62
7
6
CONTINUOUS
70
0
71
3
72
13
73
9
74
7
42
0.0000001000
43
0.0000001000
44
0.0000000001
12
-0.7119176766
22
-0.7215316690
32
0.0000000000
13
0.3203017887
23
-0.9616867950
33
0.0000000000
40
0.0000000000
40
0.0000000000
40
0.0000000000
40
0.0000000000
40
0.2905946507
40
0.5374820085
40
0.7326654677
40
0.8797809753
40
0.9686139115
40
1.0000000000
40
1.0000000000
40
1.0000000000
40
1.0000000000
10
11.4027970403
20
-19.4162773473
30
0.0000000000
10
11.3338372174
20
-19.4861684284
30
0.0000000000
10
11.2071623653
20
-19.6159423652
30
0.0000000000
10
11.0345999985
20
-19.7947365031
30
0.0000000000
10
10.9017670174
20
-19.9397927795
30
0.0000000000
10
10.7967437054
20
-20.0488178522
30
0.0000000000
10
10.7520528225
20
-20.1164656028
30
0.0000000000
10
10.7139959920
20
-20.1511811462
30
0.0000000000
10
10.7173469988
20
-20.1612423418
30
0.0000000000
11
11.4027970403
21
-19.4162773473
31
0.0000000000
11
11.1968857277
21
-19.6269014552
31
0.0000000000
11
11.0238115339
21
-19.8076524716
31
0.0000000000
11
10.8889102787
21
-19.9523708307
31
0.0000000000
11
10.7895565797
21
-20.0635714788
31
0.0000000000
11
10.7326431878
21
-20.1333472036
31
0.0000000000
11
10.7173469988
21
-20.1612423418
31
0.0000000000
0
SPLINE
5
3AE
100
AcDbEntity
8
0
100
AcDbSpline
62
7
6
CONTINUOUS
70
0
71
3
72
9
73
5
74
3
42
0.0000001000
43
0.0000001000
44
0.0000000001
12
0.0000761378
22
-0.0319100498
32
0.0000000000
13
0.0000966056
23
-0.0319099944
33
0.0000000000
40
0.0000000000
40
0.0000000000
40
0.0000000000
40
0.0000000000
40
0.5033880598
40
1.0000000000
40
1.0000000000
40
1.0000000000
40
1.0000000000
10
11.4027106970
20
-19.3843673239
30
0.0000000000
10
11.4027234726
20
-19.3897217032
30
0.0000000000
10
11.4027505552
20
-19.4003583825
30
0.0000000000
10
11.4027810484
20
-19.4109950526
30
0.0000000000
10
11.4027970403
20
-19.4162773473
30
0.0000000000
11
11.4027106970
21
-19.3843673239
31
0.0000000000
11
11.4027516030
21
-19.4004304556
31
0.0000000000
11
11.4027970403
21
-19.4162773473
31
0.0000000000
0
SPLINE
5
3AF
100
AcDbEntity
8
0
100
AcDbSpline
62
7
6
CONTINUOUS
70
0
71
3
72
13
73
9
74
7
42
0.0000001000
43
0.0000001000
44
0.0000000001
12
0.9168257723
22
0.0000000000
32
0.0000000000
13
0.0198448393
23
0.9166109748
33
0.0000000000
40
0.0000000000
40
0.0000000000
40
0.0000000000
40
0.0000000000
40
0.0555024500
40
0.1597912220
40
0.3140359924
40
0.5130520844
40
0.7490409209
40
1.0000000000
40
1.0000000000
40
1.0000000000
40
1.0000000000
10
5.5575758956
20
15.1051799143
30
0.0000000000
10
5.5745379211
20
15.1051799143
30
0.0000000000
10
5.6148196932
20
15.1458700126
30
0.0000000000
10
5.6457071676
20
15.2338159581
30
0.0000000000
10
5.6802436488
20
15.3709772290
30
0.0000000000
10
5.7058530764
20
15.5489044310
30
0.0000000000
10
5.7247449230
20
15.7579237577
30
0.0000000000
10
5.7309284809
20
15.9066332889
30
0.0000000000
10
5.7325885617
20
15.9833105709
30
0.0000000000
11
5.5575758956
21
15.1051799143
31
0.0000000000
11
5.5995574089
21
15.1339365714
31
0.0000000000
11
5.6398313481
21
15.2206554739
31
0.0000000000
11
5.6747077403
21
15.3577029246
31
0.0000000000
11
5.7027966321
21
15.5379910011
31
0.0000000000
11
5.7226352026
21
15.7534402081
31
0.0000000000
11
5.7325885617
21
15.9833105709
31
0.0000000000
0
SPLINE
5
3B0
100
AcDbEntity
8
0
100
AcDbSpline
62
7
6
CONTINUOUS
70
0
71
3
72
9
73
5
74
3
42
0.0000001000
43
0.0000001000
44
0.0000000001
12
0.0000000000
22
-0.1041607031
32
0.0000000000
13
-0.0524191799
23
-0.0908176635
33
0.0000000000
40
0.0000000000
40
0.0000000000
40
0.0000000000
40
0.0000000000
40
0.7510720168
40
1.0000000000
40
1.0000000000
40
1.0000000000
40
1.0000000000
10
-8.2714444331
20
23.0053934047
30
0.0000000000
10
-8.2714444331
20
22.9793160082
30
0.0000000000
10
-8.2783879727
20
22.9442154255
30
0.0000000000
10
-8.2938975812
20
22.9127924249
30
0.0000000000
10
-8.2982471148
20
22.9052567390
30
0.0000000000
11
-8.2714444331
21
23.0053934047
31
0.0000000000
11
-8.2867068278
21
22.9286644351
31
0.0000000000
11
-8.2982471148
21
22.9052567390
31
0.0000000000
0
SPLINE
5
3B1
100
AcDbEntity
8
0
100
AcDbSpline
62
7
6
CONTINUOUS
70
0
71
3
72
9
73
5
74
3
42
0.0000001000
43
0.0000001000
44
0.0000000001
12
-0.0393944768
22
-0.0682520089
32
0.0000000000
13
-0.0625045869
23
-0.0479057723
33
0.0000000000
40
0.0000000000
40
0.0000000000
40
0.0000000000
40
0.0000000000
40
0.6688982219
40
1.0000000000
40
1.0000000000
40
1.0000000000
40
1.0000000000
10
-8.2982471148
20
22.9052567390
30
0.0000000000
10
-8.3070307466
20
22.8900388565
30
0.0000000000
10
-8.3231421048
20
22.8690341812
30
0.0000000000
10
-8.3429345421
20
22.8517164797
30
0.0000000000
10
-8.3498330020
20
22.8464292509
30
0.0000000000
11
-8.2982471148
21
22.9052567390
31
0.0000000000
11
-8.3302314705
21
22.8635885202
31
0.0000000000
11
-8.3498330020
21
22.8464292509
31
0.0000000000
0
SPLINE
5
3B2
100
AcDbEntity
8
0
100
AcDbSpline
62
7
6
CONTINUOUS
70
0
71
3
72
8
73
4
74
2
42
0.0000001000
43
0.0000001000
44
0.0000000001
12
-0.0416497754
22
-0.0319218918
32
0.0000000000
13
-0.0486092185
23
-0.0200274967
33
0.0000000000
40
0.0000000000
40
0.0000000000
40
0.0000000000
40
0.0000000000
40
1.0000000000
40
1.0000000000
40
1.0000000000
40
1.0000000000
10
-8.3498330020
20
22.8464292509
30
0.0000000000
10
-8.3637162605
20
22.8357886203
30
0.0000000000
10
-8.3789974472
20
22.8269571940
30
0.0000000000
10
-8.3952005200
20
22.8202813618
30
0.0000000000
11
-8.3498330020
21
22.8464292509
31
0.0000000000
11
-8.3952005200
21
22.8202813618
31
0.0000000000
0
SPLINE
5
3B3
100
AcDbEntity
8
0
100
AcDbSpline
62
7
6
CONTINUOUS
70
0
71
3
72
8
73
4
74
2
42
0.0000001000
43
0.0000001000
44
0.0000000001
12
-0.0235758214
22
-0.0097134803
32
0.0000000000
13
-0.0246359397
23
-0.0066315024
33
0.0000000000
40
0.0000000000
40
0.0000000000
40
0.0000000000
40
0.0000000000
40
1.0000000000
40
1.0000000000
40
1.0000000000
40
1.0000000000
10
-8.3952005200
20
22.8202813618
30
0.0000000000
10
-8.4030591272
20
22.8170435350
30
0.0000000000
10
-8.4111345914
20
22.8143127730
30
0.0000000000
10
-8.4193465713
20
22.8121022721
30
0.0000000000
11
-8.3952005200
21
22.8202813618
31
0.0000000000
11
-8.4193465713
21
22.8121022721
31
0.0000000000
0
SPLINE
5
3B4
100
AcDbEntity
8
0
100
AcDbSpline
62
7
6
CONTINUOUS
70
0
71
3
72
8
73
4
74
2
42
0.0000001000
43
0.0000001000
44
0.0000000001
12
-0.0250470809
22
-0.0067421734
32
0.0000000000
13
-0.0256404483
23
-0.0034739419
33
0.0000000000
40
0.0000000000
40
0.0000000000
40
0.0000000000
40
0.0000000000
40
1.0000000000
40
1.0000000000
40
1.0000000000
40
1.0000000000
10
-8.4193465713
20
22.8121022721
30
0.0000000000
10
-8.4276955983
20
22.8098548810
30
0.0000000000
10
-8.4361857354
20
22.8081452609
30
0.0000000000
10
-8.4447325515
20
22.8069872803
30
0.0000000000
11
-8.4193465713
21
22.8121022721
31
0.0000000000
11
-8.4447325515
21
22.8069872803
31
0.0000000000
0
SPLINE
5
3B5
100
AcDbEntity
8
0
100
AcDbSpline
62
7
6
CONTINUOUS
70
0
71
3
72
8
73
4
74
2
42
0.0000001000
43
0.0000001000
44
0.0000000001
12
-0.0265657448
22
-0.0035993074
32
0.0000000000
13
-0.0266490882
23
0.0000000000
33
0.0000000000
40
0.0000000000
40
0.0000000000
40
0.0000000000
40
0.0000000000
40
1.0000000000
40
1.0000000000
40
1.0000000000
40
1.0000000000
10
-8.4447325515
20
22.8069872803
30
0.0000000000
10
-8.4535877998
20
22.8057875112
30
0.0000000000
10
-8.4625038916
20
22.8051799143
30
0.0000000000
10
-8.4713869210
20
22.8051799143
30
0.0000000000
11
-8.4447325515
21
22.8069872803
31
0.0000000000
11
-8.4713869210
21
22.8051799143
31
0.0000000000
0
SPLINE
5
3B6
100
AcDbEntity
8
0
100
AcDbSpline
62
7
6
CONTINUOUS
70
0
71
3
72
11
73
7
74
5
42
0.0000001000
43
0.0000001000
44
0.0000000001
12
-0.2853891063
22
0.0000000000
32
0.0000000000
13
-0.0387274575
23
0.2844878743
33
0.0000000000
40
0.0000000000
40
0.0000000000
40
0.0000000000
40
0.0000000000
40
0.2721500664
40
0.5457414701
40
0.8200674617
40
1.0000000000
40
1.0000000000
40
1.0000000000
40
1.0000000000
10
12.2284980548
20
22.8051799143
30
0.0000000000
10
12.2026085001
20
22.8051799143
30
0.0000000000
10
12.1501291067
20
22.8155294530
30
0.0000000000
10
12.0836207042
20
22.8599601306
30
0.0000000000
10
12.0441035643
20
22.9189380909
30
0.0000000000
10
12.0327100211
20
22.9614436944
30
0.0000000000
10
12.0303872445
20
22.9785065695
30
0.0000000000
11
12.2284980548
21
22.8051799143
31
0.0000000000
11
12.1523116539
21
22.8202813618
31
0.0000000000
11
12.0873426043
21
22.8635885202
31
0.0000000000
11
12.0438179616
21
22.9286644351
31
0.0000000000
11
12.0303872445
21
22.9785065695
31
0.0000000000
0
SPLINE
5
3B7
100
AcDbEntity
8
0
100
AcDbSpline
62
7
6
CONTINUOUS
70
0
71
3
72
8
73
4
74
2
42
0.0000001000
43
0.0000001000
44
0.0000000001
12
-0.0036478211
22
0.0267965141
32
0.0000000000
13
0.0000000000
23
0.0268814031
33
0.0000000000
40
0.0000000000
40
0.0000000000
40
0.0000000000
40
0.0000000000
40
1.0000000000
40
1.0000000000
40
1.0000000000
40
1.0000000000
10
12.0303872445
20
22.9785065695
30
0.0000000000
10
12.0291713041
20
22.9874387409
30
0.0000000000
10
12.0285555669
20
22.9964329370
30
0.0000000000
10
12.0285555669
20
23.0053934047
30
0.0000000000
11
12.0303872445
21
22.9785065695
31
0.0000000000
11
12.0285555669
21
23.0053934047
31
0.0000000000
0
SPLINE
5
3B8
100
AcDbEntity
8
0
100
AcDbSpline
62
7
6
CONTINUOUS
70
0
71
3
72
9
73
5
74
3
42
0.0000001000
43
0.0000001000
44
0.0000000001
12
0.0000000000
22
-0.1305730203
32
0.0000000000
13
-0.0800957467
23
-0.1041150550
33
0.0000000000
40
0.0000000000
40
0.0000000000
40
0.0000000000
40
0.0000000000
40
0.5991451310
40
1.0000000000
40
1.0000000000
40
1.0000000000
40
1.0000000000
10
9.1285555669
20
23.0053934047
30
0.0000000000
10
9.1285555669
20
22.9793160082
30
0.0000000000
10
9.1198513347
20
22.9353148738
30
0.0000000000
10
9.0976859994
20
22.8970928562
30
0.0000000000
10
9.0869837427
20
22.8831811807
30
0.0000000000
11
9.1285555669
21
23.0053934047
31
0.0000000000
11
9.1132931722
21
22.9286644351
31
0.0000000000
11
9.0869837427
21
22.8831811807
31
0.0000000000
0
SPLINE
5
3B9
100
AcDbEntity
8
0
100
AcDbSpline
62
7
6
CONTINUOUS
70
0
71
3
72
9
73
5
74
3
42
0.0000001000
43
0.0000001000
44
0.0000000001
12
-0.0318163338
22
-0.0413574937
32
0.0000000000
13
-0.0414149367
23
-0.0317419029
33
0.0000000000
40
0.0000000000
40
0.0000000000
40
0.0000000000
40
0.0000000000
40
0.5002918871
40
1.0000000000
40
1.0000000000
40
1.0000000000
40
1.0000000000
10
9.0869837427
20
22.8831811807
30
0.0000000000
10
9.0816779248
20
22.8762842411
30
0.0000000000
10
9.0701797360
20
22.8631910217
30
0.0000000000
10
9.0570654579
20
22.8517164797
30
0.0000000000
10
9.0501669980
20
22.8464292509
30
0.0000000000
11
9.0869837427
21
22.8831811807
31
0.0000000000
11
9.0697685295
21
22.8635885202
31
0.0000000000
11
9.0501669980
21
22.8464292509
31
0.0000000000
0
SPLINE
5
3BA
100
AcDbEntity
8
0
100
AcDbSpline
62
7
6
CONTINUOUS
70
0
71
3
72
9
73
5
74
3
42
0.0000001000
43
0.0000001000
44
0.0000000001
12
-0.0618502168
22
-0.0474042395
32
0.0000000000
13
-0.0754309367
23
-0.0203045001
33
0.0000000000
40
0.0000000000
40
0.0000000000
40
0.0000000000
40
0.0000000000
40
0.6733974044
40
1.0000000000
40
1.0000000000
40
1.0000000000
40
1.0000000000
10
9.0501669980
20
22.8464292509
30
0.0000000000
10
9.0362837395
20
22.8357886203
30
0.0000000000
10
9.0135910671
20
22.8226738886
30
0.0000000000
10
8.9888654086
20
22.8143127730
30
0.0000000000
10
8.9806534287
20
22.8121022721
30
0.0000000000
11
9.0501669980
21
22.8464292509
31
0.0000000000
11
9.0047994800
21
22.8202813618
31
0.0000000000
11
8.9806534287
21
22.8121022721
31
0.0000000000
0
SPLINE
5
3BB
100
AcDbEntity
8
0
100
AcDbSpline
62
7
6
CONTINUOUS
70
0
71
3
72
8
73
4
74
2
42
0.0000001000
43
0.0000001000
44
0.0000000001
12
-0.0509980452
22
-0.0137276542
32
0.0000000000
13
-0.0523699770
23
0.0000000000
33
0.0000000000
40
0.0000000000
40
0.0000000000
40
0.0000000000
40
0.0000000000
40
1.0000000000
40
1.0000000000
40
1.0000000000
40
1.0000000000
10
8.9806534287
20
22.8121022721
30
0.0000000000
10
8.9636540803
20
22.8075263874
30
0.0000000000
10
8.9460697380
20
22.8051799143
30
0.0000000000
10
8.9286130790
20
22.8051799143
30
0.0000000000
11
8.9806534287
21
22.8121022721
31
0.0000000000
11
8.9286130790
21
22.8051799143
31
0.0000000000
0
SPLINE
5
3BC
100
AcDbEntity
8
0
100
AcDbSpline
62
7
6
CONTINUOUS
70
0
71
3
72
9
73
5
74
3
42
0.0000001000
43
0.0000001000
44
0.0000000001
12
0.0000000000
22
0.1041607031
32
0.0000000000
13
0.0524191799
23
0.0908176635
33
0.0000000000
40
0.0000000000
40
0.0000000000
40
0.0000000000
40
0.0000000000
40
0.7510720168
40
1.0000000000
40
1.0000000000
40
1.0000000000
40
1.0000000000
10
-5.3714444331
20
-22.1950335760
30
0.0000000000
10
-5.3714444331
20
-22.1689561795
30
0.0000000000
10
-5.3645008934
20
-22.1338555968
30
0.0000000000
10
-5.3489912850
20
-22.1024325963
30
0.0000000000
10
-5.3446417514
20
-22.0948969103
30
0.0000000000
11
-5.3714444331
21
-22.1950335760
31
0.0000000000
11
-5.3561820384
21
-22.1183046065
31
0.0000000000
11
-5.3446417514
21
-22.0948969103
31
0.0000000000
0
SPLINE
5
3BD
100
AcDbEntity
8
0
100
AcDbSpline
62
7
6
CONTINUOUS
70
0
71
3
72
9
73
5
74
3
42
0.0000001000
43
0.0000001000
44
0.0000000001
12
0.0393944768
22
0.0682520089
32
0.0000000000
13
0.0625045869
23
0.0479057723
33
0.0000000000
40
0.0000000000
40
0.0000000000
40
0.0000000000
40
0.0000000000
40
0.6688982219
40
1.0000000000
40
1.0000000000
40
1.0000000000
40
1.0000000000
10
-5.3446417514
20
-22.0948969103
30
0.0000000000
10
-5.3358581196
20
-22.0796790279
30
0.0000000000
10
-5.3197467613
20
-22.0586743525
30
0.0000000000
10
-5.2999543241
20
-22.0413566510
30
0.0000000000
10
-5.2930558641
20
-22.0360694222
30
0.0000000000
11
-5.3446417514
21
-22.0948969103
31
0.0000000000
11
-5.3126573957
21
-22.0532286915
31
0.0000000000
11
-5.2930558641
21
-22.0360694222
31
0.0000000000
0
SPLINE
5
3BE
100
AcDbEntity
8
0
100
AcDbSpline
62
7
6
CONTINUOUS
70
0
71
3
72
9
73
5
74
3
42
0.0000001000
43
0.0000001000
44
0.0000000001
12
0.0618502168
22
0.0474042395
32
0.0000000000
13
0.0754309367
23
0.0203045001
33
0.0000000000
40
0.0000000000
40
0.0000000000
40
0.0000000000
40
0.0000000000
40
0.6733974044
40
1.0000000000
40
1.0000000000
40
1.0000000000
40
1.0000000000
10
-5.2930558641
20
-22.0360694222
30
0.0000000000
10
-5.2791726057
20
-22.0254287916
30
0.0000000000
10
-5.2564799333
20
-22.0123140599
30
0.0000000000
10
-5.2317542748
20
-22.0039529443
30
0.0000000000
10
-5.2235422949
20
-22.0017424435
30
0.0000000000
11
-5.2930558641
21
-22.0360694222
31
0.0000000000
11
-5.2476883461
21
-22.0099215331
31
0.0000000000
11
-5.2235422949
21
-22.0017424435
31
0.0000000000
0
SPLINE
5
3BF
100
AcDbEntity
8
0
100
AcDbSpline
62
7
6
CONTINUOUS
70
0
71
3
72
8
73
4
74
2
42
0.0000001000
43
0.0000001000
44
0.0000000001
12
0.0509980452
22
0.0137276542
32
0.0000000000
13
0.0523699770
23
0.0000000000
33
0.0000000000
40
0.0000000000
40
0.0000000000
40
0.0000000000
40
0.0000000000
40
1.0000000000
40
1.0000000000
40
1.0000000000
40
1.0000000000
10
-5.2235422949
20
-22.0017424435
30
0.0000000000
10
-5.2065429464
20
-21.9971665587
30
0.0000000000
10
-5.1889586042
20
-21.9948200857
30
0.0000000000
10
-5.1715019452
20
-21.9948200857
30
0.0000000000
11
-5.2235422949
21
-22.0017424435
31
0.0000000000
11
-5.1715019452
21
-21.9948200857
31
0.0000000000
0
SPLINE
5
3C0
100
AcDbEntity
8
0
100
AcDbSpline
62
7
6
CONTINUOUS
70
0
71
3
72
11
73
7
74
5
42
0.0000001000
43
0.0000001000
44
0.0000000001
12
0.0000000000
22
0.3122705094
32
0.0000000000
13
0.3122705094
23
0.0000000000
33
0.0000000000
40
0.0000000000
40
0.0000000000
40
0.0000000000
40
0.0000000000
40
0.2505269855
40
0.5012379788
40
0.7512776202
40
1.0000000000
40
1.0000000000
40
1.0000000000
40
1.0000000000
10
12.0285555669
20
-22.1950335760
30
0.0000000000
10
12.0285555669
20
-22.1689561795
30
0.0000000000
10
12.0389895940
20
-22.1162106854
30
0.0000000000
10
12.0836207042
20
-22.0496003019
30
0.0000000000
10
12.1501291067
20
-22.0051696243
30
0.0000000000
10
12.2026085001
20
-21.9948200857
30
0.0000000000
10
12.2284980548
20
-21.9948200857
30
0.0000000000
11
12.0285555669
21
-22.1950335760
31
0.0000000000
11
12.0438179616
21
-22.1183046065
31
0.0000000000
11
12.0873426043
21
-22.0532286915
31
0.0000000000
11
12.1523116539
21
-22.0099215331
31
0.0000000000
11
12.2284980548
21
-21.9948200857
31
0.0000000000
0
SPLINE
5
3C1
100
AcDbEntity
8
0
100
AcDbSpline
62
7
6
CONTINUOUS
70
0
71
3
72
9
73
5
74
3
42
0.0000001000
43
0.0000001000
44
0.0000000001
12
0.0000000000
22
-0.0475573588
32
0.0000000000
13
0.0090083279
23
-0.0467385388
33
0.0000000000
40
0.0000000000
40
0.0000000000
40
0.0000000000
40
0.0000000000
40
0.7500208510
40
1.0000000000
40
1.0000000000
40
1.0000000000
40
1.0000000000
10
-8.2714444331
20
-23.8448243164
30
0.0000000000
10
-8.2714444331
20
-23.8567139867
30
0.0000000000
10
-8.2703097198
20
-23.8725897183
30
0.0000000000
10
-8.2676774745
20
-23.8882418279
30
0.0000000000
10
-8.2669268431
20
-23.8921363813
30
0.0000000000
11
-8.2714444331
21
-23.8448243164
31
0.0000000000
11
-8.2688999072
21
-23.8804024518
31
0.0000000000
11
-8.2669268431
21
-23.8921363813
31
0.0000000000
0
SPLINE
5
3C2
100
AcDbEntity
8
0
100
AcDbSpline
62
7
6
CONTINUOUS
70
0
71
3
72
9
73
5
74
3
42
0.0000001000
43
0.0000001000
44
0.0000000001
12
0.0475573588
22
0.0000000000
32
0.0000000000
13
0.0467385388
23
0.0090083279
33
0.0000000000
40
0.0000000000
40
0.0000000000
40
0.0000000000
40
0.0000000000
40
0.7500208510
40
1.0000000000
40
1.0000000000
40
1.0000000000
40
1.0000000000
10
-5.6214402023
20
-24.0948200857
30
0.0000000000
10
-5.6095505321
20
-24.0948200857
30
0.0000000000
10
-5.5936748004
20
-24.0936853724
30
0.0000000000
10
-5.5780226908
20
-24.0910531270
30
0.0000000000
10
-5.5741281375
20
-24.0903024956
30
0.0000000000
11
-5.6214402023
21
-24.0948200857
31
0.0000000000
11
-5.5858620669
21
-24.0922755598
31
0.0000000000
11
-5.5741281375
21
-24.0903024956
31
0.0000000000
0
SPLINE
5
3C3
100
AcDbEntity
8
0
100
AcDbSpline
62
7
6
CONTINUOUS
70
0
71
3
72
9
73
5
74
3
42
0.0000001000
43
0.0000001000
44
0.0000000001
12
0.0475573588
22
0.0000000000
32
0.0000000000
13
0.0467385388
23
0.0090083279
33
0.0000000000
40
0.0000000000
40
0.0000000000
40
0.0000000000
40
0.0000000000
40
0.7500208510
40
1.0000000000
40
1.0000000000
40
1.0000000000
40
1.0000000000
10
11.7785597977
20
-24.0948200857
30
0.0000000000
10
11.7904494679
20
-24.0948200857
30
0.0000000000
10
11.8063251996
20
-24.0936853724
30
0.0000000000
10
11.8219773092
20
-24.0910531270
30
0.0000000000
10
11.8258718625
20
-24.0903024956
30
0.0000000000
11
11.7785597977
21
-24.0948200857
31
0.0000000000
11
11.8141379331
21
-24.0922755598
31
0.0000000000
11
11.8258718625
21
-24.0903024956
31
0.0000000000
0
SPLINE
5
3C4
100
AcDbEntity
8
0
100
AcDbSpline
62
7
6
CONTINUOUS
70
0
71
3
72
9
73
5
74
3
42
0.0000001000
43
0.0000001000
44
0.0000000001
12
0.0000000000
22
-0.0475573588
32
0.0000000000
13
0.0090083279
23
-0.0467385388
33
0.0000000000
40
0.0000000000
40
0.0000000000
40
0.0000000000
40
0.0000000000
40
0.7500208510
40
1.0000000000
40
1.0000000000
40
1.0000000000
40
1.0000000000
10
9.1285555669
20
-23.8448243164
30
0.0000000000
10
9.1285555669
20
-23.8567139867
30
0.0000000000
10
9.1296902802
20
-23.8725897183
30
0.0000000000
10
9.1323225255
20
-23.8882418279
30
0.0000000000
10
9.1330731569
20
-23.8921363813
30
0.0000000000
11
9.1285555669
21
-23.8448243164
31
0.0000000000
11
9.1311000928
21
-23.8804024518
31
0.0000000000
11
9.1330731569
21
-23.8921363813
31
0.0000000000
0
SPLINE
5
3C5
100
AcDbEntity
8
0
100
AcDbSpline
62
7
6
CONTINUOUS
70
0
71
3
72
9
73
5
74
3
42
0.0000001000
43
0.0000001000
44
0.0000000001
12
-0.0475573588
22
0.0000000000
32
0.0000000000
13
-0.0467385388
23
-0.0090083279
33
0.0000000000
40
0.0000000000
40
0.0000000000
40
0.0000000000
40
0.0000000000
40
0.7500208510
40
1.0000000000
40
1.0000000000
40
1.0000000000
40
1.0000000000
10
-8.0214486639
20
24.9051799143
30
0.0000000000
10
-8.0333383341
20
24.9051799143
30
0.0000000000
10
-8.0492140658
20
24.9040452011
30
0.0000000000
10
-8.0648661753
20
24.9014129557
30
0.0000000000
10
-8.0687607287
20
24.9006623243
30
0.0000000000
11
-8.0214486639
21
24.9051799143
31
0.0000000000
11
-8.0570267992
21
24.9026353885
31
0.0000000000
11
-8.0687607287
21
24.9006623243
31
0.0000000000
0
SPLINE
5
3C6
100
AcDbEntity
8
0
100
AcDbSpline
62
7
6
CONTINUOUS
70
0
71
3
72
9
73
5
74
3
42
0.0000001000
43
0.0000001000
44
0.0000000001
12
0.0000000000
22
0.0475573588
32
0.0000000000
13
-0.0090083279
23
0.0467385388
33
0.0000000000
40
0.0000000000
40
0.0000000000
40
0.0000000000
40
0.0000000000
40
0.7500208510
40
1.0000000000
40
1.0000000000
40
1.0000000000
40
1.0000000000
10
-5.3714444331
20
24.6551841451
30
0.0000000000
10
-5.3714444331
20
24.6670738154
30
0.0000000000
10
-5.3725791463
20
24.6829495470
30
0.0000000000
10
-5.3752113917
20
24.6986016566
30
0.0000000000
10
-5.3759620231
20
24.7024962100
30
0.0000000000
11
-5.3714444331
21
24.6551841451
31
0.0000000000
11
-5.3739889589
21
24.6907622805
31
0.0000000000
11
-5.3759620231
21
24.7024962100
31
0.0000000000
0
SPLINE
5
3C7
100
AcDbEntity
8
0
100
AcDbSpline
62
7
6
CONTINUOUS
70
0
71
3
72
9
73
5
74
3
42
0.0000001000
43
0.0000001000
44
0.0000000001
12
-0.0475573588
22
0.0000000000
32
0.0000000000
13
-0.0467385388
23
-0.0090083279
33
0.0000000000
40
0.0000000000
40
0.0000000000
40
0.0000000000
40
0.0000000000
40
0.7500208510
40
1.0000000000
40
1.0000000000
40
1.0000000000
40
1.0000000000
10
9.3785513361
20
24.9051799143
30
0.0000000000
10
9.3666616659
20
24.9051799143
30
0.0000000000
10
9.3507859342
20
24.9040452011
30
0.0000000000
10
9.3351338247
20
24.9014129557
30
0.0000000000
10
9.3312392713
20
24.9006623243
30
0.0000000000
11
9.3785513361
21
24.9051799143
31
0.0000000000
11
9.3429732008
21
24.9026353885
31
0.0000000000
11
9.3312392713
21
24.9006623243
31
0.0000000000
0
SPLINE
5
3C8
100
AcDbEntity
8
0
100
AcDbSpline
62
7
6
CONTINUOUS
70
0
71
3
72
9
73
5
74
3
42
0.0000001000
43
0.0000001000
44
0.0000000001
12
0.0000000000
22
0.0475573588
32
0.0000000000
13
-0.0090083279
23
0.0467385388
33
0.0000000000
40
0.0000000000
40
0.0000000000
40
0.0000000000
40
0.0000000000
40
0.7500208510
40
1.0000000000
40
1.0000000000
40
1.0000000000
40
1.0000000000
10
12.0285555669
20
24.6551841451
30
0.0000000000
10
12.0285555669
20
24.6670738154
30
0.0000000000
10
12.0274208537
20
24.6829495470
30
0.0000000000
10
12.0247886083
20
24.6986016566
30
0.0000000000
10
12.0240379769
20
24.7024962100
30
0.0000000000
11
12.0285555669
21
24.6551841451
31
0.0000000000
11
12.0260110411
21
24.6907622805
31
0.0000000000
11
12.0240379769
21
24.7024962100
31
0.0000000000
0
SPLINE
5
3C9
100
AcDbEntity
8
0
100
AcDbSpline
62
7
6
CONTINUOUS
70
0
71
3
72
20
73
16
74
14
42
0.0000001000
43
0.0000001000
44
0.0000000001
12
-0.0392566671
22
-0.6725884001
32
0.0000000000
13
-0.4645166152
23
-0.4879964714
33
0.0000000000
40
0.0000000000
40
0.0000000000
40
0.0000000000
40
0.0000000000
40
0.0105350590
40
0.0299438888
40
0.0588398542
40
0.0978545055
40
0.1482120786
40
0.2109386931
40
0.2868777404
40
0.3764553953
40
0.4802422333
40
0.5976470591
40
0.7262204869
40
0.8618061527
40
1.0000000000
40
1.0000000000
40
1.0000000000
40
1.0000000000
10
6.2846333199
20
24.3590721874
30
0.0000000000
10
6.2844954628
20
24.3567102679
30
0.0000000000
10
6.2811392103
20
24.3505304177
30
0.0000000000
10
6.2739168171
20
24.3396924945
30
0.0000000000
10
6.2617343379
20
24.3241857222
30
0.0000000000
10
6.2447403182
20
24.3038275750
30
0.0000000000
10
6.2222600075
20
24.2780844328
30
0.0000000000
10
6.1939140297
20
24.2464923149
30
0.0000000000
10
6.1593122844
20
24.2086712429
30
0.0000000000
10
6.1181875243
20
24.1643263003
30
0.0000000000
10
6.0704795425
20
24.1133859778
30
0.0000000000
10
6.0165852023
20
24.0562421463
30
0.0000000000
10
5.9576412182
20
23.9940446903
30
0.0000000000
10
5.8953878251
20
23.9285515260
30
0.0000000000
10
5.8529960562
20
23.8840170990
30
0.0000000000
10
5.8315982768
20
23.8615377290
30
0.0000000000
11
6.2846333199
21
24.3590721874
31
0.0000000000
11
6.2820943060
21
24.3524440336
31
0.0000000000
11
6.2749505540
21
24.3414914874
31
0.0000000000
11
6.2630947346
21
24.3260496907
31
0.0000000000
11
6.2463001870
21
24.3058291909
31
0.0000000000
11
6.2240397314
21
24.2802254493
31
0.0000000000
11
6.1958488357
21
24.2487410877
31
0.0000000000
11
6.1613413119
21
24.2109674559
31
0.0000000000
11
6.1203238517
21
24.1666971181
31
0.0000000000
11
6.0725422864
21
24.1156444481
31
0.0000000000
11
6.0182841342
21
24.0580876423
31
0.0000000000
11
5.9587092383
21
23.9952022028
31
0.0000000000
11
5.8957836002
21
23.9289834672
31
0.0000000000
11
5.8315982768
21
23.8615377290
31
0.0000000000
0
SPLINE
5
3CA
100
AcDbEntity
8
0
100
AcDbSpline
62
7
6
CONTINUOUS
70
0
71
3
72
20
73
16
74
14
42
0.0000001000
43
0.0000001000
44
0.0000000001
12
-0.4645165876
22
0.4879964425
32
0.0000000000
13
-0.0392566647
23
0.6725883602
33
0.0000000000
40
0.0000000000
40
0.0000000000
40
0.0000000000
40
0.0000000000
40
0.1382329167
40
0.2737962112
40
0.4023280308
40
0.5197265990
40
0.6235247092
40
0.7131061512
40
0.7890389568
40
0.8517593797
40
0.9021124849
40
0.9411324929
40
0.9700381349
40
0.9894583388
40
1.0000000000
40
1.0000000000
40
1.0000000000
40
1.0000000000
10
-2.0744871430
20
23.8615377290
30
0.0000000000
10
-2.0958909706
20
23.8840234529
30
0.0000000000
10
-2.1382853226
20
23.9285605934
30
0.0000000000
10
-2.2005348412
20
23.9940497148
30
0.0000000000
10
-2.2594679701
20
24.0562357195
30
0.0000000000
10
-2.3133567064
20
24.1133735332
30
0.0000000000
10
-2.3610660904
20
24.1643152450
30
0.0000000000
10
-2.4021922459
20
24.2086615889
30
0.0000000000
10
-2.4367927518
20
24.2464811596
30
0.0000000000
10
-2.4651363258
20
24.2780703281
30
0.0000000000
10
-2.4876161096
20
24.3038123530
30
0.0000000000
10
-2.5046120083
20
24.3241719818
30
0.0000000000
10
-2.5167988215
20
24.3396830046
30
0.0000000000
10
-2.5240250316
20
24.3505255534
30
0.0000000000
10
-2.5273842425
20
24.3567087879
30
0.0000000000
10
-2.5275221860
20
24.3590721874
30
0.0000000000
11
-2.0744871430
21
23.8615377290
31
0.0000000000
11
-2.1386906041
21
23.9290025354
31
0.0000000000
11
-2.2016058414
21
23.9952103550
31
0.0000000000
11
-2.2611614604
21
24.0580754346
31
0.0000000000
11
-2.3154167591
21
24.1156291299
31
0.0000000000
11
-2.3632035639
21
24.1666872922
31
0.0000000000
11
-2.4042228084
21
24.2109594503
31
0.0000000000
11
-2.4387275752
21
24.2487299008
31
0.0000000000
11
-2.4669158422
21
24.2802110135
31
0.0000000000
11
-2.4891746059
21
24.3058122345
31
0.0000000000
11
-2.5059719084
21
24.3260351355
31
0.0000000000
11
-2.5178323198
21
24.3414816245
31
0.0000000000
11
-2.5249810061
21
24.3524401005
31
0.0000000000
11
-2.5275221860
21
24.3590721874
31
0.0000000000
0
SPLINE
5
3CB
100
AcDbEntity
8
0
100
AcDbSpline
62
7
6
CONTINUOUS
70
0
71
3
72
11
73
7
74
5
42
0.0000001000
43
0.0000001000
44
0.0000000001
12
0.0000000000
22
-0.0650167575
32
0.0000000000
13
-0.0420659776
23
-0.0494993135
33
0.0000000000
40
0.0000000000
40
0.0000000000
40
0.0000000000
40
0.0000000000
40
0.1049754499
40
0.3022888118
40
0.5985372888
40
1.0000000000
40
1.0000000000
40
1.0000000000
40
1.0000000000
10
-1.6214444331
20
24.3593278584
30
0.0000000000
10
-1.6214444331
20
24.3570528040
30
0.0000000000
10
-1.6247054869
20
24.3509482369
30
0.0000000000
10
-1.6317061201
20
24.3403100525
30
0.0000000000
10
-1.6437479856
20
24.3249312385
30
0.0000000000
10
-1.6534053343
20
24.3133349752
30
0.0000000000
10
-1.6590346414
20
24.3067109323
30
0.0000000000
11
-1.6214444331
21
24.3593278584
31
0.0000000000
11
-1.6237424711
21
24.3529012048
31
0.0000000000
11
-1.6306876236
21
24.3421151139
31
0.0000000000
11
-1.6423811191
21
24.3268097968
31
0.0000000000
11
-1.6590346414
21
24.3067109323
31
0.0000000000
0
SPLINE
5
3CC
100
AcDbEntity
8
0
100
AcDbSpline
62
7
6
CONTINUOUS
70
0
71
3
72
13
73
9
74
7
42
0.0000001000
43
0.0000001000
44
0.0000000001
12
0.0198448393
22
-0.9166109748
32
0.0000000000
13
0.9168257723
23
0.0000000000
33
0.0000000000
40
0.0000000000
40
0.0000000000
40
0.0000000000
40
0.0000000000
40
0.2509590791
40
0.4869479156
40
0.6859640076
40
0.8402087780
40
0.9444975500
40
1.0000000000
40
1.0000000000
40
1.0000000000
40
1.0000000000
10
-1.9754774279
20
15.9833105709
30
0.0000000000
10
-1.9738173470
20
15.9066332889
30
0.0000000000
10
-1.9676337891
20
15.7579237577
30
0.0000000000
10
-1.9487419426
20
15.5489044310
30
0.0000000000
10
-1.9231325149
20
15.3709772290
30
0.0000000000
10
-1.8885960338
20
15.2338159581
30
0.0000000000
10
-1.8577085593
20
15.1458700126
30
0.0000000000
10
-1.8174267873
20
15.1051799143
30
0.0000000000
10
-1.8004647618
20
15.1051799143
30
0.0000000000
11
-1.9754774279
21
15.9833105709
31
0.0000000000
11
-1.9655240688
21
15.7534402081
31
0.0000000000
11
-1.9456854982
21
15.5379910011
31
0.0000000000
11
-1.9175966064
21
15.3577029246
31
0.0000000000
11
-1.8827202143
21
15.2206554739
31
0.0000000000
11
-1.8424462751
21
15.1339365714
31
0.0000000000
11
-1.8004647618
21
15.1051799143
31
0.0000000000
0
SPLINE
5
3CD
100
AcDbEntity
8
0
100
AcDbSpline
62
7
6
CONTINUOUS
70
0
71
3
72
13
73
9
74
7
42
0.0000001000
43
0.0000001000
44
0.0000000001
12
0.0198448393
22
-0.9166109748
32
0.0000000000
13
0.9168257723
23
0.0000000000
33
0.0000000000
40
0.0000000000
40
0.0000000000
40
0.0000000000
40
0.0000000000
40
0.2509590791
40
0.4869479156
40
0.6859640076
40
0.8402087780
40
0.9444975500
40
1.0000000000
40
1.0000000000
40
1.0000000000
40
1.0000000000
10
10.0245225721
20
15.9833105709
30
0.0000000000
10
10.0261826530
20
15.9066332889
30
0.0000000000
10
10.0323662109
20
15.7579237577
30
0.0000000000
10
10.0512580574
20
15.5489044310
30
0.0000000000
10
10.0768674851
20
15.3709772290
30
0.0000000000
10
10.1114039662
20
15.2338159581
30
0.0000000000
10
10.1422914407
20
15.1458700126
30
0.0000000000
10
10.1825732127
20
15.1051799143
30
0.0000000000
10
10.1995352382
20
15.1051799143
30
0.0000000000
11
10.0245225721
21
15.9833105709
31
0.0000000000
11
10.0344759312
21
15.7534402081
31
0.0000000000
11
10.0543145018
21
15.5379910011
31
0.0000000000
11
10.0824033936
21
15.3577029246
31
0.0000000000
11
10.1172797857
21
15.2206554739
31
0.0000000000
11
10.1575537249
21
15.1339365714
31
0.0000000000
11
10.1995352382
21
15.1051799143
31
0.0000000000
0
SPLINE
5
3CE
100
AcDbEntity
8
0
100
AcDbSpline
62
7
6
CONTINUOUS
70
0
71
3
72
9
73
5
74
3
42
0.0000001000
43
0.0000001000
44
0.0000000001
12
0.0000966056
22
0.0319099944
32
0.0000000000
13
0.0000761378
23
0.0319100498
33
0.0000000000
40
0.0000000000
40
0.0000000000
40
0.0000000000
40
0.0000000000
40
0.4965552946
40
1.0000000000
40
1.0000000000
40
1.0000000000
40
1.0000000000
10
-7.6456859064
20
-19.4162773473
30
0.0000000000
10
-7.6456699164
20
-19.4109956551
30
0.0000000000
10
-7.6456394230
20
-19.4003589850
30
0.0000000000
10
-7.6456123402
20
-19.3897223058
30
0.0000000000
10
-7.6455995632
20
-19.3843673239
30
0.0000000000
11
-7.6456859064
21
-19.4162773473
31
0.0000000000
11
-7.6456404741
21
-19.4004322631
31
0.0000000000
11
-7.6455995632
21
-19.3843673239
31
0.0000000000
0
SPLINE
5
3CF
100
AcDbEntity
8
0
100
AcDbSpline
62
7
6
CONTINUOUS
70
0
71
3
72
13
73
9
74
7
42
0.0000001000
43
0.0000001000
44
0.0000000001
12
0.3203017887
22
0.9616867950
32
0.0000000000
13
-0.7119176766
23
0.7215316690
33
0.0000000000
40
0.0000000000
40
0.0000000000
40
0.0000000000
40
0.0000000000
40
0.0313860885
40
0.1202190247
40
0.2673345323
40
0.4625179915
40
0.7094053493
40
1.0000000000
40
1.0000000000
40
1.0000000000
40
1.0000000000
10
-6.9602358649
20
-20.1612423418
30
0.0000000000
10
-6.9568848581
20
-20.1511811462
30
0.0000000000
10
-6.9949416886
20
-20.1164656028
30
0.0000000000
10
-7.0396325715
20
-20.0488178522
30
0.0000000000
10
-7.1446558835
20
-19.9397927795
30
0.0000000000
10
-7.2774888647
20
-19.7947365031
30
0.0000000000
10
-7.4500512315
20
-19.6159423652
30
0.0000000000
10
-7.5767260836
20
-19.4861684284
30
0.0000000000
10
-7.6456859064
20
-19.4162773473
30
0.0000000000
11
-6.9602358649
21
-20.1612423418
31
0.0000000000
11
-6.9755320540
21
-20.1333472036
31
0.0000000000
11
-7.0324454459
21
-20.0635714788
31
0.0000000000
11
-7.1317991449
21
-19.9523708307
31
0.0000000000
11
-7.2667004000
21
-19.8076524716
31
0.0000000000
11
-7.4397745939
21
-19.6269014552
31
0.0000000000
11
-7.6456859064
21
-19.4162773473
31
0.0000000000
0
SPLINE
5
3D0
100
AcDbEntity
8
0
100
AcDbSpline
62
7
6
CONTINUOUS
70
0
71
3
72
13
73
9
74
7
42
0.0000001000
43
0.0000001000
44
0.0000000001
12
-0.7119176766
22
-0.7215316690
32
0.0000000000
13
0.3203017887
23
-0.9616867950
33
0.0000000000
40
0.0000000000
40
0.0000000000
40
0.0000000000
40
0.0000000000
40
0.2905946507
40
0.5374820085
40
0.7326654677
40
0.8797809753
40
0.9686139115
40
1.0000000000
40
1.0000000000
40
1.0000000000
40
1.0000000000
10
11.4027970403
20
-19.4162773473
30
0.0000000000
10
11.3338372174
20
-19.4861684284
30
0.0000000000
10
11.2071623653
20
-19.6159423652
30
0.0000000000
10
11.0345999985
20
-19.7947365031
30
0.0000000000
10
10.9017670174
20
-19.9397927795
30
0.0000000000
10
10.7967437054
20
-20.0488178522
30
0.0000000000
10
10.7520528225
20
-20.1164656028
30
0.0000000000
10
10.7139959920
20
-20.1511811462
30
0.0000000000
10
10.7173469988
20
-20.1612423418
30
0.0000000000
11
11.4027970403
21
-19.4162773473
31
0.0000000000
11
11.1968857277
21
-19.6269014552
31
0.0000000000
11
11.0238115339
21
-19.8076524716
31
0.0000000000
11
10.8889102787
21
-19.9523708307
31
0.0000000000
11
10.7895565797
21
-20.0635714788
31
0.0000000000
11
10.7326431878
21
-20.1333472036
31
0.0000000000
11
10.7173469988
21
-20.1612423418
31
0.0000000000
0
SPLINE
5
3D1
100
AcDbEntity
8
0
100
AcDbSpline
62
7
6
CONTINUOUS
70
0
71
3
72
9
73
5
74
3
42
0.0000001000
43
0.0000001000
44
0.0000000001
12
0.0000761378
22
-0.0319100498
32
0.0000000000
13
0.0000966056
23
-0.0319099944
33
0.0000000000
40
0.0000000000
40
0.0000000000
40
0.0000000000
40
0.0000000000
40
0.5033880598
40
1.0000000000
40
1.0000000000
40
1.0000000000
40
1.0000000000
10
11.4027106970
20
-19.3843673239
30
0.0000000000
10
11.4027234726
20
-19.3897217032
30
0.0000000000
10
11.4027505552
20
-19.4003583825
30
0.0000000000
10
11.4027810484
20
-19.4109950526
30
0.0000000000
10
11.4027970403
20
-19.4162773473
30
0.0000000000
11
11.4027106970
21
-19.3843673239
31
0.0000000000
11
11.4027516030
21
-19.4004304556
31
0.0000000000
11
11.4027970403
21
-19.4162773473
31
0.0000000000
0
SPLINE
5
3D2
100
AcDbEntity
8
0
100
AcDbSpline
62
7
6
CONTINUOUS
70
0
71
3
72
13
73
9
74
7
42
0.0000001000
43
0.0000001000
44
0.0000000001
12
0.9168257723
22
0.0000000000
32
0.0000000000
13
0.0198448393
23
0.9166109748
33
0.0000000000
40
0.0000000000
40
0.0000000000
40
0.0000000000
40
0.0000000000
40
0.0555024500
40
0.1597912220
40
0.3140359924
40
0.5130520844
40
0.7490409209
40
1.0000000000
40
1.0000000000
40
1.0000000000
40
1.0000000000
10
-6.4424241044
20
15.1051799143
30
0.0000000000
10
-6.4254620789
20
15.1051799143
30
0.0000000000
10
-6.3851803068
20
15.1458700126
30
0.0000000000
10
-6.3542928324
20
15.2338159581
30
0.0000000000
10
-6.3197563512
20
15.3709772290
30
0.0000000000
10
-6.2941469236
20
15.5489044310
30
0.0000000000
10
-6.2752550770
20
15.7579237577
30
0.0000000000
10
-6.2690715191
20
15.9066332889
30
0.0000000000
10
-6.2674114383
20
15.9833105709
30
0.0000000000
11
-6.4424241044
21
15.1051799143
31
0.0000000000
11
-6.4004425911
21
15.1339365714
31
0.0000000000
11
-6.3601686519
21
15.2206554739
31
0.0000000000
11
-6.3252922597
21
15.3577029246
31
0.0000000000
11
-6.2972033679
21
15.5379910011
31
0.0000000000
11
-6.2773647974
21
15.7534402081
31
0.0000000000
11
-6.2674114383
21
15.9833105709
31
0.0000000000
0
SPLINE
5
3D3
100
AcDbEntity
8
0
100
AcDbSpline
62
7
6
CONTINUOUS
70
0
71
3
72
13
73
9
74
7
42
0.0000001000
43
0.0000001000
44
0.0000000001
12
0.9168257723
22
0.0000000000
32
0.0000000000
13
0.0198448393
23
0.9166109748
33
0.0000000000
40
0.0000000000
40
0.0000000000
40
0.0000000000
40
0.0000000000
40
0.0555024500
40
0.1597912220
40
0.3140359924
40
0.5130520844
40
0.7490409209
40
1.0000000000
40
1.0000000000
40
1.0000000000
40
1.0000000000
10
5.5575758956
20
15.1051799143
30
0.0000000000
10
5.5745379211
20
15.1051799143
30
0.0000000000
10
5.6148196932
20
15.1458700126
30
0.0000000000
10
5.6457071676
20
15.2338159581
30
0.0000000000
10
5.6802436488
20
15.3709772290
30
0.0000000000
10
5.7058530764
20
15.5489044310
30
0.0000000000
10
5.7247449230
20
15.7579237577
30
0.0000000000
10
5.7309284809
20
15.9066332889
30
0.0000000000
10
5.7325885617
20
15.9833105709
30
0.0000000000
11
5.5575758956
21
15.1051799143
31
0.0000000000
11
5.5995574089
21
15.1339365714
31
0.0000000000
11
5.6398313481
21
15.2206554739
31
0.0000000000
11
5.6747077403
21
15.3577029246
31
0.0000000000
11
5.7027966321
21
15.5379910011
31
0.0000000000
11
5.7226352026
21
15.7534402081
31
0.0000000000
11
5.7325885617
21
15.9833105709
31
0.0000000000
0
SPLINE
5
3D4
100
AcDbEntity
8
0
100
AcDbSpline
62
7
6
CONTINUOUS
70
0
71
3
72
20
73
16
74
14
42
0.0000001000
43
0.0000001000
44
0.0000000001
12
0.4645166834
22
-0.4879965431
32
0.0000000000
13
0.0392566728
23
-0.6725884989
33
0.0000000000
40
0.0000000000
40
0.0000000000
40
0.0000000000
40
0.0000000000
40
0.1376924970
40
0.2732041083
40
0.4019552266
40
0.5195374983
40
0.6233985078
40
0.7130440951
40
0.7890379647
40
0.8518561666
40
0.9022776034
40
0.9412923958
40
0.9701171226
40
0.9894788456
40
1.0000000000
40
1.0000000000
40
1.0000000000
40
1.0000000000
10
5.8315982768
20
-23.0511779004
30
0.0000000000
10
5.8529184309
20
-23.0735757212
30
0.0000000000
10
5.8952211095
20
-23.1180165575
30
0.0000000000
10
5.9574132485
20
-23.1834447341
30
0.0000000000
10
6.0164011341
20
-23.2456875708
30
0.0000000000
10
6.0703620981
20
-23.3029011116
30
0.0000000000
10
6.1181195261
20
-23.3538934618
30
0.0000000000
10
6.1592747014
20
-23.3982705261
30
0.0000000000
10
6.1939091660
20
-23.4361269187
30
0.0000000000
10
6.2222866324
20
-23.4677542313
30
0.0000000000
10
6.2447891953
20
-23.4935243710
30
0.0000000000
10
6.2617805784
20
-23.5138826819
30
0.0000000000
10
6.2739438282
20
-23.5293703694
30
0.0000000000
10
6.2811481661
20
-23.5401855747
30
0.0000000000
10
6.2844956447
20
-23.5463535562
30
0.0000000000
10
6.2846333199
20
-23.5487123587
30
0.0000000000
11
5.8315982768
21
-23.0511779004
31
0.0000000000
11
5.8955508115
21
-23.1183789080
31
0.0000000000
11
5.9584423863
21
-23.1845612042
31
0.0000000000
11
6.0181000893
21
-23.2475331213
31
0.0000000000
11
6.0724407007
21
-23.3051765072
31
0.0000000000
11
6.1202567989
21
-23.3562653151
31
0.0000000000
11
6.1613056927
21
-23.4005689346
31
0.0000000000
11
6.1958383343
21
-23.4383696581
31
0.0000000000
11
6.2240702325
21
-23.4699001411
31
0.0000000000
11
6.2463579693
21
-23.4955371856
31
0.0000000000
11
6.2631505938
21
-23.5157594110
31
0.0000000000
11
6.2749746265
21
-23.5311651056
31
0.0000000000
11
6.2820988665
21
-23.5420924887
31
0.0000000000
11
6.2846333199
21
-23.5487123587
31
0.0000000000
0
SPLINE
5
3D5
100
AcDbEntity
8
0
100
AcDbSpline
62
7
6
CONTINUOUS
70
0
71
3
72
20
73
16
74
14
42
0.0000001000
43
0.0000001000
44
0.0000000001
12
0.0392566707
22
0.6725884623
32
0.0000000000
13
0.4645166581
23
0.4879965165
33
0.0000000000
40
0.0000000000
40
0.0000000000
40
0.0000000000
40
0.0000000000
40
0.0105272862
40
0.0298989129
40
0.0587327465
40
0.0977498622
40
0.1481655874
40
0.2109758150
40
0.2869640673
40
0.3766131765
40
0.4804862274
40
0.5980619866
40
0.7267707712
40
0.8622612818
40
1.0000000000
40
1.0000000000
40
1.0000000000
40
1.0000000000
10
-2.5275221860
20
-23.5487123587
30
0.0000000000
10
-2.5273844306
20
-23.5463521816
30
0.0000000000
10
-2.5240342788
20
-23.5401811913
30
0.0000000000
10
-2.5168264863
20
-23.5293617703
30
0.0000000000
10
-2.5046596632
20
-23.5138706933
30
0.0000000000
10
-2.4876671551
20
-23.4935116839
30
0.0000000000
10
-2.4651660658
20
-23.4677436424
30
0.0000000000
10
-2.4367914075
20
-23.4361196407
30
0.0000000000
10
-2.4021584294
20
-23.3982649560
30
0.0000000000
10
-2.3610017089
20
-23.3538862834
30
0.0000000000
10
-2.3132428556
20
-23.3028924883
30
0.0000000000
10
-2.2592875385
20
-23.2456849894
30
0.0000000000
10
-2.2003104707
20
-23.1834535492
30
0.0000000000
10
-2.1381210188
20
-23.1180281586
30
0.0000000000
10
-2.0958144527
20
-23.0735832386
30
0.0000000000
10
-2.0744871430
20
-23.0511779004
30
0.0000000000
11
-2.5275221860
21
-23.5487123587
31
0.0000000000
11
-2.5249857217
21
-23.5420888354
31
0.0000000000
11
-2.5178571599
21
-23.5311563054
31
0.0000000000
11
-2.5060288309
21
-23.5157461754
31
0.0000000000
11
-2.4892348136
21
-23.4955230739
31
0.0000000000
11
-2.4669493734
21
-23.4698891341
31
0.0000000000
11
-2.4387209506
21
-23.4383627539
31
0.0000000000
11
-2.4041908166
21
-23.4005648695
31
0.0000000000
11
-2.3631402835
21
-23.3562595386
31
0.0000000000
11
-2.3153186078
21
-23.3051648443
31
0.0000000000
11
-2.2609809786
21
-23.2475246830
31
0.0000000000
11
-2.2013428964
21
-23.1845734728
31
0.0000000000
11
-2.1384611367
21
-23.1184014677
31
0.0000000000
11
-2.0744871430
21
-23.0511779004
31
0.0000000000
0
SPLINE
5
3D6
100
AcDbEntity
8
0
100
AcDbSpline
62
7
6
CONTINUOUS
70
0
71
3
72
9
73
5
74
3
42
0.0000001000
43
0.0000001000
44
0.0000000001
12
0.0000000000
22
-0.2078755955
32
0.0000000000
13
-0.0846472469
23
-0.1908299526
33
0.0000000000
40
0.0000000000
40
0.0000000000
40
0.0000000000
40
0.0000000000
40
0.7492491067
40
1.0000000000
40
1.0000000000
40
1.0000000000
40
1.0000000000
10
11.3785555669
20
16.4052377995
30
0.0000000000
10
11.3785555669
20
16.3533209314
30
0.0000000000
10
11.3675904151
20
16.2835478673
30
0.0000000000
10
11.3426949763
20
16.2184431802
30
0.0000000000
10
11.3356198520
20
16.2024929198
30
0.0000000000
11
11.3785555669
21
16.4052377995
31
0.0000000000
11
11.3543042025
21
16.2513868260
31
0.0000000000
11
11.3356198520
21
16.2024929198
31
0.0000000000
0
SPLINE
5
3D7
100
AcDbEntity
8
0
100
AcDbSpline
62
7
6
CONTINUOUS
70
0
71
3
72
8
73
4
74
2
42
0.0000001000
43
0.0000001000
44
0.0000000001
12
-0.0080308046
22
-0.0181047596
32
0.0000000000
13
-0.0087388885
23
-0.0177696279
33
0.0000000000
40
0.0000000000
40
0.0000000000
40
0.0000000000
40
0.0000000000
40
1.0000000000
40
1.0000000000
40
1.0000000000
40
1.0000000000
10
11.3356198520
20
16.2024929198
30
0.0000000000
10
11.3329429171
20
16.1964580000
30
0.0000000000
10
11.3301467954
20
16.1904767345
30
0.0000000000
10
11.3272338325
20
16.1845535252
30
0.0000000000
11
11.3356198520
21
16.2024929198
31
0.0000000000
11
11.3272338325
21
16.1845535252
31
0.0000000000
0
SPLINE
5
3D8
100
AcDbEntity
8
0
100
AcDbSpline
62
7
6
CONTINUOUS
70
0
71
3
72
8
73
4
74
2
42
0.0000001000
43
0.0000001000
44
0.0000000001
12
-0.0175391196
22
-0.0043865742
32
0.0000000000
13
-0.0176838432
23
-0.0037523560
33
0.0000000000
40
0.0000000000
40
0.0000000000
40
0.0000000000
40
0.0000000000
40
1.0000000000
40
1.0000000000
40
1.0000000000
40
1.0000000000
10
11.0001147096
20
15.9201965570
30
0.0000000000
10
10.9942683364
20
15.9187343656
30
0.0000000000
10
10.9883955488
20
15.9173775734
30
0.0000000000
10
10.9825009344
20
15.9161267880
30
0.0000000000
11
11.0001147096
21
15.9201965570
31
0.0000000000
11
10.9825009344
21
15.9161267880
31
0.0000000000
0
SPLINE
5
3D9
100
AcDbEntity
8
0
100
AcDbSpline
62
7
6
CONTINUOUS
70
0
71
3
72
8
73
4
74
2
42
0.0000001000
43
0.0000001000
44
0.0000000001
12
-0.1026196389
22
-0.0217749849
32
0.0000000000
13
-0.1043402356
23
0.0000000000
33
0.0000000000
40
0.0000000000
40
0.0000000000
40
0.0000000000
40
0.0000000000
40
1.0000000000
40
1.0000000000
40
1.0000000000
40
1.0000000000
10
10.9825009344
20
15.9161267880
30
0.0000000000
10
10.9482943881
20
15.9088684597
30
0.0000000000
10
10.9133528250
20
15.9051799143
30
0.0000000000
10
10.8785727464
20
15.9051799143
30
0.0000000000
11
10.9825009344
21
15.9161267880
31
0.0000000000
11
10.8785727464
21
15.9051799143
31
0.0000000000
0
SPLINE
5
3DA
100
AcDbEntity
8
0
100
AcDbSpline
62
7
6
CONTINUOUS
70
0
71
3
72
8
73
4
74
2
42
0.0000001000
43
0.0000001000
44
0.0000000001
12
-0.1043402356
22
0.0000000000
32
0.0000000000
13
-0.1026196389
23
0.0217749849
33
0.0000000000
40
0.0000000000
40
0.0000000000
40
0.0000000000
40
0.0000000000
40
1.0000000000
40
1.0000000000
40
1.0000000000
40
1.0000000000
10
-7.1214616126
20
15.9051799143
30
0.0000000000
10
-7.1562416911
20
15.9051799143
30
0.0000000000
10
-7.1911832543
20
15.9088684597
30
0.0000000000
10
-7.2253898005
20
15.9161267880
30
0.0000000000
11
-7.1214616126
21
15.9051799143
31
0.0000000000
11
-7.2253898005
21
15.9161267880
31
0.0000000000
0
SPLINE
5
3DB
100
AcDbEntity
8
0
100
AcDbSpline
62
7
6
CONTINUOUS
70
0
71
3
72
8
73
4
74
2
42
0.0000001000
43
0.0000001000
44
0.0000000001
12
-0.0176838432
22
0.0037523560
32
0.0000000000
13
-0.0175391196
23
0.0043865742
33
0.0000000000
40
0.0000000000
40
0.0000000000
40
0.0000000000
40
0.0000000000
40
1.0000000000
40
1.0000000000
40
1.0000000000
40
1.0000000000
10
-7.2253898005
20
15.9161267880
30
0.0000000000
10
-7.2312844149
20
15.9173775734
30
0.0000000000
10
-7.2371572025
20
15.9187343656
30
0.0000000000
10
-7.2430035757
20
15.9201965570
30
0.0000000000
11
-7.2253898005
21
15.9161267880
31
0.0000000000
11
-7.2430035757
21
15.9201965570
31
0.0000000000
0
SPLINE
5
3DC
100
AcDbEntity
8
0
100
AcDbSpline
62
7
6
CONTINUOUS
70
0
71
3
72
8
73
4
74
2
42
0.0000001000
43
0.0000001000
44
0.0000000001
12
-0.0087388885
22
0.0177696279
32
0.0000000000
13
-0.0080308046
23
0.0181047596
33
0.0000000000
40
0.0000000000
40
0.0000000000
40
0.0000000000
40
0.0000000000
40
1.0000000000
40
1.0000000000
40
1.0000000000
40
1.0000000000
10
-7.5701226987
20
16.1845535252
30
0.0000000000
10
-7.5730356615
20
16.1904767345
30
0.0000000000
10
-7.5758317833
20
16.1964580000
30
0.0000000000
10
-7.5785087182
20
16.2024929198
30
0.0000000000
11
-7.5701226987
21
16.1845535252
31
0.0000000000
11
-7.5785087182
21
16.2024929198
31
0.0000000000
0
SPLINE
5
3DD
100
AcDbEntity
8
0
100
AcDbSpline
62
7
6
CONTINUOUS
70
0
71
3
72
8
73
4
74
2
42
0.0000001000
43
0.0000001000
44
0.0000000001
12
-0.0050266193
22
0.0113320817
32
0.0000000000
13
-0.0047447286
23
0.0114549652
33
0.0000000000
40
0.0000000000
40
0.0000000000
40
0.0000000000
40
0.0000000000
40
1.0000000000
40
1.0000000000
40
1.0000000000
40
1.0000000000
10
-7.5785087182
20
16.2024929198
30
0.0000000000
10
-7.5801842579
20
16.2062702804
30
0.0000000000
10
-7.5818131035
20
16.2100686613
30
0.0000000000
10
-7.5833946797
20
16.2138869830
30
0.0000000000
11
-7.5785087182
21
16.2024929198
31
0.0000000000
11
-7.5833946797
21
16.2138869830
31
0.0000000000
0
SPLINE
5
3DE
100
AcDbEntity
8
0
100
AcDbSpline
62
7
6
CONTINUOUS
70
0
71
3
72
9
73
5
74
3
42
0.0000001000
43
0.0000001000
44
0.0000000001
12
-0.0751555374
22
0.1814443206
32
0.0000000000
13
0.0000000000
23
0.1955312900
33
0.0000000000
40
0.0000000000
40
0.0000000000
40
0.0000000000
40
0.0000000000
40
0.2034492064
40
1.0000000000
40
1.0000000000
40
1.0000000000
40
1.0000000000
10
-7.5833946797
20
16.2138869830
30
0.0000000000
10
-7.5884914579
20
16.2261918840
30
0.0000000000
10
-7.6111304264
20
16.2876912109
30
0.0000000000
10
-7.6214444331
20
16.3533209314
30
0.0000000000
10
-7.6214444331
20
16.4052377995
30
0.0000000000
11
-7.5833946797
21
16.2138869830
31
0.0000000000
11
-7.5971930686
21
16.2513868260
31
0.0000000000
11
-7.6214444331
21
16.4052377995
31
0.0000000000
0
SPLINE
5
3DF
100
AcDbEntity
8
0
100
AcDbSpline
62
7
6
CONTINUOUS
70
0
71
3
72
11
73
7
74
5
42
0.0000001000
43
0.0000001000
44
0.0000000001
12
-0.3122705094
22
0.0000000000
32
0.0000000000
13
0.0000000000
23
0.3122705094
33
0.0000000000
40
0.0000000000
40
0.0000000000
40
0.0000000000
40
0.0000000000
40
0.2487223798
40
0.4987620212
40
0.7494730145
40
1.0000000000
40
1.0000000000
40
1.0000000000
40
1.0000000000
10
-5.1715019452
20
22.8051799143
30
0.0000000000
10
-5.1973914999
20
22.8051799143
30
0.0000000000
10
-5.2498708933
20
22.8155294530
30
0.0000000000
10
-5.3163792958
20
22.8599601306
30
0.0000000000
10
-5.3610104060
20
22.9265705141
30
0.0000000000
10
-5.3714444331
20
22.9793160082
30
0.0000000000
10
-5.3714444331
20
23.0053934047
30
0.0000000000
11
-5.1715019452
21
22.8051799143
31
0.0000000000
11
-5.2476883461
21
22.8202813618
31
0.0000000000
11
-5.3126573957
21
22.8635885202
31
0.0000000000
11
-5.3561820384
21
22.9286644351
31
0.0000000000
11
-5.3714444331
21
23.0053934047
31
0.0000000000
0
SPLINE
5
3E0
100
AcDbEntity
8
0
100
AcDbSpline
62
7
6
CONTINUOUS
70
0
71
3
72
8
73
4
74
2
42
0.0000001000
43
0.0000001000
44
0.0000000001
12
0.0000000000
22
-0.0527900839
32
0.0000000000
13
-0.0138948440
23
-0.0513949566
33
0.0000000000
40
0.0000000000
40
0.0000000000
40
0.0000000000
40
0.0000000000
40
1.0000000000
40
1.0000000000
40
1.0000000000
40
1.0000000000
10
-8.2714444331
20
23.0053934047
30
0.0000000000
10
-8.2714444331
20
22.9877967100
30
0.0000000000
10
-8.2738190647
20
22.9700699395
30
0.0000000000
10
-8.2784506793
20
22.9529382873
30
0.0000000000
11
-8.2714444331
21
23.0053934047
31
0.0000000000
11
-8.2784506793
21
22.9529382873
31
0.0000000000
0
SPLINE
5
3E1
100
AcDbEntity
8
0
100
AcDbSpline
62
7
6
CONTINUOUS
70
0
71
3
72
9
73
5
74
3
42
0.0000001000
43
0.0000001000
44
0.0000000001
12
-0.0204731966
22
-0.0757273022
32
0.0000000000
13
-0.0477133971
23
-0.0620218073
33
0.0000000000
40
0.0000000000
40
0.0000000000
40
0.0000000000
40
0.0000000000
40
0.3270910900
40
1.0000000000
40
1.0000000000
40
1.0000000000
40
1.0000000000
10
-8.2784506793
20
22.9529382873
30
0.0000000000
10
-8.2806828794
20
22.9446817120
30
0.0000000000
10
-8.2891100105
20
22.9198618843
30
0.0000000000
10
-8.3023140006
20
22.8970928562
30
0.0000000000
10
-8.3130162573
20
22.8831811807
30
0.0000000000
11
-8.2784506793
21
22.9529382873
31
0.0000000000
11
-8.2867068278
21
22.9286644351
31
0.0000000000
11
-8.3130162573
21
22.8831811807
31
0.0000000000
0
SPLINE
5
3E2
100
AcDbEntity
8
0
100
AcDbSpline
62
7
6
CONTINUOUS
70
0
71
3
72
10
73
6
74
4
42
0.0000001000
43
0.0000001000
44
0.0000000001
12
-0.1114563791
22
-0.1448801905
32
0.0000000000
13
-0.1816974890
23
0.0000000000
33
0.0000000000
40
0.0000000000
40
0.0000000000
40
0.0000000000
40
0.0000000000
40
0.1428133033
40
0.5725385934
40
1.0000000000
40
1.0000000000
40
1.0000000000
40
1.0000000000
10
-8.3130162573
20
22.8831811807
30
0.0000000000
10
-8.3183220752
20
22.8762842411
30
0.0000000000
10
-8.3413836519
20
22.8500235587
30
0.0000000000
10
-8.3930179729
20
22.8155294530
30
0.0000000000
10
-8.4454973662
20
22.8051799143
30
0.0000000000
10
-8.4713869210
20
22.8051799143
30
0.0000000000
11
-8.3130162573
21
22.8831811807
31
0.0000000000
11
-8.3302314705
21
22.8635885202
31
0.0000000000
11
-8.3952005200
21
22.8202813618
31
0.0000000000
11
-8.4713869210
21
22.8051799143
31
0.0000000000
0
SPLINE
5
3E3
100
AcDbEntity
8
0
100
AcDbSpline
62
7
6
CONTINUOUS
70
0
71
3
72
8
73
4
74
2
42
0.0000001000
43
0.0000001000
44
0.0000000001
12
-0.0523699770
22
0.0000000000
32
0.0000000000
13
-0.0509980452
23
0.0137276542
33
0.0000000000
40
0.0000000000
40
0.0000000000
40
0.0000000000
40
0.0000000000
40
1.0000000000
40
1.0000000000
40
1.0000000000
40
1.0000000000
10
12.2284980548
20
22.8051799143
30
0.0000000000
10
12.2110413958
20
22.8051799143
30
0.0000000000
10
12.1934570536
20
22.8075263874
30
0.0000000000
10
12.1764577051
20
22.8121022721
30
0.0000000000
11
12.2284980548
21
22.8051799143
31
0.0000000000
11
12.1764577051
21
22.8121022721
31
0.0000000000
0
SPLINE
5
3E4
100
AcDbEntity
8
0
100
AcDbSpline
62
7
6
CONTINUOUS
70
0
71
3
72
8
73
4
74
2
42
0.0000001000
43
0.0000001000
44
0.0000000001
12
-0.0246359397
22
0.0066315024
32
0.0000000000
13
-0.0235758214
23
0.0097134803
33
0.0000000000
40
0.0000000000
40
0.0000000000
40
0.0000000000
40
0.0000000000
40
1.0000000000
40
1.0000000000
40
1.0000000000
40
1.0000000000
10
12.1764577051
20
22.8121022721
30
0.0000000000
10
12.1682457252
20
22.8143127730
30
0.0000000000
10
12.1601702610
20
22.8170435350
30
0.0000000000
10
12.1523116539
20
22.8202813618
30
0.0000000000
11
12.1764577051
21
22.8121022721
31
0.0000000000
11
12.1523116539
21
22.8202813618
31
0.0000000000
0
SPLINE
5
3E5
100
AcDbEntity
8
0
100
AcDbSpline
62
7
6
CONTINUOUS
70
0
71
3
72
8
73
4
74
2
42
0.0000001000
43
0.0000001000
44
0.0000000001
12
-0.0240644963
22
0.0099148194
32
0.0000000000
13
-0.0225355779
23
0.0129585545
33
0.0000000000
40
0.0000000000
40
0.0000000000
40
0.0000000000
40
0.0000000000
40
1.0000000000
40
1.0000000000
40
1.0000000000
40
1.0000000000
10
12.1523116539
20
22.8202813618
30
0.0000000000
10
12.1442901551
20
22.8235863016
30
0.0000000000
10
12.1364945965
20
22.8274195446
30
0.0000000000
10
12.1289827372
20
22.8317390627
30
0.0000000000
11
12.1523116539
21
22.8202813618
31
0.0000000000
11
12.1289827372
21
22.8317390627
31
0.0000000000
0
SPLINE
5
3E6
100
AcDbEntity
8
0
100
AcDbSpline
62
7
6
CONTINUOUS
70
0
71
3
72
8
73
4
74
2
42
0.0000001000
43
0.0000001000
44
0.0000000001
12
-0.0456041836
22
0.0262236140
32
0.0000000000
13
-0.0371974215
23
0.0371270058
33
0.0000000000
40
0.0000000000
40
0.0000000000
40
0.0000000000
40
0.0000000000
40
1.0000000000
40
1.0000000000
40
1.0000000000
40
1.0000000000
10
12.1289827372
20
22.8317390627
30
0.0000000000
10
12.1137813427
20
22.8404802674
30
0.0000000000
10
12.0997417448
20
22.8512128516
30
0.0000000000
10
12.0873426043
20
22.8635885202
30
0.0000000000
11
12.1289827372
21
22.8317390627
31
0.0000000000
11
12.0873426043
21
22.8635885202
31
0.0000000000
0
SPLINE
5
3E7
100
AcDbEntity
8
0
100
AcDbSpline
62
7
6
CONTINUOUS
70
0
71
3
72
8
73
4
74
2
42
0.0000001000
43
0.0000001000
44
0.0000000001
12
-0.0372715951
22
0.0372010390
32
0.0000000000
13
-0.0263508955
23
0.0456536474
33
0.0000000000
40
0.0000000000
40
0.0000000000
40
0.0000000000
40
0.0000000000
40
1.0000000000
40
1.0000000000
40
1.0000000000
40
1.0000000000
10
12.0873426043
20
22.8635885202
30
0.0000000000
10
12.0749187393
20
22.8759888665
30
0.0000000000
10
12.0641418804
20
22.8900388565
30
0.0000000000
10
12.0553582486
20
22.9052567390
30
0.0000000000
11
12.0873426043
21
22.8635885202
31
0.0000000000
11
12.0553582486
21
22.9052567390
31
0.0000000000
0
SPLINE
5
3E8
100
AcDbEntity
8
0
100
AcDbSpline
62
7
6
CONTINUOUS
70
0
71
3
72
9
73
5
74
3
42
0.0000001000
43
0.0000001000
44
0.0000000001
12
-0.0524191799
22
0.0908176635
32
0.0000000000
13
0.0000000000
23
0.1041607031
33
0.0000000000
40
0.0000000000
40
0.0000000000
40
0.0000000000
40
0.0000000000
40
0.2489279832
40
1.0000000000
40
1.0000000000
40
1.0000000000
40
1.0000000000
10
12.0553582486
20
22.9052567390
30
0.0000000000
10
12.0510087150
20
22.9127924249
30
0.0000000000
10
12.0354991066
20
22.9442154255
30
0.0000000000
10
12.0285555669
20
22.9793160082
30
0.0000000000
10
12.0285555669
20
23.0053934047
30
0.0000000000
11
12.0553582486
21
22.9052567390
31
0.0000000000
11
12.0438179616
21
22.9286644351
31
0.0000000000
11
12.0285555669
21
23.0053934047
31
0.0000000000
0
SPLINE
5
3E9
100
AcDbEntity
8
0
100
AcDbSpline
62
7
6
CONTINUOUS
70
0
71
3
72
8
73
4
74
2
42
0.0000001000
43
0.0000001000
44
0.0000000001
12
0.0000000000
22
-0.0527900839
32
0.0000000000
13
-0.0138948440
23
-0.0513949566
33
0.0000000000
40
0.0000000000
40
0.0000000000
40
0.0000000000
40
0.0000000000
40
1.0000000000
40
1.0000000000
40
1.0000000000
40
1.0000000000
10
9.1285555669
20
23.0053934047
30
0.0000000000
10
9.1285555669
20
22.9877967100
30
0.0000000000
10
9.1261809353
20
22.9700699395
30
0.0000000000
10
9.1215493207
20
22.9529382873
30
0.0000000000
11
9.1285555669
21
23.0053934047
31
0.0000000000
11
9.1215493207
21
22.9529382873
31
0.0000000000
0
SPLINE
5
3EA
100
AcDbEntity
8
0
100
AcDbSpline
62
7
6
CONTINUOUS
70
0
71
3
72
11
73
7
74
5
42
0.0000001000
43
0.0000001000
44
0.0000000001
12
-0.0612833863
22
-0.2266781104
32
0.0000000000
13
-0.2321031714
23
-0.0314469125
33
0.0000000000
40
0.0000000000
40
0.0000000000
40
0.0000000000
40
0.0000000000
40
0.1092726854
40
0.4455231682
40
0.7808732423
40
1.0000000000
40
1.0000000000
40
1.0000000000
40
1.0000000000
10
9.1215493207
20
22.9529382873
30
0.0000000000
10
9.1193171206
20
22.9446817120
30
0.0000000000
10
9.1080786518
20
22.9115818522
30
0.0000000000
10
9.0734904296
20
22.8599601306
30
0.0000000000
10
9.0145550958
20
22.8205886119
30
0.0000000000
10
8.9722207869
20
22.8092842336
30
0.0000000000
10
8.9552674485
20
22.8069872803
30
0.0000000000
11
9.1215493207
21
22.9529382873
31
0.0000000000
11
9.1132931722
21
22.9286644351
31
0.0000000000
11
9.0697685295
21
22.8635885202
31
0.0000000000
11
9.0047994800
21
22.8202813618
31
0.0000000000
11
8.9552674485
21
22.8069872803
31
0.0000000000
0
SPLINE
5
3EB
100
AcDbEntity
8
0
100
AcDbSpline
62
7
6
CONTINUOUS
70
0
71
3
72
8
73
4
74
2
42
0.0000001000
43
0.0000001000
44
0.0000000001
12
-0.0265657448
22
-0.0035993074
32
0.0000000000
13
-0.0266490882
23
0.0000000000
33
0.0000000000
40
0.0000000000
40
0.0000000000
40
0.0000000000
40
0.0000000000
40
1.0000000000
40
1.0000000000
40
1.0000000000
40
1.0000000000
10
8.9552674485
20
22.8069872803
30
0.0000000000
10
8.9464122002
20
22.8057875112
30
0.0000000000
10
8.9374961084
20
22.8051799143
30
0.0000000000
10
8.9286130790
20
22.8051799143
30
0.0000000000
11
8.9552674485
21
22.8069872803
31
0.0000000000
11
8.9286130790
21
22.8051799143
31
0.0000000000
0
SPLINE
5
3EC
100
AcDbEntity
8
0
100
AcDbSpline
62
7
6
CONTINUOUS
70
0
71
3
72
11
73
7
74
5
42
0.0000001000
43
0.0000001000
44
0.0000000001
12
0.3122705094
22
0.0000000000
32
0.0000000000
13
0.0000000000
23
-0.3122705094
33
0.0000000000
40
0.0000000000
40
0.0000000000
40
0.0000000000
40
0.0000000000
40
0.2487223798
40
0.4987620212
40
0.7494730145
40
1.0000000000
40
1.0000000000
40
1.0000000000
40
1.0000000000
10
-8.4713869210
20
-21.9948200857
30
0.0000000000
10
-8.4454973662
20
-21.9948200857
30
0.0000000000
10
-8.3930179729
20
-22.0051696243
30
0.0000000000
10
-8.3265095704
20
-22.0496003019
30
0.0000000000
10
-8.2818784602
20
-22.1162106854
30
0.0000000000
10
-8.2714444331
20
-22.1689561795
30
0.0000000000
10
-8.2714444331
20
-22.1950335760
30
0.0000000000
11
-8.4713869210
21
-21.9948200857
31
0.0000000000
11
-8.3952005200
21
-22.0099215331
31
0.0000000000
11
-8.3302314705
21
-22.0532286915
31
0.0000000000
11
-8.2867068278
21
-22.1183046065
31
0.0000000000
11
-8.2714444331
21
-22.1950335760
31
0.0000000000
0
SPLINE
5
3ED
100
AcDbEntity
8
0
100
AcDbSpline
62
7
6
CONTINUOUS
70
0
71
3
72
8
73
4
74
2
42
0.0000001000
43
0.0000001000
44
0.0000000001
12
0.0000000000
22
0.0268814031
32
0.0000000000
13
0.0036478211
23
0.0267965141
33
0.0000000000
40
0.0000000000
40
0.0000000000
40
0.0000000000
40
0.0000000000
40
1.0000000000
40
1.0000000000
40
1.0000000000
40
1.0000000000
10
-5.3714444331
20
-22.1950335760
30
0.0000000000
10
-5.3714444331
20
-22.1860731083
30
0.0000000000
10
-5.3708286959
20
-22.1770789122
30
0.0000000000
10
-5.3696127555
20
-22.1681467408
30
0.0000000000
11
-5.3714444331
21
-22.1950335760
31
0.0000000000
11
-5.3696127555
21
-22.1681467408
31
0.0000000000
0
SPLINE
5
3EE
100
AcDbEntity
8
0
100
AcDbSpline
62
7
6
CONTINUOUS
70
0
71
3
72
8
73
4
74
2
42
0.0000001000
43
0.0000001000
44
0.0000000001
12
0.0035158221
22
0.0258268637
32
0.0000000000
13
0.0068194072
23
0.0252239706
33
0.0000000000
40
0.0000000000
40
0.0000000000
40
0.0000000000
40
0.0000000000
40
1.0000000000
40
1.0000000000
40
1.0000000000
40
1.0000000000
10
-5.3696127555
20
-22.1681467408
30
0.0000000000
10
-5.3684408148
20
-22.1595377862
30
0.0000000000
10
-5.3667113226
20
-22.1509864488
30
0.0000000000
10
-5.3644381868
20
-22.1425784586
30
0.0000000000
11
-5.3696127555
21
-22.1681467408
31
0.0000000000
11
-5.3644381868
21
-22.1425784586
31
0.0000000000
0
SPLINE
5
3EF
100
AcDbEntity
8
0
100
AcDbSpline
62
7
6
CONTINUOUS
70
0
71
3
72
8
73
4
74
2
42
0.0000001000
43
0.0000001000
44
0.0000000001
12
0.0066966002
22
0.0247697258
32
0.0000000000
13
0.0098025266
23
0.0236967971
33
0.0000000000
40
0.0000000000
40
0.0000000000
40
0.0000000000
40
0.0000000000
40
1.0000000000
40
1.0000000000
40
1.0000000000
40
1.0000000000
10
-5.3644381868
20
-22.1425784586
30
0.0000000000
10
-5.3622059868
20
-22.1343218833
30
0.0000000000
10
-5.3594495473
20
-22.1262035388
30
0.0000000000
10
-5.3561820384
20
-22.1183046065
30
0.0000000000
11
-5.3644381868
21
-22.1425784586
31
0.0000000000
11
-5.3561820384
21
-22.1183046065
31
0.0000000000
0
SPLINE
5
3F0
100
AcDbEntity
8
0
100
AcDbSpline
62
7
6
CONTINUOUS
70
0
71
3
72
8
73
4
74
2
42
0.0000001000
43
0.0000001000
44
0.0000000001
12
0.0099899337
22
0.0241498381
32
0.0000000000
13
0.0130486007
23
0.0226070578
33
0.0000000000
40
0.0000000000
40
0.0000000000
40
0.0000000000
40
0.0000000000
40
1.0000000000
40
1.0000000000
40
1.0000000000
40
1.0000000000
10
-5.3561820384
20
-22.1183046065
30
0.0000000000
10
-5.3528520605
20
-22.1102546604
30
0.0000000000
10
-5.3489912850
20
-22.1024325963
30
0.0000000000
10
-5.3446417514
20
-22.0948969103
30
0.0000000000
11
-5.3561820384
21
-22.1183046065
31
0.0000000000
11
-5.3446417514
21
-22.0948969103
31
0.0000000000
0
SPLINE
5
3F1
100
AcDbEntity
8
0
100
AcDbSpline
62
7
6
CONTINUOUS
70
0
71
3
72
8
73
4
74
2
42
0.0000001000
43
0.0000001000
44
0.0000000001
12
0.0132920762
22
0.0230288858
32
0.0000000000
13
0.0162017717
23
0.0210603986
33
0.0000000000
40
0.0000000000
40
0.0000000000
40
0.0000000000
40
0.0000000000
40
1.0000000000
40
1.0000000000
40
1.0000000000
40
1.0000000000
10
-5.3446417514
20
-22.0948969103
30
0.0000000000
10
-5.3402110593
20
-22.0872206151
30
0.0000000000
10
-5.3352731994
20
-22.0798414849
30
0.0000000000
10
-5.3298726089
20
-22.0728213520
30
0.0000000000
11
-5.3446417514
21
-22.0948969103
31
0.0000000000
11
-5.3298726089
21
-22.0728213520
31
0.0000000000
0
SPLINE
5
3F2
100
AcDbEntity
8
0
100
AcDbSpline
62
7
6
CONTINUOUS
70
0
71
3
72
8
73
4
74
2
42
0.0000001000
43
0.0000001000
44
0.0000000001
12
0.0159174537
22
0.0206908186
32
0.0000000000
13
0.0184708342
23
0.0184358685
33
0.0000000000
40
0.0000000000
40
0.0000000000
40
0.0000000000
40
0.0000000000
40
1.0000000000
40
1.0000000000
40
1.0000000000
40
1.0000000000
10
-5.3298726089
20
-22.0728213520
30
0.0000000000
10
-5.3245667910
20
-22.0659244124
30
0.0000000000
10
-5.3188143404
20
-22.0593739810
30
0.0000000000
10
-5.3126573957
20
-22.0532286915
30
0.0000000000
11
-5.3298726089
21
-22.0728213520
31
0.0000000000
11
-5.3126573957
21
-22.0532286915
31
0.0000000000
0
SPLINE
5
3F3
100
AcDbEntity
8
0
100
AcDbSpline
62
7
6
CONTINUOUS
70
0
71
3
72
9
73
5
74
3
42
0.0000001000
43
0.0000001000
44
0.0000000001
12
0.1108646956
22
0.1106548257
32
0.0000000000
13
0.1557486704
23
0.0000000000
33
0.0000000000
40
0.0000000000
40
0.0000000000
40
0.0000000000
40
0.0000000000
40
0.5013205312
40
1.0000000000
40
1.0000000000
40
1.0000000000
40
1.0000000000
10
-5.3126573957
20
-22.0532286915
30
0.0000000000
10
-5.2941311463
20
-22.0347375129
30
0.0000000000
10
-5.2498708933
20
-22.0051696243
30
0.0000000000
10
-5.1973914999
20
-21.9948200857
30
0.0000000000
10
-5.1715019452
20
-21.9948200857
30
0.0000000000
11
-5.3126573957
21
-22.0532286915
31
0.0000000000
11
-5.2476883461
21
-22.0099215331
31
0.0000000000
11
-5.1715019452
21
-21.9948200857
31
0.0000000000
0
SPLINE
5
3F4
100
AcDbEntity
8
0
100
AcDbSpline
62
7
6
CONTINUOUS
70
0
71
3
72
11
73
7
74
5
42
0.0000001000
43
0.0000001000
44
0.0000000001
12
0.3122705094
22
0.0000000000
32
0.0000000000
13
0.0000000000
23
-0.3122705094
33
0.0000000000
40
0.0000000000
40
0.0000000000
40
0.0000000000
40
0.0000000000
40
0.2487223798
40
0.4987620212
40
0.7494730145
40
1.0000000000
40
1.0000000000
40
1.0000000000
40
1.0000000000
10
8.9286130790
20
-21.9948200857
30
0.0000000000
10
8.9545026338
20
-21.9948200857
30
0.0000000000
10
9.0069820271
20
-22.0051696243
30
0.0000000000
10
9.0734904296
20
-22.0496003019
30
0.0000000000
10
9.1181215398
20
-22.1162106854
30
0.0000000000
10
9.1285555669
20
-22.1689561795
30
0.0000000000
10
9.1285555669
20
-22.1950335760
30
0.0000000000
11
8.9286130790
21
-21.9948200857
31
0.0000000000
11
9.0047994800
21
-22.0099215331
31
0.0000000000
11
9.0697685295
21
-22.0532286915
31
0.0000000000
11
9.1132931722
21
-22.1183046065
31
0.0000000000
11
9.1285555669
21
-22.1950335760
31
0.0000000000
0
SPLINE
5
3F5
100
AcDbEntity
8
0
100
AcDbSpline
62
7
6
CONTINUOUS
70
0
71
3
72
8
73
4
74
2
42
0.0000001000
43
0.0000001000
44
0.0000000001
12
0.0000000000
22
0.0268814031
32
0.0000000000
13
0.0036478211
23
0.0267965141
33
0.0000000000
40
0.0000000000
40
0.0000000000
40
0.0000000000
40
0.0000000000
40
1.0000000000
40
1.0000000000
40
1.0000000000
40
1.0000000000
10
12.0285555669
20
-22.1950335760
30
0.0000000000
10
12.0285555669
20
-22.1860731083
30
0.0000000000
10
12.0291713041
20
-22.1770789122
30
0.0000000000
10
12.0303872445
20
-22.1681467408
30
0.0000000000
11
12.0285555669
21
-22.1950335760
31
0.0000000000
11
12.0303872445
21
-22.1681467408
31
0.0000000000
0
SPLINE
5
3F6
100
AcDbEntity
8
0
100
AcDbSpline
62
7
6
CONTINUOUS
70
0
71
3
72
8
73
4
74
2
42
0.0000001000
43
0.0000001000
44
0.0000000001
12
0.0069683297
22
0.0511886253
32
0.0000000000
13
0.0197848189
23
0.0478281628
33
0.0000000000
40
0.0000000000
40
0.0000000000
40
0.0000000000
40
0.0000000000
40
1.0000000000
40
1.0000000000
40
1.0000000000
40
1.0000000000
10
12.0303872445
20
-22.1681467408
30
0.0000000000
10
12.0327100211
20
-22.1510838657
30
0.0000000000
10
12.0372230220
20
-22.1342473274
30
0.0000000000
10
12.0438179616
20
-22.1183046065
30
0.0000000000
11
12.0303872445
21
-22.1681467408
31
0.0000000000
11
12.0438179616
21
-22.1183046065
31
0.0000000000
0
SPLINE
5
3F7
100
AcDbEntity
8
0
100
AcDbSpline
62
7
6
CONTINUOUS
70
0
71
3
72
18
73
14
74
12
42
0.0000001000
43
0.0000001000
44
0.0000000001
12
0.0000132796
22
-0.3923546691
32
0.0000000000
13
0.3923546691
23
-0.0000132796
33
0.0000000000
40
0.0000000000
40
0.0000000000
40
0.0000000000
40
0.0000000000
40
0.0909209466
40
0.1818426652
40
0.2727646341
40
0.3636866866
40
0.4546085102
40
0.5455298998
40
0.6364502323
40
0.7273711591
40
0.8182867494
40
0.9092020002
40
1.0000000000
40
1.0000000000
40
1.0000000000
40
1.0000000000
10
-8.2670725991
20
-23.8404524824
30
0.0000000000
10
-8.2670721966
20
-23.8523435684
30
0.0000000000
10
-8.2653688016
20
-23.8761607152
30
0.0000000000
10
-8.2577580033
20
-23.9111312777
30
0.0000000000
10
-8.2452464576
20
-23.9446701757
30
0.0000000000
10
-8.2280889852
20
-23.9760849003
30
0.0000000000
10
-8.2066350008
20
-24.0047383202
30
0.0000000000
10
-8.1813215189
20
-24.0300462897
30
0.0000000000
10
-8.1526637324
20
-24.0514938590
30
0.0000000000
10
-8.1212463618
20
-24.0686440246
30
0.0000000000
10
-8.0877066010
20
-24.0811479256
30
0.0000000000
10
-8.0527519121
20
-24.0887479906
30
0.0000000000
10
-8.0289518363
20
-24.0904478497
30
0.0000000000
10
-8.0170768299
20
-24.0904482517
30
0.0000000000
11
-8.2670725991
21
-23.8404524824
31
0.0000000000
11
-8.2645262013
21
-23.8760347419
31
0.0000000000
11
-8.2569412271
21
-23.9108926120
31
0.0000000000
11
-8.2444721413
21
-23.9443161344
31
0.0000000000
11
-8.2273728761
21
-23.9756247182
31
0.0000000000
11
-8.2059916885
21
-24.0041808156
31
0.0000000000
11
-8.1807640165
21
-24.0294029943
31
0.0000000000
11
-8.1522037571
21
-24.0507776457
31
0.0000000000
11
-8.1208918932
21
-24.0678699820
31
0.0000000000
11
-8.0874681150
21
-24.0803312197
31
0.0000000000
11
-8.0526112195
21
-24.0879087342
31
0.0000000000
11
-8.0170768299
21
-24.0904482517
31
0.0000000000
0
SPLINE
5
3F8
100
AcDbEntity
8
0
100
AcDbSpline
62
7
6
CONTINUOUS
70
0
71
3
72
9
73
5
74
3
42
0.0000001000
43
0.0000001000
44
0.0000000001
12
0.0000000000
22
-0.0475573588
32
0.0000000000
13
0.0090083279
23
-0.0467385388
33
0.0000000000
40
0.0000000000
40
0.0000000000
40
0.0000000000
40
0.0000000000
40
0.7500208510
40
1.0000000000
40
1.0000000000
40
1.0000000000
40
1.0000000000
10
-8.2714444331
20
-23.8448243164
30
0.0000000000
10
-8.2714444331
20
-23.8567139867
30
0.0000000000
10
-8.2703097198
20
-23.8725897183
30
0.0000000000
10
-8.2676774745
20
-23.8882418279
30
0.0000000000
10
-8.2669268431
20
-23.8921363813
30
0.0000000000
11
-8.2714444331
21
-23.8448243164
31
0.0000000000
11
-8.2688999072
21
-23.8804024518
31
0.0000000000
11
-8.2669268431
21
-23.8921363813
31
0.0000000000
0
SPLINE
5
3F9
100
AcDbEntity
8
0
100
AcDbSpline
62
7
6
CONTINUOUS
70
0
71
3
72
10
73
6
74
4
42
0.0000001000
43
0.0000001000
44
0.0000000001
12
0.0157652643
22
-0.0817960248
32
0.0000000000
13
0.0416482642
23
-0.0721402392
33
0.0000000000
40
0.0000000000
40
0.0000000000
40
0.0000000000
40
0.0000000000
40
0.2857257878
40
0.7142907385
40
1.0000000000
40
1.0000000000
40
1.0000000000
40
1.0000000000
10
-8.2669268431
20
-23.8921363813
30
0.0000000000
10
-8.2654253289
20
-23.8999267925
30
0.0000000000
10
-8.2607451394
20
-23.9192206423
30
0.0000000000
10
-8.2510170949
20
-23.9453042312
30
0.0000000000
10
-8.2419180991
20
-23.9629520450
30
0.0000000000
10
-8.2379516675
20
-23.9698224232
30
0.0000000000
11
-8.2669268431
21
-23.8921363813
31
0.0000000000
11
-8.2613180748
21
-23.9152563647
31
0.0000000000
11
-8.2488532053
21
-23.9486765320
31
0.0000000000
11
-8.2379516675
21
-23.9698224232
31
0.0000000000
0
SPLINE
5
3FA
100
AcDbEntity
8
0
100
AcDbSpline
62
7
6
CONTINUOUS
70
0
71
3
72
12
73
8
74
6
42
0.0000001000
43
0.0000001000
44
0.0000000001
12
0.0654463912
22
-0.1133617068
32
0.0000000000
13
0.1133617068
23
-0.0654463912
33
0.0000000000
40
0.0000000000
40
0.0000000000
40
0.0000000000
40
0.0000000000
40
0.0909094935
40
0.3636364896
40
0.6363635104
40
0.9090905065
40
1.0000000000
40
1.0000000000
40
1.0000000000
40
1.0000000000
10
-8.2379516675
20
-23.9698224232
30
0.0000000000
10
-8.2359684348
20
-23.9732576416
30
0.0000000000
10
-8.2277086932
20
-23.9868097200
30
0.0000000000
10
-8.2110266075
20
-24.0090945837
30
0.0000000000
10
-8.1857189311
20
-24.0344022601
30
0.0000000000
10
-8.1634340674
20
-24.0510843457
30
0.0000000000
10
-8.1498819891
20
-24.0593440874
30
0.0000000000
10
-8.1464467706
20
-24.0613273201
30
0.0000000000
11
-8.2379516675
21
-23.9698224232
31
0.0000000000
11
-8.2317589912
21
-23.9799825916
31
0.0000000000
11
-8.2103833919
21
-24.0085372047
31
0.0000000000
11
-8.1851615521
21
-24.0337590445
31
0.0000000000
11
-8.1566069390
21
-24.0551346438
31
0.0000000000
11
-8.1464467706
21
-24.0613273201
31
0.0000000000
0
SPLINE
5
3FB
100
AcDbEntity
8
0
100
AcDbSpline
62
7
6
CONTINUOUS
70
0
71
3
72
11
73
7
74
5
42
0.0000001000
43
0.0000001000
44
0.0000000001
12
0.1133614279
22
-0.0654462302
32
0.0000000000
13
0.1307863814
23
-0.0000000000
33
0.0000000000
40
0.0000000000
40
0.0000000000
40
0.0000000000
40
0.0000000000
40
0.1818178798
40
0.4545453732
40
0.7272727455
40
1.0000000000
40
1.0000000000
40
1.0000000000
40
1.0000000000
10
-8.1464467706
20
-24.0613273201
30
0.0000000000
10
-8.1395763924
20
-24.0652937517
30
0.0000000000
10
-8.1219285786
20
-24.0743927474
30
0.0000000000
10
-8.0921192366
20
-24.0855103359
30
0.0000000000
10
-8.0571525988
20
-24.0931179681
30
0.0000000000
10
-8.0333383341
20
-24.0948200857
30
0.0000000000
10
-8.0214486639
20
-24.0948200857
30
0.0000000000
11
-8.1464467706
21
-24.0613273201
31
0.0000000000
11
-8.1253008794
21
-24.0722288578
31
0.0000000000
11
-8.0918807121
21
-24.0846937274
31
0.0000000000
11
-8.0570267992
21
-24.0922755598
31
0.0000000000
11
-8.0214486639
21
-24.0948200857
31
0.0000000000
0
SPLINE
5
3FC
100
AcDbEntity
8
0
100
AcDbSpline
62
7
6
CONTINUOUS
70
0
71
3
72
18
73
14
74
12
42
0.0000001000
43
0.0000001000
44
0.0000000001
12
0.3923546692
22
0.0000132796
32
0.0000000000
13
0.0000132796
23
0.3923546692
33
0.0000000000
40
0.0000000000
40
0.0000000000
40
0.0000000000
40
0.0000000000
40
0.0909083271
40
0.1818170744
40
0.2727261901
40
0.3636355924
40
0.4545451767
40
0.5454548233
40
0.6363644076
40
0.7272738099
40
0.8181829256
40
0.9090916729
40
1.0000000000
40
1.0000000000
40
1.0000000000
40
1.0000000000
10
-5.6258120363
20
-24.0904482517
30
0.0000000000
10
-5.6139226008
20
-24.0904478492
30
0.0000000000
10
-5.5901088154
20
-24.0887449318
30
0.0000000000
10
-5.5551429854
20
-24.0811362648
30
0.0000000000
10
-5.5216082207
20
-24.0686281853
30
0.0000000000
10
-5.4901966643
20
-24.0514753158
30
0.0000000000
10
-5.4615451879
20
-24.0300268114
30
0.0000000000
10
-5.4362377074
20
-24.0047193308
30
0.0000000000
10
-5.4147892029
20
-23.9760678544
30
0.0000000000
10
-5.3976363335
20
-23.9446562980
30
0.0000000000
10
-5.3851282539
20
-23.9111215333
30
0.0000000000
10
-5.3775195870
20
-23.8761557034
30
0.0000000000
10
-5.3758166695
20
-23.8523419180
30
0.0000000000
10
-5.3758162671
20
-23.8404524824
30
0.0000000000
11
-5.6258120363
21
-24.0904482517
31
0.0000000000
11
-5.5902346902
21
-24.0879025605
31
0.0000000000
11
-5.5553815651
21
-24.0803197161
31
0.0000000000
11
-5.5219621396
21
-24.0678540765
31
0.0000000000
11
-5.4906567076
21
-24.0507593955
31
0.0000000000
11
-5.4621025300
21
-24.0293836563
31
0.0000000000
11
-5.4368808624
21
-24.0041619888
31
0.0000000000
11
-5.4155051233
21
-23.9756078111
31
0.0000000000
11
-5.3984104422
21
-23.9443023791
31
0.0000000000
11
-5.3859448027
21
-23.9108829536
31
0.0000000000
11
-5.3783619582
21
-23.8760298285
31
0.0000000000
11
-5.3758162671
21
-23.8404524824
31
0.0000000000
0
SPLINE
5
3FD
100
AcDbEntity
8
0
100
AcDbSpline
62
7
6
CONTINUOUS
70
0
71
3
72
9
73
5
74
3
42
0.0000001000
43
0.0000001000
44
0.0000000001
12
0.0475573588
22
0.0000000000
32
0.0000000000
13
0.0467385388
23
0.0090083279
33
0.0000000000
40
0.0000000000
40
0.0000000000
40
0.0000000000
40
0.0000000000
40
0.7500208510
40
1.0000000000
40
1.0000000000
40
1.0000000000
40
1.0000000000
10
-5.6214402023
20
-24.0948200857
30
0.0000000000
10
-5.6095505321
20
-24.0948200857
30
0.0000000000
10
-5.5936748004
20
-24.0936853724
30
0.0000000000
10
-5.5780226908
20
-24.0910531270
30
0.0000000000
10
-5.5741281375
20
-24.0903024956
30
0.0000000000
11
-5.6214402023
21
-24.0948200857
31
0.0000000000
11
-5.5858620669
21
-24.0922755598
31
0.0000000000
11
-5.5741281375
21
-24.0903024956
31
0.0000000000
0
SPLINE
5
3FE
100
AcDbEntity
8
0
100
AcDbSpline
62
7
6
CONTINUOUS
70
0
71
3
72
10
73
6
74
4
42
0.0000001000
43
0.0000001000
44
0.0000000001
12
0.0817960248
22
0.0157652643
32
0.0000000000
13
0.0721402392
23
0.0416482642
33
0.0000000000
40
0.0000000000
40
0.0000000000
40
0.0000000000
40
0.0000000000
40
0.2857257878
40
0.7142907385
40
1.0000000000
40
1.0000000000
40
1.0000000000
40
1.0000000000
10
-5.5741281375
20
-24.0903024956
30
0.0000000000
10
-5.5663377262
20
-24.0888009815
30
0.0000000000
10
-5.5470438765
20
-24.0841207920
30
0.0000000000
10
-5.5209602876
20
-24.0743927474
30
0.0000000000
10
-5.5033124737
20
-24.0652937517
30
0.0000000000
10
-5.4964420956
20
-24.0613273201
30
0.0000000000
11
-5.5741281375
21
-24.0903024956
31
0.0000000000
11
-5.5510081541
21
-24.0846937274
31
0.0000000000
11
-5.5175879868
21
-24.0722288578
31
0.0000000000
11
-5.4964420956
21
-24.0613273201
31
0.0000000000
0
SPLINE
5
3FF
100
AcDbEntity
8
0
100
AcDbSpline
62
7
6
CONTINUOUS
70
0
71
3
72
12
73
8
74
6
42
0.0000001000
43
0.0000001000
44
0.0000000001
12
0.1133617068
22
0.0654463912
32
0.0000000000
13
0.0654463912
23
0.1133617068
33
0.0000000000
40
0.0000000000
40
0.0000000000
40
0.0000000000
40
0.0000000000
40
0.0909094935
40
0.3636364896
40
0.6363635104
40
0.9090905065
40
1.0000000000
40
1.0000000000
40
1.0000000000
40
1.0000000000
10
-5.4964420956
20
-24.0613273201
30
0.0000000000
10
-5.4930068771
20
-24.0593440874
30
0.0000000000
10
-5.4794547988
20
-24.0510843457
30
0.0000000000
10
-5.4571699351
20
-24.0344022601
30
0.0000000000
10
-5.4318622587
20
-24.0090945837
30
0.0000000000
10
-5.4151801730
20
-23.9868097200
30
0.0000000000
10
-5.4069204314
20
-23.9732576416
30
0.0000000000
10
-5.4049371986
20
-23.9698224232
30
0.0000000000
11
-5.4964420956
21
-24.0613273201
31
0.0000000000
11
-5.4862819272
21
-24.0551346438
31
0.0000000000
11
-5.4577273140
21
-24.0337590445
31
0.0000000000
11
-5.4325054742
21
-24.0085372047
31
0.0000000000
11
-5.4111298749
21
-23.9799825916
31
0.0000000000
11
-5.4049371986
21
-23.9698224232
31
0.0000000000
0
SPLINE
5
400
100
AcDbEntity
8
0
100
AcDbSpline
62
7
6
CONTINUOUS
70
0
71
3
72
11
73
7
74
5
42
0.0000001000
43
0.0000001000
44
0.0000000001
12
0.0654462302
22
0.1133614279
32
0.0000000000
13
-0.0000000000
23
0.1307863814
33
0.0000000000
40
0.0000000000
40
0.0000000000
40
0.0000000000
40
0.0000000000
40
0.1818178798
40
0.4545453732
40
0.7272727455
40
1.0000000000
40
1.0000000000
40
1.0000000000
40
1.0000000000
10
-5.4049371986
20
-23.9698224232
30
0.0000000000
10
-5.4009707670
20
-23.9629520450
30
0.0000000000
10
-5.3918717713
20
-23.9453042312
30
0.0000000000
10
-5.3807541828
20
-23.9154948892
30
0.0000000000
10
-5.3731465506
20
-23.8805282513
30
0.0000000000
10
-5.3714444331
20
-23.8567139867
30
0.0000000000
10
-5.3714444331
20
-23.8448243164
30
0.0000000000
11
-5.4049371986
21
-23.9698224232
31
0.0000000000
11
-5.3940356609
21
-23.9486765320
31
0.0000000000
11
-5.3815707914
21
-23.9152563647
31
0.0000000000
11
-5.3739889589
21
-23.8804024518
31
0.0000000000
11
-5.3714444331
21
-23.8448243164
31
0.0000000000
0
SPLINE
5
401
100
AcDbEntity
8
0
100
AcDbSpline
62
7
6
CONTINUOUS
70
0
71
3
72
18
73
14
74
12
42
0.0000001000
43
0.0000001000
44
0.0000000001
12
0.3923546691
22
0.0000132796
32
0.0000000000
13
0.0000132796
23
0.3923546691
33
0.0000000000
40
0.0000000000
40
0.0000000000
40
0.0000000000
40
0.0000000000
40
0.0907979998
40
0.1817132506
40
0.2726288409
40
0.3635497677
40
0.4544701002
40
0.5453914898
40
0.6363133134
40
0.7272353659
40
0.8181573348
40
0.9090790534
40
1.0000000000
40
1.0000000000
40
1.0000000000
40
1.0000000000
10
11.7741879637
20
-24.0904482517
30
0.0000000000
10
11.7860629701
20
-24.0904478497
30
0.0000000000
10
11.8098630460
20
-24.0887479906
30
0.0000000000
10
11.8448177348
20
-24.0811479256
30
0.0000000000
10
11.8783574957
20
-24.0686440246
30
0.0000000000
10
11.9097748662
20
-24.0514938590
30
0.0000000000
10
11.9384326528
20
-24.0300462897
30
0.0000000000
10
11.9637461346
20
-24.0047383202
30
0.0000000000
10
11.9852001190
20
-23.9760849003
30
0.0000000000
10
12.0023575915
20
-23.9446701757
30
0.0000000000
10
12.0148691371
20
-23.9111312777
30
0.0000000000
10
12.0224799354
20
-23.8761607152
30
0.0000000000
10
12.0241833305
20
-23.8523435684
30
0.0000000000
10
12.0241837329
20
-23.8404524824
30
0.0000000000
11
11.7741879637
21
-24.0904482517
31
0.0000000000
11
11.8097223533
21
-24.0879087342
31
0.0000000000
11
11.8445792488
21
-24.0803312197
31
0.0000000000
11
11.8780030270
21
-24.0678699820
31
0.0000000000
11
11.9093148909
21
-24.0507776457
31
0.0000000000
11
11.9378751503
21
-24.0294029943
31
0.0000000000
11
11.9631028223
21
-24.0041808156
31
0.0000000000
11
11.9844840100
21
-23.9756247182
31
0.0000000000
11
12.0015832751
21
-23.9443161344
31
0.0000000000
11
12.0140523609
21
-23.9108926120
31
0.0000000000
11
12.0216373351
21
-23.8760347419
31
0.0000000000
11
12.0241837329
21
-23.8404524824
31
0.0000000000
0
SPLINE
5
402
100
AcDbEntity
8
0
100
AcDbSpline
62
7
6
CONTINUOUS
70
0
71
3
72
9
73
5
74
3
42
0.0000001000
43
0.0000001000
44
0.0000000001
12
0.0475573588
22
0.0000000000
32
0.0000000000
13
0.0467385388
23
0.0090083279
33
0.0000000000
40
0.0000000000
40
0.0000000000
40
0.0000000000
40
0.0000000000
40
0.7500208510
40
1.0000000000
40
1.0000000000
40
1.0000000000
40
1.0000000000
10
11.7785597977
20
-24.0948200857
30
0.0000000000
10
11.7904494679
20
-24.0948200857
30
0.0000000000
10
11.8063251996
20
-24.0936853724
30
0.0000000000
10
11.8219773092
20
-24.0910531270
30
0.0000000000
10
11.8258718625
20
-24.0903024956
30
0.0000000000
11
11.7785597977
21
-24.0948200857
31
0.0000000000
11
11.8141379331
21
-24.0922755598
31
0.0000000000
11
11.8258718625
21
-24.0903024956
31
0.0000000000
0
SPLINE
5
403
100
AcDbEntity
8
0
100
AcDbSpline
62
7
6
CONTINUOUS
70
0
71
3
72
10
73
6
74
4
42
0.0000001000
43
0.0000001000
44
0.0000000001
12
0.0817960248
22
0.0157652643
32
0.0000000000
13
0.0721402392
23
0.0416482642
33
0.0000000000
40
0.0000000000
40
0.0000000000
40
0.0000000000
40
0.0000000000
40
0.2857257878
40
0.7142907385
40
1.0000000000
40
1.0000000000
40
1.0000000000
40
1.0000000000
10
11.8258718625
20
-24.0903024956
30
0.0000000000
10
11.8336622738
20
-24.0888009815
30
0.0000000000
10
11.8529561235
20
-24.0841207920
30
0.0000000000
10
11.8790397124
20
-24.0743927474
30
0.0000000000
10
11.8966875263
20
-24.0652937517
30
0.0000000000
10
11.9035579044
20
-24.0613273201
30
0.0000000000
11
11.8258718625
21
-24.0903024956
31
0.0000000000
11
11.8489918459
21
-24.0846937274
31
0.0000000000
11
11.8824120132
21
-24.0722288578
31
0.0000000000
11
11.9035579044
21
-24.0613273201
31
0.0000000000
0
SPLINE
5
404
100
AcDbEntity
8
0
100
AcDbSpline
62
7
6
CONTINUOUS
70
0
71
3
72
12
73
8
74
6
42
0.0000001000
43
0.0000001000
44
0.0000000001
12
0.1133617068
22
0.0654463912
32
0.0000000000
13
0.0654463912
23
0.1133617068
33
0.0000000000
40
0.0000000000
40
0.0000000000
40
0.0000000000
40
0.0000000000
40
0.0909094935
40
0.3636364896
40
0.6363635104
40
0.9090905065
40
1.0000000000
40
1.0000000000
40
1.0000000000
40
1.0000000000
10
11.9035579044
20
-24.0613273201
30
0.0000000000
10
11.9069931229
20
-24.0593440874
30
0.0000000000
10
11.9205452012
20
-24.0510843457
30
0.0000000000
10
11.9428300649
20
-24.0344022601
30
0.0000000000
10
11.9681377413
20
-24.0090945837
30
0.0000000000
10
11.9848198270
20
-23.9868097200
30
0.0000000000
10
11.9930795686
20
-23.9732576416
30
0.0000000000
10
11.9950628014
20
-23.9698224232
30
0.0000000000
11
11.9035579044
21
-24.0613273201
31
0.0000000000
11
11.9137180728
21
-24.0551346438
31
0.0000000000
11
11.9422726860
21
-24.0337590445
31
0.0000000000
11
11.9674945258
21
-24.0085372047
31
0.0000000000
11
11.9888701251
21
-23.9799825916
31
0.0000000000
11
11.9950628014
21
-23.9698224232
31
0.0000000000
0
SPLINE
5
405
100
AcDbEntity
8
0
100
AcDbSpline
62
7
6
CONTINUOUS
70
0
71
3
72
11
73
7
74
5
42
0.0000001000
43
0.0000001000
44
0.0000000001
12
0.0654462302
22
0.1133614279
32
0.0000000000
13
0.0000000000
23
0.1307863814
33
0.0000000000
40
0.0000000000
40
0.0000000000
40
0.0000000000
40
0.0000000000
40
0.1818178798
40
0.4545453732
40
0.7272727455
40
1.0000000000
40
1.0000000000
40
1.0000000000
40
1.0000000000
10
11.9950628014
20
-23.9698224232
30
0.0000000000
10
11.9990292330
20
-23.9629520450
30
0.0000000000
10
12.0081282287
20
-23.9453042312
30
0.0000000000
10
12.0192458172
20
-23.9154948892
30
0.0000000000
10
12.0268534494
20
-23.8805282513
30
0.0000000000
10
12.0285555669
20
-23.8567139867
30
0.0000000000
10
12.0285555669
20
-23.8448243164
30
0.0000000000
11
11.9950628014
21
-23.9698224232
31
0.0000000000
11
12.0059643391
21
-23.9486765320
31
0.0000000000
11
12.0184292086
21
-23.9152563647
31
0.0000000000
11
12.0260110411
21
-23.8804024518
31
0.0000000000
11
12.0285555669
21
-23.8448243164
31
0.0000000000
0
SPLINE
5
406
100
AcDbEntity
8
0
100
AcDbSpline
62
7
6
CONTINUOUS
70
0
71
3
72
18
73
14
74
12
42
0.0000001000
43
0.0000001000
44
0.0000000001
12
0.0000132796
22
-0.3923546692
32
0.0000000000
13
0.3923546692
23
-0.0000132796
33
0.0000000000
40
0.0000000000
40
0.0000000000
40
0.0000000000
40
0.0000000000
40
0.0909083271
40
0.1818170744
40
0.2727261901
40
0.3636355924
40
0.4545451767
40
0.5454548233
40
0.6363644076
40
0.7272738099
40
0.8181829256
40
0.9090916729
40
1.0000000000
40
1.0000000000
40
1.0000000000
40
1.0000000000
10
9.1329274009
20
-23.8404524824
30
0.0000000000
10
9.1329278033
20
-23.8523419180
30
0.0000000000
10
9.1346307208
20
-23.8761557034
30
0.0000000000
10
9.1422393877
20
-23.9111215333
30
0.0000000000
10
9.1547474673
20
-23.9446562980
30
0.0000000000
10
9.1719003368
20
-23.9760678544
30
0.0000000000
10
9.1933488412
20
-24.0047193308
30
0.0000000000
10
9.2186563218
20
-24.0300268114
30
0.0000000000
10
9.2473077982
20
-24.0514753158
30
0.0000000000
10
9.2787193545
20
-24.0686281853
30
0.0000000000
10
9.3122541192
20
-24.0811362648
30
0.0000000000
10
9.3472199492
20
-24.0887449318
30
0.0000000000
10
9.3710337346
20
-24.0904478492
30
0.0000000000
10
9.3829231701
20
-24.0904482517
30
0.0000000000
11
9.1329274009
21
-23.8404524824
31
0.0000000000
11
9.1354730921
21
-23.8760298285
31
0.0000000000
11
9.1430559365
21
-23.9108829536
31
0.0000000000
11
9.1555215760
21
-23.9443023791
31
0.0000000000
11
9.1726162571
21
-23.9756078111
31
0.0000000000
11
9.1939919963
21
-24.0041619888
31
0.0000000000
11
9.2192136638
21
-24.0293836563
31
0.0000000000
11
9.2477678415
21
-24.0507593955
31
0.0000000000
11
9.2790732735
21
-24.0678540765
31
0.0000000000
11
9.3124926989
21
-24.0803197161
31
0.0000000000
11
9.3473458240
21
-24.0879025605
31
0.0000000000
11
9.3829231701
21
-24.0904482517
31
0.0000000000
0
SPLINE
5
407
100
AcDbEntity
8
0
100
AcDbSpline
62
7
6
CONTINUOUS
70
0
71
3
72
9
73
5
74
3
42
0.0000001000
43
0.0000001000
44
0.0000000001
12
0.0000000000
22
-0.0475573588
32
0.0000000000
13
0.0090083279
23
-0.0467385388
33
0.0000000000
40
0.0000000000
40
0.0000000000
40
0.0000000000
40
0.0000000000
40
0.7500208510
40
1.0000000000
40
1.0000000000
40
1.0000000000
40
1.0000000000
10
9.1285555669
20
-23.8448243164
30
0.0000000000
10
9.1285555669
20
-23.8567139867
30
0.0000000000
10
9.1296902802
20
-23.8725897183
30
0.0000000000
10
9.1323225255
20
-23.8882418279
30
0.0000000000
10
9.1330731569
20
-23.8921363813
30
0.0000000000
11
9.1285555669
21
-23.8448243164
31
0.0000000000
11
9.1311000928
21
-23.8804024518
31
0.0000000000
11
9.1330731569
21
-23.8921363813
31
0.0000000000
0
SPLINE
5
408
100
AcDbEntity
8
0
100
AcDbSpline
62
7
6
CONTINUOUS
70
0
71
3
72
10
73
6
74
4
42
0.0000001000
43
0.0000001000
44
0.0000000001
12
0.0157652643
22
-0.0817960248
32
0.0000000000
13
0.0416482642
23
-0.0721402392
33
0.0000000000
40
0.0000000000
40
0.0000000000
40
0.0000000000
40
0.0000000000
40
0.2857257878
40
0.7142907385
40
1.0000000000
40
1.0000000000
40
1.0000000000
40
1.0000000000
10
9.1330731569
20
-23.8921363813
30
0.0000000000
10
9.1345746711
20
-23.8999267925
30
0.0000000000
10
9.1392548606
20
-23.9192206423
30
0.0000000000
10
9.1489829051
20
-23.9453042312
30
0.0000000000
10
9.1580819009
20
-23.9629520450
30
0.0000000000
10
9.1620483325
20
-23.9698224232
30
0.0000000000
11
9.1330731569
21
-23.8921363813
31
0.0000000000
11
9.1386819252
21
-23.9152563647
31
0.0000000000
11
9.1511467947
21
-23.9486765320
31
0.0000000000
11
9.1620483325
21
-23.9698224232
31
0.0000000000
0
SPLINE
5
409
100
AcDbEntity
8
0
100
AcDbSpline
62
7
6
CONTINUOUS
70
0
71
3
72
12
73
8
74
6
42
0.0000001000
43
0.0000001000
44
0.0000000001
12
0.0654463912
22
-0.1133617068
32
0.0000000000
13
0.1133617068
23
-0.0654463912
33
0.0000000000
40
0.0000000000
40
0.0000000000
40
0.0000000000
40
0.0000000000
40
0.0909094935
40
0.3636364896
40
0.6363635104
40
0.9090905065
40
1.0000000000
40
1.0000000000
40
1.0000000000
40
1.0000000000
10
9.1620483325
20
-23.9698224232
30
0.0000000000
10
9.1640315652
20
-23.9732576416
30
0.0000000000
10
9.1722913068
20
-23.9868097200
30
0.0000000000
10
9.1889733925
20
-24.0090945837
30
0.0000000000
10
9.2142810689
20
-24.0344022601
30
0.0000000000
10
9.2365659326
20
-24.0510843457
30
0.0000000000
10
9.2501180109
20
-24.0593440874
30
0.0000000000
10
9.2535532294
20
-24.0613273201
30
0.0000000000
11
9.1620483325
21
-23.9698224232
31
0.0000000000
11
9.1682410088
21
-23.9799825916
31
0.0000000000
11
9.1896166081
21
-24.0085372047
31
0.0000000000
11
9.2148384479
21
-24.0337590445
31
0.0000000000
11
9.2433930610
21
-24.0551346438
31
0.0000000000
11
9.2535532294
21
-24.0613273201
31
0.0000000000
0
SPLINE
5
40A
100
AcDbEntity
8
0
100
AcDbSpline
62
7
6
CONTINUOUS
70
0
71
3
72
11
73
7
74
5
42
0.0000001000
43
0.0000001000
44
0.0000000001
12
0.1133614279
22
-0.0654462302
32
0.0000000000
13
0.1307863814
23
0.0000000000
33
0.0000000000
40
0.0000000000
40
0.0000000000
40
0.0000000000
40
0.0000000000
40
0.1818178798
40
0.4545453732
40
0.7272727455
40
1.0000000000
40
1.0000000000
40
1.0000000000
40
1.0000000000
10
9.2535532294
20
-24.0613273201
30
0.0000000000
10
9.2604236076
20
-24.0652937517
30
0.0000000000
10
9.2780714214
20
-24.0743927474
30
0.0000000000
10
9.3078807634
20
-24.0855103359
30
0.0000000000
10
9.3428474012
20
-24.0931179681
30
0.0000000000
10
9.3666616659
20
-24.0948200857
30
0.0000000000
10
9.3785513361
20
-24.0948200857
30
0.0000000000
11
9.2535532294
21
-24.0613273201
31
0.0000000000
11
9.2746991206
21
-24.0722288578
31
0.0000000000
11
9.3081192879
21
-24.0846937274
31
0.0000000000
11
9.3429732008
21
-24.0922755598
31
0.0000000000
11
9.3785513361
21
-24.0948200857
31
0.0000000000
0
SPLINE
5
40B
100
AcDbEntity
8
0
100
AcDbSpline
62
7
6
CONTINUOUS
70
0
71
3
72
18
73
14
74
12
42
0.0000001000
43
0.0000001000
44
0.0000000001
12
-0.3923546691
22
-0.0000132796
32
0.0000000000
13
-0.0000132796
23
-0.3923546691
33
0.0000000000
40
0.0000000000
40
0.0000000000
40
0.0000000000
40
0.0000000000
40
0.0907979998
40
0.1817132506
40
0.2726288409
40
0.3635497677
40
0.4544701002
40
0.5453914898
40
0.6363133134
40
0.7272353659
40
0.8181573348
40
0.9090790534
40
1.0000000000
40
1.0000000000
40
1.0000000000
40
1.0000000000
10
-8.0170768299
20
24.9008080803
30
0.0000000000
10
-8.0289518363
20
24.9008076784
30
0.0000000000
10
-8.0527519121
20
24.8991078193
30
0.0000000000
10
-8.0877066010
20
24.8915077542
30
0.0000000000
10
-8.1212463618
20
24.8790038533
30
0.0000000000
10
-8.1526637324
20
24.8618536876
30
0.0000000000
10
-8.1813215189
20
24.8404061184
30
0.0000000000
10
-8.2066350008
20
24.8150981489
30
0.0000000000
10
-8.2280889852
20
24.7864447290
30
0.0000000000
10
-8.2452464576
20
24.7550300044
30
0.0000000000
10
-8.2577580033
20
24.7214911063
30
0.0000000000
10
-8.2653688016
20
24.6865205439
30
0.0000000000
10
-8.2670721966
20
24.6627033971
30
0.0000000000
10
-8.2670725991
20
24.6508123111
30
0.0000000000
11
-8.0170768299
21
24.9008080803
31
0.0000000000
11
-8.0526112195
21
24.8982685629
31
0.0000000000
11
-8.0874681150
21
24.8906910484
31
0.0000000000
11
-8.1208918932
21
24.8782298106
31
0.0000000000
11
-8.1522037571
21
24.8611374744
31
0.0000000000
11
-8.1807640165
21
24.8397628230
31
0.0000000000
11
-8.2059916885
21
24.8145406443
31
0.0000000000
11
-8.2273728761
21
24.7859845469
31
0.0000000000
11
-8.2444721413
21
24.7546759631
31
0.0000000000
11
-8.2569412271
21
24.7212524407
31
0.0000000000
11
-8.2645262013
21
24.6863945706
31
0.0000000000
11
-8.2670725991
21
24.6508123111
31
0.0000000000
0
SPLINE
5
40C
100
AcDbEntity
8
0
100
AcDbSpline
62
7
6
CONTINUOUS
70
0
71
3
72
9
73
5
74
3
42
0.0000001000
43
0.0000001000
44
0.0000000001
12
-0.0475573588
22
0.0000000000
32
0.0000000000
13
-0.0467385388
23
-0.0090083279
33
0.0000000000
40
0.0000000000
40
0.0000000000
40
0.0000000000
40
0.0000000000
40
0.7500208510
40
1.0000000000
40
1.0000000000
40
1.0000000000
40
1.0000000000
10
-8.0214486639
20
24.9051799143
30
0.0000000000
10
-8.0333383341
20
24.9051799143
30
0.0000000000
10
-8.0492140658
20
24.9040452011
30
0.0000000000
10
-8.0648661753
20
24.9014129557
30
0.0000000000
10
-8.0687607287
20
24.9006623243
30
0.0000000000
11
-8.0214486639
21
24.9051799143
31
0.0000000000
11
-8.0570267992
21
24.9026353885
31
0.0000000000
11
-8.0687607287
21
24.9006623243
31
0.0000000000
0
SPLINE
5
40D
100
AcDbEntity
8
0
100
AcDbSpline
62
7
6
CONTINUOUS
70
0
71
3
72
10
73
6
74
4
42
0.0000001000
43
0.0000001000
44
0.0000000001
12
-0.0817960248
22
-0.0157652643
32
0.0000000000
13
-0.0721402392
23
-0.0416482642
33
0.0000000000
40
0.0000000000
40
0.0000000000
40
0.0000000000
40
0.0000000000
40
0.2857257878
40
0.7142907385
40
1.0000000000
40
1.0000000000
40
1.0000000000
40
1.0000000000
10
-8.0687607287
20
24.9006623243
30
0.0000000000
10
-8.0765511399
20
24.8991608101
30
0.0000000000
10
-8.0958449897
20
24.8944806207
30
0.0000000000
10
-8.1219285786
20
24.8847525761
30
0.0000000000
10
-8.1395763924
20
24.8756535804
30
0.0000000000
10
-8.1464467706
20
24.8716871488
30
0.0000000000
11
-8.0687607287
21
24.9006623243
31
0.0000000000
11
-8.0918807121
21
24.8950535560
31
0.0000000000
11
-8.1253008794
21
24.8825886865
31
0.0000000000
11
-8.1464467706
21
24.8716871488
31
0.0000000000
0
SPLINE
5
40E
100
AcDbEntity
8
0
100
AcDbSpline
62
7
6
CONTINUOUS
70
0
71
3
72
12
73
8
74
6
42
0.0000001000
43
0.0000001000
44
0.0000000001
12
-0.1133617068
22
-0.0654463912
32
0.0000000000
13
-0.0654463912
23
-0.1133617068
33
0.0000000000
40
0.0000000000
40
0.0000000000
40
0.0000000000
40
0.0000000000
40
0.0909094935
40
0.3636364896
40
0.6363635104
40
0.9090905065
40
1.0000000000
40
1.0000000000
40
1.0000000000
40
1.0000000000
10
-8.1464467706
20
24.8716871488
30
0.0000000000
10
-8.1498819891
20
24.8697039160
30
0.0000000000
10
-8.1634340674
20
24.8614441744
30
0.0000000000
10
-8.1857189311
20
24.8447620887
30
0.0000000000
10
-8.2110266075
20
24.8194544123
30
0.0000000000
10
-8.2277086932
20
24.7971695486
30
0.0000000000
10
-8.2359684348
20
24.7836174703
30
0.0000000000
10
-8.2379516675
20
24.7801822519
30
0.0000000000
11
-8.1464467706
21
24.8716871488
31
0.0000000000
11
-8.1566069390
21
24.8654944725
31
0.0000000000
11
-8.1851615521
21
24.8441188732
31
0.0000000000
11
-8.2103833919
21
24.8188970334
31
0.0000000000
11
-8.2317589912
21
24.7903424202
31
0.0000000000
11
-8.2379516675
21
24.7801822519
31
0.0000000000
0
SPLINE
5
40F
100
AcDbEntity
8
0
100
AcDbSpline
62
7
6
CONTINUOUS
70
0
71
3
72
11
73
7
74
5
42
0.0000001000
43
0.0000001000
44
0.0000000001
12
-0.0654462302
22
-0.1133614279
32
0.0000000000
13
0.0000000000
23
-0.1307863814
33
0.0000000000
40
0.0000000000
40
0.0000000000
40
0.0000000000
40
0.0000000000
40
0.1818178798
40
0.4545453732
40
0.7272727455
40
1.0000000000
40
1.0000000000
40
1.0000000000
40
1.0000000000
10
-8.2379516675
20
24.7801822519
30
0.0000000000
10
-8.2419180991
20
24.7733118737
30
0.0000000000
10
-8.2510170949
20
24.7556640599
30
0.0000000000
10
-8.2621346833
20
24.7258547179
30
0.0000000000
10
-8.2697423155
20
24.6908880800
30
0.0000000000
10
-8.2714444331
20
24.6670738154
30
0.0000000000
10
-8.2714444331
20
24.6551841451
30
0.0000000000
11
-8.2379516675
21
24.7801822519
31
0.0000000000
11
-8.2488532053
21
24.7590363606
31
0.0000000000
11
-8.2613180748
21
24.7256161933
31
0.0000000000
11
-8.2688999072
21
24.6907622805
31
0.0000000000
11
-8.2714444331
21
24.6551841451
31
0.0000000000
0
SPLINE
5
410
100
AcDbEntity
8
0
100
AcDbSpline
62
7
6
CONTINUOUS
70
0
71
3
72
18
73
14
74
12
42
0.0000001000
43
0.0000001000
44
0.0000000001
12
-0.0000132796
22
0.3923546692
32
0.0000000000
13
-0.3923546692
23
0.0000132796
33
0.0000000000
40
0.0000000000
40
0.0000000000
40
0.0000000000
40
0.0000000000
40
0.0909083271
40
0.1818170744
40
0.2727261901
40
0.3636355924
40
0.4545451767
40
0.5454548233
40
0.6363644076
40
0.7272738099
40
0.8181829256
40
0.9090916729
40
1.0000000000
40
1.0000000000
40
1.0000000000
40
1.0000000000
10
-5.3758162671
20
24.6508123111
30
0.0000000000
10
-5.3758166695
20
24.6627017467
30
0.0000000000
10
-5.3775195870
20
24.6865155321
30
0.0000000000
10
-5.3851282539
20
24.7214813620
30
0.0000000000
10
-5.3976363335
20
24.7550161267
30
0.0000000000
10
-5.4147892029
20
24.7864276831
30
0.0000000000
10
-5.4362377074
20
24.8150791595
30
0.0000000000
10
-5.4615451879
20
24.8403866400
30
0.0000000000
10
-5.4901966643
20
24.8618351445
30
0.0000000000
10
-5.5216082207
20
24.8789880140
30
0.0000000000
10
-5.5551429854
20
24.8914960935
30
0.0000000000
10
-5.5901088154
20
24.8991047605
30
0.0000000000
10
-5.6139226008
20
24.9008076779
30
0.0000000000
10
-5.6258120363
20
24.9008080803
30
0.0000000000
11
-5.3758162671
21
24.6508123111
31
0.0000000000
11
-5.3783619582
21
24.6863896572
31
0.0000000000
11
-5.3859448027
21
24.7212427823
31
0.0000000000
11
-5.3984104422
21
24.7546622078
31
0.0000000000
11
-5.4155051233
21
24.7859676398
31
0.0000000000
11
-5.4368808624
21
24.8145218174
31
0.0000000000
11
-5.4621025300
21
24.8397434850
31
0.0000000000
11
-5.4906567076
21
24.8611192242
31
0.0000000000
11
-5.5219621396
21
24.8782139052
31
0.0000000000
11
-5.5553815651
21
24.8906795448
31
0.0000000000
11
-5.5902346902
21
24.8982623892
31
0.0000000000
11
-5.6258120363
21
24.9008080803
31
0.0000000000
0
SPLINE
5
411
100
AcDbEntity
8
0
100
AcDbSpline
62
7
6
CONTINUOUS
70
0
71
3
72
9
73
5
74
3
42
0.0000001000
43
0.0000001000
44
0.0000000001
12
0.0000000000
22
0.0475573588
32
0.0000000000
13
-0.0090083279
23
0.0467385388
33
0.0000000000
40
0.0000000000
40
0.0000000000
40
0.0000000000
40
0.0000000000
40
0.7500208510
40
1.0000000000
40
1.0000000000
40
1.0000000000
40
1.0000000000
10
-5.3714444331
20
24.6551841451
30
0.0000000000
10
-5.3714444331
20
24.6670738154
30
0.0000000000
10
-5.3725791463
20
24.6829495470
30
0.0000000000
10
-5.3752113917
20
24.6986016566
30
0.0000000000
10
-5.3759620231
20
24.7024962100
30
0.0000000000
11
-5.3714444331
21
24.6551841451
31
0.0000000000
11
-5.3739889589
21
24.6907622805
31
0.0000000000
11
-5.3759620231
21
24.7024962100
31
0.0000000000
0
SPLINE
5
412
100
AcDbEntity
8
0
100
AcDbSpline
62
7
6
CONTINUOUS
70
0
71
3
72
10
73
6
74
4
42
0.0000001000
43
0.0000001000
44
0.0000000001
12
-0.0157652643
22
0.0817960248
32
0.0000000000
13
-0.0416482642
23
0.0721402392
33
0.0000000000
40
0.0000000000
40
0.0000000000
40
0.0000000000
40
0.0000000000
40
0.2857257878
40
0.7142907385
40
1.0000000000
40
1.0000000000
40
1.0000000000
40
1.0000000000
10
-5.3759620231
20
24.7024962100
30
0.0000000000
10
-5.3774635373
20
24.7102866212
30
0.0000000000
10
-5.3821437267
20
24.7295804709
30
0.0000000000
10
-5.3918717713
20
24.7556640599
30
0.0000000000
10
-5.4009707670
20
24.7733118737
30
0.0000000000
10
-5.4049371986
20
24.7801822519
30
0.0000000000
11
-5.3759620231
21
24.7024962100
31
0.0000000000
11
-5.3815707914
21
24.7256161933
31
0.0000000000
11
-5.3940356609
21
24.7590363606
31
0.0000000000
11
-5.4049371986
21
24.7801822519
31
0.0000000000
0
SPLINE
5
413
100
AcDbEntity
8
0
100
AcDbSpline
62
7
6
CONTINUOUS
70
0
71
3
72
12
73
8
74
6
42
0.0000001000
43
0.0000001000
44
0.0000000001
12
-0.0654463912
22
0.1133617068
32
0.0000000000
13
-0.1133617068
23
0.0654463912
33
0.0000000000
40
0.0000000000
40
0.0000000000
40
0.0000000000
40
0.0000000000
40
0.0909094935
40
0.3636364896
40
0.6363635104
40
0.9090905065
40
1.0000000000
40
1.0000000000
40
1.0000000000
40
1.0000000000
10
-5.4049371986
20
24.7801822519
30
0.0000000000
10
-5.4069204314
20
24.7836174703
30
0.0000000000
10
-5.4151801730
20
24.7971695486
30
0.0000000000
10
-5.4318622587
20
24.8194544123
30
0.0000000000
10
-5.4571699351
20
24.8447620887
30
0.0000000000
10
-5.4794547988
20
24.8614441744
30
0.0000000000
10
-5.4930068771
20
24.8697039160
30
0.0000000000
10
-5.4964420956
20
24.8716871488
30
0.0000000000
11
-5.4049371986
21
24.7801822519
31
0.0000000000
11
-5.4111298749
21
24.7903424202
31
0.0000000000
11
-5.4325054742
21
24.8188970334
31
0.0000000000
11
-5.4577273140
21
24.8441188732
31
0.0000000000
11
-5.4862819272
21
24.8654944725
31
0.0000000000
11
-5.4964420956
21
24.8716871488
31
0.0000000000
0
SPLINE
5
414
100
AcDbEntity
8
0
100
AcDbSpline
62
7
6
CONTINUOUS
70
0
71
3
72
11
73
7
74
5
42
0.0000001000
43
0.0000001000
44
0.0000000001
12
-0.1133614279
22
0.0654462302
32
0.0000000000
13
-0.1307863814
23
0.0000000000
33
0.0000000000
40
0.0000000000
40
0.0000000000
40
0.0000000000
40
0.0000000000
40
0.1818178798
40
0.4545453732
40
0.7272727455
40
1.0000000000
40
1.0000000000
40
1.0000000000
40
1.0000000000
10
-5.4964420956
20
24.8716871488
30
0.0000000000
10
-5.5033124737
20
24.8756535804
30
0.0000000000
10
-5.5209602876
20
24.8847525761
30
0.0000000000
10
-5.5507696295
20
24.8958701646
30
0.0000000000
10
-5.5857362674
20
24.9034777968
30
0.0000000000
10
-5.6095505321
20
24.9051799143
30
0.0000000000
10
-5.6214402023
20
24.9051799143
30
0.0000000000
11
-5.4964420956
21
24.8716871488
31
0.0000000000
11
-5.5175879868
21
24.8825886865
31
0.0000000000
11
-5.5510081541
21
24.8950535560
31
0.0000000000
11
-5.5858620669
21
24.9026353885
31
0.0000000000
11
-5.6214402023
21
24.9051799143
31
0.0000000000
0
SPLINE
5
415
100
AcDbEntity
8
0
100
AcDbSpline
62
7
6
CONTINUOUS
70
0
71
3
72
18
73
14
74
12
42
0.0000001000
43
0.0000001000
44
0.0000000001
12
-0.3923546691
22
-0.0000132796
32
0.0000000000
13
-0.0000132796
23
-0.3923546691
33
0.0000000000
40
0.0000000000
40
0.0000000000
40
0.0000000000
40
0.0000000000
40
0.0907979998
40
0.1817132506
40
0.2726288409
40
0.3635497677
40
0.4544701002
40
0.5453914898
40
0.6363133134
40
0.7272353659
40
0.8181573348
40
0.9090790534
40
1.0000000000
40
1.0000000000
40
1.0000000000
40
1.0000000000
10
9.3829231701
20
24.9008080803
30
0.0000000000
10
9.3710481637
20
24.9008076784
30
0.0000000000
10
9.3472480879
20
24.8991078193
30
0.0000000000
10
9.3122933990
20
24.8915077542
30
0.0000000000
10
9.2787536382
20
24.8790038533
30
0.0000000000
10
9.2473362676
20
24.8618536876
30
0.0000000000
10
9.2186784811
20
24.8404061184
30
0.0000000000
10
9.1933649992
20
24.8150981489
30
0.0000000000
10
9.1719110148
20
24.7864447290
30
0.0000000000
10
9.1547535424
20
24.7550300044
30
0.0000000000
10
9.1422419967
20
24.7214911063
30
0.0000000000
10
9.1346311984
20
24.6865205439
30
0.0000000000
10
9.1329278034
20
24.6627033971
30
0.0000000000
10
9.1329274009
20
24.6508123111
30
0.0000000000
11
9.3829231701
21
24.9008080803
31
0.0000000000
11
9.3473887805
21
24.8982685629
31
0.0000000000
11
9.3125318850
21
24.8906910484
31
0.0000000000
11
9.2791081068
21
24.8782298106
31
0.0000000000
11
9.2477962429
21
24.8611374744
31
0.0000000000
11
9.2192359835
21
24.8397628230
31
0.0000000000
11
9.1940083115
21
24.8145406443
31
0.0000000000
11
9.1726271239
21
24.7859845469
31
0.0000000000
11
9.1555278587
21
24.7546759631
31
0.0000000000
11
9.1430587729
21
24.7212524407
31
0.0000000000
11
9.1354737987
21
24.6863945706
31
0.0000000000
11
9.1329274009
21
24.6508123111
31
0.0000000000
0
SPLINE
5
416
100
AcDbEntity
8
0
100
AcDbSpline
62
7
6
CONTINUOUS
70
0
71
3
72
9
73
5
74
3
42
0.0000001000
43
0.0000001000
44
0.0000000001
12
-0.0475573588
22
0.0000000000
32
0.0000000000
13
-0.0467385388
23
-0.0090083279
33
0.0000000000
40
0.0000000000
40
0.0000000000
40
0.0000000000
40
0.0000000000
40
0.7500208510
40
1.0000000000
40
1.0000000000
40
1.0000000000
40
1.0000000000
10
9.3785513361
20
24.9051799143
30
0.0000000000
10
9.3666616659
20
24.9051799143
30
0.0000000000
10
9.3507859342
20
24.9040452011
30
0.0000000000
10
9.3351338247
20
24.9014129557
30
0.0000000000
10
9.3312392713
20
24.9006623243
30
0.0000000000
11
9.3785513361
21
24.9051799143
31
0.0000000000
11
9.3429732008
21
24.9026353885
31
0.0000000000
11
9.3312392713
21
24.9006623243
31
0.0000000000
0
SPLINE
5
417
100
AcDbEntity
8
0
100
AcDbSpline
62
7
6
CONTINUOUS
70
0
71
3
72
10
73
6
74
4
42
0.0000001000
43
0.0000001000
44
0.0000000001
12
-0.0817960248
22
-0.0157652643
32
0.0000000000
13
-0.0721402392
23
-0.0416482642
33
0.0000000000
40
0.0000000000
40
0.0000000000
40
0.0000000000
40
0.0000000000
40
0.2857257878
40
0.7142907385
40
1.0000000000
40
1.0000000000
40
1.0000000000
40
1.0000000000
10
9.3312392713
20
24.9006623243
30
0.0000000000
10
9.3234488601
20
24.8991608101
30
0.0000000000
10
9.3041550103
20
24.8944806207
30
0.0000000000
10
9.2780714214
20
24.8847525761
30
0.0000000000
10
9.2604236076
20
24.8756535804
30
0.0000000000
10
9.2535532294
20
24.8716871488
30
0.0000000000
11
9.3312392713
21
24.9006623243
31
0.0000000000
11
9.3081192879
21
24.8950535560
31
0.0000000000
11
9.2746991206
21
24.8825886865
31
0.0000000000
11
9.2535532294
21
24.8716871488
31
0.0000000000
0
SPLINE
5
418
100
AcDbEntity
8
0
100
AcDbSpline
62
7
6
CONTINUOUS
70
0
71
3
72
12
73
8
74
6
42
0.0000001000
43
0.0000001000
44
0.0000000001
12
-0.1133617068
22
-0.0654463912
32
0.0000000000
13
-0.0654463912
23
-0.1133617068
33
0.0000000000
40
0.0000000000
40
0.0000000000
40
0.0000000000
40
0.0000000000
40
0.0909094935
40
0.3636364896
40
0.6363635104
40
0.9090905065
40
1.0000000000
40
1.0000000000
40
1.0000000000
40
1.0000000000
10
9.2535532294
20
24.8716871488
30
0.0000000000
10
9.2501180109
20
24.8697039160
30
0.0000000000
10
9.2365659326
20
24.8614441744
30
0.0000000000
10
9.2142810689
20
24.8447620887
30
0.0000000000
10
9.1889733925
20
24.8194544123
30
0.0000000000
10
9.1722913068
20
24.7971695486
30
0.0000000000
10
9.1640315652
20
24.7836174703
30
0.0000000000
10
9.1620483325
20
24.7801822519
30
0.0000000000
11
9.2535532294
21
24.8716871488
31
0.0000000000
11
9.2433930610
21
24.8654944725
31
0.0000000000
11
9.2148384479
21
24.8441188732
31
0.0000000000
11
9.1896166081
21
24.8188970334
31
0.0000000000
11
9.1682410088
21
24.7903424202
31
0.0000000000
11
9.1620483325
21
24.7801822519
31
0.0000000000
0
SPLINE
5
419
100
AcDbEntity
8
0
100
AcDbSpline
62
7
6
CONTINUOUS
70
0
71
3
72
11
73
7
74
5
42
0.0000001000
43
0.0000001000
44
0.0000000001
12
-0.0654462302
22
-0.1133614279
32
0.0000000000
13
0.0000000000
23
-0.1307863814
33
0.0000000000
40
0.0000000000
40
0.0000000000
40
0.0000000000
40
0.0000000000
40
0.1818178798
40
0.4545453732
40
0.7272727455
40
1.0000000000
40
1.0000000000
40
1.0000000000
40
1.0000000000
10
9.1620483325
20
24.7801822519
30
0.0000000000
10
9.1580819009
20
24.7733118737
30
0.0000000000
10
9.1489829051
20
24.7556640599
30
0.0000000000
10
9.1378653167
20
24.7258547179
30
0.0000000000
10
9.1302576845
20
24.6908880800
30
0.0000000000
10
9.1285555669
20
24.6670738154
30
0.0000000000
10
9.1285555669
20
24.6551841451
30
0.0000000000
11
9.1620483325
21
24.7801822519
31
0.0000000000
11
9.1511467947
21
24.7590363606
31
0.0000000000
11
9.1386819252
21
24.7256161933
31
0.0000000000
11
9.1311000928
21
24.6907622805
31
0.0000000000
11
9.1285555669
21
24.6551841451
31
0.0000000000
0
SPLINE
5
41A
100
AcDbEntity
8
0
100
AcDbSpline
62
7
6
CONTINUOUS
70
0
71
3
72
18
73
14
74
12
42
0.0000001000
43
0.0000001000
44
0.0000000001
12
-0.0000132796
22
0.3923546691
32
0.0000000000
13
-0.3923546691
23
0.0000132796
33
0.0000000000
40
0.0000000000
40
0.0000000000
40
0.0000000000
40
0.0000000000
40
0.0909209466
40
0.1818426652
40
0.2727646341
40
0.3636866866
40
0.4546085102
40
0.5455298998
40
0.6364502323
40
0.7273711591
40
0.8182867494
40
0.9092020002
40
1.0000000000
40
1.0000000000
40
1.0000000000
40
1.0000000000
10
12.0241837329
20
24.6508123111
30
0.0000000000
10
12.0241833305
20
24.6627033971
30
0.0000000000
10
12.0224799354
20
24.6865205439
30
0.0000000000
10
12.0148691371
20
24.7214911063
30
0.0000000000
10
12.0023575915
20
24.7550300044
30
0.0000000000
10
11.9852001190
20
24.7864447290
30
0.0000000000
10
11.9637461346
20
24.8150981489
30
0.0000000000
10
11.9384326528
20
24.8404061184
30
0.0000000000
10
11.9097748662
20
24.8618536876
30
0.0000000000
10
11.8783574957
20
24.8790038533
30
0.0000000000
10
11.8448177348
20
24.8915077542
30
0.0000000000
10
11.8098630460
20
24.8991078193
30
0.0000000000
10
11.7860629701
20
24.9008076784
30
0.0000000000
10
11.7741879637
20
24.9008080803
30
0.0000000000
11
12.0241837329
21
24.6508123111
31
0.0000000000
11
12.0216373351
21
24.6863945706
31
0.0000000000
11
12.0140523609
21
24.7212524407
31
0.0000000000
11
12.0015832751
21
24.7546759631
31
0.0000000000
11
11.9844840100
21
24.7859845469
31
0.0000000000
11
11.9631028223
21
24.8145406443
31
0.0000000000
11
11.9378751503
21
24.8397628230
31
0.0000000000
11
11.9093148909
21
24.8611374744
31
0.0000000000
11
11.8780030270
21
24.8782298106
31
0.0000000000
11
11.8445792488
21
24.8906910484
31
0.0000000000
11
11.8097223533
21
24.8982685629
31
0.0000000000
11
11.7741879637
21
24.9008080803
31
0.0000000000
0
SPLINE
5
41B
100
AcDbEntity
8
0
100
AcDbSpline
62
7
6
CONTINUOUS
70
0
71
3
72
9
73
5
74
3
42
0.0000001000
43
0.0000001000
44
0.0000000001
12
0.0000000000
22
0.0475573588
32
0.0000000000
13
-0.0090083279
23
0.0467385388
33
0.0000000000
40
0.0000000000
40
0.0000000000
40
0.0000000000
40
0.0000000000
40
0.7500208510
40
1.0000000000
40
1.0000000000
40
1.0000000000
40
1.0000000000
10
12.0285555669
20
24.6551841451
30
0.0000000000
10
12.0285555669
20
24.6670738154
30
0.0000000000
10
12.0274208537
20
24.6829495470
30
0.0000000000
10
12.0247886083
20
24.6986016566
30
0.0000000000
10
12.0240379769
20
24.7024962100
30
0.0000000000
11
12.0285555669
21
24.6551841451
31
0.0000000000
11
12.0260110411
21
24.6907622805
31
0.0000000000
11
12.0240379769
21
24.7024962100
31
0.0000000000
0
SPLINE
5
41C
100
AcDbEntity
8
0
100
AcDbSpline
62
7
6
CONTINUOUS
70
0
71
3
72
10
73
6
74
4
42
0.0000001000
43
0.0000001000
44
0.0000000001
12
-0.0157652643
22
0.0817960248
32
0.0000000000
13
-0.0416482642
23
0.0721402392
33
0.0000000000
40
0.0000000000
40
0.0000000000
40
0.0000000000
40
0.0000000000
40
0.2857257878
40
0.7142907385
40
1.0000000000
40
1.0000000000
40
1.0000000000
40
1.0000000000
10
12.0240379769
20
24.7024962100
30
0.0000000000
10
12.0225364627
20
24.7102866212
30
0.0000000000
10
12.0178562733
20
24.7295804709
30
0.0000000000
10
12.0081282287
20
24.7556640599
30
0.0000000000
10
11.9990292330
20
24.7733118737
30
0.0000000000
10
11.9950628014
20
24.7801822519
30
0.0000000000
11
12.0240379769
21
24.7024962100
31
0.0000000000
11
12.0184292086
21
24.7256161933
31
0.0000000000
11
12.0059643391
21
24.7590363606
31
0.0000000000
11
11.9950628014
21
24.7801822519
31
0.0000000000
0
SPLINE
5
41D
100
AcDbEntity
8
0
100
AcDbSpline
62
7
6
CONTINUOUS
70
0
71
3
72
12
73
8
74
6
42
0.0000001000
43
0.0000001000
44
0.0000000001
12
-0.0654463912
22
0.1133617068
32
0.0000000000
13
-0.1133617068
23
0.0654463912
33
0.0000000000
40
0.0000000000
40
0.0000000000
40
0.0000000000
40
0.0000000000
40
0.0909094935
40
0.3636364896
40
0.6363635104
40
0.9090905065
40
1.0000000000
40
1.0000000000
40
1.0000000000
40
1.0000000000
10
11.9950628014
20
24.7801822519
30
0.0000000000
10
11.9930795686
20
24.7836174703
30
0.0000000000
10
11.9848198270
20
24.7971695486
30
0.0000000000
10
11.9681377413
20
24.8194544123
30
0.0000000000
10
11.9428300649
20
24.8447620887
30
0.0000000000
10
11.9205452012
20
24.8614441744
30
0.0000000000
10
11.9069931229
20
24.8697039160
30
0.0000000000
10
11.9035579044
20
24.8716871488
30
0.0000000000
11
11.9950628014
21
24.7801822519
31
0.0000000000
11
11.9888701251
21
24.7903424202
31
0.0000000000
11
11.9674945258
21
24.8188970334
31
0.0000000000
11
11.9422726860
21
24.8441188732
31
0.0000000000
11
11.9137180728
21
24.8654944725
31
0.0000000000
11
11.9035579044
21
24.8716871488
31
0.0000000000
0
SPLINE
5
41E
100
AcDbEntity
8
0
100
AcDbSpline
62
7
6
CONTINUOUS
70
0
71
3
72
11
73
7
74
5
42
0.0000001000
43
0.0000001000
44
0.0000000001
12
-0.1133614279
22
0.0654462302
32
0.0000000000
13
-0.1307863814
23
0.0000000000
33
0.0000000000
40
0.0000000000
40
0.0000000000
40
0.0000000000
40
0.0000000000
40
0.1818178798
40
0.4545453732
40
0.7272727455
40
1.0000000000
40
1.0000000000
40
1.0000000000
40
1.0000000000
10
11.9035579044
20
24.8716871488
30
0.0000000000
10
11.8966875263
20
24.8756535804
30
0.0000000000
10
11.8790397124
20
24.8847525761
30
0.0000000000
10
11.8492303705
20
24.8958701646
30
0.0000000000
10
11.8142637326
20
24.9034777968
30
0.0000000000
10
11.7904494679
20
24.9051799143
30
0.0000000000
10
11.7785597977
20
24.9051799143
30
0.0000000000
11
11.9035579044
21
24.8716871488
31
0.0000000000
11
11.8824120132
21
24.8825886865
31
0.0000000000
11
11.8489918459
21
24.8950535560
31
0.0000000000
11
11.8141379331
21
24.9026353885
31
0.0000000000
11
11.7785597977
21
24.9051799143
31
0.0000000000
0
SPLINE
5
41F
100
AcDbEntity
8
0
100
AcDbSpline
62
7
6
CONTINUOUS
70
0
71
3
72
11
73
7
74
5
42
0.0000001000
43
0.0000001000
44
0.0000000001
12
0.1414292616
22
-0.1414292616
32
0.0000000000
13
0.0000000000
23
-0.2000111798
33
0.0000000000
40
0.0000000000
40
0.0000000000
40
0.0000000000
40
0.0000000000
40
0.0788107120
40
0.2970099992
40
0.6208716684
40
1.0000000000
40
1.0000000000
40
1.0000000000
40
1.0000000000
10
8.4728209701
20
-19.6890854889
30
0.0000000000
10
8.4765363504
20
-19.6928008691
30
0.0000000000
10
8.4693793722
20
-19.7161467906
30
0.0000000000
10
8.4765842756
20
-19.7543833615
30
0.0000000000
10
8.4735231975
20
-19.8173773634
30
0.0000000000
10
8.4745511126
20
-19.8638012385
30
0.0000000000
10
8.4745511126
20
-19.8890778735
30
0.0000000000
11
8.4728209701
21
-19.6890854889
31
0.0000000000
11
8.4734847763
21
-19.7048345292
31
0.0000000000
11
8.4740469907
21
-19.7484732046
31
0.0000000000
11
8.4744207954
21
-19.8132480806
31
0.0000000000
11
8.4745511126
21
-19.8890778735
31
0.0000000000
0
SPLINE
5
420
100
AcDbEntity
8
0
100
AcDbSpline
62
7
6
CONTINUOUS
70
0
71
3
72
11
73
7
74
5
42
0.0000001000
43
0.0000001000
44
0.0000000001
12
0.0000000000
22
0.1969716372
32
0.0000000000
13
-0.0097367062
23
0.1967308375
33
0.0000000000
40
0.0000000000
40
0.0000000000
40
0.0000000000
40
0.0000000000
40
0.3457172472
40
0.6517570504
40
0.8794155382
40
1.0000000000
40
1.0000000000
40
1.0000000000
40
1.0000000000
10
8.4745511126
20
-19.4626400119
30
0.0000000000
10
8.4745511126
20
-19.4399411812
30
0.0000000000
10
8.4744775459
20
-19.3971493050
30
0.0000000000
10
8.4742524520
20
-19.3394071922
30
0.0000000000
10
8.4737557960
20
-19.2964565235
30
0.0000000000
10
8.4735001852
20
-19.2735860220
30
0.0000000000
10
8.4731088200
20
-19.2656784613
30
0.0000000000
11
8.4745511126
21
-19.4626400119
31
0.0000000000
11
8.4744468283
21
-19.3945435996
31
0.0000000000
11
8.4741440945
21
-19.3342631986
31
0.0000000000
11
8.4736782508
21
-19.2894233533
31
0.0000000000
11
8.4731088200
21
-19.2656784613
31
0.0000000000
0
SPLINE
5
421
100
AcDbEntity
8
0
100
AcDbSpline
62
7
6
CONTINUOUS
70
0
71
3
72
11
73
7
74
5
42
0.0000001000
43
0.0000001000
44
0.0000000001
12
-0.0097367062
22
-0.1967308375
32
0.0000000000
13
-0.0000000000
23
-0.1969716372
33
0.0000000000
40
0.0000000000
40
0.0000000000
40
0.0000000000
40
0.0000000000
40
0.1205844618
40
0.3482429496
40
0.6542827528
40
1.0000000000
40
1.0000000000
40
1.0000000000
40
1.0000000000
10
9.0840023138
20
-19.2656784613
30
0.0000000000
10
9.0836109487
20
-19.2735860220
30
0.0000000000
10
9.0833553379
20
-19.2964565235
30
0.0000000000
10
9.0828586818
20
-19.3394071922
30
0.0000000000
10
9.0826335879
20
-19.3971493050
30
0.0000000000
10
9.0825600212
20
-19.4399411812
30
0.0000000000
10
9.0825600212
20
-19.4626400119
30
0.0000000000
11
9.0840023138
21
-19.2656784613
31
0.0000000000
11
9.0834328830
21
-19.2894233533
31
0.0000000000
11
9.0829670394
21
-19.3342631986
31
0.0000000000
11
9.0826643055
21
-19.3945435996
31
0.0000000000
11
9.0825600212
21
-19.4626400119
31
0.0000000000
0
SPLINE
5
422
100
AcDbEntity
8
0
100
AcDbSpline
62
7
6
CONTINUOUS
70
0
71
3
72
11
73
7
74
5
42
0.0000001000
43
0.0000001000
44
0.0000000001
12
0.0000000000
22
0.1969716372
32
0.0000000000
13
-0.0097367062
23
0.1967308375
33
0.0000000000
40
0.0000000000
40
0.0000000000
40
0.0000000000
40
0.0000000000
40
0.3457172472
40
0.6517570504
40
0.8794155382
40
1.0000000000
40
1.0000000000
40
1.0000000000
40
1.0000000000
10
-5.3254488874
20
-19.4626400119
30
0.0000000000
10
-5.3254488874
20
-19.4399411812
30
0.0000000000
10
-5.3255224541
20
-19.3971493050
30
0.0000000000
10
-5.3257475480
20
-19.3394071922
30
0.0000000000
10
-5.3262442040
20
-19.2964565235
30
0.0000000000
10
-5.3264998148
20
-19.2735860220
30
0.0000000000
10
-5.3268911800
20
-19.2656784613
30
0.0000000000
11
-5.3254488874
21
-19.4626400119
31
0.0000000000
11
-5.3255531717
21
-19.3945435996
31
0.0000000000
11
-5.3258559055
21
-19.3342631986
31
0.0000000000
11
-5.3263217492
21
-19.2894233533
31
0.0000000000
11
-5.3268911800
21
-19.2656784613
31
0.0000000000
0
SPLINE
5
423
100
AcDbEntity
8
0
100
AcDbSpline
62
7
6
CONTINUOUS
70
0
71
3
72
11
73
7
74
5
42
0.0000001000
43
0.0000001000
44
0.0000000001
12
-0.0097367062
22
-0.1967308375
32
0.0000000000
13
0.0000000000
23
-0.1969716372
33
0.0000000000
40
0.0000000000
40
0.0000000000
40
0.0000000000
40
0.0000000000
40
0.1205844618
40
0.3482429496
40
0.6542827528
40
1.0000000000
40
1.0000000000
40
1.0000000000
40
1.0000000000
10
-4.7159976862
20
-19.2656784613
30
0.0000000000
10
-4.7163890513
20
-19.2735860220
30
0.0000000000
10
-4.7166446621
20
-19.2964565235
30
0.0000000000
10
-4.7171413182
20
-19.3394071922
30
0.0000000000
10
-4.7173664121
20
-19.3971493050
30
0.0000000000
10
-4.7174399788
20
-19.4399411812
30
0.0000000000
10
-4.7174399788
20
-19.4626400119
30
0.0000000000
11
-4.7159976862
21
-19.2656784613
31
0.0000000000
11
-4.7165671170
21
-19.2894233533
31
0.0000000000
11
-4.7170329606
21
-19.3342631986
31
0.0000000000
11
-4.7173356945
21
-19.3945435996
31
0.0000000000
11
-4.7174399788
21
-19.4626400119
31
0.0000000000
0
SPLINE
5
424
100
AcDbEntity
8
0
100
AcDbSpline
62
7
6
CONTINUOUS
70
0
71
3
72
11
73
7
74
5
42
0.0000001000
43
0.0000001000
44
0.0000000001
12
0.0000000000
22
-0.1969716372
32
0.0000000000
13
0.0097367062
23
-0.1967308375
33
0.0000000000
40
0.0000000000
40
0.0000000000
40
0.0000000000
40
0.0000000000
40
0.3457172472
40
0.6517570504
40
0.8794155382
40
1.0000000000
40
1.0000000000
40
1.0000000000
40
1.0000000000
10
-4.7174399788
20
20.2729998406
30
0.0000000000
10
-4.7174399788
20
20.2503010098
30
0.0000000000
10
-4.7173664121
20
20.2075091337
30
0.0000000000
10
-4.7171413182
20
20.1497670209
30
0.0000000000
10
-4.7166446621
20
20.1068163522
30
0.0000000000
10
-4.7163890513
20
20.0839458507
30
0.0000000000
10
-4.7159976862
20
20.0760382900
30
0.0000000000
11
-4.7174399788
21
20.2729998406
31
0.0000000000
11
-4.7173356945
21
20.2049034282
31
0.0000000000
11
-4.7170329606
21
20.1446230273
31
0.0000000000
11
-4.7165671170
21
20.0997831820
31
0.0000000000
11
-4.7159976862
21
20.0760382900
31
0.0000000000
0
SPLINE
5
425
100
AcDbEntity
8
0
100
AcDbSpline
62
7
6
CONTINUOUS
70
0
71
3
72
20
73
16
74
14
42
0.0000001000
43
0.0000001000
44
0.0000000001
12
-0.4646867855
22
0.4881752433
32
0.0000000000
13
0.0000000000
23
0.6739798786
33
0.0000000000
40
0.0000000000
40
0.0000000000
40
0.0000000000
40
0.0000000000
40
0.1388713231
40
0.2749115227
40
0.4037834237
40
0.5214526785
40
0.6254136342
40
0.7150230414
40
0.7908650114
40
0.8533989954
40
0.9034986065
40
0.9422325024
40
0.9708206345
40
0.9898666645
40
1.0000000000
40
1.0000000000
40
1.0000000000
40
1.0000000000
10
5.8315982768
20
23.8615377290
30
0.0000000000
10
5.8100877206
20
23.8841355764
30
0.0000000000
10
5.7675050767
20
23.9288705232
30
0.0000000000
10
5.7050079345
20
23.9946210542
30
0.0000000000
10
5.6458863838
20
24.0570084079
30
0.0000000000
10
5.5918611026
20
24.1142958749
30
0.0000000000
10
5.5440673135
20
24.1653357245
30
0.0000000000
10
5.5029169779
20
24.2097202287
30
0.0000000000
10
5.4683495492
20
24.2475204238
30
0.0000000000
10
5.4400880648
20
24.2790417578
30
0.0000000000
10
5.4177192293
20
24.3046865795
30
0.0000000000
10
5.4008707086
20
24.3249169790
30
0.0000000000
10
5.3888242593
20
24.3403002835
30
0.0000000000
10
5.3818197543
20
24.3509432042
30
0.0000000000
10
5.3785555669
20
24.3570513037
30
0.0000000000
10
5.3785555669
20
24.3593278584
30
0.0000000000
11
5.8315982768
21
23.8615377290
31
0.0000000000
11
5.7670747512
21
23.9293390213
31
0.0000000000
11
5.7039155907
21
23.9958046161
31
0.0000000000
11
5.6441819090
21
24.0588604451
31
0.0000000000
11
5.5897842185
21
24.1165704575
31
0.0000000000
11
5.5419091903
21
24.1677314697
31
0.0000000000
11
5.5008684733
21
24.2120395729
31
0.0000000000
11
5.4664013407
21
24.2497868683
31
0.0000000000
11
5.4382988778
21
24.2811969212
31
0.0000000000
11
5.4161608634
21
24.3066931924
31
0.0000000000
11
5.3995042695
21
24.3267947879
31
0.0000000000
11
5.3878060345
21
24.3421049286
31
0.0000000000
11
5.3808557582
21
24.3528971949
31
0.0000000000
11
5.3785555669
21
24.3593278584
31
0.0000000000
0
SPLINE
5
426
100
AcDbEntity
8
0
100
AcDbSpline
62
7
6
CONTINUOUS
70
0
71
3
72
20
73
16
74
14
42
0.0000001000
43
0.0000001000
44
0.0000000001
12
-0.0392566671
22
-0.6725884001
32
0.0000000000
13
-0.4645166152
23
-0.4879964714
33
0.0000000000
40
0.0000000000
40
0.0000000000
40
0.0000000000
40
0.0000000000
40
0.0105350590
40
0.0299438888
40
0.0588398542
40
0.0978545055
40
0.1482120786
40
0.2109386931
40
0.2868777404
40
0.3764553953
40
0.4802422333
40
0.5976470591
40
0.7262204869
40
0.8618061527
40
1.0000000000
40
1.0000000000
40
1.0000000000
40
1.0000000000
10
6.2846333199
20
24.3590721874
30
0.0000000000
10
6.2844954628
20
24.3567102679
30
0.0000000000
10
6.2811392103
20
24.3505304177
30
0.0000000000
10
6.2739168171
20
24.3396924945
30
0.0000000000
10
6.2617343379
20
24.3241857222
30
0.0000000000
10
6.2447403182
20
24.3038275750
30
0.0000000000
10
6.2222600075
20
24.2780844328
30
0.0000000000
10
6.1939140297
20
24.2464923149
30
0.0000000000
10
6.1593122844
20
24.2086712429
30
0.0000000000
10
6.1181875243
20
24.1643263003
30
0.0000000000
10
6.0704795425
20
24.1133859778
30
0.0000000000
10
6.0165852023
20
24.0562421463
30
0.0000000000
10
5.9576412182
20
23.9940446903
30
0.0000000000
10
5.8953878251
20
23.9285515260
30
0.0000000000
10
5.8529960562
20
23.8840170990
30
0.0000000000
10
5.8315982768
20
23.8615377290
30
0.0000000000
11
6.2846333199
21
24.3590721874
31
0.0000000000
11
6.2820943060
21
24.3524440336
31
0.0000000000
11
6.2749505540
21
24.3414914874
31
0.0000000000
11
6.2630947346
21
24.3260496907
31
0.0000000000
11
6.2463001870
21
24.3058291909
31
0.0000000000
11
6.2240397314
21
24.2802254493
31
0.0000000000
11
6.1958488357
21
24.2487410877
31
0.0000000000
11
6.1613413119
21
24.2109674559
31
0.0000000000
11
6.1203238517
21
24.1666971181
31
0.0000000000
11
6.0725422864
21
24.1156444481
31
0.0000000000
11
6.0182841342
21
24.0580876423
31
0.0000000000
11
5.9587092383
21
23.9952022028
31
0.0000000000
11
5.8957836002
21
23.9289834672
31
0.0000000000
11
5.8315982768
21
23.8615377290
31
0.0000000000
0
SPLINE
5
427
100
AcDbEntity
8
0
100
AcDbSpline
62
7
6
CONTINUOUS
70
0
71
3
72
20
73
16
74
14
42
0.0000001000
43
0.0000001000
44
0.0000000001
12
-0.4645165876
22
0.4879964425
32
0.0000000000
13
-0.0392566647
23
0.6725883602
33
0.0000000000
40
0.0000000000
40
0.0000000000
40
0.0000000000
40
0.0000000000
40
0.1382329167
40
0.2737962112
40
0.4023280308
40
0.5197265990
40
0.6235247092
40
0.7131061512
40
0.7890389568
40
0.8517593797
40
0.9021124849
40
0.9411324929
40
0.9700381349
40
0.9894583388
40
1.0000000000
40
1.0000000000
40
1.0000000000
40
1.0000000000
10
-2.0744871430
20
23.8615377290
30
0.0000000000
10
-2.0958909706
20
23.8840234529
30
0.0000000000
10
-2.1382853226
20
23.9285605934
30
0.0000000000
10
-2.2005348412
20
23.9940497148
30
0.0000000000
10
-2.2594679701
20
24.0562357195
30
0.0000000000
10
-2.3133567064
20
24.1133735332
30
0.0000000000
10
-2.3610660904
20
24.1643152450
30
0.0000000000
10
-2.4021922459
20
24.2086615889
30
0.0000000000
10
-2.4367927518
20
24.2464811596
30
0.0000000000
10
-2.4651363258
20
24.2780703281
30
0.0000000000
10
-2.4876161096
20
24.3038123530
30
0.0000000000
10
-2.5046120083
20
24.3241719818
30
0.0000000000
10
-2.5167988215
20
24.3396830046
30
0.0000000000
10
-2.5240250316
20
24.3505255534
30
0.0000000000
10
-2.5273842425
20
24.3567087879
30
0.0000000000
10
-2.5275221860
20
24.3590721874
30
0.0000000000
11
-2.0744871430
21
23.8615377290
31
0.0000000000
11
-2.1386906041
21
23.9290025354
31
0.0000000000
11
-2.2016058414
21
23.9952103550
31
0.0000000000
11
-2.2611614604
21
24.0580754346
31
0.0000000000
11
-2.3154167591
21
24.1156291299
31
0.0000000000
11
-2.3632035639
21
24.1666872922
31
0.0000000000
11
-2.4042228084
21
24.2109594503
31
0.0000000000
11
-2.4387275752
21
24.2487299008
31
0.0000000000
11
-2.4669158422
21
24.2802110135
31
0.0000000000
11
-2.4891746059
21
24.3058122345
31
0.0000000000
11
-2.5059719084
21
24.3260351355
31
0.0000000000
11
-2.5178323198
21
24.3414816245
31
0.0000000000
11
-2.5249810061
21
24.3524401005
31
0.0000000000
11
-2.5275221860
21
24.3590721874
31
0.0000000000
0
SPLINE
5
428
100
AcDbEntity
8
0
100
AcDbSpline
62
7
6
CONTINUOUS
70
0
71
3
72
11
73
7
74
5
42
0.0000001000
43
0.0000001000
44
0.0000000001
12
0.0000000000
22
-0.0650167575
32
0.0000000000
13
-0.0420659776
23
-0.0494993135
33
0.0000000000
40
0.0000000000
40
0.0000000000
40
0.0000000000
40
0.0000000000
40
0.1049754499
40
0.3022888118
40
0.5985372888
40
1.0000000000
40
1.0000000000
40
1.0000000000
40
1.0000000000
10
-1.6214444331
20
24.3593278584
30
0.0000000000
10
-1.6214444331
20
24.3570528040
30
0.0000000000
10
-1.6247054869
20
24.3509482369
30
0.0000000000
10
-1.6317061201
20
24.3403100525
30
0.0000000000
10
-1.6437479856
20
24.3249312385
30
0.0000000000
10
-1.6534053343
20
24.3133349752
30
0.0000000000
10
-1.6590346414
20
24.3067109323
30
0.0000000000
11
-1.6214444331
21
24.3593278584
31
0.0000000000
11
-1.6237424711
21
24.3529012048
31
0.0000000000
11
-1.6306876236
21
24.3421151139
31
0.0000000000
11
-1.6423811191
21
24.3268097968
31
0.0000000000
11
-1.6590346414
21
24.3067109323
31
0.0000000000
0
SPLINE
5
429
100
AcDbEntity
8
0
100
AcDbSpline
62
7
6
CONTINUOUS
70
0
71
3
72
16
73
12
74
10
42
0.0000001000
43
0.0000001000
44
0.0000000001
12
-0.3940004393
22
-0.4636229176
32
0.0000000000
13
-0.4198599192
23
-0.4410825197
33
0.0000000000
40
0.0000000000
40
0.0000000000
40
0.0000000000
40
0.0000000000
40
0.0554530572
40
0.1246695785
40
0.2086153044
40
0.3077875392
40
0.4228360716
40
0.5530765658
40
0.6957543055
40
0.8463438697
40
1.0000000000
40
1.0000000000
40
1.0000000000
40
1.0000000000
10
-1.6590346414
20
24.3067109323
30
0.0000000000
10
-1.6663174844
20
24.2981411629
30
0.0000000000
10
-1.6829634851
20
24.2790568891
30
0.0000000000
10
-1.7112271137
20
24.2475328628
30
0.0000000000
10
-1.7457955493
20
24.2097313944
30
0.0000000000
10
-1.7869444461
20
24.1653483189
30
0.0000000000
10
-1.8347370312
20
24.1143096337
30
0.0000000000
10
-1.8887682402
20
24.0570157980
30
0.0000000000
10
-1.9479009149
20
23.9946167062
30
0.0000000000
10
-2.0104022088
20
23.9288618398
30
0.0000000000
10
-2.0529824595
20
23.8841294068
30
0.0000000000
10
-2.0744871430
20
23.8615377290
30
0.0000000000
11
-1.6590346414
21
24.3067109323
31
0.0000000000
11
-1.6811741458
21
24.2812123267
31
0.0000000000
11
-1.7092788804
21
24.2497993882
31
0.0000000000
11
-1.7437485437
21
24.2120491311
31
0.0000000000
11
-1.7847873638
21
24.1677429498
31
0.0000000000
11
-1.8326573622
21
24.1165871922
31
0.0000000000
11
-1.8870584050
21
24.0588735318
31
0.0000000000
11
-1.9468116246
21
23.9957970635
31
0.0000000000
11
-2.0099812289
21
23.9293205061
31
0.0000000000
11
-2.0744871430
21
23.8615377290
31
0.0000000000
0
SPLINE
5
42A
100
AcDbEntity
8
0
100
AcDbSpline
62
7
6
CONTINUOUS
70
0
71
3
72
11
73
7
74
5
42
0.0000001000
43
0.0000001000
44
0.0000000001
12
0.0097367062
22
0.1967308375
32
0.0000000000
13
0.0000000000
23
0.1969716372
33
0.0000000000
40
0.0000000000
40
0.0000000000
40
0.0000000000
40
0.0000000000
40
0.1205844618
40
0.3482429496
40
0.6542827528
40
1.0000000000
40
1.0000000000
40
1.0000000000
40
1.0000000000
10
-5.3268911800
20
20.0760382900
30
0.0000000000
10
-5.3264998148
20
20.0839458507
30
0.0000000000
10
-5.3262442040
20
20.1068163522
30
0.0000000000
10
-5.3257475480
20
20.1497670209
30
0.0000000000
10
-5.3255224541
20
20.2075091337
30
0.0000000000
10
-5.3254488874
20
20.2503010098
30
0.0000000000
10
-5.3254488874
20
20.2729998406
30
0.0000000000
11
-5.3268911800
21
20.0760382900
31
0.0000000000
11
-5.3263217492
21
20.0997831820
31
0.0000000000
11
-5.3258559055
21
20.1446230273
31
0.0000000000
11
-5.3255531717
21
20.2049034282
31
0.0000000000
11
-5.3254488874
21
20.2729998406
31
0.0000000000
0
SPLINE
5
42B
100
AcDbEntity
8
0
100
AcDbSpline
62
7
6
CONTINUOUS
70
0
71
3
72
12
73
8
74
6
42
0.0000001000
43
0.0000001000
44
0.0000000001
12
0.0000000000
22
-0.4997402517
32
0.0000000000
13
-0.1211613714
23
-0.4848301158
33
0.0000000000
40
0.0000000000
40
0.0000000000
40
0.0000000000
40
0.0000000000
40
0.3012851655
40
0.5768221581
40
0.7966235177
40
0.9430890001
40
1.0000000000
40
1.0000000000
40
1.0000000000
40
1.0000000000
10
8.3558657107
20
20.1880243017
30
0.0000000000
10
8.3558657107
20
20.1378361936
30
0.0000000000
10
8.3558803947
20
20.0417248107
30
0.0000000000
10
8.3547977500
20
19.9091188283
30
0.0000000000
10
8.3553725210
20
19.8019633943
30
0.0000000000
10
8.3515940379
20
19.7319691030
30
0.0000000000
10
8.3539530300
20
19.6975262771
30
0.0000000000
10
8.3516545584
20
19.6883288882
30
0.0000000000
11
8.3558657107
21
20.1880243017
31
0.0000000000
11
8.3556631758
21
20.0374601135
31
0.0000000000
11
8.3550675657
21
19.8997644756
31
0.0000000000
11
8.3541423061
21
19.7899247859
31
0.0000000000
11
8.3529597099
21
19.7167396430
31
0.0000000000
11
8.3516545584
21
19.6883288882
31
0.0000000000
0
SPLINE
5
42C
100
AcDbEntity
8
0
100
AcDbSpline
62
7
6
CONTINUOUS
70
0
71
3
72
13
73
9
74
7
42
0.0000001000
43
0.0000001000
44
0.0000000001
12
0.0198448393
22
-0.9166109748
32
0.0000000000
13
0.9168257723
23
0.0000000000
33
0.0000000000
40
0.0000000000
40
0.0000000000
40
0.0000000000
40
0.0000000000
40
0.2509590791
40
0.4869479156
40
0.6859640076
40
0.8402087780
40
0.9444975500
40
1.0000000000
40
1.0000000000
40
1.0000000000
40
1.0000000000
10
-1.9754774279
20
15.9833105709
30
0.0000000000
10
-1.9738173470
20
15.9066332889
30
0.0000000000
10
-1.9676337891
20
15.7579237577
30
0.0000000000
10
-1.9487419426
20
15.5489044310
30
0.0000000000
10
-1.9231325149
20
15.3709772290
30
0.0000000000
10
-1.8885960338
20
15.2338159581
30
0.0000000000
10
-1.8577085593
20
15.1458700126
30
0.0000000000
10
-1.8174267873
20
15.1051799143
30
0.0000000000
10
-1.8004647618
20
15.1051799143
30
0.0000000000
11
-1.9754774279
21
15.9833105709
31
0.0000000000
11
-1.9655240688
21
15.7534402081
31
0.0000000000
11
-1.9456854982
21
15.5379910011
31
0.0000000000
11
-1.9175966064
21
15.3577029246
31
0.0000000000
11
-1.8827202143
21
15.2206554739
31
0.0000000000
11
-1.8424462751
21
15.1339365714
31
0.0000000000
11
-1.8004647618
21
15.1051799143
31
0.0000000000
0
SPLINE
5
42D
100
AcDbEntity
8
0
100
AcDbSpline
62
7
6
CONTINUOUS
70
0
71
3
72
13
73
9
74
7
42
0.0000001000
43
0.0000001000
44
0.0000000001
12
0.0198448393
22
-0.9166109748
32
0.0000000000
13
0.9168257723
23
0.0000000000
33
0.0000000000
40
0.0000000000
40
0.0000000000
40
0.0000000000
40
0.0000000000
40
0.2509590791
40
0.4869479156
40
0.6859640076
40
0.8402087780
40
0.9444975500
40
1.0000000000
40
1.0000000000
40
1.0000000000
40
1.0000000000
10
10.0245225721
20
15.9833105709
30
0.0000000000
10
10.0261826530
20
15.9066332889
30
0.0000000000
10
10.0323662109
20
15.7579237577
30
0.0000000000
10
10.0512580574
20
15.5489044310
30
0.0000000000
10
10.0768674851
20
15.3709772290
30
0.0000000000
10
10.1114039662
20
15.2338159581
30
0.0000000000
10
10.1422914407
20
15.1458700126
30
0.0000000000
10
10.1825732127
20
15.1051799143
30
0.0000000000
10
10.1995352382
20
15.1051799143
30
0.0000000000
11
10.0245225721
21
15.9833105709
31
0.0000000000
11
10.0344759312
21
15.7534402081
31
0.0000000000
11
10.0543145018
21
15.5379910011
31
0.0000000000
11
10.0824033936
21
15.3577029246
31
0.0000000000
11
10.1172797857
21
15.2206554739
31
0.0000000000
11
10.1575537249
21
15.1339365714
31
0.0000000000
11
10.1995352382
21
15.1051799143
31
0.0000000000
0
SPLINE
5
42E
100
AcDbEntity
8
0
100
AcDbSpline
62
7
6
CONTINUOUS
70
0
71
3
72
12
73
8
74
6
42
0.0000001000
43
0.0000001000
44
0.0000000001
12
0.0000000000
22
0.2468169170
32
0.0000000000
13
0.1490074877
23
-0.1967621893
33
0.0000000000
40
0.0000000000
40
0.0000000000
40
0.0000000000
40
0.0000000000
40
0.1990277245
40
0.3974730099
40
0.5969515259
40
0.8024935192
40
1.0000000000
40
1.0000000000
40
1.0000000000
40
1.0000000000
10
7.4785555669
20
4.7217632187
30
0.0000000000
10
7.4785555669
20
4.7381376885
30
0.0000000000
10
7.4869018010
20
4.7714043068
30
0.0000000000
10
7.5214996593
20
4.8089958724
30
0.0000000000
10
7.5704359863
20
4.8258404356
30
0.0000000000
10
7.6214057752
20
4.8168994931
30
0.0000000000
10
7.6484381101
20
4.7950796255
30
0.0000000000
10
7.6582480916
20
4.7821256897
30
0.0000000000
11
7.4785555669
21
4.7217632187
31
0.0000000000
11
7.4905973861
21
4.7693878335
31
0.0000000000
11
7.5237292880
21
4.8054611413
31
0.0000000000
11
7.5702882691
21
4.8214709581
31
0.0000000000
11
7.6202486951
21
4.8126610394
31
0.0000000000
11
7.6582480916
21
4.7821256897
31
0.0000000000
0
SPLINE
5
42F
100
AcDbEntity
8
0
100
AcDbSpline
62
7
6
CONTINUOUS
70
0
71
3
72
12
73
8
74
6
42
0.0000001000
43
0.0000001000
44
0.0000000001
12
-0.1211613714
22
0.4848301158
32
0.0000000000
13
0.0000000000
23
0.4997402517
33
0.0000000000
40
0.0000000000
40
0.0000000000
40
0.0000000000
40
0.0000000000
40
0.0569109999
40
0.2033764823
40
0.4231778419
40
0.6987148345
40
1.0000000000
40
1.0000000000
40
1.0000000000
40
1.0000000000
10
-4.5945434246
20
19.6883288882
30
0.0000000000
10
-4.5968418962
20
19.6975262771
30
0.0000000000
10
-4.5944829041
20
19.7319691030
30
0.0000000000
10
-4.5982613871
20
19.8019633943
30
0.0000000000
10
-4.5976866162
20
19.9091188283
30
0.0000000000
10
-4.5987692608
20
20.0417248107
30
0.0000000000
10
-4.5987545768
20
20.1378361936
30
0.0000000000
10
-4.5987545768
20
20.1880243017
30
0.0000000000
11
-4.5945434246
21
19.6883288882
31
0.0000000000
11
-4.5958485761
21
19.7167396430
31
0.0000000000
11
-4.5970311723
21
19.7899247859
31
0.0000000000
11
-4.5979564318
21
19.8997644756
31
0.0000000000
11
-4.5985520420
21
20.0374601135
31
0.0000000000
11
-4.5987545768
21
20.1880243017
31
0.0000000000
0
SPLINE
5
430
100
AcDbEntity
8
0
100
AcDbSpline
62
9
6
CONTINUOUS
70
0
71
3
72
10
73
6
74
4
42
0.0000001000
43
0.0000001000
44
0.0000000001
12
-0.0225291299
22
0.0681416037
32
0.0000000000
13
-0.0228538364
23
0.0680333890
33
0.0000000000
40
0.0000000000
40
0.0000000000
40
0.0000000000
40
0.0000000000
40
0.3350981013
40
0.6684208756
40
1.0000000000
40
1.0000000000
40
1.0000000000
40
1.0000000000
10
7.5012471513
20
4.6536757087
30
0.0000000000
10
7.4987306618
20
4.6612870827
30
0.0000000000
10
7.4936989191
20
4.6764655104
30
0.0000000000
10
7.4861347611
20
4.6991613136
30
0.0000000000
10
7.4810815186
20
4.7142438388
30
0.0000000000
10
7.4785555669
20
4.7217633226
30
0.0000000000
11
7.5012471513
21
4.6536757087
31
0.0000000000
11
7.4936794479
21
4.6765037938
31
0.0000000000
11
7.4861155857
21
4.6991988873
31
0.0000000000
11
7.4785555669
21
4.7217633226
31
0.0000000000
0
SPLINE
5
431
100
AcDbEntity
8
0
100
AcDbSpline
62
7
6
CONTINUOUS
70
0
71
3
72
13
73
9
74
7
42
0.0000001000
43
0.0000001000
44
0.0000000001
12
-0.1481516225
22
0.1995585826
32
0.0000000000
13
-0.0000000000
23
-0.2485408037
33
0.0000000000
40
0.0000000000
40
0.0000000000
40
0.0000000000
40
0.0000000000
40
0.1668970660
40
0.3338814451
40
0.5007419626
40
0.6676913907
40
0.8339413753
40
1.0000000000
40
1.0000000000
40
1.0000000000
40
1.0000000000
10
7.6815114431
20
4.7132756333
30
0.0000000000
10
7.6732694194
20
4.7243775472
30
0.0000000000
10
7.6518487754
20
4.7433509297
30
0.0000000000
10
7.6111600423
20
4.7561827914
30
0.0000000000
10
7.5687011161
20
4.7514266656
30
0.0000000000
10
7.5319107355
20
4.7298229572
30
0.0000000000
10
7.5070776754
20
4.6953006015
30
0.0000000000
10
7.5012471513
20
4.6674332967
30
0.0000000000
10
7.5012471513
20
4.6536758487
30
0.0000000000
11
7.6815114431
21
4.7132756333
31
0.0000000000
11
7.6504277428
21
4.7407429705
31
0.0000000000
11
7.6108554520
21
4.7532523929
31
0.0000000000
11
7.5696437600
21
4.7486162359
31
0.0000000000
11
7.5338528225
21
4.7276224350
31
0.0000000000
11
7.5097458592
21
4.6940636977
31
0.0000000000
11
7.5012471513
21
4.6536758487
31
0.0000000000
0
SPLINE
5
432
100
AcDbEntity
8
0
100
AcDbSpline
62
9
6
CONTINUOUS
70
0
71
3
72
10
73
6
74
4
42
0.0000001000
43
0.0000001000
44
0.0000000001
12
-0.0230980385
22
0.0689064466
32
0.0000000000
13
-0.0234291323
23
0.0687945749
33
0.0000000000
40
0.0000000000
40
0.0000000000
40
0.0000000000
40
0.0000000000
40
0.3351070235
40
0.6684295766
40
1.0000000000
40
1.0000000000
40
1.0000000000
40
1.0000000000
10
7.6815118695
20
4.7132752109
30
0.0000000000
10
7.6789317646
20
4.7209722223
30
0.0000000000
10
7.6737728163
20
4.7363210786
30
0.0000000000
10
7.6660180436
20
4.7592712501
30
0.0000000000
10
7.6608374866
20
4.7745223721
30
0.0000000000
10
7.6582480174
20
4.7821257876
30
0.0000000000
11
7.6815118695
21
4.7132752109
31
0.0000000000
11
7.6737528681
21
4.7363599728
31
0.0000000000
11
7.6659983081
21
4.7593093794
31
0.0000000000
11
7.6582480174
21
4.7821257876
31
0.0000000000
0
SPLINE
5
433
100
AcDbEntity
8
0
100
AcDbSpline
62
7
6
CONTINUOUS
70
0
71
3
72
12
73
8
74
6
42
0.0000001000
43
0.0000001000
44
0.0000000001
12
-0.1490078620
22
-0.1967626834
32
0.0000000000
13
0.0000000000
23
0.2468175369
33
0.0000000000
40
0.0000000000
40
0.0000000000
40
0.0000000000
40
0.0000000000
40
0.1986892980
40
0.3972275912
40
0.5968577545
40
0.8024615278
40
1.0000000000
40
1.0000000000
40
1.0000000000
40
1.0000000000
10
7.6582486105
20
-3.9717654453
30
0.0000000000
10
7.6483798546
20
-3.9847969918
30
0.0000000000
10
7.6216733693
20
-4.0062729663
30
0.0000000000
10
7.5714094438
20
-4.0153913356
30
0.0000000000
10
7.5221928014
20
-3.9992879691
30
0.0000000000
10
7.4869361479
20
-3.9613781191
30
0.0000000000
10
7.4785555669
20
-3.9276553764
30
0.0000000000
10
7.4785555669
20
-3.9114033900
30
0.0000000000
11
7.6582486105
21
-3.9717654453
31
0.0000000000
11
7.6199755004
21
-4.0024263479
31
0.0000000000
11
7.5717685874
21
-4.0112218771
31
0.0000000000
11
7.5249440487
21
-3.9958851646
31
0.0000000000
11
7.4904178495
21
-3.9586942962
31
0.0000000000
11
7.4785555669
21
-3.9114033900
31
0.0000000000
0
SPLINE
5
434
100
AcDbEntity
8
0
100
AcDbSpline
62
9
6
CONTINUOUS
70
0
71
3
72
10
73
6
74
4
42
0.0000001000
43
0.0000001000
44
0.0000000001
12
-0.0230980385
22
-0.0689064466
32
0.0000000000
13
-0.0234291323
23
-0.0687945749
33
0.0000000000
40
0.0000000000
40
0.0000000000
40
0.0000000000
40
0.0000000000
40
0.3351070235
40
0.6684295766
40
1.0000000000
40
1.0000000000
40
1.0000000000
40
1.0000000000
10
7.6815118695
20
-3.9029153822
30
0.0000000000
10
7.6789317646
20
-3.9106123936
30
0.0000000000
10
7.6737728163
20
-3.9259612499
30
0.0000000000
10
7.6660180436
20
-3.9489114214
30
0.0000000000
10
7.6608374866
20
-3.9641625435
30
0.0000000000
10
7.6582480174
20
-3.9717659589
30
0.0000000000
11
7.6815118695
21
-3.9029153822
31
0.0000000000
11
7.6737528681
21
-3.9260001441
31
0.0000000000
11
7.6659983081
21
-3.9489495507
31
0.0000000000
11
7.6582480174
21
-3.9717659589
31
0.0000000000
0
SPLINE
5
435
100
AcDbEntity
8
0
100
AcDbSpline
62
7
6
CONTINUOUS
70
0
71
3
72
13
73
9
74
7
42
0.0000001000
43
0.0000001000
44
0.0000000001
12
0.0000000000
22
-0.2485412125
32
0.0000000000
13
0.1481518661
23
0.1995589108
33
0.0000000000
40
0.0000000000
40
0.0000000000
40
0.0000000000
40
0.0000000000
40
0.1665568473
40
0.3331446621
40
0.5006549172
40
0.6676506089
40
0.8339179151
40
1.0000000000
40
1.0000000000
40
1.0000000000
40
1.0000000000
10
7.5012471513
20
-3.8433160200
30
0.0000000000
10
7.5012471513
20
-3.8571147669
30
0.0000000000
10
7.5071111692
20
-3.8850544189
30
0.0000000000
10
7.5320750677
20
-3.9196346607
30
0.0000000000
10
7.5690107522
20
-3.9411830272
30
0.0000000000
10
7.6114879723
20
-3.9457797531
30
0.0000000000
10
7.6520138444
20
-3.9328649395
30
0.0000000000
10
7.6733099810
20
-3.9139632346
30
0.0000000000
10
7.6815117713
20
-3.9029155146
30
0.0000000000
11
7.5012471513
21
-3.8433160200
31
0.0000000000
11
7.5097969754
21
-3.8838197144
31
0.0000000000
11
7.5340099514
21
-3.9174056911
31
0.0000000000
11
7.5699808945
21
-3.9383679132
31
0.0000000000
11
7.6112430501
21
-3.9428540490
31
0.0000000000
11
7.6506081215
21
-3.9302807801
31
0.0000000000
11
7.6815117713
21
-3.9029155146
31
0.0000000000
0
SPLINE
5
436
100
AcDbEntity
8
0
100
AcDbSpline
62
9
6
CONTINUOUS
70
0
71
3
72
10
73
6
74
4
42
0.0000001000
43
0.0000001000
44
0.0000000001
12
-0.0225291299
22
-0.0681416037
32
0.0000000000
13
-0.0228538364
23
-0.0680333890
33
0.0000000000
40
0.0000000000
40
0.0000000000
40
0.0000000000
40
0.0000000000
40
0.3350981013
40
0.6684208756
40
1.0000000000
40
1.0000000000
40
1.0000000000
40
1.0000000000
10
7.5012471513
20
-3.8433158800
30
0.0000000000
10
7.4987306618
20
-3.8509272540
30
0.0000000000
10
7.4936989191
20
-3.8661056817
30
0.0000000000
10
7.4861347611
20
-3.8888014850
30
0.0000000000
10
7.4810815186
20
-3.9038840101
30
0.0000000000
10
7.4785555669
20
-3.9114034939
30
0.0000000000
11
7.5012471513
21
-3.8433158800
31
0.0000000000
11
7.4936794479
21
-3.8661439651
31
0.0000000000
11
7.4861155857
21
-3.8888390586
31
0.0000000000
11
7.4785555669
21
-3.9114034939
31
0.0000000000
0
SPLINE
5
437
100
AcDbEntity
8
0
100
AcDbSpline
62
7
6
CONTINUOUS
70
0
71
3
72
12
73
8
74
6
42
0.0000001000
43
0.0000001000
44
0.0000000001
12
0.0000000000
22
-0.2468169170
32
0.0000000000
13
-0.1490074877
23
0.1967621893
33
0.0000000000
40
0.0000000000
40
0.0000000000
40
0.0000000000
40
0.0000000000
40
0.1990277245
40
0.3974730099
40
0.5969515259
40
0.8024935192
40
1.0000000000
40
1.0000000000
40
1.0000000000
40
1.0000000000
10
-3.7214444331
20
-3.9114033900
30
0.0000000000
10
-3.7214444331
20
-3.9277778598
30
0.0000000000
10
-3.7297906672
20
-3.9610444781
30
0.0000000000
10
-3.7643885255
20
-3.9986360437
30
0.0000000000
10
-3.8133248525
20
-4.0154806069
30
0.0000000000
10
-3.8642946413
20
-4.0065396644
30
0.0000000000
10
-3.8913269763
20
-3.9847197968
30
0.0000000000
10
-3.9011369578
20
-3.9717658610
30
0.0000000000
11
-3.7214444331
21
-3.9114033900
31
0.0000000000
11
-3.7334862522
21
-3.9590280049
31
0.0000000000
11
-3.7666181541
21
-3.9951013127
31
0.0000000000
11
-3.8131771353
21
-4.0111111294
31
0.0000000000
11
-3.8631375612
21
-4.0023012107
31
0.0000000000
11
-3.9011369578
21
-3.9717658610
31
0.0000000000
0
SPLINE
5
438
100
AcDbEntity
8
0
100
AcDbSpline
62
9
6
CONTINUOUS
70
0
71
3
72
10
73
6
74
4
42
0.0000001000
43
0.0000001000
44
0.0000000001
12
0.0225291299
22
-0.0681416037
32
0.0000000000
13
0.0228538364
23
-0.0680333890
33
0.0000000000
40
0.0000000000
40
0.0000000000
40
0.0000000000
40
0.0000000000
40
0.3350981013
40
0.6684208756
40
1.0000000000
40
1.0000000000
40
1.0000000000
40
1.0000000000
10
-3.7441360175
20
-3.8433158800
30
0.0000000000
10
-3.7416195279
20
-3.8509272540
30
0.0000000000
10
-3.7365877853
20
-3.8661056817
30
0.0000000000
10
-3.7290236273
20
-3.8888014850
30
0.0000000000
10
-3.7239703848
20
-3.9038840101
30
0.0000000000
10
-3.7214444331
20
-3.9114034939
30
0.0000000000
11
-3.7441360175
21
-3.8433158800
31
0.0000000000
11
-3.7365683140
21
-3.8661439651
31
0.0000000000
11
-3.7290044519
21
-3.8888390586
31
0.0000000000
11
-3.7214444331
21
-3.9114034939
31
0.0000000000
0
SPLINE
5
439
100
AcDbEntity
8
0
100
AcDbSpline
62
7
6
CONTINUOUS
70
0
71
3
72
12
73
8
74
6
42
0.0000001000
43
0.0000001000
44
0.0000000001
12
0.0000000000
22
-0.4997402517
32
0.0000000000
13
-0.1211613714
23
-0.4848301158
33
0.0000000000
40
0.0000000000
40
0.0000000000
40
0.0000000000
40
0.0000000000
40
0.3012851655
40
0.5768221581
40
0.7966235177
40
0.9430890001
40
1.0000000000
40
1.0000000000
40
1.0000000000
40
1.0000000000
10
-5.4441342893
20
20.1880243017
30
0.0000000000
10
-5.4441342893
20
20.1378361936
30
0.0000000000
10
-5.4441196053
20
20.0417248107
30
0.0000000000
10
-5.4452022500
20
19.9091188283
30
0.0000000000
10
-5.4446274790
20
19.8019633943
30
0.0000000000
10
-5.4484059621
20
19.7319691030
30
0.0000000000
10
-5.4460469700
20
19.6975262771
30
0.0000000000
10
-5.4483454416
20
19.6883288882
30
0.0000000000
11
-5.4441342893
21
20.1880243017
31
0.0000000000
11
-5.4443368242
21
20.0374601135
31
0.0000000000
11
-5.4449324343
21
19.8997644756
31
0.0000000000
11
-5.4458576939
21
19.7899247859
31
0.0000000000
11
-5.4470402901
21
19.7167396430
31
0.0000000000
11
-5.4483454416
21
19.6883288882
31
0.0000000000
0
SPLINE
5
43A
100
AcDbEntity
8
0
100
AcDbSpline
62
7
6
CONTINUOUS
70
0
71
3
72
17
73
13
74
11
42
0.0000001000
43
0.0000001000
44
0.0000000001
12
0.0000000000
22
0.3138390385
32
0.0000000000
13
-0.3138390385
23
-0.0000000000
33
0.0000000000
40
0.0000000000
40
0.0000000000
40
0.0000000000
40
0.0000000000
40
0.1000013680
40
0.2000016332
40
0.3000034370
40
0.4000022503
40
0.5000058131
40
0.6000087280
40
0.7000059548
40
0.8000051471
40
0.9000022532
40
1.0000000000
40
1.0000000000
40
1.0000000000
40
1.0000000000
10
0.8785555669
20
24.1993586998
30
0.0000000000
10
0.8785555669
20
24.2098201442
30
0.0000000000
10
0.8769072402
20
24.2307800780
30
0.0000000000
10
0.8695506461
20
24.2614166538
30
0.0000000000
10
0.8574911700
20
24.2905329225
30
0.0000000000
10
0.8410255063
20
24.3174023982
30
0.0000000000
10
0.8205591189
20
24.3413659286
30
0.0000000000
10
0.7965958714
20
24.3618323912
30
0.0000000000
10
0.7697269419
20
24.3782979758
30
0.0000000000
10
0.7406114510
20
24.3903573167
30
0.0000000000
10
0.7099758566
20
24.3977137888
30
0.0000000000
10
0.6890166325
20
24.3993620845
30
0.0000000000
10
0.6785555669
20
24.3993620845
30
0.0000000000
11
0.8785555669
21
24.1993586998
31
0.0000000000
11
0.8760932088
21
24.2306462878
31
0.0000000000
11
0.8687668659
21
24.2611631577
31
0.0000000000
11
0.8567566933
21
24.2901586868
31
0.0000000000
11
0.8403590253
21
24.3169176578
31
0.0000000000
11
0.8199762312
21
24.3407831414
31
0.0000000000
11
0.7961110496
21
24.3611659761
31
0.0000000000
11
0.7693526103
21
24.3775635588
31
0.0000000000
11
0.7403579007
21
24.3895735682
31
0.0000000000
11
0.7098420192
21
24.3968997808
31
0.0000000000
11
0.6785555669
21
24.3993620845
31
0.0000000000
0
SPLINE
5
43B
100
AcDbEntity
8
0
100
AcDbSpline
62
7
6
CONTINUOUS
70
0
71
3
72
13
73
9
74
7
42
0.0000001000
43
0.0000001000
44
0.0000000001
12
0.1481516225
22
-0.1995585826
32
0.0000000000
13
-0.0000000000
23
0.2485408037
33
0.0000000000
40
0.0000000000
40
0.0000000000
40
0.0000000000
40
0.0000000000
40
0.1668970660
40
0.3338814451
40
0.5007419626
40
0.6676913907
40
0.8339413753
40
1.0000000000
40
1.0000000000
40
1.0000000000
40
1.0000000000
10
-3.9244003092
20
-3.9029158046
30
0.0000000000
10
-3.9161582855
20
-3.9140177186
30
0.0000000000
10
-3.8947376415
20
-3.9329911011
30
0.0000000000
10
-3.8540489084
20
-3.9458229627
30
0.0000000000
10
-3.8115899823
20
-3.9410668369
30
0.0000000000
10
-3.7747996016
20
-3.9194631285
30
0.0000000000
10
-3.7499665416
20
-3.8849407728
30
0.0000000000
10
-3.7441360175
20
-3.8570734680
30
0.0000000000
10
-3.7441360175
20
-3.8433160200
30
0.0000000000
11
-3.9244003092
21
-3.9029158046
31
0.0000000000
11
-3.8933166090
21
-3.9303831418
31
0.0000000000
11
-3.8537443182
21
-3.9428925642
31
0.0000000000
11
-3.8125326261
21
-3.9382564072
31
0.0000000000
11
-3.7767416887
21
-3.9172626064
31
0.0000000000
11
-3.7526347254
21
-3.8837038690
31
0.0000000000
11
-3.7441360175
21
-3.8433160200
31
0.0000000000
0
SPLINE
5
43C
100
AcDbEntity
8
0
100
AcDbSpline
62
9
6
CONTINUOUS
70
0
71
3
72
10
73
6
74
4
42
0.0000001000
43
0.0000001000
44
0.0000000001
12
0.0230980385
22
-0.0689064466
32
0.0000000000
13
0.0234291323
23
-0.0687945749
33
0.0000000000
40
0.0000000000
40
0.0000000000
40
0.0000000000
40
0.0000000000
40
0.3351070235
40
0.6684295766
40
1.0000000000
40
1.0000000000
40
1.0000000000
40
1.0000000000
10
-3.9244007357
20
-3.9029153822
30
0.0000000000
10
-3.9218206307
20
-3.9106123936
30
0.0000000000
10
-3.9166616824
20
-3.9259612499
30
0.0000000000
10
-3.9089069097
20
-3.9489114214
30
0.0000000000
10
-3.9037263527
20
-3.9641625435
30
0.0000000000
10
-3.9011368836
20
-3.9717659589
30
0.0000000000
11
-3.9244007357
21
-3.9029153822
31
0.0000000000
11
-3.9166417342
21
-3.9260001441
31
0.0000000000
11
-3.9088871743
21
-3.9489495507
31
0.0000000000
11
-3.9011368836
21
-3.9717659589
31
0.0000000000
0
SPLINE
5
43D
100
AcDbEntity
8
0
100
AcDbSpline
62
7
6
CONTINUOUS
70
0
71
3
72
12
73
8
74
6
42
0.0000001000
43
0.0000001000
44
0.0000000001
12
0.1490078620
22
0.1967626834
32
0.0000000000
13
0.0000000000
23
-0.2468175369
33
0.0000000000
40
0.0000000000
40
0.0000000000
40
0.0000000000
40
0.0000000000
40
0.1986892981
40
0.3972275912
40
0.5968577545
40
0.8024615278
40
1.0000000000
40
1.0000000000
40
1.0000000000
40
1.0000000000
10
-3.9011374766
20
4.7821252740
30
0.0000000000
10
-3.8912687208
20
4.7951568205
30
0.0000000000
10
-3.8645622355
20
4.8166327950
30
0.0000000000
10
-3.8142983099
20
4.8257511643
30
0.0000000000
10
-3.7650816675
20
4.8096477978
30
0.0000000000
10
-3.7298250141
20
4.7717379478
30
0.0000000000
10
-3.7214444331
20
4.7380152051
30
0.0000000000
10
-3.7214444331
20
4.7217632187
30
0.0000000000
11
-3.9011374766
21
4.7821252740
31
0.0000000000
11
-3.8628643665
21
4.8127861766
31
0.0000000000
11
-3.8146574535
21
4.8215817058
31
0.0000000000
11
-3.7678329149
21
4.8062449933
31
0.0000000000
11
-3.7333067156
21
4.7690541249
31
0.0000000000
11
-3.7214444331
21
4.7217632187
31
0.0000000000
0
SPLINE
5
43E
100
AcDbEntity
8
0
100
AcDbSpline
62
7
6
CONTINUOUS
70
0
71
3
72
17
73
13
74
11
42
0.0000001000
43
0.0000001000
44
0.0000000001
12
-0.3138390385
22
0.0000000000
32
0.0000000000
13
-0.0000000000
23
-0.3138390385
33
0.0000000000
40
0.0000000000
40
0.0000000000
40
0.0000000000
40
0.0000000000
40
0.0999977468
40
0.1999948529
40
0.2999940452
40
0.3999912720
40
0.4999941869
40
0.5999977497
40
0.6999965630
40
0.7999983668
40
0.8999986320
40
1.0000000000
40
1.0000000000
40
1.0000000000
40
1.0000000000
10
3.0785555669
20
24.3993620845
30
0.0000000000
10
3.0680945013
20
24.3993620845
30
0.0000000000
10
3.0471352772
20
24.3977137888
30
0.0000000000
10
3.0164996829
20
24.3903573167
30
0.0000000000
10
2.9873841920
20
24.3782979758
30
0.0000000000
10
2.9605152624
20
24.3618323912
30
0.0000000000
10
2.9365520150
20
24.3413659286
30
0.0000000000
10
2.9160856275
20
24.3174023982
30
0.0000000000
10
2.8996199639
20
24.2905329225
30
0.0000000000
10
2.8875604878
20
24.2614166538
30
0.0000000000
10
2.8802038936
20
24.2307800780
30
0.0000000000
10
2.8785555669
20
24.2098201442
30
0.0000000000
10
2.8785555669
20
24.1993586998
30
0.0000000000
11
3.0785555669
21
24.3993620845
31
0.0000000000
11
3.0472691146
21
24.3968997808
31
0.0000000000
11
3.0167532331
21
24.3895735682
31
0.0000000000
11
2.9877585235
21
24.3775635588
31
0.0000000000
11
2.9610000843
21
24.3611659761
31
0.0000000000
11
2.9371349027
21
24.3407831414
31
0.0000000000
11
2.9167521085
21
24.3169176578
31
0.0000000000
11
2.9003544406
21
24.2901586868
31
0.0000000000
11
2.8883442679
21
24.2611631577
31
0.0000000000
11
2.8810179250
21
24.2306462878
31
0.0000000000
11
2.8785555669
21
24.1993586998
31
0.0000000000
0
SPLINE
5
43F
100
AcDbEntity
8
0
100
AcDbSpline
62
9
6
CONTINUOUS
70
0
71
3
72
10
73
6
74
4
42
0.0000001000
43
0.0000001000
44
0.0000000001
12
0.0230980385
22
0.0689064466
32
0.0000000000
13
0.0234291323
23
0.0687945749
33
0.0000000000
40
0.0000000000
40
0.0000000000
40
0.0000000000
40
0.0000000000
40
0.3351070235
40
0.6684295766
40
1.0000000000
40
1.0000000000
40
1.0000000000
40
1.0000000000
10
-3.9244007357
20
4.7132752109
30
0.0000000000
10
-3.9218206307
20
4.7209722223
30
0.0000000000
10
-3.9166616824
20
4.7363210786
30
0.0000000000
10
-3.9089069097
20
4.7592712501
30
0.0000000000
10
-3.9037263527
20
4.7745223721
30
0.0000000000
10
-3.9011368836
20
4.7821257876
30
0.0000000000
11
-3.9244007357
21
4.7132752109
31
0.0000000000
11
-3.9166417342
21
4.7363599728
31
0.0000000000
11
-3.9088871743
21
4.7593093794
31
0.0000000000
11
-3.9011368836
21
4.7821257876
31
0.0000000000
0
SPLINE
5
440
100
AcDbEntity
8
0
100
AcDbSpline
62
7
6
CONTINUOUS
70
0
71
3
72
13
73
9
74
7
42
0.0000001000
43
0.0000001000
44
0.0000000001
12
0.0000000000
22
0.2485412125
32
0.0000000000
13
-0.1481518661
23
-0.1995589108
33
0.0000000000
40
0.0000000000
40
0.0000000000
40
0.0000000000
40
0.0000000000
40
0.1665568473
40
0.3331446621
40
0.5006549172
40
0.6676506089
40
0.8339179151
40
1.0000000000
40
1.0000000000
40
1.0000000000
40
1.0000000000
10
-3.7441360175
20
4.6536758487
30
0.0000000000
10
-3.7441360175
20
4.6674745956
30
0.0000000000
10
-3.7500000354
20
4.6954142475
30
0.0000000000
10
-3.7749639338
20
4.7299944894
30
0.0000000000
10
-3.8118996183
20
4.7515428559
30
0.0000000000
10
-3.8543768384
20
4.7561395818
30
0.0000000000
10
-3.8949027106
20
4.7432247681
30
0.0000000000
10
-3.9161988471
20
4.7243230632
30
0.0000000000
10
-3.9244006374
20
4.7132753433
30
0.0000000000
11
-3.7441360175
21
4.6536758487
31
0.0000000000
11
-3.7526858415
21
4.6941795431
31
0.0000000000
11
-3.7768988176
21
4.7277655198
31
0.0000000000
11
-3.8128697606
21
4.7487277419
31
0.0000000000
11
-3.8541319162
21
4.7532138777
31
0.0000000000
11
-3.8934969877
21
4.7406406088
31
0.0000000000
11
-3.9244006374
21
4.7132753433
31
0.0000000000
0
SPLINE
5
441
100
AcDbEntity
8
0
100
AcDbSpline
62
9
6
CONTINUOUS
70
0
71
3
72
10
73
6
74
4
42
0.0000001000
43
0.0000001000
44
0.0000000001
12
0.0225291299
22
0.0681416037
32
0.0000000000
13
0.0228538364
23
0.0680333890
33
0.0000000000
40
0.0000000000
40
0.0000000000
40
0.0000000000
40
0.0000000000
40
0.3350981013
40
0.6684208756
40
1.0000000000
40
1.0000000000
40
1.0000000000
40
1.0000000000
10
-3.7441360175
20
4.6536757087
30
0.0000000000
10
-3.7416195279
20
4.6612870827
30
0.0000000000
10
-3.7365877853
20
4.6764655104
30
0.0000000000
10
-3.7290236273
20
4.6991613136
30
0.0000000000
10
-3.7239703848
20
4.7142438388
30
0.0000000000
10
-3.7214444331
20
4.7217633226
30
0.0000000000
11
-3.7441360175
21
4.6536757087
31
0.0000000000
11
-3.7365683140
21
4.6765037938
31
0.0000000000
11
-3.7290044519
21
4.6991988873
31
0.0000000000
11
-3.7214444331
21
4.7217633226
31
0.0000000000
0
SPLINE
5
442
100
AcDbEntity
8
0
100
AcDbSpline
62
7
6
CONTINUOUS
70
0
71
3
72
17
73
13
74
11
42
0.0000001000
43
0.0000001000
44
0.0000000001
12
0.3138390385
22
0.0000000000
32
0.0000000000
13
0.0000000000
23
0.3138390385
33
0.0000000000
40
0.0000000000
40
0.0000000000
40
0.0000000000
40
0.0000000000
40
0.0999977468
40
0.1999948529
40
0.2999940452
40
0.3999912720
40
0.4999941869
40
0.5999977497
40
0.6999965630
40
0.7999983668
40
0.8999986320
40
1.0000000000
40
1.0000000000
40
1.0000000000
40
1.0000000000
10
0.6785555669
20
-23.5890022558
30
0.0000000000
10
0.6890166325
20
-23.5890022558
30
0.0000000000
10
0.7099758566
20
-23.5873539601
30
0.0000000000
10
0.7406114510
20
-23.5799974880
30
0.0000000000
10
0.7697269419
20
-23.5679381471
30
0.0000000000
10
0.7965958714
20
-23.5514725625
30
0.0000000000
10
0.8205591189
20
-23.5310060999
30
0.0000000000
10
0.8410255063
20
-23.5070425695
30
0.0000000000
10
0.8574911700
20
-23.4801730938
30
0.0000000000
10
0.8695506461
20
-23.4510568251
30
0.0000000000
10
0.8769072402
20
-23.4204202493
30
0.0000000000
10
0.8785555669
20
-23.3994603156
30
0.0000000000
10
0.8785555669
20
-23.3889988712
30
0.0000000000
11
0.6785555669
21
-23.5890022558
31
0.0000000000
11
0.7098420192
21
-23.5865399521
31
0.0000000000
11
0.7403579007
21
-23.5792137395
31
0.0000000000
11
0.7693526103
21
-23.5672037301
31
0.0000000000
11
0.7961110496
21
-23.5508061474
31
0.0000000000
11
0.8199762312
21
-23.5304233127
31
0.0000000000
11
0.8403590253
21
-23.5065578291
31
0.0000000000
11
0.8567566933
21
-23.4797988581
31
0.0000000000
11
0.8687668659
21
-23.4508033290
31
0.0000000000
11
0.8760932088
21
-23.4202864591
31
0.0000000000
11
0.8785555669
21
-23.3889988712
31
0.0000000000
0
SPLINE
5
443
100
AcDbEntity
8
0
100
AcDbSpline
62
7
6
CONTINUOUS
70
0
71
3
72
11
73
7
74
5
42
0.0000001000
43
0.0000001000
44
0.0000000001
12
-0.1962489971
22
-0.3926176167
32
0.0000000000
13
-0.0009407247
23
-0.4389320868
33
0.0000000000
40
0.0000000000
40
0.0000000000
40
0.0000000000
40
0.0000000000
40
0.0838025494
40
0.2987830570
40
0.6189169275
40
1.0000000000
40
1.0000000000
40
1.0000000000
40
1.0000000000
10
11.4409203240
20
19.6206500116
30
0.0000000000
10
11.4354382686
20
19.6096825592
30
0.0000000000
10
11.4413083718
20
19.5633567262
30
0.0000000000
10
11.4324116856
20
19.4750905354
30
0.0000000000
10
11.4341647145
20
19.3399181110
30
0.0000000000
10
11.4326819298
20
19.2376457992
30
0.0000000000
10
11.4325624317
20
19.1818892698
30
0.0000000000
11
11.4409203240
21
19.6206500116
31
0.0000000000
11
11.4379314892
21
19.5839879282
31
0.0000000000
11
11.4353299796
21
19.4896617365
31
0.0000000000
11
11.4334593928
21
19.3491568373
31
0.0000000000
11
11.4325624317
21
19.1818892698
31
0.0000000000
0
SPLINE
5
444
100
AcDbEntity
8
0
100
AcDbSpline
62
7
6
CONTINUOUS
70
0
71
3
72
10
73
6
74
4
42
0.0000001000
43
0.0000001000
44
0.0000000001
12
0.0205850313
22
2.1867841922
32
0.0000000000
13
0.0301628102
23
2.1866730555
33
0.0000000000
40
0.0000000000
40
0.0000000000
40
0.0000000000
40
0.0000000000
40
0.3335021231
40
0.6668426581
40
1.0000000000
40
1.0000000000
40
1.0000000000
40
1.0000000000
10
-6.6214444331
20
12.9184475565
30
0.0000000000
10
-6.6191560492
20
13.1615466135
30
0.0000000000
10
-6.6142261670
20
13.6476236846
30
0.0000000000
10
-6.6057697175
20
14.3765352248
30
0.0000000000
10
-6.5994238988
20
14.8623445201
30
0.0000000000
10
-6.5960742450
20
15.1051799143
30
0.0000000000
11
-6.6214444331
21
12.9184475565
31
0.0000000000
11
-6.6140475767
21
13.6477395284
31
0.0000000000
11
-6.6055906676
21
14.3766665805
31
0.0000000000
11
-6.5960742450
21
15.1051799143
31
0.0000000000
0
SPLINE
5
445
100
AcDbEntity
8
0
100
AcDbSpline
62
7
6
CONTINUOUS
70
0
71
3
72
10
73
6
74
4
42
0.0000001000
43
0.0000001000
44
0.0000000001
12
-0.0205850313
22
2.1867841922
32
0.0000000000
13
-0.0301628102
23
2.1866730555
33
0.0000000000
40
0.0000000000
40
0.0000000000
40
0.0000000000
40
0.0000000000
40
0.3335021231
40
0.6668426581
40
1.0000000000
40
1.0000000000
40
1.0000000000
40
1.0000000000
10
10.3785555669
20
12.9184475565
30
0.0000000000
10
10.3762671830
20
13.1615466135
30
0.0000000000
10
10.3713373009
20
13.6476236846
30
0.0000000000
10
10.3628808513
20
14.3765352248
30
0.0000000000
10
10.3565350327
20
14.8623445201
30
0.0000000000
10
10.3531853788
20
15.1051799143
30
0.0000000000
11
10.3785555669
21
12.9184475565
31
0.0000000000
11
10.3711587105
21
13.6477395284
31
0.0000000000
11
10.3627018014
21
14.3766665805
31
0.0000000000
11
10.3531853788
21
15.1051799143
31
0.0000000000
0
SPLINE
5
446
100
AcDbEntity
8
0
100
AcDbSpline
62
7
6
CONTINUOUS
70
0
71
3
72
11
73
7
74
5
42
0.0000001000
43
0.0000001000
44
0.0000000001
12
-0.0009407247
22
0.4389320868
32
0.0000000000
13
-0.1962489971
23
0.3926176167
33
0.0000000000
40
0.0000000000
40
0.0000000000
40
0.0000000000
40
0.0000000000
40
0.3810830725
40
0.7012169430
40
0.9161974506
40
1.0000000000
40
1.0000000000
40
1.0000000000
40
1.0000000000
10
-7.6754512979
20
19.1818892698
30
0.0000000000
10
-7.6755707960
20
19.2376457992
30
0.0000000000
10
-7.6770535806
20
19.3399181110
30
0.0000000000
10
-7.6753005518
20
19.4750905354
30
0.0000000000
10
-7.6841972380
20
19.5633567262
30
0.0000000000
10
-7.6783271347
20
19.6096825592
30
0.0000000000
10
-7.6838091902
20
19.6206500116
30
0.0000000000
11
-7.6754512979
21
19.1818892698
31
0.0000000000
11
-7.6763482590
21
19.3491568373
31
0.0000000000
11
-7.6782188457
21
19.4896617365
31
0.0000000000
11
-7.6808203553
21
19.5839879282
31
0.0000000000
11
-7.6838091902
21
19.6206500116
31
0.0000000000
0
SPLINE
5
447
100
AcDbEntity
8
0
100
AcDbSpline
62
7
6
CONTINUOUS
70
0
71
3
72
11
73
7
74
5
42
0.0000001000
43
0.0000001000
44
0.0000000001
12
-0.1063874236
22
-0.4257118114
32
0.0000000000
13
-0.0004701889
23
-0.4388036112
33
0.0000000000
40
0.0000000000
40
0.0000000000
40
0.0000000000
40
0.0000000000
40
0.0836136419
40
0.2985877215
40
0.6187943979
40
1.0000000000
40
1.0000000000
40
1.0000000000
40
1.0000000000
10
-5.4652587175
20
19.6206500116
30
0.0000000000
10
-5.4682238641
20
19.6087849066
30
0.0000000000
10
-5.4647864400
20
19.5643654435
30
0.0000000000
10
-5.4696681288
20
19.4745080435
30
0.0000000000
10
-5.4685740550
20
19.3401491652
30
0.0000000000
10
-5.4693775991
20
19.2376474014
30
0.0000000000
10
-5.4694373453
20
19.1818892698
30
0.0000000000
11
-5.4652587175
21
19.6206500116
31
0.0000000000
11
-5.4667529668
21
19.5839904628
31
0.0000000000
11
-5.4680536174
21
19.4896679734
31
0.0000000000
11
-5.4689888706
21
19.3491631595
31
0.0000000000
11
-5.4694373453
21
19.1818892698
31
0.0000000000
0
SPLINE
5
448
100
AcDbEntity
8
0
100
AcDbSpline
62
7
6
CONTINUOUS
70
0
71
3
72
17
73
13
74
11
42
0.0000001000
43
0.0000001000
44
0.0000000001
12
0.0000000000
22
-0.3138390385
32
0.0000000000
13
0.3138390385
23
0.0000000000
33
0.0000000000
40
0.0000000000
40
0.0000000000
40
0.0000000000
40
0.0000000000
40
0.1000013680
40
0.2000016332
40
0.3000034370
40
0.4000022503
40
0.5000058131
40
0.6000087280
40
0.7000059548
40
0.8000051471
40
0.9000022532
40
1.0000000000
40
1.0000000000
40
1.0000000000
40
1.0000000000
10
2.8785555669
20
-23.3889988712
30
0.0000000000
10
2.8785555669
20
-23.3994603156
30
0.0000000000
10
2.8802038936
20
-23.4204202493
30
0.0000000000
10
2.8875604878
20
-23.4510568251
30
0.0000000000
10
2.8996199639
20
-23.4801730938
30
0.0000000000
10
2.9160856275
20
-23.5070425695
30
0.0000000000
10
2.9365520150
20
-23.5310060999
30
0.0000000000
10
2.9605152624
20
-23.5514725625
30
0.0000000000
10
2.9873841920
20
-23.5679381471
30
0.0000000000
10
3.0164996829
20
-23.5799974880
30
0.0000000000
10
3.0471352772
20
-23.5873539601
30
0.0000000000
10
3.0680945013
20
-23.5890022558
30
0.0000000000
10
3.0785555669
20
-23.5890022558
30
0.0000000000
11
2.8785555669
21
-23.3889988712
31
0.0000000000
11
2.8810179250
21
-23.4202864591
31
0.0000000000
11
2.8883442679
21
-23.4508033290
31
0.0000000000
11
2.9003544406
21
-23.4797988581
31
0.0000000000
11
2.9167521085
21
-23.5065578291
31
0.0000000000
11
2.9371349027
21
-23.5304233127
31
0.0000000000
11
2.9610000843
21
-23.5508061474
31
0.0000000000
11
2.9877585235
21
-23.5672037301
31
0.0000000000
11
3.0167532331
21
-23.5792137395
31
0.0000000000
11
3.0472691146
21
-23.5865399521
31
0.0000000000
11
3.0785555669
21
-23.5890022558
31
0.0000000000
0
SPLINE
5
449
100
AcDbEntity
8
0
100
AcDbSpline
62
7
6
CONTINUOUS
70
0
71
3
72
11
73
7
74
5
42
0.0000001000
43
0.0000001000
44
0.0000000001
12
-0.0004701889
22
0.4388036112
32
0.0000000000
13
-0.1063874236
23
0.4257118114
33
0.0000000000
40
0.0000000000
40
0.0000000000
40
0.0000000000
40
0.0000000000
40
0.3812056021
40
0.7014122785
40
0.9163863581
40
1.0000000000
40
1.0000000000
40
1.0000000000
40
1.0000000000
10
-4.5734515208
20
19.1818892698
30
0.0000000000
10
-4.5735112670
20
19.2376474014
30
0.0000000000
10
-4.5743148111
20
19.3401491652
30
0.0000000000
10
-4.5732207373
20
19.4745080435
30
0.0000000000
10
-4.5781024262
20
19.5643654435
30
0.0000000000
10
-4.5746650020
20
19.6087849066
30
0.0000000000
10
-4.5776301487
20
19.6206500116
30
0.0000000000
11
-4.5734515208
21
19.1818892698
31
0.0000000000
11
-4.5738999955
21
19.3491631595
31
0.0000000000
11
-4.5748352488
21
19.4896679734
31
0.0000000000
11
-4.5761358994
21
19.5839904628
31
0.0000000000
11
-4.5776301487
21
19.6206500116
31
0.0000000000
0
SPLINE
5
44A
100
AcDbEntity
8
0
100
AcDbSpline
62
7
6
CONTINUOUS
70
0
71
3
72
11
73
7
74
5
42
0.0000001000
43
0.0000001000
44
0.0000000001
12
-0.1063874236
22
-0.4257118114
32
0.0000000000
13
-0.0004701889
23
-0.4388036112
33
0.0000000000
40
0.0000000000
40
0.0000000000
40
0.0000000000
40
0.0000000000
40
0.0836136419
40
0.2985877215
40
0.6187943979
40
1.0000000000
40
1.0000000000
40
1.0000000000
40
1.0000000000
10
8.3347412825
20
19.6206500116
30
0.0000000000
10
8.3317761359
20
19.6087849066
30
0.0000000000
10
8.3352135600
20
19.5643654435
30
0.0000000000
10
8.3303318712
20
19.4745080435
30
0.0000000000
10
8.3314259450
20
19.3401491652
30
0.0000000000
10
8.3306224009
20
19.2376474014
30
0.0000000000
10
8.3305626547
20
19.1818892698
30
0.0000000000
11
8.3347412825
21
19.6206500116
31
0.0000000000
11
8.3332470332
21
19.5839904628
31
0.0000000000
11
8.3319463826
21
19.4896679734
31
0.0000000000
11
8.3310111294
21
19.3491631595
31
0.0000000000
11
8.3305626547
21
19.1818892698
31
0.0000000000
0
SPLINE
5
44B
100
AcDbEntity
8
0
100
AcDbSpline
62
7
6
CONTINUOUS
70
0
71
3
72
9
73
5
74
3
42
0.0000001000
43
0.0000001000
44
0.0000000001
12
0.0000966056
22
0.0319099944
32
0.0000000000
13
0.0000761378
23
0.0319100498
33
0.0000000000
40
0.0000000000
40
0.0000000000
40
0.0000000000
40
0.0000000000
40
0.4965552946
40
1.0000000000
40
1.0000000000
40
1.0000000000
40
1.0000000000
10
-7.6456859064
20
-19.4162773473
30
0.0000000000
10
-7.6456699164
20
-19.4109956551
30
0.0000000000
10
-7.6456394230
20
-19.4003589850
30
0.0000000000
10
-7.6456123402
20
-19.3897223058
30
0.0000000000
10
-7.6455995632
20
-19.3843673239
30
0.0000000000
11
-7.6456859064
21
-19.4162773473
31
0.0000000000
11
-7.6456404741
21
-19.4004322631
31
0.0000000000
11
-7.6455995632
21
-19.3843673239
31
0.0000000000
0
SPLINE
5
44C
100
AcDbEntity
8
0
100
AcDbSpline
62
7
6
CONTINUOUS
70
0
71
3
72
13
73
9
74
7
42
0.0000001000
43
0.0000001000
44
0.0000000001
12
0.3203017887
22
0.9616867950
32
0.0000000000
13
-0.7119176766
23
0.7215316690
33
0.0000000000
40
0.0000000000
40
0.0000000000
40
0.0000000000
40
0.0000000000
40
0.0313860885
40
0.1202190247
40
0.2673345323
40
0.4625179915
40
0.7094053493
40
1.0000000000
40
1.0000000000
40
1.0000000000
40
1.0000000000
10
-6.9602358649
20
-20.1612423418
30
0.0000000000
10
-6.9568848581
20
-20.1511811462
30
0.0000000000
10
-6.9949416886
20
-20.1164656028
30
0.0000000000
10
-7.0396325715
20
-20.0488178522
30
0.0000000000
10
-7.1446558835
20
-19.9397927795
30
0.0000000000
10
-7.2774888647
20
-19.7947365031
30
0.0000000000
10
-7.4500512315
20
-19.6159423652
30
0.0000000000
10
-7.5767260836
20
-19.4861684284
30
0.0000000000
10
-7.6456859064
20
-19.4162773473
30
0.0000000000
11
-6.9602358649
21
-20.1612423418
31
0.0000000000
11
-6.9755320540
21
-20.1333472036
31
0.0000000000
11
-7.0324454459
21
-20.0635714788
31
0.0000000000
11
-7.1317991449
21
-19.9523708307
31
0.0000000000
11
-7.2667004000
21
-19.8076524716
31
0.0000000000
11
-7.4397745939
21
-19.6269014552
31
0.0000000000
11
-7.6456859064
21
-19.4162773473
31
0.0000000000
0
SPLINE
5
44D
100
AcDbEntity
8
0
100
AcDbSpline
62
7
6
CONTINUOUS
70
0
71
3
72
13
73
9
74
7
42
0.0000001000
43
0.0000001000
44
0.0000000001
12
0.0009268395
22
-0.7769533628
32
0.0000000000
13
0.1276199922
23
-0.7664010208
33
0.0000000000
40
0.0000000000
40
0.0000000000
40
0.0000000000
40
0.0000000000
40
0.2555743844
40
0.4940564110
40
0.6955146665
40
0.8520846154
40
0.9562375632
40
1.0000000000
40
1.0000000000
40
1.0000000000
40
1.0000000000
10
-5.4843620760
20
-19.3843673239
30
0.0000000000
10
-5.4842831172
20
-19.4505571164
30
0.0000000000
10
-5.4839815977
20
-19.5785064247
30
0.0000000000
10
-5.4832862829
20
-19.7586466749
30
0.0000000000
10
-5.4818952997
20
-19.9130893244
30
0.0000000000
10
-5.4812580004
20
-20.0328830679
30
0.0000000000
10
-5.4784192822
20
-20.1115217176
30
0.0000000000
10
-5.4788529716
20
-20.1500624830
30
0.0000000000
10
-5.4769913177
20
-20.1612423418
30
0.0000000000
11
-5.4843620760
21
-19.3843673239
31
0.0000000000
11
-5.4839196820
21
-19.5829363498
31
0.0000000000
11
-5.4830770542
21
-19.7682239781
31
0.0000000000
11
-5.4818986534
21
-19.9247433227
31
0.0000000000
11
-5.4804387877
21
-20.0463821975
31
0.0000000000
11
-5.4787550210
21
-20.1272867189
31
0.0000000000
11
-5.4769913177
21
-20.1612423418
31
0.0000000000
0
SPLINE
5
44E
100
AcDbEntity
8
0
100
AcDbSpline
62
7
6
CONTINUOUS
70
0
71
3
72
13
73
9
74
7
42
0.0000001000
43
0.0000001000
44
0.0000000001
12
0.1276199922
22
0.7664010208
32
0.0000000000
13
0.0009268395
23
0.7769533628
33
0.0000000000
40
0.0000000000
40
0.0000000000
40
0.0000000000
40
0.0000000000
40
0.0437624368
40
0.1479153846
40
0.3044853335
40
0.5059435890
40
0.7444256156
40
1.0000000000
40
1.0000000000
40
1.0000000000
40
1.0000000000
10
9.2341024515
20
-20.1612423418
30
0.0000000000
10
9.2359641055
20
-20.1500624830
30
0.0000000000
10
9.2355304161
20
-20.1115217176
30
0.0000000000
10
9.2383691342
20
-20.0328830679
30
0.0000000000
10
9.2390064335
20
-19.9130893244
30
0.0000000000
10
9.2403974168
20
-19.7586466749
30
0.0000000000
10
9.2410927316
20
-19.5785064247
30
0.0000000000
10
9.2413942510
20
-19.4505571164
30
0.0000000000
10
9.2414732098
20
-19.3843673239
30
0.0000000000
11
9.2341024515
21
-20.1612423418
31
0.0000000000
11
9.2358661548
21
-20.1272867189
31
0.0000000000
11
9.2375499216
21
-20.0463821975
31
0.0000000000
11
9.2390097872
21
-19.9247433227
31
0.0000000000
11
9.2401881880
21
-19.7682239781
31
0.0000000000
11
9.2410308158
21
-19.5829363498
31
0.0000000000
11
9.2414732098
21
-19.3843673239
31
0.0000000000
0
SPLINE
5
44F
100
AcDbEntity
8
0
100
AcDbSpline
62
7
6
CONTINUOUS
70
0
71
3
72
12
73
8
74
6
42
0.0000001000
43
0.0000001000
44
0.0000000001
12
-0.2234962207
22
0.4471286722
32
0.0000000000
13
-0.0000000000
23
0.4998745945
33
0.0000000000
40
0.0000000000
40
0.0000000000
40
0.0000000000
40
0.0000000000
40
0.0570795327
40
0.2035694973
40
0.4233386597
40
0.6988069142
40
1.0000000000
40
1.0000000000
40
1.0000000000
40
1.0000000000
10
-7.7176383183
20
19.6883288882
30
0.0000000000
10
-7.7218906716
20
19.6968361868
30
0.0000000000
10
-7.7179455981
20
19.7327259715
30
0.0000000000
10
-7.7248343798
20
19.8015189910
30
0.0000000000
10
-7.7240215579
20
19.9092962925
30
0.0000000000
10
-7.7260574762
20
20.0416670631
30
0.0000000000
10
-7.7260612643
20
20.1378380445
30
0.0000000000
10
-7.7260612643
20
20.1880243017
30
0.0000000000
11
-7.7176383183
21
19.6883288882
31
0.0000000000
11
-7.7202489272
21
19.7167418158
31
0.0000000000
11
-7.7226143173
21
19.7899302137
31
0.0000000000
11
-7.7244649410
21
19.8997716460
31
0.0000000000
11
-7.7256561966
21
20.0374660750
31
0.0000000000
11
-7.7260612643
21
20.1880243017
31
0.0000000000
0
SPLINE
5
450
100
AcDbEntity
8
0
100
AcDbSpline
62
7
6
CONTINUOUS
70
0
71
3
72
13
73
9
74
7
42
0.0000001000
43
0.0000001000
44
0.0000000001
12
-0.7119176766
22
-0.7215316690
32
0.0000000000
13
0.3203017887
23
-0.9616867950
33
0.0000000000
40
0.0000000000
40
0.0000000000
40
0.0000000000
40
0.0000000000
40
0.2905946507
40
0.5374820085
40
0.7326654677
40
0.8797809753
40
0.9686139115
40
1.0000000000
40
1.0000000000
40
1.0000000000
40
1.0000000000
10
11.4027970403
20
-19.4162773473
30
0.0000000000
10
11.3338372174
20
-19.4861684284
30
0.0000000000
10
11.2071623653
20
-19.6159423652
30
0.0000000000
10
11.0345999985
20
-19.7947365031
30
0.0000000000
10
10.9017670174
20
-19.9397927795
30
0.0000000000
10
10.7967437054
20
-20.0488178522
30
0.0000000000
10
10.7520528225
20
-20.1164656028
30
0.0000000000
10
10.7139959920
20
-20.1511811462
30
0.0000000000
10
10.7173469988
20
-20.1612423418
30
0.0000000000
11
11.4027970403
21
-19.4162773473
31
0.0000000000
11
11.1968857277
21
-19.6269014552
31
0.0000000000
11
11.0238115339
21
-19.8076524716
31
0.0000000000
11
10.8889102787
21
-19.9523708307
31
0.0000000000
11
10.7895565797
21
-20.0635714788
31
0.0000000000
11
10.7326431878
21
-20.1333472036
31
0.0000000000
11
10.7173469988
21
-20.1612423418
31
0.0000000000
0
SPLINE
5
451
100
AcDbEntity
8
0
100
AcDbSpline
62
7
6
CONTINUOUS
70
0
71
3
72
9
73
5
74
3
42
0.0000001000
43
0.0000001000
44
0.0000000001
12
0.0000761378
22
-0.0319100498
32
0.0000000000
13
0.0000966056
23
-0.0319099944
33
0.0000000000
40
0.0000000000
40
0.0000000000
40
0.0000000000
40
0.0000000000
40
0.5033880598
40
1.0000000000
40
1.0000000000
40
1.0000000000
40
1.0000000000
10
11.4027106970
20
-19.3843673239
30
0.0000000000
10
11.4027234726
20
-19.3897217032
30
0.0000000000
10
11.4027505552
20
-19.4003583825
30
0.0000000000
10
11.4027810484
20
-19.4109950526
30
0.0000000000
10
11.4027970403
20
-19.4162773473
30
0.0000000000
11
11.4027106970
21
-19.3843673239
31
0.0000000000
11
11.4027516030
21
-19.4004304556
31
0.0000000000
11
11.4027970403
21
-19.4162773473
31
0.0000000000
0
SPLINE
5
452
100
AcDbEntity
8
0
100
AcDbSpline
62
7
6
CONTINUOUS
70
0
71
3
72
8
73
4
74
2
42
0.0000001000
43
0.0000001000
44
0.0000000001
12
0.0017480002
22
-0.0017480002
32
0.0000000000
13
0.0001440396
23
-0.0024678456
33
0.0000000000
40
0.0000000000
40
0.0000000000
40
0.0000000000
40
0.0000000000
40
1.0000000000
40
1.0000000000
40
1.0000000000
40
1.0000000000
10
-2.5277937862
20
24.3615292675
30
0.0000000000
10
-2.5272111195
20
24.3609466008
30
0.0000000000
10
-2.5275701992
20
24.3598948026
30
0.0000000000
10
-2.5275221860
20
24.3590721874
30
0.0000000000
11
-2.5277937862
21
24.3615292675
31
0.0000000000
11
-2.5275221860
21
24.3590721874
31
0.0000000000
0
SPLINE
5
453
100
AcDbEntity
8
0
100
AcDbSpline
62
7
6
CONTINUOUS
70
0
71
3
72
13
73
9
74
7
42
0.0000001000
43
0.0000001000
44
0.0000000001
12
0.0008859486
22
-0.7845725987
32
0.0000000000
13
0.5547769586
23
-0.5547769586
33
0.0000000000
40
0.0000000000
40
0.0000000000
40
0.0000000000
40
0.0000000000
40
0.2623513839
40
0.5069820450
40
0.7112750858
40
0.8667988790
40
0.9656676345
40
1.0000000000
40
1.0000000000
40
1.0000000000
40
1.0000000000
10
8.3149065231
20
-18.7544185504
30
0.0000000000
10
8.3149839997
20
-18.8230297861
30
0.0000000000
10
8.3154839523
20
-18.9555091762
30
0.0000000000
10
8.3154403593
20
-19.1419597397
30
0.0000000000
10
8.3190582916
20
-19.2988055579
30
0.0000000000
10
8.3144327227
20
-19.4217746971
30
0.0000000000
10
8.3271953969
20
-19.4916033238
30
0.0000000000
10
8.3162782921
20
-19.5325428108
30
0.0000000000
10
8.3226272272
20
-19.5388917460
30
0.0000000000
11
8.3149065231
21
-18.7544185504
31
0.0000000000
11
8.3153592284
21
-18.9602518908
31
0.0000000000
11
8.3162439620
21
-19.1521804875
31
0.0000000000
11
8.3174862290
21
-19.3124584975
31
0.0000000000
11
8.3190230930
21
-19.4344686029
31
0.0000000000
11
8.3207895916
21
-19.5120182519
31
0.0000000000
11
8.3226272272
21
-19.5388917460
31
0.0000000000
0
SPLINE
5
454
100
AcDbEntity
8
0
100
AcDbSpline
62
7
6
CONTINUOUS
70
0
71
3
72
8
73
4
74
2
42
0.0000001000
43
0.0000001000
44
0.0000000001
12
-0.0017480002
22
-0.0017480002
32
0.0000000000
13
-0.0001440396
23
-0.0024678456
33
0.0000000000
40
0.0000000000
40
0.0000000000
40
0.0000000000
40
0.0000000000
40
1.0000000000
40
1.0000000000
40
1.0000000000
40
1.0000000000
10
6.2849049201
20
24.3615292675
30
0.0000000000
10
6.2843222533
20
24.3609466008
30
0.0000000000
10
6.2846813331
20
24.3598948026
30
0.0000000000
10
6.2846333199
20
24.3590721874
30
0.0000000000
11
6.2849049201
21
24.3615292675
31
0.0000000000
11
6.2846333199
21
24.3590721874
31
0.0000000000
0
SPLINE
5
455
100
AcDbEntity
8
0
100
AcDbSpline
62
7
6
CONTINUOUS
70
0
71
3
72
13
73
9
74
7
42
0.0000001000
43
0.0000001000
44
0.0000000001
12
0.5547769586
22
0.5547769586
32
0.0000000000
13
0.0008859486
23
0.7845725987
33
0.0000000000
40
0.0000000000
40
0.0000000000
40
0.0000000000
40
0.0000000000
40
0.0343323655
40
0.1332011210
40
0.2887249142
40
0.4930179550
40
0.7376486161
40
1.0000000000
40
1.0000000000
40
1.0000000000
40
1.0000000000
10
-4.5655160934
20
-19.5388917460
30
0.0000000000
10
-4.5591671583
20
-19.5325428108
30
0.0000000000
10
-4.5700842631
20
-19.4916033238
30
0.0000000000
10
-4.5573215889
20
-19.4217746971
30
0.0000000000
10
-4.5619471578
20
-19.2988055579
30
0.0000000000
10
-4.5583292255
20
-19.1419597397
30
0.0000000000
10
-4.5583728185
20
-18.9555091762
30
0.0000000000
10
-4.5578728659
20
-18.8230297861
30
0.0000000000
10
-4.5577953892
20
-18.7544185504
30
0.0000000000
11
-4.5655160934
21
-19.5388917460
31
0.0000000000
11
-4.5636784578
21
-19.5120182519
31
0.0000000000
11
-4.5619119592
21
-19.4344686029
31
0.0000000000
11
-4.5603750951
21
-19.3124584975
31
0.0000000000
11
-4.5591328282
21
-19.1521804875
31
0.0000000000
11
-4.5582480946
21
-18.9602518908
31
0.0000000000
11
-4.5577953892
21
-18.7544185504
31
0.0000000000
0
SPLINE
5
456
100
AcDbEntity
8
0
100
AcDbSpline
62
7
6
CONTINUOUS
70
0
71
3
72
9
73
5
74
3
42
0.0000001000
43
0.0000001000
44
0.0000000001
12
0.0001229116
22
-0.0021058575
32
0.0000000000
13
0.0026060595
23
-0.0009722932
33
0.0000000000
40
0.0000000000
40
0.0000000000
40
0.0000000000
40
0.0000000000
40
0.8427341930
40
1.0000000000
40
1.0000000000
40
1.0000000000
40
1.0000000000
10
6.2846333199
20
-23.5487123587
30
0.0000000000
10
6.2846678472
20
-23.5493039181
30
0.0000000000
10
6.2842903699
20
-23.5502080773
30
0.0000000000
10
6.2849507968
20
-23.5506293333
30
0.0000000000
10
6.2850874115
20
-23.5506803028
30
0.0000000000
11
6.2846333199
21
-23.5487123587
31
0.0000000000
11
6.2847687417
21
-23.5504848915
31
0.0000000000
11
6.2850874115
21
-23.5506803028
31
0.0000000000
0
SPLINE
5
457
100
AcDbEntity
8
0
100
AcDbSpline
62
7
6
CONTINUOUS
70
0
71
3
72
10
73
6
74
4
42
0.0000001000
43
0.0000001000
44
0.0000000001
12
-0.0040202006
22
3.3700640320
32
0.0000000000
13
-0.0028781771
23
3.3700652008
33
0.0000000000
40
0.0000000000
40
0.0000000000
40
0.0000000000
40
0.0000000000
40
0.3328203994
40
0.6661720150
40
1.0000000000
40
1.0000000000
40
1.0000000000
40
1.0000000000
10
-5.4843620760
20
-19.3843673239
30
0.0000000000
10
-5.4848080776
20
-19.0104919715
30
0.0000000000
10
-5.4856582929
20
-18.2621444711
30
0.0000000000
10
-5.4868075021
20
-17.1387895802
30
0.0000000000
10
-5.4874897109
20
-16.3893100305
30
0.0000000000
10
-5.4878099829
20
-16.0143026721
30
0.0000000000
11
-5.4843620760
21
-19.3843673239
31
0.0000000000
11
-5.4856364876
21
-18.2627411926
31
0.0000000000
11
-5.4867858548
21
-17.1393246915
31
0.0000000000
11
-5.4878099829
21
-16.0143026721
31
0.0000000000
0
SPLINE
5
458
100
AcDbEntity
8
0
100
AcDbSpline
62
7
6
CONTINUOUS
70
0
71
3
72
32
73
28
74
26
42
0.0000001000
43
0.0000001000
44
0.0000000001
12
-0.6407329712
22
0.6407329712
32
0.0000000000
13
-0.0000000000
23
-0.9061332577
33
0.0000000000
40
0.0000000000
40
0.0000000000
40
0.0000000000
40
0.0000000000
40
0.0043069725
40
0.0163919153
40
0.0360729346
40
0.0630421591
40
0.0968762501
40
0.1370439022
40
0.1829140150
40
0.2337660174
40
0.2888008725
40
0.3471539500
40
0.4079083789
40
0.4701096322
40
0.5327805248
40
0.5949363991
40
0.6556005566
40
0.7138199080
40
0.7686796671
40
0.8193179791
40
0.8649391463
40
0.9048265250
40
0.9383534049
40
0.9649933132
40
0.9843280882
40
0.9960553636
40
1.0000000000
40
1.0000000000
40
1.0000000000
40
1.0000000000
10
6.2846333199
20
-21.9508978386
30
0.0000000000
10
6.2837134468
20
-21.9499779655
30
0.0000000000
10
6.2779029953
20
-21.9513951022
30
0.0000000000
10
6.2678102374
20
-21.9495908678
30
0.0000000000
10
6.2496302054
20
-21.9501440153
30
0.0000000000
10
6.2255116162
20
-21.9494964087
30
0.0000000000
10
6.1949436086
20
-21.9493633804
30
0.0000000000
10
6.1587626161
20
-21.9490683458
30
0.0000000000
10
6.1174082779
20
-21.9488631274
30
0.0000000000
10
6.0715738624
20
-21.9486684142
30
0.0000000000
10
6.0219655738
20
-21.9485142387
30
0.0000000000
10
5.9693671994
20
-21.9483949970
30
0.0000000000
10
5.9146038878
20
-21.9483151270
30
0.0000000000
10
5.8585364485
20
-21.9482752462
30
0.0000000000
10
5.8020456515
20
-21.9482761889
30
0.0000000000
10
5.7460192287
20
-21.9483179695
30
0.0000000000
10
5.6913371193
20
-21.9483996066
30
0.0000000000
10
5.6388598707
20
-21.9485208359
30
0.0000000000
10
5.5894074430
20
-21.9486758748
30
0.0000000000
10
5.5437721515
20
-21.9488746857
30
0.0000000000
10
5.5026215504
20
-21.9490730353
30
0.0000000000
10
5.4667560889
20
-21.9493941006
30
0.0000000000
10
5.4362846659
20
-21.9494569467
30
0.0000000000
10
5.4129384363
20
-21.9502910891
30
0.0000000000
10
5.3939754440
20
-21.9493148526
30
0.0000000000
10
5.3861384802
20
-21.9518428995
30
0.0000000000
10
5.3785555669
20
-21.9497217172
30
0.0000000000
10
5.3785555669
20
-21.9509131726
30
0.0000000000
11
6.2846333199
21
-21.9508978386
31
0.0000000000
11
6.2807445723
21
-21.9505682335
31
0.0000000000
11
6.2697988035
21
-21.9502440464
31
0.0000000000
11
6.2519679362
21
-21.9499303717
31
0.0000000000
11
6.2275320448
21
-21.9496321378
31
0.0000000000
11
6.1968751111
21
-21.9493540318
31
0.0000000000
11
6.1604787492
21
-21.9491004229
31
0.0000000000
11
6.1189149241
21
-21.9488752968
31
0.0000000000
11
6.0728366381
21
-21.9486821903
31
0.0000000000
11
6.0229679761
21
-21.9485241380
31
0.0000000000
11
5.9700924492
21
-21.9484036231
31
0.0000000000
11
5.9150409003
21
-21.9483225391
31
0.0000000000
11
5.8586782906
21
-21.9482821600
31
0.0000000000
11
5.8018901104
21
-21.9482831201
31
0.0000000000
11
5.7455686215
21
-21.9483254048
31
0.0000000000
11
5.6905988734
21
-21.9484083494
31
0.0000000000
11
5.6378445246
21
-21.9485306510
31
0.0000000000
11
5.5881345290
21
-21.9486903877
31
0.0000000000
11
5.5422498834
21
-21.9488850500
31
0.0000000000
11
5.5009116472
21
-21.9491115789
31
0.0000000000
11
5.4647692652
21
-21.9493664155
31
0.0000000000
11
5.4343907267
21
-21.9496455549
31
0.0000000000
11
5.4102532724
21
-21.9499446116
31
0.0000000000
11
5.3927362086
21
-21.9502588857
31
0.0000000000
11
5.3821146918
21
-21.9505834394
31
0.0000000000
11
5.3785555669
21
-21.9509131726
31
0.0000000000
0
SPLINE
5
459
100
AcDbEntity
8
0
100
AcDbSpline
62
7
6
CONTINUOUS
70
0
71
3
72
32
73
28
74
26
42
0.0000001000
43
0.0000001000
44
0.0000000001
12
0.0000000000
22
0.9061332577
32
0.0000000000
13
-0.6407329712
23
-0.6407329712
33
0.0000000000
40
0.0000000000
40
0.0000000000
40
0.0000000000
40
0.0000000000
40
0.0039446364
40
0.0156719118
40
0.0350066868
40
0.0616465951
40
0.0951734750
40
0.1350608537
40
0.1806820209
40
0.2313203329
40
0.2861800920
40
0.3443994434
40
0.4050636009
40
0.4672194752
40
0.5298903678
40
0.5920916211
40
0.6528460500
40
0.7111991275
40
0.7662339826
40
0.8170859850
40
0.8629560978
40
0.9031237499
40
0.9369578409
40
0.9639270654
40
0.9836080847
40
0.9956930275
40
1.0000000000
40
1.0000000000
40
1.0000000000
40
1.0000000000
10
-1.6214444331
20
-21.9509131726
30
0.0000000000
10
-1.6214444331
20
-21.9497217172
30
0.0000000000
10
-1.6290273464
20
-21.9518428995
30
0.0000000000
10
-1.6368643102
20
-21.9493148526
30
0.0000000000
10
-1.6558273025
20
-21.9502910891
30
0.0000000000
10
-1.6791735320
20
-21.9494569467
30
0.0000000000
10
-1.7096449551
20
-21.9493941006
30
0.0000000000
10
-1.7455104166
20
-21.9490730353
30
0.0000000000
10
-1.7866610176
20
-21.9488746857
30
0.0000000000
10
-1.8322963091
20
-21.9486758748
30
0.0000000000
10
-1.8817487369
20
-21.9485208359
30
0.0000000000
10
-1.9342259855
20
-21.9483996066
30
0.0000000000
10
-1.9889080949
20
-21.9483179695
30
0.0000000000
10
-2.0449345177
20
-21.9482761889
30
0.0000000000
10
-2.1014253146
20
-21.9482752462
30
0.0000000000
10
-2.1574927540
20
-21.9483151270
30
0.0000000000
10
-2.2122560656
20
-21.9483949970
30
0.0000000000
10
-2.2648544400
20
-21.9485142387
30
0.0000000000
10
-2.3144627286
20
-21.9486684142
30
0.0000000000
10
-2.3602971441
20
-21.9488631274
30
0.0000000000
10
-2.4016514822
20
-21.9490683458
30
0.0000000000
10
-2.4378324748
20
-21.9493633804
30
0.0000000000
10
-2.4684004824
20
-21.9494964087
30
0.0000000000
10
-2.4925190716
20
-21.9501440153
30
0.0000000000
10
-2.5106991035
20
-21.9495908678
30
0.0000000000
10
-2.5207918614
20
-21.9513951022
30
0.0000000000
10
-2.5266023130
20
-21.9499779655
30
0.0000000000
10
-2.5275221860
20
-21.9508978386
30
0.0000000000
11
-1.6214444331
21
-21.9509131726
31
0.0000000000
11
-1.6250035580
21
-21.9505834394
31
0.0000000000
11
-1.6356250748
21
-21.9502588857
31
0.0000000000
11
-1.6531421385
21
-21.9499446116
31
0.0000000000
11
-1.6772795929
21
-21.9496455549
31
0.0000000000
11
-1.7076581313
21
-21.9493664155
31
0.0000000000
11
-1.7438005134
21
-21.9491115789
31
0.0000000000
11
-1.7851387495
21
-21.9488850500
31
0.0000000000
11
-1.8310233952
21
-21.9486903877
31
0.0000000000
11
-1.8807333908
21
-21.9485306510
31
0.0000000000
11
-1.9334877396
21
-21.9484083494
31
0.0000000000
11
-1.9884574877
21
-21.9483254048
31
0.0000000000
11
-2.0447789766
21
-21.9482831201
31
0.0000000000
11
-2.1015671567
21
-21.9482821600
31
0.0000000000
11
-2.1579297665
21
-21.9483225391
31
0.0000000000
11
-2.2129813154
21
-21.9484036231
31
0.0000000000
11
-2.2658568423
21
-21.9485241380
31
0.0000000000
11
-2.3157255043
21
-21.9486821903
31
0.0000000000
11
-2.3618037903
21
-21.9488752968
31
0.0000000000
11
-2.4033676153
21
-21.9491004229
31
0.0000000000
11
-2.4397639773
21
-21.9493540318
31
0.0000000000
11
-2.4704209109
21
-21.9496321378
31
0.0000000000
11
-2.4948568023
21
-21.9499303717
31
0.0000000000
11
-2.5126876696
21
-21.9502440464
31
0.0000000000
11
-2.5236334385
21
-21.9505682335
31
0.0000000000
11
-2.5275221860
21
-21.9508978386
31
0.0000000000
0
SPLINE
5
45A
100
AcDbEntity
8
0
100
AcDbSpline
62
7
6
CONTINUOUS
70
0
71
3
72
9
73
5
74
3
42
0.0000001000
43
0.0000001000
44
0.0000000001
12
-0.0001229116
22
-0.0021058575
32
0.0000000000
13
-0.0026060595
23
-0.0009722932
33
0.0000000000
40
0.0000000000
40
0.0000000000
40
0.0000000000
40
0.0000000000
40
0.8427341930
40
1.0000000000
40
1.0000000000
40
1.0000000000
40
1.0000000000
10
-2.5275221860
20
-23.5487123587
30
0.0000000000
10
-2.5275567133
20
-23.5493039181
30
0.0000000000
10
-2.5271792361
20
-23.5502080773
30
0.0000000000
10
-2.5278396630
20
-23.5506293333
30
0.0000000000
10
-2.5279762777
20
-23.5506803028
30
0.0000000000
11
-2.5275221860
21
-23.5487123587
31
0.0000000000
11
-2.5276576079
21
-23.5504848915
31
0.0000000000
11
-2.5279762777
21
-23.5506803028
31
0.0000000000
0
SPLINE
5
45B
100
AcDbEntity
8
0
100
AcDbSpline
62
7
6
CONTINUOUS
70
0
71
3
72
32
73
28
74
26
42
0.0000001000
43
0.0000001000
44
0.0000000001
12
0.0000000000
22
-0.9061332577
32
0.0000000000
13
0.6407329712
23
0.6407329712
33
0.0000000000
40
0.0000000000
40
0.0000000000
40
0.0000000000
40
0.0000000000
40
0.0039446364
40
0.0156719118
40
0.0350066868
40
0.0616465951
40
0.0951734750
40
0.1350608537
40
0.1806820209
40
0.2313203329
40
0.2861800920
40
0.3443994434
40
0.4050636009
40
0.4672194752
40
0.5298903678
40
0.5920916211
40
0.6528460500
40
0.7111991275
40
0.7662339826
40
0.8170859850
40
0.8629560978
40
0.9031237499
40
0.9369578409
40
0.9639270654
40
0.9836080847
40
0.9956930275
40
1.0000000000
40
1.0000000000
40
1.0000000000
40
1.0000000000
10
5.3785555669
20
22.7612730012
30
0.0000000000
10
5.3785555669
20
22.7600815458
30
0.0000000000
10
5.3861384802
20
22.7622027282
30
0.0000000000
10
5.3939754440
20
22.7596746813
30
0.0000000000
10
5.4129384363
20
22.7606509177
30
0.0000000000
10
5.4362846659
20
22.7598167753
30
0.0000000000
10
5.4667560889
20
22.7597539292
30
0.0000000000
10
5.5026215504
20
22.7594328640
30
0.0000000000
10
5.5437721515
20
22.7592345144
30
0.0000000000
10
5.5894074430
20
22.7590357035
30
0.0000000000
10
5.6388598707
20
22.7588806646
30
0.0000000000
10
5.6913371193
20
22.7587594353
30
0.0000000000
10
5.7460192287
20
22.7586777982
30
0.0000000000
10
5.8020456515
20
22.7586360176
30
0.0000000000
10
5.8585364485
20
22.7586350749
30
0.0000000000
10
5.9146038878
20
22.7586749557
30
0.0000000000
10
5.9693671994
20
22.7587548257
30
0.0000000000
10
6.0219655738
20
22.7588740674
30
0.0000000000
10
6.0715738624
20
22.7590282429
30
0.0000000000
10
6.1174082779
20
22.7592229561
30
0.0000000000
10
6.1587626161
20
22.7594281745
30
0.0000000000
10
6.1949436086
20
22.7597232091
30
0.0000000000
10
6.2255116162
20
22.7598562373
30
0.0000000000
10
6.2496302054
20
22.7605038440
30
0.0000000000
10
6.2678102374
20
22.7599506965
30
0.0000000000
10
6.2779029953
20
22.7617549309
30
0.0000000000
10
6.2837134468
20
22.7603377942
30
0.0000000000
10
6.2846333199
20
22.7612576673
30
0.0000000000
11
5.3785555669
21
22.7612730012
31
0.0000000000
11
5.3821146918
21
22.7609432681
31
0.0000000000
11
5.3927362086
21
22.7606187144
31
0.0000000000
11
5.4102532724
21
22.7603044403
31
0.0000000000
11
5.4343907267
21
22.7600053836
31
0.0000000000
11
5.4647692652
21
22.7597262442
31
0.0000000000
11
5.5009116472
21
22.7594714076
31
0.0000000000
11
5.5422498834
21
22.7592448787
31
0.0000000000
11
5.5881345290
21
22.7590502164
31
0.0000000000
11
5.6378445246
21
22.7588904797
31
0.0000000000
11
5.6905988734
21
22.7587681781
31
0.0000000000
11
5.7455686215
21
22.7586852334
31
0.0000000000
11
5.8018901104
21
22.7586429488
31
0.0000000000
11
5.8586782906
21
22.7586419886
31
0.0000000000
11
5.9150409003
21
22.7586823678
31
0.0000000000
11
5.9700924492
21
22.7587634518
31
0.0000000000
11
6.0229679761
21
22.7588839667
31
0.0000000000
11
6.0728366381
21
22.7590420190
31
0.0000000000
11
6.1189149241
21
22.7592351255
31
0.0000000000
11
6.1604787492
21
22.7594602516
31
0.0000000000
11
6.1968751111
21
22.7597138605
31
0.0000000000
11
6.2275320448
21
22.7599919665
31
0.0000000000
11
6.2519679362
21
22.7602902004
31
0.0000000000
11
6.2697988035
21
22.7606038750
31
0.0000000000
11
6.2807445723
21
22.7609280622
31
0.0000000000
11
6.2846333199
21
22.7612576673
31
0.0000000000
0
SPLINE
5
45C
100
AcDbEntity
8
0
100
AcDbSpline
62
7
6
CONTINUOUS
70
0
71
3
72
32
73
28
74
26
42
0.0000001000
43
0.0000001000
44
0.0000000001
12
0.6407329712
22
-0.6407329712
32
0.0000000000
13
0.0000000000
23
0.9061332577
33
0.0000000000
40
0.0000000000
40
0.0000000000
40
0.0000000000
40
0.0000000000
40
0.0043069725
40
0.0163919153
40
0.0360729346
40
0.0630421591
40
0.0968762501
40
0.1370439022
40
0.1829140150
40
0.2337660174
40
0.2888008725
40
0.3471539500
40
0.4079083789
40
0.4701096322
40
0.5327805248
40
0.5949363991
40
0.6556005566
40
0.7138199080
40
0.7686796671
40
0.8193179791
40
0.8649391463
40
0.9048265250
40
0.9383534049
40
0.9649933132
40
0.9843280882
40
0.9960553636
40
1.0000000000
40
1.0000000000
40
1.0000000000
40
1.0000000000
10
-2.5275221860
20
22.7612576673
30
0.0000000000
10
-2.5266023130
20
22.7603377942
30
0.0000000000
10
-2.5207918614
20
22.7617549309
30
0.0000000000
10
-2.5106991035
20
22.7599506965
30
0.0000000000
10
-2.4925190716
20
22.7605038440
30
0.0000000000
10
-2.4684004824
20
22.7598562373
30
0.0000000000
10
-2.4378324748
20
22.7597232091
30
0.0000000000
10
-2.4016514822
20
22.7594281745
30
0.0000000000
10
-2.3602971441
20
22.7592229561
30
0.0000000000
10
-2.3144627286
20
22.7590282429
30
0.0000000000
10
-2.2648544400
20
22.7588740674
30
0.0000000000
10
-2.2122560656
20
22.7587548257
30
0.0000000000
10
-2.1574927540
20
22.7586749557
30
0.0000000000
10
-2.1014253146
20
22.7586350749
30
0.0000000000
10
-2.0449345177
20
22.7586360176
30
0.0000000000
10
-1.9889080949
20
22.7586777982
30
0.0000000000
10
-1.9342259855
20
22.7587594353
30
0.0000000000
10
-1.8817487369
20
22.7588806646
30
0.0000000000
10
-1.8322963091
20
22.7590357035
30
0.0000000000
10
-1.7866610176
20
22.7592345144
30
0.0000000000
10
-1.7455104166
20
22.7594328640
30
0.0000000000
10
-1.7096449551
20
22.7597539292
30
0.0000000000
10
-1.6791735320
20
22.7598167753
30
0.0000000000
10
-1.6558273025
20
22.7606509177
30
0.0000000000
10
-1.6368643102
20
22.7596746813
30
0.0000000000
10
-1.6290273464
20
22.7622027282
30
0.0000000000
10
-1.6214444331
20
22.7600815458
30
0.0000000000
10
-1.6214444331
20
22.7612730012
30
0.0000000000
11
-2.5275221860
21
22.7612576673
31
0.0000000000
11
-2.5236334385
21
22.7609280622
31
0.0000000000
11
-2.5126876696
21
22.7606038750
31
0.0000000000
11
-2.4948568023
21
22.7602902004
31
0.0000000000
11
-2.4704209109
21
22.7599919665
31
0.0000000000
11
-2.4397639773
21
22.7597138605
31
0.0000000000
11
-2.4033676153
21
22.7594602516
31
0.0000000000
11
-2.3618037903
21
22.7592351255
31
0.0000000000
11
-2.3157255043
21
22.7590420190
31
0.0000000000
11
-2.2658568423
21
22.7588839667
31
0.0000000000
11
-2.2129813154
21
22.7587634518
31
0.0000000000
11
-2.1579297665
21
22.7586823678
31
0.0000000000
11
-2.1015671567
21
22.7586419886
31
0.0000000000
11
-2.0447789766
21
22.7586429488
31
0.0000000000
11
-1.9884574877
21
22.7586852334
31
0.0000000000
11
-1.9334877396
21
22.7587681781
31
0.0000000000
11
-1.8807333908
21
22.7588904797
31
0.0000000000
11
-1.8310233952
21
22.7590502164
31
0.0000000000
11
-1.7851387495
21
22.7592448787
31
0.0000000000
11
-1.7438005134
21
22.7594714076
31
0.0000000000
11
-1.7076581313
21
22.7597262442
31
0.0000000000
11
-1.6772795929
21
22.7600053836
31
0.0000000000
11
-1.6531421385
21
22.7603044403
31
0.0000000000
11
-1.6356250748
21
22.7606187144
31
0.0000000000
11
-1.6250035580
21
22.7609432681
31
0.0000000000
11
-1.6214444331
21
22.7612730012
31
0.0000000000
0
SPLINE
5
45D
100
AcDbEntity
8
0
100
AcDbSpline
62
7
6
CONTINUOUS
70
0
71
3
72
11
73
7
74
5
42
0.0000001000
43
0.0000001000
44
0.0000000001
12
-0.3103190565
22
0.4388574184
32
0.0000000000
13
-0.2908031263
23
0.4520257650
33
0.0000000000
40
0.0000000000
40
0.0000000000
40
0.0000000000
40
0.0000000000
40
0.2557937571
40
0.5094340121
40
0.7584327277
40
1.0000000000
40
1.0000000000
40
1.0000000000
40
1.0000000000
10
-5.6880900873
20
21.7411668630
30
0.0000000000
10
-5.7145493131
20
21.7785858589
30
0.0000000000
10
-5.7672454830
20
21.8531084596
30
0.0000000000
10
-5.8451987388
20
21.9644089435
30
0.0000000000
10
-5.9206321011
20
22.0743563471
30
0.0000000000
10
-5.9691723200
20
22.1476376444
30
0.0000000000
10
-5.9925884927
20
22.1840358547
30
0.0000000000
11
-5.6880900873
21
21.7411668630
31
0.0000000000
11
-5.7673836550
21
21.8534832781
31
0.0000000000
11
-5.8454939044
21
21.9652164427
31
0.0000000000
11
-5.9210803335
21
22.0756619422
31
0.0000000000
11
-5.9925884927
21
22.1840358547
31
0.0000000000
0
SPLINE
5
45E
100
AcDbEntity
8
0
100
AcDbSpline
62
7
6
CONTINUOUS
70
0
71
3
72
11
73
7
74
5
42
0.0000001000
43
0.0000001000
44
0.0000000001
12
-0.2908031263
22
-0.4520257650
32
0.0000000000
13
-0.3103190565
23
-0.4388574184
33
0.0000000000
40
0.0000000000
40
0.0000000000
40
0.0000000000
40
0.0000000000
40
0.2415672723
40
0.4905659879
40
0.7442062429
40
1.0000000000
40
1.0000000000
40
1.0000000000
40
1.0000000000
10
9.7496996265
20
22.1840358547
30
0.0000000000
10
9.7262834539
20
22.1476376444
30
0.0000000000
10
9.6777432349
20
22.0743563471
30
0.0000000000
10
9.6023098726
20
21.9644089435
30
0.0000000000
10
9.5243566168
20
21.8531084596
30
0.0000000000
10
9.4716604469
20
21.7785858589
30
0.0000000000
10
9.4452012212
20
21.7411668630
30
0.0000000000
11
9.7496996265
21
22.1840358547
31
0.0000000000
11
9.6781914674
21
22.0756619422
31
0.0000000000
11
9.6026050382
21
21.9652164427
31
0.0000000000
11
9.5244947889
21
21.8534832781
31
0.0000000000
11
9.4452012212
21
21.7411668630
31
0.0000000000
0
SPLINE
5
45F
100
AcDbEntity
8
0
100
AcDbSpline
62
7
6
CONTINUOUS
70
0
71
3
72
11
73
7
74
5
42
0.0000001000
43
0.0000001000
44
0.0000000001
12
0.3103190565
22
-0.4388574184
32
0.0000000000
13
0.2908031263
23
-0.4520257650
33
0.0000000000
40
0.0000000000
40
0.0000000000
40
0.0000000000
40
0.0000000000
40
0.2557937571
40
0.5094340121
40
0.7584327277
40
1.0000000000
40
1.0000000000
40
1.0000000000
40
1.0000000000
10
9.4452012212
20
-20.9308070343
30
0.0000000000
10
9.4716604469
20
-20.9682260303
30
0.0000000000
10
9.5243566168
20
-21.0427486309
30
0.0000000000
10
9.6023098726
20
-21.1540491148
30
0.0000000000
10
9.6777432349
20
-21.2639965184
30
0.0000000000
10
9.7262834539
20
-21.3372778157
30
0.0000000000
10
9.7496996265
20
-21.3736760261
30
0.0000000000
11
9.4452012212
21
-20.9308070343
31
0.0000000000
11
9.5244947889
21
-21.0431234494
31
0.0000000000
11
9.6026050382
21
-21.1548566140
31
0.0000000000
11
9.6781914674
21
-21.2653021136
31
0.0000000000
11
9.7496996265
21
-21.3736760261
31
0.0000000000
0
SPLINE
5
460
100
AcDbEntity
8
0
100
AcDbSpline
62
7
6
CONTINUOUS
70
0
71
3
72
10
73
6
74
4
42
0.0000001000
43
0.0000001000
44
0.0000000001
12
-0.0030941707
22
2.7401154855
32
0.0000000000
13
-0.0023401743
23
2.7401162332
33
0.0000000000
40
0.0000000000
40
0.0000000000
40
0.0000000000
40
0.0000000000
40
0.3329316235
40
0.6662758586
40
1.0000000000
40
1.0000000000
40
1.0000000000
40
1.0000000000
10
8.3149065231
20
-18.7544185504
30
0.0000000000
10
8.3145631407
20
-18.4503281847
30
0.0000000000
10
8.3139039803
20
-17.8417705534
30
0.0000000000
10
8.3129985268
20
-16.9283985902
30
0.0000000000
10
8.3124503413
20
-16.3191169846
30
0.0000000000
10
8.3121900171
20
-16.0143026721
30
0.0000000000
11
8.3149065231
21
-18.7544185504
31
0.0000000000
11
8.3139183408
21
-17.8421474069
31
0.0000000000
11
8.3130128084
21
-16.9287455727
31
0.0000000000
11
8.3121900171
21
-16.0143026721
31
0.0000000000
0
SPLINE
5
461
100
AcDbEntity
8
0
100
AcDbSpline
62
7
6
CONTINUOUS
70
0
71
3
72
11
73
7
74
5
42
0.0000001000
43
0.0000001000
44
0.0000000001
12
0.2908031263
22
0.4520257650
32
0.0000000000
13
0.3103190565
23
0.4388574184
33
0.0000000000
40
0.0000000000
40
0.0000000000
40
0.0000000000
40
0.0000000000
40
0.2415672723
40
0.4905659879
40
0.7442062429
40
1.0000000000
40
1.0000000000
40
1.0000000000
40
1.0000000000
10
-5.9925884927
20
-21.3736760261
30
0.0000000000
10
-5.9691723200
20
-21.3372778157
30
0.0000000000
10
-5.9206321011
20
-21.2639965184
30
0.0000000000
10
-5.8451987388
20
-21.1540491148
30
0.0000000000
10
-5.7672454830
20
-21.0427486309
30
0.0000000000
10
-5.7145493131
20
-20.9682260303
30
0.0000000000
10
-5.6880900873
20
-20.9308070343
30
0.0000000000
11
-5.9925884927
21
-21.3736760261
31
0.0000000000
11
-5.9210803335
21
-21.2653021136
31
0.0000000000
11
-5.8454939044
21
-21.1548566140
31
0.0000000000
11
-5.7673836550
21
-21.0431234494
31
0.0000000000
11
-5.6880900873
21
-20.9308070343
31
0.0000000000
0
SPLINE
5
462
100
AcDbEntity
8
0
100
AcDbSpline
62
7
6
CONTINUOUS
70
0
71
3
72
10
73
6
74
4
42
0.0000001000
43
0.0000001000
44
0.0000000001
12
-0.0023401743
22
-2.7401162332
32
0.0000000000
13
-0.0030941707
23
-2.7401154855
33
0.0000000000
40
0.0000000000
40
0.0000000000
40
0.0000000000
40
0.0000000000
40
0.3337241414
40
0.6670683765
40
1.0000000000
40
1.0000000000
40
1.0000000000
40
1.0000000000
10
-4.5550788833
20
-16.0143026721
30
0.0000000000
10
-4.5553392075
20
-16.3191169846
30
0.0000000000
10
-4.5558873930
20
-16.9283985902
30
0.0000000000
10
-4.5567928465
20
-17.8417705534
30
0.0000000000
10
-4.5574520068
20
-18.4503281847
30
0.0000000000
10
-4.5577953892
20
-18.7544185504
30
0.0000000000
11
-4.5550788833
21
-16.0143026721
31
0.0000000000
11
-4.5559016745
21
-16.9287455727
31
0.0000000000
11
-4.5568072070
21
-17.8421474069
31
0.0000000000
11
-4.5577953892
21
-18.7544185504
31
0.0000000000
0
SPLINE
5
463
100
AcDbEntity
8
0
100
AcDbSpline
62
7
6
CONTINUOUS
70
0
71
3
72
10
73
6
74
4
42
0.0000001000
43
0.0000001000
44
0.0000000001
12
-0.0028781771
22
-3.3700652008
32
0.0000000000
13
-0.0040202006
23
-3.3700640320
33
0.0000000000
40
0.0000000000
40
0.0000000000
40
0.0000000000
40
0.0000000000
40
0.3338279850
40
0.6671796006
40
1.0000000000
40
1.0000000000
40
1.0000000000
40
1.0000000000
10
9.2449211167
20
-16.0143026721
30
0.0000000000
10
9.2446008447
20
-16.3893100305
30
0.0000000000
10
9.2439186360
20
-17.1387895802
30
0.0000000000
10
9.2427694267
20
-18.2621444711
30
0.0000000000
10
9.2419192114
20
-19.0104919715
30
0.0000000000
10
9.2414732098
20
-19.3843673239
30
0.0000000000
11
9.2449211167
21
-16.0143026721
31
0.0000000000
11
9.2438969886
21
-17.1393246915
31
0.0000000000
11
9.2427476214
21
-18.2627411926
31
0.0000000000
11
9.2414732098
21
-19.3843673239
31
0.0000000000
0
SPLINE
5
464
100
AcDbEntity
8
0
100
AcDbSpline
62
7
6
CONTINUOUS
70
0
71
3
72
13
73
9
74
7
42
0.0000001000
43
0.0000001000
44
0.0000000001
12
0.9168257723
22
0.0000000000
32
0.0000000000
13
0.0198448393
23
0.9166109748
33
0.0000000000
40
0.0000000000
40
0.0000000000
40
0.0000000000
40
0.0000000000
40
0.0555024500
40
0.1597912220
40
0.3140359924
40
0.5130520844
40
0.7490409209
40
1.0000000000
40
1.0000000000
40
1.0000000000
40
1.0000000000
10
-6.4424241044
20
15.1051799143
30
0.0000000000
10
-6.4254620789
20
15.1051799143
30
0.0000000000
10
-6.3851803068
20
15.1458700126
30
0.0000000000
10
-6.3542928324
20
15.2338159581
30
0.0000000000
10
-6.3197563512
20
15.3709772290
30
0.0000000000
10
-6.2941469236
20
15.5489044310
30
0.0000000000
10
-6.2752550770
20
15.7579237577
30
0.0000000000
10
-6.2690715191
20
15.9066332889
30
0.0000000000
10
-6.2674114383
20
15.9833105709
30
0.0000000000
11
-6.4424241044
21
15.1051799143
31
0.0000000000
11
-6.4004425911
21
15.1339365714
31
0.0000000000
11
-6.3601686519
21
15.2206554739
31
0.0000000000
11
-6.3252922597
21
15.3577029246
31
0.0000000000
11
-6.2972033679
21
15.5379910011
31
0.0000000000
11
-6.2773647974
21
15.7534402081
31
0.0000000000
11
-6.2674114383
21
15.9833105709
31
0.0000000000
0
SPLINE
5
465
100
AcDbEntity
8
0
100
AcDbSpline
62
7
6
CONTINUOUS
70
0
71
3
72
18
73
14
74
12
42
0.0000001000
43
0.0000001000
44
0.0000000001
12
0.0000000000
22
-0.4220894472
32
0.0000000000
13
-0.4220894472
23
0.0000000000
33
0.0000000000
40
0.0000000000
40
0.0000000000
40
0.0000000000
40
0.0000000000
40
0.1059090351
40
0.2101669191
40
0.3119275375
40
0.4100581264
40
0.5041875836
40
0.5942815516
40
0.6804273975
40
0.7634029300
40
0.8436506062
40
0.9223347281
40
1.0000000000
40
1.0000000000
40
1.0000000000
40
1.0000000000
10
12.0285555669
20
23.8156650626
30
0.0000000000
10
12.0285555669
20
23.8007640339
30
0.0000000000
10
12.0265697370
20
23.7711551608
30
0.0000000000
10
12.0177658244
20
23.7280308306
30
0.0000000000
10
12.0035838490
20
23.6875140365
30
0.0000000000
10
11.9846527122
20
23.6505849678
30
0.0000000000
10
11.9617333811
20
23.6179774847
30
0.0000000000
10
11.9356033165
20
23.5901546544
30
0.0000000000
10
11.9069827783
20
23.5673440801
30
0.0000000000
10
11.8765402418
20
23.5496474094
30
0.0000000000
10
11.8447876593
20
23.5370408296
30
0.0000000000
10
11.8122395357
20
23.5295037511
30
0.0000000000
10
11.7902057954
20
23.5278296452
30
0.0000000000
10
11.7792785648
20
23.5278296452
30
0.0000000000
11
12.0285555669
21
23.8156650626
31
0.0000000000
11
12.0255520821
21
23.7710629888
31
0.0000000000
11
12.0167243232
21
23.7279513646
31
0.0000000000
11
12.0024946082
21
23.6874248713
31
0.0000000000
11
11.9835543795
21
23.6505890912
31
0.0000000000
11
11.9606616015
21
23.6181163781
31
0.0000000000
11
11.9345877214
21
23.5904349811
31
0.0000000000
11
11.9061208270
21
23.5678125009
31
0.0000000000
11
11.8758199634
21
23.5502490457
31
0.0000000000
11
11.8443268187
21
23.5377801358
31
0.0000000000
11
11.8119663813
21
23.5303087503
31
0.0000000000
11
11.7792785648
21
23.5278296452
31
0.0000000000
0
SPLINE
5
466
100
AcDbEntity
8
0
100
AcDbSpline
62
9
6
CONTINUOUS
70
0
71
3
72
18
73
14
74
12
42
0.0000001000
43
0.0000001000
44
0.0000000001
12
-0.0012300469
22
-0.3662148900
32
0.0000000000
13
-0.3662157937
23
-0.0009225687
33
0.0000000000
40
0.0000000000
40
0.0000000000
40
0.0000000000
40
0.0000000000
40
0.0842901845
40
0.1691825236
40
0.2551733573
40
0.3426537911
40
0.4318785657
40
0.5229513183
40
0.6158248362
40
0.7103132260
40
0.8061126036
40
0.9028273866
40
1.0000000000
40
1.0000000000
40
1.0000000000
40
1.0000000000
10
12.0241837329
20
24.2495174816
30
0.0000000000
10
12.0241491726
20
24.2392280414
30
0.0000000000
10
12.0223691026
20
24.2185417489
30
0.0000000000
10
12.0146397306
20
24.1882318498
30
0.0000000000
10
12.0020159688
20
24.1591841202
30
0.0000000000
10
11.9847686609
20
24.1320021537
30
0.0000000000
10
11.9632610961
20
24.1072306425
30
0.0000000000
10
11.9379390183
20
24.0853644227
30
0.0000000000
10
11.9093204445
20
24.0668362502
30
0.0000000000
10
11.8779863201
20
24.0520115947
30
0.0000000000
10
11.8445667711
20
24.0411822743
30
0.0000000000
10
11.8097406857
20
24.0345614067
30
0.0000000000
10
11.7860500123
20
24.0330410135
30
0.0000000000
10
11.7741879637
20
24.0330111307
30
0.0000000000
11
12.0241837329
21
24.2495174816
31
0.0000000000
11
12.0215452341
21
24.2187619570
31
0.0000000000
11
12.0138898557
21
24.1886302135
31
0.0000000000
11
12.0013728633
21
24.1597333804
31
0.0000000000
11
11.9842481256
21
24.1326575410
31
0.0000000000
11
11.9628629651
21
24.1079518453
31
0.0000000000
11
11.9376511138
21
24.0861173721
31
0.0000000000
11
11.9091239164
21
24.0675969664
31
0.0000000000
11
11.8778599593
21
24.0527662576
31
0.0000000000
11
11.8444933353
21
24.0419260407
31
0.0000000000
11
11.8097007835
21
24.0352961763
31
0.0000000000
11
11.7741879637
21
24.0330111307
31
0.0000000000
0
SPLINE
5
467
100
AcDbEntity
8
0
100
AcDbSpline
62
9
6
CONTINUOUS
70
0
71
3
72
18
73
14
74
12
42
0.0000001000
43
0.0000001000
44
0.0000000001
12
0.0012300469
22
-0.3662148900
32
0.0000000000
13
0.3662157937
23
-0.0009225687
33
0.0000000000
40
0.0000000000
40
0.0000000000
40
0.0000000000
40
0.0000000000
40
0.0842901845
40
0.1691825236
40
0.2551733573
40
0.3426537911
40
0.4318785657
40
0.5229513183
40
0.6158248362
40
0.7103132260
40
0.8061126036
40
0.9028273866
40
1.0000000000
40
1.0000000000
40
1.0000000000
40
1.0000000000
10
9.1329274009
20
24.2495174816
30
0.0000000000
10
9.1329619612
20
24.2392280414
30
0.0000000000
10
9.1347420313
20
24.2185417489
30
0.0000000000
10
9.1424714032
20
24.1882318498
30
0.0000000000
10
9.1550951650
20
24.1591841202
30
0.0000000000
10
9.1723424730
20
24.1320021537
30
0.0000000000
10
9.1938500378
20
24.1072306425
30
0.0000000000
10
9.2191721155
20
24.0853644227
30
0.0000000000
10
9.2477906893
20
24.0668362502
30
0.0000000000
10
9.2791248137
20
24.0520115947
30
0.0000000000
10
9.3125443627
20
24.0411822743
30
0.0000000000
10
9.3473704481
20
24.0345614067
30
0.0000000000
10
9.3710611216
20
24.0330410135
30
0.0000000000
10
9.3829231701
20
24.0330111307
30
0.0000000000
11
9.1329274009
21
24.2495174816
31
0.0000000000
11
9.1355658997
21
24.2187619570
31
0.0000000000
11
9.1432212781
21
24.1886302135
31
0.0000000000
11
9.1557382705
21
24.1597333804
31
0.0000000000
11
9.1728630082
21
24.1326575410
31
0.0000000000
11
9.1942481688
21
24.1079518453
31
0.0000000000
11
9.2194600200
21
24.0861173721
31
0.0000000000
11
9.2479872174
21
24.0675969664
31
0.0000000000
11
9.2792511746
21
24.0527662576
31
0.0000000000
11
9.3126177986
21
24.0419260407
31
0.0000000000
11
9.3474103503
21
24.0352961763
31
0.0000000000
11
9.3829231701
21
24.0330111307
31
0.0000000000
0
SPLINE
5
468
100
AcDbEntity
8
0
100
AcDbSpline
62
7
6
CONTINUOUS
70
0
71
3
72
18
73
14
74
12
42
0.0000001000
43
0.0000001000
44
0.0000000001
12
-0.4220894472
22
0.0000000000
32
0.0000000000
13
-0.0000000000
23
0.4220894472
33
0.0000000000
40
0.0000000000
40
0.0000000000
40
0.0000000000
40
0.0000000000
40
0.0776652719
40
0.1563493938
40
0.2365970700
40
0.3195726025
40
0.4057184484
40
0.4958124164
40
0.5899418736
40
0.6880724625
40
0.7898330809
40
0.8940909649
40
1.0000000000
40
1.0000000000
40
1.0000000000
40
1.0000000000
10
9.3778325690
20
23.5278296452
30
0.0000000000
10
9.3669053385
20
23.5278296452
30
0.0000000000
10
9.3448715982
20
23.5295037511
30
0.0000000000
10
9.3123234745
20
23.5370408296
30
0.0000000000
10
9.2805708921
20
23.5496474094
30
0.0000000000
10
9.2501283555
20
23.5673440801
30
0.0000000000
10
9.2215078173
20
23.5901546544
30
0.0000000000
10
9.1953777528
20
23.6179774847
30
0.0000000000
10
9.1724584216
20
23.6505849678
30
0.0000000000
10
9.1535272849
20
23.6875140365
30
0.0000000000
10
9.1393453094
20
23.7280308306
30
0.0000000000
10
9.1305413968
20
23.7711551608
30
0.0000000000
10
9.1285555669
20
23.8007640339
30
0.0000000000
10
9.1285555669
20
23.8156650626
30
0.0000000000
11
9.3778325690
21
23.5278296452
31
0.0000000000
11
9.3451447525
21
23.5303087503
31
0.0000000000
11
9.3127843152
21
23.5377801358
31
0.0000000000
11
9.2812911705
21
23.5502490457
31
0.0000000000
11
9.2509903068
21
23.5678125009
31
0.0000000000
11
9.2225234125
21
23.5904349811
31
0.0000000000
11
9.1964495323
21
23.6181163781
31
0.0000000000
11
9.1735567543
21
23.6505890912
31
0.0000000000
11
9.1546165257
21
23.6874248713
31
0.0000000000
11
9.1403868106
21
23.7279513646
31
0.0000000000
11
9.1315590517
21
23.7710629888
31
0.0000000000
11
9.1285555669
21
23.8156650626
31
0.0000000000
0
SPLINE
5
469
100
AcDbEntity
8
0
100
AcDbSpline
62
7
6
CONTINUOUS
70
0
71
3
72
18
73
14
74
12
42
0.0000001000
43
0.0000001000
44
0.0000000001
12
0.0000000000
22
-0.4220894472
32
0.0000000000
13
-0.4220894472
23
0.0000000000
33
0.0000000000
40
0.0000000000
40
0.0000000000
40
0.0000000000
40
0.0000000000
40
0.1059090351
40
0.2101669191
40
0.3119275375
40
0.4100581264
40
0.5041875836
40
0.5942815516
40
0.6804273975
40
0.7634029300
40
0.8436506062
40
0.9223347281
40
1.0000000000
40
1.0000000000
40
1.0000000000
40
1.0000000000
10
-5.3714444331
20
23.8156650626
30
0.0000000000
10
-5.3714444331
20
23.8007640339
30
0.0000000000
10
-5.3734302630
20
23.7711551608
30
0.0000000000
10
-5.3822341756
20
23.7280308306
30
0.0000000000
10
-5.3964161510
20
23.6875140365
30
0.0000000000
10
-5.4153472878
20
23.6505849678
30
0.0000000000
10
-5.4382666189
20
23.6179774847
30
0.0000000000
10
-5.4643966835
20
23.5901546544
30
0.0000000000
10
-5.4930172217
20
23.5673440801
30
0.0000000000
10
-5.5234597582
20
23.5496474094
30
0.0000000000
10
-5.5552123407
20
23.5370408296
30
0.0000000000
10
-5.5877604643
20
23.5295037511
30
0.0000000000
10
-5.6097942046
20
23.5278296452
30
0.0000000000
10
-5.6207214352
20
23.5278296452
30
0.0000000000
11
-5.3714444331
21
23.8156650626
31
0.0000000000
11
-5.3744479179
21
23.7710629888
31
0.0000000000
11
-5.3832756768
21
23.7279513646
31
0.0000000000
11
-5.3975053918
21
23.6874248713
31
0.0000000000
11
-5.4164456205
21
23.6505890912
31
0.0000000000
11
-5.4393383985
21
23.6181163781
31
0.0000000000
11
-5.4654122786
21
23.5904349811
31
0.0000000000
11
-5.4938791730
21
23.5678125009
31
0.0000000000
11
-5.5241800366
21
23.5502490457
31
0.0000000000
11
-5.5556731813
21
23.5377801358
31
0.0000000000
11
-5.5880336187
21
23.5303087503
31
0.0000000000
11
-5.6207214352
21
23.5278296452
31
0.0000000000
0
SPLINE
5
46A
100
AcDbEntity
8
0
100
AcDbSpline
62
9
6
CONTINUOUS
70
0
71
3
72
18
73
14
74
12
42
0.0000001000
43
0.0000001000
44
0.0000000001
12
-0.0012300469
22
-0.3662148900
32
0.0000000000
13
-0.3662157937
23
-0.0009225687
33
0.0000000000
40
0.0000000000
40
0.0000000000
40
0.0000000000
40
0.0000000000
40
0.0842901845
40
0.1691825236
40
0.2551733573
40
0.3426537911
40
0.4318785657
40
0.5229513183
40
0.6158248362
40
0.7103132260
40
0.8061126036
40
0.9028273866
40
1.0000000000
40
1.0000000000
40
1.0000000000
40
1.0000000000
10
-5.3758162671
20
24.2495174816
30
0.0000000000
10
-5.3758508274
20
24.2392280414
30
0.0000000000
10
-5.3776308974
20
24.2185417489
30
0.0000000000
10
-5.3853602694
20
24.1882318498
30
0.0000000000
10
-5.3979840312
20
24.1591841202
30
0.0000000000
10
-5.4152313391
20
24.1320021537
30
0.0000000000
10
-5.4367389039
20
24.1072306425
30
0.0000000000
10
-5.4620609817
20
24.0853644227
30
0.0000000000
10
-5.4906795555
20
24.0668362502
30
0.0000000000
10
-5.5220136799
20
24.0520115947
30
0.0000000000
10
-5.5554332289
20
24.0411822743
30
0.0000000000
10
-5.5902593143
20
24.0345614067
30
0.0000000000
10
-5.6139499877
20
24.0330410135
30
0.0000000000
10
-5.6258120363
20
24.0330111307
30
0.0000000000
11
-5.3758162671
21
24.2495174816
31
0.0000000000
11
-5.3784547659
21
24.2187619570
31
0.0000000000
11
-5.3861101443
21
24.1886302135
31
0.0000000000
11
-5.3986271367
21
24.1597333804
31
0.0000000000
11
-5.4157518744
21
24.1326575410
31
0.0000000000
11
-5.4371370349
21
24.1079518453
31
0.0000000000
11
-5.4623488862
21
24.0861173721
31
0.0000000000
11
-5.4908760836
21
24.0675969664
31
0.0000000000
11
-5.5221400407
21
24.0527662576
31
0.0000000000
11
-5.5555066647
21
24.0419260407
31
0.0000000000
11
-5.5902992165
21
24.0352961763
31
0.0000000000
11
-5.6258120363
21
24.0330111307
31
0.0000000000
0
SPLINE
5
46B
100
AcDbEntity
8
0
100
AcDbSpline
62
9
6
CONTINUOUS
70
0
71
3
72
18
73
14
74
12
42
0.0000001000
43
0.0000001000
44
0.0000000001
12
0.0012300469
22
-0.3662148900
32
0.0000000000
13
0.3662157937
23
-0.0009225687
33
0.0000000000
40
0.0000000000
40
0.0000000000
40
0.0000000000
40
0.0000000000
40
0.0842901845
40
0.1691825236
40
0.2551733573
40
0.3426537911
40
0.4318785657
40
0.5229513183
40
0.6158248362
40
0.7103132260
40
0.8061126036
40
0.9028273866
40
1.0000000000
40
1.0000000000
40
1.0000000000
40
1.0000000000
10
-8.2670725991
20
24.2495174816
30
0.0000000000
10
-8.2670380388
20
24.2392280414
30
0.0000000000
10
-8.2652579687
20
24.2185417489
30
0.0000000000
10
-8.2575285968
20
24.1882318498
30
0.0000000000
10
-8.2449048350
20
24.1591841202
30
0.0000000000
10
-8.2276575270
20
24.1320021537
30
0.0000000000
10
-8.2061499622
20
24.1072306425
30
0.0000000000
10
-8.1808278845
20
24.0853644227
30
0.0000000000
10
-8.1522093107
20
24.0668362502
30
0.0000000000
10
-8.1208751863
20
24.0520115947
30
0.0000000000
10
-8.0874556373
20
24.0411822743
30
0.0000000000
10
-8.0526295519
20
24.0345614067
30
0.0000000000
10
-8.0289388784
20
24.0330410135
30
0.0000000000
10
-8.0170768299
20
24.0330111307
30
0.0000000000
11
-8.2670725991
21
24.2495174816
31
0.0000000000
11
-8.2644341003
21
24.2187619570
31
0.0000000000
11
-8.2567787219
21
24.1886302135
31
0.0000000000
11
-8.2442617295
21
24.1597333804
31
0.0000000000
11
-8.2271369918
21
24.1326575410
31
0.0000000000
11
-8.2057518312
21
24.1079518453
31
0.0000000000
11
-8.1805399800
21
24.0861173721
31
0.0000000000
11
-8.1520127826
21
24.0675969664
31
0.0000000000
11
-8.1207488254
21
24.0527662576
31
0.0000000000
11
-8.0873822014
21
24.0419260407
31
0.0000000000
11
-8.0525896497
21
24.0352961763
31
0.0000000000
11
-8.0170768299
21
24.0330111307
31
0.0000000000
0
SPLINE
5
46C
100
AcDbEntity
8
0
100
AcDbSpline
62
7
6
CONTINUOUS
70
0
71
3
72
18
73
14
74
12
42
0.0000001000
43
0.0000001000
44
0.0000000001
12
-0.4220894472
22
0.0000000000
32
0.0000000000
13
0.0000000000
23
0.4220894472
33
0.0000000000
40
0.0000000000
40
0.0000000000
40
0.0000000000
40
0.0000000000
40
0.0776652719
40
0.1563493938
40
0.2365970700
40
0.3195726025
40
0.4057184484
40
0.4958124164
40
0.5899418736
40
0.6880724625
40
0.7898330809
40
0.8940909649
40
1.0000000000
40
1.0000000000
40
1.0000000000
40
1.0000000000
10
-8.0221674310
20
23.5278296452
30
0.0000000000
10
-8.0330946615
20
23.5278296452
30
0.0000000000
10
-8.0551284018
20
23.5295037511
30
0.0000000000
10
-8.0876765255
20
23.5370408296
30
0.0000000000
10
-8.1194291079
20
23.5496474094
30
0.0000000000
10
-8.1498716445
20
23.5673440801
30
0.0000000000
10
-8.1784921827
20
23.5901546544
30
0.0000000000
10
-8.2046222472
20
23.6179774847
30
0.0000000000
10
-8.2275415784
20
23.6505849678
30
0.0000000000
10
-8.2464727151
20
23.6875140365
30
0.0000000000
10
-8.2606546906
20
23.7280308306
30
0.0000000000
10
-8.2694586032
20
23.7711551608
30
0.0000000000
10
-8.2714444331
20
23.8007640339
30
0.0000000000
10
-8.2714444331
20
23.8156650626
30
0.0000000000
11
-8.0221674310
21
23.5278296452
31
0.0000000000
11
-8.0548552475
21
23.5303087503
31
0.0000000000
11
-8.0872156848
21
23.5377801358
31
0.0000000000
11
-8.1187088295
21
23.5502490457
31
0.0000000000
11
-8.1490096932
21
23.5678125009
31
0.0000000000
11
-8.1774765875
21
23.5904349811
31
0.0000000000
11
-8.2035504677
21
23.6181163781
31
0.0000000000
11
-8.2264432457
21
23.6505890912
31
0.0000000000
11
-8.2453834743
21
23.6874248713
31
0.0000000000
11
-8.2596131894
21
23.7279513646
31
0.0000000000
11
-8.2684409483
21
23.7710629888
31
0.0000000000
11
-8.2714444331
21
23.8156650626
31
0.0000000000
0
SPLINE
5
46D
100
AcDbEntity
8
0
100
AcDbSpline
62
7
6
CONTINUOUS
70
0
71
3
72
11
73
7
74
5
42
0.0000001000
43
0.0000001000
44
0.0000000001
12
-0.0004701889
22
0.4388036112
32
0.0000000000
13
-0.1063874236
23
0.4257118114
33
0.0000000000
40
0.0000000000
40
0.0000000000
40
0.0000000000
40
0.0000000000
40
0.3812056021
40
0.7014122785
40
0.9163863581
40
1.0000000000
40
1.0000000000
40
1.0000000000
40
1.0000000000
10
9.2265484792
20
19.1818892698
30
0.0000000000
10
9.2264887330
20
19.2376474014
30
0.0000000000
10
9.2256851889
20
19.3401491652
30
0.0000000000
10
9.2267792627
20
19.4745080435
30
0.0000000000
10
9.2218975738
20
19.5643654435
30
0.0000000000
10
9.2253349980
20
19.6087849066
30
0.0000000000
10
9.2223698513
20
19.6206500116
30
0.0000000000
11
9.2265484792
21
19.1818892698
31
0.0000000000
11
9.2261000045
21
19.3491631595
31
0.0000000000
11
9.2251647512
21
19.4896679734
31
0.0000000000
11
9.2238641006
21
19.5839904628
31
0.0000000000
11
9.2223698513
21
19.6206500116
31
0.0000000000
0
SPLINE
5
46E
100
AcDbEntity
8
0
100
AcDbSpline
62
9
6
CONTINUOUS
70
0
71
3
72
18
73
14
74
12
42
0.0000001000
43
0.0000001000
44
0.0000000001
12
-0.0012300469
22
0.3662148875
32
0.0000000000
13
-0.3662157912
23
0.0009225687
33
0.0000000000
40
0.0000000000
40
0.0000000000
40
0.0000000000
40
0.0000000000
40
0.0842917733
40
0.1691857338
40
0.2551786798
40
0.3426611748
40
0.4318880673
40
0.5229629903
40
0.6158387450
40
0.7103295894
40
0.8061307215
40
0.9028472123
40
1.0000000000
40
1.0000000000
40
1.0000000000
40
1.0000000000
10
12.0241837329
20
-23.4391576530
30
0.0000000000
10
12.0241491720
20
-23.4288680189
30
0.0000000000
10
12.0223690355
20
-23.4081813326
30
0.0000000000
10
12.0146393612
20
-23.3778708327
30
0.0000000000
10
12.0020150845
20
-23.3488225458
30
0.0000000000
10
11.9847670579
20
-23.3216401167
30
0.0000000000
10
11.9632586353
20
-23.2968683149
30
0.0000000000
10
11.9379355912
20
-23.2750019861
30
0.0000000000
10
11.9093159637
20
-23.2564738897
30
0.0000000000
10
11.8779808117
20
-23.2416495522
30
0.0000000000
10
11.8445603255
20
-23.2308207728
30
0.0000000000
10
11.8097360379
20
-23.2242011304
30
0.0000000000
10
11.7860475920
20
-23.2226811787
30
0.0000000000
10
11.7741879637
20
-23.2226513020
30
0.0000000000
11
12.0241837329
21
-23.4391576530
31
0.0000000000
11
12.0215451369
21
-23.4084015529
31
0.0000000000
11
12.0138894744
21
-23.3782692691
31
0.0000000000
11
12.0013719485
21
-23.3493718243
31
0.0000000000
11
11.9842465076
21
-23.3222955368
31
0.0000000000
11
11.9628604969
21
-23.2975895515
31
0.0000000000
11
11.9376476877
21
-23.2757549707
31
0.0000000000
11
11.9091194581
21
-23.2572346510
31
0.0000000000
11
11.8778543782
21
-23.2424042122
31
0.0000000000
11
11.8444868950
21
-23.2315645614
31
0.0000000000
11
11.8096935666
21
-23.2249354326
31
0.0000000000
11
11.7741879637
21
-23.2226513020
31
0.0000000000
0
SPLINE
5
46F
100
AcDbEntity
8
0
100
AcDbSpline
62
7
6
CONTINUOUS
70
0
71
3
72
18
73
14
74
12
42
0.0000001000
43
0.0000001000
44
0.0000000001
12
0.4220894472
22
0.0000000000
32
0.0000000000
13
0.0000000000
23
-0.4220894472
33
0.0000000000
40
0.0000000000
40
0.0000000000
40
0.0000000000
40
0.0000000000
40
0.0776652719
40
0.1563493938
40
0.2365970700
40
0.3195726025
40
0.4057184484
40
0.4958124164
40
0.5899418736
40
0.6880724625
40
0.7898330809
40
0.8940909649
40
1.0000000000
40
1.0000000000
40
1.0000000000
40
1.0000000000
10
11.7792785648
20
-22.7174698165
30
0.0000000000
10
11.7902057954
20
-22.7174698165
30
0.0000000000
10
11.8122395357
20
-22.7191439224
30
0.0000000000
10
11.8447876593
20
-22.7266810010
30
0.0000000000
10
11.8765402418
20
-22.7392875807
30
0.0000000000
10
11.9069827783
20
-22.7569842514
30
0.0000000000
10
11.9356033165
20
-22.7797948257
30
0.0000000000
10
11.9617333811
20
-22.8076176560
30
0.0000000000
10
11.9846527122
20
-22.8402251391
30
0.0000000000
10
12.0035838490
20
-22.8771542079
30
0.0000000000
10
12.0177658244
20
-22.9176710019
30
0.0000000000
10
12.0265697370
20
-22.9607953321
30
0.0000000000
10
12.0285555669
20
-22.9904042052
30
0.0000000000
10
12.0285555669
20
-23.0053052339
30
0.0000000000
11
11.7792785648
21
-22.7174698165
31
0.0000000000
11
11.8119663813
21
-22.7199489216
31
0.0000000000
11
11.8443268187
21
-22.7274203071
31
0.0000000000
11
11.8758199634
21
-22.7398892170
31
0.0000000000
11
11.9061208270
21
-22.7574526722
31
0.0000000000
11
11.9345877214
21
-22.7800751524
31
0.0000000000
11
11.9606616015
21
-22.8077565494
31
0.0000000000
11
11.9835543795
21
-22.8402292625
31
0.0000000000
11
12.0024946082
21
-22.8770650426
31
0.0000000000
11
12.0167243232
21
-22.9175915359
31
0.0000000000
11
12.0255520821
21
-22.9607031601
31
0.0000000000
11
12.0285555669
21
-23.0053052339
31
0.0000000000
0
SPLINE
5
470
100
AcDbEntity
8
0
100
AcDbSpline
62
7
6
CONTINUOUS
70
0
71
3
72
11
73
7
74
5
42
0.0000001000
43
0.0000001000
44
0.0000000001
12
0.0000000000
22
0.0649382085
32
0.0000000000
13
0.0420122218
23
0.0494420004
33
0.0000000000
40
0.0000000000
40
0.0000000000
40
0.0000000000
40
0.0000000000
40
0.1050234638
40
0.3021860866
40
0.5981132932
40
1.0000000000
40
1.0000000000
40
1.0000000000
40
1.0000000000
10
5.3785555669
20
-23.5489680297
30
0.0000000000
10
5.3785555669
20
-23.5466946845
30
0.0000000000
10
5.3818104233
20
-23.5405991281
30
0.0000000000
10
5.3887961443
20
-23.5299800244
30
0.0000000000
10
5.4008205097
20
-23.5146190339
30
0.0000000000
10
5.4104667867
20
-23.5030343590
30
0.0000000000
10
5.4160948379
20
-23.4964109980
30
0.0000000000
11
5.3785555669
21
-23.5489680297
31
0.0000000000
11
5.3808511523
21
-23.5425459449
31
0.0000000000
11
5.3877810339
21
-23.5317800975
31
0.0000000000
11
5.3994456154
21
-23.5165082292
31
0.0000000000
11
5.4160948379
21
-23.4964109980
31
0.0000000000
0
SPLINE
5
471
100
AcDbEntity
8
0
100
AcDbSpline
62
7
6
CONTINUOUS
70
0
71
3
72
16
73
12
74
10
42
0.0000001000
43
0.0000001000
44
0.0000000001
12
0.3940237865
22
0.4637061161
32
0.0000000000
13
0.4199141259
23
0.4411394664
33
0.0000000000
40
0.0000000000
40
0.0000000000
40
0.0000000000
40
0.0000000000
40
0.0555057941
40
0.1248040123
40
0.2087952621
40
0.3080339199
40
0.4231630014
40
0.5535741923
40
0.6963838821
40
0.8468540534
40
1.0000000000
40
1.0000000000
40
1.0000000000
40
1.0000000000
10
5.4160948379
20
-23.4964109980
30
0.0000000000
10
5.4233850389
20
-23.4878315393
30
0.0000000000
10
5.4400506410
20
-23.4687237724
30
0.0000000000
10
5.4683422469
20
-23.4371684306
30
0.0000000000
10
5.5029418776
20
-23.3993332519
30
0.0000000000
10
5.5441229816
20
-23.3549160904
30
0.0000000000
10
5.5919662125
20
-23.3038241105
30
0.0000000000
10
5.6460582443
20
-23.2464667275
30
0.0000000000
10
5.7052245944
20
-23.1840330029
30
0.0000000000
10
5.7676646039
20
-23.1183431064
30
0.0000000000
10
5.8101622281
20
-23.0736974741
30
0.0000000000
10
5.8315982768
20
-23.0511779004
30
0.0000000000
11
5.4160948379
21
-23.4964109980
31
0.0000000000
11
5.4382573907
21
-23.4708840943
31
0.0000000000
11
5.4663987732
21
-23.4394298776
31
0.0000000000
11
5.5008917621
21
-23.4016544364
31
0.0000000000
11
5.5419636784
21
-23.3573131408
31
0.0000000000
11
5.5898737630
21
-23.3061153197
31
0.0000000000
11
5.6443535942
21
-23.2483189873
31
0.0000000000
11
5.7041702463
21
-23.1851764605
31
0.0000000000
11
5.7672981887
21
-23.1187442911
31
0.0000000000
11
5.8315982768
21
-23.0511779004
31
0.0000000000
0
SPLINE
5
472
100
AcDbEntity
8
0
100
AcDbSpline
62
7
6
CONTINUOUS
70
0
71
3
72
18
73
14
74
12
42
0.0000001000
43
0.0000001000
44
0.0000000001
12
0.0000000000
22
0.4220894472
32
0.0000000000
13
0.4220894472
23
0.0000000000
33
0.0000000000
40
0.0000000000
40
0.0000000000
40
0.0000000000
40
0.0000000000
40
0.1059090351
40
0.2101669191
40
0.3119275375
40
0.4100581264
40
0.5041875836
40
0.5942815516
40
0.6804273975
40
0.7634029300
40
0.8436506062
40
0.9223347281
40
1.0000000000
40
1.0000000000
40
1.0000000000
40
1.0000000000
10
9.1285555669
20
-23.0053052339
30
0.0000000000
10
9.1285555669
20
-22.9904042052
30
0.0000000000
10
9.1305413968
20
-22.9607953321
30
0.0000000000
10
9.1393453094
20
-22.9176710019
30
0.0000000000
10
9.1535272849
20
-22.8771542079
30
0.0000000000
10
9.1724584216
20
-22.8402251391
30
0.0000000000
10
9.1953777528
20
-22.8076176560
30
0.0000000000
10
9.2215078173
20
-22.7797948257
30
0.0000000000
10
9.2501283555
20
-22.7569842514
30
0.0000000000
10
9.2805708921
20
-22.7392875807
30
0.0000000000
10
9.3123234745
20
-22.7266810010
30
0.0000000000
10
9.3448715982
20
-22.7191439224
30
0.0000000000
10
9.3669053385
20
-22.7174698165
30
0.0000000000
10
9.3778325690
20
-22.7174698165
30
0.0000000000
11
9.1285555669
21
-23.0053052339
31
0.0000000000
11
9.1315590517
21
-22.9607031601
31
0.0000000000
11
9.1403868106
21
-22.9175915359
31
0.0000000000
11
9.1546165257
21
-22.8770650426
31
0.0000000000
11
9.1735567543
21
-22.8402292625
31
0.0000000000
11
9.1964495323
21
-22.8077565494
31
0.0000000000
11
9.2225234125
21
-22.7800751524
31
0.0000000000
11
9.2509903068
21
-22.7574526722
31
0.0000000000
11
9.2812911705
21
-22.7398892170
31
0.0000000000
11
9.3127843152
21
-22.7274203071
31
0.0000000000
11
9.3451447525
21
-22.7199489216
31
0.0000000000
11
9.3778325690
21
-22.7174698165
31
0.0000000000
0
SPLINE
5
473
100
AcDbEntity
8
0
100
AcDbSpline
62
9
6
CONTINUOUS
70
0
71
3
72
18
73
14
74
12
42
0.0000001000
43
0.0000001000
44
0.0000000001
12
0.0012300470
22
0.3662149009
32
0.0000000000
13
0.3662158046
23
0.0009225687
33
0.0000000000
40
0.0000000000
40
0.0000000000
40
0.0000000000
40
0.0000000000
40
0.0842351835
40
0.1691282730
40
0.2551195891
40
0.3426056523
40
0.4318362164
40
0.5229156189
40
0.6157961265
40
0.7102918552
40
0.8060988660
40
0.9028204681
40
1.0000000000
40
1.0000000000
40
1.0000000000
40
1.0000000000
10
9.1329274009
20
-23.4391576530
30
0.0000000000
10
9.1329619387
20
-23.4288749265
30
0.0000000000
10
9.1347403024
20
-23.4081953280
30
0.0000000000
10
9.1424648758
20
-23.3778909728
30
0.0000000000
10
9.1550860882
20
-23.3488412152
30
0.0000000000
10
9.1723317755
20
-23.3216564595
30
0.0000000000
10
9.1938389669
20
-23.2968816625
30
0.0000000000
10
9.2191615476
20
-23.2750123488
30
0.0000000000
10
9.2477814284
20
-23.2564814308
30
0.0000000000
10
9.2791174884
20
-23.2416545362
30
0.0000000000
10
9.3125393403
20
-23.2308236130
30
0.0000000000
10
9.3473679204
20
-23.2242017923
30
0.0000000000
10
9.3710602767
20
-23.2226811869
30
0.0000000000
10
9.3829231701
20
-23.2226513020
30
0.0000000000
11
9.1329274009
21
-23.4391576530
31
0.0000000000
11
9.1355625319
21
-23.4084220549
31
0.0000000000
11
9.1432148338
21
-23.3782892453
31
0.0000000000
11
9.1557290279
21
-23.3493910067
31
0.0000000000
11
9.1728524578
21
-23.3223119000
31
0.0000000000
11
9.1942371657
21
-23.2976030071
31
0.0000000000
11
9.2194495386
21
-23.2757654148
31
0.0000000000
11
9.2479780123
21
-23.2572422725
31
0.0000000000
11
9.2792438834
21
-23.2424093250
31
0.0000000000
11
9.3126129136
21
-23.2315674642
31
0.0000000000
11
9.3474078309
21
-23.2249366671
31
0.0000000000
11
9.3829231701
21
-23.2226513020
31
0.0000000000
0
SPLINE
5
474
100
AcDbEntity
8
0
100
AcDbSpline
62
7
6
CONTINUOUS
70
0
71
3
72
18
73
14
74
12
42
0.0000001000
43
0.0000001000
44
0.0000000001
12
0.0000000000
22
0.4220894472
32
0.0000000000
13
0.4220894472
23
-0.0000000000
33
0.0000000000
40
0.0000000000
40
0.0000000000
40
0.0000000000
40
0.0000000000
40
0.1059090351
40
0.2101669191
40
0.3119275375
40
0.4100581264
40
0.5041875836
40
0.5942815516
40
0.6804273975
40
0.7634029300
40
0.8436506062
40
0.9223347281
40
1.0000000000
40
1.0000000000
40
1.0000000000
40
1.0000000000
10
-8.2714444331
20
-23.0053052339
30
0.0000000000
10
-8.2714444331
20
-22.9904042052
30
0.0000000000
10
-8.2694586032
20
-22.9607953321
30
0.0000000000
10
-8.2606546906
20
-22.9176710019
30
0.0000000000
10
-8.2464727151
20
-22.8771542079
30
0.0000000000
10
-8.2275415784
20
-22.8402251391
30
0.0000000000
10
-8.2046222472
20
-22.8076176560
30
0.0000000000
10
-8.1784921827
20
-22.7797948257
30
0.0000000000
10
-8.1498716445
20
-22.7569842514
30
0.0000000000
10
-8.1194291079
20
-22.7392875807
30
0.0000000000
10
-8.0876765255
20
-22.7266810010
30
0.0000000000
10
-8.0551284018
20
-22.7191439224
30
0.0000000000
10
-8.0330946615
20
-22.7174698165
30
0.0000000000
10
-8.0221674310
20
-22.7174698165
30
0.0000000000
11
-8.2714444331
21
-23.0053052339
31
0.0000000000
11
-8.2684409483
21
-22.9607031601
31
0.0000000000
11
-8.2596131894
21
-22.9175915359
31
0.0000000000
11
-8.2453834743
21
-22.8770650426
31
0.0000000000
11
-8.2264432457
21
-22.8402292625
31
0.0000000000
11
-8.2035504677
21
-22.8077565494
31
0.0000000000
11
-8.1774765875
21
-22.7800751524
31
0.0000000000
11
-8.1490096932
21
-22.7574526722
31
0.0000000000
11
-8.1187088295
21
-22.7398892170
31
0.0000000000
11
-8.0872156848
21
-22.7274203071
31
0.0000000000
11
-8.0548552475
21
-22.7199489216
31
0.0000000000
11
-8.0221674310
21
-22.7174698165
31
0.0000000000
0
SPLINE
5
475
100
AcDbEntity
8
0
100
AcDbSpline
62
9
6
CONTINUOUS
70
0
71
3
72
18
73
14
74
12
42
0.0000001000
43
0.0000001000
44
0.0000000001
12
0.0012300469
22
0.3662148875
32
0.0000000000
13
0.3662157912
23
0.0009225687
33
0.0000000000
40
0.0000000000
40
0.0000000000
40
0.0000000000
40
0.0000000000
40
0.0842917733
40
0.1691857338
40
0.2551786798
40
0.3426611748
40
0.4318880673
40
0.5229629903
40
0.6158387450
40
0.7103295894
40
0.8061307215
40
0.9028472123
40
1.0000000000
40
1.0000000000
40
1.0000000000
40
1.0000000000
10
-8.2670725991
20
-23.4391576530
30
0.0000000000
10
-8.2670380381
20
-23.4288680189
30
0.0000000000
10
-8.2652579017
20
-23.4081813326
30
0.0000000000
10
-8.2575282273
20
-23.3778708327
30
0.0000000000
10
-8.2449039506
20
-23.3488225458
30
0.0000000000
10
-8.2276559241
20
-23.3216401167
30
0.0000000000
10
-8.2061475014
20
-23.2968683149
30
0.0000000000
10
-8.1808244574
20
-23.2750019861
30
0.0000000000
10
-8.1522048298
20
-23.2564738897
30
0.0000000000
10
-8.1208696778
20
-23.2416495522
30
0.0000000000
10
-8.0874491917
20
-23.2308207728
30
0.0000000000
10
-8.0526249041
20
-23.2242011304
30
0.0000000000
10
-8.0289364582
20
-23.2226811787
30
0.0000000000
10
-8.0170768299
20
-23.2226513020
30
0.0000000000
11
-8.2670725991
21
-23.4391576530
31
0.0000000000
11
-8.2644340030
21
-23.4084015529
31
0.0000000000
11
-8.2567783406
21
-23.3782692691
31
0.0000000000
11
-8.2442608147
21
-23.3493718243
31
0.0000000000
11
-8.2271353738
21
-23.3222955368
31
0.0000000000
11
-8.2057493631
21
-23.2975895515
31
0.0000000000
11
-8.1805365538
21
-23.2757549707
31
0.0000000000
11
-8.1520083243
21
-23.2572346510
31
0.0000000000
11
-8.1207432443
21
-23.2424042122
31
0.0000000000
11
-8.0873757611
21
-23.2315645614
31
0.0000000000
11
-8.0525824328
21
-23.2249354326
31
0.0000000000
11
-8.0170768299
21
-23.2226513020
31
0.0000000000
0
SPLINE
5
476
100
AcDbEntity
8
0
100
AcDbSpline
62
9
6
CONTINUOUS
70
0
71
3
72
18
73
14
74
12
42
0.0000001000
43
0.0000001000
44
0.0000000001
12
-0.0012300470
22
0.3662149009
32
0.0000000000
13
-0.3662158046
23
0.0009225687
33
0.0000000000
40
0.0000000000
40
0.0000000000
40
0.0000000000
40
0.0000000000
40
0.0842351835
40
0.1691282730
40
0.2551195891
40
0.3426056523
40
0.4318362164
40
0.5229156189
40
0.6157961265
40
0.7102918552
40
0.8060988660
40
0.9028204681
40
1.0000000000
40
1.0000000000
40
1.0000000000
40
1.0000000000
10
-5.3758162671
20
-23.4391576530
30
0.0000000000
10
-5.3758508048
20
-23.4288749265
30
0.0000000000
10
-5.3776291686
20
-23.4081953280
30
0.0000000000
10
-5.3853537420
20
-23.3778909728
30
0.0000000000
10
-5.3979749543
20
-23.3488412152
30
0.0000000000
10
-5.4152206417
20
-23.3216564595
30
0.0000000000
10
-5.4367278331
20
-23.2968816625
30
0.0000000000
10
-5.4620504138
20
-23.2750123488
30
0.0000000000
10
-5.4906702946
20
-23.2564814308
30
0.0000000000
10
-5.5220063545
20
-23.2416545362
30
0.0000000000
10
-5.5554282065
20
-23.2308236130
30
0.0000000000
10
-5.5902567865
20
-23.2242017923
30
0.0000000000
10
-5.6139491428
20
-23.2226811869
30
0.0000000000
10
-5.6258120363
20
-23.2226513020
30
0.0000000000
11
-5.3758162671
21
-23.4391576530
31
0.0000000000
11
-5.3784513981
21
-23.4084220549
31
0.0000000000
11
-5.3861037000
21
-23.3782892453
31
0.0000000000
11
-5.3986178940
21
-23.3493910067
31
0.0000000000
11
-5.4157413240
21
-23.3223119000
31
0.0000000000
11
-5.4371260318
21
-23.2976030071
31
0.0000000000
11
-5.4623384048
21
-23.2757654148
31
0.0000000000
11
-5.4908668785
21
-23.2572422725
31
0.0000000000
11
-5.5221327496
21
-23.2424093250
31
0.0000000000
11
-5.5555017798
21
-23.2315674642
31
0.0000000000
11
-5.5902966971
21
-23.2249366671
31
0.0000000000
11
-5.6258120363
21
-23.2226513020
31
0.0000000000
0
SPLINE
5
477
100
AcDbEntity
8
0
100
AcDbSpline
62
7
6
CONTINUOUS
70
0
71
3
72
18
73
14
74
12
42
0.0000001000
43
0.0000001000
44
0.0000000001
12
0.4220894472
22
0.0000000000
32
0.0000000000
13
-0.0000000000
23
-0.4220894472
33
0.0000000000
40
0.0000000000
40
0.0000000000
40
0.0000000000
40
0.0000000000
40
0.0776652719
40
0.1563493938
40
0.2365970700
40
0.3195726025
40
0.4057184484
40
0.4958124164
40
0.5899418736
40
0.6880724625
40
0.7898330809
40
0.8940909649
40
1.0000000000
40
1.0000000000
40
1.0000000000
40
1.0000000000
10
-5.6207214352
20
-22.7174698165
30
0.0000000000
10
-5.6097942046
20
-22.7174698165
30
0.0000000000
10
-5.5877604643
20
-22.7191439224
30
0.0000000000
10
-5.5552123407
20
-22.7266810010
30
0.0000000000
10
-5.5234597582
20
-22.7392875807
30
0.0000000000
10
-5.4930172217
20
-22.7569842514
30
0.0000000000
10
-5.4643966835
20
-22.7797948257
30
0.0000000000
10
-5.4382666189
20
-22.8076176560
30
0.0000000000
10
-5.4153472878
20
-22.8402251391
30
0.0000000000
10
-5.3964161510
20
-22.8771542079
30
0.0000000000
10
-5.3822341756
20
-22.9176710019
30
0.0000000000
10
-5.3734302630
20
-22.9607953321
30
0.0000000000
10
-5.3714444331
20
-22.9904042052
30
0.0000000000
10
-5.3714444331
20
-23.0053052339
30
0.0000000000
11
-5.6207214352
21
-22.7174698165
31
0.0000000000
11
-5.5880336187
21
-22.7199489216
31
0.0000000000
11
-5.5556731813
21
-22.7274203071
31
0.0000000000
11
-5.5241800366
21
-22.7398892170
31
0.0000000000
11
-5.4938791730
21
-22.7574526722
31
0.0000000000
11
-5.4654122786
21
-22.7800751524
31
0.0000000000
11
-5.4393383985
21
-22.8077565494
31
0.0000000000
11
-5.4164456205
21
-22.8402292625
31
0.0000000000
11
-5.3975053918
21
-22.8770650426
31
0.0000000000
11
-5.3832756768
21
-22.9175915359
31
0.0000000000
11
-5.3744479179
21
-22.9607031601
31
0.0000000000
11
-5.3714444331
21
-23.0053052339
31
0.0000000000
0
SPLINE
5
478
100
AcDbEntity
8
0
100
AcDbSpline
62
7
6
CONTINUOUS
70
0
71
3
72
20
73
16
74
14
42
0.0000001000
43
0.0000001000
44
0.0000000001
12
0.0000000000
22
-0.7849039878
32
0.0000000000
13
0.7849039878
23
0.0000000000
33
0.0000000000
40
0.0000000000
40
0.0000000000
40
0.0000000000
40
0.0000000000
40
0.0766711417
40
0.1537567778
40
0.2306436098
40
0.3073661863
40
0.3845607487
40
0.4616513950
40
0.5383075132
40
0.6154062635
40
0.6926006714
40
0.7693193439
40
0.8462196277
40
0.9233208052
40
1.0000000000
40
1.0000000000
40
1.0000000000
40
1.0000000000
10
-9.2631539087
20
-21.4890191789
30
0.0000000000
10
-9.2631539087
20
-21.5090790072
30
0.0000000000
10
-9.2607271665
20
-21.5493490118
30
0.0000000000
10
-9.2498391898
20
-21.6088461236
30
0.0000000000
10
-9.2318485121
20
-21.6666161758
30
0.0000000000
10
-9.2070246134
20
-21.7218239640
30
0.0000000000
10
-9.1756952407
20
-21.7736834220
30
0.0000000000
10
-9.1383376276
20
-21.8213610548
30
0.0000000000
10
-9.0955279091
20
-21.8641721711
30
0.0000000000
10
-9.0478496262
20
-21.9015323848
30
0.0000000000
10
-8.9959900095
20
-21.9328635273
30
0.0000000000
10
-8.9407807812
20
-21.9576901490
30
0.0000000000
10
-8.8830049386
20
-21.9756845020
30
0.0000000000
10
-8.8234983756
20
-21.9865750411
30
0.0000000000
10
-8.7832221900
20
-21.9890022558
30
0.0000000000
10
-8.7631602548
20
-21.9890022558
30
0.0000000000
11
-9.2631539087
21
-21.4890191789
31
0.0000000000
11
-9.2595323014
21
-21.5490895906
31
0.0000000000
11
-9.2486420122
21
-21.6086062709
31
0.0000000000
11
-9.2306977398
21
-21.6662255251
31
0.0000000000
11
-9.2060020164
21
-21.7211486744
31
0.0000000000
11
-9.1746714603
21
-21.7730098653
31
0.0000000000
11
-9.1373518064
21
-21.8206391940
31
0.0000000000
11
-9.0948075234
21
-21.8631848782
31
0.0000000000
11
-9.0471742135
21
-21.9005097642
31
0.0000000000
11
-8.9953138768
21
-21.9318414996
31
0.0000000000
11
-8.9403942997
21
-21.9565376956
31
0.0000000000
11
-8.8827654975
21
-21.9744868184
31
0.0000000000
11
-8.8232369667
21
-21.9853801165
31
0.0000000000
11
-8.7631602548
21
-21.9890022558
31
0.0000000000
0
SPLINE
5
479
100
AcDbEntity
8
0
100
AcDbSpline
62
7
6
CONTINUOUS
70
0
71
3
72
20
73
16
74
14
42
0.0000001000
43
0.0000001000
44
0.0000000001
12
-0.7849039878
22
0.0000000000
32
0.0000000000
13
-0.0000000000
23
-0.7849039878
33
0.0000000000
40
0.0000000000
40
0.0000000000
40
0.0000000000
40
0.0000000000
40
0.0766791948
40
0.1537803723
40
0.2306806561
40
0.3073993286
40
0.3845937365
40
0.4616924868
40
0.5383486050
40
0.6154392513
40
0.6926338137
40
0.7693563902
40
0.8462432222
40
0.9233288583
40
1.0000000000
40
1.0000000000
40
1.0000000000
40
1.0000000000
10
-8.7631602548
20
22.7993620845
30
0.0000000000
10
-8.7832221900
20
22.7993620845
30
0.0000000000
10
-8.8234983756
20
22.7969348698
30
0.0000000000
10
-8.8830049386
20
22.7860443307
30
0.0000000000
10
-8.9407807812
20
22.7680499777
30
0.0000000000
10
-8.9959900095
20
22.7432233560
30
0.0000000000
10
-9.0478496262
20
22.7118922134
30
0.0000000000
10
-9.0955279091
20
22.6745319998
30
0.0000000000
10
-9.1383376276
20
22.6317208835
30
0.0000000000
10
-9.1756952407
20
22.5840432507
30
0.0000000000
10
-9.2070246134
20
22.5321837926
30
0.0000000000
10
-9.2318485121
20
22.4769760045
30
0.0000000000
10
-9.2498391898
20
22.4192059523
30
0.0000000000
10
-9.2607271665
20
22.3597088405
30
0.0000000000
10
-9.2631539087
20
22.3194388359
30
0.0000000000
10
-9.2631539087
20
22.2993790076
30
0.0000000000
11
-8.7631602548
21
22.7993620845
31
0.0000000000
11
-8.8232369667
21
22.7957399452
31
0.0000000000
11
-8.8827654975
21
22.7848466471
31
0.0000000000
11
-8.9403942997
21
22.7668975243
31
0.0000000000
11
-8.9953138768
21
22.7422013283
31
0.0000000000
11
-9.0471742135
21
22.7108695929
31
0.0000000000
11
-9.0948075234
21
22.6735447069
31
0.0000000000
11
-9.1373518064
21
22.6309990227
31
0.0000000000
11
-9.1746714603
21
22.5833696940
31
0.0000000000
11
-9.2060020164
21
22.5315085031
31
0.0000000000
11
-9.2306977398
21
22.4765853538
31
0.0000000000
11
-9.2486420122
21
22.4189660995
31
0.0000000000
11
-9.2595323014
21
22.3594494192
31
0.0000000000
11
-9.2631539087
21
22.2993790076
31
0.0000000000
0
SPLINE
5
47A
100
AcDbEntity
8
0
100
AcDbSpline
62
7
6
CONTINUOUS
70
0
71
3
72
11
73
7
74
5
42
0.0000001000
43
0.0000001000
44
0.0000000001
12
-0.0173612672
22
7.2762694626
32
0.0000000000
13
-0.0067804439
23
7.2762870155
33
0.0000000000
40
0.0000000000
40
0.0000000000
40
0.0000000000
40
0.0000000000
40
0.2492042744
40
0.4990139970
40
0.7493134831
40
1.0000000000
40
1.0000000000
40
1.0000000000
40
1.0000000000
10
11.4027106970
20
-19.3843673239
30
0.0000000000
10
11.4012685297
20
-18.7799415067
30
0.0000000000
10
11.3986029351
20
-17.5696208624
30
0.0000000000
10
11.3952633626
20
-15.7522164470
30
0.0000000000
10
11.3925786849
20
-13.9312158669
30
0.0000000000
10
11.3912271426
20
-12.7161100770
30
0.0000000000
10
11.3906605540
20
-12.1080877278
30
0.0000000000
11
11.4027106970
21
-19.3843673239
31
0.0000000000
11
11.3987162934
21
-17.5710891104
31
0.0000000000
11
11.3953754871
21
-15.7534041500
31
0.0000000000
11
11.3926898669
21
-13.9321544386
31
0.0000000000
11
11.3906605540
21
-12.1080877278
31
0.0000000000
0
SPLINE
5
47B
100
AcDbEntity
8
0
100
AcDbSpline
62
7
6
CONTINUOUS
70
0
71
3
72
20
73
16
74
14
42
0.0000001000
43
0.0000001000
44
0.0000000001
12
0.7849039878
22
0.0000000000
32
0.0000000000
13
0.0000000000
23
0.7849039878
33
0.0000000000
40
0.0000000000
40
0.0000000000
40
0.0000000000
40
0.0000000000
40
0.0766791948
40
0.1537803723
40
0.2306806561
40
0.3073993286
40
0.3845937365
40
0.4616924868
40
0.5383486050
40
0.6154392513
40
0.6926338137
40
0.7693563902
40
0.8462432222
40
0.9233288583
40
1.0000000000
40
1.0000000000
40
1.0000000000
40
1.0000000000
10
12.5202713886
20
-21.9890022558
30
0.0000000000
10
12.5403333239
20
-21.9890022558
30
0.0000000000
10
12.5806095094
20
-21.9865750411
30
0.0000000000
10
12.6401160724
20
-21.9756845020
30
0.0000000000
10
12.6978919151
20
-21.9576901490
30
0.0000000000
10
12.7531011433
20
-21.9328635273
30
0.0000000000
10
12.8049607600
20
-21.9015323848
30
0.0000000000
10
12.8526390429
20
-21.8641721711
30
0.0000000000
10
12.8954487615
20
-21.8213610548
30
0.0000000000
10
12.9328063745
20
-21.7736834220
30
0.0000000000
10
12.9641357473
20
-21.7218239640
30
0.0000000000
10
12.9889596459
20
-21.6666161758
30
0.0000000000
10
13.0069503236
20
-21.6088461236
30
0.0000000000
10
13.0178383004
20
-21.5493490118
30
0.0000000000
10
13.0202650425
20
-21.5090790072
30
0.0000000000
10
13.0202650425
20
-21.4890191789
30
0.0000000000
11
12.5202713886
21
-21.9890022558
31
0.0000000000
11
12.5803481006
21
-21.9853801165
31
0.0000000000
11
12.6398766313
21
-21.9744868184
31
0.0000000000
11
12.6975054335
21
-21.9565376956
31
0.0000000000
11
12.7524250106
21
-21.9318414996
31
0.0000000000
11
12.8042853473
21
-21.9005097642
31
0.0000000000
11
12.8519186572
21
-21.8631848782
31
0.0000000000
11
12.8944629402
21
-21.8206391940
31
0.0000000000
11
12.9317825941
21
-21.7730098653
31
0.0000000000
11
12.9631131502
21
-21.7211486744
31
0.0000000000
11
12.9878088737
21
-21.6662255251
31
0.0000000000
11
13.0057531461
21
-21.6086062709
31
0.0000000000
11
13.0166434353
21
-21.5490895906
31
0.0000000000
11
13.0202650425
21
-21.4890191789
31
0.0000000000
0
SPLINE
5
47C
100
AcDbEntity
8
0
100
AcDbSpline
62
7
6
CONTINUOUS
70
0
71
3
72
20
73
16
74
14
42
0.0000001000
43
0.0000001000
44
0.0000000001
12
0.0000000000
22
0.7849039878
32
0.0000000000
13
-0.7849039878
23
-0.0000000000
33
0.0000000000
40
0.0000000000
40
0.0000000000
40
0.0000000000
40
0.0000000000
40
0.0766711417
40
0.1537567778
40
0.2306436098
40
0.3073661863
40
0.3845607487
40
0.4616513950
40
0.5383075132
40
0.6154062635
40
0.6926006714
40
0.7693193439
40
0.8462196277
40
0.9233208052
40
1.0000000000
40
1.0000000000
40
1.0000000000
40
1.0000000000
10
13.0202650425
20
22.2993790076
30
0.0000000000
10
13.0202650425
20
22.3194388359
30
0.0000000000
10
13.0178383004
20
22.3597088405
30
0.0000000000
10
13.0069503236
20
22.4192059523
30
0.0000000000
10
12.9889596459
20
22.4769760045
30
0.0000000000
10
12.9641357473
20
22.5321837926
30
0.0000000000
10
12.9328063745
20
22.5840432507
30
0.0000000000
10
12.8954487615
20
22.6317208835
30
0.0000000000
10
12.8526390429
20
22.6745319998
30
0.0000000000
10
12.8049607600
20
22.7118922134
30
0.0000000000
10
12.7531011433
20
22.7432233560
30
0.0000000000
10
12.6978919151
20
22.7680499777
30
0.0000000000
10
12.6401160724
20
22.7860443307
30
0.0000000000
10
12.5806095094
20
22.7969348698
30
0.0000000000
10
12.5403333239
20
22.7993620845
30
0.0000000000
10
12.5202713886
20
22.7993620845
30
0.0000000000
11
13.0202650425
21
22.2993790076
31
0.0000000000
11
13.0166434353
21
22.3594494192
31
0.0000000000
11
13.0057531461
21
22.4189660995
31
0.0000000000
11
12.9878088737
21
22.4765853538
31
0.0000000000
11
12.9631131502
21
22.5315085031
31
0.0000000000
11
12.9317825941
21
22.5833696940
31
0.0000000000
11
12.8944629402
21
22.6309990227
31
0.0000000000
11
12.8519186572
21
22.6735447069
31
0.0000000000
11
12.8042853473
21
22.7108695929
31
0.0000000000
11
12.7524250106
21
22.7422013283
31
0.0000000000
11
12.6975054335
21
22.7668975243
31
0.0000000000
11
12.6398766313
21
22.7848466471
31
0.0000000000
11
12.5803481006
21
22.7957399452
31
0.0000000000
11
12.5202713886
21
22.7993620845
31
0.0000000000
0
SPLINE
5
47D
100
AcDbEntity
8
0
100
AcDbSpline
62
7
6
CONTINUOUS
70
0
71
3
72
11
73
7
74
5
42
0.0000001000
43
0.0000001000
44
0.0000000001
12
0.0173612672
22
7.2762694626
32
0.0000000000
13
0.0067804439
23
7.2762870155
33
0.0000000000
40
0.0000000000
40
0.0000000000
40
0.0000000000
40
0.0000000000
40
0.2492042744
40
0.4990139970
40
0.7493134831
40
1.0000000000
40
1.0000000000
40
1.0000000000
40
1.0000000000
10
-7.6455995632
20
-19.3843673239
30
0.0000000000
10
-7.6441573959
20
-18.7799415067
30
0.0000000000
10
-7.6414918013
20
-17.5696208624
30
0.0000000000
10
-7.6381522288
20
-15.7522164470
30
0.0000000000
10
-7.6354675511
20
-13.9312158669
30
0.0000000000
10
-7.6341160088
20
-12.7161100770
30
0.0000000000
10
-7.6335494201
20
-12.1080877278
30
0.0000000000
11
-7.6455995632
21
-19.3843673239
31
0.0000000000
11
-7.6416051596
21
-17.5710891104
31
0.0000000000
11
-7.6382643533
21
-15.7534041500
31
0.0000000000
11
-7.6355787331
21
-13.9321544386
31
0.0000000000
11
-7.6335494201
21
-12.1080877278
31
0.0000000000
0
SPLINE
5
47E
100
AcDbEntity
8
0
100
AcDbSpline
62
7
6
CONTINUOUS
70
0
71
3
72
13
73
9
74
7
42
0.0000001000
43
0.0000001000
44
0.0000000001
12
0.9168257723
22
0.0000000000
32
0.0000000000
13
0.0198448393
23
0.9166109748
33
0.0000000000
40
0.0000000000
40
0.0000000000
40
0.0000000000
40
0.0000000000
40
0.0555024500
40
0.1597912220
40
0.3140359924
40
0.5130520844
40
0.7490409209
40
1.0000000000
40
1.0000000000
40
1.0000000000
40
1.0000000000
10
5.5575758956
20
15.1051799143
30
0.0000000000
10
5.5745379211
20
15.1051799143
30
0.0000000000
10
5.6148196932
20
15.1458700126
30
0.0000000000
10
5.6457071676
20
15.2338159581
30
0.0000000000
10
5.6802436488
20
15.3709772290
30
0.0000000000
10
5.7058530764
20
15.5489044310
30
0.0000000000
10
5.7247449230
20
15.7579237577
30
0.0000000000
10
5.7309284809
20
15.9066332889
30
0.0000000000
10
5.7325885617
20
15.9833105709
30
0.0000000000
11
5.5575758956
21
15.1051799143
31
0.0000000000
11
5.5995574089
21
15.1339365714
31
0.0000000000
11
5.6398313481
21
15.2206554739
31
0.0000000000
11
5.6747077403
21
15.3577029246
31
0.0000000000
11
5.7027966321
21
15.5379910011
31
0.0000000000
11
5.7226352026
21
15.7534402081
31
0.0000000000
11
5.7325885617
21
15.9833105709
31
0.0000000000
0
SPLINE
5
47F
100
AcDbEntity
8
0
100
AcDbSpline
62
7
6
CONTINUOUS
70
0
71
3
72
12
73
8
74
6
42
0.0000001000
43
0.0000001000
44
0.0000000001
12
0.0000000000
22
-0.4998745945
32
0.0000000000
13
-0.2234962207
23
-0.4471286722
33
0.0000000000
40
0.0000000000
40
0.0000000000
40
0.0000000000
40
0.0000000000
40
0.3011930858
40
0.5766613403
40
0.7964305027
40
0.9429204673
40
1.0000000000
40
1.0000000000
40
1.0000000000
40
1.0000000000
10
11.4831723981
20
20.1880243017
30
0.0000000000
10
11.4831723981
20
20.1378380445
30
0.0000000000
10
11.4831686100
20
20.0416670631
30
0.0000000000
10
11.4811326918
20
19.9092962925
30
0.0000000000
10
11.4819455137
20
19.8015189910
30
0.0000000000
10
11.4750567320
20
19.7327259715
30
0.0000000000
10
11.4790018054
20
19.6968361868
30
0.0000000000
10
11.4747494521
20
19.6883288882
30
0.0000000000
11
11.4831723981
21
20.1880243017
31
0.0000000000
11
11.4827673304
21
20.0374660750
31
0.0000000000
11
11.4815760748
21
19.8997716460
31
0.0000000000
11
11.4797254511
21
19.7899302137
31
0.0000000000
11
11.4773600610
21
19.7167418158
31
0.0000000000
11
11.4747494521
21
19.6883288882
31
0.0000000000
0
SPLINE
5
480
100
AcDbEntity
8
0
100
AcDbSpline
62
7
6
CONTINUOUS
70
0
71
3
72
20
73
16
74
14
42
0.0000001000
43
0.0000001000
44
0.0000000001
12
0.4645166834
22
-0.4879965431
32
0.0000000000
13
0.0392566728
23
-0.6725884989
33
0.0000000000
40
0.0000000000
40
0.0000000000
40
0.0000000000
40
0.0000000000
40
0.1376924970
40
0.2732041083
40
0.4019552266
40
0.5195374983
40
0.6233985078
40
0.7130440951
40
0.7890379647
40
0.8518561666
40
0.9022776034
40
0.9412923958
40
0.9701171226
40
0.9894788456
40
1.0000000000
40
1.0000000000
40
1.0000000000
40
1.0000000000
10
5.8315982768
20
-23.0511779004
30
0.0000000000
10
5.8529184309
20
-23.0735757212
30
0.0000000000
10
5.8952211095
20
-23.1180165575
30
0.0000000000
10
5.9574132485
20
-23.1834447341
30
0.0000000000
10
6.0164011341
20
-23.2456875708
30
0.0000000000
10
6.0703620981
20
-23.3029011116
30
0.0000000000
10
6.1181195261
20
-23.3538934618
30
0.0000000000
10
6.1592747014
20
-23.3982705261
30
0.0000000000
10
6.1939091660
20
-23.4361269187
30
0.0000000000
10
6.2222866324
20
-23.4677542313
30
0.0000000000
10
6.2447891953
20
-23.4935243710
30
0.0000000000
10
6.2617805784
20
-23.5138826819
30
0.0000000000
10
6.2739438282
20
-23.5293703694
30
0.0000000000
10
6.2811481661
20
-23.5401855747
30
0.0000000000
10
6.2844956447
20
-23.5463535562
30
0.0000000000
10
6.2846333199
20
-23.5487123587
30
0.0000000000
11
5.8315982768
21
-23.0511779004
31
0.0000000000
11
5.8955508115
21
-23.1183789080
31
0.0000000000
11
5.9584423863
21
-23.1845612042
31
0.0000000000
11
6.0181000893
21
-23.2475331213
31
0.0000000000
11
6.0724407007
21
-23.3051765072
31
0.0000000000
11
6.1202567989
21
-23.3562653151
31
0.0000000000
11
6.1613056927
21
-23.4005689346
31
0.0000000000
11
6.1958383343
21
-23.4383696581
31
0.0000000000
11
6.2240702325
21
-23.4699001411
31
0.0000000000
11
6.2463579693
21
-23.4955371856
31
0.0000000000
11
6.2631505938
21
-23.5157594110
31
0.0000000000
11
6.2749746265
21
-23.5311651056
31
0.0000000000
11
6.2820988665
21
-23.5420924887
31
0.0000000000
11
6.2846333199
21
-23.5487123587
31
0.0000000000
0
SPLINE
5
481
100
AcDbEntity
8
0
100
AcDbSpline
62
7
6
CONTINUOUS
70
0
71
3
72
20
73
16
74
14
42
0.0000001000
43
0.0000001000
44
0.0000000001
12
0.4646868985
22
-0.4881753620
32
0.0000000000
13
0.0000000000
23
-0.6739800425
33
0.0000000000
40
0.0000000000
40
0.0000000000
40
0.0000000000
40
0.0000000000
40
0.1383453987
40
0.2743387740
40
0.4034314658
40
0.5212850016
40
0.6253097961
40
0.7149830465
40
0.7908869774
40
0.8535154546
40
0.9036785302
40
0.9423973740
40
0.9709008363
40
0.9898871653
40
1.0000000000
40
1.0000000000
40
1.0000000000
40
1.0000000000
10
-2.0744871430
20
-23.0511779004
30
0.0000000000
10
-2.0530580449
20
-23.0736901721
30
0.0000000000
10
-2.0105641085
20
-23.1183319306
30
0.0000000000
10
-1.9481211433
20
-23.1840248965
30
0.0000000000
10
-1.8889437583
20
-23.2464702499
30
0.0000000000
10
-1.8348457860
20
-23.3038339930
30
0.0000000000
10
-1.7870037914
20
-23.3549247424
30
0.0000000000
10
-1.7458242530
20
-23.3993402915
30
0.0000000000
10
-1.7112233541
20
-23.4371769644
30
0.0000000000
10
-1.6829291917
20
-23.4687353676
30
0.0000000000
10
-1.6605404119
20
-23.4944054327
30
0.0000000000
10
-1.6436992289
20
-23.5146315034
30
0.0000000000
10
-1.6316786717
20
-23.5299888763
30
0.0000000000
10
-1.6246964464
20
-23.5406036785
30
0.0000000000
10
-1.6214444331
20
-23.5466960802
30
0.0000000000
10
-1.6214444331
20
-23.5489680297
30
0.0000000000
11
-2.0744871430
21
-23.0511779004
31
0.0000000000
11
-2.0102078991
21
-23.1187223775
31
0.0000000000
11
-1.9470701579
21
-23.1851648222
31
0.0000000000
11
-1.8872336790
21
-23.2483282772
31
0.0000000000
11
-1.8327504072
21
-23.3061283284
31
0.0000000000
11
-1.7848456860
21
-23.3573205044
31
0.0000000000
11
-1.7437755130
21
-23.4016599952
31
0.0000000000
11
-1.7092801874
21
-23.4394381148
31
0.0000000000
11
-1.6811357082
21
-23.4708960455
31
0.0000000000
11
-1.6589710684
21
-23.4964258567
31
0.0000000000
11
-1.6423235895
21
-23.5165218381
31
0.0000000000
11
-1.6306633827
21
-23.5317892235
31
0.0000000000
11
-1.6237380162
21
-23.5425496756
31
0.0000000000
11
-1.6214444331
21
-23.5489680297
31
0.0000000000
0
SPLINE
5
482
100
AcDbEntity
8
0
100
AcDbSpline
62
7
6
CONTINUOUS
70
0
71
3
72
20
73
16
74
14
42
0.0000001000
43
0.0000001000
44
0.0000000001
12
0.0392566707
22
0.6725884623
32
0.0000000000
13
0.4645166581
23
0.4879965165
33
0.0000000000
40
0.0000000000
40
0.0000000000
40
0.0000000000
40
0.0000000000
40
0.0105272862
40
0.0298989129
40
0.0587327465
40
0.0977498622
40
0.1481655874
40
0.2109758150
40
0.2869640673
40
0.3766131765
40
0.4804862274
40
0.5980619866
40
0.7267707712
40
0.8622612818
40
1.0000000000
40
1.0000000000
40
1.0000000000
40
1.0000000000
10
-2.5275221860
20
-23.5487123587
30
0.0000000000
10
-2.5273844306
20
-23.5463521816
30
0.0000000000
10
-2.5240342788
20
-23.5401811913
30
0.0000000000
10
-2.5168264863
20
-23.5293617703
30
0.0000000000
10
-2.5046596632
20
-23.5138706933
30
0.0000000000
10
-2.4876671551
20
-23.4935116839
30
0.0000000000
10
-2.4651660658
20
-23.4677436424
30
0.0000000000
10
-2.4367914075
20
-23.4361196407
30
0.0000000000
10
-2.4021584294
20
-23.3982649560
30
0.0000000000
10
-2.3610017089
20
-23.3538862834
30
0.0000000000
10
-2.3132428556
20
-23.3028924883
30
0.0000000000
10
-2.2592875385
20
-23.2456849894
30
0.0000000000
10
-2.2003104707
20
-23.1834535492
30
0.0000000000
10
-2.1381210188
20
-23.1180281586
30
0.0000000000
10
-2.0958144527
20
-23.0735832386
30
0.0000000000
10
-2.0744871430
20
-23.0511779004
30
0.0000000000
11
-2.5275221860
21
-23.5487123587
31
0.0000000000
11
-2.5249857217
21
-23.5420888354
31
0.0000000000
11
-2.5178571599
21
-23.5311563054
31
0.0000000000
11
-2.5060288309
21
-23.5157461754
31
0.0000000000
11
-2.4892348136
21
-23.4955230739
31
0.0000000000
11
-2.4669493734
21
-23.4698891341
31
0.0000000000
11
-2.4387209506
21
-23.4383627539
31
0.0000000000
11
-2.4041908166
21
-23.4005648695
31
0.0000000000
11
-2.3631402835
21
-23.3562595386
31
0.0000000000
11
-2.3153186078
21
-23.3051648443
31
0.0000000000
11
-2.2609809786
21
-23.2475246830
31
0.0000000000
11
-2.2013428964
21
-23.1845734728
31
0.0000000000
11
-2.1384611367
21
-23.1184014677
31
0.0000000000
11
-2.0744871430
21
-23.0511779004
31
0.0000000000
0
SPLINE
5
483
100
AcDbEntity
8
0
100
AcDbSpline
62
7
6
CONTINUOUS
70
0
71
3
72
11
73
7
74
5
42
0.0000001000
43
0.0000001000
44
0.0000000001
12
0.0000000000
22
-0.1969716372
32
0.0000000000
13
0.0097367062
23
-0.1967308375
33
0.0000000000
40
0.0000000000
40
0.0000000000
40
0.0000000000
40
0.0000000000
40
0.3457172472
40
0.6517570504
40
0.8794155382
40
1.0000000000
40
1.0000000000
40
1.0000000000
40
1.0000000000
10
9.0825600212
20
20.2729998406
30
0.0000000000
10
9.0825600212
20
20.2503010098
30
0.0000000000
10
9.0826335879
20
20.2075091337
30
0.0000000000
10
9.0828586818
20
20.1497670209
30
0.0000000000
10
9.0833553379
20
20.1068163522
30
0.0000000000
10
9.0836109487
20
20.0839458507
30
0.0000000000
10
9.0840023138
20
20.0760382900
30
0.0000000000
11
9.0825600212
21
20.2729998406
31
0.0000000000
11
9.0826643055
21
20.2049034282
31
0.0000000000
11
9.0829670394
21
20.1446230273
31
0.0000000000
11
9.0834328830
21
20.0997831820
31
0.0000000000
11
9.0840023138
21
20.0760382900
31
0.0000000000
0
SPLINE
5
484
100
AcDbEntity
8
0
100
AcDbSpline
62
7
6
CONTINUOUS
70
0
71
3
72
11
73
7
74
5
42
0.0000001000
43
0.0000001000
44
0.0000000001
12
0.0097367062
22
0.1967308375
32
0.0000000000
13
0.0000000000
23
0.1969716372
33
0.0000000000
40
0.0000000000
40
0.0000000000
40
0.0000000000
40
0.0000000000
40
0.1205844618
40
0.3482429496
40
0.6542827528
40
1.0000000000
40
1.0000000000
40
1.0000000000
40
1.0000000000
10
8.4731088200
20
20.0760382900
30
0.0000000000
10
8.4735001852
20
20.0839458507
30
0.0000000000
10
8.4737557960
20
20.1068163522
30
0.0000000000
10
8.4742524520
20
20.1497670209
30
0.0000000000
10
8.4744775459
20
20.2075091337
30
0.0000000000
10
8.4745511126
20
20.2503010098
30
0.0000000000
10
8.4745511126
20
20.2729998406
30
0.0000000000
11
8.4731088200
21
20.0760382900
31
0.0000000000
11
8.4736782508
21
20.0997831820
31
0.0000000000
11
8.4741440945
21
20.1446230273
31
0.0000000000
11
8.4744468283
21
20.2049034282
31
0.0000000000
11
8.4745511126
21
20.2729998406
31
0.0000000000
0
SPLINE
5
485
100
AcDbEntity
8
0
100
AcDbSpline
62
7
6
CONTINUOUS
70
0
71
3
72
11
73
7
74
5
42
0.0000001000
43
0.0000001000
44
0.0000000001
12
0.0000000000
22
-0.2000111798
32
0.0000000000
13
-0.1414292616
23
-0.1414292616
33
0.0000000000
40
0.0000000000
40
0.0000000000
40
0.0000000000
40
0.0000000000
40
0.3791283316
40
0.7029900008
40
0.9211892880
40
1.0000000000
40
1.0000000000
40
1.0000000000
40
1.0000000000
10
8.4745511126
20
20.6994377022
30
0.0000000000
10
8.4745511126
20
20.6741610672
30
0.0000000000
10
8.4735231975
20
20.6277371921
30
0.0000000000
10
8.4765842756
20
20.5647431902
30
0.0000000000
10
8.4693793722
20
20.5265066192
30
0.0000000000
10
8.4765363504
20
20.5031606978
30
0.0000000000
10
8.4728209701
20
20.4994453175
30
0.0000000000
11
8.4745511126
21
20.6994377022
31
0.0000000000
11
8.4744207954
21
20.6236079092
31
0.0000000000
11
8.4740469907
21
20.5588330333
31
0.0000000000
11
8.4734847763
21
20.5151943579
31
0.0000000000
11
8.4728209701
21
20.4994453175
31
0.0000000000
0
SPLINE
5
486
100
AcDbEntity
8
0
100
AcDbSpline
62
7
6
CONTINUOUS
70
0
71
3
72
12
73
8
74
6
42
0.0000001000
43
0.0000001000
44
0.0000000001
12
-0.1211613714
22
0.4848301158
32
0.0000000000
13
0.0000000000
23
0.4997402517
33
0.0000000000
40
0.0000000000
40
0.0000000000
40
0.0000000000
40
0.0000000000
40
0.0569109999
40
0.2033764823
40
0.4231778419
40
0.6987148345
40
1.0000000000
40
1.0000000000
40
1.0000000000
40
1.0000000000
10
9.2054565754
20
19.6883288882
30
0.0000000000
10
9.2031581038
20
19.6975262771
30
0.0000000000
10
9.2055170959
20
19.7319691030
30
0.0000000000
10
9.2017386129
20
19.8019633943
30
0.0000000000
10
9.2023133838
20
19.9091188283
30
0.0000000000
10
9.2012307392
20
20.0417248107
30
0.0000000000
10
9.2012454232
20
20.1378361936
30
0.0000000000
10
9.2012454232
20
20.1880243017
30
0.0000000000
11
9.2054565754
21
19.6883288882
31
0.0000000000
11
9.2041514239
21
19.7167396430
31
0.0000000000
11
9.2029688277
21
19.7899247859
31
0.0000000000
11
9.2020435682
21
19.8997644756
31
0.0000000000
11
9.2014479580
21
20.0374601135
31
0.0000000000
11
9.2012454232
21
20.1880243017
31
0.0000000000
0
SPLINE
5
487
100
AcDbEntity
8
0
100
AcDbSpline
62
7
6
CONTINUOUS
70
0
71
3
72
11
73
7
74
5
42
0.0000001000
43
0.0000001000
44
0.0000000001
12
-0.1414292616
22
0.1414292616
32
0.0000000000
13
0.0000000000
23
0.2000111798
33
0.0000000000
40
0.0000000000
40
0.0000000000
40
0.0000000000
40
0.0000000000
40
0.0788107120
40
0.2970099992
40
0.6208716684
40
1.0000000000
40
1.0000000000
40
1.0000000000
40
1.0000000000
10
-4.7157098363
20
20.4994453175
30
0.0000000000
10
-4.7194252166
20
20.5031606978
30
0.0000000000
10
-4.7122682384
20
20.5265066192
30
0.0000000000
10
-4.7194731418
20
20.5647431902
30
0.0000000000
10
-4.7164120636
20
20.6277371921
30
0.0000000000
10
-4.7174399788
20
20.6741610672
30
0.0000000000
10
-4.7174399788
20
20.6994377022
30
0.0000000000
11
-4.7157098363
21
20.4994453175
31
0.0000000000
11
-4.7163736425
21
20.5151943579
31
0.0000000000
11
-4.7169358569
21
20.5588330333
31
0.0000000000
11
-4.7173096616
21
20.6236079092
31
0.0000000000
11
-4.7174399788
21
20.6994377022
31
0.0000000000
0
ENDSEC
0
SECTION
2
OBJECTS
0
DICTIONARY
5
488
100
AcDbDictionary
3
ACAD_GROUP
350
489
3
ACAD_MLINESTYLE
350
48A
0
DICTIONARY
5
489
102
{ACAD_REACTORS
330
488
102
}
100
AcDbDictionary
0
DICTIONARY
5
48A
102
{ACAD_REACTORS
330
488
102
}
100
AcDbDictionary
3
STANDARD
350
48B
0
MLINESTYLE
5
48B
102
{ACAD_REACTORS
330
48A
102
}
100
AcDbMlineStyle
2
STANDARD
70
0
3

62
256
51
90.0
52
90.0
71
2
49
0.5
62
256
6
BYLAYER
49
-0.5
62
256
6
BYLAYER
0
ENDSEC
0
EOF
