  0
SECTION
  2
HEADER
  9
$ACADVER
  1
AC1015
  9
$DWGCODEPAGE
  3
ANSI_1252
  9
$EXTMAX
 10
297.0
 20
210.0
 30
0.0
  9
$EXTMIN
 10
0.0
 20
0.0
 30
0.0
  9
$LIMMIN
 10
0.0
 20
0.0
  9
$LIMMAX
 10
297.0
 20
210.0
  9
$VIEWCTR
 10
148.5
 20
105.0
  9
$VIEWSIZE
 40
210.0
  9
$CLAYER
  8
0
  9
$LTSCALE
 40
16.335
  9
$CELTYPE
  6
BYLAYER
  9
$DIMSCALE
 40
1.0
  9
$DIMASZ
 40
3.0
  9
$DIMEXO
 40
1.85625
  9
$DIMDLI
 40
11.286
  9
$DIMEXE
 40
5.346
  9
$DIMCEN
 40
2.673
  9
$DIMLFAC
 40
1.0
  9
$DIMBLK
  1
_FILLED
  9
$DIMTXT
 40
3.0
  9
$DIMTOL
 70
1
  9
$DIMLIM
 70
0
  9
$DIMTFAC
 40
1.0
  9
$DIMTP
 40
0.01
  9
$DIMTM
 40
0.01
  9
$PDMODE
 70
3
  9
$PDSIZE
 40
3.0
  9
$HANDSEED
  5
639
  9
$TILEMODE
 70
1
  9
$MEASUREMENT
 70
1
  9
$INSUNITS
 70
4
  0
ENDSEC
  0
SECTION
  2
CLASSES
  0
CLASS
  1
ACDBDICTIONARYWDFLT
  2
AcDbDictionaryWithDefault
  3
AutoCAD 2000
 90
0
280
0
281
0
  0
CLASS
  1
ACDBPLACEHOLDER
  2
AcDbPlaceHolder
  3
AutoCAD 2000
 90
0
280
0
281
0
  0
CLASS
  1
LAYOUT
  2
AcDbLayout
  3
AutoCAD 2000
 90
0
280
0
281
0
  0
ENDSEC
  0
SECTION
  2
TABLES
  0
TABLE
  2
VPORT
  5
8
100
AcDbSymbolTable
 70
2
  0
VPORT
  5
1F4
100
AcDbSymbolTableRecord
100
AcDbViewportTableRecord
  2
*ACTIVE
 70
0
 10
0.0
 20
0.0
 11
1.0
 21
1.0
 12
148.5
 22
105.0
 13
0.0
 23
0.0
 14
1.0
 24
1.0
 15
0.0
 25
0.0
 16
0.0
 26
0.0
 36
1.0
 17
0.0
 27
0.0
 37
0.0
 40
210.0
 41
1.4142857143
 42
50.0
 43
0.0
 44
0.0
 50
0.0
 51
0.0
 71
0
 72
100
 73
1
 74
1
 75
0
 76
0
 77
0
 78
0
  0
ENDTAB
  0
TABLE
  2
LTYPE
  5
5
100
AcDbSymbolTable
 70
6
  0
LTYPE
  5
14
100
AcDbSymbolTableRecord
100
AcDbLinetypeTableRecord
  2
BYBLOCK
 70
0
  3

 72
65
 73
0
 40
0.0
  0
LTYPE
  5
15
100
AcDbSymbolTableRecord
100
AcDbLinetypeTableRecord
  2
BYLAYER
 70
0
  3

 72
65
 73
0
 40
0.0
  0
LTYPE
  5
16
100
AcDbSymbolTableRecord
100
AcDbLinetypeTableRecord
  2
CONTINUOUS
 70
64
  3
Solid line
 72
65
 73
0
 40
0.0
  0
LTYPE
  5
1F5
100
AcDbSymbolTableRecord
100
AcDbLinetypeTableRecord
  2
CENTER
 70
64
  3
____ _ ____ _ ____ _ ____ _ ____ _ ____ _ ____
 72
65
 73
4
 40
0.6
 49
0.375
 74
0
 49
-0.075
 74
0
 49
0.075
 74
0
 49
-0.075
 74
0
  0
LTYPE
  5
1F6
100
AcDbSymbolTableRecord
100
AcDbLinetypeTableRecord
  2
HIDDEN
 70
64
  3
- - - - - - - - - - - - - - - - - - - -
 72
65
 73
2
 40
0.2
 49
0.1
 74
0
 49
-0.1
 74
0
  0
LTYPE
  5
1F7
100
AcDbSymbolTableRecord
100
AcDbLinetypeTableRecord
  2
PHANTOM
 70
64
  3
_____ _ _ _____ _ _ _____ _ _ _____
 72
65
 73
6
 40
0.8
 49
0.45
 74
0
 49
-0.05
 74
0
 49
0.1
 74
0
 49
-0.05
 74
0
 49
0.1
 74
0
 49
-0.05
 74
0
  0
LTYPE
  5
1F8
100
AcDbSymbolTableRecord
100
AcDbLinetypeTableRecord
  2
DOT
 70
64
  3
. . . . . . . . . . . . . . . . . . . .
 72
65
 73
2
 40
0.2
 49
0.1
 74
0
 49
-0.1
 74
0
  0
LTYPE
  5
1F9
100
AcDbSymbolTableRecord
100
AcDbLinetypeTableRecord
  2
DASHED
 70
64
  3
- - - - - - - - - - - - - - - - - - - -
 72
65
 73
2
 40
0.2
 49
0.1
 74
0
 49
-0.1
 74
0
  0
ENDTAB
  0
TABLE
  2
LAYER
  5
2
100
AcDbSymbolTable
 70
36
  0
LAYER
  5
10
100
AcDbSymbolTableRecord
100
AcDbLayerTableRecord
  2
0
 70
0
 62
7
  6
CONTINUOUS
370
-3
390
F
  0
LAYER
  5
1FA
100
AcDbSymbolTableRecord
100
AcDbLayerTableRecord
  2
DEFAULT_1
 70
0
 62
7
  6
CENTER
370
-3
390
F
  0
LAYER
  5
1FB
100
AcDbSymbolTableRecord
100
AcDbLayerTableRecord
  2
DEFAULT_2
 70
0
 62
7
  6
HIDDEN
370
-3
390
F
  0
LAYER
  5
1FC
100
AcDbSymbolTableRecord
100
AcDbLayerTableRecord
  2
DEFAULT_3
 70
0
 62
7
  6
PHANTOM
370
-3
390
F
  0
LAYER
  5
1FD
100
AcDbSymbolTableRecord
100
AcDbLayerTableRecord
  2
43000491A0
 70
0
 62
7
  6
CONTINUOUS
370
-3
390
F
  0
LAYER
  5
1FE
100
AcDbSymbolTableRecord
100
AcDbLayerTableRecord
  2
ASM0001
 70
0
 62
7
  6
CONTINUOUS
370
-3
390
F
  0
LAYER
  5
1FF
100
AcDbSymbolTableRecord
100
AcDbLayerTableRecord
  2
ASSI
 70
0
 62
7
  6
CONTINUOUS
370
-3
390
F
  0
LAYER
  5
200
100
AcDbSymbolTableRecord
100
AcDbLayerTableRecord
  2
CN-MRT4P5_2SQV01-VIMAR_1600000
 70
0
 62
7
  6
CONTINUOUS
370
-3
390
F
  0
LAYER
  5
201
100
AcDbSymbolTableRecord
100
AcDbLayerTableRecord
  2
COLOR5
 70
0
 62
7
  6
CONTINUOUS
370
-3
390
F
  0
LAYER
  5
202
100
AcDbSymbolTableRecord
100
AcDbLayerTableRecord
  2
COLORE_MATERIALE
 70
0
 62
7
  6
CONTINUOUS
370
-3
390
F
  0
LAYER
  5
203
100
AcDbSymbolTableRecord
100
AcDbLayerTableRecord
  2
COORDINATE
 70
0
 62
7
  6
CONTINUOUS
370
-3
390
F
  0
LAYER
  5
204
100
AcDbSymbolTableRecord
100
AcDbLayerTableRecord
  2
COORD_ORIGINE
 70
0
 62
7
  6
CONTINUOUS
370
-3
390
F
  0
LAYER
  5
205
100
AcDbSymbolTableRecord
100
AcDbLayerTableRecord
  2
COPY_PUBLISH
 70
0
 62
7
  6
CONTINUOUS
370
-3
390
F
  0
LAYER
  5
206
100
AcDbSymbolTableRecord
100
AcDbLayerTableRecord
  2
COSMETIC
 70
0
 62
7
  6
CONTINUOUS
370
-3
390
F
  0
LAYER
  5
207
100
AcDbSymbolTableRecord
100
AcDbLayerTableRecord
  2
CURVE
 70
0
 62
7
  6
CONTINUOUS
370
-3
390
F
  0
LAYER
  5
208
100
AcDbSymbolTableRecord
100
AcDbLayerTableRecord
  2
DRAFT
 70
0
 62
7
  6
CONTINUOUS
370
-3
390
F
  0
LAYER
  5
209
100
AcDbSymbolTableRecord
100
AcDbLayerTableRecord
  2
IMPORT_IGES
 70
0
 62
7
  6
CONTINUOUS
370
-3
390
F
  0
LAYER
  5
20A
100
AcDbSymbolTableRecord
100
AcDbLayerTableRecord
  2
INCISIONI
 70
0
 62
7
  6
CONTINUOUS
370
-3
390
F
  0
LAYER
  5
20B
100
AcDbSymbolTableRecord
100
AcDbLayerTableRecord
  2
INTF_1
 70
0
 62
7
  6
CONTINUOUS
370
-3
390
F
  0
LAYER
  5
20C
100
AcDbSymbolTableRecord
100
AcDbLayerTableRecord
  2
INTF_11
 70
0
 62
7
  6
CONTINUOUS
370
-3
390
F
  0
LAYER
  5
20D
100
AcDbSymbolTableRecord
100
AcDbLayerTableRecord
  2
INTF_GREEN
 70
0
 62
7
  6
CONTINUOUS
370
-3
390
F
  0
LAYER
  5
20E
100
AcDbSymbolTableRecord
100
AcDbLayerTableRecord
  2
INTF_YELLOW
 70
0
 62
7
  6
CONTINUOUS
370
-3
390
F
  0
LAYER
  5
20F
100
AcDbSymbolTableRecord
100
AcDbLayerTableRecord
  2
NOTE
 70
0
 62
7
  6
CONTINUOUS
370
-3
390
F
  0
LAYER
  5
210
100
AcDbSymbolTableRecord
100
AcDbLayerTableRecord
  2
PIANI
 70
0
 62
7
  6
CONTINUOUS
370
-3
390
F
  0
LAYER
  5
211
100
AcDbSymbolTableRecord
100
AcDbLayerTableRecord
  2
PIANI_DI_RIFERIMENTO
 70
0
 62
7
  6
CONTINUOUS
370
-3
390
F
  0
LAYER
  5
212
100
AcDbSymbolTableRecord
100
AcDbLayerTableRecord
  2
PIANI_ORIGINE
 70
0
 62
7
  6
CONTINUOUS
370
-3
390
F
  0
LAYER
  5
213
100
AcDbSymbolTableRecord
100
AcDbLayerTableRecord
  2
PTC-4X7_5X5_0-VIMAR_750000
 70
0
 62
7
  6
CONTINUOUS
370
-3
390
F
  0
LAYER
  5
214
100
AcDbSymbolTableRecord
100
AcDbLayerTableRecord
  2
PUBLISHED_GEOMETRY
 70
0
 62
7
  6
CONTINUOUS
370
-3
390
F
  0
LAYER
  5
215
100
AcDbSymbolTableRecord
100
AcDbLayerTableRecord
  2
PUNTI
 70
0
 62
7
  6
CONTINUOUS
370
-3
390
F
  0
LAYER
  5
216
100
AcDbSymbolTableRecord
100
AcDbLayerTableRecord
  2
RACCORDO
 70
0
 62
7
  6
CONTINUOUS
370
-3
390
F
  0
LAYER
  5
217
100
AcDbSymbolTableRecord
100
AcDbLayerTableRecord
  2
SMUSSO
 70
0
 62
7
  6
CONTINUOUS
370
-3
390
F
  0
LAYER
  5
218
100
AcDbSymbolTableRecord
100
AcDbLayerTableRecord
  2
SUPERFICI
 70
0
 62
7
  6
CONTINUOUS
370
-3
390
F
  0
LAYER
  5
219
100
AcDbSymbolTableRecord
100
AcDbLayerTableRecord
  2
TRASH
 70
0
 62
7
  6
CONTINUOUS
370
-3
390
F
  0
LAYER
  5
21A
100
AcDbSymbolTableRecord
100
AcDbLayerTableRecord
  2
XSEC_DATUMS
 70
0
 62
7
  6
CONTINUOUS
370
-3
390
F
  0
LAYER
  5
21B
100
AcDbSymbolTableRecord
100
AcDbLayerTableRecord
  2
___SHELL
 70
0
 62
7
  6
CONTINUOUS
370
-3
390
F
  0
ENDTAB
  0
TABLE
  2
STYLE
  5
3
100
AcDbSymbolTable
 70
1
  0
STYLE
  5
11
100
AcDbSymbolTableRecord
100
AcDbTextStyleTableRecord
  2
STANDARD
 70
0
 40
0.0
 41
0.8
 50
0.0
 71
0
 42
0.2
  3
txt
  4

  0
STYLE
  5
21C
100
AcDbSymbolTableRecord
100
AcDbTextStyleTableRecord
  2
TEXTSTYLE_1
 70
0
 40
0.0
 41
0.8
 50
0.0
 71
0
 42
0.2
  3
gdt
  4

  0
ENDTAB
  0
TABLE
  2
VIEW
  5
6
100
AcDbSymbolTable
 70
0
  0
ENDTAB
  0
TABLE
  2
UCS
  5
7
100
AcDbSymbolTable
 70
0
  0
ENDTAB
  0
TABLE
  2
APPID
  5
9
100
AcDbSymbolTable
 70
1
  0
APPID
  5
21D
100
AcDbSymbolTableRecord
100
AcDbRegAppTableRecord
  2
ACAD
 70
0
  0
ENDTAB
  0
TABLE
  2
BLOCK_RECORD
  5
1
100
AcDbSymbolTable
 70
0
  0
BLOCK_RECORD
  5
21E
100
AcDbSymbolTableRecord
100
AcDbBlockTableRecord
  2
*Model_Space
  0
BLOCK_RECORD
  5
21F
100
AcDbSymbolTableRecord
100
AcDbBlockTableRecord
  2
*Paper_Space
  0
ENDTAB
  0
TABLE
  2
DIMSTYLE
  5
A
100
AcDbSymbolTable
 70
1
100
AcDbDimStyleTable
 71
0
  0
DIMSTYLE
105
220
100
AcDbSymbolTableRecord
100
AcDbDimStyleTableRecord
  2
STANDARD
 70
0
  3

  4

 40
1.0
 41
3.0
 42
0.0625
 43
0.38
 44
0.18
 45
0.0
 46
0.0
 47
0.01
 48
0.01
140
3.0
141
0.09
142
0.0
143
25.4
144
1.0
145
0.0
146
1.0
147
0.09
 71
1.0
 72
0.0
 73
0
 74
0
 75
0
 76
0
 77
1
 78
8
170
0
171
2
172
0
173
0
174
0
175
0
176
0
177
0
178
0
270
2
271
2
272
2
273
2
274
2
275
0
280
0
281
0
282
0
283
1
284
8
285
0
286
0
287
3
288
0
340
11
  0
ENDTAB
  0
ENDSEC
  0
SECTION
  2
BLOCKS
  0
BLOCK
  5
20
100
AcDbEntity
  8
0
100
AcDbBlockBegin
  2
*Model_Space
 70
0
 10
0.0
 20
0.0
 30
0.0
  3
*Model_Space
  1

  0
ENDBLK
  5
21
100
AcDbEntity
  8
0
100
AcDbBlockEnd
  0
BLOCK
  5
1C
100
AcDbEntity
  8
0
100
AcDbBlockBegin
  2
*Paper_Space
 70
0
 10
0.0
 20
0.0
 30
0.0
  3
*Paper_Space
  1

  0
ENDBLK
  5
1D
100
AcDbEntity
  8
0
100
AcDbBlockEnd
  0
ENDSEC
  0
SECTION
  2
ENTITIES
  0
LINE
  5
221
100
AcDbEntity
  8
SUPERFICI
100
AcDbLine
 62
7
  6
CONTINUOUS
 10
-9.8956323968
 20
-24.495628166
 11
-7.5043676032
 21
-24.495628166
  0
LINE
  5
222
100
AcDbEntity
  8
SUPERFICI
100
AcDbLine
 62
7
  6
CONTINUOUS
 10
7.5043676032
 20
-24.495628166
 11
9.8956323968
 21
-24.495628166
  0
LINE
  5
223
100
AcDbEntity
  8
SUPERFICI
100
AcDbLine
 62
253
  6
CONTINUOUS
 10
7.254371834
 20
-24.2456323968
 11
10.145628166
 21
-24.2456323968
  0
LINE
  5
224
100
AcDbEntity
  8
SUPERFICI
100
AcDbLine
 62
253
  6
CONTINUOUS
 10
-7.254371834
 20
-24.2456323968
 11
-10.145628166
 21
-24.2456323968
  0
LINE
  5
225
100
AcDbEntity
  8
SUPERFICI
100
AcDbLine
 62
7
  6
CONTINUOUS
 10
-4.45
 20
-24.0
 11
-3.5
 21
-24.0
  0
LINE
  5
226
100
AcDbEntity
  8
SUPERFICI
100
AcDbLine
 62
7
  6
CONTINUOUS
 10
3.5
 20
-24.0
 11
4.45
 21
-24.0
  0
LINE
  5
227
100
AcDbEntity
  8
SUPERFICI
100
AcDbLine
 62
7
  6
CONTINUOUS
 10
3.5
 20
-23.9941821702
 11
1.2
 21
-23.9941821702
  0
LINE
  5
228
100
AcDbEntity
  8
SUPERFICI
100
AcDbLine
 62
7
  6
CONTINUOUS
 10
-1.2
 20
-23.9941821702
 11
-3.5
 21
-23.9941821702
  0
LINE
  5
229
100
AcDbEntity
  8
SUPERFICI
100
AcDbLine
 62
7
  6
CONTINUOUS
 10
4.4063493531
 20
-23.9563493531
 11
3.5
 21
-23.9563493531
  0
LINE
  5
22A
100
AcDbEntity
  8
SUPERFICI
100
AcDbLine
 62
7
  6
CONTINUOUS
 10
-3.5
 20
-23.9563493531
 11
-4.4063493531
 21
-23.9563493531
  0
LINE
  5
22B
100
AcDbEntity
  8
SUPERFICI
100
AcDbLine
 62
253
  6
CONTINUOUS
 10
7.254371834
 20
-23.8443375673
 11
10.145628166
 21
-23.8443375673
  0
LINE
  5
22C
100
AcDbEntity
  8
SUPERFICI
100
AcDbLine
 62
253
  6
CONTINUOUS
 10
-7.254371834
 20
-23.8443375673
 11
-10.145628166
 21
-23.8443375673
  0
LINE
  5
22D
100
AcDbEntity
  8
SUPERFICI
100
AcDbLine
 62
253
  6
CONTINUOUS
 10
9.8956323968
 20
-23.6278312164
 11
7.5043676032
 21
-23.6278312164
  0
LINE
  5
22E
100
AcDbEntity
  8
SUPERFICI
100
AcDbLine
 62
253
  6
CONTINUOUS
 10
-7.5043676032
 20
-23.6278312164
 11
-9.8956323968
 21
-23.6278312164
  0
LINE
  5
22F
100
AcDbEntity
  8
SUPERFICI
100
AcDbLine
 62
7
  6
CONTINUOUS
 10
-9.9007229979
 20
-23.1226497308
 11
-7.4992770021
 21
-23.1226497308
  0
LINE
  5
230
100
AcDbEntity
  8
SUPERFICI
100
AcDbLine
 62
7
  6
CONTINUOUS
 10
9.9007229979
 20
-23.1226497308
 11
7.4992770021
 21
-23.1226497308
  0
LINE
  5
231
100
AcDbEntity
  8
DRAFT
100
AcDbLine
 62
7
  6
CONTINUOUS
 10
-8.0665695018
 20
20.9917082642
 11
-8.25
 21
20.9
  0
LINE
  5
232
100
AcDbEntity
  8
DRAFT
100
AcDbLine
 62
7
  6
CONTINUOUS
 10
-8.0665695018
 20
21.4537354271
 11
-8.25
 21
21.4
  0
LINE
  5
233
100
AcDbEntity
  8
SUPERFICI
100
AcDbLine
 62
7
  6
CONTINUOUS
 10
7.25
 20
-22.4
 11
4.45
 21
-22.4
  0
LINE
  5
234
100
AcDbEntity
  8
SUPERFICI
100
AcDbLine
 62
7
  6
CONTINUOUS
 10
-4.45
 20
-22.4
 11
-7.25
 21
-22.4
  0
LINE
  5
235
100
AcDbEntity
  8
SUPERFICI
100
AcDbLine
 62
7
  6
CONTINUOUS
 10
1.0
 20
-22.3947639644
 11
-1.0
 21
-22.3947639644
  0
LINE
  5
236
100
AcDbEntity
  8
DRAFT
100
AcDbLine
 62
7
  6
CONTINUOUS
 10
10.6417158217
 20
-22.3941821702
 11
7.2558178298
 21
-22.3941821702
  0
LINE
  5
237
100
AcDbEntity
  8
DRAFT
100
AcDbLine
 62
7
  6
CONTINUOUS
 10
-7.2558178298
 20
-22.3941821702
 11
-10.6417158217
 21
-22.3941821702
  0
LINE
  5
238
100
AcDbEntity
  8
DRAFT
100
AcDbLine
 62
7
  6
CONTINUOUS
 10
-7.1905416262
 20
-22.3359700255
 11
-3.0
 21
-22.3359700255
  0
LINE
  5
239
100
AcDbEntity
  8
DRAFT
100
AcDbLine
 62
7
  6
CONTINUOUS
 10
3.0
 20
-22.3359700255
 11
7.1905416262
 21
-22.3359700255
  0
LINE
  5
23A
100
AcDbEntity
  8
SUPERFICI
100
AcDbLine
 62
7
  6
CONTINUOUS
 10
-3.0
 20
-21.7
 11
3.0
 21
-21.7
  0
LINE
  5
23B
100
AcDbEntity
  8
SUPERFICI
100
AcDbLine
 62
253
  6
CONTINUOUS
 10
-7.5666456542
 20
-21.3359869487
 11
-3.0
 21
-21.3359869487
  0
LINE
  5
23C
100
AcDbEntity
  8
SUPERFICI
100
AcDbLine
 62
253
  6
CONTINUOUS
 10
3.0
 20
-21.3359869487
 11
7.5666456542
 21
-21.3359869487
  0
LINE
  5
23D
100
AcDbEntity
  8
DRAFT
100
AcDbLine
 62
7
  6
CONTINUOUS
 10
-8.0665695018
 20
-21.4537354271
 11
-8.25
 21
-21.4
  0
LINE
  5
23E
100
AcDbEntity
  8
DRAFT
100
AcDbLine
 62
7
  6
CONTINUOUS
 10
-8.0665695018
 20
-20.9917082642
 11
-8.25
 21
-20.9
  0
LINE
  5
23F
100
AcDbEntity
  8
SUPERFICI
100
AcDbLine
 62
7
  6
CONTINUOUS
 10
-9.65
 20
20.1990396502
 11
-8.9498936624
 21
20.9
  0
LINE
  5
240
100
AcDbEntity
  8
RACCORDO
100
AcDbLine
 62
7
  6
CONTINUOUS
 10
-8.8
 20
20.85
 11
-10.5643027805
 21
19.0856972195
  0
LINE
  5
241
100
AcDbEntity
  8
ASSI
100
AcDbLine
 62
7
  6
CONTINUOUS
 10
-8.8
 20
20.85
 11
-10.5643027805
 21
19.0856972195
  0
LINE
  5
242
100
AcDbEntity
  8
SUPERFICI
100
AcDbLine
 62
7
  6
CONTINUOUS
 10
-10.15
 20
19.5
 11
-11.1329826078
 21
18.5170173922
  0
LINE
  5
243
100
AcDbEntity
  8
DRAFT
100
AcDbLine
 62
7
  6
CONTINUOUS
 10
-8.25
 20
21.4
 11
-7.2558178298
 21
22.3941821702
  0
LINE
  5
244
100
AcDbEntity
  8
RACCORDO
100
AcDbLine
 62
7
  6
CONTINUOUS
 10
-10.0850175454
 20
19.3181305591
 11
-8.5531481045
 21
20.85
  0
LINE
  5
245
100
AcDbEntity
  8
ASSI
100
AcDbLine
 62
7
  6
CONTINUOUS
 10
-10.0850175454
 20
19.3181305591
 11
-8.5531481045
 21
20.85
  0
LINE
  5
246
100
AcDbEntity
  8
RACCORDO
100
AcDbLine
 62
253
  6
CONTINUOUS
 10
-9.9952378169
 20
19.1013831211
 11
-10.1730026398
 21
18.9236182982
  0
LINE
  5
247
100
AcDbEntity
  8
ASSI
100
AcDbLine
 62
253
  6
CONTINUOUS
 10
-9.9952378169
 20
19.1013831211
 11
-10.1730026398
 21
18.9236182982
  0
LINE
  5
248
100
AcDbEntity
  8
DRAFT
100
AcDbLine
 62
7
  6
CONTINUOUS
 10
-7.2040044543
 20
20.9959955457
 11
-7.3
 21
20.9
  0
LINE
  5
249
100
AcDbEntity
  8
RACCORDO
100
AcDbLine
 62
253
  6
CONTINUOUS
 10
-9.2882387315
 20
18.3943840357
 11
-9.4660056078
 21
18.2166171594
  0
LINE
  5
24A
100
AcDbEntity
  8
ASSI
100
AcDbLine
 62
253
  6
CONTINUOUS
 10
-9.2882387315
 20
18.3943840357
 11
-9.4660056078
 21
18.2166171594
  0
LINE
  5
24B
100
AcDbEntity
  8
DRAFT
100
AcDbLine
 62
7
  6
CONTINUOUS
 10
-7.5666456542
 20
-20.9959955457
 11
-7.2040044543
 21
-20.9959955457
  0
LINE
  5
24C
100
AcDbEntity
  8
DRAFT
100
AcDbLine
 62
7
  6
CONTINUOUS
 10
7.2040044543
 20
-20.9959955457
 11
7.5666456542
 21
-20.9959955457
  0
LINE
  5
24D
100
AcDbEntity
  8
DRAFT
100
AcDbLine
 62
7
  6
CONTINUOUS
 10
7.3
 20
-20.9
 11
8.9498936624
 21
-20.9
  0
LINE
  5
24E
100
AcDbEntity
  8
DRAFT
100
AcDbLine
 62
7
  6
CONTINUOUS
 10
-7.3
 20
-20.9
 11
-8.9498936624
 21
-20.9
  0
LINE
  5
24F
100
AcDbEntity
  8
DRAFT
100
AcDbLine
 62
7
  6
CONTINUOUS
 10
7.4
 20
-20.85
 11
8.8
 21
-20.85
  0
LINE
  5
250
100
AcDbEntity
  8
DRAFT
100
AcDbLine
 62
7
  6
CONTINUOUS
 10
-7.4
 20
-20.85
 11
-8.8
 21
-20.85
  0
LINE
  5
251
100
AcDbEntity
  8
ASSI
100
AcDbLine
 62
7
  6
CONTINUOUS
 10
7.4
 20
-20.85
 11
8.8
 21
-20.85
  0
LINE
  5
252
100
AcDbEntity
  8
ASSI
100
AcDbLine
 62
7
  6
CONTINUOUS
 10
-7.4
 20
-20.85
 11
-8.8
 21
-20.85
  0
LINE
  5
253
100
AcDbEntity
  8
SUPERFICI
100
AcDbLine
 62
7
  6
CONTINUOUS
 10
3.0
 20
-20.8
 11
-3.0
 21
-20.8
  0
LINE
  5
254
100
AcDbEntity
  8
DRAFT
100
AcDbLine
 62
7
  6
CONTINUOUS
 10
-7.4
 20
-20.5276115984
 11
-7.3620095793
 21
-20.5276115984
  0
LINE
  5
255
100
AcDbEntity
  8
DRAFT
100
AcDbLine
 62
7
  6
CONTINUOUS
 10
7.3620095793
 20
-20.5276115984
 11
7.4
 21
-20.5276115984
  0
LINE
  5
256
100
AcDbEntity
  8
DRAFT
100
AcDbLine
 62
7
  6
CONTINUOUS
 10
-6.5959955457
 20
-20.0959955457
 11
6.5959955457
 21
-20.0959955457
  0
LINE
  5
257
100
AcDbEntity
  8
DRAFT
100
AcDbLine
 62
7
  6
CONTINUOUS
 10
-2.5
 20
-20.0619607613
 11
-2.4413111231
 21
-20.0619607613
  0
LINE
  5
258
100
AcDbEntity
  8
DRAFT
100
AcDbLine
 62
7
  6
CONTINUOUS
 10
2.4413111231
 20
-20.0619607613
 11
2.5
 21
-20.0619607613
  0
LINE
  5
259
100
AcDbEntity
  8
DRAFT
100
AcDbLine
 62
7
  6
CONTINUOUS
 10
3.5
 20
-20.0087268678
 11
2.5
 21
-20.0087268678
  0
LINE
  5
25A
100
AcDbEntity
  8
DRAFT
100
AcDbLine
 62
7
  6
CONTINUOUS
 10
-2.5
 20
-20.0087268678
 11
-3.5
 21
-20.0087268678
  0
LINE
  5
25B
100
AcDbEntity
  8
DRAFT
100
AcDbLine
 62
7
  6
CONTINUOUS
 10
6.4372596706
 20
-19.9372596706
 11
2.5
 21
-19.9372596706
  0
LINE
  5
25C
100
AcDbEntity
  8
DRAFT
100
AcDbLine
 62
7
  6
CONTINUOUS
 10
-2.5
 20
-19.9372596706
 11
-6.4372596706
 21
-19.9372596706
  0
LINE
  5
25D
100
AcDbEntity
  8
DRAFT
100
AcDbLine
 62
7
  6
CONTINUOUS
 10
-3.5
 20
-19.9
 11
-2.5
 21
-19.9
  0
LINE
  5
25E
100
AcDbEntity
  8
ASSI
100
AcDbLine
 62
7
  6
CONTINUOUS
 10
-3.5
 20
-19.9
 11
-2.5
 21
-19.9
  0
LINE
  5
25F
100
AcDbEntity
  8
DRAFT
100
AcDbLine
 62
7
  6
CONTINUOUS
 10
2.5
 20
-19.9
 11
3.5
 21
-19.9
  0
LINE
  5
260
100
AcDbEntity
  8
ASSI
100
AcDbLine
 62
7
  6
CONTINUOUS
 10
2.5
 20
-19.9
 11
3.5
 21
-19.9
  0
LINE
  5
261
100
AcDbEntity
  8
RACCORDO
100
AcDbLine
 62
7
  6
CONTINUOUS
 10
-1.5981173983
 20
-19.8825449351
 11
1.5981173983
 21
-19.8825449351
  0
LINE
  5
262
100
AcDbEntity
  8
ASSI
100
AcDbLine
 62
7
  6
CONTINUOUS
 10
-1.5981173983
 20
-19.8825449351
 11
1.5981173983
 21
-19.8825449351
  0
LINE
  5
263
100
AcDbEntity
  8
DRAFT
100
AcDbLine
 62
7
  6
CONTINUOUS
 10
-3.4109791689
 20
-19.8109791689
 11
3.4109791689
 21
-19.8109791689
  0
LINE
  5
264
100
AcDbEntity
  8
ASSI
100
AcDbLine
 62
7
  6
CONTINUOUS
 10
-3.4109791689
 20
-19.8109791689
 11
3.4109791689
 21
-19.8109791689
  0
LINE
  5
265
100
AcDbEntity
  8
DRAFT
100
AcDbLine
 62
7
  6
CONTINUOUS
 10
-7.2040044543
 20
-19.7959955457
 11
-6.5959955457
 21
-19.7959955457
  0
LINE
  5
266
100
AcDbEntity
  8
DRAFT
100
AcDbLine
 62
7
  6
CONTINUOUS
 10
6.5959955457
 20
-19.7959955457
 11
7.2040044543
 21
-19.7959955457
  0
LINE
  5
267
100
AcDbEntity
  8
DRAFT
100
AcDbLine
 62
7
  6
CONTINUOUS
 10
-7.4
 20
-19.7
 11
-3.5
 21
-19.7
  0
LINE
  5
268
100
AcDbEntity
  8
ASSI
100
AcDbLine
 62
7
  6
CONTINUOUS
 10
-7.4
 20
-19.7
 11
-3.5
 21
-19.7
  0
LINE
  5
269
100
AcDbEntity
  8
DRAFT
100
AcDbLine
 62
7
  6
CONTINUOUS
 10
3.5
 20
-19.7
 11
7.4
 21
-19.7
  0
LINE
  5
26A
100
AcDbEntity
  8
ASSI
100
AcDbLine
 62
7
  6
CONTINUOUS
 10
3.5
 20
-19.7
 11
7.4
 21
-19.7
  0
LINE
  5
26B
100
AcDbEntity
  8
RACCORDO
100
AcDbLine
 62
7
  6
CONTINUOUS
 10
9.37801846
 20
-19.6109791689
 11
7.4890208311
 21
-19.6109791689
  0
LINE
  5
26C
100
AcDbEntity
  8
ASSI
100
AcDbLine
 62
7
  6
CONTINUOUS
 10
9.37801846
 20
-19.6109791689
 11
7.4890208311
 21
-19.6109791689
  0
LINE
  5
26D
100
AcDbEntity
  8
DRAFT
100
AcDbLine
 62
7
  6
CONTINUOUS
 10
-3.4109791689
 20
-19.6109791689
 11
3.4109791689
 21
-19.6109791689
  0
LINE
  5
26E
100
AcDbEntity
  8
ASSI
100
AcDbLine
 62
7
  6
CONTINUOUS
 10
-3.4109791689
 20
-19.6109791689
 11
3.4109791689
 21
-19.6109791689
  0
LINE
  5
26F
100
AcDbEntity
  8
RACCORDO
100
AcDbLine
 62
7
  6
CONTINUOUS
 10
-7.4890208311
 20
-19.6109791689
 11
-9.37801846
 21
-19.6109791689
  0
LINE
  5
270
100
AcDbEntity
  8
ASSI
100
AcDbLine
 62
7
  6
CONTINUOUS
 10
-7.4890208311
 20
-19.6109791689
 11
-9.37801846
 21
-19.6109791689
  0
LINE
  5
271
100
AcDbEntity
  8
SUPERFICI
100
AcDbLine
 62
7
  6
CONTINUOUS
 10
-11.1329826078
 20
-18.5170173922
 11
-10.15
 21
-19.5
  0
LINE
  5
272
100
AcDbEntity
  8
RACCORDO
100
AcDbLine
 62
7
  6
CONTINUOUS
 10
-10.5643027805
 20
-19.0856972195
 11
-8.8
 21
-20.85
  0
LINE
  5
273
100
AcDbEntity
  8
ASSI
100
AcDbLine
 62
7
  6
CONTINUOUS
 10
-10.5643027805
 20
-19.0856972195
 11
-8.8
 21
-20.85
  0
LINE
  5
274
100
AcDbEntity
  8
DRAFT
100
AcDbLine
 62
7
  6
CONTINUOUS
 10
-7.2558178298
 20
-22.3941821702
 11
-8.25
 21
-21.4
  0
LINE
  5
275
100
AcDbEntity
  8
RACCORDO
100
AcDbLine
 62
7
  6
CONTINUOUS
 10
-8.5531481045
 20
-20.85
 11
-10.0850175454
 21
-19.3181305591
  0
LINE
  5
276
100
AcDbEntity
  8
ASSI
100
AcDbLine
 62
7
  6
CONTINUOUS
 10
-8.5531481045
 20
-20.85
 11
-10.0850175454
 21
-19.3181305591
  0
LINE
  5
277
100
AcDbEntity
  8
RACCORDO
100
AcDbLine
 62
253
  6
CONTINUOUS
 10
-10.1730026398
 20
-18.9236182982
 11
-9.9952378169
 21
-19.1013831211
  0
LINE
  5
278
100
AcDbEntity
  8
ASSI
100
AcDbLine
 62
253
  6
CONTINUOUS
 10
-10.1730026398
 20
-18.9236182982
 11
-9.9952378169
 21
-19.1013831211
  0
LINE
  5
279
100
AcDbEntity
  8
DRAFT
100
AcDbLine
 62
7
  6
CONTINUOUS
 10
-7.2040044543
 20
-20.9959955457
 11
-7.3
 21
-20.9
  0
LINE
  5
27A
100
AcDbEntity
  8
RACCORDO
100
AcDbLine
 62
253
  6
CONTINUOUS
 10
-9.4660056078
 20
-18.2166171594
 11
-9.2882387315
 21
-18.3943840357
  0
LINE
  5
27B
100
AcDbEntity
  8
ASSI
100
AcDbLine
 62
253
  6
CONTINUOUS
 10
-9.4660056078
 20
-18.2166171594
 11
-9.2882387315
 21
-18.3943840357
  0
LINE
  5
27C
100
AcDbEntity
  8
SUPERFICI
100
AcDbLine
 62
7
  6
CONTINUOUS
 10
-9.65
 20
-20.1990396502
 11
-8.9498936624
 21
-20.9
  0
LINE
  5
27D
100
AcDbEntity
  8
DRAFT
100
AcDbLine
 62
7
  6
CONTINUOUS
 10
-7.4
 20
19.7
 11
-7.4890208311
 21
19.6109791689
  0
LINE
  5
27E
100
AcDbEntity
  8
ASSI
100
AcDbLine
 62
7
  6
CONTINUOUS
 10
-7.4
 20
19.7
 11
-7.4890208311
 21
19.6109791689
  0
LINE
  5
27F
100
AcDbEntity
  8
DRAFT
100
AcDbLine
 62
7
  6
CONTINUOUS
 10
-7.2040044543
 20
19.7959955457
 11
-7.3
 21
19.7
  0
LINE
  5
280
100
AcDbEntity
  8
RACCORDO
100
AcDbLine
 62
253
  6
CONTINUOUS
 10
-9.2882387315
 20
-19.3942317309
 11
9.2882387315
 21
-19.3942317309
  0
LINE
  5
281
100
AcDbEntity
  8
ASSI
100
AcDbLine
 62
253
  6
CONTINUOUS
 10
-9.2882387315
 20
-19.3942317309
 11
9.2882387315
 21
-19.3942317309
  0
LINE
  5
282
100
AcDbEntity
  8
RACCORDO
100
AcDbLine
 62
253
  6
CONTINUOUS
 10
-9.2882387315
 20
-18.3943840357
 11
9.2882387315
 21
-18.3943840357
  0
LINE
  5
283
100
AcDbEntity
  8
ASSI
100
AcDbLine
 62
253
  6
CONTINUOUS
 10
-9.2882387315
 20
-18.3943840357
 11
9.2882387315
 21
-18.3943840357
  0
LINE
  5
284
100
AcDbEntity
  8
SUPERFICI
100
AcDbLine
 62
7
  6
CONTINUOUS
 10
11.1840373766
 20
-18.1473460386
 11
11.1329826078
 21
-18.1473460386
  0
LINE
  5
285
100
AcDbEntity
  8
SUPERFICI
100
AcDbLine
 62
7
  6
CONTINUOUS
 10
-11.1840373766
 20
-18.1473460386
 11
-11.1329826078
 21
-18.1473460386
  0
LINE
  5
286
100
AcDbEntity
  8
DRAFT
100
AcDbLine
 62
7
  6
CONTINUOUS
 10
-7.4
 20
-19.7
 11
-7.4890208311
 21
-19.6109791689
  0
LINE
  5
287
100
AcDbEntity
  8
ASSI
100
AcDbLine
 62
7
  6
CONTINUOUS
 10
-7.4
 20
-19.7
 11
-7.4890208311
 21
-19.6109791689
  0
LINE
  5
288
100
AcDbEntity
  8
DRAFT
100
AcDbLine
 62
7
  6
CONTINUOUS
 10
-7.2040044543
 20
-19.7959955457
 11
-7.3
 21
-19.7
  0
LINE
  5
289
100
AcDbEntity
  8
RACCORDO
100
AcDbLine
 62
253
  6
CONTINUOUS
 10
9.7588542176
 20
-17.509618074
 11
10.7587019127
 21
-17.509618074
  0
LINE
  5
28A
100
AcDbEntity
  8
ASSI
100
AcDbLine
 62
253
  6
CONTINUOUS
 10
9.7588542176
 20
-17.509618074
 11
10.7587019127
 21
-17.509618074
  0
LINE
  5
28B
100
AcDbEntity
  8
RACCORDO
100
AcDbLine
 62
253
  6
CONTINUOUS
 10
-9.7588542176
 20
-17.509618074
 11
-10.7587019127
 21
-17.509618074
  0
LINE
  5
28C
100
AcDbEntity
  8
ASSI
100
AcDbLine
 62
253
  6
CONTINUOUS
 10
-9.7588542176
 20
-17.509618074
 11
-10.7587019127
 21
-17.509618074
  0
LINE
  5
28D
100
AcDbEntity
  8
0
100
AcDbLine
 62
253
  6
CONTINUOUS
 10
10.8059382733
 20
-16.0857136726
 11
10.798458671
 21
-16.0857136726
  0
LINE
  5
28E
100
AcDbEntity
  8
INCISIONI
100
AcDbLine
 62
253
  6
CONTINUOUS
 10
11.1045968413
 20
-16.001437
 11
11.0540083805
 21
-16.001437
  0
LINE
  5
28F
100
AcDbEntity
  8
0
100
AcDbLine
 62
253
  6
CONTINUOUS
 10
10.8838631171
 20
-16.0
 11
10.870761497
 21
-16.0
  0
LINE
  5
290
100
AcDbEntity
  8
0
100
AcDbLine
 62
253
  6
CONTINUOUS
 10
10.9596868106
 20
-16.0
 11
10.9465851905
 21
-16.0
  0
LINE
  5
291
100
AcDbEntity
  8
INCISIONI
100
AcDbLine
 62
253
  6
CONTINUOUS
 10
11.0235718509
 20
-15.9999991179
 11
11.0283089324
 21
-15.9999991179
  0
LINE
  5
292
100
AcDbEntity
  8
SMUSSO
100
AcDbLine
 62
7
  6
CONTINUOUS
 10
-7.0
 20
13.35
 11
-7.5773502692
 21
12.7726497308
  0
LINE
  5
293
100
AcDbEntity
  8
ASSI
100
AcDbLine
 62
7
  6
CONTINUOUS
 10
-7.0
 20
13.35
 11
-7.5773502692
 21
12.7726497308
  0
LINE
  5
294
100
AcDbEntity
  8
0
100
AcDbLine
 62
253
  6
CONTINUOUS
 10
10.9217678094
 20
-15.6
 11
10.9086804982
 21
-15.6
  0
LINE
  5
295
100
AcDbEntity
  8
0
100
AcDbLine
 62
253
  6
CONTINUOUS
 10
10.7834994648
 20
-15.3357136726
 11
10.8096780745
 21
-15.3357136726
  0
LINE
  5
296
100
AcDbEntity
  8
0
100
AcDbLine
 62
253
  6
CONTINUOUS
 10
10.8059382733
 20
-14.9071424484
 11
10.7872392664
 21
-14.9071424484
  0
LINE
  5
297
100
AcDbEntity
  8
INCISIONI
100
AcDbLine
 62
253
  6
CONTINUOUS
 10
11.0022549826
 20
-14.5071422338
 11
11.014097687
 21
-14.5071422338
  0
LINE
  5
298
100
AcDbEntity
  8
INCISIONI
100
AcDbLine
 62
253
  6
CONTINUOUS
 10
11.0212033092
 20
-14.4619038582
 11
11.0283089324
 21
-14.4619038582
  0
LINE
  5
299
100
AcDbEntity
  8
0
100
AcDbLine
 62
253
  6
CONTINUOUS
 10
10.7872392664
 20
-14.1571424484
 11
10.8059382733
 21
-14.1571424484
  0
LINE
  5
29A
100
AcDbEntity
  8
INCISIONI
100
AcDbLine
 62
253
  6
CONTINUOUS
 10
11.0688671902
 20
-15.502999
 11
11.1045968413
 21
-15.503009
  0
LINE
  5
29B
100
AcDbEntity
  8
SUPERFICI
100
AcDbLine
 62
7
  6
CONTINUOUS
 10
-11.1840373766
 20
-18.1473460386
 11
-11.15
 21
-18.491183651
  0
LINE
  5
29C
100
AcDbEntity
  8
SUPERFICI
100
AcDbLine
 62
7
  6
CONTINUOUS
 10
-11.1840373766
 20
18.1473460386
 11
-11.15
 21
18.491183651
  0
LINE
  5
29D
100
AcDbEntity
  8
SUPERFICI
100
AcDbLine
 62
7
  6
CONTINUOUS
 10
4.4063493531
 20
23.9563493531
 11
4.45
 21
24.0
  0
LINE
  5
29E
100
AcDbEntity
  8
SUPERFICI
100
AcDbLine
 62
7
  6
CONTINUOUS
 10
4.45
 20
22.4
 11
4.406077753
 21
22.356077753
  0
LINE
  5
29F
100
AcDbEntity
  8
SUPERFICI
100
AcDbLine
 62
253
  6
CONTINUOUS
 10
10.6504426895
 20
22.4
 11
10.6417158217
 21
22.3941821702
  0
LINE
  5
2A0
100
AcDbEntity
  8
RACCORDO
100
AcDbLine
 62
253
  6
CONTINUOUS
 10
10.5643027805
 20
19.0856972195
 11
10.1730026398
 21
18.9236182982
  0
LINE
  5
2A1
100
AcDbEntity
  8
ASSI
100
AcDbLine
 62
253
  6
CONTINUOUS
 10
10.5643027805
 20
19.0856972195
 11
10.1730026398
 21
18.9236182982
  0
LINE
  5
2A2
100
AcDbEntity
  8
0
100
AcDbLine
 62
253
  6
CONTINUOUS
 10
10.7872392664
 20
-13.7285712242
 11
10.7909790679
 21
-13.7285712242
  0
LINE
  5
2A3
100
AcDbEntity
  8
INCISIONI
100
AcDbLine
 62
253
  6
CONTINUOUS
 10
11.0540083805
 20
-13.66021
 11
11.1045968413
 21
-13.66021
  0
LINE
  5
2A4
100
AcDbEntity
  8
0
100
AcDbLine
 62
253
  6
CONTINUOUS
 10
10.8021984722
 20
-12.9785712242
 11
10.8059382733
 21
-12.9785712242
  0
LINE
  5
2A5
100
AcDbEntity
  8
INCISIONI
100
AcDbLine
 62
253
  6
CONTINUOUS
 10
10.9998864416
 20
-12.8333325267
 11
11.0164662277
 21
-12.8333325267
  0
LINE
  5
2A6
100
AcDbEntity
  8
0
100
AcDbLine
 62
253
  6
CONTINUOUS
 10
10.7834994648
 20
-12.55
 11
10.8096780745
 21
-12.55
  0
LINE
  5
2A7
100
AcDbEntity
  8
RACCORDO
100
AcDbLine
 62
253
  6
CONTINUOUS
 10
10.1730026398
 20
-18.9236182982
 11
10.5643027805
 21
-19.0856972195
  0
LINE
  5
2A8
100
AcDbEntity
  8
ASSI
100
AcDbLine
 62
253
  6
CONTINUOUS
 10
10.1730026398
 20
-18.9236182982
 11
10.5643027805
 21
-19.0856972195
  0
LINE
  5
2A9
100
AcDbEntity
  8
SUPERFICI
100
AcDbLine
 62
253
  6
CONTINUOUS
 10
10.6417158217
 20
-22.3941821702
 11
10.6504426895
 21
-22.4
  0
LINE
  5
2AA
100
AcDbEntity
  8
SUPERFICI
100
AcDbLine
 62
7
  6
CONTINUOUS
 10
4.4063493531
 20
-23.9563493531
 11
4.45
 21
-24.0
  0
LINE
  5
2AB
100
AcDbEntity
  8
SUPERFICI
100
AcDbLine
 62
7
  6
CONTINUOUS
 10
4.45
 20
-22.4
 11
4.406077753
 21
-22.356077753
  0
LINE
  5
2AC
100
AcDbEntity
  8
SUPERFICI
100
AcDbLine
 62
7
  6
CONTINUOUS
 10
-11.1840373766
 20
18.1473460386
 11
-11.1840373766
 21
-18.1473460386
  0
LINE
  5
2AD
100
AcDbEntity
  8
RACCORDO
100
AcDbLine
 62
7
  6
CONTINUOUS
 10
-11.15
 20
17.6716990487
 11
-11.15
 21
-17.6716990487
  0
LINE
  5
2AE
100
AcDbEntity
  8
ASSI
100
AcDbLine
 62
7
  6
CONTINUOUS
 10
-11.15
 20
17.6716990487
 11
-11.15
 21
-17.6716990487
  0
LINE
  5
2AF
100
AcDbEntity
  8
SUPERFICI
100
AcDbLine
 62
7
  6
CONTINUOUS
 10
-11.1417094756
 20
-21.8941990932
 11
-11.1417094756
 21
-18.5082905244
  0
LINE
  5
2B0
100
AcDbEntity
  8
SUPERFICI
100
AcDbLine
 62
7
  6
CONTINUOUS
 10
-11.1417094756
 20
18.5082905244
 11
-11.1417094756
 21
21.8941990932
  0
LINE
  5
2B1
100
AcDbEntity
  8
SUPERFICI
100
AcDbLine
 62
7
  6
CONTINUOUS
 10
-11.1329826078
 20
18.5170173922
 11
-11.1329826078
 21
18.1473460386
  0
LINE
  5
2B2
100
AcDbEntity
  8
SUPERFICI
100
AcDbLine
 62
7
  6
CONTINUOUS
 10
-11.1329826078
 20
-18.1473460386
 11
-11.1329826078
 21
-18.5170173922
  0
LINE
  5
2B3
100
AcDbEntity
  8
RACCORDO
100
AcDbLine
 62
253
  6
CONTINUOUS
 10
-10.7587019127
 20
17.5096157267
 11
-10.7587019127
 21
-17.5096157267
  0
LINE
  5
2B4
100
AcDbEntity
  8
ASSI
100
AcDbLine
 62
253
  6
CONTINUOUS
 10
-10.7587019127
 20
17.5096157267
 11
-10.7587019127
 21
-17.5096157267
  0
LINE
  5
2B5
100
AcDbEntity
  8
DRAFT
100
AcDbLine
 62
7
  6
CONTINUOUS
 10
-7.3
 20
20.9
 11
-7.3620095793
 21
20.5276115984
  0
LINE
  5
2B6
100
AcDbEntity
  8
RACCORDO
100
AcDbLine
 62
7
  6
CONTINUOUS
 10
2.5
 20
19.9
 11
2.4979803239
 21
19.8979803239
  0
LINE
  5
2B7
100
AcDbEntity
  8
ASSI
100
AcDbLine
 62
7
  6
CONTINUOUS
 10
2.5
 20
19.9
 11
2.4979803239
 21
19.8979803239
  0
LINE
  5
2B8
100
AcDbEntity
  8
SMUSSO
100
AcDbLine
 62
7
  6
CONTINUOUS
 10
0.0
 20
16.65
 11
0.5773502692
 21
17.2273502692
  0
LINE
  5
2B9
100
AcDbEntity
  8
ASSI
100
AcDbLine
 62
7
  6
CONTINUOUS
 10
0.0
 20
16.65
 11
0.5773502692
 21
17.2273502692
  0
LINE
  5
2BA
100
AcDbEntity
  8
DRAFT
100
AcDbLine
 62
7
  6
CONTINUOUS
 10
3.5
 20
19.9
 11
3.4109791689
 21
19.8109791689
  0
LINE
  5
2BB
100
AcDbEntity
  8
ASSI
100
AcDbLine
 62
7
  6
CONTINUOUS
 10
3.5
 20
19.9
 11
3.4109791689
 21
19.8109791689
  0
LINE
  5
2BC
100
AcDbEntity
  8
DRAFT
100
AcDbLine
 62
7
  6
CONTINUOUS
 10
3.5
 20
19.7
 11
3.4109791689
 21
19.6109791689
  0
LINE
  5
2BD
100
AcDbEntity
  8
ASSI
100
AcDbLine
 62
7
  6
CONTINUOUS
 10
3.5
 20
19.7
 11
3.4109791689
 21
19.6109791689
  0
LINE
  5
2BE
100
AcDbEntity
  8
SMUSSO
100
AcDbLine
 62
7
  6
CONTINUOUS
 10
-7.0
 20
8.35
 11
-7.5773502692
 21
7.7726497308
  0
LINE
  5
2BF
100
AcDbEntity
  8
ASSI
100
AcDbLine
 62
7
  6
CONTINUOUS
 10
-7.0
 20
8.35
 11
-7.5773502692
 21
7.7726497308
  0
LINE
  5
2C0
100
AcDbEntity
  8
DRAFT
100
AcDbLine
 62
7
  6
CONTINUOUS
 10
7.1905416262
 20
22.3359700255
 11
7.2558178298
 21
22.3941821702
  0
LINE
  5
2C1
100
AcDbEntity
  8
SUPERFICI
100
AcDbLine
 62
253
  6
CONTINUOUS
 10
11.1504363434
 20
21.900016923
 11
11.1417094756
 21
21.8941990932
  0
LINE
  5
2C2
100
AcDbEntity
  8
RACCORDO
100
AcDbLine
 62
253
  6
CONTINUOUS
 10
11.15
 20
17.6716990487
 11
10.7587019127
 21
17.5096157267
  0
LINE
  5
2C3
100
AcDbEntity
  8
ASSI
100
AcDbLine
 62
253
  6
CONTINUOUS
 10
11.15
 20
17.6716990487
 11
10.7587019127
 21
17.5096157267
  0
LINE
  5
2C4
100
AcDbEntity
  8
0
100
AcDbLine
 62
253
  6
CONTINUOUS
 10
10.7834994648
 20
-11.8
 11
10.8096780745
 21
-11.8
  0
LINE
  5
2C5
100
AcDbEntity
  8
INCISIONI
100
AcDbLine
 62
253
  6
CONTINUOUS
 10
11.0235718509
 20
-11.6571420074
 11
11.0093606055
 21
-11.6571420074
  0
LINE
  5
2C6
100
AcDbEntity
  8
0
100
AcDbLine
 62
253
  6
CONTINUOUS
 10
10.8838631171
 20
-11.61489
 11
10.870761497
 21
-11.61489
  0
LINE
  5
2C7
100
AcDbEntity
  8
0
100
AcDbLine
 62
253
  6
CONTINUOUS
 10
10.9596868106
 20
-11.61489
 11
10.9465851905
 21
-11.61489
  0
LINE
  5
2C8
100
AcDbEntity
  8
0
100
AcDbLine
 62
253
  6
CONTINUOUS
 10
10.7834994648
 20
-10.7285712242
 11
10.8096780745
 21
-10.7285712242
  0
LINE
  5
2C9
100
AcDbEntity
  8
INCISIONI
100
AcDbLine
 62
253
  6
CONTINUOUS
 10
11.0093606055
 20
-10.7071420074
 11
11.0235718509
 21
-10.7071420074
  0
LINE
  5
2CA
100
AcDbEntity
  8
INCISIONI
100
AcDbLine
 62
253
  6
CONTINUOUS
 10
11.0893480646
 20
-14.165656
 11
11.0540083805
 21
-14.158632
  0
LINE
  5
2CB
100
AcDbEntity
  8
RACCORDO
100
AcDbLine
 62
253
  6
CONTINUOUS
 10
10.7587019127
 20
-17.5096157267
 11
11.15
 21
-17.6716990487
  0
LINE
  5
2CC
100
AcDbEntity
  8
ASSI
100
AcDbLine
 62
253
  6
CONTINUOUS
 10
10.7587019127
 20
-17.5096157267
 11
11.15
 21
-17.6716990487
  0
LINE
  5
2CD
100
AcDbEntity
  8
SUPERFICI
100
AcDbLine
 62
253
  6
CONTINUOUS
 10
11.1417094756
 20
-21.8941990932
 11
11.1504363434
 21
-21.900016923
  0
LINE
  5
2CE
100
AcDbEntity
  8
DRAFT
100
AcDbLine
 62
7
  6
CONTINUOUS
 10
7.1905416262
 20
-22.3359700255
 11
7.2558178298
 21
-22.3941821702
  0
LINE
  5
2CF
100
AcDbEntity
  8
RACCORDO
100
AcDbLine
 62
7
  6
CONTINUOUS
 10
2.5
 20
-19.9
 11
2.4979803239
 21
-19.8979803239
  0
LINE
  5
2D0
100
AcDbEntity
  8
ASSI
100
AcDbLine
 62
7
  6
CONTINUOUS
 10
2.5
 20
-19.9
 11
2.4979803239
 21
-19.8979803239
  0
LINE
  5
2D1
100
AcDbEntity
  8
DRAFT
100
AcDbLine
 62
7
  6
CONTINUOUS
 10
3.4109791689
 20
-19.8109791689
 11
3.5
 21
-19.9
  0
LINE
  5
2D2
100
AcDbEntity
  8
ASSI
100
AcDbLine
 62
7
  6
CONTINUOUS
 10
3.4109791689
 20
-19.8109791689
 11
3.5
 21
-19.9
  0
LINE
  5
2D3
100
AcDbEntity
  8
DRAFT
100
AcDbLine
 62
7
  6
CONTINUOUS
 10
3.5
 20
-19.7
 11
3.4109791689
 21
-19.6109791689
  0
LINE
  5
2D4
100
AcDbEntity
  8
ASSI
100
AcDbLine
 62
7
  6
CONTINUOUS
 10
3.5
 20
-19.7
 11
3.4109791689
 21
-19.6109791689
  0
LINE
  5
2D5
100
AcDbEntity
  8
DRAFT
100
AcDbLine
 62
7
  6
CONTINUOUS
 10
-7.3620095793
 20
-20.5276115984
 11
-7.3
 21
-20.9
  0
LINE
  5
2D6
100
AcDbEntity
  8
SUPERFICI
100
AcDbLine
 62
253
  6
CONTINUOUS
 10
-10.145628166
 20
-23.8443375673
 11
-10.15
 21
-23.4104851482
  0
LINE
  5
2D7
100
AcDbEntity
  8
SUPERFICI
100
AcDbLine
 62
253
  6
CONTINUOUS
 10
-9.8956323968
 20
-23.6278312164
 11
-9.9007229979
 21
-23.1226497308
  0
LINE
  5
2D8
100
AcDbEntity
  8
SUPERFICI
100
AcDbLine
 62
7
  6
CONTINUOUS
 10
-10.15
 20
-23.4104851482
 11
-10.15
 21
-22.4
  0
LINE
  5
2D9
100
AcDbEntity
  8
SUPERFICI
100
AcDbLine
 62
7
  6
CONTINUOUS
 10
-10.15
 20
22.4
 11
-10.15
 21
23.4104851482
  0
LINE
  5
2DA
100
AcDbEntity
  8
SUPERFICI
100
AcDbLine
 62
7
  6
CONTINUOUS
 10
-10.145628166
 20
24.2456323968
 11
-10.145628166
 21
23.8443375673
  0
LINE
  5
2DB
100
AcDbEntity
  8
SUPERFICI
100
AcDbLine
 62
7
  6
CONTINUOUS
 10
-10.145628166
 20
-23.8443375673
 11
-10.145628166
 21
-24.2456323968
  0
LINE
  5
2DC
100
AcDbEntity
  8
SUPERFICI
100
AcDbLine
 62
253
  6
CONTINUOUS
 10
-9.8956323968
 20
-23.6278312164
 11
-9.8956323968
 21
-24.495628166
  0
LINE
  5
2DD
100
AcDbEntity
  8
SUPERFICI
100
AcDbLine
 62
253
  6
CONTINUOUS
 10
-9.8956323968
 20
23.6278312164
 11
-9.8956323968
 21
24.495628166
  0
LINE
  5
2DE
100
AcDbEntity
  8
RACCORDO
100
AcDbLine
 62
253
  6
CONTINUOUS
 10
-9.7588542176
 20
17.509618074
 11
-9.7588542176
 21
-17.509618074
  0
LINE
  5
2DF
100
AcDbEntity
  8
ASSI
100
AcDbLine
 62
253
  6
CONTINUOUS
 10
-9.7588542176
 20
17.509618074
 11
-9.7588542176
 21
-17.509618074
  0
LINE
  5
2E0
100
AcDbEntity
  8
SUPERFICI
100
AcDbLine
 62
7
  6
CONTINUOUS
 10
-9.65
 20
-20.1990396502
 11
-9.65
 21
-20.0
  0
LINE
  5
2E1
100
AcDbEntity
  8
SUPERFICI
100
AcDbLine
 62
7
  6
CONTINUOUS
 10
-9.65
 20
20.0
 11
-9.65
 21
20.1990396502
  0
LINE
  5
2E2
100
AcDbEntity
  8
RACCORDO
100
AcDbLine
 62
253
  6
CONTINUOUS
 10
-9.2882387315
 20
-18.3943840357
 11
-9.2882387315
 21
-19.3942317309
  0
LINE
  5
2E3
100
AcDbEntity
  8
ASSI
100
AcDbLine
 62
253
  6
CONTINUOUS
 10
-9.2882387315
 20
-18.3943840357
 11
-9.2882387315
 21
-19.3942317309
  0
LINE
  5
2E4
100
AcDbEntity
  8
RACCORDO
100
AcDbLine
 62
253
  6
CONTINUOUS
 10
-9.2882387315
 20
18.3943840357
 11
-9.2882387315
 21
19.3942317309
  0
LINE
  5
2E5
100
AcDbEntity
  8
ASSI
100
AcDbLine
 62
253
  6
CONTINUOUS
 10
-9.2882387315
 20
18.3943840357
 11
-9.2882387315
 21
19.3942317309
  0
LINE
  5
2E6
100
AcDbEntity
  8
SUPERFICI
100
AcDbLine
 62
253
  6
CONTINUOUS
 10
-10.15
 20
23.4104851482
 11
-10.145628166
 21
23.8443375673
  0
LINE
  5
2E7
100
AcDbEntity
  8
SUPERFICI
100
AcDbLine
 62
253
  6
CONTINUOUS
 10
-9.9007229979
 20
23.1226497308
 11
-9.8956323968
 21
23.6278312164
  0
LINE
  5
2E8
100
AcDbEntity
  8
DRAFT
100
AcDbLine
 62
7
  6
CONTINUOUS
 10
6.5959955457
 20
20.0959955457
 11
6.4372596706
 21
19.9372596706
  0
LINE
  5
2E9
100
AcDbEntity
  8
DRAFT
100
AcDbLine
 62
7
  6
CONTINUOUS
 10
6.5959955457
 20
19.7959955457
 11
6.5
 21
19.7
  0
LINE
  5
2EA
100
AcDbEntity
  8
0
100
AcDbLine
 62
253
  6
CONTINUOUS
 10
10.7872392664
 20
-10.3
 11
10.7909790679
 21
-10.3
  0
LINE
  5
2EB
100
AcDbEntity
  8
INCISIONI
100
AcDbLine
 62
253
  6
CONTINUOUS
 10
11.0235718509
 20
-10.1642848969
 11
11.0283089324
 21
-10.1642848969
  0
LINE
  5
2EC
100
AcDbEntity
  8
0
100
AcDbLine
 62
253
  6
CONTINUOUS
 10
10.8021984722
 20
-9.55
 11
10.8059382733
 21
-9.55
  0
LINE
  5
2ED
100
AcDbEntity
  8
DRAFT
100
AcDbLine
 62
7
  6
CONTINUOUS
 10
6.5959955457
 20
-20.0959955457
 11
6.4372596706
 21
-19.9372596706
  0
LINE
  5
2EE
100
AcDbEntity
  8
DRAFT
100
AcDbLine
 62
7
  6
CONTINUOUS
 10
6.5959955457
 20
-19.7959955457
 11
6.5
 21
-19.7
  0
LINE
  5
2EF
100
AcDbEntity
  8
SUPERFICI
100
AcDbLine
 62
253
  6
CONTINUOUS
 10
-7.5043676032
 20
23.6278312164
 11
-7.4992770021
 21
23.1226497308
  0
LINE
  5
2F0
100
AcDbEntity
  8
SUPERFICI
100
AcDbLine
 62
253
  6
CONTINUOUS
 10
-7.254371834
 20
23.8443375673
 11
-7.25
 21
23.4104851482
  0
LINE
  5
2F1
100
AcDbEntity
  8
DRAFT
100
AcDbLine
 62
7
  6
CONTINUOUS
 10
-8.25
 20
-21.4
 11
-8.25
 21
-20.9
  0
LINE
  5
2F2
100
AcDbEntity
  8
DRAFT
100
AcDbLine
 62
7
  6
CONTINUOUS
 10
-8.25
 20
20.9
 11
-8.25
 21
21.4
  0
LINE
  5
2F3
100
AcDbEntity
  8
DRAFT
100
AcDbLine
 62
253
  6
CONTINUOUS
 10
-8.0665695018
 20
-21.4537354271
 11
-8.0665695018
 21
-20.9917082642
  0
LINE
  5
2F4
100
AcDbEntity
  8
DRAFT
100
AcDbLine
 62
253
  6
CONTINUOUS
 10
-8.0665695018
 20
20.9917082642
 11
-8.0665695018
 21
21.4537354271
  0
LINE
  5
2F5
100
AcDbEntity
  8
SMUSSO
100
AcDbLine
 62
7
  6
CONTINUOUS
 10
-7.5773502692
 20
7.7726497308
 11
-7.5773502692
 21
12.2273502692
  0
LINE
  5
2F6
100
AcDbEntity
  8
ASSI
100
AcDbLine
 62
7
  6
CONTINUOUS
 10
-7.5773502692
 20
7.7726497308
 11
-7.5773502692
 21
12.2273502692
  0
LINE
  5
2F7
100
AcDbEntity
  8
SMUSSO
100
AcDbLine
 62
7
  6
CONTINUOUS
 10
-7.5773502692
 20
12.7726497308
 11
-7.5773502692
 21
17.2273502692
  0
LINE
  5
2F8
100
AcDbEntity
  8
ASSI
100
AcDbLine
 62
7
  6
CONTINUOUS
 10
-7.5773502692
 20
12.7726497308
 11
-7.5773502692
 21
17.2273502692
  0
LINE
  5
2F9
100
AcDbEntity
  8
DRAFT
100
AcDbLine
 62
253
  6
CONTINUOUS
 10
-7.5666456542
 20
-21.3359869487
 11
-7.5666456542
 21
-20.9959955457
  0
LINE
  5
2FA
100
AcDbEntity
  8
DRAFT
100
AcDbLine
 62
253
  6
CONTINUOUS
 10
-7.5666456542
 20
20.9959955457
 11
-7.5666456542
 21
21.3359869487
  0
LINE
  5
2FB
100
AcDbEntity
  8
SUPERFICI
100
AcDbLine
 62
253
  6
CONTINUOUS
 10
-7.5043676032
 20
-23.6278312164
 11
-7.5043676032
 21
-24.495628166
  0
LINE
  5
2FC
100
AcDbEntity
  8
SUPERFICI
100
AcDbLine
 62
253
  6
CONTINUOUS
 10
-7.5043676032
 20
23.6278312164
 11
-7.5043676032
 21
24.495628166
  0
LINE
  5
2FD
100
AcDbEntity
  8
DRAFT
100
AcDbLine
 62
7
  6
CONTINUOUS
 10
-7.4890208311
 20
-20.85
 11
-7.4890208311
 21
-19.6109791689
  0
LINE
  5
2FE
100
AcDbEntity
  8
ASSI
100
AcDbLine
 62
7
  6
CONTINUOUS
 10
-7.4890208311
 20
-20.85
 11
-7.4890208311
 21
-19.6109791689
  0
LINE
  5
2FF
100
AcDbEntity
  8
DRAFT
100
AcDbLine
 62
7
  6
CONTINUOUS
 10
-7.4890208311
 20
19.6109791689
 11
-7.4890208311
 21
20.85
  0
LINE
  5
300
100
AcDbEntity
  8
ASSI
100
AcDbLine
 62
7
  6
CONTINUOUS
 10
-7.4890208311
 20
19.6109791689
 11
-7.4890208311
 21
20.85
  0
LINE
  5
301
100
AcDbEntity
  8
DRAFT
100
AcDbLine
 62
7
  6
CONTINUOUS
 10
-7.4
 20
-20.85
 11
-7.4
 21
-19.7
  0
LINE
  5
302
100
AcDbEntity
  8
ASSI
100
AcDbLine
 62
7
  6
CONTINUOUS
 10
-7.4
 20
-20.85
 11
-7.4
 21
-19.7
  0
LINE
  5
303
100
AcDbEntity
  8
DRAFT
100
AcDbLine
 62
7
  6
CONTINUOUS
 10
-7.4
 20
19.7
 11
-7.4
 21
20.85
  0
LINE
  5
304
100
AcDbEntity
  8
ASSI
100
AcDbLine
 62
7
  6
CONTINUOUS
 10
-7.4
 20
19.7
 11
-7.4
 21
20.85
  0
LINE
  5
305
100
AcDbEntity
  8
SUPERFICI
100
AcDbLine
 62
7
  6
CONTINUOUS
 10
-7.254371834
 20
-24.2456323968
 11
-7.254371834
 21
-23.8443375673
  0
LINE
  5
306
100
AcDbEntity
  8
SUPERFICI
100
AcDbLine
 62
7
  6
CONTINUOUS
 10
-7.254371834
 20
23.8443375673
 11
-7.254371834
 21
24.2456323968
  0
LINE
  5
307
100
AcDbEntity
  8
SUPERFICI
100
AcDbLine
 62
7
  6
CONTINUOUS
 10
-7.25
 20
23.4104851482
 11
-7.25
 21
22.4
  0
LINE
  5
308
100
AcDbEntity
  8
SUPERFICI
100
AcDbLine
 62
7
  6
CONTINUOUS
 10
-7.25
 20
-22.4
 11
-7.25
 21
-23.4104851482
  0
LINE
  5
309
100
AcDbEntity
  8
DRAFT
100
AcDbLine
 62
7
  6
CONTINUOUS
 10
-7.2040044543
 20
-20.9959955457
 11
-7.2040044543
 21
-19.7959955457
  0
LINE
  5
30A
100
AcDbEntity
  8
DRAFT
100
AcDbLine
 62
7
  6
CONTINUOUS
 10
-7.2040044543
 20
19.7959955457
 11
-7.2040044543
 21
20.9959955457
  0
LINE
  5
30B
100
AcDbEntity
  8
SMUSSO
100
AcDbLine
 62
7
  6
CONTINUOUS
 10
-7.0
 20
8.35
 11
-7.0
 21
11.65
  0
LINE
  5
30C
100
AcDbEntity
  8
ASSI
100
AcDbLine
 62
7
  6
CONTINUOUS
 10
-7.0
 20
8.35
 11
-7.0
 21
11.65
  0
LINE
  5
30D
100
AcDbEntity
  8
SMUSSO
100
AcDbLine
 62
7
  6
CONTINUOUS
 10
-7.0
 20
13.35
 11
-7.0
 21
16.65
  0
LINE
  5
30E
100
AcDbEntity
  8
ASSI
100
AcDbLine
 62
7
  6
CONTINUOUS
 10
-7.0
 20
13.35
 11
-7.0
 21
16.65
  0
LINE
  5
30F
100
AcDbEntity
  8
SUPERFICI
100
AcDbLine
 62
253
  6
CONTINUOUS
 10
-7.4992770021
 20
-23.1226497308
 11
-7.5043676032
 21
-23.6278312164
  0
LINE
  5
310
100
AcDbEntity
  8
SUPERFICI
100
AcDbLine
 62
253
  6
CONTINUOUS
 10
-7.25
 20
-23.4104851482
 11
-7.254371834
 21
-23.8443375673
  0
LINE
  5
311
100
AcDbEntity
  8
SMUSSO
100
AcDbLine
 62
7
  6
CONTINUOUS
 10
-0.0
 20
11.65
 11
0.5773502692
 21
12.2273502692
  0
LINE
  5
312
100
AcDbEntity
  8
ASSI
100
AcDbLine
 62
7
  6
CONTINUOUS
 10
-0.0
 20
11.65
 11
0.5773502692
 21
12.2273502692
  0
LINE
  5
313
100
AcDbEntity
  8
INCISIONI
100
AcDbLine
 62
253
  6
CONTINUOUS
 10
11.0715407185
 20
-8.371575
 11
11.0540083805
 21
-8.371585
  0
LINE
  5
314
100
AcDbEntity
  8
INCISIONI
100
AcDbLine
 62
253
  6
CONTINUOUS
 10
11.0540083805
 20
-7.853838
 11
11.1045968413
 21
-7.853838
  0
LINE
  5
315
100
AcDbEntity
  8
0
100
AcDbLine
 62
253
  6
CONTINUOUS
 10
10.7834994648
 20
-7.3
 11
10.8096780745
 21
-7.3
  0
LINE
  5
316
100
AcDbEntity
  8
INCISIONI
100
AcDbLine
 62
253
  6
CONTINUOUS
 10
11.1045968413
 20
-7.238107
 11
11.0540083805
 21
-7.238107
  0
LINE
  5
317
100
AcDbEntity
  8
INCISIONI
100
AcDbLine
 62
253
  6
CONTINUOUS
 10
11.1045968413
 20
-8.371585
 11
11.0825401849
 21
-8.371575
  0
LINE
  5
318
100
AcDbEntity
  8
0
100
AcDbLine
 62
7
  6
CONTINUOUS
 10
-6.9
 20
8.55
 11
-6.9
 21
11.55
  0
LINE
  5
319
100
AcDbEntity
  8
0
100
AcDbLine
 62
7
  6
CONTINUOUS
 10
-6.9
 20
13.55
 11
-6.9
 21
16.55
  0
LINE
  5
31A
100
AcDbEntity
  8
DRAFT
100
AcDbLine
 62
7
  6
CONTINUOUS
 10
-6.5959955457
 20
20.0959955457
 11
-6.5959955457
 21
19.7959955457
  0
LINE
  5
31B
100
AcDbEntity
  8
DRAFT
100
AcDbLine
 62
7
  6
CONTINUOUS
 10
-6.5959955457
 20
-19.7959955457
 11
-6.5959955457
 21
-20.0959955457
  0
LINE
  5
31C
100
AcDbEntity
  8
RACCORDO
100
AcDbLine
 62
253
  6
CONTINUOUS
 10
9.2882387315
 20
18.3943840357
 11
9.9952378169
 21
19.1013831211
  0
LINE
  5
31D
100
AcDbEntity
  8
ASSI
100
AcDbLine
 62
253
  6
CONTINUOUS
 10
9.2882387315
 20
18.3943840357
 11
9.9952378169
 21
19.1013831211
  0
LINE
  5
31E
100
AcDbEntity
  8
RACCORDO
100
AcDbLine
 62
253
  6
CONTINUOUS
 10
9.4660056078
 20
18.2166171594
 11
10.1730046932
 21
18.9236162448
  0
LINE
  5
31F
100
AcDbEntity
  8
ASSI
100
AcDbLine
 62
253
  6
CONTINUOUS
 10
9.4660056078
 20
18.2166171594
 11
10.1730046932
 21
18.9236162448
  0
LINE
  5
320
100
AcDbEntity
  8
DRAFT
100
AcDbLine
 62
7
  6
CONTINUOUS
 10
9.5121049871
 20
11.9223308767
 11
9.6674550649
 21
12.0
  0
LINE
  5
321
100
AcDbEntity
  8
0
100
AcDbLine
 62
253
  6
CONTINUOUS
 10
10.8059382733
 20
-6.8714287758
 11
10.798458671
 21
-6.8714287758
  0
LINE
  5
322
100
AcDbEntity
  8
INCISIONI
100
AcDbLine
 62
253
  6
CONTINUOUS
 10
11.0540083805
 20
-6.720338
 11
11.1045968413
 21
-6.720338
  0
LINE
  5
323
100
AcDbEntity
  8
0
100
AcDbLine
 62
253
  6
CONTINUOUS
 10
10.7834994648
 20
-6.1214287758
 11
10.8096780745
 21
-6.1214287758
  0
LINE
  5
324
100
AcDbEntity
  8
INCISIONI
100
AcDbLine
 62
253
  6
CONTINUOUS
 10
11.0620373587
 20
-6.097666
 11
11.0540083805
 21
-6.097666
  0
LINE
  5
325
100
AcDbEntity
  8
INCISIONI
100
AcDbLine
 62
253
  6
CONTINUOUS
 10
11.1045968413
 20
-6.086013
 11
11.0965678631
 21
-6.086013
  0
LINE
  5
326
100
AcDbEntity
  8
INCISIONI
100
AcDbLine
 62
253
  6
CONTINUOUS
 10
11.0839887932
 20
-5.982127
 11
11.0759596405
 21
-5.982127
  0
LINE
  5
327
100
AcDbEntity
  8
0
100
AcDbLine
 62
253
  6
CONTINUOUS
 10
10.7872392664
 20
-5.6928568363
 11
10.8096780745
 21
-5.6928568363
  0
LINE
  5
328
100
AcDbEntity
  8
RACCORDO
100
AcDbLine
 62
253
  6
CONTINUOUS
 10
9.2882387315
 20
-18.3943840357
 11
9.9952378169
 21
-19.1013831211
  0
LINE
  5
329
100
AcDbEntity
  8
ASSI
100
AcDbLine
 62
253
  6
CONTINUOUS
 10
9.2882387315
 20
-18.3943840357
 11
9.9952378169
 21
-19.1013831211
  0
LINE
  5
32A
100
AcDbEntity
  8
RACCORDO
100
AcDbLine
 62
253
  6
CONTINUOUS
 10
9.4660056078
 20
-18.2166171594
 11
10.1730046932
 21
-18.9236162448
  0
LINE
  5
32B
100
AcDbEntity
  8
ASSI
100
AcDbLine
 62
253
  6
CONTINUOUS
 10
9.4660056078
 20
-18.2166171594
 11
10.1730046932
 21
-18.9236162448
  0
LINE
  5
32C
100
AcDbEntity
  8
SUPERFICI
100
AcDbLine
 62
7
  6
CONTINUOUS
 10
-4.45
 20
24.0
 11
-4.45
 21
23.4413184673
  0
LINE
  5
32D
100
AcDbEntity
  8
SUPERFICI
100
AcDbLine
 62
7
  6
CONTINUOUS
 10
-4.45
 20
22.8586815327
 11
-4.45
 21
22.4
  0
LINE
  5
32E
100
AcDbEntity
  8
SUPERFICI
100
AcDbLine
 62
7
  6
CONTINUOUS
 10
-4.45
 20
-22.4
 11
-4.45
 21
-22.8586815327
  0
LINE
  5
32F
100
AcDbEntity
  8
SUPERFICI
100
AcDbLine
 62
7
  6
CONTINUOUS
 10
-4.45
 20
-23.4413184673
 11
-4.45
 21
-24.0
  0
LINE
  5
330
100
AcDbEntity
  8
SUPERFICI
100
AcDbLine
 62
7
  6
CONTINUOUS
 10
-4.4063662764
 20
-22.8586815327
 11
-4.4063662764
 21
-23.4413184673
  0
LINE
  5
331
100
AcDbEntity
  8
SUPERFICI
100
AcDbLine
 62
7
  6
CONTINUOUS
 10
-4.4063662764
 20
22.8586815327
 11
-4.4063662764
 21
23.4413184673
  0
LINE
  5
332
100
AcDbEntity
  8
SUPERFICI
100
AcDbLine
 62
7
  6
CONTINUOUS
 10
-4.406077753
 20
23.9538922731
 11
-4.406077753
 21
22.356077753
  0
LINE
  5
333
100
AcDbEntity
  8
SUPERFICI
100
AcDbLine
 62
7
  6
CONTINUOUS
 10
-4.406077753
 20
-22.356077753
 11
-4.406077753
 21
-23.9538922731
  0
LINE
  5
334
100
AcDbEntity
  8
DRAFT
100
AcDbLine
 62
7
  6
CONTINUOUS
 10
-3.5
 20
19.9
 11
-3.5
 21
19.7
  0
LINE
  5
335
100
AcDbEntity
  8
ASSI
100
AcDbLine
 62
7
  6
CONTINUOUS
 10
-3.5
 20
19.9
 11
-3.5
 21
19.7
  0
LINE
  5
336
100
AcDbEntity
  8
DRAFT
100
AcDbLine
 62
7
  6
CONTINUOUS
 10
-3.5
 20
-19.7
 11
-3.5
 21
-19.9
  0
LINE
  5
337
100
AcDbEntity
  8
ASSI
100
AcDbLine
 62
7
  6
CONTINUOUS
 10
-3.5
 20
-19.7
 11
-3.5
 21
-19.9
  0
LINE
  5
338
100
AcDbEntity
  8
DRAFT
100
AcDbLine
 62
7
  6
CONTINUOUS
 10
-3.5
 20
-20.0087268678
 11
-3.5
 21
-20.0532338935
  0
LINE
  5
339
100
AcDbEntity
  8
SUPERFICI
100
AcDbLine
 62
7
  6
CONTINUOUS
 10
-3.5
 20
-22.3560930869
 11
-3.5
 21
-23.9563493531
  0
LINE
  5
33A
100
AcDbEntity
  8
DRAFT
100
AcDbLine
 62
7
  6
CONTINUOUS
 10
-3.5
 20
20.0087268678
 11
-3.5
 21
20.0532338935
  0
LINE
  5
33B
100
AcDbEntity
  8
SUPERFICI
100
AcDbLine
 62
7
  6
CONTINUOUS
 10
-3.5
 20
22.3560930869
 11
-3.5
 21
23.9563493531
  0
LINE
  5
33C
100
AcDbEntity
  8
DRAFT
100
AcDbLine
 62
7
  6
CONTINUOUS
 10
-3.4109791689
 20
19.8109791689
 11
-3.4109791689
 21
19.6109791689
  0
LINE
  5
33D
100
AcDbEntity
  8
ASSI
100
AcDbLine
 62
7
  6
CONTINUOUS
 10
-3.4109791689
 20
19.8109791689
 11
-3.4109791689
 21
19.6109791689
  0
LINE
  5
33E
100
AcDbEntity
  8
DRAFT
100
AcDbLine
 62
7
  6
CONTINUOUS
 10
-3.4109791689
 20
-19.6109791689
 11
-3.4109791689
 21
-19.8109791689
  0
LINE
  5
33F
100
AcDbEntity
  8
ASSI
100
AcDbLine
 62
7
  6
CONTINUOUS
 10
-3.4109791689
 20
-19.6109791689
 11
-3.4109791689
 21
-19.8109791689
  0
LINE
  5
340
100
AcDbEntity
  8
0
100
AcDbLine
 62
253
  6
CONTINUOUS
 10
10.8096780745
 20
-4.9428568363
 11
10.7872392664
 21
-4.9428568363
  0
LINE
  5
341
100
AcDbEntity
  8
INCISIONI
100
AcDbLine
 62
253
  6
CONTINUOUS
 10
11.075959466
 20
-4.554832
 11
11.0620370795
 21
-4.554832
  0
LINE
  5
342
100
AcDbEntity
  8
INCISIONI
100
AcDbLine
 62
253
  6
CONTINUOUS
 10
11.0965679678
 20
-4.554832
 11
11.0839889677
 21
-4.554832
  0
LINE
  5
343
100
AcDbEntity
  8
0
100
AcDbLine
 62
253
  6
CONTINUOUS
 10
10.7834994648
 20
-4.0857143879
 11
10.8096780745
 21
-4.0857143879
  0
LINE
  5
344
100
AcDbEntity
  8
INCISIONI
100
AcDbLine
 62
253
  6
CONTINUOUS
 10
11.0540083805
 20
-4.037094
 11
11.1045968413
 21
-4.037094
  0
LINE
  5
345
100
AcDbEntity
  8
SUPERFICI
100
AcDbLine
 62
7
  6
CONTINUOUS
 10
-3.0
 20
-20.8
 11
-3.0
 21
-22.3359700255
  0
LINE
  5
346
100
AcDbEntity
  8
SUPERFICI
100
AcDbLine
 62
7
  6
CONTINUOUS
 10
-3.0
 20
20.8
 11
-3.0
 21
22.3359700255
  0
LINE
  5
347
100
AcDbEntity
  8
RACCORDO
100
AcDbLine
 62
7
  6
CONTINUOUS
 10
-2.5
 20
20.0619607613
 11
-2.5
 21
19.9
  0
LINE
  5
348
100
AcDbEntity
  8
ASSI
100
AcDbLine
 62
7
  6
CONTINUOUS
 10
-2.5
 20
20.0619607613
 11
-2.5
 21
19.9
  0
LINE
  5
349
100
AcDbEntity
  8
RACCORDO
100
AcDbLine
 62
7
  6
CONTINUOUS
 10
-2.5
 20
-19.9
 11
-2.5
 21
-20.0619607613
  0
LINE
  5
34A
100
AcDbEntity
  8
ASSI
100
AcDbLine
 62
7
  6
CONTINUOUS
 10
-2.5
 20
-19.9
 11
-2.5
 21
-20.0619607613
  0
LINE
  5
34B
100
AcDbEntity
  8
RACCORDO
100
AcDbLine
 62
253
  6
CONTINUOUS
 10
-2.4979803239
 20
-20.0619607613
 11
-2.4979803239
 21
-19.8979803239
  0
LINE
  5
34C
100
AcDbEntity
  8
ASSI
100
AcDbLine
 62
253
  6
CONTINUOUS
 10
-2.4979803239
 20
-20.0619607613
 11
-2.4979803239
 21
-19.8979803239
  0
LINE
  5
34D
100
AcDbEntity
  8
RACCORDO
100
AcDbLine
 62
253
  6
CONTINUOUS
 10
-2.4979803239
 20
19.8979803239
 11
-2.4979803239
 21
20.0619607613
  0
LINE
  5
34E
100
AcDbEntity
  8
ASSI
100
AcDbLine
 62
253
  6
CONTINUOUS
 10
-2.4979803239
 20
19.8979803239
 11
-2.4979803239
 21
20.0619607613
  0
LINE
  5
34F
100
AcDbEntity
  8
0
100
AcDbLine
 62
7
  6
CONTINUOUS
 10
-2.0
 20
16.55
 11
-2.0
 21
13.55
  0
LINE
  5
350
100
AcDbEntity
  8
0
100
AcDbLine
 62
7
  6
CONTINUOUS
 10
-2.0
 20
11.55
 11
-2.0
 21
8.55
  0
LINE
  5
351
100
AcDbEntity
  8
RACCORDO
100
AcDbLine
 62
253
  6
CONTINUOUS
 10
-1.5981173983
 20
-20.060982328
 11
-1.5981173983
 21
-19.8825449351
  0
LINE
  5
352
100
AcDbEntity
  8
ASSI
100
AcDbLine
 62
253
  6
CONTINUOUS
 10
-1.5981173983
 20
-20.060982328
 11
-1.5981173983
 21
-19.8825449351
  0
LINE
  5
353
100
AcDbEntity
  8
RACCORDO
100
AcDbLine
 62
253
  6
CONTINUOUS
 10
-1.5981173983
 20
19.8825449351
 11
-1.5981173983
 21
20.060982328
  0
LINE
  5
354
100
AcDbEntity
  8
ASSI
100
AcDbLine
 62
253
  6
CONTINUOUS
 10
-1.5981173983
 20
19.8825449351
 11
-1.5981173983
 21
20.060982328
  0
LINE
  5
355
100
AcDbEntity
  8
SUPERFICI
100
AcDbLine
 62
7
  6
CONTINUOUS
 10
-9.6002704183
 20
-20.0497295817
 11
-9.65
 21
-20.1990396502
  0
LINE
  5
356
100
AcDbEntity
  8
SUPERFICI
100
AcDbLine
 62
7
  6
CONTINUOUS
 10
-8.8999507078
 20
-20.7500492922
 11
-8.9498936624
 21
-20.9
  0
LINE
  5
357
100
AcDbEntity
  8
RACCORDO
100
AcDbLine
 62
253
  6
CONTINUOUS
 10
-9.9952378169
 20
-19.1013831211
 11
-10.0850175454
 21
-19.3181305591
  0
LINE
  5
358
100
AcDbEntity
  8
ASSI
100
AcDbLine
 62
253
  6
CONTINUOUS
 10
-9.9952378169
 20
-19.1013831211
 11
-10.0850175454
 21
-19.3181305591
  0
LINE
  5
359
100
AcDbEntity
  8
0
100
AcDbLine
 62
253
  6
CONTINUOUS
 10
10.8059382733
 20
-1.9428568363
 11
10.798458671
 21
-1.9428568363
  0
LINE
  5
35A
100
AcDbEntity
  8
RACCORDO
100
AcDbLine
 62
253
  6
CONTINUOUS
 10
-10.0850175454
 20
19.3181305591
 11
-9.9952378169
 21
19.1013831211
  0
LINE
  5
35B
100
AcDbEntity
  8
ASSI
100
AcDbLine
 62
253
  6
CONTINUOUS
 10
-10.0850175454
 20
19.3181305591
 11
-9.9952378169
 21
19.1013831211
  0
LINE
  5
35C
100
AcDbEntity
  8
SUPERFICI
100
AcDbLine
 62
7
  6
CONTINUOUS
 10
-9.65
 20
20.1990396502
 11
-9.6002704183
 21
20.0497295817
  0
LINE
  5
35D
100
AcDbEntity
  8
SUPERFICI
100
AcDbLine
 62
7
  6
CONTINUOUS
 10
-8.9498936624
 20
20.9
 11
-8.8999507078
 21
20.7500492922
  0
LINE
  5
35E
100
AcDbEntity
  8
SUPERFICI
100
AcDbLine
 62
7
  6
CONTINUOUS
 10
-1.0
 20
-23.7941787855
 11
-1.0
 21
-22.3947639644
  0
LINE
  5
35F
100
AcDbEntity
  8
SUPERFICI
100
AcDbLine
 62
7
  6
CONTINUOUS
 10
-1.0
 20
22.3947639644
 11
-1.0
 21
23.7941787855
  0
LINE
  5
360
100
AcDbEntity
  8
SMUSSO
100
AcDbLine
 62
7
  6
CONTINUOUS
 10
0.0
 20
16.65
 11
0.0
 21
13.35
  0
LINE
  5
361
100
AcDbEntity
  8
ASSI
100
AcDbLine
 62
7
  6
CONTINUOUS
 10
0.0
 20
16.65
 11
0.0
 21
13.35
  0
LINE
  5
362
100
AcDbEntity
  8
SMUSSO
100
AcDbLine
 62
7
  6
CONTINUOUS
 10
-0.0
 20
11.65
 11
-0.0
 21
8.35
  0
LINE
  5
363
100
AcDbEntity
  8
ASSI
100
AcDbLine
 62
7
  6
CONTINUOUS
 10
-0.0
 20
11.65
 11
-0.0
 21
8.35
  0
LINE
  5
364
100
AcDbEntity
  8
RACCORDO
100
AcDbLine
 62
253
  6
CONTINUOUS
 10
-9.2882387315
 20
-19.3942317309
 11
-9.37801846
 21
-19.6109791689
  0
LINE
  5
365
100
AcDbEntity
  8
ASSI
100
AcDbLine
 62
253
  6
CONTINUOUS
 10
-9.2882387315
 20
-19.3942317309
 11
-9.37801846
 21
-19.6109791689
  0
LINE
  5
366
100
AcDbEntity
  8
0
100
AcDbLine
 62
253
  6
CONTINUOUS
 10
10.7834994648
 20
-1.1928571939
 11
10.8096780745
 21
-1.1928571939
  0
LINE
  5
367
100
AcDbEntity
  8
0
100
AcDbLine
 62
253
  6
CONTINUOUS
 10
10.7834994648
 20
-0.1214284182
 11
10.8096780745
 21
-0.1214284182
  0
LINE
  5
368
100
AcDbEntity
  8
RACCORDO
100
AcDbLine
 62
253
  6
CONTINUOUS
 10
-9.37801846
 20
19.6109791689
 11
-9.2882387315
 21
19.3942317309
  0
LINE
  5
369
100
AcDbEntity
  8
ASSI
100
AcDbLine
 62
253
  6
CONTINUOUS
 10
-9.37801846
 20
19.6109791689
 11
-9.2882387315
 21
19.3942317309
  0
LINE
  5
36A
100
AcDbEntity
  8
SMUSSO
100
AcDbLine
 62
7
  6
CONTINUOUS
 10
0.5773502692
 20
17.2273502692
 11
0.5773502692
 21
12.7726497308
  0
LINE
  5
36B
100
AcDbEntity
  8
ASSI
100
AcDbLine
 62
7
  6
CONTINUOUS
 10
0.5773502692
 20
17.2273502692
 11
0.5773502692
 21
12.7726497308
  0
LINE
  5
36C
100
AcDbEntity
  8
SMUSSO
100
AcDbLine
 62
7
  6
CONTINUOUS
 10
0.5773502692
 20
12.2273502692
 11
0.5773502692
 21
7.7726497308
  0
LINE
  5
36D
100
AcDbEntity
  8
ASSI
100
AcDbLine
 62
7
  6
CONTINUOUS
 10
0.5773502692
 20
12.2273502692
 11
0.5773502692
 21
7.7726497308
  0
LINE
  5
36E
100
AcDbEntity
  8
SUPERFICI
100
AcDbLine
 62
7
  6
CONTINUOUS
 10
1.0
 20
-23.7941787855
 11
1.0
 21
-22.3947639644
  0
LINE
  5
36F
100
AcDbEntity
  8
SUPERFICI
100
AcDbLine
 62
7
  6
CONTINUOUS
 10
1.0
 20
22.3947639644
 11
1.0
 21
23.7941787855
  0
LINE
  5
370
100
AcDbEntity
  8
RACCORDO
100
AcDbLine
 62
253
  6
CONTINUOUS
 10
1.5981173983
 20
20.060982328
 11
1.5981173983
 21
19.8825449351
  0
LINE
  5
371
100
AcDbEntity
  8
ASSI
100
AcDbLine
 62
253
  6
CONTINUOUS
 10
1.5981173983
 20
20.060982328
 11
1.5981173983
 21
19.8825449351
  0
LINE
  5
372
100
AcDbEntity
  8
RACCORDO
100
AcDbLine
 62
253
  6
CONTINUOUS
 10
1.5981173983
 20
-19.8825449351
 11
1.5981173983
 21
-20.060982328
  0
LINE
  5
373
100
AcDbEntity
  8
ASSI
100
AcDbLine
 62
253
  6
CONTINUOUS
 10
1.5981173983
 20
-19.8825449351
 11
1.5981173983
 21
-20.060982328
  0
LINE
  5
374
100
AcDbEntity
  8
SUPERFICI
100
AcDbLine
 62
7
  6
CONTINUOUS
 10
8.9498936624
 20
20.9
 11
8.8999507078
 21
20.7500492922
  0
LINE
  5
375
100
AcDbEntity
  8
RACCORDO
100
AcDbLine
 62
253
  6
CONTINUOUS
 10
9.2882387315
 20
19.3942317309
 11
9.37801846
 21
19.6109791689
  0
LINE
  5
376
100
AcDbEntity
  8
ASSI
100
AcDbLine
 62
253
  6
CONTINUOUS
 10
9.2882387315
 20
19.3942317309
 11
9.37801846
 21
19.6109791689
  0
LINE
  5
377
100
AcDbEntity
  8
RACCORDO
100
AcDbLine
 62
253
  6
CONTINUOUS
 10
9.9952378169
 20
19.1013831211
 11
10.0850175454
 21
19.3181305591
  0
LINE
  5
378
100
AcDbEntity
  8
ASSI
100
AcDbLine
 62
253
  6
CONTINUOUS
 10
9.9952378169
 20
19.1013831211
 11
10.0850175454
 21
19.3181305591
  0
LINE
  5
379
100
AcDbEntity
  8
0
100
AcDbLine
 62
253
  6
CONTINUOUS
 10
10.8059382733
 20
0.3071428061
 11
10.798458671
 21
0.3071428061
  0
LINE
  5
37A
100
AcDbEntity
  8
0
100
AcDbLine
 62
253
  6
CONTINUOUS
 10
10.7834994648
 20
1.0571428061
 11
10.8096780745
 21
1.0571428061
  0
LINE
  5
37B
100
AcDbEntity
  8
0
100
AcDbLine
 62
253
  6
CONTINUOUS
 10
10.8096780745
 20
1.4857143879
 11
10.7834994648
 21
1.4857143879
  0
LINE
  5
37C
100
AcDbEntity
  8
0
100
AcDbLine
 62
253
  6
CONTINUOUS
 10
11.0148456478
 20
1.5714292526
 11
10.9998864416
 21
1.5714292526
  0
LINE
  5
37D
100
AcDbEntity
  8
RACCORDO
100
AcDbLine
 62
253
  6
CONTINUOUS
 10
9.37801846
 20
-19.6109791689
 11
9.2882387315
 21
-19.3942317309
  0
LINE
  5
37E
100
AcDbEntity
  8
ASSI
100
AcDbLine
 62
253
  6
CONTINUOUS
 10
9.37801846
 20
-19.6109791689
 11
9.2882387315
 21
-19.3942317309
  0
LINE
  5
37F
100
AcDbEntity
  8
RACCORDO
100
AcDbLine
 62
253
  6
CONTINUOUS
 10
10.0850175454
 20
-19.3181305591
 11
9.9952378169
 21
-19.1013831211
  0
LINE
  5
380
100
AcDbEntity
  8
ASSI
100
AcDbLine
 62
253
  6
CONTINUOUS
 10
10.0850175454
 20
-19.3181305591
 11
9.9952378169
 21
-19.1013831211
  0
LINE
  5
381
100
AcDbEntity
  8
SUPERFICI
100
AcDbLine
 62
7
  6
CONTINUOUS
 10
8.8999507078
 20
-20.7500492922
 11
8.9498936624
 21
-20.9
  0
LINE
  5
382
100
AcDbEntity
  8
RACCORDO
100
AcDbLine
 62
253
  6
CONTINUOUS
 10
2.4979803239
 20
20.0619607613
 11
2.4979803239
 21
19.8979803239
  0
LINE
  5
383
100
AcDbEntity
  8
ASSI
100
AcDbLine
 62
253
  6
CONTINUOUS
 10
2.4979803239
 20
20.0619607613
 11
2.4979803239
 21
19.8979803239
  0
LINE
  5
384
100
AcDbEntity
  8
RACCORDO
100
AcDbLine
 62
253
  6
CONTINUOUS
 10
2.4979803239
 20
-19.8979803239
 11
2.4979803239
 21
-20.0619607613
  0
LINE
  5
385
100
AcDbEntity
  8
ASSI
100
AcDbLine
 62
253
  6
CONTINUOUS
 10
2.4979803239
 20
-19.8979803239
 11
2.4979803239
 21
-20.0619607613
  0
LINE
  5
386
100
AcDbEntity
  8
RACCORDO
100
AcDbLine
 62
7
  6
CONTINUOUS
 10
2.5
 20
20.0619607613
 11
2.5
 21
19.9
  0
LINE
  5
387
100
AcDbEntity
  8
ASSI
100
AcDbLine
 62
7
  6
CONTINUOUS
 10
2.5
 20
20.0619607613
 11
2.5
 21
19.9
  0
LINE
  5
388
100
AcDbEntity
  8
RACCORDO
100
AcDbLine
 62
7
  6
CONTINUOUS
 10
2.5
 20
-19.9
 11
2.5
 21
-20.0619607613
  0
LINE
  5
389
100
AcDbEntity
  8
ASSI
100
AcDbLine
 62
7
  6
CONTINUOUS
 10
2.5
 20
-19.9
 11
2.5
 21
-20.0619607613
  0
LINE
  5
38A
100
AcDbEntity
  8
SUPERFICI
100
AcDbLine
 62
7
  6
CONTINUOUS
 10
3.0
 20
-20.8
 11
3.0
 21
-22.3359700255
  0
LINE
  5
38B
100
AcDbEntity
  8
SUPERFICI
100
AcDbLine
 62
7
  6
CONTINUOUS
 10
3.0
 20
20.8
 11
3.0
 21
22.3359700255
  0
LINE
  5
38C
100
AcDbEntity
  8
DRAFT
100
AcDbLine
 62
7
  6
CONTINUOUS
 10
3.4109791689
 20
19.8109791689
 11
3.4109791689
 21
19.6109791689
  0
LINE
  5
38D
100
AcDbEntity
  8
ASSI
100
AcDbLine
 62
7
  6
CONTINUOUS
 10
3.4109791689
 20
19.8109791689
 11
3.4109791689
 21
19.6109791689
  0
LINE
  5
38E
100
AcDbEntity
  8
DRAFT
100
AcDbLine
 62
7
  6
CONTINUOUS
 10
3.4109791689
 20
-19.6109791689
 11
3.4109791689
 21
-19.8109791689
  0
LINE
  5
38F
100
AcDbEntity
  8
ASSI
100
AcDbLine
 62
7
  6
CONTINUOUS
 10
3.4109791689
 20
-19.6109791689
 11
3.4109791689
 21
-19.8109791689
  0
LINE
  5
390
100
AcDbEntity
  8
DRAFT
100
AcDbLine
 62
7
  6
CONTINUOUS
 10
3.5
 20
20.0532338935
 11
3.5
 21
20.0087268678
  0
LINE
  5
391
100
AcDbEntity
  8
DRAFT
100
AcDbLine
 62
7
  6
CONTINUOUS
 10
3.5
 20
19.9
 11
3.5
 21
19.7
  0
LINE
  5
392
100
AcDbEntity
  8
ASSI
100
AcDbLine
 62
7
  6
CONTINUOUS
 10
3.5
 20
19.9
 11
3.5
 21
19.7
  0
LINE
  5
393
100
AcDbEntity
  8
DRAFT
100
AcDbLine
 62
7
  6
CONTINUOUS
 10
3.5
 20
-19.7
 11
3.5
 21
-19.9
  0
LINE
  5
394
100
AcDbEntity
  8
ASSI
100
AcDbLine
 62
7
  6
CONTINUOUS
 10
3.5
 20
-19.7
 11
3.5
 21
-19.9
  0
LINE
  5
395
100
AcDbEntity
  8
DRAFT
100
AcDbLine
 62
7
  6
CONTINUOUS
 10
3.5
 20
-20.0532338935
 11
3.5
 21
-20.0087268678
  0
LINE
  5
396
100
AcDbEntity
  8
SUPERFICI
100
AcDbLine
 62
7
  6
CONTINUOUS
 10
3.5
 20
-22.3560930869
 11
3.5
 21
-23.9563493531
  0
LINE
  5
397
100
AcDbEntity
  8
SUPERFICI
100
AcDbLine
 62
7
  6
CONTINUOUS
 10
3.5
 20
22.3560930869
 11
3.5
 21
23.9563493531
  0
LINE
  5
398
100
AcDbEntity
  8
SUPERFICI
100
AcDbLine
 62
7
  6
CONTINUOUS
 10
9.65
 20
20.1990396502
 11
9.6002704183
 21
20.0497295817
  0
LINE
  5
399
100
AcDbEntity
  8
0
100
AcDbLine
 62
253
  6
CONTINUOUS
 10
10.7834994648
 20
2.3428571939
 11
10.8096780745
 21
2.3428571939
  0
LINE
  5
39A
100
AcDbEntity
  8
0
100
AcDbLine
 62
253
  6
CONTINUOUS
 10
11.0260650513
 20
2.9642853737
 11
10.9998864416
 21
2.9642853737
  0
LINE
  5
39B
100
AcDbEntity
  8
0
100
AcDbLine
 62
253
  6
CONTINUOUS
 10
10.7834994648
 20
3.4142857015
 11
10.8096780745
 21
3.4142857015
  0
LINE
  5
39C
100
AcDbEntity
  8
SMUSSO
100
AcDbLine
 62
7
  6
CONTINUOUS
 10
-7.0
 20
11.65
 11
-7.5773502692
 21
12.2273502692
  0
LINE
  5
39D
100
AcDbEntity
  8
ASSI
100
AcDbLine
 62
7
  6
CONTINUOUS
 10
-7.0
 20
11.65
 11
-7.5773502692
 21
12.2273502692
  0
LINE
  5
39E
100
AcDbEntity
  8
SUPERFICI
100
AcDbLine
 62
7
  6
CONTINUOUS
 10
9.6002704183
 20
-20.0497295817
 11
9.65
 21
-20.1990396502
  0
LINE
  5
39F
100
AcDbEntity
  8
SUPERFICI
100
AcDbLine
 62
7
  6
CONTINUOUS
 10
4.406077753
 20
23.9538922731
 11
4.406077753
 21
22.356077753
  0
LINE
  5
3A0
100
AcDbEntity
  8
SUPERFICI
100
AcDbLine
 62
7
  6
CONTINUOUS
 10
4.406077753
 20
-22.356077753
 11
4.406077753
 21
-23.9538922731
  0
LINE
  5
3A1
100
AcDbEntity
  8
SUPERFICI
100
AcDbLine
 62
7
  6
CONTINUOUS
 10
4.4063662764
 20
-22.8586815327
 11
4.4063662764
 21
-23.4413184673
  0
LINE
  5
3A2
100
AcDbEntity
  8
SUPERFICI
100
AcDbLine
 62
7
  6
CONTINUOUS
 10
4.4063662764
 20
22.8586815327
 11
4.4063662764
 21
23.4413184673
  0
LINE
  5
3A3
100
AcDbEntity
  8
SUPERFICI
100
AcDbLine
 62
7
  6
CONTINUOUS
 10
4.45
 20
-24.0
 11
4.45
 21
-23.4413184673
  0
LINE
  5
3A4
100
AcDbEntity
  8
SUPERFICI
100
AcDbLine
 62
7
  6
CONTINUOUS
 10
4.45
 20
-22.8586815327
 11
4.45
 21
-22.4
  0
LINE
  5
3A5
100
AcDbEntity
  8
SUPERFICI
100
AcDbLine
 62
7
  6
CONTINUOUS
 10
4.45
 20
22.4
 11
4.45
 21
22.8586815327
  0
LINE
  5
3A6
100
AcDbEntity
  8
SUPERFICI
100
AcDbLine
 62
7
  6
CONTINUOUS
 10
4.45
 20
23.4413184673
 11
4.45
 21
24.0
  0
LINE
  5
3A7
100
AcDbEntity
  8
0
100
AcDbLine
 62
253
  6
CONTINUOUS
 10
10.7834994648
 20
4.2714285523
 11
10.8096780745
 21
4.2714285523
  0
LINE
  5
3A8
100
AcDbEntity
  8
0
100
AcDbLine
 62
253
  6
CONTINUOUS
 10
10.9998864416
 20
5.1071429253
 11
11.0260650513
 21
5.1071429253
  0
LINE
  5
3A9
100
AcDbEntity
  8
INCISIONI
100
AcDbLine
 62
253
  6
CONTINUOUS
 10
11.0777556047
 20
5.30544429
 11
11.0780545961
 21
5.30544429
  0
LINE
  5
3AA
100
AcDbEntity
  8
SUPERFICI
100
AcDbLine
 62
253
  6
CONTINUOUS
 10
7.254371834
 20
-23.8443375673
 11
7.25
 21
-23.4104851482
  0
LINE
  5
3AB
100
AcDbEntity
  8
SUPERFICI
100
AcDbLine
 62
253
  6
CONTINUOUS
 10
7.5043676032
 20
-23.6278312164
 11
7.4992770021
 21
-23.1226497308
  0
LINE
  5
3AC
100
AcDbEntity
  8
DRAFT
100
AcDbLine
 62
7
  6
CONTINUOUS
 10
6.5959955457
 20
-20.0959955457
 11
6.5959955457
 21
-19.7959955457
  0
LINE
  5
3AD
100
AcDbEntity
  8
DRAFT
100
AcDbLine
 62
7
  6
CONTINUOUS
 10
6.5959955457
 20
19.7959955457
 11
6.5959955457
 21
20.0959955457
  0
LINE
  5
3AE
100
AcDbEntity
  8
DRAFT
100
AcDbLine
 62
7
  6
CONTINUOUS
 10
7.2040044543
 20
20.9959955457
 11
7.2040044543
 21
19.7959955457
  0
LINE
  5
3AF
100
AcDbEntity
  8
DRAFT
100
AcDbLine
 62
7
  6
CONTINUOUS
 10
7.2040044543
 20
-19.7959955457
 11
7.2040044543
 21
-20.9959955457
  0
LINE
  5
3B0
100
AcDbEntity
  8
SUPERFICI
100
AcDbLine
 62
7
  6
CONTINUOUS
 10
7.25
 20
-23.4104851482
 11
7.25
 21
-22.4
  0
LINE
  5
3B1
100
AcDbEntity
  8
SUPERFICI
100
AcDbLine
 62
7
  6
CONTINUOUS
 10
7.25
 20
22.4
 11
7.25
 21
23.4104851482
  0
LINE
  5
3B2
100
AcDbEntity
  8
SUPERFICI
100
AcDbLine
 62
7
  6
CONTINUOUS
 10
7.254371834
 20
24.2456323968
 11
7.254371834
 21
23.8443375673
  0
LINE
  5
3B3
100
AcDbEntity
  8
SUPERFICI
100
AcDbLine
 62
7
  6
CONTINUOUS
 10
7.254371834
 20
-23.8443375673
 11
7.254371834
 21
-24.2456323968
  0
LINE
  5
3B4
100
AcDbEntity
  8
DRAFT
100
AcDbLine
 62
7
  6
CONTINUOUS
 10
7.4
 20
20.85
 11
7.4
 21
19.7
  0
LINE
  5
3B5
100
AcDbEntity
  8
ASSI
100
AcDbLine
 62
7
  6
CONTINUOUS
 10
7.4
 20
20.85
 11
7.4
 21
19.7
  0
LINE
  5
3B6
100
AcDbEntity
  8
DRAFT
100
AcDbLine
 62
7
  6
CONTINUOUS
 10
7.4
 20
-19.7
 11
7.4
 21
-20.85
  0
LINE
  5
3B7
100
AcDbEntity
  8
ASSI
100
AcDbLine
 62
7
  6
CONTINUOUS
 10
7.4
 20
-19.7
 11
7.4
 21
-20.85
  0
LINE
  5
3B8
100
AcDbEntity
  8
SUPERFICI
100
AcDbLine
 62
253
  6
CONTINUOUS
 10
7.25
 20
23.4104851482
 11
7.254371834
 21
23.8443375673
  0
LINE
  5
3B9
100
AcDbEntity
  8
SUPERFICI
100
AcDbLine
 62
253
  6
CONTINUOUS
 10
7.4992770021
 20
23.1226497308
 11
7.5043676032
 21
23.6278312164
  0
LINE
  5
3BA
100
AcDbEntity
  8
RACCORDO
100
AcDbLine
 62
253
  6
CONTINUOUS
 10
-9.4660056078
 20
-18.2166171594
 11
-10.1730046932
 21
-18.9236162448
  0
LINE
  5
3BB
100
AcDbEntity
  8
ASSI
100
AcDbLine
 62
253
  6
CONTINUOUS
 10
-9.4660056078
 20
-18.2166171594
 11
-10.1730046932
 21
-18.9236162448
  0
LINE
  5
3BC
100
AcDbEntity
  8
RACCORDO
100
AcDbLine
 62
253
  6
CONTINUOUS
 10
-9.2882387315
 20
-18.3943840357
 11
-9.9952378169
 21
-19.1013831211
  0
LINE
  5
3BD
100
AcDbEntity
  8
ASSI
100
AcDbLine
 62
253
  6
CONTINUOUS
 10
-9.2882387315
 20
-18.3943840357
 11
-9.9952378169
 21
-19.1013831211
  0
LINE
  5
3BE
100
AcDbEntity
  8
0
100
AcDbLine
 62
253
  6
CONTINUOUS
 10
10.9998864416
 20
6.2142858505
 11
11.0260650513
 21
6.2142858505
  0
LINE
  5
3BF
100
AcDbEntity
  8
INCISIONI
100
AcDbLine
 62
253
  6
CONTINUOUS
 10
11.0541368045
 20
6.2587313832
 11
11.0739381528
 21
6.2587313832
  0
LINE
  5
3C0
100
AcDbEntity
  8
INCISIONI
100
AcDbLine
 62
253
  6
CONTINUOUS
 10
11.0822249185
 20
6.2788012718
 11
11.0961151164
 21
6.2788012718
  0
LINE
  5
3C1
100
AcDbEntity
  8
INCISIONI
100
AcDbLine
 62
253
  6
CONTINUOUS
 10
11.1041438693
 20
6.8615673444
 11
11.0541368045
 21
6.8615673444
  0
LINE
  5
3C2
100
AcDbEntity
  8
SMUSSO
100
AcDbLine
 62
7
  6
CONTINUOUS
 10
-0.0
 20
8.35
 11
0.5773502692
 21
7.7726497308
  0
LINE
  5
3C3
100
AcDbEntity
  8
ASSI
100
AcDbLine
 62
7
  6
CONTINUOUS
 10
-0.0
 20
8.35
 11
0.5773502692
 21
7.7726497308
  0
LINE
  5
3C4
100
AcDbEntity
  8
RACCORDO
100
AcDbLine
 62
253
  6
CONTINUOUS
 10
-9.4660056078
 20
18.2166171594
 11
-10.1730046932
 21
18.9236162448
  0
LINE
  5
3C5
100
AcDbEntity
  8
ASSI
100
AcDbLine
 62
253
  6
CONTINUOUS
 10
-9.4660056078
 20
18.2166171594
 11
-10.1730046932
 21
18.9236162448
  0
LINE
  5
3C6
100
AcDbEntity
  8
RACCORDO
100
AcDbLine
 62
253
  6
CONTINUOUS
 10
-9.2882387315
 20
18.3943840357
 11
-9.9952378169
 21
19.1013831211
  0
LINE
  5
3C7
100
AcDbEntity
  8
ASSI
100
AcDbLine
 62
253
  6
CONTINUOUS
 10
-9.2882387315
 20
18.3943840357
 11
-9.9952378169
 21
19.1013831211
  0
LINE
  5
3C8
100
AcDbEntity
  8
SMUSSO
100
AcDbLine
 62
7
  6
CONTINUOUS
 10
-7.0
 20
16.65
 11
-7.5773502692
 21
17.2273502692
  0
LINE
  5
3C9
100
AcDbEntity
  8
ASSI
100
AcDbLine
 62
7
  6
CONTINUOUS
 10
-7.0
 20
16.65
 11
-7.5773502692
 21
17.2273502692
  0
LINE
  5
3CA
100
AcDbEntity
  8
DRAFT
100
AcDbLine
 62
7
  6
CONTINUOUS
 10
7.4890208311
 20
20.85
 11
7.4890208311
 21
19.6109791689
  0
LINE
  5
3CB
100
AcDbEntity
  8
ASSI
100
AcDbLine
 62
7
  6
CONTINUOUS
 10
7.4890208311
 20
20.85
 11
7.4890208311
 21
19.6109791689
  0
LINE
  5
3CC
100
AcDbEntity
  8
DRAFT
100
AcDbLine
 62
7
  6
CONTINUOUS
 10
7.4890208311
 20
-19.6109791689
 11
7.4890208311
 21
-20.85
  0
LINE
  5
3CD
100
AcDbEntity
  8
ASSI
100
AcDbLine
 62
7
  6
CONTINUOUS
 10
7.4890208311
 20
-19.6109791689
 11
7.4890208311
 21
-20.85
  0
LINE
  5
3CE
100
AcDbEntity
  8
SUPERFICI
100
AcDbLine
 62
253
  6
CONTINUOUS
 10
7.5043676032
 20
-23.6278312164
 11
7.5043676032
 21
-24.495628166
  0
LINE
  5
3CF
100
AcDbEntity
  8
SUPERFICI
100
AcDbLine
 62
253
  6
CONTINUOUS
 10
7.5043676032
 20
23.6278312164
 11
7.5043676032
 21
24.495628166
  0
LINE
  5
3D0
100
AcDbEntity
  8
DRAFT
100
AcDbLine
 62
253
  6
CONTINUOUS
 10
7.5666456542
 20
-21.3359869487
 11
7.5666456542
 21
-20.9959955457
  0
LINE
  5
3D1
100
AcDbEntity
  8
DRAFT
100
AcDbLine
 62
253
  6
CONTINUOUS
 10
7.5666456542
 20
20.9959955457
 11
7.5666456542
 21
21.3359869487
  0
LINE
  5
3D2
100
AcDbEntity
  8
DRAFT
100
AcDbLine
 62
253
  6
CONTINUOUS
 10
8.0665695018
 20
-21.4537354271
 11
8.0665695018
 21
-20.9917082642
  0
LINE
  5
3D3
100
AcDbEntity
  8
DRAFT
100
AcDbLine
 62
253
  6
CONTINUOUS
 10
8.0665695018
 20
20.9917082642
 11
8.0665695018
 21
21.4537354271
  0
LINE
  5
3D4
100
AcDbEntity
  8
DRAFT
100
AcDbLine
 62
7
  6
CONTINUOUS
 10
8.25
 20
21.4
 11
8.25
 21
20.9
  0
LINE
  5
3D5
100
AcDbEntity
  8
DRAFT
100
AcDbLine
 62
7
  6
CONTINUOUS
 10
8.25
 20
-20.9
 11
8.25
 21
-21.4
  0
LINE
  5
3D6
100
AcDbEntity
  8
INCISIONI
100
AcDbLine
 62
253
  6
CONTINUOUS
 10
11.1047350258
 20
9.790227
 11
11.0541368107
 21
9.519077
  0
LINE
  5
3D7
100
AcDbEntity
  8
INCISIONI
100
AcDbLine
 62
253
  6
CONTINUOUS
 10
11.0541368107
 20
10.111193
 11
11.0870387649
 21
10.235548
  0
LINE
  5
3D8
100
AcDbEntity
  8
SMUSSO
100
AcDbLine
 62
7
  6
CONTINUOUS
 10
0.5773502692
 20
7.7726497308
 11
-7.5773502692
 21
7.7726497308
  0
LINE
  5
3D9
100
AcDbEntity
  8
ASSI
100
AcDbLine
 62
7
  6
CONTINUOUS
 10
0.5773502692
 20
7.7726497308
 11
-7.5773502692
 21
7.7726497308
  0
LINE
  5
3DA
100
AcDbEntity
  8
ASSI
100
AcDbLine
 62
7
  6
CONTINUOUS
 10
9.35
 20
7.9
 11
10.8724644676
 21
7.9
  0
LINE
  5
3DB
100
AcDbEntity
  8
0
100
AcDbLine
 62
253
  6
CONTINUOUS
 10
10.9998864416
 20
8.1071429253
 11
11.0260650513
 21
8.1071429253
  0
LINE
  5
3DC
100
AcDbEntity
  8
SMUSSO
100
AcDbLine
 62
7
  6
CONTINUOUS
 10
-0.0
 20
8.35
 11
-7.0
 21
8.35
  0
LINE
  5
3DD
100
AcDbEntity
  8
ASSI
100
AcDbLine
 62
7
  6
CONTINUOUS
 10
-0.0
 20
8.35
 11
-7.0
 21
8.35
  0
LINE
  5
3DE
100
AcDbEntity
  8
0
100
AcDbLine
 62
7
  6
CONTINUOUS
 10
-0.0
 20
8.55
 11
-7.0
 21
8.55
  0
LINE
  5
3DF
100
AcDbEntity
  8
0
100
AcDbLine
 62
253
  6
CONTINUOUS
 10
10.9998864416
 20
8.8571429253
 11
11.0260650513
 21
8.8571429253
  0
LINE
  5
3E0
100
AcDbEntity
  8
INCISIONI
100
AcDbLine
 62
253
  6
CONTINUOUS
 10
11.0069920643
 20
-12.1999991179
 11
11.0330460138
 21
-12.6071420074
  0
LINE
  5
3E1
100
AcDbEntity
  8
0
100
AcDbLine
 62
253
  6
CONTINUOUS
 10
10.7834994648
 20
-2.3714287758
 11
10.8096780745
 21
-2.8
  0
LINE
  5
3E2
100
AcDbEntity
  8
INCISIONI
100
AcDbLine
 62
253
  6
CONTINUOUS
 10
11.0093606055
 20
-11.6571420074
 11
11.0046235236
 21
-11.5214277864
  0
LINE
  5
3E3
100
AcDbEntity
  8
INCISIONI
100
AcDbLine
 62
253
  6
CONTINUOUS
 10
11.0235718509
 20
-10.7071420074
 11
11.0283089324
 21
-10.8428563416
  0
LINE
  5
3E4
100
AcDbEntity
  8
0
100
AcDbLine
 62
253
  6
CONTINUOUS
 10
10.7947188691
 20
1.9142857909
 11
10.8096780745
 21
1.4857143879
  0
LINE
  5
3E5
100
AcDbEntity
  8
INCISIONI
100
AcDbLine
 62
253
  6
CONTINUOUS
 10
11.0330460138
 20
-15.3214275599
 11
11.0259403907
 21
-15.0499991179
  0
LINE
  5
3E6
100
AcDbEntity
  8
INCISIONI
100
AcDbLine
 62
253
  6
CONTINUOUS
 10
11.0330460138
 20
-9.4857134804
 11
11.0259403907
 21
-9.2142848969
  0
LINE
  5
3E7
100
AcDbEntity
  8
INCISIONI
100
AcDbLine
 62
253
  6
CONTINUOUS
 10
10.9998864416
 20
-15.0499991179
 11
11.0235718509
 21
-15.9999991179
  0
LINE
  5
3E8
100
AcDbEntity
  8
INCISIONI
100
AcDbLine
 62
253
  6
CONTINUOUS
 10
10.9998864416
 20
-9.2142848969
 11
11.0235718509
 21
-10.1642848969
  0
LINE
  5
3E9
100
AcDbEntity
  8
0
100
AcDbLine
 62
253
  6
CONTINUOUS
 10
10.798458671
 20
-16.0857136726
 11
10.7947188691
 21
-15.8714287758
  0
LINE
  5
3EA
100
AcDbEntity
  8
0
100
AcDbLine
 62
253
  6
CONTINUOUS
 10
10.7872392664
 20
-14.9071424484
 11
10.7834994648
 21
-14.6928575516
  0
LINE
  5
3EB
100
AcDbEntity
  8
0
100
AcDbLine
 62
253
  6
CONTINUOUS
 10
10.7834994648
 20
-13.5142863274
 11
10.7872392664
 21
-13.7285712242
  0
LINE
  5
3EC
100
AcDbEntity
  8
0
100
AcDbLine
 62
253
  6
CONTINUOUS
 10
10.8059382733
 20
-14.1571424484
 11
10.8096780745
 21
-14.3714287758
  0
LINE
  5
3ED
100
AcDbEntity
  8
0
100
AcDbLine
 62
253
  6
CONTINUOUS
 10
10.8059382733
 20
-12.9785712242
 11
10.8096780745
 21
-13.1928575516
  0
LINE
  5
3EE
100
AcDbEntity
  8
0
100
AcDbLine
 62
253
  6
CONTINUOUS
 10
10.7834994648
 20
-10.0857136726
 11
10.7872392664
 21
-10.3
  0
LINE
  5
3EF
100
AcDbEntity
  8
0
100
AcDbLine
 62
253
  6
CONTINUOUS
 10
10.8059382733
 20
-9.55
 11
10.8096780745
 21
-9.7642863274
  0
LINE
  5
3F0
100
AcDbEntity
  8
0
100
AcDbLine
 62
253
  6
CONTINUOUS
 10
10.798458671
 20
-6.8714287758
 11
10.7947188691
 21
-6.6571431637
  0
LINE
  5
3F1
100
AcDbEntity
  8
0
100
AcDbLine
 62
253
  6
CONTINUOUS
 10
10.7834994648
 20
-5.4785712242
 11
10.7872392664
 21
-5.6928568363
  0
LINE
  5
3F2
100
AcDbEntity
  8
INCISIONI
100
AcDbLine
 62
253
  6
CONTINUOUS
 10
10.9998864416
 20
-14.3714275599
 11
11.0022549826
 21
-14.5071422338
  0
LINE
  5
3F3
100
AcDbEntity
  8
0
100
AcDbLine
 62
253
  6
CONTINUOUS
 10
10.798458671
 20
-1.9428568363
 11
10.7947188691
 21
-1.7285712242
  0
LINE
  5
3F4
100
AcDbEntity
  8
INCISIONI
100
AcDbLine
 62
253
  6
CONTINUOUS
 10
11.0046235236
 20
-11.5214277864
 11
10.9998864416
 21
-11.2499991179
  0
LINE
  5
3F5
100
AcDbEntity
  8
0
100
AcDbLine
 62
253
  6
CONTINUOUS
 10
10.798458671
 20
0.3071428061
 11
10.7947188691
 21
0.5214284182
  0
LINE
  5
3F6
100
AcDbEntity
  8
INCISIONI
100
AcDbLine
 62
253
  6
CONTINUOUS
 10
11.0283089324
 20
-10.8428563416
 11
11.0330460138
 21
-11.1142848969
  0
LINE
  5
3F7
100
AcDbEntity
  8
INCISIONI
100
AcDbLine
 62
253
  6
CONTINUOUS
 10
11.0825401849
 20
-8.371575
 11
11.1045968413
 21
-9.656836
  0
LINE
  5
3F8
100
AcDbEntity
  8
INCISIONI
100
AcDbLine
 62
253
  6
CONTINUOUS
 10
11.1045968413
 20
-10.35105
 11
11.083780164
 21
-9.10422
  0
LINE
  5
3F9
100
AcDbEntity
  8
INCISIONI
100
AcDbLine
 62
253
  6
CONTINUOUS
 10
11.0775660468
 20
-8.741819
 11
11.0715407185
 21
-8.371575
  0
LINE
  5
3FA
100
AcDbEntity
  8
INCISIONI
100
AcDbLine
 62
253
  6
CONTINUOUS
 10
11.0188347695
 20
-14.2357133389
 11
11.0212033092
 21
-14.4619038582
  0
LINE
  5
3FB
100
AcDbEntity
  8
SUPERFICI
100
AcDbLine
 62
253
  6
CONTINUOUS
 10
9.8956323968
 20
23.6278312164
 11
9.9007229979
 21
23.1226497308
  0
LINE
  5
3FC
100
AcDbEntity
  8
SUPERFICI
100
AcDbLine
 62
253
  6
CONTINUOUS
 10
10.145628166
 20
23.8443375673
 11
10.15
 21
23.4104851482
  0
LINE
  5
3FD
100
AcDbEntity
  8
RACCORDO
100
AcDbLine
 62
253
  6
CONTINUOUS
 10
9.2882387315
 20
-18.3943840357
 11
9.2882387315
 21
-19.3942317309
  0
LINE
  5
3FE
100
AcDbEntity
  8
ASSI
100
AcDbLine
 62
253
  6
CONTINUOUS
 10
9.2882387315
 20
-18.3943840357
 11
9.2882387315
 21
-19.3942317309
  0
LINE
  5
3FF
100
AcDbEntity
  8
RACCORDO
100
AcDbLine
 62
253
  6
CONTINUOUS
 10
9.2882387315
 20
18.3943840357
 11
9.2882387315
 21
19.3942317309
  0
LINE
  5
400
100
AcDbEntity
  8
ASSI
100
AcDbLine
 62
253
  6
CONTINUOUS
 10
9.2882387315
 20
18.3943840357
 11
9.2882387315
 21
19.3942317309
  0
LINE
  5
401
100
AcDbEntity
  8
ASSI
100
AcDbLine
 62
7
  6
CONTINUOUS
 10
9.35
 20
17.1
 11
9.35
 21
12.9
  0
LINE
  5
402
100
AcDbEntity
  8
ASSI
100
AcDbLine
 62
7
  6
CONTINUOUS
 10
9.35
 20
12.1
 11
9.35
 21
7.9
  0
LINE
  5
403
100
AcDbEntity
  8
0
100
AcDbLine
 62
7
  6
CONTINUOUS
 10
9.5
 20
17.1
 11
9.5
 21
12.9
  0
LINE
  5
404
100
AcDbEntity
  8
0
100
AcDbLine
 62
7
  6
CONTINUOUS
 10
9.5
 20
12.1
 11
9.5
 21
7.9
  0
LINE
  5
405
100
AcDbEntity
  8
DRAFT
100
AcDbLine
 62
7
  6
CONTINUOUS
 10
9.5121049871
 20
11.9223308767
 11
9.5121049871
 21
7.9
  0
LINE
  5
406
100
AcDbEntity
  8
SUPERFICI
100
AcDbLine
 62
7
  6
CONTINUOUS
 10
9.65
 20
-20.1990396502
 11
9.65
 21
-20.0
  0
LINE
  5
407
100
AcDbEntity
  8
SUPERFICI
100
AcDbLine
 62
7
  6
CONTINUOUS
 10
9.65
 20
20.0
 11
9.65
 21
20.1990396502
  0
LINE
  5
408
100
AcDbEntity
  8
DRAFT
100
AcDbLine
 62
7
  6
CONTINUOUS
 10
9.6674550649
 20
17.1
 11
9.6674550649
 21
13.0
  0
LINE
  5
409
100
AcDbEntity
  8
DRAFT
100
AcDbLine
 62
7
  6
CONTINUOUS
 10
9.6674550649
 20
12.0
 11
9.6674550649
 21
7.9
  0
LINE
  5
40A
100
AcDbEntity
  8
ASSI
100
AcDbLine
 62
253
  6
CONTINUOUS
 10
9.7588542176
 20
-17.509618074
 11
9.7588542176
 21
7.9
  0
LINE
  5
40B
100
AcDbEntity
  8
ASSI
100
AcDbLine
 62
253
  6
CONTINUOUS
 10
9.7588542176
 20
12.1
 11
9.7588542176
 21
12.9
  0
LINE
  5
40C
100
AcDbEntity
  8
ASSI
100
AcDbLine
 62
253
  6
CONTINUOUS
 10
9.7588542176
 20
17.1
 11
9.7588542176
 21
17.509618074
  0
LINE
  5
40D
100
AcDbEntity
  8
SUPERFICI
100
AcDbLine
 62
253
  6
CONTINUOUS
 10
9.8956323968
 20
-23.6278312164
 11
9.8956323968
 21
-24.495628166
  0
LINE
  5
40E
100
AcDbEntity
  8
SUPERFICI
100
AcDbLine
 62
253
  6
CONTINUOUS
 10
9.8956323968
 20
23.6278312164
 11
9.8956323968
 21
24.495628166
  0
LINE
  5
40F
100
AcDbEntity
  8
SUPERFICI
100
AcDbLine
 62
7
  6
CONTINUOUS
 10
10.145628166
 20
-24.2456323968
 11
10.145628166
 21
-23.8443375673
  0
LINE
  5
410
100
AcDbEntity
  8
SUPERFICI
100
AcDbLine
 62
7
  6
CONTINUOUS
 10
10.145628166
 20
23.8443375673
 11
10.145628166
 21
24.2456323968
  0
LINE
  5
411
100
AcDbEntity
  8
SUPERFICI
100
AcDbLine
 62
7
  6
CONTINUOUS
 10
10.15
 20
23.4104851482
 11
10.15
 21
22.4
  0
LINE
  5
412
100
AcDbEntity
  8
SUPERFICI
100
AcDbLine
 62
7
  6
CONTINUOUS
 10
10.15
 20
-22.4
 11
10.15
 21
-23.4104851482
  0
LINE
  5
413
100
AcDbEntity
  8
ASSI
100
AcDbLine
 62
253
  6
CONTINUOUS
 10
10.7587019127
 20
-17.5096157267
 11
10.7587019127
 21
7.9
  0
LINE
  5
414
100
AcDbEntity
  8
ASSI
100
AcDbLine
 62
253
  6
CONTINUOUS
 10
10.7587019127
 20
12.1
 11
10.7587019127
 21
12.9
  0
LINE
  5
415
100
AcDbEntity
  8
ASSI
100
AcDbLine
 62
253
  6
CONTINUOUS
 10
10.7587019127
 20
17.1
 11
10.7587019127
 21
17.5096157267
  0
LINE
  5
416
100
AcDbEntity
  8
0
100
AcDbLine
 62
253
  6
CONTINUOUS
 10
10.7834994648
 20
3.4142857015
 11
10.7834994648
 21
2.771428597
  0
LINE
  5
417
100
AcDbEntity
  8
0
100
AcDbLine
 62
253
  6
CONTINUOUS
 10
10.7834994648
 20
-0.1214284182
 11
10.7834994648
 21
-0.7642856121
  0
LINE
  5
418
100
AcDbEntity
  8
0
100
AcDbLine
 62
253
  6
CONTINUOUS
 10
10.7834994648
 20
-5.1571431637
 11
10.7834994648
 21
-5.4785712242
  0
LINE
  5
419
100
AcDbEntity
  8
0
100
AcDbLine
 62
253
  6
CONTINUOUS
 10
10.7834994648
 20
-7.3
 11
10.7834994648
 21
-7.9428575516
  0
LINE
  5
41A
100
AcDbEntity
  8
0
100
AcDbLine
 62
253
  6
CONTINUOUS
 10
10.7834994648
 20
-9.6571424484
 11
10.7834994648
 21
-10.0857136726
  0
LINE
  5
41B
100
AcDbEntity
  8
0
100
AcDbLine
 62
253
  6
CONTINUOUS
 10
10.7834994648
 20
-10.7285712242
 11
10.7834994648
 21
-11.3714287758
  0
LINE
  5
41C
100
AcDbEntity
  8
0
100
AcDbLine
 62
253
  6
CONTINUOUS
 10
10.7834994648
 20
-13.0857136726
 11
10.7834994648
 21
-13.5142863274
  0
LINE
  5
41D
100
AcDbEntity
  8
0
100
AcDbLine
 62
253
  6
CONTINUOUS
 10
10.7834994648
 20
-14.6928575516
 11
10.7834994648
 21
-14.3714287758
  0
LINE
  5
41E
100
AcDbEntity
  8
0
100
AcDbLine
 62
253
  6
CONTINUOUS
 10
10.7909790679
 20
-2.5142853737
 11
10.7909790679
 21
-3.0857146263
  0
LINE
  5
41F
100
AcDbEntity
  8
0
100
AcDbLine
 62
253
  6
CONTINUOUS
 10
10.7947188691
 20
-15.8714287758
 11
10.7947188691
 21
-15.3357136726
  0
LINE
  5
420
100
AcDbEntity
  8
0
100
AcDbLine
 62
253
  6
CONTINUOUS
 10
10.7947188691
 20
-6.6571431637
 11
10.7947188691
 21
-6.1214287758
  0
LINE
  5
421
100
AcDbEntity
  8
0
100
AcDbLine
 62
253
  6
CONTINUOUS
 10
10.7947188691
 20
-1.7285712242
 11
10.7947188691
 21
-1.1928571939
  0
LINE
  5
422
100
AcDbEntity
  8
0
100
AcDbLine
 62
253
  6
CONTINUOUS
 10
10.7947188691
 20
0.5214284182
 11
10.7947188691
 21
1.0571428061
  0
LINE
  5
423
100
AcDbEntity
  8
0
100
AcDbLine
 62
253
  6
CONTINUOUS
 10
10.798458671
 20
-11.1571424484
 11
10.798458671
 21
-10.7285712242
  0
LINE
  5
424
100
AcDbEntity
  8
0
100
AcDbLine
 62
253
  6
CONTINUOUS
 10
10.798458671
 20
-7.7285712242
 11
10.798458671
 21
-7.3
  0
LINE
  5
425
100
AcDbEntity
  8
0
100
AcDbLine
 62
253
  6
CONTINUOUS
 10
10.798458671
 20
-0.55
 11
10.798458671
 21
-0.1214284182
  0
LINE
  5
426
100
AcDbEntity
  8
0
100
AcDbLine
 62
253
  6
CONTINUOUS
 10
10.798458671
 20
2.9857142091
 11
10.798458671
 21
3.4142857015
  0
LINE
  5
427
100
AcDbEntity
  8
0
100
AcDbLine
 62
253
  6
CONTINUOUS
 10
10.8096780745
 20
4.7
 11
10.8096780745
 21
3.8428571045
  0
LINE
  5
428
100
AcDbEntity
  8
0
100
AcDbLine
 62
253
  6
CONTINUOUS
 10
10.8096780745
 20
3.4142857015
 11
10.8096780745
 21
2.771428597
  0
LINE
  5
429
100
AcDbEntity
  8
0
100
AcDbLine
 62
253
  6
CONTINUOUS
 10
10.8096780745
 20
1.0571428061
 11
10.8096780745
 21
0.5214284182
  0
LINE
  5
42A
100
AcDbEntity
  8
0
100
AcDbLine
 62
253
  6
CONTINUOUS
 10
10.8096780745
 20
-0.1214284182
 11
10.8096780745
 21
-0.7642856121
  0
LINE
  5
42B
100
AcDbEntity
  8
0
100
AcDbLine
 62
253
  6
CONTINUOUS
 10
10.8096780745
 20
-1.1928571939
 11
10.8096780745
 21
-1.7285712242
  0
LINE
  5
42C
100
AcDbEntity
  8
0
100
AcDbLine
 62
253
  6
CONTINUOUS
 10
10.8096780745
 20
-3.6571431637
 11
10.8096780745
 21
-4.5142856121
  0
LINE
  5
42D
100
AcDbEntity
  8
0
100
AcDbLine
 62
253
  6
CONTINUOUS
 10
10.8096780745
 20
-6.1214287758
 11
10.8096780745
 21
-6.6571431637
  0
LINE
  5
42E
100
AcDbEntity
  8
0
100
AcDbLine
 62
253
  6
CONTINUOUS
 10
10.8096780745
 20
-7.3
 11
10.8096780745
 21
-7.9428575516
  0
LINE
  5
42F
100
AcDbEntity
  8
0
100
AcDbLine
 62
253
  6
CONTINUOUS
 10
10.8096780745
 20
-9.7642863274
 11
10.8096780745
 21
-10.1928575516
  0
LINE
  5
430
100
AcDbEntity
  8
0
100
AcDbLine
 62
253
  6
CONTINUOUS
 10
10.8096780745
 20
-10.7285712242
 11
10.8096780745
 21
-11.3714287758
  0
LINE
  5
431
100
AcDbEntity
  8
0
100
AcDbLine
 62
253
  6
CONTINUOUS
 10
10.8096780745
 20
-13.1928575516
 11
10.8096780745
 21
-13.6214287758
  0
LINE
  5
432
100
AcDbEntity
  8
0
100
AcDbLine
 62
253
  6
CONTINUOUS
 10
10.8096780745
 20
-14.3714287758
 11
10.8096780745
 21
-14.6928575516
  0
LINE
  5
433
100
AcDbEntity
  8
0
100
AcDbLine
 62
253
  6
CONTINUOUS
 10
10.8096780745
 20
-15.3357136726
 11
10.8096780745
 21
-15.8714287758
  0
LINE
  5
434
100
AcDbEntity
  8
0
100
AcDbLine
 62
253
  6
CONTINUOUS
 10
10.9086804982
 20
-15.6
 11
10.9086804982
 21
-14.1395
  0
LINE
  5
435
100
AcDbEntity
  8
0
100
AcDbLine
 62
253
  6
CONTINUOUS
 10
10.9217678094
 20
-14.1395
 11
10.9217678094
 21
-15.6
  0
LINE
  5
436
100
AcDbEntity
  8
0
100
AcDbLine
 62
253
  6
CONTINUOUS
 10
10.9998864416
 20
12.0714285374
 11
10.9998864416
 21
11.4285713434
  0
LINE
  5
437
100
AcDbEntity
  8
0
100
AcDbLine
 62
253
  6
CONTINUOUS
 10
10.9998864416
 20
2.9642853737
 11
10.9998864416
 21
2.428571701
  0
LINE
  5
438
100
AcDbEntity
  8
INCISIONI
100
AcDbLine
 62
253
  6
CONTINUOUS
 10
10.9998864416
 20
-13.6928564548
 11
10.9998864416
 21
-14.3714275599
  0
LINE
  5
439
100
AcDbEntity
  8
INCISIONI
100
AcDbLine
 62
253
  6
CONTINUOUS
 10
10.9998864416
 20
-15.9999991179
 11
10.9998864416
 21
-15.0499991179
  0
LINE
  5
43A
100
AcDbEntity
  8
INCISIONI
100
AcDbLine
 62
253
  6
CONTINUOUS
 10
10.9998864416
 20
-11.2499991179
 11
10.9998864416
 21
-11.1142848969
  0
LINE
  5
43B
100
AcDbEntity
  8
INCISIONI
100
AcDbLine
 62
253
  6
CONTINUOUS
 10
10.9998864416
 20
-10.1642848969
 11
10.9998864416
 21
-9.2142848969
  0
LINE
  5
43C
100
AcDbEntity
  8
0
100
AcDbLine
 62
253
  6
CONTINUOUS
 10
10.9998864416
 20
12.8928571939
 11
10.9998864416
 21
13.428571403
  0
LINE
  5
43D
100
AcDbEntity
  8
INCISIONI
100
AcDbLine
 62
253
  6
CONTINUOUS
 10
11.0069920643
 20
-13.1499991179
 11
11.0069920643
 21
-12.1999991179
  0
LINE
  5
43E
100
AcDbEntity
  8
0
100
AcDbLine
 62
253
  6
CONTINUOUS
 10
11.0073660447
 20
14.5714285672
 11
11.0073660447
 21
13.9999999404
  0
LINE
  5
43F
100
AcDbEntity
  8
0
100
AcDbLine
 62
253
  6
CONTINUOUS
 10
11.0073660447
 20
4.1071431637
 11
11.0073660447
 21
3.5357146263
  0
LINE
  5
440
100
AcDbEntity
  8
SUPERFICI
100
AcDbLine
 62
253
  6
CONTINUOUS
 10
9.9007229979
 20
-23.1226497308
 11
9.8956323968
 21
-23.6278312164
  0
LINE
  5
441
100
AcDbEntity
  8
SUPERFICI
100
AcDbLine
 62
253
  6
CONTINUOUS
 10
10.15
 20
-23.4104851482
 11
10.145628166
 21
-23.8443375673
  0
LINE
  5
442
100
AcDbEntity
  8
0
100
AcDbLine
 62
253
  6
CONTINUOUS
 10
10.7909790679
 20
-10.3
 11
10.8021984722
 21
-9.55
  0
LINE
  5
443
100
AcDbEntity
  8
0
100
AcDbLine
 62
253
  6
CONTINUOUS
 10
10.7909790679
 20
-13.7285712242
 11
10.8021984722
 21
-12.9785712242
  0
LINE
  5
444
100
AcDbEntity
  8
0
100
AcDbLine
 62
253
  6
CONTINUOUS
 10
10.8096780745
 20
0.5214284182
 11
10.8059382733
 21
0.3071428061
  0
LINE
  5
445
100
AcDbEntity
  8
0
100
AcDbLine
 62
253
  6
CONTINUOUS
 10
11.0260650513
 20
12.8928571939
 11
11.0223252501
 21
12.6785715818
  0
LINE
  5
446
100
AcDbEntity
  8
0
100
AcDbLine
 62
253
  6
CONTINUOUS
 10
10.8096780745
 20
-1.7285712242
 11
10.8059382733
 21
-1.9428568363
  0
LINE
  5
447
100
AcDbEntity
  8
0
100
AcDbLine
 62
253
  6
CONTINUOUS
 10
10.7872392664
 20
-4.9428568363
 11
10.7834994648
 21
-5.1571431637
  0
LINE
  5
448
100
AcDbEntity
  8
0
100
AcDbLine
 62
253
  6
CONTINUOUS
 10
10.8096780745
 20
-6.6571431637
 11
10.8059382733
 21
-6.8714287758
  0
LINE
  5
449
100
AcDbEntity
  8
0
100
AcDbLine
 62
253
  6
CONTINUOUS
 10
10.7853693656
 20
-9.55
 11
10.7834994648
 21
-9.6571424484
  0
LINE
  5
44A
100
AcDbEntity
  8
0
100
AcDbLine
 62
253
  6
CONTINUOUS
 10
10.8096780745
 20
-10.1928575516
 11
10.8078081731
 21
-10.3
  0
LINE
  5
44B
100
AcDbEntity
  8
0
100
AcDbLine
 62
253
  6
CONTINUOUS
 10
10.7853693656
 20
-12.9785712242
 11
10.7834994648
 21
-13.0857136726
  0
LINE
  5
44C
100
AcDbEntity
  8
0
100
AcDbLine
 62
253
  6
CONTINUOUS
 10
10.7947188691
 20
-1.5142856121
 11
10.7834994648
 21
-1.9428568363
  0
LINE
  5
44D
100
AcDbEntity
  8
0
100
AcDbLine
 62
253
  6
CONTINUOUS
 10
10.7947188691
 20
-6.4428568363
 11
10.7834994648
 21
-6.8714287758
  0
LINE
  5
44E
100
AcDbEntity
  8
0
100
AcDbLine
 62
253
  6
CONTINUOUS
 10
11.0260650513
 20
2.0000004768
 11
11.0148456478
 21
1.5714292526
  0
LINE
  5
44F
100
AcDbEntity
  8
0
100
AcDbLine
 62
253
  6
CONTINUOUS
 10
11.0260650513
 20
16.0
 11
11.0111058459
 21
15.5714285523
  0
LINE
  5
450
100
AcDbEntity
  8
0
100
AcDbLine
 62
253
  6
CONTINUOUS
 10
11.0260650513
 20
8.8571429253
 11
10.9998864416
 21
8.1071429253
  0
LINE
  5
451
100
AcDbEntity
  8
0
100
AcDbLine
 62
253
  6
CONTINUOUS
 10
10.8096780745
 20
2.3428571939
 11
10.7947188691
 21
1.9142857909
  0
LINE
  5
452
100
AcDbEntity
  8
INCISIONI
100
AcDbLine
 62
253
  6
CONTINUOUS
 10
11.0541368107
 20
11.040105
 11
11.0871764958
 21
11.750162
  0
LINE
  5
453
100
AcDbEntity
  8
INCISIONI
100
AcDbLine
 62
253
  6
CONTINUOUS
 10
11.1047350258
 20
11.593234
 11
11.0766427458
 21
10.994355
  0
LINE
  5
454
100
AcDbEntity
  8
INCISIONI
100
AcDbLine
 62
253
  6
CONTINUOUS
 10
11.0541368107
 20
15.081013
 11
11.1047350258
 21
16.00026
  0
LINE
  5
455
100
AcDbEntity
  8
INCISIONI
100
AcDbLine
 62
253
  6
CONTINUOUS
 10
11.1047350258
 20
7.92899
 11
11.0541368107
 21
7.039304
  0
LINE
  5
456
100
AcDbEntity
  8
0
100
AcDbLine
 62
253
  6
CONTINUOUS
 10
11.0260650513
 20
14.2857142091
 11
10.9998864416
 21
13.8571428061
  0
LINE
  5
457
100
AcDbEntity
  8
0
100
AcDbLine
 62
253
  6
CONTINUOUS
 10
11.0260650513
 20
3.8214292526
 11
10.9998864416
 21
3.3928565979
  0
LINE
  5
458
100
AcDbEntity
  8
0
100
AcDbLine
 62
253
  6
CONTINUOUS
 10
10.8096780745
 20
-2.8
 11
10.7834994648
 21
-3.2285712242
  0
LINE
  5
459
100
AcDbEntity
  8
INCISIONI
100
AcDbLine
 62
253
  6
CONTINUOUS
 10
11.1047350258
 20
15.342748
 11
11.0699067067
 21
14.790021
  0
LINE
  5
45A
100
AcDbEntity
  8
INCISIONI
100
AcDbLine
 62
253
  6
CONTINUOUS
 10
11.0541368107
 20
7.677235
 11
11.0642380163
 21
7.834033
  0
LINE
  5
45B
100
AcDbEntity
  8
INCISIONI
100
AcDbLine
 62
253
  6
CONTINUOUS
 10
11.0720542821
 20
7.954996
 11
11.0908319214
 21
8.233126
  0
LINE
  5
45C
100
AcDbEntity
  8
DRAFT
100
AcDbLine
 62
7
  6
CONTINUOUS
 10
7.3620095793
 20
-20.5276115984
 11
7.3
 21
-20.9
  0
LINE
  5
45D
100
AcDbEntity
  8
DRAFT
100
AcDbLine
 62
7
  6
CONTINUOUS
 10
-6.5959955457
 20
-19.7959955457
 11
-6.5
 21
-19.7
  0
LINE
  5
45E
100
AcDbEntity
  8
DRAFT
100
AcDbLine
 62
7
  6
CONTINUOUS
 10
-6.5959955457
 20
-20.0959955457
 11
-6.4372596706
 21
-19.9372596706
  0
LINE
  5
45F
100
AcDbEntity
  8
INCISIONI
100
AcDbLine
 62
7
  6
CONTINUOUS
 10
11.0540083805
 20
-4.2026094832
 11
11.1045968413
 21
-4.1520210224
  0
LINE
  5
460
100
AcDbEntity
  8
0
100
AcDbLine
 62
253
  6
CONTINUOUS
 10
10.9998864416
 20
9.5357146263
 11
11.0260650513
 21
9.5357146263
  0
LINE
  5
461
100
AcDbEntity
  8
DRAFT
100
AcDbLine
 62
7
  6
CONTINUOUS
 10
-6.5959955457
 20
19.7959955457
 11
-6.5
 21
19.7
  0
LINE
  5
462
100
AcDbEntity
  8
SMUSSO
100
AcDbLine
 62
7
  6
CONTINUOUS
 10
0.0
 20
13.35
 11
0.5773502692
 21
12.7726497308
  0
LINE
  5
463
100
AcDbEntity
  8
ASSI
100
AcDbLine
 62
7
  6
CONTINUOUS
 10
0.0
 20
13.35
 11
0.5773502692
 21
12.7726497308
  0
LINE
  5
464
100
AcDbEntity
  8
DRAFT
100
AcDbLine
 62
7
  6
CONTINUOUS
 10
-6.5959955457
 20
20.0959955457
 11
-6.4372596706
 21
19.9372596706
  0
LINE
  5
465
100
AcDbEntity
  8
DRAFT
100
AcDbLine
 62
7
  6
CONTINUOUS
 10
7.3
 20
20.9
 11
7.3620095793
 21
20.5276115984
  0
LINE
  5
466
100
AcDbEntity
  8
INCISIONI
100
AcDbLine
 62
253
  6
CONTINUOUS
 10
11.0908319214
 20
8.233126
 11
11.0720542821
 21
8.5345
  0
LINE
  5
467
100
AcDbEntity
  8
INCISIONI
100
AcDbLine
 62
253
  6
CONTINUOUS
 10
11.0699067067
 20
14.790021
 11
11.1047350258
 21
14.22041
  0
LINE
  5
468
100
AcDbEntity
  8
0
100
AcDbLine
 62
253
  6
CONTINUOUS
 10
10.9998864416
 20
4.2499997616
 11
11.0260650513
 21
3.8214292526
  0
LINE
  5
469
100
AcDbEntity
  8
0
100
AcDbLine
 62
253
  6
CONTINUOUS
 10
10.9998864416
 20
14.7142857015
 11
11.0260650513
 21
14.2857142091
  0
LINE
  5
46A
100
AcDbEntity
  8
INCISIONI
100
AcDbLine
 62
253
  6
CONTINUOUS
 10
11.0642380163
 20
8.658312
 11
11.0541368107
 21
8.825329
  0
LINE
  5
46B
100
AcDbEntity
  8
INCISIONI
100
AcDbLine
 62
253
  6
CONTINUOUS
 10
11.0541368107
 20
9.424033
 11
11.1047350258
 21
8.514517
  0
LINE
  5
46C
100
AcDbEntity
  8
INCISIONI
100
AcDbLine
 62
253
  6
CONTINUOUS
 10
11.1047350258
 20
13.615552
 11
11.0541368107
 21
14.547617
  0
LINE
  5
46D
100
AcDbEntity
  8
INCISIONI
100
AcDbLine
 62
253
  6
CONTINUOUS
 10
11.0766427458
 20
10.994355
 11
11.1047350258
 21
10.389084
  0
LINE
  5
46E
100
AcDbEntity
  8
INCISIONI
100
AcDbLine
 62
253
  6
CONTINUOUS
 10
11.0870387649
 20
10.235548
 11
11.0541368107
 21
10.955216
  0
LINE
  5
46F
100
AcDbEntity
  8
0
100
AcDbLine
 62
253
  6
CONTINUOUS
 10
11.0111058459
 20
15.5714285523
 11
11.0260650513
 21
15.1428571045
  0
LINE
  5
470
100
AcDbEntity
  8
0
100
AcDbLine
 62
253
  6
CONTINUOUS
 10
11.0148456478
 20
1.5714292526
 11
11.0260650513
 21
1.1428565979
  0
LINE
  5
471
100
AcDbEntity
  8
0
100
AcDbLine
 62
253
  6
CONTINUOUS
 10
11.0036262432
 20
12.6785715818
 11
10.9998864416
 21
12.8928571939
  0
LINE
  5
472
100
AcDbEntity
  8
0
100
AcDbLine
 62
253
  6
CONTINUOUS
 10
11.0148456478
 20
11.6428573132
 11
11.0148456478
 21
12.0714285374
  0
LINE
  5
473
100
AcDbEntity
  8
INCISIONI
100
AcDbLine
 62
253
  6
CONTINUOUS
 10
11.0188347695
 20
-14.2357133389
 11
11.0188347695
 21
-13.9642848969
  0
LINE
  5
474
100
AcDbEntity
  8
0
100
AcDbLine
 62
253
  6
CONTINUOUS
 10
11.0260650513
 20
13.428571403
 11
11.0260650513
 21
12.8928571939
  0
LINE
  5
475
100
AcDbEntity
  8
0
100
AcDbLine
 62
253
  6
CONTINUOUS
 10
11.0260650513
 20
12.0714285374
 11
11.0260650513
 21
11.4285713434
  0
LINE
  5
476
100
AcDbEntity
  8
0
100
AcDbLine
 62
253
  6
CONTINUOUS
 10
11.0260650513
 20
5.5357141495
 11
11.0260650513
 21
4.678571701
  0
LINE
  5
477
100
AcDbEntity
  8
INCISIONI
100
AcDbLine
 62
253
  6
CONTINUOUS
 10
11.0330460138
 20
-11.1142848969
 11
11.0330460138
 21
-11.2499991179
  0
LINE
  5
478
100
AcDbEntity
  8
INCISIONI
100
AcDbLine
 62
253
  6
CONTINUOUS
 10
11.0330460138
 20
-15.7285706758
 11
11.0330460138
 21
-15.3214275599
  0
LINE
  5
479
100
AcDbEntity
  8
INCISIONI
100
AcDbLine
 62
253
  6
CONTINUOUS
 10
11.0330460138
 20
-14.2357133389
 11
11.0330460138
 21
-13.6928564548
  0
LINE
  5
47A
100
AcDbEntity
  8
INCISIONI
100
AcDbLine
 62
253
  6
CONTINUOUS
 10
11.0330460138
 20
-9.8928563416
 11
11.0330460138
 21
-9.4857134804
  0
LINE
  5
47B
100
AcDbEntity
  8
INCISIONI
100
AcDbLine
 62
253
  6
CONTINUOUS
 10
11.0540083805
 20
-16.001437
 11
11.0540083805
 21
-15.484078
  0
LINE
  5
47C
100
AcDbEntity
  8
INCISIONI
100
AcDbLine
 62
253
  6
CONTINUOUS
 10
11.0540083805
 20
-14.158632
 11
11.0540083805
 21
-13.66021
  0
LINE
  5
47D
100
AcDbEntity
  8
INCISIONI
100
AcDbLine
 62
253
  6
CONTINUOUS
 10
11.0540083805
 20
-10.357884
 11
11.0540083805
 21
-9.706581
  0
LINE
  5
47E
100
AcDbEntity
  8
INCISIONI
100
AcDbLine
 62
253
  6
CONTINUOUS
 10
11.0540083805
 20
-8.371585
 11
11.0540083805
 21
-7.853838
  0
LINE
  5
47F
100
AcDbEntity
  8
INCISIONI
100
AcDbLine
 62
253
  6
CONTINUOUS
 10
11.0540083805
 20
-7.238107
 11
11.0540083805
 21
-6.720338
  0
LINE
  5
480
100
AcDbEntity
  8
INCISIONI
100
AcDbLine
 62
253
  6
CONTINUOUS
 10
11.0540083805
 20
-6.097666
 11
11.0540083805
 21
-4.037094
  0
LINE
  5
481
100
AcDbEntity
  8
INCISIONI
100
AcDbLine
 62
253
  6
CONTINUOUS
 10
11.0541368107
 20
13.390935
 11
11.0541368107
 21
12.785664
  0
LINE
  5
482
100
AcDbEntity
  8
INCISIONI
100
AcDbLine
 62
253
  6
CONTINUOUS
 10
11.0541368045
 20
6.8615673444
 11
11.0541368045
 21
6.2587313832
  0
LINE
  5
483
100
AcDbEntity
  8
INCISIONI
100
AcDbLine
 62
253
  6
CONTINUOUS
 10
11.0541368045
 20
5.3318417383
 11
11.0541368045
 21
4.7496410148
  0
LINE
  5
484
100
AcDbEntity
  8
INCISIONI
100
AcDbLine
 62
253
  6
CONTINUOUS
 10
11.0541368107
 20
7.039304
 11
11.0541368107
 21
7.677235
  0
LINE
  5
485
100
AcDbEntity
  8
INCISIONI
100
AcDbLine
 62
253
  6
CONTINUOUS
 10
11.0541368107
 20
8.825329
 11
11.0541368107
 21
9.424033
  0
LINE
  5
486
100
AcDbEntity
  8
INCISIONI
100
AcDbLine
 62
253
  6
CONTINUOUS
 10
11.0541368107
 20
9.519077
 11
11.0541368107
 21
10.111193
  0
LINE
  5
487
100
AcDbEntity
  8
INCISIONI
100
AcDbLine
 62
253
  6
CONTINUOUS
 10
11.0541368107
 20
10.955216
 11
11.0541368107
 21
11.040105
  0
LINE
  5
488
100
AcDbEntity
  8
INCISIONI
100
AcDbLine
 62
253
  6
CONTINUOUS
 10
11.0541368107
 20
11.880779
 11
11.0541368107
 21
12.459827
  0
LINE
  5
489
100
AcDbEntity
  8
INCISIONI
100
AcDbLine
 62
253
  6
CONTINUOUS
 10
11.0541368107
 20
14.547617
 11
11.0541368107
 21
15.081013
  0
LINE
  5
48A
100
AcDbEntity
  8
INCISIONI
100
AcDbLine
 62
253
  6
CONTINUOUS
 10
11.0620370795
 20
-4.554832
 11
11.0620373587
 21
-6.097666
  0
LINE
  5
48B
100
AcDbEntity
  8
INCISIONI
100
AcDbLine
 62
253
  6
CONTINUOUS
 10
11.0642380163
 20
7.834033
 11
11.0642380163
 21
8.658312
  0
LINE
  5
48C
100
AcDbEntity
  8
INCISIONI
100
AcDbLine
 62
253
  6
CONTINUOUS
 10
11.0720542821
 20
8.5345
 11
11.0720542821
 21
7.954996
  0
LINE
  5
48D
100
AcDbEntity
  8
INCISIONI
100
AcDbLine
 62
253
  6
CONTINUOUS
 10
11.0739381528
 20
6.2587313832
 11
11.0739381528
 21
5.9341993273
  0
LINE
  5
48E
100
AcDbEntity
  8
INCISIONI
100
AcDbLine
 62
253
  6
CONTINUOUS
 10
11.0759596405
 20
-5.982127
 11
11.075959466
 21
-4.554832
  0
LINE
  5
48F
100
AcDbEntity
  8
INCISIONI
100
AcDbLine
 62
253
  6
CONTINUOUS
 10
11.0822249185
 20
5.9328946758
 11
11.0822249185
 21
6.2788012718
  0
LINE
  5
490
100
AcDbEntity
  8
INCISIONI
100
AcDbLine
 62
253
  6
CONTINUOUS
 10
11.0839889677
 20
-4.554832
 11
11.0839887932
 21
-5.982127
  0
LINE
  5
491
100
AcDbEntity
  8
INCISIONI
100
AcDbLine
 62
253
  6
CONTINUOUS
 10
11.0965678631
 20
-6.086013
 11
11.0965679678
 21
-4.554832
  0
LINE
  5
492
100
AcDbEntity
  8
INCISIONI
100
AcDbLine
 62
253
  6
CONTINUOUS
 10
11.1045968413
 20
-4.037094
 11
11.1045968413
 21
-6.086013
  0
LINE
  5
493
100
AcDbEntity
  8
INCISIONI
100
AcDbLine
 62
253
  6
CONTINUOUS
 10
11.1045968413
 20
-6.720338
 11
11.1045968413
 21
-7.238107
  0
LINE
  5
494
100
AcDbEntity
  8
INCISIONI
100
AcDbLine
 62
253
  6
CONTINUOUS
 10
11.1045968413
 20
-7.853838
 11
11.1045968413
 21
-8.371585
  0
LINE
  5
495
100
AcDbEntity
  8
INCISIONI
100
AcDbLine
 62
253
  6
CONTINUOUS
 10
11.1045968413
 20
-9.656836
 11
11.1045968413
 21
-10.35105
  0
LINE
  5
496
100
AcDbEntity
  8
INCISIONI
100
AcDbLine
 62
253
  6
CONTINUOUS
 10
11.1045968413
 20
-13.66021
 11
11.1045968413
 21
-14.166101
  0
LINE
  5
497
100
AcDbEntity
  8
INCISIONI
100
AcDbLine
 62
253
  6
CONTINUOUS
 10
11.1045968413
 20
-15.503009
 11
11.1045968413
 21
-16.001437
  0
LINE
  5
498
100
AcDbEntity
  8
INCISIONI
100
AcDbLine
 62
253
  6
CONTINUOUS
 10
11.1047350258
 20
16.00026
 11
11.1047350258
 21
15.342748
  0
LINE
  5
499
100
AcDbEntity
  8
INCISIONI
100
AcDbLine
 62
253
  6
CONTINUOUS
 10
11.1047350258
 20
14.22041
 11
11.1047350258
 21
13.615552
  0
LINE
  5
49A
100
AcDbEntity
  8
INCISIONI
100
AcDbLine
 62
253
  6
CONTINUOUS
 10
11.1047350258
 20
12.198005
 11
11.1047350258
 21
11.593234
  0
LINE
  5
49B
100
AcDbEntity
  8
INCISIONI
100
AcDbLine
 62
253
  6
CONTINUOUS
 10
11.1047350258
 20
10.389084
 11
11.1047350258
 21
9.790227
  0
LINE
  5
49C
100
AcDbEntity
  8
INCISIONI
100
AcDbLine
 62
253
  6
CONTINUOUS
 10
11.1047350258
 20
8.514517
 11
11.1047350258
 21
7.92899
  0
LINE
  5
49D
100
AcDbEntity
  8
INCISIONI
100
AcDbLine
 62
253
  6
CONTINUOUS
 10
11.1047380621
 20
12.785664
 11
11.1047380621
 21
13.390935
  0
LINE
  5
49E
100
AcDbEntity
  8
SUPERFICI
100
AcDbLine
 62
7
  6
CONTINUOUS
 10
11.1329826078
 20
-18.5170173922
 11
11.1329826078
 21
-18.1473460386
  0
LINE
  5
49F
100
AcDbEntity
  8
SUPERFICI
100
AcDbLine
 62
7
  6
CONTINUOUS
 10
11.1329826078
 20
18.1473460386
 11
11.1329826078
 21
18.5170173922
  0
LINE
  5
4A0
100
AcDbEntity
  8
SUPERFICI
100
AcDbLine
 62
7
  6
CONTINUOUS
 10
11.1417094756
 20
-21.8941990932
 11
11.1417094756
 21
-18.5082905244
  0
LINE
  5
4A1
100
AcDbEntity
  8
SUPERFICI
100
AcDbLine
 62
7
  6
CONTINUOUS
 10
11.1417094756
 20
18.5082905244
 11
11.1417094756
 21
21.8941990932
  0
LINE
  5
4A2
100
AcDbEntity
  8
RACCORDO
100
AcDbLine
 62
7
  6
CONTINUOUS
 10
11.15
 20
-17.6716990487
 11
11.15
 21
17.6716990487
  0
LINE
  5
4A3
100
AcDbEntity
  8
ASSI
100
AcDbLine
 62
7
  6
CONTINUOUS
 10
11.15
 20
-17.6716990487
 11
11.15
 21
17.6716990487
  0
LINE
  5
4A4
100
AcDbEntity
  8
SUPERFICI
100
AcDbLine
 62
7
  6
CONTINUOUS
 10
11.1840373766
 20
-18.1473460386
 11
11.1840373766
 21
18.1473460386
  0
LINE
  5
4A5
100
AcDbEntity
  8
0
100
AcDbLine
 62
253
  6
CONTINUOUS
 10
10.7834994648
 20
-14.3714287758
 11
10.7872392664
 21
-14.1571424484
  0
LINE
  5
4A6
100
AcDbEntity
  8
0
100
AcDbLine
 62
253
  6
CONTINUOUS
 10
10.8096780745
 20
-13.6214287758
 11
10.8078081731
 21
-13.7285712242
  0
LINE
  5
4A7
100
AcDbEntity
  8
0
100
AcDbLine
 62
253
  6
CONTINUOUS
 10
10.8096780745
 20
-14.6928575516
 11
10.8059382733
 21
-14.9071424484
  0
LINE
  5
4A8
100
AcDbEntity
  8
0
100
AcDbLine
 62
253
  6
CONTINUOUS
 10
10.8096780745
 20
-15.8714287758
 11
10.8059382733
 21
-16.0857136726
  0
LINE
  5
4A9
100
AcDbEntity
  8
INCISIONI
100
AcDbLine
 62
253
  6
CONTINUOUS
 10
10.9998864416
 20
-11.1142848969
 11
11.0046235236
 21
-10.8428563416
  0
LINE
  5
4AA
100
AcDbEntity
  8
INCISIONI
100
AcDbLine
 62
253
  6
CONTINUOUS
 10
11.0283089324
 20
-10.1642848969
 11
11.0330460138
 21
-9.8928563416
  0
LINE
  5
4AB
100
AcDbEntity
  8
INCISIONI
100
AcDbLine
 62
253
  6
CONTINUOUS
 10
11.0330460138
 20
-11.2499991179
 11
11.0283089324
 21
-11.5214277864
  0
LINE
  5
4AC
100
AcDbEntity
  8
INCISIONI
100
AcDbLine
 62
253
  6
CONTINUOUS
 10
11.014097687
 20
-14.5071422338
 11
11.0188347695
 21
-14.2357133389
  0
LINE
  5
4AD
100
AcDbEntity
  8
INCISIONI
100
AcDbLine
 62
253
  6
CONTINUOUS
 10
11.0283089324
 20
-15.9999991179
 11
11.0330460138
 21
-15.7285706758
  0
LINE
  5
4AE
100
AcDbEntity
  8
INCISIONI
100
AcDbLine
 62
253
  6
CONTINUOUS
 10
11.0283089324
 20
-14.4619038582
 11
11.0330460138
 21
-14.2357133389
  0
LINE
  5
4AF
100
AcDbEntity
  8
INCISIONI
100
AcDbLine
 62
253
  6
CONTINUOUS
 10
11.083780164
 20
-9.10422
 11
11.0540083805
 21
-10.357884
  0
LINE
  5
4B0
100
AcDbEntity
  8
INCISIONI
100
AcDbLine
 62
253
  6
CONTINUOUS
 10
11.0540083805
 20
-9.706581
 11
11.0775660468
 21
-8.741819
  0
LINE
  5
4B1
100
AcDbEntity
  8
0
100
AcDbLine
 62
253
  6
CONTINUOUS
 10
10.7947188691
 20
-15.6571424484
 11
10.7834994648
 21
-16.0857136726
  0
LINE
  5
4B2
100
AcDbEntity
  8
INCISIONI
100
AcDbLine
 62
253
  6
CONTINUOUS
 10
11.1045968413
 20
-14.166101
 11
11.0688671902
 21
-15.502999
  0
LINE
  5
4B3
100
AcDbEntity
  8
INCISIONI
100
AcDbLine
 62
253
  6
CONTINUOUS
 10
11.0540083805
 20
-15.484078
 11
11.0893480646
 21
-14.165656
  0
LINE
  5
4B4
100
AcDbEntity
  8
0
100
AcDbLine
 62
253
  6
CONTINUOUS
 10
10.8096780745
 20
-11.8
 11
10.7834994648
 21
-12.55
  0
LINE
  5
4B5
100
AcDbEntity
  8
INCISIONI
100
AcDbLine
 62
253
  6
CONTINUOUS
 10
11.0046235236
 20
-10.8428563416
 11
11.0093606055
 21
-10.7071420074
  0
LINE
  5
4B6
100
AcDbEntity
  8
INCISIONI
100
AcDbLine
 62
253
  6
CONTINUOUS
 10
11.0283089324
 20
-11.5214277864
 11
11.0235718509
 21
-11.6571420074
  0
LINE
  5
4B7
100
AcDbEntity
  8
INCISIONI
100
AcDbLine
 62
7
  6
CONTINUOUS
 10
11.0540083805
 20
-5.0426523392
 11
11.0620371664
 21
-5.0346235534
  0
LINE
  5
4B8
100
AcDbEntity
  8
INCISIONI
100
AcDbLine
 62
7
  6
CONTINUOUS
 10
11.0759595229
 20
-5.0207011968
 11
11.0839889117
 21
-5.0126718081
  0
LINE
  5
4B9
100
AcDbEntity
  8
INCISIONI
100
AcDbLine
 62
7
  6
CONTINUOUS
 10
11.0965679373
 20
-5.0000927824
 11
11.1045968413
 21
-4.9920638785
  0
LINE
  5
4BA
100
AcDbEntity
  8
DRAFT
100
AcDbLine
 62
7
  6
CONTINUOUS
 10
-3.5
 20
-19.7
 11
-3.4109791689
 21
-19.6109791689
  0
LINE
  5
4BB
100
AcDbEntity
  8
ASSI
100
AcDbLine
 62
7
  6
CONTINUOUS
 10
-3.5
 20
-19.7
 11
-3.4109791689
 21
-19.6109791689
  0
LINE
  5
4BC
100
AcDbEntity
  8
DRAFT
100
AcDbLine
 62
7
  6
CONTINUOUS
 10
-3.4109791689
 20
-19.8109791689
 11
-3.5
 21
-19.9
  0
LINE
  5
4BD
100
AcDbEntity
  8
ASSI
100
AcDbLine
 62
7
  6
CONTINUOUS
 10
-3.4109791689
 20
-19.8109791689
 11
-3.5
 21
-19.9
  0
LINE
  5
4BE
100
AcDbEntity
  8
INCISIONI
100
AcDbLine
 62
7
  6
CONTINUOUS
 10
11.0540083805
 20
-5.8826951953
 11
11.0620373184
 21
-5.8746662574
  0
LINE
  5
4BF
100
AcDbEntity
  8
INCISIONI
100
AcDbLine
 62
7
  6
CONTINUOUS
 10
11.0759596256
 20
-5.8607439502
 11
11.083988809
 21
-5.8527147668
  0
LINE
  5
4C0
100
AcDbEntity
  8
INCISIONI
100
AcDbLine
 62
7
  6
CONTINUOUS
 10
11.0965678799
 20
-5.8401356959
 11
11.1045968413
 21
-5.8321067345
  0
LINE
  5
4C1
100
AcDbEntity
  8
RACCORDO
100
AcDbLine
 62
7
  6
CONTINUOUS
 10
-2.5
 20
-19.9
 11
-2.4979803239
 21
-19.8979803239
  0
LINE
  5
4C2
100
AcDbEntity
  8
ASSI
100
AcDbLine
 62
7
  6
CONTINUOUS
 10
-2.5
 20
-19.9
 11
-2.4979803239
 21
-19.8979803239
  0
LINE
  5
4C3
100
AcDbEntity
  8
INCISIONI
100
AcDbLine
 62
7
  6
CONTINUOUS
 10
11.0540083805
 20
-6.7227380513
 11
11.0564084319
 21
-6.720338
  0
LINE
  5
4C4
100
AcDbEntity
  8
SUPERFICI
100
AcDbLine
 62
7
  6
CONTINUOUS
 10
-4.45
 20
-22.4
 11
-4.406077753
 21
-22.356077753
  0
LINE
  5
4C5
100
AcDbEntity
  8
DRAFT
100
AcDbLine
 62
7
  6
CONTINUOUS
 10
-7.1905416262
 20
-22.3359700255
 11
-7.2558178298
 21
-22.3941821702
  0
LINE
  5
4C6
100
AcDbEntity
  8
SUPERFICI
100
AcDbLine
 62
253
  6
CONTINUOUS
 10
-11.1504363434
 20
-21.900016923
 11
-11.1417094756
 21
-21.8941990932
  0
LINE
  5
4C7
100
AcDbEntity
  8
SUPERFICI
100
AcDbLine
 62
253
  6
CONTINUOUS
 10
-10.6504426895
 20
-22.4
 11
-10.6417158217
 21
-22.3941821702
  0
LINE
  5
4C8
100
AcDbEntity
  8
RACCORDO
100
AcDbLine
 62
253
  6
CONTINUOUS
 10
-11.15
 20
-17.6716990487
 11
-10.7587019127
 21
-17.5096157267
  0
LINE
  5
4C9
100
AcDbEntity
  8
ASSI
100
AcDbLine
 62
253
  6
CONTINUOUS
 10
-11.15
 20
-17.6716990487
 11
-10.7587019127
 21
-17.5096157267
  0
LINE
  5
4CA
100
AcDbEntity
  8
0
100
AcDbLine
 62
7
  6
CONTINUOUS
 10
-7.0
 20
11.55
 11
0.0
 21
11.55
  0
LINE
  5
4CB
100
AcDbEntity
  8
SMUSSO
100
AcDbLine
 62
7
  6
CONTINUOUS
 10
-7.0
 20
11.65
 11
-0.0
 21
11.65
  0
LINE
  5
4CC
100
AcDbEntity
  8
ASSI
100
AcDbLine
 62
7
  6
CONTINUOUS
 10
-7.0
 20
11.65
 11
-0.0
 21
11.65
  0
LINE
  5
4CD
100
AcDbEntity
  8
0
100
AcDbLine
 62
253
  6
CONTINUOUS
 10
4.999096
 20
11.94813
 11
2.688598
 21
11.94813
  0
LINE
  5
4CE
100
AcDbEntity
  8
RACCORDO
100
AcDbLine
 62
7
  6
CONTINUOUS
 10
9.6674550649
 20
12.0
 11
9.5
 21
12.0
  0
LINE
  5
4CF
100
AcDbEntity
  8
0
100
AcDbLine
 62
253
  6
CONTINUOUS
 10
10.9998864416
 20
12.0714285374
 11
11.0260650513
 21
12.0714285374
  0
LINE
  5
4D0
100
AcDbEntity
  8
ASSI
100
AcDbLine
 62
7
  6
CONTINUOUS
 10
9.35
 20
12.1
 11
10.8724644676
 21
12.1
  0
LINE
  5
4D1
100
AcDbEntity
  8
SMUSSO
100
AcDbLine
 62
7
  6
CONTINUOUS
 10
-7.5773502692
 20
12.2273502692
 11
0.5773502692
 21
12.2273502692
  0
LINE
  5
4D2
100
AcDbEntity
  8
ASSI
100
AcDbLine
 62
7
  6
CONTINUOUS
 10
-7.5773502692
 20
12.2273502692
 11
0.5773502692
 21
12.2273502692
  0
LINE
  5
4D3
100
AcDbEntity
  8
0
100
AcDbLine
 62
253
  6
CONTINUOUS
 10
5.43249
 20
12.502991
 11
3.798021
 21
12.502991
  0
LINE
  5
4D4
100
AcDbEntity
  8
0
100
AcDbLine
 62
253
  6
CONTINUOUS
 10
11.0223252501
 20
12.6785715818
 11
11.0036262432
 21
12.6785715818
  0
LINE
  5
4D5
100
AcDbEntity
  8
SMUSSO
100
AcDbLine
 62
7
  6
CONTINUOUS
 10
0.5773502692
 20
12.7726497308
 11
-7.5773502692
 21
12.7726497308
  0
LINE
  5
4D6
100
AcDbEntity
  8
ASSI
100
AcDbLine
 62
7
  6
CONTINUOUS
 10
0.5773502692
 20
12.7726497308
 11
-7.5773502692
 21
12.7726497308
  0
LINE
  5
4D7
100
AcDbEntity
  8
INCISIONI
100
AcDbLine
 62
253
  6
CONTINUOUS
 10
11.0541368107
 20
12.785664
 11
11.1047380621
 21
12.785664
  0
LINE
  5
4D8
100
AcDbEntity
  8
RACCORDO
100
AcDbLine
 62
253
  6
CONTINUOUS
 10
-10.7587019127
 20
17.5096157267
 11
-11.15
 21
17.6716990487
  0
LINE
  5
4D9
100
AcDbEntity
  8
ASSI
100
AcDbLine
 62
253
  6
CONTINUOUS
 10
-10.7587019127
 20
17.5096157267
 11
-11.15
 21
17.6716990487
  0
LINE
  5
4DA
100
AcDbEntity
  8
SUPERFICI
100
AcDbLine
 62
253
  6
CONTINUOUS
 10
-11.1417094756
 20
21.8941990932
 11
-11.1504363434
 21
21.900016923
  0
LINE
  5
4DB
100
AcDbEntity
  8
SUPERFICI
100
AcDbLine
 62
253
  6
CONTINUOUS
 10
-10.6417158217
 20
22.3941821702
 11
-10.6504426895
 21
22.4
  0
LINE
  5
4DC
100
AcDbEntity
  8
DRAFT
100
AcDbLine
 62
7
  6
CONTINUOUS
 10
-7.1905416262
 20
22.3359700255
 11
-7.2558178298
 21
22.3941821702
  0
LINE
  5
4DD
100
AcDbEntity
  8
DRAFT
100
AcDbLine
 62
7
  6
CONTINUOUS
 10
-3.5
 20
19.7
 11
-3.4109791689
 21
19.6109791689
  0
LINE
  5
4DE
100
AcDbEntity
  8
ASSI
100
AcDbLine
 62
7
  6
CONTINUOUS
 10
-3.5
 20
19.7
 11
-3.4109791689
 21
19.6109791689
  0
LINE
  5
4DF
100
AcDbEntity
  8
DRAFT
100
AcDbLine
 62
7
  6
CONTINUOUS
 10
-3.5
 20
19.9
 11
-3.4109791689
 21
19.8109791689
  0
LINE
  5
4E0
100
AcDbEntity
  8
ASSI
100
AcDbLine
 62
7
  6
CONTINUOUS
 10
-3.5
 20
19.9
 11
-3.4109791689
 21
19.8109791689
  0
LINE
  5
4E1
100
AcDbEntity
  8
RACCORDO
100
AcDbLine
 62
7
  6
CONTINUOUS
 10
-2.5
 20
19.9
 11
-2.4979803239
 21
19.8979803239
  0
LINE
  5
4E2
100
AcDbEntity
  8
ASSI
100
AcDbLine
 62
7
  6
CONTINUOUS
 10
-2.5
 20
19.9
 11
-2.4979803239
 21
19.8979803239
  0
LINE
  5
4E3
100
AcDbEntity
  8
SUPERFICI
100
AcDbLine
 62
7
  6
CONTINUOUS
 10
-4.45
 20
22.4
 11
-4.406077753
 21
22.356077753
  0
LINE
  5
4E4
100
AcDbEntity
  8
SUPERFICI
100
AcDbLine
 62
7
  6
CONTINUOUS
 10
11.1840373766
 20
18.1473460386
 11
11.15
 21
18.491183651
  0
LINE
  5
4E5
100
AcDbEntity
  8
SUPERFICI
100
AcDbLine
 62
7
  6
CONTINUOUS
 10
11.1840373766
 20
-18.1473460386
 11
11.15
 21
-18.491183651
  0
LINE
  5
4E6
100
AcDbEntity
  8
INCISIONI
100
AcDbLine
 62
7
  6
CONTINUOUS
 10
11.0717603643
 20
-8.3850717796
 11
11.0825860246
 21
-8.3742461194
  0
LINE
  5
4E7
100
AcDbEntity
  8
INCISIONI
100
AcDbLine
 62
7
  6
CONTINUOUS
 10
11.0852559127
 20
-8.3715762313
 11
11.1045968413
 21
-8.3522353027
  0
LINE
  5
4E8
100
AcDbEntity
  8
SUPERFICI
100
AcDbLine
 62
7
  6
CONTINUOUS
 10
-4.4063493531
 20
-23.9563493531
 11
-4.45
 21
-24.0
  0
LINE
  5
4E9
100
AcDbEntity
  8
INCISIONI
100
AcDbLine
 62
7
  6
CONTINUOUS
 10
11.0656148174
 20
-9.2312601826
 11
11.0811317298
 21
-9.2157432702
  0
LINE
  5
4EA
100
AcDbEntity
  8
INCISIONI
100
AcDbLine
 62
7
  6
CONTINUOUS
 10
11.0855680536
 20
-9.2113069464
 11
11.096758966
 21
-9.200116034
  0
LINE
  5
4EB
100
AcDbEntity
  8
RACCORDO
100
AcDbLine
 62
253
  6
CONTINUOUS
 10
-10.5643027805
 20
-19.0856972195
 11
-10.1730026398
 21
-18.9236182982
  0
LINE
  5
4EC
100
AcDbEntity
  8
ASSI
100
AcDbLine
 62
253
  6
CONTINUOUS
 10
-10.5643027805
 20
-19.0856972195
 11
-10.1730026398
 21
-18.9236182982
  0
LINE
  5
4ED
100
AcDbEntity
  8
ASSI
100
AcDbLine
 62
7
  6
CONTINUOUS
 10
9.35
 20
12.9
 11
10.8724644676
 21
12.9
  0
LINE
  5
4EE
100
AcDbEntity
  8
RACCORDO
100
AcDbLine
 62
7
  6
CONTINUOUS
 10
9.5
 20
13.0
 11
9.6674550649
 21
13.0
  0
LINE
  5
4EF
100
AcDbEntity
  8
0
100
AcDbLine
 62
253
  6
CONTINUOUS
 10
2.688586
 20
13.052943
 11
4.999096
 21
13.052943
  0
LINE
  5
4F0
100
AcDbEntity
  8
SMUSSO
100
AcDbLine
 62
7
  6
CONTINUOUS
 10
0.0
 20
13.35
 11
-7.0
 21
13.35
  0
LINE
  5
4F1
100
AcDbEntity
  8
ASSI
100
AcDbLine
 62
7
  6
CONTINUOUS
 10
0.0
 20
13.35
 11
-7.0
 21
13.35
  0
LINE
  5
4F2
100
AcDbEntity
  8
INCISIONI
100
AcDbLine
 62
253
  6
CONTINUOUS
 10
11.1047380621
 20
13.390935
 11
11.0541368107
 21
13.390935
  0
LINE
  5
4F3
100
AcDbEntity
  8
0
100
AcDbLine
 62
253
  6
CONTINUOUS
 10
10.9998864416
 20
13.428571403
 11
11.0260650513
 21
13.428571403
  0
LINE
  5
4F4
100
AcDbEntity
  8
0
100
AcDbLine
 62
7
  6
CONTINUOUS
 10
0.0
 20
13.55
 11
-7.0
 21
13.55
  0
LINE
  5
4F5
100
AcDbEntity
  8
RACCORDO
100
AcDbLine
 62
253
  6
CONTINUOUS
 10
-10.1730026398
 20
18.9236182982
 11
-10.5643027805
 21
19.0856972195
  0
LINE
  5
4F6
100
AcDbEntity
  8
ASSI
100
AcDbLine
 62
253
  6
CONTINUOUS
 10
-10.1730026398
 20
18.9236182982
 11
-10.5643027805
 21
19.0856972195
  0
LINE
  5
4F7
100
AcDbEntity
  8
SUPERFICI
100
AcDbLine
 62
7
  6
CONTINUOUS
 10
-4.45
 20
24.0
 11
-4.4063493531
 21
23.9563493531
  0
LINE
  5
4F8
100
AcDbEntity
  8
INCISIONI
100
AcDbLine
 62
253
  6
CONTINUOUS
 10
11.0871764958
 20
11.750162
 11
11.0541368107
 21
11.880779
  0
LINE
  5
4F9
100
AcDbEntity
  8
INCISIONI
100
AcDbLine
 62
253
  6
CONTINUOUS
 10
11.0541368107
 20
12.459827
 11
11.1047350258
 21
12.198005
  0
LINE
  5
4FA
100
AcDbEntity
  8
INCISIONI
100
AcDbLine
 62
7
  6
CONTINUOUS
 10
11.0540083805
 20
-10.0829094755
 11
11.0606972718
 21
-10.0762205842
  0
LINE
  5
4FB
100
AcDbEntity
  8
INCISIONI
100
AcDbLine
 62
7
  6
CONTINUOUS
 10
11.0993628289
 20
-10.0375550272
 11
11.1045968413
 21
-10.0323210148
  0
LINE
  5
4FC
100
AcDbEntity
  8
INCISIONI
100
AcDbLine
 62
7
  6
CONTINUOUS
 10
11.0575030986
 20
-10.9194576135
 11
11.0752345839
 21
-10.9017261282
  0
LINE
  5
4FD
100
AcDbEntity
  8
INCISIONI
100
AcDbLine
 62
7
  6
CONTINUOUS
 10
11.082481884
 20
-10.8944788281
 11
11.1005241229
 21
-10.8764365892
  0
LINE
  5
4FE
100
AcDbEntity
  8
INCISIONI
100
AcDbLine
 62
7
  6
CONTINUOUS
 10
11.0528903856
 20
-11.7641131826
 11
11.0608970495
 21
-11.7561065187
  0
LINE
  5
4FF
100
AcDbEntity
  8
INCISIONI
100
AcDbLine
 62
7
  6
CONTINUOUS
 10
11.0976875095
 20
-11.7193160586
 11
11.1057058111
 21
-11.711297757
  0
LINE
  5
500
100
AcDbEntity
  8
0
100
AcDbLine
 62
253
  6
CONTINUOUS
 10
11.0260650513
 20
15.1428571045
 11
10.9998864416
 21
15.1428571045
  0
LINE
  5
501
100
AcDbEntity
  8
0
100
AcDbLine
 62
253
  6
CONTINUOUS
 10
10.9998864416
 20
16.0
 11
11.0260650513
 21
16.0
  0
LINE
  5
502
100
AcDbEntity
  8
DRAFT
100
AcDbLine
 62
7
  6
CONTINUOUS
 10
9.5126621606
 20
13.0773905578
 11
9.6674550649
 21
13.0
  0
LINE
  5
503
100
AcDbEntity
  8
INCISIONI
100
AcDbLine
 62
7
  6
CONTINUOUS
 10
11.057582958
 20
-12.5994634662
 11
11.0729280423
 21
-12.5841183819
  0
LINE
  5
504
100
AcDbEntity
  8
INCISIONI
100
AcDbLine
 62
7
  6
CONTINUOUS
 10
11.0865275635
 20
-12.5705188607
 11
11.1015929019
 21
-12.5554535223
  0
LINE
  5
505
100
AcDbEntity
  8
INCISIONI
100
AcDbLine
 62
7
  6
CONTINUOUS
 10
11.0870860272
 20
-14.250046109
 11
11.1027725776
 21
-14.2343595587
  0
LINE
  5
506
100
AcDbEntity
  8
0
100
AcDbLine
 62
7
  6
CONTINUOUS
 10
-7.0
 20
16.55
 11
0.0
 21
16.55
  0
LINE
  5
507
100
AcDbEntity
  8
SMUSSO
100
AcDbLine
 62
7
  6
CONTINUOUS
 10
-7.0
 20
16.65
 11
0.0
 21
16.65
  0
LINE
  5
508
100
AcDbEntity
  8
ASSI
100
AcDbLine
 62
7
  6
CONTINUOUS
 10
-7.0
 20
16.65
 11
0.0
 21
16.65
  0
LINE
  5
509
100
AcDbEntity
  8
ASSI
100
AcDbLine
 62
7
  6
CONTINUOUS
 10
9.35
 20
17.1
 11
10.8724644676
 21
17.1
  0
LINE
  5
50A
100
AcDbEntity
  8
SMUSSO
100
AcDbLine
 62
7
  6
CONTINUOUS
 10
-7.5773502692
 20
17.2273502692
 11
0.5773502692
 21
17.2273502692
  0
LINE
  5
50B
100
AcDbEntity
  8
ASSI
100
AcDbLine
 62
7
  6
CONTINUOUS
 10
-7.5773502692
 20
17.2273502692
 11
0.5773502692
 21
17.2273502692
  0
LINE
  5
50C
100
AcDbEntity
  8
RACCORDO
100
AcDbLine
 62
253
  6
CONTINUOUS
 10
9.7588542176
 20
17.509618074
 11
10.7587019127
 21
17.509618074
  0
LINE
  5
50D
100
AcDbEntity
  8
ASSI
100
AcDbLine
 62
253
  6
CONTINUOUS
 10
9.7588542176
 20
17.509618074
 11
10.7587019127
 21
17.509618074
  0
LINE
  5
50E
100
AcDbEntity
  8
RACCORDO
100
AcDbLine
 62
253
  6
CONTINUOUS
 10
-9.7588542176
 20
17.509618074
 11
-10.7587019127
 21
17.509618074
  0
LINE
  5
50F
100
AcDbEntity
  8
ASSI
100
AcDbLine
 62
253
  6
CONTINUOUS
 10
-9.7588542176
 20
17.509618074
 11
-10.7587019127
 21
17.509618074
  0
LINE
  5
510
100
AcDbEntity
  8
SUPERFICI
100
AcDbLine
 62
7
  6
CONTINUOUS
 10
-11.1840373766
 20
18.1473460386
 11
-11.1329826078
 21
18.1473460386
  0
LINE
  5
511
100
AcDbEntity
  8
SUPERFICI
100
AcDbLine
 62
7
  6
CONTINUOUS
 10
11.1840373766
 20
18.1473460386
 11
11.1329826078
 21
18.1473460386
  0
LINE
  5
512
100
AcDbEntity
  8
INCISIONI
100
AcDbLine
 62
7
  6
CONTINUOUS
 10
11.063948892
 20
-15.1132261004
 11
11.0797052796
 21
-15.0974697128
  0
LINE
  5
513
100
AcDbEntity
  8
DRAFT
100
AcDbLine
 62
7
  6
CONTINUOUS
 10
7.2040044543
 20
-19.7959955457
 11
7.3
 21
-19.7
  0
LINE
  5
514
100
AcDbEntity
  8
INCISIONI
100
AcDbLine
 62
7
  6
CONTINUOUS
 10
11.0540083805
 20
-15.9632094679
 11
11.1045968413
 21
-15.9126210071
  0
LINE
  5
515
100
AcDbEntity
  8
DRAFT
100
AcDbLine
 62
7
  6
CONTINUOUS
 10
7.4
 20
-19.7
 11
7.4890208311
 21
-19.6109791689
  0
LINE
  5
516
100
AcDbEntity
  8
ASSI
100
AcDbLine
 62
7
  6
CONTINUOUS
 10
7.4
 20
-19.7
 11
7.4890208311
 21
-19.6109791689
  0
LINE
  5
517
100
AcDbEntity
  8
RACCORDO
100
AcDbLine
 62
253
  6
CONTINUOUS
 10
9.2882387315
 20
-18.3943840357
 11
9.4660056078
 21
-18.2166171594
  0
LINE
  5
518
100
AcDbEntity
  8
ASSI
100
AcDbLine
 62
253
  6
CONTINUOUS
 10
9.2882387315
 20
-18.3943840357
 11
9.4660056078
 21
-18.2166171594
  0
LINE
  5
519
100
AcDbEntity
  8
DRAFT
100
AcDbLine
 62
7
  6
CONTINUOUS
 10
7.2040044543
 20
-20.9959955457
 11
7.3
 21
-20.9
  0
LINE
  5
51A
100
AcDbEntity
  8
RACCORDO
100
AcDbLine
 62
253
  6
CONTINUOUS
 10
9.2882387315
 20
18.3943840357
 11
-9.2882387315
 21
18.3943840357
  0
LINE
  5
51B
100
AcDbEntity
  8
ASSI
100
AcDbLine
 62
253
  6
CONTINUOUS
 10
9.2882387315
 20
18.3943840357
 11
-9.2882387315
 21
18.3943840357
  0
LINE
  5
51C
100
AcDbEntity
  8
RACCORDO
100
AcDbLine
 62
253
  6
CONTINUOUS
 10
9.2882387315
 20
19.3942317309
 11
-9.2882387315
 21
19.3942317309
  0
LINE
  5
51D
100
AcDbEntity
  8
ASSI
100
AcDbLine
 62
253
  6
CONTINUOUS
 10
9.2882387315
 20
19.3942317309
 11
-9.2882387315
 21
19.3942317309
  0
LINE
  5
51E
100
AcDbEntity
  8
RACCORDO
100
AcDbLine
 62
7
  6
CONTINUOUS
 10
9.37801846
 20
19.6109791689
 11
7.4890208311
 21
19.6109791689
  0
LINE
  5
51F
100
AcDbEntity
  8
ASSI
100
AcDbLine
 62
7
  6
CONTINUOUS
 10
9.37801846
 20
19.6109791689
 11
7.4890208311
 21
19.6109791689
  0
LINE
  5
520
100
AcDbEntity
  8
DRAFT
100
AcDbLine
 62
7
  6
CONTINUOUS
 10
-3.4109791689
 20
19.6109791689
 11
3.4109791689
 21
19.6109791689
  0
LINE
  5
521
100
AcDbEntity
  8
ASSI
100
AcDbLine
 62
7
  6
CONTINUOUS
 10
-3.4109791689
 20
19.6109791689
 11
3.4109791689
 21
19.6109791689
  0
LINE
  5
522
100
AcDbEntity
  8
RACCORDO
100
AcDbLine
 62
7
  6
CONTINUOUS
 10
-7.4890208311
 20
19.6109791689
 11
-9.37801846
 21
19.6109791689
  0
LINE
  5
523
100
AcDbEntity
  8
ASSI
100
AcDbLine
 62
7
  6
CONTINUOUS
 10
-7.4890208311
 20
19.6109791689
 11
-9.37801846
 21
19.6109791689
  0
LINE
  5
524
100
AcDbEntity
  8
DRAFT
100
AcDbLine
 62
7
  6
CONTINUOUS
 10
7.4
 20
19.7
 11
3.5
 21
19.7
  0
LINE
  5
525
100
AcDbEntity
  8
ASSI
100
AcDbLine
 62
7
  6
CONTINUOUS
 10
7.4
 20
19.7
 11
3.5
 21
19.7
  0
LINE
  5
526
100
AcDbEntity
  8
DRAFT
100
AcDbLine
 62
7
  6
CONTINUOUS
 10
-3.5
 20
19.7
 11
-7.4
 21
19.7
  0
LINE
  5
527
100
AcDbEntity
  8
ASSI
100
AcDbLine
 62
7
  6
CONTINUOUS
 10
-3.5
 20
19.7
 11
-7.4
 21
19.7
  0
LINE
  5
528
100
AcDbEntity
  8
DRAFT
100
AcDbLine
 62
7
  6
CONTINUOUS
 10
7.2040044543
 20
19.7959955457
 11
6.5959955457
 21
19.7959955457
  0
LINE
  5
529
100
AcDbEntity
  8
DRAFT
100
AcDbLine
 62
7
  6
CONTINUOUS
 10
-6.5959955457
 20
19.7959955457
 11
-7.2040044543
 21
19.7959955457
  0
LINE
  5
52A
100
AcDbEntity
  8
DRAFT
100
AcDbLine
 62
7
  6
CONTINUOUS
 10
-3.4109791689
 20
19.8109791689
 11
3.4109791689
 21
19.8109791689
  0
LINE
  5
52B
100
AcDbEntity
  8
ASSI
100
AcDbLine
 62
7
  6
CONTINUOUS
 10
-3.4109791689
 20
19.8109791689
 11
3.4109791689
 21
19.8109791689
  0
LINE
  5
52C
100
AcDbEntity
  8
RACCORDO
100
AcDbLine
 62
7
  6
CONTINUOUS
 10
-1.5981173983
 20
19.8825449351
 11
1.5981173983
 21
19.8825449351
  0
LINE
  5
52D
100
AcDbEntity
  8
ASSI
100
AcDbLine
 62
7
  6
CONTINUOUS
 10
-1.5981173983
 20
19.8825449351
 11
1.5981173983
 21
19.8825449351
  0
LINE
  5
52E
100
AcDbEntity
  8
DRAFT
100
AcDbLine
 62
7
  6
CONTINUOUS
 10
-3.5
 20
19.9
 11
-2.5
 21
19.9
  0
LINE
  5
52F
100
AcDbEntity
  8
ASSI
100
AcDbLine
 62
7
  6
CONTINUOUS
 10
-3.5
 20
19.9
 11
-2.5
 21
19.9
  0
LINE
  5
530
100
AcDbEntity
  8
DRAFT
100
AcDbLine
 62
7
  6
CONTINUOUS
 10
2.5
 20
19.9
 11
3.5
 21
19.9
  0
LINE
  5
531
100
AcDbEntity
  8
ASSI
100
AcDbLine
 62
7
  6
CONTINUOUS
 10
2.5
 20
19.9
 11
3.5
 21
19.9
  0
LINE
  5
532
100
AcDbEntity
  8
DRAFT
100
AcDbLine
 62
7
  6
CONTINUOUS
 10
6.4372596706
 20
19.9372596706
 11
2.5
 21
19.9372596706
  0
LINE
  5
533
100
AcDbEntity
  8
DRAFT
100
AcDbLine
 62
7
  6
CONTINUOUS
 10
-2.5
 20
19.9372596706
 11
-6.4372596706
 21
19.9372596706
  0
LINE
  5
534
100
AcDbEntity
  8
DRAFT
100
AcDbLine
 62
7
  6
CONTINUOUS
 10
7.2040044543
 20
19.7959955457
 11
7.3
 21
19.7
  0
LINE
  5
535
100
AcDbEntity
  8
DRAFT
100
AcDbLine
 62
7
  6
CONTINUOUS
 10
7.4
 20
19.7
 11
7.4890208311
 21
19.6109791689
  0
LINE
  5
536
100
AcDbEntity
  8
ASSI
100
AcDbLine
 62
7
  6
CONTINUOUS
 10
7.4
 20
19.7
 11
7.4890208311
 21
19.6109791689
  0
LINE
  5
537
100
AcDbEntity
  8
RACCORDO
100
AcDbLine
 62
253
  6
CONTINUOUS
 10
9.4660056078
 20
18.2166171594
 11
9.2882387315
 21
18.3943840357
  0
LINE
  5
538
100
AcDbEntity
  8
ASSI
100
AcDbLine
 62
253
  6
CONTINUOUS
 10
9.4660056078
 20
18.2166171594
 11
9.2882387315
 21
18.3943840357
  0
LINE
  5
539
100
AcDbEntity
  8
DRAFT
100
AcDbLine
 62
7
  6
CONTINUOUS
 10
7.2040044543
 20
20.9959955457
 11
7.3
 21
20.9
  0
LINE
  5
53A
100
AcDbEntity
  8
SUPERFICI
100
AcDbLine
 62
7
  6
CONTINUOUS
 10
9.65
 20
-20.1990396502
 11
8.9498936624
 21
-20.9
  0
LINE
  5
53B
100
AcDbEntity
  8
RACCORDO
100
AcDbLine
 62
253
  6
CONTINUOUS
 10
9.9952378169
 20
-19.1013831211
 11
10.1730026398
 21
-18.9236182982
  0
LINE
  5
53C
100
AcDbEntity
  8
ASSI
100
AcDbLine
 62
253
  6
CONTINUOUS
 10
9.9952378169
 20
-19.1013831211
 11
10.1730026398
 21
-18.9236182982
  0
LINE
  5
53D
100
AcDbEntity
  8
RACCORDO
100
AcDbLine
 62
7
  6
CONTINUOUS
 10
10.0850175454
 20
-19.3181305591
 11
8.5531481045
 21
-20.85
  0
LINE
  5
53E
100
AcDbEntity
  8
ASSI
100
AcDbLine
 62
7
  6
CONTINUOUS
 10
10.0850175454
 20
-19.3181305591
 11
8.5531481045
 21
-20.85
  0
LINE
  5
53F
100
AcDbEntity
  8
DRAFT
100
AcDbLine
 62
7
  6
CONTINUOUS
 10
8.25
 20
-21.4
 11
7.2558178298
 21
-22.3941821702
  0
LINE
  5
540
100
AcDbEntity
  8
RACCORDO
100
AcDbLine
 62
7
  6
CONTINUOUS
 10
8.8
 20
-20.85
 11
10.5643027805
 21
-19.0856972195
  0
LINE
  5
541
100
AcDbEntity
  8
ASSI
100
AcDbLine
 62
7
  6
CONTINUOUS
 10
8.8
 20
-20.85
 11
10.5643027805
 21
-19.0856972195
  0
LINE
  5
542
100
AcDbEntity
  8
SUPERFICI
100
AcDbLine
 62
7
  6
CONTINUOUS
 10
10.15
 20
-19.5
 11
11.1329826078
 21
-18.5170173922
  0
LINE
  5
543
100
AcDbEntity
  8
DRAFT
100
AcDbLine
 62
7
  6
CONTINUOUS
 10
3.5
 20
20.0087268678
 11
2.5
 21
20.0087268678
  0
LINE
  5
544
100
AcDbEntity
  8
DRAFT
100
AcDbLine
 62
7
  6
CONTINUOUS
 10
-2.5
 20
20.0087268678
 11
-3.5
 21
20.0087268678
  0
LINE
  5
545
100
AcDbEntity
  8
DRAFT
100
AcDbLine
 62
7
  6
CONTINUOUS
 10
-2.5
 20
20.0619607613
 11
-2.4413111231
 21
20.0619607613
  0
LINE
  5
546
100
AcDbEntity
  8
DRAFT
100
AcDbLine
 62
7
  6
CONTINUOUS
 10
2.4413111231
 20
20.0619607613
 11
2.5
 21
20.0619607613
  0
LINE
  5
547
100
AcDbEntity
  8
DRAFT
100
AcDbLine
 62
7
  6
CONTINUOUS
 10
6.5959955457
 20
20.0959955457
 11
-6.5959955457
 21
20.0959955457
  0
LINE
  5
548
100
AcDbEntity
  8
DRAFT
100
AcDbLine
 62
7
  6
CONTINUOUS
 10
-7.4
 20
20.5276115984
 11
-7.3620095793
 21
20.5276115984
  0
LINE
  5
549
100
AcDbEntity
  8
DRAFT
100
AcDbLine
 62
7
  6
CONTINUOUS
 10
7.3620095793
 20
20.5276115984
 11
7.4
 21
20.5276115984
  0
LINE
  5
54A
100
AcDbEntity
  8
SUPERFICI
100
AcDbLine
 62
7
  6
CONTINUOUS
 10
3.0
 20
20.8
 11
-3.0
 21
20.8
  0
LINE
  5
54B
100
AcDbEntity
  8
DRAFT
100
AcDbLine
 62
7
  6
CONTINUOUS
 10
7.4
 20
20.85
 11
8.8
 21
20.85
  0
LINE
  5
54C
100
AcDbEntity
  8
ASSI
100
AcDbLine
 62
7
  6
CONTINUOUS
 10
7.4
 20
20.85
 11
8.8
 21
20.85
  0
LINE
  5
54D
100
AcDbEntity
  8
DRAFT
100
AcDbLine
 62
7
  6
CONTINUOUS
 10
-7.4
 20
20.85
 11
-8.8
 21
20.85
  0
LINE
  5
54E
100
AcDbEntity
  8
ASSI
100
AcDbLine
 62
7
  6
CONTINUOUS
 10
-7.4
 20
20.85
 11
-8.8
 21
20.85
  0
LINE
  5
54F
100
AcDbEntity
  8
DRAFT
100
AcDbLine
 62
7
  6
CONTINUOUS
 10
8.9498936624
 20
20.9
 11
7.3
 21
20.9
  0
LINE
  5
550
100
AcDbEntity
  8
DRAFT
100
AcDbLine
 62
7
  6
CONTINUOUS
 10
-7.3
 20
20.9
 11
-8.9498936624
 21
20.9
  0
LINE
  5
551
100
AcDbEntity
  8
DRAFT
100
AcDbLine
 62
7
  6
CONTINUOUS
 10
7.5666456542
 20
20.9959955457
 11
7.2040044543
 21
20.9959955457
  0
LINE
  5
552
100
AcDbEntity
  8
DRAFT
100
AcDbLine
 62
7
  6
CONTINUOUS
 10
-7.2040044543
 20
20.9959955457
 11
-7.5666456542
 21
20.9959955457
  0
LINE
  5
553
100
AcDbEntity
  8
SUPERFICI
100
AcDbLine
 62
253
  6
CONTINUOUS
 10
7.5666456542
 20
21.3359869487
 11
3.0
 21
21.3359869487
  0
LINE
  5
554
100
AcDbEntity
  8
SUPERFICI
100
AcDbLine
 62
253
  6
CONTINUOUS
 10
-3.0
 20
21.3359869487
 11
-7.5666456542
 21
21.3359869487
  0
LINE
  5
555
100
AcDbEntity
  8
SUPERFICI
100
AcDbLine
 62
7
  6
CONTINUOUS
 10
3.0
 20
21.7
 11
-3.0
 21
21.7
  0
LINE
  5
556
100
AcDbEntity
  8
RACCORDO
100
AcDbLine
 62
253
  6
CONTINUOUS
 10
10.1730026398
 20
18.9236182982
 11
9.9952378169
 21
19.1013831211
  0
LINE
  5
557
100
AcDbEntity
  8
ASSI
100
AcDbLine
 62
253
  6
CONTINUOUS
 10
10.1730026398
 20
18.9236182982
 11
9.9952378169
 21
19.1013831211
  0
LINE
  5
558
100
AcDbEntity
  8
RACCORDO
100
AcDbLine
 62
7
  6
CONTINUOUS
 10
8.5531481045
 20
20.85
 11
10.0850175454
 21
19.3181305591
  0
LINE
  5
559
100
AcDbEntity
  8
ASSI
100
AcDbLine
 62
7
  6
CONTINUOUS
 10
8.5531481045
 20
20.85
 11
10.0850175454
 21
19.3181305591
  0
LINE
  5
55A
100
AcDbEntity
  8
DRAFT
100
AcDbLine
 62
7
  6
CONTINUOUS
 10
7.2558178298
 20
22.3941821702
 11
8.25
 21
21.4
  0
LINE
  5
55B
100
AcDbEntity
  8
SUPERFICI
100
AcDbLine
 62
7
  6
CONTINUOUS
 10
11.1329826078
 20
18.5170173922
 11
10.15
 21
19.5
  0
LINE
  5
55C
100
AcDbEntity
  8
RACCORDO
100
AcDbLine
 62
7
  6
CONTINUOUS
 10
10.5643027805
 20
19.0856972195
 11
8.8
 21
20.85
  0
LINE
  5
55D
100
AcDbEntity
  8
ASSI
100
AcDbLine
 62
7
  6
CONTINUOUS
 10
10.5643027805
 20
19.0856972195
 11
8.8
 21
20.85
  0
LINE
  5
55E
100
AcDbEntity
  8
SUPERFICI
100
AcDbLine
 62
7
  6
CONTINUOUS
 10
9.65
 20
20.1990396502
 11
8.9498936624
 21
20.9
  0
LINE
  5
55F
100
AcDbEntity
  8
DRAFT
100
AcDbLine
 62
7
  6
CONTINUOUS
 10
8.0665695018
 20
-20.9917082642
 11
8.25
 21
-20.9
  0
LINE
  5
560
100
AcDbEntity
  8
DRAFT
100
AcDbLine
 62
7
  6
CONTINUOUS
 10
8.0665695018
 20
-21.4537354271
 11
8.25
 21
-21.4
  0
LINE
  5
561
100
AcDbEntity
  8
DRAFT
100
AcDbLine
 62
7
  6
CONTINUOUS
 10
7.1905416262
 20
22.3359700255
 11
3.0
 21
22.3359700255
  0
LINE
  5
562
100
AcDbEntity
  8
DRAFT
100
AcDbLine
 62
7
  6
CONTINUOUS
 10
-3.0
 20
22.3359700255
 11
-7.1905416262
 21
22.3359700255
  0
LINE
  5
563
100
AcDbEntity
  8
DRAFT
100
AcDbLine
 62
7
  6
CONTINUOUS
 10
10.6417158217
 20
22.3941821702
 11
7.2558178298
 21
22.3941821702
  0
LINE
  5
564
100
AcDbEntity
  8
DRAFT
100
AcDbLine
 62
7
  6
CONTINUOUS
 10
-7.2558178298
 20
22.3941821702
 11
-10.6417158217
 21
22.3941821702
  0
LINE
  5
565
100
AcDbEntity
  8
SUPERFICI
100
AcDbLine
 62
7
  6
CONTINUOUS
 10
1.0
 20
22.3947639644
 11
-1.0
 21
22.3947639644
  0
LINE
  5
566
100
AcDbEntity
  8
SUPERFICI
100
AcDbLine
 62
7
  6
CONTINUOUS
 10
7.25
 20
22.4
 11
4.45
 21
22.4
  0
LINE
  5
567
100
AcDbEntity
  8
SUPERFICI
100
AcDbLine
 62
7
  6
CONTINUOUS
 10
-4.45
 20
22.4
 11
-7.25
 21
22.4
  0
LINE
  5
568
100
AcDbEntity
  8
SUPERFICI
100
AcDbLine
 62
7
  6
CONTINUOUS
 10
-9.9007229979
 20
23.1226497308
 11
-7.4992770021
 21
23.1226497308
  0
LINE
  5
569
100
AcDbEntity
  8
SUPERFICI
100
AcDbLine
 62
7
  6
CONTINUOUS
 10
9.9007229979
 20
23.1226497308
 11
7.4992770021
 21
23.1226497308
  0
LINE
  5
56A
100
AcDbEntity
  8
DRAFT
100
AcDbLine
 62
7
  6
CONTINUOUS
 10
8.0665695018
 20
21.4537354271
 11
8.25
 21
21.4
  0
LINE
  5
56B
100
AcDbEntity
  8
DRAFT
100
AcDbLine
 62
7
  6
CONTINUOUS
 10
8.0665695018
 20
20.9917082642
 11
8.25
 21
20.9
  0
LINE
  5
56C
100
AcDbEntity
  8
SUPERFICI
100
AcDbLine
 62
253
  6
CONTINUOUS
 10
-9.8956323968
 20
23.6278312164
 11
-7.5043676032
 21
23.6278312164
  0
LINE
  5
56D
100
AcDbEntity
  8
SUPERFICI
100
AcDbLine
 62
253
  6
CONTINUOUS
 10
7.5043676032
 20
23.6278312164
 11
9.8956323968
 21
23.6278312164
  0
LINE
  5
56E
100
AcDbEntity
  8
SUPERFICI
100
AcDbLine
 62
253
  6
CONTINUOUS
 10
7.254371834
 20
23.8443375673
 11
10.145628166
 21
23.8443375673
  0
LINE
  5
56F
100
AcDbEntity
  8
SUPERFICI
100
AcDbLine
 62
253
  6
CONTINUOUS
 10
-7.254371834
 20
23.8443375673
 11
-10.145628166
 21
23.8443375673
  0
LINE
  5
570
100
AcDbEntity
  8
SUPERFICI
100
AcDbLine
 62
7
  6
CONTINUOUS
 10
4.4063493531
 20
23.9563493531
 11
3.5
 21
23.9563493531
  0
LINE
  5
571
100
AcDbEntity
  8
SUPERFICI
100
AcDbLine
 62
7
  6
CONTINUOUS
 10
-3.5
 20
23.9563493531
 11
-4.4063493531
 21
23.9563493531
  0
LINE
  5
572
100
AcDbEntity
  8
SUPERFICI
100
AcDbLine
 62
7
  6
CONTINUOUS
 10
3.5
 20
23.9941821702
 11
1.2
 21
23.9941821702
  0
LINE
  5
573
100
AcDbEntity
  8
SUPERFICI
100
AcDbLine
 62
7
  6
CONTINUOUS
 10
-1.2
 20
23.9941821702
 11
-3.5
 21
23.9941821702
  0
LINE
  5
574
100
AcDbEntity
  8
SUPERFICI
100
AcDbLine
 62
7
  6
CONTINUOUS
 10
4.45
 20
24.0
 11
3.5
 21
24.0
  0
LINE
  5
575
100
AcDbEntity
  8
SUPERFICI
100
AcDbLine
 62
7
  6
CONTINUOUS
 10
-3.5
 20
24.0
 11
-4.45
 21
24.0
  0
LINE
  5
576
100
AcDbEntity
  8
SUPERFICI
100
AcDbLine
 62
253
  6
CONTINUOUS
 10
7.254371834
 20
24.2456323968
 11
10.145628166
 21
24.2456323968
  0
LINE
  5
577
100
AcDbEntity
  8
SUPERFICI
100
AcDbLine
 62
253
  6
CONTINUOUS
 10
-7.254371834
 20
24.2456323968
 11
-10.145628166
 21
24.2456323968
  0
LINE
  5
578
100
AcDbEntity
  8
SUPERFICI
100
AcDbLine
 62
7
  6
CONTINUOUS
 10
9.8956323968
 20
24.495628166
 11
7.5043676032
 21
24.495628166
  0
LINE
  5
579
100
AcDbEntity
  8
SUPERFICI
100
AcDbLine
 62
7
  6
CONTINUOUS
 10
-7.5043676032
 20
24.495628166
 11
-9.8956323968
 21
24.495628166
  0
ARC
  5
57A
100
AcDbEntity
  8
SUPERFICI
100
AcDbCircle
 62
7
  6
CONTINUOUS
 10
-59.2973356497
 20
-83.7065178043
 40
87.3538330092
100
AcDbArc
 50
43.4116619138
 51
43.6083781619
  0
ARC
  5
57B
100
AcDbEntity
  8
INCISIONI
100
AcDbCircle
 62
253
  6
CONTINUOUS
 10
-79.7090089404
 20
5.98467421
 40
90.8056004093
100
AcDbArc
 50
359.8863943748
 51
0.1855862268
  0
ARC
  5
57C
100
AcDbEntity
  8
SUPERFICI
100
AcDbCircle
 62
7
  6
CONTINUOUS
 10
-38.7918796274
 20
64.240749656
 40
59.0804113348
100
AcDbArc
 50
316.3445519523
 51
316.6354126803
  0
ARC
  5
57D
100
AcDbEntity
  8
SUPERFICI
100
AcDbCircle
 62
7
  6
CONTINUOUS
 10
38.7925770908
 20
-64.2414121638
 40
59.0813732949
100
AcDbArc
 50
136.3445540332
 51
136.6354059829
  0
ARC
  5
57E
100
AcDbEntity
  8
RACCORDO
100
AcDbCircle
 62
253
  6
CONTINUOUS
 10
8.758701946
 20
-17.5094919143
 40
1.9999999708
100
AcDbArc
 50
315.0035310201
 51
359.9964530363
  0
ARC
  5
57F
100
AcDbEntity
  8
RACCORDO
100
AcDbCircle
 62
253
  6
CONTINUOUS
 10
-8.758701946
 20
-17.5094919143
 40
1.9999999708
100
AcDbArc
 50
180.0035469634
 51
224.9964689797
  0
ARC
  5
580
100
AcDbEntity
  8
ASSI
100
AcDbCircle
 62
253
  6
CONTINUOUS
 10
-8.758701946
 20
-17.5094919143
 40
1.9999999708
100
AcDbArc
 50
180.0035469634
 51
224.9964689797
  0
ARC
  5
581
100
AcDbEntity
  8
ASSI
100
AcDbCircle
 62
253
  6
CONTINUOUS
 10
8.758701946
 20
-17.5094919143
 40
1.9999999708
100
AcDbArc
 50
315.0035310201
 51
359.9964530363
  0
ARC
  5
582
100
AcDbEntity
  8
RACCORDO
100
AcDbCircle
 62
253
  6
CONTINUOUS
 10
-9.288107352
 20
-18.3940668574
 40
1.0001648821
100
AcDbArc
 50
225.0075262522
 51
269.9924737478
  0
ARC
  5
583
100
AcDbEntity
  8
RACCORDO
100
AcDbCircle
 62
253
  6
CONTINUOUS
 10
9.288107352
 20
-18.3940668574
 40
1.0001648821
100
AcDbArc
 50
270.0075262522
 51
314.9924737478
  0
ARC
  5
584
100
AcDbEntity
  8
ASSI
100
AcDbCircle
 62
253
  6
CONTINUOUS
 10
9.288107352
 20
-18.3940668574
 40
1.0001648821
100
AcDbArc
 50
270.0075262522
 51
314.9924737478
  0
ARC
  5
585
100
AcDbEntity
  8
ASSI
100
AcDbCircle
 62
253
  6
CONTINUOUS
 10
-9.288107352
 20
-18.3940668574
 40
1.0001648821
100
AcDbArc
 50
225.0075262522
 51
269.9924737478
  0
ARC
  5
586
100
AcDbEntity
  8
RACCORDO
100
AcDbCircle
 62
253
  6
CONTINUOUS
 10
8.7590190667
 20
-17.50962327
 40
0.9998351509
100
AcDbArc
 50
314.9997022418
 51
0.0002977582
  0
ARC
  5
587
100
AcDbEntity
  8
RACCORDO
100
AcDbCircle
 62
253
  6
CONTINUOUS
 10
-8.7590190667
 20
-17.50962327
 40
0.9998351509
100
AcDbArc
 50
179.9997022418
 51
225.0002977582
  0
ARC
  5
588
100
AcDbEntity
  8
ASSI
100
AcDbCircle
 62
253
  6
CONTINUOUS
 10
-8.7590190667
 20
-17.50962327
 40
0.9998351509
100
AcDbArc
 50
179.9997022418
 51
225.0002977582
  0
ARC
  5
589
100
AcDbEntity
  8
ASSI
100
AcDbCircle
 62
253
  6
CONTINUOUS
 10
8.7590190667
 20
-17.50962327
 40
0.9998351509
100
AcDbArc
 50
314.9997022418
 51
0.0002977582
  0
ARC
  5
58A
100
AcDbEntity
  8
SUPERFICI
100
AcDbCircle
 62
7
  6
CONTINUOUS
 10
-4.0
 20
-23.15
 40
0.5
100
AcDbArc
 50
144.3637748935
 51
215.6362251065
  0
ARC
  5
58B
100
AcDbEntity
  8
SUPERFICI
100
AcDbCircle
 62
7
  6
CONTINUOUS
 10
4.0
 20
-23.15
 40
0.5
100
AcDbArc
 50
324.3637748935
 51
35.6362251065
  0
ARC
  5
58C
100
AcDbEntity
  8
SUPERFICI
100
AcDbCircle
 62
7
  6
CONTINUOUS
 10
9.8945610417
 20
-24.2454832235
 40
0.2510671686
100
AcDbArc
 50
345.0268140985
 51
359.9659573083
  0
ARC
  5
58D
100
AcDbEntity
  8
SUPERFICI
100
AcDbCircle
 62
7
  6
CONTINUOUS
 10
-7.5054389583
 20
-24.2454832235
 40
0.2510671686
100
AcDbArc
 50
345.0268140985
 51
359.9659573083
  0
ARC
  5
58E
100
AcDbEntity
  8
SUPERFICI
100
AcDbCircle
 62
7
  6
CONTINUOUS
 10
7.504516717
 20
-24.2445613418
 40
0.2510668685
100
AcDbArc
 50
255.0289124133
 51
269.965970843
  0
ARC
  5
58F
100
AcDbEntity
  8
SUPERFICI
100
AcDbCircle
 62
7
  6
CONTINUOUS
 10
-9.8954835305
 20
-24.244562554
 40
0.2510656561
100
AcDbArc
 50
255.0385066586
 51
269.9660271662
  0
ARC
  5
590
100
AcDbEntity
  8
SUPERFICI
100
AcDbCircle
 62
7
  6
CONTINUOUS
 10
7.50437929
 20
-24.2456212699
 40
0.2500074563
100
AcDbArc
 50
180.0025500099
 51
254.9965869403
  0
ARC
  5
591
100
AcDbEntity
  8
SUPERFICI
100
AcDbCircle
 62
7
  6
CONTINUOUS
 10
9.8956212708
 20
-24.245620711
 40
0.2500074552
100
AcDbArc
 50
270.0025498144
 51
344.9944753178
  0
ARC
  5
592
100
AcDbEntity
  8
SUPERFICI
100
AcDbCircle
 62
7
  6
CONTINUOUS
 10
-7.5043787292
 20
-24.245620711
 40
0.2500074552
100
AcDbArc
 50
270.0025498144
 51
344.9944753178
  0
ARC
  5
593
100
AcDbEntity
  8
SUPERFICI
100
AcDbCircle
 62
7
  6
CONTINUOUS
 10
-9.8956207119
 20
-24.2456212703
 40
0.2500074544
100
AcDbArc
 50
180.0025499318
 51
255.0062391683
  0
ARC
  5
594
100
AcDbEntity
  8
SUPERFICI
100
AcDbCircle
 62
7
  6
CONTINUOUS
 10
9.9000053487
 20
-24.2500053487
 40
0.2499946513
100
AcDbArc
 50
269.9997437926
 51
0.0002562074
  0
ARC
  5
595
100
AcDbEntity
  8
SUPERFICI
100
AcDbCircle
 62
7
  6
CONTINUOUS
 10
7.4999946513
 20
-24.2500053487
 40
0.2499946513
100
AcDbArc
 50
179.9997437926
 51
270.0002562074
  0
ARC
  5
596
100
AcDbEntity
  8
SUPERFICI
100
AcDbCircle
 62
7
  6
CONTINUOUS
 10
-7.4999946513
 20
-24.2500053487
 40
0.2499946513
100
AcDbArc
 50
269.9997437926
 51
0.0002562074
  0
ARC
  5
597
100
AcDbEntity
  8
SUPERFICI
100
AcDbCircle
 62
7
  6
CONTINUOUS
 10
-9.9000053487
 20
-24.2500053487
 40
0.2499946513
100
AcDbArc
 50
179.9997437926
 51
270.0002562074
  0
ARC
  5
598
100
AcDbEntity
  8
SUPERFICI
100
AcDbCircle
 62
7
  6
CONTINUOUS
 10
59.2962990007
 20
83.7055315909
 40
87.3524021853
100
AcDbArc
 50
223.4116563836
 51
223.6083787618
  0
ARC
  5
599
100
AcDbEntity
  8
RACCORDO
100
AcDbCircle
 62
253
  6
CONTINUOUS
 10
-8.758701946
 20
17.5094919143
 40
1.9999999708
100
AcDbArc
 50
135.0035310201
 51
179.9964530363
  0
ARC
  5
59A
100
AcDbEntity
  8
RACCORDO
100
AcDbCircle
 62
253
  6
CONTINUOUS
 10
8.758701946
 20
17.5094919143
 40
1.9999999708
100
AcDbArc
 50
0.0035469634
 51
44.9964689797
  0
ARC
  5
59B
100
AcDbEntity
  8
ASSI
100
AcDbCircle
 62
253
  6
CONTINUOUS
 10
-8.758701946
 20
17.5094919143
 40
1.9999999708
100
AcDbArc
 50
135.0035310201
 51
179.9964530363
  0
ARC
  5
59C
100
AcDbEntity
  8
ASSI
100
AcDbCircle
 62
253
  6
CONTINUOUS
 10
8.758701946
 20
17.5094919143
 40
1.9999999708
100
AcDbArc
 50
0.0035469634
 51
44.9964689797
  0
ARC
  5
59D
100
AcDbEntity
  8
0
100
AcDbCircle
 62
253
  6
CONTINUOUS
 10
5.996843
 20
12.500831
 40
1.1402490105
100
AcDbArc
 50
208.9830159648
 51
268.5541978004
  0
ARC
  5
59E
100
AcDbEntity
  8
RACCORDO
100
AcDbCircle
 62
253
  6
CONTINUOUS
 10
-9.288107352
 20
18.3940668574
 40
1.0001648821
100
AcDbArc
 50
90.0075262522
 51
134.9924737478
  0
ARC
  5
59F
100
AcDbEntity
  8
RACCORDO
100
AcDbCircle
 62
253
  6
CONTINUOUS
 10
9.288107352
 20
18.3940668574
 40
1.0001648821
100
AcDbArc
 50
45.0075262522
 51
89.9924737478
  0
ARC
  5
5A0
100
AcDbEntity
  8
ASSI
100
AcDbCircle
 62
253
  6
CONTINUOUS
 10
9.288107352
 20
18.3940668574
 40
1.0001648821
100
AcDbArc
 50
45.0075262522
 51
89.9924737478
  0
ARC
  5
5A1
100
AcDbEntity
  8
ASSI
100
AcDbCircle
 62
253
  6
CONTINUOUS
 10
-9.288107352
 20
18.3940668574
 40
1.0001648821
100
AcDbArc
 50
90.0075262522
 51
134.9924737478
  0
ARC
  5
5A2
100
AcDbEntity
  8
RACCORDO
100
AcDbCircle
 62
253
  6
CONTINUOUS
 10
-8.7590190667
 20
17.50962327
 40
0.9998351509
100
AcDbArc
 50
134.9997022418
 51
180.0002977582
  0
ARC
  5
5A3
100
AcDbEntity
  8
RACCORDO
100
AcDbCircle
 62
253
  6
CONTINUOUS
 10
8.7590190667
 20
17.50962327
 40
0.9998351509
100
AcDbArc
 50
359.9997022418
 51
45.0002977582
  0
ARC
  5
5A4
100
AcDbEntity
  8
ASSI
100
AcDbCircle
 62
253
  6
CONTINUOUS
 10
-8.7590190667
 20
17.50962327
 40
0.9998351509
100
AcDbArc
 50
134.9997022418
 51
180.0002977582
  0
ARC
  5
5A5
100
AcDbEntity
  8
ASSI
100
AcDbCircle
 62
253
  6
CONTINUOUS
 10
8.7590190667
 20
17.50962327
 40
0.9998351509
100
AcDbArc
 50
359.9997022418
 51
45.0002977582
  0
CIRCLE
  5
5A6
100
AcDbEntity
  8
0
100
AcDbCircle
 62
253
  6
CONTINUOUS
 10
5.99852
 20
12.500551
 40
0.591552
  0
ARC
  5
5A7
100
AcDbEntity
  8
SUPERFICI
100
AcDbCircle
 62
7
  6
CONTINUOUS
 10
4.0
 20
23.15
 40
0.5
100
AcDbArc
 50
324.3637748935
 51
35.6362251065
  0
ARC
  5
5A8
100
AcDbEntity
  8
SUPERFICI
100
AcDbCircle
 62
7
  6
CONTINUOUS
 10
-4.0
 20
23.15
 40
0.5
100
AcDbArc
 50
144.3637748935
 51
215.6362251065
  0
CIRCLE
  5
5A9
100
AcDbEntity
  8
0
100
AcDbCircle
 62
253
  6
CONTINUOUS
 10
5.99852
 20
12.500551
 40
0.419297
  0
ARC
  5
5AA
100
AcDbEntity
  8
SUPERFICI
100
AcDbCircle
 62
7
  6
CONTINUOUS
 10
-9.8945610417
 20
24.2454832235
 40
0.2510671686
100
AcDbArc
 50
165.0268140985
 51
179.9659573083
  0
ARC
  5
5AB
100
AcDbEntity
  8
SUPERFICI
100
AcDbCircle
 62
7
  6
CONTINUOUS
 10
7.5054386582
 20
24.245483283
 40
0.2510668685
100
AcDbArc
 50
165.0289124133
 51
179.965970843
  0
ARC
  5
5AC
100
AcDbEntity
  8
SUPERFICI
100
AcDbCircle
 62
7
  6
CONTINUOUS
 10
-7.504516717
 20
24.2445613418
 40
0.2510668685
100
AcDbArc
 50
75.0289124133
 51
89.965970843
  0
ARC
  5
5AD
100
AcDbEntity
  8
SUPERFICI
100
AcDbCircle
 62
7
  6
CONTINUOUS
 10
9.8954835305
 20
24.244562554
 40
0.2510656561
100
AcDbArc
 50
75.0385066586
 51
89.9660271662
  0
ARC
  5
5AE
100
AcDbEntity
  8
SUPERFICI
100
AcDbCircle
 62
7
  6
CONTINUOUS
 10
7.5043787301
 20
24.24562071
 40
0.2500074563
100
AcDbArc
 50
90.0025500099
 51
164.9965869403
  0
ARC
  5
5AF
100
AcDbEntity
  8
SUPERFICI
100
AcDbCircle
 62
7
  6
CONTINUOUS
 10
-7.50437929
 20
24.2456212699
 40
0.2500074563
100
AcDbArc
 50
0.0025500099
 51
74.9965869403
  0
ARC
  5
5B0
100
AcDbEntity
  8
SUPERFICI
100
AcDbCircle
 62
7
  6
CONTINUOUS
 10
-9.8956212708
 20
24.245620711
 40
0.2500074552
100
AcDbArc
 50
90.0025498144
 51
164.9944753178
  0
ARC
  5
5B1
100
AcDbEntity
  8
SUPERFICI
100
AcDbCircle
 62
7
  6
CONTINUOUS
 10
9.8956207119
 20
24.2456212703
 40
0.2500074544
100
AcDbArc
 50
0.0025499318
 51
75.0062391683
  0
ARC
  5
5B2
100
AcDbEntity
  8
SUPERFICI
100
AcDbCircle
 62
7
  6
CONTINUOUS
 10
9.9000053487
 20
24.2500053487
 40
0.2499946513
100
AcDbArc
 50
359.9997437926
 51
90.0002562074
  0
ARC
  5
5B3
100
AcDbEntity
  8
SUPERFICI
100
AcDbCircle
 62
7
  6
CONTINUOUS
 10
7.4999946513
 20
24.2500053487
 40
0.2499946513
100
AcDbArc
 50
89.9997437926
 51
180.0002562074
  0
ARC
  5
5B4
100
AcDbEntity
  8
SUPERFICI
100
AcDbCircle
 62
7
  6
CONTINUOUS
 10
-9.9000053487
 20
24.2500053487
 40
0.2499946513
100
AcDbArc
 50
89.9997437926
 51
180.0002562074
  0
ARC
  5
5B5
100
AcDbEntity
  8
SUPERFICI
100
AcDbCircle
 62
7
  6
CONTINUOUS
 10
-7.4999946513
 20
24.2500053487
 40
0.2499946513
100
AcDbArc
 50
359.9997437926
 51
90.0002562074
  0
SPLINE
  5
5B6
100
AcDbEntity
  8
DRAFT
100
AcDbSpline
 62
7
  6
CONTINUOUS
 70
0
 71
3
 72
9
 73
5
 74
3
 42
0.0000001
 43
0.0000001
 44
0.0000000001
 12
-0.0074205835
 22
-4.0231328627
 32
0.0
 13
-0.0041982542
 23
-4.0231375158
 33
0.0
 40
0.0
 40
0.0
 40
0.0
 40
0.0
 40
0.2496301194
 40
1.0
 40
1.0
 40
1.0
 40
1.0
 10
9.5184685394
 20
17.1005260135
 30
0.0
 10
9.5178510723
 20
16.7657609678
 30
0.0
 10
9.5155124514
 20
15.4247164347
 30
0.0
 10
9.5137122418
 20
14.0836709635
 30
0.0
 10
9.5126621606
 20
13.0773905578
 30
0.0
 11
9.5184685394
 21
17.1005260135
 31
0.0
 11
9.5167170431
 21
16.0962306955
 31
0.0
 11
9.5126621606
 21
13.0773905578
 31
0.0
  0
SPLINE
  5
5B7
100
AcDbEntity
  8
SUPERFICI
100
AcDbSpline
 62
7
  6
CONTINUOUS
 70
0
 71
3
 72
13
 73
9
 74
7
 42
0.0000001
 43
0.0000001
 44
0.0000000001
 12
-0.2564963072
 22
0.271844225
 32
0.0
 13
-0.0217774818
 23
0.3731157723
 33
0.0
 40
0.0
 40
0.0
 40
0.0
 40
0.0
 40
0.3510203923
 40
0.6589297519
 40
0.7870742441
 40
0.8907164385
 40
0.9634331259
 40
1.0
 40
1.0
 40
1.0
 40
1.0
 10
-4.1595322125
 20
23.6738761699
 30
0.0
 10
-4.1895440239
 20
23.7056837921
 30
0.0
 10
-4.245697959
 20
23.7655186283
 30
0.0
 10
-4.3123485796
 20
23.8375980191
 30
0.0
 10
-4.3567828126
 20
23.8878321604
 30
0.0
 10
-4.3818643109
 20
23.9167707979
 30
0.0
 10
-4.397082204
 20
23.9376245804
 30
0.0
 10
-4.4058123081
 20
23.9493443806
 30
0.0
 10
-4.406077753
 20
23.9538922731
 30
0.0
 11
-4.1595322125
 21
23.6738761699
 31
0.0
 11
-4.2492711965
 21
23.7695778817
 31
0.0
 11
-4.3270604942
 21
23.854386753
 31
0.0
 11
-4.3588027264
 21
23.8902514399
 31
0.0
 11
-4.3837478147
 21
23.9198866787
 31
0.0
 11
-4.4000729824
 21
23.9416151881
 31
0.0
 11
-4.406077753
 21
23.9538922731
 31
0.0
  0
SPLINE
  5
5B8
100
AcDbEntity
  8
SUPERFICI
100
AcDbSpline
 62
7
  6
CONTINUOUS
 70
0
 71
3
 72
16
 73
12
 74
10
 42
0.0000001
 43
0.0000001
 44
0.0000000001
 12
-0.4646701863
 22
0.4881578051
 32
0.0
 13
0.0
 23
0.6739558032
 33
0.0
 40
0.0
 40
0.0
 40
0.0
 40
0.0
 40
0.3259017087
 40
0.4827194269
 40
0.6310489275
 40
0.7658685899
 40
0.8796622416
 40
0.9254266475
 40
0.9616702693
 40
0.9868411125
 40
1.0
 40
1.0
 40
1.0
 40
1.0
 10
3.9530427099
 20
23.4563578147
 30
0.0
 10
3.902563774
 20
23.5093883023
 30
0.0
 10
3.827786267
 20
23.5879294105
 30
0.0
 10
3.7303822423
 20
23.6909307927
 30
0.0
 10
3.6627496292
 20
23.7630203038
 30
0.0
 10
3.6022558974
 20
23.8285008612
 30
0.0
 10
3.5579165735
 20
23.8776669677
 30
0.0
 10
3.5294457019
 20
23.911065483
 30
0.0
 10
3.5140900721
 20
23.9298816662
 30
0.0
 10
3.5048353606
 20
23.9433593758
 30
0.0
 10
3.5
 20
23.9511917746
 30
0.0
 10
3.5
 20
23.9541479441
 30
0.0
 11
3.9530427099
 21
23.4563578147
 31
0.0
 11
3.8017160571
 21
23.6155540595
 31
0.0
 11
3.7291228774
 21
23.6923670029
 31
0.0
 11
3.6607756663
 21
23.7653201751
 31
0.0
 11
3.5991815868
 21
23.8321195924
 31
0.0
 11
3.5480931045
 21
23.8893176104
 31
0.0
 11
3.5281158574
 21
23.9128167973
 31
0.0
 11
3.5129136696
 21
23.9319362177
 31
0.0
 11
3.5033107729
 21
23.9459205978
 31
0.0
 11
3.5
 21
23.9541479441
 31
0.0
  0
SPLINE
  5
5B9
100
AcDbEntity
  8
SUPERFICI
100
AcDbSpline
 62
7
  6
CONTINUOUS
 70
0
 71
3
 72
13
 73
9
 74
7
 42
0.0000001
 43
0.0000001
 44
0.0000000001
 12
-0.0217774929
 22
-0.3731159614
 32
0.0
 13
-0.2564964384
 23
-0.2718443616
 33
0.0
 40
0.0
 40
0.0
 40
0.0
 40
0.0
 40
0.0365669054
 40
0.1092836273
 40
0.2129258201
 40
0.3410702869
 40
0.6489796179
 40
1.0
 40
1.0
 40
1.0
 40
1.0
 10
4.406077753
 20
23.9538922731
 30
0.0
 10
4.4058123078
 20
23.9493443744
 30
0.0
 10
4.3970821901
 20
23.9376245629
 30
0.0
 10
4.3818642842
 20
23.9167707647
 30
0.0
 10
4.356782771
 20
23.887832113
 30
0.0
 10
4.3123485191
 20
23.8375979523
 30
0.0
 10
4.2456978691
 20
23.7655185317
 30
0.0
 10
4.1895439083
 20
23.7056836692
 30
0.0
 10
4.1595320824
 20
23.673876032
 30
0.0
 11
4.406077753
 21
23.9538922731
 31
0.0
 11
4.4000729721
 21
23.9416151724
 31
0.0
 11
4.3837477862
 21
23.9198866433
 31
0.0
 11
4.3588026841
 21
23.8902513912
 31
0.0
 11
4.3270604412
 21
23.854386694
 31
0.0
 11
4.2492711101
 21
23.7695777887
 31
0.0
 11
4.1595320824
 21
23.673876032
 31
0.0
  0
SPLINE
  5
5BA
100
AcDbEntity
  8
SUPERFICI
100
AcDbSpline
 62
7
  6
CONTINUOUS
 70
0
 71
3
 72
16
 73
12
 74
10
 42
0.0000001
 43
0.0000001
 44
0.0000000001
 12
0.4646701861
 22
-0.4881578049
 32
0.0
 13
0.0
 23
-0.673955803
 33
0.0
 40
0.0
 40
0.0
 40
0.0
 40
0.0
 40
0.3259021143
 40
0.4827196146
 40
0.6310490196
 40
0.7658685893
 40
0.8796620418
 40
0.9254264041
 40
0.9616701134
 40
0.9868410712
 40
1.0
 40
1.0
 40
1.0
 40
1.0
 10
-3.9530427099
 20
-23.4563578147
 30
0.0
 10
-3.9025637112
 20
-23.5093883683
 30
0.0
 10
-3.8277861759
 20
-23.5879295076
 30
0.0
 10
-3.7303821366
 20
-23.6909309046
 30
0.0
 10
-3.6627495869
 20
-23.7630203499
 30
0.0
 10
-3.602255914
 20
-23.8285008432
 30
0.0
 10
-3.5579166414
 20
-23.8776668942
 30
0.0
 10
-3.5294457879
 20
-23.9110653792
 30
0.0
 10
-3.5140901312
 20
-23.9298815872
 30
0.0
 10
-3.5048353861
 20
-23.9433593369
 30
0.0
 10
-3.5
 20
-23.9511917653
 30
0.0
 10
-3.5
 20
-23.9541479441
 30
0.0
 11
-3.9530427099
 21
-23.4563578147
 31
0.0
 11
-3.8017158694
 21
-23.6155542583
 31
0.0
 11
-3.7291227907
 21
-23.6923670949
 31
0.0
 11
-3.6607756242
 21
-23.7653202206
 31
0.0
 11
-3.5991815873
 21
-23.8321195921
 31
0.0
 11
-3.548093193
 21
-23.8893175088
 31
0.0
 11
-3.5281159617
 21
-23.9128166704
 31
0.0
 11
-3.5129137326
 21
-23.9319361333
 31
0.0
 11
-3.5033107869
 21
-23.9459205734
 31
0.0
 11
-3.5
 21
-23.9541479441
 31
0.0
  0
SPLINE
  5
5BB
100
AcDbEntity
  8
SUPERFICI
100
AcDbSpline
 62
7
  6
CONTINUOUS
 70
0
 71
3
 72
13
 73
9
 74
7
 42
0.0000001
 43
0.0000001
 44
0.0000000001
 12
0.0217777356
 22
0.3731201211
 32
0.0
 13
0.256499344
 23
0.2718473488
 33
0.0
 40
0.0
 40
0.0
 40
0.0
 40
0.0
 40
0.0365670087
 40
0.1092841014
 40
0.2129264418
 40
0.3410708878
 40
0.6489801379
 40
1.0
 40
1.0
 40
1.0
 40
1.0
 10
-4.406077753
 20
-23.9538922731
 30
0.0
 10
-4.4058123041
 20
-23.9493443108
 30
0.0
 10
-4.3970820114
 20
-23.9376243367
 30
0.0
 10
-4.3818638834
 20
-23.9167702601
 30
0.0
 10
-4.3567820231
 20
-23.8878312575
 30
0.0
 10
-4.3123472508
 20
-23.8375965531
 30
0.0
 10
-4.2456958879
 20
-23.7655164057
 30
0.0
 10
-4.1895413426
 20
-23.7056809401
 30
0.0
 10
-4.1595292212
 20
-23.6738730004
 30
0.0
 11
-4.406077753
 21
-23.9538922731
 31
0.0
 11
-4.4000728653
 21
-23.9416150121
 31
0.0
 11
-4.3837473877
 21
-23.9198861498
 31
0.0
 11
-4.3588019492
 21
-23.8902505443
 31
0.0
 11
-4.3270593395
 21
-23.8543854691
 31
0.0
 11
-4.2492691348
 21
-23.7695756652
 31
0.0
 11
-4.1595292212
 21
-23.6738730004
 31
0.0
  0
SPLINE
  5
5BC
100
AcDbEntity
  8
SUPERFICI
100
AcDbSpline
 62
7
  6
CONTINUOUS
 70
0
 71
3
 72
13
 73
9
 74
7
 42
0.0000001
 43
0.0000001
 44
0.0000000001
 12
0.2564993956
 22
-0.2718474036
 32
0.0
 13
0.02177774
 23
-0.3731201962
 33
0.0
 40
0.0
 40
0.0
 40
0.0
 40
0.0
 40
0.3510198567
 40
0.6589290728
 40
0.7870734903
 40
0.8907158312
 40
0.9634329568
 40
1.0
 40
1.0
 40
1.0
 40
1.0
 10
4.1595291695
 20
-23.6738729456
 30
0.0
 10
4.1895412965
 20
-23.7056808912
 30
0.0
 10
4.24569585
 20
-23.765516365
 30
0.0
 10
4.3123472211
 20
-23.8375965203
 30
0.0
 10
4.3567819977
 20
-23.8878312286
 30
0.0
 10
4.3818638645
 20
-23.9167702367
 30
0.0
 10
4.3970820006
 20
-23.9376243233
 30
0.0
 10
4.4058123038
 20
-23.9493443056
 30
0.0
 10
4.406077753
 20
-23.9538922731
 30
0.0
 11
4.1595291695
 21
-23.6738729456
 31
0.0
 11
4.2492691001
 21
-23.7695756278
 31
0.0
 11
4.3270593125
 21
-23.8543854389
 31
0.0
 11
4.358801922
 21
-23.8902505129
 31
0.0
 11
4.3837473666
 21
-23.9198861238
 31
0.0
 11
4.4000728567
 21
-23.9416149989
 31
0.0
 11
4.406077753
 21
-23.9538922731
 31
0.0
  0
SPLINE
  5
5BD
100
AcDbEntity
  8
SUPERFICI
100
AcDbSpline
 62
7
  6
CONTINUOUS
 70
0
 71
3
 72
13
 73
9
 74
7
 42
0.0000001
 43
0.0000001
 44
0.0000000001
 12
0.0
 22
0.2980619221
 32
0.0
 13
0.2038110509
 23
0.217490149
 33
0.0
 40
0.0
 40
0.0
 40
0.0
 40
0.0
 40
0.0353863049
 40
0.1050056588
 40
0.2052957605
 40
0.3311112696
 40
0.639907161
 40
1.0
 40
1.0
 40
1.0
 40
1.0
 10
3.5
 20
-23.9541479441
 30
0.0
 10
3.5
 20
-23.9506321741
 30
0.0
 10
3.5062859404
 20
-23.9413112598
 30
0.0
 10
3.5176928297
 20
-23.9250956712
 30
0.0
 10
3.5367709324
 20
-23.9023677727
 30
0.0
 10
3.5714947587
 20
-23.8623230734
 30
0.0
 10
3.6247909706
 20
-23.8039316425
 30
0.0
 10
3.6700503239
 20
-23.7553091256
 30
0.0
 10
3.6945139573
 20
-23.7292035772
 30
0.0
 11
3.5
 21
-23.9541479441
 31
0.0
 11
3.5041853782
 21
-23.9444666034
 31
0.0
 11
3.5162439676
 21
-23.9275790523
 31
0.0
 11
3.5351421527
 21
-23.9044180992
 31
0.0
 11
3.5596945812
 21
-23.8760722143
 31
0.0
 11
3.6214362146
 21
-23.807812512
 31
0.0
 11
3.6945139573
 21
-23.7292035772
 31
0.0
  0
SPLINE
  5
5BE
100
AcDbEntity
  8
SUPERFICI
100
AcDbSpline
 62
7
  6
CONTINUOUS
 70
0
 71
3
 72
9
 73
5
 74
3
 42
0.0000001
 43
0.0000001
 44
0.0000000001
 12
0.2570190548
 22
0.2742692915
 32
0.0
 13
0.2591537412
 23
0.2722531491
 33
0.0
 40
0.0
 40
0.0
 40
0.0
 40
0.0
 40
0.2392154914
 40
1.0
 40
1.0
 40
1.0
 40
1.0
 10
3.6945139573
 20
-23.7292035772
 30
0.0
 10
3.7150082704
 20
-23.707333756
 30
0.0
 10
3.8009113682
 20
-23.6161262762
 30
0.0
 10
3.8873226594
 20
-23.5253998074
 30
0.0
 10
3.9530427099
 20
-23.4563578147
 30
0.0
 11
3.6945139573
 21
-23.7292035772
 31
0.0
 11
3.7561360548
 21
-23.6637247972
 31
0.0
 11
3.9530427099
 21
-23.4563578147
 31
0.0
  0
SPLINE
  5
5BF
100
AcDbEntity
  8
SUPERFICI
100
AcDbSpline
 62
7
  6
CONTINUOUS
 70
0
 71
3
 72
13
 73
9
 74
7
 42
0.0000001
 43
0.0000001
 44
0.0000000001
 12
0.0
 22
-0.2981918955
 32
0.0
 13
-0.2039015301
 23
-0.2175834842
 33
0.0
 40
0.0
 40
0.0
 40
0.0
 40
0.0
 40
0.0353858874
 40
0.1050088449
 40
0.2053041931
 40
0.3311242518
 40
0.6399208108
 40
1.0
 40
1.0
 40
1.0
 40
1.0
 10
-3.5
 20
23.9541479441
 30
0.0
 10
-3.5
 20
23.9506306825
 30
0.0
 10
-3.5062899037
 20
23.9413058446
 30
0.0
 10
-3.5177025235
 20
23.9250829568
 30
0.0
 10
-3.5367906038
 20
23.902344663
 30
0.0
 10
-3.5715309828
 20
23.8622824166
 30
0.0
 10
-3.6248506775
 20
23.8038668468
 30
0.0
 10
-3.6701292982
 20
23.7552244649
 30
0.0
 10
-3.6946028641
 20
23.7291087034
 30
0.0
 11
-3.5
 21
23.9541479441
 31
0.0
 11
-3.5041877508
 21
23.944462754
 31
0.0
 11
-3.516252945
 21
23.9275674801
 31
0.0
 11
-3.5351610329
 21
23.9043957644
 31
0.0
 11
-3.5597256535
 21
23.876037011
 31
0.0
 11
-3.6214953116
 21
23.8077482711
 31
0.0
 11
-3.6946028641
 21
23.7291087034
 31
0.0
  0
SPLINE
  5
5C0
100
AcDbEntity
  8
SUPERFICI
100
AcDbSpline
 62
7
  6
CONTINUOUS
 70
0
 71
3
 72
9
 73
5
 74
3
 42
0.0000001
 43
0.0000001
 44
0.0000000001
 12
-0.2569321707
 22
-0.2741725229
 32
0.0
 13
-0.2590640964
 23
-0.272158973
 33
0.0
 40
0.0
 40
0.0
 40
0.0
 40
0.0
 40
0.2392252736
 40
1.0
 40
1.0
 40
1.0
 40
1.0
 10
-3.6946028641
 20
23.7291087034
 30
0.0
 10
-3.715091087
 20
23.7072457045
 30
0.0
 10
-3.8009648792
 20
23.6160701612
 30
0.0
 10
-3.8873462376
 20
23.5253750375
 30
0.0
 10
-3.9530427099
 20
23.4563578147
 30
0.0
 11
-3.6946028641
 21
23.7291087034
 31
0.0
 11
-3.7562064972
 21
23.6636502097
 31
0.0
 11
-3.9530427099
 21
23.4563578147
 31
0.0
  0
SPLINE
  5
5C1
100
AcDbEntity
  8
DRAFT
100
AcDbSpline
 62
7
  6
CONTINUOUS
 70
0
 71
3
 72
9
 73
5
 74
3
 42
0.0000001
 43
0.0000001
 44
0.0000000001
 12
0.2540586046
 22
-0.3592931243
 32
0.0
 13
0.2443352963
 23
-0.3659748444
 33
0.0
 40
0.0
 40
0.0
 40
0.0
 40
0.0
 40
0.2536987592
 40
1.0
 40
1.0
 40
1.0
 40
1.0
 10
7.5666456542
 20
-21.3359869487
 30
0.0
 10
7.5881304385
 20
-21.3663710219
 30
0.0
 10
7.6727997728
 20
-21.486143261
 30
0.0
 10
7.7569041296
 20
-21.6063467687
 30
0.0
 10
7.8176867079
 20
-21.6973892622
 30
0.0
 11
7.5666456542
 21
-21.3359869487
 31
0.0
 11
7.6310550849
 21
-21.4271709166
 31
0.0
 11
7.8176867079
 21
-21.6973892622
 31
0.0
  0
SPLINE
  5
5C2
100
AcDbEntity
  8
DRAFT
100
AcDbSpline
 62
7
  6
CONTINUOUS
 70
0
 71
3
 72
9
 73
5
 74
3
 42
0.0000001
 43
0.0000001
 44
0.0000000001
 12
0.2443381483
 22
0.3659791164
 32
0.0
 13
0.2540615702
 23
0.3592973182
 33
0.0
 40
0.0
 40
0.0
 40
0.0
 40
0.0
 40
0.2446706689
 40
1.0
 40
1.0
 40
1.0
 40
1.0
 10
-7.8176867079
 20
-21.6973892622
 30
0.0
 10
-7.7977592485
 20
-21.6675411438
 30
0.0
 10
-7.7153744736
 20
-21.546174042
 30
0.0
 10
-7.6306123729
 20
-21.4264495497
 30
0.0
 10
-7.5666456542
 20
-21.3359869487
 30
0.0
 11
-7.8176867079
 21
-21.6973892622
 31
0.0
 11
-7.7573026569
 21
-21.6082495366
 31
0.0
 11
-7.5666456542
 21
-21.3359869487
 31
0.0
  0
SPLINE
  5
5C3
100
AcDbEntity
  8
DRAFT
100
AcDbSpline
 62
7
  6
CONTINUOUS
 70
0
 71
3
 72
9
 73
5
 74
3
 42
0.0000001
 43
0.0000001
 44
0.0000000001
 12
-0.2540586046
 22
0.3592931243
 32
0.0
 13
-0.2443352963
 23
0.3659748444
 33
0.0
 40
0.0
 40
0.0
 40
0.0
 40
0.0
 40
0.2536987592
 40
1.0
 40
1.0
 40
1.0
 40
1.0
 10
-7.5666456542
 20
21.3359869487
 30
0.0
 10
-7.5881304385
 20
21.3663710219
 30
0.0
 10
-7.6727997728
 20
21.486143261
 30
0.0
 10
-7.7569041296
 20
21.6063467687
 30
0.0
 10
-7.8176867079
 20
21.6973892622
 30
0.0
 11
-7.5666456542
 21
21.3359869487
 31
0.0
 11
-7.6310550849
 21
21.4271709166
 31
0.0
 11
-7.8176867079
 21
21.6973892622
 31
0.0
  0
SPLINE
  5
5C4
100
AcDbEntity
  8
DRAFT
100
AcDbSpline
 62
7
  6
CONTINUOUS
 70
0
 71
3
 72
9
 73
5
 74
3
 42
0.0000001
 43
0.0000001
 44
0.0000000001
 12
-0.2443381483
 22
-0.3659791164
 32
0.0
 13
-0.2540615702
 23
-0.3592973182
 33
0.0
 40
0.0
 40
0.0
 40
0.0
 40
0.0
 40
0.2446706689
 40
1.0
 40
1.0
 40
1.0
 40
1.0
 10
7.8176867079
 20
21.6973892622
 30
0.0
 10
7.7977592485
 20
21.6675411438
 30
0.0
 10
7.7153744736
 20
21.546174042
 30
0.0
 10
7.6306123729
 20
21.4264495497
 30
0.0
 10
7.5666456542
 20
21.3359869487
 30
0.0
 11
7.8176867079
 21
21.6973892622
 31
0.0
 11
7.7573026569
 21
21.6082495366
 31
0.0
 11
7.5666456542
 21
21.3359869487
 31
0.0
  0
SPLINE
  5
5C5
100
AcDbEntity
  8
SUPERFICI
100
AcDbSpline
 62
253
  6
CONTINUOUS
 70
0
 71
3
 72
10
 73
6
 74
4
 42
0.0000001
 43
0.0000001
 44
0.0000000001
 12
0.001213321
 22
0.3612351839
 32
0.0
 13
0.3612360752
 23
0.0009100238
 33
0.0
 40
0.0
 40
0.0
 40
0.0
 40
0.0
 40
0.2350699996
 40
0.4805706163
 40
1.0
 40
1.0
 40
1.0
 40
1.0
 10
-10.145628166
 20
-23.8443375673
 30
0.0
 10
-10.1455330942
 20
-23.8160323825
 30
0.0
 10
-10.1314900462
 20
-23.7574749998
 30
0.0
 10
-10.0552626621
 20
-23.6607030629
 30
0.0
 10
-9.9581779408
 20
-23.6279887807
 30
0.0
 10
-9.8956323968
 20
-23.6278312164
 30
0.0
 11
-10.145628166
 21
-23.8443375673
 31
0.0
 11
-10.1263899366
 21
-23.7616295068
 31
0.0
 11
-10.0721493704
 21
-23.6914667969
 31
0.0
 11
-9.8956323968
 21
-23.6278312164
 31
0.0
  0
SPLINE
  5
5C6
100
AcDbEntity
  8
SUPERFICI
100
AcDbSpline
 62
253
  6
CONTINUOUS
 70
0
 71
3
 72
10
 73
6
 74
4
 42
0.0000001
 43
0.0000001
 44
0.0000000001
 12
-0.001213321
 22
0.3612351839
 32
0.0
 13
-0.3612360752
 23
0.0009100238
 33
0.0
 40
0.0
 40
0.0
 40
0.0
 40
0.0
 40
0.2350699996
 40
0.4805706163
 40
1.0
 40
1.0
 40
1.0
 40
1.0
 10
-7.254371834
 20
-23.8443375673
 30
0.0
 10
-7.2544669058
 20
-23.8160323825
 30
0.0
 10
-7.2685099538
 20
-23.7574749998
 30
0.0
 10
-7.3447373379
 20
-23.6607030629
 30
0.0
 10
-7.4418220592
 20
-23.6279887807
 30
0.0
 10
-7.5043676032
 20
-23.6278312164
 30
0.0
 11
-7.254371834
 21
-23.8443375673
 31
0.0
 11
-7.2736100634
 21
-23.7616295068
 31
0.0
 11
-7.3278506296
 21
-23.6914667969
 31
0.0
 11
-7.5043676032
 21
-23.6278312164
 31
0.0
  0
SPLINE
  5
5C7
100
AcDbEntity
  8
SUPERFICI
100
AcDbSpline
 62
253
  6
CONTINUOUS
 70
0
 71
3
 72
10
 73
6
 74
4
 42
0.0000001
 43
0.0000001
 44
0.0000000001
 12
0.001213321
 22
0.3612351839
 32
0.0
 13
0.3612360752
 23
0.0009100238
 33
0.0
 40
0.0
 40
0.0
 40
0.0
 40
0.0
 40
0.2350699996
 40
0.4805706163
 40
1.0
 40
1.0
 40
1.0
 40
1.0
 10
7.254371834
 20
-23.8443375673
 30
0.0
 10
7.2544669058
 20
-23.8160323825
 30
0.0
 10
7.2685099538
 20
-23.7574749998
 30
0.0
 10
7.3447373379
 20
-23.6607030629
 30
0.0
 10
7.4418220592
 20
-23.6279887807
 30
0.0
 10
7.5043676032
 20
-23.6278312164
 30
0.0
 11
7.254371834
 21
-23.8443375673
 31
0.0
 11
7.2736100634
 21
-23.7616295068
 31
0.0
 11
7.3278506296
 21
-23.6914667969
 31
0.0
 11
7.5043676032
 21
-23.6278312164
 31
0.0
  0
SPLINE
  5
5C8
100
AcDbEntity
  8
SUPERFICI
100
AcDbSpline
 62
253
  6
CONTINUOUS
 70
0
 71
3
 72
10
 73
6
 74
4
 42
0.0000001
 43
0.0000001
 44
0.0000000001
 12
-0.001213321
 22
0.3612351839
 32
0.0
 13
-0.3612360752
 23
0.0009100238
 33
0.0
 40
0.0
 40
0.0
 40
0.0
 40
0.0
 40
0.2350699996
 40
0.4805706163
 40
1.0
 40
1.0
 40
1.0
 40
1.0
 10
10.145628166
 20
-23.8443375673
 30
0.0
 10
10.1455330942
 20
-23.8160323825
 30
0.0
 10
10.1314900462
 20
-23.7574749998
 30
0.0
 10
10.0552626621
 20
-23.6607030629
 30
0.0
 10
9.9581779408
 20
-23.6279887807
 30
0.0
 10
9.8956323968
 20
-23.6278312164
 30
0.0
 11
10.145628166
 21
-23.8443375673
 31
0.0
 11
10.1263899366
 21
-23.7616295068
 31
0.0
 11
10.0721493704
 21
-23.6914667969
 31
0.0
 11
9.8956323968
 21
-23.6278312164
 31
0.0
  0
SPLINE
  5
5C9
100
AcDbEntity
  8
SUPERFICI
100
AcDbSpline
 62
253
  6
CONTINUOUS
 70
0
 71
3
 72
10
 73
6
 74
4
 42
0.0000001
 43
0.0000001
 44
0.0000000001
 12
0.001213321
 22
-0.3612351841
 32
0.0
 13
0.3612360755
 23
-0.0009100238
 33
0.0
 40
0.0
 40
0.0
 40
0.0
 40
0.0
 40
0.2350700073
 40
0.4805706337
 40
1.0
 40
1.0
 40
1.0
 40
1.0
 10
-10.145628166
 20
23.8443375673
 30
0.0
 10
-10.1455330942
 20
23.8160323815
 30
0.0
 10
-10.1314900451
 20
23.7574749967
 30
0.0
 10
-10.0552626587
 20
23.6607030612
 30
0.0
 10
-9.9581779387
 20
23.6279887807
 30
0.0
 10
-9.8956323968
 20
23.6278312164
 30
0.0
 11
-10.145628166
 21
23.8443375673
 31
0.0
 11
-10.1263899352
 21
23.7616295042
 31
0.0
 11
-10.0721493654
 21
23.6914667926
 31
0.0
 11
-9.8956323968
 21
23.6278312164
 31
0.0
  0
SPLINE
  5
5CA
100
AcDbEntity
  8
SUPERFICI
100
AcDbSpline
 62
253
  6
CONTINUOUS
 70
0
 71
3
 72
10
 73
6
 74
4
 42
0.0000001
 43
0.0000001
 44
0.0000000001
 12
-0.001213321
 22
-0.3612351831
 32
0.0
 13
-0.3612360745
 23
-0.0009100238
 33
0.0
 40
0.0
 40
0.0
 40
0.0
 40
0.0
 40
0.2350699118
 40
0.4805705526
 40
1.0
 40
1.0
 40
1.0
 40
1.0
 10
-7.254371834
 20
23.8443375673
 30
0.0
 10
-7.2544669058
 20
23.8160323931
 30
0.0
 10
-7.2685099444
 20
23.7574750183
 30
0.0
 10
-7.3447373188
 20
23.6607030719
 30
0.0
 10
-7.4418220517
 20
23.6279887807
 30
0.0
 10
-7.5043676032
 20
23.6278312164
 30
0.0
 11
-7.254371834
 21
23.8443375673
 31
0.0
 11
-7.2736100483
 21
23.761629536
 31
0.0
 11
-7.3278506113
 21
23.6914668129
 31
0.0
 11
-7.5043676032
 21
23.6278312164
 31
0.0
  0
SPLINE
  5
5CB
100
AcDbEntity
  8
SUPERFICI
100
AcDbSpline
 62
253
  6
CONTINUOUS
 70
0
 71
3
 72
10
 73
6
 74
4
 42
0.0000001
 43
0.0000001
 44
0.0000000001
 12
-0.001213321
 22
-0.3612351841
 32
0.0
 13
-0.3612360755
 23
-0.0009100238
 33
0.0
 40
0.0
 40
0.0
 40
0.0
 40
0.0
 40
0.2350700073
 40
0.4805706337
 40
1.0
 40
1.0
 40
1.0
 40
1.0
 10
10.145628166
 20
23.8443375673
 30
0.0
 10
10.1455330942
 20
23.8160323815
 30
0.0
 10
10.1314900451
 20
23.7574749967
 30
0.0
 10
10.0552626587
 20
23.6607030612
 30
0.0
 10
9.9581779387
 20
23.6279887807
 30
0.0
 10
9.8956323968
 20
23.6278312164
 30
0.0
 11
10.145628166
 21
23.8443375673
 31
0.0
 11
10.1263899352
 21
23.7616295042
 31
0.0
 11
10.0721493654
 21
23.6914667926
 31
0.0
 11
9.8956323968
 21
23.6278312164
 31
0.0
  0
SPLINE
  5
5CC
100
AcDbEntity
  8
SUPERFICI
100
AcDbSpline
 62
253
  6
CONTINUOUS
 70
0
 71
3
 72
10
 73
6
 74
4
 42
0.0000001
 43
0.0000001
 44
0.0000000001
 12
0.001213321
 22
-0.3612351831
 32
0.0
 13
0.3612360745
 23
-0.0009100238
 33
0.0
 40
0.0
 40
0.0
 40
0.0
 40
0.0
 40
0.2350699118
 40
0.4805705526
 40
1.0
 40
1.0
 40
1.0
 40
1.0
 10
7.254371834
 20
23.8443375673
 30
0.0
 10
7.2544669058
 20
23.8160323931
 30
0.0
 10
7.2685099444
 20
23.7574750183
 30
0.0
 10
7.3447373188
 20
23.6607030719
 30
0.0
 10
7.4418220517
 20
23.6279887807
 30
0.0
 10
7.5043676032
 20
23.6278312164
 30
0.0
 11
7.254371834
 21
23.8443375673
 31
0.0
 11
7.2736100483
 21
23.761629536
 31
0.0
 11
7.3278506113
 21
23.6914668129
 31
0.0
 11
7.5043676032
 21
23.6278312164
 31
0.0
  0
SPLINE
  5
5CD
100
AcDbEntity
  8
0
100
AcDbSpline
 62
253
  6
CONTINUOUS
 70
0
 71
3
 72
21
 73
17
 74
15
 42
0.0000001
 43
0.0000001
 44
0.0000000001
 12
0.0056066891
 22
8.1867213218
 32
0.0
 13
0.0056065146
 23
-8.1867217143
 33
0.0
 40
0.0
 40
0.0
 40
0.0
 40
0.0
 40
0.0714285714
 40
0.1428571429
 40
0.2142857143
 40
0.2857142857
 40
0.3571428571
 40
0.4285714286
 40
0.5
 40
0.5714285714
 40
0.6428571429
 40
0.7142857143
 40
0.7857142857
 40
0.8571428571
 40
0.9285714286
 40
1.0
 40
1.0
 40
1.0
 40
1.0
 10
10.9596867582
 20
-16.000003
 30
0.0
 10
10.9598202508
 20
-15.8050810638
 30
0.0
 10
10.9593007412
 20
-15.4119858959
 30
0.0
 10
10.9561992131
 20
-14.8492255142
 30
0.0
 10
10.9509397989
 20
-14.3414920485
 30
0.0
 10
10.9437992306
 20
-13.9159278213
 30
0.0
 10
10.9351536661
 20
-13.5948393728
 30
0.0
 10
10.9254584362
 20
-13.3951668157
 30
0.0
 10
10.9152241812
 20
-13.327418785
 30
0.0
 10
10.9049899247
 20
-13.3951660992
 30
0.0
 10
10.8952946906
 20
-13.5948379775
 30
0.0
 10
10.8866491193
 20
-13.9159258207
 30
0.0
 10
10.8795085419
 20
-14.3414895479
 30
0.0
 10
10.8742491169
 20
-14.8492226454
 30
0.0
 10
10.8711475768
 20
-15.41198281
 30
0.0
 10
10.8706280588
 20
-15.8050779415
 30
0.0
 10
10.8707615472
 20
-15.9999998871
 30
0.0
 11
10.9596867582
 21
-16.000003
 31
0.0
 11
10.9589136972
 21
-15.4164662909
 31
0.0
 11
10.9558395654
 21
-14.8583966668
 31
0.0
 11
10.9506262732
 21
-14.3551869216
 31
0.0
 11
10.9435483979
 21
-13.9333404511
 31
0.0
 11
10.9349787219
 21
-13.6150753547
 31
0.0
 11
10.9253685987
 21
-13.4171542368
 31
0.0
 11
10.915224181
 21
-13.3500013425
 31
0.0
 11
10.9050797618
 21
-13.4171535265
 31
0.0
 11
10.8954696344
 21
-13.6150739716
 31
0.0
 11
10.8868999516
 21
-13.9333384681
 31
0.0
 11
10.8798220673
 21
-14.355184443
 31
0.0
 11
10.8746087644
 21
-14.8583938232
 31
0.0
 11
10.8715346207
 21
-15.4164632321
 31
0.0
 11
10.8707615472
 21
-15.9999998871
 31
0.0
  0
SPLINE
  5
5CE
100
AcDbEntity
  8
0
100
AcDbSpline
 62
253
  6
CONTINUOUS
 70
0
 71
3
 72
12
 73
8
 74
6
 42
0.0000001
 43
0.0000001
 44
0.0000000001
 12
0.0433703147
 22
-0.5294162148
 32
0.0
 13
-0.0024635167
 23
-2.537275274
 33
0.0
 40
0.0
 40
0.0
 40
0.0
 40
0.0
 40
0.2
 40
0.4
 40
0.6
 40
0.8
 40
1.0
 40
1.0
 40
1.0
 40
1.0
 10
10.9217678038
 20
-14.1394958193
 30
0.0
 10
10.9246591581
 20
-14.1747902336
 30
0.0
 10
10.9302988336
 20
-14.293205054
 30
0.0
 10
10.9375302118
 20
-14.5985751356
 30
0.0
 10
10.9429901999
 20
-15.0078982758
 30
0.0
 10
10.9462350495
 20
-15.4879076435
 30
0.0
 10
10.946749425
 20
-15.8308483151
 30
0.0
 10
10.9465851905
 20
-16.0
 30
0.0
 11
10.9217678038
 21
-14.1394958193
 31
0.0
 11
10.9300941444
 21
-14.3144963625
 31
0.0
 11
10.9372349801
 21
-14.6159006454
 31
0.0
 11
10.9426210101
 21
-15.0196793137
 31
0.0
 11
10.9458228351
 21
-15.4936412501
 31
0.0
 11
10.9465851905
 21
-16.0
 31
0.0
  0
SPLINE
  5
5CF
100
AcDbEntity
  8
0
100
AcDbSpline
 62
253
  6
CONTINUOUS
 70
0
 71
3
 72
12
 73
8
 74
6
 42
0.0000001
 43
0.0000001
 44
0.0000000001
 12
-0.0024635867
 22
2.5372726921
 32
0.0
 13
0.0433702695
 23
0.5294170747
 33
0.0
 40
0.0
 40
0.0
 40
0.0
 40
0.0
 40
0.2
 40
0.4
 40
0.6
 40
0.8
 40
1.0
 40
1.0
 40
1.0
 40
1.0
 10
10.8838631729
 20
-16.0000027662
 30
0.0
 10
10.8836989338
 20
-15.8308512534
 30
0.0
 10
10.8842132998
 20
-15.4879108464
 30
0.0
 10
10.8874581354
 20
-15.0079016712
 30
0.0
 10
10.8929181108
 20
-14.5985785613
 30
0.0
 10
10.9001494778
 20
-14.2932083957
 30
0.0
 10
10.9057891469
 20
-14.1747934716
 30
0.0
 10
10.9086804982
 20
-14.139499
 30
0.0
 11
10.8838631729
 21
-16.0000027662
 31
0.0
 11
10.8846255142
 21
-15.4936444189
 31
0.0
 11
10.8878273254
 21
-15.0196826821
 31
0.0
 11
10.8932133427
 21
-14.615904052
 31
0.0
 11
10.9003541672
 21
-14.3144996923
 31
0.0
 11
10.9086804982
 21
-14.139499
 31
0.0
  0
SPLINE
  5
5D0
100
AcDbEntity
  8
0
100
AcDbSpline
 62
253
  6
CONTINUOUS
 70
0
 71
3
 72
21
 73
17
 74
15
 42
0.0000001
 43
0.0000001
 44
0.0000000001
 12
0.0056065189
 22
8.1867183462
 32
0.0
 13
0.0056065123
 23
-8.186718361
 33
0.0
 40
0.0
 40
0.0
 40
0.0
 40
0.0
 40
0.0714285714
 40
0.1428571429
 40
0.2142857143
 40
0.2857142857
 40
0.3571428571
 40
0.4285714286
 40
0.5
 40
0.5714285714
 40
0.6428571429
 40
0.7142857143
 40
0.7857142857
 40
0.8571428571
 40
0.9285714286
 40
1.0
 40
1.0
 40
1.0
 40
1.0
 10
10.9596867582
 20
-11.61489
 30
0.0
 10
10.9598202468
 20
-11.4199681346
 30
0.0
 10
10.9593007296
 20
-11.0268731645
 30
0.0
 10
10.9561991925
 20
-10.4641132033
 30
0.0
 10
10.9509397719
 20
-9.9563802399
 30
0.0
 10
10.9437992
 20
-9.5308165506
 30
0.0
 10
10.9351536347
 20
-9.2097286309
 30
0.0
 10
10.9254584063
 20
-9.0100565534
 30
0.0
 10
10.9152241548
 20
-8.9423089202
 30
0.0
 10
10.9049899033
 20
-9.0100565264
 30
0.0
 10
10.8952946748
 20
-9.2097285782
 30
0.0
 10
10.8866491092
 20
-9.5308164751
 30
0.0
 10
10.879508537
 20
-9.9563801455
 30
0.0
 10
10.874249116
 20
-10.4641130949
 30
0.0
 10
10.8711475784
 20
-11.0268730479
 30
0.0
 10
10.8706280609
 20
-11.4199680167
 30
0.0
 10
10.8707615493
 20
-11.6148898824
 30
0.0
 11
10.9596867582
 21
-11.61489
 31
0.0
 11
10.958913686
 21
-11.0313535801
 31
0.0
 11
10.9558395452
 21
-10.4732843696
 31
0.0
 11
10.9506262467
 21
-9.9700751189
 31
0.0
 11
10.9435483678
 21
-9.5482291789
 31
0.0
 11
10.9349786908
 21
-9.2299646046
 31
0.0
 11
10.9253685691
 21
-9.0320439608
 31
0.0
 11
10.9152241548
 21
-8.9648914601
 31
0.0
 11
10.9050797404
 21
-9.032043934
 31
0.0
 11
10.8954696186
 21
-9.2299645524
 31
0.0
 11
10.8868999414
 21
-9.548229104
 31
0.0
 11
10.8798220622
 21
-9.9700750253
 31
0.0
 11
10.8746087632
 21
-10.4732842622
 31
0.0
 11
10.871534622
 21
-11.0313534646
 31
0.0
 11
10.8707615493
 21
-11.6148898824
 31
0.0
  0
SPLINE
  5
5D1
100
AcDbEntity
  8
0
100
AcDbSpline
 62
253
  6
CONTINUOUS
 70
0
 71
3
 72
20
 73
16
 74
14
 42
0.0000001
 43
0.0000001
 44
0.0000000001
 12
-0.005661185
 22
5.8306893267
 32
0.0
 13
-0.0056611912
 23
-5.8306893066
 33
0.0
 40
0.0
 40
0.0
 40
0.0
 40
0.0
 40
0.0769230769
 40
0.1538461538
 40
0.2307692308
 40
0.3076923077
 40
0.3846153846
 40
0.4615384615
 40
0.5384615385
 40
0.6153846154
 40
0.6923076923
 40
0.7692307692
 40
0.8461538462
 40
0.9230769231
 40
1.0
 40
1.0
 40
1.0
 40
1.0
 10
10.883863117
 20
-11.6148898891
 30
0.0
 10
10.8837179584
 20
-11.4653850345
 30
0.0
 10
10.8840842252
 20
-11.1629354732
 30
0.0
 10
10.8865740657
 20
-10.7322485814
 30
0.0
 10
10.8908479641
 20
-10.350018756
 30
0.0
 10
10.8966400931
 20
-10.040414091
 30
0.0
 10
10.9035896228
 20
-9.8226196994
 30
0.0
 10
10.9112637599
 20
-9.7102257864
 30
0.0
 10
10.9191845496
 20
-9.7102258004
 30
0.0
 10
10.9268586866
 20
-9.8226197405
 30
0.0
 10
10.933808216
 20
-10.0404141567
 30
0.0
 10
10.9396003447
 20
-10.3500188422
 30
0.0
 10
10.9438742428
 20
-10.7322486827
 30
0.0
 10
10.9463640828
 20
-11.1629355834
 30
0.0
 10
10.9467303493
 20
-11.465385146
 30
0.0
 10
10.9465851905
 20
-11.61489
 30
0.0
 11
10.883863117
 21
-11.6148898891
 31
0.0
 11
10.8844076319
 21
-11.1667667149
 31
0.0
 11
10.8868714087
 21
-10.7403247591
 31
0.0
 11
10.8911010026
 21
-10.3621229494
 31
0.0
 11
10.8968329933
 21
-10.0557158032
 31
0.0
 11
10.9037103907
 21
-9.8401864458
 31
0.0
 11
10.9113048687
 21
-9.7289581076
 31
0.0
 11
10.9191434408
 21
-9.7289581214
 31
0.0
 11
10.9267379187
 21
-9.8401864865
 31
0.0
 11
10.9336153159
 21
-10.0557158682
 31
0.0
 11
10.9393473063
 21
-10.3621230347
 31
0.0
 11
10.9435768998
 21
-10.7403248594
 31
0.0
 11
10.9460406761
 21
-11.1667668239
 31
0.0
 11
10.9465851905
 21
-11.61489
 31
0.0
  0
SPLINE
  5
5D2
100
AcDbEntity
  8
0
100
AcDbSpline
 62
253
  6
CONTINUOUS
 70
0
 71
3
 72
24
 73
20
 74
18
 42
0.0000001
 43
0.0000001
 44
0.0000000001
 12
-1.7308242543
 22
0.0
 32
0.0
 13
1.7308242538
 23
0.0000430148
 33
0.0
 40
0.0
 40
0.0
 40
0.0
 40
0.0
 40
0.0598873206
 40
0.1201081961
 40
0.1818796394
 40
0.2131588073
 40
0.2442974632
 40
0.3075032344
 40
0.3712481021
 40
0.4994362348
 40
0.5639320937
 40
0.6282024856
 40
0.6920932504
 40
0.7554707499
 40
0.7866635189
 40
0.8179891179
 40
0.879832114
 40
0.9400952368
 40
1.0
 40
1.0
 40
1.0
 40
1.0
 10
2.688586477
 20
13.0529437178
 30
0.0
 10
2.6540350013
 20
13.0529437178
 30
0.0
 10
2.5845832047
 20
13.0455267709
 30
0.0
 10
2.4836431743
 20
13.0150670196
 30
0.0
 10
2.4043391457
 20
12.9747555672
 30
0.0
 10
2.3454786088
 20
12.9337351391
 30
0.0
 10
2.2902076364
 20
12.8866966833
 30
0.0
 10
2.2303915161
 20
12.816822043
 30
0.0
 10
2.159244881
 20
12.6871167797
 30
0.0
 10
2.1283090664
 20
12.537559606
 30
0.0
 10
2.1436148084
 20
12.389300842
 30
0.0
 10
2.1767016727
 20
12.2823894389
 30
0.0
 10
2.2300049995
 20
12.1847474617
 30
0.0
 10
2.2898829547
 20
12.1146880963
 30
0.0
 10
2.3452438689
 20
12.0675050492
 30
0.0
 10
2.4041658739
 20
12.0264001818
 30
0.0
 10
2.4835413472
 20
11.9860204335
 30
0.0
 10
2.584550388
 20
11.9555236688
 30
0.0
 10
2.6540369815
 20
11.9481007366
 30
0.0
 10
2.6885985205
 20
11.9481015955
 30
0.0
 11
2.688586477
 21
13.0529437178
 31
0.0
 11
2.5854706668
 21
13.0423905219
 31
0.0
 11
2.4856206927
 21
13.0124866632
 31
0.0
 11
2.3903439415
 21
12.9639761753
 31
0.0
 11
2.345944727
 21
12.9329969373
 31
0.0
 11
2.3049494226
 21
12.8980095918
 31
0.0
 11
2.2337270853
 21
12.8149715343
 31
0.0
 11
2.1805647242
 21
12.7182930521
 31
0.0
 11
2.1359933169
 21
12.5009449727
 31
0.0
 11
2.1472519435
 21
12.3898831757
 31
0.0
 11
2.1802010315
 21
12.2836341156
 31
0.0
 11
2.2333418385
 21
12.1866557361
 31
0.0
 11
2.3046722205
 21
12.1033188392
 31
0.0
 11
2.3457155579
 21
12.068243516
 31
0.0
 11
2.3901653877
 21
12.0371963884
 31
0.0
 11
2.4855372179
 21
11.9885997003
 31
0.0
 11
2.5854529515
 21
11.9586605446
 31
0.0
 11
2.6885985205
 21
11.9481015955
 31
0.0
  0
SPLINE
  5
5D3
100
AcDbEntity
  8
INCISIONI
100
AcDbSpline
 62
253
  6
CONTINUOUS
 70
0
 71
3
 72
9
 73
5
 74
3
 42
0.0000001
 43
0.0000001
 44
0.0000000001
 12
-0.0151363035
 22
0.7385080985
 32
0.0
 13
-0.0198803268
 23
0.0
 33
0.0
 40
0.0
 40
0.0
 40
0.0
 40
0.0
 40
0.7499778947
 40
1.0
 40
1.0
 40
1.0
 40
1.0
 10
11.0979413311
 20
-10.7246185849
 30
0.0
 10
11.0941573668
 20
-10.539997002
 30
0.0
 10
11.0875606581
 20
-10.3922411511
 30
0.0
 10
11.0809645462
 20
-10.3623239211
 30
0.0
 10
11.0793077058
 20
-10.3623239211
 30
0.0
 11
11.0979413311
 21
-10.7246185849
 31
0.0
 11
11.0842629311
 21
-10.384650075
 31
0.0
 11
11.0793077058
 21
-10.3623239211
 31
0.0
  0
SPLINE
  5
5D4
100
AcDbEntity
  8
INCISIONI
100
AcDbSpline
 62
253
  6
CONTINUOUS
 70
0
 71
3
 72
9
 73
5
 74
3
 42
0.0000001
 43
0.0000001
 44
0.0000000001
 12
0.0
 22
1.1518927052
 32
0.0
 13
-0.0153064231
 23
0.7467671714
 33
0.0
 40
0.0
 40
0.0
 40
0.0
 40
0.0
 40
0.5000575813
 40
1.0
 40
1.0
 40
1.0
 40
1.0
 10
11.1057288469
 20
-11.7566003002
 30
0.0
 10
11.1057288469
 20
-11.5645960735
 30
0.0
 10
11.1045725578
 20
-11.174918261
 30
0.0
 10
11.1004921078
 20
-10.8490654469
 30
0.0
 10
11.0979413311
 20
-10.7246185849
 30
0.0
 11
11.1057288469
 21
-11.7566003002
 31
0.0
 11
11.103841216
 21
-11.1908333096
 31
0.0
 11
11.0979413311
 21
-10.7246185849
 31
0.0
  0
SPLINE
  5
5D5
100
AcDbEntity
  8
INCISIONI
100
AcDbSpline
 62
253
  6
CONTINUOUS
 70
0
 71
3
 72
9
 73
5
 74
3
 42
0.0000001
 43
0.0000001
 44
0.0000000001
 12
0.0153043231
 22
0.746694301
 32
0.0
 13
0.0
 23
1.1517538486
 33
0.0
 40
0.0
 40
0.0
 40
0.0
 40
0.0
 40
0.4999423617
 40
1.0
 40
1.0
 40
1.0
 40
1.0
 10
11.0979413311
 20
-12.7884285572
 30
0.0
 10
11.1004917576
 20
-12.6639938531
 30
0.0
 10
11.1045725373
 20
-12.3382210796
 30
0.0
 10
11.1057288469
 20
-11.9485814034
 30
0.0
 10
11.1057288469
 20
-11.7566003002
 30
0.0
 11
11.0979413311
 21
-12.7884285572
 31
0.0
 11
11.1038411179
 21
-12.3222955888
 31
0.0
 11
11.1057288469
 21
-11.7566003002
 31
0.0
  0
SPLINE
  5
5D6
100
AcDbEntity
  8
INCISIONI
100
AcDbSpline
 62
253
  6
CONTINUOUS
 70
0
 71
3
 72
9
 73
5
 74
3
 42
0.0000001
 43
0.0000001
 44
0.0000000001
 12
0.019912147
 22
0.0
 32
0.0
 13
0.0151606292
 23
0.7396835099
 33
0.0
 40
0.0
 40
0.0
 40
0.0
 40
0.0
 40
0.750054758
 40
1.0
 40
1.0
 40
1.0
 40
1.0
 10
11.0793077058
 20
-13.1507078752
 30
0.0
 10
11.0842861061
 20
-13.1507078752
 30
0.0
 10
11.0911162886
 20
-13.0616694123
 30
0.0
 10
11.0966782221
 20
-12.8500553485
 30
0.0
 10
11.0979413311
 20
-12.7884285572
 30
0.0
 11
11.0793077058
 21
-13.1507078752
 31
0.0
 11
11.0938186336
 21
-12.9481815859
 31
0.0
 11
11.0979413311
 21
-12.7884285572
 31
0.0
  0
SPLINE
  5
5D7
100
AcDbEntity
  8
INCISIONI
100
AcDbSpline
 62
253
  6
CONTINUOUS
 70
0
 71
3
 72
9
 73
5
 74
3
 42
0.0000001
 43
0.0000001
 44
0.0000000001
 12
0.0151368023
 22
-0.7384580574
 32
0.0
 13
0.0198801404
 23
0.0
 33
0.0
 40
0.0
 40
0.0
 40
0.0
 40
0.0
 40
0.7499778839
 40
1.0
 40
1.0
 40
1.0
 40
1.0
 10
11.0606741698
 20
-12.7884285572
 30
0.0
 10
11.0644582588
 20
-12.9730376276
 30
0.0
 10
11.0710548155
 20
-13.1207928882
 30
0.0
 10
11.0776508809
 20
-13.1507078752
 30
0.0
 10
11.0793077058
 20
-13.1507078752
 30
0.0
 11
11.0606741698
 21
-12.7884285572
 31
0.0
 11
11.0743525257
 21
-13.1283827383
 31
0.0
 11
11.0793077058
 21
-13.1507078752
 31
0.0
  0
SPLINE
  5
5D8
100
AcDbEntity
  8
INCISIONI
100
AcDbSpline
 62
253
  6
CONTINUOUS
 70
0
 71
3
 72
9
 73
5
 74
3
 42
0.0000001
 43
0.0000001
 44
0.0000000001
 12
0.0
 22
-1.1517571284
 32
0.0
 13
0.0153049149
 23
-0.746659532
 33
0.0
 40
0.0
 40
0.0
 40
0.0
 40
0.0
 40
0.5000576434
 40
1.0
 40
1.0
 40
1.0
 40
1.0
 10
11.0528865648
 20
-11.7566003002
 30
0.0
 10
11.0528865648
 20
-11.948581952
 30
0.0
 10
11.05404288
 20
-12.3382212405
 30
0.0
 10
11.0581236448
 20
-12.6639996485
 30
0.0
 10
11.0606741698
 20
-12.7884285572
 30
0.0
 11
11.0528865648
 21
-11.7566003002
 31
0.0
 11
11.0547742943
 21
-12.3222972593
 31
0.0
 11
11.0606741698
 21
-12.7884285572
 31
0.0
  0
SPLINE
  5
5D9
100
AcDbEntity
  8
INCISIONI
100
AcDbSpline
 62
253
  6
CONTINUOUS
 70
0
 71
3
 72
9
 73
5
 74
3
 42
0.0000001
 43
0.0000001
 44
0.0000000001
 12
-0.0153058037
 22
-0.7468061142
 32
0.0
 13
0.0
 23
-1.1518909321
 33
0.0
 40
0.0
 40
0.0
 40
0.0
 40
0.0
 40
0.4999424868
 40
1.0
 40
1.0
 40
1.0
 40
1.0
 10
11.0606741698
 20
-10.7246185849
 30
0.0
 10
11.058123496
 20
-10.8490719536
 30
0.0
 10
11.0540431305
 20
-11.174920788
 30
0.0
 10
11.0528865648
 20
-11.5645963952
 30
0.0
 10
11.0528865648
 20
-11.7566003002
 30
0.0
 11
11.0606741698
 21
-10.7246185849
 31
0.0
 11
11.0547743816
 21
-11.1908363293
 31
0.0
 11
11.0528865648
 21
-11.7566003002
 31
0.0
  0
SPLINE
  5
5DA
100
AcDbEntity
  8
INCISIONI
100
AcDbSpline
 62
253
  6
CONTINUOUS
 70
0
 71
3
 72
9
 73
5
 74
3
 42
0.0000001
 43
0.0000001
 44
0.0000000001
 12
-0.0199121426
 22
0.0
 32
0.0
 13
-0.0151602881
 23
-0.7397060674
 33
0.0
 40
0.0
 40
0.0
 40
0.0
 40
0.0
 40
0.7500547609
 40
1.0
 40
1.0
 40
1.0
 40
1.0
 10
11.0793077058
 20
-10.3623239211
 30
0.0
 10
11.0743293067
 20
-10.3623239211
 30
0.0
 10
11.0674991858
 20
-10.4513763062
 30
0.0
 10
11.0619372504
 20
-10.662989915
 30
0.0
 10
11.0606741698
 20
-10.7246185849
 30
0.0
 11
11.0793077058
 21
-10.3623239211
 31
0.0
 11
11.0647968358
 21
-10.564863008
 31
0.0
 11
11.0606741698
 21
-10.7246185849
 31
0.0
  0
SPLINE
  5
5DB
100
AcDbEntity
  8
INCISIONI
100
AcDbSpline
 62
253
  6
CONTINUOUS
 70
0
 71
3
 72
8
 73
4
 74
2
 42
0.0000001
 43
0.0000001
 44
0.0000000001
 12
0.0
 22
0.651743576
 32
0.0
 13
0.0083868107
 23
0.4402706656
 33
0.0
 40
0.0
 40
0.0
 40
0.0
 40
0.0
 40
1.0
 40
1.0
 40
1.0
 40
1.0
 10
11.0608959817
 20
-11.7579507336
 30
0.0
 10
11.0608959817
 20
-11.5407028749
 30
0.0
 10
11.0624232549
 20
-11.3018670207
 30
0.0
 10
11.0652188585
 20
-11.1551101322
 30
0.0
 11
11.0608959817
 21
-11.7579507336
 31
0.0
 11
11.0652188585
 21
-11.1551101322
 31
0.0
  0
SPLINE
  5
5DC
100
AcDbEntity
  8
INCISIONI
100
AcDbSpline
 62
253
  6
CONTINUOUS
 70
0
 71
3
 72
8
 73
4
 74
2
 42
0.0000001
 43
0.0000001
 44
0.0000000001
 12
-0.0083522649
 22
0.4385102618
 32
0.0
 13
0.0
 23
0.6490948727
 33
0.0
 40
0.0
 40
0.0
 40
0.0
 40
0.0
 40
1.0
 40
1.0
 40
1.0
 40
1.0
 10
11.0652188585
 20
-12.3579267794
 30
0.0
 10
11.0624347702
 20
-12.2117566921
 30
0.0
 10
11.0608959817
 20
-11.9743156911
 30
0.0
 10
11.0608959817
 20
-11.7579507336
 30
0.0
 11
11.0652188585
 21
-12.3579267794
 31
0.0
 11
11.0608959817
 21
-11.7579507336
 31
0.0
  0
SPLINE
  5
5DD
100
AcDbEntity
  8
INCISIONI
100
AcDbSpline
 62
253
  6
CONTINUOUS
 70
0
 71
3
 72
9
 73
5
 74
3
 42
0.0000001
 43
0.0000001
 44
0.0000000001
 12
-0.0150663779
 22
0.0
 32
0.0
 13
-0.0111083516
 23
0.5832102119
 33
0.0
 40
0.0
 40
0.0
 40
0.0
 40
0.0
 40
0.7501681637
 40
1.0
 40
1.0
 40
1.0
 40
1.0
 10
11.0793027965
 20
-12.6297219488
 30
0.0
 10
11.0755353575
 20
-12.6297219488
 30
0.0
 10
11.0703290312
 20
-12.5705197887
 30
0.0
 10
11.0661439318
 20
-12.4064949388
 30
0.0
 10
11.0652188585
 20
-12.3579267794
 30
0.0
 11
11.0793027965
 21
-12.6297219488
 31
0.0
 11
11.0682988148
 21
-12.4819095903
 31
0.0
 11
11.0652188585
 21
-12.3579267794
 31
0.0
  0
SPLINE
  5
5DE
100
AcDbEntity
  8
INCISIONI
100
AcDbSpline
 62
253
  6
CONTINUOUS
 70
0
 71
3
 72
9
 73
5
 74
3
 42
0.0000001
 43
0.0000001
 44
0.0000000001
 12
-0.011075379
 22
-0.5814597384
 32
0.0
 13
-0.0150214287
 23
0.0
 33
0.0
 40
0.0
 40
0.0
 40
0.0
 40
0.0
 40
0.7499573393
 40
1.0
 40
1.0
 40
1.0
 40
1.0
 10
11.0933870023
 20
-12.3579267794
 30
0.0
 10
11.090618315
 20
-12.5032834455
 30
0.0
 10
11.0855284669
 20
-12.6100652632
 30
0.0
 10
11.0805547959
 20
-12.6297219488
 30
0.0
 10
11.0793027965
 20
-12.6297219488
 30
0.0
 11
11.0933870023
 21
-12.3579267794
 31
0.0
 11
11.0830493193
 21
-12.6144447496
 31
0.0
 11
11.0793027965
 21
-12.6297219488
 31
0.0
  0
SPLINE
  5
5DF
100
AcDbEntity
  8
INCISIONI
100
AcDbSpline
 62
253
  6
CONTINUOUS
 70
0
 71
3
 72
8
 73
4
 74
2
 42
0.0000001
 43
0.0000001
 44
0.0000000001
 12
0.0
 22
-0.6490948727
 32
0.0
 13
-0.0083523917
 23
-0.4385023289
 33
0.0
 40
0.0
 40
0.0
 40
0.0
 40
0.0
 40
1.0
 40
1.0
 40
1.0
 40
1.0
 10
11.0977098791
 20
-11.7579507336
 30
0.0
 10
11.0977098791
 20
-11.9743156911
 30
0.0
 10
11.0961711329
 20
-12.2117593364
 30
0.0
 10
11.0933870023
 20
-12.3579267794
 30
0.0
 11
11.0977098791
 21
-11.7579507336
 31
0.0
 11
11.0933870023
 21
-12.3579267794
 31
0.0
  0
SPLINE
  5
5E0
100
AcDbEntity
  8
INCISIONI
100
AcDbSpline
 62
253
  6
CONTINUOUS
 70
0
 71
3
 72
8
 73
4
 74
2
 42
0.0000001
 43
0.0000001
 44
0.0000000001
 12
0.0083866923
 22
-0.4402780709
 32
0.0
 13
0.0
 23
-0.651743576
 33
0.0
 40
0.0
 40
0.0
 40
0.0
 40
0.0
 40
1.0
 40
1.0
 40
1.0
 40
1.0
 10
11.0933870023
 20
-11.1551101322
 30
0.0
 10
11.0961825664
 20
-11.3018694891
 30
0.0
 10
11.0977098791
 20
-11.5407028749
 30
0.0
 10
11.0977098791
 20
-11.7579507336
 30
0.0
 11
11.0933870023
 21
-11.1551101322
 31
0.0
 11
11.0977098791
 21
-11.7579507336
 31
0.0
  0
SPLINE
  5
5E1
100
AcDbEntity
  8
INCISIONI
100
AcDbSpline
 62
253
  6
CONTINUOUS
 70
0
 71
3
 72
9
 73
5
 74
3
 42
0.0000001
 43
0.0000001
 44
0.0000000001
 12
0.0150666641
 22
0.0
 32
0.0
 13
0.0111086872
 23
-0.5832135014
 33
0.0
 40
0.0
 40
0.0
 40
0.0
 40
0.0
 40
0.7501681644
 40
1.0
 40
1.0
 40
1.0
 40
1.0
 10
11.0793027965
 20
-10.8833098474
 30
0.0
 10
11.0830703071
 20
-10.8833098474
 30
0.0
 10
11.0882767481
 20
-10.9425121049
 30
0.0
 10
11.0924619011
 20
-11.106541699
 30
0.0
 10
11.0933870023
 20
-11.1551101322
 30
0.0
 11
11.0793027965
 21
-10.8833098474
 31
0.0
 11
11.0903069875
 21
-11.0311249672
 31
0.0
 11
11.0933870023
 21
-11.1551101322
 31
0.0
  0
SPLINE
  5
5E2
100
AcDbEntity
  8
INCISIONI
100
AcDbSpline
 62
253
  6
CONTINUOUS
 70
0
 71
3
 72
9
 73
5
 74
3
 42
0.0000001
 43
0.0000001
 44
0.0000000001
 12
0.0110756524
 22
0.5814230277
 32
0.0
 13
0.0150211975
 23
0.0
 33
0.0
 40
0.0
 40
0.0
 40
0.0
 40
0.0
 40
0.7499573136
 40
1.0
 40
1.0
 40
1.0
 40
1.0
 10
11.0652188585
 20
-11.1551101322
 30
0.0
 10
11.067987614
 20
-11.0097626482
 30
0.0
 10
11.073077205
 20
-10.9029716844
 30
0.0
 10
11.0780508163
 20
-10.8833098474
 30
0.0
 10
11.0793027965
 20
-10.8833098474
 30
0.0
 11
11.0652188585
 21
-11.1551101322
 31
0.0
 11
11.0755563349
 21
-10.8985898747
 31
0.0
 11
11.0793027965
 21
-10.8833098474
 31
0.0
  0
SPLINE
  5
5E3
100
AcDbEntity
  8
0
100
AcDbSpline
 62
253
  6
CONTINUOUS
 70
0
 71
3
 72
15
 73
11
 74
9
 42
0.0000001
 43
0.0000001
 44
0.0000000001
 12
-1.2116231786
 22
0.0
 32
0.0
 13
-0.5879591364
 23
-1.0594030304
 33
0.0
 40
0.0
 40
0.0
 40
0.0
 40
0.0
 40
0.1272531861
 40
0.2531815432
 40
0.380254107
 40
0.5073525108
 40
0.6333934846
 40
0.7579377198
 40
0.8797030461
 40
1.0
 40
1.0
 40
1.0
 40
1.0
 10
5.9963374899
 20
13.6402750798
 30
0.0
 10
5.9449431866
 20
13.6402750798
 30
0.0
 10
5.8425474915
 20
13.633801752
 30
0.0
 10
5.6915562995
 20
13.6030431841
 30
0.0
 10
5.5467850976
 20
13.5503909846
 30
0.0
 10
5.4104843979
 20
13.4787402846
 30
0.0
 10
5.2852005734
 20
13.3910382459
 30
0.0
 10
5.1732918101
 20
13.2899963523
 30
0.0
 10
5.0763923291
 20
13.1775498383
 30
0.0
 10
5.0226737474
 20
13.0954247037
 30
0.0
 10
4.999097183
 20
13.0529437178
 30
0.0
 11
5.9963374899
 21
13.6402750798
 31
0.0
 11
5.8424821788
 21
13.6302295364
 31
0.0
 11
5.6930261991
 21
13.5995233539
 31
0.0
 11
5.5482174474
 21
13.5472227007
 31
0.0
 11
5.411813628
 21
13.4757484211
 31
0.0
 11
5.2866801327
 21
13.388208575
 31
0.0
 11
5.1747383249
 21
13.2870154551
 31
0.0
 11
5.078600944
 21
13.175105696
 31
0.0
 11
4.999097183
 21
13.0529437178
 31
0.0
  0
SPLINE
  5
5E4
100
AcDbEntity
  8
INCISIONI
100
AcDbSpline
 62
253
  6
CONTINUOUS
 70
0
 71
3
 72
11
 73
7
 74
5
 42
0.0000001
 43
0.0000001
 44
0.0000000001
 12
-0.0128702777
 22
-0.0113808125
 32
0.0
 13
-0.0002873858
 23
0.7373539953
 33
0.0
 40
0.0
 40
0.0
 40
0.0
 40
0.0
 40
0.2491315025
 40
0.4973515609
 40
0.7462289133
 40
1.0
 40
1.0
 40
1.0
 40
1.0
 10
11.0900878603
 20
5.4627200261
 30
0.0
 10
11.0890190631
 20
5.4617749198
 30
0.0
 10
11.0868467091
 20
5.4732383197
 30
0.0
 10
11.0839904426
 20
5.5749993121
 30
0.0
 10
11.0825023298
 20
5.746549742
 30
0.0
 10
11.0822492286
 20
5.8705216342
 30
0.0
 10
11.0822249185
 20
5.9328946758
 30
0.0
 11
11.0900878603
 21
5.4627200261
 31
0.0
 11
11.0869101472
 21
5.4874007505
 31
0.0
 11
11.0842217311
 21
5.5863253894
 31
0.0
 11
11.0826941977
 21
5.7476704692
 31
0.0
 11
11.0822249185
 21
5.9328946758
 31
0.0
  0
SPLINE
  5
5E5
100
AcDbEntity
  8
INCISIONI
100
AcDbSpline
 62
253
  6
CONTINUOUS
 70
0
 71
3
 72
9
 73
5
 74
3
 42
0.0000001
 43
0.0000001
 44
0.0000000001
 12
-0.0010753083
 22
-0.5307774627
 32
0.0
 13
-0.0093244064
 23
-0.0083576149
 33
0.0
 40
0.0
 40
0.0
 40
0.0
 40
0.0
 40
0.5000882298
 40
1.0
 40
1.0
 40
1.0
 40
1.0
 10
11.0964129695
 20
5.804625691
 30
0.0
 10
11.0962337198
 20
5.7161471704
 30
0.0
 10
11.0948748154
 20
5.5367587789
 30
0.0
 10
11.0916416538
 20
5.4641127161
 30
0.0
 10
11.0900878603
 20
5.4627200261
 30
0.0
 11
11.0964129695
 21
5.804625691
 31
0.0
 11
11.0944058459
 21
5.5634221249
 31
0.0
 11
11.0900878603
 21
5.4627200261
 31
0.0
  0
SPLINE
  5
5E6
100
AcDbEntity
  8
INCISIONI
100
AcDbSpline
 62
253
  6
CONTINUOUS
 70
0
 71
3
 72
11
 73
7
 74
5
 42
0.0000001
 43
0.0000001
 44
0.0000000001
 12
0.008931429
 22
1.4167437705
 32
0.0
 13
-0.0038258405
 23
1.4903036133
 33
0.0
 40
0.0
 40
0.0
 40
0.0
 40
0.0
 40
0.249614251
 40
0.499888924
 40
0.7499637517
 40
1.0
 40
1.0
 40
1.0
 40
1.0
 10
11.1036111487
 20
5.3678501192
 30
0.0
 10
11.104354286
 20
5.485729931
 30
0.0
 10
11.1051829773
 20
5.735014474
 30
0.0
 10
11.1054344483
 20
6.1116431473
 30
0.0
 10
11.1050302645
 20
6.4882750285
 30
0.0
 10
11.1044627356
 20
6.7373573696
 30
0.0
 10
11.1041438693
 20
6.8615673444
 30
0.0
 11
11.1036111487
 21
5.3678501192
 31
0.0
 11
11.1050170506
 21
5.7351233729
 31
0.0
 11
11.1053251084
 21
6.1117086883
 31
0.0
 11
11.1049556943
 21
6.487811254
 31
0.0
 11
11.1041438693
 21
6.8615673444
 31
0.0
  0
SPLINE
  5
5E7
100
AcDbEntity
  8
INCISIONI
100
AcDbSpline
 62
253
  6
CONTINUOUS
 70
0
 71
3
 72
18
 73
14
 74
12
 42
0.0000001
 43
0.0000001
 44
0.0000000001
 12
0.0040338679
 22
-1.7915717583
 32
0.0
 13
0.0106969353
 23
1.6992591149
 33
0.0
 40
0.0
 40
0.0
 40
0.0
 40
0.0
 40
0.0626155709
 40
0.1255750725
 40
0.1873779143
 40
0.2500548274
 40
0.3131302752
 40
0.3757850613
 40
0.5005898481
 40
0.6254073429
 40
0.7503252015
 40
0.8752611255
 40
1.0
 40
1.0
 40
1.0
 40
1.0
 10
11.0780545961
 20
5.30544429
 30
0.0
 10
11.0781387904
 20
5.2680508605
 30
0.0
 10
11.0790634276
 20
5.205742357
 30
0.0
 10
11.080320564
 20
5.1219941374
 30
0.0
 10
11.0818208141
 20
5.0470552444
 30
0.0
 10
11.0835038049
 20
4.9877497308
 30
0.0
 10
11.0853257505
 20
4.9423237958
 30
0.0
 10
11.0878683001
 20
4.9015430794
 30
0.0
 10
11.0911742261
 20
4.887359708
 30
0.0
 10
11.0951045882
 20
4.9207057947
 30
0.0
 10
11.0987448697
 20
5.0158512686
 30
0.0
 10
11.1017137723
 20
5.1675562972
 30
0.0
 10
11.1031663741
 20
5.2971955627
 30
0.0
 10
11.1036111487
 20
5.3678501192
 30
0.0
 11
11.0780545961
 21
5.30544429
 31
0.0
 11
11.079040472
 21
5.2074502929
 31
0.0
 11
11.080369463
 21
5.1229750287
 31
0.0
 11
11.0818435631
 21
5.0499699399
 31
0.0
 11
11.0835220008
 21
4.9902217399
 31
0.0
 11
11.0853449509
 21
4.9447010075
 31
0.0
 11
11.0872467451
 21
4.914117073
 31
0.0
 11
11.0911683083
 21
4.8957499389
 31
0.0
 11
11.0950550067
 21
4.9309846614
 31
0.0
 11
11.098632885
 21
5.0252799698
 31
0.0
 11
11.1015835659
 21
5.1747784359
 31
0.0
 11
11.1036111487
 21
5.3678501192
 31
0.0
  0
SPLINE
  5
5E8
100
AcDbEntity
  8
0
100
AcDbSpline
 62
253
  6
CONTINUOUS
 70
0
 71
3
 72
27
 73
23
 74
21
 42
0.0000001
 43
0.0000001
 44
0.0000000001
 12
3.6025799422
 22
-0.0874424583
 32
0.0
 13
-3.6036409953
 23
-0.0
 33
0.0
 40
0.0
 40
0.0
 40
0.0
 40
0.0
 40
0.0259384788
 40
0.0777189818
 40
0.1287833789
 40
0.1798943257
 40
0.2318921789
 40
0.2839614159
 40
0.3352641081
 40
0.3866712243
 40
0.4391315387
 40
0.4917483318
 40
0.5436825285
 40
0.5956970277
 40
0.6486476274
 40
0.7013472553
 40
0.7529371014
 40
0.8041033206
 40
0.8547587618
 40
0.9045621592
 40
0.9527136086
 40
1.0
 40
1.0
 40
1.0
 40
1.0
 10
5.968077039
 20
11.3611283228
 30
0.0
 10
5.9992255201
 20
11.3603722814
 30
0.0
 10
6.092669603
 20
11.3619080391
 30
0.0
 10
6.2465923114
 20
11.3834695574
 30
0.0
 10
6.4240504595
 20
11.4382873177
 30
0.0
 10
6.5903370901
 20
11.521695748
 30
0.0
 10
6.7418717156
 20
11.631666611
 30
0.0
 10
6.8735838936
 20
11.7650785269
 30
0.0
 10
6.9815373133
 20
11.9174330032
 30
0.0
 10
7.0637368685
 20
12.0856596896
 30
0.0
 10
7.1172263518
 20
12.2667715144
 30
0.0
 10
7.1403631314
 20
12.4548303821
 30
0.0
 10
7.13192426
 20
12.6435658513
 30
0.0
 10
7.0929809412
 20
12.8287976529
 30
0.0
 10
7.0242232593
 20
13.0061991033
 30
0.0
 10
6.9269803835
 20
13.1691918841
 30
0.0
 10
6.8046590539
 20
13.3115383041
 30
0.0
 10
6.6616200846
 20
13.4290581563
 30
0.0
 10
6.5041126565
 20
13.5218488378
 30
0.0
 10
6.3380581568
 20
13.5891226855
 30
0.0
 10
6.1679544852
 20
13.6304891803
 30
0.0
 10
6.0531385494
 20
13.6402750798
 30
0.0
 10
5.9963374899
 20
13.6402750798
 30
0.0
 11
5.968077039
 21
11.3611283228
 31
0.0
 11
6.0615371956
 21
11.3626757042
 31
0.0
 11
6.2463388995
 21
11.3885073134
 31
0.0
 11
6.4221060917
 21
11.4429905977
 31
0.0
 11
6.5867950158
 21
11.5254639742
 31
0.0
 11
6.7384559669
 21
11.6355131368
 31
0.0
 11
6.8702926012
 21
11.7690325551
 31
0.0
 11
6.9771663642
 21
11.919887828
 31
0.0
 11
7.058397765
 21
12.08638124
 31
0.0
 11
7.1120796683
 21
12.2676474873
 31
0.0
 11
7.13513439
 21
12.4558527017
 31
0.0
 11
7.1268869263
 21
12.6428230883
 31
0.0
 11
7.0883702404
 21
12.8262646633
 31
0.0
 11
7.0192749663
 21
13.0041303119
 31
0.0
 11
6.9218089723
 21
13.1671223145
 31
0.0
 11
6.8005562844
 21
13.3080506348
 31
0.0
 11
6.6584079378
 21
13.4254881058
 31
0.0
 11
6.501220252
 21
13.5183016409
 31
0.0
 11
6.3348500451
 21
13.5856196527
 31
0.0
 11
6.1661672469
 21
13.6263073693
 31
0.0
 11
5.9963374899
 21
13.6402750798
 31
0.0
  0
SPLINE
  5
5E9
100
AcDbEntity
  8
INCISIONI
100
AcDbSpline
 62
253
  6
CONTINUOUS
 70
0
 71
3
 72
11
 73
7
 74
5
 42
0.0000001
 43
0.0000001
 44
0.0000000001
 12
0.0116058544
 22
0.181193689
 32
0.0
 13
0.0044548137
 23
0.6402353954
 33
0.0
 40
0.0
 40
0.0
 40
0.0
 40
0.0
 40
0.2450440156
 40
0.5033055314
 40
0.7579591626
 40
1.0
 40
1.0
 40
1.0
 40
1.0
 10
11.0678315956
 20
4.9565587397
 30
0.0
 10
11.0687795773
 20
4.9713588828
 30
0.0
 10
11.0707338711
 20
5.0005213919
 30
0.0
 10
11.0735687121
 20
5.0651610171
 30
0.0
 10
11.0761457217
 20
5.159157879
 30
0.0
 10
11.0773961891
 20
5.2537899196
 30
0.0
 10
11.0777556047
 20
5.30544429
 30
0.0
 11
11.0678315956
 21
4.9565587397
 31
0.0
 11
11.0706655096
 21
5.0030172293
 31
0.0
 11
11.0735397299
 21
5.0705695192
 31
0.0
 11
11.076071809
 21
5.169347468
 31
0.0
 11
11.0777556047
 21
5.30544429
 31
0.0
  0
LINE
  5
5EA
100
AcDbEntity
  8
INCISIONI
100
AcDbLine
 62
253
  6
CONTINUOUS
 10
11.0541368045
 20
4.7496410148
 11
11.0678315956
 21
4.9565587397
  0
SPLINE
  5
5EB
100
AcDbEntity
  8
INCISIONI
100
AcDbSpline
 62
253
  6
CONTINUOUS
 70
0
 71
3
 72
9
 73
5
 74
3
 42
0.0000001
 43
0.0000001
 44
0.0000000001
 12
-0.0150000908
 22
-0.3229459945
 32
0.0
 13
-0.0154000008
 23
-0.2537321442
 33
0.0
 40
0.0
 40
0.0
 40
0.0
 40
0.0
 40
0.499968398
 40
1.0
 40
1.0
 40
1.0
 40
1.0
 10
11.0694798424
 20
5.5965120355
 30
0.0
 10
11.0669799853
 20
5.542691105
 30
0.0
 10
11.0618199067
 20
5.4614309255
 30
0.0
 10
11.0567036336
 20
5.3741331019
 30
0.0
 10
11.0541368045
 20
5.3318417383
 30
0.0
 11
11.0694798424
 21
5.5965120355
 31
0.0
 11
11.0618311828
 21
5.4599268412
 31
0.0
 11
11.0541368045
 21
5.3318417383
 31
0.0
  0
SPLINE
  5
5EC
100
AcDbEntity
  8
INCISIONI
100
AcDbSpline
 62
253
  6
CONTINUOUS
 70
0
 71
3
 72
11
 73
7
 74
5
 42
0.0000001
 43
0.0000001
 44
0.0000000001
 12
0.0
 22
-0.4505958664
 32
0.0
 13
-0.0073624405
 23
-0.1583423737
 33
0.0
 40
0.0
 40
0.0
 40
0.0
 40
0.0
 40
0.2477795725
 40
0.4960551195
 40
0.7486644071
 40
1.0
 40
1.0
 40
1.0
 40
1.0
 10
11.0739381528
 20
5.9341993273
 30
0.0
 10
11.0739381528
 20
5.8969831769
 30
0.0
 10
11.0737480982
 20
5.8216580962
 30
0.0
 10
11.07277574
 20
5.7211454858
 30
0.0
 10
11.0712805397
 20
5.6450913069
 30
0.0
 10
11.0700966569
 20
5.609777727
 30
0.0
 10
11.0694798424
 20
5.5965120355
 30
0.0
 11
11.0739381528
 21
5.9341993273
 31
0.0
 11
11.0736349609
 21
5.8239107377
 31
0.0
 11
11.072696587
 21
5.7258068357
 31
0.0
 11
11.0712322315
 21
5.648891914
 31
0.0
 11
11.0694798424
 21
5.5965120355
 31
0.0
  0
ELLIPSE
  5
5ED
100
AcDbEntity
  8
DRAFT
100
AcDbEllipse
 62
7
  6
CONTINUOUS
 10
-2.5
 20
20.0532338935
 30
0.0
 11
1.0
 21
-0.0
 31
0.0
 40
0.0087268678
 41
1.5707963268
 42
3.1415926536
  0
ELLIPSE
  5
5EE
100
AcDbEntity
  8
DRAFT
100
AcDbEllipse
 62
7
  6
CONTINUOUS
 10
-2.5
 20
-20.0532338935
 30
0.0
 11
1.0
 21
-0.0
 31
0.0
 40
0.0087268678
 41
3.1415926536
 42
4.7123889804
  0
ELLIPSE
  5
5EF
100
AcDbEntity
  8
DRAFT
100
AcDbEllipse
 62
7
  6
CONTINUOUS
 10
2.5
 20
-20.0532338935
 30
0.0
 11
1.0
 21
-0.0
 31
0.0
 40
0.0087268678
 41
-1.5707963268
 42
-0.0
  0
ELLIPSE
  5
5F0
100
AcDbEntity
  8
DRAFT
100
AcDbEllipse
 62
7
  6
CONTINUOUS
 10
-0.0
 20
-20.1911184046
 30
0.0
 11
15.0
 21
-0.0
 31
0.0
 40
0.0087268678
 41
1.4073150204
 42
1.7342776332
  0
ELLIPSE
  5
5F1
100
AcDbEntity
  8
DRAFT
100
AcDbEllipse
 62
7
  6
CONTINUOUS
 10
2.5
 20
20.0532338935
 30
0.0
 11
1.0
 21
-0.0
 31
0.0
 40
0.0087268678
 41
-0.0
 42
1.5707963268
  0
ELLIPSE
  5
5F2
100
AcDbEntity
  8
DRAFT
100
AcDbEllipse
 62
7
  6
CONTINUOUS
 10
0.0
 20
20.1911184046
 30
0.0
 11
15.0
 21
-0.0
 31
0.0
 40
0.0087268678
 41
-1.7342776332
 42
-1.4073150204
  0
ELLIPSE
  5
5F3
100
AcDbEntity
  8
SUPERFICI
100
AcDbEllipse
 62
7
  6
CONTINUOUS
 10
-1.2
 20
-23.7941787855
 30
0.0
 11
-0.0
 21
-0.2000033847
 31
0.0
 40
0.9999830769
 41
0.0
 42
1.5707963268
  0
ELLIPSE
  5
5F4
100
AcDbEntity
  8
SUPERFICI
100
AcDbEllipse
 62
7
  6
CONTINUOUS
 10
1.2
 20
23.7941787855
 30
0.0
 11
0.0
 21
0.2000033847
 31
0.0
 40
0.9999830769
 41
0.0
 42
1.5707963268
  0
ELLIPSE
  5
5F5
100
AcDbEntity
  8
SUPERFICI
100
AcDbEllipse
 62
7
  6
CONTINUOUS
 10
-1.2
 20
23.7941787855
 30
0.0
 11
-0.0
 21
-0.2000033847
 31
0.0
 40
0.9999830769
 41
1.5707963268
 42
3.1415926536
  0
ELLIPSE
  5
5F6
100
AcDbEntity
  8
DRAFT
100
AcDbEllipse
 62
7
  6
CONTINUOUS
 10
-7.5666456542
 20
-21.9537669705
 30
0.0
 11
-0.4999904798
 21
0.5000285596
 31
0.0
 40
0.0061705924
 41
-1.0386206835
 42
-0.0112823085
  0
ELLIPSE
  5
5F7
100
AcDbEntity
  8
DRAFT
100
AcDbEllipse
 62
7
  6
CONTINUOUS
 10
7.5666456542
 20
-21.9537669705
 30
0.0
 11
0.4999904798
 21
0.5000285596
 31
0.0
 40
0.0061705924
 41
0.0112823085
 42
1.0386206835
  0
ELLIPSE
  5
5F8
100
AcDbEntity
  8
DRAFT
100
AcDbEllipse
 62
7
  6
CONTINUOUS
 10
7.5666456542
 20
21.9537669705
 30
0.0
 11
-0.4999904798
 21
0.5000285596
 31
0.0
 40
0.0061705924
 41
-4.1802133371
 42
-3.1528749621
  0
ELLIPSE
  5
5F9
100
AcDbEntity
  8
DRAFT
100
AcDbEllipse
 62
7
  6
CONTINUOUS
 10
-7.5666456542
 20
21.9537669705
 30
0.0
 11
0.4999904798
 21
0.5000285596
 31
0.0
 40
0.0061705924
 41
-3.1303103451
 42
-2.1029719701
  0
ELLIPSE
  5
5FA
100
AcDbEntity
  8
DRAFT
100
AcDbEllipse
 62
7
  6
CONTINUOUS
 10
-7.2031587473
 20
-7.79
 30
0.0
 11
0.0
 21
88.6
 31
0.0
 40
0.0087268678
 41
-1.7083317739
 42
-1.7056288743
  0
ELLIPSE
  5
5FB
100
AcDbEntity
  8
DRAFT
100
AcDbEllipse
 62
7
  6
CONTINUOUS
 10
-6.5968412527
 20
-7.79
 30
0.0
 11
0.0
 21
88.6
 31
0.0
 40
0.0087268678
 41
1.7056288933
 42
1.7150615936
  0
ELLIPSE
  5
5FC
100
AcDbEntity
  8
SUPERFICI
100
AcDbEllipse
 62
7
  6
CONTINUOUS
 10
1.2
 20
-23.7941787855
 30
0.0
 11
0.0
 21
0.2000033847
 31
0.0
 40
0.9999830769
 41
1.5707963268
 42
3.1415926536
  0
ELLIPSE
  5
5FD
100
AcDbEntity
  8
DRAFT
100
AcDbEllipse
 62
7
  6
CONTINUOUS
 10
-7.5666456542
 20
-20.9916321118
 30
0.0
 11
0.5
 21
-0.0
 31
0.0
 40
0.0087268678
 41
-3.1241393611
 42
-1.5707963268
  0
ELLIPSE
  5
5FE
100
AcDbEntity
  8
DRAFT
100
AcDbEllipse
 62
7
  6
CONTINUOUS
 10
7.5666456542
 20
-20.9916321118
 30
0.0
 11
0.5
 21
-0.0
 31
0.0
 40
0.0087268678
 41
-1.5707963268
 42
-0.0174532925
  0
ELLIPSE
  5
5FF
100
AcDbEntity
  8
DRAFT
100
AcDbEllipse
 62
7
  6
CONTINUOUS
 10
6.5968412527
 20
-7.79
 30
0.0
 11
0.0
 21
88.6
 31
0.0
 40
0.0087268678
 41
-1.7150615936
 42
-1.7056288933
  0
ELLIPSE
  5
600
100
AcDbEntity
  8
DRAFT
100
AcDbEllipse
 62
7
  6
CONTINUOUS
 10
7.2031587473
 20
-7.79
 30
0.0
 11
0.0
 21
88.6
 31
0.0
 40
0.0087268678
 41
-4.5775564329
 42
-4.5748535333
  0
ELLIPSE
  5
601
100
AcDbEntity
  8
SUPERFICI
100
AcDbEllipse
 62
7
  6
CONTINUOUS
 10
4.4063662764
 20
-23.4563578147
 30
0.0
 11
0.0
 21
0.5
 31
0.0
 40
0.0058178298
 41
-3.2409419489
 42
-3.1474104178
  0
ELLIPSE
  5
602
100
AcDbEntity
  8
SUPERFICI
100
AcDbEllipse
 62
7
  6
CONTINUOUS
 10
-4.4063662764
 20
-23.4563578147
 30
0.0
 11
0.0
 21
0.5
 31
0.0
 40
0.0058178298
 41
-3.1357748894
 42
-3.0422433583
  0
ELLIPSE
  5
603
100
AcDbEntity
  8
DRAFT
100
AcDbEllipse
 62
7
  6
CONTINUOUS
 10
8.1905965035
 20
-21.3359869487
 30
0.0
 11
1.0000571192
 21
0.9999809595
 31
0.0
 40
0.0061705924
 41
1.9467387334
 42
3.1419458735
  0
ELLIPSE
  5
604
100
AcDbEntity
  8
DRAFT
100
AcDbEllipse
 62
7
  6
CONTINUOUS
 10
-8.1905965035
 20
-21.3359869487
 30
0.0
 11
1.0000571192
 21
-0.9999809595
 31
0.0
 40
0.0061705924
 41
-0.0003532199
 42
1.1948539202
  0
ELLIPSE
  5
605
100
AcDbEntity
  8
DRAFT
100
AcDbEllipse
 62
7
  6
CONTINUOUS
 10
-8.1905965035
 20
21.3359869487
 30
0.0
 11
1.0000571192
 21
0.9999809595
 31
0.0
 40
0.0061705924
 41
-1.1948539202
 42
0.0003532199
  0
ELLIPSE
  5
606
100
AcDbEntity
  8
SUPERFICI
100
AcDbEllipse
 62
7
  6
CONTINUOUS
 10
-4.4063662764
 20
23.4563578147
 30
0.0
 11
-0.0
 21
0.5
 31
0.0
 40
0.0058178298
 41
-0.0993492953
 42
-0.0058177642
  0
ELLIPSE
  5
607
100
AcDbEntity
  8
DRAFT
100
AcDbEllipse
 62
7
  6
CONTINUOUS
 10
8.1905965035
 20
21.3359869487
 30
0.0
 11
1.0000571192
 21
-0.9999809595
 31
0.0
 40
0.0061705924
 41
3.1412394337
 42
4.3364465738
  0
ELLIPSE
  5
608
100
AcDbEntity
  8
DRAFT
100
AcDbEllipse
 62
7
  6
CONTINUOUS
 10
7.2031587473
 20
7.79
 30
0.0
 11
0.0
 21
88.6
 31
0.0
 40
0.0087268678
 41
1.4332608797
 42
1.4359637793
  0
ELLIPSE
  5
609
100
AcDbEntity
  8
DRAFT
100
AcDbEllipse
 62
7
  6
CONTINUOUS
 10
6.5968412527
 20
7.79
 30
0.0
 11
0.0
 21
88.6
 31
0.0
 40
0.0087268678
 41
-1.4359642583
 42
-1.42653106
  0
ELLIPSE
  5
60A
100
AcDbEntity
  8
DRAFT
100
AcDbEllipse
 62
7
  6
CONTINUOUS
 10
7.5666456542
 20
20.9916321118
 30
0.0
 11
0.5
 21
-0.0
 31
0.0
 40
0.0087268678
 41
0.0174532925
 42
1.5707963268
  0
ELLIPSE
  5
60B
100
AcDbEntity
  8
DRAFT
100
AcDbEllipse
 62
7
  6
CONTINUOUS
 10
-7.5666456542
 20
20.9916321118
 30
0.0
 11
0.5
 21
-0.0
 31
0.0
 40
0.0087268678
 41
1.5707963268
 42
3.1241393611
  0
ELLIPSE
  5
60C
100
AcDbEntity
  8
SUPERFICI
100
AcDbEllipse
 62
7
  6
CONTINUOUS
 10
4.4063662764
 20
23.4563578147
 30
0.0
 11
0.0
 21
0.5
 31
0.0
 40
0.0058178298
 41
0.0058177642
 42
0.0993492953
  0
ELLIPSE
  5
60D
100
AcDbEntity
  8
DRAFT
100
AcDbEllipse
 62
7
  6
CONTINUOUS
 10
-6.5968412527
 20
7.79
 30
0.0
 11
0.0
 21
88.6
 31
0.0
 40
0.0087268678
 41
7.7097163672
 42
7.7191495655
  0
ELLIPSE
  5
60E
100
AcDbEntity
  8
DRAFT
100
AcDbEllipse
 62
7
  6
CONTINUOUS
 10
-7.2031587473
 20
7.79
 30
0.0
 11
0.0
 21
88.6
 31
0.0
 40
0.0087268678
 41
-1.4359637793
 42
-1.4332608797
  0
ELLIPSE
  5
60F
100
AcDbEntity
  8
SUPERFICI
100
AcDbEllipse
 62
7
  6
CONTINUOUS
 10
10.6416904364
 20
21.8941737085
 30
0.0
 11
-0.4160498344
 21
-0.2773626446
 31
0.0
 40
0.9999450019
 41
2.5536219432
 42
4.1243675013
  0
ELLIPSE
  5
610
100
AcDbEntity
  8
SUPERFICI
100
AcDbEllipse
 62
7
  6
CONTINUOUS
 10
10.6416904364
 20
-21.8941737085
 30
0.0
 11
0.4160498344
 21
-0.2773626446
 31
0.0
 40
0.9999450019
 41
-0.9827748477
 42
0.5879707104
  0
ELLIPSE
  5
611
100
AcDbEntity
  8
SUPERFICI
100
AcDbEllipse
 62
7
  6
CONTINUOUS
 10
-10.6416904364
 20
21.8941737085
 30
0.0
 11
-0.4160498344
 21
0.2773626446
 31
0.0
 40
0.9999450019
 41
-0.9827748477
 42
0.5879707104
  0
ELLIPSE
  5
612
100
AcDbEntity
  8
SUPERFICI
100
AcDbEllipse
 62
7
  6
CONTINUOUS
 10
-10.6416904364
 20
-21.8941737085
 30
0.0
 11
0.4160498344
 21
0.2773626446
 31
0.0
 40
0.9999450019
 41
2.5536219432
 42
4.1243675013
  0
ELLIPSE
  5
613
100
AcDbEntity
  8
SUPERFICI
100
AcDbEllipse
 62
7
  6
CONTINUOUS
 10
-9.8999957691
 20
-23.4113248654
 30
0.0
 11
-0.0029088041
 21
0.2886641433
 31
0.0
 40
0.8660144118
 41
-0.0087264124
 42
1.5591610446
  0
ELLIPSE
  5
614
100
AcDbEntity
  8
SUPERFICI
100
AcDbEllipse
 62
7
  6
CONTINUOUS
 10
-7.5000042309
 20
-23.4113248654
 30
0.0
 11
0.0029088041
 21
0.2886641433
 31
0.0
 40
0.8660144118
 41
-1.5591610446
 42
0.0087264124
  0
ELLIPSE
  5
615
100
AcDbEntity
  8
SUPERFICI
100
AcDbEllipse
 62
7
  6
CONTINUOUS
 10
7.5000042309
 20
-23.4113248654
 30
0.0
 11
-0.0029088041
 21
0.2886641433
 31
0.0
 40
0.8660144118
 41
-0.0087264124
 42
1.5591610446
  0
ELLIPSE
  5
616
100
AcDbEntity
  8
SUPERFICI
100
AcDbEllipse
 62
7
  6
CONTINUOUS
 10
9.8999957691
 20
-23.4113248654
 30
0.0
 11
0.0029088041
 21
0.2886641433
 31
0.0
 40
0.8660144118
 41
-1.5591610446
 42
0.0087264124
  0
ELLIPSE
  5
617
100
AcDbEntity
  8
SUPERFICI
100
AcDbEllipse
 62
7
  6
CONTINUOUS
 10
-9.8999957691
 20
23.4113248654
 30
0.0
 11
0.0029088041
 21
0.2886641433
 31
0.0
 40
0.8660144118
 41
-4.7007536982
 42
-3.1328662412
  0
ELLIPSE
  5
618
100
AcDbEntity
  8
SUPERFICI
100
AcDbEllipse
 62
7
  6
CONTINUOUS
 10
-7.5000042309
 20
23.4113248654
 30
0.0
 11
-0.0029088041
 21
0.2886641433
 31
0.0
 40
0.8660144118
 41
-3.150319066
 42
-1.582431609
  0
ELLIPSE
  5
619
100
AcDbEntity
  8
SUPERFICI
100
AcDbEllipse
 62
7
  6
CONTINUOUS
 10
9.8999957691
 20
23.4113248654
 30
0.0
 11
-0.0029088041
 21
0.2886641433
 31
0.0
 40
0.8660144118
 41
-3.150319066
 42
-1.582431609
  0
ELLIPSE
  5
61A
100
AcDbEntity
  8
SUPERFICI
100
AcDbEllipse
 62
7
  6
CONTINUOUS
 10
7.5000042309
 20
23.4113248654
 30
0.0
 11
0.0029088041
 21
0.2886641433
 31
0.0
 40
0.8660144118
 41
-4.7007536982
 42
-3.1328662412
  0
ELLIPSE
  5
61B
100
AcDbEntity
  8
RACCORDO
100
AcDbEllipse
 62
7
  6
CONTINUOUS
 10
9.1496953439
 20
17.6714466826
 30
0.0
 11
1.8480888181
 21
0.7655034529
 31
0.0
 40
0.9998215708
 41
-0.3926359958
 42
0.3926359958
  0
ELLIPSE
  5
61C
100
AcDbEntity
  8
RACCORDO
100
AcDbEllipse
 62
7
  6
CONTINUOUS
 10
9.1496953439
 20
-17.6714466826
 30
0.0
 11
1.8480888181
 21
-0.7655034529
 31
0.0
 40
0.9998215708
 41
-0.3926359958
 42
0.3926359958
  0
ELLIPSE
  5
61D
100
AcDbEntity
  8
RACCORDO
100
AcDbEllipse
 62
7
  6
CONTINUOUS
 10
-9.1496953439
 20
-17.6714466826
 30
0.0
 11
1.8480888181
 21
0.7655034529
 31
0.0
 40
0.9998215708
 41
2.7489566578
 42
3.5342286494
  0
ELLIPSE
  5
61E
100
AcDbEntity
  8
RACCORDO
100
AcDbEllipse
 62
7
  6
CONTINUOUS
 10
-9.1496953439
 20
17.6714466826
 30
0.0
 11
1.8480888181
 21
-0.7655034529
 31
0.0
 40
0.9998215708
 41
2.7489566578
 42
3.5342286494
  0
ELLIPSE
  5
61F
100
AcDbEntity
  8
RACCORDO
100
AcDbEllipse
 62
7
  6
CONTINUOUS
 10
-1.5981173983
 20
19.8982544935
 30
0.0
 11
0.9
 21
-0.0
 31
0.0
 40
0.0174550649
 41
-3.1241393611
 42
-1.5707963268
  0
ELLIPSE
  5
620
100
AcDbEntity
  8
RACCORDO
100
AcDbEllipse
 62
7
  6
CONTINUOUS
 10
1.5981173983
 20
19.8982544935
 30
0.0
 11
0.9
 21
0.0
 31
0.0
 40
0.0174550649
 41
-1.5707963268
 42
-0.0174532925
  0
ELLIPSE
  5
621
100
AcDbEntity
  8
RACCORDO
100
AcDbEllipse
 62
7
  6
CONTINUOUS
 10
-9.3778922769
 20
18.6108268408
 30
0.0
 11
-0.3827517265
 21
0.924044409
 31
0.0
 40
0.9998215708
 41
-0.3926359958
 42
0.3926359958
  0
ELLIPSE
  5
622
100
AcDbEntity
  8
RACCORDO
100
AcDbEllipse
 62
7
  6
CONTINUOUS
 10
-9.3778922769
 20
-18.6108268408
 30
0.0
 11
0.3827517265
 21
0.924044409
 31
0.0
 40
0.9998215708
 41
-3.5342286494
 42
-2.7489566578
  0
ELLIPSE
  5
623
100
AcDbEntity
  8
RACCORDO
100
AcDbEllipse
 62
7
  6
CONTINUOUS
 10
9.3778922769
 20
-18.6108268408
 30
0.0
 11
-0.3827517265
 21
0.924044409
 31
0.0
 40
0.9998215708
 41
-3.5342286494
 42
-2.7489566578
  0
ELLIPSE
  5
624
100
AcDbEntity
  8
RACCORDO
100
AcDbEllipse
 62
7
  6
CONTINUOUS
 10
9.3778922769
 20
18.6108268408
 30
0.0
 11
0.3827517265
 21
0.924044409
 31
0.0
 40
0.9998215708
 41
-0.3926359958
 42
0.3926359958
  0
ELLIPSE
  5
625
100
AcDbEntity
  8
RACCORDO
100
AcDbEllipse
 62
7
  6
CONTINUOUS
 10
-1.5981173983
 20
-19.8982544935
 30
0.0
 11
0.9
 21
-0.0
 31
0.0
 40
0.0174550649
 41
1.5707963268
 42
3.1241393611
  0
ELLIPSE
  5
626
100
AcDbEntity
  8
RACCORDO
100
AcDbEllipse
 62
7
  6
CONTINUOUS
 10
1.5981173983
 20
-19.8982544935
 30
0.0
 11
0.9
 21
-0.0
 31
0.0
 40
0.0174550649
 41
0.0174532925
 42
1.5707963268
  0
ELLIPSE
  5
627
100
AcDbEntity
  8
ASSI
100
AcDbEllipse
 62
7
  6
CONTINUOUS
 10
-9.1496953439
 20
17.6714466826
 30
0.0
 11
1.8480888181
 21
-0.7655034529
 31
0.0
 40
0.9998215708
 41
2.7489566578
 42
3.5342286494
  0
ELLIPSE
  5
628
100
AcDbEntity
  8
ASSI
100
AcDbEllipse
 62
7
  6
CONTINUOUS
 10
-9.1496953439
 20
-17.6714466826
 30
0.0
 11
1.8480888181
 21
0.7655034529
 31
0.0
 40
0.9998215708
 41
2.7489566578
 42
3.5342286494
  0
ELLIPSE
  5
629
100
AcDbEntity
  8
ASSI
100
AcDbEllipse
 62
7
  6
CONTINUOUS
 10
9.1496953439
 20
-17.6714466826
 30
0.0
 11
1.8480888181
 21
-0.7655034529
 31
0.0
 40
0.9998215708
 41
-0.3926359958
 42
0.3926359958
  0
ELLIPSE
  5
62A
100
AcDbEntity
  8
ASSI
100
AcDbEllipse
 62
7
  6
CONTINUOUS
 10
9.1496953439
 20
17.6714466826
 30
0.0
 11
1.8480888181
 21
0.7655034529
 31
0.0
 40
0.9998215708
 41
-0.3926359958
 42
0.3926359958
  0
ELLIPSE
  5
62B
100
AcDbEntity
  8
ASSI
100
AcDbEllipse
 62
7
  6
CONTINUOUS
 10
9.6862428021
 20
15.0
 30
0.0
 11
0.0
 21
2.1
 31
0.0
 40
0.0087268678
 41
3.1415926536
 42
6.2831853072
  0
ELLIPSE
  5
62C
100
AcDbEntity
  8
ASSI
100
AcDbEllipse
 62
7
  6
CONTINUOUS
 10
9.6862428021
 20
10.0
 30
0.0
 11
0.0
 21
2.1
 31
0.0
 40
0.0087268678
 41
3.1415926536
 42
6.2831853072
  0
ELLIPSE
  5
62D
100
AcDbEntity
  8
ASSI
100
AcDbEllipse
 62
7
  6
CONTINUOUS
 10
9.3778922769
 20
18.6108268408
 30
0.0
 11
0.3827517265
 21
0.924044409
 31
0.0
 40
0.9998215708
 41
-0.3926359958
 42
0.3926359958
  0
ELLIPSE
  5
62E
100
AcDbEntity
  8
ASSI
100
AcDbEllipse
 62
7
  6
CONTINUOUS
 10
9.3778922769
 20
-18.6108268408
 30
0.0
 11
-0.3827517265
 21
0.924044409
 31
0.0
 40
0.9998215708
 41
-3.5342286494
 42
-2.7489566578
  0
ELLIPSE
  5
62F
100
AcDbEntity
  8
ASSI
100
AcDbEllipse
 62
7
  6
CONTINUOUS
 10
-9.3778922769
 20
-18.6108268408
 30
0.0
 11
0.3827517265
 21
0.924044409
 31
0.0
 40
0.9998215708
 41
-3.5342286494
 42
-2.7489566578
  0
ELLIPSE
  5
630
100
AcDbEntity
  8
ASSI
100
AcDbEllipse
 62
7
  6
CONTINUOUS
 10
-9.3778922769
 20
18.6108268408
 30
0.0
 11
-0.3827517265
 21
0.924044409
 31
0.0
 40
0.9998215708
 41
-0.3926359958
 42
0.3926359958
  0
ELLIPSE
  5
631
100
AcDbEntity
  8
ASSI
100
AcDbEllipse
 62
7
  6
CONTINUOUS
 10
10.8724644676
 20
15.0
 30
0.0
 11
-0.0
 21
2.1
 31
0.0
 40
0.0174550649
 41
-3.1415926536
 42
-0.0
  0
ELLIPSE
  5
632
100
AcDbEntity
  8
ASSI
100
AcDbEllipse
 62
7
  6
CONTINUOUS
 10
10.8724644676
 20
10.0
 30
0.0
 11
-0.0
 21
2.1
 31
0.0
 40
0.0174550649
 41
-3.1415926536
 42
-0.0
  0
ELLIPSE
  5
633
100
AcDbEntity
  8
ASSI
100
AcDbEllipse
 62
7
  6
CONTINUOUS
 10
1.5981173983
 20
-19.8982544935
 30
0.0
 11
0.9
 21
-0.0
 31
0.0
 40
0.0174550649
 41
0.0174532925
 42
1.5707963268
  0
ELLIPSE
  5
634
100
AcDbEntity
  8
ASSI
100
AcDbEllipse
 62
7
  6
CONTINUOUS
 10
-1.5981173983
 20
-19.8982544935
 30
0.0
 11
0.9
 21
-0.0
 31
0.0
 40
0.0174550649
 41
1.5707963268
 42
3.1241393611
  0
ELLIPSE
  5
635
100
AcDbEntity
  8
ASSI
100
AcDbEllipse
 62
7
  6
CONTINUOUS
 10
1.5981173983
 20
19.8982544935
 30
0.0
 11
0.9
 21
0.0
 31
0.0
 40
0.0174550649
 41
-1.5707963268
 42
-0.0174532925
  0
ELLIPSE
  5
636
100
AcDbEntity
  8
ASSI
100
AcDbEllipse
 62
7
  6
CONTINUOUS
 10
-1.5981173983
 20
19.8982544935
 30
0.0
 11
0.9
 21
-0.0
 31
0.0
 40
0.0174550649
 41
-3.1241393611
 42
-1.5707963268
  0
ENDSEC
  0
SECTION
  2
OBJECTS
  0
DICTIONARY
  5
C
100
AcDbDictionary
280
0
281
1
  3
ACAD_GROUP
350
D
  3
ACAD_MLINESTYLE
350
17
  3
ACAD_LAYOUT
350
1A
  3
ACAD_PLOTSETTINGS
350
19
  3
ACAD_PLOTSTYLENAME
350
E
  0
DICTIONARY
  5
D
102
{ACAD_REACTORS
330
C
102
}
100
AcDbDictionary
280
0
281
1
  0
ACDBDICTIONARYWDFLT
  5
E
102
{ACAD_REACTORS
330
C
102
}
100
AcDbDictionary
281
1
  3
Normal
350
F
100
AcDbDictionaryWithDefault
340
F
  0
DICTIONARY
  5
17
102
{ACAD_REACTORS
330
C
102
}
100
AcDbDictionary
280
0
281
1
  3
Standard
350
18
  0
DICTIONARY
  5
19
102
{ACAD_REACTORS
330
C
102
}
100
AcDbDictionary
281
1
  0
DICTIONARY
  5
1A
102
{ACAD_REACTORS
330
C
102
}
100
AcDbDictionary
281
1
  3
Model
350
637
  3
Layout1
350
638
  0
ACDBPLACEHOLDER
  5
F
102
{ACAD_REACTORS
330
E
102
}
  0
MLINESTYLE
  5
18
102
{ACAD_REACTORS
330
17
102
}
100
AcDbMlineStyle
  2
STANDARD
 70
0
  3

 62
256
 51
90.0
 52
90.0
 71
2
 49
0.5
 62
256
  6
BYLAYER
 49
-0.5
 62
256
  6
BYLAYER
  0
LAYOUT
  5
637
102
{ACAD_REACTORS
330
1A
102
}
100
AcDbPlotSettings
  1

  2
none_device
  4
ISO_A4_(297.00_x_210.00_MM)
  6

 40
0.0
 41
0.0
 42
0.0
 43
0.0
 44
297.0
 45
210.0
 46
0.0
 47
0.0
 48
0.0
 49
0.0
140
0.0
141
0.0
142
1.0
143
1.0
 70
1024
 72
1
 73
0
 74
0
  7

 75
0
147
1.0
148
0.0
149
0.0
100
AcDbLayout
  1
Model
 70
0
 71
0
 10
0.0
 20
0.0
 11
297.0
 21
210.0
 12
0.0
 22
0.0
 32
0.0
 14
0.0
 24
0.0
 34
0.0
 15
0.0
 25
0.0
 35
0.0
146
0.0
 13
0.0
 23
0.0
 33
0.0
 16
1.0
 26
0.0
 36
0.0
 17
0.0
 27
1.0
 37
0.0
 76
0
330
21E
345
0
346
0
  0
LAYOUT
  5
638
102
{ACAD_REACTORS
330
1A
102
}
100
AcDbPlotSettings
  1

  2
none_device
  4
ISO_A4_(297.00_x_210.00_MM)
  6

 40
0.0
 41
0.0
 42
0.0
 43
0.0
 44
297.0
 45
210.0
 46
0.0
 47
0.0
 48
0.0
 49
0.0
140
0.0
141
0.0
142
1.0
143
1.0
 70
0
 72
1
 73
0
 74
0
  7

 75
0
147
1.0
148
0.0
149
0.0
100
AcDbLayout
  1
Layout1
 70
0
 71
1
 10
0.0
 20
0.0
 11
297.0
 21
210.0
 12
0.0
 22
0.0
 32
0.0
 14
0.0
 24
0.0
 34
0.0
 15
0.0
 25
0.0
 35
0.0
146
0.0
 13
0.0
 23
0.0
 33
0.0
 16
1.0
 26
0.0
 36
0.0
 17
0.0
 27
1.0
 37
0.0
 76
0
330
21F
345
0
346
0
  0
ENDSEC
  0
EOF
