  0
SECTION
  2
HEADER
  9
$ACADVER
  1
AC1024
  9
$DWGCODEPAGE
  3
ANSI_1252
  9
$EXTMAX
 10
558.8
 20
431.8
 30
0.0
  9
$EXTMIN
 10
0.0
 20
0.0
 30
0.0
  9
$LIMMIN
 10
0.0
 20
0.0
  9
$LIMMAX
 10
558.8
 20
431.8
  9
$VIEWCTR
 10
279.4
 20
215.9
  9
$VIEWSIZE
 40
431.8
  9
$CLAYER
  8
0
  9
$LTSCALE
 40
30.734
  9
$CELTYPE
  6
BYLAYER
  9
$DIMSCALE
 40
1.0
  9
$DIMASZ
 40
3.0
  9
$DIMEXO
 40
0.5
  9
$DIMDLI
 40
21.2344
  9
$DIMEXE
 40
1.5
  9
$DIMCEN
 40
5.0292
  9
$DIMLFAC
 40
1.0
  9
$DIMBLK
  1
_FILLED
  9
$DIMALT
 70
0
  9
$DIMALTF
 40
0.0393700787
  9
$DIMTXT
 40
3.0
  9
$DIMTOL
 70
1
  9
$DIMLIM
 70
0
  9
$DIMTFAC
 40
1.0
  9
$DIMTP
 40
0.01
  9
$DIMTM
 40
0.01
  9
$DIMGAP
 40
0.625
  9
$DIMDSEP
 70
44
  9
$AUNITS
 70
0
  9
$PDMODE
 70
3
  9
$PDSIZE
 40
3.0
  9
$HANDSEED
  5
389
  9
$TILEMODE
 70
1
  9
$MEASUREMENT
 70
1
  9
$INSUNITS
 70
4
  0
ENDSEC
  0
SECTION
  2
CLASSES
  0
CLASS
  1
ACDBDICTIONARYWDFLT
  2
AcDbDictionaryWithDefault
  3
AutoCAD 2000
 90
0
 91
1
280
0
281
0
  0
CLASS
  1
ACDBPLACEHOLDER
  2
AcDbPlaceHolder
  3
AutoCAD 2000
 90
0
 91
1
280
0
281
0
  0
CLASS
  1
LAYOUT
  2
AcDbLayout
  3
AutoCAD 2000
 90
0
 91
0
280
0
281
0
  0
ENDSEC
  0
SECTION
  2
TABLES
  0
TABLE
  2
VPORT
  5
8
100
AcDbSymbolTable
 70
2
  0
VPORT
  5
1F4
100
AcDbSymbolTableRecord
100
AcDbViewportTableRecord
  2
*ACTIVE
 70
0
 10
0.0
 20
0.0
 11
1.0
 21
1.0
 12
279.4
 22
215.9
 13
0.0
 23
0.0
 14
1.0
 24
1.0
 15
0.0
 25
0.0
 16
0.0
 26
0.0
 36
1.0
 17
0.0
 27
0.0
 37
0.0
 40
431.8
 41
1.2941176471
 42
50.0
 43
0.0
 44
0.0
 50
0.0
 51
0.0
 71
0
 72
100
 73
1
 74
1
 75
0
 76
0
 77
0
 78
0
  0
ENDTAB
  0
TABLE
  2
LTYPE
  5
5
100
AcDbSymbolTable
 70
6
  0
LTYPE
  5
14
100
AcDbSymbolTableRecord
100
AcDbLinetypeTableRecord
  2
BYBLOCK
 70
0
  3

 72
65
 73
0
 40
0.0
  0
LTYPE
  5
15
100
AcDbSymbolTableRecord
100
AcDbLinetypeTableRecord
  2
BYLAYER
 70
0
  3

 72
65
 73
0
 40
0.0
  0
LTYPE
  5
16
100
AcDbSymbolTableRecord
100
AcDbLinetypeTableRecord
  2
CONTINUOUS
 70
64
  3
Solid line
 72
65
 73
0
 40
0.0
  0
LTYPE
  5
1F5
100
AcDbSymbolTableRecord
100
AcDbLinetypeTableRecord
  2
CENTER
 70
64
  3
____ _ ____ _ ____ _ ____ _ ____ _ ____ _ ____
 72
65
 73
4
 40
0.6
 49
0.375
 74
0
 49
-0.075
 74
0
 49
0.075
 74
0
 49
-0.075
 74
0
  0
LTYPE
  5
1F6
100
AcDbSymbolTableRecord
100
AcDbLinetypeTableRecord
  2
HIDDEN
 70
64
  3
- - - - - - - - - - - - - - - - - - - -
 72
65
 73
2
 40
0.2
 49
0.1
 74
0
 49
-0.1
 74
0
  0
LTYPE
  5
1F7
100
AcDbSymbolTableRecord
100
AcDbLinetypeTableRecord
  2
PHANTOM
 70
64
  3
_____ _ _ _____ _ _ _____ _ _ _____
 72
65
 73
6
 40
0.8
 49
0.45
 74
0
 49
-0.05
 74
0
 49
0.1
 74
0
 49
-0.05
 74
0
 49
0.1
 74
0
 49
-0.05
 74
0
  0
LTYPE
  5
1F8
100
AcDbSymbolTableRecord
100
AcDbLinetypeTableRecord
  2
DOT
 70
64
  3
. . . . . . . . . . . . . . . . . . . .
 72
65
 73
2
 40
0.2
 49
0.1
 74
0
 49
-0.1
 74
0
  0
LTYPE
  5
1F9
100
AcDbSymbolTableRecord
100
AcDbLinetypeTableRecord
  2
DASHED
 70
64
  3
- - - - - - - - - - - - - - - - - - - -
 72
65
 73
2
 40
0.2
 49
0.1
 74
0
 49
-0.1
 74
0
  0
ENDTAB
  0
TABLE
  2
LAYER
  5
2
100
AcDbSymbolTable
 70
36
  0
LAYER
  5
10
100
AcDbSymbolTableRecord
100
AcDbLayerTableRecord
  2
0
 70
0
 62
7
  6
CONTINUOUS
370
-3
390
F
  0
LAYER
  5
1FA
100
AcDbSymbolTableRecord
100
AcDbLayerTableRecord
  2
DEFAULT_1
 70
0
 62
7
  6
CENTER
370
-3
390
F
  0
LAYER
  5
1FB
100
AcDbSymbolTableRecord
100
AcDbLayerTableRecord
  2
DEFAULT_2
 70
0
 62
7
  6
HIDDEN
370
-3
390
F
  0
LAYER
  5
1FC
100
AcDbSymbolTableRecord
100
AcDbLayerTableRecord
  2
DEFAULT_3
 70
0
 62
7
  6
PHANTOM
370
-3
390
F
  0
LAYER
  5
1FD
100
AcDbSymbolTableRecord
100
AcDbLayerTableRecord
  2
ASSI
 70
0
 62
7
  6
CONTINUOUS
370
-3
390
F
  0
LAYER
  5
1FE
100
AcDbSymbolTableRecord
100
AcDbLayerTableRecord
  2
COORDINATE
 70
0
 62
7
  6
CONTINUOUS
370
-3
390
F
  0
LAYER
  5
1FF
100
AcDbSymbolTableRecord
100
AcDbLayerTableRecord
  2
COPY_PUBLISH
 70
0
 62
7
  6
CONTINUOUS
370
-3
390
F
  0
LAYER
  5
200
100
AcDbSymbolTableRecord
100
AcDbLayerTableRecord
  2
COSMETIC
 70
0
 62
7
  6
CONTINUOUS
370
-3
390
F
  0
LAYER
  5
201
100
AcDbSymbolTableRecord
100
AcDbLayerTableRecord
  2
COSMETICI
 70
0
 62
7
  6
CONTINUOUS
370
-3
390
F
  0
LAYER
  5
202
100
AcDbSymbolTableRecord
100
AcDbLayerTableRecord
  2
CURVE
 70
0
 62
7
  6
CONTINUOUS
370
-3
390
F
  0
LAYER
  5
203
100
AcDbSymbolTableRecord
100
AcDbLayerTableRecord
  2
DRAFT
 70
0
 62
7
  6
CONTINUOUS
370
-3
390
F
  0
LAYER
  5
204
100
AcDbSymbolTableRecord
100
AcDbLayerTableRecord
  2
IMPORT_IGES
 70
0
 62
7
  6
CONTINUOUS
370
-3
390
F
  0
LAYER
  5
205
100
AcDbSymbolTableRecord
100
AcDbLayerTableRecord
  2
NOTE
 70
0
 62
7
  6
CONTINUOUS
370
-3
390
F
  0
LAYER
  5
206
100
AcDbSymbolTableRecord
100
AcDbLayerTableRecord
  2
PIANI
 70
0
 62
7
  6
CONTINUOUS
370
-3
390
F
  0
LAYER
  5
207
100
AcDbSymbolTableRecord
100
AcDbLayerTableRecord
  2
PUNTI
 70
0
 62
7
  6
CONTINUOUS
370
-3
390
F
  0
LAYER
  5
208
100
AcDbSymbolTableRecord
100
AcDbLayerTableRecord
  2
RACCORDO
 70
0
 62
7
  6
CONTINUOUS
370
-3
390
F
  0
LAYER
  5
209
100
AcDbSymbolTableRecord
100
AcDbLayerTableRecord
  2
SIMBOLI
 70
0
 62
7
  6
CONTINUOUS
370
-3
390
F
  0
LAYER
  5
20A
100
AcDbSymbolTableRecord
100
AcDbLayerTableRecord
  2
SMUSSO
 70
0
 62
7
  6
CONTINUOUS
370
-3
390
F
  0
LAYER
  5
20B
100
AcDbSymbolTableRecord
100
AcDbLayerTableRecord
  2
SNAPLINE
 70
0
 62
7
  6
CONTINUOUS
370
-3
390
F
  0
LAYER
  5
20C
100
AcDbSymbolTableRecord
100
AcDbLayerTableRecord
  2
SUPERFICI
 70
0
 62
7
  6
CONTINUOUS
370
-3
390
F
  0
LAYER
  5
20D
100
AcDbSymbolTableRecord
100
AcDbLayerTableRecord
  2
TRASH
 70
0
 62
7
  6
CONTINUOUS
370
-3
390
F
  0
ENDTAB
  0
TABLE
  2
STYLE
  5
3
100
AcDbSymbolTable
 70
1
  0
STYLE
  5
11
100
AcDbSymbolTableRecord
100
AcDbTextStyleTableRecord
  2
STANDARD
 70
0
 40
0.0
 41
0.8
 50
0.0
 71
0
 42
0.2
  3
txt
  4

  0
STYLE
  5
20E
100
AcDbSymbolTableRecord
100
AcDbTextStyleTableRecord
  2
TEXTSTYLE_1
 70
0
 40
0.0
 41
0.8
 50
0.0
 71
0
 42
0.2
  3
gdt
  4

  0
ENDTAB
  0
TABLE
  2
VIEW
  5
6
100
AcDbSymbolTable
 70
0
  0
ENDTAB
  0
TABLE
  2
UCS
  5
7
100
AcDbSymbolTable
 70
0
  0
ENDTAB
  0
TABLE
  2
APPID
  5
9
100
AcDbSymbolTable
 70
1
  0
APPID
  5
20F
100
AcDbSymbolTableRecord
100
AcDbRegAppTableRecord
  2
ACAD
 70
0
  0
ENDTAB
  0
TABLE
  2
BLOCK_RECORD
  5
1
100
AcDbSymbolTable
 70
0
  0
BLOCK_RECORD
  5
210
100
AcDbSymbolTableRecord
100
AcDbBlockTableRecord
  2
*Model_Space
  0
BLOCK_RECORD
  5
211
100
AcDbSymbolTableRecord
100
AcDbBlockTableRecord
  2
*Paper_Space
  0
BLOCK_RECORD
  5
212
100
AcDbSymbolTableRecord
100
AcDbBlockTableRecord
  2
_FILLED
  0
ENDTAB
  0
TABLE
  2
DIMSTYLE
  5
A
100
AcDbSymbolTable
 70
1
100
AcDbDimStyleTable
 71
0
  0
DIMSTYLE
105
213
100
AcDbSymbolTableRecord
100
AcDbDimStyleTableRecord
  2
STANDARD
 70
0
  3

  4

 40
1.0
 41
3.0
 42
0.5
 43
0.38
 44
1.5
 45
0.0
 46
0.0
 47
0.01
 48
0.01
140
3.0
141
0.09
142
0.0
143
25.4
144
1.0
145
0.0
146
1.0
147
0.625
 71
1
 72
0
 73
0
 74
0
 75
0
 76
0
 77
1
 78
8
 79
2
170
0
171
1
172
0
173
0
174
0
175
0
176
0
177
0
178
0
270
2
179
2
271
2
272
2
273
2
274
2
275
0
280
0
281
0
282
0
283
1
284
8
285
0
286
0
287
3
288
0
340
11
278
44
341
212
342
212
343
212
344
212
  0
ENDTAB
  0
ENDSEC
  0
SECTION
  2
BLOCKS
  0
BLOCK
  5
20
100
AcDbEntity
  8
0
100
AcDbBlockBegin
  2
*Model_Space
 70
0
 10
0.0
 20
0.0
 30
0.0
  3
*Model_Space
  1

  0
ENDBLK
  5
21
100
AcDbEntity
  8
0
100
AcDbBlockEnd
  0
BLOCK
  5
1C
100
AcDbEntity
  8
0
100
AcDbBlockBegin
  2
*Paper_Space
 70
0
 10
0.0
 20
0.0
 30
0.0
  3
*Paper_Space
  1

  0
ENDBLK
  5
1D
100
AcDbEntity
  8
0
100
AcDbBlockEnd
  0
BLOCK
  5
214
100
AcDbEntity
  8
0
100
AcDbBlockBegin
  2
_FILLED
 70
64
 10
0.0
 20
0.0
  3
_FILLED
  1

  0
SOLID
  5
215
100
AcDbEntity
  8
0
  6
BYBLOCK
 62
0
100
AcDbTrace
 10
0.0
 20
0.0
 11
-1.0
 21
0.3166666667
 12
-1.0
 22
-0.3166666667
 13
-1.0
 23
-0.3166666667
  0
ENDBLK
  5
216
100
AcDbEntity
  8
0
  6
BYBLOCK
 62
0
100
AcDbBlockEnd
  0
ENDSEC
  0
SECTION
  2
ENTITIES
  0
LINE
  5
217
100
AcDbEntity
  8
0
100
AcDbLine
 62
7
  6
CONTINUOUS
 10
-20.3726915844
 20
22.240033091
 11
-20.35
 21
22.2627246754
  0
LINE
  5
218
100
AcDbEntity
  8
0
100
AcDbLine
 62
7
  6
CONTINUOUS
 10
-20.3726915844
 20
-22.240033091
 11
-20.35
 21
-22.2627246754
  0
LINE
  5
219
100
AcDbEntity
  8
0
100
AcDbLine
 62
7
  6
CONTINUOUS
 10
-29.5
 20
-22.8497711479
 11
-29.5
 21
22.8497711479
  0
LINE
  5
21A
100
AcDbEntity
  8
0
100
AcDbLine
 62
7
  6
CONTINUOUS
 10
-27.8
 20
-20.3689805518
 11
-27.8
 21
20.5999084592
  0
LINE
  5
21B
100
AcDbEntity
  8
0
100
AcDbLine
 62
250
  6
CONTINUOUS
 10
-27.4195747444
 20
18.7554862685
 11
-27.4195747444
 21
18.9843964523
  0
LINE
  5
21C
100
AcDbEntity
  8
0
100
AcDbLine
 62
7
  6
CONTINUOUS
 10
-27.35
 20
19.4053556742
 11
-27.35
 21
19.3137343213
  0
LINE
  5
21D
100
AcDbEntity
  8
0
100
AcDbLine
 62
250
  6
CONTINUOUS
 10
-18.5986525076
 20
20.001339877
 11
-18.4807628132
 21
20.1192295714
  0
LINE
  5
21E
100
AcDbEntity
  8
0
100
AcDbLine
 62
250
  6
CONTINUOUS
 10
-18.4807628132
 20
-20.1192295714
 11
-18.5616087327
 21
-20.0383836519
  0
LINE
  5
21F
100
AcDbEntity
  8
0
100
AcDbLine
 62
7
  6
CONTINUOUS
 10
-20.8712910908
 20
-20.2717813441
 11
-20.799504004
 21
-20.384284932
  0
LINE
  5
220
100
AcDbEntity
  8
0
100
AcDbLine
 62
7
  6
CONTINUOUS
 10
-22.25
 20
-20.3689805518
 11
-22.140033091
 21
-20.6991495613
  0
LINE
  5
221
100
AcDbEntity
  8
0
100
AcDbLine
 62
250
  6
CONTINUOUS
 10
-27.7319192248
 20
20.3955000394
 11
-27.6195392494
 21
18.7902654017
  0
LINE
  5
222
100
AcDbEntity
  8
0
100
AcDbLine
 62
250
  6
CONTINUOUS
 10
-27.5322758471
 20
20.5942180704
 11
-27.4195747444
 21
18.9843964523
  0
LINE
  5
223
100
AcDbEntity
  8
0
100
AcDbLine
 62
250
  6
CONTINUOUS
 10
-18.4059140668
 20
19.7940935486
 11
-18.2807704286
 21
19.9192371868
  0
LINE
  5
224
100
AcDbEntity
  8
0
100
AcDbLine
 62
250
  6
CONTINUOUS
 10
-18.2807704286
 20
-19.9192371868
 11
-18.3620717175
 21
-19.8379358979
  0
LINE
  5
225
100
AcDbEntity
  8
0
100
AcDbLine
 62
7
  6
CONTINUOUS
 10
-22.25
 20
-21.8500761524
 11
-22.25
 21
-20.3689805518
  0
LINE
  5
226
100
AcDbEntity
  8
0
100
AcDbLine
 62
7
  6
CONTINUOUS
 10
-22.25
 20
20.8
 11
-22.25
 21
21.8500761524
  0
LINE
  5
227
100
AcDbEntity
  8
0
100
AcDbLine
 62
7
  6
CONTINUOUS
 10
-20.8286270271
 20
18.9843964523
 11
-20.8139597987
 21
19.0860071484
  0
LINE
  5
228
100
AcDbEntity
  8
0
100
AcDbLine
 62
7
  6
CONTINUOUS
 10
29.0003805997
 20
-23.35
 11
-29.0003805997
 21
-23.35
  0
LINE
  5
229
100
AcDbEntity
  8
0
100
AcDbLine
 62
7
  6
CONTINUOUS
 10
21.7500761524
 20
-22.35
 11
19.0
 21
-22.35
  0
LINE
  5
22A
100
AcDbEntity
  8
0
100
AcDbLine
 62
7
  6
CONTINUOUS
 10
14.0
 20
-22.35
 11
-14.0
 21
-22.35
  0
LINE
  5
22B
100
AcDbEntity
  8
0
100
AcDbLine
 62
7
  6
CONTINUOUS
 10
-19.0
 20
-22.35
 11
-21.7500761524
 21
-22.35
  0
LINE
  5
22C
100
AcDbEntity
  8
0
100
AcDbLine
 62
7
  6
CONTINUOUS
 10
19.0
 20
-22.3238174026
 11
14.0
 21
-22.3238174026
  0
LINE
  5
22D
100
AcDbEntity
  8
0
100
AcDbLine
 62
7
  6
CONTINUOUS
 10
-14.0
 20
-22.3238174026
 11
-19.0
 21
-22.3238174026
  0
LINE
  5
22E
100
AcDbEntity
  8
0
100
AcDbLine
 62
7
  6
CONTINUOUS
 10
-20.35
 20
-22.2627246754
 11
20.35
 21
-22.2627246754
  0
LINE
  5
22F
100
AcDbEntity
  8
0
100
AcDbLine
 62
7
  6
CONTINUOUS
 10
-21.6401092434
 20
-22.240033091
 11
-20.3726915844
 21
-22.240033091
  0
LINE
  5
230
100
AcDbEntity
  8
0
100
AcDbLine
 62
7
  6
CONTINUOUS
 10
20.3726915844
 20
-22.240033091
 11
21.6401092434
 21
-22.240033091
  0
LINE
  5
231
100
AcDbEntity
  8
0
100
AcDbLine
 62
250
  6
CONTINUOUS
 10
-20.8125017207
 20
-5.5046099721
 11
-20.800742878
 21
-7.9936915557
  0
LINE
  5
232
100
AcDbEntity
  8
0
100
AcDbLine
 62
7
  6
CONTINUOUS
 10
-22.140033091
 20
21.7401092434
 11
-22.140033091
 21
20.8
  0
LINE
  5
233
100
AcDbEntity
  8
0
100
AcDbLine
 62
7
  6
CONTINUOUS
 10
-22.140033091
 20
-20.6991495613
 11
-22.140033091
 21
-21.7401092434
  0
LINE
  5
234
100
AcDbEntity
  8
0
100
AcDbLine
 62
250
  6
CONTINUOUS
 10
-20.8139597987
 20
19.0860071484
 11
-20.8139597987
 21
-4.8746568638
  0
LINE
  5
235
100
AcDbEntity
  8
0
100
AcDbLine
 62
250
  6
CONTINUOUS
 10
-20.799504004
 20
-8.528939027
 11
-20.799504004
 21
-20.384284932
  0
LINE
  5
236
100
AcDbEntity
  8
0
100
AcDbLine
 62
7
  6
CONTINUOUS
 10
-20.3726915844
 20
22.240033091
 11
-20.3726915844
 21
20.8
  0
LINE
  5
237
100
AcDbEntity
  8
0
100
AcDbLine
 62
7
  6
CONTINUOUS
 10
-20.3726915844
 20
-20.6991495613
 11
-20.3726915844
 21
-22.240033091
  0
LINE
  5
238
100
AcDbEntity
  8
0
100
AcDbLine
 62
7
  6
CONTINUOUS
 10
-20.35
 20
-22.2627246754
 11
-20.35
 21
-20.6310194482
  0
LINE
  5
239
100
AcDbEntity
  8
0
100
AcDbLine
 62
7
  6
CONTINUOUS
 10
-20.35
 20
20.8
 11
-20.35
 21
22.2627246754
  0
LINE
  5
23A
100
AcDbEntity
  8
0
100
AcDbLine
 62
250
  6
CONTINUOUS
 10
-20.000495996
 20
-8.528939027
 11
-20.000495996
 21
-20.384284932
  0
LINE
  5
23B
100
AcDbEntity
  8
0
100
AcDbLine
 62
250
  6
CONTINUOUS
 10
-19.9860402013
 20
19.0860071484
 11
-19.9860402013
 21
-4.8746568638
  0
LINE
  5
23C
100
AcDbEntity
  8
0
100
AcDbLine
 62
250
  6
CONTINUOUS
 10
-19.9874982793
 20
-5.5046099721
 11
-19.999257122
 21
-7.9936915557
  0
LINE
  5
23D
100
AcDbEntity
  8
0
100
AcDbLine
 62
7
  6
CONTINUOUS
 10
-18.543634339
 20
20.8
 11
-18.577900849
 21
20.5942180704
  0
LINE
  5
23E
100
AcDbEntity
  8
0
100
AcDbLine
 62
7
  6
CONTINUOUS
 10
-27.7686724076
 20
-20.2749213459
 11
-27.8
 21
-20.3689805518
  0
LINE
  5
23F
100
AcDbEntity
  8
0
100
AcDbLine
 62
7
  6
CONTINUOUS
 10
-12.0977490779
 20
19.5697919907
 11
-10.1299581505
 21
20.1544965522
  0
LINE
  5
240
100
AcDbEntity
  8
0
100
AcDbLine
 62
7
  6
CONTINUOUS
 10
14.5170173922
 20
-21.8
 11
18.4829826078
 21
-21.8
  0
LINE
  5
241
100
AcDbEntity
  8
0
100
AcDbLine
 62
7
  6
CONTINUOUS
 10
-14.5170173922
 20
-21.8
 11
-18.4829826078
 21
-21.8
  0
LINE
  5
242
100
AcDbEntity
  8
0
100
AcDbLine
 62
7
  6
CONTINUOUS
 10
14.7218247852
 20
-21.25
 11
18.2781752148
 21
-21.25
  0
LINE
  5
243
100
AcDbEntity
  8
0
100
AcDbLine
 62
7
  6
CONTINUOUS
 10
-14.7218247852
 20
-21.25
 11
-18.2781752148
 21
-21.25
  0
LINE
  5
244
100
AcDbEntity
  8
0
100
AcDbLine
 62
7
  6
CONTINUOUS
 10
14.5143993319
 20
-21.0
 11
14.5
 21
-21.0
  0
LINE
  5
245
100
AcDbEntity
  8
0
100
AcDbLine
 62
7
  6
CONTINUOUS
 10
-14.5143993319
 20
-21.0
 11
-14.5
 21
-21.0
  0
LINE
  5
246
100
AcDbEntity
  8
0
100
AcDbLine
 62
7
  6
CONTINUOUS
 10
18.4856006681
 20
-21.0
 11
18.5
 21
-21.0
  0
LINE
  5
247
100
AcDbEntity
  8
0
100
AcDbLine
 62
7
  6
CONTINUOUS
 10
-18.4856006681
 20
-21.0
 11
-18.5
 21
-21.0
  0
LINE
  5
248
100
AcDbEntity
  8
0
100
AcDbLine
 62
7
  6
CONTINUOUS
 10
-22.140033091
 20
-20.6991495613
 11
-20.3726915844
 21
-20.6991495613
  0
LINE
  5
249
100
AcDbEntity
  8
0
100
AcDbLine
 62
7
  6
CONTINUOUS
 10
20.3726915844
 20
-20.6991495613
 11
22.140033091
 21
-20.6991495613
  0
LINE
  5
24A
100
AcDbEntity
  8
0
100
AcDbLine
 62
7
  6
CONTINUOUS
 10
-20.35
 20
-20.6310194482
 11
-18.5
 21
-20.6310194482
  0
LINE
  5
24B
100
AcDbEntity
  8
0
100
AcDbLine
 62
7
  6
CONTINUOUS
 10
-14.5
 20
-20.6310194482
 11
14.5
 21
-20.6310194482
  0
LINE
  5
24C
100
AcDbEntity
  8
0
100
AcDbLine
 62
7
  6
CONTINUOUS
 10
18.5
 20
-20.6310194482
 11
20.35
 21
-20.6310194482
  0
LINE
  5
24D
100
AcDbEntity
  8
0
100
AcDbLine
 62
250
  6
CONTINUOUS
 10
14.5218324005
 20
-20.4192181483
 11
18.4781675995
 21
-20.4192181483
  0
LINE
  5
24E
100
AcDbEntity
  8
0
100
AcDbLine
 62
250
  6
CONTINUOUS
 10
-14.5218324005
 20
-20.4192181483
 11
-18.4781675995
 21
-20.4192181483
  0
LINE
  5
24F
100
AcDbEntity
  8
0
100
AcDbLine
 62
7
  6
CONTINUOUS
 10
27.6001522399
 20
-20.3689805518
 11
22.25
 21
-20.3689805518
  0
LINE
  5
250
100
AcDbEntity
  8
0
100
AcDbLine
 62
7
  6
CONTINUOUS
 10
-22.25
 20
-20.3689805518
 11
-27.8
 21
-20.3689805518
  0
LINE
  5
251
100
AcDbEntity
  8
0
100
AcDbLine
 62
250
  6
CONTINUOUS
 10
-27.7592332865
 20
-20.2717813441
 11
-20.8712910908
 21
-20.2717813441
  0
LINE
  5
252
100
AcDbEntity
  8
0
100
AcDbLine
 62
250
  6
CONTINUOUS
 10
-19.9287089092
 20
-20.2717813441
 11
-18.5598198108
 21
-20.2717813441
  0
LINE
  5
253
100
AcDbEntity
  8
0
100
AcDbLine
 62
250
  6
CONTINUOUS
 10
-14.4401801892
 20
-20.2717813441
 11
-0.4712910908
 21
-20.2717813441
  0
LINE
  5
254
100
AcDbEntity
  8
0
100
AcDbLine
 62
250
  6
CONTINUOUS
 10
0.4712910908
 20
-20.2717813441
 11
14.4401801892
 21
-20.2717813441
  0
LINE
  5
255
100
AcDbEntity
  8
0
100
AcDbLine
 62
250
  6
CONTINUOUS
 10
18.5598198108
 20
-20.2717813441
 11
19.9287089092
 21
-20.2717813441
  0
LINE
  5
256
100
AcDbEntity
  8
0
100
AcDbLine
 62
250
  6
CONTINUOUS
 10
20.8712910908
 20
-20.2717813441
 11
27.5677788307
 21
-20.2717813441
  0
LINE
  5
257
100
AcDbEntity
  8
0
100
AcDbLine
 62
250
  6
CONTINUOUS
 10
-27.5677788307
 20
-20.1225138623
 11
-20.8762328758
 21
-20.1225138623
  0
LINE
  5
258
100
AcDbEntity
  8
0
100
AcDbLine
 62
250
  6
CONTINUOUS
 10
-19.9237671242
 20
-20.1225138623
 11
-18.5614173777
 21
-20.1225138623
  0
LINE
  5
259
100
AcDbEntity
  8
0
100
AcDbLine
 62
250
  6
CONTINUOUS
 10
-14.4385826223
 20
-20.1225138623
 11
-0.4762328758
 21
-20.1225138623
  0
LINE
  5
25A
100
AcDbEntity
  8
0
100
AcDbLine
 62
250
  6
CONTINUOUS
 10
0.4762328758
 20
-20.1225138623
 11
14.4385826223
 21
-20.1225138623
  0
LINE
  5
25B
100
AcDbEntity
  8
0
100
AcDbLine
 62
250
  6
CONTINUOUS
 10
18.5614173777
 20
-20.1225138623
 11
19.9237671242
 21
-20.1225138623
  0
LINE
  5
25C
100
AcDbEntity
  8
0
100
AcDbLine
 62
250
  6
CONTINUOUS
 10
20.8762328758
 20
-20.1225138623
 11
27.5677722489
 21
-20.1225138623
  0
LINE
  5
25D
100
AcDbEntity
  8
0
100
AcDbLine
 62
7
  6
CONTINUOUS
 10
18.2807704286
 20
-19.9192371868
 11
14.7192295714
 21
-19.9192371868
  0
LINE
  5
25E
100
AcDbEntity
  8
0
100
AcDbLine
 62
7
  6
CONTINUOUS
 10
-14.7192295714
 20
-19.9192371868
 11
-18.2807704286
 21
-19.9192371868
  0
LINE
  5
25F
100
AcDbEntity
  8
0
100
AcDbLine
 62
7
  6
CONTINUOUS
 10
18.3620717175
 20
-19.8379358979
 11
14.6379282825
 21
-19.8379358979
  0
LINE
  5
260
100
AcDbEntity
  8
0
100
AcDbLine
 62
7
  6
CONTINUOUS
 10
-14.6379282825
 20
-19.8379358979
 11
-18.3620717175
 21
-19.8379358979
  0
LINE
  5
261
100
AcDbEntity
  8
0
100
AcDbLine
 62
250
  6
CONTINUOUS
 10
-27.8
 20
20.5999084592
 11
-27.7319192248
 21
20.3955000394
  0
LINE
  5
262
100
AcDbEntity
  8
0
100
AcDbLine
 62
7
  6
CONTINUOUS
 10
-18.5598198108
 20
-20.2717813441
 11
-18.5
 21
-20.6310194482
  0
LINE
  5
263
100
AcDbEntity
  8
0
100
AcDbLine
 62
7
  6
CONTINUOUS
 10
-18.4829826078
 20
22.0
 11
-18.4781675995
 21
21.4482546929
  0
LINE
  5
264
100
AcDbEntity
  8
0
100
AcDbLine
 62
7
  6
CONTINUOUS
 10
-18.485356869
 20
-21.8
 11
-18.4856006681
 21
-21.0
  0
LINE
  5
265
100
AcDbEntity
  8
0
100
AcDbLine
 62
7
  6
CONTINUOUS
 10
-19.0
 20
-22.35
 11
-19.0
 21
-22.3238174026
  0
LINE
  5
266
100
AcDbEntity
  8
0
100
AcDbLine
 62
7
  6
CONTINUOUS
 10
-18.5
 20
-20.6310194482
 11
-18.5
 21
-21.0
  0
LINE
  5
267
100
AcDbEntity
  8
0
100
AcDbLine
 62
7
  6
CONTINUOUS
 10
-18.5
 20
20.8
 11
-18.5
 21
21.0
  0
LINE
  5
268
100
AcDbEntity
  8
0
100
AcDbLine
 62
7
  6
CONTINUOUS
 10
-18.4781675995
 20
-21.3953867748
 11
-18.4781675995
 21
-20.4192181483
  0
LINE
  5
269
100
AcDbEntity
  8
0
100
AcDbLine
 62
7
  6
CONTINUOUS
 10
-18.4781675995
 20
20.4192181483
 11
-18.4781675995
 21
21.4482546929
  0
LINE
  5
26A
100
AcDbEntity
  8
0
100
AcDbLine
 62
250
  6
CONTINUOUS
 10
-18.2781752148
 20
-21.25
 11
-18.2781752148
 21
-20.4192181483
  0
LINE
  5
26B
100
AcDbEntity
  8
0
100
AcDbLine
 62
250
  6
CONTINUOUS
 10
-18.2781752148
 20
20.4192181483
 11
-18.2781752148
 21
21.25
  0
LINE
  5
26C
100
AcDbEntity
  8
0
100
AcDbLine
 62
7
  6
CONTINUOUS
 10
-18.4856006681
 20
21.0
 11
-18.4852959192
 21
22.0
  0
LINE
  5
26D
100
AcDbEntity
  8
0
100
AcDbLine
 62
7
  6
CONTINUOUS
 10
-18.4781675995
 20
-21.3953867748
 11
-18.4829826078
 21
-21.8
  0
LINE
  5
26E
100
AcDbEntity
  8
0
100
AcDbLine
 62
7
  6
CONTINUOUS
 10
-18.577900849
 20
20.5942180704
 11
-18.5986525076
 21
20.001339877
  0
LINE
  5
26F
100
AcDbEntity
  8
0
100
AcDbLine
 62
250
  6
CONTINUOUS
 10
-27.6001522399
 20
20.8
 11
-27.5316140001
 21
20.5942180704
  0
LINE
  5
270
100
AcDbEntity
  8
0
100
AcDbLine
 62
7
  6
CONTINUOUS
 10
-14.5218324005
 20
-21.3953867748
 11
-14.5170173922
 21
-21.8
  0
LINE
  5
271
100
AcDbEntity
  8
0
100
AcDbLine
 62
250
  6
CONTINUOUS
 10
-14.7218247852
 20
21.25
 11
-14.7218247852
 21
20.4192181483
  0
LINE
  5
272
100
AcDbEntity
  8
0
100
AcDbLine
 62
250
  6
CONTINUOUS
 10
-14.7218247852
 20
-20.4192181483
 11
-14.7218247852
 21
-21.25
  0
LINE
  5
273
100
AcDbEntity
  8
0
100
AcDbLine
 62
7
  6
CONTINUOUS
 10
-19.9713729729
 20
18.9843964523
 11
-19.9860402013
 21
19.0860071484
  0
LINE
  5
274
100
AcDbEntity
  8
0
100
AcDbLine
 62
7
  6
CONTINUOUS
 10
-14.422099151
 20
20.5942180704
 11
-14.4013474924
 21
20.001339877
  0
LINE
  5
275
100
AcDbEntity
  8
0
100
AcDbLine
 62
7
  6
CONTINUOUS
 10
-14.5143993319
 20
21.0
 11
-14.5147040808
 21
22.0
  0
LINE
  5
276
100
AcDbEntity
  8
0
100
AcDbLine
 62
7
  6
CONTINUOUS
 10
-14.5218324005
 20
21.4482546929
 11
-14.5218324005
 21
20.4192181483
  0
LINE
  5
277
100
AcDbEntity
  8
0
100
AcDbLine
 62
7
  6
CONTINUOUS
 10
-14.5218324005
 20
-20.4192181483
 11
-14.5218324005
 21
-21.3953867748
  0
LINE
  5
278
100
AcDbEntity
  8
0
100
AcDbLine
 62
7
  6
CONTINUOUS
 10
-14.5
 20
-20.6310194482
 11
-14.5
 21
-21.0
  0
LINE
  5
279
100
AcDbEntity
  8
0
100
AcDbLine
 62
7
  6
CONTINUOUS
 10
-14.5
 20
20.8
 11
-14.5
 21
21.0
  0
LINE
  5
27A
100
AcDbEntity
  8
0
100
AcDbLine
 62
7
  6
CONTINUOUS
 10
-14.0
 20
-22.35
 11
-14.0
 21
-22.3238174026
  0
LINE
  5
27B
100
AcDbEntity
  8
0
100
AcDbLine
 62
7
  6
CONTINUOUS
 10
-14.514643131
 20
-21.8
 11
-14.5143993319
 21
-21.0
  0
LINE
  5
27C
100
AcDbEntity
  8
0
100
AcDbLine
 62
7
  6
CONTINUOUS
 10
-14.5170173922
 20
22.0
 11
-14.5218324005
 21
21.4482546929
  0
LINE
  5
27D
100
AcDbEntity
  8
0
100
AcDbLine
 62
7
  6
CONTINUOUS
 10
-20.3726915844
 20
-20.6991495613
 11
-20.35
 21
-20.6310194482
  0
LINE
  5
27E
100
AcDbEntity
  8
0
100
AcDbLine
 62
250
  6
CONTINUOUS
 10
-26.9127850144
 20
19.2069091473
 11
-27.1384488083
 21
19.5616961363
  0
LINE
  5
27F
100
AcDbEntity
  8
0
100
AcDbLine
 62
7
  6
CONTINUOUS
 10
-14.4401801892
 20
-20.2717813441
 11
-14.5
 21
-20.6310194482
  0
LINE
  5
280
100
AcDbEntity
  8
0
100
AcDbLine
 62
7
  6
CONTINUOUS
 10
-0.4712910908
 20
-20.2717813441
 11
-0.399504004
 21
-20.384284932
  0
LINE
  5
281
100
AcDbEntity
  8
0
100
AcDbLine
 62
7
  6
CONTINUOUS
 10
-14.456365661
 20
20.8
 11
-14.422099151
 21
20.5942180704
  0
LINE
  5
282
100
AcDbEntity
  8
0
100
AcDbLine
 62
7
  6
CONTINUOUS
 10
-19.9287089092
 20
-20.2717813441
 11
-20.000495996
 21
-20.384284932
  0
LINE
  5
283
100
AcDbEntity
  8
0
100
AcDbLine
 62
7
  6
CONTINUOUS
 10
-0.4286270271
 20
18.9843964523
 11
-0.4139597987
 21
19.0860071484
  0
LINE
  5
284
100
AcDbEntity
  8
0
100
AcDbLine
 62
250
  6
CONTINUOUS
 10
14.4013474924
 20
20.001339877
 11
14.5192371868
 21
20.1192295714
  0
LINE
  5
285
100
AcDbEntity
  8
0
100
AcDbLine
 62
250
  6
CONTINUOUS
 10
14.5940859332
 20
19.7940935486
 11
14.7192295714
 21
19.9192371868
  0
LINE
  5
286
100
AcDbEntity
  8
0
100
AcDbLine
 62
250
  6
CONTINUOUS
 10
14.5192371868
 20
-20.1192295714
 11
14.4383912673
 21
-20.0383836519
  0
LINE
  5
287
100
AcDbEntity
  8
0
100
AcDbLine
 62
250
  6
CONTINUOUS
 10
14.7192295714
 20
-19.9192371868
 11
14.6379282825
 21
-19.8379358979
  0
LINE
  5
288
100
AcDbEntity
  8
0
100
AcDbLine
 62
250
  6
CONTINUOUS
 10
-0.4125017207
 20
-5.5046099721
 11
-0.400742878
 21
-7.9936915557
  0
LINE
  5
289
100
AcDbEntity
  8
0
100
AcDbLine
 62
250
  6
CONTINUOUS
 10
-0.4139597987
 20
19.0860071484
 11
-0.4139597987
 21
-4.8746568638
  0
LINE
  5
28A
100
AcDbEntity
  8
0
100
AcDbLine
 62
250
  6
CONTINUOUS
 10
-0.399504004
 20
-8.528939027
 11
-0.399504004
 21
-20.384284932
  0
LINE
  5
28B
100
AcDbEntity
  8
0
100
AcDbLine
 62
250
  6
CONTINUOUS
 10
21.6401092434
 20
22.240033091
 11
21.7500761524
 21
22.35
  0
LINE
  5
28C
100
AcDbEntity
  8
0
100
AcDbLine
 62
250
  6
CONTINUOUS
 10
-22.140033091
 20
-21.7401092434
 11
-22.25
 21
-21.8500761524
  0
LINE
  5
28D
100
AcDbEntity
  8
0
100
AcDbLine
 62
250
  6
CONTINUOUS
 10
22.140033091
 20
21.7401092434
 11
22.25
 21
21.8500761524
  0
LINE
  5
28E
100
AcDbEntity
  8
0
100
AcDbLine
 62
250
  6
CONTINUOUS
 10
21.7500761524
 20
-22.35
 11
21.6401092434
 21
-22.240033091
  0
LINE
  5
28F
100
AcDbEntity
  8
0
100
AcDbLine
 62
250
  6
CONTINUOUS
 10
-22.25
 20
21.8500761524
 11
-22.140033091
 21
21.7401092434
  0
LINE
  5
290
100
AcDbEntity
  8
0
100
AcDbLine
 62
250
  6
CONTINUOUS
 10
22.25
 20
-21.8500761524
 11
22.140033091
 21
-21.7401092434
  0
LINE
  5
291
100
AcDbEntity
  8
0
100
AcDbLine
 62
250
  6
CONTINUOUS
 10
0.399504004
 20
-8.528939027
 11
0.399504004
 21
-20.384284932
  0
LINE
  5
292
100
AcDbEntity
  8
0
100
AcDbLine
 62
250
  6
CONTINUOUS
 10
0.4139597987
 20
19.0860071484
 11
0.4139597987
 21
-4.8746568638
  0
LINE
  5
293
100
AcDbEntity
  8
0
100
AcDbLine
 62
250
  6
CONTINUOUS
 10
0.4125017207
 20
-5.5046099721
 11
0.400742878
 21
-7.9936915557
  0
LINE
  5
294
100
AcDbEntity
  8
0
100
AcDbLine
 62
250
  6
CONTINUOUS
 10
-21.6401092434
 20
-22.240033091
 11
-21.7500761524
 21
-22.35
  0
LINE
  5
295
100
AcDbEntity
  8
0
100
AcDbLine
 62
250
  6
CONTINUOUS
 10
-21.7500761524
 20
22.35
 11
-21.6401092434
 21
22.240033091
  0
LINE
  5
296
100
AcDbEntity
  8
0
100
AcDbLine
 62
250
  6
CONTINUOUS
 10
-14.6379282825
 20
-19.8379358979
 11
-14.7192295714
 21
-19.9192371868
  0
LINE
  5
297
100
AcDbEntity
  8
0
100
AcDbLine
 62
250
  6
CONTINUOUS
 10
-14.4383912673
 20
-20.0383836519
 11
-14.5192371868
 21
-20.1192295714
  0
LINE
  5
298
100
AcDbEntity
  8
0
100
AcDbLine
 62
250
  6
CONTINUOUS
 10
-14.7192295714
 20
19.9192371868
 11
-14.5940859332
 21
19.7940935486
  0
LINE
  5
299
100
AcDbEntity
  8
0
100
AcDbLine
 62
250
  6
CONTINUOUS
 10
-14.5192371868
 20
20.1192295714
 11
-14.4013474924
 21
20.001339877
  0
LINE
  5
29A
100
AcDbEntity
  8
0
100
AcDbLine
 62
7
  6
CONTINUOUS
 10
0.4286270271
 20
18.9843964523
 11
0.4139597987
 21
19.0860071484
  0
LINE
  5
29B
100
AcDbEntity
  8
0
100
AcDbLine
 62
7
  6
CONTINUOUS
 10
19.9287089092
 20
-20.2717813441
 11
20.000495996
 21
-20.384284932
  0
LINE
  5
29C
100
AcDbEntity
  8
0
100
AcDbLine
 62
7
  6
CONTINUOUS
 10
14.456365661
 20
20.8
 11
14.422099151
 21
20.5942180704
  0
LINE
  5
29D
100
AcDbEntity
  8
0
100
AcDbLine
 62
250
  6
CONTINUOUS
 10
27.1384488083
 20
19.5616961363
 11
26.9127850144
 21
19.2069091473
  0
LINE
  5
29E
100
AcDbEntity
  8
0
100
AcDbLine
 62
7
  6
CONTINUOUS
 10
0.4712910908
 20
-20.2717813441
 11
0.399504004
 21
-20.384284932
  0
LINE
  5
29F
100
AcDbEntity
  8
0
100
AcDbLine
 62
7
  6
CONTINUOUS
 10
20.3726915844
 20
-20.6991495613
 11
20.35
 21
-20.6310194482
  0
LINE
  5
2A0
100
AcDbEntity
  8
0
100
AcDbLine
 62
7
  6
CONTINUOUS
 10
14.4401801892
 20
-20.2717813441
 11
14.5
 21
-20.6310194482
  0
LINE
  5
2A1
100
AcDbEntity
  8
0
100
AcDbLine
 62
7
  6
CONTINUOUS
 10
14.5170173922
 20
22.0
 11
14.5218324005
 21
21.4482546929
  0
LINE
  5
2A2
100
AcDbEntity
  8
0
100
AcDbLine
 62
7
  6
CONTINUOUS
 10
14.514643131
 20
-21.8
 11
14.5143993319
 21
-21.0
  0
LINE
  5
2A3
100
AcDbEntity
  8
0
100
AcDbLine
 62
7
  6
CONTINUOUS
 10
14.0
 20
-22.35
 11
14.0
 21
-22.3238174026
  0
LINE
  5
2A4
100
AcDbEntity
  8
0
100
AcDbLine
 62
7
  6
CONTINUOUS
 10
14.5
 20
-20.6310194482
 11
14.5
 21
-21.0
  0
LINE
  5
2A5
100
AcDbEntity
  8
0
100
AcDbLine
 62
7
  6
CONTINUOUS
 10
14.5
 20
20.8
 11
14.5
 21
21.0
  0
LINE
  5
2A6
100
AcDbEntity
  8
0
100
AcDbLine
 62
7
  6
CONTINUOUS
 10
14.5218324005
 20
-21.3953867748
 11
14.5218324005
 21
-20.4192181483
  0
LINE
  5
2A7
100
AcDbEntity
  8
0
100
AcDbLine
 62
7
  6
CONTINUOUS
 10
14.5218324005
 20
20.4192181483
 11
14.5218324005
 21
21.4482546929
  0
LINE
  5
2A8
100
AcDbEntity
  8
0
100
AcDbLine
 62
250
  6
CONTINUOUS
 10
14.7218247852
 20
-21.25
 11
14.7218247852
 21
-20.4192181483
  0
LINE
  5
2A9
100
AcDbEntity
  8
0
100
AcDbLine
 62
250
  6
CONTINUOUS
 10
14.7218247852
 20
20.4192181483
 11
14.7218247852
 21
21.25
  0
LINE
  5
2AA
100
AcDbEntity
  8
0
100
AcDbLine
 62
7
  6
CONTINUOUS
 10
14.5143993319
 20
21.0
 11
14.5147040808
 21
22.0
  0
LINE
  5
2AB
100
AcDbEntity
  8
0
100
AcDbLine
 62
7
  6
CONTINUOUS
 10
14.5218324005
 20
-21.3953867748
 11
14.5170173922
 21
-21.8
  0
LINE
  5
2AC
100
AcDbEntity
  8
0
100
AcDbLine
 62
7
  6
CONTINUOUS
 10
14.422099151
 20
20.5942180704
 11
14.4013474924
 21
20.001339877
  0
LINE
  5
2AD
100
AcDbEntity
  8
0
100
AcDbLine
 62
7
  6
CONTINUOUS
 10
19.9713729729
 20
18.9843964523
 11
19.9860402013
 21
19.0860071484
  0
LINE
  5
2AE
100
AcDbEntity
  8
0
100
AcDbLine
 62
7
  6
CONTINUOUS
 10
18.577900849
 20
20.5942180704
 11
18.5986525076
 21
20.001339877
  0
LINE
  5
2AF
100
AcDbEntity
  8
0
100
AcDbLine
 62
7
  6
CONTINUOUS
 10
18.4781675995
 20
-21.3953867748
 11
18.4829826078
 21
-21.8
  0
LINE
  5
2B0
100
AcDbEntity
  8
0
100
AcDbLine
 62
250
  6
CONTINUOUS
 10
19.9874982793
 20
-5.5046099721
 11
19.999257122
 21
-7.9936915557
  0
LINE
  5
2B1
100
AcDbEntity
  8
0
100
AcDbLine
 62
7
  6
CONTINUOUS
 10
18.4856006681
 20
21.0
 11
18.4852959192
 21
22.0
  0
LINE
  5
2B2
100
AcDbEntity
  8
0
100
AcDbLine
 62
250
  6
CONTINUOUS
 10
18.2781752148
 20
21.25
 11
18.2781752148
 21
20.4192181483
  0
LINE
  5
2B3
100
AcDbEntity
  8
0
100
AcDbLine
 62
250
  6
CONTINUOUS
 10
18.2781752148
 20
-20.4192181483
 11
18.2781752148
 21
-21.25
  0
LINE
  5
2B4
100
AcDbEntity
  8
0
100
AcDbLine
 62
7
  6
CONTINUOUS
 10
18.4781675995
 20
21.4482546929
 11
18.4781675995
 21
20.4192181483
  0
LINE
  5
2B5
100
AcDbEntity
  8
0
100
AcDbLine
 62
7
  6
CONTINUOUS
 10
18.4781675995
 20
-20.4192181483
 11
18.4781675995
 21
-21.3953867748
  0
LINE
  5
2B6
100
AcDbEntity
  8
0
100
AcDbLine
 62
7
  6
CONTINUOUS
 10
18.5
 20
-20.6310194482
 11
18.5
 21
-21.0
  0
LINE
  5
2B7
100
AcDbEntity
  8
0
100
AcDbLine
 62
7
  6
CONTINUOUS
 10
18.5
 20
20.8
 11
18.5
 21
21.0
  0
LINE
  5
2B8
100
AcDbEntity
  8
0
100
AcDbLine
 62
7
  6
CONTINUOUS
 10
19.0
 20
-22.35
 11
19.0
 21
-22.3238174026
  0
LINE
  5
2B9
100
AcDbEntity
  8
0
100
AcDbLine
 62
250
  6
CONTINUOUS
 10
19.9860402013
 20
19.0860071484
 11
19.9860402013
 21
-4.8746568638
  0
LINE
  5
2BA
100
AcDbEntity
  8
0
100
AcDbLine
 62
250
  6
CONTINUOUS
 10
20.000495996
 20
-8.528939027
 11
20.000495996
 21
-20.384284932
  0
LINE
  5
2BB
100
AcDbEntity
  8
0
100
AcDbLine
 62
7
  6
CONTINUOUS
 10
20.35
 20
-22.2627246754
 11
20.35
 21
-20.6310194482
  0
LINE
  5
2BC
100
AcDbEntity
  8
0
100
AcDbLine
 62
7
  6
CONTINUOUS
 10
20.35
 20
20.8
 11
20.35
 21
22.2627246754
  0
LINE
  5
2BD
100
AcDbEntity
  8
0
100
AcDbLine
 62
7
  6
CONTINUOUS
 10
20.3726915844
 20
22.240033091
 11
20.3726915844
 21
20.8
  0
LINE
  5
2BE
100
AcDbEntity
  8
0
100
AcDbLine
 62
7
  6
CONTINUOUS
 10
20.3726915844
 20
-20.6991495613
 11
20.3726915844
 21
-22.240033091
  0
LINE
  5
2BF
100
AcDbEntity
  8
0
100
AcDbLine
 62
7
  6
CONTINUOUS
 10
18.485356869
 20
-21.8
 11
18.4856006681
 21
-21.0
  0
LINE
  5
2C0
100
AcDbEntity
  8
0
100
AcDbLine
 62
7
  6
CONTINUOUS
 10
18.4829826078
 20
22.0
 11
18.4781675995
 21
21.4482546929
  0
LINE
  5
2C1
100
AcDbEntity
  8
0
100
AcDbLine
 62
250
  6
CONTINUOUS
 10
27.5316140001
 20
20.5942180704
 11
27.6001522399
 21
20.8
  0
LINE
  5
2C2
100
AcDbEntity
  8
0
100
AcDbLine
 62
250
  6
CONTINUOUS
 10
27.7319192248
 20
20.3955000394
 11
27.8
 21
20.5999084592
  0
LINE
  5
2C3
100
AcDbEntity
  8
0
100
AcDbLine
 62
250
  6
CONTINUOUS
 10
-27.4195769334
 20
18.7554862685
 11
-20.8355944669
 21
18.7554862685
  0
LINE
  5
2C4
100
AcDbEntity
  8
0
100
AcDbLine
 62
250
  6
CONTINUOUS
 10
-19.9644055331
 20
18.7554862685
 11
-0.4355944669
 21
18.7554862685
  0
LINE
  5
2C5
100
AcDbEntity
  8
0
100
AcDbLine
 62
250
  6
CONTINUOUS
 10
0.4355944669
 20
18.7554862685
 11
19.9644055331
 21
18.7554862685
  0
LINE
  5
2C6
100
AcDbEntity
  8
0
100
AcDbLine
 62
250
  6
CONTINUOUS
 10
20.8355944669
 20
18.7554862685
 11
27.4195759151
 21
18.7554862685
  0
LINE
  5
2C7
100
AcDbEntity
  8
0
100
AcDbLine
 62
250
  6
CONTINUOUS
 10
-27.4195747444
 20
18.9843964523
 11
-20.8286270271
 21
18.9843964523
  0
LINE
  5
2C8
100
AcDbEntity
  8
0
100
AcDbLine
 62
250
  6
CONTINUOUS
 10
-19.9713729729
 20
18.9843964523
 11
-0.4286270271
 21
18.9843964523
  0
LINE
  5
2C9
100
AcDbEntity
  8
0
100
AcDbLine
 62
250
  6
CONTINUOUS
 10
0.4286270271
 20
18.9843964523
 11
19.9713729729
 21
18.9843964523
  0
LINE
  5
2CA
100
AcDbEntity
  8
0
100
AcDbLine
 62
250
  6
CONTINUOUS
 10
20.8286270271
 20
18.9843964523
 11
27.4195747444
 21
18.9843964523
  0
LINE
  5
2CB
100
AcDbEntity
  8
0
100
AcDbLine
 62
7
  6
CONTINUOUS
 10
-26.9127850144
 20
19.2069091473
 11
26.9127850144
 21
19.2069091473
  0
LINE
  5
2CC
100
AcDbEntity
  8
0
100
AcDbLine
 62
7
  6
CONTINUOUS
 10
-27.0246611738
 20
19.5697919907
 11
-12.0977490779
 21
19.5697919907
  0
LINE
  5
2CD
100
AcDbEntity
  8
0
100
AcDbLine
 62
7
  6
CONTINUOUS
 10
12.0977490779
 20
19.5697919907
 11
27.0246611738
 21
19.5697919907
  0
LINE
  5
2CE
100
AcDbEntity
  8
0
100
AcDbLine
 62
7
  6
CONTINUOUS
 10
14.5940859332
 20
19.7940935486
 11
18.4059140668
 21
19.7940935486
  0
LINE
  5
2CF
100
AcDbEntity
  8
0
100
AcDbLine
 62
7
  6
CONTINUOUS
 10
-14.5940859332
 20
19.7940935486
 11
-18.4059140668
 21
19.7940935486
  0
LINE
  5
2D0
100
AcDbEntity
  8
0
100
AcDbLine
 62
7
  6
CONTINUOUS
 10
18.2807704286
 20
19.9192371868
 11
14.7192295714
 21
19.9192371868
  0
LINE
  5
2D1
100
AcDbEntity
  8
0
100
AcDbLine
 62
7
  6
CONTINUOUS
 10
-14.7192295714
 20
19.9192371868
 11
-18.2807704286
 21
19.9192371868
  0
LINE
  5
2D2
100
AcDbEntity
  8
0
100
AcDbLine
 62
7
  6
CONTINUOUS
 10
-9.7941663362
 20
20.1931119978
 11
9.7941663362
 21
20.1931119978
  0
LINE
  5
2D3
100
AcDbEntity
  8
0
100
AcDbLine
 62
250
  6
CONTINUOUS
 10
27.6001522399
 20
-20.3689805518
 11
27.5677788307
 21
-20.2717813441
  0
LINE
  5
2D4
100
AcDbEntity
  8
0
100
AcDbLine
 62
250
  6
CONTINUOUS
 10
27.8
 20
-20.168889011
 11
27.767741705
 21
-20.0720354267
  0
LINE
  5
2D5
100
AcDbEntity
  8
0
100
AcDbLine
 62
250
  6
CONTINUOUS
 10
20.799504004
 20
-8.528939027
 11
20.799504004
 21
-20.384284932
  0
LINE
  5
2D6
100
AcDbEntity
  8
0
100
AcDbLine
 62
250
  6
CONTINUOUS
 10
20.8139597987
 20
19.0860071484
 11
20.8139597987
 21
-4.8746568638
  0
LINE
  5
2D7
100
AcDbEntity
  8
0
100
AcDbLine
 62
7
  6
CONTINUOUS
 10
22.140033091
 20
21.7401092434
 11
22.140033091
 21
20.8
  0
LINE
  5
2D8
100
AcDbEntity
  8
0
100
AcDbLine
 62
7
  6
CONTINUOUS
 10
22.140033091
 20
-20.6991495613
 11
22.140033091
 21
-21.7401092434
  0
LINE
  5
2D9
100
AcDbEntity
  8
0
100
AcDbLine
 62
7
  6
CONTINUOUS
 10
22.25
 20
21.8500761524
 11
22.25
 21
20.8
  0
LINE
  5
2DA
100
AcDbEntity
  8
0
100
AcDbLine
 62
7
  6
CONTINUOUS
 10
22.25
 20
-20.3689805518
 11
22.25
 21
-21.8500761524
  0
LINE
  5
2DB
100
AcDbEntity
  8
0
100
AcDbLine
 62
250
  6
CONTINUOUS
 10
20.8125017207
 20
-5.5046099721
 11
20.800742878
 21
-7.9936915557
  0
LINE
  5
2DC
100
AcDbEntity
  8
0
100
AcDbLine
 62
7
  6
CONTINUOUS
 10
18.5598198108
 20
-20.2717813441
 11
18.5
 21
-20.6310194482
  0
LINE
  5
2DD
100
AcDbEntity
  8
0
100
AcDbLine
 62
250
  6
CONTINUOUS
 10
14.5218324005
 20
20.4192181483
 11
18.4781675995
 21
20.4192181483
  0
LINE
  5
2DE
100
AcDbEntity
  8
0
100
AcDbLine
 62
250
  6
CONTINUOUS
 10
-14.5218324005
 20
20.4192181483
 11
-18.4781675995
 21
20.4192181483
  0
LINE
  5
2DF
100
AcDbEntity
  8
0
100
AcDbLine
 62
7
  6
CONTINUOUS
 10
27.5316140001
 20
20.5942180704
 11
18.577900849
 21
20.5942180704
  0
LINE
  5
2E0
100
AcDbEntity
  8
0
100
AcDbLine
 62
7
  6
CONTINUOUS
 10
14.422099151
 20
20.5942180704
 11
-14.422099151
 21
20.5942180704
  0
LINE
  5
2E1
100
AcDbEntity
  8
0
100
AcDbLine
 62
7
  6
CONTINUOUS
 10
-18.577900849
 20
20.5942180704
 11
-27.5316140001
 21
20.5942180704
  0
LINE
  5
2E2
100
AcDbEntity
  8
0
100
AcDbLine
 62
7
  6
CONTINUOUS
 10
-14.5
 20
20.8
 11
14.5
 21
20.8
  0
LINE
  5
2E3
100
AcDbEntity
  8
0
100
AcDbLine
 62
7
  6
CONTINUOUS
 10
18.5
 20
20.8
 11
27.6001522399
 21
20.8
  0
LINE
  5
2E4
100
AcDbEntity
  8
0
100
AcDbLine
 62
7
  6
CONTINUOUS
 10
-18.5
 20
20.8
 11
-27.6001522399
 21
20.8
  0
LINE
  5
2E5
100
AcDbEntity
  8
0
100
AcDbLine
 62
7
  6
CONTINUOUS
 10
18.5
 20
21.0
 11
18.4856006681
 21
21.0
  0
LINE
  5
2E6
100
AcDbEntity
  8
0
100
AcDbLine
 62
7
  6
CONTINUOUS
 10
-18.5
 20
21.0
 11
-18.4856006681
 21
21.0
  0
LINE
  5
2E7
100
AcDbEntity
  8
0
100
AcDbLine
 62
7
  6
CONTINUOUS
 10
14.5
 20
21.0
 11
14.5143993319
 21
21.0
  0
LINE
  5
2E8
100
AcDbEntity
  8
0
100
AcDbLine
 62
7
  6
CONTINUOUS
 10
-14.5
 20
21.0
 11
-14.5143993319
 21
21.0
  0
LINE
  5
2E9
100
AcDbEntity
  8
0
100
AcDbLine
 62
7
  6
CONTINUOUS
 10
14.7218247852
 20
21.25
 11
18.2781752148
 21
21.25
  0
LINE
  5
2EA
100
AcDbEntity
  8
0
100
AcDbLine
 62
7
  6
CONTINUOUS
 10
-14.7218247852
 20
21.25
 11
-18.2781752148
 21
21.25
  0
LINE
  5
2EB
100
AcDbEntity
  8
0
100
AcDbLine
 62
7
  6
CONTINUOUS
 10
14.5170173922
 20
22.0
 11
18.4829826078
 21
22.0
  0
LINE
  5
2EC
100
AcDbEntity
  8
0
100
AcDbLine
 62
7
  6
CONTINUOUS
 10
-14.5170173922
 20
22.0
 11
-18.4829826078
 21
22.0
  0
LINE
  5
2ED
100
AcDbEntity
  8
0
100
AcDbLine
 62
7
  6
CONTINUOUS
 10
-21.6401092434
 20
22.240033091
 11
-20.3726915844
 21
22.240033091
  0
LINE
  5
2EE
100
AcDbEntity
  8
0
100
AcDbLine
 62
7
  6
CONTINUOUS
 10
20.3726915844
 20
22.240033091
 11
21.6401092434
 21
22.240033091
  0
LINE
  5
2EF
100
AcDbEntity
  8
0
100
AcDbLine
 62
7
  6
CONTINUOUS
 10
-20.35
 20
22.2627246754
 11
20.35
 21
22.2627246754
  0
LINE
  5
2F0
100
AcDbEntity
  8
0
100
AcDbLine
 62
7
  6
CONTINUOUS
 10
21.7500761524
 20
22.35
 11
-21.7500761524
 21
22.35
  0
LINE
  5
2F1
100
AcDbEntity
  8
0
100
AcDbLine
 62
7
  6
CONTINUOUS
 10
10.1299581505
 20
20.1544965522
 11
12.0977490779
 21
19.5697919907
  0
LINE
  5
2F2
100
AcDbEntity
  8
0
100
AcDbLine
 62
7
  6
CONTINUOUS
 10
18.543634339
 20
20.8
 11
18.577900849
 21
20.5942180704
  0
LINE
  5
2F3
100
AcDbEntity
  8
0
100
AcDbLine
 62
7
  6
CONTINUOUS
 10
29.0003805997
 20
23.35
 11
-29.0003805997
 21
23.35
  0
LINE
  5
2F4
100
AcDbEntity
  8
0
100
AcDbLine
 62
7
  6
CONTINUOUS
 10
20.8286270271
 20
18.9843964523
 11
20.8139597987
 21
19.0860071484
  0
LINE
  5
2F5
100
AcDbEntity
  8
0
100
AcDbLine
 62
7
  6
CONTINUOUS
 10
27.35
 20
19.4053556742
 11
27.35
 21
19.3137343213
  0
LINE
  5
2F6
100
AcDbEntity
  8
0
100
AcDbLine
 62
250
  6
CONTINUOUS
 10
27.4195747444
 20
18.9843964523
 11
27.4195747444
 21
18.7554862685
  0
LINE
  5
2F7
100
AcDbEntity
  8
0
100
AcDbLine
 62
250
  6
CONTINUOUS
 10
27.5677788307
 20
-20.1225138623
 11
27.5677788307
 21
-20.2717813441
  0
LINE
  5
2F8
100
AcDbEntity
  8
0
100
AcDbLine
 62
7
  6
CONTINUOUS
 10
27.8
 20
-20.168889011
 11
27.8
 21
20.5999084592
  0
LINE
  5
2F9
100
AcDbEntity
  8
0
100
AcDbLine
 62
250
  6
CONTINUOUS
 10
27.4195747444
 20
18.9843964523
 11
27.5322758471
 21
20.5942180704
  0
LINE
  5
2FA
100
AcDbEntity
  8
0
100
AcDbLine
 62
250
  6
CONTINUOUS
 10
27.6195453881
 20
18.7903530867
 11
27.7319192248
 21
20.3955000394
  0
LINE
  5
2FB
100
AcDbEntity
  8
0
100
AcDbLine
 62
7
  6
CONTINUOUS
 10
22.140033091
 20
-20.6991495613
 11
22.25
 21
-20.3689805518
  0
LINE
  5
2FC
100
AcDbEntity
  8
0
100
AcDbLine
 62
250
  6
CONTINUOUS
 10
18.3620717175
 20
-19.8379358979
 11
18.2807704286
 21
-19.9192371868
  0
LINE
  5
2FD
100
AcDbEntity
  8
0
100
AcDbLine
 62
250
  6
CONTINUOUS
 10
18.5616087327
 20
-20.0383836519
 11
18.4807628132
 21
-20.1192295714
  0
LINE
  5
2FE
100
AcDbEntity
  8
0
100
AcDbLine
 62
250
  6
CONTINUOUS
 10
18.2807704286
 20
19.9192371868
 11
18.4059140668
 21
19.7940935486
  0
LINE
  5
2FF
100
AcDbEntity
  8
0
100
AcDbLine
 62
250
  6
CONTINUOUS
 10
18.4807628132
 20
20.1192295714
 11
18.5986525076
 21
20.001339877
  0
LINE
  5
300
100
AcDbEntity
  8
0
100
AcDbLine
 62
7
  6
CONTINUOUS
 10
29.5
 20
22.8497711479
 11
29.5
 21
-22.8497711479
  0
LINE
  5
301
100
AcDbEntity
  8
0
100
AcDbLine
 62
7
  6
CONTINUOUS
 10
20.8712910908
 20
-20.2717813441
 11
20.799504004
 21
-20.384284932
  0
LINE
  5
302
100
AcDbEntity
  8
0
100
AcDbLine
 62
7
  6
CONTINUOUS
 10
20.3726915844
 20
-22.240033091
 11
20.35
 21
-22.2627246754
  0
LINE
  5
303
100
AcDbEntity
  8
0
100
AcDbLine
 62
7
  6
CONTINUOUS
 10
20.3726915844
 20
22.240033091
 11
20.35
 21
22.2627246754
  0
ARC
  5
304
100
AcDbEntity
  8
0
100
AcDbCircle
 62
250
  6
CONTINUOUS
 10
154.8199736693
 20
-4.8775509377
 40
134.833933499
100
AcDbArc
 50
179.9987702041
 51
180.2664608586
  0
ARC
  5
305
100
AcDbEntity
  8
0
100
AcDbCircle
 62
250
  6
CONTINUOUS
 10
134.4199736666
 20
-4.8775509377
 40
134.8339334964
100
AcDbArc
 50
179.9987702041
 51
180.2664608586
  0
ARC
  5
306
100
AcDbEntity
  8
0
100
AcDbCircle
 62
250
  6
CONTINUOUS
 10
114.0199736655
 20
-4.8775509377
 40
134.8339334952
100
AcDbArc
 50
179.9987702041
 51
180.2664608586
  0
ARC
  5
307
100
AcDbEntity
  8
0
100
AcDbCircle
 62
250
  6
CONTINUOUS
 10
-154.8199733996
 20
-4.8775509383
 40
134.8339332293
100
AcDbArc
 50
359.7335391411
 51
0.0012297962
  0
ARC
  5
308
100
AcDbEntity
  8
0
100
AcDbCircle
 62
250
  6
CONTINUOUS
 10
-114.0199733977
 20
-4.8775509383
 40
134.8339332274
100
AcDbArc
 50
359.7335391411
 51
0.0012297962
  0
ARC
  5
309
100
AcDbEntity
  8
0
100
AcDbCircle
 62
250
  6
CONTINUOUS
 10
-134.4199733979
 20
-4.8775509383
 40
134.8339332276
100
AcDbArc
 50
359.7335391411
 51
0.0012297962
  0
ARC
  5
30A
100
AcDbEntity
  8
0
100
AcDbCircle
 62
250
  6
CONTINUOUS
 10
-133.0828545087
 20
-8.5212028565
 40
112.2833507712
100
AcDbArc
 50
359.9960523986
 51
0.2691786642
  0
ARC
  5
30B
100
AcDbEntity
  8
0
100
AcDbCircle
 62
250
  6
CONTINUOUS
 10
-92.2828545083
 20
-8.5212028565
 40
112.2833507708
100
AcDbArc
 50
359.9960523986
 51
0.2691786642
  0
ARC
  5
30C
100
AcDbEntity
  8
0
100
AcDbCircle
 62
250
  6
CONTINUOUS
 10
-112.682854508
 20
-8.5212028565
 40
112.2833507705
100
AcDbArc
 50
359.9960523986
 51
0.2691786642
  0
ARC
  5
30D
100
AcDbEntity
  8
0
100
AcDbCircle
 62
250
  6
CONTINUOUS
 10
92.2828532816
 20
-8.5212028537
 40
112.2833495441
100
AcDbArc
 50
179.7308213344
 51
180.0039476029
  0
ARC
  5
30E
100
AcDbEntity
  8
0
100
AcDbCircle
 62
250
  6
CONTINUOUS
 10
133.0828532802
 20
-8.5212028537
 40
112.2833495427
100
AcDbArc
 50
179.7308213344
 51
180.0039476029
  0
ARC
  5
30F
100
AcDbEntity
  8
0
100
AcDbCircle
 62
250
  6
CONTINUOUS
 10
112.68285328
 20
-8.5212028537
 40
112.2833495426
100
AcDbArc
 50
179.7308213344
 51
180.0039476029
  0
ARC
  5
310
100
AcDbEntity
  8
0
100
AcDbCircle
 62
250
  6
CONTINUOUS
 10
27.5676813452
 20
-20.0716972549
 40
0.2000770927
100
AcDbArc
 50
270.0279158199
 51
359.8974228167
  0
ARC
  5
311
100
AcDbEntity
  8
0
100
AcDbCircle
 62
250
  6
CONTINUOUS
 10
-18.2807520434
 20
-20.1192479566
 40
0.2000107706
100
AcDbArc
 50
90.0052666741
 51
179.9947333259
  0
ARC
  5
312
100
AcDbEntity
  8
0
100
AcDbCircle
 62
250
  6
CONTINUOUS
 10
14.7192479566
 20
-20.1192479566
 40
0.2000107706
100
AcDbArc
 50
90.0052666741
 51
179.9947333259
  0
ARC
  5
313
100
AcDbEntity
  8
0
100
AcDbCircle
 62
250
  6
CONTINUOUS
 10
18.2807520435
 20
20.1192479565
 40
0.2000107706
100
AcDbArc
 50
270.0052666667
 51
359.9947333333
  0
ARC
  5
314
100
AcDbEntity
  8
0
100
AcDbCircle
 62
250
  6
CONTINUOUS
 10
-14.7192479565
 20
20.1192479565
 40
0.2000107706
100
AcDbArc
 50
270.0052666667
 51
359.9947333333
  0
ARC
  5
315
100
AcDbEntity
  8
0
100
AcDbCircle
 62
250
  6
CONTINUOUS
 10
-14.7192479559
 20
-20.1192479559
 40
0.2000107699
100
AcDbArc
 50
0.0052664845
 51
89.9947335302
  0
ARC
  5
316
100
AcDbEntity
  8
0
100
AcDbCircle
 62
250
  6
CONTINUOUS
 10
18.2807520441
 20
-20.1192479559
 40
0.2000107699
100
AcDbArc
 50
0.0052664845
 51
89.9947335302
  0
ARC
  5
317
100
AcDbEntity
  8
0
100
AcDbCircle
 62
250
  6
CONTINUOUS
 10
14.7192479559
 20
20.1192479559
 40
0.20001077
100
AcDbArc
 50
180.0052664922
 51
269.9947335126
  0
ARC
  5
318
100
AcDbEntity
  8
0
100
AcDbCircle
 62
250
  6
CONTINUOUS
 10
-18.2807520441
 20
20.1192479559
 40
0.20001077
100
AcDbArc
 50
180.0052664922
 51
269.9947335126
  0
SPLINE
  5
319
100
AcDbEntity
  8
0
100
AcDbSpline
 62
7
  6
CONTINUOUS
 70
0
 71
3
 72
9
 73
5
 74
0
 42
0.0000001
 43
0.0000001
 44
0.0000000001
 40
0.0
 40
0.0
 40
0.0
 40
0.0
 40
0.6941641721
 40
1.0
 40
1.0
 40
1.0
 40
1.0
 10
-27.7592332865
 20
-20.2717813441
 30
0.0
 10
-27.7615262466
 20
-20.2721759753
 30
0.0
 10
-27.7644107235
 20
-20.2728917642
 30
0.0
 10
-27.7683484834
 20
-20.2739487828
 30
0.0
 10
-27.7686724076
 20
-20.2749213459
 30
0.0
  0
SPLINE
  5
31A
100
AcDbEntity
  8
0
100
AcDbSpline
 62
250
  6
CONTINUOUS
 70
0
 71
3
 72
11
 73
7
 74
0
 42
0.0000001
 43
0.0000001
 44
0.0000000001
 40
0.0
 40
0.0
 40
0.0
 40
0.0
 40
0.2533404076
 40
0.5048962476
 40
0.7535993146
 40
1.0
 40
1.0
 40
1.0
 40
1.0
 10
-27.4195747444
 20
18.9843964523
 30
0.0
 10
-27.4455089896
 20
18.9842901911
 30
0.0
 10
-27.4976917545
 20
18.9741190914
 30
0.0
 10
-27.5639620716
 20
18.931098629
 30
0.0
 10
-27.6087353284
 20
18.8667689548
 30
0.0
 10
-27.6194345419
 20
18.8155611117
 30
0.0
 10
-27.6195442834
 20
18.790337307
 30
0.0
  0
SPLINE
  5
31B
100
AcDbEntity
  8
0
100
AcDbSpline
 62
7
  6
CONTINUOUS
 70
0
 71
3
 72
11
 73
7
 74
0
 42
0.0000001
 43
0.0000001
 44
0.0000000001
 40
0.0
 40
0.0
 40
0.0
 40
0.0
 40
0.2486523294
 40
0.4982160706
 40
0.7488225369
 40
1.0
 40
1.0
 40
1.0
 40
1.0
 10
-27.7319192248
 20
20.3955000394
 30
0.0
 10
-27.7318498144
 20
20.4212941207
 30
0.0
 10
-27.7213268903
 20
20.4735127549
 30
0.0
 10
-27.6767665148
 20
20.5395089151
 30
0.0
 10
-27.6102768477
 20
20.5837872525
 30
0.0
 10
-27.5576701131
 20
20.594196718
 30
0.0
 10
-27.5316140001
 20
20.5942180704
 30
0.0
  0
SPLINE
  5
31C
100
AcDbEntity
  8
0
100
AcDbSpline
 62
7
  6
CONTINUOUS
 70
0
 71
3
 72
11
 73
7
 74
0
 42
0.0000001
 43
0.0000001
 44
0.0000000001
 40
0.0
 40
0.0
 40
0.0
 40
0.0
 40
0.2537670458
 40
0.5052053708
 40
0.753596338
 40
1.0
 40
1.0
 40
1.0
 40
1.0
 10
-14.6379282825
 20
-19.8379358979
 30
0.0
 10
-14.6115150209
 20
-19.8379358979
 30
0.0
 10
-14.5583267624
 20
-19.8486539734
 30
0.0
 10
-14.4919158659
 20
-19.8940635631
 30
0.0
 10
-14.4483096569
 20
-19.9606649927
 30
0.0
 10
-14.4383329542
 20
-20.012736872
 30
0.0
 10
-14.4383912673
 20
-20.0383836519
 30
0.0
  0
SPLINE
  5
31D
100
AcDbEntity
  8
0
100
AcDbSpline
 62
7
  6
CONTINUOUS
 70
0
 71
3
 72
12
 73
8
 74
0
 42
0.0000001
 43
0.0000001
 44
0.0000000001
 40
0.0
 40
0.0
 40
0.0
 40
0.0
 40
0.0637289168
 40
0.1553649383
 40
0.3966569318
 40
0.6855489415
 40
1.0
 40
1.0
 40
1.0
 40
1.0
 10
-27.7592332865
 20
-20.2717813441
 30
0.0
 10
-27.754123688
 20
-20.2709019538
 30
0.0
 10
-27.7423870394
 20
-20.2656253356
 30
0.0
 10
-27.7147650775
 20
-20.2491205463
 30
0.0
 10
-27.6744045869
 20
-20.2182927813
 30
0.0
 10
-27.622144333
 20
-20.1737396735
 30
0.0
 10
-27.58620057
 20
-20.1402649301
 30
0.0
 10
-27.5677788307
 20
-20.1225138623
 30
0.0
  0
SPLINE
  5
31E
100
AcDbEntity
  8
0
100
AcDbSpline
 62
250
  6
CONTINUOUS
 70
0
 71
3
 72
12
 73
8
 74
0
 42
0.0000001
 43
0.0000001
 44
0.0000000001
 40
0.0
 40
0.0
 40
0.0
 40
0.0
 40
0.1175961101
 40
0.214360994
 40
0.3365273657
 40
0.6436794273
 40
1.0
 40
1.0
 40
1.0
 40
1.0
 10
27.7677483698
 20
-20.0720554371
 30
0.0
 10
27.7671908038
 20
-20.0803827205
 30
0.0
 10
27.7526526749
 20
-20.0917510394
 30
0.0
 10
27.7315442582
 20
-20.1007690564
 30
0.0
 10
27.6952941411
 20
-20.1115680368
 30
0.0
 10
27.6402290596
 20
-20.1199306865
 30
0.0
 10
27.5930670636
 20
-20.1224035058
 30
0.0
 10
27.5677788307
 20
-20.1225138623
 30
0.0
  0
SPLINE
  5
31F
100
AcDbEntity
  8
0
100
AcDbSpline
 62
250
  6
CONTINUOUS
 70
0
 71
3
 72
12
 73
8
 74
0
 42
0.0000001
 43
0.0000001
 44
0.0000000001
 40
0.0
 40
0.0
 40
0.0
 40
0.0
 40
0.3661274311
 40
0.6796498939
 40
0.8970173189
 40
0.9631183975
 40
1.0
 40
1.0
 40
1.0
 40
1.0
 10
27.4195747444
 20
18.7554862685
 30
0.0
 10
27.444821012
 20
18.7545216487
 30
0.0
 10
27.4919236744
 20
18.7574715031
 30
0.0
 10
27.5529405176
 20
18.7641028081
 30
0.0
 10
27.5944964714
 20
18.7719972939
 30
0.0
 10
27.6135706939
 20
18.7822533573
 30
0.0
 10
27.6192185816
 20
18.7878132125
 30
0.0
 10
27.6195442834
 20
18.790337307
 30
0.0
  0
SPLINE
  5
320
100
AcDbEntity
  8
0
100
AcDbSpline
 62
250
  6
CONTINUOUS
 70
0
 71
3
 72
11
 73
7
 74
0
 42
0.0000001
 43
0.0000001
 44
0.0000000001
 40
0.0
 40
0.0
 40
0.0
 40
0.0
 40
0.2464268161
 40
0.4951223344
 40
0.7466681576
 40
1.0
 40
1.0
 40
1.0
 40
1.0
 10
27.6195442834
 20
18.790337307
 30
0.0
 10
27.6194345302
 20
18.8155638022
 30
0.0
 10
27.6087340784
 20
18.8667737808
 30
0.0
 10
27.563958044
 20
18.9311026223
 30
0.0
 10
27.4976888584
 20
18.9741195048
 30
0.0
 10
27.4455081287
 20
18.9842901947
 30
0.0
 10
27.4195747444
 20
18.9843964523
 30
0.0
  0
SPLINE
  5
321
100
AcDbEntity
  8
0
100
AcDbSpline
 62
7
  6
CONTINUOUS
 70
0
 71
3
 72
11
 73
7
 74
0
 42
0.0000001
 43
0.0000001
 44
0.0000000001
 40
0.0
 40
0.0
 40
0.0
 40
0.0
 40
0.2486646205
 40
0.4982307169
 40
0.7488339316
 40
1.0
 40
1.0
 40
1.0
 40
1.0
 10
27.7319192248
 20
20.3955000394
 30
0.0
 10
27.7318542097
 20
20.4212416191
 30
0.0
 10
27.7213686276
 20
20.473350984
 30
0.0
 10
27.6769886035
 20
20.5392565879
 30
0.0
 10
27.6107345067
 20
20.5835780767
 30
0.0
 10
27.5582761875
 20
20.5940994898
 30
0.0
 10
27.5322758471
 20
20.5942180704
 30
0.0
  0
SPLINE
  5
322
100
AcDbEntity
  8
0
100
AcDbSpline
 62
250
  6
CONTINUOUS
 70
0
 71
3
 72
18
 73
14
 74
0
 42
0.0000001
 43
0.0000001
 44
0.0000000001
 40
0.0
 40
0.0
 40
0.0
 40
0.0
 40
0.0056500815
 40
0.0207512702
 40
0.0451864356
 40
0.0787320968
 40
0.1210423439
 40
0.1717427726
 40
0.2962208449
 40
0.4473900081
 40
0.6194804523
 40
0.8060339335
 40
1.0
 40
1.0
 40
1.0
 40
1.0
 10
18.2807704286
 20
-19.9192371868
 30
0.0
 10
18.2802877157
 20
-19.920045747
 30
0.0
 10
18.2808358571
 20
-19.9237814093
 30
0.0
 10
18.2799599193
 20
-19.9310565636
 30
0.0
 10
18.2800887245
 20
-19.9433732806
 30
0.0
 10
18.2797038284
 20
-19.9600276283
 30
0.0
 10
18.2795380471
 20
-19.981141847
 30
0.0
 10
18.279204835
 20
-20.0173788188
 30
0.0
 10
18.2788939987
 20
-20.071776207
 30
0.0
 10
18.278578366
 20
-20.1463967444
 30
0.0
 10
18.2783500777
 20
-20.2313670999
 30
0.0
 10
18.2782070098
 20
-20.3234694223
 30
0.0
 10
18.2781752154
 20
-20.386890114
 30
0.0
 10
18.2781752148
 20
-20.4192181483
 30
0.0
  0
SPLINE
  5
323
100
AcDbEntity
  8
0
100
AcDbSpline
 62
7
  6
CONTINUOUS
 70
0
 71
3
 72
11
 73
7
 74
0
 42
0.0000001
 43
0.0000001
 44
0.0000000001
 40
0.0
 40
0.0
 40
0.0
 40
0.0
 40
0.246403662
 40
0.4947946292
 40
0.7462329542
 40
1.0
 40
1.0
 40
1.0
 40
1.0
 10
-18.5616087327
 20
-20.0383836519
 30
0.0
 10
-18.5616670458
 20
-20.012736872
 30
0.0
 10
-18.5516903431
 20
-19.9606649927
 30
0.0
 10
-18.5080841341
 20
-19.8940635631
 30
0.0
 10
-18.4416732376
 20
-19.8486539734
 30
0.0
 10
-18.3884849791
 20
-19.8379358979
 30
0.0
 10
-18.3620717175
 20
-19.8379358979
 30
0.0
  0
SPLINE
  5
324
100
AcDbEntity
  8
0
100
AcDbSpline
 62
7
  6
CONTINUOUS
 70
0
 71
3
 72
11
 73
7
 74
0
 42
0.0000001
 43
0.0000001
 44
0.0000000001
 40
0.0
 40
0.0
 40
0.0
 40
0.0
 40
0.2537670458
 40
0.5052053708
 40
0.753596338
 40
1.0
 40
1.0
 40
1.0
 40
1.0
 10
18.3620717175
 20
-19.8379358979
 30
0.0
 10
18.3884849791
 20
-19.8379358979
 30
0.0
 10
18.4416732376
 20
-19.8486539734
 30
0.0
 10
18.5080841341
 20
-19.8940635631
 30
0.0
 10
18.5516903431
 20
-19.9606649927
 30
0.0
 10
18.5616670458
 20
-20.012736872
 30
0.0
 10
18.5616087327
 20
-20.0383836519
 30
0.0
  0
SPLINE
  5
325
100
AcDbEntity
  8
0
100
AcDbSpline
 62
250
  6
CONTINUOUS
 70
0
 71
3
 72
18
 73
14
 74
0
 42
0.0000001
 43
0.0000001
 44
0.0000000001
 40
0.0
 40
0.0
 40
0.0
 40
0.0
 40
0.1939492991
 40
0.3806521838
 40
0.5527667097
 40
0.7039344852
 40
0.828348189
 40
0.8790045967
 40
0.9212944924
 40
0.954829327
 40
0.9792475316
 40
0.9943472237
 40
1.0
 40
1.0
 40
1.0
 40
1.0
 10
14.7218247852
 20
-20.4192181483
 30
0.0
 10
14.721824778
 20
-20.3868929099
 30
0.0
 10
14.7217929103
 20
-20.3234501145
 30
0.0
 10
14.7216498215
 20
-20.2313216754
 30
0.0
 10
14.7214214247
 20
-20.146322642
 30
0.0
 10
14.7211055902
 20
-20.0717090472
 30
0.0
 10
14.7207947782
 20
-20.0173299784
 30
0.0
 10
14.7204617783
 20
-19.981114428
 30
0.0
 10
14.72029601
 20
-19.9600128166
 30
0.0
 10
14.7199114667
 20
-19.9433663062
 30
0.0
 10
14.7200393307
 20
-19.9310549287
 30
0.0
 10
14.719164235
 20
-19.9237816808
 30
0.0
 10
14.7197119569
 20
-19.9200464652
 30
0.0
 10
14.7192295714
 20
-19.9192371868
 30
0.0
  0
SPLINE
  5
326
100
AcDbEntity
  8
0
100
AcDbSpline
 62
250
  6
CONTINUOUS
 70
0
 71
3
 72
18
 73
14
 74
0
 42
0.0000001
 43
0.0000001
 44
0.0000000001
 40
0.0
 40
0.0
 40
0.0
 40
0.0
 40
0.0056500815
 40
0.0207512702
 40
0.0451864356
 40
0.0787320968
 40
0.1210423439
 40
0.1717427726
 40
0.2962208449
 40
0.4473900081
 40
0.6194804523
 40
0.8060339335
 40
1.0
 40
1.0
 40
1.0
 40
1.0
 10
-14.7192295714
 20
-19.9192371868
 30
0.0
 10
-14.7197122843
 20
-19.920045747
 30
0.0
 10
-14.7191641429
 20
-19.9237814093
 30
0.0
 10
-14.7200400807
 20
-19.9310565636
 30
0.0
 10
-14.7199112755
 20
-19.9433732806
 30
0.0
 10
-14.7202961716
 20
-19.9600276283
 30
0.0
 10
-14.7204619529
 20
-19.981141847
 30
0.0
 10
-14.720795165
 20
-20.0173788188
 30
0.0
 10
-14.7211060013
 20
-20.071776207
 30
0.0
 10
-14.721421634
 20
-20.1463967444
 30
0.0
 10
-14.7216499223
 20
-20.2313670999
 30
0.0
 10
-14.7217929902
 20
-20.3234694223
 30
0.0
 10
-14.7218247846
 20
-20.386890114
 30
0.0
 10
-14.7218247852
 20
-20.4192181483
 30
0.0
  0
SPLINE
  5
327
100
AcDbEntity
  8
0
100
AcDbSpline
 62
250
  6
CONTINUOUS
 70
0
 71
3
 72
18
 73
14
 74
0
 42
0.0000001
 43
0.0000001
 44
0.0000000001
 40
0.0
 40
0.0
 40
0.0
 40
0.0
 40
0.1939492991
 40
0.3806521838
 40
0.5527667097
 40
0.7039344852
 40
0.828348189
 40
0.8790045967
 40
0.9212944924
 40
0.954829327
 40
0.9792475316
 40
0.9943472237
 40
1.0
 40
1.0
 40
1.0
 40
1.0
 10
-18.2781752148
 20
-20.4192181483
 30
0.0
 10
-18.278175222
 20
-20.3868929099
 30
0.0
 10
-18.2782070897
 20
-20.3234501145
 30
0.0
 10
-18.2783501785
 20
-20.2313216754
 30
0.0
 10
-18.2785785753
 20
-20.146322642
 30
0.0
 10
-18.2788944098
 20
-20.0717090472
 30
0.0
 10
-18.2792052218
 20
-20.0173299784
 30
0.0
 10
-18.2795382217
 20
-19.981114428
 30
0.0
 10
-18.27970399
 20
-19.9600128166
 30
0.0
 10
-18.2800885333
 20
-19.9433663062
 30
0.0
 10
-18.2799606693
 20
-19.9310549287
 30
0.0
 10
-18.280835765
 20
-19.9237816808
 30
0.0
 10
-18.2802880431
 20
-19.9200464652
 30
0.0
 10
-18.2807704286
 20
-19.9192371868
 30
0.0
  0
SPLINE
  5
328
100
AcDbEntity
  8
0
100
AcDbSpline
 62
250
  6
CONTINUOUS
 70
0
 71
3
 72
18
 73
14
 74
0
 42
0.0000001
 43
0.0000001
 44
0.0000000001
 40
0.0
 40
0.0
 40
0.0
 40
0.0
 40
0.1940662348
 40
0.3808713599
 40
0.5530702954
 40
0.7042443222
 40
0.8285809861
 40
0.8791798007
 40
0.9214170866
 40
0.9548867695
 40
0.9792817465
 40
0.9943601594
 40
1.0
 40
1.0
 40
1.0
 40
1.0
 10
-14.7218247852
 20
20.4192181483
 30
0.0
 10
-14.7218247784
 20
20.3868734177
 30
0.0
 10
-14.7217928843
 20
20.3233940867
 30
0.0
 10
-14.7216496307
 20
20.2312150437
 30
0.0
 10
-14.7214209723
 20
20.1461838467
 30
0.0
 10
-14.7211047467
 20
20.0715679945
 30
0.0
 10
-14.7207942416
 20
20.0172102792
 30
0.0
 10
-14.7204607707
 20
19.9810259911
 30
0.0
 10
-14.7202951584
 20
19.9599535003
 30
0.0
 10
-14.7199105176
 20
19.9433307418
 30
0.0
 10
-14.7200397592
 20
19.9310369653
 30
0.0
 10
-14.7191643081
 20
19.9237744584
 30
0.0
 10
-14.7197121588
 20
19.9200438336
 30
0.0
 10
-14.7192295714
 20
19.9192371868
 30
0.0
  0
SPLINE
  5
329
100
AcDbEntity
  8
0
100
AcDbSpline
 62
250
  6
CONTINUOUS
 70
0
 71
3
 72
18
 73
14
 74
0
 42
0.0000001
 43
0.0000001
 44
0.0000000001
 40
0.0
 40
0.0
 40
0.0
 40
0.0
 40
0.005645203
 40
0.0207299755
 40
0.0451340716
 40
0.0786389343
 40
0.1208975646
 40
0.1715373199
 40
0.2959122941
 40
0.4470532339
 40
0.6191875039
 40
0.8059964699
 40
1.0
 40
1.0
 40
1.0
 40
1.0
 10
-18.2807704286
 20
19.9192371868
 30
0.0
 10
-18.2802882518
 20
19.92004512
 30
0.0
 10
-18.2808355118
 20
19.9237767893
 30
0.0
 10
-18.2799607094
 20
19.9310436642
 30
0.0
 10
-18.2800889496
 20
19.9433453992
 30
0.0
 10
-18.2797044705
 20
19.9599792801
 30
0.0
 10
-18.2795387219
 20
19.9810679409
 30
0.0
 10
-18.2792056685
 20
20.0172690315
 30
0.0
 10
-18.2788947485
 20
20.0716344108
 30
0.0
 10
-18.2785788376
 20
20.1462403653
 30
0.0
 10
-18.2783503122
 20
20.2312559021
 30
0.0
 10
-18.2782071702
 20
20.3234143534
 30
0.0
 10
-18.2781752246
 20
20.3868838702
 30
0.0
 10
-18.2781752148
 20
20.4192181483
 30
0.0
  0
SPLINE
  5
32A
100
AcDbEntity
  8
0
100
AcDbSpline
 62
250
  6
CONTINUOUS
 70
0
 71
3
 72
18
 73
14
 74
0
 42
0.0000001
 43
0.0000001
 44
0.0000000001
 40
0.0
 40
0.0
 40
0.0
 40
0.0
 40
0.1940662348
 40
0.3808713599
 40
0.5530702954
 40
0.7042443222
 40
0.8285809861
 40
0.8791798007
 40
0.9214170866
 40
0.9548867695
 40
0.9792817465
 40
0.9943601594
 40
1.0
 40
1.0
 40
1.0
 40
1.0
 10
18.2781752148
 20
20.4192181483
 30
0.0
 10
18.2781752216
 20
20.3868734177
 30
0.0
 10
18.2782071157
 20
20.3233940867
 30
0.0
 10
18.2783503693
 20
20.2312150437
 30
0.0
 10
18.2785790277
 20
20.1461838467
 30
0.0
 10
18.2788952533
 20
20.0715679945
 30
0.0
 10
18.2792057584
 20
20.0172102792
 30
0.0
 10
18.2795392293
 20
19.9810259911
 30
0.0
 10
18.2797048416
 20
19.9599535003
 30
0.0
 10
18.2800894824
 20
19.9433307418
 30
0.0
 10
18.2799602408
 20
19.9310369653
 30
0.0
 10
18.2808356919
 20
19.9237744584
 30
0.0
 10
18.2802878412
 20
19.9200438336
 30
0.0
 10
18.2807704286
 20
19.9192371868
 30
0.0
  0
SPLINE
  5
32B
100
AcDbEntity
  8
0
100
AcDbSpline
 62
250
  6
CONTINUOUS
 70
0
 71
3
 72
18
 73
14
 74
0
 42
0.0000001
 43
0.0000001
 44
0.0000000001
 40
0.0
 40
0.0
 40
0.0
 40
0.0
 40
0.005645203
 40
0.0207299755
 40
0.0451340716
 40
0.0786389343
 40
0.1208975646
 40
0.1715373199
 40
0.2959122941
 40
0.4470532339
 40
0.6191875039
 40
0.8059964699
 40
1.0
 40
1.0
 40
1.0
 40
1.0
 10
14.7192295714
 20
19.9192371868
 30
0.0
 10
14.7197117482
 20
19.92004512
 30
0.0
 10
14.7191644882
 20
19.9237767893
 30
0.0
 10
14.7200392906
 20
19.9310436642
 30
0.0
 10
14.7199110504
 20
19.9433453992
 30
0.0
 10
14.7202955295
 20
19.9599792801
 30
0.0
 10
14.7204612781
 20
19.9810679409
 30
0.0
 10
14.7207943315
 20
20.0172690315
 30
0.0
 10
14.7211052515
 20
20.0716344108
 30
0.0
 10
14.7214211624
 20
20.1462403653
 30
0.0
 10
14.7216496878
 20
20.2312559021
 30
0.0
 10
14.7217928298
 20
20.3234143534
 30
0.0
 10
14.7218247754
 20
20.3868838702
 30
0.0
 10
14.7218247852
 20
20.4192181483
 30
0.0
  0
SPLINE
  5
32C
100
AcDbEntity
  8
0
100
AcDbSpline
 62
7
  6
CONTINUOUS
 70
0
 71
3
 72
11
 73
7
 74
0
 42
0.0000001
 43
0.0000001
 44
0.0000000001
 40
0.0
 40
0.0
 40
0.0
 40
0.0
 40
0.246403662
 40
0.4947946292
 40
0.7462329542
 40
1.0
 40
1.0
 40
1.0
 40
1.0
 10
14.4383912673
 20
-20.0383836519
 30
0.0
 10
14.4383329542
 20
-20.012736872
 30
0.0
 10
14.4483096569
 20
-19.9606649927
 30
0.0
 10
14.4919158659
 20
-19.8940635631
 30
0.0
 10
14.5583267624
 20
-19.8486539734
 30
0.0
 10
14.6115150209
 20
-19.8379358979
 30
0.0
 10
14.6379282825
 20
-19.8379358979
 30
0.0
  0
SPLINE
  5
32D
100
AcDbEntity
  8
0
100
AcDbSpline
 62
7
  6
CONTINUOUS
 70
0
 71
3
 72
19
 73
15
 74
0
 42
0.0000001
 43
0.0000001
 44
0.0000000001
 40
0.0
 40
0.0
 40
0.0
 40
0.0
 40
0.0247154072
 40
0.0601845916
 40
0.1086762466
 40
0.1698038428
 40
0.3228454564
 40
0.5
 40
0.6771545436
 40
0.8301961572
 40
0.8913237534
 40
0.9398154084
 40
0.9752845928
 40
1.0
 40
1.0
 40
1.0
 40
1.0
 10
19.9860402013
 20
19.0860071484
 30
0.0
 10
19.9870722367
 20
19.0931568174
 30
0.0
 10
19.9975224769
 20
19.1089099942
 30
0.0
 10
20.0244793629
 20
19.126015959
 30
0.0
 10
20.0639017209
 20
19.1421313104
 30
0.0
 10
20.1380988653
 20
19.1622406096
 30
0.0
 10
20.2516906944
 20
19.178430924
 30
0.0
 10
20.4
 20
19.1850164707
 30
0.0
 10
20.5483093056
 20
19.178430924
 30
0.0
 10
20.6619011347
 20
19.1622406096
 30
0.0
 10
20.7360982791
 20
19.1421313104
 30
0.0
 10
20.7755206371
 20
19.126015959
 30
0.0
 10
20.8024775231
 20
19.1089099942
 30
0.0
 10
20.8129277633
 20
19.0931568174
 30
0.0
 10
20.8139597987
 20
19.0860071484
 30
0.0
  0
SPLINE
  5
32E
100
AcDbEntity
  8
0
100
AcDbSpline
 62
250
  6
CONTINUOUS
 70
0
 71
3
 72
19
 73
15
 74
0
 42
0.0000001
 43
0.0000001
 44
0.0000000001
 40
0.0
 40
0.0
 40
0.0
 40
0.0
 40
0.0247176236
 40
0.0601873034
 40
0.1086786928
 40
0.1698059609
 40
0.3228467867
 40
0.5000003947
 40
0.6771540251
 40
0.8301949099
 40
0.8913222325
 40
0.9398136919
 40
0.9752831891
 40
1.0
 40
1.0
 40
1.0
 40
1.0
 10
19.9860402013
 20
-4.8746568638
 30
0.0
 10
19.9870721831
 20
-4.8675064943
 30
0.0
 10
19.9975216415
 20
-4.8517517797
 30
0.0
 10
20.0244791397
 20
-4.8346445391
 30
0.0
 10
20.0639017385
 20
-4.818529458
 30
0.0
 10
20.1380988671
 20
-4.7984200546
 30
0.0
 10
20.2516906841
 20
-4.7822296642
 30
0.0
 10
20.4000000103
 20
-4.7756442992
 30
0.0
 10
20.5483093326
 20
-4.7822300751
 30
0.0
 10
20.6619011526
 20
-4.7984207438
 30
0.0
 10
20.7360982792
 20
-4.8185303414
 30
0.0
 10
20.7755207881
 20
-4.834645672
 30
0.0
 10
20.8024780521
 20
-4.8517525516
 30
0.0
 10
20.8129277965
 20
-4.8675067373
 30
0.0
 10
20.8139597987
 20
-4.8746568638
 30
0.0
  0
SPLINE
  5
32F
100
AcDbEntity
  8
0
100
AcDbSpline
 62
250
  6
CONTINUOUS
 70
0
 71
3
 72
17
 73
13
 74
0
 42
0.0000001
 43
0.0000001
 44
0.0000000001
 40
0.0
 40
0.0
 40
0.0
 40
0.0
 40
0.0718824444
 40
0.1223015091
 40
0.18313963
 40
0.3310530886
 40
0.5
 40
0.6689469114
 40
0.81686037
 40
0.8776984909
 40
0.9281175556
 40
1.0
 40
1.0
 40
1.0
 40
1.0
 10
19.9874982793
 20
-5.5046099721
 30
0.0
 10
19.9895899608
 20
-5.4827232154
 30
0.0
 10
20.0165482629
 20
-5.4499435517
 30
0.0
 10
20.0639642381
 20
-5.4215277919
 30
0.0
 10
20.1377555054
 20
-5.3909659329
 30
0.0
 10
20.2513054599
 20
-5.3667199113
 30
0.0
 10
20.4
 20
-5.3566888795
 30
0.0
 10
20.5486945401
 20
-5.3667199113
 30
0.0
 10
20.6622444946
 20
-5.3909659329
 30
0.0
 10
20.7360357619
 20
-5.4215277919
 30
0.0
 10
20.7834517371
 20
-5.4499435517
 30
0.0
 10
20.8104100392
 20
-5.4827232154
 30
0.0
 10
20.8125017207
 20
-5.5046099721
 30
0.0
  0
SPLINE
  5
330
100
AcDbEntity
  8
0
100
AcDbSpline
 62
250
  6
CONTINUOUS
 70
0
 71
3
 72
17
 73
13
 74
0
 42
0.0000001
 43
0.0000001
 44
0.0000000001
 40
0.0
 40
0.0
 40
0.0
 40
0.0
 40
0.0718822503
 40
0.122301307
 40
0.183139462
 40
0.3310530662
 40
0.5000001588
 40
0.6689472207
 40
0.816860739
 40
0.8776988371
 40
0.9281178342
 40
1.0
 40
1.0
 40
1.0
 40
1.0
 10
19.9992571104
 20
-7.9936891028
 30
0.0
 10
20.0012891713
 20
-7.9724263331
 30
0.0
 10
20.0274790582
 20
-7.9405812533
 30
0.0
 10
20.0735433329
 20
-7.9129756605
 30
0.0
 10
20.1452311054
 20
-7.8832850861
 30
0.0
 10
20.2555441717
 20
-7.859730232
 30
0.0
 10
20.3999999885
 20
-7.8499850154
 30
0.0
 10
20.5444558047
 20
-7.8597298529
 30
0.0
 10
20.6547688825
 20
-7.8832844162
 30
0.0
 10
20.7264566653
 20
-7.912974809
 30
0.0
 10
20.7725209467
 20
-7.9405802774
 30
0.0
 10
20.7987108348
 20
-7.9724253148
 30
0.0
 10
20.8007428941
 20
-7.9936880595
 30
0.0
  0
SPLINE
  5
331
100
AcDbEntity
  8
0
100
AcDbSpline
 62
250
  6
CONTINUOUS
 70
0
 71
3
 72
9
 73
5
 74
0
 42
0.0000001
 43
0.0000001
 44
0.0000000001
 40
0.0
 40
0.0
 40
0.0
 40
0.0
 40
0.2483136416
 40
1.0
 40
1.0
 40
1.0
 40
1.0
 10
27.767741705
 20
-20.0720354267
 30
0.0
 10
27.7531026282
 20
-16.8553581166
 30
0.0
 10
27.6965790043
 20
-3.9012569613
 30
0.0
 10
27.6496233888
 20
9.0528858191
 30
0.0
 10
27.6195453881
 20
18.7903530867
 30
0.0
  0
SPLINE
  5
332
100
AcDbEntity
  8
0
100
AcDbSpline
 62
250
  6
CONTINUOUS
 70
0
 71
3
 72
9
 73
5
 74
0
 42
0.0000001
 43
0.0000001
 44
0.0000000001
 40
0.0
 40
0.0
 40
0.0
 40
0.0
 40
0.2515953033
 40
1.0
 40
1.0
 40
1.0
 40
1.0
 10
-27.6195392494
 20
18.7902654017
 30
0.0
 10
-27.6296591326
 20
15.5140511573
 30
0.0
 10
-27.6722451205
 20
2.4922962478
 30
0.0
 10
-27.7242442225
 20
-10.5294280323
 30
0.0
 10
-27.7686724076
 20
-20.2749213459
 30
0.0
  0
SPLINE
  5
333
100
AcDbEntity
  8
0
100
AcDbSpline
 62
250
  6
CONTINUOUS
 70
0
 71
3
 72
19
 73
15
 74
0
 42
0.0000001
 43
0.0000001
 44
0.0000000001
 40
0.0
 40
0.0
 40
0.0
 40
0.0
 40
0.0247153194
 40
0.0601843804
 40
0.1086758681
 40
0.1698032536
 40
0.3228443358
 40
0.4999982526
 40
0.6771521487
 40
0.8301931881
 40
0.8913204939
 40
0.9398118574
 40
0.9752816924
 40
1.0
 40
1.0
 40
1.0
 40
1.0
 10
20.000495996
 20
-8.528939027
 30
0.0
 10
20.0014919921
 20
-8.5220390283
 30
0.0
 10
20.0115773064
 20
-8.5068359609
 30
0.0
 10
20.0375928466
 20
-8.4903273474
 30
0.0
 10
20.0756385594
 20
-8.4747747542
 30
0.0
 10
20.147244707
 20
-8.4553676861
 30
0.0
 10
20.2568698553
 20
-8.43974275
 30
0.0
 10
20.4000001164
 20
-8.433387197
 30
0.0
 10
20.5431303765
 20
-8.4397427317
 30
0.0
 10
20.6527554588
 20
-8.4553677791
 30
0.0
 10
20.7243615424
 20
-8.474774873
 30
0.0
 10
20.7624075256
 20
-8.4903269763
 30
0.0
 10
20.7884238152
 20
-8.506837089
 30
0.0
 10
20.7985081031
 20
-8.5220420665
 30
0.0
 10
20.7995040127
 20
-8.5289429293
 30
0.0
  0
SPLINE
  5
334
100
AcDbEntity
  8
0
100
AcDbSpline
 62
7
  6
CONTINUOUS
 70
0
 71
3
 72
19
 73
15
 74
0
 42
0.0000001
 43
0.0000001
 44
0.0000000001
 40
0.0
 40
0.0
 40
0.0
 40
0.0
 40
0.0247154072
 40
0.0601845916
 40
0.1086762466
 40
0.1698038428
 40
0.3228454564
 40
0.5
 40
0.6771545436
 40
0.8301961572
 40
0.8913237534
 40
0.9398154084
 40
0.9752845928
 40
1.0
 40
1.0
 40
1.0
 40
1.0
 10
-0.4139597987
 20
19.0860071484
 30
0.0
 10
-0.4129277633
 20
19.0931568174
 30
0.0
 10
-0.4024775231
 20
19.1089099942
 30
0.0
 10
-0.3755206371
 20
19.126015959
 30
0.0
 10
-0.3360982791
 20
19.1421313104
 30
0.0
 10
-0.2619011347
 20
19.1622406096
 30
0.0
 10
-0.1483093056
 20
19.178430924
 30
0.0
 10
0.0
 20
19.1850164707
 30
0.0
 10
0.1483093056
 20
19.178430924
 30
0.0
 10
0.2619011347
 20
19.1622406096
 30
0.0
 10
0.3360982791
 20
19.1421313104
 30
0.0
 10
0.3755206371
 20
19.126015959
 30
0.0
 10
0.4024775231
 20
19.1089099942
 30
0.0
 10
0.4129277633
 20
19.0931568174
 30
0.0
 10
0.4139597987
 20
19.0860071484
 30
0.0
  0
SPLINE
  5
335
100
AcDbEntity
  8
0
100
AcDbSpline
 62
250
  6
CONTINUOUS
 70
0
 71
3
 72
19
 73
15
 74
0
 42
0.0000001
 43
0.0000001
 44
0.0000000001
 40
0.0
 40
0.0
 40
0.0
 40
0.0
 40
0.0247176236
 40
0.0601873034
 40
0.1086786928
 40
0.1698059609
 40
0.3228467867
 40
0.5000003947
 40
0.6771540251
 40
0.8301949099
 40
0.8913222325
 40
0.9398136919
 40
0.9752831891
 40
1.0
 40
1.0
 40
1.0
 40
1.0
 10
-0.4139597987
 20
-4.8746568638
 30
0.0
 10
-0.4129278169
 20
-4.8675064943
 30
0.0
 10
-0.4024783585
 20
-4.8517517797
 30
0.0
 10
-0.3755208603
 20
-4.8346445391
 30
0.0
 10
-0.3360982615
 20
-4.818529458
 30
0.0
 10
-0.2619011329
 20
-4.7984200546
 30
0.0
 10
-0.1483093159
 20
-4.7822296642
 30
0.0
 10
0.0000000103
 20
-4.7756442992
 30
0.0
 10
0.1483093326
 20
-4.7822300751
 30
0.0
 10
0.2619011526
 20
-4.7984207438
 30
0.0
 10
0.3360982792
 20
-4.8185303414
 30
0.0
 10
0.3755207881
 20
-4.834645672
 30
0.0
 10
0.4024780521
 20
-4.8517525516
 30
0.0
 10
0.4129277965
 20
-4.8675067373
 30
0.0
 10
0.4139597987
 20
-4.8746568638
 30
0.0
  0
SPLINE
  5
336
100
AcDbEntity
  8
0
100
AcDbSpline
 62
250
  6
CONTINUOUS
 70
0
 71
3
 72
17
 73
13
 74
0
 42
0.0000001
 43
0.0000001
 44
0.0000000001
 40
0.0
 40
0.0
 40
0.0
 40
0.0
 40
0.0718824444
 40
0.1223015091
 40
0.18313963
 40
0.3310530886
 40
0.5
 40
0.6689469114
 40
0.81686037
 40
0.8776984909
 40
0.9281175556
 40
1.0
 40
1.0
 40
1.0
 40
1.0
 10
-0.4125017207
 20
-5.5046099721
 30
0.0
 10
-0.4104100392
 20
-5.4827232154
 30
0.0
 10
-0.3834517371
 20
-5.4499435517
 30
0.0
 10
-0.3360357619
 20
-5.4215277919
 30
0.0
 10
-0.2622444946
 20
-5.3909659329
 30
0.0
 10
-0.1486945401
 20
-5.3667199113
 30
0.0
 10
-0.0
 20
-5.3566888795
 30
0.0
 10
0.1486945401
 20
-5.3667199113
 30
0.0
 10
0.2622444946
 20
-5.3909659329
 30
0.0
 10
0.3360357619
 20
-5.4215277919
 30
0.0
 10
0.3834517371
 20
-5.4499435517
 30
0.0
 10
0.4104100392
 20
-5.4827232154
 30
0.0
 10
0.4125017207
 20
-5.5046099721
 30
0.0
  0
SPLINE
  5
337
100
AcDbEntity
  8
0
100
AcDbSpline
 62
250
  6
CONTINUOUS
 70
0
 71
3
 72
17
 73
13
 74
0
 42
0.0000001
 43
0.0000001
 44
0.0000000001
 40
0.0
 40
0.0
 40
0.0
 40
0.0
 40
0.0718822503
 40
0.122301307
 40
0.183139462
 40
0.3310530662
 40
0.5000001588
 40
0.6689472207
 40
0.816860739
 40
0.8776988371
 40
0.9281178342
 40
1.0
 40
1.0
 40
1.0
 40
1.0
 10
-0.4007428896
 20
-7.9936891028
 30
0.0
 10
-0.3987108287
 20
-7.9724263331
 30
0.0
 10
-0.3725209418
 20
-7.9405812533
 30
0.0
 10
-0.3264566671
 20
-7.9129756605
 30
0.0
 10
-0.2547688946
 20
-7.8832850861
 30
0.0
 10
-0.1444558283
 20
-7.859730232
 30
0.0
 10
-0.0000000115
 20
-7.8499850154
 30
0.0
 10
0.1444558047
 20
-7.8597298529
 30
0.0
 10
0.2547688825
 20
-7.8832844162
 30
0.0
 10
0.3264566653
 20
-7.912974809
 30
0.0
 10
0.3725209467
 20
-7.9405802774
 30
0.0
 10
0.3987108348
 20
-7.9724253148
 30
0.0
 10
0.4007428941
 20
-7.9936880595
 30
0.0
  0
SPLINE
  5
338
100
AcDbEntity
  8
0
100
AcDbSpline
 62
250
  6
CONTINUOUS
 70
0
 71
3
 72
19
 73
15
 74
0
 42
0.0000001
 43
0.0000001
 44
0.0000000001
 40
0.0
 40
0.0
 40
0.0
 40
0.0
 40
0.0247153194
 40
0.0601843804
 40
0.1086758681
 40
0.1698032536
 40
0.3228443358
 40
0.4999982526
 40
0.6771521487
 40
0.8301931881
 40
0.8913204939
 40
0.9398118574
 40
0.9752816924
 40
1.0
 40
1.0
 40
1.0
 40
1.0
 10
-0.399504004
 20
-8.528939027
 30
0.0
 10
-0.3985080079
 20
-8.5220390283
 30
0.0
 10
-0.3884226936
 20
-8.5068359609
 30
0.0
 10
-0.3624071534
 20
-8.4903273474
 30
0.0
 10
-0.3243614406
 20
-8.4747747542
 30
0.0
 10
-0.252755293
 20
-8.4553676861
 30
0.0
 10
-0.1431301447
 20
-8.43974275
 30
0.0
 10
0.0000001164
 20
-8.433387197
 30
0.0
 10
0.1431303765
 20
-8.4397427317
 30
0.0
 10
0.2527554588
 20
-8.4553677791
 30
0.0
 10
0.3243615424
 20
-8.474774873
 30
0.0
 10
0.3624075256
 20
-8.4903269763
 30
0.0
 10
0.3884238152
 20
-8.506837089
 30
0.0
 10
0.3985081031
 20
-8.5220420665
 30
0.0
 10
0.3995040127
 20
-8.5289429293
 30
0.0
  0
SPLINE
  5
339
100
AcDbEntity
  8
0
100
AcDbSpline
 62
7
  6
CONTINUOUS
 70
0
 71
3
 72
19
 73
15
 74
0
 42
0.0000001
 43
0.0000001
 44
0.0000000001
 40
0.0
 40
0.0
 40
0.0
 40
0.0
 40
0.0247154072
 40
0.0601845916
 40
0.1086762466
 40
0.1698038428
 40
0.3228454564
 40
0.5
 40
0.6771545436
 40
0.8301961572
 40
0.8913237534
 40
0.9398154084
 40
0.9752845928
 40
1.0
 40
1.0
 40
1.0
 40
1.0
 10
-20.8139597987
 20
19.0860071484
 30
0.0
 10
-20.8129277633
 20
19.0931568174
 30
0.0
 10
-20.8024775231
 20
19.1089099942
 30
0.0
 10
-20.7755206371
 20
19.126015959
 30
0.0
 10
-20.7360982791
 20
19.1421313104
 30
0.0
 10
-20.6619011347
 20
19.1622406096
 30
0.0
 10
-20.5483093056
 20
19.178430924
 30
0.0
 10
-20.4
 20
19.1850164707
 30
0.0
 10
-20.2516906944
 20
19.178430924
 30
0.0
 10
-20.1380988653
 20
19.1622406096
 30
0.0
 10
-20.0639017209
 20
19.1421313104
 30
0.0
 10
-20.0244793629
 20
19.126015959
 30
0.0
 10
-19.9975224769
 20
19.1089099942
 30
0.0
 10
-19.9870722367
 20
19.0931568174
 30
0.0
 10
-19.9860402013
 20
19.0860071484
 30
0.0
  0
SPLINE
  5
33A
100
AcDbEntity
  8
0
100
AcDbSpline
 62
250
  6
CONTINUOUS
 70
0
 71
3
 72
19
 73
15
 74
0
 42
0.0000001
 43
0.0000001
 44
0.0000000001
 40
0.0
 40
0.0
 40
0.0
 40
0.0
 40
0.0247176236
 40
0.0601873034
 40
0.1086786928
 40
0.1698059609
 40
0.3228467867
 40
0.5000003947
 40
0.6771540251
 40
0.8301949099
 40
0.8913222325
 40
0.9398136919
 40
0.9752831891
 40
1.0
 40
1.0
 40
1.0
 40
1.0
 10
-20.8139597987
 20
-4.8746568638
 30
0.0
 10
-20.8129278169
 20
-4.8675064943
 30
0.0
 10
-20.8024783585
 20
-4.8517517797
 30
0.0
 10
-20.7755208603
 20
-4.8346445391
 30
0.0
 10
-20.7360982615
 20
-4.818529458
 30
0.0
 10
-20.6619011329
 20
-4.7984200546
 30
0.0
 10
-20.5483093159
 20
-4.7822296642
 30
0.0
 10
-20.3999999897
 20
-4.7756442992
 30
0.0
 10
-20.2516906674
 20
-4.7822300751
 30
0.0
 10
-20.1380988474
 20
-4.7984207438
 30
0.0
 10
-20.0639017208
 20
-4.8185303414
 30
0.0
 10
-20.0244792119
 20
-4.834645672
 30
0.0
 10
-19.9975219479
 20
-4.8517525516
 30
0.0
 10
-19.9870722035
 20
-4.8675067373
 30
0.0
 10
-19.9860402013
 20
-4.8746568638
 30
0.0
  0
SPLINE
  5
33B
100
AcDbEntity
  8
0
100
AcDbSpline
 62
250
  6
CONTINUOUS
 70
0
 71
3
 72
17
 73
13
 74
0
 42
0.0000001
 43
0.0000001
 44
0.0000000001
 40
0.0
 40
0.0
 40
0.0
 40
0.0
 40
0.0718824444
 40
0.1223015091
 40
0.18313963
 40
0.3310530886
 40
0.5
 40
0.6689469114
 40
0.81686037
 40
0.8776984909
 40
0.9281175556
 40
1.0
 40
1.0
 40
1.0
 40
1.0
 10
-20.8125017207
 20
-5.5046099721
 30
0.0
 10
-20.8104100392
 20
-5.4827232154
 30
0.0
 10
-20.7834517371
 20
-5.4499435517
 30
0.0
 10
-20.7360357619
 20
-5.4215277919
 30
0.0
 10
-20.6622444946
 20
-5.3909659329
 30
0.0
 10
-20.5486945401
 20
-5.3667199113
 30
0.0
 10
-20.4
 20
-5.3566888795
 30
0.0
 10
-20.2513054599
 20
-5.3667199113
 30
0.0
 10
-20.1377555054
 20
-5.3909659329
 30
0.0
 10
-20.0639642381
 20
-5.4215277919
 30
0.0
 10
-20.0165482629
 20
-5.4499435517
 30
0.0
 10
-19.9895899608
 20
-5.4827232154
 30
0.0
 10
-19.9874982793
 20
-5.5046099721
 30
0.0
  0
SPLINE
  5
33C
100
AcDbEntity
  8
0
100
AcDbSpline
 62
250
  6
CONTINUOUS
 70
0
 71
3
 72
17
 73
13
 74
0
 42
0.0000001
 43
0.0000001
 44
0.0000000001
 40
0.0
 40
0.0
 40
0.0
 40
0.0
 40
0.0718822503
 40
0.122301307
 40
0.183139462
 40
0.3310530662
 40
0.5000001588
 40
0.6689472207
 40
0.816860739
 40
0.8776988371
 40
0.9281178342
 40
1.0
 40
1.0
 40
1.0
 40
1.0
 10
-20.8007428896
 20
-7.9936891028
 30
0.0
 10
-20.7987108287
 20
-7.9724263331
 30
0.0
 10
-20.7725209418
 20
-7.9405812533
 30
0.0
 10
-20.7264566671
 20
-7.9129756605
 30
0.0
 10
-20.6547688946
 20
-7.8832850861
 30
0.0
 10
-20.5444558283
 20
-7.859730232
 30
0.0
 10
-20.4000000115
 20
-7.8499850154
 30
0.0
 10
-20.2555441953
 20
-7.8597298529
 30
0.0
 10
-20.1452311175
 20
-7.8832844162
 30
0.0
 10
-20.0735433347
 20
-7.912974809
 30
0.0
 10
-20.0274790533
 20
-7.9405802774
 30
0.0
 10
-20.0012891652
 20
-7.9724253148
 30
0.0
 10
-19.9992571059
 20
-7.9936880595
 30
0.0
  0
SPLINE
  5
33D
100
AcDbEntity
  8
0
100
AcDbSpline
 62
250
  6
CONTINUOUS
 70
0
 71
3
 72
19
 73
15
 74
0
 42
0.0000001
 43
0.0000001
 44
0.0000000001
 40
0.0
 40
0.0
 40
0.0
 40
0.0
 40
0.0247153194
 40
0.0601843804
 40
0.1086758681
 40
0.1698032536
 40
0.3228443358
 40
0.4999982526
 40
0.6771521487
 40
0.8301931881
 40
0.8913204939
 40
0.9398118574
 40
0.9752816924
 40
1.0
 40
1.0
 40
1.0
 40
1.0
 10
-20.799504004
 20
-8.528939027
 30
0.0
 10
-20.7985080079
 20
-8.5220390283
 30
0.0
 10
-20.7884226936
 20
-8.5068359609
 30
0.0
 10
-20.7624071534
 20
-8.4903273474
 30
0.0
 10
-20.7243614406
 20
-8.4747747542
 30
0.0
 10
-20.652755293
 20
-8.4553676861
 30
0.0
 10
-20.5431301447
 20
-8.43974275
 30
0.0
 10
-20.3999998836
 20
-8.433387197
 30
0.0
 10
-20.2568696235
 20
-8.4397427317
 30
0.0
 10
-20.1472445412
 20
-8.4553677791
 30
0.0
 10
-20.0756384576
 20
-8.474774873
 30
0.0
 10
-20.0375924744
 20
-8.4903269763
 30
0.0
 10
-20.0115761848
 20
-8.506837089
 30
0.0
 10
-20.0014918969
 20
-8.5220420665
 30
0.0
 10
-20.0004959873
 20
-8.5289429293
 30
0.0
  0
SPLINE
  5
33E
100
AcDbEntity
  8
0
100
AcDbSpline
 62
250
  6
CONTINUOUS
 70
0
 71
3
 72
18
 73
14
 74
0
 42
0.0000001
 43
0.0000001
 44
0.0000000001
 40
0.0
 40
0.0
 40
0.0
 40
0.0
 40
0.0056889946
 40
0.0207851941
 40
0.0451931735
 40
0.0787003029
 40
0.1209596918
 40
0.1715980448
 40
0.295965153
 40
0.4470950196
 40
0.6192162319
 40
0.8060110238
 40
1.0
 40
1.0
 40
1.0
 40
1.0
 10
14.5192371868
 20
20.1192295714
 30
0.0
 10
14.5196369714
 20
20.1196343953
 30
0.0
 10
14.5192787175
 20
20.122042358
 30
0.0
 10
14.5199818179
 20
20.1262559703
 30
0.0
 10
14.5199476351
 20
20.1337187658
 30
0.0
 10
14.5202917064
 20
20.1436639456
 30
0.0
 10
14.5204728837
 20
20.1563303796
 30
0.0
 10
14.5207989818
 20
20.1780446549
 30
0.0
 10
14.5211141459
 20
20.2106675002
 30
0.0
 10
14.5214282842
 20
20.2554295685
 30
0.0
 10
14.5216574752
 20
20.3064397015
 30
0.0
 10
14.5218004393
 20
20.3617351519
 30
0.0
 10
14.5218323773
 20
20.3998173475
 30
0.0
 10
14.5218324005
 20
20.4192181483
 30
0.0
  0
SPLINE
  5
33F
100
AcDbEntity
  8
0
100
AcDbSpline
 62
250
  6
CONTINUOUS
 70
0
 71
3
 72
18
 73
14
 74
0
 42
0.0000001
 43
0.0000001
 44
0.0000000001
 40
0.0
 40
0.0
 40
0.0
 40
0.0
 40
0.1939347581
 40
0.38062348
 40
0.5527249908
 40
0.7038816085
 40
0.8282875396
 40
0.8789428736
 40
0.9212335339
 40
0.954770052
 40
0.9791912349
 40
0.9943022764
 40
1.0
 40
1.0
 40
1.0
 40
1.0
 10
14.5218324005
 20
-20.4192181483
 30
0.0
 10
14.5218323819
 20
-20.3998227715
 30
0.0
 10
14.5218005195
 20
-20.3617566099
 30
0.0
 10
14.5216575877
 20
-20.3064791634
 30
0.0
 10
14.5214285374
 20
-20.2554789421
 30
0.0
 10
14.5211145093
 20
-20.2107122763
 30
0.0
 10
14.520799448
 20
-20.1780812062
 30
0.0
 10
14.520473333
 20
-20.1563581772
 30
0.0
 10
14.520292079
 20
-20.1436840693
 30
0.0
 10
14.5199481129
 20
-20.1337312722
 30
0.0
 10
14.5199817206
 20
-20.1262632972
 30
0.0
 10
14.5192788929
 20
-20.1220450766
 30
0.0
 10
14.5196369577
 20
-20.1196356347
 30
0.0
 10
14.5192371868
 20
-20.1192295714
 30
0.0
  0
SPLINE
  5
340
100
AcDbEntity
  8
0
100
AcDbSpline
 62
250
  6
CONTINUOUS
 70
0
 71
3
 72
12
 73
8
 74
0
 42
0.0000001
 43
0.0000001
 44
0.0000000001
 40
0.0
 40
0.0
 40
0.0
 40
0.0
 40
0.0388421678
 40
0.1036945912
 40
0.3208895356
 40
0.6341631574
 40
1.0
 40
1.0
 40
1.0
 40
1.0
 10
-27.6195442834
 20
18.790337307
 30
0.0
 10
-27.6192812047
 20
18.7876677991
 30
0.0
 10
-27.6139195417
 20
18.7816961476
 30
0.0
 10
-27.5939729236
 20
18.7726191086
 30
0.0
 10
-27.5531897924
 20
18.7638133954
 30
0.0
 10
-27.4918201953
 20
18.7571942654
 30
0.0
 10
-27.4448393267
 20
18.7555594492
 30
0.0
 10
-27.4195747444
 20
18.7554862685
 30
0.0
  0
SPLINE
  5
341
100
AcDbEntity
  8
0
100
AcDbSpline
 62
250
  6
CONTINUOUS
 70
0
 71
3
 72
18
 73
14
 74
0
 42
0.0000001
 43
0.0000001
 44
0.0000000001
 40
0.0
 40
0.0
 40
0.0
 40
0.0
 40
0.1940516518
 40
0.380842608
 40
0.5530284193
 40
0.7041913697
 40
0.8285204216
 40
0.8791173635
 40
0.9213548164
 40
0.9548272928
 40
0.9792279997
 40
0.9943186456
 40
1.0
 40
1.0
 40
1.0
 40
1.0
 10
18.4781675995
 20
20.4192181483
 30
0.0
 10
18.4781676167
 20
20.3998110769
 30
0.0
 10
18.4781994999
 20
20.3617229911
 30
0.0
 10
18.4783426302
 20
20.3064151921
 30
0.0
 10
18.4785718924
 20
20.2553956569
 30
0.0
 10
18.4788862585
 20
20.2106276524
 30
0.0
 10
18.4792012277
 20
20.1780093685
 30
0.0
 10
18.4795276544
 20
20.1563053446
 30
0.0
 10
18.4797084308
 20
20.1436484736
 30
0.0
 10
18.4800530208
 20
20.1337102886
 30
0.0
 10
18.4800173353
 20
20.1262507482
 30
0.0
 10
18.480722355
 20
20.1220419138
 30
0.0
 10
18.4803621073
 20
20.1196324065
 30
0.0
 10
18.4807628132
 20
20.1192295714
 30
0.0
  0
SPLINE
  5
342
100
AcDbEntity
  8
0
100
AcDbSpline
 62
250
  6
CONTINUOUS
 70
0
 71
3
 72
9
 73
5
 74
0
 42
0.0000001
 43
0.0000001
 44
0.0000000001
 40
0.0
 40
0.0
 40
0.0
 40
0.0
 40
0.2483125947
 40
1.0
 40
1.0
 40
1.0
 40
1.0
 10
27.5677722489
 20
-20.1225138623
 30
0.0
 10
27.553133232
 20
-16.9045579228
 30
0.0
 10
27.4966095781
 20
-3.9452528837
 30
0.0
 10
27.4496539609
 20
9.0140937639
 30
0.0
 10
27.4195759151
 20
18.7554862685
 30
0.0
  0
SPLINE
  5
343
100
AcDbEntity
  8
0
100
AcDbSpline
 62
250
  6
CONTINUOUS
 70
0
 71
3
 72
18
 73
14
 74
0
 42
0.0000001
 43
0.0000001
 44
0.0000000001
 40
0.0
 40
0.0
 40
0.0
 40
0.0
 40
0.0056935511
 40
0.0208062393
 40
0.0452455396
 40
0.0787935687
 40
0.1211045287
 40
0.1718034696
 40
0.2962736876
 40
0.4474318126
 40
0.619509158
 40
0.8060484974
 40
1.0
 40
1.0
 40
1.0
 40
1.0
 10
18.4807628132
 20
-20.1192295714
 30
0.0
 10
18.4803625244
 20
-20.1196345377
 30
0.0
 10
18.4807216139
 20
-20.1220453486
 30
0.0
 10
18.4800174306
 20
-20.1262634616
 30
0.0
 10
18.4800521035
 20
-20.13373556
 30
0.0
 10
18.4797076318
 20
-20.1436929362
 30
0.0
 10
18.4795264302
 20
-20.1563747469
 30
0.0
 10
18.4792002315
 20
-20.1781105234
 30
0.0
 10
18.4788851434
 20
-20.2107525827
 30
0.0
 10
18.4785711623
 20
-20.2555233999
 30
0.0
 10
18.4783423724
 20
-20.3065064262
 30
0.0
 10
18.4781993892
 20
-20.3617681944
 30
0.0
 10
18.4781676073
 20
-20.3998210951
 30
0.0
 10
18.4781675995
 20
-20.4192181483
 30
0.0
  0
SPLINE
  5
344
100
AcDbEntity
  8
0
100
AcDbSpline
 62
250
  6
CONTINUOUS
 70
0
 71
3
 72
9
 73
5
 74
0
 42
0.0000001
 43
0.0000001
 44
0.0000000001
 40
0.0
 40
0.0
 40
0.0
 40
0.0
 40
0.2515857993
 40
1.0
 40
1.0
 40
1.0
 40
1.0
 10
-27.4195769334
 20
18.7554862685
 30
0.0
 10
-27.429643902
 20
15.4950937128
 30
0.0
 10
-27.4719793524
 20
2.5357345974
 30
0.0
 10
-27.5236568188
 20
-10.4235941392
 30
0.0
 10
-27.5677788307
 20
-20.1225138623
 30
0.0
  0
SPLINE
  5
345
100
AcDbEntity
  8
0
100
AcDbSpline
 62
250
  6
CONTINUOUS
 70
0
 71
3
 72
18
 73
14
 74
0
 42
0.0000001
 43
0.0000001
 44
0.0000000001
 40
0.0
 40
0.0
 40
0.0
 40
0.0
 40
0.1940516518
 40
0.380842608
 40
0.5530284193
 40
0.7041913697
 40
0.8285204216
 40
0.8791173635
 40
0.9213548164
 40
0.9548272928
 40
0.9792279997
 40
0.9943186456
 40
1.0
 40
1.0
 40
1.0
 40
1.0
 10
-14.5218324005
 20
20.4192181483
 30
0.0
 10
-14.5218323833
 20
20.3998110769
 30
0.0
 10
-14.5218005001
 20
20.3617229911
 30
0.0
 10
-14.5216573698
 20
20.3064151921
 30
0.0
 10
-14.5214281076
 20
20.2553956569
 30
0.0
 10
-14.5211137415
 20
20.2106276524
 30
0.0
 10
-14.5207987723
 20
20.1780093685
 30
0.0
 10
-14.5204723456
 20
20.1563053446
 30
0.0
 10
-14.5202915692
 20
20.1436484736
 30
0.0
 10
-14.5199469792
 20
20.1337102886
 30
0.0
 10
-14.5199826647
 20
20.1262507482
 30
0.0
 10
-14.519277645
 20
20.1220419138
 30
0.0
 10
-14.5196378927
 20
20.1196324065
 30
0.0
 10
-14.5192371868
 20
20.1192295714
 30
0.0
  0
SPLINE
  5
346
100
AcDbEntity
  8
0
100
AcDbSpline
 62
250
  6
CONTINUOUS
 70
0
 71
3
 72
18
 73
14
 74
0
 42
0.0000001
 43
0.0000001
 44
0.0000000001
 40
0.0
 40
0.0
 40
0.0
 40
0.0
 40
0.0056935511
 40
0.0208062393
 40
0.0452455396
 40
0.0787935687
 40
0.1211045287
 40
0.1718034696
 40
0.2962736876
 40
0.4474318126
 40
0.619509158
 40
0.8060484974
 40
1.0
 40
1.0
 40
1.0
 40
1.0
 10
-14.5192371868
 20
-20.1192295714
 30
0.0
 10
-14.5196374756
 20
-20.1196345377
 30
0.0
 10
-14.5192783861
 20
-20.1220453486
 30
0.0
 10
-14.5199825694
 20
-20.1262634616
 30
0.0
 10
-14.5199478965
 20
-20.13373556
 30
0.0
 10
-14.5202923682
 20
-20.1436929362
 30
0.0
 10
-14.5204735698
 20
-20.1563747469
 30
0.0
 10
-14.5207997685
 20
-20.1781105234
 30
0.0
 10
-14.5211148566
 20
-20.2107525827
 30
0.0
 10
-14.5214288377
 20
-20.2555233999
 30
0.0
 10
-14.5216576276
 20
-20.3065064262
 30
0.0
 10
-14.5218006108
 20
-20.3617681944
 30
0.0
 10
-14.5218323927
 20
-20.3998210951
 30
0.0
 10
-14.5218324005
 20
-20.4192181483
 30
0.0
  0
SPLINE
  5
347
100
AcDbEntity
  8
0
100
AcDbSpline
 62
250
  6
CONTINUOUS
 70
0
 71
3
 72
18
 73
14
 74
0
 42
0.0000001
 43
0.0000001
 44
0.0000000001
 40
0.0
 40
0.0
 40
0.0
 40
0.0
 40
0.0056889946
 40
0.0207851941
 40
0.0451931735
 40
0.0787003029
 40
0.1209596918
 40
0.1715980448
 40
0.295965153
 40
0.4470950196
 40
0.6192162319
 40
0.8060110238
 40
1.0
 40
1.0
 40
1.0
 40
1.0
 10
-18.4807628132
 20
20.1192295714
 30
0.0
 10
-18.4803630286
 20
20.1196343953
 30
0.0
 10
-18.4807212825
 20
20.122042358
 30
0.0
 10
-18.4800181821
 20
20.1262559703
 30
0.0
 10
-18.4800523649
 20
20.1337187658
 30
0.0
 10
-18.4797082936
 20
20.1436639456
 30
0.0
 10
-18.4795271163
 20
20.1563303796
 30
0.0
 10
-18.4792010182
 20
20.1780446549
 30
0.0
 10
-18.4788858541
 20
20.2106675002
 30
0.0
 10
-18.4785717158
 20
20.2554295685
 30
0.0
 10
-18.4783425248
 20
20.3064397015
 30
0.0
 10
-18.4781995607
 20
20.3617351519
 30
0.0
 10
-18.4781676227
 20
20.3998173475
 30
0.0
 10
-18.4781675995
 20
20.4192181483
 30
0.0
  0
SPLINE
  5
348
100
AcDbEntity
  8
0
100
AcDbSpline
 62
250
  6
CONTINUOUS
 70
0
 71
3
 72
18
 73
14
 74
0
 42
0.0000001
 43
0.0000001
 44
0.0000000001
 40
0.0
 40
0.0
 40
0.0
 40
0.0
 40
0.1939347581
 40
0.38062348
 40
0.5527249908
 40
0.7038816085
 40
0.8282875396
 40
0.8789428736
 40
0.9212335339
 40
0.954770052
 40
0.9791912349
 40
0.9943022764
 40
1.0
 40
1.0
 40
1.0
 40
1.0
 10
-18.4781675995
 20
-20.4192181483
 30
0.0
 10
-18.4781676181
 20
-20.3998227715
 30
0.0
 10
-18.4781994805
 20
-20.3617566099
 30
0.0
 10
-18.4783424123
 20
-20.3064791634
 30
0.0
 10
-18.4785714626
 20
-20.2554789421
 30
0.0
 10
-18.4788854907
 20
-20.2107122763
 30
0.0
 10
-18.479200552
 20
-20.1780812062
 30
0.0
 10
-18.479526667
 20
-20.1563581772
 30
0.0
 10
-18.479707921
 20
-20.1436840693
 30
0.0
 10
-18.4800518871
 20
-20.1337312722
 30
0.0
 10
-18.4800182794
 20
-20.1262632972
 30
0.0
 10
-18.4807211071
 20
-20.1220450766
 30
0.0
 10
-18.4803630423
 20
-20.1196356347
 30
0.0
 10
-18.4807628132
 20
-20.1192295714
 30
0.0
  0
ELLIPSE
  5
349
100
AcDbEntity
  8
0
100
AcDbEllipse
 62
7
  6
CONTINUOUS
 10
28.999923836
 20
22.849313827
 30
0.0
 11
0.1582391023
 21
0.4751033573
 31
0.0
 40
0.9984778551
 41
-1.2488325878
 42
0.3210503505
  0
ELLIPSE
  5
34A
100
AcDbEntity
  8
0
100
AcDbEllipse
 62
7
  6
CONTINUOUS
 10
28.999923836
 20
-22.849313827
 30
0.0
 11
-0.1582391023
 21
0.4751033573
 31
0.0
 40
0.9984778551
 41
2.8205423031
 42
4.3904252414
  0
ELLIPSE
  5
34B
100
AcDbEntity
  8
0
100
AcDbEllipse
 62
7
  6
CONTINUOUS
 10
-28.999923836
 20
-22.849313827
 30
0.0
 11
-0.1582391023
 21
-0.4751033573
 31
0.0
 40
0.9984778551
 41
-1.2488325878
 42
0.3210503505
  0
ELLIPSE
  5
34C
100
AcDbEntity
  8
0
100
AcDbEllipse
 62
7
  6
CONTINUOUS
 10
-28.999923836
 20
22.849313827
 30
0.0
 11
0.1582391023
 21
-0.4751033573
 31
0.0
 40
0.9984778551
 41
2.8205423031
 42
4.3904252414
  0
ELLIPSE
  5
34D
100
AcDbEntity
  8
0
100
AcDbEllipse
 62
7
  6
CONTINUOUS
 10
-9.7255551149
 20
20.0534383262
 30
0.0
 11
0.5184610347
 21
-0.0198987725
 31
0.0
 40
0.2666525449
 41
1.7137488789
 42
2.4756413315
  0
ELLIPSE
  5
34E
100
AcDbEntity
  8
0
100
AcDbEllipse
 62
7
  6
CONTINUOUS
 10
9.7255551149
 20
20.0534383262
 30
0.0
 11
0.5184610347
 21
0.0198987725
 31
0.0
 40
0.2666525449
 41
0.6659513221
 42
1.4278437747
  0
ELLIPSE
  5
34F
100
AcDbEntity
  8
0
100
AcDbEllipse
 62
7
  6
CONTINUOUS
 10
-26.7837149747
 20
19.2835740045
 30
0.0
 11
0.5625171826
 21
-0.1508010893
 31
0.0
 40
0.4324648683
 41
2.1257159162
 42
3.2570136827
  0
ELLIPSE
  5
350
100
AcDbEntity
  8
0
100
AcDbEllipse
 62
7
  6
CONTINUOUS
 10
26.7837149747
 20
19.2835740045
 30
0.0
 11
0.5625171826
 21
0.1508010893
 31
0.0
 40
0.4324648683
 41
-0.1154210291
 42
1.0158767374
  0
ELLIPSE
  5
351
100
AcDbEntity
  8
0
100
AcDbEllipse
 62
7
  6
CONTINUOUS
 10
26.7837149747
 20
19.345270133
 30
0.0
 11
0.5662295817
 21
-0.0334178581
 31
0.0
 40
0.2371205997
 41
-1.3268576108
 42
0.0139935206
  0
ELLIPSE
  5
352
100
AcDbEntity
  8
0
100
AcDbEllipse
 62
7
  6
CONTINUOUS
 10
-27.5999695344
 20
20.5997255308
 30
0.0
 11
-0.0632956409
 21
0.1900413429
 31
0.0
 40
0.9984778551
 41
-0.3210503505
 42
1.2488325878
  0
ELLIPSE
  5
353
100
AcDbEntity
  8
0
100
AcDbEllipse
 62
7
  6
CONTINUOUS
 10
-21.6399569269
 20
21.7399569269
 30
0.0
 11
0.3536610946
 21
-0.3536610946
 31
0.0
 40
0.9996954599
 41
2.3563467834
 42
3.9268385237
  0
ELLIPSE
  5
354
100
AcDbEntity
  8
0
100
AcDbEllipse
 62
7
  6
CONTINUOUS
 10
21.6399569269
 20
21.7399569269
 30
0.0
 11
0.3536610946
 21
0.3536610946
 31
0.0
 40
0.9996954599
 41
-0.7852458701
 42
0.7852458701
  0
ELLIPSE
  5
355
100
AcDbEntity
  8
0
100
AcDbEllipse
 62
7
  6
CONTINUOUS
 10
-21.6399569269
 20
-21.7399569269
 30
0.0
 11
-0.3536610946
 21
-0.3536610946
 31
0.0
 40
0.9996954599
 41
-0.7852458701
 42
0.7852458701
  0
ELLIPSE
  5
356
100
AcDbEntity
  8
0
100
AcDbEllipse
 62
7
  6
CONTINUOUS
 10
21.6399569269
 20
-21.7399569269
 30
0.0
 11
-0.3536610946
 21
0.3536610946
 31
0.0
 40
0.9996954599
 41
2.3563467834
 42
3.9268385237
  0
ELLIPSE
  5
357
100
AcDbEntity
  8
0
100
AcDbEllipse
 62
7
  6
CONTINUOUS
 10
27.5999695344
 20
20.5997255308
 30
0.0
 11
0.0632956409
 21
0.1900413429
 31
0.0
 40
0.9984778551
 41
-1.2488325878
 42
0.3210503505
  0
ELLIPSE
  5
358
100
AcDbEntity
  8
0
100
AcDbEllipse
 62
7
  6
CONTINUOUS
 10
27.5999695344
 20
-20.1687060826
 30
0.0
 11
-0.0632956409
 21
0.1900413429
 31
0.0
 40
0.9984778551
 41
-3.4626430041
 42
-1.8927600658
  0
ELLIPSE
  5
359
100
AcDbEntity
  8
0
100
AcDbEllipse
 62
7
  6
CONTINUOUS
 10
18.3986443395
 20
20.0013556605
 30
0.0
 11
-0.0817242817
 21
0.1921446883
 31
0.0
 40
0.9508138638
 41
-3.5258920419
 42
-1.9551718675
  0
ELLIPSE
  5
35A
100
AcDbEntity
  8
0
100
AcDbEllipse
 62
7
  6
CONTINUOUS
 10
14.6013556605
 20
20.0013556605
 30
0.0
 11
0.0817242817
 21
0.1921446883
 31
0.0
 40
0.9508138638
 41
-4.3280134397
 42
-2.7572932653
  0
ELLIPSE
  5
35B
100
AcDbEntity
  8
0
100
AcDbEllipse
 62
7
  6
CONTINUOUS
 10
20.4
 20
-20.3835214325
 30
0.0
 11
0.3997475194
 21
-0.0
 31
0.0
 40
0.054727278
 41
-3.1066860685
 42
-0.034906585
  0
ELLIPSE
  5
35C
100
AcDbEntity
  8
0
100
AcDbEllipse
 62
7
  6
CONTINUOUS
 10
-0.0
 20
-20.3835214325
 30
0.0
 11
0.3997475194
 21
-0.0
 31
0.0
 40
0.054727278
 41
-3.1066860685
 42
-0.034906585
  0
ELLIPSE
  5
35D
100
AcDbEntity
  8
0
100
AcDbEllipse
 62
7
  6
CONTINUOUS
 10
-20.4
 20
-20.3835214325
 30
0.0
 11
0.3997475194
 21
-0.0
 31
0.0
 40
0.054727278
 41
-3.1066860685
 42
-0.034906585
  0
ELLIPSE
  5
35E
100
AcDbEntity
  8
0
100
AcDbEllipse
 62
7
  6
CONTINUOUS
 10
-14.6013556605
 20
20.0013556605
 30
0.0
 11
-0.0817242817
 21
0.1921446883
 31
0.0
 40
0.9508138638
 41
-3.5258920419
 42
-1.9551718675
  0
ELLIPSE
  5
35F
100
AcDbEntity
  8
0
100
AcDbEllipse
 62
7
  6
CONTINUOUS
 10
-18.3986443395
 20
20.0013556605
 30
0.0
 11
0.0817242817
 21
0.1921446883
 31
0.0
 40
0.9508138638
 41
-4.3280134397
 42
-2.7572932653
  0
ELLIPSE
  5
360
100
AcDbEntity
  8
0
100
AcDbEllipse
 62
7
  6
CONTINUOUS
 10
14.440271535
 20
-20.0720554372
 30
0.0
 11
0.0
 21
0.2
 31
0.0
 40
0.0087268678
 41
-4.4573407018
 42
-3.1939525312
  0
ELLIPSE
  5
361
100
AcDbEntity
  8
0
100
AcDbEllipse
 62
7
  6
CONTINUOUS
 10
3.4797018334
 20
105.5694231657
 30
0.0
 11
-4.2136799623
 21
498.1999795448
 31
0.0
 40
0.0338810525
 41
-1.8261311648
 42
-1.746232224
  0
ELLIPSE
  5
362
100
AcDbEntity
  8
0
100
AcDbEllipse
 62
7
  6
CONTINUOUS
 10
-3.4797018334
 20
105.5694231657
 30
0.0
 11
4.2136799623
 21
498.1999795448
 31
0.0
 40
0.0338810525
 41
-4.5369530832
 42
-4.4570541424
  0
ELLIPSE
  5
363
100
AcDbEntity
  8
0
100
AcDbEllipse
 62
7
  6
CONTINUOUS
 10
18.559728465
 20
-20.0720554372
 30
0.0
 11
-0.0
 21
0.2
 31
0.0
 40
0.0087268678
 41
-3.089232776
 42
-1.8258446053
  0
ELLIPSE
  5
364
100
AcDbEntity
  8
0
100
AcDbEllipse
 62
7
  6
CONTINUOUS
 10
14.354335911
 20
105.5694231657
 30
0.0
 11
0.0
 21
498.2
 31
0.0
 40
0.0087268678
 41
-1.8258446053
 42
-1.8256700956
  0
ELLIPSE
  5
365
100
AcDbEntity
  8
0
100
AcDbEllipse
 62
7
  6
CONTINUOUS
 10
21.749923836
 20
21.849923836
 30
0.0
 11
0.3536610946
 21
0.3536610946
 31
0.0
 40
0.9996954599
 41
-0.7852458701
 42
0.7852458701
  0
ELLIPSE
  5
366
100
AcDbEntity
  8
0
100
AcDbEllipse
 62
7
  6
CONTINUOUS
 10
21.749923836
 20
-21.849923836
 30
0.0
 11
0.3536610946
 21
-0.3536610946
 31
0.0
 40
0.9996954599
 41
-0.7852458701
 42
0.7852458701
  0
ELLIPSE
  5
367
100
AcDbEntity
  8
0
100
AcDbEllipse
 62
7
  6
CONTINUOUS
 10
14.7218247852
 20
21.45
 30
0.0
 11
0.0
 21
0.2
 31
0.0
 40
1.0
 41
-4.7036623341
 42
-3.1415926536
  0
ELLIPSE
  5
368
100
AcDbEntity
  8
0
100
AcDbEllipse
 62
7
  6
CONTINUOUS
 10
18.2781752148
 20
21.45
 30
0.0
 11
-0.0
 21
0.2
 31
0.0
 40
1.0
 41
-3.1415926536
 42
-1.5795229731
  0
ELLIPSE
  5
369
100
AcDbEntity
  8
0
100
AcDbEllipse
 62
7
  6
CONTINUOUS
 10
18.645664089
 20
105.5694231657
 30
0.0
 11
0.0
 21
498.2
 31
0.0
 40
0.0087268678
 41
-4.4575152115
 42
-4.4573407018
  0
ELLIPSE
  5
36A
100
AcDbEntity
  8
0
100
AcDbEllipse
 62
7
  6
CONTINUOUS
 10
14.7218247852
 20
-21.3966666667
 30
0.0
 11
0.2
 21
-0.0
 31
0.0
 40
0.7333333333
 41
1.5707963268
 42
3.1328660073
  0
ELLIPSE
  5
36B
100
AcDbEntity
  8
0
100
AcDbEllipse
 62
7
  6
CONTINUOUS
 10
18.2781752148
 20
-21.3966666667
 30
0.0
 11
0.2
 21
-0.0
 31
0.0
 40
0.7333333333
 41
0.0087266463
 42
1.5707963268
  0
ELLIPSE
  5
36C
100
AcDbEntity
  8
0
100
AcDbEllipse
 62
7
  6
CONTINUOUS
 10
-16.9202981666
 20
105.5694231657
 30
0.0
 11
-4.2136799623
 21
498.1999795448
 31
0.0
 40
0.0338810525
 41
-1.8261311648
 42
-1.746232224
  0
ELLIPSE
  5
36D
100
AcDbEntity
  8
0
100
AcDbEllipse
 62
7
  6
CONTINUOUS
 10
-21.749923836
 20
-21.849923836
 30
0.0
 11
0.3536610946
 21
0.3536610946
 31
0.0
 40
0.9996954599
 41
2.3563467834
 42
3.9268385237
  0
ELLIPSE
  5
36E
100
AcDbEntity
  8
0
100
AcDbEllipse
 62
7
  6
CONTINUOUS
 10
-21.749923836
 20
21.849923836
 30
0.0
 11
0.3536610946
 21
-0.3536610946
 31
0.0
 40
0.9996954599
 41
2.3563467834
 42
3.9268385237
  0
ELLIPSE
  5
36F
100
AcDbEntity
  8
0
100
AcDbEllipse
 62
7
  6
CONTINUOUS
 10
37.3202981666
 20
105.5694231657
 30
0.0
 11
4.2136799623
 21
498.1999795448
 31
0.0
 40
0.0338810525
 41
-4.5369530832
 42
-4.4570541424
  0
ELLIPSE
  5
370
100
AcDbEntity
  8
0
100
AcDbEllipse
 62
7
  6
CONTINUOUS
 10
-14.354335911
 20
105.5694231657
 30
0.0
 11
0.0
 21
498.2
 31
0.0
 40
0.0087268678
 41
-4.4575152115
 42
-4.4573407018
  0
ELLIPSE
  5
371
100
AcDbEntity
  8
0
100
AcDbEllipse
 62
7
  6
CONTINUOUS
 10
-14.440271535
 20
-20.0720554372
 30
0.0
 11
-0.0
 21
0.2
 31
0.0
 40
0.0087268678
 41
-3.089232776
 42
-1.8258446053
  0
ELLIPSE
  5
372
100
AcDbEntity
  8
0
100
AcDbEllipse
 62
7
  6
CONTINUOUS
 10
-37.3202981666
 20
105.5694231657
 30
0.0
 11
-4.2136799623
 21
498.1999795448
 31
0.0
 40
0.0338810525
 41
-1.8261311648
 42
-1.746232224
  0
ELLIPSE
  5
373
100
AcDbEntity
  8
0
100
AcDbEllipse
 62
7
  6
CONTINUOUS
 10
16.9202981666
 20
105.5694231657
 30
0.0
 11
4.2136799623
 21
498.1999795448
 31
0.0
 40
0.0338810525
 41
-4.5369530832
 42
-4.4570541424
  0
ELLIPSE
  5
374
100
AcDbEntity
  8
0
100
AcDbEllipse
 62
7
  6
CONTINUOUS
 10
-18.645664089
 20
105.5694231657
 30
0.0
 11
0.0
 21
498.2
 31
0.0
 40
0.0087268678
 41
-1.8258446053
 42
-1.8256700956
  0
ELLIPSE
  5
375
100
AcDbEntity
  8
0
100
AcDbEllipse
 62
7
  6
CONTINUOUS
 10
-18.559728465
 20
-20.0720554372
 30
0.0
 11
0.0
 21
0.2
 31
0.0
 40
0.0087268678
 41
-4.4573407018
 42
-3.1939525312
  0
ELLIPSE
  5
376
100
AcDbEntity
  8
0
100
AcDbEllipse
 62
7
  6
CONTINUOUS
 10
-26.7837149747
 20
19.345270133
 30
0.0
 11
0.5662295817
 21
0.0334178581
 31
0.0
 40
0.2371205997
 41
3.127599133
 42
4.4684502644
  0
ELLIPSE
  5
377
100
AcDbEntity
  8
0
100
AcDbEllipse
 62
7
  6
CONTINUOUS
 10
-18.2781752148
 20
21.45
 30
0.0
 11
0.0
 21
0.2
 31
0.0
 40
1.0
 41
-4.7036623341
 42
-3.1415926536
  0
ELLIPSE
  5
378
100
AcDbEntity
  8
0
100
AcDbEllipse
 62
7
  6
CONTINUOUS
 10
-14.7218247852
 20
21.45
 30
0.0
 11
0.0
 21
0.2
 31
0.0
 40
1.0
 41
-3.1415926536
 42
-1.5795229731
  0
ELLIPSE
  5
379
100
AcDbEntity
  8
0
100
AcDbEllipse
 62
7
  6
CONTINUOUS
 10
-18.2781752148
 20
-21.3966666667
 30
0.0
 11
0.2
 21
-0.0
 31
0.0
 40
0.7333333333
 41
1.5707963268
 42
3.1328660073
  0
ELLIPSE
  5
37A
100
AcDbEntity
  8
0
100
AcDbEllipse
 62
7
  6
CONTINUOUS
 10
-14.7218247852
 20
-21.3966666667
 30
0.0
 11
0.2
 21
-0.0
 31
0.0
 40
0.7333333333
 41
0.0087266463
 42
1.5707963268
  0
ELLIPSE
  5
37B
100
AcDbEntity
  8
0
100
AcDbEllipse
 62
7
  6
CONTINUOUS
 10
-19.9713729729
 20
18.790337307
 30
0.0
 11
-0.0016915616
 21
0.1999999918
 31
0.0
 40
0.0338810525
 41
-1.746232224
 42
-0.2446326547
  0
ELLIPSE
  5
37C
100
AcDbEntity
  8
0
100
AcDbEllipse
 62
7
  6
CONTINUOUS
 10
-19.9307508781
 20
-20.0720554372
 30
0.0
 11
-0.0016915616
 21
0.1999999918
 31
0.0
 40
0.0338810525
 41
-3.0895193355
 42
-1.8261311648
  0
ELLIPSE
  5
37D
100
AcDbEntity
  8
0
100
AcDbEllipse
 62
7
  6
CONTINUOUS
 10
-20.8692491219
 20
-20.0720554372
 30
0.0
 11
0.0016915616
 21
0.1999999918
 31
0.0
 40
0.0338810525
 41
-4.4570541424
 42
-3.1936659717
  0
ELLIPSE
  5
37E
100
AcDbEntity
  8
0
100
AcDbEllipse
 62
7
  6
CONTINUOUS
 10
19.9307508781
 20
-20.0720554372
 30
0.0
 11
0.0016915616
 21
0.1999999918
 31
0.0
 40
0.0338810525
 41
-4.4570541424
 42
-3.1936659717
  0
ELLIPSE
  5
37F
100
AcDbEntity
  8
0
100
AcDbEllipse
 62
7
  6
CONTINUOUS
 10
19.9713729729
 20
18.790337307
 30
0.0
 11
0.0016915616
 21
0.1999999918
 31
0.0
 40
0.0338810525
 41
0.2446326547
 42
1.746232224
  0
ELLIPSE
  5
380
100
AcDbEntity
  8
0
100
AcDbEllipse
 62
7
  6
CONTINUOUS
 10
20.8286270271
 20
18.790337307
 30
0.0
 11
-0.0016915616
 21
0.1999999918
 31
0.0
 40
0.0338810525
 41
-1.746232224
 42
-0.2446326547
  0
ELLIPSE
  5
381
100
AcDbEntity
  8
0
100
AcDbEllipse
 62
7
  6
CONTINUOUS
 10
20.8692491219
 20
-20.0720554372
 30
0.0
 11
-0.0016915616
 21
0.1999999918
 31
0.0
 40
0.0338810525
 41
-3.0895193355
 42
-1.8261311648
  0
ELLIPSE
  5
382
100
AcDbEntity
  8
0
100
AcDbEllipse
 62
7
  6
CONTINUOUS
 10
-0.4692491219
 20
-20.0720554372
 30
0.0
 11
0.0016915616
 21
0.1999999918
 31
0.0
 40
0.0338810525
 41
-4.4570541424
 42
-3.1936659717
  0
ELLIPSE
  5
383
100
AcDbEntity
  8
0
100
AcDbEllipse
 62
7
  6
CONTINUOUS
 10
-0.4286270271
 20
18.790337307
 30
0.0
 11
0.0016915616
 21
0.1999999918
 31
0.0
 40
0.0338810525
 41
0.2446326547
 42
1.746232224
  0
ELLIPSE
  5
384
100
AcDbEntity
  8
0
100
AcDbEllipse
 62
7
  6
CONTINUOUS
 10
0.4692491219
 20
-20.0720554372
 30
0.0
 11
-0.0016915616
 21
0.1999999918
 31
0.0
 40
0.0338810525
 41
-3.0895193355
 42
-1.8261311648
  0
ELLIPSE
  5
385
100
AcDbEntity
  8
0
100
AcDbEllipse
 62
7
  6
CONTINUOUS
 10
0.4286270271
 20
18.790337307
 30
0.0
 11
-0.0016915616
 21
0.1999999918
 31
0.0
 40
0.0338810525
 41
-1.746232224
 42
-0.2446326547
  0
ELLIPSE
  5
386
100
AcDbEntity
  8
0
100
AcDbEllipse
 62
7
  6
CONTINUOUS
 10
-20.8286270271
 20
18.790337307
 30
0.0
 11
0.0016915616
 21
0.1999999918
 31
0.0
 40
0.0338810525
 41
0.2446326547
 42
1.746232224
  0
ENDSEC
  0
SECTION
  2
OBJECTS
  0
DICTIONARY
  5
C
100
AcDbDictionary
280
0
281
1
  3
ACAD_GROUP
350
D
  3
ACAD_MLINESTYLE
350
17
  3
ACAD_LAYOUT
350
1A
  3
ACAD_PLOTSETTINGS
350
19
  3
ACAD_PLOTSTYLENAME
350
E
  0
DICTIONARY
  5
D
102
{ACAD_REACTORS
330
C
102
}
100
AcDbDictionary
280
0
281
1
  0
ACDBDICTIONARYWDFLT
  5
E
102
{ACAD_REACTORS
330
C
102
}
100
AcDbDictionary
281
1
  3
Normal
350
F
100
AcDbDictionaryWithDefault
340
F
  0
DICTIONARY
  5
17
102
{ACAD_REACTORS
330
C
102
}
100
AcDbDictionary
280
0
281
1
  3
Standard
350
18
  0
DICTIONARY
  5
19
102
{ACAD_REACTORS
330
C
102
}
100
AcDbDictionary
281
1
  0
DICTIONARY
  5
1A
102
{ACAD_REACTORS
330
C
102
}
100
AcDbDictionary
281
1
  3
Model
350
387
  3
Layout1
350
388
  0
ACDBPLACEHOLDER
  5
F
102
{ACAD_REACTORS
330
E
102
}
  0
MLINESTYLE
  5
18
102
{ACAD_REACTORS
330
17
102
}
100
AcDbMlineStyle
  2
STANDARD
 70
0
  3

 62
256
 51
90.0
 52
90.0
 71
2
 49
0.5
 62
256
  6
BYLAYER
 49
-0.5
 62
256
  6
BYLAYER
  0
LAYOUT
  5
387
102
{ACAD_REACTORS
330
1A
102
}
100
AcDbPlotSettings
  1

  2
none_device
  4
ANSI_C_(22.00_x_17.00_Inches)
  6

 40
0.0
 41
0.0
 42
0.0
 43
0.0
 44
558.8
 45
431.8
 46
0.0
 47
0.0
 48
0.0
 49
0.0
140
0.0
141
0.0
142
1.0
143
1.0
 70
1024
 72
1
 73
0
 74
0
  7

 75
0
147
1.0
148
0.0
149
0.0
100
AcDbLayout
  1
Model
 70
0
 71
0
 10
0.0
 20
0.0
 11
558.8
 21
431.8
 12
0.0
 22
0.0
 32
0.0
 14
0.0
 24
0.0
 34
0.0
 15
0.0
 25
0.0
 35
0.0
146
0.0
 13
0.0
 23
0.0
 33
0.0
 16
1.0
 26
0.0
 36
0.0
 17
0.0
 27
1.0
 37
0.0
 76
0
330
210
345
0
346
0
  0
LAYOUT
  5
388
102
{ACAD_REACTORS
330
1A
102
}
100
AcDbPlotSettings
  1

  2
none_device
  4
ANSI_C_(22.00_x_17.00_Inches)
  6

 40
0.0
 41
0.0
 42
0.0
 43
0.0
 44
558.8
 45
431.8
 46
0.0
 47
0.0
 48
0.0
 49
0.0
140
0.0
141
0.0
142
1.0
143
1.0
 70
0
 72
1
 73
0
 74
0
  7

 75
0
147
1.0
148
0.0
149
0.0
100
AcDbLayout
  1
Layout1
 70
0
 71
1
 10
0.0
 20
0.0
 11
558.8
 21
431.8
 12
0.0
 22
0.0
 32
0.0
 14
0.0
 24
0.0
 34
0.0
 15
0.0
 25
0.0
 35
0.0
146
0.0
 13
0.0
 23
0.0
 33
0.0
 16
1.0
 26
0.0
 36
0.0
 17
0.0
 27
1.0
 37
0.0
 76
0
330
211
345
0
346
0
  0
ENDSEC
  0
EOF
