  0
SECTION
  2
HEADER
  9
$ACADVER
  1
AC1021
  9
$DWGCODEPAGE
  3
ANSI_1252
  9
$EXTMAX
 10
297.0
 20
210.0
 30
0.0
  9
$EXTMIN
 10
0.0
 20
0.0
 30
0.0
  9
$LIMMIN
 10
0.0
 20
0.0
  9
$LIMMAX
 10
297.0
 20
210.0
  9
$VIEWCTR
 10
148.5
 20
105.0
  9
$VIEWSIZE
 40
210.0
  9
$CLAYER
  8
0
  9
$LTSCALE
 40
16.335
  9
$CELTYPE
  6
BYLAYER
  9
$DIMSCALE
 40
1.0
  9
$DIMASZ
 40
3.0
  9
$DIMEXO
 40
0.5
  9
$DIMDLI
 40
11.286
  9
$DIMEXE
 40
1.5
  9
$DIMCEN
 40
2.673
  9
$DIMLFAC
 40
1.0
  9
$DIMBLK
  1
_FILLED
  9
$DIMALT
 70
0
  9
$DIMALTF
 40
0.0393700787
  9
$DIMTXT
 40
3.0
  9
$DIMTOL
 70
1
  9
$DIMLIM
 70
0
  9
$DIMTFAC
 40
1.0
  9
$DIMTP
 40
0.01
  9
$DIMTM
 40
0.01
  9
$DIMGAP
 40
0.625
  9
$DIMDSEP
 70
44
  9
$AUNITS
 70
0
  9
$PDMODE
 70
3
  9
$PDSIZE
 40
3.0
  9
$HANDSEED
  5
640
  9
$TILEMODE
 70
1
  9
$MEASUREMENT
 70
1
  9
$INSUNITS
 70
4
  0
ENDSEC
  0
SECTION
  2
CLASSES
  0
CLASS
  1
ACDBDICTIONARYWDFLT
  2
AcDbDictionaryWithDefault
  3
AutoCAD 2000
 90
0
 91
1
280
0
281
0
  0
CLASS
  1
ACDBPLACEHOLDER
  2
AcDbPlaceHolder
  3
AutoCAD 2000
 90
0
 91
1
280
0
281
0
  0
CLASS
  1
LAYOUT
  2
AcDbLayout
  3
AutoCAD 2000
 90
0
 91
0
280
0
281
0
  0
ENDSEC
  0
SECTION
  2
TABLES
  0
TABLE
  2
VPORT
  5
8
100
AcDbSymbolTable
 70
2
  0
VPORT
  5
1F4
100
AcDbSymbolTableRecord
100
AcDbViewportTableRecord
  2
*ACTIVE
 70
0
 10
0.0
 20
0.0
 11
1.0
 21
1.0
 12
148.5
 22
105.0
 13
0.0
 23
0.0
 14
1.0
 24
1.0
 15
0.0
 25
0.0
 16
0.0
 26
0.0
 36
1.0
 17
0.0
 27
0.0
 37
0.0
 40
210.0
 41
1.4142857143
 42
50.0
 43
0.0
 44
0.0
 50
0.0
 51
0.0
 71
0
 72
100
 73
1
 74
1
 75
0
 76
0
 77
0
 78
0
  0
ENDTAB
  0
TABLE
  2
LTYPE
  5
5
100
AcDbSymbolTable
 70
6
  0
LTYPE
  5
14
100
AcDbSymbolTableRecord
100
AcDbLinetypeTableRecord
  2
BYBLOCK
 70
0
  3

 72
65
 73
0
 40
0.0
  0
LTYPE
  5
15
100
AcDbSymbolTableRecord
100
AcDbLinetypeTableRecord
  2
BYLAYER
 70
0
  3

 72
65
 73
0
 40
0.0
  0
LTYPE
  5
16
100
AcDbSymbolTableRecord
100
AcDbLinetypeTableRecord
  2
CONTINUOUS
 70
64
  3
Solid line
 72
65
 73
0
 40
0.0
  0
LTYPE
  5
1F5
100
AcDbSymbolTableRecord
100
AcDbLinetypeTableRecord
  2
CENTER
 70
64
  3
____ _ ____ _ ____ _ ____ _ ____ _ ____ _ ____
 72
65
 73
4
 40
0.6
 49
0.375
 74
0
 49
-0.075
 74
0
 49
0.075
 74
0
 49
-0.075
 74
0
  0
LTYPE
  5
1F6
100
AcDbSymbolTableRecord
100
AcDbLinetypeTableRecord
  2
HIDDEN
 70
64
  3
- - - - - - - - - - - - - - - - - - - -
 72
65
 73
2
 40
0.2
 49
0.1
 74
0
 49
-0.1
 74
0
  0
LTYPE
  5
1F7
100
AcDbSymbolTableRecord
100
AcDbLinetypeTableRecord
  2
PHANTOM
 70
64
  3
_____ _ _ _____ _ _ _____ _ _ _____
 72
65
 73
6
 40
0.8
 49
0.45
 74
0
 49
-0.05
 74
0
 49
0.1
 74
0
 49
-0.05
 74
0
 49
0.1
 74
0
 49
-0.05
 74
0
  0
LTYPE
  5
1F8
100
AcDbSymbolTableRecord
100
AcDbLinetypeTableRecord
  2
DOT
 70
64
  3
. . . . . . . . . . . . . . . . . . . .
 72
65
 73
2
 40
0.2
 49
0.1
 74
0
 49
-0.1
 74
0
  0
LTYPE
  5
1F9
100
AcDbSymbolTableRecord
100
AcDbLinetypeTableRecord
  2
DASHED
 70
64
  3
- - - - - - - - - - - - - - - - - - - -
 72
65
 73
2
 40
0.2
 49
0.1
 74
0
 49
-0.1
 74
0
  0
ENDTAB
  0
TABLE
  2
LAYER
  5
2
100
AcDbSymbolTable
 70
36
  0
LAYER
  5
10
100
AcDbSymbolTableRecord
100
AcDbLayerTableRecord
  2
0
 70
0
 62
7
  6
CONTINUOUS
370
-3
390
F
  0
LAYER
  5
1FA
100
AcDbSymbolTableRecord
100
AcDbLayerTableRecord
  2
DEFAULT_1
 70
0
 62
7
  6
CENTER
370
-3
390
F
  0
LAYER
  5
1FB
100
AcDbSymbolTableRecord
100
AcDbLayerTableRecord
  2
DEFAULT_2
 70
0
 62
7
  6
HIDDEN
370
-3
390
F
  0
LAYER
  5
1FC
100
AcDbSymbolTableRecord
100
AcDbLayerTableRecord
  2
DEFAULT_3
 70
0
 62
7
  6
PHANTOM
370
-3
390
F
  0
LAYER
  5
1FD
100
AcDbSymbolTableRecord
100
AcDbLayerTableRecord
  2
ASSI
 70
0
 62
7
  6
CONTINUOUS
370
-3
390
F
  0
LAYER
  5
1FE
100
AcDbSymbolTableRecord
100
AcDbLayerTableRecord
  2
COORDINATE
 70
0
 62
7
  6
CONTINUOUS
370
-3
390
F
  0
LAYER
  5
1FF
100
AcDbSymbolTableRecord
100
AcDbLayerTableRecord
  2
COORD_ORIGINE
 70
0
 62
7
  6
CONTINUOUS
370
-3
390
F
  0
LAYER
  5
200
100
AcDbSymbolTableRecord
100
AcDbLayerTableRecord
  2
COPY_PUBLISH
 70
0
 62
7
  6
CONTINUOUS
370
-3
390
F
  0
LAYER
  5
201
100
AcDbSymbolTableRecord
100
AcDbLayerTableRecord
  2
COSMETIC
 70
0
 62
7
  6
CONTINUOUS
370
-3
390
F
  0
LAYER
  5
202
100
AcDbSymbolTableRecord
100
AcDbLayerTableRecord
  2
COSMETICI
 70
0
 62
7
  6
CONTINUOUS
370
-3
390
F
  0
LAYER
  5
203
100
AcDbSymbolTableRecord
100
AcDbLayerTableRecord
  2
CURVE
 70
0
 62
7
  6
CONTINUOUS
370
-3
390
F
  0
LAYER
  5
204
100
AcDbSymbolTableRecord
100
AcDbLayerTableRecord
  2
DRAFT
 70
0
 62
7
  6
CONTINUOUS
370
-3
390
F
  0
LAYER
  5
205
100
AcDbSymbolTableRecord
100
AcDbLayerTableRecord
  2
IGES
 70
0
 62
7
  6
CONTINUOUS
370
-3
390
F
  0
LAYER
  5
206
100
AcDbSymbolTableRecord
100
AcDbLayerTableRecord
  2
IGES-IMPORTATI
 70
0
 62
7
  6
CONTINUOUS
370
-3
390
F
  0
LAYER
  5
207
100
AcDbSymbolTableRecord
100
AcDbLayerTableRecord
  2
IMPORT
 70
0
 62
7
  6
CONTINUOUS
370
-3
390
F
  0
LAYER
  5
208
100
AcDbSymbolTableRecord
100
AcDbLayerTableRecord
  2
IMPORT_IGES
 70
0
 62
7
  6
CONTINUOUS
370
-3
390
F
  0
LAYER
  5
209
100
AcDbSymbolTableRecord
100
AcDbLayerTableRecord
  2
INTFCLR_1
 70
0
 62
7
  6
CONTINUOUS
370
-3
390
F
  0
LAYER
  5
20A
100
AcDbSymbolTableRecord
100
AcDbLayerTableRecord
  2
INTF_1
 70
0
 62
7
  6
CONTINUOUS
370
-3
390
F
  0
LAYER
  5
20B
100
AcDbSymbolTableRecord
100
AcDbLayerTableRecord
  2
INTF_15
 70
0
 62
7
  6
CONTINUOUS
370
-3
390
F
  0
LAYER
  5
20C
100
AcDbSymbolTableRecord
100
AcDbLayerTableRecord
  2
INTF_16
 70
0
 62
7
  6
CONTINUOUS
370
-3
390
F
  0
LAYER
  5
20D
100
AcDbSymbolTableRecord
100
AcDbLayerTableRecord
  2
INTF_7
 70
0
 62
7
  6
CONTINUOUS
370
-3
390
F
  0
LAYER
  5
20E
100
AcDbSymbolTableRecord
100
AcDbLayerTableRecord
  2
INTF_CYAN
 70
0
 62
7
  6
CONTINUOUS
370
-3
390
F
  0
LAYER
  5
20F
100
AcDbSymbolTableRecord
100
AcDbLayerTableRecord
  2
NOTE
 70
0
 62
7
  6
CONTINUOUS
370
-3
390
F
  0
LAYER
  5
210
100
AcDbSymbolTableRecord
100
AcDbLayerTableRecord
  2
PIANI
 70
0
 62
7
  6
CONTINUOUS
370
-3
390
F
  0
LAYER
  5
211
100
AcDbSymbolTableRecord
100
AcDbLayerTableRecord
  2
PIANI_ORIGINE
 70
0
 62
7
  6
CONTINUOUS
370
-3
390
F
  0
LAYER
  5
212
100
AcDbSymbolTableRecord
100
AcDbLayerTableRecord
  2
PIANI_RIFERIMENTO
 70
0
 62
7
  6
CONTINUOUS
370
-3
390
F
  0
LAYER
  5
213
100
AcDbSymbolTableRecord
100
AcDbLayerTableRecord
  2
PUNTI
 70
0
 62
7
  6
CONTINUOUS
370
-3
390
F
  0
LAYER
  5
214
100
AcDbSymbolTableRecord
100
AcDbLayerTableRecord
  2
RACCORDO
 70
0
 62
7
  6
CONTINUOUS
370
-3
390
F
  0
LAYER
  5
215
100
AcDbSymbolTableRecord
100
AcDbLayerTableRecord
  2
RGB__255__255__255__
 70
0
 62
7
  6
CONTINUOUS
370
-3
390
F
  0
LAYER
  5
216
100
AcDbSymbolTableRecord
100
AcDbLayerTableRecord
  2
RGB____0____0____0__
 70
0
 62
7
  6
CONTINUOUS
370
-3
390
F
  0
LAYER
  5
217
100
AcDbSymbolTableRecord
100
AcDbLayerTableRecord
  2
SERIE
 70
0
 62
7
  6
CONTINUOUS
370
-3
390
F
  0
LAYER
  5
218
100
AcDbSymbolTableRecord
100
AcDbLayerTableRecord
  2
SIMBOLI
 70
0
 62
7
  6
CONTINUOUS
370
-3
390
F
  0
LAYER
  5
219
100
AcDbSymbolTableRecord
100
AcDbLayerTableRecord
  2
SMUSSO
 70
0
 62
7
  6
CONTINUOUS
370
-3
390
F
  0
LAYER
  5
21A
100
AcDbSymbolTableRecord
100
AcDbLayerTableRecord
  2
SNAPLINE
 70
0
 62
7
  6
CONTINUOUS
370
-3
390
F
  0
LAYER
  5
21B
100
AcDbSymbolTableRecord
100
AcDbLayerTableRecord
  2
SUPERFICI
 70
0
 62
7
  6
CONTINUOUS
370
-3
390
F
  0
LAYER
  5
21C
100
AcDbSymbolTableRecord
100
AcDbLayerTableRecord
  2
SUPERFICI_SKEL
 70
0
 62
7
  6
CONTINUOUS
370
-3
390
F
  0
LAYER
  5
21D
100
AcDbSymbolTableRecord
100
AcDbLayerTableRecord
  2
TRASH
 70
0
 62
7
  6
CONTINUOUS
370
-3
390
F
  0
LAYER
  5
21E
100
AcDbSymbolTableRecord
100
AcDbLayerTableRecord
  2
XSEC_DATUMS
 70
0
 62
7
  6
CONTINUOUS
370
-3
390
F
  0
ENDTAB
  0
TABLE
  2
STYLE
  5
3
100
AcDbSymbolTable
 70
1
  0
STYLE
  5
11
100
AcDbSymbolTableRecord
100
AcDbTextStyleTableRecord
  2
STANDARD
 70
0
 40
0.0
 41
0.8
 50
0.0
 71
0
 42
0.2
  3
txt
  4

  0
STYLE
  5
21F
100
AcDbSymbolTableRecord
100
AcDbTextStyleTableRecord
  2
TEXTSTYLE_1
 70
0
 40
0.0
 41
0.8
 50
0.0
 71
0
 42
0.2
  3
gdt
  4

  0
ENDTAB
  0
TABLE
  2
VIEW
  5
6
100
AcDbSymbolTable
 70
0
  0
ENDTAB
  0
TABLE
  2
UCS
  5
7
100
AcDbSymbolTable
 70
0
  0
ENDTAB
  0
TABLE
  2
APPID
  5
9
100
AcDbSymbolTable
 70
1
  0
APPID
  5
220
100
AcDbSymbolTableRecord
100
AcDbRegAppTableRecord
  2
ACAD
 70
0
  0
ENDTAB
  0
TABLE
  2
BLOCK_RECORD
  5
1
100
AcDbSymbolTable
 70
0
  0
BLOCK_RECORD
  5
221
100
AcDbSymbolTableRecord
100
AcDbBlockTableRecord
  2
*Model_Space
  0
BLOCK_RECORD
  5
222
100
AcDbSymbolTableRecord
100
AcDbBlockTableRecord
  2
*Paper_Space
  0
ENDTAB
  0
TABLE
  2
DIMSTYLE
  5
A
100
AcDbSymbolTable
 70
1
100
AcDbDimStyleTable
 71
0
  0
DIMSTYLE
105
223
100
AcDbSymbolTableRecord
100
AcDbDimStyleTableRecord
  2
STANDARD
 70
0
  3

  4

 40
1.0
 41
3.0
 42
0.5
 43
0.38
 44
1.5
 45
0.0
 46
0.0
 47
0.01
 48
0.01
140
3.0
141
0.09
142
0.0
143
25.4
144
1.0
145
0.0
146
1.0
147
0.625
 71
1.0
 72
0.0
 73
0
 74
0
 75
0
 76
0
 77
1
 78
8
170
0
171
2
172
0
173
0
174
0
175
0
176
0
177
0
178
0
270
2
271
2
272
2
273
2
274
2
275
0
280
0
281
0
282
0
283
1
284
8
285
0
286
0
287
3
288
0
340
11
278
44
  0
ENDTAB
  0
ENDSEC
  0
SECTION
  2
BLOCKS
  0
BLOCK
  5
20
100
AcDbEntity
  8
0
100
AcDbBlockBegin
  2
*Model_Space
 70
0
 10
0.0
 20
0.0
 30
0.0
  3
*Model_Space
  1

  0
ENDBLK
  5
21
100
AcDbEntity
  8
0
100
AcDbBlockEnd
  0
BLOCK
  5
1C
100
AcDbEntity
  8
0
100
AcDbBlockBegin
  2
*Paper_Space
 70
0
 10
0.0
 20
0.0
 30
0.0
  3
*Paper_Space
  1

  0
ENDBLK
  5
1D
100
AcDbEntity
  8
0
100
AcDbBlockEnd
  0
ENDSEC
  0
SECTION
  2
ENTITIES
  0
LWPOLYLINE
  5
224
100
AcDbEntity
  8
0
100
AcDbPolyline
 62
7
  6
CONTINUOUS
 90
25
 70
0
 10
-10.1364746731
 20
24.6143806722
 10
-10.1471792079
 20
24.6091824869
 10
-10.1576244614
 20
24.6034806984
 10
-10.167786537
 20
24.597288336
 10
-10.1776423217
 20
24.5906194987
 10
-10.1871695832
 20
24.5834892454
 10
-10.1963467964
 20
24.5759136845
 10
-10.205153188
 20
24.5679099529
 10
-10.2135687742
 20
24.5594962013
 10
-10.2215744684
 20
24.5506915058
 10
-10.2291521249
 20
24.5415158188
 10
-10.2362845759
 20
24.5319899245
 10
-10.242955656
 20
24.5221354085
 10
-10.2491502483
 20
24.5119745963
 10
-10.2548543136
 20
24.5015305111
 10
-10.2600549212
 20
24.4908268246
 10
-10.2647402855
 20
24.4798877911
 10
-10.2688997898
 20
24.4687381948
 10
-10.272524007
 20
24.4574033023
 10
-10.2756047256
 20
24.4459087912
 10
-10.2781349626
 20
24.4342807119
 10
-10.2801089812
 20
24.4225454322
 10
-10.28152231
 20
24.4107295498
 10
-10.2823717501
 20
24.3988598316
 10
-10.282655379
 20
24.3869631727
  0
LINE
  5
225
100
AcDbEntity
  8
0
100
AcDbLine
 62
7
  6
CONTINUOUS
 10
-10.125535272
 20
24.6190634458
 11
-10.1364746731
 21
24.6143806722
  0
LWPOLYLINE
  5
226
100
AcDbEntity
  8
0
100
AcDbPolyline
 62
7
  6
CONTINUOUS
 90
7
 70
0
 10
9.7854852617
 20
-24.3528471777
 10
9.7941395734
 20
-24.3517578727
 10
9.805871068
 20
-24.3497869267
 10
9.8175005033
 20
-24.3472589368
 10
9.8289964689
 20
-24.3441803582
 10
9.840331234
 20
-24.3405587485
 10
9.851480846
 20
-24.3364018941
  0
LWPOLYLINE
  5
227
100
AcDbEntity
  8
0
100
AcDbPolyline
 62
253
  6
CONTINUOUS
 90
4
 70
0
 10
-10.0595396876
 20
-24.3528471777
 10
-10.0563888239
 20
-24.3531678687
 10
-10.0445350813
 20
-24.3540147705
 10
-10.0326596098
 20
-24.3542973901
  0
LWPOLYLINE
  5
228
100
AcDbEntity
  8
0
100
AcDbPolyline
 62
7
  6
CONTINUOUS
 90
24
 70
0
 10
9.7629770178
 20
-24.3586692241
 10
9.774872303
 20
-24.3583860739
 10
9.7867406426
 20
-24.3575372584
 10
9.7985551532
 20
-24.3561246983
 10
9.8102890745
 20
-24.3541515918
 10
9.8219158258
 20
-24.3516224058
 10
9.833409066
 20
-24.3485428658
 10
9.8447427608
 20
-24.3449199455
 10
9.8558912363
 20
-24.3407618499
 10
9.8668292333
 20
-24.3360779963
 10
9.8775319746
 20
-24.330878993
 10
9.8879752153
 20
-24.3251766158
 10
9.8981352929
 20
-24.3189837823
 10
9.9079891921
 20
-24.3123145196
 10
9.9175145909
 20
-24.3051839348
 10
9.9266899061
 20
-24.297608183
 10
9.9354943531
 20
-24.2896044246
 10
9.9439079875
 20
-24.2811907902
 10
9.9519117459
 20
-24.2723863432
 10
9.9594874977
 20
-24.263211028
 10
9.9666180825
 20
-24.2536856292
 10
9.9732873451
 20
-24.24383173
 10
9.9794801787
 20
-24.2336716524
 10
9.9851825558
 20
-24.2232284117
  0
LWPOLYLINE
  5
229
100
AcDbEntity
  8
0
100
AcDbPolyline
 62
253
  6
CONTINUOUS
 90
4
 70
0
 10
9.7586051838
 20
-24.3542973901
 10
9.7704806554
 20
-24.3540147705
 10
9.7823343979
 20
-24.3531678687
 10
9.7854852617
 20
-24.3528471777
  0
LWPOLYLINE
  5
22A
100
AcDbEntity
  8
0
100
AcDbPolyline
 62
7
  6
CONTINUOUS
 90
34
 70
0
 10
-7.6370229822
 20
-24.3586692241
 10
-7.625127697
 20
-24.3583860739
 10
-7.6132593574
 20
-24.3575372584
 10
-7.6014448468
 20
-24.3561246983
 10
-7.5897109255
 20
-24.3541515918
 10
-7.5780841742
 20
-24.3516224058
 10
-7.566590934
 20
-24.3485428658
 10
-7.5552572392
 20
-24.3449199455
 10
-7.5441087637
 20
-24.3407618499
 10
-7.5331707667
 20
-24.3360779963
 10
-7.5224680254
 20
-24.330878993
 10
-7.5120247847
 20
-24.3251766158
 10
-7.5018647071
 20
-24.3189837823
 10
-7.4920108079
 20
-24.3123145196
 10
-7.4824854091
 20
-24.3051839348
 10
-7.4733100939
 20
-24.297608183
 10
-7.4645056469
 20
-24.2896044246
 10
-7.4560920125
 20
-24.2811907902
 10
-7.4480882541
 20
-24.2723863432
 10
-7.4405125023
 20
-24.263211028
 10
-7.4333819175
 20
-24.2536856292
 10
-7.4267126549
 20
-24.24383173
 10
-7.4205198213
 20
-24.2336716524
 10
-7.4148174442
 20
-24.2232284117
 10
-7.4096184408
 20
-24.2125256704
 10
-7.4049345872
 20
-24.2015876734
 10
-7.4007764916
 20
-24.1904391979
 10
-7.3971535713
 20
-24.1791055031
 10
-7.3940740313
 20
-24.1676122629
 10
-7.3915448453
 20
-24.1559855116
 10
-7.3895717388
 20
-24.1442515903
 10
-7.3881591787
 20
-24.1324370797
 10
-7.3873103632
 20
-24.1205687401
 10
-7.387027213
 20
-24.1086734549
  0
LWPOLYLINE
  5
22B
100
AcDbEntity
  8
0
100
AcDbPolyline
 62
7
  6
CONTINUOUS
 90
34
 70
0
 10
-7.6413948162
 20
-24.3542973901
 10
-7.6294997947
 20
-24.3540138393
 10
-7.617631718
 20
-24.3531646344
 10
-7.6058174701
 20
-24.351751699
 10
-7.5940838128
 20
-24.3497782337
 10
-7.5824573256
 20
-24.3472487089
 10
-7.570964345
 20
-24.3441688545
 10
-7.5596309052
 20
-24.3405456471
 10
-7.548482679
 20
-24.3363872941
 10
-7.5375449195
 20
-24.331703215
 10
-7.5268424034
 20
-24.3265040204
 10
-7.5163993741
 20
-24.3208014875
 10
-7.5062394875
 20
-24.3146085339
 10
-7.496385758
 20
-24.3079391881
 10
-7.4868605065
 20
-24.3008085576
 10
-7.4776853099
 20
-24.2932327948
 10
-7.4688809519
 20
-24.2852290606
 10
-7.4604673765
 20
-24.2768154852
 10
-7.4524636423
 20
-24.2680111272
 10
-7.4448878795
 20
-24.2588359306
 10
-7.437757249
 20
-24.2493106791
 10
-7.4310879032
 20
-24.2394569496
 10
-7.4248949496
 20
-24.229297063
 10
-7.4191924167
 20
-24.2188540337
 10
-7.4139932221
 20
-24.2081515176
 10
-7.409309143
 20
-24.1972137581
 10
-7.40515079
 20
-24.1860655319
 10
-7.4015275826
 20
-24.1747320921
 10
-7.3984477282
 20
-24.1632391115
 10
-7.3959182034
 20
-24.1516126243
 10
-7.3939447381
 20
-24.139878967
 10
-7.3925318027
 20
-24.1280647191
 10
-7.3916825978
 20
-24.1161966424
 10
-7.391399047
 20
-24.1043016209
  0
LINE
  5
22C
100
AcDbEntity
  8
0
100
AcDbLine
 62
7
  6
CONTINUOUS
 10
-10.0326596098
 20
-24.3542973901
 11
-7.6413948162
 21
-24.3542973901
  0
LINE
  5
22D
100
AcDbEntity
  8
0
100
AcDbLine
 62
7
  6
CONTINUOUS
 10
7.3673403902
 20
-24.3542973901
 11
9.7586051838
 21
-24.3542973901
  0
LINE
  5
22E
100
AcDbEntity
  8
0
100
AcDbLine
 62
253
  6
CONTINUOUS
 10
7.117344621
 20
-24.1043016209
 11
10.008600953
 21
-24.1043016209
  0
LINE
  5
22F
100
AcDbEntity
  8
0
100
AcDbLine
 62
253
  6
CONTINUOUS
 10
-7.391399047
 20
-24.1043016209
 11
-10.282655379
 21
-24.1043016209
  0
LINE
  5
230
100
AcDbEntity
  8
0
100
AcDbLine
 62
7
  6
CONTINUOUS
 10
-4.587027213
 20
-23.8586692241
 11
-3.6937772389
 21
-23.8586692241
  0
LINE
  5
231
100
AcDbEntity
  8
0
100
AcDbLine
 62
7
  6
CONTINUOUS
 10
3.4197228129
 20
-23.8586692241
 11
4.312972787
 21
-23.8586692241
  0
LINE
  5
232
100
AcDbEntity
  8
0
100
AcDbLine
 62
7
  6
CONTINUOUS
 10
-3.637027213
 20
-23.8528513943
 11
-1.3457515423
 21
-23.8528513943
  0
LINE
  5
233
100
AcDbEntity
  8
0
100
AcDbLine
 62
7
  6
CONTINUOUS
 10
1.0716971164
 20
-23.8528513943
 11
3.362972787
 21
-23.8528513943
  0
LINE
  5
234
100
AcDbEntity
  8
0
100
AcDbLine
 62
7
  6
CONTINUOUS
 10
-4.5433765661
 20
-23.8150185773
 11
-3.6937772389
 21
-23.8150185773
  0
LINE
  5
235
100
AcDbEntity
  8
0
100
AcDbLine
 62
7
  6
CONTINUOUS
 10
3.4197228129
 20
-23.8150185773
 11
4.2693221401
 21
-23.8150185773
  0
LINE
  5
236
100
AcDbEntity
  8
0
100
AcDbLine
 62
253
  6
CONTINUOUS
 10
7.117344621
 20
-23.7030067914
 11
10.008600953
 21
-23.7030067914
  0
LINE
  5
237
100
AcDbEntity
  8
0
100
AcDbLine
 62
253
  6
CONTINUOUS
 10
-7.391399047
 20
-23.7030067914
 11
-10.282655379
 21
-23.7030067914
  0
LINE
  5
238
100
AcDbEntity
  8
0
100
AcDbLine
 62
253
  6
CONTINUOUS
 10
9.7586051838
 20
-23.4865004405
 11
7.3673403902
 21
-23.4865004405
  0
LINE
  5
239
100
AcDbEntity
  8
0
100
AcDbLine
 62
253
  6
CONTINUOUS
 10
-7.6413948162
 20
-23.4865004405
 11
-10.0326596098
 21
-23.4865004405
  0
LINE
  5
23A
100
AcDbEntity
  8
0
100
AcDbLine
 62
7
  6
CONTINUOUS
 10
-10.0377502109
 20
-22.9813189549
 11
-7.6363042151
 21
-22.9813189549
  0
LINE
  5
23B
100
AcDbEntity
  8
0
100
AcDbLine
 62
7
  6
CONTINUOUS
 10
9.7636957849
 20
-22.9813189549
 11
7.3622497891
 21
-22.9813189549
  0
LINE
  5
23C
100
AcDbEntity
  8
0
100
AcDbLine
 62
7
  6
CONTINUOUS
 10
-3.637027213
 20
24.1355129461
 11
-3.6937772389
 21
24.097680129
  0
LINE
  5
23D
100
AcDbEntity
  8
0
100
AcDbLine
 62
7
  6
CONTINUOUS
 10
-8.2035967148
 20
21.1330390401
 11
-8.387027213
 21
21.0413307759
  0
LINE
  5
23E
100
AcDbEntity
  8
0
100
AcDbLine
 62
7
  6
CONTINUOUS
 10
-8.2035967148
 20
21.595066203
 11
-8.387027213
 21
21.5413307759
  0
LWPOLYLINE
  5
23F
100
AcDbEntity
  8
DRAFT
100
AcDbPolyline
 62
7
  6
CONTINUOUS
 90
4
 70
0
 10
7.9295422888
 20
-20.8503774883
 10
7.923397725
 20
-20.8509663036
 10
7.9093965054
 20
-20.8515249542
 10
7.8875386299
 20
-20.8520534402
  0
LINE
  5
240
100
AcDbEntity
  8
RACCORDO
100
AcDbLine
 62
7
  6
CONTINUOUS
 10
-7.3275688392
 20
-22.2586692241
 11
-4.587027213
 21
-22.2586692241
  0
LINE
  5
241
100
AcDbEntity
  8
RACCORDO
100
AcDbLine
 62
7
  6
CONTINUOUS
 10
4.312972787
 20
-22.2586692241
 11
7.0535144132
 21
-22.2586692241
  0
LINE
  5
242
100
AcDbEntity
  8
0
100
AcDbLine
 62
7
  6
CONTINUOUS
 10
-1.1457540808
 20
-22.2534331885
 11
0.8716996548
 21
-22.2534331885
  0
LINE
  5
243
100
AcDbEntity
  8
0
100
AcDbLine
 62
7
  6
CONTINUOUS
 10
-10.7783066913
 20
-22.2528513943
 11
-7.3928450428
 21
-22.2528513943
  0
LINE
  5
244
100
AcDbEntity
  8
0
100
AcDbLine
 62
7
  6
CONTINUOUS
 10
-3.637027213
 20
-22.2528513943
 11
-3.137027213
 21
-22.2528513943
  0
LINE
  5
245
100
AcDbEntity
  8
0
100
AcDbLine
 62
7
  6
CONTINUOUS
 10
2.862972787
 20
-22.2528513943
 11
3.362972787
 21
-22.2528513943
  0
LINE
  5
246
100
AcDbEntity
  8
0
100
AcDbLine
 62
7
  6
CONTINUOUS
 10
7.1187906168
 20
-22.2528513943
 11
10.5042522653
 21
-22.2528513943
  0
LINE
  5
247
100
AcDbEntity
  8
0
100
AcDbLine
 62
7
  6
CONTINUOUS
 10
-7.3275688392
 20
-22.1946392496
 11
-3.2243466615
 21
-22.1946392496
  0
LINE
  5
248
100
AcDbEntity
  8
0
100
AcDbLine
 62
7
  6
CONTINUOUS
 10
2.9502922355
 20
-22.1946392496
 11
7.0535144132
 21
-22.1946392496
  0
LINE
  5
249
100
AcDbEntity
  8
0
100
AcDbLine
 62
7
  6
CONTINUOUS
 10
2.862972787
 20
-21.5586692241
 11
-3.137027213
 21
-21.5586692241
  0
LINE
  5
24A
100
AcDbEntity
  8
0
100
AcDbLine
 62
7
  6
CONTINUOUS
 10
2.9392172515
 20
-21.4824247596
 11
-3.2132716775
 21
-21.4824247596
  0
LINE
  5
24B
100
AcDbEntity
  8
0
100
AcDbLine
 62
253
  6
CONTINUOUS
 10
-7.7036728672
 20
-21.1946561728
 11
-3.2330227587
 21
-21.1946561728
  0
LINE
  5
24C
100
AcDbEntity
  8
0
100
AcDbLine
 62
253
  6
CONTINUOUS
 10
2.9589683327
 20
-21.1946561728
 11
7.4296184412
 21
-21.1946561728
  0
LINE
  5
24D
100
AcDbEntity
  8
0
100
AcDbLine
 62
7
  6
CONTINUOUS
 10
-8.2035967148
 20
-21.3124046513
 11
-8.387027213
 21
-21.2586692241
  0
LINE
  5
24E
100
AcDbEntity
  8
0
100
AcDbLine
 62
7
  6
CONTINUOUS
 10
-8.2035967148
 20
-20.8503774883
 11
-8.387027213
 21
-20.7586692241
  0
LINE
  5
24F
100
AcDbEntity
  8
0
100
AcDbLine
 62
7
  6
CONTINUOUS
 10
-3.637027213
 20
-23.8528513943
 11
-3.6937772389
 21
-23.8150185773
  0
LWPOLYLINE
  5
250
100
AcDbEntity
  8
0
100
AcDbPolyline
 62
7
  6
CONTINUOUS
 90
11
 70
0
 10
-10.2592369818
 20
24.5058899635
 10
-10.2644359852
 20
24.4951872222
 10
-10.2691198388
 20
24.4842492252
 10
-10.2732779343
 20
24.4731007497
 10
-10.2769008547
 20
24.4617670549
 10
-10.2799803947
 20
24.4502738147
 10
-10.2825095807
 20
24.4386470634
 10
-10.2844826871
 20
24.426913142
 10
-10.2858952472
 20
24.4150986314
 10
-10.2867440627
 20
24.4032302919
 10
-10.287027213
 20
24.3913350067
  0
LINE
  5
251
100
AcDbEntity
  8
0
100
AcDbLine
 62
7
  6
CONTINUOUS
 10
-9.787027213
 20
20.3403704261
 11
-9.0869208754
 21
21.0413307759
  0
LINE
  5
252
100
AcDbEntity
  8
0
100
AcDbLine
 62
7
  6
CONTINUOUS
 10
-7.3928450428
 20
22.5355129461
 11
-8.387027213
 21
21.5413307759
  0
LINE
  5
253
100
AcDbEntity
  8
DRAFT
100
AcDbLine
 62
7
  6
CONTINUOUS
 10
-7.8913507179
 20
21.137007271
 11
-7.987027213
 21
21.0413307759
  0
LINE
  5
254
100
AcDbEntity
  8
0
100
AcDbLine
 62
253
  6
CONTINUOUS
 10
-1.3457515423
 20
24.1355129461
 11
-1.3370246745
 21
24.1413307759
  0
LINE
  5
255
100
AcDbEntity
  8
0
100
AcDbLine
 62
7
  6
CONTINUOUS
 10
-3.637027213
 20
22.5355129461
 11
-3.6961139354
 21
22.4961223533
  0
LINE
  5
256
100
AcDbEntity
  8
0
100
AcDbLine
 62
253
  6
CONTINUOUS
 10
-1.1457540808
 20
23.9355197153
 11
-1.137027213
 21
23.9413375451
  0
LINE
  5
257
100
AcDbEntity
  8
0
100
AcDbLine
 62
7
  6
CONTINUOUS
 10
-3.137027213
 20
22.5355129461
 11
-3.2243466615
 21
22.4773008014
  0
LINE
  5
258
100
AcDbEntity
  8
0
100
AcDbLine
 62
7
  6
CONTINUOUS
 10
-1.1457540808
 20
22.5360947403
 11
-1.137027213
 21
22.5413307759
  0
LINE
  5
259
100
AcDbEntity
  8
0
100
AcDbLine
 62
7
  6
CONTINUOUS
 10
7.274464728
 20
24.6190634458
 11
7.2635253269
 21
24.6143806722
  0
LINE
  5
25A
100
AcDbEntity
  8
DRAFT
100
AcDbLine
 62
7
  6
CONTINUOUS
 10
7.8875386299
 20
-20.8520534402
 11
7.8183347865
 21
-20.8530380797
  0
LWPOLYLINE
  5
25B
100
AcDbEntity
  8
DRAFT
100
AcDbPolyline
 62
7
  6
CONTINUOUS
 90
3
 70
0
 10
7.8183347865
 20
-20.8530380797
 10
7.6747853525
 20
-20.8541071897
 10
7.6172962919
 20
-20.8543457192
  0
LINE
  5
25C
100
AcDbEntity
  8
0
100
AcDbLine
 62
7
  6
CONTINUOUS
 10
-11.3044822779
 20
-20.8813189549
 11
-11.2783003452
 21
-20.8813189549
  0
LINE
  5
25D
100
AcDbEntity
  8
0
100
AcDbLine
 62
7
  6
CONTINUOUS
 10
11.0304278519
 20
-20.8813189549
 11
11.0042459192
 21
-20.8813189549
  0
LINE
  5
25E
100
AcDbEntity
  8
DRAFT
100
AcDbLine
 62
7
  6
CONTINUOUS
 10
7.4296184412
 20
-20.8586692241
 11
7.6169772413
 21
-20.8586692241
  0
LINE
  5
25F
100
AcDbEntity
  8
DRAFT
100
AcDbLine
 62
7
  6
CONTINUOUS
 10
-7.7036728672
 20
-20.8586692241
 11
-7.8910316673
 21
-20.8586692241
  0
LINE
  5
260
100
AcDbEntity
  8
0
100
AcDbLine
 62
7
  6
CONTINUOUS
 10
-9.0869208754
 20
-20.7586692241
 11
-8.387027213
 21
-20.7586692241
  0
LINE
  5
261
100
AcDbEntity
  8
DRAFT
100
AcDbLine
 62
7
  6
CONTINUOUS
 10
-8.387027213
 20
-20.7586692241
 11
-7.987027213
 21
-20.7586692241
  0
LINE
  5
262
100
AcDbEntity
  8
DRAFT
100
AcDbLine
 62
7
  6
CONTINUOUS
 10
7.712972787
 20
-20.7586692241
 11
8.112972787
 21
-20.7586692241
  0
LINE
  5
263
100
AcDbEntity
  8
0
100
AcDbLine
 62
7
  6
CONTINUOUS
 10
8.112972787
 20
-20.7586692241
 11
8.8128664494
 21
-20.7586692241
  0
LINE
  5
264
100
AcDbEntity
  8
0
100
AcDbLine
 62
7
  6
CONTINUOUS
 10
-3.2330227587
 20
-20.6586692241
 11
2.9589683327
 21
-20.6586692241
  0
LINE
  5
265
100
AcDbEntity
  8
RACCORDO
100
AcDbLine
 62
253
  6
CONTINUOUS
 10
-8.9829170375
 20
-20.446403976
 11
-8.0390251716
 21
-20.446403976
  0
LINE
  5
266
100
AcDbEntity
  8
RACCORDO
100
AcDbLine
 62
253
  6
CONTINUOUS
 10
7.7649707456
 20
-20.446403976
 11
8.7088626115
 21
-20.446403976
  0
LINE
  5
267
100
AcDbEntity
  8
DRAFT
100
AcDbLine
 62
7
  6
CONTINUOUS
 10
6.8089683327
 20
-19.9546647698
 11
-7.0830227587
 21
-19.9546647698
  0
LINE
  5
268
100
AcDbEntity
  8
RACCORDO
100
AcDbLine
 62
7
  6
CONTINUOUS
 10
-6.9346228555
 20
-19.8062648666
 11
6.6605684295
 21
-19.8062648666
  0
LINE
  5
269
100
AcDbEntity
  8
RACCORDO
100
AcDbLine
 62
253
  6
CONTINUOUS
 10
-9.6682825986
 20
-19.6703071697
 11
-8.0463949985
 21
-19.6703071697
  0
LINE
  5
26A
100
AcDbEntity
  8
RACCORDO
100
AcDbLine
 62
253
  6
CONTINUOUS
 10
7.7723405725
 20
-19.6703071697
 11
9.3942281727
 21
-19.6703071697
  0
LINE
  5
26B
100
AcDbEntity
  8
0
100
AcDbLine
 62
7
  6
CONTINUOUS
 10
-1.137027213
 20
-22.2586692241
 11
-1.1457540808
 21
-22.2534331885
  0
LINE
  5
26C
100
AcDbEntity
  8
0
100
AcDbLine
 62
253
  6
CONTINUOUS
 10
-1.3370246745
 20
-23.8586692241
 11
-1.3457515423
 21
-23.8528513943
  0
LINE
  5
26D
100
AcDbEntity
  8
0
100
AcDbLine
 62
7
  6
CONTINUOUS
 10
-3.637027213
 20
-22.2528513943
 11
-3.6961139354
 21
-22.2134608015
  0
LINE
  5
26E
100
AcDbEntity
  8
0
100
AcDbLine
 62
253
  6
CONTINUOUS
 10
-1.137027213
 20
-23.6586759933
 11
-1.1457540808
 21
-23.6528581635
  0
LINE
  5
26F
100
AcDbEntity
  8
0
100
AcDbLine
 62
7
  6
CONTINUOUS
 10
-3.137027213
 20
-22.2528513943
 11
-3.2243466615
 21
-22.1946392496
  0
LINE
  5
270
100
AcDbEntity
  8
0
100
AcDbLine
 62
7
  6
CONTINUOUS
 10
-7.3928450428
 20
-22.2528513943
 11
-8.387027213
 21
-21.2586692241
  0
LINE
  5
271
100
AcDbEntity
  8
DRAFT
100
AcDbLine
 62
7
  6
CONTINUOUS
 10
-7.8913507179
 20
-20.8543457192
 11
-7.987027213
 21
-20.7586692241
  0
LINE
  5
272
100
AcDbEntity
  8
0
100
AcDbLine
 62
7
  6
CONTINUOUS
 10
-9.787027213
 20
-20.0577088743
 11
-9.0869208754
 21
-20.7586692241
  0
LWPOLYLINE
  5
273
100
AcDbEntity
  8
0
100
AcDbPolyline
 62
7
  6
CONTINUOUS
 90
24
 70
0
 10
-10.2592369818
 20
-24.2232284117
 10
-10.2535346046
 20
-24.2336716524
 10
-10.2473417711
 20
-24.24383173
 10
-10.2406725085
 20
-24.2536856292
 10
-10.2335419237
 20
-24.263211028
 10
-10.2259661719
 20
-24.2723863432
 10
-10.2179624135
 20
-24.2811907902
 10
-10.2095487791
 20
-24.2896044246
 10
-10.200744332
 20
-24.297608183
 10
-10.1915690168
 20
-24.3051839348
 10
-10.1820436181
 20
-24.3123145196
 10
-10.1721897189
 20
-24.3189837823
 10
-10.1620296413
 20
-24.3251766158
 10
-10.1515864006
 20
-24.330878993
 10
-10.1408836593
 20
-24.3360779963
 10
-10.1299456623
 20
-24.3407618499
 10
-10.1187971868
 20
-24.3449199455
 10
-10.107463492
 20
-24.3485428658
 10
-10.0959702518
 20
-24.3516224058
 10
-10.0843435005
 20
-24.3541515918
 10
-10.0726095791
 20
-24.3561246983
 10
-10.0607950686
 20
-24.3575372584
 10
-10.048926729
 20
-24.3583860739
 10
-10.0370314438
 20
-24.3586692241
  0
LINE
  5
274
100
AcDbEntity
  8
0
100
AcDbLine
 62
7
  6
CONTINUOUS
 10
-3.6961139354
 20
24.0180919214
 11
-3.7140898666
 21
23.9979168734
  0
LINE
  5
275
100
AcDbEntity
  8
0
100
AcDbLine
 62
7
  6
CONTINUOUS
 10
-3.7140898666
 20
23.9979168734
 11
-3.7348967862
 21
23.9748850838
  0
LINE
  5
276
100
AcDbEntity
  8
0
100
AcDbLine
 62
7
  6
CONTINUOUS
 10
-3.7348967862
 20
23.9748850838
 11
-3.7586131672
 21
23.948980518
  0
LINE
  5
277
100
AcDbEntity
  8
0
100
AcDbLine
 62
7
  6
CONTINUOUS
 10
-3.7586131672
 20
23.948980518
 11
-3.7996929199
 21
23.904620965
  0
LINE
  5
278
100
AcDbEntity
  8
0
100
AcDbLine
 62
7
  6
CONTINUOUS
 10
-3.7996929199
 20
23.904620965
 11
-3.8651064584
 21
23.8348034876
  0
LINE
  5
279
100
AcDbEntity
  8
0
100
AcDbLine
 62
7
  6
CONTINUOUS
 10
-3.8651064584
 20
23.8348034876
 11
-4.0900699229
 21
23.5976885906
  0
LWPOLYLINE
  5
27A
100
AcDbEntity
  8
0
100
AcDbPolyline
 62
7
  6
CONTINUOUS
 90
25
 70
0
 10
7.2635253269
 20
24.6143806722
 10
7.2528207921
 20
24.6091824869
 10
7.2423755386
 20
24.6034806984
 10
7.232213463
 20
24.597288336
 10
7.2223576783
 20
24.5906194987
 10
7.2128304168
 20
24.5834892454
 10
7.2036532036
 20
24.5759136845
 10
7.194846812
 20
24.5679099529
 10
7.1864312258
 20
24.5594962013
 10
7.1784255316
 20
24.5506915058
 10
7.1708478751
 20
24.5415158188
 10
7.1637154241
 20
24.5319899245
 10
7.157044344
 20
24.5221354085
 10
7.1508497517
 20
24.5119745963
 10
7.1451456864
 20
24.5015305111
 10
7.1399450788
 20
24.4908268246
 10
7.1352597145
 20
24.4798877911
 10
7.1311002102
 20
24.4687381948
 10
7.127475993
 20
24.4574033023
 10
7.1243952744
 20
24.4459087912
 10
7.1218650374
 20
24.4342807119
 10
7.1198910188
 20
24.4225454322
 10
7.11847769
 20
24.4107295498
 10
7.1176282499
 20
24.3988598316
 10
7.117344621
 20
24.3869631727
  0
LINE
  5
27B
100
AcDbEntity
  8
RACCORDO
100
AcDbLine
 62
253
  6
CONTINUOUS
 10
-6.9269027915
 20
-19.0223571762
 11
6.6528483655
 21
-19.0223571762
  0
LINE
  5
27C
100
AcDbEntity
  8
IMPORT_IGES
100
AcDbLine
 62
7
  6
CONTINUOUS
 10
5.9271781044
 20
-18.6728364646
 11
-8.2011944527
 21
-18.6728364646
  0
LINE
  5
27D
100
AcDbEntity
  8
IMPORT_IGES
100
AcDbLine
 62
7
  6
CONTINUOUS
 10
-8.1991795178
 20
-18.6706692241
 11
5.9251250919
 21
-18.6706692241
  0
LINE
  5
27E
100
AcDbEntity
  8
IMPORT_IGES
100
AcDbLine
 62
253
  6
CONTINUOUS
 10
-8.1901473525
 20
-18.6616370588
 11
5.9160929265
 21
-18.6616370588
  0
LINE
  5
27F
100
AcDbEntity
  8
IMPORT_IGES
100
AcDbLine
 62
253
  6
CONTINUOUS
 10
6.9159406217
 20
-17.6617893636
 11
-9.1899950476
 21
-17.6617893636
  0
LINE
  5
280
100
AcDbEntity
  8
0
100
AcDbLine
 62
7
  6
CONTINUOUS
 10
-4.0900699229
 20
-23.3150270388
 11
-3.8652314899
 21
-23.5520088574
  0
LINE
  5
281
100
AcDbEntity
  8
0
100
AcDbLine
 62
7
  6
CONTINUOUS
 10
-3.8652314899
 20
-23.5520088574
 11
-3.7997584583
 21
-23.6218890378
  0
LINE
  5
282
100
AcDbEntity
  8
0
100
AcDbLine
 62
7
  6
CONTINUOUS
 10
-3.7997584583
 20
-23.6218890378
 11
-3.7586661328
 21
-23.6662613936
  0
LINE
  5
283
100
AcDbEntity
  8
0
100
AcDbLine
 62
7
  6
CONTINUOUS
 10
-3.7586661328
 20
-23.6662613936
 11
-3.7349557556
 21
-23.69215984
  0
LINE
  5
284
100
AcDbEntity
  8
0
100
AcDbLine
 62
7
  6
CONTINUOUS
 10
-3.7349557556
 20
-23.69215984
 11
-3.7141311191
 21
-23.7152078814
  0
LINE
  5
285
100
AcDbEntity
  8
0
100
AcDbLine
 62
7
  6
CONTINUOUS
 10
-3.7141311191
 20
-23.7152078814
 11
-3.6961139354
 21
-23.7354303696
  0
LWPOLYLINE
  5
286
100
AcDbEntity
  8
RACCORDO
100
AcDbPolyline
 62
7
  6
CONTINUOUS
 90
6
 70
0
 10
-7.17245891
 20
18.9533307759
 10
-7.1571928821
 20
18.9727964739
 10
-7.1258664896
 20
19.0278847642
 10
-7.1035746611
 20
19.0869922492
 10
-7.0892934174
 20
19.1510294811
 10
-7.0830227587
 20
19.2199964598
  0
LINE
  5
287
100
AcDbEntity
  8
0
100
AcDbLine
 62
7
  6
CONTINUOUS
 10
-3.137027213
 20
21.8413307759
 11
-3.2132716775
 21
21.7650863114
  0
LINE
  5
288
100
AcDbEntity
  8
IMPORT_IGES
100
AcDbLine
 62
7
  6
CONTINUOUS
 10
7.0722497495
 20
-16.0965442442
 11
6.924972787
 21
-16.0965442731
  0
LINE
  5
289
100
AcDbEntity
  8
IMPORT_IGES
100
AcDbLine
 62
253
  6
CONTINUOUS
 10
-2.0089983548
 20
-16.0305261373
 11
0.3349439288
 21
-16.0305261373
  0
LINE
  5
28A
100
AcDbEntity
  8
IMPORT_IGES
100
AcDbLine
 62
253
  6
CONTINUOUS
 10
0.3349439288
 20
-15.7805642135
 11
-2.0089983548
 21
-15.7805642135
  0
LWPOLYLINE
  5
28B
100
AcDbEntity
  8
IMPORT_IGES
100
AcDbPolyline
 62
253
  6
CONTINUOUS
 90
25
 70
0
 10
-2.0089983548
 20
-16.0305261373
 10
-2.0583913027
 20
-16.0286160558
 10
-2.1071574693
 20
-16.0236114904
 10
-2.1552968545
 20
-16.0155124411
 10
-2.2029974873
 20
-16.0042516742
 10
-2.2500713388
 20
-15.9898964233
 10
-2.2959543224
 20
-15.9726483904
 10
-2.3406620176
 20
-15.9525108956
 10
-2.3841788448
 20
-15.9294806186
 10
-2.4258939791
 20
-15.903749301
 10
-2.4657739485
 20
-15.8752416888
 10
-2.503852225
 20
-15.844033036
 10
-2.5396183999
 20
-15.8105408451
 10
-2.5730298634
 20
-15.7747316568
 10
-2.6041292254
 20
-15.7366389304
 10
-2.6325339059
 20
-15.6967805468
 10
-2.6581836467
 20
-15.6551363627
 10
-2.6811387062
 20
-15.6117265212
 10
-2.7011972795
 20
-15.5671293332
 10
-2.7183452383
 20
-15.5213571308
 10
-2.732596711
 20
-15.4743975819
 10
-2.743792278
 20
-15.4267919996
 10
-2.7518787997
 20
-15.3787208217
 10
-2.7569094157
 20
-15.3300036105
 10
-2.7588841262
 20
-15.2806403659
  0
LWPOLYLINE
  5
28C
100
AcDbEntity
  8
IMPORT_IGES
100
AcDbPolyline
 62
253
  6
CONTINUOUS
 90
16
 70
0
 10
-2.0089983548
 20
-15.7805642135
 10
-2.061282332
 20
-15.7778067409
 10
-2.1129899115
 20
-15.7695970457
 10
-2.1635541851
 20
-15.7560260941
 10
-2.2124294302
 20
-15.737239826
 10
-2.2590708367
 20
-15.7134471063
 10
-2.3029447874
 20
-15.6849261003
 10
-2.3435552588
 20
-15.6520159761
 10
-2.3804886125
 20
-15.6150699696
 10
-2.4133812554
 20
-15.5744531388
 10
-2.4418817163
 20
-15.5305802373
 10
-2.4656527616
 20
-15.4839481366
 10
-2.4844182968
 20
-15.4350910092
 10
-2.4979716838
 20
-15.3845537158
 10
-2.5061692472
 20
-15.3328814919
 10
-2.5089222024
 20
-15.2806403659
  0
LINE
  5
28D
100
AcDbEntity
  8
0
100
AcDbLine
 62
7
  6
CONTINUOUS
 10
-3.137027213
 20
-21.5586692241
 11
-3.2132716775
 21
-21.4824247596
  0
LINE
  5
28E
100
AcDbEntity
  8
IMPORT_IGES
100
AcDbLine
 62
7
  6
CONTINUOUS
 10
7.063305924
 20
-14.5749278424
 11
7.0631280694
 21
-14.57495006
  0
LINE
  5
28F
100
AcDbEntity
  8
IMPORT_IGES
100
AcDbLine
 62
7
  6
CONTINUOUS
 10
0.3130489394
 20
-15.7586692241
 11
-1.9871033654
 21
-15.7586692241
  0
LINE
  5
290
100
AcDbEntity
  8
IMPORT_IGES
100
AcDbLine
 62
253
  6
CONTINUOUS
 10
1.0848297002
 20
-15.2806403659
 11
0.8348677764
 21
-15.2806403659
  0
LINE
  5
291
100
AcDbEntity
  8
IMPORT_IGES
100
AcDbLine
 62
253
  6
CONTINUOUS
 10
-2.5089222024
 20
-15.2806403659
 11
-2.7588841262
 21
-15.2806403659
  0
LINE
  5
292
100
AcDbEntity
  8
IMPORT_IGES
100
AcDbLine
 62
7
  6
CONTINUOUS
 10
7.0721566066
 20
-14.8734247737
 11
6.924972787
 21
-14.8734247737
  0
LINE
  5
293
100
AcDbEntity
  8
IMPORT_IGES
100
AcDbLine
 62
7
  6
CONTINUOUS
 10
6.924972787
 20
-14.5750145783
 11
7.0631280678
 21
-14.5750156937
  0
LINE
  5
294
100
AcDbEntity
  8
0
100
AcDbLine
 62
7
  6
CONTINUOUS
 10
4.1997227
 20
24.0065330529
 11
4.1802453568
 21
23.9848690831
  0
LINE
  5
295
100
AcDbEntity
  8
0
100
AcDbLine
 62
7
  6
CONTINUOUS
 10
4.1802453568
 20
23.9848690831
 11
4.1579523443
 21
23.9603951393
  0
LINE
  5
296
100
AcDbEntity
  8
0
100
AcDbLine
 62
7
  6
CONTINUOUS
 10
4.1579523443
 20
23.9603951393
 11
4.1327951863
 21
23.9330659434
  0
LINE
  5
297
100
AcDbEntity
  8
0
100
AcDbLine
 62
7
  6
CONTINUOUS
 10
4.1327951863
 20
23.9330659434
 11
4.0895440331
 21
23.8865583071
  0
LINE
  5
298
100
AcDbEntity
  8
0
100
AcDbLine
 62
7
  6
CONTINUOUS
 10
4.0895440331
 20
23.8865583071
 11
4.021439628
 21
23.8140624774
  0
LWPOLYLINE
  5
299
100
AcDbEntity
  8
0
100
AcDbPolyline
 62
7
  6
CONTINUOUS
 90
3
 70
0
 10
4.021439628
 20
23.8140624774
 10
3.8801493908
 20
23.6650802608
 10
3.8160154969
 20
23.5976885906
  0
LINE
  5
29A
100
AcDbEntity
  8
0
100
AcDbLine
 62
7
  6
CONTINUOUS
 10
4.2693221401
 20
24.097680129
 11
4.312972787
 21
24.1413307759
  0
LINE
  5
29B
100
AcDbEntity
  8
IMPORT_IGES
100
AcDbLine
 62
7
  6
CONTINUOUS
 10
-2.9132098104
 20
16.4151481785
 11
-2.9113424507
 21
16.4170155381
  0
LINE
  5
29C
100
AcDbEntity
  8
0
100
AcDbLine
 62
7
  6
CONTINUOUS
 10
4.312972787
 20
22.5413307759
 11
4.26905054
 21
22.4974085288
  0
LINE
  5
29D
100
AcDbEntity
  8
IMPORT_IGES
100
AcDbLine
 62
7
  6
CONTINUOUS
 10
-4.9132098104
 20
13.1151481785
 11
-4.9113424507
 21
13.1170155381
  0
LINE
  5
29E
100
AcDbEntity
  8
IMPORT_IGES
100
AcDbLine
 62
7
  6
CONTINUOUS
 10
-5.6606938667
 20
14.1675133733
 11
-5.6625820698
 21
14.1656460136
  0
LINE
  5
29F
100
AcDbEntity
  8
0
100
AcDbLine
 62
253
  6
CONTINUOUS
 10
10.5129791331
 20
22.5413307759
 11
10.5042522653
 21
22.5355129461
  0
LINE
  5
2A0
100
AcDbEntity
  8
IMPORT_IGES
100
AcDbLine
 62
253
  6
CONTINUOUS
 10
-2.7588841262
 20
-13.9366980823
 11
-2.5089222024
 21
-13.9366980823
  0
LINE
  5
2A1
100
AcDbEntity
  8
IMPORT_IGES
100
AcDbLine
 62
253
  6
CONTINUOUS
 10
0.8348677764
 20
-13.9366980823
 11
1.0848297002
 21
-13.9366980823
  0
LINE
  5
2A2
100
AcDbEntity
  8
IMPORT_IGES
100
AcDbLine
 62
253
  6
CONTINUOUS
 10
7.0720749884
 20
-13.8016585091
 11
6.924972787
 21
-13.8016529081
  0
LINE
  5
2A3
100
AcDbEntity
  8
IMPORT_IGES
100
AcDbLine
 62
7
  6
CONTINUOUS
 10
-1.9871033654
 20
-13.4586692241
 11
0.3130489394
 21
-13.4586692241
  0
LINE
  5
2A4
100
AcDbEntity
  8
IMPORT_IGES
100
AcDbLine
 62
253
  6
CONTINUOUS
 10
-2.0089983548
 20
-13.4367742347
 11
0.3349439288
 21
-13.4367742347
  0
LINE
  5
2A5
100
AcDbEntity
  8
IMPORT_IGES
100
AcDbLine
 62
7
  6
CONTINUOUS
 10
7.0720299455
 20
-13.2101676149
 11
6.924972787
 21
-13.2101758952
  0
LINE
  5
2A6
100
AcDbEntity
  8
IMPORT_IGES
100
AcDbLine
 62
253
  6
CONTINUOUS
 10
0.3349439288
 20
-13.186812311
 11
-2.0089983548
 21
-13.186812311
  0
LINE
  5
2A7
100
AcDbEntity
  8
IMPORT_IGES
100
AcDbLine
 62
253
  6
CONTINUOUS
 10
-2.0089983548
 20
-12.5305261373
 11
0.3349439288
 21
-12.5305261373
  0
LINE
  5
2A8
100
AcDbEntity
  8
RACCORDO
100
AcDbLine
 62
7
  6
CONTINUOUS
 10
-9.656114226
 20
-12.3612551983
 11
-9.199027213
 21
-12.3612551983
  0
LINE
  5
2A9
100
AcDbEntity
  8
RACCORDO
100
AcDbLine
 62
7
  6
CONTINUOUS
 10
7.7782718113
 20
-12.3612551983
 11
9.3820598001
 21
-12.3612551983
  0
LINE
  5
2AA
100
AcDbEntity
  8
IMPORT_IGES
100
AcDbLine
 62
253
  6
CONTINUOUS
 10
0.3349439288
 20
-12.2805642135
 11
-2.0089983548
 21
-12.2805642135
  0
LINE
  5
2AB
100
AcDbEntity
  8
IMPORT_IGES
100
AcDbLine
 62
7
  6
CONTINUOUS
 10
0.3130489394
 20
-12.2586692241
 11
-1.9871033654
 21
-12.2586692241
  0
LWPOLYLINE
  5
2AC
100
AcDbEntity
  8
IMPORT_IGES
100
AcDbPolyline
 62
253
  6
CONTINUOUS
 90
25
 70
0
 10
0.3349439288
 20
-13.186812311
 10
0.3843368625
 20
-13.188722309
 10
0.4331030203
 20
-13.193726824
 10
0.4812424023
 20
-13.2018258559
 10
0.528943039
 20
-13.2130866538
 10
0.5760169
 20
-13.2274419686
 10
0.6218998933
 20
-13.2446900538
 10
0.6666075991
 20
-13.2648275737
 10
0.7101244373
 20
-13.287857864
 10
0.7518395766
 20
-13.3135891856
 10
0.791719542
 20
-13.3420967887
 10
0.8297978085
 20
-13.3733054231
 10
0.86556397
 20
-13.4067975994
 10
0.8989754122
 20
-13.4426067822
 10
0.9300747495
 20
-13.480699507
 10
0.9584794186
 20
-13.5205578908
 10
0.9841291718
 20
-13.5622020762
 10
1.007084257
 20
-13.6056119207
 10
1.0271428545
 20
-13.6502091132
 10
1.0442908342
 20
-13.6959813229
 10
1.0585423263
 20
-13.7429408806
 10
1.0697379019
 20
-13.7905464672
 10
1.0778244179
 20
-13.8386176433
 10
1.0828550173
 20
-13.8873348483
 10
1.0848297002
 20
-13.9366980823
  0
LWPOLYLINE
  5
2AD
100
AcDbEntity
  8
IMPORT_IGES
100
AcDbPolyline
 62
253
  6
CONTINUOUS
 90
25
 70
0
 10
-2.0089983548
 20
-12.5305261373
 10
-2.0583912863
 20
-12.528616152
 10
-2.1071574428
 20
-12.5236116447
 10
-2.1552968243
 20
-12.5155126154
 10
-2.2029974616
 20
-12.5042518128
 10
-2.250071324
 20
-12.4898964883
 10
-2.2959543188
 20
-12.4726483951
 10
-2.3406620262
 20
-12.4525108714
 10
-2.3841788661
 20
-12.429480579
 10
-2.4258940061
 20
-12.4037492568
 10
-2.4657739709
 20
-12.3752416551
 10
-2.5038522359
 20
-12.3440330236
 10
-2.5396183954
 20
-12.3105408494
 10
-2.5730298344
 20
-12.2747316675
 10
-2.6041291678
 20
-12.2366389429
 10
-2.6325338353
 20
-12.1967805591
 10
-2.6581835903
 20
-12.1551363734
 10
-2.6811386794
 20
-12.1117265285
 10
-2.7011972806
 20
-12.0671293354
 10
-2.7183452635
 20
-12.0213571245
 10
-2.7325967586
 20
-11.9743975655
 10
-2.7437923355
 20
-11.9267919782
 10
-2.7518788506
 20
-11.8787208024
 10
-2.7569094475
 20
-11.8300035983
 10
-2.7588841262
 20
-11.7806403659
  0
LWPOLYLINE
  5
2AE
100
AcDbEntity
  8
IMPORT_IGES
100
AcDbPolyline
 62
253
  6
CONTINUOUS
 90
16
 70
0
 10
0.3349439288
 20
-13.4367742347
 10
0.3872279217
 20
-13.439531709
 10
0.438935514
 20
-13.4477414086
 10
0.4894997974
 20
-13.4613123666
 10
0.5383750491
 20
-13.4800986422
 10
0.5850164588
 20
-13.5038913697
 10
0.6288904098
 20
-13.5324123831
 10
0.669500879
 20
-13.5653225136
 10
0.706434228
 20
-13.6022685248
 10
0.7393268646
 20
-13.6428853579
 10
0.7678273181
 20
-13.6867582589
 10
0.7915983555
 20
-13.7333903562
 10
0.8103638832
 20
-13.782247477
 10
0.8239172639
 20
-13.8327847607
 10
0.8321148228
 20
-13.8844569718
 10
0.8348677764
 20
-13.9366980823
  0
LWPOLYLINE
  5
2AF
100
AcDbEntity
  8
IMPORT_IGES
100
AcDbPolyline
 62
253
  6
CONTINUOUS
 90
16
 70
0
 10
-2.0089983548
 20
-12.2805642135
 10
-2.06128235
 20
-12.277806739
 10
-2.1129899444
 20
-12.2695970387
 10
-2.1635542293
 20
-12.2560260797
 10
-2.2124294819
 20
-12.237239803
 10
-2.2590708921
 20
-12.2134470743
 10
-2.3029448432
 20
-12.1849260598
 10
-2.343555312
 20
-12.1520159283
 10
-2.3804886603
 20
-12.1150699164
 10
-2.4133812959
 20
-12.074453083
 10
-2.4418817483
 20
-12.030580182
 10
-2.4656527845
 20
-11.9839480852
 10
-2.484418311
 20
-11.9350909654
 10
-2.4979716907
 20
-11.8845536832
 10
-2.506169249
 20
-11.8328814741
 10
-2.5089222024
 20
-11.7806403659
  0
LINE
  5
2B0
100
AcDbEntity
  8
0
100
AcDbLine
 62
253
  6
CONTINUOUS
 10
10.5042522653
 20
-22.2528513943
 11
10.5129791331
 21
-22.2586692241
  0
LINE
  5
2B1
100
AcDbEntity
  8
0
100
AcDbLine
 62
7
  6
CONTINUOUS
 10
4.312972787
 20
-23.8586692241
 11
4.2693221401
 21
-23.8150185773
  0
LINE
  5
2B2
100
AcDbEntity
  8
0
100
AcDbLine
 62
7
  6
CONTINUOUS
 10
4.312972787
 20
-22.2586692241
 11
4.26905054
 21
-22.2147469771
  0
LINE
  5
2B3
100
AcDbEntity
  8
0
100
AcDbLine
 62
7
  6
CONTINUOUS
 10
3.8160154969
 20
-23.3150270388
 11
4.0394237632
 21
-23.5504902277
  0
LINE
  5
2B4
100
AcDbEntity
  8
0
100
AcDbLine
 62
7
  6
CONTINUOUS
 10
4.0394237632
 20
-23.5504902277
 11
4.1046512337
 21
-23.6200899961
  0
LINE
  5
2B5
100
AcDbEntity
  8
0
100
AcDbLine
 62
7
  6
CONTINUOUS
 10
4.1046512337
 20
-23.6200899961
 11
4.1456916966
 21
-23.6643841638
  0
LINE
  5
2B6
100
AcDbEntity
  8
0
100
AcDbLine
 62
7
  6
CONTINUOUS
 10
4.1456916966
 20
-23.6643841638
 11
4.1694301329
 21
-23.690293819
  0
LWPOLYLINE
  5
2B7
100
AcDbEntity
  8
0
100
AcDbPolyline
 62
7
  6
CONTINUOUS
 90
19
 70
0
 10
4.1694301329
 20
-23.690293819
 10
4.1903299043
 20
-23.7133879
 10
4.1997371659
 20
-23.7238875097
 10
4.2084724519
 20
-23.733732302
 10
4.2165447867
 20
-23.7429186518
 10
4.223968623
 20
-23.7514501841
 10
4.2307692314
 20
-23.7593793303
 10
4.2369516748
 20
-23.7667012568
 10
4.2425369908
 20
-23.7734207972
 10
4.2475648698
 20
-23.7796048834
 10
4.2520440319
 20
-23.7852631883
 10
4.2559789132
 20
-23.7903860391
 10
4.2593897634
 20
-23.795011349
 10
4.2622811351
 20
-23.799145429
 10
4.2646539282
 20
-23.8027819681
 10
4.2665151615
 20
-23.8059399465
 10
4.2678673151
 20
-23.8086256908
 10
4.2687114564
 20
-23.8108328744
 10
4.26905054
 20
-23.8125614972
  0
LINE
  5
2B8
100
AcDbEntity
  8
0
100
AcDbLine
 62
7
  6
CONTINUOUS
 10
-11.3044822779
 20
-20.8813189549
 11
-11.287027213
 21
-21.4586692241
  0
LWPOLYLINE
  5
2B9
100
AcDbEntity
  8
0
100
AcDbPolyline
 62
7
  6
CONTINUOUS
 90
32
 70
0
 10
-10.2826510989
 20
-24.105756054
 10
-10.2823717501
 20
-24.1161982799
 10
-10.28152231
 20
-24.1280679981
 10
-10.2801089812
 20
-24.1398838804
 10
-10.2781349626
 20
-24.1516191601
 10
-10.2756047256
 20
-24.1632472395
 10
-10.272524007
 20
-24.1747417505
 10
-10.2688997898
 20
-24.186076643
 10
-10.2647402855
 20
-24.1972262394
 10
-10.2600549212
 20
-24.2081652729
 10
-10.2548543136
 20
-24.2188689593
 10
-10.2491502483
 20
-24.2293130445
 10
-10.242955656
 20
-24.2394738567
 10
-10.2362845759
 20
-24.2493283728
 10
-10.2291521249
 20
-24.258854267
 10
-10.2215744684
 20
-24.268029954
 10
-10.2135687742
 20
-24.2768346496
 10
-10.205153188
 20
-24.2852484012
 10
-10.1963467964
 20
-24.2932521328
 10
-10.1871695832
 20
-24.3008276937
 10
-10.1776423217
 20
-24.307957947
 10
-10.167786537
 20
-24.3146267842
 10
-10.1576244614
 20
-24.3208191466
 10
-10.1471792079
 20
-24.3265209351
 10
-10.1364746731
 20
-24.3317191204
 10
-10.125535272
 20
-24.3364018941
 10
-10.11438566
 20
-24.3405587485
 10
-10.1030508949
 20
-24.3441803582
 10
-10.0915549293
 20
-24.3472589368
 10
-10.079925494
 20
-24.3497869267
 10
-10.0681939994
 20
-24.3517578727
 10
-10.0595396876
 20
-24.3528471777
  0
LWPOLYLINE
  5
2BA
100
AcDbEntity
  8
0
100
AcDbPolyline
 62
7
  6
CONTINUOUS
 90
11
 70
0
 10
-10.287027213
 20
-24.1086734549
 10
-10.2867440627
 20
-24.1205687401
 10
-10.2858952472
 20
-24.1324370797
 10
-10.2844826871
 20
-24.1442515903
 10
-10.2825095807
 20
-24.1559855116
 10
-10.2799803947
 20
-24.1676122629
 10
-10.2769008547
 20
-24.1791055031
 10
-10.2732779343
 20
-24.1904391979
 10
-10.2691198388
 20
-24.2015876734
 10
-10.2644359852
 20
-24.2125256704
 10
-10.2592369818
 20
-24.2232284117
  0
LWPOLYLINE
  5
2BB
100
AcDbEntity
  8
0
100
AcDbPolyline
 62
7
  6
CONTINUOUS
 90
40
 70
0
 10
-11.287027213
 20
-21.7584403721
 10
-11.2866283672
 20
-21.7785691674
 10
-11.2854215392
 20
-21.7986604187
 10
-11.2834087799
 20
-21.8186817971
 10
-11.2805938024
 20
-21.8385971311
 10
-11.2769811557
 20
-21.8583783653
 10
-11.2725748592
 20
-21.8780053642
 10
-11.2673806359
 20
-21.8974478803
 10
-11.2614059424
 20
-21.916672582
 10
-11.2546573974
 20
-21.9356545924
 10
-11.2471397287
 20
-21.9543731803
 10
-11.238866954
 20
-21.9727863153
 10
-11.2298639271
 20
-21.9908388183
 10
-11.2201556591
 20
-22.0084864361
 10
-11.2097514244
 20
-22.0257175848
 10
-11.1986545219
 20
-22.0425269139
 10
-11.1868702996
 20
-22.0589012846
 10
-11.1744265575
 20
-22.0747972346
 10
-11.1613621661
 20
-22.0901654816
 10
-11.1477140527
 20
-22.1049675282
 10
-11.1334927927
 20
-22.1191965872
 10
-11.1186992232
 20
-22.1328519739
 10
-11.1033406976
 20
-22.1459227564
 10
-11.087455283
 20
-22.1583725222
 10
-11.0710907684
 20
-22.170163671
 10
-11.0542899212
 20
-22.1812686036
 10
-11.0370663929
 20
-22.1916814238
 10
-11.0194257272
 20
-22.2013987771
 10
-11.0013784822
 20
-22.2104116491
 10
-10.9829698456
 20
-22.2186943493
 10
-10.9642583138
 20
-22.2262209001
 10
-10.9452889725
 20
-22.2329763827
 10
-10.9260798571
 20
-22.2389575593
 10
-10.9066504422
 20
-22.244159886
 10
-10.8870209239
 20
-22.2485778094
 10
-10.8672343897
 20
-22.2522015211
 10
-10.8473450802
 20
-22.255023192
 10
-10.8273929566
 20
-22.2570409314
 10
-10.8074031122
 20
-22.2582558502
 10
-10.7874078127
 20
-22.2586692241
  0
LINE
  5
2BC
100
AcDbEntity
  8
0
100
AcDbLine
 62
7
  6
CONTINUOUS
 10
-11.287027213
 20
21.7413307759
 11
-11.2783003452
 21
21.1639805067
  0
LINE
  5
2BD
100
AcDbEntity
  8
0
100
AcDbLine
 62
7
  6
CONTINUOUS
 10
-11.3044822779
 20
21.1639805067
 11
-11.3044822779
 21
-20.8813189549
  0
LINE
  5
2BE
100
AcDbEntity
  8
0
100
AcDbLine
 62
7
  6
CONTINUOUS
 10
-11.287027213
 20
22.0413476989
 11
-11.287027213
 21
21.7413307759
  0
LINE
  5
2BF
100
AcDbEntity
  8
0
100
AcDbLine
 62
7
  6
CONTINUOUS
 10
-11.287027213
 20
-21.7586861472
 11
-11.287027213
 21
-21.4586692241
  0
LINE
  5
2C0
100
AcDbEntity
  8
0
100
AcDbLine
 62
7
  6
CONTINUOUS
 10
-11.2783003452
 20
22.0355298691
 11
-11.2783003452
 21
21.1639805067
  0
LINE
  5
2C1
100
AcDbEntity
  8
0
100
AcDbLine
 62
7
  6
CONTINUOUS
 10
-11.2783003452
 20
-20.8813189549
 11
-11.2783003452
 21
-21.7528683173
  0
LINE
  5
2C2
100
AcDbEntity
  8
0
100
AcDbLine
 62
7
  6
CONTINUOUS
 10
-11.2783003452
 20
-20.8813189549
 11
-11.287027213
 21
-21.4586692241
  0
LINE
  5
2C3
100
AcDbEntity
  8
0
100
AcDbLine
 62
7
  6
CONTINUOUS
 10
-11.287027213
 20
21.7413307759
 11
-11.3044822779
 21
21.1639805067
  0
LINE
  5
2C4
100
AcDbEntity
  8
RACCORDO
100
AcDbLine
 62
7
  6
CONTINUOUS
 10
-8.0390251716
 20
20.7290655277
 11
-7.987027213
 21
21.0413307759
  0
LWPOLYLINE
  5
2C5
100
AcDbEntity
  8
IMPORT_IGES
100
AcDbPolyline
 62
7
  6
CONTINUOUS
 90
10
 70
0
 10
-5.6625820698
 20
14.1656460136
 10
-5.6628521733
 20
14.1651108161
 10
-5.6631235713
 20
14.1640242071
 10
-5.6633962639
 20
14.1623873255
 10
-5.6636728207
 20
14.1601992082
 10
-5.663950672
 20
14.1574641131
 10
-5.6642221089
 20
14.1541978491
 10
-5.6644845617
 20
14.1504149401
 10
-5.6647406
 20
14.1461222632
 10
-5.6649902239
 20
14.1413307788
  0
LINE
  5
2C6
100
AcDbEntity
  8
IMPORT_IGES
100
AcDbLine
 62
7
  6
CONTINUOUS
 10
-1.3608446156
 20
15.6675133733
 11
-1.3627119752
 21
15.6656460136
  0
LINE
  5
2C7
100
AcDbEntity
  8
0
100
AcDbLine
 62
7
  6
CONTINUOUS
 10
7.0535144132
 20
22.4773008014
 11
7.1187906168
 21
22.5355129461
  0
LINE
  5
2C8
100
AcDbEntity
  8
0
100
AcDbLine
 62
253
  6
CONTINUOUS
 10
11.012972787
 20
22.0413476989
 11
11.0042459192
 21
22.0355298691
  0
LINE
  5
2C9
100
AcDbEntity
  8
IMPORT_IGES
100
AcDbLine
 62
7
  6
CONTINUOUS
 10
7.0717000677
 20
-10.9910750005
 11
6.924972787
 21
-10.9914138219
  0
LINE
  5
2CA
100
AcDbEntity
  8
IMPORT_IGES
100
AcDbLine
 62
7
  6
CONTINUOUS
 10
7.0643961494
 20
-12.1248399596
 11
6.924972787
 21
-12.124842769
  0
LINE
  5
2CB
100
AcDbEntity
  8
IMPORT_IGES
100
AcDbLine
 62
253
  6
CONTINUOUS
 10
1.0848297002
 20
-11.7806403659
 11
0.8348677764
 21
-11.7806403659
  0
LINE
  5
2CC
100
AcDbEntity
  8
IMPORT_IGES
100
AcDbLine
 62
253
  6
CONTINUOUS
 10
-2.5089222024
 20
-11.7806403659
 11
-2.7588841262
 21
-11.7806403659
  0
LINE
  5
2CD
100
AcDbEntity
  8
IMPORT_IGES
100
AcDbLine
 62
7
  6
CONTINUOUS
 10
7.0717213569
 20
-11.270642962
 11
6.924972787
 21
-11.2706430652
  0
LINE
  5
2CE
100
AcDbEntity
  8
IMPORT_IGES
100
AcDbLine
 62
253
  6
CONTINUOUS
 10
-2.7588841262
 20
-10.4366980823
 11
-2.5089222024
 21
-10.4366980823
  0
LINE
  5
2CF
100
AcDbEntity
  8
IMPORT_IGES
100
AcDbLine
 62
253
  6
CONTINUOUS
 10
0.8348677764
 20
-10.4366980823
 11
1.0848297002
 21
-10.4366980823
  0
LINE
  5
2D0
100
AcDbEntity
  8
IMPORT_IGES
100
AcDbLine
 62
7
  6
CONTINUOUS
 10
7.0643316635
 20
-11.278032656
 11
6.924972787
 21
-11.2776545842
  0
LINE
  5
2D1
100
AcDbEntity
  8
0
100
AcDbLine
 62
253
  6
CONTINUOUS
 10
11.0042459192
 20
-21.7528683173
 11
11.012972787
 21
-21.7586861472
  0
LINE
  5
2D2
100
AcDbEntity
  8
0
100
AcDbLine
 62
7
  6
CONTINUOUS
 10
7.0535144132
 20
-22.1946392496
 11
7.1187906168
 21
-22.2528513943
  0
LINE
  5
2D3
100
AcDbEntity
  8
IMPORT_IGES
100
AcDbLine
 62
253
  6
CONTINUOUS
 10
-2.487027213
 20
-13.9585930717
 11
-2.5089222024
 21
-13.9366980823
  0
LINE
  5
2D4
100
AcDbEntity
  8
IMPORT_IGES
100
AcDbLine
 62
253
  6
CONTINUOUS
 10
-2.0089983548
 20
-13.4367742347
 11
-1.9871033654
 21
-13.4586692241
  0
LINE
  5
2D5
100
AcDbEntity
  8
IMPORT_IGES
100
AcDbLine
 62
253
  6
CONTINUOUS
 10
0.3349439288
 20
-15.7805642135
 11
0.3130489394
 21
-15.7586692241
  0
LINE
  5
2D6
100
AcDbEntity
  8
RACCORDO
100
AcDbLine
 62
7
  6
CONTINUOUS
 10
-7.987027213
 20
-20.7586692241
 11
-8.0390251716
 21
-20.446403976
  0
LWPOLYLINE
  5
2D7
100
AcDbEntity
  8
IMPORT_IGES
100
AcDbPolyline
 62
253
  6
CONTINUOUS
 90
19
 70
0
 10
-9.1899950476
 20
-17.6617893636
 10
-9.1861652624
 20
-17.7489149816
 10
-9.1747581171
 20
-17.8353777781
 10
-9.1558603933
 20
-17.9205199738
 10
-9.1296158583
 20
-18.0036938365
 10
-9.0962241715
 20
-18.084266608
 10
-9.0559393653
 20
-18.1616253186
 10
-9.0090679127
 20
-18.23518145
 10
-8.9559663953
 20
-18.3043754126
 10
-8.8970387913
 20
-18.3686808024
 10
-8.8327334014
 20
-18.4276084065
 10
-8.7635394389
 20
-18.4807099238
 10
-8.6899833075
 20
-18.5275813765
 10
-8.6126245969
 20
-18.5678661827
 10
-8.5320518253
 20
-18.6012578694
 10
-8.4488779627
 20
-18.6275024044
 10
-8.3637357669
 20
-18.6464001283
 10
-8.2772729705
 20
-18.6578072736
 10
-8.1901473525
 20
-18.6616370588
  0
LWPOLYLINE
  5
2D8
100
AcDbEntity
  8
0
100
AcDbPolyline
 62
253
  6
CONTINUOUS
 90
34
 70
0
 10
-10.282655379
 20
23.9856683432
 10
-10.2823387283
 20
23.9753855756
 10
-10.2814585665
 20
23.9651260157
 10
-10.2800168802
 20
23.9549128186
 10
-10.2780169232
 20
23.9447690349
 10
-10.2754632092
 20
23.9347175585
 10
-10.2723615018
 20
23.924781075
 10
-10.2687188014
 20
23.9149820105
 10
-10.2645433293
 20
23.9053424808
 10
-10.2598445094
 20
23.8958842419
 10
-10.2546329466
 20
23.8866286404
 10
-10.248920403
 20
23.8775965657
 10
-10.2427197717
 20
23.8688084026
 10
-10.2360450469
 20
23.8602839854
 10
-10.2289112933
 20
23.8520425534
 10
-10.2213346111
 20
23.8441027069
 10
-10.2133321007
 20
23.8364823656
 10
-10.2049218231
 20
23.8291987283
 10
-10.1961227599
 20
23.8222682337
 10
-10.18695477
 20
23.8157065234
 10
-10.177438545
 20
23.809528407
 10
-10.1675955625
 20
23.803747828
 10
-10.1574480376
 20
23.7983778328
 10
-10.1470188725
 20
23.7934305413
 10
-10.1363316053
 20
23.7889171191
 10
-10.1254103566
 20
23.7848477528
 10
-10.1142797749
 20
23.7812316268
 10
-10.1029649813
 20
23.7780769023
 10
-10.0914915127
 20
23.7753906994
 10
-10.0798852639
 20
23.7731790808
 10
-10.0681724296
 20
23.7714470379
 10
-10.0563794449
 20
23.7701984798
 10
-10.044532926
 20
23.7694362244
 10
-10.0326596098
 20
23.7691619922
  0
LINE
  5
2D9
100
AcDbEntity
  8
0
100
AcDbLine
 62
253
  6
CONTINUOUS
 10
-10.282655379
 20
-23.7030067914
 11
-10.287027213
 21
-23.2691543723
  0
LINE
  5
2DA
100
AcDbEntity
  8
0
100
AcDbLine
 62
253
  6
CONTINUOUS
 10
-10.0326596098
 20
-23.4865004405
 11
-10.0377502109
 21
-22.9813189549
  0
LINE
  5
2DB
100
AcDbEntity
  8
0
100
AcDbLine
 62
253
  6
CONTINUOUS
 10
-10.282655379
 20
-24.1043016209
 11
-10.2826510989
 21
-24.105756054
  0
LINE
  5
2DC
100
AcDbEntity
  8
0
100
AcDbLine
 62
7
  6
CONTINUOUS
 10
-10.287027213
 20
23.9856683432
 11
-10.287027213
 21
23.5518159241
  0
LINE
  5
2DD
100
AcDbEntity
  8
RACCORDO
100
AcDbLine
 62
7
  6
CONTINUOUS
 10
-10.287027213
 20
-23.2691543723
 11
-10.287027213
 21
-22.4588827144
  0
LINE
  5
2DE
100
AcDbEntity
  8
0
100
AcDbLine
 62
7
  6
CONTINUOUS
 10
-10.287027213
 20
-23.2691543723
 11
-10.287027213
 21
-23.7030067914
  0
LINE
  5
2DF
100
AcDbEntity
  8
RACCORDO
100
AcDbLine
 62
7
  6
CONTINUOUS
 10
-10.287027213
 20
22.7415442662
 11
-10.287027213
 21
23.5518159241
  0
LINE
  5
2E0
100
AcDbEntity
  8
0
100
AcDbLine
 62
7
  6
CONTINUOUS
 10
-10.282655379
 20
24.3869631727
 11
-10.282655379
 21
23.9856683432
  0
LINE
  5
2E1
100
AcDbEntity
  8
0
100
AcDbLine
 62
7
  6
CONTINUOUS
 10
-10.282655379
 20
-23.7030067914
 11
-10.282655379
 21
-24.1043016209
  0
LINE
  5
2E2
100
AcDbEntity
  8
0
100
AcDbLine
 62
253
  6
CONTINUOUS
 10
-10.0326596098
 20
-23.4865004405
 11
-10.0326596098
 21
-24.3542973901
  0
LINE
  5
2E3
100
AcDbEntity
  8
0
100
AcDbLine
 62
253
  6
CONTINUOUS
 10
-10.0326596098
 20
23.7691619922
 11
-10.0326596098
 21
24.6369589419
  0
LINE
  5
2E4
100
AcDbEntity
  8
0
100
AcDbLine
 62
7
  6
CONTINUOUS
 10
-9.787027213
 20
20.3403704261
 11
-9.787027213
 21
-20.0577088743
  0
LINE
  5
2E5
100
AcDbEntity
  8
0
100
AcDbLine
 62
7
  6
CONTINUOUS
 10
-9.656114226
 20
12.64391675
 11
-9.656114226
 21
-12.3612551983
  0
LINE
  5
2E6
100
AcDbEntity
  8
IMPORT_IGES
100
AcDbLine
 62
7
  6
CONTINUOUS
 10
-9.2011944535
 20
-17.6728745415
 11
-9.2011944535
 21
17.9554980156
  0
LINE
  5
2E7
100
AcDbEntity
  8
IMPORT_IGES
100
AcDbLine
 62
7
  6
CONTINUOUS
 10
-9.199027213
 20
17.9534830807
 11
-9.199027213
 21
-17.670821529
  0
LINE
  5
2E8
100
AcDbEntity
  8
IMPORT_IGES
100
AcDbLine
 62
253
  6
CONTINUOUS
 10
-9.1899950476
 20
17.9444509154
 11
-9.1899950476
 21
-17.6617893636
  0
LINE
  5
2E9
100
AcDbEntity
  8
0
100
AcDbLine
 62
253
  6
CONTINUOUS
 10
-10.287027213
 20
23.5518159241
 11
-10.282655379
 21
23.9856683432
  0
LINE
  5
2EA
100
AcDbEntity
  8
0
100
AcDbLine
 62
253
  6
CONTINUOUS
 10
-10.0377502109
 20
23.2639805067
 11
-10.0326596098
 21
23.7691619922
  0
LWPOLYLINE
  5
2EB
100
AcDbEntity
  8
0
100
AcDbPolyline
 62
253
  6
CONTINUOUS
 90
34
 70
0
 10
-10.282655379
 20
-23.7030067914
 10
-10.282338717
 20
-23.6927238303
 10
-10.2814585228
 20
-23.6824640782
 10
-10.2800167829
 20
-23.6722506914
 10
-10.2780167528
 20
-23.6621067276
 10
-10.2754629459
 20
-23.6520550762
 10
-10.2723611205
 20
-23.6421184075
 10
-10.2687182698
 20
-23.6323191371
 10
-10.2645426168
 20
-23.6226793959
 10
-10.2598435946
 20
-23.6132209628
 10
-10.2546318145
 20
-23.6039651936
 10
-10.2489190369
 20
-23.5949329704
 10
-10.2427181537
 20
-23.5861446753
 10
-10.23604316
 20
-23.5776201427
 10
-10.2289091225
 20
-23.5693786139
 10
-10.221332143
 20
-23.56143869
 10
-10.2133293234
 20
-23.5538182919
 10
-10.2049187263
 20
-23.5465346188
 10
-10.1961193337
 20
-23.5396041091
 10
-10.1869510078
 20
-23.5330424065
 10
-10.1774344404
 20
-23.5268643198
 10
-10.1675911042
 20
-23.5210837895
 10
-10.1574432028
 20
-23.5157138569
 10
-10.1470136519
 20
-23.5107666506
 10
-10.1363260242
 20
-23.5062533506
 10
-10.1254044644
 20
-23.5021841476
 10
-10.1142736046
 20
-23.4985682138
 10
-10.102958541
 20
-23.4954136999
 10
-10.091484519
 20
-23.4927276636
 10
-10.0798777216
 20
-23.4905162536
 10
-10.0681652127
 20
-23.4887845711
 10
-10.0563737358
 20
-23.4875364424
 10
-10.044529625
 20
-23.4867745285
 10
-10.0326596098
 20
-23.4865004405
  0
LWPOLYLINE
  5
2EC
100
AcDbEntity
  8
IMPORT_IGES
100
AcDbPolyline
 62
253
  6
CONTINUOUS
 90
19
 70
0
 10
-9.1899950476
 20
17.9444509154
 10
-9.1861652624
 20
18.0315765334
 10
-9.1747581171
 20
18.1180393298
 10
-9.1558603933
 20
18.2031815256
 10
-9.1296158583
 20
18.2863553882
 10
-9.0962241715
 20
18.3669281598
 10
-9.0559393653
 20
18.4442868704
 10
-9.0090679127
 20
18.5178430018
 10
-8.9559663953
 20
18.5870369643
 10
-8.8970387913
 20
18.6513423542
 10
-8.8327334014
 20
18.7102699582
 10
-8.7635394389
 20
18.7633714756
 10
-8.6899833075
 20
18.8102429282
 10
-8.6126245969
 20
18.8505277344
 10
-8.5320518253
 20
18.8839194212
 10
-8.4488779627
 20
18.9101639562
 10
-8.3637357669
 20
18.92906168
 10
-8.2772729705
 20
18.9404688253
 10
-8.1901473525
 20
18.9442986105
  0
LINE
  5
2ED
100
AcDbEntity
  8
IMPORT_IGES
100
AcDbLine
 62
7
  6
CONTINUOUS
 10
0.6389307786
 20
14.1675133733
 11
0.6370940792
 21
14.1656460136
  0
LINE
  5
2EE
100
AcDbEntity
  8
RACCORDO
100
AcDbLine
 62
7
  6
CONTINUOUS
 10
6.8089683327
 20
20.2373263216
 11
6.6605684295
 21
20.0889264183
  0
LINE
  5
2EF
100
AcDbEntity
  8
IMPORT_IGES
100
AcDbLine
 62
253
  6
CONTINUOUS
 10
5.9160929265
 20
18.9442986105
 11
5.9251250919
 21
18.9533307759
  0
LINE
  5
2F0
100
AcDbEntity
  8
RACCORDO
100
AcDbLine
 62
7
  6
CONTINUOUS
 10
0.262972787
 20
-10.1836692241
 11
-0.537027213
 21
-10.1836692241
  0
LINE
  5
2F1
100
AcDbEntity
  8
IMPORT_IGES
100
AcDbLine
 62
7
  6
CONTINUOUS
 10
7.0642458873
 20
-10.1516573909
 11
6.924972787
 21
-10.1516686181
  0
LINE
  5
2F2
100
AcDbEntity
  8
IMPORT_IGES
100
AcDbLine
 62
7
  6
CONTINUOUS
 10
-1.9871033654
 20
-9.9586692241
 11
0.3130489394
 21
-9.9586692241
  0
LINE
  5
2F3
100
AcDbEntity
  8
IMPORT_IGES
100
AcDbLine
 62
253
  6
CONTINUOUS
 10
-2.0089983548
 20
-9.9367742347
 11
0.3349439288
 21
-9.9367742347
  0
LINE
  5
2F4
100
AcDbEntity
  8
IMPORT_IGES
100
AcDbLine
 62
253
  6
CONTINUOUS
 10
0.3349439288
 20
-9.686812311
 11
-2.0089983548
 21
-9.686812311
  0
LINE
  5
2F5
100
AcDbEntity
  8
IMPORT_IGES
100
AcDbLine
 62
253
  6
CONTINUOUS
 10
-2.0089983548
 20
-9.0305261373
 11
0.3349439288
 21
-9.0305261373
  0
LINE
  5
2F6
100
AcDbEntity
  8
IMPORT_IGES
100
AcDbLine
 62
253
  6
CONTINUOUS
 10
0.3349439288
 20
-8.7805642135
 11
-2.0089983548
 21
-8.7805642135
  0
LINE
  5
2F7
100
AcDbEntity
  8
IMPORT_IGES
100
AcDbLine
 62
7
  6
CONTINUOUS
 10
0.3130489394
 20
-8.7586692241
 11
-1.9871033654
 21
-8.7586692241
  0
LWPOLYLINE
  5
2F8
100
AcDbEntity
  8
IMPORT_IGES
100
AcDbPolyline
 62
253
  6
CONTINUOUS
 90
25
 70
0
 10
0.3349439288
 20
-9.686812311
 10
0.3843368447
 20
-9.6887222047
 10
0.4331029916
 20
-9.6937266569
 10
0.4812423696
 20
-9.7018256673
 10
0.5289430112
 20
-9.7130865036
 10
0.5760168838
 20
-9.7274418983
 10
0.6218998894
 20
-9.7446900488
 10
0.6666076084
 20
-9.7648275999
 10
0.7101244603
 20
-9.7878579069
 10
0.7518396059
 20
-9.8135892335
 10
0.7917195663
 20
-9.8420968252
 10
0.8297978203
 20
-9.8733054365
 10
0.8655639652
 20
-9.9067975947
 10
0.8989753807
 20
-9.9426067707
 10
0.9300746872
 20
-9.9806994935
 10
0.9584793421
 20
-10.0205578775
 10
0.9841291108
 20
-10.0622020646
 10
1.007084228
 20
-10.1056119129
 10
1.0271428557
 20
-10.1502091108
 10
1.0442908615
 20
-10.1959813297
 10
1.0585423779
 20
-10.2429408983
 10
1.0697379641
 20
-10.2905464904
 10
1.077824473
 20
-10.3386176641
 10
1.0828550517
 20
-10.3873348614
 10
1.0848297002
 20
-10.4366980823
  0
LWPOLYLINE
  5
2F9
100
AcDbEntity
  8
IMPORT_IGES
100
AcDbPolyline
 62
253
  6
CONTINUOUS
 90
25
 70
0
 10
-2.0089983548
 20
-9.0305261373
 10
-2.0583912683
 20
-9.0286162575
 10
-2.1071574138
 20
-9.0236118138
 10
-2.1552967911
 20
-9.0155128062
 10
-2.2029974334
 20
-9.0042519648
 10
-2.2500713076
 20
-8.9898965594
 10
-2.2959543149
 20
-8.9726484001
 10
-2.3406620356
 20
-8.9525108448
 10
-2.3841788894
 20
-8.9294805356
 10
-2.4258940358
 20
-8.9037492083
 10
-2.4657739955
 20
-8.8752416181
 10
-2.5038522478
 20
-8.8440330099
 10
-2.5396183905
 20
-8.8105408542
 10
-2.5730298025
 20
-8.7747316791
 10
-2.6041291048
 20
-8.7366389566
 10
-2.6325337578
 20
-8.6967805726
 10
-2.6581835286
 20
-8.6551363852
 10
-2.68113865
 20
-8.6117265364
 10
-2.7011972818
 20
-8.5671293378
 10
-2.7183452912
 20
-8.5213571176
 10
-2.7325968108
 20
-8.4743975476
 10
-2.7437923984
 20
-8.4267919547
 10
-2.7518789064
 20
-8.3787207813
 10
-2.7569094823
 20
-8.3300035851
 10
-2.7588841262
 20
-8.2806403659
  0
LWPOLYLINE
  5
2FA
100
AcDbEntity
  8
IMPORT_IGES
100
AcDbPolyline
 62
253
  6
CONTINUOUS
 90
16
 70
0
 10
0.3349439288
 20
-9.9367742347
 10
0.3872279412
 20
-9.9395317111
 10
0.4389355497
 20
-9.9477414162
 10
0.4894998453
 20
-9.9613123822
 10
0.538375105
 20
-9.9800986671
 10
0.5850165189
 20
-10.0038914044
 10
0.6288904702
 20
-10.0324124271
 10
0.6695009365
 20
-10.0653225654
 10
0.7064342798
 20
-10.1022685823
 10
0.7393269085
 20
-10.1428854183
 10
0.7678273527
 20
-10.1867583188
 10
0.7915983803
 20
-10.2333904119
 10
0.8103638986
 20
-10.2822475244
 10
0.8239172714
 20
-10.332784796
 10
0.8321148249
 20
-10.3844569911
 10
0.8348677764
 20
-10.4366980823
  0
LWPOLYLINE
  5
2FB
100
AcDbEntity
  8
IMPORT_IGES
100
AcDbPolyline
 62
253
  6
CONTINUOUS
 90
16
 70
0
 10
-2.0089983548
 20
-8.7805642135
 10
-2.0612823698
 20
-8.7778067369
 10
-2.1129899804
 20
-8.769597031
 10
-2.1635542777
 20
-8.756026064
 10
-2.2124295385
 20
-8.7372397778
 10
-2.2590709529
 20
-8.7134470392
 10
-2.3029449043
 20
-8.6849260153
 10
-2.3435553701
 20
-8.6520158759
 10
-2.3804887128
 20
-8.6150698582
 10
-2.4133813404
 20
-8.5744530219
 10
-2.4418817833
 20
-8.5305801214
 10
-2.4656528096
 20
-8.4839480289
 10
-2.4844183266
 20
-8.4350909175
 10
-2.4979716983
 20
-8.3845536476
 10
-2.5061692511
 20
-8.3328814545
 10
-2.5089222024
 20
-8.2806403659
  0
LINE
  5
2FC
100
AcDbEntity
  8
IMPORT_IGES
100
AcDbLine
 62
253
  6
CONTINUOUS
 10
0.812972787
 20
-15.2587453765
 11
0.8348677764
 21
-15.2806403659
  0
LINE
  5
2FD
100
AcDbEntity
  8
RACCORDO
100
AcDbLine
 62
7
  6
CONTINUOUS
 10
6.8089683327
 20
-19.9546647698
 11
6.6605684295
 21
-19.8062648666
  0
LINE
  5
2FE
100
AcDbEntity
  8
IMPORT_IGES
100
AcDbLine
 62
253
  6
CONTINUOUS
 10
-2.487027213
 20
-10.4585930717
 11
-2.5089222024
 21
-10.4366980823
  0
LINE
  5
2FF
100
AcDbEntity
  8
IMPORT_IGES
100
AcDbLine
 62
253
  6
CONTINUOUS
 10
5.9251250919
 20
-18.6706692241
 11
5.9160929265
 21
-18.6616370588
  0
LWPOLYLINE
  5
300
100
AcDbEntity
  8
RACCORDO
100
AcDbPolyline
 62
7
  6
CONTINUOUS
 90
6
 70
0
 10
-7.0830227587
 20
-18.937334908
 10
-7.0892934174
 20
-18.8683679293
 10
-7.1035746611
 20
-18.8043306974
 10
-7.1258664896
 20
-18.7452232124
 10
-7.1571928821
 20
-18.6901349222
 10
-7.17245891
 20
-18.6706692241
  0
LWPOLYLINE
  5
301
100
AcDbEntity
  8
0
100
AcDbPolyline
 62
253
  6
CONTINUOUS
 90
34
 70
0
 10
-7.391399047
 20
-23.7030067914
 10
-7.3917151742
 20
-23.6927330136
 10
-7.3925940864
 20
-23.6824801032
 10
-7.394034178
 20
-23.6722711933
 10
-7.3960327439
 20
-23.662128594
 10
-7.3985855598
 20
-23.6520760044
 10
-7.4016864799
 20
-23.6421383838
 10
-7.4053281879
 20
-23.6323389515
 10
-7.4095026933
 20
-23.6226990157
 10
-7.4142006739
 20
-23.6132401452
 10
-7.4194116304
 20
-23.6039835782
 10
-7.4251237716
 20
-23.5949503497
 10
-7.4313241039
 20
-23.5861610384
 10
-7.4379985799
 20
-23.5776355467
 10
-7.4451321777
 20
-23.5693930528
 10
-7.4527088117
 20
-23.5614521455
 10
-7.460711394
 20
-23.5538307409
 10
-7.4691218523
 20
-23.5465460566
 10
-7.4779211847
 20
-23.5396145533
 10
-7.4870895215
 20
-23.5330518822
 10
-7.4966061733
 20
-23.5268728522
 10
-7.5064496584
 20
-23.521091411
 10
-7.5165977572
 20
-23.515720609
 10
-7.5270275621
 20
-23.51077257
 10
-7.5377155295
 20
-23.5062584635
 10
-7.5486375461
 20
-23.5021884746
 10
-7.5597689453
 20
-23.4985717963
 10
-7.5710845597
 20
-23.4954166027
 10
-7.5825588175
 20
-23.4927300169
 10
-7.5941658433
 20
-23.4905180903
 10
-7.605879477
 20
-23.4887858056
 10
-7.6176732919
 20
-23.4875370717
 10
-7.6295206525
 20
-23.4867747097
 10
-7.6413948162
 20
-23.4865004405
  0
LINE
  5
302
100
AcDbEntity
  8
RACCORDO
100
AcDbLine
 62
253
  6
CONTINUOUS
 10
-7.8910316673
 20
-18.937334908
 11
-7.897592384
 21
-18.6706692241
  0
LINE
  5
303
100
AcDbEntity
  8
0
100
AcDbLine
 62
253
  6
CONTINUOUS
 10
-7.6413948162
 20
23.7691619922
 11
-7.6363042151
 21
23.2639805067
  0
LINE
  5
304
100
AcDbEntity
  8
0
100
AcDbLine
 62
253
  6
CONTINUOUS
 10
-7.391399047
 20
23.9856683432
 11
-7.387027213
 21
23.5518159241
  0
LINE
  5
305
100
AcDbEntity
  8
0
100
AcDbLine
 62
7
  6
CONTINUOUS
 10
-8.387027213
 20
-21.2586692241
 11
-8.387027213
 21
-20.7586692241
  0
LINE
  5
306
100
AcDbEntity
  8
0
100
AcDbLine
 62
7
  6
CONTINUOUS
 10
-8.387027213
 20
21.0413307759
 11
-8.387027213
 21
21.5413307759
  0
LINE
  5
307
100
AcDbEntity
  8
0
100
AcDbLine
 62
253
  6
CONTINUOUS
 10
-8.2035967148
 20
21.595066203
 11
-8.2035967148
 21
21.1330390401
  0
LINE
  5
308
100
AcDbEntity
  8
0
100
AcDbLine
 62
253
  6
CONTINUOUS
 10
-8.2035967148
 20
-20.8503774883
 11
-8.2035967148
 21
-21.3124046513
  0
LINE
  5
309
100
AcDbEntity
  8
IMPORT_IGES
100
AcDbLine
 62
253
  6
CONTINUOUS
 10
-8.1901473525
 20
-18.6616370588
 11
-8.1901473525
 21
18.9442986105
  0
LINE
  5
30A
100
AcDbEntity
  8
RACCORDO
100
AcDbLine
 62
7
  6
CONTINUOUS
 10
-7.8910316673
 20
-20.8586692241
 11
-7.8910316673
 21
-18.937334908
  0
LINE
  5
30B
100
AcDbEntity
  8
RACCORDO
100
AcDbLine
 62
7
  6
CONTINUOUS
 10
-7.8910316673
 20
19.2199964598
 11
-7.8910316673
 21
21.1413307759
  0
LINE
  5
30C
100
AcDbEntity
  8
0
100
AcDbLine
 62
253
  6
CONTINUOUS
 10
-7.7036728672
 20
21.4773177245
 11
-7.7036728672
 21
21.1413307759
  0
LINE
  5
30D
100
AcDbEntity
  8
0
100
AcDbLine
 62
253
  6
CONTINUOUS
 10
-7.7036728672
 20
-20.8586692241
 11
-7.7036728672
 21
-21.1946561728
  0
LINE
  5
30E
100
AcDbEntity
  8
0
100
AcDbLine
 62
253
  6
CONTINUOUS
 10
-7.6413948162
 20
-23.4865004405
 11
-7.6413948162
 21
-24.3542973901
  0
LINE
  5
30F
100
AcDbEntity
  8
0
100
AcDbLine
 62
253
  6
CONTINUOUS
 10
-7.6413948162
 20
23.7691619922
 11
-7.6413948162
 21
24.6369589419
  0
LINE
  5
310
100
AcDbEntity
  8
0
100
AcDbLine
 62
7
  6
CONTINUOUS
 10
-7.391399047
 20
-24.1043016209
 11
-7.391399047
 21
-23.7030067914
  0
LINE
  5
311
100
AcDbEntity
  8
0
100
AcDbLine
 62
7
  6
CONTINUOUS
 10
-7.391399047
 20
23.9856683432
 11
-7.391399047
 21
24.3869631727
  0
LINE
  5
312
100
AcDbEntity
  8
RACCORDO
100
AcDbLine
 62
7
  6
CONTINUOUS
 10
-7.387027213
 20
23.5518159241
 11
-7.387027213
 21
22.7415442662
  0
LINE
  5
313
100
AcDbEntity
  8
0
100
AcDbLine
 62
7
  6
CONTINUOUS
 10
-7.387027213
 20
-23.7030067914
 11
-7.387027213
 21
-23.2691543723
  0
LINE
  5
314
100
AcDbEntity
  8
RACCORDO
100
AcDbLine
 62
7
  6
CONTINUOUS
 10
-7.387027213
 20
-22.4588827144
 11
-7.387027213
 21
-23.2691543723
  0
LINE
  5
315
100
AcDbEntity
  8
0
100
AcDbLine
 62
7
  6
CONTINUOUS
 10
-7.387027213
 20
23.5518159241
 11
-7.387027213
 21
23.9856683432
  0
LINE
  5
316
100
AcDbEntity
  8
RACCORDO
100
AcDbLine
 62
7
  6
CONTINUOUS
 10
-7.0830227587
 20
-19.9546647698
 11
-7.0830227587
 21
-18.937334908
  0
LINE
  5
317
100
AcDbEntity
  8
RACCORDO
100
AcDbLine
 62
7
  6
CONTINUOUS
 10
-7.0830227587
 20
19.2199964598
 11
-7.0830227587
 21
20.2373263216
  0
LINE
  5
318
100
AcDbEntity
  8
0
100
AcDbLine
 62
253
  6
CONTINUOUS
 10
-7.6363042151
 20
-22.9813189549
 11
-7.6413948162
 21
-23.4865004405
  0
LINE
  5
319
100
AcDbEntity
  8
0
100
AcDbLine
 62
253
  6
CONTINUOUS
 10
-7.387027213
 20
-23.2691543723
 11
-7.391399047
 21
-23.7030067914
  0
LINE
  5
31A
100
AcDbEntity
  8
RACCORDO
100
AcDbLine
 62
253
  6
CONTINUOUS
 10
-7.897592384
 20
18.9533307759
 11
-7.8910316673
 21
19.2199964598
  0
LWPOLYLINE
  5
31B
100
AcDbEntity
  8
0
100
AcDbPolyline
 62
253
  6
CONTINUOUS
 90
34
 70
0
 10
-7.391399047
 20
23.9856683432
 10
-7.3917156977
 20
23.9753855756
 10
-7.3925958595
 20
23.9651260157
 10
-7.3940375458
 20
23.9549128186
 10
-7.3960375028
 20
23.9447690349
 10
-7.3985912168
 20
23.9347175585
 10
-7.4016929242
 20
23.924781075
 10
-7.4053356246
 20
23.9149820105
 10
-7.4095110967
 20
23.9053424808
 10
-7.4142099166
 20
23.8958842419
 10
-7.4194214794
 20
23.8866286404
 10
-7.4251340229
 20
23.8775965657
 10
-7.4313346543
 20
23.8688084026
 10
-7.438009379
 20
23.8602839854
 10
-7.4451431327
 20
23.8520425534
 10
-7.4527198148
 20
23.8441027069
 10
-7.4607223253
 20
23.8364823656
 10
-7.4691326029
 20
23.8291987283
 10
-7.4779316661
 20
23.8222682337
 10
-7.487099656
 20
23.8157065234
 10
-7.496615881
 20
23.809528407
 10
-7.5064588635
 20
23.803747828
 10
-7.5166063884
 20
23.7983778328
 10
-7.5270355535
 20
23.7934305413
 10
-7.5377228206
 20
23.7889171191
 10
-7.5486440694
 20
23.7848477528
 10
-7.5597746511
 20
23.7812316268
 10
-7.5710894447
 20
23.7780769023
 10
-7.5825629133
 20
23.7753906994
 10
-7.5941691621
 20
23.7731790808
 10
-7.6058819964
 20
23.7714470379
 10
-7.617674981
 20
23.7701984798
 10
-7.6295214999
 20
23.7694362244
 10
-7.6413948162
 20
23.7691619922
  0
LINE
  5
31C
100
AcDbEntity
  8
IMPORT_IGES
100
AcDbLine
 62
7
  6
CONTINUOUS
 10
1.3867901896
 20
13.1151481785
 11
1.3886575493
 21
13.1170155381
  0
LINE
  5
31D
100
AcDbEntity
  8
IMPORT_IGES
100
AcDbLine
 62
253
  6
CONTINUOUS
 10
6.924972787
 20
17.9534830807
 11
6.9159406217
 21
17.9444509154
  0
LINE
  5
31E
100
AcDbEntity
  8
IMPORT_IGES
100
AcDbLine
 62
253
  6
CONTINUOUS
 10
1.0848297002
 20
-8.2806403659
 11
0.8348677764
 21
-8.2806403659
  0
LINE
  5
31F
100
AcDbEntity
  8
IMPORT_IGES
100
AcDbLine
 62
253
  6
CONTINUOUS
 10
-2.5089222024
 20
-8.2806403659
 11
-2.7588841262
 21
-8.2806403659
  0
LINE
  5
320
100
AcDbEntity
  8
IMPORT_IGES
100
AcDbLine
 62
7
  6
CONTINUOUS
 10
7.0642407967
 20
-8.1114020437
 11
6.924972787
 21
-8.1114051789
  0
LINE
  5
321
100
AcDbEntity
  8
IMPORT_IGES
100
AcDbLine
 62
7
  6
CONTINUOUS
 10
7.0641687514
 20
-7.1653278552
 11
6.924972787
 21
-7.1653403916
  0
LINE
  5
322
100
AcDbEntity
  8
IMPORT_IGES
100
AcDbLine
 62
253
  6
CONTINUOUS
 10
-2.7588841262
 20
-6.9366980823
 11
-2.5089222024
 21
-6.9366980823
  0
LINE
  5
323
100
AcDbEntity
  8
IMPORT_IGES
100
AcDbLine
 62
253
  6
CONTINUOUS
 10
0.8348677764
 20
-6.9366980823
 11
1.0848297002
 21
-6.9366980823
  0
LINE
  5
324
100
AcDbEntity
  8
IMPORT_IGES
100
AcDbLine
 62
253
  6
CONTINUOUS
 10
-2.0089983548
 20
-9.9367742347
 11
-1.9871033654
 21
-9.9586692241
  0
LINE
  5
325
100
AcDbEntity
  8
IMPORT_IGES
100
AcDbLine
 62
253
  6
CONTINUOUS
 10
0.3349439288
 20
-12.2805642135
 11
0.3130489394
 21
-12.2586692241
  0
LINE
  5
326
100
AcDbEntity
  8
IMPORT_IGES
100
AcDbLine
 62
253
  6
CONTINUOUS
 10
0.812972787
 20
-11.7587453765
 11
0.8348677764
 21
-11.7806403659
  0
LINE
  5
327
100
AcDbEntity
  8
IMPORT_IGES
100
AcDbLine
 62
253
  6
CONTINUOUS
 10
6.9159406217
 20
-17.6617893636
 11
6.924972787
 21
-17.670821529
  0
LWPOLYLINE
  5
328
100
AcDbEntity
  8
RACCORDO
100
AcDbPolyline
 62
7
  6
CONTINUOUS
 90
6
 70
0
 10
-7.8910316673
 20
19.2199964598
 10
-7.8847610086
 20
19.1510294811
 10
-7.8704797649
 20
19.0869922492
 10
-7.8481879363
 20
19.0278847642
 10
-7.8168615439
 20
18.9727964739
 10
-7.801595516
 20
18.9533307759
  0
LINE
  5
329
100
AcDbEntity
  8
RACCORDO
100
AcDbLine
 62
253
  6
CONTINUOUS
 10
-7.076462042
 20
18.9533307759
 11
-7.0830227587
 21
19.2199964598
  0
LWPOLYLINE
  5
32A
100
AcDbEntity
  8
0
100
AcDbPolyline
 62
7
  6
CONTINUOUS
 90
34
 70
0
 10
-7.391399047
 20
24.3869631727
 10
-7.3916825978
 20
24.3988581942
 10
-7.3925318027
 20
24.4107262709
 10
-7.3939447381
 20
24.4225405188
 10
-7.3959182034
 20
24.434274176
 10
-7.3984477282
 20
24.4459006632
 10
-7.4015275826
 20
24.4573936438
 10
-7.40515079
 20
24.4687270837
 10
-7.409309143
 20
24.4798753099
 10
-7.4139932221
 20
24.4908130693
 10
-7.4191924167
 20
24.5015155855
 10
-7.4248949496
 20
24.5119586147
 10
-7.4310879032
 20
24.5221185013
 10
-7.437757249
 20
24.5319722308
 10
-7.4448878795
 20
24.5414974823
 10
-7.4524636423
 20
24.550672679
 10
-7.4604673765
 20
24.5594770369
 10
-7.4688809519
 20
24.5678906123
 10
-7.4776853099
 20
24.5758943465
 10
-7.4868605065
 20
24.5834701093
 10
-7.496385758
 20
24.5906007399
 10
-7.5062394875
 20
24.5972700857
 10
-7.5163993741
 20
24.6034630393
 10
-7.5268424034
 20
24.6091655721
 10
-7.5375449195
 20
24.6143647668
 10
-7.548482679
 20
24.6190488458
 10
-7.5596309052
 20
24.6232071989
 10
-7.570964345
 20
24.6268304063
 10
-7.5824573256
 20
24.6299102607
 10
-7.5940838128
 20
24.6324397855
 10
-7.6058174701
 20
24.6344132507
 10
-7.617631718
 20
24.6358261861
 10
-7.6294997947
 20
24.6366753911
 10
-7.6413948162
 20
24.6369589419
  0
LWPOLYLINE
  5
32B
100
AcDbEntity
  8
0
100
AcDbPolyline
 62
7
  6
CONTINUOUS
 90
34
 70
0
 10
-7.387027213
 20
24.3913350067
 10
-7.3873103632
 20
24.4032302919
 10
-7.3881591787
 20
24.4150986314
 10
-7.3895717388
 20
24.426913142
 10
-7.3915448453
 20
24.4386470634
 10
-7.3940740313
 20
24.4502738147
 10
-7.3971535713
 20
24.4617670549
 10
-7.4007764916
 20
24.4731007497
 10
-7.4049345872
 20
24.4842492252
 10
-7.4096184408
 20
24.4951872222
 10
-7.4148174442
 20
24.5058899635
 10
-7.4205198213
 20
24.5163332041
 10
-7.4267126549
 20
24.5264932818
 10
-7.4333819175
 20
24.536347181
 10
-7.4405125023
 20
24.5458725797
 10
-7.4480882541
 20
24.5550478949
 10
-7.4560920125
 20
24.563852342
 10
-7.4645056469
 20
24.5722659764
 10
-7.4733100939
 20
24.5802697347
 10
-7.4824854091
 20
24.5878454866
 10
-7.4920108079
 20
24.5949760714
 10
-7.5018647071
 20
24.601645334
 10
-7.5120247847
 20
24.6078381675
 10
-7.5224680254
 20
24.6135405447
 10
-7.5331707667
 20
24.6187395481
 10
-7.5441087637
 20
24.6234234017
 10
-7.5552572392
 20
24.6275814972
 10
-7.566590934
 20
24.6312044176
 10
-7.5780841742
 20
24.6342839576
 10
-7.5897109255
 20
24.6368131436
 10
-7.6014448468
 20
24.63878625
 10
-7.6132593574
 20
24.6401988101
 10
-7.625127697
 20
24.6410476256
 10
-7.6370229822
 20
24.6413307759
  0
LINE
  5
32C
100
AcDbEntity
  8
IMPORT_IGES
100
AcDbLine
 62
253
  6
CONTINUOUS
 10
-5.9327015288
 20
14.1413307759
 11
-5.9327015288
 21
8.6413307759
  0
LINE
  5
32D
100
AcDbEntity
  8
IMPORT_IGES
100
AcDbLine
 62
253
  6
CONTINUOUS
 10
-5.682739605
 20
8.6413307759
 11
-5.682739605
 21
14.1413307759
  0
LINE
  5
32E
100
AcDbEntity
  8
IMPORT_IGES
100
AcDbLine
 62
7
  6
CONTINUOUS
 10
-5.6695721481
 20
13.5169546162
 11
-5.6695721481
 21
13.7657069356
  0
LINE
  5
32F
100
AcDbEntity
  8
IMPORT_IGES
100
AcDbLine
 62
7
  6
CONTINUOUS
 10
-5.6608446156
 20
8.6413307759
 11
-5.6608446156
 21
13.1151481785
  0
LINE
  5
330
100
AcDbEntity
  8
IMPORT_IGES
100
AcDbLine
 62
253
  6
CONTINUOUS
 10
-5.287027213
 20
8.2606836637
 11
-5.287027213
 21
8.2675133733
  0
LINE
  5
331
100
AcDbEntity
  8
RACCORDO
100
AcDbLine
 62
253
  6
CONTINUOUS
 10
-7.0830227587
 20
-18.937334908
 11
-7.076462042
 21
-18.6706692241
  0
LWPOLYLINE
  5
332
100
AcDbEntity
  8
IMPORT_IGES
100
AcDbPolyline
 62
7
  6
CONTINUOUS
 90
14
 70
0
 10
-4.8977522214
 20
8.6413307759
 10
-4.8996791861
 20
8.6039938593
 10
-4.9053698752
 20
8.5667256936
 10
-4.9148242885
 20
8.5298420365
 10
-4.9281533862
 20
8.4935883366
 10
-4.9452462081
 20
8.4584439907
 10
-4.9657698739
 20
8.4250632619
 10
-4.9897739606
 20
8.3939134485
 10
-5.0172088911
 20
8.3652080546
 10
-5.0475930546
 20
8.3392065265
 10
-5.0809081916
 20
8.3163568212
 10
-5.1171725616
 20
8.2969444056
 10
-5.155959332
 20
8.2811617163
 10
-5.1971262252
 20
8.2694859166
  0
LWPOLYLINE
  5
333
100
AcDbEntity
  8
0
100
AcDbPolyline
 62
7
  6
CONTINUOUS
 90
4
 70
0
 10
7.6806594949
 20
21.8387200381
 10
7.6270033107
 20
21.7595899775
 10
7.5996374967
 20
21.719599897
 10
7.5718500925
 20
21.6794687364
  0
LWPOLYLINE
  5
334
100
AcDbEntity
  8
0
100
AcDbPolyline
 62
7
  6
CONTINUOUS
 90
3
 70
0
 10
7.5718500925
 20
21.6794687364
 10
7.458377838
 20
21.5177966502
 10
7.4296184412
 20
21.4773177245
  0
LINE
  5
335
100
AcDbEntity
  8
IMPORT_IGES
100
AcDbLine
 62
7
  6
CONTINUOUS
 10
-1.9871033654
 20
-6.4586692241
 11
0.3130489394
 21
-6.4586692241
  0
LINE
  5
336
100
AcDbEntity
  8
IMPORT_IGES
100
AcDbLine
 62
253
  6
CONTINUOUS
 10
-2.0089983548
 20
-6.4367742347
 11
0.3349439288
 21
-6.4367742347
  0
LINE
  5
337
100
AcDbEntity
  8
IMPORT_IGES
100
AcDbLine
 62
253
  6
CONTINUOUS
 10
0.3349439288
 20
-6.186812311
 11
-2.0089983548
 21
-6.186812311
  0
LINE
  5
338
100
AcDbEntity
  8
IMPORT_IGES
100
AcDbLine
 62
253
  6
CONTINUOUS
 10
-2.0089983548
 20
-5.5305261373
 11
0.3349439288
 21
-5.5305261373
  0
LINE
  5
339
100
AcDbEntity
  8
IMPORT_IGES
100
AcDbLine
 62
253
  6
CONTINUOUS
 10
0.3349439288
 20
-5.2805642135
 11
-2.0089983548
 21
-5.2805642135
  0
LINE
  5
33A
100
AcDbEntity
  8
IMPORT_IGES
100
AcDbLine
 62
7
  6
CONTINUOUS
 10
0.3130489394
 20
-5.2586692241
 11
-1.9871033654
 21
-5.2586692241
  0
LWPOLYLINE
  5
33B
100
AcDbEntity
  8
IMPORT_IGES
100
AcDbPolyline
 62
253
  6
CONTINUOUS
 90
25
 70
0
 10
0.3349439288
 20
-6.186812311
 10
0.3843368252
 20
-6.1887220901
 10
0.4331029601
 20
-6.1937264731
 10
0.4812423336
 20
-6.2018254599
 10
0.5289429806
 20
-6.2130863385
 10
0.5760168661
 20
-6.2274418209
 10
0.6218998851
 20
-6.2446900433
 10
0.6666076187
 20
-6.2648276287
 10
0.7101244857
 20
-6.287857954
 10
0.7518396381
 20
-6.3135892861
 10
0.791719593
 20
-6.3420968654
 10
0.8297978333
 20
-6.3733054513
 10
0.8655639598
 20
-6.4067975895
 10
0.8989753461
 20
-6.442606758
 10
0.9300746187
 20
-6.4806994786
 10
0.958479258
 20
-6.5205578628
 10
0.9841290436
 20
-6.5622020518
 10
1.0070841961
 20
-6.6056119043
 10
1.027142857
 20
-6.6502091082
 10
1.0442908916
 20
-6.6959813373
 10
1.0585424347
 20
-6.7429409178
 10
1.0697380324
 20
-6.7905465159
 10
1.0778245337
 20
-6.8386176871
 10
1.0828550896
 20
-6.8873348759
 10
1.0848297002
 20
-6.9366980823
  0
LWPOLYLINE
  5
33C
100
AcDbEntity
  8
IMPORT_IGES
100
AcDbPolyline
 62
253
  6
CONTINUOUS
 90
25
 70
0
 10
-2.0089983548
 20
-5.5305261373
 10
-2.0583912485
 20
-5.5286163736
 10
-2.1071573818
 20
-5.5236119999
 10
-2.1552967547
 20
-5.5155130163
 10
-2.2029974024
 20
-5.504252132
 10
-2.2500712897
 20
-5.4898966377
 10
-2.2959543105
 20
-5.4726484057
 10
-2.340662046
 20
-5.4525108157
 10
-2.3841789151
 20
-5.4294804879
 10
-2.4258940684
 20
-5.4037491551
 10
-2.4657740226
 20
-5.3752415775
 10
-2.503852261
 20
-5.3440329949
 10
-2.5396183851
 20
-5.3105408594
 10
-2.5730297674
 20
-5.274731692
 10
-2.6041290354
 20
-5.2366389716
 10
-2.6325336726
 20
-5.1967805874
 10
-2.6581834606
 20
-5.1551363982
 10
-2.6811386177
 20
-5.1117265451
 10
-2.7011972831
 20
-5.0671293404
 10
-2.7183453216
 20
-5.02135711
 10
-2.7325968683
 20
-4.9743975279
 10
-2.7437924676
 20
-4.9267919289
 10
-2.7518789678
 20
-4.8787207581
 10
-2.7569095206
 20
-4.8300035704
 10
-2.7588841262
 20
-4.7806403659
  0
LWPOLYLINE
  5
33D
100
AcDbEntity
  8
IMPORT_IGES
100
AcDbPolyline
 62
253
  6
CONTINUOUS
 90
16
 70
0
 10
0.3349439288
 20
-6.4367742347
 10
0.3872279627
 20
-6.4395317134
 10
0.4389355889
 20
-6.4477414246
 10
0.4894998979
 20
-6.4613123993
 10
0.5383751666
 20
-6.4800986946
 10
0.5850165849
 20
-6.5038914426
 10
0.6288905366
 20
-6.5324124754
 10
0.6695009997
 20
-6.5653226224
 10
0.7064343368
 20
-6.6022686456
 10
0.7393269568
 20
-6.6428854847
 10
0.7678273907
 20
-6.6867583847
 10
0.7915984076
 20
-6.7333904731
 10
0.8103639155
 20
-6.7822475766
 10
0.8239172796
 20
-6.8327848347
 10
0.8321148271
 20
-6.8844570123
 10
0.8348677764
 20
-6.9366980823
  0
LWPOLYLINE
  5
33E
100
AcDbEntity
  8
IMPORT_IGES
100
AcDbPolyline
 62
253
  6
CONTINUOUS
 90
16
 70
0
 10
-2.0089983548
 20
-5.2805642135
 10
-2.0612823916
 20
-5.2778067346
 10
-2.1129900201
 20
-5.2695970225
 10
-2.163554331
 20
-5.2560260466
 10
-2.2124296008
 20
-5.23723975
 10
-2.2590710197
 20
-5.2134470005
 10
-2.3029449715
 20
-5.1849259664
 10
-2.3435554342
 20
-5.1520158182
 10
-2.3804887704
 20
-5.1150697941
 10
-2.4133813893
 20
-5.0744529546
 10
-2.4418818218
 20
-5.0305800547
 10
-2.4656528372
 20
-4.983947967
 10
-2.4844183438
 20
-4.9350908647
 10
-2.4979717067
 20
-4.8845536083
 10
-2.5061692534
 20
-4.8328814331
 10
-2.5089222024
 20
-4.7806403659
  0
LINE
  5
33F
100
AcDbEntity
  8
IMPORT_IGES
100
AcDbLine
 62
253
  6
CONTINUOUS
 10
-2.487027213
 20
-6.9585930717
 11
-2.5089222024
 21
-6.9366980823
  0
LINE
  5
340
100
AcDbEntity
  8
IMPORT_IGES
100
AcDbLine
 62
253
  6
CONTINUOUS
 10
-2.0089983548
 20
-6.4367742347
 11
-1.9871033654
 21
-6.4586692241
  0
LINE
  5
341
100
AcDbEntity
  8
IMPORT_IGES
100
AcDbLine
 62
253
  6
CONTINUOUS
 10
0.3349439288
 20
-8.7805642135
 11
0.3130489394
 21
-8.7586692241
  0
LINE
  5
342
100
AcDbEntity
  8
IMPORT_IGES
100
AcDbLine
 62
253
  6
CONTINUOUS
 10
0.812972787
 20
-8.2587453765
 11
0.8348677764
 21
-8.2806403659
  0
LINE
  5
343
100
AcDbEntity
  8
0
100
AcDbLine
 62
7
  6
CONTINUOUS
 10
-0.8241316322
 20
-10.1716656792
 11
-0.7909543035
 21
-10.2157122952
  0
LINE
  5
344
100
AcDbEntity
  8
0
100
AcDbLine
 62
7
  6
CONTINUOUS
 10
-0.8554671451
 20
-10.1291695851
 11
-0.8818900979
 21
-10.0930263851
  0
LWPOLYLINE
  5
345
100
AcDbEntity
  8
0
100
AcDbPolyline
 62
7
  6
CONTINUOUS
 90
3
 70
0
 10
-0.8818900979
 20
-10.0930263851
 10
-0.913688647
 20
-10.0483493627
 10
-0.9314553888
 20
-10.0230735295
  0
LINE
  5
346
100
AcDbEntity
  8
0
100
AcDbLine
 62
7
  6
CONTINUOUS
 10
7.4296184412
 20
-21.1946561728
 11
7.4869680798
 21
-21.2756657809
  0
LWPOLYLINE
  5
347
100
AcDbEntity
  8
0
100
AcDbPolyline
 62
7
  6
CONTINUOUS
 90
3
 70
0
 10
7.4869680798
 20
-21.2756657809
 10
7.5718500925
 20
-21.3968071846
 10
7.5996374967
 20
-21.4369383453
  0
LINE
  5
348
100
AcDbEntity
  8
0
100
AcDbLine
 62
7
  6
CONTINUOUS
 10
-0.9314553888
 20
-10.0230735295
 11
-0.9758112274
 21
-9.9586692241
  0
LWPOLYLINE
  5
349
100
AcDbEntity
  8
0
100
AcDbPolyline
 62
7
  6
CONTINUOUS
 90
3
 70
0
 10
7.5996374967
 20
-21.4369383453
 10
7.6540106435
 20
-21.5166611748
 10
7.6806594949
 20
-21.5560584863
  0
LWPOLYLINE
  5
34A
100
AcDbEntity
  8
0
100
AcDbPolyline
 62
7
  6
CONTINUOUS
 90
6
 70
0
 10
-0.8241316322
 20
-10.1716656792
 10
-0.8256456174
 20
-10.1693019494
 10
-0.8296979386
 20
-10.1639195749
 10
-0.8361373983
 20
-10.1555185555
 10
-0.8447932134
 20
-10.1438533927
 10
-0.8554671451
 20
-10.1291695851
  0
LWPOLYLINE
  5
34B
100
AcDbEntity
  8
IMPORT_IGES
100
AcDbPolyline
 62
7
  6
CONTINUOUS
 90
10
 70
0
 10
-4.909064202
 20
14.1413307759
 10
-4.9092966452
 20
14.1461212726
 10
-4.9095271773
 20
14.150413463
 10
-4.909755798
 20
14.1541962834
 10
-4.9099802437
 20
14.1574628067
 10
-4.9102027782
 20
14.1601983226
 10
-4.9104301925
 20
14.1623868025
 10
-4.9106647502
 20
14.1640239427
 10
-4.9109041877
 20
14.1651107326
 10
-4.911148505
 20
14.1656460136
  0
LINE
  5
34C
100
AcDbEntity
  8
0
100
AcDbLine
 62
7
  6
CONTINUOUS
 10
-3.2132716775
 20
-21.4824247596
 11
-3.2330227587
 21
-20.6586692241
  0
LINE
  5
34D
100
AcDbEntity
  8
IMPORT_IGES
100
AcDbLine
 62
7
  6
CONTINUOUS
 10
-5.187027213
 20
13.1151481785
 11
-5.187027213
 21
11.1163307759
  0
LINE
  5
34E
100
AcDbEntity
  8
IMPORT_IGES
100
AcDbLine
 62
7
  6
CONTINUOUS
 10
-4.9132098104
 20
13.1151481785
 11
-4.9132098104
 21
11.736318213
  0
LINE
  5
34F
100
AcDbEntity
  8
IMPORT_IGES
100
AcDbLine
 62
7
  6
CONTINUOUS
 10
-4.9044822779
 20
13.7657069356
 11
-4.9044822779
 21
13.5169546162
  0
LINE
  5
350
100
AcDbEntity
  8
IMPORT_IGES
100
AcDbLine
 62
7
  6
CONTINUOUS
 10
-4.8975002519
 20
8.7606075113
 11
-4.8975002519
 21
10.7413307759
  0
LINE
  5
351
100
AcDbEntity
  8
IMPORT_IGES
100
AcDbLine
 62
253
  6
CONTINUOUS
 10
-4.891314821
 20
14.1413307759
 11
-4.891314821
 21
8.6413307759
  0
LINE
  5
352
100
AcDbEntity
  8
IMPORT_IGES
100
AcDbLine
 62
253
  6
CONTINUOUS
 10
-4.6413528972
 20
8.6413307759
 11
-4.6413528972
 21
14.1413307759
  0
LINE
  5
353
100
AcDbEntity
  8
0
100
AcDbLine
 62
7
  6
CONTINUOUS
 10
-4.587027213
 20
24.1413307759
 11
-4.587027213
 21
23.5092757231
  0
LINE
  5
354
100
AcDbEntity
  8
0
100
AcDbLine
 62
7
  6
CONTINUOUS
 10
-4.587027213
 20
23.0733858287
 11
-4.587027213
 21
22.5413307759
  0
LINE
  5
355
100
AcDbEntity
  8
0
100
AcDbLine
 62
7
  6
CONTINUOUS
 10
-4.587027213
 20
-22.2586692241
 11
-4.587027213
 21
-22.7907242769
  0
LINE
  5
356
100
AcDbEntity
  8
0
100
AcDbLine
 62
7
  6
CONTINUOUS
 10
-4.587027213
 20
-23.2266141713
 11
-4.587027213
 21
-23.8586692241
  0
LINE
  5
357
100
AcDbEntity
  8
0
100
AcDbLine
 62
7
  6
CONTINUOUS
 10
-4.5431049659
 20
-23.8125614972
 11
-4.5431049659
 21
-22.2147469771
  0
LINE
  5
358
100
AcDbEntity
  8
0
100
AcDbLine
 62
7
  6
CONTINUOUS
 10
-4.5431049659
 20
22.4974085288
 11
-4.5431049659
 21
24.0952230489
  0
LINE
  5
359
100
AcDbEntity
  8
0
100
AcDbLine
 62
7
  6
CONTINUOUS
 10
-3.6961139354
 20
-23.7354303696
 11
-3.6961139354
 21
-22.2134608015
  0
LINE
  5
35A
100
AcDbEntity
  8
0
100
AcDbLine
 62
7
  6
CONTINUOUS
 10
-3.6961139354
 20
22.4961223533
 11
-3.6961139354
 21
24.0180919214
  0
LINE
  5
35B
100
AcDbEntity
  8
0
100
AcDbLine
 62
7
  6
CONTINUOUS
 10
-3.637027213
 20
24.1355129461
 11
-3.637027213
 21
22.5355129461
  0
LINE
  5
35C
100
AcDbEntity
  8
0
100
AcDbLine
 62
7
  6
CONTINUOUS
 10
-3.637027213
 20
-23.8528513943
 11
-3.637027213
 21
-22.2528513943
  0
LINE
  5
35D
100
AcDbEntity
  8
0
100
AcDbLine
 62
7
  6
CONTINUOUS
 10
-3.2330227587
 20
20.9413307759
 11
-3.2132716775
 21
21.7650863114
  0
LWPOLYLINE
  5
35E
100
AcDbEntity
  8
0
100
AcDbPolyline
 62
7
  6
CONTINUOUS
 90
11
 70
0
 10
7.1407630182
 20
24.5058899635
 10
7.1355640148
 20
24.4951872222
 10
7.1308801612
 20
24.4842492252
 10
7.1267220657
 20
24.4731007497
 10
7.1230991453
 20
24.4617670549
 10
7.1200196053
 20
24.4502738147
 10
7.1174904193
 20
24.4386470634
 10
7.1155173129
 20
24.426913142
 10
7.1141047528
 20
24.4150986314
 10
7.1132559373
 20
24.4032302919
 10
7.112972787
 20
24.3913350067
  0
LINE
  5
35F
100
AcDbEntity
  8
IMPORT_IGES
100
AcDbLine
 62
253
  6
CONTINUOUS
 10
1.0848297002
 20
-4.7806403659
 11
0.8348677764
 21
-4.7806403659
  0
LINE
  5
360
100
AcDbEntity
  8
IMPORT_IGES
100
AcDbLine
 62
253
  6
CONTINUOUS
 10
-2.5089222024
 20
-4.7806403659
 11
-2.7588841262
 21
-4.7806403659
  0
LINE
  5
361
100
AcDbEntity
  8
IMPORT_IGES
100
AcDbLine
 62
7
  6
CONTINUOUS
 10
6.924972787
 20
-4.7800774578
 11
7.0662627194
 21
-4.7800774578
  0
LINE
  5
362
100
AcDbEntity
  8
IMPORT_IGES
100
AcDbLine
 62
253
  6
CONTINUOUS
 10
7.0713408963
 20
-4.1618848708
 11
6.924972787
 21
-4.1618792976
  0
LINE
  5
363
100
AcDbEntity
  8
IMPORT_IGES
100
AcDbLine
 62
7
  6
CONTINUOUS
 10
7.0712932661
 20
-3.5364184357
 11
6.924972787
 21
-3.5364271477
  0
LINE
  5
364
100
AcDbEntity
  8
IMPORT_IGES
100
AcDbLine
 62
253
  6
CONTINUOUS
 10
-2.7588841262
 20
-3.4366980823
 11
-2.5089222024
 21
-3.4366980823
  0
LINE
  5
365
100
AcDbEntity
  8
IMPORT_IGES
100
AcDbLine
 62
253
  6
CONTINUOUS
 10
0.8348677764
 20
-3.4366980823
 11
1.0848297002
 21
-3.4366980823
  0
LINE
  5
366
100
AcDbEntity
  8
IMPORT_IGES
100
AcDbLine
 62
253
  6
CONTINUOUS
 10
-2.487027213
 20
-3.4585930717
 11
-2.5089222024
 21
-3.4366980823
  0
LINE
  5
367
100
AcDbEntity
  8
IMPORT_IGES
100
AcDbLine
 62
253
  6
CONTINUOUS
 10
-2.0089983548
 20
-2.9367742347
 11
-1.9871033654
 21
-2.9586692241
  0
LINE
  5
368
100
AcDbEntity
  8
IMPORT_IGES
100
AcDbLine
 62
253
  6
CONTINUOUS
 10
0.3349439288
 20
-5.2805642135
 11
0.3130489394
 21
-5.2586692241
  0
LWPOLYLINE
  5
369
100
AcDbEntity
  8
IMPORT_IGES
100
AcDbPolyline
 62
7
  6
CONTINUOUS
 90
3
 70
0
 10
-2.9390362681
 20
15.7279436546
 10
-2.9357457145
 20
15.6810009217
 10
-2.9355594944
 20
15.6675133733
  0
LINE
  5
36A
100
AcDbEntity
  8
IMPORT_IGES
100
AcDbLine
 62
253
  6
CONTINUOUS
 10
-3.387027213
 20
15.3956564601
 11
-3.387027213
 21
15.6675133733
  0
LINE
  5
36B
100
AcDbEntity
  8
IMPORT_IGES
100
AcDbLine
 62
253
  6
CONTINUOUS
 10
-3.387027213
 20
16.4151481785
 11
-3.387027213
 21
16.6870050917
  0
LINE
  5
36C
100
AcDbEntity
  8
0
100
AcDbLine
 62
7
  6
CONTINUOUS
 10
-3.2330227587
 20
-21.1946561728
 11
-3.2330227587
 21
-20.6586692241
  0
LINE
  5
36D
100
AcDbEntity
  8
0
100
AcDbLine
 62
7
  6
CONTINUOUS
 10
-3.2330227587
 20
20.9413307759
 11
-3.2330227587
 21
21.4773177245
  0
LINE
  5
36E
100
AcDbEntity
  8
0
100
AcDbLine
 62
7
  6
CONTINUOUS
 10
-3.137027213
 20
22.5355129461
 11
-3.137027213
 21
21.8413307759
  0
LINE
  5
36F
100
AcDbEntity
  8
0
100
AcDbLine
 62
7
  6
CONTINUOUS
 10
-3.137027213
 20
-21.5586692241
 11
-3.137027213
 21
-22.2528513943
  0
LINE
  5
370
100
AcDbEntity
  8
IMPORT_IGES
100
AcDbLine
 62
7
  6
CONTINUOUS
 10
-2.9132098104
 20
16.4151481785
 11
-2.9132098104
 21
15.6675133733
  0
LINE
  5
371
100
AcDbEntity
  8
IMPORT_IGES
100
AcDbLine
 62
253
  6
CONTINUOUS
 10
-2.9113424507
 20
16.4170155381
 11
-2.9113424507
 21
15.6656460136
  0
LINE
  5
372
100
AcDbEntity
  8
IMPORT_IGES
100
AcDbLine
 62
253
  6
CONTINUOUS
 10
-2.859829377
 20
15.6456183839
 11
-2.859829377
 21
15.3956564601
  0
LINE
  5
373
100
AcDbEntity
  8
IMPORT_IGES
100
AcDbLine
 62
253
  6
CONTINUOUS
 10
-2.7588841262
 20
0.0633019177
 11
-2.7588841262
 21
-1.2806403659
  0
LINE
  5
374
100
AcDbEntity
  8
IMPORT_IGES
100
AcDbLine
 62
253
  6
CONTINUOUS
 10
-2.7588841262
 20
-3.4366980823
 11
-2.7588841262
 21
-4.7806403659
  0
LINE
  5
375
100
AcDbEntity
  8
IMPORT_IGES
100
AcDbLine
 62
253
  6
CONTINUOUS
 10
-2.7588841262
 20
-6.9366980823
 11
-2.7588841262
 21
-8.2806403659
  0
LINE
  5
376
100
AcDbEntity
  8
IMPORT_IGES
100
AcDbLine
 62
253
  6
CONTINUOUS
 10
-2.7588841262
 20
-10.4366980823
 11
-2.7588841262
 21
-11.7806403659
  0
LINE
  5
377
100
AcDbEntity
  8
IMPORT_IGES
100
AcDbLine
 62
253
  6
CONTINUOUS
 10
-2.7588841262
 20
-13.9366980823
 11
-2.7588841262
 21
-15.2806403659
  0
LINE
  5
378
100
AcDbEntity
  8
IMPORT_IGES
100
AcDbLine
 62
253
  6
CONTINUOUS
 10
-2.5114033727
 20
15.6587858408
 11
-2.5114033727
 21
16.4238757109
  0
LINE
  5
379
100
AcDbEntity
  8
IMPORT_IGES
100
AcDbLine
 62
253
  6
CONTINUOUS
 10
-2.5089222024
 20
-15.2806403659
 11
-2.5089222024
 21
-13.9366980823
  0
LINE
  5
37A
100
AcDbEntity
  8
IMPORT_IGES
100
AcDbLine
 62
253
  6
CONTINUOUS
 10
-2.5089222024
 20
-11.7806403659
 11
-2.5089222024
 21
-10.4366980823
  0
LINE
  5
37B
100
AcDbEntity
  8
IMPORT_IGES
100
AcDbLine
 62
253
  6
CONTINUOUS
 10
-2.5089222024
 20
-8.2806403659
 11
-2.5089222024
 21
-6.9366980823
  0
LINE
  5
37C
100
AcDbEntity
  8
IMPORT_IGES
100
AcDbLine
 62
253
  6
CONTINUOUS
 10
-2.5089222024
 20
-4.7806403659
 11
-2.5089222024
 21
-3.4366980823
  0
LINE
  5
37D
100
AcDbEntity
  8
IMPORT_IGES
100
AcDbLine
 62
253
  6
CONTINUOUS
 10
-2.5089222024
 20
-1.2806403659
 11
-2.5089222024
 21
0.0633019177
  0
LINE
  5
37E
100
AcDbEntity
  8
IMPORT_IGES
100
AcDbLine
 62
7
  6
CONTINUOUS
 10
-2.487027213
 20
-15.2587453765
 11
-2.487027213
 21
-13.9585930717
  0
LINE
  5
37F
100
AcDbEntity
  8
IMPORT_IGES
100
AcDbLine
 62
7
  6
CONTINUOUS
 10
-2.487027213
 20
-11.7587453765
 11
-2.487027213
 21
-10.4585930717
  0
LINE
  5
380
100
AcDbEntity
  8
IMPORT_IGES
100
AcDbLine
 62
7
  6
CONTINUOUS
 10
-2.487027213
 20
-8.2587453765
 11
-2.487027213
 21
-6.9585930717
  0
LINE
  5
381
100
AcDbEntity
  8
IMPORT_IGES
100
AcDbLine
 62
7
  6
CONTINUOUS
 10
-2.487027213
 20
-4.7587453765
 11
-2.487027213
 21
-3.4585930717
  0
LINE
  5
382
100
AcDbEntity
  8
IMPORT_IGES
100
AcDbLine
 62
7
  6
CONTINUOUS
 10
-2.487027213
 20
-1.2587453765
 11
-2.487027213
 21
0.0414069283
  0
LINE
  5
383
100
AcDbEntity
  8
IMPORT_IGES
100
AcDbLine
 62
253
  6
CONTINUOUS
 10
-2.0089983548
 20
-16.0305261373
 11
-2.0089983548
 21
-15.7805642135
  0
LINE
  5
384
100
AcDbEntity
  8
IMPORT_IGES
100
AcDbLine
 62
253
  6
CONTINUOUS
 10
-2.0089983548
 20
-13.4367742347
 11
-2.0089983548
 21
-13.186812311
  0
LINE
  5
385
100
AcDbEntity
  8
IMPORT_IGES
100
AcDbLine
 62
253
  6
CONTINUOUS
 10
-2.0089983548
 20
-12.5305261373
 11
-2.0089983548
 21
-12.2805642135
  0
LINE
  5
386
100
AcDbEntity
  8
IMPORT_IGES
100
AcDbLine
 62
253
  6
CONTINUOUS
 10
-2.0089983548
 20
-9.9367742347
 11
-2.0089983548
 21
-9.686812311
  0
LINE
  5
387
100
AcDbEntity
  8
IMPORT_IGES
100
AcDbLine
 62
253
  6
CONTINUOUS
 10
-2.0089983548
 20
-9.0305261373
 11
-2.0089983548
 21
-8.7805642135
  0
LINE
  5
388
100
AcDbEntity
  8
IMPORT_IGES
100
AcDbLine
 62
253
  6
CONTINUOUS
 10
-2.0089983548
 20
-6.4367742347
 11
-2.0089983548
 21
-6.186812311
  0
LINE
  5
389
100
AcDbEntity
  8
IMPORT_IGES
100
AcDbLine
 62
253
  6
CONTINUOUS
 10
-2.0089983548
 20
-5.5305261373
 11
-2.0089983548
 21
-5.2805642135
  0
LINE
  5
38A
100
AcDbEntity
  8
IMPORT_IGES
100
AcDbLine
 62
253
  6
CONTINUOUS
 10
-2.0089983548
 20
-2.9367742347
 11
-2.0089983548
 21
-2.686812311
  0
LINE
  5
38B
100
AcDbEntity
  8
IMPORT_IGES
100
AcDbLine
 62
253
  6
CONTINUOUS
 10
-2.0089983548
 20
-2.0305261373
 11
-2.0089983548
 21
-1.7805642135
  0
LINE
  5
38C
100
AcDbEntity
  8
IMPORT_IGES
100
AcDbLine
 62
253
  6
CONTINUOUS
 10
-2.0089983548
 20
0.5632257653
 11
-2.0089983548
 21
0.813187689
  0
LINE
  5
38D
100
AcDbEntity
  8
IMPORT_IGES
100
AcDbLine
 62
253
  6
CONTINUOUS
 10
-1.7626510533
 20
16.4238757109
 11
-1.7626510533
 21
15.6587858408
  0
LWPOLYLINE
  5
38E
100
AcDbEntity
  8
IMPORT_IGES
100
AcDbPolyline
 62
253
  6
CONTINUOUS
 90
25
 70
0
 10
-2.7588841262
 20
0.0633019177
 10
-2.75697455
 20
0.1126947795
 10
-2.7519702895
 20
0.1614608932
 10
-2.7438713446
 20
0.2096002587
 10
-2.732610391
 20
0.2573009152
 10
-2.7182547531
 20
0.3043748236
 10
-2.7010064035
 20
0.3502578664
 10
-2.6808687574
 20
0.3949656257
 10
-2.6578383996
 20
0.4384825195
 10
-2.6321070578
 20
0.4801976841
 10
-2.6035995007
 20
0.5200776292
 10
-2.5723909595
 20
0.5581558452
 10
-2.5388988567
 20
0.5939219393
 10
-2.5030897016
 20
0.6273332736
 10
-2.4649969848
 20
0.6584324862
 10
-2.4251386002
 20
0.6868370978
 10
-2.3834944081
 20
0.7124869136
 10
-2.3400845481
 20
0.7354421284
 10
-2.2954873336
 20
0.7555008481
 10
-2.2497150865
 20
0.7726489336
 10
-2.2027554849
 20
0.786900524
 10
-2.1551498761
 20
0.7980961424
 10
-2.1070787095
 20
0.8061826299
 10
-2.0583615357
 20
0.8112131455
 10
-2.0089983548
 20
0.813187689
  0
LWPOLYLINE
  5
38F
100
AcDbEntity
  8
IMPORT_IGES
100
AcDbPolyline
 62
253
  6
CONTINUOUS
 90
25
 70
0
 10
-2.7588841262
 20
-6.9366980823
 10
-2.7569742998
 20
-6.8873051779
 10
-2.7519698884
 20
-6.838539038
 10
-2.7438708918
 20
-6.7903996628
 10
-2.7326100306
 20
-6.742699018
 10
-2.7182545843
 20
-6.6956251377
 10
-2.7010063915
 20
-6.6497421242
 10
-2.6808688203
 20
-6.6050343967
 10
-2.6578385025
 20
-6.5615175359
 10
-2.6321071727
 20
-6.5198023863
 10
-2.6035995883
 20
-6.4799224292
 10
-2.5723909919
 20
-6.4418441832
 10
-2.5388988455
 20
-6.4060780491
 10
-2.5030896739
 20
-6.3726666508
 10
-2.4649969524
 20
-6.3415673643
 10
-2.4251385683
 20
-6.3131627185
 10
-2.3834943801
 20
-6.2875129399
 10
-2.3400845293
 20
-6.264557802
 10
-2.2954873279
 20
-6.2444991547
 10
-2.2497151029
 20
-6.2273511319
 10
-2.2027555274
 20
-6.2130995998
 10
-2.1551499317
 20
-6.2019040068
 10
-2.1070787595
 20
-6.1938175024
 10
-2.0583615672
 20
-6.1887869371
 10
-2.0089983548
 20
-6.186812311
  0
LWPOLYLINE
  5
390
100
AcDbEntity
  8
IMPORT_IGES
100
AcDbPolyline
 62
253
  6
CONTINUOUS
 90
25
 70
0
 10
-2.7588841262
 20
-13.9366980823
 10
-2.7569740891
 20
-13.887305142
 10
-2.7519695505
 20
-13.8385389801
 10
-2.7438705104
 20
-13.7903995966
 10
-2.732609727
 20
-13.7426989616
 10
-2.7182544422
 20
-13.6956251051
 10
-2.7010063814
 20
-13.6497421163
 10
-2.6808688733
 20
-13.6050344156
 10
-2.6578385892
 20
-13.5615175825
 10
-2.6321072694
 20
-13.5198024455
 10
-2.6035996621
 20
-13.4799224783
 10
-2.5723910191
 20
-13.4418442071
 10
-2.538898836
 20
-13.4060780393
 10
-2.5030896506
 20
-13.3726665871
 10
-2.4649969251
 20
-13.3415672383
 10
-2.4251385414
 20
-13.3131625638
 10
-2.3834943565
 20
-13.2875128164
 10
-2.3400845134
 20
-13.2645577433
 10
-2.295487323
 20
-13.2444991571
 10
-2.2497151168
 20
-13.2273511872
 10
-2.2027555632
 20
-13.2130997042
 10
-2.1551499786
 20
-13.2019041326
 10
-2.1070788017
 20
-13.1938176139
 10
-2.0583615937
 20
-13.1887870067
 10
-2.0089983548
 20
-13.186812311
  0
LWPOLYLINE
  5
391
100
AcDbEntity
  8
IMPORT_IGES
100
AcDbPolyline
 62
253
  6
CONTINUOUS
 90
25
 70
0
 10
-2.7588841262
 20
-3.4366980823
 10
-2.7569139873
 20
-3.3873011393
 10
-2.751873027
 20
-3.338531842
 10
-2.7437612453
 20
-3.2903901904
 10
-2.7325250829
 20
-3.2426870453
 10
-2.7182180992
 20
-3.1956115458
 10
-2.7010009717
 20
-3.14973111
 10
-2.6808540517
 20
-3.1050355376
 10
-2.657796988
 20
-3.0615350287
 10
-2.6320494049
 20
-3.019827602
 10
-2.6035488987
 20
-2.9799395754
 10
-2.5723578731
 20
-2.9418446309
 10
-2.5388831639
 20
-2.9060618334
 10
-2.5030905672
 20
-2.8726332691
 10
-2.4650142869
 20
-2.8415168519
 10
-2.42516377
 20
-2.8131053877
 10
-2.3835118011
 20
-2.7874717425
 10
-2.3400855956
 20
-2.7645430502
 10
-2.2954762473
 20
-2.7444935191
 10
-2.2497014537
 20
-2.7273143598
 10
-2.2027435174
 20
-2.7130143616
 10
-2.1551404392
 20
-2.7017941
 10
-2.1070715529
 20
-2.6937204337
 10
-2.0583575247
 20
-2.688726504
 10
-2.0089983548
 20
-2.686812311
  0
LWPOLYLINE
  5
392
100
AcDbEntity
  8
IMPORT_IGES
100
AcDbPolyline
 62
253
  6
CONTINUOUS
 90
25
 70
0
 10
-2.7588841262
 20
-10.4366980823
 10
-2.7569139106
 20
-10.3873011101
 10
-2.7518729042
 20
-10.3385317956
 10
-2.7437611069
 20
-10.2903901389
 10
-2.7325249684
 20
-10.242687006
 10
-2.7182180391
 20
-10.1956115309
 10
-2.70100097
 20
-10.1497311157
 10
-2.680854117
 20
-10.1050355553
 10
-2.6577971243
 20
-10.061535055
 10
-2.6320495752
 20
-10.0198276318
 10
-2.6035490369
 20
-9.9799396055
 10
-2.5723579423
 20
-9.9418446563
 10
-2.5388831735
 20
-9.9060618434
 10
-2.5030905401
 20
-9.8726332386
 10
-2.4650142326
 20
-9.84151677
 10
-2.4251637051
 20
-9.8131052807
 10
-2.3835117502
 20
-9.7874716472
 10
-2.3400855753
 20
-9.7645429931
 10
-2.2954762564
 20
-9.7444935319
 10
-2.2497014899
 20
-9.7273145175
 10
-2.2027435794
 20
-9.7130146961
 10
-2.155140512
 20
-9.7017945196
 10
-2.1070716166
 20
-9.6937208052
 10
-2.0583575642
 20
-9.6887267356
 10
-2.0089983548
 20
-9.686812311
  0
LWPOLYLINE
  5
393
100
AcDbEntity
  8
IMPORT_IGES
100
AcDbPolyline
 62
253
  6
CONTINUOUS
 90
16
 70
0
 10
-2.5089222024
 20
0.0633019177
 10
-2.5061647197
 20
0.1155859896
 10
-2.4979549977
 20
0.1672936471
 10
-2.4843840075
 20
0.21785798
 10
-2.465597694
 20
0.2667332644
 10
-2.4418049269
 20
0.3133746906
 10
-2.4132838762
 20
0.3572486431
 10
-2.3803737138
 20
0.3978591006
 10
-2.3434276794
 20
0.4347924266
 10
-2.3028108347
 20
0.4676850312
 10
-2.2589379358
 20
0.496185447
 10
-2.2123058557
 20
0.5199564447
 10
-2.1634487682
 20
0.5387219344
 10
-2.1129115338
 20
0.5522752831
 10
-2.0612393872
 20
0.5604728199
 10
-2.0089983548
 20
0.5632257653
  0
LWPOLYLINE
  5
394
100
AcDbEntity
  8
IMPORT_IGES
100
AcDbPolyline
 62
253
  6
CONTINUOUS
 90
16
 70
0
 10
-2.5089222024
 20
-3.4366980823
 10
-2.5061693415
 20
-3.3844578512
 10
-2.4979720203
 20
-3.3327863139
 10
-2.4844189619
 20
-3.2822494846
 10
-2.4656537627
 20
-3.233392559
 10
-2.44188301
 20
-3.1867604507
 10
-2.4133828172
 20
-3.1428874586
 10
-2.3804904275
 20
-3.1022704947
 10
-2.3435572741
 20
-3.0653242877
 10
-2.3029469357
 20
-3.0324139102
 10
-2.2590730762
 20
-3.0038926364
 10
-2.2124316782
 20
-2.9800996243
 10
-2.163556232
 20
-2.9613130202
 10
-2.1129914942
 20
-2.9477417396
 10
-2.0612832277
 20
-2.9395318019
 10
-2.0089983548
 20
-2.9367742347
  0
LWPOLYLINE
  5
395
100
AcDbEntity
  8
IMPORT_IGES
100
AcDbPolyline
 62
253
  6
CONTINUOUS
 90
16
 70
0
 10
-2.5089222024
 20
-6.9366980823
 10
-2.5061647247
 20
-6.8844140573
 10
-2.497955016
 20
-6.8327064384
 10
-2.4843840448
 20
-6.7821421349
 10
-2.4655977538
 20
-6.7332668699
 10
-2.4418050102
 20
-6.6866254535
 10
-2.4132839816
 20
-6.6427515019
 10
-2.3803738381
 20
-6.6021410375
 10
-2.3434278175
 20
-6.5652076978
 10
-2.3028109797
 20
-6.5323150742
 10
-2.2589380795
 20
-6.5038146361
 10
-2.2123059892
 20
-6.4800436148
 10
-2.163448882
 20
-6.4612781026
 10
-2.1129116184
 20
-6.4477247349
 10
-2.0612394335
 20
-6.439527185
 10
-2.0089983548
 20
-6.4367742347
  0
LWPOLYLINE
  5
396
100
AcDbEntity
  8
IMPORT_IGES
100
AcDbPolyline
 62
253
  6
CONTINUOUS
 90
16
 70
0
 10
-2.5089222024
 20
-10.4366980823
 10
-2.5061693369
 20
-10.3844578083
 10
-2.4979720037
 20
-10.3327862355
 10
-2.4844189276
 20
-10.2822493791
 10
-2.4656537076
 20
-10.2333924352
 10
-2.441882933
 20
-10.1867603174
 10
-2.4133827195
 20
-10.1428873242
 10
-2.3804903122
 20
-10.1022703667
 10
-2.3435571461
 20
-10.0653241724
 10
-2.3029468012
 20
-10.0324138125
 10
-2.2590729427
 20
-10.0038925592
 10
-2.2124315537
 20
-9.9800995688
 10
-2.1635561255
 20
-9.9613129855
 10
-2.1129914149
 20
-9.9477417228
 10
-2.0612831842
 20
-9.9395317973
 10
-2.0089983548
 20
-9.9367742347
  0
LWPOLYLINE
  5
397
100
AcDbEntity
  8
IMPORT_IGES
100
AcDbPolyline
 62
253
  6
CONTINUOUS
 90
16
 70
0
 10
-2.5089222024
 20
-13.9366980823
 10
-2.5061647288
 20
-13.8844140968
 10
-2.4979550313
 20
-13.8327065105
 10
-2.4843840763
 20
-13.7821422316
 10
-2.4655978043
 20
-13.7332669831
 10
-2.4418050804
 20
-13.6866255748
 10
-2.4132840705
 20
-13.642751624
 10
-2.3803739429
 20
-13.6021411538
 10
-2.3434279339
 20
-13.5652078025
 10
-2.3028111019
 20
-13.532315163
 10
-2.2589382007
 20
-13.503814706
 10
-2.2123061017
 20
-13.4800436649
 10
-2.1634489779
 20
-13.4612781338
 10
-2.1129116896
 20
-13.4477247501
 10
-2.0612394725
 20
-13.4395271891
 10
-2.0089983548
 20
-13.4367742347
  0
LINE
  5
398
100
AcDbEntity
  8
RACCORDO
100
AcDbLine
 62
7
  6
CONTINUOUS
 10
-9.787027213
 20
-20.0577088743
 11
-9.668367079
 21
-19.7014389815
  0
LINE
  5
399
100
AcDbEntity
  8
RACCORDO
100
AcDbLine
 62
7
  6
CONTINUOUS
 10
-9.0869208754
 20
-20.7586692241
 11
-8.9829170375
 21
-20.446403976
  0
LINE
  5
39A
100
AcDbEntity
  8
IMPORT_IGES
100
AcDbLine
 62
7
  6
CONTINUOUS
 10
7.0489982705
 20
8.0262657486
 11
7.048925777
 21
8.0262247424
  0
LINE
  5
39B
100
AcDbEntity
  8
IMPORT_IGES
100
AcDbLine
 62
7
  6
CONTINUOUS
 10
-1.9871033654
 20
-2.9586692241
 11
0.3130489394
 21
-2.9586692241
  0
LINE
  5
39C
100
AcDbEntity
  8
IMPORT_IGES
100
AcDbLine
 62
253
  6
CONTINUOUS
 10
-2.0089983548
 20
-2.9367742347
 11
0.3349439288
 21
-2.9367742347
  0
LINE
  5
39D
100
AcDbEntity
  8
IMPORT_IGES
100
AcDbLine
 62
253
  6
CONTINUOUS
 10
0.3349439288
 20
-2.686812311
 11
-2.0089983548
 21
-2.686812311
  0
LINE
  5
39E
100
AcDbEntity
  8
IMPORT_IGES
100
AcDbLine
 62
253
  6
CONTINUOUS
 10
-2.0089983548
 20
-2.0305261373
 11
0.3349439288
 21
-2.0305261373
  0
LINE
  5
39F
100
AcDbEntity
  8
IMPORT_IGES
100
AcDbLine
 62
253
  6
CONTINUOUS
 10
0.3349439288
 20
-1.7805642135
 11
-2.0089983548
 21
-1.7805642135
  0
LINE
  5
3A0
100
AcDbEntity
  8
IMPORT_IGES
100
AcDbLine
 62
7
  6
CONTINUOUS
 10
0.3130489394
 20
-1.7586692241
 11
-1.9871033654
 21
-1.7586692241
  0
LWPOLYLINE
  5
3A1
100
AcDbEntity
  8
IMPORT_IGES
100
AcDbPolyline
 62
253
  6
CONTINUOUS
 90
25
 70
0
 10
0.3349439288
 20
-2.686812311
 10
0.3843368036
 20
-2.6887219634
 10
0.4331029253
 20
-2.69372627
 10
0.4812422938
 20
-2.7018252307
 10
0.5289429467
 20
-2.713086156
 10
0.5760168465
 20
-2.7274417355
 10
0.6218998804
 20
-2.7446900372
 10
0.66660763
 20
-2.7648276606
 10
0.7101245137
 20
-2.7878580062
 10
0.7518396737
 20
-2.8135893443
 10
0.7917196225
 20
-2.8420969097
 10
0.8297978476
 20
-2.8733054677
 10
0.8655639539
 20
-2.9067975838
 10
0.8989753078
 20
-2.9426067439
 10
0.930074543
 20
-2.9806994622
 10
0.958479165
 20
-3.0205578466
 10
0.9841289694
 20
-3.0622020376
 10
1.0070841608
 20
-3.1056118948
 10
1.0271428584
 20
-3.1502091053
 10
1.0442909248
 20
-3.1959813456
 10
1.0585424974
 20
-3.2429409393
 10
1.069738108
 20
-3.290546544
 10
1.0778246007
 20
-3.3386177124
 10
1.0828551314
 20
-3.3873348918
 10
1.0848297002
 20
-3.4366980823
  0
LWPOLYLINE
  5
3A2
100
AcDbEntity
  8
IMPORT_IGES
100
AcDbPolyline
 62
253
  6
CONTINUOUS
 90
25
 70
0
 10
-2.0089983548
 20
-2.0305261373
 10
-2.0583912267
 20
-2.0286165019
 10
-2.1071573466
 20
-2.0236122056
 10
-2.1552967144
 20
-2.0155132485
 10
-2.2029973682
 20
-2.0042523168
 10
-2.2500712699
 20
-1.9898967243
 10
-2.2959543057
 20
-1.9726484118
 10
-2.3406620575
 20
-1.9525107834
 10
-2.3841789435
 20
-1.9294804351
 10
-2.4258941045
 20
-1.9037490962
 10
-2.4657740525
 20
-1.8752415325
 10
-2.5038522755
 20
-1.8440329783
 10
-2.5396183791
 20
-1.8105408652
 10
-2.5730297287
 20
-1.7747317062
 10
-2.6041289587
 20
-1.7366389883
 10
-2.6325335784
 20
-1.6967806038
 10
-2.6581833854
 20
-1.6551364126
 10
-2.681138582
 20
-1.6117265548
 10
-2.7011972846
 20
-1.5671293434
 10
-2.7183453552
 20
-1.5213571015
 10
-2.7325969318
 20
-1.4743975061
 10
-2.7437925442
 20
-1.4267919004
 10
-2.7518790357
 20
-1.3787207324
 10
-2.756909563
 20
-1.3300035543
 10
-2.7588841262
 20
-1.2806403659
  0
LWPOLYLINE
  5
3A3
100
AcDbEntity
  8
IMPORT_IGES
100
AcDbPolyline
 62
253
  6
CONTINUOUS
 90
16
 70
0
 10
0.3349439288
 20
-2.9367742347
 10
0.3872279865
 20
-2.9395317159
 10
0.4389356322
 20
-2.9477414338
 10
0.4894999561
 20
-2.9613124182
 10
0.5383752346
 20
-2.9800987249
 10
0.5850166578
 20
-3.0038914848
 10
0.62889061
 20
-3.0324125287
 10
0.6695010696
 20
-3.0653226854
 10
0.7064343998
 20
-3.1022687156
 10
0.7393270101
 20
-3.1428855582
 10
0.7678274328
 20
-3.1867584575
 10
0.7915984377
 20
-3.2333905407
 10
0.8103639343
 20
-3.2822476342
 10
0.8239172887
 20
-3.3327848775
 10
0.8321148296
 20
-3.3844570358
 10
0.8348677764
 20
-3.4366980823
  0
LWPOLYLINE
  5
3A4
100
AcDbEntity
  8
IMPORT_IGES
100
AcDbPolyline
 62
253
  6
CONTINUOUS
 90
16
 70
0
 10
-2.0089983548
 20
-1.7805642135
 10
-2.0612824156
 20
-1.777806732
 10
-2.112990064
 20
-1.7695970132
 10
-2.1635543899
 20
-1.7560260275
 10
-2.2124296697
 20
-1.7372397193
 10
-2.2590710936
 20
-1.7134469578
 10
-2.3029450459
 20
-1.6849259123
 10
-2.343555505
 20
-1.6520157544
 10
-2.3804888342
 20
-1.6150697233
 10
-2.4133814433
 20
-1.5744528802
 10
-2.4418818644
 20
-1.5305799809
 10
-2.4656528677
 20
-1.4839478985
 10
-2.4844183628
 20
-1.4350908063
 10
-2.4979717159
 20
-1.3845535649
 10
-2.5061692559
 20
-1.3328814093
 10
-2.5089222024
 20
-1.2806403659
  0
LINE
  5
3A5
100
AcDbEntity
  8
IMPORT_IGES
100
AcDbLine
 62
7
  6
CONTINUOUS
 10
7.0663203231
 20
-4.7800485963
 11
7.0662627219
 21
-4.7800318907
  0
LINE
  5
3A6
100
AcDbEntity
  8
IMPORT_IGES
100
AcDbLine
 62
253
  6
CONTINUOUS
 10
0.812972787
 20
-4.7587453765
 11
0.8348677764
 21
-4.7806403659
  0
LINE
  5
3A7
100
AcDbEntity
  8
IMPORT_IGES
100
AcDbLine
 62
253
  6
CONTINUOUS
 10
-2.487027213
 20
0.0414069283
 11
-2.5089222024
 21
0.0633019177
  0
LINE
  5
3A8
100
AcDbEntity
  8
RACCORDO
100
AcDbLine
 62
7
  6
CONTINUOUS
 10
-9.668367079
 20
19.9841005333
 11
-9.787027213
 21
20.3403704261
  0
LINE
  5
3A9
100
AcDbEntity
  8
RACCORDO
100
AcDbLine
 62
7
  6
CONTINUOUS
 10
-8.9829170375
 20
20.7290655277
 11
-9.0869208754
 21
21.0413307759
  0
LINE
  5
3AA
100
AcDbEntity
  8
IMPORT_IGES
100
AcDbLine
 62
253
  6
CONTINUOUS
 10
-1.414225049
 20
15.3956564601
 11
-1.414225049
 21
15.6456183839
  0
LINE
  5
3AB
100
AcDbEntity
  8
IMPORT_IGES
100
AcDbLine
 62
253
  6
CONTINUOUS
 10
-1.3627119752
 20
15.6656460136
 11
-1.3627119752
 21
16.4170155381
  0
LINE
  5
3AC
100
AcDbEntity
  8
IMPORT_IGES
100
AcDbLine
 62
7
  6
CONTINUOUS
 10
-1.3608446156
 20
15.6675133733
 11
-1.3608446156
 21
16.4151481785
  0
LINE
  5
3AD
100
AcDbEntity
  8
IMPORT_IGES
100
AcDbLine
 62
7
  6
CONTINUOUS
 10
-1.162027213
 20
16.4151481785
 11
-1.162027213
 21
15.6675133733
  0
LINE
  5
3AE
100
AcDbEntity
  8
0
100
AcDbLine
 62
7
  6
CONTINUOUS
 10
-1.1457540808
 20
23.9355197153
 11
-1.1457540808
 21
22.5360947403
  0
LINE
  5
3AF
100
AcDbEntity
  8
0
100
AcDbLine
 62
7
  6
CONTINUOUS
 10
-1.1457540808
 20
-22.2534331885
 11
-1.1457540808
 21
-23.6528581635
  0
LINE
  5
3B0
100
AcDbEntity
  8
IMPORT_IGES
100
AcDbLine
 62
253
  6
CONTINUOUS
 10
-0.887027213
 20
15.6675133733
 11
-0.887027213
 21
15.3956564601
  0
LINE
  5
3B1
100
AcDbEntity
  8
IMPORT_IGES
100
AcDbLine
 62
253
  6
CONTINUOUS
 10
-0.887027213
 20
16.4151481785
 11
-0.887027213
 21
16.6870050917
  0
LINE
  5
3B2
100
AcDbEntity
  8
0
100
AcDbLine
 62
7
  6
CONTINUOUS
 10
-0.8241316322
 20
-10.1716656792
 11
-0.8241316322
 21
-9.9586692241
  0
LINE
  5
3B3
100
AcDbEntity
  8
0
100
AcDbLine
 62
7
  6
CONTINUOUS
 10
-0.7909543035
 20
-10.2157122952
 11
-0.7909543035
 21
-10.2702117639
  0
LINE
  5
3B4
100
AcDbEntity
  8
0
100
AcDbLine
 62
7
  6
CONTINUOUS
 10
-0.787027213
 20
-9.9586692241
 11
-0.787027213
 21
-10.1716656792
  0
LINE
  5
3B5
100
AcDbEntity
  8
RACCORDO
100
AcDbLine
 62
7
  6
CONTINUOUS
 10
-0.637027213
 20
-10.0836692241
 11
-0.637027213
 21
-9.9586692241
  0
LWPOLYLINE
  5
3B6
100
AcDbEntity
  8
IMPORT_IGES
100
AcDbPolyline
 62
7
  6
CONTINUOUS
 90
10
 70
0
 10
0.6350097761
 20
14.1413307788
 10
0.6352419835
 20
14.1461920788
 10
0.6354723577
 20
14.1505232934
 10
0.6357008987
 20
14.154319177
 10
0.6359253685
 20
14.1575788996
 10
0.6361480051
 20
14.1602937344
 10
0.6363755231
 20
14.162453736
 10
0.6366101605
 20
14.1640610867
 10
0.6368496792
 20
14.1651233919
 10
0.6370940792
 20
14.1656460136
  0
LWPOLYLINE
  5
3B7
100
AcDbEntity
  8
0
100
AcDbPolyline
 62
7
  6
CONTINUOUS
 90
17
 70
0
 10
4.26905054
 20
24.0952230489
 10
4.2687110236
 20
24.093493507
 10
4.2678654704
 20
24.091283557
 10
4.2665105921
 20
24.0885931991
 10
4.2646447952
 20
24.0854285369
 10
4.2622653741
 20
24.0817834667
 10
4.259365851
 20
24.0776396775
 10
4.2559448942
 20
24.073001894
 10
4.2519984386
 20
24.0678653915
 10
4.2475096517
 20
24.0621976853
 10
4.2424773125
 20
24.0560104976
 10
4.2368922309
 20
24.0492921062
 10
4.2307129829
 20
24.0419748599
 10
4.2239187167
 20
24.0340543952
 10
4.2165050695
 20
24.0255350757
 10
4.2084446077
 20
24.0163623408
 10
4.1997227
 20
24.0065330529
  0
LINE
  5
3B8
100
AcDbEntity
  8
IMPORT_IGES
100
AcDbLine
 62
253
  6
CONTINUOUS
 10
-2.5089222024
 20
-1.2806403659
 11
-2.487027213
 21
-1.2587453765
  0
LINE
  5
3B9
100
AcDbEntity
  8
IMPORT_IGES
100
AcDbLine
 62
253
  6
CONTINUOUS
 10
-1.9871033654
 20
-1.7586692241
 11
-2.0089983548
 21
-1.7805642135
  0
LINE
  5
3BA
100
AcDbEntity
  8
IMPORT_IGES
100
AcDbLine
 62
253
  6
CONTINUOUS
 10
0.3130489394
 20
0.5413307759
 11
0.3349439288
 21
0.5632257653
  0
LINE
  5
3BB
100
AcDbEntity
  8
IMPORT_IGES
100
AcDbLine
 62
7
  6
CONTINUOUS
 10
7.0710307918
 20
-0.0899653597
 11
6.924972787
 21
-0.0900666139
  0
LINE
  5
3BC
100
AcDbEntity
  8
IMPORT_IGES
100
AcDbLine
 62
253
  6
CONTINUOUS
 10
1.0848297002
 20
-1.2806403659
 11
0.8348677764
 21
-1.2806403659
  0
LINE
  5
3BD
100
AcDbEntity
  8
IMPORT_IGES
100
AcDbLine
 62
253
  6
CONTINUOUS
 10
-2.5089222024
 20
-1.2806403659
 11
-2.7588841262
 21
-1.2806403659
  0
LINE
  5
3BE
100
AcDbEntity
  8
IMPORT_IGES
100
AcDbLine
 62
7
  6
CONTINUOUS
 10
7.0711112524
 20
-1.1462951901
 11
6.924972787
 21
-1.1462986491
  0
LINE
  5
3BF
100
AcDbEntity
  8
IMPORT_IGES
100
AcDbLine
 62
7
  6
CONTINUOUS
 10
7.0657614442
 20
-0.2728470471
 11
6.924972787
 21
-0.2728562784
  0
LINE
  5
3C0
100
AcDbEntity
  8
IMPORT_IGES
100
AcDbLine
 62
253
  6
CONTINUOUS
 10
-2.7588841262
 20
0.0633019177
 11
-2.5089222024
 21
0.0633019177
  0
LINE
  5
3C1
100
AcDbEntity
  8
IMPORT_IGES
100
AcDbLine
 62
253
  6
CONTINUOUS
 10
0.8348677764
 20
0.0633019177
 11
1.0848297002
 21
0.0633019177
  0
LINE
  5
3C2
100
AcDbEntity
  8
IMPORT_IGES
100
AcDbLine
 62
7
  6
CONTINUOUS
 10
7.0710132871
 20
0.1401423338
 11
6.924972787
 21
0.1401391348
  0
LINE
  5
3C3
100
AcDbEntity
  8
IMPORT_IGES
100
AcDbLine
 62
7
  6
CONTINUOUS
 10
7.0711302064
 20
-1.3949351243
 11
6.924972787
 21
-1.3948760768
  0
LINE
  5
3C4
100
AcDbEntity
  8
IMPORT_IGES
100
AcDbLine
 62
7
  6
CONTINUOUS
 10
7.0658139147
 20
-0.9616245842
 11
6.924972787
 21
-0.9615498512
  0
LINE
  5
3C5
100
AcDbEntity
  8
IMPORT_IGES
100
AcDbLine
 62
253
  6
CONTINUOUS
 10
-2.0089983548
 20
0.5632257653
 11
-1.9871033654
 21
0.5413307759
  0
LINE
  5
3C6
100
AcDbEntity
  8
IMPORT_IGES
100
AcDbLine
 62
253
  6
CONTINUOUS
 10
0.3349439288
 20
-1.7805642135
 11
0.3130489394
 21
-1.7586692241
  0
LINE
  5
3C7
100
AcDbEntity
  8
IMPORT_IGES
100
AcDbLine
 62
253
  6
CONTINUOUS
 10
0.812972787
 20
-1.2587453765
 11
0.8348677764
 21
-1.2806403659
  0
LWPOLYLINE
  5
3C8
100
AcDbEntity
  8
IMPORT_IGES
100
AcDbPolyline
 62
7
  6
CONTINUOUS
 90
14
 70
0
 10
0.6236977954
 20
8.6413307759
 10
0.6256247106
 20
8.6039942134
 10
0.6313153021
 20
8.5667263653
 10
0.6407695698
 20
8.5298429837
 10
0.6540984807
 20
8.4935894924
 10
0.6711910679
 20
8.4584453049
 10
0.6917144303
 20
8.425064732
 10
0.715718052
 20
8.3939151435
 10
0.743152449
 20
8.3652099244
 10
0.7735362682
 20
8.3392083341
 10
0.8068513384
 20
8.3163583216
 10
0.8431158309
 20
8.2969454996
 10
0.8819029059
 20
8.2811624011
 10
0.9230702837
 20
8.269486249
  0
LINE
  5
3C9
100
AcDbEntity
  8
IMPORT_IGES
100
AcDbLine
 62
253
  6
CONTINUOUS
 10
0.3349439288
 20
0.813187689
 11
0.3349439288
 21
0.5632257653
  0
LINE
  5
3CA
100
AcDbEntity
  8
IMPORT_IGES
100
AcDbLine
 62
253
  6
CONTINUOUS
 10
0.3349439288
 20
-1.7805642135
 11
0.3349439288
 21
-2.0305261373
  0
LINE
  5
3CB
100
AcDbEntity
  8
IMPORT_IGES
100
AcDbLine
 62
253
  6
CONTINUOUS
 10
0.3349439288
 20
-2.686812311
 11
0.3349439288
 21
-2.9367742347
  0
LINE
  5
3CC
100
AcDbEntity
  8
IMPORT_IGES
100
AcDbLine
 62
253
  6
CONTINUOUS
 10
0.3349439288
 20
-5.2805642135
 11
0.3349439288
 21
-5.5305261373
  0
LINE
  5
3CD
100
AcDbEntity
  8
IMPORT_IGES
100
AcDbLine
 62
253
  6
CONTINUOUS
 10
0.3349439288
 20
-6.186812311
 11
0.3349439288
 21
-6.4367742347
  0
LINE
  5
3CE
100
AcDbEntity
  8
IMPORT_IGES
100
AcDbLine
 62
253
  6
CONTINUOUS
 10
0.3349439288
 20
-8.7805642135
 11
0.3349439288
 21
-9.0305261373
  0
LINE
  5
3CF
100
AcDbEntity
  8
IMPORT_IGES
100
AcDbLine
 62
253
  6
CONTINUOUS
 10
0.3349439288
 20
-9.686812311
 11
0.3349439288
 21
-9.9367742347
  0
LINE
  5
3D0
100
AcDbEntity
  8
IMPORT_IGES
100
AcDbLine
 62
253
  6
CONTINUOUS
 10
0.3349439288
 20
-12.2805642135
 11
0.3349439288
 21
-12.5305261373
  0
LINE
  5
3D1
100
AcDbEntity
  8
IMPORT_IGES
100
AcDbLine
 62
253
  6
CONTINUOUS
 10
0.3349439288
 20
-13.186812311
 11
0.3349439288
 21
-13.4367742347
  0
LINE
  5
3D2
100
AcDbEntity
  8
IMPORT_IGES
100
AcDbLine
 62
253
  6
CONTINUOUS
 10
0.3349439288
 20
-15.7805642135
 11
0.3349439288
 21
-16.0305261373
  0
LINE
  5
3D3
100
AcDbEntity
  8
RACCORDO
100
AcDbLine
 62
7
  6
CONTINUOUS
 10
0.362972787
 20
-9.9615254401
 11
0.362972787
 21
-10.0836692241
  0
LINE
  5
3D4
100
AcDbEntity
  8
IMPORT_IGES
100
AcDbLine
 62
253
  6
CONTINUOUS
 10
0.3672984712
 20
14.1413307759
 11
0.3672984712
 21
8.6413307759
  0
LINE
  5
3D5
100
AcDbEntity
  8
0
100
AcDbLine
 62
7
  6
CONTINUOUS
 10
0.512972787
 20
-10.1716656792
 11
0.512972787
 21
-10.0006563918
  0
LINE
  5
3D6
100
AcDbEntity
  8
0
100
AcDbLine
 62
7
  6
CONTINUOUS
 10
0.5168998775
 20
-10.2702908782
 11
0.5168998775
 21
-10.2157122952
  0
LINE
  5
3D7
100
AcDbEntity
  8
0
100
AcDbLine
 62
7
  6
CONTINUOUS
 10
0.5500772062
 20
-10.0191560152
 11
0.5500772062
 21
-10.1716656792
  0
LINE
  5
3D8
100
AcDbEntity
  8
IMPORT_IGES
100
AcDbLine
 62
253
  6
CONTINUOUS
 10
0.617260395
 20
8.6413307759
 11
0.617260395
 21
14.1413307759
  0
LINE
  5
3D9
100
AcDbEntity
  8
IMPORT_IGES
100
AcDbLine
 62
7
  6
CONTINUOUS
 10
0.623445826
 20
10.7413307759
 11
0.623445826
 21
8.7606075113
  0
LINE
  5
3DA
100
AcDbEntity
  8
IMPORT_IGES
100
AcDbLine
 62
7
  6
CONTINUOUS
 10
0.6304278519
 20
13.5169546162
 11
0.6304278519
 21
13.7657069356
  0
LINE
  5
3DB
100
AcDbEntity
  8
IMPORT_IGES
100
AcDbLine
 62
7
  6
CONTINUOUS
 10
0.6391553844
 20
11.736318213
 11
0.6391553844
 21
13.1151481785
  0
LINE
  5
3DC
100
AcDbEntity
  8
IMPORT_IGES
100
AcDbLine
 62
7
  6
CONTINUOUS
 10
0.812972787
 20
0.0414069283
 11
0.812972787
 21
-1.2587453765
  0
LINE
  5
3DD
100
AcDbEntity
  8
IMPORT_IGES
100
AcDbLine
 62
7
  6
CONTINUOUS
 10
0.812972787
 20
-3.4585930717
 11
0.812972787
 21
-4.7587453765
  0
LINE
  5
3DE
100
AcDbEntity
  8
IMPORT_IGES
100
AcDbLine
 62
7
  6
CONTINUOUS
 10
0.812972787
 20
-6.9585930717
 11
0.812972787
 21
-8.2587453765
  0
LINE
  5
3DF
100
AcDbEntity
  8
IMPORT_IGES
100
AcDbLine
 62
7
  6
CONTINUOUS
 10
0.812972787
 20
-10.4585930717
 11
0.812972787
 21
-11.7587453765
  0
LINE
  5
3E0
100
AcDbEntity
  8
IMPORT_IGES
100
AcDbLine
 62
7
  6
CONTINUOUS
 10
0.812972787
 20
-13.9585930717
 11
0.812972787
 21
-15.2587453765
  0
LINE
  5
3E1
100
AcDbEntity
  8
IMPORT_IGES
100
AcDbLine
 62
253
  6
CONTINUOUS
 10
0.8348677764
 20
0.0633019177
 11
0.8348677764
 21
-1.2806403659
  0
LINE
  5
3E2
100
AcDbEntity
  8
IMPORT_IGES
100
AcDbLine
 62
253
  6
CONTINUOUS
 10
0.8348677764
 20
-3.4366980823
 11
0.8348677764
 21
-4.7806403659
  0
LINE
  5
3E3
100
AcDbEntity
  8
IMPORT_IGES
100
AcDbLine
 62
253
  6
CONTINUOUS
 10
0.8348677764
 20
-6.9366980823
 11
0.8348677764
 21
-8.2806403659
  0
LINE
  5
3E4
100
AcDbEntity
  8
IMPORT_IGES
100
AcDbLine
 62
253
  6
CONTINUOUS
 10
0.8348677764
 20
-10.4366980823
 11
0.8348677764
 21
-11.7806403659
  0
LINE
  5
3E5
100
AcDbEntity
  8
IMPORT_IGES
100
AcDbLine
 62
253
  6
CONTINUOUS
 10
0.8348677764
 20
-13.9366980823
 11
0.8348677764
 21
-15.2806403659
  0
LINE
  5
3E6
100
AcDbEntity
  8
0
100
AcDbLine
 62
7
  6
CONTINUOUS
 10
0.8716996548
 20
23.9355197153
 11
0.8716996548
 21
22.5360947403
  0
LINE
  5
3E7
100
AcDbEntity
  8
0
100
AcDbLine
 62
7
  6
CONTINUOUS
 10
0.8716996548
 20
-22.2534331885
 11
0.8716996548
 21
-23.6528581635
  0
LINE
  5
3E8
100
AcDbEntity
  8
IMPORT_IGES
100
AcDbLine
 62
7
  6
CONTINUOUS
 10
0.887972787
 20
10.7413307759
 11
0.887972787
 21
13.1151481785
  0
LINE
  5
3E9
100
AcDbEntity
  8
IMPORT_IGES
100
AcDbLine
 62
7
  6
CONTINUOUS
 10
0.887972787
 20
14.8663307759
 11
0.887972787
 21
15.56178103
  0
LINE
  5
3EA
100
AcDbEntity
  8
IMPORT_IGES
100
AcDbLine
 62
253
  6
CONTINUOUS
 10
1.012972787
 20
8.2675133733
 11
1.012972787
 21
8.2606836637
  0
LINE
  5
3EB
100
AcDbEntity
  8
IMPORT_IGES
100
AcDbLine
 62
253
  6
CONTINUOUS
 10
1.0848297002
 20
-15.2806403659
 11
1.0848297002
 21
-13.9366980823
  0
LINE
  5
3EC
100
AcDbEntity
  8
IMPORT_IGES
100
AcDbLine
 62
253
  6
CONTINUOUS
 10
1.0848297002
 20
-11.7806403659
 11
1.0848297002
 21
-10.4366980823
  0
LINE
  5
3ED
100
AcDbEntity
  8
IMPORT_IGES
100
AcDbLine
 62
253
  6
CONTINUOUS
 10
1.0848297002
 20
-8.2806403659
 11
1.0848297002
 21
-6.9366980823
  0
LINE
  5
3EE
100
AcDbEntity
  8
IMPORT_IGES
100
AcDbLine
 62
253
  6
CONTINUOUS
 10
1.0848297002
 20
-4.7806403659
 11
1.0848297002
 21
-3.4366980823
  0
LINE
  5
3EF
100
AcDbEntity
  8
IMPORT_IGES
100
AcDbLine
 62
253
  6
CONTINUOUS
 10
1.0848297002
 20
-1.2806403659
 11
1.0848297002
 21
0.0633019177
  0
LINE
  5
3F0
100
AcDbEntity
  8
IMPORT_IGES
100
AcDbLine
 62
7
  6
CONTINUOUS
 10
1.262972787
 20
14.8663307759
 11
1.262972787
 21
14.8773301793
  0
LINE
  5
3F1
100
AcDbEntity
  8
IMPORT_IGES
100
AcDbLine
 62
7
  6
CONTINUOUS
 10
1.3867901896
 20
13.1151481785
 11
1.3867901896
 21
8.6413307759
  0
LINE
  5
3F2
100
AcDbEntity
  8
IMPORT_IGES
100
AcDbLine
 62
7
  6
CONTINUOUS
 10
1.3955177221
 20
13.7657069356
 11
1.3955177221
 21
13.5169546162
  0
LINE
  5
3F3
100
AcDbEntity
  8
IMPORT_IGES
100
AcDbLine
 62
253
  6
CONTINUOUS
 10
1.408685179
 20
14.1413307759
 11
1.408685179
 21
8.6413307759
  0
LINE
  5
3F4
100
AcDbEntity
  8
IMPORT_IGES
100
AcDbLine
 62
253
  6
CONTINUOUS
 10
1.6586471028
 20
8.6413307759
 11
1.6586471028
 21
14.1413307759
  0
LWPOLYLINE
  5
3F5
100
AcDbEntity
  8
IMPORT_IGES
100
AcDbPolyline
 62
253
  6
CONTINUOUS
 90
25
 70
0
 10
1.0848297002
 20
-4.7806403659
 10
1.0829199862
 20
-4.8300332512
 10
1.0779156425
 20
-4.8787993793
 10
1.0698166692
 20
-4.9269387502
 10
1.0585557665
 20
-4.9746394003
 10
1.0442002342
 20
-5.0217132931
 10
1.026951971
 20
-5.0675963198
 10
1.006814366
 20
-5.1123040616
 10
0.9837840303
 20
-5.1558209372
 10
0.9580526951
 20
-5.1975360936
 10
0.929545123
 20
-5.2374160453
 10
0.8983365514
 20
-5.2754942778
 10
0.8648444246
 20
-5.3112603939
 10
0.8290352604
 20
-5.3446717635
 10
0.790942541
 20
-5.3757710168
 10
0.7510841567
 20
-5.4041756472
 10
0.7094399667
 20
-5.4298254426
 10
0.6660301118
 20
-5.452780615
 10
0.6214329045
 20
-5.4728392948
 10
0.5756606696
 20
-5.4899873458
 10
0.5287010823
 20
-5.504238904
 10
0.4810954808
 20
-5.5154345084
 10
0.433024311
 20
-5.5235210052
 10
0.3843071271
 20
-5.5285515482
 10
0.3349439288
 20
-5.5305261373
  0
LWPOLYLINE
  5
3F6
100
AcDbEntity
  8
IMPORT_IGES
100
AcDbPolyline
 62
253
  6
CONTINUOUS
 90
25
 70
0
 10
1.0848297002
 20
-11.7806403659
 10
1.0829197559
 20
-11.8300332904
 10
1.0779152734
 20
-11.8787994426
 10
1.0698162525
 20
-11.9269388225
 10
1.0585554348
 20
-11.9746394618
 10
1.0442000788
 20
-12.0217133288
 10
1.0269519599
 20
-12.0675963284
 10
1.0068144239
 20
-12.112304041
 10
0.983784125
 20
-12.1558208863
 10
0.9580528008
 20
-12.1975360288
 10
0.9295452036
 20
-12.2374159916
 10
0.8983365811
 20
-12.2754942517
 10
0.8648444142
 20
-12.3112604046
 10
0.8290352349
 20
-12.3446718331
 10
0.7909425111
 20
-12.3757711545
 10
0.7510841272
 20
-12.4041758163
 10
0.7094399409
 20
-12.4298255775
 10
0.6660300944
 20
-12.4527806791
 10
0.6214328992
 20
-12.4728392922
 10
0.5756606847
 20
-12.4899872854
 10
0.5287011214
 20
-12.50423879
 10
0.4810955319
 20
-12.5154343711
 10
0.4330243571
 20
-12.5235208834
 10
0.3843071561
 20
-12.5285514722
 10
0.3349439288
 20
-12.5305261373
  0
LWPOLYLINE
  5
3F7
100
AcDbEntity
  8
IMPORT_IGES
100
AcDbPolyline
 62
253
  6
CONTINUOUS
 90
25
 70
0
 10
1.0848297002
 20
-15.2806403659
 10
1.0829196561
 20
-15.3300333074
 10
1.0779151134
 20
-15.3787994701
 10
1.0698160719
 20
-15.4269388539
 10
1.058555291
 20
-15.4746394885
 10
1.0442000115
 20
-15.5217133442
 10
1.0269519551
 20
-15.5675963322
 10
1.006814449
 20
-15.6123040321
 10
0.9837841661
 20
-15.6558208642
 10
0.9580528467
 20
-15.6975360008
 10
0.9295452386
 20
-15.7374159684
 10
0.898336594
 20
-15.7754942404
 10
0.8648444097
 20
-15.8112604093
 10
0.8290352238
 20
-15.8446718633
 10
0.7909424982
 20
-15.8757712141
 10
0.7510841145
 20
-15.9041758895
 10
0.7094399297
 20
-15.9298256359
 10
0.6660300869
 20
-15.9527807069
 10
0.6214328969
 20
-15.9728392911
 10
0.5756606913
 20
-15.9899872592
 10
0.5287011384
 20
-16.0042387406
 10
0.4810955541
 20
-16.0154343115
 10
0.4330243771
 20
-16.0235208306
 10
0.3843071686
 20
-16.0285514392
 10
0.3349439288
 20
-16.0305261373
  0
LWPOLYLINE
  5
3F8
100
AcDbEntity
  8
IMPORT_IGES
100
AcDbPolyline
 62
253
  6
CONTINUOUS
 90
25
 70
0
 10
1.0848297002
 20
-1.2806403659
 10
1.0828596025
 20
-1.3300372933
 10
1.077818667
 20
-1.3788065814
 10
1.0697068937
 20
-1.4269482302
 10
1.0584707185
 20
-1.4746513819
 10
1.0441637055
 20
-1.5217268944
 10
1.0269465466
 20
-1.5676073413
 10
1.0067995906
 20
-1.6123029202
 10
0.9837424888
 20
-1.6558034336
 10
0.9579948875
 20
-1.6975108622
 10
0.9294943985
 20
-1.737398889
 10
0.89830341
 20
-1.775493831
 10
0.8648287327
 20
-1.8112766203
 10
0.8290361558
 20
-1.8447051627
 10
0.7909598901
 20
-1.8758215524
 10
0.751109379
 20
-1.9042330031
 10
0.7094574024
 20
-1.9298666547
 10
0.6660311805
 20
-1.9527953673
 10
0.6214218164
 20
-1.972844936
 10
0.5756470083
 20
-1.9900241731
 10
0.5286890581
 20
-2.0043242663
 10
0.4810859742
 20
-2.0155445735
 10
0.4330170927
 20
-2.023618214
 10
0.3843030776
 20
-2.0286120687
 10
0.3349439288
 20
-2.0305261373
  0
LWPOLYLINE
  5
3F9
100
AcDbEntity
  8
IMPORT_IGES
100
AcDbPolyline
 62
253
  6
CONTINUOUS
 90
25
 70
0
 10
1.0848297002
 20
-8.2806403659
 10
1.0828595183
 20
-8.3300373253
 10
1.0778185322
 20
-8.3788066323
 10
1.0697067417
 20
-8.4269482867
 10
1.0584705928
 20
-8.474651425
 10
1.0441636395
 20
-8.5217269108
 10
1.0269465448
 20
-8.5676073351
 10
1.0067996623
 20
-8.6123029007
 10
0.9837426384
 20
-8.6558034048
 10
0.9579950744
 20
-8.6975108295
 10
0.9294945502
 20
-8.737398856
 10
0.8983034859
 20
-8.7754938031
 10
0.8648287433
 20
-8.8112766092
 10
0.829036126
 20
-8.8447051962
 10
0.7909598305
 20
-8.8758216423
 10
0.7511093077
 20
-8.9042331205
 10
0.7094573466
 20
-8.9298667592
 10
0.6660311582
 20
-8.95279543
 10
0.6214218264
 20
-8.972844922
 10
0.575647048
 20
-8.990024
 10
0.5286891262
 20
-9.0043238991
 10
0.481086054
 20
-9.015544113
 10
0.4330171626
 20
-9.0236178063
 10
0.3843031209
 20
-9.0286118144
 10
0.3349439288
 20
-9.0305261373
  0
LWPOLYLINE
  5
3FA
100
AcDbEntity
  8
IMPORT_IGES
100
AcDbPolyline
 62
253
  6
CONTINUOUS
 90
16
 70
0
 10
0.8348677764
 20
-1.2806403659
 10
0.8321149179
 20
-1.332880574
 10
0.8239176033
 20
-1.3845520922
 10
0.8103645544
 20
-1.435088907
 10
0.7915993664
 20
-1.4839458228
 10
0.7678286254
 20
-1.530577926
 10
0.7393284437
 20
-1.5744509175
 10
0.7064360634
 20
-1.6150678848
 10
0.6695029168
 20
-1.6520140987
 10
0.6288925819
 20
-1.6849244856
 10
0.585018722
 20
-1.7134457704
 10
0.5383773191
 20
-1.7372387941
 10
0.4895018632
 20
-1.7560254095
 10
0.4389371108
 20
-1.7695966995
 10
0.387228825
 20
-1.7778066439
 10
0.3349439288
 20
-1.7805642135
  0
LWPOLYLINE
  5
3FB
100
AcDbEntity
  8
IMPORT_IGES
100
AcDbPolyline
 62
253
  6
CONTINUOUS
 90
16
 70
0
 10
0.8348677764
 20
-4.7806403659
 10
0.8321102965
 20
-4.832924412
 10
0.8239005818
 20
-4.8846320483
 10
0.8103296021
 20
-4.935196365
 10
0.791543301
 20
-4.9840716387
 10
0.7677505469
 20
-5.0307130595
 10
0.7392295083
 20
-5.0745870115
 10
0.7063193563
 20
-5.1151974728
 10
0.6693733295
 20
-5.1521308063
 10
0.6287564886
 20
-5.1850234213
 10
0.584883589
 20
-5.2135238495
 10
0.5382515033
 20
-5.2372948602
 10
0.4893944049
 20
-5.2560603623
 10
0.4388571544
 20
-5.2696137214
 10
0.3871849867
 20
-5.2778112655
 10
0.3349439288
 20
-5.2805642135
  0
LWPOLYLINE
  5
3FC
100
AcDbEntity
  8
IMPORT_IGES
100
AcDbPolyline
 62
253
  6
CONTINUOUS
 90
16
 70
0
 10
0.8348677764
 20
-8.2806403659
 10
0.832114913
 20
-8.3328806211
 10
0.823917585
 20
-8.3845521783
 10
0.8103645167
 20
-8.4350890228
 10
0.7915993058
 20
-8.4839459587
 10
0.7678285409
 20
-8.5305780723
 10
0.7393283364
 20
-8.574451065
 10
0.7064359369
 20
-8.6150680253
 10
0.6695027763
 20
-8.6520142252
 10
0.6288924343
 20
-8.6849245928
 10
0.5850185754
 20
-8.7134458551
 10
0.5383771824
 20
-8.7372388551
 10
0.4895017463
 20
-8.7560254475
 10
0.4389370237
 20
-8.7695967181
 10
0.3872287773
 20
-8.777806649
 10
0.3349439288
 20
-8.7805642135
  0
LWPOLYLINE
  5
3FD
100
AcDbEntity
  8
IMPORT_IGES
100
AcDbPolyline
 62
253
  6
CONTINUOUS
 90
16
 70
0
 10
0.8348677764
 20
-11.7806403659
 10
0.832110301
 20
-11.8329243688
 10
0.8239005986
 20
-11.8846319695
 10
0.8103296365
 20
-11.9351962592
 10
0.7915433561
 20
-11.984071515
 10
0.7677506235
 20
-12.0307129269
 10
0.7392296054
 20
-12.0745868781
 10
0.7063194708
 20
-12.1151973457
 10
0.6693734567
 20
-12.1521306919
 10
0.6287566221
 20
-12.1850233243
 10
0.5848837213
 20
-12.213523773
 10
0.5382516262
 20
-12.2372948054
 10
0.4893945097
 20
-12.2560603282
 10
0.4388572322
 20
-12.2696137048
 10
0.3871850294
 20
-12.277811261
 10
0.3349439288
 20
-12.2805642135
  0
LWPOLYLINE
  5
3FE
100
AcDbEntity
  8
IMPORT_IGES
100
AcDbPolyline
 62
253
  6
CONTINUOUS
 90
16
 70
0
 10
0.8348677764
 20
-15.2806403659
 10
0.832110303
 20
-15.3329243501
 10
0.8239006058
 20
-15.3846319354
 10
0.8103296514
 20
-15.4351962134
 10
0.79154338
 20
-15.4840714615
 10
0.7677506567
 20
-15.5307128694
 10
0.7392296474
 20
-15.5745868202
 10
0.7063195204
 20
-15.6151972907
 10
0.6693735118
 20
-15.6521306423
 10
0.62875668
 20
-15.6850232823
 10
0.5848837787
 20
-15.7135237399
 10
0.5382516795
 20
-15.7372947817
 10
0.4893945551
 20
-15.7560603135
 10
0.438857266
 20
-15.7696136977
 10
0.3871850478
 20
-15.777811259
 10
0.3349439288
 20
-15.7805642135
  0
LWPOLYLINE
  5
3FF
100
AcDbEntity
  8
0
100
AcDbPolyline
 62
7
  6
CONTINUOUS
 90
17
 70
0
 10
-4.5431049659
 20
-23.8125614972
 10
-4.5427656083
 20
-23.8108318419
 10
-4.5419207828
 20
-23.8086234628
 10
-4.5405676131
 20
-23.8059363601
 10
-4.5387051091
 20
-23.8027767802
 10
-4.5363308718
 20
-23.7991384767
 10
-4.5334379718
 20
-23.7950027092
 10
-4.5300255876
 20
-23.7903757666
 10
-4.5260892567
 20
-23.78525136
 10
-4.5216088559
 20
-23.7795918835
 10
-4.516580106
 20
-23.7734070872
 10
-4.5109943389
 20
-23.7666872208
 10
-4.5048118134
 20
-23.7593654277
 10
-4.4980116141
 20
-23.7514370089
 10
-4.4905886909
 20
-23.7429066633
 10
-4.4825174485
 20
-23.7337216301
 10
-4.4737833351
 20
-23.7238782606
  0
LINE
  5
400
100
AcDbEntity
  8
RACCORDO
100
AcDbLine
 62
7
  6
CONTINUOUS
 10
8.7088626115
 20
20.7290655277
 11
8.8128664494
 21
21.0413307759
  0
LINE
  5
401
100
AcDbEntity
  8
IMPORT_IGES
100
AcDbLine
 62
253
  6
CONTINUOUS
 10
0.8348677764
 20
0.0633019177
 11
0.812972787
 21
0.0414069283
  0
LINE
  5
402
100
AcDbEntity
  8
IMPORT_IGES
100
AcDbLine
 62
7
  6
CONTINUOUS
 10
7.0536181501
 20
5.8179829776
 11
7.0397667338
 21
5.8041315613
  0
LINE
  5
403
100
AcDbEntity
  8
IMPORT_IGES
100
AcDbLine
 62
253
  6
CONTINUOUS
 10
-2.5089222024
 20
-4.7806403659
 11
-2.487027213
 21
-4.7587453765
  0
LINE
  5
404
100
AcDbEntity
  8
IMPORT_IGES
100
AcDbLine
 62
7
  6
CONTINUOUS
 10
-1.9871033654
 20
0.5413307759
 11
0.3130489394
 21
0.5413307759
  0
LINE
  5
405
100
AcDbEntity
  8
IMPORT_IGES
100
AcDbLine
 62
253
  6
CONTINUOUS
 10
-2.0089983548
 20
0.5632257653
 11
0.3349439288
 21
0.5632257653
  0
LINE
  5
406
100
AcDbEntity
  8
IMPORT_IGES
100
AcDbLine
 62
253
  6
CONTINUOUS
 10
0.3349439288
 20
0.813187689
 11
-2.0089983548
 21
0.813187689
  0
LWPOLYLINE
  5
407
100
AcDbEntity
  8
IMPORT_IGES
100
AcDbPolyline
 62
253
  6
CONTINUOUS
 90
25
 70
0
 10
0.3349439288
 20
0.813187689
 10
0.3843367808
 20
0.8112781708
 10
0.4331028884
 20
0.8062739451
 10
0.4812422517
 20
0.7981750121
 10
0.5289429109
 20
0.7869140372
 10
0.5760168258
 20
0.772558355
 10
0.6218998754
 20
0.7553099692
 10
0.666607642
 20
0.7351723057
 10
0.7101245434
 20
0.7121419387
 10
0.7518397115
 20
0.6864105942
 10
0.7917196538
 20
0.6579030433
 10
0.8297978629
 20
0.626694515
 10
0.8655639477
 20
0.5932024222
 10
0.8989752673
 20
0.5573932709
 10
0.9300744628
 20
0.5193005552
 10
0.9584790665
 20
0.4794421705
 10
0.9841288908
 20
0.4377979774
 10
1.0070841235
 20
0.3943881153
 10
1.0271428599
 20
0.3497908978
 10
1.0442909599
 20
0.3040186456
 10
1.0585425638
 20
0.2570590379
 10
1.0697381881
 20
0.2094534262
 10
1.0778246717
 20
0.1613822608
 10
1.0828551757
 20
0.1126650913
 10
1.0848297002
 20
0.0633019177
  0
LWPOLYLINE
  5
408
100
AcDbEntity
  8
IMPORT_IGES
100
AcDbPolyline
 62
253
  6
CONTINUOUS
 90
16
 70
0
 10
0.3349439288
 20
0.5632257653
 10
0.3872280116
 20
0.5604682815
 10
0.438935678
 20
0.5522585564
 10
0.4895000177
 20
0.5386875617
 10
0.5383753066
 20
0.519901243
 10
0.5850167351
 20
0.4961084706
 10
0.6288906878
 20
0.4675874147
 10
0.6695011436
 20
0.4346772479
 10
0.7064344665
 20
0.3977312104
 10
0.7393270667
 20
0.3571143641
 10
0.7678274773
 20
0.3132414654
 10
0.7915984696
 20
0.2666093877
 10
0.8103639541
 20
0.2177523048
 10
0.8239172984
 20
0.1672150771
 10
0.8321148322
 20
0.1155429394
 10
0.8348677764
 20
0.0633019177
  0
LINE
  5
409
100
AcDbEntity
  8
RACCORDO
100
AcDbLine
 62
7
  6
CONTINUOUS
 10
8.8128664494
 20
-20.7586692241
 11
8.7088626115
 21
-20.446403976
  0
LINE
  5
40A
100
AcDbEntity
  8
0
100
AcDbLine
 62
7
  6
CONTINUOUS
 10
2.9589683327
 20
20.9413307759
 11
2.9392172515
 21
21.7650863114
  0
LINE
  5
40B
100
AcDbEntity
  8
0
100
AcDbLine
 62
7
  6
CONTINUOUS
 10
2.862972787
 20
-22.2528513943
 11
2.862972787
 21
-21.5586692241
  0
LINE
  5
40C
100
AcDbEntity
  8
0
100
AcDbLine
 62
7
  6
CONTINUOUS
 10
2.862972787
 20
21.8413307759
 11
2.862972787
 21
22.5355129461
  0
LINE
  5
40D
100
AcDbEntity
  8
0
100
AcDbLine
 62
7
  6
CONTINUOUS
 10
2.9589683327
 20
-21.1946561728
 11
2.9589683327
 21
-20.6586692241
  0
LINE
  5
40E
100
AcDbEntity
  8
0
100
AcDbLine
 62
7
  6
CONTINUOUS
 10
2.9589683327
 20
20.9413307759
 11
2.9589683327
 21
21.4773177245
  0
LINE
  5
40F
100
AcDbEntity
  8
0
100
AcDbLine
 62
7
  6
CONTINUOUS
 10
3.362972787
 20
24.1355129461
 11
3.362972787
 21
22.5355129461
  0
LINE
  5
410
100
AcDbEntity
  8
0
100
AcDbLine
 62
7
  6
CONTINUOUS
 10
3.362972787
 20
-23.8528513943
 11
3.362972787
 21
-22.2528513943
  0
LINE
  5
411
100
AcDbEntity
  8
0
100
AcDbLine
 62
7
  6
CONTINUOUS
 10
3.4220595095
 20
-23.7354303696
 11
3.4220595095
 21
-22.2134608015
  0
LINE
  5
412
100
AcDbEntity
  8
0
100
AcDbLine
 62
7
  6
CONTINUOUS
 10
3.4220595095
 20
22.4961223533
 11
3.4220595095
 21
24.0180919214
  0
LINE
  5
413
100
AcDbEntity
  8
0
100
AcDbLine
 62
7
  6
CONTINUOUS
 10
2.9392172515
 20
-21.4824247596
 11
2.9589683327
 21
-20.6586692241
  0
LINE
  5
414
100
AcDbEntity
  8
RACCORDO
100
AcDbLine
 62
7
  6
CONTINUOUS
 10
9.394312653
 20
19.9841005333
 11
9.512972787
 21
20.3403704261
  0
LINE
  5
415
100
AcDbEntity
  8
IMPORT_IGES
100
AcDbLine
 62
253
  6
CONTINUOUS
 10
-1.9871033654
 20
-5.2586692241
 11
-2.0089983548
 21
-5.2805642135
  0
LINE
  5
416
100
AcDbEntity
  8
IMPORT_IGES
100
AcDbLine
 62
253
  6
CONTINUOUS
 10
0.3130489394
 20
-2.9586692241
 11
0.3349439288
 21
-2.9367742347
  0
LINE
  5
417
100
AcDbEntity
  8
IMPORT_IGES
100
AcDbLine
 62
253
  6
CONTINUOUS
 10
0.8348677764
 20
-3.4366980823
 11
0.812972787
 21
-3.4585930717
  0
LINE
  5
418
100
AcDbEntity
  8
RACCORDO
100
AcDbLine
 62
7
  6
CONTINUOUS
 10
9.512972787
 20
-20.0577088743
 11
9.394312653
 21
-19.7014389815
  0
LINE
  5
419
100
AcDbEntity
  8
0
100
AcDbLine
 62
7
  6
CONTINUOUS
 10
4.26905054
 20
-23.8125614972
 11
4.26905054
 21
-22.2147469771
  0
LINE
  5
41A
100
AcDbEntity
  8
0
100
AcDbLine
 62
7
  6
CONTINUOUS
 10
4.26905054
 20
22.4974085288
 11
4.26905054
 21
24.0952230489
  0
LINE
  5
41B
100
AcDbEntity
  8
0
100
AcDbLine
 62
7
  6
CONTINUOUS
 10
4.312972787
 20
-23.8586692241
 11
4.312972787
 21
-23.2266141713
  0
LINE
  5
41C
100
AcDbEntity
  8
0
100
AcDbLine
 62
7
  6
CONTINUOUS
 10
4.312972787
 20
-22.7907242769
 11
4.312972787
 21
-22.2586692241
  0
LINE
  5
41D
100
AcDbEntity
  8
0
100
AcDbLine
 62
7
  6
CONTINUOUS
 10
4.312972787
 20
22.5413307759
 11
4.312972787
 21
23.0733858287
  0
LINE
  5
41E
100
AcDbEntity
  8
0
100
AcDbLine
 62
7
  6
CONTINUOUS
 10
4.312972787
 20
23.5092757231
 11
4.312972787
 21
24.1413307759
  0
LWPOLYLINE
  5
41F
100
AcDbEntity
  8
IMPORT_IGES
100
AcDbPolyline
 62
7
  6
CONTINUOUS
 90
15
 70
0
 10
7.3607667378
 20
12.7673554889
 10
7.3542252693
 20
12.7264353205
 10
7.3435092084
 20
12.6863998775
 10
7.3287945017
 20
12.6476555432
 10
7.3102570957
 20
12.610608701
 10
7.2880729368
 20
12.5756657343
 10
7.2624179715
 20
12.5432330264
 10
7.2334729343
 20
12.5137127579
 10
7.2015307583
 20
12.4874086205
 10
7.1669977412
 20
12.4645247939
 10
7.1302852018
 20
12.4452610505
 10
7.0918044586
 20
12.4298171625
 10
7.0519668305
 20
12.4183929021
 10
7.011183636
 20
12.4111880417
 10
6.9698819363
 20
12.4084025473
  0
LWPOLYLINE
  5
420
100
AcDbEntity
  8
RACCORDO
100
AcDbPolyline
 62
7
  6
CONTINUOUS
 90
6
 70
0
 10
-7.801595516
 20
-18.6706692241
 10
-7.8168615439
 20
-18.6901349222
 10
-7.8481879363
 20
-18.7452232124
 10
-7.8704797649
 20
-18.8043306974
 10
-7.8847610086
 20
-18.8683679293
 10
-7.8910316673
 20
-18.937334908
  0
LINE
  5
421
100
AcDbEntity
  8
IMPORT_IGES
100
AcDbLine
 62
253
  6
CONTINUOUS
 10
-2.5089222024
 20
-8.2806403659
 11
-2.487027213
 21
-8.2587453765
  0
LINE
  5
422
100
AcDbEntity
  8
IMPORT_IGES
100
AcDbLine
 62
253
  6
CONTINUOUS
 10
-1.9871033654
 20
-8.7586692241
 11
-2.0089983548
 21
-8.7805642135
  0
LINE
  5
423
100
AcDbEntity
  8
IMPORT_IGES
100
AcDbLine
 62
253
  6
CONTINUOUS
 10
0.3130489394
 20
-6.4586692241
 11
0.3349439288
 21
-6.4367742347
  0
LINE
  5
424
100
AcDbEntity
  8
IMPORT_IGES
100
AcDbLine
 62
7
  6
CONTINUOUS
 10
7.0398039907
 20
5.3148837609
 11
6.924972787
 21
5.3148819716
  0
LINE
  5
425
100
AcDbEntity
  8
IMPORT_IGES
100
AcDbLine
 62
7
  6
CONTINUOUS
 10
-5.6608446156
 20
13.1151481785
 11
-5.6627119752
 21
13.1170155381
  0
LWPOLYLINE
  5
426
100
AcDbEntity
  8
RACCORDO
100
AcDbPolyline
 62
7
  6
CONTINUOUS
 90
22
 70
0
 10
7.6169772413
 20
-18.937334908
 10
7.6107065826
 20
-18.8683679293
 10
7.5964253389
 20
-18.8043306974
 10
7.5741335104
 20
-18.7452232124
 10
7.5428071179
 20
-18.6901349222
 10
7.5034701405
 20
-18.6399763787
 10
7.459194515
 20
-18.5974792385
 10
7.4098870028
 20
-18.5631896565
 10
7.3556408424
 20
-18.5365614777
 10
7.2998076856
 20
-18.5186878929
 10
7.242446752
 20
-18.5099332989
 10
7.183498822
 20
-18.5099332989
 10
7.1261378884
 20
-18.5186878929
 10
7.0703047316
 20
-18.5365614777
 10
7.0160585712
 20
-18.5631896565
 10
6.9667510591
 20
-18.5974792385
 10
6.9224754335
 20
-18.6399763787
 10
6.8831384561
 20
-18.6901349222
 10
6.8518120637
 20
-18.7452232124
 10
6.8295202351
 20
-18.8043306974
 10
6.8152389914
 20
-18.8683679293
 10
6.8089683327
 20
-18.937334908
  0
LINE
  5
427
100
AcDbEntity
  8
IMPORT_IGES
100
AcDbLine
 62
7
  6
CONTINUOUS
 10
7.0658138968
 20
-0.9616315356
 11
7.0711112524
 21
-1.1462951901
  0
LINE
  5
428
100
AcDbEntity
  8
RACCORDO
100
AcDbLine
 62
253
  6
CONTINUOUS
 10
6.7902728742
 20
-18.1774427456
 11
6.8089683327
 21
-18.937334908
  0
LWPOLYLINE
  5
429
100
AcDbEntity
  8
0
100
AcDbPolyline
 62
7
  6
CONTINUOUS
 90
34
 70
0
 10
7.112972787
 20
-24.1086734549
 10
7.1132559373
 20
-24.1205687401
 10
7.1141047528
 20
-24.1324370797
 10
7.1155173129
 20
-24.1442515903
 10
7.1174904193
 20
-24.1559855116
 10
7.1200196053
 20
-24.1676122629
 10
7.1230991453
 20
-24.1791055031
 10
7.1267220657
 20
-24.1904391979
 10
7.1308801612
 20
-24.2015876734
 10
7.1355640148
 20
-24.2125256704
 10
7.1407630182
 20
-24.2232284117
 10
7.1464653954
 20
-24.2336716524
 10
7.1526582289
 20
-24.24383173
 10
7.1593274915
 20
-24.2536856292
 10
7.1664580763
 20
-24.263211028
 10
7.1740338281
 20
-24.2723863432
 10
7.1820375865
 20
-24.2811907902
 10
7.1904512209
 20
-24.2896044246
 10
7.199255668
 20
-24.297608183
 10
7.2084309832
 20
-24.3051839348
 10
7.2179563819
 20
-24.3123145196
 10
7.2278102811
 20
-24.3189837823
 10
7.2379703587
 20
-24.3251766158
 10
7.2484135994
 20
-24.330878993
 10
7.2591163407
 20
-24.3360779963
 10
7.2700543377
 20
-24.3407618499
 10
7.2812028132
 20
-24.3449199455
 10
7.292536508
 20
-24.3485428658
 10
7.3040297482
 20
-24.3516224058
 10
7.3156564995
 20
-24.3541515918
 10
7.3273904209
 20
-24.3561246983
 10
7.3392049314
 20
-24.3575372584
 10
7.351073271
 20
-24.3583860739
 10
7.3629685562
 20
-24.3586692241
  0
LWPOLYLINE
  5
42A
100
AcDbEntity
  8
0
100
AcDbPolyline
 62
7
  6
CONTINUOUS
 90
34
 70
0
 10
7.117344621
 20
-24.1043016209
 10
7.1176281718
 20
-24.1161966424
 10
7.1184773768
 20
-24.1280647191
 10
7.1198903122
 20
-24.139878967
 10
7.1218637774
 20
-24.1516126243
 10
7.1243933022
 20
-24.1632391115
 10
7.1274731566
 20
-24.1747320921
 10
7.131096364
 20
-24.1860655319
 10
7.135254717
 20
-24.1972137581
 10
7.1399387961
 20
-24.2081515176
 10
7.1451379908
 20
-24.2188540337
 10
7.1508405236
 20
-24.229297063
 10
7.1570334772
 20
-24.2394569496
 10
7.163702823
 20
-24.2493106791
 10
7.1708334536
 20
-24.2588359306
 10
7.1784092164
 20
-24.2680111272
 10
7.1864129506
 20
-24.2768154852
 10
7.194826526
 20
-24.2852290606
 10
7.2036308839
 20
-24.2932327948
 10
7.2128060806
 20
-24.3008085576
 10
7.2223313321
 20
-24.3079391881
 10
7.2321850616
 20
-24.3146085339
 10
7.2423449481
 20
-24.3208014875
 10
7.2527879774
 20
-24.3265040204
 10
7.2634904936
 20
-24.331703215
 10
7.274428253
 20
-24.3363872941
 10
7.2855764792
 20
-24.3405456471
 10
7.296909919
 20
-24.3441688545
 10
7.3084028997
 20
-24.3472487089
 10
7.3200293869
 20
-24.3497782337
 10
7.3317630441
 20
-24.351751699
 10
7.343577292
 20
-24.3531646344
 10
7.3554453687
 20
-24.3540138393
 10
7.3673403902
 20
-24.3542973901
  0
LINE
  5
42B
100
AcDbEntity
  8
IMPORT_IGES
100
AcDbLine
 62
7
  6
CONTINUOUS
 10
7.0503321224
 20
9.1647303052
 11
7.0508051771
 21
9.1437743137
  0
LINE
  5
42C
100
AcDbEntity
  8
IMPORT_IGES
100
AcDbLine
 62
7
  6
CONTINUOUS
 10
7.0508051771
 20
9.1437743137
 11
7.0514401997
 21
9.1051816388
  0
LINE
  5
42D
100
AcDbEntity
  8
IMPORT_IGES
100
AcDbLine
 62
7
  6
CONTINUOUS
 10
7.0475556164
 20
11.2969602413
 11
7.0532273708
 21
10.9495248563
  0
LINE
  5
42E
100
AcDbEntity
  8
0
100
AcDbLine
 62
253
  6
CONTINUOUS
 10
7.117344621
 20
-23.7030067914
 11
7.112972787
 21
-23.2691543723
  0
LINE
  5
42F
100
AcDbEntity
  8
0
100
AcDbLine
 62
253
  6
CONTINUOUS
 10
7.3673403902
 20
-23.4865004405
 11
7.3622497891
 21
-22.9813189549
  0
LINE
  5
430
100
AcDbEntity
  8
IMPORT_IGES
100
AcDbLine
 62
7
  6
CONTINUOUS
 10
7.0514401997
 20
9.1051816388
 11
7.0521628849
 21
9.0409307744
  0
LINE
  5
431
100
AcDbEntity
  8
IMPORT_IGES
100
AcDbLine
 62
7
  6
CONTINUOUS
 10
7.0468052569
 20
11.3684007683
 11
7.0475556164
 21
11.2969602413
  0
LINE
  5
432
100
AcDbEntity
  8
IMPORT_IGES
100
AcDbLine
 62
7
  6
CONTINUOUS
 10
7.0521628849
 20
9.0409307744
 11
7.0530916302
 21
8.8970209477
  0
LINE
  5
433
100
AcDbEntity
  8
IMPORT_IGES
100
AcDbLine
 62
7
  6
CONTINUOUS
 10
7.0464097248
 20
11.434365071
 11
7.0468052569
 21
11.3684007683
  0
LINE
  5
434
100
AcDbEntity
  8
IMPORT_IGES
100
AcDbLine
 62
253
  6
CONTINUOUS
 10
5.9160929265
 20
-18.6616370588
 11
5.9160929265
 21
18.9442986105
  0
LINE
  5
435
100
AcDbEntity
  8
RACCORDO
100
AcDbLine
 62
7
  6
CONTINUOUS
 10
6.8089683327
 20
-19.9546647698
 11
6.8089683327
 21
-18.937334908
  0
LINE
  5
436
100
AcDbEntity
  8
RACCORDO
100
AcDbLine
 62
7
  6
CONTINUOUS
 10
6.8089683327
 20
19.2199964598
 11
6.8089683327
 21
20.2373263216
  0
LINE
  5
437
100
AcDbEntity
  8
IMPORT_IGES
100
AcDbLine
 62
253
  6
CONTINUOUS
 10
6.9159406217
 20
-17.6617893636
 11
6.9159406217
 21
17.9444509154
  0
LINE
  5
438
100
AcDbEntity
  8
IMPORT_IGES
100
AcDbLine
 62
7
  6
CONTINUOUS
 10
6.924972787
 20
-17.670821529
 11
6.924972787
 21
17.9534830807
  0
LINE
  5
439
100
AcDbEntity
  8
IMPORT_IGES
100
AcDbLine
 62
7
  6
CONTINUOUS
 10
6.9271400275
 20
-17.6728745415
 11
6.9271400275
 21
17.9555360933
  0
LINE
  5
43A
100
AcDbEntity
  8
IMPORT_IGES
100
AcDbLine
 62
253
  6
CONTINUOUS
 10
6.9699997484
 20
16.3764683022
 11
6.9699916658
 21
12.4064761638
  0
LINE
  5
43B
100
AcDbEntity
  8
IMPORT_IGES
100
AcDbLine
 62
7
  6
CONTINUOUS
 10
7.0397148698
 20
6.4851867379
 11
7.0397508608
 21
6.012569116
  0
LINE
  5
43C
100
AcDbEntity
  8
IMPORT_IGES
100
AcDbLine
 62
7
  6
CONTINUOUS
 10
7.0397667338
 20
5.8041315613
 11
7.0398039918
 21
5.314876146
  0
LINE
  5
43D
100
AcDbEntity
  8
IMPORT_IGES
100
AcDbLine
 62
7
  6
CONTINUOUS
 10
7.0461876283
 20
11.802904008
 11
7.0464097248
 21
11.434365071
  0
LINE
  5
43E
100
AcDbEntity
  8
IMPORT_IGES
100
AcDbLine
 62
7
  6
CONTINUOUS
 10
7.0530916302
 20
8.8970209477
 11
7.0536727019
 21
8.5752902026
  0
LINE
  5
43F
100
AcDbEntity
  8
IMPORT_IGES
100
AcDbLine
 62
7
  6
CONTINUOUS
 10
7.0531470345
 20
12.0044654258
 11
7.0531618528
 21
11.8098782325
  0
LINE
  5
440
100
AcDbEntity
  8
IMPORT_IGES
100
AcDbLine
 62
7
  6
CONTINUOUS
 10
7.0532273708
 20
10.9495248563
 11
7.0532461059
 21
10.7035034326
  0
LINE
  5
441
100
AcDbEntity
  8
IMPORT_IGES
100
AcDbLine
 62
7
  6
CONTINUOUS
 10
7.0532607119
 20
10.5117037261
 11
7.0533445417
 21
9.4108885603
  0
LINE
  5
442
100
AcDbEntity
  8
IMPORT_IGES
100
AcDbLine
 62
7
  6
CONTINUOUS
 10
7.0534700731
 20
7.7624648902
 11
7.0535539029
 21
6.6616497245
  0
LINE
  5
443
100
AcDbEntity
  8
IMPORT_IGES
100
AcDbLine
 62
7
  6
CONTINUOUS
 10
7.0536033318
 20
6.0125701709
 11
7.0536181501
 21
5.8179829776
  0
LINE
  5
444
100
AcDbEntity
  8
IMPORT_IGES
100
AcDbLine
 62
7
  6
CONTINUOUS
 10
7.0642458873
 20
-10.1516573909
 11
7.064309811
 21
-10.9910755633
  0
LINE
  5
445
100
AcDbEntity
  8
IMPORT_IGES
100
AcDbLine
 62
7
  6
CONTINUOUS
 10
7.0643316635
 20
-11.278032656
 11
7.0643961505
 21
-12.1248475745
  0
LINE
  5
446
100
AcDbEntity
  8
IMPORT_IGES
100
AcDbLine
 62
7
  6
CONTINUOUS
 10
7.0641687514
 20
-7.1653278552
 11
7.0642407979
 21
-8.1114096586
  0
LINE
  5
447
100
AcDbEntity
  8
IMPORT_IGES
100
AcDbLine
 62
7
  6
CONTINUOUS
 10
7.0657614442
 20
-0.2728470471
 11
7.0658138968
 21
-0.9616315356
  0
LINE
  5
448
100
AcDbEntity
  8
IMPORT_IGES
100
AcDbLine
 62
7
  6
CONTINUOUS
 10
7.0717000677
 20
-10.9910750005
 11
7.0717213581
 21
-11.2706505769
  0
LINE
  5
449
100
AcDbEntity
  8
IMPORT_IGES
100
AcDbLine
 62
7
  6
CONTINUOUS
 10
7.0710132871
 20
0.1401423338
 11
7.0710308109
 21
-0.0899723532
  0
LINE
  5
44A
100
AcDbEntity
  8
IMPORT_IGES
100
AcDbLine
 62
7
  6
CONTINUOUS
 10
7.0711112524
 20
-1.1462951901
 11
7.0711301874
 21
-1.3949419904
  0
LINE
  5
44B
100
AcDbEntity
  8
IMPORT_IGES
100
AcDbLine
 62
7
  6
CONTINUOUS
 10
7.0721566066
 20
-14.8734247737
 11
7.0722497506
 21
-16.0965518591
  0
LINE
  5
44C
100
AcDbEntity
  8
0
100
AcDbLine
 62
7
  6
CONTINUOUS
 10
7.112972787
 20
23.9856683432
 11
7.112972787
 21
23.5518159241
  0
LINE
  5
44D
100
AcDbEntity
  8
RACCORDO
100
AcDbLine
 62
7
  6
CONTINUOUS
 10
7.112972787
 20
-23.2691543723
 11
7.112972787
 21
-22.4588827144
  0
LINE
  5
44E
100
AcDbEntity
  8
0
100
AcDbLine
 62
7
  6
CONTINUOUS
 10
7.112972787
 20
-23.2691543723
 11
7.112972787
 21
-23.7030067914
  0
LINE
  5
44F
100
AcDbEntity
  8
RACCORDO
100
AcDbLine
 62
7
  6
CONTINUOUS
 10
7.112972787
 20
22.7415442662
 11
7.112972787
 21
23.5518159241
  0
LINE
  5
450
100
AcDbEntity
  8
0
100
AcDbLine
 62
7
  6
CONTINUOUS
 10
7.117344621
 20
24.3869631727
 11
7.117344621
 21
23.9856683432
  0
LINE
  5
451
100
AcDbEntity
  8
0
100
AcDbLine
 62
7
  6
CONTINUOUS
 10
7.117344621
 20
-23.7030067914
 11
7.117344621
 21
-24.1043016209
  0
LINE
  5
452
100
AcDbEntity
  8
IMPORT_IGES
100
AcDbLine
 62
7
  6
CONTINUOUS
 10
7.0720299455
 20
-13.2101676149
 11
7.0715037252
 21
-14.1566423679
  0
LINE
  5
453
100
AcDbEntity
  8
IMPORT_IGES
100
AcDbLine
 62
7
  6
CONTINUOUS
 10
7.0712932661
 20
-3.5364184357
 11
7.0708098282
 21
-4.5076032061
  0
LINE
  5
454
100
AcDbEntity
  8
IMPORT_IGES
100
AcDbLine
 62
7
  6
CONTINUOUS
 10
7.0536727019
 20
8.5752902026
 11
7.0531423437
 21
8.3026568465
  0
LINE
  5
455
100
AcDbEntity
  8
IMPORT_IGES
100
AcDbLine
 62
7
  6
CONTINUOUS
 10
7.0531423437
 20
8.3026568465
 11
7.0523251348
 21
8.1756283726
  0
LINE
  5
456
100
AcDbEntity
  8
IMPORT_IGES
100
AcDbLine
 62
7
  6
CONTINUOUS
 10
7.0715037252
 20
-14.1566423679
 11
7.0705598509
 21
-14.3081967958
  0
LINE
  5
457
100
AcDbEntity
  8
IMPORT_IGES
100
AcDbLine
 62
7
  6
CONTINUOUS
 10
7.0708098282
 20
-4.5076032061
 11
7.070049722
 21
-4.6246058968
  0
LINE
  5
458
100
AcDbEntity
  8
0
100
AcDbLine
 62
253
  6
CONTINUOUS
 10
7.112972787
 20
23.5518159241
 11
7.117344621
 21
23.9856683432
  0
LINE
  5
459
100
AcDbEntity
  8
0
100
AcDbLine
 62
253
  6
CONTINUOUS
 10
7.3622497891
 20
23.2639805067
 11
7.3673403902
 21
23.7691619922
  0
LINE
  5
45A
100
AcDbEntity
  8
IMPORT_IGES
100
AcDbLine
 62
7
  6
CONTINUOUS
 10
7.070049722
 20
-4.6246058968
 11
7.0693090318
 21
-4.6893661686
  0
LWPOLYLINE
  5
45B
100
AcDbEntity
  8
IMPORT_IGES
100
AcDbPolyline
 62
7
  6
CONTINUOUS
 90
3
 70
0
 10
7.0705598509
 20
-14.3081967958
 10
7.0695199989
 20
-14.4003173078
 10
7.0692669733
 20
-14.4176137064
  0
LINE
  5
45C
100
AcDbEntity
  8
IMPORT_IGES
100
AcDbLine
 62
7
  6
CONTINUOUS
 10
7.0523251348
 20
8.1756283726
 11
7.051507002
 21
8.1043366833
  0
LINE
  5
45D
100
AcDbEntity
  8
IMPORT_IGES
100
AcDbLine
 62
7
  6
CONTINUOUS
 10
7.0693090318
 20
-4.6893661686
 11
7.0688699538
 21
-4.716928756
  0
LINE
  5
45E
100
AcDbEntity
  8
IMPORT_IGES
100
AcDbLine
 62
7
  6
CONTINUOUS
 10
7.051507002
 20
8.1043366833
 11
7.0510010618
 21
8.0747898795
  0
LWPOLYLINE
  5
45F
100
AcDbEntity
  8
IMPORT_IGES
100
AcDbPolyline
 62
7
  6
CONTINUOUS
 90
9
 70
0
 10
7.0688699538
 20
-4.716928756
 10
7.0683858442
 20
-4.7403476134
 10
7.0681264573
 20
-4.7502376587
 10
7.067855451
 20
-4.7588015642
 10
7.06757278
 20
-4.7660647099
 10
7.0672779783
 20
-4.7718397233
 10
7.0669708906
 20
-4.7760641467
 10
7.0666516722
 20
-4.7788004377
 10
7.0663203231
 20
-4.7800485963
  0
LINE
  5
460
100
AcDbEntity
  8
RACCORDO
100
AcDbLine
 62
253
  6
CONTINUOUS
 10
6.8089683327
 20
19.2199964598
 11
6.7902728284
 21
18.4601024334
  0
LWPOLYLINE
  5
461
100
AcDbEntity
  8
IMPORT_IGES
100
AcDbPolyline
 62
7
  6
CONTINUOUS
 90
6
 70
0
 10
7.0510010618
 20
8.0747898795
 10
7.05041377
 20
8.0500881458
 10
7.0500901456
 20
8.0405979344
 10
7.0497462937
 20
8.0336138993
 10
7.0493823354
 20
8.028836504
 10
7.0489982705
 20
8.0262657486
  0
LINE
  5
462
100
AcDbEntity
  8
IMPORT_IGES
100
AcDbLine
 62
7
  6
CONTINUOUS
 10
7.0710308109
 20
-0.0899723532
 11
7.0657614442
 21
-0.2728470471
  0
LINE
  5
463
100
AcDbEntity
  8
IMPORT_IGES
100
AcDbLine
 62
7
  6
CONTINUOUS
 10
7.3629578716
 20
12.8083597787
 11
7.3607667378
 21
12.7673554889
  0
LWPOLYLINE
  5
464
100
AcDbEntity
  8
RACCORDO
100
AcDbPolyline
 62
7
  6
CONTINUOUS
 90
16
 70
0
 10
7.7782718113
 20
12.64391675
 10
7.7677215155
 20
12.5499413774
 10
7.7467740864
 20
12.4628514937
 10
7.7154295238
 20
12.3826470991
 10
7.672752041
 20
12.3083712874
 10
7.6196774248
 20
12.2409809647
 10
7.5590130357
 20
12.1833468492
 10
7.4898279645
 20
12.1355484944
 10
7.4130531204
 20
12.0975063469
 10
7.3342885914
 20
12.0718524643
 10
7.2540746168
 20
12.0594641993
 10
7.1718709573
 20
12.0594641993
 10
7.0916569827
 20
12.0718524643
 10
7.0128924536
 20
12.0975063469
 10
6.9361176095
 20
12.1355484944
 10
6.924972787
 20
12.1432481928
  0
LWPOLYLINE
  5
465
100
AcDbEntity
  8
0
100
AcDbPolyline
 62
7
  6
CONTINUOUS
 90
7
 70
0
 10
0.5500772062
 20
-10.1716656792
 10
0.5515911914
 20
-10.1693019494
 10
0.5556435126
 20
-10.1639195749
 10
0.5620829723
 20
-10.1555185555
 10
0.5707387875
 20
-10.1438533927
 10
0.5814127192
 20
-10.1291695851
 10
0.6078356719
 20
-10.0930263851
  0
LWPOLYLINE
  5
466
100
AcDbEntity
  8
0
100
AcDbPolyline
 62
7
  6
CONTINUOUS
 90
4
 70
0
 10
-7.9547139208
 20
-21.5560584863
 10
-7.9010577367
 20
-21.4769284257
 10
-7.8736919227
 20
-21.4369383453
 10
-7.8459045185
 20
-21.3968071846
  0
LWPOLYLINE
  5
467
100
AcDbEntity
  8
0
100
AcDbPolyline
 62
7
  6
CONTINUOUS
 90
3
 70
0
 10
-7.8459045185
 20
-21.3968071846
 10
-7.732432264
 20
-21.2351350985
 10
-7.7036728672
 20
-21.1946561728
  0
LINE
  5
468
100
AcDbEntity
  8
0
100
AcDbLine
 62
7
  6
CONTINUOUS
 10
0.6078356719
 20
-10.0930263851
 11
0.62503819
 21
-10.0688583348
  0
LINE
  5
469
100
AcDbEntity
  8
0
100
AcDbLine
 62
7
  6
CONTINUOUS
 10
0.5500772062
 20
-10.1716656792
 11
0.5168998775
 21
-10.2157122952
  0
LINE
  5
46A
100
AcDbEntity
  8
IMPORT_IGES
100
AcDbLine
 62
253
  6
CONTINUOUS
 10
0.8348677764
 20
-6.9366980823
 11
0.812972787
 21
-6.9585930717
  0
LINE
  5
46B
100
AcDbEntity
  8
IMPORT_IGES
100
AcDbLine
 62
253
  6
CONTINUOUS
 10
-9.199027213
 20
-17.670821529
 11
-9.1899950476
 21
-17.6617893636
  0
LINE
  5
46C
100
AcDbEntity
  8
IMPORT_IGES
100
AcDbLine
 62
253
  6
CONTINUOUS
 10
-2.5089222024
 20
-11.7806403659
 11
-2.487027213
 21
-11.7587453765
  0
LINE
  5
46D
100
AcDbEntity
  8
IMPORT_IGES
100
AcDbLine
 62
7
  6
CONTINUOUS
 10
7.0397148698
 20
6.4851867379
 11
6.924972787
 21
6.4850057584
  0
LINE
  5
46E
100
AcDbEntity
  8
IMPORT_IGES
100
AcDbLine
 62
7
  6
CONTINUOUS
 10
7.0397667338
 20
5.8041315613
 11
6.924972787
 21
5.8041262148
  0
LINE
  5
46F
100
AcDbEntity
  8
IMPORT_IGES
100
AcDbLine
 62
7
  6
CONTINUOUS
 10
7.0536181501
 20
5.8179829776
 11
6.924972787
 21
5.8179805948
  0
LINE
  5
470
100
AcDbEntity
  8
IMPORT_IGES
100
AcDbLine
 62
7
  6
CONTINUOUS
 10
7.0536033318
 20
6.0125701709
 11
6.924972787
 21
6.0125677884
  0
LINE
  5
471
100
AcDbEntity
  8
IMPORT_IGES
100
AcDbLine
 62
7
  6
CONTINUOUS
 10
7.0535539017
 20
6.6616573394
 11
6.924972787
 21
6.6616573167
  0
LINE
  5
472
100
AcDbEntity
  8
IMPORT_IGES
100
AcDbLine
 62
253
  6
CONTINUOUS
 10
-9.1899950476
 20
17.9444509154
 11
-9.199027213
 21
17.9534830807
  0
LINE
  5
473
100
AcDbEntity
  8
IMPORT_IGES
100
AcDbLine
 62
7
  6
CONTINUOUS
 10
-4.911148505
 20
14.1656460136
 11
-4.9129852045
 21
14.1675133733
  0
LWPOLYLINE
  5
474
100
AcDbEntity
  8
IMPORT_IGES
100
AcDbPolyline
 62
7
  6
CONTINUOUS
 90
25
 70
0
 10
-4.6232185164
 20
15.0350571285
 10
-4.6278627068
 20
15.0406597831
 10
-4.6485497165
 20
15.0674161068
 10
-4.6685415213
 20
15.0951909473
 10
-4.6876574556
 20
15.1239354187
 10
-4.705870702
 20
15.1535739994
 10
-4.7232080778
 20
15.1841556086
 10
-4.7395693689
 20
15.2158191995
 10
-4.7549664222
 20
15.2484788776
 10
-4.7693873906
 20
15.2821900436
 10
-4.7826965194
 20
15.3173225698
 10
-4.7949681383
 20
15.3538592403
 10
-4.8061279174
 20
15.3917875912
 10
-4.8158171127
 20
15.4315034708
 10
-4.8241269598
 20
15.4730122532
 10
-4.8309662231
 20
15.5162431726
 10
-4.8357024517
 20
15.5614771958
 10
-4.8383443568
 20
15.608974466
 10
-4.8388832272
 20
15.6583146925
 10
-4.8366604781
 20
15.7087302283
 10
-4.8315470676
 20
15.7600558652
 10
-4.8236720377
 20
15.8121688234
 10
-4.8127639299
 20
15.8643516622
 10
-4.7987127906
 20
15.9163921039
 10
-4.795418663
 20
15.9263749022
  0
LINE
  5
475
100
AcDbEntity
  8
0
100
AcDbLine
 62
7
  6
CONTINUOUS
 10
-7.7036728672
 20
21.4773177245
 11
-7.7610225057
 21
21.5583273326
  0
LWPOLYLINE
  5
476
100
AcDbEntity
  8
0
100
AcDbPolyline
 62
7
  6
CONTINUOUS
 90
3
 70
0
 10
-7.7610225057
 20
21.5583273326
 10
-7.8459045185
 20
21.6794687364
 10
-7.8736919227
 20
21.719599897
  0
LWPOLYLINE
  5
477
100
AcDbEntity
  8
0
100
AcDbPolyline
 62
7
  6
CONTINUOUS
 90
3
 70
0
 10
-7.8736919227
 20
21.719599897
 10
-7.9280650694
 20
21.7993227266
 10
-7.9547139208
 20
21.8387200381
  0
LWPOLYLINE
  5
478
100
AcDbEntity
  8
RACCORDO
100
AcDbPolyline
 62
7
  6
CONTINUOUS
 90
22
 70
0
 10
6.8089683327
 20
19.2199964598
 10
6.8152389914
 20
19.1510294811
 10
6.8295202351
 20
19.0869922492
 10
6.8518120637
 20
19.0278847642
 10
6.8831384561
 20
18.9727964739
 10
6.9224754335
 20
18.9226379305
 10
6.9667510591
 20
18.8801407902
 10
7.0160585712
 20
18.8458512083
 10
7.0703047316
 20
18.8192230295
 10
7.1261378884
 20
18.8013494446
 10
7.183498822
 20
18.7925948507
 10
7.242446752
 20
18.7925948507
 10
7.2998076856
 20
18.8013494446
 10
7.3556408424
 20
18.8192230295
 10
7.4098870028
 20
18.8458512083
 10
7.459194515
 20
18.8801407902
 10
7.5034701405
 20
18.9226379305
 10
7.5428071179
 20
18.9727964739
 10
7.5741335104
 20
19.0278847642
 10
7.5964253389
 20
19.0869922492
 10
7.6107065826
 20
19.1510294811
 10
7.6169772413
 20
19.2199964598
  0
LWPOLYLINE
  5
479
100
AcDbEntity
  8
IMPORT_IGES
100
AcDbPolyline
 62
253
  6
CONTINUOUS
 90
16
 70
0
 10
7.3630564044
 20
15.6339398711
 10
7.3608804211
 20
15.6658252371
 10
7.3544439166
 20
15.6976080158
 10
7.3438148939
 20
15.7289662298
 10
7.3290113829
 20
15.7596655096
 10
7.3101480926
 20
15.7892391475
 10
7.287568
 20
15.8170403128
 10
7.2615985417
 20
15.8426436224
 10
7.2323613399
 20
15.8658628209
 10
7.2000970593
 20
15.8865253066
 10
7.1650626015
 20
15.9045383753
 10
7.1278143677
 20
15.9196425863
 10
7.0891888928
 20
15.9315636877
 10
7.049787379
 20
15.9402138979
 10
7.0099075677
 20
15.945588237
 10
6.9699547772
 20
15.9476424662
  0
LINE
  5
47A
100
AcDbEntity
  8
IMPORT_IGES
100
AcDbLine
 62
7
  6
CONTINUOUS
 10
7.3629861017
 20
15.9740572688
 11
7.3608023519
 21
16.0149811617
  0
LWPOLYLINE
  5
47B
100
AcDbEntity
  8
IMPORT_IGES
100
AcDbPolyline
 62
253
  6
CONTINUOUS
 90
19
 70
0
 10
6.9159406217
 20
17.9444509154
 10
6.9121108365
 20
18.0315765334
 10
6.9007036911
 20
18.1180393298
 10
6.8818059673
 20
18.2031815256
 10
6.8555614323
 20
18.2863553882
 10
6.8221697455
 20
18.3669281598
 10
6.7818849394
 20
18.4442868704
 10
6.7350134867
 20
18.5178430018
 10
6.6819119693
 20
18.5870369643
 10
6.6229843653
 20
18.6513423542
 10
6.5586789754
 20
18.7102699582
 10
6.4894850129
 20
18.7633714756
 10
6.4159288815
 20
18.8102429282
 10
6.3385701709
 20
18.8505277344
 10
6.2579973993
 20
18.8839194212
 10
6.1748235367
 20
18.9101639562
 10
6.089681341
 20
18.92906168
 10
6.0032185445
 20
18.9404688253
 10
5.9160929265
 20
18.9442986105
  0
LWPOLYLINE
  5
47C
100
AcDbEntity
  8
0
100
AcDbPolyline
 62
253
  6
CONTINUOUS
 90
34
 70
0
 10
7.117344621
 20
23.9856683432
 10
7.1176612717
 20
23.9753855756
 10
7.1185414335
 20
23.9651260157
 10
7.1199831198
 20
23.9549128186
 10
7.1219830768
 20
23.9447690349
 10
7.1245367908
 20
23.9347175585
 10
7.1276384982
 20
23.924781075
 10
7.1312811986
 20
23.9149820105
 10
7.1354566707
 20
23.9053424808
 10
7.1401554906
 20
23.8958842419
 10
7.1453670534
 20
23.8866286404
 10
7.151079597
 20
23.8775965657
 10
7.1572802283
 20
23.8688084026
 10
7.1639549531
 20
23.8602839854
 10
7.1710887067
 20
23.8520425534
 10
7.1786653889
 20
23.8441027069
 10
7.1866678993
 20
23.8364823656
 10
7.1950781769
 20
23.8291987283
 10
7.2038772401
 20
23.8222682337
 10
7.21304523
 20
23.8157065234
 10
7.222561455
 20
23.809528407
 10
7.2324044375
 20
23.803747828
 10
7.2425519624
 20
23.7983778328
 10
7.2529811275
 20
23.7934305413
 10
7.2636683947
 20
23.7889171191
 10
7.2745896434
 20
23.7848477528
 10
7.2857202251
 20
23.7812316268
 10
7.2970350187
 20
23.7780769023
 10
7.3085084873
 20
23.7753906994
 10
7.3201147361
 20
23.7731790808
 10
7.3318275704
 20
23.7714470379
 10
7.3436205551
 20
23.7701984798
 10
7.355467074
 20
23.7694362244
 10
7.3673403902
 20
23.7691619922
  0
LINE
  5
47D
100
AcDbEntity
  8
RACCORDO
100
AcDbLine
 62
253
  6
CONTINUOUS
 10
7.6169772413
 20
19.2199964598
 11
7.7784176536
 21
12.6581191901
  0
LINE
  5
47E
100
AcDbEntity
  8
RACCORDO
100
AcDbLine
 62
7
  6
CONTINUOUS
 10
7.7782718113
 20
-12.3612551983
 11
7.778330574
 21
-12.3644106905
  0
LINE
  5
47F
100
AcDbEntity
  8
RACCORDO
100
AcDbLine
 62
7
  6
CONTINUOUS
 10
7.778330574
 20
-12.3644106905
 11
7.7783742789
 21
-12.3675665838
  0
LINE
  5
480
100
AcDbEntity
  8
RACCORDO
100
AcDbLine
 62
7
  6
CONTINUOUS
 10
7.7783742789
 20
-12.3675665838
 11
7.7784029253
 21
-12.370722841
  0
LWPOLYLINE
  5
481
100
AcDbEntity
  8
RACCORDO
100
AcDbPolyline
 62
7
  6
CONTINUOUS
 90
3
 70
0
 10
7.7784029253
 20
-12.370722841
 10
7.7784165095
 20
-12.3738793127
 10
7.7784176536
 20
-12.3754576384
  0
LINE
  5
482
100
AcDbEntity
  8
0
100
AcDbLine
 62
253
  6
CONTINUOUS
 10
7.3673403902
 20
-23.4865004405
 11
7.3673403902
 21
-24.3542973901
  0
LINE
  5
483
100
AcDbEntity
  8
0
100
AcDbLine
 62
253
  6
CONTINUOUS
 10
7.3673403902
 20
23.7691619922
 11
7.3673403902
 21
24.6369589419
  0
LINE
  5
484
100
AcDbEntity
  8
0
100
AcDbLine
 62
253
  6
CONTINUOUS
 10
7.4296184412
 20
21.4773177245
 11
7.4296184412
 21
21.1413307759
  0
LINE
  5
485
100
AcDbEntity
  8
0
100
AcDbLine
 62
253
  6
CONTINUOUS
 10
7.4296184412
 20
-20.8586692241
 11
7.4296184412
 21
-21.1946561728
  0
LINE
  5
486
100
AcDbEntity
  8
RACCORDO
100
AcDbLine
 62
7
  6
CONTINUOUS
 10
7.6169772413
 20
-20.8586692241
 11
7.6169772413
 21
-18.937334908
  0
LINE
  5
487
100
AcDbEntity
  8
RACCORDO
100
AcDbLine
 62
7
  6
CONTINUOUS
 10
7.6169772413
 20
19.2199964598
 11
7.6169772413
 21
21.1413307759
  0
LINE
  5
488
100
AcDbEntity
  8
0
100
AcDbLine
 62
253
  6
CONTINUOUS
 10
7.9295422888
 20
21.595066203
 11
7.9295422888
 21
21.1330390401
  0
LINE
  5
489
100
AcDbEntity
  8
0
100
AcDbLine
 62
253
  6
CONTINUOUS
 10
7.9295422888
 20
-20.8503774883
 11
7.9295422888
 21
-21.3124046513
  0
LINE
  5
48A
100
AcDbEntity
  8
0
100
AcDbLine
 62
7
  6
CONTINUOUS
 10
8.112972787
 20
21.5413307759
 11
8.112972787
 21
21.0413307759
  0
LINE
  5
48B
100
AcDbEntity
  8
0
100
AcDbLine
 62
7
  6
CONTINUOUS
 10
8.112972787
 20
-20.7586692241
 11
8.112972787
 21
-21.2586692241
  0
LINE
  5
48C
100
AcDbEntity
  8
IMPORT_IGES
100
AcDbLine
 62
7
  6
CONTINUOUS
 10
7.362972787
 20
12.8085124371
 11
7.362972787
 21
15.9741446011
  0
LINE
  5
48D
100
AcDbEntity
  8
IMPORT_IGES
100
AcDbLine
 62
7
  6
CONTINUOUS
 10
7.3629905022
 20
15.9727919167
 11
7.362972787
 21
15.9561492598
  0
LINE
  5
48E
100
AcDbEntity
  8
RACCORDO
100
AcDbLine
 62
7
  6
CONTINUOUS
 10
7.7784176536
 20
12.6581191901
 11
7.7784116001
 21
12.6549625987
  0
LINE
  5
48F
100
AcDbEntity
  8
RACCORDO
100
AcDbLine
 62
7
  6
CONTINUOUS
 10
7.7784116001
 20
12.6549625987
 11
7.7783904848
 21
12.6518062342
  0
LINE
  5
490
100
AcDbEntity
  8
RACCORDO
100
AcDbLine
 62
7
  6
CONTINUOUS
 10
7.7783904848
 20
12.6518062342
 11
7.7783543086
 21
12.6486501341
  0
LWPOLYLINE
  5
491
100
AcDbEntity
  8
RACCORDO
100
AcDbPolyline
 62
7
  6
CONTINUOUS
 90
3
 70
0
 10
7.7783543086
 20
12.6486501341
 10
7.7783030749
 20
12.6454944475
 10
7.7782718113
 20
12.64391675
  0
LINE
  5
492
100
AcDbEntity
  8
IMPORT_IGES
100
AcDbLine
 62
7
  6
CONTINUOUS
 10
7.0692669733
 20
-14.4176137064
 11
7.0684086832
 21
-14.4667972047
  0
LINE
  5
493
100
AcDbEntity
  8
IMPORT_IGES
100
AcDbLine
 62
7
  6
CONTINUOUS
 10
7.0684086832
 20
-14.4667972047
 11
7.0677490367
 21
-14.4964240998
  0
LINE
  5
494
100
AcDbEntity
  8
RACCORDO
100
AcDbLine
 62
253
  6
CONTINUOUS
 10
7.7784176536
 20
-12.3754576384
 11
7.6169772413
 21
-18.937334908
  0
LWPOLYLINE
  5
495
100
AcDbEntity
  8
IMPORT_IGES
100
AcDbPolyline
 62
7
  6
CONTINUOUS
 90
10
 70
0
 10
7.0677490367
 20
-14.4964240998
 10
7.0670152447
 20
-14.5223009421
 10
7.0666200965
 20
-14.5337031878
 10
7.0662056245
 20
-14.5438097594
 10
7.065771865
 20
-14.5525928866
 10
7.0653187816
 20
-14.5600803397
 10
7.064845712
 20
-14.566077067
 10
7.0643524355
 20
-14.5705180512
 10
7.0638391728
 20
-14.5734683097
 10
7.063305924
 20
-14.5749278424
  0
LWPOLYLINE
  5
496
100
AcDbEntity
  8
0
100
AcDbPolyline
 62
253
  6
CONTINUOUS
 90
34
 70
0
 10
7.117344621
 20
-23.7030067914
 10
7.1176607482
 20
-23.6927330136
 10
7.1185396605
 20
-23.6824801032
 10
7.119979752
 20
-23.6722711933
 10
7.121978318
 20
-23.662128594
 10
7.1245311338
 20
-23.6520760044
 10
7.1276320539
 20
-23.6421383838
 10
7.131273762
 20
-23.6323389515
 10
7.1354482673
 20
-23.6226990157
 10
7.140146248
 20
-23.6132401452
 10
7.1453572045
 20
-23.6039835782
 10
7.1510693457
 20
-23.5949503497
 10
7.1572696779
 20
-23.5861610384
 10
7.1639441539
 20
-23.5776355467
 10
7.1710777518
 20
-23.5693930528
 10
7.1786543858
 20
-23.5614521455
 10
7.186656968
 20
-23.5538307409
 10
7.1950674263
 20
-23.5465460566
 10
7.2038667587
 20
-23.5396145533
 10
7.2130350956
 20
-23.5330518822
 10
7.2225517474
 20
-23.5268728522
 10
7.2323952324
 20
-23.521091411
 10
7.2425433312
 20
-23.515720609
 10
7.2529731361
 20
-23.51077257
 10
7.2636611035
 20
-23.5062584635
 10
7.2745831201
 20
-23.5021884746
 10
7.2857145193
 20
-23.4985717963
 10
7.2970301337
 20
-23.4954166027
 10
7.3085043916
 20
-23.4927300169
 10
7.3201114173
 20
-23.4905180903
 10
7.331825051
 20
-23.4887858056
 10
7.3436188659
 20
-23.4875370717
 10
7.3554662265
 20
-23.4867747097
 10
7.3673403902
 20
-23.4865004405
  0
LWPOLYLINE
  5
497
100
AcDbEntity
  8
IMPORT_IGES
100
AcDbPolyline
 62
253
  6
CONTINUOUS
 90
19
 70
0
 10
6.9159406217
 20
-17.6617893636
 10
6.9121108365
 20
-17.7489149816
 10
6.9007036911
 20
-17.8353777781
 10
6.8818059673
 20
-17.9205199738
 10
6.8555614323
 20
-18.0036938365
 10
6.8221697455
 20
-18.084266608
 10
6.7818849394
 20
-18.1616253186
 10
6.7350134867
 20
-18.23518145
 10
6.6819119693
 20
-18.3043754126
 10
6.6229843653
 20
-18.3686808024
 10
6.5586789754
 20
-18.4276084065
 10
6.4894850129
 20
-18.4807099238
 10
6.4159288815
 20
-18.5275813765
 10
6.3385701709
 20
-18.5678661827
 10
6.2579973993
 20
-18.6012578694
 10
6.1748235367
 20
-18.6275024044
 10
6.089681341
 20
-18.6464001283
 10
6.0032185445
 20
-18.6578072736
 10
5.9160929265
 20
-18.6616370588
  0
LINE
  5
498
100
AcDbEntity
  8
IMPORT_IGES
100
AcDbLine
 62
253
  6
CONTINUOUS
 10
-1.9871033654
 20
-12.2586692241
 11
-2.0089983548
 21
-12.2805642135
  0
LINE
  5
499
100
AcDbEntity
  8
IMPORT_IGES
100
AcDbLine
 62
253
  6
CONTINUOUS
 10
0.3130489394
 20
-9.9586692241
 11
0.3349439288
 21
-9.9367742347
  0
LINE
  5
49A
100
AcDbEntity
  8
IMPORT_IGES
100
AcDbLine
 62
253
  6
CONTINUOUS
 10
-8.1901473525
 20
-18.6616370588
 11
-8.1991795178
 21
-18.6706692241
  0
LINE
  5
49B
100
AcDbEntity
  8
IMPORT_IGES
100
AcDbLine
 62
253
  6
CONTINUOUS
 10
0.8348677764
 20
-10.4366980823
 11
0.812972787
 21
-10.4585930717
  0
LWPOLYLINE
  5
49C
100
AcDbEntity
  8
IMPORT_IGES
100
AcDbPolyline
 62
7
  6
CONTINUOUS
 90
3
 70
0
 10
-5.1971262252
 20
8.2694859166
 10
-5.2408155189
 20
8.2624987441
 10
-5.2793022941
 20
8.2606075208
  0
LINE
  5
49D
100
AcDbEntity
  8
IMPORT_IGES
100
AcDbLine
 62
7
  6
CONTINUOUS
 10
1.0052478681
 20
8.2606075208
 11
1.012972787
 21
8.2606836637
  0
LINE
  5
49E
100
AcDbEntity
  8
IMPORT_IGES
100
AcDbLine
 62
7
  6
CONTINUOUS
 10
7.0534700731
 20
7.7624648902
 11
6.924972787
 21
7.7624648902
  0
LINE
  5
49F
100
AcDbEntity
  8
IMPORT_IGES
100
AcDbLine
 62
7
  6
CONTINUOUS
 10
6.924972787
 20
8.0262049379
 11
7.048925777
 21
8.026216693
  0
LINE
  5
4A0
100
AcDbEntity
  8
IMPORT_IGES
100
AcDbLine
 62
253
  6
CONTINUOUS
 10
1.012972787
 20
8.2606836637
 11
1.0052478681
 21
8.2606836637
  0
LINE
  5
4A1
100
AcDbEntity
  8
IMPORT_IGES
100
AcDbLine
 62
253
  6
CONTINUOUS
 10
-5.2793022941
 20
8.2606836637
 11
-5.287027213
 21
8.2606836637
  0
LINE
  5
4A2
100
AcDbEntity
  8
IMPORT_IGES
100
AcDbLine
 62
7
  6
CONTINUOUS
 10
1.012972787
 20
8.2675133733
 11
0.9354060032
 21
8.2675133733
  0
LINE
  5
4A3
100
AcDbEntity
  8
IMPORT_IGES
100
AcDbLine
 62
7
  6
CONTINUOUS
 10
-5.2094601162
 20
8.2675133733
 11
-5.287027213
 21
8.2675133733
  0
LINE
  5
4A4
100
AcDbEntity
  8
IMPORT_IGES
100
AcDbLine
 62
253
  6
CONTINUOUS
 10
7.0536730886
 20
8.6008464579
 11
6.924972787
 21
8.6008464579
  0
LINE
  5
4A5
100
AcDbEntity
  8
IMPORT_IGES
100
AcDbLine
 62
253
  6
CONTINUOUS
 10
1.6586471028
 20
8.6413307759
 11
1.3867901896
 21
8.6413307759
  0
LINE
  5
4A6
100
AcDbEntity
  8
IMPORT_IGES
100
AcDbLine
 62
253
  6
CONTINUOUS
 10
0.3672984712
 20
8.6413307759
 11
0.6236977954
 21
8.6413307759
  0
LINE
  5
4A7
100
AcDbEntity
  8
IMPORT_IGES
100
AcDbLine
 62
253
  6
CONTINUOUS
 10
-4.6413528972
 20
8.6413307759
 11
-4.8977522214
 21
8.6413307759
  0
LINE
  5
4A8
100
AcDbEntity
  8
IMPORT_IGES
100
AcDbLine
 62
253
  6
CONTINUOUS
 10
-5.6608446156
 20
8.6413307759
 11
-5.9327015288
 21
8.6413307759
  0
LINE
  5
4A9
100
AcDbEntity
  8
IMPORT_IGES
100
AcDbLine
 62
7
  6
CONTINUOUS
 10
7.0483022714
 20
9.2015219054
 11
6.924972787
 21
9.2015219054
  0
LINE
  5
4AA
100
AcDbEntity
  8
IMPORT_IGES
100
AcDbLine
 62
7
  6
CONTINUOUS
 10
-5.2793022941
 20
8.2606075208
 11
-5.287027213
 21
8.2606836637
  0
LWPOLYLINE
  5
4AB
100
AcDbEntity
  8
IMPORT_IGES
100
AcDbPolyline
 62
7
  6
CONTINUOUS
 90
3
 70
0
 10
0.9230702837
 20
8.269486249
 10
0.9667602441
 20
8.2624988282
 10
1.0052478681
 20
8.2606075208
  0
LINE
  5
4AC
100
AcDbEntity
  8
IMPORT_IGES
100
AcDbLine
 62
253
  6
CONTINUOUS
 10
-8.1991795178
 20
18.9533307759
 11
-8.1901473525
 21
18.9442986105
  0
LINE
  5
4AD
100
AcDbEntity
  8
IMPORT_IGES
100
AcDbLine
 62
7
  6
CONTINUOUS
 10
-2.9132098104
 20
15.6675133733
 11
-2.9113424507
 21
15.6656460136
  0
LWPOLYLINE
  5
4AE
100
AcDbEntity
  8
IMPORT_IGES
100
AcDbPolyline
 62
7
  6
CONTINUOUS
 90
20
 70
0
 10
-3.2122433204
 20
16.3161146813
 10
-3.1912331434
 20
16.2942467174
 10
-3.1708102971
 20
16.271514273
 10
-3.1509747814
 20
16.2479148308
 10
-3.131676797
 20
16.2234316421
 10
-3.1129661434
 20
16.1980813514
 10
-3.0949922185
 20
16.171917569
 10
-3.0777909599
 20
16.1450242365
 10
-3.06132643
 20
16.1173389437
 10
-3.0456402142
 20
16.0886924151
 10
-3.0307244706
 20
16.0591692508
 10
-3.016587041
 20
16.028702009
 10
-3.0032930361
 20
15.9968699955
 10
-2.9907649496
 20
15.963670405
 10
-2.9790802878
 20
15.9291106907
 10
-2.9685366801
 20
15.8927611691
 10
-2.9590393579
 20
15.8546762576
 10
-2.9506830898
 20
15.8148286082
 10
-2.9440498116
 20
15.7726539179
 10
-2.9390362681
 20
15.7279436546
  0
LWPOLYLINE
  5
4AF
100
AcDbEntity
  8
IMPORT_IGES
100
AcDbPolyline
 62
7
  6
CONTINUOUS
 90
10
 70
0
 10
1.3885276441
 20
14.1656460136
 10
1.3887909952
 20
14.1651233253
 10
1.3890573528
 20
14.1640609106
 10
1.3893267169
 20
14.1624534656
 10
1.389601689
 20
14.1602934897
 10
1.3898796676
 20
14.1575788327
 10
1.3901528483
 20
14.1543192909
 10
1.3904186295
 20
14.1505234735
 10
1.3906796128
 20
14.1461922314
 10
1.3909357982
 20
14.1413307733
  0
LWPOLYLINE
  5
4B0
100
AcDbEntity
  8
IMPORT_IGES
100
AcDbPolyline
 62
7
  6
CONTINUOUS
 90
8
 70
0
 10
7.0483022714
 20
9.2015219054
 10
7.0486306487
 20
9.2001698689
 10
7.0489461215
 20
9.1974982829
 10
7.0492486896
 20
9.1935071476
 10
7.0495379058
 20
9.1881251845
 10
7.0498142175
 20
9.181423672
 10
7.0500789662
 20
9.1736164452
 10
7.0503321224
 20
9.1647303052
  0
LWPOLYLINE
  5
4B1
100
AcDbEntity
  8
0
100
AcDbPolyline
 62
253
  6
CONTINUOUS
 90
34
 70
0
 10
10.008600953
 20
-23.7030067914
 10
10.008284291
 20
-23.6927238303
 10
10.0074040968
 20
-23.6824640782
 10
10.005962357
 20
-23.6722506914
 10
10.0039623268
 20
-23.6621067276
 10
10.0014085199
 20
-23.6520550762
 10
9.9983066945
 20
-23.6421184075
 10
9.9946638438
 20
-23.6323191371
 10
9.9904881909
 20
-23.6226793959
 10
9.9857891686
 20
-23.6132209628
 10
9.9805773886
 20
-23.6039651936
 10
9.9748646109
 20
-23.5949329704
 10
9.9686637277
 20
-23.5861446753
 10
9.9619887341
 20
-23.5776201427
 10
9.9548546965
 20
-23.5693786139
 10
9.947277717
 20
-23.56143869
 10
9.9392748974
 20
-23.5538182919
 10
9.9308643003
 20
-23.5465346188
 10
9.9220649078
 20
-23.5396041091
 10
9.9128965819
 20
-23.5330424065
 10
9.9033800144
 20
-23.5268643198
 10
9.8935366782
 20
-23.5210837895
 10
9.8833887768
 20
-23.5157138569
 10
9.8729592259
 20
-23.5107666506
 10
9.8622715983
 20
-23.5062533506
 10
9.8513500384
 20
-23.5021841476
 10
9.8402191787
 20
-23.4985682138
 10
9.8289041151
 20
-23.4954136999
 10
9.8174300931
 20
-23.4927276636
 10
9.8058232957
 20
-23.4905162536
 10
9.7941107867
 20
-23.4887845711
 10
9.7823193098
 20
-23.4875364424
 10
9.770475199
 20
-23.4867745285
 10
9.7586051838
 20
-23.4865004405
  0
LWPOLYLINE
  5
4B2
100
AcDbEntity
  8
0
100
AcDbPolyline
 62
7
  6
CONTINUOUS
 90
32
 70
0
 10
10.0085966729
 20
24.3884176058
 10
10.0083173241
 20
24.3988598316
 10
10.007467884
 20
24.4107295498
 10
10.0060545552
 20
24.4225454322
 10
10.0040805366
 20
24.4342807119
 10
10.0015502996
 20
24.4459087912
 10
9.998469581
 20
24.4574033023
 10
9.9948453638
 20
24.4687381948
 10
9.9906858596
 20
24.4798877911
 10
9.9860004952
 20
24.4908268246
 10
9.9807998876
 20
24.5015305111
 10
9.9750958224
 20
24.5119745963
 10
9.9689012301
 20
24.5221354085
 10
9.96223015
 20
24.5319899245
 10
9.9550976989
 20
24.5415158188
 10
9.9475200424
 20
24.5506915058
 10
9.9395143483
 20
24.5594962013
 10
9.931098762
 20
24.5679099529
 10
9.9222923704
 20
24.5759136845
 10
9.9131151572
 20
24.5834892454
 10
9.9035878957
 20
24.5906194987
 10
9.893732111
 20
24.597288336
 10
9.8835700354
 20
24.6034806984
 10
9.873124782
 20
24.6091824869
 10
9.8624202471
 20
24.6143806722
 10
9.851480846
 20
24.6190634458
 10
9.840331234
 20
24.6232203002
 10
9.8289964689
 20
24.6268419099
 10
9.8175005033
 20
24.6299204886
 10
9.805871068
 20
24.6324484785
 10
9.7941395734
 20
24.6344194245
 10
9.7854852617
 20
24.6355087294
  0
LWPOLYLINE
  5
4B3
100
AcDbEntity
  8
0
100
AcDbPolyline
 62
7
  6
CONTINUOUS
 90
11
 70
0
 10
10.012972787
 20
24.3913350067
 10
10.0126896368
 20
24.4032302919
 10
10.0118408213
 20
24.4150986314
 10
10.0104282612
 20
24.426913142
 10
10.0084551547
 20
24.4386470634
 10
10.0059259687
 20
24.4502738147
 10
10.0028464287
 20
24.4617670549
 10
9.9992235084
 20
24.4731007497
 10
9.9950654128
 20
24.4842492252
 10
9.9903815592
 20
24.4951872222
 10
9.9851825558
 20
24.5058899635
  0
LINE
  5
4B4
100
AcDbEntity
  8
0
100
AcDbLine
 62
7
  6
CONTINUOUS
 10
11.0042459192
 20
-20.8813189549
 11
11.012972787
 21
-21.4586692241
  0
LINE
  5
4B5
100
AcDbEntity
  8
0
100
AcDbLine
 62
253
  6
CONTINUOUS
 10
9.7586051838
 20
23.7691619922
 11
9.7636957849
 21
23.2639805067
  0
LINE
  5
4B6
100
AcDbEntity
  8
0
100
AcDbLine
 62
253
  6
CONTINUOUS
 10
10.008600953
 20
23.9856683432
 11
10.012972787
 21
23.5518159241
  0
LINE
  5
4B7
100
AcDbEntity
  8
0
100
AcDbLine
 62
253
  6
CONTINUOUS
 10
10.008600953
 20
24.3869631727
 11
10.0085966729
 21
24.3884176058
  0
LINE
  5
4B8
100
AcDbEntity
  8
0
100
AcDbLine
 62
7
  6
CONTINUOUS
 10
9.3820598001
 20
12.64391675
 11
9.3820598001
 21
-12.3612551983
  0
LINE
  5
4B9
100
AcDbEntity
  8
0
100
AcDbLine
 62
7
  6
CONTINUOUS
 10
9.512972787
 20
20.3403704261
 11
9.512972787
 21
-20.0577088743
  0
LINE
  5
4BA
100
AcDbEntity
  8
0
100
AcDbLine
 62
253
  6
CONTINUOUS
 10
9.7586051838
 20
-23.4865004405
 11
9.7586051838
 21
-24.3542973901
  0
LINE
  5
4BB
100
AcDbEntity
  8
0
100
AcDbLine
 62
253
  6
CONTINUOUS
 10
9.7586051838
 20
23.7691619922
 11
9.7586051838
 21
24.6369589419
  0
LINE
  5
4BC
100
AcDbEntity
  8
0
100
AcDbLine
 62
7
  6
CONTINUOUS
 10
10.008600953
 20
-24.1043016209
 11
10.008600953
 21
-23.7030067914
  0
LINE
  5
4BD
100
AcDbEntity
  8
0
100
AcDbLine
 62
7
  6
CONTINUOUS
 10
10.008600953
 20
23.9856683432
 11
10.008600953
 21
24.3869631727
  0
LINE
  5
4BE
100
AcDbEntity
  8
RACCORDO
100
AcDbLine
 62
7
  6
CONTINUOUS
 10
10.012972787
 20
23.5518159241
 11
10.012972787
 21
22.7415442662
  0
LINE
  5
4BF
100
AcDbEntity
  8
0
100
AcDbLine
 62
7
  6
CONTINUOUS
 10
10.012972787
 20
-23.7030067914
 11
10.012972787
 21
-23.2691543723
  0
LINE
  5
4C0
100
AcDbEntity
  8
RACCORDO
100
AcDbLine
 62
7
  6
CONTINUOUS
 10
10.012972787
 20
-22.4588827144
 11
10.012972787
 21
-23.2691543723
  0
LINE
  5
4C1
100
AcDbEntity
  8
0
100
AcDbLine
 62
7
  6
CONTINUOUS
 10
10.012972787
 20
23.5518159241
 11
10.012972787
 21
23.9856683432
  0
LINE
  5
4C2
100
AcDbEntity
  8
0
100
AcDbLine
 62
253
  6
CONTINUOUS
 10
9.7636957849
 20
-22.9813189549
 11
9.7586051838
 21
-23.4865004405
  0
LINE
  5
4C3
100
AcDbEntity
  8
0
100
AcDbLine
 62
253
  6
CONTINUOUS
 10
10.012972787
 20
-23.2691543723
 11
10.008600953
 21
-23.7030067914
  0
LINE
  5
4C4
100
AcDbEntity
  8
0
100
AcDbLine
 62
7
  6
CONTINUOUS
 10
11.012972787
 20
21.7413307759
 11
11.0042459192
 21
21.1639805067
  0
LWPOLYLINE
  5
4C5
100
AcDbEntity
  8
0
100
AcDbPolyline
 62
253
  6
CONTINUOUS
 90
34
 70
0
 10
10.008600953
 20
23.9856683432
 10
10.0082843023
 20
23.9753855756
 10
10.0074041405
 20
23.9651260157
 10
10.0059624542
 20
23.9549128186
 10
10.0039624972
 20
23.9447690349
 10
10.0014087832
 20
23.9347175585
 10
9.9983070758
 20
23.924781075
 10
9.9946643754
 20
23.9149820105
 10
9.9904889033
 20
23.9053424808
 10
9.9857900834
 20
23.8958842419
 10
9.9805785206
 20
23.8866286404
 10
9.9748659771
 20
23.8775965657
 10
9.9686653457
 20
23.8688084026
 10
9.961990621
 20
23.8602839854
 10
9.9548568673
 20
23.8520425534
 10
9.9472801852
 20
23.8441027069
 10
9.9392776747
 20
23.8364823656
 10
9.9308673971
 20
23.8291987283
 10
9.9220683339
 20
23.8222682337
 10
9.912900344
 20
23.8157065234
 10
9.903384119
 20
23.809528407
 10
9.8935411365
 20
23.803747828
 10
9.8833936116
 20
23.7983778328
 10
9.8729644465
 20
23.7934305413
 10
9.8622771794
 20
23.7889171191
 10
9.8513559306
 20
23.7848477528
 10
9.8402253489
 20
23.7812316268
 10
9.8289105553
 20
23.7780769023
 10
9.8174370867
 20
23.7753906994
 10
9.8058308379
 20
23.7731790808
 10
9.7941180036
 20
23.7714470379
 10
9.782325019
 20
23.7701984798
 10
9.7704785001
 20
23.7694362244
 10
9.7586051838
 20
23.7691619922
  0
LINE
  5
4C6
100
AcDbEntity
  8
IMPORT_IGES
100
AcDbLine
 62
253
  6
CONTINUOUS
 10
-2.5089222024
 20
-15.2806403659
 11
-2.487027213
 21
-15.2587453765
  0
LINE
  5
4C7
100
AcDbEntity
  8
RACCORDO
100
AcDbLine
 62
7
  6
CONTINUOUS
 10
-7.0830227587
 20
-19.9546647698
 11
-6.9346228555
 21
-19.8062648666
  0
LINE
  5
4C8
100
AcDbEntity
  8
IMPORT_IGES
100
AcDbLine
 62
253
  6
CONTINUOUS
 10
-1.9871033654
 20
-15.7586692241
 11
-2.0089983548
 21
-15.7805642135
  0
LINE
  5
4C9
100
AcDbEntity
  8
IMPORT_IGES
100
AcDbLine
 62
253
  6
CONTINUOUS
 10
0.3130489394
 20
-13.4586692241
 11
0.3349439288
 21
-13.4367742347
  0
LINE
  5
4CA
100
AcDbEntity
  8
IMPORT_IGES
100
AcDbLine
 62
253
  6
CONTINUOUS
 10
0.8348677764
 20
-13.9366980823
 11
0.812972787
 21
-13.9585930717
  0
LINE
  5
4CB
100
AcDbEntity
  8
IMPORT_IGES
100
AcDbLine
 62
7
  6
CONTINUOUS
 10
7.0642407979
 20
-8.1114096586
 11
7.0615889932
 21
-8.1140538477
  0
LINE
  5
4CC
100
AcDbEntity
  8
IMPORT_IGES
100
AcDbLine
 62
7
  6
CONTINUOUS
 10
7.0533445405
 20
9.4108961752
 11
6.924972787
 21
9.4108961526
  0
LINE
  5
4CD
100
AcDbEntity
  8
IMPORT_IGES
100
AcDbLine
 62
7
  6
CONTINUOUS
 10
0.623445826
 20
9.9413307759
 11
1.3867901896
 21
9.9413307759
  0
LINE
  5
4CE
100
AcDbEntity
  8
IMPORT_IGES
100
AcDbLine
 62
7
  6
CONTINUOUS
 10
1.3867901896
 20
9.9622768538
 11
0.623445826
 21
9.9622768538
  0
LINE
  5
4CF
100
AcDbEntity
  8
IMPORT_IGES
100
AcDbLine
 62
7
  6
CONTINUOUS
 10
-5.6608446156
 20
10.3163307759
 11
-4.8975002519
 21
10.3163307759
  0
LINE
  5
4D0
100
AcDbEntity
  8
IMPORT_IGES
100
AcDbLine
 62
7
  6
CONTINUOUS
 10
-4.8975002519
 20
10.3372768538
 11
-5.6608446156
 21
10.3372768538
  0
LINE
  5
4D1
100
AcDbEntity
  8
IMPORT_IGES
100
AcDbLine
 62
7
  6
CONTINUOUS
 10
7.0532607119
 20
10.5117037261
 11
6.924972787
 21
10.5117037261
  0
LINE
  5
4D2
100
AcDbEntity
  8
IMPORT_IGES
100
AcDbLine
 62
7
  6
CONTINUOUS
 10
0.623445826
 20
10.7413307759
 11
0.887972787
 21
10.7413307759
  0
LINE
  5
4D3
100
AcDbEntity
  8
IMPORT_IGES
100
AcDbLine
 62
7
  6
CONTINUOUS
 10
7.0532273708
 20
10.9495248563
 11
6.924972787
 21
10.9495218527
  0
LINE
  5
4D4
100
AcDbEntity
  8
IMPORT_IGES
100
AcDbLine
 62
7
  6
CONTINUOUS
 10
-5.187027213
 20
11.1163307759
 11
-4.9004697793
 21
11.1163307759
  0
LINE
  5
4D5
100
AcDbEntity
  8
IMPORT_IGES
100
AcDbLine
 62
253
  6
CONTINUOUS
 10
7.0499497225
 20
11.142239234
 11
6.924972787
 21
11.142239234
  0
LINE
  5
4D6
100
AcDbEntity
  8
IMPORT_IGES
100
AcDbLine
 62
7
  6
CONTINUOUS
 10
7.0532461322
 20
10.7035094268
 11
6.924972787
 21
10.703650503
  0
LWPOLYLINE
  5
4D7
100
AcDbEntity
  8
IMPORT_IGES
100
AcDbPolyline
 62
7
  6
CONTINUOUS
 90
4
 70
0
 10
-3.323952501
 20
16.4128947015
 10
-3.2869651968
 20
16.3838614626
 10
-3.2497288033
 20
16.3516601215
 10
-3.2122433204
 20
16.3161146813
  0
LINE
  5
4D8
100
AcDbEntity
  8
RACCORDO
100
AcDbLine
 62
7
  6
CONTINUOUS
 10
-7.0830227587
 20
20.2373263216
 11
-6.9346228555
 21
20.0889264183
  0
LINE
  5
4D9
100
AcDbEntity
  8
IMPORT_IGES
100
AcDbLine
 62
7
  6
CONTINUOUS
 10
0.6391553844
 20
13.1151481785
 11
0.6372880248
 21
13.1170155381
  0
LINE
  5
4DA
100
AcDbEntity
  8
IMPORT_IGES
100
AcDbLine
 62
7
  6
CONTINUOUS
 10
-1.3608446156
 20
16.4151481785
 11
-1.3627119752
 21
16.4170155381
  0
LWPOLYLINE
  5
4DB
100
AcDbEntity
  8
IMPORT_IGES
100
AcDbPolyline
 62
7
  6
CONTINUOUS
 90
15
 70
0
 10
7.3608023519
 20
16.0149811617
 10
7.3542666139
 20
16.0559012693
 10
7.3435546247
 20
16.0959375442
 10
7.3288424123
 20
16.1346832986
 10
7.3103060048
 20
16.1717318449
 10
7.2881214304
 20
16.2066764955
 10
7.2624647171
 20
16.2391105626
 10
7.2335166713
 20
16.2686315616
 10
7.2015702948
 20
16.2949356955
 10
7.1670320744
 20
16.3178189891
 10
7.1303135332
 20
16.3370818971
 10
7.0918261944
 20
16.3525248743
 10
7.0519815808
 20
16.3639483756
 10
7.0111912158
 20
16.3711528557
 10
6.9700320162
 20
16.3739366973
  0
LINE
  5
4DC
100
AcDbEntity
  8
0
100
AcDbLine
 62
7
  6
CONTINUOUS
 10
11.012972787
 20
21.7413307759
 11
11.0304278519
 21
21.1639805067
  0
LWPOLYLINE
  5
4DD
100
AcDbEntity
  8
0
100
AcDbPolyline
 62
7
  6
CONTINUOUS
 90
40
 70
0
 10
11.012972787
 20
22.0411019238
 10
11.0125739412
 20
22.0612307192
 10
11.0113671133
 20
22.0813219705
 10
11.0093543539
 20
22.1013433488
 10
11.0065393764
 20
22.1212586828
 10
11.0029267297
 20
22.1410399171
 10
10.9985204332
 20
22.160666916
 10
10.9933262099
 20
22.180109432
 10
10.9873515164
 20
22.1993341337
 10
10.9806029714
 20
22.2183161442
 10
10.9730853028
 20
22.237034732
 10
10.964812528
 20
22.2554478671
 10
10.9558095011
 20
22.2735003701
 10
10.9461012331
 20
22.2911479879
 10
10.9356969985
 20
22.3083791366
 10
10.9246000959
 20
22.3251884657
 10
10.9128158736
 20
22.3415628364
 10
10.9003721316
 20
22.3574587863
 10
10.8873077402
 20
22.3728270334
 10
10.8736596268
 20
22.38762908
 10
10.8594383667
 20
22.401858139
 10
10.8446447973
 20
22.4155135257
 10
10.8292862717
 20
22.4285843081
 10
10.813400857
 20
22.4410340739
 10
10.7970363424
 20
22.4528252227
 10
10.7802354953
 20
22.4639301553
 10
10.7630119669
 20
22.4743429756
 10
10.7453713012
 20
22.4840603289
 10
10.7273240562
 20
22.4930732009
 10
10.7089154196
 20
22.5013559011
 10
10.6902038879
 20
22.5088824519
 10
10.6712345466
 20
22.5156379345
 10
10.6520254312
 20
22.521619111
 10
10.6325960163
 20
22.5268214378
 10
10.612966498
 20
22.5312393612
 10
10.5931799637
 20
22.5348630729
 10
10.5732906542
 20
22.5376847437
 10
10.5533385306
 20
22.5397024831
 10
10.5333486862
 20
22.540917402
 10
10.5133533868
 20
22.5413307759
  0
LINE
  5
4DE
100
AcDbEntity
  8
0
100
AcDbLine
 62
7
  6
CONTINUOUS
 10
11.0042459192
 20
22.0355298691
 11
11.0042459192
 21
21.1639805067
  0
LINE
  5
4DF
100
AcDbEntity
  8
0
100
AcDbLine
 62
7
  6
CONTINUOUS
 10
11.0042459192
 20
-20.8813189549
 11
11.0042459192
 21
-21.7528683173
  0
LINE
  5
4E0
100
AcDbEntity
  8
0
100
AcDbLine
 62
7
  6
CONTINUOUS
 10
11.012972787
 20
22.0413476989
 11
11.012972787
 21
21.7413307759
  0
LINE
  5
4E1
100
AcDbEntity
  8
0
100
AcDbLine
 62
7
  6
CONTINUOUS
 10
11.012972787
 20
-21.7586861472
 11
11.012972787
 21
-21.4586692241
  0
LINE
  5
4E2
100
AcDbEntity
  8
0
100
AcDbLine
 62
7
  6
CONTINUOUS
 10
11.0304278519
 20
21.1639805067
 11
11.0304278519
 21
-20.8813189549
  0
LWPOLYLINE
  5
4E3
100
AcDbEntity
  8
0
100
AcDbPolyline
 62
7
  6
CONTINUOUS
 90
40
 70
0
 10
11.012972787
 20
-21.7584403721
 10
11.0125739412
 20
-21.7785691674
 10
11.0113671133
 20
-21.7986604187
 10
11.0093543539
 20
-21.8186817971
 10
11.0065393764
 20
-21.8385971311
 10
11.0029267297
 20
-21.8583783653
 10
10.9985204332
 20
-21.8780053642
 10
10.9933262099
 20
-21.8974478803
 10
10.9873515164
 20
-21.916672582
 10
10.9806029714
 20
-21.9356545924
 10
10.9730853028
 20
-21.9543731803
 10
10.964812528
 20
-21.9727863153
 10
10.9558095011
 20
-21.9908388183
 10
10.9461012331
 20
-22.0084864361
 10
10.9356969985
 20
-22.0257175848
 10
10.9246000959
 20
-22.0425269139
 10
10.9128158736
 20
-22.0589012846
 10
10.9003721316
 20
-22.0747972346
 10
10.8873077402
 20
-22.0901654816
 10
10.8736596268
 20
-22.1049675282
 10
10.8594383667
 20
-22.1191965872
 10
10.8446447973
 20
-22.1328519739
 10
10.8292862717
 20
-22.1459227564
 10
10.813400857
 20
-22.1583725222
 10
10.7970363424
 20
-22.170163671
 10
10.7802354953
 20
-22.1812686036
 10
10.7630119669
 20
-22.1916814238
 10
10.7453713012
 20
-22.2013987771
 10
10.7273240562
 20
-22.2104116491
 10
10.7089154196
 20
-22.2186943493
 10
10.6902038879
 20
-22.2262209001
 10
10.6712345466
 20
-22.2329763827
 10
10.6520254312
 20
-22.2389575593
 10
10.6325960163
 20
-22.244159886
 10
10.612966498
 20
-22.2485778094
 10
10.5931799637
 20
-22.2522015211
 10
10.5732906542
 20
-22.255023192
 10
10.5533385306
 20
-22.2570409314
 10
10.5333486862
 20
-22.2582558502
 10
10.5133533868
 20
-22.2586692241
  0
LINE
  5
4E4
100
AcDbEntity
  8
0
100
AcDbLine
 62
7
  6
CONTINUOUS
 10
11.0304278519
 20
-20.8813189549
 11
11.012972787
 21
-21.4586692241
  0
LINE
  5
4E5
100
AcDbEntity
  8
RACCORDO
100
AcDbLine
 62
7
  6
CONTINUOUS
 10
7.712972787
 20
-20.7586692241
 11
7.7649707456
 21
-20.446403976
  0
LINE
  5
4E6
100
AcDbEntity
  8
0
100
AcDbLine
 62
7
  6
CONTINUOUS
 10
-4.4737833351
 20
-23.7238782606
 11
-4.4542799696
 21
-23.7021856442
  0
LINE
  5
4E7
100
AcDbEntity
  8
0
100
AcDbLine
 62
7
  6
CONTINUOUS
 10
-4.587027213
 20
-22.2586692241
 11
-4.5431049659
 21
-22.2147469771
  0
LINE
  5
4E8
100
AcDbEntity
  8
0
100
AcDbLine
 62
7
  6
CONTINUOUS
 10
-7.3275688392
 20
-22.1946392496
 11
-7.3928450428
 21
-22.2528513943
  0
LINE
  5
4E9
100
AcDbEntity
  8
0
100
AcDbLine
 62
253
  6
CONTINUOUS
 10
-11.287027213
 20
-21.7586861472
 11
-11.2783003452
 21
-21.7528683173
  0
LINE
  5
4EA
100
AcDbEntity
  8
0
100
AcDbLine
 62
253
  6
CONTINUOUS
 10
-10.7870335591
 20
-22.2586692241
 11
-10.7783066913
 21
-22.2528513943
  0
LINE
  5
4EB
100
AcDbEntity
  8
IMPORT_IGES
100
AcDbLine
 62
7
  6
CONTINUOUS
 10
6.924972787
 20
12.4056895839
 11
6.9699916724
 21
12.406476154
  0
LINE
  5
4EC
100
AcDbEntity
  8
IMPORT_IGES
100
AcDbLine
 62
253
  6
CONTINUOUS
 10
7.0462047752
 20
11.5777312122
 11
6.924972787
 21
11.5777358282
  0
LINE
  5
4ED
100
AcDbEntity
  8
IMPORT_IGES
100
AcDbLine
 62
7
  6
CONTINUOUS
 10
7.0531618528
 20
11.8098782325
 11
6.924972787
 21
11.8098765557
  0
LINE
  5
4EE
100
AcDbEntity
  8
IMPORT_IGES
100
AcDbLine
 62
7
  6
CONTINUOUS
 10
7.0531470345
 20
12.0044654258
 11
6.924972787
 21
12.0044679329
  0
LINE
  5
4EF
100
AcDbEntity
  8
RACCORDO
100
AcDbLine
 62
7
  6
CONTINUOUS
 10
-9.656114226
 20
12.64391675
 11
-9.199027213
 21
12.64391675
  0
LINE
  5
4F0
100
AcDbEntity
  8
RACCORDO
100
AcDbLine
 62
7
  6
CONTINUOUS
 10
7.7782718113
 20
12.64391675
 11
9.3820598001
 21
12.64391675
  0
LINE
  5
4F1
100
AcDbEntity
  8
IMPORT_IGES
100
AcDbLine
 62
7
  6
CONTINUOUS
 10
7.0461876283
 20
11.802904008
 11
6.924972787
 21
11.803168179
  0
LINE
  5
4F2
100
AcDbEntity
  8
0
100
AcDbLine
 62
253
  6
CONTINUOUS
 10
-11.2783003452
 20
22.0355298691
 11
-11.287027213
 21
22.0413476989
  0
LINE
  5
4F3
100
AcDbEntity
  8
0
100
AcDbLine
 62
253
  6
CONTINUOUS
 10
-10.7783066913
 20
22.5355129461
 11
-10.7870335591
 21
22.5413307759
  0
LINE
  5
4F4
100
AcDbEntity
  8
IMPORT_IGES
100
AcDbLine
 62
7
  6
CONTINUOUS
 10
-3.3271433642
 20
16.4151481785
 11
-3.323952501
 21
16.4128947015
  0
LINE
  5
4F5
100
AcDbEntity
  8
0
100
AcDbLine
 62
7
  6
CONTINUOUS
 10
-7.3275688392
 20
22.4773008014
 11
-7.3928450428
 21
22.5355129461
  0
LINE
  5
4F6
100
AcDbEntity
  8
IMPORT_IGES
100
AcDbLine
 62
7
  6
CONTINUOUS
 10
1.3885276441
 20
14.1656460136
 11
1.3866394407
 21
14.1675133733
  0
LINE
  5
4F7
100
AcDbEntity
  8
0
100
AcDbLine
 62
7
  6
CONTINUOUS
 10
-4.587027213
 20
22.5413307759
 11
-4.5431049659
 21
22.4974085288
  0
LWPOLYLINE
  5
4F8
100
AcDbEntity
  8
0
100
AcDbPolyline
 62
7
  6
CONTINUOUS
 90
18
 70
0
 10
-4.4542902065
 20
23.9848585043
 10
-4.4737655405
 20
24.0065200576
 10
-4.4824865742
 20
24.01634824
 10
-4.4905461218
 20
24.0255198442
 10
-4.4979590168
 20
24.0340381318
 10
-4.504753152
 20
24.0419581271
 10
-4.5109329625
 20
24.0492757281
 10
-4.5165190185
 20
24.0559950368
 10
-4.5215525889
 20
24.0621833837
 10
-4.5260427358
 20
24.0678524197
 10
-4.5299906864
 20
24.072990494
 10
-4.533413299
 20
24.077629985
 10
-4.5363145758
 20
24.0817756999
 10
-4.5386956659
 20
24.0854228316
 10
-4.5405628908
 20
24.0885893366
 10
-4.5419188748
 20
24.0912812006
 10
-4.5427651603
 20
24.0934924381
 10
-4.5431049659
 20
24.0952230489
  0
LINE
  5
4F9
100
AcDbEntity
  8
RACCORDO
100
AcDbLine
 62
7
  6
CONTINUOUS
 10
7.7649707456
 20
20.7290655277
 11
7.712972787
 21
21.0413307759
  0
LINE
  5
4FA
100
AcDbEntity
  8
0
100
AcDbLine
 62
7
  6
CONTINUOUS
 10
-4.4542799696
 20
-23.7021856442
 11
-4.4319717572
 21
-23.6776956405
  0
LINE
  5
4FB
100
AcDbEntity
  8
0
100
AcDbLine
 62
7
  6
CONTINUOUS
 10
-4.4319717572
 20
-23.6776956405
 11
-4.4067974411
 21
-23.650347932
  0
LINE
  5
4FC
100
AcDbEntity
  8
0
100
AcDbLine
 62
7
  6
CONTINUOUS
 10
-4.4067974411
 20
-23.650347932
 11
-4.3635121421
 21
-23.603804544
  0
LINE
  5
4FD
100
AcDbEntity
  8
0
100
AcDbLine
 62
7
  6
CONTINUOUS
 10
-4.3635121421
 20
-23.603804544
 11
-4.2953259426
 21
-23.5312224251
  0
LINE
  5
4FE
100
AcDbEntity
  8
0
100
AcDbLine
 62
7
  6
CONTINUOUS
 10
-4.2953259426
 20
-23.5312224251
 11
-4.2571810682
 21
-23.4908886403
  0
LINE
  5
4FF
100
AcDbEntity
  8
0
100
AcDbLine
 62
7
  6
CONTINUOUS
 10
-4.2571810682
 20
-23.4908886403
 11
-4.0900699229
 21
-23.3150270388
  0
LINE
  5
500
100
AcDbEntity
  8
0
100
AcDbLine
 62
7
  6
CONTINUOUS
 10
-4.5433765661
 20
-23.8150185773
 11
-4.587027213
 21
-23.8586692241
  0
LWPOLYLINE
  5
501
100
AcDbEntity
  8
RACCORDO
100
AcDbPolyline
 62
7
  6
CONTINUOUS
 90
14
 70
0
 10
7.0643712662
 20
-11.7980779658
 10
7.0916569827
 20
-11.7891909125
 10
7.1718709573
 20
-11.7768026475
 10
7.2540746168
 20
-11.7768026475
 10
7.3342885914
 20
-11.7891909125
 10
7.4130531204
 20
-11.8148447951
 10
7.4898279645
 20
-11.8528869427
 10
7.5590130357
 20
-11.9006852974
 10
7.6196774248
 20
-11.9583194129
 10
7.672752041
 20
-12.0257097356
 10
7.7154295238
 20
-12.0999855474
 10
7.7467740864
 20
-12.180189942
 10
7.7677215155
 20
-12.2672798256
 10
7.7782718113
 20
-12.3612551983
  0
LINE
  5
502
100
AcDbEntity
  8
IMPORT_IGES
100
AcDbLine
 62
7
  6
CONTINUOUS
 10
-5.6608446156
 20
13.1151481785
 11
-4.9132098104
 21
13.1151481785
  0
LINE
  5
503
100
AcDbEntity
  8
IMPORT_IGES
100
AcDbLine
 62
7
  6
CONTINUOUS
 10
0.6391553844
 20
13.1151481785
 11
1.3867901896
 21
13.1151481785
  0
LINE
  5
504
100
AcDbEntity
  8
IMPORT_IGES
100
AcDbLine
 62
253
  6
CONTINUOUS
 10
-5.6627119752
 20
13.1170155381
 11
-4.9113424507
 21
13.1170155381
  0
LINE
  5
505
100
AcDbEntity
  8
IMPORT_IGES
100
AcDbLine
 62
253
  6
CONTINUOUS
 10
0.6372880248
 20
13.1170155381
 11
1.3886575493
 21
13.1170155381
  0
LINE
  5
506
100
AcDbEntity
  8
IMPORT_IGES
100
AcDbLine
 62
253
  6
CONTINUOUS
 10
1.3955177221
 20
13.5169546162
 11
0.6304278519
 21
13.5169546162
  0
LINE
  5
507
100
AcDbEntity
  8
IMPORT_IGES
100
AcDbLine
 62
253
  6
CONTINUOUS
 10
-4.9044822779
 20
13.5169546162
 11
-5.6695721481
 21
13.5169546162
  0
LINE
  5
508
100
AcDbEntity
  8
IMPORT_IGES
100
AcDbLine
 62
253
  6
CONTINUOUS
 10
-5.6695721481
 20
13.7657069356
 11
-4.9044822779
 21
13.7657069356
  0
LINE
  5
509
100
AcDbEntity
  8
IMPORT_IGES
100
AcDbLine
 62
253
  6
CONTINUOUS
 10
0.6304278519
 20
13.7657069356
 11
1.3955177221
 21
13.7657069356
  0
LINE
  5
50A
100
AcDbEntity
  8
IMPORT_IGES
100
AcDbLine
 62
253
  6
CONTINUOUS
 10
-4.909064202
 20
14.1413307759
 11
-4.6413528972
 21
14.1413307759
  0
LINE
  5
50B
100
AcDbEntity
  8
IMPORT_IGES
100
AcDbLine
 62
253
  6
CONTINUOUS
 10
0.3672984712
 20
14.1413307759
 11
0.6350097761
 21
14.1413307788
  0
LINE
  5
50C
100
AcDbEntity
  8
IMPORT_IGES
100
AcDbLine
 62
253
  6
CONTINUOUS
 10
1.3909357982
 20
14.1413307733
 11
1.6586471028
 21
14.1413307759
  0
LINE
  5
50D
100
AcDbEntity
  8
IMPORT_IGES
100
AcDbLine
 62
253
  6
CONTINUOUS
 10
-5.9327015288
 20
14.1413307759
 11
-5.6649902239
 21
14.1413307788
  0
LINE
  5
50E
100
AcDbEntity
  8
IMPORT_IGES
100
AcDbLine
 62
253
  6
CONTINUOUS
 10
1.3885276441
 20
14.1656460136
 11
0.6370940792
 21
14.1656460136
  0
LINE
  5
50F
100
AcDbEntity
  8
IMPORT_IGES
100
AcDbLine
 62
253
  6
CONTINUOUS
 10
-4.911148505
 20
14.1656460136
 11
-5.6625820698
 21
14.1656460136
  0
LINE
  5
510
100
AcDbEntity
  8
IMPORT_IGES
100
AcDbLine
 62
7
  6
CONTINUOUS
 10
1.3866394407
 20
14.1675133733
 11
0.6389307786
 21
14.1675133733
  0
LINE
  5
511
100
AcDbEntity
  8
IMPORT_IGES
100
AcDbLine
 62
7
  6
CONTINUOUS
 10
-4.9129852045
 20
14.1675133733
 11
-5.6606938667
 21
14.1675133733
  0
LINE
  5
512
100
AcDbEntity
  8
0
100
AcDbLine
 62
7
  6
CONTINUOUS
 10
-4.5433765661
 20
24.097680129
 11
-4.587027213
 21
24.1413307759
  0
LINE
  5
513
100
AcDbEntity
  8
0
100
AcDbLine
 62
7
  6
CONTINUOUS
 10
-4.0900699229
 20
23.5976885906
 11
-4.3135927617
 21
23.8332737935
  0
LINE
  5
514
100
AcDbEntity
  8
0
100
AcDbLine
 62
7
  6
CONTINUOUS
 10
-4.3135927617
 20
23.8332737935
 11
-4.378768166
 21
23.9028186416
  0
LINE
  5
515
100
AcDbEntity
  8
0
100
AcDbLine
 62
7
  6
CONTINUOUS
 10
-4.378768166
 20
23.9028186416
 11
-4.4197793136
 21
23.9470817701
  0
LWPOLYLINE
  5
516
100
AcDbEntity
  8
0
100
AcDbPolyline
 62
7
  6
CONTINUOUS
 90
3
 70
0
 10
-4.4197793136
 20
23.9470817701
 10
-4.4435002405
 20
23.9729722
 10
-4.4542902065
 20
23.9848585043
  0
LWPOLYLINE
  5
517
100
AcDbEntity
  8
IMPORT_IGES
100
AcDbPolyline
 62
253
  6
CONTINUOUS
 90
10
 70
0
 10
-2.1370252248
 20
15.4603938194
 10
-2.2194724674
 20
15.4594889765
 10
-2.3012568513
 20
15.456800287
 10
-2.382472134
 20
15.4524201352
 10
-2.4633589215
 20
15.4464099979
 10
-2.5438787568
 20
15.4388510452
 10
-2.6237167807
 20
15.429902971
 10
-2.7028456857
 20
15.4196977675
 10
-2.7815164521
 20
15.4082715392
 10
-2.859829377
 20
15.3956564601
  0
LINE
  5
518
100
AcDbEntity
  8
IMPORT_IGES
100
AcDbLine
 62
7
  6
CONTINUOUS
 10
0.4547621167
 20
14.8663307759
 11
1.262972787
 21
14.8663307759
  0
LINE
  5
519
100
AcDbEntity
  8
IMPORT_IGES
100
AcDbLine
 62
253
  6
CONTINUOUS
 10
-3.387027213
 20
15.3956564601
 11
-2.859829377
 21
15.3956564601
  0
LINE
  5
51A
100
AcDbEntity
  8
IMPORT_IGES
100
AcDbLine
 62
253
  6
CONTINUOUS
 10
-1.414225049
 20
15.3956564601
 11
-0.887027213
 21
15.3956564601
  0
LINE
  5
51B
100
AcDbEntity
  8
IMPORT_IGES
100
AcDbLine
 62
253
  6
CONTINUOUS
 10
-0.887027213
 20
15.6456183839
 11
-3.387027213
 21
15.6456183839
  0
LINE
  5
51C
100
AcDbEntity
  8
IMPORT_IGES
100
AcDbLine
 62
7
  6
CONTINUOUS
 10
-1.7626510533
 20
15.6587858408
 11
-2.5114033727
 21
15.6587858408
  0
LINE
  5
51D
100
AcDbEntity
  8
IMPORT_IGES
100
AcDbLine
 62
7
  6
CONTINUOUS
 10
-0.887027213
 20
15.6675133733
 11
-1.3608446156
 21
15.6675133733
  0
LINE
  5
51E
100
AcDbEntity
  8
IMPORT_IGES
100
AcDbLine
 62
7
  6
CONTINUOUS
 10
-2.9132098104
 20
15.6675133733
 11
-3.387027213
 21
15.6675133733
  0
LINE
  5
51F
100
AcDbEntity
  8
IMPORT_IGES
100
AcDbLine
 62
7
  6
CONTINUOUS
 10
-3.387027213
 20
16.4151481785
 11
-2.9132098104
 21
16.4151481785
  0
LINE
  5
520
100
AcDbEntity
  8
IMPORT_IGES
100
AcDbLine
 62
7
  6
CONTINUOUS
 10
-1.3608446156
 20
16.4151481785
 11
-0.887027213
 21
16.4151481785
  0
LINE
  5
521
100
AcDbEntity
  8
IMPORT_IGES
100
AcDbLine
 62
7
  6
CONTINUOUS
 10
-2.5114033727
 20
16.4238757109
 11
-1.7626510533
 21
16.4238757109
  0
LINE
  5
522
100
AcDbEntity
  8
IMPORT_IGES
100
AcDbLine
 62
253
  6
CONTINUOUS
 10
-3.387027213
 20
16.4370431679
 11
-0.887027213
 21
16.4370431679
  0
LINE
  5
523
100
AcDbEntity
  8
IMPORT_IGES
100
AcDbLine
 62
7
  6
CONTINUOUS
 10
6.9699997544
 20
16.3764683106
 11
6.924972787
 21
16.3772551341
  0
LWPOLYLINE
  5
524
100
AcDbEntity
  8
IMPORT_IGES
100
AcDbPolyline
 62
253
  6
CONTINUOUS
 90
10
 70
0
 10
-1.414225049
 20
15.3956564601
 10
-1.4925416651
 20
15.4082846
 10
-1.5712178934
 20
15.4197197478
 10
-1.6503535758
 20
15.4299295973
 10
-1.7302016908
 20
15.4388771828
 10
-1.8107318332
 20
15.4464311162
 10
-1.8916214581
 20
15.4524347792
 10
-1.9728297377
 20
15.4568090706
 10
-2.0545997245
 20
15.4594925567
 10
-2.1370252248
 20
15.4603938194
  0
LINE
  5
525
100
AcDbEntity
  8
0
100
AcDbLine
 62
7
  6
CONTINUOUS
 10
2.862972787
 20
-21.5586692241
 11
2.9392172515
 21
-21.4824247596
  0
LINE
  5
526
100
AcDbEntity
  8
IMPORT_IGES
100
AcDbLine
 62
253
  6
CONTINUOUS
 10
-0.887027213
 20
16.6870050917
 11
-3.387027213
 21
16.6870050917
  0
LINE
  5
527
100
AcDbEntity
  8
IMPORT_IGES
100
AcDbLine
 62
253
  6
CONTINUOUS
 10
6.9159406217
 20
17.9444509154
 11
-9.1899950476
 21
17.9444509154
  0
LINE
  5
528
100
AcDbEntity
  8
0
100
AcDbLine
 62
7
  6
CONTINUOUS
 10
2.862972787
 20
21.8413307759
 11
2.9392172515
 21
21.7650863114
  0
LWPOLYLINE
  5
529
100
AcDbEntity
  8
0
100
AcDbPolyline
 62
7
  6
CONTINUOUS
 90
11
 70
0
 10
9.9851825558
 20
-24.2232284117
 10
9.9903815592
 20
-24.2125256704
 10
9.9950654128
 20
-24.2015876734
 10
9.9992235084
 20
-24.1904391979
 10
10.0028464287
 20
-24.1791055031
 10
10.0059259687
 20
-24.1676122629
 10
10.0084551547
 20
-24.1559855116
 10
10.0104282612
 20
-24.1442515903
 10
10.0118408213
 20
-24.1324370797
 10
10.0126896368
 20
-24.1205687401
 10
10.012972787
 20
-24.1086734549
  0
LINE
  5
52A
100
AcDbEntity
  8
0
100
AcDbLine
 62
7
  6
CONTINUOUS
 10
3.4220595095
 20
-23.7354303696
 11
3.4400740488
 21
-23.7152109626
  0
LINE
  5
52B
100
AcDbEntity
  8
0
100
AcDbLine
 62
7
  6
CONTINUOUS
 10
3.4400740488
 20
-23.7152109626
 11
3.4608983902
 21
-23.6921629875
  0
LINE
  5
52C
100
AcDbEntity
  8
0
100
AcDbLine
 62
7
  6
CONTINUOUS
 10
3.4608983902
 20
-23.6921629875
 11
3.484611083
 21
-23.6662620716
  0
LINE
  5
52D
100
AcDbEntity
  8
0
100
AcDbLine
 62
7
  6
CONTINUOUS
 10
3.484611083
 20
-23.6662620716
 11
3.5257080441
 21
-23.6218847301
  0
LINE
  5
52E
100
AcDbEntity
  8
0
100
AcDbLine
 62
7
  6
CONTINUOUS
 10
3.5257080441
 20
-23.6218847301
 11
3.5911864452
 21
-23.5519989295
  0
LINE
  5
52F
100
AcDbEntity
  8
0
100
AcDbLine
 62
7
  6
CONTINUOUS
 10
3.5911864452
 20
-23.5519989295
 11
3.7300468915
 21
-23.4053613812
  0
LINE
  5
530
100
AcDbEntity
  8
0
100
AcDbLine
 62
7
  6
CONTINUOUS
 10
3.7300468915
 20
-23.4053613812
 11
3.8160154969
 21
-23.3150270388
  0
LINE
  5
531
100
AcDbEntity
  8
0
100
AcDbLine
 62
7
  6
CONTINUOUS
 10
0.862972787
 20
-22.2586692241
 11
0.8716996548
 21
-22.2534331885
  0
LINE
  5
532
100
AcDbEntity
  8
IMPORT_IGES
100
AcDbLine
 62
253
  6
CONTINUOUS
 10
5.9160929265
 20
18.9442986105
 11
-8.1901473525
 21
18.9442986105
  0
LINE
  5
533
100
AcDbEntity
  8
IMPORT_IGES
100
AcDbLine
 62
7
  6
CONTINUOUS
 10
5.9251250919
 20
18.9533307759
 11
-8.1991795178
 21
18.9533307759
  0
LINE
  5
534
100
AcDbEntity
  8
IMPORT_IGES
100
AcDbLine
 62
7
  6
CONTINUOUS
 10
5.9271400268
 20
18.9554980156
 11
-8.2012325304
 21
18.9554980163
  0
LINE
  5
535
100
AcDbEntity
  8
RACCORDO
100
AcDbLine
 62
253
  6
CONTINUOUS
 10
6.6528483655
 20
19.3050187279
 11
-6.9269027915
 21
19.3050187279
  0
LINE
  5
536
100
AcDbEntity
  8
RACCORDO
100
AcDbLine
 62
253
  6
CONTINUOUS
 10
9.3942281727
 20
19.9529687214
 11
7.7723405725
 21
19.9529687214
  0
LINE
  5
537
100
AcDbEntity
  8
RACCORDO
100
AcDbLine
 62
253
  6
CONTINUOUS
 10
-8.0463949985
 20
19.9529687214
 11
-9.6682825986
 21
19.9529687214
  0
LINE
  5
538
100
AcDbEntity
  8
RACCORDO
100
AcDbLine
 62
7
  6
CONTINUOUS
 10
6.6605684295
 20
20.0889264183
 11
-6.9346228555
 21
20.0889264183
  0
LINE
  5
539
100
AcDbEntity
  8
0
100
AcDbLine
 62
7
  6
CONTINUOUS
 10
0.8716996548
 20
22.5360947403
 11
0.862972787
 21
22.5413307759
  0
LINE
  5
53A
100
AcDbEntity
  8
0
100
AcDbLine
 62
7
  6
CONTINUOUS
 10
3.8160154969
 20
23.5976885906
 11
3.5910632109
 21
23.8347916461
  0
LINE
  5
53B
100
AcDbEntity
  8
0
100
AcDbLine
 62
7
  6
CONTINUOUS
 10
3.5910632109
 20
23.8347916461
 11
3.5256446952
 21
23.9046143059
  0
LINE
  5
53C
100
AcDbEntity
  8
0
100
AcDbLine
 62
7
  6
CONTINUOUS
 10
3.5256446952
 20
23.9046143059
 11
3.4845593388
 21
23.9489798684
  0
LINE
  5
53D
100
AcDbEntity
  8
0
100
AcDbLine
 62
7
  6
CONTINUOUS
 10
3.4845593388
 20
23.9489798684
 11
3.4608407871
 21
23.9748867615
  0
LINE
  5
53E
100
AcDbEntity
  8
0
100
AcDbLine
 62
7
  6
CONTINUOUS
 10
3.4608407871
 20
23.9748867615
 11
3.4400337749
 21
23.9979188286
  0
LINE
  5
53F
100
AcDbEntity
  8
0
100
AcDbLine
 62
7
  6
CONTINUOUS
 10
3.4400337749
 20
23.9979188286
 11
3.4220595095
 21
24.0180919214
  0
LINE
  5
540
100
AcDbEntity
  8
0
100
AcDbLine
 62
7
  6
CONTINUOUS
 10
9.512972787
 20
-20.0577088743
 11
8.8128664494
 21
-20.7586692241
  0
LINE
  5
541
100
AcDbEntity
  8
DRAFT
100
AcDbLine
 62
7
  6
CONTINUOUS
 10
7.6172962919
 20
-20.8543457192
 11
7.712972787
 21
-20.7586692241
  0
LINE
  5
542
100
AcDbEntity
  8
0
100
AcDbLine
 62
7
  6
CONTINUOUS
 10
7.1187906168
 20
-22.2528513943
 11
8.112972787
 21
-21.2586692241
  0
LINE
  5
543
100
AcDbEntity
  8
0
100
AcDbLine
 62
7
  6
CONTINUOUS
 10
2.862972787
 20
-22.2528513943
 11
2.9502922355
 21
-22.1946392496
  0
LINE
  5
544
100
AcDbEntity
  8
0
100
AcDbLine
 62
253
  6
CONTINUOUS
 10
0.8716996548
 20
-23.6528581635
 11
0.862972787
 21
-23.6586759933
  0
LINE
  5
545
100
AcDbEntity
  8
0
100
AcDbLine
 62
7
  6
CONTINUOUS
 10
3.362972787
 20
-22.2528513943
 11
3.4220595095
 21
-22.2134608015
  0
LINE
  5
546
100
AcDbEntity
  8
0
100
AcDbLine
 62
253
  6
CONTINUOUS
 10
1.0716971164
 20
-23.8528513943
 11
1.0629702486
 21
-23.8586692241
  0
LWPOLYLINE
  5
547
100
AcDbEntity
  8
DRAFT
100
AcDbPolyline
 62
7
  6
CONTINUOUS
 90
4
 70
0
 10
-8.1615930559
 20
21.134714992
 10
-8.1834509313
 20
21.134186506
 10
-8.197452151
 20
21.1336278554
 10
-8.2035967148
 20
21.1330390401
  0
LINE
  5
548
100
AcDbEntity
  8
DRAFT
100
AcDbLine
 62
7
  6
CONTINUOUS
 10
-8.0923892125
 20
21.1356996314
 11
-8.1615930559
 21
21.134714992
  0
LWPOLYLINE
  5
549
100
AcDbEntity
  8
DRAFT
100
AcDbPolyline
 62
7
  6
CONTINUOUS
 90
3
 70
0
 10
-7.8913507179
 20
21.137007271
 10
-7.9488397785
 20
21.1367687415
 10
-8.0923892125
 20
21.1356996314
  0
LINE
  5
54A
100
AcDbEntity
  8
DRAFT
100
AcDbLine
 62
7
  6
CONTINUOUS
 10
-7.0830227587
 20
20.2373263216
 11
6.8089683327
 21
20.2373263216
  0
LINE
  5
54B
100
AcDbEntity
  8
RACCORDO
100
AcDbLine
 62
253
  6
CONTINUOUS
 10
8.7088626115
 20
20.7290655277
 11
7.7649707456
 21
20.7290655277
  0
LINE
  5
54C
100
AcDbEntity
  8
RACCORDO
100
AcDbLine
 62
253
  6
CONTINUOUS
 10
-8.0390251716
 20
20.7290655277
 11
-8.9829170375
 21
20.7290655277
  0
LINE
  5
54D
100
AcDbEntity
  8
0
100
AcDbLine
 62
7
  6
CONTINUOUS
 10
2.9589683327
 20
20.9413307759
 11
-3.2330227587
 21
20.9413307759
  0
LINE
  5
54E
100
AcDbEntity
  8
0
100
AcDbLine
 62
7
  6
CONTINUOUS
 10
-9.0869208754
 20
21.0413307759
 11
-8.387027213
 21
21.0413307759
  0
LINE
  5
54F
100
AcDbEntity
  8
DRAFT
100
AcDbLine
 62
7
  6
CONTINUOUS
 10
8.112972787
 20
21.0413307759
 11
7.712972787
 21
21.0413307759
  0
LINE
  5
550
100
AcDbEntity
  8
0
100
AcDbLine
 62
7
  6
CONTINUOUS
 10
8.112972787
 20
21.0413307759
 11
8.8128664494
 21
21.0413307759
  0
LINE
  5
551
100
AcDbEntity
  8
DRAFT
100
AcDbLine
 62
7
  6
CONTINUOUS
 10
-7.987027213
 20
21.0413307759
 11
-8.387027213
 21
21.0413307759
  0
LINE
  5
552
100
AcDbEntity
  8
DRAFT
100
AcDbLine
 62
7
  6
CONTINUOUS
 10
7.4296184412
 20
21.1413307759
 11
7.6169772413
 21
21.1413307759
  0
LINE
  5
553
100
AcDbEntity
  8
DRAFT
100
AcDbLine
 62
7
  6
CONTINUOUS
 10
-7.7036728672
 20
21.1413307759
 11
-7.8910316673
 21
21.1413307759
  0
LINE
  5
554
100
AcDbEntity
  8
0
100
AcDbLine
 62
7
  6
CONTINUOUS
 10
-11.3044822779
 20
21.1639805067
 11
-11.2783003452
 21
21.1639805067
  0
LINE
  5
555
100
AcDbEntity
  8
0
100
AcDbLine
 62
7
  6
CONTINUOUS
 10
11.0304278519
 20
21.1639805067
 11
11.0042459192
 21
21.1639805067
  0
LINE
  5
556
100
AcDbEntity
  8
0
100
AcDbLine
 62
253
  6
CONTINUOUS
 10
7.4296184412
 20
21.4773177245
 11
2.9589683327
 21
21.4773177245
  0
LINE
  5
557
100
AcDbEntity
  8
0
100
AcDbLine
 62
253
  6
CONTINUOUS
 10
-3.2330227587
 20
21.4773177245
 11
-7.7036728672
 21
21.4773177245
  0
LINE
  5
558
100
AcDbEntity
  8
0
100
AcDbLine
 62
7
  6
CONTINUOUS
 10
-3.2132716775
 20
21.7650863114
 11
2.9392172515
 21
21.7650863114
  0
LINE
  5
559
100
AcDbEntity
  8
0
100
AcDbLine
 62
7
  6
CONTINUOUS
 10
-3.137027213
 20
21.8413307759
 11
2.862972787
 21
21.8413307759
  0
LINE
  5
55A
100
AcDbEntity
  8
0
100
AcDbLine
 62
7
  6
CONTINUOUS
 10
2.862972787
 20
22.5355129461
 11
2.9502922355
 21
22.4773008014
  0
LINE
  5
55B
100
AcDbEntity
  8
0
100
AcDbLine
 62
253
  6
CONTINUOUS
 10
0.862972787
 20
23.9413375451
 11
0.8716996548
 21
23.9355197153
  0
LINE
  5
55C
100
AcDbEntity
  8
0
100
AcDbLine
 62
7
  6
CONTINUOUS
 10
3.362972787
 20
22.5355129461
 11
3.4220595095
 21
22.4961223533
  0
LINE
  5
55D
100
AcDbEntity
  8
0
100
AcDbLine
 62
253
  6
CONTINUOUS
 10
1.0629702486
 20
24.1413307759
 11
1.0716971164
 21
24.1355129461
  0
LINE
  5
55E
100
AcDbEntity
  8
DRAFT
100
AcDbLine
 62
7
  6
CONTINUOUS
 10
7.6172962919
 20
21.137007271
 11
7.712972787
 21
21.0413307759
  0
LINE
  5
55F
100
AcDbEntity
  8
0
100
AcDbLine
 62
7
  6
CONTINUOUS
 10
7.1187906168
 20
22.5355129461
 11
8.112972787
 21
21.5413307759
  0
LINE
  5
560
100
AcDbEntity
  8
0
100
AcDbLine
 62
7
  6
CONTINUOUS
 10
9.512972787
 20
20.3403704261
 11
8.8128664494
 21
21.0413307759
  0
LWPOLYLINE
  5
561
100
AcDbEntity
  8
0
100
AcDbPolyline
 62
7
  6
CONTINUOUS
 90
24
 70
0
 10
9.9851825558
 20
24.5058899635
 10
9.9794801787
 20
24.5163332041
 10
9.9732873451
 20
24.5264932818
 10
9.9666180825
 20
24.536347181
 10
9.9594874977
 20
24.5458725797
 10
9.9519117459
 20
24.5550478949
 10
9.9439079875
 20
24.563852342
 10
9.9354943531
 20
24.5722659764
 10
9.9266899061
 20
24.5802697347
 10
9.9175145909
 20
24.5878454866
 10
9.9079891921
 20
24.5949760714
 10
9.8981352929
 20
24.601645334
 10
9.8879752153
 20
24.6078381675
 10
9.8775319746
 20
24.6135405447
 10
9.8668292333
 20
24.6187395481
 10
9.8558912363
 20
24.6234234017
 10
9.8447427608
 20
24.6275814972
 10
9.833409066
 20
24.6312044176
 10
9.8219158258
 20
24.6342839576
 10
9.8102890745
 20
24.6368131436
 10
9.7985551532
 20
24.63878625
 10
9.7867406426
 20
24.6401988101
 10
9.774872303
 20
24.6410476256
 10
9.7629770178
 20
24.6413307759
  0
LINE
  5
562
100
AcDbEntity
  8
0
100
AcDbLine
 62
7
  6
CONTINUOUS
 10
3.362972787
 20
-23.8528513943
 11
3.4197228129
 21
-23.8150185773
  0
LINE
  5
563
100
AcDbEntity
  8
0
100
AcDbLine
 62
7
  6
CONTINUOUS
 10
7.9295422888
 20
-20.8503774883
 11
8.112972787
 21
-20.7586692241
  0
LINE
  5
564
100
AcDbEntity
  8
0
100
AcDbLine
 62
7
  6
CONTINUOUS
 10
7.9295422888
 20
-21.3124046513
 11
8.112972787
 21
-21.2586692241
  0
LWPOLYLINE
  5
565
100
AcDbEntity
  8
0
100
AcDbPolyline
 62
7
  6
CONTINUOUS
 90
7
 70
0
 10
7.3404603124
 20
24.6355087294
 10
7.3318060006
 20
24.6344194245
 10
7.320074506
 20
24.6324484785
 10
7.3084450707
 20
24.6299204886
 10
7.2969491051
 20
24.6268419099
 10
7.28561434
 20
24.6232203002
 10
7.274464728
 20
24.6190634458
  0
LWPOLYLINE
  5
566
100
AcDbEntity
  8
0
100
AcDbPolyline
 62
7
  6
CONTINUOUS
 90
40
 70
0
 10
-10.7874078127
 20
22.5413307759
 10
-10.8074031122
 20
22.540917402
 10
-10.8273929566
 20
22.5397024831
 10
-10.8473450802
 20
22.5376847437
 10
-10.8672343897
 20
22.5348630729
 10
-10.8870209239
 20
22.5312393612
 10
-10.9066504422
 20
22.5268214378
 10
-10.9260798571
 20
22.521619111
 10
-10.9452889725
 20
22.5156379345
 10
-10.9642583138
 20
22.5088824519
 10
-10.9829698456
 20
22.5013559011
 10
-11.0013784822
 20
22.4930732009
 10
-11.0194257272
 20
22.4840603289
 10
-11.0370663929
 20
22.4743429756
 10
-11.0542899212
 20
22.4639301553
 10
-11.0710907684
 20
22.4528252227
 10
-11.087455283
 20
22.4410340739
 10
-11.1033406976
 20
22.4285843081
 10
-11.1186992232
 20
22.4155135257
 10
-11.1334927927
 20
22.401858139
 10
-11.1477140527
 20
22.38762908
 10
-11.1613621661
 20
22.3728270334
 10
-11.1744265575
 20
22.3574587863
 10
-11.1868702996
 20
22.3415628364
 10
-11.1986545219
 20
22.3251884657
 10
-11.2097514244
 20
22.3083791366
 10
-11.2201556591
 20
22.2911479879
 10
-11.2298639271
 20
22.2735003701
 10
-11.238866954
 20
22.2554478671
 10
-11.2471397287
 20
22.237034732
 10
-11.2546573974
 20
22.2183161442
 10
-11.2614059424
 20
22.1993341337
 10
-11.2673806359
 20
22.180109432
 10
-11.2725748592
 20
22.160666916
 10
-11.2769811557
 20
22.1410399171
 10
-11.2805938024
 20
22.1212586828
 10
-11.2834087799
 20
22.1013433488
 10
-11.2854215392
 20
22.0813219705
 10
-11.2866283672
 20
22.0612307192
 10
-11.287027213
 20
22.0411019238
  0
LINE
  5
567
100
AcDbEntity
  8
0
100
AcDbLine
 62
7
  6
CONTINUOUS
 10
7.0535144132
 20
22.4773008014
 11
2.9502922355
 21
22.4773008014
  0
LINE
  5
568
100
AcDbEntity
  8
0
100
AcDbLine
 62
7
  6
CONTINUOUS
 10
-3.2243466615
 20
22.4773008014
 11
-7.3275688392
 21
22.4773008014
  0
LINE
  5
569
100
AcDbEntity
  8
0
100
AcDbLine
 62
7
  6
CONTINUOUS
 10
-10.7783066913
 20
22.5355129461
 11
-7.3928450428
 21
22.5355129461
  0
LINE
  5
56A
100
AcDbEntity
  8
0
100
AcDbLine
 62
7
  6
CONTINUOUS
 10
3.362972787
 20
22.5355129461
 11
2.862972787
 21
22.5355129461
  0
LINE
  5
56B
100
AcDbEntity
  8
0
100
AcDbLine
 62
7
  6
CONTINUOUS
 10
-3.137027213
 20
22.5355129461
 11
-3.637027213
 21
22.5355129461
  0
LINE
  5
56C
100
AcDbEntity
  8
0
100
AcDbLine
 62
7
  6
CONTINUOUS
 10
7.1187906168
 20
22.5355129461
 11
10.5042522653
 21
22.5355129461
  0
LINE
  5
56D
100
AcDbEntity
  8
0
100
AcDbLine
 62
7
  6
CONTINUOUS
 10
-1.1457540808
 20
22.5360947403
 11
0.8716996548
 21
22.5360947403
  0
LINE
  5
56E
100
AcDbEntity
  8
RACCORDO
100
AcDbLine
 62
7
  6
CONTINUOUS
 10
4.312972787
 20
22.5413307759
 11
7.0535144132
 21
22.5413307759
  0
LINE
  5
56F
100
AcDbEntity
  8
RACCORDO
100
AcDbLine
 62
7
  6
CONTINUOUS
 10
-4.587027213
 20
22.5413307759
 11
-7.3275688392
 21
22.5413307759
  0
LINE
  5
570
100
AcDbEntity
  8
0
100
AcDbLine
 62
7
  6
CONTINUOUS
 10
-10.0377502109
 20
23.2639805067
 11
-7.6363042151
 21
23.2639805067
  0
LINE
  5
571
100
AcDbEntity
  8
0
100
AcDbLine
 62
7
  6
CONTINUOUS
 10
9.7636957849
 20
23.2639805067
 11
7.3622497891
 21
23.2639805067
  0
LINE
  5
572
100
AcDbEntity
  8
0
100
AcDbLine
 62
7
  6
CONTINUOUS
 10
7.9295422888
 20
21.595066203
 11
8.112972787
 21
21.5413307759
  0
LINE
  5
573
100
AcDbEntity
  8
0
100
AcDbLine
 62
7
  6
CONTINUOUS
 10
7.9295422888
 20
21.1330390401
 11
8.112972787
 21
21.0413307759
  0
LINE
  5
574
100
AcDbEntity
  8
0
100
AcDbLine
 62
7
  6
CONTINUOUS
 10
3.362972787
 20
24.1355129461
 11
3.4197228129
 21
24.097680129
  0
LWPOLYLINE
  5
575
100
AcDbEntity
  8
0
100
AcDbPolyline
 62
7
  6
CONTINUOUS
 90
25
 70
0
 10
9.8624202471
 20
-24.3317191204
 10
9.873124782
 20
-24.3265209351
 10
9.8835700354
 20
-24.3208191466
 10
9.893732111
 20
-24.3146267842
 10
9.9035878957
 20
-24.307957947
 10
9.9131151572
 20
-24.3008276937
 10
9.9222923704
 20
-24.2932521328
 10
9.931098762
 20
-24.2852484012
 10
9.9395143483
 20
-24.2768346496
 10
9.9475200424
 20
-24.268029954
 10
9.9550976989
 20
-24.258854267
 10
9.96223015
 20
-24.2493283728
 10
9.9689012301
 20
-24.2394738567
 10
9.9750958224
 20
-24.2293130445
 10
9.9807998876
 20
-24.2188689593
 10
9.9860004952
 20
-24.2081652729
 10
9.9906858596
 20
-24.1972262394
 10
9.9948453638
 20
-24.186076643
 10
9.998469581
 20
-24.1747417505
 10
10.0015502996
 20
-24.1632472395
 10
10.0040805366
 20
-24.1516191601
 10
10.0060545552
 20
-24.1398838804
 10
10.007467884
 20
-24.1280679981
 10
10.0083173241
 20
-24.1161982799
 10
10.008600953
 20
-24.1043016209
  0
LINE
  5
576
100
AcDbEntity
  8
0
100
AcDbLine
 62
7
  6
CONTINUOUS
 10
9.851480846
 20
-24.3364018941
 11
9.8624202471
 21
-24.3317191204
  0
LWPOLYLINE
  5
577
100
AcDbEntity
  8
0
100
AcDbPolyline
 62
7
  6
CONTINUOUS
 90
7
 70
0
 10
-10.0595396876
 20
24.6355087294
 10
-10.0681939994
 20
24.6344194245
 10
-10.079925494
 20
24.6324484785
 10
-10.0915549293
 20
24.6299204886
 10
-10.1030508949
 20
24.6268419099
 10
-10.11438566
 20
24.6232203002
 10
-10.125535272
 20
24.6190634458
  0
LWPOLYLINE
  5
578
100
AcDbEntity
  8
0
100
AcDbPolyline
 62
253
  6
CONTINUOUS
 90
4
 70
0
 10
7.3673403902
 20
24.6369589419
 10
7.3554649187
 20
24.6366763222
 10
7.3436111761
 20
24.6358294204
 10
7.3404603124
 20
24.6355087294
  0
LWPOLYLINE
  5
579
100
AcDbEntity
  8
0
100
AcDbPolyline
 62
7
  6
CONTINUOUS
 90
24
 70
0
 10
7.3629685562
 20
24.6413307759
 10
7.351073271
 20
24.6410476256
 10
7.3392049314
 20
24.6401988101
 10
7.3273904209
 20
24.63878625
 10
7.3156564995
 20
24.6368131436
 10
7.3040297482
 20
24.6342839576
 10
7.292536508
 20
24.6312044176
 10
7.2812028132
 20
24.6275814972
 10
7.2700543377
 20
24.6234234017
 10
7.2591163407
 20
24.6187395481
 10
7.2484135994
 20
24.6135405447
 10
7.2379703587
 20
24.6078381675
 10
7.2278102811
 20
24.601645334
 10
7.2179563819
 20
24.5949760714
 10
7.2084309832
 20
24.5878454866
 10
7.199255668
 20
24.5802697347
 10
7.1904512209
 20
24.5722659764
 10
7.1820375865
 20
24.563852342
 10
7.1740338281
 20
24.5550478949
 10
7.1664580763
 20
24.5458725797
 10
7.1593274915
 20
24.536347181
 10
7.1526582289
 20
24.5264932818
 10
7.1464653954
 20
24.5163332041
 10
7.1407630182
 20
24.5058899635
  0
LWPOLYLINE
  5
57A
100
AcDbEntity
  8
0
100
AcDbPolyline
 62
253
  6
CONTINUOUS
 90
4
 70
0
 10
-10.0326596098
 20
24.6369589419
 10
-10.0445350813
 20
24.6366763222
 10
-10.0563888239
 20
24.6358294204
 10
-10.0595396876
 20
24.6355087294
  0
LWPOLYLINE
  5
57B
100
AcDbEntity
  8
0
100
AcDbPolyline
 62
7
  6
CONTINUOUS
 90
24
 70
0
 10
-10.0370314438
 20
24.6413307759
 10
-10.048926729
 20
24.6410476256
 10
-10.0607950686
 20
24.6401988101
 10
-10.0726095791
 20
24.63878625
 10
-10.0843435005
 20
24.6368131436
 10
-10.0959702518
 20
24.6342839576
 10
-10.107463492
 20
24.6312044176
 10
-10.1187971868
 20
24.6275814972
 10
-10.1299456623
 20
24.6234234017
 10
-10.1408836593
 20
24.6187395481
 10
-10.1515864006
 20
24.6135405447
 10
-10.1620296413
 20
24.6078381675
 10
-10.1721897189
 20
24.601645334
 10
-10.1820436181
 20
24.5949760714
 10
-10.1915690168
 20
24.5878454866
 10
-10.200744332
 20
24.5802697347
 10
-10.2095487791
 20
24.5722659764
 10
-10.2179624135
 20
24.563852342
 10
-10.2259661719
 20
24.5550478949
 10
-10.2335419237
 20
24.5458725797
 10
-10.2406725085
 20
24.536347181
 10
-10.2473417711
 20
24.5264932818
 10
-10.2535346046
 20
24.5163332041
 10
-10.2592369818
 20
24.5058899635
  0
LINE
  5
57C
100
AcDbEntity
  8
0
100
AcDbLine
 62
253
  6
CONTINUOUS
 10
-10.0326596098
 20
23.7691619922
 11
-7.6413948162
 21
23.7691619922
  0
LINE
  5
57D
100
AcDbEntity
  8
0
100
AcDbLine
 62
253
  6
CONTINUOUS
 10
7.3673403902
 20
23.7691619922
 11
9.7586051838
 21
23.7691619922
  0
LINE
  5
57E
100
AcDbEntity
  8
0
100
AcDbLine
 62
253
  6
CONTINUOUS
 10
7.117344621
 20
23.9856683432
 11
10.008600953
 21
23.9856683432
  0
LINE
  5
57F
100
AcDbEntity
  8
0
100
AcDbLine
 62
253
  6
CONTINUOUS
 10
-7.391399047
 20
23.9856683432
 11
-10.282655379
 21
23.9856683432
  0
LINE
  5
580
100
AcDbEntity
  8
0
100
AcDbLine
 62
7
  6
CONTINUOUS
 10
-4.5433765661
 20
24.097680129
 11
-3.6937772389
 21
24.097680129
  0
LINE
  5
581
100
AcDbEntity
  8
0
100
AcDbLine
 62
7
  6
CONTINUOUS
 10
3.4197228129
 20
24.097680129
 11
4.2693221401
 21
24.097680129
  0
LINE
  5
582
100
AcDbEntity
  8
0
100
AcDbLine
 62
7
  6
CONTINUOUS
 10
-3.637027213
 20
24.1355129461
 11
-1.3457515423
 21
24.1355129461
  0
LINE
  5
583
100
AcDbEntity
  8
0
100
AcDbLine
 62
7
  6
CONTINUOUS
 10
1.0716971164
 20
24.1355129461
 11
3.362972787
 21
24.1355129461
  0
LINE
  5
584
100
AcDbEntity
  8
0
100
AcDbLine
 62
7
  6
CONTINUOUS
 10
4.312972787
 20
24.1413307759
 11
3.4197228129
 21
24.1413307759
  0
LINE
  5
585
100
AcDbEntity
  8
0
100
AcDbLine
 62
7
  6
CONTINUOUS
 10
-3.6937772389
 20
24.1413307759
 11
-4.587027213
 21
24.1413307759
  0
LINE
  5
586
100
AcDbEntity
  8
0
100
AcDbLine
 62
253
  6
CONTINUOUS
 10
7.117344621
 20
24.3869631727
 11
10.008600953
 21
24.3869631727
  0
LINE
  5
587
100
AcDbEntity
  8
0
100
AcDbLine
 62
253
  6
CONTINUOUS
 10
-7.391399047
 20
24.3869631727
 11
-10.282655379
 21
24.3869631727
  0
LINE
  5
588
100
AcDbEntity
  8
0
100
AcDbLine
 62
7
  6
CONTINUOUS
 10
9.7586051838
 20
24.6369589419
 11
7.3673403902
 21
24.6369589419
  0
LINE
  5
589
100
AcDbEntity
  8
0
100
AcDbLine
 62
7
  6
CONTINUOUS
 10
-7.6413948162
 20
24.6369589419
 11
-10.0326596098
 21
24.6369589419
  0
LWPOLYLINE
  5
58A
100
AcDbEntity
  8
0
100
AcDbPolyline
 62
253
  6
CONTINUOUS
 90
4
 70
0
 10
9.7854852617
 20
24.6355087294
 10
9.7823343979
 20
24.6358294204
 10
9.7704806554
 20
24.6366763222
 10
9.7586051838
 20
24.6369589419
  0
ARC
  5
58B
100
AcDbEntity
  8
0
100
AcDbCircle
 62
7
  6
CONTINUOUS
 10
-4.137027213
 20
-23.0086692241
 40
0.5
100
AcDbArc
 50
144.3637748935
 51
215.6362251065
  0
ARC
  5
58C
100
AcDbEntity
  8
IMPORT_IGES
100
AcDbCircle
 62
253
  6
CONTINUOUS
 10
-0.887027213
 20
14.1413307759
 40
2.5456743158
100
AcDbArc
 50
0.0
 51
90.0
  0
ARC
  5
58D
100
AcDbEntity
  8
IMPORT_IGES
100
AcDbCircle
 62
253
  6
CONTINUOUS
 10
-3.387027213
 20
14.1413307759
 40
2.5456743158
100
AcDbArc
 50
90.0
 51
180.0
  0
ARC
  5
58E
100
AcDbEntity
  8
IMPORT_IGES
100
AcDbCircle
 62
253
  6
CONTINUOUS
 10
-3.387027213
 20
14.1413307759
 40
2.295712392
100
AcDbArc
 50
90.0
 51
180.0
  0
ARC
  5
58F
100
AcDbEntity
  8
IMPORT_IGES
100
AcDbCircle
 62
253
  6
CONTINUOUS
 10
-0.887027213
 20
14.1413307759
 40
2.295712392
100
AcDbArc
 50
0.0
 51
90.0
  0
ARC
  5
590
100
AcDbEntity
  8
IMPORT_IGES
100
AcDbCircle
 62
7
  6
CONTINUOUS
 10
-0.887027213
 20
14.1413307759
 40
2.2738174026
100
AcDbArc
 50
0.6597651503
 51
90.0
  0
ARC
  5
591
100
AcDbEntity
  8
IMPORT_IGES
100
AcDbCircle
 62
7
  6
CONTINUOUS
 10
-3.387027213
 20
14.1413307759
 40
2.2738174026
100
AcDbArc
 50
90.0
 51
179.3402348497
  0
ARC
  5
592
100
AcDbEntity
  8
IMPORT_IGES
100
AcDbCircle
 62
253
  6
CONTINUOUS
 10
-2.137027213
 20
13.6413307759
 40
1.8973933632
100
AcDbArc
 50
112.3922189651
 51
67.6077810349
  0
CIRCLE
  5
593
100
AcDbEntity
  8
IMPORT_IGES
100
AcDbCircle
 62
7
  6
CONTINUOUS
 10
-2.137027213
 20
13.6413307759
 40
1.5974047863
  0
CIRCLE
  5
594
100
AcDbEntity
  8
IMPORT_IGES
100
AcDbCircle
 62
253
  6
CONTINUOUS
 10
-2.137027213
 20
13.6413307759
 40
1.5562895046
  0
ARC
  5
595
100
AcDbEntity
  8
IMPORT_IGES
100
AcDbCircle
 62
7
  6
CONTINUOUS
 10
-0.887027213
 20
14.1413307759
 40
1.5261825974
100
AcDbArc
 50
0.982992419
 51
90.0
  0
ARC
  5
596
100
AcDbEntity
  8
IMPORT_IGES
100
AcDbCircle
 62
7
  6
CONTINUOUS
 10
-3.387027213
 20
14.1413307759
 40
1.5261825974
100
AcDbArc
 50
90.0
 51
179.0170075794
  0
ARC
  5
597
100
AcDbEntity
  8
IMPORT_IGES
100
AcDbCircle
 62
253
  6
CONTINUOUS
 10
-3.387027213
 20
14.1413307759
 40
1.504287608
100
AcDbArc
 50
90.0
 51
180.0
  0
ARC
  5
598
100
AcDbEntity
  8
IMPORT_IGES
100
AcDbCircle
 62
253
  6
CONTINUOUS
 10
-0.887027213
 20
14.1413307759
 40
1.504287608
100
AcDbArc
 50
0.0
 51
90.0
  0
ARC
  5
599
100
AcDbEntity
  8
IMPORT_IGES
100
AcDbCircle
 62
253
  6
CONTINUOUS
 10
-0.887027213
 20
14.1413307759
 40
1.2543256842
100
AcDbArc
 50
0.0
 51
90.0
  0
ARC
  5
59A
100
AcDbEntity
  8
IMPORT_IGES
100
AcDbCircle
 62
253
  6
CONTINUOUS
 10
-3.387027213
 20
14.1413307759
 40
1.2543256842
100
AcDbArc
 50
90.0
 51
180.0
  0
ARC
  5
59B
100
AcDbEntity
  8
IMPORT_IGES
100
AcDbCircle
 62
253
  6
CONTINUOUS
 10
-3.887027213
 20
15.6413307759
 40
1.2478278026
100
AcDbArc
 50
182.1032107535
 51
224.4501899129
  0
ARC
  5
59C
100
AcDbEntity
  8
IMPORT_IGES
100
AcDbCircle
 62
7
  6
CONTINUOUS
 10
-3.887027213
 20
15.6413307759
 40
0.9978373219
100
AcDbArc
 50
166.4757957595
 51
220.1693803441
  0
ARC
  5
59D
100
AcDbEntity
  8
IMPORT_IGES
100
AcDbCircle
 62
7
  6
CONTINUOUS
 10
-3.887027213
 20
15.6413307759
 40
0.9978373219
100
AcDbArc
 50
12.3513840404
 51
50.8897129948
  0
ARC
  5
59E
100
AcDbEntity
  8
IMPORT_IGES
100
AcDbCircle
 62
253
  6
CONTINUOUS
 10
-5.287027213
 20
8.6413307759
 40
0.6456743158
100
AcDbArc
 50
180.0
 51
360.0
  0
CIRCLE
  5
59F
100
AcDbEntity
  8
IMPORT_IGES
100
AcDbCircle
 62
253
  6
CONTINUOUS
 10
-2.137027213
 20
13.6413307759
 40
0.5562942685
  0
ARC
  5
5A0
100
AcDbEntity
  8
0
100
AcDbCircle
 62
7
  6
CONTINUOUS
 10
-4.137027213
 20
23.2913307759
 40
0.5
100
AcDbArc
 50
144.3637748935
 51
215.6362251065
  0
ARC
  5
5A1
100
AcDbEntity
  8
IMPORT_IGES
100
AcDbCircle
 62
253
  6
CONTINUOUS
 10
-5.287027213
 20
8.6413307759
 40
0.395712392
100
AcDbArc
 50
180.0
 51
360.0
  0
ARC
  5
5A2
100
AcDbEntity
  8
IMPORT_IGES
100
AcDbCircle
 62
7
  6
CONTINUOUS
 10
-5.287027213
 20
8.6413307759
 40
0.3738174026
100
AcDbArc
 50
180.0
 51
270.0
  0
ARC
  5
5A3
100
AcDbEntity
  8
IMPORT_IGES
100
AcDbCircle
 62
7
  6
CONTINUOUS
 10
-0.137027213
 20
-7.8586692241
 40
5.8960028571
100
AcDbArc
 50
251.7156025813
 51
278.4865460271
  0
ARC
  5
5A4
100
AcDbEntity
  8
IMPORT_IGES
100
AcDbCircle
 62
7
  6
CONTINUOUS
 10
-0.137027213
 20
-7.8586692241
 40
5.8
100
AcDbArc
 50
255.0039577656
 51
277.9191537551
  0
ARC
  5
5A5
100
AcDbEntity
  8
IMPORT_IGES
100
AcDbCircle
 62
7
  6
CONTINUOUS
 10
-0.137027213
 20
-7.8586692241
 40
2.5
100
AcDbArc
 50
148.196332821
 51
159.9819888214
  0
ARC
  5
5A6
100
AcDbEntity
  8
IMPORT_IGES
100
AcDbCircle
 62
7
  6
CONTINUOUS
 10
-0.137027213
 20
-7.8586692241
 40
2.5
100
AcDbArc
 50
237.188713437
 51
290.5282438445
  0
ARC
  5
5A7
100
AcDbEntity
  8
0
100
AcDbCircle
 62
7
  6
CONTINUOUS
 10
-0.137027213
 20
-7.8586692241
 40
2.4460729095
100
AcDbArc
 50
239.2247443236
 51
254.4941043807
  0
ARC
  5
5A8
100
AcDbEntity
  8
0
100
AcDbCircle
 62
7
  6
CONTINUOUS
 10
-0.137027213
 20
-7.8586692241
 40
2.4460729095
100
AcDbArc
 50
145.9750630338
 51
164.145181578
  0
ARC
  5
5A9
100
AcDbEntity
  8
0
100
AcDbCircle
 62
7
  6
CONTINUOUS
 10
-0.137027213
 20
-7.8586692241
 40
2.4460729095
100
AcDbArc
 50
285.5058956193
 51
290.2189674458
  0
ARC
  5
5AA
100
AcDbEntity
  8
0
100
AcDbCircle
 62
7
  6
CONTINUOUS
 10
-0.137027213
 20
-7.8586692241
 40
2.4128955808
100
AcDbArc
 50
240.5190240565
 51
253.4552918822
  0
ARC
  5
5AB
100
AcDbEntity
  8
0
100
AcDbCircle
 62
7
  6
CONTINUOUS
 10
-0.137027213
 20
-7.8586692241
 40
2.4128955808
100
AcDbArc
 50
144.9697335602
 51
167.003287901
  0
ARC
  5
5AC
100
AcDbEntity
  8
0
100
AcDbCircle
 62
7
  6
CONTINUOUS
 10
-0.137027213
 20
-7.8586692241
 40
2.4128955808
100
AcDbArc
 50
286.5447081178
 51
289.9512324826
  0
ARC
  5
5AD
100
AcDbEntity
  8
0
100
AcDbCircle
 62
253
  6
CONTINUOUS
 10
-0.137027213
 20
-7.8586692241
 40
2.2129031962
100
AcDbArc
 50
140.7159348485
 51
202.9578020657
  0
ARC
  5
5AE
100
AcDbEntity
  8
0
100
AcDbCircle
 62
253
  6
CONTINUOUS
 10
-0.137027213
 20
-7.8586692241
 40
2.0870968038
100
AcDbArc
 50
137.8372739903
 51
205.516472302
  0
ARC
  5
5AF
100
AcDbEntity
  8
0
100
AcDbCircle
 62
7
  6
CONTINUOUS
 10
-0.137027213
 20
-7.8586692241
 40
1.8871044192
100
AcDbArc
 50
132.0702692541
 51
208.487623946
  0
ARC
  5
5B0
100
AcDbEntity
  8
0
100
AcDbCircle
 62
7
  6
CONTINUOUS
 10
-0.137027213
 20
-7.8586692241
 40
1.8682459324
100
AcDbArc
 50
131.3738095143
 51
208.8305287339
  0
ARC
  5
5B1
100
AcDbEntity
  8
0
100
AcDbCircle
 62
7
  6
CONTINUOUS
 10
-0.137027213
 20
-7.8586692241
 40
1.775
100
AcDbArc
 50
127.9122078789
 51
210.4703082737
  0
ARC
  5
5B2
100
AcDbEntity
  8
0
100
AcDbCircle
 62
7
  6
CONTINUOUS
 10
-0.137027213
 20
-7.8586692241
 40
1.1313708499
100
AcDbArc
 50
32.8423589116
 51
232.7465152955
  0
ARC
  5
5B3
100
AcDbEntity
  8
0
100
AcDbCircle
 62
7
  6
CONTINUOUS
 10
3.862972787
 20
-23.0086692241
 40
0.5
100
AcDbArc
 50
324.3637748935
 51
35.6362251065
  0
ARC
  5
5B4
100
AcDbEntity
  8
RACCORDO
100
AcDbCircle
 62
7
  6
CONTINUOUS
 10
-0.537027213
 20
-10.0836692241
 40
0.1
100
AcDbArc
 50
180.0
 51
270.0
  0
ARC
  5
5B5
100
AcDbEntity
  8
RACCORDO
100
AcDbCircle
 62
7
  6
CONTINUOUS
 10
0.262972787
 20
-10.0836692241
 40
0.1
100
AcDbArc
 50
270.0
 51
360.0
  0
ARC
  5
5B6
100
AcDbEntity
  8
RACCORDO
100
AcDbCircle
 62
253
  6
CONTINUOUS
 10
-0.137027213
 20
12.1413307759
 40
4.1702806912
100
AcDbArc
 50
90.9250713563
 51
104.234311828
  0
ARC
  5
5B7
100
AcDbEntity
  8
RACCORDO
100
AcDbCircle
 62
253
  6
CONTINUOUS
 10
-0.137027213
 20
12.1413307759
 40
3.3297193088
100
AcDbArc
 50
72.0632719677
 51
89.9737054816
  0
CIRCLE
  5
5B8
100
AcDbEntity
  8
IMPORT_IGES
100
AcDbCircle
 62
7
  6
CONTINUOUS
 10
1.362972787
 20
4.6413307759
 40
3.25
  0
ARC
  5
5B9
100
AcDbEntity
  8
RACCORDO
100
AcDbCircle
 62
253
  6
CONTINUOUS
 10
-0.137027213
 20
12.1413307759
 40
3.0297650002
100
AcDbArc
 50
70.2235076381
 51
82.4125205283
  0
ARC
  5
5BA
100
AcDbEntity
  8
RACCORDO
100
AcDbCircle
 62
7
  6
CONTINUOUS
 10
-0.137027213
 20
12.1413307759
 40
3.0
100
AcDbArc
 50
70.0175300433
 51
81.7720320327
  0
ARC
  5
5BB
100
AcDbEntity
  8
IMPORT_IGES
100
AcDbCircle
 62
7
  6
CONTINUOUS
 10
-0.137027213
 20
12.1413307759
 40
2.9
100
AcDbArc
 50
69.9937275301
 51
79.7876593838
  0
CIRCLE
  5
5BC
100
AcDbEntity
  8
IMPORT_IGES
100
AcDbCircle
 62
7
  6
CONTINUOUS
 10
1.362972787
 20
4.6413307759
 40
1.6
  0
CIRCLE
  5
5BD
100
AcDbEntity
  8
0
100
AcDbCircle
 62
253
  6
CONTINUOUS
 10
1.362972787
 20
4.6413307759
 40
1.5482622421
  0
CIRCLE
  5
5BE
100
AcDbEntity
  8
0
100
AcDbCircle
 62
7
  6
CONTINUOUS
 10
1.362972787
 20
4.6413307759
 40
1.3482698575
  0
CIRCLE
  5
5BF
100
AcDbEntity
  8
0
100
AcDbCircle
 62
7
  6
CONTINUOUS
 10
1.362972787
 20
4.6413307759
 40
1.2286965377
  0
ARC
  5
5C0
100
AcDbEntity
  8
IMPORT_IGES
100
AcDbCircle
 62
253
  6
CONTINUOUS
 10
1.012972787
 20
8.6413307759
 40
0.6456743158
100
AcDbArc
 50
180.0
 51
360.0
  0
ARC
  5
5C1
100
AcDbEntity
  8
0
100
AcDbCircle
 62
7
  6
CONTINUOUS
 10
3.862972787
 20
23.2913307759
 40
0.5
100
AcDbArc
 50
324.3637748935
 51
35.6362251065
  0
ARC
  5
5C2
100
AcDbEntity
  8
IMPORT_IGES
100
AcDbCircle
 62
253
  6
CONTINUOUS
 10
1.012972787
 20
8.6413307759
 40
0.395712392
100
AcDbArc
 50
180.0
 51
360.0
  0
ARC
  5
5C3
100
AcDbEntity
  8
IMPORT_IGES
100
AcDbCircle
 62
7
  6
CONTINUOUS
 10
1.012972787
 20
8.6413307759
 40
0.3738174026
100
AcDbArc
 50
270.0
 51
360.0
  0
ELLIPSE
  5
5C4
100
AcDbEntity
  8
IMPORT_IGES
100
AcDbEllipse
 62
7
  6
CONTINUOUS
 10
5.9271019491
 20
17.955459938
 30
0.0
 11
-0.7071606311
 21
-0.7071606311
 31
0.0
 40
0.9999238505
 41
2.3562325664
 42
3.926990817
  0
ELLIPSE
  5
5C5
100
AcDbEntity
  8
IMPORT_IGES
100
AcDbEllipse
 62
7
  6
CONTINUOUS
 10
5.9271019491
 20
-17.6727983862
 30
0.0
 11
-0.7071606311
 21
0.7071606311
 31
0.0
 40
0.9999238505
 41
2.3562325664
 42
3.9269527408
  0
ELLIPSE
  5
5C6
100
AcDbEntity
  8
IMPORT_IGES
100
AcDbEllipse
 62
7
  6
CONTINUOUS
 10
-8.2011563751
 20
-17.6727983862
 30
0.0
 11
0.7071606311
 21
0.7071606311
 31
0.0
 40
0.9999238505
 41
2.3562325664
 42
3.926990817
  0
ELLIPSE
  5
5C7
100
AcDbEntity
  8
IMPORT_IGES
100
AcDbEllipse
 62
7
  6
CONTINUOUS
 10
-8.2011563751
 20
17.955459938
 30
0.0
 11
0.7071606311
 21
-0.7071606311
 31
0.0
 40
0.9999238505
 41
2.3562325664
 42
3.926990817
  0
ELLIPSE
  5
5C8
100
AcDbEntity
  8
IMPORT_IGES
100
AcDbEllipse
 62
7
  6
CONTINUOUS
 10
-8.1988748849
 20
17.9531784478
 30
0.0
 11
0.7073221892
 21
-0.7073221892
 31
0.0
 40
0.9996954599
 41
2.3563467834
 42
3.9268385237
  0
ELLIPSE
  5
5C9
100
AcDbEntity
  8
IMPORT_IGES
100
AcDbEllipse
 62
7
  6
CONTINUOUS
 10
-8.1988748849
 20
-17.6705168961
 30
0.0
 11
0.7073221892
 21
0.7073221892
 31
0.0
 40
0.9996954599
 41
-3.9268385237
 42
-2.3563467834
  0
ELLIPSE
  5
5CA
100
AcDbEntity
  8
IMPORT_IGES
100
AcDbEllipse
 62
7
  6
CONTINUOUS
 10
5.924820459
 20
-17.6705168961
 30
0.0
 11
0.7073221892
 21
-0.7073221892
 31
0.0
 40
0.9996954599
 41
-0.7852458701
 42
0.7852458701
  0
ELLIPSE
  5
5CB
100
AcDbEntity
  8
IMPORT_IGES
100
AcDbEllipse
 62
7
  6
CONTINUOUS
 10
5.924820459
 20
17.9531784478
 30
0.0
 11
0.7073221892
 21
0.7073221892
 31
0.0
 40
0.9996954599
 41
-0.7852458701
 42
0.7852458701
  0
ELLIPSE
  5
5CC
100
AcDbEntity
  8
IMPORT_IGES
100
AcDbEllipse
 62
7
  6
CONTINUOUS
 10
-1.986951049
 20
0.0412546119
 30
0.0
 11
0.3536610946
 21
-0.3536610946
 31
0.0
 40
0.9996954599
 41
2.3563467834
 42
3.9268385237
  0
ELLIPSE
  5
5CD
100
AcDbEntity
  8
IMPORT_IGES
100
AcDbEllipse
 62
7
  6
CONTINUOUS
 10
0.312896623
 20
0.0412546119
 30
0.0
 11
-0.3536610946
 21
-0.3536610946
 31
0.0
 40
0.9996954599
 41
2.3563467834
 42
3.9268385237
  0
ELLIPSE
  5
5CE
100
AcDbEntity
  8
IMPORT_IGES
100
AcDbEllipse
 62
7
  6
CONTINUOUS
 10
0.312896623
 20
-1.2585930601
 30
0.0
 11
-0.3536610946
 21
0.3536610946
 31
0.0
 40
0.9996954599
 41
2.3563467834
 42
3.9268385237
  0
ELLIPSE
  5
5CF
100
AcDbEntity
  8
IMPORT_IGES
100
AcDbEllipse
 62
7
  6
CONTINUOUS
 10
-1.986951049
 20
-1.2585930601
 30
0.0
 11
0.3536610946
 21
0.3536610946
 31
0.0
 40
0.9996954599
 41
2.3563467834
 42
3.9268385237
  0
ELLIPSE
  5
5D0
100
AcDbEntity
  8
IMPORT_IGES
100
AcDbEllipse
 62
7
  6
CONTINUOUS
 10
-1.986951049
 20
-3.4587453881
 30
0.0
 11
0.3536610946
 21
-0.3536610946
 31
0.0
 40
0.9996954599
 41
2.3563467834
 42
3.9268385237
  0
ELLIPSE
  5
5D1
100
AcDbEntity
  8
IMPORT_IGES
100
AcDbEllipse
 62
7
  6
CONTINUOUS
 10
0.312896623
 20
-3.4587453881
 30
0.0
 11
-0.3536610946
 21
-0.3536610946
 31
0.0
 40
0.9996954599
 41
2.3563467834
 42
3.9268385237
  0
ELLIPSE
  5
5D2
100
AcDbEntity
  8
IMPORT_IGES
100
AcDbEllipse
 62
7
  6
CONTINUOUS
 10
0.312896623
 20
-4.7585930601
 30
0.0
 11
-0.3536610946
 21
0.3536610946
 31
0.0
 40
0.9996954599
 41
2.3563467834
 42
3.9268385237
  0
ELLIPSE
  5
5D3
100
AcDbEntity
  8
IMPORT_IGES
100
AcDbEllipse
 62
7
  6
CONTINUOUS
 10
-1.986951049
 20
-4.7585930601
 30
0.0
 11
0.3536610946
 21
0.3536610946
 31
0.0
 40
0.9996954599
 41
2.3563467834
 42
3.9268385237
  0
ELLIPSE
  5
5D4
100
AcDbEntity
  8
IMPORT_IGES
100
AcDbEllipse
 62
7
  6
CONTINUOUS
 10
-1.986951049
 20
-6.9587453881
 30
0.0
 11
0.3536610946
 21
-0.3536610946
 31
0.0
 40
0.9996954599
 41
2.3563467834
 42
3.9268385237
  0
ELLIPSE
  5
5D5
100
AcDbEntity
  8
IMPORT_IGES
100
AcDbEllipse
 62
7
  6
CONTINUOUS
 10
0.312896623
 20
-6.9587453881
 30
0.0
 11
-0.3536610946
 21
-0.3536610946
 31
0.0
 40
0.9996954599
 41
2.3563467834
 42
3.9268385237
  0
ELLIPSE
  5
5D6
100
AcDbEntity
  8
IMPORT_IGES
100
AcDbEllipse
 62
7
  6
CONTINUOUS
 10
0.312896623
 20
-8.2585930601
 30
0.0
 11
-0.3536610946
 21
0.3536610946
 31
0.0
 40
0.9996954599
 41
2.3563467834
 42
3.9268385237
  0
ELLIPSE
  5
5D7
100
AcDbEntity
  8
IMPORT_IGES
100
AcDbEllipse
 62
7
  6
CONTINUOUS
 10
-1.986951049
 20
-8.2585930601
 30
0.0
 11
0.3536610946
 21
0.3536610946
 31
0.0
 40
0.9996954599
 41
2.3563467834
 42
3.9268385237
  0
ELLIPSE
  5
5D8
100
AcDbEntity
  8
IMPORT_IGES
100
AcDbEllipse
 62
7
  6
CONTINUOUS
 10
-1.986951049
 20
-13.9587453881
 30
0.0
 11
0.3536610946
 21
-0.3536610946
 31
0.0
 40
0.9996954599
 41
2.3563467834
 42
3.9268385237
  0
ELLIPSE
  5
5D9
100
AcDbEntity
  8
IMPORT_IGES
100
AcDbEllipse
 62
7
  6
CONTINUOUS
 10
0.312896623
 20
-13.9587453881
 30
0.0
 11
-0.3536610946
 21
-0.3536610946
 31
0.0
 40
0.9996954599
 41
2.3563467834
 42
3.9268385237
  0
ELLIPSE
  5
5DA
100
AcDbEntity
  8
IMPORT_IGES
100
AcDbEllipse
 62
7
  6
CONTINUOUS
 10
0.312896623
 20
-15.2585930601
 30
0.0
 11
-0.3536610946
 21
0.3536610946
 31
0.0
 40
0.9996954599
 41
2.3563467834
 42
3.9268385237
  0
ELLIPSE
  5
5DB
100
AcDbEntity
  8
IMPORT_IGES
100
AcDbEllipse
 62
7
  6
CONTINUOUS
 10
-1.986951049
 20
-15.2585930601
 30
0.0
 11
0.3536610946
 21
0.3536610946
 31
0.0
 40
0.9996954599
 41
2.3563467834
 42
3.9268385237
  0
ELLIPSE
  5
5DC
100
AcDbEntity
  8
IMPORT_IGES
100
AcDbEllipse
 62
7
  6
CONTINUOUS
 10
-1.986951049
 20
-10.4587453881
 30
0.0
 11
0.3536610946
 21
-0.3536610946
 31
0.0
 40
0.9996954599
 41
2.3563467834
 42
3.9268385237
  0
ELLIPSE
  5
5DD
100
AcDbEntity
  8
IMPORT_IGES
100
AcDbEllipse
 62
7
  6
CONTINUOUS
 10
0.312896623
 20
-10.4587453881
 30
0.0
 11
-0.3536610946
 21
-0.3536610946
 31
0.0
 40
0.9996954599
 41
2.3563467834
 42
3.9268385237
  0
ELLIPSE
  5
5DE
100
AcDbEntity
  8
IMPORT_IGES
100
AcDbEllipse
 62
7
  6
CONTINUOUS
 10
0.312896623
 20
-11.7585930601
 30
0.0
 11
-0.3536610946
 21
0.3536610946
 31
0.0
 40
0.9996954599
 41
2.3563467834
 42
3.9268385237
  0
ELLIPSE
  5
5DF
100
AcDbEntity
  8
IMPORT_IGES
100
AcDbEllipse
 62
7
  6
CONTINUOUS
 10
-1.986951049
 20
-11.7585930601
 30
0.0
 11
0.3536610946
 21
0.3536610946
 31
0.0
 40
0.9996954599
 41
2.3563467834
 42
3.9268385237
  0
ELLIPSE
  5
5E0
100
AcDbEntity
  8
IMPORT_IGES
100
AcDbEllipse
 62
7
  6
CONTINUOUS
 10
0.6304278519
 20
11.736318213
 30
0.0
 11
0.0
 21
0.5
 31
0.0
 40
0.0174550649
 41
-3.0414252324
 42
-1.5707963268
  0
ELLIPSE
  5
5E1
100
AcDbEntity
  8
IMPORT_IGES
100
AcDbEllipse
 62
7
  6
CONTINUOUS
 10
0.6321733584
 20
10.7413307759
 30
0.0
 11
0.0
 21
0.5
 31
0.0
 40
0.0174550649
 41
0.1001674212
 42
1.5707963268
  0
ELLIPSE
  5
5E2
100
AcDbEntity
  8
IMPORT_IGES
100
AcDbEllipse
 62
7
  6
CONTINUOUS
 10
-4.9062277844
 20
8.7606075113
 30
0.0
 11
0.0
 21
0.5
 31
0.0
 40
0.0174550649
 41
-1.8116723718
 42
-1.5707963268
  0
ELLIPSE
  5
5E3
100
AcDbEntity
  8
IMPORT_IGES
100
AcDbEllipse
 62
7
  6
CONTINUOUS
 10
-4.9062277844
 20
10.7413307759
 30
0.0
 11
0.0
 21
0.5
 31
0.0
 40
0.0174550649
 41
-1.5707963268
 42
-0.1001674212
  0
ELLIPSE
  5
5E4
100
AcDbEntity
  8
IMPORT_IGES
100
AcDbEllipse
 62
7
  6
CONTINUOUS
 10
-4.9044822779
 20
11.736318213
 30
0.0
 11
-0.0
 21
0.5
 31
0.0
 40
0.0174550649
 41
-4.7123889804
 42
-3.2417600748
  0
ELLIPSE
  5
5E5
100
AcDbEntity
  8
IMPORT_IGES
100
AcDbEllipse
 62
7
  6
CONTINUOUS
 10
0.6321733584
 20
8.7606075113
 30
0.0
 11
0.0
 21
0.5
 31
0.0
 40
0.0174550649
 41
-4.7123889804
 42
-4.4715129354
  0
ELLIPSE
  5
5E6
100
AcDbEntity
  8
IMPORT_IGES
100
AcDbEllipse
 62
7
  6
CONTINUOUS
 10
0.6374098779
 20
13.7657069356
 30
0.0
 11
0.0
 21
0.4
 31
0.0
 40
0.0174550649
 41
0.3509119749
 42
1.5707963268
  0
ELLIPSE
  5
5E7
100
AcDbEntity
  8
IMPORT_IGES
100
AcDbEllipse
 62
7
  6
CONTINUOUS
 10
0.6374098779
 20
13.5169546162
 30
0.0
 11
0.0
 21
0.4
 31
0.0
 40
0.0174550649
 41
-4.7123889804
 42
-3.1590459461
  0
ELLIPSE
  5
5E8
100
AcDbEntity
  8
IMPORT_IGES
100
AcDbEllipse
 62
7
  6
CONTINUOUS
 10
-2.5114033727
 20
15.6657678668
 30
0.0
 11
0.4
 21
0.0
 31
0.0
 40
0.0174550649
 41
-3.1241393611
 42
-1.5707963268
  0
ELLIPSE
  5
5E9
100
AcDbEntity
  8
IMPORT_IGES
100
AcDbEllipse
 62
7
  6
CONTINUOUS
 10
-1.7626510533
 20
15.6657678668
 30
0.0
 11
0.4
 21
-0.0
 31
0.0
 40
0.0174550649
 41
-1.5707963268
 42
-0.0174532925
  0
ELLIPSE
  5
5EA
100
AcDbEntity
  8
IMPORT_IGES
100
AcDbEllipse
 62
7
  6
CONTINUOUS
 10
-4.9114643039
 20
13.5169546162
 30
0.0
 11
-0.0
 21
0.4
 31
0.0
 40
0.0174550649
 41
-3.1241393611
 42
-1.5707963268
  0
ELLIPSE
  5
5EB
100
AcDbEntity
  8
IMPORT_IGES
100
AcDbEllipse
 62
7
  6
CONTINUOUS
 10
-4.9114643039
 20
13.7657069356
 30
0.0
 11
0.0
 21
0.4
 31
0.0
 40
0.0174550649
 41
-1.5707963268
 42
-0.350911996
  0
ELLIPSE
  5
5EC
100
AcDbEntity
  8
IMPORT_IGES
100
AcDbEllipse
 62
7
  6
CONTINUOUS
 10
-5.6625901221
 20
13.7657069356
 30
0.0
 11
0.0
 21
0.4
 31
0.0
 40
0.0174550649
 41
0.3509119749
 42
1.5707963268
  0
ELLIPSE
  5
5ED
100
AcDbEntity
  8
IMPORT_IGES
100
AcDbEllipse
 62
7
  6
CONTINUOUS
 10
-5.6625901221
 20
13.5169546162
 30
0.0
 11
0.0
 21
0.4
 31
0.0
 40
0.0174550649
 41
1.5707963268
 42
3.1241393611
  0
ELLIPSE
  5
5EE
100
AcDbEntity
  8
IMPORT_IGES
100
AcDbEllipse
 62
7
  6
CONTINUOUS
 10
-1.7626510533
 20
16.416893685
 30
0.0
 11
0.4
 21
0.0
 31
0.0
 40
0.0174550649
 41
0.0174532925
 42
1.5707963268
  0
ELLIPSE
  5
5EF
100
AcDbEntity
  8
IMPORT_IGES
100
AcDbEllipse
 62
7
  6
CONTINUOUS
 10
-2.5114033727
 20
16.416893685
 30
0.0
 11
0.4
 21
-0.0
 31
0.0
 40
0.0174550649
 41
1.5707963268
 42
3.1241393611
  0
ELLIPSE
  5
5F0
100
AcDbEntity
  8
IMPORT_IGES
100
AcDbEllipse
 62
7
  6
CONTINUOUS
 10
1.3885356961
 20
13.5169546162
 30
0.0
 11
0.0
 21
0.4
 31
0.0
 40
0.0174550649
 41
-3.1241393611
 42
-1.5707963268
  0
ELLIPSE
  5
5F1
100
AcDbEntity
  8
IMPORT_IGES
100
AcDbEllipse
 62
7
  6
CONTINUOUS
 10
1.3885356961
 20
13.7657069356
 30
0.0
 11
-0.0
 21
0.4
 31
0.0
 40
0.0174550649
 41
-1.5707963268
 42
-0.3509120146
  0
ELLIPSE
  5
5F2
100
AcDbEntity
  8
RACCORDO
100
AcDbEllipse
 62
7
  6
CONTINUOUS
 10
6.9129694023
 20
22.7416052451
 30
0.0
 11
-0.0220972656
 21
0.1990550872
 31
0.0
 40
0.9986126811
 41
-3.2519986542
 42
-1.6815068062
  0
ELLIPSE
  5
5F3
100
AcDbEntity
  8
RACCORDO
100
AcDbEllipse
 62
7
  6
CONTINUOUS
 10
10.2129761717
 20
22.7416052451
 30
0.0
 11
0.0220972656
 21
0.1990550872
 31
0.0
 40
0.9986126811
 41
-4.601678501
 42
-3.031186653
  0
ELLIPSE
  5
5F4
100
AcDbEntity
  8
RACCORDO
100
AcDbEllipse
 62
7
  6
CONTINUOUS
 10
-10.4870305977
 20
22.7416052451
 30
0.0
 11
-0.0220972656
 21
0.1990550872
 31
0.0
 40
0.9986126811
 41
-3.2519986542
 42
-1.6815068062
  0
ELLIPSE
  5
5F5
100
AcDbEntity
  8
RACCORDO
100
AcDbEllipse
 62
7
  6
CONTINUOUS
 10
-7.1870238283
 20
22.7416052451
 30
0.0
 11
0.0220972656
 21
0.1990550872
 31
0.0
 40
0.9986126811
 41
-4.601678501
 42
-3.031186653
  0
ELLIPSE
  5
5F6
100
AcDbEntity
  8
RACCORDO
100
AcDbEllipse
 62
7
  6
CONTINUOUS
 10
-7.1870238283
 20
-22.4589436933
 30
0.0
 11
-0.0220972656
 21
0.1990550872
 31
0.0
 40
0.9986126811
 41
-0.1104060006
 42
1.4600858474
  0
ELLIPSE
  5
5F7
100
AcDbEntity
  8
RACCORDO
100
AcDbEllipse
 62
7
  6
CONTINUOUS
 10
-10.4870305977
 20
-22.4589436933
 30
0.0
 11
0.0220972656
 21
0.1990550872
 31
0.0
 40
0.9986126811
 41
-1.4600858474
 42
0.1104060006
  0
ELLIPSE
  5
5F8
100
AcDbEntity
  8
RACCORDO
100
AcDbEllipse
 62
7
  6
CONTINUOUS
 10
10.2129761717
 20
-22.4589436933
 30
0.0
 11
-0.0220972656
 21
0.1990550872
 31
0.0
 40
0.9986126811
 41
-0.1104060006
 42
1.4600858474
  0
ELLIPSE
  5
5F9
100
AcDbEntity
  8
RACCORDO
100
AcDbEllipse
 62
7
  6
CONTINUOUS
 10
6.9129694023
 20
-22.4589436933
 30
0.0
 11
0.0220972656
 21
0.1990550872
 31
0.0
 40
0.9986126811
 41
-1.4600858474
 42
0.1104060006
  0
ELLIPSE
  5
5FA
100
AcDbEntity
  8
0
100
AcDbEllipse
 62
7
  6
CONTINUOUS
 10
-4.0900699229
 20
-22.214762311
 30
0.0
 11
0.4530427099
 21
0.0
 31
0.0
 40
0.0058178298
 41
0.516449193
 42
3.1357748894
  0
ELLIPSE
  5
5FB
100
AcDbEntity
  8
0
100
AcDbEllipse
 62
7
  6
CONTINUOUS
 10
3.8160154969
 20
-22.214762311
 30
0.0
 11
0.4530427099
 21
-0.0
 31
0.0
 40
0.0058178298
 41
0.0058177642
 42
2.6251434606
  0
ELLIPSE
  5
5FC
100
AcDbEntity
  8
0
100
AcDbEllipse
 62
7
  6
CONTINUOUS
 10
4.2693390634
 20
-23.3150270388
 30
0.0
 11
-0.0
 21
0.5
 31
0.0
 40
0.0058178298
 41
-3.2409419489
 42
-3.1474104178
  0
ELLIPSE
  5
5FD
100
AcDbEntity
  8
0
100
AcDbEllipse
 62
7
  6
CONTINUOUS
 10
3.8160154969
 20
22.4974238628
 30
0.0
 11
0.4530427099
 21
0.0
 31
0.0
 40
0.0058178298
 41
-2.6251434606
 42
-0.0058177642
  0
ELLIPSE
  5
5FE
100
AcDbEntity
  8
0
100
AcDbEllipse
 62
7
  6
CONTINUOUS
 10
-4.0900699229
 20
22.4974238628
 30
0.0
 11
0.4530427099
 21
0.0
 31
0.0
 40
0.0058178298
 41
-3.1357748894
 42
-0.516449193
  0
ELLIPSE
  5
5FF
100
AcDbEntity
  8
0
100
AcDbEllipse
 62
7
  6
CONTINUOUS
 10
-8.3276237165
 20
21.4773177245
 30
0.0
 11
1.0000571192
 21
0.9999809595
 31
0.0
 40
0.0061705924
 41
-1.1948539202
 42
0.0003532199
  0
ELLIPSE
  5
600
100
AcDbEntity
  8
0
100
AcDbEllipse
 62
7
  6
CONTINUOUS
 10
-3.2242958909
 20
21.4773177245
 30
0.0
 11
-0.0
 21
1.0
 31
0.0
 40
0.0087268678
 41
0.0058177642
 42
1.5707963268
  0
ELLIPSE
  5
601
100
AcDbEntity
  8
0
100
AcDbEllipse
 62
7
  6
CONTINUOUS
 10
2.9502414649
 20
21.4773177245
 30
0.0
 11
0.0
 21
1.0
 31
0.0
 40
0.0087268678
 41
-1.5707963268
 42
-0.0058177642
  0
ELLIPSE
  5
602
100
AcDbEntity
  8
0
100
AcDbEllipse
 62
7
  6
CONTINUOUS
 10
8.0535692905
 20
21.4773177245
 30
0.0
 11
1.0000571192
 21
-0.9999809595
 31
0.0
 40
0.0061705924
 41
3.1412394337
 42
4.3364465738
  0
ELLIPSE
  5
603
100
AcDbEntity
  8
0
100
AcDbEllipse
 62
7
  6
CONTINUOUS
 10
8.0535692905
 20
-21.1946561728
 30
0.0
 11
1.0000571192
 21
0.9999809595
 31
0.0
 40
0.0061705924
 41
1.9467387334
 42
3.1419458735
  0
ELLIPSE
  5
604
100
AcDbEntity
  8
0
100
AcDbEllipse
 62
7
  6
CONTINUOUS
 10
-4.5433934894
 20
-23.3150270388
 30
0.0
 11
-0.0
 21
0.5
 31
0.0
 40
0.0058178298
 41
-3.1357748894
 42
-3.0422433583
  0
ELLIPSE
  5
605
100
AcDbEntity
  8
0
100
AcDbEllipse
 62
7
  6
CONTINUOUS
 10
2.9502414649
 20
-21.1946561728
 30
0.0
 11
-0.0
 21
1.0
 31
0.0
 40
0.0087268678
 41
-3.1357748894
 42
-1.5707963268
  0
ELLIPSE
  5
606
100
AcDbEntity
  8
0
100
AcDbEllipse
 62
7
  6
CONTINUOUS
 10
-3.2242958909
 20
-21.1946561728
 30
0.0
 11
-0.0
 21
1.0
 31
0.0
 40
0.0087268678
 41
-4.7123889804
 42
-3.1474104178
  0
ELLIPSE
  5
607
100
AcDbEntity
  8
0
100
AcDbEllipse
 62
7
  6
CONTINUOUS
 10
-8.3276237165
 20
-21.1946561728
 30
0.0
 11
1.0000571192
 21
-0.9999809595
 31
0.0
 40
0.0061705924
 41
-0.0003532199
 42
1.1948539202
  0
ELLIPSE
  5
608
100
AcDbEntity
  8
0
100
AcDbEllipse
 62
7
  6
CONTINUOUS
 10
9.7629685562
 20
23.5526556413
 30
0.0
 11
-0.0029088041
 21
0.2886641433
 31
0.0
 40
0.8660144118
 41
-3.150319066
 42
-1.582431609
  0
ELLIPSE
  5
609
100
AcDbEntity
  8
0
100
AcDbEllipse
 62
7
  6
CONTINUOUS
 10
7.3629770179
 20
23.5526556413
 30
0.0
 11
0.0029088041
 21
0.2886641433
 31
0.0
 40
0.8660144118
 41
-4.7007536982
 42
-3.1328662412
  0
ELLIPSE
  5
60A
100
AcDbEntity
  8
0
100
AcDbEllipse
 62
7
  6
CONTINUOUS
 10
-7.6370314438
 20
23.5526556413
 30
0.0
 11
-0.0029088041
 21
0.2886641433
 31
0.0
 40
0.8660144118
 41
-3.150319066
 42
-1.582431609
  0
ELLIPSE
  5
60B
100
AcDbEntity
  8
0
100
AcDbEllipse
 62
7
  6
CONTINUOUS
 10
-10.0370229821
 20
23.5526556413
 30
0.0
 11
0.0029088041
 21
0.2886641433
 31
0.0
 40
0.8660144118
 41
-4.7007536982
 42
-3.1328662412
  0
ELLIPSE
  5
60C
100
AcDbEntity
  8
0
100
AcDbEllipse
 62
7
  6
CONTINUOUS
 10
9.7629685562
 20
-23.2699940895
 30
0.0
 11
0.0029088041
 21
0.2886641433
 31
0.0
 40
0.8660144118
 41
-1.5591610446
 42
0.0087264124
  0
ELLIPSE
  5
60D
100
AcDbEntity
  8
0
100
AcDbEllipse
 62
7
  6
CONTINUOUS
 10
7.3629770179
 20
-23.2699940895
 30
0.0
 11
-0.0029088041
 21
0.2886641433
 31
0.0
 40
0.8660144118
 41
-0.0087264124
 42
1.5591610446
  0
ELLIPSE
  5
60E
100
AcDbEntity
  8
0
100
AcDbEllipse
 62
7
  6
CONTINUOUS
 10
-10.0370229821
 20
-23.2699940895
 30
0.0
 11
-0.0029088041
 21
0.2886641433
 31
0.0
 40
0.8660144118
 41
-0.0087264124
 42
1.5591610446
  0
ELLIPSE
  5
60F
100
AcDbEntity
  8
0
100
AcDbEllipse
 62
7
  6
CONTINUOUS
 10
-7.6370314438
 20
-23.2699940895
 30
0.0
 11
0.0029088041
 21
0.2886641433
 31
0.0
 40
0.8660144118
 41
-1.5591610446
 42
0.0087264124
  0
ELLIPSE
  5
610
100
AcDbEntity
  8
RACCORDO
100
AcDbEllipse
 62
7
  6
CONTINUOUS
 10
-9.8838763075
 20
19.8302989465
 30
0.0
 11
0.9005489241
 21
0.8994510755
 31
0.0
 40
0.0348994837
 41
-1.3641349085
 42
-0.0174320068
  0
ELLIPSE
  5
611
100
AcDbEntity
  8
RACCORDO
100
AcDbEllipse
 62
7
  6
CONTINUOUS
 10
-9.6838455499
 20
19.8302989465
 30
0.0
 11
-0.0
 21
0.9
 31
0.0
 40
0.0174550649
 41
-1.4340709884
 42
-1.3990627793
  0
ELLIPSE
  5
612
100
AcDbEntity
  8
RACCORDO
100
AcDbEllipse
 62
7
  6
CONTINUOUS
 10
-8.0386141155
 20
19.8302989465
 30
0.0
 11
0.0
 21
0.9
 31
0.0
 40
0.0087268678
 41
0.0523598776
 42
1.4340709884
  0
ELLIPSE
  5
613
100
AcDbEntity
  8
RACCORDO
100
AcDbEllipse
 62
7
  6
CONTINUOUS
 10
7.7645596895
 20
19.8302989465
 30
0.0
 11
0.0
 21
0.9
 31
0.0
 40
0.0087268678
 41
-1.4340709884
 42
-0.0523598776
  0
ELLIPSE
  5
614
100
AcDbEntity
  8
RACCORDO
100
AcDbEllipse
 62
7
  6
CONTINUOUS
 10
9.4097911239
 20
19.8302989465
 30
0.0
 11
-0.0
 21
0.9
 31
0.0
 40
0.0174550649
 41
1.3990627793
 42
1.4340709884
  0
ELLIPSE
  5
615
100
AcDbEntity
  8
RACCORDO
100
AcDbEllipse
 62
7
  6
CONTINUOUS
 10
9.6098218815
 20
19.8302989465
 30
0.0
 11
0.9005489241
 21
-0.8994510755
 31
0.0
 40
0.0348994837
 41
-3.1241606468
 42
-1.7774577451
  0
ELLIPSE
  5
616
100
AcDbEntity
  8
RACCORDO
100
AcDbEllipse
 62
7
  6
CONTINUOUS
 10
-6.9346913952
 20
19.1889606876
 30
0.0
 11
0.0
 21
0.9
 31
0.0
 40
0.0087268678
 41
-1.4414828538
 42
-0.0087266463
  0
ELLIPSE
  5
617
100
AcDbEntity
  8
RACCORDO
100
AcDbEllipse
 62
7
  6
CONTINUOUS
 10
6.6606369693
 20
19.1889606876
 30
0.0
 11
0.0
 21
0.9
 31
0.0
 40
0.0087268678
 41
0.0087266463
 42
1.4414828538
  0
ELLIPSE
  5
618
100
AcDbEntity
  8
RACCORDO
100
AcDbEllipse
 62
7
  6
CONTINUOUS
 10
10.9193973924
 20
-7.6486692241
 30
0.0
 11
-0.0
 21
88.2
 31
0.0
 40
0.0174550649
 41
-4.658932845
 42
-4.575663642
  0
ELLIPSE
  5
619
100
AcDbEntity
  8
RACCORDO
100
AcDbEllipse
 62
7
  6
CONTINUOUS
 10
9.6098218815
 20
-19.5476373947
 30
0.0
 11
0.9005489241
 21
0.8994510755
 31
0.0
 40
0.0348994837
 41
1.7774577451
 42
3.1241606468
  0
ELLIPSE
  5
61A
100
AcDbEntity
  8
RACCORDO
100
AcDbEllipse
 62
7
  6
CONTINUOUS
 10
9.4097911239
 20
-19.5476373947
 30
0.0
 11
0.0
 21
0.9
 31
0.0
 40
0.0174550649
 41
-4.575663642
 42
-4.5406554329
  0
ELLIPSE
  5
61B
100
AcDbEntity
  8
RACCORDO
100
AcDbEllipse
 62
7
  6
CONTINUOUS
 10
7.7645596895
 20
-19.5476373947
 30
0.0
 11
-0.0
 21
0.9
 31
0.0
 40
0.0087268678
 41
-3.089232776
 42
-1.7075216652
  0
ELLIPSE
  5
61C
100
AcDbEntity
  8
RACCORDO
100
AcDbEllipse
 62
7
  6
CONTINUOUS
 10
-8.0386141155
 20
-19.5476373947
 30
0.0
 11
-0.0
 21
0.9
 31
0.0
 40
0.0087268678
 41
-4.575663642
 42
-3.1939525311
  0
ELLIPSE
  5
61D
100
AcDbEntity
  8
RACCORDO
100
AcDbEllipse
 62
7
  6
CONTINUOUS
 10
10.9193973924
 20
7.9313307759
 30
0.0
 11
-0.0
 21
88.2
 31
0.0
 40
0.0174550649
 41
1.4340709884
 42
1.5173401914
  0
ELLIPSE
  5
61E
100
AcDbEntity
  8
RACCORDO
100
AcDbEllipse
 62
7
  6
CONTINUOUS
 10
-11.1934518184
 20
7.9313307759
 30
0.0
 11
-0.0
 21
88.2
 31
0.0
 40
0.0174550649
 41
-1.5173401914
 42
-1.4340709884
  0
ELLIPSE
  5
61F
100
AcDbEntity
  8
RACCORDO
100
AcDbEllipse
 62
7
  6
CONTINUOUS
 10
-11.1934518184
 20
-7.6486692241
 30
0.0
 11
-0.0
 21
88.2
 31
0.0
 40
0.0174550649
 41
-1.7075216652
 42
-1.6242524621
  0
ELLIPSE
  5
620
100
AcDbEntity
  8
RACCORDO
100
AcDbEllipse
 62
7
  6
CONTINUOUS
 10
-9.6838455499
 20
-19.5476373947
 30
0.0
 11
-0.0
 21
0.9
 31
0.0
 40
0.0174550649
 41
-1.7425298743
 42
-1.7075216652
  0
ELLIPSE
  5
621
100
AcDbEntity
  8
RACCORDO
100
AcDbEllipse
 62
7
  6
CONTINUOUS
 10
-9.8838763075
 20
-19.5476373947
 30
0.0
 11
0.9005489241
 21
-0.8994510755
 31
0.0
 40
0.0348994837
 41
0.0174320068
 42
1.3641349085
  0
ELLIPSE
  5
622
100
AcDbEntity
  8
RACCORDO
100
AcDbEllipse
 62
7
  6
CONTINUOUS
 10
6.6606369693
 20
-18.9062991358
 30
0.0
 11
-0.0
 21
0.9
 31
0.0
 40
0.0087268678
 41
-4.5830755074
 42
-3.1503192998
  0
ELLIPSE
  5
623
100
AcDbEntity
  8
RACCORDO
100
AcDbEllipse
 62
7
  6
CONTINUOUS
 10
-6.9346913952
 20
-18.9062991358
 30
0.0
 11
-0.0
 21
0.9
 31
0.0
 40
0.0087268678
 41
-3.1328660073
 42
-1.7001097998
  0
ELLIPSE
  5
624
100
AcDbEntity
  8
RACCORDO
100
AcDbEllipse
 62
7
  6
CONTINUOUS
 10
-7.2838684657
 20
-7.6486692241
 30
0.0
 11
-0.0
 21
88.2
 31
0.0
 40
0.0087268678
 41
-4.5870944576
 42
-4.575663642
  0
ELLIPSE
  5
625
100
AcDbEntity
  8
RACCORDO
100
AcDbEllipse
 62
7
  6
CONTINUOUS
 10
-7.2838684657
 20
7.9313307759
 30
0.0
 11
-0.0
 21
88.2
 31
0.0
 40
0.0087268678
 41
1.4340709884
 42
1.445501804
  0
ELLIPSE
  5
626
100
AcDbEntity
  8
RACCORDO
100
AcDbEllipse
 62
7
  6
CONTINUOUS
 10
-7.6901859603
 20
7.9313307759
 30
0.0
 11
-0.0
 21
88.2
 31
0.0
 40
0.0087268678
 41
-1.445501666
 42
-1.4414828538
  0
ELLIPSE
  5
627
100
AcDbEntity
  8
RACCORDO
100
AcDbEllipse
 62
7
  6
CONTINUOUS
 10
-7.6901859603
 20
-7.6486692241
 30
0.0
 11
-0.0
 21
88.2
 31
0.0
 40
0.0087268678
 41
-1.7001097998
 42
-1.6960909876
  0
ELLIPSE
  5
628
100
AcDbEntity
  8
RACCORDO
100
AcDbEllipse
 62
7
  6
CONTINUOUS
 10
7.0098140397
 20
7.9313307759
 30
0.0
 11
-0.0
 21
88.2
 31
0.0
 40
0.0087268678
 41
-1.517178935
 42
-1.4340709884
  0
ELLIPSE
  5
629
100
AcDbEntity
  8
RACCORDO
100
AcDbEllipse
 62
7
  6
CONTINUOUS
 10
7.0098140397
 20
-7.6486692241
 30
0.0
 11
-0.0
 21
88.2
 31
0.0
 40
0.0087268678
 41
-1.7075216652
 42
-1.6244137186
  0
ELLIPSE
  5
62A
100
AcDbEntity
  8
RACCORDO
100
AcDbEllipse
 62
7
  6
CONTINUOUS
 10
7.4161315343
 20
7.9313307759
 30
0.0
 11
-0.0
 21
88.2
 31
0.0
 40
0.0087268678
 41
1.4414828538
 42
1.4490974309
  0
ELLIPSE
  5
62B
100
AcDbEntity
  8
RACCORDO
100
AcDbEllipse
 62
7
  6
CONTINUOUS
 10
7.4161315343
 20
-7.6486692241
 30
0.0
 11
-0.0
 21
88.2
 31
0.0
 40
0.0087268678
 41
-4.5906900811
 42
-4.5830755074
  0
ELLIPSE
  5
62C
100
AcDbEntity
  8
0
100
AcDbEllipse
 62
7
  6
CONTINUOUS
 10
10.50422688
 20
22.0355044844
 30
0.0
 11
-0.4160498344
 21
-0.2773626446
 31
0.0
 40
0.9999450019
 41
2.5536219432
 42
4.1243675013
  0
ELLIPSE
  5
62D
100
AcDbEntity
  8
0
100
AcDbEllipse
 62
7
  6
CONTINUOUS
 10
10.50422688
 20
-21.7528429326
 30
0.0
 11
0.4160498344
 21
-0.2773626446
 31
0.0
 40
0.9999450019
 41
-0.9827748477
 42
0.5879707104
  0
ELLIPSE
  5
62E
100
AcDbEntity
  8
0
100
AcDbEllipse
 62
7
  6
CONTINUOUS
 10
-10.778281306
 20
-21.7528429326
 30
0.0
 11
0.4160498344
 21
0.2773626446
 31
0.0
 40
0.9999450019
 41
2.5536219432
 42
4.1243675013
  0
ELLIPSE
  5
62F
100
AcDbEntity
  8
0
100
AcDbEllipse
 62
7
  6
CONTINUOUS
 10
-10.778281306
 20
22.0355044844
 30
0.0
 11
-0.4160498344
 21
0.2773626446
 31
0.0
 40
0.9999450019
 41
-0.9827748477
 42
0.5879707104
  0
ELLIPSE
  5
630
100
AcDbEntity
  8
0
100
AcDbEllipse
 62
7
  6
CONTINUOUS
 10
7.4296184412
 20
-21.8124361946
 30
0.0
 11
0.4999904798
 21
0.5000285596
 31
0.0
 40
0.0061705924
 41
0.0112823085
 42
1.0386206835
  0
ELLIPSE
  5
631
100
AcDbEntity
  8
0
100
AcDbEllipse
 62
7
  6
CONTINUOUS
 10
-7.7036728672
 20
-21.8124361946
 30
0.0
 11
-0.4999904798
 21
0.5000285596
 31
0.0
 40
0.0061705924
 41
-1.0386206835
 42
-0.0112823085
  0
ELLIPSE
  5
632
100
AcDbEntity
  8
0
100
AcDbEllipse
 62
7
  6
CONTINUOUS
 10
-7.7036728672
 20
22.0950977464
 30
0.0
 11
0.4999904798
 21
0.5000285596
 31
0.0
 40
0.0061705924
 41
-3.1303103451
 42
-2.1029719701
  0
ELLIPSE
  5
633
100
AcDbEntity
  8
0
100
AcDbEllipse
 62
7
  6
CONTINUOUS
 10
7.4296184412
 20
22.0950977464
 30
0.0
 11
-0.4999904798
 21
0.5000285596
 31
0.0
 40
0.0061705924
 41
-4.1802133371
 42
-3.1528749621
  0
ELLIPSE
  5
634
100
AcDbEntity
  8
0
100
AcDbEllipse
 62
7
  6
CONTINUOUS
 10
-3.6937518536
 20
-23.3150270388
 30
0.0
 11
0.0
 21
0.5
 31
0.0
 40
0.0087268678
 41
-3.7136173455
 42
-3.1474104178
  0
ELLIPSE
  5
635
100
AcDbEntity
  8
0
100
AcDbEllipse
 62
7
  6
CONTINUOUS
 10
3.4196974277
 20
-23.3150270388
 30
0.0
 11
-0.0
 21
0.5
 31
0.0
 40
0.0087268678
 41
-3.1357748894
 42
-2.5695679617
  0
ELLIPSE
  5
636
100
AcDbEntity
  8
0
100
AcDbEllipse
 62
7
  6
CONTINUOUS
 10
3.4196974277
 20
23.5976885906
 30
0.0
 11
-0.0
 21
0.5
 31
0.0
 40
0.0087268678
 41
-0.5720246919
 42
-0.0058177642
  0
ELLIPSE
  5
637
100
AcDbEntity
  8
0
100
AcDbEllipse
 62
7
  6
CONTINUOUS
 10
-3.6937518536
 20
23.5976885906
 30
0.0
 11
0.0
 21
0.5
 31
0.0
 40
0.0087268678
 41
0.0058177642
 42
0.5720246919
  0
ELLIPSE
  5
638
100
AcDbEntity
  8
DRAFT
100
AcDbEllipse
 62
7
  6
CONTINUOUS
 10
-7.7036728672
 20
-20.8503013359
 30
0.0
 11
0.5
 21
0.0
 31
0.0
 40
0.0087268678
 41
-3.1241393611
 42
-1.9555768332
  0
ELLIPSE
  5
639
100
AcDbEntity
  8
DRAFT
100
AcDbEllipse
 62
7
  6
CONTINUOUS
 10
7.4296184412
 20
21.1329628877
 30
0.0
 11
0.5
 21
-0.0
 31
0.0
 40
0.0087268678
 41
0.0174532925
 42
1.1860158204
  0
ELLIPSE
  5
63A
100
AcDbEntity
  8
0
100
AcDbEllipse
 62
7
  6
CONTINUOUS
 10
-1.3457616965
 20
-23.6528480096
 30
0.0
 11
0.1664199338
 21
-0.1109450578
 31
0.0
 40
0.9999450019
 41
-0.9827748477
 42
0.5879707104
  0
ELLIPSE
  5
63B
100
AcDbEntity
  8
0
100
AcDbEllipse
 62
7
  6
CONTINUOUS
 10
-1.3457616965
 20
23.9355095614
 30
0.0
 11
-0.1664199338
 21
-0.1109450578
 31
0.0
 40
0.9999450019
 41
2.5536219432
 42
4.1243675013
  0
ELLIPSE
  5
63C
100
AcDbEntity
  8
0
100
AcDbEllipse
 62
7
  6
CONTINUOUS
 10
1.0717072705
 20
23.9355095614
 30
0.0
 11
-0.1664199338
 21
0.1109450578
 31
0.0
 40
0.9999450019
 41
-0.9827748477
 42
0.5879707104
  0
ELLIPSE
  5
63D
100
AcDbEntity
  8
0
100
AcDbEllipse
 62
7
  6
CONTINUOUS
 10
1.0717072705
 20
-23.6528480096
 30
0.0
 11
0.1664199338
 21
0.1109450578
 31
0.0
 40
0.9999450019
 41
2.5536219432
 42
4.1243675013
  0
ENDSEC
  0
SECTION
  2
OBJECTS
  0
DICTIONARY
  5
C
100
AcDbDictionary
280
0
281
1
  3
ACAD_GROUP
350
D
  3
ACAD_MLINESTYLE
350
17
  3
ACAD_LAYOUT
350
1A
  3
ACAD_PLOTSETTINGS
350
19
  3
ACAD_PLOTSTYLENAME
350
E
  0
DICTIONARY
  5
D
102
{ACAD_REACTORS
330
C
102
}
100
AcDbDictionary
280
0
281
1
  0
ACDBDICTIONARYWDFLT
  5
E
102
{ACAD_REACTORS
330
C
102
}
100
AcDbDictionary
281
1
  3
Normal
350
F
100
AcDbDictionaryWithDefault
340
F
  0
DICTIONARY
  5
17
102
{ACAD_REACTORS
330
C
102
}
100
AcDbDictionary
280
0
281
1
  3
Standard
350
18
  0
DICTIONARY
  5
19
102
{ACAD_REACTORS
330
C
102
}
100
AcDbDictionary
281
1
  0
DICTIONARY
  5
1A
102
{ACAD_REACTORS
330
C
102
}
100
AcDbDictionary
281
1
  3
Model
350
63E
  3
Layout1
350
63F
  0
ACDBPLACEHOLDER
  5
F
102
{ACAD_REACTORS
330
E
102
}
  0
MLINESTYLE
  5
18
102
{ACAD_REACTORS
330
17
102
}
100
AcDbMlineStyle
  2
STANDARD
 70
0
  3

 62
256
 51
90.0
 52
90.0
 71
2
 49
0.5
 62
256
  6
BYLAYER
 49
-0.5
 62
256
  6
BYLAYER
  0
LAYOUT
  5
63E
102
{ACAD_REACTORS
330
1A
102
}
100
AcDbPlotSettings
  1

  2
none_device
  4
ISO_A4_(297.00_x_210.00_MM)
  6

 40
0.0
 41
0.0
 42
0.0
 43
0.0
 44
297.0
 45
210.0
 46
0.0
 47
0.0
 48
0.0
 49
0.0
140
0.0
141
0.0
142
1.0
143
1.0
 70
1024
 72
1
 73
0
 74
0
  7

 75
0
147
1.0
148
0.0
149
0.0
100
AcDbLayout
  1
Model
 70
0
 71
0
 10
0.0
 20
0.0
 11
297.0
 21
210.0
 12
0.0
 22
0.0
 32
0.0
 14
0.0
 24
0.0
 34
0.0
 15
0.0
 25
0.0
 35
0.0
146
0.0
 13
0.0
 23
0.0
 33
0.0
 16
1.0
 26
0.0
 36
0.0
 17
0.0
 27
1.0
 37
0.0
 76
0
330
221
345
0
346
0
  0
LAYOUT
  5
63F
102
{ACAD_REACTORS
330
1A
102
}
100
AcDbPlotSettings
  1

  2
none_device
  4
ISO_A4_(297.00_x_210.00_MM)
  6

 40
0.0
 41
0.0
 42
0.0
 43
0.0
 44
297.0
 45
210.0
 46
0.0
 47
0.0
 48
0.0
 49
0.0
140
0.0
141
0.0
142
1.0
143
1.0
 70
0
 72
1
 73
0
 74
0
  7

 75
0
147
1.0
148
0.0
149
0.0
100
AcDbLayout
  1
Layout1
 70
0
 71
1
 10
0.0
 20
0.0
 11
297.0
 21
210.0
 12
0.0
 22
0.0
 32
0.0
 14
0.0
 24
0.0
 34
0.0
 15
0.0
 25
0.0
 35
0.0
146
0.0
 13
0.0
 23
0.0
 33
0.0
 16
1.0
 26
0.0
 36
0.0
 17
0.0
 27
1.0
 37
0.0
 76
0
330
222
345
0
346
0
  0
ENDSEC
  0
EOF
