  0
SECTION
  2
HEADER
  9
$ACADVER
  1
AC1015
  9
$DWGCODEPAGE
  3
ANSI_1252
  9
$EXTMAX
 10
297.0
 20
210.0
 30
0.0
  9
$EXTMIN
 10
0.0
 20
0.0
 30
0.0
  9
$LIMMIN
 10
0.0
 20
0.0
  9
$LIMMAX
 10
297.0
 20
210.0
  9
$VIEWCTR
 10
148.5
 20
105.0
  9
$VIEWSIZE
 40
210.0
  9
$CLAYER
  8
0
  9
$LTSCALE
 40
16.335
  9
$CELTYPE
  6
BYLAYER
  9
$DIMSCALE
 40
1.0
  9
$DIMASZ
 40
3.0
  9
$DIMEXO
 40
1.85625
  9
$DIMDLI
 40
11.286
  9
$DIMEXE
 40
5.346
  9
$DIMCEN
 40
2.673
  9
$DIMLFAC
 40
1.0
  9
$DIMBLK
  1
_FILLED
  9
$DIMTXT
 40
3.0
  9
$DIMTOL
 70
1
  9
$DIMLIM
 70
0
  9
$DIMTFAC
 40
1.0
  9
$DIMTP
 40
0.01
  9
$DIMTM
 40
0.01
  9
$PDMODE
 70
3
  9
$PDSIZE
 40
3.0
  9
$HANDSEED
  5
5E4
  9
$TILEMODE
 70
1
  9
$MEASUREMENT
 70
1
  9
$INSUNITS
 70
4
  0
ENDSEC
  0
SECTION
  2
CLASSES
  0
CLASS
  1
ACDBDICTIONARYWDFLT
  2
AcDbDictionaryWithDefault
  3
AutoCAD 2000
 90
0
280
0
281
0
  0
CLASS
  1
ACDBPLACEHOLDER
  2
AcDbPlaceHolder
  3
AutoCAD 2000
 90
0
280
0
281
0
  0
CLASS
  1
LAYOUT
  2
AcDbLayout
  3
AutoCAD 2000
 90
0
280
0
281
0
  0
ENDSEC
  0
SECTION
  2
TABLES
  0
TABLE
  2
VPORT
  5
8
100
AcDbSymbolTable
 70
2
  0
VPORT
  5
1F4
100
AcDbSymbolTableRecord
100
AcDbViewportTableRecord
  2
*ACTIVE
 70
0
 10
0.0
 20
0.0
 11
1.0
 21
1.0
 12
148.5
 22
105.0
 13
0.0
 23
0.0
 14
1.0
 24
1.0
 15
0.0
 25
0.0
 16
0.0
 26
0.0
 36
1.0
 17
0.0
 27
0.0
 37
0.0
 40
210.0
 41
1.4142857143
 42
50.0
 43
0.0
 44
0.0
 50
0.0
 51
0.0
 71
0
 72
100
 73
1
 74
1
 75
0
 76
0
 77
0
 78
0
  0
ENDTAB
  0
TABLE
  2
LTYPE
  5
5
100
AcDbSymbolTable
 70
6
  0
LTYPE
  5
14
100
AcDbSymbolTableRecord
100
AcDbLinetypeTableRecord
  2
BYBLOCK
 70
0
  3

 72
65
 73
0
 40
0.0
  0
LTYPE
  5
15
100
AcDbSymbolTableRecord
100
AcDbLinetypeTableRecord
  2
BYLAYER
 70
0
  3

 72
65
 73
0
 40
0.0
  0
LTYPE
  5
16
100
AcDbSymbolTableRecord
100
AcDbLinetypeTableRecord
  2
CONTINUOUS
 70
64
  3
Solid line
 72
65
 73
0
 40
0.0
  0
LTYPE
  5
1F5
100
AcDbSymbolTableRecord
100
AcDbLinetypeTableRecord
  2
CENTER
 70
64
  3
____ _ ____ _ ____ _ ____ _ ____ _ ____ _ ____
 72
65
 73
4
 40
0.6
 49
0.375
 74
0
 49
-0.075
 74
0
 49
0.075
 74
0
 49
-0.075
 74
0
  0
LTYPE
  5
1F6
100
AcDbSymbolTableRecord
100
AcDbLinetypeTableRecord
  2
HIDDEN
 70
64
  3
- - - - - - - - - - - - - - - - - - - -
 72
65
 73
2
 40
0.2
 49
0.1
 74
0
 49
-0.1
 74
0
  0
LTYPE
  5
1F7
100
AcDbSymbolTableRecord
100
AcDbLinetypeTableRecord
  2
PHANTOM
 70
64
  3
_____ _ _ _____ _ _ _____ _ _ _____
 72
65
 73
6
 40
0.8
 49
0.45
 74
0
 49
-0.05
 74
0
 49
0.1
 74
0
 49
-0.05
 74
0
 49
0.1
 74
0
 49
-0.05
 74
0
  0
LTYPE
  5
1F8
100
AcDbSymbolTableRecord
100
AcDbLinetypeTableRecord
  2
DOT
 70
64
  3
. . . . . . . . . . . . . . . . . . . .
 72
65
 73
2
 40
0.2
 49
0.1
 74
0
 49
-0.1
 74
0
  0
LTYPE
  5
1F9
100
AcDbSymbolTableRecord
100
AcDbLinetypeTableRecord
  2
DASHED
 70
64
  3
- - - - - - - - - - - - - - - - - - - -
 72
65
 73
2
 40
0.2
 49
0.1
 74
0
 49
-0.1
 74
0
  0
ENDTAB
  0
TABLE
  2
LAYER
  5
2
100
AcDbSymbolTable
 70
36
  0
LAYER
  5
10
100
AcDbSymbolTableRecord
100
AcDbLayerTableRecord
  2
0
 70
0
 62
7
  6
CONTINUOUS
370
-3
390
F
  0
LAYER
  5
1FA
100
AcDbSymbolTableRecord
100
AcDbLayerTableRecord
  2
DEFAULT_1
 70
0
 62
7
  6
CENTER
370
-3
390
F
  0
LAYER
  5
1FB
100
AcDbSymbolTableRecord
100
AcDbLayerTableRecord
  2
DEFAULT_2
 70
0
 62
7
  6
HIDDEN
370
-3
390
F
  0
LAYER
  5
1FC
100
AcDbSymbolTableRecord
100
AcDbLayerTableRecord
  2
DEFAULT_3
 70
0
 62
7
  6
PHANTOM
370
-3
390
F
  0
LAYER
  5
1FD
100
AcDbSymbolTableRecord
100
AcDbLayerTableRecord
  2
ASSI
 70
0
 62
7
  6
CONTINUOUS
370
-3
390
F
  0
LAYER
  5
1FE
100
AcDbSymbolTableRecord
100
AcDbLayerTableRecord
  2
COORDINATE
 70
0
 62
7
  6
CONTINUOUS
370
-3
390
F
  0
LAYER
  5
1FF
100
AcDbSymbolTableRecord
100
AcDbLayerTableRecord
  2
COPY_PUBLISH
 70
0
 62
7
  6
CONTINUOUS
370
-3
390
F
  0
LAYER
  5
200
100
AcDbSymbolTableRecord
100
AcDbLayerTableRecord
  2
COSMETIC
 70
0
 62
7
  6
CONTINUOUS
370
-3
390
F
  0
LAYER
  5
201
100
AcDbSymbolTableRecord
100
AcDbLayerTableRecord
  2
CURVE
 70
0
 62
7
  6
CONTINUOUS
370
-3
390
F
  0
LAYER
  5
202
100
AcDbSymbolTableRecord
100
AcDbLayerTableRecord
  2
DRAFT
 70
0
 62
7
  6
CONTINUOUS
370
-3
390
F
  0
LAYER
  5
203
100
AcDbSymbolTableRecord
100
AcDbLayerTableRecord
  2
GOLDORANGE
 70
0
 62
7
  6
CONTINUOUS
370
-3
390
F
  0
LAYER
  5
204
100
AcDbSymbolTableRecord
100
AcDbLayerTableRecord
  2
GRAUBLAU
 70
0
 62
7
  6
CONTINUOUS
370
-3
390
F
  0
LAYER
  5
205
100
AcDbSymbolTableRecord
100
AcDbLayerTableRecord
  2
HELLBLAU
 70
0
 62
7
  6
CONTINUOUS
370
-3
390
F
  0
LAYER
  5
206
100
AcDbSymbolTableRecord
100
AcDbLayerTableRecord
  2
HELLMAGENTA
 70
0
 62
7
  6
CONTINUOUS
370
-3
390
F
  0
LAYER
  5
207
100
AcDbSymbolTableRecord
100
AcDbLayerTableRecord
  2
IMPORT_IGES
 70
0
 62
7
  6
CONTINUOUS
370
-3
390
F
  0
LAYER
  5
208
100
AcDbSymbolTableRecord
100
AcDbLayerTableRecord
  2
INTF_BLANK
 70
0
 62
7
  6
CONTINUOUS
370
-3
390
F
  0
LAYER
  5
209
100
AcDbSymbolTableRecord
100
AcDbLayerTableRecord
  2
INTF_GREEN
 70
0
 62
7
  6
CONTINUOUS
370
-3
390
F
  0
LAYER
  5
20A
100
AcDbSymbolTableRecord
100
AcDbLayerTableRecord
  2
INTF_MAGENTA
 70
0
 62
7
  6
CONTINUOUS
370
-3
390
F
  0
LAYER
  5
20B
100
AcDbSymbolTableRecord
100
AcDbLayerTableRecord
  2
INTF_RED
 70
0
 62
7
  6
CONTINUOUS
370
-3
390
F
  0
LAYER
  5
20C
100
AcDbSymbolTableRecord
100
AcDbLayerTableRecord
  2
ORANGE
 70
0
 62
7
  6
CONTINUOUS
370
-3
390
F
  0
LAYER
  5
20D
100
AcDbSymbolTableRecord
100
AcDbLayerTableRecord
  2
PIANI
 70
0
 62
7
  6
CONTINUOUS
370
-3
390
F
  0
LAYER
  5
20E
100
AcDbSymbolTableRecord
100
AcDbLayerTableRecord
  2
PIANI_RIFERIMENTO
 70
0
 62
7
  6
CONTINUOUS
370
-3
390
F
  0
LAYER
  5
20F
100
AcDbSymbolTableRecord
100
AcDbLayerTableRecord
  2
RACCORDO
 70
0
 62
7
  6
CONTINUOUS
370
-3
390
F
  0
LAYER
  5
210
100
AcDbSymbolTableRecord
100
AcDbLayerTableRecord
  2
SMUSSO
 70
0
 62
7
  6
CONTINUOUS
370
-3
390
F
  0
LAYER
  5
211
100
AcDbSymbolTableRecord
100
AcDbLayerTableRecord
  2
SNAPLINE
 70
0
 62
7
  6
CONTINUOUS
370
-3
390
F
  0
LAYER
  5
212
100
AcDbSymbolTableRecord
100
AcDbLayerTableRecord
  2
SUPERFICI
 70
0
 62
7
  6
CONTINUOUS
370
-3
390
F
  0
LAYER
  5
213
100
AcDbSymbolTableRecord
100
AcDbLayerTableRecord
  2
TRASH
 70
0
 62
7
  6
CONTINUOUS
370
-3
390
F
  0
ENDTAB
  0
TABLE
  2
STYLE
  5
3
100
AcDbSymbolTable
 70
1
  0
STYLE
  5
11
100
AcDbSymbolTableRecord
100
AcDbTextStyleTableRecord
  2
STANDARD
 70
0
 40
0.0
 41
0.8
 50
0.0
 71
0
 42
0.2
  3
txt
  4

  0
STYLE
  5
214
100
AcDbSymbolTableRecord
100
AcDbTextStyleTableRecord
  2
TEXTSTYLE_1
 70
0
 40
0.0
 41
0.8
 50
0.0
 71
0
 42
0.2
  3
gdt
  4

  0
ENDTAB
  0
TABLE
  2
VIEW
  5
6
100
AcDbSymbolTable
 70
0
  0
ENDTAB
  0
TABLE
  2
UCS
  5
7
100
AcDbSymbolTable
 70
0
  0
ENDTAB
  0
TABLE
  2
APPID
  5
9
100
AcDbSymbolTable
 70
1
  0
APPID
  5
215
100
AcDbSymbolTableRecord
100
AcDbRegAppTableRecord
  2
ACAD
 70
0
  0
ENDTAB
  0
TABLE
  2
BLOCK_RECORD
  5
1
100
AcDbSymbolTable
 70
0
  0
BLOCK_RECORD
  5
216
100
AcDbSymbolTableRecord
100
AcDbBlockTableRecord
  2
*Model_Space
  0
BLOCK_RECORD
  5
217
100
AcDbSymbolTableRecord
100
AcDbBlockTableRecord
  2
*Paper_Space
  0
ENDTAB
  0
TABLE
  2
DIMSTYLE
  5
A
100
AcDbSymbolTable
 70
1
100
AcDbDimStyleTable
 71
0
  0
DIMSTYLE
105
218
100
AcDbSymbolTableRecord
100
AcDbDimStyleTableRecord
  2
STANDARD
 70
0
  3

  4

 40
1.0
 41
3.0
 42
0.0625
 43
0.38
 44
0.18
 45
0.0
 46
0.0
 47
0.01
 48
0.01
140
3.0
141
0.09
142
0.0
143
25.4
144
1.0
145
0.0
146
1.0
147
0.09
 71
1.0
 72
0.0
 73
0
 74
0
 75
0
 76
0
 77
1
 78
8
170
0
171
2
172
0
173
0
174
0
175
0
176
0
177
0
178
0
270
2
271
2
272
2
273
2
274
2
275
0
280
0
281
0
282
0
283
1
284
8
285
0
286
0
287
3
288
0
340
11
  0
ENDTAB
  0
ENDSEC
  0
SECTION
  2
BLOCKS
  0
BLOCK
  5
20
100
AcDbEntity
  8
0
100
AcDbBlockBegin
  2
*Model_Space
 70
0
 10
0.0
 20
0.0
 30
0.0
  3
*Model_Space
  1

  0
ENDBLK
  5
21
100
AcDbEntity
  8
0
100
AcDbBlockEnd
  0
BLOCK
  5
1C
100
AcDbEntity
  8
0
100
AcDbBlockBegin
  2
*Paper_Space
 70
0
 10
0.0
 20
0.0
 30
0.0
  3
*Paper_Space
  1

  0
ENDBLK
  5
1D
100
AcDbEntity
  8
0
100
AcDbBlockEnd
  0
ENDSEC
  0
SECTION
  2
ENTITIES
  0
LINE
  5
219
100
AcDbEntity
  8
RACCORDO
100
AcDbLine
 62
7
  6
CONTINUOUS
 10
-18.9225171653
 20
22.1560344131
 11
-22.2489636878
 21
18.8295878905
  0
LINE
  5
21A
100
AcDbEntity
  8
RACCORDO
100
AcDbLine
 62
253
  6
CONTINUOUS
 10
-22.2236100781
 20
18.8190860815
 11
-18.9120153563
 21
22.1306808033
  0
LINE
  5
21B
100
AcDbEntity
  8
RACCORDO
100
AcDbLine
 62
253
  6
CONTINUOUS
 10
-21.799362164
 20
18.3948381674
 11
-18.4877674422
 21
21.7064328892
  0
LINE
  5
21C
100
AcDbEntity
  8
RACCORDO
100
AcDbLine
 62
7
  6
CONTINUOUS
 10
-22.2489636878
 20
-18.7143011961
 11
-18.9225171653
 21
-22.0407477187
  0
LINE
  5
21D
100
AcDbEntity
  8
RACCORDO
100
AcDbLine
 62
253
  6
CONTINUOUS
 10
-18.9120153563
 20
-22.0153941089
 11
-22.2236100781
 21
-18.7037993871
  0
LINE
  5
21E
100
AcDbEntity
  8
RACCORDO
100
AcDbLine
 62
253
  6
CONTINUOUS
 10
-18.4877674422
 20
-21.5911461949
 11
-21.799362164
 21
-18.2795514731
  0
LINE
  5
21F
100
AcDbEntity
  8
DRAFT
100
AcDbLine
 62
7
  6
CONTINUOUS
 10
-20.2239536812
 20
16.8577721382
 11
-18.5502650696
 21
18.5314607498
  0
LINE
  5
220
100
AcDbEntity
  8
0
100
AcDbLine
 62
7
  6
CONTINUOUS
 10
-18.4763204196
 20
18.5314607498
 11
-20.003689693
 21
17.0040915144
  0
LINE
  5
221
100
AcDbEntity
  8
DRAFT
100
AcDbLine
 62
7
  6
CONTINUOUS
 10
-18.5502650696
 20
-18.4161740554
 11
-20.2239536812
 21
-16.7424854438
  0
LINE
  5
222
100
AcDbEntity
  8
0
100
AcDbLine
 62
7
  6
CONTINUOUS
 10
-20.0036896453
 20
-16.8888017045
 11
-18.4763173324
 21
-18.4161740554
  0
LINE
  5
223
100
AcDbEntity
  8
SMUSSO
100
AcDbLine
 62
7
  6
CONTINUOUS
 10
-12.1057890525
 20
23.8519905733
 11
-12.1001362786
 21
23.8576433472
  0
LINE
  5
224
100
AcDbEntity
  8
DRAFT
100
AcDbLine
 62
7
  6
CONTINUOUS
 10
-12.1088631464
 20
22.4489164794
 11
-12.1001362786
 21
22.4576433472
  0
LINE
  5
225
100
AcDbEntity
  8
RACCORDO
100
AcDbLine
 62
7
  6
CONTINUOUS
 10
20.9998732406
 20
-24.4423566528
 11
19.4998542022
 21
-24.4423566528
  0
LINE
  5
226
100
AcDbEntity
  8
RACCORDO
100
AcDbLine
 62
7
  6
CONTINUOUS
 10
2.6998732406
 20
-24.4423566528
 11
1.1998542022
 21
-24.4423566528
  0
LINE
  5
227
100
AcDbEntity
  8
RACCORDO
100
AcDbLine
 62
7
  6
CONTINUOUS
 10
-1.5001267594
 20
-24.4423566528
 11
-3.0001457978
 21
-24.4423566528
  0
LINE
  5
228
100
AcDbEntity
  8
RACCORDO
100
AcDbLine
 62
7
  6
CONTINUOUS
 10
-19.8001267594
 20
-24.4423566528
 11
-21.3001457978
 21
-24.4423566528
  0
LINE
  5
229
100
AcDbEntity
  8
RACCORDO
100
AcDbLine
 62
7
  6
CONTINUOUS
 10
-21.2935816081
 20
-24.4357924631
 11
-19.806690949
 21
-24.4357924631
  0
LINE
  5
22A
100
AcDbEntity
  8
RACCORDO
100
AcDbLine
 62
7
  6
CONTINUOUS
 10
-2.9935816081
 20
-24.4357924631
 11
-1.506690949
 21
-24.4357924631
  0
LINE
  5
22B
100
AcDbEntity
  8
RACCORDO
100
AcDbLine
 62
7
  6
CONTINUOUS
 10
1.2064183919
 20
-24.4357924631
 11
2.693309051
 21
-24.4357924631
  0
LINE
  5
22C
100
AcDbEntity
  8
RACCORDO
100
AcDbLine
 62
7
  6
CONTINUOUS
 10
19.5064183919
 20
-24.4357924631
 11
20.993309051
 21
-24.4357924631
  0
LINE
  5
22D
100
AcDbEntity
  8
RACCORDO
100
AcDbLine
 62
253
  6
CONTINUOUS
 10
0.9564279111
 20
-24.1858019824
 11
2.9432995317
 21
-24.1858019824
  0
LINE
  5
22E
100
AcDbEntity
  8
RACCORDO
100
AcDbLine
 62
253
  6
CONTINUOUS
 10
-1.2567004683
 20
-24.1858019824
 11
-3.2435720889
 21
-24.1858019824
  0
LINE
  5
22F
100
AcDbEntity
  8
RACCORDO
100
AcDbLine
 62
253
  6
CONTINUOUS
 10
19.2564279111
 20
-24.1858019824
 11
21.2432995317
 21
-24.1858019824
  0
LINE
  5
230
100
AcDbEntity
  8
RACCORDO
100
AcDbLine
 62
253
  6
CONTINUOUS
 10
-19.5567004683
 20
-24.1858019824
 11
-21.5435720889
 21
-24.1858019824
  0
LINE
  5
231
100
AcDbEntity
  8
RACCORDO
100
AcDbLine
 62
253
  6
CONTINUOUS
 10
0.9564279111
 20
-23.8866942201
 11
2.9432995317
 21
-23.8866942201
  0
LINE
  5
232
100
AcDbEntity
  8
RACCORDO
100
AcDbLine
 62
253
  6
CONTINUOUS
 10
-1.2567004683
 20
-23.8866942201
 11
-3.2435720889
 21
-23.8866942201
  0
LINE
  5
233
100
AcDbEntity
  8
RACCORDO
100
AcDbLine
 62
253
  6
CONTINUOUS
 10
19.2564279111
 20
-23.8866942201
 11
21.2432995317
 21
-23.8866942201
  0
LINE
  5
234
100
AcDbEntity
  8
RACCORDO
100
AcDbLine
 62
253
  6
CONTINUOUS
 10
-19.5567004683
 20
-23.8866942201
 11
-21.5435720889
 21
-23.8866942201
  0
LINE
  5
235
100
AcDbEntity
  8
DRAFT
100
AcDbLine
 62
7
  6
CONTINUOUS
 10
14.2998637214
 20
-23.7423566528
 11
11.7998637214
 21
-23.7423566528
  0
LINE
  5
236
100
AcDbEntity
  8
DRAFT
100
AcDbLine
 62
7
  6
CONTINUOUS
 10
10.3998637214
 20
-23.7423566528
 11
7.8998637214
 21
-23.7423566528
  0
LINE
  5
237
100
AcDbEntity
  8
DRAFT
100
AcDbLine
 62
7
  6
CONTINUOUS
 10
-8.2001362786
 20
-23.7423566528
 11
-10.7001362786
 21
-23.7423566528
  0
LINE
  5
238
100
AcDbEntity
  8
DRAFT
100
AcDbLine
 62
7
  6
CONTINUOUS
 10
-12.1001362786
 20
-23.7423566528
 11
-14.6001362786
 21
-23.7423566528
  0
LINE
  5
239
100
AcDbEntity
  8
SMUSSO
100
AcDbLine
 62
7
  6
CONTINUOUS
 10
-14.5944835047
 20
-23.7367038789
 11
-12.1057890525
 21
-23.7367038789
  0
LINE
  5
23A
100
AcDbEntity
  8
SMUSSO
100
AcDbLine
 62
7
  6
CONTINUOUS
 10
-10.6944835047
 20
-23.7367038789
 11
-8.2057890525
 21
-23.7367038789
  0
LINE
  5
23B
100
AcDbEntity
  8
SMUSSO
100
AcDbLine
 62
7
  6
CONTINUOUS
 10
7.9055164953
 20
-23.7367038789
 11
10.3942109475
 21
-23.7367038789
  0
LINE
  5
23C
100
AcDbEntity
  8
SMUSSO
100
AcDbLine
 62
7
  6
CONTINUOUS
 10
11.8055164953
 20
-23.7367038789
 11
14.2942109475
 21
-23.7367038789
  0
LINE
  5
23D
100
AcDbEntity
  8
RACCORDO
100
AcDbLine
 62
253
  6
CONTINUOUS
 10
20.993309051
 20
-23.6701878692
 11
19.5064183919
 21
-23.6701878692
  0
LINE
  5
23E
100
AcDbEntity
  8
RACCORDO
100
AcDbLine
 62
253
  6
CONTINUOUS
 10
2.693309051
 20
-23.6701878692
 11
1.2064183919
 21
-23.6701878692
  0
LINE
  5
23F
100
AcDbEntity
  8
RACCORDO
100
AcDbLine
 62
253
  6
CONTINUOUS
 10
-1.506690949
 20
-23.6701878692
 11
-2.9935816081
 21
-23.6701878692
  0
LINE
  5
240
100
AcDbEntity
  8
RACCORDO
100
AcDbLine
 62
253
  6
CONTINUOUS
 10
-19.806690949
 20
-23.6701878692
 11
-21.2935816081
 21
-23.6701878692
  0
LINE
  5
241
100
AcDbEntity
  8
SMUSSO
100
AcDbLine
 62
7
  6
CONTINUOUS
 10
-12.1057890525
 20
-23.7367038789
 11
-12.1001362786
 21
-23.7423566528
  0
LINE
  5
242
100
AcDbEntity
  8
DRAFT
100
AcDbLine
 62
7
  6
CONTINUOUS
 10
-12.1001362786
 20
-22.3423566528
 11
-12.1088631464
 21
-22.333629785
  0
LINE
  5
243
100
AcDbEntity
  8
RACCORDO
100
AcDbLine
 62
253
  6
CONTINUOUS
 10
-21.5435720889
 20
-23.8866942201
 11
-21.5501362786
 21
-23.4524219513
  0
LINE
  5
244
100
AcDbEntity
  8
RACCORDO
100
AcDbLine
 62
253
  6
CONTINUOUS
 10
-21.2935816081
 20
-23.6701878692
 11
-21.3012176175
 21
-23.1650063836
  0
LINE
  5
245
100
AcDbEntity
  8
DRAFT
100
AcDbLine
 62
7
  6
CONTINUOUS
 10
-22.6501362786
 20
-0.3408642113
 11
-22.6501362786
 21
0.4561509057
  0
LINE
  5
246
100
AcDbEntity
  8
DRAFT
100
AcDbLine
 62
7
  6
CONTINUOUS
 10
-22.6243920186
 20
0.5076433472
 11
-22.6243920186
 21
-0.3923566528
  0
LINE
  5
247
100
AcDbEntity
  8
RACCORDO
100
AcDbLine
 62
7
  6
CONTINUOUS
 10
-22.5501488081
 20
21.9572385775
 11
-22.5505685316
 21
5.2148421211
  0
LINE
  5
248
100
AcDbEntity
  8
RACCORDO
100
AcDbLine
 62
7
  6
CONTINUOUS
 10
-22.5505685316
 20
-5.0995554267
 11
-22.5501488081
 21
-21.8419518831
  0
LINE
  5
249
100
AcDbEntity
  8
RACCORDO
100
AcDbLine
 62
7
  6
CONTINUOUS
 10
-22.5418457542
 20
-21.8336488235
 11
-22.5418457542
 21
-18.0072213394
  0
LINE
  5
24A
100
AcDbEntity
  8
RACCORDO
100
AcDbLine
 62
7
  6
CONTINUOUS
 10
-22.5418457542
 20
18.1225080338
 11
-22.5418457542
 21
21.9489355179
  0
LINE
  5
24B
100
AcDbEntity
  8
DRAFT
100
AcDbLine
 62
7
  6
CONTINUOUS
 10
-22.5243920186
 20
5.0576433472
 11
-22.5243920186
 21
-4.9423566528
  0
LINE
  5
24C
100
AcDbEntity
  8
RACCORDO
100
AcDbLine
 62
253
  6
CONTINUOUS
 10
-22.5164921444
 20
-17.9967195304
 11
-22.5164921444
 21
18.1120062248
  0
LINE
  5
24D
100
AcDbEntity
  8
RACCORDO
100
AcDbLine
 62
253
  6
CONTINUOUS
 10
-21.9165149906
 20
-17.9967195304
 11
-21.9165149906
 21
18.1120062248
  0
LINE
  5
24E
100
AcDbEntity
  8
RACCORDO
100
AcDbLine
 62
7
  6
CONTINUOUS
 10
-21.5501362786
 20
-24.192366172
 11
-21.5501362786
 21
-22.3423566528
  0
LINE
  5
24F
100
AcDbEntity
  8
RACCORDO
100
AcDbLine
 62
7
  6
CONTINUOUS
 10
-21.5501362786
 20
22.4576433472
 11
-21.5501362786
 21
24.3076528664
  0
LINE
  5
250
100
AcDbEntity
  8
RACCORDO
100
AcDbLine
 62
7
  6
CONTINUOUS
 10
-21.5435720889
 20
24.3010886768
 11
-21.5435720889
 21
24.0019809145
  0
LINE
  5
251
100
AcDbEntity
  8
RACCORDO
100
AcDbLine
 62
7
  6
CONTINUOUS
 10
-21.5435720889
 20
-24.1858019824
 11
-21.5435720889
 21
-23.8866942201
  0
LINE
  5
252
100
AcDbEntity
  8
RACCORDO
100
AcDbLine
 62
253
  6
CONTINUOUS
 10
-21.2935816081
 20
24.5510791575
 11
-21.2935816081
 21
23.7854745635
  0
LINE
  5
253
100
AcDbEntity
  8
RACCORDO
100
AcDbLine
 62
253
  6
CONTINUOUS
 10
-21.2935816081
 20
-24.4357924631
 11
-21.2935816081
 21
-23.6701878692
  0
LINE
  5
254
100
AcDbEntity
  8
RACCORDO
100
AcDbLine
 62
253
  6
CONTINUOUS
 10
-21.5435720889
 20
24.0019809145
 11
-21.5501362786
 21
23.5677086457
  0
LINE
  5
255
100
AcDbEntity
  8
RACCORDO
100
AcDbLine
 62
253
  6
CONTINUOUS
 10
-21.2935816081
 20
23.7854745635
 11
-21.3012176175
 21
23.280293078
  0
LINE
  5
256
100
AcDbEntity
  8
DRAFT
100
AcDbLine
 62
7
  6
CONTINUOUS
 10
-22.5505685316
 20
-5.0995554267
 11
-22.5243920186
 21
-4.9423566528
  0
LINE
  5
257
100
AcDbEntity
  8
SMUSSO
100
AcDbLine
 62
7
  6
CONTINUOUS
 10
-8.2001362786
 20
23.8576433472
 11
-8.2057890525
 21
23.8519905733
  0
LINE
  5
258
100
AcDbEntity
  8
DRAFT
100
AcDbLine
 62
7
  6
CONTINUOUS
 10
-8.2088631464
 20
22.4489164794
 11
-8.2001362786
 21
22.4576433472
  0
LINE
  5
259
100
AcDbEntity
  8
SMUSSO
100
AcDbLine
 62
7
  6
CONTINUOUS
 10
-14.5914094108
 20
-23.233629785
 11
-12.1088631464
 21
-23.233629785
  0
LINE
  5
25A
100
AcDbEntity
  8
SMUSSO
100
AcDbLine
 62
7
  6
CONTINUOUS
 10
-10.6914094108
 20
-23.233629785
 11
-8.2088631464
 21
-23.233629785
  0
LINE
  5
25B
100
AcDbEntity
  8
SMUSSO
100
AcDbLine
 62
7
  6
CONTINUOUS
 10
7.9085905892
 20
-23.233629785
 11
10.3911368536
 21
-23.233629785
  0
LINE
  5
25C
100
AcDbEntity
  8
SMUSSO
100
AcDbLine
 62
7
  6
CONTINUOUS
 10
11.8085905892
 20
-23.233629785
 11
14.2911368536
 21
-23.233629785
  0
LINE
  5
25D
100
AcDbEntity
  8
RACCORDO
100
AcDbLine
 62
7
  6
CONTINUOUS
 10
-21.3012176175
 20
-23.1650063836
 11
-19.7990549397
 21
-23.1650063836
  0
LINE
  5
25E
100
AcDbEntity
  8
RACCORDO
100
AcDbLine
 62
7
  6
CONTINUOUS
 10
21.0009450603
 20
-23.1650063836
 11
19.4987823825
 21
-23.1650063836
  0
LINE
  5
25F
100
AcDbEntity
  8
RACCORDO
100
AcDbLine
 62
7
  6
CONTINUOUS
 10
1.1987823825
 20
-23.1650063836
 11
2.7009450603
 21
-23.1650063836
  0
LINE
  5
260
100
AcDbEntity
  8
RACCORDO
100
AcDbLine
 62
7
  6
CONTINUOUS
 10
-1.4990549397
 20
-23.1650063836
 11
-3.0012176175
 21
-23.1650063836
  0
LINE
  5
261
100
AcDbEntity
  8
RACCORDO
100
AcDbLine
 62
7
  6
CONTINUOUS
 10
-22.0496441251
 20
-22.3423566528
 11
-21.5501362786
 21
-22.3423566528
  0
LINE
  5
262
100
AcDbEntity
  8
DRAFT
100
AcDbLine
 62
7
  6
CONTINUOUS
 10
-12.1001362786
 20
-22.3423566528
 11
-10.7001362786
 21
-22.3423566528
  0
LINE
  5
263
100
AcDbEntity
  8
DRAFT
100
AcDbLine
 62
7
  6
CONTINUOUS
 10
7.8998637214
 20
-22.3423566528
 11
-8.2001362786
 21
-22.3423566528
  0
LINE
  5
264
100
AcDbEntity
  8
DRAFT
100
AcDbLine
 62
7
  6
CONTINUOUS
 10
10.3998637214
 20
-22.3423566528
 11
11.7998637214
 21
-22.3423566528
  0
LINE
  5
265
100
AcDbEntity
  8
DRAFT
100
AcDbLine
 62
7
  6
CONTINUOUS
 10
14.2998637214
 20
-22.3423566528
 11
21.2498637214
 21
-22.3423566528
  0
LINE
  5
266
100
AcDbEntity
  8
RACCORDO
100
AcDbLine
 62
7
  6
CONTINUOUS
 10
21.2498637214
 20
-22.3423566528
 11
21.7493715679
 21
-22.3423566528
  0
LINE
  5
267
100
AcDbEntity
  8
DRAFT
100
AcDbLine
 62
7
  6
CONTINUOUS
 10
-14.6001362786
 20
-22.3423566528
 11
-21.5501362786
 21
-22.3423566528
  0
LINE
  5
268
100
AcDbEntity
  8
RACCORDO
100
AcDbLine
 62
7
  6
CONTINUOUS
 10
21.7415922355
 20
-22.333629785
 11
17.9151647514
 21
-22.333629785
  0
LINE
  5
269
100
AcDbEntity
  8
DRAFT
100
AcDbLine
 62
7
  6
CONTINUOUS
 10
-14.5914094108
 20
-22.333629785
 11
-12.1088631464
 21
-22.333629785
  0
LINE
  5
26A
100
AcDbEntity
  8
DRAFT
100
AcDbLine
 62
7
  6
CONTINUOUS
 10
-10.6914094108
 20
-22.333629785
 11
-8.2088631464
 21
-22.333629785
  0
LINE
  5
26B
100
AcDbEntity
  8
DRAFT
100
AcDbLine
 62
7
  6
CONTINUOUS
 10
7.9085905892
 20
-22.333629785
 11
10.3911368536
 21
-22.333629785
  0
LINE
  5
26C
100
AcDbEntity
  8
DRAFT
100
AcDbLine
 62
7
  6
CONTINUOUS
 10
11.8085905892
 20
-22.333629785
 11
14.2911368536
 21
-22.333629785
  0
LINE
  5
26D
100
AcDbEntity
  8
RACCORDO
100
AcDbLine
 62
7
  6
CONTINUOUS
 10
-18.2154373086
 20
-22.333629785
 11
-22.0418647927
 21
-22.333629785
  0
LINE
  5
26E
100
AcDbEntity
  8
RACCORDO
100
AcDbLine
 62
253
  6
CONTINUOUS
 10
17.9046629424
 20
-22.3082761752
 11
-18.2049354995
 21
-22.3082761752
  0
LINE
  5
26F
100
AcDbEntity
  8
RACCORDO
100
AcDbLine
 62
253
  6
CONTINUOUS
 10
17.9046629424
 20
-21.7082990214
 11
-18.2049354995
 21
-21.7082990214
  0
LINE
  5
270
100
AcDbEntity
  8
SMUSSO
100
AcDbLine
 62
7
  6
CONTINUOUS
 10
-8.2057890525
 20
-23.7367038789
 11
-8.2001362786
 21
-23.7423566528
  0
LINE
  5
271
100
AcDbEntity
  8
DRAFT
100
AcDbLine
 62
7
  6
CONTINUOUS
 10
-8.2088631464
 20
-22.333629785
 11
-8.2001362786
 21
-22.3423566528
  0
LINE
  5
272
100
AcDbEntity
  8
DRAFT
100
AcDbLine
 62
7
  6
CONTINUOUS
 10
-22.5505685316
 20
5.2148421211
 11
-22.5243920186
 21
5.0576433472
  0
LINE
  5
273
100
AcDbEntity
  8
RACCORDO
100
AcDbLine
 62
253
  6
CONTINUOUS
 10
-19.806690949
 20
23.7854745635
 11
-19.7990549397
 21
23.280293078
  0
LINE
  5
274
100
AcDbEntity
  8
RACCORDO
100
AcDbLine
 62
253
  6
CONTINUOUS
 10
-19.5567004683
 20
24.0019809145
 11
-19.5501362786
 21
23.5677086457
  0
LINE
  5
275
100
AcDbEntity
  8
DRAFT
100
AcDbLine
 62
7
  6
CONTINUOUS
 10
-20.276318876
 20
3.8196822436
 11
-20.276318876
 21
-3.7043955492
  0
LINE
  5
276
100
AcDbEntity
  8
DRAFT
100
AcDbLine
 62
7
  6
CONTINUOUS
 10
-20.2239536812
 20
-16.7424854438
 11
-20.2239536812
 21
-13.2509607997
  0
LINE
  5
277
100
AcDbEntity
  8
DRAFT
100
AcDbLine
 62
7
  6
CONTINUOUS
 10
-20.2239536812
 20
-12.6337525059
 11
-20.2239536812
 21
-3.7043922787
  0
LINE
  5
278
100
AcDbEntity
  8
DRAFT
100
AcDbLine
 62
7
  6
CONTINUOUS
 10
-20.2239536812
 20
3.8196789731
 11
-20.2239536812
 21
12.7490392003
  0
LINE
  5
279
100
AcDbEntity
  8
DRAFT
100
AcDbLine
 62
7
  6
CONTINUOUS
 10
-20.2239536812
 20
13.3662474941
 11
-20.2239536812
 21
16.8577721382
  0
LINE
  5
27A
100
AcDbEntity
  8
DRAFT
100
AcDbLine
 62
7
  6
CONTINUOUS
 10
-20.1750794994
 20
-3.4004304294
 11
-20.1750794994
 21
-1.6028296918
  0
LINE
  5
27B
100
AcDbEntity
  8
DRAFT
100
AcDbLine
 62
7
  6
CONTINUOUS
 10
-20.1750794994
 20
1.7181163862
 11
-20.1750794994
 21
3.5157171238
  0
LINE
  5
27C
100
AcDbEntity
  8
DRAFT
100
AcDbLine
 62
7
  6
CONTINUOUS
 10
-20.1646064604
 20
-1.5923566528
 11
-20.1646064604
 21
1.7076433472
  0
LINE
  5
27D
100
AcDbEntity
  8
0
100
AcDbLine
 62
7
  6
CONTINUOUS
 10
-20.150136302
 20
16.6505381236
 11
-20.1501362838
 21
3.7576449047
  0
LINE
  5
27E
100
AcDbEntity
  8
SUPERFICI
100
AcDbLine
 62
7
  6
CONTINUOUS
 10
-20.1501362838
 20
3.7576449047
 11
-20.1501362837
 21
3.6576431275
  0
LINE
  5
27F
100
AcDbEntity
  8
SUPERFICI
100
AcDbLine
 62
7
  6
CONTINUOUS
 10
-20.1501362735
 20
-3.5423568725
 11
-20.1501362734
 21
-3.6423550953
  0
LINE
  5
280
100
AcDbEntity
  8
0
100
AcDbLine
 62
7
  6
CONTINUOUS
 10
-20.1501362734
 20
-3.6423550953
 11
-20.1501362552
 21
-16.5352483141
  0
LINE
  5
281
100
AcDbEntity
  8
SUPERFICI
100
AcDbLine
 62
7
  6
CONTINUOUS
 10
-20.1501362768
 20
-1.1923555606
 11
-20.1501362803
 21
1.3076444392
  0
LINE
  5
282
100
AcDbEntity
  8
SUPERFICI
100
AcDbLine
 62
7
  6
CONTINUOUS
 10
-20.0501362735
 20
-3.5423567128
 11
-20.0501362759
 21
-1.8423553254
  0
LINE
  5
283
100
AcDbEntity
  8
SUPERFICI
100
AcDbLine
 62
7
  6
CONTINUOUS
 10
-20.0501362813
 20
1.9576446746
 11
-20.0501362837
 21
3.6576432872
  0
LINE
  5
284
100
AcDbEntity
  8
RACCORDO
100
AcDbLine
 62
253
  6
CONTINUOUS
 10
-19.806690949
 20
24.5510791575
 11
-19.806690949
 21
23.7854745635
  0
LINE
  5
285
100
AcDbEntity
  8
RACCORDO
100
AcDbLine
 62
253
  6
CONTINUOUS
 10
-19.806690949
 20
-23.6701878692
 11
-19.806690949
 21
-24.4357924631
  0
LINE
  5
286
100
AcDbEntity
  8
RACCORDO
100
AcDbLine
 62
7
  6
CONTINUOUS
 10
-19.5567004683
 20
24.3010886768
 11
-19.5567004683
 21
24.0019809145
  0
LINE
  5
287
100
AcDbEntity
  8
RACCORDO
100
AcDbLine
 62
7
  6
CONTINUOUS
 10
-19.5567004683
 20
-23.8866942201
 11
-19.5567004683
 21
-24.1858019824
  0
LINE
  5
288
100
AcDbEntity
  8
RACCORDO
100
AcDbLine
 62
7
  6
CONTINUOUS
 10
-19.5501362786
 20
24.3076528664
 11
-19.5501362786
 21
22.4576433472
  0
LINE
  5
289
100
AcDbEntity
  8
RACCORDO
100
AcDbLine
 62
7
  6
CONTINUOUS
 10
-19.5501362786
 20
-22.3423566528
 11
-19.5501362786
 21
-24.192366172
  0
LINE
  5
28A
100
AcDbEntity
  8
RACCORDO
100
AcDbLine
 62
253
  6
CONTINUOUS
 10
-19.2571487702
 20
-1.8423552498
 11
-19.2571487702
 21
-1.6028296918
  0
LINE
  5
28B
100
AcDbEntity
  8
RACCORDO
100
AcDbLine
 62
253
  6
CONTINUOUS
 10
-19.2571487702
 20
1.7181163862
 11
-19.2571487702
 21
1.9576447502
  0
LINE
  5
28C
100
AcDbEntity
  8
RACCORDO
100
AcDbLine
 62
253
  6
CONTINUOUS
 10
-19.0571792311
 20
-1.8423552307
 11
-19.0571792311
 21
-1.5993996054
  0
LINE
  5
28D
100
AcDbEntity
  8
RACCORDO
100
AcDbLine
 62
253
  6
CONTINUOUS
 10
-19.0571792311
 20
1.7146862997
 11
-19.0571792311
 21
1.9576447693
  0
LINE
  5
28E
100
AcDbEntity
  8
DRAFT
100
AcDbLine
 62
7
  6
CONTINUOUS
 10
-19.0501362786
 20
1.95764477
 11
-19.0501362786
 21
1.7076433472
  0
LINE
  5
28F
100
AcDbEntity
  8
DRAFT
100
AcDbLine
 62
7
  6
CONTINUOUS
 10
-19.0501362786
 20
-1.5923566528
 11
-19.0501362786
 21
-1.84235523
  0
LINE
  5
290
100
AcDbEntity
  8
RACCORDO
100
AcDbLine
 62
253
  6
CONTINUOUS
 10
-19.7990549397
 20
-23.1650063836
 11
-19.806690949
 21
-23.6701878692
  0
LINE
  5
291
100
AcDbEntity
  8
RACCORDO
100
AcDbLine
 62
253
  6
CONTINUOUS
 10
-19.5501362786
 20
-23.4524219513
 11
-19.5567004683
 21
-23.8866942201
  0
LINE
  5
292
100
AcDbEntity
  8
DRAFT
100
AcDbLine
 62
7
  6
CONTINUOUS
 10
-20.2239536812
 20
3.8196789731
 11
-20.2501362786
 21
3.7410705747
  0
LINE
  5
293
100
AcDbEntity
  8
DRAFT
100
AcDbLine
 62
7
  6
CONTINUOUS
 10
-22.6501362786
 20
0.4561509057
 11
-22.6243920186
 21
0.5076433472
  0
LINE
  5
294
100
AcDbEntity
  8
DRAFT
100
AcDbLine
 62
7
  6
CONTINUOUS
 10
12.673681124
 20
-20.0161740554
 11
11.4084678683
 21
-20.0161740554
  0
LINE
  5
295
100
AcDbEntity
  8
DRAFT
100
AcDbLine
 62
7
  6
CONTINUOUS
 10
10.7912595745
 20
-20.0161740554
 11
-11.0915321317
 21
-20.0161740554
  0
LINE
  5
296
100
AcDbEntity
  8
DRAFT
100
AcDbLine
 62
7
  6
CONTINUOUS
 10
-11.7087404255
 20
-20.0161740554
 11
-12.9739536812
 21
-20.0161740554
  0
LINE
  5
297
100
AcDbEntity
  8
0
100
AcDbLine
 62
7
  6
CONTINUOUS
 10
12.673681124
 20
-19.9423550913
 11
-12.9739536812
 21
-19.9423551275
  0
LINE
  5
298
100
AcDbEntity
  8
0
100
AcDbLine
 62
7
  6
CONTINUOUS
 10
1.3498637482
 20
-18.942355065
 11
-1.6501362518
 21
-18.9423550692
  0
LINE
  5
299
100
AcDbEntity
  8
DRAFT
100
AcDbLine
 62
7
  6
CONTINUOUS
 10
-22.6501362786
 20
-0.3408642113
 11
-22.6243920186
 21
-0.3923566528
  0
LINE
  5
29A
100
AcDbEntity
  8
DRAFT
100
AcDbLine
 62
7
  6
CONTINUOUS
 10
-20.2239536812
 20
-3.7043922787
 11
-20.2501362786
 21
-3.6257838803
  0
LINE
  5
29B
100
AcDbEntity
  8
0
100
AcDbLine
 62
7
  6
CONTINUOUS
 10
-18.7501362838
 20
3.7576448503
 11
-18.7501362734
 21
-3.6423551497
  0
LINE
  5
29C
100
AcDbEntity
  8
RACCORDO
100
AcDbLine
 62
253
  6
CONTINUOUS
 10
-18.2049354995
 20
22.4235628696
 11
-18.2049354995
 21
21.8235857158
  0
LINE
  5
29D
100
AcDbEntity
  8
RACCORDO
100
AcDbLine
 62
253
  6
CONTINUOUS
 10
-18.2049354995
 20
-22.3082761752
 11
-18.2049354995
 21
-21.7082990214
  0
LINE
  5
29E
100
AcDbEntity
  8
0
100
AcDbLine
 62
7
  6
CONTINUOUS
 10
-17.7501362838
 20
3.7576449081
 11
-17.7501362734
 21
-3.6423550919
  0
LINE
  5
29F
100
AcDbEntity
  8
DRAFT
100
AcDbLine
 62
7
  6
CONTINUOUS
 10
-20.2710890331
 20
-3.6886932615
 11
-20.1750794994
 21
-3.4004304294
  0
LINE
  5
2A0
100
AcDbEntity
  8
0
100
AcDbLine
 62
7
  6
CONTINUOUS
 10
-1.0001362503
 20
-18.4423550683
 11
0.6998637487
 21
-18.4423550659
  0
LINE
  5
2A1
100
AcDbEntity
  8
RACCORDO
100
AcDbLine
 62
7
  6
CONTINUOUS
 10
18.2499925124
 20
-18.4161740554
 11
12.9736354326
 21
-18.4161740554
  0
LINE
  5
2A2
100
AcDbEntity
  8
RACCORDO
100
AcDbLine
 62
7
  6
CONTINUOUS
 10
-13.2739079897
 20
-18.4161740554
 11
-18.5502650696
 21
-18.4161740554
  0
LINE
  5
2A3
100
AcDbEntity
  8
0
100
AcDbLine
 62
253
  6
CONTINUOUS
 10
-18.5501362527
 20
-18.3423551353
 11
-12.6501362527
 21
-18.3423551176
  0
LINE
  5
2A4
100
AcDbEntity
  8
0
100
AcDbLine
 62
253
  6
CONTINUOUS
 10
12.3498637473
 20
-18.3423550824
 11
18.2498637473
 21
-18.3423550835
  0
LINE
  5
2A5
100
AcDbEntity
  8
0
100
AcDbLine
 62
7
  6
CONTINUOUS
 10
-18.750136253
 20
-18.1423550933
 11
-12.850136253
 21
-18.142355085
  0
LINE
  5
2A6
100
AcDbEntity
  8
0
100
AcDbLine
 62
7
  6
CONTINUOUS
 10
18.449863747
 20
-18.1423550409
 11
12.549863747
 21
-18.1423550492
  0
LINE
  5
2A7
100
AcDbEntity
  8
0
100
AcDbLine
 62
7
  6
CONTINUOUS
 10
0.6998637448
 20
-18.1423550659
 11
-0.000136253
 21
-18.1423550669
  0
LINE
  5
2A8
100
AcDbEntity
  8
0
100
AcDbLine
 62
7
  6
CONTINUOUS
 10
-0.300136253
 20
-18.1423550673
 11
-1.0001362552
 21
-18.1423550683
  0
LINE
  5
2A9
100
AcDbEntity
  8
RACCORDO
100
AcDbLine
 62
253
  6
CONTINUOUS
 10
-22.5164921444
 20
-17.9967195304
 11
-21.9165149906
 21
-17.9967195304
  0
LINE
  5
2AA
100
AcDbEntity
  8
RACCORDO
100
AcDbLine
 62
253
  6
CONTINUOUS
 10
22.2162195872
 20
-17.9967195304
 11
21.6162424334
 21
-17.9967195304
  0
LINE
  5
2AB
100
AcDbEntity
  8
DRAFT
100
AcDbLine
 62
7
  6
CONTINUOUS
 10
-20.1750794994
 20
3.5157171238
 11
-20.2710890331
 21
3.8039799559
  0
LINE
  5
2AC
100
AcDbEntity
  8
SMUSSO
100
AcDbLine
 62
7
  6
CONTINUOUS
 10
-14.5914094108
 20
23.3489164794
 11
-14.5944835047
 21
23.8519905733
  0
LINE
  5
2AD
100
AcDbEntity
  8
DRAFT
100
AcDbLine
 62
7
  6
CONTINUOUS
 10
-14.6001362786
 20
-23.7423566528
 11
-14.6001362786
 21
-22.3423566528
  0
LINE
  5
2AE
100
AcDbEntity
  8
DRAFT
100
AcDbLine
 62
7
  6
CONTINUOUS
 10
-14.6001362786
 20
22.4576433472
 11
-14.6001362786
 21
23.8576433472
  0
LINE
  5
2AF
100
AcDbEntity
  8
SMUSSO
100
AcDbLine
 62
7
  6
CONTINUOUS
 10
-14.5914094108
 20
23.3489164794
 11
-14.5914094108
 21
22.4489164794
  0
LINE
  5
2B0
100
AcDbEntity
  8
SMUSSO
100
AcDbLine
 62
7
  6
CONTINUOUS
 10
-14.5914094108
 20
-22.333629785
 11
-14.5914094108
 21
-23.233629785
  0
LINE
  5
2B1
100
AcDbEntity
  8
SMUSSO
100
AcDbLine
 62
7
  6
CONTINUOUS
 10
-14.5944835047
 20
-23.7367038789
 11
-14.5914094108
 21
-23.233629785
  0
LINE
  5
2B2
100
AcDbEntity
  8
0
100
AcDbLine
 62
7
  6
CONTINUOUS
 10
-1.0001362541
 20
-15.7423550683
 11
-0.3001362563
 21
-15.7423550673
  0
LINE
  5
2B3
100
AcDbEntity
  8
0
100
AcDbLine
 62
7
  6
CONTINUOUS
 10
-0.0001362563
 20
-15.7423550669
 11
0.6998637443
 21
-15.7423550659
  0
LINE
  5
2B4
100
AcDbEntity
  8
0
100
AcDbLine
 62
7
  6
CONTINUOUS
 10
0.699863741
 20
-15.4423550659
 11
-1.000136259
 21
-15.4423550683
  0
LINE
  5
2B5
100
AcDbEntity
  8
0
100
AcDbLine
 62
7
  6
CONTINUOUS
 10
-1.6501362575
 20
-14.9423550692
 11
1.3498637425
 21
-14.942355065
  0
LINE
  5
2B6
100
AcDbEntity
  8
0
100
AcDbLine
 62
7
  6
CONTINUOUS
 10
11.0998637411
 20
-13.9423550466
 11
-9.1001362589
 21
-13.942355075
  0
LINE
  5
2B7
100
AcDbEntity
  8
SMUSSO
100
AcDbLine
 62
7
  6
CONTINUOUS
 10
-12.1088631464
 20
-23.233629785
 11
-12.1057890525
 21
-23.7367038789
  0
LINE
  5
2B8
100
AcDbEntity
  8
RACCORDO
100
AcDbLine
 62
7
  6
CONTINUOUS
 10
-12.9739536812
 20
-20.0161740554
 11
-12.9739536812
 21
-18.716128364
  0
LINE
  5
2B9
100
AcDbEntity
  8
RACCORDO
100
AcDbLine
 62
7
  6
CONTINUOUS
 10
-12.9739536812
 20
18.8314150583
 11
-12.9739536812
 21
20.1314607498
  0
LINE
  5
2BA
100
AcDbEntity
  8
0
100
AcDbLine
 62
253
  6
CONTINUOUS
 10
-12.8501363067
 20
20.0576448727
 11
-12.8501363042
 21
18.2576448821
  0
LINE
  5
2BB
100
AcDbEntity
  8
0
100
AcDbLine
 62
253
  6
CONTINUOUS
 10
-12.850136253
 20
-18.1423551179
 11
-12.8501362504
 21
-19.9423551273
  0
LINE
  5
2BC
100
AcDbEntity
  8
0
100
AcDbLine
 62
7
  6
CONTINUOUS
 10
-12.6501363067
 20
20.0576449153
 11
-12.6501363045
 21
18.4576449153
  0
LINE
  5
2BD
100
AcDbEntity
  8
0
100
AcDbLine
 62
7
  6
CONTINUOUS
 10
-12.6501362527
 20
-18.3423550847
 11
-12.6501362504
 21
-19.9423550847
  0
LINE
  5
2BE
100
AcDbEntity
  8
SMUSSO
100
AcDbLine
 62
7
  6
CONTINUOUS
 10
-12.1088631464
 20
23.3489164794
 11
-12.1088631464
 21
22.4489164794
  0
LINE
  5
2BF
100
AcDbEntity
  8
SMUSSO
100
AcDbLine
 62
7
  6
CONTINUOUS
 10
-12.1088631464
 20
-22.333629785
 11
-12.1088631464
 21
-23.233629785
  0
LINE
  5
2C0
100
AcDbEntity
  8
DRAFT
100
AcDbLine
 62
7
  6
CONTINUOUS
 10
-12.1001362786
 20
-23.7423566528
 11
-12.1001362786
 21
-22.3423566528
  0
LINE
  5
2C1
100
AcDbEntity
  8
DRAFT
100
AcDbLine
 62
7
  6
CONTINUOUS
 10
-12.1001362786
 20
22.4576433472
 11
-12.1001362786
 21
23.8576433472
  0
LINE
  5
2C2
100
AcDbEntity
  8
SMUSSO
100
AcDbLine
 62
7
  6
CONTINUOUS
 10
-12.1057890525
 20
23.8519905733
 11
-12.1088631464
 21
23.3489164794
  0
LINE
  5
2C3
100
AcDbEntity
  8
DRAFT
100
AcDbLine
 62
7
  6
CONTINUOUS
 10
-20.1646064604
 20
-1.5923566528
 11
-20.1750794994
 21
-1.6028296918
  0
LINE
  5
2C4
100
AcDbEntity
  8
RACCORDO
100
AcDbLine
 62
7
  6
CONTINUOUS
 10
-19.0501362786
 20
-1.5923566528
 11
-19.0571792311
 21
-1.5993996054
  0
LINE
  5
2C5
100
AcDbEntity
  8
0
100
AcDbLine
 62
7
  6
CONTINUOUS
 10
-5.1418042549
 20
13.0754641636
 11
-5.2621162302
 21
12.9584426624
  0
LINE
  5
2C6
100
AcDbEntity
  8
0
100
AcDbLine
 62
7
  6
CONTINUOUS
 10
-3.4574294457
 20
13.1339747675
 11
-3.5777426131
 21
13.0169535643
  0
LINE
  5
2C7
100
AcDbEntity
  8
0
100
AcDbLine
 62
7
  6
CONTINUOUS
 10
-5.0621301934
 20
12.8410313889
 11
-4.9808531727
 21
12.9003221319
  0
LINE
  5
2C8
100
AcDbEntity
  8
0
100
AcDbLine
 62
7
  6
CONTINUOUS
 10
-2.0933526406
 20
13.1343648401
 11
-2.1746308693
 21
13.0750740971
  0
LINE
  5
2C9
100
AcDbEntity
  8
0
100
AcDbLine
 62
7
  6
CONTINUOUS
 10
-4.5001376017
 20
11.3786555283
 11
-4.3397212372
 21
11.4956767316
  0
LINE
  5
2CA
100
AcDbEntity
  8
0
100
AcDbLine
 62
7
  6
CONTINUOUS
 10
-5.0214910874
 20
13.1339747653
 11
-5.1418042549
 21
13.0754641636
  0
LINE
  5
2CB
100
AcDbEntity
  8
0
100
AcDbLine
 62
7
  6
CONTINUOUS
 10
-0.3694081673
 20
13.1339747718
 11
-0.4897213348
 21
13.0754641701
  0
LINE
  5
2CC
100
AcDbEntity
  8
0
100
AcDbLine
 62
7
  6
CONTINUOUS
 10
-3.297011889
 20
13.1924853692
 11
-3.4574294457
 21
13.1339747675
  0
LINE
  5
2CD
100
AcDbEntity
  8
0
100
AcDbLine
 62
7
  6
CONTINUOUS
 10
-3.4574294454
 20
12.8999320634
 11
-3.2970118887
 21
12.9584426651
  0
LINE
  5
2CE
100
AcDbEntity
  8
0
100
AcDbLine
 62
7
  6
CONTINUOUS
 10
-2.0136785871
 20
12.8999320654
 11
-1.8532634146
 21
12.9584426672
  0
LINE
  5
2CF
100
AcDbEntity
  8
0
100
AcDbLine
 62
7
  6
CONTINUOUS
 10
-0.3287690526
 20
12.9003221385
 11
-0.1688886053
 21
12.9584426695
  0
LINE
  5
2D0
100
AcDbEntity
  8
0
100
AcDbLine
 62
7
  6
CONTINUOUS
 10
-4.9808531727
 20
12.9003221319
 11
-4.8209703333
 21
12.958442663
  0
LINE
  5
2D1
100
AcDbEntity
  8
0
100
AcDbLine
 62
7
  6
CONTINUOUS
 10
-1.9334698091
 20
13.1924853711
 11
-2.0933526406
 21
13.1343648401
  0
LINE
  5
2D2
100
AcDbEntity
  8
0
100
AcDbLine
 62
7
  6
CONTINUOUS
 10
1.2753969783
 20
12.9003221407
 11
1.4352798098
 21
12.9584426718
  0
LINE
  5
2D3
100
AcDbEntity
  8
DRAFT
100
AcDbLine
 62
7
  6
CONTINUOUS
 10
-20.1646064604
 20
1.7076433472
 11
-20.1750794994
 21
1.7181163862
  0
LINE
  5
2D4
100
AcDbEntity
  8
RACCORDO
100
AcDbLine
 62
7
  6
CONTINUOUS
 10
-19.0501362786
 20
1.7076433472
 11
-19.0571792311
 21
1.7146862997
  0
LINE
  5
2D5
100
AcDbEntity
  8
SMUSSO
100
AcDbLine
 62
7
  6
CONTINUOUS
 10
-10.6914094108
 20
23.3489164794
 11
-10.6944835047
 21
23.8519905733
  0
LINE
  5
2D6
100
AcDbEntity
  8
0
100
AcDbLine
 62
7
  6
CONTINUOUS
 10
-11.6001362793
 20
0.5576449215
 11
-11.6001362624
 21
-11.4423550785
  0
LINE
  5
2D7
100
AcDbEntity
  8
DRAFT
100
AcDbLine
 62
7
  6
CONTINUOUS
 10
-10.7001362786
 20
-23.7423566528
 11
-10.7001362786
 21
-22.3423566528
  0
LINE
  5
2D8
100
AcDbEntity
  8
DRAFT
100
AcDbLine
 62
7
  6
CONTINUOUS
 10
-10.7001362786
 20
22.4576433472
 11
-10.7001362786
 21
23.8576433472
  0
LINE
  5
2D9
100
AcDbEntity
  8
SMUSSO
100
AcDbLine
 62
7
  6
CONTINUOUS
 10
-10.6914094108
 20
23.3489164794
 11
-10.6914094108
 21
22.4489164794
  0
LINE
  5
2DA
100
AcDbEntity
  8
SMUSSO
100
AcDbLine
 62
7
  6
CONTINUOUS
 10
-10.6914094108
 20
-22.333629785
 11
-10.6914094108
 21
-23.233629785
  0
LINE
  5
2DB
100
AcDbEntity
  8
SMUSSO
100
AcDbLine
 62
7
  6
CONTINUOUS
 10
-10.6944835047
 20
-23.7367038789
 11
-10.6914094108
 21
-23.233629785
  0
LINE
  5
2DC
100
AcDbEntity
  8
0
100
AcDbLine
 62
7
  6
CONTINUOUS
 10
-5.2621162302
 20
12.9584426624
 11
-5.3423250084
 21
12.8414214592
  0
LINE
  5
2DD
100
AcDbEntity
  8
0
100
AcDbLine
 62
7
  6
CONTINUOUS
 10
-5.1816412809
 20
12.6666697962
 11
-5.0621301934
 21
12.8410313889
  0
LINE
  5
2DE
100
AcDbEntity
  8
0
100
AcDbLine
 62
7
  6
CONTINUOUS
 10
-3.5777426131
 20
13.0169535643
 11
-3.6579490071
 21
12.8999320631
  0
LINE
  5
2DF
100
AcDbEntity
  8
0
100
AcDbLine
 62
7
  6
CONTINUOUS
 10
-3.6579490068
 20
12.665889657
 11
-3.5777426128
 21
12.7829108602
  0
LINE
  5
2E0
100
AcDbEntity
  8
0
100
AcDbLine
 62
7
  6
CONTINUOUS
 10
-4.3397212372
 20
11.4956767316
 11
-4.2194080699
 21
11.6712088343
  0
LINE
  5
2E1
100
AcDbEntity
  8
SMUSSO
100
AcDbLine
 62
7
  6
CONTINUOUS
 10
10.3942109475
 20
23.8519905733
 11
10.3998637214
 21
23.8576433472
  0
LINE
  5
2E2
100
AcDbEntity
  8
0
100
AcDbLine
 62
7
  6
CONTINUOUS
 10
-3.5777426128
 20
12.7829108602
 11
-3.4574294454
 21
12.8999320634
  0
LINE
  5
2E3
100
AcDbEntity
  8
0
100
AcDbLine
 62
7
  6
CONTINUOUS
 10
-4.4199288238
 20
11.7297194356
 11
-4.5402419912
 21
11.6126982323
  0
LINE
  5
2E4
100
AcDbEntity
  8
0
100
AcDbLine
 62
7
  6
CONTINUOUS
 10
-0.4897213348
 20
13.0754641701
 11
-0.610032118
 21
12.9584426689
  0
LINE
  5
2E5
100
AcDbEntity
  8
0
100
AcDbLine
 62
7
  6
CONTINUOUS
 10
-0.4100472813
 20
12.8410313955
 11
-0.3287690526
 21
12.9003221385
  0
LINE
  5
2E6
100
AcDbEntity
  8
0
100
AcDbLine
 62
7
  6
CONTINUOUS
 10
-1.4527566298
 20
11.3782654619
 11
-1.3714784011
 21
11.4375562049
  0
LINE
  5
2E7
100
AcDbEntity
  8
0
100
AcDbLine
 62
7
  6
CONTINUOUS
 10
1.1941187496
 20
12.8410313977
 11
1.2753969783
 21
12.9003221407
  0
LINE
  5
2E8
100
AcDbEntity
  8
0
100
AcDbLine
 62
7
  6
CONTINUOUS
 10
1.2347578636
 20
13.1339747741
 11
1.1144446961
 21
13.0754641724
  0
LINE
  5
2E9
100
AcDbEntity
  8
0
100
AcDbLine
 62
7
  6
CONTINUOUS
 10
-1.5324282992
 20
11.6126982366
 11
-1.6928458558
 21
11.5541873368
  0
LINE
  5
2EA
100
AcDbEntity
  8
0
100
AcDbLine
 62
7
  6
CONTINUOUS
 10
4.5634030928
 20
13.1924853803
 11
4.4029879203
 21
13.1339747785
  0
LINE
  5
2EB
100
AcDbEntity
  8
0
100
AcDbLine
 62
7
  6
CONTINUOUS
 10
4.4029879207
 20
12.8999320744
 11
4.5634030931
 21
12.9584426762
  0
LINE
  5
2EC
100
AcDbEntity
  8
0
100
AcDbLine
 62
7
  6
CONTINUOUS
 10
2.7191478366
 20
12.9003221427
 11
2.8790282839
 21
12.9584426738
  0
LINE
  5
2ED
100
AcDbEntity
  8
0
100
AcDbLine
 62
7
  6
CONTINUOUS
 10
-1.6126370771
 20
11.3201449308
 11
-1.4527566298
 21
11.3782654619
  0
LINE
  5
2EE
100
AcDbEntity
  8
0
100
AcDbLine
 62
7
  6
CONTINUOUS
 10
2.7993566159
 20
12.2567052281
 11
2.9592370632
 21
12.3148257592
  0
LINE
  5
2EF
100
AcDbEntity
  8
0
100
AcDbLine
 62
7
  6
CONTINUOUS
 10
3.039445843
 20
11.3201449374
 11
3.2399677888
 21
11.3786555392
  0
LINE
  5
2F0
100
AcDbEntity
  8
SMUSSO
100
AcDbLine
 62
7
  6
CONTINUOUS
 10
10.3942109475
 20
-23.7367038789
 11
10.3998637214
 21
-23.7423566528
  0
LINE
  5
2F1
100
AcDbEntity
  8
SMUSSO
100
AcDbLine
 62
7
  6
CONTINUOUS
 10
-8.2088631464
 20
-23.233629785
 11
-8.2057890525
 21
-23.7367038789
  0
LINE
  5
2F2
100
AcDbEntity
  8
SMUSSO
100
AcDbLine
 62
7
  6
CONTINUOUS
 10
-8.2088631464
 20
-23.233629785
 11
-8.2088631464
 21
-22.333629785
  0
LINE
  5
2F3
100
AcDbEntity
  8
SMUSSO
100
AcDbLine
 62
7
  6
CONTINUOUS
 10
-8.2088631464
 20
22.4489164794
 11
-8.2088631464
 21
23.3489164794
  0
LINE
  5
2F4
100
AcDbEntity
  8
DRAFT
100
AcDbLine
 62
7
  6
CONTINUOUS
 10
-8.2001362786
 20
23.8576433472
 11
-8.2001362786
 21
22.4576433472
  0
LINE
  5
2F5
100
AcDbEntity
  8
DRAFT
100
AcDbLine
 62
7
  6
CONTINUOUS
 10
-8.2001362786
 20
-22.3423566528
 11
-8.2001362786
 21
-23.7423566528
  0
LINE
  5
2F6
100
AcDbEntity
  8
SMUSSO
100
AcDbLine
 62
7
  6
CONTINUOUS
 10
-8.2057890525
 20
23.8519905733
 11
-8.2088631464
 21
23.3489164794
  0
LINE
  5
2F7
100
AcDbEntity
  8
0
100
AcDbLine
 62
7
  6
CONTINUOUS
 10
-5.3423250084
 20
12.8414214592
 11
-5.4225337865
 21
12.607379053
  0
LINE
  5
2F8
100
AcDbEntity
  8
0
100
AcDbLine
 62
7
  6
CONTINUOUS
 10
-5.2222803951
 20
12.5484783831
 11
-5.1816412809
 21
12.6666697962
  0
LINE
  5
2F9
100
AcDbEntity
  8
RACCORDO
100
AcDbLine
 62
253
  6
CONTINUOUS
 10
-18.9120153563
 20
-22.0153941089
 11
-18.9225171653
 21
-22.0407477187
  0
LINE
  5
2FA
100
AcDbEntity
  8
RACCORDO
100
AcDbLine
 62
253
  6
CONTINUOUS
 10
-18.2049354995
 20
-22.3082761752
 11
-18.2154373086
 21
-22.333629785
  0
LINE
  5
2FB
100
AcDbEntity
  8
0
100
AcDbLine
 62
7
  6
CONTINUOUS
 10
-2.2543049223
 20
12.9584426666
 11
-2.3345113162
 21
12.7829108619
  0
LINE
  5
2FC
100
AcDbEntity
  8
0
100
AcDbLine
 62
7
  6
CONTINUOUS
 10
-2.1740961434
 20
12.6073790576
 11
-2.0938873653
 21
12.7829108622
  0
LINE
  5
2FD
100
AcDbEntity
  8
0
100
AcDbLine
 62
7
  6
CONTINUOUS
 10
-2.1746308693
 20
13.0750740971
 11
-2.2543049223
 21
12.9584426666
  0
LINE
  5
2FE
100
AcDbEntity
  8
0
100
AcDbLine
 62
7
  6
CONTINUOUS
 10
-1.3714784011
 20
11.4375562049
 11
-1.2918043481
 21
11.5541873374
  0
LINE
  5
2FF
100
AcDbEntity
  8
0
100
AcDbLine
 62
7
  6
CONTINUOUS
 10
-2.0938873653
 20
12.7829108622
 11
-2.0136785871
 21
12.8999320654
  0
LINE
  5
300
100
AcDbEntity
  8
0
100
AcDbLine
 62
7
  6
CONTINUOUS
 10
-0.610032118
 20
12.9584426689
 11
-0.6902408963
 21
12.8414214657
  0
LINE
  5
301
100
AcDbEntity
  8
0
100
AcDbLine
 62
7
  6
CONTINUOUS
 10
-1.4522219051
 20
11.7297194397
 11
-1.5324282992
 21
11.6126982366
  0
LINE
  5
302
100
AcDbEntity
  8
0
100
AcDbLine
 62
7
  6
CONTINUOUS
 10
-0.5295583608
 20
12.6666698028
 11
-0.4100472813
 21
12.8410313955
  0
LINE
  5
303
100
AcDbEntity
  8
DRAFT
100
AcDbLine
 62
7
  6
CONTINUOUS
 10
10.3911368536
 20
22.4489164794
 11
10.3998637214
 21
22.4576433472
  0
LINE
  5
304
100
AcDbEntity
  8
0
100
AcDbLine
 62
7
  6
CONTINUOUS
 10
1.1144446961
 20
13.0754641724
 11
0.9941339128
 21
12.9584426712
  0
LINE
  5
305
100
AcDbEntity
  8
0
100
AcDbLine
 62
7
  6
CONTINUOUS
 10
0.2321552883
 20
11.7297194421
 11
0.1118421209
 21
11.6126982389
  0
LINE
  5
306
100
AcDbEntity
  8
0
100
AcDbLine
 62
7
  6
CONTINUOUS
 10
1.8363213192
 20
11.7297194444
 11
1.7160081518
 21
11.6126982412
  0
LINE
  5
307
100
AcDbEntity
  8
0
100
AcDbLine
 62
7
  6
CONTINUOUS
 10
0.1519465104
 20
11.3786555348
 11
0.3123616828
 21
11.4956767381
  0
LINE
  5
308
100
AcDbEntity
  8
0
100
AcDbLine
 62
7
  6
CONTINUOUS
 10
2.5988346687
 20
13.1343648467
 11
2.51755644
 21
13.0750741037
  0
LINE
  5
309
100
AcDbEntity
  8
0
100
AcDbLine
 62
7
  6
CONTINUOUS
 10
2.718613112
 20
12.4903575634
 11
2.5581955554
 21
12.3733363601
  0
LINE
  5
30A
100
AcDbEntity
  8
0
100
AcDbLine
 62
7
  6
CONTINUOUS
 10
2.7180783872
 20
12.1974144851
 11
2.7993566159
 21
12.2567052281
  0
LINE
  5
30B
100
AcDbEntity
  8
0
100
AcDbLine
 62
7
  6
CONTINUOUS
 10
1.7561125413
 20
11.3786555371
 11
1.9165300979
 21
11.4956767404
  0
LINE
  5
30C
100
AcDbEntity
  8
0
100
AcDbLine
 62
7
  6
CONTINUOUS
 10
2.6381369705
 20
12.8418115411
 11
2.7191478366
 21
12.9003221427
  0
LINE
  5
30D
100
AcDbEntity
  8
0
100
AcDbLine
 62
7
  6
CONTINUOUS
 10
3.2399677884
 20
11.6712088448
 11
3.0394458426
 21
11.5541873435
  0
LINE
  5
30E
100
AcDbEntity
  8
RACCORDO
100
AcDbLine
 62
253
  6
CONTINUOUS
 10
21.9486911307
 20
18.8295878905
 11
21.9233375209
 21
18.8190860815
  0
LINE
  5
30F
100
AcDbEntity
  8
RACCORDO
100
AcDbLine
 62
253
  6
CONTINUOUS
 10
22.241573197
 20
18.1225080338
 11
22.2162195872
 21
18.1120062248
  0
LINE
  5
310
100
AcDbEntity
  8
RACCORDO
100
AcDbLine
 62
253
  6
CONTINUOUS
 10
21.9233375209
 20
-18.7037993871
 11
21.9486911307
 21
-18.7143011961
  0
LINE
  5
311
100
AcDbEntity
  8
RACCORDO
100
AcDbLine
 62
253
  6
CONTINUOUS
 10
22.2162195872
 20
-17.9967195304
 11
22.241573197
 21
-18.0072213394
  0
LINE
  5
312
100
AcDbEntity
  8
DRAFT
100
AcDbLine
 62
7
  6
CONTINUOUS
 10
10.3998637214
 20
-22.3423566528
 11
10.3911368536
 21
-22.333629785
  0
LINE
  5
313
100
AcDbEntity
  8
RACCORDO
100
AcDbLine
 62
253
  6
CONTINUOUS
 10
-18.9225171653
 20
22.1560344131
 11
-18.9120153563
 21
22.1306808033
  0
LINE
  5
314
100
AcDbEntity
  8
RACCORDO
100
AcDbLine
 62
253
  6
CONTINUOUS
 10
-18.2154373086
 20
22.4489164794
 11
-18.2049354995
 21
22.4235628696
  0
LINE
  5
315
100
AcDbEntity
  8
0
100
AcDbLine
 62
7
  6
CONTINUOUS
 10
-5.2220130324
 20
12.4899674796
 11
-5.2222803951
 21
12.5484783831
  0
LINE
  5
316
100
AcDbEntity
  8
0
100
AcDbLine
 62
7
  6
CONTINUOUS
 10
-5.7751362939
 20
10.945144925
 11
-5.7751362976
 21
13.570144925
  0
LINE
  5
317
100
AcDbEntity
  8
0
100
AcDbLine
 62
7
  6
CONTINUOUS
 10
-5.6501362849
 20
4.5576449252
 11
-5.6501362906
 21
8.5576449252
  0
LINE
  5
318
100
AcDbEntity
  8
0
100
AcDbLine
 62
7
  6
CONTINUOUS
 10
-5.2621162291
 20
12.1385138017
 11
-5.2621162292
 21
12.2570952874
  0
LINE
  5
319
100
AcDbEntity
  8
0
100
AcDbLine
 62
7
  6
CONTINUOUS
 10
-5.4225337865
 20
12.607379053
 11
-5.4626369831
 21
12.2563151458
  0
LINE
  5
31A
100
AcDbEntity
  8
0
100
AcDbLine
 62
7
  6
CONTINUOUS
 10
-4.2194080699
 20
11.6712088343
 11
-4.179303681
 21
11.9052512405
  0
LINE
  5
31B
100
AcDbEntity
  8
0
100
AcDbLine
 62
7
  6
CONTINUOUS
 10
-4.3798244349
 20
11.9052512402
 11
-4.4199288238
 21
11.7297194356
  0
LINE
  5
31C
100
AcDbEntity
  8
0
100
AcDbLine
 62
7
  6
CONTINUOUS
 10
-2.3345113162
 20
12.7829108619
 11
-2.3746157052
 21
12.6073790573
  0
LINE
  5
31D
100
AcDbEntity
  8
0
100
AcDbLine
 62
7
  6
CONTINUOUS
 10
-0.6902408963
 20
12.8414214657
 11
-0.7704496743
 21
12.6073790596
  0
LINE
  5
31E
100
AcDbEntity
  8
0
100
AcDbLine
 62
7
  6
CONTINUOUS
 10
-0.5701974751
 20
12.548088317
 11
-0.5295583608
 21
12.6666698028
  0
LINE
  5
31F
100
AcDbEntity
  8
0
100
AcDbLine
 62
7
  6
CONTINUOUS
 10
-1.372013127
 20
11.9052512444
 11
-1.4522219051
 21
11.7297194397
  0
LINE
  5
320
100
AcDbEntity
  8
0
100
AcDbLine
 62
7
  6
CONTINUOUS
 10
-1.2918043481
 20
11.5541873374
 11
-1.21159557
 21
11.7297194401
  0
LINE
  5
321
100
AcDbEntity
  8
0
100
AcDbLine
 62
7
  6
CONTINUOUS
 10
2.6384043342
 20
12.0807833526
 11
2.7180783872
 21
12.1974144851
  0
LINE
  5
322
100
AcDbEntity
  8
0
100
AcDbLine
 62
7
  6
CONTINUOUS
 10
0.9941339128
 20
12.9584426712
 11
0.9139251346
 21
12.841421468
  0
LINE
  5
323
100
AcDbEntity
  8
0
100
AcDbLine
 62
7
  6
CONTINUOUS
 10
1.0746100542
 20
12.666669805
 11
1.1941187496
 21
12.8410313977
  0
LINE
  5
324
100
AcDbEntity
  8
0
100
AcDbLine
 62
7
  6
CONTINUOUS
 10
0.3123616828
 20
11.4956767381
 11
0.4326748502
 21
11.6712088409
  0
LINE
  5
325
100
AcDbEntity
  8
0
100
AcDbLine
 62
7
  6
CONTINUOUS
 10
2.51755644
 20
13.0750741037
 11
2.4381497337
 21
12.9592228145
  0
LINE
  5
326
100
AcDbEntity
  8
0
100
AcDbLine
 62
7
  6
CONTINUOUS
 10
1.9165300979
 20
11.4956767404
 11
2.0368408811
 21
11.6712088431
  0
LINE
  5
327
100
AcDbEntity
  8
0
100
AcDbLine
 62
7
  6
CONTINUOUS
 10
2.5581955554
 20
12.3733363601
 11
2.4779867771
 21
12.256315157
  0
LINE
  5
328
100
AcDbEntity
  8
SMUSSO
100
AcDbLine
 62
7
  6
CONTINUOUS
 10
14.2998637214
 20
23.8576433472
 11
14.2942109475
 21
23.8519905733
  0
LINE
  5
329
100
AcDbEntity
  8
DRAFT
100
AcDbLine
 62
7
  6
CONTINUOUS
 10
14.2911368536
 20
22.4489164794
 11
14.2998637214
 21
22.4576433472
  0
LINE
  5
32A
100
AcDbEntity
  8
0
100
AcDbLine
 62
7
  6
CONTINUOUS
 10
4.4029879203
 20
13.1339747785
 11
4.2826747529
 21
13.0169535753
  0
LINE
  5
32B
100
AcDbEntity
  8
0
100
AcDbLine
 62
7
  6
CONTINUOUS
 10
4.2826747532
 20
12.7829108712
 11
4.4029879207
 21
12.8999320744
  0
LINE
  5
32C
100
AcDbEntity
  8
0
100
AcDbLine
 62
7
  6
CONTINUOUS
 10
3.2399677888
 20
11.3786555392
 11
3.3600112094
 21
11.4948965991
  0
LINE
  5
32D
100
AcDbEntity
  8
SMUSSO
100
AcDbLine
 62
7
  6
CONTINUOUS
 10
14.2942109475
 20
-23.7367038789
 11
14.2998637214
 21
-23.7423566528
  0
LINE
  5
32E
100
AcDbEntity
  8
DRAFT
100
AcDbLine
 62
7
  6
CONTINUOUS
 10
14.2911368536
 20
-22.333629785
 11
14.2998637214
 21
-22.3423566528
  0
LINE
  5
32F
100
AcDbEntity
  8
RACCORDO
100
AcDbLine
 62
253
  6
CONTINUOUS
 10
-3.2435720889
 20
-23.8866942201
 11
-3.2501362786
 21
-23.4524219513
  0
LINE
  5
330
100
AcDbEntity
  8
RACCORDO
100
AcDbLine
 62
253
  6
CONTINUOUS
 10
-2.9935816081
 20
-23.6701878692
 11
-3.0012176175
 21
-23.1650063836
  0
LINE
  5
331
100
AcDbEntity
  8
0
100
AcDbLine
 62
7
  6
CONTINUOUS
 10
-4.3798244359
 20
12.6081591978
 11
-4.3798244357
 21
12.4895774101
  0
LINE
  5
332
100
AcDbEntity
  8
0
100
AcDbLine
 62
7
  6
CONTINUOUS
 10
-4.1793036815
 20
12.2563151476
 11
-4.1793036819
 21
12.4903575537
  0
LINE
  5
333
100
AcDbEntity
  8
0
100
AcDbLine
 62
7
  6
CONTINUOUS
 10
-3.8584709509
 20
11.3201449277
 11
-3.8584709535
 21
13.1924853684
  0
LINE
  5
334
100
AcDbEntity
  8
0
100
AcDbLine
 62
7
  6
CONTINUOUS
 10
-3.6579490049
 20
11.320144928
 11
-3.6579490068
 21
12.665889657
  0
LINE
  5
335
100
AcDbEntity
  8
0
100
AcDbLine
 62
7
  6
CONTINUOUS
 10
-3.6579490071
 20
12.8999320631
 11
-3.6579490076
 21
13.1924853687
  0
LINE
  5
336
100
AcDbEntity
  8
RACCORDO
100
AcDbLine
 62
7
  6
CONTINUOUS
 10
-3.2501362786
 20
-24.192366172
 11
-3.2501362786
 21
-22.3423566528
  0
LINE
  5
337
100
AcDbEntity
  8
RACCORDO
100
AcDbLine
 62
7
  6
CONTINUOUS
 10
-3.2501362786
 20
22.4576433472
 11
-3.2501362786
 21
24.3076528664
  0
LINE
  5
338
100
AcDbEntity
  8
RACCORDO
100
AcDbLine
 62
7
  6
CONTINUOUS
 10
-3.2435720889
 20
24.3010886768
 11
-3.2435720889
 21
24.0019809145
  0
LINE
  5
339
100
AcDbEntity
  8
RACCORDO
100
AcDbLine
 62
7
  6
CONTINUOUS
 10
-3.2435720889
 20
-24.1858019824
 11
-3.2435720889
 21
-23.8866942201
  0
LINE
  5
33A
100
AcDbEntity
  8
RACCORDO
100
AcDbLine
 62
253
  6
CONTINUOUS
 10
-2.9935816081
 20
24.5510791575
 11
-2.9935816081
 21
23.7854745635
  0
LINE
  5
33B
100
AcDbEntity
  8
RACCORDO
100
AcDbLine
 62
253
  6
CONTINUOUS
 10
-2.9935816081
 20
-24.4357924631
 11
-2.9935816081
 21
-23.6701878692
  0
LINE
  5
33C
100
AcDbEntity
  8
0
100
AcDbLine
 62
7
  6
CONTINUOUS
 10
-2.9360747694
 20
12.4318469539
 11
-2.9360747679
 21
11.320144929
  0
LINE
  5
33D
100
AcDbEntity
  8
0
100
AcDbLine
 62
7
  6
CONTINUOUS
 10
-2.7355552061
 20
11.3201449293
 11
-2.7355552077
 21
12.4318469542
  0
LINE
  5
33E
100
AcDbEntity
  8
0
100
AcDbLine
 62
7
  6
CONTINUOUS
 10
-2.4147200941
 20
12.3733363531
 11
-2.4147200937
 21
12.139293947
  0
LINE
  5
33F
100
AcDbEntity
  8
0
100
AcDbLine
 62
7
  6
CONTINUOUS
 10
-2.214200532
 20
12.1392939473
 11
-2.2142005323
 21
12.3733363534
  0
LINE
  5
340
100
AcDbEntity
  8
RACCORDO
100
AcDbLine
 62
253
  6
CONTINUOUS
 10
-3.2435720889
 20
24.0019809145
 11
-3.2501362786
 21
23.5677086457
  0
LINE
  5
341
100
AcDbEntity
  8
RACCORDO
100
AcDbLine
 62
253
  6
CONTINUOUS
 10
-2.9935816081
 20
23.7854745635
 11
-3.0012176175
 21
23.280293078
  0
LINE
  5
342
100
AcDbEntity
  8
0
100
AcDbLine
 62
7
  6
CONTINUOUS
 10
-0.6100321171
 20
12.3148257542
 11
-0.5701974751
 21
12.548088317
  0
LINE
  5
343
100
AcDbEntity
  8
0
100
AcDbLine
 62
7
  6
CONTINUOUS
 10
-2.3746157052
 20
12.6073790573
 11
-2.4147200941
 21
12.3733363531
  0
LINE
  5
344
100
AcDbEntity
  8
0
100
AcDbLine
 62
7
  6
CONTINUOUS
 10
-2.2142005323
 20
12.3733363534
 11
-2.1740961434
 21
12.6073790576
  0
LINE
  5
345
100
AcDbEntity
  8
0
100
AcDbLine
 62
7
  6
CONTINUOUS
 10
-1.3319087381
 20
12.1392939486
 11
-1.372013127
 21
11.9052512444
  0
LINE
  5
346
100
AcDbEntity
  8
0
100
AcDbLine
 62
7
  6
CONTINUOUS
 10
-1.21159557
 20
11.7297194401
 11
-1.1313867922
 21
12.1392939489
  0
LINE
  5
347
100
AcDbEntity
  8
0
100
AcDbLine
 62
7
  6
CONTINUOUS
 10
0.2722572931
 20
11.9052512467
 11
0.2321552883
 21
11.7297194421
  0
LINE
  5
348
100
AcDbEntity
  8
0
100
AcDbLine
 62
7
  6
CONTINUOUS
 10
0.9139251346
 20
12.841421468
 11
0.8337163566
 21
12.6073790618
  0
LINE
  5
349
100
AcDbEntity
  8
0
100
AcDbLine
 62
7
  6
CONTINUOUS
 10
1.03397094
 20
12.5484783919
 11
1.0746100542
 21
12.666669805
  0
LINE
  5
34A
100
AcDbEntity
  8
0
100
AcDbLine
 62
7
  6
CONTINUOUS
 10
4.2826747529
 20
13.0169535753
 11
4.2024659747
 21
12.8999320742
  0
LINE
  5
34B
100
AcDbEntity
  8
0
100
AcDbLine
 62
7
  6
CONTINUOUS
 10
4.202465975
 20
12.6658896681
 11
4.2826747532
 21
12.7829108712
  0
LINE
  5
34C
100
AcDbEntity
  8
0
100
AcDbLine
 62
7
  6
CONTINUOUS
 10
3.360011209
 20
11.8459605082
 11
3.2399677884
 21
11.6712088448
  0
LINE
  5
34D
100
AcDbEntity
  8
RACCORDO
100
AcDbLine
 62
253
  6
CONTINUOUS
 10
-22.2236100781
 20
-18.7037993871
 11
-21.799362164
 21
-18.2795514731
  0
LINE
  5
34E
100
AcDbEntity
  8
RACCORDO
100
AcDbLine
 62
253
  6
CONTINUOUS
 10
18.6117427991
 20
22.1306808033
 11
18.1874948851
 21
21.7064328892
  0
LINE
  5
34F
100
AcDbEntity
  8
DRAFT
100
AcDbLine
 62
7
  6
CONTINUOUS
 10
-20.276318876
 20
-3.7043955492
 11
-20.2239536812
 21
-3.7043955492
  0
LINE
  5
350
100
AcDbEntity
  8
DRAFT
100
AcDbLine
 62
7
  6
CONTINUOUS
 10
19.9760463188
 20
-3.7043955492
 11
19.923681121
 21
-3.7043955492
  0
LINE
  5
351
100
AcDbEntity
  8
0
100
AcDbLine
 62
7
  6
CONTINUOUS
 10
19.8498637266
 20
-3.6423550389
 11
17.4498637266
 21
-3.6423550423
  0
LINE
  5
352
100
AcDbEntity
  8
0
100
AcDbLine
 62
7
  6
CONTINUOUS
 10
-17.7501362734
 20
-3.6423550919
 11
-20.1501362734
 21
-3.6423550953
  0
LINE
  5
353
100
AcDbEntity
  8
SUPERFICI
100
AcDbLine
 62
7
  6
CONTINUOUS
 10
19.8498637265
 20
-3.5423568162
 11
18.4498637265
 21
-3.5423568221
  0
LINE
  5
354
100
AcDbEntity
  8
SUPERFICI
100
AcDbLine
 62
7
  6
CONTINUOUS
 10
-18.7501362735
 20
-3.5423568745
 11
-20.1501362735
 21
-3.5423568725
  0
LINE
  5
355
100
AcDbEntity
  8
RACCORDO
100
AcDbLine
 62
7
  6
CONTINUOUS
 10
19.8748069422
 20
-3.4004304294
 11
19.7498637263
 21
-3.4004304294
  0
LINE
  5
356
100
AcDbEntity
  8
RACCORDO
100
AcDbLine
 62
7
  6
CONTINUOUS
 10
-20.0501362737
 20
-3.4004304294
 11
-20.1750794994
 21
-3.4004304294
  0
LINE
  5
357
100
AcDbEntity
  8
RACCORDO
100
AcDbLine
 62
253
  6
CONTINUOUS
 10
-22.2236100781
 20
18.8190860815
 11
-21.799362164
 21
18.3948381674
  0
LINE
  5
358
100
AcDbEntity
  8
RACCORDO
100
AcDbLine
 62
253
  6
CONTINUOUS
 10
18.6117427991
 20
-22.0153941089
 11
18.1874948851
 21
-21.5911461949
  0
LINE
  5
359
100
AcDbEntity
  8
0
100
AcDbLine
 62
7
  6
CONTINUOUS
 10
-5.2222803943
 20
11.9645419819
 11
-5.2621162291
 21
12.1385138017
  0
LINE
  5
35A
100
AcDbEntity
  8
0
100
AcDbLine
 62
7
  6
CONTINUOUS
 10
-5.4626369831
 20
12.2563151458
 11
-5.4225337855
 21
11.9052512387
  0
LINE
  5
35B
100
AcDbEntity
  8
RACCORDO
100
AcDbLine
 62
253
  6
CONTINUOUS
 10
-1.506690949
 20
23.7854745635
 11
-1.4990549397
 21
23.280293078
  0
LINE
  5
35C
100
AcDbEntity
  8
RACCORDO
100
AcDbLine
 62
253
  6
CONTINUOUS
 10
-1.2567004683
 20
24.0019809145
 11
-1.2501362786
 21
23.5677086457
  0
LINE
  5
35D
100
AcDbEntity
  8
0
100
AcDbLine
 62
7
  6
CONTINUOUS
 10
-1.6501362518
 20
-18.9423550692
 11
-1.6501362575
 21
-14.9423550692
  0
LINE
  5
35E
100
AcDbEntity
  8
0
100
AcDbLine
 62
7
  6
CONTINUOUS
 10
-1.6501362997
 20
15.0576449308
 11
-1.6501363053
 21
19.0576449308
  0
LINE
  5
35F
100
AcDbEntity
  8
RACCORDO
100
AcDbLine
 62
253
  6
CONTINUOUS
 10
-1.506690949
 20
24.5510791575
 11
-1.506690949
 21
23.7854745635
  0
LINE
  5
360
100
AcDbEntity
  8
RACCORDO
100
AcDbLine
 62
253
  6
CONTINUOUS
 10
-1.506690949
 20
-23.6701878692
 11
-1.506690949
 21
-24.4357924631
  0
LINE
  5
361
100
AcDbEntity
  8
0
100
AcDbLine
 62
7
  6
CONTINUOUS
 10
-1.3319087385
 20
12.3733363547
 11
-1.3319087381
 21
12.1392939486
  0
LINE
  5
362
100
AcDbEntity
  8
RACCORDO
100
AcDbLine
 62
7
  6
CONTINUOUS
 10
-1.2567004683
 20
24.3010886768
 11
-1.2567004683
 21
24.0019809145
  0
LINE
  5
363
100
AcDbEntity
  8
RACCORDO
100
AcDbLine
 62
7
  6
CONTINUOUS
 10
-1.2567004683
 20
-23.8866942201
 11
-1.2567004683
 21
-24.1858019824
  0
LINE
  5
364
100
AcDbEntity
  8
RACCORDO
100
AcDbLine
 62
7
  6
CONTINUOUS
 10
-1.2501362786
 20
24.3076528664
 11
-1.2501362786
 21
22.4576433472
  0
LINE
  5
365
100
AcDbEntity
  8
RACCORDO
100
AcDbLine
 62
7
  6
CONTINUOUS
 10
-1.2501362786
 20
-22.3423566528
 11
-1.2501362786
 21
-24.192366172
  0
LINE
  5
366
100
AcDbEntity
  8
0
100
AcDbLine
 62
7
  6
CONTINUOUS
 10
-1.1501363035
 20
17.7576449315
 11
-1.1501363015
 21
16.3576449315
  0
LINE
  5
367
100
AcDbEntity
  8
0
100
AcDbLine
 62
7
  6
CONTINUOUS
 10
-1.1313867922
 20
12.1392939489
 11
-1.1313867925
 21
12.3733363549
  0
LINE
  5
368
100
AcDbEntity
  8
0
100
AcDbLine
 62
7
  6
CONTINUOUS
 10
-0.8501363015
 20
16.3576449319
 11
-0.8501363035
 21
17.7576449319
  0
LINE
  5
369
100
AcDbEntity
  8
0
100
AcDbLine
 62
7
  6
CONTINUOUS
 10
-0.6100321169
 20
12.1392939496
 11
-0.6100321171
 21
12.3148257542
  0
LINE
  5
36A
100
AcDbEntity
  8
0
100
AcDbLine
 62
7
  6
CONTINUOUS
 10
-0.3001362563
 20
-15.7423550673
 11
-0.300136253
 21
-18.1423550673
  0
LINE
  5
36B
100
AcDbEntity
  8
0
100
AcDbLine
 62
7
  6
CONTINUOUS
 10
-0.000136253
 20
-18.1423550669
 11
-0.0001362563
 21
-15.7423550669
  0
LINE
  5
36C
100
AcDbEntity
  8
RACCORDO
100
AcDbLine
 62
253
  6
CONTINUOUS
 10
-1.4990549397
 20
-23.1650063836
 11
-1.506690949
 21
-23.6701878692
  0
LINE
  5
36D
100
AcDbEntity
  8
RACCORDO
100
AcDbLine
 62
253
  6
CONTINUOUS
 10
-1.2501362786
 20
-23.4524219513
 11
-1.2567004683
 21
-23.8866942201
  0
LINE
  5
36E
100
AcDbEntity
  8
0
100
AcDbLine
 62
7
  6
CONTINUOUS
 10
-0.7704496743
 20
12.6073790596
 11
-0.810554063
 21
12.2563151523
  0
LINE
  5
36F
100
AcDbEntity
  8
0
100
AcDbLine
 62
7
  6
CONTINUOUS
 10
0.8337163566
 20
12.6073790618
 11
0.7936119679
 21
12.2563151546
  0
LINE
  5
370
100
AcDbEntity
  8
0
100
AcDbLine
 62
7
  6
CONTINUOUS
 10
0.4326748502
 20
11.6712088409
 11
0.472779239
 21
11.905251247
  0
LINE
  5
371
100
AcDbEntity
  8
0
100
AcDbLine
 62
7
  6
CONTINUOUS
 10
2.0368408811
 20
11.6712088431
 11
2.0769452699
 21
11.9052512493
  0
LINE
  5
372
100
AcDbEntity
  8
0
100
AcDbLine
 62
7
  6
CONTINUOUS
 10
1.8764257082
 20
11.905251249
 11
1.8363213192
 21
11.7297194444
  0
LINE
  5
373
100
AcDbEntity
  8
0
100
AcDbLine
 62
7
  6
CONTINUOUS
 10
2.5982999452
 20
11.9060313914
 11
2.6384043342
 21
12.0807833526
  0
LINE
  5
374
100
AcDbEntity
  8
0
100
AcDbLine
 62
7
  6
CONTINUOUS
 10
2.5980325815
 20
12.723620126
 11
2.6381369705
 21
12.8418115411
  0
LINE
  5
375
100
AcDbEntity
  8
0
100
AcDbLine
 62
7
  6
CONTINUOUS
 10
2.4779867771
 20
12.256315157
 11
2.3977803833
 21
12.0222724528
  0
LINE
  5
376
100
AcDbEntity
  8
0
100
AcDbLine
 62
7
  6
CONTINUOUS
 10
3.4006503232
 20
11.964541994
 11
3.360011209
 21
11.8459605082
  0
LINE
  5
377
100
AcDbEntity
  8
0
100
AcDbLine
 62
7
  6
CONTINUOUS
 10
3.3600112094
 20
11.4948965991
 11
3.4006503237
 21
11.6134783869
  0
LINE
  5
378
100
AcDbEntity
  8
0
100
AcDbLine
 62
7
  6
CONTINUOUS
 10
2.4381497337
 20
12.9592228145
 11
2.3975130354
 21
12.8414214701
  0
LINE
  5
379
100
AcDbEntity
  8
RACCORDO
100
AcDbLine
 62
253
  6
CONTINUOUS
 10
-22.5501488081
 20
-21.8419518831
 11
-22.5418457542
 21
-21.8336488235
  0
LINE
  5
37A
100
AcDbEntity
  8
RACCORDO
100
AcDbLine
 62
253
  6
CONTINUOUS
 10
21.7503191033
 20
22.4576433472
 11
21.7415922355
 21
22.4489164794
  0
LINE
  5
37B
100
AcDbEntity
  8
SUPERFICI
100
AcDbLine
 62
7
  6
CONTINUOUS
 10
-20.0501362759
 20
-1.8423553254
 11
-18.7501362759
 21
-1.8423552014
  0
LINE
  5
37C
100
AcDbEntity
  8
SUPERFICI
100
AcDbLine
 62
7
  6
CONTINUOUS
 10
18.4498637241
 20
-1.842355149
 11
19.7498637241
 21
-1.8423552694
  0
LINE
  5
37D
100
AcDbEntity
  8
RACCORDO
100
AcDbLine
 62
7
  6
CONTINUOUS
 10
19.8748069422
 20
-1.6028296918
 11
18.956876213
 21
-1.6028296918
  0
LINE
  5
37E
100
AcDbEntity
  8
RACCORDO
100
AcDbLine
 62
7
  6
CONTINUOUS
 10
-19.2571487702
 20
-1.6028296918
 11
-20.1750794994
 21
-1.6028296918
  0
LINE
  5
37F
100
AcDbEntity
  8
DRAFT
100
AcDbLine
 62
7
  6
CONTINUOUS
 10
-20.1646064604
 20
-1.5923566528
 11
-19.0501362786
 21
-1.5923566528
  0
LINE
  5
380
100
AcDbEntity
  8
DRAFT
100
AcDbLine
 62
7
  6
CONTINUOUS
 10
18.7498637214
 20
-1.5923566528
 11
19.8643339033
 21
-1.5923566528
  0
LINE
  5
381
100
AcDbEntity
  8
SUPERFICI
100
AcDbLine
 62
7
  6
CONTINUOUS
 10
18.4498637232
 20
-1.1923555062
 11
19.8498637232
 21
-1.1923555042
  0
LINE
  5
382
100
AcDbEntity
  8
SUPERFICI
100
AcDbLine
 62
7
  6
CONTINUOUS
 10
-18.7501362768
 20
-1.1923555586
 11
-20.1501362768
 21
-1.1923555606
  0
LINE
  5
383
100
AcDbEntity
  8
DRAFT
100
AcDbLine
 62
7
  6
CONTINUOUS
 10
-22.6243920186
 20
-0.3923566528
 11
-22.5243920186
 21
-0.3923566528
  0
LINE
  5
384
100
AcDbEntity
  8
DRAFT
100
AcDbLine
 62
7
  6
CONTINUOUS
 10
22.2241194614
 20
-0.3923566528
 11
22.3241194614
 21
-0.3923566528
  0
LINE
  5
385
100
AcDbEntity
  8
RACCORDO
100
AcDbLine
 62
253
  6
CONTINUOUS
 10
-22.5418457542
 20
21.9489355179
 11
-22.5501488081
 21
21.9572385775
  0
LINE
  5
386
100
AcDbEntity
  8
RACCORDO
100
AcDbLine
 62
253
  6
CONTINUOUS
 10
21.7415922355
 20
-22.333629785
 11
21.7503191033
 21
-22.3423566528
  0
LINE
  5
387
100
AcDbEntity
  8
0
100
AcDbLine
 62
7
  6
CONTINUOUS
 10
-5.4225337855
 20
11.9052512387
 11
-5.3423250068
 21
11.6712088327
  0
LINE
  5
388
100
AcDbEntity
  8
0
100
AcDbLine
 62
7
  6
CONTINUOUS
 10
-5.1816412798
 20
11.8459604962
 11
-5.2222803943
 21
11.9645419819
  0
LINE
  5
389
100
AcDbEntity
  8
0
100
AcDbLine
 62
7
  6
CONTINUOUS
 10
-2.7756572131
 20
12.7244002598
 11
-2.8157616025
 21
12.8999320643
  0
LINE
  5
38A
100
AcDbEntity
  8
0
100
AcDbLine
 62
7
  6
CONTINUOUS
 10
-2.4147200937
 20
12.139293947
 11
-2.3345113148
 21
11.7297194385
  0
LINE
  5
38B
100
AcDbEntity
  8
0
100
AcDbLine
 62
7
  6
CONTINUOUS
 10
-4.1793036819
 20
12.4903575537
 11
-4.2194080714
 21
12.7244002577
  0
LINE
  5
38C
100
AcDbEntity
  8
0
100
AcDbLine
 62
7
  6
CONTINUOUS
 10
-2.1740961424
 20
11.9052512433
 11
-2.214200532
 21
12.1392939473
  0
LINE
  5
38D
100
AcDbEntity
  8
0
100
AcDbLine
 62
7
  6
CONTINUOUS
 10
-2.976179159
 20
12.7244002595
 11
-2.9360747694
 21
12.4318469539
  0
LINE
  5
38E
100
AcDbEntity
  8
0
100
AcDbLine
 62
7
  6
CONTINUOUS
 10
-2.7355552077
 20
12.4318469542
 11
-2.7756572131
 21
12.7244002598
  0
LINE
  5
38F
100
AcDbEntity
  8
RACCORDO
100
AcDbLine
 62
253
  6
CONTINUOUS
 10
0.9564279111
 20
-23.8866942201
 11
0.9498637214
 21
-23.4524219513
  0
LINE
  5
390
100
AcDbEntity
  8
RACCORDO
100
AcDbLine
 62
253
  6
CONTINUOUS
 10
1.2064183919
 20
-23.6701878692
 11
1.1987823825
 21
-23.1650063836
  0
LINE
  5
391
100
AcDbEntity
  8
0
100
AcDbLine
 62
7
  6
CONTINUOUS
 10
1.0342383027
 20
12.4899674884
 11
1.03397094
 21
12.5484783919
  0
LINE
  5
392
100
AcDbEntity
  8
0
100
AcDbLine
 62
7
  6
CONTINUOUS
 10
2.3975130354
 20
12.8414214701
 11
2.3977803823
 21
12.7236201257
  0
LINE
  5
393
100
AcDbEntity
  8
0
100
AcDbLine
 62
7
  6
CONTINUOUS
 10
0.5498636965
 20
17.7576449339
 11
0.5498636985
 21
16.3576449339
  0
LINE
  5
394
100
AcDbEntity
  8
0
100
AcDbLine
 62
7
  6
CONTINUOUS
 10
0.8498636985
 20
16.3576449343
 11
0.8498636965
 21
17.7576449343
  0
LINE
  5
395
100
AcDbEntity
  8
RACCORDO
100
AcDbLine
 62
7
  6
CONTINUOUS
 10
0.9498637214
 20
-24.192366172
 11
0.9498637214
 21
-22.3423566528
  0
LINE
  5
396
100
AcDbEntity
  8
RACCORDO
100
AcDbLine
 62
7
  6
CONTINUOUS
 10
0.9498637214
 20
22.4576433472
 11
0.9498637214
 21
24.3076528664
  0
LINE
  5
397
100
AcDbEntity
  8
RACCORDO
100
AcDbLine
 62
7
  6
CONTINUOUS
 10
0.9564279111
 20
24.3010886768
 11
0.9564279111
 21
24.0019809145
  0
LINE
  5
398
100
AcDbEntity
  8
RACCORDO
100
AcDbLine
 62
7
  6
CONTINUOUS
 10
0.9564279111
 20
-24.1858019824
 11
0.9564279111
 21
-23.8866942201
  0
LINE
  5
399
100
AcDbEntity
  8
0
100
AcDbLine
 62
7
  6
CONTINUOUS
 10
0.994133914
 20
12.1385138105
 11
0.9941339138
 21
12.2570952962
  0
LINE
  5
39A
100
AcDbEntity
  8
RACCORDO
100
AcDbLine
 62
253
  6
CONTINUOUS
 10
1.2064183919
 20
24.5510791575
 11
1.2064183919
 21
23.7854745635
  0
LINE
  5
39B
100
AcDbEntity
  8
RACCORDO
100
AcDbLine
 62
253
  6
CONTINUOUS
 10
1.2064183919
 20
-24.4357924631
 11
1.2064183919
 21
-23.6701878692
  0
LINE
  5
39C
100
AcDbEntity
  8
0
100
AcDbLine
 62
7
  6
CONTINUOUS
 10
1.3498636947
 20
19.057644935
 11
1.3498637003
 21
15.057644935
  0
LINE
  5
39D
100
AcDbEntity
  8
0
100
AcDbLine
 62
7
  6
CONTINUOUS
 10
1.3498637425
 20
-14.942355065
 11
1.3498637482
 21
-18.942355065
  0
LINE
  5
39E
100
AcDbEntity
  8
0
100
AcDbLine
 62
7
  6
CONTINUOUS
 10
1.8764257072
 20
12.6081592066
 11
1.8764257073
 21
12.4895774189
  0
LINE
  5
39F
100
AcDbEntity
  8
0
100
AcDbLine
 62
7
  6
CONTINUOUS
 10
2.0769452694
 20
12.2563151564
 11
2.0769452691
 21
12.4903575625
  0
LINE
  5
3A0
100
AcDbEntity
  8
0
100
AcDbLine
 62
7
  6
CONTINUOUS
 10
2.3977803833
 20
12.0222724528
 11
2.3977803835
 21
11.8467406482
  0
LINE
  5
3A1
100
AcDbEntity
  8
RACCORDO
100
AcDbLine
 62
253
  6
CONTINUOUS
 10
0.9564279111
 20
24.0019809145
 11
0.9498637214
 21
23.5677086457
  0
LINE
  5
3A2
100
AcDbEntity
  8
RACCORDO
100
AcDbLine
 62
253
  6
CONTINUOUS
 10
1.2064183919
 20
23.7854745635
 11
1.1987823825
 21
23.280293078
  0
LINE
  5
3A3
100
AcDbEntity
  8
RACCORDO
100
AcDbLine
 62
253
  6
CONTINUOUS
 10
-22.0505916604
 20
-22.3423566528
 11
-22.0418647927
 21
-22.333629785
  0
LINE
  5
3A4
100
AcDbEntity
  8
RACCORDO
100
AcDbLine
 62
253
  6
CONTINUOUS
 10
22.249876251
 20
21.9572385775
 11
22.241573197
 21
21.9489355179
  0
LINE
  5
3A5
100
AcDbEntity
  8
RACCORDO
100
AcDbLine
 62
253
  6
CONTINUOUS
 10
-18.9120153563
 20
-22.0153941089
 11
-18.4877674422
 21
-21.5911461949
  0
LINE
  5
3A6
100
AcDbEntity
  8
RACCORDO
100
AcDbLine
 62
253
  6
CONTINUOUS
 10
21.9233375209
 20
18.8190860815
 11
21.4990896069
 21
18.3948381674
  0
LINE
  5
3A7
100
AcDbEntity
  8
DRAFT
100
AcDbLine
 62
7
  6
CONTINUOUS
 10
-22.6243920186
 20
0.5076433472
 11
-22.5243920186
 21
0.5076433472
  0
LINE
  5
3A8
100
AcDbEntity
  8
DRAFT
100
AcDbLine
 62
7
  6
CONTINUOUS
 10
22.2241194614
 20
0.5076433472
 11
22.3241194614
 21
0.5076433472
  0
LINE
  5
3A9
100
AcDbEntity
  8
SUPERFICI
100
AcDbLine
 62
7
  6
CONTINUOUS
 10
18.4498637197
 20
1.3076444938
 11
19.8498637197
 21
1.3076444958
  0
LINE
  5
3AA
100
AcDbEntity
  8
SUPERFICI
100
AcDbLine
 62
7
  6
CONTINUOUS
 10
-18.7501362803
 20
1.3076444414
 11
-20.1501362803
 21
1.3076444394
  0
LINE
  5
3AB
100
AcDbEntity
  8
DRAFT
100
AcDbLine
 62
7
  6
CONTINUOUS
 10
19.8643339033
 20
1.7076433472
 11
18.7498637214
 21
1.7076433472
  0
LINE
  5
3AC
100
AcDbEntity
  8
DRAFT
100
AcDbLine
 62
7
  6
CONTINUOUS
 10
-19.0501362786
 20
1.7076433472
 11
-20.1646064604
 21
1.7076433472
  0
LINE
  5
3AD
100
AcDbEntity
  8
RACCORDO
100
AcDbLine
 62
7
  6
CONTINUOUS
 10
19.8748069422
 20
1.7181163862
 11
18.956876213
 21
1.7181163862
  0
LINE
  5
3AE
100
AcDbEntity
  8
RACCORDO
100
AcDbLine
 62
7
  6
CONTINUOUS
 10
-19.2571487702
 20
1.7181163862
 11
-20.1750794994
 21
1.7181163862
  0
LINE
  5
3AF
100
AcDbEntity
  8
SUPERFICI
100
AcDbLine
 62
7
  6
CONTINUOUS
 10
19.7498637187
 20
1.9576447306
 11
18.4498637187
 21
1.957644851
  0
LINE
  5
3B0
100
AcDbEntity
  8
SUPERFICI
100
AcDbLine
 62
7
  6
CONTINUOUS
 10
-18.7501362813
 20
1.9576447986
 11
-20.0501362813
 21
1.9576446746
  0
LINE
  5
3B1
100
AcDbEntity
  8
RACCORDO
100
AcDbLine
 62
253
  6
CONTINUOUS
 10
-22.0418647927
 20
22.4489164794
 11
-22.0505916604
 21
22.4576433472
  0
LINE
  5
3B2
100
AcDbEntity
  8
RACCORDO
100
AcDbLine
 62
253
  6
CONTINUOUS
 10
22.241573197
 20
-21.8336488235
 11
22.249876251
 21
-21.8419518831
  0
LINE
  5
3B3
100
AcDbEntity
  8
RACCORDO
100
AcDbLine
 62
253
  6
CONTINUOUS
 10
-18.9120153563
 20
22.1306808033
 11
-18.4877674422
 21
21.7064328892
  0
LINE
  5
3B4
100
AcDbEntity
  8
RACCORDO
100
AcDbLine
 62
253
  6
CONTINUOUS
 10
21.9233375209
 20
-18.7037993871
 11
21.4990896069
 21
-18.2795514731
  0
LINE
  5
3B5
100
AcDbEntity
  8
0
100
AcDbLine
 62
7
  6
CONTINUOUS
 10
-5.3423250068
 20
11.6712088327
 11
-5.2621162282
 21
11.5541873318
  0
LINE
  5
3B6
100
AcDbEntity
  8
0
100
AcDbLine
 62
7
  6
CONTINUOUS
 10
-5.0621301918
 20
11.6715989038
 11
-5.1816412798
 21
11.8459604962
  0
LINE
  5
3B7
100
AcDbEntity
  8
0
100
AcDbLine
 62
7
  6
CONTINUOUS
 10
-4.2194080714
 20
12.7244002577
 11
-4.3397212393
 21
12.9584426637
  0
LINE
  5
3B8
100
AcDbEntity
  8
0
100
AcDbLine
 62
7
  6
CONTINUOUS
 10
-4.4600332145
 20
12.7829108589
 11
-4.3798244359
 21
12.6081591978
  0
LINE
  5
3B9
100
AcDbEntity
  8
0
100
AcDbLine
 62
7
  6
CONTINUOUS
 10
-1.171491182
 20
12.607379059
 11
-1.2115955715
 21
12.7829108635
  0
LINE
  5
3BA
100
AcDbEntity
  8
0
100
AcDbLine
 62
7
  6
CONTINUOUS
 10
-1.372013128
 20
12.6073790587
 11
-1.3319087385
 21
12.3733363547
  0
LINE
  5
3BB
100
AcDbEntity
  8
0
100
AcDbLine
 62
7
  6
CONTINUOUS
 10
-1.1313867925
 20
12.3733363549
 11
-1.171491182
 21
12.607379059
  0
LINE
  5
3BC
100
AcDbEntity
  8
0
100
AcDbLine
 62
7
  6
CONTINUOUS
 10
-0.810554063
 20
12.2563151523
 11
-0.7704496733
 21
11.9052512453
  0
LINE
  5
3BD
100
AcDbEntity
  8
0
100
AcDbLine
 62
7
  6
CONTINUOUS
 10
0.7936119679
 20
12.2563151546
 11
0.8337163576
 21
11.9052512475
  0
LINE
  5
3BE
100
AcDbEntity
  8
RACCORDO
100
AcDbLine
 62
253
  6
CONTINUOUS
 10
2.693309051
 20
23.7854745635
 11
2.7009450603
 21
23.280293078
  0
LINE
  5
3BF
100
AcDbEntity
  8
RACCORDO
100
AcDbLine
 62
253
  6
CONTINUOUS
 10
2.9432995317
 20
24.0019809145
 11
2.9498637214
 21
23.5677086457
  0
LINE
  5
3C0
100
AcDbEntity
  8
0
100
AcDbLine
 62
7
  6
CONTINUOUS
 10
3.4003829601
 20
12.3148257598
 11
3.4006503232
 21
11.964541994
  0
LINE
  5
3C1
100
AcDbEntity
  8
RACCORDO
100
AcDbLine
 62
253
  6
CONTINUOUS
 10
2.693309051
 20
24.5510791575
 11
2.693309051
 21
23.7854745635
  0
LINE
  5
3C2
100
AcDbEntity
  8
RACCORDO
100
AcDbLine
 62
253
  6
CONTINUOUS
 10
2.693309051
 20
-23.6701878692
 11
2.693309051
 21
-24.4357924631
  0
LINE
  5
3C3
100
AcDbEntity
  8
RACCORDO
100
AcDbLine
 62
7
  6
CONTINUOUS
 10
2.9432995317
 20
24.3010886768
 11
2.9432995317
 21
24.0019809145
  0
LINE
  5
3C4
100
AcDbEntity
  8
RACCORDO
100
AcDbLine
 62
7
  6
CONTINUOUS
 10
2.9432995317
 20
-23.8866942201
 11
2.9432995317
 21
-24.1858019824
  0
LINE
  5
3C5
100
AcDbEntity
  8
RACCORDO
100
AcDbLine
 62
7
  6
CONTINUOUS
 10
2.9498637214
 20
24.3076528664
 11
2.9498637214
 21
22.4576433472
  0
LINE
  5
3C6
100
AcDbEntity
  8
RACCORDO
100
AcDbLine
 62
7
  6
CONTINUOUS
 10
2.9498637214
 20
-22.3423566528
 11
2.9498637214
 21
-24.192366172
  0
LINE
  5
3C7
100
AcDbEntity
  8
0
100
AcDbLine
 62
7
  6
CONTINUOUS
 10
3.6009049068
 20
11.7882300484
 11
3.6009049054
 21
12.7244002687
  0
LINE
  5
3C8
100
AcDbEntity
  8
0
100
AcDbLine
 62
7
  6
CONTINUOUS
 10
4.0019464152
 20
11.3201449388
 11
4.0019464125
 21
13.1924853795
  0
LINE
  5
3C9
100
AcDbEntity
  8
0
100
AcDbLine
 62
7
  6
CONTINUOUS
 10
4.2024659769
 20
11.320144939
 11
4.202465975
 21
12.6658896681
  0
LINE
  5
3CA
100
AcDbEntity
  8
0
100
AcDbLine
 62
7
  6
CONTINUOUS
 10
4.2024659747
 20
12.8999320742
 11
4.2024659743
 21
13.1924853798
  0
LINE
  5
3CB
100
AcDbEntity
  8
0
100
AcDbLine
 62
7
  6
CONTINUOUS
 10
3.4006503221
 20
12.7236201271
 11
3.4003829597
 21
12.5488684639
  0
LINE
  5
3CC
100
AcDbEntity
  8
0
100
AcDbLine
 62
7
  6
CONTINUOUS
 10
2.5980325828
 20
11.788230047
 11
2.5982999452
 21
11.9060313914
  0
LINE
  5
3CD
100
AcDbEntity
  8
RACCORDO
100
AcDbLine
 62
253
  6
CONTINUOUS
 10
2.7009450603
 20
-23.1650063836
 11
2.693309051
 21
-23.6701878692
  0
LINE
  5
3CE
100
AcDbEntity
  8
RACCORDO
100
AcDbLine
 62
253
  6
CONTINUOUS
 10
2.9498637214
 20
-23.4524219513
 11
2.9432995317
 21
-23.8866942201
  0
LINE
  5
3CF
100
AcDbEntity
  8
0
100
AcDbLine
 62
7
  6
CONTINUOUS
 10
11.0998637172
 20
3.0576449534
 11
-9.1001362828
 21
3.057644925
  0
LINE
  5
3D0
100
AcDbEntity
  8
RACCORDO
100
AcDbLine
 62
7
  6
CONTINUOUS
 10
19.8748069422
 20
3.5157171238
 11
19.7498637165
 21
3.5157171238
  0
LINE
  5
3D1
100
AcDbEntity
  8
RACCORDO
100
AcDbLine
 62
7
  6
CONTINUOUS
 10
-20.0501362835
 20
3.5157171238
 11
-20.1750794994
 21
3.5157171238
  0
LINE
  5
3D2
100
AcDbEntity
  8
SUPERFICI
100
AcDbLine
 62
7
  6
CONTINUOUS
 10
-20.1501362837
 20
3.6576431275
 11
-18.7501362837
 21
3.6576431255
  0
LINE
  5
3D3
100
AcDbEntity
  8
SUPERFICI
100
AcDbLine
 62
7
  6
CONTINUOUS
 10
18.4498637163
 20
3.6576431779
 11
19.8498637163
 21
3.6576431838
  0
LINE
  5
3D4
100
AcDbEntity
  8
0
100
AcDbLine
 62
7
  6
CONTINUOUS
 10
-20.1501362838
 20
3.7576449047
 11
-17.7501362838
 21
3.7576449081
  0
LINE
  5
3D5
100
AcDbEntity
  8
0
100
AcDbLine
 62
7
  6
CONTINUOUS
 10
17.4498637162
 20
3.7576449577
 11
19.8498637162
 21
3.7576449611
  0
LINE
  5
3D6
100
AcDbEntity
  8
DRAFT
100
AcDbLine
 62
7
  6
CONTINUOUS
 10
-20.276318876
 20
3.8196822436
 11
-20.2239536782
 21
3.8196822436
  0
LINE
  5
3D7
100
AcDbEntity
  8
DRAFT
100
AcDbLine
 62
7
  6
CONTINUOUS
 10
19.9760463188
 20
3.8196822436
 11
19.923681124
 21
3.8196822436
  0
LINE
  5
3D8
100
AcDbEntity
  8
0
100
AcDbLine
 62
7
  6
CONTINUOUS
 10
4.8498637158
 20
4.0576449399
 11
-5.1501362842
 21
4.0576449259
  0
LINE
  5
3D9
100
AcDbEntity
  8
0
100
AcDbLine
 62
7
  6
CONTINUOUS
 10
-5.2621162282
 20
11.5541873318
 11
-5.1418042526
 21
11.4371661289
  0
LINE
  5
3DA
100
AcDbEntity
  8
0
100
AcDbLine
 62
7
  6
CONTINUOUS
 10
-2.0136785853
 20
11.6126982359
 11
-2.0938873638
 21
11.7297194388
  0
LINE
  5
3DB
100
AcDbEntity
  8
0
100
AcDbLine
 62
7
  6
CONTINUOUS
 10
-2.2543049203
 20
11.554187336
 11
-2.174630867
 21
11.4375562038
  0
LINE
  5
3DC
100
AcDbEntity
  8
0
100
AcDbLine
 62
7
  6
CONTINUOUS
 10
-3.0558532124
 20
12.8410313917
 11
-2.976179159
 21
12.7244002595
  0
LINE
  5
3DD
100
AcDbEntity
  8
0
100
AcDbLine
 62
7
  6
CONTINUOUS
 10
-2.0938873638
 20
11.7297194388
 11
-2.1740961424
 21
11.9052512433
  0
LINE
  5
3DE
100
AcDbEntity
  8
0
100
AcDbLine
 62
7
  6
CONTINUOUS
 10
-1.4522219066
 20
12.7829108632
 11
-1.372013128
 21
12.6073790587
  0
LINE
  5
3DF
100
AcDbEntity
  8
0
100
AcDbLine
 62
7
  6
CONTINUOUS
 10
-1.2115955715
 20
12.7829108635
 11
-1.2918043501
 21
12.9584426679
  0
LINE
  5
3E0
100
AcDbEntity
  8
0
100
AcDbLine
 62
7
  6
CONTINUOUS
 10
-2.3345113148
 20
11.7297194385
 11
-2.2543049203
 21
11.554187336
  0
LINE
  5
3E1
100
AcDbEntity
  8
0
100
AcDbLine
 62
7
  6
CONTINUOUS
 10
-0.7704496733
 20
11.9052512453
 11
-0.6902408946
 21
11.6712088393
  0
LINE
  5
3E2
100
AcDbEntity
  8
0
100
AcDbLine
 62
7
  6
CONTINUOUS
 10
0.8337163576
 20
11.9052512475
 11
0.9139251363
 21
11.6712088415
  0
LINE
  5
3E3
100
AcDbEntity
  8
0
100
AcDbLine
 62
7
  6
CONTINUOUS
 10
1.0746100554
 20
11.845960505
 11
1.0339709408
 21
11.9645419907
  0
LINE
  5
3E4
100
AcDbEntity
  8
0
100
AcDbLine
 62
7
  6
CONTINUOUS
 10
-0.5298257223
 20
11.8467406441
 11
-0.6100321169
 21
12.1392939496
  0
LINE
  5
3E5
100
AcDbEntity
  8
0
100
AcDbLine
 62
7
  6
CONTINUOUS
 10
1.0339709408
 20
11.9645419907
 11
0.994133914
 21
12.1385138105
  0
LINE
  5
3E6
100
AcDbEntity
  8
0
100
AcDbLine
 62
7
  6
CONTINUOUS
 10
0.2321552868
 20
12.7829108655
 11
0.2722572921
 21
12.607379061
  0
LINE
  5
3E7
100
AcDbEntity
  8
0
100
AcDbLine
 62
7
  6
CONTINUOUS
 10
0.472779238
 20
12.6073790613
 11
0.4326748485
 21
12.8414214673
  0
LINE
  5
3E8
100
AcDbEntity
  8
0
100
AcDbLine
 62
7
  6
CONTINUOUS
 10
2.0769452691
 20
12.4903575625
 11
2.0368408796
 21
12.7244002665
  0
LINE
  5
3E9
100
AcDbEntity
  8
0
100
AcDbLine
 62
7
  6
CONTINUOUS
 10
2.3977803835
 20
11.8467406482
 11
2.4378823889
 21
11.6126982422
  0
LINE
  5
3EA
100
AcDbEntity
  8
0
100
AcDbLine
 62
7
  6
CONTINUOUS
 10
4.9243425966
 20
12.431846965
 11
4.9243425982
 21
11.3201449401
  0
LINE
  5
3EB
100
AcDbEntity
  8
0
100
AcDbLine
 62
7
  6
CONTINUOUS
 10
5.1248621599
 20
11.3201449403
 11
5.1248621584
 21
12.4318469653
  0
LINE
  5
3EC
100
AcDbEntity
  8
0
100
AcDbLine
 62
7
  6
CONTINUOUS
 10
5.3498637094
 20
8.5576449406
 11
5.3498637151
 21
4.5576449406
  0
LINE
  5
3ED
100
AcDbEntity
  8
0
100
AcDbLine
 62
7
  6
CONTINUOUS
 10
5.4748637024
 20
13.5701449408
 11
5.4748637061
 21
10.9451449408
  0
LINE
  5
3EE
100
AcDbEntity
  8
DRAFT
100
AcDbLine
 62
7
  6
CONTINUOUS
 10
-14.5914094108
 20
-22.333629785
 11
-14.6001362786
 21
-22.3423566528
  0
LINE
  5
3EF
100
AcDbEntity
  8
SMUSSO
100
AcDbLine
 62
7
  6
CONTINUOUS
 10
-14.6001362786
 20
-23.7423566528
 11
-14.5944835047
 21
-23.7367038789
  0
LINE
  5
3F0
100
AcDbEntity
  8
0
100
AcDbLine
 62
7
  6
CONTINUOUS
 10
-4.9808531709
 20
11.6123081611
 11
-5.0621301918
 21
11.6715989038
  0
LINE
  5
3F1
100
AcDbEntity
  8
0
100
AcDbLine
 62
7
  6
CONTINUOUS
 10
-4.3397212393
 20
12.9584426637
 11
-4.5402419934
 21
13.133974766
  0
LINE
  5
3F2
100
AcDbEntity
  8
0
100
AcDbLine
 62
7
  6
CONTINUOUS
 10
-4.5803463823
 20
12.8999320618
 11
-4.4600332145
 21
12.7829108589
  0
LINE
  5
3F3
100
AcDbEntity
  8
0
100
AcDbLine
 62
7
  6
CONTINUOUS
 10
-2.8959703811
 20
13.0169535652
 11
-3.0162835488
 21
13.1339747681
  0
LINE
  5
3F4
100
AcDbEntity
  8
DRAFT
100
AcDbLine
 62
7
  6
CONTINUOUS
 10
-14.5914094108
 20
22.4489164794
 11
-14.6001362786
 21
22.4576433472
  0
LINE
  5
3F5
100
AcDbEntity
  8
SMUSSO
100
AcDbLine
 62
7
  6
CONTINUOUS
 10
-14.5944835047
 20
23.8519905733
 11
-14.6001362786
 21
23.8576433472
  0
LINE
  5
3F6
100
AcDbEntity
  8
0
100
AcDbLine
 62
7
  6
CONTINUOUS
 10
-2.8157616025
 20
12.8999320643
 11
-2.8959703811
 21
13.0169535652
  0
LINE
  5
3F7
100
AcDbEntity
  8
0
100
AcDbLine
 62
7
  6
CONTINUOUS
 10
-0.6902408946
 20
11.6712088393
 11
-0.6100321161
 21
11.5541873383
  0
LINE
  5
3F8
100
AcDbEntity
  8
0
100
AcDbLine
 62
7
  6
CONTINUOUS
 10
-0.4095125545
 20
11.6712088397
 11
-0.5298257223
 21
11.8467406441
  0
LINE
  5
3F9
100
AcDbEntity
  8
0
100
AcDbLine
 62
7
  6
CONTINUOUS
 10
-1.532428301
 20
12.8999320661
 11
-1.4522219066
 21
12.7829108632
  0
LINE
  5
3FA
100
AcDbEntity
  8
0
100
AcDbLine
 62
7
  6
CONTINUOUS
 10
-1.2918043501
 20
12.9584426679
 11
-1.3714784035
 21
13.0750740982
  0
LINE
  5
3FB
100
AcDbEntity
  8
0
100
AcDbLine
 62
7
  6
CONTINUOUS
 10
1.7962169285
 20
12.7829108677
 11
1.8764257072
 21
12.6081592066
  0
LINE
  5
3FC
100
AcDbEntity
  8
0
100
AcDbLine
 62
7
  6
CONTINUOUS
 10
2.6386716973
 20
11.6704287026
 11
2.5980325828
 21
11.788230047
  0
LINE
  5
3FD
100
AcDbEntity
  8
0
100
AcDbLine
 62
7
  6
CONTINUOUS
 10
3.4402199879
 20
11.4379462824
 11
3.4808591024
 21
11.3193647967
  0
LINE
  5
3FE
100
AcDbEntity
  8
0
100
AcDbLine
 62
7
  6
CONTINUOUS
 10
3.6811136858
 20
11.3201449383
 11
3.6410092964
 21
11.4956767428
  0
LINE
  5
3FF
100
AcDbEntity
  8
0
100
AcDbLine
 62
7
  6
CONTINUOUS
 10
3.6009049054
 20
12.7244002687
 11
3.560800516
 21
12.8999320733
  0
LINE
  5
400
100
AcDbEntity
  8
0
100
AcDbLine
 62
7
  6
CONTINUOUS
 10
3.4006503237
 20
11.6134783869
 11
3.4402199879
 21
11.4379462824
  0
LINE
  5
401
100
AcDbEntity
  8
0
100
AcDbLine
 62
7
  6
CONTINUOUS
 10
3.6410092964
 20
11.4956767428
 11
3.6009049068
 21
11.7882300484
  0
LINE
  5
402
100
AcDbEntity
  8
0
100
AcDbLine
 62
7
  6
CONTINUOUS
 10
4.884238207
 20
12.7244002706
 11
4.9243425966
 21
12.431846965
  0
LINE
  5
403
100
AcDbEntity
  8
0
100
AcDbLine
 62
7
  6
CONTINUOUS
 10
5.1248621584
 20
12.4318469653
 11
5.0847577688
 21
12.7244002708
  0
LINE
  5
404
100
AcDbEntity
  8
SMUSSO
100
AcDbLine
 62
7
  6
CONTINUOUS
 10
7.9085905892
 20
23.3489164794
 11
7.9055164953
 21
23.8519905733
  0
LINE
  5
405
100
AcDbEntity
  8
DRAFT
100
AcDbLine
 62
7
  6
CONTINUOUS
 10
7.8998637214
 20
-23.7423566528
 11
7.8998637214
 21
-22.3423566528
  0
LINE
  5
406
100
AcDbEntity
  8
DRAFT
100
AcDbLine
 62
7
  6
CONTINUOUS
 10
7.8998637214
 20
22.4576433472
 11
7.8998637214
 21
23.8576433472
  0
LINE
  5
407
100
AcDbEntity
  8
SMUSSO
100
AcDbLine
 62
7
  6
CONTINUOUS
 10
7.9085905892
 20
23.3489164794
 11
7.9085905892
 21
22.4489164794
  0
LINE
  5
408
100
AcDbEntity
  8
SMUSSO
100
AcDbLine
 62
7
  6
CONTINUOUS
 10
7.9085905892
 20
-22.333629785
 11
7.9085905892
 21
-23.233629785
  0
LINE
  5
409
100
AcDbEntity
  8
SMUSSO
100
AcDbLine
 62
7
  6
CONTINUOUS
 10
7.9055164953
 20
-23.7367038789
 11
7.9085905892
 21
-23.233629785
  0
LINE
  5
40A
100
AcDbEntity
  8
RACCORDO
100
AcDbLine
 62
253
  6
CONTINUOUS
 10
17.9046629424
 20
22.4235628696
 11
17.9151647514
 21
22.4489164794
  0
LINE
  5
40B
100
AcDbEntity
  8
RACCORDO
100
AcDbLine
 62
253
  6
CONTINUOUS
 10
18.6117427991
 20
22.1306808033
 11
18.6222446081
 21
22.1560344131
  0
LINE
  5
40C
100
AcDbEntity
  8
DRAFT
100
AcDbLine
 62
7
  6
CONTINUOUS
 10
-10.7001362786
 20
-22.3423566528
 11
-10.6914094108
 21
-22.333629785
  0
LINE
  5
40D
100
AcDbEntity
  8
SMUSSO
100
AcDbLine
 62
7
  6
CONTINUOUS
 10
-10.6944835047
 20
-23.7367038789
 11
-10.7001362786
 21
-23.7423566528
  0
LINE
  5
40E
100
AcDbEntity
  8
RACCORDO
100
AcDbLine
 62
253
  6
CONTINUOUS
 10
-22.5418457542
 20
-18.0072213394
 11
-22.5164921444
 21
-17.9967195304
  0
LINE
  5
40F
100
AcDbEntity
  8
RACCORDO
100
AcDbLine
 62
253
  6
CONTINUOUS
 10
-22.2489636878
 20
-18.7143011961
 11
-22.2236100781
 21
-18.7037993871
  0
LINE
  5
410
100
AcDbEntity
  8
0
100
AcDbLine
 62
7
  6
CONTINUOUS
 10
-5.1501362913
 20
9.0576449259
 11
4.8498637087
 21
9.0576449399
  0
LINE
  5
411
100
AcDbEntity
  8
0
100
AcDbLine
 62
7
  6
CONTINUOUS
 10
-4.8209703313
 20
11.5541873324
 11
-4.9808531709
 21
11.6123081611
  0
LINE
  5
412
100
AcDbEntity
  8
RACCORDO
100
AcDbLine
 62
253
  6
CONTINUOUS
 10
-22.5164921444
 20
18.1120062248
 11
-22.5418457542
 21
18.1225080338
  0
LINE
  5
413
100
AcDbEntity
  8
RACCORDO
100
AcDbLine
 62
253
  6
CONTINUOUS
 10
-22.2236100781
 20
18.8190860815
 11
-22.2489636878
 21
18.8295878905
  0
LINE
  5
414
100
AcDbEntity
  8
0
100
AcDbLine
 62
7
  6
CONTINUOUS
 10
-5.1418042526
 20
11.4371661289
 11
-5.0214910849
 21
11.3786555276
  0
LINE
  5
415
100
AcDbEntity
  8
0
100
AcDbLine
 62
7
  6
CONTINUOUS
 10
-2.174630867
 20
11.4375562038
 11
-2.0933526381
 21
11.378265461
  0
LINE
  5
416
100
AcDbEntity
  8
0
100
AcDbLine
 62
7
  6
CONTINUOUS
 10
-3.1371314412
 20
12.9003221345
 11
-3.0558532124
 21
12.8410313917
  0
LINE
  5
417
100
AcDbEntity
  8
0
100
AcDbLine
 62
7
  6
CONTINUOUS
 10
-0.6100321161
 20
11.5541873383
 11
-0.4897213325
 21
11.4371661355
  0
LINE
  5
418
100
AcDbEntity
  8
0
100
AcDbLine
 62
7
  6
CONTINUOUS
 10
0.9941339148
 20
11.5541873406
 11
1.1144446984
 21
11.4371661377
  0
LINE
  5
419
100
AcDbEntity
  8
0
100
AcDbLine
 62
7
  6
CONTINUOUS
 10
0.1118421191
 20
12.8999320684
 11
0.2321552868
 21
12.7829108655
  0
LINE
  5
41A
100
AcDbEntity
  8
DRAFT
100
AcDbLine
 62
7
  6
CONTINUOUS
 10
-10.6914094108
 20
22.4489164794
 11
-10.7001362786
 21
22.4576433472
  0
LINE
  5
41B
100
AcDbEntity
  8
SMUSSO
100
AcDbLine
 62
7
  6
CONTINUOUS
 10
-10.6944835047
 20
23.8519905733
 11
-10.7001362786
 21
23.8576433472
  0
LINE
  5
41C
100
AcDbEntity
  8
0
100
AcDbLine
 62
7
  6
CONTINUOUS
 10
0.9139251363
 20
11.6712088415
 11
0.9941339148
 21
11.5541873406
  0
LINE
  5
41D
100
AcDbEntity
  8
0
100
AcDbLine
 62
7
  6
CONTINUOUS
 10
0.4326748485
 20
12.8414214673
 11
0.3123616807
 21
13.0169535697
  0
LINE
  5
41E
100
AcDbEntity
  8
0
100
AcDbLine
 62
7
  6
CONTINUOUS
 10
1.1941187512
 20
11.6715989126
 11
1.0746100554
 21
11.845960505
  0
LINE
  5
41F
100
AcDbEntity
  8
0
100
AcDbLine
 62
7
  6
CONTINUOUS
 10
2.4378823889
 20
11.6126982422
 11
2.5576608315
 21
11.4375562104
  0
LINE
  5
420
100
AcDbEntity
  8
0
100
AcDbLine
 62
7
  6
CONTINUOUS
 10
2.0368408796
 20
12.7244002665
 11
1.9165300959
 21
12.9584426725
  0
LINE
  5
421
100
AcDbEntity
  8
RACCORDO
100
AcDbLine
 62
253
  6
CONTINUOUS
 10
17.9151647514
 20
-22.333629785
 11
17.9046629424
 21
-22.3082761752
  0
LINE
  5
422
100
AcDbEntity
  8
RACCORDO
100
AcDbLine
 62
253
  6
CONTINUOUS
 10
18.6222446081
 20
-22.0407477187
 11
18.6117427991
 21
-22.0153941089
  0
LINE
  5
423
100
AcDbEntity
  8
0
100
AcDbLine
 62
7
  6
CONTINUOUS
 10
3.3605459327
 20
12.8418115421
 11
3.4006503221
 21
12.7236201271
  0
LINE
  5
424
100
AcDbEntity
  8
0
100
AcDbLine
 62
7
  6
CONTINUOUS
 10
5.0847577688
 20
12.7244002708
 11
5.0446533793
 21
12.8999320753
  0
LINE
  5
425
100
AcDbEntity
  8
SMUSSO
100
AcDbLine
 62
7
  6
CONTINUOUS
 10
10.3911368536
 20
-23.233629785
 11
10.3942109475
 21
-23.7367038789
  0
LINE
  5
426
100
AcDbEntity
  8
SMUSSO
100
AcDbLine
 62
7
  6
CONTINUOUS
 10
11.8085905892
 20
23.3489164794
 11
11.8055164953
 21
23.8519905733
  0
LINE
  5
427
100
AcDbEntity
  8
SMUSSO
100
AcDbLine
 62
7
  6
CONTINUOUS
 10
10.3911368536
 20
23.3489164794
 11
10.3911368536
 21
22.4489164794
  0
LINE
  5
428
100
AcDbEntity
  8
SMUSSO
100
AcDbLine
 62
7
  6
CONTINUOUS
 10
10.3911368536
 20
-22.333629785
 11
10.3911368536
 21
-23.233629785
  0
LINE
  5
429
100
AcDbEntity
  8
DRAFT
100
AcDbLine
 62
7
  6
CONTINUOUS
 10
10.3998637214
 20
-23.7423566528
 11
10.3998637214
 21
-22.3423566528
  0
LINE
  5
42A
100
AcDbEntity
  8
DRAFT
100
AcDbLine
 62
7
  6
CONTINUOUS
 10
10.3998637214
 20
22.4576433472
 11
10.3998637214
 21
23.8576433472
  0
LINE
  5
42B
100
AcDbEntity
  8
DRAFT
100
AcDbLine
 62
7
  6
CONTINUOUS
 10
11.7998637214
 20
-23.7423566528
 11
11.7998637214
 21
-22.3423566528
  0
LINE
  5
42C
100
AcDbEntity
  8
DRAFT
100
AcDbLine
 62
7
  6
CONTINUOUS
 10
11.7998637214
 20
22.4576433472
 11
11.7998637214
 21
23.8576433472
  0
LINE
  5
42D
100
AcDbEntity
  8
SMUSSO
100
AcDbLine
 62
7
  6
CONTINUOUS
 10
11.8085905892
 20
23.3489164794
 11
11.8085905892
 21
22.4489164794
  0
LINE
  5
42E
100
AcDbEntity
  8
SMUSSO
100
AcDbLine
 62
7
  6
CONTINUOUS
 10
11.8085905892
 20
-22.333629785
 11
11.8085905892
 21
-23.233629785
  0
LINE
  5
42F
100
AcDbEntity
  8
SMUSSO
100
AcDbLine
 62
7
  6
CONTINUOUS
 10
10.3942109475
 20
23.8519905733
 11
10.3911368536
 21
23.3489164794
  0
LINE
  5
430
100
AcDbEntity
  8
SMUSSO
100
AcDbLine
 62
7
  6
CONTINUOUS
 10
11.8055164953
 20
-23.7367038789
 11
11.8085905892
 21
-23.233629785
  0
LINE
  5
431
100
AcDbEntity
  8
0
100
AcDbLine
 62
7
  6
CONTINUOUS
 10
2.9592370628
 20
12.5488684633
 11
2.718613112
 21
12.4903575634
  0
LINE
  5
432
100
AcDbEntity
  8
0
100
AcDbLine
 62
7
  6
CONTINUOUS
 10
1.4753842013
 20
11.3201449352
 11
1.7561125413
 21
11.3786555371
  0
LINE
  5
433
100
AcDbEntity
  8
0
100
AcDbLine
 62
7
  6
CONTINUOUS
 10
1.7160081518
 20
11.6126982412
 11
1.4352798117
 21
11.5541873412
  0
LINE
  5
434
100
AcDbEntity
  8
0
100
AcDbLine
 62
7
  6
CONTINUOUS
 10
-0.1287842138
 20
11.3201449329
 11
0.1519465104
 21
11.3786555348
  0
LINE
  5
435
100
AcDbEntity
  8
0
100
AcDbLine
 62
7
  6
CONTINUOUS
 10
0.1118421209
 20
11.6126982389
 11
-0.1688886033
 21
11.554187339
  0
LINE
  5
436
100
AcDbEntity
  8
0
100
AcDbLine
 62
7
  6
CONTINUOUS
 10
-4.7808671339
 20
11.3201449264
 11
-4.5001376017
 21
11.3786555283
  0
LINE
  5
437
100
AcDbEntity
  8
0
100
AcDbLine
 62
7
  6
CONTINUOUS
 10
3.4808591024
 20
11.3193647967
 11
3.6811136858
 21
11.3201449383
  0
LINE
  5
438
100
AcDbEntity
  8
0
100
AcDbLine
 62
7
  6
CONTINUOUS
 10
5.4748637061
 20
10.9451449408
 11
-5.7751362939
 21
10.945144925
  0
LINE
  5
439
100
AcDbEntity
  8
0
100
AcDbLine
 62
7
  6
CONTINUOUS
 10
-3.8584709509
 20
11.3201449277
 11
-3.6579490049
 21
11.320144928
  0
LINE
  5
43A
100
AcDbEntity
  8
0
100
AcDbLine
 62
7
  6
CONTINUOUS
 10
-2.9360747679
 20
11.320144929
 11
-2.7355552061
 21
11.3201449293
  0
LINE
  5
43B
100
AcDbEntity
  8
0
100
AcDbLine
 62
7
  6
CONTINUOUS
 10
-1.9334698065
 20
11.3201449304
 11
-1.6126370771
 21
11.3201449308
  0
LINE
  5
43C
100
AcDbEntity
  8
0
100
AcDbLine
 62
7
  6
CONTINUOUS
 10
2.798821892
 20
11.3201449371
 11
3.039445843
 21
11.3201449374
  0
LINE
  5
43D
100
AcDbEntity
  8
0
100
AcDbLine
 62
7
  6
CONTINUOUS
 10
4.0019464152
 20
11.3201449388
 11
4.2024659769
 21
11.320144939
  0
LINE
  5
43E
100
AcDbEntity
  8
0
100
AcDbLine
 62
7
  6
CONTINUOUS
 10
4.9243425982
 20
11.3201449401
 11
5.1248621599
 21
11.3201449403
  0
LINE
  5
43F
100
AcDbEntity
  8
0
100
AcDbLine
 62
7
  6
CONTINUOUS
 10
3.0394458426
 20
11.5541873435
 11
2.7988218917
 21
11.5541873431
  0
LINE
  5
440
100
AcDbEntity
  8
0
100
AcDbLine
 62
7
  6
CONTINUOUS
 10
-1.6928458558
 20
11.5541873368
 11
-1.8532634126
 21
11.5541873366
  0
LINE
  5
441
100
AcDbEntity
  8
0
100
AcDbLine
 62
7
  6
CONTINUOUS
 10
2.0769452699
 20
11.9052512493
 11
1.8764257082
 21
11.905251249
  0
LINE
  5
442
100
AcDbEntity
  8
0
100
AcDbLine
 62
7
  6
CONTINUOUS
 10
0.472779239
 20
11.905251247
 11
0.2722572931
 21
11.9052512467
  0
LINE
  5
443
100
AcDbEntity
  8
0
100
AcDbLine
 62
7
  6
CONTINUOUS
 10
-4.179303681
 20
11.9052512405
 11
-4.3798244349
 21
11.9052512402
  0
LINE
  5
444
100
AcDbEntity
  8
0
100
AcDbLine
 62
7
  6
CONTINUOUS
 10
-5.0214910849
 20
11.3786555276
 11
-4.7808671339
 21
11.3201449264
  0
LINE
  5
445
100
AcDbEntity
  8
0
100
AcDbLine
 62
7
  6
CONTINUOUS
 10
-0.3694081649
 20
11.3786555341
 11
-0.1287842138
 21
11.3201449329
  0
LINE
  5
446
100
AcDbEntity
  8
0
100
AcDbLine
 62
7
  6
CONTINUOUS
 10
1.234757866
 20
11.3786555364
 11
1.4753842013
 21
11.3201449352
  0
LINE
  5
447
100
AcDbEntity
  8
0
100
AcDbLine
 62
7
  6
CONTINUOUS
 10
-4.8209703333
 20
12.958442663
 11
-4.5803463823
 21
12.8999320618
  0
LINE
  5
448
100
AcDbEntity
  8
0
100
AcDbLine
 62
7
  6
CONTINUOUS
 10
-4.5402419934
 20
13.133974766
 11
-4.7808671365
 21
13.1924853671
  0
LINE
  5
449
100
AcDbEntity
  8
0
100
AcDbLine
 62
7
  6
CONTINUOUS
 10
-2.0933526381
 20
11.378265461
 11
-1.9334698065
 21
11.3201449304
  0
LINE
  5
44A
100
AcDbEntity
  8
0
100
AcDbLine
 62
7
  6
CONTINUOUS
 10
-3.2970118887
 20
12.9584426651
 11
-3.1371314412
 21
12.9003221345
  0
LINE
  5
44B
100
AcDbEntity
  8
0
100
AcDbLine
 62
7
  6
CONTINUOUS
 10
1.4352798117
 20
11.5541873412
 11
1.2753969801
 21
11.6123081699
  0
LINE
  5
44C
100
AcDbEntity
  8
0
100
AcDbLine
 62
7
  6
CONTINUOUS
 10
2.6389390603
 20
11.3782654677
 11
2.798821892
 21
11.3201449371
  0
LINE
  5
44D
100
AcDbEntity
  8
0
100
AcDbLine
 62
7
  6
CONTINUOUS
 10
-1.4527566323
 20
13.134364841
 11
-1.6126370798
 21
13.1924853716
  0
LINE
  5
44E
100
AcDbEntity
  8
0
100
AcDbLine
 62
7
  6
CONTINUOUS
 10
-1.8532634126
 20
11.5541873366
 11
-2.0136785853
 21
11.6126982359
  0
LINE
  5
44F
100
AcDbEntity
  8
0
100
AcDbLine
 62
7
  6
CONTINUOUS
 10
-1.6928458578
 20
12.9584426674
 11
-1.532428301
 21
12.8999320661
  0
LINE
  5
450
100
AcDbEntity
  8
0
100
AcDbLine
 62
7
  6
CONTINUOUS
 10
-0.4897213325
 20
11.4371661355
 11
-0.3694081649
 21
11.3786555341
  0
LINE
  5
451
100
AcDbEntity
  8
0
100
AcDbLine
 62
7
  6
CONTINUOUS
 10
-0.1688886033
 20
11.554187339
 11
-0.4095125545
 21
11.6712088397
  0
LINE
  5
452
100
AcDbEntity
  8
0
100
AcDbLine
 62
7
  6
CONTINUOUS
 10
-3.0162835488
 20
13.1339747681
 11
-3.1365967164
 21
13.1924853694
  0
LINE
  5
453
100
AcDbEntity
  8
0
100
AcDbLine
 62
7
  6
CONTINUOUS
 10
1.1144446984
 20
11.4371661377
 11
1.234757866
 21
11.3786555364
  0
LINE
  5
454
100
AcDbEntity
  8
0
100
AcDbLine
 62
7
  6
CONTINUOUS
 10
2.7988218917
 20
11.5541873431
 11
2.6386716973
 21
11.6704287026
  0
LINE
  5
455
100
AcDbEntity
  8
0
100
AcDbLine
 62
7
  6
CONTINUOUS
 10
-1.3714784035
 20
13.0750740982
 11
-1.4527566323
 21
13.134364841
  0
LINE
  5
456
100
AcDbEntity
  8
0
100
AcDbLine
 62
7
  6
CONTINUOUS
 10
1.2753969801
 20
11.6123081699
 11
1.1941187512
 21
11.6715989126
  0
LINE
  5
457
100
AcDbEntity
  8
0
100
AcDbLine
 62
7
  6
CONTINUOUS
 10
0.3123616807
 20
13.0169535697
 11
0.151946508
 21
13.1339747726
  0
LINE
  5
458
100
AcDbEntity
  8
0
100
AcDbLine
 62
7
  6
CONTINUOUS
 10
2.5576608315
 20
11.4375562104
 11
2.6389390603
 21
11.3782654677
  0
LINE
  5
459
100
AcDbEntity
  8
0
100
AcDbLine
 62
7
  6
CONTINUOUS
 10
1.9165300959
 20
12.9584426725
 11
1.7160081497
 21
13.1339747748
  0
LINE
  5
45A
100
AcDbEntity
  8
0
100
AcDbLine
 62
7
  6
CONTINUOUS
 10
1.6759037608
 20
12.8999320706
 11
1.7962169285
 21
12.7829108677
  0
LINE
  5
45B
100
AcDbEntity
  8
0
100
AcDbLine
 62
7
  6
CONTINUOUS
 10
3.4805917375
 20
13.0169535742
 11
3.3602785697
 21
13.1339747771
  0
LINE
  5
45C
100
AcDbEntity
  8
0
100
AcDbLine
 62
7
  6
CONTINUOUS
 10
3.560800516
 20
12.8999320733
 11
3.4805917375
 21
13.0169535742
  0
LINE
  5
45D
100
AcDbEntity
  8
0
100
AcDbLine
 62
7
  6
CONTINUOUS
 10
5.0446533793
 20
12.8999320753
 11
4.964446985
 21
13.0169535763
  0
LINE
  5
45E
100
AcDbEntity
  8
0
100
AcDbLine
 62
7
  6
CONTINUOUS
 10
4.8045641536
 20
12.8410314028
 11
4.884238207
 21
12.7244002706
  0
LINE
  5
45F
100
AcDbEntity
  8
SMUSSO
100
AcDbLine
 62
7
  6
CONTINUOUS
 10
14.2911368536
 20
-23.233629785
 11
14.2942109475
 21
-23.7367038789
  0
LINE
  5
460
100
AcDbEntity
  8
0
100
AcDbLine
 62
7
  6
CONTINUOUS
 10
12.3498637473
 20
-18.3423550495
 11
12.3498637496
 21
-19.9423550495
  0
LINE
  5
461
100
AcDbEntity
  8
0
100
AcDbLine
 62
7
  6
CONTINUOUS
 10
12.3498636955
 20
18.4576449505
 11
12.3498636933
 21
20.0576449505
  0
LINE
  5
462
100
AcDbEntity
  8
0
100
AcDbLine
 62
253
  6
CONTINUOUS
 10
12.5498637496
 20
-19.9423550915
 11
12.549863747
 21
-18.1423550821
  0
LINE
  5
463
100
AcDbEntity
  8
0
100
AcDbLine
 62
253
  6
CONTINUOUS
 10
12.5498636958
 20
18.2576449179
 11
12.5498636933
 21
20.0576449085
  0
LINE
  5
464
100
AcDbEntity
  8
RACCORDO
100
AcDbLine
 62
7
  6
CONTINUOUS
 10
12.673681124
 20
20.1314607498
 11
12.673681124
 21
18.8314150583
  0
LINE
  5
465
100
AcDbEntity
  8
RACCORDO
100
AcDbLine
 62
7
  6
CONTINUOUS
 10
12.673681124
 20
-18.716128364
 11
12.673681124
 21
-20.0161740554
  0
LINE
  5
466
100
AcDbEntity
  8
0
100
AcDbLine
 62
7
  6
CONTINUOUS
 10
13.5998637376
 20
-11.442355043
 11
13.5998637207
 21
0.557644957
  0
LINE
  5
467
100
AcDbEntity
  8
SMUSSO
100
AcDbLine
 62
7
  6
CONTINUOUS
 10
14.2911368536
 20
-23.233629785
 11
14.2911368536
 21
-22.333629785
  0
LINE
  5
468
100
AcDbEntity
  8
SMUSSO
100
AcDbLine
 62
7
  6
CONTINUOUS
 10
14.2911368536
 20
22.4489164794
 11
14.2911368536
 21
23.3489164794
  0
LINE
  5
469
100
AcDbEntity
  8
DRAFT
100
AcDbLine
 62
7
  6
CONTINUOUS
 10
14.2998637214
 20
23.8576433472
 11
14.2998637214
 21
22.4576433472
  0
LINE
  5
46A
100
AcDbEntity
  8
DRAFT
100
AcDbLine
 62
7
  6
CONTINUOUS
 10
14.2998637214
 20
-22.3423566528
 11
14.2998637214
 21
-23.7423566528
  0
LINE
  5
46B
100
AcDbEntity
  8
SMUSSO
100
AcDbLine
 62
7
  6
CONTINUOUS
 10
14.2942109475
 20
23.8519905733
 11
14.2911368536
 21
23.3489164794
  0
LINE
  5
46C
100
AcDbEntity
  8
RACCORDO
100
AcDbLine
 62
7
  6
CONTINUOUS
 10
18.756906674
 20
1.7146862997
 11
18.7498637214
 21
1.7076433472
  0
LINE
  5
46D
100
AcDbEntity
  8
DRAFT
100
AcDbLine
 62
7
  6
CONTINUOUS
 10
19.8643339033
 20
1.7076433472
 11
19.8748069422
 21
1.7181163862
  0
LINE
  5
46E
100
AcDbEntity
  8
0
100
AcDbLine
 62
7
  6
CONTINUOUS
 10
1.4753841986
 20
13.1924853759
 11
1.2347578636
 21
13.1339747741
  0
LINE
  5
46F
100
AcDbEntity
  8
0
100
AcDbLine
 62
7
  6
CONTINUOUS
 10
-0.1287842164
 20
13.1924853737
 11
-0.3694081673
 21
13.1339747718
  0
LINE
  5
470
100
AcDbEntity
  8
0
100
AcDbLine
 62
7
  6
CONTINUOUS
 10
-4.7808671365
 20
13.1924853671
 11
-5.0214910874
 21
13.1339747653
  0
LINE
  5
471
100
AcDbEntity
  8
0
100
AcDbLine
 62
7
  6
CONTINUOUS
 10
-4.5402419912
 20
11.6126982323
 11
-4.8209703313
 21
11.5541873324
  0
LINE
  5
472
100
AcDbEntity
  8
0
100
AcDbLine
 62
7
  6
CONTINUOUS
 10
2.8790282836
 20
13.1924853779
 11
2.5988346687
 21
13.1343648467
  0
LINE
  5
473
100
AcDbEntity
  8
0
100
AcDbLine
 62
7
  6
CONTINUOUS
 10
2.9592370632
 20
12.3148257592
 11
3.4003829601
 21
12.3148257598
  0
LINE
  5
474
100
AcDbEntity
  8
0
100
AcDbLine
 62
7
  6
CONTINUOUS
 10
3.4003829597
 20
12.5488684639
 11
2.9592370628
 21
12.5488684633
  0
LINE
  5
475
100
AcDbEntity
  8
0
100
AcDbLine
 62
7
  6
CONTINUOUS
 10
0.2722572921
 20
12.607379061
 11
0.472779238
 21
12.6073790613
  0
LINE
  5
476
100
AcDbEntity
  8
0
100
AcDbLine
 62
7
  6
CONTINUOUS
 10
2.3977803823
 20
12.7236201257
 11
2.5980325815
 21
12.723620126
  0
LINE
  5
477
100
AcDbEntity
  8
0
100
AcDbLine
 62
7
  6
CONTINUOUS
 10
-1.8532634146
 20
12.9584426672
 11
-1.6928458578
 21
12.9584426674
  0
LINE
  5
478
100
AcDbEntity
  8
0
100
AcDbLine
 62
7
  6
CONTINUOUS
 10
2.8790282839
 20
12.9584426738
 11
3.119654619
 21
12.9584426742
  0
LINE
  5
479
100
AcDbEntity
  8
0
100
AcDbLine
 62
7
  6
CONTINUOUS
 10
4.7238206496
 20
13.1924853805
 11
4.5634030928
 21
13.1924853803
  0
LINE
  5
47A
100
AcDbEntity
  8
0
100
AcDbLine
 62
7
  6
CONTINUOUS
 10
4.2024659743
 20
13.1924853798
 11
4.0019464125
 21
13.1924853795
  0
LINE
  5
47B
100
AcDbEntity
  8
0
100
AcDbLine
 62
7
  6
CONTINUOUS
 10
3.1196546187
 20
13.1924853783
 11
2.8790282836
 21
13.1924853779
  0
LINE
  5
47C
100
AcDbEntity
  8
0
100
AcDbLine
 62
7
  6
CONTINUOUS
 10
-1.6126370798
 20
13.1924853716
 11
-1.9334698091
 21
13.1924853711
  0
LINE
  5
47D
100
AcDbEntity
  8
0
100
AcDbLine
 62
7
  6
CONTINUOUS
 10
-3.1365967164
 20
13.1924853694
 11
-3.297011889
 21
13.1924853692
  0
LINE
  5
47E
100
AcDbEntity
  8
0
100
AcDbLine
 62
7
  6
CONTINUOUS
 10
-3.6579490076
 20
13.1924853687
 11
-3.8584709535
 21
13.1924853684
  0
LINE
  5
47F
100
AcDbEntity
  8
0
100
AcDbLine
 62
7
  6
CONTINUOUS
 10
-5.7751362976
 20
13.570144925
 11
5.4748637024
 21
13.5701449408
  0
LINE
  5
480
100
AcDbEntity
  8
0
100
AcDbLine
 62
7
  6
CONTINUOUS
 10
-4.3798244357
 20
12.4895774101
 11
-5.2220130324
 21
12.4899674796
  0
LINE
  5
481
100
AcDbEntity
  8
0
100
AcDbLine
 62
7
  6
CONTINUOUS
 10
1.8764257073
 20
12.4895774189
 11
1.0342383027
 21
12.4899674884
  0
LINE
  5
482
100
AcDbEntity
  8
0
100
AcDbLine
 62
7
  6
CONTINUOUS
 10
-5.2621162292
 20
12.2570952874
 11
-4.1793036815
 21
12.2563151476
  0
LINE
  5
483
100
AcDbEntity
  8
0
100
AcDbLine
 62
7
  6
CONTINUOUS
 10
0.9941339138
 20
12.2570952962
 11
2.0769452694
 21
12.2563151564
  0
LINE
  5
484
100
AcDbEntity
  8
0
100
AcDbLine
 62
7
  6
CONTINUOUS
 10
-0.1688886053
 20
12.9584426695
 11
0.1118421191
 21
12.8999320684
  0
LINE
  5
485
100
AcDbEntity
  8
0
100
AcDbLine
 62
7
  6
CONTINUOUS
 10
0.151946508
 20
13.1339747726
 11
-0.1287842164
 21
13.1924853737
  0
LINE
  5
486
100
AcDbEntity
  8
0
100
AcDbLine
 62
7
  6
CONTINUOUS
 10
1.4352798098
 20
12.9584426718
 11
1.6759037608
 21
12.8999320706
  0
LINE
  5
487
100
AcDbEntity
  8
0
100
AcDbLine
 62
7
  6
CONTINUOUS
 10
1.7160081497
 20
13.1339747748
 11
1.4753841986
 21
13.1924853759
  0
LINE
  5
488
100
AcDbEntity
  8
0
100
AcDbLine
 62
7
  6
CONTINUOUS
 10
3.3602785697
 20
13.1339747771
 11
3.1196546187
 21
13.1924853783
  0
LINE
  5
489
100
AcDbEntity
  8
0
100
AcDbLine
 62
7
  6
CONTINUOUS
 10
3.119654619
 20
12.9584426742
 11
3.2795350665
 21
12.9003221435
  0
LINE
  5
48A
100
AcDbEntity
  8
0
100
AcDbLine
 62
7
  6
CONTINUOUS
 10
4.5634030931
 20
12.9584426762
 11
4.7232859248
 21
12.9003221456
  0
LINE
  5
48B
100
AcDbEntity
  8
0
100
AcDbLine
 62
7
  6
CONTINUOUS
 10
4.8441338172
 20
13.1339747792
 11
4.7238206496
 21
13.1924853805
  0
LINE
  5
48C
100
AcDbEntity
  8
0
100
AcDbLine
 62
7
  6
CONTINUOUS
 10
3.2795350665
 20
12.9003221435
 11
3.3605459327
 21
12.8418115421
  0
LINE
  5
48D
100
AcDbEntity
  8
0
100
AcDbLine
 62
7
  6
CONTINUOUS
 10
4.7232859248
 20
12.9003221456
 11
4.8045641536
 21
12.8410314028
  0
LINE
  5
48E
100
AcDbEntity
  8
0
100
AcDbLine
 62
7
  6
CONTINUOUS
 10
4.964446985
 20
13.0169535763
 11
4.8441338172
 21
13.1339747792
  0
LINE
  5
48F
100
AcDbEntity
  8
RACCORDO
100
AcDbLine
 62
7
  6
CONTINUOUS
 10
18.756906674
 20
-1.5993996054
 11
18.7498637214
 21
-1.5923566528
  0
LINE
  5
490
100
AcDbEntity
  8
DRAFT
100
AcDbLine
 62
7
  6
CONTINUOUS
 10
19.8643339033
 20
-1.5923566528
 11
19.8748069422
 21
-1.6028296918
  0
LINE
  5
491
100
AcDbEntity
  8
0
100
AcDbLine
 62
7
  6
CONTINUOUS
 10
1.3498637003
 20
15.057644935
 11
-1.6501362997
 21
15.0576449308
  0
LINE
  5
492
100
AcDbEntity
  8
0
100
AcDbLine
 62
7
  6
CONTINUOUS
 10
-0.3501363004
 20
15.5576449326
 11
0.0498636996
 21
15.5576449332
  0
LINE
  5
493
100
AcDbEntity
  8
0
100
AcDbLine
 62
7
  6
CONTINUOUS
 10
0.0498636992
 20
15.8576449332
 11
-0.3501363008
 21
15.8576449326
  0
LINE
  5
494
100
AcDbEntity
  8
RACCORDO
100
AcDbLine
 62
253
  6
CONTINUOUS
 10
19.2564279111
 20
-23.8866942201
 11
19.2498637214
 21
-23.4524219513
  0
LINE
  5
495
100
AcDbEntity
  8
0
100
AcDbLine
 62
7
  6
CONTINUOUS
 10
17.4498637266
 20
-3.6423550423
 11
17.4498637162
 21
3.7576449577
  0
LINE
  5
496
100
AcDbEntity
  8
RACCORDO
100
AcDbLine
 62
253
  6
CONTINUOUS
 10
17.9046629424
 20
22.4235628696
 11
17.9046629424
 21
21.8235857158
  0
LINE
  5
497
100
AcDbEntity
  8
RACCORDO
100
AcDbLine
 62
253
  6
CONTINUOUS
 10
17.9046629424
 20
-22.3082761752
 11
17.9046629424
 21
-21.7082990214
  0
LINE
  5
498
100
AcDbEntity
  8
0
100
AcDbLine
 62
7
  6
CONTINUOUS
 10
18.4498637266
 20
-3.6423550973
 11
18.4498637162
 21
3.7576449027
  0
LINE
  5
499
100
AcDbEntity
  8
DRAFT
100
AcDbLine
 62
7
  6
CONTINUOUS
 10
18.7498637214
 20
1.9576448232
 11
18.7498637214
 21
1.7076433472
  0
LINE
  5
49A
100
AcDbEntity
  8
DRAFT
100
AcDbLine
 62
7
  6
CONTINUOUS
 10
18.7498637214
 20
-1.5923566528
 11
18.7498637214
 21
-1.8423551768
  0
LINE
  5
49B
100
AcDbEntity
  8
RACCORDO
100
AcDbLine
 62
253
  6
CONTINUOUS
 10
18.756906674
 20
-1.8423551774
 11
18.756906674
 21
-1.5993996054
  0
LINE
  5
49C
100
AcDbEntity
  8
RACCORDO
100
AcDbLine
 62
253
  6
CONTINUOUS
 10
18.756906674
 20
1.7146862997
 11
18.756906674
 21
1.9576448226
  0
LINE
  5
49D
100
AcDbEntity
  8
RACCORDO
100
AcDbLine
 62
253
  6
CONTINUOUS
 10
18.956876213
 20
-1.8423551959
 11
18.956876213
 21
-1.6028296918
  0
LINE
  5
49E
100
AcDbEntity
  8
RACCORDO
100
AcDbLine
 62
253
  6
CONTINUOUS
 10
18.956876213
 20
1.7181163862
 11
18.956876213
 21
1.9576448041
  0
LINE
  5
49F
100
AcDbEntity
  8
RACCORDO
100
AcDbLine
 62
253
  6
CONTINUOUS
 10
19.2564279111
 20
24.0019809145
 11
19.2498637214
 21
23.5677086457
  0
LINE
  5
4A0
100
AcDbEntity
  8
DRAFT
100
AcDbLine
 62
7
  6
CONTINUOUS
 10
19.9708164759
 20
3.8039799559
 11
19.8748069422
 21
3.5157171238
  0
LINE
  5
4A1
100
AcDbEntity
  8
RACCORDO
100
AcDbLine
 62
253
  6
CONTINUOUS
 10
-22.5164921444
 20
18.1120062248
 11
-21.9165149906
 21
18.1120062248
  0
LINE
  5
4A2
100
AcDbEntity
  8
RACCORDO
100
AcDbLine
 62
253
  6
CONTINUOUS
 10
22.2162195872
 20
18.1120062248
 11
21.6162424334
 21
18.1120062248
  0
LINE
  5
4A3
100
AcDbEntity
  8
0
100
AcDbLine
 62
7
  6
CONTINUOUS
 10
18.4498636958
 20
18.2576449591
 11
12.5498636958
 21
18.2576449508
  0
LINE
  5
4A4
100
AcDbEntity
  8
0
100
AcDbLine
 62
7
  6
CONTINUOUS
 10
-0.3501363042
 20
18.2576449326
 11
0.0498636958
 21
18.2576449332
  0
LINE
  5
4A5
100
AcDbEntity
  8
0
100
AcDbLine
 62
7
  6
CONTINUOUS
 10
-12.8501363042
 20
18.257644915
 11
-18.7501363042
 21
18.2576449067
  0
LINE
  5
4A6
100
AcDbEntity
  8
0
100
AcDbLine
 62
253
  6
CONTINUOUS
 10
18.2498636955
 20
18.4576449165
 11
12.3498636955
 21
18.4576449176
  0
LINE
  5
4A7
100
AcDbEntity
  8
0
100
AcDbLine
 62
253
  6
CONTINUOUS
 10
-12.6501363045
 20
18.4576448824
 11
-18.5501363045
 21
18.4576448647
  0
LINE
  5
4A8
100
AcDbEntity
  8
RACCORDO
100
AcDbLine
 62
7
  6
CONTINUOUS
 10
-18.5502650696
 20
18.5314607498
 11
-13.2739079897
 21
18.5314607498
  0
LINE
  5
4A9
100
AcDbEntity
  8
RACCORDO
100
AcDbLine
 62
7
  6
CONTINUOUS
 10
12.9736354326
 20
18.5314607498
 11
18.2499925124
 21
18.5314607498
  0
LINE
  5
4AA
100
AcDbEntity
  8
0
100
AcDbLine
 62
7
  6
CONTINUOUS
 10
0.0498636954
 20
18.5576449332
 11
-0.3501363046
 21
18.5576449326
  0
LINE
  5
4AB
100
AcDbEntity
  8
0
100
AcDbLine
 62
7
  6
CONTINUOUS
 10
-1.6501363053
 20
19.0576449308
 11
1.3498636947
 21
19.057644935
  0
LINE
  5
4AC
100
AcDbEntity
  8
DRAFT
100
AcDbLine
 62
7
  6
CONTINUOUS
 10
19.9708164759
 20
-3.6886932615
 11
19.8748069422
 21
-3.4004304294
  0
LINE
  5
4AD
100
AcDbEntity
  8
RACCORDO
100
AcDbLine
 62
253
  6
CONTINUOUS
 10
19.5064183919
 20
-23.6701878692
 11
19.4987823825
 21
-23.1650063836
  0
LINE
  5
4AE
100
AcDbEntity
  8
RACCORDO
100
AcDbLine
 62
253
  6
CONTINUOUS
 10
20.993309051
 20
23.7854745635
 11
21.0009450603
 21
23.280293078
  0
LINE
  5
4AF
100
AcDbEntity
  8
RACCORDO
100
AcDbLine
 62
7
  6
CONTINUOUS
 10
19.2498637214
 20
-24.192366172
 11
19.2498637214
 21
-22.3423566528
  0
LINE
  5
4B0
100
AcDbEntity
  8
RACCORDO
100
AcDbLine
 62
7
  6
CONTINUOUS
 10
19.2498637214
 20
22.4576433472
 11
19.2498637214
 21
24.3076528664
  0
LINE
  5
4B1
100
AcDbEntity
  8
RACCORDO
100
AcDbLine
 62
7
  6
CONTINUOUS
 10
19.2564279111
 20
24.3010886768
 11
19.2564279111
 21
24.0019809145
  0
LINE
  5
4B2
100
AcDbEntity
  8
RACCORDO
100
AcDbLine
 62
7
  6
CONTINUOUS
 10
19.2564279111
 20
-24.1858019824
 11
19.2564279111
 21
-23.8866942201
  0
LINE
  5
4B3
100
AcDbEntity
  8
RACCORDO
100
AcDbLine
 62
253
  6
CONTINUOUS
 10
19.5064183919
 20
24.5510791575
 11
19.5064183919
 21
23.7854745635
  0
LINE
  5
4B4
100
AcDbEntity
  8
RACCORDO
100
AcDbLine
 62
253
  6
CONTINUOUS
 10
19.5064183919
 20
-24.4357924631
 11
19.5064183919
 21
-23.6701878692
  0
LINE
  5
4B5
100
AcDbEntity
  8
SUPERFICI
100
AcDbLine
 62
7
  6
CONTINUOUS
 10
19.7498637265
 20
-3.5423566568
 11
19.7498637241
 21
-1.8423552694
  0
LINE
  5
4B6
100
AcDbEntity
  8
SUPERFICI
100
AcDbLine
 62
7
  6
CONTINUOUS
 10
19.7498637187
 20
1.9576447306
 11
19.7498637163
 21
3.6576433432
  0
LINE
  5
4B7
100
AcDbEntity
  8
SUPERFICI
100
AcDbLine
 62
7
  6
CONTINUOUS
 10
19.8498637197
 20
1.3076444955
 11
19.8498637232
 21
-1.1923555042
  0
LINE
  5
4B8
100
AcDbEntity
  8
SUPERFICI
100
AcDbLine
 62
7
  6
CONTINUOUS
 10
19.8498637266
 20
-3.6423550389
 11
19.8498637265
 21
-3.5423568162
  0
LINE
  5
4B9
100
AcDbEntity
  8
0
100
AcDbLine
 62
7
  6
CONTINUOUS
 10
19.8498637448
 20
-16.5352482577
 11
19.8498637266
 21
-3.6423550389
  0
LINE
  5
4BA
100
AcDbEntity
  8
SUPERFICI
100
AcDbLine
 62
7
  6
CONTINUOUS
 10
19.8498637163
 20
3.6576431838
 11
19.8498637162
 21
3.7576449611
  0
LINE
  5
4BB
100
AcDbEntity
  8
0
100
AcDbLine
 62
7
  6
CONTINUOUS
 10
19.8498637162
 20
3.7576449611
 11
19.849863698
 21
16.6505381799
  0
LINE
  5
4BC
100
AcDbEntity
  8
DRAFT
100
AcDbLine
 62
7
  6
CONTINUOUS
 10
19.8643339033
 20
1.7076433472
 11
19.8643339033
 21
-1.5923566528
  0
LINE
  5
4BD
100
AcDbEntity
  8
DRAFT
100
AcDbLine
 62
7
  6
CONTINUOUS
 10
19.8748069422
 20
-3.4004304294
 11
19.8748069422
 21
-1.6028296918
  0
LINE
  5
4BE
100
AcDbEntity
  8
DRAFT
100
AcDbLine
 62
7
  6
CONTINUOUS
 10
19.8748069422
 20
1.7181163862
 11
19.8748069422
 21
3.5157171238
  0
LINE
  5
4BF
100
AcDbEntity
  8
DRAFT
100
AcDbLine
 62
7
  6
CONTINUOUS
 10
19.923681124
 20
16.8577721382
 11
19.923681124
 21
13.3662474941
  0
LINE
  5
4C0
100
AcDbEntity
  8
DRAFT
100
AcDbLine
 62
7
  6
CONTINUOUS
 10
19.923681124
 20
12.7490392003
 11
19.923681124
 21
3.8196789731
  0
LINE
  5
4C1
100
AcDbEntity
  8
DRAFT
100
AcDbLine
 62
7
  6
CONTINUOUS
 10
19.923681124
 20
-3.7043922787
 11
19.923681124
 21
-12.6337525059
  0
LINE
  5
4C2
100
AcDbEntity
  8
DRAFT
100
AcDbLine
 62
7
  6
CONTINUOUS
 10
19.923681124
 20
-13.2509607997
 11
19.923681124
 21
-16.7424854438
  0
LINE
  5
4C3
100
AcDbEntity
  8
DRAFT
100
AcDbLine
 62
7
  6
CONTINUOUS
 10
19.9760463188
 20
3.8196822436
 11
19.9760463188
 21
-3.7043955492
  0
LINE
  5
4C4
100
AcDbEntity
  8
RACCORDO
100
AcDbLine
 62
253
  6
CONTINUOUS
 10
20.993309051
 20
24.5510791575
 11
20.993309051
 21
23.7854745635
  0
LINE
  5
4C5
100
AcDbEntity
  8
RACCORDO
100
AcDbLine
 62
253
  6
CONTINUOUS
 10
20.993309051
 20
-23.6701878692
 11
20.993309051
 21
-24.4357924631
  0
LINE
  5
4C6
100
AcDbEntity
  8
RACCORDO
100
AcDbLine
 62
7
  6
CONTINUOUS
 10
21.2432995317
 20
24.3010886768
 11
21.2432995317
 21
24.0019809145
  0
LINE
  5
4C7
100
AcDbEntity
  8
RACCORDO
100
AcDbLine
 62
7
  6
CONTINUOUS
 10
21.2432995317
 20
-23.8866942201
 11
21.2432995317
 21
-24.1858019824
  0
LINE
  5
4C8
100
AcDbEntity
  8
RACCORDO
100
AcDbLine
 62
7
  6
CONTINUOUS
 10
21.2498637214
 20
24.3076528664
 11
21.2498637214
 21
22.4576433472
  0
LINE
  5
4C9
100
AcDbEntity
  8
RACCORDO
100
AcDbLine
 62
7
  6
CONTINUOUS
 10
21.2498637214
 20
-22.3423566528
 11
21.2498637214
 21
-24.192366172
  0
LINE
  5
4CA
100
AcDbEntity
  8
RACCORDO
100
AcDbLine
 62
253
  6
CONTINUOUS
 10
19.5064183919
 20
23.7854745635
 11
19.4987823825
 21
23.280293078
  0
LINE
  5
4CB
100
AcDbEntity
  8
RACCORDO
100
AcDbLine
 62
253
  6
CONTINUOUS
 10
21.0009450603
 20
-23.1650063836
 11
20.993309051
 21
-23.6701878692
  0
LINE
  5
4CC
100
AcDbEntity
  8
DRAFT
100
AcDbLine
 62
7
  6
CONTINUOUS
 10
22.2502959745
 20
5.2148421211
 11
22.2241194614
 21
5.0576433472
  0
LINE
  5
4CD
100
AcDbEntity
  8
DRAFT
100
AcDbLine
 62
7
  6
CONTINUOUS
 10
19.923681124
 20
-3.7043922787
 11
19.9498637214
 21
-3.6257838803
  0
LINE
  5
4CE
100
AcDbEntity
  8
DRAFT
100
AcDbLine
 62
7
  6
CONTINUOUS
 10
22.3498637214
 20
-0.3408642113
 11
22.3241194614
 21
-0.3923566528
  0
LINE
  5
4CF
100
AcDbEntity
  8
DRAFT
100
AcDbLine
 62
7
  6
CONTINUOUS
 10
7.9085905892
 20
-22.333629785
 11
7.8998637214
 21
-22.3423566528
  0
LINE
  5
4D0
100
AcDbEntity
  8
0
100
AcDbLine
 62
7
  6
CONTINUOUS
 10
-12.9739536812
 20
20.0576448725
 11
12.673681124
 21
20.0576449087
  0
LINE
  5
4D1
100
AcDbEntity
  8
DRAFT
100
AcDbLine
 62
7
  6
CONTINUOUS
 10
-12.9739536812
 20
20.1314607498
 11
-11.7087404255
 21
20.1314607498
  0
LINE
  5
4D2
100
AcDbEntity
  8
DRAFT
100
AcDbLine
 62
7
  6
CONTINUOUS
 10
-11.0915321317
 20
20.1314607498
 11
10.7912595745
 21
20.1314607498
  0
LINE
  5
4D3
100
AcDbEntity
  8
DRAFT
100
AcDbLine
 62
7
  6
CONTINUOUS
 10
11.4084678683
 20
20.1314607498
 11
12.673681124
 21
20.1314607498
  0
LINE
  5
4D4
100
AcDbEntity
  8
DRAFT
100
AcDbLine
 62
7
  6
CONTINUOUS
 10
7.9085905892
 20
22.4489164794
 11
7.8998637214
 21
22.4576433472
  0
LINE
  5
4D5
100
AcDbEntity
  8
DRAFT
100
AcDbLine
 62
7
  6
CONTINUOUS
 10
22.3498637214
 20
0.4561509057
 11
22.3241194614
 21
0.5076433472
  0
LINE
  5
4D6
100
AcDbEntity
  8
DRAFT
100
AcDbLine
 62
7
  6
CONTINUOUS
 10
19.923681124
 20
3.8196789731
 11
19.9498637214
 21
3.7410705747
  0
LINE
  5
4D7
100
AcDbEntity
  8
DRAFT
100
AcDbLine
 62
7
  6
CONTINUOUS
 10
22.2502959745
 20
-5.0995554267
 11
22.2241194614
 21
-4.9423566528
  0
LINE
  5
4D8
100
AcDbEntity
  8
RACCORDO
100
AcDbLine
 62
253
  6
CONTINUOUS
 10
21.2432995317
 20
24.0019809145
 11
21.2498637214
 21
23.5677086457
  0
LINE
  5
4D9
100
AcDbEntity
  8
RACCORDO
100
AcDbLine
 62
253
  6
CONTINUOUS
 10
21.6162424334
 20
18.1120062248
 11
21.6162424334
 21
-17.9967195304
  0
LINE
  5
4DA
100
AcDbEntity
  8
RACCORDO
100
AcDbLine
 62
253
  6
CONTINUOUS
 10
22.2162195872
 20
18.1120062248
 11
22.2162195872
 21
-17.9967195304
  0
LINE
  5
4DB
100
AcDbEntity
  8
DRAFT
100
AcDbLine
 62
7
  6
CONTINUOUS
 10
22.2241194614
 20
-4.9423566528
 11
22.2241194614
 21
5.0576433472
  0
LINE
  5
4DC
100
AcDbEntity
  8
RACCORDO
100
AcDbLine
 62
7
  6
CONTINUOUS
 10
22.241573197
 20
21.9489355179
 11
22.241573197
 21
18.1225080338
  0
LINE
  5
4DD
100
AcDbEntity
  8
RACCORDO
100
AcDbLine
 62
7
  6
CONTINUOUS
 10
22.241573197
 20
-18.0072213394
 11
22.241573197
 21
-21.8336488235
  0
LINE
  5
4DE
100
AcDbEntity
  8
RACCORDO
100
AcDbLine
 62
7
  6
CONTINUOUS
 10
22.249876251
 20
21.9572385775
 11
22.2502959745
 21
5.2148421211
  0
LINE
  5
4DF
100
AcDbEntity
  8
RACCORDO
100
AcDbLine
 62
7
  6
CONTINUOUS
 10
22.2502959745
 20
-5.0995554267
 11
22.249876251
 21
-21.8419518831
  0
LINE
  5
4E0
100
AcDbEntity
  8
DRAFT
100
AcDbLine
 62
7
  6
CONTINUOUS
 10
22.3241194614
 20
0.5076433472
 11
22.3241194614
 21
-0.3923566528
  0
LINE
  5
4E1
100
AcDbEntity
  8
DRAFT
100
AcDbLine
 62
7
  6
CONTINUOUS
 10
22.3498637214
 20
0.4561509057
 11
22.3498637214
 21
-0.3408642113
  0
LINE
  5
4E2
100
AcDbEntity
  8
RACCORDO
100
AcDbLine
 62
253
  6
CONTINUOUS
 10
21.2498637214
 20
-23.4524219513
 11
21.2432995317
 21
-23.8866942201
  0
LINE
  5
4E3
100
AcDbEntity
  8
SMUSSO
100
AcDbLine
 62
7
  6
CONTINUOUS
 10
7.8998637214
 20
-23.7423566528
 11
7.9055164953
 21
-23.7367038789
  0
LINE
  5
4E4
100
AcDbEntity
  8
RACCORDO
100
AcDbLine
 62
253
  6
CONTINUOUS
 10
-18.2049354995
 20
21.8235857158
 11
17.9046629424
 21
21.8235857158
  0
LINE
  5
4E5
100
AcDbEntity
  8
RACCORDO
100
AcDbLine
 62
253
  6
CONTINUOUS
 10
-18.2049354995
 20
22.4235628696
 11
17.9046629424
 21
22.4235628696
  0
LINE
  5
4E6
100
AcDbEntity
  8
RACCORDO
100
AcDbLine
 62
7
  6
CONTINUOUS
 10
-22.0418647927
 20
22.4489164794
 11
-18.2154373086
 21
22.4489164794
  0
LINE
  5
4E7
100
AcDbEntity
  8
DRAFT
100
AcDbLine
 62
7
  6
CONTINUOUS
 10
-14.5914094108
 20
22.4489164794
 11
-12.1088631464
 21
22.4489164794
  0
LINE
  5
4E8
100
AcDbEntity
  8
DRAFT
100
AcDbLine
 62
7
  6
CONTINUOUS
 10
-10.6914094108
 20
22.4489164794
 11
-8.2088631464
 21
22.4489164794
  0
LINE
  5
4E9
100
AcDbEntity
  8
DRAFT
100
AcDbLine
 62
7
  6
CONTINUOUS
 10
7.9085905892
 20
22.4489164794
 11
10.3911368536
 21
22.4489164794
  0
LINE
  5
4EA
100
AcDbEntity
  8
DRAFT
100
AcDbLine
 62
7
  6
CONTINUOUS
 10
11.8085905892
 20
22.4489164794
 11
14.2911368536
 21
22.4489164794
  0
LINE
  5
4EB
100
AcDbEntity
  8
RACCORDO
100
AcDbLine
 62
7
  6
CONTINUOUS
 10
17.9151647514
 20
22.4489164794
 11
21.7415922355
 21
22.4489164794
  0
LINE
  5
4EC
100
AcDbEntity
  8
RACCORDO
100
AcDbLine
 62
7
  6
CONTINUOUS
 10
-22.0505916604
 20
22.4576433472
 11
-21.5501362786
 21
22.4576433472
  0
LINE
  5
4ED
100
AcDbEntity
  8
DRAFT
100
AcDbLine
 62
7
  6
CONTINUOUS
 10
-12.1001362786
 20
22.4576433472
 11
-10.7001362786
 21
22.4576433472
  0
LINE
  5
4EE
100
AcDbEntity
  8
DRAFT
100
AcDbLine
 62
7
  6
CONTINUOUS
 10
7.8998637214
 20
22.4576433472
 11
-8.2001362786
 21
22.4576433472
  0
LINE
  5
4EF
100
AcDbEntity
  8
DRAFT
100
AcDbLine
 62
7
  6
CONTINUOUS
 10
10.3998637214
 20
22.4576433472
 11
11.7998637214
 21
22.4576433472
  0
LINE
  5
4F0
100
AcDbEntity
  8
DRAFT
100
AcDbLine
 62
7
  6
CONTINUOUS
 10
14.2998637214
 20
22.4576433472
 11
21.2498637214
 21
22.4576433472
  0
LINE
  5
4F1
100
AcDbEntity
  8
RACCORDO
100
AcDbLine
 62
7
  6
CONTINUOUS
 10
21.2498637214
 20
22.4576433472
 11
21.7503191033
 21
22.4576433472
  0
LINE
  5
4F2
100
AcDbEntity
  8
DRAFT
100
AcDbLine
 62
7
  6
CONTINUOUS
 10
-14.6001362786
 20
22.4576433472
 11
-21.5501362786
 21
22.4576433472
  0
LINE
  5
4F3
100
AcDbEntity
  8
RACCORDO
100
AcDbLine
 62
7
  6
CONTINUOUS
 10
-21.3012176175
 20
23.280293078
 11
-19.7990549397
 21
23.280293078
  0
LINE
  5
4F4
100
AcDbEntity
  8
RACCORDO
100
AcDbLine
 62
7
  6
CONTINUOUS
 10
21.0009450603
 20
23.280293078
 11
19.4987823825
 21
23.280293078
  0
LINE
  5
4F5
100
AcDbEntity
  8
RACCORDO
100
AcDbLine
 62
7
  6
CONTINUOUS
 10
1.1987823825
 20
23.280293078
 11
2.7009450603
 21
23.280293078
  0
LINE
  5
4F6
100
AcDbEntity
  8
RACCORDO
100
AcDbLine
 62
7
  6
CONTINUOUS
 10
-1.4990549397
 20
23.280293078
 11
-3.0012176175
 21
23.280293078
  0
LINE
  5
4F7
100
AcDbEntity
  8
SMUSSO
100
AcDbLine
 62
7
  6
CONTINUOUS
 10
14.2911368536
 20
23.3489164794
 11
11.8085905892
 21
23.3489164794
  0
LINE
  5
4F8
100
AcDbEntity
  8
SMUSSO
100
AcDbLine
 62
7
  6
CONTINUOUS
 10
10.3911368536
 20
23.3489164794
 11
7.9085905892
 21
23.3489164794
  0
LINE
  5
4F9
100
AcDbEntity
  8
SMUSSO
100
AcDbLine
 62
7
  6
CONTINUOUS
 10
-8.2088631464
 20
23.3489164794
 11
-10.6914094108
 21
23.3489164794
  0
LINE
  5
4FA
100
AcDbEntity
  8
SMUSSO
100
AcDbLine
 62
7
  6
CONTINUOUS
 10
-12.1088631464
 20
23.3489164794
 11
-14.5914094108
 21
23.3489164794
  0
LINE
  5
4FB
100
AcDbEntity
  8
RACCORDO
100
AcDbLine
 62
253
  6
CONTINUOUS
 10
-21.2935816081
 20
23.7854745635
 11
-19.806690949
 21
23.7854745635
  0
LINE
  5
4FC
100
AcDbEntity
  8
RACCORDO
100
AcDbLine
 62
253
  6
CONTINUOUS
 10
-2.9935816081
 20
23.7854745635
 11
-1.506690949
 21
23.7854745635
  0
LINE
  5
4FD
100
AcDbEntity
  8
RACCORDO
100
AcDbLine
 62
253
  6
CONTINUOUS
 10
1.2064183919
 20
23.7854745635
 11
2.693309051
 21
23.7854745635
  0
LINE
  5
4FE
100
AcDbEntity
  8
RACCORDO
100
AcDbLine
 62
253
  6
CONTINUOUS
 10
19.5064183919
 20
23.7854745635
 11
20.993309051
 21
23.7854745635
  0
LINE
  5
4FF
100
AcDbEntity
  8
SMUSSO
100
AcDbLine
 62
7
  6
CONTINUOUS
 10
14.2942109475
 20
23.8519905733
 11
11.8055164953
 21
23.8519905733
  0
LINE
  5
500
100
AcDbEntity
  8
SMUSSO
100
AcDbLine
 62
7
  6
CONTINUOUS
 10
10.3942109475
 20
23.8519905733
 11
7.9055164953
 21
23.8519905733
  0
LINE
  5
501
100
AcDbEntity
  8
SMUSSO
100
AcDbLine
 62
7
  6
CONTINUOUS
 10
-8.2057890525
 20
23.8519905733
 11
-10.6944835047
 21
23.8519905733
  0
LINE
  5
502
100
AcDbEntity
  8
SMUSSO
100
AcDbLine
 62
7
  6
CONTINUOUS
 10
-12.1057890525
 20
23.8519905733
 11
-14.5944835047
 21
23.8519905733
  0
LINE
  5
503
100
AcDbEntity
  8
DRAFT
100
AcDbLine
 62
7
  6
CONTINUOUS
 10
-14.6001362786
 20
23.8576433472
 11
-12.1001362786
 21
23.8576433472
  0
LINE
  5
504
100
AcDbEntity
  8
DRAFT
100
AcDbLine
 62
7
  6
CONTINUOUS
 10
-10.7001362786
 20
23.8576433472
 11
-8.2001362786
 21
23.8576433472
  0
LINE
  5
505
100
AcDbEntity
  8
DRAFT
100
AcDbLine
 62
7
  6
CONTINUOUS
 10
7.8998637214
 20
23.8576433472
 11
10.3998637214
 21
23.8576433472
  0
LINE
  5
506
100
AcDbEntity
  8
DRAFT
100
AcDbLine
 62
7
  6
CONTINUOUS
 10
11.7998637214
 20
23.8576433472
 11
14.2998637214
 21
23.8576433472
  0
LINE
  5
507
100
AcDbEntity
  8
RACCORDO
100
AcDbLine
 62
253
  6
CONTINUOUS
 10
0.9564279111
 20
24.0019809145
 11
2.9432995317
 21
24.0019809145
  0
LINE
  5
508
100
AcDbEntity
  8
RACCORDO
100
AcDbLine
 62
253
  6
CONTINUOUS
 10
-1.2567004683
 20
24.0019809145
 11
-3.2435720889
 21
24.0019809145
  0
LINE
  5
509
100
AcDbEntity
  8
RACCORDO
100
AcDbLine
 62
253
  6
CONTINUOUS
 10
19.2564279111
 20
24.0019809145
 11
21.2432995317
 21
24.0019809145
  0
LINE
  5
50A
100
AcDbEntity
  8
RACCORDO
100
AcDbLine
 62
253
  6
CONTINUOUS
 10
-19.5567004683
 20
24.0019809145
 11
-21.5435720889
 21
24.0019809145
  0
LINE
  5
50B
100
AcDbEntity
  8
SMUSSO
100
AcDbLine
 62
7
  6
CONTINUOUS
 10
7.9055164953
 20
23.8519905733
 11
7.8998637214
 21
23.8576433472
  0
LINE
  5
50C
100
AcDbEntity
  8
DRAFT
100
AcDbLine
 62
7
  6
CONTINUOUS
 10
11.7998637214
 20
-22.3423566528
 11
11.8085905892
 21
-22.333629785
  0
LINE
  5
50D
100
AcDbEntity
  8
SMUSSO
100
AcDbLine
 62
7
  6
CONTINUOUS
 10
11.8055164953
 20
-23.7367038789
 11
11.7998637214
 21
-23.7423566528
  0
LINE
  5
50E
100
AcDbEntity
  8
0
100
AcDbLine
 62
7
  6
CONTINUOUS
 10
18.1760447756
 20
-18.4161740554
 11
19.7034171359
 21
-16.8888016485
  0
LINE
  5
50F
100
AcDbEntity
  8
DRAFT
100
AcDbLine
 62
7
  6
CONTINUOUS
 10
19.923681124
 20
-16.7424854438
 11
18.2499925124
 21
-18.4161740554
  0
LINE
  5
510
100
AcDbEntity
  8
RACCORDO
100
AcDbLine
 62
253
  6
CONTINUOUS
 10
21.2432995317
 20
24.3010886768
 11
19.2564279111
 21
24.3010886768
  0
LINE
  5
511
100
AcDbEntity
  8
RACCORDO
100
AcDbLine
 62
253
  6
CONTINUOUS
 10
2.9432995317
 20
24.3010886768
 11
0.9564279111
 21
24.3010886768
  0
LINE
  5
512
100
AcDbEntity
  8
RACCORDO
100
AcDbLine
 62
253
  6
CONTINUOUS
 10
-1.2567004683
 20
24.3010886768
 11
-3.2435720889
 21
24.3010886768
  0
LINE
  5
513
100
AcDbEntity
  8
RACCORDO
100
AcDbLine
 62
253
  6
CONTINUOUS
 10
-19.5567004683
 20
24.3010886768
 11
-21.5435720889
 21
24.3010886768
  0
LINE
  5
514
100
AcDbEntity
  8
RACCORDO
100
AcDbLine
 62
7
  6
CONTINUOUS
 10
20.993309051
 20
24.5510791575
 11
19.5064183919
 21
24.5510791575
  0
LINE
  5
515
100
AcDbEntity
  8
RACCORDO
100
AcDbLine
 62
7
  6
CONTINUOUS
 10
2.693309051
 20
24.5510791575
 11
1.2064183919
 21
24.5510791575
  0
LINE
  5
516
100
AcDbEntity
  8
RACCORDO
100
AcDbLine
 62
7
  6
CONTINUOUS
 10
-1.506690949
 20
24.5510791575
 11
-2.9935816081
 21
24.5510791575
  0
LINE
  5
517
100
AcDbEntity
  8
RACCORDO
100
AcDbLine
 62
7
  6
CONTINUOUS
 10
-19.806690949
 20
24.5510791575
 11
-21.2935816081
 21
24.5510791575
  0
LINE
  5
518
100
AcDbEntity
  8
RACCORDO
100
AcDbLine
 62
7
  6
CONTINUOUS
 10
-21.3001457978
 20
24.5576433472
 11
-19.8001267594
 21
24.5576433472
  0
LINE
  5
519
100
AcDbEntity
  8
RACCORDO
100
AcDbLine
 62
7
  6
CONTINUOUS
 10
-3.0001457978
 20
24.5576433472
 11
-1.5001267594
 21
24.5576433472
  0
LINE
  5
51A
100
AcDbEntity
  8
RACCORDO
100
AcDbLine
 62
7
  6
CONTINUOUS
 10
1.1998542022
 20
24.5576433472
 11
2.6998732406
 21
24.5576433472
  0
LINE
  5
51B
100
AcDbEntity
  8
RACCORDO
100
AcDbLine
 62
7
  6
CONTINUOUS
 10
19.4998542022
 20
24.5576433472
 11
20.9998732406
 21
24.5576433472
  0
LINE
  5
51C
100
AcDbEntity
  8
DRAFT
100
AcDbLine
 62
7
  6
CONTINUOUS
 10
11.8085905892
 20
22.4489164794
 11
11.7998637214
 21
22.4576433472
  0
LINE
  5
51D
100
AcDbEntity
  8
SMUSSO
100
AcDbLine
 62
7
  6
CONTINUOUS
 10
11.8055164953
 20
23.8519905733
 11
11.7998637214
 21
23.8576433472
  0
LINE
  5
51E
100
AcDbEntity
  8
0
100
AcDbLine
 62
7
  6
CONTINUOUS
 10
19.7034170881
 20
17.0040915703
 11
18.176047862
 21
18.5314607498
  0
LINE
  5
51F
100
AcDbEntity
  8
DRAFT
100
AcDbLine
 62
7
  6
CONTINUOUS
 10
18.2499925124
 20
18.5314607498
 11
19.923681124
 21
16.8577721382
  0
LINE
  5
520
100
AcDbEntity
  8
RACCORDO
100
AcDbLine
 62
253
  6
CONTINUOUS
 10
21.4990896069
 20
-18.2795514731
 11
18.1874948851
 21
-21.5911461949
  0
LINE
  5
521
100
AcDbEntity
  8
RACCORDO
100
AcDbLine
 62
253
  6
CONTINUOUS
 10
18.1874948851
 20
21.7064328892
 11
21.4990896069
 21
18.3948381674
  0
LINE
  5
522
100
AcDbEntity
  8
RACCORDO
100
AcDbLine
 62
253
  6
CONTINUOUS
 10
21.9233375209
 20
-18.7037993871
 11
18.6117427991
 21
-22.0153941089
  0
LINE
  5
523
100
AcDbEntity
  8
RACCORDO
100
AcDbLine
 62
7
  6
CONTINUOUS
 10
18.6222446081
 20
-22.0407477187
 11
21.9486911307
 21
-18.7143011961
  0
LINE
  5
524
100
AcDbEntity
  8
RACCORDO
100
AcDbLine
 62
253
  6
CONTINUOUS
 10
18.6117427991
 20
22.1306808033
 11
21.9233375209
 21
18.8190860815
  0
LINE
  5
525
100
AcDbEntity
  8
RACCORDO
100
AcDbLine
 62
7
  6
CONTINUOUS
 10
21.9486911307
 20
18.8295878905
 11
18.6222446081
 21
22.1560344131
  0
ARC
  5
526
100
AcDbEntity
  8
0
100
AcDbCircle
 62
7
  6
CONTINUOUS
 10
-9.1001362624
 20
-11.442355075
 40
2.5
100
AcDbArc
 50
180.0000000807
 51
270.0000000807
  0
ARC
  5
527
100
AcDbEntity
  8
RACCORDO
100
AcDbCircle
 62
253
  6
CONTINUOUS
 10
-18.2049163136
 20
-21.3082679332
 40
1.0000082422
100
AcDbArc
 50
225.0010992638
 51
269.9989007362
  0
ARC
  5
528
100
AcDbEntity
  8
RACCORDO
100
AcDbCircle
 62
253
  6
CONTINUOUS
 10
-21.5164839024
 20
-17.9967003444
 40
1.0000082422
100
AcDbArc
 50
180.0010992638
 51
224.9989007362
  0
ARC
  5
529
100
AcDbEntity
  8
DRAFT
100
AcDbCircle
 62
7
  6
CONTINUOUS
 10
-20.6501362786
 20
-12.9423566528
 40
0.5261825974
100
AcDbArc
 50
324.0912327193
 51
35.9087672807
  0
ARC
  5
52A
100
AcDbEntity
  8
DRAFT
100
AcDbCircle
 62
7
  6
CONTINUOUS
 10
-11.4001362786
 20
-20.4423566528
 40
0.5261825974
100
AcDbArc
 50
54.0912327193
 51
125.9087672807
  0
ARC
  5
52B
100
AcDbEntity
  8
0
100
AcDbCircle
 62
7
  6
CONTINUOUS
 10
-19.6501362552
 20
-16.5352483134
 40
0.5
100
AcDbArc
 50
180.0000000806
 51
225.0000000807
  0
ARC
  5
52C
100
AcDbEntity
  8
RACCORDO
100
AcDbCircle
 62
253
  6
CONTINUOUS
 10
-18.2049359847
 20
-21.3083154235
 40
0.3999835979
100
AcDbArc
 50
224.9999304995
 51
270.0000695005
  0
ARC
  5
52D
100
AcDbEntity
  8
RACCORDO
100
AcDbCircle
 62
253
  6
CONTINUOUS
 10
-21.5165313926
 20
-17.9967200155
 40
0.3999835979
100
AcDbArc
 50
179.9999305017
 51
225.0000694983
  0
ARC
  5
52E
100
AcDbEntity
  8
RACCORDO
100
AcDbCircle
 62
7
  6
CONTINUOUS
 10
-1.5003590649
 20
-24.1910152918
 40
0.2513473782
100
AcDbArc
 50
276.0652482638
 51
288.0650149535
  0
ARC
  5
52F
100
AcDbEntity
  8
RACCORDO
100
AcDbCircle
 62
7
  6
CONTINUOUS
 10
-2.9999134923
 20
-24.1910152918
 40
0.2513473782
100
AcDbArc
 50
251.9349850465
 51
263.9347517362
  0
ARC
  5
530
100
AcDbEntity
  8
RACCORDO
100
AcDbCircle
 62
7
  6
CONTINUOUS
 10
-19.8003590649
 20
-24.1910152918
 40
0.2513473782
100
AcDbArc
 50
276.0652482638
 51
288.0650149535
  0
ARC
  5
531
100
AcDbEntity
  8
RACCORDO
100
AcDbCircle
 62
7
  6
CONTINUOUS
 10
-21.2999134923
 20
-24.1910152918
 40
0.2513473782
100
AcDbArc
 50
251.9349850465
 51
263.9347517362
  0
ARC
  5
532
100
AcDbEntity
  8
RACCORDO
100
AcDbCircle
 62
7
  6
CONTINUOUS
 10
-1.5013152883
 20
-24.1921788543
 40
0.2511790796
100
AcDbArc
 50
341.9332572711
 51
359.9572714446
  0
ARC
  5
533
100
AcDbEntity
  8
RACCORDO
100
AcDbCircle
 62
7
  6
CONTINUOUS
 10
-2.9989572689
 20
-24.1921788543
 40
0.2511790796
100
AcDbArc
 50
180.0427285554
 51
198.0667427289
  0
ARC
  5
534
100
AcDbEntity
  8
RACCORDO
100
AcDbCircle
 62
7
  6
CONTINUOUS
 10
-19.8013152883
 20
-24.1921788543
 40
0.2511790796
100
AcDbArc
 50
341.9332572711
 51
359.9572714446
  0
ARC
  5
535
100
AcDbEntity
  8
RACCORDO
100
AcDbCircle
 62
7
  6
CONTINUOUS
 10
-21.2989572689
 20
-24.1921788543
 40
0.2511790796
100
AcDbArc
 50
180.0427285554
 51
198.0667427289
  0
ARC
  5
536
100
AcDbEntity
  8
RACCORDO
100
AcDbCircle
 62
7
  6
CONTINUOUS
 10
-1.5067137528
 20
-24.1857791786
 40
0.2500132855
100
AcDbArc
 50
270.0052259535
 51
359.9947740465
  0
ARC
  5
537
100
AcDbEntity
  8
RACCORDO
100
AcDbCircle
 62
7
  6
CONTINUOUS
 10
-2.9935588044
 20
-24.1857791786
 40
0.2500132855
100
AcDbArc
 50
180.0052259535
 51
269.9947740465
  0
ARC
  5
538
100
AcDbEntity
  8
RACCORDO
100
AcDbCircle
 62
7
  6
CONTINUOUS
 10
-19.8067137528
 20
-24.1857791786
 40
0.2500132855
100
AcDbArc
 50
270.0052259535
 51
359.9947740465
  0
ARC
  5
539
100
AcDbEntity
  8
RACCORDO
100
AcDbCircle
 62
7
  6
CONTINUOUS
 10
-21.2935588044
 20
-24.1857791786
 40
0.2500132855
100
AcDbArc
 50
180.0052259535
 51
269.9947740465
  0
ARC
  5
53A
100
AcDbEntity
  8
RACCORDO
100
AcDbCircle
 62
7
  6
CONTINUOUS
 10
-1.50012049
 20
-24.1923724414
 40
0.2499832231
100
AcDbArc
 50
288.1094868587
 51
341.8905131413
  0
ARC
  5
53B
100
AcDbEntity
  8
RACCORDO
100
AcDbCircle
 62
7
  6
CONTINUOUS
 10
-3.0001520672
 20
-24.1923724414
 40
0.2499832231
100
AcDbArc
 50
198.1094868587
 51
251.8905131413
  0
ARC
  5
53C
100
AcDbEntity
  8
RACCORDO
100
AcDbCircle
 62
7
  6
CONTINUOUS
 10
-19.80012049
 20
-24.1923724414
 40
0.2499832231
100
AcDbArc
 50
288.1094868587
 51
341.8905131413
  0
ARC
  5
53D
100
AcDbEntity
  8
RACCORDO
100
AcDbCircle
 62
7
  6
CONTINUOUS
 10
-21.3001520672
 20
-24.1923724414
 40
0.2499832231
100
AcDbArc
 50
198.1094868587
 51
251.8905131413
  0
ARC
  5
53E
100
AcDbEntity
  8
RACCORDO
100
AcDbCircle
 62
7
  6
CONTINUOUS
 10
-1.5001792084
 20
-24.1933346631
 40
0.2490219952
100
AcDbArc
 50
270.0120676383
 51
276.0804837481
  0
ARC
  5
53F
100
AcDbEntity
  8
RACCORDO
100
AcDbCircle
 62
7
  6
CONTINUOUS
 10
-3.0000933488
 20
-24.1933346631
 40
0.2490219952
100
AcDbArc
 50
263.9195162519
 51
269.9879323617
  0
ARC
  5
540
100
AcDbEntity
  8
RACCORDO
100
AcDbCircle
 62
7
  6
CONTINUOUS
 10
-19.8001792084
 20
-24.1933346631
 40
0.2490219952
100
AcDbArc
 50
270.0120676383
 51
276.0804837481
  0
ARC
  5
541
100
AcDbEntity
  8
RACCORDO
100
AcDbCircle
 62
7
  6
CONTINUOUS
 10
-21.3000933488
 20
-24.1933346631
 40
0.2490219952
100
AcDbArc
 50
263.9195162519
 51
269.9879323617
  0
ARC
  5
542
100
AcDbEntity
  8
0
100
AcDbCircle
 62
7
  6
CONTINUOUS
 10
-12.8501362527
 20
-18.342355085
 40
0.2
100
AcDbArc
 50
0.0000000809
 51
90.0000000805
  0
ARC
  5
543
100
AcDbEntity
  8
0
100
AcDbCircle
 62
7
  6
CONTINUOUS
 10
-1.0001362565
 20
-15.5923550683
 40
0.15
100
AcDbArc
 50
90.0000009227
 51
270.0000009228
  0
ARC
  5
544
100
AcDbEntity
  8
0
100
AcDbCircle
 62
7
  6
CONTINUOUS
 10
-1.0001362527
 20
-18.2923550683
 40
0.15
100
AcDbArc
 50
90.0000009316
 51
270.0000009314
  0
ARC
  5
545
100
AcDbEntity
  8
0
100
AcDbCircle
 62
7
  6
CONTINUOUS
 10
-9.1001362793
 20
0.557644925
 40
2.5
100
AcDbArc
 50
90.0000000807
 51
180.0000000807
  0
ARC
  5
546
100
AcDbEntity
  8
RACCORDO
100
AcDbCircle
 62
253
  6
CONTINUOUS
 10
-21.5164839024
 20
18.1119870388
 40
1.0000082422
100
AcDbArc
 50
135.0010992638
 51
179.9989007362
  0
ARC
  5
547
100
AcDbEntity
  8
RACCORDO
100
AcDbCircle
 62
253
  6
CONTINUOUS
 10
-18.2049163136
 20
21.4235546276
 40
1.0000082422
100
AcDbArc
 50
90.0010992638
 51
134.9989007362
  0
ARC
  5
548
100
AcDbEntity
  8
0
100
AcDbCircle
 62
7
  6
CONTINUOUS
 10
-0.3501363015
 20
16.3576449326
 40
0.8
100
AcDbArc
 50
180.0000000807
 51
270.0000000807
  0
ARC
  5
549
100
AcDbEntity
  8
0
100
AcDbCircle
 62
7
  6
CONTINUOUS
 10
-0.3501363035
 20
17.7576449326
 40
0.8
100
AcDbArc
 50
90.0000000807
 51
180.0000000807
  0
ARC
  5
54A
100
AcDbEntity
  8
DRAFT
100
AcDbCircle
 62
7
  6
CONTINUOUS
 10
-20.6501362786
 20
13.0576433472
 40
0.5261825974
100
AcDbArc
 50
324.0912327193
 51
35.9087672807
  0
ARC
  5
54B
100
AcDbEntity
  8
DRAFT
100
AcDbCircle
 62
7
  6
CONTINUOUS
 10
-11.4001362786
 20
20.5576433472
 40
0.5261825974
100
AcDbArc
 50
234.0912327193
 51
305.9087672807
  0
ARC
  5
54C
100
AcDbEntity
  8
0
100
AcDbCircle
 62
7
  6
CONTINUOUS
 10
-19.650136302
 20
16.6505381243
 40
0.5
100
AcDbArc
 50
135.0000000806
 51
180.0000000808
  0
ARC
  5
54D
100
AcDbEntity
  8
0
100
AcDbCircle
 62
7
  6
CONTINUOUS
 10
-5.1501362906
 20
8.5576449259
 40
0.5
100
AcDbArc
 50
90.0000000807
 51
180.0000000807
  0
ARC
  5
54E
100
AcDbEntity
  8
0
100
AcDbCircle
 62
7
  6
CONTINUOUS
 10
-5.1501362849
 20
4.5576449259
 40
0.5
100
AcDbArc
 50
180.0000000806
 51
270.0000000807
  0
ARC
  5
54F
100
AcDbEntity
  8
0
100
AcDbCircle
 62
7
  6
CONTINUOUS
 10
-0.3501363015
 20
16.3576449326
 40
0.5
100
AcDbArc
 50
180.0000000807
 51
270.0000000806
  0
ARC
  5
550
100
AcDbEntity
  8
0
100
AcDbCircle
 62
7
  6
CONTINUOUS
 10
-0.3501363035
 20
17.7576449326
 40
0.5
100
AcDbArc
 50
90.0000000807
 51
180.0000000807
  0
ARC
  5
551
100
AcDbEntity
  8
RACCORDO
100
AcDbCircle
 62
253
  6
CONTINUOUS
 10
-21.5165313927
 20
18.1120067099
 40
0.3999835979
100
AcDbArc
 50
134.9999304995
 51
180.0000695005
  0
ARC
  5
552
100
AcDbEntity
  8
RACCORDO
100
AcDbCircle
 62
253
  6
CONTINUOUS
 10
-18.2049359847
 20
21.4236021179
 40
0.3999835979
100
AcDbArc
 50
89.9999305017
 51
135.0000694983
  0
ARC
  5
553
100
AcDbEntity
  8
RACCORDO
100
AcDbCircle
 62
7
  6
CONTINUOUS
 10
-21.2999134923
 20
24.3063019862
 40
0.2513473782
100
AcDbArc
 50
96.0652482638
 51
108.0650149535
  0
ARC
  5
554
100
AcDbEntity
  8
RACCORDO
100
AcDbCircle
 62
7
  6
CONTINUOUS
 10
-19.8003590649
 20
24.3063019862
 40
0.2513473782
100
AcDbArc
 50
71.9349850465
 51
83.9347517362
  0
ARC
  5
555
100
AcDbEntity
  8
RACCORDO
100
AcDbCircle
 62
7
  6
CONTINUOUS
 10
-2.9999134923
 20
24.3063019862
 40
0.2513473782
100
AcDbArc
 50
96.0652482638
 51
108.0650149535
  0
ARC
  5
556
100
AcDbEntity
  8
RACCORDO
100
AcDbCircle
 62
7
  6
CONTINUOUS
 10
-1.5003590649
 20
24.3063019862
 40
0.2513473782
100
AcDbArc
 50
71.9349850465
 51
83.9347517362
  0
ARC
  5
557
100
AcDbEntity
  8
RACCORDO
100
AcDbCircle
 62
7
  6
CONTINUOUS
 10
-21.2989572689
 20
24.3074655486
 40
0.2511790796
100
AcDbArc
 50
161.9332572711
 51
179.9572714446
  0
ARC
  5
558
100
AcDbEntity
  8
RACCORDO
100
AcDbCircle
 62
7
  6
CONTINUOUS
 10
-19.8013152883
 20
24.3074655486
 40
0.2511790796
100
AcDbArc
 50
0.0427285554
 51
18.0667427289
  0
ARC
  5
559
100
AcDbEntity
  8
RACCORDO
100
AcDbCircle
 62
7
  6
CONTINUOUS
 10
-2.9989572689
 20
24.3074655486
 40
0.2511790796
100
AcDbArc
 50
161.9332572711
 51
179.9572714446
  0
ARC
  5
55A
100
AcDbEntity
  8
RACCORDO
100
AcDbCircle
 62
7
  6
CONTINUOUS
 10
-1.5013152883
 20
24.3074655486
 40
0.2511790796
100
AcDbArc
 50
0.0427285554
 51
18.0667427289
  0
ARC
  5
55B
100
AcDbEntity
  8
RACCORDO
100
AcDbCircle
 62
7
  6
CONTINUOUS
 10
-21.2935587867
 20
24.3010658553
 40
0.2500133033
100
AcDbArc
 50
90.0052300194
 51
179.9947699806
  0
ARC
  5
55C
100
AcDbEntity
  8
RACCORDO
100
AcDbCircle
 62
7
  6
CONTINUOUS
 10
-2.9935587867
 20
24.3010658553
 40
0.2500133033
100
AcDbArc
 50
90.0052300194
 51
179.9947699807
  0
ARC
  5
55D
100
AcDbEntity
  8
RACCORDO
100
AcDbCircle
 62
7
  6
CONTINUOUS
 10
-19.8067137528
 20
24.301065873
 40
0.2500132855
100
AcDbArc
 50
0.0052259535
 51
89.9947740465
  0
ARC
  5
55E
100
AcDbEntity
  8
RACCORDO
100
AcDbCircle
 62
7
  6
CONTINUOUS
 10
-1.5067137528
 20
24.301065873
 40
0.2500132855
100
AcDbArc
 50
0.0052259535
 51
89.9947740465
  0
ARC
  5
55F
100
AcDbEntity
  8
RACCORDO
100
AcDbCircle
 62
7
  6
CONTINUOUS
 10
-21.3001520672
 20
24.3076591358
 40
0.2499832231
100
AcDbArc
 50
108.1094868587
 51
161.8905131413
  0
ARC
  5
560
100
AcDbEntity
  8
RACCORDO
100
AcDbCircle
 62
7
  6
CONTINUOUS
 10
-19.80012049
 20
24.3076591358
 40
0.2499832231
100
AcDbArc
 50
18.1094868587
 51
71.8905131413
  0
ARC
  5
561
100
AcDbEntity
  8
RACCORDO
100
AcDbCircle
 62
7
  6
CONTINUOUS
 10
-3.0001520672
 20
24.3076591358
 40
0.2499832231
100
AcDbArc
 50
108.1094868587
 51
161.8905131413
  0
ARC
  5
562
100
AcDbEntity
  8
RACCORDO
100
AcDbCircle
 62
7
  6
CONTINUOUS
 10
-1.50012049
 20
24.3076591358
 40
0.2499832231
100
AcDbArc
 50
18.1094868587
 51
71.8905131413
  0
ARC
  5
563
100
AcDbEntity
  8
RACCORDO
100
AcDbCircle
 62
7
  6
CONTINUOUS
 10
-21.3000933488
 20
24.3086213575
 40
0.2490219952
100
AcDbArc
 50
90.0120676382
 51
96.0804837481
  0
ARC
  5
564
100
AcDbEntity
  8
RACCORDO
100
AcDbCircle
 62
7
  6
CONTINUOUS
 10
-19.8001792084
 20
24.3086213575
 40
0.2490219952
100
AcDbArc
 50
83.9195162519
 51
89.9879323617
  0
ARC
  5
565
100
AcDbEntity
  8
RACCORDO
100
AcDbCircle
 62
7
  6
CONTINUOUS
 10
-3.0000933488
 20
24.3086213575
 40
0.2490219952
100
AcDbArc
 50
90.0120676383
 51
96.0804837481
  0
ARC
  5
566
100
AcDbEntity
  8
RACCORDO
100
AcDbCircle
 62
7
  6
CONTINUOUS
 10
-1.5001792084
 20
24.3086213575
 40
0.2490219952
100
AcDbArc
 50
83.9195162519
 51
89.9879323618
  0
ARC
  5
567
100
AcDbEntity
  8
0
100
AcDbCircle
 62
7
  6
CONTINUOUS
 10
-12.8501363045
 20
18.457644915
 40
0.2
100
AcDbArc
 50
270.0000000805
 51
0.0000000808
  0
ARC
  5
568
100
AcDbEntity
  8
0
100
AcDbCircle
 62
7
  6
CONTINUOUS
 10
11.0998637376
 20
-11.4423550466
 40
2.5
100
AcDbArc
 50
270.0000000807
 51
0.0000000807
  0
ARC
  5
569
100
AcDbEntity
  8
RACCORDO
100
AcDbCircle
 62
253
  6
CONTINUOUS
 10
21.2162113452
 20
-17.9967003444
 40
1.0000082422
100
AcDbArc
 50
315.0010992638
 51
359.9989007362
  0
ARC
  5
56A
100
AcDbEntity
  8
RACCORDO
100
AcDbCircle
 62
253
  6
CONTINUOUS
 10
17.9046437564
 20
-21.3082679332
 40
1.0000082422
100
AcDbArc
 50
270.0010992638
 51
314.9989007362
  0
ARC
  5
56B
100
AcDbEntity
  8
DRAFT
100
AcDbCircle
 62
7
  6
CONTINUOUS
 10
11.0998637214
 20
-20.4423566528
 40
0.5261825974
100
AcDbArc
 50
54.0912327193
 51
125.9087672807
  0
ARC
  5
56C
100
AcDbEntity
  8
DRAFT
100
AcDbCircle
 62
7
  6
CONTINUOUS
 10
20.3498637214
 20
-12.9423566528
 40
0.5261825974
100
AcDbArc
 50
144.0912327193
 51
215.9087672807
  0
ARC
  5
56D
100
AcDbEntity
  8
0
100
AcDbCircle
 62
7
  6
CONTINUOUS
 10
19.3498637448
 20
-16.5352482584
 40
0.5
100
AcDbArc
 50
315.0000000808
 51
0.0000000805
  0
ARC
  5
56E
100
AcDbEntity
  8
RACCORDO
100
AcDbCircle
 62
253
  6
CONTINUOUS
 10
21.2162588355
 20
-17.9967200156
 40
0.3999835979
100
AcDbArc
 50
314.9999304995
 51
0.0000695005
  0
ARC
  5
56F
100
AcDbEntity
  8
RACCORDO
100
AcDbCircle
 62
253
  6
CONTINUOUS
 10
17.9046634275
 20
-21.3083154235
 40
0.3999835979
100
AcDbArc
 50
269.9999305017
 51
315.0000694983
  0
ARC
  5
570
100
AcDbEntity
  8
RACCORDO
100
AcDbCircle
 62
7
  6
CONTINUOUS
 10
20.9996409351
 20
-24.1910152918
 40
0.2513473782
100
AcDbArc
 50
276.0652482638
 51
288.0650149535
  0
ARC
  5
571
100
AcDbEntity
  8
RACCORDO
100
AcDbCircle
 62
7
  6
CONTINUOUS
 10
19.5000865077
 20
-24.1910152918
 40
0.2513473782
100
AcDbArc
 50
251.9349850465
 51
263.9347517362
  0
ARC
  5
572
100
AcDbEntity
  8
RACCORDO
100
AcDbCircle
 62
7
  6
CONTINUOUS
 10
2.6996409351
 20
-24.1910152918
 40
0.2513473782
100
AcDbArc
 50
276.0652482638
 51
288.0650149535
  0
ARC
  5
573
100
AcDbEntity
  8
RACCORDO
100
AcDbCircle
 62
7
  6
CONTINUOUS
 10
1.2000865077
 20
-24.1910152918
 40
0.2513473782
100
AcDbArc
 50
251.9349850465
 51
263.9347517362
  0
ARC
  5
574
100
AcDbEntity
  8
RACCORDO
100
AcDbCircle
 62
7
  6
CONTINUOUS
 10
20.9986847117
 20
-24.1921788543
 40
0.2511790796
100
AcDbArc
 50
341.9332572711
 51
359.9572714446
  0
ARC
  5
575
100
AcDbEntity
  8
RACCORDO
100
AcDbCircle
 62
7
  6
CONTINUOUS
 10
19.5010427311
 20
-24.1921788543
 40
0.2511790796
100
AcDbArc
 50
180.0427285554
 51
198.0667427289
  0
ARC
  5
576
100
AcDbEntity
  8
RACCORDO
100
AcDbCircle
 62
7
  6
CONTINUOUS
 10
2.6986847117
 20
-24.1921788543
 40
0.2511790796
100
AcDbArc
 50
341.9332572711
 51
359.9572714446
  0
ARC
  5
577
100
AcDbEntity
  8
RACCORDO
100
AcDbCircle
 62
7
  6
CONTINUOUS
 10
1.2010427311
 20
-24.1921788543
 40
0.2511790796
100
AcDbArc
 50
180.0427285554
 51
198.0667427289
  0
ARC
  5
578
100
AcDbEntity
  8
RACCORDO
100
AcDbCircle
 62
7
  6
CONTINUOUS
 10
20.9932862472
 20
-24.1857791786
 40
0.2500132855
100
AcDbArc
 50
270.0052259535
 51
359.9947740465
  0
ARC
  5
579
100
AcDbEntity
  8
RACCORDO
100
AcDbCircle
 62
7
  6
CONTINUOUS
 10
19.5064411956
 20
-24.1857791786
 40
0.2500132855
100
AcDbArc
 50
180.0052259535
 51
269.9947740465
  0
ARC
  5
57A
100
AcDbEntity
  8
RACCORDO
100
AcDbCircle
 62
7
  6
CONTINUOUS
 10
2.6932862472
 20
-24.1857791786
 40
0.2500132855
100
AcDbArc
 50
270.0052259535
 51
359.9947740465
  0
ARC
  5
57B
100
AcDbEntity
  8
RACCORDO
100
AcDbCircle
 62
7
  6
CONTINUOUS
 10
1.2064411956
 20
-24.1857791786
 40
0.2500132855
100
AcDbArc
 50
180.0052259535
 51
269.9947740465
  0
ARC
  5
57C
100
AcDbEntity
  8
RACCORDO
100
AcDbCircle
 62
7
  6
CONTINUOUS
 10
20.99987951
 20
-24.1923724414
 40
0.2499832231
100
AcDbArc
 50
288.1094868587
 51
341.8905131413
  0
ARC
  5
57D
100
AcDbEntity
  8
RACCORDO
100
AcDbCircle
 62
7
  6
CONTINUOUS
 10
19.4998479328
 20
-24.1923724414
 40
0.2499832231
100
AcDbArc
 50
198.1094868587
 51
251.8905131413
  0
ARC
  5
57E
100
AcDbEntity
  8
RACCORDO
100
AcDbCircle
 62
7
  6
CONTINUOUS
 10
2.69987951
 20
-24.1923724414
 40
0.2499832231
100
AcDbArc
 50
288.1094868587
 51
341.8905131413
  0
ARC
  5
57F
100
AcDbEntity
  8
RACCORDO
100
AcDbCircle
 62
7
  6
CONTINUOUS
 10
1.1998479328
 20
-24.1923724414
 40
0.2499832231
100
AcDbArc
 50
198.1094868587
 51
251.8905131413
  0
ARC
  5
580
100
AcDbEntity
  8
RACCORDO
100
AcDbCircle
 62
7
  6
CONTINUOUS
 10
20.9998207916
 20
-24.1933346631
 40
0.2490219952
100
AcDbArc
 50
270.0120676383
 51
276.0804837481
  0
ARC
  5
581
100
AcDbEntity
  8
RACCORDO
100
AcDbCircle
 62
7
  6
CONTINUOUS
 10
19.4999066512
 20
-24.1933346631
 40
0.2490219952
100
AcDbArc
 50
263.9195162519
 51
269.9879323617
  0
ARC
  5
582
100
AcDbEntity
  8
RACCORDO
100
AcDbCircle
 62
7
  6
CONTINUOUS
 10
2.6998207916
 20
-24.1933346631
 40
0.2490219952
100
AcDbArc
 50
270.0120676383
 51
276.0804837481
  0
ARC
  5
583
100
AcDbEntity
  8
RACCORDO
100
AcDbCircle
 62
7
  6
CONTINUOUS
 10
1.1999066512
 20
-24.1933346631
 40
0.2490219952
100
AcDbArc
 50
263.9195162519
 51
269.9879323617
  0
ARC
  5
584
100
AcDbEntity
  8
0
100
AcDbCircle
 62
7
  6
CONTINUOUS
 10
12.5498637473
 20
-18.3423550492
 40
0.2
100
AcDbArc
 50
90.0000000807
 51
180.0000000807
  0
ARC
  5
585
100
AcDbEntity
  8
0
100
AcDbCircle
 62
7
  6
CONTINUOUS
 10
0.6998637435
 20
-15.5923550659
 40
0.15
100
AcDbArc
 50
270.0000003426
 51
90.000000923
  0
ARC
  5
586
100
AcDbEntity
  8
0
100
AcDbCircle
 62
7
  6
CONTINUOUS
 10
0.6998637473
 20
-18.2923550659
 40
0.15
100
AcDbArc
 50
270.0000005598
 51
90.0000009316
  0
ARC
  5
587
100
AcDbEntity
  8
0
100
AcDbCircle
 62
7
  6
CONTINUOUS
 10
11.0998637207
 20
0.5576449534
 40
2.5
100
AcDbArc
 50
0.0000000807
 51
90.0000000807
  0
ARC
  5
588
100
AcDbEntity
  8
RACCORDO
100
AcDbCircle
 62
253
  6
CONTINUOUS
 10
17.9046437564
 20
21.4235546276
 40
1.0000082422
100
AcDbArc
 50
45.0010992638
 51
89.9989007362
  0
ARC
  5
589
100
AcDbEntity
  8
RACCORDO
100
AcDbCircle
 62
253
  6
CONTINUOUS
 10
21.2162113452
 20
18.1119870388
 40
1.0000082422
100
AcDbArc
 50
0.0010992638
 51
44.9989007362
  0
ARC
  5
58A
100
AcDbEntity
  8
0
100
AcDbCircle
 62
7
  6
CONTINUOUS
 10
0.0498636985
 20
16.3576449332
 40
0.8
100
AcDbArc
 50
270.0000000806
 51
0.0000000805
  0
ARC
  5
58B
100
AcDbEntity
  8
0
100
AcDbCircle
 62
7
  6
CONTINUOUS
 10
0.0498636965
 20
17.7576449332
 40
0.8
100
AcDbArc
 50
0.0000000809
 51
90.0000000807
  0
ARC
  5
58C
100
AcDbEntity
  8
DRAFT
100
AcDbCircle
 62
7
  6
CONTINUOUS
 10
20.3498637214
 20
13.0576433472
 40
0.5261825974
100
AcDbArc
 50
144.0912327193
 51
215.9087672807
  0
ARC
  5
58D
100
AcDbEntity
  8
DRAFT
100
AcDbCircle
 62
7
  6
CONTINUOUS
 10
11.0998637214
 20
20.5576433472
 40
0.5261825974
100
AcDbArc
 50
234.0912327193
 51
305.9087672807
  0
ARC
  5
58E
100
AcDbEntity
  8
0
100
AcDbCircle
 62
7
  6
CONTINUOUS
 10
19.3498636981
 20
16.6505381792
 40
0.5
100
AcDbArc
 50
0.0000000806
 51
45.0000000808
  0
ARC
  5
58F
100
AcDbEntity
  8
0
100
AcDbCircle
 62
7
  6
CONTINUOUS
 10
4.8498637151
 20
4.5576449399
 40
0.5
100
AcDbArc
 50
270.0000000807
 51
0.0000000806
  0
ARC
  5
590
100
AcDbEntity
  8
0
100
AcDbCircle
 62
7
  6
CONTINUOUS
 10
4.8498637094
 20
8.5576449399
 40
0.5
100
AcDbArc
 50
0.0000000807
 51
90.0000000807
  0
ARC
  5
591
100
AcDbEntity
  8
0
100
AcDbCircle
 62
7
  6
CONTINUOUS
 10
0.0498636985
 20
16.3576449332
 40
0.5
100
AcDbArc
 50
270.0000000806
 51
0.0000000807
  0
ARC
  5
592
100
AcDbEntity
  8
0
100
AcDbCircle
 62
7
  6
CONTINUOUS
 10
0.0498636965
 20
17.7576449332
 40
0.5
100
AcDbArc
 50
0.0000000807
 51
90.0000000807
  0
ARC
  5
593
100
AcDbEntity
  8
RACCORDO
100
AcDbCircle
 62
253
  6
CONTINUOUS
 10
17.9046634276
 20
21.4236021179
 40
0.3999835979
100
AcDbArc
 50
44.9999304995
 51
90.0000695005
  0
ARC
  5
594
100
AcDbEntity
  8
RACCORDO
100
AcDbCircle
 62
253
  6
CONTINUOUS
 10
21.2162588355
 20
18.1120067099
 40
0.3999835979
100
AcDbArc
 50
359.9999305017
 51
45.0000694983
  0
ARC
  5
595
100
AcDbEntity
  8
RACCORDO
100
AcDbCircle
 62
7
  6
CONTINUOUS
 10
1.2000865077
 20
24.3063019862
 40
0.2513473782
100
AcDbArc
 50
96.0652482638
 51
108.0650149535
  0
ARC
  5
596
100
AcDbEntity
  8
RACCORDO
100
AcDbCircle
 62
7
  6
CONTINUOUS
 10
2.6996409351
 20
24.3063019862
 40
0.2513473782
100
AcDbArc
 50
71.9349850465
 51
83.9347517362
  0
ARC
  5
597
100
AcDbEntity
  8
RACCORDO
100
AcDbCircle
 62
7
  6
CONTINUOUS
 10
19.5000865077
 20
24.3063019862
 40
0.2513473782
100
AcDbArc
 50
96.0652482638
 51
108.0650149535
  0
ARC
  5
598
100
AcDbEntity
  8
RACCORDO
100
AcDbCircle
 62
7
  6
CONTINUOUS
 10
20.9996409351
 20
24.3063019862
 40
0.2513473782
100
AcDbArc
 50
71.9349850465
 51
83.9347517362
  0
ARC
  5
599
100
AcDbEntity
  8
RACCORDO
100
AcDbCircle
 62
7
  6
CONTINUOUS
 10
1.2010427311
 20
24.3074655486
 40
0.2511790796
100
AcDbArc
 50
161.9332572711
 51
179.9572714446
  0
ARC
  5
59A
100
AcDbEntity
  8
RACCORDO
100
AcDbCircle
 62
7
  6
CONTINUOUS
 10
2.6986847117
 20
24.3074655486
 40
0.2511790796
100
AcDbArc
 50
0.0427285554
 51
18.0667427289
  0
ARC
  5
59B
100
AcDbEntity
  8
RACCORDO
100
AcDbCircle
 62
7
  6
CONTINUOUS
 10
19.5010427311
 20
24.3074655486
 40
0.2511790796
100
AcDbArc
 50
161.9332572711
 51
179.9572714446
  0
ARC
  5
59C
100
AcDbEntity
  8
RACCORDO
100
AcDbCircle
 62
7
  6
CONTINUOUS
 10
20.9986847117
 20
24.3074655486
 40
0.2511790796
100
AcDbArc
 50
0.0427285554
 51
18.0667427289
  0
ARC
  5
59D
100
AcDbEntity
  8
RACCORDO
100
AcDbCircle
 62
7
  6
CONTINUOUS
 10
1.2064412133
 20
24.3010658553
 40
0.2500133033
100
AcDbArc
 50
90.0052300194
 51
179.9947699806
  0
ARC
  5
59E
100
AcDbEntity
  8
RACCORDO
100
AcDbCircle
 62
7
  6
CONTINUOUS
 10
19.5064412133
 20
24.3010658553
 40
0.2500133033
100
AcDbArc
 50
90.0052300194
 51
179.9947699806
  0
ARC
  5
59F
100
AcDbEntity
  8
RACCORDO
100
AcDbCircle
 62
7
  6
CONTINUOUS
 10
2.6932862472
 20
24.301065873
 40
0.2500132855
100
AcDbArc
 50
0.0052259535
 51
89.9947740465
  0
ARC
  5
5A0
100
AcDbEntity
  8
RACCORDO
100
AcDbCircle
 62
7
  6
CONTINUOUS
 10
20.9932862472
 20
24.301065873
 40
0.2500132855
100
AcDbArc
 50
0.0052259535
 51
89.9947740465
  0
ARC
  5
5A1
100
AcDbEntity
  8
RACCORDO
100
AcDbCircle
 62
7
  6
CONTINUOUS
 10
1.1998479328
 20
24.3076591358
 40
0.2499832231
100
AcDbArc
 50
108.1094868587
 51
161.8905131413
  0
ARC
  5
5A2
100
AcDbEntity
  8
RACCORDO
100
AcDbCircle
 62
7
  6
CONTINUOUS
 10
2.69987951
 20
24.3076591358
 40
0.2499832231
100
AcDbArc
 50
18.1094868587
 51
71.8905131413
  0
ARC
  5
5A3
100
AcDbEntity
  8
RACCORDO
100
AcDbCircle
 62
7
  6
CONTINUOUS
 10
19.4998479328
 20
24.3076591358
 40
0.2499832231
100
AcDbArc
 50
108.1094868587
 51
161.8905131413
  0
ARC
  5
5A4
100
AcDbEntity
  8
RACCORDO
100
AcDbCircle
 62
7
  6
CONTINUOUS
 10
20.99987951
 20
24.3076591358
 40
0.2499832231
100
AcDbArc
 50
18.1094868587
 51
71.8905131413
  0
ARC
  5
5A5
100
AcDbEntity
  8
RACCORDO
100
AcDbCircle
 62
7
  6
CONTINUOUS
 10
1.1999066512
 20
24.3086213575
 40
0.2490219952
100
AcDbArc
 50
90.0120676382
 51
96.0804837481
  0
ARC
  5
5A6
100
AcDbEntity
  8
RACCORDO
100
AcDbCircle
 62
7
  6
CONTINUOUS
 10
2.6998207916
 20
24.3086213575
 40
0.2490219952
100
AcDbArc
 50
83.9195162519
 51
89.9879323617
  0
ARC
  5
5A7
100
AcDbEntity
  8
RACCORDO
100
AcDbCircle
 62
7
  6
CONTINUOUS
 10
19.4999066512
 20
24.3086213575
 40
0.2490219952
100
AcDbArc
 50
90.0120676383
 51
96.0804837481
  0
ARC
  5
5A8
100
AcDbEntity
  8
RACCORDO
100
AcDbCircle
 62
7
  6
CONTINUOUS
 10
20.9998207916
 20
24.3086213575
 40
0.2490219952
100
AcDbArc
 50
83.9195162519
 51
89.9879323617
  0
ARC
  5
5A9
100
AcDbEntity
  8
0
100
AcDbCircle
 62
7
  6
CONTINUOUS
 10
12.5498636955
 20
18.4576449508
 40
0.2
100
AcDbArc
 50
180.0000000805
 51
270.0000000807
  0
SPLINE
  5
5AA
100
AcDbEntity
  8
RACCORDO
100
AcDbSpline
 62
7
  6
CONTINUOUS
 70
0
 71
3
 72
13
 73
9
 74
7
 42
0.0000001
 43
0.0000001
 44
0.0000000001
 12
-0.0000000088
 22
-0.7814942334
 32
0.0
 13
-0.7814942334
 23
0.0
 33
0.0
 40
0.0
 40
0.0
 40
0.0
 40
0.0
 40
0.1655703334
 40
0.3335672058
 40
0.4986782459
 40
0.6637263131
 40
0.8315935414
 40
1.0
 40
1.0
 40
1.0
 40
1.0
 10
22.2498387997
 20
-21.8446733694
 30
0.0
 10
22.2498387992
 20
-21.887804123
 30
0.0
 10
22.2379189534
 20
-21.9750747573
 30
0.0
 10
22.1873715509
 20
-22.096282647
 30
0.0
 10
22.1072423001
 20
-22.2002347131
 30
0.0
 10
22.0032081215
 20
-22.2801577196
 30
0.0
 10
21.8812959374
 20
-22.3309349986
 30
0.0
 10
21.7932411267
 20
-22.3423566528
 30
0.0
 10
21.7493715679
 20
-22.3423566528
 30
0.0
 11
22.2498387997
 21
-21.8446733694
 31
0.0
 11
22.2326121381
 21
-21.9729137659
 31
0.0
 11
22.1820387638
 21
-22.0940707999
 31
0.0
 11
22.1032653483
 21
-22.1962683935
 31
0.0
 11
22.0009913532
 21
-22.2748618491
 31
0.0
 11
21.8798622823
 21
-22.3252389097
 31
0.0
 11
21.7493715679
 21
-22.3423566528
 31
0.0
  0
SPLINE
  5
5AB
100
AcDbEntity
  8
RACCORDO
100
AcDbSpline
 62
7
  6
CONTINUOUS
 70
0
 71
3
 72
13
 73
9
 74
7
 42
0.0000001
 43
0.0000001
 44
0.0000000001
 12
-0.0000000088
 22
0.7832575159
 32
0.0
 13
-0.7832575159
 23
-0.0
 33
0.0
 40
0.0
 40
0.0
 40
0.0
 40
0.0
 40
0.1685841974
 40
0.3361297659
 40
0.5010164555
 40
0.6658549606
 40
0.8332653175
 40
1.0
 40
1.0
 40
1.0
 40
1.0
 10
22.2498762552
 20
21.9572385818
 30
0.0
 10
22.2498762547
 20
22.0012535283
 30
0.0
 10
22.2383743481
 20
22.0894725236
 30
0.0
 10
22.1873748216
 20
22.2115250765
 30
0.0
 10
22.1072479004
 20
22.3155351693
 30
0.0
 10
22.0031435457
 20
22.3954943211
 30
0.0
 10
21.8815165141
 20
22.4460742606
 30
0.0
 10
21.7938511677
 20
22.4576433472
 30
0.0
 10
21.7503191033
 20
22.4576433472
 30
0.0
 11
22.2498762552
 21
21.9572385818
 31
0.0
 11
22.2326252979
 21
22.0881516986
 31
0.0
 11
22.1820932248
 21
22.2092639212
 31
0.0
 11
22.1032596019
 21
22.3115608256
 31
0.0
 11
22.0008736466
 21
22.3902168232
 31
0.0
 11
21.879791118
 21
22.4405447195
 31
0.0
 11
21.7503191033
 21
22.4576433472
 31
0.0
  0
SPLINE
  5
5AC
100
AcDbEntity
  8
RACCORDO
100
AcDbSpline
 62
7
  6
CONTINUOUS
 70
0
 71
3
 72
13
 73
9
 74
7
 42
0.0000001
 43
0.0000001
 44
0.0000000001
 12
0.0000000088
 22
0.7814942334
 32
0.0
 13
0.7814942334
 23
-0.0
 33
0.0
 40
0.0
 40
0.0
 40
0.0
 40
0.0
 40
0.1655703334
 40
0.3335672058
 40
0.4986782459
 40
0.6637263131
 40
0.8315935414
 40
1.0
 40
1.0
 40
1.0
 40
1.0
 10
-22.5501113569
 20
21.9599600638
 30
0.0
 10
-22.5501113564
 20
22.0030908174
 30
0.0
 10
-22.5381915106
 20
22.0903614517
 30
0.0
 10
-22.4876441081
 20
22.2115693414
 30
0.0
 10
-22.4075148573
 20
22.3155214075
 30
0.0
 10
-22.3034806786
 20
22.395444414
 30
0.0
 10
-22.1815684946
 20
22.446221693
 30
0.0
 10
-22.0935136838
 20
22.4576433472
 30
0.0
 10
-22.0496441251
 20
22.4576433472
 30
0.0
 11
-22.5501113569
 21
21.9599600638
 31
0.0
 11
-22.5328846953
 21
22.0882004603
 31
0.0
 11
-22.482311321
 21
22.2093574943
 31
0.0
 11
-22.4035379055
 21
22.3115550879
 31
0.0
 11
-22.3012639103
 21
22.3901485435
 31
0.0
 11
-22.1801348395
 21
22.4405256041
 31
0.0
 11
-22.0496441251
 21
22.4576433472
 31
0.0
  0
SPLINE
  5
5AD
100
AcDbEntity
  8
RACCORDO
100
AcDbSpline
 62
7
  6
CONTINUOUS
 70
0
 71
3
 72
13
 73
9
 74
7
 42
0.0000001
 43
0.0000001
 44
0.0000000001
 12
0.0000000088
 22
-0.7832575159
 32
0.0
 13
0.7832575159
 23
0.0
 33
0.0
 40
0.0
 40
0.0
 40
0.0
 40
0.0
 40
0.1685841974
 40
0.3361297659
 40
0.5010164555
 40
0.6658549606
 40
0.8332653175
 40
1.0
 40
1.0
 40
1.0
 40
1.0
 10
-22.5501488124
 20
-21.8419518874
 30
0.0
 10
-22.5501488119
 20
-21.8859668339
 30
0.0
 10
-22.5386469053
 20
-21.9741858293
 30
0.0
 10
-22.4876473788
 20
-22.0962383821
 30
0.0
 10
-22.4075204576
 20
-22.2002484749
 30
0.0
 10
-22.3034161029
 20
-22.2802076268
 30
0.0
 10
-22.1817890713
 20
-22.3307875662
 30
0.0
 10
-22.0941237248
 20
-22.3423566528
 30
0.0
 10
-22.0505916604
 20
-22.3423566528
 30
0.0
 11
-22.5501488124
 21
-21.8419518874
 31
0.0
 11
-22.5328978551
 21
-21.9728650042
 31
0.0
 11
-22.482365782
 21
-22.0939772268
 31
0.0
 11
-22.403532159
 21
-22.1962741312
 31
0.0
 11
-22.3011462037
 21
-22.2749301288
 31
0.0
 11
-22.1800636752
 21
-22.3252580251
 31
0.0
 11
-22.0505916604
 21
-22.3423566528
 31
0.0
  0
SPLINE
  5
5AE
100
AcDbEntity
  8
RACCORDO
100
AcDbSpline
 62
253
  6
CONTINUOUS
 70
0
 71
3
 72
12
 73
8
 74
6
 42
0.0000001
 43
0.0000001
 44
0.0000000001
 12
-0.3648631876
 22
0.0013787613
 32
0.0
 13
-0.0018381982
 23
0.3648611622
 33
0.0
 40
0.0
 40
0.0
 40
0.0
 40
0.0
 40
0.2120453938
 40
0.420560107
 40
0.6214938563
 40
0.8135561515
 40
1.0
 40
1.0
 40
1.0
 40
1.0
 10
1.2064183919
 20
23.7854745635
 30
0.0
 10
1.1806292058
 20
23.7855720169
 30
0.0
 10
1.1292317612
 20
23.7926618279
 30
0.0
 10
1.0590611607
 20
23.8232708304
 30
0.0
 10
1.0024513617
 20
23.8714625701
 30
0.0
 10
0.9653846047
 20
23.9329199681
 30
0.0
 10
0.9565421513
 20
23.9793055414
 30
0.0
 10
0.9564279111
 20
24.0019809145
 30
0.0
 11
1.2064183919
 21
23.7854745635
 31
0.0
 11
1.1297951513
 21
23.7961845386
 31
0.0
 11
1.060200876
 21
23.8269219086
 31
0.0
 11
1.0047131515
 21
23.8748388501
 31
0.0
 11
0.9689827619
 21
23.9351225113
 31
0.0
 11
0.9564279111
 21
24.0019809145
 31
0.0
  0
SPLINE
  5
5AF
100
AcDbEntity
  8
RACCORDO
100
AcDbSpline
 62
253
  6
CONTINUOUS
 70
0
 71
3
 72
12
 73
8
 74
6
 42
0.0000001
 43
0.0000001
 44
0.0000000001
 12
0.0018381982
 22
0.3648611622
 32
0.0
 13
0.3648631876
 23
0.0013787613
 33
0.0
 40
0.0
 40
0.0
 40
0.0
 40
0.0
 40
0.1864438485
 40
0.3785061436
 40
0.5794398929
 40
0.7879546061
 40
1.0
 40
1.0
 40
1.0
 40
1.0
 10
-3.2435720889
 20
-23.8866942201
 30
0.0
 10
-3.2434578487
 20
-23.864018847
 30
0.0
 10
-3.2346153953
 20
-23.8176332738
 30
0.0
 10
-3.1975486383
 20
-23.7561758757
 30
0.0
 10
-3.1409388394
 20
-23.707984136
 30
0.0
 10
-3.0707682388
 20
-23.6773751335
 30
0.0
 10
-3.0193707943
 20
-23.6702853225
 30
0.0
 10
-2.9935816081
 20
-23.6701878692
 30
0.0
 11
-3.2435720889
 21
-23.8866942201
 31
0.0
 11
-3.2310172381
 21
-23.8198358169
 31
0.0
 11
-3.1952868485
 21
-23.7595521558
 31
0.0
 11
-3.139799124
 21
-23.7116352143
 31
0.0
 11
-3.0702048487
 21
-23.6808978442
 31
0.0
 11
-2.9935816081
 21
-23.6701878692
 31
0.0
  0
SPLINE
  5
5B0
100
AcDbEntity
  8
RACCORDO
100
AcDbSpline
 62
253
  6
CONTINUOUS
 70
0
 71
3
 72
12
 73
8
 74
6
 42
0.0000001
 43
0.0000001
 44
0.0000000001
 12
-0.0018381982
 22
-0.3648611622
 32
0.0
 13
-0.3648631876
 23
-0.0013787613
 33
0.0
 40
0.0
 40
0.0
 40
0.0
 40
0.0
 40
0.1864438485
 40
0.3785061436
 40
0.5794398929
 40
0.7879546061
 40
1.0
 40
1.0
 40
1.0
 40
1.0
 10
2.9432995317
 20
24.0019809145
 30
0.0
 10
2.9431852915
 20
23.9793055414
 30
0.0
 10
2.9343428382
 20
23.9329199681
 30
0.0
 10
2.8972760811
 20
23.8714625701
 30
0.0
 10
2.8406662822
 20
23.8232708304
 30
0.0
 10
2.7704956816
 20
23.7926618279
 30
0.0
 10
2.7190982371
 20
23.7855720169
 30
0.0
 10
2.693309051
 20
23.7854745635
 30
0.0
 11
2.9432995317
 21
24.0019809145
 31
0.0
 11
2.9307446809
 21
23.9351225113
 31
0.0
 11
2.8950142913
 21
23.8748388501
 31
0.0
 11
2.8395265668
 21
23.8269219087
 31
0.0
 11
2.7699322915
 21
23.7961845386
 31
0.0
 11
2.693309051
 21
23.7854745635
 31
0.0
  0
SPLINE
  5
5B1
100
AcDbEntity
  8
RACCORDO
100
AcDbSpline
 62
253
  6
CONTINUOUS
 70
0
 71
3
 72
12
 73
8
 74
6
 42
0.0000001
 43
0.0000001
 44
0.0000000001
 12
-0.3648631876
 22
0.0013787613
 32
0.0
 13
-0.0018381982
 23
0.3648611622
 33
0.0
 40
0.0
 40
0.0
 40
0.0
 40
0.0
 40
0.2120453938
 40
0.420560107
 40
0.6214938563
 40
0.8135561515
 40
1.0
 40
1.0
 40
1.0
 40
1.0
 10
19.5064183919
 20
23.7854745635
 30
0.0
 10
19.4806292058
 20
23.7855720169
 30
0.0
 10
19.4292317612
 20
23.7926618279
 30
0.0
 10
19.3590611607
 20
23.8232708304
 30
0.0
 10
19.3024513617
 20
23.8714625701
 30
0.0
 10
19.2653846047
 20
23.9329199681
 30
0.0
 10
19.2565421513
 20
23.9793055414
 30
0.0
 10
19.2564279111
 20
24.0019809145
 30
0.0
 11
19.5064183919
 21
23.7854745635
 31
0.0
 11
19.4297951513
 21
23.7961845386
 31
0.0
 11
19.360200876
 21
23.8269219086
 31
0.0
 11
19.3047131515
 21
23.8748388501
 31
0.0
 11
19.2689827619
 21
23.9351225113
 31
0.0
 11
19.2564279111
 21
24.0019809145
 31
0.0
  0
SPLINE
  5
5B2
100
AcDbEntity
  8
RACCORDO
100
AcDbSpline
 62
253
  6
CONTINUOUS
 70
0
 71
3
 72
12
 73
8
 74
6
 42
0.0000001
 43
0.0000001
 44
0.0000000001
 12
-0.0018381982
 22
-0.3648611622
 32
0.0
 13
-0.3648631876
 23
-0.0013787613
 33
0.0
 40
0.0
 40
0.0
 40
0.0
 40
0.0
 40
0.1864438485
 40
0.3785061436
 40
0.5794398929
 40
0.7879546061
 40
1.0
 40
1.0
 40
1.0
 40
1.0
 10
21.2432995317
 20
24.0019809145
 30
0.0
 10
21.2431852915
 20
23.9793055414
 30
0.0
 10
21.2343428382
 20
23.9329199681
 30
0.0
 10
21.1972760811
 20
23.8714625701
 30
0.0
 10
21.1406662822
 20
23.8232708304
 30
0.0
 10
21.0704956816
 20
23.7926618279
 30
0.0
 10
21.0190982371
 20
23.7855720169
 30
0.0
 10
20.993309051
 20
23.7854745635
 30
0.0
 11
21.2432995317
 21
24.0019809145
 31
0.0
 11
21.2307446809
 21
23.9351225113
 31
0.0
 11
21.1950142913
 21
23.8748388501
 31
0.0
 11
21.1395265668
 21
23.8269219087
 31
0.0
 11
21.0699322915
 21
23.7961845386
 31
0.0
 11
20.993309051
 21
23.7854745635
 31
0.0
  0
SPLINE
  5
5B3
100
AcDbEntity
  8
RACCORDO
100
AcDbSpline
 62
253
  6
CONTINUOUS
 70
0
 71
3
 72
12
 73
8
 74
6
 42
0.0000001
 43
0.0000001
 44
0.0000000001
 12
-0.0018381982
 22
0.3648611622
 32
0.0
 13
-0.3648631876
 23
0.0013787613
 33
0.0
 40
0.0
 40
0.0
 40
0.0
 40
0.0
 40
0.1864438456
 40
0.378506139
 40
0.5794398842
 40
0.7879546005
 40
1.0
 40
1.0
 40
1.0
 40
1.0
 10
21.2432995317
 20
-23.8866942201
 30
0.0
 10
21.2431852915
 20
-23.8640188474
 30
0.0
 10
21.2343428384
 20
-23.8176332747
 30
0.0
 10
21.1972760823
 20
-23.7561758773
 30
0.0
 10
21.1406662842
 20
-23.7079841373
 30
0.0
 10
21.0704956834
 20
-23.6773751338
 30
0.0
 10
21.0190982378
 20
-23.6702853225
 30
0.0
 10
20.993309051
 20
-23.6701878692
 30
0.0
 11
21.2432995317
 21
-23.8866942201
 31
0.0
 11
21.2307446813
 21
-23.8198358179
 31
0.0
 11
21.1950142924
 21
-23.7595521571
 31
0.0
 11
21.1395265695
 21
-23.711635216
 31
0.0
 11
21.0699322935
 21
-23.6808978448
 31
0.0
 11
20.993309051
 21
-23.6701878692
 31
0.0
  0
SPLINE
  5
5B4
100
AcDbEntity
  8
RACCORDO
100
AcDbSpline
 62
253
  6
CONTINUOUS
 70
0
 71
3
 72
12
 73
8
 74
6
 42
0.0000001
 43
0.0000001
 44
0.0000000001
 12
-0.0018381982
 22
0.3648611622
 32
0.0
 13
-0.3648631876
 23
0.0013787613
 33
0.0
 40
0.0
 40
0.0
 40
0.0
 40
0.0
 40
0.1864438456
 40
0.378506139
 40
0.5794398842
 40
0.7879546005
 40
1.0
 40
1.0
 40
1.0
 40
1.0
 10
-19.5567004683
 20
-23.8866942201
 30
0.0
 10
-19.5568147085
 20
-23.8640188474
 30
0.0
 10
-19.5656571616
 20
-23.8176332747
 30
0.0
 10
-19.6027239177
 20
-23.7561758773
 30
0.0
 10
-19.6593337158
 20
-23.7079841373
 30
0.0
 10
-19.7295043166
 20
-23.6773751338
 30
0.0
 10
-19.7809017622
 20
-23.6702853225
 30
0.0
 10
-19.806690949
 20
-23.6701878692
 30
0.0
 11
-19.5567004683
 21
-23.8866942201
 31
0.0
 11
-19.5692553187
 21
-23.8198358179
 31
0.0
 11
-19.6049857076
 21
-23.7595521571
 31
0.0
 11
-19.6604734305
 21
-23.711635216
 31
0.0
 11
-19.7300677065
 21
-23.6808978448
 31
0.0
 11
-19.806690949
 21
-23.6701878692
 31
0.0
  0
SPLINE
  5
5B5
100
AcDbEntity
  8
RACCORDO
100
AcDbSpline
 62
253
  6
CONTINUOUS
 70
0
 71
3
 72
12
 73
8
 74
6
 42
0.0000001
 43
0.0000001
 44
0.0000000001
 12
0.0018381982
 22
0.3648611622
 32
0.0
 13
0.3648631876
 23
0.0013787613
 33
0.0
 40
0.0
 40
0.0
 40
0.0
 40
0.0
 40
0.1864438485
 40
0.3785061436
 40
0.5794398929
 40
0.7879546061
 40
1.0
 40
1.0
 40
1.0
 40
1.0
 10
19.2564279111
 20
-23.8866942201
 30
0.0
 10
19.2565421513
 20
-23.864018847
 30
0.0
 10
19.2653846047
 20
-23.8176332738
 30
0.0
 10
19.3024513617
 20
-23.7561758757
 30
0.0
 10
19.3590611606
 20
-23.707984136
 30
0.0
 10
19.4292317612
 20
-23.6773751335
 30
0.0
 10
19.4806292057
 20
-23.6702853225
 30
0.0
 10
19.5064183919
 20
-23.6701878692
 30
0.0
 11
19.2564279111
 21
-23.8866942201
 31
0.0
 11
19.2689827619
 21
-23.8198358169
 31
0.0
 11
19.3047131515
 21
-23.7595521558
 31
0.0
 11
19.360200876
 21
-23.7116352143
 31
0.0
 11
19.4297951513
 21
-23.6808978442
 31
0.0
 11
19.5064183919
 21
-23.6701878692
 31
0.0
  0
SPLINE
  5
5B6
100
AcDbEntity
  8
RACCORDO
100
AcDbSpline
 62
253
  6
CONTINUOUS
 70
0
 71
3
 72
12
 73
8
 74
6
 42
0.0000001
 43
0.0000001
 44
0.0000000001
 12
-0.0018381982
 22
0.3648611622
 32
0.0
 13
-0.3648631876
 23
0.0013787613
 33
0.0
 40
0.0
 40
0.0
 40
0.0
 40
0.0
 40
0.1864438456
 40
0.378506139
 40
0.5794398842
 40
0.7879546005
 40
1.0
 40
1.0
 40
1.0
 40
1.0
 10
2.9432995317
 20
-23.8866942201
 30
0.0
 10
2.9431852915
 20
-23.8640188474
 30
0.0
 10
2.9343428384
 20
-23.8176332747
 30
0.0
 10
2.8972760823
 20
-23.7561758773
 30
0.0
 10
2.8406662842
 20
-23.7079841373
 30
0.0
 10
2.7704956834
 20
-23.6773751338
 30
0.0
 10
2.7190982378
 20
-23.6702853225
 30
0.0
 10
2.693309051
 20
-23.6701878692
 30
0.0
 11
2.9432995317
 21
-23.8866942201
 31
0.0
 11
2.9307446813
 21
-23.8198358179
 31
0.0
 11
2.8950142924
 21
-23.7595521571
 31
0.0
 11
2.8395265695
 21
-23.711635216
 31
0.0
 11
2.7699322935
 21
-23.6808978448
 31
0.0
 11
2.693309051
 21
-23.6701878692
 31
0.0
  0
SPLINE
  5
5B7
100
AcDbEntity
  8
RACCORDO
100
AcDbSpline
 62
253
  6
CONTINUOUS
 70
0
 71
3
 72
12
 73
8
 74
6
 42
0.0000001
 43
0.0000001
 44
0.0000000001
 12
0.0018381982
 22
0.3648611622
 32
0.0
 13
0.3648631876
 23
0.0013787613
 33
0.0
 40
0.0
 40
0.0
 40
0.0
 40
0.0
 40
0.1864438485
 40
0.3785061436
 40
0.5794398929
 40
0.7879546061
 40
1.0
 40
1.0
 40
1.0
 40
1.0
 10
0.9564279111
 20
-23.8866942201
 30
0.0
 10
0.9565421513
 20
-23.864018847
 30
0.0
 10
0.9653846047
 20
-23.8176332738
 30
0.0
 10
1.0024513617
 20
-23.7561758757
 30
0.0
 10
1.0590611606
 20
-23.707984136
 30
0.0
 10
1.1292317612
 20
-23.6773751335
 30
0.0
 10
1.1806292057
 20
-23.6702853225
 30
0.0
 10
1.2064183919
 20
-23.6701878692
 30
0.0
 11
0.9564279111
 21
-23.8866942201
 31
0.0
 11
0.9689827619
 21
-23.8198358169
 31
0.0
 11
1.0047131515
 21
-23.7595521558
 31
0.0
 11
1.060200876
 21
-23.7116352143
 31
0.0
 11
1.1297951513
 21
-23.6808978442
 31
0.0
 11
1.2064183919
 21
-23.6701878692
 31
0.0
  0
SPLINE
  5
5B8
100
AcDbEntity
  8
RACCORDO
100
AcDbSpline
 62
253
  6
CONTINUOUS
 70
0
 71
3
 72
12
 73
8
 74
6
 42
0.0000001
 43
0.0000001
 44
0.0000000001
 12
0.0018381982
 22
0.3648611622
 32
0.0
 13
0.3648631876
 23
0.0013787613
 33
0.0
 40
0.0
 40
0.0
 40
0.0
 40
0.0
 40
0.1864438485
 40
0.3785061436
 40
0.5794398929
 40
0.7879546061
 40
1.0
 40
1.0
 40
1.0
 40
1.0
 10
-21.5435720889
 20
-23.8866942201
 30
0.0
 10
-21.5434578487
 20
-23.864018847
 30
0.0
 10
-21.5346153953
 20
-23.8176332738
 30
0.0
 10
-21.4975486383
 20
-23.7561758757
 30
0.0
 10
-21.4409388394
 20
-23.707984136
 30
0.0
 10
-21.3707682388
 20
-23.6773751335
 30
0.0
 10
-21.3193707943
 20
-23.6702853225
 30
0.0
 10
-21.2935816081
 20
-23.6701878692
 30
0.0
 11
-21.5435720889
 21
-23.8866942201
 31
0.0
 11
-21.5310172381
 21
-23.8198358169
 31
0.0
 11
-21.4952868485
 21
-23.7595521558
 31
0.0
 11
-21.439799124
 21
-23.7116352143
 31
0.0
 11
-21.3702048487
 21
-23.6808978442
 31
0.0
 11
-21.2935816081
 21
-23.6701878692
 31
0.0
  0
SPLINE
  5
5B9
100
AcDbEntity
  8
RACCORDO
100
AcDbSpline
 62
253
  6
CONTINUOUS
 70
0
 71
3
 72
12
 73
8
 74
6
 42
0.0000001
 43
0.0000001
 44
0.0000000001
 12
-0.3648631876
 22
0.0013787613
 32
0.0
 13
-0.0018381982
 23
0.3648611622
 33
0.0
 40
0.0
 40
0.0
 40
0.0
 40
0.0
 40
0.2120453938
 40
0.420560107
 40
0.6214938563
 40
0.8135561515
 40
1.0
 40
1.0
 40
1.0
 40
1.0
 10
-21.2935816081
 20
23.7854745635
 30
0.0
 10
-21.3193707942
 20
23.7855720169
 30
0.0
 10
-21.3707682388
 20
23.7926618279
 30
0.0
 10
-21.4409388393
 20
23.8232708304
 30
0.0
 10
-21.4975486383
 20
23.8714625701
 30
0.0
 10
-21.5346153953
 20
23.9329199681
 30
0.0
 10
-21.5434578487
 20
23.9793055414
 30
0.0
 10
-21.5435720889
 20
24.0019809145
 30
0.0
 11
-21.2935816081
 21
23.7854745635
 31
0.0
 11
-21.3702048487
 21
23.7961845386
 31
0.0
 11
-21.439799124
 21
23.8269219086
 31
0.0
 11
-21.4952868485
 21
23.8748388501
 31
0.0
 11
-21.5310172381
 21
23.9351225113
 31
0.0
 11
-21.5435720889
 21
24.0019809145
 31
0.0
  0
SPLINE
  5
5BA
100
AcDbEntity
  8
RACCORDO
100
AcDbSpline
 62
253
  6
CONTINUOUS
 70
0
 71
3
 72
12
 73
8
 74
6
 42
0.0000001
 43
0.0000001
 44
0.0000000001
 12
-0.0018381982
 22
0.3648611622
 32
0.0
 13
-0.3648631876
 23
0.0013787613
 33
0.0
 40
0.0
 40
0.0
 40
0.0
 40
0.0
 40
0.1864438456
 40
0.378506139
 40
0.5794398842
 40
0.7879546005
 40
1.0
 40
1.0
 40
1.0
 40
1.0
 10
-1.2567004683
 20
-23.8866942201
 30
0.0
 10
-1.2568147085
 20
-23.8640188474
 30
0.0
 10
-1.2656571616
 20
-23.8176332747
 30
0.0
 10
-1.3027239177
 20
-23.7561758773
 30
0.0
 10
-1.3593337158
 20
-23.7079841373
 30
0.0
 10
-1.4295043166
 20
-23.6773751338
 30
0.0
 10
-1.4809017622
 20
-23.6702853225
 30
0.0
 10
-1.506690949
 20
-23.6701878692
 30
0.0
 11
-1.2567004683
 21
-23.8866942201
 31
0.0
 11
-1.2692553187
 21
-23.8198358179
 31
0.0
 11
-1.3049857076
 21
-23.7595521571
 31
0.0
 11
-1.3604734305
 21
-23.711635216
 31
0.0
 11
-1.4300677065
 21
-23.6808978448
 31
0.0
 11
-1.506690949
 21
-23.6701878692
 31
0.0
  0
SPLINE
  5
5BB
100
AcDbEntity
  8
RACCORDO
100
AcDbSpline
 62
253
  6
CONTINUOUS
 70
0
 71
3
 72
12
 73
8
 74
6
 42
0.0000001
 43
0.0000001
 44
0.0000000001
 12
-0.0018381982
 22
-0.3648611622
 32
0.0
 13
-0.3648631876
 23
-0.0013787613
 33
0.0
 40
0.0
 40
0.0
 40
0.0
 40
0.0
 40
0.1864438485
 40
0.3785061436
 40
0.5794398929
 40
0.7879546061
 40
1.0
 40
1.0
 40
1.0
 40
1.0
 10
-19.5567004683
 20
24.0019809145
 30
0.0
 10
-19.5568147085
 20
23.9793055414
 30
0.0
 10
-19.5656571618
 20
23.9329199681
 30
0.0
 10
-19.6027239189
 20
23.8714625701
 30
0.0
 10
-19.6593337178
 20
23.8232708304
 30
0.0
 10
-19.7295043184
 20
23.7926618279
 30
0.0
 10
-19.7809017629
 20
23.7855720169
 30
0.0
 10
-19.806690949
 20
23.7854745635
 30
0.0
 11
-19.5567004683
 21
24.0019809145
 31
0.0
 11
-19.5692553191
 21
23.9351225113
 31
0.0
 11
-19.6049857087
 21
23.8748388501
 31
0.0
 11
-19.6604734332
 21
23.8269219087
 31
0.0
 11
-19.7300677085
 21
23.7961845386
 31
0.0
 11
-19.806690949
 21
23.7854745635
 31
0.0
  0
SPLINE
  5
5BC
100
AcDbEntity
  8
RACCORDO
100
AcDbSpline
 62
253
  6
CONTINUOUS
 70
0
 71
3
 72
12
 73
8
 74
6
 42
0.0000001
 43
0.0000001
 44
0.0000000001
 12
-0.3648631876
 22
0.0013787613
 32
0.0
 13
-0.0018381982
 23
0.3648611622
 33
0.0
 40
0.0
 40
0.0
 40
0.0
 40
0.0
 40
0.2120453938
 40
0.420560107
 40
0.6214938563
 40
0.8135561515
 40
1.0
 40
1.0
 40
1.0
 40
1.0
 10
-2.9935816081
 20
23.7854745635
 30
0.0
 10
-3.0193707942
 20
23.7855720169
 30
0.0
 10
-3.0707682388
 20
23.7926618279
 30
0.0
 10
-3.1409388393
 20
23.8232708304
 30
0.0
 10
-3.1975486383
 20
23.8714625701
 30
0.0
 10
-3.2346153953
 20
23.9329199681
 30
0.0
 10
-3.2434578487
 20
23.9793055414
 30
0.0
 10
-3.2435720889
 20
24.0019809145
 30
0.0
 11
-2.9935816081
 21
23.7854745635
 31
0.0
 11
-3.0702048487
 21
23.7961845386
 31
0.0
 11
-3.139799124
 21
23.8269219086
 31
0.0
 11
-3.1952868485
 21
23.8748388501
 31
0.0
 11
-3.2310172381
 21
23.9351225113
 31
0.0
 11
-3.2435720889
 21
24.0019809145
 31
0.0
  0
SPLINE
  5
5BD
100
AcDbEntity
  8
RACCORDO
100
AcDbSpline
 62
253
  6
CONTINUOUS
 70
0
 71
3
 72
12
 73
8
 74
6
 42
0.0000001
 43
0.0000001
 44
0.0000000001
 12
-0.0018381982
 22
-0.3648611622
 32
0.0
 13
-0.3648631876
 23
-0.0013787613
 33
0.0
 40
0.0
 40
0.0
 40
0.0
 40
0.0
 40
0.1864438485
 40
0.3785061436
 40
0.5794398929
 40
0.7879546061
 40
1.0
 40
1.0
 40
1.0
 40
1.0
 10
-1.2567004683
 20
24.0019809145
 30
0.0
 10
-1.2568147085
 20
23.9793055414
 30
0.0
 10
-1.2656571618
 20
23.9329199681
 30
0.0
 10
-1.3027239189
 20
23.8714625701
 30
0.0
 10
-1.3593337178
 20
23.8232708304
 30
0.0
 10
-1.4295043184
 20
23.7926618279
 30
0.0
 10
-1.4809017629
 20
23.7855720169
 30
0.0
 10
-1.506690949
 20
23.7854745635
 30
0.0
 11
-1.2567004683
 21
24.0019809145
 31
0.0
 11
-1.2692553191
 21
23.9351225113
 31
0.0
 11
-1.3049857087
 21
23.8748388501
 31
0.0
 11
-1.3604734332
 21
23.8269219087
 31
0.0
 11
-1.4300677085
 21
23.7961845386
 31
0.0
 11
-1.506690949
 21
23.7854745635
 31
0.0
  0
ELLIPSE
  5
5BE
100
AcDbEntity
  8
RACCORDO
100
AcDbEllipse
 62
7
  6
CONTINUOUS
 10
-13.2739993796
 20
18.8315064482
 30
0.0
 11
-0.2121966568
 21
0.2121966568
 31
-0.0
 40
0.9996954599
 41
2.3563467834
 42
3.9268385237
  0
ELLIPSE
  5
5BF
100
AcDbEntity
  8
RACCORDO
100
AcDbEllipse
 62
7
  6
CONTINUOUS
 10
-13.2739993796
 20
-18.7162197538
 30
0.0
 11
-0.2121966568
 21
-0.2121966568
 31
-0.0
 40
0.9996954599
 41
2.3563467834
 42
3.9268385237
  0
ELLIPSE
  5
5C0
100
AcDbEntity
  8
RACCORDO
100
AcDbEllipse
 62
7
  6
CONTINUOUS
 10
12.9737268224
 20
-18.7162197538
 30
0.0
 11
0.2121966568
 21
-0.2121966568
 31
0.0
 40
0.9996954599
 41
2.3563467834
 42
3.9268385237
  0
ELLIPSE
  5
5C1
100
AcDbEntity
  8
RACCORDO
100
AcDbEllipse
 62
7
  6
CONTINUOUS
 10
12.9737268224
 20
18.8315064482
 30
0.0
 11
0.2121966568
 21
0.2121966568
 31
0.0
 40
0.9996954599
 41
2.3563467834
 42
3.9268385237
  0
ELLIPSE
  5
5C2
100
AcDbEntity
  8
RACCORDO
100
AcDbEllipse
 62
7
  6
CONTINUOUS
 10
-3.000126759
 20
-23.4536815182
 30
0.0
 11
-0.0043630601
 21
0.2886504061
 31
0.0
 40
0.8660006717
 41
-0.0130891803
 42
1.5533438649
  0
ELLIPSE
  5
5C3
100
AcDbEntity
  8
RACCORDO
100
AcDbEllipse
 62
7
  6
CONTINUOUS
 10
2.6998542018
 20
23.5689682126
 30
0.0
 11
-0.0043630601
 21
0.2886504061
 31
0.0
 40
0.8660006717
 41
-3.1546818339
 42
-1.5882487887
  0
ELLIPSE
  5
5C4
100
AcDbEntity
  8
RACCORDO
100
AcDbEllipse
 62
7
  6
CONTINUOUS
 10
19.499873241
 20
23.5689682126
 30
0.0
 11
0.0043630601
 21
0.2886504061
 31
0.0
 40
0.8660006717
 41
-4.6949365185
 42
-3.1285034733
  0
ELLIPSE
  5
5C5
100
AcDbEntity
  8
RACCORDO
100
AcDbEllipse
 62
7
  6
CONTINUOUS
 10
20.9998542018
 20
23.5689682126
 30
0.0
 11
-0.0043630601
 21
0.2886504061
 31
0.0
 40
0.8660006717
 41
-3.1546818339
 42
-1.5882487887
  0
ELLIPSE
  5
5C6
100
AcDbEntity
  8
RACCORDO
100
AcDbEllipse
 62
7
  6
CONTINUOUS
 10
17.9151332068
 20
21.448878401
 30
0.0
 11
0.3827005044
 21
0.9239207481
 31
0.0
 40
0.9999553905
 41
-0.3926833098
 42
0.3926833098
  0
ELLIPSE
  5
5C7
100
AcDbEntity
  8
RACCORDO
100
AcDbEllipse
 62
7
  6
CONTINUOUS
 10
21.2415351186
 20
18.1224764892
 30
0.0
 11
0.9239207481
 21
0.3827005044
 31
0.0
 40
0.9999553905
 41
-0.3926833098
 42
0.3926833098
  0
ELLIPSE
  5
5C8
100
AcDbEntity
  8
RACCORDO
100
AcDbEllipse
 62
7
  6
CONTINUOUS
 10
21.2415351186
 20
-18.0071897948
 30
0.0
 11
0.9239207481
 21
-0.3827005044
 31
0.0
 40
0.9999553905
 41
-0.3926833098
 42
0.3926833098
  0
ELLIPSE
  5
5C9
100
AcDbEntity
  8
RACCORDO
100
AcDbEllipse
 62
7
  6
CONTINUOUS
 10
17.9151332068
 20
-21.3335917066
 30
0.0
 11
-0.3827005044
 21
0.9239207481
 31
0.0
 40
0.9999553905
 41
-3.5342759633
 42
-2.7489093438
  0
ELLIPSE
  5
5CA
100
AcDbEntity
  8
RACCORDO
100
AcDbEllipse
 62
7
  6
CONTINUOUS
 10
-18.215405764
 20
-21.3335917066
 30
0.0
 11
0.3827005044
 21
0.9239207481
 31
0.0
 40
0.9999553905
 41
-3.5342759634
 42
-2.7489093438
  0
ELLIPSE
  5
5CB
100
AcDbEntity
  8
RACCORDO
100
AcDbEllipse
 62
7
  6
CONTINUOUS
 10
-21.5418076758
 20
-18.0071897948
 30
0.0
 11
0.9239207481
 21
0.3827005044
 31
0.0
 40
0.9999553905
 41
2.7489093438
 42
3.5342759634
  0
ELLIPSE
  5
5CC
100
AcDbEntity
  8
RACCORDO
100
AcDbEllipse
 62
7
  6
CONTINUOUS
 10
-21.5418076758
 20
18.1224764892
 30
0.0
 11
0.9239207481
 21
-0.3827005044
 31
0.0
 40
0.9999553905
 41
2.7489093438
 42
3.5342759634
  0
ELLIPSE
  5
5CD
100
AcDbEntity
  8
RACCORDO
100
AcDbEllipse
 62
7
  6
CONTINUOUS
 10
-18.215405764
 20
21.448878401
 30
0.0
 11
-0.3827005045
 21
0.9239207481
 31
0.0
 40
0.9999553905
 41
-0.3926833098
 42
0.3926833097
  0
ELLIPSE
  5
5CE
100
AcDbEntity
  8
RACCORDO
100
AcDbEllipse
 62
7
  6
CONTINUOUS
 10
20.9998542018
 20
-23.4536815182
 30
0.0
 11
0.0043630601
 21
0.2886504061
 31
0.0
 40
0.8660006717
 41
-1.5533438649
 42
0.0130891803
  0
ELLIPSE
  5
5CF
100
AcDbEntity
  8
RACCORDO
100
AcDbEllipse
 62
7
  6
CONTINUOUS
 10
-19.8001457982
 20
-23.4536815182
 30
0.0
 11
0.0043630601
 21
0.2886504061
 31
0.0
 40
0.8660006717
 41
-1.5533438649
 42
0.0130891803
  0
ELLIPSE
  5
5D0
100
AcDbEntity
  8
RACCORDO
100
AcDbEllipse
 62
7
  6
CONTINUOUS
 10
19.499873241
 20
-23.4536815182
 30
0.0
 11
-0.0043630601
 21
0.2886504061
 31
0.0
 40
0.8660006717
 41
-0.0130891803
 42
1.5533438649
  0
ELLIPSE
  5
5D1
100
AcDbEntity
  8
RACCORDO
100
AcDbEllipse
 62
7
  6
CONTINUOUS
 10
-22.041826715
 20
-21.8336107458
 30
0.0
 11
-0.3535803156
 21
-0.3535803156
 31
-0.0
 40
0.9999238505
 41
-0.7853600872
 42
0.7853600872
  0
ELLIPSE
  5
5D2
100
AcDbEntity
  8
RACCORDO
100
AcDbEllipse
 62
7
  6
CONTINUOUS
 10
-22.041826715
 20
21.9488974402
 30
0.0
 11
0.3535803156
 21
-0.3535803156
 31
0.0
 40
0.9999238505
 41
2.3562325664
 42
3.9269527408
  0
ELLIPSE
  5
5D3
100
AcDbEntity
  8
RACCORDO
100
AcDbEllipse
 62
7
  6
CONTINUOUS
 10
21.7415541578
 20
21.9488974402
 30
0.0
 11
0.3535803156
 21
0.3535803156
 31
0.0
 40
0.9999238505
 41
-0.7853600872
 42
0.7853600872
  0
ELLIPSE
  5
5D4
100
AcDbEntity
  8
RACCORDO
100
AcDbEllipse
 62
7
  6
CONTINUOUS
 10
21.7415541578
 20
-21.8336107458
 30
0.0
 11
-0.3535803156
 21
0.3535803156
 31
-0.0
 40
0.9999238505
 41
2.3562325664
 42
3.9269527408
  0
ELLIPSE
  5
5D5
100
AcDbEntity
  8
RACCORDO
100
AcDbEllipse
 62
7
  6
CONTINUOUS
 10
2.6998542018
 20
-23.4536815182
 30
0.0
 11
0.0043630601
 21
0.2886504061
 31
0.0
 40
0.8660006717
 41
-1.5533438649
 42
0.0130891803
  0
ELLIPSE
  5
5D6
100
AcDbEntity
  8
RACCORDO
100
AcDbEllipse
 62
7
  6
CONTINUOUS
 10
1.199873241
 20
-23.4536815182
 30
0.0
 11
-0.0043630601
 21
0.2886504061
 31
0.0
 40
0.8660006717
 41
-0.0130891803
 42
1.5533438649
  0
ELLIPSE
  5
5D7
100
AcDbEntity
  8
RACCORDO
100
AcDbEllipse
 62
7
  6
CONTINUOUS
 10
-21.300126759
 20
-23.4536815182
 30
0.0
 11
-0.0043630601
 21
0.2886504061
 31
0.0
 40
0.8660006717
 41
-0.0130891803
 42
1.5533438649
  0
ELLIPSE
  5
5D8
100
AcDbEntity
  8
RACCORDO
100
AcDbEllipse
 62
7
  6
CONTINUOUS
 10
-21.300126759
 20
23.5689682126
 30
0.0
 11
0.0043630601
 21
0.2886504061
 31
0.0
 40
0.8660006717
 41
-4.6949365185
 42
-3.1285034733
  0
ELLIPSE
  5
5D9
100
AcDbEntity
  8
RACCORDO
100
AcDbEllipse
 62
7
  6
CONTINUOUS
 10
-1.5001457982
 20
-23.4536815182
 30
0.0
 11
0.0043630601
 21
0.2886504061
 31
0.0
 40
0.8660006717
 41
-1.5533438649
 42
0.0130891803
  0
ELLIPSE
  5
5DA
100
AcDbEntity
  8
RACCORDO
100
AcDbEllipse
 62
7
  6
CONTINUOUS
 10
-19.8001457982
 20
23.5689682126
 30
0.0
 11
-0.0043630601
 21
0.2886504061
 31
0.0
 40
0.8660006717
 41
-3.1546818339
 42
-1.5882487887
  0
ELLIPSE
  5
5DB
100
AcDbEntity
  8
RACCORDO
100
AcDbEllipse
 62
7
  6
CONTINUOUS
 10
-19.2571487702
 20
1.7146253732
 30
0.0
 11
0.2
 21
0.0
 31
0.0
 40
0.0174550649
 41
0.0174532925
 42
1.5707963268
  0
ELLIPSE
  5
5DC
100
AcDbEntity
  8
RACCORDO
100
AcDbEllipse
 62
7
  6
CONTINUOUS
 10
-19.2571487702
 20
-1.5993386788
 30
0.0
 11
0.2
 21
0.0
 31
0.0
 40
0.0174550649
 41
-1.5707963268
 42
-0.0174532925
  0
ELLIPSE
  5
5DD
100
AcDbEntity
  8
RACCORDO
100
AcDbEllipse
 62
7
  6
CONTINUOUS
 10
18.956876213
 20
-1.5993386788
 30
0.0
 11
0.2
 21
0.0
 31
0.0
 40
0.0174550649
 41
-3.1241393611
 42
-1.5707963268
  0
ELLIPSE
  5
5DE
100
AcDbEntity
  8
RACCORDO
100
AcDbEllipse
 62
7
  6
CONTINUOUS
 10
-3.000126759
 20
23.5689682126
 30
0.0
 11
0.0043630601
 21
0.2886504061
 31
0.0
 40
0.8660006717
 41
-4.6949365185
 42
-3.1285034733
  0
ELLIPSE
  5
5DF
100
AcDbEntity
  8
RACCORDO
100
AcDbEllipse
 62
7
  6
CONTINUOUS
 10
18.956876213
 20
1.7146253732
 30
0.0
 11
0.2
 21
0.0
 31
0.0
 40
0.0174550649
 41
1.5707963268
 42
3.1241393611
  0
ELLIPSE
  5
5E0
100
AcDbEntity
  8
RACCORDO
100
AcDbEllipse
 62
7
  6
CONTINUOUS
 10
-1.5001457982
 20
23.5689682126
 30
0.0
 11
-0.0043630601
 21
0.2886504061
 31
0.0
 40
0.8660006717
 41
-3.1546818339
 42
-1.5882487887
  0
ELLIPSE
  5
5E1
100
AcDbEntity
  8
RACCORDO
100
AcDbEllipse
 62
7
  6
CONTINUOUS
 10
1.199873241
 20
23.5689682126
 30
0.0
 11
0.0043630601
 21
0.2886504061
 31
0.0
 40
0.8660006717
 41
-4.6949365185
 42
-3.1285034733
  0
ENDSEC
  0
SECTION
  2
OBJECTS
  0
DICTIONARY
  5
C
100
AcDbDictionary
280
0
281
1
  3
ACAD_GROUP
350
D
  3
ACAD_MLINESTYLE
350
17
  3
ACAD_LAYOUT
350
1A
  3
ACAD_PLOTSETTINGS
350
19
  3
ACAD_PLOTSTYLENAME
350
E
  0
DICTIONARY
  5
D
102
{ACAD_REACTORS
330
C
102
}
100
AcDbDictionary
280
0
281
1
  0
ACDBDICTIONARYWDFLT
  5
E
102
{ACAD_REACTORS
330
C
102
}
100
AcDbDictionary
281
1
  3
Normal
350
F
100
AcDbDictionaryWithDefault
340
F
  0
DICTIONARY
  5
17
102
{ACAD_REACTORS
330
C
102
}
100
AcDbDictionary
280
0
281
1
  3
Standard
350
18
  0
DICTIONARY
  5
19
102
{ACAD_REACTORS
330
C
102
}
100
AcDbDictionary
281
1
  0
DICTIONARY
  5
1A
102
{ACAD_REACTORS
330
C
102
}
100
AcDbDictionary
281
1
  3
Model
350
5E2
  3
Layout1
350
5E3
  0
ACDBPLACEHOLDER
  5
F
102
{ACAD_REACTORS
330
E
102
}
  0
MLINESTYLE
  5
18
102
{ACAD_REACTORS
330
17
102
}
100
AcDbMlineStyle
  2
STANDARD
 70
0
  3

 62
256
 51
90.0
 52
90.0
 71
2
 49
0.5
 62
256
  6
BYLAYER
 49
-0.5
 62
256
  6
BYLAYER
  0
LAYOUT
  5
5E2
102
{ACAD_REACTORS
330
1A
102
}
100
AcDbPlotSettings
  1

  2
none_device
  4
ISO_A4_(297.00_x_210.00_MM)
  6

 40
0.0
 41
0.0
 42
0.0
 43
0.0
 44
297.0
 45
210.0
 46
0.0
 47
0.0
 48
0.0
 49
0.0
140
0.0
141
0.0
142
1.0
143
1.0
 70
1024
 72
1
 73
0
 74
0
  7

 75
0
147
1.0
148
0.0
149
0.0
100
AcDbLayout
  1
Model
 70
0
 71
0
 10
0.0
 20
0.0
 11
297.0
 21
210.0
 12
0.0
 22
0.0
 32
0.0
 14
0.0
 24
0.0
 34
0.0
 15
0.0
 25
0.0
 35
0.0
146
0.0
 13
0.0
 23
0.0
 33
0.0
 16
1.0
 26
0.0
 36
0.0
 17
0.0
 27
1.0
 37
0.0
 76
0
330
216
345
0
346
0
  0
LAYOUT
  5
5E3
102
{ACAD_REACTORS
330
1A
102
}
100
AcDbPlotSettings
  1

  2
none_device
  4
ISO_A4_(297.00_x_210.00_MM)
  6

 40
0.0
 41
0.0
 42
0.0
 43
0.0
 44
297.0
 45
210.0
 46
0.0
 47
0.0
 48
0.0
 49
0.0
140
0.0
141
0.0
142
1.0
143
1.0
 70
0
 72
1
 73
0
 74
0
  7

 75
0
147
1.0
148
0.0
149
0.0
100
AcDbLayout
  1
Layout1
 70
0
 71
1
 10
0.0
 20
0.0
 11
297.0
 21
210.0
 12
0.0
 22
0.0
 32
0.0
 14
0.0
 24
0.0
 34
0.0
 15
0.0
 25
0.0
 35
0.0
146
0.0
 13
0.0
 23
0.0
 33
0.0
 16
1.0
 26
0.0
 36
0.0
 17
0.0
 27
1.0
 37
0.0
 76
0
330
217
345
0
346
0
  0
ENDSEC
  0
EOF
