  0
SECTION
  2
HEADER
  9
$ACADVER
  1
AC1015
  9
$DWGCODEPAGE
  3
ANSI_1252
  9
$EXTMAX
 10
297.0
 20
210.0
 30
0.0
  9
$EXTMIN
 10
0.0
 20
0.0
 30
0.0
  9
$LIMMIN
 10
0.0
 20
0.0
  9
$LIMMAX
 10
297.0
 20
210.0
  9
$VIEWCTR
 10
148.5
 20
105.0
  9
$VIEWSIZE
 40
210.0
  9
$CLAYER
  8
0
  9
$LTSCALE
 40
16.335
  9
$CELTYPE
  6
BYLAYER
  9
$DIMSCALE
 40
1.0
  9
$DIMASZ
 40
3.0
  9
$DIMEXO
 40
1.85625
  9
$DIMDLI
 40
11.286
  9
$DIMEXE
 40
5.346
  9
$DIMCEN
 40
2.673
  9
$DIMLFAC
 40
1.0
  9
$DIMBLK
  1
_FILLED
  9
$DIMTXT
 40
3.0
  9
$DIMTOL
 70
1
  9
$DIMLIM
 70
0
  9
$DIMTFAC
 40
1.0
  9
$DIMTP
 40
0.01
  9
$DIMTM
 40
0.01
  9
$PDMODE
 70
3
  9
$PDSIZE
 40
3.0
  9
$HANDSEED
  5
603
  9
$TILEMODE
 70
1
  9
$MEASUREMENT
 70
1
  9
$INSUNITS
 70
4
  0
ENDSEC
  0
SECTION
  2
CLASSES
  0
CLASS
  1
ACDBDICTIONARYWDFLT
  2
AcDbDictionaryWithDefault
  3
AutoCAD 2000
 90
0
280
0
281
0
  0
CLASS
  1
ACDBPLACEHOLDER
  2
AcDbPlaceHolder
  3
AutoCAD 2000
 90
0
280
0
281
0
  0
CLASS
  1
LAYOUT
  2
AcDbLayout
  3
AutoCAD 2000
 90
0
280
0
281
0
  0
ENDSEC
  0
SECTION
  2
TABLES
  0
TABLE
  2
VPORT
  5
8
100
AcDbSymbolTable
 70
2
  0
VPORT
  5
1F4
100
AcDbSymbolTableRecord
100
AcDbViewportTableRecord
  2
*ACTIVE
 70
0
 10
0.0
 20
0.0
 11
1.0
 21
1.0
 12
148.5
 22
105.0
 13
0.0
 23
0.0
 14
1.0
 24
1.0
 15
0.0
 25
0.0
 16
0.0
 26
0.0
 36
1.0
 17
0.0
 27
0.0
 37
0.0
 40
210.0
 41
1.4142857143
 42
50.0
 43
0.0
 44
0.0
 50
0.0
 51
0.0
 71
0
 72
100
 73
1
 74
1
 75
0
 76
0
 77
0
 78
0
  0
ENDTAB
  0
TABLE
  2
LTYPE
  5
5
100
AcDbSymbolTable
 70
6
  0
LTYPE
  5
14
100
AcDbSymbolTableRecord
100
AcDbLinetypeTableRecord
  2
BYBLOCK
 70
0
  3

 72
65
 73
0
 40
0.0
  0
LTYPE
  5
15
100
AcDbSymbolTableRecord
100
AcDbLinetypeTableRecord
  2
BYLAYER
 70
0
  3

 72
65
 73
0
 40
0.0
  0
LTYPE
  5
16
100
AcDbSymbolTableRecord
100
AcDbLinetypeTableRecord
  2
CONTINUOUS
 70
64
  3
Solid line
 72
65
 73
0
 40
0.0
  0
LTYPE
  5
1F5
100
AcDbSymbolTableRecord
100
AcDbLinetypeTableRecord
  2
CENTER
 70
64
  3
____ _ ____ _ ____ _ ____ _ ____ _ ____ _ ____
 72
65
 73
4
 40
0.6
 49
0.375
 74
0
 49
-0.075
 74
0
 49
0.075
 74
0
 49
-0.075
 74
0
  0
LTYPE
  5
1F6
100
AcDbSymbolTableRecord
100
AcDbLinetypeTableRecord
  2
HIDDEN
 70
64
  3
- - - - - - - - - - - - - - - - - - - -
 72
65
 73
2
 40
0.2
 49
0.1
 74
0
 49
-0.1
 74
0
  0
LTYPE
  5
1F7
100
AcDbSymbolTableRecord
100
AcDbLinetypeTableRecord
  2
PHANTOM
 70
64
  3
_____ _ _ _____ _ _ _____ _ _ _____
 72
65
 73
6
 40
0.8
 49
0.45
 74
0
 49
-0.05
 74
0
 49
0.1
 74
0
 49
-0.05
 74
0
 49
0.1
 74
0
 49
-0.05
 74
0
  0
LTYPE
  5
1F8
100
AcDbSymbolTableRecord
100
AcDbLinetypeTableRecord
  2
DOT
 70
64
  3
. . . . . . . . . . . . . . . . . . . .
 72
65
 73
2
 40
0.2
 49
0.1
 74
0
 49
-0.1
 74
0
  0
LTYPE
  5
1F9
100
AcDbSymbolTableRecord
100
AcDbLinetypeTableRecord
  2
DASHED
 70
64
  3
- - - - - - - - - - - - - - - - - - - -
 72
65
 73
2
 40
0.2
 49
0.1
 74
0
 49
-0.1
 74
0
  0
ENDTAB
  0
TABLE
  2
LAYER
  5
2
100
AcDbSymbolTable
 70
36
  0
LAYER
  5
10
100
AcDbSymbolTableRecord
100
AcDbLayerTableRecord
  2
0
 70
0
 62
7
  6
CONTINUOUS
370
-3
390
F
  0
LAYER
  5
1FA
100
AcDbSymbolTableRecord
100
AcDbLayerTableRecord
  2
DEFAULT_1
 70
0
 62
7
  6
CENTER
370
-3
390
F
  0
LAYER
  5
1FB
100
AcDbSymbolTableRecord
100
AcDbLayerTableRecord
  2
DEFAULT_2
 70
0
 62
7
  6
HIDDEN
370
-3
390
F
  0
LAYER
  5
1FC
100
AcDbSymbolTableRecord
100
AcDbLayerTableRecord
  2
DEFAULT_3
 70
0
 62
7
  6
PHANTOM
370
-3
390
F
  0
LAYER
  5
1FD
100
AcDbSymbolTableRecord
100
AcDbLayerTableRecord
  2
ASSI
 70
0
 62
7
  6
CONTINUOUS
370
-3
390
F
  0
LAYER
  5
1FE
100
AcDbSymbolTableRecord
100
AcDbLayerTableRecord
  2
COLOR9
 70
0
 62
7
  6
CONTINUOUS
370
-3
390
F
  0
LAYER
  5
1FF
100
AcDbSymbolTableRecord
100
AcDbLayerTableRecord
  2
COORDINATE
 70
0
 62
7
  6
CONTINUOUS
370
-3
390
F
  0
LAYER
  5
200
100
AcDbSymbolTableRecord
100
AcDbLayerTableRecord
  2
COORD_ORIGINE
 70
0
 62
7
  6
CONTINUOUS
370
-3
390
F
  0
LAYER
  5
201
100
AcDbSymbolTableRecord
100
AcDbLayerTableRecord
  2
CURVE
 70
0
 62
7
  6
CONTINUOUS
370
-3
390
F
  0
LAYER
  5
202
100
AcDbSymbolTableRecord
100
AcDbLayerTableRecord
  2
DRAFT
 70
0
 62
7
  6
CONTINUOUS
370
-3
390
F
  0
LAYER
  5
203
100
AcDbSymbolTableRecord
100
AcDbLayerTableRecord
  2
IGS_SIMBOLO
 70
0
 62
7
  6
CONTINUOUS
370
-3
390
F
  0
LAYER
  5
204
100
AcDbSymbolTableRecord
100
AcDbLayerTableRecord
  2
PIANI
 70
0
 62
7
  6
CONTINUOUS
370
-3
390
F
  0
LAYER
  5
205
100
AcDbSymbolTableRecord
100
AcDbLayerTableRecord
  2
PIANI_ORIGINE
 70
0
 62
7
  6
CONTINUOUS
370
-3
390
F
  0
LAYER
  5
206
100
AcDbSymbolTableRecord
100
AcDbLayerTableRecord
  2
PIANI_RIFERIMENTO
 70
0
 62
7
  6
CONTINUOUS
370
-3
390
F
  0
LAYER
  5
207
100
AcDbSymbolTableRecord
100
AcDbLayerTableRecord
  2
RACCORDO
 70
0
 62
7
  6
CONTINUOUS
370
-3
390
F
  0
LAYER
  5
208
100
AcDbSymbolTableRecord
100
AcDbLayerTableRecord
  2
SMUSSO
 70
0
 62
7
  6
CONTINUOUS
370
-3
390
F
  0
LAYER
  5
209
100
AcDbSymbolTableRecord
100
AcDbLayerTableRecord
  2
SNAPLINE
 70
0
 62
7
  6
CONTINUOUS
370
-3
390
F
  0
LAYER
  5
20A
100
AcDbSymbolTableRecord
100
AcDbLayerTableRecord
  2
SUPERFICI
 70
0
 62
7
  6
CONTINUOUS
370
-3
390
F
  0
LAYER
  5
20B
100
AcDbSymbolTableRecord
100
AcDbLayerTableRecord
  2
TRASH
 70
0
 62
7
  6
CONTINUOUS
370
-3
390
F
  0
LAYER
  5
20C
100
AcDbSymbolTableRecord
100
AcDbLayerTableRecord
  2
XSEC_DATUMS
 70
0
 62
7
  6
CONTINUOUS
370
-3
390
F
  0
ENDTAB
  0
TABLE
  2
STYLE
  5
3
100
AcDbSymbolTable
 70
1
  0
STYLE
  5
11
100
AcDbSymbolTableRecord
100
AcDbTextStyleTableRecord
  2
STANDARD
 70
0
 40
0.0
 41
0.8
 50
0.0
 71
0
 42
0.2
  3
txt
  4

  0
STYLE
  5
20D
100
AcDbSymbolTableRecord
100
AcDbTextStyleTableRecord
  2
TEXTSTYLE_1
 70
0
 40
0.0
 41
0.8
 50
0.0
 71
0
 42
0.2
  3
gdt
  4

  0
ENDTAB
  0
TABLE
  2
VIEW
  5
6
100
AcDbSymbolTable
 70
0
  0
ENDTAB
  0
TABLE
  2
UCS
  5
7
100
AcDbSymbolTable
 70
0
  0
ENDTAB
  0
TABLE
  2
APPID
  5
9
100
AcDbSymbolTable
 70
1
  0
APPID
  5
20E
100
AcDbSymbolTableRecord
100
AcDbRegAppTableRecord
  2
ACAD
 70
0
  0
ENDTAB
  0
TABLE
  2
BLOCK_RECORD
  5
1
100
AcDbSymbolTable
 70
0
  0
BLOCK_RECORD
  5
20F
100
AcDbSymbolTableRecord
100
AcDbBlockTableRecord
  2
*Model_Space
  0
BLOCK_RECORD
  5
210
100
AcDbSymbolTableRecord
100
AcDbBlockTableRecord
  2
*Paper_Space
  0
ENDTAB
  0
TABLE
  2
DIMSTYLE
  5
A
100
AcDbSymbolTable
 70
1
100
AcDbDimStyleTable
 71
0
  0
DIMSTYLE
105
211
100
AcDbSymbolTableRecord
100
AcDbDimStyleTableRecord
  2
STANDARD
 70
0
  3

  4

 40
1.0
 41
3.0
 42
0.0625
 43
0.38
 44
0.18
 45
0.0
 46
0.0
 47
0.01
 48
0.01
140
3.0
141
0.09
142
0.0
143
25.4
144
1.0
145
0.0
146
1.0
147
0.09
 71
1.0
 72
0.0
 73
0
 74
0
 75
0
 76
0
 77
1
 78
8
170
0
171
2
172
0
173
0
174
0
175
0
176
0
177
0
178
0
270
2
271
2
272
2
273
2
274
2
275
0
280
0
281
0
282
0
283
1
284
8
285
0
286
0
287
3
288
0
340
11
  0
ENDTAB
  0
ENDSEC
  0
SECTION
  2
BLOCKS
  0
BLOCK
  5
20
100
AcDbEntity
  8
0
100
AcDbBlockBegin
  2
*Model_Space
 70
0
 10
0.0
 20
0.0
 30
0.0
  3
*Model_Space
  1

  0
ENDBLK
  5
21
100
AcDbEntity
  8
0
100
AcDbBlockEnd
  0
BLOCK
  5
1C
100
AcDbEntity
  8
0
100
AcDbBlockBegin
  2
*Paper_Space
 70
0
 10
0.0
 20
0.0
 30
0.0
  3
*Paper_Space
  1

  0
ENDBLK
  5
1D
100
AcDbEntity
  8
0
100
AcDbBlockEnd
  0
ENDSEC
  0
SECTION
  2
ENTITIES
  0
LINE
  5
212
100
AcDbEntity
  8
DRAFT
100
AcDbLine
 62
7
  6
CONTINUOUS
 10
-22.4015550552
 20
-20.8671693036
 11
-22.4265979559
 21
-5.1801778659
  0
LINE
  5
213
100
AcDbEntity
  8
RACCORDO
100
AcDbLine
 62
7
  6
CONTINUOUS
 10
-22.4015550552
 20
21.7460993625
 11
-22.4015550552
 21
20.9328306964
  0
LINE
  5
214
100
AcDbEntity
  8
RACCORDO
100
AcDbLine
 62
7
  6
CONTINUOUS
 10
-22.4015550552
 20
-20.8671693036
 11
-22.4015550552
 21
-21.6804379697
  0
LINE
  5
215
100
AcDbEntity
  8
DRAFT
100
AcDbLine
 62
7
  6
CONTINUOUS
 10
-20.8951927175
 20
-20.8671693036
 11
-20.9202356182
 21
-5.0482073772
  0
LINE
  5
216
100
AcDbEntity
  8
DRAFT
100
AcDbLine
 62
7
  6
CONTINUOUS
 10
-22.4015550552
 20
20.9328306964
 11
-22.4265979559
 21
5.2458392587
  0
LINE
  5
217
100
AcDbEntity
  8
DRAFT
100
AcDbLine
 62
7
  6
CONTINUOUS
 10
-20.8951927175
 20
20.9328306964
 11
-20.9202356182
 21
5.11386877
  0
LINE
  5
218
100
AcDbEntity
  8
RACCORDO
100
AcDbLine
 62
7
  6
CONTINUOUS
 10
0.5479967675
 20
-22.180817581
 11
21.7615319962
 21
-22.180817581
  0
LINE
  5
219
100
AcDbEntity
  8
RACCORDO
100
AcDbLine
 62
7
  6
CONTINUOUS
 10
-0.6884680038
 20
-22.180817581
 11
-21.9020032325
 21
-22.180817581
  0
LINE
  5
21A
100
AcDbEntity
  8
DRAFT
100
AcDbLine
 62
7
  6
CONTINUOUS
 10
22.2610838188
 20
-20.8671693036
 11
20.7547214812
 21
-20.8671693036
  0
LINE
  5
21B
100
AcDbEntity
  8
DRAFT
100
AcDbLine
 62
7
  6
CONTINUOUS
 10
1.5548072825
 20
-20.8671693036
 11
0.0484449448
 21
-20.8671693036
  0
LINE
  5
21C
100
AcDbEntity
  8
DRAFT
100
AcDbLine
 62
7
  6
CONTINUOUS
 10
-0.1889161812
 20
-20.8671693036
 11
-1.6952785188
 21
-20.8671693036
  0
LINE
  5
21D
100
AcDbEntity
  8
DRAFT
100
AcDbLine
 62
7
  6
CONTINUOUS
 10
-20.8951927175
 20
-20.8671693036
 11
-22.4015550552
 21
-20.8671693036
  0
LINE
  5
21E
100
AcDbEntity
  8
DRAFT
100
AcDbLine
 62
7
  6
CONTINUOUS
 10
-20.8951927175
 20
-20.6085522779
 11
-20.8951927175
 21
-20.8671693036
  0
LINE
  5
21F
100
AcDbEntity
  8
DRAFT
100
AcDbLine
 62
7
  6
CONTINUOUS
 10
-20.8951927175
 20
20.6742136706
 11
-20.8951927175
 21
20.9328306964
  0
LINE
  5
220
100
AcDbEntity
  8
RACCORDO
100
AcDbLine
 62
7
  6
CONTINUOUS
 10
-19.9952356182
 20
-2.5194204763
 11
-19.9952356182
 21
-1.0171693036
  0
LINE
  5
221
100
AcDbEntity
  8
RACCORDO
100
AcDbLine
 62
7
  6
CONTINUOUS
 10
-19.9952356182
 20
1.0828306964
 11
-19.9952356182
 21
2.5850818691
  0
LINE
  5
222
100
AcDbEntity
  8
0
100
AcDbLine
 62
7
  6
CONTINUOUS
 10
-19.5952356182
 20
1.0828306964
 11
-19.5952356182
 21
-1.0171693036
  0
LINE
  5
223
100
AcDbEntity
  8
RACCORDO
100
AcDbLine
 62
7
  6
CONTINUOUS
 10
-18.7952356182
 20
2.0414820648
 11
-18.7952356182
 21
1.3828306964
  0
LINE
  5
224
100
AcDbEntity
  8
RACCORDO
100
AcDbLine
 62
7
  6
CONTINUOUS
 10
-18.7952356182
 20
-1.3171693036
 11
-18.7952356182
 21
-1.9758206721
  0
LWPOLYLINE
  5
225
100
AcDbEntity
  8
RACCORDO
100
AcDbPolyline
 62
7
  6
CONTINUOUS
 90
16
 70
0
 10
-14.9330101733
 20
17.2134312488
 10
-14.9303169702
 20
17.2220022384
 10
-14.9273562732
 20
17.2326433895
 10
-14.9248937161
 20
17.2428901041
 10
-14.9228845501
 20
17.2526857559
 10
-14.9212406474
 20
17.2622330158
 10
-14.9199452839
 20
17.2713831732
 10
-14.9190026765
 20
17.2796099818
 10
-14.9183457426
 20
17.2867017994
 10
-14.91786169
 20
17.2931108895
 10
-14.917477386
 20
17.2992929553
 10
-14.9171655414
 20
17.3053098536
 10
-14.9169021223
 20
17.3112986895
 10
-14.9166599876
 20
17.3177068685
 10
-14.9164324879
 20
17.3246699554
 10
-14.9160163651
 20
17.3403366481
  0
LINE
  5
226
100
AcDbEntity
  8
DRAFT
100
AcDbLine
 62
7
  6
CONTINUOUS
 10
-22.3467363791
 20
-4.9334017289
 11
-22.4265979559
 21
-5.1801778659
  0
LINE
  5
227
100
AcDbEntity
  8
RACCORDO
100
AcDbLine
 62
7
  6
CONTINUOUS
 10
-14.9715493582
 20
17.097703139
 11
-14.9332188665
 21
17.2127881274
  0
LINE
  5
228
100
AcDbEntity
  8
DRAFT
100
AcDbLine
 62
7
  6
CONTINUOUS
 10
20.7547214812
 20
-20.6085522779
 11
1.5548072825
 21
-20.6085522779
  0
LINE
  5
229
100
AcDbEntity
  8
DRAFT
100
AcDbLine
 62
7
  6
CONTINUOUS
 10
-1.6952785188
 20
-20.6085522779
 11
-20.8951927175
 21
-20.6085522779
  0
LINE
  5
22A
100
AcDbEntity
  8
RACCORDO
100
AcDbLine
 62
7
  6
CONTINUOUS
 10
-15.2259325692
 20
-20.5998896293
 11
-15.2145386672
 21
-20.5998896293
  0
LINE
  5
22B
100
AcDbEntity
  8
RACCORDO
100
AcDbLine
 62
7
  6
CONTINUOUS
 10
15.0854613328
 20
-20.5998896293
 11
15.0740674308
 21
-20.5998896293
  0
LINE
  5
22C
100
AcDbEntity
  8
RACCORDO
100
AcDbLine
 62
7
  6
CONTINUOUS
 10
-7.4259325692
 20
-20.5998896293
 11
-7.4145386672
 21
-20.5998896293
  0
LINE
  5
22D
100
AcDbEntity
  8
RACCORDO
100
AcDbLine
 62
7
  6
CONTINUOUS
 10
7.2854613328
 20
-20.5998896293
 11
7.2740674308
 21
-20.5998896293
  0
LINE
  5
22E
100
AcDbEntity
  8
RACCORDO
100
AcDbLine
 62
253
  6
CONTINUOUS
 10
-1.6948179611
 20
-20.5931470924
 11
-0.1884556234
 21
-20.5931470924
  0
LINE
  5
22F
100
AcDbEntity
  8
RACCORDO
100
AcDbLine
 62
253
  6
CONTINUOUS
 10
0.047984387
 20
-20.5931470924
 11
1.5543467247
 21
-20.5931470924
  0
LINE
  5
230
100
AcDbEntity
  8
DRAFT
100
AcDbLine
 62
7
  6
CONTINUOUS
 10
1.5927002591
 20
-20.494780902
 11
6.9740674308
 21
-20.494780902
  0
LINE
  5
231
100
AcDbEntity
  8
DRAFT
100
AcDbLine
 62
7
  6
CONTINUOUS
 10
-1.7331714954
 20
-20.494780902
 11
-7.1145386672
 21
-20.494780902
  0
LINE
  5
232
100
AcDbEntity
  8
DRAFT
100
AcDbLine
 62
7
  6
CONTINUOUS
 10
7.5854613328
 20
-20.494780902
 11
14.7740674308
 21
-20.494780902
  0
LINE
  5
233
100
AcDbEntity
  8
DRAFT
100
AcDbLine
 62
7
  6
CONTINUOUS
 10
-7.7259325692
 20
-20.494780902
 11
-14.9145386672
 21
-20.494780902
  0
LINE
  5
234
100
AcDbEntity
  8
DRAFT
100
AcDbLine
 62
7
  6
CONTINUOUS
 10
15.3854613328
 20
-20.494780902
 11
20.7168285046
 21
-20.494780902
  0
LINE
  5
235
100
AcDbEntity
  8
DRAFT
100
AcDbLine
 62
7
  6
CONTINUOUS
 10
-15.5259325692
 20
-20.494780902
 11
-20.8572997409
 21
-20.494780902
  0
LINE
  5
236
100
AcDbEntity
  8
DRAFT
100
AcDbLine
 62
7
  6
CONTINUOUS
 10
1.5927701984
 20
-20.4671693036
 11
6.9740674308
 21
-20.4671693036
  0
LINE
  5
237
100
AcDbEntity
  8
DRAFT
100
AcDbLine
 62
7
  6
CONTINUOUS
 10
-1.7332414347
 20
-20.4671693036
 11
-7.1145386672
 21
-20.4671693036
  0
LINE
  5
238
100
AcDbEntity
  8
DRAFT
100
AcDbLine
 62
7
  6
CONTINUOUS
 10
7.5854613328
 20
-20.4671693036
 11
14.7740674308
 21
-20.4671693036
  0
LINE
  5
239
100
AcDbEntity
  8
DRAFT
100
AcDbLine
 62
7
  6
CONTINUOUS
 10
-7.7259325692
 20
-20.4671693036
 11
-14.9145386672
 21
-20.4671693036
  0
LINE
  5
23A
100
AcDbEntity
  8
DRAFT
100
AcDbLine
 62
7
  6
CONTINUOUS
 10
15.3854613328
 20
-20.4671693036
 11
20.7167585653
 21
-20.4671693036
  0
LINE
  5
23B
100
AcDbEntity
  8
DRAFT
100
AcDbLine
 62
7
  6
CONTINUOUS
 10
-15.5259325692
 20
-20.4671693036
 11
-20.8572298016
 21
-20.4671693036
  0
LINE
  5
23C
100
AcDbEntity
  8
RACCORDO
100
AcDbLine
 62
253
  6
CONTINUOUS
 10
-1.7005554271
 20
-20.1608856902
 11
-0.1941930894
 21
-20.1608856902
  0
LINE
  5
23D
100
AcDbEntity
  8
RACCORDO
100
AcDbLine
 62
253
  6
CONTINUOUS
 10
0.053721853
 20
-20.1608856902
 11
1.5600841907
 21
-20.1608856902
  0
LINE
  5
23E
100
AcDbEntity
  8
RACCORDO
100
AcDbLine
 62
253
  6
CONTINUOUS
 10
-1.7246186324
 20
-19.9178048219
 11
-0.2182562947
 21
-19.9178048219
  0
LINE
  5
23F
100
AcDbEntity
  8
RACCORDO
100
AcDbLine
 62
253
  6
CONTINUOUS
 10
0.0835603993
 20
-19.8594636796
 11
1.589922737
 21
-19.8594636796
  0
LINE
  5
240
100
AcDbEntity
  8
RACCORDO
100
AcDbLine
 62
253
  6
CONTINUOUS
 10
0.0905645544
 20
-19.4755325234
 11
1.596926892
 21
-19.4755325234
  0
LINE
  5
241
100
AcDbEntity
  8
RACCORDO
100
AcDbLine
 62
253
  6
CONTINUOUS
 10
-1.7386693155
 20
-19.1387152677
 11
-0.2323069778
 21
-19.1387152677
  0
LINE
  5
242
100
AcDbEntity
  8
RACCORDO
100
AcDbLine
 62
7
  6
CONTINUOUS
 10
-14.933218866
 20
-17.1471267363
 11
-14.9715493582
 21
-17.0320417462
  0
LINE
  5
243
100
AcDbEntity
  8
DRAFT
100
AcDbLine
 62
7
  6
CONTINUOUS
 10
-22.4265979559
 20
5.2458392587
 11
-22.3467363791
 21
4.9990631217
  0
LINE
  5
244
100
AcDbEntity
  8
0
100
AcDbLine
 62
7
  6
CONTINUOUS
 10
-17.3218326182
 20
-2.0969813036
 11
-17.3218326182
 21
-2.6187743036
  0
LINE
  5
245
100
AcDbEntity
  8
0
100
AcDbLine
 62
7
  6
CONTINUOUS
 10
-17.3216836182
 20
2.0898636964
 11
-17.3216836182
 21
1.5850916964
  0
LINE
  5
246
100
AcDbEntity
  8
0
100
AcDbLine
 62
7
  6
CONTINUOUS
 10
-17.3216836182
 20
0.4853266964
 11
-17.3216836182
 21
-0.0309363036
  0
LINE
  5
247
100
AcDbEntity
  8
0
100
AcDbLine
 62
7
  6
CONTINUOUS
 10
-17.3216836182
 20
-1.0690113036
 11
-17.3216836182
 21
-1.5903723036
  0
LINE
  5
248
100
AcDbEntity
  8
0
100
AcDbLine
 62
7
  6
CONTINUOUS
 10
-17.3216836182
 20
-2.8124133036
 11
-17.3216836182
 21
-3.3338493036
  0
LINE
  5
249
100
AcDbEntity
  8
0
100
AcDbLine
 62
7
  6
CONTINUOUS
 10
-17.3216836182
 20
-4.3013953036
 11
-17.3216836182
 21
-4.8682233036
  0
LINE
  5
24A
100
AcDbEntity
  8
DRAFT
100
AcDbLine
 62
7
  6
CONTINUOUS
 10
-20.9202356182
 20
-5.0482073772
 11
-20.8403513891
 21
-4.8013612436
  0
LINE
  5
24B
100
AcDbEntity
  8
RACCORDO
100
AcDbLine
 62
7
  6
CONTINUOUS
 10
-18.7691120215
 20
2.5850818691
 11
-18.7909483367
 21
2.5414059124
  0
LINE
  5
24C
100
AcDbEntity
  8
RACCORDO
100
AcDbLine
 62
253
  6
CONTINUOUS
 10
6.9740674308
 20
-17.441651587
 11
7.5854613328
 21
-17.4416515896
  0
LINE
  5
24D
100
AcDbEntity
  8
RACCORDO
100
AcDbLine
 62
253
  6
CONTINUOUS
 10
-7.1145386672
 20
-17.4416515896
 11
-7.7259325692
 21
-17.441651587
  0
LINE
  5
24E
100
AcDbEntity
  8
RACCORDO
100
AcDbLine
 62
253
  6
CONTINUOUS
 10
14.7740674308
 20
-17.441651587
 11
15.3854613328
 21
-17.4416515896
  0
LINE
  5
24F
100
AcDbEntity
  8
RACCORDO
100
AcDbLine
 62
253
  6
CONTINUOUS
 10
-14.9145386672
 20
-17.4416515896
 11
-15.5259325692
 21
-17.441651587
  0
LINE
  5
250
100
AcDbEntity
  8
RACCORDO
100
AcDbLine
 62
7
  6
CONTINUOUS
 10
-18.7691120215
 20
-2.5194204763
 11
-18.7909483367
 21
-2.4757445196
  0
LINE
  5
251
100
AcDbEntity
  8
DRAFT
100
AcDbLine
 62
7
  6
CONTINUOUS
 10
-20.9202356182
 20
5.11386877
 11
-20.8403513891
 21
4.8670226363
  0
LWPOLYLINE
  5
252
100
AcDbEntity
  8
RACCORDO
100
AcDbPolyline
 62
7
  6
CONTINUOUS
 90
15
 70
0
 10
-15.5241047204
 20
17.326883127
 10
-15.5238533986
 20
17.3189233591
 10
-15.5235834394
 20
17.3116530343
 10
-15.5232749062
 20
17.3046675099
 10
-15.5229053435
 20
17.2977630181
 10
-15.5224521436
 20
17.2908839961
 10
-15.5218592418
 20
17.2836476525
 10
-15.5210303595
 20
17.2755644275
 10
-15.5199024798
 20
17.266742658
 10
-15.5184826368
 20
17.2576681756
 10
-15.5167703082
 20
17.2485078819
 10
-15.5146868638
 20
17.2390006091
 10
-15.5121701342
 20
17.2290806549
 10
-15.5092237284
 20
17.2189386953
 10
-15.5074642204
 20
17.2134407865
  0
LWPOLYLINE
  5
253
100
AcDbEntity
  8
RACCORDO
100
AcDbPolyline
 62
7
  6
CONTINUOUS
 90
15
 70
0
 10
-14.9163652705
 20
-17.2612644167
 10
-14.9166163319
 20
-17.2533060151
 10
-14.9168859741
 20
-17.2460368242
 10
-14.9171940183
 20
-17.2390539153
 10
-14.9175627269
 20
-17.2321551691
 10
-14.9180145768
 20
-17.2252843791
 10
-14.9186055228
 20
-17.2180572898
 10
-14.9194315554
 20
-17.2099846881
 10
-14.920555502
 20
-17.2011749002
 10
-14.9219706987
 20
-17.1921113019
 10
-14.9236782075
 20
-17.1829587561
 10
-14.9257564973
 20
-17.1734574944
 10
-14.928267138
 20
-17.16354437
 10
-14.9312062264
 20
-17.153410778
 10
-14.9330081485
 20
-17.1477759681
  0
LINE
  5
254
100
AcDbEntity
  8
RACCORDO
100
AcDbLine
 62
7
  6
CONTINUOUS
 10
-14.9159068069
 20
-17.2795596679
 11
-14.9163652705
 21
-17.2612644167
  0
LINE
  5
255
100
AcDbEntity
  8
RACCORDO
100
AcDbLine
 62
7
  6
CONTINUOUS
 10
-15.5245636119
 20
17.3451832618
 11
-15.5241047204
 21
17.326883127
  0
LINE
  5
256
100
AcDbEntity
  8
RACCORDO
100
AcDbLine
 62
7
  6
CONTINUOUS
 10
-15.5249713326
 20
17.3670416355
 11
-15.5245636119
 21
17.3451832618
  0
LINE
  5
257
100
AcDbEntity
  8
RACCORDO
100
AcDbLine
 62
7
  6
CONTINUOUS
 10
-14.9154994344
 20
-17.3014094609
 11
-14.9159068069
 21
-17.2795596679
  0
LINE
  5
258
100
AcDbEntity
  8
RACCORDO
100
AcDbLine
 62
7
  6
CONTINUOUS
 10
-15.5254756511
 20
17.4069217684
 11
-15.5249713326
 21
17.3670416355
  0
LINE
  5
259
100
AcDbEntity
  8
RACCORDO
100
AcDbLine
 62
7
  6
CONTINUOUS
 10
-14.9149955084
 20
-17.3412682607
 11
-14.9154994344
 21
-17.3014094609
  0
LINE
  5
25A
100
AcDbEntity
  8
RACCORDO
100
AcDbLine
 62
7
  6
CONTINUOUS
 10
-15.5258134832
 20
17.4548259462
 11
-15.5254756511
 21
17.4069217684
  0
LINE
  5
25B
100
AcDbEntity
  8
RACCORDO
100
AcDbLine
 62
7
  6
CONTINUOUS
 10
-14.9146578608
 20
-17.3891412328
 11
-14.9149955084
 21
-17.3412682607
  0
LINE
  5
25C
100
AcDbEntity
  8
0
100
AcDbLine
 62
7
  6
CONTINUOUS
 10
-16.2096027908
 20
3.8106591029
 11
-16.2096027908
 21
3.5124596484
  0
LINE
  5
25D
100
AcDbEntity
  8
0
100
AcDbLine
 62
7
  6
CONTINUOUS
 10
-15.8002065067
 20
3.5297615151
 11
-15.8002065067
 21
3.8095343878
  0
LINE
  5
25E
100
AcDbEntity
  8
0
100
AcDbLine
 62
7
  6
CONTINUOUS
 10
-15.7071356182
 20
2.0674446964
 11
-15.7071356182
 21
1.5678646964
  0
LINE
  5
25F
100
AcDbEntity
  8
RACCORDO
100
AcDbLine
 62
7
  6
CONTINUOUS
 10
-15.5259325692
 20
20.6498248176
 11
-15.5258134832
 21
17.4548259462
  0
LINE
  5
260
100
AcDbEntity
  8
0
100
AcDbLine
 62
7
  6
CONTINUOUS
 10
-15.3209836182
 20
1.4611296964
 11
-15.3209836182
 21
2.1717246964
  0
LINE
  5
261
100
AcDbEntity
  8
RACCORDO
100
AcDbLine
 62
253
  6
CONTINUOUS
 10
-15.2259325692
 20
20.665551022
 11
-15.2259325692
 21
17.5073129797
  0
LINE
  5
262
100
AcDbEntity
  8
RACCORDO
100
AcDbLine
 62
253
  6
CONTINUOUS
 10
-15.2259325692
 20
-17.441651587
 11
-15.2259325692
 21
-20.5998896293
  0
LINE
  5
263
100
AcDbEntity
  8
RACCORDO
100
AcDbLine
 62
253
  6
CONTINUOUS
 10
-15.2145386672
 20
-20.5998896293
 11
-15.2145386672
 21
-17.441651587
  0
LINE
  5
264
100
AcDbEntity
  8
RACCORDO
100
AcDbLine
 62
253
  6
CONTINUOUS
 10
-15.2145386672
 20
17.5073129797
 11
-15.2145386672
 21
20.665551022
  0
LINE
  5
265
100
AcDbEntity
  8
RACCORDO
100
AcDbLine
 62
7
  6
CONTINUOUS
 10
-14.9145386672
 20
-20.5841634249
 11
-14.9146578608
 21
-17.3891412328
  0
LINE
  5
266
100
AcDbEntity
  8
0
100
AcDbLine
 62
7
  6
CONTINUOUS
 10
-14.8219480874
 20
3.0100681736
 11
-14.8219480874
 21
3.5297615151
  0
LINE
  5
267
100
AcDbEntity
  8
0
100
AcDbLine
 62
7
  6
CONTINUOUS
 10
-14.8219480874
 20
4.3288153339
 11
-14.8219480874
 21
4.8307194321
  0
LINE
  5
268
100
AcDbEntity
  8
0
100
AcDbLine
 62
7
  6
CONTINUOUS
 10
-14.8219476182
 20
-4.0757583036
 11
-14.8219476182
 21
-3.6159283036
  0
LINE
  5
269
100
AcDbEntity
  8
0
100
AcDbLine
 62
7
  6
CONTINUOUS
 10
-14.8219476182
 20
-2.6187743036
 11
-14.8219476182
 21
-2.0969813036
  0
LINE
  5
26A
100
AcDbEntity
  8
0
100
AcDbLine
 62
7
  6
CONTINUOUS
 10
-14.8219476182
 20
-1.8160843036
 11
-14.8219476182
 21
-1.3168983036
  0
LINE
  5
26B
100
AcDbEntity
  8
0
100
AcDbLine
 62
7
  6
CONTINUOUS
 10
-14.8219476182
 20
-0.5921693036
 11
-14.8219476182
 21
-0.5189873036
  0
LINE
  5
26C
100
AcDbEntity
  8
0
100
AcDbLine
 62
7
  6
CONTINUOUS
 10
-14.8219476182
 20
0.2086276964
 11
-14.8219476182
 21
0.7190796964
  0
LINE
  5
26D
100
AcDbEntity
  8
0
100
AcDbLine
 62
7
  6
CONTINUOUS
 10
-14.8219476182
 20
0.8010156964
 11
-14.8219476182
 21
1.3171466964
  0
LINE
  5
26E
100
AcDbEntity
  8
0
100
AcDbLine
 62
7
  6
CONTINUOUS
 10
-14.8219476182
 20
2.3068966964
 11
-14.8219476182
 21
2.8568446964
  0
LINE
  5
26F
100
AcDbEntity
  8
RACCORDO
100
AcDbLine
 62
7
  6
CONTINUOUS
 10
-15.5258421811
 20
-17.3958307097
 11
-15.5259325692
 21
-20.5841634249
  0
LINE
  5
270
100
AcDbEntity
  8
RACCORDO
100
AcDbLine
 62
7
  6
CONTINUOUS
 10
-14.9146289469
 20
17.4615192133
 11
-14.9145386672
 21
20.6498248176
  0
LINE
  5
271
100
AcDbEntity
  8
RACCORDO
100
AcDbLine
 62
7
  6
CONTINUOUS
 10
-15.5255739766
 20
-17.3520831151
 11
-15.5258421811
 21
-17.3958307097
  0
LINE
  5
272
100
AcDbEntity
  8
RACCORDO
100
AcDbLine
 62
7
  6
CONTINUOUS
 10
-14.9148972166
 20
17.417749627
 11
-14.9146289469
 21
17.4615192133
  0
LINE
  5
273
100
AcDbEntity
  8
RACCORDO
100
AcDbLine
 62
7
  6
CONTINUOUS
 10
-15.5251646762
 20
-17.314438715
 11
-15.5255739766
 21
-17.3520831151
  0
LINE
  5
274
100
AcDbEntity
  8
RACCORDO
100
AcDbLine
 62
7
  6
CONTINUOUS
 10
-14.9153067207
 20
17.3800883305
 11
-14.9148972166
 21
17.417749627
  0
LINE
  5
275
100
AcDbEntity
  8
RACCORDO
100
AcDbLine
 62
7
  6
CONTINUOUS
 10
-15.5248305471
 20
-17.2930823834
 11
-15.5251646762
 21
-17.314438715
  0
LINE
  5
276
100
AcDbEntity
  8
RACCORDO
100
AcDbLine
 62
7
  6
CONTINUOUS
 10
-14.9156410685
 20
17.3587226073
 11
-14.9153067207
 21
17.3800883305
  0
LINE
  5
277
100
AcDbEntity
  8
RACCORDO
100
AcDbLine
 62
7
  6
CONTINUOUS
 10
-14.9160163651
 20
17.3403366481
 11
-14.9156410685
 21
17.3587226073
  0
LINE
  5
278
100
AcDbEntity
  8
RACCORDO
100
AcDbLine
 62
7
  6
CONTINUOUS
 10
-15.52445556
 20
-17.2747048612
 11
-15.5248305471
 21
-17.2930823834
  0
LINE
  5
279
100
AcDbEntity
  8
DRAFT
100
AcDbLine
 62
7
  6
CONTINUOUS
 10
-20.8951927175
 20
-20.6085522779
 11
-20.8572997409
 21
-20.494780902
  0
LINE
  5
27A
100
AcDbEntity
  8
DRAFT
100
AcDbLine
 62
7
  6
CONTINUOUS
 10
-20.8951927175
 20
20.6742136706
 11
-20.8572997409
 21
20.5604422948
  0
LINE
  5
27B
100
AcDbEntity
  8
0
100
AcDbLine
 62
7
  6
CONTINUOUS
 10
-12.3202356182
 20
4.0980425647
 11
-12.3202356182
 21
3.8442908099
  0
LINE
  5
27C
100
AcDbEntity
  8
0
100
AcDbLine
 62
7
  6
CONTINUOUS
 10
-12.3202356182
 20
2.7938128283
 11
-12.3202356182
 21
2.5223260692
  0
LINE
  5
27D
100
AcDbEntity
  8
0
100
AcDbLine
 62
7
  6
CONTINUOUS
 10
-12.3202356182
 20
0.0939493945
 11
-12.3202356182
 21
-0.2648500631
  0
LINE
  5
27E
100
AcDbEntity
  8
0
100
AcDbLine
 62
7
  6
CONTINUOUS
 10
-12.3202356182
 20
-1.2580286691
 11
-12.3202356182
 21
-1.5226945111
  0
LINE
  5
27F
100
AcDbEntity
  8
0
100
AcDbLine
 62
7
  6
CONTINUOUS
 10
-12.3202356182
 20
-1.9783562848
 11
-12.3202356182
 21
-2.2430218885
  0
LINE
  5
280
100
AcDbEntity
  8
0
100
AcDbLine
 62
7
  6
CONTINUOUS
 10
-12.3202356182
 20
-2.7000478933
 11
-12.3202356182
 21
-4.1461597511
  0
LINE
  5
281
100
AcDbEntity
  8
0
100
AcDbLine
 62
7
  6
CONTINUOUS
 10
-12.0842192255
 20
-3.8814939985
 11
-12.0842192255
 21
-2.7000478933
  0
LINE
  5
282
100
AcDbEntity
  8
0
100
AcDbLine
 62
7
  6
CONTINUOUS
 10
-11.4716681324
 20
-2.7750820348
 11
-11.4716681324
 21
-3.8814939985
  0
LINE
  5
283
100
AcDbEntity
  8
0
100
AcDbLine
 62
7
  6
CONTINUOUS
 10
-11.2370159708
 20
-3.8814939985
 11
-11.2370159708
 21
-2.7750820348
  0
LINE
  5
284
100
AcDbEntity
  8
0
100
AcDbLine
 62
7
  6
CONTINUOUS
 10
-10.556251996
 20
-2.6536632011
 11
-10.556251996
 21
-3.8814939985
  0
LWPOLYLINE
  5
285
100
AcDbEntity
  8
RACCORDO
100
AcDbPolyline
 62
7
  6
CONTINUOUS
 90
16
 70
0
 10
-7.1330101733
 20
17.2134312488
 10
-7.1303169702
 20
17.2220022384
 10
-7.1273562732
 20
17.2326433895
 10
-7.1248937161
 20
17.2428901041
 10
-7.1228845501
 20
17.2526857559
 10
-7.1212406474
 20
17.2622330158
 10
-7.1199452839
 20
17.2713831732
 10
-7.1190026765
 20
17.2796099818
 10
-7.1183457426
 20
17.2867017994
 10
-7.11786169
 20
17.2931108895
 10
-7.117477386
 20
17.2992929553
 10
-7.1171655414
 20
17.3053098536
 10
-7.1169021223
 20
17.3112986895
 10
-7.1166599876
 20
17.3177068685
 10
-7.1164324879
 20
17.3246699554
 10
-7.1160163651
 20
17.3403366481
  0
LINE
  5
286
100
AcDbEntity
  8
RACCORDO
100
AcDbLine
 62
7
  6
CONTINUOUS
 10
-7.1715493582
 20
17.097703139
 11
-7.1332188665
 21
17.2127881274
  0
LINE
  5
287
100
AcDbEntity
  8
DRAFT
100
AcDbLine
 62
253
  6
CONTINUOUS
 10
-20.8415828028
 20
-11.1315830045
 11
-0.2425260959
 21
-11.1315830045
  0
LINE
  5
288
100
AcDbEntity
  8
DRAFT
100
AcDbLine
 62
253
  6
CONTINUOUS
 10
0.1020548595
 20
-11.1315830045
 11
20.7011115664
 21
-11.1315830045
  0
LINE
  5
289
100
AcDbEntity
  8
RACCORDO
100
AcDbLine
 62
7
  6
CONTINUOUS
 10
6.8987615021
 20
-10.4171693036
 11
9.9607672616
 21
-10.4171693036
  0
LINE
  5
28A
100
AcDbEntity
  8
RACCORDO
100
AcDbLine
 62
7
  6
CONTINUOUS
 10
-7.0392327384
 20
-10.4171693036
 11
-10.1012384979
 21
-10.4171693036
  0
LINE
  5
28B
100
AcDbEntity
  8
RACCORDO
100
AcDbLine
 62
7
  6
CONTINUOUS
 10
-7.133218866
 20
-17.1471267363
 11
-7.1715493582
 21
-17.0320417462
  0
LINE
  5
28C
100
AcDbEntity
  8
0
100
AcDbLine
 62
7
  6
CONTINUOUS
 10
-10.3202356182
 20
-4.1461597511
 11
-10.3202356182
 21
-2.6536632011
  0
LINE
  5
28D
100
AcDbEntity
  8
0
100
AcDbLine
 62
7
  6
CONTINUOUS
 10
-10.3202356182
 20
-2.2430218885
 11
-10.3202356182
 21
-1.9783562848
  0
LINE
  5
28E
100
AcDbEntity
  8
0
100
AcDbLine
 62
7
  6
CONTINUOUS
 10
-10.3202356182
 20
-1.5226945111
 11
-10.3202356182
 21
-1.2580286691
  0
LINE
  5
28F
100
AcDbEntity
  8
0
100
AcDbLine
 62
7
  6
CONTINUOUS
 10
-10.3202356182
 20
-0.2184652516
 11
-10.3202356182
 21
0.1307841113
  0
LINE
  5
290
100
AcDbEntity
  8
0
100
AcDbLine
 62
7
  6
CONTINUOUS
 10
-10.3202356182
 20
2.5223260692
 11
-10.3202356182
 21
2.7760778239
  0
LINE
  5
291
100
AcDbEntity
  8
0
100
AcDbLine
 62
7
  6
CONTINUOUS
 10
-10.3202356182
 20
3.8265553286
 11
-10.3202356182
 21
4.0980425647
  0
LWPOLYLINE
  5
292
100
AcDbEntity
  8
RACCORDO
100
AcDbPolyline
 62
7
  6
CONTINUOUS
 90
16
 70
0
 10
-15.507462945
 20
-17.1477755485
 10
-15.5102089765
 20
-17.1565246666
 10
-15.513161137
 20
-17.1671606946
 10
-15.5156159874
 20
-17.1774021164
 10
-15.5176174891
 20
-17.1871882318
 10
-15.5192535965
 20
-17.196719027
 10
-15.5205421092
 20
-17.2058491435
 10
-15.5214796571
 20
-17.2140570976
 10
-15.5221330566
 20
-17.2211313964
 10
-15.522614606
 20
-17.2275236841
 10
-15.5229973026
 20
-17.2336927178
 10
-15.5233082203
 20
-17.2397016013
 10
-15.523571053
 20
-17.2456849519
 10
-15.5238127481
 20
-17.252088202
 10
-15.5240399088
 20
-17.259046696
 10
-15.52445556
 20
-17.2747048612
  0
LINE
  5
293
100
AcDbEntity
  8
RACCORDO
100
AcDbLine
 62
7
  6
CONTINUOUS
 10
-15.4689218782
 20
-17.0320417462
 11
-15.5072523698
 21
-17.1471267346
  0
LINE
  5
294
100
AcDbEntity
  8
0
100
AcDbLine
 62
7
  6
CONTINUOUS
 10
-10.7499764047
 20
3.8442908099
 11
-12.3202356182
 21
2.7938128283
  0
LINE
  5
295
100
AcDbEntity
  8
0
100
AcDbLine
 62
7
  6
CONTINUOUS
 10
-11.8918590627
 20
2.7760778239
 11
-10.3202356182
 21
3.8265553286
  0
LINE
  5
296
100
AcDbEntity
  8
DRAFT
100
AcDbLine
 62
253
  6
CONTINUOUS
 10
-20.8418413222
 20
-10.2395432576
 11
-10.1013572247
 21
-10.2395432576
  0
LINE
  5
297
100
AcDbEntity
  8
DRAFT
100
AcDbLine
 62
253
  6
CONTINUOUS
 10
-7.0391140116
 20
-10.2395432576
 11
-0.2422675765
 21
-10.2395432576
  0
LINE
  5
298
100
AcDbEntity
  8
DRAFT
100
AcDbLine
 62
253
  6
CONTINUOUS
 10
0.1017963401
 20
-10.2395432576
 11
6.8986427753
 21
-10.2395432576
  0
LINE
  5
299
100
AcDbEntity
  8
DRAFT
100
AcDbLine
 62
253
  6
CONTINUOUS
 10
9.9608859884
 20
-10.2395432576
 11
20.7013700859
 21
-10.2395432576
  0
LINE
  5
29A
100
AcDbEntity
  8
RACCORDO
100
AcDbLine
 62
7
  6
CONTINUOUS
 10
6.8980386608
 20
-9.5171693036
 11
9.9614901028
 21
-9.5171693036
  0
LINE
  5
29B
100
AcDbEntity
  8
RACCORDO
100
AcDbLine
 62
7
  6
CONTINUOUS
 10
-7.0385098972
 20
-9.5171693036
 11
-10.1019613392
 21
-9.5171693036
  0
LINE
  5
29C
100
AcDbEntity
  8
DRAFT
100
AcDbLine
 62
253
  6
CONTINUOUS
 10
-20.84151337
 20
-9.4405693036
 11
-0.2425955287
 21
-9.4405693036
  0
LINE
  5
29D
100
AcDbEntity
  8
DRAFT
100
AcDbLine
 62
253
  6
CONTINUOUS
 10
0.1021242923
 20
-9.4405693036
 11
20.7010421337
 21
-9.4405693036
  0
LINE
  5
29E
100
AcDbEntity
  8
0
100
AcDbLine
 62
7
  6
CONTINUOUS
 10
-12.3202356182
 20
-0.2648500631
 11
-11.328421124
 21
-1.2580286691
  0
LINE
  5
29F
100
AcDbEntity
  8
0
100
AcDbLine
 62
7
  6
CONTINUOUS
 10
-11.0132778965
 20
-1.2580286691
 11
-11.3325139366
 21
-0.9306072423
  0
LINE
  5
2A0
100
AcDbEntity
  8
0
100
AcDbLine
 62
7
  6
CONTINUOUS
 10
-11.5098673187
 20
-0.7450682351
 11
-12.3202356182
 21
0.0939493945
  0
LINE
  5
2A1
100
AcDbEntity
  8
RACCORDO
100
AcDbLine
 62
7
  6
CONTINUOUS
 10
-15.5072523704
 20
17.2127881291
 11
-15.4689218782
 21
17.097703139
  0
LINE
  5
2A2
100
AcDbEntity
  8
0
100
AcDbLine
 62
7
  6
CONTINUOUS
 10
-6.3659381948
 20
-0.385586662
 11
-6.3441100798
 21
-0.6434313485
  0
LINE
  5
2A3
100
AcDbEntity
  8
0
100
AcDbLine
 62
7
  6
CONTINUOUS
 10
-7.3113679968
 20
3.4943586161
 11
-7.3304675899
 21
3.7385607531
  0
LWPOLYLINE
  5
2A4
100
AcDbEntity
  8
RACCORDO
100
AcDbPolyline
 62
7
  6
CONTINUOUS
 90
15
 70
0
 10
-7.7241047204
 20
17.326883127
 10
-7.7238533986
 20
17.3189233591
 10
-7.7235834394
 20
17.3116530343
 10
-7.7232749062
 20
17.3046675099
 10
-7.7229053435
 20
17.2977630181
 10
-7.7224521436
 20
17.2908839961
 10
-7.7218592418
 20
17.2836476525
 10
-7.7210303595
 20
17.2755644275
 10
-7.7199024798
 20
17.266742658
 10
-7.7184826368
 20
17.2576681756
 10
-7.7167703082
 20
17.2485078819
 10
-7.7146868638
 20
17.2390006091
 10
-7.7121701342
 20
17.2290806549
 10
-7.7092237284
 20
17.2189386953
 10
-7.7074642204
 20
17.2134407865
  0
LWPOLYLINE
  5
2A5
100
AcDbEntity
  8
RACCORDO
100
AcDbPolyline
 62
7
  6
CONTINUOUS
 90
15
 70
0
 10
-7.1163652705
 20
-17.2612644167
 10
-7.1166163319
 20
-17.2533060151
 10
-7.1168859741
 20
-17.2460368242
 10
-7.1171940183
 20
-17.2390539153
 10
-7.1175627269
 20
-17.2321551691
 10
-7.1180145768
 20
-17.2252843791
 10
-7.1186055228
 20
-17.2180572898
 10
-7.1194315554
 20
-17.2099846881
 10
-7.120555502
 20
-17.2011749002
 10
-7.1219706987
 20
-17.1921113019
 10
-7.1236782075
 20
-17.1829587561
 10
-7.1257564973
 20
-17.1734574944
 10
-7.128267138
 20
-17.16354437
 10
-7.1312062264
 20
-17.153410778
 10
-7.1330081485
 20
-17.1477759681
  0
LINE
  5
2A6
100
AcDbEntity
  8
RACCORDO
100
AcDbLine
 62
7
  6
CONTINUOUS
 10
-7.1159068069
 20
-17.2795596679
 11
-7.1163652705
 21
-17.2612644167
  0
LINE
  5
2A7
100
AcDbEntity
  8
RACCORDO
100
AcDbLine
 62
7
  6
CONTINUOUS
 10
-7.7245636119
 20
17.3451832618
 11
-7.7241047204
 21
17.326883127
  0
LINE
  5
2A8
100
AcDbEntity
  8
RACCORDO
100
AcDbLine
 62
7
  6
CONTINUOUS
 10
-7.7249713326
 20
17.3670416355
 11
-7.7245636119
 21
17.3451832618
  0
LINE
  5
2A9
100
AcDbEntity
  8
RACCORDO
100
AcDbLine
 62
7
  6
CONTINUOUS
 10
-7.1154994344
 20
-17.3014094609
 11
-7.1159068069
 21
-17.2795596679
  0
LINE
  5
2AA
100
AcDbEntity
  8
RACCORDO
100
AcDbLine
 62
7
  6
CONTINUOUS
 10
-7.7254756511
 20
17.4069217684
 11
-7.7249713326
 21
17.3670416355
  0
LINE
  5
2AB
100
AcDbEntity
  8
RACCORDO
100
AcDbLine
 62
7
  6
CONTINUOUS
 10
-7.1149955084
 20
-17.3412682607
 11
-7.1154994344
 21
-17.3014094609
  0
LINE
  5
2AC
100
AcDbEntity
  8
RACCORDO
100
AcDbLine
 62
7
  6
CONTINUOUS
 10
-7.7258134832
 20
17.4548259462
 11
-7.7254756511
 21
17.4069217684
  0
LINE
  5
2AD
100
AcDbEntity
  8
RACCORDO
100
AcDbLine
 62
7
  6
CONTINUOUS
 10
-7.1146578608
 20
-17.3891412328
 11
-7.1149955084
 21
-17.3412682607
  0
LINE
  5
2AE
100
AcDbEntity
  8
0
100
AcDbLine
 62
7
  6
CONTINUOUS
 10
-7.7929505191
 20
0.5884924701
 11
-7.7929505191
 21
-0.4060506055
  0
LINE
  5
2AF
100
AcDbEntity
  8
RACCORDO
100
AcDbLine
 62
7
  6
CONTINUOUS
 10
-7.7259325692
 20
20.6498248176
 11
-7.7258134832
 21
17.4548259462
  0
LINE
  5
2B0
100
AcDbEntity
  8
0
100
AcDbLine
 62
7
  6
CONTINUOUS
 10
-7.5582983575
 20
-0.2095977494
 11
-7.5582983575
 21
0.5884924701
  0
LINE
  5
2B1
100
AcDbEntity
  8
RACCORDO
100
AcDbLine
 62
253
  6
CONTINUOUS
 10
-7.4259325692
 20
20.665551022
 11
-7.4259325692
 21
17.5073129797
  0
LINE
  5
2B2
100
AcDbEntity
  8
RACCORDO
100
AcDbLine
 62
253
  6
CONTINUOUS
 10
-7.4259325692
 20
-17.441651587
 11
-7.4259325692
 21
-20.5998896293
  0
LINE
  5
2B3
100
AcDbEntity
  8
RACCORDO
100
AcDbLine
 62
253
  6
CONTINUOUS
 10
-7.4145386672
 20
-20.5998896293
 11
-7.4145386672
 21
-17.441651587
  0
LINE
  5
2B4
100
AcDbEntity
  8
RACCORDO
100
AcDbLine
 62
253
  6
CONTINUOUS
 10
-7.4145386672
 20
17.5073129797
 11
-7.4145386672
 21
20.665551022
  0
LINE
  5
2B5
100
AcDbEntity
  8
RACCORDO
100
AcDbLine
 62
7
  6
CONTINUOUS
 10
-7.1145386672
 20
-20.5841634249
 11
-7.1146578608
 21
-17.3891412328
  0
LINE
  5
2B6
100
AcDbEntity
  8
RACCORDO
100
AcDbLine
 62
7
  6
CONTINUOUS
 10
-7.7258421811
 20
-17.3958307097
 11
-7.7259325692
 21
-20.5841634249
  0
LINE
  5
2B7
100
AcDbEntity
  8
RACCORDO
100
AcDbLine
 62
7
  6
CONTINUOUS
 10
-7.1146289469
 20
17.4615192133
 11
-7.1145386672
 21
20.6498248176
  0
LINE
  5
2B8
100
AcDbEntity
  8
RACCORDO
100
AcDbLine
 62
7
  6
CONTINUOUS
 10
-7.7255739766
 20
-17.3520831151
 11
-7.7258421811
 21
-17.3958307097
  0
LINE
  5
2B9
100
AcDbEntity
  8
RACCORDO
100
AcDbLine
 62
7
  6
CONTINUOUS
 10
-7.1148972166
 20
17.417749627
 11
-7.1146289469
 21
17.4615192133
  0
LINE
  5
2BA
100
AcDbEntity
  8
RACCORDO
100
AcDbLine
 62
7
  6
CONTINUOUS
 10
-7.7251646762
 20
-17.314438715
 11
-7.7255739766
 21
-17.3520831151
  0
LINE
  5
2BB
100
AcDbEntity
  8
RACCORDO
100
AcDbLine
 62
7
  6
CONTINUOUS
 10
-7.1153067207
 20
17.3800883305
 11
-7.1148972166
 21
17.417749627
  0
LINE
  5
2BC
100
AcDbEntity
  8
RACCORDO
100
AcDbLine
 62
7
  6
CONTINUOUS
 10
-7.7248305471
 20
-17.2930823834
 11
-7.7251646762
 21
-17.314438715
  0
LINE
  5
2BD
100
AcDbEntity
  8
RACCORDO
100
AcDbLine
 62
7
  6
CONTINUOUS
 10
-7.1156410685
 20
17.3587226073
 11
-7.1153067207
 21
17.3800883305
  0
LINE
  5
2BE
100
AcDbEntity
  8
RACCORDO
100
AcDbLine
 62
7
  6
CONTINUOUS
 10
-7.1160163651
 20
17.3403366481
 11
-7.1156410685
 21
17.3587226073
  0
LINE
  5
2BF
100
AcDbEntity
  8
RACCORDO
100
AcDbLine
 62
7
  6
CONTINUOUS
 10
-7.72445556
 20
-17.2747048612
 11
-7.7248305471
 21
-17.2930823834
  0
LINE
  5
2C0
100
AcDbEntity
  8
0
100
AcDbLine
 62
7
  6
CONTINUOUS
 10
-7.2499764047
 20
-3.7362006882
 11
-7.2240555368
 21
-3.4838132391
  0
LINE
  5
2C1
100
AcDbEntity
  8
0
100
AcDbLine
 62
7
  6
CONTINUOUS
 10
-6.7656653605
 20
-0.5997749993
 11
-6.7356517397
 21
-0.3692156503
  0
LINE
  5
2C2
100
AcDbEntity
  8
DRAFT
100
AcDbLine
 62
7
  6
CONTINUOUS
 10
-1.6952785188
 20
20.6742136706
 11
-1.7331714954
 21
20.5604422948
  0
LINE
  5
2C3
100
AcDbEntity
  8
0
100
AcDbLine
 62
7
  6
CONTINUOUS
 10
-10.3202356182
 20
0.1307841113
 11
-11.5098673187
 21
-0.7450682351
  0
LINE
  5
2C4
100
AcDbEntity
  8
0
100
AcDbLine
 62
7
  6
CONTINUOUS
 10
-14.8219476182
 20
2.8568446964
 11
-17.3216836182
 21
2.0898636964
  0
LINE
  5
2C5
100
AcDbEntity
  8
0
100
AcDbLine
 62
7
  6
CONTINUOUS
 10
-17.3216836182
 20
-3.3338493036
 11
-15.6010376182
 21
-3.8249003036
  0
LINE
  5
2C6
100
AcDbEntity
  8
0
100
AcDbLine
 62
7
  6
CONTINUOUS
 10
-14.8219476182
 20
-3.6159283036
 11
-17.3216836182
 21
-2.8124133036
  0
LINE
  5
2C7
100
AcDbEntity
  8
0
100
AcDbLine
 62
7
  6
CONTINUOUS
 10
-17.3216836182
 20
-0.0309363036
 11
-15.9338226182
 21
-0.5527293036
  0
LINE
  5
2C8
100
AcDbEntity
  8
DRAFT
100
AcDbLine
 62
7
  6
CONTINUOUS
 10
-1.6952785188
 20
-20.6085522779
 11
-1.7331714954
 21
-20.494780902
  0
LINE
  5
2C9
100
AcDbEntity
  8
0
100
AcDbLine
 62
7
  6
CONTINUOUS
 10
-6.056251996
 20
-2.4606209228
 11
-6.056251996
 21
-3.44152127
  0
LINE
  5
2CA
100
AcDbEntity
  8
0
100
AcDbLine
 62
7
  6
CONTINUOUS
 10
-5.8202356182
 20
-3.7825854028
 11
-5.8202356182
 21
-2.4606209228
  0
LINE
  5
2CB
100
AcDbEntity
  8
0
100
AcDbLine
 62
7
  6
CONTINUOUS
 10
-11.3325139366
 20
-0.9306072423
 11
-10.3202356182
 21
-0.2184652516
  0
LINE
  5
2CC
100
AcDbEntity
  8
0
100
AcDbLine
 62
7
  6
CONTINUOUS
 10
-16.4542276182
 20
-1.2042953036
 11
-14.8219476182
 21
-0.5921693036
  0
LINE
  5
2CD
100
AcDbEntity
  8
0
100
AcDbLine
 62
7
  6
CONTINUOUS
 10
-15.9338226182
 20
-0.5527293036
 11
-17.3216836182
 21
-1.0690113036
  0
LINE
  5
2CE
100
AcDbEntity
  8
0
100
AcDbLine
 62
7
  6
CONTINUOUS
 10
15.1805123818
 20
-2.1060633036
 11
14.6814763818
 21
-2.2412353036
  0
LINE
  5
2CF
100
AcDbEntity
  8
0
100
AcDbLine
 62
7
  6
CONTINUOUS
 10
16.4943483818
 20
-1.7620123036
 11
15.5666643818
 21
-2.0017833036
  0
LINE
  5
2D0
100
AcDbEntity
  8
DRAFT
100
AcDbLine
 62
7
  6
CONTINUOUS
 10
20.7797643818
 20
-5.9671693036
 11
22.2861267195
 21
-5.9671693036
  0
LINE
  5
2D1
100
AcDbEntity
  8
DRAFT
100
AcDbLine
 62
7
  6
CONTINUOUS
 10
-20.9202356182
 20
-5.9671693036
 11
-22.4265979559
 21
-5.9671693036
  0
LINE
  5
2D2
100
AcDbEntity
  8
0
100
AcDbLine
 62
7
  6
CONTINUOUS
 10
15.8483312417
 20
-4.285910676
 11
15.8631024996
 21
-4.285910676
  0
LINE
  5
2D3
100
AcDbEntity
  8
0
100
AcDbLine
 62
7
  6
CONTINUOUS
 10
-12.3202356182
 20
-4.1461597511
 11
-10.3202356182
 21
-4.1461597511
  0
LINE
  5
2D4
100
AcDbEntity
  8
0
100
AcDbLine
 62
7
  6
CONTINUOUS
 10
10.1797643818
 20
-4.0323811719
 11
12.1797643818
 21
-4.0323811719
  0
LINE
  5
2D5
100
AcDbEntity
  8
0
100
AcDbLine
 62
7
  6
CONTINUOUS
 10
-14.8219476182
 20
-0.5189873036
 11
-16.4474236182
 21
0.1014236964
  0
LINE
  5
2D6
100
AcDbEntity
  8
RACCORDO
100
AcDbLine
 62
7
  6
CONTINUOUS
 10
-1.7005554271
 20
-20.1608856902
 11
-1.7246186324
 21
-19.9178048219
  0
LINE
  5
2D7
100
AcDbEntity
  8
RACCORDO
100
AcDbLine
 62
7
  6
CONTINUOUS
 10
-0.1941930894
 20
-20.1608856902
 11
-0.2182562947
 21
-19.9178048219
  0
LINE
  5
2D8
100
AcDbEntity
  8
RACCORDO
100
AcDbLine
 62
7
  6
CONTINUOUS
 10
-2.6952356182
 20
-1.9758206721
 11
-2.6952356182
 21
-1.3171693036
  0
LINE
  5
2D9
100
AcDbEntity
  8
RACCORDO
100
AcDbLine
 62
7
  6
CONTINUOUS
 10
-2.6952356182
 20
1.3828306964
 11
-2.6952356182
 21
2.0414820648
  0
LINE
  5
2DA
100
AcDbEntity
  8
RACCORDO
100
AcDbLine
 62
7
  6
CONTINUOUS
 10
-1.7005554271
 20
20.2265470829
 11
-1.7303939733
 21
19.9251250724
  0
LINE
  5
2DB
100
AcDbEntity
  8
RACCORDO
100
AcDbLine
 62
7
  6
CONTINUOUS
 10
-0.1941930894
 20
20.2265470829
 11
-0.2240316356
 21
19.9251250724
  0
LWPOLYLINE
  5
2DC
100
AcDbEntity
  8
RACCORDO
100
AcDbPolyline
 62
7
  6
CONTINUOUS
 90
16
 70
0
 10
-7.707462945
 20
-17.1477755485
 10
-7.7102089765
 20
-17.1565246666
 10
-7.713161137
 20
-17.1671606946
 10
-7.7156159874
 20
-17.1774021164
 10
-7.7176174891
 20
-17.1871882318
 10
-7.7192535965
 20
-17.196719027
 10
-7.7205421092
 20
-17.2058491435
 10
-7.7214796571
 20
-17.2140570976
 10
-7.7221330566
 20
-17.2211313964
 10
-7.722614606
 20
-17.2275236841
 10
-7.7229973026
 20
-17.2336927178
 10
-7.7233082203
 20
-17.2397016013
 10
-7.723571053
 20
-17.2456849519
 10
-7.7238127481
 20
-17.252088202
 10
-7.7240399088
 20
-17.259046696
 10
-7.72445556
 20
-17.2747048612
  0
LINE
  5
2DD
100
AcDbEntity
  8
RACCORDO
100
AcDbLine
 62
7
  6
CONTINUOUS
 10
-7.707252432
 20
-17.1471269212
 11
-7.7074671966
 21
-17.1477742011
  0
LINE
  5
2DE
100
AcDbEntity
  8
0
100
AcDbLine
 62
7
  6
CONTINUOUS
 10
14.6814763818
 20
-0.6534183036
 11
17.1812123818
 21
-0.4196653036
  0
LINE
  5
2DF
100
AcDbEntity
  8
DRAFT
100
AcDbLine
 62
7
  6
CONTINUOUS
 10
-22.3467363791
 20
-4.9334017289
 11
-20.8403513891
 21
-4.8013612436
  0
LINE
  5
2E0
100
AcDbEntity
  8
DRAFT
100
AcDbLine
 62
7
  6
CONTINUOUS
 10
-20.9202356182
 20
-5.0482073772
 11
-22.4265979559
 21
-5.1801778659
  0
LINE
  5
2E1
100
AcDbEntity
  8
0
100
AcDbLine
 62
7
  6
CONTINUOUS
 10
-10.556251996
 20
-3.8814939985
 11
-11.2370159708
 21
-3.8814939985
  0
LINE
  5
2E2
100
AcDbEntity
  8
0
100
AcDbLine
 62
7
  6
CONTINUOUS
 10
-11.4716681324
 20
-3.8814939985
 11
-12.0842192255
 21
-3.8814939985
  0
LINE
  5
2E3
100
AcDbEntity
  8
0
100
AcDbLine
 62
7
  6
CONTINUOUS
 10
12.1797643818
 20
-3.7786294171
 11
10.6095051684
 21
-3.7786294171
  0
LINE
  5
2E4
100
AcDbEntity
  8
0
100
AcDbLine
 62
7
  6
CONTINUOUS
 10
14.6814768511
 20
-3.4641001224
 11
15.6597352704
 21
-3.4641001224
  0
LINE
  5
2E5
100
AcDbEntity
  8
0
100
AcDbLine
 62
7
  6
CONTINUOUS
 10
16.0691315544
 20
-3.4467982556
 11
16.7553577068
 21
-3.4467982556
  0
LINE
  5
2E6
100
AcDbEntity
  8
0
100
AcDbLine
 62
7
  6
CONTINUOUS
 10
17.1520072201
 20
-2.9444067808
 11
14.6814768511
 21
-2.9444067808
  0
LINE
  5
2E7
100
AcDbEntity
  8
0
100
AcDbLine
 62
7
  6
CONTINUOUS
 10
-11.2370159708
 20
-2.7750820348
 11
-11.4716681324
 21
-2.7750820348
  0
LINE
  5
2E8
100
AcDbEntity
  8
0
100
AcDbLine
 62
7
  6
CONTINUOUS
 10
10.1797643818
 20
-2.7104164312
 11
11.7513878264
 21
-2.7104164312
  0
LINE
  5
2E9
100
AcDbEntity
  8
0
100
AcDbLine
 62
7
  6
CONTINUOUS
 10
-12.0842192255
 20
-2.7000478933
 11
-12.3202356182
 21
-2.7000478933
  0
LINE
  5
2EA
100
AcDbEntity
  8
0
100
AcDbLine
 62
7
  6
CONTINUOUS
 10
-10.3202356182
 20
-2.6536632011
 11
-10.556251996
 21
-2.6536632011
  0
LINE
  5
2EB
100
AcDbEntity
  8
0
100
AcDbLine
 62
7
  6
CONTINUOUS
 10
-17.3218326182
 20
-2.6187743036
 11
-14.8219476182
 21
-2.6187743036
  0
LINE
  5
2EC
100
AcDbEntity
  8
DRAFT
100
AcDbLine
 62
7
  6
CONTINUOUS
 10
1.3547643818
 20
-2.5194204763
 11
2.5808879785
 21
-2.5194204763
  0
LINE
  5
2ED
100
AcDbEntity
  8
DRAFT
100
AcDbLine
 62
7
  6
CONTINUOUS
 10
-1.4952356182
 20
-2.5194204763
 11
-2.7213592149
 21
-2.5194204763
  0
LINE
  5
2EE
100
AcDbEntity
  8
DRAFT
100
AcDbLine
 62
7
  6
CONTINUOUS
 10
18.6286407851
 20
-2.5194204763
 11
19.8547643818
 21
-2.5194204763
  0
LINE
  5
2EF
100
AcDbEntity
  8
DRAFT
100
AcDbLine
 62
7
  6
CONTINUOUS
 10
-18.7691120215
 20
-2.5194204763
 11
-19.9952356182
 21
-2.5194204763
  0
LINE
  5
2F0
100
AcDbEntity
  8
RACCORDO
100
AcDbLine
 62
253
  6
CONTINUOUS
 10
-19.9952356182
 20
-2.4757445196
 11
-18.7909483367
 21
-2.4757445196
  0
LINE
  5
2F1
100
AcDbEntity
  8
RACCORDO
100
AcDbLine
 62
253
  6
CONTINUOUS
 10
-2.6995228997
 20
-2.4757445196
 11
-1.4952356182
 21
-2.4757445196
  0
LINE
  5
2F2
100
AcDbEntity
  8
RACCORDO
100
AcDbLine
 62
253
  6
CONTINUOUS
 10
1.3547643818
 20
-2.4757445196
 11
2.5590516633
 21
-2.4757445196
  0
LINE
  5
2F3
100
AcDbEntity
  8
RACCORDO
100
AcDbLine
 62
253
  6
CONTINUOUS
 10
18.6504771003
 20
-2.4757445196
 11
19.8547643818
 21
-2.4757445196
  0
LINE
  5
2F4
100
AcDbEntity
  8
0
100
AcDbLine
 62
7
  6
CONTINUOUS
 10
-5.8202356182
 20
-2.4606209228
 11
-6.056251996
 21
-2.4606209228
  0
LINE
  5
2F5
100
AcDbEntity
  8
0
100
AcDbLine
 62
7
  6
CONTINUOUS
 10
12.1797643818
 20
-2.4566646764
 11
10.1797643818
 21
-2.4566646764
  0
LINE
  5
2F6
100
AcDbEntity
  8
0
100
AcDbLine
 62
7
  6
CONTINUOUS
 10
-12.3202356182
 20
-2.2430218885
 11
-10.3202356182
 21
-2.2430218885
  0
LINE
  5
2F7
100
AcDbEntity
  8
0
100
AcDbLine
 62
7
  6
CONTINUOUS
 10
-14.8219476182
 20
-2.0969813036
 11
-17.3218326182
 21
-2.0969813036
  0
LINE
  5
2F8
100
AcDbEntity
  8
0
100
AcDbLine
 62
7
  6
CONTINUOUS
 10
-10.3202356182
 20
-1.9783562848
 11
-12.3202356182
 21
-1.9783562848
  0
LINE
  5
2F9
100
AcDbEntity
  8
RACCORDO
100
AcDbLine
 62
253
  6
CONTINUOUS
 10
-19.9952356182
 20
-1.9758206721
 11
-18.7952356182
 21
-1.9758206721
  0
LINE
  5
2FA
100
AcDbEntity
  8
RACCORDO
100
AcDbLine
 62
253
  6
CONTINUOUS
 10
-2.6952356182
 20
-1.9758206721
 11
-1.4952356182
 21
-1.9758206721
  0
LINE
  5
2FB
100
AcDbEntity
  8
RACCORDO
100
AcDbLine
 62
253
  6
CONTINUOUS
 10
1.3547643818
 20
-1.9758206721
 11
2.5547643818
 21
-1.9758206721
  0
LINE
  5
2FC
100
AcDbEntity
  8
RACCORDO
100
AcDbLine
 62
253
  6
CONTINUOUS
 10
18.6547643818
 20
-1.9758206721
 11
19.8547643818
 21
-1.9758206721
  0
LINE
  5
2FD
100
AcDbEntity
  8
0
100
AcDbLine
 62
7
  6
CONTINUOUS
 10
-14.8219476182
 20
-1.3168983036
 11
-16.4542276182
 21
-1.2042953036
  0
LINE
  5
2FE
100
AcDbEntity
  8
DRAFT
100
AcDbLine
 62
7
  6
CONTINUOUS
 10
20.7797643818
 20
-5.0482073772
 11
22.2861267195
 21
-5.1801778659
  0
LINE
  5
2FF
100
AcDbEntity
  8
DRAFT
100
AcDbLine
 62
7
  6
CONTINUOUS
 10
20.6998801527
 20
-4.8013612436
 11
22.2062651427
 21
-4.9334017289
  0
LINE
  5
300
100
AcDbEntity
  8
0
100
AcDbLine
 62
7
  6
CONTINUOUS
 10
-17.3216836182
 20
-1.5903723036
 11
-14.8219476182
 21
-1.8160843036
  0
LINE
  5
301
100
AcDbEntity
  8
0
100
AcDbLine
 62
7
  6
CONTINUOUS
 10
-7.7929505191
 20
-0.4060506055
 11
-6.7656653605
 21
-0.5997749993
  0
LINE
  5
302
100
AcDbEntity
  8
0
100
AcDbLine
 62
7
  6
CONTINUOUS
 10
-15.7071356182
 20
1.5678646964
 11
-16.6348196182
 21
1.8276736964
  0
LINE
  5
303
100
AcDbEntity
  8
0
100
AcDbLine
 62
7
  6
CONTINUOUS
 10
-14.8219476182
 20
1.3171466964
 11
-15.3209836182
 21
1.4611296964
  0
LINE
  5
304
100
AcDbEntity
  8
0
100
AcDbLine
 62
7
  6
CONTINUOUS
 10
-17.3216836182
 20
1.5850916964
 11
-14.8219476182
 21
0.8010156964
  0
LINE
  5
305
100
AcDbEntity
  8
RACCORDO
100
AcDbLine
 62
7
  6
CONTINUOUS
 10
-7.7072523704
 20
17.2127881291
 11
-7.707468468
 21
17.2134394405
  0
LINE
  5
306
100
AcDbEntity
  8
RACCORDO
100
AcDbLine
 62
7
  6
CONTINUOUS
 10
-1.6952785188
 20
20.9328306964
 11
-1.6948179611
 21
20.6588084852
  0
LINE
  5
307
100
AcDbEntity
  8
0
100
AcDbLine
 62
7
  6
CONTINUOUS
 10
-1.8952356182
 20
1.0828306964
 11
-1.8952356182
 21
-1.0171693036
  0
LINE
  5
308
100
AcDbEntity
  8
DRAFT
100
AcDbLine
 62
7
  6
CONTINUOUS
 10
-1.6952785188
 20
-20.6085522779
 11
-1.6952785188
 21
-20.8671693036
  0
LINE
  5
309
100
AcDbEntity
  8
DRAFT
100
AcDbLine
 62
7
  6
CONTINUOUS
 10
-1.6952785188
 20
20.6742136706
 11
-1.6952785188
 21
20.9328306964
  0
LINE
  5
30A
100
AcDbEntity
  8
RACCORDO
100
AcDbLine
 62
7
  6
CONTINUOUS
 10
-1.4952356182
 20
2.5850818691
 11
-1.4952356182
 21
1.0828306964
  0
LINE
  5
30B
100
AcDbEntity
  8
RACCORDO
100
AcDbLine
 62
7
  6
CONTINUOUS
 10
-1.4952356182
 20
-2.5194204763
 11
-1.4952356182
 21
-1.0171693036
  0
LINE
  5
30C
100
AcDbEntity
  8
RACCORDO
100
AcDbLine
 62
7
  6
CONTINUOUS
 10
-0.1889161812
 20
21.7460993625
 11
-0.1884556234
 21
20.6588084852
  0
LINE
  5
30D
100
AcDbEntity
  8
RACCORDO
100
AcDbLine
 62
7
  6
CONTINUOUS
 10
0.0484449448
 20
-21.6804379697
 11
0.047984387
 21
-20.5931470924
  0
LINE
  5
30E
100
AcDbEntity
  8
RACCORDO
100
AcDbLine
 62
7
  6
CONTINUOUS
 10
-1.6948179611
 20
-20.5931470924
 11
-1.6952785188
 21
-20.8671693036
  0
LINE
  5
30F
100
AcDbEntity
  8
RACCORDO
100
AcDbLine
 62
7
  6
CONTINUOUS
 10
-0.1889161812
 20
-21.6804379697
 11
-0.1884556234
 21
-20.5931470924
  0
LINE
  5
310
100
AcDbEntity
  8
RACCORDO
100
AcDbLine
 62
7
  6
CONTINUOUS
 10
0.0484449448
 20
21.7460993625
 11
0.047984387
 21
20.6588084852
  0
LINE
  5
311
100
AcDbEntity
  8
RACCORDO
100
AcDbLine
 62
7
  6
CONTINUOUS
 10
-7.6689218782
 20
-17.0320417462
 11
-7.7072523698
 21
-17.1471267346
  0
LINE
  5
312
100
AcDbEntity
  8
RACCORDO
100
AcDbLine
 62
7
  6
CONTINUOUS
 10
-2.7213592149
 20
-2.5194204763
 11
-2.6995228997
 21
-2.4757445196
  0
LINE
  5
313
100
AcDbEntity
  8
0
100
AcDbLine
 62
7
  6
CONTINUOUS
 10
-17.3216836182
 20
-4.8682233036
 11
-14.8219476182
 21
-4.0757583036
  0
LINE
  5
314
100
AcDbEntity
  8
0
100
AcDbLine
 62
7
  6
CONTINUOUS
 10
15.4605663818
 20
3.8905616964
 11
17.1812123818
 21
4.3670566964
  0
LINE
  5
315
100
AcDbEntity
  8
0
100
AcDbLine
 62
7
  6
CONTINUOUS
 10
16.3069523818
 20
-0.0357623036
 11
14.6814763818
 21
-0.1429663036
  0
LINE
  5
316
100
AcDbEntity
  8
0
100
AcDbLine
 62
7
  6
CONTINUOUS
 10
-12.3202356182
 20
-1.5226945111
 11
-10.3202356182
 21
-1.5226945111
  0
LINE
  5
317
100
AcDbEntity
  8
RACCORDO
100
AcDbLine
 62
253
  6
CONTINUOUS
 10
19.8547643818
 20
-1.3171693036
 11
18.6547643818
 21
-1.3171693036
  0
LINE
  5
318
100
AcDbEntity
  8
RACCORDO
100
AcDbLine
 62
253
  6
CONTINUOUS
 10
2.5547643818
 20
-1.3171693036
 11
1.3547643818
 21
-1.3171693036
  0
LINE
  5
319
100
AcDbEntity
  8
RACCORDO
100
AcDbLine
 62
253
  6
CONTINUOUS
 10
-1.4952356182
 20
-1.3171693036
 11
-2.6952356182
 21
-1.3171693036
  0
LINE
  5
31A
100
AcDbEntity
  8
RACCORDO
100
AcDbLine
 62
253
  6
CONTINUOUS
 10
-18.7952356182
 20
-1.3171693036
 11
-19.9952356182
 21
-1.3171693036
  0
LINE
  5
31B
100
AcDbEntity
  8
0
100
AcDbLine
 62
7
  6
CONTINUOUS
 10
-10.3202356182
 20
-1.2580286691
 11
-11.0132778965
 21
-1.2580286691
  0
LINE
  5
31C
100
AcDbEntity
  8
0
100
AcDbLine
 62
7
  6
CONTINUOUS
 10
-11.328421124
 20
-1.2580286691
 11
-12.3202356182
 21
-1.2580286691
  0
LINE
  5
31D
100
AcDbEntity
  8
RACCORDO
100
AcDbLine
 62
7
  6
CONTINUOUS
 10
19.8547643818
 20
-1.0171693036
 11
18.6521463215
 21
-1.0171693036
  0
LINE
  5
31E
100
AcDbEntity
  8
RACCORDO
100
AcDbLine
 62
7
  6
CONTINUOUS
 10
2.5573824422
 20
-1.0171693036
 11
1.3547643818
 21
-1.0171693036
  0
LINE
  5
31F
100
AcDbEntity
  8
RACCORDO
100
AcDbLine
 62
7
  6
CONTINUOUS
 10
-1.4952356182
 20
-1.0171693036
 11
-2.6978536785
 21
-1.0171693036
  0
LINE
  5
320
100
AcDbEntity
  8
RACCORDO
100
AcDbLine
 62
7
  6
CONTINUOUS
 10
-18.7926175578
 20
-1.0171693036
 11
-19.9952356182
 21
-1.0171693036
  0
LINE
  5
321
100
AcDbEntity
  8
0
100
AcDbLine
 62
7
  6
CONTINUOUS
 10
7.4178271212
 20
-0.5228310773
 11
7.6524792828
 21
-0.5228310773
  0
LINE
  5
322
100
AcDbEntity
  8
0
100
AcDbLine
 62
7
  6
CONTINUOUS
 10
-7.0207812868
 20
-0.3173739144
 11
-7.5582983575
 21
-0.2095977494
  0
LINE
  5
323
100
AcDbEntity
  8
RACCORDO
100
AcDbLine
 62
7
  6
CONTINUOUS
 10
-2.7213592149
 20
2.5850818691
 11
-2.6995228997
 21
2.5414059124
  0
LINE
  5
324
100
AcDbEntity
  8
RACCORDO
100
AcDbLine
 62
7
  6
CONTINUOUS
 10
-7.7072523704
 20
17.2127881291
 11
-7.6689218782
 21
17.097703139
  0
LINE
  5
325
100
AcDbEntity
  8
RACCORDO
100
AcDbLine
 62
7
  6
CONTINUOUS
 10
0.053721853
 20
20.2265470829
 11
0.0777850584
 21
19.9834662146
  0
LINE
  5
326
100
AcDbEntity
  8
RACCORDO
100
AcDbLine
 62
7
  6
CONTINUOUS
 10
1.5548072825
 20
-20.8671693036
 11
1.5543467247
 21
-20.5931470924
  0
LINE
  5
327
100
AcDbEntity
  8
RACCORDO
100
AcDbLine
 62
7
  6
CONTINUOUS
 10
1.3547643818
 20
-2.5194204763
 11
1.3547643818
 21
-1.0171693036
  0
LINE
  5
328
100
AcDbEntity
  8
RACCORDO
100
AcDbLine
 62
7
  6
CONTINUOUS
 10
1.3547643818
 20
1.0828306964
 11
1.3547643818
 21
2.5850818691
  0
LINE
  5
329
100
AcDbEntity
  8
DRAFT
100
AcDbLine
 62
7
  6
CONTINUOUS
 10
1.5548072825
 20
-20.6085522779
 11
1.5548072825
 21
-20.8671693036
  0
LINE
  5
32A
100
AcDbEntity
  8
DRAFT
100
AcDbLine
 62
7
  6
CONTINUOUS
 10
1.5548072825
 20
20.6742136706
 11
1.5548072825
 21
20.9328306964
  0
LINE
  5
32B
100
AcDbEntity
  8
0
100
AcDbLine
 62
7
  6
CONTINUOUS
 10
1.7547643818
 20
-1.0171693036
 11
1.7547643818
 21
1.0828306964
  0
LINE
  5
32C
100
AcDbEntity
  8
RACCORDO
100
AcDbLine
 62
7
  6
CONTINUOUS
 10
1.5543467247
 20
20.6588084852
 11
1.5548072825
 21
20.9328306964
  0
LINE
  5
32D
100
AcDbEntity
  8
RACCORDO
100
AcDbLine
 62
7
  6
CONTINUOUS
 10
0.053721853
 20
-20.1608856902
 11
0.0835603993
 21
-19.8594636796
  0
LWPOLYLINE
  5
32E
100
AcDbEntity
  8
RACCORDO
100
AcDbPolyline
 62
7
  6
CONTINUOUS
 90
16
 70
0
 10
7.5669917087
 20
17.2134369412
 10
7.5697377402
 20
17.2221860593
 10
7.5726899007
 20
17.2328220874
 10
7.575144751
 20
17.2430635092
 10
7.5771462527
 20
17.2528496246
 10
7.5787823601
 20
17.2623804198
 10
7.5800708728
 20
17.2715105363
 10
7.5810084207
 20
17.2797184904
 10
7.5816618203
 20
17.2867927891
 10
7.5821433697
 20
17.2931850769
 10
7.5825260662
 20
17.2993541105
 10
7.582836984
 20
17.3053629941
 10
7.5830998166
 20
17.3113463447
 10
7.5833415118
 20
17.3177495947
 10
7.5835686725
 20
17.3247080888
 10
7.5839843236
 20
17.340366254
  0
LINE
  5
32F
100
AcDbEntity
  8
RACCORDO
100
AcDbLine
 62
7
  6
CONTINUOUS
 10
7.5284506418
 20
17.097703139
 11
7.5667811335
 21
17.2127881274
  0
LINE
  5
330
100
AcDbEntity
  8
RACCORDO
100
AcDbLine
 62
7
  6
CONTINUOUS
 10
2.5808879785
 20
2.5850818691
 11
2.5590516633
 21
2.5414059124
  0
LINE
  5
331
100
AcDbEntity
  8
0
100
AcDbLine
 62
7
  6
CONTINUOUS
 10
17.1812123818
 20
4.9338846964
 11
14.6814763818
 21
4.1414196964
  0
LINE
  5
332
100
AcDbEntity
  8
0
100
AcDbLine
 62
7
  6
CONTINUOUS
 10
-15.6010376182
 20
-3.8249003036
 11
-17.3216836182
 21
-4.3013953036
  0
LINE
  5
333
100
AcDbEntity
  8
0
100
AcDbLine
 62
7
  6
CONTINUOUS
 10
-14.8219476182
 20
0.7190796964
 11
-17.3216836182
 21
0.4853266964
  0
LINE
  5
334
100
AcDbEntity
  8
0
100
AcDbLine
 62
7
  6
CONTINUOUS
 10
-16.4474236182
 20
0.1014236964
 11
-14.8219476182
 21
0.2086276964
  0
LINE
  5
335
100
AcDbEntity
  8
0
100
AcDbLine
 62
7
  6
CONTINUOUS
 10
-7.5582983575
 20
0.5884924701
 11
-7.7929505191
 21
0.5884924701
  0
LINE
  5
336
100
AcDbEntity
  8
RACCORDO
100
AcDbLine
 62
7
  6
CONTINUOUS
 10
-19.9952356182
 20
1.0828306964
 11
-18.7926175578
 21
1.0828306964
  0
LINE
  5
337
100
AcDbEntity
  8
RACCORDO
100
AcDbLine
 62
7
  6
CONTINUOUS
 10
-2.6978536785
 20
1.0828306964
 11
-1.4952356182
 21
1.0828306964
  0
LINE
  5
338
100
AcDbEntity
  8
RACCORDO
100
AcDbLine
 62
7
  6
CONTINUOUS
 10
1.3547643818
 20
1.0828306964
 11
2.5573824422
 21
1.0828306964
  0
LINE
  5
339
100
AcDbEntity
  8
RACCORDO
100
AcDbLine
 62
7
  6
CONTINUOUS
 10
18.6521463215
 20
1.0828306964
 11
19.8547643818
 21
1.0828306964
  0
LINE
  5
33A
100
AcDbEntity
  8
0
100
AcDbLine
 62
7
  6
CONTINUOUS
 10
10.1797643818
 20
1.3236900618
 11
10.8728066601
 21
1.3236900618
  0
LINE
  5
33B
100
AcDbEntity
  8
0
100
AcDbLine
 62
7
  6
CONTINUOUS
 10
11.1879498877
 20
1.3236900618
 11
12.1797643818
 21
1.3236900618
  0
LINE
  5
33C
100
AcDbEntity
  8
RACCORDO
100
AcDbLine
 62
253
  6
CONTINUOUS
 10
-19.9952356182
 20
1.3828306964
 11
-18.7952356182
 21
1.3828306964
  0
LINE
  5
33D
100
AcDbEntity
  8
RACCORDO
100
AcDbLine
 62
253
  6
CONTINUOUS
 10
-2.6952356182
 20
1.3828306964
 11
-1.4952356182
 21
1.3828306964
  0
LINE
  5
33E
100
AcDbEntity
  8
RACCORDO
100
AcDbLine
 62
253
  6
CONTINUOUS
 10
1.3547643818
 20
1.3828306964
 11
2.5547643818
 21
1.3828306964
  0
LINE
  5
33F
100
AcDbEntity
  8
RACCORDO
100
AcDbLine
 62
253
  6
CONTINUOUS
 10
18.6547643818
 20
1.3828306964
 11
19.8547643818
 21
1.3828306964
  0
LINE
  5
340
100
AcDbEntity
  8
0
100
AcDbLine
 62
7
  6
CONTINUOUS
 10
12.1797643818
 20
1.5883559039
 11
10.1797643818
 21
1.5883559039
  0
LINE
  5
341
100
AcDbEntity
  8
RACCORDO
100
AcDbLine
 62
253
  6
CONTINUOUS
 10
19.8547643818
 20
2.0414820648
 11
18.6547643818
 21
2.0414820648
  0
LINE
  5
342
100
AcDbEntity
  8
RACCORDO
100
AcDbLine
 62
253
  6
CONTINUOUS
 10
2.5547643818
 20
2.0414820648
 11
1.3547643818
 21
2.0414820648
  0
LINE
  5
343
100
AcDbEntity
  8
RACCORDO
100
AcDbLine
 62
253
  6
CONTINUOUS
 10
-1.4952356182
 20
2.0414820648
 11
-2.6952356182
 21
2.0414820648
  0
LINE
  5
344
100
AcDbEntity
  8
RACCORDO
100
AcDbLine
 62
253
  6
CONTINUOUS
 10
-18.7952356182
 20
2.0414820648
 11
-19.9952356182
 21
2.0414820648
  0
LINE
  5
345
100
AcDbEntity
  8
0
100
AcDbLine
 62
7
  6
CONTINUOUS
 10
10.1797643818
 20
2.0440176776
 11
12.1797643818
 21
2.0440176776
  0
LINE
  5
346
100
AcDbEntity
  8
0
100
AcDbLine
 62
7
  6
CONTINUOUS
 10
14.6814763818
 20
2.1626426964
 11
17.1813613818
 21
2.1626426964
  0
LINE
  5
347
100
AcDbEntity
  8
0
100
AcDbLine
 62
7
  6
CONTINUOUS
 10
12.1797643818
 20
2.3086832812
 11
10.1797643818
 21
2.3086832812
  0
LINE
  5
348
100
AcDbEntity
  8
0
100
AcDbLine
 62
7
  6
CONTINUOUS
 10
14.6814763818
 20
1.3825596964
 11
16.3137563818
 21
1.2699566964
  0
LINE
  5
349
100
AcDbEntity
  8
0
100
AcDbLine
 62
7
  6
CONTINUOUS
 10
7.6524792828
 20
0.4717119983
 11
6.6251941242
 21
0.6654363921
  0
LINE
  5
34A
100
AcDbEntity
  8
0
100
AcDbLine
 62
7
  6
CONTINUOUS
 10
6.8803100504
 20
0.3830353072
 11
7.4178271212
 21
0.2752591422
  0
LINE
  5
34B
100
AcDbEntity
  8
RACCORDO
100
AcDbLine
 62
7
  6
CONTINUOUS
 10
2.5808879785
 20
-2.5194204763
 11
2.5590516633
 21
-2.4757445196
  0
LINE
  5
34C
100
AcDbEntity
  8
RACCORDO
100
AcDbLine
 62
7
  6
CONTINUOUS
 10
7.566781134
 20
-17.1471267363
 11
7.5284506418
 21
-17.0320417462
  0
LINE
  5
34D
100
AcDbEntity
  8
RACCORDO
100
AcDbLine
 62
7
  6
CONTINUOUS
 10
1.5600841907
 20
20.2265470829
 11
1.584147396
 21
19.9834662146
  0
LINE
  5
34E
100
AcDbEntity
  8
RACCORDO
100
AcDbLine
 62
7
  6
CONTINUOUS
 10
2.5547643818
 20
2.0414820648
 11
2.5547643818
 21
1.3828306964
  0
LINE
  5
34F
100
AcDbEntity
  8
RACCORDO
100
AcDbLine
 62
7
  6
CONTINUOUS
 10
2.5547643818
 20
-1.3171693036
 11
2.5547643818
 21
-1.9758206721
  0
LINE
  5
350
100
AcDbEntity
  8
RACCORDO
100
AcDbLine
 62
7
  6
CONTINUOUS
 10
1.5600841907
 20
-20.1608856902
 11
1.589922737
 21
-19.8594636796
  0
LINE
  5
351
100
AcDbEntity
  8
DRAFT
100
AcDbLine
 62
7
  6
CONTINUOUS
 10
22.2062651427
 20
4.9990631217
 11
20.6998801527
 21
4.8670226363
  0
LINE
  5
352
100
AcDbEntity
  8
DRAFT
100
AcDbLine
 62
7
  6
CONTINUOUS
 10
20.7797643818
 20
5.11386877
 11
22.2861267195
 21
5.2458392587
  0
LINE
  5
353
100
AcDbEntity
  8
0
100
AcDbLine
 62
7
  6
CONTINUOUS
 10
-12.3202356182
 20
2.5223260692
 11
-10.3202356182
 21
2.5223260692
  0
LINE
  5
354
100
AcDbEntity
  8
0
100
AcDbLine
 62
7
  6
CONTINUOUS
 10
5.6797643818
 20
2.5262823155
 11
5.9157807596
 21
2.5262823155
  0
LINE
  5
355
100
AcDbEntity
  8
RACCORDO
100
AcDbLine
 62
253
  6
CONTINUOUS
 10
19.8547643818
 20
2.5414059124
 11
18.6504771003
 21
2.5414059124
  0
LINE
  5
356
100
AcDbEntity
  8
RACCORDO
100
AcDbLine
 62
253
  6
CONTINUOUS
 10
2.5590516633
 20
2.5414059124
 11
1.3547643818
 21
2.5414059124
  0
LINE
  5
357
100
AcDbEntity
  8
RACCORDO
100
AcDbLine
 62
253
  6
CONTINUOUS
 10
-1.4952356182
 20
2.5414059124
 11
-2.6995228997
 21
2.5414059124
  0
LINE
  5
358
100
AcDbEntity
  8
RACCORDO
100
AcDbLine
 62
253
  6
CONTINUOUS
 10
-18.7909483367
 20
2.5414059124
 11
-19.9952356182
 21
2.5414059124
  0
LINE
  5
359
100
AcDbEntity
  8
DRAFT
100
AcDbLine
 62
7
  6
CONTINUOUS
 10
1.3547643818
 20
2.5850818691
 11
2.5808879785
 21
2.5850818691
  0
LINE
  5
35A
100
AcDbEntity
  8
DRAFT
100
AcDbLine
 62
7
  6
CONTINUOUS
 10
-1.4952356182
 20
2.5850818691
 11
-2.7213592149
 21
2.5850818691
  0
LINE
  5
35B
100
AcDbEntity
  8
DRAFT
100
AcDbLine
 62
7
  6
CONTINUOUS
 10
18.6286407851
 20
2.5850818691
 11
19.8547643818
 21
2.5850818691
  0
LINE
  5
35C
100
AcDbEntity
  8
DRAFT
100
AcDbLine
 62
7
  6
CONTINUOUS
 10
-18.7691120215
 20
2.5850818691
 11
-19.9952356182
 21
2.5850818691
  0
LINE
  5
35D
100
AcDbEntity
  8
0
100
AcDbLine
 62
7
  6
CONTINUOUS
 10
17.1813613818
 20
2.6844356964
 11
14.6814763818
 21
2.6844356964
  0
LINE
  5
35E
100
AcDbEntity
  8
0
100
AcDbLine
 62
7
  6
CONTINUOUS
 10
10.1797643818
 20
2.7193245938
 11
10.4157807596
 21
2.7193245938
  0
LINE
  5
35F
100
AcDbEntity
  8
0
100
AcDbLine
 62
7
  6
CONTINUOUS
 10
11.9437479891
 20
2.765709286
 11
12.1797643818
 21
2.765709286
  0
LINE
  5
360
100
AcDbEntity
  8
0
100
AcDbLine
 62
7
  6
CONTINUOUS
 10
-10.3202356182
 20
2.7760778239
 11
-11.8918590627
 21
2.7760778239
  0
LINE
  5
361
100
AcDbEntity
  8
0
100
AcDbLine
 62
7
  6
CONTINUOUS
 10
11.0965447344
 20
2.8407434276
 11
11.331196896
 21
2.8407434276
  0
LINE
  5
362
100
AcDbEntity
  8
0
100
AcDbLine
 62
7
  6
CONTINUOUS
 10
-17.2924784565
 20
3.0100681736
 11
-14.8219480874
 21
3.0100681736
  0
LINE
  5
363
100
AcDbEntity
  8
0
100
AcDbLine
 62
7
  6
CONTINUOUS
 10
-16.2096027908
 20
3.5124596484
 11
-16.8958289432
 21
3.5124596484
  0
LINE
  5
364
100
AcDbEntity
  8
0
100
AcDbLine
 62
7
  6
CONTINUOUS
 10
-14.8219480874
 20
3.5297615151
 11
-15.8002065067
 21
3.5297615151
  0
LINE
  5
365
100
AcDbEntity
  8
0
100
AcDbLine
 62
7
  6
CONTINUOUS
 10
-12.3202356182
 20
3.8442908099
 11
-10.7499764047
 21
3.8442908099
  0
LINE
  5
366
100
AcDbEntity
  8
0
100
AcDbLine
 62
7
  6
CONTINUOUS
 10
10.4157807596
 20
3.9471553913
 11
11.0965447344
 21
3.9471553913
  0
LINE
  5
367
100
AcDbEntity
  8
0
100
AcDbLine
 62
7
  6
CONTINUOUS
 10
11.331196896
 20
3.9471553913
 11
11.9437479891
 21
3.9471553913
  0
LINE
  5
368
100
AcDbEntity
  8
0
100
AcDbLine
 62
7
  6
CONTINUOUS
 10
-10.3202356182
 20
4.0980425647
 11
-12.3202356182
 21
4.0980425647
  0
LINE
  5
369
100
AcDbEntity
  8
0
100
AcDbLine
 62
7
  6
CONTINUOUS
 10
12.1797643818
 20
4.2118211439
 11
10.1797643818
 21
4.2118211439
  0
LINE
  5
36A
100
AcDbEntity
  8
0
100
AcDbLine
 62
7
  6
CONTINUOUS
 10
-15.9888024781
 20
4.3515720687
 11
-16.0035737359
 21
4.3515720687
  0
LINE
  5
36B
100
AcDbEntity
  8
DRAFT
100
AcDbLine
 62
7
  6
CONTINUOUS
 10
-20.8403513891
 20
4.8670226363
 11
-22.3467363791
 21
4.9990631217
  0
LINE
  5
36C
100
AcDbEntity
  8
DRAFT
100
AcDbLine
 62
7
  6
CONTINUOUS
 10
-20.9202356182
 20
5.11386877
 11
-22.4265979559
 21
5.2458392587
  0
LINE
  5
36D
100
AcDbEntity
  8
0
100
AcDbLine
 62
7
  6
CONTINUOUS
 10
17.1812123818
 20
1.6560336964
 11
14.6814763818
 21
1.8817456964
  0
LINE
  5
36E
100
AcDbEntity
  8
0
100
AcDbLine
 62
7
  6
CONTINUOUS
 10
15.5666643818
 20
-1.5022033036
 11
16.4943483818
 21
-1.7620123036
  0
LINE
  5
36F
100
AcDbEntity
  8
0
100
AcDbLine
 62
7
  6
CONTINUOUS
 10
14.6814763818
 20
-1.2514853036
 11
15.1805123818
 21
-1.3954683036
  0
LINE
  5
370
100
AcDbEntity
  8
0
100
AcDbLine
 62
7
  6
CONTINUOUS
 10
17.1812123818
 20
-1.5194303036
 11
14.6814763818
 21
-0.7353543036
  0
LINE
  5
371
100
AcDbEntity
  8
0
100
AcDbLine
 62
7
  6
CONTINUOUS
 10
6.2254669585
 20
0.4512480548
 11
6.2036388435
 21
0.7090927413
  0
LINE
  5
372
100
AcDbEntity
  8
0
100
AcDbLine
 62
7
  6
CONTINUOUS
 10
5.6797643818
 20
3.8482467955
 11
5.6797643818
 21
2.5262823155
  0
LINE
  5
373
100
AcDbEntity
  8
0
100
AcDbLine
 62
7
  6
CONTINUOUS
 10
5.9157807596
 20
2.5262823155
 11
5.9157807596
 21
3.5071826628
  0
LINE
  5
374
100
AcDbEntity
  8
0
100
AcDbLine
 62
7
  6
CONTINUOUS
 10
6.6251941242
 20
0.6654363921
 11
6.5951805033
 21
0.434877043
  0
LINE
  5
375
100
AcDbEntity
  8
0
100
AcDbLine
 62
7
  6
CONTINUOUS
 10
10.1797643818
 20
-0.0651227185
 11
11.3693960823
 21
0.8107296279
  0
LINE
  5
376
100
AcDbEntity
  8
0
100
AcDbLine
 62
7
  6
CONTINUOUS
 10
11.1920427002
 20
0.9962686351
 11
10.1797643818
 21
0.2841266444
  0
LINE
  5
377
100
AcDbEntity
  8
0
100
AcDbLine
 62
7
  6
CONTINUOUS
 10
16.3137563818
 20
1.2699566964
 11
14.6814763818
 21
0.6578306964
  0
LINE
  5
378
100
AcDbEntity
  8
0
100
AcDbLine
 62
7
  6
CONTINUOUS
 10
15.7933513818
 20
0.6183906964
 11
17.1812123818
 21
1.1346726964
  0
LINE
  5
379
100
AcDbEntity
  8
0
100
AcDbLine
 62
7
  6
CONTINUOUS
 10
-15.3209836182
 20
2.1717246964
 11
-14.8219476182
 21
2.3068966964
  0
LINE
  5
37A
100
AcDbEntity
  8
0
100
AcDbLine
 62
7
  6
CONTINUOUS
 10
-16.6348196182
 20
1.8276736964
 11
-15.7071356182
 21
2.0674446964
  0
LINE
  5
37B
100
AcDbEntity
  8
DRAFT
100
AcDbLine
 62
7
  6
CONTINUOUS
 10
20.7797643818
 20
6.0328306964
 11
22.2861267195
 21
6.0328306964
  0
LINE
  5
37C
100
AcDbEntity
  8
DRAFT
100
AcDbLine
 62
7
  6
CONTINUOUS
 10
-20.9202356182
 20
6.0328306964
 11
-22.4265979559
 21
6.0328306964
  0
LINE
  5
37D
100
AcDbEntity
  8
0
100
AcDbLine
 62
7
  6
CONTINUOUS
 10
17.1812123818
 20
0.0965976964
 11
15.7933513818
 21
0.6183906964
  0
LINE
  5
37E
100
AcDbEntity
  8
0
100
AcDbLine
 62
7
  6
CONTINUOUS
 10
14.6814763818
 20
0.5846486964
 11
16.3069523818
 21
-0.0357623036
  0
LINE
  5
37F
100
AcDbEntity
  8
0
100
AcDbLine
 62
7
  6
CONTINUOUS
 10
7.1708967604
 20
-3.4286972234
 11
7.1899963536
 21
-3.6728993604
  0
LWPOLYLINE
  5
380
100
AcDbEntity
  8
RACCORDO
100
AcDbPolyline
 62
7
  6
CONTINUOUS
 90
15
 70
0
 10
7.583633484
 20
-17.2612217343
 10
7.5833821622
 20
-17.2532619663
 10
7.5831122031
 20
-17.2459916415
 10
7.5828036699
 20
-17.2390061171
 10
7.5824341071
 20
-17.2321016254
 10
7.5819809072
 20
-17.2252226033
 10
7.5813880055
 20
-17.2179862597
 10
7.5805591232
 20
-17.2099030348
 10
7.5794312435
 20
-17.2010812652
 10
7.5780114004
 20
-17.1920067828
 10
7.5762990718
 20
-17.1828464891
 10
7.5742156275
 20
-17.1733392163
 10
7.5716988978
 20
-17.1634192621
 10
7.5687524921
 20
-17.1532773026
 10
7.566992984
 20
-17.1477793937
  0
LWPOLYLINE
  5
381
100
AcDbEntity
  8
RACCORDO
100
AcDbPolyline
 62
7
  6
CONTINUOUS
 90
15
 70
0
 10
6.9758940342
 20
17.3269258094
 10
6.9761450956
 20
17.3189674079
 10
6.9764147377
 20
17.311698217
 10
6.9767227819
 20
17.3047153081
 10
6.9770914906
 20
17.2978165618
 10
6.9775433404
 20
17.2909457718
 10
6.9781342865
 20
17.2837186826
 10
6.978960319
 20
17.2756460809
 10
6.9800842656
 20
17.266836293
 10
6.9814994624
 20
17.2577726946
 10
6.9832069712
 20
17.2486201489
 10
6.985285261
 20
17.2391188871
 10
6.9877959016
 20
17.2292057628
 10
6.99073499
 20
17.2190721708
 10
6.9925369121
 20
17.2134373609
  0
LINE
  5
382
100
AcDbEntity
  8
RACCORDO
100
AcDbLine
 62
7
  6
CONTINUOUS
 10
7.5840923756
 20
-17.279521869
 11
7.583633484
 21
-17.2612217343
  0
LINE
  5
383
100
AcDbEntity
  8
RACCORDO
100
AcDbLine
 62
7
  6
CONTINUOUS
 10
6.9754355705
 20
17.3452210606
 11
6.9758940342
 21
17.3269258094
  0
LINE
  5
384
100
AcDbEntity
  8
RACCORDO
100
AcDbLine
 62
7
  6
CONTINUOUS
 10
6.975028198
 20
17.3670708537
 11
6.9754355705
 21
17.3452210606
  0
LINE
  5
385
100
AcDbEntity
  8
RACCORDO
100
AcDbLine
 62
7
  6
CONTINUOUS
 10
7.5845000963
 20
-17.3013802427
 11
7.5840923756
 21
-17.279521869
  0
LINE
  5
386
100
AcDbEntity
  8
RACCORDO
100
AcDbLine
 62
7
  6
CONTINUOUS
 10
6.9745242721
 20
17.4069296535
 11
6.975028198
 21
17.3670708537
  0
LINE
  5
387
100
AcDbEntity
  8
RACCORDO
100
AcDbLine
 62
7
  6
CONTINUOUS
 10
7.5850044147
 20
-17.3412603756
 11
7.5845000963
 21
-17.3013802427
  0
LINE
  5
388
100
AcDbEntity
  8
RACCORDO
100
AcDbLine
 62
7
  6
CONTINUOUS
 10
6.9741866245
 20
17.4548026255
 11
6.9745242721
 21
17.4069296535
  0
LINE
  5
389
100
AcDbEntity
  8
RACCORDO
100
AcDbLine
 62
7
  6
CONTINUOUS
 10
7.5853422468
 20
-17.3891645534
 11
7.5850044147
 21
-17.3412603756
  0
LINE
  5
38A
100
AcDbEntity
  8
RACCORDO
100
AcDbLine
 62
7
  6
CONTINUOUS
 10
6.9740674308
 20
20.6498248176
 11
6.9741866245
 21
17.4548026255
  0
LINE
  5
38B
100
AcDbEntity
  8
RACCORDO
100
AcDbLine
 62
253
  6
CONTINUOUS
 10
7.2740674308
 20
20.665551022
 11
7.2740674308
 21
17.5073129797
  0
LINE
  5
38C
100
AcDbEntity
  8
RACCORDO
100
AcDbLine
 62
253
  6
CONTINUOUS
 10
7.2740674308
 20
-17.441651587
 11
7.2740674308
 21
-20.5998896293
  0
LINE
  5
38D
100
AcDbEntity
  8
RACCORDO
100
AcDbLine
 62
253
  6
CONTINUOUS
 10
7.2854613328
 20
-20.5998896293
 11
7.2854613328
 21
-17.441651587
  0
LINE
  5
38E
100
AcDbEntity
  8
RACCORDO
100
AcDbLine
 62
253
  6
CONTINUOUS
 10
7.2854613328
 20
17.5073129797
 11
7.2854613328
 21
20.665551022
  0
LINE
  5
38F
100
AcDbEntity
  8
0
100
AcDbLine
 62
7
  6
CONTINUOUS
 10
7.4178271212
 20
0.2752591422
 11
7.4178271212
 21
-0.5228310773
  0
LINE
  5
390
100
AcDbEntity
  8
RACCORDO
100
AcDbLine
 62
7
  6
CONTINUOUS
 10
7.5854613328
 20
-20.5841634249
 11
7.5853422468
 21
-17.3891645534
  0
LINE
  5
391
100
AcDbEntity
  8
0
100
AcDbLine
 62
7
  6
CONTINUOUS
 10
7.6524792828
 20
-0.5228310773
 11
7.6524792828
 21
0.4717119983
  0
LINE
  5
392
100
AcDbEntity
  8
RACCORDO
100
AcDbLine
 62
7
  6
CONTINUOUS
 10
6.9741577105
 20
-17.3958578205
 11
6.9740674308
 21
-20.5841634249
  0
LINE
  5
393
100
AcDbEntity
  8
RACCORDO
100
AcDbLine
 62
7
  6
CONTINUOUS
 10
7.5853709448
 20
17.4614921024
 11
7.5854613328
 21
20.6498248176
  0
LINE
  5
394
100
AcDbEntity
  8
RACCORDO
100
AcDbLine
 62
7
  6
CONTINUOUS
 10
6.9744259802
 20
-17.3520882342
 11
6.9741577105
 21
-17.3958578205
  0
LINE
  5
395
100
AcDbEntity
  8
RACCORDO
100
AcDbLine
 62
7
  6
CONTINUOUS
 10
7.5851027402
 20
17.4177445078
 11
7.5853709448
 21
17.4614921024
  0
LINE
  5
396
100
AcDbEntity
  8
RACCORDO
100
AcDbLine
 62
7
  6
CONTINUOUS
 10
6.9748354844
 20
-17.3144269377
 11
6.9744259802
 21
-17.3520882342
  0
LINE
  5
397
100
AcDbEntity
  8
RACCORDO
100
AcDbLine
 62
7
  6
CONTINUOUS
 10
7.5846934398
 20
17.3801001077
 11
7.5851027402
 21
17.4177445078
  0
LINE
  5
398
100
AcDbEntity
  8
RACCORDO
100
AcDbLine
 62
7
  6
CONTINUOUS
 10
6.9751698321
 20
-17.2930612146
 11
6.9748354844
 21
-17.3144269377
  0
LINE
  5
399
100
AcDbEntity
  8
RACCORDO
100
AcDbLine
 62
7
  6
CONTINUOUS
 10
7.5843593107
 20
17.3587437761
 11
7.5846934398
 21
17.3801001077
  0
LINE
  5
39A
100
AcDbEntity
  8
RACCORDO
100
AcDbLine
 62
7
  6
CONTINUOUS
 10
7.5839843236
 20
17.340366254
 11
7.5843593107
 21
17.3587437761
  0
LINE
  5
39B
100
AcDbEntity
  8
RACCORDO
100
AcDbLine
 62
7
  6
CONTINUOUS
 10
6.9755451288
 20
-17.2746752553
 11
6.9751698321
 21
-17.2930612146
  0
LINE
  5
39C
100
AcDbEntity
  8
0
100
AcDbLine
 62
7
  6
CONTINUOUS
 10
7.1095051684
 20
3.801862081
 11
7.0835843005
 21
3.5494746318
  0
LINE
  5
39D
100
AcDbEntity
  8
DRAFT
100
AcDbLine
 62
7
  6
CONTINUOUS
 10
1.5548072825
 20
-20.6085522779
 11
1.5927002591
 21
-20.494780902
  0
LINE
  5
39E
100
AcDbEntity
  8
0
100
AcDbLine
 62
7
  6
CONTINUOUS
 10
14.6814763818
 20
-2.7911833036
 11
17.1812123818
 21
-2.0242023036
  0
LINE
  5
39F
100
AcDbEntity
  8
0
100
AcDbLine
 62
7
  6
CONTINUOUS
 10
17.1812123818
 20
3.3995106964
 11
15.4605663818
 21
3.8905616964
  0
LINE
  5
3A0
100
AcDbEntity
  8
0
100
AcDbLine
 62
7
  6
CONTINUOUS
 10
14.6814763818
 20
3.6815896964
 11
17.1812123818
 21
2.8780746964
  0
LINE
  5
3A1
100
AcDbEntity
  8
DRAFT
100
AcDbLine
 62
7
  6
CONTINUOUS
 10
1.5548072825
 20
20.6742136706
 11
1.5927002591
 21
20.5604422948
  0
LINE
  5
3A2
100
AcDbEntity
  8
0
100
AcDbLine
 62
7
  6
CONTINUOUS
 10
10.1797643818
 20
4.2118211439
 11
10.1797643818
 21
2.7193245938
  0
LINE
  5
3A3
100
AcDbEntity
  8
0
100
AcDbLine
 62
7
  6
CONTINUOUS
 10
10.1797643818
 20
2.3086832812
 11
10.1797643818
 21
2.0440176776
  0
LINE
  5
3A4
100
AcDbEntity
  8
0
100
AcDbLine
 62
7
  6
CONTINUOUS
 10
10.1797643818
 20
1.5883559039
 11
10.1797643818
 21
1.3236900618
  0
LINE
  5
3A5
100
AcDbEntity
  8
0
100
AcDbLine
 62
7
  6
CONTINUOUS
 10
10.1797643818
 20
0.2841266444
 11
10.1797643818
 21
-0.0651227185
  0
LINE
  5
3A6
100
AcDbEntity
  8
0
100
AcDbLine
 62
7
  6
CONTINUOUS
 10
10.1797643818
 20
-2.4566646764
 11
10.1797643818
 21
-2.7104164312
  0
LINE
  5
3A7
100
AcDbEntity
  8
0
100
AcDbLine
 62
7
  6
CONTINUOUS
 10
10.1797643818
 20
-3.7608939359
 11
10.1797643818
 21
-4.0323811719
  0
LINE
  5
3A8
100
AcDbEntity
  8
0
100
AcDbLine
 62
7
  6
CONTINUOUS
 10
10.4157807596
 20
2.7193245938
 11
10.4157807596
 21
3.9471553913
  0
LWPOLYLINE
  5
3A9
100
AcDbEntity
  8
RACCORDO
100
AcDbPolyline
 62
7
  6
CONTINUOUS
 90
16
 70
0
 10
15.3669917087
 20
17.2134369412
 10
15.3697377402
 20
17.2221860593
 10
15.3726899007
 20
17.2328220874
 10
15.375144751
 20
17.2430635092
 10
15.3771462527
 20
17.2528496246
 10
15.3787823601
 20
17.2623804198
 10
15.3800708728
 20
17.2715105363
 10
15.3810084207
 20
17.2797184904
 10
15.3816618203
 20
17.2867927891
 10
15.3821433697
 20
17.2931850769
 10
15.3825260662
 20
17.2993541105
 10
15.382836984
 20
17.3053629941
 10
15.3830998166
 20
17.3113463447
 10
15.3833415118
 20
17.3177495947
 10
15.3835686725
 20
17.3247080888
 10
15.3839843236
 20
17.340366254
  0
LINE
  5
3AA
100
AcDbEntity
  8
RACCORDO
100
AcDbLine
 62
7
  6
CONTINUOUS
 10
15.3284506418
 20
17.097703139
 11
15.3667811335
 21
17.2127881274
  0
LINE
  5
3AB
100
AcDbEntity
  8
0
100
AcDbLine
 62
7
  6
CONTINUOUS
 10
10.6095051684
 20
-3.7786294171
 11
12.1797643818
 21
-2.7281514356
  0
LINE
  5
3AC
100
AcDbEntity
  8
0
100
AcDbLine
 62
7
  6
CONTINUOUS
 10
11.7513878264
 20
-2.7104164312
 11
10.1797643818
 21
-3.7608939359
  0
LINE
  5
3AD
100
AcDbEntity
  8
DRAFT
100
AcDbLine
 62
253
  6
CONTINUOUS
 10
20.7010421337
 20
9.5062306964
 11
0.1021242923
 21
9.5062306964
  0
LINE
  5
3AE
100
AcDbEntity
  8
DRAFT
100
AcDbLine
 62
253
  6
CONTINUOUS
 10
-0.2425955287
 20
9.5062306964
 11
-20.84151337
 21
9.5062306964
  0
LINE
  5
3AF
100
AcDbEntity
  8
RACCORDO
100
AcDbLine
 62
7
  6
CONTINUOUS
 10
6.8980386608
 20
9.5828306964
 11
9.9614901028
 21
9.5828306964
  0
LINE
  5
3B0
100
AcDbEntity
  8
RACCORDO
100
AcDbLine
 62
7
  6
CONTINUOUS
 10
-7.0385098972
 20
9.5828306964
 11
-10.1019613392
 21
9.5828306964
  0
LINE
  5
3B1
100
AcDbEntity
  8
DRAFT
100
AcDbLine
 62
253
  6
CONTINUOUS
 10
20.7013700859
 20
10.3052046503
 11
9.9608859884
 21
10.3052046503
  0
LINE
  5
3B2
100
AcDbEntity
  8
DRAFT
100
AcDbLine
 62
253
  6
CONTINUOUS
 10
6.8986427753
 20
10.3052046503
 11
0.1017963401
 21
10.3052046503
  0
LINE
  5
3B3
100
AcDbEntity
  8
DRAFT
100
AcDbLine
 62
253
  6
CONTINUOUS
 10
-0.2422675765
 20
10.3052046503
 11
-7.0391140116
 21
10.3052046503
  0
LINE
  5
3B4
100
AcDbEntity
  8
DRAFT
100
AcDbLine
 62
253
  6
CONTINUOUS
 10
-10.1013572247
 20
10.3052046503
 11
-20.8418413222
 21
10.3052046503
  0
LINE
  5
3B5
100
AcDbEntity
  8
RACCORDO
100
AcDbLine
 62
7
  6
CONTINUOUS
 10
6.8987615021
 20
10.4828306964
 11
9.9607672616
 21
10.4828306964
  0
LINE
  5
3B6
100
AcDbEntity
  8
RACCORDO
100
AcDbLine
 62
7
  6
CONTINUOUS
 10
-7.0392327384
 20
10.4828306964
 11
-10.1012384979
 21
10.4828306964
  0
LINE
  5
3B7
100
AcDbEntity
  8
0
100
AcDbLine
 62
7
  6
CONTINUOUS
 10
12.1797643818
 20
0.3305114558
 11
11.1879498877
 21
1.3236900618
  0
LINE
  5
3B8
100
AcDbEntity
  8
0
100
AcDbLine
 62
7
  6
CONTINUOUS
 10
10.8728066601
 20
1.3236900618
 11
11.1920427002
 21
0.9962686351
  0
LINE
  5
3B9
100
AcDbEntity
  8
0
100
AcDbLine
 62
7
  6
CONTINUOUS
 10
11.3693960823
 20
0.8107296279
 11
12.1797643818
 21
-0.0282880017
  0
LINE
  5
3BA
100
AcDbEntity
  8
RACCORDO
100
AcDbLine
 62
7
  6
CONTINUOUS
 10
15.366781134
 20
-17.1471267363
 11
15.3284506418
 21
-17.0320417462
  0
LINE
  5
3BB
100
AcDbEntity
  8
0
100
AcDbLine
 62
7
  6
CONTINUOUS
 10
11.0965447344
 20
3.9471553913
 11
11.0965447344
 21
2.8407434276
  0
LINE
  5
3BC
100
AcDbEntity
  8
0
100
AcDbLine
 62
7
  6
CONTINUOUS
 10
11.331196896
 20
2.8407434276
 11
11.331196896
 21
3.9471553913
  0
LINE
  5
3BD
100
AcDbEntity
  8
0
100
AcDbLine
 62
7
  6
CONTINUOUS
 10
11.9437479891
 20
3.9471553913
 11
11.9437479891
 21
2.765709286
  0
LINE
  5
3BE
100
AcDbEntity
  8
0
100
AcDbLine
 62
7
  6
CONTINUOUS
 10
12.1797643818
 20
-4.0323811719
 11
12.1797643818
 21
-3.7786294171
  0
LINE
  5
3BF
100
AcDbEntity
  8
0
100
AcDbLine
 62
7
  6
CONTINUOUS
 10
12.1797643818
 20
-2.7281514356
 11
12.1797643818
 21
-2.4566646764
  0
LINE
  5
3C0
100
AcDbEntity
  8
0
100
AcDbLine
 62
7
  6
CONTINUOUS
 10
12.1797643818
 20
-0.0282880017
 11
12.1797643818
 21
0.3305114558
  0
LINE
  5
3C1
100
AcDbEntity
  8
0
100
AcDbLine
 62
7
  6
CONTINUOUS
 10
12.1797643818
 20
1.3236900618
 11
12.1797643818
 21
1.5883559039
  0
LINE
  5
3C2
100
AcDbEntity
  8
0
100
AcDbLine
 62
7
  6
CONTINUOUS
 10
12.1797643818
 20
2.0440176776
 11
12.1797643818
 21
2.3086832812
  0
LINE
  5
3C3
100
AcDbEntity
  8
0
100
AcDbLine
 62
7
  6
CONTINUOUS
 10
12.1797643818
 20
2.765709286
 11
12.1797643818
 21
4.2118211439
  0
LWPOLYLINE
  5
3C4
100
AcDbEntity
  8
RACCORDO
100
AcDbPolyline
 62
7
  6
CONTINUOUS
 90
16
 70
0
 10
6.9925389369
 20
-17.147769856
 10
6.9898457339
 20
-17.1563408457
 10
6.9868850369
 20
-17.1669819968
 10
6.9844224798
 20
-17.1772287113
 10
6.9824133137
 20
-17.1870243632
 10
6.9807694111
 20
-17.196571623
 10
6.9794740476
 20
-17.2057217804
 10
6.9785314402
 20
-17.213948589
 10
6.9778745062
 20
-17.2210404067
 10
6.9773904537
 20
-17.2274494967
 10
6.9770061496
 20
-17.2336315626
 10
6.976694305
 20
-17.2396484609
 10
6.976430886
 20
-17.2456372967
 10
6.9761887512
 20
-17.2520454758
 10
6.9759612516
 20
-17.2590085627
 10
6.9755451288
 20
-17.2746752553
  0
LINE
  5
3C5
100
AcDbEntity
  8
RACCORDO
100
AcDbLine
 62
7
  6
CONTINUOUS
 10
7.0310781218
 20
-17.0320417462
 11
6.9927476302
 21
-17.1471267346
  0
LINE
  5
3C6
100
AcDbEntity
  8
DRAFT
100
AcDbLine
 62
253
  6
CONTINUOUS
 10
20.7011115664
 20
11.1972443972
 11
0.1020548595
 21
11.1972443972
  0
LINE
  5
3C7
100
AcDbEntity
  8
DRAFT
100
AcDbLine
 62
253
  6
CONTINUOUS
 10
-0.2425260959
 20
11.1972443972
 11
-20.8415828028
 21
11.1972443972
  0
LINE
  5
3C8
100
AcDbEntity
  8
RACCORDO
100
AcDbLine
 62
7
  6
CONTINUOUS
 10
6.9927476296
 20
17.2127881291
 11
7.0310781218
 21
17.097703139
  0
LWPOLYLINE
  5
3C9
100
AcDbEntity
  8
RACCORDO
100
AcDbPolyline
 62
7
  6
CONTINUOUS
 90
15
 70
0
 10
15.383633484
 20
-17.2612217343
 10
15.3833821622
 20
-17.2532619663
 10
15.3831122031
 20
-17.2459916415
 10
15.3828036699
 20
-17.2390061171
 10
15.3824341071
 20
-17.2321016254
 10
15.3819809072
 20
-17.2252226033
 10
15.3813880055
 20
-17.2179862597
 10
15.3805591232
 20
-17.2099030348
 10
15.3794312435
 20
-17.2010812652
 10
15.3780114004
 20
-17.1920067828
 10
15.3762990718
 20
-17.1828464891
 10
15.3742156275
 20
-17.1733392163
 10
15.3716988978
 20
-17.1634192621
 10
15.3687524921
 20
-17.1532773026
 10
15.366992984
 20
-17.1477793937
  0
LINE
  5
3CA
100
AcDbEntity
  8
RACCORDO
100
AcDbLine
 62
7
  6
CONTINUOUS
 10
15.3840923756
 20
-17.279521869
 11
15.383633484
 21
-17.2612217343
  0
LINE
  5
3CB
100
AcDbEntity
  8
RACCORDO
100
AcDbLine
 62
7
  6
CONTINUOUS
 10
14.774390643
 20
17.4220635871
 11
14.7748448631
 21
17.3794032911
  0
LINE
  5
3CC
100
AcDbEntity
  8
RACCORDO
100
AcDbLine
 62
7
  6
CONTINUOUS
 10
14.7741200523
 20
17.4722565676
 11
14.774390643
 21
17.4220635871
  0
LINE
  5
3CD
100
AcDbEntity
  8
0
100
AcDbLine
 62
7
  6
CONTINUOUS
 10
14.6814763818
 20
4.1414196964
 11
14.6814763818
 21
3.6815896964
  0
LINE
  5
3CE
100
AcDbEntity
  8
0
100
AcDbLine
 62
7
  6
CONTINUOUS
 10
14.6814763818
 20
2.6844356964
 11
14.6814763818
 21
2.1626426964
  0
LINE
  5
3CF
100
AcDbEntity
  8
0
100
AcDbLine
 62
7
  6
CONTINUOUS
 10
14.6814763818
 20
1.8817456964
 11
14.6814763818
 21
1.3825596964
  0
LINE
  5
3D0
100
AcDbEntity
  8
0
100
AcDbLine
 62
7
  6
CONTINUOUS
 10
14.6814763818
 20
0.6578306964
 11
14.6814763818
 21
0.5846486964
  0
LINE
  5
3D1
100
AcDbEntity
  8
0
100
AcDbLine
 62
7
  6
CONTINUOUS
 10
14.6814763818
 20
-0.1429663036
 11
14.6814763818
 21
-0.6534183036
  0
LINE
  5
3D2
100
AcDbEntity
  8
0
100
AcDbLine
 62
7
  6
CONTINUOUS
 10
14.6814763818
 20
-0.7353543036
 11
14.6814763818
 21
-1.2514853036
  0
LINE
  5
3D3
100
AcDbEntity
  8
0
100
AcDbLine
 62
7
  6
CONTINUOUS
 10
14.6814763818
 20
-2.2412353036
 11
14.6814763818
 21
-2.7911833036
  0
LINE
  5
3D4
100
AcDbEntity
  8
0
100
AcDbLine
 62
7
  6
CONTINUOUS
 10
14.6814768511
 20
-2.9444067808
 11
14.6814768511
 21
-3.4641001224
  0
LINE
  5
3D5
100
AcDbEntity
  8
0
100
AcDbLine
 62
7
  6
CONTINUOUS
 10
14.6814768511
 20
-4.2631539411
 11
14.6814768511
 21
-4.7650580394
  0
LINE
  5
3D6
100
AcDbEntity
  8
RACCORDO
100
AcDbLine
 62
7
  6
CONTINUOUS
 10
14.7740674308
 20
20.6498248176
 11
14.7741200523
 21
17.4722565676
  0
LINE
  5
3D7
100
AcDbEntity
  8
RACCORDO
100
AcDbLine
 62
7
  6
CONTINUOUS
 10
14.7741577105
 20
-17.3958578205
 11
14.7740674308
 21
-20.5841634249
  0
LINE
  5
3D8
100
AcDbEntity
  8
RACCORDO
100
AcDbLine
 62
7
  6
CONTINUOUS
 10
14.7744259802
 20
-17.3520882342
 11
14.7741577105
 21
-17.3958578205
  0
LINE
  5
3D9
100
AcDbEntity
  8
RACCORDO
100
AcDbLine
 62
7
  6
CONTINUOUS
 10
14.7748354844
 20
-17.3144269377
 11
14.7744259802
 21
-17.3520882342
  0
LINE
  5
3DA
100
AcDbEntity
  8
DRAFT
100
AcDbLine
 62
7
  6
CONTINUOUS
 10
20.7547214812
 20
20.6742136706
 11
20.7168285046
 21
20.5604422948
  0
LINE
  5
3DB
100
AcDbEntity
  8
DRAFT
100
AcDbLine
 62
7
  6
CONTINUOUS
 10
20.7547214812
 20
-20.6085522779
 11
20.7168285046
 21
-20.494780902
  0
LWPOLYLINE
  5
3DC
100
AcDbEntity
  8
RACCORDO
100
AcDbPolyline
 62
7
  6
CONTINUOUS
 90
15
 70
0
 10
14.7758940342
 20
17.3269258094
 10
14.7761450956
 20
17.3189674079
 10
14.7764147377
 20
17.311698217
 10
14.7767227819
 20
17.3047153081
 10
14.7770914906
 20
17.2978165618
 10
14.7775433404
 20
17.2909457718
 10
14.7781342865
 20
17.2837186826
 10
14.778960319
 20
17.2756460809
 10
14.7800842656
 20
17.266836293
 10
14.7814994624
 20
17.2577726946
 10
14.7832069712
 20
17.2486201489
 10
14.785285261
 20
17.2391188871
 10
14.7877959016
 20
17.2292057628
 10
14.79073499
 20
17.2190721708
 10
14.7925369121
 20
17.2134373609
  0
LINE
  5
3DD
100
AcDbEntity
  8
RACCORDO
100
AcDbLine
 62
7
  6
CONTINUOUS
 10
14.7754355705
 20
17.3452210606
 11
14.7758940342
 21
17.3269258094
  0
LINE
  5
3DE
100
AcDbEntity
  8
RACCORDO
100
AcDbLine
 62
7
  6
CONTINUOUS
 10
15.3845000963
 20
-17.3013802427
 11
15.3840923756
 21
-17.279521869
  0
LWPOLYLINE
  5
3DF
100
AcDbEntity
  8
RACCORDO
100
AcDbPolyline
 62
7
  6
CONTINUOUS
 90
3
 70
0
 10
14.7748448631
 20
17.3794032911
 10
14.775028198
 20
17.3670708537
 10
14.7754355705
 20
17.3452210606
  0
LINE
  5
3E0
100
AcDbEntity
  8
RACCORDO
100
AcDbLine
 62
7
  6
CONTINUOUS
 10
15.3850044147
 20
-17.3412603756
 11
15.3845000963
 21
-17.3013802427
  0
LINE
  5
3E1
100
AcDbEntity
  8
RACCORDO
100
AcDbLine
 62
7
  6
CONTINUOUS
 10
15.3853422468
 20
-17.3891645534
 11
15.3850044147
 21
-17.3412603756
  0
LINE
  5
3E2
100
AcDbEntity
  8
RACCORDO
100
AcDbLine
 62
253
  6
CONTINUOUS
 10
15.0740674308
 20
20.665551022
 11
15.0740674308
 21
17.5073129797
  0
LINE
  5
3E3
100
AcDbEntity
  8
RACCORDO
100
AcDbLine
 62
253
  6
CONTINUOUS
 10
15.0740674308
 20
-17.441651587
 11
15.0740674308
 21
-20.5998896293
  0
LINE
  5
3E4
100
AcDbEntity
  8
RACCORDO
100
AcDbLine
 62
253
  6
CONTINUOUS
 10
15.0854613328
 20
-20.5998896293
 11
15.0854613328
 21
-17.441651587
  0
LINE
  5
3E5
100
AcDbEntity
  8
RACCORDO
100
AcDbLine
 62
253
  6
CONTINUOUS
 10
15.0854613328
 20
17.5073129797
 11
15.0854613328
 21
20.665551022
  0
LINE
  5
3E6
100
AcDbEntity
  8
0
100
AcDbLine
 62
7
  6
CONTINUOUS
 10
15.1805123818
 20
-1.3954683036
 11
15.1805123818
 21
-2.1060633036
  0
LINE
  5
3E7
100
AcDbEntity
  8
RACCORDO
100
AcDbLine
 62
7
  6
CONTINUOUS
 10
15.3854613328
 20
-20.5841634249
 11
15.3853422468
 21
-17.3891645534
  0
LINE
  5
3E8
100
AcDbEntity
  8
0
100
AcDbLine
 62
7
  6
CONTINUOUS
 10
15.5666643818
 20
-2.0017833036
 11
15.5666643818
 21
-1.5022033036
  0
LINE
  5
3E9
100
AcDbEntity
  8
0
100
AcDbLine
 62
7
  6
CONTINUOUS
 10
15.6597352704
 20
-3.4641001224
 11
15.6597352704
 21
-3.7438729951
  0
LINE
  5
3EA
100
AcDbEntity
  8
0
100
AcDbLine
 62
7
  6
CONTINUOUS
 10
16.0691315544
 20
-3.7449977101
 11
16.0691315544
 21
-3.4467982556
  0
LINE
  5
3EB
100
AcDbEntity
  8
RACCORDO
100
AcDbLine
 62
7
  6
CONTINUOUS
 10
15.3853709448
 20
17.4614921024
 11
15.3854613328
 21
20.6498248176
  0
LINE
  5
3EC
100
AcDbEntity
  8
RACCORDO
100
AcDbLine
 62
7
  6
CONTINUOUS
 10
15.3851027402
 20
17.4177445078
 11
15.3853709448
 21
17.4614921024
  0
LINE
  5
3ED
100
AcDbEntity
  8
RACCORDO
100
AcDbLine
 62
7
  6
CONTINUOUS
 10
15.3846934398
 20
17.3801001077
 11
15.3851027402
 21
17.4177445078
  0
LINE
  5
3EE
100
AcDbEntity
  8
RACCORDO
100
AcDbLine
 62
7
  6
CONTINUOUS
 10
14.7751698321
 20
-17.2930612146
 11
14.7748354844
 21
-17.3144269377
  0
LINE
  5
3EF
100
AcDbEntity
  8
RACCORDO
100
AcDbLine
 62
7
  6
CONTINUOUS
 10
15.3843593107
 20
17.3587437761
 11
15.3846934398
 21
17.3801001077
  0
LINE
  5
3F0
100
AcDbEntity
  8
RACCORDO
100
AcDbLine
 62
7
  6
CONTINUOUS
 10
15.3839843236
 20
17.340366254
 11
15.3843593107
 21
17.3587437761
  0
LINE
  5
3F1
100
AcDbEntity
  8
RACCORDO
100
AcDbLine
 62
7
  6
CONTINUOUS
 10
14.7755451288
 20
-17.2746752553
 11
14.7751698321
 21
-17.2930612146
  0
LINE
  5
3F2
100
AcDbEntity
  8
0
100
AcDbLine
 62
7
  6
CONTINUOUS
 10
17.1812123818
 20
-2.0242023036
 11
17.1812123818
 21
-1.5194303036
  0
LINE
  5
3F3
100
AcDbEntity
  8
0
100
AcDbLine
 62
7
  6
CONTINUOUS
 10
17.1812123818
 20
-0.4196653036
 11
17.1812123818
 21
0.0965976964
  0
LINE
  5
3F4
100
AcDbEntity
  8
0
100
AcDbLine
 62
7
  6
CONTINUOUS
 10
17.1812123818
 20
1.1346726964
 11
17.1812123818
 21
1.6560336964
  0
LINE
  5
3F5
100
AcDbEntity
  8
0
100
AcDbLine
 62
7
  6
CONTINUOUS
 10
17.1812123818
 20
2.8780746964
 11
17.1812123818
 21
3.3995106964
  0
LINE
  5
3F6
100
AcDbEntity
  8
0
100
AcDbLine
 62
7
  6
CONTINUOUS
 10
17.1812123818
 20
4.3670566964
 11
17.1812123818
 21
4.9338846964
  0
LINE
  5
3F7
100
AcDbEntity
  8
0
100
AcDbLine
 62
7
  6
CONTINUOUS
 10
17.1813613818
 20
2.1626426964
 11
17.1813613818
 21
2.6844356964
  0
LINE
  5
3F8
100
AcDbEntity
  8
RACCORDO
100
AcDbLine
 62
7
  6
CONTINUOUS
 10
18.6547643818
 20
-1.9758206721
 11
18.6547643818
 21
-1.3171693036
  0
LINE
  5
3F9
100
AcDbEntity
  8
RACCORDO
100
AcDbLine
 62
7
  6
CONTINUOUS
 10
18.6547643818
 20
1.3828306964
 11
18.6547643818
 21
2.0414820648
  0
LINE
  5
3FA
100
AcDbEntity
  8
DRAFT
100
AcDbLine
 62
7
  6
CONTINUOUS
 10
20.7797643818
 20
5.11386877
 11
20.6998801527
 21
4.8670226363
  0
LINE
  5
3FB
100
AcDbEntity
  8
RACCORDO
100
AcDbLine
 62
7
  6
CONTINUOUS
 10
18.6286407851
 20
-2.5194204763
 11
18.6504771003
 21
-2.4757445196
  0
LINE
  5
3FC
100
AcDbEntity
  8
RACCORDO
100
AcDbLine
 62
253
  6
CONTINUOUS
 10
6.9740674308
 20
17.5073129824
 11
7.5854613328
 21
17.5073129797
  0
LINE
  5
3FD
100
AcDbEntity
  8
RACCORDO
100
AcDbLine
 62
253
  6
CONTINUOUS
 10
-7.1145386672
 20
17.5073129797
 11
-7.7259325692
 21
17.5073129824
  0
LINE
  5
3FE
100
AcDbEntity
  8
RACCORDO
100
AcDbLine
 62
253
  6
CONTINUOUS
 10
14.7740674308
 20
17.5073129824
 11
15.3854613328
 21
17.5073129797
  0
LINE
  5
3FF
100
AcDbEntity
  8
RACCORDO
100
AcDbLine
 62
253
  6
CONTINUOUS
 10
-14.9145386672
 20
17.5073129797
 11
-15.5259325692
 21
17.5073129824
  0
LINE
  5
400
100
AcDbEntity
  8
RACCORDO
100
AcDbLine
 62
253
  6
CONTINUOUS
 10
1.5981980791
 20
19.2043766604
 11
0.0918357414
 21
19.2043766604
  0
LINE
  5
401
100
AcDbEntity
  8
RACCORDO
100
AcDbLine
 62
7
  6
CONTINUOUS
 10
18.6286407851
 20
2.5850818691
 11
18.6504771003
 21
2.5414059124
  0
LINE
  5
402
100
AcDbEntity
  8
DRAFT
100
AcDbLine
 62
7
  6
CONTINUOUS
 10
20.7797643818
 20
-5.0482073772
 11
20.6998801527
 21
-4.8013612436
  0
LINE
  5
403
100
AcDbEntity
  8
0
100
AcDbLine
 62
7
  6
CONTINUOUS
 10
19.4547643818
 20
-1.0171693036
 11
19.4547643818
 21
1.0828306964
  0
LINE
  5
404
100
AcDbEntity
  8
RACCORDO
100
AcDbLine
 62
7
  6
CONTINUOUS
 10
19.8547643818
 20
2.5850818691
 11
19.8547643818
 21
1.0828306964
  0
LINE
  5
405
100
AcDbEntity
  8
RACCORDO
100
AcDbLine
 62
7
  6
CONTINUOUS
 10
19.8547643818
 20
-2.5194204763
 11
19.8547643818
 21
-1.0171693036
  0
LINE
  5
406
100
AcDbEntity
  8
DRAFT
100
AcDbLine
 62
7
  6
CONTINUOUS
 10
20.7547214812
 20
20.9328306964
 11
20.7797643818
 21
5.11386877
  0
LINE
  5
407
100
AcDbEntity
  8
DRAFT
100
AcDbLine
 62
7
  6
CONTINUOUS
 10
20.7797643818
 20
-5.0482073772
 11
20.7797643818
 21
-5.9671693036
  0
LINE
  5
408
100
AcDbEntity
  8
DRAFT
100
AcDbLine
 62
7
  6
CONTINUOUS
 10
20.7547214812
 20
-20.8671693036
 11
20.7797643818
 21
-5.9671693036
  0
LWPOLYLINE
  5
409
100
AcDbEntity
  8
RACCORDO
100
AcDbPolyline
 62
7
  6
CONTINUOUS
 90
16
 70
0
 10
14.7925389369
 20
-17.147769856
 10
14.7898457339
 20
-17.1563408457
 10
14.7868850369
 20
-17.1669819968
 10
14.7844224798
 20
-17.1772287113
 10
14.7824133137
 20
-17.1870243632
 10
14.7807694111
 20
-17.196571623
 10
14.7794740476
 20
-17.2057217804
 10
14.7785314402
 20
-17.213948589
 10
14.7778745062
 20
-17.2210404067
 10
14.7773904537
 20
-17.2274494967
 10
14.7770061496
 20
-17.2336315626
 10
14.776694305
 20
-17.2396484609
 10
14.776430886
 20
-17.2456372967
 10
14.7761887512
 20
-17.2520454758
 10
14.7759612516
 20
-17.2590085627
 10
14.7755451288
 20
-17.2746752553
  0
LINE
  5
40A
100
AcDbEntity
  8
DRAFT
100
AcDbLine
 62
7
  6
CONTINUOUS
 10
22.2062651427
 20
4.9990631217
 11
22.2861267195
 21
5.2458392587
  0
LINE
  5
40B
100
AcDbEntity
  8
RACCORDO
100
AcDbLine
 62
7
  6
CONTINUOUS
 10
14.8310781218
 20
-17.0320417462
 11
14.7927476302
 21
-17.1471267346
  0
LINE
  5
40C
100
AcDbEntity
  8
RACCORDO
100
AcDbLine
 62
253
  6
CONTINUOUS
 10
-0.2310357907
 20
19.5411939162
 11
-1.7373981284
 21
19.5411939162
  0
LINE
  5
40D
100
AcDbEntity
  8
RACCORDO
100
AcDbLine
 62
253
  6
CONTINUOUS
 10
-0.2240316356
 20
19.9251250724
 11
-1.7303939733
 21
19.9251250724
  0
LINE
  5
40E
100
AcDbEntity
  8
RACCORDO
100
AcDbLine
 62
253
  6
CONTINUOUS
 10
1.584147396
 20
19.9834662146
 11
0.0777850584
 21
19.9834662146
  0
LINE
  5
40F
100
AcDbEntity
  8
RACCORDO
100
AcDbLine
 62
253
  6
CONTINUOUS
 10
1.5600841907
 20
20.2265470829
 11
0.053721853
 21
20.2265470829
  0
LINE
  5
410
100
AcDbEntity
  8
RACCORDO
100
AcDbLine
 62
253
  6
CONTINUOUS
 10
-0.1941930894
 20
20.2265470829
 11
-1.7005554271
 21
20.2265470829
  0
LINE
  5
411
100
AcDbEntity
  8
DRAFT
100
AcDbLine
 62
7
  6
CONTINUOUS
 10
1.5927701984
 20
20.5328306964
 11
6.9740674308
 21
20.5328306964
  0
LINE
  5
412
100
AcDbEntity
  8
DRAFT
100
AcDbLine
 62
7
  6
CONTINUOUS
 10
-1.7332414347
 20
20.5328306964
 11
-7.1145386672
 21
20.5328306964
  0
LINE
  5
413
100
AcDbEntity
  8
DRAFT
100
AcDbLine
 62
7
  6
CONTINUOUS
 10
7.5854613328
 20
20.5328306964
 11
14.7740674308
 21
20.5328306964
  0
LINE
  5
414
100
AcDbEntity
  8
DRAFT
100
AcDbLine
 62
7
  6
CONTINUOUS
 10
-7.7259325692
 20
20.5328306964
 11
-14.9145386672
 21
20.5328306964
  0
LINE
  5
415
100
AcDbEntity
  8
DRAFT
100
AcDbLine
 62
7
  6
CONTINUOUS
 10
15.3854613328
 20
20.5328306964
 11
20.7167585653
 21
20.5328306964
  0
LINE
  5
416
100
AcDbEntity
  8
DRAFT
100
AcDbLine
 62
7
  6
CONTINUOUS
 10
-15.5259325692
 20
20.5328306964
 11
-20.8572298016
 21
20.5328306964
  0
LINE
  5
417
100
AcDbEntity
  8
DRAFT
100
AcDbLine
 62
7
  6
CONTINUOUS
 10
1.5927002591
 20
20.5604422948
 11
6.9740674308
 21
20.5604422948
  0
LINE
  5
418
100
AcDbEntity
  8
DRAFT
100
AcDbLine
 62
7
  6
CONTINUOUS
 10
-1.7331714954
 20
20.5604422948
 11
-7.1145386672
 21
20.5604422948
  0
LINE
  5
419
100
AcDbEntity
  8
DRAFT
100
AcDbLine
 62
7
  6
CONTINUOUS
 10
7.5854613328
 20
20.5604422948
 11
14.7740674308
 21
20.5604422948
  0
LINE
  5
41A
100
AcDbEntity
  8
DRAFT
100
AcDbLine
 62
7
  6
CONTINUOUS
 10
-7.7259325692
 20
20.5604422948
 11
-14.9145386672
 21
20.5604422948
  0
LINE
  5
41B
100
AcDbEntity
  8
DRAFT
100
AcDbLine
 62
7
  6
CONTINUOUS
 10
15.3854613328
 20
20.5604422948
 11
20.7168285046
 21
20.5604422948
  0
LINE
  5
41C
100
AcDbEntity
  8
DRAFT
100
AcDbLine
 62
7
  6
CONTINUOUS
 10
-15.5259325692
 20
20.5604422948
 11
-20.8572997409
 21
20.5604422948
  0
LINE
  5
41D
100
AcDbEntity
  8
RACCORDO
100
AcDbLine
 62
253
  6
CONTINUOUS
 10
1.5543467247
 20
20.6588084852
 11
0.047984387
 21
20.6588084852
  0
LINE
  5
41E
100
AcDbEntity
  8
RACCORDO
100
AcDbLine
 62
253
  6
CONTINUOUS
 10
-0.1884556234
 20
20.6588084852
 11
-1.6948179611
 21
20.6588084852
  0
LINE
  5
41F
100
AcDbEntity
  8
RACCORDO
100
AcDbLine
 62
7
  6
CONTINUOUS
 10
-15.2259325692
 20
20.665551022
 11
-15.2145386672
 21
20.665551022
  0
LINE
  5
420
100
AcDbEntity
  8
RACCORDO
100
AcDbLine
 62
7
  6
CONTINUOUS
 10
15.0854613328
 20
20.665551022
 11
15.0740674308
 21
20.665551022
  0
LINE
  5
421
100
AcDbEntity
  8
RACCORDO
100
AcDbLine
 62
7
  6
CONTINUOUS
 10
-7.4259325692
 20
20.665551022
 11
-7.4145386672
 21
20.665551022
  0
LINE
  5
422
100
AcDbEntity
  8
RACCORDO
100
AcDbLine
 62
7
  6
CONTINUOUS
 10
7.2854613328
 20
20.665551022
 11
7.2740674308
 21
20.665551022
  0
LINE
  5
423
100
AcDbEntity
  8
DRAFT
100
AcDbLine
 62
7
  6
CONTINUOUS
 10
-20.8951927175
 20
20.6742136706
 11
-1.6952785188
 21
20.6742136706
  0
LINE
  5
424
100
AcDbEntity
  8
DRAFT
100
AcDbLine
 62
7
  6
CONTINUOUS
 10
1.5548072825
 20
20.6742136706
 11
20.7547214812
 21
20.6742136706
  0
LINE
  5
425
100
AcDbEntity
  8
DRAFT
100
AcDbLine
 62
7
  6
CONTINUOUS
 10
-22.4015550552
 20
20.9328306964
 11
-20.8951927175
 21
20.9328306964
  0
LINE
  5
426
100
AcDbEntity
  8
DRAFT
100
AcDbLine
 62
7
  6
CONTINUOUS
 10
-1.6952785188
 20
20.9328306964
 11
-0.1889161812
 21
20.9328306964
  0
LINE
  5
427
100
AcDbEntity
  8
DRAFT
100
AcDbLine
 62
7
  6
CONTINUOUS
 10
0.0484449448
 20
20.9328306964
 11
1.5548072825
 21
20.9328306964
  0
LINE
  5
428
100
AcDbEntity
  8
DRAFT
100
AcDbLine
 62
7
  6
CONTINUOUS
 10
20.7547214812
 20
20.9328306964
 11
22.2610838188
 21
20.9328306964
  0
LINE
  5
429
100
AcDbEntity
  8
RACCORDO
100
AcDbLine
 62
7
  6
CONTINUOUS
 10
14.7927476296
 20
17.2127881291
 11
14.8310781218
 21
17.097703139
  0
LINE
  5
42A
100
AcDbEntity
  8
DRAFT
100
AcDbLine
 62
7
  6
CONTINUOUS
 10
22.2861267195
 20
-5.1801778659
 11
22.2062651427
 21
-4.9334017289
  0
LINE
  5
42B
100
AcDbEntity
  8
RACCORDO
100
AcDbLine
 62
7
  6
CONTINUOUS
 10
22.2610838188
 20
-21.6804379697
 11
22.2610838188
 21
-20.8671693036
  0
LINE
  5
42C
100
AcDbEntity
  8
RACCORDO
100
AcDbLine
 62
7
  6
CONTINUOUS
 10
22.2610838188
 20
20.9328306964
 11
22.2610838188
 21
21.7460993625
  0
LINE
  5
42D
100
AcDbEntity
  8
DRAFT
100
AcDbLine
 62
7
  6
CONTINUOUS
 10
22.2610838188
 20
20.9328306964
 11
22.2861267195
 21
5.2458392587
  0
LINE
  5
42E
100
AcDbEntity
  8
DRAFT
100
AcDbLine
 62
7
  6
CONTINUOUS
 10
22.2610838188
 20
-20.8671693036
 11
22.2861267195
 21
-5.1801778659
  0
LINE
  5
42F
100
AcDbEntity
  8
RACCORDO
100
AcDbLine
 62
7
  6
CONTINUOUS
 10
0.5479967675
 20
22.2464789738
 11
21.7615319962
 21
22.2464789738
  0
LINE
  5
430
100
AcDbEntity
  8
RACCORDO
100
AcDbLine
 62
7
  6
CONTINUOUS
 10
-0.6884680038
 20
22.2464789738
 11
-21.9020032325
 21
22.2464789738
  0
SPLINE
  5
431
100
AcDbEntity
  8
0
100
AcDbSpline
 62
7
  6
CONTINUOUS
 70
0
 71
3
 72
8
 73
4
 74
2
 42
0.0000001
 43
0.0000001
 44
0.0000000001
 12
0.2363600302
 22
-0.2302472946
 32
0.0
 13
0.0000000287
 23
-0.3356065233
 33
0.0
 40
0.0
 40
0.0
 40
0.0
 40
0.0
 40
1.0
 40
1.0
 40
1.0
 40
1.0
 10
6.6405411133
 20
-2.7857817153
 30
0.0
 10
6.71932779
 20
-2.8625308135
 30
0.0
 10
6.7602555574
 20
-2.9566646544
 30
0.0
 10
6.760255567
 20
-3.0685334955
 30
0.0
 11
6.6405411133
 21
-2.7857817153
 31
0.0
 11
6.760255567
 21
-3.0685334955
 31
0.0
  0
SPLINE
  5
432
100
AcDbEntity
  8
0
100
AcDbSpline
 62
7
  6
CONTINUOUS
 70
0
 71
3
 72
8
 73
4
 74
2
 42
0.0000001
 43
0.0000001
 44
0.0000000001
 12
0.0000000287
 22
-0.3356066277
 32
0.0
 13
-0.2373805739
 23
-0.2210097126
 33
0.0
 40
0.0
 40
0.0
 40
0.0
 40
0.0
 40
1.0
 40
1.0
 40
1.0
 40
1.0
 10
6.760255567
 20
-3.0685334955
 30
0.0
 10
6.7602555766
 20
-3.1804023714
 30
0.0
 10
6.7193278085
 20
-3.2731720072
 30
0.0
 10
6.6402009505
 20
-3.3468419114
 30
0.0
 11
6.760255567
 21
-3.0685334955
 31
0.0
 11
6.6402009505
 21
-3.3468419114
 31
0.0
  0
SPLINE
  5
433
100
AcDbEntity
  8
0
100
AcDbSpline
 62
7
  6
CONTINUOUS
 70
0
 71
3
 72
8
 73
4
 74
2
 42
0.0000001
 43
0.0000001
 44
0.0000000001
 12
-0.2373806419
 22
-0.2210097759
 32
0.0
 13
-0.4133697152
 23
0.0
 33
0.0
 40
0.0
 40
0.0
 40
0.0
 40
0.0
 40
1.0
 40
1.0
 40
1.0
 40
1.0
 10
6.6402009505
 20
-3.3468419114
 30
0.0
 10
6.5610740699
 20
-3.4205118367
 30
0.0
 10
6.4519335546
 20
-3.4573465535
 30
0.0
 10
6.3141436495
 20
-3.4573465535
 30
0.0
 11
6.6402009505
 21
-3.3468419114
 31
0.0
 11
6.3141436495
 21
-3.4573465535
 31
0.0
  0
SPLINE
  5
434
100
AcDbEntity
  8
0
100
AcDbSpline
 62
7
  6
CONTINUOUS
 70
0
 71
3
 72
8
 73
4
 74
2
 42
0.0000001
 43
0.0000001
 44
0.0000000001
 12
-0.4338335395
 22
0.0
 32
0.0
 13
-0.2495433152
 23
0.2211401419
 33
0.0
 40
0.0
 40
0.0
 40
0.0
 40
0.0
 40
1.0
 40
1.0
 40
1.0
 40
1.0
 10
6.3141436495
 20
-3.4573465535
 30
0.0
 10
6.1695324697
 20
-3.4573465535
 30
0.0
 10
6.0562991716
 20
-3.4191476056
 30
0.0
 10
5.9731180665
 20
-3.345434225
 30
0.0
 11
6.3141436495
 21
-3.4573465535
 31
0.0
 11
5.9731180665
 21
-3.345434225
 31
0.0
  0
SPLINE
  5
435
100
AcDbEntity
  8
0
100
AcDbSpline
 62
7
  6
CONTINUOUS
 70
0
 71
3
 72
8
 73
4
 74
2
 42
0.0000001
 43
0.0000001
 44
0.0000000001
 12
-0.2538673519
 22
0.2249720141
 32
0.0
 13
-0.0
 23
0.311050415
 33
0.0
 40
0.0
 40
0.0
 40
0.0
 40
0.0
 40
1.0
 40
1.0
 40
1.0
 40
1.0
 10
5.9731180665
 20
-3.345434225
 30
0.0
 10
5.8884956159
 20
-3.2704435537
 30
0.0
 10
5.8475679226
 20
-3.1817666242
 30
0.0
 10
5.8475679226
 20
-3.0780831525
 30
0.0
 11
5.9731180665
 21
-3.345434225
 31
0.0
 11
5.8475679226
 21
-3.0780831525
 31
0.0
  0
SPLINE
  5
436
100
AcDbEntity
  8
0
100
AcDbSpline
 62
7
  6
CONTINUOUS
 70
0
 71
3
 72
8
 73
4
 74
2
 42
0.0000001
 43
0.0000001
 44
0.0000000001
 12
-0.0
 22
0.2128229141
 32
0.0
 13
0.1218581482
 23
0.1929419996
 33
0.0
 40
0.0
 40
0.0
 40
0.0
 40
0.0
 40
1.0
 40
1.0
 40
1.0
 40
1.0
 10
5.8475679226
 20
-3.0780831525
 30
0.0
 10
5.8475679226
 20
-3.0071421811
 30
0.0
 10
5.8666675158
 20
-2.9389291951
 30
0.0
 10
5.9072868985
 20
-2.8746151953
 30
0.0
 11
5.8475679226
 21
-3.0780831525
 31
0.0
 11
5.9072868985
 21
-2.8746151953
 31
0.0
  0
SPLINE
  5
437
100
AcDbEntity
  8
0
100
AcDbSpline
 62
7
  6
CONTINUOUS
 70
0
 71
3
 72
8
 73
4
 74
2
 42
0.0000001
 43
0.0000001
 44
0.0000000001
 12
0.123708056
 22
0.1958710192
 32
0.0
 13
0.2329286915
 23
0.1071885759
 33
0.0
 40
0.0
 40
0.0
 40
0.0
 40
0.0
 40
1.0
 40
1.0
 40
1.0
 40
1.0
 10
5.9072868985
 20
-2.8746151953
 30
0.0
 10
5.9485229172
 20
-2.8093248555
 30
0.0
 10
6.0071859278
 20
-2.7588473508
 30
0.0
 10
6.084828825
 20
-2.7231178255
 30
0.0
 11
5.9072868985
 21
-2.8746151953
 31
0.0
 11
6.084828825
 21
-2.7231178255
 31
0.0
  0
SPLINE
  5
438
100
AcDbEntity
  8
0
100
AcDbSpline
 62
7
  6
CONTINUOUS
 70
0
 71
3
 72
8
 73
4
 74
2
 42
0.0000001
 43
0.0000001
 44
0.0000000001
 12
0.2295543271
 22
0.1056357688
 32
0.0
 13
0.2537516356
 23
0.0
 33
0.0
 40
0.0
 40
0.0
 40
0.0
 40
0.0
 40
1.0
 40
1.0
 40
1.0
 40
1.0
 10
6.084828825
 20
-2.7231178255
 30
0.0
 10
6.161346934
 20
-2.6879059026
 30
0.0
 10
6.2432023205
 20
-2.6701708982
 30
0.0
 10
6.327786199
 20
-2.6701708982
 30
0.0
 11
6.084828825
 21
-2.7231178255
 31
0.0
 11
6.327786199
 21
-2.6701708982
 31
0.0
  0
SPLINE
  5
439
100
AcDbEntity
  8
0
100
AcDbSpline
 62
7
  6
CONTINUOUS
 70
0
 71
3
 72
8
 73
4
 74
2
 42
0.0000001
 43
0.0000001
 44
0.0000000001
 12
0.3847203255
 22
0.0
 32
0.0
 13
0.2384011301
 23
-0.2322356077
 33
0.0
 40
0.0
 40
0.0
 40
0.0
 40
0.0
 40
1.0
 40
1.0
 40
1.0
 40
1.0
 10
6.327786199
 20
-2.6701708982
 30
0.0
 10
6.4560263075
 20
-2.6701708982
 30
0.0
 10
6.5610740699
 20
-2.7083698461
 30
0.0
 10
6.6405411133
 20
-2.7857817153
 30
0.0
 11
6.327786199
 21
-2.6701708982
 31
0.0
 11
6.6405411133
 21
-2.7857817153
 31
0.0
  0
SPLINE
  5
43A
100
AcDbEntity
  8
0
100
AcDbSpline
 62
7
  6
CONTINUOUS
 70
0
 71
3
 72
8
 73
4
 74
2
 42
0.0000001
 43
0.0000001
 44
0.0000000001
 12
0.2631023094
 22
0.3018532819
 32
0.0
 13
-0.0
 23
0.4706697464
 33
0.0
 40
0.0
 40
0.0
 40
0.0
 40
0.0
 40
1.0
 40
1.0
 40
1.0
 40
1.0
 10
7.5552286568
 20
-3.4911160361
 30
0.0
 10
7.6429294266
 20
-3.3904982755
 30
0.0
 10
7.6879500069
 20
-3.262258167
 30
0.0
 10
7.6879500069
 20
-3.1053682515
 30
0.0
 11
7.5552286568
 21
-3.4911160361
 31
0.0
 11
7.6879500069
 21
-3.1053682515
 31
0.0
  0
SPLINE
  5
43B
100
AcDbEntity
  8
0
100
AcDbSpline
 62
7
  6
CONTINUOUS
 70
0
 71
3
 72
8
 73
4
 74
2
 42
0.0000001
 43
0.0000001
 44
0.0000000001
 12
-0.0
 22
0.6343789101
 32
0.0
 13
-0.4582152856
 23
0.3726568339
 33
0.0
 40
0.0
 40
0.0
 40
0.0
 40
0.0
 40
1.0
 40
1.0
 40
1.0
 40
1.0
 10
7.6879500069
 20
-3.1053682515
 30
0.0
 10
7.6879500069
 20
-2.8939086148
 30
0.0
 10
7.611551515
 20
-2.7261053273
 30
0.0
 10
7.4588130865
 20
-2.6018863827
 30
0.0
 11
7.6879500069
 21
-3.1053682515
 31
0.0
 11
7.4588130865
 21
-2.6018863827
 31
0.0
  0
SPLINE
  5
43C
100
AcDbEntity
  8
0
100
AcDbSpline
 62
7
  6
CONTINUOUS
 70
0
 71
3
 72
8
 73
4
 74
2
 42
0.0000001
 43
0.0000001
 44
0.0000000001
 12
-0.5281420457
 22
0.4295267941
 32
0.0
 13
-1.1582536697
 23
0.0
 33
0.0
 40
0.0
 40
0.0
 40
0.0
 40
0.0
 40
1.0
 40
1.0
 40
1.0
 40
1.0
 10
7.4588130865
 20
-2.6018863827
 30
0.0
 10
7.2827657379
 20
-2.4587107846
 30
0.0
 10
7.0017288842
 20
-2.3877698133
 30
0.0
 10
6.6156443276
 20
-2.3877698133
 30
0.0
 11
7.4588130865
 21
-2.6018863827
 31
0.0
 11
6.6156443276
 21
-2.3877698133
 31
0.0
  0
SPLINE
  5
43D
100
AcDbEntity
  8
0
100
AcDbSpline
 62
7
  6
CONTINUOUS
 70
0
 71
3
 72
8
 73
4
 74
2
 42
0.0000001
 43
0.0000001
 44
0.0000000001
 12
-1.0395634174
 22
0.0
 32
0.0
 13
-0.4512146025
 23
-0.3876343147
 33
0.0
 40
0.0
 40
0.0
 40
0.0
 40
0.0
 40
1.0
 40
1.0
 40
1.0
 40
1.0
 10
6.6156443276
 20
-2.3877698133
 30
0.0
 10
6.2691231884
 20
-2.3877698133
 30
0.0
 10
6.0208285071
 20
-2.4518896291
 30
0.0
 10
5.8704236396
 20
-2.5811010673
 30
0.0
 11
6.6156443276
 21
-2.3877698133
 31
0.0
 11
5.8704236396
 21
-2.5811010673
 31
0.0
  0
SPLINE
  5
43E
100
AcDbEntity
  8
0
100
AcDbSpline
 62
7
  6
CONTINUOUS
 70
0
 71
3
 72
8
 73
4
 74
2
 42
0.0000001
 43
0.0000001
 44
0.0000000001
 12
-0.4491946937
 22
-0.3858990296
 32
0.0
 13
0.0
 23
-0.6139154434
 33
0.0
 40
0.0
 40
0.0
 40
0.0
 40
0.0
 40
1.0
 40
1.0
 40
1.0
 40
1.0
 10
5.8704236396
 20
-2.5811010673
 30
0.0
 10
5.7206920751
 20
-2.7097340772
 30
0.0
 10
5.6456579708
 20
-2.8775378415
 30
0.0
 10
5.6456579708
 20
-3.0821763227
 30
0.0
 11
5.8704236396
 21
-2.5811010673
 31
0.0
 11
5.6456579708
 21
-3.0821763227
 31
0.0
  0
SPLINE
  5
43F
100
AcDbEntity
  8
0
100
AcDbSpline
 62
7
  6
CONTINUOUS
 70
0
 71
3
 72
8
 73
4
 74
2
 42
0.0000001
 43
0.0000001
 44
0.0000000001
 12
0.0
 22
-0.360162735
 32
0.0
 13
0.1728012694
 23
-0.2859453999
 33
0.0
 40
0.0
 40
0.0
 40
0.0
 40
0.0
 40
1.0
 40
1.0
 40
1.0
 40
1.0
 10
5.6456579708
 20
-3.0821763227
 30
0.0
 10
5.6456579708
 20
-3.2022305677
 30
0.0
 10
5.6743073559
 20
-3.3086425016
 30
0.0
 10
5.731907779
 20
-3.4039576349
 30
0.0
 11
5.6456579708
 21
-3.0821763227
 31
0.0
 11
5.731907779
 21
-3.4039576349
 31
0.0
  0
SPLINE
  5
440
100
AcDbEntity
  8
0
100
AcDbSpline
 62
7
  6
CONTINUOUS
 70
0
 71
3
 72
8
 73
4
 74
2
 42
0.0000001
 43
0.0000001
 44
0.0000000001
 12
0.1709913544
 22
-0.2829504169
 32
0.0
 13
0.3233287724
 23
-0.1637105762
 33
0.0
 40
0.0
 40
0.0
 40
0.0
 40
0.0
 40
1.0
 40
1.0
 40
1.0
 40
1.0
 10
5.731907779
 20
-3.4039576349
 30
0.0
 10
5.7889048972
 20
-3.4982744405
 30
0.0
 10
5.8707602836
 20
-3.5719443509
 30
0.0
 10
5.9785365411
 20
-3.626514543
 30
0.0
 11
5.731907779
 21
-3.4039576349
 31
0.0
 11
5.9785365411
 21
-3.626514543
 31
0.0
  0
SPLINE
  5
441
100
AcDbEntity
  8
0
100
AcDbSpline
 62
7
  6
CONTINUOUS
 70
0
 71
3
 72
8
 73
4
 74
2
 42
0.0000001
 43
0.0000001
 44
0.0000000001
 12
0.3233288435
 22
-0.1637106122
 32
0.0
 13
0.3765349388
 23
0.0
 33
0.0
 40
0.0
 40
0.0
 40
0.0
 40
0.0
 40
1.0
 40
1.0
 40
1.0
 40
1.0
 10
5.9785365411
 20
-3.626514543
 30
0.0
 10
6.0863128223
 20
-3.681084747
 30
0.0
 10
6.2036388435
 20
-3.7083698461
 30
0.0
 10
6.3291504897
 20
-3.7083698461
 30
0.0
 11
5.9785365411
 21
-3.626514543
 31
0.0
 11
6.3291504897
 21
-3.7083698461
 31
0.0
  0
SPLINE
  5
442
100
AcDbEntity
  8
0
100
AcDbSpline
 62
7
  6
CONTINUOUS
 70
0
 71
3
 72
8
 73
4
 74
2
 42
0.0000001
 43
0.0000001
 44
0.0000000001
 12
0.5729876161
 22
0.0
 32
0.0
 13
0.3601640289
 23
0.3437929733
 33
0.0
 40
0.0
 40
0.0
 40
0.0
 40
0.0
 40
1.0
 40
1.0
 40
1.0
 40
1.0
 10
6.3291504897
 20
-3.7083698461
 30
0.0
 10
6.5201463618
 20
-3.7083698461
 30
0.0
 10
6.6756716289
 20
-3.6497069547
 30
0.0
 10
6.7957263052
 20
-3.5351092969
 30
0.0
 11
6.3291504897
 21
-3.7083698461
 31
0.0
 11
6.7957263052
 21
-3.5351092969
 31
0.0
  0
SPLINE
  5
443
100
AcDbEntity
  8
0
100
AcDbSpline
 62
7
  6
CONTINUOUS
 70
0
 71
3
 72
8
 73
4
 74
2
 42
0.0000001
 43
0.0000001
 44
0.0000000001
 12
0.360163408
 22
0.3437923806
 32
0.0
 13
-0.0
 23
0.4911317825
 33
0.0
 40
0.0
 40
0.0
 40
0.0
 40
0.0
 40
1.0
 40
1.0
 40
1.0
 40
1.0
 10
6.7957263052
 20
-3.5351092969
 30
0.0
 10
6.9157807745
 20
-3.4205118367
 30
0.0
 10
6.9771722473
 20
-3.2813574025
 30
0.0
 10
6.9771722473
 20
-3.1176468084
 30
0.0
 11
6.7957263052
 21
-3.5351092969
 31
0.0
 11
6.9771722473
 21
-3.1176468084
 31
0.0
  0
SPLINE
  5
444
100
AcDbEntity
  8
0
100
AcDbSpline
 62
7
  6
CONTINUOUS
 70
0
 71
3
 72
8
 73
4
 74
2
 42
0.0000001
 43
0.0000001
 44
0.0000000001
 12
-0.0
 22
0.2824015617
 32
0.0
 13
-0.1301381767
 23
0.2541762429
 33
0.0
 40
0.0
 40
0.0
 40
0.0
 40
0.0
 40
1.0
 40
1.0
 40
1.0
 40
1.0
 10
6.9771722473
 20
-3.1176468084
 30
0.0
 10
6.9771722473
 20
-3.0235129544
 30
0.0
 10
6.955344192
 20
-2.9334722707
 30
0.0
 10
6.9119647997
 20
-2.8487468564
 30
0.0
 11
6.9771722473
 21
-3.1176468084
 31
0.0
 11
6.9119647997
 21
-2.8487468564
 31
0.0
  0
SPLINE
  5
445
100
AcDbEntity
  8
0
100
AcDbSpline
 62
7
  6
CONTINUOUS
 70
0
 71
3
 72
8
 73
4
 74
2
 42
0.0000001
 43
0.0000001
 44
0.0000000001
 12
-0.1317992032
 22
0.2574204368
 32
0.0
 13
-0.2701227665
 23
0.1759886742
 33
0.0
 40
0.0
 40
0.0
 40
0.0
 40
0.0
 40
1.0
 40
1.0
 40
1.0
 40
1.0
 10
6.9119647997
 20
-2.8487468564
 30
0.0
 10
6.868031732
 20
-2.7629400441
 30
0.0
 10
6.8011832156
 20
-2.6906343648
 30
0.0
 10
6.7111422934
 20
-2.6319714734
 30
0.0
 11
6.9119647997
 21
-2.8487468564
 31
0.0
 11
6.7111422934
 21
-2.6319714734
 31
0.0
  0
SPLINE
  5
446
100
AcDbEntity
  8
0
100
AcDbSpline
 62
7
  6
CONTINUOUS
 70
0
 71
3
 72
8
 73
4
 74
2
 42
0.0000001
 43
0.0000001
 44
0.0000000001
 12
0.5975443125
 22
-0.0040926933
 32
0.0
 13
0.3278438811
 23
-0.1340238859
 33
0.0
 40
0.0
 40
0.0
 40
0.0
 40
0.0
 40
1.0
 40
1.0
 40
1.0
 40
1.0
 10
6.7111422934
 20
-2.6319714734
 30
0.0
 10
6.9103237309
 20
-2.6333357045
 30
0.0
 10
7.0644847073
 20
-2.6565281102
 30
0.0
 10
7.173766001
 20
-2.7012027389
 30
0.0
 11
6.7111422934
 21
-2.6319714734
 31
0.0
 11
7.173766001
 21
-2.7012027389
 31
0.0
  0
SPLINE
  5
447
100
AcDbEntity
  8
0
100
AcDbSpline
 62
7
  6
CONTINUOUS
 70
0
 71
3
 72
8
 73
4
 74
2
 42
0.0000001
 43
0.0000001
 44
0.0000000001
 12
0.3229065175
 22
-0.132005472
 32
0.0
 13
0.1723718791
 23
-0.2329349168
 33
0.0
 40
0.0
 40
0.0
 40
0.0
 40
0.0
 40
1.0
 40
1.0
 40
1.0
 40
1.0
 10
7.173766001
 20
-2.7012027389
 30
0.0
 10
7.2814015068
 20
-2.7452045629
 30
0.0
 10
7.3632569231
 20
-2.8065963933
 30
0.0
 10
7.4207142162
 20
-2.8842413656
 30
0.0
 11
7.173766001
 21
-2.7012027389
 31
0.0
 11
7.4207142162
 21
-2.8842413656
 31
0.0
  0
SPLINE
  5
448
100
AcDbEntity
  8
0
100
AcDbSpline
 62
7
  6
CONTINUOUS
 70
0
 71
3
 72
8
 73
4
 74
2
 42
0.0000001
 43
0.0000001
 44
0.0000000001
 12
0.1304927916
 22
-0.1763415686
 32
0.0
 13
0.0
 23
-0.2373805046
 33
0.0
 40
0.0
 40
0.0
 40
0.0
 40
0.0
 40
1.0
 40
1.0
 40
1.0
 40
1.0
 10
7.4207142162
 20
-2.8842413656
 30
0.0
 10
7.4642118134
 20
-2.9430218885
 30
0.0
 10
7.486039988
 20
-3.0112348745
 30
0.0
 10
7.486039988
 20
-3.0903617093
 30
0.0
 11
7.4207142162
 21
-2.8842413656
 31
0.0
 11
7.486039988
 21
-3.0903617093
 31
0.0
  0
SPLINE
  5
449
100
AcDbEntity
  8
0
100
AcDbSpline
 62
7
  6
CONTINUOUS
 70
0
 71
3
 72
8
 73
4
 74
2
 42
0.0000001
 43
0.0000001
 44
0.0000000001
 12
0.0
 22
-0.2905869484
 32
0.0
 13
-0.2108998442
 23
-0.1981950397
 33
0.0
 40
0.0
 40
0.0
 40
0.0
 40
0.0
 40
1.0
 40
1.0
 40
1.0
 40
1.0
 10
7.486039988
 20
-3.0903617093
 30
0.0
 10
7.486039988
 20
-3.1872240255
 30
0.0
 10
7.4505692639
 20
-3.2690793225
 30
0.0
 10
7.3802693158
 20
-3.3351443358
 30
0.0
 11
7.486039988
 21
-3.0903617093
 31
0.0
 11
7.3802693158
 21
-3.3351443358
 31
0.0
  0
SPLINE
  5
44A
100
AcDbEntity
  8
0
100
AcDbSpline
 62
7
  6
CONTINUOUS
 70
0
 71
3
 72
8
 73
4
 74
2
 42
0.0000001
 43
0.0000001
 44
0.0000000001
 12
-0.1287997817
 22
-0.121040762
 32
0.0
 13
-0.2864938974
 23
-0.0654845238
 33
0.0
 40
0.0
 40
0.0
 40
0.0
 40
0.0
 40
1.0
 40
1.0
 40
1.0
 40
1.0
 10
7.3802693158
 20
-3.3351443358
 30
0.0
 10
7.3373360552
 20
-3.3754912564
 30
0.0
 10
7.2663947262
 20
-3.4068690488
 30
0.0
 10
7.1708967604
 20
-3.4286972234
 30
0.0
 11
7.3802693158
 21
-3.3351443358
 31
0.0
 11
7.1708967604
 21
-3.4286972234
 31
0.0
  0
SPLINE
  5
44B
100
AcDbEntity
  8
0
100
AcDbSpline
 62
7
  6
CONTINUOUS
 70
0
 71
3
 72
8
 73
4
 74
2
 42
0.0000001
 43
0.0000001
 44
0.0000000001
 12
0.4665756226
 22
0.0613918304
 32
0.0
 13
0.2648647859
 23
0.3038753444
 33
0.0
 40
0.0
 40
0.0
 40
0.0
 40
0.0
 40
1.0
 40
1.0
 40
1.0
 40
1.0
 10
7.1899963536
 20
-3.6728993604
 30
0.0
 10
7.3455215611
 20
-3.6524354169
 30
0.0
 10
7.4669403948
 20
-3.5924078176
 30
0.0
 10
7.5552286568
 20
-3.4911160361
 30
0.0
 11
7.1899963536
 21
-3.6728993604
 31
0.0
 11
7.5552286568
 21
-3.4911160361
 31
0.0
  0
SPLINE
  5
44C
100
AcDbEntity
  8
0
100
AcDbSpline
 62
7
  6
CONTINUOUS
 70
0
 71
3
 72
8
 73
4
 74
2
 42
0.0000001
 43
0.0000001
 44
0.0000000001
 12
0.2873352698
 22
-0.1993389081
 32
0.0
 13
0.0
 23
-0.3397006989
 33
0.0
 40
0.0
 40
0.0
 40
0.0
 40
0.0
 40
1.0
 40
1.0
 40
1.0
 40
1.0
 10
7.3411482911
 20
-1.2244611944
 30
0.0
 10
7.4369267144
 20
-1.2909074971
 30
0.0
 10
7.4846757569
 20
-1.3809481809
 30
0.0
 10
7.4846757569
 20
-1.4941817472
 30
0.0
 11
7.3411482911
 21
-1.2244611944
 31
0.0
 11
7.4846757569
 21
-1.4941817472
 31
0.0
  0
SPLINE
  5
44D
100
AcDbEntity
  8
0
100
AcDbSpline
 62
7
  6
CONTINUOUS
 70
0
 71
3
 72
8
 73
4
 74
2
 42
0.0000001
 43
0.0000001
 44
0.0000000001
 12
0.0
 22
-0.3437919617
 32
0.0
 13
-0.3240060674
 23
-0.228230698
 33
0.0
 40
0.0
 40
0.0
 40
0.0
 40
0.0
 40
1.0
 40
1.0
 40
1.0
 40
1.0
 10
7.4846757569
 20
-1.4941817472
 30
0.0
 10
7.4846757569
 20
-1.6087790677
 30
0.0
 10
7.4301054396
 20
-1.7042771527
 30
0.0
 10
7.3221034171
 20
-1.7803540521
 30
0.0
 11
7.4846757569
 21
-1.4941817472
 31
0.0
 11
7.3221034171
 21
-1.7803540521
 31
0.0
  0
SPLINE
  5
44E
100
AcDbEntity
  8
0
100
AcDbSpline
 62
7
  6
CONTINUOUS
 70
0
 71
3
 72
8
 73
4
 74
2
 42
0.0000001
 43
0.0000001
 44
0.0000000001
 12
-0.3267443312
 22
-0.2301595379
 32
0.0
 13
-0.9863573313
 23
0.0
 33
0.0
 40
0.0
 40
0.0
 40
0.0
 40
0.0
 40
1.0
 40
1.0
 40
1.0
 40
1.0
 10
7.3221034171
 20
-1.7803540521
 30
0.0
 10
7.2131886401
 20
-1.857073898
 30
0.0
 10
6.9949076094
 20
-1.8966370771
 30
0.0
 10
6.6661218323
 20
-1.8966370771
 30
0.0
 11
7.3221034171
 21
-1.7803540521
 31
0.0
 11
6.6661218323
 21
-1.8966370771
 31
0.0
  0
SPLINE
  5
44F
100
AcDbEntity
  8
0
100
AcDbSpline
 62
7
  6
CONTINUOUS
 70
0
 71
3
 72
8
 73
4
 74
2
 42
0.0000001
 43
0.0000001
 44
0.0000000001
 12
-0.9822646379
 22
0.0
 32
0.0
 13
-0.327421546
 23
0.229195118
 33
0.0
 40
0.0
 40
0.0
 40
0.0
 40
0.0
 40
1.0
 40
1.0
 40
1.0
 40
1.0
 10
6.6661218323
 20
-1.8966370771
 30
0.0
 10
6.3387002863
 20
-1.8966370771
 30
0.0
 10
6.1204192259
 20
-1.857073898
 30
0.0
 10
6.0112787105
 20
-1.7806755254
 30
0.0
 11
6.6661218323
 21
-1.8966370771
 31
0.0
 11
6.0112787105
 21
-1.7806755254
 31
0.0
  0
SPLINE
  5
450
100
AcDbEntity
  8
0
100
AcDbSpline
 62
7
  6
CONTINUOUS
 70
0
 71
3
 72
8
 73
4
 74
2
 42
0.0000001
 43
0.0000001
 44
0.0000000001
 12
-0.327421546
 22
0.229195118
 32
0.0
 13
0.0
 23
0.335606575
 33
0.0
 40
0.0
 40
0.0
 40
0.0
 40
0.0
 40
1.0
 40
1.0
 40
1.0
 40
1.0
 10
6.0112787105
 20
-1.7806755254
 30
0.0
 10
5.9021381952
 20
-1.7042771527
 30
0.0
 10
5.8475679226
 20
-1.6087790677
 30
0.0
 10
5.8475679226
 20
-1.4969102094
 30
0.0
 11
6.0112787105
 21
-1.7806755254
 31
0.0
 11
5.8475679226
 21
-1.4969102094
 31
0.0
  0
SPLINE
  5
451
100
AcDbEntity
  8
0
100
AcDbSpline
 62
7
  6
CONTINUOUS
 70
0
 71
3
 72
8
 73
4
 74
2
 42
0.0000001
 43
0.0000001
 44
0.0000000001
 12
0.0
 22
0.3397006989
 32
0.0
 13
0.327421546
 23
0.229195118
 33
0.0
 40
0.0
 40
0.0
 40
0.0
 40
0.0
 40
1.0
 40
1.0
 40
1.0
 40
1.0
 10
5.8475679226
 20
-1.4969102094
 30
0.0
 10
5.8475679226
 20
-1.3836766431
 30
0.0
 10
5.9007739343
 20
-1.2881790349
 30
0.0
 10
6.0099144496
 20
-1.2117806623
 30
0.0
 11
5.8475679226
 21
-1.4969102094
 31
0.0
 11
6.0099144496
 21
-1.2117806623
 31
0.0
  0
SPLINE
  5
452
100
AcDbEntity
  8
0
100
AcDbSpline
 62
7
  6
CONTINUOUS
 70
0
 71
3
 72
8
 73
4
 74
2
 42
0.0000001
 43
0.0000001
 44
0.0000000001
 12
0.327421546
 22
0.229195118
 32
0.0
 13
0.9863575101
 23
0.0
 33
0.0
 40
0.0
 40
0.0
 40
0.0
 40
0.0
 40
1.0
 40
1.0
 40
1.0
 40
1.0
 10
6.0099144496
 20
-1.2117806623
 30
0.0
 10
6.119054965
 20
-1.1353822896
 30
0.0
 10
6.3373359956
 20
-1.0971828649
 30
0.0
 10
6.6661218323
 20
-1.0971828649
 30
0.0
 11
6.0099144496
 21
-1.2117806623
 31
0.0
 11
6.6661218323
 21
-1.0971828649
 31
0.0
  0
SPLINE
  5
453
100
AcDbEntity
  8
0
100
AcDbSpline
 62
7
  6
CONTINUOUS
 70
0
 71
3
 72
8
 73
4
 74
2
 42
0.0000001
 43
0.0000001
 44
0.0000000001
 12
0.9822646379
 22
0.0
 32
0.0
 13
0.3675078222
 23
-0.2549586345
 33
0.0
 40
0.0
 40
0.0
 40
0.0
 40
0.0
 40
1.0
 40
1.0
 40
1.0
 40
1.0
 10
6.6661218323
 20
-1.0971828649
 30
0.0
 10
6.9935433783
 20
-1.0971828649
 30
0.0
 10
7.2186456837
 20
-1.1394749829
 30
0.0
 10
7.3411482911
 20
-1.2244611944
 30
0.0
 11
6.6661218323
 21
-1.0971828649
 31
0.0
 11
7.3411482911
 21
-1.2244611944
 31
0.0
  0
SPLINE
  5
454
100
AcDbEntity
  8
0
100
AcDbSpline
 62
7
  6
CONTINUOUS
 70
0
 71
3
 72
8
 73
4
 74
2
 42
0.0000001
 43
0.0000001
 44
0.0000000001
 12
-0.4162741642
 22
-0.3289306513
 32
0.0
 13
-0.0
 23
-0.5811738968
 33
0.0
 40
0.0
 40
0.0
 40
0.0
 40
0.0
 40
1.0
 40
1.0
 40
1.0
 40
1.0
 10
5.8526288476
 20
-1.0421095125
 30
0.0
 10
5.7138707929
 20
-1.1517530629
 30
0.0
 10
5.6456579708
 20
-1.3031855771
 30
0.0
 10
5.6456579708
 20
-1.4969102094
 30
0.0
 11
5.8526288476
 21
-1.0421095125
 31
0.0
 11
5.6456579708
 21
-1.4969102094
 31
0.0
  0
SPLINE
  5
455
100
AcDbEntity
  8
0
100
AcDbSpline
 62
7
  6
CONTINUOUS
 70
0
 71
3
 72
8
 73
4
 74
2
 42
0.0000001
 43
0.0000001
 44
0.0000000001
 12
-0.0
 22
-0.4379253387
 32
0.0
 13
0.2373806358
 23
-0.286494254
 33
0.0
 40
0.0
 40
0.0
 40
0.0
 40
0.0
 40
1.0
 40
1.0
 40
1.0
 40
1.0
 10
5.6456579708
 20
-1.4969102094
 30
0.0
 10
5.6456579708
 20
-1.6428853223
 30
0.0
 10
5.6838571511
 20
-1.7643042752
 30
0.0
 10
5.7629840296
 20
-1.8598023599
 30
0.0
 11
5.6456579708
 21
-1.4969102094
 31
0.0
 11
5.7629840296
 21
-1.8598023599
 31
0.0
  0
SPLINE
  5
456
100
AcDbEntity
  8
0
100
AcDbSpline
 62
7
  6
CONTINUOUS
 70
0
 71
3
 72
8
 73
4
 74
2
 42
0.0000001
 43
0.0000001
 44
0.0000000001
 12
0.2373806375
 22
-0.2864942561
 32
0.0
 13
0.4344458497
 23
-0.1454985406
 33
0.0
 40
0.0
 40
0.0
 40
0.0
 40
0.0
 40
1.0
 40
1.0
 40
1.0
 40
1.0
 10
5.7629840296
 20
-1.8598023599
 30
0.0
 10
5.8421109088
 20
-1.9553004453
 30
0.0
 10
5.9526156701
 20
-2.0276056478
 30
0.0
 10
6.0974309534
 20
-2.0761051613
 30
0.0
 11
5.7629840296
 21
-1.8598023599
 31
0.0
 11
6.0974309534
 21
-2.0761051613
 31
0.0
  0
SPLINE
  5
457
100
AcDbEntity
  8
0
100
AcDbSpline
 62
7
  6
CONTINUOUS
 70
0
 71
3
 72
8
 73
4
 74
2
 42
0.0000001
 43
0.0000001
 44
0.0000000001
 12
0.4332212292
 22
-0.1450884078
 32
0.0
 13
0.703956306
 23
0.0
 33
0.0
 40
0.0
 40
0.0
 40
0.0
 40
0.0
 40
1.0
 40
1.0
 40
1.0
 40
1.0
 10
6.0974309534
 20
-2.0761051613
 30
0.0
 10
6.2418380298
 20
-2.1244679639
 30
0.0
 10
6.4314697303
 20
-2.1490246007
 30
0.0
 10
6.6661218323
 20
-2.1490246007
 30
0.0
 11
6.0974309534
 21
-2.0761051613
 31
0.0
 11
6.6661218323
 21
-2.1490246007
 31
0.0
  0
SPLINE
  5
458
100
AcDbEntity
  8
0
100
AcDbSpline
 62
7
  6
CONTINUOUS
 70
0
 71
3
 72
8
 73
4
 74
2
 42
0.0000001
 43
0.0000001
 44
0.0000000001
 12
0.5934516191
 22
0.0
 32
0.0
 13
0.351978582
 23
0.0900414859
 33
0.0
 40
0.0
 40
0.0
 40
0.0
 40
0.0
 40
1.0
 40
1.0
 40
1.0
 40
1.0
 10
6.6661218323
 20
-2.1490246007
 30
0.0
 10
6.8639390387
 20
-2.1490246007
 30
0.0
 10
7.0208284773
 20
-2.1340180585
 30
0.0
 10
7.1381546713
 20
-2.1040042299
 30
0.0
 11
6.6661218323
 21
-2.1490246007
 31
0.0
 11
7.1381546713
 21
-2.1040042299
 31
0.0
  0
SPLINE
  5
459
100
AcDbEntity
  8
0
100
AcDbSpline
 62
7
  6
CONTINUOUS
 70
0
 71
3
 72
8
 73
4
 74
2
 42
0.0000001
 43
0.0000001
 44
0.0000000001
 12
0.3519779028
 22
0.0900413121
 32
0.0
 13
0.2446318754
 23
0.1569719983
 33
0.0
 40
0.0
 40
0.0
 40
0.0
 40
0.0
 40
1.0
 40
1.0
 40
1.0
 40
1.0
 10
7.1381546713
 20
-2.1040042299
 30
0.0
 10
7.2554806389
 20
-2.0739904592
 30
0.0
 10
7.3537070669
 20
-2.0316988179
 30
0.0
 10
7.4352510254
 20
-1.9793748185
 30
0.0
 11
7.1381546713
 21
-2.1040042299
 31
0.0
 11
7.4352510254
 21
-1.9793748185
 31
0.0
  0
SPLINE
  5
45A
100
AcDbEntity
  8
0
100
AcDbSpline
 62
7
  6
CONTINUOUS
 70
0
 71
3
 72
8
 73
4
 74
2
 42
0.0000001
 43
0.0000001
 44
0.0000000001
 12
0.2465006224
 22
0.15817111
 32
0.0
 13
0.1301142459
 23
0.2419308151
 33
0.0
 40
0.0
 40
0.0
 40
0.0
 40
0.0
 40
1.0
 40
1.0
 40
1.0
 40
1.0
 10
7.4352510254
 20
-1.9793748185
 30
0.0
 10
7.5174178995
 20
-1.9266511151
 30
0.0
 10
7.5788093724
 20
-1.8598023603
 30
0.0
 10
7.6221807877
 20
-1.7791587552
 30
0.0
 11
7.4352510254
 21
-1.9793748185
 31
0.0
 11
7.6221807877
 21
-1.7791587552
 31
0.0
  0
SPLINE
  5
45B
100
AcDbEntity
  8
0
100
AcDbSpline
 62
7
  6
CONTINUOUS
 70
0
 71
3
 72
8
 73
4
 74
2
 42
0.0000001
 43
0.0000001
 44
0.0000000001
 12
0.131823134
 22
0.2451082741
 32
0.0
 13
-0.0
 23
0.3192358017
 33
0.0
 40
0.0
 40
0.0
 40
0.0
 40
0.0
 40
1.0
 40
1.0
 40
1.0
 40
1.0
 10
7.6221807877
 20
-1.7791587552
 30
0.0
 10
7.6661218323
 20
-1.6974559972
 30
0.0
 10
7.6879500069
 20
-1.6033221433
 30
0.0
 10
7.6879500069
 20
-1.4969102094
 30
0.0
 11
7.6221807877
 21
-1.7791587552
 31
0.0
 11
7.6879500069
 21
-1.4969102094
 31
0.0
  0
SPLINE
  5
45C
100
AcDbEntity
  8
0
100
AcDbSpline
 62
7
  6
CONTINUOUS
 70
0
 71
3
 72
8
 73
4
 74
2
 42
0.0000001
 43
0.0000001
 44
0.0000000001
 12
-0.0
 22
0.4379267693
 32
0.0
 13
-0.2345072137
 23
0.2854868258
 33
0.0
 40
0.0
 40
0.0
 40
0.0
 40
0.0
 40
1.0
 40
1.0
 40
1.0
 40
1.0
 10
7.6879500069
 20
-1.4969102094
 30
0.0
 10
7.6879500069
 20
-1.3509346196
 30
0.0
 10
7.6483864703
 20
-1.2295156667
 30
0.0
 10
7.570217399
 20
-1.1343533914
 30
0.0
 11
7.6879500069
 21
-1.4969102094
 31
0.0
 11
7.570217399
 21
-1.1343533914
 31
0.0
  0
SPLINE
  5
45D
100
AcDbEntity
  8
0
100
AcDbSpline
 62
7
  6
CONTINUOUS
 70
0
 71
3
 72
8
 73
4
 74
2
 42
0.0000001
 43
0.0000001
 44
0.0000000001
 12
-0.2361611022
 22
0.2875002538
 32
0.0
 13
-0.4338333792
 23
0.1473397664
 33
0.0
 40
0.0
 40
0.0
 40
0.0
 40
0.0
 40
1.0
 40
1.0
 40
1.0
 40
1.0
 10
7.570217399
 20
-1.1343533914
 30
0.0
 10
7.4914970316
 20
-1.0385199735
 30
0.0
 10
7.380992166
 20
-0.9662142942
 30
0.0
 10
7.2363810396
 20
-0.9171010387
 30
0.0
 11
7.570217399
 21
-1.1343533914
 31
0.0
 11
7.2363810396
 21
-0.9171010387
 31
0.0
  0
SPLINE
  5
45E
100
AcDbEntity
  8
0
100
AcDbSpline
 62
7
  6
CONTINUOUS
 70
0
 71
3
 72
8
 73
4
 74
2
 42
0.0000001
 43
0.0000001
 44
0.0000000001
 12
-0.4338336998
 22
0.1473398753
 32
0.0
 13
-0.7080491781
 23
0.0
 33
0.0
 40
0.0
 40
0.0
 40
0.0
 40
0.0
 40
1.0
 40
1.0
 40
1.0
 40
1.0
 10
7.2363810396
 20
-0.9171010387
 30
0.0
 10
7.0917698063
 20
-0.8679877469
 30
0.0
 10
6.902138225
 20
-0.8447953412
 30
0.0
 10
6.6661218323
 20
-0.8447953412
 30
0.0
 11
7.2363810396
 21
-0.9171010387
 31
0.0
 11
6.6661218323
 21
-0.8447953412
 31
0.0
  0
SPLINE
  5
45F
100
AcDbEntity
  8
0
100
AcDbSpline
 62
7
  6
CONTINUOUS
 70
0
 71
3
 72
8
 73
4
 74
2
 42
0.0000001
 43
0.0000001
 44
0.0000000001
 12
-1.1296044588
 22
0.0
 32
0.0
 13
-0.5005061959
 23
-0.3954889425
 33
0.0
 40
0.0
 40
0.0
 40
0.0
 40
0.0
 40
1.0
 40
1.0
 40
1.0
 40
1.0
 10
6.6661218323
 20
-0.8447953412
 30
0.0
 10
6.2895870127
 20
-0.8447953412
 30
0.0
 10
6.0194642462
 20
-0.910279865
 30
0.0
 10
5.8526288476
 20
-1.0421095125
 30
0.0
 11
6.6661218323
 21
-0.8447953412
 31
0.0
 11
5.8526288476
 21
-1.0421095125
 31
0.0
  0
SPLINE
  5
460
100
AcDbEntity
  8
0
100
AcDbSpline
 62
7
  6
CONTINUOUS
 70
0
 71
3
 72
8
 73
4
 74
2
 42
0.0000001
 43
0.0000001
 44
0.0000000001
 12
-0.3058139858
 22
-0.3448104457
 32
0.0
 13
0.0
 23
-0.5484316349
 33
0.0
 40
0.0
 40
0.0
 40
0.0
 40
0.0
 40
1.0
 40
1.0
 40
1.0
 40
1.0
 10
5.798073454
 20
0.512978903
 30
0.0
 10
5.6961354587
 20
0.3980420878
 30
0.0
 10
5.6456579708
 20
0.2493382743
 30
0.0
 10
5.6456579708
 20
0.0665277293
 30
0.0
 11
5.798073454
 21
0.512978903
 31
0.0
 11
5.6456579708
 21
0.0665277293
 31
0.0
  0
SPLINE
  5
461
100
AcDbEntity
  8
0
100
AcDbSpline
 62
7
  6
CONTINUOUS
 70
0
 71
3
 72
8
 73
4
 74
2
 42
0.0000001
 43
0.0000001
 44
0.0000000001
 12
0.0
 22
-0.6630277634
 32
0.0
 13
0.4857471805
 23
-0.3863383787
 33
0.0
 40
0.0
 40
0.0
 40
0.0
 40
0.0
 40
1.0
 40
1.0
 40
1.0
 40
1.0
 10
5.6456579708
 20
0.0665277293
 30
0.0
 10
5.6456579708
 20
-0.1544815251
 30
0.0
 10
5.7261491038
 20
-0.3304706761
 30
0.0
 10
5.8880648306
 20
-0.4592501357
 30
0.0
 11
5.6456579708
 21
0.0665277293
 31
0.0
 11
5.8880648306
 21
-0.4592501357
 31
0.0
  0
SPLINE
  5
462
100
AcDbEntity
  8
0
100
AcDbSpline
 62
7
  6
CONTINUOUS
 70
0
 71
3
 72
8
 73
4
 74
2
 42
0.0000001
 43
0.0000001
 44
0.0000000001
 12
0.3941982467
 22
-0.3135250551
 32
0.0
 13
0.5443384051
 23
0.0
 33
0.0
 40
0.0
 40
0.0
 40
0.0
 40
0.0
 40
1.0
 40
1.0
 40
1.0
 40
1.0
 10
5.8880648306
 20
-0.4592501357
 30
0.0
 10
6.0194642462
 20
-0.5637584874
 30
0.0
 10
6.1763537444
 20
-0.6169644544
 30
0.0
 10
6.3577998795
 20
-0.6169644544
 30
0.0
 11
5.8880648306
 21
-0.4592501357
 31
0.0
 11
6.3577998795
 21
-0.6169644544
 31
0.0
  0
SPLINE
  5
463
100
AcDbEntity
  8
0
100
AcDbSpline
 62
7
  6
CONTINUOUS
 70
0
 71
3
 72
8
 73
4
 74
2
 42
0.0000001
 43
0.0000001
 44
0.0000000001
 12
0.5688949227
 22
0.0
 32
0.0
 13
0.3632379455
 23
0.3611856119
 33
0.0
 40
0.0
 40
0.0
 40
0.0
 40
0.0
 40
1.0
 40
1.0
 40
1.0
 40
1.0
 10
6.3577998795
 20
-0.6169644544
 30
0.0
 10
6.5474315204
 20
-0.6169644544
 30
0.0
 10
6.7029567875
 20
-0.5569373319
 30
0.0
 10
6.8240361027
 20
-0.4365421279
 30
0.0
 11
6.3577998795
 21
-0.6169644544
 31
0.0
 11
6.8240361027
 21
-0.4365421279
 31
0.0
  0
SPLINE
  5
464
100
AcDbEntity
  8
0
100
AcDbSpline
 62
7
  6
CONTINUOUS
 70
0
 71
3
 72
8
 73
4
 74
2
 42
0.0000001
 43
0.0000001
 44
0.0000000001
 12
0.3611820059
 22
0.3591412886
 32
0.0
 13
-0.0
 23
0.5238747597
 33
0.0
 40
0.0
 40
0.0
 40
0.0
 40
0.0
 40
1.0
 40
1.0
 40
1.0
 40
1.0
 10
6.8240361027
 20
-0.4365421279
 30
0.0
 10
6.9444301047
 20
-0.3168283651
 30
0.0
 10
7.0058216967
 20
-0.1694885442
 30
0.0
 10
7.0058216967
 20
0.0051363757
 30
0.0
 11
6.8240361027
 21
-0.4365421279
 31
0.0
 11
7.0058216967
 21
0.0051363757
 31
0.0
  0
SPLINE
  5
465
100
AcDbEntity
  8
0
100
AcDbSpline
 62
7
  6
CONTINUOUS
 70
0
 71
3
 72
8
 73
4
 74
2
 42
0.0000001
 43
0.0000001
 44
0.0000000001
 12
-0.0
 22
0.3969984055
 32
0.0
 13
-0.2496589422
 23
0.3601634502
 33
0.0
 40
0.0
 40
0.0
 40
0.0
 40
0.0
 40
1.0
 40
1.0
 40
1.0
 40
1.0
 10
7.0058216967
 20
0.0051363757
 30
0.0
 10
7.0058216967
 20
0.1374691775
 30
0.0
 10
6.9635296978
 20
0.2629808238
 30
0.0
 10
6.8803100504
 20
0.3830353072
 30
0.0
 11
7.0058216967
 21
0.0051363757
 31
0.0
 11
6.8803100504
 21
0.3830353072
 31
0.0
  0
SPLINE
  5
466
100
AcDbEntity
  8
0
100
AcDbSpline
 62
7
  6
CONTINUOUS
 70
0
 71
3
 72
8
 73
4
 74
2
 42
0.0000001
 43
0.0000001
 44
0.0000000001
 12
0.1718961596
 22
-0.1064121723
 32
0.0
 13
0.1072827393
 23
-0.1918707513
 33
0.0
 40
0.0
 40
0.0
 40
0.0
 40
0.0
 40
1.0
 40
1.0
 40
1.0
 40
1.0
 10
6.5951805033
 20
0.434877043
 30
0.0
 10
6.6524792232
 20
0.3994063189
 30
0.0
 10
6.698863975
 20
0.3489288142
 30
0.0
 10
6.7346248881
 20
0.2849718971
 30
0.0
 11
6.5951805033
 21
0.434877043
 31
0.0
 11
6.7346248881
 21
0.2849718971
 31
0.0
  0
SPLINE
  5
467
100
AcDbEntity
  8
0
100
AcDbSpline
 62
7
  6
CONTINUOUS
 70
0
 71
3
 72
8
 73
4
 74
2
 42
0.0000001
 43
0.0000001
 44
0.0000000001
 12
0.1055412477
 22
-0.1887561656
 32
0.0
 13
0.0
 23
-0.2373805046
 33
0.0
 40
0.0
 40
0.0
 40
0.0
 40
0.0
 40
1.0
 40
1.0
 40
1.0
 40
1.0
 10
6.7346248881
 20
0.2849718971
 30
0.0
 10
6.769805304
 20
0.2220531752
 30
0.0
 10
6.7889048972
 20
0.1497474959
 30
0.0
 10
6.7889048972
 20
0.0706206611
 30
0.0
 11
6.7346248881
 21
0.2849718971
 31
0.0
 11
6.7889048972
 21
0.0706206611
 31
0.0
  0
SPLINE
  5
468
100
AcDbEntity
  8
0
100
AcDbSpline
 62
7
  6
CONTINUOUS
 70
0
 71
3
 72
8
 73
4
 74
2
 42
0.0000001
 43
0.0000001
 44
0.0000000001
 12
0.0
 22
-0.3806276321
 32
0.0
 13
-0.2424684267
 23
-0.2363556247
 33
0.0
 40
0.0
 40
0.0
 40
0.0
 40
0.0
 40
1.0
 40
1.0
 40
1.0
 40
1.0
 10
6.7889048972
 20
0.0706206611
 30
0.0
 10
6.7889048972
 20
-0.0562552163
 30
0.0
 10
6.7479772486
 20
-0.1585746953
 30
0.0
 10
6.6671544397
 20
-0.2373599035
 30
0.0
 11
6.7889048972
 21
0.0706206611
 31
0.0
 11
6.6671544397
 21
-0.2373599035
 31
0.0
  0
SPLINE
  5
469
100
AcDbEntity
  8
0
100
AcDbSpline
 62
7
  6
CONTINUOUS
 70
0
 71
3
 72
8
 73
4
 74
2
 42
0.0000001
 43
0.0000001
 44
0.0000000001
 12
-0.244571199
 22
-0.2384053845
 32
0.0
 13
-0.4174624085
 23
0.0
 33
0.0
 40
0.0
 40
0.0
 40
0.0
 40
0.0
 40
1.0
 40
1.0
 40
1.0
 40
1.0
 10
6.6671544397
 20
-0.2373599035
 30
0.0
 10
6.5856307067
 20
-0.3168283651
 30
0.0
 10
6.4751259007
 20
-0.3563915441
 30
0.0
 10
6.3359717645
 20
-0.3563915441
 30
0.0
 11
6.6671544397
 21
-0.2373599035
 31
0.0
 11
6.3359717645
 21
-0.3563915441
 31
0.0
  0
SPLINE
  5
46A
100
AcDbEntity
  8
0
100
AcDbSpline
 62
7
  6
CONTINUOUS
 70
0
 71
3
 72
8
 73
4
 74
2
 42
0.0000001
 43
0.0000001
 44
0.0000000001
 12
-0.442019105
 22
0.0
 32
0.0
 13
-0.2669620958
 23
0.2445458908
 33
0.0
 40
0.0
 40
0.0
 40
0.0
 40
0.0
 40
1.0
 40
1.0
 40
1.0
 40
1.0
 10
6.3359717645
 20
-0.3563915441
 30
0.0
 10
6.1886320628
 20
-0.3563915441
 30
0.0
 10
6.0699417211
 20
-0.3154641339
 30
0.0
 10
5.9809543559
 20
-0.233948837
 30
0.0
 11
6.3359717645
 21
-0.3563915441
 31
0.0
 11
5.9809543559
 21
-0.233948837
 31
0.0
  0
SPLINE
  5
46B
100
AcDbEntity
  8
0
100
AcDbSpline
 62
7
  6
CONTINUOUS
 70
0
 71
3
 72
8
 73
4
 74
2
 42
0.0000001
 43
0.0000001
 44
0.0000000001
 12
-0.2691906544
 22
0.2465873223
 32
0.0
 13
-0.0
 23
0.3519780636
 33
0.0
 40
0.0
 40
0.0
 40
0.0
 40
0.0
 40
1.0
 40
1.0
 40
1.0
 40
1.0
 10
5.9809543559
 20
-0.233948837
 30
0.0
 10
5.8912241377
 20
-0.1517530629
 30
0.0
 10
5.8475679226
 20
-0.0507982919
 30
0.0
 10
5.8475679226
 20
0.0665277293
 30
0.0
 11
5.9809543559
 21
-0.233948837
 31
0.0
 11
5.8475679226
 21
0.0665277293
 31
0.0
  0
SPLINE
  5
46C
100
AcDbEntity
  8
0
100
AcDbSpline
 62
7
  6
CONTINUOUS
 70
0
 71
3
 72
8
 73
4
 74
2
 42
0.0000001
 43
0.0000001
 44
0.0000000001
 12
-0.0
 22
0.2946796417
 32
0.0
 13
0.1882671944
 23
0.2087310631
 33
0.0
 40
0.0
 40
0.0
 40
0.0
 40
0.0
 40
1.0
 40
1.0
 40
1.0
 40
1.0
 10
5.8475679226
 20
0.0665277293
 30
0.0
 10
5.8475679226
 20
0.1647542765
 30
0.0
 10
5.8789458342
 20
0.2493382743
 30
0.0
 10
5.9417015657
 20
0.3189152953
 30
0.0
 11
5.8475679226
 21
0.0665277293
 31
0.0
 11
5.9417015657
 21
0.3189152953
 31
0.0
  0
SPLINE
  5
46D
100
AcDbEntity
  8
0
100
AcDbSpline
 62
7
  6
CONTINUOUS
 70
0
 71
3
 72
8
 73
4
 74
2
 42
0.0000001
 43
0.0000001
 44
0.0000000001
 12
0.1882676103
 22
0.2087315242
 32
0.0
 13
0.37653476
 23
0.0572984219
 33
0.0
 40
0.0
 40
0.0
 40
0.0
 40
0.0
 40
1.0
 40
1.0
 40
1.0
 40
1.0
 10
5.9417015657
 20
0.3189152953
 30
0.0
 10
6.0044574358
 20
0.3884924701
 30
0.0
 10
6.0999553718
 20
0.4321485808
 30
0.0
 10
6.2254669585
 20
0.4512480548
 30
0.0
 11
5.9417015657
 21
0.3189152953
 31
0.0
 11
6.2254669585
 21
0.4512480548
 31
0.0
  0
SPLINE
  5
46E
100
AcDbEntity
  8
0
100
AcDbSpline
 62
7
  6
CONTINUOUS
 70
0
 71
3
 72
8
 73
4
 74
2
 42
0.0000001
 43
0.0000001
 44
0.0000000001
 12
-0.5075033605
 22
-0.0491137505
 32
0.0
 13
-0.3040086581
 23
-0.3427749082
 33
0.0
 40
0.0
 40
0.0
 40
0.0
 40
0.0
 40
1.0
 40
1.0
 40
1.0
 40
1.0
 10
6.2036388435
 20
0.7090927413
 30
0.0
 10
6.0344710566
 20
0.6927214911
 30
0.0
 10
5.8994096734
 20
0.6272372058
 30
0.0
 10
5.798073454
 20
0.512978903
 30
0.0
 11
6.2036388435
 21
0.7090927413
 31
0.0
 11
5.798073454
 21
0.512978903
 31
0.0
  0
SPLINE
  5
46F
100
AcDbEntity
  8
0
100
AcDbSpline
 62
7
  6
CONTINUOUS
 70
0
 71
3
 72
8
 73
4
 74
2
 42
0.0000001
 43
0.0000001
 44
0.0000000001
 12
0.2873349327
 22
-0.1993386743
 32
0.0
 13
0.0
 23
-0.3396999836
 33
0.0
 40
0.0
 40
0.0
 40
0.0
 40
0.0
 40
1.0
 40
1.0
 40
1.0
 40
1.0
 10
7.3411484034
 20
1.8833151311
 30
0.0
 10
7.4369267144
 20
1.8168689063
 30
0.0
 10
7.4846757569
 20
1.7268279841
 30
0.0
 10
7.4846757569
 20
1.6135946563
 30
0.0
 11
7.3411484034
 21
1.8833151311
 31
0.0
 11
7.4846757569
 21
1.6135946563
 31
0.0
  0
SPLINE
  5
470
100
AcDbEntity
  8
0
100
AcDbSpline
 62
7
  6
CONTINUOUS
 70
0
 71
3
 72
8
 73
4
 74
2
 42
0.0000001
 43
0.0000001
 44
0.0000000001
 12
0.0
 22
-0.3437926769
 32
0.0
 13
-0.3240060674
 23
-0.228230698
 33
0.0
 40
0.0
 40
0.0
 40
0.0
 40
0.0
 40
1.0
 40
1.0
 40
1.0
 40
1.0
 10
7.4846757569
 20
1.6135946563
 30
0.0
 10
7.4846757569
 20
1.4989970973
 30
0.0
 10
7.4301054396
 20
1.4034992507
 30
0.0
 10
7.3221034171
 20
1.3274223514
 30
0.0
 11
7.4846757569
 21
1.6135946563
 31
0.0
 11
7.3221034171
 21
1.3274223514
 31
0.0
  0
SPLINE
  5
471
100
AcDbEntity
  8
0
100
AcDbSpline
 62
7
  6
CONTINUOUS
 70
0
 71
3
 72
8
 73
4
 74
2
 42
0.0000001
 43
0.0000001
 44
0.0000000001
 12
-0.3267443312
 22
-0.2301595379
 32
0.0
 13
-0.9863573313
 23
0.0
 33
0.0
 40
0.0
 40
0.0
 40
0.0
 40
0.0
 40
1.0
 40
1.0
 40
1.0
 40
1.0
 10
7.3221034171
 20
1.3274223514
 30
0.0
 10
7.2131886401
 20
1.2507025054
 30
0.0
 10
6.9949076094
 20
1.211139088
 30
0.0
 10
6.6661218323
 20
1.211139088
 30
0.0
 11
7.3221034171
 21
1.3274223514
 31
0.0
 11
6.6661218323
 21
1.211139088
 31
0.0
  0
SPLINE
  5
472
100
AcDbEntity
  8
0
100
AcDbSpline
 62
7
  6
CONTINUOUS
 70
0
 71
3
 72
8
 73
4
 74
2
 42
0.0000001
 43
0.0000001
 44
0.0000000001
 12
-0.9822646379
 22
0.0
 32
0.0
 13
-0.327421546
 23
0.229195118
 33
0.0
 40
0.0
 40
0.0
 40
0.0
 40
0.0
 40
1.0
 40
1.0
 40
1.0
 40
1.0
 10
6.6661218323
 20
1.211139088
 30
0.0
 10
6.3387002863
 20
1.211139088
 30
0.0
 10
6.1204192259
 20
1.2507025054
 30
0.0
 10
6.0112787105
 20
1.327100878
 30
0.0
 11
6.6661218323
 21
1.211139088
 31
0.0
 11
6.0112787105
 21
1.327100878
 31
0.0
  0
SPLINE
  5
473
100
AcDbEntity
  8
0
100
AcDbSpline
 62
7
  6
CONTINUOUS
 70
0
 71
3
 72
8
 73
4
 74
2
 42
0.0000001
 43
0.0000001
 44
0.0000000001
 12
-0.327421546
 22
0.229195118
 32
0.0
 13
0.0
 23
0.3356072903
 33
0.0
 40
0.0
 40
0.0
 40
0.0
 40
0.0
 40
1.0
 40
1.0
 40
1.0
 40
1.0
 10
6.0112787105
 20
1.327100878
 30
0.0
 10
5.9021381952
 20
1.4034992507
 30
0.0
 10
5.8475679226
 20
1.4989970973
 30
0.0
 10
5.8475679226
 20
1.610866194
 30
0.0
 11
6.0112787105
 21
1.327100878
 31
0.0
 11
5.8475679226
 21
1.610866194
 31
0.0
  0
SPLINE
  5
474
100
AcDbEntity
  8
0
100
AcDbSpline
 62
7
  6
CONTINUOUS
 70
0
 71
3
 72
8
 73
4
 74
2
 42
0.0000001
 43
0.0000001
 44
0.0000000001
 12
0.0
 22
0.3396999836
 32
0.0
 13
0.327421546
 23
0.229195118
 33
0.0
 40
0.0
 40
0.0
 40
0.0
 40
0.0
 40
1.0
 40
1.0
 40
1.0
 40
1.0
 10
5.8475679226
 20
1.610866194
 30
0.0
 10
5.8475679226
 20
1.7240995219
 30
0.0
 10
5.9007739343
 20
1.8195973685
 30
0.0
 10
6.0099144496
 20
1.8959957412
 30
0.0
 11
5.8475679226
 21
1.610866194
 31
0.0
 11
6.0099144496
 21
1.8959957412
 31
0.0
  0
SPLINE
  5
475
100
AcDbEntity
  8
0
100
AcDbSpline
 62
7
  6
CONTINUOUS
 70
0
 71
3
 72
8
 73
4
 74
2
 42
0.0000001
 43
0.0000001
 44
0.0000000001
 12
0.327421546
 22
0.229195118
 32
0.0
 13
0.9863575101
 23
0.0
 33
0.0
 40
0.0
 40
0.0
 40
0.0
 40
0.0
 40
1.0
 40
1.0
 40
1.0
 40
1.0
 10
6.0099144496
 20
1.8959957412
 30
0.0
 10
6.119054965
 20
1.9723941138
 30
0.0
 10
6.3373359956
 20
2.0105933001
 30
0.0
 10
6.6661218323
 20
2.0105933001
 30
0.0
 11
6.0099144496
 21
1.8959957412
 31
0.0
 11
6.6661218323
 21
2.0105933001
 31
0.0
  0
SPLINE
  5
476
100
AcDbEntity
  8
0
100
AcDbSpline
 62
7
  6
CONTINUOUS
 70
0
 71
3
 72
8
 73
4
 74
2
 42
0.0000001
 43
0.0000001
 44
0.0000000001
 12
0.9822646379
 22
0.0
 32
0.0
 13
0.3675081592
 23
-0.2549588683
 33
0.0
 40
0.0
 40
0.0
 40
0.0
 40
0.0
 40
1.0
 40
1.0
 40
1.0
 40
1.0
 10
6.6661218323
 20
2.0105933001
 30
0.0
 10
6.9935433783
 20
2.0105933001
 30
0.0
 10
7.2186456837
 20
1.9683014205
 30
0.0
 10
7.3411484034
 20
1.8833151311
 30
0.0
 11
6.6661218323
 21
2.0105933001
 31
0.0
 11
7.3411484034
 21
1.8833151311
 31
0.0
  0
SPLINE
  5
477
100
AcDbEntity
  8
0
100
AcDbSpline
 62
7
  6
CONTINUOUS
 70
0
 71
3
 72
8
 73
4
 74
2
 42
0.0000001
 43
0.0000001
 44
0.0000000001
 12
-0.4162742583
 22
-0.3289308881
 32
0.0
 13
-0.0
 23
-0.5811731815
 33
0.0
 40
0.0
 40
0.0
 40
0.0
 40
0.0
 40
1.0
 40
1.0
 40
1.0
 40
1.0
 10
5.852628879
 20
2.0656667314
 30
0.0
 10
5.7138707929
 20
1.9560231021
 30
0.0
 10
5.6456579708
 20
1.8045905879
 30
0.0
 10
5.6456579708
 20
1.610866194
 30
0.0
 11
5.852628879
 21
2.0656667314
 31
0.0
 11
5.6456579708
 21
1.610866194
 31
0.0
  0
SPLINE
  5
478
100
AcDbEntity
  8
0
100
AcDbSpline
 62
7
  6
CONTINUOUS
 70
0
 71
3
 72
8
 73
4
 74
2
 42
0.0000001
 43
0.0000001
 44
0.0000000001
 12
-0.0
 22
-0.437926054
 32
0.0
 13
0.2373804601
 23
-0.2864936844
 33
0.0
 40
0.0
 40
0.0
 40
0.0
 40
0.0
 40
1.0
 40
1.0
 40
1.0
 40
1.0
 10
5.6456579708
 20
1.610866194
 30
0.0
 10
5.6456579708
 20
1.4648908427
 30
0.0
 10
5.6838571511
 20
1.3434718898
 30
0.0
 10
5.7629839711
 20
1.247973995
 30
0.0
 11
5.6456579708
 21
1.610866194
 31
0.0
 11
5.7629839711
 21
1.247973995
 31
0.0
  0
SPLINE
  5
479
100
AcDbEntity
  8
0
100
AcDbSpline
 62
7
  6
CONTINUOUS
 70
0
 71
3
 72
8
 73
4
 74
2
 42
0.0000001
 43
0.0000001
 44
0.0000000001
 12
0.2373808132
 22
-0.2864941105
 32
0.0
 13
0.4344457422
 23
-0.1454981465
 33
0.0
 40
0.0
 40
0.0
 40
0.0
 40
0.0
 40
1.0
 40
1.0
 40
1.0
 40
1.0
 10
5.7629839711
 20
1.247973995
 30
0.0
 10
5.8421109088
 20
1.1524759581
 30
0.0
 10
5.9526156701
 20
1.0801702788
 30
0.0
 10
6.0974309175
 20
1.0316708967
 30
0.0
 11
5.7629839711
 21
1.247973995
 31
0.0
 11
6.0974309175
 21
1.0316708967
 31
0.0
  0
SPLINE
  5
47A
100
AcDbEntity
  8
0
100
AcDbSpline
 62
7
  6
CONTINUOUS
 70
0
 71
3
 72
8
 73
4
 74
2
 42
0.0000001
 43
0.0000001
 44
0.0000000001
 12
0.4332213368
 22
-0.1450880867
 32
0.0
 13
0.703956306
 23
0.0
 33
0.0
 40
0.0
 40
0.0
 40
0.0
 40
0.0
 40
1.0
 40
1.0
 40
1.0
 40
1.0
 10
6.0974309175
 20
1.0316708967
 30
0.0
 10
6.2418380298
 20
0.9833082011
 30
0.0
 10
6.4314697303
 20
0.9587515643
 30
0.0
 10
6.6661218323
 20
0.9587515643
 30
0.0
 11
6.0974309175
 21
1.0316708967
 31
0.0
 11
6.6661218323
 21
0.9587515643
 31
0.0
  0
SPLINE
  5
47B
100
AcDbEntity
  8
0
100
AcDbSpline
 62
7
  6
CONTINUOUS
 70
0
 71
3
 72
8
 73
4
 74
2
 42
0.0000001
 43
0.0000001
 44
0.0000000001
 12
0.5934516191
 22
0.0
 32
0.0
 13
0.3519784961
 23
0.0900411063
 33
0.0
 40
0.0
 40
0.0
 40
0.0
 40
0.0
 40
1.0
 40
1.0
 40
1.0
 40
1.0
 10
6.6661218323
 20
0.9587515643
 30
0.0
 10
6.8639390387
 20
0.9587515643
 30
0.0
 10
7.0208284773
 20
0.9737583449
 30
0.0
 10
7.1381546427
 20
1.003772047
 30
0.0
 11
6.6661218323
 21
0.9587515643
 31
0.0
 11
7.1381546427
 21
1.003772047
 31
0.0
  0
SPLINE
  5
47C
100
AcDbEntity
  8
0
100
AcDbSpline
 62
7
  6
CONTINUOUS
 70
0
 71
3
 72
8
 73
4
 74
2
 42
0.0000001
 43
0.0000001
 44
0.0000000001
 12
0.3519779887
 22
0.0900409765
 32
0.0
 13
0.2446318754
 23
0.1569719983
 33
0.0
 40
0.0
 40
0.0
 40
0.0
 40
0.0
 40
1.0
 40
1.0
 40
1.0
 40
1.0
 10
7.1381546427
 20
1.003772047
 30
0.0
 10
7.2554806389
 20
1.0337857058
 30
0.0
 10
7.353707067
 20
1.0760775855
 30
0.0
 10
7.4352510254
 20
1.1284015849
 30
0.0
 11
7.1381546427
 21
1.003772047
 31
0.0
 11
7.4352510254
 21
1.1284015849
 31
0.0
  0
SPLINE
  5
47D
100
AcDbEntity
  8
0
100
AcDbSpline
 62
7
  6
CONTINUOUS
 70
0
 71
3
 72
8
 73
4
 74
2
 42
0.0000001
 43
0.0000001
 44
0.0000000001
 12
0.2465006224
 22
0.15817111
 32
0.0
 13
0.1301142459
 23
0.2419308151
 33
0.0
 40
0.0
 40
0.0
 40
0.0
 40
0.0
 40
1.0
 40
1.0
 40
1.0
 40
1.0
 10
7.4352510254
 20
1.1284015849
 30
0.0
 10
7.5174178995
 20
1.1811252883
 30
0.0
 10
7.5788093724
 20
1.2479740432
 30
0.0
 10
7.6221807877
 20
1.3286176482
 30
0.0
 11
7.4352510254
 21
1.1284015849
 31
0.0
 11
7.6221807877
 21
1.3286176482
 31
0.0
  0
SPLINE
  5
47E
100
AcDbEntity
  8
0
100
AcDbSpline
 62
7
  6
CONTINUOUS
 70
0
 71
3
 72
8
 73
4
 74
2
 42
0.0000001
 43
0.0000001
 44
0.0000000001
 12
0.131823134
 22
0.2451082741
 32
0.0
 13
-0.0
 23
0.3192358017
 33
0.0
 40
0.0
 40
0.0
 40
0.0
 40
0.0
 40
1.0
 40
1.0
 40
1.0
 40
1.0
 10
7.6221807877
 20
1.3286176482
 30
0.0
 10
7.6661218323
 20
1.4103204062
 30
0.0
 10
7.6879500069
 20
1.5044542601
 30
0.0
 10
7.6879500069
 20
1.610866194
 30
0.0
 11
7.6221807877
 21
1.3286176482
 31
0.0
 11
7.6879500069
 21
1.610866194
 31
0.0
  0
SPLINE
  5
47F
100
AcDbEntity
  8
0
100
AcDbSpline
 62
7
  6
CONTINUOUS
 70
0
 71
3
 72
8
 73
4
 74
2
 42
0.0000001
 43
0.0000001
 44
0.0000000001
 12
-0.0
 22
0.437926054
 32
0.0
 13
-0.2345074765
 23
0.2854873239
 33
0.0
 40
0.0
 40
0.0
 40
0.0
 40
0.0
 40
1.0
 40
1.0
 40
1.0
 40
1.0
 10
7.6879500069
 20
1.610866194
 30
0.0
 10
7.6879500069
 20
1.7568415454
 30
0.0
 10
7.6483864703
 20
1.8782604983
 30
0.0
 10
7.5702173114
 20
1.9734229396
 30
0.0
 11
7.6879500069
 21
1.610866194
 31
0.0
 11
7.5702173114
 21
1.9734229396
 31
0.0
  0
SPLINE
  5
480
100
AcDbEntity
  8
0
100
AcDbSpline
 62
7
  6
CONTINUOUS
 70
0
 71
3
 72
8
 73
4
 74
2
 42
0.0000001
 43
0.0000001
 44
0.0000000001
 12
-0.2361608394
 22
0.2875001133
 32
0.0
 13
-0.4338333247
 23
0.1473395691
 33
0.0
 40
0.0
 40
0.0
 40
0.0
 40
0.0
 40
1.0
 40
1.0
 40
1.0
 40
1.0
 10
7.5702173114
 20
1.9734229396
 30
0.0
 10
7.4914970316
 20
2.0692563107
 30
0.0
 10
7.380992166
 20
2.1415619901
 30
0.0
 10
7.2363810577
 20
2.1906751798
 30
0.0
 11
7.5702173114
 21
1.9734229396
 31
0.0
 11
7.2363810577
 21
2.1906751798
 31
0.0
  0
SPLINE
  5
481
100
AcDbEntity
  8
0
100
AcDbSpline
 62
7
  6
CONTINUOUS
 70
0
 71
3
 72
8
 73
4
 74
2
 42
0.0000001
 43
0.0000001
 44
0.0000000001
 12
-0.4338337543
 22
0.147339715
 32
0.0
 13
-0.7080491781
 23
0.0
 33
0.0
 40
0.0
 40
0.0
 40
0.0
 40
0.0
 40
1.0
 40
1.0
 40
1.0
 40
1.0
 10
7.2363810577
 20
2.1906751798
 30
0.0
 10
7.0917698063
 20
2.2397884181
 30
0.0
 10
6.902138225
 20
2.2629808238
 30
0.0
 10
6.6661218323
 20
2.2629808238
 30
0.0
 11
7.2363810577
 21
2.1906751798
 31
0.0
 11
6.6661218323
 21
2.2629808238
 31
0.0
  0
SPLINE
  5
482
100
AcDbEntity
  8
0
100
AcDbSpline
 62
7
  6
CONTINUOUS
 70
0
 71
3
 72
8
 73
4
 74
2
 42
0.0000001
 43
0.0000001
 44
0.0000000001
 12
-1.1296044588
 22
0.0
 32
0.0
 13
-0.5005061017
 23
-0.3954890633
 33
0.0
 40
0.0
 40
0.0
 40
0.0
 40
0.0
 40
1.0
 40
1.0
 40
1.0
 40
1.0
 10
6.6661218323
 20
2.2629808238
 30
0.0
 10
6.2895870127
 20
2.2629808238
 30
0.0
 10
6.0194642462
 20
2.1974964192
 30
0.0
 10
5.852628879
 20
2.0656667314
 30
0.0
 11
6.6661218323
 21
2.2629808238
 31
0.0
 11
5.852628879
 21
2.0656667314
 31
0.0
  0
SPLINE
  5
483
100
AcDbEntity
  8
0
100
AcDbSpline
 62
7
  6
CONTINUOUS
 70
0
 71
3
 72
8
 73
4
 74
2
 42
0.0000001
 43
0.0000001
 44
0.0000000001
 12
0.1309686452
 22
-0.0818553865
 32
0.0
 13
0.131986172
 23
-0.1257993442
 33
0.0
 40
0.0
 40
0.0
 40
0.0
 40
0.0
 40
1.0
 40
1.0
 40
1.0
 40
1.0
 10
5.9157807596
 20
3.5071826628
 30
0.0
 10
5.9594369747
 20
3.4798975339
 30
0.0
 10
6.0044574358
 20
3.4457911303
 30
0.0
 10
6.0484528265
 20
3.4038580156
 30
0.0
 11
5.9157807596
 21
3.5071826628
 31
0.0
 11
6.0484528265
 21
3.4038580156
 31
0.0
  0
SPLINE
  5
484
100
AcDbEntity
  8
0
100
AcDbSpline
 62
7
  6
CONTINUOUS
 70
0
 71
3
 72
8
 73
4
 74
2
 42
0.0000001
 43
0.0000001
 44
0.0000000001
 12
0.129951029
 22
-0.1238595981
 32
0.0
 13
0.3727747889
 23
-0.4417381472
 33
0.0
 40
0.0
 40
0.0
 40
0.0
 40
0.0
 40
1.0
 40
1.0
 40
1.0
 40
1.0
 10
6.0484528265
 20
3.4038580156
 30
0.0
 10
6.0917698361
 20
3.3625714829
 30
0.0
 10
6.1763537444
 20
3.2670735171
 30
0.0
 10
6.3006120074
 20
3.119827468
 30
0.0
 11
6.0484528265
 21
3.4038580156
 31
0.0
 11
6.3006120074
 21
3.119827468
 31
0.0
  0
SPLINE
  5
485
100
AcDbEntity
  8
0
100
AcDbSpline
 62
7
  6
CONTINUOUS
 70
0
 71
3
 72
8
 73
4
 74
2
 42
0.0000001
 43
0.0000001
 44
0.0000000001
 12
0.4457790761
 22
-0.5282482319
 32
0.0
 13
0.2569310747
 23
-0.2302102889
 33
0.0
 40
0.0
 40
0.0
 40
0.0
 40
0.0
 40
1.0
 40
1.0
 40
1.0
 40
1.0
 10
6.3006120074
 20
3.119827468
 30
0.0
 10
6.4492050328
 20
2.9437447241
 30
0.0
 10
6.5665311136
 20
2.8182331374
 30
0.0
 10
6.6521748051
 20
2.7414963744
 30
0.0
 11
6.3006120074
 21
3.119827468
 31
0.0
 11
6.6521748051
 21
2.7414963744
 31
0.0
  0
SPLINE
  5
486
100
AcDbEntity
  8
0
100
AcDbSpline
 62
7
  6
CONTINUOUS
 70
0
 71
3
 72
8
 73
4
 74
2
 42
0.0000001
 43
0.0000001
 44
0.0000000001
 12
0.2546650686
 22
-0.228179947
 32
0.0
 13
0.2329738336
 23
-0.0989623013
 33
0.0
 40
0.0
 40
0.0
 40
0.0
 40
0.0
 40
1.0
 40
1.0
 40
1.0
 40
1.0
 10
6.6521748051
 20
2.7414963744
 30
0.0
 10
6.7370631613
 20
2.6654363921
 30
0.0
 10
6.8189185776
 20
2.610866194
 30
0.0
 10
6.8965765221
 20
2.5778787603
 30
0.0
 11
6.6521748051
 21
2.7414963744
 31
0.0
 11
6.8965765221
 21
2.5778787603
 31
0.0
  0
SPLINE
  5
487
100
AcDbEntity
  8
0
100
AcDbSpline
 62
7
  6
CONTINUOUS
 70
0
 71
3
 72
8
 73
4
 74
2
 42
0.0000001
 43
0.0000001
 44
0.0000000001
 12
0.2295090957
 22
-0.0974905548
 32
0.0
 13
0.2414735556
 23
0.0
 33
0.0
 40
0.0
 40
0.0
 40
0.0
 40
0.0
 40
1.0
 40
1.0
 40
1.0
 40
1.0
 10
6.8965765221
 20
2.5778787603
 30
0.0
 10
6.973079554
 20
2.5453819087
 30
0.0
 10
7.0522063889
 20
2.5290107777
 30
0.0
 10
7.1326975741
 20
2.5290107777
 30
0.0
 11
6.8965765221
 21
2.5778787603
 31
0.0
 11
7.1326975741
 21
2.5290107777
 31
0.0
  0
SPLINE
  5
488
100
AcDbEntity
  8
0
100
AcDbSpline
 62
7
  6
CONTINUOUS
 70
0
 71
3
 72
8
 73
4
 74
2
 42
0.0000001
 43
0.0000001
 44
0.0000000001
 12
0.4706683159
 22
0.0
 32
0.0
 13
0.3192358063
 23
0.3356069283
 33
0.0
 40
0.0
 40
0.0
 40
0.0
 40
0.0
 40
1.0
 40
1.0
 40
1.0
 40
1.0
 10
7.1326975741
 20
2.5290107777
 30
0.0
 10
7.2895870127
 20
2.5290107777
 30
0.0
 10
7.4219199337
 20
2.5849453261
 30
0.0
 10
7.5283318692
 20
2.6968143022
 30
0.0
 11
7.1326975741
 21
2.5290107777
 31
0.0
 11
7.5283318692
 21
2.6968143022
 31
0.0
  0
SPLINE
  5
489
100
AcDbEntity
  8
0
100
AcDbSpline
 62
7
  6
CONTINUOUS
 70
0
 71
3
 72
8
 73
4
 74
2
 42
0.0000001
 43
0.0000001
 44
0.0000000001
 12
0.3192361547
 22
0.3356072946
 32
0.0
 13
-0.0
 23
0.5729877949
 33
0.0
 40
0.0
 40
0.0
 40
0.0
 40
0.0
 40
1.0
 40
1.0
 40
1.0
 40
1.0
 10
7.5283318692
 20
2.6968143022
 30
0.0
 10
7.6347439207
 20
2.8086834004
 30
0.0
 10
7.6879500069
 20
2.9614800861
 30
0.0
 10
7.6879500069
 20
3.1524760177
 30
0.0
 11
7.5283318692
 21
2.6968143022
 31
0.0
 11
7.6879500069
 21
3.1524760177
 31
0.0
  0
SPLINE
  5
48A
100
AcDbEntity
  8
0
100
AcDbSpline
 62
7
  6
CONTINUOUS
 70
0
 71
3
 72
8
 73
4
 74
2
 42
0.0000001
 43
0.0000001
 44
0.0000000001
 12
-0.0
 22
0.5729876161
 32
0.0
 13
-0.2936641952
 23
0.3364903351
 33
0.0
 40
0.0
 40
0.0
 40
0.0
 40
0.0
 40
1.0
 40
1.0
 40
1.0
 40
1.0
 10
7.6879500069
 20
3.1524760177
 30
0.0
 10
7.6879500069
 20
3.3434718898
 30
0.0
 10
7.637472383
 20
3.4949043742
 30
0.0
 10
7.5395843179
 20
3.6070678192
 30
0.0
 11
7.6879500069
 21
3.1524760177
 31
0.0
 11
7.5395843179
 21
3.6070678192
 31
0.0
  0
SPLINE
  5
48B
100
AcDbEntity
  8
0
100
AcDbSpline
 62
7
  6
CONTINUOUS
 70
0
 71
3
 72
8
 73
4
 74
2
 42
0.0000001
 43
0.0000001
 44
0.0000000001
 12
-0.2956943729
 22
0.3388165811
 32
0.0
 13
-0.5648020506
 23
0.0491132587
 33
0.0
 40
0.0
 40
0.0
 40
0.0
 40
0.0
 40
1.0
 40
1.0
 40
1.0
 40
1.0
 10
7.5395843179
 20
3.6070678192
 30
0.0
 10
7.4410195269
 20
3.7200066796
 30
0.0
 10
7.2977725186
 20
3.7854909947
 30
0.0
 10
7.1095051684
 20
3.801862081
 30
0.0
 11
7.5395843179
 21
3.6070678192
 31
0.0
 11
7.1095051684
 21
3.801862081
 31
0.0
  0
SPLINE
  5
48C
100
AcDbEntity
  8
0
100
AcDbSpline
 62
7
  6
CONTINUOUS
 70
0
 71
3
 72
8
 73
4
 74
2
 42
0.0000001
 43
0.0000001
 44
0.0000000001
 12
0.3765349388
 22
0.0
 32
0.0
 13
0.212823987
 23
-0.212823987
 33
0.0
 40
0.0
 40
0.0
 40
0.0
 40
0.0
 40
1.0
 40
1.0
 40
1.0
 40
1.0
 10
7.0835843005
 20
3.5494746318
 30
0.0
 10
7.2090959467
 20
3.5494746318
 30
0.0
 10
7.3073223748
 20
3.5126397064
 30
0.0
 10
7.3782637038
 20
3.4416983774
 30
0.0
 11
7.0835843005
 21
3.5494746318
 31
0.0
 11
7.3782637038
 21
3.4416983774
 31
0.0
  0
SPLINE
  5
48D
100
AcDbEntity
  8
0
100
AcDbSpline
 62
7
  6
CONTINUOUS
 70
0
 71
3
 72
8
 73
4
 74
2
 42
0.0000001
 43
0.0000001
 44
0.0000000001
 12
0.212823987
 22
-0.212823987
 32
0.0
 13
-0.0
 23
-0.3560709357
 33
0.0
 40
0.0
 40
0.0
 40
0.0
 40
0.0
 40
1.0
 40
1.0
 40
1.0
 40
1.0
 10
7.3782637038
 20
3.4416983774
 30
0.0
 10
7.4492050328
 20
3.3707570484
 30
0.0
 10
7.4846757569
 20
3.2766233137
 30
0.0
 10
7.4846757569
 20
3.1579330018
 30
0.0
 11
7.3782637038
 21
3.4416983774
 31
0.0
 11
7.4846757569
 21
3.1579330018
 31
0.0
  0
SPLINE
  5
48E
100
AcDbEntity
  8
0
100
AcDbSpline
 62
7
  6
CONTINUOUS
 70
0
 71
3
 72
8
 73
4
 74
2
 42
0.0000001
 43
0.0000001
 44
0.0000000001
 12
-0.0
 22
-0.3356071115
 32
0.0
 13
-0.2005455977
 23
-0.2087310684
 33
0.0
 40
0.0
 40
0.0
 40
0.0
 40
0.0
 40
1.0
 40
1.0
 40
1.0
 40
1.0
 10
7.4846757569
 20
3.1579330018
 30
0.0
 10
7.4846757569
 20
3.0460639646
 30
0.0
 10
7.4505692639
 20
2.9560230425
 30
0.0
 10
7.3837207313
 20
2.8864460197
 30
0.0
 11
7.4846757569
 21
3.1579330018
 31
0.0
 11
7.3837207313
 21
2.8864460197
 31
0.0
  0
SPLINE
  5
48F
100
AcDbEntity
  8
0
100
AcDbSpline
 62
7
  6
CONTINUOUS
 70
0
 71
3
 72
8
 73
4
 74
2
 42
0.0000001
 43
0.0000001
 44
0.0000000001
 12
-0.2005458587
 22
-0.2087313401
 32
0.0
 13
-0.2905865908
 23
0.0
 33
0.0
 40
0.0
 40
0.0
 40
0.0
 40
0.0
 40
1.0
 40
1.0
 40
1.0
 40
1.0
 10
7.3837207313
 20
2.8864460197
 30
0.0
 10
7.3168721117
 20
2.8168689063
 30
0.0
 10
7.2350168146
 20
2.7813981822
 30
0.0
 10
7.1381546177
 20
2.7813981822
 30
0.0
 11
7.3837207313
 21
2.8864460197
 31
0.0
 11
7.1381546177
 21
2.7813981822
 31
0.0
  0
SPLINE
  5
490
100
AcDbEntity
  8
0
100
AcDbSpline
 62
7
  6
CONTINUOUS
 70
0
 71
3
 72
8
 73
4
 74
2
 42
0.0000001
 43
0.0000001
 44
0.0000000001
 12
-0.2783085108
 22
0.0
 32
0.0
 13
-0.3110507097
 23
0.2291952033
 33
0.0
 40
0.0
 40
0.0
 40
0.0
 40
0.0
 40
1.0
 40
1.0
 40
1.0
 40
1.0
 10
7.1381546177
 20
2.7813981822
 30
0.0
 10
7.0453851141
 20
2.7813981822
 30
0.0
 10
6.945794455
 20
2.8195973685
 30
0.0
 10
6.8421108851
 20
2.8959957696
 30
0.0
 11
7.1381546177
 21
2.7813981822
 31
0.0
 11
6.8421108851
 21
2.8959957696
 31
0.0
  0
SPLINE
  5
491
100
AcDbEntity
  8
0
100
AcDbSpline
 62
7
  6
CONTINUOUS
 70
0
 71
3
 72
8
 73
4
 74
2
 42
0.0000001
 43
0.0000001
 44
0.0000000001
 12
-0.311050478
 22
0.2291950326
 32
0.0
 13
-0.531741321
 23
0.6510104663
 33
0.0
 40
0.0
 40
0.0
 40
0.0
 40
0.0
 40
1.0
 40
1.0
 40
1.0
 40
1.0
 10
6.8421108851
 20
2.8959957696
 30
0.0
 10
6.7384273924
 20
2.9723941138
 30
0.0
 10
6.5965447344
 20
3.1197338155
 30
0.0
 10
6.4192976274
 20
3.3367373042
 30
0.0
 11
6.8421108851
 21
2.8959957696
 31
0.0
 11
6.4192976274
 21
3.3367373042
 31
0.0
  0
SPLINE
  5
492
100
AcDbEntity
  8
0
100
AcDbSpline
 62
7
  6
CONTINUOUS
 70
0
 71
3
 72
8
 73
4
 74
2
 42
0.0000001
 43
0.0000001
 44
0.0000000001
 12
-0.3441113234
 22
0.421295213
 32
0.0
 13
-0.261937201
 23
0.2210095525
 33
0.0
 40
0.0
 40
0.0
 40
0.0
 40
0.0
 40
1.0
 40
1.0
 40
1.0
 40
1.0
 10
6.4192976274
 20
3.3367373042
 30
0.0
 10
6.3045938529
 20
3.4771690419
 30
0.0
 10
6.2036388435
 20
3.5849452963
 30
0.0
 10
6.1163264431
 20
3.6586151471
 30
0.0
 11
6.4192976274
 21
3.3367373042
 31
0.0
 11
6.1163264431
 21
3.6586151471
 31
0.0
  0
SPLINE
  5
493
100
AcDbEntity
  8
0
100
AcDbSpline
 62
7
  6
CONTINUOUS
 70
0
 71
3
 72
8
 73
4
 74
2
 42
0.0000001
 43
0.0000001
 44
0.0000000001
 12
-0.261937201
 22
0.2210095525
 32
0.0
 13
-0.2688665082
 23
0.1014590461
 33
0.0
 40
0.0
 40
0.0
 40
0.0
 40
0.0
 40
1.0
 40
1.0
 40
1.0
 40
1.0
 10
6.1163264431
 20
3.6586151471
 30
0.0
 10
6.0290140428
 20
3.732284998
 30
0.0
 10
5.9403373815
 20
3.7868552556
 30
0.0
 10
5.8507152121
 20
3.8206749377
 30
0.0
 11
6.1163264431
 21
3.6586151471
 31
0.0
 11
5.8507152121
 21
3.8206749377
 31
0.0
  0
SPLINE
  5
494
100
AcDbEntity
  8
0
100
AcDbSpline
 62
7
  6
CONTINUOUS
 70
0
 71
3
 72
8
 73
4
 74
2
 42
0.0000001
 43
0.0000001
 44
0.0000000001
 12
-0.1649670983
 22
0.0622517269
 32
0.0
 13
-0.1759890877
 23
-0.0081855431
 33
0.0
 40
0.0
 40
0.0
 40
0.0
 40
0.0
 40
1.0
 40
1.0
 40
1.0
 40
1.0
 10
5.8507152121
 20
3.8206749377
 30
0.0
 10
5.7957261794
 20
3.8414255133
 30
0.0
 10
5.738427411
 20
3.8509753099
 30
0.0
 10
5.6797643818
 20
3.8482467955
 30
0.0
 11
5.8507152121
 21
3.8206749377
 31
0.0
 11
5.6797643818
 21
3.8482467955
 31
0.0
  0
SPLINE
  5
495
100
AcDbEntity
  8
0
100
AcDbSpline
 62
7
  6
CONTINUOUS
 70
0
 71
3
 72
8
 73
4
 74
2
 42
0.0000001
 43
0.0000001
 44
0.0000000001
 12
0.3847206826
 22
-0.4051848835
 32
0.0
 13
0.0
 23
-0.564801693
 33
0.0
 40
0.0
 40
0.0
 40
0.0
 40
0.0
 40
1.0
 40
1.0
 40
1.0
 40
1.0
 10
11.7936797062
 20
-0.6804025061
 30
0.0
 10
11.9219199337
 20
-0.8154641339
 30
0.0
 10
11.9874042191
 20
-0.9764462659
 30
0.0
 10
11.9874042191
 20
-1.1647134969
 30
0.0
 11
11.7936797062
 21
-0.6804025061
 31
0.0
 11
11.9874042191
 21
-1.1647134969
 31
0.0
  0
SPLINE
  5
496
100
AcDbEntity
  8
0
100
AcDbSpline
 62
7
  6
CONTINUOUS
 70
0
 71
3
 72
8
 73
4
 74
2
 42
0.0000001
 43
0.0000001
 44
0.0000000001
 12
0.0
 22
-0.3929057121
 32
0.0
 13
-0.2005457788
 23
-0.3192358822
 33
0.0
 40
0.0
 40
0.0
 40
0.0
 40
0.0
 40
1.0
 40
1.0
 40
1.0
 40
1.0
 10
11.9874042191
 20
-1.1647134969
 30
0.0
 10
11.9874042191
 20
-1.2956820676
 30
0.0
 10
11.9532978453
 20
-1.4143725583
 30
0.0
 10
11.8864492524
 20
-1.5207845191
 30
0.0
 11
11.9874042191
 21
-1.1647134969
 31
0.0
 11
11.8864492524
 21
-1.5207845191
 31
0.0
  0
SPLINE
  5
497
100
AcDbEntity
  8
0
100
AcDbSpline
 62
7
  6
CONTINUOUS
 70
0
 71
3
 72
8
 73
4
 74
2
 42
0.0000001
 43
0.0000001
 44
0.0000000001
 12
-0.2005456776
 22
-0.3192357212
 32
0.0
 13
-0.3642567686
 23
-0.1637114296
 33
0.0
 40
0.0
 40
0.0
 40
0.0
 40
0.0
 40
1.0
 40
1.0
 40
1.0
 40
1.0
 10
11.8864492524
 20
-1.5207845191
 30
0.0
 10
11.8196006932
 20
-1.6271964261
 30
0.0
 10
11.7254669585
 20
-1.7076874921
 30
0.0
 10
11.6040480356
 20
-1.7622579686
 30
0.0
 11
11.8864492524
 21
-1.5207845191
 31
0.0
 11
11.6040480356
 21
-1.7622579686
 31
0.0
  0
SPLINE
  5
498
100
AcDbEntity
  8
0
100
AcDbSpline
 62
7
  6
CONTINUOUS
 70
0
 71
3
 72
8
 73
4
 74
2
 42
0.0000001
 43
0.0000001
 44
0.0000000001
 12
-0.3642562338
 22
-0.1637111892
 32
0.0
 13
-0.4870394468
 23
0.0
 33
0.0
 40
0.0
 40
0.0
 40
0.0
 40
0.0
 40
1.0
 40
1.0
 40
1.0
 40
1.0
 10
11.6040480356
 20
-1.7622579686
 30
0.0
 10
11.482629291
 20
-1.8168283651
 30
0.0
 10
11.340746633
 20
-1.8454776952
 30
0.0
 10
11.1784001507
 20
-1.8454776952
 30
0.0
 11
11.6040480356
 21
-1.7622579686
 31
0.0
 11
11.1784001507
 21
-1.8454776952
 31
0.0
  0
SPLINE
  5
499
100
AcDbEntity
  8
0
100
AcDbSpline
 62
7
  6
CONTINUOUS
 70
0
 71
3
 72
8
 73
4
 74
2
 42
0.0000001
 43
0.0000001
 44
0.0000000001
 12
-0.7735335231
 22
0.0
 32
0.0
 13
-0.4183961029
 23
0.383699819
 33
0.0
 40
0.0
 40
0.0
 40
0.0
 40
0.0
 40
1.0
 40
1.0
 40
1.0
 40
1.0
 10
11.1784001507
 20
-1.8454776952
 30
0.0
 10
10.920555643
 20
-1.8454776952
 30
0.0
 10
10.7213742055
 20
-1.7799931714
 30
0.0
 10
10.5819088379
 20
-1.6520932318
 30
0.0
 11
11.1784001507
 21
-1.8454776952
 31
0.0
 11
10.5819088379
 21
-1.6520932318
 31
0.0
  0
SPLINE
  5
49A
100
AcDbEntity
  8
0
100
AcDbSpline
 62
7
  6
CONTINUOUS
 70
0
 71
3
 72
8
 73
4
 74
2
 42
0.0000001
 43
0.0000001
 44
0.0000000001
 12
-0.4206216757
 22
0.3857408319
 32
0.0
 13
-0.0
 23
0.5975446701
 33
0.0
 40
0.0
 40
0.0
 40
0.0
 40
0.0
 40
1.0
 40
1.0
 40
1.0
 40
1.0
 10
10.5819088379
 20
-1.6520932318
 30
0.0
 10
10.4417016126
 20
-1.5235129544
 30
0.0
 10
10.3721245446
 20
-1.3598023603
 30
0.0
 10
10.3721245446
 20
-1.1606208036
 30
0.0
 11
10.5819088379
 21
-1.6520932318
 31
0.0
 11
10.3721245446
 21
-1.1606208036
 31
0.0
  0
SPLINE
  5
49B
100
AcDbEntity
  8
0
100
AcDbSpline
 62
7
  6
CONTINUOUS
 70
0
 71
3
 72
8
 73
4
 74
2
 42
0.0000001
 43
0.0000001
 44
0.0000000001
 12
-0.0
 22
0.5893592834
 32
0.0
 13
0.4174624293
 23
0.3888129965
 33
0.0
 40
0.0
 40
0.0
 40
0.0
 40
0.0
 40
1.0
 40
1.0
 40
1.0
 40
1.0
 10
10.3721245446
 20
-1.1606208036
 30
0.0
 10
10.3721245446
 20
-0.9641677091
 30
0.0
 10
10.4403373815
 20
-0.801821346
 30
0.0
 10
10.5794915246
 20
-0.6722170138
 30
0.0
 11
10.3721245446
 21
-1.1606208036
 31
0.0
 11
10.5794915246
 21
-0.6722170138
 31
0.0
  0
SPLINE
  5
49C
100
AcDbEntity
  8
0
100
AcDbSpline
 62
7
  6
CONTINUOUS
 70
0
 71
3
 72
8
 73
4
 74
2
 42
0.0000001
 43
0.0000001
 44
0.0000000001
 12
0.4174624772
 22
0.3888130411
 32
0.0
 13
0.7244203091
 23
0.0
 33
0.0
 40
0.0
 40
0.0
 40
0.0
 40
0.0
 40
1.0
 40
1.0
 40
1.0
 40
1.0
 10
10.5794915246
 20
-0.6722170138
 30
0.0
 10
10.7186456837
 20
-0.5426126668
 30
0.0
 10
10.9082773246
 20
-0.478492851
 30
0.0
 10
11.149750761
 20
-0.478492851
 30
0.0
 11
10.5794915246
 21
-0.6722170138
 31
0.0
 11
11.149750761
 21
-0.478492851
 31
0.0
  0
SPLINE
  5
49D
100
AcDbEntity
  8
0
100
AcDbSpline
 62
7
  6
CONTINUOUS
 70
0
 71
3
 72
8
 73
4
 74
2
 42
0.0000001
 43
0.0000001
 44
0.0000000001
 12
0.900409162
 22
0.0
 32
0.0
 13
0.3847199683
 23
-0.4051841312
 33
0.0
 40
0.0
 40
0.0
 40
0.0
 40
0.0
 40
1.0
 40
1.0
 40
1.0
 40
1.0
 10
11.149750761
 20
-0.478492851
 30
0.0
 10
11.4498871483
 20
-0.478492851
 30
0.0
 10
11.6654397168
 20
-0.545341129
 30
0.0
 10
11.7936797062
 20
-0.6804025061
 30
0.0
 11
11.149750761
 21
-0.478492851
 31
0.0
 11
11.7936797062
 21
-0.6804025061
 31
0.0
  0
SPLINE
  5
49E
100
AcDbEntity
  8
0
100
AcDbSpline
 62
7
  6
CONTINUOUS
 70
0
 71
3
 72
8
 73
4
 74
2
 42
0.0000001
 43
0.0000001
 44
0.0000000001
 12
-0.4743723776
 22
-0.229998772
 32
0.0
 13
-0.2725184225
 23
-0.4446349326
 33
0.0
 40
0.0
 40
0.0
 40
0.0
 40
0.0
 40
1.0
 40
1.0
 40
1.0
 40
1.0
 10
10.654396026
 20
-0.3199708197
 30
0.0
 10
10.4962719001
 20
-0.3966370771
 30
0.0
 10
10.3721245446
 20
-0.5085064122
 30
0.0
 10
10.2812850704
 20
-0.6567180564
 30
0.0
 11
10.654396026
 21
-0.3199708197
 31
0.0
 11
10.2812850704
 21
-0.6567180564
 31
0.0
  0
SPLINE
  5
49F
100
AcDbEntity
  8
0
100
AcDbSpline
 62
7
  6
CONTINUOUS
 70
0
 71
3
 72
8
 73
4
 74
2
 42
0.0000001
 43
0.0000001
 44
0.0000000001
 12
-0.27181991
 22
-0.4434952554
 32
0.0
 13
0.0
 23
-0.564801693
 33
0.0
 40
0.0
 40
0.0
 40
0.0
 40
0.0
 40
1.0
 40
1.0
 40
1.0
 40
1.0
 10
10.2812850704
 20
-0.6567180564
 30
0.0
 10
10.1906784337
 20
-0.8045498082
 30
0.0
 10
10.1456579708
 20
-0.9737178037
 30
0.0
 10
10.1456579708
 20
-1.1619850347
 30
0.0
 11
10.2812850704
 21
-0.6567180564
 31
0.0
 11
10.1456579708
 21
-1.1619850347
 31
0.0
  0
SPLINE
  5
4A0
100
AcDbEntity
  8
0
100
AcDbSpline
 62
7
  6
CONTINUOUS
 70
0
 71
3
 72
8
 73
4
 74
2
 42
0.0000001
 43
0.0000001
 44
0.0000000001
 12
0.0
 22
-0.5197820663
 32
0.0
 13
0.2455661681
 23
-0.4502048445
 33
0.0
 40
0.0
 40
0.0
 40
0.0
 40
0.0
 40
1.0
 40
1.0
 40
1.0
 40
1.0
 10
10.1456579708
 20
-1.1619850347
 30
0.0
 10
10.1456579708
 20
-1.3352457235
 30
0.0
 10
10.186585664
 20
-1.4975920865
 30
0.0
 10
10.2684410534
 20
-1.647660368
 30
0.0
 11
10.1456579708
 21
-1.1619850347
 31
0.0
 11
10.2684410534
 21
-1.647660368
 31
0.0
  0
SPLINE
  5
4A1
100
AcDbEntity
  8
0
100
AcDbSpline
 62
7
  6
CONTINUOUS
 70
0
 71
3
 72
8
 73
4
 74
2
 42
0.0000001
 43
0.0000001
 44
0.0000000001
 12
0.2455661732
 22
-0.4502048539
 32
0.0
 13
0.4825228784
 23
-0.2463943865
 33
0.0
 40
0.0
 40
0.0
 40
0.0
 40
0.0
 40
1.0
 40
1.0
 40
1.0
 40
1.0
 10
10.2684410534
 20
-1.647660368
 30
0.0
 10
10.3502964445
 20
-1.7977286527
 30
0.0
 10
10.4717152633
 20
-1.9136906812
 30
0.0
 10
10.6325562228
 20
-1.9958221433
 30
0.0
 11
10.2684410534
 21
-1.647660368
 31
0.0
 11
10.6325562228
 21
-1.9958221433
 31
0.0
  0
SPLINE
  5
4A2
100
AcDbEntity
  8
0
100
AcDbSpline
 62
7
  6
CONTINUOUS
 70
0
 71
3
 72
8
 73
4
 74
2
 42
0.0000001
 43
0.0000001
 44
0.0000000001
 12
0.4792779353
 22
-0.2447373961
 32
0.0
 13
0.6098225713
 23
0.0
 33
0.0
 40
0.0
 40
0.0
 40
0.0
 40
0.0
 40
1.0
 40
1.0
 40
1.0
 40
1.0
 10
10.6325562228
 20
-1.9958221433
 30
0.0
 10
10.7923155345
 20
-2.0774012754
 30
0.0
 10
10.9737616696
 20
-2.1183286855
 30
0.0
 10
11.17703586
 20
-2.1183286855
 30
0.0
 11
10.6325562228
 21
-1.9958221433
 31
0.0
 11
11.17703586
 21
-2.1183286855
 31
0.0
  0
SPLINE
  5
4A3
100
AcDbEntity
  8
0
100
AcDbSpline
 62
7
  6
CONTINUOUS
 70
0
 71
3
 72
8
 73
4
 74
2
 42
0.0000001
 43
0.0000001
 44
0.0000000001
 12
0.5975444913
 22
0.0
 32
0.0
 13
0.474761044
 23
0.2332877405
 33
0.0
 40
0.0
 40
0.0
 40
0.0
 40
0.0
 40
1.0
 40
1.0
 40
1.0
 40
1.0
 10
11.17703586
 20
-2.1183286855
 30
0.0
 10
11.3762173571
 20
-2.1183286855
 30
0.0
 10
11.5549349703
 20
-2.0787655065
 30
0.0
 10
11.7131886516
 20
-2.0010029263
 30
0.0
 11
11.17703586
 21
-2.1183286855
 31
0.0
 11
11.7131886516
 21
-2.0010029263
 31
0.0
  0
SPLINE
  5
4A4
100
AcDbEntity
  8
0
100
AcDbSpline
 62
7
  6
CONTINUOUS
 70
0
 71
3
 72
8
 73
4
 74
2
 42
0.0000001
 43
0.0000001
 44
0.0000000001
 12
0.4747613321
 22
0.2332878821
 32
0.0
 13
0.2636150182
 23
0.4434448646
 33
0.0
 40
0.0
 40
0.0
 40
0.0
 40
0.0
 40
1.0
 40
1.0
 40
1.0
 40
1.0
 10
11.7131886516
 20
-2.0010029263
 30
0.0
 10
11.871442429
 20
-1.923240299
 30
0.0
 10
11.9942254938
 20
-1.8100067327
 30
0.0
 10
12.0820971666
 20
-1.6621917778
 30
0.0
 11
11.7131886516
 21
-2.0010029263
 31
0.0
 11
12.0820971666
 21
-1.6621917778
 31
0.0
  0
SPLINE
  5
4A5
100
AcDbEntity
  8
0
100
AcDbSpline
 62
7
  6
CONTINUOUS
 70
0
 71
3
 72
8
 73
4
 74
2
 42
0.0000001
 43
0.0000001
 44
0.0000000001
 12
0.2643524348
 22
0.4446853234
 32
0.0
 13
0.0
 23
0.552523613
 33
0.0
 40
0.0
 40
0.0
 40
0.0
 40
0.0
 40
1.0
 40
1.0
 40
1.0
 40
1.0
 10
12.0820971666
 20
-1.6621917778
 30
0.0
 10
12.1702146448
 20
-1.5139633367
 30
0.0
 10
12.2152351059
 20
-1.3475238034
 30
0.0
 10
12.2152351059
 20
-1.1633492658
 30
0.0
 11
12.0820971666
 21
-1.6621917778
 31
0.0
 11
12.2152351059
 21
-1.1633492658
 31
0.0
  0
SPLINE
  5
4A6
100
AcDbEntity
  8
0
100
AcDbSpline
 62
7
  6
CONTINUOUS
 70
0
 71
3
 72
8
 73
4
 74
2
 42
0.0000001
 43
0.0000001
 44
0.0000000001
 12
0.0
 22
0.8472032547
 32
0.0
 13
-0.5637797145
 23
0.5331395494
 33
0.0
 40
0.0
 40
0.0
 40
0.0
 40
0.0
 40
1.0
 40
1.0
 40
1.0
 40
1.0
 10
12.2152351059
 20
-1.1633492658
 30
0.0
 10
12.2152351059
 20
-0.8809481809
 30
0.0
 10
12.1211013712
 20
-0.6503888318
 30
0.0
 10
11.9331747997
 20
-0.4726756487
 30
0.0
 11
12.2152351059
 21
-1.1633492658
 31
0.0
 11
11.9331747997
 21
-0.4726756487
 31
0.0
  0
SPLINE
  5
4A7
100
AcDbEntity
  8
0
100
AcDbSpline
 62
7
  6
CONTINUOUS
 70
0
 71
3
 72
8
 73
4
 74
2
 42
0.0000001
 43
0.0000001
 44
0.0000000001
 12
-0.5658247444
 22
0.5350734366
 32
0.0
 13
-0.9945430756
 23
0.0
 33
0.0
 40
0.0
 40
0.0
 40
0.0
 40
0.0
 40
1.0
 40
1.0
 40
1.0
 40
1.0
 10
11.9331747997
 20
-0.4726756487
 30
0.0
 10
11.7445665516
 20
-0.2943178365
 30
0.0
 10
11.4853578724
 20
-0.2056413839
 30
0.0
 10
11.1538435139
 20
-0.2056413839
 30
0.0
 11
11.9331747997
 21
-0.4726756487
 31
0.0
 11
11.1538435139
 21
-0.2056413839
 31
0.0
  0
SPLINE
  5
4A8
100
AcDbEntity
  8
0
100
AcDbSpline
 62
7
  6
CONTINUOUS
 70
0
 71
3
 72
8
 73
4
 74
2
 42
0.0000001
 43
0.0000001
 44
0.0000000001
 12
-0.5279672742
 22
0.0
 32
0.0
 13
-0.4710573051
 23
-0.2283914639
 33
0.0
 40
0.0
 40
0.0
 40
0.0
 40
0.0
 40
1.0
 40
1.0
 40
1.0
 40
1.0
 10
11.1538435139
 20
-0.2056413839
 30
0.0
 10
10.9778544225
 20
-0.2056413839
 30
0.0
 10
10.8114151277
 20
-0.2438403318
 30
0.0
 10
10.654396026
 20
-0.3199708197
 30
0.0
 11
11.1538435139
 21
-0.2056413839
 31
0.0
 11
10.654396026
 21
-0.3199708197
 31
0.0
  0
SPLINE
  5
4A9
100
AcDbEntity
  8
0
100
AcDbSpline
 62
7
  6
CONTINUOUS
 70
0
 71
3
 72
9
 73
5
 74
3
 42
0.0000001
 43
0.0000001
 44
0.0000000001
 12
-0.622708418
 22
-0.0096085811
 32
0.0
 13
-0.0139068333
 23
0.622627255
 33
0.0
 40
0.0
 40
0.0
 40
0.0
 40
0.0
 40
0.5206208722
 40
1.0
 40
1.0
 40
1.0
 40
1.0
 10
16.457589393
 20
-4.1503262747
 30
0.0
 10
16.3495243931
 20
-4.1519937507
 30
0.0
 10
16.113457464
 20
-4.0756510737
 30
0.0
 10
16.0713537697
 20
-3.8444892136
 30
0.0
 10
16.0691315544
 20
-3.7449977101
 30
0.0
 11
16.457589393
 21
-4.1503262747
 31
0.0
 11
16.1562946289
 21
-4.0305394339
 31
0.0
 11
16.0691315544
 21
-3.7449977101
 31
0.0
  0
SPLINE
  5
4AA
100
AcDbEntity
  8
0
100
AcDbSpline
 62
7
  6
CONTINUOUS
 70
0
 71
3
 72
9
 73
5
 74
3
 42
0.0000001
 43
0.0000001
 44
0.0000000001
 12
0.068942522
 22
-0.404036381
 32
0.0
 13
-0.047249925
 23
-0.4071439908
 33
0.0
 40
0.0
 40
0.0
 40
0.0
 40
0.0
 40
0.270412968
 40
1.0
 40
1.0
 40
1.0
 40
1.0
 10
16.7553577068
 20
-3.4467982556
 30
0.0
 10
16.7615720241
 20
-3.4832171479
 30
0.0
 10
16.7820090885
 20
-3.6183173125
 30
0.0
 10
16.7815667819
 20
-3.7565337897
 30
0.0
 10
16.7700758044
 20
-3.8555494483
 30
0.0
 11
16.7553577068
 21
-3.4467982556
 31
0.0
 11
16.7710981527
 21
-3.5565106956
 31
0.0
 11
16.7700758044
 21
-3.8555494483
 31
0.0
  0
SPLINE
  5
4AB
100
AcDbEntity
  8
0
100
AcDbSpline
 62
7
  6
CONTINUOUS
 70
0
 71
3
 72
9
 73
5
 74
3
 42
0.0000001
 43
0.0000001
 44
0.0000000001
 12
-0.0530973084
 22
-0.457636866
 32
0.0
 13
-0.4606559775
 23
-0.0072048848
 33
0.0
 40
0.0
 40
0.0
 40
0.0
 40
0.0
 40
0.5013799113
 40
1.0
 40
1.0
 40
1.0
 40
1.0
 10
16.7700758044
 20
-3.8555494483
 30
0.0
 10
16.7612018298
 20
-3.9320327587
 30
0.0
 10
16.6938561695
 20
-4.0867261263
 30
0.0
 10
16.5341535012
 20
-4.1491287746
 30
0.0
 10
16.457589393
 20
-4.1503262747
 30
0.0
 11
16.7700758044
 21
-3.8555494483
 31
0.0
 11
16.6704534351
 21
-4.063952844
 31
0.0
 11
16.457589393
 21
-4.1503262747
 31
0.0
  0
SPLINE
  5
4AC
100
AcDbEntity
  8
0
100
AcDbSpline
 62
7
  6
CONTINUOUS
 70
0
 71
3
 72
8
 73
4
 74
2
 42
0.0000001
 43
0.0000001
 44
0.0000000001
 12
0.0091151709
 22
-0.0706425743
 32
0.0
 13
0.0456535418
 23
-0.0582499971
 33
0.0
 40
0.0
 40
0.0
 40
0.0
 40
0.0
 40
1.0
 40
1.0
 40
1.0
 40
1.0
 10
15.8631024996
 20
-4.285910676
 30
0.0
 10
15.8661408899
 20
-4.3094582007
 30
0.0
 10
15.8794839942
 20
-4.329984203
 30
0.0
 10
15.8947018415
 20
-4.3494008687
 30
0.0
 11
15.8631024996
 21
-4.285910676
 31
0.0
 11
15.8947018415
 21
-4.3494008687
 31
0.0
  0
SPLINE
  5
4AD
100
AcDbEntity
  8
0
100
AcDbSpline
 62
7
  6
CONTINUOUS
 70
0
 71
3
 72
19
 73
15
 74
13
 42
0.0000001
 43
0.0000001
 44
0.0000000001
 12
0.9532265625
 22
-1.2162351993
 32
0.0
 13
0.5046817915
 23
1.3989656274
 33
0.0
 40
0.0
 40
0.0
 40
0.0
 40
0.0
 40
0.010724794
 40
0.1288201904
 40
0.2040384973
 40
0.288850006
 40
0.3844238549
 40
0.4371592643
 40
0.4938126757
 40
0.5825914842
 40
0.66239528
 40
0.8013964309
 40
0.9162689263
 40
1.0
 40
1.0
 40
1.0
 40
1.0
 10
15.8947018415
 20
-4.3494008687
 30
0.0
 10
15.898109561
 20
-4.353748826
 30
0.0
 10
15.9401703364
 20
-4.4053058841
 30
0.0
 10
16.0066418046
 20
-4.4791621083
 30
0.0
 10
16.1231892802
 20
-4.5557125978
 30
0.0
 10
16.2394968148
 20
-4.6070359265
 30
0.0
 10
16.3531034305
 20
-4.6326581424
 30
0.0
 10
16.4545202593
 20
-4.6405794182
 30
0.0
 10
16.5528763152
 20
-4.6388362455
 30
0.0
 10
16.6639677004
 20
-4.6227858744
 30
0.0
 10
16.8094229204
 20
-4.5749836092
 30
0.0
 10
16.9520153092
 20
-4.4851605449
 30
0.0
 10
17.0635131522
 20
-4.3583494835
 30
0.0
 10
17.1116030382
 20
-4.2711574366
 30
0.0
 10
17.1256888876
 20
-4.2321118053
 30
0.0
 11
15.8947018415
 21
-4.3494008687
 31
0.0
 11
15.9051123647
 21
-4.3622993316
 31
0.0
 11
16.0273390171
 21
-4.4884249962
 31
0.0
 11
16.1204414805
 21
-4.550440218
 31
0.0
 11
16.2358875509
 21
-4.6012509053
 31
0.0
 11
16.3744403651
 21
-4.6329774624
 31
0.0
 11
16.4526202814
 21
-4.6392218186
 31
0.0
 11
16.53686306
 21
-4.6377402939
 31
0.0
 11
16.6674440901
 21
-4.6182119892
 31
0.0
 11
16.7801026098
 21
-4.5808718884
 31
0.0
 11
16.9549383953
 21
-4.4705654583
 31
0.0
 11
17.06794297
 21
-4.3424393238
 31
0.0
 11
17.1256888876
 21
-4.2321118053
 31
0.0
  0
SPLINE
  5
4AE
100
AcDbEntity
  8
0
100
AcDbSpline
 62
7
  6
CONTINUOUS
 70
0
 71
3
 72
9
 73
5
 74
3
 42
0.0000001
 43
0.0000001
 44
0.0000000001
 12
0.4405229088
 22
1.2193490006
 32
0.0
 13
-0.1887038006
 23
1.2826781724
 33
0.0
 40
0.0
 40
0.0
 40
0.0
 40
0.0
 40
0.2957417834
 40
1.0
 40
1.0
 40
1.0
 40
1.0
 10
17.1256888876
 20
-4.2321118053
 30
0.0
 10
17.1691158978
 20
-4.1119076559
 30
0.0
 10
17.2399045129
 20
-3.6798465064
 30
0.0
 10
17.1963059542
 20
-3.2455189949
 30
0.0
 10
17.1520072201
 20
-2.9444067808
 30
0.0
 11
17.1256888876
 21
-4.2321118053
 31
0.0
 11
17.2009815318
 21
-3.8561523629
 31
0.0
 11
17.1520072201
 21
-2.9444067808
 31
0.0
  0
SPLINE
  5
4AF
100
AcDbEntity
  8
0
100
AcDbSpline
 62
7
  6
CONTINUOUS
 70
0
 71
3
 72
9
 73
5
 74
3
 42
0.0000001
 43
0.0000001
 44
0.0000000001
 12
-0.0
 22
-0.3832706508
 32
0.0
 13
-0.3588335216
 23
-0.1346658663
 33
0.0
 40
0.0
 40
0.0
 40
0.0
 40
0.0
 40
0.3559141631
 40
1.0
 40
1.0
 40
1.0
 40
1.0
 10
15.6597352704
 20
-3.7438729951
 30
0.0
 10
15.6597352704
 20
-3.7893434794
 30
0.0
 10
15.6322014496
 20
-3.920149869
 30
0.0
 10
15.5165184329
 20
-4.0060746189
 30
0.0
 10
15.4394785699
 20
-4.0349867447
 30
0.0
 11
15.6597352704
 21
-3.7438729951
 31
0.0
 11
15.628969627
 21
-3.8767697959
 31
0.0
 11
15.4394785699
 21
-4.0349867447
 31
0.0
  0
SPLINE
  5
4B0
100
AcDbEntity
  8
0
100
AcDbSpline
 62
7
  6
CONTINUOUS
 70
0
 71
3
 72
9
 73
5
 74
3
 42
0.0000001
 43
0.0000001
 44
0.0000000001
 12
-0.7410519452
 22
-0.2784029507
 32
0.0
 13
-0.7608032774
 23
-0.2187339972
 33
0.0
 40
0.0
 40
0.0
 40
0.0
 40
0.0
 40
0.5586214172
 40
1.0
 40
1.0
 40
1.0
 40
1.0
 10
15.4394785699
 20
-4.0349867447
 30
0.0
 10
15.3014894073
 20
-4.0868273616
 30
0.0
 10
15.0459724288
 20
-4.1550023817
 30
0.0
 10
14.7934109419
 20
-4.2309724405
 30
0.0
 10
14.6814768511
 20
-4.2631539411
 30
0.0
 11
15.4394785699
 21
-4.0349867447
 31
0.0
 11
15.0169371785
 21
-4.1654279176
 31
0.0
 11
14.6814768511
 21
-4.2631539411
 31
0.0
  0
SPLINE
  5
4B1
100
AcDbEntity
  8
0
100
AcDbSpline
 62
7
  6
CONTINUOUS
 70
0
 71
3
 72
9
 73
5
 74
3
 42
0.0000001
 43
0.0000001
 44
0.0000000001
 12
0.675231447
 22
0.1833909485
 32
0.0
 13
0.675086514
 23
0.1839237496
 33
0.0
 40
0.0
 40
0.0
 40
0.0
 40
0.0
 40
0.1980141723
 40
1.0
 40
1.0
 40
1.0
 40
1.0
 10
14.6814768511
 20
-4.7650580394
 30
0.0
 10
14.7260453164
 20
-4.7529533704
 30
0.0
 10
14.9516283795
 20
-4.6937064398
 30
0.0
 10
15.1775792602
 20
-4.6358463101
 30
0.0
 10
15.3580491991
 20
-4.5866782299
 30
0.0
 11
14.6814768511
 21
-4.7650580394
 31
0.0
 11
14.8153970255
 21
-4.7295442825
 31
0.0
 11
15.3580491991
 21
-4.5866782299
 31
0.0
  0
SPLINE
  5
4B2
100
AcDbEntity
  8
0
100
AcDbSpline
 62
7
  6
CONTINUOUS
 70
0
 71
3
 72
9
 73
5
 74
3
 42
0.0000001
 43
0.0000001
 44
0.0000000001
 12
0.5615839933
 22
0.1529923931
 32
0.0
 13
0.2155855523
 23
0.5406534227
 33
0.0
 40
0.0
 40
0.0
 40
0.0
 40
0.0
 40
0.2426586216
 40
1.0
 40
1.0
 40
1.0
 40
1.0
 10
15.3580491991
 20
-4.5866782299
 30
0.0
 10
15.4034735984
 20
-4.5743032555
 30
0.0
 10
15.5869083922
 20
-4.5270327631
 30
0.0
 10
15.7939072886
 20
-4.4223970787
 30
0.0
 10
15.8483312417
 20
-4.285910676
 30
0.0
 11
15.3580491991
 21
-4.5866782299
 31
0.0
 11
15.4938851968
 21
-4.547984224
 31
0.0
 11
15.8483312417
 21
-4.285910676
 31
0.0
  0
SPLINE
  5
4B3
100
AcDbEntity
  8
RACCORDO
100
AcDbSpline
 62
7
  6
CONTINUOUS
 70
0
 71
3
 72
11
 73
7
 74
5
 42
0.0000001
 43
0.0000001
 44
0.0000000001
 12
-0.1074164622
 22
-0.3225878649
 32
0.0
 13
-0.3360512935
 23
-0.0417232276
 33
0.0
 40
0.0
 40
0.0
 40
0.0
 40
0.0
 40
0.232281062
 40
0.4890391346
 40
0.7451735499
 40
1.0
 40
1.0
 40
1.0
 40
1.0
 10
15.3284496193
 20
17.0976951408
 30
0.0
 10
15.3201326826
 20
17.0727181235
 30
0.0
 10
15.2958083832
 20
17.0224677095
 30
0.0
 10
15.2393108782
 20
16.958556584
 30
0.0
 10
15.1648426191
 20
16.9120073297
 30
0.0
 10
15.1083093012
 20
16.8964548325
 30
0.0
 10
15.0797643818
 20
16.8929107718
 30
0.0
 11
15.3284496193
 21
17.0976951408
 31
0.0
 11
15.2941486173
 21
17.0268568939
 31
0.0
 11
15.2365410316
 21
16.9617336416
 31
0.0
 11
15.1629642064
 21
16.9158049697
 31
0.0
 11
15.0797643818
 21
16.8929107718
 31
0.0
  0
SPLINE
  5
4B4
100
AcDbEntity
  8
RACCORDO
100
AcDbSpline
 62
7
  6
CONTINUOUS
 70
0
 71
3
 72
11
 73
7
 74
5
 42
0.0000001
 43
0.0000001
 44
0.0000000001
 12
0.1074164622
 22
0.3225878649
 32
0.0
 13
0.3360512935
 23
0.0417232276
 33
0.0
 40
0.0
 40
0.0
 40
0.0
 40
0.0
 40
0.232281062
 40
0.4890391346
 40
0.7451735499
 40
1.0
 40
1.0
 40
1.0
 40
1.0
 10
7.0310791444
 20
-17.0320337481
 30
0.0
 10
7.039396081
 20
-17.0070567308
 30
0.0
 10
7.0637203804
 20
-16.9568063168
 30
0.0
 10
7.1202178855
 20
-16.8928951912
 30
0.0
 10
7.1946861445
 20
-16.8463459369
 30
0.0
 10
7.2512194624
 20
-16.8307934397
 30
0.0
 10
7.2797643818
 20
-16.8272493791
 30
0.0
 11
7.0310791444
 21
-17.0320337481
 31
0.0
 11
7.0653801463
 21
-16.9611955012
 31
0.0
 11
7.1229877321
 21
-16.8960722489
 31
0.0
 11
7.1965645573
 21
-16.8501435769
 31
0.0
 11
7.2797643818
 21
-16.8272493791
 31
0.0
  0
SPLINE
  5
4B5
100
AcDbEntity
  8
RACCORDO
100
AcDbSpline
 62
7
  6
CONTINUOUS
 70
0
 71
3
 72
11
 73
7
 74
5
 42
0.0000001
 43
0.0000001
 44
0.0000000001
 12
-0.1074164622
 22
-0.3225878649
 32
0.0
 13
-0.3360512935
 23
-0.0417232276
 33
0.0
 40
0.0
 40
0.0
 40
0.0
 40
0.0
 40
0.232281062
 40
0.4890391346
 40
0.7451735499
 40
1.0
 40
1.0
 40
1.0
 40
1.0
 10
7.5284496193
 20
17.0976951408
 30
0.0
 10
7.5201326826
 20
17.0727181235
 30
0.0
 10
7.4958083832
 20
17.0224677095
 30
0.0
 10
7.4393108782
 20
16.958556584
 30
0.0
 10
7.3648426191
 20
16.9120073297
 30
0.0
 10
7.3083093012
 20
16.8964548325
 30
0.0
 10
7.2797643818
 20
16.8929107718
 30
0.0
 11
7.5284496193
 21
17.0976951408
 31
0.0
 11
7.4941486173
 21
17.0268568939
 31
0.0
 11
7.4365410316
 21
16.9617336416
 31
0.0
 11
7.3629642064
 21
16.9158049697
 31
0.0
 11
7.2797643818
 21
16.8929107718
 31
0.0
  0
SPLINE
  5
4B6
100
AcDbEntity
  8
RACCORDO
100
AcDbSpline
 62
7
  6
CONTINUOUS
 70
0
 71
3
 72
11
 73
7
 74
5
 42
0.0000001
 43
0.0000001
 44
0.0000000001
 12
0.3360512935
 22
-0.0417232276
 32
0.0
 13
0.1074164622
 23
-0.3225878649
 33
0.0
 40
0.0
 40
0.0
 40
0.0
 40
0.0
 40
0.2548264501
 40
0.5109608654
 40
0.767718938
 40
1.0
 40
1.0
 40
1.0
 40
1.0
 10
7.2797643818
 20
-16.8272493791
 30
0.0
 10
7.3083093012
 20
-16.8307934397
 30
0.0
 10
7.3648426191
 20
-16.8463459369
 30
0.0
 10
7.4393108782
 20
-16.8928951912
 30
0.0
 10
7.4958083832
 20
-16.9568063168
 30
0.0
 10
7.5201326826
 20
-17.0070567308
 30
0.0
 10
7.5284496193
 20
-17.0320337481
 30
0.0
 11
7.2797643818
 21
-16.8272493791
 31
0.0
 11
7.3629642064
 21
-16.8501435769
 31
0.0
 11
7.4365410316
 21
-16.8960722489
 31
0.0
 11
7.4941486173
 21
-16.9611955012
 31
0.0
 11
7.5284496193
 21
-17.0320337481
 31
0.0
  0
SPLINE
  5
4B7
100
AcDbEntity
  8
RACCORDO
100
AcDbSpline
 62
253
  6
CONTINUOUS
 70
0
 71
3
 72
11
 73
7
 74
5
 42
0.0000001
 43
0.0000001
 44
0.0000000001
 12
0.3744509998
 22
0.0033199492
 32
0.0
 13
0.1189757453
 23
-0.3584618195
 33
0.0
 40
0.0
 40
0.0
 40
0.0
 40
0.0
 40
0.318906794
 40
0.6313792274
 40
0.9437057137
 40
1.0
 40
1.0
 40
1.0
 40
1.0
 10
7.2797643818
 20
-16.9423484981
 30
0.0
 10
7.3195693711
 20
-16.94199558
 30
0.0
 10
7.3994262522
 20
-16.9573788146
 30
0.0
 10
7.4998265094
 20
-17.0244728383
 30
0.0
 10
7.5483499149
 20
-17.0968859775
 30
0.0
 10
7.5645305567
 20
-17.1404062684
 30
0.0
 10
7.5667631082
 20
-17.1471327192
 30
0.0
 11
7.2797643818
 21
-16.9423484981
 31
0.0
 11
7.3970038952
 21
-16.965063075
 31
0.0
 11
7.4943496827
 21
-17.0299875528
 31
0.0
 11
7.5593533566
 21
-17.1272147392
 31
0.0
 11
7.5667631082
 21
-17.1471327192
 31
0.0
  0
LINE
  5
4B8
100
AcDbEntity
  8
RACCORDO
100
AcDbLine
 62
7
  6
CONTINUOUS
 10
7.2797643818
 20
-16.9351279441
 11
7.2797643818
 21
-16.9423484981
  0
LINE
  5
4B9
100
AcDbEntity
  8
RACCORDO
100
AcDbLine
 62
7
  6
CONTINUOUS
 10
7.2797643818
 20
-16.9351279441
 11
7.2797643818
 21
-16.8272493791
  0
SPLINE
  5
4BA
100
AcDbEntity
  8
RACCORDO
100
AcDbSpline
 62
253
  6
CONTINUOUS
 70
0
 71
3
 72
11
 73
7
 74
5
 42
0.0000001
 43
0.0000001
 44
0.0000000001
 12
-0.3744511614
 22
0.0033199595
 32
0.0
 13
-0.1189755411
 23
-0.358461857
 33
0.0
 40
0.0
 40
0.0
 40
0.0
 40
0.0
 40
0.3189150909
 40
0.6313911078
 40
0.9437148603
 40
1.0
 40
1.0
 40
1.0
 40
1.0
 10
7.2797643818
 20
-16.9423484981
 30
0.0
 10
7.2399583398
 20
-16.9419955697
 30
0.0
 10
7.1600998641
 20
-16.9573795522
 30
0.0
 10
7.0596994208
 20
-17.0244756237
 30
0.0
 10
7.0111776178
 20
-17.0968885661
 30
0.0
 10
6.9949977731
 20
-17.1404075436
 30
0.0
 10
6.9927655881
 20
-17.1471329022
 30
0.0
 11
7.2797643818
 21
-16.9423484981
 31
0.0
 11
7.1625218893
 21
-16.9650643038
 31
0.0
 11
7.0651757958
 21
-17.0299908322
 31
0.0
 11
7.0001740108
 21
-17.1272181108
 31
0.0
 11
6.9927655881
 21
-17.1471329022
 31
0.0
  0
SPLINE
  5
4BB
100
AcDbEntity
  8
RACCORDO
100
AcDbSpline
 62
7
  6
CONTINUOUS
 70
0
 71
3
 72
11
 73
7
 74
5
 42
0.0000001
 43
0.0000001
 44
0.0000000001
 12
0.3360512935
 22
-0.0417232276
 32
0.0
 13
0.1074164622
 23
-0.3225878649
 33
0.0
 40
0.0
 40
0.0
 40
0.0
 40
0.0
 40
0.2548264501
 40
0.5109608654
 40
0.767718938
 40
1.0
 40
1.0
 40
1.0
 40
1.0
 10
15.0797643818
 20
-16.8272493791
 30
0.0
 10
15.1083093012
 20
-16.8307934397
 30
0.0
 10
15.1648426191
 20
-16.8463459369
 30
0.0
 10
15.2393108782
 20
-16.8928951912
 30
0.0
 10
15.2958083832
 20
-16.9568063168
 30
0.0
 10
15.3201326826
 20
-17.0070567308
 30
0.0
 10
15.3284496193
 20
-17.0320337481
 30
0.0
 11
15.0797643818
 21
-16.8272493791
 31
0.0
 11
15.1629642064
 21
-16.8501435769
 31
0.0
 11
15.2365410316
 21
-16.8960722489
 31
0.0
 11
15.2941486173
 21
-16.9611955012
 31
0.0
 11
15.3284496193
 21
-17.0320337481
 31
0.0
  0
SPLINE
  5
4BC
100
AcDbEntity
  8
RACCORDO
100
AcDbSpline
 62
253
  6
CONTINUOUS
 70
0
 71
3
 72
11
 73
7
 74
5
 42
0.0000001
 43
0.0000001
 44
0.0000000001
 12
0.3744509998
 22
0.0033199492
 32
0.0
 13
0.1189757453
 23
-0.3584618195
 33
0.0
 40
0.0
 40
0.0
 40
0.0
 40
0.0
 40
0.318906794
 40
0.6313792274
 40
0.9437057137
 40
1.0
 40
1.0
 40
1.0
 40
1.0
 10
15.0797643818
 20
-16.9423484981
 30
0.0
 10
15.1195693711
 20
-16.94199558
 30
0.0
 10
15.1994262522
 20
-16.9573788146
 30
0.0
 10
15.2998265094
 20
-17.0244728383
 30
0.0
 10
15.3483499149
 20
-17.0968859775
 30
0.0
 10
15.3645305567
 20
-17.1404062684
 30
0.0
 10
15.3667631082
 20
-17.1471327192
 30
0.0
 11
15.0797643818
 21
-16.9423484981
 31
0.0
 11
15.1970038952
 21
-16.965063075
 31
0.0
 11
15.2943496827
 21
-17.0299875528
 31
0.0
 11
15.3593533566
 21
-17.1272147392
 31
0.0
 11
15.3667631082
 21
-17.1471327192
 31
0.0
  0
LINE
  5
4BD
100
AcDbEntity
  8
RACCORDO
100
AcDbLine
 62
7
  6
CONTINUOUS
 10
15.0797643818
 20
-16.9351272893
 11
15.0797643818
 21
-16.9423484981
  0
LINE
  5
4BE
100
AcDbEntity
  8
RACCORDO
100
AcDbLine
 62
7
  6
CONTINUOUS
 10
15.0797643818
 20
-16.9351272893
 11
15.0797643818
 21
-16.8272493791
  0
SPLINE
  5
4BF
100
AcDbEntity
  8
RACCORDO
100
AcDbSpline
 62
253
  6
CONTINUOUS
 70
0
 71
3
 72
11
 73
7
 74
5
 42
0.0000001
 43
0.0000001
 44
0.0000000001
 12
-0.3744511614
 22
0.0033199595
 32
0.0
 13
-0.1189755411
 23
-0.358461857
 33
0.0
 40
0.0
 40
0.0
 40
0.0
 40
0.0
 40
0.3189150909
 40
0.6313911078
 40
0.9437148603
 40
1.0
 40
1.0
 40
1.0
 40
1.0
 10
15.0797643818
 20
-16.9423484981
 30
0.0
 10
15.0399583398
 20
-16.9419955697
 30
0.0
 10
14.9600998641
 20
-16.9573795522
 30
0.0
 10
14.8596994208
 20
-17.0244756237
 30
0.0
 10
14.8111776178
 20
-17.0968885661
 30
0.0
 10
14.7949977731
 20
-17.1404075436
 30
0.0
 10
14.7927655881
 20
-17.1471329022
 30
0.0
 11
15.0797643818
 21
-16.9423484981
 31
0.0
 11
14.9625218893
 21
-16.9650643038
 31
0.0
 11
14.8651757958
 21
-17.0299908322
 31
0.0
 11
14.8001740108
 21
-17.1272181108
 31
0.0
 11
14.7927655881
 21
-17.1471329022
 31
0.0
  0
SPLINE
  5
4C0
100
AcDbEntity
  8
RACCORDO
100
AcDbSpline
 62
253
  6
CONTINUOUS
 70
0
 71
3
 72
11
 73
7
 74
5
 42
0.0000001
 43
0.0000001
 44
0.0000000001
 12
0.3744511614
 22
-0.0033199595
 32
0.0
 13
0.1189755411
 23
0.358461857
 33
0.0
 40
0.0
 40
0.0
 40
0.0
 40
0.0
 40
0.3189150909
 40
0.6313911078
 40
0.9437148603
 40
1.0
 40
1.0
 40
1.0
 40
1.0
 10
15.0797643818
 20
17.0080098909
 30
0.0
 10
15.1195704239
 20
17.0076569625
 30
0.0
 10
15.1994288995
 20
17.023040945
 30
0.0
 10
15.2998293428
 20
17.0901370165
 30
0.0
 10
15.3483511458
 20
17.1625499589
 30
0.0
 10
15.3645309906
 20
17.2060689364
 30
0.0
 10
15.3667631756
 20
17.2127942949
 30
0.0
 11
15.0797643818
 21
17.0080098909
 31
0.0
 11
15.1970068744
 21
17.0307256965
 31
0.0
 11
15.2943529678
 21
17.0956522249
 31
0.0
 11
15.3593547528
 21
17.1928795035
 31
0.0
 11
15.3667631756
 21
17.2127942949
 31
0.0
  0
SPLINE
  5
4C1
100
AcDbEntity
  8
RACCORDO
100
AcDbSpline
 62
253
  6
CONTINUOUS
 70
0
 71
3
 72
10
 73
6
 74
4
 42
0.0000001
 43
0.0000001
 44
0.0000000001
 12
-0.0000656956
 22
-0.1287895699
 32
0.0
 13
-0.0000558612
 23
-0.1287895745
 33
0.0
 40
0.0
 40
0.0
 40
0.0
 40
0.0
 40
0.517819231
 40
0.8559649897
 40
1.0
 40
1.0
 40
1.0
 40
1.0
 10
15.0795240665
 20
17.1368214408
 30
0.0
 10
15.0795127271
 20
17.1145915354
 30
0.0
 10
15.0798478341
 20
17.0778456388
 30
0.0
 10
15.0797475536
 20
17.0349156312
 30
0.0
 10
15.0797684323
 20
17.0142156891
 30
0.0
 10
15.0797657503
 20
17.0080322866
 30
0.0
 11
15.0795240665
 21
17.1368214408
 31
0.0
 11
15.0797641232
 21
17.0701321481
 31
0.0
 11
15.0797621363
 21
17.0265824956
 31
0.0
 11
15.0797657503
 21
17.0080322866
 31
0.0
  0
SPLINE
  5
4C2
100
AcDbEntity
  8
RACCORDO
100
AcDbSpline
 62
7
  6
CONTINUOUS
 70
0
 71
3
 72
11
 73
7
 74
5
 42
0.0000001
 43
0.0000001
 44
0.0000000001
 12
-0.3360512935
 22
0.0417232276
 32
0.0
 13
-0.1074164622
 23
0.3225878649
 33
0.0
 40
0.0
 40
0.0
 40
0.0
 40
0.0
 40
0.2548264501
 40
0.5109608654
 40
0.767718938
 40
1.0
 40
1.0
 40
1.0
 40
1.0
 10
15.0797643818
 20
16.8929107718
 30
0.0
 10
15.0512194624
 20
16.8964548325
 30
0.0
 10
14.9946861445
 20
16.9120073297
 30
0.0
 10
14.9202178855
 20
16.958556584
 30
0.0
 10
14.8637203804
 20
17.0224677095
 30
0.0
 10
14.839396081
 20
17.0727181235
 30
0.0
 10
14.8310791444
 20
17.0976951408
 30
0.0
 11
15.0797643818
 21
16.8929107718
 31
0.0
 11
14.9965645573
 21
16.9158049697
 31
0.0
 11
14.9229877321
 21
16.9617336416
 31
0.0
 11
14.8653801463
 21
17.0268568939
 31
0.0
 11
14.8310791444
 21
17.0976951408
 31
0.0
  0
LINE
  5
4C3
100
AcDbEntity
  8
RACCORDO
100
AcDbLine
 62
7
  6
CONTINUOUS
 10
15.0797643818
 20
16.8929107718
 11
15.0797643818
 21
17.0007888965
  0
LINE
  5
4C4
100
AcDbEntity
  8
RACCORDO
100
AcDbLine
 62
7
  6
CONTINUOUS
 10
15.0797643818
 20
17.0080098908
 11
15.0797643818
 21
17.0007888965
  0
SPLINE
  5
4C5
100
AcDbEntity
  8
RACCORDO
100
AcDbSpline
 62
253
  6
CONTINUOUS
 70
0
 71
3
 72
11
 73
7
 74
5
 42
0.0000001
 43
0.0000001
 44
0.0000000001
 12
-0.3744509998
 22
-0.0033199492
 32
0.0
 13
-0.1189757453
 23
0.3584618195
 33
0.0
 40
0.0
 40
0.0
 40
0.0
 40
0.0
 40
0.318906794
 40
0.6313792274
 40
0.9437057137
 40
1.0
 40
1.0
 40
1.0
 40
1.0
 10
15.0797643818
 20
17.0080098908
 30
0.0
 10
15.0399593925
 20
17.0076569727
 30
0.0
 10
14.9601025114
 20
17.0230402073
 30
0.0
 10
14.8597022543
 20
17.090134231
 30
0.0
 10
14.8111788487
 20
17.1625473703
 30
0.0
 10
14.794998207
 20
17.2060676612
 30
0.0
 10
14.7927656554
 20
17.2127941119
 30
0.0
 11
15.0797643818
 21
17.0080098908
 31
0.0
 11
14.9625248684
 21
17.0307244678
 31
0.0
 11
14.865179081
 21
17.0956489456
 31
0.0
 11
14.800175407
 21
17.192876132
 31
0.0
 11
14.7927656554
 21
17.2127941119
 31
0.0
  0
SPLINE
  5
4C6
100
AcDbEntity
  8
RACCORDO
100
AcDbSpline
 62
253
  6
CONTINUOUS
 70
0
 71
3
 72
11
 73
7
 74
5
 42
0.0000001
 43
0.0000001
 44
0.0000000001
 12
0.3744511614
 22
-0.0033199595
 32
0.0
 13
0.1189755411
 23
0.358461857
 33
0.0
 40
0.0
 40
0.0
 40
0.0
 40
0.0
 40
0.3189150909
 40
0.6313911078
 40
0.9437148603
 40
1.0
 40
1.0
 40
1.0
 40
1.0
 10
7.2797643818
 20
17.0080098909
 30
0.0
 10
7.3195704239
 20
17.0076569625
 30
0.0
 10
7.3994288995
 20
17.023040945
 30
0.0
 10
7.4998293428
 20
17.0901370165
 30
0.0
 10
7.5483511458
 20
17.1625499589
 30
0.0
 10
7.5645309906
 20
17.2060689364
 30
0.0
 10
7.5667631756
 20
17.2127942949
 30
0.0
 11
7.2797643818
 21
17.0080098909
 31
0.0
 11
7.3970068744
 21
17.0307256965
 31
0.0
 11
7.4943529678
 21
17.0956522249
 31
0.0
 11
7.5593547528
 21
17.1928795035
 31
0.0
 11
7.5667631756
 21
17.2127942949
 31
0.0
  0
SPLINE
  5
4C7
100
AcDbEntity
  8
RACCORDO
100
AcDbSpline
 62
7
  6
CONTINUOUS
 70
0
 71
3
 72
11
 73
7
 74
5
 42
0.0000001
 43
0.0000001
 44
0.0000000001
 12
0.1074164622
 22
0.3225878649
 32
0.0
 13
0.3360512935
 23
0.0417232276
 33
0.0
 40
0.0
 40
0.0
 40
0.0
 40
0.0
 40
0.232281062
 40
0.4890391346
 40
0.7451735499
 40
1.0
 40
1.0
 40
1.0
 40
1.0
 10
14.8310791444
 20
-17.0320337481
 30
0.0
 10
14.839396081
 20
-17.0070567308
 30
0.0
 10
14.8637203804
 20
-16.9568063168
 30
0.0
 10
14.9202178855
 20
-16.8928951912
 30
0.0
 10
14.9946861445
 20
-16.8463459369
 30
0.0
 10
15.0512194624
 20
-16.8307934397
 30
0.0
 10
15.0797643818
 20
-16.8272493791
 30
0.0
 11
14.8310791444
 21
-17.0320337481
 31
0.0
 11
14.8653801463
 21
-16.9611955012
 31
0.0
 11
14.9229877321
 21
-16.8960722489
 31
0.0
 11
14.9965645573
 21
-16.8501435769
 31
0.0
 11
15.0797643818
 21
-16.8272493791
 31
0.0
  0
SPLINE
  5
4C8
100
AcDbEntity
  8
RACCORDO
100
AcDbSpline
 62
253
  6
CONTINUOUS
 70
0
 71
3
 72
10
 73
6
 74
4
 42
0.0000001
 43
0.0000001
 44
0.0000000001
 12
-0.0000656956
 22
-0.1287895699
 32
0.0
 13
-0.0000558612
 23
-0.1287895745
 33
0.0
 40
0.0
 40
0.0
 40
0.0
 40
0.0
 40
0.517819231
 40
0.8559649897
 40
1.0
 40
1.0
 40
1.0
 40
1.0
 10
7.2795240665
 20
17.1368214408
 30
0.0
 10
7.2795127271
 20
17.1145915354
 30
0.0
 10
7.2798478341
 20
17.0778456388
 30
0.0
 10
7.2797475536
 20
17.0349156312
 30
0.0
 10
7.2797684323
 20
17.0142156891
 30
0.0
 10
7.2797657503
 20
17.0080322866
 30
0.0
 11
7.2795240665
 21
17.1368214408
 31
0.0
 11
7.2797641232
 21
17.0701321481
 31
0.0
 11
7.2797621363
 21
17.0265824956
 31
0.0
 11
7.2797657503
 21
17.0080322866
 31
0.0
  0
SPLINE
  5
4C9
100
AcDbEntity
  8
RACCORDO
100
AcDbSpline
 62
7
  6
CONTINUOUS
 70
0
 71
3
 72
11
 73
7
 74
5
 42
0.0000001
 43
0.0000001
 44
0.0000000001
 12
-0.3360512935
 22
0.0417232276
 32
0.0
 13
-0.1074164622
 23
0.3225878649
 33
0.0
 40
0.0
 40
0.0
 40
0.0
 40
0.0
 40
0.2548264501
 40
0.5109608654
 40
0.767718938
 40
1.0
 40
1.0
 40
1.0
 40
1.0
 10
7.2797643818
 20
16.8929107718
 30
0.0
 10
7.2512194624
 20
16.8964548325
 30
0.0
 10
7.1946861445
 20
16.9120073297
 30
0.0
 10
7.1202178855
 20
16.958556584
 30
0.0
 10
7.0637203804
 20
17.0224677095
 30
0.0
 10
7.039396081
 20
17.0727181235
 30
0.0
 10
7.0310791444
 20
17.0976951408
 30
0.0
 11
7.2797643818
 21
16.8929107718
 31
0.0
 11
7.1965645573
 21
16.9158049697
 31
0.0
 11
7.1229877321
 21
16.9617336416
 31
0.0
 11
7.0653801463
 21
17.0268568939
 31
0.0
 11
7.0310791444
 21
17.0976951408
 31
0.0
  0
LINE
  5
4CA
100
AcDbEntity
  8
RACCORDO
100
AcDbLine
 62
7
  6
CONTINUOUS
 10
7.2797643818
 20
16.8929107718
 11
7.2797643818
 21
17.0007886474
  0
LINE
  5
4CB
100
AcDbEntity
  8
RACCORDO
100
AcDbLine
 62
7
  6
CONTINUOUS
 10
7.2797643818
 20
17.0080098908
 11
7.2797643818
 21
17.0007886474
  0
SPLINE
  5
4CC
100
AcDbEntity
  8
RACCORDO
100
AcDbSpline
 62
253
  6
CONTINUOUS
 70
0
 71
3
 72
11
 73
7
 74
5
 42
0.0000001
 43
0.0000001
 44
0.0000000001
 12
-0.3744509998
 22
-0.0033199492
 32
0.0
 13
-0.1189757453
 23
0.3584618195
 33
0.0
 40
0.0
 40
0.0
 40
0.0
 40
0.0
 40
0.318906794
 40
0.6313792274
 40
0.9437057137
 40
1.0
 40
1.0
 40
1.0
 40
1.0
 10
7.2797643818
 20
17.0080098908
 30
0.0
 10
7.2399593925
 20
17.0076569727
 30
0.0
 10
7.1601025114
 20
17.0230402073
 30
0.0
 10
7.0597022543
 20
17.090134231
 30
0.0
 10
7.0111788487
 20
17.1625473703
 30
0.0
 10
6.994998207
 20
17.2060676612
 30
0.0
 10
6.9927656554
 20
17.2127941119
 30
0.0
 11
7.2797643818
 21
17.0080098908
 31
0.0
 11
7.1625248684
 21
17.0307244678
 31
0.0
 11
7.065179081
 21
17.0956489456
 31
0.0
 11
7.000175407
 21
17.192876132
 31
0.0
 11
6.9927656554
 21
17.2127941119
 31
0.0
  0
SPLINE
  5
4CD
100
AcDbEntity
  8
RACCORDO
100
AcDbSpline
 62
253
  6
CONTINUOUS
 70
0
 71
3
 72
12
 73
8
 74
6
 42
0.0000001
 43
0.0000001
 44
0.0000000001
 12
-0.066306787
 22
-0.4950938607
 32
0.0
 13
0.0000000637
 23
-0.499514285
 33
0.0
 40
0.0
 40
0.0
 40
0.0
 40
0.0
 40
0.061750407
 40
0.2090292687
 40
0.4287358498
 40
0.7006496619
 40
1.0
 40
1.0
 40
1.0
 40
1.0
 10
7.2797643818
 20
-16.9423368196
 30
0.0
 10
7.2783995581
 20
-16.9525275687
 30
0.0
 10
7.274133625
 20
-16.9871205512
 30
0.0
 10
7.2762651819
 20
-17.0586714847
 30
0.0
 10
7.2741894392
 20
-17.1649669502
 30
0.0
 10
7.2743033218
 20
-17.2966981349
 30
0.0
 10
7.2740674245
 20
-17.3918083303
 30
0.0
 10
7.2740674308
 20
-17.441651587
 30
0.0
 11
7.2797643818
 21
-16.9423368196
 31
0.0
 11
7.2763420984
 21
-16.9729915905
 31
0.0
 11
7.2754192003
 21
-17.0465536968
 31
0.0
 11
7.2746921989
 21
-17.1562978646
 31
0.0
 11
7.2742272913
 21
-17.2921219024
 31
0.0
 11
7.2740674308
 21
-17.441651587
 31
0.0
  0
SPLINE
  5
4CE
100
AcDbEntity
  8
RACCORDO
100
AcDbSpline
 62
253
  6
CONTINUOUS
 70
0
 71
3
 72
12
 73
8
 74
6
 42
0.0000001
 43
0.0000001
 44
0.0000000001
 12
0.0000000585
 22
0.4995142517
 32
0.0
 13
-0.0663068692
 23
0.4950938161
 33
0.0
 40
0.0
 40
0.0
 40
0.0
 40
0.0
 40
0.2993052062
 40
0.5712890948
 40
0.7909813454
 40
0.9382340118
 40
1.0
 40
1.0
 40
1.0
 40
1.0
 10
7.2854613328
 20
-17.441651587
 30
0.0
 10
7.2854613386
 20
-17.3918158483
 30
0.0
 10
7.285225528
 20
-17.2967014984
 30
0.0
 10
7.2853392609
 20
-17.1649685769
 30
0.0
 10
7.2832641615
 20
-17.058668124
 30
0.0
 10
7.2853939803
 20
-16.987121521
 30
0.0
 10
7.2811295516
 20
-16.9525301392
 30
0.0
 10
7.2797643818
 20
-16.9423368196
 30
0.0
 11
7.2854613328
 21
-17.441651587
 31
0.0
 11
7.285301524
 21
-17.2921444563
 31
0.0
 11
7.284836501
 21
-17.1562854236
 31
0.0
 11
7.2841095193
 21
-17.0465484214
 31
0.0
 11
7.2831868101
 21
-16.9729994037
 31
0.0
 11
7.2797643818
 21
-16.9423368196
 31
0.0
  0
SPLINE
  5
4CF
100
AcDbEntity
  8
RACCORDO
100
AcDbSpline
 62
253
  6
CONTINUOUS
 70
0
 71
3
 72
12
 73
8
 74
6
 42
0.0000001
 43
0.0000001
 44
0.0000000001
 12
-0.066306787
 22
-0.4950938607
 32
0.0
 13
0.0000000637
 23
-0.499514285
 33
0.0
 40
0.0
 40
0.0
 40
0.0
 40
0.0
 40
0.061750407
 40
0.2090292687
 40
0.4287358498
 40
0.7006496619
 40
1.0
 40
1.0
 40
1.0
 40
1.0
 10
15.0797643818
 20
-16.9423368196
 30
0.0
 10
15.0783995581
 20
-16.9525275687
 30
0.0
 10
15.074133625
 20
-16.9871205512
 30
0.0
 10
15.0762651819
 20
-17.0586714847
 30
0.0
 10
15.0741894392
 20
-17.1649669502
 30
0.0
 10
15.0743033218
 20
-17.2966981349
 30
0.0
 10
15.0740674245
 20
-17.3918083303
 30
0.0
 10
15.0740674308
 20
-17.441651587
 30
0.0
 11
15.0797643818
 21
-16.9423368196
 31
0.0
 11
15.0763420984
 21
-16.9729915905
 31
0.0
 11
15.0754192003
 21
-17.0465536968
 31
0.0
 11
15.0746921989
 21
-17.1562978646
 31
0.0
 11
15.0742272913
 21
-17.2921219024
 31
0.0
 11
15.0740674308
 21
-17.441651587
 31
0.0
  0
SPLINE
  5
4D0
100
AcDbEntity
  8
RACCORDO
100
AcDbSpline
 62
253
  6
CONTINUOUS
 70
0
 71
3
 72
12
 73
8
 74
6
 42
0.0000001
 43
0.0000001
 44
0.0000000001
 12
0.0000000585
 22
0.4995142517
 32
0.0
 13
-0.0663068692
 23
0.4950938161
 33
0.0
 40
0.0
 40
0.0
 40
0.0
 40
0.0
 40
0.2993052062
 40
0.5712890948
 40
0.7909813454
 40
0.9382340118
 40
1.0
 40
1.0
 40
1.0
 40
1.0
 10
15.0854613328
 20
-17.441651587
 30
0.0
 10
15.0854613386
 20
-17.3918158483
 30
0.0
 10
15.085225528
 20
-17.2967014984
 30
0.0
 10
15.0853392609
 20
-17.1649685769
 30
0.0
 10
15.0832641615
 20
-17.058668124
 30
0.0
 10
15.0853939803
 20
-16.987121521
 30
0.0
 10
15.0811295516
 20
-16.9525301392
 30
0.0
 10
15.0797643818
 20
-16.9423368196
 30
0.0
 11
15.0854613328
 21
-17.441651587
 31
0.0
 11
15.085301524
 21
-17.2921444563
 31
0.0
 11
15.084836501
 21
-17.1562854236
 31
0.0
 11
15.0841095193
 21
-17.0465484214
 31
0.0
 11
15.0831868101
 21
-16.9729994037
 31
0.0
 11
15.0797643818
 21
-16.9423368196
 31
0.0
  0
SPLINE
  5
4D1
100
AcDbEntity
  8
RACCORDO
100
AcDbSpline
 62
253
  6
CONTINUOUS
 70
0
 71
3
 72
10
 73
6
 74
4
 42
0.0000001
 43
0.0000001
 44
0.0000000001
 12
-0.0000000434
 22
-0.3706610038
 32
0.0
 13
0.0028642172
 23
-0.3706499373
 33
0.0
 40
0.0
 40
0.0
 40
0.0
 40
0.0
 40
0.3704140877
 40
0.7124319493
 40
1.0
 40
1.0
 40
1.0
 40
1.0
 10
15.0740674308
 20
17.5073129797
 30
0.0
 10
15.0740674255
 20
17.4615469605
 30
0.0
 10
15.0749959142
 20
17.373546342
 30
0.0
 10
15.0719829048
 20
17.249901265
 30
0.0
 10
15.0794898423
 20
17.1723071475
 30
0.0
 10
15.0797643947
 20
17.1367781209
 30
0.0
 11
15.0740674308
 21
17.5073129797
 31
0.0
 11
15.0742016545
 21
17.3700149877
 31
0.0
 11
15.074594051
 21
17.2432429111
 31
0.0
 11
15.0797643947
 21
17.1367781209
 31
0.0
  0
SPLINE
  5
4D2
100
AcDbEntity
  8
RACCORDO
100
AcDbSpline
 62
253
  6
CONTINUOUS
 70
0
 71
3
 72
10
 73
6
 74
4
 42
0.0000001
 43
0.0000001
 44
0.0000000001
 12
0.0028642243
 22
0.3706499314
 32
0.0
 13
-0.0000000472
 23
0.370660998
 33
0.0
 40
0.0
 40
0.0
 40
0.0
 40
0.0
 40
0.2875808842
 40
0.6295171108
 40
1.0
 40
1.0
 40
1.0
 40
1.0
 10
15.0797643947
 20
17.1367781209
 30
0.0
 10
15.0800389601
 20
17.1723087325
 30
0.0
 10
15.0875450227
 20
17.2498943787
 30
0.0
 10
15.0845328091
 20
17.3735394288
 30
0.0
 10
15.0854613386
 20
17.4615384606
 30
0.0
 10
15.0854613328
 20
17.5073129797
 30
0.0
 11
15.0797643947
 21
17.1367781209
 31
0.0
 11
15.084934734
 21
17.2432476722
 31
0.0
 11
15.0853270564
 21
17.3699894879
 31
0.0
 11
15.0854613328
 21
17.5073129797
 31
0.0
  0
SPLINE
  5
4D3
100
AcDbEntity
  8
RACCORDO
100
AcDbSpline
 62
253
  6
CONTINUOUS
 70
0
 71
3
 72
10
 73
6
 74
4
 42
0.0000001
 43
0.0000001
 44
0.0000000001
 12
-0.0000000434
 22
-0.3706610038
 32
0.0
 13
0.0028642172
 23
-0.3706499373
 33
0.0
 40
0.0
 40
0.0
 40
0.0
 40
0.0
 40
0.3704140877
 40
0.7124319493
 40
1.0
 40
1.0
 40
1.0
 40
1.0
 10
7.2740674308
 20
17.5073129797
 30
0.0
 10
7.2740674255
 20
17.4615469605
 30
0.0
 10
7.2749959142
 20
17.373546342
 30
0.0
 10
7.2719829048
 20
17.249901265
 30
0.0
 10
7.2794898423
 20
17.1723071475
 30
0.0
 10
7.2797643947
 20
17.1367781209
 30
0.0
 11
7.2740674308
 21
17.5073129797
 31
0.0
 11
7.2742016545
 21
17.3700149877
 31
0.0
 11
7.274594051
 21
17.2432429111
 31
0.0
 11
7.2797643947
 21
17.1367781209
 31
0.0
  0
SPLINE
  5
4D4
100
AcDbEntity
  8
RACCORDO
100
AcDbSpline
 62
253
  6
CONTINUOUS
 70
0
 71
3
 72
10
 73
6
 74
4
 42
0.0000001
 43
0.0000001
 44
0.0000000001
 12
0.0028642243
 22
0.3706499314
 32
0.0
 13
-0.0000000472
 23
0.370660998
 33
0.0
 40
0.0
 40
0.0
 40
0.0
 40
0.0
 40
0.2875808842
 40
0.6295171108
 40
1.0
 40
1.0
 40
1.0
 40
1.0
 10
7.2797643947
 20
17.1367781209
 30
0.0
 10
7.2800389601
 20
17.1723087325
 30
0.0
 10
7.2875450227
 20
17.2498943787
 30
0.0
 10
7.2845328091
 20
17.3735394288
 30
0.0
 10
7.2854613386
 20
17.4615384606
 30
0.0
 10
7.2854613328
 20
17.5073129797
 30
0.0
 11
7.2797643947
 21
17.1367781209
 31
0.0
 11
7.284934734
 21
17.2432476722
 31
0.0
 11
7.2853270564
 21
17.3699894879
 31
0.0
 11
7.2854613328
 21
17.5073129797
 31
0.0
  0
SPLINE
  5
4D5
100
AcDbEntity
  8
0
100
AcDbSpline
 62
7
  6
CONTINUOUS
 70
0
 71
3
 72
8
 73
4
 74
2
 42
0.0000001
 43
0.0000001
 44
0.0000000001
 12
-0.2363600302
 22
0.2302472946
 32
0.0
 13
-0.0000000287
 23
0.3356065233
 33
0.0
 40
0.0
 40
0.0
 40
0.0
 40
0.0
 40
1.0
 40
1.0
 40
1.0
 40
1.0
 10
-6.7810123496
 20
2.851443108
 30
0.0
 10
-6.8597990264
 20
2.9281922063
 30
0.0
 10
-6.9007267938
 20
3.0223260471
 30
0.0
 10
-6.9007268034
 20
3.1341948882
 30
0.0
 11
-6.7810123496
 21
2.851443108
 31
0.0
 11
-6.9007268034
 21
3.1341948882
 31
0.0
  0
SPLINE
  5
4D6
100
AcDbEntity
  8
0
100
AcDbSpline
 62
7
  6
CONTINUOUS
 70
0
 71
3
 72
8
 73
4
 74
2
 42
0.0000001
 43
0.0000001
 44
0.0000000001
 12
-0.0000000287
 22
0.3356066277
 32
0.0
 13
0.2373805739
 23
0.2210097126
 33
0.0
 40
0.0
 40
0.0
 40
0.0
 40
0.0
 40
1.0
 40
1.0
 40
1.0
 40
1.0
 10
-6.9007268034
 20
3.1341948882
 30
0.0
 10
-6.9007268129
 20
3.2460637641
 30
0.0
 10
-6.8597990449
 20
3.3388334
 30
0.0
 10
-6.7806721869
 20
3.4125033042
 30
0.0
 11
-6.9007268034
 21
3.1341948882
 31
0.0
 11
-6.7806721869
 21
3.4125033042
 31
0.0
  0
SPLINE
  5
4D7
100
AcDbEntity
  8
0
100
AcDbSpline
 62
7
  6
CONTINUOUS
 70
0
 71
3
 72
8
 73
4
 74
2
 42
0.0000001
 43
0.0000001
 44
0.0000000001
 12
0.2373806419
 22
0.2210097759
 32
0.0
 13
0.4133697152
 23
0.0
 33
0.0
 40
0.0
 40
0.0
 40
0.0
 40
0.0
 40
1.0
 40
1.0
 40
1.0
 40
1.0
 10
-6.7806721869
 20
3.4125033042
 30
0.0
 10
-6.7015453063
 20
3.4861732295
 30
0.0
 10
-6.5924047909
 20
3.5230079463
 30
0.0
 10
-6.4546148859
 20
3.5230079463
 30
0.0
 11
-6.7806721869
 21
3.4125033042
 31
0.0
 11
-6.4546148859
 21
3.5230079463
 31
0.0
  0
SPLINE
  5
4D8
100
AcDbEntity
  8
0
100
AcDbSpline
 62
7
  6
CONTINUOUS
 70
0
 71
3
 72
8
 73
4
 74
2
 42
0.0000001
 43
0.0000001
 44
0.0000000001
 12
0.4338335395
 22
0.0
 32
0.0
 13
0.2495433152
 23
-0.2211401419
 33
0.0
 40
0.0
 40
0.0
 40
0.0
 40
0.0
 40
1.0
 40
1.0
 40
1.0
 40
1.0
 10
-6.4546148859
 20
3.5230079463
 30
0.0
 10
-6.310003706
 20
3.5230079463
 30
0.0
 10
-6.196770408
 20
3.4848089984
 30
0.0
 10
-6.1135893029
 20
3.4110956178
 30
0.0
 11
-6.4546148859
 21
3.5230079463
 31
0.0
 11
-6.1135893029
 21
3.4110956178
 31
0.0
  0
SPLINE
  5
4D9
100
AcDbEntity
  8
0
100
AcDbSpline
 62
7
  6
CONTINUOUS
 70
0
 71
3
 72
8
 73
4
 74
2
 42
0.0000001
 43
0.0000001
 44
0.0000000001
 12
0.2538673519
 22
-0.2249720141
 32
0.0
 13
0.0
 23
-0.311050415
 33
0.0
 40
0.0
 40
0.0
 40
0.0
 40
0.0
 40
1.0
 40
1.0
 40
1.0
 40
1.0
 10
-6.1135893029
 20
3.4110956178
 30
0.0
 10
-6.0289668523
 20
3.3361049464
 30
0.0
 10
-5.988039159
 20
3.2474280169
 30
0.0
 10
-5.988039159
 20
3.1437445453
 30
0.0
 11
-6.1135893029
 21
3.4110956178
 31
0.0
 11
-5.988039159
 21
3.1437445453
 31
0.0
  0
SPLINE
  5
4DA
100
AcDbEntity
  8
0
100
AcDbSpline
 62
7
  6
CONTINUOUS
 70
0
 71
3
 72
8
 73
4
 74
2
 42
0.0000001
 43
0.0000001
 44
0.0000000001
 12
0.0
 22
-0.2128229141
 32
0.0
 13
-0.1218581482
 23
-0.1929419996
 33
0.0
 40
0.0
 40
0.0
 40
0.0
 40
0.0
 40
1.0
 40
1.0
 40
1.0
 40
1.0
 10
-5.988039159
 20
3.1437445453
 30
0.0
 10
-5.988039159
 20
3.0728035739
 30
0.0
 10
-6.0071387522
 20
3.0045905879
 30
0.0
 10
-6.0477581349
 20
2.940276588
 30
0.0
 11
-5.988039159
 21
3.1437445453
 31
0.0
 11
-6.0477581349
 21
2.940276588
 31
0.0
  0
SPLINE
  5
4DB
100
AcDbEntity
  8
0
100
AcDbSpline
 62
7
  6
CONTINUOUS
 70
0
 71
3
 72
8
 73
4
 74
2
 42
0.0000001
 43
0.0000001
 44
0.0000000001
 12
-0.123708056
 22
-0.1958710192
 32
0.0
 13
-0.2329286915
 23
-0.1071885759
 33
0.0
 40
0.0
 40
0.0
 40
0.0
 40
0.0
 40
1.0
 40
1.0
 40
1.0
 40
1.0
 10
-6.0477581349
 20
2.940276588
 30
0.0
 10
-6.0889941536
 20
2.8749862483
 30
0.0
 10
-6.1476571642
 20
2.8245087436
 30
0.0
 10
-6.2253000613
 20
2.7887792183
 30
0.0
 11
-6.0477581349
 21
2.940276588
 31
0.0
 11
-6.2253000613
 21
2.7887792183
 31
0.0
  0
SPLINE
  5
4DC
100
AcDbEntity
  8
0
100
AcDbSpline
 62
7
  6
CONTINUOUS
 70
0
 71
3
 72
8
 73
4
 74
2
 42
0.0000001
 43
0.0000001
 44
0.0000000001
 12
-0.2295543271
 22
-0.1056357688
 32
0.0
 13
-0.2537516356
 23
0.0
 33
0.0
 40
0.0
 40
0.0
 40
0.0
 40
0.0
 40
1.0
 40
1.0
 40
1.0
 40
1.0
 10
-6.2253000613
 20
2.7887792183
 30
0.0
 10
-6.3018181704
 20
2.7535672953
 30
0.0
 10
-6.3836735569
 20
2.7358322909
 30
0.0
 10
-6.4682574354
 20
2.7358322909
 30
0.0
 11
-6.2253000613
 21
2.7887792183
 31
0.0
 11
-6.4682574354
 21
2.7358322909
 31
0.0
  0
SPLINE
  5
4DD
100
AcDbEntity
  8
0
100
AcDbSpline
 62
7
  6
CONTINUOUS
 70
0
 71
3
 72
8
 73
4
 74
2
 42
0.0000001
 43
0.0000001
 44
0.0000000001
 12
-0.3847203255
 22
0.0
 32
0.0
 13
-0.2384011301
 23
0.2322356077
 33
0.0
 40
0.0
 40
0.0
 40
0.0
 40
0.0
 40
1.0
 40
1.0
 40
1.0
 40
1.0
 10
-6.4682574354
 20
2.7358322909
 30
0.0
 10
-6.5964975439
 20
2.7358322909
 30
0.0
 10
-6.7015453063
 20
2.7740312388
 30
0.0
 10
-6.7810123496
 20
2.851443108
 30
0.0
 11
-6.4682574354
 21
2.7358322909
 31
0.0
 11
-6.7810123496
 21
2.851443108
 31
0.0
  0
SPLINE
  5
4DE
100
AcDbEntity
  8
0
100
AcDbSpline
 62
7
  6
CONTINUOUS
 70
0
 71
3
 72
8
 73
4
 74
2
 42
0.0000001
 43
0.0000001
 44
0.0000000001
 12
-0.2631023094
 22
-0.3018532819
 32
0.0
 13
0.0
 23
-0.4706697464
 33
0.0
 40
0.0
 40
0.0
 40
0.0
 40
0.0
 40
1.0
 40
1.0
 40
1.0
 40
1.0
 10
-7.6956998931
 20
3.5567774289
 30
0.0
 10
-7.783400663
 20
3.4561596682
 30
0.0
 10
-7.8284212433
 20
3.3279195598
 30
0.0
 10
-7.8284212433
 20
3.1710296443
 30
0.0
 11
-7.6956998931
 21
3.5567774289
 31
0.0
 11
-7.8284212433
 21
3.1710296443
 31
0.0
  0
SPLINE
  5
4DF
100
AcDbEntity
  8
0
100
AcDbSpline
 62
7
  6
CONTINUOUS
 70
0
 71
3
 72
8
 73
4
 74
2
 42
0.0000001
 43
0.0000001
 44
0.0000000001
 12
0.0
 22
-0.6343789101
 32
0.0
 13
0.4582152856
 23
-0.3726568339
 33
0.0
 40
0.0
 40
0.0
 40
0.0
 40
0.0
 40
1.0
 40
1.0
 40
1.0
 40
1.0
 10
-7.8284212433
 20
3.1710296443
 30
0.0
 10
-7.8284212433
 20
2.9595700076
 30
0.0
 10
-7.7520227514
 20
2.7917667201
 30
0.0
 10
-7.5992843229
 20
2.6675477754
 30
0.0
 11
-7.8284212433
 21
3.1710296443
 31
0.0
 11
-7.5992843229
 21
2.6675477754
 31
0.0
  0
SPLINE
  5
4E0
100
AcDbEntity
  8
0
100
AcDbSpline
 62
7
  6
CONTINUOUS
 70
0
 71
3
 72
8
 73
4
 74
2
 42
0.0000001
 43
0.0000001
 44
0.0000000001
 12
0.5281420457
 22
-0.4295267941
 32
0.0
 13
1.1582536697
 23
0.0
 33
0.0
 40
0.0
 40
0.0
 40
0.0
 40
0.0
 40
1.0
 40
1.0
 40
1.0
 40
1.0
 10
-7.5992843229
 20
2.6675477754
 30
0.0
 10
-7.4232369743
 20
2.5243721774
 30
0.0
 10
-7.1422001205
 20
2.453431206
 30
0.0
 10
-6.7561155639
 20
2.453431206
 30
0.0
 11
-7.5992843229
 21
2.6675477754
 31
0.0
 11
-6.7561155639
 21
2.453431206
 31
0.0
  0
SPLINE
  5
4E1
100
AcDbEntity
  8
0
100
AcDbSpline
 62
7
  6
CONTINUOUS
 70
0
 71
3
 72
8
 73
4
 74
2
 42
0.0000001
 43
0.0000001
 44
0.0000000001
 12
1.0395634174
 22
0.0
 32
0.0
 13
0.4512146025
 23
0.3876343147
 33
0.0
 40
0.0
 40
0.0
 40
0.0
 40
0.0
 40
1.0
 40
1.0
 40
1.0
 40
1.0
 10
-6.7561155639
 20
2.453431206
 30
0.0
 10
-6.4095944248
 20
2.453431206
 30
0.0
 10
-6.1612997435
 20
2.5175510218
 30
0.0
 10
-6.010894876
 20
2.6467624601
 30
0.0
 11
-6.7561155639
 21
2.453431206
 31
0.0
 11
-6.010894876
 21
2.6467624601
 31
0.0
  0
SPLINE
  5
4E2
100
AcDbEntity
  8
0
100
AcDbSpline
 62
7
  6
CONTINUOUS
 70
0
 71
3
 72
8
 73
4
 74
2
 42
0.0000001
 43
0.0000001
 44
0.0000000001
 12
0.4491946937
 22
0.3858990296
 32
0.0
 13
-0.0
 23
0.6139154434
 33
0.0
 40
0.0
 40
0.0
 40
0.0
 40
0.0
 40
1.0
 40
1.0
 40
1.0
 40
1.0
 10
-6.010894876
 20
2.6467624601
 30
0.0
 10
-5.8611633114
 20
2.7753954699
 30
0.0
 10
-5.7861292071
 20
2.9431992343
 30
0.0
 10
-5.7861292071
 20
3.1478377154
 30
0.0
 11
-6.010894876
 21
2.6467624601
 31
0.0
 11
-5.7861292071
 21
3.1478377154
 31
0.0
  0
SPLINE
  5
4E3
100
AcDbEntity
  8
0
100
AcDbSpline
 62
7
  6
CONTINUOUS
 70
0
 71
3
 72
8
 73
4
 74
2
 42
0.0000001
 43
0.0000001
 44
0.0000000001
 12
-0.0
 22
0.360162735
 32
0.0
 13
-0.1728012694
 23
0.2859453999
 33
0.0
 40
0.0
 40
0.0
 40
0.0
 40
0.0
 40
1.0
 40
1.0
 40
1.0
 40
1.0
 10
-5.7861292071
 20
3.1478377154
 30
0.0
 10
-5.7861292071
 20
3.2678919604
 30
0.0
 10
-5.8147785922
 20
3.3743038943
 30
0.0
 10
-5.8723790154
 20
3.4696190276
 30
0.0
 11
-5.7861292071
 21
3.1478377154
 31
0.0
 11
-5.8723790154
 21
3.4696190276
 31
0.0
  0
SPLINE
  5
4E4
100
AcDbEntity
  8
0
100
AcDbSpline
 62
7
  6
CONTINUOUS
 70
0
 71
3
 72
8
 73
4
 74
2
 42
0.0000001
 43
0.0000001
 44
0.0000000001
 12
-0.1709913544
 22
0.2829504169
 32
0.0
 13
-0.3233287724
 23
0.1637105762
 33
0.0
 40
0.0
 40
0.0
 40
0.0
 40
0.0
 40
1.0
 40
1.0
 40
1.0
 40
1.0
 10
-5.8723790154
 20
3.4696190276
 30
0.0
 10
-5.9293761335
 20
3.5639358333
 30
0.0
 10
-6.01123152
 20
3.6376057437
 30
0.0
 10
-6.1190077775
 20
3.6921759357
 30
0.0
 11
-5.8723790154
 21
3.4696190276
 31
0.0
 11
-6.1190077775
 21
3.6921759357
 31
0.0
  0
SPLINE
  5
4E5
100
AcDbEntity
  8
0
100
AcDbSpline
 62
7
  6
CONTINUOUS
 70
0
 71
3
 72
8
 73
4
 74
2
 42
0.0000001
 43
0.0000001
 44
0.0000000001
 12
-0.3233288435
 22
0.1637106122
 32
0.0
 13
-0.3765349388
 23
0.0
 33
0.0
 40
0.0
 40
0.0
 40
0.0
 40
0.0
 40
1.0
 40
1.0
 40
1.0
 40
1.0
 10
-6.1190077775
 20
3.6921759357
 30
0.0
 10
-6.2267840586
 20
3.7467461398
 30
0.0
 10
-6.3441100798
 20
3.7740312388
 30
0.0
 10
-6.4696217261
 20
3.7740312388
 30
0.0
 11
-6.1190077775
 21
3.6921759357
 31
0.0
 11
-6.4696217261
 21
3.7740312388
 31
0.0
  0
SPLINE
  5
4E6
100
AcDbEntity
  8
0
100
AcDbSpline
 62
7
  6
CONTINUOUS
 70
0
 71
3
 72
8
 73
4
 74
2
 42
0.0000001
 43
0.0000001
 44
0.0000000001
 12
-0.5729876161
 22
0.0
 32
0.0
 13
-0.3601640289
 23
-0.3437929733
 33
0.0
 40
0.0
 40
0.0
 40
0.0
 40
0.0
 40
1.0
 40
1.0
 40
1.0
 40
1.0
 10
-6.4696217261
 20
3.7740312388
 30
0.0
 10
-6.6606175981
 20
3.7740312388
 30
0.0
 10
-6.8161428652
 20
3.7153683474
 30
0.0
 10
-6.9361975416
 20
3.6007706897
 30
0.0
 11
-6.4696217261
 21
3.7740312388
 31
0.0
 11
-6.9361975416
 21
3.6007706897
 31
0.0
  0
SPLINE
  5
4E7
100
AcDbEntity
  8
0
100
AcDbSpline
 62
7
  6
CONTINUOUS
 70
0
 71
3
 72
8
 73
4
 74
2
 42
0.0000001
 43
0.0000001
 44
0.0000000001
 12
-0.360163408
 22
-0.3437923806
 32
0.0
 13
0.0
 23
-0.4911317825
 33
0.0
 40
0.0
 40
0.0
 40
0.0
 40
0.0
 40
1.0
 40
1.0
 40
1.0
 40
1.0
 10
-6.9361975416
 20
3.6007706897
 30
0.0
 10
-7.0562520109
 20
3.4861732295
 30
0.0
 10
-7.1176434837
 20
3.3470187953
 30
0.0
 10
-7.1176434837
 20
3.1833082011
 30
0.0
 11
-6.9361975416
 21
3.6007706897
 31
0.0
 11
-7.1176434837
 21
3.1833082011
 31
0.0
  0
SPLINE
  5
4E8
100
AcDbEntity
  8
0
100
AcDbSpline
 62
7
  6
CONTINUOUS
 70
0
 71
3
 72
8
 73
4
 74
2
 42
0.0000001
 43
0.0000001
 44
0.0000000001
 12
0.0
 22
-0.2824015617
 32
0.0
 13
0.1301381767
 23
-0.2541762429
 33
0.0
 40
0.0
 40
0.0
 40
0.0
 40
0.0
 40
1.0
 40
1.0
 40
1.0
 40
1.0
 10
-7.1176434837
 20
3.1833082011
 30
0.0
 10
-7.1176434837
 20
3.0891743472
 30
0.0
 10
-7.0958154283
 20
2.9991336635
 30
0.0
 10
-7.0524360361
 20
2.9144082492
 30
0.0
 11
-7.1176434837
 21
3.1833082011
 31
0.0
 11
-7.0524360361
 21
2.9144082492
 31
0.0
  0
SPLINE
  5
4E9
100
AcDbEntity
  8
0
100
AcDbSpline
 62
7
  6
CONTINUOUS
 70
0
 71
3
 72
8
 73
4
 74
2
 42
0.0000001
 43
0.0000001
 44
0.0000000001
 12
0.1317992032
 22
-0.2574204368
 32
0.0
 13
0.2701227665
 23
-0.1759886742
 33
0.0
 40
0.0
 40
0.0
 40
0.0
 40
0.0
 40
1.0
 40
1.0
 40
1.0
 40
1.0
 10
-7.0524360361
 20
2.9144082492
 30
0.0
 10
-7.0085029684
 20
2.8286014369
 30
0.0
 10
-6.9416544519
 20
2.7562957576
 30
0.0
 10
-6.8516135297
 20
2.6976328662
 30
0.0
 11
-7.0524360361
 21
2.9144082492
 31
0.0
 11
-6.8516135297
 21
2.6976328662
 31
0.0
  0
SPLINE
  5
4EA
100
AcDbEntity
  8
0
100
AcDbSpline
 62
7
  6
CONTINUOUS
 70
0
 71
3
 72
8
 73
4
 74
2
 42
0.0000001
 43
0.0000001
 44
0.0000000001
 12
-0.5975443125
 22
0.0040926933
 32
0.0
 13
-0.3278438811
 23
0.1340238859
 33
0.0
 40
0.0
 40
0.0
 40
0.0
 40
0.0
 40
1.0
 40
1.0
 40
1.0
 40
1.0
 10
-6.8516135297
 20
2.6976328662
 30
0.0
 10
-7.0507949672
 20
2.6989970973
 30
0.0
 10
-7.2049559436
 20
2.722189503
 30
0.0
 10
-7.3142372374
 20
2.7668641316
 30
0.0
 11
-6.8516135297
 21
2.6976328662
 31
0.0
 11
-7.3142372374
 21
2.7668641316
 31
0.0
  0
SPLINE
  5
4EB
100
AcDbEntity
  8
0
100
AcDbSpline
 62
7
  6
CONTINUOUS
 70
0
 71
3
 72
8
 73
4
 74
2
 42
0.0000001
 43
0.0000001
 44
0.0000000001
 12
-0.3229065175
 22
0.132005472
 32
0.0
 13
-0.1723718791
 23
0.2329349168
 33
0.0
 40
0.0
 40
0.0
 40
0.0
 40
0.0
 40
1.0
 40
1.0
 40
1.0
 40
1.0
 10
-7.3142372374
 20
2.7668641316
 30
0.0
 10
-7.4218727432
 20
2.8108659556
 30
0.0
 10
-7.5037281595
 20
2.8722577861
 30
0.0
 10
-7.5611854525
 20
2.9499027583
 30
0.0
 11
-7.3142372374
 21
2.7668641316
 31
0.0
 11
-7.5611854525
 21
2.9499027583
 31
0.0
  0
SPLINE
  5
4EC
100
AcDbEntity
  8
0
100
AcDbSpline
 62
7
  6
CONTINUOUS
 70
0
 71
3
 72
8
 73
4
 74
2
 42
0.0000001
 43
0.0000001
 44
0.0000000001
 12
-0.1304927916
 22
0.1763415686
 32
0.0
 13
-0.0
 23
0.2373805046
 33
0.0
 40
0.0
 40
0.0
 40
0.0
 40
0.0
 40
1.0
 40
1.0
 40
1.0
 40
1.0
 10
-7.5611854525
 20
2.9499027583
 30
0.0
 10
-7.6046830497
 20
3.0086832812
 30
0.0
 10
-7.6265112243
 20
3.0768962672
 30
0.0
 10
-7.6265112243
 20
3.1560231021
 30
0.0
 11
-7.5611854525
 21
2.9499027583
 31
0.0
 11
-7.6265112243
 21
3.1560231021
 31
0.0
  0
SPLINE
  5
4ED
100
AcDbEntity
  8
0
100
AcDbSpline
 62
7
  6
CONTINUOUS
 70
0
 71
3
 72
8
 73
4
 74
2
 42
0.0000001
 43
0.0000001
 44
0.0000000001
 12
-0.0
 22
0.2905869484
 32
0.0
 13
0.2108998442
 23
0.1981950397
 33
0.0
 40
0.0
 40
0.0
 40
0.0
 40
0.0
 40
1.0
 40
1.0
 40
1.0
 40
1.0
 10
-7.6265112243
 20
3.1560231021
 30
0.0
 10
-7.6265112243
 20
3.2528854182
 30
0.0
 10
-7.5910405002
 20
3.3347407153
 30
0.0
 10
-7.5207405521
 20
3.4008057285
 30
0.0
 11
-7.6265112243
 21
3.1560231021
 31
0.0
 11
-7.5207405521
 21
3.4008057285
 31
0.0
  0
SPLINE
  5
4EE
100
AcDbEntity
  8
0
100
AcDbSpline
 62
7
  6
CONTINUOUS
 70
0
 71
3
 72
8
 73
4
 74
2
 42
0.0000001
 43
0.0000001
 44
0.0000000001
 12
0.1287997817
 22
0.121040762
 32
0.0
 13
0.2864938974
 23
0.0654845238
 33
0.0
 40
0.0
 40
0.0
 40
0.0
 40
0.0
 40
1.0
 40
1.0
 40
1.0
 40
1.0
 10
-7.5207405521
 20
3.4008057285
 30
0.0
 10
-7.4778072916
 20
3.4411526492
 30
0.0
 10
-7.4068659626
 20
3.4725304416
 30
0.0
 10
-7.3113679968
 20
3.4943586161
 30
0.0
 11
-7.5207405521
 21
3.4008057285
 31
0.0
 11
-7.3113679968
 21
3.4943586161
 31
0.0
  0
SPLINE
  5
4EF
100
AcDbEntity
  8
0
100
AcDbSpline
 62
7
  6
CONTINUOUS
 70
0
 71
3
 72
8
 73
4
 74
2
 42
0.0000001
 43
0.0000001
 44
0.0000000001
 12
-0.4665756226
 22
-0.0613918304
 32
0.0
 13
-0.2648647859
 23
-0.3038753444
 33
0.0
 40
0.0
 40
0.0
 40
0.0
 40
0.0
 40
1.0
 40
1.0
 40
1.0
 40
1.0
 10
-7.3304675899
 20
3.7385607531
 30
0.0
 10
-7.4859927974
 20
3.7180968097
 30
0.0
 10
-7.6074116312
 20
3.6580692103
 30
0.0
 10
-7.6956998931
 20
3.5567774289
 30
0.0
 11
-7.3304675899
 21
3.7385607531
 31
0.0
 11
-7.6956998931
 21
3.5567774289
 31
0.0
  0
SPLINE
  5
4F0
100
AcDbEntity
  8
0
100
AcDbSpline
 62
7
  6
CONTINUOUS
 70
0
 71
3
 72
8
 73
4
 74
2
 42
0.0000001
 43
0.0000001
 44
0.0000000001
 12
-0.2873352698
 22
0.1993389081
 32
0.0
 13
-0.0
 23
0.3397006989
 33
0.0
 40
0.0
 40
0.0
 40
0.0
 40
0.0
 40
1.0
 40
1.0
 40
1.0
 40
1.0
 10
-7.4816195275
 20
1.2901225872
 30
0.0
 10
-7.5773979507
 20
1.3565688899
 30
0.0
 10
-7.6251469932
 20
1.4466095736
 30
0.0
 10
-7.6251469932
 20
1.5598431399
 30
0.0
 11
-7.4816195275
 21
1.2901225872
 31
0.0
 11
-7.6251469932
 21
1.5598431399
 31
0.0
  0
SPLINE
  5
4F1
100
AcDbEntity
  8
0
100
AcDbSpline
 62
7
  6
CONTINUOUS
 70
0
 71
3
 72
8
 73
4
 74
2
 42
0.0000001
 43
0.0000001
 44
0.0000000001
 12
-0.0
 22
0.3437919617
 32
0.0
 13
0.3240060674
 23
0.228230698
 33
0.0
 40
0.0
 40
0.0
 40
0.0
 40
0.0
 40
1.0
 40
1.0
 40
1.0
 40
1.0
 10
-7.6251469932
 20
1.5598431399
 30
0.0
 10
-7.6251469932
 20
1.6744404605
 30
0.0
 10
-7.570576676
 20
1.7699385455
 30
0.0
 10
-7.4625746535
 20
1.8460154448
 30
0.0
 11
-7.6251469932
 21
1.5598431399
 31
0.0
 11
-7.4625746535
 21
1.8460154448
 31
0.0
  0
SPLINE
  5
4F2
100
AcDbEntity
  8
0
100
AcDbSpline
 62
7
  6
CONTINUOUS
 70
0
 71
3
 72
8
 73
4
 74
2
 42
0.0000001
 43
0.0000001
 44
0.0000000001
 12
0.3267443312
 22
0.2301595379
 32
0.0
 13
0.9863573313
 23
0.0
 33
0.0
 40
0.0
 40
0.0
 40
0.0
 40
0.0
 40
1.0
 40
1.0
 40
1.0
 40
1.0
 10
-7.4625746535
 20
1.8460154448
 30
0.0
 10
-7.3536598764
 20
1.9227352908
 30
0.0
 10
-7.1353788458
 20
1.9622984698
 30
0.0
 10
-6.8065930687
 20
1.9622984698
 30
0.0
 11
-7.4625746535
 21
1.8460154448
 31
0.0
 11
-6.8065930687
 21
1.9622984698
 31
0.0
  0
SPLINE
  5
4F3
100
AcDbEntity
  8
0
100
AcDbSpline
 62
7
  6
CONTINUOUS
 70
0
 71
3
 72
8
 73
4
 74
2
 42
0.0000001
 43
0.0000001
 44
0.0000000001
 12
0.9822646379
 22
0.0
 32
0.0
 13
0.327421546
 23
-0.229195118
 33
0.0
 40
0.0
 40
0.0
 40
0.0
 40
0.0
 40
1.0
 40
1.0
 40
1.0
 40
1.0
 10
-6.8065930687
 20
1.9622984698
 30
0.0
 10
-6.4791715227
 20
1.9622984698
 30
0.0
 10
-6.2608904622
 20
1.9227352908
 30
0.0
 10
-6.1517499469
 20
1.8463369182
 30
0.0
 11
-6.8065930687
 21
1.9622984698
 31
0.0
 11
-6.1517499469
 21
1.8463369182
 31
0.0
  0
SPLINE
  5
4F4
100
AcDbEntity
  8
0
100
AcDbSpline
 62
7
  6
CONTINUOUS
 70
0
 71
3
 72
8
 73
4
 74
2
 42
0.0000001
 43
0.0000001
 44
0.0000000001
 12
0.327421546
 22
-0.229195118
 32
0.0
 13
-0.0
 23
-0.335606575
 33
0.0
 40
0.0
 40
0.0
 40
0.0
 40
0.0
 40
1.0
 40
1.0
 40
1.0
 40
1.0
 10
-6.1517499469
 20
1.8463369182
 30
0.0
 10
-6.0426094316
 20
1.7699385455
 30
0.0
 10
-5.988039159
 20
1.6744404605
 30
0.0
 10
-5.988039159
 20
1.5625716021
 30
0.0
 11
-6.1517499469
 21
1.8463369182
 31
0.0
 11
-5.988039159
 21
1.5625716021
 31
0.0
  0
SPLINE
  5
4F5
100
AcDbEntity
  8
0
100
AcDbSpline
 62
7
  6
CONTINUOUS
 70
0
 71
3
 72
8
 73
4
 74
2
 42
0.0000001
 43
0.0000001
 44
0.0000000001
 12
-0.0
 22
-0.3397006989
 32
0.0
 13
-0.327421546
 23
-0.229195118
 33
0.0
 40
0.0
 40
0.0
 40
0.0
 40
0.0
 40
1.0
 40
1.0
 40
1.0
 40
1.0
 10
-5.988039159
 20
1.5625716021
 30
0.0
 10
-5.988039159
 20
1.4493380359
 30
0.0
 10
-6.0412451707
 20
1.3538404277
 30
0.0
 10
-6.150385686
 20
1.277442055
 30
0.0
 11
-5.988039159
 21
1.5625716021
 31
0.0
 11
-6.150385686
 21
1.277442055
 31
0.0
  0
SPLINE
  5
4F6
100
AcDbEntity
  8
0
100
AcDbSpline
 62
7
  6
CONTINUOUS
 70
0
 71
3
 72
8
 73
4
 74
2
 42
0.0000001
 43
0.0000001
 44
0.0000000001
 12
-0.327421546
 22
-0.229195118
 32
0.0
 13
-0.9863575101
 23
0.0
 33
0.0
 40
0.0
 40
0.0
 40
0.0
 40
0.0
 40
1.0
 40
1.0
 40
1.0
 40
1.0
 10
-6.150385686
 20
1.277442055
 30
0.0
 10
-6.2595262013
 20
1.2010436824
 30
0.0
 10
-6.477807232
 20
1.1628442576
 30
0.0
 10
-6.8065930687
 20
1.1628442576
 30
0.0
 11
-6.150385686
 21
1.277442055
 31
0.0
 11
-6.8065930687
 21
1.1628442576
 31
0.0
  0
SPLINE
  5
4F7
100
AcDbEntity
  8
0
100
AcDbSpline
 62
7
  6
CONTINUOUS
 70
0
 71
3
 72
8
 73
4
 74
2
 42
0.0000001
 43
0.0000001
 44
0.0000000001
 12
-0.9822646379
 22
0.0
 32
0.0
 13
-0.3675078222
 23
0.2549586345
 33
0.0
 40
0.0
 40
0.0
 40
0.0
 40
0.0
 40
1.0
 40
1.0
 40
1.0
 40
1.0
 10
-6.8065930687
 20
1.1628442576
 30
0.0
 10
-7.1340146146
 20
1.1628442576
 30
0.0
 10
-7.3591169201
 20
1.2051363757
 30
0.0
 10
-7.4816195275
 20
1.2901225872
 30
0.0
 11
-6.8065930687
 21
1.1628442576
 31
0.0
 11
-7.4816195275
 21
1.2901225872
 31
0.0
  0
SPLINE
  5
4F8
100
AcDbEntity
  8
0
100
AcDbSpline
 62
7
  6
CONTINUOUS
 70
0
 71
3
 72
8
 73
4
 74
2
 42
0.0000001
 43
0.0000001
 44
0.0000000001
 12
0.4162741642
 22
0.3289306513
 32
0.0
 13
0.0
 23
0.5811738968
 33
0.0
 40
0.0
 40
0.0
 40
0.0
 40
0.0
 40
1.0
 40
1.0
 40
1.0
 40
1.0
 10
-5.9931000839
 20
1.1077709053
 30
0.0
 10
-5.8543420292
 20
1.2174144557
 30
0.0
 10
-5.7861292071
 20
1.3688469699
 30
0.0
 10
-5.7861292071
 20
1.5625716021
 30
0.0
 11
-5.9931000839
 21
1.1077709053
 31
0.0
 11
-5.7861292071
 21
1.5625716021
 31
0.0
  0
SPLINE
  5
4F9
100
AcDbEntity
  8
0
100
AcDbSpline
 62
7
  6
CONTINUOUS
 70
0
 71
3
 72
8
 73
4
 74
2
 42
0.0000001
 43
0.0000001
 44
0.0000000001
 12
0.0
 22
0.4379253387
 32
0.0
 13
-0.2373806358
 23
0.286494254
 33
0.0
 40
0.0
 40
0.0
 40
0.0
 40
0.0
 40
1.0
 40
1.0
 40
1.0
 40
1.0
 10
-5.7861292071
 20
1.5625716021
 30
0.0
 10
-5.7861292071
 20
1.7085467151
 30
0.0
 10
-5.8243283874
 20
1.829965668
 30
0.0
 10
-5.903455266
 20
1.9254637527
 30
0.0
 11
-5.7861292071
 21
1.5625716021
 31
0.0
 11
-5.903455266
 21
1.9254637527
 31
0.0
  0
SPLINE
  5
4FA
100
AcDbEntity
  8
0
100
AcDbSpline
 62
7
  6
CONTINUOUS
 70
0
 71
3
 72
8
 73
4
 74
2
 42
0.0000001
 43
0.0000001
 44
0.0000000001
 12
-0.2373806375
 22
0.2864942561
 32
0.0
 13
-0.4344458497
 23
0.1454985406
 33
0.0
 40
0.0
 40
0.0
 40
0.0
 40
0.0
 40
1.0
 40
1.0
 40
1.0
 40
1.0
 10
-5.903455266
 20
1.9254637527
 30
0.0
 10
-5.9825821452
 20
2.020961838
 30
0.0
 10
-6.0930869065
 20
2.0932670405
 30
0.0
 10
-6.2379021897
 20
2.1417665541
 30
0.0
 11
-5.903455266
 21
1.9254637527
 31
0.0
 11
-6.2379021897
 21
2.1417665541
 31
0.0
  0
SPLINE
  5
4FB
100
AcDbEntity
  8
0
100
AcDbSpline
 62
7
  6
CONTINUOUS
 70
0
 71
3
 72
8
 73
4
 74
2
 42
0.0000001
 43
0.0000001
 44
0.0000000001
 12
-0.4332212292
 22
0.1450884078
 32
0.0
 13
-0.703956306
 23
0.0
 33
0.0
 40
0.0
 40
0.0
 40
0.0
 40
0.0
 40
1.0
 40
1.0
 40
1.0
 40
1.0
 10
-6.2379021897
 20
2.1417665541
 30
0.0
 10
-6.3823092662
 20
2.1901293567
 30
0.0
 10
-6.5719409667
 20
2.2146859935
 30
0.0
 10
-6.8065930687
 20
2.2146859935
 30
0.0
 11
-6.2379021897
 21
2.1417665541
 31
0.0
 11
-6.8065930687
 21
2.2146859935
 31
0.0
  0
SPLINE
  5
4FC
100
AcDbEntity
  8
0
100
AcDbSpline
 62
7
  6
CONTINUOUS
 70
0
 71
3
 72
8
 73
4
 74
2
 42
0.0000001
 43
0.0000001
 44
0.0000000001
 12
-0.5934516191
 22
0.0
 32
0.0
 13
-0.351978582
 23
-0.0900414859
 33
0.0
 40
0.0
 40
0.0
 40
0.0
 40
0.0
 40
1.0
 40
1.0
 40
1.0
 40
1.0
 10
-6.8065930687
 20
2.2146859935
 30
0.0
 10
-7.004410275
 20
2.2146859935
 30
0.0
 10
-7.1612997137
 20
2.1996794513
 30
0.0
 10
-7.2786259077
 20
2.1696656226
 30
0.0
 11
-6.8065930687
 21
2.2146859935
 31
0.0
 11
-7.2786259077
 21
2.1696656226
 31
0.0
  0
SPLINE
  5
4FD
100
AcDbEntity
  8
0
100
AcDbSpline
 62
7
  6
CONTINUOUS
 70
0
 71
3
 72
8
 73
4
 74
2
 42
0.0000001
 43
0.0000001
 44
0.0000000001
 12
-0.3519779028
 22
-0.0900413121
 32
0.0
 13
-0.2446318754
 23
-0.1569719983
 33
0.0
 40
0.0
 40
0.0
 40
0.0
 40
0.0
 40
1.0
 40
1.0
 40
1.0
 40
1.0
 10
-7.2786259077
 20
2.1696656226
 30
0.0
 10
-7.3959518753
 20
2.1396518519
 30
0.0
 10
-7.4941783033
 20
2.0973602107
 30
0.0
 10
-7.5757222618
 20
2.0450362112
 30
0.0
 11
-7.2786259077
 21
2.1696656226
 31
0.0
 11
-7.5757222618
 21
2.0450362112
 31
0.0
  0
SPLINE
  5
4FE
100
AcDbEntity
  8
0
100
AcDbSpline
 62
7
  6
CONTINUOUS
 70
0
 71
3
 72
8
 73
4
 74
2
 42
0.0000001
 43
0.0000001
 44
0.0000000001
 12
-0.2465006224
 22
-0.15817111
 32
0.0
 13
-0.1301142459
 23
-0.2419308151
 33
0.0
 40
0.0
 40
0.0
 40
0.0
 40
0.0
 40
1.0
 40
1.0
 40
1.0
 40
1.0
 10
-7.5757222618
 20
2.0450362112
 30
0.0
 10
-7.6578891359
 20
1.9923125079
 30
0.0
 10
-7.7192806087
 20
1.925463753
 30
0.0
 10
-7.762652024
 20
1.844820148
 30
0.0
 11
-7.5757222618
 21
2.0450362112
 31
0.0
 11
-7.762652024
 21
1.844820148
 31
0.0
  0
SPLINE
  5
4FF
100
AcDbEntity
  8
0
100
AcDbSpline
 62
7
  6
CONTINUOUS
 70
0
 71
3
 72
8
 73
4
 74
2
 42
0.0000001
 43
0.0000001
 44
0.0000000001
 12
-0.131823134
 22
-0.2451082741
 32
0.0
 13
0.0
 23
-0.3192358017
 33
0.0
 40
0.0
 40
0.0
 40
0.0
 40
0.0
 40
1.0
 40
1.0
 40
1.0
 40
1.0
 10
-7.762652024
 20
1.844820148
 30
0.0
 10
-7.8065930687
 20
1.76311739
 30
0.0
 10
-7.8284212433
 20
1.668983536
 30
0.0
 10
-7.8284212433
 20
1.5625716021
 30
0.0
 11
-7.762652024
 21
1.844820148
 31
0.0
 11
-7.8284212433
 21
1.5625716021
 31
0.0
  0
SPLINE
  5
500
100
AcDbEntity
  8
0
100
AcDbSpline
 62
7
  6
CONTINUOUS
 70
0
 71
3
 72
8
 73
4
 74
2
 42
0.0000001
 43
0.0000001
 44
0.0000000001
 12
0.0
 22
-0.4379267693
 32
0.0
 13
0.2345072137
 23
-0.2854868258
 33
0.0
 40
0.0
 40
0.0
 40
0.0
 40
0.0
 40
1.0
 40
1.0
 40
1.0
 40
1.0
 10
-7.8284212433
 20
1.5625716021
 30
0.0
 10
-7.8284212433
 20
1.4165960124
 30
0.0
 10
-7.7888577066
 20
1.2951770594
 30
0.0
 10
-7.7106886354
 20
1.2000147842
 30
0.0
 11
-7.8284212433
 21
1.5625716021
 31
0.0
 11
-7.7106886354
 21
1.2000147842
 31
0.0
  0
SPLINE
  5
501
100
AcDbEntity
  8
0
100
AcDbSpline
 62
7
  6
CONTINUOUS
 70
0
 71
3
 72
8
 73
4
 74
2
 42
0.0000001
 43
0.0000001
 44
0.0000000001
 12
0.2361611022
 22
-0.2875002538
 32
0.0
 13
0.4338333792
 23
-0.1473397664
 33
0.0
 40
0.0
 40
0.0
 40
0.0
 40
0.0
 40
1.0
 40
1.0
 40
1.0
 40
1.0
 10
-7.7106886354
 20
1.2000147842
 30
0.0
 10
-7.631968268
 20
1.1041813662
 30
0.0
 10
-7.5214634023
 20
1.0318756869
 30
0.0
 10
-7.3768522759
 20
0.9827624314
 30
0.0
 11
-7.7106886354
 21
1.2000147842
 31
0.0
 11
-7.3768522759
 21
0.9827624314
 31
0.0
  0
SPLINE
  5
502
100
AcDbEntity
  8
0
100
AcDbSpline
 62
7
  6
CONTINUOUS
 70
0
 71
3
 72
8
 73
4
 74
2
 42
0.0000001
 43
0.0000001
 44
0.0000000001
 12
0.4338336998
 22
-0.1473398753
 32
0.0
 13
0.7080491781
 23
0.0
 33
0.0
 40
0.0
 40
0.0
 40
0.0
 40
0.0
 40
1.0
 40
1.0
 40
1.0
 40
1.0
 10
-7.3768522759
 20
0.9827624314
 30
0.0
 10
-7.2322410427
 20
0.9336491397
 30
0.0
 10
-7.0426094614
 20
0.910456734
 30
0.0
 10
-6.8065930687
 20
0.910456734
 30
0.0
 11
-7.3768522759
 21
0.9827624314
 31
0.0
 11
-6.8065930687
 21
0.910456734
 31
0.0
  0
SPLINE
  5
503
100
AcDbEntity
  8
0
100
AcDbSpline
 62
7
  6
CONTINUOUS
 70
0
 71
3
 72
8
 73
4
 74
2
 42
0.0000001
 43
0.0000001
 44
0.0000000001
 12
1.1296044588
 22
0.0
 32
0.0
 13
0.5005061959
 23
0.3954889425
 33
0.0
 40
0.0
 40
0.0
 40
0.0
 40
0.0
 40
1.0
 40
1.0
 40
1.0
 40
1.0
 10
-6.8065930687
 20
0.910456734
 30
0.0
 10
-6.4300582491
 20
0.910456734
 30
0.0
 10
-6.1599354826
 20
0.9759412578
 30
0.0
 10
-5.9931000839
 20
1.1077709053
 30
0.0
 11
-6.8065930687
 21
0.910456734
 31
0.0
 11
-5.9931000839
 21
1.1077709053
 31
0.0
  0
SPLINE
  5
504
100
AcDbEntity
  8
0
100
AcDbSpline
 62
7
  6
CONTINUOUS
 70
0
 71
3
 72
8
 73
4
 74
2
 42
0.0000001
 43
0.0000001
 44
0.0000000001
 12
0.3058139858
 22
0.3448104457
 32
0.0
 13
-0.0
 23
0.5484316349
 33
0.0
 40
0.0
 40
0.0
 40
0.0
 40
0.0
 40
1.0
 40
1.0
 40
1.0
 40
1.0
 10
-5.9385446904
 20
-0.4473175103
 30
0.0
 10
-5.8366066951
 20
-0.3323806951
 30
0.0
 10
-5.7861292071
 20
-0.1836768815
 30
0.0
 10
-5.7861292071
 20
-0.0008663365
 30
0.0
 11
-5.9385446904
 21
-0.4473175103
 31
0.0
 11
-5.7861292071
 21
-0.0008663365
 31
0.0
  0
SPLINE
  5
505
100
AcDbEntity
  8
0
100
AcDbSpline
 62
7
  6
CONTINUOUS
 70
0
 71
3
 72
8
 73
4
 74
2
 42
0.0000001
 43
0.0000001
 44
0.0000000001
 12
-0.0
 22
0.6630277634
 32
0.0
 13
-0.4857471805
 23
0.3863383787
 33
0.0
 40
0.0
 40
0.0
 40
0.0
 40
0.0
 40
1.0
 40
1.0
 40
1.0
 40
1.0
 10
-5.7861292071
 20
-0.0008663365
 30
0.0
 10
-5.7861292071
 20
0.2201429179
 30
0.0
 10
-5.8666203402
 20
0.3961320689
 30
0.0
 10
-6.028536067
 20
0.5249115285
 30
0.0
 11
-5.7861292071
 21
-0.0008663365
 31
0.0
 11
-6.028536067
 21
0.5249115285
 31
0.0
  0
SPLINE
  5
506
100
AcDbEntity
  8
0
100
AcDbSpline
 62
7
  6
CONTINUOUS
 70
0
 71
3
 72
8
 73
4
 74
2
 42
0.0000001
 43
0.0000001
 44
0.0000000001
 12
-0.3941982467
 22
0.3135250551
 32
0.0
 13
-0.5443384051
 23
0.0
 33
0.0
 40
0.0
 40
0.0
 40
0.0
 40
0.0
 40
1.0
 40
1.0
 40
1.0
 40
1.0
 10
-6.028536067
 20
0.5249115285
 30
0.0
 10
-6.1599354826
 20
0.6294198802
 30
0.0
 10
-6.3168249808
 20
0.6826258471
 30
0.0
 10
-6.4982711158
 20
0.6826258471
 30
0.0
 11
-6.028536067
 21
0.5249115285
 31
0.0
 11
-6.4982711158
 21
0.6826258471
 31
0.0
  0
SPLINE
  5
507
100
AcDbEntity
  8
0
100
AcDbSpline
 62
7
  6
CONTINUOUS
 70
0
 71
3
 72
8
 73
4
 74
2
 42
0.0000001
 43
0.0000001
 44
0.0000000001
 12
-0.5688949227
 22
0.0
 32
0.0
 13
-0.3632379455
 23
-0.3611856119
 33
0.0
 40
0.0
 40
0.0
 40
0.0
 40
0.0
 40
1.0
 40
1.0
 40
1.0
 40
1.0
 10
-6.4982711158
 20
0.6826258471
 30
0.0
 10
-6.6879027568
 20
0.6826258471
 30
0.0
 10
-6.8434280239
 20
0.6225987246
 30
0.0
 10
-6.9645073391
 20
0.5022035207
 30
0.0
 11
-6.4982711158
 21
0.6826258471
 31
0.0
 11
-6.9645073391
 21
0.5022035207
 31
0.0
  0
SPLINE
  5
508
100
AcDbEntity
  8
0
100
AcDbSpline
 62
7
  6
CONTINUOUS
 70
0
 71
3
 72
8
 73
4
 74
2
 42
0.0000001
 43
0.0000001
 44
0.0000000001
 12
-0.3611820059
 22
-0.3591412886
 32
0.0
 13
0.0
 23
-0.5238747597
 33
0.0
 40
0.0
 40
0.0
 40
0.0
 40
0.0
 40
1.0
 40
1.0
 40
1.0
 40
1.0
 10
-6.9645073391
 20
0.5022035207
 30
0.0
 10
-7.084901341
 20
0.3824897578
 30
0.0
 10
-7.1462929331
 20
0.2351499369
 30
0.0
 10
-7.1462929331
 20
0.0605250171
 30
0.0
 11
-6.9645073391
 21
0.5022035207
 31
0.0
 11
-7.1462929331
 21
0.0605250171
 31
0.0
  0
SPLINE
  5
509
100
AcDbEntity
  8
0
100
AcDbSpline
 62
7
  6
CONTINUOUS
 70
0
 71
3
 72
8
 73
4
 74
2
 42
0.0000001
 43
0.0000001
 44
0.0000000001
 12
0.0
 22
-0.3969984055
 32
0.0
 13
0.2496589422
 23
-0.3601634502
 33
0.0
 40
0.0
 40
0.0
 40
0.0
 40
0.0
 40
1.0
 40
1.0
 40
1.0
 40
1.0
 10
-7.1462929331
 20
0.0605250171
 30
0.0
 10
-7.146292933
 20
-0.0718077848
 30
0.0
 10
-7.1040009342
 20
-0.197319431
 30
0.0
 10
-7.0207812868
 20
-0.3173739144
 30
0.0
 11
-7.1462929331
 21
0.0605250171
 31
0.0
 11
-7.0207812868
 21
-0.3173739144
 31
0.0
  0
SPLINE
  5
50A
100
AcDbEntity
  8
0
100
AcDbSpline
 62
7
  6
CONTINUOUS
 70
0
 71
3
 72
8
 73
4
 74
2
 42
0.0000001
 43
0.0000001
 44
0.0000000001
 12
-0.1718961596
 22
0.1064121723
 32
0.0
 13
-0.1072827393
 23
0.1918707513
 33
0.0
 40
0.0
 40
0.0
 40
0.0
 40
0.0
 40
1.0
 40
1.0
 40
1.0
 40
1.0
 10
-6.7356517397
 20
-0.3692156503
 30
0.0
 10
-6.7929504595
 20
-0.3337449262
 30
0.0
 10
-6.8393352113
 20
-0.2832674214
 30
0.0
 10
-6.8750961244
 20
-0.2193105044
 30
0.0
 11
-6.7356517397
 21
-0.3692156503
 31
0.0
 11
-6.8750961244
 21
-0.2193105044
 31
0.0
  0
SPLINE
  5
50B
100
AcDbEntity
  8
0
100
AcDbSpline
 62
7
  6
CONTINUOUS
 70
0
 71
3
 72
8
 73
4
 74
2
 42
0.0000001
 43
0.0000001
 44
0.0000000001
 12
-0.1055412477
 22
0.1887561656
 32
0.0
 13
-0.0
 23
0.2373805046
 33
0.0
 40
0.0
 40
0.0
 40
0.0
 40
0.0
 40
1.0
 40
1.0
 40
1.0
 40
1.0
 10
-6.8750961244
 20
-0.2193105044
 30
0.0
 10
-6.9102765403
 20
-0.1563917825
 30
0.0
 10
-6.9293761335
 20
-0.0840861032
 30
0.0
 10
-6.9293761335
 20
-0.0049592683
 30
0.0
 11
-6.8750961244
 21
-0.2193105044
 31
0.0
 11
-6.9293761335
 21
-0.0049592683
 31
0.0
  0
SPLINE
  5
50C
100
AcDbEntity
  8
0
100
AcDbSpline
 62
7
  6
CONTINUOUS
 70
0
 71
3
 72
8
 73
4
 74
2
 42
0.0000001
 43
0.0000001
 44
0.0000000001
 12
-0.0
 22
0.3806276321
 32
0.0
 13
0.2424684267
 23
0.2363556247
 33
0.0
 40
0.0
 40
0.0
 40
0.0
 40
0.0
 40
1.0
 40
1.0
 40
1.0
 40
1.0
 10
-6.9293761335
 20
-0.0049592683
 30
0.0
 10
-6.9293761335
 20
0.1219166091
 30
0.0
 10
-6.888448485
 20
0.2242360881
 30
0.0
 10
-6.8076256761
 20
0.3030212963
 30
0.0
 11
-6.9293761335
 21
-0.0049592683
 31
0.0
 11
-6.8076256761
 21
0.3030212963
 31
0.0
  0
SPLINE
  5
50D
100
AcDbEntity
  8
0
100
AcDbSpline
 62
7
  6
CONTINUOUS
 70
0
 71
3
 72
8
 73
4
 74
2
 42
0.0000001
 43
0.0000001
 44
0.0000000001
 12
0.244571199
 22
0.2384053845
 32
0.0
 13
0.4174624085
 23
0.0
 33
0.0
 40
0.0
 40
0.0
 40
0.0
 40
0.0
 40
1.0
 40
1.0
 40
1.0
 40
1.0
 10
-6.8076256761
 20
0.3030212963
 30
0.0
 10
-6.7261019431
 20
0.3824897578
 30
0.0
 10
-6.615597137
 20
0.4220529368
 30
0.0
 10
-6.4764430009
 20
0.4220529368
 30
0.0
 11
-6.8076256761
 21
0.3030212963
 31
0.0
 11
-6.4764430009
 21
0.4220529368
 31
0.0
  0
SPLINE
  5
50E
100
AcDbEntity
  8
0
100
AcDbSpline
 62
7
  6
CONTINUOUS
 70
0
 71
3
 72
8
 73
4
 74
2
 42
0.0000001
 43
0.0000001
 44
0.0000000001
 12
0.442019105
 22
0.0
 32
0.0
 13
0.2669620958
 23
-0.2445458908
 33
0.0
 40
0.0
 40
0.0
 40
0.0
 40
0.0
 40
1.0
 40
1.0
 40
1.0
 40
1.0
 10
-6.4764430009
 20
0.4220529368
 30
0.0
 10
-6.3291032992
 20
0.4220529368
 30
0.0
 10
-6.2104129575
 20
0.3811255267
 30
0.0
 10
-6.1214255922
 20
0.2996102298
 30
0.0
 11
-6.4764430009
 21
0.4220529368
 31
0.0
 11
-6.1214255922
 21
0.2996102298
 31
0.0
  0
SPLINE
  5
50F
100
AcDbEntity
  8
0
100
AcDbSpline
 62
7
  6
CONTINUOUS
 70
0
 71
3
 72
8
 73
4
 74
2
 42
0.0000001
 43
0.0000001
 44
0.0000000001
 12
0.2691906544
 22
-0.2465873223
 32
0.0
 13
0.0
 23
-0.3519780636
 33
0.0
 40
0.0
 40
0.0
 40
0.0
 40
0.0
 40
1.0
 40
1.0
 40
1.0
 40
1.0
 10
-6.1214255922
 20
0.2996102298
 30
0.0
 10
-6.0316953741
 20
0.2174144557
 30
0.0
 10
-5.988039159
 20
0.1164596846
 30
0.0
 10
-5.988039159
 20
-0.0008663365
 30
0.0
 11
-6.1214255922
 21
0.2996102298
 31
0.0
 11
-5.988039159
 21
-0.0008663365
 31
0.0
  0
SPLINE
  5
510
100
AcDbEntity
  8
0
100
AcDbSpline
 62
7
  6
CONTINUOUS
 70
0
 71
3
 72
8
 73
4
 74
2
 42
0.0000001
 43
0.0000001
 44
0.0000000001
 12
0.0
 22
-0.2946796417
 32
0.0
 13
-0.1882671944
 23
-0.2087310631
 33
0.0
 40
0.0
 40
0.0
 40
0.0
 40
0.0
 40
1.0
 40
1.0
 40
1.0
 40
1.0
 10
-5.988039159
 20
-0.0008663365
 30
0.0
 10
-5.988039159
 20
-0.0990928838
 30
0.0
 10
-6.0194170706
 20
-0.1836768815
 30
0.0
 10
-6.082172802
 20
-0.2532539026
 30
0.0
 11
-5.988039159
 21
-0.0008663365
 31
0.0
 11
-6.082172802
 21
-0.2532539026
 31
0.0
  0
SPLINE
  5
511
100
AcDbEntity
  8
0
100
AcDbSpline
 62
7
  6
CONTINUOUS
 70
0
 71
3
 72
8
 73
4
 74
2
 42
0.0000001
 43
0.0000001
 44
0.0000000001
 12
-0.1882676103
 22
-0.2087315242
 32
0.0
 13
-0.37653476
 23
-0.0572984219
 33
0.0
 40
0.0
 40
0.0
 40
0.0
 40
0.0
 40
1.0
 40
1.0
 40
1.0
 40
1.0
 10
-6.082172802
 20
-0.2532539026
 30
0.0
 10
-6.1449286721
 20
-0.3228310773
 30
0.0
 10
-6.2404266081
 20
-0.3664871881
 30
0.0
 10
-6.3659381948
 20
-0.385586662
 30
0.0
 11
-6.082172802
 21
-0.2532539026
 31
0.0
 11
-6.3659381948
 21
-0.385586662
 31
0.0
  0
SPLINE
  5
512
100
AcDbEntity
  8
0
100
AcDbSpline
 62
7
  6
CONTINUOUS
 70
0
 71
3
 72
8
 73
4
 74
2
 42
0.0000001
 43
0.0000001
 44
0.0000000001
 12
0.5075033605
 22
0.0491137505
 32
0.0
 13
0.3040086581
 23
0.3427749082
 33
0.0
 40
0.0
 40
0.0
 40
0.0
 40
0.0
 40
1.0
 40
1.0
 40
1.0
 40
1.0
 10
-6.3441100798
 20
-0.6434313485
 30
0.0
 10
-6.174942293
 20
-0.6270600984
 30
0.0
 10
-6.0398809097
 20
-0.561575813
 30
0.0
 10
-5.9385446904
 20
-0.4473175103
 30
0.0
 11
-6.3441100798
 21
-0.6434313485
 31
0.0
 11
-5.9385446904
 21
-0.4473175103
 31
0.0
  0
SPLINE
  5
513
100
AcDbEntity
  8
0
100
AcDbSpline
 62
7
  6
CONTINUOUS
 70
0
 71
3
 72
8
 73
4
 74
2
 42
0.0000001
 43
0.0000001
 44
0.0000000001
 12
-0.2873349327
 22
0.1993386743
 32
0.0
 13
-0.0
 23
0.3396999836
 33
0.0
 40
0.0
 40
0.0
 40
0.0
 40
0.0
 40
1.0
 40
1.0
 40
1.0
 40
1.0
 10
-7.4816196398
 20
-1.8176537383
 30
0.0
 10
-7.5773979507
 20
-1.7512075135
 30
0.0
 10
-7.6251469932
 20
-1.6611665914
 30
0.0
 10
-7.6251469932
 20
-1.5479332635
 30
0.0
 11
-7.4816196398
 21
-1.8176537383
 31
0.0
 11
-7.6251469932
 21
-1.5479332635
 31
0.0
  0
SPLINE
  5
514
100
AcDbEntity
  8
0
100
AcDbSpline
 62
7
  6
CONTINUOUS
 70
0
 71
3
 72
8
 73
4
 74
2
 42
0.0000001
 43
0.0000001
 44
0.0000000001
 12
-0.0
 22
0.3437926769
 32
0.0
 13
0.3240060674
 23
0.228230698
 33
0.0
 40
0.0
 40
0.0
 40
0.0
 40
0.0
 40
1.0
 40
1.0
 40
1.0
 40
1.0
 10
-7.6251469932
 20
-1.5479332635
 30
0.0
 10
-7.6251469932
 20
-1.4333357045
 30
0.0
 10
-7.570576676
 20
-1.3378378579
 30
0.0
 10
-7.4625746535
 20
-1.2617609586
 30
0.0
 11
-7.6251469932
 21
-1.5479332635
 31
0.0
 11
-7.4625746535
 21
-1.2617609586
 31
0.0
  0
SPLINE
  5
515
100
AcDbEntity
  8
0
100
AcDbSpline
 62
7
  6
CONTINUOUS
 70
0
 71
3
 72
8
 73
4
 74
2
 42
0.0000001
 43
0.0000001
 44
0.0000000001
 12
0.3267443312
 22
0.2301595379
 32
0.0
 13
0.9863573313
 23
0.0
 33
0.0
 40
0.0
 40
0.0
 40
0.0
 40
0.0
 40
1.0
 40
1.0
 40
1.0
 40
1.0
 10
-7.4625746535
 20
-1.2617609586
 30
0.0
 10
-7.3536598764
 20
-1.1850411126
 30
0.0
 10
-7.1353788458
 20
-1.1454776952
 30
0.0
 10
-6.8065930687
 20
-1.1454776952
 30
0.0
 11
-7.4625746535
 21
-1.2617609586
 31
0.0
 11
-6.8065930687
 21
-1.1454776952
 31
0.0
  0
SPLINE
  5
516
100
AcDbEntity
  8
0
100
AcDbSpline
 62
7
  6
CONTINUOUS
 70
0
 71
3
 72
8
 73
4
 74
2
 42
0.0000001
 43
0.0000001
 44
0.0000000001
 12
0.9822646379
 22
0.0
 32
0.0
 13
0.327421546
 23
-0.229195118
 33
0.0
 40
0.0
 40
0.0
 40
0.0
 40
0.0
 40
1.0
 40
1.0
 40
1.0
 40
1.0
 10
-6.8065930687
 20
-1.1454776952
 30
0.0
 10
-6.4791715227
 20
-1.1454776952
 30
0.0
 10
-6.2608904622
 20
-1.1850411126
 30
0.0
 10
-6.1517499469
 20
-1.2614394853
 30
0.0
 11
-6.8065930687
 21
-1.1454776952
 31
0.0
 11
-6.1517499469
 21
-1.2614394853
 31
0.0
  0
SPLINE
  5
517
100
AcDbEntity
  8
0
100
AcDbSpline
 62
7
  6
CONTINUOUS
 70
0
 71
3
 72
8
 73
4
 74
2
 42
0.0000001
 43
0.0000001
 44
0.0000000001
 12
0.327421546
 22
-0.229195118
 32
0.0
 13
-0.0
 23
-0.3356072903
 33
0.0
 40
0.0
 40
0.0
 40
0.0
 40
0.0
 40
1.0
 40
1.0
 40
1.0
 40
1.0
 10
-6.1517499469
 20
-1.2614394853
 30
0.0
 10
-6.0426094316
 20
-1.3378378579
 30
0.0
 10
-5.988039159
 20
-1.4333357045
 30
0.0
 10
-5.988039159
 20
-1.5452048013
 30
0.0
 11
-6.1517499469
 21
-1.2614394853
 31
0.0
 11
-5.988039159
 21
-1.5452048013
 31
0.0
  0
SPLINE
  5
518
100
AcDbEntity
  8
0
100
AcDbSpline
 62
7
  6
CONTINUOUS
 70
0
 71
3
 72
8
 73
4
 74
2
 42
0.0000001
 43
0.0000001
 44
0.0000000001
 12
-0.0
 22
-0.3396999836
 32
0.0
 13
-0.327421546
 23
-0.229195118
 33
0.0
 40
0.0
 40
0.0
 40
0.0
 40
0.0
 40
1.0
 40
1.0
 40
1.0
 40
1.0
 10
-5.988039159
 20
-1.5452048013
 30
0.0
 10
-5.988039159
 20
-1.6584381292
 30
0.0
 10
-6.0412451707
 20
-1.7539359758
 30
0.0
 10
-6.150385686
 20
-1.8303343484
 30
0.0
 11
-5.988039159
 21
-1.5452048013
 31
0.0
 11
-6.150385686
 21
-1.8303343484
 31
0.0
  0
SPLINE
  5
519
100
AcDbEntity
  8
0
100
AcDbSpline
 62
7
  6
CONTINUOUS
 70
0
 71
3
 72
8
 73
4
 74
2
 42
0.0000001
 43
0.0000001
 44
0.0000000001
 12
-0.327421546
 22
-0.229195118
 32
0.0
 13
-0.9863575101
 23
0.0
 33
0.0
 40
0.0
 40
0.0
 40
0.0
 40
0.0
 40
1.0
 40
1.0
 40
1.0
 40
1.0
 10
-6.150385686
 20
-1.8303343484
 30
0.0
 10
-6.2595262013
 20
-1.9067327211
 30
0.0
 10
-6.477807232
 20
-1.9449319074
 30
0.0
 10
-6.8065930687
 20
-1.9449319074
 30
0.0
 11
-6.150385686
 21
-1.8303343484
 31
0.0
 11
-6.8065930687
 21
-1.9449319074
 31
0.0
  0
SPLINE
  5
51A
100
AcDbEntity
  8
0
100
AcDbSpline
 62
7
  6
CONTINUOUS
 70
0
 71
3
 72
8
 73
4
 74
2
 42
0.0000001
 43
0.0000001
 44
0.0000000001
 12
-0.9822646379
 22
0.0
 32
0.0
 13
-0.3675081592
 23
0.2549588683
 33
0.0
 40
0.0
 40
0.0
 40
0.0
 40
0.0
 40
1.0
 40
1.0
 40
1.0
 40
1.0
 10
-6.8065930687
 20
-1.9449319074
 30
0.0
 10
-7.1340146146
 20
-1.9449319074
 30
0.0
 10
-7.3591169201
 20
-1.9026400277
 30
0.0
 10
-7.4816196398
 20
-1.8176537383
 30
0.0
 11
-6.8065930687
 21
-1.9449319074
 31
0.0
 11
-7.4816196398
 21
-1.8176537383
 31
0.0
  0
SPLINE
  5
51B
100
AcDbEntity
  8
0
100
AcDbSpline
 62
7
  6
CONTINUOUS
 70
0
 71
3
 72
8
 73
4
 74
2
 42
0.0000001
 43
0.0000001
 44
0.0000000001
 12
0.4162742583
 22
0.3289308881
 32
0.0
 13
0.0
 23
0.5811731815
 33
0.0
 40
0.0
 40
0.0
 40
0.0
 40
0.0
 40
1.0
 40
1.0
 40
1.0
 40
1.0
 10
-5.9931001153
 20
-2.0000053387
 30
0.0
 10
-5.8543420292
 20
-1.8903617093
 30
0.0
 10
-5.7861292071
 20
-1.7389291951
 30
0.0
 10
-5.7861292071
 20
-1.5452048013
 30
0.0
 11
-5.9931001153
 21
-2.0000053387
 31
0.0
 11
-5.7861292071
 21
-1.5452048013
 31
0.0
  0
SPLINE
  5
51C
100
AcDbEntity
  8
0
100
AcDbSpline
 62
7
  6
CONTINUOUS
 70
0
 71
3
 72
8
 73
4
 74
2
 42
0.0000001
 43
0.0000001
 44
0.0000000001
 12
0.0
 22
0.437926054
 32
0.0
 13
-0.2373804601
 23
0.2864936844
 33
0.0
 40
0.0
 40
0.0
 40
0.0
 40
0.0
 40
1.0
 40
1.0
 40
1.0
 40
1.0
 10
-5.7861292071
 20
-1.5452048013
 30
0.0
 10
-5.7861292071
 20
-1.39922945
 30
0.0
 10
-5.8243283874
 20
-1.277810497
 30
0.0
 10
-5.9034552074
 20
-1.1823126022
 30
0.0
 11
-5.7861292071
 21
-1.5452048013
 31
0.0
 11
-5.9034552074
 21
-1.1823126022
 31
0.0
  0
SPLINE
  5
51D
100
AcDbEntity
  8
0
100
AcDbSpline
 62
7
  6
CONTINUOUS
 70
0
 71
3
 72
8
 73
4
 74
2
 42
0.0000001
 43
0.0000001
 44
0.0000000001
 12
-0.2373808132
 22
0.2864941105
 32
0.0
 13
-0.4344457422
 23
0.1454981465
 33
0.0
 40
0.0
 40
0.0
 40
0.0
 40
0.0
 40
1.0
 40
1.0
 40
1.0
 40
1.0
 10
-5.9034552074
 20
-1.1823126022
 30
0.0
 10
-5.9825821452
 20
-1.0868145654
 30
0.0
 10
-6.0930869065
 20
-1.0145088861
 30
0.0
 10
-6.2379021539
 20
-0.9660095039
 30
0.0
 11
-5.9034552074
 21
-1.1823126022
 31
0.0
 11
-6.2379021539
 21
-0.9660095039
 31
0.0
  0
SPLINE
  5
51E
100
AcDbEntity
  8
0
100
AcDbSpline
 62
7
  6
CONTINUOUS
 70
0
 71
3
 72
8
 73
4
 74
2
 42
0.0000001
 43
0.0000001
 44
0.0000000001
 12
-0.4332213368
 22
0.1450880867
 32
0.0
 13
-0.703956306
 23
0.0
 33
0.0
 40
0.0
 40
0.0
 40
0.0
 40
0.0
 40
1.0
 40
1.0
 40
1.0
 40
1.0
 10
-6.2379021539
 20
-0.9660095039
 30
0.0
 10
-6.3823092662
 20
-0.9176468084
 30
0.0
 10
-6.5719409667
 20
-0.8930901715
 30
0.0
 10
-6.8065930687
 20
-0.8930901715
 30
0.0
 11
-6.2379021539
 21
-0.9660095039
 31
0.0
 11
-6.8065930687
 21
-0.8930901715
 31
0.0
  0
SPLINE
  5
51F
100
AcDbEntity
  8
0
100
AcDbSpline
 62
7
  6
CONTINUOUS
 70
0
 71
3
 72
8
 73
4
 74
2
 42
0.0000001
 43
0.0000001
 44
0.0000000001
 12
-0.5934516191
 22
0.0
 32
0.0
 13
-0.3519784961
 23
-0.0900411063
 33
0.0
 40
0.0
 40
0.0
 40
0.0
 40
0.0
 40
1.0
 40
1.0
 40
1.0
 40
1.0
 10
-6.8065930687
 20
-0.8930901715
 30
0.0
 10
-7.004410275
 20
-0.8930901715
 30
0.0
 10
-7.1612997137
 20
-0.9080969522
 30
0.0
 10
-7.278625879
 20
-0.9381106543
 30
0.0
 11
-6.8065930687
 21
-0.8930901715
 31
0.0
 11
-7.278625879
 21
-0.9381106543
 31
0.0
  0
SPLINE
  5
520
100
AcDbEntity
  8
0
100
AcDbSpline
 62
7
  6
CONTINUOUS
 70
0
 71
3
 72
8
 73
4
 74
2
 42
0.0000001
 43
0.0000001
 44
0.0000000001
 12
-0.3519779887
 22
-0.0900409765
 32
0.0
 13
-0.2446318754
 23
-0.1569719983
 33
0.0
 40
0.0
 40
0.0
 40
0.0
 40
0.0
 40
1.0
 40
1.0
 40
1.0
 40
1.0
 10
-7.278625879
 20
-0.9381106543
 30
0.0
 10
-7.3959518753
 20
-0.9681243131
 30
0.0
 10
-7.4941783033
 20
-1.0104161927
 30
0.0
 10
-7.5757222618
 20
-1.0627401922
 30
0.0
 11
-7.278625879
 21
-0.9381106543
 31
0.0
 11
-7.5757222618
 21
-1.0627401922
 31
0.0
  0
SPLINE
  5
521
100
AcDbEntity
  8
0
100
AcDbSpline
 62
7
  6
CONTINUOUS
 70
0
 71
3
 72
8
 73
4
 74
2
 42
0.0000001
 43
0.0000001
 44
0.0000000001
 12
-0.2465006224
 22
-0.15817111
 32
0.0
 13
-0.1301142459
 23
-0.2419308151
 33
0.0
 40
0.0
 40
0.0
 40
0.0
 40
0.0
 40
1.0
 40
1.0
 40
1.0
 40
1.0
 10
-7.5757222618
 20
-1.0627401922
 30
0.0
 10
-7.6578891359
 20
-1.1154638955
 30
0.0
 10
-7.7192806087
 20
-1.1823126504
 30
0.0
 10
-7.762652024
 20
-1.2629562554
 30
0.0
 11
-7.5757222618
 21
-1.0627401922
 31
0.0
 11
-7.762652024
 21
-1.2629562554
 31
0.0
  0
SPLINE
  5
522
100
AcDbEntity
  8
0
100
AcDbSpline
 62
7
  6
CONTINUOUS
 70
0
 71
3
 72
8
 73
4
 74
2
 42
0.0000001
 43
0.0000001
 44
0.0000000001
 12
-0.131823134
 22
-0.2451082741
 32
0.0
 13
0.0
 23
-0.3192358017
 33
0.0
 40
0.0
 40
0.0
 40
0.0
 40
0.0
 40
1.0
 40
1.0
 40
1.0
 40
1.0
 10
-7.762652024
 20
-1.2629562554
 30
0.0
 10
-7.8065930687
 20
-1.3446590135
 30
0.0
 10
-7.8284212433
 20
-1.4387928674
 30
0.0
 10
-7.8284212433
 20
-1.5452048013
 30
0.0
 11
-7.762652024
 21
-1.2629562554
 31
0.0
 11
-7.8284212433
 21
-1.5452048013
 31
0.0
  0
SPLINE
  5
523
100
AcDbEntity
  8
0
100
AcDbSpline
 62
7
  6
CONTINUOUS
 70
0
 71
3
 72
8
 73
4
 74
2
 42
0.0000001
 43
0.0000001
 44
0.0000000001
 12
0.0
 22
-0.437926054
 32
0.0
 13
0.2345074765
 23
-0.2854873239
 33
0.0
 40
0.0
 40
0.0
 40
0.0
 40
0.0
 40
1.0
 40
1.0
 40
1.0
 40
1.0
 10
-7.8284212433
 20
-1.5452048013
 30
0.0
 10
-7.8284212433
 20
-1.6911801526
 30
0.0
 10
-7.7888577066
 20
-1.8125991056
 30
0.0
 10
-7.7106885478
 20
-1.9077615469
 30
0.0
 11
-7.8284212433
 21
-1.5452048013
 31
0.0
 11
-7.7106885478
 21
-1.9077615469
 31
0.0
  0
SPLINE
  5
524
100
AcDbEntity
  8
0
100
AcDbSpline
 62
7
  6
CONTINUOUS
 70
0
 71
3
 72
8
 73
4
 74
2
 42
0.0000001
 43
0.0000001
 44
0.0000000001
 12
0.2361608394
 22
-0.2875001133
 32
0.0
 13
0.4338333247
 23
-0.1473395691
 33
0.0
 40
0.0
 40
0.0
 40
0.0
 40
0.0
 40
1.0
 40
1.0
 40
1.0
 40
1.0
 10
-7.7106885478
 20
-1.9077615469
 30
0.0
 10
-7.631968268
 20
-2.003594918
 30
0.0
 10
-7.5214634023
 20
-2.0759005973
 30
0.0
 10
-7.3768522941
 20
-2.125013787
 30
0.0
 11
-7.7106885478
 21
-1.9077615469
 31
0.0
 11
-7.3768522941
 21
-2.125013787
 31
0.0
  0
SPLINE
  5
525
100
AcDbEntity
  8
0
100
AcDbSpline
 62
7
  6
CONTINUOUS
 70
0
 71
3
 72
8
 73
4
 74
2
 42
0.0000001
 43
0.0000001
 44
0.0000000001
 12
0.4338337543
 22
-0.147339715
 32
0.0
 13
0.7080491781
 23
0.0
 33
0.0
 40
0.0
 40
0.0
 40
0.0
 40
0.0
 40
1.0
 40
1.0
 40
1.0
 40
1.0
 10
-7.3768522941
 20
-2.125013787
 30
0.0
 10
-7.2322410427
 20
-2.1741270253
 30
0.0
 10
-7.0426094614
 20
-2.197319431
 30
0.0
 10
-6.8065930687
 20
-2.197319431
 30
0.0
 11
-7.3768522941
 21
-2.125013787
 31
0.0
 11
-6.8065930687
 21
-2.197319431
 31
0.0
  0
SPLINE
  5
526
100
AcDbEntity
  8
0
100
AcDbSpline
 62
7
  6
CONTINUOUS
 70
0
 71
3
 72
8
 73
4
 74
2
 42
0.0000001
 43
0.0000001
 44
0.0000000001
 12
1.1296044588
 22
0.0
 32
0.0
 13
0.5005061017
 23
0.3954890633
 33
0.0
 40
0.0
 40
0.0
 40
0.0
 40
0.0
 40
1.0
 40
1.0
 40
1.0
 40
1.0
 10
-6.8065930687
 20
-2.197319431
 30
0.0
 10
-6.4300582491
 20
-2.197319431
 30
0.0
 10
-6.1599354826
 20
-2.1318350265
 30
0.0
 10
-5.9931001153
 20
-2.0000053387
 30
0.0
 11
-6.8065930687
 21
-2.197319431
 31
0.0
 11
-5.9931001153
 21
-2.0000053387
 31
0.0
  0
SPLINE
  5
527
100
AcDbEntity
  8
0
100
AcDbSpline
 62
7
  6
CONTINUOUS
 70
0
 71
3
 72
8
 73
4
 74
2
 42
0.0000001
 43
0.0000001
 44
0.0000000001
 12
-0.1309686452
 22
0.0818553865
 32
0.0
 13
-0.131986172
 23
0.1257993442
 33
0.0
 40
0.0
 40
0.0
 40
0.0
 40
0.0
 40
1.0
 40
1.0
 40
1.0
 40
1.0
 10
-6.056251996
 20
-3.44152127
 30
0.0
 10
-6.0999082111
 20
-3.4142361412
 30
0.0
 10
-6.1449286721
 20
-3.3801297376
 30
0.0
 10
-6.1889240628
 20
-3.3381966229
 30
0.0
 11
-6.056251996
 21
-3.44152127
 31
0.0
 11
-6.1889240628
 21
-3.3381966229
 31
0.0
  0
SPLINE
  5
528
100
AcDbEntity
  8
0
100
AcDbSpline
 62
7
  6
CONTINUOUS
 70
0
 71
3
 72
8
 73
4
 74
2
 42
0.0000001
 43
0.0000001
 44
0.0000000001
 12
-0.129951029
 22
0.1238595981
 32
0.0
 13
-0.3727747889
 23
0.4417381472
 33
0.0
 40
0.0
 40
0.0
 40
0.0
 40
0.0
 40
1.0
 40
1.0
 40
1.0
 40
1.0
 10
-6.1889240628
 20
-3.3381966229
 30
0.0
 10
-6.2322410725
 20
-3.2969100902
 30
0.0
 10
-6.3168249808
 20
-3.2014121244
 30
0.0
 10
-6.4410832438
 20
-3.0541660753
 30
0.0
 11
-6.1889240628
 21
-3.3381966229
 31
0.0
 11
-6.4410832438
 21
-3.0541660753
 31
0.0
  0
SPLINE
  5
529
100
AcDbEntity
  8
0
100
AcDbSpline
 62
7
  6
CONTINUOUS
 70
0
 71
3
 72
8
 73
4
 74
2
 42
0.0000001
 43
0.0000001
 44
0.0000000001
 12
-0.4457790761
 22
0.5282482319
 32
0.0
 13
-0.2569310747
 23
0.2302102889
 33
0.0
 40
0.0
 40
0.0
 40
0.0
 40
0.0
 40
1.0
 40
1.0
 40
1.0
 40
1.0
 10
-6.4410832438
 20
-3.0541660753
 30
0.0
 10
-6.5896762691
 20
-2.8780833313
 30
0.0
 10
-6.7070023499
 20
-2.7525717446
 30
0.0
 10
-6.7926460415
 20
-2.6758349817
 30
0.0
 11
-6.4410832438
 21
-3.0541660753
 31
0.0
 11
-6.7926460415
 21
-2.6758349817
 31
0.0
  0
SPLINE
  5
52A
100
AcDbEntity
  8
0
100
AcDbSpline
 62
7
  6
CONTINUOUS
 70
0
 71
3
 72
8
 73
4
 74
2
 42
0.0000001
 43
0.0000001
 44
0.0000000001
 12
-0.2546650686
 22
0.228179947
 32
0.0
 13
-0.2329738336
 23
0.0989623013
 33
0.0
 40
0.0
 40
0.0
 40
0.0
 40
0.0
 40
1.0
 40
1.0
 40
1.0
 40
1.0
 10
-6.7926460415
 20
-2.6758349817
 30
0.0
 10
-6.8775343977
 20
-2.5997749993
 30
0.0
 10
-6.959389814
 20
-2.5452048013
 30
0.0
 10
-7.0370477585
 20
-2.5122173675
 30
0.0
 11
-6.7926460415
 21
-2.6758349817
 31
0.0
 11
-7.0370477585
 21
-2.5122173675
 31
0.0
  0
SPLINE
  5
52B
100
AcDbEntity
  8
0
100
AcDbSpline
 62
7
  6
CONTINUOUS
 70
0
 71
3
 72
8
 73
4
 74
2
 42
0.0000001
 43
0.0000001
 44
0.0000000001
 12
-0.2295090957
 22
0.0974905548
 32
0.0
 13
-0.2414735556
 23
0.0
 33
0.0
 40
0.0
 40
0.0
 40
0.0
 40
0.0
 40
1.0
 40
1.0
 40
1.0
 40
1.0
 10
-7.0370477585
 20
-2.5122173675
 30
0.0
 10
-7.1135507904
 20
-2.4797205159
 30
0.0
 10
-7.1926776252
 20
-2.463349385
 30
0.0
 10
-7.2731688104
 20
-2.463349385
 30
0.0
 11
-7.0370477585
 21
-2.5122173675
 31
0.0
 11
-7.2731688104
 21
-2.463349385
 31
0.0
  0
SPLINE
  5
52C
100
AcDbEntity
  8
0
100
AcDbSpline
 62
7
  6
CONTINUOUS
 70
0
 71
3
 72
8
 73
4
 74
2
 42
0.0000001
 43
0.0000001
 44
0.0000000001
 12
-0.4706683159
 22
0.0
 32
0.0
 13
-0.3192358063
 23
-0.3356069283
 33
0.0
 40
0.0
 40
0.0
 40
0.0
 40
0.0
 40
1.0
 40
1.0
 40
1.0
 40
1.0
 10
-7.2731688104
 20
-2.463349385
 30
0.0
 10
-7.4300582491
 20
-2.463349385
 30
0.0
 10
-7.5623911701
 20
-2.5192839334
 30
0.0
 10
-7.6688031055
 20
-2.6311529095
 30
0.0
 11
-7.2731688104
 21
-2.463349385
 31
0.0
 11
-7.6688031055
 21
-2.6311529095
 31
0.0
  0
SPLINE
  5
52D
100
AcDbEntity
  8
0
100
AcDbSpline
 62
7
  6
CONTINUOUS
 70
0
 71
3
 72
8
 73
4
 74
2
 42
0.0000001
 43
0.0000001
 44
0.0000000001
 12
-0.3192361547
 22
-0.3356072946
 32
0.0
 13
0.0
 23
-0.5729877949
 33
0.0
 40
0.0
 40
0.0
 40
0.0
 40
0.0
 40
1.0
 40
1.0
 40
1.0
 40
1.0
 10
-7.6688031055
 20
-2.6311529095
 30
0.0
 10
-7.7752151571
 20
-2.7430220077
 30
0.0
 10
-7.8284212433
 20
-2.8958186934
 30
0.0
 10
-7.8284212433
 20
-3.086814625
 30
0.0
 11
-7.6688031055
 21
-2.6311529095
 31
0.0
 11
-7.8284212433
 21
-3.086814625
 31
0.0
  0
SPLINE
  5
52E
100
AcDbEntity
  8
0
100
AcDbSpline
 62
7
  6
CONTINUOUS
 70
0
 71
3
 72
8
 73
4
 74
2
 42
0.0000001
 43
0.0000001
 44
0.0000000001
 12
0.0
 22
-0.5729876161
 32
0.0
 13
0.2936641952
 23
-0.3364903351
 33
0.0
 40
0.0
 40
0.0
 40
0.0
 40
0.0
 40
1.0
 40
1.0
 40
1.0
 40
1.0
 10
-7.8284212433
 20
-3.086814625
 30
0.0
 10
-7.8284212433
 20
-3.277810497
 30
0.0
 10
-7.7779436193
 20
-3.4292429814
 30
0.0
 10
-7.6800555542
 20
-3.5414064264
 30
0.0
 11
-7.8284212433
 21
-3.086814625
 31
0.0
 11
-7.6800555542
 21
-3.5414064264
 31
0.0
  0
SPLINE
  5
52F
100
AcDbEntity
  8
0
100
AcDbSpline
 62
7
  6
CONTINUOUS
 70
0
 71
3
 72
8
 73
4
 74
2
 42
0.0000001
 43
0.0000001
 44
0.0000000001
 12
0.2956943729
 22
-0.3388165811
 32
0.0
 13
0.5648020506
 23
-0.0491132587
 33
0.0
 40
0.0
 40
0.0
 40
0.0
 40
0.0
 40
1.0
 40
1.0
 40
1.0
 40
1.0
 10
-7.6800555542
 20
-3.5414064264
 30
0.0
 10
-7.5814907633
 20
-3.6543452868
 30
0.0
 10
-7.4382437549
 20
-3.719829602
 30
0.0
 10
-7.2499764047
 20
-3.7362006882
 30
0.0
 11
-7.6800555542
 21
-3.5414064264
 31
0.0
 11
-7.2499764047
 21
-3.7362006882
 31
0.0
  0
SPLINE
  5
530
100
AcDbEntity
  8
0
100
AcDbSpline
 62
7
  6
CONTINUOUS
 70
0
 71
3
 72
8
 73
4
 74
2
 42
0.0000001
 43
0.0000001
 44
0.0000000001
 12
-0.3765349388
 22
0.0
 32
0.0
 13
-0.212823987
 23
0.212823987
 33
0.0
 40
0.0
 40
0.0
 40
0.0
 40
0.0
 40
1.0
 40
1.0
 40
1.0
 40
1.0
 10
-7.2240555368
 20
-3.4838132391
 30
0.0
 10
-7.3495671831
 20
-3.4838132391
 30
0.0
 10
-7.4477936111
 20
-3.4469783136
 30
0.0
 10
-7.5187349401
 20
-3.3760369846
 30
0.0
 11
-7.2240555368
 21
-3.4838132391
 31
0.0
 11
-7.5187349401
 21
-3.3760369846
 31
0.0
  0
SPLINE
  5
531
100
AcDbEntity
  8
0
100
AcDbSpline
 62
7
  6
CONTINUOUS
 70
0
 71
3
 72
8
 73
4
 74
2
 42
0.0000001
 43
0.0000001
 44
0.0000000001
 12
-0.212823987
 22
0.212823987
 32
0.0
 13
0.0
 23
0.3560709357
 33
0.0
 40
0.0
 40
0.0
 40
0.0
 40
0.0
 40
1.0
 40
1.0
 40
1.0
 40
1.0
 10
-7.5187349401
 20
-3.3760369846
 30
0.0
 10
-7.5896762691
 20
-3.3050956556
 30
0.0
 10
-7.6251469932
 20
-3.2109619209
 30
0.0
 10
-7.6251469932
 20
-3.092271609
 30
0.0
 11
-7.5187349401
 21
-3.3760369846
 31
0.0
 11
-7.6251469932
 21
-3.092271609
 31
0.0
  0
SPLINE
  5
532
100
AcDbEntity
  8
0
100
AcDbSpline
 62
7
  6
CONTINUOUS
 70
0
 71
3
 72
8
 73
4
 74
2
 42
0.0000001
 43
0.0000001
 44
0.0000000001
 12
0.0
 22
0.3356071115
 32
0.0
 13
0.2005455977
 23
0.2087310684
 33
0.0
 40
0.0
 40
0.0
 40
0.0
 40
0.0
 40
1.0
 40
1.0
 40
1.0
 40
1.0
 10
-7.6251469932
 20
-3.092271609
 30
0.0
 10
-7.6251469932
 20
-2.9804025719
 30
0.0
 10
-7.5910405002
 20
-2.8903616497
 30
0.0
 10
-7.5241919677
 20
-2.8207846269
 30
0.0
 11
-7.6251469932
 21
-3.092271609
 31
0.0
 11
-7.5241919677
 21
-2.8207846269
 31
0.0
  0
SPLINE
  5
533
100
AcDbEntity
  8
0
100
AcDbSpline
 62
7
  6
CONTINUOUS
 70
0
 71
3
 72
8
 73
4
 74
2
 42
0.0000001
 43
0.0000001
 44
0.0000000001
 12
0.2005458587
 22
0.2087313401
 32
0.0
 13
0.2905865908
 23
0.0
 33
0.0
 40
0.0
 40
0.0
 40
0.0
 40
0.0
 40
1.0
 40
1.0
 40
1.0
 40
1.0
 10
-7.5241919677
 20
-2.8207846269
 30
0.0
 10
-7.4573433481
 20
-2.7512075135
 30
0.0
 10
-7.375488051
 20
-2.7157367894
 30
0.0
 10
-7.2786258541
 20
-2.7157367894
 30
0.0
 11
-7.5241919677
 21
-2.8207846269
 31
0.0
 11
-7.2786258541
 21
-2.7157367894
 31
0.0
  0
SPLINE
  5
534
100
AcDbEntity
  8
0
100
AcDbSpline
 62
7
  6
CONTINUOUS
 70
0
 71
3
 72
8
 73
4
 74
2
 42
0.0000001
 43
0.0000001
 44
0.0000000001
 12
0.2783085108
 22
0.0
 32
0.0
 13
0.3110507097
 23
-0.2291952033
 33
0.0
 40
0.0
 40
0.0
 40
0.0
 40
0.0
 40
1.0
 40
1.0
 40
1.0
 40
1.0
 10
-7.2786258541
 20
-2.7157367894
 30
0.0
 10
-7.1858563505
 20
-2.7157367894
 30
0.0
 10
-7.0862656913
 20
-2.7539359758
 30
0.0
 10
-6.9825821214
 20
-2.8303343769
 30
0.0
 11
-7.2786258541
 21
-2.7157367894
 31
0.0
 11
-6.9825821214
 21
-2.8303343769
 31
0.0
  0
SPLINE
  5
535
100
AcDbEntity
  8
0
100
AcDbSpline
 62
7
  6
CONTINUOUS
 70
0
 71
3
 72
8
 73
4
 74
2
 42
0.0000001
 43
0.0000001
 44
0.0000000001
 12
0.311050478
 22
-0.2291950326
 32
0.0
 13
0.531741321
 23
-0.6510104663
 33
0.0
 40
0.0
 40
0.0
 40
0.0
 40
0.0
 40
1.0
 40
1.0
 40
1.0
 40
1.0
 10
-6.9825821214
 20
-2.8303343769
 30
0.0
 10
-6.8788986288
 20
-2.9067327211
 30
0.0
 10
-6.7370159708
 20
-3.0540724227
 30
0.0
 10
-6.5597688638
 20
-3.2710759115
 30
0.0
 11
-6.9825821214
 21
-2.8303343769
 31
0.0
 11
-6.5597688638
 21
-3.2710759115
 31
0.0
  0
SPLINE
  5
536
100
AcDbEntity
  8
0
100
AcDbSpline
 62
7
  6
CONTINUOUS
 70
0
 71
3
 72
8
 73
4
 74
2
 42
0.0000001
 43
0.0000001
 44
0.0000000001
 12
0.3441113234
 22
-0.421295213
 32
0.0
 13
0.261937201
 23
-0.2210095525
 33
0.0
 40
0.0
 40
0.0
 40
0.0
 40
0.0
 40
1.0
 40
1.0
 40
1.0
 40
1.0
 10
-6.5597688638
 20
-3.2710759115
 30
0.0
 10
-6.4450650893
 20
-3.4115076491
 30
0.0
 10
-6.3441100798
 20
-3.5192839036
 30
0.0
 10
-6.2567976795
 20
-3.5929537544
 30
0.0
 11
-6.5597688638
 21
-3.2710759115
 31
0.0
 11
-6.2567976795
 21
-3.5929537544
 31
0.0
  0
SPLINE
  5
537
100
AcDbEntity
  8
0
100
AcDbSpline
 62
7
  6
CONTINUOUS
 70
0
 71
3
 72
8
 73
4
 74
2
 42
0.0000001
 43
0.0000001
 44
0.0000000001
 12
0.261937201
 22
-0.2210095525
 32
0.0
 13
0.2688665082
 23
-0.1014590461
 33
0.0
 40
0.0
 40
0.0
 40
0.0
 40
0.0
 40
1.0
 40
1.0
 40
1.0
 40
1.0
 10
-6.2567976795
 20
-3.5929537544
 30
0.0
 10
-6.1694852791
 20
-3.6666236052
 30
0.0
 10
-6.0808086179
 20
-3.7211938629
 30
0.0
 10
-5.9911864485
 20
-3.7550135449
 30
0.0
 11
-6.2567976795
 21
-3.5929537544
 31
0.0
 11
-5.9911864485
 21
-3.7550135449
 31
0.0
  0
SPLINE
  5
538
100
AcDbEntity
  8
0
100
AcDbSpline
 62
7
  6
CONTINUOUS
 70
0
 71
3
 72
8
 73
4
 74
2
 42
0.0000001
 43
0.0000001
 44
0.0000000001
 12
0.1649670983
 22
-0.0622517269
 32
0.0
 13
0.1759890877
 23
0.0081855431
 33
0.0
 40
0.0
 40
0.0
 40
0.0
 40
0.0
 40
1.0
 40
1.0
 40
1.0
 40
1.0
 10
-5.9911864485
 20
-3.7550135449
 30
0.0
 10
-5.9361974157
 20
-3.7757641205
 30
0.0
 10
-5.8788986474
 20
-3.7853139171
 30
0.0
 10
-5.8202356182
 20
-3.7825854028
 30
0.0
 11
-5.9911864485
 21
-3.7550135449
 31
0.0
 11
-5.8202356182
 21
-3.7825854028
 31
0.0
  0
SPLINE
  5
539
100
AcDbEntity
  8
0
100
AcDbSpline
 62
7
  6
CONTINUOUS
 70
0
 71
3
 72
8
 73
4
 74
2
 42
0.0000001
 43
0.0000001
 44
0.0000000001
 12
-0.3847206826
 22
0.4051848835
 32
0.0
 13
-0.0
 23
0.564801693
 33
0.0
 40
0.0
 40
0.0
 40
0.0
 40
0.0
 40
1.0
 40
1.0
 40
1.0
 40
1.0
 10
-11.9341509425
 20
0.7460638989
 30
0.0
 10
-12.0623911701
 20
0.8811255267
 30
0.0
 10
-12.1278754554
 20
1.0421076587
 30
0.0
 10
-12.1278754554
 20
1.2303748896
 30
0.0
 11
-11.9341509425
 21
0.7460638989
 31
0.0
 11
-12.1278754554
 21
1.2303748896
 31
0.0
  0
SPLINE
  5
53A
100
AcDbEntity
  8
0
100
AcDbSpline
 62
7
  6
CONTINUOUS
 70
0
 71
3
 72
8
 73
4
 74
2
 42
0.0000001
 43
0.0000001
 44
0.0000000001
 12
-0.0
 22
0.3929057121
 32
0.0
 13
0.2005457788
 23
0.3192358822
 33
0.0
 40
0.0
 40
0.0
 40
0.0
 40
0.0
 40
1.0
 40
1.0
 40
1.0
 40
1.0
 10
-12.1278754554
 20
1.2303748896
 30
0.0
 10
-12.1278754554
 20
1.3613434604
 30
0.0
 10
-12.0937690817
 20
1.4800339511
 30
0.0
 10
-12.0269204887
 20
1.5864459118
 30
0.0
 11
-12.1278754554
 21
1.2303748896
 31
0.0
 11
-12.0269204887
 21
1.5864459118
 31
0.0
  0
SPLINE
  5
53B
100
AcDbEntity
  8
0
100
AcDbSpline
 62
7
  6
CONTINUOUS
 70
0
 71
3
 72
8
 73
4
 74
2
 42
0.0000001
 43
0.0000001
 44
0.0000000001
 12
0.2005456776
 22
0.3192357212
 32
0.0
 13
0.3642567686
 23
0.1637114296
 33
0.0
 40
0.0
 40
0.0
 40
0.0
 40
0.0
 40
1.0
 40
1.0
 40
1.0
 40
1.0
 10
-12.0269204887
 20
1.5864459118
 30
0.0
 10
-11.9600719295
 20
1.6928578189
 30
0.0
 10
-11.8659381948
 20
1.7733488849
 30
0.0
 10
-11.7445192719
 20
1.8279193614
 30
0.0
 11
-12.0269204887
 21
1.5864459118
 31
0.0
 11
-11.7445192719
 21
1.8279193614
 31
0.0
  0
SPLINE
  5
53C
100
AcDbEntity
  8
0
100
AcDbSpline
 62
7
  6
CONTINUOUS
 70
0
 71
3
 72
8
 73
4
 74
2
 42
0.0000001
 43
0.0000001
 44
0.0000000001
 12
0.3642562338
 22
0.1637111892
 32
0.0
 13
0.4870394468
 23
0.0
 33
0.0
 40
0.0
 40
0.0
 40
0.0
 40
0.0
 40
1.0
 40
1.0
 40
1.0
 40
1.0
 10
-11.7445192719
 20
1.8279193614
 30
0.0
 10
-11.6231005273
 20
1.8824897578
 30
0.0
 10
-11.4812178693
 20
1.911139088
 30
0.0
 10
-11.3188713871
 20
1.911139088
 30
0.0
 11
-11.7445192719
 21
1.8279193614
 31
0.0
 11
-11.3188713871
 21
1.911139088
 31
0.0
  0
SPLINE
  5
53D
100
AcDbEntity
  8
0
100
AcDbSpline
 62
7
  6
CONTINUOUS
 70
0
 71
3
 72
8
 73
4
 74
2
 42
0.0000001
 43
0.0000001
 44
0.0000000001
 12
0.7735335231
 22
0.0
 32
0.0
 13
0.4183961029
 23
-0.383699819
 33
0.0
 40
0.0
 40
0.0
 40
0.0
 40
0.0
 40
1.0
 40
1.0
 40
1.0
 40
1.0
 10
-11.3188713871
 20
1.911139088
 30
0.0
 10
-11.0610268794
 20
1.911139088
 30
0.0
 10
-10.8618454419
 20
1.8456545642
 30
0.0
 10
-10.7223800742
 20
1.7177546245
 30
0.0
 11
-11.3188713871
 21
1.911139088
 31
0.0
 11
-10.7223800742
 21
1.7177546245
 31
0.0
  0
SPLINE
  5
53E
100
AcDbEntity
  8
0
100
AcDbSpline
 62
7
  6
CONTINUOUS
 70
0
 71
3
 72
8
 73
4
 74
2
 42
0.0000001
 43
0.0000001
 44
0.0000000001
 12
0.4206216757
 22
-0.3857408319
 32
0.0
 13
0.0
 23
-0.5975446701
 33
0.0
 40
0.0
 40
0.0
 40
0.0
 40
0.0
 40
1.0
 40
1.0
 40
1.0
 40
1.0
 10
-10.7223800742
 20
1.7177546245
 30
0.0
 10
-10.582172849
 20
1.5891743472
 30
0.0
 10
-10.5125957809
 20
1.425463753
 30
0.0
 10
-10.5125957809
 20
1.2262821963
 30
0.0
 11
-10.7223800742
 21
1.7177546245
 31
0.0
 11
-10.5125957809
 21
1.2262821963
 31
0.0
  0
SPLINE
  5
53F
100
AcDbEntity
  8
0
100
AcDbSpline
 62
7
  6
CONTINUOUS
 70
0
 71
3
 72
8
 73
4
 74
2
 42
0.0000001
 43
0.0000001
 44
0.0000000001
 12
0.0
 22
-0.5893592834
 32
0.0
 13
-0.4174624293
 23
-0.3888129965
 33
0.0
 40
0.0
 40
0.0
 40
0.0
 40
0.0
 40
1.0
 40
1.0
 40
1.0
 40
1.0
 10
-10.5125957809
 20
1.2262821963
 30
0.0
 10
-10.5125957809
 20
1.0298291018
 30
0.0
 10
-10.5808086179
 20
0.8674827388
 30
0.0
 10
-10.719962761
 20
0.7378784066
 30
0.0
 11
-10.5125957809
 21
1.2262821963
 31
0.0
 11
-10.719962761
 21
0.7378784066
 31
0.0
  0
SPLINE
  5
540
100
AcDbEntity
  8
0
100
AcDbSpline
 62
7
  6
CONTINUOUS
 70
0
 71
3
 72
8
 73
4
 74
2
 42
0.0000001
 43
0.0000001
 44
0.0000000001
 12
-0.4174624772
 22
-0.3888130411
 32
0.0
 13
-0.7244203091
 23
0.0
 33
0.0
 40
0.0
 40
0.0
 40
0.0
 40
0.0
 40
1.0
 40
1.0
 40
1.0
 40
1.0
 10
-10.719962761
 20
0.7378784066
 30
0.0
 10
-10.8591169201
 20
0.6082740596
 30
0.0
 10
-11.048748561
 20
0.5441542437
 30
0.0
 10
-11.2902219973
 20
0.5441542437
 30
0.0
 11
-10.719962761
 21
0.7378784066
 31
0.0
 11
-11.2902219973
 21
0.5441542437
 31
0.0
  0
SPLINE
  5
541
100
AcDbEntity
  8
0
100
AcDbSpline
 62
7
  6
CONTINUOUS
 70
0
 71
3
 72
8
 73
4
 74
2
 42
0.0000001
 43
0.0000001
 44
0.0000000001
 12
-0.900409162
 22
0.0
 32
0.0
 13
-0.3847199683
 23
0.4051841312
 33
0.0
 40
0.0
 40
0.0
 40
0.0
 40
0.0
 40
1.0
 40
1.0
 40
1.0
 40
1.0
 10
-11.2902219973
 20
0.5441542437
 30
0.0
 10
-11.5903583847
 20
0.5441542437
 30
0.0
 10
-11.8059109531
 20
0.6110025218
 30
0.0
 10
-11.9341509425
 20
0.7460638989
 30
0.0
 11
-11.2902219973
 21
0.5441542437
 31
0.0
 11
-11.9341509425
 21
0.7460638989
 31
0.0
  0
SPLINE
  5
542
100
AcDbEntity
  8
0
100
AcDbSpline
 62
7
  6
CONTINUOUS
 70
0
 71
3
 72
8
 73
4
 74
2
 42
0.0000001
 43
0.0000001
 44
0.0000000001
 12
0.4743723776
 22
0.229998772
 32
0.0
 13
0.2725184225
 23
0.4446349326
 33
0.0
 40
0.0
 40
0.0
 40
0.0
 40
0.0
 40
1.0
 40
1.0
 40
1.0
 40
1.0
 10
-10.7948672623
 20
0.3856322125
 30
0.0
 10
-10.6367431365
 20
0.4622984698
 30
0.0
 10
-10.5125957809
 20
0.574167805
 30
0.0
 10
-10.4217563068
 20
0.7223794492
 30
0.0
 11
-10.7948672623
 21
0.3856322125
 31
0.0
 11
-10.4217563068
 21
0.7223794492
 31
0.0
  0
SPLINE
  5
543
100
AcDbEntity
  8
0
100
AcDbSpline
 62
7
  6
CONTINUOUS
 70
0
 71
3
 72
8
 73
4
 74
2
 42
0.0000001
 43
0.0000001
 44
0.0000000001
 12
0.27181991
 22
0.4434952554
 32
0.0
 13
-0.0
 23
0.564801693
 33
0.0
 40
0.0
 40
0.0
 40
0.0
 40
0.0
 40
1.0
 40
1.0
 40
1.0
 40
1.0
 10
-10.4217563068
 20
0.7223794492
 30
0.0
 10
-10.3311496701
 20
0.870211201
 30
0.0
 10
-10.2861292071
 20
1.0393791964
 30
0.0
 10
-10.2861292071
 20
1.2276464274
 30
0.0
 11
-10.4217563068
 21
0.7223794492
 31
0.0
 11
-10.2861292071
 21
1.2276464274
 31
0.0
  0
SPLINE
  5
544
100
AcDbEntity
  8
0
100
AcDbSpline
 62
7
  6
CONTINUOUS
 70
0
 71
3
 72
8
 73
4
 74
2
 42
0.0000001
 43
0.0000001
 44
0.0000000001
 12
-0.0
 22
0.5197820663
 32
0.0
 13
-0.2455661681
 23
0.4502048445
 33
0.0
 40
0.0
 40
0.0
 40
0.0
 40
0.0
 40
1.0
 40
1.0
 40
1.0
 40
1.0
 10
-10.2861292071
 20
1.2276464274
 30
0.0
 10
-10.2861292071
 20
1.4009071162
 30
0.0
 10
-10.3270569004
 20
1.5632534793
 30
0.0
 10
-10.4089122898
 20
1.7133217608
 30
0.0
 11
-10.2861292071
 21
1.2276464274
 31
0.0
 11
-10.4089122898
 21
1.7133217608
 31
0.0
  0
SPLINE
  5
545
100
AcDbEntity
  8
0
100
AcDbSpline
 62
7
  6
CONTINUOUS
 70
0
 71
3
 72
8
 73
4
 74
2
 42
0.0000001
 43
0.0000001
 44
0.0000000001
 12
-0.2455661732
 22
0.4502048539
 32
0.0
 13
-0.4825228784
 23
0.2463943865
 33
0.0
 40
0.0
 40
0.0
 40
0.0
 40
0.0
 40
1.0
 40
1.0
 40
1.0
 40
1.0
 10
-10.4089122898
 20
1.7133217608
 30
0.0
 10
-10.4907676808
 20
1.8633900454
 30
0.0
 10
-10.6121864997
 20
1.9793520739
 30
0.0
 10
-10.7730274591
 20
2.0614835361
 30
0.0
 11
-10.4089122898
 21
1.7133217608
 31
0.0
 11
-10.7730274591
 21
2.0614835361
 31
0.0
  0
SPLINE
  5
546
100
AcDbEntity
  8
0
100
AcDbSpline
 62
7
  6
CONTINUOUS
 70
0
 71
3
 72
8
 73
4
 74
2
 42
0.0000001
 43
0.0000001
 44
0.0000000001
 12
-0.4792779353
 22
0.2447373961
 32
0.0
 13
-0.6098225713
 23
0.0
 33
0.0
 40
0.0
 40
0.0
 40
0.0
 40
0.0
 40
1.0
 40
1.0
 40
1.0
 40
1.0
 10
-10.7730274591
 20
2.0614835361
 30
0.0
 10
-10.9327867709
 20
2.1430626681
 30
0.0
 10
-11.1142329059
 20
2.1839900782
 30
0.0
 10
-11.3175070964
 20
2.1839900782
 30
0.0
 11
-10.7730274591
 21
2.0614835361
 31
0.0
 11
-11.3175070964
 21
2.1839900782
 31
0.0
  0
SPLINE
  5
547
100
AcDbEntity
  8
0
100
AcDbSpline
 62
7
  6
CONTINUOUS
 70
0
 71
3
 72
8
 73
4
 74
2
 42
0.0000001
 43
0.0000001
 44
0.0000000001
 12
-0.5975444913
 22
0.0
 32
0.0
 13
-0.474761044
 23
-0.2332877405
 33
0.0
 40
0.0
 40
0.0
 40
0.0
 40
0.0
 40
1.0
 40
1.0
 40
1.0
 40
1.0
 10
-11.3175070964
 20
2.1839900782
 30
0.0
 10
-11.5166885935
 20
2.1839900782
 30
0.0
 10
-11.6954062067
 20
2.1444268992
 30
0.0
 10
-11.853659888
 20
2.0666643191
 30
0.0
 11
-11.3175070964
 21
2.1839900782
 31
0.0
 11
-11.853659888
 21
2.0666643191
 31
0.0
  0
SPLINE
  5
548
100
AcDbEntity
  8
0
100
AcDbSpline
 62
7
  6
CONTINUOUS
 70
0
 71
3
 72
8
 73
4
 74
2
 42
0.0000001
 43
0.0000001
 44
0.0000000001
 12
-0.4747613321
 22
-0.2332878821
 32
0.0
 13
-0.2636150182
 23
-0.4434448646
 33
0.0
 40
0.0
 40
0.0
 40
0.0
 40
0.0
 40
1.0
 40
1.0
 40
1.0
 40
1.0
 10
-11.853659888
 20
2.0666643191
 30
0.0
 10
-12.0119136654
 20
1.9889016917
 30
0.0
 10
-12.1346967302
 20
1.8756681254
 30
0.0
 10
-12.2225684029
 20
1.7278531706
 30
0.0
 11
-11.853659888
 21
2.0666643191
 31
0.0
 11
-12.2225684029
 21
1.7278531706
 31
0.0
  0
SPLINE
  5
549
100
AcDbEntity
  8
0
100
AcDbSpline
 62
7
  6
CONTINUOUS
 70
0
 71
3
 72
8
 73
4
 74
2
 42
0.0000001
 43
0.0000001
 44
0.0000000001
 12
-0.2643524348
 22
-0.4446853234
 32
0.0
 13
-0.0
 23
-0.552523613
 33
0.0
 40
0.0
 40
0.0
 40
0.0
 40
0.0
 40
1.0
 40
1.0
 40
1.0
 40
1.0
 10
-12.2225684029
 20
1.7278531706
 30
0.0
 10
-12.3106858812
 20
1.5796247294
 30
0.0
 10
-12.3557063423
 20
1.4131851962
 30
0.0
 10
-12.3557063423
 20
1.2290106585
 30
0.0
 11
-12.2225684029
 21
1.7278531706
 31
0.0
 11
-12.3557063423
 21
1.2290106585
 31
0.0
  0
SPLINE
  5
54A
100
AcDbEntity
  8
0
100
AcDbSpline
 62
7
  6
CONTINUOUS
 70
0
 71
3
 72
8
 73
4
 74
2
 42
0.0000001
 43
0.0000001
 44
0.0000000001
 12
-0.0
 22
-0.8472032547
 32
0.0
 13
0.5637797145
 23
-0.5331395494
 33
0.0
 40
0.0
 40
0.0
 40
0.0
 40
0.0
 40
1.0
 40
1.0
 40
1.0
 40
1.0
 10
-12.3557063423
 20
1.2290106585
 30
0.0
 10
-12.3557063423
 20
0.9466095736
 30
0.0
 10
-12.2615726076
 20
0.7160502246
 30
0.0
 10
-12.0736460361
 20
0.5383370414
 30
0.0
 11
-12.3557063423
 21
1.2290106585
 31
0.0
 11
-12.0736460361
 21
0.5383370414
 31
0.0
  0
SPLINE
  5
54B
100
AcDbEntity
  8
0
100
AcDbSpline
 62
7
  6
CONTINUOUS
 70
0
 71
3
 72
8
 73
4
 74
2
 42
0.0000001
 43
0.0000001
 44
0.0000000001
 12
0.5658247444
 22
-0.5350734366
 32
0.0
 13
0.9945430756
 23
0.0
 33
0.0
 40
0.0
 40
0.0
 40
0.0
 40
0.0
 40
1.0
 40
1.0
 40
1.0
 40
1.0
 10
-12.0736460361
 20
0.5383370414
 30
0.0
 10
-11.885037788
 20
0.3599792292
 30
0.0
 10
-11.6258291088
 20
0.2713027766
 30
0.0
 10
-11.2943147503
 20
0.2713027766
 30
0.0
 11
-12.0736460361
 21
0.5383370414
 31
0.0
 11
-11.2943147503
 21
0.2713027766
 31
0.0
  0
SPLINE
  5
54C
100
AcDbEntity
  8
0
100
AcDbSpline
 62
7
  6
CONTINUOUS
 70
0
 71
3
 72
8
 73
4
 74
2
 42
0.0000001
 43
0.0000001
 44
0.0000000001
 12
0.5279672742
 22
0.0
 32
0.0
 13
0.4710573051
 23
0.2283914639
 33
0.0
 40
0.0
 40
0.0
 40
0.0
 40
0.0
 40
1.0
 40
1.0
 40
1.0
 40
1.0
 10
-11.2943147503
 20
0.2713027766
 30
0.0
 10
-11.1183256589
 20
0.2713027766
 30
0.0
 10
-10.951886364
 20
0.3095017245
 30
0.0
 10
-10.7948672623
 20
0.3856322125
 30
0.0
 11
-11.2943147503
 21
0.2713027766
 31
0.0
 11
-10.7948672623
 21
0.3856322125
 31
0.0
  0
SPLINE
  5
54D
100
AcDbEntity
  8
0
100
AcDbSpline
 62
7
  6
CONTINUOUS
 70
0
 71
3
 72
9
 73
5
 74
3
 42
0.0000001
 43
0.0000001
 44
0.0000000001
 12
0.622708418
 22
0.0096085811
 32
0.0
 13
0.0139068333
 23
-0.622627255
 33
0.0
 40
0.0
 40
0.0
 40
0.0
 40
0.0
 40
0.5206208722
 40
1.0
 40
1.0
 40
1.0
 40
1.0
 10
-16.5980606294
 20
4.2159876675
 30
0.0
 10
-16.4899956295
 20
4.2176551434
 30
0.0
 10
-16.2539287003
 20
4.1413124664
 30
0.0
 10
-16.211825006
 20
3.9101506064
 30
0.0
 10
-16.2096027908
 20
3.8106591029
 30
0.0
 11
-16.5980606294
 21
4.2159876675
 31
0.0
 11
-16.2967658653
 21
4.0962008266
 31
0.0
 11
-16.2096027908
 21
3.8106591029
 31
0.0
  0
SPLINE
  5
54E
100
AcDbEntity
  8
0
100
AcDbSpline
 62
7
  6
CONTINUOUS
 70
0
 71
3
 72
9
 73
5
 74
3
 42
0.0000001
 43
0.0000001
 44
0.0000000001
 12
-0.068942522
 22
0.404036381
 32
0.0
 13
0.047249925
 23
0.4071439908
 33
0.0
 40
0.0
 40
0.0
 40
0.0
 40
0.0
 40
0.270412968
 40
1.0
 40
1.0
 40
1.0
 40
1.0
 10
-16.8958289432
 20
3.5124596484
 30
0.0
 10
-16.9020432605
 20
3.5488785407
 30
0.0
 10
-16.9224803248
 20
3.6839787053
 30
0.0
 10
-16.9220380182
 20
3.8221951824
 30
0.0
 10
-16.9105470407
 20
3.921210841
 30
0.0
 11
-16.8958289432
 21
3.5124596484
 31
0.0
 11
-16.9115693891
 21
3.6221720883
 31
0.0
 11
-16.9105470407
 21
3.921210841
 31
0.0
  0
SPLINE
  5
54F
100
AcDbEntity
  8
0
100
AcDbSpline
 62
7
  6
CONTINUOUS
 70
0
 71
3
 72
9
 73
5
 74
3
 42
0.0000001
 43
0.0000001
 44
0.0000000001
 12
0.0530973084
 22
0.457636866
 32
0.0
 13
0.4606559775
 23
0.0072048848
 33
0.0
 40
0.0
 40
0.0
 40
0.0
 40
0.0
 40
0.5013799113
 40
1.0
 40
1.0
 40
1.0
 40
1.0
 10
-16.9105470407
 20
3.921210841
 30
0.0
 10
-16.9016730661
 20
3.9976941514
 30
0.0
 10
-16.8343274059
 20
4.152387519
 30
0.0
 10
-16.6746247375
 20
4.2147901674
 30
0.0
 10
-16.5980606294
 20
4.2159876675
 30
0.0
 11
-16.9105470407
 21
3.921210841
 31
0.0
 11
-16.8109246714
 21
4.1296142367
 31
0.0
 11
-16.5980606294
 21
4.2159876675
 31
0.0
  0
SPLINE
  5
550
100
AcDbEntity
  8
0
100
AcDbSpline
 62
7
  6
CONTINUOUS
 70
0
 71
3
 72
8
 73
4
 74
2
 42
0.0000001
 43
0.0000001
 44
0.0000000001
 12
-0.0091151709
 22
0.0706425743
 32
0.0
 13
-0.0456535418
 23
0.0582499971
 33
0.0
 40
0.0
 40
0.0
 40
0.0
 40
0.0
 40
1.0
 40
1.0
 40
1.0
 40
1.0
 10
-16.0035737359
 20
4.3515720687
 30
0.0
 10
-16.0066121262
 20
4.3751195935
 30
0.0
 10
-16.0199552306
 20
4.3956455958
 30
0.0
 10
-16.0351730779
 20
4.4150622615
 30
0.0
 11
-16.0035737359
 21
4.3515720687
 31
0.0
 11
-16.0351730779
 21
4.4150622615
 31
0.0
  0
SPLINE
  5
551
100
AcDbEntity
  8
0
100
AcDbSpline
 62
7
  6
CONTINUOUS
 70
0
 71
3
 72
19
 73
15
 74
13
 42
0.0000001
 43
0.0000001
 44
0.0000000001
 12
-0.9532265625
 22
1.2162351993
 32
0.0
 13
-0.5046817915
 23
-1.3989656274
 33
0.0
 40
0.0
 40
0.0
 40
0.0
 40
0.0
 40
0.010724794
 40
0.1288201904
 40
0.2040384973
 40
0.288850006
 40
0.3844238549
 40
0.4371592643
 40
0.4938126757
 40
0.5825914842
 40
0.66239528
 40
0.8013964309
 40
0.9162689263
 40
1.0
 40
1.0
 40
1.0
 40
1.0
 10
-16.0351730779
 20
4.4150622615
 30
0.0
 10
-16.0385807974
 20
4.4194102188
 30
0.0
 10
-16.0806415728
 20
4.4709672769
 30
0.0
 10
-16.147113041
 20
4.5448235011
 30
0.0
 10
-16.2636605166
 20
4.6213739906
 30
0.0
 10
-16.3799680512
 20
4.6726973192
 30
0.0
 10
-16.4935746669
 20
4.6983195351
 30
0.0
 10
-16.5949914957
 20
4.7062408109
 30
0.0
 10
-16.6933475516
 20
4.7044976382
 30
0.0
 10
-16.8044389367
 20
4.6884472671
 30
0.0
 10
-16.9498941568
 20
4.640645002
 30
0.0
 10
-17.0924865455
 20
4.5508219376
 30
0.0
 10
-17.2039843886
 20
4.4240108762
 30
0.0
 10
-17.2520742745
 20
4.3368188294
 30
0.0
 10
-17.2661601239
 20
4.297773198
 30
0.0
 11
-16.0351730779
 21
4.4150622615
 31
0.0
 11
-16.045583601
 21
4.4279607243
 31
0.0
 11
-16.1678102535
 21
4.554086389
 31
0.0
 11
-16.2609127168
 21
4.6161016108
 31
0.0
 11
-16.3763587872
 21
4.666912298
 31
0.0
 11
-16.5149116015
 21
4.6986388552
 31
0.0
 11
-16.5930915178
 21
4.7048832114
 31
0.0
 11
-16.6773342963
 21
4.7034016867
 31
0.0
 11
-16.8079153264
 21
4.683873382
 31
0.0
 11
-16.9205738462
 21
4.6465332811
 31
0.0
 11
-17.0954096316
 21
4.536226851
 31
0.0
 11
-17.2084142063
 21
4.4081007166
 31
0.0
 11
-17.2661601239
 21
4.297773198
 31
0.0
  0
SPLINE
  5
552
100
AcDbEntity
  8
0
100
AcDbSpline
 62
7
  6
CONTINUOUS
 70
0
 71
3
 72
9
 73
5
 74
3
 42
0.0000001
 43
0.0000001
 44
0.0000000001
 12
-0.4405229088
 22
-1.2193490006
 32
0.0
 13
0.1887038006
 23
-1.2826781724
 33
0.0
 40
0.0
 40
0.0
 40
0.0
 40
0.0
 40
0.2957417834
 40
1.0
 40
1.0
 40
1.0
 40
1.0
 10
-17.2661601239
 20
4.297773198
 30
0.0
 10
-17.3095871342
 20
4.1775690487
 30
0.0
 10
-17.3803757492
 20
3.7455078992
 30
0.0
 10
-17.3367771905
 20
3.3111803876
 30
0.0
 10
-17.2924784565
 20
3.0100681736
 30
0.0
 11
-17.2661601239
 21
4.297773198
 31
0.0
 11
-17.3414527682
 21
3.9218137556
 31
0.0
 11
-17.2924784565
 21
3.0100681736
 31
0.0
  0
SPLINE
  5
553
100
AcDbEntity
  8
0
100
AcDbSpline
 62
7
  6
CONTINUOUS
 70
0
 71
3
 72
9
 73
5
 74
3
 42
0.0000001
 43
0.0000001
 44
0.0000000001
 12
0.0
 22
0.3832706508
 32
0.0
 13
0.3588335216
 23
0.1346658663
 33
0.0
 40
0.0
 40
0.0
 40
0.0
 40
0.0
 40
0.3559141631
 40
1.0
 40
1.0
 40
1.0
 40
1.0
 10
-15.8002065067
 20
3.8095343878
 30
0.0
 10
-15.8002065067
 20
3.8550048721
 30
0.0
 10
-15.7726726859
 20
3.9858112618
 30
0.0
 10
-15.6569896693
 20
4.0717360117
 30
0.0
 10
-15.5799498063
 20
4.1006481375
 30
0.0
 11
-15.8002065067
 21
3.8095343878
 31
0.0
 11
-15.7694408633
 21
3.9424311887
 31
0.0
 11
-15.5799498063
 21
4.1006481375
 31
0.0
  0
SPLINE
  5
554
100
AcDbEntity
  8
0
100
AcDbSpline
 62
7
  6
CONTINUOUS
 70
0
 71
3
 72
9
 73
5
 74
3
 42
0.0000001
 43
0.0000001
 44
0.0000000001
 12
0.7410519452
 22
0.2784029507
 32
0.0
 13
0.7608032774
 23
0.2187339972
 33
0.0
 40
0.0
 40
0.0
 40
0.0
 40
0.0
 40
0.5586214172
 40
1.0
 40
1.0
 40
1.0
 40
1.0
 10
-15.5799498063
 20
4.1006481375
 30
0.0
 10
-15.4419606437
 20
4.1524887544
 30
0.0
 10
-15.1864436652
 20
4.2206637745
 30
0.0
 10
-14.9338821782
 20
4.2966338333
 30
0.0
 10
-14.8219480874
 20
4.3288153339
 30
0.0
 11
-15.5799498063
 21
4.1006481375
 31
0.0
 11
-15.1574084148
 21
4.2310893104
 31
0.0
 11
-14.8219480874
 21
4.3288153339
 31
0.0
  0
SPLINE
  5
555
100
AcDbEntity
  8
0
100
AcDbSpline
 62
7
  6
CONTINUOUS
 70
0
 71
3
 72
9
 73
5
 74
3
 42
0.0000001
 43
0.0000001
 44
0.0000000001
 12
-0.675231447
 22
-0.1833909485
 32
0.0
 13
-0.675086514
 23
-0.1839237496
 33
0.0
 40
0.0
 40
0.0
 40
0.0
 40
0.0
 40
0.1980141723
 40
1.0
 40
1.0
 40
1.0
 40
1.0
 10
-14.8219480874
 20
4.8307194321
 30
0.0
 10
-14.8665165528
 20
4.8186147632
 30
0.0
 10
-15.0920996159
 20
4.7593678325
 30
0.0
 10
-15.3180504966
 20
4.7015077028
 30
0.0
 10
-15.4985204355
 20
4.6523396227
 30
0.0
 11
-14.8219480874
 21
4.8307194321
 31
0.0
 11
-14.9558682618
 21
4.7952056752
 31
0.0
 11
-15.4985204355
 21
4.6523396227
 31
0.0
  0
SPLINE
  5
556
100
AcDbEntity
  8
0
100
AcDbSpline
 62
7
  6
CONTINUOUS
 70
0
 71
3
 72
9
 73
5
 74
3
 42
0.0000001
 43
0.0000001
 44
0.0000000001
 12
-0.5615839933
 22
-0.1529923931
 32
0.0
 13
-0.2155855523
 23
-0.5406534227
 33
0.0
 40
0.0
 40
0.0
 40
0.0
 40
0.0
 40
0.2426586216
 40
1.0
 40
1.0
 40
1.0
 40
1.0
 10
-15.4985204355
 20
4.6523396227
 30
0.0
 10
-15.5439448347
 20
4.6399646482
 30
0.0
 10
-15.7273796286
 20
4.5926941559
 30
0.0
 10
-15.9343785249
 20
4.4880584715
 30
0.0
 10
-15.9888024781
 20
4.3515720687
 30
0.0
 11
-15.4985204355
 21
4.6523396227
 31
0.0
 11
-15.6343564331
 21
4.6136456167
 31
0.0
 11
-15.9888024781
 21
4.3515720687
 31
0.0
  0
SPLINE
  5
557
100
AcDbEntity
  8
RACCORDO
100
AcDbSpline
 62
7
  6
CONTINUOUS
 70
0
 71
3
 72
11
 73
7
 74
5
 42
0.0000001
 43
0.0000001
 44
0.0000000001
 12
0.1074164622
 22
0.3225878649
 32
0.0
 13
0.3360512935
 23
0.0417232276
 33
0.0
 40
0.0
 40
0.0
 40
0.0
 40
0.0
 40
0.232281062
 40
0.4890391346
 40
0.7451735499
 40
1.0
 40
1.0
 40
1.0
 40
1.0
 10
-15.4689208556
 20
-17.0320337481
 30
0.0
 10
-15.460603919
 20
-17.0070567308
 30
0.0
 10
-15.4362796196
 20
-16.9568063168
 30
0.0
 10
-15.3797821145
 20
-16.8928951912
 30
0.0
 10
-15.3053138555
 20
-16.8463459369
 30
0.0
 10
-15.2487805376
 20
-16.8307934397
 30
0.0
 10
-15.2202356182
 20
-16.8272493791
 30
0.0
 11
-15.4689208556
 21
-17.0320337481
 31
0.0
 11
-15.4346198537
 21
-16.9611955012
 31
0.0
 11
-15.3770122679
 21
-16.8960722489
 31
0.0
 11
-15.3034354427
 21
-16.8501435769
 31
0.0
 11
-15.2202356182
 21
-16.8272493791
 31
0.0
  0
SPLINE
  5
558
100
AcDbEntity
  8
RACCORDO
100
AcDbSpline
 62
7
  6
CONTINUOUS
 70
0
 71
3
 72
11
 73
7
 74
5
 42
0.0000001
 43
0.0000001
 44
0.0000000001
 12
-0.1074164622
 22
-0.3225878649
 32
0.0
 13
-0.3360512935
 23
-0.0417232276
 33
0.0
 40
0.0
 40
0.0
 40
0.0
 40
0.0
 40
0.232281062
 40
0.4890391346
 40
0.7451735499
 40
1.0
 40
1.0
 40
1.0
 40
1.0
 10
-7.1715503807
 20
17.0976951408
 30
0.0
 10
-7.1798673174
 20
17.0727181235
 30
0.0
 10
-7.2041916168
 20
17.0224677095
 30
0.0
 10
-7.2606891218
 20
16.958556584
 30
0.0
 10
-7.3351573809
 20
16.9120073297
 30
0.0
 10
-7.3916906988
 20
16.8964548325
 30
0.0
 10
-7.4202356182
 20
16.8929107718
 30
0.0
 11
-7.1715503807
 21
17.0976951408
 31
0.0
 11
-7.2058513827
 21
17.0268568939
 31
0.0
 11
-7.2634589684
 21
16.9617336416
 31
0.0
 11
-7.3370357936
 21
16.9158049697
 31
0.0
 11
-7.4202356182
 21
16.8929107718
 31
0.0
  0
SPLINE
  5
559
100
AcDbEntity
  8
RACCORDO
100
AcDbSpline
 62
7
  6
CONTINUOUS
 70
0
 71
3
 72
11
 73
7
 74
5
 42
0.0000001
 43
0.0000001
 44
0.0000000001
 12
0.1074164622
 22
0.3225878649
 32
0.0
 13
0.3360512935
 23
0.0417232276
 33
0.0
 40
0.0
 40
0.0
 40
0.0
 40
0.0
 40
0.232281062
 40
0.4890391346
 40
0.7451735499
 40
1.0
 40
1.0
 40
1.0
 40
1.0
 10
-7.6689208556
 20
-17.0320337481
 30
0.0
 10
-7.660603919
 20
-17.0070567308
 30
0.0
 10
-7.6362796196
 20
-16.9568063168
 30
0.0
 10
-7.5797821145
 20
-16.8928951912
 30
0.0
 10
-7.5053138555
 20
-16.8463459369
 30
0.0
 10
-7.4487805376
 20
-16.8307934397
 30
0.0
 10
-7.4202356182
 20
-16.8272493791
 30
0.0
 11
-7.6689208556
 21
-17.0320337481
 31
0.0
 11
-7.6346198537
 21
-16.9611955012
 31
0.0
 11
-7.5770122679
 21
-16.8960722489
 31
0.0
 11
-7.5034354427
 21
-16.8501435769
 31
0.0
 11
-7.4202356182
 21
-16.8272493791
 31
0.0
  0
SPLINE
  5
55A
100
AcDbEntity
  8
RACCORDO
100
AcDbSpline
 62
7
  6
CONTINUOUS
 70
0
 71
3
 72
11
 73
7
 74
5
 42
0.0000001
 43
0.0000001
 44
0.0000000001
 12
-0.3360512935
 22
0.0417232276
 32
0.0
 13
-0.1074164622
 23
0.3225878649
 33
0.0
 40
0.0
 40
0.0
 40
0.0
 40
0.0
 40
0.2548264501
 40
0.5109608654
 40
0.767718938
 40
1.0
 40
1.0
 40
1.0
 40
1.0
 10
-7.4202356182
 20
16.8929107718
 30
0.0
 10
-7.4487805376
 20
16.8964548325
 30
0.0
 10
-7.5053138555
 20
16.9120073297
 30
0.0
 10
-7.5797821145
 20
16.958556584
 30
0.0
 10
-7.6362796196
 20
17.0224677095
 30
0.0
 10
-7.660603919
 20
17.0727181235
 30
0.0
 10
-7.6689208556
 20
17.0976951408
 30
0.0
 11
-7.4202356182
 21
16.8929107718
 31
0.0
 11
-7.5034354427
 21
16.9158049697
 31
0.0
 11
-7.5770122679
 21
16.9617336416
 31
0.0
 11
-7.6346198537
 21
17.0268568939
 31
0.0
 11
-7.6689208556
 21
17.0976951408
 31
0.0
  0
SPLINE
  5
55B
100
AcDbEntity
  8
RACCORDO
100
AcDbSpline
 62
253
  6
CONTINUOUS
 70
0
 71
3
 72
11
 73
7
 74
5
 42
0.0000001
 43
0.0000001
 44
0.0000000001
 12
-0.3744509998
 22
-0.0033199492
 32
0.0
 13
-0.1189757453
 23
0.3584618195
 33
0.0
 40
0.0
 40
0.0
 40
0.0
 40
0.0
 40
0.318906794
 40
0.6313792274
 40
0.9437057137
 40
1.0
 40
1.0
 40
1.0
 40
1.0
 10
-7.4202356182
 20
17.0080098908
 30
0.0
 10
-7.4600406075
 20
17.0076569727
 30
0.0
 10
-7.5398974886
 20
17.0230402073
 30
0.0
 10
-7.6402977457
 20
17.090134231
 30
0.0
 10
-7.6888211513
 20
17.1625473703
 30
0.0
 10
-7.705001793
 20
17.2060676612
 30
0.0
 10
-7.7072343446
 20
17.2127941119
 30
0.0
 11
-7.4202356182
 21
17.0080098908
 31
0.0
 11
-7.5374751316
 21
17.0307244678
 31
0.0
 11
-7.634820919
 21
17.0956489456
 31
0.0
 11
-7.699824593
 21
17.192876132
 31
0.0
 11
-7.7072343446
 21
17.2127941119
 31
0.0
  0
LINE
  5
55C
100
AcDbEntity
  8
RACCORDO
100
AcDbLine
 62
7
  6
CONTINUOUS
 10
-7.4202356182
 20
17.0007893369
 11
-7.4202356182
 21
17.0080098909
  0
LINE
  5
55D
100
AcDbEntity
  8
RACCORDO
100
AcDbLine
 62
7
  6
CONTINUOUS
 10
-7.4202356182
 20
17.0007893369
 11
-7.4202356182
 21
16.8929107718
  0
SPLINE
  5
55E
100
AcDbEntity
  8
RACCORDO
100
AcDbSpline
 62
253
  6
CONTINUOUS
 70
0
 71
3
 72
11
 73
7
 74
5
 42
0.0000001
 43
0.0000001
 44
0.0000000001
 12
0.3744511614
 22
-0.0033199595
 32
0.0
 13
0.1189755411
 23
0.358461857
 33
0.0
 40
0.0
 40
0.0
 40
0.0
 40
0.0
 40
0.3189150909
 40
0.6313911078
 40
0.9437148603
 40
1.0
 40
1.0
 40
1.0
 40
1.0
 10
-7.4202356182
 20
17.0080098909
 30
0.0
 10
-7.3804295761
 20
17.0076569625
 30
0.0
 10
-7.3005711005
 20
17.023040945
 30
0.0
 10
-7.2001706572
 20
17.0901370165
 30
0.0
 10
-7.1516488542
 20
17.1625499589
 30
0.0
 10
-7.1354690094
 20
17.2060689364
 30
0.0
 10
-7.1332368244
 20
17.2127942949
 30
0.0
 11
-7.4202356182
 21
17.0080098909
 31
0.0
 11
-7.3029931256
 21
17.0307256965
 31
0.0
 11
-7.2056470322
 21
17.0956522249
 31
0.0
 11
-7.1406452472
 21
17.1928795035
 31
0.0
 11
-7.1332368244
 21
17.2127942949
 31
0.0
  0
SPLINE
  5
55F
100
AcDbEntity
  8
RACCORDO
100
AcDbSpline
 62
7
  6
CONTINUOUS
 70
0
 71
3
 72
11
 73
7
 74
5
 42
0.0000001
 43
0.0000001
 44
0.0000000001
 12
-0.3360512935
 22
0.0417232276
 32
0.0
 13
-0.1074164622
 23
0.3225878649
 33
0.0
 40
0.0
 40
0.0
 40
0.0
 40
0.0
 40
0.2548264501
 40
0.5109608654
 40
0.767718938
 40
1.0
 40
1.0
 40
1.0
 40
1.0
 10
-15.2202356182
 20
16.8929107718
 30
0.0
 10
-15.2487805376
 20
16.8964548325
 30
0.0
 10
-15.3053138555
 20
16.9120073297
 30
0.0
 10
-15.3797821145
 20
16.958556584
 30
0.0
 10
-15.4362796196
 20
17.0224677095
 30
0.0
 10
-15.460603919
 20
17.0727181235
 30
0.0
 10
-15.4689208556
 20
17.0976951408
 30
0.0
 11
-15.2202356182
 21
16.8929107718
 31
0.0
 11
-15.3034354427
 21
16.9158049697
 31
0.0
 11
-15.3770122679
 21
16.9617336416
 31
0.0
 11
-15.4346198537
 21
17.0268568939
 31
0.0
 11
-15.4689208556
 21
17.0976951408
 31
0.0
  0
SPLINE
  5
560
100
AcDbEntity
  8
RACCORDO
100
AcDbSpline
 62
253
  6
CONTINUOUS
 70
0
 71
3
 72
11
 73
7
 74
5
 42
0.0000001
 43
0.0000001
 44
0.0000000001
 12
-0.3744509998
 22
-0.0033199492
 32
0.0
 13
-0.1189757453
 23
0.3584618195
 33
0.0
 40
0.0
 40
0.0
 40
0.0
 40
0.0
 40
0.318906794
 40
0.6313792274
 40
0.9437057137
 40
1.0
 40
1.0
 40
1.0
 40
1.0
 10
-15.2202356182
 20
17.0080098908
 30
0.0
 10
-15.2600406075
 20
17.0076569727
 30
0.0
 10
-15.3398974886
 20
17.0230402073
 30
0.0
 10
-15.4402977457
 20
17.090134231
 30
0.0
 10
-15.4888211513
 20
17.1625473703
 30
0.0
 10
-15.505001793
 20
17.2060676612
 30
0.0
 10
-15.5072343446
 20
17.2127941119
 30
0.0
 11
-15.2202356182
 21
17.0080098908
 31
0.0
 11
-15.3374751316
 21
17.0307244678
 31
0.0
 11
-15.434820919
 21
17.0956489456
 31
0.0
 11
-15.499824593
 21
17.192876132
 31
0.0
 11
-15.5072343446
 21
17.2127941119
 31
0.0
  0
LINE
  5
561
100
AcDbEntity
  8
RACCORDO
100
AcDbLine
 62
7
  6
CONTINUOUS
 10
-15.2202356182
 20
17.0007886821
 11
-15.2202356182
 21
17.0080098909
  0
LINE
  5
562
100
AcDbEntity
  8
RACCORDO
100
AcDbLine
 62
7
  6
CONTINUOUS
 10
-15.2202356182
 20
17.0007886821
 11
-15.2202356182
 21
16.8929107718
  0
SPLINE
  5
563
100
AcDbEntity
  8
RACCORDO
100
AcDbSpline
 62
253
  6
CONTINUOUS
 70
0
 71
3
 72
11
 73
7
 74
5
 42
0.0000001
 43
0.0000001
 44
0.0000000001
 12
0.3744511614
 22
-0.0033199595
 32
0.0
 13
0.1189755411
 23
0.358461857
 33
0.0
 40
0.0
 40
0.0
 40
0.0
 40
0.0
 40
0.3189150909
 40
0.6313911078
 40
0.9437148603
 40
1.0
 40
1.0
 40
1.0
 40
1.0
 10
-15.2202356182
 20
17.0080098909
 30
0.0
 10
-15.1804295761
 20
17.0076569625
 30
0.0
 10
-15.1005711005
 20
17.023040945
 30
0.0
 10
-15.0001706572
 20
17.0901370165
 30
0.0
 10
-14.9516488542
 20
17.1625499589
 30
0.0
 10
-14.9354690094
 20
17.2060689364
 30
0.0
 10
-14.9332368244
 20
17.2127942949
 30
0.0
 11
-15.2202356182
 21
17.0080098909
 31
0.0
 11
-15.1029931256
 21
17.0307256965
 31
0.0
 11
-15.0056470322
 21
17.0956522249
 31
0.0
 11
-14.9406452472
 21
17.1928795035
 31
0.0
 11
-14.9332368244
 21
17.2127942949
 31
0.0
  0
SPLINE
  5
564
100
AcDbEntity
  8
RACCORDO
100
AcDbSpline
 62
253
  6
CONTINUOUS
 70
0
 71
3
 72
11
 73
7
 74
5
 42
0.0000001
 43
0.0000001
 44
0.0000000001
 12
-0.3744511614
 22
0.0033199595
 32
0.0
 13
-0.1189755411
 23
-0.358461857
 33
0.0
 40
0.0
 40
0.0
 40
0.0
 40
0.0
 40
0.3189150909
 40
0.6313911078
 40
0.9437148603
 40
1.0
 40
1.0
 40
1.0
 40
1.0
 10
-15.2202356182
 20
-16.9423484981
 30
0.0
 10
-15.2600416602
 20
-16.9419955697
 30
0.0
 10
-15.3399001359
 20
-16.9573795522
 30
0.0
 10
-15.4403005792
 20
-17.0244756237
 30
0.0
 10
-15.4888223822
 20
-17.0968885661
 30
0.0
 10
-15.5050022269
 20
-17.1404075436
 30
0.0
 10
-15.5072344119
 20
-17.1471329022
 30
0.0
 11
-15.2202356182
 21
-16.9423484981
 31
0.0
 11
-15.3374781107
 21
-16.9650643038
 31
0.0
 11
-15.4348242042
 21
-17.0299908322
 31
0.0
 11
-15.4998259892
 21
-17.1272181108
 31
0.0
 11
-15.5072344119
 21
-17.1471329022
 31
0.0
  0
SPLINE
  5
565
100
AcDbEntity
  8
RACCORDO
100
AcDbSpline
 62
253
  6
CONTINUOUS
 70
0
 71
3
 72
10
 73
6
 74
4
 42
0.0000001
 43
0.0000001
 44
0.0000000001
 12
0.0000656956
 22
0.1287895699
 32
0.0
 13
0.0000558612
 23
0.1287895745
 33
0.0
 40
0.0
 40
0.0
 40
0.0
 40
0.0
 40
0.517819231
 40
0.8559649897
 40
1.0
 40
1.0
 40
1.0
 40
1.0
 10
-15.2199953029
 20
-17.071160048
 30
0.0
 10
-15.2199839634
 20
-17.0489301427
 30
0.0
 10
-15.2203190704
 20
-17.0121842461
 30
0.0
 10
-15.22021879
 20
-16.9692542385
 30
0.0
 10
-15.2202396686
 20
-16.9485542964
 30
0.0
 10
-15.2202369866
 20
-16.9423708938
 30
0.0
 11
-15.2199953029
 21
-17.071160048
 31
0.0
 11
-15.2202353596
 21
-17.0044707553
 31
0.0
 11
-15.2202333727
 21
-16.9609211029
 31
0.0
 11
-15.2202369866
 21
-16.9423708938
 31
0.0
  0
SPLINE
  5
566
100
AcDbEntity
  8
RACCORDO
100
AcDbSpline
 62
7
  6
CONTINUOUS
 70
0
 71
3
 72
11
 73
7
 74
5
 42
0.0000001
 43
0.0000001
 44
0.0000000001
 12
0.3360512935
 22
-0.0417232276
 32
0.0
 13
0.1074164622
 23
-0.3225878649
 33
0.0
 40
0.0
 40
0.0
 40
0.0
 40
0.0
 40
0.2548264501
 40
0.5109608654
 40
0.767718938
 40
1.0
 40
1.0
 40
1.0
 40
1.0
 10
-15.2202356182
 20
-16.8272493791
 30
0.0
 10
-15.1916906988
 20
-16.8307934397
 30
0.0
 10
-15.1351573809
 20
-16.8463459369
 30
0.0
 10
-15.0606891218
 20
-16.8928951912
 30
0.0
 10
-15.0041916168
 20
-16.9568063168
 30
0.0
 10
-14.9798673174
 20
-17.0070567308
 30
0.0
 10
-14.9715503807
 20
-17.0320337481
 30
0.0
 11
-15.2202356182
 21
-16.8272493791
 31
0.0
 11
-15.1370357936
 21
-16.8501435769
 31
0.0
 11
-15.0634589684
 21
-16.8960722489
 31
0.0
 11
-15.0058513827
 21
-16.9611955012
 31
0.0
 11
-14.9715503807
 21
-17.0320337481
 31
0.0
  0
LINE
  5
567
100
AcDbEntity
  8
RACCORDO
100
AcDbLine
 62
7
  6
CONTINUOUS
 10
-15.2202356182
 20
-16.8272493791
 11
-15.2202356181
 21
-16.9351275037
  0
LINE
  5
568
100
AcDbEntity
  8
RACCORDO
100
AcDbLine
 62
7
  6
CONTINUOUS
 10
-15.2202356182
 20
-16.9423484981
 11
-15.2202356181
 21
-16.9351275037
  0
SPLINE
  5
569
100
AcDbEntity
  8
RACCORDO
100
AcDbSpline
 62
253
  6
CONTINUOUS
 70
0
 71
3
 72
11
 73
7
 74
5
 42
0.0000001
 43
0.0000001
 44
0.0000000001
 12
0.3744509998
 22
0.0033199492
 32
0.0
 13
0.1189757453
 23
-0.3584618195
 33
0.0
 40
0.0
 40
0.0
 40
0.0
 40
0.0
 40
0.318906794
 40
0.6313792274
 40
0.9437057137
 40
1.0
 40
1.0
 40
1.0
 40
1.0
 10
-15.2202356182
 20
-16.9423484981
 30
0.0
 10
-15.1804306289
 20
-16.94199558
 30
0.0
 10
-15.1005737478
 20
-16.9573788146
 30
0.0
 10
-15.0001734906
 20
-17.0244728383
 30
0.0
 10
-14.9516500851
 20
-17.0968859775
 30
0.0
 10
-14.9354694433
 20
-17.1404062684
 30
0.0
 10
-14.9332368918
 20
-17.1471327192
 30
0.0
 11
-15.2202356182
 21
-16.9423484981
 31
0.0
 11
-15.1029961048
 21
-16.965063075
 31
0.0
 11
-15.0056503173
 21
-17.0299875528
 31
0.0
 11
-14.9406466434
 21
-17.1272147392
 31
0.0
 11
-14.9332368918
 21
-17.1471327192
 31
0.0
  0
SPLINE
  5
56A
100
AcDbEntity
  8
RACCORDO
100
AcDbSpline
 62
253
  6
CONTINUOUS
 70
0
 71
3
 72
11
 73
7
 74
5
 42
0.0000001
 43
0.0000001
 44
0.0000000001
 12
-0.3744511614
 22
0.0033199595
 32
0.0
 13
-0.1189755411
 23
-0.358461857
 33
0.0
 40
0.0
 40
0.0
 40
0.0
 40
0.0
 40
0.3189150909
 40
0.6313911078
 40
0.9437148603
 40
1.0
 40
1.0
 40
1.0
 40
1.0
 10
-7.4202356182
 20
-16.9423484981
 30
0.0
 10
-7.4600416602
 20
-16.9419955697
 30
0.0
 10
-7.5399001359
 20
-16.9573795522
 30
0.0
 10
-7.6403005792
 20
-17.0244756237
 30
0.0
 10
-7.6888223822
 20
-17.0968885661
 30
0.0
 10
-7.7050022269
 20
-17.1404075436
 30
0.0
 10
-7.7072344119
 20
-17.1471329022
 30
0.0
 11
-7.4202356182
 21
-16.9423484981
 31
0.0
 11
-7.5374781107
 21
-16.9650643038
 31
0.0
 11
-7.6348242042
 21
-17.0299908322
 31
0.0
 11
-7.6998259892
 21
-17.1272181108
 31
0.0
 11
-7.7072344119
 21
-17.1471329022
 31
0.0
  0
SPLINE
  5
56B
100
AcDbEntity
  8
RACCORDO
100
AcDbSpline
 62
7
  6
CONTINUOUS
 70
0
 71
3
 72
11
 73
7
 74
5
 42
0.0000001
 43
0.0000001
 44
0.0000000001
 12
-0.1074164622
 22
-0.3225878649
 32
0.0
 13
-0.3360512935
 23
-0.0417232276
 33
0.0
 40
0.0
 40
0.0
 40
0.0
 40
0.0
 40
0.232281062
 40
0.4890391346
 40
0.7451735499
 40
1.0
 40
1.0
 40
1.0
 40
1.0
 10
-14.9715503807
 20
17.0976951408
 30
0.0
 10
-14.9798673174
 20
17.0727181235
 30
0.0
 10
-15.0041916168
 20
17.0224677095
 30
0.0
 10
-15.0606891218
 20
16.958556584
 30
0.0
 10
-15.1351573809
 20
16.9120073297
 30
0.0
 10
-15.1916906988
 20
16.8964548325
 30
0.0
 10
-15.2202356182
 20
16.8929107718
 30
0.0
 11
-14.9715503807
 21
17.0976951408
 31
0.0
 11
-15.0058513827
 21
17.0268568939
 31
0.0
 11
-15.0634589684
 21
16.9617336416
 31
0.0
 11
-15.1370357936
 21
16.9158049697
 31
0.0
 11
-15.2202356182
 21
16.8929107718
 31
0.0
  0
SPLINE
  5
56C
100
AcDbEntity
  8
RACCORDO
100
AcDbSpline
 62
253
  6
CONTINUOUS
 70
0
 71
3
 72
10
 73
6
 74
4
 42
0.0000001
 43
0.0000001
 44
0.0000000001
 12
0.0000656956
 22
0.1287895699
 32
0.0
 13
0.0000558612
 23
0.1287895745
 33
0.0
 40
0.0
 40
0.0
 40
0.0
 40
0.0
 40
0.517819231
 40
0.8559649897
 40
1.0
 40
1.0
 40
1.0
 40
1.0
 10
-7.4199953029
 20
-17.071160048
 30
0.0
 10
-7.4199839634
 20
-17.0489301427
 30
0.0
 10
-7.4203190704
 20
-17.0121842461
 30
0.0
 10
-7.42021879
 20
-16.9692542385
 30
0.0
 10
-7.4202396686
 20
-16.9485542964
 30
0.0
 10
-7.4202369866
 20
-16.9423708938
 30
0.0
 11
-7.4199953029
 21
-17.071160048
 31
0.0
 11
-7.4202353596
 21
-17.0044707553
 31
0.0
 11
-7.4202333727
 21
-16.9609211029
 31
0.0
 11
-7.4202369866
 21
-16.9423708938
 31
0.0
  0
SPLINE
  5
56D
100
AcDbEntity
  8
RACCORDO
100
AcDbSpline
 62
7
  6
CONTINUOUS
 70
0
 71
3
 72
11
 73
7
 74
5
 42
0.0000001
 43
0.0000001
 44
0.0000000001
 12
0.3360512935
 22
-0.0417232276
 32
0.0
 13
0.1074164622
 23
-0.3225878649
 33
0.0
 40
0.0
 40
0.0
 40
0.0
 40
0.0
 40
0.2548264501
 40
0.5109608654
 40
0.767718938
 40
1.0
 40
1.0
 40
1.0
 40
1.0
 10
-7.4202356182
 20
-16.8272493791
 30
0.0
 10
-7.3916906988
 20
-16.8307934397
 30
0.0
 10
-7.3351573809
 20
-16.8463459369
 30
0.0
 10
-7.2606891218
 20
-16.8928951912
 30
0.0
 10
-7.2041916168
 20
-16.9568063168
 30
0.0
 10
-7.1798673174
 20
-17.0070567308
 30
0.0
 10
-7.1715503807
 20
-17.0320337481
 30
0.0
 11
-7.4202356182
 21
-16.8272493791
 31
0.0
 11
-7.3370357936
 21
-16.8501435769
 31
0.0
 11
-7.2634589684
 21
-16.8960722489
 31
0.0
 11
-7.2058513827
 21
-16.9611955012
 31
0.0
 11
-7.1715503807
 21
-17.0320337481
 31
0.0
  0
LINE
  5
56E
100
AcDbEntity
  8
RACCORDO
100
AcDbLine
 62
7
  6
CONTINUOUS
 10
-7.4202356182
 20
-16.8272493791
 11
-7.4202356181
 21
-16.9351272546
  0
LINE
  5
56F
100
AcDbEntity
  8
RACCORDO
100
AcDbLine
 62
7
  6
CONTINUOUS
 10
-7.4202356182
 20
-16.9423484981
 11
-7.4202356181
 21
-16.9351272546
  0
SPLINE
  5
570
100
AcDbEntity
  8
RACCORDO
100
AcDbSpline
 62
253
  6
CONTINUOUS
 70
0
 71
3
 72
11
 73
7
 74
5
 42
0.0000001
 43
0.0000001
 44
0.0000000001
 12
0.3744509998
 22
0.0033199492
 32
0.0
 13
0.1189757453
 23
-0.3584618195
 33
0.0
 40
0.0
 40
0.0
 40
0.0
 40
0.0
 40
0.318906794
 40
0.6313792274
 40
0.9437057137
 40
1.0
 40
1.0
 40
1.0
 40
1.0
 10
-7.4202356182
 20
-16.9423484981
 30
0.0
 10
-7.3804306289
 20
-16.94199558
 30
0.0
 10
-7.3005737478
 20
-16.9573788146
 30
0.0
 10
-7.2001734906
 20
-17.0244728383
 30
0.0
 10
-7.1516500851
 20
-17.0968859775
 30
0.0
 10
-7.1354694433
 20
-17.1404062684
 30
0.0
 10
-7.1332368918
 20
-17.1471327192
 30
0.0
 11
-7.4202356182
 21
-16.9423484981
 31
0.0
 11
-7.3029961048
 21
-16.965063075
 31
0.0
 11
-7.2056503173
 21
-17.0299875528
 31
0.0
 11
-7.1406466434
 21
-17.1272147392
 31
0.0
 11
-7.1332368918
 21
-17.1471327192
 31
0.0
  0
SPLINE
  5
571
100
AcDbEntity
  8
RACCORDO
100
AcDbSpline
 62
253
  6
CONTINUOUS
 70
0
 71
3
 72
12
 73
8
 74
6
 42
0.0000001
 43
0.0000001
 44
0.0000000001
 12
0.066306787
 22
0.4950938607
 32
0.0
 13
-0.0000000637
 23
0.499514285
 33
0.0
 40
0.0
 40
0.0
 40
0.0
 40
0.0
 40
0.061750407
 40
0.2090292687
 40
0.4287358498
 40
0.7006496619
 40
1.0
 40
1.0
 40
1.0
 40
1.0
 10
-7.4202356182
 20
17.0079982124
 30
0.0
 10
-7.4188707945
 20
17.0181889615
 30
0.0
 10
-7.4146048614
 20
17.052781944
 30
0.0
 10
-7.4167364183
 20
17.1243328774
 30
0.0
 10
-7.4146606755
 20
17.230628343
 30
0.0
 10
-7.4147745582
 20
17.3623595277
 30
0.0
 10
-7.4145386609
 20
17.457469723
 30
0.0
 10
-7.4145386672
 20
17.5073129797
 30
0.0
 11
-7.4202356182
 21
17.0079982124
 31
0.0
 11
-7.4168133348
 21
17.0386529833
 31
0.0
 11
-7.4158904367
 21
17.1122150895
 31
0.0
 11
-7.4151634353
 21
17.2219592573
 31
0.0
 11
-7.4146985277
 21
17.3577832951
 31
0.0
 11
-7.4145386672
 21
17.5073129797
 31
0.0
  0
SPLINE
  5
572
100
AcDbEntity
  8
RACCORDO
100
AcDbSpline
 62
253
  6
CONTINUOUS
 70
0
 71
3
 72
12
 73
8
 74
6
 42
0.0000001
 43
0.0000001
 44
0.0000000001
 12
-0.0000000585
 22
-0.4995142517
 32
0.0
 13
0.0663068692
 23
-0.4950938161
 33
0.0
 40
0.0
 40
0.0
 40
0.0
 40
0.0
 40
0.2993052062
 40
0.5712890948
 40
0.7909813454
 40
0.9382340118
 40
1.0
 40
1.0
 40
1.0
 40
1.0
 10
-7.4259325692
 20
17.5073129797
 30
0.0
 10
-7.425932575
 20
17.457477241
 30
0.0
 10
-7.4256967643
 20
17.3623628912
 30
0.0
 10
-7.4258104972
 20
17.2306299696
 30
0.0
 10
-7.4237353979
 20
17.1243295168
 30
0.0
 10
-7.4258652166
 20
17.0527829137
 30
0.0
 10
-7.4216007879
 20
17.018191532
 30
0.0
 10
-7.4202356182
 20
17.0079982124
 30
0.0
 11
-7.4259325692
 21
17.5073129797
 31
0.0
 11
-7.4257727603
 21
17.357805849
 31
0.0
 11
-7.4253077374
 21
17.2219468163
 31
0.0
 11
-7.4245807557
 21
17.1122098142
 31
0.0
 11
-7.4236580465
 21
17.0386607964
 31
0.0
 11
-7.4202356182
 21
17.0079982124
 31
0.0
  0
SPLINE
  5
573
100
AcDbEntity
  8
RACCORDO
100
AcDbSpline
 62
253
  6
CONTINUOUS
 70
0
 71
3
 72
12
 73
8
 74
6
 42
0.0000001
 43
0.0000001
 44
0.0000000001
 12
0.066306787
 22
0.4950938607
 32
0.0
 13
-0.0000000637
 23
0.499514285
 33
0.0
 40
0.0
 40
0.0
 40
0.0
 40
0.0
 40
0.061750407
 40
0.2090292687
 40
0.4287358498
 40
0.7006496619
 40
1.0
 40
1.0
 40
1.0
 40
1.0
 10
-15.2202356182
 20
17.0079982124
 30
0.0
 10
-15.2188707945
 20
17.0181889615
 30
0.0
 10
-15.2146048614
 20
17.052781944
 30
0.0
 10
-15.2167364183
 20
17.1243328774
 30
0.0
 10
-15.2146606755
 20
17.230628343
 30
0.0
 10
-15.2147745582
 20
17.3623595277
 30
0.0
 10
-15.2145386609
 20
17.457469723
 30
0.0
 10
-15.2145386672
 20
17.5073129797
 30
0.0
 11
-15.2202356182
 21
17.0079982124
 31
0.0
 11
-15.2168133348
 21
17.0386529833
 31
0.0
 11
-15.2158904367
 21
17.1122150895
 31
0.0
 11
-15.2151634353
 21
17.2219592573
 31
0.0
 11
-15.2146985277
 21
17.3577832951
 31
0.0
 11
-15.2145386672
 21
17.5073129797
 31
0.0
  0
SPLINE
  5
574
100
AcDbEntity
  8
RACCORDO
100
AcDbSpline
 62
253
  6
CONTINUOUS
 70
0
 71
3
 72
12
 73
8
 74
6
 42
0.0000001
 43
0.0000001
 44
0.0000000001
 12
-0.0000000585
 22
-0.4995142517
 32
0.0
 13
0.0663068692
 23
-0.4950938161
 33
0.0
 40
0.0
 40
0.0
 40
0.0
 40
0.0
 40
0.2993052062
 40
0.5712890948
 40
0.7909813454
 40
0.9382340118
 40
1.0
 40
1.0
 40
1.0
 40
1.0
 10
-15.2259325692
 20
17.5073129797
 30
0.0
 10
-15.225932575
 20
17.457477241
 30
0.0
 10
-15.2256967643
 20
17.3623628912
 30
0.0
 10
-15.2258104972
 20
17.2306299696
 30
0.0
 10
-15.2237353979
 20
17.1243295168
 30
0.0
 10
-15.2258652166
 20
17.0527829137
 30
0.0
 10
-15.2216007879
 20
17.018191532
 30
0.0
 10
-15.2202356182
 20
17.0079982124
 30
0.0
 11
-15.2259325692
 21
17.5073129797
 31
0.0
 11
-15.2257727603
 21
17.357805849
 31
0.0
 11
-15.2253077374
 21
17.2219468163
 31
0.0
 11
-15.2245807557
 21
17.1122098142
 31
0.0
 11
-15.2236580465
 21
17.0386607964
 31
0.0
 11
-15.2202356182
 21
17.0079982124
 31
0.0
  0
SPLINE
  5
575
100
AcDbEntity
  8
RACCORDO
100
AcDbSpline
 62
253
  6
CONTINUOUS
 70
0
 71
3
 72
10
 73
6
 74
4
 42
0.0000001
 43
0.0000001
 44
0.0000000001
 12
0.0000000434
 22
0.3706610038
 32
0.0
 13
-0.0028642172
 23
0.3706499373
 33
0.0
 40
0.0
 40
0.0
 40
0.0
 40
0.0
 40
0.3704140877
 40
0.7124319493
 40
1.0
 40
1.0
 40
1.0
 40
1.0
 10
-15.2145386672
 20
-17.441651587
 30
0.0
 10
-15.2145386618
 20
-17.3958855678
 30
0.0
 10
-15.2154671505
 20
-17.3078849493
 30
0.0
 10
-15.2124541411
 20
-17.1842398723
 30
0.0
 10
-15.2199610786
 20
-17.1066457547
 30
0.0
 10
-15.2202356311
 20
-17.0711167281
 30
0.0
 11
-15.2145386672
 21
-17.441651587
 31
0.0
 11
-15.2146728909
 21
-17.304353595
 31
0.0
 11
-15.2150652874
 21
-17.1775815184
 31
0.0
 11
-15.2202356311
 21
-17.0711167281
 31
0.0
  0
SPLINE
  5
576
100
AcDbEntity
  8
RACCORDO
100
AcDbSpline
 62
253
  6
CONTINUOUS
 70
0
 71
3
 72
10
 73
6
 74
4
 42
0.0000001
 43
0.0000001
 44
0.0000000001
 12
-0.0028642243
 22
-0.3706499314
 32
0.0
 13
0.0000000472
 23
-0.370660998
 33
0.0
 40
0.0
 40
0.0
 40
0.0
 40
0.0
 40
0.2875808842
 40
0.6295171108
 40
1.0
 40
1.0
 40
1.0
 40
1.0
 10
-15.2202356311
 20
-17.0711167281
 30
0.0
 10
-15.2205101965
 20
-17.1066473398
 30
0.0
 10
-15.2280162591
 20
-17.184232986
 30
0.0
 10
-15.2250040455
 20
-17.307878036
 30
0.0
 10
-15.225932575
 20
-17.3958770678
 30
0.0
 10
-15.2259325692
 20
-17.441651587
 30
0.0
 11
-15.2202356311
 21
-17.0711167281
 31
0.0
 11
-15.2254059703
 21
-17.1775862794
 31
0.0
 11
-15.2257982928
 21
-17.3043280952
 31
0.0
 11
-15.2259325692
 21
-17.441651587
 31
0.0
  0
SPLINE
  5
577
100
AcDbEntity
  8
RACCORDO
100
AcDbSpline
 62
253
  6
CONTINUOUS
 70
0
 71
3
 72
10
 73
6
 74
4
 42
0.0000001
 43
0.0000001
 44
0.0000000001
 12
0.0000000434
 22
0.3706610038
 32
0.0
 13
-0.0028642172
 23
0.3706499373
 33
0.0
 40
0.0
 40
0.0
 40
0.0
 40
0.0
 40
0.3704140877
 40
0.7124319493
 40
1.0
 40
1.0
 40
1.0
 40
1.0
 10
-7.4145386672
 20
-17.441651587
 30
0.0
 10
-7.4145386618
 20
-17.3958855678
 30
0.0
 10
-7.4154671505
 20
-17.3078849493
 30
0.0
 10
-7.4124541411
 20
-17.1842398723
 30
0.0
 10
-7.4199610786
 20
-17.1066457547
 30
0.0
 10
-7.4202356311
 20
-17.0711167281
 30
0.0
 11
-7.4145386672
 21
-17.441651587
 31
0.0
 11
-7.4146728909
 21
-17.304353595
 31
0.0
 11
-7.4150652874
 21
-17.1775815184
 31
0.0
 11
-7.4202356311
 21
-17.0711167281
 31
0.0
  0
SPLINE
  5
578
100
AcDbEntity
  8
RACCORDO
100
AcDbSpline
 62
253
  6
CONTINUOUS
 70
0
 71
3
 72
10
 73
6
 74
4
 42
0.0000001
 43
0.0000001
 44
0.0000000001
 12
-0.0028642243
 22
-0.3706499314
 32
0.0
 13
0.0000000472
 23
-0.370660998
 33
0.0
 40
0.0
 40
0.0
 40
0.0
 40
0.0
 40
0.2875808842
 40
0.6295171108
 40
1.0
 40
1.0
 40
1.0
 40
1.0
 10
-7.4202356311
 20
-17.0711167281
 30
0.0
 10
-7.4205101965
 20
-17.1066473398
 30
0.0
 10
-7.4280162591
 20
-17.184232986
 30
0.0
 10
-7.4250040455
 20
-17.307878036
 30
0.0
 10
-7.425932575
 20
-17.3958770678
 30
0.0
 10
-7.4259325692
 20
-17.441651587
 30
0.0
 11
-7.4202356311
 21
-17.0711167281
 31
0.0
 11
-7.4254059703
 21
-17.1775862794
 31
0.0
 11
-7.4257982928
 21
-17.3043280952
 31
0.0
 11
-7.4259325692
 21
-17.441651587
 31
0.0
  0
ELLIPSE
  5
579
100
AcDbEntity
  8
RACCORDO
100
AcDbEllipse
 62
7
  6
CONTINUOUS
 10
-0.4206159576
 20
-12.9671693036
 30
0.0
 11
-0.0
 21
30.0
 31
0.0
 40
0.0174550649
 41
-1.789480621
 42
-1.5095718747
  0
ELLIPSE
  5
57A
100
AcDbEntity
  8
RACCORDO
100
AcDbEllipse
 62
7
  6
CONTINUOUS
 10
0.0549342691
 20
-20.5548087914
 30
0.0
 11
-0.0
 21
0.4
 31
0.0
 40
0.0174550649
 41
0.1745329252
 42
1.6667894357
  0
ELLIPSE
  5
57B
100
AcDbEntity
  8
RACCORDO
100
AcDbEllipse
 62
7
  6
CONTINUOUS
 10
0.0549342691
 20
20.6204701841
 30
0.0
 11
-0.0
 21
0.4
 31
0.0
 40
0.0174550649
 41
1.4748032179
 42
2.9670597284
  0
ELLIPSE
  5
57C
100
AcDbEntity
  8
RACCORDO
100
AcDbEllipse
 62
7
  6
CONTINUOUS
 10
-0.4206159576
 20
13.0328306964
 30
0.0
 11
-0.0
 21
30.0
 31
0.0
 40
0.0174550649
 41
-1.6320207789
 42
-1.3635987802
  0
ELLIPSE
  5
57D
100
AcDbEntity
  8
DRAFT
100
AcDbEllipse
 62
7
  6
CONTINUOUS
 10
0.2762784652
 20
10.5853822975
 30
0.0
 11
-0.0
 21
10.0
 31
0.0
 40
0.0174550649
 41
1.5095718747
 42
1.5988177584
  0
ELLIPSE
  5
57E
100
AcDbEntity
  8
DRAFT
100
AcDbEllipse
 62
7
  6
CONTINUOUS
 10
-1.4441152885
 20
7.8228306964
 30
0.0
 11
-0.0
 21
88.6
 31
0.0
 40
0.0174550649
 41
-1.5517951834
 42
-1.5427748951
  0
ELLIPSE
  5
57F
100
AcDbEntity
  8
DRAFT
100
AcDbEllipse
 62
7
  6
CONTINUOUS
 10
-8.5994000304
 20
0.0328306964
 30
0.0
 11
-0.0
 21
498.6
 31
0.0
 40
0.0174550649
 41
-1.5897974701
 42
-1.5517951834
  0
ELLIPSE
  5
580
100
AcDbEntity
  8
DRAFT
100
AcDbEllipse
 62
7
  6
CONTINUOUS
 10
-1.4441152885
 20
-7.7571693036
 30
0.0
 11
-0.0
 21
88.6
 31
0.0
 40
0.0174550649
 41
-1.5988177584
 42
-1.5897974701
  0
ELLIPSE
  5
581
100
AcDbEntity
  8
DRAFT
100
AcDbEllipse
 62
7
  6
CONTINUOUS
 10
0.2762784652
 20
-10.5197209047
 30
0.0
 11
-0.0
 21
10.0
 31
0.0
 40
0.0174550649
 41
1.5427748951
 42
1.6320207789
  0
ELLIPSE
  5
582
100
AcDbEntity
  8
DRAFT
100
AcDbEllipse
 62
7
  6
CONTINUOUS
 10
30.908928794
 20
0.0328306964
 30
0.0
 11
-0.0
 21
498.6
 31
0.0
 40
0.0174550649
 41
1.5608358083
 42
1.5807568453
  0
ELLIPSE
  5
583
100
AcDbEntity
  8
RACCORDO
100
AcDbEllipse
 62
7
  6
CONTINUOUS
 10
0.0820448792
 20
-19.3670598031
 30
0.0
 11
-0.0
 21
0.5
 31
0.0
 40
0.0174550649
 41
-2.9670597284
 42
-1.789480621
  0
ELLIPSE
  5
584
100
AcDbEntity
  8
RACCORDO
100
AcDbEllipse
 62
7
  6
CONTINUOUS
 10
0.0747540181
 20
18.9986584616
 30
0.0
 11
-0.0
 21
1.0
 31
0.0
 40
0.0174550649
 41
-1.3635987802
 42
-0.1745329252
  0
ELLIPSE
  5
585
100
AcDbEntity
  8
RACCORDO
100
AcDbEllipse
 62
7
  6
CONTINUOUS
 10
21.7610076548
 20
21.7455741523
 30
0.0
 11
-0.1395400468
 21
-0.4811552612
 31
0.0
 40
0.9980421448
 41
1.8535880701
 42
3.4233358738
  0
ELLIPSE
  5
586
100
AcDbEntity
  8
RACCORDO
100
AcDbEllipse
 62
7
  6
CONTINUOUS
 10
21.7610076548
 20
-21.6799127595
 30
0.0
 11
0.1395400468
 21
-0.4811552612
 31
-0.0
 40
0.9980421448
 41
-0.2817432202
 42
1.2880045835
  0
ELLIPSE
  5
587
100
AcDbEntity
  8
RACCORDO
100
AcDbEllipse
 62
7
  6
CONTINUOUS
 10
0.5485211088
 20
21.7455741523
 30
0.0
 11
-0.1395400468
 21
0.4811552612
 31
0.0
 40
0.9980421448
 41
-0.2817432202
 42
1.2880045835
  0
ELLIPSE
  5
588
100
AcDbEntity
  8
RACCORDO
100
AcDbEllipse
 62
7
  6
CONTINUOUS
 10
0.5485211088
 20
-21.6799127595
 30
0.0
 11
0.1395400468
 21
0.4811552612
 31
-0.0
 40
0.9980421448
 41
1.8535880701
 42
3.4233358738
  0
ELLIPSE
  5
589
100
AcDbEntity
  8
DRAFT
100
AcDbEllipse
 62
7
  6
CONTINUOUS
 10
6.8681204295
 20
7.8228306964
 30
0.0
 11
-0.0
 21
88.6
 31
0.0
 40
0.0349207695
 41
-1.5509304603
 42
-1.5427748951
  0
ELLIPSE
  5
58A
100
AcDbEntity
  8
RACCORDO
100
AcDbEllipse
 62
7
  6
CONTINUOUS
 10
15.0740674308
 20
20.6498286883
 30
0.0
 11
0.3
 21
0.0
 31
0.0
 40
0.0524077793
 41
1.5707963268
 42
3.1410675388
  0
ELLIPSE
  5
58B
100
AcDbEntity
  8
DRAFT
100
AcDbEllipse
 62
7
  6
CONTINUOUS
 10
22.2472817145
 20
7.8228306964
 30
0.0
 11
-0.0
 21
88.6
 31
0.0
 40
0.0174550649
 41
1.42653106
 42
1.4268459675
  0
ELLIPSE
  5
58C
100
AcDbEntity
  8
DRAFT
100
AcDbEllipse
 62
7
  6
CONTINUOUS
 10
0.0622470492
 20
7.8228306964
 30
0.0
 11
-0.0
 21
88.6
 31
0.0
 40
0.0174550649
 41
-1.4268459675
 42
-1.42653106
  0
ELLIPSE
  5
58D
100
AcDbEntity
  8
RACCORDO
100
AcDbEllipse
 62
7
  6
CONTINUOUS
 10
7.2740674308
 20
20.6498286883
 30
0.0
 11
0.3
 21
0.0
 31
0.0
 40
0.0524077793
 41
1.5707963268
 42
3.1410675388
  0
ELLIPSE
  5
58E
100
AcDbEntity
  8
RACCORDO
100
AcDbEllipse
 62
7
  6
CONTINUOUS
 10
7.2854613328
 20
-20.5841672955
 30
0.0
 11
0.3
 21
0.0
 31
0.0
 40
0.0524077793
 41
-1.5707963268
 42
-0.0005251148
  0
ELLIPSE
  5
58F
100
AcDbEntity
  8
RACCORDO
100
AcDbEllipse
 62
7
  6
CONTINUOUS
 10
6.9140500356
 20
10.0328306964
 30
0.0
 11
0.0
 21
0.45
 31
0.0
 40
0.0349207695
 41
-3.1415926536
 42
0.0
  0
ELLIPSE
  5
590
100
AcDbEntity
  8
DRAFT
100
AcDbEllipse
 62
7
  6
CONTINUOUS
 10
29.4025664564
 20
0.0328306964
 30
0.0
 11
-0.0
 21
498.6
 31
0.0
 40
0.0174550649
 41
1.5517951834
 42
1.5611006435
  0
ELLIPSE
  5
591
100
AcDbEntity
  8
DRAFT
100
AcDbEllipse
 62
7
  6
CONTINUOUS
 10
29.4025664564
 20
0.0328306964
 30
0.0
 11
-0.0
 21
498.6
 31
0.0
 40
0.0174550649
 41
-4.7026932971
 42
-4.693387837
  0
ELLIPSE
  5
592
100
AcDbEntity
  8
DRAFT
100
AcDbEllipse
 62
7
  6
CONTINUOUS
 10
18.6434194537
 20
0.0328306964
 30
0.0
 11
-0.0
 21
1.25
 31
0.0
 40
0.0087268678
 41
-0.5735131044
 42
3.715105758
  0
ELLIPSE
  5
593
100
AcDbEntity
  8
DRAFT
100
AcDbEllipse
 62
7
  6
CONTINUOUS
 10
22.2472817145
 20
-7.7571693036
 30
0.0
 11
-0.0
 21
88.6
 31
0.0
 40
0.0174550649
 41
-4.5684386211
 42
-4.5681237136
  0
ELLIPSE
  5
594
100
AcDbEntity
  8
RACCORDO
100
AcDbEllipse
 62
7
  6
CONTINUOUS
 10
2.5591278157
 20
-1.9758206721
 30
0.0
 11
0.0
 21
0.5
 31
0.0
 40
0.0087268678
 41
1.5707963268
 42
3.1241393611
  0
ELLIPSE
  5
595
100
AcDbEntity
  8
RACCORDO
100
AcDbEllipse
 62
7
  6
CONTINUOUS
 10
2.5573824422
 20
-1.3171693036
 30
0.0
 11
-0.0
 21
0.3
 31
0.0
 40
0.0087268678
 41
-0.0
 42
1.5707963268
  0
ELLIPSE
  5
596
100
AcDbEntity
  8
DRAFT
100
AcDbEllipse
 62
7
  6
CONTINUOUS
 10
22.2472817145
 20
-7.7571693036
 30
0.0
 11
-0.0
 21
88.6
 31
0.0
 40
0.0174550649
 41
-4.693387837
 42
-4.6843675487
  0
ELLIPSE
  5
597
100
AcDbEntity
  8
RACCORDO
100
AcDbEllipse
 62
7
  6
CONTINUOUS
 10
2.5573824422
 20
1.3828306964
 30
0.0
 11
0.0
 21
0.3
 31
0.0
 40
0.0087268678
 41
1.5707963268
 42
3.1415926536
  0
ELLIPSE
  5
598
100
AcDbEntity
  8
RACCORDO
100
AcDbEllipse
 62
7
  6
CONTINUOUS
 10
2.5591278157
 20
2.0414820648
 30
0.0
 11
-0.0
 21
0.5
 31
0.0
 40
0.0087268678
 41
0.0174532925
 42
1.5707963268
  0
ELLIPSE
  5
599
100
AcDbEntity
  8
DRAFT
100
AcDbEllipse
 62
7
  6
CONTINUOUS
 10
-1.7702712953
 20
0.0328306964
 30
0.0
 11
-0.0
 21
498.6
 31
0.0
 40
0.0087268678
 41
-1.5686904275
 42
-1.5656774694
  0
ELLIPSE
  5
59A
100
AcDbEntity
  8
DRAFT
100
AcDbEllipse
 62
7
  6
CONTINUOUS
 10
-1.7702712953
 20
0.0328306964
 30
0.0
 11
-0.0
 21
498.6
 31
0.0
 40
0.0087268678
 41
-1.5759151842
 42
-1.5729022261
  0
ELLIPSE
  5
59B
100
AcDbEntity
  8
DRAFT
100
AcDbEllipse
 62
7
  6
CONTINUOUS
 10
6.8681204295
 20
-7.7571693036
 30
0.0
 11
-0.0
 21
88.6
 31
0.0
 40
0.0349207695
 41
-1.5988177584
 42
-1.5906621933
  0
ELLIPSE
  5
59C
100
AcDbEntity
  8
DRAFT
100
AcDbEllipse
 62
7
  6
CONTINUOUS
 10
2.56610931
 20
0.0328306964
 30
0.0
 11
0.0
 21
1.25
 31
0.0
 40
0.0087268678
 41
2.5680795492
 42
6.8566984116
  0
ELLIPSE
  5
59D
100
AcDbEntity
  8
DRAFT
100
AcDbEllipse
 62
7
  6
CONTINUOUS
 10
9.9914083341
 20
-7.7571693036
 30
0.0
 11
-0.0
 21
88.6
 31
0.0
 40
0.0349207695
 41
-4.6925231139
 42
-4.6843675487
  0
ELLIPSE
  5
59E
100
AcDbEntity
  8
DRAFT
100
AcDbEllipse
 62
7
  6
CONTINUOUS
 10
0.0622470492
 20
-7.7571693036
 30
0.0
 11
-0.0
 21
88.6
 31
0.0
 40
0.0174550649
 41
-1.7150615936
 42
-1.7147466861
  0
ELLIPSE
  5
59F
100
AcDbEntity
  8
DRAFT
100
AcDbEllipse
 62
7
  6
CONTINUOUS
 10
21.2237823836
 20
13.0328306964
 30
0.0
 11
-0.0
 21
30.0
 31
0.0
 40
0.0174550649
 41
1.3181160717
 42
1.6320207789
  0
ELLIPSE
  5
5A0
100
AcDbEntity
  8
DRAFT
100
AcDbEllipse
 62
7
  6
CONTINUOUS
 10
21.2237823836
 20
-12.9671693036
 30
0.0
 11
-0.0
 21
30.0
 31
0.0
 40
0.0174550649
 41
1.5095718747
 42
1.8234765819
  0
ELLIPSE
  5
5A1
100
AcDbEntity
  8
DRAFT
100
AcDbEllipse
 62
7
  6
CONTINUOUS
 10
20.5268879607
 20
10.5853822975
 30
0.0
 11
-0.0
 21
10.0
 31
0.0
 40
0.0174550649
 41
-1.5988177584
 42
-1.5095718747
  0
ELLIPSE
  5
5A2
100
AcDbEntity
  8
DRAFT
100
AcDbEllipse
 62
7
  6
CONTINUOUS
 10
10.3099565932
 20
10.5853822975
 30
0.0
 11
-0.0
 21
10.0
 31
0.0
 40
0.0349207695
 41
-4.7021336405
 42
-4.6843675487
  0
ELLIPSE
  5
5A3
100
AcDbEntity
  8
RACCORDO
100
AcDbEllipse
 62
7
  6
CONTINUOUS
 10
15.0854613328
 20
-20.5841672955
 30
0.0
 11
0.3
 21
0.0
 31
0.0
 40
0.0524077793
 41
-1.5707963268
 42
-0.0005251148
  0
ELLIPSE
  5
5A4
100
AcDbEntity
  8
DRAFT
100
AcDbEllipse
 62
7
  6
CONTINUOUS
 10
6.5495721704
 20
10.5853822975
 30
0.0
 11
-0.0
 21
10.0
 31
0.0
 40
0.0349207695
 41
-1.5988177584
 42
-1.5810516667
  0
ELLIPSE
  5
5A5
100
AcDbEntity
  8
DRAFT
100
AcDbEllipse
 62
7
  6
CONTINUOUS
 10
20.5268879607
 20
-10.5197209047
 30
0.0
 11
-0.0
 21
10.0
 31
0.0
 40
0.0174550649
 41
-1.6320207789
 42
-1.5427748951
  0
ELLIPSE
  5
5A6
100
AcDbEntity
  8
DRAFT
100
AcDbEllipse
 62
7
  6
CONTINUOUS
 10
6.5495721704
 20
-10.5197209047
 30
0.0
 11
-0.0
 21
10.0
 31
0.0
 40
0.0349207695
 41
-1.5605409869
 42
-1.5427748951
  0
ELLIPSE
  5
5A7
100
AcDbEntity
  8
DRAFT
100
AcDbEllipse
 62
7
  6
CONTINUOUS
 10
10.3099565932
 20
-10.5197209047
 30
0.0
 11
-0.0
 21
10.0
 31
0.0
 40
0.0349207695
 41
1.5427748951
 42
1.5605409869
  0
ELLIPSE
  5
5A8
100
AcDbEntity
  8
RACCORDO
100
AcDbEllipse
 62
7
  6
CONTINUOUS
 10
1.5884072168
 20
-19.3670598031
 30
0.0
 11
0.0
 21
0.5
 31
0.0
 40
0.0174550649
 41
-2.9670597284
 42
-1.789480621
  0
ELLIPSE
  5
5A9
100
AcDbEntity
  8
RACCORDO
100
AcDbEllipse
 62
7
  6
CONTINUOUS
 10
1.5811163558
 20
18.9986584616
 30
0.0
 11
-0.0
 21
1.0
 31
0.0
 40
0.0174550649
 41
-1.3635987802
 42
-0.1745329252
  0
ELLIPSE
  5
5AA
100
AcDbEntity
  8
RACCORDO
100
AcDbEllipse
 62
7
  6
CONTINUOUS
 10
7.2740674308
 20
-20.5841672955
 30
0.0
 11
0.3
 21
0.0
 31
0.0
 40
0.0524077793
 41
-3.1410675388
 42
-1.5707963268
  0
ELLIPSE
  5
5AB
100
AcDbEntity
  8
RACCORDO
100
AcDbEllipse
 62
7
  6
CONTINUOUS
 10
15.0740674308
 20
-20.5841672955
 30
0.0
 11
0.3
 21
0.0
 31
0.0
 40
0.0524077793
 41
-3.1410675388
 42
-1.5707963268
  0
ELLIPSE
  5
5AC
100
AcDbEntity
  8
RACCORDO
100
AcDbEllipse
 62
7
  6
CONTINUOUS
 10
15.0854613328
 20
20.6498286883
 30
0.0
 11
0.3
 21
-0.0
 31
0.0
 40
0.0524077793
 41
0.0005251148
 42
1.5707963268
  0
ELLIPSE
  5
5AD
100
AcDbEntity
  8
RACCORDO
100
AcDbEllipse
 62
7
  6
CONTINUOUS
 10
7.2854613328
 20
20.6498286883
 30
0.0
 11
0.3
 21
0.0
 31
0.0
 40
0.0524077793
 41
0.0005251148
 42
1.5707963268
  0
ELLIPSE
  5
5AE
100
AcDbEntity
  8
RACCORDO
100
AcDbEllipse
 62
7
  6
CONTINUOUS
 10
9.9454787281
 20
10.0328306964
 30
0.0
 11
0.0
 21
0.45
 31
0.0
 40
0.0349207695
 41
0.0
 42
3.1415926536
  0
ELLIPSE
  5
5AF
100
AcDbEntity
  8
RACCORDO
100
AcDbEllipse
 62
7
  6
CONTINUOUS
 10
18.6504009479
 20
2.0414820648
 30
0.0
 11
-0.0
 21
0.5
 31
0.0
 40
0.0087268678
 41
-1.5707963268
 42
-0.0174532925
  0
ELLIPSE
  5
5B0
100
AcDbEntity
  8
RACCORDO
100
AcDbEllipse
 62
7
  6
CONTINUOUS
 10
6.9140500356
 20
-9.9671693036
 30
0.0
 11
0.0
 21
0.45
 31
0.0
 40
0.0349207695
 41
-3.1415926536
 42
0.0
  0
ELLIPSE
  5
5B1
100
AcDbEntity
  8
RACCORDO
100
AcDbEllipse
 62
7
  6
CONTINUOUS
 10
18.6521463215
 20
1.3828306964
 30
0.0
 11
0.0
 21
0.3
 31
0.0
 40
0.0087268678
 41
-3.1415926536
 42
-1.5707963268
  0
ELLIPSE
  5
5B2
100
AcDbEntity
  8
DRAFT
100
AcDbEllipse
 62
7
  6
CONTINUOUS
 10
22.2472817145
 20
7.8228306964
 30
0.0
 11
-0.0
 21
88.6
 31
0.0
 40
0.0174550649
 41
1.5427748951
 42
1.5517951834
  0
ELLIPSE
  5
5B3
100
AcDbEntity
  8
RACCORDO
100
AcDbEllipse
 62
7
  6
CONTINUOUS
 10
9.9454787281
 20
-9.9671693036
 30
0.0
 11
-0.0
 21
0.45
 31
0.0
 40
0.0349207695
 41
-0.0
 42
3.1415926536
  0
ELLIPSE
  5
5B4
100
AcDbEntity
  8
RACCORDO
100
AcDbEllipse
 62
7
  6
CONTINUOUS
 10
18.6521463215
 20
-1.3171693036
 30
0.0
 11
0.0
 21
0.3
 31
0.0
 40
0.0087268678
 41
-1.5707963268
 42
0.0
  0
ELLIPSE
  5
5B5
100
AcDbEntity
  8
RACCORDO
100
AcDbEllipse
 62
7
  6
CONTINUOUS
 10
18.6504009479
 20
-1.9758206721
 30
0.0
 11
0.0
 21
0.5
 31
0.0
 40
0.0087268678
 41
-3.1241393611
 42
-1.5707963268
  0
ELLIPSE
  5
5B6
100
AcDbEntity
  8
DRAFT
100
AcDbEllipse
 62
7
  6
CONTINUOUS
 10
22.9798000589
 20
0.0328306964
 30
0.0
 11
-0.0
 21
498.6
 31
0.0
 40
0.0087268678
 41
-4.7102830811
 42
-4.7072701229
  0
ELLIPSE
  5
5B7
100
AcDbEntity
  8
DRAFT
100
AcDbEllipse
 62
7
  6
CONTINUOUS
 10
22.9798000589
 20
0.0328306964
 30
0.0
 11
-0.0
 21
498.6
 31
0.0
 40
0.0087268678
 41
1.5656774694
 42
1.5686904275
  0
ELLIPSE
  5
5B8
100
AcDbEntity
  8
RACCORDO
100
AcDbEllipse
 62
7
  6
CONTINUOUS
 10
1.0857463801
 20
13.0328306964
 30
0.0
 11
-0.0
 21
30.0
 31
0.0
 40
0.0174550649
 41
-1.3635987802
 42
-1.3181160717
  0
ELLIPSE
  5
5B9
100
AcDbEntity
  8
RACCORDO
100
AcDbEllipse
 62
7
  6
CONTINUOUS
 10
1.5612966068
 20
20.6204701841
 30
0.0
 11
0.0
 21
0.4
 31
0.0
 40
0.0174550649
 41
1.4748032179
 42
2.9670597284
  0
ELLIPSE
  5
5BA
100
AcDbEntity
  8
RACCORDO
100
AcDbEllipse
 62
7
  6
CONTINUOUS
 10
1.0857463801
 20
-12.9671693036
 30
0.0
 11
-0.0
 21
30.0
 31
0.0
 40
0.0174550649
 41
-1.8234765819
 42
-1.789480621
  0
ELLIPSE
  5
5BB
100
AcDbEntity
  8
RACCORDO
100
AcDbEllipse
 62
7
  6
CONTINUOUS
 10
1.5612966068
 20
-20.5548087914
 30
0.0
 11
-0.0
 21
0.4
 31
0.0
 40
0.0174550649
 41
0.1745329252
 42
1.6667894357
  0
ELLIPSE
  5
5BC
100
AcDbEntity
  8
DRAFT
100
AcDbEllipse
 62
7
  6
CONTINUOUS
 10
9.9914083341
 20
7.8228306964
 30
0.0
 11
-0.0
 21
88.6
 31
0.0
 40
0.0349207695
 41
1.5427748951
 42
1.5509304603
  0
ELLIPSE
  5
5BD
100
AcDbEntity
  8
RACCORDO
100
AcDbEllipse
 62
7
  6
CONTINUOUS
 10
0.2801447212
 20
13.0328306964
 30
0.0
 11
-0.0
 21
30.0
 31
0.0
 40
0.0174550649
 41
1.3521120326
 42
1.6320207789
  0
ELLIPSE
  5
5BE
100
AcDbEntity
  8
RACCORDO
100
AcDbEllipse
 62
7
  6
CONTINUOUS
 10
-0.1954055055
 20
20.6204701841
 30
0.0
 11
-0.0
 21
0.4
 31
0.0
 40
0.0174550649
 41
-2.9670597284
 42
-1.4748032179
  0
ELLIPSE
  5
5BF
100
AcDbEntity
  8
RACCORDO
100
AcDbEllipse
 62
7
  6
CONTINUOUS
 10
-0.1954055055
 20
-20.5548087914
 30
0.0
 11
-0.0
 21
0.4
 31
0.0
 40
0.0174550649
 41
-1.6667894357
 42
-0.1745329252
  0
ELLIPSE
  5
5C0
100
AcDbEntity
  8
RACCORDO
100
AcDbEllipse
 62
7
  6
CONTINUOUS
 10
0.2801447212
 20
-12.9671693036
 30
0.0
 11
-0.0
 21
30.0
 31
0.0
 40
0.0174550649
 41
1.5095718747
 42
1.7779938734
  0
ELLIPSE
  5
5C1
100
AcDbEntity
  8
DRAFT
100
AcDbEllipse
 62
7
  6
CONTINUOUS
 10
-0.4167497016
 20
-10.5197209047
 30
0.0
 11
-0.0
 21
10.0
 31
0.0
 40
0.0174550649
 41
-1.6320207789
 42
-1.5427748951
  0
ELLIPSE
  5
5C2
100
AcDbEntity
  8
DRAFT
100
AcDbEllipse
 62
7
  6
CONTINUOUS
 10
1.3036440522
 20
-7.7571693036
 30
0.0
 11
-0.0
 21
88.6
 31
0.0
 40
0.0174550649
 41
-4.693387837
 42
-4.6843675487
  0
ELLIPSE
  5
5C3
100
AcDbEntity
  8
DRAFT
100
AcDbEllipse
 62
7
  6
CONTINUOUS
 10
8.458928794
 20
0.0328306964
 30
0.0
 11
-0.0
 21
498.6
 31
0.0
 40
0.0174550649
 41
1.5517951834
 42
1.5897974701
  0
ELLIPSE
  5
5C4
100
AcDbEntity
  8
DRAFT
100
AcDbEllipse
 62
7
  6
CONTINUOUS
 10
1.3036440522
 20
7.8228306964
 30
0.0
 11
-0.0
 21
88.6
 31
0.0
 40
0.0174550649
 41
1.5427748951
 42
1.5517951834
  0
ELLIPSE
  5
5C5
100
AcDbEntity
  8
DRAFT
100
AcDbEllipse
 62
7
  6
CONTINUOUS
 10
-0.4167497016
 20
10.5853822975
 30
0.0
 11
-0.0
 21
10.0
 31
0.0
 40
0.0174550649
 41
-1.5988177584
 42
-1.5095718747
  0
ELLIPSE
  5
5C6
100
AcDbEntity
  8
DRAFT
100
AcDbEllipse
 62
7
  6
CONTINUOUS
 10
-31.0494000304
 20
0.0328306964
 30
0.0
 11
-0.0
 21
498.6
 31
0.0
 40
0.0174550649
 41
-1.5807568453
 42
-1.5608358083
  0
ELLIPSE
  5
5C7
100
AcDbEntity
  8
RACCORDO
100
AcDbEllipse
 62
7
  6
CONTINUOUS
 10
-0.2225161155
 20
19.4327211959
 30
0.0
 11
-0.0
 21
0.5
 31
0.0
 40
0.0174550649
 41
0.1745329252
 42
1.3521120326
  0
ELLIPSE
  5
5C8
100
AcDbEntity
  8
RACCORDO
100
AcDbEllipse
 62
7
  6
CONTINUOUS
 10
-0.2152252545
 20
-18.9329970689
 30
0.0
 11
-0.0
 21
1.0
 31
0.0
 40
0.0174550649
 41
-4.5051914338
 42
-3.3161255788
  0
ELLIPSE
  5
5C9
100
AcDbEntity
  8
RACCORDO
100
AcDbEllipse
 62
7
  6
CONTINUOUS
 10
-21.9014788912
 20
-21.6799127595
 30
0.0
 11
0.1395400468
 21
0.4811552612
 31
-0.0
 40
0.9980421448
 41
1.8535880701
 42
3.4233358738
  0
ELLIPSE
  5
5CA
100
AcDbEntity
  8
RACCORDO
100
AcDbEllipse
 62
7
  6
CONTINUOUS
 10
-21.9014788912
 20
21.7455741523
 30
0.0
 11
-0.1395400468
 21
0.4811552612
 31
0.0
 40
0.9980421448
 41
-0.2817432202
 42
1.2880045835
  0
ELLIPSE
  5
5CB
100
AcDbEntity
  8
RACCORDO
100
AcDbEllipse
 62
7
  6
CONTINUOUS
 10
-0.6889923452
 20
-21.6799127595
 30
0.0
 11
0.1395400468
 21
-0.4811552612
 31
-0.0
 40
0.9980421448
 41
-0.2817432202
 42
1.2880045835
  0
ELLIPSE
  5
5CC
100
AcDbEntity
  8
RACCORDO
100
AcDbEllipse
 62
7
  6
CONTINUOUS
 10
-0.6889923452
 20
21.7455741523
 30
0.0
 11
-0.1395400468
 21
-0.4811552612
 31
0.0
 40
0.9980421448
 41
1.8535880701
 42
3.4233358738
  0
ELLIPSE
  5
5CD
100
AcDbEntity
  8
DRAFT
100
AcDbEllipse
 62
7
  6
CONTINUOUS
 10
-7.0085916659
 20
-7.7571693036
 30
0.0
 11
-0.0
 21
88.6
 31
0.0
 40
0.0349207695
 41
-4.6925231139
 42
-4.6843675487
  0
ELLIPSE
  5
5CE
100
AcDbEntity
  8
RACCORDO
100
AcDbEllipse
 62
7
  6
CONTINUOUS
 10
-15.2145386672
 20
-20.5841672955
 30
0.0
 11
0.3
 21
0.0
 31
0.0
 40
0.0524077793
 41
-1.5707963268
 42
-0.0005251148
  0
ELLIPSE
  5
5CF
100
AcDbEntity
  8
DRAFT
100
AcDbEllipse
 62
7
  6
CONTINUOUS
 10
-22.3877529508
 20
-7.7571693036
 30
0.0
 11
-0.0
 21
88.6
 31
0.0
 40
0.0174550649
 41
-1.7150615936
 42
-1.7147466861
  0
ELLIPSE
  5
5D0
100
AcDbEntity
  8
DRAFT
100
AcDbEllipse
 62
7
  6
CONTINUOUS
 10
-0.2027182855
 20
-7.7571693036
 30
0.0
 11
-0.0
 21
88.6
 31
0.0
 40
0.0174550649
 41
-4.5684386211
 42
-4.5681237136
  0
ELLIPSE
  5
5D1
100
AcDbEntity
  8
RACCORDO
100
AcDbEllipse
 62
7
  6
CONTINUOUS
 10
-7.4145386672
 20
-20.5841672955
 30
0.0
 11
0.3
 21
0.0
 31
0.0
 40
0.0524077793
 41
-1.5707963268
 42
-0.0005251148
  0
ELLIPSE
  5
5D2
100
AcDbEntity
  8
RACCORDO
100
AcDbEllipse
 62
7
  6
CONTINUOUS
 10
-7.4259325692
 20
20.6498286883
 30
0.0
 11
0.3
 21
-0.0
 31
0.0
 40
0.0524077793
 41
1.5707963268
 42
3.1410675388
  0
ELLIPSE
  5
5D3
100
AcDbEntity
  8
RACCORDO
100
AcDbEllipse
 62
7
  6
CONTINUOUS
 10
-7.0545212719
 20
-9.9671693036
 30
0.0
 11
0.0
 21
0.45
 31
0.0
 40
0.0349207695
 41
0.0
 42
3.1415926536
  0
ELLIPSE
  5
5D4
100
AcDbEntity
  8
DRAFT
100
AcDbEllipse
 62
7
  6
CONTINUOUS
 10
-29.5430376927
 20
0.0328306964
 30
0.0
 11
-0.0
 21
498.6
 31
0.0
 40
0.0174550649
 41
-1.5897974701
 42
-1.5804920101
  0
ELLIPSE
  5
5D5
100
AcDbEntity
  8
DRAFT
100
AcDbEllipse
 62
7
  6
CONTINUOUS
 10
-29.5430376927
 20
0.0328306964
 30
0.0
 11
-0.0
 21
498.6
 31
0.0
 40
0.0174550649
 41
-1.5611006435
 42
-1.5517951834
  0
ELLIPSE
  5
5D6
100
AcDbEntity
  8
DRAFT
100
AcDbEllipse
 62
7
  6
CONTINUOUS
 10
-18.78389069
 20
0.0328306964
 30
0.0
 11
-0.0
 21
1.25
 31
0.0
 40
0.0087268678
 41
2.5680795492
 42
6.8566984116
  0
ELLIPSE
  5
5D7
100
AcDbEntity
  8
DRAFT
100
AcDbEllipse
 62
7
  6
CONTINUOUS
 10
-22.3877529508
 20
7.8228306964
 30
0.0
 11
-0.0
 21
88.6
 31
0.0
 40
0.0174550649
 41
-1.4268459675
 42
-1.42653106
  0
ELLIPSE
  5
5D8
100
AcDbEntity
  8
RACCORDO
100
AcDbEllipse
 62
7
  6
CONTINUOUS
 10
-2.6995990521
 20
2.0414820648
 30
0.0
 11
-0.0
 21
0.5
 31
0.0
 40
0.0087268678
 41
-1.5707963268
 42
-0.0174532925
  0
ELLIPSE
  5
5D9
100
AcDbEntity
  8
RACCORDO
100
AcDbEllipse
 62
7
  6
CONTINUOUS
 10
-2.6978536785
 20
1.3828306964
 30
0.0
 11
-0.0
 21
0.3
 31
0.0
 40
0.0087268678
 41
-3.1415926536
 42
-1.5707963268
  0
ELLIPSE
  5
5DA
100
AcDbEntity
  8
DRAFT
100
AcDbEllipse
 62
7
  6
CONTINUOUS
 10
-22.3877529508
 20
7.8228306964
 30
0.0
 11
-0.0
 21
88.6
 31
0.0
 40
0.0174550649
 41
-1.5517951834
 42
-1.5427748951
  0
ELLIPSE
  5
5DB
100
AcDbEntity
  8
RACCORDO
100
AcDbEllipse
 62
7
  6
CONTINUOUS
 10
-2.6978536785
 20
-1.3171693036
 30
0.0
 11
-0.0
 21
0.3
 31
0.0
 40
0.0087268678
 41
-1.5707963268
 42
-0.0
  0
ELLIPSE
  5
5DC
100
AcDbEntity
  8
RACCORDO
100
AcDbEllipse
 62
7
  6
CONTINUOUS
 10
-2.6995990521
 20
-1.9758206721
 30
0.0
 11
-0.0
 21
0.5
 31
0.0
 40
0.0087268678
 41
-3.1241393611
 42
-1.5707963268
  0
ELLIPSE
  5
5DD
100
AcDbEntity
  8
DRAFT
100
AcDbEllipse
 62
7
  6
CONTINUOUS
 10
1.6298000589
 20
0.0328306964
 30
0.0
 11
-0.0
 21
498.6
 31
0.0
 40
0.0087268678
 41
-4.7102830811
 42
-4.7072701229
  0
ELLIPSE
  5
5DE
100
AcDbEntity
  8
DRAFT
100
AcDbEllipse
 62
7
  6
CONTINUOUS
 10
1.6298000589
 20
0.0328306964
 30
0.0
 11
-0.0
 21
498.6
 31
0.0
 40
0.0087268678
 41
1.5656774694
 42
1.5686904275
  0
ELLIPSE
  5
5DF
100
AcDbEntity
  8
DRAFT
100
AcDbEllipse
 62
7
  6
CONTINUOUS
 10
-7.0085916659
 20
7.8228306964
 30
0.0
 11
-0.0
 21
88.6
 31
0.0
 40
0.0349207695
 41
1.5427748951
 42
1.5509304603
  0
ELLIPSE
  5
5E0
100
AcDbEntity
  8
DRAFT
100
AcDbEllipse
 62
7
  6
CONTINUOUS
 10
-2.7065805463
 20
0.0328306964
 30
0.0
 11
-0.0
 21
1.25
 31
0.0
 40
0.0087268678
 41
5.7096722028
 42
9.9982910652
  0
ELLIPSE
  5
5E1
100
AcDbEntity
  8
DRAFT
100
AcDbEllipse
 62
7
  6
CONTINUOUS
 10
-10.1318795705
 20
7.8228306964
 30
0.0
 11
-0.0
 21
88.6
 31
0.0
 40
0.0349207695
 41
-1.5509304603
 42
-1.5427748951
  0
ELLIPSE
  5
5E2
100
AcDbEntity
  8
DRAFT
100
AcDbEllipse
 62
7
  6
CONTINUOUS
 10
-0.2027182855
 20
7.8228306964
 30
0.0
 11
-0.0
 21
88.6
 31
0.0
 40
0.0174550649
 41
1.42653106
 42
1.4268459675
  0
ELLIPSE
  5
5E3
100
AcDbEntity
  8
DRAFT
100
AcDbEllipse
 62
7
  6
CONTINUOUS
 10
-21.3642536199
 20
-12.9671693036
 30
0.0
 11
-0.0
 21
30.0
 31
0.0
 40
0.0174550649
 41
-1.8234765819
 42
-1.5095718747
  0
ELLIPSE
  5
5E4
100
AcDbEntity
  8
DRAFT
100
AcDbEllipse
 62
7
  6
CONTINUOUS
 10
-21.3642536199
 20
13.0328306964
 30
0.0
 11
-0.0
 21
30.0
 31
0.0
 40
0.0174550649
 41
-1.6320207789
 42
-1.3181160717
  0
ELLIPSE
  5
5E5
100
AcDbEntity
  8
DRAFT
100
AcDbEllipse
 62
7
  6
CONTINUOUS
 10
-20.6673591971
 20
-10.5197209047
 30
0.0
 11
-0.0
 21
10.0
 31
0.0
 40
0.0174550649
 41
1.5427748951
 42
1.6320207789
  0
ELLIPSE
  5
5E6
100
AcDbEntity
  8
DRAFT
100
AcDbEllipse
 62
7
  6
CONTINUOUS
 10
-10.4504278296
 20
-10.5197209047
 30
0.0
 11
-0.0
 21
10.0
 31
0.0
 40
0.0349207695
 41
-1.5605409869
 42
-1.5427748951
  0
ELLIPSE
  5
5E7
100
AcDbEntity
  8
RACCORDO
100
AcDbEllipse
 62
7
  6
CONTINUOUS
 10
-15.2259325692
 20
20.6498286883
 30
0.0
 11
0.3
 21
0.0
 31
0.0
 40
0.0524077793
 41
1.5707963268
 42
3.1410675388
  0
ELLIPSE
  5
5E8
100
AcDbEntity
  8
DRAFT
100
AcDbEllipse
 62
7
  6
CONTINUOUS
 10
-6.6900434068
 20
-10.5197209047
 30
0.0
 11
-0.0
 21
10.0
 31
0.0
 40
0.0349207695
 41
1.5427748951
 42
1.5605409869
  0
ELLIPSE
  5
5E9
100
AcDbEntity
  8
DRAFT
100
AcDbEllipse
 62
7
  6
CONTINUOUS
 10
-20.6673591971
 20
10.5853822975
 30
0.0
 11
-0.0
 21
10.0
 31
0.0
 40
0.0174550649
 41
1.5095718747
 42
1.5988177584
  0
ELLIPSE
  5
5EA
100
AcDbEntity
  8
DRAFT
100
AcDbEllipse
 62
7
  6
CONTINUOUS
 10
-6.6900434068
 20
10.5853822975
 30
0.0
 11
-0.0
 21
10.0
 31
0.0
 40
0.0349207695
 41
-4.7021336405
 42
-4.6843675487
  0
ELLIPSE
  5
5EB
100
AcDbEntity
  8
DRAFT
100
AcDbEllipse
 62
7
  6
CONTINUOUS
 10
-10.4504278296
 20
10.5853822975
 30
0.0
 11
-0.0
 21
10.0
 31
0.0
 40
0.0349207695
 41
-1.5988177584
 42
-1.5810516667
  0
ELLIPSE
  5
5EC
100
AcDbEntity
  8
RACCORDO
100
AcDbEllipse
 62
7
  6
CONTINUOUS
 10
-1.7288784532
 20
19.4327211959
 30
0.0
 11
-0.0
 21
0.5
 31
0.0
 40
0.0174550649
 41
0.1745329252
 42
1.3521120326
  0
ELLIPSE
  5
5ED
100
AcDbEntity
  8
RACCORDO
100
AcDbEllipse
 62
7
  6
CONTINUOUS
 10
-1.7215875922
 20
-18.9329970689
 30
0.0
 11
0.0
 21
1.0
 31
0.0
 40
0.0174550649
 41
-4.5051914338
 42
-3.3161255788
  0
ELLIPSE
  5
5EE
100
AcDbEntity
  8
RACCORDO
100
AcDbEllipse
 62
7
  6
CONTINUOUS
 10
-7.4145386672
 20
20.6498286883
 30
0.0
 11
0.3
 21
0.0
 31
0.0
 40
0.0524077793
 41
0.0005251148
 42
1.5707963268
  0
ELLIPSE
  5
5EF
100
AcDbEntity
  8
RACCORDO
100
AcDbEllipse
 62
7
  6
CONTINUOUS
 10
-15.2145386672
 20
20.6498286883
 30
0.0
 11
0.3
 21
-0.0
 31
0.0
 40
0.0524077793
 41
0.0005251148
 42
1.5707963268
  0
ELLIPSE
  5
5F0
100
AcDbEntity
  8
RACCORDO
100
AcDbEllipse
 62
7
  6
CONTINUOUS
 10
-15.2259325692
 20
-20.5841672955
 30
0.0
 11
0.3
 21
0.0
 31
0.0
 40
0.0524077793
 41
-3.1410675388
 42
-1.5707963268
  0
ELLIPSE
  5
5F1
100
AcDbEntity
  8
RACCORDO
100
AcDbEllipse
 62
7
  6
CONTINUOUS
 10
-7.4259325692
 20
-20.5841672955
 30
0.0
 11
0.3
 21
-0.0
 31
0.0
 40
0.0524077793
 41
-3.1410675388
 42
-1.5707963268
  0
ELLIPSE
  5
5F2
100
AcDbEntity
  8
RACCORDO
100
AcDbEllipse
 62
7
  6
CONTINUOUS
 10
-10.0859499644
 20
-9.9671693036
 30
0.0
 11
-0.0
 21
0.45
 31
0.0
 40
0.0349207695
 41
-3.1415926536
 42
-0.0
  0
ELLIPSE
  5
5F3
100
AcDbEntity
  8
RACCORDO
100
AcDbEllipse
 62
7
  6
CONTINUOUS
 10
-18.7908721843
 20
-1.9758206721
 30
0.0
 11
0.0
 21
0.5
 31
0.0
 40
0.0087268678
 41
1.5707963268
 42
3.1241393611
  0
ELLIPSE
  5
5F4
100
AcDbEntity
  8
RACCORDO
100
AcDbEllipse
 62
7
  6
CONTINUOUS
 10
-7.0545212719
 20
10.0328306964
 30
0.0
 11
-0.0
 21
0.45
 31
0.0
 40
0.0349207695
 41
0.0
 42
3.1415926536
  0
ELLIPSE
  5
5F5
100
AcDbEntity
  8
RACCORDO
100
AcDbEllipse
 62
7
  6
CONTINUOUS
 10
-18.7926175578
 20
-1.3171693036
 30
0.0
 11
-0.0
 21
0.3
 31
0.0
 40
0.0087268678
 41
0.0
 42
1.5707963268
  0
ELLIPSE
  5
5F6
100
AcDbEntity
  8
DRAFT
100
AcDbEllipse
 62
7
  6
CONTINUOUS
 10
-22.3877529508
 20
-7.7571693036
 30
0.0
 11
-0.0
 21
88.6
 31
0.0
 40
0.0174550649
 41
-1.5988177584
 42
-1.5897974701
  0
ELLIPSE
  5
5F7
100
AcDbEntity
  8
RACCORDO
100
AcDbEllipse
 62
7
  6
CONTINUOUS
 10
-10.0859499644
 20
10.0328306964
 30
0.0
 11
-0.0
 21
0.45
 31
0.0
 40
0.0349207695
 41
-3.1415926536
 42
-0.0
  0
ELLIPSE
  5
5F8
100
AcDbEntity
  8
RACCORDO
100
AcDbEllipse
 62
7
  6
CONTINUOUS
 10
-18.7926175578
 20
1.3828306964
 30
0.0
 11
0.0
 21
0.3
 31
0.0
 40
0.0087268678
 41
-4.7123889804
 42
-3.1415926536
  0
ELLIPSE
  5
5F9
100
AcDbEntity
  8
RACCORDO
100
AcDbEllipse
 62
7
  6
CONTINUOUS
 10
-18.7908721843
 20
2.0414820648
 30
0.0
 11
-0.0
 21
0.5
 31
0.0
 40
0.0087268678
 41
0.0174532925
 42
1.5707963268
  0
ELLIPSE
  5
5FA
100
AcDbEntity
  8
DRAFT
100
AcDbEllipse
 62
7
  6
CONTINUOUS
 10
-23.1202712953
 20
0.0328306964
 30
0.0
 11
-0.0
 21
498.6
 31
0.0
 40
0.0087268678
 41
-1.5686904275
 42
-1.5656774694
  0
ELLIPSE
  5
5FB
100
AcDbEntity
  8
DRAFT
100
AcDbEllipse
 62
7
  6
CONTINUOUS
 10
-23.1202712953
 20
0.0328306964
 30
0.0
 11
-0.0
 21
498.6
 31
0.0
 40
0.0087268678
 41
-1.5759151842
 42
-1.5729022261
  0
ELLIPSE
  5
5FC
100
AcDbEntity
  8
RACCORDO
100
AcDbEllipse
 62
7
  6
CONTINUOUS
 10
-1.2262176164
 20
-12.9671693036
 30
0.0
 11
-0.0
 21
30.0
 31
0.0
 40
0.0174550649
 41
-4.5051914338
 42
-4.4597087252
  0
ELLIPSE
  5
5FD
100
AcDbEntity
  8
RACCORDO
100
AcDbEllipse
 62
7
  6
CONTINUOUS
 10
-1.7017678432
 20
-20.5548087914
 30
0.0
 11
-0.0
 21
0.4
 31
0.0
 40
0.0174550649
 41
-1.6667894357
 42
-0.1745329252
  0
ELLIPSE
  5
5FE
100
AcDbEntity
  8
RACCORDO
100
AcDbEllipse
 62
7
  6
CONTINUOUS
 10
-1.2262176164
 20
13.0328306964
 30
0.0
 11
-0.0
 21
30.0
 31
0.0
 40
0.0174550649
 41
1.3181160717
 42
1.3521120326
  0
ELLIPSE
  5
5FF
100
AcDbEntity
  8
RACCORDO
100
AcDbEllipse
 62
7
  6
CONTINUOUS
 10
-1.7017678432
 20
20.6204701841
 30
0.0
 11
-0.0
 21
0.4
 31
0.0
 40
0.0174550649
 41
-2.9670597284
 42
-1.4748032179
  0
ELLIPSE
  5
600
100
AcDbEntity
  8
DRAFT
100
AcDbEllipse
 62
7
  6
CONTINUOUS
 10
-10.1318795705
 20
-7.7571693036
 30
0.0
 11
-0.0
 21
88.6
 31
0.0
 40
0.0349207695
 41
-1.5988177584
 42
-1.5906621933
  0
ENDSEC
  0
SECTION
  2
OBJECTS
  0
DICTIONARY
  5
C
100
AcDbDictionary
280
0
281
1
  3
ACAD_GROUP
350
D
  3
ACAD_MLINESTYLE
350
17
  3
ACAD_LAYOUT
350
1A
  3
ACAD_PLOTSETTINGS
350
19
  3
ACAD_PLOTSTYLENAME
350
E
  0
DICTIONARY
  5
D
102
{ACAD_REACTORS
330
C
102
}
100
AcDbDictionary
280
0
281
1
  0
ACDBDICTIONARYWDFLT
  5
E
102
{ACAD_REACTORS
330
C
102
}
100
AcDbDictionary
281
1
  3
Normal
350
F
100
AcDbDictionaryWithDefault
340
F
  0
DICTIONARY
  5
17
102
{ACAD_REACTORS
330
C
102
}
100
AcDbDictionary
280
0
281
1
  3
Standard
350
18
  0
DICTIONARY
  5
19
102
{ACAD_REACTORS
330
C
102
}
100
AcDbDictionary
281
1
  0
DICTIONARY
  5
1A
102
{ACAD_REACTORS
330
C
102
}
100
AcDbDictionary
281
1
  3
Model
350
601
  3
Layout1
350
602
  0
ACDBPLACEHOLDER
  5
F
102
{ACAD_REACTORS
330
E
102
}
  0
MLINESTYLE
  5
18
102
{ACAD_REACTORS
330
17
102
}
100
AcDbMlineStyle
  2
STANDARD
 70
0
  3

 62
256
 51
90.0
 52
90.0
 71
2
 49
0.5
 62
256
  6
BYLAYER
 49
-0.5
 62
256
  6
BYLAYER
  0
LAYOUT
  5
601
102
{ACAD_REACTORS
330
1A
102
}
100
AcDbPlotSettings
  1

  2
none_device
  4
ISO_A4_(297.00_x_210.00_MM)
  6

 40
0.0
 41
0.0
 42
0.0
 43
0.0
 44
297.0
 45
210.0
 46
0.0
 47
0.0
 48
0.0
 49
0.0
140
0.0
141
0.0
142
1.0
143
1.0
 70
1024
 72
1
 73
0
 74
0
  7

 75
0
147
1.0
148
0.0
149
0.0
100
AcDbLayout
  1
Model
 70
0
 71
0
 10
0.0
 20
0.0
 11
297.0
 21
210.0
 12
0.0
 22
0.0
 32
0.0
 14
0.0
 24
0.0
 34
0.0
 15
0.0
 25
0.0
 35
0.0
146
0.0
 13
0.0
 23
0.0
 33
0.0
 16
1.0
 26
0.0
 36
0.0
 17
0.0
 27
1.0
 37
0.0
 76
0
330
20F
345
0
346
0
  0
LAYOUT
  5
602
102
{ACAD_REACTORS
330
1A
102
}
100
AcDbPlotSettings
  1

  2
none_device
  4
ISO_A4_(297.00_x_210.00_MM)
  6

 40
0.0
 41
0.0
 42
0.0
 43
0.0
 44
297.0
 45
210.0
 46
0.0
 47
0.0
 48
0.0
 49
0.0
140
0.0
141
0.0
142
1.0
143
1.0
 70
0
 72
1
 73
0
 74
0
  7

 75
0
147
1.0
148
0.0
149
0.0
100
AcDbLayout
  1
Layout1
 70
0
 71
1
 10
0.0
 20
0.0
 11
297.0
 21
210.0
 12
0.0
 22
0.0
 32
0.0
 14
0.0
 24
0.0
 34
0.0
 15
0.0
 25
0.0
 35
0.0
146
0.0
 13
0.0
 23
0.0
 33
0.0
 16
1.0
 26
0.0
 36
0.0
 17
0.0
 27
1.0
 37
0.0
 76
0
330
210
345
0
346
0
  0
ENDSEC
  0
EOF
