  0
SECTION
  2
HEADER
  9
$ACADVER
  1
AC1015
  9
$DWGCODEPAGE
  3
ANSI_1252
  9
$EXTMAX
 10
297.0
 20
210.0
 30
0.0
  9
$EXTMIN
 10
0.0
 20
0.0
 30
0.0
  9
$LIMMIN
 10
0.0
 20
0.0
  9
$LIMMAX
 10
297.0
 20
210.0
  9
$VIEWCTR
 10
148.5
 20
105.0
  9
$VIEWSIZE
 40
210.0
  9
$CLAYER
  8
0
  9
$LTSCALE
 40
16.335
  9
$CELTYPE
  6
BYLAYER
  9
$DIMSCALE
 40
1.0
  9
$DIMASZ
 40
3.0
  9
$DIMEXO
 40
1.85625
  9
$DIMDLI
 40
11.286
  9
$DIMEXE
 40
5.346
  9
$DIMCEN
 40
2.673
  9
$DIMLFAC
 40
1.0
  9
$DIMBLK
  1
_FILLED
  9
$DIMTXT
 40
3.0
  9
$DIMTOL
 70
1
  9
$DIMLIM
 70
0
  9
$DIMTFAC
 40
1.0
  9
$DIMTP
 40
0.01
  9
$DIMTM
 40
0.01
  9
$PDMODE
 70
3
  9
$PDSIZE
 40
3.0
  9
$HANDSEED
  5
60C
  9
$TILEMODE
 70
1
  9
$MEASUREMENT
 70
1
  9
$INSUNITS
 70
4
  0
ENDSEC
  0
SECTION
  2
CLASSES
  0
CLASS
  1
ACDBDICTIONARYWDFLT
  2
AcDbDictionaryWithDefault
  3
AutoCAD 2000
 90
0
280
0
281
0
  0
CLASS
  1
ACDBPLACEHOLDER
  2
AcDbPlaceHolder
  3
AutoCAD 2000
 90
0
280
0
281
0
  0
CLASS
  1
LAYOUT
  2
AcDbLayout
  3
AutoCAD 2000
 90
0
280
0
281
0
  0
ENDSEC
  0
SECTION
  2
TABLES
  0
TABLE
  2
VPORT
  5
8
100
AcDbSymbolTable
 70
2
  0
VPORT
  5
1F4
100
AcDbSymbolTableRecord
100
AcDbViewportTableRecord
  2
*ACTIVE
 70
0
 10
0.0
 20
0.0
 11
1.0
 21
1.0
 12
148.5
 22
105.0
 13
0.0
 23
0.0
 14
1.0
 24
1.0
 15
0.0
 25
0.0
 16
0.0
 26
0.0
 36
1.0
 17
0.0
 27
0.0
 37
0.0
 40
210.0
 41
1.4142857143
 42
50.0
 43
0.0
 44
0.0
 50
0.0
 51
0.0
 71
0
 72
100
 73
1
 74
1
 75
0
 76
0
 77
0
 78
0
  0
ENDTAB
  0
TABLE
  2
LTYPE
  5
5
100
AcDbSymbolTable
 70
6
  0
LTYPE
  5
14
100
AcDbSymbolTableRecord
100
AcDbLinetypeTableRecord
  2
BYBLOCK
 70
0
  3

 72
65
 73
0
 40
0.0
  0
LTYPE
  5
15
100
AcDbSymbolTableRecord
100
AcDbLinetypeTableRecord
  2
BYLAYER
 70
0
  3

 72
65
 73
0
 40
0.0
  0
LTYPE
  5
16
100
AcDbSymbolTableRecord
100
AcDbLinetypeTableRecord
  2
CONTINUOUS
 70
64
  3
Solid line
 72
65
 73
0
 40
0.0
  0
LTYPE
  5
1F5
100
AcDbSymbolTableRecord
100
AcDbLinetypeTableRecord
  2
CENTER
 70
64
  3
____ _ ____ _ ____ _ ____ _ ____ _ ____ _ ____
 72
65
 73
4
 40
0.6
 49
0.375
 74
0
 49
-0.075
 74
0
 49
0.075
 74
0
 49
-0.075
 74
0
  0
LTYPE
  5
1F6
100
AcDbSymbolTableRecord
100
AcDbLinetypeTableRecord
  2
HIDDEN
 70
64
  3
- - - - - - - - - - - - - - - - - - - -
 72
65
 73
2
 40
0.2
 49
0.1
 74
0
 49
-0.1
 74
0
  0
LTYPE
  5
1F7
100
AcDbSymbolTableRecord
100
AcDbLinetypeTableRecord
  2
PHANTOM
 70
64
  3
_____ _ _ _____ _ _ _____ _ _ _____
 72
65
 73
6
 40
0.8
 49
0.45
 74
0
 49
-0.05
 74
0
 49
0.1
 74
0
 49
-0.05
 74
0
 49
0.1
 74
0
 49
-0.05
 74
0
  0
LTYPE
  5
1F8
100
AcDbSymbolTableRecord
100
AcDbLinetypeTableRecord
  2
DOT
 70
64
  3
. . . . . . . . . . . . . . . . . . . .
 72
65
 73
2
 40
0.2
 49
0.1
 74
0
 49
-0.1
 74
0
  0
LTYPE
  5
1F9
100
AcDbSymbolTableRecord
100
AcDbLinetypeTableRecord
  2
DASHED
 70
64
  3
- - - - - - - - - - - - - - - - - - - -
 72
65
 73
2
 40
0.2
 49
0.1
 74
0
 49
-0.1
 74
0
  0
ENDTAB
  0
TABLE
  2
LAYER
  5
2
100
AcDbSymbolTable
 70
36
  0
LAYER
  5
10
100
AcDbSymbolTableRecord
100
AcDbLayerTableRecord
  2
0
 70
0
 62
7
  6
CONTINUOUS
370
-3
390
F
  0
LAYER
  5
1FA
100
AcDbSymbolTableRecord
100
AcDbLayerTableRecord
  2
DEFAULT_1
 70
0
 62
7
  6
CENTER
370
-3
390
F
  0
LAYER
  5
1FB
100
AcDbSymbolTableRecord
100
AcDbLayerTableRecord
  2
DEFAULT_2
 70
0
 62
7
  6
HIDDEN
370
-3
390
F
  0
LAYER
  5
1FC
100
AcDbSymbolTableRecord
100
AcDbLayerTableRecord
  2
DEFAULT_3
 70
0
 62
7
  6
PHANTOM
370
-3
390
F
  0
LAYER
  5
1FD
100
AcDbSymbolTableRecord
100
AcDbLayerTableRecord
  2
ASSI
 70
0
 62
7
  6
CONTINUOUS
370
-3
390
F
  0
LAYER
  5
1FE
100
AcDbSymbolTableRecord
100
AcDbLayerTableRecord
  2
COLOR9
 70
0
 62
7
  6
CONTINUOUS
370
-3
390
F
  0
LAYER
  5
1FF
100
AcDbSymbolTableRecord
100
AcDbLayerTableRecord
  2
COORDINATE
 70
0
 62
7
  6
CONTINUOUS
370
-3
390
F
  0
LAYER
  5
200
100
AcDbSymbolTableRecord
100
AcDbLayerTableRecord
  2
COORD_ORIGINE
 70
0
 62
7
  6
CONTINUOUS
370
-3
390
F
  0
LAYER
  5
201
100
AcDbSymbolTableRecord
100
AcDbLayerTableRecord
  2
COPY_PUBLISH
 70
0
 62
7
  6
CONTINUOUS
370
-3
390
F
  0
LAYER
  5
202
100
AcDbSymbolTableRecord
100
AcDbLayerTableRecord
  2
COSMETIC
 70
0
 62
7
  6
CONTINUOUS
370
-3
390
F
  0
LAYER
  5
203
100
AcDbSymbolTableRecord
100
AcDbLayerTableRecord
  2
CURVE
 70
0
 62
7
  6
CONTINUOUS
370
-3
390
F
  0
LAYER
  5
204
100
AcDbSymbolTableRecord
100
AcDbLayerTableRecord
  2
DRAFT
 70
0
 62
7
  6
CONTINUOUS
370
-3
390
F
  0
LAYER
  5
205
100
AcDbSymbolTableRecord
100
AcDbLayerTableRecord
  2
IGS_SCRITTE
 70
0
 62
7
  6
CONTINUOUS
370
-3
390
F
  0
LAYER
  5
206
100
AcDbSymbolTableRecord
100
AcDbLayerTableRecord
  2
IMPORT
 70
0
 62
7
  6
CONTINUOUS
370
-3
390
F
  0
LAYER
  5
207
100
AcDbSymbolTableRecord
100
AcDbLayerTableRecord
  2
IMPORT_IGES
 70
0
 62
7
  6
CONTINUOUS
370
-3
390
F
  0
LAYER
  5
208
100
AcDbSymbolTableRecord
100
AcDbLayerTableRecord
  2
INTFCLR_2
 70
0
 62
7
  6
CONTINUOUS
370
-3
390
F
  0
LAYER
  5
209
100
AcDbSymbolTableRecord
100
AcDbLayerTableRecord
  2
INTF_2
 70
0
 62
7
  6
CONTINUOUS
370
-3
390
F
  0
LAYER
  5
20A
100
AcDbSymbolTableRecord
100
AcDbLayerTableRecord
  2
INTF_YELLOW
 70
0
 62
7
  6
CONTINUOUS
370
-3
390
F
  0
LAYER
  5
20B
100
AcDbSymbolTableRecord
100
AcDbLayerTableRecord
  2
PIANI
 70
0
 62
7
  6
CONTINUOUS
370
-3
390
F
  0
LAYER
  5
20C
100
AcDbSymbolTableRecord
100
AcDbLayerTableRecord
  2
PIANI_ORIGINE
 70
0
 62
7
  6
CONTINUOUS
370
-3
390
F
  0
LAYER
  5
20D
100
AcDbSymbolTableRecord
100
AcDbLayerTableRecord
  2
PIANI_RIFERIMENTO
 70
0
 62
7
  6
CONTINUOUS
370
-3
390
F
  0
LAYER
  5
20E
100
AcDbSymbolTableRecord
100
AcDbLayerTableRecord
  2
RACCORDO
 70
0
 62
7
  6
CONTINUOUS
370
-3
390
F
  0
LAYER
  5
20F
100
AcDbSymbolTableRecord
100
AcDbLayerTableRecord
  2
SMUSSO
 70
0
 62
7
  6
CONTINUOUS
370
-3
390
F
  0
LAYER
  5
210
100
AcDbSymbolTableRecord
100
AcDbLayerTableRecord
  2
SNAPLINE
 70
0
 62
7
  6
CONTINUOUS
370
-3
390
F
  0
LAYER
  5
211
100
AcDbSymbolTableRecord
100
AcDbLayerTableRecord
  2
SUPERFICI
 70
0
 62
7
  6
CONTINUOUS
370
-3
390
F
  0
LAYER
  5
212
100
AcDbSymbolTableRecord
100
AcDbLayerTableRecord
  2
TRASH
 70
0
 62
7
  6
CONTINUOUS
370
-3
390
F
  0
LAYER
  5
213
100
AcDbSymbolTableRecord
100
AcDbLayerTableRecord
  2
WHITE
 70
0
 62
7
  6
CONTINUOUS
370
-3
390
F
  0
LAYER
  5
214
100
AcDbSymbolTableRecord
100
AcDbLayerTableRecord
  2
XSEC_DATUMS
 70
0
 62
7
  6
CONTINUOUS
370
-3
390
F
  0
ENDTAB
  0
TABLE
  2
STYLE
  5
3
100
AcDbSymbolTable
 70
1
  0
STYLE
  5
11
100
AcDbSymbolTableRecord
100
AcDbTextStyleTableRecord
  2
STANDARD
 70
0
 40
0.0
 41
0.8
 50
0.0
 71
0
 42
0.2
  3
txt
  4

  0
STYLE
  5
215
100
AcDbSymbolTableRecord
100
AcDbTextStyleTableRecord
  2
TEXTSTYLE_1
 70
0
 40
0.0
 41
0.8
 50
0.0
 71
0
 42
0.2
  3
gdt
  4

  0
ENDTAB
  0
TABLE
  2
VIEW
  5
6
100
AcDbSymbolTable
 70
0
  0
ENDTAB
  0
TABLE
  2
UCS
  5
7
100
AcDbSymbolTable
 70
0
  0
ENDTAB
  0
TABLE
  2
APPID
  5
9
100
AcDbSymbolTable
 70
1
  0
APPID
  5
216
100
AcDbSymbolTableRecord
100
AcDbRegAppTableRecord
  2
ACAD
 70
0
  0
ENDTAB
  0
TABLE
  2
BLOCK_RECORD
  5
1
100
AcDbSymbolTable
 70
0
  0
BLOCK_RECORD
  5
217
100
AcDbSymbolTableRecord
100
AcDbBlockTableRecord
  2
*Model_Space
  0
BLOCK_RECORD
  5
218
100
AcDbSymbolTableRecord
100
AcDbBlockTableRecord
  2
*Paper_Space
  0
ENDTAB
  0
TABLE
  2
DIMSTYLE
  5
A
100
AcDbSymbolTable
 70
1
100
AcDbDimStyleTable
 71
0
  0
DIMSTYLE
105
219
100
AcDbSymbolTableRecord
100
AcDbDimStyleTableRecord
  2
STANDARD
 70
0
  3

  4

 40
1.0
 41
3.0
 42
0.0625
 43
0.38
 44
0.18
 45
0.0
 46
0.0
 47
0.01
 48
0.01
140
3.0
141
0.09
142
0.0
143
25.4
144
1.0
145
0.0
146
1.0
147
0.09
 71
1.0
 72
0.0
 73
0
 74
0
 75
0
 76
0
 77
1
 78
8
170
0
171
2
172
0
173
0
174
0
175
0
176
0
177
0
178
0
270
2
271
2
272
2
273
2
274
2
275
0
280
0
281
0
282
0
283
1
284
8
285
0
286
0
287
3
288
0
340
11
  0
ENDTAB
  0
ENDSEC
  0
SECTION
  2
BLOCKS
  0
BLOCK
  5
20
100
AcDbEntity
  8
0
100
AcDbBlockBegin
  2
*Model_Space
 70
0
 10
0.0
 20
0.0
 30
0.0
  3
*Model_Space
  1

  0
ENDBLK
  5
21
100
AcDbEntity
  8
0
100
AcDbBlockEnd
  0
BLOCK
  5
1C
100
AcDbEntity
  8
0
100
AcDbBlockBegin
  2
*Paper_Space
 70
0
 10
0.0
 20
0.0
 30
0.0
  3
*Paper_Space
  1

  0
ENDBLK
  5
1D
100
AcDbEntity
  8
0
100
AcDbBlockEnd
  0
ENDSEC
  0
SECTION
  2
ENTITIES
  0
LINE
  5
21A
100
AcDbEntity
  8
0
100
AcDbLine
 62
7
  6
CONTINUOUS
 10
-2.584265172
 20
-22.1947348166
 11
-2.3077350269
 21
-22.1696065528
  0
LINE
  5
21B
100
AcDbEntity
  8
0
100
AcDbLine
 62
7
  6
CONTINUOUS
 10
-10.6116132542
 20
-22.1947348166
 11
-2.584265172
 21
-22.1947348166
  0
LINE
  5
21C
100
AcDbEntity
  8
0
100
AcDbLine
 62
7
  6
CONTINUOUS
 10
2.584265172
 20
-22.1947348166
 11
10.6116132542
 21
-22.1947348166
  0
LINE
  5
21D
100
AcDbEntity
  8
0
100
AcDbLine
 62
7
  6
CONTINUOUS
 10
-2.1345299462
 20
-22.1643601773
 11
2.1345299462
 21
-22.1643601773
  0
LINE
  5
21E
100
AcDbEntity
  8
0
100
AcDbLine
 62
7
  6
CONTINUOUS
 10
2.584265172
 20
-22.1947348166
 11
2.3077350269
 21
-22.1696065528
  0
LINE
  5
21F
100
AcDbEntity
  8
0
100
AcDbLine
 62
7
  6
CONTINUOUS
 10
-9.5844404066
 20
-20.636381153
 11
-2.584265172
 21
-20.636381153
  0
LINE
  5
220
100
AcDbEntity
  8
0
100
AcDbLine
 62
7
  6
CONTINUOUS
 10
2.584265172
 20
-20.636381153
 11
9.5844404066
 21
-20.636381153
  0
LINE
  5
221
100
AcDbEntity
  8
0
100
AcDbLine
 62
7
  6
CONTINUOUS
 10
-2.1345299462
 20
-20.5658231586
 11
2.1345299462
 21
-20.5658231586
  0
LINE
  5
222
100
AcDbEntity
  8
RACCORDO
100
AcDbLine
 62
7
  6
CONTINUOUS
 10
5.1026066368
 20
-20.4307601417
 11
4.8973933632
 21
-20.4307601417
  0
LINE
  5
223
100
AcDbEntity
  8
RACCORDO
100
AcDbLine
 62
7
  6
CONTINUOUS
 10
-4.8973933632
 20
-20.4307601417
 11
-5.1026066368
 21
-20.4307601417
  0
LINE
  5
224
100
AcDbEntity
  8
0
100
AcDbLine
 62
253
  6
CONTINUOUS
 10
9.5406070808
 20
-20.3280433908
 11
5.4073005555
 21
-20.3280433908
  0
LINE
  5
225
100
AcDbEntity
  8
0
100
AcDbLine
 62
253
  6
CONTINUOUS
 10
4.5926994445
 20
-20.3280433908
 11
-4.5926994445
 21
-20.3280433908
  0
LINE
  5
226
100
AcDbEntity
  8
0
100
AcDbLine
 62
253
  6
CONTINUOUS
 10
-5.4073005555
 20
-20.3280433908
 11
-9.5406070808
 21
-20.3280433908
  0
LINE
  5
227
100
AcDbEntity
  8
0
100
AcDbLine
 62
253
  6
CONTINUOUS
 10
4.5904004454
 20
-20.0302795453
 11
-4.5904004454
 21
-20.0302795453
  0
LINE
  5
228
100
AcDbEntity
  8
0
100
AcDbLine
 62
253
  6
CONTINUOUS
 10
5.4095995546
 20
-20.0302795453
 11
9.8405613894
 21
-20.0302795453
  0
LINE
  5
229
100
AcDbEntity
  8
0
100
AcDbLine
 62
253
  6
CONTINUOUS
 10
-5.4095995546
 20
-20.0302795453
 11
-9.8405613894
 21
-20.0302795453
  0
LINE
  5
22A
100
AcDbEntity
  8
0
100
AcDbLine
 62
7
  6
CONTINUOUS
 10
-9.1946808591
 20
-18.0968751073
 11
-9.0989361674
 21
-18.125
  0
LINE
  5
22B
100
AcDbEntity
  8
0
100
AcDbLine
 62
7
  6
CONTINUOUS
 10
-9.0989361674
 20
-17.9843748927
 11
-9.162765947
 21
-17.95625
  0
LINE
  5
22C
100
AcDbEntity
  8
0
100
AcDbLine
 62
7
  6
CONTINUOUS
 10
-8.364893657
 20
-17.95625
 11
-8.4925532162
 21
-17.8999998927
  0
LINE
  5
22D
100
AcDbEntity
  8
0
100
AcDbLine
 62
7
  6
CONTINUOUS
 10
-9.2904255286
 20
-18.040625
 11
-9.1946808591
 21
-18.0968751073
  0
LINE
  5
22E
100
AcDbEntity
  8
0
100
AcDbLine
 62
7
  6
CONTINUOUS
 10
-8.5882978857
 20
-18.0125001073
 11
-8.4925532162
 21
-18.0687498927
  0
LINE
  5
22F
100
AcDbEntity
  8
0
100
AcDbLine
 62
7
  6
CONTINUOUS
 10
-2.584265172
 20
-20.636381153
 11
-2.3077350269
 21
-20.578010093
  0
LINE
  5
230
100
AcDbEntity
  8
RACCORDO
100
AcDbLine
 62
253
  6
CONTINUOUS
 10
4.5974047863
 20
-19.4973933632
 11
5.4025952137
 21
-19.4973933632
  0
LINE
  5
231
100
AcDbEntity
  8
RACCORDO
100
AcDbLine
 62
253
  6
CONTINUOUS
 10
-4.5974047863
 20
-19.4973933632
 11
-5.4025952137
 21
-19.4973933632
  0
LINE
  5
232
100
AcDbEntity
  8
RACCORDO
100
AcDbLine
 62
253
  6
CONTINUOUS
 10
5.1026066368
 20
-19.1974047863
 11
4.8973933632
 21
-19.1974047863
  0
LINE
  5
233
100
AcDbEntity
  8
RACCORDO
100
AcDbLine
 62
253
  6
CONTINUOUS
 10
-4.8973933632
 20
-19.1974047863
 11
-5.1026066368
 21
-19.1974047863
  0
LINE
  5
234
100
AcDbEntity
  8
0
100
AcDbLine
 62
7
  6
CONTINUOUS
 10
-5.1096109777
 20
-19.1904004454
 11
-4.8903890223
 21
-19.1904004454
  0
LINE
  5
235
100
AcDbEntity
  8
0
100
AcDbLine
 62
7
  6
CONTINUOUS
 10
4.8903890223
 20
-19.1904004454
 11
5.1096109777
 21
-19.1904004454
  0
LINE
  5
236
100
AcDbEntity
  8
0
100
AcDbLine
 62
7
  6
CONTINUOUS
 10
-6.4287234366
 20
-18.7190622926
 11
-6.3010637879
 21
-18.7190622926
  0
LINE
  5
237
100
AcDbEntity
  8
0
100
AcDbLine
 62
7
  6
CONTINUOUS
 10
-9.45
 20
-18.6875001073
 11
-7.95
 21
-18.6875001073
  0
LINE
  5
238
100
AcDbEntity
  8
0
100
AcDbLine
 62
7
  6
CONTINUOUS
 10
-6.3010637879
 20
-18.5559372926
 11
-6.3968085468
 21
-18.5559372926
  0
LINE
  5
239
100
AcDbEntity
  8
0
100
AcDbLine
 62
7
  6
CONTINUOUS
 10
-8.2053191185
 20
-18.5187501073
 11
-9.45
 21
-18.5187501073
  0
LINE
  5
23A
100
AcDbEntity
  8
0
100
AcDbLine
 62
7
  6
CONTINUOUS
 10
-8.1734042287
 20
-18.3500001073
 11
-8.4287234366
 21
-18.3500001073
  0
LINE
  5
23B
100
AcDbEntity
  8
0
100
AcDbLine
 62
7
  6
CONTINUOUS
 10
2.584265172
 20
-20.636381153
 11
2.3077350269
 21
-20.578010093
  0
LINE
  5
23C
100
AcDbEntity
  8
0
100
AcDbLine
 62
7
  6
CONTINUOUS
 10
-8.4925532162
 20
-18.0687498927
 11
-8.364893657
 21
-18.0968751073
  0
LINE
  5
23D
100
AcDbEntity
  8
0
100
AcDbLine
 62
7
  6
CONTINUOUS
 10
-8.1734042287
 20
-17.1687501073
 11
-8.3010637879
 21
-17.1406248927
  0
LINE
  5
23E
100
AcDbEntity
  8
0
100
AcDbLine
 62
7
  6
CONTINUOUS
 10
-6.524468106
 20
-18.6918752074
 11
-6.4287234366
 21
-18.7190622926
  0
LINE
  5
23F
100
AcDbEntity
  8
0
100
AcDbLine
 62
7
  6
CONTINUOUS
 10
-6.3968085468
 20
-18.5559372926
 11
-6.4925532162
 21
-18.5287502074
  0
LINE
  5
240
100
AcDbEntity
  8
0
100
AcDbLine
 62
7
  6
CONTINUOUS
 10
-9.0031914979
 20
-16.7468751073
 11
-9.0989361674
 21
-16.7187498927
  0
LINE
  5
241
100
AcDbEntity
  8
0
100
AcDbLine
 62
7
  6
CONTINUOUS
 10
-9.1946808591
 20
-16.8312501073
 11
-9.0351063877
 21
-16.8874998927
  0
LINE
  5
242
100
AcDbEntity
  8
0
100
AcDbLine
 62
7
  6
CONTINUOUS
 10
-8.3010637879
 20
-17.28125
 11
-8.2053191185
 21
-17.3375001073
  0
LINE
  5
243
100
AcDbEntity
  8
0
100
AcDbLine
 62
7
  6
CONTINUOUS
 10
-9.0989361674
 20
-16.7187498927
 11
-9.1946808591
 21
-16.6625001073
  0
LINE
  5
244
100
AcDbEntity
  8
0
100
AcDbLine
 62
7
  6
CONTINUOUS
 10
-6.6521276653
 20
-18.6103127074
 11
-6.524468106
 21
-18.6918752074
  0
LINE
  5
245
100
AcDbEntity
  8
0
100
AcDbLine
 62
7
  6
CONTINUOUS
 10
-9.3223404296
 20
-16.7468751073
 11
-9.1946808591
 21
-16.8312501073
  0
LINE
  5
246
100
AcDbEntity
  8
0
100
AcDbLine
 62
7
  6
CONTINUOUS
 10
-8.4287234366
 20
-18.3500001073
 11
-8.2053191185
 21
-18.5187501073
  0
LINE
  5
247
100
AcDbEntity
  8
0
100
AcDbLine
 62
7
  6
CONTINUOUS
 10
-7.95
 20
-18.5187501073
 11
-8.1734042287
 21
-18.3500001073
  0
LINE
  5
248
100
AcDbEntity
  8
0
100
AcDbLine
 62
7
  6
CONTINUOUS
 10
-6.4925532162
 20
-18.5287502074
 11
-6.5563829958
 21
-18.4743747926
  0
LINE
  5
249
100
AcDbEntity
  8
0
100
AcDbLine
 62
7
  6
CONTINUOUS
 10
-9.162765947
 20
-17.95625
 11
-9.226595749
 21
-17.8999998927
  0
LINE
  5
24A
100
AcDbEntity
  8
0
100
AcDbLine
 62
7
  6
CONTINUOUS
 10
-8.4925532162
 20
-17.8999998927
 11
-8.5563829958
 21
-17.8437501073
  0
LINE
  5
24B
100
AcDbEntity
  8
0
100
AcDbLine
 62
7
  6
CONTINUOUS
 10
-8.0457446694
 20
-17.28125
 11
-8.1734042287
 21
-17.1687501073
  0
LINE
  5
24C
100
AcDbEntity
  8
0
100
AcDbLine
 62
7
  6
CONTINUOUS
 10
-8.6840425551
 20
-17.8999998927
 11
-8.5882978857
 21
-18.0125001073
  0
LINE
  5
24D
100
AcDbEntity
  8
0
100
AcDbLine
 62
7
  6
CONTINUOUS
 10
-9.3542553194
 20
-17.95625
 11
-9.2904255286
 21
-18.040625
  0
LINE
  5
24E
100
AcDbEntity
  8
RACCORDO
100
AcDbLine
 62
253
  6
CONTINUOUS
 10
-5.4095995546
 20
19.4903890223
 11
-5.4025952137
 21
19.4973933632
  0
LINE
  5
24F
100
AcDbEntity
  8
RACCORDO
100
AcDbLine
 62
253
  6
CONTINUOUS
 10
-5.1096109777
 20
19.1904004454
 11
-5.1026066368
 21
19.1974047863
  0
LINE
  5
250
100
AcDbEntity
  8
0
100
AcDbLine
 62
7
  6
CONTINUOUS
 10
-9.0989361674
 20
-18.125
 11
-8.9712766081
 21
-18.125
  0
LINE
  5
251
100
AcDbEntity
  8
0
100
AcDbLine
 62
7
  6
CONTINUOUS
 10
-8.364893657
 20
-18.0968751073
 11
-8.3010637879
 21
-18.0968751073
  0
LINE
  5
252
100
AcDbEntity
  8
0
100
AcDbLine
 62
7
  6
CONTINUOUS
 10
-8.9712766081
 20
-17.9843748927
 11
-9.0989361674
 21
-17.9843748927
  0
LINE
  5
253
100
AcDbEntity
  8
0
100
AcDbLine
 62
7
  6
CONTINUOUS
 10
-8.3010637879
 20
-17.95625
 11
-8.364893657
 21
-17.95625
  0
LINE
  5
254
100
AcDbEntity
  8
0
100
AcDbLine
 62
7
  6
CONTINUOUS
 10
-7.45
 20
-17.8762498963
 11
-6.7797872245
 21
-17.8762498963
  0
LINE
  5
255
100
AcDbEntity
  8
0
100
AcDbLine
 62
7
  6
CONTINUOUS
 10
-6.5882978857
 20
-17.8762498963
 11
-6.1095744491
 21
-17.8762498963
  0
LINE
  5
256
100
AcDbEntity
  8
0
100
AcDbLine
 62
7
  6
CONTINUOUS
 10
-5.95
 20
-17.7131248963
 11
-7.45
 21
-17.7131248963
  0
LINE
  5
257
100
AcDbEntity
  8
0
100
AcDbLine
 62
7
  6
CONTINUOUS
 10
-8.6202127755
 20
-17.5624998927
 11
-8.7478723347
 21
-17.5624998927
  0
LINE
  5
258
100
AcDbEntity
  8
0
100
AcDbLine
 62
7
  6
CONTINUOUS
 10
-4.6603073792
 20
-17.2
 11
4.6603073792
 21
-17.2
  0
LINE
  5
259
100
AcDbEntity
  8
0
100
AcDbLine
 62
7
  6
CONTINUOUS
 10
-9.0351063877
 20
-16.8874998927
 11
-8.9074468285
 21
-16.8874998927
  0
LINE
  5
25A
100
AcDbEntity
  8
0
100
AcDbLine
 62
7
  6
CONTINUOUS
 10
-8.1095744491
 20
-16.8312501073
 11
-7.95
 21
-16.8312501073
  0
LINE
  5
25B
100
AcDbEntity
  8
0
100
AcDbLine
 62
7
  6
CONTINUOUS
 10
-8.9393617183
 20
-16.7468751073
 11
-9.0031914979
 21
-16.7468751073
  0
LINE
  5
25C
100
AcDbEntity
  8
0
100
AcDbLine
 62
7
  6
CONTINUOUS
 10
-8.8117021143
 20
-15.509375
 11
-9.0031914979
 21
-15.4812499464
  0
LINE
  5
25D
100
AcDbEntity
  8
0
100
AcDbLine
 62
7
  6
CONTINUOUS
 10
-9.0031914979
 20
-15.6218750536
 11
-8.8436170042
 21
-15.6499999464
  0
LINE
  5
25E
100
AcDbEntity
  8
0
100
AcDbLine
 62
7
  6
CONTINUOUS
 10
-7.45
 20
-16.5712498963
 11
-7.0670212775
 21
-16.6800001037
  0
LINE
  5
25F
100
AcDbEntity
  8
0
100
AcDbLine
 62
7
  6
CONTINUOUS
 10
-6.9393617183
 20
-16.7071875
 11
-6.0776595592
 21
-16.951875
  0
LINE
  5
260
100
AcDbEntity
  8
0
100
AcDbLine
 62
7
  6
CONTINUOUS
 10
-5.95
 20
-16.8431251037
 11
-7.45
 21
-16.4081248963
  0
LINE
  5
261
100
AcDbEntity
  8
0
100
AcDbLine
 62
7
  6
CONTINUOUS
 10
-9.0989361674
 20
-15.59375
 11
-9.0031914979
 21
-15.6218750536
  0
LINE
  5
262
100
AcDbEntity
  8
0
100
AcDbLine
 62
7
  6
CONTINUOUS
 10
-5.95
 20
-15.9459376037
 11
-7.2904255286
 21
-15.5381249481
  0
LINE
  5
263
100
AcDbEntity
  8
0
100
AcDbLine
 62
7
  6
CONTINUOUS
 10
-7.45
 20
-15.646875
 11
-6.2691488981
 21
-16.0275001037
  0
LINE
  5
264
100
AcDbEntity
  8
0
100
AcDbLine
 62
7
  6
CONTINUOUS
 10
-9.226595749
 20
-15.5375000536
 11
-9.0989361674
 21
-15.59375
  0
LINE
  5
265
100
AcDbEntity
  8
0
100
AcDbLine
 62
7
  6
CONTINUOUS
 10
-8.1734042287
 20
-14.75
 11
-8.3010637879
 21
-14.6937499732
  0
LINE
  5
266
100
AcDbEntity
  8
0
100
AcDbLine
 62
7
  6
CONTINUOUS
 10
-9.0031914979
 20
-15.4812499464
 11
-9.1946808591
 21
-15.3687500536
  0
LINE
  5
267
100
AcDbEntity
  8
0
100
AcDbLine
 62
7
  6
CONTINUOUS
 10
-8.3968085468
 20
-14.8062499464
 11
-8.2053191185
 21
-14.91875
  0
LINE
  5
268
100
AcDbEntity
  8
0
100
AcDbLine
 62
7
  6
CONTINUOUS
 10
-8.5882978857
 20
-14.328125
 11
-8.4925532162
 21
-14.3843750268
  0
LINE
  5
269
100
AcDbEntity
  8
0
100
AcDbLine
 62
7
  6
CONTINUOUS
 10
-9.3223404296
 20
-15.4531250536
 11
-9.226595749
 21
-15.5375000536
  0
LINE
  5
26A
100
AcDbEntity
  8
0
100
AcDbLine
 62
7
  6
CONTINUOUS
 10
-8.0776595592
 20
-14.834375
 11
-8.1734042287
 21
-14.75
  0
LINE
  5
26B
100
AcDbEntity
  8
RACCORDO
100
AcDbLine
 62
253
  6
CONTINUOUS
 10
-5.4095995546
 20
-19.4903890223
 11
-5.4025952137
 21
-19.4973933632
  0
LINE
  5
26C
100
AcDbEntity
  8
RACCORDO
100
AcDbLine
 62
253
  6
CONTINUOUS
 10
-5.1096109777
 20
-19.1904004454
 11
-5.1026066368
 21
-19.1974047863
  0
LINE
  5
26D
100
AcDbEntity
  8
0
100
AcDbLine
 62
7
  6
CONTINUOUS
 10
-8.7797872245
 20
-16.0718749464
 11
-8.6840425551
 21
-16.184375
  0
LINE
  5
26E
100
AcDbEntity
  8
0
100
AcDbLine
 62
7
  6
CONTINUOUS
 10
-9.1946808591
 20
-16.6625001073
 11
-9.2585106388
 21
-16.5781251073
  0
LINE
  5
26F
100
AcDbEntity
  8
0
100
AcDbLine
 62
7
  6
CONTINUOUS
 10
-8.2053191185
 20
-17.3375001073
 11
-8.1414893389
 21
-17.4218751073
  0
LINE
  5
270
100
AcDbEntity
  8
0
100
AcDbLine
 62
7
  6
CONTINUOUS
 10
-9.1946808591
 20
-15.3687500536
 11
-9.2585106388
 21
-15.2843750536
  0
LINE
  5
271
100
AcDbEntity
  8
0
100
AcDbLine
 62
7
  6
CONTINUOUS
 10
-9.4180851074
 20
-16.60625
 11
-9.3223404296
 21
-16.7468751073
  0
LINE
  5
272
100
AcDbEntity
  8
0
100
AcDbLine
 62
7
  6
CONTINUOUS
 10
-9.4180851074
 20
-17.8437501073
 11
-9.3542553194
 21
-17.95625
  0
LINE
  5
273
100
AcDbEntity
  8
0
100
AcDbLine
 62
7
  6
CONTINUOUS
 10
-9.226595749
 20
-17.8999998927
 11
-9.2585106388
 21
-17.8437501073
  0
LINE
  5
274
100
AcDbEntity
  8
0
100
AcDbLine
 62
7
  6
CONTINUOUS
 10
7.45
 20
18.74625
 11
6.7159574449
 21
18.5015625
  0
LINE
  5
275
100
AcDbEntity
  8
0
100
AcDbLine
 62
7
  6
CONTINUOUS
 10
6.7797872245
 20
18.3384375
 11
7.45
 21
18.5559372926
  0
LINE
  5
276
100
AcDbEntity
  8
0
100
AcDbLine
 62
7
  6
CONTINUOUS
 10
-6.3010637879
 20
-18.7190622926
 11
-6.2053191185
 21
-18.6918752074
  0
LINE
  5
277
100
AcDbEntity
  8
0
100
AcDbLine
 62
7
  6
CONTINUOUS
 10
-6.2053191185
 20
-18.5287502074
 11
-6.3010637879
 21
-18.5559372926
  0
LINE
  5
278
100
AcDbEntity
  8
0
100
AcDbLine
 62
7
  6
CONTINUOUS
 10
-8.3010637879
 20
-18.0968751073
 11
-8.1734042287
 21
-18.0687498927
  0
LINE
  5
279
100
AcDbEntity
  8
0
100
AcDbLine
 62
7
  6
CONTINUOUS
 10
-8.9712766081
 20
-18.125
 11
-8.8436170042
 21
-18.0968751073
  0
LINE
  5
27A
100
AcDbEntity
  8
0
100
AcDbLine
 62
7
  6
CONTINUOUS
 10
-7.45
 20
-16.1906251037
 11
-5.95
 21
-16.1906251037
  0
LINE
  5
27B
100
AcDbEntity
  8
0
100
AcDbLine
 62
7
  6
CONTINUOUS
 10
-6.2691488981
 20
-16.0275001037
 11
-7.45
 21
-16.0275001037
  0
LINE
  5
27C
100
AcDbEntity
  8
0
100
AcDbLine
 62
7
  6
CONTINUOUS
 10
-8.6202127755
 20
-16.015625
 11
-8.1095744491
 21
-16.015625
  0
LINE
  5
27D
100
AcDbEntity
  8
0
100
AcDbLine
 62
7
  6
CONTINUOUS
 10
-7.95
 20
-15.8750000536
 11
-8.7797872245
 21
-15.8750000536
  0
LINE
  5
27E
100
AcDbEntity
  8
0
100
AcDbLine
 62
7
  6
CONTINUOUS
 10
-8.8436170042
 20
-15.6499999464
 11
-8.5563829958
 21
-15.6499999464
  0
LINE
  5
27F
100
AcDbEntity
  8
0
100
AcDbLine
 62
7
  6
CONTINUOUS
 10
-8.5882978857
 20
-15.509375
 11
-8.8117021143
 21
-15.509375
  0
LINE
  5
280
100
AcDbEntity
  8
0
100
AcDbLine
 62
7
  6
CONTINUOUS
 10
-7.45
 20
-15.0487499481
 11
-6.2691488981
 21
-15.0487499481
  0
LINE
  5
281
100
AcDbEntity
  8
0
100
AcDbLine
 62
7
  6
CONTINUOUS
 10
-5.95
 20
-14.8856249481
 11
-7.45
 21
-14.8856249481
  0
LINE
  5
282
100
AcDbEntity
  8
0
100
AcDbLine
 62
7
  6
CONTINUOUS
 10
-8.5882978857
 20
-14.7781250536
 11
-8.3968085468
 21
-14.8062499464
  0
LINE
  5
283
100
AcDbEntity
  8
0
100
AcDbLine
 62
7
  6
CONTINUOUS
 10
-8.3968085468
 20
-14.665625
 11
-8.5563829958
 21
-14.6375000268
  0
LINE
  5
284
100
AcDbEntity
  8
0
100
AcDbLine
 62
7
  6
CONTINUOUS
 10
-8.4925532162
 20
-14.3843750268
 11
-8.364893657
 21
-14.4125
  0
LINE
  5
285
100
AcDbEntity
  8
0
100
AcDbLine
 62
7
  6
CONTINUOUS
 10
-8.1734042287
 20
-13.4562500017
 11
-8.3010637879
 21
-13.4281250008
  0
LINE
  5
286
100
AcDbEntity
  8
0
100
AcDbLine
 62
7
  6
CONTINUOUS
 10
-7.45
 20
-13.8525
 11
-5.95
 21
-14.2874999741
  0
LINE
  5
287
100
AcDbEntity
  8
0
100
AcDbLine
 62
7
  6
CONTINUOUS
 10
-5.95
 20
-14.1243749741
 11
-7.2585106388
 21
-13.743749987
  0
LINE
  5
288
100
AcDbEntity
  8
0
100
AcDbLine
 62
7
  6
CONTINUOUS
 10
-8.3010637879
 20
-14.6937499732
 11
-8.3968085468
 21
-14.665625
  0
LINE
  5
289
100
AcDbEntity
  8
0
100
AcDbLine
 62
7
  6
CONTINUOUS
 10
-8.364893657
 20
-14.24375
 11
-8.4925532162
 21
-14.1874999732
  0
LINE
  5
28A
100
AcDbEntity
  8
0
100
AcDbLine
 62
7
  6
CONTINUOUS
 10
-8.3010637879
 20
-13.56875
 11
-8.2053191185
 21
-13.6250000067
  0
LINE
  5
28B
100
AcDbEntity
  8
0
100
AcDbLine
 62
7
  6
CONTINUOUS
 10
-8.0457446694
 20
-13.56875
 11
-8.1734042287
 21
-13.4562500017
  0
LINE
  5
28C
100
AcDbEntity
  8
0
100
AcDbLine
 62
7
  6
CONTINUOUS
 10
-8.4925532162
 20
-14.1874999732
 11
-9.2904255286
 21
-13.4
  0
LINE
  5
28D
100
AcDbEntity
  8
0
100
AcDbLine
 62
7
  6
CONTINUOUS
 10
-9.2904255286
 20
-13.6250000067
 11
-8.5882978857
 21
-14.328125
  0
LINE
  5
28E
100
AcDbEntity
  8
0
100
AcDbLine
 62
7
  6
CONTINUOUS
 10
-8.2053191185
 20
-14.91875
 11
-8.1414893389
 21
-15.003125
  0
LINE
  5
28F
100
AcDbEntity
  8
0
100
AcDbLine
 62
7
  6
CONTINUOUS
 10
-9.4180851074
 20
-15.3124999464
 11
-9.3223404296
 21
-15.4531250536
  0
LINE
  5
290
100
AcDbEntity
  8
0
100
AcDbLine
 62
7
  6
CONTINUOUS
 10
-8.524468106
 20
-16.1562501073
 11
-8.6202127755
 21
-16.015625
  0
LINE
  5
291
100
AcDbEntity
  8
0
100
AcDbLine
 62
7
  6
CONTINUOUS
 10
-7.9819148898
 20
-14.9749999464
 11
-8.0776595592
 21
-14.834375
  0
LINE
  5
292
100
AcDbEntity
  8
0
100
AcDbLine
 62
7
  6
CONTINUOUS
 10
-6.7159574449
 20
-18.5015625
 11
-6.6521276653
 21
-18.6103127074
  0
LINE
  5
293
100
AcDbEntity
  8
0
100
AcDbLine
 62
7
  6
CONTINUOUS
 10
-7.9819148898
 20
-17.3937498927
 11
-8.0457446694
 21
-17.28125
  0
LINE
  5
294
100
AcDbEntity
  8
0
100
AcDbLine
 62
7
  6
CONTINUOUS
 10
9.0989361674
 20
17.1125
 11
9.1946808591
 21
17.1406248927
  0
LINE
  5
295
100
AcDbEntity
  8
0
100
AcDbLine
 62
7
  6
CONTINUOUS
 10
8.8436170042
 20
16.7187498927
 11
8.9393617183
 21
16.7468751073
  0
LINE
  5
296
100
AcDbEntity
  8
0
100
AcDbLine
 62
7
  6
CONTINUOUS
 10
7.45
 20
17.4956251037
 11
5.95
 21
17.0606248963
  0
LINE
  5
297
100
AcDbEntity
  8
0
100
AcDbLine
 62
7
  6
CONTINUOUS
 10
-6.0776595592
 20
-16.951875
 11
-6.9393617183
 21
-17.1965625
  0
LINE
  5
298
100
AcDbEntity
  8
0
100
AcDbLine
 62
7
  6
CONTINUOUS
 10
-7.0670212775
 20
-17.2237498963
 11
-7.45
 21
-17.3325001037
  0
LINE
  5
299
100
AcDbEntity
  8
0
100
AcDbLine
 62
7
  6
CONTINUOUS
 10
-8.5563829958
 20
-15.6499999464
 11
-8.3968085468
 21
-15.6218750536
  0
LINE
  5
29A
100
AcDbEntity
  8
0
100
AcDbLine
 62
7
  6
CONTINUOUS
 10
-8.3968085468
 20
-15.4812499464
 11
-8.5882978857
 21
-15.509375
  0
LINE
  5
29B
100
AcDbEntity
  8
0
100
AcDbLine
 62
7
  6
CONTINUOUS
 10
-9.0031914979
 20
-14.8062499464
 11
-8.8117021143
 21
-14.7781250536
  0
LINE
  5
29C
100
AcDbEntity
  8
0
100
AcDbLine
 62
7
  6
CONTINUOUS
 10
-8.8117021143
 20
-14.7781250536
 11
-8.5882978857
 21
-14.7781250536
  0
LINE
  5
29D
100
AcDbEntity
  8
0
100
AcDbLine
 62
7
  6
CONTINUOUS
 10
-7.45
 20
-14.668125
 11
-5.95
 21
-14.668125
  0
LINE
  5
29E
100
AcDbEntity
  8
0
100
AcDbLine
 62
7
  6
CONTINUOUS
 10
-8.5563829958
 20
-14.6375000268
 11
-8.8436170042
 21
-14.6375000268
  0
LINE
  5
29F
100
AcDbEntity
  8
0
100
AcDbLine
 62
7
  6
CONTINUOUS
 10
-5.95
 20
-14.505
 11
-7.45
 21
-14.505
  0
LINE
  5
2A0
100
AcDbEntity
  8
0
100
AcDbLine
 62
7
  6
CONTINUOUS
 10
-9.45
 20
-14.4125
 11
-9.2904255286
 21
-14.4125
  0
LINE
  5
2A1
100
AcDbEntity
  8
0
100
AcDbLine
 62
7
  6
CONTINUOUS
 10
-8.364893657
 20
-14.4125
 11
-8.3010637879
 21
-14.4125
  0
LINE
  5
2A2
100
AcDbEntity
  8
0
100
AcDbLine
 62
7
  6
CONTINUOUS
 10
-8.3010637879
 20
-14.24375
 11
-8.364893657
 21
-14.24375
  0
LINE
  5
2A3
100
AcDbEntity
  8
0
100
AcDbLine
 62
7
  6
CONTINUOUS
 10
-9.2904255286
 20
-13.4
 11
-9.45
 21
-13.4
  0
LINE
  5
2A4
100
AcDbEntity
  8
0
100
AcDbLine
 62
7
  6
CONTINUOUS
 10
-8.2053191185
 20
-13.6250000067
 11
-8.1414893389
 21
-13.7093750067
  0
LINE
  5
2A5
100
AcDbEntity
  8
0
100
AcDbLine
 62
7
  6
CONTINUOUS
 10
-7.9819148898
 20
-13.6812499933
 11
-8.0457446694
 21
-13.56875
  0
LINE
  5
2A6
100
AcDbEntity
  8
0
100
AcDbLine
 62
7
  6
CONTINUOUS
 10
-8.5563829958
 20
-17.8437501073
 11
-8.6202127755
 21
-17.6750001073
  0
LINE
  5
2A7
100
AcDbEntity
  8
0
100
AcDbLine
 62
7
  6
CONTINUOUS
 10
-9.45
 20
-17.7312498927
 11
-9.4180851074
 21
-17.8437501073
  0
LINE
  5
2A8
100
AcDbEntity
  8
0
100
AcDbLine
 62
7
  6
CONTINUOUS
 10
-9.2585106388
 20
-16.5781251073
 11
-9.2904255286
 21
-16.4656248927
  0
LINE
  5
2A9
100
AcDbEntity
  8
0
100
AcDbLine
 62
7
  6
CONTINUOUS
 10
6.2053191185
 20
18.6918752074
 11
6.0776595592
 21
18.6103127074
  0
LINE
  5
2AA
100
AcDbEntity
  8
0
100
AcDbLine
 62
7
  6
CONTINUOUS
 10
8.8436170042
 20
17.9281251073
 11
8.9712766081
 21
17.9843748927
  0
LINE
  5
2AB
100
AcDbEntity
  8
0
100
AcDbLine
 62
7
  6
CONTINUOUS
 10
9.162765947
 20
17.28125
 11
9.0989361674
 21
17.2531251073
  0
LINE
  5
2AC
100
AcDbEntity
  8
0
100
AcDbLine
 62
7
  6
CONTINUOUS
 10
8.9074468285
 20
16.8874998927
 11
8.7478723347
 21
16.8312501073
  0
LINE
  5
2AD
100
AcDbEntity
  8
0
100
AcDbLine
 62
7
  6
CONTINUOUS
 10
6.2691488981
 20
15.0487499481
 11
7.45
 21
15.4293750519
  0
LINE
  5
2AE
100
AcDbEntity
  8
0
100
AcDbLine
 62
7
  6
CONTINUOUS
 10
7.2904255286
 20
15.5381249481
 11
5.95
 21
15.1303124481
  0
LINE
  5
2AF
100
AcDbEntity
  8
0
100
AcDbLine
 62
7
  6
CONTINUOUS
 10
8.3968085468
 20
15.6218750536
 11
8.3010637879
 21
15.59375
  0
LINE
  5
2B0
100
AcDbEntity
  8
0
100
AcDbLine
 62
7
  6
CONTINUOUS
 10
9.0031914979
 20
14.665625
 11
9.0989361674
 21
14.6937499732
  0
LINE
  5
2B1
100
AcDbEntity
  8
0
100
AcDbLine
 62
7
  6
CONTINUOUS
 10
-8.3010637879
 20
-14.4125
 11
-8.1734042287
 21
-14.3843750268
  0
LINE
  5
2B2
100
AcDbEntity
  8
0
100
AcDbLine
 62
7
  6
CONTINUOUS
 10
-8.8436170042
 20
-14.6375000268
 11
-9.0031914979
 21
-14.665625
  0
LINE
  5
2B3
100
AcDbEntity
  8
DRAFT
100
AcDbLine
 62
7
  6
CONTINUOUS
 10
-11.15
 20
-13.1
 11
-9.9
 21
-13.1
  0
LINE
  5
2B4
100
AcDbEntity
  8
DRAFT
100
AcDbLine
 62
7
  6
CONTINUOUS
 10
9.9
 20
-13.1
 11
11.15
 21
-13.1
  0
LINE
  5
2B5
100
AcDbEntity
  8
DRAFT
100
AcDbLine
 62
7
  6
CONTINUOUS
 10
9.8831231009
 20
-13.0
 11
9.5
 21
-13.0
  0
LINE
  5
2B6
100
AcDbEntity
  8
DRAFT
100
AcDbLine
 62
7
  6
CONTINUOUS
 10
-9.5
 20
-13.0
 11
-9.8831231009
 21
-13.0
  0
LINE
  5
2B7
100
AcDbEntity
  8
0
100
AcDbLine
 62
7
  6
CONTINUOUS
 10
-6.5563829958
 20
-18.4743747926
 11
-6.5882978857
 21
-18.3928126037
  0
LINE
  5
2B8
100
AcDbEntity
  8
0
100
AcDbLine
 62
7
  6
CONTINUOUS
 10
-8.6840425551
 20
-16.184375
 11
-8.6521276653
 21
-16.2968748927
  0
LINE
  5
2B9
100
AcDbEntity
  8
0
100
AcDbLine
 62
7
  6
CONTINUOUS
 10
-9.2585106388
 20
-17.8437501073
 11
-9.2904255286
 21
-17.703125
  0
LINE
  5
2BA
100
AcDbEntity
  8
0
100
AcDbLine
 62
7
  6
CONTINUOUS
 10
-9.45
 20
-16.4656248927
 11
-9.4180851074
 21
-16.60625
  0
LINE
  5
2BB
100
AcDbEntity
  8
0
100
AcDbLine
 62
7
  6
CONTINUOUS
 10
-9.2585106388
 20
-15.2843750536
 11
-9.2904255286
 21
-15.1437499464
  0
LINE
  5
2BC
100
AcDbEntity
  8
0
100
AcDbLine
 62
7
  6
CONTINUOUS
 10
-8.4925532162
 20
-16.2968748927
 11
-8.524468106
 21
-16.1562501073
  0
LINE
  5
2BD
100
AcDbEntity
  8
0
100
AcDbLine
 62
7
  6
CONTINUOUS
 10
-8.1414893389
 20
-17.4218751073
 11
-8.1095744491
 21
-17.5624998927
  0
LINE
  5
2BE
100
AcDbEntity
  8
0
100
AcDbLine
 62
7
  6
CONTINUOUS
 10
-9.45
 20
-15.1437499464
 11
-9.4180851074
 21
-15.3124999464
  0
LINE
  5
2BF
100
AcDbEntity
  8
0
100
AcDbLine
 62
7
  6
CONTINUOUS
 10
-11.1131334061
 20
-21.698158548
 11
-11.15
 21
-13.1
  0
LINE
  5
2C0
100
AcDbEntity
  8
0
100
AcDbLine
 62
7
  6
CONTINUOUS
 10
-9.9
 20
-13.1
 11
-9.8844847477
 21
-20.3392506254
  0
LINE
  5
2C1
100
AcDbEntity
  8
0
100
AcDbLine
 62
7
  6
CONTINUOUS
 10
-11.15
 20
-0.3499333788
 11
-11.15
 21
-13.1
  0
LINE
  5
2C2
100
AcDbEntity
  8
0
100
AcDbLine
 62
7
  6
CONTINUOUS
 10
-11.15
 20
0.3499333788
 11
-11.15
 21
13.1
  0
LINE
  5
2C3
100
AcDbEntity
  8
DRAFT
100
AcDbLine
 62
7
  6
CONTINUOUS
 10
-9.9
 20
-0.1
 11
-9.9
 21
-13.1
  0
LINE
  5
2C4
100
AcDbEntity
  8
DRAFT
100
AcDbLine
 62
7
  6
CONTINUOUS
 10
-9.9
 20
0.1
 11
-9.9
 21
13.1
  0
LINE
  5
2C5
100
AcDbEntity
  8
DRAFT
100
AcDbLine
 62
7
  6
CONTINUOUS
 10
-9.8831231009
 20
-9.2
 11
-9.8831231009
 21
-13.0
  0
LINE
  5
2C6
100
AcDbEntity
  8
DRAFT
100
AcDbLine
 62
7
  6
CONTINUOUS
 10
-9.8831231009
 20
9.2
 11
-9.8831231009
 21
13.0
  0
LINE
  5
2C7
100
AcDbEntity
  8
DRAFT
100
AcDbLine
 62
7
  6
CONTINUOUS
 10
-9.8476348052
 20
-0.1261806034
 11
-9.8476348052
 21
-1.3
  0
LINE
  5
2C8
100
AcDbEntity
  8
DRAFT
100
AcDbLine
 62
7
  6
CONTINUOUS
 10
-9.8476348052
 20
0.1261806034
 11
-9.8476348052
 21
1.3
  0
LINE
  5
2C9
100
AcDbEntity
  8
0
100
AcDbLine
 62
253
  6
CONTINUOUS
 10
-9.8405613894
 20
9.2
 11
-9.8405613894
 21
1.3035364386
  0
LINE
  5
2CA
100
AcDbEntity
  8
0
100
AcDbLine
 62
253
  6
CONTINUOUS
 10
-9.8405613894
 20
-1.3035364386
 11
-9.8405613894
 21
-9.2
  0
LINE
  5
2CB
100
AcDbEntity
  8
0
100
AcDbLine
 62
253
  6
CONTINUOUS
 10
-9.8405613894
 20
-20.0302795453
 11
-9.8405613894
 21
-13.0
  0
LINE
  5
2CC
100
AcDbEntity
  8
0
100
AcDbLine
 62
253
  6
CONTINUOUS
 10
-9.8405613894
 20
13.0
 11
-9.8405613894
 21
20.0302795453
  0
LINE
  5
2CD
100
AcDbEntity
  8
0
100
AcDbLine
 62
7
  6
CONTINUOUS
 10
-9.9
 20
13.1
 11
-9.8844847477
 21
20.3392506254
  0
LINE
  5
2CE
100
AcDbEntity
  8
0
100
AcDbLine
 62
7
  6
CONTINUOUS
 10
-11.1131334061
 20
21.698158548
 11
-11.15
 21
13.1
  0
LINE
  5
2CF
100
AcDbEntity
  8
RACCORDO
100
AcDbLine
 62
253
  6
CONTINUOUS
 10
4.5904004454
 20
19.4903890223
 11
4.5974047863
 21
19.4973933632
  0
LINE
  5
2D0
100
AcDbEntity
  8
RACCORDO
100
AcDbLine
 62
253
  6
CONTINUOUS
 10
4.8903890223
 20
19.1904004454
 11
4.8973933632
 21
19.1974047863
  0
LINE
  5
2D1
100
AcDbEntity
  8
0
100
AcDbLine
 62
7
  6
CONTINUOUS
 10
6.1414893389
 20
18.4743747926
 11
6.2053191185
 21
18.5287502074
  0
LINE
  5
2D2
100
AcDbEntity
  8
0
100
AcDbLine
 62
7
  6
CONTINUOUS
 10
8.2053191185
 20
17.8999998927
 11
8.3010637879
 21
17.95625
  0
LINE
  5
2D3
100
AcDbEntity
  8
0
100
AcDbLine
 62
7
  6
CONTINUOUS
 10
8.8436170042
 20
18.0968751073
 11
8.7478723347
 21
18.040625
  0
LINE
  5
2D4
100
AcDbEntity
  8
0
100
AcDbLine
 62
7
  6
CONTINUOUS
 10
9.1946808591
 20
17.1406248927
 11
9.2904255286
 21
17.196875
  0
LINE
  5
2D5
100
AcDbEntity
  8
0
100
AcDbLine
 62
7
  6
CONTINUOUS
 10
8.7478723347
 20
16.6625001073
 11
8.8436170042
 21
16.7187498927
  0
LINE
  5
2D6
100
AcDbEntity
  8
0
100
AcDbLine
 62
7
  6
CONTINUOUS
 10
9.1946808591
 20
16.1
 11
9.0670212775
 21
16.0437500536
  0
LINE
  5
2D7
100
AcDbEntity
  8
0
100
AcDbLine
 62
7
  6
CONTINUOUS
 10
8.3010637879
 20
15.59375
 11
8.1734042287
 21
15.5375000536
  0
LINE
  5
2D8
100
AcDbEntity
  8
0
100
AcDbLine
 62
7
  6
CONTINUOUS
 10
9.0670212775
 20
15.8750000536
 11
9.1946808591
 21
15.93125
  0
LINE
  5
2D9
100
AcDbEntity
  8
0
100
AcDbLine
 62
7
  6
CONTINUOUS
 10
7.2585106388
 20
13.743749987
 11
5.95
 21
13.363125
  0
LINE
  5
2DA
100
AcDbEntity
  8
0
100
AcDbLine
 62
7
  6
CONTINUOUS
 10
5.95
 20
13.2
 11
7.45
 21
13.635000013
  0
LINE
  5
2DB
100
AcDbEntity
  8
RACCORDO
100
AcDbLine
 62
253
  6
CONTINUOUS
 10
4.5904004454
 20
-19.4903890223
 11
4.5974047863
 21
-19.4973933632
  0
LINE
  5
2DC
100
AcDbEntity
  8
RACCORDO
100
AcDbLine
 62
253
  6
CONTINUOUS
 10
4.8903890223
 20
-19.1904004454
 11
4.8973933632
 21
-19.1974047863
  0
LINE
  5
2DD
100
AcDbEntity
  8
0
100
AcDbLine
 62
7
  6
CONTINUOUS
 10
-8.1414893389
 20
-15.003125
 11
-8.1095744491
 21
-15.1437499464
  0
LINE
  5
2DE
100
AcDbEntity
  8
0
100
AcDbLine
 62
7
  6
CONTINUOUS
 10
-8.1414893389
 20
-13.7093750067
 11
-8.1095744491
 21
-13.8500000134
  0
LINE
  5
2DF
100
AcDbEntity
  8
0
100
AcDbLine
 62
7
  6
CONTINUOUS
 10
-7.95
 20
-15.1437499464
 11
-7.9819148898
 21
-14.9749999464
  0
LINE
  5
2E0
100
AcDbEntity
  8
0
100
AcDbLine
 62
7
  6
CONTINUOUS
 10
-7.95
 20
-17.5906251073
 11
-7.9819148898
 21
-17.3937498927
  0
LINE
  5
2E1
100
AcDbEntity
  8
0
100
AcDbLine
 62
7
  6
CONTINUOUS
 10
-7.95
 20
-13.8781249866
 11
-7.9819148898
 21
-13.6812499933
  0
LINE
  5
2E2
100
AcDbEntity
  8
0
100
AcDbLine
 62
253
  6
CONTINUOUS
 10
-9.5406070808
 20
9.2
 11
-9.5406070808
 21
1.3061088075
  0
LINE
  5
2E3
100
AcDbEntity
  8
0
100
AcDbLine
 62
253
  6
CONTINUOUS
 10
-9.5406070808
 20
-1.3061088075
 11
-9.5406070808
 21
-9.2
  0
LINE
  5
2E4
100
AcDbEntity
  8
0
100
AcDbLine
 62
253
  6
CONTINUOUS
 10
-9.5406070808
 20
-20.3280433908
 11
-9.5406070808
 21
-13.0
  0
LINE
  5
2E5
100
AcDbEntity
  8
0
100
AcDbLine
 62
253
  6
CONTINUOUS
 10
-9.5406070808
 20
13.0
 11
-9.5406070808
 21
20.3280433908
  0
LINE
  5
2E6
100
AcDbEntity
  8
0
100
AcDbLine
 62
7
  6
CONTINUOUS
 10
-9.5
 20
-9.2
 11
-9.5
 21
-13.0
  0
LINE
  5
2E7
100
AcDbEntity
  8
0
100
AcDbLine
 62
7
  6
CONTINUOUS
 10
-9.5
 20
9.2
 11
-9.5
 21
13.0
  0
LINE
  5
2E8
100
AcDbEntity
  8
0
100
AcDbLine
 62
7
  6
CONTINUOUS
 10
-9.45
 20
-13.4
 11
-9.45
 21
-14.4125
  0
LINE
  5
2E9
100
AcDbEntity
  8
0
100
AcDbLine
 62
7
  6
CONTINUOUS
 10
-9.45
 20
-16.2968748927
 11
-9.45
 21
-16.4656248927
  0
LINE
  5
2EA
100
AcDbEntity
  8
0
100
AcDbLine
 62
7
  6
CONTINUOUS
 10
-9.45
 20
-17.5062501073
 11
-9.45
 21
-17.7312498927
  0
LINE
  5
2EB
100
AcDbEntity
  8
0
100
AcDbLine
 62
7
  6
CONTINUOUS
 10
-9.45
 20
-18.5187501073
 11
-9.45
 21
-18.6875001073
  0
LINE
  5
2EC
100
AcDbEntity
  8
0
100
AcDbLine
 62
7
  6
CONTINUOUS
 10
-9.2904255286
 20
-17.703125
 11
-9.2904255286
 21
-17.534375
  0
LINE
  5
2ED
100
AcDbEntity
  8
0
100
AcDbLine
 62
7
  6
CONTINUOUS
 10
-9.2904255286
 20
-16.4656248927
 11
-9.2904255286
 21
-16.2968748927
  0
LINE
  5
2EE
100
AcDbEntity
  8
0
100
AcDbLine
 62
7
  6
CONTINUOUS
 10
-9.2904255286
 20
-14.4125
 11
-9.2904255286
 21
-13.6250000067
  0
LINE
  5
2EF
100
AcDbEntity
  8
0
100
AcDbLine
 62
7
  6
CONTINUOUS
 10
-9.0989361674
 20
-17.2531251073
 11
-9.0989361674
 21
-17.1125
  0
LINE
  5
2F0
100
AcDbEntity
  8
0
100
AcDbLine
 62
7
  6
CONTINUOUS
 10
-9.0670212775
 20
-16.0437500536
 11
-9.0670212775
 21
-15.8750000536
  0
LINE
  5
2F1
100
AcDbEntity
  8
0
100
AcDbLine
 62
7
  6
CONTINUOUS
 10
-8.7797872245
 20
-15.8750000536
 11
-8.7797872245
 21
-16.0718749464
  0
LINE
  5
2F2
100
AcDbEntity
  8
0
100
AcDbLine
 62
7
  6
CONTINUOUS
 10
-8.7478723347
 20
-17.5624998927
 11
-8.7478723347
 21
-17.6750001073
  0
LINE
  5
2F3
100
AcDbEntity
  8
0
100
AcDbLine
 62
7
  6
CONTINUOUS
 10
-8.6521276653
 20
-16.2968748927
 11
-8.6521276653
 21
-16.4656248927
  0
LINE
  5
2F4
100
AcDbEntity
  8
0
100
AcDbLine
 62
7
  6
CONTINUOUS
 10
-8.6202127755
 20
-17.6750001073
 11
-8.6202127755
 21
-17.5624998927
  0
LINE
  5
2F5
100
AcDbEntity
  8
0
100
AcDbLine
 62
7
  6
CONTINUOUS
 10
-8.4925532162
 20
-16.4656248927
 11
-8.4925532162
 21
-16.2968748927
  0
LINE
  5
2F6
100
AcDbEntity
  8
0
100
AcDbLine
 62
7
  6
CONTINUOUS
 10
-8.3010637879
 20
-13.4281250008
 11
-8.3010637879
 21
-13.56875
  0
LINE
  5
2F7
100
AcDbEntity
  8
0
100
AcDbLine
 62
7
  6
CONTINUOUS
 10
-8.3010637879
 20
-17.1406248927
 11
-8.3010637879
 21
-17.28125
  0
LINE
  5
2F8
100
AcDbEntity
  8
0
100
AcDbLine
 62
7
  6
CONTINUOUS
 10
8.1734042287
 20
18.0687498927
 11
8.0457446694
 21
17.95625
  0
LINE
  5
2F9
100
AcDbEntity
  8
0
100
AcDbLine
 62
7
  6
CONTINUOUS
 10
8.7478723347
 20
16.8312501073
 11
8.6202127755
 21
16.7468751073
  0
LINE
  5
2FA
100
AcDbEntity
  8
0
100
AcDbLine
 62
7
  6
CONTINUOUS
 10
9.1946808591
 20
15.93125
 11
9.3223404296
 21
16.015625
  0
LINE
  5
2FB
100
AcDbEntity
  8
0
100
AcDbLine
 62
7
  6
CONTINUOUS
 10
8.2053191185
 20
15.3687500536
 11
8.3968085468
 21
15.4812499464
  0
LINE
  5
2FC
100
AcDbEntity
  8
0
100
AcDbLine
 62
7
  6
CONTINUOUS
 10
9.1946808591
 20
14.91875
 11
9.0031914979
 21
14.8062499464
  0
LINE
  5
2FD
100
AcDbEntity
  8
0
100
AcDbLine
 62
7
  6
CONTINUOUS
 10
9.0989361674
 20
14.6937499732
 11
9.226595749
 21
14.75
  0
LINE
  5
2FE
100
AcDbEntity
  8
DRAFT
100
AcDbLine
 62
7
  6
CONTINUOUS
 10
9.8831231009
 20
-9.2
 11
9.5
 21
-9.2
  0
LINE
  5
2FF
100
AcDbEntity
  8
DRAFT
100
AcDbLine
 62
7
  6
CONTINUOUS
 10
-9.5
 20
-9.2
 11
-9.8831231009
 21
-9.2
  0
LINE
  5
300
100
AcDbEntity
  8
RACCORDO
100
AcDbLine
 62
7
  6
CONTINUOUS
 10
-5.4073005555
 20
-20.3280433908
 11
-5.4025952137
 21
-20.3942462185
  0
LINE
  5
301
100
AcDbEntity
  8
0
100
AcDbLine
 62
7
  6
CONTINUOUS
 10
-8.1095744491
 20
-13.8500000134
 11
-8.1095744491
 21
-13.9624999866
  0
LINE
  5
302
100
AcDbEntity
  8
0
100
AcDbLine
 62
7
  6
CONTINUOUS
 10
-8.1095744491
 20
-16.015625
 11
-8.1095744491
 21
-16.8312501073
  0
LINE
  5
303
100
AcDbEntity
  8
0
100
AcDbLine
 62
7
  6
CONTINUOUS
 10
-8.1095744491
 20
-17.5624998927
 11
-8.1095744491
 21
-17.6750001073
  0
LINE
  5
304
100
AcDbEntity
  8
0
100
AcDbLine
 62
7
  6
CONTINUOUS
 10
-7.95
 20
-18.6875001073
 11
-7.95
 21
-18.5187501073
  0
LINE
  5
305
100
AcDbEntity
  8
0
100
AcDbLine
 62
7
  6
CONTINUOUS
 10
-7.95
 20
-17.6468748927
 11
-7.95
 21
-17.5906251073
  0
LINE
  5
306
100
AcDbEntity
  8
0
100
AcDbLine
 62
7
  6
CONTINUOUS
 10
-7.95
 20
-16.8312501073
 11
-7.95
 21
-15.8750000536
  0
LINE
  5
307
100
AcDbEntity
  8
0
100
AcDbLine
 62
7
  6
CONTINUOUS
 10
-7.95
 20
-13.990625
 11
-7.95
 21
-13.8781249866
  0
LINE
  5
308
100
AcDbEntity
  8
0
100
AcDbLine
 62
7
  6
CONTINUOUS
 10
-7.45
 20
-13.635000013
 11
-7.45
 21
-13.8525
  0
LINE
  5
309
100
AcDbEntity
  8
0
100
AcDbLine
 62
7
  6
CONTINUOUS
 10
-7.45
 20
-14.505
 11
-7.45
 21
-14.668125
  0
LINE
  5
30A
100
AcDbEntity
  8
0
100
AcDbLine
 62
7
  6
CONTINUOUS
 10
-7.45
 20
-14.8856249481
 11
-7.45
 21
-15.0487499481
  0
LINE
  5
30B
100
AcDbEntity
  8
0
100
AcDbLine
 62
7
  6
CONTINUOUS
 10
-7.45
 20
-15.4293750519
 11
-7.45
 21
-15.646875
  0
LINE
  5
30C
100
AcDbEntity
  8
0
100
AcDbLine
 62
7
  6
CONTINUOUS
 10
-7.45
 20
-16.0275001037
 11
-7.45
 21
-16.1906251037
  0
LINE
  5
30D
100
AcDbEntity
  8
0
100
AcDbLine
 62
7
  6
CONTINUOUS
 10
-7.45
 20
-16.4081248963
 11
-7.45
 21
-16.5712498963
  0
LINE
  5
30E
100
AcDbEntity
  8
0
100
AcDbLine
 62
7
  6
CONTINUOUS
 10
-7.45
 20
-17.3325001037
 11
-7.45
 21
-17.4956251037
  0
LINE
  5
30F
100
AcDbEntity
  8
0
100
AcDbLine
 62
7
  6
CONTINUOUS
 10
-7.45
 20
-17.7131248963
 11
-7.45
 21
-17.8762498963
  0
LINE
  5
310
100
AcDbEntity
  8
0
100
AcDbLine
 62
7
  6
CONTINUOUS
 10
-7.45
 20
-18.5559372926
 11
-7.45
 21
-18.74625
  0
LINE
  5
311
100
AcDbEntity
  8
0
100
AcDbLine
 62
7
  6
CONTINUOUS
 10
-7.0670212775
 20
-16.6800001037
 11
-7.0670212775
 21
-17.2237498963
  0
LINE
  5
312
100
AcDbEntity
  8
0
100
AcDbLine
 62
7
  6
CONTINUOUS
 10
-6.9393617183
 20
-17.1965625
 11
-6.9393617183
 21
-16.7071875
  0
LINE
  5
313
100
AcDbEntity
  8
0
100
AcDbLine
 62
7
  6
CONTINUOUS
 10
-6.7797872245
 20
-17.8762498963
 11
-6.7797872245
 21
-18.3384375
  0
LINE
  5
314
100
AcDbEntity
  8
0
100
AcDbLine
 62
7
  6
CONTINUOUS
 10
-6.5882978857
 20
-18.3928126037
 11
-6.5882978857
 21
-17.8762498963
  0
LINE
  5
315
100
AcDbEntity
  8
RACCORDO
100
AcDbLine
 62
7
  6
CONTINUOUS
 10
-5.4073005555
 20
20.3280433908
 11
-5.4025952137
 21
20.3942462185
  0
LINE
  5
316
100
AcDbEntity
  8
0
100
AcDbLine
 62
253
  6
CONTINUOUS
 10
-9.8405613894
 20
-20.0302795453
 11
-9.8844847477
 21
-20.3392506254
  0
LINE
  5
317
100
AcDbEntity
  8
0
100
AcDbLine
 62
253
  6
CONTINUOUS
 10
-9.5406070808
 20
-20.3280433908
 11
-9.5844404066
 21
-20.636381153
  0
LINE
  5
318
100
AcDbEntity
  8
0
100
AcDbLine
 62
7
  6
CONTINUOUS
 10
-9.4180851074
 20
-14.9749999464
 11
-9.45
 21
-15.1437499464
  0
LINE
  5
319
100
AcDbEntity
  8
0
100
AcDbLine
 62
7
  6
CONTINUOUS
 10
6.0776595592
 20
18.6103127074
 11
5.9819148898
 21
18.5015625
  0
LINE
  5
31A
100
AcDbEntity
  8
0
100
AcDbLine
 62
7
  6
CONTINUOUS
 10
9.226595749
 20
17.3375001073
 11
9.162765947
 21
17.28125
  0
LINE
  5
31B
100
AcDbEntity
  8
0
100
AcDbLine
 62
7
  6
CONTINUOUS
 10
8.2053191185
 20
14.1874999732
 11
8.3010637879
 21
14.24375
  0
LINE
  5
31C
100
AcDbEntity
  8
0
100
AcDbLine
 62
253
  6
CONTINUOUS
 10
-9.8844847477
 20
20.3392506254
 11
-9.8405613894
 21
20.0302795453
  0
LINE
  5
31D
100
AcDbEntity
  8
0
100
AcDbLine
 62
253
  6
CONTINUOUS
 10
-9.5844404066
 20
20.636381153
 11
-9.5406070808
 21
20.3280433908
  0
LINE
  5
31E
100
AcDbEntity
  8
0
100
AcDbLine
 62
7
  6
CONTINUOUS
 10
-6.1095744491
 20
-17.8762498963
 11
-6.1095744491
 21
-18.3928126037
  0
LINE
  5
31F
100
AcDbEntity
  8
0
100
AcDbLine
 62
7
  6
CONTINUOUS
 10
-5.95
 20
-18.3656248963
 11
-5.95
 21
-17.7131248963
  0
LINE
  5
320
100
AcDbEntity
  8
0
100
AcDbLine
 62
7
  6
CONTINUOUS
 10
-5.95
 20
-17.0606248963
 11
-5.95
 21
-16.8431251037
  0
LINE
  5
321
100
AcDbEntity
  8
0
100
AcDbLine
 62
7
  6
CONTINUOUS
 10
-5.95
 20
-16.1906251037
 11
-5.95
 21
-15.9459376037
  0
LINE
  5
322
100
AcDbEntity
  8
0
100
AcDbLine
 62
7
  6
CONTINUOUS
 10
-5.95
 20
-15.1303124481
 11
-5.95
 21
-14.8856249481
  0
LINE
  5
323
100
AcDbEntity
  8
0
100
AcDbLine
 62
7
  6
CONTINUOUS
 10
-5.95
 20
-14.668125
 11
-5.95
 21
-14.505
  0
LINE
  5
324
100
AcDbEntity
  8
0
100
AcDbLine
 62
7
  6
CONTINUOUS
 10
-5.95
 20
-14.2874999741
 11
-5.95
 21
-14.1243749741
  0
LINE
  5
325
100
AcDbEntity
  8
0
100
AcDbLine
 62
7
  6
CONTINUOUS
 10
-5.95
 20
-13.363125
 11
-5.95
 21
-13.2
  0
LINE
  5
326
100
AcDbEntity
  8
0
100
AcDbLine
 62
7
  6
CONTINUOUS
 10
-5.8561088075
 20
-1.3061088075
 11
-5.8561088075
 21
-1.5561430767
  0
LINE
  5
327
100
AcDbEntity
  8
0
100
AcDbLine
 62
7
  6
CONTINUOUS
 10
-5.8561088075
 20
1.3061088075
 11
-5.8561088075
 21
1.5561430767
  0
LINE
  5
328
100
AcDbEntity
  8
0
100
AcDbLine
 62
7
  6
CONTINUOUS
 10
-5.85
 20
-1.5500342692
 11
-5.85
 21
-1.3
  0
LINE
  5
329
100
AcDbEntity
  8
0
100
AcDbLine
 62
7
  6
CONTINUOUS
 10
-5.85
 20
1.3
 11
-5.85
 21
1.5500342692
  0
LINE
  5
32A
100
AcDbEntity
  8
0
100
AcDbLine
 62
7
  6
CONTINUOUS
 10
-5.6
 20
16.2603073792
 11
-5.6
 21
6.6396926208
  0
LINE
  5
32B
100
AcDbEntity
  8
0
100
AcDbLine
 62
7
  6
CONTINUOUS
 10
-5.6
 20
-6.6396926208
 11
-5.6
 21
-16.2603073792
  0
LINE
  5
32C
100
AcDbEntity
  8
0
100
AcDbLine
 62
7
  6
CONTINUOUS
 10
-5.4095995546
 20
20.0302795453
 11
-5.4095995546
 21
19.4903890223
  0
LINE
  5
32D
100
AcDbEntity
  8
0
100
AcDbLine
 62
7
  6
CONTINUOUS
 10
-5.4095995546
 20
-20.0302795453
 11
-5.4095995546
 21
-19.4903890223
  0
LINE
  5
32E
100
AcDbEntity
  8
RACCORDO
100
AcDbLine
 62
253
  6
CONTINUOUS
 10
-5.4025952137
 20
20.3942462185
 11
-5.4025952137
 21
19.4973933632
  0
LINE
  5
32F
100
AcDbEntity
  8
RACCORDO
100
AcDbLine
 62
253
  6
CONTINUOUS
 10
-5.4025952137
 20
-19.4973933632
 11
-5.4025952137
 21
-20.3942462185
  0
LINE
  5
330
100
AcDbEntity
  8
0
100
AcDbLine
 62
7
  6
CONTINUOUS
 10
-5.35
 20
1.5169872981
 11
-5.35
 21
0.3270609058
  0
LINE
  5
331
100
AcDbEntity
  8
0
100
AcDbLine
 62
7
  6
CONTINUOUS
 10
-5.35
 20
-0.3270609058
 11
-5.35
 21
-1.5169872981
  0
LINE
  5
332
100
AcDbEntity
  8
RACCORDO
100
AcDbLine
 62
253
  6
CONTINUOUS
 10
-5.1026066368
 20
20.4307601417
 11
-5.1026066368
 21
19.1974047863
  0
LINE
  5
333
100
AcDbEntity
  8
RACCORDO
100
AcDbLine
 62
253
  6
CONTINUOUS
 10
-5.1026066368
 20
-20.4307601417
 11
-5.1026066368
 21
-19.1974047863
  0
LINE
  5
334
100
AcDbEntity
  8
RACCORDO
100
AcDbLine
 62
253
  6
CONTINUOUS
 10
-4.8973933632
 20
-20.4307601417
 11
-4.8973933632
 21
-19.1974047863
  0
LINE
  5
335
100
AcDbEntity
  8
RACCORDO
100
AcDbLine
 62
253
  6
CONTINUOUS
 10
-4.8973933632
 20
19.1974047863
 11
-4.8973933632
 21
20.4307601417
  0
LINE
  5
336
100
AcDbEntity
  8
0
100
AcDbLine
 62
7
  6
CONTINUOUS
 10
-7.9819148898
 20
-17.8437501073
 11
-7.95
 21
-17.6468748927
  0
LINE
  5
337
100
AcDbEntity
  8
0
100
AcDbLine
 62
7
  6
CONTINUOUS
 10
-8.7478723347
 20
-17.6750001073
 11
-8.7797872245
 21
-17.8437501073
  0
LINE
  5
338
100
AcDbEntity
  8
0
100
AcDbLine
 62
7
  6
CONTINUOUS
 10
-7.9819148898
 20
-14.159375
 11
-7.95
 21
-13.990625
  0
LINE
  5
339
100
AcDbEntity
  8
0
100
AcDbLine
 62
7
  6
CONTINUOUS
 10
-7.9819148898
 20
-15.3124999464
 11
-7.95
 21
-15.1437499464
  0
LINE
  5
33A
100
AcDbEntity
  8
0
100
AcDbLine
 62
7
  6
CONTINUOUS
 10
-9.2904255286
 20
-15.1437499464
 11
-9.2585106388
 21
-15.003125
  0
LINE
  5
33B
100
AcDbEntity
  8
0
100
AcDbLine
 62
7
  6
CONTINUOUS
 10
-9.4180851074
 20
-16.1562501073
 11
-9.45
 21
-16.2968748927
  0
LINE
  5
33C
100
AcDbEntity
  8
0
100
AcDbLine
 62
7
  6
CONTINUOUS
 10
-9.2904255286
 20
-17.534375
 11
-9.2585106388
 21
-17.3937498927
  0
LINE
  5
33D
100
AcDbEntity
  8
0
100
AcDbLine
 62
7
  6
CONTINUOUS
 10
-8.1095744491
 20
-13.9624999866
 11
-8.1414893389
 21
-14.1031249732
  0
LINE
  5
33E
100
AcDbEntity
  8
0
100
AcDbLine
 62
7
  6
CONTINUOUS
 10
8.1734042287
 20
15.5375000536
 11
8.0776595592
 21
15.4531250536
  0
LINE
  5
33F
100
AcDbEntity
  8
0
100
AcDbLine
 62
7
  6
CONTINUOUS
 10
8.1734042287
 20
14.3843750268
 11
8.0457446694
 21
14.2718749732
  0
LINE
  5
340
100
AcDbEntity
  8
0
100
AcDbLine
 62
7
  6
CONTINUOUS
 10
9.226595749
 20
14.75
 11
9.3223404296
 21
14.834375
  0
LINE
  5
341
100
AcDbEntity
  8
0
100
AcDbLine
 62
7
  6
CONTINUOUS
 10
-9.8405613894
 20
1.3035364386
 11
-9.8476348052
 21
1.3
  0
LINE
  5
342
100
AcDbEntity
  8
DRAFT
100
AcDbLine
 62
7
  6
CONTINUOUS
 10
4.6603073792
 20
-5.7
 11
1.2639640519
 21
-5.7
  0
LINE
  5
343
100
AcDbEntity
  8
DRAFT
100
AcDbLine
 62
7
  6
CONTINUOUS
 10
-1.2639640519
 20
-5.7
 11
-4.6603073792
 21
-5.7
  0
LINE
  5
344
100
AcDbEntity
  8
0
100
AcDbLine
 62
7
  6
CONTINUOUS
 10
2.9581029345
 20
-5.1
 11
2.7418970655
 21
-5.1
  0
LINE
  5
345
100
AcDbEntity
  8
0
100
AcDbLine
 62
7
  6
CONTINUOUS
 10
-2.7418970655
 20
-5.1
 11
-2.9581029345
 21
-5.1
  0
LINE
  5
346
100
AcDbEntity
  8
0
100
AcDbLine
 62
7
  6
CONTINUOUS
 10
-9.8405613894
 20
-1.3035364386
 11
-9.8476348052
 21
-1.3
  0
LINE
  5
347
100
AcDbEntity
  8
RACCORDO
100
AcDbLine
 62
7
  6
CONTINUOUS
 10
-4.5926994445
 20
20.3280433908
 11
-4.5974047863
 21
20.3942462185
  0
LINE
  5
348
100
AcDbEntity
  8
RACCORDO
100
AcDbLine
 62
253
  6
CONTINUOUS
 10
-3.2525952137
 20
4.1565814149
 11
-3.2561088075
 21
4.636402816
  0
LINE
  5
349
100
AcDbEntity
  8
0
100
AcDbLine
 62
7
  6
CONTINUOUS
 10
-4.6862139802
 20
0.7862330187
 11
-4.6862139802
 21
0.3370942827
  0
LINE
  5
34A
100
AcDbEntity
  8
0
100
AcDbLine
 62
7
  6
CONTINUOUS
 10
-4.6862139802
 20
-0.3370942827
 11
-4.6862139802
 21
-0.7862330187
  0
LINE
  5
34B
100
AcDbEntity
  8
RACCORDO
100
AcDbLine
 62
253
  6
CONTINUOUS
 10
-4.5974047863
 20
-20.3942462185
 11
-4.5974047863
 21
-19.4973933632
  0
LINE
  5
34C
100
AcDbEntity
  8
RACCORDO
100
AcDbLine
 62
253
  6
CONTINUOUS
 10
-4.5974047863
 20
19.4973933632
 11
-4.5974047863
 21
20.3942462185
  0
LINE
  5
34D
100
AcDbEntity
  8
0
100
AcDbLine
 62
7
  6
CONTINUOUS
 10
-4.5904004454
 20
20.0302795453
 11
-4.5904004454
 21
19.4903890223
  0
LINE
  5
34E
100
AcDbEntity
  8
0
100
AcDbLine
 62
7
  6
CONTINUOUS
 10
-4.5904004454
 20
-20.0302795453
 11
-4.5904004454
 21
-19.4903890223
  0
LINE
  5
34F
100
AcDbEntity
  8
0
100
AcDbLine
 62
7
  6
CONTINUOUS
 10
-4.1061088075
 20
-2.7061202305
 11
-4.1061088075
 21
-2.4561088075
  0
LINE
  5
350
100
AcDbEntity
  8
0
100
AcDbLine
 62
7
  6
CONTINUOUS
 10
-4.1061088075
 20
2.4561088075
 11
-4.1061088075
 21
2.7061202305
  0
LINE
  5
351
100
AcDbEntity
  8
0
100
AcDbLine
 62
7
  6
CONTINUOUS
 10
-4.1
 20
-2.7000114231
 11
-4.1
 21
-2.45
  0
LINE
  5
352
100
AcDbEntity
  8
0
100
AcDbLine
 62
7
  6
CONTINUOUS
 10
-4.1
 20
2.45
 11
-4.1
 21
2.7000114231
  0
LINE
  5
353
100
AcDbEntity
  8
0
100
AcDbLine
 62
7
  6
CONTINUOUS
 10
-3.2561088075
 20
-4.636402816
 11
-3.2561088075
 21
-3.0061088075
  0
LINE
  5
354
100
AcDbEntity
  8
0
100
AcDbLine
 62
7
  6
CONTINUOUS
 10
-3.2561088075
 20
3.0061088075
 11
-3.2561088075
 21
4.636402816
  0
LINE
  5
355
100
AcDbEntity
  8
RACCORDO
100
AcDbLine
 62
253
  6
CONTINUOUS
 10
-3.2525952137
 20
4.1565814149
 11
-3.2525952137
 21
3.0025952137
  0
LINE
  5
356
100
AcDbEntity
  8
RACCORDO
100
AcDbLine
 62
253
  6
CONTINUOUS
 10
-3.2525952137
 20
-3.0025952137
 11
-3.2525952137
 21
-4.1565814149
  0
LINE
  5
357
100
AcDbEntity
  8
RACCORDO
100
AcDbLine
 62
253
  6
CONTINUOUS
 10
-3.2561088075
 20
-4.636402816
 11
-3.2525952137
 21
-4.1565814149
  0
LINE
  5
358
100
AcDbEntity
  8
RACCORDO
100
AcDbLine
 62
7
  6
CONTINUOUS
 10
-4.5926994445
 20
-20.3280433908
 11
-4.5974047863
 21
-20.3942462185
  0
LINE
  5
359
100
AcDbEntity
  8
0
100
AcDbLine
 62
7
  6
CONTINUOUS
 10
-8.524468106
 20
-16.60625
 11
-8.4925532162
 21
-16.4656248927
  0
LINE
  5
35A
100
AcDbEntity
  8
0
100
AcDbLine
 62
7
  6
CONTINUOUS
 10
-8.1095744491
 20
-15.1437499464
 11
-8.1414893389
 21
-15.2843750536
  0
LINE
  5
35B
100
AcDbEntity
  8
0
100
AcDbLine
 62
7
  6
CONTINUOUS
 10
-8.1095744491
 20
-17.6750001073
 11
-8.1414893389
 21
-17.8156248927
  0
LINE
  5
35C
100
AcDbEntity
  8
0
100
AcDbLine
 62
7
  6
CONTINUOUS
 10
-9.2904255286
 20
-16.2968748927
 11
-9.2585106388
 21
-16.184375
  0
LINE
  5
35D
100
AcDbEntity
  8
0
100
AcDbLine
 62
7
  6
CONTINUOUS
 10
-9.4180851074
 20
-17.3937498927
 11
-9.45
 21
-17.5062501073
  0
LINE
  5
35E
100
AcDbEntity
  8
0
100
AcDbLine
 62
7
  6
CONTINUOUS
 10
-8.6521276653
 20
-16.4656248927
 11
-8.6840425551
 21
-16.5781251073
  0
LINE
  5
35F
100
AcDbEntity
  8
0
100
AcDbLine
 62
7
  6
CONTINUOUS
 10
8.1414893389
 20
17.8156248927
 11
8.2053191185
 21
17.8999998927
  0
LINE
  5
360
100
AcDbEntity
  8
0
100
AcDbLine
 62
7
  6
CONTINUOUS
 10
8.7797872245
 20
17.8437501073
 11
8.8436170042
 21
17.9281251073
  0
LINE
  5
361
100
AcDbEntity
  8
RACCORDO
100
AcDbLine
 62
7
  6
CONTINUOUS
 10
-2.4438911925
 20
2.4561088075
 11
-2.4474047863
 21
2.4525952137
  0
LINE
  5
362
100
AcDbEntity
  8
DRAFT
100
AcDbLine
 62
7
  6
CONTINUOUS
 10
-5.8561088075
 20
-1.3061088075
 11
-5.85
 21
-1.3
  0
LINE
  5
363
100
AcDbEntity
  8
DRAFT
100
AcDbLine
 62
7
  6
CONTINUOUS
 10
-9.9
 20
0.1
 11
-9.8476348052
 21
0.1261806034
  0
LINE
  5
364
100
AcDbEntity
  8
RACCORDO
100
AcDbLine
 62
253
  6
CONTINUOUS
 10
-2.9526066368
 20
-4.3494176978
 11
-2.7473933632
 21
-4.3494176978
  0
LINE
  5
365
100
AcDbEntity
  8
RACCORDO
100
AcDbLine
 62
253
  6
CONTINUOUS
 10
2.7473933632
 20
-4.3494176978
 11
2.9526066368
 21
-4.3494176978
  0
LINE
  5
366
100
AcDbEntity
  8
RACCORDO
100
AcDbLine
 62
253
  6
CONTINUOUS
 10
2.4474047863
 20
-4.1565814149
 11
3.2525952137
 21
-4.1565814149
  0
LINE
  5
367
100
AcDbEntity
  8
RACCORDO
100
AcDbLine
 62
253
  6
CONTINUOUS
 10
-2.4474047863
 20
-4.1565814149
 11
-3.2525952137
 21
-4.1565814149
  0
LINE
  5
368
100
AcDbEntity
  8
DRAFT
100
AcDbLine
 62
7
  6
CONTINUOUS
 10
-1.2639640519
 20
-3.55
 11
1.2639640519
 21
-3.55
  0
LINE
  5
369
100
AcDbEntity
  8
DRAFT
100
AcDbLine
 62
7
  6
CONTINUOUS
 10
-1.2674550649
 20
-3.35
 11
1.2674550649
 21
-3.35
  0
LINE
  5
36A
100
AcDbEntity
  8
DRAFT
100
AcDbLine
 62
7
  6
CONTINUOUS
 10
-9.9
 20
-0.1
 11
-9.8476348052
 21
-0.1261806034
  0
LINE
  5
36B
100
AcDbEntity
  8
RACCORDO
100
AcDbLine
 62
7
  6
CONTINUOUS
 10
-2.4438911925
 20
-2.4561088075
 11
-2.4474047863
 21
-2.4525952137
  0
LINE
  5
36C
100
AcDbEntity
  8
DRAFT
100
AcDbLine
 62
7
  6
CONTINUOUS
 10
-5.8561088075
 20
1.3061088075
 11
-5.85
 21
1.3
  0
LINE
  5
36D
100
AcDbEntity
  8
RACCORDO
100
AcDbLine
 62
253
  6
CONTINUOUS
 10
-2.9526066368
 20
4.3494176978
 11
-2.9581029345
 21
5.1
  0
LINE
  5
36E
100
AcDbEntity
  8
RACCORDO
100
AcDbLine
 62
253
  6
CONTINUOUS
 10
-2.7473933632
 20
-4.3494176978
 11
-2.7418970655
 21
-5.1
  0
LINE
  5
36F
100
AcDbEntity
  8
RACCORDO
100
AcDbLine
 62
253
  6
CONTINUOUS
 10
-2.4474047863
 20
-4.1565814149
 11
-2.4438911925
 21
-4.636402816
  0
LINE
  5
370
100
AcDbEntity
  8
RACCORDO
100
AcDbLine
 62
253
  6
CONTINUOUS
 10
-2.9526066368
 20
-3.0
 11
-2.9526066368
 21
-4.3494176978
  0
LINE
  5
371
100
AcDbEntity
  8
RACCORDO
100
AcDbLine
 62
253
  6
CONTINUOUS
 10
-2.9526066368
 20
3.0
 11
-2.9526066368
 21
4.3494176978
  0
LINE
  5
372
100
AcDbEntity
  8
RACCORDO
100
AcDbLine
 62
253
  6
CONTINUOUS
 10
-2.7473933632
 20
-4.3494176978
 11
-2.7473933632
 21
-2.45
  0
LINE
  5
373
100
AcDbEntity
  8
RACCORDO
100
AcDbLine
 62
253
  6
CONTINUOUS
 10
-2.7473933632
 20
2.45
 11
-2.7473933632
 21
4.3494176978
  0
LINE
  5
374
100
AcDbEntity
  8
DRAFT
100
AcDbLine
 62
7
  6
CONTINUOUS
 10
-2.584265172
 20
-20.636381153
 11
-2.584265172
 21
-22.1947348166
  0
LINE
  5
375
100
AcDbEntity
  8
DRAFT
100
AcDbLine
 62
7
  6
CONTINUOUS
 10
-2.584265172
 20
20.636381153
 11
-2.584265172
 21
22.1947348166
  0
LINE
  5
376
100
AcDbEntity
  8
RACCORDO
100
AcDbLine
 62
253
  6
CONTINUOUS
 10
-2.4474047863
 20
-4.1565814149
 11
-2.4474047863
 21
-2.4525952137
  0
LINE
  5
377
100
AcDbEntity
  8
RACCORDO
100
AcDbLine
 62
253
  6
CONTINUOUS
 10
-2.4474047863
 20
2.4525952137
 11
-2.4474047863
 21
4.1565814149
  0
LINE
  5
378
100
AcDbEntity
  8
0
100
AcDbLine
 62
7
  6
CONTINUOUS
 10
-2.4438911925
 20
4.636402816
 11
-2.4438911925
 21
2.4561088075
  0
LINE
  5
379
100
AcDbEntity
  8
0
100
AcDbLine
 62
7
  6
CONTINUOUS
 10
-2.4438911925
 20
-2.4561088075
 11
-2.4438911925
 21
-4.636402816
  0
LINE
  5
37A
100
AcDbEntity
  8
0
100
AcDbLine
 62
253
  6
CONTINUOUS
 10
-2.3077350269
 20
22.1696065528
 11
-2.3077350269
 21
20.578010093
  0
LINE
  5
37B
100
AcDbEntity
  8
0
100
AcDbLine
 62
253
  6
CONTINUOUS
 10
-2.3077350269
 20
-20.578010093
 11
-2.3077350269
 21
-22.1696065528
  0
LINE
  5
37C
100
AcDbEntity
  8
0
100
AcDbLine
 62
253
  6
CONTINUOUS
 10
-2.1345299462
 20
22.1643601773
 11
-2.1345299462
 21
20.5658231586
  0
LINE
  5
37D
100
AcDbEntity
  8
0
100
AcDbLine
 62
253
  6
CONTINUOUS
 10
-2.1345299462
 20
-20.5658231586
 11
-2.1345299462
 21
-22.1643601773
  0
LINE
  5
37E
100
AcDbEntity
  8
RACCORDO
100
AcDbLine
 62
253
  6
CONTINUOUS
 10
-2.9581029345
 20
-5.1
 11
-2.9526066368
 21
-4.3494176978
  0
LINE
  5
37F
100
AcDbEntity
  8
RACCORDO
100
AcDbLine
 62
253
  6
CONTINUOUS
 10
-2.7418970655
 20
5.1
 11
-2.7473933632
 21
4.3494176978
  0
LINE
  5
380
100
AcDbEntity
  8
RACCORDO
100
AcDbLine
 62
253
  6
CONTINUOUS
 10
-2.4438911925
 20
4.636402816
 11
-2.4474047863
 21
4.1565814149
  0
LINE
  5
381
100
AcDbEntity
  8
0
100
AcDbLine
 62
7
  6
CONTINUOUS
 10
-5.9819148898
 20
-18.5015625
 11
-5.95
 21
-18.3656248963
  0
LINE
  5
382
100
AcDbEntity
  8
0
100
AcDbLine
 62
7
  6
CONTINUOUS
 10
8.0457446694
 20
17.95625
 11
7.9819148898
 21
17.8437501073
  0
LINE
  5
383
100
AcDbEntity
  8
0
100
AcDbLine
 62
7
  6
CONTINUOUS
 10
8.6202127755
 20
16.7468751073
 11
8.524468106
 21
16.60625
  0
LINE
  5
384
100
AcDbEntity
  8
0
100
AcDbLine
 62
7
  6
CONTINUOUS
 10
8.0776595592
 20
15.4531250536
 11
7.9819148898
 21
15.3124999464
  0
LINE
  5
385
100
AcDbEntity
  8
0
100
AcDbLine
 62
7
  6
CONTINUOUS
 10
8.6840425551
 20
16.5781251073
 11
8.7478723347
 21
16.6625001073
  0
LINE
  5
386
100
AcDbEntity
  8
0
100
AcDbLine
 62
7
  6
CONTINUOUS
 10
9.2904255286
 20
17.196875
 11
9.3542553194
 21
17.28125
  0
LINE
  5
387
100
AcDbEntity
  8
0
100
AcDbLine
 62
7
  6
CONTINUOUS
 10
8.1414893389
 20
15.2843750536
 11
8.2053191185
 21
15.3687500536
  0
LINE
  5
388
100
AcDbEntity
  8
0
100
AcDbLine
 62
7
  6
CONTINUOUS
 10
9.2585106388
 20
16.184375
 11
9.1946808591
 21
16.1
  0
LINE
  5
389
100
AcDbEntity
  8
0
100
AcDbLine
 62
7
  6
CONTINUOUS
 10
8.1414893389
 20
14.1031249732
 11
8.2053191185
 21
14.1874999732
  0
LINE
  5
38A
100
AcDbEntity
  8
0
100
AcDbLine
 62
7
  6
CONTINUOUS
 10
9.2585106388
 20
15.003125
 11
9.1946808591
 21
14.91875
  0
LINE
  5
38B
100
AcDbEntity
  8
0
100
AcDbLine
 62
253
  6
CONTINUOUS
 10
-5.8561088075
 20
-1.5561430767
 11
-5.85
 21
-1.5500342692
  0
LINE
  5
38C
100
AcDbEntity
  8
0
100
AcDbLine
 62
253
  6
CONTINUOUS
 10
-4.6822903819
 20
-0.84927768
 11
-5.35
 21
-1.5169872981
  0
LINE
  5
38D
100
AcDbEntity
  8
0
100
AcDbLine
 62
253
  6
CONTINUOUS
 10
-4.9169872981
 20
-1.95
 11
-4.24927768
 21
-1.2822903819
  0
LINE
  5
38E
100
AcDbEntity
  8
0
100
AcDbLine
 62
253
  6
CONTINUOUS
 10
-4.9561430767
 20
-2.4561088075
 11
-4.9500342692
 21
-2.45
  0
LINE
  5
38F
100
AcDbEntity
  8
0
100
AcDbLine
 62
7
  6
CONTINUOUS
 10
3.8061202305
 20
-3.0061088075
 11
3.2561088075
 21
-3.0061088075
  0
LINE
  5
390
100
AcDbEntity
  8
0
100
AcDbLine
 62
7
  6
CONTINUOUS
 10
-3.2561088075
 20
-3.0061088075
 11
-3.8061202305
 21
-3.0061088075
  0
LINE
  5
391
100
AcDbEntity
  8
RACCORDO
100
AcDbLine
 62
7
  6
CONTINUOUS
 10
-3.8000114231
 20
-3.0
 11
-2.9526066368
 21
-3.0
  0
LINE
  5
392
100
AcDbEntity
  8
RACCORDO
100
AcDbLine
 62
7
  6
CONTINUOUS
 10
2.9526066368
 20
-3.0
 11
3.8000114231
 21
-3.0
  0
LINE
  5
393
100
AcDbEntity
  8
0
100
AcDbLine
 62
7
  6
CONTINUOUS
 10
4.9561430767
 20
-2.4561088075
 11
4.1061088075
 21
-2.4561088075
  0
LINE
  5
394
100
AcDbEntity
  8
DRAFT
100
AcDbLine
 62
7
  6
CONTINUOUS
 10
2.4438911925
 20
-2.4561088075
 11
1.2674550649
 21
-2.4561088075
  0
LINE
  5
395
100
AcDbEntity
  8
DRAFT
100
AcDbLine
 62
7
  6
CONTINUOUS
 10
-1.2674550649
 20
-2.4561088075
 11
-2.4438911925
 21
-2.4561088075
  0
LINE
  5
396
100
AcDbEntity
  8
0
100
AcDbLine
 62
7
  6
CONTINUOUS
 10
-4.1061088075
 20
-2.4561088075
 11
-4.9561430767
 21
-2.4561088075
  0
LINE
  5
397
100
AcDbEntity
  8
0
100
AcDbLine
 62
7
  6
CONTINUOUS
 10
4.9500342692
 20
-2.45
 11
4.1
 21
-2.45
  0
LINE
  5
398
100
AcDbEntity
  8
DRAFT
100
AcDbLine
 62
7
  6
CONTINUOUS
 10
-1.2674550649
 20
-2.45
 11
1.2674550649
 21
-2.45
  0
LINE
  5
399
100
AcDbEntity
  8
RACCORDO
100
AcDbLine
 62
7
  6
CONTINUOUS
 10
-2.7473933632
 20
-2.45
 11
2.7473933632
 21
-2.45
  0
LINE
  5
39A
100
AcDbEntity
  8
0
100
AcDbLine
 62
7
  6
CONTINUOUS
 10
-4.1
 20
-2.45
 11
-4.9500342692
 21
-2.45
  0
LINE
  5
39B
100
AcDbEntity
  8
0
100
AcDbLine
 62
7
  6
CONTINUOUS
 10
-4.9169872981
 20
-1.95
 11
4.9169872981
 21
-1.95
  0
LINE
  5
39C
100
AcDbEntity
  8
0
100
AcDbLine
 62
253
  6
CONTINUOUS
 10
-5.8561088075
 20
1.5561430767
 11
-5.85
 21
1.5500342692
  0
LINE
  5
39D
100
AcDbEntity
  8
0
100
AcDbLine
 62
253
  6
CONTINUOUS
 10
-5.35
 20
1.5169872981
 11
-4.6822903819
 21
0.84927768
  0
LINE
  5
39E
100
AcDbEntity
  8
0
100
AcDbLine
 62
253
  6
CONTINUOUS
 10
-4.24927768
 20
1.2822903819
 11
-4.9169872981
 21
1.95
  0
LINE
  5
39F
100
AcDbEntity
  8
0
100
AcDbLine
 62
253
  6
CONTINUOUS
 10
-4.9561430767
 20
2.4561088075
 11
-4.9500342692
 21
2.45
  0
LINE
  5
3A0
100
AcDbEntity
  8
DRAFT
100
AcDbLine
 62
7
  6
CONTINUOUS
 10
-1.2674550649
 20
-3.35
 11
-1.2639640519
 21
-3.55
  0
LINE
  5
3A1
100
AcDbEntity
  8
DRAFT
100
AcDbLine
 62
7
  6
CONTINUOUS
 10
-1.2674550649
 20
-2.45
 11
-1.2674550649
 21
-3.35
  0
LINE
  5
3A2
100
AcDbEntity
  8
DRAFT
100
AcDbLine
 62
7
  6
CONTINUOUS
 10
-1.2674550649
 20
2.45
 11
-1.2674550649
 21
3.35
  0
LINE
  5
3A3
100
AcDbEntity
  8
DRAFT
100
AcDbLine
 62
7
  6
CONTINUOUS
 10
-1.2639640519
 20
-5.7
 11
-1.2639640519
 21
-3.55
  0
LINE
  5
3A4
100
AcDbEntity
  8
DRAFT
100
AcDbLine
 62
7
  6
CONTINUOUS
 10
-1.2639640519
 20
3.55
 11
-1.2639640519
 21
5.7
  0
LINE
  5
3A5
100
AcDbEntity
  8
DRAFT
100
AcDbLine
 62
7
  6
CONTINUOUS
 10
-1.2674550649
 20
3.35
 11
-1.2639640519
 21
3.55
  0
LINE
  5
3A6
100
AcDbEntity
  8
0
100
AcDbLine
 62
7
  6
CONTINUOUS
 10
6.1095744491
 20
18.3928126037
 11
6.1414893389
 21
18.4743747926
  0
LINE
  5
3A7
100
AcDbEntity
  8
0
100
AcDbLine
 62
7
  6
CONTINUOUS
 10
-8.7478723347
 20
-18.040625
 11
-8.6840425551
 21
-17.8999998927
  0
LINE
  5
3A8
100
AcDbEntity
  8
0
100
AcDbLine
 62
7
  6
CONTINUOUS
 10
9.2585106388
 20
17.3937498927
 11
9.226595749
 21
17.3375001073
  0
LINE
  5
3A9
100
AcDbEntity
  8
0
100
AcDbLine
 62
7
  6
CONTINUOUS
 10
9.3542553194
 20
17.28125
 11
9.4180851074
 21
17.3937498927
  0
LINE
  5
3AA
100
AcDbEntity
  8
0
100
AcDbLine
 62
7
  6
CONTINUOUS
 10
8.0457446694
 20
14.2718749732
 11
7.9819148898
 21
14.159375
  0
LINE
  5
3AB
100
AcDbEntity
  8
0
100
AcDbLine
 62
7
  6
CONTINUOUS
 10
-8.0457446694
 20
-14.2718749732
 11
-7.9819148898
 21
-14.159375
  0
LINE
  5
3AC
100
AcDbEntity
  8
0
100
AcDbLine
 62
7
  6
CONTINUOUS
 10
9.3223404296
 20
16.015625
 11
9.4180851074
 21
16.1562501073
  0
LINE
  5
3AD
100
AcDbEntity
  8
0
100
AcDbLine
 62
7
  6
CONTINUOUS
 10
9.3223404296
 20
14.834375
 11
9.4180851074
 21
14.9749999464
  0
LINE
  5
3AE
100
AcDbEntity
  8
DRAFT
100
AcDbLine
 62
7
  6
CONTINUOUS
 10
-4.1061088075
 20
-2.4561088075
 11
-4.1
 21
-2.45
  0
LINE
  5
3AF
100
AcDbEntity
  8
0
100
AcDbLine
 62
253
  6
CONTINUOUS
 10
-4.1061088075
 20
-2.7061202305
 11
-4.1
 21
-2.7000114231
  0
LINE
  5
3B0
100
AcDbEntity
  8
0
100
AcDbLine
 62
253
  6
CONTINUOUS
 10
-3.8061202305
 20
-3.0061088075
 11
-3.8000114231
 21
-3.0
  0
LINE
  5
3B1
100
AcDbEntity
  8
RACCORDO
100
AcDbLine
 62
7
  6
CONTINUOUS
 10
-3.2525952137
 20
-3.0025952137
 11
-3.2561088075
 21
-3.0061088075
  0
LINE
  5
3B2
100
AcDbEntity
  8
RACCORDO
100
AcDbLine
 62
7
  6
CONTINUOUS
 10
3.2525952137
 20
3.0025952137
 11
3.2561088075
 21
3.0061088075
  0
LINE
  5
3B3
100
AcDbEntity
  8
0
100
AcDbLine
 62
253
  6
CONTINUOUS
 10
5.35
 20
-0.3270609058
 11
4.6862139802
 21
-0.3370942827
  0
LINE
  5
3B4
100
AcDbEntity
  8
0
100
AcDbLine
 62
7
  6
CONTINUOUS
 10
5.5779188992
 20
-0.1262110396
 11
4.8831844107
 21
-0.1367122143
  0
LINE
  5
3B5
100
AcDbEntity
  8
0
100
AcDbLine
 62
7
  6
CONTINUOUS
 10
-5.5779188992
 20
0.1262110396
 11
-4.8831844107
 21
0.1367122143
  0
LINE
  5
3B6
100
AcDbEntity
  8
0
100
AcDbLine
 62
7
  6
CONTINUOUS
 10
5.5819477612
 20
-0.1261806034
 11
5.5778967085
 21
-0.1262134257
  0
LINE
  5
3B7
100
AcDbEntity
  8
0
100
AcDbLine
 62
7
  6
CONTINUOUS
 10
-5.5819477612
 20
0.1261806034
 11
-5.5778967085
 21
0.1262134257
  0
LINE
  5
3B8
100
AcDbEntity
  8
0
100
AcDbLine
 62
7
  6
CONTINUOUS
 10
9.5406070808
 20
-1.3061088075
 11
5.8561088075
 21
-1.3061088075
  0
LINE
  5
3B9
100
AcDbEntity
  8
0
100
AcDbLine
 62
7
  6
CONTINUOUS
 10
-5.8561088075
 20
-1.3061088075
 11
-9.5406070808
 21
-1.3061088075
  0
LINE
  5
3BA
100
AcDbEntity
  8
DRAFT
100
AcDbLine
 62
7
  6
CONTINUOUS
 10
-9.8476348052
 20
-1.3
 11
-5.85
 21
-1.3
  0
LINE
  5
3BB
100
AcDbEntity
  8
DRAFT
100
AcDbLine
 62
7
  6
CONTINUOUS
 10
5.85
 20
-1.3
 11
9.8476348052
 21
-1.3
  0
LINE
  5
3BC
100
AcDbEntity
  8
0
100
AcDbLine
 62
7
  6
CONTINUOUS
 10
-4.1862330187
 20
-1.2862139802
 11
4.1862330187
 21
-1.2862139802
  0
LINE
  5
3BD
100
AcDbEntity
  8
0
100
AcDbLine
 62
7
  6
CONTINUOUS
 10
9.8476348052
 20
-0.1261806034
 11
5.5819477612
 21
-0.1261806034
  0
LINE
  5
3BE
100
AcDbEntity
  8
0
100
AcDbLine
 62
7
  6
CONTINUOUS
 10
-5.5819477612
 20
-0.1261806034
 11
-9.8476348052
 21
-0.1261806034
  0
LINE
  5
3BF
100
AcDbEntity
  8
0
100
AcDbLine
 62
7
  6
CONTINUOUS
 10
-10.8999237983
 20
-0.1
 11
-9.9
 21
-0.1
  0
LINE
  5
3C0
100
AcDbEntity
  8
0
100
AcDbLine
 62
7
  6
CONTINUOUS
 10
9.9
 20
-0.1
 11
10.8999237983
 21
-0.1
  0
LINE
  5
3C1
100
AcDbEntity
  8
0
100
AcDbLine
 62
7
  6
CONTINUOUS
 10
10.8999237983
 20
0.1
 11
9.9
 21
0.1
  0
LINE
  5
3C2
100
AcDbEntity
  8
0
100
AcDbLine
 62
7
  6
CONTINUOUS
 10
-9.9
 20
0.1
 11
-10.8999237983
 21
0.1
  0
LINE
  5
3C3
100
AcDbEntity
  8
0
100
AcDbLine
 62
7
  6
CONTINUOUS
 10
-9.8476348052
 20
0.1261806034
 11
-5.5819477612
 21
0.1261806034
  0
LINE
  5
3C4
100
AcDbEntity
  8
0
100
AcDbLine
 62
7
  6
CONTINUOUS
 10
5.5819477612
 20
0.1261806034
 11
9.8476348052
 21
0.1261806034
  0
LINE
  5
3C5
100
AcDbEntity
  8
0
100
AcDbLine
 62
7
  6
CONTINUOUS
 10
-5.5778967085
 20
-0.1262134257
 11
-5.5819477612
 21
-0.1261806034
  0
LINE
  5
3C6
100
AcDbEntity
  8
0
100
AcDbLine
 62
7
  6
CONTINUOUS
 10
5.5778967085
 20
0.1262134257
 11
5.5819477612
 21
0.1261806034
  0
LINE
  5
3C7
100
AcDbEntity
  8
0
100
AcDbLine
 62
253
  6
CONTINUOUS
 10
-4.6862139802
 20
-0.3370942827
 11
-5.35
 21
-0.3270609058
  0
LINE
  5
3C8
100
AcDbEntity
  8
0
100
AcDbLine
 62
7
  6
CONTINUOUS
 10
-4.8831844107
 20
-0.1367122143
 11
-5.5779188992
 21
-0.1262110396
  0
LINE
  5
3C9
100
AcDbEntity
  8
0
100
AcDbLine
 62
7
  6
CONTINUOUS
 10
4.8831844107
 20
0.1367122143
 11
5.5779188992
 21
0.1262110396
  0
LINE
  5
3CA
100
AcDbEntity
  8
DRAFT
100
AcDbLine
 62
7
  6
CONTINUOUS
 10
-4.1
 20
2.45
 11
-4.1061088075
 21
2.4561088075
  0
LINE
  5
3CB
100
AcDbEntity
  8
0
100
AcDbLine
 62
253
  6
CONTINUOUS
 10
-4.1061088075
 20
2.7061202305
 11
-4.1
 21
2.7000114231
  0
LINE
  5
3CC
100
AcDbEntity
  8
0
100
AcDbLine
 62
253
  6
CONTINUOUS
 10
-3.8061202305
 20
3.0061088075
 11
-3.8000114231
 21
3.0
  0
LINE
  5
3CD
100
AcDbEntity
  8
RACCORDO
100
AcDbLine
 62
7
  6
CONTINUOUS
 10
-3.2525952137
 20
3.0025952137
 11
-3.2561088075
 21
3.0061088075
  0
LINE
  5
3CE
100
AcDbEntity
  8
RACCORDO
100
AcDbLine
 62
7
  6
CONTINUOUS
 10
3.2525952137
 20
-3.0025952137
 11
3.2561088075
 21
-3.0061088075
  0
LINE
  5
3CF
100
AcDbEntity
  8
DRAFT
100
AcDbLine
 62
7
  6
CONTINUOUS
 10
1.2674550649
 20
3.35
 11
1.2639640519
 21
3.55
  0
LINE
  5
3D0
100
AcDbEntity
  8
DRAFT
100
AcDbLine
 62
7
  6
CONTINUOUS
 10
1.2639640519
 20
5.7
 11
1.2639640519
 21
3.55
  0
LINE
  5
3D1
100
AcDbEntity
  8
DRAFT
100
AcDbLine
 62
7
  6
CONTINUOUS
 10
1.2639640519
 20
-3.55
 11
1.2639640519
 21
-5.7
  0
LINE
  5
3D2
100
AcDbEntity
  8
DRAFT
100
AcDbLine
 62
7
  6
CONTINUOUS
 10
1.2674550649
 20
3.35
 11
1.2674550649
 21
2.45
  0
LINE
  5
3D3
100
AcDbEntity
  8
DRAFT
100
AcDbLine
 62
7
  6
CONTINUOUS
 10
1.2674550649
 20
-2.45
 11
1.2674550649
 21
-3.35
  0
LINE
  5
3D4
100
AcDbEntity
  8
DRAFT
100
AcDbLine
 62
7
  6
CONTINUOUS
 10
1.2674550649
 20
-3.35
 11
1.2639640519
 21
-3.55
  0
LINE
  5
3D5
100
AcDbEntity
  8
0
100
AcDbLine
 62
7
  6
CONTINUOUS
 10
5.9819148898
 20
18.5015625
 11
5.95
 21
18.3656248963
  0
LINE
  5
3D6
100
AcDbEntity
  8
0
100
AcDbLine
 62
7
  6
CONTINUOUS
 10
-6.1095744491
 20
-18.3928126037
 11
-6.1414893389
 21
-18.4743747926
  0
LINE
  5
3D7
100
AcDbEntity
  8
0
100
AcDbLine
 62
7
  6
CONTINUOUS
 10
8.7478723347
 20
18.040625
 11
8.6840425551
 21
17.8999998927
  0
LINE
  5
3D8
100
AcDbEntity
  8
0
100
AcDbLine
 62
7
  6
CONTINUOUS
 10
-9.3542553194
 20
-17.28125
 11
-9.4180851074
 21
-17.3937498927
  0
LINE
  5
3D9
100
AcDbEntity
  8
0
100
AcDbLine
 62
7
  6
CONTINUOUS
 10
-9.2585106388
 20
-17.3937498927
 11
-9.226595749
 21
-17.3375001073
  0
LINE
  5
3DA
100
AcDbEntity
  8
0
100
AcDbLine
 62
7
  6
CONTINUOUS
 10
-8.0457446694
 20
-17.95625
 11
-7.9819148898
 21
-17.8437501073
  0
LINE
  5
3DB
100
AcDbEntity
  8
0
100
AcDbLine
 62
7
  6
CONTINUOUS
 10
-9.3223404296
 20
-14.834375
 11
-9.4180851074
 21
-14.9749999464
  0
LINE
  5
3DC
100
AcDbEntity
  8
0
100
AcDbLine
 62
7
  6
CONTINUOUS
 10
-9.3223404296
 20
-16.015625
 11
-9.4180851074
 21
-16.1562501073
  0
LINE
  5
3DD
100
AcDbEntity
  8
0
100
AcDbLine
 62
7
  6
CONTINUOUS
 10
-9.2585106388
 20
-15.003125
 11
-9.1946808591
 21
-14.91875
  0
LINE
  5
3DE
100
AcDbEntity
  8
0
100
AcDbLine
 62
253
  6
CONTINUOUS
 10
3.8061202305
 20
3.0061088075
 11
3.8000114231
 21
3.0
  0
LINE
  5
3DF
100
AcDbEntity
  8
0
100
AcDbLine
 62
253
  6
CONTINUOUS
 10
4.1061088075
 20
2.7061202305
 11
4.1
 21
2.7000114231
  0
LINE
  5
3E0
100
AcDbEntity
  8
DRAFT
100
AcDbLine
 62
7
  6
CONTINUOUS
 10
4.1061088075
 20
2.4561088075
 11
4.1
 21
2.45
  0
LINE
  5
3E1
100
AcDbEntity
  8
0
100
AcDbLine
 62
253
  6
CONTINUOUS
 10
4.9561430767
 20
2.4561088075
 11
4.9500342692
 21
2.45
  0
LINE
  5
3E2
100
AcDbEntity
  8
0
100
AcDbLine
 62
253
  6
CONTINUOUS
 10
-5.35
 20
0.3270609058
 11
-4.6862139802
 21
0.3370942827
  0
LINE
  5
3E3
100
AcDbEntity
  8
0
100
AcDbLine
 62
7
  6
CONTINUOUS
 10
4.1862330187
 20
1.2862139802
 11
-4.1862330187
 21
1.2862139802
  0
LINE
  5
3E4
100
AcDbEntity
  8
DRAFT
100
AcDbLine
 62
7
  6
CONTINUOUS
 10
9.8476348052
 20
1.3
 11
5.85
 21
1.3
  0
LINE
  5
3E5
100
AcDbEntity
  8
DRAFT
100
AcDbLine
 62
7
  6
CONTINUOUS
 10
-5.85
 20
1.3
 11
-9.8476348052
 21
1.3
  0
LINE
  5
3E6
100
AcDbEntity
  8
0
100
AcDbLine
 62
7
  6
CONTINUOUS
 10
-9.5406070808
 20
1.3061088075
 11
-5.8561088075
 21
1.3061088075
  0
LINE
  5
3E7
100
AcDbEntity
  8
0
100
AcDbLine
 62
7
  6
CONTINUOUS
 10
5.8561088075
 20
1.3061088075
 11
9.5406070808
 21
1.3061088075
  0
LINE
  5
3E8
100
AcDbEntity
  8
0
100
AcDbLine
 62
253
  6
CONTINUOUS
 10
4.6862139802
 20
0.3370942827
 11
5.35
 21
0.3270609058
  0
LINE
  5
3E9
100
AcDbEntity
  8
0
100
AcDbLine
 62
253
  6
CONTINUOUS
 10
3.8061202305
 20
-3.0061088075
 11
3.8000114231
 21
-3.0
  0
LINE
  5
3EA
100
AcDbEntity
  8
0
100
AcDbLine
 62
253
  6
CONTINUOUS
 10
4.1061088075
 20
-2.7061202305
 11
4.1
 21
-2.7000114231
  0
LINE
  5
3EB
100
AcDbEntity
  8
DRAFT
100
AcDbLine
 62
7
  6
CONTINUOUS
 10
4.1
 20
-2.45
 11
4.1061088075
 21
-2.4561088075
  0
LINE
  5
3EC
100
AcDbEntity
  8
0
100
AcDbLine
 62
253
  6
CONTINUOUS
 10
4.9561430767
 20
-2.4561088075
 11
4.9500342692
 21
-2.45
  0
LINE
  5
3ED
100
AcDbEntity
  8
RACCORDO
100
AcDbLine
 62
7
  6
CONTINUOUS
 10
4.5926994445
 20
-20.3280433908
 11
4.5974047863
 21
-20.3942462185
  0
LINE
  5
3EE
100
AcDbEntity
  8
RACCORDO
100
AcDbLine
 62
253
  6
CONTINUOUS
 10
2.4474047863
 20
4.1565814149
 11
2.4438911925
 21
4.636402816
  0
LINE
  5
3EF
100
AcDbEntity
  8
RACCORDO
100
AcDbLine
 62
253
  6
CONTINUOUS
 10
2.7473933632
 20
4.3494176978
 11
2.7418970655
 21
5.1
  0
LINE
  5
3F0
100
AcDbEntity
  8
RACCORDO
100
AcDbLine
 62
253
  6
CONTINUOUS
 10
2.9526066368
 20
-4.3494176978
 11
2.9581029345
 21
-5.1
  0
LINE
  5
3F1
100
AcDbEntity
  8
RACCORDO
100
AcDbLine
 62
253
  6
CONTINUOUS
 10
3.2525952137
 20
-4.1565814149
 11
3.2561088075
 21
-4.636402816
  0
LINE
  5
3F2
100
AcDbEntity
  8
0
100
AcDbLine
 62
253
  6
CONTINUOUS
 10
2.1345299462
 20
-22.1643601773
 11
2.1345299462
 21
-20.5658231586
  0
LINE
  5
3F3
100
AcDbEntity
  8
0
100
AcDbLine
 62
253
  6
CONTINUOUS
 10
2.1345299462
 20
20.5658231586
 11
2.1345299462
 21
22.1643601773
  0
LINE
  5
3F4
100
AcDbEntity
  8
0
100
AcDbLine
 62
253
  6
CONTINUOUS
 10
2.3077350269
 20
-22.1696065528
 11
2.3077350269
 21
-20.578010093
  0
LINE
  5
3F5
100
AcDbEntity
  8
0
100
AcDbLine
 62
253
  6
CONTINUOUS
 10
2.3077350269
 20
20.578010093
 11
2.3077350269
 21
22.1696065528
  0
LINE
  5
3F6
100
AcDbEntity
  8
0
100
AcDbLine
 62
7
  6
CONTINUOUS
 10
2.4438911925
 20
-4.636402816
 11
2.4438911925
 21
-2.4561088075
  0
LINE
  5
3F7
100
AcDbEntity
  8
0
100
AcDbLine
 62
7
  6
CONTINUOUS
 10
2.4438911925
 20
2.4561088075
 11
2.4438911925
 21
4.636402816
  0
LINE
  5
3F8
100
AcDbEntity
  8
RACCORDO
100
AcDbLine
 62
253
  6
CONTINUOUS
 10
2.4474047863
 20
4.1565814149
 11
2.4474047863
 21
2.4525952137
  0
LINE
  5
3F9
100
AcDbEntity
  8
RACCORDO
100
AcDbLine
 62
253
  6
CONTINUOUS
 10
2.4474047863
 20
-2.4525952137
 11
2.4474047863
 21
-4.1565814149
  0
LINE
  5
3FA
100
AcDbEntity
  8
DRAFT
100
AcDbLine
 62
7
  6
CONTINUOUS
 10
2.584265172
 20
-20.636381153
 11
2.584265172
 21
-22.1947348166
  0
LINE
  5
3FB
100
AcDbEntity
  8
DRAFT
100
AcDbLine
 62
7
  6
CONTINUOUS
 10
2.584265172
 20
20.636381153
 11
2.584265172
 21
22.1947348166
  0
LINE
  5
3FC
100
AcDbEntity
  8
RACCORDO
100
AcDbLine
 62
253
  6
CONTINUOUS
 10
2.7473933632
 20
-2.45
 11
2.7473933632
 21
-4.3494176978
  0
LINE
  5
3FD
100
AcDbEntity
  8
RACCORDO
100
AcDbLine
 62
253
  6
CONTINUOUS
 10
2.7473933632
 20
2.45
 11
2.7473933632
 21
4.3494176978
  0
LINE
  5
3FE
100
AcDbEntity
  8
RACCORDO
100
AcDbLine
 62
253
  6
CONTINUOUS
 10
2.9526066368
 20
-4.3494176978
 11
2.9526066368
 21
-3.0
  0
LINE
  5
3FF
100
AcDbEntity
  8
RACCORDO
100
AcDbLine
 62
253
  6
CONTINUOUS
 10
2.9526066368
 20
3.0
 11
2.9526066368
 21
4.3494176978
  0
LINE
  5
400
100
AcDbEntity
  8
RACCORDO
100
AcDbLine
 62
253
  6
CONTINUOUS
 10
3.2525952137
 20
-4.1565814149
 11
3.2525952137
 21
-3.0025952137
  0
LINE
  5
401
100
AcDbEntity
  8
RACCORDO
100
AcDbLine
 62
253
  6
CONTINUOUS
 10
3.2525952137
 20
3.0025952137
 11
3.2525952137
 21
4.1565814149
  0
LINE
  5
402
100
AcDbEntity
  8
0
100
AcDbLine
 62
7
  6
CONTINUOUS
 10
3.2561088075
 20
4.636402816
 11
3.2561088075
 21
3.0061088075
  0
LINE
  5
403
100
AcDbEntity
  8
0
100
AcDbLine
 62
7
  6
CONTINUOUS
 10
3.2561088075
 20
-3.0061088075
 11
3.2561088075
 21
-4.636402816
  0
LINE
  5
404
100
AcDbEntity
  8
RACCORDO
100
AcDbLine
 62
253
  6
CONTINUOUS
 10
2.4438911925
 20
-4.636402816
 11
2.4474047863
 21
-4.1565814149
  0
LINE
  5
405
100
AcDbEntity
  8
RACCORDO
100
AcDbLine
 62
253
  6
CONTINUOUS
 10
2.7418970655
 20
-5.1
 11
2.7473933632
 21
-4.3494176978
  0
LINE
  5
406
100
AcDbEntity
  8
RACCORDO
100
AcDbLine
 62
253
  6
CONTINUOUS
 10
2.9581029345
 20
5.1
 11
2.9526066368
 21
4.3494176978
  0
LINE
  5
407
100
AcDbEntity
  8
RACCORDO
100
AcDbLine
 62
253
  6
CONTINUOUS
 10
3.2561088075
 20
4.636402816
 11
3.2525952137
 21
4.1565814149
  0
LINE
  5
408
100
AcDbEntity
  8
RACCORDO
100
AcDbLine
 62
7
  6
CONTINUOUS
 10
4.5926994445
 20
20.3280433908
 11
4.5974047863
 21
20.3942462185
  0
LINE
  5
409
100
AcDbEntity
  8
0
100
AcDbLine
 62
7
  6
CONTINUOUS
 10
-8.0776595592
 20
-15.4531250536
 11
-7.9819148898
 21
-15.3124999464
  0
LINE
  5
40A
100
AcDbEntity
  8
0
100
AcDbLine
 62
7
  6
CONTINUOUS
 10
-8.6202127755
 20
-16.7468751073
 11
-8.524468106
 21
-16.60625
  0
LINE
  5
40B
100
AcDbEntity
  8
0
100
AcDbLine
 62
7
  6
CONTINUOUS
 10
-8.1414893389
 20
-14.1031249732
 11
-8.2053191185
 21
-14.1874999732
  0
LINE
  5
40C
100
AcDbEntity
  8
0
100
AcDbLine
 62
7
  6
CONTINUOUS
 10
-9.2585106388
 20
-16.184375
 11
-9.1946808591
 21
-16.1
  0
LINE
  5
40D
100
AcDbEntity
  8
0
100
AcDbLine
 62
7
  6
CONTINUOUS
 10
-8.1414893389
 20
-15.2843750536
 11
-8.2053191185
 21
-15.3687500536
  0
LINE
  5
40E
100
AcDbEntity
  8
0
100
AcDbLine
 62
7
  6
CONTINUOUS
 10
-9.2904255286
 20
-17.196875
 11
-9.3542553194
 21
-17.28125
  0
LINE
  5
40F
100
AcDbEntity
  8
0
100
AcDbLine
 62
7
  6
CONTINUOUS
 10
-8.6840425551
 20
-16.5781251073
 11
-8.7478723347
 21
-16.6625001073
  0
LINE
  5
410
100
AcDbEntity
  8
0
100
AcDbLine
 62
253
  6
CONTINUOUS
 10
4.9169872981
 20
1.95
 11
4.24927768
 21
1.2822903819
  0
LINE
  5
411
100
AcDbEntity
  8
0
100
AcDbLine
 62
253
  6
CONTINUOUS
 10
4.6822903819
 20
0.84927768
 11
5.35
 21
1.5169872981
  0
LINE
  5
412
100
AcDbEntity
  8
0
100
AcDbLine
 62
253
  6
CONTINUOUS
 10
5.8561088075
 20
1.5561430767
 11
5.85
 21
1.5500342692
  0
LINE
  5
413
100
AcDbEntity
  8
DRAFT
100
AcDbLine
 62
7
  6
CONTINUOUS
 10
5.8561088075
 20
1.3061088075
 11
5.85
 21
1.3
  0
LINE
  5
414
100
AcDbEntity
  8
RACCORDO
100
AcDbLine
 62
7
  6
CONTINUOUS
 10
2.4438911925
 20
-2.4561088075
 11
2.4474047863
 21
-2.4525952137
  0
LINE
  5
415
100
AcDbEntity
  8
0
100
AcDbLine
 62
7
  6
CONTINUOUS
 10
4.9169872981
 20
1.95
 11
-4.9169872981
 21
1.95
  0
LINE
  5
416
100
AcDbEntity
  8
0
100
AcDbLine
 62
7
  6
CONTINUOUS
 10
-4.9500342692
 20
2.45
 11
-4.1
 21
2.45
  0
LINE
  5
417
100
AcDbEntity
  8
DRAFT
100
AcDbLine
 62
7
  6
CONTINUOUS
 10
1.2674550649
 20
2.45
 11
-1.2674550649
 21
2.45
  0
LINE
  5
418
100
AcDbEntity
  8
RACCORDO
100
AcDbLine
 62
7
  6
CONTINUOUS
 10
2.7473933632
 20
2.45
 11
-2.7473933632
 21
2.45
  0
LINE
  5
419
100
AcDbEntity
  8
0
100
AcDbLine
 62
7
  6
CONTINUOUS
 10
4.1
 20
2.45
 11
4.9500342692
 21
2.45
  0
LINE
  5
41A
100
AcDbEntity
  8
0
100
AcDbLine
 62
7
  6
CONTINUOUS
 10
-4.9561430767
 20
2.4561088075
 11
-4.1061088075
 21
2.4561088075
  0
LINE
  5
41B
100
AcDbEntity
  8
DRAFT
100
AcDbLine
 62
7
  6
CONTINUOUS
 10
-2.4438911925
 20
2.4561088075
 11
-1.2674550649
 21
2.4561088075
  0
LINE
  5
41C
100
AcDbEntity
  8
DRAFT
100
AcDbLine
 62
7
  6
CONTINUOUS
 10
1.2674550649
 20
2.4561088075
 11
2.4438911925
 21
2.4561088075
  0
LINE
  5
41D
100
AcDbEntity
  8
0
100
AcDbLine
 62
7
  6
CONTINUOUS
 10
4.1061088075
 20
2.4561088075
 11
4.9561430767
 21
2.4561088075
  0
LINE
  5
41E
100
AcDbEntity
  8
RACCORDO
100
AcDbLine
 62
7
  6
CONTINUOUS
 10
3.8000114231
 20
3.0
 11
2.9526066368
 21
3.0
  0
LINE
  5
41F
100
AcDbEntity
  8
RACCORDO
100
AcDbLine
 62
7
  6
CONTINUOUS
 10
-2.9526066368
 20
3.0
 11
-3.8000114231
 21
3.0
  0
LINE
  5
420
100
AcDbEntity
  8
0
100
AcDbLine
 62
7
  6
CONTINUOUS
 10
-3.8061202305
 20
3.0061088075
 11
-3.2561088075
 21
3.0061088075
  0
LINE
  5
421
100
AcDbEntity
  8
0
100
AcDbLine
 62
7
  6
CONTINUOUS
 10
3.2561088075
 20
3.0061088075
 11
3.8061202305
 21
3.0061088075
  0
LINE
  5
422
100
AcDbEntity
  8
DRAFT
100
AcDbLine
 62
7
  6
CONTINUOUS
 10
1.2674550649
 20
3.35
 11
-1.2674550649
 21
3.35
  0
LINE
  5
423
100
AcDbEntity
  8
DRAFT
100
AcDbLine
 62
7
  6
CONTINUOUS
 10
1.2639640519
 20
3.55
 11
-1.2639640519
 21
3.55
  0
LINE
  5
424
100
AcDbEntity
  8
0
100
AcDbLine
 62
253
  6
CONTINUOUS
 10
4.24927768
 20
-1.2822903819
 11
4.9169872981
 21
-1.95
  0
LINE
  5
425
100
AcDbEntity
  8
0
100
AcDbLine
 62
253
  6
CONTINUOUS
 10
5.35
 20
-1.5169872981
 11
4.6822903819
 21
-0.84927768
  0
LINE
  5
426
100
AcDbEntity
  8
0
100
AcDbLine
 62
253
  6
CONTINUOUS
 10
5.8561088075
 20
-1.5561430767
 11
5.85
 21
-1.5500342692
  0
LINE
  5
427
100
AcDbEntity
  8
DRAFT
100
AcDbLine
 62
7
  6
CONTINUOUS
 10
5.8561088075
 20
-1.3061088075
 11
5.85
 21
-1.3
  0
LINE
  5
428
100
AcDbEntity
  8
RACCORDO
100
AcDbLine
 62
7
  6
CONTINUOUS
 10
2.4438911925
 20
2.4561088075
 11
2.4474047863
 21
2.4525952137
  0
LINE
  5
429
100
AcDbEntity
  8
0
100
AcDbLine
 62
7
  6
CONTINUOUS
 10
4.1
 20
2.7000114231
 11
4.1
 21
2.45
  0
LINE
  5
42A
100
AcDbEntity
  8
0
100
AcDbLine
 62
7
  6
CONTINUOUS
 10
4.1
 20
-2.45
 11
4.1
 21
-2.7000114231
  0
LINE
  5
42B
100
AcDbEntity
  8
0
100
AcDbLine
 62
7
  6
CONTINUOUS
 10
4.1061088075
 20
2.7061202305
 11
4.1061088075
 21
2.4561088075
  0
LINE
  5
42C
100
AcDbEntity
  8
0
100
AcDbLine
 62
7
  6
CONTINUOUS
 10
4.1061088075
 20
-2.4561088075
 11
4.1061088075
 21
-2.7061202305
  0
LINE
  5
42D
100
AcDbEntity
  8
0
100
AcDbLine
 62
7
  6
CONTINUOUS
 10
4.5904004454
 20
20.0302795453
 11
4.5904004454
 21
19.4903890223
  0
LINE
  5
42E
100
AcDbEntity
  8
0
100
AcDbLine
 62
7
  6
CONTINUOUS
 10
4.5904004454
 20
-20.0302795453
 11
4.5904004454
 21
-19.4903890223
  0
LINE
  5
42F
100
AcDbEntity
  8
RACCORDO
100
AcDbLine
 62
253
  6
CONTINUOUS
 10
4.5974047863
 20
20.3942462185
 11
4.5974047863
 21
19.4973933632
  0
LINE
  5
430
100
AcDbEntity
  8
RACCORDO
100
AcDbLine
 62
253
  6
CONTINUOUS
 10
4.5974047863
 20
-19.4973933632
 11
4.5974047863
 21
-20.3942462185
  0
LINE
  5
431
100
AcDbEntity
  8
0
100
AcDbLine
 62
7
  6
CONTINUOUS
 10
4.6862139802
 20
-0.7862330187
 11
4.6862139802
 21
-0.3370942827
  0
LINE
  5
432
100
AcDbEntity
  8
0
100
AcDbLine
 62
7
  6
CONTINUOUS
 10
4.6862139802
 20
0.3370942827
 11
4.6862139802
 21
0.7862330187
  0
LINE
  5
433
100
AcDbEntity
  8
RACCORDO
100
AcDbLine
 62
253
  6
CONTINUOUS
 10
4.8973933632
 20
20.4307601417
 11
4.8973933632
 21
19.1974047863
  0
LINE
  5
434
100
AcDbEntity
  8
RACCORDO
100
AcDbLine
 62
253
  6
CONTINUOUS
 10
4.8973933632
 20
-20.4307601417
 11
4.8973933632
 21
-19.1974047863
  0
LINE
  5
435
100
AcDbEntity
  8
RACCORDO
100
AcDbLine
 62
253
  6
CONTINUOUS
 10
5.1026066368
 20
-20.4307601417
 11
5.1026066368
 21
-19.1974047863
  0
LINE
  5
436
100
AcDbEntity
  8
RACCORDO
100
AcDbLine
 62
253
  6
CONTINUOUS
 10
5.1026066368
 20
19.1974047863
 11
5.1026066368
 21
20.4307601417
  0
LINE
  5
437
100
AcDbEntity
  8
0
100
AcDbLine
 62
7
  6
CONTINUOUS
 10
7.9819148898
 20
17.8437501073
 11
7.95
 21
17.6468748927
  0
LINE
  5
438
100
AcDbEntity
  8
0
100
AcDbLine
 62
7
  6
CONTINUOUS
 10
7.9819148898
 20
15.3124999464
 11
7.95
 21
15.1437499464
  0
LINE
  5
439
100
AcDbEntity
  8
0
100
AcDbLine
 62
7
  6
CONTINUOUS
 10
7.9819148898
 20
14.159375
 11
7.95
 21
13.990625
  0
LINE
  5
43A
100
AcDbEntity
  8
0
100
AcDbLine
 62
7
  6
CONTINUOUS
 10
8.1095744491
 20
17.6750001073
 11
8.1414893389
 21
17.8156248927
  0
LINE
  5
43B
100
AcDbEntity
  8
0
100
AcDbLine
 62
7
  6
CONTINUOUS
 10
8.1095744491
 20
15.1437499464
 11
8.1414893389
 21
15.2843750536
  0
LINE
  5
43C
100
AcDbEntity
  8
0
100
AcDbLine
 62
7
  6
CONTINUOUS
 10
8.524468106
 20
16.60625
 11
8.4925532162
 21
16.4656248927
  0
LINE
  5
43D
100
AcDbEntity
  8
0
100
AcDbLine
 62
7
  6
CONTINUOUS
 10
8.1095744491
 20
13.9624999866
 11
8.1414893389
 21
14.1031249732
  0
LINE
  5
43E
100
AcDbEntity
  8
0
100
AcDbLine
 62
7
  6
CONTINUOUS
 10
9.2904255286
 20
17.534375
 11
9.2585106388
 21
17.3937498927
  0
LINE
  5
43F
100
AcDbEntity
  8
0
100
AcDbLine
 62
7
  6
CONTINUOUS
 10
8.6521276653
 20
16.4656248927
 11
8.6840425551
 21
16.5781251073
  0
LINE
  5
440
100
AcDbEntity
  8
0
100
AcDbLine
 62
7
  6
CONTINUOUS
 10
9.4180851074
 20
17.3937498927
 11
9.45
 21
17.5062501073
  0
LINE
  5
441
100
AcDbEntity
  8
0
100
AcDbLine
 62
7
  6
CONTINUOUS
 10
9.2904255286
 20
16.2968748927
 11
9.2585106388
 21
16.184375
  0
LINE
  5
442
100
AcDbEntity
  8
0
100
AcDbLine
 62
7
  6
CONTINUOUS
 10
-8.7797872245
 20
-17.8437501073
 11
-8.8436170042
 21
-17.9281251073
  0
LINE
  5
443
100
AcDbEntity
  8
0
100
AcDbLine
 62
7
  6
CONTINUOUS
 10
-8.1414893389
 20
-17.8156248927
 11
-8.2053191185
 21
-17.8999998927
  0
LINE
  5
444
100
AcDbEntity
  8
0
100
AcDbLine
 62
7
  6
CONTINUOUS
 10
-9.226595749
 20
-14.75
 11
-9.3223404296
 21
-14.834375
  0
LINE
  5
445
100
AcDbEntity
  8
DRAFT
100
AcDbLine
 62
7
  6
CONTINUOUS
 10
9.9
 20
-0.1
 11
9.8476348052
 21
-0.1261806034
  0
LINE
  5
446
100
AcDbEntity
  8
RACCORDO
100
AcDbLine
 62
253
  6
CONTINUOUS
 10
2.4474047863
 20
4.1565814149
 11
3.2525952137
 21
4.1565814149
  0
LINE
  5
447
100
AcDbEntity
  8
RACCORDO
100
AcDbLine
 62
253
  6
CONTINUOUS
 10
-2.4474047863
 20
4.1565814149
 11
-3.2525952137
 21
4.1565814149
  0
LINE
  5
448
100
AcDbEntity
  8
RACCORDO
100
AcDbLine
 62
253
  6
CONTINUOUS
 10
2.9526066368
 20
4.3494176978
 11
2.7473933632
 21
4.3494176978
  0
LINE
  5
449
100
AcDbEntity
  8
RACCORDO
100
AcDbLine
 62
253
  6
CONTINUOUS
 10
-2.7473933632
 20
4.3494176978
 11
-2.9526066368
 21
4.3494176978
  0
LINE
  5
44A
100
AcDbEntity
  8
0
100
AcDbLine
 62
7
  6
CONTINUOUS
 10
-2.9581029345
 20
5.1
 11
-2.7418970655
 21
5.1
  0
LINE
  5
44B
100
AcDbEntity
  8
0
100
AcDbLine
 62
7
  6
CONTINUOUS
 10
2.7418970655
 20
5.1
 11
2.9581029345
 21
5.1
  0
LINE
  5
44C
100
AcDbEntity
  8
DRAFT
100
AcDbLine
 62
7
  6
CONTINUOUS
 10
9.9
 20
0.1
 11
9.8476348052
 21
0.1261806034
  0
LINE
  5
44D
100
AcDbEntity
  8
RACCORDO
100
AcDbLine
 62
7
  6
CONTINUOUS
 10
5.4073005555
 20
20.3280433908
 11
5.4025952137
 21
20.3942462185
  0
LINE
  5
44E
100
AcDbEntity
  8
0
100
AcDbLine
 62
7
  6
CONTINUOUS
 10
5.35
 20
-1.5169872981
 11
5.35
 21
-0.3270609058
  0
LINE
  5
44F
100
AcDbEntity
  8
0
100
AcDbLine
 62
7
  6
CONTINUOUS
 10
5.35
 20
0.3270609058
 11
5.35
 21
1.5169872981
  0
LINE
  5
450
100
AcDbEntity
  8
RACCORDO
100
AcDbLine
 62
253
  6
CONTINUOUS
 10
5.4025952137
 20
-20.3942462185
 11
5.4025952137
 21
-19.4973933632
  0
LINE
  5
451
100
AcDbEntity
  8
RACCORDO
100
AcDbLine
 62
253
  6
CONTINUOUS
 10
5.4025952137
 20
19.4973933632
 11
5.4025952137
 21
20.3942462185
  0
LINE
  5
452
100
AcDbEntity
  8
0
100
AcDbLine
 62
7
  6
CONTINUOUS
 10
5.4095995546
 20
20.0302795453
 11
5.4095995546
 21
19.4903890223
  0
LINE
  5
453
100
AcDbEntity
  8
0
100
AcDbLine
 62
7
  6
CONTINUOUS
 10
5.4095995546
 20
-20.0302795453
 11
5.4095995546
 21
-19.4903890223
  0
LINE
  5
454
100
AcDbEntity
  8
0
100
AcDbLine
 62
7
  6
CONTINUOUS
 10
5.6
 20
-16.2603073792
 11
5.6
 21
-6.6396926208
  0
LINE
  5
455
100
AcDbEntity
  8
0
100
AcDbLine
 62
7
  6
CONTINUOUS
 10
5.6
 20
6.6396926208
 11
5.6
 21
16.2603073792
  0
LINE
  5
456
100
AcDbEntity
  8
0
100
AcDbLine
 62
7
  6
CONTINUOUS
 10
5.85
 20
1.5500342692
 11
5.85
 21
1.3
  0
LINE
  5
457
100
AcDbEntity
  8
0
100
AcDbLine
 62
7
  6
CONTINUOUS
 10
5.85
 20
-1.3
 11
5.85
 21
-1.5500342692
  0
LINE
  5
458
100
AcDbEntity
  8
0
100
AcDbLine
 62
7
  6
CONTINUOUS
 10
5.8561088075
 20
-1.3061088075
 11
5.8561088075
 21
-1.5561430767
  0
LINE
  5
459
100
AcDbEntity
  8
0
100
AcDbLine
 62
7
  6
CONTINUOUS
 10
5.8561088075
 20
1.3061088075
 11
5.8561088075
 21
1.5561430767
  0
LINE
  5
45A
100
AcDbEntity
  8
0
100
AcDbLine
 62
7
  6
CONTINUOUS
 10
5.95
 20
18.3656248963
 11
5.95
 21
17.7131248963
  0
LINE
  5
45B
100
AcDbEntity
  8
0
100
AcDbLine
 62
7
  6
CONTINUOUS
 10
5.95
 20
17.0606248963
 11
5.95
 21
16.8431251037
  0
LINE
  5
45C
100
AcDbEntity
  8
0
100
AcDbLine
 62
7
  6
CONTINUOUS
 10
5.95
 20
16.1906251037
 11
5.95
 21
15.9459376037
  0
LINE
  5
45D
100
AcDbEntity
  8
0
100
AcDbLine
 62
7
  6
CONTINUOUS
 10
5.95
 20
15.1303124481
 11
5.95
 21
14.8856249481
  0
LINE
  5
45E
100
AcDbEntity
  8
0
100
AcDbLine
 62
7
  6
CONTINUOUS
 10
5.95
 20
14.668125
 11
5.95
 21
14.505
  0
LINE
  5
45F
100
AcDbEntity
  8
0
100
AcDbLine
 62
7
  6
CONTINUOUS
 10
5.95
 20
14.2874999741
 11
5.95
 21
14.1243749741
  0
LINE
  5
460
100
AcDbEntity
  8
0
100
AcDbLine
 62
7
  6
CONTINUOUS
 10
5.95
 20
13.363125
 11
5.95
 21
13.2
  0
LINE
  5
461
100
AcDbEntity
  8
0
100
AcDbLine
 62
7
  6
CONTINUOUS
 10
6.1095744491
 20
17.8762498963
 11
6.1095744491
 21
18.3928126037
  0
LINE
  5
462
100
AcDbEntity
  8
0
100
AcDbLine
 62
7
  6
CONTINUOUS
 10
6.5882978857
 20
18.3928126037
 11
6.5882978857
 21
17.8762498963
  0
LINE
  5
463
100
AcDbEntity
  8
0
100
AcDbLine
 62
7
  6
CONTINUOUS
 10
6.7797872245
 20
17.8762498963
 11
6.7797872245
 21
18.3384375
  0
LINE
  5
464
100
AcDbEntity
  8
RACCORDO
100
AcDbLine
 62
7
  6
CONTINUOUS
 10
5.4073005555
 20
-20.3280433908
 11
5.4025952137
 21
-20.3942462185
  0
LINE
  5
465
100
AcDbEntity
  8
0
100
AcDbLine
 62
253
  6
CONTINUOUS
 10
9.5406070808
 20
20.3280433908
 11
9.5844404066
 21
20.636381153
  0
LINE
  5
466
100
AcDbEntity
  8
0
100
AcDbLine
 62
7
  6
CONTINUOUS
 10
8.7478723347
 20
17.6750001073
 11
8.7797872245
 21
17.8437501073
  0
LINE
  5
467
100
AcDbEntity
  8
0
100
AcDbLine
 62
7
  6
CONTINUOUS
 10
9.4180851074
 20
14.9749999464
 11
9.45
 21
15.1437499464
  0
LINE
  5
468
100
AcDbEntity
  8
0
100
AcDbLine
 62
7
  6
CONTINUOUS
 10
9.4180851074
 20
16.1562501073
 11
9.45
 21
16.2968748927
  0
LINE
  5
469
100
AcDbEntity
  8
0
100
AcDbLine
 62
7
  6
CONTINUOUS
 10
9.2904255286
 20
15.1437499464
 11
9.2585106388
 21
15.003125
  0
LINE
  5
46A
100
AcDbEntity
  8
0
100
AcDbLine
 62
7
  6
CONTINUOUS
 10
-8.1734042287
 20
-14.3843750268
 11
-8.0457446694
 21
-14.2718749732
  0
LINE
  5
46B
100
AcDbEntity
  8
0
100
AcDbLine
 62
7
  6
CONTINUOUS
 10
-8.1734042287
 20
-15.5375000536
 11
-8.0776595592
 21
-15.4531250536
  0
LINE
  5
46C
100
AcDbEntity
  8
0
100
AcDbLine
 62
7
  6
CONTINUOUS
 10
9.8405613894
 20
-1.3035364386
 11
9.8476348052
 21
-1.3
  0
LINE
  5
46D
100
AcDbEntity
  8
DRAFT
100
AcDbLine
 62
7
  6
CONTINUOUS
 10
-4.6603073792
 20
5.7
 11
-1.2639640519
 21
5.7
  0
LINE
  5
46E
100
AcDbEntity
  8
DRAFT
100
AcDbLine
 62
7
  6
CONTINUOUS
 10
1.2639640519
 20
5.7
 11
4.6603073792
 21
5.7
  0
LINE
  5
46F
100
AcDbEntity
  8
0
100
AcDbLine
 62
7
  6
CONTINUOUS
 10
9.8405613894
 20
1.3035364386
 11
9.8476348052
 21
1.3
  0
LINE
  5
470
100
AcDbEntity
  8
0
100
AcDbLine
 62
253
  6
CONTINUOUS
 10
9.5844404066
 20
-20.636381153
 11
9.5406070808
 21
-20.3280433908
  0
LINE
  5
471
100
AcDbEntity
  8
0
100
AcDbLine
 62
7
  6
CONTINUOUS
 10
6.9393617183
 20
17.1965625
 11
6.9393617183
 21
16.7071875
  0
LINE
  5
472
100
AcDbEntity
  8
0
100
AcDbLine
 62
7
  6
CONTINUOUS
 10
7.0670212775
 20
16.6800001037
 11
7.0670212775
 21
17.2237498963
  0
LINE
  5
473
100
AcDbEntity
  8
0
100
AcDbLine
 62
7
  6
CONTINUOUS
 10
7.45
 20
13.635000013
 11
7.45
 21
13.8525
  0
LINE
  5
474
100
AcDbEntity
  8
0
100
AcDbLine
 62
7
  6
CONTINUOUS
 10
7.45
 20
14.505
 11
7.45
 21
14.668125
  0
LINE
  5
475
100
AcDbEntity
  8
0
100
AcDbLine
 62
7
  6
CONTINUOUS
 10
7.45
 20
14.8856249481
 11
7.45
 21
15.0487499481
  0
LINE
  5
476
100
AcDbEntity
  8
0
100
AcDbLine
 62
7
  6
CONTINUOUS
 10
7.45
 20
15.4293750519
 11
7.45
 21
15.646875
  0
LINE
  5
477
100
AcDbEntity
  8
0
100
AcDbLine
 62
7
  6
CONTINUOUS
 10
7.45
 20
16.0275001037
 11
7.45
 21
16.1906251037
  0
LINE
  5
478
100
AcDbEntity
  8
0
100
AcDbLine
 62
7
  6
CONTINUOUS
 10
7.45
 20
16.4081248963
 11
7.45
 21
16.5712498963
  0
LINE
  5
479
100
AcDbEntity
  8
0
100
AcDbLine
 62
7
  6
CONTINUOUS
 10
7.45
 20
17.3325001037
 11
7.45
 21
17.4956251037
  0
LINE
  5
47A
100
AcDbEntity
  8
0
100
AcDbLine
 62
7
  6
CONTINUOUS
 10
7.45
 20
17.7131248963
 11
7.45
 21
17.8762498963
  0
LINE
  5
47B
100
AcDbEntity
  8
0
100
AcDbLine
 62
7
  6
CONTINUOUS
 10
7.45
 20
18.5559372926
 11
7.45
 21
18.74625
  0
LINE
  5
47C
100
AcDbEntity
  8
0
100
AcDbLine
 62
7
  6
CONTINUOUS
 10
7.95
 20
18.6875001073
 11
7.95
 21
18.5187501073
  0
LINE
  5
47D
100
AcDbEntity
  8
0
100
AcDbLine
 62
7
  6
CONTINUOUS
 10
7.95
 20
17.6468748927
 11
7.95
 21
17.5906251073
  0
LINE
  5
47E
100
AcDbEntity
  8
0
100
AcDbLine
 62
7
  6
CONTINUOUS
 10
7.95
 20
16.8312501073
 11
7.95
 21
15.8750000536
  0
LINE
  5
47F
100
AcDbEntity
  8
0
100
AcDbLine
 62
7
  6
CONTINUOUS
 10
7.95
 20
13.990625
 11
7.95
 21
13.8781249866
  0
LINE
  5
480
100
AcDbEntity
  8
0
100
AcDbLine
 62
7
  6
CONTINUOUS
 10
8.1095744491
 20
13.8500000134
 11
8.1095744491
 21
13.9624999866
  0
LINE
  5
481
100
AcDbEntity
  8
0
100
AcDbLine
 62
7
  6
CONTINUOUS
 10
8.1095744491
 20
16.015625
 11
8.1095744491
 21
16.8312501073
  0
LINE
  5
482
100
AcDbEntity
  8
0
100
AcDbLine
 62
7
  6
CONTINUOUS
 10
8.1095744491
 20
17.5624998927
 11
8.1095744491
 21
17.6750001073
  0
LINE
  5
483
100
AcDbEntity
  8
0
100
AcDbLine
 62
7
  6
CONTINUOUS
 10
8.3010637879
 20
13.4281250008
 11
8.3010637879
 21
13.56875
  0
LINE
  5
484
100
AcDbEntity
  8
0
100
AcDbLine
 62
7
  6
CONTINUOUS
 10
8.3010637879
 20
17.1406248927
 11
8.3010637879
 21
17.28125
  0
LINE
  5
485
100
AcDbEntity
  8
0
100
AcDbLine
 62
7
  6
CONTINUOUS
 10
8.4925532162
 20
16.4656248927
 11
8.4925532162
 21
16.2968748927
  0
LINE
  5
486
100
AcDbEntity
  8
0
100
AcDbLine
 62
253
  6
CONTINUOUS
 10
9.8405613894
 20
20.0302795453
 11
9.8844847477
 21
20.3392506254
  0
LINE
  5
487
100
AcDbEntity
  8
0
100
AcDbLine
 62
7
  6
CONTINUOUS
 10
-6.0776595592
 20
-18.6103127074
 11
-5.9819148898
 21
-18.5015625
  0
LINE
  5
488
100
AcDbEntity
  8
0
100
AcDbLine
 62
7
  6
CONTINUOUS
 10
-9.226595749
 20
-17.3375001073
 11
-9.162765947
 21
-17.28125
  0
LINE
  5
489
100
AcDbEntity
  8
0
100
AcDbLine
 62
7
  6
CONTINUOUS
 10
-8.1734042287
 20
-18.0687498927
 11
-8.0457446694
 21
-17.95625
  0
LINE
  5
48A
100
AcDbEntity
  8
0
100
AcDbLine
 62
7
  6
CONTINUOUS
 10
-9.1946808591
 20
-15.93125
 11
-9.3223404296
 21
-16.015625
  0
LINE
  5
48B
100
AcDbEntity
  8
0
100
AcDbLine
 62
7
  6
CONTINUOUS
 10
-8.2053191185
 20
-14.1874999732
 11
-8.3010637879
 21
-14.24375
  0
LINE
  5
48C
100
AcDbEntity
  8
0
100
AcDbLine
 62
7
  6
CONTINUOUS
 10
-9.1946808591
 20
-14.91875
 11
-9.0031914979
 21
-14.8062499464
  0
LINE
  5
48D
100
AcDbEntity
  8
0
100
AcDbLine
 62
253
  6
CONTINUOUS
 10
9.8844847477
 20
-20.3392506254
 11
9.8405613894
 21
-20.0302795453
  0
LINE
  5
48E
100
AcDbEntity
  8
0
100
AcDbLine
 62
7
  6
CONTINUOUS
 10
9.9
 20
13.1
 11
9.8844847477
 21
20.3392506254
  0
LINE
  5
48F
100
AcDbEntity
  8
0
100
AcDbLine
 62
7
  6
CONTINUOUS
 10
8.6202127755
 20
17.6750001073
 11
8.6202127755
 21
17.5624998927
  0
LINE
  5
490
100
AcDbEntity
  8
0
100
AcDbLine
 62
7
  6
CONTINUOUS
 10
8.6521276653
 20
16.2968748927
 11
8.6521276653
 21
16.4656248927
  0
LINE
  5
491
100
AcDbEntity
  8
0
100
AcDbLine
 62
7
  6
CONTINUOUS
 10
8.7478723347
 20
17.5624998927
 11
8.7478723347
 21
17.6750001073
  0
LINE
  5
492
100
AcDbEntity
  8
0
100
AcDbLine
 62
7
  6
CONTINUOUS
 10
8.7797872245
 20
15.8750000536
 11
8.7797872245
 21
16.0718749464
  0
LINE
  5
493
100
AcDbEntity
  8
0
100
AcDbLine
 62
7
  6
CONTINUOUS
 10
9.0670212775
 20
16.0437500536
 11
9.0670212775
 21
15.8750000536
  0
LINE
  5
494
100
AcDbEntity
  8
0
100
AcDbLine
 62
7
  6
CONTINUOUS
 10
9.0989361674
 20
17.2531251073
 11
9.0989361674
 21
17.1125
  0
LINE
  5
495
100
AcDbEntity
  8
0
100
AcDbLine
 62
7
  6
CONTINUOUS
 10
9.2904255286
 20
17.703125
 11
9.2904255286
 21
17.534375
  0
LINE
  5
496
100
AcDbEntity
  8
0
100
AcDbLine
 62
7
  6
CONTINUOUS
 10
9.2904255286
 20
16.4656248927
 11
9.2904255286
 21
16.2968748927
  0
LINE
  5
497
100
AcDbEntity
  8
0
100
AcDbLine
 62
7
  6
CONTINUOUS
 10
9.2904255286
 20
14.4125
 11
9.2904255286
 21
13.6250000067
  0
LINE
  5
498
100
AcDbEntity
  8
0
100
AcDbLine
 62
7
  6
CONTINUOUS
 10
9.45
 20
13.4
 11
9.45
 21
14.4125
  0
LINE
  5
499
100
AcDbEntity
  8
0
100
AcDbLine
 62
7
  6
CONTINUOUS
 10
9.45
 20
16.2968748927
 11
9.45
 21
16.4656248927
  0
LINE
  5
49A
100
AcDbEntity
  8
0
100
AcDbLine
 62
7
  6
CONTINUOUS
 10
9.45
 20
17.5062501073
 11
9.45
 21
17.7312498927
  0
LINE
  5
49B
100
AcDbEntity
  8
0
100
AcDbLine
 62
7
  6
CONTINUOUS
 10
9.45
 20
18.5187501073
 11
9.45
 21
18.6875001073
  0
LINE
  5
49C
100
AcDbEntity
  8
0
100
AcDbLine
 62
7
  6
CONTINUOUS
 10
9.5
 20
-9.2
 11
9.5
 21
-13.0
  0
LINE
  5
49D
100
AcDbEntity
  8
0
100
AcDbLine
 62
7
  6
CONTINUOUS
 10
9.5
 20
9.2
 11
9.5
 21
13.0
  0
LINE
  5
49E
100
AcDbEntity
  8
0
100
AcDbLine
 62
253
  6
CONTINUOUS
 10
9.5406070808
 20
-13.0
 11
9.5406070808
 21
-20.3280433908
  0
LINE
  5
49F
100
AcDbEntity
  8
0
100
AcDbLine
 62
253
  6
CONTINUOUS
 10
9.5406070808
 20
-9.2
 11
9.5406070808
 21
-1.3061088075
  0
LINE
  5
4A0
100
AcDbEntity
  8
0
100
AcDbLine
 62
253
  6
CONTINUOUS
 10
9.5406070808
 20
1.3061088075
 11
9.5406070808
 21
9.2
  0
LINE
  5
4A1
100
AcDbEntity
  8
0
100
AcDbLine
 62
253
  6
CONTINUOUS
 10
9.5406070808
 20
13.0
 11
9.5406070808
 21
20.3280433908
  0
LINE
  5
4A2
100
AcDbEntity
  8
0
100
AcDbLine
 62
253
  6
CONTINUOUS
 10
9.8405613894
 20
20.0302795453
 11
9.8405613894
 21
13.0
  0
LINE
  5
4A3
100
AcDbEntity
  8
0
100
AcDbLine
 62
253
  6
CONTINUOUS
 10
9.8405613894
 20
-13.0
 11
9.8405613894
 21
-20.0302795453
  0
LINE
  5
4A4
100
AcDbEntity
  8
0
100
AcDbLine
 62
253
  6
CONTINUOUS
 10
9.8405613894
 20
-9.2
 11
9.8405613894
 21
-1.3035364386
  0
LINE
  5
4A5
100
AcDbEntity
  8
0
100
AcDbLine
 62
253
  6
CONTINUOUS
 10
9.8405613894
 20
1.3035364386
 11
9.8405613894
 21
9.2
  0
LINE
  5
4A6
100
AcDbEntity
  8
DRAFT
100
AcDbLine
 62
7
  6
CONTINUOUS
 10
9.8476348052
 20
-0.1261806034
 11
9.8476348052
 21
-1.3
  0
LINE
  5
4A7
100
AcDbEntity
  8
DRAFT
100
AcDbLine
 62
7
  6
CONTINUOUS
 10
9.8476348052
 20
0.1261806034
 11
9.8476348052
 21
1.3
  0
LINE
  5
4A8
100
AcDbEntity
  8
DRAFT
100
AcDbLine
 62
7
  6
CONTINUOUS
 10
9.8831231009
 20
-9.2
 11
9.8831231009
 21
-13.0
  0
LINE
  5
4A9
100
AcDbEntity
  8
DRAFT
100
AcDbLine
 62
7
  6
CONTINUOUS
 10
9.8831231009
 20
9.2
 11
9.8831231009
 21
13.0
  0
LINE
  5
4AA
100
AcDbEntity
  8
DRAFT
100
AcDbLine
 62
7
  6
CONTINUOUS
 10
9.9
 20
-0.1
 11
9.9
 21
-13.1
  0
LINE
  5
4AB
100
AcDbEntity
  8
DRAFT
100
AcDbLine
 62
7
  6
CONTINUOUS
 10
9.9
 20
0.1
 11
9.9
 21
13.1
  0
LINE
  5
4AC
100
AcDbEntity
  8
0
100
AcDbLine
 62
7
  6
CONTINUOUS
 10
9.9
 20
-13.1
 11
9.8844847477
 21
-20.3392506254
  0
LINE
  5
4AD
100
AcDbEntity
  8
RACCORDO
100
AcDbLine
 62
253
  6
CONTINUOUS
 10
-4.8903890223
 20
-19.1904004454
 11
-4.8973933632
 21
-19.1974047863
  0
LINE
  5
4AE
100
AcDbEntity
  8
0
100
AcDbLine
 62
7
  6
CONTINUOUS
 10
-6.1414893389
 20
-18.4743747926
 11
-6.2053191185
 21
-18.5287502074
  0
LINE
  5
4AF
100
AcDbEntity
  8
0
100
AcDbLine
 62
7
  6
CONTINUOUS
 10
-8.7478723347
 20
-16.8312501073
 11
-8.6202127755
 21
-16.7468751073
  0
LINE
  5
4B0
100
AcDbEntity
  8
0
100
AcDbLine
 62
7
  6
CONTINUOUS
 10
-8.2053191185
 20
-15.3687500536
 11
-8.3968085468
 21
-15.4812499464
  0
LINE
  5
4B1
100
AcDbEntity
  8
0
100
AcDbLine
 62
7
  6
CONTINUOUS
 10
-8.7478723347
 20
-16.6625001073
 11
-8.8436170042
 21
-16.7187498927
  0
LINE
  5
4B2
100
AcDbEntity
  8
0
100
AcDbLine
 62
7
  6
CONTINUOUS
 10
-9.1946808591
 20
-17.1406248927
 11
-9.2904255286
 21
-17.196875
  0
LINE
  5
4B3
100
AcDbEntity
  8
0
100
AcDbLine
 62
7
  6
CONTINUOUS
 10
-9.0989361674
 20
-14.6937499732
 11
-9.226595749
 21
-14.75
  0
LINE
  5
4B4
100
AcDbEntity
  8
DRAFT
100
AcDbLine
 62
7
  6
CONTINUOUS
 10
-9.8831231009
 20
9.2
 11
-9.5
 21
9.2
  0
LINE
  5
4B5
100
AcDbEntity
  8
DRAFT
100
AcDbLine
 62
7
  6
CONTINUOUS
 10
9.5
 20
9.2
 11
9.8831231009
 21
9.2
  0
LINE
  5
4B6
100
AcDbEntity
  8
RACCORDO
100
AcDbLine
 62
253
  6
CONTINUOUS
 10
-4.8903890223
 20
19.1904004454
 11
-4.8973933632
 21
19.1974047863
  0
LINE
  5
4B7
100
AcDbEntity
  8
0
100
AcDbLine
 62
7
  6
CONTINUOUS
 10
7.95
 20
13.8781249866
 11
7.9819148898
 21
13.6812499933
  0
LINE
  5
4B8
100
AcDbEntity
  8
0
100
AcDbLine
 62
7
  6
CONTINUOUS
 10
11.1131334061
 20
21.698158548
 11
11.15
 21
13.1
  0
LINE
  5
4B9
100
AcDbEntity
  8
0
100
AcDbLine
 62
7
  6
CONTINUOUS
 10
11.15
 20
-0.3499333788
 11
11.15
 21
-13.1
  0
LINE
  5
4BA
100
AcDbEntity
  8
0
100
AcDbLine
 62
7
  6
CONTINUOUS
 10
11.15
 20
0.3499333788
 11
11.15
 21
13.1
  0
LINE
  5
4BB
100
AcDbEntity
  8
0
100
AcDbLine
 62
7
  6
CONTINUOUS
 10
11.1131334061
 20
-21.698158548
 11
11.15
 21
-13.1
  0
LINE
  5
4BC
100
AcDbEntity
  8
RACCORDO
100
AcDbLine
 62
253
  6
CONTINUOUS
 10
-4.5904004454
 20
-19.4903890223
 11
-4.5974047863
 21
-19.4973933632
  0
LINE
  5
4BD
100
AcDbEntity
  8
0
100
AcDbLine
 62
7
  6
CONTINUOUS
 10
-8.8436170042
 20
-18.0968751073
 11
-8.7478723347
 21
-18.040625
  0
LINE
  5
4BE
100
AcDbEntity
  8
0
100
AcDbLine
 62
7
  6
CONTINUOUS
 10
-8.2053191185
 20
-17.8999998927
 11
-8.3010637879
 21
-17.95625
  0
LINE
  5
4BF
100
AcDbEntity
  8
0
100
AcDbLine
 62
7
  6
CONTINUOUS
 10
-9.0670212775
 20
-15.8750000536
 11
-9.1946808591
 21
-15.93125
  0
LINE
  5
4C0
100
AcDbEntity
  8
0
100
AcDbLine
 62
7
  6
CONTINUOUS
 10
-8.3010637879
 20
-15.59375
 11
-8.1734042287
 21
-15.5375000536
  0
LINE
  5
4C1
100
AcDbEntity
  8
0
100
AcDbLine
 62
7
  6
CONTINUOUS
 10
-9.1946808591
 20
-16.1
 11
-9.0670212775
 21
-16.0437500536
  0
LINE
  5
4C2
100
AcDbEntity
  8
0
100
AcDbLine
 62
7
  6
CONTINUOUS
 10
-9.0031914979
 20
-14.665625
 11
-9.0989361674
 21
-14.6937499732
  0
LINE
  5
4C3
100
AcDbEntity
  8
0
100
AcDbLine
 62
7
  6
CONTINUOUS
 10
-7.2585106388
 20
-13.743749987
 11
-5.95
 21
-13.363125
  0
LINE
  5
4C4
100
AcDbEntity
  8
0
100
AcDbLine
 62
7
  6
CONTINUOUS
 10
-5.95
 20
-13.2
 11
-7.45
 21
-13.635000013
  0
LINE
  5
4C5
100
AcDbEntity
  8
RACCORDO
100
AcDbLine
 62
253
  6
CONTINUOUS
 10
-4.5904004454
 20
19.4903890223
 11
-4.5974047863
 21
19.4973933632
  0
LINE
  5
4C6
100
AcDbEntity
  8
0
100
AcDbLine
 62
7
  6
CONTINUOUS
 10
8.1414893389
 20
13.7093750067
 11
8.1095744491
 21
13.8500000134
  0
LINE
  5
4C7
100
AcDbEntity
  8
0
100
AcDbLine
 62
7
  6
CONTINUOUS
 10
8.1414893389
 20
15.003125
 11
8.1095744491
 21
15.1437499464
  0
LINE
  5
4C8
100
AcDbEntity
  8
0
100
AcDbLine
 62
7
  6
CONTINUOUS
 10
8.1414893389
 20
17.4218751073
 11
8.1095744491
 21
17.5624998927
  0
LINE
  5
4C9
100
AcDbEntity
  8
0
100
AcDbLine
 62
7
  6
CONTINUOUS
 10
8.4925532162
 20
16.2968748927
 11
8.524468106
 21
16.1562501073
  0
LINE
  5
4CA
100
AcDbEntity
  8
0
100
AcDbLine
 62
7
  6
CONTINUOUS
 10
7.95
 20
15.1437499464
 11
7.9819148898
 21
14.9749999464
  0
LINE
  5
4CB
100
AcDbEntity
  8
0
100
AcDbLine
 62
7
  6
CONTINUOUS
 10
7.95
 20
17.5906251073
 11
7.9819148898
 21
17.3937498927
  0
LINE
  5
4CC
100
AcDbEntity
  8
0
100
AcDbLine
 62
7
  6
CONTINUOUS
 10
-6.2053191185
 20
-18.6918752074
 11
-6.0776595592
 21
-18.6103127074
  0
LINE
  5
4CD
100
AcDbEntity
  8
0
100
AcDbLine
 62
7
  6
CONTINUOUS
 10
-9.162765947
 20
-17.28125
 11
-9.0989361674
 21
-17.2531251073
  0
LINE
  5
4CE
100
AcDbEntity
  8
0
100
AcDbLine
 62
7
  6
CONTINUOUS
 10
-8.8436170042
 20
-17.9281251073
 11
-8.9712766081
 21
-17.9843748927
  0
LINE
  5
4CF
100
AcDbEntity
  8
0
100
AcDbLine
 62
7
  6
CONTINUOUS
 10
-8.9074468285
 20
-16.8874998927
 11
-8.7478723347
 21
-16.8312501073
  0
LINE
  5
4D0
100
AcDbEntity
  8
0
100
AcDbLine
 62
7
  6
CONTINUOUS
 10
-6.2691488981
 20
-15.0487499481
 11
-7.45
 21
-15.4293750519
  0
LINE
  5
4D1
100
AcDbEntity
  8
0
100
AcDbLine
 62
7
  6
CONTINUOUS
 10
-7.2904255286
 20
-15.5381249481
 11
-5.95
 21
-15.1303124481
  0
LINE
  5
4D2
100
AcDbEntity
  8
0
100
AcDbLine
 62
7
  6
CONTINUOUS
 10
-8.3968085468
 20
-15.6218750536
 11
-8.3010637879
 21
-15.59375
  0
LINE
  5
4D3
100
AcDbEntity
  8
0
100
AcDbLine
 62
7
  6
CONTINUOUS
 10
-8.8436170042
 20
-16.7187498927
 11
-8.9393617183
 21
-16.7468751073
  0
LINE
  5
4D4
100
AcDbEntity
  8
0
100
AcDbLine
 62
7
  6
CONTINUOUS
 10
8.3010637879
 20
14.4125
 11
8.1734042287
 21
14.3843750268
  0
LINE
  5
4D5
100
AcDbEntity
  8
0
100
AcDbLine
 62
7
  6
CONTINUOUS
 10
8.8436170042
 20
14.6375000268
 11
9.0031914979
 21
14.665625
  0
LINE
  5
4D6
100
AcDbEntity
  8
0
100
AcDbLine
 62
7
  6
CONTINUOUS
 10
9.0031914979
 20
14.8062499464
 11
8.8117021143
 21
14.7781250536
  0
LINE
  5
4D7
100
AcDbEntity
  8
DRAFT
100
AcDbLine
 62
7
  6
CONTINUOUS
 10
-9.8831231009
 20
13.0
 11
-9.5
 21
13.0
  0
LINE
  5
4D8
100
AcDbEntity
  8
DRAFT
100
AcDbLine
 62
7
  6
CONTINUOUS
 10
9.5
 20
13.0
 11
9.8831231009
 21
13.0
  0
LINE
  5
4D9
100
AcDbEntity
  8
DRAFT
100
AcDbLine
 62
7
  6
CONTINUOUS
 10
11.15
 20
13.1
 11
9.9
 21
13.1
  0
LINE
  5
4DA
100
AcDbEntity
  8
DRAFT
100
AcDbLine
 62
7
  6
CONTINUOUS
 10
-9.9
 20
13.1
 11
-11.15
 21
13.1
  0
LINE
  5
4DB
100
AcDbEntity
  8
0
100
AcDbLine
 62
7
  6
CONTINUOUS
 10
9.2904255286
 20
13.4
 11
9.45
 21
13.4
  0
LINE
  5
4DC
100
AcDbEntity
  8
0
100
AcDbLine
 62
7
  6
CONTINUOUS
 10
6.5563829958
 20
18.4743747926
 11
6.5882978857
 21
18.3928126037
  0
LINE
  5
4DD
100
AcDbEntity
  8
0
100
AcDbLine
 62
7
  6
CONTINUOUS
 10
8.6840425551
 20
16.184375
 11
8.6521276653
 21
16.2968748927
  0
LINE
  5
4DE
100
AcDbEntity
  8
0
100
AcDbLine
 62
7
  6
CONTINUOUS
 10
9.2585106388
 20
16.5781251073
 11
9.2904255286
 21
16.4656248927
  0
LINE
  5
4DF
100
AcDbEntity
  8
0
100
AcDbLine
 62
7
  6
CONTINUOUS
 10
9.2585106388
 20
15.2843750536
 11
9.2904255286
 21
15.1437499464
  0
LINE
  5
4E0
100
AcDbEntity
  8
0
100
AcDbLine
 62
7
  6
CONTINUOUS
 10
9.45
 20
16.4656248927
 11
9.4180851074
 21
16.60625
  0
LINE
  5
4E1
100
AcDbEntity
  8
0
100
AcDbLine
 62
7
  6
CONTINUOUS
 10
9.2585106388
 20
17.8437501073
 11
9.2904255286
 21
17.703125
  0
LINE
  5
4E2
100
AcDbEntity
  8
0
100
AcDbLine
 62
7
  6
CONTINUOUS
 10
9.45
 20
15.1437499464
 11
9.4180851074
 21
15.3124999464
  0
LINE
  5
4E3
100
AcDbEntity
  8
0
100
AcDbLine
 62
7
  6
CONTINUOUS
 10
-9.0989361674
 20
-17.1125
 11
-9.1946808591
 21
-17.1406248927
  0
LINE
  5
4E4
100
AcDbEntity
  8
0
100
AcDbLine
 62
7
  6
CONTINUOUS
 10
-7.45
 20
-17.4956251037
 11
-5.95
 21
-17.0606248963
  0
LINE
  5
4E5
100
AcDbEntity
  8
0
100
AcDbLine
 62
7
  6
CONTINUOUS
 10
7.0670212775
 20
17.2237498963
 11
7.45
 21
17.3325001037
  0
LINE
  5
4E6
100
AcDbEntity
  8
0
100
AcDbLine
 62
7
  6
CONTINUOUS
 10
6.0776595592
 20
16.951875
 11
6.9393617183
 21
17.1965625
  0
LINE
  5
4E7
100
AcDbEntity
  8
0
100
AcDbLine
 62
7
  6
CONTINUOUS
 10
8.5563829958
 20
15.6499999464
 11
8.3968085468
 21
15.6218750536
  0
LINE
  5
4E8
100
AcDbEntity
  8
0
100
AcDbLine
 62
7
  6
CONTINUOUS
 10
8.3968085468
 20
15.4812499464
 11
8.5882978857
 21
15.509375
  0
LINE
  5
4E9
100
AcDbEntity
  8
0
100
AcDbLine
 62
7
  6
CONTINUOUS
 10
8.3010637879
 20
14.24375
 11
8.364893657
 21
14.24375
  0
LINE
  5
4EA
100
AcDbEntity
  8
0
100
AcDbLine
 62
7
  6
CONTINUOUS
 10
9.45
 20
14.4125
 11
9.2904255286
 21
14.4125
  0
LINE
  5
4EB
100
AcDbEntity
  8
0
100
AcDbLine
 62
7
  6
CONTINUOUS
 10
8.364893657
 20
14.4125
 11
8.3010637879
 21
14.4125
  0
LINE
  5
4EC
100
AcDbEntity
  8
0
100
AcDbLine
 62
7
  6
CONTINUOUS
 10
5.95
 20
14.505
 11
7.45
 21
14.505
  0
LINE
  5
4ED
100
AcDbEntity
  8
0
100
AcDbLine
 62
7
  6
CONTINUOUS
 10
8.5563829958
 20
14.6375000268
 11
8.8436170042
 21
14.6375000268
  0
LINE
  5
4EE
100
AcDbEntity
  8
0
100
AcDbLine
 62
7
  6
CONTINUOUS
 10
7.45
 20
14.668125
 11
5.95
 21
14.668125
  0
LINE
  5
4EF
100
AcDbEntity
  8
0
100
AcDbLine
 62
7
  6
CONTINUOUS
 10
8.8117021143
 20
14.7781250536
 11
8.5882978857
 21
14.7781250536
  0
LINE
  5
4F0
100
AcDbEntity
  8
0
100
AcDbLine
 62
7
  6
CONTINUOUS
 10
5.95
 20
14.8856249481
 11
7.45
 21
14.8856249481
  0
LINE
  5
4F1
100
AcDbEntity
  8
0
100
AcDbLine
 62
7
  6
CONTINUOUS
 10
7.45
 20
15.0487499481
 11
6.2691488981
 21
15.0487499481
  0
LINE
  5
4F2
100
AcDbEntity
  8
0
100
AcDbLine
 62
7
  6
CONTINUOUS
 10
8.1734042287
 20
13.4562500017
 11
8.3010637879
 21
13.4281250008
  0
LINE
  5
4F3
100
AcDbEntity
  8
0
100
AcDbLine
 62
7
  6
CONTINUOUS
 10
5.95
 20
14.1243749741
 11
7.2585106388
 21
13.743749987
  0
LINE
  5
4F4
100
AcDbEntity
  8
0
100
AcDbLine
 62
7
  6
CONTINUOUS
 10
8.2053191185
 20
13.6250000067
 11
8.1414893389
 21
13.7093750067
  0
LINE
  5
4F5
100
AcDbEntity
  8
0
100
AcDbLine
 62
7
  6
CONTINUOUS
 10
7.9819148898
 20
14.9749999464
 11
8.0776595592
 21
14.834375
  0
LINE
  5
4F6
100
AcDbEntity
  8
0
100
AcDbLine
 62
7
  6
CONTINUOUS
 10
6.7159574449
 20
18.5015625
 11
6.6521276653
 21
18.6103127074
  0
LINE
  5
4F7
100
AcDbEntity
  8
0
100
AcDbLine
 62
7
  6
CONTINUOUS
 10
7.9819148898
 20
13.6812499933
 11
8.0457446694
 21
13.56875
  0
LINE
  5
4F8
100
AcDbEntity
  8
0
100
AcDbLine
 62
7
  6
CONTINUOUS
 10
8.5563829958
 20
17.8437501073
 11
8.6202127755
 21
17.6750001073
  0
LINE
  5
4F9
100
AcDbEntity
  8
0
100
AcDbLine
 62
7
  6
CONTINUOUS
 10
9.45
 20
17.7312498927
 11
9.4180851074
 21
17.8437501073
  0
LINE
  5
4FA
100
AcDbEntity
  8
0
100
AcDbLine
 62
7
  6
CONTINUOUS
 10
-7.45
 20
-18.74625
 11
-6.7159574449
 21
-18.5015625
  0
LINE
  5
4FB
100
AcDbEntity
  8
0
100
AcDbLine
 62
7
  6
CONTINUOUS
 10
-6.7797872245
 20
-18.3384375
 11
-7.45
 21
-18.5559372926
  0
LINE
  5
4FC
100
AcDbEntity
  8
0
100
AcDbLine
 62
7
  6
CONTINUOUS
 10
6.2053191185
 20
18.5287502074
 11
6.3010637879
 21
18.5559372926
  0
LINE
  5
4FD
100
AcDbEntity
  8
0
100
AcDbLine
 62
7
  6
CONTINUOUS
 10
6.3010637879
 20
18.7190622926
 11
6.2053191185
 21
18.6918752074
  0
LINE
  5
4FE
100
AcDbEntity
  8
0
100
AcDbLine
 62
7
  6
CONTINUOUS
 10
8.9712766081
 20
18.125
 11
8.8436170042
 21
18.0968751073
  0
LINE
  5
4FF
100
AcDbEntity
  8
0
100
AcDbLine
 62
7
  6
CONTINUOUS
 10
8.3010637879
 20
18.0968751073
 11
8.1734042287
 21
18.0687498927
  0
LINE
  5
500
100
AcDbEntity
  8
0
100
AcDbLine
 62
7
  6
CONTINUOUS
 10
8.5882978857
 20
15.509375
 11
8.8117021143
 21
15.509375
  0
LINE
  5
501
100
AcDbEntity
  8
0
100
AcDbLine
 62
7
  6
CONTINUOUS
 10
8.8436170042
 20
15.6499999464
 11
8.5563829958
 21
15.6499999464
  0
LINE
  5
502
100
AcDbEntity
  8
0
100
AcDbLine
 62
7
  6
CONTINUOUS
 10
7.95
 20
15.8750000536
 11
8.7797872245
 21
15.8750000536
  0
LINE
  5
503
100
AcDbEntity
  8
0
100
AcDbLine
 62
7
  6
CONTINUOUS
 10
8.6202127755
 20
16.015625
 11
8.1095744491
 21
16.015625
  0
LINE
  5
504
100
AcDbEntity
  8
0
100
AcDbLine
 62
7
  6
CONTINUOUS
 10
6.2691488981
 20
16.0275001037
 11
7.45
 21
16.0275001037
  0
LINE
  5
505
100
AcDbEntity
  8
0
100
AcDbLine
 62
7
  6
CONTINUOUS
 10
7.45
 20
16.1906251037
 11
5.95
 21
16.1906251037
  0
LINE
  5
506
100
AcDbEntity
  8
0
100
AcDbLine
 62
7
  6
CONTINUOUS
 10
8.9393617183
 20
16.7468751073
 11
9.0031914979
 21
16.7468751073
  0
LINE
  5
507
100
AcDbEntity
  8
0
100
AcDbLine
 62
7
  6
CONTINUOUS
 10
8.1095744491
 20
16.8312501073
 11
7.95
 21
16.8312501073
  0
LINE
  5
508
100
AcDbEntity
  8
0
100
AcDbLine
 62
7
  6
CONTINUOUS
 10
9.0351063877
 20
16.8874998927
 11
8.9074468285
 21
16.8874998927
  0
LINE
  5
509
100
AcDbEntity
  8
0
100
AcDbLine
 62
7
  6
CONTINUOUS
 10
8.5882978857
 20
14.7781250536
 11
8.3968085468
 21
14.8062499464
  0
LINE
  5
50A
100
AcDbEntity
  8
0
100
AcDbLine
 62
7
  6
CONTINUOUS
 10
8.8117021143
 20
15.509375
 11
9.0031914979
 21
15.4812499464
  0
LINE
  5
50B
100
AcDbEntity
  8
0
100
AcDbLine
 62
7
  6
CONTINUOUS
 10
8.3968085468
 20
14.665625
 11
8.5563829958
 21
14.6375000268
  0
LINE
  5
50C
100
AcDbEntity
  8
0
100
AcDbLine
 62
7
  6
CONTINUOUS
 10
8.4925532162
 20
14.3843750268
 11
8.364893657
 21
14.4125
  0
LINE
  5
50D
100
AcDbEntity
  8
0
100
AcDbLine
 62
7
  6
CONTINUOUS
 10
7.45
 20
13.8525
 11
5.95
 21
14.2874999741
  0
LINE
  5
50E
100
AcDbEntity
  8
0
100
AcDbLine
 62
7
  6
CONTINUOUS
 10
8.3010637879
 20
14.6937499732
 11
8.3968085468
 21
14.665625
  0
LINE
  5
50F
100
AcDbEntity
  8
0
100
AcDbLine
 62
7
  6
CONTINUOUS
 10
8.364893657
 20
14.24375
 11
8.4925532162
 21
14.1874999732
  0
LINE
  5
510
100
AcDbEntity
  8
0
100
AcDbLine
 62
7
  6
CONTINUOUS
 10
8.1734042287
 20
14.75
 11
8.3010637879
 21
14.6937499732
  0
LINE
  5
511
100
AcDbEntity
  8
0
100
AcDbLine
 62
7
  6
CONTINUOUS
 10
8.3010637879
 20
13.56875
 11
8.2053191185
 21
13.6250000067
  0
LINE
  5
512
100
AcDbEntity
  8
0
100
AcDbLine
 62
7
  6
CONTINUOUS
 10
8.5882978857
 20
14.328125
 11
8.4925532162
 21
14.3843750268
  0
LINE
  5
513
100
AcDbEntity
  8
0
100
AcDbLine
 62
7
  6
CONTINUOUS
 10
8.0457446694
 20
13.56875
 11
8.1734042287
 21
13.4562500017
  0
LINE
  5
514
100
AcDbEntity
  8
0
100
AcDbLine
 62
7
  6
CONTINUOUS
 10
8.0776595592
 20
14.834375
 11
8.1734042287
 21
14.75
  0
LINE
  5
515
100
AcDbEntity
  8
0
100
AcDbLine
 62
7
  6
CONTINUOUS
 10
8.4925532162
 20
14.1874999732
 11
9.2904255286
 21
13.4
  0
LINE
  5
516
100
AcDbEntity
  8
0
100
AcDbLine
 62
7
  6
CONTINUOUS
 10
9.2904255286
 20
13.6250000067
 11
8.5882978857
 21
14.328125
  0
LINE
  5
517
100
AcDbEntity
  8
0
100
AcDbLine
 62
7
  6
CONTINUOUS
 10
8.2053191185
 20
14.91875
 11
8.1414893389
 21
15.003125
  0
LINE
  5
518
100
AcDbEntity
  8
0
100
AcDbLine
 62
7
  6
CONTINUOUS
 10
9.1946808591
 20
15.3687500536
 11
9.2585106388
 21
15.2843750536
  0
LINE
  5
519
100
AcDbEntity
  8
0
100
AcDbLine
 62
7
  6
CONTINUOUS
 10
8.524468106
 20
16.1562501073
 11
8.6202127755
 21
16.015625
  0
LINE
  5
51A
100
AcDbEntity
  8
0
100
AcDbLine
 62
7
  6
CONTINUOUS
 10
9.4180851074
 20
15.3124999464
 11
9.3223404296
 21
15.4531250536
  0
LINE
  5
51B
100
AcDbEntity
  8
0
100
AcDbLine
 62
7
  6
CONTINUOUS
 10
7.9819148898
 20
17.3937498927
 11
8.0457446694
 21
17.28125
  0
LINE
  5
51C
100
AcDbEntity
  8
0
100
AcDbLine
 62
7
  6
CONTINUOUS
 10
9.226595749
 20
17.8999998927
 11
9.2585106388
 21
17.8437501073
  0
LINE
  5
51D
100
AcDbEntity
  8
RACCORDO
100
AcDbLine
 62
253
  6
CONTINUOUS
 10
5.1096109777
 20
-19.1904004454
 11
5.1026066368
 21
-19.1974047863
  0
LINE
  5
51E
100
AcDbEntity
  8
RACCORDO
100
AcDbLine
 62
253
  6
CONTINUOUS
 10
5.4095995546
 20
-19.4903890223
 11
5.4025952137
 21
-19.4973933632
  0
LINE
  5
51F
100
AcDbEntity
  8
0
100
AcDbLine
 62
7
  6
CONTINUOUS
 10
4.6603073792
 20
17.2
 11
-4.6603073792
 21
17.2
  0
LINE
  5
520
100
AcDbEntity
  8
0
100
AcDbLine
 62
7
  6
CONTINUOUS
 10
8.6202127755
 20
17.5624998927
 11
8.7478723347
 21
17.5624998927
  0
LINE
  5
521
100
AcDbEntity
  8
0
100
AcDbLine
 62
7
  6
CONTINUOUS
 10
5.95
 20
17.7131248963
 11
7.45
 21
17.7131248963
  0
LINE
  5
522
100
AcDbEntity
  8
0
100
AcDbLine
 62
7
  6
CONTINUOUS
 10
7.45
 20
17.8762498963
 11
6.7797872245
 21
17.8762498963
  0
LINE
  5
523
100
AcDbEntity
  8
0
100
AcDbLine
 62
7
  6
CONTINUOUS
 10
6.5882978857
 20
17.8762498963
 11
6.1095744491
 21
17.8762498963
  0
LINE
  5
524
100
AcDbEntity
  8
0
100
AcDbLine
 62
7
  6
CONTINUOUS
 10
8.3010637879
 20
17.95625
 11
8.364893657
 21
17.95625
  0
LINE
  5
525
100
AcDbEntity
  8
0
100
AcDbLine
 62
7
  6
CONTINUOUS
 10
8.9712766081
 20
17.9843748927
 11
9.0989361674
 21
17.9843748927
  0
LINE
  5
526
100
AcDbEntity
  8
0
100
AcDbLine
 62
7
  6
CONTINUOUS
 10
8.364893657
 20
18.0968751073
 11
8.3010637879
 21
18.0968751073
  0
LINE
  5
527
100
AcDbEntity
  8
0
100
AcDbLine
 62
7
  6
CONTINUOUS
 10
9.0989361674
 20
18.125
 11
8.9712766081
 21
18.125
  0
LINE
  5
528
100
AcDbEntity
  8
0
100
AcDbLine
 62
7
  6
CONTINUOUS
 10
8.1734042287
 20
18.3500001073
 11
8.4287234366
 21
18.3500001073
  0
LINE
  5
529
100
AcDbEntity
  8
0
100
AcDbLine
 62
7
  6
CONTINUOUS
 10
8.2053191185
 20
18.5187501073
 11
9.45
 21
18.5187501073
  0
LINE
  5
52A
100
AcDbEntity
  8
0
100
AcDbLine
 62
7
  6
CONTINUOUS
 10
6.3010637879
 20
18.5559372926
 11
6.3968085468
 21
18.5559372926
  0
LINE
  5
52B
100
AcDbEntity
  8
0
100
AcDbLine
 62
7
  6
CONTINUOUS
 10
9.0031914979
 20
15.6218750536
 11
8.8436170042
 21
15.6499999464
  0
LINE
  5
52C
100
AcDbEntity
  8
0
100
AcDbLine
 62
7
  6
CONTINUOUS
 10
8.1734042287
 20
17.1687501073
 11
8.3010637879
 21
17.1406248927
  0
LINE
  5
52D
100
AcDbEntity
  8
0
100
AcDbLine
 62
7
  6
CONTINUOUS
 10
6.9393617183
 20
16.7071875
 11
6.0776595592
 21
16.951875
  0
LINE
  5
52E
100
AcDbEntity
  8
0
100
AcDbLine
 62
7
  6
CONTINUOUS
 10
7.45
 20
16.5712498963
 11
7.0670212775
 21
16.6800001037
  0
LINE
  5
52F
100
AcDbEntity
  8
0
100
AcDbLine
 62
7
  6
CONTINUOUS
 10
5.95
 20
16.8431251037
 11
7.45
 21
16.4081248963
  0
LINE
  5
530
100
AcDbEntity
  8
0
100
AcDbLine
 62
7
  6
CONTINUOUS
 10
9.0989361674
 20
15.59375
 11
9.0031914979
 21
15.6218750536
  0
LINE
  5
531
100
AcDbEntity
  8
0
100
AcDbLine
 62
7
  6
CONTINUOUS
 10
5.95
 20
15.9459376037
 11
7.2904255286
 21
15.5381249481
  0
LINE
  5
532
100
AcDbEntity
  8
0
100
AcDbLine
 62
7
  6
CONTINUOUS
 10
7.45
 20
15.646875
 11
6.2691488981
 21
16.0275001037
  0
LINE
  5
533
100
AcDbEntity
  8
0
100
AcDbLine
 62
7
  6
CONTINUOUS
 10
9.226595749
 20
15.5375000536
 11
9.0989361674
 21
15.59375
  0
LINE
  5
534
100
AcDbEntity
  8
0
100
AcDbLine
 62
7
  6
CONTINUOUS
 10
8.3968085468
 20
14.8062499464
 11
8.2053191185
 21
14.91875
  0
LINE
  5
535
100
AcDbEntity
  8
0
100
AcDbLine
 62
7
  6
CONTINUOUS
 10
9.0031914979
 20
15.4812499464
 11
9.1946808591
 21
15.3687500536
  0
LINE
  5
536
100
AcDbEntity
  8
0
100
AcDbLine
 62
7
  6
CONTINUOUS
 10
6.4925532162
 20
18.5287502074
 11
6.5563829958
 21
18.4743747926
  0
LINE
  5
537
100
AcDbEntity
  8
0
100
AcDbLine
 62
7
  6
CONTINUOUS
 10
9.3223404296
 20
15.4531250536
 11
9.226595749
 21
15.5375000536
  0
LINE
  5
538
100
AcDbEntity
  8
0
100
AcDbLine
 62
7
  6
CONTINUOUS
 10
8.0457446694
 20
17.28125
 11
8.1734042287
 21
17.1687501073
  0
LINE
  5
539
100
AcDbEntity
  8
RACCORDO
100
AcDbLine
 62
253
  6
CONTINUOUS
 10
5.1096109777
 20
19.1904004454
 11
5.1026066368
 21
19.1974047863
  0
LINE
  5
53A
100
AcDbEntity
  8
RACCORDO
100
AcDbLine
 62
253
  6
CONTINUOUS
 10
5.4095995546
 20
19.4903890223
 11
5.4025952137
 21
19.4973933632
  0
LINE
  5
53B
100
AcDbEntity
  8
0
100
AcDbLine
 62
7
  6
CONTINUOUS
 10
8.7797872245
 20
16.0718749464
 11
8.6840425551
 21
16.184375
  0
LINE
  5
53C
100
AcDbEntity
  8
0
100
AcDbLine
 62
7
  6
CONTINUOUS
 10
8.6840425551
 20
17.8999998927
 11
8.5882978857
 21
18.0125001073
  0
LINE
  5
53D
100
AcDbEntity
  8
0
100
AcDbLine
 62
7
  6
CONTINUOUS
 10
8.2053191185
 20
17.3375001073
 11
8.1414893389
 21
17.4218751073
  0
LINE
  5
53E
100
AcDbEntity
  8
0
100
AcDbLine
 62
7
  6
CONTINUOUS
 10
9.1946808591
 20
16.6625001073
 11
9.2585106388
 21
16.5781251073
  0
LINE
  5
53F
100
AcDbEntity
  8
0
100
AcDbLine
 62
7
  6
CONTINUOUS
 10
9.3542553194
 20
17.95625
 11
9.2904255286
 21
18.040625
  0
LINE
  5
540
100
AcDbEntity
  8
0
100
AcDbLine
 62
7
  6
CONTINUOUS
 10
9.4180851074
 20
16.60625
 11
9.3223404296
 21
16.7468751073
  0
LINE
  5
541
100
AcDbEntity
  8
0
100
AcDbLine
 62
7
  6
CONTINUOUS
 10
9.4180851074
 20
17.8437501073
 11
9.3542553194
 21
17.95625
  0
LINE
  5
542
100
AcDbEntity
  8
0
100
AcDbLine
 62
7
  6
CONTINUOUS
 10
2.584265172
 20
20.636381153
 11
2.3077350269
 21
20.578010093
  0
LINE
  5
543
100
AcDbEntity
  8
0
100
AcDbLine
 62
7
  6
CONTINUOUS
 10
9.45
 20
18.6875001073
 11
7.95
 21
18.6875001073
  0
LINE
  5
544
100
AcDbEntity
  8
0
100
AcDbLine
 62
7
  6
CONTINUOUS
 10
6.4287234366
 20
18.7190622926
 11
6.3010637879
 21
18.7190622926
  0
LINE
  5
545
100
AcDbEntity
  8
0
100
AcDbLine
 62
7
  6
CONTINUOUS
 10
5.1096109777
 20
19.1904004454
 11
4.8903890223
 21
19.1904004454
  0
LINE
  5
546
100
AcDbEntity
  8
0
100
AcDbLine
 62
7
  6
CONTINUOUS
 10
-4.8903890223
 20
19.1904004454
 11
-5.1096109777
 21
19.1904004454
  0
LINE
  5
547
100
AcDbEntity
  8
RACCORDO
100
AcDbLine
 62
253
  6
CONTINUOUS
 10
-5.1026066368
 20
19.1974047863
 11
-4.8973933632
 21
19.1974047863
  0
LINE
  5
548
100
AcDbEntity
  8
RACCORDO
100
AcDbLine
 62
253
  6
CONTINUOUS
 10
4.8973933632
 20
19.1974047863
 11
5.1026066368
 21
19.1974047863
  0
LINE
  5
549
100
AcDbEntity
  8
RACCORDO
100
AcDbLine
 62
253
  6
CONTINUOUS
 10
4.5974047863
 20
19.4973933632
 11
5.4025952137
 21
19.4973933632
  0
LINE
  5
54A
100
AcDbEntity
  8
RACCORDO
100
AcDbLine
 62
253
  6
CONTINUOUS
 10
-4.5974047863
 20
19.4973933632
 11
-5.4025952137
 21
19.4973933632
  0
LINE
  5
54B
100
AcDbEntity
  8
0
100
AcDbLine
 62
253
  6
CONTINUOUS
 10
-4.5904004454
 20
20.0302795453
 11
4.5904004454
 21
20.0302795453
  0
LINE
  5
54C
100
AcDbEntity
  8
0
100
AcDbLine
 62
253
  6
CONTINUOUS
 10
5.4095995546
 20
20.0302795453
 11
9.8405613894
 21
20.0302795453
  0
LINE
  5
54D
100
AcDbEntity
  8
0
100
AcDbLine
 62
253
  6
CONTINUOUS
 10
-5.4095995546
 20
20.0302795453
 11
-9.8405613894
 21
20.0302795453
  0
LINE
  5
54E
100
AcDbEntity
  8
0
100
AcDbLine
 62
7
  6
CONTINUOUS
 10
-2.584265172
 20
20.636381153
 11
-2.3077350269
 21
20.578010093
  0
LINE
  5
54F
100
AcDbEntity
  8
0
100
AcDbLine
 62
7
  6
CONTINUOUS
 10
8.4925532162
 20
18.0687498927
 11
8.364893657
 21
18.0968751073
  0
LINE
  5
550
100
AcDbEntity
  8
0
100
AcDbLine
 62
7
  6
CONTINUOUS
 10
6.3968085468
 20
18.5559372926
 11
6.4925532162
 21
18.5287502074
  0
LINE
  5
551
100
AcDbEntity
  8
0
100
AcDbLine
 62
7
  6
CONTINUOUS
 10
6.524468106
 20
18.6918752074
 11
6.4287234366
 21
18.7190622926
  0
LINE
  5
552
100
AcDbEntity
  8
0
100
AcDbLine
 62
7
  6
CONTINUOUS
 10
9.0031914979
 20
16.7468751073
 11
9.0989361674
 21
16.7187498927
  0
LINE
  5
553
100
AcDbEntity
  8
0
100
AcDbLine
 62
7
  6
CONTINUOUS
 10
9.1946808591
 20
18.0968751073
 11
9.0989361674
 21
18.125
  0
LINE
  5
554
100
AcDbEntity
  8
0
100
AcDbLine
 62
7
  6
CONTINUOUS
 10
9.1946808591
 20
16.8312501073
 11
9.0351063877
 21
16.8874998927
  0
LINE
  5
555
100
AcDbEntity
  8
0
100
AcDbLine
 62
7
  6
CONTINUOUS
 10
8.364893657
 20
17.95625
 11
8.4925532162
 21
17.8999998927
  0
LINE
  5
556
100
AcDbEntity
  8
0
100
AcDbLine
 62
7
  6
CONTINUOUS
 10
9.0989361674
 20
17.9843748927
 11
9.162765947
 21
17.95625
  0
LINE
  5
557
100
AcDbEntity
  8
0
100
AcDbLine
 62
7
  6
CONTINUOUS
 10
9.0989361674
 20
16.7187498927
 11
9.1946808591
 21
16.6625001073
  0
LINE
  5
558
100
AcDbEntity
  8
0
100
AcDbLine
 62
7
  6
CONTINUOUS
 10
8.3010637879
 20
17.28125
 11
8.2053191185
 21
17.3375001073
  0
LINE
  5
559
100
AcDbEntity
  8
0
100
AcDbLine
 62
7
  6
CONTINUOUS
 10
8.5882978857
 20
18.0125001073
 11
8.4925532162
 21
18.0687498927
  0
LINE
  5
55A
100
AcDbEntity
  8
0
100
AcDbLine
 62
7
  6
CONTINUOUS
 10
6.6521276653
 20
18.6103127074
 11
6.524468106
 21
18.6918752074
  0
LINE
  5
55B
100
AcDbEntity
  8
0
100
AcDbLine
 62
7
  6
CONTINUOUS
 10
9.3223404296
 20
16.7468751073
 11
9.1946808591
 21
16.8312501073
  0
LINE
  5
55C
100
AcDbEntity
  8
0
100
AcDbLine
 62
7
  6
CONTINUOUS
 10
7.95
 20
18.5187501073
 11
8.1734042287
 21
18.3500001073
  0
LINE
  5
55D
100
AcDbEntity
  8
0
100
AcDbLine
 62
7
  6
CONTINUOUS
 10
8.4287234366
 20
18.3500001073
 11
8.2053191185
 21
18.5187501073
  0
LINE
  5
55E
100
AcDbEntity
  8
0
100
AcDbLine
 62
7
  6
CONTINUOUS
 10
8.4925532162
 20
17.8999998927
 11
8.5563829958
 21
17.8437501073
  0
LINE
  5
55F
100
AcDbEntity
  8
0
100
AcDbLine
 62
7
  6
CONTINUOUS
 10
9.162765947
 20
17.95625
 11
9.226595749
 21
17.8999998927
  0
LINE
  5
560
100
AcDbEntity
  8
0
100
AcDbLine
 62
7
  6
CONTINUOUS
 10
2.584265172
 20
22.1947348166
 11
2.3077350269
 21
22.1696065528
  0
LINE
  5
561
100
AcDbEntity
  8
0
100
AcDbLine
 62
253
  6
CONTINUOUS
 10
-9.5406070808
 20
20.3280433908
 11
-5.4073005555
 21
20.3280433908
  0
LINE
  5
562
100
AcDbEntity
  8
0
100
AcDbLine
 62
253
  6
CONTINUOUS
 10
-4.5926994445
 20
20.3280433908
 11
4.5926994445
 21
20.3280433908
  0
LINE
  5
563
100
AcDbEntity
  8
0
100
AcDbLine
 62
253
  6
CONTINUOUS
 10
5.4073005555
 20
20.3280433908
 11
9.5406070808
 21
20.3280433908
  0
LINE
  5
564
100
AcDbEntity
  8
RACCORDO
100
AcDbLine
 62
7
  6
CONTINUOUS
 10
-5.1026066368
 20
20.4307601417
 11
-4.8973933632
 21
20.4307601417
  0
LINE
  5
565
100
AcDbEntity
  8
RACCORDO
100
AcDbLine
 62
7
  6
CONTINUOUS
 10
4.8973933632
 20
20.4307601417
 11
5.1026066368
 21
20.4307601417
  0
LINE
  5
566
100
AcDbEntity
  8
0
100
AcDbLine
 62
7
  6
CONTINUOUS
 10
2.1345299462
 20
20.5658231586
 11
-2.1345299462
 21
20.5658231586
  0
LINE
  5
567
100
AcDbEntity
  8
0
100
AcDbLine
 62
7
  6
CONTINUOUS
 10
9.5844404066
 20
20.636381153
 11
2.584265172
 21
20.636381153
  0
LINE
  5
568
100
AcDbEntity
  8
0
100
AcDbLine
 62
7
  6
CONTINUOUS
 10
-2.584265172
 20
20.636381153
 11
-9.5844404066
 21
20.636381153
  0
LINE
  5
569
100
AcDbEntity
  8
0
100
AcDbLine
 62
7
  6
CONTINUOUS
 10
-2.584265172
 20
22.1947348166
 11
-2.3077350269
 21
22.1696065528
  0
LINE
  5
56A
100
AcDbEntity
  8
0
100
AcDbLine
 62
7
  6
CONTINUOUS
 10
9.2904255286
 20
18.040625
 11
9.1946808591
 21
18.0968751073
  0
LINE
  5
56B
100
AcDbEntity
  8
0
100
AcDbLine
 62
7
  6
CONTINUOUS
 10
2.1345299462
 20
22.1643601773
 11
-2.1345299462
 21
22.1643601773
  0
LINE
  5
56C
100
AcDbEntity
  8
0
100
AcDbLine
 62
7
  6
CONTINUOUS
 10
10.6116132542
 20
22.1947348166
 11
2.584265172
 21
22.1947348166
  0
LINE
  5
56D
100
AcDbEntity
  8
0
100
AcDbLine
 62
7
  6
CONTINUOUS
 10
-2.584265172
 20
22.1947348166
 11
-10.6116132542
 21
22.1947348166
  0
CIRCLE
  5
56E
100
AcDbEntity
  8
0
100
AcDbCircle
 62
7
  6
CONTINUOUS
 10
-4.4
 20
-6.9
 40
0.6
  0
CIRCLE
  5
56F
100
AcDbEntity
  8
0
100
AcDbCircle
 62
7
  6
CONTINUOUS
 10
-4.4
 20
-16.0
 40
0.6
  0
CIRCLE
  5
570
100
AcDbEntity
  8
ASSI
100
AcDbCircle
 62
7
  6
CONTINUOUS
 10
-4.4
 20
-16.0
 40
0.6
  0
CIRCLE
  5
571
100
AcDbEntity
  8
ASSI
100
AcDbCircle
 62
7
  6
CONTINUOUS
 10
-4.4
 20
-6.9
 40
0.6
  0
ARC
  5
572
100
AcDbEntity
  8
0
100
AcDbCircle
 62
7
  6
CONTINUOUS
 10
-4.1878391746
 20
-0.7878391746
 40
0.4982397335
100
AcDbArc
 50
187.0830375502
 51
262.9169624498
  0
ARC
  5
573
100
AcDbEntity
  8
RACCORDO
100
AcDbCircle
 62
253
  6
CONTINUOUS
 10
-4.8974207338
 20
-19.4974207338
 40
0.3000161559
100
AcDbArc
 50
0.0052271206
 51
89.9947728794
  0
ARC
  5
574
100
AcDbEntity
  8
RACCORDO
100
AcDbCircle
 62
253
  6
CONTINUOUS
 10
-5.1025792662
 20
-19.4974207338
 40
0.3000161559
100
AcDbArc
 50
90.0052271206
 51
179.9947728794
  0
ARC
  5
575
100
AcDbEntity
  8
0
100
AcDbCircle
 62
7
  6
CONTINUOUS
 10
-4.885629084
 20
-0.3362228663
 40
0.1994150705
100
AcDbArc
 50
0.0047314422
 51
1.9321138009
  0
CIRCLE
  5
576
100
AcDbEntity
  8
0
100
AcDbCircle
 62
7
  6
CONTINUOUS
 10
-4.4
 20
6.9
 40
0.6
  0
CIRCLE
  5
577
100
AcDbEntity
  8
0
100
AcDbCircle
 62
7
  6
CONTINUOUS
 10
-4.4
 20
16.0
 40
0.6
  0
CIRCLE
  5
578
100
AcDbEntity
  8
ASSI
100
AcDbCircle
 62
7
  6
CONTINUOUS
 10
-4.4
 20
16.0
 40
0.6
  0
CIRCLE
  5
579
100
AcDbEntity
  8
ASSI
100
AcDbCircle
 62
7
  6
CONTINUOUS
 10
-4.4
 20
6.9
 40
0.6
  0
ARC
  5
57A
100
AcDbEntity
  8
0
100
AcDbCircle
 62
7
  6
CONTINUOUS
 10
-4.1878391746
 20
0.7878391746
 40
0.4982397335
100
AcDbArc
 50
97.0830375502
 51
172.9169624498
  0
ARC
  5
57B
100
AcDbEntity
  8
RACCORDO
100
AcDbCircle
 62
253
  6
CONTINUOUS
 10
-5.1025792662
 20
19.4974207338
 40
0.3000161559
100
AcDbArc
 50
180.0052271206
 51
269.9947728794
  0
ARC
  5
57C
100
AcDbEntity
  8
RACCORDO
100
AcDbCircle
 62
253
  6
CONTINUOUS
 10
-4.8974207338
 20
19.4974207338
 40
0.3000161559
100
AcDbArc
 50
270.0052271206
 51
359.9947728794
  0
ARC
  5
57D
100
AcDbEntity
  8
0
100
AcDbCircle
 62
7
  6
CONTINUOUS
 10
-4.8856290834
 20
0.3362228663
 40
0.19941507
100
AcDbArc
 50
358.0678920274
 51
359.9952685596
  0
CIRCLE
  5
57E
100
AcDbEntity
  8
0
100
AcDbCircle
 62
7
  6
CONTINUOUS
 10
4.4
 20
-6.9
 40
0.6
  0
CIRCLE
  5
57F
100
AcDbEntity
  8
0
100
AcDbCircle
 62
7
  6
CONTINUOUS
 10
4.4
 20
-16.0
 40
0.6
  0
CIRCLE
  5
580
100
AcDbEntity
  8
ASSI
100
AcDbCircle
 62
7
  6
CONTINUOUS
 10
4.4
 20
-16.0
 40
0.6
  0
CIRCLE
  5
581
100
AcDbEntity
  8
ASSI
100
AcDbCircle
 62
7
  6
CONTINUOUS
 10
4.4
 20
-6.9
 40
0.6
  0
ARC
  5
582
100
AcDbEntity
  8
0
100
AcDbCircle
 62
7
  6
CONTINUOUS
 10
4.1878391747
 20
-0.7878391747
 40
0.4982397335
100
AcDbArc
 50
277.0830375483
 51
352.9169624517
  0
ARC
  5
583
100
AcDbEntity
  8
RACCORDO
100
AcDbCircle
 62
253
  6
CONTINUOUS
 10
5.1025792662
 20
-19.4974207338
 40
0.3000161559
100
AcDbArc
 50
0.0052271206
 51
89.9947728794
  0
ARC
  5
584
100
AcDbEntity
  8
RACCORDO
100
AcDbCircle
 62
253
  6
CONTINUOUS
 10
4.8974207338
 20
-19.4974207338
 40
0.3000161559
100
AcDbArc
 50
90.0052271206
 51
179.9947728794
  0
ARC
  5
585
100
AcDbEntity
  8
0
100
AcDbCircle
 62
7
  6
CONTINUOUS
 10
4.8856290834
 20
-0.3362228663
 40
0.19941507
100
AcDbArc
 50
178.0678920274
 51
179.9952685596
  0
CIRCLE
  5
586
100
AcDbEntity
  8
0
100
AcDbCircle
 62
7
  6
CONTINUOUS
 10
4.4
 20
6.9
 40
0.6
  0
CIRCLE
  5
587
100
AcDbEntity
  8
0
100
AcDbCircle
 62
7
  6
CONTINUOUS
 10
4.4
 20
16.0
 40
0.6
  0
CIRCLE
  5
588
100
AcDbEntity
  8
ASSI
100
AcDbCircle
 62
7
  6
CONTINUOUS
 10
4.4
 20
16.0
 40
0.6
  0
CIRCLE
  5
589
100
AcDbEntity
  8
ASSI
100
AcDbCircle
 62
7
  6
CONTINUOUS
 10
4.4
 20
6.9
 40
0.6
  0
ARC
  5
58A
100
AcDbEntity
  8
0
100
AcDbCircle
 62
7
  6
CONTINUOUS
 10
4.1878391747
 20
0.7878391747
 40
0.4982397335
100
AcDbArc
 50
7.0830375481
 51
82.9169624519
  0
ARC
  5
58B
100
AcDbEntity
  8
RACCORDO
100
AcDbCircle
 62
253
  6
CONTINUOUS
 10
4.8974207338
 20
19.4974207338
 40
0.3000161559
100
AcDbArc
 50
180.0052271206
 51
269.9947728794
  0
ARC
  5
58C
100
AcDbEntity
  8
RACCORDO
100
AcDbCircle
 62
253
  6
CONTINUOUS
 10
5.1025792662
 20
19.4974207338
 40
0.3000161559
100
AcDbArc
 50
270.0052271206
 51
359.9947728794
  0
ARC
  5
58D
100
AcDbEntity
  8
0
100
AcDbCircle
 62
7
  6
CONTINUOUS
 10
4.885629084
 20
0.3362228663
 40
0.1994150705
100
AcDbArc
 50
180.0047314422
 51
181.9321138009
  0
SPLINE
  5
58E
100
AcDbEntity
  8
0
100
AcDbSpline
 62
7
  6
CONTINUOUS
 70
0
 71
3
 72
23
 73
19
 74
17
 42
0.0000001
 43
0.0000001
 44
0.0000000001
 12
-0.0102501628
 22
0.3038916555
 32
0.0
 13
-0.3039769638
 23
0.0045954767
 33
0.0
 40
0.0
 40
0.0
 40
0.0
 40
0.0
 40
0.0440398185
 40
0.1099164382
 40
0.1755768424
 40
0.2410289659
 40
0.3062775018
 40
0.3713252092
 40
0.4361737905
 40
0.5008249579
 40
0.5652811108
 40
0.6295457303
 40
0.6936237866
 40
0.7575219025
 40
0.8212482277
 40
0.884812559
 40
0.9482261201
 40
1.0
 40
1.0
 40
1.0
 40
1.0
 10
-4.6863273857
 20
-0.3294995161
 30
0.0
 10
-4.6864778575
 20
-0.325038405
 30
0.0
 10
-4.6872270611
 20
-0.3139136397
 30
0.0
 10
-4.689909022
 20
-0.2962994635
 30
0.0
 10
-4.6948827187
 20
-0.2769361001
 30
0.0
 10
-4.7017434641
 20
-0.2582269157
 30
0.0
 10
-4.710405829
 20
-0.2403498391
 30
0.0
 10
-4.7207675874
 20
-0.2234732067
 30
0.0
 10
-4.7327110919
 20
-0.2077527258
 30
0.0
 10
-4.7461049372
 20
-0.1933301837
 30
0.0
 10
-4.7608058274
 20
-0.1803321042
 30
0.0
 10
-4.7766605444
 20
-0.1688688669
 30
0.0
 10
-4.7935079105
 20
-0.1590341355
 30
0.0
 10
-4.8111807824
 20
-0.1509046016
 30
0.0
 10
-4.8295076037
 20
-0.1445399761
 30
0.0
 10
-4.848315086
 20
-0.1399831903
 30
0.0
 10
-4.866270698
 20
-0.1374253158
 30
0.0
 10
-4.8779400945
 20
-0.1367915289
 30
0.0
 10
-4.8831861167
 20
-0.1367122203
 30
0.0
 11
-4.6863273857
 21
-0.3294995161
 31
0.0
 11
-4.6872274806
 21
-0.3161394598
 31
0.0
 11
-4.690241373
 21
-0.2963445871
 31
0.0
 11
-4.6952066357
 21
-0.2770148361
 31
0.0
 11
-4.7020558336
 21
-0.258337075
 31
0.0
 11
-4.7107037303
 21
-0.2404897808
 31
0.0
 11
-4.7210483082
 21
-0.223640914
 31
0.0
 11
-4.7329721199
 21
-0.2079460823
 31
0.0
 11
-4.7463439816
 21
-0.1935468966
 31
0.0
 11
-4.7610208421
 21
-0.1805697251
 31
0.0
 11
-4.7768497265
 21
-0.1691248148
 31
0.0
 11
-4.7936697351
 21
-0.1593057096
 31
0.0
 11
-4.8113139714
 21
-0.1511889973
 31
0.0
 11
-4.8296113143
 21
-0.1448343259
 31
0.0
 11
-4.8483881462
 21
-0.1402845775
 31
0.0
 11
-4.867469854
 21
-0.1375662298
 31
0.0
 11
-4.8831861167
 21
-0.1367122203
 31
0.0
  0
SPLINE
  5
58F
100
AcDbEntity
  8
0
100
AcDbSpline
 62
7
  6
CONTINUOUS
 70
0
 71
3
 72
23
 73
19
 74
17
 42
0.0000001
 43
0.0000001
 44
0.0000000001
 12
0.0102501688
 22
0.3038927492
 32
0.0
 13
0.3039780643
 23
0.0045938692
 33
0.0
 40
0.0
 40
0.0
 40
0.0
 40
0.0
 40
0.0440397269
 40
0.1099161097
 40
0.1755762777
 40
0.2410281658
 40
0.3062764671
 40
0.3713239406
 40
0.4361722886
 40
0.5008232235
 40
0.5652791446
 40
0.629543533
 40
0.6936213589
 40
0.757519245
 40
0.821245341
 40
0.8848094436
 40
0.9482227767
 40
1.0
 40
1.0
 40
1.0
 40
1.0
 10
4.6863273851
 20
-0.3294995364
 30
0.0
 10
4.6864778566
 20
-0.3250384185
 30
0.0
 10
4.6872270601
 20
-0.3139136464
 30
0.0
 10
4.689909022
 20
-0.2962994635
 30
0.0
 10
4.6948827187
 20
-0.2769361001
 30
0.0
 10
4.7017434641
 20
-0.2582269157
 30
0.0
 10
4.710405829
 20
-0.2403498391
 30
0.0
 10
4.7207675874
 20
-0.2234732067
 30
0.0
 10
4.7327110919
 20
-0.2077527258
 30
0.0
 10
4.7461049372
 20
-0.1933301837
 30
0.0
 10
4.7608058274
 20
-0.1803321042
 30
0.0
 10
4.7766605444
 20
-0.1688688669
 30
0.0
 10
4.7935079105
 20
-0.1590341355
 30
0.0
 10
4.8111807824
 20
-0.1509046016
 30
0.0
 10
4.8295076037
 20
-0.1445399761
 30
0.0
 10
4.848315086
 20
-0.1399831903
 30
0.0
 10
4.8662710525
 20
-0.1374252653
 30
0.0
 10
4.8779408096
 20
-0.13679149
 30
0.0
 10
4.8831871897
 20
-0.1367122041
 30
0.0
 11
4.6863273851
 21
-0.3294995364
 31
0.0
 11
4.6872274806
 21
-0.3161394598
 31
0.0
 11
4.690241373
 21
-0.2963445871
 31
0.0
 11
4.6952066357
 21
-0.2770148361
 31
0.0
 11
4.7020558336
 21
-0.258337075
 31
0.0
 11
4.7107037303
 21
-0.2404897808
 31
0.0
 11
4.7210483082
 21
-0.223640914
 31
0.0
 11
4.7329721199
 21
-0.2079460823
 31
0.0
 11
4.7463439816
 21
-0.1935468966
 31
0.0
 11
4.7610208421
 21
-0.1805697251
 31
0.0
 11
4.7768497265
 21
-0.1691248148
 31
0.0
 11
4.7936697351
 21
-0.1593057096
 31
0.0
 11
4.8113139714
 21
-0.1511889973
 31
0.0
 11
4.8296113143
 21
-0.1448343259
 31
0.0
 11
4.8483881462
 21
-0.1402845775
 31
0.0
 11
4.867469854
 21
-0.1375662298
 31
0.0
 11
4.8831871897
 21
-0.1367122041
 31
0.0
  0
SPLINE
  5
590
100
AcDbEntity
  8
0
100
AcDbSpline
 62
253
  6
CONTINUOUS
 70
0
 71
3
 72
21
 73
17
 74
15
 42
0.0000001
 43
0.0000001
 44
0.0000000001
 12
-0.0010046155
 22
-0.4688856437
 32
0.0
 13
-0.4688856748
 23
-0.0009899964
 33
0.0
 40
0.0
 40
0.0
 40
0.0
 40
0.0
 40
0.0711286616
 40
0.1422870858
 40
0.2134863695
 40
0.2847355495
 40
0.356041151
 40
0.4274068659
 40
0.4988333743
 40
0.5703183182
 40
0.6418564266
 40
0.7134397842
 40
0.7850582296
 40
0.8566998628
 40
0.928351636
 40
1.0
 40
1.0
 40
1.0
 40
1.0
 10
9.8405613894
 20
-20.0302795453
 30
0.0
 10
9.8405375704
 20
-20.0413966147
 30
0.0
 10
9.839232571
 20
-20.0636530931
 30
0.0
 10
9.8335295759
 20
-20.0965974422
 30
0.0
 10
9.8241524484
 20
-20.1287138548
 30
0.0
 10
9.8112190245
 20
-20.1595938714
 30
0.0
 10
9.7948917484
 20
-20.1888516787
 30
0.0
 10
9.7753756242
 20
-20.2161199954
 30
0.0
 10
9.7529156174
 20
-20.2410570734
 30
0.0
 10
9.7277935499
 20
-20.2633503236
 30
0.0
 10
9.7003245946
 20
-20.2827203875
 30
0.0
 10
9.6708531471
 20
-20.2989245691
 30
0.0
 10
9.6397491354
 20
-20.3117598646
 30
0.0
 10
9.6074010457
 20
-20.321065485
 30
0.0
 10
9.5742198183
 20
-20.3267248365
 30
0.0
 10
9.551805378
 20
-20.3280197469
 30
0.0
 10
9.5406070808
 20
-20.3280433908
 30
0.0
 11
9.8405613894
 21
-20.0302795453
 31
0.0
 11
9.8386091038
 21
-20.0635736406
 31
0.0
 11
9.8329194011
 21
-20.0964501752
 31
0.0
 11
9.823563639
 21
-20.1284968254
 31
0.0
 11
9.8106591537
 21
-20.1593116754
 31
0.0
 11
9.7943677878
 21
-20.1885082581
 31
0.0
 11
9.7748938609
 21
-20.2157204023
 31
0.0
 11
9.7524816068
 21
-20.2406068245
 31
0.0
 11
9.7274121106
 21
-20.2628554096
 31
0.0
 11
9.6999997837
 21
-20.2821871252
 31
0.0
 11
9.6705884199
 21
-20.2983595208
 31
0.0
 11
9.6395468842
 21
-20.3111697691
 31
0.0
 11
9.6072644869
 21
-20.3204572093
 31
0.0
 11
9.5741461
 21
-20.3261053621
 31
0.0
 11
9.5406070808
 21
-20.3280433908
 31
0.0
  0
SPLINE
  5
591
100
AcDbEntity
  8
0
100
AcDbSpline
 62
253
  6
CONTINUOUS
 70
0
 71
3
 72
21
 73
17
 74
15
 42
0.0000001
 43
0.0000001
 44
0.0000000001
 12
-0.4688856748
 22
0.0009899964
 32
0.0
 13
-0.0010046155
 23
0.4688856437
 33
0.0
 40
0.0
 40
0.0
 40
0.0
 40
0.0
 40
0.071648364
 40
0.1433001372
 40
0.2149417704
 40
0.2865602158
 40
0.3581435734
 40
0.4296816818
 40
0.5011666257
 40
0.5725931341
 40
0.643958849
 40
0.7152644505
 40
0.7865136305
 40
0.8577129142
 40
0.9288713384
 40
1.0
 40
1.0
 40
1.0
 40
1.0
 10
-9.5406070808
 20
-20.3280433908
 30
0.0
 10
-9.551805378
 20
-20.3280197469
 30
0.0
 10
-9.5742198183
 20
-20.3267248365
 30
0.0
 10
-9.6074010457
 20
-20.321065485
 30
0.0
 10
-9.6397491354
 20
-20.3117598646
 30
0.0
 10
-9.6708531471
 20
-20.2989245691
 30
0.0
 10
-9.7003245946
 20
-20.2827203875
 30
0.0
 10
-9.7277935499
 20
-20.2633503236
 30
0.0
 10
-9.7529156174
 20
-20.2410570734
 30
0.0
 10
-9.7753756242
 20
-20.2161199954
 30
0.0
 10
-9.7948917484
 20
-20.1888516787
 30
0.0
 10
-9.8112190245
 20
-20.1595938714
 30
0.0
 10
-9.8241524484
 20
-20.1287138548
 30
0.0
 10
-9.8335295759
 20
-20.0965974422
 30
0.0
 10
-9.839232571
 20
-20.0636530931
 30
0.0
 10
-9.8405375704
 20
-20.0413966147
 30
0.0
 10
-9.8405613894
 20
-20.0302795453
 30
0.0
 11
-9.5406070808
 21
-20.3280433908
 31
0.0
 11
-9.5741461
 21
-20.3261053621
 31
0.0
 11
-9.6072644869
 21
-20.3204572093
 31
0.0
 11
-9.6395468842
 21
-20.3111697691
 31
0.0
 11
-9.6705884199
 21
-20.2983595208
 31
0.0
 11
-9.6999997837
 21
-20.2821871252
 31
0.0
 11
-9.7274121106
 21
-20.2628554096
 31
0.0
 11
-9.7524816068
 21
-20.2406068245
 31
0.0
 11
-9.7748938609
 21
-20.2157204023
 31
0.0
 11
-9.7943677878
 21
-20.1885082581
 31
0.0
 11
-9.8106591537
 21
-20.1593116754
 31
0.0
 11
-9.823563639
 21
-20.1284968254
 31
0.0
 11
-9.8329194011
 21
-20.0964501752
 31
0.0
 11
-9.8386091038
 21
-20.0635736406
 31
0.0
 11
-9.8405613894
 21
-20.0302795453
 31
0.0
  0
SPLINE
  5
592
100
AcDbEntity
  8
RACCORDO
100
AcDbSpline
 62
253
  6
CONTINUOUS
 70
0
 71
3
 72
21
 73
17
 74
15
 42
0.0000001
 43
0.0000001
 44
0.0000000001
 12
-0.3906700945
 22
0.0016787655
 32
0.0
 13
-0.0040625852
 23
0.3906525776
 33
0.0
 40
0.0
 40
0.0
 40
0.0
 40
0.0
 40
0.0856815676
 40
0.1707647896
 40
0.2546418052
 40
0.336739681
 40
0.416539174
 40
0.4935946622
 40
0.5675556573
 40
0.6381901803
 40
0.705409853
 40
0.769295534
 40
0.8301203334
 40
0.8883637165
 40
0.9447070282
 40
1.0
 40
1.0
 40
1.0
 40
1.0
 10
-2.9526066368
 20
-4.3494176978
 30
0.0
 10
-2.9637643789
 20
-4.3493697514
 30
0.0
 10
-2.9860068714
 20
-4.3484774763
 30
0.0
 10
-3.018986731
 20
-4.344762251
 30
0.0
 10
-3.051148369
 20
-4.3387172155
 30
0.0
 10
-3.0820926603
 20
-4.3304164154
 30
0.0
 10
-3.111438759
 20
-4.3199611188
 30
0.0
 10
-3.1388252143
 20
-4.307478163
 30
0.0
 10
-3.1639151091
 20
-4.29311783
 30
0.0
 10
-3.1863993071
 20
-4.2770513151
 30
0.0
 10
-3.205998981
 20
-4.2594682066
 30
0.0
 10
-3.2224668247
 20
-4.2405740177
 30
0.0
 10
-3.2355872843
 20
-4.2205907455
 30
0.0
 10
-3.2451772929
 20
-4.1997547897
 30
0.0
 10
-3.2510903622
 20
-4.1783354569
 30
0.0
 10
-3.2525203363
 20
-4.1637815289
 30
0.0
 10
-3.2525952137
 20
-4.1565814149
 30
0.0
 11
-2.9526066368
 21
-4.3494176978
 31
0.0
 11
-2.9860531011
 21
-4.3480717472
 31
0.0
 11
-3.0190825254
 21
-4.3443381264
 31
0.0
 11
-3.0512830697
 21
-4.3382633894
 31
0.0
 11
-3.0822532293
 21
-4.3299232814
 31
0.0
 11
-3.1116068409
 21
-4.3194217943
 31
0.0
 11
-3.1389778979
 21
-4.3068898698
 31
0.0
 11
-3.1640251137
 21
-4.2924837671
 31
0.0
 11
-3.1864361777
 21
-4.276383114
 31
0.0
 11
-3.2059316488
 21
-4.2587886678
 31
0.0
 11
-3.2222684404
 21
-4.2399198115
 31
0.0
 11
-3.2352428511
 21
-4.2200118186
 31
0.0
 11
-3.2446931043
 21
-4.1993129195
 31
0.0
 11
-3.250501366
 21
-4.1780812064
 31
0.0
 11
-3.2525952137
 21
-4.1565814149
 31
0.0
  0
SPLINE
  5
593
100
AcDbEntity
  8
RACCORDO
100
AcDbSpline
 62
253
  6
CONTINUOUS
 70
0
 71
3
 72
21
 73
17
 74
15
 42
0.0000001
 43
0.0000001
 44
0.0000000001
 12
-0.0040625852
 22
-0.3906525776
 32
0.0
 13
-0.3906700945
 23
-0.0016787655
 33
0.0
 40
0.0
 40
0.0
 40
0.0
 40
0.0
 40
0.0552929718
 40
0.1116362835
 40
0.1698796666
 40
0.230704466
 40
0.294590147
 40
0.3618098197
 40
0.4324443427
 40
0.5064053378
 40
0.583460826
 40
0.663260319
 40
0.7453581948
 40
0.8292352104
 40
0.9143184324
 40
1.0
 40
1.0
 40
1.0
 40
1.0
 10
-2.4474047863
 20
-4.1565814149
 30
0.0
 10
-2.4474796637
 20
-4.1637815289
 30
0.0
 10
-2.4489096378
 20
-4.1783354569
 30
0.0
 10
-2.4548227071
 20
-4.1997547897
 30
0.0
 10
-2.4644127157
 20
-4.2205907455
 30
0.0
 10
-2.4775331753
 20
-4.2405740177
 30
0.0
 10
-2.494001019
 20
-4.2594682066
 30
0.0
 10
-2.5136006929
 20
-4.2770513151
 30
0.0
 10
-2.5360848909
 20
-4.29311783
 30
0.0
 10
-2.5611747857
 20
-4.307478163
 30
0.0
 10
-2.588561241
 20
-4.3199611188
 30
0.0
 10
-2.6179073397
 20
-4.3304164154
 30
0.0
 10
-2.648851631
 20
-4.3387172155
 30
0.0
 10
-2.681013269
 20
-4.344762251
 30
0.0
 10
-2.7139931286
 20
-4.3484774763
 30
0.0
 10
-2.7362356211
 20
-4.3493697514
 30
0.0
 10
-2.7473933632
 20
-4.3494176978
 30
0.0
 11
-2.4474047863
 21
-4.1565814149
 31
0.0
 11
-2.449498634
 21
-4.1780812064
 31
0.0
 11
-2.4553068957
 21
-4.1993129195
 31
0.0
 11
-2.4647571489
 21
-4.2200118186
 31
0.0
 11
-2.4777315596
 21
-4.2399198115
 31
0.0
 11
-2.4940683512
 21
-4.2587886678
 31
0.0
 11
-2.5135638223
 21
-4.276383114
 31
0.0
 11
-2.5359748863
 21
-4.2924837671
 31
0.0
 11
-2.5610221021
 21
-4.3068898698
 31
0.0
 11
-2.5883931591
 21
-4.3194217943
 31
0.0
 11
-2.6177467707
 21
-4.3299232814
 31
0.0
 11
-2.6487169303
 21
-4.3382633894
 31
0.0
 11
-2.6809174746
 21
-4.3443381264
 31
0.0
 11
-2.7139468989
 21
-4.3480717472
 31
0.0
 11
-2.7473933632
 21
-4.3494176978
 31
0.0
  0
SPLINE
  5
594
100
AcDbEntity
  8
RACCORDO
100
AcDbSpline
 62
253
  6
CONTINUOUS
 70
0
 71
3
 72
21
 73
17
 74
15
 42
0.0000001
 43
0.0000001
 44
0.0000000001
 12
-0.0040625852
 22
-0.3906525776
 32
0.0
 13
-0.3906700945
 23
-0.0016787655
 33
0.0
 40
0.0
 40
0.0
 40
0.0
 40
0.0
 40
0.0552929718
 40
0.1116362835
 40
0.1698796666
 40
0.230704466
 40
0.294590147
 40
0.3618098197
 40
0.4324443427
 40
0.5064053378
 40
0.583460826
 40
0.663260319
 40
0.7453581948
 40
0.8292352104
 40
0.9143184324
 40
1.0
 40
1.0
 40
1.0
 40
1.0
 10
3.2525952137
 20
-4.1565814149
 30
0.0
 10
3.2525203363
 20
-4.1637815289
 30
0.0
 10
3.2510903622
 20
-4.1783354569
 30
0.0
 10
3.2451772929
 20
-4.1997547897
 30
0.0
 10
3.2355872843
 20
-4.2205907455
 30
0.0
 10
3.2224668247
 20
-4.2405740177
 30
0.0
 10
3.205998981
 20
-4.2594682066
 30
0.0
 10
3.1863993071
 20
-4.2770513151
 30
0.0
 10
3.1639151091
 20
-4.29311783
 30
0.0
 10
3.1388252143
 20
-4.307478163
 30
0.0
 10
3.111438759
 20
-4.3199611188
 30
0.0
 10
3.0820926603
 20
-4.3304164154
 30
0.0
 10
3.051148369
 20
-4.3387172155
 30
0.0
 10
3.018986731
 20
-4.344762251
 30
0.0
 10
2.9860068714
 20
-4.3484774763
 30
0.0
 10
2.9637643789
 20
-4.3493697514
 30
0.0
 10
2.9526066368
 20
-4.3494176978
 30
0.0
 11
3.2525952137
 21
-4.1565814149
 31
0.0
 11
3.250501366
 21
-4.1780812064
 31
0.0
 11
3.2446931043
 21
-4.1993129195
 31
0.0
 11
3.2352428511
 21
-4.2200118186
 31
0.0
 11
3.2222684404
 21
-4.2399198115
 31
0.0
 11
3.2059316488
 21
-4.2587886678
 31
0.0
 11
3.1864361777
 21
-4.276383114
 31
0.0
 11
3.1640251137
 21
-4.2924837671
 31
0.0
 11
3.1389778979
 21
-4.3068898698
 31
0.0
 11
3.1116068409
 21
-4.3194217943
 31
0.0
 11
3.0822532293
 21
-4.3299232814
 31
0.0
 11
3.0512830697
 21
-4.3382633894
 31
0.0
 11
3.0190825254
 21
-4.3443381264
 31
0.0
 11
2.9860531011
 21
-4.3480717472
 31
0.0
 11
2.9526066368
 21
-4.3494176978
 31
0.0
  0
SPLINE
  5
595
100
AcDbEntity
  8
RACCORDO
100
AcDbSpline
 62
253
  6
CONTINUOUS
 70
0
 71
3
 72
21
 73
17
 74
15
 42
0.0000001
 43
0.0000001
 44
0.0000000001
 12
-0.3906700945
 22
0.0016787655
 32
0.0
 13
-0.0040625852
 23
0.3906525776
 33
0.0
 40
0.0
 40
0.0
 40
0.0
 40
0.0
 40
0.0856815676
 40
0.1707647896
 40
0.2546418052
 40
0.336739681
 40
0.416539174
 40
0.4935946622
 40
0.5675556573
 40
0.6381901803
 40
0.705409853
 40
0.769295534
 40
0.8301203334
 40
0.8883637165
 40
0.9447070282
 40
1.0
 40
1.0
 40
1.0
 40
1.0
 10
2.7473933632
 20
-4.3494176978
 30
0.0
 10
2.7362356211
 20
-4.3493697514
 30
0.0
 10
2.7139931286
 20
-4.3484774763
 30
0.0
 10
2.681013269
 20
-4.344762251
 30
0.0
 10
2.648851631
 20
-4.3387172155
 30
0.0
 10
2.6179073397
 20
-4.3304164154
 30
0.0
 10
2.588561241
 20
-4.3199611188
 30
0.0
 10
2.5611747857
 20
-4.307478163
 30
0.0
 10
2.5360848909
 20
-4.29311783
 30
0.0
 10
2.5136006929
 20
-4.2770513151
 30
0.0
 10
2.494001019
 20
-4.2594682066
 30
0.0
 10
2.4775331753
 20
-4.2405740177
 30
0.0
 10
2.4644127157
 20
-4.2205907455
 30
0.0
 10
2.4548227071
 20
-4.1997547897
 30
0.0
 10
2.4489096378
 20
-4.1783354569
 30
0.0
 10
2.4474796637
 20
-4.1637815289
 30
0.0
 10
2.4474047863
 20
-4.1565814149
 30
0.0
 11
2.7473933632
 21
-4.3494176978
 31
0.0
 11
2.7139468989
 21
-4.3480717472
 31
0.0
 11
2.6809174746
 21
-4.3443381264
 31
0.0
 11
2.6487169303
 21
-4.3382633894
 31
0.0
 11
2.6177467707
 21
-4.3299232814
 31
0.0
 11
2.5883931591
 21
-4.3194217943
 31
0.0
 11
2.5610221021
 21
-4.3068898698
 31
0.0
 11
2.5359748863
 21
-4.2924837671
 31
0.0
 11
2.5135638223
 21
-4.276383114
 31
0.0
 11
2.4940683512
 21
-4.2587886678
 31
0.0
 11
2.4777315596
 21
-4.2399198115
 31
0.0
 11
2.4647571489
 21
-4.2200118186
 31
0.0
 11
2.4553068957
 21
-4.1993129195
 31
0.0
 11
2.449498634
 21
-4.1780812064
 31
0.0
 11
2.4474047863
 21
-4.1565814149
 31
0.0
  0
SPLINE
  5
596
100
AcDbEntity
  8
0
100
AcDbSpline
 62
7
  6
CONTINUOUS
 70
0
 71
3
 72
17
 73
13
 74
11
 42
0.0000001
 43
0.0000001
 44
0.0000000001
 12
0.1701196241
 22
0.0359095128
 32
0.0
 13
0.1738682824
 23
0.0
 33
0.0
 40
0.0
 40
0.0
 40
0.0
 40
0.0
 40
0.066534905
 40
0.1432817048
 40
0.2290503621
 40
0.3228437941
 40
0.4244231562
 40
0.5322270772
 40
0.6444964519
 40
0.760888826
 40
0.8800666571
 40
1.0
 40
1.0
 40
1.0
 40
1.0
 10
-2.3077350269
 20
-20.578010093
 30
0.0
 10
-2.3039620626
 20
-20.577213681
 30
0.0
 10
-2.295792967
 20
-20.5757066519
 30
0.0
 10
-2.2826605662
 20
-20.5737551434
 30
0.0
 10
-2.2679111917
 20
-20.5719761928
 30
0.0
 10
-2.2516937049
 20
-20.5703889672
 30
0.0
 10
-2.2341758078
 20
-20.5690125749
 30
0.0
 10
-2.2155686251
 20
-20.5678653326
 30
0.0
 10
-2.1960887344
 20
-20.5669600416
 30
0.0
 10
-2.1759392955
 20
-20.5663059821
 30
0.0
 10
-2.1553389282
 20
-20.5659109691
 30
0.0
 10
-2.1414808143
 20
-20.5658231586
 30
0.0
 10
-2.1345299462
 20
-20.5658231586
 30
0.0
 11
-2.3077350269
 21
-20.578010093
 31
0.0
 11
-2.2963653067
 21
-20.5758757895
 31
0.0
 11
-2.2831701723
 21
-20.5738892501
 31
0.0
 11
-2.2683672801
 21
-20.5720849434
 31
0.0
 11
-2.2521384775
 21
-20.5704827132
 31
0.0
 11
-2.2345321415
 21
-20.5690887923
 31
0.0
 11
-2.2158244667
 21
-20.5679275261
 31
0.0
 11
-2.1963256871
 21
-20.5670157975
 31
0.0
 11
-2.1760995215
 21
-20.5663554556
 31
0.0
 11
-2.1553821274
 21
-20.5659559967
 31
0.0
 11
-2.1345299462
 21
-20.5658231586
 31
0.0
  0
SPLINE
  5
597
100
AcDbEntity
  8
0
100
AcDbSpline
 62
7
  6
CONTINUOUS
 70
0
 71
3
 72
17
 73
13
 74
11
 42
0.0000001
 43
0.0000001
 44
0.0000000001
 12
0.1738682824
 22
0.0
 32
0.0
 13
0.1701196241
 23
-0.0359095128
 33
0.0
 40
0.0
 40
0.0
 40
0.0
 40
0.0
 40
0.1199333429
 40
0.239111174
 40
0.3555035481
 40
0.4677729228
 40
0.5755768438
 40
0.6771562059
 40
0.7709496379
 40
0.8567182952
 40
0.933465095
 40
1.0
 40
1.0
 40
1.0
 40
1.0
 10
2.1345299462
 20
-20.5658231586
 30
0.0
 10
2.1414808143
 20
-20.5658231586
 30
0.0
 10
2.1553389282
 20
-20.5659109691
 30
0.0
 10
2.1759392955
 20
-20.5663059821
 30
0.0
 10
2.1960887344
 20
-20.5669600416
 30
0.0
 10
2.2155686251
 20
-20.5678653326
 30
0.0
 10
2.2341758078
 20
-20.5690125749
 30
0.0
 10
2.2516937049
 20
-20.5703889672
 30
0.0
 10
2.2679111917
 20
-20.5719761928
 30
0.0
 10
2.2826605662
 20
-20.5737551434
 30
0.0
 10
2.295792967
 20
-20.5757066519
 30
0.0
 10
2.3039620626
 20
-20.577213681
 30
0.0
 10
2.3077350269
 20
-20.578010093
 30
0.0
 11
2.1345299462
 21
-20.5658231586
 31
0.0
 11
2.1553821274
 21
-20.5659559967
 31
0.0
 11
2.1760995215
 21
-20.5663554556
 31
0.0
 11
2.1963256871
 21
-20.5670157975
 31
0.0
 11
2.2158244667
 21
-20.5679275261
 31
0.0
 11
2.2345321415
 21
-20.5690887923
 31
0.0
 11
2.2521384775
 21
-20.5704827132
 31
0.0
 11
2.2683672801
 21
-20.5720849434
 31
0.0
 11
2.2831701723
 21
-20.5738892501
 31
0.0
 11
2.2963653067
 21
-20.5758757895
 31
0.0
 11
2.3077350269
 21
-20.578010093
 31
0.0
  0
SPLINE
  5
598
100
AcDbEntity
  8
0
100
AcDbSpline
 62
7
  6
CONTINUOUS
 70
0
 71
3
 72
23
 73
19
 74
17
 42
0.0000001
 43
0.0000001
 44
0.0000000001
 12
0.0102501628
 22
-0.3038916555
 32
0.0
 13
0.3039769638
 23
-0.0045954767
 33
0.0
 40
0.0
 40
0.0
 40
0.0
 40
0.0
 40
0.0440398185
 40
0.1099164382
 40
0.1755768424
 40
0.2410289659
 40
0.3062775018
 40
0.3713252092
 40
0.4361737905
 40
0.5008249579
 40
0.5652811108
 40
0.6295457303
 40
0.6936237866
 40
0.7575219025
 40
0.8212482277
 40
0.884812559
 40
0.9482261201
 40
1.0
 40
1.0
 40
1.0
 40
1.0
 10
4.6863273857
 20
0.3294995161
 30
0.0
 10
4.6864778575
 20
0.325038405
 30
0.0
 10
4.6872270611
 20
0.3139136397
 30
0.0
 10
4.689909022
 20
0.2962994635
 30
0.0
 10
4.6948827187
 20
0.2769361001
 30
0.0
 10
4.7017434641
 20
0.2582269157
 30
0.0
 10
4.710405829
 20
0.2403498391
 30
0.0
 10
4.7207675874
 20
0.2234732067
 30
0.0
 10
4.7327110919
 20
0.2077527258
 30
0.0
 10
4.7461049372
 20
0.1933301837
 30
0.0
 10
4.7608058274
 20
0.1803321042
 30
0.0
 10
4.7766605444
 20
0.1688688669
 30
0.0
 10
4.7935079105
 20
0.1590341355
 30
0.0
 10
4.8111807824
 20
0.1509046016
 30
0.0
 10
4.8295076037
 20
0.1445399761
 30
0.0
 10
4.848315086
 20
0.1399831903
 30
0.0
 10
4.866270698
 20
0.1374253158
 30
0.0
 10
4.8779400945
 20
0.1367915289
 30
0.0
 10
4.8831861167
 20
0.1367122203
 30
0.0
 11
4.6863273857
 21
0.3294995161
 31
0.0
 11
4.6872274806
 21
0.3161394598
 31
0.0
 11
4.690241373
 21
0.2963445871
 31
0.0
 11
4.6952066357
 21
0.2770148361
 31
0.0
 11
4.7020558336
 21
0.258337075
 31
0.0
 11
4.7107037303
 21
0.2404897808
 31
0.0
 11
4.7210483082
 21
0.223640914
 31
0.0
 11
4.7329721199
 21
0.2079460823
 31
0.0
 11
4.7463439816
 21
0.1935468966
 31
0.0
 11
4.7610208421
 21
0.1805697251
 31
0.0
 11
4.7768497265
 21
0.1691248148
 31
0.0
 11
4.7936697351
 21
0.1593057096
 31
0.0
 11
4.8113139714
 21
0.1511889973
 31
0.0
 11
4.8296113143
 21
0.1448343259
 31
0.0
 11
4.8483881462
 21
0.1402845775
 31
0.0
 11
4.867469854
 21
0.1375662298
 31
0.0
 11
4.8831861167
 21
0.1367122203
 31
0.0
  0
SPLINE
  5
599
100
AcDbEntity
  8
0
100
AcDbSpline
 62
7
  6
CONTINUOUS
 70
0
 71
3
 72
23
 73
19
 74
17
 42
0.0000001
 43
0.0000001
 44
0.0000000001
 12
-0.0102501688
 22
-0.3038927492
 32
0.0
 13
-0.3039780643
 23
-0.0045938692
 33
0.0
 40
0.0
 40
0.0
 40
0.0
 40
0.0
 40
0.0440397269
 40
0.1099161097
 40
0.1755762777
 40
0.2410281658
 40
0.3062764671
 40
0.3713239406
 40
0.4361722886
 40
0.5008232235
 40
0.5652791446
 40
0.629543533
 40
0.6936213589
 40
0.757519245
 40
0.821245341
 40
0.8848094436
 40
0.9482227767
 40
1.0
 40
1.0
 40
1.0
 40
1.0
 10
-4.6863273851
 20
0.3294995364
 30
0.0
 10
-4.6864778566
 20
0.3250384185
 30
0.0
 10
-4.6872270601
 20
0.3139136464
 30
0.0
 10
-4.689909022
 20
0.2962994635
 30
0.0
 10
-4.6948827187
 20
0.2769361001
 30
0.0
 10
-4.7017434641
 20
0.2582269157
 30
0.0
 10
-4.710405829
 20
0.2403498391
 30
0.0
 10
-4.7207675874
 20
0.2234732067
 30
0.0
 10
-4.7327110919
 20
0.2077527258
 30
0.0
 10
-4.7461049372
 20
0.1933301837
 30
0.0
 10
-4.7608058274
 20
0.1803321042
 30
0.0
 10
-4.7766605444
 20
0.1688688669
 30
0.0
 10
-4.7935079105
 20
0.1590341355
 30
0.0
 10
-4.8111807824
 20
0.1509046016
 30
0.0
 10
-4.8295076037
 20
0.1445399761
 30
0.0
 10
-4.848315086
 20
0.1399831903
 30
0.0
 10
-4.8662710525
 20
0.1374252653
 30
0.0
 10
-4.8779408096
 20
0.13679149
 30
0.0
 10
-4.8831871897
 20
0.1367122041
 30
0.0
 11
-4.6863273851
 21
0.3294995364
 31
0.0
 11
-4.6872274806
 21
0.3161394598
 31
0.0
 11
-4.690241373
 21
0.2963445871
 31
0.0
 11
-4.6952066357
 21
0.2770148361
 31
0.0
 11
-4.7020558336
 21
0.258337075
 31
0.0
 11
-4.7107037303
 21
0.2404897808
 31
0.0
 11
-4.7210483082
 21
0.223640914
 31
0.0
 11
-4.7329721199
 21
0.2079460823
 31
0.0
 11
-4.7463439816
 21
0.1935468966
 31
0.0
 11
-4.7610208421
 21
0.1805697251
 31
0.0
 11
-4.7768497265
 21
0.1691248148
 31
0.0
 11
-4.7936697351
 21
0.1593057096
 31
0.0
 11
-4.8113139714
 21
0.1511889973
 31
0.0
 11
-4.8296113143
 21
0.1448343259
 31
0.0
 11
-4.8483881462
 21
0.1402845775
 31
0.0
 11
-4.867469854
 21
0.1375662298
 31
0.0
 11
-4.8831871897
 21
0.1367122041
 31
0.0
  0
SPLINE
  5
59A
100
AcDbEntity
  8
0
100
AcDbSpline
 62
253
  6
CONTINUOUS
 70
0
 71
3
 72
21
 73
17
 74
15
 42
0.0000001
 43
0.0000001
 44
0.0000000001
 12
0.0010046155
 22
0.4688856437
 32
0.0
 13
0.4688856748
 23
0.0009899964
 33
0.0
 40
0.0
 40
0.0
 40
0.0
 40
0.0
 40
0.0711286616
 40
0.1422870858
 40
0.2134863695
 40
0.2847355495
 40
0.356041151
 40
0.4274068659
 40
0.4988333743
 40
0.5703183182
 40
0.6418564266
 40
0.7134397842
 40
0.7850582296
 40
0.8566998628
 40
0.928351636
 40
1.0
 40
1.0
 40
1.0
 40
1.0
 10
-9.8405613894
 20
20.0302795453
 30
0.0
 10
-9.8405375704
 20
20.0413966147
 30
0.0
 10
-9.839232571
 20
20.0636530931
 30
0.0
 10
-9.8335295759
 20
20.0965974422
 30
0.0
 10
-9.8241524484
 20
20.1287138548
 30
0.0
 10
-9.8112190245
 20
20.1595938714
 30
0.0
 10
-9.7948917484
 20
20.1888516787
 30
0.0
 10
-9.7753756242
 20
20.2161199954
 30
0.0
 10
-9.7529156174
 20
20.2410570734
 30
0.0
 10
-9.7277935499
 20
20.2633503236
 30
0.0
 10
-9.7003245946
 20
20.2827203875
 30
0.0
 10
-9.6708531471
 20
20.2989245691
 30
0.0
 10
-9.6397491354
 20
20.3117598646
 30
0.0
 10
-9.6074010457
 20
20.321065485
 30
0.0
 10
-9.5742198183
 20
20.3267248365
 30
0.0
 10
-9.551805378
 20
20.3280197469
 30
0.0
 10
-9.5406070808
 20
20.3280433908
 30
0.0
 11
-9.8405613894
 21
20.0302795453
 31
0.0
 11
-9.8386091038
 21
20.0635736406
 31
0.0
 11
-9.8329194011
 21
20.0964501752
 31
0.0
 11
-9.823563639
 21
20.1284968254
 31
0.0
 11
-9.8106591537
 21
20.1593116754
 31
0.0
 11
-9.7943677878
 21
20.1885082581
 31
0.0
 11
-9.7748938609
 21
20.2157204023
 31
0.0
 11
-9.7524816068
 21
20.2406068245
 31
0.0
 11
-9.7274121106
 21
20.2628554096
 31
0.0
 11
-9.6999997837
 21
20.2821871252
 31
0.0
 11
-9.6705884199
 21
20.2983595208
 31
0.0
 11
-9.6395468842
 21
20.3111697691
 31
0.0
 11
-9.6072644869
 21
20.3204572093
 31
0.0
 11
-9.5741461
 21
20.3261053621
 31
0.0
 11
-9.5406070808
 21
20.3280433908
 31
0.0
  0
SPLINE
  5
59B
100
AcDbEntity
  8
0
100
AcDbSpline
 62
253
  6
CONTINUOUS
 70
0
 71
3
 72
21
 73
17
 74
15
 42
0.0000001
 43
0.0000001
 44
0.0000000001
 12
0.4688856748
 22
-0.0009899964
 32
0.0
 13
0.0010046155
 23
-0.4688856437
 33
0.0
 40
0.0
 40
0.0
 40
0.0
 40
0.0
 40
0.071648364
 40
0.1433001372
 40
0.2149417704
 40
0.2865602158
 40
0.3581435734
 40
0.4296816818
 40
0.5011666257
 40
0.5725931341
 40
0.643958849
 40
0.7152644505
 40
0.7865136305
 40
0.8577129142
 40
0.9288713384
 40
1.0
 40
1.0
 40
1.0
 40
1.0
 10
9.5406070808
 20
20.3280433908
 30
0.0
 10
9.551805378
 20
20.3280197469
 30
0.0
 10
9.5742198183
 20
20.3267248365
 30
0.0
 10
9.6074010457
 20
20.321065485
 30
0.0
 10
9.6397491354
 20
20.3117598646
 30
0.0
 10
9.6708531471
 20
20.2989245691
 30
0.0
 10
9.7003245946
 20
20.2827203875
 30
0.0
 10
9.7277935499
 20
20.2633503236
 30
0.0
 10
9.7529156174
 20
20.2410570734
 30
0.0
 10
9.7753756242
 20
20.2161199954
 30
0.0
 10
9.7948917484
 20
20.1888516787
 30
0.0
 10
9.8112190245
 20
20.1595938714
 30
0.0
 10
9.8241524484
 20
20.1287138548
 30
0.0
 10
9.8335295759
 20
20.0965974422
 30
0.0
 10
9.839232571
 20
20.0636530931
 30
0.0
 10
9.8405375704
 20
20.0413966147
 30
0.0
 10
9.8405613894
 20
20.0302795453
 30
0.0
 11
9.5406070808
 21
20.3280433908
 31
0.0
 11
9.5741461
 21
20.3261053621
 31
0.0
 11
9.6072644869
 21
20.3204572093
 31
0.0
 11
9.6395468842
 21
20.3111697691
 31
0.0
 11
9.6705884199
 21
20.2983595208
 31
0.0
 11
9.6999997837
 21
20.2821871252
 31
0.0
 11
9.7274121106
 21
20.2628554096
 31
0.0
 11
9.7524816068
 21
20.2406068245
 31
0.0
 11
9.7748938609
 21
20.2157204023
 31
0.0
 11
9.7943677878
 21
20.1885082581
 31
0.0
 11
9.8106591537
 21
20.1593116754
 31
0.0
 11
9.823563639
 21
20.1284968254
 31
0.0
 11
9.8329194011
 21
20.0964501752
 31
0.0
 11
9.8386091038
 21
20.0635736406
 31
0.0
 11
9.8405613894
 21
20.0302795453
 31
0.0
  0
SPLINE
  5
59C
100
AcDbEntity
  8
RACCORDO
100
AcDbSpline
 62
253
  6
CONTINUOUS
 70
0
 71
3
 72
21
 73
17
 74
15
 42
0.0000001
 43
0.0000001
 44
0.0000000001
 12
0.3906700945
 22
-0.0016787655
 32
0.0
 13
0.0040625852
 23
-0.3906525776
 33
0.0
 40
0.0
 40
0.0
 40
0.0
 40
0.0
 40
0.0856815676
 40
0.1707647896
 40
0.2546418052
 40
0.336739681
 40
0.416539174
 40
0.4935946622
 40
0.5675556573
 40
0.6381901803
 40
0.705409853
 40
0.769295534
 40
0.8301203334
 40
0.8883637165
 40
0.9447070282
 40
1.0
 40
1.0
 40
1.0
 40
1.0
 10
2.9526066368
 20
4.3494176978
 30
0.0
 10
2.9637643789
 20
4.3493697514
 30
0.0
 10
2.9860068714
 20
4.3484774763
 30
0.0
 10
3.018986731
 20
4.344762251
 30
0.0
 10
3.051148369
 20
4.3387172155
 30
0.0
 10
3.0820926603
 20
4.3304164154
 30
0.0
 10
3.111438759
 20
4.3199611188
 30
0.0
 10
3.1388252143
 20
4.307478163
 30
0.0
 10
3.1639151091
 20
4.29311783
 30
0.0
 10
3.1863993071
 20
4.2770513151
 30
0.0
 10
3.205998981
 20
4.2594682066
 30
0.0
 10
3.2224668247
 20
4.2405740177
 30
0.0
 10
3.2355872843
 20
4.2205907455
 30
0.0
 10
3.2451772929
 20
4.1997547897
 30
0.0
 10
3.2510903622
 20
4.1783354569
 30
0.0
 10
3.2525203363
 20
4.1637815289
 30
0.0
 10
3.2525952137
 20
4.1565814149
 30
0.0
 11
2.9526066368
 21
4.3494176978
 31
0.0
 11
2.9860531011
 21
4.3480717472
 31
0.0
 11
3.0190825254
 21
4.3443381264
 31
0.0
 11
3.0512830697
 21
4.3382633894
 31
0.0
 11
3.0822532293
 21
4.3299232814
 31
0.0
 11
3.1116068409
 21
4.3194217943
 31
0.0
 11
3.1389778979
 21
4.3068898698
 31
0.0
 11
3.1640251137
 21
4.2924837671
 31
0.0
 11
3.1864361777
 21
4.276383114
 31
0.0
 11
3.2059316488
 21
4.2587886678
 31
0.0
 11
3.2222684404
 21
4.2399198115
 31
0.0
 11
3.2352428511
 21
4.2200118186
 31
0.0
 11
3.2446931043
 21
4.1993129195
 31
0.0
 11
3.250501366
 21
4.1780812064
 31
0.0
 11
3.2525952137
 21
4.1565814149
 31
0.0
  0
SPLINE
  5
59D
100
AcDbEntity
  8
RACCORDO
100
AcDbSpline
 62
253
  6
CONTINUOUS
 70
0
 71
3
 72
21
 73
17
 74
15
 42
0.0000001
 43
0.0000001
 44
0.0000000001
 12
0.0040625852
 22
0.3906525776
 32
0.0
 13
0.3906700945
 23
0.0016787655
 33
0.0
 40
0.0
 40
0.0
 40
0.0
 40
0.0
 40
0.0552929718
 40
0.1116362835
 40
0.1698796666
 40
0.230704466
 40
0.294590147
 40
0.3618098197
 40
0.4324443427
 40
0.5064053378
 40
0.583460826
 40
0.663260319
 40
0.7453581948
 40
0.8292352104
 40
0.9143184324
 40
1.0
 40
1.0
 40
1.0
 40
1.0
 10
2.4474047863
 20
4.1565814149
 30
0.0
 10
2.4474796637
 20
4.1637815289
 30
0.0
 10
2.4489096378
 20
4.1783354569
 30
0.0
 10
2.4548227071
 20
4.1997547897
 30
0.0
 10
2.4644127157
 20
4.2205907455
 30
0.0
 10
2.4775331753
 20
4.2405740177
 30
0.0
 10
2.494001019
 20
4.2594682066
 30
0.0
 10
2.5136006929
 20
4.2770513151
 30
0.0
 10
2.5360848909
 20
4.29311783
 30
0.0
 10
2.5611747857
 20
4.307478163
 30
0.0
 10
2.588561241
 20
4.3199611188
 30
0.0
 10
2.6179073397
 20
4.3304164154
 30
0.0
 10
2.648851631
 20
4.3387172155
 30
0.0
 10
2.681013269
 20
4.344762251
 30
0.0
 10
2.7139931286
 20
4.3484774763
 30
0.0
 10
2.7362356211
 20
4.3493697514
 30
0.0
 10
2.7473933632
 20
4.3494176978
 30
0.0
 11
2.4474047863
 21
4.1565814149
 31
0.0
 11
2.449498634
 21
4.1780812064
 31
0.0
 11
2.4553068957
 21
4.1993129195
 31
0.0
 11
2.4647571489
 21
4.2200118186
 31
0.0
 11
2.4777315596
 21
4.2399198115
 31
0.0
 11
2.4940683512
 21
4.2587886678
 31
0.0
 11
2.5135638223
 21
4.276383114
 31
0.0
 11
2.5359748863
 21
4.2924837671
 31
0.0
 11
2.5610221021
 21
4.3068898698
 31
0.0
 11
2.5883931591
 21
4.3194217943
 31
0.0
 11
2.6177467707
 21
4.3299232814
 31
0.0
 11
2.6487169303
 21
4.3382633894
 31
0.0
 11
2.6809174746
 21
4.3443381264
 31
0.0
 11
2.7139468989
 21
4.3480717472
 31
0.0
 11
2.7473933632
 21
4.3494176978
 31
0.0
  0
SPLINE
  5
59E
100
AcDbEntity
  8
RACCORDO
100
AcDbSpline
 62
253
  6
CONTINUOUS
 70
0
 71
3
 72
21
 73
17
 74
15
 42
0.0000001
 43
0.0000001
 44
0.0000000001
 12
0.0040625852
 22
0.3906525776
 32
0.0
 13
0.3906700945
 23
0.0016787655
 33
0.0
 40
0.0
 40
0.0
 40
0.0
 40
0.0
 40
0.0552929718
 40
0.1116362835
 40
0.1698796666
 40
0.230704466
 40
0.294590147
 40
0.3618098197
 40
0.4324443427
 40
0.5064053378
 40
0.583460826
 40
0.663260319
 40
0.7453581948
 40
0.8292352104
 40
0.9143184324
 40
1.0
 40
1.0
 40
1.0
 40
1.0
 10
-3.2525952137
 20
4.1565814149
 30
0.0
 10
-3.2525203363
 20
4.1637815289
 30
0.0
 10
-3.2510903622
 20
4.1783354569
 30
0.0
 10
-3.2451772929
 20
4.1997547897
 30
0.0
 10
-3.2355872843
 20
4.2205907455
 30
0.0
 10
-3.2224668247
 20
4.2405740177
 30
0.0
 10
-3.205998981
 20
4.2594682066
 30
0.0
 10
-3.1863993071
 20
4.2770513151
 30
0.0
 10
-3.1639151091
 20
4.29311783
 30
0.0
 10
-3.1388252143
 20
4.307478163
 30
0.0
 10
-3.111438759
 20
4.3199611188
 30
0.0
 10
-3.0820926603
 20
4.3304164154
 30
0.0
 10
-3.051148369
 20
4.3387172155
 30
0.0
 10
-3.018986731
 20
4.344762251
 30
0.0
 10
-2.9860068714
 20
4.3484774763
 30
0.0
 10
-2.9637643789
 20
4.3493697514
 30
0.0
 10
-2.9526066368
 20
4.3494176978
 30
0.0
 11
-3.2525952137
 21
4.1565814149
 31
0.0
 11
-3.250501366
 21
4.1780812064
 31
0.0
 11
-3.2446931043
 21
4.1993129195
 31
0.0
 11
-3.2352428511
 21
4.2200118186
 31
0.0
 11
-3.2222684404
 21
4.2399198115
 31
0.0
 11
-3.2059316488
 21
4.2587886678
 31
0.0
 11
-3.1864361777
 21
4.276383114
 31
0.0
 11
-3.1640251137
 21
4.2924837671
 31
0.0
 11
-3.1389778979
 21
4.3068898698
 31
0.0
 11
-3.1116068409
 21
4.3194217943
 31
0.0
 11
-3.0822532293
 21
4.3299232814
 31
0.0
 11
-3.0512830697
 21
4.3382633894
 31
0.0
 11
-3.0190825254
 21
4.3443381264
 31
0.0
 11
-2.9860531011
 21
4.3480717472
 31
0.0
 11
-2.9526066368
 21
4.3494176978
 31
0.0
  0
SPLINE
  5
59F
100
AcDbEntity
  8
RACCORDO
100
AcDbSpline
 62
253
  6
CONTINUOUS
 70
0
 71
3
 72
21
 73
17
 74
15
 42
0.0000001
 43
0.0000001
 44
0.0000000001
 12
0.3906700945
 22
-0.0016787655
 32
0.0
 13
0.0040625852
 23
-0.3906525776
 33
0.0
 40
0.0
 40
0.0
 40
0.0
 40
0.0
 40
0.0856815676
 40
0.1707647896
 40
0.2546418052
 40
0.336739681
 40
0.416539174
 40
0.4935946622
 40
0.5675556573
 40
0.6381901803
 40
0.705409853
 40
0.769295534
 40
0.8301203334
 40
0.8883637165
 40
0.9447070282
 40
1.0
 40
1.0
 40
1.0
 40
1.0
 10
-2.7473933632
 20
4.3494176978
 30
0.0
 10
-2.7362356211
 20
4.3493697514
 30
0.0
 10
-2.7139931286
 20
4.3484774763
 30
0.0
 10
-2.681013269
 20
4.344762251
 30
0.0
 10
-2.648851631
 20
4.3387172155
 30
0.0
 10
-2.6179073397
 20
4.3304164154
 30
0.0
 10
-2.588561241
 20
4.3199611188
 30
0.0
 10
-2.5611747857
 20
4.307478163
 30
0.0
 10
-2.5360848909
 20
4.29311783
 30
0.0
 10
-2.5136006929
 20
4.2770513151
 30
0.0
 10
-2.494001019
 20
4.2594682066
 30
0.0
 10
-2.4775331753
 20
4.2405740177
 30
0.0
 10
-2.4644127157
 20
4.2205907455
 30
0.0
 10
-2.4548227071
 20
4.1997547897
 30
0.0
 10
-2.4489096378
 20
4.1783354569
 30
0.0
 10
-2.4474796637
 20
4.1637815289
 30
0.0
 10
-2.4474047863
 20
4.1565814149
 30
0.0
 11
-2.7473933632
 21
4.3494176978
 31
0.0
 11
-2.7139468989
 21
4.3480717472
 31
0.0
 11
-2.6809174746
 21
4.3443381264
 31
0.0
 11
-2.6487169303
 21
4.3382633894
 31
0.0
 11
-2.6177467707
 21
4.3299232814
 31
0.0
 11
-2.5883931591
 21
4.3194217943
 31
0.0
 11
-2.5610221021
 21
4.3068898698
 31
0.0
 11
-2.5359748863
 21
4.2924837671
 31
0.0
 11
-2.5135638223
 21
4.276383114
 31
0.0
 11
-2.4940683512
 21
4.2587886678
 31
0.0
 11
-2.4777315596
 21
4.2399198115
 31
0.0
 11
-2.4647571489
 21
4.2200118186
 31
0.0
 11
-2.4553068957
 21
4.1993129195
 31
0.0
 11
-2.449498634
 21
4.1780812064
 31
0.0
 11
-2.4474047863
 21
4.1565814149
 31
0.0
  0
SPLINE
  5
5A0
100
AcDbEntity
  8
0
100
AcDbSpline
 62
7
  6
CONTINUOUS
 70
0
 71
3
 72
17
 73
13
 74
11
 42
0.0000001
 43
0.0000001
 44
0.0000000001
 12
-0.1701196241
 22
-0.0359095128
 32
0.0
 13
-0.1738682824
 23
0.0
 33
0.0
 40
0.0
 40
0.0
 40
0.0
 40
0.0
 40
0.066534905
 40
0.1432817048
 40
0.2290503621
 40
0.3228437941
 40
0.4244231562
 40
0.5322270772
 40
0.6444964519
 40
0.760888826
 40
0.8800666571
 40
1.0
 40
1.0
 40
1.0
 40
1.0
 10
2.3077350269
 20
20.578010093
 30
0.0
 10
2.3039620626
 20
20.577213681
 30
0.0
 10
2.295792967
 20
20.5757066519
 30
0.0
 10
2.2826605662
 20
20.5737551434
 30
0.0
 10
2.2679111917
 20
20.5719761928
 30
0.0
 10
2.2516937049
 20
20.5703889672
 30
0.0
 10
2.2341758078
 20
20.5690125749
 30
0.0
 10
2.2155686251
 20
20.5678653326
 30
0.0
 10
2.1960887344
 20
20.5669600416
 30
0.0
 10
2.1759392955
 20
20.5663059821
 30
0.0
 10
2.1553389282
 20
20.5659109691
 30
0.0
 10
2.1414808143
 20
20.5658231586
 30
0.0
 10
2.1345299462
 20
20.5658231586
 30
0.0
 11
2.3077350269
 21
20.578010093
 31
0.0
 11
2.2963653067
 21
20.5758757895
 31
0.0
 11
2.2831701723
 21
20.5738892501
 31
0.0
 11
2.2683672801
 21
20.5720849434
 31
0.0
 11
2.2521384775
 21
20.5704827132
 31
0.0
 11
2.2345321415
 21
20.5690887923
 31
0.0
 11
2.2158244667
 21
20.5679275261
 31
0.0
 11
2.1963256871
 21
20.5670157975
 31
0.0
 11
2.1760995215
 21
20.5663554556
 31
0.0
 11
2.1553821274
 21
20.5659559967
 31
0.0
 11
2.1345299462
 21
20.5658231586
 31
0.0
  0
SPLINE
  5
5A1
100
AcDbEntity
  8
0
100
AcDbSpline
 62
7
  6
CONTINUOUS
 70
0
 71
3
 72
17
 73
13
 74
11
 42
0.0000001
 43
0.0000001
 44
0.0000000001
 12
-0.1738682824
 22
0.0
 32
0.0
 13
-0.1701196241
 23
0.0359095128
 33
0.0
 40
0.0
 40
0.0
 40
0.0
 40
0.0
 40
0.1199333429
 40
0.239111174
 40
0.3555035481
 40
0.4677729228
 40
0.5755768438
 40
0.6771562059
 40
0.7709496379
 40
0.8567182952
 40
0.933465095
 40
1.0
 40
1.0
 40
1.0
 40
1.0
 10
-2.1345299462
 20
20.5658231586
 30
0.0
 10
-2.1414808143
 20
20.5658231586
 30
0.0
 10
-2.1553389282
 20
20.5659109691
 30
0.0
 10
-2.1759392955
 20
20.5663059821
 30
0.0
 10
-2.1960887344
 20
20.5669600416
 30
0.0
 10
-2.2155686251
 20
20.5678653326
 30
0.0
 10
-2.2341758078
 20
20.5690125749
 30
0.0
 10
-2.2516937049
 20
20.5703889672
 30
0.0
 10
-2.2679111917
 20
20.5719761928
 30
0.0
 10
-2.2826605662
 20
20.5737551434
 30
0.0
 10
-2.295792967
 20
20.5757066519
 30
0.0
 10
-2.3039620626
 20
20.577213681
 30
0.0
 10
-2.3077350269
 20
20.578010093
 30
0.0
 11
-2.1345299462
 21
20.5658231586
 31
0.0
 11
-2.1553821274
 21
20.5659559967
 31
0.0
 11
-2.1760995215
 21
20.5663554556
 31
0.0
 11
-2.1963256871
 21
20.5670157975
 31
0.0
 11
-2.2158244667
 21
20.5679275261
 31
0.0
 11
-2.2345321415
 21
20.5690887923
 31
0.0
 11
-2.2521384775
 21
20.5704827132
 31
0.0
 11
-2.2683672801
 21
20.5720849434
 31
0.0
 11
-2.2831701723
 21
20.5738892501
 31
0.0
 11
-2.2963653067
 21
20.5758757895
 31
0.0
 11
-2.3077350269
 21
20.578010093
 31
0.0
  0
ELLIPSE
  5
5A2
100
AcDbEntity
  8
0
100
AcDbEllipse
 62
7
  6
CONTINUOUS
 10
4.5358222275
 20
-6.7641777725
 30
0.0
 11
0.7952825482
 21
0.7952825482
 31
0.0
 40
0.8891264907
 41
-0.7267750543
 42
0.7267750543
  0
ELLIPSE
  5
5A3
100
AcDbEntity
  8
0
100
AcDbEllipse
 62
7
  6
CONTINUOUS
 10
4.5358222275
 20
-16.1358222275
 30
0.0
 11
0.7952825482
 21
-0.7952825482
 31
0.0
 40
0.8891264907
 41
-0.7267750543
 42
0.7267750543
  0
ELLIPSE
  5
5A4
100
AcDbEntity
  8
0
100
AcDbEllipse
 62
7
  6
CONTINUOUS
 10
-4.5358222275
 20
-16.1358222275
 30
0.0
 11
0.7952825482
 21
0.7952825482
 31
0.0
 40
0.8891264907
 41
2.4148175993
 42
3.8683677079
  0
ELLIPSE
  5
5A5
100
AcDbEntity
  8
0
100
AcDbEllipse
 62
7
  6
CONTINUOUS
 10
-4.5358222275
 20
-6.7641777725
 30
0.0
 11
0.7952825482
 21
-0.7952825482
 31
0.0
 40
0.8891264907
 41
2.4148175993
 42
3.8683677079
  0
ELLIPSE
  5
5A6
100
AcDbEntity
  8
0
100
AcDbEllipse
 62
7
  6
CONTINUOUS
 10
-4.5358222275
 20
6.7641777725
 30
0.0
 11
0.7952825482
 21
0.7952825482
 31
0.0
 40
0.8891264907
 41
-3.8683677079
 42
-2.4148175993
  0
ELLIPSE
  5
5A7
100
AcDbEntity
  8
0
100
AcDbEllipse
 62
7
  6
CONTINUOUS
 10
-4.5358222275
 20
16.1358222275
 30
0.0
 11
0.7952825482
 21
-0.7952825482
 31
0.0
 40
0.8891264907
 41
2.4148175993
 42
3.8683677079
  0
ELLIPSE
  5
5A8
100
AcDbEntity
  8
0
100
AcDbEllipse
 62
7
  6
CONTINUOUS
 10
4.5358222275
 20
16.1358222275
 30
0.0
 11
0.7952825482
 21
0.7952825482
 31
0.0
 40
0.8891264907
 41
-0.7267750543
 42
0.7267750543
  0
ELLIPSE
  5
5A9
100
AcDbEntity
  8
0
100
AcDbEllipse
 62
7
  6
CONTINUOUS
 10
4.5358222275
 20
6.7641777725
 30
0.0
 11
0.7952825482
 21
-0.7952825482
 31
0.0
 40
0.8891264907
 41
-0.7267750543
 42
0.7267750543
  0
ELLIPSE
  5
5AA
100
AcDbEntity
  8
0
100
AcDbEllipse
 62
7
  6
CONTINUOUS
 10
10.8998476139
 20
-0.3500095196
 30
0.0
 11
-0.2426981267
 21
-0.0606514259
 31
-0.0
 40
0.9993528196
 41
2.8968558282
 42
4.4673476033
  0
ELLIPSE
  5
5AB
100
AcDbEntity
  8
0
100
AcDbEllipse
 62
7
  6
CONTINUOUS
 10
-10.8998476139
 20
-0.3500095196
 30
0.0
 11
0.2426981267
 21
-0.0606514259
 31
0.0
 40
0.9993528196
 41
1.8158377039
 42
3.386329479
  0
ELLIPSE
  5
5AC
100
AcDbEntity
  8
0
100
AcDbEllipse
 62
7
  6
CONTINUOUS
 10
-4.1936403774
 20
-0.7936403774
 30
0.0
 11
-0.1896138901
 21
0.4643386945
 31
0.0
 40
0.9790602997
 41
1.1756477791
 42
1.3019498305
  0
ELLIPSE
  5
5AD
100
AcDbEntity
  8
0
100
AcDbEllipse
 62
7
  6
CONTINUOUS
 10
4.1936403774
 20
-0.7936403774
 30
0.0
 11
0.1896138901
 21
0.4643386945
 31
0.0
 40
0.9790602997
 41
-1.3019498305
 42
-1.1756477791
  0
ELLIPSE
  5
5AE
100
AcDbEntity
  8
0
100
AcDbEllipse
 62
7
  6
CONTINUOUS
 10
-4.6896527491
 20
-0.3396603647
 30
0.0
 11
0.000044129
 21
0.2000221726
 31
0.0
 40
0.0171905225
 41
-1.5579631943
 42
-1.5535237603
  0
ELLIPSE
  5
5AF
100
AcDbEntity
  8
0
100
AcDbEllipse
 62
7
  6
CONTINUOUS
 10
4.6896527491
 20
-0.3396603647
 30
0.0
 11
-0.000044129
 21
0.2000221726
 31
0.0
 40
0.0171905225
 41
1.5535237603
 42
1.5579631943
  0
ELLIPSE
  5
5B0
100
AcDbEntity
  8
0
100
AcDbEllipse
 62
7
  6
CONTINUOUS
 10
10.61283253
 20
-21.6972498925
 30
0.0
 11
0.4901042491
 21
0.1011361035
 31
0.0
 40
0.9938624933
 41
-1.775518161
 42
-0.2065483337
  0
ELLIPSE
  5
5B1
100
AcDbEntity
  8
0
100
AcDbEllipse
 62
7
  6
CONTINUOUS
 10
-10.61283253
 20
-21.6972498925
 30
0.0
 11
0.4901042491
 21
-0.1011361035
 31
0.0
 40
0.9938624933
 41
-2.9350443199
 42
-1.3660744926
  0
ELLIPSE
  5
5B2
100
AcDbEntity
  8
0
100
AcDbEllipse
 62
7
  6
CONTINUOUS
 10
-4.1936403774
 20
-0.7936403774
 30
0.0
 11
0.4643386945
 21
-0.1896138901
 31
0.0
 40
0.9790602997
 41
-1.3019498305
 42
-1.1756477791
  0
ELLIPSE
  5
5B3
100
AcDbEntity
  8
0
100
AcDbEllipse
 62
7
  6
CONTINUOUS
 10
4.1936403774
 20
-0.7936403774
 30
0.0
 11
0.4643386945
 21
0.1896138901
 31
0.0
 40
0.9790602997
 41
-1.9659448745
 42
-1.8396428231
  0
ELLIPSE
  5
5B4
100
AcDbEntity
  8
0
100
AcDbEllipse
 62
7
  6
CONTINUOUS
 10
-2.1345299462
 20
-22.1748529284
 30
0.0
 11
0.2
 21
0.0
 31
0.0
 40
0.0524637553
 41
1.5707963268
 42
2.617993878
  0
ELLIPSE
  5
5B5
100
AcDbEntity
  8
0
100
AcDbEllipse
 62
7
  6
CONTINUOUS
 10
2.1345299462
 20
-22.1748529284
 30
0.0
 11
0.2
 21
0.0
 31
0.0
 40
0.0524637553
 41
0.5235987756
 42
1.5707963268
  0
ELLIPSE
  5
5B6
100
AcDbEntity
  8
0
100
AcDbEllipse
 62
7
  6
CONTINUOUS
 10
5.5809401077
 20
-0.326188219
 30
0.0
 11
0.2309203249
 21
0.0034904481
 31
0.0
 40
0.8660006717
 41
1.5708859678
 42
3.1285034733
  0
ELLIPSE
  5
5B7
100
AcDbEntity
  8
0
100
AcDbEllipse
 62
7
  6
CONTINUOUS
 10
-3.7999885765
 20
-2.6999885765
 30
0.0
 11
-0.2121481893
 21
-0.2121481893
 31
-0.0
 40
0.9999238505
 41
-0.7853600872
 42
0.7853600872
  0
ELLIPSE
  5
5B8
100
AcDbEntity
  8
0
100
AcDbEllipse
 62
7
  6
CONTINUOUS
 10
-4.9499657295
 20
-1.5499657295
 30
0.0
 11
-0.636444568
 21
-0.636444568
 31
-0.0
 40
0.9999238505
 41
-0.7853600872
 42
0.7853600872
  0
ELLIPSE
  5
5B9
100
AcDbEntity
  8
0
100
AcDbEllipse
 62
7
  6
CONTINUOUS
 10
-5.5809401077
 20
-0.326188219
 30
0.0
 11
0.2309203249
 21
-0.0034904481
 31
0.0
 40
0.8660006717
 41
0.0130891803
 42
1.5707066858
  0
ELLIPSE
  5
5BA
100
AcDbEntity
  8
0
100
AcDbEllipse
 62
7
  6
CONTINUOUS
 10
4.9499657295
 20
-1.5499657295
 30
0.0
 11
0.636444568
 21
-0.636444568
 31
0.0
 40
0.9999238505
 41
-0.7853600872
 42
0.7853600872
  0
ELLIPSE
  5
5BB
100
AcDbEntity
  8
0
100
AcDbEllipse
 62
7
  6
CONTINUOUS
 10
3.7999885765
 20
-2.6999885765
 30
0.0
 11
0.2121481893
 21
-0.2121481893
 31
0.0
 40
0.9999238505
 41
-0.7853600872
 42
0.7853600872
  0
ELLIPSE
  5
5BC
100
AcDbEntity
  8
0
100
AcDbEllipse
 62
7
  6
CONTINUOUS
 10
9.5406070808
 20
-1.3034907471
 30
0.0
 11
0.3
 21
0.0
 31
0.0
 40
0.0087268678
 41
-1.5707963268
 42
-0.0174532925
  0
ELLIPSE
  5
5BD
100
AcDbEntity
  8
0
100
AcDbEllipse
 62
7
  6
CONTINUOUS
 10
-9.5406070808
 20
-1.3034907471
 30
0.0
 11
0.3
 21
0.0
 31
0.0
 40
0.0087268678
 41
-3.1241393611
 42
-1.5707963268
  0
ELLIPSE
  5
5BE
100
AcDbEntity
  8
0
100
AcDbEllipse
 62
7
  6
CONTINUOUS
 10
4.5930185058
 20
-20.0302795453
 30
0.0
 11
-0.0
 21
0.3
 31
0.0
 40
0.0087268678
 41
-4.7123889804
 42
-3.2637657012
  0
ELLIPSE
  5
5BF
100
AcDbEntity
  8
0
100
AcDbEllipse
 62
7
  6
CONTINUOUS
 10
5.4069814942
 20
-20.0302795453
 30
0.0
 11
-0.0
 21
0.3
 31
0.0
 40
0.0087268678
 41
-3.019419606
 42
-1.5707963268
  0
ELLIPSE
  5
5C0
100
AcDbEntity
  8
0
100
AcDbEllipse
 62
7
  6
CONTINUOUS
 10
-5.4069814942
 20
-20.0302795453
 30
0.0
 11
-0.0
 21
0.3
 31
0.0
 40
0.0087268678
 41
-4.7123889804
 42
-3.2637657012
  0
ELLIPSE
  5
5C1
100
AcDbEntity
  8
0
100
AcDbEllipse
 62
7
  6
CONTINUOUS
 10
-4.5930185058
 20
-20.0302795453
 30
0.0
 11
0.0
 21
0.3
 31
0.0
 40
0.0087268678
 41
-3.019419606
 42
-1.5707963268
  0
ELLIPSE
  5
5C2
100
AcDbEntity
  8
0
100
AcDbEllipse
 62
7
  6
CONTINUOUS
 10
9.5844404066
 20
-20.3386173075
 30
0.0
 11
0.3000450197
 21
0.0
 31
0.0
 40
0.9923972267
 41
-1.5707963268
 42
-0.0021269149
  0
ELLIPSE
  5
5C3
100
AcDbEntity
  8
0
100
AcDbEllipse
 62
7
  6
CONTINUOUS
 10
-9.5844404066
 20
-20.3386173075
 30
0.0
 11
0.3000450197
 21
0.0
 31
0.0
 40
0.9923972267
 41
-3.1394657387
 42
-1.5707963268
  0
ELLIPSE
  5
5C4
100
AcDbEntity
  8
0
100
AcDbEllipse
 62
7
  6
CONTINUOUS
 10
-4.7726497308
 20
-1.3726497308
 30
0.0
 11
0.4564354646
 21
0.4564354646
 31
0.0
 40
0.7745966692
 41
-3.8006506894
 42
-2.4825346178
  0
ELLIPSE
  5
5C5
100
AcDbEntity
  8
0
100
AcDbEllipse
 62
7
  6
CONTINUOUS
 10
4.7726497308
 20
-1.3726497308
 30
0.0
 11
0.4564354646
 21
-0.4564354646
 31
0.0
 40
0.7745966692
 41
-0.6590580358
 42
0.6590580358
  0
ELLIPSE
  5
5C6
100
AcDbEntity
  8
0
100
AcDbEllipse
 62
7
  6
CONTINUOUS
 10
-4.9560745369
 20
-1.5560745369
 30
0.0
 11
0.636444568
 21
0.636444568
 31
0.0
 40
0.9999238505
 41
2.3562325664
 42
3.9269527408
  0
ELLIPSE
  5
5C7
100
AcDbEntity
  8
0
100
AcDbEllipse
 62
7
  6
CONTINUOUS
 10
4.9560745369
 20
-1.5560745369
 30
0.0
 11
-0.636444568
 21
0.636444568
 31
0.0
 40
0.9999238505
 41
-3.9269527408
 42
-2.3562325664
  0
ELLIPSE
  5
5C8
100
AcDbEntity
  8
0
100
AcDbEllipse
 62
7
  6
CONTINUOUS
 10
-3.8060973839
 20
-2.7060973839
 30
0.0
 11
0.2121481893
 21
0.2121481893
 31
0.0
 40
0.9999238505
 41
-3.9269527408
 42
-2.3562325664
  0
ELLIPSE
  5
5C9
100
AcDbEntity
  8
0
100
AcDbEllipse
 62
7
  6
CONTINUOUS
 10
3.8060973839
 20
-2.7060973839
 30
0.0
 11
-0.2121481893
 21
0.2121481893
 31
0.0
 40
0.9999238505
 41
-3.9269527408
 42
-2.3562325664
  0
ELLIPSE
  5
5CA
100
AcDbEntity
  8
0
100
AcDbEllipse
 62
7
  6
CONTINUOUS
 10
5.1095881311
 20
-19.4904118689
 30
0.0
 11
0.2121481893
 21
0.2121481893
 31
0.0
 40
0.9999238505
 41
-0.7853600872
 42
0.7853600872
  0
ELLIPSE
  5
5CB
100
AcDbEntity
  8
0
100
AcDbEllipse
 62
7
  6
CONTINUOUS
 10
4.8904118689
 20
-19.4904118689
 30
0.0
 11
0.2121481893
 21
-0.2121481893
 31
0.0
 40
0.9999238505
 41
2.3562325664
 42
3.9269527408
  0
ELLIPSE
  5
5CC
100
AcDbEntity
  8
0
100
AcDbEllipse
 62
7
  6
CONTINUOUS
 10
-4.8904118689
 20
-19.4904118689
 30
0.0
 11
0.2121481893
 21
0.2121481893
 31
0.0
 40
0.9999238505
 41
-0.7853600872
 42
0.7853600872
  0
ELLIPSE
  5
5CD
100
AcDbEntity
  8
0
100
AcDbEllipse
 62
7
  6
CONTINUOUS
 10
-5.1095881311
 20
-19.4904118689
 30
0.0
 11
0.2121481893
 21
-0.2121481893
 31
0.0
 40
0.9999238505
 41
2.3562325664
 42
3.9269527408
  0
ELLIPSE
  5
5CE
100
AcDbEntity
  8
0
100
AcDbEllipse
 62
7
  6
CONTINUOUS
 10
-2.9560973839
 20
-4.6332828519
 30
0.0
 11
0.0034175972
 21
0.4667119782
 31
0.0
 40
0.6427774967
 41
-4.7009971771
 42
-3.1368858142
  0
ELLIPSE
  5
5CF
100
AcDbEntity
  8
0
100
AcDbEllipse
 62
7
  6
CONTINUOUS
 10
-2.7439026161
 20
-4.6332828519
 30
0.0
 11
-0.0034175972
 21
0.4667119782
 31
0.0
 40
0.6427774967
 41
-3.146299493
 42
-1.58218813
  0
ELLIPSE
  5
5D0
100
AcDbEntity
  8
0
100
AcDbEllipse
 62
7
  6
CONTINUOUS
 10
2.9560973839
 20
-4.6332828519
 30
0.0
 11
-0.0034175972
 21
0.4667119782
 31
0.0
 40
0.6427774967
 41
-3.146299493
 42
-1.58218813
  0
ELLIPSE
  5
5D1
100
AcDbEntity
  8
0
100
AcDbEllipse
 62
7
  6
CONTINUOUS
 10
2.7439026161
 20
-4.6332828519
 30
0.0
 11
0.0034175972
 21
0.4667119782
 31
0.0
 40
0.6427774967
 41
-4.7009971771
 42
-3.1368858142
  0
ELLIPSE
  5
5D2
100
AcDbEntity
  8
RACCORDO
100
AcDbEllipse
 62
7
  6
CONTINUOUS
 10
-5.1026066368
 20
-20.3939247734
 30
0.0
 11
0.3
 21
0.0
 31
0.0
 40
0.1227845609
 41
-3.1328660073
 42
-1.5707963268
  0
ELLIPSE
  5
5D3
100
AcDbEntity
  8
RACCORDO
100
AcDbEllipse
 62
7
  6
CONTINUOUS
 10
-4.8973933632
 20
-20.3939247734
 30
0.0
 11
0.3
 21
-0.0
 31
0.0
 40
0.1227845609
 41
-1.5707963268
 42
-0.0087266463
  0
ELLIPSE
  5
5D4
100
AcDbEntity
  8
RACCORDO
100
AcDbEllipse
 62
7
  6
CONTINUOUS
 10
4.8973933632
 20
-20.3939247734
 30
0.0
 11
0.3
 21
0.0
 31
0.0
 40
0.1227845609
 41
-3.1328660073
 42
-1.5707963268
  0
ELLIPSE
  5
5D5
100
AcDbEntity
  8
RACCORDO
100
AcDbEllipse
 62
7
  6
CONTINUOUS
 10
5.1026066368
 20
-20.3939247734
 30
0.0
 11
0.3
 21
0.0
 31
0.0
 40
0.1227845609
 41
-1.5707963268
 42
-0.0087266463
  0
ELLIPSE
  5
5D6
100
AcDbEntity
  8
RACCORDO
100
AcDbEllipse
 62
7
  6
CONTINUOUS
 10
-2.7473933632
 20
-2.4526180603
 30
0.0
 11
0.3
 21
0.0
 31
0.0
 40
0.0087268678
 41
0.0087266463
 42
1.5707963268
  0
ELLIPSE
  5
5D7
100
AcDbEntity
  8
RACCORDO
100
AcDbEllipse
 62
7
  6
CONTINUOUS
 10
-2.9526066368
 20
-3.0026180603
 30
0.0
 11
0.3
 21
-0.0
 31
0.0
 40
0.0087268678
 41
1.5707963268
 42
3.1328660073
  0
ELLIPSE
  5
5D8
100
AcDbEntity
  8
RACCORDO
100
AcDbEllipse
 62
7
  6
CONTINUOUS
 10
2.9526066368
 20
-3.0026180603
 30
0.0
 11
0.3
 21
0.0
 31
0.0
 40
0.0087268678
 41
0.0087266463
 42
1.5707963268
  0
ELLIPSE
  5
5D9
100
AcDbEntity
  8
RACCORDO
100
AcDbEllipse
 62
7
  6
CONTINUOUS
 10
2.7473933632
 20
-2.4526180603
 30
0.0
 11
0.3
 21
0.0
 31
0.0
 40
0.0087268678
 41
1.5707963268
 42
3.1328660073
  0
ELLIPSE
  5
5DA
100
AcDbEntity
  8
0
100
AcDbEllipse
 62
7
  6
CONTINUOUS
 10
-10.8998476139
 20
0.3500095196
 30
0.0
 11
0.2426981267
 21
0.0606514259
 31
0.0
 40
0.9993528196
 41
2.8968558282
 42
4.4673476033
  0
ELLIPSE
  5
5DB
100
AcDbEntity
  8
0
100
AcDbEllipse
 62
7
  6
CONTINUOUS
 10
10.8998476139
 20
0.3500095196
 30
0.0
 11
-0.2426981267
 21
0.0606514259
 31
-0.0
 40
0.9993528196
 41
1.8158377039
 42
3.386329479
  0
ELLIPSE
  5
5DC
100
AcDbEntity
  8
0
100
AcDbEllipse
 62
7
  6
CONTINUOUS
 10
4.1936403774
 20
0.7936403774
 30
0.0
 11
-0.1896138901
 21
0.4643386945
 31
0.0
 40
0.9790602997
 41
-1.9659448745
 42
-1.8396428231
  0
ELLIPSE
  5
5DD
100
AcDbEntity
  8
0
100
AcDbEllipse
 62
7
  6
CONTINUOUS
 10
-4.1936403774
 20
0.7936403774
 30
0.0
 11
0.1896138901
 21
0.4643386945
 31
0.0
 40
0.9790602997
 41
-4.4435424841
 42
-4.3172404327
  0
ELLIPSE
  5
5DE
100
AcDbEntity
  8
0
100
AcDbEllipse
 62
7
  6
CONTINUOUS
 10
4.6896527491
 20
0.3396603647
 30
0.0
 11
0.000044129
 21
0.2000221726
 31
0.0
 40
0.0171905225
 41
-4.6995558479
 42
-4.6951164139
  0
ELLIPSE
  5
5DF
100
AcDbEntity
  8
0
100
AcDbEllipse
 62
7
  6
CONTINUOUS
 10
-4.6896527491
 20
0.3396603647
 30
0.0
 11
-0.000044129
 21
0.2000221726
 31
0.0
 40
0.0171905225
 41
-1.5880688933
 42
-1.5836294593
  0
ELLIPSE
  5
5E0
100
AcDbEntity
  8
0
100
AcDbEllipse
 62
7
  6
CONTINUOUS
 10
-10.61283253
 20
21.6972498925
 30
0.0
 11
0.4901042491
 21
0.1011361035
 31
0.0
 40
0.9938624933
 41
1.3660744926
 42
2.9350443199
  0
ELLIPSE
  5
5E1
100
AcDbEntity
  8
0
100
AcDbEllipse
 62
7
  6
CONTINUOUS
 10
10.61283253
 20
21.6972498925
 30
0.0
 11
0.4901042491
 21
-0.1011361035
 31
0.0
 40
0.9938624933
 41
0.2065483337
 42
1.775518161
  0
ELLIPSE
  5
5E2
100
AcDbEntity
  8
0
100
AcDbEllipse
 62
7
  6
CONTINUOUS
 10
4.1936403774
 20
0.7936403774
 30
0.0
 11
0.4643386945
 21
-0.1896138901
 31
0.0
 40
0.9790602997
 41
1.8396428231
 42
1.9659448745
  0
ELLIPSE
  5
5E3
100
AcDbEntity
  8
0
100
AcDbEllipse
 62
7
  6
CONTINUOUS
 10
-4.1936403774
 20
0.7936403774
 30
0.0
 11
0.4643386945
 21
0.1896138901
 31
0.0
 40
0.9790602997
 41
1.1756477791
 42
1.3019498305
  0
ELLIPSE
  5
5E4
100
AcDbEntity
  8
0
100
AcDbEllipse
 62
7
  6
CONTINUOUS
 10
2.1345299462
 20
22.1748529284
 30
0.0
 11
0.2
 21
-0.0
 31
0.0
 40
0.0524637553
 41
-1.5707963268
 42
-0.5235987756
  0
ELLIPSE
  5
5E5
100
AcDbEntity
  8
0
100
AcDbEllipse
 62
7
  6
CONTINUOUS
 10
-2.1345299462
 20
22.1748529284
 30
0.0
 11
0.2
 21
0.0
 31
0.0
 40
0.0524637553
 41
-2.617993878
 42
-1.5707963268
  0
ELLIPSE
  5
5E6
100
AcDbEntity
  8
0
100
AcDbEllipse
 62
7
  6
CONTINUOUS
 10
-5.5809401077
 20
0.326188219
 30
0.0
 11
-0.2309203249
 21
-0.0034904481
 31
-0.0
 40
0.8660006717
 41
1.5708859678
 42
3.1285034733
  0
ELLIPSE
  5
5E7
100
AcDbEntity
  8
0
100
AcDbEllipse
 62
7
  6
CONTINUOUS
 10
3.7999885765
 20
2.6999885765
 30
0.0
 11
0.2121481893
 21
0.2121481893
 31
0.0
 40
0.9999238505
 41
-0.7853600872
 42
0.7853600872
  0
ELLIPSE
  5
5E8
100
AcDbEntity
  8
0
100
AcDbEllipse
 62
7
  6
CONTINUOUS
 10
4.9499657295
 20
1.5499657295
 30
0.0
 11
0.636444568
 21
0.636444568
 31
0.0
 40
0.9999238505
 41
-0.7853600872
 42
0.7853600872
  0
ELLIPSE
  5
5E9
100
AcDbEntity
  8
0
100
AcDbEllipse
 62
7
  6
CONTINUOUS
 10
5.5809401077
 20
0.326188219
 30
0.0
 11
-0.2309203249
 21
0.0034904481
 31
-0.0
 40
0.8660006717
 41
0.0130891803
 42
1.5707066858
  0
ELLIPSE
  5
5EA
100
AcDbEntity
  8
0
100
AcDbEllipse
 62
7
  6
CONTINUOUS
 10
-4.9499657295
 20
1.5499657295
 30
0.0
 11
-0.636444568
 21
0.636444568
 31
-0.0
 40
0.9999238505
 41
-0.7853600872
 42
0.7853600872
  0
ELLIPSE
  5
5EB
100
AcDbEntity
  8
0
100
AcDbEllipse
 62
7
  6
CONTINUOUS
 10
-3.7999885765
 20
2.6999885765
 30
0.0
 11
-0.2121481893
 21
0.2121481893
 31
-0.0
 40
0.9999238505
 41
-0.7853600872
 42
0.7853600872
  0
ELLIPSE
  5
5EC
100
AcDbEntity
  8
0
100
AcDbEllipse
 62
7
  6
CONTINUOUS
 10
-9.5406070808
 20
1.3034907471
 30
0.0
 11
0.3
 21
0.0
 31
0.0
 40
0.0087268678
 41
1.5707963268
 42
3.1241393611
  0
ELLIPSE
  5
5ED
100
AcDbEntity
  8
0
100
AcDbEllipse
 62
7
  6
CONTINUOUS
 10
9.5406070808
 20
1.3034907471
 30
0.0
 11
0.3
 21
0.0
 31
0.0
 40
0.0087268678
 41
0.0174532925
 42
1.5707963268
  0
ELLIPSE
  5
5EE
100
AcDbEntity
  8
0
100
AcDbEllipse
 62
7
  6
CONTINUOUS
 10
-4.5930185058
 20
20.0302795453
 30
0.0
 11
0.0
 21
0.3
 31
0.0
 40
0.0087268678
 41
-1.5707963268
 42
-0.1221730476
  0
ELLIPSE
  5
5EF
100
AcDbEntity
  8
0
100
AcDbEllipse
 62
7
  6
CONTINUOUS
 10
-5.4069814942
 20
20.0302795453
 30
0.0
 11
-0.0
 21
0.3
 31
0.0
 40
0.0087268678
 41
0.1221730476
 42
1.5707963268
  0
ELLIPSE
  5
5F0
100
AcDbEntity
  8
0
100
AcDbEllipse
 62
7
  6
CONTINUOUS
 10
5.4069814942
 20
20.0302795453
 30
0.0
 11
-0.0
 21
0.3
 31
0.0
 40
0.0087268678
 41
-1.5707963268
 42
-0.1221730476
  0
ELLIPSE
  5
5F1
100
AcDbEntity
  8
0
100
AcDbEllipse
 62
7
  6
CONTINUOUS
 10
4.5930185058
 20
20.0302795453
 30
0.0
 11
-0.0
 21
0.3
 31
0.0
 40
0.0087268678
 41
0.1221730476
 42
1.5707963268
  0
ELLIPSE
  5
5F2
100
AcDbEntity
  8
0
100
AcDbEllipse
 62
7
  6
CONTINUOUS
 10
-9.5844404066
 20
20.3386173075
 30
0.0
 11
0.3000450197
 21
-0.0
 31
0.0
 40
0.9923972267
 41
1.5707963268
 42
3.1394657387
  0
ELLIPSE
  5
5F3
100
AcDbEntity
  8
0
100
AcDbEllipse
 62
7
  6
CONTINUOUS
 10
9.5844404066
 20
20.3386173075
 30
0.0
 11
0.3000450197
 21
0.0
 31
0.0
 40
0.9923972267
 41
0.0021269149
 42
1.5707963268
  0
ELLIPSE
  5
5F4
100
AcDbEntity
  8
0
100
AcDbEllipse
 62
7
  6
CONTINUOUS
 10
4.7726497308
 20
1.3726497308
 30
0.0
 11
0.4564354646
 21
0.4564354646
 31
0.0
 40
0.7745966692
 41
-0.6590580358
 42
0.6590580358
  0
ELLIPSE
  5
5F5
100
AcDbEntity
  8
0
100
AcDbEllipse
 62
7
  6
CONTINUOUS
 10
-4.7726497308
 20
1.3726497308
 30
0.0
 11
0.4564354646
 21
-0.4564354646
 31
0.0
 40
0.7745966692
 41
2.4825346178
 42
3.8006506894
  0
ELLIPSE
  5
5F6
100
AcDbEntity
  8
0
100
AcDbEllipse
 62
7
  6
CONTINUOUS
 10
4.9560745369
 20
1.5560745369
 30
0.0
 11
0.636444568
 21
0.636444568
 31
0.0
 40
0.9999238505
 41
-0.7853600872
 42
0.7853600872
  0
ELLIPSE
  5
5F7
100
AcDbEntity
  8
0
100
AcDbEllipse
 62
7
  6
CONTINUOUS
 10
-4.9560745369
 20
1.5560745369
 30
0.0
 11
-0.636444568
 21
0.636444568
 31
0.0
 40
0.9999238505
 41
-0.7853600872
 42
0.7853600872
  0
ELLIPSE
  5
5F8
100
AcDbEntity
  8
0
100
AcDbEllipse
 62
7
  6
CONTINUOUS
 10
3.8060973839
 20
2.7060973839
 30
0.0
 11
0.2121481893
 21
0.2121481893
 31
0.0
 40
0.9999238505
 41
-0.7853600872
 42
0.7853600872
  0
ELLIPSE
  5
5F9
100
AcDbEntity
  8
0
100
AcDbEllipse
 62
7
  6
CONTINUOUS
 10
-3.8060973839
 20
2.7060973839
 30
0.0
 11
-0.2121481893
 21
0.2121481893
 31
0.0
 40
0.9999238505
 41
-0.7853600872
 42
0.7853600872
  0
ELLIPSE
  5
5FA
100
AcDbEntity
  8
0
100
AcDbEllipse
 62
7
  6
CONTINUOUS
 10
-5.1095881311
 20
19.4904118689
 30
0.0
 11
0.2121481893
 21
0.2121481894
 31
0.0
 40
0.9999238505
 41
2.3562325663
 42
3.9269527407
  0
ELLIPSE
  5
5FB
100
AcDbEntity
  8
0
100
AcDbEllipse
 62
7
  6
CONTINUOUS
 10
-4.8904118689
 20
19.4904118689
 30
0.0
 11
0.2121481893
 21
-0.2121481894
 31
0.0
 40
0.9999238505
 41
-0.7853600871
 42
0.7853600872
  0
ELLIPSE
  5
5FC
100
AcDbEntity
  8
0
100
AcDbEllipse
 62
7
  6
CONTINUOUS
 10
4.8904118689
 20
19.4904118689
 30
0.0
 11
0.2121481893
 21
0.2121481893
 31
0.0
 40
0.9999238505
 41
2.3562325664
 42
3.9269527408
  0
ELLIPSE
  5
5FD
100
AcDbEntity
  8
0
100
AcDbEllipse
 62
7
  6
CONTINUOUS
 10
5.1095881311
 20
19.4904118689
 30
0.0
 11
0.2121481893
 21
-0.2121481893
 31
0.0
 40
0.9999238505
 41
-0.7853600872
 42
0.7853600872
  0
ELLIPSE
  5
5FE
100
AcDbEntity
  8
0
100
AcDbEllipse
 62
7
  6
CONTINUOUS
 10
2.9560973839
 20
4.6332828519
 30
0.0
 11
0.0034175972
 21
0.4667119782
 31
0.0
 40
0.6427774967
 41
-1.5594045235
 42
0.0047068394
  0
ELLIPSE
  5
5FF
100
AcDbEntity
  8
0
100
AcDbEllipse
 62
7
  6
CONTINUOUS
 10
2.7439026161
 20
4.6332828519
 30
0.0
 11
-0.0034175972
 21
0.4667119782
 31
0.0
 40
0.6427774967
 41
-0.0047068394
 42
1.5594045235
  0
ELLIPSE
  5
600
100
AcDbEntity
  8
0
100
AcDbEllipse
 62
7
  6
CONTINUOUS
 10
-2.9560973839
 20
4.6332828519
 30
0.0
 11
-0.0034175972
 21
0.4667119782
 31
0.0
 40
0.6427774967
 41
-0.0047068394
 42
1.5594045235
  0
ELLIPSE
  5
601
100
AcDbEntity
  8
0
100
AcDbEllipse
 62
7
  6
CONTINUOUS
 10
-2.7439026161
 20
4.6332828519
 30
0.0
 11
0.0034175972
 21
0.4667119782
 31
0.0
 40
0.6427774967
 41
-1.5594045235
 42
0.0047068394
  0
ELLIPSE
  5
602
100
AcDbEntity
  8
RACCORDO
100
AcDbEllipse
 62
7
  6
CONTINUOUS
 10
5.1026066368
 20
20.3939247734
 30
0.0
 11
0.3
 21
-0.0
 31
0.0
 40
0.1227845609
 41
0.0087266463
 42
1.5707963268
  0
ELLIPSE
  5
603
100
AcDbEntity
  8
RACCORDO
100
AcDbEllipse
 62
7
  6
CONTINUOUS
 10
4.8973933632
 20
20.3939247734
 30
0.0
 11
0.3
 21
-0.0
 31
0.0
 40
0.1227845609
 41
1.5707963268
 42
3.1328660073
  0
ELLIPSE
  5
604
100
AcDbEntity
  8
RACCORDO
100
AcDbEllipse
 62
7
  6
CONTINUOUS
 10
-4.8973933632
 20
20.3939247734
 30
0.0
 11
0.3
 21
0.0
 31
0.0
 40
0.1227845609
 41
0.0087266463
 42
1.5707963268
  0
ELLIPSE
  5
605
100
AcDbEntity
  8
RACCORDO
100
AcDbEllipse
 62
7
  6
CONTINUOUS
 10
-5.1026066368
 20
20.3939247734
 30
0.0
 11
0.3
 21
-0.0
 31
0.0
 40
0.1227845609
 41
1.5707963268
 42
3.1328660073
  0
ELLIPSE
  5
606
100
AcDbEntity
  8
RACCORDO
100
AcDbEllipse
 62
7
  6
CONTINUOUS
 10
2.7473933632
 20
2.4526180603
 30
0.0
 11
0.3
 21
0.0
 31
0.0
 40
0.0087268678
 41
-3.1328660073
 42
-1.5707963268
  0
ELLIPSE
  5
607
100
AcDbEntity
  8
RACCORDO
100
AcDbEllipse
 62
7
  6
CONTINUOUS
 10
2.9526066368
 20
3.0026180603
 30
0.0
 11
0.3
 21
0.0
 31
0.0
 40
0.0087268678
 41
-1.5707963268
 42
-0.0087266463
  0
ELLIPSE
  5
608
100
AcDbEntity
  8
RACCORDO
100
AcDbEllipse
 62
7
  6
CONTINUOUS
 10
-2.9526066368
 20
3.0026180603
 30
0.0
 11
0.3
 21
0.0
 31
0.0
 40
0.0087268678
 41
-3.1328660073
 42
-1.5707963268
  0
ELLIPSE
  5
609
100
AcDbEntity
  8
RACCORDO
100
AcDbEllipse
 62
7
  6
CONTINUOUS
 10
-2.7473933632
 20
2.4526180603
 30
0.0
 11
0.3
 21
0.0
 31
0.0
 40
0.0087268678
 41
-1.5707963268
 42
-0.0087266463
  0
ENDSEC
  0
SECTION
  2
OBJECTS
  0
DICTIONARY
  5
C
100
AcDbDictionary
280
0
281
1
  3
ACAD_GROUP
350
D
  3
ACAD_MLINESTYLE
350
17
  3
ACAD_LAYOUT
350
1A
  3
ACAD_PLOTSETTINGS
350
19
  3
ACAD_PLOTSTYLENAME
350
E
  0
DICTIONARY
  5
D
102
{ACAD_REACTORS
330
C
102
}
100
AcDbDictionary
280
0
281
1
  0
ACDBDICTIONARYWDFLT
  5
E
102
{ACAD_REACTORS
330
C
102
}
100
AcDbDictionary
281
1
  3
Normal
350
F
100
AcDbDictionaryWithDefault
340
F
  0
DICTIONARY
  5
17
102
{ACAD_REACTORS
330
C
102
}
100
AcDbDictionary
280
0
281
1
  3
Standard
350
18
  0
DICTIONARY
  5
19
102
{ACAD_REACTORS
330
C
102
}
100
AcDbDictionary
281
1
  0
DICTIONARY
  5
1A
102
{ACAD_REACTORS
330
C
102
}
100
AcDbDictionary
281
1
  3
Model
350
60A
  3
Layout1
350
60B
  0
ACDBPLACEHOLDER
  5
F
102
{ACAD_REACTORS
330
E
102
}
  0
MLINESTYLE
  5
18
102
{ACAD_REACTORS
330
17
102
}
100
AcDbMlineStyle
  2
STANDARD
 70
0
  3

 62
256
 51
90.0
 52
90.0
 71
2
 49
0.5
 62
256
  6
BYLAYER
 49
-0.5
 62
256
  6
BYLAYER
  0
LAYOUT
  5
60A
102
{ACAD_REACTORS
330
1A
102
}
100
AcDbPlotSettings
  1

  2
none_device
  4
ISO_A4_(297.00_x_210.00_MM)
  6

 40
0.0
 41
0.0
 42
0.0
 43
0.0
 44
297.0
 45
210.0
 46
0.0
 47
0.0
 48
0.0
 49
0.0
140
0.0
141
0.0
142
1.0
143
1.0
 70
1024
 72
1
 73
0
 74
0
  7

 75
0
147
1.0
148
0.0
149
0.0
100
AcDbLayout
  1
Model
 70
0
 71
0
 10
0.0
 20
0.0
 11
297.0
 21
210.0
 12
0.0
 22
0.0
 32
0.0
 14
0.0
 24
0.0
 34
0.0
 15
0.0
 25
0.0
 35
0.0
146
0.0
 13
0.0
 23
0.0
 33
0.0
 16
1.0
 26
0.0
 36
0.0
 17
0.0
 27
1.0
 37
0.0
 76
0
330
217
345
0
346
0
  0
LAYOUT
  5
60B
102
{ACAD_REACTORS
330
1A
102
}
100
AcDbPlotSettings
  1

  2
none_device
  4
ISO_A4_(297.00_x_210.00_MM)
  6

 40
0.0
 41
0.0
 42
0.0
 43
0.0
 44
297.0
 45
210.0
 46
0.0
 47
0.0
 48
0.0
 49
0.0
140
0.0
141
0.0
142
1.0
143
1.0
 70
0
 72
1
 73
0
 74
0
  7

 75
0
147
1.0
148
0.0
149
0.0
100
AcDbLayout
  1
Layout1
 70
0
 71
1
 10
0.0
 20
0.0
 11
297.0
 21
210.0
 12
0.0
 22
0.0
 32
0.0
 14
0.0
 24
0.0
 34
0.0
 15
0.0
 25
0.0
 35
0.0
146
0.0
 13
0.0
 23
0.0
 33
0.0
 16
1.0
 26
0.0
 36
0.0
 17
0.0
 27
1.0
 37
0.0
 76
0
330
218
345
0
346
0
  0
ENDSEC
  0
EOF
