  0
SECTION
  2
HEADER
  9
$ACADVER
  1
AC1015
  9
$DWGCODEPAGE
  3
ANSI_1252
  9
$EXTMAX
 10
210.0
 20
297.0
 30
0.0
  9
$EXTMIN
 10
0.0
 20
0.0
 30
0.0
  9
$LIMMIN
 10
0.0
 20
0.0
  9
$LIMMAX
 10
210.0
 20
297.0
  9
$VIEWCTR
 10
105.0
 20
148.5
  9
$VIEWSIZE
 40
297.0
  9
$CLAYER
  8
0
  9
$LTSCALE
 40
19.36
  9
$CELTYPE
  6
BYLAYER
  9
$DIMSCALE
 40
1.0
  9
$DIMASZ
 40
3.0
  9
$DIMEXO
 40
0.5
  9
$DIMDLI
 40
13.376
  9
$DIMEXE
 40
1.5
  9
$DIMCEN
 40
3.168
  9
$DIMLFAC
 40
1.0
  9
$DIMBLK
  1
_FILLED
  9
$DIMTXT
 40
3.0
  9
$DIMTOL
 70
1
  9
$DIMLIM
 70
0
  9
$DIMTFAC
 40
1.0
  9
$DIMTP
 40
0.01
  9
$DIMTM
 40
0.01
  9
$DIMGAP
 40
0.625
  9
$DIMDSEP
 70
44
  9
$PDMODE
 70
3
  9
$PDSIZE
 40
3.0
  9
$HANDSEED
  5
669
  9
$TILEMODE
 70
1
  9
$MEASUREMENT
 70
1
  9
$INSUNITS
 70
4
  0
ENDSEC
  0
SECTION
  2
CLASSES
  0
CLASS
  1
ACDBDICTIONARYWDFLT
  2
AcDbDictionaryWithDefault
  3
AutoCAD 2000
 90
0
280
0
281
0
  0
CLASS
  1
ACDBPLACEHOLDER
  2
AcDbPlaceHolder
  3
AutoCAD 2000
 90
0
280
0
281
0
  0
CLASS
  1
LAYOUT
  2
AcDbLayout
  3
AutoCAD 2000
 90
0
280
0
281
0
  0
ENDSEC
  0
SECTION
  2
TABLES
  0
TABLE
  2
VPORT
  5
8
100
AcDbSymbolTable
 70
2
  0
VPORT
  5
1F4
100
AcDbSymbolTableRecord
100
AcDbViewportTableRecord
  2
*ACTIVE
 70
0
 10
0.0
 20
0.0
 11
1.0
 21
1.0
 12
105.0
 22
148.5
 13
0.0
 23
0.0
 14
1.0
 24
1.0
 15
0.0
 25
0.0
 16
0.0
 26
0.0
 36
1.0
 17
0.0
 27
0.0
 37
0.0
 40
297.0
 41
0.7070707071
 42
50.0
 43
0.0
 44
0.0
 50
0.0
 51
0.0
 71
0
 72
100
 73
1
 74
1
 75
0
 76
0
 77
0
 78
0
  0
ENDTAB
  0
TABLE
  2
LTYPE
  5
5
100
AcDbSymbolTable
 70
6
  0
LTYPE
  5
14
100
AcDbSymbolTableRecord
100
AcDbLinetypeTableRecord
  2
BYBLOCK
 70
0
  3

 72
65
 73
0
 40
0.0
  0
LTYPE
  5
15
100
AcDbSymbolTableRecord
100
AcDbLinetypeTableRecord
  2
BYLAYER
 70
0
  3

 72
65
 73
0
 40
0.0
  0
LTYPE
  5
16
100
AcDbSymbolTableRecord
100
AcDbLinetypeTableRecord
  2
CONTINUOUS
 70
64
  3
Solid line
 72
65
 73
0
 40
0.0
  0
LTYPE
  5
1F5
100
AcDbSymbolTableRecord
100
AcDbLinetypeTableRecord
  2
CENTER
 70
64
  3
____ _ ____ _ ____ _ ____ _ ____ _ ____ _ ____
 72
65
 73
4
 40
0.6
 49
0.375
 74
0
 49
-0.075
 74
0
 49
0.075
 74
0
 49
-0.075
 74
0
  0
LTYPE
  5
1F6
100
AcDbSymbolTableRecord
100
AcDbLinetypeTableRecord
  2
HIDDEN
 70
64
  3
- - - - - - - - - - - - - - - - - - - -
 72
65
 73
2
 40
0.2
 49
0.1
 74
0
 49
-0.1
 74
0
  0
LTYPE
  5
1F7
100
AcDbSymbolTableRecord
100
AcDbLinetypeTableRecord
  2
PHANTOM
 70
64
  3
_____ _ _ _____ _ _ _____ _ _ _____
 72
65
 73
6
 40
0.8
 49
0.45
 74
0
 49
-0.05
 74
0
 49
0.1
 74
0
 49
-0.05
 74
0
 49
0.1
 74
0
 49
-0.05
 74
0
  0
LTYPE
  5
1F8
100
AcDbSymbolTableRecord
100
AcDbLinetypeTableRecord
  2
DOT
 70
64
  3
. . . . . . . . . . . . . . . . . . . .
 72
65
 73
2
 40
0.2
 49
0.1
 74
0
 49
-0.1
 74
0
  0
LTYPE
  5
1F9
100
AcDbSymbolTableRecord
100
AcDbLinetypeTableRecord
  2
DASHED
 70
64
  3
- - - - - - - - - - - - - - - - - - - -
 72
65
 73
2
 40
0.2
 49
0.1
 74
0
 49
-0.1
 74
0
  0
ENDTAB
  0
TABLE
  2
LAYER
  5
2
100
AcDbSymbolTable
 70
36
  0
LAYER
  5
10
100
AcDbSymbolTableRecord
100
AcDbLayerTableRecord
  2
0
 70
0
 62
7
  6
CONTINUOUS
370
-3
390
F
  0
LAYER
  5
1FA
100
AcDbSymbolTableRecord
100
AcDbLayerTableRecord
  2
DEFAULT_1
 70
0
 62
7
  6
CENTER
370
-3
390
F
  0
LAYER
  5
1FB
100
AcDbSymbolTableRecord
100
AcDbLayerTableRecord
  2
DEFAULT_2
 70
0
 62
7
  6
HIDDEN
370
-3
390
F
  0
LAYER
  5
1FC
100
AcDbSymbolTableRecord
100
AcDbLayerTableRecord
  2
DEFAULT_3
 70
0
 62
7
  6
PHANTOM
370
-3
390
F
  0
LAYER
  5
1FD
100
AcDbSymbolTableRecord
100
AcDbLayerTableRecord
  2
ASSI
 70
0
 62
7
  6
CONTINUOUS
370
-3
390
F
  0
LAYER
  5
1FE
100
AcDbSymbolTableRecord
100
AcDbLayerTableRecord
  2
COLOR9
 70
0
 62
7
  6
CONTINUOUS
370
-3
390
F
  0
LAYER
  5
1FF
100
AcDbSymbolTableRecord
100
AcDbLayerTableRecord
  2
COORDINATE
 70
0
 62
7
  6
CONTINUOUS
370
-3
390
F
  0
LAYER
  5
200
100
AcDbSymbolTableRecord
100
AcDbLayerTableRecord
  2
COORD_ORIGINE
 70
0
 62
7
  6
CONTINUOUS
370
-3
390
F
  0
LAYER
  5
201
100
AcDbSymbolTableRecord
100
AcDbLayerTableRecord
  2
COPY_GEOMETRY
 70
0
 62
7
  6
CONTINUOUS
370
-3
390
F
  0
LAYER
  5
202
100
AcDbSymbolTableRecord
100
AcDbLayerTableRecord
  2
COPY_PUBLISH
 70
0
 62
7
  6
CONTINUOUS
370
-3
390
F
  0
LAYER
  5
203
100
AcDbSymbolTableRecord
100
AcDbLayerTableRecord
  2
COSMETIC
 70
0
 62
7
  6
CONTINUOUS
370
-3
390
F
  0
LAYER
  5
204
100
AcDbSymbolTableRecord
100
AcDbLayerTableRecord
  2
COSMETICI
 70
0
 62
7
  6
CONTINUOUS
370
-3
390
F
  0
LAYER
  5
205
100
AcDbSymbolTableRecord
100
AcDbLayerTableRecord
  2
CURVE
 70
0
 62
7
  6
CONTINUOUS
370
-3
390
F
  0
LAYER
  5
206
100
AcDbSymbolTableRecord
100
AcDbLayerTableRecord
  2
DRAFT
 70
0
 62
7
  6
CONTINUOUS
370
-3
390
F
  0
LAYER
  5
207
100
AcDbSymbolTableRecord
100
AcDbLayerTableRecord
  2
IGES
 70
0
 62
7
  6
CONTINUOUS
370
-3
390
F
  0
LAYER
  5
208
100
AcDbSymbolTableRecord
100
AcDbLayerTableRecord
  2
IGS_SCRITTE
 70
0
 62
7
  6
CONTINUOUS
370
-3
390
F
  0
LAYER
  5
209
100
AcDbSymbolTableRecord
100
AcDbLayerTableRecord
  2
IMPORT_IGES
 70
0
 62
7
  6
CONTINUOUS
370
-3
390
F
  0
LAYER
  5
20A
100
AcDbSymbolTableRecord
100
AcDbLayerTableRecord
  2
INTFCLR_13457
 70
0
 62
7
  6
CONTINUOUS
370
-3
390
F
  0
LAYER
  5
20B
100
AcDbSymbolTableRecord
100
AcDbLayerTableRecord
  2
INTFCLR_20107
 70
0
 62
7
  6
CONTINUOUS
370
-3
390
F
  0
LAYER
  5
20C
100
AcDbSymbolTableRecord
100
AcDbLayerTableRecord
  2
INTFCLR_35047
 70
0
 62
7
  6
CONTINUOUS
370
-3
390
F
  0
LAYER
  5
20D
100
AcDbSymbolTableRecord
100
AcDbLayerTableRecord
  2
INTF_11
 70
0
 62
7
  6
CONTINUOUS
370
-3
390
F
  0
LAYER
  5
20E
100
AcDbSymbolTableRecord
100
AcDbLayerTableRecord
  2
INTF_20
 70
0
 62
7
  6
CONTINUOUS
370
-3
390
F
  0
LAYER
  5
20F
100
AcDbSymbolTableRecord
100
AcDbLayerTableRecord
  2
INTF_25
 70
0
 62
7
  6
CONTINUOUS
370
-3
390
F
  0
LAYER
  5
210
100
AcDbSymbolTableRecord
100
AcDbLayerTableRecord
  2
INTF_YELLOW
 70
0
 62
7
  6
CONTINUOUS
370
-3
390
F
  0
LAYER
  5
211
100
AcDbSymbolTableRecord
100
AcDbLayerTableRecord
  2
NOTE
 70
0
 62
7
  6
CONTINUOUS
370
-3
390
F
  0
LAYER
  5
212
100
AcDbSymbolTableRecord
100
AcDbLayerTableRecord
  2
PIANI
 70
0
 62
7
  6
CONTINUOUS
370
-3
390
F
  0
LAYER
  5
213
100
AcDbSymbolTableRecord
100
AcDbLayerTableRecord
  2
PIANI_ORIGINE
 70
0
 62
7
  6
CONTINUOUS
370
-3
390
F
  0
LAYER
  5
214
100
AcDbSymbolTableRecord
100
AcDbLayerTableRecord
  2
PIANI_RIFERIMENTO
 70
0
 62
7
  6
CONTINUOUS
370
-3
390
F
  0
LAYER
  5
215
100
AcDbSymbolTableRecord
100
AcDbLayerTableRecord
  2
PUBLISH_GEOMETRY
 70
0
 62
7
  6
CONTINUOUS
370
-3
390
F
  0
LAYER
  5
216
100
AcDbSymbolTableRecord
100
AcDbLayerTableRecord
  2
PUNTI
 70
0
 62
7
  6
CONTINUOUS
370
-3
390
F
  0
LAYER
  5
217
100
AcDbSymbolTableRecord
100
AcDbLayerTableRecord
  2
RACCORDO
 70
0
 62
7
  6
CONTINUOUS
370
-3
390
F
  0
LAYER
  5
218
100
AcDbSymbolTableRecord
100
AcDbLayerTableRecord
  2
SIMBOLI
 70
0
 62
7
  6
CONTINUOUS
370
-3
390
F
  0
LAYER
  5
219
100
AcDbSymbolTableRecord
100
AcDbLayerTableRecord
  2
SMUSSO
 70
0
 62
7
  6
CONTINUOUS
370
-3
390
F
  0
LAYER
  5
21A
100
AcDbSymbolTableRecord
100
AcDbLayerTableRecord
  2
SNAPLINE
 70
0
 62
7
  6
CONTINUOUS
370
-3
390
F
  0
LAYER
  5
21B
100
AcDbSymbolTableRecord
100
AcDbLayerTableRecord
  2
SOLIDO
 70
0
 62
7
  6
CONTINUOUS
370
-3
390
F
  0
LAYER
  5
21C
100
AcDbSymbolTableRecord
100
AcDbLayerTableRecord
  2
SUPERFICI
 70
0
 62
7
  6
CONTINUOUS
370
-3
390
F
  0
LAYER
  5
21D
100
AcDbSymbolTableRecord
100
AcDbLayerTableRecord
  2
TRASH
 70
0
 62
7
  6
CONTINUOUS
370
-3
390
F
  0
LAYER
  5
21E
100
AcDbSymbolTableRecord
100
AcDbLayerTableRecord
  2
WHITE
 70
0
 62
7
  6
CONTINUOUS
370
-3
390
F
  0
LAYER
  5
21F
100
AcDbSymbolTableRecord
100
AcDbLayerTableRecord
  2
XSEC_DATUMS
 70
0
 62
7
  6
CONTINUOUS
370
-3
390
F
  0
ENDTAB
  0
TABLE
  2
STYLE
  5
3
100
AcDbSymbolTable
 70
1
  0
STYLE
  5
11
100
AcDbSymbolTableRecord
100
AcDbTextStyleTableRecord
  2
STANDARD
 70
0
 40
0.0
 41
0.8
 50
0.0
 71
0
 42
0.2
  3
txt
  4

  0
STYLE
  5
220
100
AcDbSymbolTableRecord
100
AcDbTextStyleTableRecord
  2
TEXTSTYLE_1
 70
0
 40
0.0
 41
0.8
 50
0.0
 71
0
 42
0.2
  3
gdt
  4

  0
ENDTAB
  0
TABLE
  2
VIEW
  5
6
100
AcDbSymbolTable
 70
0
  0
ENDTAB
  0
TABLE
  2
UCS
  5
7
100
AcDbSymbolTable
 70
0
  0
ENDTAB
  0
TABLE
  2
APPID
  5
9
100
AcDbSymbolTable
 70
1
  0
APPID
  5
221
100
AcDbSymbolTableRecord
100
AcDbRegAppTableRecord
  2
ACAD
 70
0
  0
ENDTAB
  0
TABLE
  2
BLOCK_RECORD
  5
1
100
AcDbSymbolTable
 70
0
  0
BLOCK_RECORD
  5
222
100
AcDbSymbolTableRecord
100
AcDbBlockTableRecord
  2
*Model_Space
  0
BLOCK_RECORD
  5
223
100
AcDbSymbolTableRecord
100
AcDbBlockTableRecord
  2
*Paper_Space
  0
ENDTAB
  0
TABLE
  2
DIMSTYLE
  5
A
100
AcDbSymbolTable
 70
1
100
AcDbDimStyleTable
 71
0
  0
DIMSTYLE
105
224
100
AcDbSymbolTableRecord
100
AcDbDimStyleTableRecord
  2
STANDARD
 70
0
  3

  4

 40
1.0
 41
3.0
 42
0.5
 43
0.38
 44
1.5
 45
0.0
 46
0.0
 47
0.01
 48
0.01
140
3.0
141
0.09
142
0.0
143
25.4
144
1.0
145
0.0
146
1.0
147
0.625
 71
1.0
 72
0.0
 73
0
 74
0
 75
0
 76
0
 77
1
 78
8
170
0
171
2
172
0
173
0
174
0
175
0
176
0
177
0
178
0
270
2
271
2
272
2
273
2
274
2
275
0
280
0
281
0
282
0
283
1
284
8
285
0
286
0
287
3
288
0
340
11
278
44
  0
ENDTAB
  0
ENDSEC
  0
SECTION
  2
BLOCKS
  0
BLOCK
  5
20
100
AcDbEntity
  8
0
100
AcDbBlockBegin
  2
*Model_Space
 70
0
 10
0.0
 20
0.0
 30
0.0
  3
*Model_Space
  1

  0
ENDBLK
  5
21
100
AcDbEntity
  8
0
100
AcDbBlockEnd
  0
BLOCK
  5
1C
100
AcDbEntity
  8
0
100
AcDbBlockBegin
  2
*Paper_Space
 70
0
 10
0.0
 20
0.0
 30
0.0
  3
*Paper_Space
  1

  0
ENDBLK
  5
1D
100
AcDbEntity
  8
0
100
AcDbBlockEnd
  0
ENDSEC
  0
SECTION
  2
ENTITIES
  0
LINE
  5
225
100
AcDbEntity
  8
0
100
AcDbLine
 62
7
  6
CONTINUOUS
 10
-14.4981783379
 20
-0.2825803147
 11
-14.774708483
 21
-0.3077085785
  0
LINE
  5
226
100
AcDbEntity
  8
0
100
AcDbLine
 62
7
  6
CONTINUOUS
 10
-22.8020704463
 20
-0.3077085785
 11
-14.774708483
 21
-0.3077085785
  0
LINE
  5
227
100
AcDbEntity
  8
0
100
AcDbLine
 62
7
  6
CONTINUOUS
 10
-9.606178139
 20
-0.3077085785
 11
-1.5788161758
 21
-0.3077085785
  0
LINE
  5
228
100
AcDbEntity
  8
0
100
AcDbLine
 62
7
  6
CONTINUOUS
 10
-14.3249732572
 20
-0.2773339392
 11
-10.0559133649
 21
-0.2773339392
  0
LINE
  5
229
100
AcDbEntity
  8
0
100
AcDbLine
 62
7
  6
CONTINUOUS
 10
-9.8827082841
 20
-0.2825803147
 11
-9.606178139
 21
-0.3077085785
  0
LINE
  5
22A
100
AcDbEntity
  8
0
100
AcDbLine
 62
7
  6
CONTINUOUS
 10
-14.4981783379
 20
1.3057787593
 11
-14.774708483
 21
1.2474076992
  0
LINE
  5
22B
100
AcDbEntity
  8
RACCORDO
100
AcDbLine
 62
7
  6
CONTINUOUS
 10
-21.8746862267
 20
1.2474076992
 11
-14.774708483
 21
1.2474076992
  0
LINE
  5
22C
100
AcDbEntity
  8
RACCORDO
100
AcDbLine
 62
7
  6
CONTINUOUS
 10
-9.606178139
 20
1.2474076992
 11
-2.5062003953
 21
1.2474076992
  0
LINE
  5
22D
100
AcDbEntity
  8
0
100
AcDbLine
 62
7
  6
CONTINUOUS
 10
-14.3249732572
 20
1.3179656936
 11
-10.0559133649
 21
1.3179656936
  0
LINE
  5
22E
100
AcDbEntity
  8
0
100
AcDbLine
 62
7
  6
CONTINUOUS
 10
-7.0878366742
 20
1.4530287106
 11
-7.2930499478
 21
1.4530287106
  0
LINE
  5
22F
100
AcDbEntity
  8
0
100
AcDbLine
 62
7
  6
CONTINUOUS
 10
-17.0878366742
 20
1.4530287106
 11
-17.2930499478
 21
1.4530287106
  0
LINE
  5
230
100
AcDbEntity
  8
RACCORDO
100
AcDbLine
 62
253
  6
CONTINUOUS
 10
-2.5515665039
 20
1.5665275502
 11
-6.7823764225
 21
1.5665275502
  0
LINE
  5
231
100
AcDbEntity
  8
RACCORDO
100
AcDbLine
 62
253
  6
CONTINUOUS
 10
-7.5985101996
 20
1.5665275502
 11
-16.7823764225
 21
1.5665275502
  0
LINE
  5
232
100
AcDbEntity
  8
RACCORDO
100
AcDbLine
 62
253
  6
CONTINUOUS
 10
-17.5985101996
 20
1.5665275502
 11
-21.8293201182
 21
1.5665275502
  0
LINE
  5
233
100
AcDbEntity
  8
RACCORDO
100
AcDbLine
 62
253
  6
CONTINUOUS
 10
-7.6000428656
 20
1.7650367805
 11
-16.7808437565
 21
1.7650367805
  0
LINE
  5
234
100
AcDbEntity
  8
RACCORDO
100
AcDbLine
 62
253
  6
CONTINUOUS
 10
-22.0292896572
 20
1.7650367805
 11
-17.6000428656
 21
1.7650367805
  0
LINE
  5
235
100
AcDbEntity
  8
RACCORDO
100
AcDbLine
 62
253
  6
CONTINUOUS
 10
-6.7808437565
 20
1.7650367805
 11
-2.3515969648
 21
1.7650367805
  0
LINE
  5
236
100
AcDbEntity
  8
0
100
AcDbLine
 62
7
  6
CONTINUOUS
 10
-9.8827082841
 20
1.3057787593
 11
-9.606178139
 21
1.2474076992
  0
LINE
  5
237
100
AcDbEntity
  8
0
100
AcDbLine
 62
7
  6
CONTINUOUS
 10
-20.6829965272
 20
3.4962889715
 11
-20.555336968
 21
3.465038733
  0
LINE
  5
238
100
AcDbEntity
  8
0
100
AcDbLine
 62
7
  6
CONTINUOUS
 10
-21.3851241702
 20
3.465038733
 11
-21.2893794784
 21
3.4337888522
  0
LINE
  5
239
100
AcDbEntity
  8
0
100
AcDbLine
 62
7
  6
CONTINUOUS
 10
-21.2893794784
 20
3.5900389715
 11
-21.353209258
 21
3.6212888522
  0
LINE
  5
23A
100
AcDbEntity
  8
0
100
AcDbLine
 62
7
  6
CONTINUOUS
 10
-20.555336968
 20
3.6212888522
 11
-20.6829965272
 21
3.6837889715
  0
LINE
  5
23B
100
AcDbEntity
  8
0
100
AcDbLine
 62
7
  6
CONTINUOUS
 10
-21.4808688396
 20
3.5275388522
 11
-21.3851241702
 21
3.465038733
  0
LINE
  5
23C
100
AcDbEntity
  8
0
100
AcDbLine
 62
7
  6
CONTINUOUS
 10
-20.7787411967
 20
3.558788733
 11
-20.6829965272
 21
3.4962889715
  0
LINE
  5
23D
100
AcDbEntity
  8
0
100
AcDbLine
 62
7
  6
CONTINUOUS
 10
-20.6191667476
 20
3.183788733
 11
-20.3957624295
 21
2.996288733
  0
LINE
  5
23E
100
AcDbEntity
  8
0
100
AcDbLine
 62
253
  6
CONTINUOUS
 10
-17.5930385248
 20
2.3863954891
 11
-16.7878480973
 21
2.3863954891
  0
LINE
  5
23F
100
AcDbEntity
  8
0
100
AcDbLine
 62
253
  6
CONTINUOUS
 10
-7.5930385248
 20
2.3863954891
 11
-6.7878480973
 21
2.3863954891
  0
LINE
  5
240
100
AcDbEntity
  8
0
100
AcDbLine
 62
253
  6
CONTINUOUS
 10
-7.0878366742
 20
2.686384066
 11
-7.2930499478
 21
2.686384066
  0
LINE
  5
241
100
AcDbEntity
  8
0
100
AcDbLine
 62
253
  6
CONTINUOUS
 10
-17.0878366742
 20
2.686384066
 11
-17.2930499478
 21
2.686384066
  0
LINE
  5
242
100
AcDbEntity
  8
0
100
AcDbLine
 62
7
  6
CONTINUOUS
 10
-7.0808323334
 20
2.6933884068
 11
-7.3000542887
 21
2.6933884068
  0
LINE
  5
243
100
AcDbEntity
  8
0
100
AcDbLine
 62
7
  6
CONTINUOUS
 10
-17.0808323334
 20
2.6933884068
 11
-17.3000542887
 21
2.6933884068
  0
LINE
  5
244
100
AcDbEntity
  8
0
100
AcDbLine
 62
7
  6
CONTINUOUS
 10
-21.640443311
 20
2.808788733
 11
-20.140443311
 21
2.808788733
  0
LINE
  5
245
100
AcDbEntity
  8
0
100
AcDbLine
 62
7
  6
CONTINUOUS
 10
-20.3957624295
 20
2.996288733
 11
-21.640443311
 21
2.996288733
  0
LINE
  5
246
100
AcDbEntity
  8
0
100
AcDbLine
 62
7
  6
CONTINUOUS
 10
-18.9380661024
 20
3.1530067363
 11
-18.9292031255
 21
3.1530067363
  0
LINE
  5
247
100
AcDbEntity
  8
0
100
AcDbLine
 62
7
  6
CONTINUOUS
 10
-20.3638475397
 20
3.183788733
 11
-20.6191667476
 21
3.183788733
  0
LINE
  5
248
100
AcDbEntity
  8
0
100
AcDbLine
 62
7
  6
CONTINUOUS
 10
-21.2893794784
 20
3.4337888522
 11
-21.1617199191
 21
3.4337888522
  0
LINE
  5
249
100
AcDbEntity
  8
0
100
AcDbLine
 62
7
  6
CONTINUOUS
 10
-20.555336968
 20
3.465038733
 11
-20.491507099
 21
3.465038733
  0
LINE
  5
24A
100
AcDbEntity
  8
0
100
AcDbLine
 62
7
  6
CONTINUOUS
 10
-21.1617199191
 20
3.5900389715
 11
-21.2893794784
 21
3.5900389715
  0
LINE
  5
24B
100
AcDbEntity
  8
0
100
AcDbLine
 62
7
  6
CONTINUOUS
 10
-20.491507099
 20
3.6212888522
 11
-20.555336968
 21
3.6212888522
  0
LINE
  5
24C
100
AcDbEntity
  8
0
100
AcDbLine
 62
7
  6
CONTINUOUS
 10
-19.6381962892
 20
3.6461054305
 11
-19.0512265222
 21
3.6461054305
  0
LINE
  5
24D
100
AcDbEntity
  8
0
100
AcDbLine
 62
7
  6
CONTINUOUS
 10
-18.8055825934
 20
3.6564868108
 11
-18.3938365795
 21
3.6564868108
  0
LINE
  5
24E
100
AcDbEntity
  8
0
100
AcDbLine
 62
7
  6
CONTINUOUS
 10
-20.3638475397
 20
4.496288733
 11
-20.491507099
 21
4.5275389715
  0
LINE
  5
24F
100
AcDbEntity
  8
0
100
AcDbLine
 62
7
  6
CONTINUOUS
 10
-19.107069311
 20
4.8232728522
 11
-18.550445311
 21
4.6673838522
  0
LINE
  5
250
100
AcDbEntity
  8
0
100
AcDbLine
 62
7
  6
CONTINUOUS
 10
-19.638196311
 20
4.9737078522
 11
-19.338767311
 21
4.8873158522
  0
LINE
  5
251
100
AcDbEntity
  8
0
100
AcDbLine
 62
7
  6
CONTINUOUS
 10
-18.138317311
 20
4.8129368522
 11
-19.638196311
 21
5.2833938522
  0
LINE
  5
252
100
AcDbEntity
  8
0
100
AcDbLine
 62
7
  6
CONTINUOUS
 10
-21.1936348089
 20
4.965038733
 11
-21.2893794784
 21
4.9962889715
  0
LINE
  5
253
100
AcDbEntity
  8
0
100
AcDbLine
 62
7
  6
CONTINUOUS
 10
-21.3851241702
 20
4.871288733
 11
-21.2255496988
 21
4.8087889715
  0
LINE
  5
254
100
AcDbEntity
  8
0
100
AcDbLine
 62
7
  6
CONTINUOUS
 10
-21.41703906
 20
6.3087887926
 11
-21.2893794784
 21
6.2462888522
  0
LINE
  5
255
100
AcDbEntity
  8
0
100
AcDbLine
 62
7
  6
CONTINUOUS
 10
-20.491507099
 20
4.3712888522
 11
-20.3957624295
 21
4.308788733
  0
LINE
  5
256
100
AcDbEntity
  8
0
100
AcDbLine
 62
7
  6
CONTINUOUS
 10
-21.2893794784
 20
4.9962889715
 11
-21.3851241702
 21
5.058788733
  0
LINE
  5
257
100
AcDbEntity
  8
0
100
AcDbLine
 62
7
  6
CONTINUOUS
 10
-21.5127837406
 20
4.965038733
 11
-21.3851241702
 21
4.871288733
  0
LINE
  5
258
100
AcDbEntity
  8
0
100
AcDbLine
 62
7
  6
CONTINUOUS
 10
-20.140443311
 20
2.996288733
 11
-20.3638475397
 21
3.183788733
  0
LINE
  5
259
100
AcDbEntity
  8
0
100
AcDbLine
 62
7
  6
CONTINUOUS
 10
-21.353209258
 20
3.6212888522
 11
-21.41703906
 21
3.6837889715
  0
LINE
  5
25A
100
AcDbEntity
  8
0
100
AcDbLine
 62
7
  6
CONTINUOUS
 10
-20.6829965272
 20
3.6837889715
 11
-20.7468263069
 21
3.746288733
  0
LINE
  5
25B
100
AcDbEntity
  8
0
100
AcDbLine
 62
7
  6
CONTINUOUS
 10
-20.2361879805
 20
4.3712888522
 11
-20.3638475397
 21
4.496288733
  0
LINE
  5
25C
100
AcDbEntity
  8
0
100
AcDbLine
 62
7
  6
CONTINUOUS
 10
-21.5446986304
 20
3.6212888522
 11
-21.4808688396
 21
3.5275388522
  0
LINE
  5
25D
100
AcDbEntity
  8
0
100
AcDbLine
 62
7
  6
CONTINUOUS
 10
-18.1558409049
 20
3.9579292529
 11
-19.6381962892
 21
3.9579292529
  0
LINE
  5
25E
100
AcDbEntity
  8
0
100
AcDbLine
 62
7
  6
CONTINUOUS
 10
-20.8106560865
 20
4.0587889715
 11
-20.9383156457
 21
4.0587889715
  0
LINE
  5
25F
100
AcDbEntity
  8
0
100
AcDbLine
 62
7
  6
CONTINUOUS
 10
-16.8507506902
 20
4.6837888522
 11
-7.5301359318
 21
4.6837888522
  0
LINE
  5
260
100
AcDbEntity
  8
0
100
AcDbLine
 62
7
  6
CONTINUOUS
 10
-21.2255496988
 20
4.8087889715
 11
-21.0978901395
 21
4.8087889715
  0
LINE
  5
261
100
AcDbEntity
  8
0
100
AcDbLine
 62
7
  6
CONTINUOUS
 10
-20.3000177601
 20
4.871288733
 11
-20.140443311
 21
4.871288733
  0
LINE
  5
262
100
AcDbEntity
  8
0
100
AcDbLine
 62
7
  6
CONTINUOUS
 10
-21.1298050293
 20
4.965038733
 11
-21.1936348089
 21
4.965038733
  0
LINE
  5
263
100
AcDbEntity
  8
0
100
AcDbLine
 62
7
  6
CONTINUOUS
 10
-21.0021454254
 20
6.3400388522
 11
-21.1936348089
 21
6.3712889118
  0
LINE
  5
264
100
AcDbEntity
  8
0
100
AcDbLine
 62
7
  6
CONTINUOUS
 10
-21.1936348089
 20
6.2150387926
 11
-21.0340603152
 21
6.1837889118
  0
LINE
  5
265
100
AcDbEntity
  8
0
100
AcDbLine
 62
7
  6
CONTINUOUS
 10
-21.2893794784
 20
6.2462888522
 11
-21.1936348089
 21
6.2150387926
  0
LINE
  5
266
100
AcDbEntity
  8
0
100
AcDbLine
 62
7
  6
CONTINUOUS
 10
-20.491507099
 20
7.246288882
 11
-20.5872518578
 21
7.2775388522
  0
LINE
  5
267
100
AcDbEntity
  8
0
100
AcDbLine
 62
7
  6
CONTINUOUS
 10
-18.138317311
 20
5.7825778522
 11
-18.971054311
 21
6.0956618522
  0
LINE
  5
268
100
AcDbEntity
  8
0
100
AcDbLine
 62
7
  6
CONTINUOUS
 10
-19.638196311
 20
6.0754158522
 11
-18.662886311
 21
5.7031598522
  0
LINE
  5
269
100
AcDbEntity
  8
0
100
AcDbLine
 62
7
  6
CONTINUOUS
 10
-20.3638475397
 20
7.1837888522
 11
-20.491507099
 21
7.246288882
  0
LINE
  5
26A
100
AcDbEntity
  8
0
100
AcDbLine
 62
7
  6
CONTINUOUS
 10
-20.555336968
 20
7.7462888522
 11
-20.6829965272
 21
7.808788882
  0
LINE
  5
26B
100
AcDbEntity
  8
0
100
AcDbLine
 62
7
  6
CONTINUOUS
 10
-21.1936348089
 20
6.3712889118
 11
-21.3851241702
 21
6.4962887926
  0
LINE
  5
26C
100
AcDbEntity
  8
0
100
AcDbLine
 62
7
  6
CONTINUOUS
 10
-20.5872518578
 20
7.1212889118
 11
-20.3957624295
 21
6.9962888522
  0
LINE
  5
26D
100
AcDbEntity
  8
0
100
AcDbLine
 62
7
  6
CONTINUOUS
 10
-20.7787411967
 20
7.6525388522
 11
-20.6829965272
 21
7.5900388224
  0
LINE
  5
26E
100
AcDbEntity
  8
0
100
AcDbLine
 62
7
  6
CONTINUOUS
 10
-21.5127837406
 20
6.4025387926
 11
-21.41703906
 21
6.3087887926
  0
LINE
  5
26F
100
AcDbEntity
  8
0
100
AcDbLine
 62
253
  6
CONTINUOUS
 10
-17.6000428656
 20
2.3933998299
 11
-17.5930385248
 21
2.3863954891
  0
LINE
  5
270
100
AcDbEntity
  8
0
100
AcDbLine
 62
253
  6
CONTINUOUS
 10
-17.3000542887
 20
2.6933884068
 11
-17.2930499478
 21
2.686384066
  0
LINE
  5
271
100
AcDbEntity
  8
0
100
AcDbLine
 62
7
  6
CONTINUOUS
 10
-20.8744858661
 20
3.6837889715
 11
-20.7787411967
 21
3.558788733
  0
LINE
  5
272
100
AcDbEntity
  8
0
100
AcDbLine
 62
7
  6
CONTINUOUS
 10
-20.9702305356
 20
5.7150389118
 11
-20.8744858661
 21
5.5900388522
  0
LINE
  5
273
100
AcDbEntity
  8
0
100
AcDbLine
 62
7
  6
CONTINUOUS
 10
-21.3851241702
 20
5.058788733
 11
-21.4489539498
 21
5.152538733
  0
LINE
  5
274
100
AcDbEntity
  8
0
100
AcDbLine
 62
7
  6
CONTINUOUS
 10
-20.3957624295
 20
4.308788733
 11
-20.3319326499
 21
4.215038733
  0
LINE
  5
275
100
AcDbEntity
  8
0
100
AcDbLine
 62
7
  6
CONTINUOUS
 10
-21.6085284184
 20
5.1212888522
 11
-21.5127837406
 21
4.965038733
  0
LINE
  5
276
100
AcDbEntity
  8
0
100
AcDbLine
 62
7
  6
CONTINUOUS
 10
-21.6085284184
 20
3.746288733
 11
-21.5446986304
 21
3.6212888522
  0
LINE
  5
277
100
AcDbEntity
  8
0
100
AcDbLine
 62
7
  6
CONTINUOUS
 10
-21.41703906
 20
3.6837889715
 11
-21.4489539498
 21
3.746288733
  0
LINE
  5
278
100
AcDbEntity
  8
0
100
AcDbLine
 62
7
  6
CONTINUOUS
 10
-4.742690311
 20
39.7177128522
 11
-6.242569311
 21
39.2575128522
  0
LINE
  5
279
100
AcDbEntity
  8
0
100
AcDbLine
 62
7
  6
CONTINUOUS
 10
-19.338767311
 20
4.4609478522
 11
-19.638196311
 21
4.3798428522
  0
LINE
  5
27A
100
AcDbEntity
  8
0
100
AcDbLine
 62
7
  6
CONTINUOUS
 10
-18.550445311
 20
4.6673838522
 11
-19.107069311
 21
4.5235178522
  0
LINE
  5
27B
100
AcDbEntity
  8
0
100
AcDbLine
 62
7
  6
CONTINUOUS
 10
-20.491507099
 20
3.465038733
 11
-20.3638475397
 21
3.4962889715
  0
LINE
  5
27C
100
AcDbEntity
  8
0
100
AcDbLine
 62
7
  6
CONTINUOUS
 10
-21.1617199191
 20
3.4337888522
 11
-21.0340603152
 21
3.465038733
  0
LINE
  5
27D
100
AcDbEntity
  8
0
100
AcDbLine
 62
7
  6
CONTINUOUS
 10
-19.638196311
 20
5.3325568522
 11
-18.138317311
 21
5.4728118522
  0
LINE
  5
27E
100
AcDbEntity
  8
0
100
AcDbLine
 62
7
  6
CONTINUOUS
 10
-18.662886311
 20
5.7031598522
 11
-19.638196311
 21
5.6388358522
  0
LINE
  5
27F
100
AcDbEntity
  8
0
100
AcDbLine
 62
7
  6
CONTINUOUS
 10
-20.8106560865
 20
5.7775388522
 11
-20.3000177601
 21
5.7775388522
  0
LINE
  5
280
100
AcDbEntity
  8
0
100
AcDbLine
 62
7
  6
CONTINUOUS
 10
-20.140443311
 20
5.9337887926
 11
-20.9702305356
 21
5.9337887926
  0
LINE
  5
281
100
AcDbEntity
  8
0
100
AcDbLine
 62
7
  6
CONTINUOUS
 10
-21.0340603152
 20
6.1837889118
 11
-20.7468263069
 21
6.1837889118
  0
LINE
  5
282
100
AcDbEntity
  8
0
100
AcDbLine
 62
7
  6
CONTINUOUS
 10
-20.7787411967
 20
6.3400388522
 11
-21.0021454254
 21
6.3400388522
  0
LINE
  5
283
100
AcDbEntity
  8
0
100
AcDbLine
 62
7
  6
CONTINUOUS
 10
-19.638196311
 20
7.0222358522
 11
-18.138227311
 21
7.0222358522
  0
LINE
  5
284
100
AcDbEntity
  8
0
100
AcDbLine
 62
7
  6
CONTINUOUS
 10
-21.0021454254
 20
7.1525387926
 11
-20.7787411967
 21
7.1525387926
  0
LINE
  5
285
100
AcDbEntity
  8
0
100
AcDbLine
 62
7
  6
CONTINUOUS
 10
-19.638196311
 20
6.5541748522
 11
-18.658803311
 21
6.4866108522
  0
LINE
  5
286
100
AcDbEntity
  8
0
100
AcDbLine
 62
7
  6
CONTINUOUS
 10
-18.138317311
 20
6.7182628522
 11
-19.638196311
 21
6.8536938522
  0
LINE
  5
287
100
AcDbEntity
  8
0
100
AcDbLine
 62
7
  6
CONTINUOUS
 10
-20.7787411967
 20
7.1525387926
 11
-20.5872518578
 21
7.1212889118
  0
LINE
  5
288
100
AcDbEntity
  8
0
100
AcDbLine
 62
7
  6
CONTINUOUS
 10
-20.5872518578
 20
7.2775388522
 11
-20.7468263069
 21
7.3087888224
  0
LINE
  5
289
100
AcDbEntity
  8
0
100
AcDbLine
 62
7
  6
CONTINUOUS
 10
-20.6829965272
 20
7.5900388224
 11
-20.555336968
 21
7.5587888522
  0
LINE
  5
28A
100
AcDbEntity
  8
0
100
AcDbLine
 62
7
  6
CONTINUOUS
 10
-20.3638475397
 20
8.6212888504
 11
-20.491507099
 21
8.6525388513
  0
LINE
  5
28B
100
AcDbEntity
  8
0
100
AcDbLine
 62
7
  6
CONTINUOUS
 10
-18.138317311
 20
7.7643748522
 11
-19.170730311
 21
8.0590128522
  0
LINE
  5
28C
100
AcDbEntity
  8
0
100
AcDbLine
 62
7
  6
CONTINUOUS
 10
-19.638196311
 20
7.9336268522
 11
-18.138317311
 21
7.4515048522
  0
LINE
  5
28D
100
AcDbEntity
  8
0
100
AcDbLine
 62
7
  6
CONTINUOUS
 10
-20.491507099
 20
8.4962888522
 11
-20.3957624295
 21
8.4337888448
  0
LINE
  5
28E
100
AcDbEntity
  8
0
100
AcDbLine
 62
7
  6
CONTINUOUS
 10
-20.2681028703
 20
7.0900388522
 11
-20.3638475397
 21
7.1837888522
  0
LINE
  5
28F
100
AcDbEntity
  8
0
100
AcDbLine
 62
7
  6
CONTINUOUS
 10
-20.2361879805
 20
8.4962888522
 11
-20.3638475397
 21
8.6212888504
  0
LINE
  5
290
100
AcDbEntity
  8
0
100
AcDbLine
 62
7
  6
CONTINUOUS
 10
-20.6829965272
 20
7.808788882
 11
-21.4808688396
 21
8.6837888522
  0
LINE
  5
291
100
AcDbEntity
  8
0
100
AcDbLine
 62
7
  6
CONTINUOUS
 10
-21.4808688396
 20
8.4337888448
 11
-20.7787411967
 21
7.6525388522
  0
LINE
  5
292
100
AcDbEntity
  8
0
100
AcDbLine
 62
7
  6
CONTINUOUS
 10
-21.3851241702
 20
6.4962887926
 11
-21.4489539498
 21
6.5900387926
  0
LINE
  5
293
100
AcDbEntity
  8
0
100
AcDbLine
 62
7
  6
CONTINUOUS
 10
-20.3957624295
 20
6.9962888522
 11
-20.3319326499
 21
6.9025388522
  0
LINE
  5
294
100
AcDbEntity
  8
0
100
AcDbLine
 62
7
  6
CONTINUOUS
 10
-21.6085284184
 20
6.5587889118
 11
-21.5127837406
 21
6.4025387926
  0
LINE
  5
295
100
AcDbEntity
  8
0
100
AcDbLine
 62
7
  6
CONTINUOUS
 10
-20.7149114171
 20
5.621288733
 11
-20.8106560865
 21
5.7775388522
  0
LINE
  5
296
100
AcDbEntity
  8
0
100
AcDbLine
 62
7
  6
CONTINUOUS
 10
-20.1723582008
 20
4.2462889715
 11
-20.2361879805
 21
4.3712888522
  0
LINE
  5
297
100
AcDbEntity
  8
0
100
AcDbLine
 62
7
  6
CONTINUOUS
 10
-3.0915071437
 20
39.2087888522
 11
-2.9957624519
 21
39.240038733
  0
LINE
  5
298
100
AcDbEntity
  8
0
100
AcDbLine
 62
7
  6
CONTINUOUS
 10
-3.3468263069
 20
38.771288733
 11
-3.2510815927
 21
38.8025389715
  0
LINE
  5
299
100
AcDbEntity
  8
0
100
AcDbLine
 62
7
  6
CONTINUOUS
 10
-20.7468263069
 20
6.1837889118
 11
-20.5872518578
 21
6.2150387926
  0
LINE
  5
29A
100
AcDbEntity
  8
0
100
AcDbLine
 62
7
  6
CONTINUOUS
 10
-20.5872518578
 20
6.3712889118
 11
-20.7787411967
 21
6.3400388522
  0
LINE
  5
29B
100
AcDbEntity
  8
0
100
AcDbLine
 62
7
  6
CONTINUOUS
 10
-21.1936348089
 20
7.1212889118
 11
-21.0021454254
 21
7.1525387926
  0
LINE
  5
29C
100
AcDbEntity
  8
0
100
AcDbLine
 62
7
  6
CONTINUOUS
 10
-20.7468263069
 20
7.3087888224
 11
-21.0340603152
 21
7.3087888224
  0
LINE
  5
29D
100
AcDbEntity
  8
0
100
AcDbLine
 62
7
  6
CONTINUOUS
 10
-18.138227311
 20
7.3353198522
 11
-19.638196311
 21
7.3353198522
  0
LINE
  5
29E
100
AcDbEntity
  8
0
100
AcDbLine
 62
7
  6
CONTINUOUS
 10
-21.640443311
 20
7.5587888522
 11
-21.4808688396
 21
7.5587888522
  0
LINE
  5
29F
100
AcDbEntity
  8
0
100
AcDbLine
 62
7
  6
CONTINUOUS
 10
-20.555336968
 20
7.5587888522
 11
-20.491507099
 21
7.5587888522
  0
LINE
  5
2A0
100
AcDbEntity
  8
0
100
AcDbLine
 62
7
  6
CONTINUOUS
 10
-20.491507099
 20
7.7462888522
 11
-20.555336968
 21
7.7462888522
  0
LINE
  5
2A1
100
AcDbEntity
  8
0
100
AcDbLine
 62
7
  6
CONTINUOUS
 10
-21.4808688396
 20
8.6837888522
 11
-21.640443311
 21
8.6837888522
  0
LINE
  5
2A2
100
AcDbEntity
  8
DRAFT
100
AcDbLine
 62
7
  6
CONTINUOUS
 10
-23.340443311
 20
8.7837888522
 11
-22.090443311
 21
8.7837888522
  0
LINE
  5
2A3
100
AcDbEntity
  8
DRAFT
100
AcDbLine
 62
7
  6
CONTINUOUS
 10
-2.290443311
 20
8.7837888522
 11
-1.040443311
 21
8.7837888522
  0
LINE
  5
2A4
100
AcDbEntity
  8
0
100
AcDbLine
 62
7
  6
CONTINUOUS
 10
-20.3957624295
 20
8.4337888448
 11
-20.3319326499
 21
8.3400388448
  0
LINE
  5
2A5
100
AcDbEntity
  8
0
100
AcDbLine
 62
7
  6
CONTINUOUS
 10
-20.1723582008
 20
6.9337889118
 11
-20.2681028703
 21
7.0900388522
  0
LINE
  5
2A6
100
AcDbEntity
  8
0
100
AcDbLine
 62
7
  6
CONTINUOUS
 10
-20.1723582008
 20
8.3712888597
 11
-20.2361879805
 21
8.4962888522
  0
LINE
  5
2A7
100
AcDbEntity
  8
0
100
AcDbLine
 62
7
  6
CONTINUOUS
 10
-20.7468263069
 20
3.746288733
 11
-20.8106560865
 21
3.933788733
  0
LINE
  5
2A8
100
AcDbEntity
  8
0
100
AcDbLine
 62
7
  6
CONTINUOUS
 10
-21.640443311
 20
3.8712889715
 11
-21.6085284184
 21
3.746288733
  0
LINE
  5
2A9
100
AcDbEntity
  8
0
100
AcDbLine
 62
7
  6
CONTINUOUS
 10
-21.4489539498
 20
5.152538733
 11
-21.4808688396
 21
5.2775389715
  0
LINE
  5
2AA
100
AcDbEntity
  8
0
100
AcDbLine
 62
7
  6
CONTINUOUS
 10
-3.3468263069
 20
40.1150389715
 11
-3.2191667029
 21
40.177538733
  0
LINE
  5
2AB
100
AcDbEntity
  8
0
100
AcDbLine
 62
7
  6
CONTINUOUS
 10
-3.027677364
 20
39.3962888522
 11
-3.0915071437
 21
39.3650389715
  0
LINE
  5
2AC
100
AcDbEntity
  8
0
100
AcDbLine
 62
7
  6
CONTINUOUS
 10
-3.2829964825
 20
38.958788733
 11
-3.4425709763
 21
38.8962889715
  0
LINE
  5
2AD
100
AcDbEntity
  8
0
100
AcDbLine
 62
7
  6
CONTINUOUS
 10
-5.722083311
 20
37.2809668522
 11
-4.742690311
 21
37.6482518522
  0
LINE
  5
2AE
100
AcDbEntity
  8
0
100
AcDbLine
 62
7
  6
CONTINUOUS
 10
-5.409832311
 20
37.6719158522
 11
-6.242569311
 21
37.3621398522
  0
LINE
  5
2AF
100
AcDbEntity
  8
0
100
AcDbLine
 62
7
  6
CONTINUOUS
 10
-3.7936347642
 20
37.5525389118
 11
-3.8893795231
 21
37.5212888522
  0
LINE
  5
2B0
100
AcDbEntity
  8
0
100
AcDbLine
 62
7
  6
CONTINUOUS
 10
-19.170730311
 20
8.0590128522
 11
-18.138317311
 21
8.3449168522
  0
LINE
  5
2B1
100
AcDbEntity
  8
0
100
AcDbLine
 62
7
  6
CONTINUOUS
 10
-20.491507099
 20
7.5587888522
 11
-20.3638475397
 21
7.5900388224
  0
LINE
  5
2B2
100
AcDbEntity
  8
0
100
AcDbLine
 62
7
  6
CONTINUOUS
 10
-21.0340603152
 20
7.3087888224
 11
-21.1936348089
 21
7.2775388522
  0
LINE
  5
2B3
100
AcDbEntity
  8
DRAFT
100
AcDbLine
 62
7
  6
CONTINUOUS
 10
-2.3073202101
 20
8.8837888522
 11
-2.690443311
 21
8.8837888522
  0
LINE
  5
2B4
100
AcDbEntity
  8
DRAFT
100
AcDbLine
 62
7
  6
CONTINUOUS
 10
-21.690443311
 20
8.8837888522
 11
-22.073566412
 21
8.8837888522
  0
LINE
  5
2B5
100
AcDbEntity
  8
0
100
AcDbLine
 62
7
  6
CONTINUOUS
 10
-20.8744858661
 20
5.5900388522
 11
-20.8425709763
 21
5.4650389715
  0
LINE
  5
2B6
100
AcDbEntity
  8
0
100
AcDbLine
 62
7
  6
CONTINUOUS
 10
-21.4489539498
 20
3.746288733
 11
-21.4808688396
 21
3.9025388522
  0
LINE
  5
2B7
100
AcDbEntity
  8
0
100
AcDbLine
 62
7
  6
CONTINUOUS
 10
-21.640443311
 20
5.2775389715
 11
-21.6085284184
 21
5.1212888522
  0
LINE
  5
2B8
100
AcDbEntity
  8
0
100
AcDbLine
 62
7
  6
CONTINUOUS
 10
-21.4489539498
 20
6.5900387926
 11
-21.4808688396
 21
6.7462889118
  0
LINE
  5
2B9
100
AcDbEntity
  8
0
100
AcDbLine
 62
7
  6
CONTINUOUS
 10
-20.6829965272
 20
5.4650389715
 11
-20.7149114171
 21
5.621288733
  0
LINE
  5
2BA
100
AcDbEntity
  8
0
100
AcDbLine
 62
7
  6
CONTINUOUS
 10
-20.3319326499
 20
4.215038733
 11
-20.3000177601
 21
4.0587889715
  0
LINE
  5
2BB
100
AcDbEntity
  8
0
100
AcDbLine
 62
7
  6
CONTINUOUS
 10
-21.640443311
 20
6.7462889118
 11
-21.6085284184
 21
6.5587889118
  0
LINE
  5
2BC
100
AcDbEntity
  8
0
100
AcDbLine
 62
7
  6
CONTINUOUS
 10
-23.3035905981
 20
0.1888676901
 11
-23.340443311
 21
8.7837888522
  0
LINE
  5
2BD
100
AcDbEntity
  8
RACCORDO
100
AcDbLine
 62
7
  6
CONTINUOUS
 10
-22.090443311
 20
8.7837888522
 11
-22.0747157874
 21
1.4454947176
  0
LINE
  5
2BE
100
AcDbEntity
  8
0
100
AcDbLine
 62
7
  6
CONTINUOUS
 10
-23.340443311
 20
21.5338554735
 11
-23.340443311
 21
8.7837888522
  0
LINE
  5
2BF
100
AcDbEntity
  8
0
100
AcDbLine
 62
7
  6
CONTINUOUS
 10
-23.340443311
 20
22.233722231
 11
-23.340443311
 21
34.9837888522
  0
LINE
  5
2C0
100
AcDbEntity
  8
RACCORDO
100
AcDbLine
 62
7
  6
CONTINUOUS
 10
-22.090443311
 20
21.5837507756
 11
-22.090443311
 21
8.7837888522
  0
LINE
  5
2C1
100
AcDbEntity
  8
DRAFT
100
AcDbLine
 62
7
  6
CONTINUOUS
 10
-22.090443311
 20
21.9837888522
 11
-22.090443311
 21
34.9837888522
  0
LINE
  5
2C2
100
AcDbEntity
  8
DRAFT
100
AcDbLine
 62
7
  6
CONTINUOUS
 10
-22.073566412
 20
12.6837888522
 11
-22.073566412
 21
8.8837888522
  0
LINE
  5
2C3
100
AcDbEntity
  8
DRAFT
100
AcDbLine
 62
7
  6
CONTINUOUS
 10
-22.073566412
 20
31.0837888522
 11
-22.073566412
 21
34.8837888522
  0
LINE
  5
2C4
100
AcDbEntity
  8
RACCORDO
100
AcDbLine
 62
7
  6
CONTINUOUS
 10
-22.0380781162
 20
20.5837888522
 11
-22.0380781162
 21
21.5575701722
  0
LINE
  5
2C5
100
AcDbEntity
  8
RACCORDO
100
AcDbLine
 62
7
  6
CONTINUOUS
 10
-22.0380781162
 20
22.0099694556
 11
-22.0380781162
 21
23.436612637
  0
LINE
  5
2C6
100
AcDbEntity
  8
RACCORDO
100
AcDbLine
 62
253
  6
CONTINUOUS
 10
-22.0292896572
 20
42.002540924
 11
-22.0292896572
 21
34.8837888522
  0
LINE
  5
2C7
100
AcDbEntity
  8
RACCORDO
100
AcDbLine
 62
253
  6
CONTINUOUS
 10
-22.0292896572
 20
31.0837888522
 11
-22.0292896572
 21
23.4806623463
  0
LINE
  5
2C8
100
AcDbEntity
  8
RACCORDO
100
AcDbLine
 62
253
  6
CONTINUOUS
 10
-22.0292896572
 20
20.5397391429
 11
-22.0292896572
 21
12.6837888522
  0
LINE
  5
2C9
100
AcDbEntity
  8
RACCORDO
100
AcDbLine
 62
253
  6
CONTINUOUS
 10
-22.0292896572
 20
8.8837888522
 11
-22.0292896572
 21
1.7650367805
  0
LINE
  5
2CA
100
AcDbEntity
  8
RACCORDO
100
AcDbLine
 62
7
  6
CONTINUOUS
 10
-22.090443311
 20
34.9837888522
 11
-22.0747157874
 21
42.3220829868
  0
LINE
  5
2CB
100
AcDbEntity
  8
0
100
AcDbLine
 62
7
  6
CONTINUOUS
 10
-23.3035905981
 20
43.5787100144
 11
-23.340443311
 21
34.9837888522
  0
LINE
  5
2CC
100
AcDbEntity
  8
RACCORDO
100
AcDbLine
 62
253
  6
CONTINUOUS
 10
-22.0292896572
 20
23.4806623463
 11
-22.0380781162
 21
23.436612637
  0
LINE
  5
2CD
100
AcDbEntity
  8
RACCORDO
100
AcDbLine
 62
253
  6
CONTINUOUS
 10
-21.826133367
 20
23.2973961115
 11
-21.8383519125
 21
23.236154047
  0
LINE
  5
2CE
100
AcDbEntity
  8
0
100
AcDbLine
 62
7
  6
CONTINUOUS
 10
-3.9851241925
 20
40.083788733
 11
-3.8893795231
 21
40.1462888522
  0
LINE
  5
2CF
100
AcDbEntity
  8
0
100
AcDbLine
 62
7
  6
CONTINUOUS
 10
-3.3468263069
 20
40.3025389715
 11
-3.4425709763
 21
40.2400388522
  0
LINE
  5
2D0
100
AcDbEntity
  8
0
100
AcDbLine
 62
7
  6
CONTINUOUS
 10
-2.9957624519
 20
38.0837888522
 11
-3.1234220335
 21
38.0212889118
  0
LINE
  5
2D1
100
AcDbEntity
  8
0
100
AcDbLine
 62
7
  6
CONTINUOUS
 10
-3.8893795231
 20
37.5212888522
 11
-4.0170390823
 21
37.4587889118
  0
LINE
  5
2D2
100
AcDbEntity
  8
0
100
AcDbLine
 62
7
  6
CONTINUOUS
 10
-3.1234220335
 20
37.8337889118
 11
-2.9957624519
 21
37.8962888522
  0
LINE
  5
2D3
100
AcDbEntity
  8
0
100
AcDbLine
 62
7
  6
CONTINUOUS
 10
-3.1872518131
 20
36.4900388522
 11
-3.0915071437
 21
36.5212888224
  0
LINE
  5
2D4
100
AcDbEntity
  8
0
100
AcDbLine
 62
7
  6
CONTINUOUS
 10
-6.242569311
 20
35.0825548522
 11
-4.742690311
 21
35.5580458522
  0
LINE
  5
2D5
100
AcDbEntity
  8
0
100
AcDbLine
 62
7
  6
CONTINUOUS
 10
-21.275623311
 20
16.0650418522
 11
-20.677890311
 21
15.6875548522
  0
LINE
  5
2D6
100
AcDbEntity
  8
0
100
AcDbLine
 62
253
  6
CONTINUOUS
 10
-7.6000428656
 20
2.3933998299
 11
-7.5930385248
 21
2.3863954891
  0
LINE
  5
2D7
100
AcDbEntity
  8
0
100
AcDbLine
 62
253
  6
CONTINUOUS
 10
-7.3000542887
 20
2.6933884068
 11
-7.2930499478
 21
2.686384066
  0
LINE
  5
2D8
100
AcDbEntity
  8
0
100
AcDbLine
 62
7
  6
CONTINUOUS
 10
-20.3319326499
 20
6.9025388522
 11
-20.3000177601
 21
6.7462889118
  0
LINE
  5
2D9
100
AcDbEntity
  8
0
100
AcDbLine
 62
7
  6
CONTINUOUS
 10
-20.3319326499
 20
8.3400388448
 11
-20.3000177601
 21
8.1837888373
  0
LINE
  5
2DA
100
AcDbEntity
  8
RACCORDO
100
AcDbLine
 62
7
  6
CONTINUOUS
 10
-22.0380781162
 20
20.5837888522
 11
-22.0292896572
 21
20.5397391429
  0
LINE
  5
2DB
100
AcDbEntity
  8
0
100
AcDbLine
 62
7
  6
CONTINUOUS
 10
-20.140443311
 20
6.7462889118
 11
-20.1723582008
 21
6.9337889118
  0
LINE
  5
2DC
100
AcDbEntity
  8
0
100
AcDbLine
 62
7
  6
CONTINUOUS
 10
-20.140443311
 20
4.027538733
 11
-20.1723582008
 21
4.2462889715
  0
LINE
  5
2DD
100
AcDbEntity
  8
0
100
AcDbLine
 62
7
  6
CONTINUOUS
 10
-20.140443311
 20
8.1525388671
 11
-20.1723582008
 21
8.3712888597
  0
LINE
  5
2DE
100
AcDbEntity
  8
RACCORDO
100
AcDbLine
 62
253
  6
CONTINUOUS
 10
-21.8293201182
 20
42.2010501543
 11
-21.8293201182
 21
34.8837888522
  0
LINE
  5
2DF
100
AcDbEntity
  8
RACCORDO
100
AcDbLine
 62
253
  6
CONTINUOUS
 10
-21.8293201182
 20
31.0837888522
 11
-21.8293201182
 21
23.2974215915
  0
LINE
  5
2E0
100
AcDbEntity
  8
RACCORDO
100
AcDbLine
 62
253
  6
CONTINUOUS
 10
-21.8293201182
 20
20.5225467878
 11
-21.8293201182
 21
12.6837888522
  0
LINE
  5
2E1
100
AcDbEntity
  8
RACCORDO
100
AcDbLine
 62
253
  6
CONTINUOUS
 10
-21.8293201182
 20
8.8837888522
 11
-21.8293201182
 21
1.5665275502
  0
LINE
  5
2E2
100
AcDbEntity
  8
0
100
AcDbLine
 62
7
  6
CONTINUOUS
 10
-21.690443311
 20
12.6837888522
 11
-21.690443311
 21
8.8837888522
  0
LINE
  5
2E3
100
AcDbEntity
  8
0
100
AcDbLine
 62
7
  6
CONTINUOUS
 10
-21.690443311
 20
31.0837888522
 11
-21.690443311
 21
34.8837888522
  0
LINE
  5
2E4
100
AcDbEntity
  8
0
100
AcDbLine
 62
7
  6
CONTINUOUS
 10
-21.678426311
 20
19.2035058522
 11
-21.678426311
 21
19.0683488522
  0
LINE
  5
2E5
100
AcDbEntity
  8
0
100
AcDbLine
 62
7
  6
CONTINUOUS
 10
-21.678426311
 20
18.5849048522
 11
-21.678426311
 21
18.4498278522
  0
LINE
  5
2E6
100
AcDbEntity
  8
0
100
AcDbLine
 62
7
  6
CONTINUOUS
 10
-21.678426311
 20
18.0723418522
 11
-21.678426311
 21
17.9330598522
  0
LINE
  5
2E7
100
AcDbEntity
  8
0
100
AcDbLine
 62
7
  6
CONTINUOUS
 10
-21.678426311
 20
17.3284508522
 11
-21.678426311
 21
17.1808378522
  0
LINE
  5
2E8
100
AcDbEntity
  8
0
100
AcDbLine
 62
7
  6
CONTINUOUS
 10
-21.678426311
 20
17.0568418522
 11
-21.678426311
 21
16.4147028522
  0
LINE
  5
2E9
100
AcDbEntity
  8
0
100
AcDbLine
 62
7
  6
CONTINUOUS
 10
-21.678426311
 20
16.2001178522
 11
-21.678426311
 21
16.0650418522
  0
LINE
  5
2EA
100
AcDbEntity
  8
0
100
AcDbLine
 62
7
  6
CONTINUOUS
 10
-21.640443311
 20
8.6837888522
 11
-21.640443311
 21
7.5587888522
  0
LINE
  5
2EB
100
AcDbEntity
  8
0
100
AcDbLine
 62
7
  6
CONTINUOUS
 10
-21.640443311
 20
5.4650389715
 11
-21.640443311
 21
5.2775389715
  0
LINE
  5
2EC
100
AcDbEntity
  8
0
100
AcDbLine
 62
7
  6
CONTINUOUS
 10
-21.640443311
 20
4.121288733
 11
-21.640443311
 21
3.8712889715
  0
LINE
  5
2ED
100
AcDbEntity
  8
0
100
AcDbLine
 62
7
  6
CONTINUOUS
 10
-21.640443311
 20
2.996288733
 11
-21.640443311
 21
2.808788733
  0
LINE
  5
2EE
100
AcDbEntity
  8
0
100
AcDbLine
 62
7
  6
CONTINUOUS
 10
-21.558717311
 20
16.4147028522
 11
-21.558717311
 21
16.9217658522
  0
LINE
  5
2EF
100
AcDbEntity
  8
0
100
AcDbLine
 62
7
  6
CONTINUOUS
 10
-21.4808688396
 20
3.9025388522
 11
-21.4808688396
 21
4.0900388522
  0
LINE
  5
2F0
100
AcDbEntity
  8
0
100
AcDbLine
 62
7
  6
CONTINUOUS
 10
-21.4808688396
 20
5.2775389715
 11
-21.4808688396
 21
5.4650389715
  0
LINE
  5
2F1
100
AcDbEntity
  8
0
100
AcDbLine
 62
7
  6
CONTINUOUS
 10
-21.4808688396
 20
7.5587888522
 11
-21.4808688396
 21
8.4337888448
  0
LINE
  5
2F2
100
AcDbEntity
  8
0
100
AcDbLine
 62
7
  6
CONTINUOUS
 10
-21.387243311
 20
17.8285568522
 11
-21.387243311
 21
17.4273718522
  0
LINE
  5
2F3
100
AcDbEntity
  8
0
100
AcDbLine
 62
7
  6
CONTINUOUS
 10
-21.2893794784
 20
4.402538733
 11
-21.2893794784
 21
4.5587888522
  0
LINE
  5
2F4
100
AcDbEntity
  8
0
100
AcDbLine
 62
7
  6
CONTINUOUS
 10
-21.267535311
 20
17.4761448522
 11
-21.267535311
 21
17.7868208522
  0
LINE
  5
2F5
100
AcDbEntity
  8
0
100
AcDbLine
 62
7
  6
CONTINUOUS
 10
-21.2574645886
 20
5.7462887926
 11
-21.2574645886
 21
5.9337887926
  0
LINE
  5
2F6
100
AcDbEntity
  8
0
100
AcDbLine
 62
7
  6
CONTINUOUS
 10
-20.9702305356
 20
5.9337887926
 11
-20.9702305356
 21
5.7150389118
  0
LINE
  5
2F7
100
AcDbEntity
  8
0
100
AcDbLine
 62
7
  6
CONTINUOUS
 10
-20.9383156457
 20
4.0587889715
 11
-20.9383156457
 21
3.933788733
  0
LINE
  5
2F8
100
AcDbEntity
  8
0
100
AcDbLine
 62
7
  6
CONTINUOUS
 10
-20.8425709763
 20
5.4650389715
 11
-20.8425709763
 21
5.2775389715
  0
LINE
  5
2F9
100
AcDbEntity
  8
0
100
AcDbLine
 62
7
  6
CONTINUOUS
 10
-20.8106560865
 20
3.933788733
 11
-20.8106560865
 21
4.0587889715
  0
LINE
  5
2FA
100
AcDbEntity
  8
0
100
AcDbLine
 62
7
  6
CONTINUOUS
 10
-20.797598311
 20
18.9234048522
 11
-20.797598311
 21
18.5849048522
  0
LINE
  5
2FB
100
AcDbEntity
  8
0
100
AcDbLine
 62
7
  6
CONTINUOUS
 10
-20.797598311
 20
18.4498278522
 11
-20.797598311
 21
18.1113278522
  0
LINE
  5
2FC
100
AcDbEntity
  8
0
100
AcDbLine
 62
7
  6
CONTINUOUS
 10
-20.6829965272
 20
5.2775389715
 11
-20.6829965272
 21
5.4650389715
  0
LINE
  5
2FD
100
AcDbEntity
  8
0
100
AcDbLine
 62
7
  6
CONTINUOUS
 10
-20.677890311
 20
15.6875548522
 11
-20.677890311
 21
15.8463308522
  0
LINE
  5
2FE
100
AcDbEntity
  8
0
100
AcDbLine
 62
7
  6
CONTINUOUS
 10
-20.677890311
 20
16.4202838522
 11
-20.677890311
 21
16.5776848522
  0
LINE
  5
2FF
100
AcDbEntity
  8
0
100
AcDbLine
 62
7
  6
CONTINUOUS
 10
-20.677890311
 20
16.9217658522
 11
-20.677890311
 21
17.0568418522
  0
LINE
  5
300
100
AcDbEntity
  8
0
100
AcDbLine
 62
7
  6
CONTINUOUS
 10
-20.677890311
 20
17.5430368522
 11
-20.677890311
 21
17.6962308522
  0
LINE
  5
301
100
AcDbEntity
  8
0
100
AcDbLine
 62
7
  6
CONTINUOUS
 10
-20.677890311
 20
18.1113278522
 11
-20.677890311
 21
18.9234048522
  0
LINE
  5
302
100
AcDbEntity
  8
0
100
AcDbLine
 62
7
  6
CONTINUOUS
 10
-20.677890311
 20
19.0683488522
 11
-20.677890311
 21
19.2035058522
  0
LINE
  5
303
100
AcDbEntity
  8
0
100
AcDbLine
 62
7
  6
CONTINUOUS
 10
-20.491507099
 20
8.6525388513
 11
-20.491507099
 21
8.4962888522
  0
LINE
  5
304
100
AcDbEntity
  8
0
100
AcDbLine
 62
7
  6
CONTINUOUS
 10
-20.491507099
 20
4.5275389715
 11
-20.491507099
 21
4.3712888522
  0
LINE
  5
305
100
AcDbEntity
  8
0
100
AcDbLine
 62
7
  6
CONTINUOUS
 10
-20.3000177601
 20
8.1837888373
 11
-20.3000177601
 21
8.0587888671
  0
LINE
  5
306
100
AcDbEntity
  8
0
100
AcDbLine
 62
7
  6
CONTINUOUS
 10
-20.3000177601
 20
5.7775388522
 11
-20.3000177601
 21
4.871288733
  0
LINE
  5
307
100
AcDbEntity
  8
0
100
AcDbLine
 62
7
  6
CONTINUOUS
 10
-20.3000177601
 20
4.0587889715
 11
-20.3000177601
 21
3.933788733
  0
LINE
  5
308
100
AcDbEntity
  8
0
100
AcDbLine
 62
7
  6
CONTINUOUS
 10
-3.4425709763
 20
38.8962889715
 11
-3.5702305356
 21
38.8025389715
  0
LINE
  5
309
100
AcDbEntity
  8
0
100
AcDbLine
 62
7
  6
CONTINUOUS
 10
-2.9957624519
 20
39.240038733
 11
-2.9000177824
 21
39.3025388522
  0
LINE
  5
30A
100
AcDbEntity
  8
0
100
AcDbLine
 62
7
  6
CONTINUOUS
 10
-3.4425709763
 20
38.7087889715
 11
-3.3468263069
 21
38.771288733
  0
LINE
  5
30B
100
AcDbEntity
  8
0
100
AcDbLine
 62
7
  6
CONTINUOUS
 10
-3.9851241925
 20
37.2712889118
 11
-3.7936347642
 21
37.3962887926
  0
LINE
  5
30C
100
AcDbEntity
  8
0
100
AcDbLine
 62
7
  6
CONTINUOUS
 10
-3.0915071437
 20
36.5212888224
 11
-2.9638475621
 21
36.5837888522
  0
LINE
  5
30D
100
AcDbEntity
  8
DRAFT
100
AcDbLine
 62
7
  6
CONTINUOUS
 10
-2.3073202101
 20
12.6837888522
 11
-2.690443311
 21
12.6837888522
  0
LINE
  5
30E
100
AcDbEntity
  8
DRAFT
100
AcDbLine
 62
7
  6
CONTINUOUS
 10
-21.690443311
 20
12.6837888522
 11
-22.073566412
 21
12.6837888522
  0
LINE
  5
30F
100
AcDbEntity
  8
0
100
AcDbLine
 62
7
  6
CONTINUOUS
 10
-20.677890311
 20
15.8463308522
 11
-21.158341311
 21
16.1333078522
  0
LINE
  5
310
100
AcDbEntity
  8
0
100
AcDbLine
 62
7
  6
CONTINUOUS
 10
-17.5985101996
 20
1.5665275502
 11
-17.5930385248
 21
1.4895426337
  0
LINE
  5
311
100
AcDbEntity
  8
0
100
AcDbLine
 62
7
  6
CONTINUOUS
 10
-20.240307311
 20
18.0688638522
 11
-20.240307311
 21
17.9337068522
  0
LINE
  5
312
100
AcDbEntity
  8
0
100
AcDbLine
 62
7
  6
CONTINUOUS
 10
-20.240307311
 20
17.7025398522
 11
-20.240307311
 21
17.5715078522
  0
LINE
  5
313
100
AcDbEntity
  8
0
100
AcDbLine
 62
7
  6
CONTINUOUS
 10
-20.240307311
 20
17.0603198522
 11
-20.240307311
 21
16.9085008522
  0
LINE
  5
314
100
AcDbEntity
  8
0
100
AcDbLine
 62
7
  6
CONTINUOUS
 10
-20.140443311
 20
2.808788733
 11
-20.140443311
 21
2.996288733
  0
LINE
  5
315
100
AcDbEntity
  8
0
100
AcDbLine
 62
7
  6
CONTINUOUS
 10
-20.140443311
 20
3.9650389715
 11
-20.140443311
 21
4.027538733
  0
LINE
  5
316
100
AcDbEntity
  8
0
100
AcDbLine
 62
7
  6
CONTINUOUS
 10
-20.140443311
 20
4.871288733
 11
-20.140443311
 21
5.9337887926
  0
LINE
  5
317
100
AcDbEntity
  8
0
100
AcDbLine
 62
7
  6
CONTINUOUS
 10
-20.140443311
 20
8.0275388522
 11
-20.140443311
 21
8.1525388671
  0
LINE
  5
318
100
AcDbEntity
  8
0
100
AcDbLine
 62
7
  6
CONTINUOUS
 10
-19.638196311
 20
8.2095318522
 11
-19.638196311
 21
7.9336268522
  0
LINE
  5
319
100
AcDbEntity
  8
0
100
AcDbLine
 62
7
  6
CONTINUOUS
 10
-19.638196311
 20
7.3353198522
 11
-19.638196311
 21
7.0222358522
  0
LINE
  5
31A
100
AcDbEntity
  8
0
100
AcDbLine
 62
7
  6
CONTINUOUS
 10
-19.638196311
 20
6.8536938522
 11
-19.638196311
 21
6.5541748522
  0
LINE
  5
31B
100
AcDbEntity
  8
0
100
AcDbLine
 62
7
  6
CONTINUOUS
 10
-19.638196311
 20
6.1193258522
 11
-19.638196311
 21
6.0754158522
  0
LINE
  5
31C
100
AcDbEntity
  8
0
100
AcDbLine
 62
7
  6
CONTINUOUS
 10
-19.638196311
 20
5.6388358522
 11
-19.638196311
 21
5.3325568522
  0
LINE
  5
31D
100
AcDbEntity
  8
0
100
AcDbLine
 62
7
  6
CONTINUOUS
 10
-19.638196311
 20
5.2833938522
 11
-19.638196311
 21
4.9737078522
  0
LINE
  5
31E
100
AcDbEntity
  8
0
100
AcDbLine
 62
7
  6
CONTINUOUS
 10
-19.638196311
 20
4.3798428522
 11
-19.638196311
 21
4.0498648522
  0
LINE
  5
31F
100
AcDbEntity
  8
0
100
AcDbLine
 62
7
  6
CONTINUOUS
 10
-19.6381962892
 20
3.9579292529
 11
-19.6381962892
 21
3.6461054305
  0
LINE
  5
320
100
AcDbEntity
  8
0
100
AcDbLine
 62
7
  6
CONTINUOUS
 10
-19.6381962892
 20
3.1666611195
 11
-19.6381962892
 21
2.8655111107
  0
LINE
  5
321
100
AcDbEntity
  8
0
100
AcDbLine
 62
7
  6
CONTINUOUS
 10
-19.338767311
 20
4.8873158522
 11
-19.338767311
 21
4.4609478522
  0
LINE
  5
322
100
AcDbEntity
  8
0
100
AcDbLine
 62
7
  6
CONTINUOUS
 10
-19.240579311
 20
16.9085008522
 11
-19.240579311
 21
17.0393708522
  0
LINE
  5
323
100
AcDbEntity
  8
0
100
AcDbLine
 62
7
  6
CONTINUOUS
 10
-19.240579311
 20
17.5423088522
 11
-19.240579311
 21
17.7025398522
  0
LINE
  5
324
100
AcDbEntity
  8
0
100
AcDbLine
 62
7
  6
CONTINUOUS
 10
-19.240579311
 20
17.9337068522
 11
-19.240579311
 21
18.0688638522
  0
LINE
  5
325
100
AcDbEntity
  8
0
100
AcDbLine
 62
7
  6
CONTINUOUS
 10
-19.107069311
 20
4.5235178522
 11
-19.107069311
 21
4.8232728522
  0
LINE
  5
326
100
AcDbEntity
  8
0
100
AcDbLine
 62
7
  6
CONTINUOUS
 10
-19.0512265222
 20
3.6461054305
 11
-19.0512265222
 21
3.4782374984
  0
LINE
  5
327
100
AcDbEntity
  8
0
100
AcDbLine
 62
7
  6
CONTINUOUS
 10
-18.8055825934
 20
3.4775626524
 11
-18.8055825934
 21
3.6564868108
  0
LINE
  5
328
100
AcDbEntity
  8
0
100
AcDbLine
 62
7
  6
CONTINUOUS
 10
-18.802187311
 20
19.4095988522
 11
-18.802187311
 21
19.2786478522
  0
LINE
  5
329
100
AcDbEntity
  8
0
100
AcDbLine
 62
7
  6
CONTINUOUS
 10
-18.802187311
 20
18.9972518522
 11
-18.802187311
 21
18.8635498522
  0
LINE
  5
32A
100
AcDbEntity
  8
0
100
AcDbLine
 62
7
  6
CONTINUOUS
 10
-18.802187311
 20
18.3314138522
 11
-18.802187311
 21
18.1921308522
  0
LINE
  5
32B
100
AcDbEntity
  8
0
100
AcDbLine
 62
7
  6
CONTINUOUS
 10
-18.802187311
 20
18.5821548522
 11
-18.802187311
 21
18.4512028522
  0
LINE
  5
32C
100
AcDbEntity
  8
0
100
AcDbLine
 62
7
  6
CONTINUOUS
 10
-18.802187311
 20
17.3089578522
 11
-18.802187311
 21
16.9036355865
  0
LINE
  5
32D
100
AcDbEntity
  8
0
100
AcDbLine
 62
7
  6
CONTINUOUS
 10
-18.802187311
 20
17.5875228522
 11
-18.802187311
 21
17.4399088522
  0
LINE
  5
32E
100
AcDbEntity
  8
0
100
AcDbLine
 62
7
  6
CONTINUOUS
 10
-18.802187311
 20
16.2962888522
 11
-18.802187311
 21
15.5579788522
  0
LINE
  5
32F
100
AcDbEntity
  8
0
100
AcDbLine
 62
7
  6
CONTINUOUS
 10
-18.686523311
 20
16.9217602278
 11
-18.686523311
 21
17.1738818522
  0
LINE
  5
330
100
AcDbEntity
  8
0
100
AcDbLine
 62
7
  6
CONTINUOUS
 10
-18.682479311
 20
15.5579788522
 11
-18.682479311
 21
16.1611318522
  0
LINE
  5
331
100
AcDbEntity
  8
RACCORDO
100
AcDbLine
 62
253
  6
CONTINUOUS
 10
-22.0292896572
 20
1.7650367805
 11
-22.0747157874
 21
1.4454947176
  0
LINE
  5
332
100
AcDbEntity
  8
RACCORDO
100
AcDbLine
 62
253
  6
CONTINUOUS
 10
-21.8293201182
 20
1.5665275502
 11
-21.8746862267
 21
1.2474076992
  0
LINE
  5
333
100
AcDbEntity
  8
0
100
AcDbLine
 62
7
  6
CONTINUOUS
 10
-21.6085284184
 20
6.9337889118
 11
-21.640443311
 21
6.7462889118
  0
LINE
  5
334
100
AcDbEntity
  8
0
100
AcDbLine
 62
7
  6
CONTINUOUS
 10
-4.0170390823
 20
40.271288733
 11
-4.1446986416
 21
40.1462888522
  0
LINE
  5
335
100
AcDbEntity
  8
0
100
AcDbLine
 62
7
  6
CONTINUOUS
 10
-2.9957624519
 20
37.8962888522
 11
-2.8681028814
 21
37.9900388522
  0
LINE
  5
336
100
AcDbEntity
  8
0
100
AcDbLine
 62
7
  6
CONTINUOUS
 10
-2.9957624519
 20
36.7712888522
 11
-3.1872518131
 21
36.6462887926
  0
LINE
  5
337
100
AcDbEntity
  8
0
100
AcDbLine
 62
7
  6
CONTINUOUS
 10
-3.9851241925
 20
35.9587888224
 11
-3.8893795231
 21
36.0212888522
  0
LINE
  5
338
100
AcDbEntity
  8
0
100
AcDbLine
 62
7
  6
CONTINUOUS
 10
-21.678426311
 20
17.9330598522
 11
-21.387243311
 21
17.8285568522
  0
LINE
  5
339
100
AcDbEntity
  8
0
100
AcDbLine
 62
7
  6
CONTINUOUS
 10
-21.267535311
 20
17.7868208522
 11
-20.823596311
 21
17.6251588522
  0
LINE
  5
33A
100
AcDbEntity
  8
0
100
AcDbLine
 62
7
  6
CONTINUOUS
 10
-20.677890311
 20
17.6962308522
 11
-21.678426311
 21
18.0723418522
  0
LINE
  5
33B
100
AcDbEntity
  8
RACCORDO
100
AcDbLine
 62
253
  6
CONTINUOUS
 10
-22.0747157874
 20
42.3220829868
 11
-22.0292896572
 21
42.002540924
  0
LINE
  5
33C
100
AcDbEntity
  8
RACCORDO
100
AcDbLine
 62
253
  6
CONTINUOUS
 10
-21.8746862267
 20
42.5201700053
 11
-21.8293201182
 21
42.2010501543
  0
LINE
  5
33D
100
AcDbEntity
  8
0
100
AcDbLine
 62
7
  6
CONTINUOUS
 10
-18.511005311
 20
18.0876288522
 11
-18.511005311
 21
17.6864438522
  0
LINE
  5
33E
100
AcDbEntity
  8
0
100
AcDbLine
 62
7
  6
CONTINUOUS
 10
-18.391296311
 20
17.7352168522
 11
-18.391296311
 21
18.0458118522
  0
LINE
  5
33F
100
AcDbEntity
  8
0
100
AcDbLine
 62
7
  6
CONTINUOUS
 10
-18.348428311
 20
16.1611318522
 11
-18.348428311
 21
15.6137078522
  0
LINE
  5
340
100
AcDbEntity
  8
0
100
AcDbLine
 62
7
  6
CONTINUOUS
 10
-18.228719311
 20
15.6137078522
 11
-18.228719311
 21
16.1611318522
  0
LINE
  5
341
100
AcDbEntity
  8
0
100
AcDbLine
 62
7
  6
CONTINUOUS
 10
-18.138317311
 20
4.5100648522
 11
-18.138317311
 21
4.8129368522
  0
LINE
  5
342
100
AcDbEntity
  8
0
100
AcDbLine
 62
7
  6
CONTINUOUS
 10
-18.138317311
 20
5.4728118522
 11
-18.138317311
 21
5.7825778522
  0
LINE
  5
343
100
AcDbEntity
  8
0
100
AcDbLine
 62
7
  6
CONTINUOUS
 10
-18.138317311
 20
6.4054378522
 11
-18.138317311
 21
6.7182628522
  0
LINE
  5
344
100
AcDbEntity
  8
0
100
AcDbLine
 62
7
  6
CONTINUOUS
 10
-18.138317311
 20
7.4515048522
 11
-18.138317311
 21
7.7643748522
  0
LINE
  5
345
100
AcDbEntity
  8
0
100
AcDbLine
 62
7
  6
CONTINUOUS
 10
-18.138317311
 20
8.3449168522
 11
-18.138317311
 21
8.6850228522
  0
LINE
  5
346
100
AcDbEntity
  8
0
100
AcDbLine
 62
7
  6
CONTINUOUS
 10
-18.138227311
 20
7.0222358522
 11
-18.138227311
 21
7.3353198522
  0
LINE
  5
347
100
AcDbEntity
  8
0
100
AcDbLine
 62
7
  6
CONTINUOUS
 10
-18.0465521185
 20
20.5225467878
 11
-18.0465521185
 21
20.3337888522
  0
LINE
  5
348
100
AcDbEntity
  8
0
100
AcDbLine
 62
7
  6
CONTINUOUS
 10
-18.040443311
 20
23.4337888522
 11
-18.040443311
 21
23.236154047
  0
LINE
  5
349
100
AcDbEntity
  8
0
100
AcDbLine
 62
7
  6
CONTINUOUS
 10
-18.040443311
 20
20.5837888522
 11
-18.040443311
 21
20.3337888522
  0
LINE
  5
34A
100
AcDbEntity
  8
0
100
AcDbLine
 62
7
  6
CONTINUOUS
 10
-17.922169311
 20
16.1611318522
 11
-17.922169311
 21
15.5677658522
  0
LINE
  5
34B
100
AcDbEntity
  8
0
100
AcDbLine
 62
7
  6
CONTINUOUS
 10
-17.918124311
 20
17.1738818522
 11
-17.918124311
 21
16.9217734759
  0
LINE
  5
34C
100
AcDbEntity
  8
0
100
AcDbLine
 62
7
  6
CONTINUOUS
 10
-17.802460311
 20
15.5677658522
 11
-17.802460311
 21
16.2962888522
  0
LINE
  5
34D
100
AcDbEntity
  8
0
100
AcDbLine
 62
7
  6
CONTINUOUS
 10
-17.802460311
 20
16.9036499912
 11
-17.802460311
 21
17.3089578522
  0
LINE
  5
34E
100
AcDbEntity
  8
0
100
AcDbLine
 62
7
  6
CONTINUOUS
 10
-17.802460311
 20
17.8021078522
 11
-17.802460311
 21
17.9553028522
  0
LINE
  5
34F
100
AcDbEntity
  8
0
100
AcDbLine
 62
7
  6
CONTINUOUS
 10
-17.802460311
 20
18.4512028522
 11
-17.802460311
 21
18.6434648522
  0
LINE
  5
350
100
AcDbEntity
  8
0
100
AcDbLine
 62
7
  6
CONTINUOUS
 10
-17.802460311
 20
19.2159618522
 11
-17.802460311
 21
19.4095988522
  0
LINE
  5
351
100
AcDbEntity
  8
0
100
AcDbLine
 62
7
  6
CONTINUOUS
 10
-17.790443311
 20
15.2440962315
 11
-17.790443311
 21
5.623481473
  0
LINE
  5
352
100
AcDbEntity
  8
0
100
AcDbLine
 62
7
  6
CONTINUOUS
 10
-17.690443311
 20
38.1440962315
 11
-17.690443311
 21
28.523481473
  0
LINE
  5
353
100
AcDbEntity
  8
0
100
AcDbLine
 62
7
  6
CONTINUOUS
 10
-17.6000428656
 20
1.7650367805
 11
-17.6000428656
 21
2.3933998299
  0
LINE
  5
354
100
AcDbEntity
  8
0
100
AcDbLine
 62
253
  6
CONTINUOUS
 10
-17.5930385248
 20
2.3863954891
 11
-17.5930385248
 21
1.4895426337
  0
LINE
  5
355
100
AcDbEntity
  8
0
100
AcDbLine
 62
7
  6
CONTINUOUS
 10
-17.590443311
 20
42.2777136256
 11
-17.590443311
 21
41.3837888522
  0
LINE
  5
356
100
AcDbEntity
  8
0
100
AcDbLine
 62
7
  6
CONTINUOUS
 10
-17.540443311
 20
20.3668015541
 11
-17.540443311
 21
21.5567279464
  0
LINE
  5
357
100
AcDbEntity
  8
0
100
AcDbLine
 62
7
  6
CONTINUOUS
 10
-17.540443311
 20
22.2108497581
 11
-17.540443311
 21
23.4007761504
  0
LINE
  5
358
100
AcDbEntity
  8
0
100
AcDbLine
 62
253
  6
CONTINUOUS
 10
-17.2930499478
 20
1.4530287106
 11
-17.2930499478
 21
2.686384066
  0
LINE
  5
359
100
AcDbEntity
  8
0
100
AcDbLine
 62
253
  6
CONTINUOUS
 10
-17.290443311
 20
41.0837888522
 11
-17.290443311
 21
42.3145489939
  0
LINE
  5
35A
100
AcDbEntity
  8
0
100
AcDbLine
 62
253
  6
CONTINUOUS
 10
-17.090443311
 20
41.0837888522
 11
-17.090443311
 21
42.3145489939
  0
LINE
  5
35B
100
AcDbEntity
  8
0
100
AcDbLine
 62
253
  6
CONTINUOUS
 10
-17.0878366742
 20
1.4530287106
 11
-17.0878366742
 21
2.686384066
  0
LINE
  5
35C
100
AcDbEntity
  8
DRAFT
100
AcDbLine
 62
7
  6
CONTINUOUS
 10
-18.040443311
 20
20.5837888522
 11
-18.0465521185
 21
20.5225467878
  0
LINE
  5
35D
100
AcDbEntity
  8
0
100
AcDbLine
 62
7
  6
CONTINUOUS
 10
-20.1723582008
 20
3.746288733
 11
-20.140443311
 21
3.9650389715
  0
LINE
  5
35E
100
AcDbEntity
  8
0
100
AcDbLine
 62
7
  6
CONTINUOUS
 10
-20.9383156457
 20
3.933788733
 11
-20.9702305356
 21
3.746288733
  0
LINE
  5
35F
100
AcDbEntity
  8
0
100
AcDbLine
 62
7
  6
CONTINUOUS
 10
-20.1723582008
 20
7.8400388522
 11
-20.140443311
 21
8.0275388522
  0
LINE
  5
360
100
AcDbEntity
  8
0
100
AcDbLine
 62
7
  6
CONTINUOUS
 10
-20.1723582008
 20
6.5587889118
 11
-20.140443311
 21
6.7462889118
  0
LINE
  5
361
100
AcDbEntity
  8
0
100
AcDbLine
 62
7
  6
CONTINUOUS
 10
-21.4808688396
 20
6.7462889118
 11
-21.4489539498
 21
6.9025388522
  0
LINE
  5
362
100
AcDbEntity
  8
0
100
AcDbLine
 62
7
  6
CONTINUOUS
 10
-21.6085284184
 20
5.621288733
 11
-21.640443311
 21
5.4650389715
  0
LINE
  5
363
100
AcDbEntity
  8
0
100
AcDbLine
 62
7
  6
CONTINUOUS
 10
-21.4808688396
 20
4.0900388522
 11
-21.4489539498
 21
4.2462889715
  0
LINE
  5
364
100
AcDbEntity
  8
0
100
AcDbLine
 62
7
  6
CONTINUOUS
 10
-20.3000177601
 20
8.0587888671
 11
-20.3319326499
 21
7.902538882
  0
LINE
  5
365
100
AcDbEntity
  8
0
100
AcDbLine
 62
7
  6
CONTINUOUS
 10
-20.7149114171
 20
5.1212888522
 11
-20.6829965272
 21
5.2775389715
  0
LINE
  5
366
100
AcDbEntity
  8
0
100
AcDbLine
 62
7
  6
CONTINUOUS
 10
-20.3000177601
 20
6.7462889118
 11
-20.3319326499
 21
6.5900387926
  0
LINE
  5
367
100
AcDbEntity
  8
0
100
AcDbLine
 62
7
  6
CONTINUOUS
 10
-21.4808688396
 20
5.4650389715
 11
-21.4489539498
 21
5.5900388522
  0
LINE
  5
368
100
AcDbEntity
  8
0
100
AcDbLine
 62
7
  6
CONTINUOUS
 10
-21.6085284184
 20
4.2462889715
 11
-21.640443311
 21
4.121288733
  0
LINE
  5
369
100
AcDbEntity
  8
0
100
AcDbLine
 62
7
  6
CONTINUOUS
 10
-2.9638475621
 20
39.4587889715
 11
-3.027677364
 21
39.3962888522
  0
LINE
  5
36A
100
AcDbEntity
  8
0
100
AcDbLine
 62
7
  6
CONTINUOUS
 10
-4.0170390823
 20
37.4587889118
 11
-4.1127837518
 21
37.3650389118
  0
LINE
  5
36B
100
AcDbEntity
  8
0
100
AcDbLine
 62
7
  6
CONTINUOUS
 10
-18.802187311
 20
15.5579788522
 11
-18.682479311
 21
15.5579788522
  0
LINE
  5
36C
100
AcDbEntity
  8
0
100
AcDbLine
 62
7
  6
CONTINUOUS
 10
-17.922169311
 20
15.5677658522
 11
-17.802460311
 21
15.5677658522
  0
LINE
  5
36D
100
AcDbEntity
  8
0
100
AcDbLine
 62
7
  6
CONTINUOUS
 10
-18.348428311
 20
15.6137078522
 11
-18.228719311
 21
15.6137078522
  0
LINE
  5
36E
100
AcDbEntity
  8
0
100
AcDbLine
 62
7
  6
CONTINUOUS
 10
-21.678426311
 20
16.0650418522
 11
-21.275623311
 21
16.0650418522
  0
LINE
  5
36F
100
AcDbEntity
  8
0
100
AcDbLine
 62
7
  6
CONTINUOUS
 10
-18.682479311
 20
16.1611318522
 11
-18.348428311
 21
16.1611318522
  0
LINE
  5
370
100
AcDbEntity
  8
0
100
AcDbLine
 62
7
  6
CONTINUOUS
 10
-18.228719311
 20
16.1611318522
 11
-17.922169311
 21
16.1611318522
  0
LINE
  5
371
100
AcDbEntity
  8
0
100
AcDbLine
 62
7
  6
CONTINUOUS
 10
-7.5301359318
 20
16.1837888522
 11
-16.8507506902
 21
16.1837888522
  0
LINE
  5
372
100
AcDbEntity
  8
0
100
AcDbLine
 62
7
  6
CONTINUOUS
 10
-21.275623311
 20
16.2001178522
 11
-21.678426311
 21
16.2001178522
  0
LINE
  5
373
100
AcDbEntity
  8
0
100
AcDbLine
 62
7
  6
CONTINUOUS
 10
-17.802460311
 20
16.2962888522
 11
-18.802187311
 21
16.2962888522
  0
LINE
  5
374
100
AcDbEntity
  8
0
100
AcDbLine
 62
7
  6
CONTINUOUS
 10
-21.678426311
 20
16.4147028522
 11
-21.558717311
 21
16.4147028522
  0
LINE
  5
375
100
AcDbEntity
  8
0
100
AcDbLine
 62
7
  6
CONTINUOUS
 10
-9.2323403765
 20
16.7837888522
 11
-9.4485462455
 21
16.7837888522
  0
LINE
  5
376
100
AcDbEntity
  8
0
100
AcDbLine
 62
7
  6
CONTINUOUS
 10
-14.9323403765
 20
16.7837888522
 11
-15.1485462455
 21
16.7837888522
  0
LINE
  5
377
100
AcDbEntity
  8
0
100
AcDbLine
 62
7
  6
CONTINUOUS
 10
-20.240307311
 20
16.9085008522
 11
-19.240579311
 21
16.9085008522
  0
LINE
  5
378
100
AcDbEntity
  8
0
100
AcDbLine
 62
7
  6
CONTINUOUS
 10
-21.558717311
 20
16.9217658522
 11
-20.677890311
 21
16.9217658522
  0
LINE
  5
379
100
AcDbEntity
  8
0
100
AcDbLine
 62
7
  6
CONTINUOUS
 10
-19.240579311
 20
17.0393708522
 11
-20.052372311
 21
17.0393708522
  0
LINE
  5
37A
100
AcDbEntity
  8
0
100
AcDbLine
 62
7
  6
CONTINUOUS
 10
-20.677890311
 20
17.0568418522
 11
-21.678426311
 21
17.0568418522
  0
LINE
  5
37B
100
AcDbEntity
  8
0
100
AcDbLine
 62
7
  6
CONTINUOUS
 10
-18.802187311
 20
18.8635498522
 11
-17.962611311
 21
18.5821548522
  0
LINE
  5
37C
100
AcDbEntity
  8
0
100
AcDbLine
 62
7
  6
CONTINUOUS
 10
-17.802460311
 20
18.6434648522
 11
-18.651899311
 21
18.9290228522
  0
LINE
  5
37D
100
AcDbEntity
  8
0
100
AcDbLine
 62
7
  6
CONTINUOUS
 10
-18.802187311
 20
18.1921308522
 11
-18.511005311
 21
18.0876288522
  0
LINE
  5
37E
100
AcDbEntity
  8
0
100
AcDbLine
 62
7
  6
CONTINUOUS
 10
-18.391296311
 20
18.0458118522
 11
-17.947356311
 21
17.8842308522
  0
LINE
  5
37F
100
AcDbEntity
  8
0
100
AcDbLine
 62
7
  6
CONTINUOUS
 10
-17.802460311
 20
17.9553028522
 11
-18.802187311
 21
18.3314138522
  0
LINE
  5
380
100
AcDbEntity
  8
0
100
AcDbLine
 62
7
  6
CONTINUOUS
 10
-16.8766572913
 20
21.0975558335
 11
-16.8766572913
 21
21.5466945695
  0
LINE
  5
381
100
AcDbEntity
  8
0
100
AcDbLine
 62
7
  6
CONTINUOUS
 10
-16.8766572913
 20
22.2208831349
 11
-16.8766572913
 21
22.670021871
  0
LINE
  5
382
100
AcDbEntity
  8
0
100
AcDbLine
 62
7
  6
CONTINUOUS
 10
-16.790443311
 20
41.3837888522
 11
-16.790443311
 21
42.2777136256
  0
LINE
  5
383
100
AcDbEntity
  8
0
100
AcDbLine
 62
253
  6
CONTINUOUS
 10
-16.7878480973
 20
1.4895426337
 11
-16.7878480973
 21
2.3863954891
  0
LINE
  5
384
100
AcDbEntity
  8
0
100
AcDbLine
 62
7
  6
CONTINUOUS
 10
-16.7808437565
 20
1.7650367805
 11
-16.7808437565
 21
2.3933998299
  0
LINE
  5
385
100
AcDbEntity
  8
0
100
AcDbLine
 62
7
  6
CONTINUOUS
 10
-16.2965521185
 20
19.4337888522
 11
-16.2965521185
 21
19.1776686217
  0
LINE
  5
386
100
AcDbEntity
  8
0
100
AcDbLine
 62
7
  6
CONTINUOUS
 10
-16.290443311
 20
24.5837888522
 11
-16.290443311
 21
24.3337888522
  0
LINE
  5
387
100
AcDbEntity
  8
0
100
AcDbLine
 62
7
  6
CONTINUOUS
 10
-16.290443311
 20
19.4337888522
 11
-16.290443311
 21
19.1837774292
  0
LINE
  5
388
100
AcDbEntity
  8
0
100
AcDbLine
 62
7
  6
CONTINUOUS
 10
-15.4465521185
 20
18.8776800448
 11
-15.4465521185
 21
17.2473860363
  0
LINE
  5
389
100
AcDbEntity
  8
0
100
AcDbLine
 62
253
  6
CONTINUOUS
 10
-15.4430385248
 20
18.8811936385
 11
-15.4430385248
 21
17.7272074373
  0
LINE
  5
38A
100
AcDbEntity
  8
0
100
AcDbLine
 62
7
  6
CONTINUOUS
 10
-15.440443311
 20
24.8837888522
 11
-15.440443311
 21
26.5170717042
  0
LINE
  5
38B
100
AcDbEntity
  8
0
100
AcDbLine
 62
253
  6
CONTINUOUS
 10
-15.4465521185
 20
17.2473860363
 11
-15.4430385248
 21
17.7272074373
  0
LINE
  5
38C
100
AcDbEntity
  8
0
100
AcDbLine
 62
7
  6
CONTINUOUS
 10
-16.7823764225
 20
1.5665275502
 11
-16.7878480973
 21
1.4895426337
  0
LINE
  5
38D
100
AcDbEntity
  8
0
100
AcDbLine
 62
7
  6
CONTINUOUS
 10
-20.3000177601
 20
3.933788733
 11
-20.3319326499
 21
3.7775389715
  0
LINE
  5
38E
100
AcDbEntity
  8
0
100
AcDbLine
 62
7
  6
CONTINUOUS
 10
-20.8425709763
 20
5.2775389715
 11
-20.8744858661
 21
5.152538733
  0
LINE
  5
38F
100
AcDbEntity
  8
0
100
AcDbLine
 62
7
  6
CONTINUOUS
 10
-4.0489539721
 20
39.990038733
 11
-3.9851241925
 21
40.083788733
  0
LINE
  5
390
100
AcDbEntity
  8
0
100
AcDbLine
 62
7
  6
CONTINUOUS
 10
-4.0170390823
 20
36.177538882
 11
-4.1446986416
 21
36.0525388224
  0
LINE
  5
391
100
AcDbEntity
  8
0
100
AcDbLine
 62
7
  6
CONTINUOUS
 10
-2.9638475621
 20
36.5837888522
 11
-2.8681028814
 21
36.6775388522
  0
LINE
  5
392
100
AcDbEntity
  8
DRAFT
100
AcDbLine
 62
7
  6
CONTINUOUS
 10
-22.090443311
 20
21.9837888522
 11
-22.0380781162
 21
22.0099694556
  0
LINE
  5
393
100
AcDbEntity
  8
0
100
AcDbLine
 62
7
  6
CONTINUOUS
 10
-18.686523311
 20
17.1738818522
 11
-17.918124311
 21
17.1738818522
  0
LINE
  5
394
100
AcDbEntity
  8
0
100
AcDbLine
 62
7
  6
CONTINUOUS
 10
-17.802460311
 20
17.3089578522
 11
-18.802187311
 21
17.3089578522
  0
LINE
  5
395
100
AcDbEntity
  8
0
100
AcDbLine
 62
253
  6
CONTINUOUS
 10
-15.1430499478
 20
17.5343711544
 11
-14.9378366742
 21
17.5343711544
  0
LINE
  5
396
100
AcDbEntity
  8
0
100
AcDbLine
 62
253
  6
CONTINUOUS
 10
-9.4430499478
 20
17.5343711544
 11
-9.2378366742
 21
17.5343711544
  0
LINE
  5
397
100
AcDbEntity
  8
0
100
AcDbLine
 62
7
  6
CONTINUOUS
 10
-20.240307311
 20
17.5715078522
 11
-19.427904311
 21
17.5715078522
  0
LINE
  5
398
100
AcDbEntity
  8
0
100
AcDbLine
 62
7
  6
CONTINUOUS
 10
-19.240579311
 20
17.7025398522
 11
-20.240307311
 21
17.7025398522
  0
LINE
  5
399
100
AcDbEntity
  8
0
100
AcDbLine
 62
253
  6
CONTINUOUS
 10
-15.4430385248
 20
17.7272074373
 11
-14.6378480973
 21
17.7272074373
  0
LINE
  5
39A
100
AcDbEntity
  8
0
100
AcDbLine
 62
253
  6
CONTINUOUS
 10
-9.7430385248
 20
17.7272074373
 11
-8.9378480973
 21
17.7272074373
  0
LINE
  5
39B
100
AcDbEntity
  8
0
100
AcDbLine
 62
7
  6
CONTINUOUS
 10
-20.240307311
 20
17.9337068522
 11
-19.240579311
 21
17.9337068522
  0
LINE
  5
39C
100
AcDbEntity
  8
0
100
AcDbLine
 62
7
  6
CONTINUOUS
 10
-19.240579311
 20
18.0688638522
 11
-20.240307311
 21
18.0688638522
  0
LINE
  5
39D
100
AcDbEntity
  8
0
100
AcDbLine
 62
7
  6
CONTINUOUS
 10
-20.797598311
 20
18.1113278522
 11
-20.677890311
 21
18.1113278522
  0
LINE
  5
39E
100
AcDbEntity
  8
0
100
AcDbLine
 62
7
  6
CONTINUOUS
 10
-21.678426311
 20
18.4498278522
 11
-20.797598311
 21
18.4498278522
  0
LINE
  5
39F
100
AcDbEntity
  8
0
100
AcDbLine
 62
7
  6
CONTINUOUS
 10
-18.802187311
 20
18.4512028522
 11
-17.802460311
 21
18.4512028522
  0
LINE
  5
3A0
100
AcDbEntity
  8
0
100
AcDbLine
 62
7
  6
CONTINUOUS
 10
-17.962611311
 20
18.5821548522
 11
-18.802187311
 21
18.5821548522
  0
LINE
  5
3A1
100
AcDbEntity
  8
0
100
AcDbLine
 62
7
  6
CONTINUOUS
 10
-20.797598311
 20
18.5849048522
 11
-21.678426311
 21
18.5849048522
  0
LINE
  5
3A2
100
AcDbEntity
  8
RACCORDO
100
AcDbLine
 62
253
  6
CONTINUOUS
 10
-22.0380781162
 20
21.5575701722
 11
-22.090443311
 21
21.5837507756
  0
LINE
  5
3A3
100
AcDbEntity
  8
RACCORDO
100
AcDbLine
 62
7
  6
CONTINUOUS
 10
-22.1486713128
 20
21.7364887963
 11
-22.2010365076
 21
21.7626693997
  0
LINE
  5
3A4
100
AcDbEntity
  8
0
100
AcDbLine
 62
253
  6
CONTINUOUS
 10
-14.9378366742
 20
17.5343711544
 11
-14.9323403765
 21
16.7837888522
  0
LINE
  5
3A5
100
AcDbEntity
  8
0
100
AcDbLine
 62
253
  6
CONTINUOUS
 10
-14.6378480973
 20
17.7272074373
 11
-14.6343345036
 21
17.2473860363
  0
LINE
  5
3A6
100
AcDbEntity
  8
0
100
AcDbLine
 62
253
  6
CONTINUOUS
 10
-15.1430499478
 20
17.5343711544
 11
-15.1430499478
 21
18.8837888522
  0
LINE
  5
3A7
100
AcDbEntity
  8
0
100
AcDbLine
 62
253
  6
CONTINUOUS
 10
-15.140443311
 20
24.8837888522
 11
-15.140443311
 21
26.9837888522
  0
LINE
  5
3A8
100
AcDbEntity
  8
0
100
AcDbLine
 62
253
  6
CONTINUOUS
 10
-14.940443311
 20
24.3337888522
 11
-14.940443311
 21
26.9837888522
  0
LINE
  5
3A9
100
AcDbEntity
  8
0
100
AcDbLine
 62
253
  6
CONTINUOUS
 10
-14.9378366742
 20
17.5343711544
 11
-14.9378366742
 21
19.4337888522
  0
LINE
  5
3AA
100
AcDbEntity
  8
0
100
AcDbLine
 62
7
  6
CONTINUOUS
 10
-14.774708483
 20
44.075286283
 11
-14.774708483
 21
42.5201700053
  0
LINE
  5
3AB
100
AcDbEntity
  8
0
100
AcDbLine
 62
7
  6
CONTINUOUS
 10
-14.774708483
 20
-0.3077085785
 11
-14.774708483
 21
1.2474076992
  0
LINE
  5
3AC
100
AcDbEntity
  8
0
100
AcDbLine
 62
7
  6
CONTINUOUS
 10
-14.640443311
 20
24.3337888522
 11
-14.640443311
 21
26.5170717042
  0
LINE
  5
3AD
100
AcDbEntity
  8
0
100
AcDbLine
 62
253
  6
CONTINUOUS
 10
-14.6378480973
 20
17.7272074373
 11
-14.6378480973
 21
19.4337888522
  0
LINE
  5
3AE
100
AcDbEntity
  8
0
100
AcDbLine
 62
7
  6
CONTINUOUS
 10
-14.6343345036
 20
17.2473860363
 11
-14.6343345036
 21
19.4337888522
  0
LINE
  5
3AF
100
AcDbEntity
  8
0
100
AcDbLine
 62
253
  6
CONTINUOUS
 10
-14.4981783379
 20
-0.2825803147
 11
-14.4981783379
 21
1.3057787593
  0
LINE
  5
3B0
100
AcDbEntity
  8
0
100
AcDbLine
 62
253
  6
CONTINUOUS
 10
-14.4981783379
 20
42.4617989452
 11
-14.4981783379
 21
44.0501580192
  0
LINE
  5
3B1
100
AcDbEntity
  8
0
100
AcDbLine
 62
253
  6
CONTINUOUS
 10
-14.3249732572
 20
-0.2773339392
 11
-14.3249732572
 21
1.3179656936
  0
LINE
  5
3B2
100
AcDbEntity
  8
0
100
AcDbLine
 62
253
  6
CONTINUOUS
 10
-14.3249732572
 20
42.4496120109
 11
-14.3249732572
 21
44.0449116437
  0
LINE
  5
3B3
100
AcDbEntity
  8
0
100
AcDbLine
 62
253
  6
CONTINUOUS
 10
-15.1485462455
 20
16.7837888522
 11
-15.1430499478
 21
17.5343711544
  0
LINE
  5
3B4
100
AcDbEntity
  8
0
100
AcDbLine
 62
7
  6
CONTINUOUS
 10
-3.5702305356
 20
38.8025389715
 11
-3.665975205
 21
38.6462888522
  0
LINE
  5
3B5
100
AcDbEntity
  8
0
100
AcDbLine
 62
7
  6
CONTINUOUS
 10
-3.4106560865
 20
40.0212889715
 11
-3.3468263069
 21
40.1150389715
  0
LINE
  5
3B6
100
AcDbEntity
  8
0
100
AcDbLine
 62
7
  6
CONTINUOUS
 10
-3.5064007559
 20
38.6150389715
 11
-3.4425709763
 21
38.7087889715
  0
LINE
  5
3B7
100
AcDbEntity
  8
0
100
AcDbLine
 62
7
  6
CONTINUOUS
 10
-2.9000177824
 20
39.3025388522
 11
-2.8361879916
 21
39.3962888522
  0
LINE
  5
3B8
100
AcDbEntity
  8
0
100
AcDbLine
 62
7
  6
CONTINUOUS
 10
-4.0489539721
 20
37.1775389118
 11
-3.9851241925
 21
37.2712889118
  0
LINE
  5
3B9
100
AcDbEntity
  8
0
100
AcDbLine
 62
7
  6
CONTINUOUS
 10
-2.9319326722
 20
38.1775388522
 11
-2.9957624519
 21
38.0837888522
  0
LINE
  5
3BA
100
AcDbEntity
  8
0
100
AcDbLine
 62
253
  6
CONTINUOUS
 10
-16.8727336929
 20
21.0345111722
 11
-17.540443311
 21
20.3668015541
  0
LINE
  5
3BB
100
AcDbEntity
  8
0
100
AcDbLine
 62
253
  6
CONTINUOUS
 10
-17.1074306091
 20
19.9337888522
 11
-16.439720991
 21
20.6014984703
  0
LINE
  5
3BC
100
AcDbEntity
  8
0
100
AcDbLine
 62
7
  6
CONTINUOUS
 10
-5.578699311
 20
26.3276688522
 11
-6.578426311
 21
25.9654698522
  0
LINE
  5
3BD
100
AcDbEntity
  8
0
100
AcDbLine
 62
7
  6
CONTINUOUS
 10
-5.869881311
 20
26.0811338522
 11
-5.578699311
 21
26.1800548522
  0
LINE
  5
3BE
100
AcDbEntity
  8
0
100
AcDbLine
 62
7
  6
CONTINUOUS
 10
-6.433530311
 20
25.8833468522
 11
-5.989590311
 21
26.0323608522
  0
LINE
  5
3BF
100
AcDbEntity
  8
0
100
AcDbLine
 62
7
  6
CONTINUOUS
 10
-15.9965635416
 20
18.8776800448
 11
-15.4465521185
 21
18.8776800448
  0
LINE
  5
3C0
100
AcDbEntity
  8
0
100
AcDbLine
 62
7
  6
CONTINUOUS
 10
-8.9343345036
 20
18.8776800448
 11
-8.3843230805
 21
18.8776800448
  0
LINE
  5
3C1
100
AcDbEntity
  8
0
100
AcDbLine
 62
7
  6
CONTINUOUS
 10
-15.9904547341
 20
18.8837888522
 11
-15.1430499478
 21
18.8837888522
  0
LINE
  5
3C2
100
AcDbEntity
  8
0
100
AcDbLine
 62
7
  6
CONTINUOUS
 10
-9.2378366742
 20
18.8837888522
 11
-8.3904318879
 21
18.8837888522
  0
LINE
  5
3C3
100
AcDbEntity
  8
0
100
AcDbLine
 62
7
  6
CONTINUOUS
 10
-20.677890311
 20
18.9234048522
 11
-20.797598311
 21
18.9234048522
  0
LINE
  5
3C4
100
AcDbEntity
  8
0
100
AcDbLine
 62
7
  6
CONTINUOUS
 10
-21.678426311
 20
19.0683488522
 11
-20.677890311
 21
19.0683488522
  0
LINE
  5
3C5
100
AcDbEntity
  8
0
100
AcDbLine
 62
7
  6
CONTINUOUS
 10
-20.677890311
 20
19.2035058522
 11
-21.678426311
 21
19.2035058522
  0
LINE
  5
3C6
100
AcDbEntity
  8
0
100
AcDbLine
 62
7
  6
CONTINUOUS
 10
-18.802187311
 20
19.2786478522
 11
-17.964228311
 21
19.2786478522
  0
LINE
  5
3C7
100
AcDbEntity
  8
0
100
AcDbLine
 62
7
  6
CONTINUOUS
 10
-17.802460311
 20
19.4095988522
 11
-18.802187311
 21
19.4095988522
  0
LINE
  5
3C8
100
AcDbEntity
  8
0
100
AcDbLine
 62
7
  6
CONTINUOUS
 10
-17.1404090405
 20
19.4337888522
 11
-16.290443311
 21
19.4337888522
  0
LINE
  5
3C9
100
AcDbEntity
  8
0
100
AcDbLine
 62
7
  6
CONTINUOUS
 10
-14.9378366742
 20
19.4337888522
 11
-9.4430499478
 21
19.4337888522
  0
LINE
  5
3CA
100
AcDbEntity
  8
0
100
AcDbLine
 62
7
  6
CONTINUOUS
 10
-8.090443311
 20
19.4337888522
 11
-7.2404775816
 21
19.4337888522
  0
LINE
  5
3CB
100
AcDbEntity
  8
0
100
AcDbLine
 62
7
  6
CONTINUOUS
 10
-7.2734560129
 20
19.9337888522
 11
-17.1074306091
 21
19.9337888522
  0
LINE
  5
3CC
100
AcDbEntity
  8
0
100
AcDbLine
 62
253
  6
CONTINUOUS
 10
-18.040443311
 20
20.3337888522
 11
-18.0465521185
 21
20.3337888522
  0
LINE
  5
3CD
100
AcDbEntity
  8
0
100
AcDbLine
 62
253
  6
CONTINUOUS
 10
-6.340443311
 20
20.3337888522
 11
-6.3343345036
 21
20.3337888522
  0
LINE
  5
3CE
100
AcDbEntity
  8
0
100
AcDbLine
 62
253
  6
CONTINUOUS
 10
-17.540443311
 20
23.4007761504
 11
-16.8727336929
 21
22.7330665323
  0
LINE
  5
3CF
100
AcDbEntity
  8
0
100
AcDbLine
 62
253
  6
CONTINUOUS
 10
-16.439720991
 20
23.1660792342
 11
-17.1074306091
 21
23.8337888522
  0
LINE
  5
3D0
100
AcDbEntity
  8
0
100
AcDbLine
 62
7
  6
CONTINUOUS
 10
-20.9383156457
 20
3.5275388522
 11
-20.8744858661
 21
3.6837889715
  0
LINE
  5
3D1
100
AcDbEntity
  8
0
100
AcDbLine
 62
7
  6
CONTINUOUS
 10
-4.1446986416
 20
40.1462888522
 11
-4.2085284212
 21
40.0212889715
  0
LINE
  5
3D2
100
AcDbEntity
  8
0
100
AcDbLine
 62
7
  6
CONTINUOUS
 10
-20.2361879805
 20
7.715038882
 11
-20.1723582008
 21
7.8400388522
  0
LINE
  5
3D3
100
AcDbEntity
  8
0
100
AcDbLine
 62
7
  6
CONTINUOUS
 10
-21.5446986304
 20
4.3712888522
 11
-21.6085284184
 21
4.2462889715
  0
LINE
  5
3D4
100
AcDbEntity
  8
0
100
AcDbLine
 62
7
  6
CONTINUOUS
 10
-21.4489539498
 20
4.2462889715
 11
-21.41703906
 21
4.308788733
  0
LINE
  5
3D5
100
AcDbEntity
  8
0
100
AcDbLine
 62
7
  6
CONTINUOUS
 10
-4.1127837518
 20
37.3650389118
 11
-4.2085284212
 21
37.2087887926
  0
LINE
  5
3D6
100
AcDbEntity
  8
0
100
AcDbLine
 62
7
  6
CONTINUOUS
 10
-2.8681028814
 20
37.9900388522
 11
-2.7723582036
 21
38.1462889715
  0
LINE
  5
3D7
100
AcDbEntity
  8
0
100
AcDbLine
 62
7
  6
CONTINUOUS
 10
-21.5127837406
 20
7.0900388522
 11
-21.6085284184
 21
6.9337889118
  0
LINE
  5
3D8
100
AcDbEntity
  8
0
100
AcDbLine
 62
7
  6
CONTINUOUS
 10
-2.8681028814
 20
36.6775388522
 11
-2.7723582036
 21
36.8337887926
  0
LINE
  5
3D9
100
AcDbEntity
  8
0
100
AcDbLine
 62
7
  6
CONTINUOUS
 10
-4.0489539721
 20
35.8650388224
 11
-3.9851241925
 21
35.9587888224
  0
LINE
  5
3DA
100
AcDbEntity
  8
0
100
AcDbLine
 62
7
  6
CONTINUOUS
 10
-2.9319326722
 20
36.8650388522
 11
-2.9957624519
 21
36.7712888522
  0
LINE
  5
3DB
100
AcDbEntity
  8
0
100
AcDbLine
 62
253
  6
CONTINUOUS
 10
-16.290443311
 20
19.1837774292
 11
-16.2965521185
 21
19.1776686217
  0
LINE
  5
3DC
100
AcDbEntity
  8
0
100
AcDbLine
 62
253
  6
CONTINUOUS
 10
-15.9904547341
 20
18.8837888522
 11
-15.9965635416
 21
18.8776800448
  0
LINE
  5
3DD
100
AcDbEntity
  8
0
100
AcDbLine
 62
7
  6
CONTINUOUS
 10
-15.4430385248
 20
18.8811936385
 11
-15.4465521185
 21
18.8776800448
  0
LINE
  5
3DE
100
AcDbEntity
  8
0
100
AcDbLine
 62
7
  6
CONTINUOUS
 10
-20.677890311
 20
16.5776848522
 11
-21.275623311
 21
16.2001178522
  0
LINE
  5
3DF
100
AcDbEntity
  8
0
100
AcDbLine
 62
7
  6
CONTINUOUS
 10
-3.702996311
 20
27.1898928522
 11
-3.105263311
 21
27.5674598522
  0
LINE
  5
3E0
100
AcDbEntity
  8
0
100
AcDbLine
 62
7
  6
CONTINUOUS
 10
-19.427904311
 20
17.5715078522
 11
-20.240307311
 21
17.0603198522
  0
LINE
  5
3E1
100
AcDbEntity
  8
0
100
AcDbLine
 62
7
  6
CONTINUOUS
 10
-4.952982311
 20
26.1960698522
 11
-4.140579311
 21
26.7072578522
  0
LINE
  5
3E2
100
AcDbEntity
  8
0
100
AcDbLine
 62
7
  6
CONTINUOUS
 10
-20.052372311
 20
17.0393708522
 11
-19.240579311
 21
17.5423088522
  0
LINE
  5
3E3
100
AcDbEntity
  8
0
100
AcDbLine
 62
7
  6
CONTINUOUS
 10
-4.328514311
 20
26.7282068522
 11
-5.140307311
 21
26.2252688522
  0
LINE
  5
3E4
100
AcDbEntity
  8
0
100
AcDbLine
 62
7
  6
CONTINUOUS
 10
-3.222545311
 20
27.6342698522
 11
-3.702996311
 21
27.3472938522
  0
LINE
  5
3E5
100
AcDbEntity
  8
0
100
AcDbLine
 62
7
  6
CONTINUOUS
 10
-2.702460311
 20
26.5867398522
 11
-3.702996311
 21
26.2245408522
  0
LINE
  5
3E6
100
AcDbEntity
  8
0
100
AcDbLine
 62
7
  6
CONTINUOUS
 10
-2.993643311
 20
26.3402058522
 11
-2.702460311
 21
26.4391268522
  0
LINE
  5
3E7
100
AcDbEntity
  8
0
100
AcDbLine
 62
7
  6
CONTINUOUS
 10
-5.728987311
 20
24.8385548522
 11
-6.578426311
 21
24.5516158522
  0
LINE
  5
3E8
100
AcDbEntity
  8
0
100
AcDbLine
 62
7
  6
CONTINUOUS
 10
-6.416658311
 20
24.4889298522
 11
-5.578699311
 21
24.7703258522
  0
LINE
  5
3E9
100
AcDbEntity
  8
0
100
AcDbLine
 62
7
  6
CONTINUOUS
 10
-3.557290311
 20
26.1424188522
 11
-3.113351311
 21
26.2914328522
  0
LINE
  5
3EA
100
AcDbEntity
  8
0
100
AcDbLine
 62
253
  6
CONTINUOUS
 10
-7.5042293308
 20
21.5466945695
 11
-6.840443311
 21
21.5567279464
  0
LINE
  5
3EB
100
AcDbEntity
  8
0
100
AcDbLine
 62
7
  6
CONTINUOUS
 10
-7.3072590537
 20
21.7470766356
 11
-6.6125246388
 21
21.7575778092
  0
LINE
  5
3EC
100
AcDbEntity
  8
0
100
AcDbLine
 62
7
  6
CONTINUOUS
 10
-17.0736275683
 20
22.0205010688
 11
-17.7683619833
 21
22.0099998953
  0
LINE
  5
3ED
100
AcDbEntity
  8
0
100
AcDbLine
 62
7
  6
CONTINUOUS
 10
-6.6084955498
 20
21.7576082489
 11
-6.6125453377
 21
21.75757557
  0
LINE
  5
3EE
100
AcDbEntity
  8
0
100
AcDbLine
 62
7
  6
CONTINUOUS
 10
-17.7723910722
 20
22.0099694556
 11
-17.7683412844
 21
22.0100021345
  0
LINE
  5
3EF
100
AcDbEntity
  8
RACCORDO
100
AcDbLine
 62
7
  6
CONTINUOUS
 10
-21.8293201182
 20
20.5225467878
 11
-18.0465521185
 21
20.5225467878
  0
LINE
  5
3F0
100
AcDbEntity
  8
RACCORDO
100
AcDbLine
 62
7
  6
CONTINUOUS
 10
-6.3343345036
 20
20.5225467878
 11
-2.554753255
 21
20.5225467878
  0
LINE
  5
3F1
100
AcDbEntity
  8
DRAFT
100
AcDbLine
 62
7
  6
CONTINUOUS
 10
-22.0380781162
 20
20.5837888522
 11
-18.040443311
 21
20.5837888522
  0
LINE
  5
3F2
100
AcDbEntity
  8
RACCORDO
100
AcDbLine
 62
7
  6
CONTINUOUS
 10
-6.340443311
 20
20.5837888522
 11
-2.5425347096
 21
20.5837888522
  0
LINE
  5
3F3
100
AcDbEntity
  8
0
100
AcDbLine
 62
7
  6
CONTINUOUS
 10
-8.0042102923
 20
20.597574872
 11
-16.3766763297
 21
20.597574872
  0
LINE
  5
3F4
100
AcDbEntity
  8
RACCORDO
100
AcDbLine
 62
7
  6
CONTINUOUS
 10
-22.190913435
 20
21.7576082489
 11
-17.7723910722
 21
21.7576082489
  0
LINE
  5
3F5
100
AcDbEntity
  8
0
100
AcDbLine
 62
7
  6
CONTINUOUS
 10
-6.6084955498
 20
21.7576082489
 11
-2.3428085058
 21
21.7576082489
  0
LINE
  5
3F6
100
AcDbEntity
  8
RACCORDO
100
AcDbLine
 62
7
  6
CONTINUOUS
 10
-23.0903671093
 20
21.7837888522
 11
-22.2905042411
 21
21.7837888522
  0
LINE
  5
3F7
100
AcDbEntity
  8
0
100
AcDbLine
 62
7
  6
CONTINUOUS
 10
-2.290443311
 20
21.7837888522
 11
-1.2905195128
 21
21.7837888522
  0
LINE
  5
3F8
100
AcDbEntity
  8
RACCORDO
100
AcDbLine
 62
7
  6
CONTINUOUS
 10
-1.2905195128
 20
21.9837888522
 11
-2.090382381
 21
21.9837888522
  0
LINE
  5
3F9
100
AcDbEntity
  8
0
100
AcDbLine
 62
7
  6
CONTINUOUS
 10
-22.090443311
 20
21.9837888522
 11
-23.0903671093
 21
21.9837888522
  0
LINE
  5
3FA
100
AcDbEntity
  8
RACCORDO
100
AcDbLine
 62
7
  6
CONTINUOUS
 10
-2.189973187
 20
22.0099694556
 11
-6.6084955498
 21
22.0099694556
  0
LINE
  5
3FB
100
AcDbEntity
  8
0
100
AcDbLine
 62
7
  6
CONTINUOUS
 10
-17.7723910722
 20
22.0099694556
 11
-22.0380781162
 21
22.0099694556
  0
LINE
  5
3FC
100
AcDbEntity
  8
0
100
AcDbLine
 62
7
  6
CONTINUOUS
 10
-17.7683412844
 20
21.75757557
 11
-17.7723910722
 21
21.7576082489
  0
LINE
  5
3FD
100
AcDbEntity
  8
0
100
AcDbLine
 62
7
  6
CONTINUOUS
 10
-6.6125453377
 20
22.0100021345
 11
-6.6084955498
 21
22.0099694556
  0
LINE
  5
3FE
100
AcDbEntity
  8
0
100
AcDbLine
 62
253
  6
CONTINUOUS
 10
-17.540443311
 20
21.5567279464
 11
-16.8766572913
 21
21.5466945695
  0
LINE
  5
3FF
100
AcDbEntity
  8
0
100
AcDbLine
 62
7
  6
CONTINUOUS
 10
-17.7683619833
 20
21.7575778092
 11
-17.0736275683
 21
21.7470766356
  0
LINE
  5
400
100
AcDbEntity
  8
0
100
AcDbLine
 62
7
  6
CONTINUOUS
 10
-6.6125246388
 20
22.0099998953
 11
-7.3072590537
 21
22.0205010688
  0
LINE
  5
401
100
AcDbEntity
  8
0
100
AcDbLine
 62
7
  6
CONTINUOUS
 10
-8.9378480973
 20
18.8811936385
 11
-8.9343345036
 21
18.8776800448
  0
LINE
  5
402
100
AcDbEntity
  8
0
100
AcDbLine
 62
7
  6
CONTINUOUS
 10
-3.4425709763
 20
40.2400388522
 11
-3.5064007559
 21
40.083788733
  0
LINE
  5
403
100
AcDbEntity
  8
0
100
AcDbLine
 62
7
  6
CONTINUOUS
 10
-2.9319326722
 20
39.521288733
 11
-2.9638475621
 21
39.4587889715
  0
LINE
  5
404
100
AcDbEntity
  8
0
100
AcDbLine
 62
7
  6
CONTINUOUS
 10
-2.8361879916
 20
39.3962888522
 11
-2.7723582036
 21
39.521288733
  0
LINE
  5
405
100
AcDbEntity
  8
0
100
AcDbLine
 62
7
  6
CONTINUOUS
 10
-4.1446986416
 20
36.0525388224
 11
-4.2085284212
 21
35.9275388522
  0
LINE
  5
406
100
AcDbEntity
  8
0
100
AcDbLine
 62
7
  6
CONTINUOUS
 10
-20.2361879805
 20
3.6212888522
 11
-20.1723582008
 21
3.746288733
  0
LINE
  5
407
100
AcDbEntity
  8
0
100
AcDbLine
 62
7
  6
CONTINUOUS
 10
-21.5127837406
 20
5.7775388522
 11
-21.6085284184
 21
5.621288733
  0
LINE
  5
408
100
AcDbEntity
  8
0
100
AcDbLine
 62
7
  6
CONTINUOUS
 10
-20.2681028703
 20
6.4025387926
 11
-20.1723582008
 21
6.5587889118
  0
LINE
  5
409
100
AcDbEntity
  8
0
100
AcDbLine
 62
7
  6
CONTINUOUS
 10
-20.8106560865
 20
4.965038733
 11
-20.7149114171
 21
5.1212888522
  0
LINE
  5
40A
100
AcDbEntity
  8
0
100
AcDbLine
 62
7
  6
CONTINUOUS
 10
-21.4489539498
 20
6.9025388522
 11
-21.3851241702
 21
6.9962888522
  0
LINE
  5
40B
100
AcDbEntity
  8
0
100
AcDbLine
 62
7
  6
CONTINUOUS
 10
-20.3319326499
 20
7.902538882
 11
-20.3957624295
 21
7.808788882
  0
LINE
  5
40C
100
AcDbEntity
  8
0
100
AcDbLine
 62
7
  6
CONTINUOUS
 10
-21.4489539498
 20
5.5900388522
 11
-21.3851241702
 21
5.6837888522
  0
LINE
  5
40D
100
AcDbEntity
  8
0
100
AcDbLine
 62
7
  6
CONTINUOUS
 10
-20.3319326499
 20
6.5900387926
 11
-20.3957624295
 21
6.4962887926
  0
LINE
  5
40E
100
AcDbEntity
  8
0
100
AcDbLine
 62
7
  6
CONTINUOUS
 10
-21.158341311
 20
16.1333078522
 11
-20.677890311
 21
16.4202838522
  0
LINE
  5
40F
100
AcDbEntity
  8
0
100
AcDbLine
 62
7
  6
CONTINUOUS
 10
-21.678426311
 20
17.1808378522
 11
-20.677890311
 21
17.5430368522
  0
LINE
  5
410
100
AcDbEntity
  8
0
100
AcDbLine
 62
7
  6
CONTINUOUS
 10
-21.387243311
 20
17.4273718522
 11
-21.678426311
 21
17.3284508522
  0
LINE
  5
411
100
AcDbEntity
  8
0
100
AcDbLine
 62
7
  6
CONTINUOUS
 10
-18.651899311
 20
18.9290228522
 11
-17.802460311
 21
19.2159618522
  0
LINE
  5
412
100
AcDbEntity
  8
0
100
AcDbLine
 62
7
  6
CONTINUOUS
 10
-17.964228311
 20
19.2786478522
 11
-18.802187311
 21
18.9972518522
  0
LINE
  5
413
100
AcDbEntity
  8
0
100
AcDbLine
 62
7
  6
CONTINUOUS
 10
-20.823596311
 20
17.6251588522
 11
-21.267535311
 21
17.4761448522
  0
LINE
  5
414
100
AcDbEntity
  8
0
100
AcDbLine
 62
253
  6
CONTINUOUS
 10
-16.8766572913
 20
22.2208831349
 11
-17.540443311
 21
22.2108497581
  0
LINE
  5
415
100
AcDbEntity
  8
0
100
AcDbLine
 62
7
  6
CONTINUOUS
 10
-16.3766763297
 20
23.1700028325
 11
-8.0042102923
 21
23.1700028325
  0
LINE
  5
416
100
AcDbEntity
  8
DRAFT
100
AcDbLine
 62
7
  6
CONTINUOUS
 10
-2.3428085058
 20
23.236154047
 11
-6.340443311
 21
23.236154047
  0
LINE
  5
417
100
AcDbEntity
  8
RACCORDO
100
AcDbLine
 62
7
  6
CONTINUOUS
 10
-18.040443311
 20
23.236154047
 11
-21.8383519125
 21
23.236154047
  0
LINE
  5
418
100
AcDbEntity
  8
RACCORDO
100
AcDbLine
 62
7
  6
CONTINUOUS
 10
-2.5515665039
 20
23.2973961115
 11
-6.340443311
 21
23.2973961115
  0
LINE
  5
419
100
AcDbEntity
  8
RACCORDO
100
AcDbLine
 62
7
  6
CONTINUOUS
 10
-18.040443311
 20
23.2973961115
 11
-21.826133367
 21
23.2973961115
  0
LINE
  5
41A
100
AcDbEntity
  8
0
100
AcDbLine
 62
253
  6
CONTINUOUS
 10
-6.840443311
 20
22.2108497581
 11
-7.5042293308
 21
22.2208831349
  0
LINE
  5
41B
100
AcDbEntity
  8
0
100
AcDbLine
 62
253
  6
CONTINUOUS
 10
-8.3904318879
 20
18.8837888522
 11
-8.3843230805
 21
18.8776800448
  0
LINE
  5
41C
100
AcDbEntity
  8
0
100
AcDbLine
 62
253
  6
CONTINUOUS
 10
-8.090443311
 20
19.1837774292
 11
-8.0843345036
 21
19.1776686217
  0
LINE
  5
41D
100
AcDbEntity
  8
0
100
AcDbLine
 62
7
  6
CONTINUOUS
 10
-7.5985101996
 20
1.5665275502
 11
-7.5930385248
 21
1.4895426337
  0
LINE
  5
41E
100
AcDbEntity
  8
0
100
AcDbLine
 62
253
  6
CONTINUOUS
 10
-9.2378366742
 20
17.5343711544
 11
-9.2323403765
 21
16.7837888522
  0
LINE
  5
41F
100
AcDbEntity
  8
0
100
AcDbLine
 62
253
  6
CONTINUOUS
 10
-8.9378480973
 20
17.7272074373
 11
-8.9343345036
 21
17.2473860363
  0
LINE
  5
420
100
AcDbEntity
  8
0
100
AcDbLine
 62
253
  6
CONTINUOUS
 10
-10.0559133649
 20
44.0449116437
 11
-10.0559133649
 21
42.4496120109
  0
LINE
  5
421
100
AcDbEntity
  8
0
100
AcDbLine
 62
253
  6
CONTINUOUS
 10
-10.0559133649
 20
1.3179656936
 11
-10.0559133649
 21
-0.2773339392
  0
LINE
  5
422
100
AcDbEntity
  8
0
100
AcDbLine
 62
253
  6
CONTINUOUS
 10
-9.8827082841
 20
44.0501580192
 11
-9.8827082841
 21
42.4617989452
  0
LINE
  5
423
100
AcDbEntity
  8
0
100
AcDbLine
 62
253
  6
CONTINUOUS
 10
-9.8827082841
 20
1.3057787593
 11
-9.8827082841
 21
-0.2825803147
  0
LINE
  5
424
100
AcDbEntity
  8
0
100
AcDbLine
 62
7
  6
CONTINUOUS
 10
-9.7465521185
 20
19.4337888522
 11
-9.7465521185
 21
17.2473860363
  0
LINE
  5
425
100
AcDbEntity
  8
0
100
AcDbLine
 62
253
  6
CONTINUOUS
 10
-9.7430385248
 20
19.4337888522
 11
-9.7430385248
 21
17.7272074373
  0
LINE
  5
426
100
AcDbEntity
  8
0
100
AcDbLine
 62
7
  6
CONTINUOUS
 10
-9.740443311
 20
24.3337888522
 11
-9.740443311
 21
26.5170717042
  0
LINE
  5
427
100
AcDbEntity
  8
0
100
AcDbLine
 62
7
  6
CONTINUOUS
 10
-9.606178139
 20
44.075286283
 11
-9.606178139
 21
42.5201700053
  0
LINE
  5
428
100
AcDbEntity
  8
0
100
AcDbLine
 62
7
  6
CONTINUOUS
 10
-9.606178139
 20
-0.3077085785
 11
-9.606178139
 21
1.2474076992
  0
LINE
  5
429
100
AcDbEntity
  8
0
100
AcDbLine
 62
253
  6
CONTINUOUS
 10
-9.4430499478
 20
17.5343711544
 11
-9.4430499478
 21
19.4337888522
  0
LINE
  5
42A
100
AcDbEntity
  8
0
100
AcDbLine
 62
253
  6
CONTINUOUS
 10
-9.440443311
 20
24.3337888522
 11
-9.440443311
 21
26.9837888522
  0
LINE
  5
42B
100
AcDbEntity
  8
0
100
AcDbLine
 62
253
  6
CONTINUOUS
 10
-9.240443311
 20
24.8837888522
 11
-9.240443311
 21
26.9837888522
  0
LINE
  5
42C
100
AcDbEntity
  8
0
100
AcDbLine
 62
253
  6
CONTINUOUS
 10
-9.2378366742
 20
17.5343711544
 11
-9.2378366742
 21
18.8837888522
  0
LINE
  5
42D
100
AcDbEntity
  8
0
100
AcDbLine
 62
7
  6
CONTINUOUS
 10
-8.940443311
 20
24.8837888522
 11
-8.940443311
 21
26.5170717042
  0
LINE
  5
42E
100
AcDbEntity
  8
0
100
AcDbLine
 62
253
  6
CONTINUOUS
 10
-8.9378480973
 20
17.7272074373
 11
-8.9378480973
 21
18.8811936385
  0
LINE
  5
42F
100
AcDbEntity
  8
0
100
AcDbLine
 62
7
  6
CONTINUOUS
 10
-8.9343345036
 20
17.2473860363
 11
-8.9343345036
 21
18.8776800448
  0
LINE
  5
430
100
AcDbEntity
  8
0
100
AcDbLine
 62
253
  6
CONTINUOUS
 10
-9.7465521185
 20
17.2473860363
 11
-9.7430385248
 21
17.7272074373
  0
LINE
  5
431
100
AcDbEntity
  8
0
100
AcDbLine
 62
253
  6
CONTINUOUS
 10
-9.4485462455
 20
16.7837888522
 11
-9.4430499478
 21
17.5343711544
  0
LINE
  5
432
100
AcDbEntity
  8
0
100
AcDbLine
 62
7
  6
CONTINUOUS
 10
-21.4808688396
 20
4.4650388522
 11
-21.5446986304
 21
4.3712888522
  0
LINE
  5
433
100
AcDbEntity
  8
0
100
AcDbLine
 62
7
  6
CONTINUOUS
 10
-20.8744858661
 20
5.152538733
 11
-20.9383156457
 21
5.058788733
  0
LINE
  5
434
100
AcDbEntity
  8
0
100
AcDbLine
 62
7
  6
CONTINUOUS
 10
-20.9702305356
 20
3.746288733
 11
-21.0340603152
 21
3.652538733
  0
LINE
  5
435
100
AcDbEntity
  8
0
100
AcDbLine
 62
7
  6
CONTINUOUS
 10
-20.3319326499
 20
3.7775389715
 11
-20.3957624295
 21
3.6837889715
  0
LINE
  5
436
100
AcDbEntity
  8
0
100
AcDbLine
 62
253
  6
CONTINUOUS
 10
-7.2734560129
 20
23.8337888522
 11
-7.941165631
 21
23.1660792342
  0
LINE
  5
437
100
AcDbEntity
  8
0
100
AcDbLine
 62
253
  6
CONTINUOUS
 10
-7.5081529291
 20
22.7330665323
 11
-6.840443311
 21
23.4007761504
  0
LINE
  5
438
100
AcDbEntity
  8
0
100
AcDbLine
 62
7
  6
CONTINUOUS
 10
-18.802187311
 20
17.4399088522
 11
-17.802460311
 21
17.8021078522
  0
LINE
  5
439
100
AcDbEntity
  8
0
100
AcDbLine
 62
7
  6
CONTINUOUS
 10
-18.511005311
 20
17.6864438522
 11
-18.802187311
 21
17.5875228522
  0
LINE
  5
43A
100
AcDbEntity
  8
0
100
AcDbLine
 62
7
  6
CONTINUOUS
 10
-17.947356311
 20
17.8842308522
 11
-18.391296311
 21
17.7352168522
  0
LINE
  5
43B
100
AcDbEntity
  8
0
100
AcDbLine
 62
7
  6
CONTINUOUS
 10
-17.1074306091
 20
23.8337888522
 11
-7.2734560129
 21
23.8337888522
  0
LINE
  5
43C
100
AcDbEntity
  8
0
100
AcDbLine
 62
7
  6
CONTINUOUS
 10
-7.240443311
 20
24.3337888522
 11
-8.090443311
 21
24.3337888522
  0
LINE
  5
43D
100
AcDbEntity
  8
0
100
AcDbLine
 62
7
  6
CONTINUOUS
 10
-9.440443311
 20
24.3337888522
 11
-14.940443311
 21
24.3337888522
  0
LINE
  5
43E
100
AcDbEntity
  8
0
100
AcDbLine
 62
7
  6
CONTINUOUS
 10
-16.290443311
 20
24.3337888522
 11
-17.140443311
 21
24.3337888522
  0
LINE
  5
43F
100
AcDbEntity
  8
0
100
AcDbLine
 62
7
  6
CONTINUOUS
 10
-6.578426311
 20
24.3579788522
 11
-5.578699311
 21
24.3579788522
  0
LINE
  5
440
100
AcDbEntity
  8
0
100
AcDbLine
 62
7
  6
CONTINUOUS
 10
-5.578699311
 20
24.4889298522
 11
-6.416658311
 21
24.4889298522
  0
LINE
  5
441
100
AcDbEntity
  8
0
100
AcDbLine
 62
7
  6
CONTINUOUS
 10
-3.702996311
 20
24.5640718522
 11
-2.702460311
 21
24.5640718522
  0
LINE
  5
442
100
AcDbEntity
  8
0
100
AcDbLine
 62
7
  6
CONTINUOUS
 10
-2.702460311
 20
24.6992288522
 11
-3.702996311
 21
24.6992288522
  0
LINE
  5
443
100
AcDbEntity
  8
0
100
AcDbLine
 62
7
  6
CONTINUOUS
 10
-3.702996311
 20
24.8441728522
 11
-3.583288311
 21
24.8441728522
  0
LINE
  5
444
100
AcDbEntity
  8
0
100
AcDbLine
 62
7
  6
CONTINUOUS
 10
-8.390443311
 20
24.8837888522
 11
-9.240443311
 21
24.8837888522
  0
LINE
  5
445
100
AcDbEntity
  8
0
100
AcDbLine
 62
7
  6
CONTINUOUS
 10
-15.140443311
 20
24.8837888522
 11
-15.990443311
 21
24.8837888522
  0
LINE
  5
446
100
AcDbEntity
  8
0
100
AcDbLine
 62
7
  6
CONTINUOUS
 10
-3.583288311
 20
25.1826728522
 11
-2.702460311
 21
25.1826728522
  0
LINE
  5
447
100
AcDbEntity
  8
0
100
AcDbLine
 62
7
  6
CONTINUOUS
 10
-6.418275311
 20
25.1854228522
 11
-5.578699311
 21
25.1854228522
  0
LINE
  5
448
100
AcDbEntity
  8
0
100
AcDbLine
 62
7
  6
CONTINUOUS
 10
-5.578699311
 20
25.3163748522
 11
-6.578426311
 21
25.3163748522
  0
LINE
  5
449
100
AcDbEntity
  8
0
100
AcDbLine
 62
7
  6
CONTINUOUS
 10
-2.702460311
 20
25.3177498522
 11
-3.583288311
 21
25.3177498522
  0
LINE
  5
44A
100
AcDbEntity
  8
0
100
AcDbLine
 62
253
  6
CONTINUOUS
 10
-7.941165631
 20
20.6014984703
 11
-7.2734560129
 21
19.9337888522
  0
LINE
  5
44B
100
AcDbEntity
  8
0
100
AcDbLine
 62
253
  6
CONTINUOUS
 10
-6.840443311
 20
20.3668015541
 11
-7.5081529291
 21
21.0345111722
  0
LINE
  5
44C
100
AcDbEntity
  8
0
100
AcDbLine
 62
7
  6
CONTINUOUS
 10
-8.090443311
 20
19.1837774292
 11
-8.090443311
 21
19.4337888522
  0
LINE
  5
44D
100
AcDbEntity
  8
0
100
AcDbLine
 62
7
  6
CONTINUOUS
 10
-8.090443311
 20
24.3337888522
 11
-8.090443311
 21
24.5837888522
  0
LINE
  5
44E
100
AcDbEntity
  8
0
100
AcDbLine
 62
7
  6
CONTINUOUS
 10
-8.0843345036
 20
19.1776686217
 11
-8.0843345036
 21
19.4337888522
  0
LINE
  5
44F
100
AcDbEntity
  8
0
100
AcDbLine
 62
7
  6
CONTINUOUS
 10
-7.6000428656
 20
1.7650367805
 11
-7.6000428656
 21
2.3933998299
  0
LINE
  5
450
100
AcDbEntity
  8
0
100
AcDbLine
 62
253
  6
CONTINUOUS
 10
-7.5930385248
 20
2.3863954891
 11
-7.5930385248
 21
1.4895426337
  0
LINE
  5
451
100
AcDbEntity
  8
0
100
AcDbLine
 62
7
  6
CONTINUOUS
 10
-7.590443311
 20
42.2777136256
 11
-7.590443311
 21
41.3837888522
  0
LINE
  5
452
100
AcDbEntity
  8
0
100
AcDbLine
 62
7
  6
CONTINUOUS
 10
-7.5042293308
 20
22.670021871
 11
-7.5042293308
 21
22.2208831349
  0
LINE
  5
453
100
AcDbEntity
  8
0
100
AcDbLine
 62
7
  6
CONTINUOUS
 10
-7.5042293308
 20
21.5466945695
 11
-7.5042293308
 21
21.0975558335
  0
LINE
  5
454
100
AcDbEntity
  8
0
100
AcDbLine
 62
253
  6
CONTINUOUS
 10
-7.2930499478
 20
1.4530287106
 11
-7.2930499478
 21
2.686384066
  0
LINE
  5
455
100
AcDbEntity
  8
0
100
AcDbLine
 62
253
  6
CONTINUOUS
 10
-7.290443311
 20
41.0837888522
 11
-7.290443311
 21
42.3145489939
  0
LINE
  5
456
100
AcDbEntity
  8
0
100
AcDbLine
 62
253
  6
CONTINUOUS
 10
-7.090443311
 20
41.0837888522
 11
-7.090443311
 21
42.3145489939
  0
LINE
  5
457
100
AcDbEntity
  8
0
100
AcDbLine
 62
253
  6
CONTINUOUS
 10
-7.0878366742
 20
1.4530287106
 11
-7.0878366742
 21
2.686384066
  0
LINE
  5
458
100
AcDbEntity
  8
0
100
AcDbLine
 62
7
  6
CONTINUOUS
 10
-4.080868862
 20
39.8337889715
 11
-4.0489539721
 21
39.990038733
  0
LINE
  5
459
100
AcDbEntity
  8
0
100
AcDbLine
 62
7
  6
CONTINUOUS
 10
-4.080868862
 20
37.0212887926
 11
-4.0489539721
 21
37.1775389118
  0
LINE
  5
45A
100
AcDbEntity
  8
0
100
AcDbLine
 62
7
  6
CONTINUOUS
 10
-3.665975205
 20
38.6462888522
 11
-3.6978900948
 21
38.490038733
  0
LINE
  5
45B
100
AcDbEntity
  8
0
100
AcDbLine
 62
7
  6
CONTINUOUS
 10
-4.080868862
 20
35.7087888373
 11
-4.0489539721
 21
35.8650388224
  0
LINE
  5
45C
100
AcDbEntity
  8
0
100
AcDbLine
 62
7
  6
CONTINUOUS
 10
-3.5383156457
 20
38.490038733
 11
-3.5064007559
 21
38.6150389715
  0
LINE
  5
45D
100
AcDbEntity
  8
0
100
AcDbLine
 62
7
  6
CONTINUOUS
 10
-2.7723582036
 20
39.521288733
 11
-2.740443311
 21
39.6462889715
  0
LINE
  5
45E
100
AcDbEntity
  8
0
100
AcDbLine
 62
7
  6
CONTINUOUS
 10
-2.9000177824
 20
38.302538733
 11
-2.9319326722
 21
38.1775388522
  0
LINE
  5
45F
100
AcDbEntity
  8
0
100
AcDbLine
 62
7
  6
CONTINUOUS
 10
-21.41703906
 20
7.1837888522
 11
-21.5127837406
 21
7.0900388522
  0
LINE
  5
460
100
AcDbEntity
  8
0
100
AcDbLine
 62
7
  6
CONTINUOUS
 10
-20.3638475397
 20
7.5900388224
 11
-20.2361879805
 21
7.715038882
  0
LINE
  5
461
100
AcDbEntity
  8
DRAFT
100
AcDbLine
 62
7
  6
CONTINUOUS
 10
-2.290443311
 20
21.7837888522
 11
-2.3428085058
 21
21.7576082489
  0
LINE
  5
462
100
AcDbEntity
  8
0
100
AcDbLine
 62
7
  6
CONTINUOUS
 10
-3.583288311
 20
25.6562498522
 11
-3.702996311
 21
25.6562498522
  0
LINE
  5
463
100
AcDbEntity
  8
0
100
AcDbLine
 62
7
  6
CONTINUOUS
 10
-5.140307311
 20
25.6987138522
 11
-4.140579311
 21
25.6987138522
  0
LINE
  5
464
100
AcDbEntity
  8
0
100
AcDbLine
 62
7
  6
CONTINUOUS
 10
-4.140579311
 20
25.8338708522
 11
-5.140307311
 21
25.8338708522
  0
LINE
  5
465
100
AcDbEntity
  8
0
100
AcDbLine
 62
253
  6
CONTINUOUS
 10
-15.440443311
 20
26.0403702671
 11
-14.640443311
 21
26.0403702671
  0
LINE
  5
466
100
AcDbEntity
  8
0
100
AcDbLine
 62
253
  6
CONTINUOUS
 10
-9.740443311
 20
26.0403702671
 11
-8.940443311
 21
26.0403702671
  0
LINE
  5
467
100
AcDbEntity
  8
0
100
AcDbLine
 62
7
  6
CONTINUOUS
 10
-5.140307311
 20
26.0650378522
 11
-4.140579311
 21
26.0650378522
  0
LINE
  5
468
100
AcDbEntity
  8
0
100
AcDbLine
 62
7
  6
CONTINUOUS
 10
-4.140579311
 20
26.1960698522
 11
-4.952982311
 21
26.1960698522
  0
LINE
  5
469
100
AcDbEntity
  8
0
100
AcDbLine
 62
253
  6
CONTINUOUS
 10
-9.240443311
 20
26.2332065501
 11
-9.440443311
 21
26.2332065501
  0
LINE
  5
46A
100
AcDbEntity
  8
0
100
AcDbLine
 62
253
  6
CONTINUOUS
 10
-14.940443311
 20
26.2332065501
 11
-15.140443311
 21
26.2332065501
  0
LINE
  5
46B
100
AcDbEntity
  8
0
100
AcDbLine
 62
7
  6
CONTINUOUS
 10
-6.578426311
 20
26.4586198522
 11
-5.578699311
 21
26.4586198522
  0
LINE
  5
46C
100
AcDbEntity
  8
0
100
AcDbLine
 62
7
  6
CONTINUOUS
 10
-5.694363311
 20
26.5936958522
 11
-6.462762311
 21
26.5936958522
  0
LINE
  5
46D
100
AcDbEntity
  8
0
100
AcDbLine
 62
7
  6
CONTINUOUS
 10
-3.702996311
 20
26.7107358522
 11
-2.702460311
 21
26.7107358522
  0
LINE
  5
46E
100
AcDbEntity
  8
0
100
AcDbLine
 62
7
  6
CONTINUOUS
 10
-5.140307311
 20
26.7282068522
 11
-4.328514311
 21
26.7282068522
  0
LINE
  5
46F
100
AcDbEntity
  8
0
100
AcDbLine
 62
7
  6
CONTINUOUS
 10
-2.822169311
 20
26.8458118522
 11
-3.702996311
 21
26.8458118522
  0
LINE
  5
470
100
AcDbEntity
  8
0
100
AcDbLine
 62
7
  6
CONTINUOUS
 10
-4.140579311
 20
26.8590768522
 11
-5.140307311
 21
26.8590768522
  0
LINE
  5
471
100
AcDbEntity
  8
0
100
AcDbLine
 62
7
  6
CONTINUOUS
 10
-9.240443311
 20
26.9837888522
 11
-9.440443311
 21
26.9837888522
  0
LINE
  5
472
100
AcDbEntity
  8
0
100
AcDbLine
 62
7
  6
CONTINUOUS
 10
-14.940443311
 20
26.9837888522
 11
-15.140443311
 21
26.9837888522
  0
LINE
  5
473
100
AcDbEntity
  8
0
100
AcDbLine
 62
7
  6
CONTINUOUS
 10
-5.578699311
 20
24.9040278522
 11
-6.418275311
 21
25.1854228522
  0
LINE
  5
474
100
AcDbEntity
  8
0
100
AcDbLine
 62
7
  6
CONTINUOUS
 10
-6.578426311
 20
25.1241128522
 11
-5.728987311
 21
24.8385548522
  0
LINE
  5
475
100
AcDbEntity
  8
RACCORDO
100
AcDbLine
 62
7
  6
CONTINUOUS
 10
-2.2322153093
 20
22.0310889082
 11
-2.1798501145
 21
22.0049083048
  0
LINE
  5
476
100
AcDbEntity
  8
RACCORDO
100
AcDbLine
 62
253
  6
CONTINUOUS
 10
-2.3428085058
 20
22.2100075323
 11
-2.290443311
 21
22.1838269289
  0
LINE
  5
477
100
AcDbEntity
  8
DRAFT
100
AcDbLine
 62
7
  6
CONTINUOUS
 10
-6.340443311
 20
20.5837888522
 11
-6.3343345036
 21
20.5225467878
  0
LINE
  5
478
100
AcDbEntity
  8
0
100
AcDbLine
 62
7
  6
CONTINUOUS
 10
-6.840443311
 20
23.4007761504
 11
-6.840443311
 21
22.2108497581
  0
LINE
  5
479
100
AcDbEntity
  8
0
100
AcDbLine
 62
7
  6
CONTINUOUS
 10
-6.840443311
 20
21.5567279464
 11
-6.840443311
 21
20.3668015541
  0
LINE
  5
47A
100
AcDbEntity
  8
0
100
AcDbLine
 62
7
  6
CONTINUOUS
 10
-6.790443311
 20
41.3837888522
 11
-6.790443311
 21
42.2777136256
  0
LINE
  5
47B
100
AcDbEntity
  8
0
100
AcDbLine
 62
253
  6
CONTINUOUS
 10
-6.7878480973
 20
1.4895426337
 11
-6.7878480973
 21
2.3863954891
  0
LINE
  5
47C
100
AcDbEntity
  8
0
100
AcDbLine
 62
7
  6
CONTINUOUS
 10
-6.7808437565
 20
1.7650367805
 11
-6.7808437565
 21
2.3933998299
  0
LINE
  5
47D
100
AcDbEntity
  8
0
100
AcDbLine
 62
7
  6
CONTINUOUS
 10
-6.690443311
 20
28.523481473
 11
-6.690443311
 21
38.1440962315
  0
LINE
  5
47E
100
AcDbEntity
  8
0
100
AcDbLine
 62
7
  6
CONTINUOUS
 10
-6.590443311
 20
5.623481473
 11
-6.590443311
 21
15.2440962315
  0
LINE
  5
47F
100
AcDbEntity
  8
0
100
AcDbLine
 62
7
  6
CONTINUOUS
 10
-6.578426311
 20
28.1998118522
 11
-6.578426311
 21
27.4712888522
  0
LINE
  5
480
100
AcDbEntity
  8
0
100
AcDbLine
 62
7
  6
CONTINUOUS
 10
-6.578426311
 20
26.8639277133
 11
-6.578426311
 21
26.4586198522
  0
LINE
  5
481
100
AcDbEntity
  8
0
100
AcDbLine
 62
7
  6
CONTINUOUS
 10
-6.578426311
 20
25.9654698522
 11
-6.578426311
 21
25.8122748522
  0
LINE
  5
482
100
AcDbEntity
  8
0
100
AcDbLine
 62
7
  6
CONTINUOUS
 10
-6.578426311
 20
25.3163748522
 11
-6.578426311
 21
25.1241128522
  0
LINE
  5
483
100
AcDbEntity
  8
0
100
AcDbLine
 62
7
  6
CONTINUOUS
 10
-6.578426311
 20
24.5516158522
 11
-6.578426311
 21
24.3579788522
  0
LINE
  5
484
100
AcDbEntity
  8
0
100
AcDbLine
 62
7
  6
CONTINUOUS
 10
-6.462762311
 20
26.5936958522
 11
-6.462762311
 21
26.8458042286
  0
LINE
  5
485
100
AcDbEntity
  8
0
100
AcDbLine
 62
7
  6
CONTINUOUS
 10
-6.458717311
 20
27.6064458522
 11
-6.458717311
 21
28.1998118522
  0
LINE
  5
486
100
AcDbEntity
  8
0
100
AcDbLine
 62
7
  6
CONTINUOUS
 10
-6.340443311
 20
20.3337888522
 11
-6.340443311
 21
20.5837888522
  0
LINE
  5
487
100
AcDbEntity
  8
0
100
AcDbLine
 62
7
  6
CONTINUOUS
 10
-6.340443311
 20
23.236154047
 11
-6.340443311
 21
23.4337888522
  0
LINE
  5
488
100
AcDbEntity
  8
0
100
AcDbLine
 62
7
  6
CONTINUOUS
 10
-6.3343345036
 20
20.5225467878
 11
-6.3343345036
 21
20.3337888522
  0
LINE
  5
489
100
AcDbEntity
  8
0
100
AcDbLine
 62
7
  6
CONTINUOUS
 10
-6.242659311
 20
36.7453418522
 11
-6.242659311
 21
36.4322578522
  0
LINE
  5
48A
100
AcDbEntity
  8
0
100
AcDbLine
 62
7
  6
CONTINUOUS
 10
-6.242569311
 20
39.2575128522
 11
-6.242569311
 21
38.9546408522
  0
LINE
  5
48B
100
AcDbEntity
  8
0
100
AcDbLine
 62
7
  6
CONTINUOUS
 10
-6.242569311
 20
38.2947658522
 11
-6.242569311
 21
37.9849998522
  0
LINE
  5
48C
100
AcDbEntity
  8
0
100
AcDbLine
 62
7
  6
CONTINUOUS
 10
-6.242569311
 20
37.3621398522
 11
-6.242569311
 21
37.0493148522
  0
LINE
  5
48D
100
AcDbEntity
  8
0
100
AcDbLine
 62
7
  6
CONTINUOUS
 10
-6.242569311
 20
36.3160728522
 11
-6.242569311
 21
36.0032028522
  0
LINE
  5
48E
100
AcDbEntity
  8
0
100
AcDbLine
 62
7
  6
CONTINUOUS
 10
-6.242569311
 20
35.4226608522
 11
-6.242569311
 21
35.0825548522
  0
LINE
  5
48F
100
AcDbEntity
  8
0
100
AcDbLine
 62
7
  6
CONTINUOUS
 10
-6.152167311
 20
28.1538698522
 11
-6.152167311
 21
27.6064458522
  0
LINE
  5
490
100
AcDbEntity
  8
0
100
AcDbLine
 62
7
  6
CONTINUOUS
 10
-6.032458311
 20
27.6064458522
 11
-6.032458311
 21
28.1538698522
  0
LINE
  5
491
100
AcDbEntity
  8
0
100
AcDbLine
 62
7
  6
CONTINUOUS
 10
-5.989590311
 20
26.0323608522
 11
-5.989590311
 21
25.7217658522
  0
LINE
  5
492
100
AcDbEntity
  8
0
100
AcDbLine
 62
7
  6
CONTINUOUS
 10
-5.869881311
 20
25.6799488522
 11
-5.869881311
 21
26.0811338522
  0
LINE
  5
493
100
AcDbEntity
  8
0
100
AcDbLine
 62
7
  6
CONTINUOUS
 10
-5.698407311
 20
28.2095988522
 11
-5.698407311
 21
27.6064458522
  0
LINE
  5
494
100
AcDbEntity
  8
0
100
AcDbLine
 62
7
  6
CONTINUOUS
 10
-5.694363311
 20
26.8458174767
 11
-5.694363311
 21
26.5936958522
  0
LINE
  5
495
100
AcDbEntity
  8
0
100
AcDbLine
 62
7
  6
CONTINUOUS
 10
-5.578699311
 20
24.3579788522
 11
-5.578699311
 21
24.4889298522
  0
LINE
  5
496
100
AcDbEntity
  8
0
100
AcDbLine
 62
7
  6
CONTINUOUS
 10
-5.578699311
 20
24.7703258522
 11
-5.578699311
 21
24.9040278522
  0
LINE
  5
497
100
AcDbEntity
  8
0
100
AcDbLine
 62
7
  6
CONTINUOUS
 10
-5.578699311
 20
25.1854228522
 11
-5.578699311
 21
25.3163748522
  0
LINE
  5
498
100
AcDbEntity
  8
0
100
AcDbLine
 62
7
  6
CONTINUOUS
 10
-5.578699311
 20
25.4361638522
 11
-5.578699311
 21
25.5754468522
  0
LINE
  5
499
100
AcDbEntity
  8
0
100
AcDbLine
 62
7
  6
CONTINUOUS
 10
-5.578699311
 20
26.1800548522
 11
-5.578699311
 21
26.3276688522
  0
LINE
  5
49A
100
AcDbEntity
  8
0
100
AcDbLine
 62
7
  6
CONTINUOUS
 10
-5.578699311
 20
26.4586198522
 11
-5.578699311
 21
26.863942118
  0
LINE
  5
49B
100
AcDbEntity
  8
0
100
AcDbLine
 62
7
  6
CONTINUOUS
 10
-5.578699311
 20
27.4712888522
 11
-5.578699311
 21
28.2095988522
  0
LINE
  5
49C
100
AcDbEntity
  8
0
100
AcDbLine
 62
7
  6
CONTINUOUS
 10
-5.5753040286
 20
40.2900150521
 11
-5.5753040286
 21
40.1110908937
  0
LINE
  5
49D
100
AcDbEntity
  8
0
100
AcDbLine
 62
7
  6
CONTINUOUS
 10
-6.7823764225
 20
1.5665275502
 11
-6.7878480973
 21
1.4895426337
  0
LINE
  5
49E
100
AcDbEntity
  8
RACCORDO
100
AcDbLine
 62
253
  6
CONTINUOUS
 10
-2.5515665039
 20
42.2010501543
 11
-2.5062003953
 21
42.5201700053
  0
LINE
  5
49F
100
AcDbEntity
  8
0
100
AcDbLine
 62
7
  6
CONTINUOUS
 10
-4.2085284212
 20
40.0212889715
 11
-4.240443311
 21
39.802538733
  0
LINE
  5
4A0
100
AcDbEntity
  8
0
100
AcDbLine
 62
7
  6
CONTINUOUS
 10
-4.2085284212
 20
37.2087887926
 11
-4.240443311
 21
37.0212887926
  0
LINE
  5
4A1
100
AcDbEntity
  8
0
100
AcDbLine
 62
7
  6
CONTINUOUS
 10
-4.2085284212
 20
35.9275388522
 11
-4.240443311
 21
35.7400388522
  0
LINE
  5
4A2
100
AcDbEntity
  8
0
100
AcDbLine
 62
7
  6
CONTINUOUS
 10
-3.4425709763
 20
39.8337889715
 11
-3.4106560865
 21
40.0212889715
  0
LINE
  5
4A3
100
AcDbEntity
  8
0
100
AcDbLine
 62
7
  6
CONTINUOUS
 10
-2.7723582036
 20
36.8337887926
 11
-2.740443311
 21
37.0212887926
  0
LINE
  5
4A4
100
AcDbEntity
  8
0
100
AcDbLine
 62
7
  6
CONTINUOUS
 10
-2.9000177824
 20
39.6775388522
 11
-2.9319326722
 21
39.521288733
  0
LINE
  5
4A5
100
AcDbEntity
  8
0
100
AcDbLine
 62
7
  6
CONTINUOUS
 10
-2.7723582036
 20
38.1462889715
 11
-2.740443311
 21
38.302538733
  0
LINE
  5
4A6
100
AcDbEntity
  8
0
100
AcDbLine
 62
7
  6
CONTINUOUS
 10
-2.9000177824
 20
37.0212887926
 11
-2.9319326722
 21
36.8650388522
  0
LINE
  5
4A7
100
AcDbEntity
  8
0
100
AcDbLine
 62
7
  6
CONTINUOUS
 10
-20.3638475397
 20
6.3087887926
 11
-20.2681028703
 21
6.4025387926
  0
LINE
  5
4A8
100
AcDbEntity
  8
0
100
AcDbLine
 62
7
  6
CONTINUOUS
 10
-21.41703906
 20
4.308788733
 11
-21.353209258
 21
4.3712888522
  0
LINE
  5
4A9
100
AcDbEntity
  8
0
100
AcDbLine
 62
7
  6
CONTINUOUS
 10
-2.702460311
 20
27.3528748522
 11
-2.822169311
 21
27.3528748522
  0
LINE
  5
4AA
100
AcDbEntity
  8
0
100
AcDbLine
 62
7
  6
CONTINUOUS
 10
-6.578426311
 20
27.4712888522
 11
-5.578699311
 21
27.4712888522
  0
LINE
  5
4AB
100
AcDbEntity
  8
0
100
AcDbLine
 62
7
  6
CONTINUOUS
 10
-3.105263311
 20
27.5674598522
 11
-2.702460311
 21
27.5674598522
  0
LINE
  5
4AC
100
AcDbEntity
  8
0
100
AcDbLine
 62
7
  6
CONTINUOUS
 10
-16.7507506902
 20
27.5837888522
 11
-7.6301359318
 21
27.5837888522
  0
LINE
  5
4AD
100
AcDbEntity
  8
0
100
AcDbLine
 62
7
  6
CONTINUOUS
 10
-5.698407311
 20
27.6064458522
 11
-6.032458311
 21
27.6064458522
  0
LINE
  5
4AE
100
AcDbEntity
  8
0
100
AcDbLine
 62
7
  6
CONTINUOUS
 10
-6.152167311
 20
27.6064458522
 11
-6.458717311
 21
27.6064458522
  0
LINE
  5
4AF
100
AcDbEntity
  8
0
100
AcDbLine
 62
7
  6
CONTINUOUS
 10
-2.702460311
 20
27.7025358522
 11
-3.105263311
 21
27.7025358522
  0
LINE
  5
4B0
100
AcDbEntity
  8
0
100
AcDbLine
 62
7
  6
CONTINUOUS
 10
-6.032458311
 20
28.1538698522
 11
-6.152167311
 21
28.1538698522
  0
LINE
  5
4B1
100
AcDbEntity
  8
0
100
AcDbLine
 62
7
  6
CONTINUOUS
 10
-6.458717311
 20
28.1998118522
 11
-6.578426311
 21
28.1998118522
  0
LINE
  5
4B2
100
AcDbEntity
  8
0
100
AcDbLine
 62
7
  6
CONTINUOUS
 10
-5.578699311
 20
28.2095988522
 11
-5.698407311
 21
28.2095988522
  0
LINE
  5
4B3
100
AcDbEntity
  8
0
100
AcDbLine
 62
7
  6
CONTINUOUS
 10
-5.578699311
 20
25.5754468522
 11
-5.869881311
 21
25.6799488522
  0
LINE
  5
4B4
100
AcDbEntity
  8
0
100
AcDbLine
 62
7
  6
CONTINUOUS
 10
-5.989590311
 20
25.7217658522
 11
-6.433530311
 21
25.8833468522
  0
LINE
  5
4B5
100
AcDbEntity
  8
0
100
AcDbLine
 62
7
  6
CONTINUOUS
 10
-6.578426311
 20
25.8122748522
 11
-5.578699311
 21
25.4361638522
  0
LINE
  5
4B6
100
AcDbEntity
  8
RACCORDO
100
AcDbLine
 62
253
  6
CONTINUOUS
 10
-2.5062003953
 20
1.2474076992
 11
-2.5515665039
 21
1.5665275502
  0
LINE
  5
4B7
100
AcDbEntity
  8
0
100
AcDbLine
 62
7
  6
CONTINUOUS
 10
-5.3296600998
 20
40.121472274
 11
-5.3296600998
 21
40.2893402061
  0
LINE
  5
4B8
100
AcDbEntity
  8
0
100
AcDbLine
 62
7
  6
CONTINUOUS
 10
-5.273817311
 20
39.2440598522
 11
-5.273817311
 21
38.9443048522
  0
LINE
  5
4B9
100
AcDbEntity
  8
0
100
AcDbLine
 62
7
  6
CONTINUOUS
 10
-5.140307311
 20
26.8590768522
 11
-5.140307311
 21
26.7282068522
  0
LINE
  5
4BA
100
AcDbEntity
  8
0
100
AcDbLine
 62
7
  6
CONTINUOUS
 10
-5.140307311
 20
26.2252688522
 11
-5.140307311
 21
26.0650378522
  0
LINE
  5
4BB
100
AcDbEntity
  8
0
100
AcDbLine
 62
7
  6
CONTINUOUS
 10
-5.140307311
 20
25.8338708522
 11
-5.140307311
 21
25.6987138522
  0
LINE
  5
4BC
100
AcDbEntity
  8
0
100
AcDbLine
 62
7
  6
CONTINUOUS
 10
-5.042119311
 20
38.8802618522
 11
-5.042119311
 21
39.3066298522
  0
LINE
  5
4BD
100
AcDbEntity
  8
0
100
AcDbLine
 62
7
  6
CONTINUOUS
 10
-4.742690311
 20
35.5580458522
 11
-4.742690311
 21
35.8339508522
  0
LINE
  5
4BE
100
AcDbEntity
  8
0
100
AcDbLine
 62
7
  6
CONTINUOUS
 10
-4.742690311
 20
36.4322578522
 11
-4.742690311
 21
36.7453418522
  0
LINE
  5
4BF
100
AcDbEntity
  8
0
100
AcDbLine
 62
7
  6
CONTINUOUS
 10
-4.742690311
 20
36.9138838522
 11
-4.742690311
 21
37.2134028522
  0
LINE
  5
4C0
100
AcDbEntity
  8
0
100
AcDbLine
 62
7
  6
CONTINUOUS
 10
-4.742690311
 20
37.6482518522
 11
-4.742690311
 21
37.6921618522
  0
LINE
  5
4C1
100
AcDbEntity
  8
0
100
AcDbLine
 62
7
  6
CONTINUOUS
 10
-4.742690311
 20
38.1287418522
 11
-4.742690311
 21
38.4350208522
  0
LINE
  5
4C2
100
AcDbEntity
  8
0
100
AcDbLine
 62
7
  6
CONTINUOUS
 10
-4.742690311
 20
38.4841838522
 11
-4.742690311
 21
38.7938698522
  0
LINE
  5
4C3
100
AcDbEntity
  8
0
100
AcDbLine
 62
7
  6
CONTINUOUS
 10
-4.742690311
 20
39.3877348522
 11
-4.742690311
 21
39.7177128522
  0
LINE
  5
4C4
100
AcDbEntity
  8
0
100
AcDbLine
 62
7
  6
CONTINUOUS
 10
-4.7426903329
 20
39.8096484516
 11
-4.7426903329
 21
40.121472274
  0
LINE
  5
4C5
100
AcDbEntity
  8
0
100
AcDbLine
 62
7
  6
CONTINUOUS
 10
-4.7426903329
 20
40.600916585
 11
-4.7426903329
 21
40.9020665938
  0
LINE
  5
4C6
100
AcDbEntity
  8
0
100
AcDbLine
 62
7
  6
CONTINUOUS
 10
-4.240443311
 20
40.9587889715
 11
-4.240443311
 21
40.7712889715
  0
LINE
  5
4C7
100
AcDbEntity
  8
0
100
AcDbLine
 62
7
  6
CONTINUOUS
 10
-4.240443311
 20
39.802538733
 11
-4.240443311
 21
39.7400389715
  0
LINE
  5
4C8
100
AcDbEntity
  8
0
100
AcDbLine
 62
7
  6
CONTINUOUS
 10
-4.240443311
 20
38.8962889715
 11
-4.240443311
 21
37.8337889118
  0
LINE
  5
4C9
100
AcDbEntity
  8
0
100
AcDbLine
 62
7
  6
CONTINUOUS
 10
-4.240443311
 20
35.7400388522
 11
-4.240443311
 21
35.6150388373
  0
LINE
  5
4CA
100
AcDbEntity
  8
0
100
AcDbLine
 62
7
  6
CONTINUOUS
 10
-4.140579311
 20
25.6987138522
 11
-4.140579311
 21
25.8338708522
  0
LINE
  5
4CB
100
AcDbEntity
  8
0
100
AcDbLine
 62
7
  6
CONTINUOUS
 10
-4.140579311
 20
26.0650378522
 11
-4.140579311
 21
26.1960698522
  0
LINE
  5
4CC
100
AcDbEntity
  8
0
100
AcDbLine
 62
7
  6
CONTINUOUS
 10
-4.140579311
 20
26.7072578522
 11
-4.140579311
 21
26.8590768522
  0
LINE
  5
4CD
100
AcDbEntity
  8
0
100
AcDbLine
 62
7
  6
CONTINUOUS
 10
-4.080868862
 20
35.5837888671
 11
-4.080868862
 21
35.7087888373
  0
LINE
  5
4CE
100
AcDbEntity
  8
0
100
AcDbLine
 62
7
  6
CONTINUOUS
 10
-4.080868862
 20
37.9900388522
 11
-4.080868862
 21
38.8962889715
  0
LINE
  5
4CF
100
AcDbEntity
  8
0
100
AcDbLine
 62
7
  6
CONTINUOUS
 10
-4.080868862
 20
39.708788733
 11
-4.080868862
 21
39.8337889715
  0
LINE
  5
4D0
100
AcDbEntity
  8
0
100
AcDbLine
 62
7
  6
CONTINUOUS
 10
-3.8893795231
 20
35.1150388532
 11
-3.8893795231
 21
35.2712888522
  0
LINE
  5
4D1
100
AcDbEntity
  8
0
100
AcDbLine
 62
7
  6
CONTINUOUS
 10
-3.8893795231
 20
39.240038733
 11
-3.8893795231
 21
39.3962888522
  0
LINE
  5
4D2
100
AcDbEntity
  8
0
100
AcDbLine
 62
7
  6
CONTINUOUS
 10
-3.702996311
 20
28.0800228522
 11
-3.702996311
 21
27.9212468522
  0
LINE
  5
4D3
100
AcDbEntity
  8
0
100
AcDbLine
 62
7
  6
CONTINUOUS
 10
-3.702996311
 20
27.3472938522
 11
-3.702996311
 21
27.1898928522
  0
LINE
  5
4D4
100
AcDbEntity
  8
0
100
AcDbLine
 62
7
  6
CONTINUOUS
 10
-3.702996311
 20
26.8458118522
 11
-3.702996311
 21
26.7107358522
  0
LINE
  5
4D5
100
AcDbEntity
  8
0
100
AcDbLine
 62
7
  6
CONTINUOUS
 10
-3.702996311
 20
26.2245408522
 11
-3.702996311
 21
26.0713468522
  0
LINE
  5
4D6
100
AcDbEntity
  8
0
100
AcDbLine
 62
7
  6
CONTINUOUS
 10
-3.702996311
 20
25.6562498522
 11
-3.702996311
 21
24.8441728522
  0
LINE
  5
4D7
100
AcDbEntity
  8
0
100
AcDbLine
 62
7
  6
CONTINUOUS
 10
-3.702996311
 20
24.6992288522
 11
-3.702996311
 21
24.5640718522
  0
LINE
  5
4D8
100
AcDbEntity
  8
0
100
AcDbLine
 62
7
  6
CONTINUOUS
 10
-3.6978900948
 20
38.490038733
 11
-3.6978900948
 21
38.302538733
  0
LINE
  5
4D9
100
AcDbEntity
  8
RACCORDO
100
AcDbLine
 62
253
  6
CONTINUOUS
 10
-2.3515969648
 20
42.002540924
 11
-2.3061708346
 21
42.3220829868
  0
LINE
  5
4DA
100
AcDbEntity
  8
0
100
AcDbLine
 62
7
  6
CONTINUOUS
 10
-20.3638475397
 20
3.4962889715
 11
-20.2361879805
 21
3.6212888522
  0
LINE
  5
4DB
100
AcDbEntity
  8
0
100
AcDbLine
 62
7
  6
CONTINUOUS
 10
-21.3851241702
 20
5.8712888522
 11
-21.5127837406
 21
5.7775388522
  0
LINE
  5
4DC
100
AcDbEntity
  8
0
100
AcDbLine
 62
7
  6
CONTINUOUS
 10
-20.3957624295
 20
7.808788882
 11
-20.491507099
 21
7.7462888522
  0
LINE
  5
4DD
100
AcDbEntity
  8
0
100
AcDbLine
 62
7
  6
CONTINUOUS
 10
-21.3851241702
 20
6.9962888522
 11
-21.1936348089
 21
7.1212889118
  0
LINE
  5
4DE
100
AcDbEntity
  8
0
100
AcDbLine
 62
7
  6
CONTINUOUS
 10
-20.3957624295
 20
6.4962887926
 11
-20.5872518578
 21
6.3712889118
  0
LINE
  5
4DF
100
AcDbEntity
  8
0
100
AcDbLine
 62
7
  6
CONTINUOUS
 10
-2.702460311
 20
25.8345178522
 11
-2.993643311
 21
25.9390208522
  0
LINE
  5
4E0
100
AcDbEntity
  8
0
100
AcDbLine
 62
7
  6
CONTINUOUS
 10
-3.113351311
 20
25.9807568522
 11
-3.557290311
 21
26.1424188522
  0
LINE
  5
4E1
100
AcDbEntity
  8
0
100
AcDbLine
 62
7
  6
CONTINUOUS
 10
-3.702996311
 20
26.0713468522
 11
-2.702460311
 21
25.6952358522
  0
LINE
  5
4E2
100
AcDbEntity
  8
RACCORDO
100
AcDbLine
 62
253
  6
CONTINUOUS
 10
-2.3061708346
 20
1.4454947176
 11
-2.3515969648
 21
1.7650367805
  0
LINE
  5
4E3
100
AcDbEntity
  8
RACCORDO
100
AcDbLine
 62
7
  6
CONTINUOUS
 10
-2.290443311
 20
34.9837888522
 11
-2.3061708346
 21
42.3220829868
  0
LINE
  5
4E4
100
AcDbEntity
  8
0
100
AcDbLine
 62
7
  6
CONTINUOUS
 10
-3.583288311
 20
24.8441728522
 11
-3.583288311
 21
25.1826728522
  0
LINE
  5
4E5
100
AcDbEntity
  8
0
100
AcDbLine
 62
7
  6
CONTINUOUS
 10
-3.583288311
 20
25.3177498522
 11
-3.583288311
 21
25.6562498522
  0
LINE
  5
4E6
100
AcDbEntity
  8
0
100
AcDbLine
 62
7
  6
CONTINUOUS
 10
-3.5702305356
 20
39.8337889715
 11
-3.5702305356
 21
39.708788733
  0
LINE
  5
4E7
100
AcDbEntity
  8
0
100
AcDbLine
 62
7
  6
CONTINUOUS
 10
-3.5383156457
 20
38.302538733
 11
-3.5383156457
 21
38.490038733
  0
LINE
  5
4E8
100
AcDbEntity
  8
0
100
AcDbLine
 62
7
  6
CONTINUOUS
 10
-3.4425709763
 20
39.708788733
 11
-3.4425709763
 21
39.8337889715
  0
LINE
  5
4E9
100
AcDbEntity
  8
0
100
AcDbLine
 62
7
  6
CONTINUOUS
 10
-3.4106560865
 20
37.8337889118
 11
-3.4106560865
 21
38.0525387926
  0
LINE
  5
4EA
100
AcDbEntity
  8
0
100
AcDbLine
 62
7
  6
CONTINUOUS
 10
-3.1234220335
 20
38.0212889118
 11
-3.1234220335
 21
37.8337889118
  0
LINE
  5
4EB
100
AcDbEntity
  8
0
100
AcDbLine
 62
7
  6
CONTINUOUS
 10
-3.113351311
 20
26.2914328522
 11
-3.113351311
 21
25.9807568522
  0
LINE
  5
4EC
100
AcDbEntity
  8
0
100
AcDbLine
 62
7
  6
CONTINUOUS
 10
-3.0915071437
 20
39.3650389715
 11
-3.0915071437
 21
39.2087888522
  0
LINE
  5
4ED
100
AcDbEntity
  8
0
100
AcDbLine
 62
7
  6
CONTINUOUS
 10
-2.993643311
 20
25.9390208522
 11
-2.993643311
 21
26.3402058522
  0
LINE
  5
4EE
100
AcDbEntity
  8
0
100
AcDbLine
 62
7
  6
CONTINUOUS
 10
-2.9000177824
 20
39.8650388522
 11
-2.9000177824
 21
39.6775388522
  0
LINE
  5
4EF
100
AcDbEntity
  8
0
100
AcDbLine
 62
7
  6
CONTINUOUS
 10
-2.9000177824
 20
38.490038733
 11
-2.9000177824
 21
38.302538733
  0
LINE
  5
4F0
100
AcDbEntity
  8
0
100
AcDbLine
 62
7
  6
CONTINUOUS
 10
-2.9000177824
 20
36.2087888522
 11
-2.9000177824
 21
35.3337888597
  0
LINE
  5
4F1
100
AcDbEntity
  8
0
100
AcDbLine
 62
7
  6
CONTINUOUS
 10
-2.822169311
 20
27.3528748522
 11
-2.822169311
 21
26.8458118522
  0
LINE
  5
4F2
100
AcDbEntity
  8
0
100
AcDbLine
 62
7
  6
CONTINUOUS
 10
-2.740443311
 20
35.0837888522
 11
-2.740443311
 21
36.2087888522
  0
LINE
  5
4F3
100
AcDbEntity
  8
0
100
AcDbLine
 62
7
  6
CONTINUOUS
 10
-2.740443311
 20
38.302538733
 11
-2.740443311
 21
38.490038733
  0
LINE
  5
4F4
100
AcDbEntity
  8
0
100
AcDbLine
 62
7
  6
CONTINUOUS
 10
-2.740443311
 20
39.6462889715
 11
-2.740443311
 21
39.896288733
  0
LINE
  5
4F5
100
AcDbEntity
  8
0
100
AcDbLine
 62
7
  6
CONTINUOUS
 10
-2.740443311
 20
40.7712889715
 11
-2.740443311
 21
40.9587889715
  0
LINE
  5
4F6
100
AcDbEntity
  8
0
100
AcDbLine
 62
7
  6
CONTINUOUS
 10
-2.702460311
 20
24.5640718522
 11
-2.702460311
 21
24.6992288522
  0
LINE
  5
4F7
100
AcDbEntity
  8
0
100
AcDbLine
 62
7
  6
CONTINUOUS
 10
-2.702460311
 20
25.1826728522
 11
-2.702460311
 21
25.3177498522
  0
LINE
  5
4F8
100
AcDbEntity
  8
0
100
AcDbLine
 62
7
  6
CONTINUOUS
 10
-2.702460311
 20
25.6952358522
 11
-2.702460311
 21
25.8345178522
  0
LINE
  5
4F9
100
AcDbEntity
  8
0
100
AcDbLine
 62
7
  6
CONTINUOUS
 10
-2.702460311
 20
26.4391268522
 11
-2.702460311
 21
26.5867398522
  0
LINE
  5
4FA
100
AcDbEntity
  8
0
100
AcDbLine
 62
7
  6
CONTINUOUS
 10
-2.702460311
 20
26.7107358522
 11
-2.702460311
 21
27.3528748522
  0
LINE
  5
4FB
100
AcDbEntity
  8
0
100
AcDbLine
 62
7
  6
CONTINUOUS
 10
-2.702460311
 20
27.5674598522
 11
-2.702460311
 21
27.7025358522
  0
LINE
  5
4FC
100
AcDbEntity
  8
0
100
AcDbLine
 62
7
  6
CONTINUOUS
 10
-2.690443311
 20
12.6837888522
 11
-2.690443311
 21
8.8837888522
  0
LINE
  5
4FD
100
AcDbEntity
  8
0
100
AcDbLine
 62
7
  6
CONTINUOUS
 10
-2.690443311
 20
31.0837888522
 11
-2.690443311
 21
34.8837888522
  0
LINE
  5
4FE
100
AcDbEntity
  8
RACCORDO
100
AcDbLine
 62
253
  6
CONTINUOUS
 10
-2.5515665039
 20
1.5665275502
 11
-2.5515665039
 21
8.8837888522
  0
LINE
  5
4FF
100
AcDbEntity
  8
RACCORDO
100
AcDbLine
 62
253
  6
CONTINUOUS
 10
-2.5515665039
 20
12.6837888522
 11
-2.5515665039
 21
20.5225213078
  0
LINE
  5
500
100
AcDbEntity
  8
RACCORDO
100
AcDbLine
 62
253
  6
CONTINUOUS
 10
-2.5515665039
 20
23.2973961115
 11
-2.5515665039
 21
31.0837888522
  0
LINE
  5
501
100
AcDbEntity
  8
RACCORDO
100
AcDbLine
 62
253
  6
CONTINUOUS
 10
-2.5515665039
 20
34.8837888522
 11
-2.5515665039
 21
42.2010501543
  0
LINE
  5
502
100
AcDbEntity
  8
RACCORDO
100
AcDbLine
 62
253
  6
CONTINUOUS
 10
-2.3515969648
 20
1.7650367805
 11
-2.3515969648
 21
8.8837888522
  0
LINE
  5
503
100
AcDbEntity
  8
RACCORDO
100
AcDbLine
 62
253
  6
CONTINUOUS
 10
-2.3515969648
 20
12.6837888522
 11
-2.3515969648
 21
20.339280553
  0
LINE
  5
504
100
AcDbEntity
  8
RACCORDO
100
AcDbLine
 62
253
  6
CONTINUOUS
 10
-2.3515969648
 20
23.2802037563
 11
-2.3515969648
 21
31.0837888522
  0
LINE
  5
505
100
AcDbEntity
  8
RACCORDO
100
AcDbLine
 62
253
  6
CONTINUOUS
 10
-2.3515969648
 20
34.8837888522
 11
-2.3515969648
 21
42.002540924
  0
LINE
  5
506
100
AcDbEntity
  8
RACCORDO
100
AcDbLine
 62
7
  6
CONTINUOUS
 10
-2.3428085058
 20
23.236154047
 11
-2.3428085058
 21
22.2100075323
  0
LINE
  5
507
100
AcDbEntity
  8
RACCORDO
100
AcDbLine
 62
7
  6
CONTINUOUS
 10
-2.3428085058
 20
21.7576082489
 11
-2.3428085058
 21
20.3833302623
  0
LINE
  5
508
100
AcDbEntity
  8
DRAFT
100
AcDbLine
 62
7
  6
CONTINUOUS
 10
-2.3073202101
 20
12.6837888522
 11
-2.3073202101
 21
8.8837888522
  0
LINE
  5
509
100
AcDbEntity
  8
DRAFT
100
AcDbLine
 62
7
  6
CONTINUOUS
 10
-2.3073202101
 20
31.0837888522
 11
-2.3073202101
 21
34.8837888522
  0
LINE
  5
50A
100
AcDbEntity
  8
DRAFT
100
AcDbLine
 62
7
  6
CONTINUOUS
 10
-2.290443311
 20
21.7837888522
 11
-2.290443311
 21
8.7837888522
  0
LINE
  5
50B
100
AcDbEntity
  8
RACCORDO
100
AcDbLine
 62
7
  6
CONTINUOUS
 10
-2.290443311
 20
22.1838269289
 11
-2.290443311
 21
34.9837888522
  0
LINE
  5
50C
100
AcDbEntity
  8
RACCORDO
100
AcDbLine
 62
7
  6
CONTINUOUS
 10
-2.290443311
 20
8.7837888522
 11
-2.3061708346
 21
1.4454947176
  0
LINE
  5
50D
100
AcDbEntity
  8
RACCORDO
100
AcDbLine
 62
253
  6
CONTINUOUS
 10
-2.554753255
 20
20.5225467878
 11
-2.5425347096
 21
20.5837888522
  0
LINE
  5
50E
100
AcDbEntity
  8
RACCORDO
100
AcDbLine
 62
253
  6
CONTINUOUS
 10
-2.3515969648
 20
20.339280553
 11
-2.3428085058
 21
20.3833302623
  0
LINE
  5
50F
100
AcDbEntity
  8
0
100
AcDbLine
 62
253
  6
CONTINUOUS
 10
-17.0808323334
 20
2.6933884068
 11
-17.0878366742
 21
2.686384066
  0
LINE
  5
510
100
AcDbEntity
  8
0
100
AcDbLine
 62
7
  6
CONTINUOUS
 10
-20.9383156457
 20
4.871288733
 11
-20.8106560865
 21
4.965038733
  0
LINE
  5
511
100
AcDbEntity
  8
0
100
AcDbLine
 62
7
  6
CONTINUOUS
 10
-20.9383156457
 20
5.058788733
 11
-21.0340603152
 21
4.9962889715
  0
LINE
  5
512
100
AcDbEntity
  8
0
100
AcDbLine
 62
7
  6
CONTINUOUS
 10
-21.3851241702
 20
4.5275389715
 11
-21.4808688396
 21
4.4650388522
  0
LINE
  5
513
100
AcDbEntity
  8
0
100
AcDbLine
 62
7
  6
CONTINUOUS
 10
-21.2893794784
 20
7.246288882
 11
-21.41703906
 21
7.1837888522
  0
LINE
  5
514
100
AcDbEntity
  8
DRAFT
100
AcDbLine
 62
7
  6
CONTINUOUS
 10
-22.073566412
 20
31.0837888522
 11
-21.690443311
 21
31.0837888522
  0
LINE
  5
515
100
AcDbEntity
  8
DRAFT
100
AcDbLine
 62
7
  6
CONTINUOUS
 10
-2.690443311
 20
31.0837888522
 11
-2.3073202101
 21
31.0837888522
  0
LINE
  5
516
100
AcDbEntity
  8
0
100
AcDbLine
 62
7
  6
CONTINUOUS
 10
-3.702996311
 20
27.9212468522
 11
-3.222545311
 21
27.6342698522
  0
LINE
  5
517
100
AcDbEntity
  8
0
100
AcDbLine
 62
7
  6
CONTINUOUS
 10
-3.105263311
 20
27.7025358522
 11
-3.702996311
 21
28.0800228522
  0
LINE
  5
518
100
AcDbEntity
  8
RACCORDO
100
AcDbLine
 62
7
  6
CONTINUOUS
 10
-2.3428085058
 20
23.236154047
 11
-2.3515969648
 21
23.2802037563
  0
LINE
  5
519
100
AcDbEntity
  8
0
100
AcDbLine
 62
7
  6
CONTINUOUS
 10
-4.240443311
 20
35.6150388373
 11
-4.2085284212
 21
35.3962888448
  0
LINE
  5
51A
100
AcDbEntity
  8
0
100
AcDbLine
 62
7
  6
CONTINUOUS
 10
-1.0772960239
 20
43.5787100144
 11
-1.040443311
 21
34.9837888522
  0
LINE
  5
51B
100
AcDbEntity
  8
0
100
AcDbLine
 62
7
  6
CONTINUOUS
 10
-1.040443311
 20
21.5338554735
 11
-1.040443311
 21
8.7837888522
  0
LINE
  5
51C
100
AcDbEntity
  8
0
100
AcDbLine
 62
7
  6
CONTINUOUS
 10
-1.040443311
 20
22.233722231
 11
-1.040443311
 21
34.9837888522
  0
LINE
  5
51D
100
AcDbEntity
  8
0
100
AcDbLine
 62
7
  6
CONTINUOUS
 10
-1.0772960239
 20
0.1888676901
 11
-1.040443311
 21
8.7837888522
  0
LINE
  5
51E
100
AcDbEntity
  8
0
100
AcDbLine
 62
253
  6
CONTINUOUS
 10
-16.7808437565
 20
2.3933998299
 11
-16.7878480973
 21
2.3863954891
  0
LINE
  5
51F
100
AcDbEntity
  8
0
100
AcDbLine
 62
7
  6
CONTINUOUS
 10
-21.0340603152
 20
3.465038733
 11
-20.9383156457
 21
3.5275388522
  0
LINE
  5
520
100
AcDbEntity
  8
0
100
AcDbLine
 62
7
  6
CONTINUOUS
 10
-20.3957624295
 20
3.6837889715
 11
-20.491507099
 21
3.6212888522
  0
LINE
  5
521
100
AcDbEntity
  8
0
100
AcDbLine
 62
7
  6
CONTINUOUS
 10
-21.2574645886
 20
5.9337887926
 11
-21.3851241702
 21
5.8712888522
  0
LINE
  5
522
100
AcDbEntity
  8
0
100
AcDbLine
 62
7
  6
CONTINUOUS
 10
-20.491507099
 20
6.2462888522
 11
-20.3638475397
 21
6.3087887926
  0
LINE
  5
523
100
AcDbEntity
  8
0
100
AcDbLine
 62
7
  6
CONTINUOUS
 10
-21.3851241702
 20
5.6837888522
 11
-21.2574645886
 21
5.7462887926
  0
LINE
  5
524
100
AcDbEntity
  8
0
100
AcDbLine
 62
7
  6
CONTINUOUS
 10
-21.353209258
 20
4.3712888522
 11
-21.2893794784
 21
4.402538733
  0
LINE
  5
525
100
AcDbEntity
  8
0
100
AcDbLine
 62
7
  6
CONTINUOUS
 10
-21.1936348089
 20
7.2775388522
 11
-21.2893794784
 21
7.246288882
  0
LINE
  5
526
100
AcDbEntity
  8
0
100
AcDbLine
 62
7
  6
CONTINUOUS
 10
-18.138317311
 20
8.6850228522
 11
-19.638196311
 21
8.2095318522
  0
LINE
  5
527
100
AcDbEntity
  8
0
100
AcDbLine
 62
7
  6
CONTINUOUS
 10
-5.210156311
 20
35.7085648522
 11
-6.242569311
 21
35.4226608522
  0
LINE
  5
528
100
AcDbEntity
  8
0
100
AcDbLine
 62
7
  6
CONTINUOUS
 10
-4.0489539721
 20
35.4275388597
 11
-4.080868862
 21
35.5837888671
  0
LINE
  5
529
100
AcDbEntity
  8
0
100
AcDbLine
 62
7
  6
CONTINUOUS
 10
-4.0489539721
 20
36.8650388522
 11
-4.080868862
 21
37.0212887926
  0
LINE
  5
52A
100
AcDbEntity
  8
0
100
AcDbLine
 62
7
  6
CONTINUOUS
 10
-4.0489539721
 20
39.5525389715
 11
-4.080868862
 21
39.708788733
  0
LINE
  5
52B
100
AcDbEntity
  8
0
100
AcDbLine
 62
7
  6
CONTINUOUS
 10
-3.6978900948
 20
38.302538733
 11
-3.665975205
 21
38.1462889715
  0
LINE
  5
52C
100
AcDbEntity
  8
0
100
AcDbLine
 62
7
  6
CONTINUOUS
 10
-4.240443311
 20
37.0212887926
 11
-4.2085284212
 21
36.8337887926
  0
LINE
  5
52D
100
AcDbEntity
  8
0
100
AcDbLine
 62
7
  6
CONTINUOUS
 10
-4.240443311
 20
39.7400389715
 11
-4.2085284212
 21
39.521288733
  0
LINE
  5
52E
100
AcDbEntity
  8
0
100
AcDbLine
 62
7
  6
CONTINUOUS
 10
-21.0340603152
 20
3.652538733
 11
-21.1617199191
 21
3.5900389715
  0
LINE
  5
52F
100
AcDbEntity
  8
0
100
AcDbLine
 62
7
  6
CONTINUOUS
 10
-21.0978901395
 20
4.8087889715
 11
-20.9383156457
 21
4.871288733
  0
LINE
  5
530
100
AcDbEntity
  8
0
100
AcDbLine
 62
7
  6
CONTINUOUS
 10
-18.658803311
 20
6.4866108522
 11
-19.638196311
 21
6.1193258522
  0
LINE
  5
531
100
AcDbEntity
  8
0
100
AcDbLine
 62
7
  6
CONTINUOUS
 10
-18.971054311
 20
6.0956618522
 11
-18.138317311
 21
6.4054378522
  0
LINE
  5
532
100
AcDbEntity
  8
0
100
AcDbLine
 62
7
  6
CONTINUOUS
 10
-20.5872518578
 20
6.2150387926
 11
-20.491507099
 21
6.2462888522
  0
LINE
  5
533
100
AcDbEntity
  8
0
100
AcDbLine
 62
7
  6
CONTINUOUS
 10
-21.0340603152
 20
4.9962889715
 11
-21.1298050293
 21
4.965038733
  0
LINE
  5
534
100
AcDbEntity
  8
0
100
AcDbLine
 62
7
  6
CONTINUOUS
 10
-3.8893795231
 20
36.2087888522
 11
-4.0170390823
 21
36.177538882
  0
LINE
  5
535
100
AcDbEntity
  8
0
100
AcDbLine
 62
7
  6
CONTINUOUS
 10
-3.3468263069
 20
36.458788882
 11
-3.1872518131
 21
36.4900388522
  0
LINE
  5
536
100
AcDbEntity
  8
0
100
AcDbLine
 62
7
  6
CONTINUOUS
 10
-3.1872518131
 20
36.6462887926
 11
-3.3787411967
 21
36.6150389118
  0
LINE
  5
537
100
AcDbEntity
  8
DRAFT
100
AcDbLine
 62
7
  6
CONTINUOUS
 10
-22.073566412
 20
34.8837888522
 11
-21.690443311
 21
34.8837888522
  0
LINE
  5
538
100
AcDbEntity
  8
DRAFT
100
AcDbLine
 62
7
  6
CONTINUOUS
 10
-2.690443311
 20
34.8837888522
 11
-2.3073202101
 21
34.8837888522
  0
LINE
  5
539
100
AcDbEntity
  8
DRAFT
100
AcDbLine
 62
7
  6
CONTINUOUS
 10
-1.040443311
 20
34.9837888522
 11
-2.290443311
 21
34.9837888522
  0
LINE
  5
53A
100
AcDbEntity
  8
DRAFT
100
AcDbLine
 62
7
  6
CONTINUOUS
 10
-22.090443311
 20
34.9837888522
 11
-23.340443311
 21
34.9837888522
  0
LINE
  5
53B
100
AcDbEntity
  8
0
100
AcDbLine
 62
7
  6
CONTINUOUS
 10
-2.9000177824
 20
35.0837888522
 11
-2.740443311
 21
35.0837888522
  0
LINE
  5
53C
100
AcDbEntity
  8
0
100
AcDbLine
 62
7
  6
CONTINUOUS
 10
-4.2085284212
 20
35.3962888448
 11
-4.1446986416
 21
35.2712888522
  0
LINE
  5
53D
100
AcDbEntity
  8
0
100
AcDbLine
 62
7
  6
CONTINUOUS
 10
-3.5064007559
 20
38.1775388522
 11
-3.5383156457
 21
38.302538733
  0
LINE
  5
53E
100
AcDbEntity
  8
0
100
AcDbLine
 62
7
  6
CONTINUOUS
 10
-2.9319326722
 20
38.6150389715
 11
-2.9000177824
 21
38.490038733
  0
LINE
  5
53F
100
AcDbEntity
  8
0
100
AcDbLine
 62
7
  6
CONTINUOUS
 10
-2.9319326722
 20
37.1775389118
 11
-2.9000177824
 21
37.0212887926
  0
LINE
  5
540
100
AcDbEntity
  8
0
100
AcDbLine
 62
7
  6
CONTINUOUS
 10
-2.740443311
 20
38.490038733
 11
-2.7723582036
 21
38.6462888522
  0
LINE
  5
541
100
AcDbEntity
  8
0
100
AcDbLine
 62
7
  6
CONTINUOUS
 10
-2.9319326722
 20
40.0212889715
 11
-2.9000177824
 21
39.8650388522
  0
LINE
  5
542
100
AcDbEntity
  8
0
100
AcDbLine
 62
7
  6
CONTINUOUS
 10
-2.740443311
 20
37.0212887926
 11
-2.7723582036
 21
37.2087887926
  0
LINE
  5
543
100
AcDbEntity
  8
0
100
AcDbLine
 62
7
  6
CONTINUOUS
 10
-21.2893794784
 20
4.5587888522
 11
-21.3851241702
 21
4.5275389715
  0
LINE
  5
544
100
AcDbEntity
  8
0
100
AcDbLine
 62
7
  6
CONTINUOUS
 10
-19.638196311
 20
4.0498648522
 11
-18.138317311
 21
4.5100648522
  0
LINE
  5
545
100
AcDbEntity
  8
0
100
AcDbLine
 62
7
  6
CONTINUOUS
 10
-5.042119311
 20
39.3066298522
 11
-4.742690311
 21
39.3877348522
  0
LINE
  5
546
100
AcDbEntity
  8
0
100
AcDbLine
 62
7
  6
CONTINUOUS
 10
-5.830441311
 20
39.1001938522
 11
-5.273817311
 21
39.2440598522
  0
LINE
  5
547
100
AcDbEntity
  8
0
100
AcDbLine
 62
7
  6
CONTINUOUS
 10
-3.6340603152
 20
37.5837887926
 11
-3.7936347642
 21
37.5525389118
  0
LINE
  5
548
100
AcDbEntity
  8
0
100
AcDbLine
 62
7
  6
CONTINUOUS
 10
-3.7936347642
 20
37.3962887926
 11
-3.6021454254
 21
37.4275388522
  0
LINE
  5
549
100
AcDbEntity
  8
0
100
AcDbLine
 62
7
  6
CONTINUOUS
 10
-3.8893795231
 20
36.0212888522
 11
-3.8255496541
 21
36.0212888522
  0
LINE
  5
54A
100
AcDbEntity
  8
0
100
AcDbLine
 62
7
  6
CONTINUOUS
 10
-2.740443311
 20
36.2087888522
 11
-2.9000177824
 21
36.2087888522
  0
LINE
  5
54B
100
AcDbEntity
  8
0
100
AcDbLine
 62
7
  6
CONTINUOUS
 10
-3.8255496541
 20
36.2087888522
 11
-3.8893795231
 21
36.2087888522
  0
LINE
  5
54C
100
AcDbEntity
  8
0
100
AcDbLine
 62
7
  6
CONTINUOUS
 10
-6.242659311
 20
36.4322578522
 11
-4.742690311
 21
36.4322578522
  0
LINE
  5
54D
100
AcDbEntity
  8
0
100
AcDbLine
 62
7
  6
CONTINUOUS
 10
-3.6340603152
 20
36.458788882
 11
-3.3468263069
 21
36.458788882
  0
LINE
  5
54E
100
AcDbEntity
  8
0
100
AcDbLine
 62
7
  6
CONTINUOUS
 10
-3.3787411967
 20
36.6150389118
 11
-3.6021454254
 21
36.6150389118
  0
LINE
  5
54F
100
AcDbEntity
  8
0
100
AcDbLine
 62
7
  6
CONTINUOUS
 10
-4.742690311
 20
36.7453418522
 11
-6.242659311
 21
36.7453418522
  0
LINE
  5
550
100
AcDbEntity
  8
0
100
AcDbLine
 62
7
  6
CONTINUOUS
 10
-4.0170390823
 20
35.1462888541
 11
-3.8893795231
 21
35.1150388532
  0
LINE
  5
551
100
AcDbEntity
  8
0
100
AcDbLine
 62
7
  6
CONTINUOUS
 10
-3.9851241925
 20
35.3337888597
 11
-4.0489539721
 21
35.4275388597
  0
LINE
  5
552
100
AcDbEntity
  8
0
100
AcDbLine
 62
7
  6
CONTINUOUS
 10
-4.2085284212
 20
36.8337887926
 11
-4.1127837518
 21
36.6775388522
  0
LINE
  5
553
100
AcDbEntity
  8
0
100
AcDbLine
 62
7
  6
CONTINUOUS
 10
-3.6340603152
 20
40.0212889715
 11
-3.5702305356
 21
39.8337889715
  0
LINE
  5
554
100
AcDbEntity
  8
0
100
AcDbLine
 62
7
  6
CONTINUOUS
 10
-2.740443311
 20
39.896288733
 11
-2.7723582036
 21
40.0212889715
  0
LINE
  5
555
100
AcDbEntity
  8
0
100
AcDbLine
 62
7
  6
CONTINUOUS
 10
-3.2191667029
 20
40.3337888522
 11
-3.3468263069
 21
40.3025389715
  0
LINE
  5
556
100
AcDbEntity
  8
0
100
AcDbLine
 62
7
  6
CONTINUOUS
 10
-3.8893795231
 20
40.3025389715
 11
-4.0170390823
 21
40.271288733
  0
LINE
  5
557
100
AcDbEntity
  8
0
100
AcDbLine
 62
7
  6
CONTINUOUS
 10
-4.742690311
 20
38.4350208522
 11
-6.242569311
 21
38.2947658522
  0
LINE
  5
558
100
AcDbEntity
  8
0
100
AcDbLine
 62
7
  6
CONTINUOUS
 10
-5.718000311
 20
38.0644178522
 11
-4.742690311
 21
38.1287418522
  0
LINE
  5
559
100
AcDbEntity
  8
0
100
AcDbLine
 62
7
  6
CONTINUOUS
 10
-3.6021454254
 20
37.4275388522
 11
-3.3787411967
 21
37.4275388522
  0
LINE
  5
55A
100
AcDbEntity
  8
0
100
AcDbLine
 62
7
  6
CONTINUOUS
 10
-3.3468263069
 20
37.5837887926
 11
-3.6340603152
 21
37.5837887926
  0
LINE
  5
55B
100
AcDbEntity
  8
0
100
AcDbLine
 62
7
  6
CONTINUOUS
 10
-4.240443311
 20
37.8337889118
 11
-3.4106560865
 21
37.8337889118
  0
LINE
  5
55C
100
AcDbEntity
  8
0
100
AcDbLine
 62
7
  6
CONTINUOUS
 10
-3.5702305356
 20
37.9900388522
 11
-4.080868862
 21
37.9900388522
  0
LINE
  5
55D
100
AcDbEntity
  8
0
100
AcDbLine
 62
7
  6
CONTINUOUS
 10
-4.742690311
 20
37.2134028522
 11
-5.722083311
 21
37.2809668522
  0
LINE
  5
55E
100
AcDbEntity
  8
0
100
AcDbLine
 62
7
  6
CONTINUOUS
 10
-6.242569311
 20
37.0493148522
 11
-4.742690311
 21
36.9138838522
  0
LINE
  5
55F
100
AcDbEntity
  8
0
100
AcDbLine
 62
7
  6
CONTINUOUS
 10
-3.6021454254
 20
36.6150389118
 11
-3.7936347642
 21
36.6462887926
  0
LINE
  5
560
100
AcDbEntity
  8
0
100
AcDbLine
 62
7
  6
CONTINUOUS
 10
-3.3787411967
 20
37.4275388522
 11
-3.1872518131
 21
37.3962887926
  0
LINE
  5
561
100
AcDbEntity
  8
0
100
AcDbLine
 62
7
  6
CONTINUOUS
 10
-3.7936347642
 20
36.4900388522
 11
-3.6340603152
 21
36.458788882
  0
LINE
  5
562
100
AcDbEntity
  8
0
100
AcDbLine
 62
7
  6
CONTINUOUS
 10
-3.6978900948
 20
36.177538882
 11
-3.8255496541
 21
36.2087888522
  0
LINE
  5
563
100
AcDbEntity
  8
0
100
AcDbLine
 62
7
  6
CONTINUOUS
 10
-6.242569311
 20
36.0032028522
 11
-5.210156311
 21
35.7085648522
  0
LINE
  5
564
100
AcDbEntity
  8
0
100
AcDbLine
 62
7
  6
CONTINUOUS
 10
-4.742690311
 20
35.8339508522
 11
-6.242569311
 21
36.3160728522
  0
LINE
  5
565
100
AcDbEntity
  8
0
100
AcDbLine
 62
7
  6
CONTINUOUS
 10
-3.8893795231
 20
36.5212888224
 11
-3.7936347642
 21
36.4900388522
  0
LINE
  5
566
100
AcDbEntity
  8
0
100
AcDbLine
 62
7
  6
CONTINUOUS
 10
-3.8255496541
 20
36.0212888522
 11
-3.6978900948
 21
35.9587888224
  0
LINE
  5
567
100
AcDbEntity
  8
0
100
AcDbLine
 62
7
  6
CONTINUOUS
 10
-3.8893795231
 20
35.2712888522
 11
-3.9851241925
 21
35.3337888597
  0
LINE
  5
568
100
AcDbEntity
  8
0
100
AcDbLine
 62
7
  6
CONTINUOUS
 10
-3.6021454254
 20
36.1150388522
 11
-3.6978900948
 21
36.177538882
  0
LINE
  5
569
100
AcDbEntity
  8
0
100
AcDbLine
 62
7
  6
CONTINUOUS
 10
-4.1446986416
 20
35.2712888522
 11
-4.0170390823
 21
35.1462888541
  0
LINE
  5
56A
100
AcDbEntity
  8
0
100
AcDbLine
 62
7
  6
CONTINUOUS
 10
-4.1127837518
 20
36.6775388522
 11
-4.0170390823
 21
36.5837888522
  0
LINE
  5
56B
100
AcDbEntity
  8
0
100
AcDbLine
 62
7
  6
CONTINUOUS
 10
-3.6978900948
 20
35.9587888224
 11
-2.9000177824
 21
35.0837888522
  0
LINE
  5
56C
100
AcDbEntity
  8
0
100
AcDbLine
 62
7
  6
CONTINUOUS
 10
-2.9000177824
 20
35.3337888597
 11
-3.6021454254
 21
36.1150388522
  0
LINE
  5
56D
100
AcDbEntity
  8
0
100
AcDbLine
 62
7
  6
CONTINUOUS
 10
-3.9851241925
 20
36.7712888522
 11
-4.0489539721
 21
36.8650388522
  0
LINE
  5
56E
100
AcDbEntity
  8
0
100
AcDbLine
 62
7
  6
CONTINUOUS
 10
-2.9957624519
 20
37.2712889118
 11
-2.9319326722
 21
37.1775389118
  0
LINE
  5
56F
100
AcDbEntity
  8
0
100
AcDbLine
 62
7
  6
CONTINUOUS
 10
-3.9851241925
 20
39.4587889715
 11
-4.0489539721
 21
39.5525389715
  0
LINE
  5
570
100
AcDbEntity
  8
0
100
AcDbLine
 62
7
  6
CONTINUOUS
 10
-3.665975205
 20
38.1462889715
 11
-3.5702305356
 21
37.9900388522
  0
LINE
  5
571
100
AcDbEntity
  8
0
100
AcDbLine
 62
7
  6
CONTINUOUS
 10
-2.7723582036
 20
37.2087887926
 11
-2.8681028814
 21
37.3650389118
  0
LINE
  5
572
100
AcDbEntity
  8
0
100
AcDbLine
 62
7
  6
CONTINUOUS
 10
-4.2085284212
 20
39.521288733
 11
-4.1446986416
 21
39.3962888522
  0
LINE
  5
573
100
AcDbEntity
  8
0
100
AcDbLine
 62
7
  6
CONTINUOUS
 10
-2.9638475621
 20
40.083788733
 11
-2.9319326722
 21
40.0212889715
  0
LINE
  5
574
100
AcDbEntity
  8
0
100
AcDbLine
 62
7
  6
CONTINUOUS
 10
-2.7723582036
 20
40.0212889715
 11
-2.8361879916
 21
40.1462888522
  0
LINE
  5
575
100
AcDbEntity
  8
0
100
AcDbLine
 62
253
  6
CONTINUOUS
 10
-7.0808323334
 20
2.6933884068
 11
-7.0878366742
 21
2.686384066
  0
LINE
  5
576
100
AcDbEntity
  8
0
100
AcDbLine
 62
253
  6
CONTINUOUS
 10
-6.7808437565
 20
2.3933998299
 11
-6.7878480973
 21
2.3863954891
  0
LINE
  5
577
100
AcDbEntity
  8
0
100
AcDbLine
 62
7
  6
CONTINUOUS
 10
-3.2510815927
 20
38.8025389715
 11
-3.1872518131
 21
38.8025389715
  0
LINE
  5
578
100
AcDbEntity
  8
0
100
AcDbLine
 62
7
  6
CONTINUOUS
 10
-4.080868862
 20
38.8962889715
 11
-4.240443311
 21
38.8962889715
  0
LINE
  5
579
100
AcDbEntity
  8
0
100
AcDbLine
 62
7
  6
CONTINUOUS
 10
-3.1553369233
 20
38.958788733
 11
-3.2829964825
 21
38.958788733
  0
LINE
  5
57A
100
AcDbEntity
  8
0
100
AcDbLine
 62
7
  6
CONTINUOUS
 10
-7.6301359318
 20
39.0837888522
 11
-16.7507506902
 21
39.0837888522
  0
LINE
  5
57B
100
AcDbEntity
  8
0
100
AcDbLine
 62
7
  6
CONTINUOUS
 10
-3.5702305356
 20
39.708788733
 11
-3.4425709763
 21
39.708788733
  0
LINE
  5
57C
100
AcDbEntity
  8
0
100
AcDbLine
 62
7
  6
CONTINUOUS
 10
-6.2250457172
 20
39.8096484516
 11
-4.7426903329
 21
39.8096484516
  0
LINE
  5
57D
100
AcDbEntity
  8
0
100
AcDbLine
 62
7
  6
CONTINUOUS
 10
-5.5753040286
 20
40.1110908937
 11
-5.9870500426
 21
40.1110908937
  0
LINE
  5
57E
100
AcDbEntity
  8
0
100
AcDbLine
 62
7
  6
CONTINUOUS
 10
-4.7426903329
 20
40.121472274
 11
-5.3296600998
 21
40.121472274
  0
LINE
  5
57F
100
AcDbEntity
  8
0
100
AcDbLine
 62
7
  6
CONTINUOUS
 10
-3.8893795231
 20
40.1462888522
 11
-3.8255496541
 21
40.1462888522
  0
LINE
  5
580
100
AcDbEntity
  8
0
100
AcDbLine
 62
7
  6
CONTINUOUS
 10
-3.2191667029
 20
40.177538733
 11
-3.0915071437
 21
40.177538733
  0
LINE
  5
581
100
AcDbEntity
  8
0
100
AcDbLine
 62
7
  6
CONTINUOUS
 10
-3.8255496541
 20
40.3025389715
 11
-3.8893795231
 21
40.3025389715
  0
LINE
  5
582
100
AcDbEntity
  8
0
100
AcDbLine
 62
7
  6
CONTINUOUS
 10
-3.1872518131
 20
37.5525389118
 11
-3.3468263069
 21
37.5837887926
  0
LINE
  5
583
100
AcDbEntity
  8
0
100
AcDbLine
 62
7
  6
CONTINUOUS
 10
-5.273817311
 20
38.9443048522
 11
-5.830441311
 21
39.1001938522
  0
LINE
  5
584
100
AcDbEntity
  8
0
100
AcDbLine
 62
7
  6
CONTINUOUS
 10
-4.742690311
 20
38.7938698522
 11
-5.042119311
 21
38.8802618522
  0
LINE
  5
585
100
AcDbEntity
  8
0
100
AcDbLine
 62
7
  6
CONTINUOUS
 10
-6.242569311
 20
38.9546408522
 11
-4.742690311
 21
38.4841838522
  0
LINE
  5
586
100
AcDbEntity
  8
0
100
AcDbLine
 62
7
  6
CONTINUOUS
 10
-3.0915071437
 20
37.5212888522
 11
-3.1872518131
 21
37.5525389118
  0
LINE
  5
587
100
AcDbEntity
  8
0
100
AcDbLine
 62
7
  6
CONTINUOUS
 10
-6.242569311
 20
37.9849998522
 11
-5.409832311
 21
37.6719158522
  0
LINE
  5
588
100
AcDbEntity
  8
0
100
AcDbLine
 62
7
  6
CONTINUOUS
 10
-4.742690311
 20
37.6921618522
 11
-5.718000311
 21
38.0644178522
  0
LINE
  5
589
100
AcDbEntity
  8
0
100
AcDbLine
 62
7
  6
CONTINUOUS
 10
-4.0170390823
 20
36.5837888522
 11
-3.8893795231
 21
36.5212888224
  0
LINE
  5
58A
100
AcDbEntity
  8
0
100
AcDbLine
 62
7
  6
CONTINUOUS
 10
-2.9638475621
 20
37.4587889118
 11
-3.0915071437
 21
37.5212888522
  0
LINE
  5
58B
100
AcDbEntity
  8
0
100
AcDbLine
 62
7
  6
CONTINUOUS
 10
-3.7936347642
 20
36.6462887926
 11
-3.9851241925
 21
36.7712888522
  0
LINE
  5
58C
100
AcDbEntity
  8
0
100
AcDbLine
 62
7
  6
CONTINUOUS
 10
-3.1872518131
 20
37.3962887926
 11
-2.9957624519
 21
37.2712889118
  0
LINE
  5
58D
100
AcDbEntity
  8
0
100
AcDbLine
 62
7
  6
CONTINUOUS
 10
-2.8681028814
 20
37.3650389118
 11
-2.9638475621
 21
37.4587889118
  0
LINE
  5
58E
100
AcDbEntity
  8
0
100
AcDbLine
 62
7
  6
CONTINUOUS
 10
-4.1446986416
 20
39.3962888522
 11
-4.0170390823
 21
39.2712889715
  0
LINE
  5
58F
100
AcDbEntity
  8
0
100
AcDbLine
 62
7
  6
CONTINUOUS
 10
-3.4106560865
 20
38.0525387926
 11
-3.5064007559
 21
38.1775388522
  0
LINE
  5
590
100
AcDbEntity
  8
0
100
AcDbLine
 62
7
  6
CONTINUOUS
 10
-3.5064007559
 20
40.083788733
 11
-3.6021454254
 21
40.2087889715
  0
LINE
  5
591
100
AcDbEntity
  8
0
100
AcDbLine
 62
7
  6
CONTINUOUS
 10
-2.9957624519
 20
38.7087889715
 11
-2.9319326722
 21
38.6150389715
  0
LINE
  5
592
100
AcDbEntity
  8
0
100
AcDbLine
 62
7
  6
CONTINUOUS
 10
-2.8361879916
 20
40.1462888522
 11
-2.9000177824
 21
40.2400388522
  0
LINE
  5
593
100
AcDbEntity
  8
0
100
AcDbLine
 62
7
  6
CONTINUOUS
 10
-2.7723582036
 20
38.6462888522
 11
-2.8681028814
 21
38.8025389715
  0
LINE
  5
594
100
AcDbEntity
  8
0
100
AcDbLine
 62
7
  6
CONTINUOUS
 10
-9.8827082841
 20
42.4617989452
 11
-9.606178139
 21
42.5201700053
  0
LINE
  5
595
100
AcDbEntity
  8
0
100
AcDbLine
 62
7
  6
CONTINUOUS
 10
-3.0915071437
 20
40.3337888522
 11
-3.2191667029
 21
40.3337888522
  0
LINE
  5
596
100
AcDbEntity
  8
0
100
AcDbLine
 62
7
  6
CONTINUOUS
 10
-4.0170390823
 20
40.5837889715
 11
-3.7617198744
 21
40.5837889715
  0
LINE
  5
597
100
AcDbEntity
  8
0
100
AcDbLine
 62
7
  6
CONTINUOUS
 10
-5.4428205196
 20
40.6145709682
 11
-5.4516834965
 21
40.6145709682
  0
LINE
  5
598
100
AcDbEntity
  8
0
100
AcDbLine
 62
7
  6
CONTINUOUS
 10
-3.9851241925
 20
40.7712889715
 11
-2.740443311
 21
40.7712889715
  0
LINE
  5
599
100
AcDbEntity
  8
0
100
AcDbLine
 62
7
  6
CONTINUOUS
 10
-2.740443311
 20
40.9587889715
 11
-4.240443311
 21
40.9587889715
  0
LINE
  5
59A
100
AcDbEntity
  8
0
100
AcDbLine
 62
7
  6
CONTINUOUS
 10
-17.290443311
 20
41.0837888522
 11
-17.090443311
 21
41.0837888522
  0
LINE
  5
59B
100
AcDbEntity
  8
0
100
AcDbLine
 62
7
  6
CONTINUOUS
 10
-7.290443311
 20
41.0837888522
 11
-7.090443311
 21
41.0837888522
  0
LINE
  5
59C
100
AcDbEntity
  8
0
100
AcDbLine
 62
253
  6
CONTINUOUS
 10
-17.590443311
 20
41.3837888522
 11
-16.790443311
 21
41.3837888522
  0
LINE
  5
59D
100
AcDbEntity
  8
0
100
AcDbLine
 62
253
  6
CONTINUOUS
 10
-7.590443311
 20
41.3837888522
 11
-6.790443311
 21
41.3837888522
  0
LINE
  5
59E
100
AcDbEntity
  8
0
100
AcDbLine
 62
7
  6
CONTINUOUS
 10
-14.4981783379
 20
42.4617989452
 11
-14.774708483
 21
42.5201700053
  0
LINE
  5
59F
100
AcDbEntity
  8
0
100
AcDbLine
 62
7
  6
CONTINUOUS
 10
-4.0170390823
 20
39.2712889715
 11
-3.8893795231
 21
39.240038733
  0
LINE
  5
5A0
100
AcDbEntity
  8
0
100
AcDbLine
 62
7
  6
CONTINUOUS
 10
-3.6978900948
 20
40.271288733
 11
-3.8255496541
 21
40.3025389715
  0
LINE
  5
5A1
100
AcDbEntity
  8
0
100
AcDbLine
 62
7
  6
CONTINUOUS
 10
-3.1872518131
 20
38.8025389715
 11
-3.0915071437
 21
38.771288733
  0
LINE
  5
5A2
100
AcDbEntity
  8
0
100
AcDbLine
 62
7
  6
CONTINUOUS
 10
-2.9957624519
 20
38.8962889715
 11
-3.1553369233
 21
38.958788733
  0
LINE
  5
5A3
100
AcDbEntity
  8
0
100
AcDbLine
 62
7
  6
CONTINUOUS
 10
-3.8255496541
 20
40.1462888522
 11
-3.6978900948
 21
40.083788733
  0
LINE
  5
5A4
100
AcDbEntity
  8
0
100
AcDbLine
 62
7
  6
CONTINUOUS
 10
-3.0915071437
 20
38.771288733
 11
-2.9957624519
 21
38.7087889715
  0
LINE
  5
5A5
100
AcDbEntity
  8
0
100
AcDbLine
 62
7
  6
CONTINUOUS
 10
-3.8893795231
 20
39.3962888522
 11
-3.9851241925
 21
39.4587889715
  0
LINE
  5
5A6
100
AcDbEntity
  8
0
100
AcDbLine
 62
7
  6
CONTINUOUS
 10
-3.6021454254
 20
40.2087889715
 11
-3.6978900948
 21
40.271288733
  0
LINE
  5
5A7
100
AcDbEntity
  8
0
100
AcDbLine
 62
7
  6
CONTINUOUS
 10
-2.8681028814
 20
38.8025389715
 11
-2.9957624519
 21
38.8962889715
  0
LINE
  5
5A8
100
AcDbEntity
  8
0
100
AcDbLine
 62
7
  6
CONTINUOUS
 10
-4.240443311
 20
40.7712889715
 11
-4.0170390823
 21
40.5837889715
  0
LINE
  5
5A9
100
AcDbEntity
  8
0
100
AcDbLine
 62
7
  6
CONTINUOUS
 10
-3.7617198744
 20
40.5837889715
 11
-3.9851241925
 21
40.7712889715
  0
LINE
  5
5AA
100
AcDbEntity
  8
0
100
AcDbLine
 62
7
  6
CONTINUOUS
 10
-3.6978900948
 20
40.083788733
 11
-3.6340603152
 21
40.0212889715
  0
LINE
  5
5AB
100
AcDbEntity
  8
0
100
AcDbLine
 62
7
  6
CONTINUOUS
 10
-3.027677364
 20
40.1462888522
 11
-2.9638475621
 21
40.083788733
  0
LINE
  5
5AC
100
AcDbEntity
  8
RACCORDO
100
AcDbLine
 62
253
  6
CONTINUOUS
 10
-22.0292896572
 20
42.002540924
 11
-17.590443311
 21
42.002540924
  0
LINE
  5
5AD
100
AcDbEntity
  8
RACCORDO
100
AcDbLine
 62
253
  6
CONTINUOUS
 10
-16.790443311
 20
42.002540924
 11
-7.590443311
 21
42.002540924
  0
LINE
  5
5AE
100
AcDbEntity
  8
RACCORDO
100
AcDbLine
 62
253
  6
CONTINUOUS
 10
-6.790443311
 20
42.002540924
 11
-2.3515969648
 21
42.002540924
  0
LINE
  5
5AF
100
AcDbEntity
  8
RACCORDO
100
AcDbLine
 62
253
  6
CONTINUOUS
 10
-21.8293201182
 20
42.2010501543
 11
-17.590443311
 21
42.2010501543
  0
LINE
  5
5B0
100
AcDbEntity
  8
RACCORDO
100
AcDbLine
 62
253
  6
CONTINUOUS
 10
-16.790443311
 20
42.2010501543
 11
-7.590443311
 21
42.2010501543
  0
LINE
  5
5B1
100
AcDbEntity
  8
RACCORDO
100
AcDbLine
 62
253
  6
CONTINUOUS
 10
-6.790443311
 20
42.2010501543
 11
-2.5515665039
 21
42.2010501543
  0
LINE
  5
5B2
100
AcDbEntity
  8
0
100
AcDbLine
 62
7
  6
CONTINUOUS
 10
-17.290443311
 20
42.3145489939
 11
-17.090443311
 21
42.3145489939
  0
LINE
  5
5B3
100
AcDbEntity
  8
0
100
AcDbLine
 62
7
  6
CONTINUOUS
 10
-7.290443311
 20
42.3145489939
 11
-7.090443311
 21
42.3145489939
  0
LINE
  5
5B4
100
AcDbEntity
  8
0
100
AcDbLine
 62
7
  6
CONTINUOUS
 10
-10.0559133649
 20
42.4496120109
 11
-14.3249732572
 21
42.4496120109
  0
LINE
  5
5B5
100
AcDbEntity
  8
RACCORDO
100
AcDbLine
 62
7
  6
CONTINUOUS
 10
-2.5062003953
 20
42.5201700053
 11
-9.606178139
 21
42.5201700053
  0
LINE
  5
5B6
100
AcDbEntity
  8
RACCORDO
100
AcDbLine
 62
7
  6
CONTINUOUS
 10
-14.774708483
 20
42.5201700053
 11
-21.8746862267
 21
42.5201700053
  0
LINE
  5
5B7
100
AcDbEntity
  8
0
100
AcDbLine
 62
7
  6
CONTINUOUS
 10
-2.9957624519
 20
40.3025389715
 11
-3.0915071437
 21
40.3337888522
  0
LINE
  5
5B8
100
AcDbEntity
  8
0
100
AcDbLine
 62
7
  6
CONTINUOUS
 10
-3.0915071437
 20
40.177538733
 11
-3.027677364
 21
40.1462888522
  0
LINE
  5
5B9
100
AcDbEntity
  8
0
100
AcDbLine
 62
7
  6
CONTINUOUS
 10
-2.9000177824
 20
40.2400388522
 11
-2.9957624519
 21
40.3025389715
  0
LINE
  5
5BA
100
AcDbEntity
  8
0
100
AcDbLine
 62
7
  6
CONTINUOUS
 10
-9.8827082841
 20
44.0501580192
 11
-9.606178139
 21
44.075286283
  0
LINE
  5
5BB
100
AcDbEntity
  8
0
100
AcDbLine
 62
7
  6
CONTINUOUS
 10
-10.0559133649
 20
44.0449116437
 11
-14.3249732572
 21
44.0449116437
  0
LINE
  5
5BC
100
AcDbEntity
  8
0
100
AcDbLine
 62
7
  6
CONTINUOUS
 10
-1.5788161758
 20
44.075286283
 11
-9.606178139
 21
44.075286283
  0
LINE
  5
5BD
100
AcDbEntity
  8
0
100
AcDbLine
 62
7
  6
CONTINUOUS
 10
-14.774708483
 20
44.075286283
 11
-22.8020704463
 21
44.075286283
  0
LINE
  5
5BE
100
AcDbEntity
  8
0
100
AcDbLine
 62
7
  6
CONTINUOUS
 10
-14.4981783379
 20
44.0501580192
 11
-14.774708483
 21
44.075286283
  0
ARC
  5
5BF
100
AcDbEntity
  8
0
100
AcDbCircle
 62
253
  6
CONTINUOUS
 10
-17.087864066
 20
2.3863680973
 40
0.3000161559
100
AcDbArc
 50
0.0052311723
 51
89.9947688277
  0
ARC
  5
5C0
100
AcDbEntity
  8
0
100
AcDbCircle
 62
253
  6
CONTINUOUS
 10
-17.2930225444
 20
2.3863680856
 40
0.3000161559
100
AcDbArc
 50
90.0052333982
 51
179.9947666018
  0
CIRCLE
  5
5C1
100
AcDbEntity
  8
0
100
AcDbCircle
 62
7
  6
CONTINUOUS
 10
-16.590443311
 20
5.8837888522
 40
0.6
  0
CIRCLE
  5
5C2
100
AcDbEntity
  8
ASSI
100
AcDbCircle
 62
7
  6
CONTINUOUS
 10
-16.590443311
 20
5.8837888522
 40
0.6
  0
CIRCLE
  5
5C3
100
AcDbEntity
  8
0
100
AcDbCircle
 62
7
  6
CONTINUOUS
 10
-16.590443311
 20
14.9837888522
 40
0.6
  0
CIRCLE
  5
5C4
100
AcDbEntity
  8
ASSI
100
AcDbCircle
 62
7
  6
CONTINUOUS
 10
-16.590443311
 20
14.9837888522
 40
0.6
  0
ARC
  5
5C5
100
AcDbEntity
  8
0
100
AcDbCircle
 62
7
  6
CONTINUOUS
 10
-16.3782628344
 20
21.0959693288
 40
0.4982662378
100
AcDbArc
 50
187.0850013286
 51
262.9149986714
  0
ARC
  5
5C6
100
AcDbEntity
  8
0
100
AcDbCircle
 62
7
  6
CONTINUOUS
 10
-17.140443311
 20
23.4337888522
 40
0.9
100
AcDbArc
 50
90.0
 51
180.0
  0
ARC
  5
5C7
100
AcDbEntity
  8
0
100
AcDbCircle
 62
7
  6
CONTINUOUS
 10
-17.290443311
 20
41.3837888522
 40
0.3
100
AcDbArc
 50
180.0
 51
270.0
  0
ARC
  5
5C8
100
AcDbEntity
  8
0
100
AcDbCircle
 62
7
  6
CONTINUOUS
 10
-17.090443311
 20
41.3837888522
 40
0.3
100
AcDbArc
 50
270.0
 51
360.0
  0
CIRCLE
  5
5C9
100
AcDbEntity
  8
0
100
AcDbCircle
 62
7
  6
CONTINUOUS
 10
-16.490443311
 20
28.7837888522
 40
0.6
  0
CIRCLE
  5
5CA
100
AcDbEntity
  8
ASSI
100
AcDbCircle
 62
7
  6
CONTINUOUS
 10
-16.490443311
 20
28.7837888522
 40
0.6
  0
ARC
  5
5CB
100
AcDbEntity
  8
0
100
AcDbCircle
 62
7
  6
CONTINUOUS
 10
-16.3782628344
 20
22.6716083757
 40
0.4982662378
100
AcDbArc
 50
97.0850013286
 51
172.9149986714
  0
ARC
  5
5CC
100
AcDbEntity
  8
0
100
AcDbCircle
 62
7
  6
CONTINUOUS
 10
-15.990443311
 20
24.5837888522
 40
0.3
100
AcDbArc
 50
90.0
 51
180.0
  0
CIRCLE
  5
5CD
100
AcDbEntity
  8
0
100
AcDbCircle
 62
7
  6
CONTINUOUS
 10
-16.490443311
 20
37.8837888522
 40
0.6
  0
CIRCLE
  5
5CE
100
AcDbEntity
  8
ASSI
100
AcDbCircle
 62
7
  6
CONTINUOUS
 10
-16.490443311
 20
37.8837888522
 40
0.6
  0
CIRCLE
  5
5CF
100
AcDbEntity
  8
0
100
AcDbCircle
 62
7
  6
CONTINUOUS
 10
-7.790443311
 20
5.8837888522
 40
0.6
  0
CIRCLE
  5
5D0
100
AcDbEntity
  8
ASSI
100
AcDbCircle
 62
7
  6
CONTINUOUS
 10
-7.790443311
 20
5.8837888522
 40
0.6
  0
CIRCLE
  5
5D1
100
AcDbEntity
  8
0
100
AcDbCircle
 62
7
  6
CONTINUOUS
 10
-7.790443311
 20
14.9837888522
 40
0.6
  0
CIRCLE
  5
5D2
100
AcDbEntity
  8
ASSI
100
AcDbCircle
 62
7
  6
CONTINUOUS
 10
-7.790443311
 20
14.9837888522
 40
0.6
  0
ARC
  5
5D3
100
AcDbEntity
  8
0
100
AcDbCircle
 62
7
  6
CONTINUOUS
 10
-8.0026237876
 20
21.0959693288
 40
0.4982662378
100
AcDbArc
 50
277.0850013286
 51
352.9149986714
  0
ARC
  5
5D4
100
AcDbEntity
  8
0
100
AcDbCircle
 62
253
  6
CONTINUOUS
 10
-7.087864066
 20
2.3863680972
 40
0.3000161559
100
AcDbArc
 50
0.0052311731
 51
89.9947688269
  0
ARC
  5
5D5
100
AcDbEntity
  8
0
100
AcDbCircle
 62
253
  6
CONTINUOUS
 10
-7.2930225444
 20
2.3863680856
 40
0.3000161559
100
AcDbArc
 50
90.0052333974
 51
179.9947666026
  0
CIRCLE
  5
5D6
100
AcDbEntity
  8
0
100
AcDbCircle
 62
7
  6
CONTINUOUS
 10
-7.890443311
 20
28.7837888522
 40
0.6
  0
CIRCLE
  5
5D7
100
AcDbEntity
  8
ASSI
100
AcDbCircle
 62
7
  6
CONTINUOUS
 10
-7.890443311
 20
28.7837888522
 40
0.6
  0
ARC
  5
5D8
100
AcDbEntity
  8
0
100
AcDbCircle
 62
7
  6
CONTINUOUS
 10
-8.0026238237
 20
22.6716083396
 40
0.4982662378
100
AcDbArc
 50
7.0850049337
 51
82.9149950663
  0
ARC
  5
5D9
100
AcDbEntity
  8
0
100
AcDbCircle
 62
7
  6
CONTINUOUS
 10
-8.390443311
 20
24.5837888522
 40
0.3
100
AcDbArc
 50
0.0
 51
90.0
  0
CIRCLE
  5
5DA
100
AcDbEntity
  8
0
100
AcDbCircle
 62
7
  6
CONTINUOUS
 10
-7.890443311
 20
37.8837888522
 40
0.6
  0
CIRCLE
  5
5DB
100
AcDbEntity
  8
ASSI
100
AcDbCircle
 62
7
  6
CONTINUOUS
 10
-7.890443311
 20
37.8837888522
 40
0.6
  0
ARC
  5
5DC
100
AcDbEntity
  8
0
100
AcDbCircle
 62
7
  6
CONTINUOUS
 10
-7.240443311
 20
23.4337888522
 40
0.9
100
AcDbArc
 50
0.0
 51
90.0
  0
ARC
  5
5DD
100
AcDbEntity
  8
0
100
AcDbCircle
 62
7
  6
CONTINUOUS
 10
-7.290443311
 20
41.3837888522
 40
0.3
100
AcDbArc
 50
180.0
 51
270.0
  0
ARC
  5
5DE
100
AcDbEntity
  8
0
100
AcDbCircle
 62
7
  6
CONTINUOUS
 10
-7.090443311
 20
41.3837888522
 40
0.3
100
AcDbArc
 50
270.0
 51
360.0
  0
SPLINE
  5
5DF
100
AcDbEntity
  8
0
100
AcDbSpline
 62
7
  6
CONTINUOUS
 70
0
 71
3
 72
29
 73
25
 74
0
 42
0.0000001
 43
0.0000001
 44
0.0000000001
 40
0.0
 40
0.0
 40
0.0
 40
0.0
 40
0.0487369455
 40
0.096610268
 40
0.1436684011
 40
0.1899718192
 40
0.2355927776
 40
0.2806124699
 40
0.325120152
 40
0.3692112037
 40
0.4129856528
 40
0.4565472478
 40
0.5000017524
 40
0.5434562076
 40
0.587017663
 40
0.630791861
 40
0.6748826024
 40
0.7193898881
 40
0.7644091576
 40
0.8100296016
 40
0.8563325107
 40
0.90339017
 40
0.9512631893
 40
1.0
 40
1.0
 40
1.0
 40
1.0
 10
-17.690443311
 20
38.1440962315
 30
0.0
 10
-17.690443311
 20
38.168191794
 30
0.0
 10
-17.6887973139
 20
38.215973375
 30
0.0
 10
-17.6813904023
 20
38.2866716427
 30
0.0
 10
-17.6692402898
 20
38.3554925936
 30
0.0
 10
-17.6525251332
 20
38.4222007892
 30
0.0
 10
-17.631424226
 20
38.4865943266
 30
0.0
 10
-17.6061138691
 20
38.5484941566
 30
0.0
 10
-17.5767645038
 20
38.6077410879
 30
0.0
 10
-17.5435387125
 20
38.6641908577
 30
0.0
 10
-17.5065902846
 20
38.7177097221
 30
0.0
 10
-17.4660642274
 20
38.7681700816
 30
0.0
 10
-17.4220975016
 20
38.8154466896
 30
0.0
 10
-17.3748206888
 20
38.8594130937
 30
0.0
 10
-17.3243602711
 20
38.8999387301
 30
0.0
 10
-17.270841498
 20
38.9368866783
 30
0.0
 10
-17.2143919792
 20
38.9701119599
 30
0.0
 10
-17.1551454285
 20
38.9994608321
 30
0.0
 10
-17.093246124
 20
39.0247707274
 30
0.0
 10
-17.0288532126
 20
39.0458712426
 30
0.0
 10
-16.9621457071
 20
39.0625860999
 30
0.0
 10
-16.8933253718
 20
39.0747360321
 30
0.0
 10
-16.8226275504
 20
39.0821428672
 30
0.0
 10
-16.7748461862
 20
39.0837888522
 30
0.0
 10
-16.7507506902
 20
39.0837888522
 30
0.0
  0
SPLINE
  5
5E0
100
AcDbEntity
  8
0
100
AcDbSpline
 62
7
  6
CONTINUOUS
 70
0
 71
3
 72
29
 73
25
 74
0
 42
0.0000001
 43
0.0000001
 44
0.0000000001
 40
0.0
 40
0.0
 40
0.0
 40
0.0
 40
0.0487369455
 40
0.096610268
 40
0.1436684011
 40
0.1899718192
 40
0.2355927776
 40
0.2806124699
 40
0.325120152
 40
0.3692112037
 40
0.4129856528
 40
0.4565472478
 40
0.5000017524
 40
0.5434562076
 40
0.587017663
 40
0.630791861
 40
0.6748826024
 40
0.7193898881
 40
0.7644091576
 40
0.8100296016
 40
0.8563325107
 40
0.90339017
 40
0.9512631893
 40
1.0
 40
1.0
 40
1.0
 40
1.0
 10
-7.6301359318
 20
39.0837888522
 30
0.0
 10
-7.6060403692
 20
39.0837888522
 30
0.0
 10
-7.5582587883
 20
39.0821428552
 30
0.0
 10
-7.4875605205
 20
39.0747359435
 30
0.0
 10
-7.4187395696
 20
39.0625858311
 30
0.0
 10
-7.3520313741
 20
39.0458706744
 30
0.0
 10
-7.2876378366
 20
39.0247697672
 30
0.0
 10
-7.2257380066
 20
38.9994594104
 30
0.0
 10
-7.1664910754
 20
38.970110045
 30
0.0
 10
-7.1100413056
 20
38.9368842537
 30
0.0
 10
-7.0565224412
 20
38.8999358258
 30
0.0
 10
-7.0060620817
 20
38.8594097686
 30
0.0
 10
-6.9587854736
 20
38.8154430428
 30
0.0
 10
-6.9148190696
 20
38.76816623
 30
0.0
 10
-6.8742934332
 20
38.7177058123
 30
0.0
 10
-6.837345485
 20
38.6641870392
 30
0.0
 10
-6.8041202033
 20
38.6077375204
 30
0.0
 10
-6.7747713312
 20
38.5484909698
 30
0.0
 10
-6.7494614358
 20
38.4865916652
 30
0.0
 10
-6.7283609206
 20
38.4221987538
 30
0.0
 10
-6.7116460634
 20
38.3554912483
 30
0.0
 10
-6.6994961312
 20
38.2866709131
 30
0.0
 10
-6.6920892961
 20
38.2159730916
 30
0.0
 10
-6.690443311
 20
38.1681917274
 30
0.0
 10
-6.690443311
 20
38.1440962315
 30
0.0
  0
SPLINE
  5
5E1
100
AcDbEntity
  8
0
100
AcDbSpline
 62
7
  6
CONTINUOUS
 70
0
 71
3
 72
29
 73
25
 74
0
 42
0.0000001
 43
0.0000001
 44
0.0000000001
 40
0.0
 40
0.0
 40
0.0
 40
0.0
 40
0.0487369455
 40
0.096610268
 40
0.1436684011
 40
0.1899718192
 40
0.2355927776
 40
0.2806124699
 40
0.325120152
 40
0.3692112037
 40
0.4129856528
 40
0.4565472478
 40
0.5000017524
 40
0.5434562076
 40
0.587017663
 40
0.630791861
 40
0.6748826024
 40
0.7193898881
 40
0.7644091576
 40
0.8100296016
 40
0.8563325107
 40
0.90339017
 40
0.9512631893
 40
1.0
 40
1.0
 40
1.0
 40
1.0
 10
-6.690443311
 20
28.523481473
 30
0.0
 10
-6.690443311
 20
28.4993859104
 30
0.0
 10
-6.6920893081
 20
28.4516043295
 30
0.0
 10
-6.6994962198
 20
28.3809060618
 30
0.0
 10
-6.7116463322
 20
28.3120851109
 30
0.0
 10
-6.7283614888
 20
28.2453769153
 30
0.0
 10
-6.749462396
 20
28.1809833779
 30
0.0
 10
-6.7747727529
 20
28.1190835479
 30
0.0
 10
-6.8041221183
 20
28.0598366166
 30
0.0
 10
-6.8373479096
 20
28.0033868468
 30
0.0
 10
-6.8742963374
 20
27.9498679824
 30
0.0
 10
-6.9148223947
 20
27.8994076229
 30
0.0
 10
-6.9587891205
 20
27.8521310149
 30
0.0
 10
-7.0060659332
 20
27.8081646108
 30
0.0
 10
-7.0565263509
 20
27.7676389744
 30
0.0
 10
-7.1100451241
 20
27.7306910262
 30
0.0
 10
-7.1664946429
 20
27.6974657445
 30
0.0
 10
-7.2257411935
 20
27.6681168724
 30
0.0
 10
-7.2876404981
 20
27.6428069771
 30
0.0
 10
-7.3520334095
 20
27.6217064619
 30
0.0
 10
-7.4187409149
 20
27.6049916046
 30
0.0
 10
-7.4875612502
 20
27.5928416724
 30
0.0
 10
-7.5582590716
 20
27.5854348373
 30
0.0
 10
-7.6060404359
 20
27.5837888522
 30
0.0
 10
-7.6301359318
 20
27.5837888522
 30
0.0
  0
SPLINE
  5
5E2
100
AcDbEntity
  8
0
100
AcDbSpline
 62
7
  6
CONTINUOUS
 70
0
 71
3
 72
29
 73
25
 74
0
 42
0.0000001
 43
0.0000001
 44
0.0000000001
 40
0.0
 40
0.0
 40
0.0
 40
0.0
 40
0.0487369455
 40
0.096610268
 40
0.1436684011
 40
0.1899718192
 40
0.2355927776
 40
0.2806124699
 40
0.325120152
 40
0.3692112037
 40
0.4129856528
 40
0.4565472478
 40
0.5000017524
 40
0.5434562076
 40
0.587017663
 40
0.630791861
 40
0.6748826024
 40
0.7193898881
 40
0.7644091576
 40
0.8100296016
 40
0.8563325107
 40
0.90339017
 40
0.9512631893
 40
1.0
 40
1.0
 40
1.0
 40
1.0
 10
-16.7507506902
 20
27.5837888522
 30
0.0
 10
-16.7748462528
 20
27.5837888522
 30
0.0
 10
-16.8226278338
 20
27.5854348493
 30
0.0
 10
-16.8933261015
 20
27.592841761
 30
0.0
 10
-16.9621470524
 20
27.6049918734
 30
0.0
 10
-17.0288552479
 20
27.6217070301
 30
0.0
 10
-17.0932487854
 20
27.6428079373
 30
0.0
 10
-17.1551486154
 20
27.6681182941
 30
0.0
 10
-17.2143955467
 20
27.6974676595
 30
0.0
 10
-17.2708453165
 20
27.7306934508
 30
0.0
 10
-17.3243641808
 20
27.7676418787
 30
0.0
 10
-17.3748245404
 20
27.8081679359
 30
0.0
 10
-17.4221011484
 20
27.8521346617
 30
0.0
 10
-17.4660675525
 20
27.8994114744
 30
0.0
 10
-17.5065931888
 20
27.9498718922
 30
0.0
 10
-17.5435411371
 20
28.0033906653
 30
0.0
 10
-17.5767664187
 20
28.0598401841
 30
0.0
 10
-17.6061152908
 20
28.1190867347
 30
0.0
 10
-17.6314251862
 20
28.1809860393
 30
0.0
 10
-17.6525257014
 20
28.2453789507
 30
0.0
 10
-17.6692405587
 20
28.3120864562
 30
0.0
 10
-17.6813904909
 20
28.3809067914
 30
0.0
 10
-17.688797326
 20
28.4516046128
 30
0.0
 10
-17.690443311
 20
28.4993859771
 30
0.0
 10
-17.690443311
 20
28.523481473
 30
0.0
  0
SPLINE
  5
5E3
100
AcDbEntity
  8
0
100
AcDbSpline
 62
7
  6
CONTINUOUS
 70
0
 71
3
 72
29
 73
25
 74
0
 42
0.0000001
 43
0.0000001
 44
0.0000000001
 40
0.0
 40
0.0
 40
0.0
 40
0.0
 40
0.0487369455
 40
0.096610268
 40
0.1436684011
 40
0.1899718192
 40
0.2355927776
 40
0.2806124699
 40
0.325120152
 40
0.3692112037
 40
0.4129856528
 40
0.4565472478
 40
0.5000017524
 40
0.5434562076
 40
0.587017663
 40
0.630791861
 40
0.6748826024
 40
0.7193898881
 40
0.7644091576
 40
0.8100296016
 40
0.8563325107
 40
0.90339017
 40
0.9512631893
 40
1.0
 40
1.0
 40
1.0
 40
1.0
 10
-16.8507506902
 20
4.6837888522
 30
0.0
 10
-16.8748462528
 20
4.6837888522
 30
0.0
 10
-16.9226278338
 20
4.6854348493
 30
0.0
 10
-16.9933261015
 20
4.692841761
 30
0.0
 10
-17.0621470524
 20
4.7049918734
 30
0.0
 10
-17.1288552479
 20
4.7217070301
 30
0.0
 10
-17.1932487854
 20
4.7428079373
 30
0.0
 10
-17.2551486154
 20
4.7681182941
 30
0.0
 10
-17.3143955467
 20
4.7974676595
 30
0.0
 10
-17.3708453165
 20
4.8306934508
 30
0.0
 10
-17.4243641808
 20
4.8676418787
 30
0.0
 10
-17.4748245404
 20
4.9081679359
 30
0.0
 10
-17.5221011484
 20
4.9521346617
 30
0.0
 10
-17.5660675525
 20
4.9994114744
 30
0.0
 10
-17.6065931888
 20
5.0498718922
 30
0.0
 10
-17.6435411371
 20
5.1033906653
 30
0.0
 10
-17.6767664187
 20
5.1598401841
 30
0.0
 10
-17.7061152908
 20
5.2190867347
 30
0.0
 10
-17.7314251862
 20
5.2809860393
 30
0.0
 10
-17.7525257014
 20
5.3453789507
 30
0.0
 10
-17.7692405587
 20
5.4120864562
 30
0.0
 10
-17.7813904909
 20
5.4809067914
 30
0.0
 10
-17.788797326
 20
5.5516046128
 30
0.0
 10
-17.790443311
 20
5.5993859771
 30
0.0
 10
-17.790443311
 20
5.623481473
 30
0.0
  0
SPLINE
  5
5E4
100
AcDbEntity
  8
0
100
AcDbSpline
 62
7
  6
CONTINUOUS
 70
0
 71
3
 72
29
 73
25
 74
0
 42
0.0000001
 43
0.0000001
 44
0.0000000001
 40
0.0
 40
0.0
 40
0.0
 40
0.0
 40
0.0487369455
 40
0.096610268
 40
0.1436684011
 40
0.1899718192
 40
0.2355927776
 40
0.2806124699
 40
0.325120152
 40
0.3692112037
 40
0.4129856528
 40
0.4565472478
 40
0.5000017524
 40
0.5434562076
 40
0.587017663
 40
0.630791861
 40
0.6748826024
 40
0.7193898881
 40
0.7644091576
 40
0.8100296016
 40
0.8563325107
 40
0.90339017
 40
0.9512631893
 40
1.0
 40
1.0
 40
1.0
 40
1.0
 10
-17.790443311
 20
15.2440962315
 30
0.0
 10
-17.790443311
 20
15.268191794
 30
0.0
 10
-17.7887973139
 20
15.315973375
 30
0.0
 10
-17.7813904023
 20
15.3866716427
 30
0.0
 10
-17.7692402898
 20
15.4554925936
 30
0.0
 10
-17.7525251332
 20
15.5222007892
 30
0.0
 10
-17.731424226
 20
15.5865943266
 30
0.0
 10
-17.7061138691
 20
15.6484941566
 30
0.0
 10
-17.6767645038
 20
15.7077410879
 30
0.0
 10
-17.6435387125
 20
15.7641908577
 30
0.0
 10
-17.6065902846
 20
15.8177097221
 30
0.0
 10
-17.5660642274
 20
15.8681700816
 30
0.0
 10
-17.5220975016
 20
15.9154466896
 30
0.0
 10
-17.4748206888
 20
15.9594130937
 30
0.0
 10
-17.4243602711
 20
15.9999387301
 30
0.0
 10
-17.370841498
 20
16.0368866783
 30
0.0
 10
-17.3143919792
 20
16.0701119599
 30
0.0
 10
-17.2551454285
 20
16.0994608321
 30
0.0
 10
-17.193246124
 20
16.1247707274
 30
0.0
 10
-17.1288532126
 20
16.1458712426
 30
0.0
 10
-17.0621457071
 20
16.1625860999
 30
0.0
 10
-16.9933253718
 20
16.1747360321
 30
0.0
 10
-16.9226275504
 20
16.1821428672
 30
0.0
 10
-16.8748461862
 20
16.1837888522
 30
0.0
 10
-16.8507506902
 20
16.1837888522
 30
0.0
  0
SPLINE
  5
5E5
100
AcDbEntity
  8
0
100
AcDbSpline
 62
7
  6
CONTINUOUS
 70
0
 71
3
 72
29
 73
25
 74
0
 42
0.0000001
 43
0.0000001
 44
0.0000000001
 40
0.0
 40
0.0
 40
0.0
 40
0.0
 40
0.0487369455
 40
0.096610268
 40
0.1436684011
 40
0.1899718192
 40
0.2355927776
 40
0.2806124699
 40
0.325120152
 40
0.3692112037
 40
0.4129856528
 40
0.4565472478
 40
0.5000017524
 40
0.5434562076
 40
0.587017663
 40
0.630791861
 40
0.6748826024
 40
0.7193898881
 40
0.7644091576
 40
0.8100296016
 40
0.8563325107
 40
0.90339017
 40
0.9512631893
 40
1.0
 40
1.0
 40
1.0
 40
1.0
 10
-7.5301359318
 20
16.1837888522
 30
0.0
 10
-7.5060403692
 20
16.1837888522
 30
0.0
 10
-7.4582587883
 20
16.1821428552
 30
0.0
 10
-7.3875605205
 20
16.1747359435
 30
0.0
 10
-7.3187395696
 20
16.1625858311
 30
0.0
 10
-7.2520313741
 20
16.1458706744
 30
0.0
 10
-7.1876378366
 20
16.1247697672
 30
0.0
 10
-7.1257380066
 20
16.0994594104
 30
0.0
 10
-7.0664910754
 20
16.070110045
 30
0.0
 10
-7.0100413056
 20
16.0368842537
 30
0.0
 10
-6.9565224412
 20
15.9999358258
 30
0.0
 10
-6.9060620817
 20
15.9594097686
 30
0.0
 10
-6.8587854736
 20
15.9154430428
 30
0.0
 10
-6.8148190696
 20
15.86816623
 30
0.0
 10
-6.7742934332
 20
15.8177058123
 30
0.0
 10
-6.737345485
 20
15.7641870392
 30
0.0
 10
-6.7041202033
 20
15.7077375204
 30
0.0
 10
-6.6747713312
 20
15.6484909698
 30
0.0
 10
-6.6494614358
 20
15.5865916652
 30
0.0
 10
-6.6283609206
 20
15.5221987538
 30
0.0
 10
-6.6116460634
 20
15.4554912483
 30
0.0
 10
-6.5994961312
 20
15.3866709131
 30
0.0
 10
-6.5920892961
 20
15.3159730916
 30
0.0
 10
-6.590443311
 20
15.2681917274
 30
0.0
 10
-6.590443311
 20
15.2440962315
 30
0.0
  0
SPLINE
  5
5E6
100
AcDbEntity
  8
0
100
AcDbSpline
 62
7
  6
CONTINUOUS
 70
0
 71
3
 72
29
 73
25
 74
0
 42
0.0000001
 43
0.0000001
 44
0.0000000001
 40
0.0
 40
0.0
 40
0.0
 40
0.0
 40
0.0487369455
 40
0.096610268
 40
0.1436684011
 40
0.1899718192
 40
0.2355927776
 40
0.2806124699
 40
0.325120152
 40
0.3692112037
 40
0.4129856528
 40
0.4565472478
 40
0.5000017524
 40
0.5434562076
 40
0.587017663
 40
0.630791861
 40
0.6748826024
 40
0.7193898881
 40
0.7644091576
 40
0.8100296016
 40
0.8563325107
 40
0.90339017
 40
0.9512631893
 40
1.0
 40
1.0
 40
1.0
 40
1.0
 10
-6.590443311
 20
5.623481473
 30
0.0
 10
-6.590443311
 20
5.5993859104
 30
0.0
 10
-6.5920893081
 20
5.5516043295
 30
0.0
 10
-6.5994962198
 20
5.4809060618
 30
0.0
 10
-6.6116463322
 20
5.4120851109
 30
0.0
 10
-6.6283614888
 20
5.3453769153
 30
0.0
 10
-6.649462396
 20
5.2809833779
 30
0.0
 10
-6.6747727529
 20
5.2190835479
 30
0.0
 10
-6.7041221183
 20
5.1598366166
 30
0.0
 10
-6.7373479096
 20
5.1033868468
 30
0.0
 10
-6.7742963374
 20
5.0498679824
 30
0.0
 10
-6.8148223947
 20
4.9994076229
 30
0.0
 10
-6.8587891205
 20
4.9521310149
 30
0.0
 10
-6.9060659332
 20
4.9081646108
 30
0.0
 10
-6.9565263509
 20
4.8676389744
 30
0.0
 10
-7.0100451241
 20
4.8306910262
 30
0.0
 10
-7.0664946429
 20
4.7974657445
 30
0.0
 10
-7.1257411935
 20
4.7681168724
 30
0.0
 10
-7.1876404981
 20
4.7428069771
 30
0.0
 10
-7.2520334095
 20
4.7217064619
 30
0.0
 10
-7.3187409149
 20
4.7049916046
 30
0.0
 10
-7.3875612502
 20
4.6928416724
 30
0.0
 10
-7.4582590716
 20
4.6854348373
 30
0.0
 10
-7.5060404359
 20
4.6837888522
 30
0.0
 10
-7.5301359318
 20
4.6837888522
 30
0.0
  0
SPLINE
  5
5E7
100
AcDbEntity
  8
0
100
AcDbSpline
 62
7
  6
CONTINUOUS
 70
0
 71
3
 72
13
 73
9
 74
0
 42
0.0000001
 43
0.0000001
 44
0.0000000001
 40
0.0
 40
0.0
 40
0.0
 40
0.0
 40
0.2440725748
 40
0.3951577075
 40
0.5865882214
 40
0.7510137821
 40
0.8853877135
 40
1.0
 40
1.0
 40
1.0
 40
1.0
 10
-5.5786988072
 20
26.863942118
 30
0.0
 10
-5.5787003173
 20
26.9236878527
 30
0.0
 10
-5.5968138519
 20
27.0224670655
 30
0.0
 10
-5.6751089246
 20
27.1453587462
 30
0.0
 10
-5.7763810853
 20
27.2220891965
 30
0.0
 10
-5.8894406127
 20
27.2646819237
 30
0.0
 10
-5.9894025289
 20
27.2836284442
 30
0.0
 10
-6.0505070211
 20
27.2841855475
 30
0.0
 10
-6.078562511
 20
27.2841855475
 30
0.0
  0
SPLINE
  5
5E8
100
AcDbEntity
  8
0
100
AcDbSpline
 62
7
  6
CONTINUOUS
 70
0
 71
3
 72
13
 73
9
 74
0
 42
0.0000001
 43
0.0000001
 44
0.0000000001
 40
0.0
 40
0.0
 40
0.0
 40
0.0
 40
0.1146100384
 40
0.248981334
 40
0.4134036696
 40
0.6048304286
 40
0.7559125977
 40
1.0
 40
1.0
 40
1.0
 40
1.0
 10
-6.078562511
 20
27.2841855475
 30
0.0
 10
-6.1066180009
 20
27.2841855475
 30
0.0
 10
-6.1677224931
 20
27.2836284442
 30
0.0
 10
-6.2676844093
 20
27.2646819237
 30
0.0
 10
-6.3807439368
 20
27.2220891965
 30
0.0
 10
-6.4820160974
 20
27.1453587462
 30
0.0
 10
-6.5603137883
 20
27.022462956
 30
0.0
 10
-6.5784265029
 20
26.923678046
 30
0.0
 10
-6.5784262149
 20
26.8639277133
 30
0.0
  0
SPLINE
  5
5E9
100
AcDbEntity
  8
0
100
AcDbSpline
 62
7
  6
CONTINUOUS
 70
0
 71
3
 72
13
 73
9
 74
0
 42
0.0000001
 43
0.0000001
 44
0.0000000001
 40
0.0
 40
0.0
 40
0.0
 40
0.0
 40
0.1573222548
 40
0.3022122718
 40
0.4829436828
 40
0.6858886477
 40
0.8294071249
 40
1.0
 40
1.0
 40
1.0
 40
1.0
 10
-6.4627619597
 20
26.8458042286
 30
0.0
 10
-6.4627625234
 20
26.8747070017
 30
0.0
 10
-6.4567097185
 20
26.9305562317
 30
0.0
 10
-6.4221891765
 20
27.0140195562
 30
0.0
 10
-6.3512128094
 20
27.0841264362
 30
0.0
 10
-6.2615101034
 20
27.125279247
 30
0.0
 10
-6.1676091702
 20
27.1415389155
 30
0.0
 10
-6.1099033557
 20
27.145544711
 30
0.0
 10
-6.078562511
 20
27.145544711
 30
0.0
  0
SPLINE
  5
5EA
100
AcDbEntity
  8
0
100
AcDbSpline
 62
7
  6
CONTINUOUS
 70
0
 71
3
 72
13
 73
9
 74
0
 42
0.0000001
 43
0.0000001
 44
0.0000000001
 40
0.0
 40
0.0
 40
0.0
 40
0.0
 40
0.1705969758
 40
0.3141189028
 40
0.517068746
 40
0.6978045014
 40
0.8426980012
 40
1.0
 40
1.0
 40
1.0
 40
1.0
 10
-6.078562511
 20
27.145544711
 30
0.0
 10
-6.0472216663
 20
27.145544711
 30
0.0
 10
-5.9895158518
 20
27.1415389155
 30
0.0
 10
-5.8956149186
 20
27.125279247
 30
0.0
 10
-5.8059122126
 20
27.0841264362
 30
0.0
 10
-5.7349358455
 20
27.0140195562
 30
0.0
 10
-5.7004170217
 20
26.9305603858
 30
0.0
 10
-5.6943634615
 20
26.8747158859
 30
0.0
 10
-5.6943630622
 20
26.8458174767
 30
0.0
  0
SPLINE
  5
5EB
100
AcDbEntity
  8
0
100
AcDbSpline
 62
7
  6
CONTINUOUS
 70
0
 71
3
 72
10
 73
6
 74
0
 42
0.0000001
 43
0.0000001
 44
0.0000000001
 40
0.0
 40
0.0
 40
0.0
 40
0.0
 40
0.5155508727
 40
0.7534353234
 40
1.0
 40
1.0
 40
1.0
 40
1.0
 10
-5.9870500426
 20
40.1110908937
 30
0.0
 10
-5.9941681108
 20
40.1528062012
 30
0.0
 10
-6.0019686744
 20
40.2144239362
 30
0.0
 10
-6.0015975284
 20
40.2965976704
 30
0.0
 10
-5.9982127929
 20
40.3362597296
 30
0.0
 10
-5.9958792772
 20
40.3563636572
 30
0.0
  0
SPLINE
  5
5EC
100
AcDbEntity
  8
0
100
AcDbSpline
 62
7
  6
CONTINUOUS
 70
0
 71
3
 72
11
 73
7
 74
0
 42
0.0000001
 43
0.0000001
 44
0.0000000001
 40
0.0
 40
0.0
 40
0.0
 40
0.0
 40
0.2563160025
 40
0.5004807908
 40
0.743096622
 40
1.0
 40
1.0
 40
1.0
 40
1.0
 10
-5.9958792772
 20
40.3563636572
 30
0.0
 10
-5.9931101987
 20
40.3802145093
 30
0.0
 10
-5.9802859356
 20
40.4263644428
 30
0.0
 10
-5.9392228028
 20
40.4843495673
 30
0.0
 10
-5.8797219321
 20
40.5236928883
 30
0.0
 10
-5.8324477148
 20
40.5328419287
 30
0.0
 10
-5.8083845751
 20
40.533218288
 30
0.0
  0
SPLINE
  5
5ED
100
AcDbEntity
  8
0
100
AcDbSpline
 62
7
  6
CONTINUOUS
 70
0
 71
3
 72
15
 73
11
 74
0
 42
0.0000001
 43
0.0000001
 44
0.0000000001
 40
0.0
 40
0.0
 40
0.0
 40
0.0
 40
0.1566388749
 40
0.291183068
 40
0.4114682686
 40
0.5250598557
 40
0.6380159125
 40
0.7540986409
 40
0.8748267263
 40
1.0
 40
1.0
 40
1.0
 40
1.0
 10
-5.8083845751
 20
40.533218288
 30
0.0
 10
-5.7883630953
 20
40.5335272255
 30
0.0
 10
-5.7509578511
 20
40.5312686929
 30
0.0
 10
-5.6998152505
 20
40.5171941836
 30
0.0
 10
-5.6583557305
 20
40.4937799182
 30
0.0
 10
-5.6262848352
 20
40.4624874805
 30
0.0
 10
-5.6028869781
 20
40.4250424985
 30
0.0
 10
-5.5871152698
 20
40.3829499936
 30
0.0
 10
-5.5779419616
 20
40.3374416185
 30
0.0
 10
-5.575661344
 20
40.3060125337
 30
0.0
 10
-5.5753040286
 20
40.2900150521
 30
0.0
  0
SPLINE
  5
5EE
100
AcDbEntity
  8
0
100
AcDbSpline
 62
7
  6
CONTINUOUS
 70
0
 71
3
 72
11
 73
7
 74
0
 42
0.0000001
 43
0.0000001
 44
0.0000000001
 40
0.0
 40
0.0
 40
0.0
 40
0.0
 40
0.1980138724
 40
0.4790572041
 40
0.7705716328
 40
1.0
 40
1.0
 40
1.0
 40
1.0
 10
-4.7426903329
 20
40.9020665938
 30
0.0
 10
-4.7694320825
 20
40.8948036104
 30
0.0
 10
-4.8342832215
 20
40.8778065423
 30
0.0
 10
-4.9386080202
 20
40.850516909
 30
0.0
 10
-5.0471800718
 20
40.8220915128
 30
0.0
 10
-5.1176662961
 20
40.8034757143
 30
0.0
 10
-5.148643919
 20
40.7950360249
 30
0.0
  0
SPLINE
  5
5EF
100
AcDbEntity
  8
0
100
AcDbSpline
 62
7
  6
CONTINUOUS
 70
0
 71
3
 72
13
 73
9
 74
0
 42
0.0000001
 43
0.0000001
 44
0.0000000001
 40
0.0
 40
0.0
 40
0.0
 40
0.0
 40
0.2367002196
 40
0.4930608629
 40
0.6210774851
 40
0.7470391497
 40
0.872028646
 40
1.0
 40
1.0
 40
1.0
 40
1.0
 10
-5.148643919
 20
40.7950360249
 30
0.0
 10
-5.1758992418
 20
40.7876108541
 30
0.0
 10
-5.2327315659
 20
40.7724331117
 30
0.0
 10
-5.3025823
 20
40.7466504416
 30
0.0
 10
-5.3559327
 20
40.7169628797
 30
0.0
 10
-5.3920687397
 20
40.6894217474
 30
0.0
 10
-5.4225009065
 20
40.6555475417
 30
0.0
 10
-5.4371637256
 20
40.6287572856
 30
0.0
 10
-5.4428205196
 20
40.6145709682
 30
0.0
  0
SPLINE
  5
5F0
100
AcDbEntity
  8
0
100
AcDbSpline
 62
7
  6
CONTINUOUS
 70
0
 71
3
 72
38
 73
34
 74
0
 42
0.0000001
 43
0.0000001
 44
0.0000000001
 40
0.0
 40
0.0
 40
0.0
 40
0.0
 40
0.0073509397
 40
0.0194262906
 40
0.035821938
 40
0.0561164011
 40
0.0799111054
 40
0.1068448358
 40
0.1688952035
 40
0.240547603
 40
0.2798093939
 40
0.3214225051
 40
0.365577965
 40
0.4125734244
 40
0.4372648142
 40
0.4628238751
 40
0.4893149055
 40
0.5029323401
 40
0.5168090824
 40
0.5279417531
 40
0.5389072551
 40
0.5603568752
 40
0.5812003875
 40
0.6014765287
 40
0.6404589735
 40
0.6775665652
 40
0.7130014288
 40
0.7469122425
 40
0.8104434329
 40
0.8683635106
 40
0.9200965543
 40
0.9644958844
 40
1.0
 40
1.0
 40
1.0
 40
1.0
 10
-5.4516834965
 20
40.6145709682
 30
0.0
 10
-5.4519772365
 20
40.6168474529
 30
0.0
 10
-5.4541303634
 20
40.6226084654
 30
0.0
 10
-5.4589561494
 20
40.6326641321
 30
0.0
 10
-5.4667174898
 20
40.6458053425
 30
0.0
 10
-5.4773530675
 20
40.661417717
 30
0.0
 10
-5.4910007628
 20
40.6789220715
 30
0.0
 10
-5.5144055273
 20
40.7052614864
 30
0.0
 10
-5.5515995547
 20
40.7391821454
 30
0.0
 10
-5.5967629812
 20
40.7692676619
 30
0.0
 10
-5.6394571916
 20
40.790496366
 30
0.0
 10
-5.6759108562
 20
40.8046378741
 30
0.0
 10
-5.7158721715
 20
40.8159027791
 30
0.0
 10
-5.7515417078
 20
40.8222825137
 30
0.0
 10
-5.7817517088
 20
40.8254456402
 30
0.0
 10
-5.8056877822
 20
40.8267698483
 30
0.0
 10
-5.826200896
 20
40.8269046804
 30
0.0
 10
-5.8430519591
 20
40.8264101029
 30
0.0
 10
-5.8550978115
 20
40.8257738699
 30
0.0
 10
-5.8662998924
 20
40.8249260236
 30
0.0
 10
-5.8798351379
 20
40.8236128842
 30
0.0
 10
-5.8963341814
 20
40.8214860781
 30
0.0
 10
-5.91559301
 20
40.8181615428
 30
0.0
 10
-5.9400413202
 20
40.8128513731
 30
0.0
 10
-5.9690183762
 20
40.8045919336
 30
0.0
 10
-6.0016055675
 20
40.7921973442
 30
0.0
 10
-6.0316061576
 20
40.7777904932
 30
0.0
 10
-6.0674498032
 20
40.7568183132
 30
0.0
 10
-6.1063791197
 20
40.7275349942
 30
0.0
 10
-6.1446482117
 20
40.6891040234
 30
0.0
 10
-6.1740535095
 20
40.6508778339
 30
0.0
 10
-6.1951730159
 20
40.6155231812
 30
0.0
 10
-6.2054922243
 20
40.5927192788
 30
0.0
 10
-6.2092543217
 20
40.5822908365
 30
0.0
  0
SPLINE
  5
5F1
100
AcDbEntity
  8
0
100
AcDbSpline
 62
7
  6
CONTINUOUS
 70
0
 71
3
 72
15
 73
11
 74
0
 42
0.0000001
 43
0.0000001
 44
0.0000000001
 40
0.0
 40
0.0
 40
0.0
 40
0.0
 40
0.0449286911
 40
0.1077693214
 40
0.1906181565
 40
0.2959333553
 40
0.4264678428
 40
0.5852019261
 40
0.7752867232
 40
1.0
 40
1.0
 40
1.0
 40
1.0
 10
-6.2092543217
 20
40.5822908365
 30
0.0
 10
-6.2132215122
 20
40.5713098192
 30
0.0
 10
-6.2221701728
 20
40.5447568714
 30
0.0
 10
-6.234798009
 20
40.4968109333
 30
0.0
 10
-6.2467569224
 20
40.4326280222
 30
0.0
 10
-6.2559903272
 20
40.3502539269
 30
0.0
 10
-6.2604696244
 20
40.247738421
 30
0.0
 10
-6.2581562618
 20
40.1231164242
 30
0.0
 10
-6.2470173669
 20
39.974420653
 30
0.0
 10
-6.23354535
 20
39.8674230882
 30
0.0
 10
-6.2250457172
 20
39.8096484516
 30
0.0
  0
SPLINE
  5
5F2
100
AcDbEntity
  8
0
100
AcDbSpline
 62
7
  6
CONTINUOUS
 70
0
 71
3
 72
10
 73
6
 74
0
 42
0.0000001
 43
0.0000001
 44
0.0000000001
 40
0.0
 40
0.0
 40
0.0
 40
0.0
 40
0.3517340052
 40
0.6302069713
 40
1.0
 40
1.0
 40
1.0
 40
1.0
 10
-5.3296600998
 20
40.2893402061
 30
0.0
 10
-5.3296600998
 20
40.3166231807
 30
0.0
 10
-5.3186294404
 20
40.3665607033
 30
0.0
 10
-5.2698142996
 20
40.4290638374
 30
0.0
 10
-5.2243576654
 20
40.4539345172
 30
0.0
 10
-5.1975027664
 20
40.4640128349
 30
0.0
  0
SPLINE
  5
5F3
100
AcDbEntity
  8
0
100
AcDbSpline
 62
7
  6
CONTINUOUS
 70
0
 71
3
 72
14
 73
10
 74
0
 42
0.0000001
 43
0.0000001
 44
0.0000000001
 40
0.0
 40
0.0
 40
0.0
 40
0.0
 40
0.0370307187
 40
0.0879027943
 40
0.2222486784
 40
0.3851395112
 40
0.5586439326
 40
0.8657374975
 40
1.0
 40
1.0
 40
1.0
 40
1.0
 10
-5.1975027664
 20
40.4640128349
 30
0.0
 10
-5.1920140064
 20
40.466074886
 30
0.0
 10
-5.1788546794
 20
40.4706178476
 30
0.0
 10
-5.145405741
 20
40.4815479067
 30
0.0
 10
-5.0927497237
 20
40.4978493561
 30
0.0
 10
-5.021390509
 20
40.5193744821
 30
0.0
 10
-4.9237031086
 20
40.5483302311
 30
0.0
 10
-4.8302481876
 20
40.575610244
 30
0.0
 10
-4.7631213769
 20
40.5950425778
 30
0.0
 10
-4.7426903329
 20
40.600916585
 30
0.0
  0
SPLINE
  5
5F4
100
AcDbEntity
  8
0
100
AcDbSpline
 62
7
  6
CONTINUOUS
 70
0
 71
3
 72
15
 73
11
 74
0
 42
0.0000001
 43
0.0000001
 44
0.0000000001
 40
0.0
 40
0.0
 40
0.0
 40
0.0
 40
0.1271211463
 40
0.2538605775
 40
0.3799630544
 40
0.5052845295
 40
0.6298065213
 40
0.7536278365
 40
0.8769405758
 40
1.0
 40
1.0
 40
1.0
 40
1.0
 10
-7.5042292969
 20
22.219995251
 30
0.0
 10
-7.5042282932
 20
22.2068470916
 30
0.0
 10
-7.501613567
 20
22.1805161446
 30
0.0
 10
-7.4900357015
 20
22.1427044562
 30
0.0
 10
-7.471361105
 20
22.1080459128
 30
0.0
 10
-7.4464432912
 20
22.0778732779
 30
0.0
 10
-7.4163495193
 20
22.053239425
 30
0.0
 10
-7.3822716509
 20
22.0349389235
 30
0.0
 10
-7.3454927849
 20
22.0235147143
 30
0.0
 10
-7.3199836301
 20
22.020693374
 30
0.0
 10
-7.3072570282
 20
22.0205010583
 30
0.0
  0
SPLINE
  5
5F5
100
AcDbEntity
  8
0
100
AcDbSpline
 62
7
  6
CONTINUOUS
 70
0
 71
3
 72
15
 73
11
 74
0
 42
0.0000001
 43
0.0000001
 44
0.0000000001
 40
0.0
 40
0.0
 40
0.0
 40
0.0
 40
0.1271211463
 40
0.2538605775
 40
0.3799630544
 40
0.5052845295
 40
0.6298065213
 40
0.7536278365
 40
0.8769405758
 40
1.0
 40
1.0
 40
1.0
 40
1.0
 10
-16.8766573251
 20
22.219995251
 30
0.0
 10
-16.8766583288
 20
22.2068470916
 30
0.0
 10
-16.879273055
 20
22.1805161446
 30
0.0
 10
-16.8908509205
 20
22.1427044562
 30
0.0
 10
-16.909525517
 20
22.1080459128
 30
0.0
 10
-16.9344433308
 20
22.0778732779
 30
0.0
 10
-16.9645371027
 20
22.053239425
 30
0.0
 10
-16.9986149711
 20
22.0349389235
 30
0.0
 10
-17.0353938371
 20
22.0235147143
 30
0.0
 10
-17.060902992
 20
22.020693374
 30
0.0
 10
-17.0736295939
 20
22.0205010583
 30
0.0
  0
SPLINE
  5
5F6
100
AcDbEntity
  8
0
100
AcDbSpline
 62
7
  6
CONTINUOUS
 70
0
 71
3
 72
12
 73
8
 74
0
 42
0.0000001
 43
0.0000001
 44
0.0000000001
 40
0.0
 40
0.0
 40
0.0
 40
0.0
 40
0.084979086
 40
0.1851452542
 40
0.4244310333
 40
0.7022286786
 40
1.0
 40
1.0
 40
1.0
 40
1.0
 10
-9.8827082841
 20
42.4617989452
 30
0.0
 10
-9.8875269083
 20
42.4607818113
 30
0.0
 10
-9.8980965438
 20
42.458903373
 30
0.0
 10
-9.9224722174
 20
42.4555821271
 30
0.0
 10
-9.9581225626
 20
42.4524270141
 30
0.0
 10
-10.0052972341
 20
42.4501281681
 30
0.0
 10
-10.0386565828
 20
42.4496120109
 30
0.0
 10
-10.0559133649
 20
42.4496120109
 30
0.0
  0
SPLINE
  5
5F7
100
AcDbEntity
  8
0
100
AcDbSpline
 62
7
  6
CONTINUOUS
 70
0
 71
3
 72
12
 73
8
 74
0
 42
0.0000001
 43
0.0000001
 44
0.0000000001
 40
0.0
 40
0.0
 40
0.0
 40
0.0
 40
0.2977713214
 40
0.5755689667
 40
0.8148547458
 40
0.915020914
 40
1.0
 40
1.0
 40
1.0
 40
1.0
 10
-14.3249732572
 20
42.4496120109
 30
0.0
 10
-14.3422300393
 20
42.4496120109
 30
0.0
 10
-14.3755893879
 20
42.4501281681
 30
0.0
 10
-14.4227640595
 20
42.4524270141
 30
0.0
 10
-14.4584144046
 20
42.4555821271
 30
0.0
 10
-14.4827900782
 20
42.458903373
 30
0.0
 10
-14.4933597138
 20
42.4607818113
 30
0.0
 10
-14.4981783379
 20
42.4617989452
 30
0.0
  0
SPLINE
  5
5F8
100
AcDbEntity
  8
0
100
AcDbSpline
 62
253
  6
CONTINUOUS
 70
0
 71
3
 72
16
 73
12
 74
0
 42
0.0000001
 43
0.0000001
 44
0.0000000001
 40
0.0
 40
0.0
 40
0.0
 40
0.0
 40
0.1499313093
 40
0.2965224701
 40
0.4367326482
 40
0.5681395989
 40
0.6892992899
 40
0.8001530825
 40
0.9024198366
 40
0.9515356658
 40
1.0
 40
1.0
 40
1.0
 40
1.0
 10
-15.140443311
 20
26.2332065501
 30
0.0
 10
-15.1599914006
 20
26.2332065501
 30
0.0
 10
-15.1986979826
 20
26.2307849081
 30
0.0
 10
-15.2547645374
 20
26.2199803761
 30
0.0
 10
-15.3065810865
 20
26.2024073471
 30
0.0
 10
-15.3522215445
 20
26.178687139
 30
0.0
 10
-15.3900020834
 20
26.1496053316
 30
0.0
 10
-15.4184699477
 20
26.1161124829
 30
0.0
 10
-15.4335526908
 20
26.0848961903
 30
0.0
 10
-15.4394617698
 20
26.0594334893
 30
0.0
 10
-15.440443311
 20
26.0466890617
 30
0.0
 10
-15.440443311
 20
26.0403702671
 30
0.0
  0
SPLINE
  5
5F9
100
AcDbEntity
  8
0
100
AcDbSpline
 62
253
  6
CONTINUOUS
 70
0
 71
3
 72
16
 73
12
 74
0
 42
0.0000001
 43
0.0000001
 44
0.0000000001
 40
0.0
 40
0.0
 40
0.0
 40
0.0
 40
0.0484643342
 40
0.0975801634
 40
0.1998469175
 40
0.3107007103
 40
0.4318604014
 40
0.5632673522
 40
0.7034775305
 40
0.8500686914
 40
1.0
 40
1.0
 40
1.0
 40
1.0
 10
-14.640443311
 20
26.0403702671
 30
0.0
 10
-14.640443311
 20
26.0466890617
 30
0.0
 10
-14.6414248522
 20
26.0594334893
 30
0.0
 10
-14.6473339312
 20
26.0848961903
 30
0.0
 10
-14.6624166744
 20
26.1161124829
 30
0.0
 10
-14.6908845387
 20
26.1496053316
 30
0.0
 10
-14.7286650776
 20
26.1786871391
 30
0.0
 10
-14.7743055357
 20
26.2024073471
 30
0.0
 10
-14.8261220849
 20
26.2199803762
 30
0.0
 10
-14.8821886396
 20
26.2307849081
 30
0.0
 10
-14.9208952216
 20
26.2332065501
 30
0.0
 10
-14.940443311
 20
26.2332065501
 30
0.0
  0
SPLINE
  5
5FA
100
AcDbEntity
  8
0
100
AcDbSpline
 62
253
  6
CONTINUOUS
 70
0
 71
3
 72
16
 73
12
 74
0
 42
0.0000001
 43
0.0000001
 44
0.0000000001
 40
0.0
 40
0.0
 40
0.0
 40
0.0
 40
0.1499313093
 40
0.2965224701
 40
0.4367326482
 40
0.5681395989
 40
0.6892992899
 40
0.8001530825
 40
0.9024198366
 40
0.9515356658
 40
1.0
 40
1.0
 40
1.0
 40
1.0
 10
-9.440443311
 20
26.2332065501
 30
0.0
 10
-9.4599914006
 20
26.2332065501
 30
0.0
 10
-9.4986979826
 20
26.2307849081
 30
0.0
 10
-9.5547645374
 20
26.2199803761
 30
0.0
 10
-9.6065810865
 20
26.2024073471
 30
0.0
 10
-9.6522215445
 20
26.178687139
 30
0.0
 10
-9.6900020834
 20
26.1496053316
 30
0.0
 10
-9.7184699477
 20
26.1161124829
 30
0.0
 10
-9.7335526908
 20
26.0848961903
 30
0.0
 10
-9.7394617698
 20
26.0594334893
 30
0.0
 10
-9.740443311
 20
26.0466890617
 30
0.0
 10
-9.740443311
 20
26.0403702671
 30
0.0
  0
SPLINE
  5
5FB
100
AcDbEntity
  8
RACCORDO
100
AcDbSpline
 62
253
  6
CONTINUOUS
 70
0
 71
3
 72
15
 73
11
 74
0
 42
0.0000001
 43
0.0000001
 44
0.0000000001
 40
0.0
 40
0.0
 40
0.0
 40
0.0
 40
0.1253896357
 40
0.2507580209
 40
0.3760372015
 40
0.5011716948
 40
0.6261279994
 40
0.7508995883
 40
0.8755078542
 40
1.0
 40
1.0
 40
1.0
 40
1.0
 10
-2.5515665039
 20
42.2010501543
 30
0.0
 10
-2.5385153611
 20
42.2010225984
 30
0.0
 10
-2.5123497119
 20
42.1984152121
 30
0.0
 10
-2.4746640343
 20
42.1870017218
 30
0.0
 10
-2.4399070698
 20
42.168521524
 30
0.0
 10
-2.40942917
 20
42.1436801144
 30
0.0
 10
-2.3843937672
 20
42.1134284679
 30
0.0
 10
-2.3657635637
 20
42.0789188764
 30
0.0
 10
-2.35425473
 20
42.0414931152
 30
0.0
 10
-2.3516247276
 20
42.015498651
 30
0.0
 10
-2.3515969648
 20
42.002540924
 30
0.0
  0
SPLINE
  5
5FC
100
AcDbEntity
  8
0
100
AcDbSpline
 62
253
  6
CONTINUOUS
 70
0
 71
3
 72
16
 73
12
 74
0
 42
0.0000001
 43
0.0000001
 44
0.0000000001
 40
0.0
 40
0.0
 40
0.0
 40
0.0
 40
0.0484643342
 40
0.0975801634
 40
0.1998469175
 40
0.3107007103
 40
0.4318604014
 40
0.5632673522
 40
0.7034775305
 40
0.8500686914
 40
1.0
 40
1.0
 40
1.0
 40
1.0
 10
-8.940443311
 20
26.0403702671
 30
0.0
 10
-8.940443311
 20
26.0466890617
 30
0.0
 10
-8.9414248522
 20
26.0594334893
 30
0.0
 10
-8.9473339312
 20
26.0848961903
 30
0.0
 10
-8.9624166744
 20
26.1161124829
 30
0.0
 10
-8.9908845387
 20
26.1496053316
 30
0.0
 10
-9.0286650776
 20
26.1786871391
 30
0.0
 10
-9.0743055357
 20
26.2024073471
 30
0.0
 10
-9.1261220849
 20
26.2199803762
 30
0.0
 10
-9.1821886396
 20
26.2307849081
 30
0.0
 10
-9.2208952216
 20
26.2332065501
 30
0.0
 10
-9.240443311
 20
26.2332065501
 30
0.0
  0
SPLINE
  5
5FD
100
AcDbEntity
  8
RACCORDO
100
AcDbSpline
 62
253
  6
CONTINUOUS
 70
0
 71
3
 72
15
 73
11
 74
0
 42
0.0000001
 43
0.0000001
 44
0.0000000001
 40
0.0
 40
0.0
 40
0.0
 40
0.0
 40
0.1244921963
 40
0.2491004595
 40
0.3738720457
 40
0.4988283473
 40
0.6239628372
 40
0.7492420143
 40
0.8746103969
 40
1.0
 40
1.0
 40
1.0
 40
1.0
 10
-22.0292896572
 20
42.002540924
 30
0.0
 10
-22.0292618945
 20
42.0154986563
 30
0.0
 10
-22.0266318907
 20
42.0414931255
 30
0.0
 10
-22.0151230522
 20
42.0789188902
 30
0.0
 10
-21.9964928467
 20
42.1134284796
 30
0.0
 10
-21.9714574425
 20
42.1436801237
 30
0.0
 10
-21.9409795421
 20
42.1685215308
 30
0.0
 10
-21.9062225774
 20
42.1870017261
 30
0.0
 10
-21.868536903
 20
42.198415213
 30
0.0
 10
-21.8423712576
 20
42.2010225984
 30
0.0
 10
-21.8293201182
 20
42.2010501543
 30
0.0
  0
SPLINE
  5
5FE
100
AcDbEntity
  8
RACCORDO
100
AcDbSpline
 62
7
  6
CONTINUOUS
 70
0
 71
3
 72
15
 73
11
 74
0
 42
0.0000001
 43
0.0000001
 44
0.0000000001
 40
0.0
 40
0.0
 40
0.0
 40
0.0
 40
0.1526090639
 40
0.2984371346
 40
0.4342512203
 40
0.5600918883
 40
0.677552508
 40
0.7886672565
 40
0.895489
 40
1.0
 40
1.0
 40
1.0
 40
1.0
 10
-21.8293201182
 20
23.2974215915
 30
0.0
 10
-21.8445292531
 20
23.297664822
 30
0.0
 10
-21.874316362
 20
23.3012658267
 30
0.0
 10
-21.9155951011
 20
23.3151924922
 30
0.0
 10
-21.9509955872
 20
23.3356309533
 30
0.0
 10
-21.9796788819
 20
23.3605770828
 30
0.0
 10
-22.0016662514
 20
23.3884857761
 30
0.0
 10
-22.017248631
 20
23.4182792401
 30
0.0
 10
-22.0267172709
 20
23.4491740842
 30
0.0
 10
-22.0290912945
 20
23.4702472578
 30
0.0
 10
-22.0292896572
 20
23.4806623463
 30
0.0
  0
SPLINE
  5
5FF
100
AcDbEntity
  8
0
100
AcDbSpline
 62
7
  6
CONTINUOUS
 70
0
 71
3
 72
13
 73
9
 74
0
 42
0.0000001
 43
0.0000001
 44
0.0000000001
 40
0.0
 40
0.0
 40
0.0
 40
0.0
 40
0.2440725748
 40
0.3951577075
 40
0.5865882214
 40
0.7510137821
 40
0.8853877135
 40
1.0
 40
1.0
 40
1.0
 40
1.0
 10
-18.8021878148
 20
16.9036355865
 30
0.0
 10
-18.8021863047
 20
16.8438898518
 30
0.0
 10
-18.7840727702
 20
16.745110639
 30
0.0
 10
-18.7057776974
 20
16.6222189583
 30
0.0
 10
-18.6045055368
 20
16.545488508
 30
0.0
 10
-18.4914460093
 20
16.5028957808
 30
0.0
 10
-18.3914840931
 20
16.4839492603
 30
0.0
 10
-18.330379601
 20
16.483392157
 30
0.0
 10
-18.302324111
 20
16.483392157
 30
0.0
  0
SPLINE
  5
600
100
AcDbEntity
  8
0
100
AcDbSpline
 62
7
  6
CONTINUOUS
 70
0
 71
3
 72
13
 73
9
 74
0
 42
0.0000001
 43
0.0000001
 44
0.0000000001
 40
0.0
 40
0.0
 40
0.0
 40
0.0
 40
0.1146100384
 40
0.248981334
 40
0.4134036696
 40
0.6048304286
 40
0.7559125977
 40
1.0
 40
1.0
 40
1.0
 40
1.0
 10
-18.302324111
 20
16.483392157
 30
0.0
 10
-18.2742686211
 20
16.483392157
 30
0.0
 10
-18.213164129
 20
16.4839492603
 30
0.0
 10
-18.1132022127
 20
16.5028957808
 30
0.0
 10
-18.0001426853
 20
16.545488508
 30
0.0
 10
-17.8988705246
 20
16.6222189583
 30
0.0
 10
-17.8205728337
 20
16.7451147485
 30
0.0
 10
-17.8024601192
 20
16.8438996585
 30
0.0
 10
-17.8024604071
 20
16.9036499912
 30
0.0
  0
SPLINE
  5
601
100
AcDbEntity
  8
0
100
AcDbSpline
 62
7
  6
CONTINUOUS
 70
0
 71
3
 72
13
 73
9
 74
0
 42
0.0000001
 43
0.0000001
 44
0.0000000001
 40
0.0
 40
0.0
 40
0.0
 40
0.0
 40
0.1573222548
 40
0.3022122718
 40
0.4829436828
 40
0.6858886477
 40
0.8294071249
 40
1.0
 40
1.0
 40
1.0
 40
1.0
 10
-17.9181246623
 20
16.9217734758
 30
0.0
 10
-17.9181240986
 20
16.8928707028
 30
0.0
 10
-17.9241769035
 20
16.8370214728
 30
0.0
 10
-17.9586974455
 20
16.7535581483
 30
0.0
 10
-18.0296738126
 20
16.6834512683
 30
0.0
 10
-18.1193765186
 20
16.6422984574
 30
0.0
 10
-18.2132774518
 20
16.626038789
 30
0.0
 10
-18.2709832663
 20
16.6220329935
 30
0.0
 10
-18.302324111
 20
16.6220329935
 30
0.0
  0
SPLINE
  5
602
100
AcDbEntity
  8
0
100
AcDbSpline
 62
7
  6
CONTINUOUS
 70
0
 71
3
 72
13
 73
9
 74
0
 42
0.0000001
 43
0.0000001
 44
0.0000000001
 40
0.0
 40
0.0
 40
0.0
 40
0.0
 40
0.1705969758
 40
0.3141189028
 40
0.517068746
 40
0.6978045014
 40
0.8426980012
 40
1.0
 40
1.0
 40
1.0
 40
1.0
 10
-18.302324111
 20
16.6220329935
 30
0.0
 10
-18.3336649558
 20
16.6220329935
 30
0.0
 10
-18.3913707703
 20
16.626038789
 30
0.0
 10
-18.4852717034
 20
16.6422984574
 30
0.0
 10
-18.5749744095
 20
16.6834512683
 30
0.0
 10
-18.6459507766
 20
16.7535581483
 30
0.0
 10
-18.6804696004
 20
16.8370173187
 30
0.0
 10
-18.6865231605
 20
16.8928618186
 30
0.0
 10
-18.6865235598
 20
16.9217602278
 30
0.0
  0
SPLINE
  5
603
100
AcDbEntity
  8
0
100
AcDbSpline
 62
7
  6
CONTINUOUS
 70
0
 71
3
 72
10
 73
6
 74
0
 42
0.0000001
 43
0.0000001
 44
0.0000000001
 40
0.0
 40
0.0
 40
0.0
 40
0.0
 40
0.5155508727
 40
0.7534353234
 40
1.0
 40
1.0
 40
1.0
 40
1.0
 10
-18.3938365795
 20
3.6564868108
 30
0.0
 10
-18.3867185113
 20
3.6147715033
 30
0.0
 10
-18.3789179477
 20
3.5531537683
 30
0.0
 10
-18.3792890937
 20
3.470980034
 30
0.0
 10
-18.3826738291
 20
3.4313179749
 30
0.0
 10
-18.3850073448
 20
3.4112140473
 30
0.0
  0
SPLINE
  5
604
100
AcDbEntity
  8
0
100
AcDbSpline
 62
7
  6
CONTINUOUS
 70
0
 71
3
 72
11
 73
7
 74
0
 42
0.0000001
 43
0.0000001
 44
0.0000000001
 40
0.0
 40
0.0
 40
0.0
 40
0.0
 40
0.2563160025
 40
0.5004807908
 40
0.743096622
 40
1.0
 40
1.0
 40
1.0
 40
1.0
 10
-18.3850073448
 20
3.4112140473
 30
0.0
 10
-18.3877764234
 20
3.3873631952
 30
0.0
 10
-18.4006006865
 20
3.3412132617
 30
0.0
 10
-18.4416638192
 20
3.2832281372
 30
0.0
 10
-18.50116469
 20
3.2438848162
 30
0.0
 10
-18.5484389072
 20
3.2347357758
 30
0.0
 10
-18.5725020469
 20
3.2343594165
 30
0.0
  0
SPLINE
  5
605
100
AcDbEntity
  8
0
100
AcDbSpline
 62
7
  6
CONTINUOUS
 70
0
 71
3
 72
15
 73
11
 74
0
 42
0.0000001
 43
0.0000001
 44
0.0000000001
 40
0.0
 40
0.0
 40
0.0
 40
0.0
 40
0.1566388749
 40
0.291183068
 40
0.4114682686
 40
0.5250598557
 40
0.6380159125
 40
0.7540986409
 40
0.8748267263
 40
1.0
 40
1.0
 40
1.0
 40
1.0
 10
-18.5725020469
 20
3.2343594165
 30
0.0
 10
-18.5925235267
 20
3.234050479
 30
0.0
 10
-18.629928771
 20
3.2363090116
 30
0.0
 10
-18.6810713715
 20
3.2503835209
 30
0.0
 10
-18.7225308915
 20
3.2737977863
 30
0.0
 10
-18.7546017868
 20
3.305090224
 30
0.0
 10
-18.7779996439
 20
3.342535206
 30
0.0
 10
-18.7937713523
 20
3.3846277109
 30
0.0
 10
-18.8029446604
 20
3.430136086
 30
0.0
 10
-18.805225278
 20
3.4615651708
 30
0.0
 10
-18.8055825934
 20
3.4775626524
 30
0.0
  0
SPLINE
  5
606
100
AcDbEntity
  8
0
100
AcDbSpline
 62
7
  6
CONTINUOUS
 70
0
 71
3
 72
10
 73
6
 74
0
 42
0.0000001
 43
0.0000001
 44
0.0000000001
 40
0.0
 40
0.0
 40
0.0
 40
0.0
 40
0.3517340052
 40
0.6302069713
 40
1.0
 40
1.0
 40
1.0
 40
1.0
 10
-19.0512265222
 20
3.4782374984
 30
0.0
 10
-19.0512265222
 20
3.4509545238
 30
0.0
 10
-19.0622571816
 20
3.4010170012
 30
0.0
 10
-19.1110723225
 20
3.3385138671
 30
0.0
 10
-19.1565289567
 20
3.3136431873
 30
0.0
 10
-19.1833838557
 20
3.3035648695
 30
0.0
  0
SPLINE
  5
607
100
AcDbEntity
  8
0
100
AcDbSpline
 62
7
  6
CONTINUOUS
 70
0
 71
3
 72
14
 73
10
 74
0
 42
0.0000001
 43
0.0000001
 44
0.0000000001
 40
0.0
 40
0.0
 40
0.0
 40
0.0
 40
0.0370307187
 40
0.0879027943
 40
0.2222486784
 40
0.3851395112
 40
0.5586439326
 40
0.8657374975
 40
1.0
 40
1.0
 40
1.0
 40
1.0
 10
-19.1833838557
 20
3.3035648695
 30
0.0
 10
-19.1888726156
 20
3.3015028185
 30
0.0
 10
-19.2020319426
 20
3.2969598569
 30
0.0
 10
-19.235480881
 20
3.2860297978
 30
0.0
 10
-19.2881368984
 20
3.2697283484
 30
0.0
 10
-19.359496113
 20
3.2482032224
 30
0.0
 10
-19.4571835135
 20
3.2192474734
 30
0.0
 10
-19.5506384344
 20
3.1919674605
 30
0.0
 10
-19.6177652452
 20
3.1725351267
 30
0.0
 10
-19.6381962892
 20
3.1666611195
 30
0.0
  0
SPLINE
  5
608
100
AcDbEntity
  8
0
100
AcDbSpline
 62
7
  6
CONTINUOUS
 70
0
 71
3
 72
11
 73
7
 74
0
 42
0.0000001
 43
0.0000001
 44
0.0000000001
 40
0.0
 40
0.0
 40
0.0
 40
0.0
 40
0.1980138724
 40
0.4790572041
 40
0.7705716328
 40
1.0
 40
1.0
 40
1.0
 40
1.0
 10
-19.6381962892
 20
2.8655111107
 30
0.0
 10
-19.6114545395
 20
2.8727740941
 30
0.0
 10
-19.5466034006
 20
2.8897711622
 30
0.0
 10
-19.4422786019
 20
2.9170607955
 30
0.0
 10
-19.3337065503
 20
2.9454861917
 30
0.0
 10
-19.2632203259
 20
2.9641019901
 30
0.0
 10
-19.232242703
 20
2.9725416796
 30
0.0
  0
SPLINE
  5
609
100
AcDbEntity
  8
0
100
AcDbSpline
 62
7
  6
CONTINUOUS
 70
0
 71
3
 72
13
 73
9
 74
0
 42
0.0000001
 43
0.0000001
 44
0.0000000001
 40
0.0
 40
0.0
 40
0.0
 40
0.0
 40
0.2367002196
 40
0.4930608629
 40
0.6210774851
 40
0.7470391497
 40
0.872028646
 40
1.0
 40
1.0
 40
1.0
 40
1.0
 10
-19.232242703
 20
2.9725416796
 30
0.0
 10
-19.2049873802
 20
2.9799668504
 30
0.0
 10
-19.1481550561
 20
2.9951445928
 30
0.0
 10
-19.078304322
 20
3.0209272629
 30
0.0
 10
-19.024953922
 20
3.0506148248
 30
0.0
 10
-18.9888178823
 20
3.0781559571
 30
0.0
 10
-18.9583857155
 20
3.1120301628
 30
0.0
 10
-18.9437228965
 20
3.1388204189
 30
0.0
 10
-18.9380661024
 20
3.1530067363
 30
0.0
  0
SPLINE
  5
60A
100
AcDbEntity
  8
0
100
AcDbSpline
 62
7
  6
CONTINUOUS
 70
0
 71
3
 72
38
 73
34
 74
0
 42
0.0000001
 43
0.0000001
 44
0.0000000001
 40
0.0
 40
0.0
 40
0.0
 40
0.0
 40
0.0073509397
 40
0.0194262906
 40
0.035821938
 40
0.0561164011
 40
0.0799111054
 40
0.1068448358
 40
0.1688952035
 40
0.240547603
 40
0.2798093939
 40
0.3214225051
 40
0.365577965
 40
0.4125734244
 40
0.4372648142
 40
0.4628238751
 40
0.4893149055
 40
0.5029323401
 40
0.5168090824
 40
0.5279417531
 40
0.5389072551
 40
0.5603568752
 40
0.5812003875
 40
0.6014765287
 40
0.6404589735
 40
0.6775665652
 40
0.7130014288
 40
0.7469122425
 40
0.8104434329
 40
0.8683635106
 40
0.9200965543
 40
0.9644958844
 40
1.0
 40
1.0
 40
1.0
 40
1.0
 10
-18.9292031255
 20
3.1530067363
 30
0.0
 10
-18.9289093856
 20
3.1507302516
 30
0.0
 10
-18.9267562587
 20
3.1449692391
 30
0.0
 10
-18.9219304726
 20
3.1349135724
 30
0.0
 10
-18.9141691322
 20
3.121772362
 30
0.0
 10
-18.9035335545
 20
3.1061599874
 30
0.0
 10
-18.8898858592
 20
3.088655633
 30
0.0
 10
-18.8664810947
 20
3.062316218
 30
0.0
 10
-18.8292870674
 20
3.0283955591
 30
0.0
 10
-18.7841236409
 20
2.9983100426
 30
0.0
 10
-18.7414294304
 20
2.9770813385
 30
0.0
 10
-18.7049757658
 20
2.9629398304
 30
0.0
 10
-18.6650144505
 20
2.9516749254
 30
0.0
 10
-18.6293449142
 20
2.9452951908
 30
0.0
 10
-18.5991349133
 20
2.9421320643
 30
0.0
 10
-18.5751988398
 20
2.9408078562
 30
0.0
 10
-18.554685726
 20
2.9406730241
 30
0.0
 10
-18.537834663
 20
2.9411676016
 30
0.0
 10
-18.5257888105
 20
2.9418038346
 30
0.0
 10
-18.5145867296
 20
2.9426516809
 30
0.0
 10
-18.5010514841
 20
2.9439648203
 30
0.0
 10
-18.4845524407
 20
2.9460916264
 30
0.0
 10
-18.4652936121
 20
2.9494161617
 30
0.0
 10
-18.4408453018
 20
2.9547263313
 30
0.0
 10
-18.4118682458
 20
2.9629857709
 30
0.0
 10
-18.3792810545
 20
2.9753803602
 30
0.0
 10
-18.3492804644
 20
2.9897872113
 30
0.0
 10
-18.3134368188
 20
3.0107593913
 30
0.0
 10
-18.2745075023
 20
3.0400427102
 30
0.0
 10
-18.2362384104
 20
3.0784736811
 30
0.0
 10
-18.2068331126
 20
3.1166998706
 30
0.0
 10
-18.1857136062
 20
3.1520545233
 30
0.0
 10
-18.1753943977
 20
3.1748584257
 30
0.0
 10
-18.1716323003
 20
3.1852868679
 30
0.0
  0
SPLINE
  5
60B
100
AcDbEntity
  8
0
100
AcDbSpline
 62
7
  6
CONTINUOUS
 70
0
 71
3
 72
15
 73
11
 74
0
 42
0.0000001
 43
0.0000001
 44
0.0000000001
 40
0.0
 40
0.0
 40
0.0
 40
0.0
 40
0.0449286911
 40
0.1077693214
 40
0.1906181565
 40
0.2959333553
 40
0.4264678428
 40
0.5852019261
 40
0.7752867232
 40
1.0
 40
1.0
 40
1.0
 40
1.0
 10
-18.1716323003
 20
3.1852868679
 30
0.0
 10
-18.1676651098
 20
3.1962678853
 30
0.0
 10
-18.1587164492
 20
3.2228208331
 30
0.0
 10
-18.146088613
 20
3.2707667712
 30
0.0
 10
-18.1341296996
 20
3.3349496823
 30
0.0
 10
-18.1248962949
 20
3.4173237776
 30
0.0
 10
-18.1204169977
 20
3.5198392835
 30
0.0
 10
-18.1227303602
 20
3.6444612803
 30
0.0
 10
-18.1338692551
 20
3.7931570515
 30
0.0
 10
-18.147341272
 20
3.9001546163
 30
0.0
 10
-18.1558409049
 20
3.9579292529
 30
0.0
  0
SPLINE
  5
60C
100
AcDbEntity
  8
0
100
AcDbSpline
 62
7
  6
CONTINUOUS
 70
0
 71
3
 72
15
 73
11
 74
0
 42
0.0000001
 43
0.0000001
 44
0.0000000001
 40
0.0
 40
0.0
 40
0.0
 40
0.0
 40
0.1271211463
 40
0.2538605775
 40
0.3799630544
 40
0.5052845295
 40
0.6298065213
 40
0.7536278365
 40
0.8769405758
 40
1.0
 40
1.0
 40
1.0
 40
1.0
 10
-16.8766573251
 20
21.5475824535
 30
0.0
 10
-16.8766583288
 20
21.5607306129
 30
0.0
 10
-16.879273055
 20
21.5870615599
 30
0.0
 10
-16.8908509205
 20
21.6248732483
 30
0.0
 10
-16.909525517
 20
21.6595317916
 30
0.0
 10
-16.9344433308
 20
21.6897044266
 30
0.0
 10
-16.9645371027
 20
21.7143382795
 30
0.0
 10
-16.9986149711
 20
21.732638781
 30
0.0
 10
-17.0353938371
 20
21.7440629902
 30
0.0
 10
-17.060902992
 20
21.7468843305
 30
0.0
 10
-17.0736295939
 20
21.7470766462
 30
0.0
  0
SPLINE
  5
60D
100
AcDbEntity
  8
0
100
AcDbSpline
 62
7
  6
CONTINUOUS
 70
0
 71
3
 72
15
 73
11
 74
0
 42
0.0000001
 43
0.0000001
 44
0.0000000001
 40
0.0
 40
0.0
 40
0.0
 40
0.0
 40
0.1271211463
 40
0.2538605775
 40
0.3799630544
 40
0.5052845295
 40
0.6298065213
 40
0.7536278365
 40
0.8769405758
 40
1.0
 40
1.0
 40
1.0
 40
1.0
 10
-7.5042292969
 20
21.5475824535
 30
0.0
 10
-7.5042282932
 20
21.5607306129
 30
0.0
 10
-7.501613567
 20
21.5870615599
 30
0.0
 10
-7.4900357015
 20
21.6248732483
 30
0.0
 10
-7.471361105
 20
21.6595317916
 30
0.0
 10
-7.4464432912
 20
21.6897044266
 30
0.0
 10
-7.4163495193
 20
21.7143382795
 30
0.0
 10
-7.3822716509
 20
21.732638781
 30
0.0
 10
-7.3454927849
 20
21.7440629902
 30
0.0
 10
-7.3199836301
 20
21.7468843305
 30
0.0
 10
-7.3072570282
 20
21.7470766462
 30
0.0
  0
SPLINE
  5
60E
100
AcDbEntity
  8
0
100
AcDbSpline
 62
253
  6
CONTINUOUS
 70
0
 71
3
 72
16
 73
12
 74
0
 42
0.0000001
 43
0.0000001
 44
0.0000000001
 40
0.0
 40
0.0
 40
0.0
 40
0.0
 40
0.1496349503
 40
0.2960423368
 40
0.4362001972
 40
0.5676851355
 40
0.6890234022
 40
0.8000889451
 40
0.902492285
 40
0.9516048565
 40
1.0
 40
1.0
 40
1.0
 40
1.0
 10
-14.9378366742
 20
17.5343711544
 30
0.0
 10
-14.9183660986
 20
17.5344548223
 30
0.0
 10
-14.879810069
 20
17.5370239853
 30
0.0
 10
-14.8239613511
 20
17.5479812744
 30
0.0
 10
-14.7723121833
 20
17.565636059
 30
0.0
 10
-14.7267674783
 20
17.5893674711
 30
0.0
 10
-14.688993568
 20
17.6183923651
 30
0.0
 10
-14.6604274831
 20
17.6517645268
 30
0.0
 10
-14.6451480253
 20
17.6828471326
 30
0.0
 10
-14.639020798
 20
17.7082120607
 30
0.0
 10
-14.637913582
 20
17.7209105191
 30
0.0
 10
-14.6378480973
 20
17.7272074373
 30
0.0
  0
SPLINE
  5
60F
100
AcDbEntity
  8
0
100
AcDbSpline
 62
253
  6
CONTINUOUS
 70
0
 71
3
 72
16
 73
12
 74
0
 42
0.0000001
 43
0.0000001
 44
0.0000000001
 40
0.0
 40
0.0
 40
0.0
 40
0.0
 40
0.0483951435
 40
0.097507715
 40
0.199911055
 40
0.310976598
 40
0.4323148648
 40
0.5637998033
 40
0.7039576638
 40
0.8503650506
 40
1.0
 40
1.0
 40
1.0
 40
1.0
 10
-15.4430385248
 20
17.7272074373
 30
0.0
 10
-15.4429730401
 20
17.7209105191
 30
0.0
 10
-15.441865824
 20
17.7082120607
 30
0.0
 10
-15.4357385967
 20
17.6828471326
 30
0.0
 10
-15.4204591389
 20
17.6517645267
 30
0.0
 10
-15.391893054
 20
17.618392365
 30
0.0
 10
-15.3541191436
 20
17.589367471
 30
0.0
 10
-15.3085744386
 20
17.565636059
 30
0.0
 10
-15.2569252707
 20
17.5479812744
 30
0.0
 10
-15.2010765528
 20
17.5370239853
 30
0.0
 10
-15.1625205233
 20
17.5344548223
 30
0.0
 10
-15.1430499478
 20
17.5343711544
 30
0.0
  0
SPLINE
  5
610
100
AcDbEntity
  8
RACCORDO
100
AcDbSpline
 62
253
  6
CONTINUOUS
 70
0
 71
3
 72
15
 73
11
 74
0
 42
0.0000001
 43
0.0000001
 44
0.0000000001
 40
0.0
 40
0.0
 40
0.0
 40
0.0
 40
0.1253896357
 40
0.2507580209
 40
0.3760372015
 40
0.5011716948
 40
0.6261279994
 40
0.7508995883
 40
0.8755078542
 40
1.0
 40
1.0
 40
1.0
 40
1.0
 10
-21.8293201182
 20
1.5665275502
 30
0.0
 10
-21.842371261
 20
1.5665551061
 30
0.0
 10
-21.8685369101
 20
1.5691624924
 30
0.0
 10
-21.9062225878
 20
1.5805759827
 30
0.0
 10
-21.9409795523
 20
1.5990561805
 30
0.0
 10
-21.971457452
 20
1.6238975901
 30
0.0
 10
-21.9964928548
 20
1.6541492366
 30
0.0
 10
-22.0151230583
 20
1.6886588281
 30
0.0
 10
-22.0266318921
 20
1.7260845893
 30
0.0
 10
-22.0292618945
 20
1.7520790535
 30
0.0
 10
-22.0292896572
 20
1.7650367805
 30
0.0
  0
SPLINE
  5
611
100
AcDbEntity
  8
RACCORDO
100
AcDbSpline
 62
253
  6
CONTINUOUS
 70
0
 71
3
 72
15
 73
11
 74
0
 42
0.0000001
 43
0.0000001
 44
0.0000000001
 40
0.0
 40
0.0
 40
0.0
 40
0.0
 40
0.1244921963
 40
0.2491004595
 40
0.3738720457
 40
0.4988283473
 40
0.6239628372
 40
0.7492420143
 40
0.8746103969
 40
1.0
 40
1.0
 40
1.0
 40
1.0
 10
-2.3515969648
 20
1.7650367805
 30
0.0
 10
-2.3516247276
 20
1.7520790482
 30
0.0
 10
-2.3542547314
 20
1.726084579
 30
0.0
 10
-2.3657635698
 20
1.6886588143
 30
0.0
 10
-2.3843937753
 20
1.6541492249
 30
0.0
 10
-2.4094291795
 20
1.6238975807
 30
0.0
 10
-2.43990708
 20
1.5990561737
 30
0.0
 10
-2.4746640446
 20
1.5805759783
 30
0.0
 10
-2.5123497191
 20
1.5691624914
 30
0.0
 10
-2.5385153644
 20
1.5665551061
 30
0.0
 10
-2.5515665039
 20
1.5665275502
 30
0.0
  0
SPLINE
  5
612
100
AcDbEntity
  8
RACCORDO
100
AcDbSpline
 62
7
  6
CONTINUOUS
 70
0
 71
3
 72
15
 73
11
 74
0
 42
0.0000001
 43
0.0000001
 44
0.0000000001
 40
0.0
 40
0.0
 40
0.0
 40
0.0
 40
0.1526090639
 40
0.2984371346
 40
0.4342512203
 40
0.5600918883
 40
0.677552508
 40
0.7886672565
 40
0.895489
 40
1.0
 40
1.0
 40
1.0
 40
1.0
 10
-2.5515665039
 20
20.5225213078
 30
0.0
 10
-2.5363573689
 20
20.5222780773
 30
0.0
 10
-2.5065702601
 20
20.5186770726
 30
0.0
 10
-2.465291521
 20
20.504750407
 30
0.0
 10
-2.4298910348
 20
20.4843119459
 30
0.0
 10
-2.4012077401
 20
20.4593658165
 30
0.0
 10
-2.3792203706
 20
20.4314571232
 30
0.0
 10
-2.363637991
 20
20.4016636591
 30
0.0
 10
-2.3541693511
 20
20.3707688151
 30
0.0
 10
-2.3517953276
 20
20.3496956415
 30
0.0
 10
-2.3515969648
 20
20.339280553
 30
0.0
  0
SPLINE
  5
613
100
AcDbEntity
  8
0
100
AcDbSpline
 62
7
  6
CONTINUOUS
 70
0
 71
3
 72
12
 73
8
 74
0
 42
0.0000001
 43
0.0000001
 44
0.0000000001
 40
0.0
 40
0.0
 40
0.0
 40
0.0
 40
0.084979086
 40
0.1851452542
 40
0.4244310333
 40
0.7022286786
 40
1.0
 40
1.0
 40
1.0
 40
1.0
 10
-14.4981783379
 20
1.3057787593
 30
0.0
 10
-14.4933597138
 20
1.3067958932
 30
0.0
 10
-14.4827900782
 20
1.3086743315
 30
0.0
 10
-14.4584144046
 20
1.3119955774
 30
0.0
 10
-14.4227640595
 20
1.3151506904
 30
0.0
 10
-14.3755893879
 20
1.3174495364
 30
0.0
 10
-14.3422300393
 20
1.3179656936
 30
0.0
 10
-14.3249732572
 20
1.3179656936
 30
0.0
  0
SPLINE
  5
614
100
AcDbEntity
  8
0
100
AcDbSpline
 62
7
  6
CONTINUOUS
 70
0
 71
3
 72
12
 73
8
 74
0
 42
0.0000001
 43
0.0000001
 44
0.0000000001
 40
0.0
 40
0.0
 40
0.0
 40
0.0
 40
0.2977713214
 40
0.5755689667
 40
0.8148547458
 40
0.915020914
 40
1.0
 40
1.0
 40
1.0
 40
1.0
 10
-10.0559133649
 20
1.3179656936
 30
0.0
 10
-10.0386565828
 20
1.3179656936
 30
0.0
 10
-10.0052972341
 20
1.3174495364
 30
0.0
 10
-9.9581225626
 20
1.3151506904
 30
0.0
 10
-9.9224722174
 20
1.3119955774
 30
0.0
 10
-9.8980965438
 20
1.3086743315
 30
0.0
 10
-9.8875269083
 20
1.3067958932
 30
0.0
 10
-9.8827082841
 20
1.3057787593
 30
0.0
  0
SPLINE
  5
615
100
AcDbEntity
  8
0
100
AcDbSpline
 62
253
  6
CONTINUOUS
 70
0
 71
3
 72
16
 73
12
 74
0
 42
0.0000001
 43
0.0000001
 44
0.0000000001
 40
0.0
 40
0.0
 40
0.0
 40
0.0
 40
0.1496349503
 40
0.2960423368
 40
0.4362001972
 40
0.5676851355
 40
0.6890234022
 40
0.8000889451
 40
0.902492285
 40
0.9516048565
 40
1.0
 40
1.0
 40
1.0
 40
1.0
 10
-9.2378366742
 20
17.5343711544
 30
0.0
 10
-9.2183660986
 20
17.5344548223
 30
0.0
 10
-9.179810069
 20
17.5370239853
 30
0.0
 10
-9.1239613511
 20
17.5479812744
 30
0.0
 10
-9.0723121833
 20
17.565636059
 30
0.0
 10
-9.0267674783
 20
17.5893674711
 30
0.0
 10
-8.988993568
 20
17.6183923651
 30
0.0
 10
-8.9604274831
 20
17.6517645268
 30
0.0
 10
-8.9451480253
 20
17.6828471326
 30
0.0
 10
-8.939020798
 20
17.7082120607
 30
0.0
 10
-8.937913582
 20
17.7209105191
 30
0.0
 10
-8.9378480973
 20
17.7272074373
 30
0.0
  0
SPLINE
  5
616
100
AcDbEntity
  8
0
100
AcDbSpline
 62
253
  6
CONTINUOUS
 70
0
 71
3
 72
16
 73
12
 74
0
 42
0.0000001
 43
0.0000001
 44
0.0000000001
 40
0.0
 40
0.0
 40
0.0
 40
0.0
 40
0.0483951435
 40
0.097507715
 40
0.199911055
 40
0.310976598
 40
0.4323148648
 40
0.5637998033
 40
0.7039576638
 40
0.8503650506
 40
1.0
 40
1.0
 40
1.0
 40
1.0
 10
-9.7430385248
 20
17.7272074373
 30
0.0
 10
-9.7429730401
 20
17.7209105191
 30
0.0
 10
-9.741865824
 20
17.7082120607
 30
0.0
 10
-9.7357385967
 20
17.6828471326
 30
0.0
 10
-9.7204591389
 20
17.6517645267
 30
0.0
 10
-9.691893054
 20
17.618392365
 30
0.0
 10
-9.6541191436
 20
17.589367471
 30
0.0
 10
-9.6085744386
 20
17.565636059
 30
0.0
 10
-9.5569252707
 20
17.5479812744
 30
0.0
 10
-9.5010765528
 20
17.5370239853
 30
0.0
 10
-9.4625205233
 20
17.5344548223
 30
0.0
 10
-9.4430499478
 20
17.5343711544
 30
0.0
  0
ELLIPSE
  5
617
100
AcDbEntity
  8
0
100
AcDbEllipse
 62
7
  6
CONTINUOUS
 10
-23.0902909249
 20
22.2337983718
 30
0.0
 11
0.2426981267
 21
0.0606514259
 31
0.0
 40
0.9993528196
 41
2.8968558282
 42
4.4673476033
  0
ELLIPSE
  5
618
100
AcDbEntity
  8
0
100
AcDbEllipse
 62
7
  6
CONTINUOUS
 10
-1.2905956971
 20
22.2337983718
 30
0.0
 11
0.2426981267
 21
-0.0606514259
 31
0.0
 40
0.9993528196
 41
-1.3257549497
 42
0.2447368254
  0
ELLIPSE
  5
619
100
AcDbEntity
  8
0
100
AcDbEllipse
 62
7
  6
CONTINUOUS
 10
-10.0559133649
 20
44.0554043947
 30
0.0
 11
0.2
 21
-0.0
 31
0.0
 40
0.0524637553
 41
-1.5707963268
 42
-0.5235987756
  0
ELLIPSE
  5
61A
100
AcDbEntity
  8
0
100
AcDbEllipse
 62
7
  6
CONTINUOUS
 10
-14.3249732572
 20
44.0554043947
 30
0.0
 11
0.2
 21
-0.0
 31
0.0
 40
0.0524637553
 41
-2.617993878
 42
-1.5707963268
  0
ELLIPSE
  5
61B
100
AcDbEntity
  8
0
100
AcDbEllipse
 62
7
  6
CONTINUOUS
 10
-16.3840836885
 20
22.6774292297
 30
0.0
 11
0.4643386945
 21
0.1896138901
 31
0.0
 40
0.9790602997
 41
1.1756477791
 42
1.3019498305
  0
ELLIPSE
  5
61C
100
AcDbEntity
  8
0
100
AcDbEllipse
 62
7
  6
CONTINUOUS
 10
-7.9968029336
 20
22.6774292297
 30
0.0
 11
-0.1896138901
 21
0.4643386945
 31
0.0
 40
0.9790602997
 41
-1.9659448745
 42
-1.8396428231
  0
ELLIPSE
  5
61D
100
AcDbEntity
  8
0
100
AcDbEllipse
 62
7
  6
CONTINUOUS
 10
-1.5775969
 20
43.5778013589
 30
0.0
 11
0.4901042491
 21
-0.1011361035
 31
0.0
 40
0.9938624933
 41
0.2065483337
 42
1.775518161
  0
ELLIPSE
  5
61E
100
AcDbEntity
  8
0
100
AcDbEllipse
 62
7
  6
CONTINUOUS
 10
-22.803289722
 20
43.5778013589
 30
0.0
 11
0.4901042491
 21
0.1011361035
 31
0.0
 40
0.9938624933
 41
1.3660744926
 42
2.9350443199
  0
ELLIPSE
  5
61F
100
AcDbEntity
  8
0
100
AcDbEllipse
 62
7
  6
CONTINUOUS
 10
-7.500790562
 20
22.223449217
 30
0.0
 11
0.000044129
 21
0.2000221726
 31
0.0
 40
0.0171905225
 41
-4.6995558479
 42
-4.6951164139
  0
ELLIPSE
  5
620
100
AcDbEntity
  8
0
100
AcDbEllipse
 62
7
  6
CONTINUOUS
 10
-16.8800960601
 20
22.223449217
 30
0.0
 11
-0.000044129
 21
0.2000221726
 31
0.0
 40
0.0171905225
 41
-1.5880688933
 42
-1.5836294593
  0
ELLIPSE
  5
621
100
AcDbEntity
  8
0
100
AcDbEllipse
 62
7
  6
CONTINUOUS
 10
-16.3840836885
 20
22.6774292297
 30
0.0
 11
0.1896138901
 21
0.4643386945
 31
0.0
 40
0.9790602997
 41
-4.4435424841
 42
-4.3172404327
  0
ELLIPSE
  5
622
100
AcDbEntity
  8
0
100
AcDbEllipse
 62
7
  6
CONTINUOUS
 10
-7.9968029336
 20
22.6774292297
 30
0.0
 11
0.4643386945
 21
-0.1896138901
 31
0.0
 40
0.9790602997
 41
1.8396428231
 42
1.9659448745
  0
ELLIPSE
  5
623
100
AcDbEntity
  8
RACCORDO
100
AcDbEllipse
 62
7
  6
CONTINUOUS
 10
-2.1427780402
 20
22.2099770713
 30
0.0
 11
0.1789222233
 21
-0.0894542984
 31
0.0
 40
0.9998096356
 41
-2.6780516535
 42
-1.570789509
  0
ELLIPSE
  5
624
100
AcDbEntity
  8
0
100
AcDbEllipse
 62
7
  6
CONTINUOUS
 10
-6.6095032033
 20
22.2099770713
 30
0.0
 11
0.2309203249
 21
-0.0034904481
 31
0.0
 40
0.8660006717
 41
-3.1285034733
 42
-1.5708804822
  0
ELLIPSE
  5
625
100
AcDbEntity
  8
RACCORDO
100
AcDbEllipse
 62
7
  6
CONTINUOUS
 10
-2.0904128454
 20
22.1837964679
 30
0.0
 11
0.1789222233
 21
-0.0894542984
 31
0.0
 40
0.9998096356
 41
-2.6780516535
 42
-1.1071030277
  0
ELLIPSE
  5
626
100
AcDbEntity
  8
0
100
AcDbEllipse
 62
7
  6
CONTINUOUS
 10
-14.940443311
 20
26.5170717042
 30
0.0
 11
0.0
 21
0.4667171481
 31
0.0
 40
0.6427876097
 41
-1.5707963268
 42
0.0
  0
ELLIPSE
  5
627
100
AcDbEntity
  8
0
100
AcDbEllipse
 62
7
  6
CONTINUOUS
 10
-15.140443311
 20
26.5170717042
 30
0.0
 11
0.0
 21
0.4667171481
 31
0.0
 40
0.6427876097
 41
0.0
 42
1.5707963268
  0
ELLIPSE
  5
628
100
AcDbEntity
  8
0
100
AcDbEllipse
 62
7
  6
CONTINUOUS
 10
-9.240443311
 20
26.5170717042
 30
0.0
 11
0.0
 21
0.4667171481
 31
0.0
 40
0.6427876097
 41
-1.5707963268
 42
0.0
  0
ELLIPSE
  5
629
100
AcDbEntity
  8
0
100
AcDbEllipse
 62
7
  6
CONTINUOUS
 10
-9.440443311
 20
26.5170717042
 30
0.0
 11
0.0
 21
0.4667171481
 31
0.0
 40
0.6427876097
 41
-0.0
 42
1.5707963268
  0
ELLIPSE
  5
62A
100
AcDbEntity
  8
0
100
AcDbEllipse
 62
7
  6
CONTINUOUS
 10
-17.090443311
 20
42.2777136256
 30
0.0
 11
0.3
 21
-0.0
 31
0.0
 40
0.1227845609
 41
-0.0
 42
1.5707963268
  0
ELLIPSE
  5
62B
100
AcDbEntity
  8
0
100
AcDbEllipse
 62
7
  6
CONTINUOUS
 10
-17.290443311
 20
42.2777136256
 30
0.0
 11
0.3
 21
-0.0
 31
0.0
 40
0.1227845609
 41
1.5707963268
 42
3.1415926536
  0
ELLIPSE
  5
62C
100
AcDbEntity
  8
0
100
AcDbEllipse
 62
7
  6
CONTINUOUS
 10
-7.090443311
 20
42.2777136256
 30
0.0
 11
0.3
 21
0.0
 31
0.0
 40
0.1227845609
 41
-0.0
 42
1.5707963268
  0
ELLIPSE
  5
62D
100
AcDbEntity
  8
0
100
AcDbEllipse
 62
7
  6
CONTINUOUS
 10
-7.290443311
 20
42.2777136256
 30
0.0
 11
0.3
 21
0.0
 31
0.0
 40
0.1227845609
 41
1.5707963268
 42
3.1415926536
  0
ELLIPSE
  5
62E
100
AcDbEntity
  8
RACCORDO
100
AcDbEllipse
 62
7
  6
CONTINUOUS
 10
-2.5062003953
 20
42.3216607749
 30
0.0
 11
0.2000300132
 21
-0.0
 31
0.0
 40
0.9923972267
 41
0.0021269149
 42
1.5707963268
  0
ELLIPSE
  5
62F
100
AcDbEntity
  8
RACCORDO
100
AcDbEllipse
 62
7
  6
CONTINUOUS
 10
-21.8746862267
 20
42.3216607749
 30
0.0
 11
0.2000300132
 21
-0.0
 31
0.0
 40
0.9923972267
 41
1.5707963268
 42
3.1394657387
  0
ELLIPSE
  5
630
100
AcDbEntity
  8
0
100
AcDbEllipse
 62
7
  6
CONTINUOUS
 10
-17.7713834187
 20
22.2099770713
 30
0.0
 11
0.2309203249
 21
0.0034904481
 31
0.0
 40
0.8660006717
 41
-1.5707121714
 42
-0.0130891803
  0
ELLIPSE
  5
631
100
AcDbEntity
  8
RACCORDO
100
AcDbEllipse
 62
7
  6
CONTINUOUS
 10
-21.8380476506
 20
23.4369180145
 30
0.0
 11
0.039286661
 21
0.1969134736
 31
0.0
 40
0.9960441251
 41
-4.514700471
 42
-2.9454252223
  0
ELLIPSE
  5
632
100
AcDbEntity
  8
0
100
AcDbEllipse
 62
7
  6
CONTINUOUS
 10
-16.9630930418
 20
23.2564385831
 30
0.0
 11
0.4564354646
 21
-0.4564354646
 31
0.0
 40
0.7745966692
 41
2.4825346178
 42
3.8006506894
  0
ELLIPSE
  5
633
100
AcDbEntity
  8
RACCORDO
100
AcDbEllipse
 62
7
  6
CONTINUOUS
 10
-21.8258291052
 20
23.498160079
 30
0.0
 11
0.039286661
 21
0.1969134736
 31
0.0
 40
0.9960441251
 41
-2.9613574367
 42
-2.9454252223
  0
ELLIPSE
  5
634
100
AcDbEntity
  8
0
100
AcDbEllipse
 62
7
  6
CONTINUOUS
 10
-7.4177935802
 20
23.2564385831
 30
0.0
 11
0.4564354646
 21
0.4564354646
 31
0.0
 40
0.7745966692
 41
-0.6590580358
 42
0.6590580358
  0
ELLIPSE
  5
635
100
AcDbEntity
  8
RACCORDO
100
AcDbEllipse
 62
7
  6
CONTINUOUS
 10
-2.5515665039
 20
23.2798983788
 30
0.0
 11
0.2
 21
0.0
 31
0.0
 40
0.0874886635
 41
0.0174532925
 42
1.5707963268
  0
ELLIPSE
  5
636
100
AcDbEntity
  8
0
100
AcDbEllipse
 62
7
  6
CONTINUOUS
 10
-1.2905956971
 20
21.5337793326
 30
0.0
 11
-0.2426981267
 21
-0.0606514259
 31
0.0
 40
0.9993528196
 41
2.8968558282
 42
4.4673476033
  0
ELLIPSE
  5
637
100
AcDbEntity
  8
0
100
AcDbEllipse
 62
7
  6
CONTINUOUS
 10
-23.0902909249
 20
21.5337793326
 30
0.0
 11
-0.2426981267
 21
0.0606514259
 31
0.0
 40
0.9993528196
 41
-1.3257549497
 42
0.2447368254
  0
ELLIPSE
  5
638
100
AcDbEntity
  8
0
100
AcDbEllipse
 62
7
  6
CONTINUOUS
 10
-14.3249732572
 20
-0.2878266903
 30
0.0
 11
0.2
 21
-0.0
 31
0.0
 40
0.0524637553
 41
1.5707963268
 42
2.617993878
  0
ELLIPSE
  5
639
100
AcDbEntity
  8
0
100
AcDbEllipse
 62
7
  6
CONTINUOUS
 10
-10.0559133649
 20
-0.2878266903
 30
0.0
 11
0.2
 21
-0.0
 31
0.0
 40
0.0524637553
 41
0.5235987756
 42
1.5707963268
  0
ELLIPSE
  5
63A
100
AcDbEntity
  8
0
100
AcDbEllipse
 62
7
  6
CONTINUOUS
 10
-16.8800960601
 20
21.5441284875
 30
0.0
 11
0.000044129
 21
0.2000221726
 31
0.0
 40
0.0171905225
 41
-1.5579631943
 42
-1.5535237603
  0
ELLIPSE
  5
63B
100
AcDbEntity
  8
0
100
AcDbEllipse
 62
7
  6
CONTINUOUS
 10
-7.500790562
 20
21.5441284875
 30
0.0
 11
-0.000044129
 21
0.2000221726
 31
0.0
 40
0.0171905225
 41
1.5535237603
 42
1.5579631943
  0
ELLIPSE
  5
63C
100
AcDbEntity
  8
0
100
AcDbEllipse
 62
7
  6
CONTINUOUS
 10
-7.9968029336
 20
21.0901484748
 30
0.0
 11
0.4643386945
 21
0.1896138901
 31
0.0
 40
0.9790602997
 41
-1.9659448745
 42
-1.8396428231
  0
ELLIPSE
  5
63D
100
AcDbEntity
  8
0
100
AcDbEllipse
 62
7
  6
CONTINUOUS
 10
-16.3840836885
 20
21.0901484748
 30
0.0
 11
-0.1896138901
 21
0.4643386945
 31
0.0
 40
0.9790602997
 41
1.1756477791
 42
1.3019498305
  0
ELLIPSE
  5
63E
100
AcDbEntity
  8
0
100
AcDbEllipse
 62
7
  6
CONTINUOUS
 10
-7.9968029336
 20
21.0901484748
 30
0.0
 11
0.1896138901
 21
0.4643386945
 31
0.0
 40
0.9790602997
 41
-1.3019498305
 42
-1.1756477791
  0
ELLIPSE
  5
63F
100
AcDbEntity
  8
0
100
AcDbEllipse
 62
7
  6
CONTINUOUS
 10
-16.3840836885
 20
21.0901484748
 30
0.0
 11
0.4643386945
 21
-0.1896138901
 31
0.0
 40
0.9790602997
 41
-1.3019498305
 42
-1.1756477791
  0
ELLIPSE
  5
640
100
AcDbEntity
  8
0
100
AcDbEllipse
 62
7
  6
CONTINUOUS
 10
-22.803289722
 20
0.1897763456
 30
0.0
 11
0.4901042491
 21
-0.1011361035
 31
0.0
 40
0.9938624933
 41
-2.9350443199
 42
-1.3660744926
  0
ELLIPSE
  5
641
100
AcDbEntity
  8
0
100
AcDbEllipse
 62
7
  6
CONTINUOUS
 10
-1.5775969
 20
0.1897763456
 30
0.0
 11
0.4901042491
 21
0.1011361035
 31
0.0
 40
0.9938624933
 41
-1.775518161
 42
-0.2065483337
  0
ELLIPSE
  5
642
100
AcDbEntity
  8
0
100
AcDbEllipse
 62
7
  6
CONTINUOUS
 10
-9.2378366742
 20
18.8811707919
 30
0.0
 11
0.3
 21
0.0
 31
0.0
 40
0.0087268678
 41
0.0087266463
 42
1.5707963268
  0
ELLIPSE
  5
643
100
AcDbEntity
  8
0
100
AcDbEllipse
 62
7
  6
CONTINUOUS
 10
-15.146540695
 20
17.2505060003
 30
0.0
 11
0.0034175972
 21
0.4667119782
 31
0.0
 40
0.6427774967
 41
-4.7009971771
 42
-3.1368858142
  0
ELLIPSE
  5
644
100
AcDbEntity
  8
0
100
AcDbEllipse
 62
7
  6
CONTINUOUS
 10
-14.9343459271
 20
17.2505060003
 30
0.0
 11
-0.0034175972
 21
0.4667119782
 31
0.0
 40
0.6427774967
 41
-3.146299493
 42
-1.58218813
  0
ELLIPSE
  5
645
100
AcDbEntity
  8
0
100
AcDbEllipse
 62
7
  6
CONTINUOUS
 10
-15.1430499478
 20
18.8811707919
 30
0.0
 11
0.3
 21
0.0
 31
0.0
 40
0.0087268678
 41
1.5707963268
 42
3.1328660073
  0
ELLIPSE
  5
646
100
AcDbEntity
  8
0
100
AcDbEllipse
 62
7
  6
CONTINUOUS
 10
-17.3000314421
 20
2.3933769833
 30
0.0
 11
0.2121481893
 21
-0.2121481893
 31
0.0
 40
0.9999238505
 41
2.3562325664
 42
3.9269527408
  0
ELLIPSE
  5
647
100
AcDbEntity
  8
0
100
AcDbEllipse
 62
7
  6
CONTINUOUS
 10
-17.2930499478
 20
1.4898640789
 30
0.0
 11
0.3
 21
0.0
 31
0.0
 40
0.1227845609
 41
-3.1328660073
 42
-1.5707963268
  0
ELLIPSE
  5
648
100
AcDbEntity
  8
0
100
AcDbEllipse
 62
7
  6
CONTINUOUS
 10
-17.0878366742
 20
1.4898640789
 30
0.0
 11
0.3
 21
-0.0
 31
0.0
 40
0.1227845609
 41
-1.5707963268
 42
-0.0087266463
  0
ELLIPSE
  5
649
100
AcDbEntity
  8
0
100
AcDbEllipse
 62
7
  6
CONTINUOUS
 10
-17.08085518
 20
2.3933769833
 30
0.0
 11
0.2121481893
 21
0.2121481893
 31
0.0
 40
0.9999238505
 41
-0.7853600872
 42
0.7853600872
  0
ELLIPSE
  5
64A
100
AcDbEntity
  8
0
100
AcDbEllipse
 62
7
  6
CONTINUOUS
 10
-15.9904318875
 20
19.1838002758
 30
0.0
 11
0.2121481893
 21
0.2121481893
 31
0.0
 40
0.9999238505
 41
2.3562325664
 42
3.9269527408
  0
ELLIPSE
  5
64B
100
AcDbEntity
  8
0
100
AcDbEllipse
 62
7
  6
CONTINUOUS
 10
-17.1404090405
 20
20.3337888522
 30
0.0
 11
0.9000342705
 21
-0.0
 31
0.0
 40
0.9999619231
 41
3.1415926536
 42
4.7123889804
  0
ELLIPSE
  5
64C
100
AcDbEntity
  8
RACCORDO
100
AcDbEllipse
 62
7
  6
CONTINUOUS
 10
-22.2381085818
 20
21.5576006332
 30
0.0
 11
0.1789222233
 21
-0.0894542984
 31
0.0
 40
0.9998096356
 41
0.4635410001
 42
1.5708031446
  0
ELLIPSE
  5
64D
100
AcDbEntity
  8
0
100
AcDbEllipse
 62
7
  6
CONTINUOUS
 10
-17.7713834187
 20
21.5576006332
 30
0.0
 11
-0.2309203249
 21
0.0034904481
 31
0.0
 40
0.8660006717
 41
-3.1285034733
 42
-1.5708804822
  0
ELLIPSE
  5
64E
100
AcDbEntity
  8
0
100
AcDbEllipse
 62
7
  6
CONTINUOUS
 10
-7.3000314421
 20
2.3933769833
 30
0.0
 11
0.2121481893
 21
-0.2121481893
 31
0.0
 40
0.9999238505
 41
2.3562325664
 42
3.9269527408
  0
ELLIPSE
  5
64F
100
AcDbEntity
  8
0
100
AcDbEllipse
 62
7
  6
CONTINUOUS
 10
-8.3904547345
 20
19.1838002758
 30
0.0
 11
-0.2121481893
 21
0.2121481893
 31
0.0
 40
0.9999238505
 41
2.3562325664
 42
3.9269527408
  0
ELLIPSE
  5
650
100
AcDbEntity
  8
0
100
AcDbEllipse
 62
7
  6
CONTINUOUS
 10
-7.08085518
 20
2.3933769833
 30
0.0
 11
0.2121481893
 21
0.2121481893
 31
0.0
 40
0.9999238505
 41
-0.7853600872
 42
0.7853600872
  0
ELLIPSE
  5
651
100
AcDbEntity
  8
0
100
AcDbEllipse
 62
7
  6
CONTINUOUS
 10
-7.0878366742
 20
1.4898640789
 30
0.0
 11
0.3
 21
0.0
 31
0.0
 40
0.1227845609
 41
-1.5707963268
 42
-0.0087266463
  0
ELLIPSE
  5
652
100
AcDbEntity
  8
0
100
AcDbEllipse
 62
7
  6
CONTINUOUS
 10
-7.2930499478
 20
1.4898640789
 30
0.0
 11
0.3
 21
0.0
 31
0.0
 40
0.1227845609
 41
-3.1328660073
 42
-1.5707963268
  0
ELLIPSE
  5
653
100
AcDbEntity
  8
0
100
AcDbEllipse
 62
7
  6
CONTINUOUS
 10
-15.996540695
 20
19.1776914683
 30
0.0
 11
0.2121481893
 21
0.2121481893
 31
0.0
 40
0.9999238505
 41
-3.9269527408
 42
-2.3562325664
  0
ELLIPSE
  5
654
100
AcDbEntity
  8
0
100
AcDbEllipse
 62
7
  6
CONTINUOUS
 10
-7.2343687741
 20
20.3337888522
 30
0.0
 11
0.9000342705
 21
0.0
 31
0.0
 40
0.9999619231
 41
-1.5707963268
 42
0.0
  0
ELLIPSE
  5
655
100
AcDbEntity
  8
0
100
AcDbEllipse
 62
7
  6
CONTINUOUS
 10
-17.1465178479
 20
20.3337888522
 30
0.0
 11
0.9000342705
 21
-0.0
 31
0.0
 40
0.9999619231
 41
-3.1415926536
 42
-1.5707963268
  0
ELLIPSE
  5
656
100
AcDbEntity
  8
RACCORDO
100
AcDbEllipse
 62
7
  6
CONTINUOUS
 10
-21.8746862267
 20
1.4459169296
 30
0.0
 11
0.2000300132
 21
-0.0
 31
0.0
 40
0.9923972267
 41
-3.1394657387
 42
-1.5707963268
  0
ELLIPSE
  5
657
100
AcDbEntity
  8
RACCORDO
100
AcDbEllipse
 62
7
  6
CONTINUOUS
 10
-2.5062003953
 20
1.4459169296
 30
0.0
 11
0.2000300132
 21
0.0
 31
0.0
 40
0.9923972267
 41
-1.5707963268
 42
-0.0021269149
  0
ELLIPSE
  5
658
100
AcDbEntity
  8
RACCORDO
100
AcDbEllipse
 62
7
  6
CONTINUOUS
 10
-2.5550575169
 20
20.3217828203
 30
0.0
 11
-0.039286661
 21
-0.1969134736
 31
0.0
 40
0.9960441251
 41
-2.9613574367
 42
-2.9454252223
  0
ELLIPSE
  5
659
100
AcDbEntity
  8
RACCORDO
100
AcDbEllipse
 62
7
  6
CONTINUOUS
 10
-2.5428389714
 20
20.3830248847
 30
0.0
 11
0.039286661
 21
0.1969134736
 31
0.0
 40
0.9960441251
 41
-1.3731078174
 42
0.1961674313
  0
ELLIPSE
  5
65A
100
AcDbEntity
  8
0
100
AcDbEllipse
 62
7
  6
CONTINUOUS
 10
-7.2404775816
 20
20.3337888522
 30
0.0
 11
-0.9000342705
 21
0.0
 31
0.0
 40
0.9999619231
 41
7.853981634
 42
9.4247779608
  0
ELLIPSE
  5
65B
100
AcDbEntity
  8
0
100
AcDbEllipse
 62
7
  6
CONTINUOUS
 10
-7.4177935802
 20
20.5111391214
 30
0.0
 11
0.4564354646
 21
-0.4564354646
 31
0.0
 40
0.7745966692
 41
-0.6590580358
 42
0.6590580358
  0
ELLIPSE
  5
65C
100
AcDbEntity
  8
0
100
AcDbEllipse
 62
7
  6
CONTINUOUS
 10
-6.6095032033
 20
21.5576006332
 30
0.0
 11
-0.2309203249
 21
-0.0034904481
 31
0.0
 40
0.8660006717
 41
-1.5707121714
 42
-0.0130891803
  0
ELLIPSE
  5
65D
100
AcDbEntity
  8
RACCORDO
100
AcDbEllipse
 62
7
  6
CONTINUOUS
 10
-22.2904737766
 20
21.5837812366
 30
0.0
 11
-0.1789222233
 21
0.0894542984
 31
0.0
 40
0.9998096356
 41
-2.6780516535
 42
-1.1071030277
  0
ELLIPSE
  5
65E
100
AcDbEntity
  8
0
100
AcDbEllipse
 62
7
  6
CONTINUOUS
 10
-16.9630930418
 20
20.5111391214
 30
0.0
 11
0.4564354646
 21
0.4564354646
 31
0.0
 40
0.7745966692
 41
-3.8006506894
 42
-2.4825346178
  0
ELLIPSE
  5
65F
100
AcDbEntity
  8
RACCORDO
100
AcDbEllipse
 62
7
  6
CONTINUOUS
 10
-7.598297492
 20
1.7650367805
 30
0.0
 11
0.0
 21
0.2
 31
0.0
 40
0.0087268678
 41
1.5707963268
 42
3.019419606
  0
ELLIPSE
  5
660
100
AcDbEntity
  8
0
100
AcDbEllipse
 62
7
  6
CONTINUOUS
 10
-8.3843459271
 20
19.1776914683
 30
0.0
 11
0.2121481893
 21
-0.2121481893
 31
0.0
 40
0.9999238505
 41
-0.7853600872
 42
0.7853600872
  0
ELLIPSE
  5
661
100
AcDbEntity
  8
RACCORDO
100
AcDbEllipse
 62
7
  6
CONTINUOUS
 10
-6.78258913
 20
1.7650367805
 30
0.0
 11
-0.0
 21
0.2
 31
0.0
 40
0.0087268678
 41
-3.0194196059
 42
-1.5707963268
  0
ELLIPSE
  5
662
100
AcDbEntity
  8
RACCORDO
100
AcDbEllipse
 62
7
  6
CONTINUOUS
 10
-17.598297492
 20
1.7650367805
 30
0.0
 11
-0.0
 21
0.2
 31
0.0
 40
0.0087268678
 41
-4.7123889804
 42
-3.2637657012
  0
ELLIPSE
  5
663
100
AcDbEntity
  8
RACCORDO
100
AcDbEllipse
 62
7
  6
CONTINUOUS
 10
-16.78258913
 20
1.7650367805
 30
0.0
 11
0.0
 21
0.2
 31
0.0
 40
0.0087268678
 41
-3.0194196059
 42
-1.5707963268
  0
ELLIPSE
  5
664
100
AcDbEntity
  8
RACCORDO
100
AcDbEllipse
 62
7
  6
CONTINUOUS
 10
-21.8293201182
 20
20.5400445205
 30
0.0
 11
0.2
 21
0.0
 31
0.0
 40
0.0874886635
 41
-3.1241393611
 42
-1.5707963268
  0
ELLIPSE
  5
665
100
AcDbEntity
  8
0
100
AcDbEllipse
 62
7
  6
CONTINUOUS
 10
-9.446540695
 20
17.2505060003
 30
0.0
 11
0.0034175972
 21
0.4667119782
 31
0.0
 40
0.6427774967
 41
-4.7009971771
 42
-3.1368858142
  0
ELLIPSE
  5
666
100
AcDbEntity
  8
0
100
AcDbEllipse
 62
7
  6
CONTINUOUS
 10
-9.2343459271
 20
17.2505060003
 30
0.0
 11
-0.0034175972
 21
0.4667119782
 31
0.0
 40
0.6427774967
 41
-3.146299493
 42
-1.58218813
  0
ENDSEC
  0
SECTION
  2
OBJECTS
  0
DICTIONARY
  5
C
100
AcDbDictionary
280
0
281
1
  3
ACAD_GROUP
350
D
  3
ACAD_MLINESTYLE
350
17
  3
ACAD_LAYOUT
350
1A
  3
ACAD_PLOTSETTINGS
350
19
  3
ACAD_PLOTSTYLENAME
350
E
  0
DICTIONARY
  5
D
102
{ACAD_REACTORS
330
C
102
}
100
AcDbDictionary
280
0
281
1
  0
ACDBDICTIONARYWDFLT
  5
E
102
{ACAD_REACTORS
330
C
102
}
100
AcDbDictionary
281
1
  3
Normal
350
F
100
AcDbDictionaryWithDefault
340
F
  0
DICTIONARY
  5
17
102
{ACAD_REACTORS
330
C
102
}
100
AcDbDictionary
280
0
281
1
  3
Standard
350
18
  0
DICTIONARY
  5
19
102
{ACAD_REACTORS
330
C
102
}
100
AcDbDictionary
281
1
  0
DICTIONARY
  5
1A
102
{ACAD_REACTORS
330
C
102
}
100
AcDbDictionary
281
1
  3
Model
350
667
  3
Layout1
350
668
  0
ACDBPLACEHOLDER
  5
F
102
{ACAD_REACTORS
330
E
102
}
  0
MLINESTYLE
  5
18
102
{ACAD_REACTORS
330
17
102
}
100
AcDbMlineStyle
  2
STANDARD
 70
0
  3

 62
256
 51
90.0
 52
90.0
 71
2
 49
0.5
 62
256
  6
BYLAYER
 49
-0.5
 62
256
  6
BYLAYER
  0
LAYOUT
  5
667
102
{ACAD_REACTORS
330
1A
102
}
100
AcDbPlotSettings
  1

  2
none_device
  4

  6

 40
0.0
 41
0.0
 42
0.0
 43
0.0
 44
210.0
 45
297.0
 46
0.0
 47
0.0
 48
0.0
 49
0.0
140
0.0
141
0.0
142
1.0
143
1.0
 70
1024
 72
1
 73
0
 74
0
  7

 75
0
147
1.0
148
0.0
149
0.0
100
AcDbLayout
  1
Model
 70
0
 71
0
 10
0.0
 20
0.0
 11
210.0
 21
297.0
 12
0.0
 22
0.0
 32
0.0
 14
0.0
 24
0.0
 34
0.0
 15
0.0
 25
0.0
 35
0.0
146
0.0
 13
0.0
 23
0.0
 33
0.0
 16
1.0
 26
0.0
 36
0.0
 17
0.0
 27
1.0
 37
0.0
 76
0
330
222
345
0
346
0
  0
LAYOUT
  5
668
102
{ACAD_REACTORS
330
1A
102
}
100
AcDbPlotSettings
  1

  2
none_device
  4

  6

 40
0.0
 41
0.0
 42
0.0
 43
0.0
 44
210.0
 45
297.0
 46
0.0
 47
0.0
 48
0.0
 49
0.0
140
0.0
141
0.0
142
1.0
143
1.0
 70
0
 72
1
 73
0
 74
0
  7

 75
0
147
1.0
148
0.0
149
0.0
100
AcDbLayout
  1
Layout1
 70
0
 71
1
 10
0.0
 20
0.0
 11
210.0
 21
297.0
 12
0.0
 22
0.0
 32
0.0
 14
0.0
 24
0.0
 34
0.0
 15
0.0
 25
0.0
 35
0.0
146
0.0
 13
0.0
 23
0.0
 33
0.0
 16
1.0
 26
0.0
 36
0.0
 17
0.0
 27
1.0
 37
0.0
 76
0
330
223
345
0
346
0
  0
ENDSEC
  0
EOF
