  0
SECTION
  2
HEADER
  9
$ACADVER
  1
AC1015
  9
$DWGCODEPAGE
  3
ANSI_1252
  9
$EXTMAX
 10
210.0
 20
297.0
 30
0.0
  9
$EXTMIN
 10
0.0
 20
0.0
 30
0.0
  9
$LIMMIN
 10
0.0
 20
0.0
  9
$LIMMAX
 10
210.0
 20
297.0
  9
$VIEWCTR
 10
105.0
 20
148.5
  9
$VIEWSIZE
 40
297.0
  9
$CLAYER
  8
0
  9
$LTSCALE
 40
19.36
  9
$CELTYPE
  6
BYLAYER
  9
$DIMSCALE
 40
1.0
  9
$DIMASZ
 40
3.0
  9
$DIMEXO
 40
0.5
  9
$DIMDLI
 40
13.376
  9
$DIMEXE
 40
1.5
  9
$DIMCEN
 40
3.168
  9
$DIMLFAC
 40
1.0
  9
$DIMBLK
  1
_FILLED
  9
$DIMTXT
 40
3.0
  9
$DIMTOL
 70
1
  9
$DIMLIM
 70
0
  9
$DIMTFAC
 40
1.0
  9
$DIMTP
 40
0.01
  9
$DIMTM
 40
0.01
  9
$DIMGAP
 40
0.625
  9
$DIMDSEP
 70
44
  9
$PDMODE
 70
3
  9
$PDSIZE
 40
3.0
  9
$HANDSEED
  5
7C7
  9
$TILEMODE
 70
1
  9
$MEASUREMENT
 70
1
  9
$INSUNITS
 70
4
  0
ENDSEC
  0
SECTION
  2
CLASSES
  0
CLASS
  1
ACDBDICTIONARYWDFLT
  2
AcDbDictionaryWithDefault
  3
AutoCAD 2000
 90
0
280
0
281
0
  0
CLASS
  1
ACDBPLACEHOLDER
  2
AcDbPlaceHolder
  3
AutoCAD 2000
 90
0
280
0
281
0
  0
CLASS
  1
LAYOUT
  2
AcDbLayout
  3
AutoCAD 2000
 90
0
280
0
281
0
  0
ENDSEC
  0
SECTION
  2
TABLES
  0
TABLE
  2
VPORT
  5
8
100
AcDbSymbolTable
 70
2
  0
VPORT
  5
1F4
100
AcDbSymbolTableRecord
100
AcDbViewportTableRecord
  2
*ACTIVE
 70
0
 10
0.0
 20
0.0
 11
1.0
 21
1.0
 12
105.0
 22
148.5
 13
0.0
 23
0.0
 14
1.0
 24
1.0
 15
0.0
 25
0.0
 16
0.0
 26
0.0
 36
1.0
 17
0.0
 27
0.0
 37
0.0
 40
297.0
 41
0.7070707071
 42
50.0
 43
0.0
 44
0.0
 50
0.0
 51
0.0
 71
0
 72
100
 73
1
 74
1
 75
0
 76
0
 77
0
 78
0
  0
ENDTAB
  0
TABLE
  2
LTYPE
  5
5
100
AcDbSymbolTable
 70
6
  0
LTYPE
  5
14
100
AcDbSymbolTableRecord
100
AcDbLinetypeTableRecord
  2
BYBLOCK
 70
0
  3

 72
65
 73
0
 40
0.0
  0
LTYPE
  5
15
100
AcDbSymbolTableRecord
100
AcDbLinetypeTableRecord
  2
BYLAYER
 70
0
  3

 72
65
 73
0
 40
0.0
  0
LTYPE
  5
16
100
AcDbSymbolTableRecord
100
AcDbLinetypeTableRecord
  2
CONTINUOUS
 70
64
  3
Solid line
 72
65
 73
0
 40
0.0
  0
LTYPE
  5
1F5
100
AcDbSymbolTableRecord
100
AcDbLinetypeTableRecord
  2
CENTER
 70
64
  3
____ _ ____ _ ____ _ ____ _ ____ _ ____ _ ____
 72
65
 73
4
 40
0.6
 49
0.375
 74
0
 49
-0.075
 74
0
 49
0.075
 74
0
 49
-0.075
 74
0
  0
LTYPE
  5
1F6
100
AcDbSymbolTableRecord
100
AcDbLinetypeTableRecord
  2
HIDDEN
 70
64
  3
- - - - - - - - - - - - - - - - - - - -
 72
65
 73
2
 40
0.2
 49
0.1
 74
0
 49
-0.1
 74
0
  0
LTYPE
  5
1F7
100
AcDbSymbolTableRecord
100
AcDbLinetypeTableRecord
  2
PHANTOM
 70
64
  3
_____ _ _ _____ _ _ _____ _ _ _____
 72
65
 73
6
 40
0.8
 49
0.45
 74
0
 49
-0.05
 74
0
 49
0.1
 74
0
 49
-0.05
 74
0
 49
0.1
 74
0
 49
-0.05
 74
0
  0
LTYPE
  5
1F8
100
AcDbSymbolTableRecord
100
AcDbLinetypeTableRecord
  2
DOT
 70
64
  3
. . . . . . . . . . . . . . . . . . . .
 72
65
 73
2
 40
0.2
 49
0.1
 74
0
 49
-0.1
 74
0
  0
LTYPE
  5
1F9
100
AcDbSymbolTableRecord
100
AcDbLinetypeTableRecord
  2
DASHED
 70
64
  3
- - - - - - - - - - - - - - - - - - - -
 72
65
 73
2
 40
0.2
 49
0.1
 74
0
 49
-0.1
 74
0
  0
ENDTAB
  0
TABLE
  2
LAYER
  5
2
100
AcDbSymbolTable
 70
36
  0
LAYER
  5
10
100
AcDbSymbolTableRecord
100
AcDbLayerTableRecord
  2
0
 70
0
 62
7
  6
CONTINUOUS
370
-3
390
F
  0
LAYER
  5
1FA
100
AcDbSymbolTableRecord
100
AcDbLayerTableRecord
  2
DEFAULT_1
 70
0
 62
7
  6
CENTER
370
-3
390
F
  0
LAYER
  5
1FB
100
AcDbSymbolTableRecord
100
AcDbLayerTableRecord
  2
DEFAULT_2
 70
0
 62
7
  6
HIDDEN
370
-3
390
F
  0
LAYER
  5
1FC
100
AcDbSymbolTableRecord
100
AcDbLayerTableRecord
  2
DEFAULT_3
 70
0
 62
7
  6
PHANTOM
370
-3
390
F
  0
LAYER
  5
1FD
100
AcDbSymbolTableRecord
100
AcDbLayerTableRecord
  2
ASSI
 70
0
 62
7
  6
CONTINUOUS
370
-3
390
F
  0
LAYER
  5
1FE
100
AcDbSymbolTableRecord
100
AcDbLayerTableRecord
  2
COLOR9
 70
0
 62
7
  6
CONTINUOUS
370
-3
390
F
  0
LAYER
  5
1FF
100
AcDbSymbolTableRecord
100
AcDbLayerTableRecord
  2
COORDINATE
 70
0
 62
7
  6
CONTINUOUS
370
-3
390
F
  0
LAYER
  5
200
100
AcDbSymbolTableRecord
100
AcDbLayerTableRecord
  2
COORD_ORIGINE
 70
0
 62
7
  6
CONTINUOUS
370
-3
390
F
  0
LAYER
  5
201
100
AcDbSymbolTableRecord
100
AcDbLayerTableRecord
  2
COPY_GEOMETRY
 70
0
 62
7
  6
CONTINUOUS
370
-3
390
F
  0
LAYER
  5
202
100
AcDbSymbolTableRecord
100
AcDbLayerTableRecord
  2
COPY_PUBLISH
 70
0
 62
7
  6
CONTINUOUS
370
-3
390
F
  0
LAYER
  5
203
100
AcDbSymbolTableRecord
100
AcDbLayerTableRecord
  2
COSMETIC
 70
0
 62
7
  6
CONTINUOUS
370
-3
390
F
  0
LAYER
  5
204
100
AcDbSymbolTableRecord
100
AcDbLayerTableRecord
  2
COSMETICI
 70
0
 62
7
  6
CONTINUOUS
370
-3
390
F
  0
LAYER
  5
205
100
AcDbSymbolTableRecord
100
AcDbLayerTableRecord
  2
CURVE
 70
0
 62
7
  6
CONTINUOUS
370
-3
390
F
  0
LAYER
  5
206
100
AcDbSymbolTableRecord
100
AcDbLayerTableRecord
  2
DRAFT
 70
0
 62
7
  6
CONTINUOUS
370
-3
390
F
  0
LAYER
  5
207
100
AcDbSymbolTableRecord
100
AcDbLayerTableRecord
  2
IGES
 70
0
 62
7
  6
CONTINUOUS
370
-3
390
F
  0
LAYER
  5
208
100
AcDbSymbolTableRecord
100
AcDbLayerTableRecord
  2
IGS_SCRITTE
 70
0
 62
7
  6
CONTINUOUS
370
-3
390
F
  0
LAYER
  5
209
100
AcDbSymbolTableRecord
100
AcDbLayerTableRecord
  2
IMPORT_IGES
 70
0
 62
7
  6
CONTINUOUS
370
-3
390
F
  0
LAYER
  5
20A
100
AcDbSymbolTableRecord
100
AcDbLayerTableRecord
  2
INTFCLR_13457
 70
0
 62
7
  6
CONTINUOUS
370
-3
390
F
  0
LAYER
  5
20B
100
AcDbSymbolTableRecord
100
AcDbLayerTableRecord
  2
INTFCLR_20107
 70
0
 62
7
  6
CONTINUOUS
370
-3
390
F
  0
LAYER
  5
20C
100
AcDbSymbolTableRecord
100
AcDbLayerTableRecord
  2
INTFCLR_35047
 70
0
 62
7
  6
CONTINUOUS
370
-3
390
F
  0
LAYER
  5
20D
100
AcDbSymbolTableRecord
100
AcDbLayerTableRecord
  2
INTF_11
 70
0
 62
7
  6
CONTINUOUS
370
-3
390
F
  0
LAYER
  5
20E
100
AcDbSymbolTableRecord
100
AcDbLayerTableRecord
  2
INTF_20
 70
0
 62
7
  6
CONTINUOUS
370
-3
390
F
  0
LAYER
  5
20F
100
AcDbSymbolTableRecord
100
AcDbLayerTableRecord
  2
INTF_25
 70
0
 62
7
  6
CONTINUOUS
370
-3
390
F
  0
LAYER
  5
210
100
AcDbSymbolTableRecord
100
AcDbLayerTableRecord
  2
INTF_YELLOW
 70
0
 62
7
  6
CONTINUOUS
370
-3
390
F
  0
LAYER
  5
211
100
AcDbSymbolTableRecord
100
AcDbLayerTableRecord
  2
NOTE
 70
0
 62
7
  6
CONTINUOUS
370
-3
390
F
  0
LAYER
  5
212
100
AcDbSymbolTableRecord
100
AcDbLayerTableRecord
  2
PIANI
 70
0
 62
7
  6
CONTINUOUS
370
-3
390
F
  0
LAYER
  5
213
100
AcDbSymbolTableRecord
100
AcDbLayerTableRecord
  2
PIANI_ORIGINE
 70
0
 62
7
  6
CONTINUOUS
370
-3
390
F
  0
LAYER
  5
214
100
AcDbSymbolTableRecord
100
AcDbLayerTableRecord
  2
PIANI_RIFERIMENTO
 70
0
 62
7
  6
CONTINUOUS
370
-3
390
F
  0
LAYER
  5
215
100
AcDbSymbolTableRecord
100
AcDbLayerTableRecord
  2
PUBLISH_GEOMETRY
 70
0
 62
7
  6
CONTINUOUS
370
-3
390
F
  0
LAYER
  5
216
100
AcDbSymbolTableRecord
100
AcDbLayerTableRecord
  2
PUNTI
 70
0
 62
7
  6
CONTINUOUS
370
-3
390
F
  0
LAYER
  5
217
100
AcDbSymbolTableRecord
100
AcDbLayerTableRecord
  2
RACCORDO
 70
0
 62
7
  6
CONTINUOUS
370
-3
390
F
  0
LAYER
  5
218
100
AcDbSymbolTableRecord
100
AcDbLayerTableRecord
  2
SIMBOLI
 70
0
 62
7
  6
CONTINUOUS
370
-3
390
F
  0
LAYER
  5
219
100
AcDbSymbolTableRecord
100
AcDbLayerTableRecord
  2
SMUSSO
 70
0
 62
7
  6
CONTINUOUS
370
-3
390
F
  0
LAYER
  5
21A
100
AcDbSymbolTableRecord
100
AcDbLayerTableRecord
  2
SNAPLINE
 70
0
 62
7
  6
CONTINUOUS
370
-3
390
F
  0
LAYER
  5
21B
100
AcDbSymbolTableRecord
100
AcDbLayerTableRecord
  2
SOLIDO
 70
0
 62
7
  6
CONTINUOUS
370
-3
390
F
  0
LAYER
  5
21C
100
AcDbSymbolTableRecord
100
AcDbLayerTableRecord
  2
SUPERFICI
 70
0
 62
7
  6
CONTINUOUS
370
-3
390
F
  0
LAYER
  5
21D
100
AcDbSymbolTableRecord
100
AcDbLayerTableRecord
  2
TRASH
 70
0
 62
7
  6
CONTINUOUS
370
-3
390
F
  0
LAYER
  5
21E
100
AcDbSymbolTableRecord
100
AcDbLayerTableRecord
  2
WHITE
 70
0
 62
7
  6
CONTINUOUS
370
-3
390
F
  0
LAYER
  5
21F
100
AcDbSymbolTableRecord
100
AcDbLayerTableRecord
  2
XSEC_DATUMS
 70
0
 62
7
  6
CONTINUOUS
370
-3
390
F
  0
ENDTAB
  0
TABLE
  2
STYLE
  5
3
100
AcDbSymbolTable
 70
1
  0
STYLE
  5
11
100
AcDbSymbolTableRecord
100
AcDbTextStyleTableRecord
  2
STANDARD
 70
0
 40
0.0
 41
0.8
 50
0.0
 71
0
 42
0.2
  3
txt
  4

  0
STYLE
  5
220
100
AcDbSymbolTableRecord
100
AcDbTextStyleTableRecord
  2
TEXTSTYLE_1
 70
0
 40
0.0
 41
0.8
 50
0.0
 71
0
 42
0.2
  3
gdt
  4

  0
ENDTAB
  0
TABLE
  2
VIEW
  5
6
100
AcDbSymbolTable
 70
0
  0
ENDTAB
  0
TABLE
  2
UCS
  5
7
100
AcDbSymbolTable
 70
0
  0
ENDTAB
  0
TABLE
  2
APPID
  5
9
100
AcDbSymbolTable
 70
1
  0
APPID
  5
221
100
AcDbSymbolTableRecord
100
AcDbRegAppTableRecord
  2
ACAD
 70
0
  0
ENDTAB
  0
TABLE
  2
BLOCK_RECORD
  5
1
100
AcDbSymbolTable
 70
0
  0
BLOCK_RECORD
  5
222
100
AcDbSymbolTableRecord
100
AcDbBlockTableRecord
  2
*Model_Space
  0
BLOCK_RECORD
  5
223
100
AcDbSymbolTableRecord
100
AcDbBlockTableRecord
  2
*Paper_Space
  0
ENDTAB
  0
TABLE
  2
DIMSTYLE
  5
A
100
AcDbSymbolTable
 70
1
100
AcDbDimStyleTable
 71
0
  0
DIMSTYLE
105
224
100
AcDbSymbolTableRecord
100
AcDbDimStyleTableRecord
  2
STANDARD
 70
0
  3

  4

 40
1.0
 41
3.0
 42
0.5
 43
0.38
 44
1.5
 45
0.0
 46
0.0
 47
0.01
 48
0.01
140
3.0
141
0.09
142
0.0
143
25.4
144
1.0
145
0.0
146
1.0
147
0.625
 71
1.0
 72
0.0
 73
0
 74
0
 75
0
 76
0
 77
1
 78
8
170
0
171
2
172
0
173
0
174
0
175
0
176
0
177
0
178
0
270
2
271
2
272
2
273
2
274
2
275
0
280
0
281
0
282
0
283
1
284
8
285
0
286
0
287
3
288
0
340
11
278
44
  0
ENDTAB
  0
ENDSEC
  0
SECTION
  2
BLOCKS
  0
BLOCK
  5
20
100
AcDbEntity
  8
0
100
AcDbBlockBegin
  2
*Model_Space
 70
0
 10
0.0
 20
0.0
 30
0.0
  3
*Model_Space
  1

  0
ENDBLK
  5
21
100
AcDbEntity
  8
0
100
AcDbBlockEnd
  0
BLOCK
  5
1C
100
AcDbEntity
  8
0
100
AcDbBlockBegin
  2
*Paper_Space
 70
0
 10
0.0
 20
0.0
 30
0.0
  3
*Paper_Space
  1

  0
ENDBLK
  5
1D
100
AcDbEntity
  8
0
100
AcDbBlockEnd
  0
ENDSEC
  0
SECTION
  2
ENTITIES
  0
LINE
  5
225
100
AcDbEntity
  8
0
100
AcDbLine
 62
7
  6
CONTINUOUS
 10
-43.5591892979
 20
-8.399952
 11
-44.3570616102
 21
-7.6299521049
  0
LINE
  5
226
100
AcDbEntity
  8
0
100
AcDbLine
 62
7
  6
CONTINUOUS
 10
-44.3570616102
 20
-7.8499518951
 11
-43.6549339673
 21
-8.5374517902
  0
LINE
  5
227
100
AcDbEntity
  8
0
100
AcDbLine
 62
7
  6
CONTINUOUS
 10
-44.420891401
 20
-7.244952
 11
-44.3570616102
 21
-7.327452
  0
LINE
  5
228
100
AcDbEntity
  8
0
100
AcDbLine
 62
253
  6
CONTINUOUS
 10
-40.4762356362
 20
29.9004370223
 11
-40.4692312954
 21
29.9074413632
  0
LINE
  5
229
100
AcDbEntity
  8
0
100
AcDbLine
 62
253
  6
CONTINUOUS
 10
-40.1762470593
 20
29.6004484454
 11
-40.1692427185
 21
29.6074527863
  0
LINE
  5
22A
100
AcDbEntity
  8
0
100
AcDbLine
 62
7
  6
CONTINUOUS
 10
-43.4315297386
 20
-8.4549517902
 11
-43.5591892979
 21
-8.399952
  0
LINE
  5
22B
100
AcDbEntity
  8
0
100
AcDbLine
 62
7
  6
CONTINUOUS
 10
-43.6549339673
 20
-8.5374517902
 11
-43.5591892979
 21
-8.5924522098
  0
LINE
  5
22C
100
AcDbEntity
  8
0
100
AcDbLine
 62
7
  6
CONTINUOUS
 10
-44.3570616102
 20
-7.327452
 11
-44.2613169408
 21
-7.3824521049
  0
LINE
  5
22D
100
AcDbEntity
  8
0
100
AcDbLine
 62
7
  6
CONTINUOUS
 10
-43.3676998696
 20
-7.7949521049
 11
-43.2719552001
 21
-7.8499518951
  0
LINE
  5
22E
100
AcDbEntity
  8
0
100
AcDbLine
 62
7
  6
CONTINUOUS
 10
-43.6549339673
 20
-7.2999521049
 11
-43.5591892979
 21
-7.3549518951
  0
LINE
  5
22F
100
AcDbEntity
  8
0
100
AcDbLine
 62
7
  6
CONTINUOUS
 10
-44.3889765112
 20
-6.0624521049
 11
-44.2613169408
 21
-6.1449521049
  0
LINE
  5
230
100
AcDbEntity
  8
0
100
AcDbLine
 62
7
  6
CONTINUOUS
 10
-44.2294020286
 20
-7.244952
 11
-44.2932318306
 21
-7.1899518951
  0
LINE
  5
231
100
AcDbEntity
  8
0
100
AcDbLine
 62
7
  6
CONTINUOUS
 10
-43.1123807511
 20
-7.7949521049
 11
-43.2400403103
 21
-7.6849518951
  0
LINE
  5
232
100
AcDbEntity
  8
0
100
AcDbLine
 62
7
  6
CONTINUOUS
 10
-43.5591892979
 20
-7.1899518951
 11
-43.6230190775
 21
-7.1349521049
  0
LINE
  5
233
100
AcDbEntity
  8
0
100
AcDbLine
 62
7
  6
CONTINUOUS
 10
-43.1123807511
 20
-6.584952
 11
-43.2400403103
 21
-6.4749521049
  0
LINE
  5
234
100
AcDbEntity
  8
0
100
AcDbLine
 62
7
  6
CONTINUOUS
 10
-44.3889765112
 20
-4.7974520525
 11
-44.2932318306
 21
-4.8799520525
  0
LINE
  5
235
100
AcDbEntity
  8
0
100
AcDbLine
 62
253
  6
CONTINUOUS
 10
-40.4762356362
 20
-9.0803410223
 11
-40.4692312954
 21
-9.0873453632
  0
LINE
  5
236
100
AcDbEntity
  8
0
100
AcDbLine
 62
253
  6
CONTINUOUS
 10
-40.1762470593
 20
-8.7803524454
 11
-40.1692427185
 21
-8.7873567863
  0
LINE
  5
237
100
AcDbEntity
  8
0
100
AcDbLine
 62
7
  6
CONTINUOUS
 10
-43.7506786367
 20
-7.1899518951
 11
-43.6549339673
 21
-7.2999521049
  0
LINE
  5
238
100
AcDbEntity
  8
0
100
AcDbLine
 62
7
  6
CONTINUOUS
 10
-43.8464233062
 20
-5.4024519475
 11
-43.7506786367
 21
-5.512452
  0
LINE
  5
239
100
AcDbEntity
  8
0
100
AcDbLine
 62
7
  6
CONTINUOUS
 10
-43.2719552001
 20
-7.8499518951
 11
-43.2081254205
 21
-7.9324518951
  0
LINE
  5
23A
100
AcDbEntity
  8
0
100
AcDbLine
 62
7
  6
CONTINUOUS
 10
-44.2613169408
 20
-5.9799521049
 11
-44.3251467204
 21
-5.8974521049
  0
LINE
  5
23B
100
AcDbEntity
  8
0
100
AcDbLine
 62
7
  6
CONTINUOUS
 10
-43.2719552001
 20
-6.6399521049
 11
-43.2081254205
 21
-6.7224521049
  0
LINE
  5
23C
100
AcDbEntity
  8
0
100
AcDbLine
 62
7
  6
CONTINUOUS
 10
-44.2613169408
 20
-4.7149520525
 11
-44.3251467204
 21
-4.6324520525
  0
LINE
  5
23D
100
AcDbEntity
  8
0
100
AcDbLine
 62
7
  6
CONTINUOUS
 10
-44.484721189
 20
-5.924952
 11
-44.3889765112
 21
-6.0624521049
  0
LINE
  5
23E
100
AcDbEntity
  8
0
100
AcDbLine
 62
7
  6
CONTINUOUS
 10
-44.484721189
 20
-4.6599519475
 11
-44.3889765112
 21
-4.7974520525
  0
LINE
  5
23F
100
AcDbEntity
  8
0
100
AcDbLine
 62
7
  6
CONTINUOUS
 10
-43.5911041877
 20
-5.4849521049
 11
-43.6868488571
 21
-5.347452
  0
LINE
  5
240
100
AcDbEntity
  8
0
100
AcDbLine
 62
7
  6
CONTINUOUS
 10
-44.484721189
 20
-7.1349521049
 11
-44.420891401
 21
-7.244952
  0
LINE
  5
241
100
AcDbEntity
  8
0
100
AcDbLine
 62
7
  6
CONTINUOUS
 10
-44.2932318306
 20
-7.1899518951
 11
-44.3251467204
 21
-7.1349521049
  0
LINE
  5
242
100
AcDbEntity
  8
0
100
AcDbLine
 62
7
  6
CONTINUOUS
 10
-43.0485509714
 20
-7.904952
 11
-43.1123807511
 21
-7.7949521049
  0
LINE
  5
243
100
AcDbEntity
  8
0
100
AcDbLine
 62
7
  6
CONTINUOUS
 10
-43.0485509714
 20
-6.6949518951
 11
-43.1123807511
 21
-6.584952
  0
LINE
  5
244
100
AcDbEntity
  8
0
100
AcDbLine
 62
7
  6
CONTINUOUS
 10
-14.8743711086
 20
-11.756321167
 11
-15.1509012537
 21
-11.7814494308
  0
LINE
  5
245
100
AcDbEntity
  8
0
100
AcDbLine
 62
7
  6
CONTINUOUS
 10
-32.7589010547
 20
-11.756321167
 11
-32.4823709096
 21
-11.7814494308
  0
LINE
  5
246
100
AcDbEntity
  8
0
100
AcDbLine
 62
7
  6
CONTINUOUS
 10
-44.165572249
 20
-7.2724518951
 11
-44.2294020286
 21
-7.244952
  0
LINE
  5
247
100
AcDbEntity
  8
0
100
AcDbLine
 62
7
  6
CONTINUOUS
 10
-43.4315297386
 20
-7.244952
 11
-43.5591892979
 21
-7.1899518951
  0
LINE
  5
248
100
AcDbEntity
  8
0
100
AcDbLine
 62
7
  6
CONTINUOUS
 10
-43.3676998696
 20
-6.584952
 11
-43.2719552001
 21
-6.6399521049
  0
LINE
  5
249
100
AcDbEntity
  8
0
100
AcDbLine
 62
7
  6
CONTINUOUS
 10
-44.165572249
 20
-6.0349518951
 11
-44.2613169408
 21
-5.9799521049
  0
LINE
  5
24A
100
AcDbEntity
  8
0
100
AcDbLine
 62
7
  6
CONTINUOUS
 10
-44.0698275796
 20
-4.8249519475
 11
-44.2613169408
 21
-4.7149520525
  0
LINE
  5
24B
100
AcDbEntity
  8
0
100
AcDbLine
 62
7
  6
CONTINUOUS
 10
-43.1442956409
 20
-4.192452
 11
-43.2400403103
 21
-4.109952
  0
LINE
  5
24C
100
AcDbEntity
  8
0
100
AcDbLine
 62
7
  6
CONTINUOUS
 10
-43.5591892979
 20
-3.5599519738
 11
-44.3570616102
 21
-2.789952
  0
LINE
  5
24D
100
AcDbEntity
  8
0
100
AcDbLine
 62
7
  6
CONTINUOUS
 10
-44.3570616102
 20
-3.0099520066
 11
-43.6549339673
 21
-3.697452
  0
LINE
  5
24E
100
AcDbEntity
  8
0
100
AcDbLine
 62
7
  6
CONTINUOUS
 10
-43.2719552001
 20
-4.274952
 11
-43.2081254205
 21
-4.357452
  0
LINE
  5
24F
100
AcDbEntity
  8
0
100
AcDbLine
 62
7
  6
CONTINUOUS
 10
-43.2719552001
 20
-3.0099520066
 11
-43.2081254205
 21
-3.0924520066
  0
LINE
  5
250
100
AcDbEntity
  8
0
100
AcDbLine
 62
7
  6
CONTINUOUS
 10
-43.0485509714
 20
-4.3299519475
 11
-43.1442956409
 21
-4.192452
  0
LINE
  5
251
100
AcDbEntity
  8
0
100
AcDbLine
 62
7
  6
CONTINUOUS
 10
-43.0485509714
 20
-3.0649519934
 11
-43.1123807511
 21
-2.954952
  0
LINE
  5
252
100
AcDbEntity
  8
0
100
AcDbLine
 62
7
  6
CONTINUOUS
 10
-43.6230190775
 20
-7.1349521049
 11
-43.6868488571
 21
-6.9699521049
  0
LINE
  5
253
100
AcDbEntity
  8
0
100
AcDbLine
 62
7
  6
CONTINUOUS
 10
-44.5166360816
 20
-7.0249518951
 11
-44.484721189
 21
-7.1349521049
  0
LINE
  5
254
100
AcDbEntity
  8
0
100
AcDbLine
 62
7
  6
CONTINUOUS
 10
-44.3251467204
 20
-5.8974521049
 11
-44.3570616102
 21
-5.7874518951
  0
LINE
  5
255
100
AcDbEntity
  8
0
100
AcDbLine
 62
7
  6
CONTINUOUS
 10
-43.7506786367
 20
-5.512452
 11
-43.7187637469
 21
-5.6224518951
  0
LINE
  5
256
100
AcDbEntity
  8
0
100
AcDbLine
 62
7
  6
CONTINUOUS
 10
-44.3251467204
 20
-7.1349521049
 11
-44.3570616102
 21
-6.997452
  0
LINE
  5
257
100
AcDbEntity
  8
0
100
AcDbLine
 62
7
  6
CONTINUOUS
 10
-44.5166360816
 20
-5.7874518951
 11
-44.484721189
 21
-5.924952
  0
LINE
  5
258
100
AcDbEntity
  8
0
100
AcDbLine
 62
7
  6
CONTINUOUS
 10
-44.3251467204
 20
-4.6324520525
 11
-44.3570616102
 21
-4.4949519475
  0
LINE
  5
259
100
AcDbEntity
  8
0
100
AcDbLine
 62
7
  6
CONTINUOUS
 10
-43.2081254205
 20
-7.9324518951
 11
-43.1762105307
 21
-8.069952
  0
LINE
  5
25A
100
AcDbEntity
  8
0
100
AcDbLine
 62
7
  6
CONTINUOUS
 10
-43.5591892979
 20
-5.6224518951
 11
-43.5911041877
 21
-5.4849521049
  0
LINE
  5
25B
100
AcDbEntity
  8
0
100
AcDbLine
 62
7
  6
CONTINUOUS
 10
-44.5166360816
 20
-4.4949519475
 11
-44.484721189
 21
-4.6599519475
  0
LINE
  5
25C
100
AcDbEntity
  8
0
100
AcDbLine
 62
7
  6
CONTINUOUS
 10
-46.1797833687
 20
-11.2848731622
 11
-46.2166360816
 21
-2.689952
  0
LINE
  5
25D
100
AcDbEntity
  8
RACCORDO
100
AcDbLine
 62
7
  6
CONTINUOUS
 10
-44.9666360816
 20
-2.689952
 11
-44.950908558
 21
-10.0282461346
  0
LINE
  5
25E
100
AcDbEntity
  8
0
100
AcDbLine
 62
7
  6
CONTINUOUS
 10
-46.2166360816
 20
10.0601146212
 11
-46.2166360816
 21
-2.689952
  0
LINE
  5
25F
100
AcDbEntity
  8
0
100
AcDbLine
 62
7
  6
CONTINUOUS
 10
-46.2166360816
 20
10.7599813788
 11
-46.2166360816
 21
23.510048
  0
LINE
  5
260
100
AcDbEntity
  8
RACCORDO
100
AcDbLine
 62
7
  6
CONTINUOUS
 10
-44.9666360816
 20
10.1100099234
 11
-44.9666360816
 21
-2.689952
  0
LINE
  5
261
100
AcDbEntity
  8
DRAFT
100
AcDbLine
 62
7
  6
CONTINUOUS
 10
-44.9666360816
 20
10.510048
 11
-44.9666360816
 21
23.510048
  0
LINE
  5
262
100
AcDbEntity
  8
DRAFT
100
AcDbLine
 62
7
  6
CONTINUOUS
 10
-44.9524239561
 20
1.210048
 11
-44.9524239561
 21
-2.589952
  0
LINE
  5
263
100
AcDbEntity
  8
DRAFT
100
AcDbLine
 62
7
  6
CONTINUOUS
 10
-44.9524239561
 20
19.610048
 11
-44.9524239561
 21
23.410048
  0
LINE
  5
264
100
AcDbEntity
  8
RACCORDO
100
AcDbLine
 62
7
  6
CONTINUOUS
 10
-44.9142708868
 20
9.0576828052
 11
-44.9142708868
 21
10.08382932
  0
LINE
  5
265
100
AcDbEntity
  8
RACCORDO
100
AcDbLine
 62
7
  6
CONTINUOUS
 10
-44.9142708868
 20
10.5362286034
 11
-44.9142708868
 21
11.91050659
  0
LINE
  5
266
100
AcDbEntity
  8
RACCORDO
100
AcDbLine
 62
253
  6
CONTINUOUS
 10
-44.9054824278
 20
30.5288000717
 11
-44.9054824278
 21
23.410048
  0
LINE
  5
267
100
AcDbEntity
  8
RACCORDO
100
AcDbLine
 62
253
  6
CONTINUOUS
 10
-44.9054824278
 20
19.610048
 11
-44.9054824278
 21
11.9545562993
  0
LINE
  5
268
100
AcDbEntity
  8
RACCORDO
100
AcDbLine
 62
253
  6
CONTINUOUS
 10
-44.9054824278
 20
-2.589952
 11
-44.9054824278
 21
-9.7087040717
  0
LINE
  5
269
100
AcDbEntity
  8
RACCORDO
100
AcDbLine
 62
253
  6
CONTINUOUS
 10
-44.9054824278
 20
1.210048
 11
-44.9054824278
 21
9.0532889104
  0
LINE
  5
26A
100
AcDbEntity
  8
RACCORDO
100
AcDbLine
 62
253
  6
CONTINUOUS
 10
-44.7055128888
 20
30.7273093021
 11
-44.7055128888
 21
23.410048
  0
LINE
  5
26B
100
AcDbEntity
  8
RACCORDO
100
AcDbLine
 62
253
  6
CONTINUOUS
 10
-44.7055128888
 20
19.610048
 11
-44.7055128888
 21
11.7713155444
  0
LINE
  5
26C
100
AcDbEntity
  8
RACCORDO
100
AcDbLine
 62
253
  6
CONTINUOUS
 10
-44.7055128888
 20
1.210048
 11
-44.7055128888
 21
9.0515739978
  0
LINE
  5
26D
100
AcDbEntity
  8
RACCORDO
100
AcDbLine
 62
253
  6
CONTINUOUS
 10
-44.7055128888
 20
-2.589952
 11
-44.7055128888
 21
-9.9072133021
  0
LINE
  5
26E
100
AcDbEntity
  8
RACCORDO
100
AcDbLine
 62
7
  6
CONTINUOUS
 10
-44.9666360816
 20
23.510048
 11
-44.950908558
 21
30.8483421346
  0
LINE
  5
26F
100
AcDbEntity
  8
0
100
AcDbLine
 62
7
  6
CONTINUOUS
 10
-46.1797833687
 20
32.1049691622
 11
-46.2166360816
 21
23.510048
  0
LINE
  5
270
100
AcDbEntity
  8
RACCORDO
100
AcDbLine
 62
253
  6
CONTINUOUS
 10
-44.9054824278
 20
11.9545562993
 11
-44.9142708868
 21
11.91050659
  0
LINE
  5
271
100
AcDbEntity
  8
RACCORDO
100
AcDbLine
 62
253
  6
CONTINUOUS
 10
-44.7023261376
 20
11.7712900645
 11
-44.7145446831
 21
11.710048
  0
LINE
  5
272
100
AcDbEntity
  8
0
100
AcDbLine
 62
7
  6
CONTINUOUS
 10
-14.8743711086
 20
-10.167962093
 11
-15.1509012537
 21
-10.226333153
  0
LINE
  5
273
100
AcDbEntity
  8
0
100
AcDbLine
 62
7
  6
CONTINUOUS
 10
-37.3743711086
 20
-11.756321167
 11
-37.6509012537
 21
-11.7814494308
  0
LINE
  5
274
100
AcDbEntity
  8
0
100
AcDbLine
 62
7
  6
CONTINUOUS
 10
-45.6782632169
 20
-11.7814494308
 11
-37.6509012537
 21
-11.7814494308
  0
LINE
  5
275
100
AcDbEntity
  8
0
100
AcDbLine
 62
7
  6
CONTINUOUS
 10
-32.4823709096
 20
-11.7814494308
 11
-15.1509012537
 21
-11.7814494308
  0
LINE
  5
276
100
AcDbEntity
  8
0
100
AcDbLine
 62
7
  6
CONTINUOUS
 10
-9.9823709096
 20
-11.7814494308
 11
-1.9550089464
 21
-11.7814494308
  0
LINE
  5
277
100
AcDbEntity
  8
0
100
AcDbLine
 62
7
  6
CONTINUOUS
 10
-32.9321061355
 20
-11.7510747914
 11
-37.2011660278
 21
-11.7510747914
  0
LINE
  5
278
100
AcDbEntity
  8
0
100
AcDbLine
 62
7
  6
CONTINUOUS
 10
-14.7011660278
 20
-11.7510747914
 11
-10.4321061355
 21
-11.7510747914
  0
LINE
  5
279
100
AcDbEntity
  8
0
100
AcDbLine
 62
7
  6
CONTINUOUS
 10
-10.2589010547
 20
-11.756321167
 11
-9.9823709096
 21
-11.7814494308
  0
LINE
  5
27A
100
AcDbEntity
  8
0
100
AcDbLine
 62
7
  6
CONTINUOUS
 10
-32.7589010547
 20
-10.167962093
 11
-32.4823709096
 21
-10.226333153
  0
LINE
  5
27B
100
AcDbEntity
  8
0
100
AcDbLine
 62
7
  6
CONTINUOUS
 10
-43.5591892979
 20
-8.5924522098
 11
-43.4315297386
 21
-8.6199517902
  0
LINE
  5
27C
100
AcDbEntity
  8
0
100
AcDbLine
 62
7
  6
CONTINUOUS
 10
-43.2400403103
 20
-7.6849518951
 11
-43.3676998696
 21
-7.657452
  0
LINE
  5
27D
100
AcDbEntity
  8
0
100
AcDbLine
 62
7
  6
CONTINUOUS
 10
-43.5591892979
 20
-7.3549518951
 11
-43.4315297386
 21
-7.3824521049
  0
LINE
  5
27E
100
AcDbEntity
  8
0
100
AcDbLine
 62
7
  6
CONTINUOUS
 10
-41.9832620816
 20
-6.650468
 11
-41.4266380816
 21
-6.806357
  0
LINE
  5
27F
100
AcDbEntity
  8
0
100
AcDbLine
 62
7
  6
CONTINUOUS
 10
-44.2613169408
 20
-7.3824521049
 11
-44.165572249
 21
-7.409952
  0
LINE
  5
280
100
AcDbEntity
  8
0
100
AcDbLine
 62
7
  6
CONTINUOUS
 10
-44.0698275796
 20
-6.0624521049
 11
-44.165572249
 21
-6.0349518951
  0
LINE
  5
281
100
AcDbEntity
  8
0
100
AcDbLine
 62
7
  6
CONTINUOUS
 10
-42.5143890816
 20
-6.500033
 11
-42.2149600816
 21
-6.586425
  0
LINE
  5
282
100
AcDbEntity
  8
0
100
AcDbLine
 62
7
  6
CONTINUOUS
 10
-41.0145100816
 20
-6.660804
 11
-42.5143890816
 21
-6.190347
  0
LINE
  5
283
100
AcDbEntity
  8
0
100
AcDbLine
 62
7
  6
CONTINUOUS
 10
-44.2613169408
 20
-6.1449521049
 11
-44.1017424694
 21
-6.1999518951
  0
LINE
  5
284
100
AcDbEntity
  8
0
100
AcDbLine
 62
7
  6
CONTINUOUS
 10
-41.0145100816
 20
-5.691163
 11
-41.8472470816
 21
-5.378079
  0
LINE
  5
285
100
AcDbEntity
  8
0
100
AcDbLine
 62
7
  6
CONTINUOUS
 10
-42.5143890816
 20
-5.398325
 11
-41.5390790816
 21
-5.770581
  0
LINE
  5
286
100
AcDbEntity
  8
0
100
AcDbLine
 62
7
  6
CONTINUOUS
 10
-44.2932318306
 20
-4.8799520525
 11
-44.165572249
 21
-4.934952
  0
LINE
  5
287
100
AcDbEntity
  8
0
100
AcDbLine
 62
7
  6
CONTINUOUS
 10
-43.2400403103
 20
-4.109952
 11
-43.3676998696
 21
-4.0549519738
  0
LINE
  5
288
100
AcDbEntity
  8
0
100
AcDbLine
 62
7
  6
CONTINUOUS
 10
-43.4634446284
 20
-4.1649519475
 11
-43.2719552001
 21
-4.274952
  0
LINE
  5
289
100
AcDbEntity
  8
0
100
AcDbLine
 62
7
  6
CONTINUOUS
 10
-43.6549339673
 20
-3.697452
 11
-43.5591892979
 21
-3.7524520262
  0
LINE
  5
28A
100
AcDbEntity
  8
0
100
AcDbLine
 62
7
  6
CONTINUOUS
 10
-43.3676998696
 20
-2.954952
 11
-43.2719552001
 21
-3.0099520066
  0
LINE
  5
28B
100
AcDbEntity
  8
0
100
AcDbLine
 62
7
  6
CONTINUOUS
 10
-43.1123807511
 20
-2.954952
 11
-43.2400403103
 21
-2.8449520016
  0
LINE
  5
28C
100
AcDbEntity
  8
0
100
AcDbLine
 62
7
  6
CONTINUOUS
 10
-43.2081254205
 20
-6.7224521049
 11
-43.1762105307
 21
-6.8599518951
  0
LINE
  5
28D
100
AcDbEntity
  8
0
100
AcDbLine
 62
7
  6
CONTINUOUS
 10
-43.2081254205
 20
-4.357452
 11
-43.1762105307
 21
-4.4949519475
  0
LINE
  5
28E
100
AcDbEntity
  8
0
100
AcDbLine
 62
7
  6
CONTINUOUS
 10
-43.2081254205
 20
-3.0924520066
 11
-43.1762105307
 21
-3.2299520131
  0
LINE
  5
28F
100
AcDbEntity
  8
0
100
AcDbLine
 62
7
  6
CONTINUOUS
 10
-43.0166360816
 20
-4.4949519475
 11
-43.0485509714
 21
-4.3299519475
  0
LINE
  5
290
100
AcDbEntity
  8
0
100
AcDbLine
 62
7
  6
CONTINUOUS
 10
-43.0166360816
 20
-8.0974522098
 11
-43.0485509714
 21
-7.904952
  0
LINE
  5
291
100
AcDbEntity
  8
0
100
AcDbLine
 62
7
  6
CONTINUOUS
 10
-43.0166360816
 20
-6.8874521049
 11
-43.0485509714
 21
-6.6949518951
  0
LINE
  5
292
100
AcDbEntity
  8
0
100
AcDbLine
 62
7
  6
CONTINUOUS
 10
-43.0166360816
 20
-3.2574519869
 11
-43.0485509714
 21
-3.0649519934
  0
LINE
  5
293
100
AcDbEntity
  8
0
100
AcDbLine
 62
7
  6
CONTINUOUS
 10
-44.5546190816
 20
7.029765
 11
-44.5546190816
 21
6.894608
  0
LINE
  5
294
100
AcDbEntity
  8
0
100
AcDbLine
 62
7
  6
CONTINUOUS
 10
-44.5546190816
 20
6.411164
 11
-44.5546190816
 21
6.276087
  0
LINE
  5
295
100
AcDbEntity
  8
0
100
AcDbLine
 62
7
  6
CONTINUOUS
 10
-44.5546190816
 20
5.898601
 11
-44.5546190816
 21
5.759319
  0
LINE
  5
296
100
AcDbEntity
  8
0
100
AcDbLine
 62
7
  6
CONTINUOUS
 10
-44.5546190816
 20
5.15471
 11
-44.5546190816
 21
5.007097
  0
LINE
  5
297
100
AcDbEntity
  8
0
100
AcDbLine
 62
7
  6
CONTINUOUS
 10
-44.5546190816
 20
4.883101
 11
-44.5546190816
 21
4.240962
  0
LINE
  5
298
100
AcDbEntity
  8
0
100
AcDbLine
 62
7
  6
CONTINUOUS
 10
-44.5546190816
 20
4.026377
 11
-44.5546190816
 21
3.891301
  0
LINE
  5
299
100
AcDbEntity
  8
0
100
AcDbLine
 62
7
  6
CONTINUOUS
 10
-44.5166360816
 20
-2.789952
 11
-44.5166360816
 21
-3.779952
  0
LINE
  5
29A
100
AcDbEntity
  8
0
100
AcDbLine
 62
7
  6
CONTINUOUS
 10
-44.5166360816
 20
-5.6224518951
 11
-44.5166360816
 21
-5.7874518951
  0
LINE
  5
29B
100
AcDbEntity
  8
0
100
AcDbLine
 62
7
  6
CONTINUOUS
 10
-44.5166360816
 20
-6.8049521049
 11
-44.5166360816
 21
-7.0249518951
  0
LINE
  5
29C
100
AcDbEntity
  8
0
100
AcDbLine
 62
7
  6
CONTINUOUS
 10
-44.5166360816
 20
-7.6299521049
 11
-44.5166360816
 21
-8.6199517902
  0
LINE
  5
29D
100
AcDbEntity
  8
0
100
AcDbLine
 62
7
  6
CONTINUOUS
 10
-44.4349100816
 20
4.240962
 11
-44.4349100816
 21
4.748025
  0
LINE
  5
29E
100
AcDbEntity
  8
0
100
AcDbLine
 62
7
  6
CONTINUOUS
 10
-44.4166360816
 20
1.210048
 11
-44.4166360816
 21
-2.589952
  0
LINE
  5
29F
100
AcDbEntity
  8
0
100
AcDbLine
 62
7
  6
CONTINUOUS
 10
-44.4166360816
 20
19.610048
 11
-44.4166360816
 21
23.410048
  0
LINE
  5
2A0
100
AcDbEntity
  8
0
100
AcDbLine
 62
7
  6
CONTINUOUS
 10
-44.3570616102
 20
-8.6199517902
 11
-44.3570616102
 21
-7.8499518951
  0
LINE
  5
2A1
100
AcDbEntity
  8
0
100
AcDbLine
 62
7
  6
CONTINUOUS
 10
-44.3570616102
 20
-6.997452
 11
-44.3570616102
 21
-6.832452
  0
LINE
  5
2A2
100
AcDbEntity
  8
0
100
AcDbLine
 62
7
  6
CONTINUOUS
 10
-44.3570616102
 20
-5.7874518951
 11
-44.3570616102
 21
-5.6224518951
  0
LINE
  5
2A3
100
AcDbEntity
  8
0
100
AcDbLine
 62
7
  6
CONTINUOUS
 10
-44.3570616102
 20
-3.779952
 11
-44.3570616102
 21
-3.0099520066
  0
LINE
  5
2A4
100
AcDbEntity
  8
0
100
AcDbLine
 62
7
  6
CONTINUOUS
 10
-44.2634360816
 20
5.654816
 11
-44.2634360816
 21
5.253631
  0
LINE
  5
2A5
100
AcDbEntity
  8
0
100
AcDbLine
 62
7
  6
CONTINUOUS
 10
-44.165572249
 20
-6.5574521049
 11
-44.165572249
 21
-6.419952
  0
LINE
  5
2A6
100
AcDbEntity
  8
0
100
AcDbLine
 62
7
  6
CONTINUOUS
 10
-44.1437280816
 20
5.302404
 11
-44.1437280816
 21
5.61308
  0
LINE
  5
2A7
100
AcDbEntity
  8
0
100
AcDbLine
 62
7
  6
CONTINUOUS
 10
-44.1336573592
 20
-5.3749520525
 11
-44.1336573592
 21
-5.2099520525
  0
LINE
  5
2A8
100
AcDbEntity
  8
0
100
AcDbLine
 62
7
  6
CONTINUOUS
 10
-43.8464233062
 20
-5.2099520525
 11
-43.8464233062
 21
-5.4024519475
  0
LINE
  5
2A9
100
AcDbEntity
  8
0
100
AcDbLine
 62
7
  6
CONTINUOUS
 10
-43.8145084164
 20
-6.8599518951
 11
-43.8145084164
 21
-6.9699521049
  0
LINE
  5
2AA
100
AcDbEntity
  8
0
100
AcDbLine
 62
7
  6
CONTINUOUS
 10
-43.7187637469
 20
-5.6224518951
 11
-43.7187637469
 21
-5.7874518951
  0
LINE
  5
2AB
100
AcDbEntity
  8
0
100
AcDbLine
 62
7
  6
CONTINUOUS
 10
-43.6868488571
 20
-6.9699521049
 11
-43.6868488571
 21
-6.8599518951
  0
LINE
  5
2AC
100
AcDbEntity
  8
0
100
AcDbLine
 62
7
  6
CONTINUOUS
 10
-43.6737910816
 20
6.749664
 11
-43.6737910816
 21
6.411164
  0
LINE
  5
2AD
100
AcDbEntity
  8
0
100
AcDbLine
 62
7
  6
CONTINUOUS
 10
-43.6737910816
 20
6.276087
 11
-43.6737910816
 21
5.937587
  0
LINE
  5
2AE
100
AcDbEntity
  8
0
100
AcDbLine
 62
7
  6
CONTINUOUS
 10
-43.5591892979
 20
-5.7874518951
 11
-43.5591892979
 21
-5.6224518951
  0
LINE
  5
2AF
100
AcDbEntity
  8
0
100
AcDbLine
 62
7
  6
CONTINUOUS
 10
-43.5540830816
 20
3.513814
 11
-43.5540830816
 21
3.67259
  0
LINE
  5
2B0
100
AcDbEntity
  8
0
100
AcDbLine
 62
7
  6
CONTINUOUS
 10
-43.5540830816
 20
4.246543
 11
-43.5540830816
 21
4.403944
  0
LINE
  5
2B1
100
AcDbEntity
  8
0
100
AcDbLine
 62
7
  6
CONTINUOUS
 10
-43.5540830816
 20
4.748025
 11
-43.5540830816
 21
4.883101
  0
LINE
  5
2B2
100
AcDbEntity
  8
0
100
AcDbLine
 62
7
  6
CONTINUOUS
 10
-43.5540830816
 20
5.369296
 11
-43.5540830816
 21
5.52249
  0
LINE
  5
2B3
100
AcDbEntity
  8
0
100
AcDbLine
 62
7
  6
CONTINUOUS
 10
-43.5540830816
 20
5.937587
 11
-43.5540830816
 21
6.749664
  0
LINE
  5
2B4
100
AcDbEntity
  8
0
100
AcDbLine
 62
7
  6
CONTINUOUS
 10
-43.5540830816
 20
6.894608
 11
-43.5540830816
 21
7.029765
  0
LINE
  5
2B5
100
AcDbEntity
  8
0
100
AcDbLine
 62
7
  6
CONTINUOUS
 10
-43.3676998696
 20
-2.8174520008
 11
-43.3676998696
 21
-2.954952
  0
LINE
  5
2B6
100
AcDbEntity
  8
0
100
AcDbLine
 62
7
  6
CONTINUOUS
 10
-43.3676998696
 20
-6.4474518951
 11
-43.3676998696
 21
-6.584952
  0
LINE
  5
2B7
100
AcDbEntity
  8
0
100
AcDbLine
 62
7
  6
CONTINUOUS
 10
-43.3676998696
 20
-7.657452
 11
-43.3676998696
 21
-7.7949521049
  0
LINE
  5
2B8
100
AcDbEntity
  8
0
100
AcDbLine
 62
7
  6
CONTINUOUS
 10
-43.1762105307
 20
-3.2299520131
 11
-43.1762105307
 21
-3.3399519869
  0
LINE
  5
2B9
100
AcDbEntity
  8
0
100
AcDbLine
 62
7
  6
CONTINUOUS
 10
-43.1762105307
 20
-5.347452
 11
-43.1762105307
 21
-6.1449521049
  0
LINE
  5
2BA
100
AcDbEntity
  8
0
100
AcDbLine
 62
7
  6
CONTINUOUS
 10
-43.1762105307
 20
-6.8599518951
 11
-43.1762105307
 21
-6.9699521049
  0
LINE
  5
2BB
100
AcDbEntity
  8
0
100
AcDbLine
 62
7
  6
CONTINUOUS
 10
-43.1762105307
 20
-8.069952
 11
-43.1762105307
 21
-8.1799522098
  0
LINE
  5
2BC
100
AcDbEntity
  8
0
100
AcDbLine
 62
7
  6
CONTINUOUS
 10
-43.1165000816
 20
5.895123
 11
-43.1165000816
 21
5.759966
  0
LINE
  5
2BD
100
AcDbEntity
  8
0
100
AcDbLine
 62
7
  6
CONTINUOUS
 10
-43.1165000816
 20
5.528799
 11
-43.1165000816
 21
5.397767
  0
LINE
  5
2BE
100
AcDbEntity
  8
0
100
AcDbLine
 62
7
  6
CONTINUOUS
 10
-43.1165000816
 20
4.886579
 11
-43.1165000816
 21
4.73476
  0
LINE
  5
2BF
100
AcDbEntity
  8
0
100
AcDbLine
 62
7
  6
CONTINUOUS
 10
-43.0166360816
 20
-8.2074517902
 11
-43.0166360816
 21
-8.0974522098
  0
LINE
  5
2C0
100
AcDbEntity
  8
0
100
AcDbLine
 62
7
  6
CONTINUOUS
 10
-43.0166360816
 20
-6.9424518951
 11
-43.0166360816
 21
-6.8874521049
  0
LINE
  5
2C1
100
AcDbEntity
  8
0
100
AcDbLine
 62
7
  6
CONTINUOUS
 10
-43.0166360816
 20
-6.1449521049
 11
-43.0166360816
 21
-5.2099520525
  0
LINE
  5
2C2
100
AcDbEntity
  8
0
100
AcDbLine
 62
7
  6
CONTINUOUS
 10
-43.0166360816
 20
-3.367452
 11
-43.0166360816
 21
-3.2574519869
  0
LINE
  5
2C3
100
AcDbEntity
  8
0
100
AcDbLine
 62
7
  6
CONTINUOUS
 10
-42.5143890816
 20
-3.264209
 11
-42.5143890816
 21
-3.540114
  0
LINE
  5
2C4
100
AcDbEntity
  8
0
100
AcDbLine
 62
7
  6
CONTINUOUS
 10
-42.5143890816
 20
-4.138421
 11
-42.5143890816
 21
-4.451505
  0
LINE
  5
2C5
100
AcDbEntity
  8
0
100
AcDbLine
 62
7
  6
CONTINUOUS
 10
-42.5143890816
 20
-4.620047
 11
-42.5143890816
 21
-4.919566
  0
LINE
  5
2C6
100
AcDbEntity
  8
0
100
AcDbLine
 62
7
  6
CONTINUOUS
 10
-42.5143890816
 20
-5.354415
 11
-42.5143890816
 21
-5.398325
  0
LINE
  5
2C7
100
AcDbEntity
  8
0
100
AcDbLine
 62
7
  6
CONTINUOUS
 10
-42.5143890816
 20
-5.834905
 11
-42.5143890816
 21
-6.141184
  0
LINE
  5
2C8
100
AcDbEntity
  8
0
100
AcDbLine
 62
7
  6
CONTINUOUS
 10
-42.5143890816
 20
-6.190347
 11
-42.5143890816
 21
-6.500033
  0
LINE
  5
2C9
100
AcDbEntity
  8
0
100
AcDbLine
 62
7
  6
CONTINUOUS
 10
-42.5143890816
 20
-7.093898
 11
-42.5143890816
 21
-7.423876
  0
LINE
  5
2CA
100
AcDbEntity
  8
0
100
AcDbLine
 62
7
  6
CONTINUOUS
 10
-42.5143890598
 20
-7.5158115994
 11
-42.5143890598
 21
-7.8276354218
  0
LINE
  5
2CB
100
AcDbEntity
  8
0
100
AcDbLine
 62
7
  6
CONTINUOUS
 10
-42.5143890598
 20
-8.3070797328
 11
-42.5143890598
 21
-8.6082297416
  0
LINE
  5
2CC
100
AcDbEntity
  8
RACCORDO
100
AcDbLine
 62
7
  6
CONTINUOUS
 10
-44.7508789973
 20
-10.226333153
 11
-37.6509012537
 21
-10.226333153
  0
LINE
  5
2CD
100
AcDbEntity
  8
0
100
AcDbLine
 62
7
  6
CONTINUOUS
 10
-32.4823709096
 20
-10.226333153
 11
-15.1509012537
 21
-10.226333153
  0
LINE
  5
2CE
100
AcDbEntity
  8
RACCORDO
100
AcDbLine
 62
7
  6
CONTINUOUS
 10
-9.9823709096
 20
-10.226333153
 11
-2.8823931659
 21
-10.226333153
  0
LINE
  5
2CF
100
AcDbEntity
  8
0
100
AcDbLine
 62
7
  6
CONTINUOUS
 10
-32.9321061355
 20
-10.1557751586
 11
-37.2011660278
 21
-10.1557751586
  0
LINE
  5
2D0
100
AcDbEntity
  8
0
100
AcDbLine
 62
7
  6
CONTINUOUS
 10
-14.7011660278
 20
-10.1557751586
 11
-10.4321061355
 21
-10.1557751586
  0
LINE
  5
2D1
100
AcDbEntity
  8
0
100
AcDbLine
 62
7
  6
CONTINUOUS
 10
-7.4640294448
 20
-10.0207121417
 11
-7.6692427185
 21
-10.0207121417
  0
LINE
  5
2D2
100
AcDbEntity
  8
0
100
AcDbLine
 62
7
  6
CONTINUOUS
 10
-39.9640294448
 20
-10.0207121417
 11
-40.1692427185
 21
-10.0207121417
  0
LINE
  5
2D3
100
AcDbEntity
  8
RACCORDO
100
AcDbLine
 62
253
  6
CONTINUOUS
 10
-2.9277592745
 20
-9.9072133021
 11
-7.1585691931
 21
-9.9072133021
  0
LINE
  5
2D4
100
AcDbEntity
  8
RACCORDO
100
AcDbLine
 62
253
  6
CONTINUOUS
 10
-7.9747029702
 20
-9.9072133021
 11
-39.6585691931
 21
-9.9072133021
  0
LINE
  5
2D5
100
AcDbEntity
  8
RACCORDO
100
AcDbLine
 62
253
  6
CONTINUOUS
 10
-40.4747029702
 20
-9.9072133021
 11
-44.7055128888
 21
-9.9072133021
  0
LINE
  5
2D6
100
AcDbEntity
  8
RACCORDO
100
AcDbLine
 62
253
  6
CONTINUOUS
 10
-7.9762356362
 20
-9.7087040717
 11
-39.6570365271
 21
-9.7087040717
  0
LINE
  5
2D7
100
AcDbEntity
  8
RACCORDO
100
AcDbLine
 62
253
  6
CONTINUOUS
 10
-44.9054824278
 20
-9.7087040717
 11
-40.4762356362
 21
-9.7087040717
  0
LINE
  5
2D8
100
AcDbEntity
  8
RACCORDO
100
AcDbLine
 62
253
  6
CONTINUOUS
 10
-7.1570365271
 20
-9.7087040717
 11
-2.7277897355
 21
-9.7087040717
  0
LINE
  5
2D9
100
AcDbEntity
  8
0
100
AcDbLine
 62
253
  6
CONTINUOUS
 10
-40.4692312954
 20
-9.0873453632
 11
-39.6640408679
 21
-9.0873453632
  0
LINE
  5
2DA
100
AcDbEntity
  8
0
100
AcDbLine
 62
253
  6
CONTINUOUS
 10
-7.9692312954
 20
-9.0873453632
 11
-7.1640408679
 21
-9.0873453632
  0
LINE
  5
2DB
100
AcDbEntity
  8
0
100
AcDbLine
 62
253
  6
CONTINUOUS
 10
-7.4640294448
 20
-8.7873567863
 11
-7.6692427185
 21
-8.7873567863
  0
LINE
  5
2DC
100
AcDbEntity
  8
0
100
AcDbLine
 62
253
  6
CONTINUOUS
 10
-39.9640294448
 20
-8.7873567863
 11
-40.1692427185
 21
-8.7873567863
  0
LINE
  5
2DD
100
AcDbEntity
  8
0
100
AcDbLine
 62
7
  6
CONTINUOUS
 10
-7.457025104
 20
-8.7803524454
 11
-7.6762470593
 21
-8.7803524454
  0
LINE
  5
2DE
100
AcDbEntity
  8
0
100
AcDbLine
 62
7
  6
CONTINUOUS
 10
-39.957025104
 20
-8.7803524454
 11
-40.1762470593
 21
-8.7803524454
  0
LINE
  5
2DF
100
AcDbEntity
  8
0
100
AcDbLine
 62
7
  6
CONTINUOUS
 10
-44.5166360816
 20
-8.6199517902
 11
-44.3570616102
 21
-8.6199517902
  0
LINE
  5
2E0
100
AcDbEntity
  8
0
100
AcDbLine
 62
7
  6
CONTINUOUS
 10
-43.4315297386
 20
-8.6199517902
 11
-43.3676998696
 21
-8.6199517902
  0
LINE
  5
2E1
100
AcDbEntity
  8
0
100
AcDbLine
 62
7
  6
CONTINUOUS
 10
-43.3676998696
 20
-8.4549517902
 11
-43.4315297386
 21
-8.4549517902
  0
LINE
  5
2E2
100
AcDbEntity
  8
0
100
AcDbLine
 62
7
  6
CONTINUOUS
 10
-41.8142588731
 20
-8.320734116
 11
-41.8053958961
 21
-8.320734116
  0
LINE
  5
2E3
100
AcDbEntity
  8
0
100
AcDbLine
 62
7
  6
CONTINUOUS
 10
-43.2400403103
 20
-6.4749521049
 11
-43.3676998696
 21
-6.4474518951
  0
LINE
  5
2E4
100
AcDbEntity
  8
0
100
AcDbLine
 62
7
  6
CONTINUOUS
 10
-44.165572249
 20
-4.934952
 11
-44.0698275796
 21
-4.9624520525
  0
LINE
  5
2E5
100
AcDbEntity
  8
0
100
AcDbLine
 62
7
  6
CONTINUOUS
 10
-43.3676998696
 20
-4.0549519738
 11
-43.4634446284
 21
-4.027452
  0
LINE
  5
2E6
100
AcDbEntity
  8
0
100
AcDbLine
 62
7
  6
CONTINUOUS
 10
-42.5143890816
 20
-3.540114
 11
-41.0145100816
 21
-4.022236
  0
LINE
  5
2E7
100
AcDbEntity
  8
0
100
AcDbLine
 62
7
  6
CONTINUOUS
 10
-43.4315297386
 20
-3.614952
 11
-43.5591892979
 21
-3.5599519738
  0
LINE
  5
2E8
100
AcDbEntity
  8
DRAFT
100
AcDbLine
 62
7
  6
CONTINUOUS
 10
-40.9166360816
 20
11.710048
 11
-40.9227448891
 21
11.7712900645
  0
LINE
  5
2E9
100
AcDbEntity
  8
0
100
AcDbLine
 62
7
  6
CONTINUOUS
 10
-40.4747029702
 20
-9.9072133021
 11
-40.4692312954
 21
-9.9841982185
  0
LINE
  5
2EA
100
AcDbEntity
  8
0
100
AcDbLine
 62
7
  6
CONTINUOUS
 10
-42.2149600816
 20
-6.586425
 11
-42.2149600816
 21
-7.012793
  0
LINE
  5
2EB
100
AcDbEntity
  8
0
100
AcDbLine
 62
7
  6
CONTINUOUS
 10
-42.1167720816
 20
4.73476
 11
-42.1167720816
 21
4.86563
  0
LINE
  5
2EC
100
AcDbEntity
  8
0
100
AcDbLine
 62
7
  6
CONTINUOUS
 10
-42.1167720816
 20
5.368568
 11
-42.1167720816
 21
5.528799
  0
LINE
  5
2ED
100
AcDbEntity
  8
0
100
AcDbLine
 62
7
  6
CONTINUOUS
 10
-42.1167720816
 20
5.759966
 11
-42.1167720816
 21
5.895123
  0
LINE
  5
2EE
100
AcDbEntity
  8
0
100
AcDbLine
 62
7
  6
CONTINUOUS
 10
-41.9832620816
 20
-6.950223
 11
-41.9832620816
 21
-6.650468
  0
LINE
  5
2EF
100
AcDbEntity
  8
0
100
AcDbLine
 62
7
  6
CONTINUOUS
 10
-41.9274192928
 20
-7.8276354218
 11
-41.9274192928
 21
-7.9955033539
  0
LINE
  5
2F0
100
AcDbEntity
  8
0
100
AcDbLine
 62
7
  6
CONTINUOUS
 10
-41.681775364
 20
-7.9961781998
 11
-41.681775364
 21
-7.8172540414
  0
LINE
  5
2F1
100
AcDbEntity
  8
0
100
AcDbLine
 62
7
  6
CONTINUOUS
 10
-41.6783800816
 20
7.235858
 11
-41.6783800816
 21
7.104907
  0
LINE
  5
2F2
100
AcDbEntity
  8
0
100
AcDbLine
 62
7
  6
CONTINUOUS
 10
-41.6783800816
 20
6.823511
 11
-41.6783800816
 21
6.689809
  0
LINE
  5
2F3
100
AcDbEntity
  8
0
100
AcDbLine
 62
7
  6
CONTINUOUS
 10
-41.6783800816
 20
6.408414
 11
-41.6783800816
 21
6.277462
  0
LINE
  5
2F4
100
AcDbEntity
  8
0
100
AcDbLine
 62
7
  6
CONTINUOUS
 10
-41.6783800816
 20
6.157673
 11
-41.6783800816
 21
6.01839
  0
LINE
  5
2F5
100
AcDbEntity
  8
0
100
AcDbLine
 62
7
  6
CONTINUOUS
 10
-41.6783800816
 20
5.413782
 11
-41.6783800816
 21
5.266168
  0
LINE
  5
2F6
100
AcDbEntity
  8
0
100
AcDbLine
 62
7
  6
CONTINUOUS
 10
-41.6783800816
 20
5.135217
 11
-41.6783800816
 21
4.729896017
  0
LINE
  5
2F7
100
AcDbEntity
  8
0
100
AcDbLine
 62
7
  6
CONTINUOUS
 10
-41.6783800816
 20
4.122548
 11
-41.6783800816
 21
3.384238
  0
LINE
  5
2F8
100
AcDbEntity
  8
0
100
AcDbLine
 62
7
  6
CONTINUOUS
 10
-41.5627160816
 20
4.7480197009
 11
-41.5627160816
 21
5.000141
  0
LINE
  5
2F9
100
AcDbEntity
  8
0
100
AcDbLine
 62
7
  6
CONTINUOUS
 10
-41.5586720816
 20
3.384238
 11
-41.5586720816
 21
3.987391
  0
LINE
  5
2FA
100
AcDbEntity
  8
0
100
AcDbLine
 62
7
  6
CONTINUOUS
 10
-41.3871980816
 20
5.913888
 11
-41.3871980816
 21
5.512703
  0
LINE
  5
2FB
100
AcDbEntity
  8
0
100
AcDbLine
 62
7
  6
CONTINUOUS
 10
-41.2674890816
 20
5.561476
 11
-41.2674890816
 21
5.872071
  0
LINE
  5
2FC
100
AcDbEntity
  8
0
100
AcDbLine
 62
7
  6
CONTINUOUS
 10
-41.2246210816
 20
3.987391
 11
-41.2246210816
 21
3.439967
  0
LINE
  5
2FD
100
AcDbEntity
  8
0
100
AcDbLine
 62
7
  6
CONTINUOUS
 10
-41.1049120816
 20
3.439967
 11
-41.1049120816
 21
3.987391
  0
LINE
  5
2FE
100
AcDbEntity
  8
0
100
AcDbLine
 62
7
  6
CONTINUOUS
 10
-41.0145100816
 20
-6.963676
 11
-41.0145100816
 21
-6.660804
  0
LINE
  5
2FF
100
AcDbEntity
  8
0
100
AcDbLine
 62
7
  6
CONTINUOUS
 10
-41.0145100816
 20
-6.000929
 11
-41.0145100816
 21
-5.691163
  0
LINE
  5
300
100
AcDbEntity
  8
0
100
AcDbLine
 62
7
  6
CONTINUOUS
 10
-41.0145100816
 20
-5.068303
 11
-41.0145100816
 21
-4.755478
  0
LINE
  5
301
100
AcDbEntity
  8
0
100
AcDbLine
 62
7
  6
CONTINUOUS
 10
-41.0145100816
 20
-4.022236
 11
-41.0145100816
 21
-3.709366
  0
LINE
  5
302
100
AcDbEntity
  8
0
100
AcDbLine
 62
7
  6
CONTINUOUS
 10
-41.0145100816
 20
-3.128824
 11
-41.0145100816
 21
-2.788718
  0
LINE
  5
303
100
AcDbEntity
  8
0
100
AcDbLine
 62
7
  6
CONTINUOUS
 10
-41.0144200816
 20
-4.451505
 11
-41.0144200816
 21
-4.138421
  0
LINE
  5
304
100
AcDbEntity
  8
0
100
AcDbLine
 62
7
  6
CONTINUOUS
 10
-40.9227448891
 20
9.0515739978
 11
-40.9227448891
 21
8.860048
  0
LINE
  5
305
100
AcDbEntity
  8
0
100
AcDbLine
 62
7
  6
CONTINUOUS
 10
-40.9227448891
 20
11.7712900645
 11
-40.9227448891
 21
11.960048
  0
LINE
  5
306
100
AcDbEntity
  8
0
100
AcDbLine
 62
7
  6
CONTINUOUS
 10
-40.9166360816
 20
11.960048
 11
-40.9166360816
 21
11.710048
  0
LINE
  5
307
100
AcDbEntity
  8
0
100
AcDbLine
 62
7
  6
CONTINUOUS
 10
-40.9166360816
 20
9.0576828052
 11
-40.9166360816
 21
8.860048
  0
LINE
  5
308
100
AcDbEntity
  8
0
100
AcDbLine
 62
7
  6
CONTINUOUS
 10
-40.7983620816
 20
3.987391
 11
-40.7983620816
 21
3.394025
  0
LINE
  5
309
100
AcDbEntity
  8
0
100
AcDbLine
 62
7
  6
CONTINUOUS
 10
-40.7943170816
 20
5.000141
 11
-40.7943170816
 21
4.7480321644
  0
LINE
  5
30A
100
AcDbEntity
  8
0
100
AcDbLine
 62
7
  6
CONTINUOUS
 10
-40.6786530816
 20
3.394025
 11
-40.6786530816
 21
4.122548
  0
LINE
  5
30B
100
AcDbEntity
  8
0
100
AcDbLine
 62
7
  6
CONTINUOUS
 10
-40.6786530816
 20
4.7299088943
 11
-40.6786530816
 21
5.135217
  0
LINE
  5
30C
100
AcDbEntity
  8
0
100
AcDbLine
 62
7
  6
CONTINUOUS
 10
-40.6786530816
 20
5.628367
 11
-40.6786530816
 21
5.781562
  0
LINE
  5
30D
100
AcDbEntity
  8
0
100
AcDbLine
 62
7
  6
CONTINUOUS
 10
-40.6786530816
 20
6.277462
 11
-40.6786530816
 21
6.469724
  0
LINE
  5
30E
100
AcDbEntity
  8
0
100
AcDbLine
 62
7
  6
CONTINUOUS
 10
-40.6786530816
 20
7.042221
 11
-40.6786530816
 21
7.235858
  0
LINE
  5
30F
100
AcDbEntity
  8
0
100
AcDbLine
 62
7
  6
CONTINUOUS
 10
-40.4762356362
 20
30.5288000717
 11
-40.4762356362
 21
29.9004370223
  0
LINE
  5
310
100
AcDbEntity
  8
0
100
AcDbLine
 62
7
  6
CONTINUOUS
 10
-40.4762356362
 20
-9.7087040717
 11
-40.4762356362
 21
-9.0803410223
  0
LINE
  5
311
100
AcDbEntity
  8
0
100
AcDbLine
 62
253
  6
CONTINUOUS
 10
-40.4692312954
 20
30.8042942185
 11
-40.4692312954
 21
29.9074413632
  0
LINE
  5
312
100
AcDbEntity
  8
0
100
AcDbLine
 62
253
  6
CONTINUOUS
 10
-40.4692312954
 20
-9.0873453632
 11
-40.4692312954
 21
-9.9841982185
  0
LINE
  5
313
100
AcDbEntity
  8
0
100
AcDbLine
 62
7
  6
CONTINUOUS
 10
-40.4166360816
 20
8.8930607019
 11
-40.4166360816
 21
10.0829870942
  0
LINE
  5
314
100
AcDbEntity
  8
0
100
AcDbLine
 62
7
  6
CONTINUOUS
 10
-40.4166360816
 20
10.7371089058
 11
-40.4166360816
 21
11.9270352981
  0
LINE
  5
315
100
AcDbEntity
  8
0
100
AcDbLine
 62
7
  6
CONTINUOUS
 10
-40.4747029702
 20
30.7273093021
 11
-40.4692312954
 21
30.8042942185
  0
LINE
  5
316
100
AcDbEntity
  8
RACCORDO
100
AcDbLine
 62
253
  6
CONTINUOUS
 10
-44.9054824278
 20
-9.7087040717
 11
-44.950908558
 21
-10.0282461346
  0
LINE
  5
317
100
AcDbEntity
  8
RACCORDO
100
AcDbLine
 62
253
  6
CONTINUOUS
 10
-44.7055128888
 20
-9.9072133021
 11
-44.7508789973
 21
-10.226333153
  0
LINE
  5
318
100
AcDbEntity
  8
0
100
AcDbLine
 62
7
  6
CONTINUOUS
 10
-44.484721189
 20
-4.3299519475
 11
-44.5166360816
 21
-4.4949519475
  0
LINE
  5
319
100
AcDbEntity
  8
0
100
AcDbLine
 62
7
  6
CONTINUOUS
 10
-44.3570616102
 20
-4.4949519475
 11
-44.3251467204
 21
-4.357452
  0
LINE
  5
31A
100
AcDbEntity
  8
0
100
AcDbLine
 62
7
  6
CONTINUOUS
 10
-44.484721189
 20
-5.4849521049
 11
-44.5166360816
 21
-5.6224518951
  0
LINE
  5
31B
100
AcDbEntity
  8
0
100
AcDbLine
 62
7
  6
CONTINUOUS
 10
-37.3743711086
 20
-10.167962093
 11
-37.6509012537
 21
-10.226333153
  0
LINE
  5
31C
100
AcDbEntity
  8
0
100
AcDbLine
 62
7
  6
CONTINUOUS
 10
-42.5143890598
 20
-7.8276354218
 11
-41.9274192928
 21
-7.8276354218
  0
LINE
  5
31D
100
AcDbEntity
  8
0
100
AcDbLine
 62
7
  6
CONTINUOUS
 10
-41.681775364
 20
-7.8172540414
 11
-41.2700293501
 21
-7.8172540414
  0
LINE
  5
31E
100
AcDbEntity
  8
0
100
AcDbLine
 62
7
  6
CONTINUOUS
 10
-44.3570616102
 20
-7.6299521049
 11
-44.5166360816
 21
-7.6299521049
  0
LINE
  5
31F
100
AcDbEntity
  8
0
100
AcDbLine
 62
7
  6
CONTINUOUS
 10
-41.0320336755
 20
-7.5158115994
 11
-42.5143890598
 21
-7.5158115994
  0
LINE
  5
320
100
AcDbEntity
  8
0
100
AcDbLine
 62
7
  6
CONTINUOUS
 10
-44.165572249
 20
-7.409952
 11
-44.0379126897
 21
-7.409952
  0
LINE
  5
321
100
AcDbEntity
  8
0
100
AcDbLine
 62
7
  6
CONTINUOUS
 10
-43.4315297386
 20
-7.3824521049
 11
-43.3676998696
 21
-7.3824521049
  0
LINE
  5
322
100
AcDbEntity
  8
0
100
AcDbLine
 62
7
  6
CONTINUOUS
 10
-44.0379126897
 20
-7.2724518951
 11
-44.165572249
 21
-7.2724518951
  0
LINE
  5
323
100
AcDbEntity
  8
0
100
AcDbLine
 62
7
  6
CONTINUOUS
 10
-43.3676998696
 20
-7.244952
 11
-43.4315297386
 21
-7.244952
  0
LINE
  5
324
100
AcDbEntity
  8
0
100
AcDbLine
 62
7
  6
CONTINUOUS
 10
-43.6868488571
 20
-6.8599518951
 11
-43.8145084164
 21
-6.8599518951
  0
LINE
  5
325
100
AcDbEntity
  8
0
100
AcDbLine
 62
7
  6
CONTINUOUS
 10
-37.8769434608
 20
-6.789952
 11
-9.7563287024
 21
-6.789952
  0
LINE
  5
326
100
AcDbEntity
  8
0
100
AcDbLine
 62
7
  6
CONTINUOUS
 10
-44.1017424694
 20
-6.1999518951
 11
-43.9740829101
 21
-6.1999518951
  0
LINE
  5
327
100
AcDbEntity
  8
0
100
AcDbLine
 62
7
  6
CONTINUOUS
 10
-43.1762105307
 20
-6.1449521049
 11
-43.0166360816
 21
-6.1449521049
  0
LINE
  5
328
100
AcDbEntity
  8
0
100
AcDbLine
 62
7
  6
CONTINUOUS
 10
-42.5143890816
 20
-4.919566
 11
-41.5349960816
 21
-4.98713
  0
LINE
  5
329
100
AcDbEntity
  8
0
100
AcDbLine
 62
7
  6
CONTINUOUS
 10
-41.0145100816
 20
-4.755478
 11
-42.5143890816
 21
-4.620047
  0
LINE
  5
32A
100
AcDbEntity
  8
0
100
AcDbLine
 62
7
  6
CONTINUOUS
 10
-43.878338196
 20
-4.852452
 11
-44.0698275796
 21
-4.8249519475
  0
LINE
  5
32B
100
AcDbEntity
  8
0
100
AcDbLine
 62
7
  6
CONTINUOUS
 10
-43.6549339673
 20
-4.1374520525
 11
-43.4634446284
 21
-4.1649519475
  0
LINE
  5
32C
100
AcDbEntity
  8
0
100
AcDbLine
 62
7
  6
CONTINUOUS
 10
-44.0698275796
 20
-4.9624520525
 11
-43.9102530858
 21
-4.9899519475
  0
LINE
  5
32D
100
AcDbEntity
  8
0
100
AcDbLine
 62
7
  6
CONTINUOUS
 10
-43.4634446284
 20
-4.027452
 11
-43.6230190775
 21
-3.9999520262
  0
LINE
  5
32E
100
AcDbEntity
  8
0
100
AcDbLine
 62
7
  6
CONTINUOUS
 10
-10.2589010547
 20
-10.167962093
 11
-9.9823709096
 21
-10.226333153
  0
LINE
  5
32F
100
AcDbEntity
  8
0
100
AcDbLine
 62
7
  6
CONTINUOUS
 10
-43.5591892979
 20
-3.7524520262
 11
-43.4315297386
 21
-3.779952
  0
LINE
  5
330
100
AcDbEntity
  8
0
100
AcDbLine
 62
7
  6
CONTINUOUS
 10
-43.2400403103
 20
-2.8449520016
 11
-43.3676998696
 21
-2.8174520008
  0
LINE
  5
331
100
AcDbEntity
  8
0
100
AcDbLine
 62
7
  6
CONTINUOUS
 10
-41.0145100816
 20
-3.709366
 11
-42.0469230816
 21
-3.414728
  0
LINE
  5
332
100
AcDbEntity
  8
RACCORDO
100
AcDbLine
 62
253
  6
CONTINUOUS
 10
-44.950908558
 20
30.8483421346
 11
-44.9054824278
 21
30.5288000717
  0
LINE
  5
333
100
AcDbEntity
  8
RACCORDO
100
AcDbLine
 62
253
  6
CONTINUOUS
 10
-44.7508789973
 20
31.046429153
 11
-44.7055128888
 21
30.7273093021
  0
LINE
  5
334
100
AcDbEntity
  8
0
100
AcDbLine
 62
253
  6
CONTINUOUS
 10
-38.3192312954
 20
14.5666294149
 11
-38.3227448891
 21
15.046450816
  0
LINE
  5
335
100
AcDbEntity
  8
0
100
AcDbLine
 62
253
  6
CONTINUOUS
 10
-40.1692427185
 20
-8.7873567863
 11
-40.1692427185
 21
-10.0207121417
  0
LINE
  5
336
100
AcDbEntity
  8
0
100
AcDbLine
 62
253
  6
CONTINUOUS
 10
-40.1692427185
 20
29.6074527863
 11
-40.1692427185
 21
30.8408081417
  0
LINE
  5
337
100
AcDbEntity
  8
0
100
AcDbLine
 62
253
  6
CONTINUOUS
 10
-39.9640294448
 20
-8.7873567863
 11
-39.9640294448
 21
-10.0207121417
  0
LINE
  5
338
100
AcDbEntity
  8
0
100
AcDbLine
 62
253
  6
CONTINUOUS
 10
-39.9640294448
 20
29.6074527863
 11
-39.9640294448
 21
30.8408081417
  0
LINE
  5
339
100
AcDbEntity
  8
0
100
AcDbLine
 62
7
  6
CONTINUOUS
 10
-39.7528500619
 20
9.6238149813
 11
-39.7528500619
 21
10.0729537173
  0
LINE
  5
33A
100
AcDbEntity
  8
0
100
AcDbLine
 62
7
  6
CONTINUOUS
 10
-39.7528500619
 20
10.7471422827
 11
-39.7528500619
 21
11.1962810187
  0
LINE
  5
33B
100
AcDbEntity
  8
0
100
AcDbLine
 62
253
  6
CONTINUOUS
 10
-39.6640408679
 20
-9.9841982185
 11
-39.6640408679
 21
-9.0873453632
  0
LINE
  5
33C
100
AcDbEntity
  8
0
100
AcDbLine
 62
253
  6
CONTINUOUS
 10
-39.6640408679
 20
29.9074413632
 11
-39.6640408679
 21
30.8042942185
  0
LINE
  5
33D
100
AcDbEntity
  8
0
100
AcDbLine
 62
7
  6
CONTINUOUS
 10
-39.6570365271
 20
30.5288000717
 11
-39.6570365271
 21
29.9004370223
  0
LINE
  5
33E
100
AcDbEntity
  8
0
100
AcDbLine
 62
7
  6
CONTINUOUS
 10
-39.6570365271
 20
-9.7087040717
 11
-39.6570365271
 21
-9.0803410223
  0
LINE
  5
33F
100
AcDbEntity
  8
0
100
AcDbLine
 62
7
  6
CONTINUOUS
 10
-39.1727448891
 20
13.1161682305
 11
-39.1727448891
 21
12.860048
  0
LINE
  5
340
100
AcDbEntity
  8
0
100
AcDbLine
 62
7
  6
CONTINUOUS
 10
-39.1727448891
 20
7.960048
 11
-39.1727448891
 21
7.7039277695
  0
LINE
  5
341
100
AcDbEntity
  8
0
100
AcDbLine
 62
7
  6
CONTINUOUS
 10
-39.1666360816
 20
13.1100594231
 11
-39.1666360816
 21
12.860048
  0
LINE
  5
342
100
AcDbEntity
  8
0
100
AcDbLine
 62
7
  6
CONTINUOUS
 10
-39.1666360816
 20
7.960048
 11
-39.1666360816
 21
7.7100365769
  0
LINE
  5
343
100
AcDbEntity
  8
0
100
AcDbLine
 62
7
  6
CONTINUOUS
 10
-38.8166360816
 20
26.6703553792
 11
-38.8166360816
 21
17.0497406208
  0
LINE
  5
344
100
AcDbEntity
  8
0
100
AcDbLine
 62
7
  6
CONTINUOUS
 10
-38.8166360816
 20
3.7703553792
 11
-38.8166360816
 21
-5.8502593792
  0
LINE
  5
345
100
AcDbEntity
  8
0
100
AcDbLine
 62
7
  6
CONTINUOUS
 10
-38.3227448891
 20
15.046450816
 11
-38.3227448891
 21
13.4161568075
  0
LINE
  5
346
100
AcDbEntity
  8
0
100
AcDbLine
 62
7
  6
CONTINUOUS
 10
-38.3227448891
 20
7.4039391925
 11
-38.3227448891
 21
5.773645184
  0
LINE
  5
347
100
AcDbEntity
  8
0
100
AcDbLine
 62
253
  6
CONTINUOUS
 10
-38.3192312954
 20
14.5666294149
 11
-38.3192312954
 21
13.4126432137
  0
LINE
  5
348
100
AcDbEntity
  8
0
100
AcDbLine
 62
253
  6
CONTINUOUS
 10
-38.3192312954
 20
7.4074527863
 11
-38.3192312954
 21
6.2534665851
  0
LINE
  5
349
100
AcDbEntity
  8
0
100
AcDbLine
 62
253
  6
CONTINUOUS
 10
-38.3227448891
 20
5.773645184
 11
-38.3192312954
 21
6.2534665851
  0
LINE
  5
34A
100
AcDbEntity
  8
0
100
AcDbLine
 62
7
  6
CONTINUOUS
 10
-43.0485509714
 20
-7.1349521049
 11
-43.0166360816
 21
-6.9424518951
  0
LINE
  5
34B
100
AcDbEntity
  8
0
100
AcDbLine
 62
7
  6
CONTINUOUS
 10
-43.8145084164
 20
-6.9699521049
 11
-43.8464233062
 21
-7.1349521049
  0
LINE
  5
34C
100
AcDbEntity
  8
0
100
AcDbLine
 62
7
  6
CONTINUOUS
 10
-43.0485509714
 20
-3.532452
 11
-43.0166360816
 21
-3.367452
  0
LINE
  5
34D
100
AcDbEntity
  8
0
100
AcDbLine
 62
7
  6
CONTINUOUS
 10
-43.0485509714
 20
-4.6599519475
 11
-43.0166360816
 21
-4.4949519475
  0
LINE
  5
34E
100
AcDbEntity
  8
0
100
AcDbLine
 62
7
  6
CONTINUOUS
 10
-43.0485509714
 20
-8.3724517902
 11
-43.0166360816
 21
-8.2074517902
  0
LINE
  5
34F
100
AcDbEntity
  8
0
100
AcDbLine
 62
7
  6
CONTINUOUS
 10
-44.3570616102
 20
-6.832452
 11
-44.3251467204
 21
-6.6949518951
  0
LINE
  5
350
100
AcDbEntity
  8
0
100
AcDbLine
 62
7
  6
CONTINUOUS
 10
-43.1762105307
 20
-3.3399519869
 11
-43.2081254205
 21
-3.4774519738
  0
LINE
  5
351
100
AcDbEntity
  8
0
100
AcDbLine
 62
7
  6
CONTINUOUS
 10
-43.5911041877
 20
-5.924952
 11
-43.5591892979
 21
-5.7874518951
  0
LINE
  5
352
100
AcDbEntity
  8
0
100
AcDbLine
 62
7
  6
CONTINUOUS
 10
-43.1762105307
 20
-4.4949519475
 11
-43.2081254205
 21
-4.6324520525
  0
LINE
  5
353
100
AcDbEntity
  8
0
100
AcDbLine
 62
7
  6
CONTINUOUS
 10
-43.1762105307
 20
-6.9699521049
 11
-43.2081254205
 21
-7.1074518951
  0
LINE
  5
354
100
AcDbEntity
  8
0
100
AcDbLine
 62
7
  6
CONTINUOUS
 10
-43.1762105307
 20
-8.1799522098
 11
-43.2081254205
 21
-8.317452
  0
LINE
  5
355
100
AcDbEntity
  8
0
100
AcDbLine
 62
7
  6
CONTINUOUS
 10
-44.3570616102
 20
-5.6224518951
 11
-44.3251467204
 21
-5.512452
  0
LINE
  5
356
100
AcDbEntity
  8
0
100
AcDbLine
 62
7
  6
CONTINUOUS
 10
-44.484721189
 20
-6.6949518951
 11
-44.5166360816
 21
-6.8049521049
  0
LINE
  5
357
100
AcDbEntity
  8
0
100
AcDbLine
 62
7
  6
CONTINUOUS
 10
-43.7187637469
 20
-5.7874518951
 11
-43.7506786367
 21
-5.8974521049
  0
LINE
  5
358
100
AcDbEntity
  8
0
100
AcDbLine
 62
7
  6
CONTINUOUS
 10
-43.3676998696
 20
-8.6199517902
 11
-43.2400403103
 21
-8.5924522098
  0
LINE
  5
359
100
AcDbEntity
  8
0
100
AcDbLine
 62
7
  6
CONTINUOUS
 10
-42.5143890816
 20
-6.141184
 11
-41.0145100816
 21
-6.000929
  0
LINE
  5
35A
100
AcDbEntity
  8
0
100
AcDbLine
 62
7
  6
CONTINUOUS
 10
-41.5390790816
 20
-5.770581
 11
-42.5143890816
 21
-5.834905
  0
LINE
  5
35B
100
AcDbEntity
  8
0
100
AcDbLine
 62
7
  6
CONTINUOUS
 10
-44.0059977999
 20
-6.0624521049
 11
-44.0698275796
 21
-6.0624521049
  0
LINE
  5
35C
100
AcDbEntity
  8
0
100
AcDbLine
 62
7
  6
CONTINUOUS
 10
-43.6868488571
 20
-5.347452
 11
-43.1762105307
 21
-5.347452
  0
LINE
  5
35D
100
AcDbEntity
  8
0
100
AcDbLine
 62
7
  6
CONTINUOUS
 10
-43.0166360816
 20
-5.2099520525
 11
-43.8464233062
 21
-5.2099520525
  0
LINE
  5
35E
100
AcDbEntity
  8
0
100
AcDbLine
 62
7
  6
CONTINUOUS
 10
-43.9102530858
 20
-4.9899519475
 11
-43.6230190775
 21
-4.9899519475
  0
LINE
  5
35F
100
AcDbEntity
  8
0
100
AcDbLine
 62
7
  6
CONTINUOUS
 10
-43.6549339673
 20
-4.852452
 11
-43.878338196
 21
-4.852452
  0
LINE
  5
360
100
AcDbEntity
  8
0
100
AcDbLine
 62
7
  6
CONTINUOUS
 10
-42.5143890816
 20
-4.451505
 11
-41.0144200816
 21
-4.451505
  0
LINE
  5
361
100
AcDbEntity
  8
0
100
AcDbLine
 62
7
  6
CONTINUOUS
 10
-41.0144200816
 20
-4.138421
 11
-42.5143890816
 21
-4.138421
  0
LINE
  5
362
100
AcDbEntity
  8
0
100
AcDbLine
 62
7
  6
CONTINUOUS
 10
-43.878338196
 20
-4.1374520525
 11
-43.6549339673
 21
-4.1374520525
  0
LINE
  5
363
100
AcDbEntity
  8
0
100
AcDbLine
 62
7
  6
CONTINUOUS
 10
-43.5540830816
 20
3.67259
 11
-44.0345340816
 21
3.959567
  0
LINE
  5
364
100
AcDbEntity
  8
0
100
AcDbLine
 62
7
  6
CONTINUOUS
 10
-44.1518160816
 20
3.891301
 11
-43.5540830816
 21
3.513814
  0
LINE
  5
365
100
AcDbEntity
  8
0
100
AcDbLine
 62
7
  6
CONTINUOUS
 10
-39.6585691931
 20
30.7273093021
 11
-39.6640408679
 21
30.8042942185
  0
LINE
  5
366
100
AcDbEntity
  8
0
100
AcDbLine
 62
253
  6
CONTINUOUS
 10
-38.0192427185
 20
14.7594656978
 11
-38.0247390161
 21
15.510048
  0
LINE
  5
367
100
AcDbEntity
  8
0
100
AcDbLine
 62
253
  6
CONTINUOUS
 10
-37.8140294448
 20
6.0606303022
 11
-37.8085331471
 21
5.310048
  0
LINE
  5
368
100
AcDbEntity
  8
0
100
AcDbLine
 62
253
  6
CONTINUOUS
 10
-37.5140408679
 20
6.2534665851
 11
-37.5105272742
 21
5.773645184
  0
LINE
  5
369
100
AcDbEntity
  8
0
100
AcDbLine
 62
253
  6
CONTINUOUS
 10
-38.0192427185
 20
6.0606303022
 11
-38.0192427185
 21
7.410048
  0
LINE
  5
36A
100
AcDbEntity
  8
0
100
AcDbLine
 62
253
  6
CONTINUOUS
 10
-38.0192427185
 20
13.410048
 11
-38.0192427185
 21
14.7594656978
  0
LINE
  5
36B
100
AcDbEntity
  8
0
100
AcDbLine
 62
253
  6
CONTINUOUS
 10
-37.8140294448
 20
6.0606303022
 11
-37.8140294448
 21
7.960048
  0
LINE
  5
36C
100
AcDbEntity
  8
0
100
AcDbLine
 62
253
  6
CONTINUOUS
 10
-37.8140294448
 20
12.860048
 11
-37.8140294448
 21
14.7594656978
  0
LINE
  5
36D
100
AcDbEntity
  8
0
100
AcDbLine
 62
7
  6
CONTINUOUS
 10
-37.6509012537
 20
32.6015454308
 11
-37.6509012537
 21
31.046429153
  0
LINE
  5
36E
100
AcDbEntity
  8
0
100
AcDbLine
 62
7
  6
CONTINUOUS
 10
-37.6509012537
 20
-11.7814494308
 11
-37.6509012537
 21
-10.226333153
  0
LINE
  5
36F
100
AcDbEntity
  8
0
100
AcDbLine
 62
253
  6
CONTINUOUS
 10
-37.5140408679
 20
6.2534665851
 11
-37.5140408679
 21
7.960048
  0
LINE
  5
370
100
AcDbEntity
  8
0
100
AcDbLine
 62
253
  6
CONTINUOUS
 10
-37.5140408679
 20
12.860048
 11
-37.5140408679
 21
14.5666294149
  0
LINE
  5
371
100
AcDbEntity
  8
0
100
AcDbLine
 62
7
  6
CONTINUOUS
 10
-37.5105272742
 20
5.773645184
 11
-37.5105272742
 21
7.960048
  0
LINE
  5
372
100
AcDbEntity
  8
0
100
AcDbLine
 62
7
  6
CONTINUOUS
 10
-37.5105272742
 20
12.860048
 11
-37.5105272742
 21
15.046450816
  0
LINE
  5
373
100
AcDbEntity
  8
0
100
AcDbLine
 62
253
  6
CONTINUOUS
 10
-37.3743711086
 20
-11.756321167
 11
-37.3743711086
 21
-10.167962093
  0
LINE
  5
374
100
AcDbEntity
  8
0
100
AcDbLine
 62
253
  6
CONTINUOUS
 10
-37.3743711086
 20
30.988058093
 11
-37.3743711086
 21
32.576417167
  0
LINE
  5
375
100
AcDbEntity
  8
0
100
AcDbLine
 62
253
  6
CONTINUOUS
 10
-37.2011660278
 20
-11.7510747914
 11
-37.2011660278
 21
-10.1557751586
  0
LINE
  5
376
100
AcDbEntity
  8
0
100
AcDbLine
 62
253
  6
CONTINUOUS
 10
-37.2011660278
 20
30.9758711586
 11
-37.2011660278
 21
32.5711707914
  0
LINE
  5
377
100
AcDbEntity
  8
0
100
AcDbLine
 62
253
  6
CONTINUOUS
 10
-38.0247390161
 20
5.310048
 11
-38.0192427185
 21
6.0606303022
  0
LINE
  5
378
100
AcDbEntity
  8
0
100
AcDbLine
 62
253
  6
CONTINUOUS
 10
-37.8085331471
 20
15.510048
 11
-37.8140294448
 21
14.7594656978
  0
LINE
  5
379
100
AcDbEntity
  8
0
100
AcDbLine
 62
253
  6
CONTINUOUS
 10
-37.5105272742
 20
15.046450816
 11
-37.5140408679
 21
14.5666294149
  0
LINE
  5
37A
100
AcDbEntity
  8
0
100
AcDbLine
 62
7
  6
CONTINUOUS
 10
-39.6585691931
 20
-9.9072133021
 11
-39.6640408679
 21
-9.9841982185
  0
LINE
  5
37B
100
AcDbEntity
  8
0
100
AcDbLine
 62
7
  6
CONTINUOUS
 10
-43.3676998696
 20
-7.3824521049
 11
-43.2400403103
 21
-7.3549518951
  0
LINE
  5
37C
100
AcDbEntity
  8
0
100
AcDbLine
 62
7
  6
CONTINUOUS
 10
-44.0379126897
 20
-7.409952
 11
-43.9102530858
 21
-7.3824521049
  0
LINE
  5
37D
100
AcDbEntity
  8
0
100
AcDbLine
 62
7
  6
CONTINUOUS
 10
-43.6230190775
 20
-3.9999520262
 11
-43.9102530858
 21
-3.9999520262
  0
LINE
  5
37E
100
AcDbEntity
  8
0
100
AcDbLine
 62
7
  6
CONTINUOUS
 10
-44.5166360816
 20
-3.779952
 11
-44.3570616102
 21
-3.779952
  0
LINE
  5
37F
100
AcDbEntity
  8
0
100
AcDbLine
 62
7
  6
CONTINUOUS
 10
-43.4315297386
 20
-3.779952
 11
-43.3676998696
 21
-3.779952
  0
LINE
  5
380
100
AcDbEntity
  8
0
100
AcDbLine
 62
7
  6
CONTINUOUS
 10
-43.3676998696
 20
-3.614952
 11
-43.4315297386
 21
-3.614952
  0
LINE
  5
381
100
AcDbEntity
  8
0
100
AcDbLine
 62
7
  6
CONTINUOUS
 10
-44.3570616102
 20
-2.789952
 11
-44.5166360816
 21
-2.789952
  0
LINE
  5
382
100
AcDbEntity
  8
DRAFT
100
AcDbLine
 62
7
  6
CONTINUOUS
 10
-46.2166360816
 20
-2.689952
 11
-44.9666360816
 21
-2.689952
  0
LINE
  5
383
100
AcDbEntity
  8
DRAFT
100
AcDbLine
 62
7
  6
CONTINUOUS
 10
-2.6666360816
 20
-2.689952
 11
-1.4166360816
 21
-2.689952
  0
LINE
  5
384
100
AcDbEntity
  8
DRAFT
100
AcDbLine
 62
7
  6
CONTINUOUS
 10
-2.6808482071
 20
-2.589952
 11
-3.2166360816
 21
-2.589952
  0
LINE
  5
385
100
AcDbEntity
  8
DRAFT
100
AcDbLine
 62
7
  6
CONTINUOUS
 10
-44.4166360816
 20
-2.589952
 11
-44.9524239561
 21
-2.589952
  0
LINE
  5
386
100
AcDbEntity
  8
0
100
AcDbLine
 62
7
  6
CONTINUOUS
 10
-43.8145084164
 20
-7.327452
 11
-43.7506786367
 21
-7.1899518951
  0
LINE
  5
387
100
AcDbEntity
  8
0
100
AcDbLine
 62
7
  6
CONTINUOUS
 10
-40.9166360816
 20
9.0576828052
 11
-40.9227448891
 21
9.0515739978
  0
LINE
  5
388
100
AcDbEntity
  8
0
100
AcDbLine
 62
253
  6
CONTINUOUS
 10
-39.7489264635
 20
9.56077032
 11
-40.4166360816
 21
8.8930607019
  0
LINE
  5
389
100
AcDbEntity
  8
0
100
AcDbLine
 62
7
  6
CONTINUOUS
 10
-5.1188830816
 20
28.243972
 11
-6.6187620816
 21
27.783772
  0
LINE
  5
38A
100
AcDbEntity
  8
0
100
AcDbLine
 62
7
  6
CONTINUOUS
 10
-3.4676999143
 20
27.240048
 11
-3.3719552225
 21
27.2675478951
  0
LINE
  5
38B
100
AcDbEntity
  8
0
100
AcDbLine
 62
7
  6
CONTINUOUS
 10
-3.7230190775
 20
26.8550478951
 11
-3.6272743633
 21
26.8825481049
  0
LINE
  5
38C
100
AcDbEntity
  8
0
100
AcDbLine
 62
7
  6
CONTINUOUS
 10
-42.2149600816
 20
-7.012793
 11
-42.5143890816
 21
-7.093898
  0
LINE
  5
38D
100
AcDbEntity
  8
0
100
AcDbLine
 62
7
  6
CONTINUOUS
 10
-41.4266380816
 20
-6.806357
 11
-41.9832620816
 21
-6.950223
  0
LINE
  5
38E
100
AcDbEntity
  8
0
100
AcDbLine
 62
7
  6
CONTINUOUS
 10
-43.6230190775
 20
-4.9899519475
 11
-43.4634446284
 21
-4.9624520525
  0
LINE
  5
38F
100
AcDbEntity
  8
0
100
AcDbLine
 62
7
  6
CONTINUOUS
 10
-43.9102530858
 20
-3.9999520262
 11
-44.0698275796
 21
-4.027452
  0
LINE
  5
390
100
AcDbEntity
  8
0
100
AcDbLine
 62
7
  6
CONTINUOUS
 10
-43.4634446284
 20
-4.8249519475
 11
-43.6549339673
 21
-4.852452
  0
LINE
  5
391
100
AcDbEntity
  8
0
100
AcDbLine
 62
7
  6
CONTINUOUS
 10
-44.0698275796
 20
-4.1649519475
 11
-43.878338196
 21
-4.1374520525
  0
LINE
  5
392
100
AcDbEntity
  8
0
100
AcDbLine
 62
7
  6
CONTINUOUS
 10
-44.5546190816
 20
5.759319
 11
-44.2634360816
 21
5.654816
  0
LINE
  5
393
100
AcDbEntity
  8
0
100
AcDbLine
 62
7
  6
CONTINUOUS
 10
-41.2674890816
 20
5.872071
 11
-40.8235490816
 21
5.71049
  0
LINE
  5
394
100
AcDbEntity
  8
0
100
AcDbLine
 62
7
  6
CONTINUOUS
 10
-44.1437280816
 20
5.61308
 11
-43.6997890816
 21
5.451418
  0
LINE
  5
395
100
AcDbEntity
  8
0
100
AcDbLine
 62
7
  6
CONTINUOUS
 10
-43.5540830816
 20
5.52249
 11
-44.5546190816
 21
5.898601
  0
LINE
  5
396
100
AcDbEntity
  8
0
100
AcDbLine
 62
7
  6
CONTINUOUS
 10
-40.6786530816
 20
5.781562
 11
-41.6783800816
 21
6.157673
  0
LINE
  5
397
100
AcDbEntity
  8
RACCORDO
100
AcDbLine
 62
7
  6
CONTINUOUS
 10
-44.9142708868
 20
9.0576828052
 11
-44.9054824278
 21
9.0532889104
  0
LINE
  5
398
100
AcDbEntity
  8
0
100
AcDbLine
 62
253
  6
CONTINUOUS
 10
-40.4166360816
 20
11.9270352981
 11
-39.7489264635
 21
11.25932568
  0
LINE
  5
399
100
AcDbEntity
  8
0
100
AcDbLine
 62
253
  6
CONTINUOUS
 10
-32.6192312954
 20
14.5666294149
 11
-32.6227448891
 21
15.046450816
  0
LINE
  5
39A
100
AcDbEntity
  8
0
100
AcDbLine
 62
253
  6
CONTINUOUS
 10
-32.3192427185
 20
14.7594656978
 11
-32.3247390161
 21
15.510048
  0
LINE
  5
39B
100
AcDbEntity
  8
0
100
AcDbLine
 62
253
  6
CONTINUOUS
 10
-32.1140294448
 20
6.0606303022
 11
-32.1085331471
 21
5.310048
  0
LINE
  5
39C
100
AcDbEntity
  8
0
100
AcDbLine
 62
253
  6
CONTINUOUS
 10
-32.9321061355
 20
32.5711707914
 11
-32.9321061355
 21
30.9758711586
  0
LINE
  5
39D
100
AcDbEntity
  8
0
100
AcDbLine
 62
253
  6
CONTINUOUS
 10
-32.9321061355
 20
-10.1557751586
 11
-32.9321061355
 21
-11.7510747914
  0
LINE
  5
39E
100
AcDbEntity
  8
0
100
AcDbLine
 62
253
  6
CONTINUOUS
 10
-32.7589010547
 20
32.576417167
 11
-32.7589010547
 21
30.988058093
  0
LINE
  5
39F
100
AcDbEntity
  8
0
100
AcDbLine
 62
253
  6
CONTINUOUS
 10
-32.7589010547
 20
-10.167962093
 11
-32.7589010547
 21
-11.756321167
  0
LINE
  5
3A0
100
AcDbEntity
  8
0
100
AcDbLine
 62
7
  6
CONTINUOUS
 10
-32.6227448891
 20
15.046450816
 11
-32.6227448891
 21
12.860048
  0
LINE
  5
3A1
100
AcDbEntity
  8
0
100
AcDbLine
 62
7
  6
CONTINUOUS
 10
-32.6227448891
 20
7.960048
 11
-32.6227448891
 21
5.773645184
  0
LINE
  5
3A2
100
AcDbEntity
  8
0
100
AcDbLine
 62
253
  6
CONTINUOUS
 10
-32.6192312954
 20
14.5666294149
 11
-32.6192312954
 21
12.860048
  0
LINE
  5
3A3
100
AcDbEntity
  8
0
100
AcDbLine
 62
253
  6
CONTINUOUS
 10
-32.6192312954
 20
7.960048
 11
-32.6192312954
 21
6.2534665851
  0
LINE
  5
3A4
100
AcDbEntity
  8
0
100
AcDbLine
 62
7
  6
CONTINUOUS
 10
-32.4823709096
 20
32.6015454308
 11
-32.4823709096
 21
31.046429153
  0
LINE
  5
3A5
100
AcDbEntity
  8
0
100
AcDbLine
 62
7
  6
CONTINUOUS
 10
-32.4823709096
 20
-11.7814494308
 11
-32.4823709096
 21
-10.226333153
  0
LINE
  5
3A6
100
AcDbEntity
  8
0
100
AcDbLine
 62
253
  6
CONTINUOUS
 10
-32.3192427185
 20
6.0606303022
 11
-32.3192427185
 21
7.960048
  0
LINE
  5
3A7
100
AcDbEntity
  8
0
100
AcDbLine
 62
253
  6
CONTINUOUS
 10
-32.3192427185
 20
12.860048
 11
-32.3192427185
 21
14.7594656978
  0
LINE
  5
3A8
100
AcDbEntity
  8
0
100
AcDbLine
 62
253
  6
CONTINUOUS
 10
-32.1140294448
 20
6.0606303022
 11
-32.1140294448
 21
7.410048
  0
LINE
  5
3A9
100
AcDbEntity
  8
0
100
AcDbLine
 62
253
  6
CONTINUOUS
 10
-32.1140294448
 20
13.410048
 11
-32.1140294448
 21
14.7594656978
  0
LINE
  5
3AA
100
AcDbEntity
  8
0
100
AcDbLine
 62
253
  6
CONTINUOUS
 10
-32.6227448891
 20
5.773645184
 11
-32.6192312954
 21
6.2534665851
  0
LINE
  5
3AB
100
AcDbEntity
  8
0
100
AcDbLine
 62
253
  6
CONTINUOUS
 10
-32.3247390161
 20
5.310048
 11
-32.3192427185
 21
6.0606303022
  0
LINE
  5
3AC
100
AcDbEntity
  8
0
100
AcDbLine
 62
253
  6
CONTINUOUS
 10
-32.1085331471
 20
15.510048
 11
-32.1140294448
 21
14.7594656978
  0
LINE
  5
3AD
100
AcDbEntity
  8
0
100
AcDbLine
 62
7
  6
CONTINUOUS
 10
-43.1123807511
 20
-3.6424519738
 11
-43.0485509714
 21
-3.532452
  0
LINE
  5
3AE
100
AcDbEntity
  8
0
100
AcDbLine
 62
7
  6
CONTINUOUS
 10
-44.420891401
 20
-6.584952
 11
-44.484721189
 21
-6.6949518951
  0
LINE
  5
3AF
100
AcDbEntity
  8
0
100
AcDbLine
 62
7
  6
CONTINUOUS
 10
-44.3251467204
 20
-6.6949518951
 11
-44.2932318306
 21
-6.6399521049
  0
LINE
  5
3B0
100
AcDbEntity
  8
0
100
AcDbLine
 62
7
  6
CONTINUOUS
 10
-44.3889765112
 20
-4.192452
 11
-44.484721189
 21
-4.3299519475
  0
LINE
  5
3B1
100
AcDbEntity
  8
0
100
AcDbLine
 62
253
  6
CONTINUOUS
 10
-39.9836233797
 20
8.460048
 11
-39.3159137617
 21
9.1277576181
  0
LINE
  5
3B2
100
AcDbEntity
  8
0
100
AcDbLine
 62
253
  6
CONTINUOUS
 10
-39.1666360816
 20
7.7100365769
 11
-39.1727448891
 21
7.7039277695
  0
LINE
  5
3B3
100
AcDbEntity
  8
0
100
AcDbLine
 62
253
  6
CONTINUOUS
 10
-38.8666475047
 20
7.410048
 11
-38.8727563122
 21
7.4039391925
  0
LINE
  5
3B4
100
AcDbEntity
  8
0
100
AcDbLine
 62
7
  6
CONTINUOUS
 10
-38.3192312954
 20
7.4074527863
 11
-38.3227448891
 21
7.4039391925
  0
LINE
  5
3B5
100
AcDbEntity
  8
DRAFT
100
AcDbLine
 62
7
  6
CONTINUOUS
 10
-44.9666360816
 20
10.510048
 11
-44.9142708868
 21
10.5362286034
  0
LINE
  5
3B6
100
AcDbEntity
  8
0
100
AcDbLine
 62
7
  6
CONTINUOUS
 10
-3.7230190775
 20
28.0375481049
 11
-3.5953594735
 21
28.0925478951
  0
LINE
  5
3B7
100
AcDbEntity
  8
0
100
AcDbLine
 62
7
  6
CONTINUOUS
 10
-6.0982760816
 20
25.807226
 11
-5.1188830816
 21
26.174511
  0
LINE
  5
3B8
100
AcDbEntity
  8
0
100
AcDbLine
 62
7
  6
CONTINUOUS
 10
-5.7860250816
 20
26.198175
 11
-6.6187620816
 21
25.888399
  0
LINE
  5
3B9
100
AcDbEntity
  8
0
100
AcDbLine
 62
7
  6
CONTINUOUS
 10
-3.6591892531
 20
27.0200478951
 11
-3.8187637469
 21
26.9650481049
  0
LINE
  5
3BA
100
AcDbEntity
  8
0
100
AcDbLine
 62
7
  6
CONTINUOUS
 10
-4.1698275349
 20
25.7825480525
 11
-4.2655722937
 21
25.755048
  0
LINE
  5
3BB
100
AcDbEntity
  8
0
100
AcDbLine
 62
7
  6
CONTINUOUS
 10
-3.5634445837
 20
24.847548
 11
-3.4676999143
 21
24.8750479738
  0
LINE
  5
3BC
100
AcDbEntity
  8
0
100
AcDbLine
 62
7
  6
CONTINUOUS
 10
-42.0469230816
 20
-3.414728
 11
-41.0145100816
 21
-3.128824
  0
LINE
  5
3BD
100
AcDbEntity
  8
0
100
AcDbLine
 62
7
  6
CONTINUOUS
 10
-43.3676998696
 20
-3.779952
 11
-43.2400403103
 21
-3.7524520262
  0
LINE
  5
3BE
100
AcDbEntity
  8
DRAFT
100
AcDbLine
 62
7
  6
CONTINUOUS
 10
-2.6808482071
 20
1.210048
 11
-3.2166360816
 21
1.210048
  0
LINE
  5
3BF
100
AcDbEntity
  8
DRAFT
100
AcDbLine
 62
7
  6
CONTINUOUS
 10
-44.4166360816
 20
1.210048
 11
-44.9524239561
 21
1.210048
  0
LINE
  5
3C0
100
AcDbEntity
  8
0
100
AcDbLine
 62
7
  6
CONTINUOUS
 10
-41.6783800816
 20
6.689809
 11
-40.8388040816
 21
6.408414
  0
LINE
  5
3C1
100
AcDbEntity
  8
0
100
AcDbLine
 62
7
  6
CONTINUOUS
 10
-40.6786530816
 20
6.469724
 11
-41.5280920816
 21
6.755282
  0
LINE
  5
3C2
100
AcDbEntity
  8
0
100
AcDbLine
 62
7
  6
CONTINUOUS
 10
-41.6783800816
 20
6.01839
 11
-41.3871980816
 21
5.913888
  0
LINE
  5
3C3
100
AcDbEntity
  8
RACCORDO
100
AcDbLine
 62
253
  6
CONTINUOUS
 10
-44.9142708868
 20
10.08382932
 11
-44.9666360816
 21
10.1100099234
  0
LINE
  5
3C4
100
AcDbEntity
  8
RACCORDO
100
AcDbLine
 62
7
  6
CONTINUOUS
 10
-45.0248640811
 20
10.2627479429
 11
-45.0772292759
 21
10.2889285463
  0
LINE
  5
3C5
100
AcDbEntity
  8
0
100
AcDbLine
 62
253
  6
CONTINUOUS
 10
-39.3159137617
 20
11.6923383819
 11
-39.9836233797
 21
12.360048
  0
LINE
  5
3C6
100
AcDbEntity
  8
0
100
AcDbLine
 62
253
  6
CONTINUOUS
 10
-39.1666360816
 20
13.1100594231
 11
-39.1727448891
 21
13.1161682305
  0
LINE
  5
3C7
100
AcDbEntity
  8
0
100
AcDbLine
 62
253
  6
CONTINUOUS
 10
-38.8666475047
 20
13.410048
 11
-38.8727563122
 21
13.4161568075
  0
LINE
  5
3C8
100
AcDbEntity
  8
0
100
AcDbLine
 62
7
  6
CONTINUOUS
 10
-38.3192312954
 20
13.4126432137
 11
-38.3227448891
 21
13.4161568075
  0
LINE
  5
3C9
100
AcDbEntity
  8
0
100
AcDbLine
 62
253
  6
CONTINUOUS
 10
-31.8140408679
 20
6.2534665851
 11
-31.8105272742
 21
5.773645184
  0
LINE
  5
3CA
100
AcDbEntity
  8
0
100
AcDbLine
 62
253
  6
CONTINUOUS
 10
-31.8140408679
 20
6.2534665851
 11
-31.8140408679
 21
7.4074527863
  0
LINE
  5
3CB
100
AcDbEntity
  8
0
100
AcDbLine
 62
253
  6
CONTINUOUS
 10
-31.8140408679
 20
13.4126432137
 11
-31.8140408679
 21
14.5666294149
  0
LINE
  5
3CC
100
AcDbEntity
  8
0
100
AcDbLine
 62
7
  6
CONTINUOUS
 10
-31.8105272742
 20
5.773645184
 11
-31.8105272742
 21
7.4039391925
  0
LINE
  5
3CD
100
AcDbEntity
  8
0
100
AcDbLine
 62
7
  6
CONTINUOUS
 10
-31.8105272742
 20
13.4161568075
 11
-31.8105272742
 21
15.046450816
  0
LINE
  5
3CE
100
AcDbEntity
  8
0
100
AcDbLine
 62
7
  6
CONTINUOUS
 10
-30.9666360816
 20
7.7100365769
 11
-30.9666360816
 21
7.960048
  0
LINE
  5
3CF
100
AcDbEntity
  8
0
100
AcDbLine
 62
7
  6
CONTINUOUS
 10
-30.9666360816
 20
12.860048
 11
-30.9666360816
 21
13.1100594231
  0
LINE
  5
3D0
100
AcDbEntity
  8
0
100
AcDbLine
 62
7
  6
CONTINUOUS
 10
-30.9605272742
 20
7.7039277695
 11
-30.9605272742
 21
7.960048
  0
LINE
  5
3D1
100
AcDbEntity
  8
0
100
AcDbLine
 62
7
  6
CONTINUOUS
 10
-30.9605272742
 20
12.860048
 11
-30.9605272742
 21
13.1161682305
  0
LINE
  5
3D2
100
AcDbEntity
  8
0
100
AcDbLine
 62
7
  6
CONTINUOUS
 10
-30.3804221014
 20
11.1962810187
 11
-30.3804221014
 21
10.7471422827
  0
LINE
  5
3D3
100
AcDbEntity
  8
0
100
AcDbLine
 62
7
  6
CONTINUOUS
 10
-30.3804221014
 20
10.0729537173
 11
-30.3804221014
 21
9.6238149813
  0
LINE
  5
3D4
100
AcDbEntity
  8
0
100
AcDbLine
 62
253
  6
CONTINUOUS
 10
-31.8105272742
 20
15.046450816
 11
-31.8140408679
 21
14.5666294149
  0
LINE
  5
3D5
100
AcDbEntity
  8
0
100
AcDbLine
 62
7
  6
CONTINUOUS
 10
-43.1123807511
 20
-7.244952
 11
-43.0485509714
 21
-7.1349521049
  0
LINE
  5
3D6
100
AcDbEntity
  8
0
100
AcDbLine
 62
7
  6
CONTINUOUS
 10
-43.1123807511
 20
-8.482452
 11
-43.0485509714
 21
-8.3724517902
  0
LINE
  5
3D7
100
AcDbEntity
  8
0
100
AcDbLine
 62
7
  6
CONTINUOUS
 10
-44.3889765112
 20
-5.347452
 11
-44.484721189
 21
-5.4849521049
  0
LINE
  5
3D8
100
AcDbEntity
  8
0
100
AcDbLine
 62
7
  6
CONTINUOUS
 10
-43.1442956409
 20
-4.7974520525
 11
-43.0485509714
 21
-4.6599519475
  0
LINE
  5
3D9
100
AcDbEntity
  8
0
100
AcDbLine
 62
7
  6
CONTINUOUS
 10
-43.6868488571
 20
-6.0624521049
 11
-43.5911041877
 21
-5.924952
  0
LINE
  5
3DA
100
AcDbEntity
  8
0
100
AcDbLine
 62
7
  6
CONTINUOUS
 10
-44.3251467204
 20
-4.357452
 11
-44.2613169408
 21
-4.274952
  0
LINE
  5
3DB
100
AcDbEntity
  8
0
100
AcDbLine
 62
7
  6
CONTINUOUS
 10
-43.2081254205
 20
-3.4774519738
 11
-43.2719552001
 21
-3.5599519738
  0
LINE
  5
3DC
100
AcDbEntity
  8
0
100
AcDbLine
 62
7
  6
CONTINUOUS
 10
-44.3251467204
 20
-5.512452
 11
-44.2613169408
 21
-5.429952
  0
LINE
  5
3DD
100
AcDbEntity
  8
0
100
AcDbLine
 62
7
  6
CONTINUOUS
 10
-43.2081254205
 20
-4.6324520525
 11
-43.2719552001
 21
-4.7149520525
  0
LINE
  5
3DE
100
AcDbEntity
  8
0
100
AcDbLine
 62
7
  6
CONTINUOUS
 10
-31.8140408679
 20
13.4126432137
 11
-31.8105272742
 21
13.4161568075
  0
LINE
  5
3DF
100
AcDbEntity
  8
0
100
AcDbLine
 62
253
  6
CONTINUOUS
 10
-31.2666246586
 20
13.410048
 11
-31.2605158511
 21
13.4161568075
  0
LINE
  5
3E0
100
AcDbEntity
  8
0
100
AcDbLine
 62
253
  6
CONTINUOUS
 10
-30.9666360816
 20
13.1100594231
 11
-30.9605272742
 21
13.1161682305
  0
LINE
  5
3E1
100
AcDbEntity
  8
0
100
AcDbLine
 62
7
  6
CONTINUOUS
 10
-4.3613169631
 20
29.220048
 11
-4.2655722937
 21
29.2750477902
  0
LINE
  5
3E2
100
AcDbEntity
  8
0
100
AcDbLine
 62
7
  6
CONTINUOUS
 10
-3.4038701346
 20
27.405048
 11
-3.4676999143
 21
27.3775481049
  0
LINE
  5
3E3
100
AcDbEntity
  8
0
100
AcDbLine
 62
7
  6
CONTINUOUS
 10
-3.3719552225
 20
26.250048
 11
-3.4996148041
 21
26.1950480525
  0
LINE
  5
3E4
100
AcDbEntity
  8
0
100
AcDbLine
 62
7
  6
CONTINUOUS
 10
-4.2655722937
 20
25.755048
 11
-4.3932318529
 21
25.7000480525
  0
LINE
  5
3E5
100
AcDbEntity
  8
0
100
AcDbLine
 62
7
  6
CONTINUOUS
 10
-3.4996148041
 20
26.0300480525
 11
-3.3719552225
 21
26.085048
  0
LINE
  5
3E6
100
AcDbEntity
  8
0
100
AcDbLine
 62
7
  6
CONTINUOUS
 10
-6.6187620816
 20
23.608814
 11
-5.1188830816
 21
24.084305
  0
LINE
  5
3E7
100
AcDbEntity
  8
0
100
AcDbLine
 62
7
  6
CONTINUOUS
 10
-41.6783800816
 20
3.384238
 11
-41.5586720816
 21
3.384238
  0
LINE
  5
3E8
100
AcDbEntity
  8
0
100
AcDbLine
 62
7
  6
CONTINUOUS
 10
-40.7983620816
 20
3.394025
 11
-40.6786530816
 21
3.394025
  0
LINE
  5
3E9
100
AcDbEntity
  8
0
100
AcDbLine
 62
7
  6
CONTINUOUS
 10
-41.2246210816
 20
3.439967
 11
-41.1049120816
 21
3.439967
  0
LINE
  5
3EA
100
AcDbEntity
  8
0
100
AcDbLine
 62
7
  6
CONTINUOUS
 10
-44.5546190816
 20
3.891301
 11
-44.1518160816
 21
3.891301
  0
LINE
  5
3EB
100
AcDbEntity
  8
0
100
AcDbLine
 62
7
  6
CONTINUOUS
 10
-41.5586720816
 20
3.987391
 11
-41.2246210816
 21
3.987391
  0
LINE
  5
3EC
100
AcDbEntity
  8
0
100
AcDbLine
 62
7
  6
CONTINUOUS
 10
-41.1049120816
 20
3.987391
 11
-40.7983620816
 21
3.987391
  0
LINE
  5
3ED
100
AcDbEntity
  8
0
100
AcDbLine
 62
7
  6
CONTINUOUS
 10
-44.1518160816
 20
4.026377
 11
-44.5546190816
 21
4.026377
  0
LINE
  5
3EE
100
AcDbEntity
  8
0
100
AcDbLine
 62
7
  6
CONTINUOUS
 10
-40.6786530816
 20
4.122548
 11
-41.6783800816
 21
4.122548
  0
LINE
  5
3EF
100
AcDbEntity
  8
0
100
AcDbLine
 62
7
  6
CONTINUOUS
 10
-44.5546190816
 20
4.240962
 11
-44.4349100816
 21
4.240962
  0
LINE
  5
3F0
100
AcDbEntity
  8
0
100
AcDbLine
 62
7
  6
CONTINUOUS
 10
-31.8140408679
 20
7.4074527863
 11
-31.8105272742
 21
7.4039391925
  0
LINE
  5
3F1
100
AcDbEntity
  8
0
100
AcDbLine
 62
253
  6
CONTINUOUS
 10
-31.2666246586
 20
7.410048
 11
-31.2605158511
 21
7.4039391925
  0
LINE
  5
3F2
100
AcDbEntity
  8
0
100
AcDbLine
 62
253
  6
CONTINUOUS
 10
-30.9666360816
 20
7.7100365769
 11
-30.9605272742
 21
7.7039277695
  0
LINE
  5
3F3
100
AcDbEntity
  8
0
100
AcDbLine
 62
7
  6
CONTINUOUS
 10
-29.7166360816
 20
11.9270352981
 11
-29.7166360816
 21
10.7371089058
  0
LINE
  5
3F4
100
AcDbEntity
  8
0
100
AcDbLine
 62
7
  6
CONTINUOUS
 10
-29.7166360816
 20
10.0829870942
 11
-29.7166360816
 21
8.8930607019
  0
LINE
  5
3F5
100
AcDbEntity
  8
0
100
AcDbLine
 62
7
  6
CONTINUOUS
 10
-29.2166360816
 20
8.860048
 11
-29.2166360816
 21
9.0576828052
  0
LINE
  5
3F6
100
AcDbEntity
  8
0
100
AcDbLine
 62
7
  6
CONTINUOUS
 10
-29.2166360816
 20
11.710048
 11
-29.2166360816
 21
11.960048
  0
LINE
  5
3F7
100
AcDbEntity
  8
0
100
AcDbLine
 62
7
  6
CONTINUOUS
 10
-29.2105272742
 20
8.860048
 11
-29.2105272742
 21
9.0515739978
  0
LINE
  5
3F8
100
AcDbEntity
  8
0
100
AcDbLine
 62
7
  6
CONTINUOUS
 10
-29.2105272742
 20
11.7712900645
 11
-29.2105272742
 21
11.960048
  0
LINE
  5
3F9
100
AcDbEntity
  8
DRAFT
100
AcDbLine
 62
7
  6
CONTINUOUS
 10
-29.2166360816
 20
11.710048
 11
-29.2105272742
 21
11.7712900645
  0
LINE
  5
3FA
100
AcDbEntity
  8
0
100
AcDbLine
 62
7
  6
CONTINUOUS
 10
-44.3570616102
 20
-6.502452
 11
-44.420891401
 21
-6.584952
  0
LINE
  5
3FB
100
AcDbEntity
  8
0
100
AcDbLine
 62
7
  6
CONTINUOUS
 10
-43.7506786367
 20
-5.8974521049
 11
-43.8145084164
 21
-5.9799521049
  0
LINE
  5
3FC
100
AcDbEntity
  8
0
100
AcDbLine
 62
7
  6
CONTINUOUS
 10
-43.8464233062
 20
-7.1349521049
 11
-43.9102530858
 21
-7.2174521049
  0
LINE
  5
3FD
100
AcDbEntity
  8
0
100
AcDbLine
 62
7
  6
CONTINUOUS
 10
-43.2081254205
 20
-7.1074518951
 11
-43.2719552001
 21
-7.1899518951
  0
LINE
  5
3FE
100
AcDbEntity
  8
0
100
AcDbLine
 62
253
  6
CONTINUOUS
 10
-30.1496487835
 20
12.360048
 11
-30.8173584016
 21
11.6923383819
  0
LINE
  5
3FF
100
AcDbEntity
  8
0
100
AcDbLine
 62
253
  6
CONTINUOUS
 10
-30.3843456997
 20
11.25932568
 11
-29.7166360816
 21
11.9270352981
  0
LINE
  5
400
100
AcDbEntity
  8
0
100
AcDbLine
 62
7
  6
CONTINUOUS
 10
-43.5540830816
 20
4.403944
 11
-44.1518160816
 21
4.026377
  0
LINE
  5
401
100
AcDbEntity
  8
0
100
AcDbLine
 62
7
  6
CONTINUOUS
 10
-42.3040970816
 20
5.397767
 11
-43.1165000816
 21
4.886579
  0
LINE
  5
402
100
AcDbEntity
  8
0
100
AcDbLine
 62
7
  6
CONTINUOUS
 10
-42.9285650816
 20
4.86563
 11
-42.1167720816
 21
5.368568
  0
LINE
  5
403
100
AcDbEntity
  8
0
100
AcDbLine
 62
7
  6
CONTINUOUS
 10
-44.0345340816
 20
3.959567
 11
-43.5540830816
 21
4.246543
  0
LINE
  5
404
100
AcDbEntity
  8
0
100
AcDbLine
 62
7
  6
CONTINUOUS
 10
-4.3613169631
 20
28.0100478951
 11
-4.2655722937
 21
28.065048
  0
LINE
  5
405
100
AcDbEntity
  8
0
100
AcDbLine
 62
7
  6
CONTINUOUS
 10
-3.7230190775
 20
28.2025481049
 11
-3.8187637469
 21
28.147548
  0
LINE
  5
406
100
AcDbEntity
  8
0
100
AcDbLine
 62
7
  6
CONTINUOUS
 10
-3.3719552225
 20
27.2675478951
 11
-3.276210553
 21
27.322548
  0
LINE
  5
407
100
AcDbEntity
  8
0
100
AcDbLine
 62
7
  6
CONTINUOUS
 10
-3.8187637469
 20
26.8000481049
 11
-3.7230190775
 21
26.8550478951
  0
LINE
  5
408
100
AcDbEntity
  8
0
100
AcDbLine
 62
7
  6
CONTINUOUS
 10
-3.4676999143
 20
24.8750479738
 11
-3.3400403327
 21
24.930048
  0
LINE
  5
409
100
AcDbEntity
  8
0
100
AcDbLine
 62
7
  6
CONTINUOUS
 10
-9.7563287024
 20
4.710048
 11
-37.8769434608
 21
4.710048
  0
LINE
  5
40A
100
AcDbEntity
  8
0
100
AcDbLine
 62
7
  6
CONTINUOUS
 10
-43.1165000816
 20
4.73476
 11
-42.1167720816
 21
4.73476
  0
LINE
  5
40B
100
AcDbEntity
  8
0
100
AcDbLine
 62
7
  6
CONTINUOUS
 10
-44.4349100816
 20
4.748025
 11
-43.5540830816
 21
4.748025
  0
LINE
  5
40C
100
AcDbEntity
  8
0
100
AcDbLine
 62
7
  6
CONTINUOUS
 10
-42.1167720816
 20
4.86563
 11
-42.9285650816
 21
4.86563
  0
LINE
  5
40D
100
AcDbEntity
  8
0
100
AcDbLine
 62
7
  6
CONTINUOUS
 10
-43.5540830816
 20
4.883101
 11
-44.5546190816
 21
4.883101
  0
LINE
  5
40E
100
AcDbEntity
  8
0
100
AcDbLine
 62
7
  6
CONTINUOUS
 10
-41.5627160816
 20
5.000141
 11
-40.7943170816
 21
5.000141
  0
LINE
  5
40F
100
AcDbEntity
  8
0
100
AcDbLine
 62
7
  6
CONTINUOUS
 10
-40.6786530816
 20
5.135217
 11
-41.6783800816
 21
5.135217
  0
LINE
  5
410
100
AcDbEntity
  8
0
100
AcDbLine
 62
7
  6
CONTINUOUS
 10
-9.6085331471
 20
5.310048
 11
-9.8247390161
 21
5.310048
  0
LINE
  5
411
100
AcDbEntity
  8
0
100
AcDbLine
 62
7
  6
CONTINUOUS
 10
-15.3085331471
 20
5.310048
 11
-15.5247390161
 21
5.310048
  0
LINE
  5
412
100
AcDbEntity
  8
0
100
AcDbLine
 62
7
  6
CONTINUOUS
 10
-32.1085331471
 20
5.310048
 11
-32.3247390161
 21
5.310048
  0
LINE
  5
413
100
AcDbEntity
  8
0
100
AcDbLine
 62
7
  6
CONTINUOUS
 10
-37.8085331471
 20
5.310048
 11
-38.0247390161
 21
5.310048
  0
LINE
  5
414
100
AcDbEntity
  8
0
100
AcDbLine
 62
7
  6
CONTINUOUS
 10
-43.1165000816
 20
5.397767
 11
-42.3040970816
 21
5.397767
  0
LINE
  5
415
100
AcDbEntity
  8
0
100
AcDbLine
 62
7
  6
CONTINUOUS
 10
-42.1167720816
 20
5.528799
 11
-43.1165000816
 21
5.528799
  0
LINE
  5
416
100
AcDbEntity
  8
0
100
AcDbLine
 62
7
  6
CONTINUOUS
 10
-43.1165000816
 20
5.759966
 11
-42.1167720816
 21
5.759966
  0
LINE
  5
417
100
AcDbEntity
  8
0
100
AcDbLine
 62
7
  6
CONTINUOUS
 10
-42.1167720816
 20
5.895123
 11
-43.1165000816
 21
5.895123
  0
LINE
  5
418
100
AcDbEntity
  8
0
100
AcDbLine
 62
7
  6
CONTINUOUS
 10
-43.6737910816
 20
5.937587
 11
-43.5540830816
 21
5.937587
  0
LINE
  5
419
100
AcDbEntity
  8
0
100
AcDbLine
 62
253
  6
CONTINUOUS
 10
-38.0192427185
 20
6.0606303022
 11
-37.8140294448
 21
6.0606303022
  0
LINE
  5
41A
100
AcDbEntity
  8
0
100
AcDbLine
 62
253
  6
CONTINUOUS
 10
-32.3192427185
 20
6.0606303022
 11
-32.1140294448
 21
6.0606303022
  0
LINE
  5
41B
100
AcDbEntity
  8
0
100
AcDbLine
 62
253
  6
CONTINUOUS
 10
-15.5192427185
 20
6.0606303022
 11
-15.3140294448
 21
6.0606303022
  0
LINE
  5
41C
100
AcDbEntity
  8
0
100
AcDbLine
 62
253
  6
CONTINUOUS
 10
-9.8192427185
 20
6.0606303022
 11
-9.6140294448
 21
6.0606303022
  0
LINE
  5
41D
100
AcDbEntity
  8
0
100
AcDbLine
 62
253
  6
CONTINUOUS
 10
-38.3192312954
 20
6.2534665851
 11
-37.5140408679
 21
6.2534665851
  0
LINE
  5
41E
100
AcDbEntity
  8
0
100
AcDbLine
 62
253
  6
CONTINUOUS
 10
-32.6192312954
 20
6.2534665851
 11
-31.8140408679
 21
6.2534665851
  0
LINE
  5
41F
100
AcDbEntity
  8
0
100
AcDbLine
 62
253
  6
CONTINUOUS
 10
-15.8192312954
 20
6.2534665851
 11
-15.0140408679
 21
6.2534665851
  0
LINE
  5
420
100
AcDbEntity
  8
0
100
AcDbLine
 62
253
  6
CONTINUOUS
 10
-10.1192312954
 20
6.2534665851
 11
-9.3140408679
 21
6.2534665851
  0
LINE
  5
421
100
AcDbEntity
  8
0
100
AcDbLine
 62
7
  6
CONTINUOUS
 10
-44.5546190816
 20
6.276087
 11
-43.6737910816
 21
6.276087
  0
LINE
  5
422
100
AcDbEntity
  8
0
100
AcDbLine
 62
7
  6
CONTINUOUS
 10
-41.6783800816
 20
6.277462
 11
-40.6786530816
 21
6.277462
  0
LINE
  5
423
100
AcDbEntity
  8
0
100
AcDbLine
 62
7
  6
CONTINUOUS
 10
-40.8388040816
 20
6.408414
 11
-41.6783800816
 21
6.408414
  0
LINE
  5
424
100
AcDbEntity
  8
0
100
AcDbLine
 62
7
  6
CONTINUOUS
 10
-43.6737910816
 20
6.411164
 11
-44.5546190816
 21
6.411164
  0
LINE
  5
425
100
AcDbEntity
  8
0
100
AcDbLine
 62
253
  6
CONTINUOUS
 10
-30.8173584016
 20
9.1277576181
 11
-30.1496487835
 21
8.460048
  0
LINE
  5
426
100
AcDbEntity
  8
0
100
AcDbLine
 62
253
  6
CONTINUOUS
 10
-29.7166360816
 20
8.8930607019
 11
-30.3843456997
 21
9.56077032
  0
LINE
  5
427
100
AcDbEntity
  8
0
100
AcDbLine
 62
7
  6
CONTINUOUS
 10
-29.2166360816
 20
9.0576828052
 11
-29.2105272742
 21
9.0515739978
  0
LINE
  5
428
100
AcDbEntity
  8
0
100
AcDbLine
 62
7
  6
CONTINUOUS
 10
-43.2081254205
 20
-8.317452
 11
-43.2719552001
 21
-8.399952
  0
LINE
  5
429
100
AcDbEntity
  8
0
100
AcDbLine
 62
253
  6
CONTINUOUS
 10
-7.9762356362
 20
29.9004370223
 11
-7.9692312954
 21
29.9074413632
  0
LINE
  5
42A
100
AcDbEntity
  8
0
100
AcDbLine
 62
253
  6
CONTINUOUS
 10
-7.6762470593
 20
29.6004484454
 11
-7.6692427185
 21
29.6074527863
  0
LINE
  5
42B
100
AcDbEntity
  8
0
100
AcDbLine
 62
7
  6
CONTINUOUS
 10
-44.2932318306
 20
-4.109952
 11
-44.3889765112
 21
-4.192452
  0
LINE
  5
42C
100
AcDbEntity
  8
0
100
AcDbLine
 62
7
  6
CONTINUOUS
 10
-43.2400403103
 20
-3.7524520262
 11
-43.1123807511
 21
-3.6424519738
  0
LINE
  5
42D
100
AcDbEntity
  8
0
100
AcDbLine
 62
7
  6
CONTINUOUS
 10
-3.8187637469
 20
26.9650481049
 11
-3.9464233062
 21
26.8825481049
  0
LINE
  5
42E
100
AcDbEntity
  8
0
100
AcDbLine
 62
7
  6
CONTINUOUS
 10
-3.3719552225
 20
26.085048
 11
-3.2442956521
 21
26.167548
  0
LINE
  5
42F
100
AcDbEntity
  8
0
100
AcDbLine
 62
7
  6
CONTINUOUS
 10
-4.3613169631
 20
25.5350480525
 11
-4.1698275349
 21
25.6450479475
  0
LINE
  5
430
100
AcDbEntity
  8
0
100
AcDbLine
 62
7
  6
CONTINUOUS
 10
-3.3719552225
 20
25.095048
 11
-3.5634445837
 21
24.9850479475
  0
LINE
  5
431
100
AcDbEntity
  8
0
100
AcDbLine
 62
7
  6
CONTINUOUS
 10
-4.3613169631
 20
24.3800479738
 11
-4.2655722937
 21
24.435048
  0
LINE
  5
432
100
AcDbEntity
  8
0
100
AcDbLine
 62
7
  6
CONTINUOUS
 10
-44.5546190816
 20
5.007097
 11
-43.5540830816
 21
5.369296
  0
LINE
  5
433
100
AcDbEntity
  8
0
100
AcDbLine
 62
7
  6
CONTINUOUS
 10
-41.5280920816
 20
6.755282
 11
-40.6786530816
 21
7.042221
  0
LINE
  5
434
100
AcDbEntity
  8
0
100
AcDbLine
 62
7
  6
CONTINUOUS
 10
-40.8404210816
 20
7.104907
 11
-41.6783800816
 21
6.823511
  0
LINE
  5
435
100
AcDbEntity
  8
0
100
AcDbLine
 62
7
  6
CONTINUOUS
 10
-43.5540830816
 20
6.749664
 11
-43.6737910816
 21
6.749664
  0
LINE
  5
436
100
AcDbEntity
  8
0
100
AcDbLine
 62
7
  6
CONTINUOUS
 10
-44.5546190816
 20
6.894608
 11
-43.5540830816
 21
6.894608
  0
LINE
  5
437
100
AcDbEntity
  8
0
100
AcDbLine
 62
7
  6
CONTINUOUS
 10
-43.5540830816
 20
7.029765
 11
-44.5546190816
 21
7.029765
  0
LINE
  5
438
100
AcDbEntity
  8
0
100
AcDbLine
 62
7
  6
CONTINUOUS
 10
-41.6783800816
 20
7.104907
 11
-40.8404210816
 21
7.104907
  0
LINE
  5
439
100
AcDbEntity
  8
0
100
AcDbLine
 62
7
  6
CONTINUOUS
 10
-40.6786530816
 20
7.235858
 11
-41.6783800816
 21
7.235858
  0
LINE
  5
43A
100
AcDbEntity
  8
0
100
AcDbLine
 62
7
  6
CONTINUOUS
 10
-38.8727563122
 20
7.4039391925
 11
-38.3227448891
 21
7.4039391925
  0
LINE
  5
43B
100
AcDbEntity
  8
0
100
AcDbLine
 62
7
  6
CONTINUOUS
 10
-31.8105272742
 20
7.4039391925
 11
-31.2605158511
 21
7.4039391925
  0
LINE
  5
43C
100
AcDbEntity
  8
0
100
AcDbLine
 62
7
  6
CONTINUOUS
 10
-16.3727563122
 20
7.4039391925
 11
-15.8227448891
 21
7.4039391925
  0
LINE
  5
43D
100
AcDbEntity
  8
0
100
AcDbLine
 62
7
  6
CONTINUOUS
 10
-9.3105272742
 20
7.4039391925
 11
-8.7605158511
 21
7.4039391925
  0
LINE
  5
43E
100
AcDbEntity
  8
0
100
AcDbLine
 62
7
  6
CONTINUOUS
 10
-38.8666475047
 20
7.410048
 11
-38.0192427185
 21
7.410048
  0
LINE
  5
43F
100
AcDbEntity
  8
0
100
AcDbLine
 62
7
  6
CONTINUOUS
 10
-32.1140294448
 20
7.410048
 11
-31.2666246586
 21
7.410048
  0
LINE
  5
440
100
AcDbEntity
  8
0
100
AcDbLine
 62
7
  6
CONTINUOUS
 10
-16.3666475047
 20
7.410048
 11
-15.5192427185
 21
7.410048
  0
LINE
  5
441
100
AcDbEntity
  8
0
100
AcDbLine
 62
7
  6
CONTINUOUS
 10
-9.6140294448
 20
7.410048
 11
-8.7666246586
 21
7.410048
  0
LINE
  5
442
100
AcDbEntity
  8
0
100
AcDbLine
 62
7
  6
CONTINUOUS
 10
-40.0166018111
 20
7.960048
 11
-39.1666360816
 21
7.960048
  0
LINE
  5
443
100
AcDbEntity
  8
0
100
AcDbLine
 62
7
  6
CONTINUOUS
 10
-37.8140294448
 20
7.960048
 11
-32.3192427185
 21
7.960048
  0
LINE
  5
444
100
AcDbEntity
  8
0
100
AcDbLine
 62
7
  6
CONTINUOUS
 10
-30.9666360816
 20
7.960048
 11
-30.1166703522
 21
7.960048
  0
LINE
  5
445
100
AcDbEntity
  8
0
100
AcDbLine
 62
7
  6
CONTINUOUS
 10
-17.5166018111
 20
7.960048
 11
-16.6666360816
 21
7.960048
  0
LINE
  5
446
100
AcDbEntity
  8
0
100
AcDbLine
 62
7
  6
CONTINUOUS
 10
-15.3140294448
 20
7.960048
 11
-9.8192427185
 21
7.960048
  0
LINE
  5
447
100
AcDbEntity
  8
0
100
AcDbLine
 62
7
  6
CONTINUOUS
 10
-8.4666360816
 20
7.960048
 11
-7.6166703522
 21
7.960048
  0
LINE
  5
448
100
AcDbEntity
  8
0
100
AcDbLine
 62
7
  6
CONTINUOUS
 10
-7.6496487835
 20
8.460048
 11
-17.4836233797
 21
8.460048
  0
LINE
  5
449
100
AcDbEntity
  8
0
100
AcDbLine
 62
7
  6
CONTINUOUS
 10
-30.1496487835
 20
8.460048
 11
-39.9836233797
 21
8.460048
  0
LINE
  5
44A
100
AcDbEntity
  8
0
100
AcDbLine
 62
253
  6
CONTINUOUS
 10
-7.9762356362
 20
-9.0803410223
 11
-7.9692312954
 21
-9.0873453632
  0
LINE
  5
44B
100
AcDbEntity
  8
0
100
AcDbLine
 62
253
  6
CONTINUOUS
 10
-7.6762470593
 20
-8.7803524454
 11
-7.6692427185
 21
-8.7873567863
  0
LINE
  5
44C
100
AcDbEntity
  8
0
100
AcDbLine
 62
7
  6
CONTINUOUS
 10
-4.3932318529
 20
29.4125482098
 11
-4.5208914122
 21
29.302548
  0
LINE
  5
44D
100
AcDbEntity
  8
0
100
AcDbLine
 62
7
  6
CONTINUOUS
 10
-43.2400403103
 20
-4.8799520525
 11
-43.1442956409
 21
-4.7974520525
  0
LINE
  5
44E
100
AcDbEntity
  8
0
100
AcDbLine
 62
7
  6
CONTINUOUS
 10
-4.3932318529
 20
28.1750478951
 11
-4.5208914122
 21
28.065048
  0
LINE
  5
44F
100
AcDbEntity
  8
0
100
AcDbLine
 62
7
  6
CONTINUOUS
 10
-44.2932318306
 20
-6.6399521049
 11
-44.2294020286
 21
-6.584952
  0
LINE
  5
450
100
AcDbEntity
  8
0
100
AcDbLine
 62
7
  6
CONTINUOUS
 10
-41.6783800816
 20
5.266168
 11
-40.6786530816
 21
5.628367
  0
LINE
  5
451
100
AcDbEntity
  8
0
100
AcDbLine
 62
7
  6
CONTINUOUS
 10
-44.2634360816
 20
5.253631
 11
-44.5546190816
 21
5.15471
  0
LINE
  5
452
100
AcDbEntity
  8
0
100
AcDbLine
 62
7
  6
CONTINUOUS
 10
-41.3871980816
 20
5.512703
 11
-41.6783800816
 21
5.413782
  0
LINE
  5
453
100
AcDbEntity
  8
0
100
AcDbLine
 62
7
  6
CONTINUOUS
 10
-43.6997890816
 20
5.451418
 11
-44.1437280816
 21
5.302404
  0
LINE
  5
454
100
AcDbEntity
  8
0
100
AcDbLine
 62
7
  6
CONTINUOUS
 10
-40.8235490816
 20
5.71049
 11
-41.2674890816
 21
5.561476
  0
LINE
  5
455
100
AcDbEntity
  8
0
100
AcDbLine
 62
253
  6
CONTINUOUS
 10
-7.8804221014
 20
10.0729537173
 11
-7.2166360816
 21
10.0829870942
  0
LINE
  5
456
100
AcDbEntity
  8
0
100
AcDbLine
 62
7
  6
CONTINUOUS
 10
-7.683451671
 20
10.2733357857
 11
-6.988717157
 21
10.2838369608
  0
LINE
  5
457
100
AcDbEntity
  8
0
100
AcDbLine
 62
253
  6
CONTINUOUS
 10
-30.3804221014
 20
10.0729537173
 11
-29.7166360816
 21
10.0829870942
  0
LINE
  5
458
100
AcDbEntity
  8
0
100
AcDbLine
 62
7
  6
CONTINUOUS
 10
-30.183451671
 20
10.2733357857
 11
-29.488717157
 21
10.2838369608
  0
LINE
  5
459
100
AcDbEntity
  8
0
100
AcDbLine
 62
7
  6
CONTINUOUS
 10
-17.4498204923
 20
10.5467602143
 11
-18.1445550063
 21
10.5362590392
  0
LINE
  5
45A
100
AcDbEntity
  8
0
100
AcDbLine
 62
253
  6
CONTINUOUS
 10
-17.2528500619
 20
10.7471422827
 11
-17.9166360816
 21
10.7371089058
  0
LINE
  5
45B
100
AcDbEntity
  8
0
100
AcDbLine
 62
7
  6
CONTINUOUS
 10
-6.9846883204
 20
10.2838673966
 11
-6.988741373
 21
10.2838341573
  0
LINE
  5
45C
100
AcDbEntity
  8
0
100
AcDbLine
 62
7
  6
CONTINUOUS
 10
-29.4846883204
 20
10.2838673966
 11
-29.488741373
 21
10.2838341573
  0
LINE
  5
45D
100
AcDbEntity
  8
0
100
AcDbLine
 62
7
  6
CONTINUOUS
 10
-18.1485838428
 20
10.5362286034
 11
-18.1445307902
 21
10.5362618427
  0
LINE
  5
45E
100
AcDbEntity
  8
0
100
AcDbLine
 62
7
  6
CONTINUOUS
 10
-40.6485838428
 20
10.5362286034
 11
-40.6445307902
 21
10.5362618427
  0
LINE
  5
45F
100
AcDbEntity
  8
0
100
AcDbLine
 62
253
  6
CONTINUOUS
 10
-18.4166360816
 20
8.860048
 11
-18.4227448891
 21
8.860048
  0
LINE
  5
460
100
AcDbEntity
  8
0
100
AcDbLine
 62
253
  6
CONTINUOUS
 10
-40.9166360816
 20
8.860048
 11
-40.9227448891
 21
8.860048
  0
LINE
  5
461
100
AcDbEntity
  8
0
100
AcDbLine
 62
253
  6
CONTINUOUS
 10
-29.2166360816
 20
8.860048
 11
-29.2105272742
 21
8.860048
  0
LINE
  5
462
100
AcDbEntity
  8
0
100
AcDbLine
 62
253
  6
CONTINUOUS
 10
-6.7166360816
 20
8.860048
 11
-6.7105272742
 21
8.860048
  0
LINE
  5
463
100
AcDbEntity
  8
RACCORDO
100
AcDbLine
 62
7
  6
CONTINUOUS
 10
-44.7055128888
 20
9.0515739978
 11
-40.9227448891
 21
9.0515739978
  0
LINE
  5
464
100
AcDbEntity
  8
0
100
AcDbLine
 62
7
  6
CONTINUOUS
 10
-29.2105272742
 20
9.0515739978
 11
-18.4227448891
 21
9.0515739978
  0
LINE
  5
465
100
AcDbEntity
  8
RACCORDO
100
AcDbLine
 62
7
  6
CONTINUOUS
 10
-6.7105272742
 20
9.0515739978
 11
-2.931219823
 21
9.0515739978
  0
LINE
  5
466
100
AcDbEntity
  8
0
100
AcDbLine
 62
7
  6
CONTINUOUS
 10
-44.9142708868
 20
9.0576828052
 11
-40.9166360816
 21
9.0576828052
  0
LINE
  5
467
100
AcDbEntity
  8
0
100
AcDbLine
 62
7
  6
CONTINUOUS
 10
-29.2166360816
 20
9.0576828052
 11
-18.4166360816
 21
9.0576828052
  0
LINE
  5
468
100
AcDbEntity
  8
RACCORDO
100
AcDbLine
 62
7
  6
CONTINUOUS
 10
-6.7166360816
 20
9.0576828052
 11
-2.9190012776
 21
9.0576828052
  0
LINE
  5
469
100
AcDbEntity
  8
0
100
AcDbLine
 62
7
  6
CONTINUOUS
 10
-8.3804030629
 20
9.1238340198
 11
-16.7528691003
 21
9.1238340198
  0
LINE
  5
46A
100
AcDbEntity
  8
0
100
AcDbLine
 62
7
  6
CONTINUOUS
 10
-30.8804030629
 20
9.1238340198
 11
-39.2528691003
 21
9.1238340198
  0
LINE
  5
46B
100
AcDbEntity
  8
RACCORDO
100
AcDbLine
 62
7
  6
CONTINUOUS
 10
-45.0671062056
 20
10.2838673966
 11
-40.6485838428
 21
10.2838673966
  0
LINE
  5
46C
100
AcDbEntity
  8
0
100
AcDbLine
 62
7
  6
CONTINUOUS
 10
-29.4846883204
 20
10.2838673966
 11
-18.1485838428
 21
10.2838673966
  0
LINE
  5
46D
100
AcDbEntity
  8
0
100
AcDbLine
 62
7
  6
CONTINUOUS
 10
-6.9846883204
 20
10.2838673966
 11
-2.7190012764
 21
10.2838673966
  0
LINE
  5
46E
100
AcDbEntity
  8
RACCORDO
100
AcDbLine
 62
7
  6
CONTINUOUS
 10
-45.9665598799
 20
10.310048
 11
-45.1666970117
 21
10.310048
  0
LINE
  5
46F
100
AcDbEntity
  8
0
100
AcDbLine
 62
7
  6
CONTINUOUS
 10
-2.6666360816
 20
10.310048
 11
-1.6667122834
 21
10.310048
  0
LINE
  5
470
100
AcDbEntity
  8
0
100
AcDbLine
 62
7
  6
CONTINUOUS
 10
-1.6667122834
 20
10.510048
 11
-2.4665751516
 21
10.510048
  0
LINE
  5
471
100
AcDbEntity
  8
0
100
AcDbLine
 62
7
  6
CONTINUOUS
 10
-44.9666360816
 20
10.510048
 11
-45.9665598799
 21
10.510048
  0
LINE
  5
472
100
AcDbEntity
  8
0
100
AcDbLine
 62
7
  6
CONTINUOUS
 10
-2.5661659577
 20
10.5362286034
 11
-6.9846883204
 21
10.5362286034
  0
LINE
  5
473
100
AcDbEntity
  8
0
100
AcDbLine
 62
7
  6
CONTINUOUS
 10
-18.1485838428
 20
10.5362286034
 11
-29.4846883204
 21
10.5362286034
  0
LINE
  5
474
100
AcDbEntity
  8
0
100
AcDbLine
 62
7
  6
CONTINUOUS
 10
-40.6485838428
 20
10.5362286034
 11
-44.9142708868
 21
10.5362286034
  0
LINE
  5
475
100
AcDbEntity
  8
0
100
AcDbLine
 62
7
  6
CONTINUOUS
 10
-40.6445307902
 20
10.2838341573
 11
-40.6485838428
 21
10.2838673966
  0
LINE
  5
476
100
AcDbEntity
  8
0
100
AcDbLine
 62
7
  6
CONTINUOUS
 10
-18.1445307902
 20
10.2838341573
 11
-18.1485838428
 21
10.2838673966
  0
LINE
  5
477
100
AcDbEntity
  8
0
100
AcDbLine
 62
7
  6
CONTINUOUS
 10
-29.488741373
 20
10.5362618427
 11
-29.4846883204
 21
10.5362286034
  0
LINE
  5
478
100
AcDbEntity
  8
0
100
AcDbLine
 62
7
  6
CONTINUOUS
 10
-6.988741373
 20
10.5362618427
 11
-6.9846883204
 21
10.5362286034
  0
LINE
  5
479
100
AcDbEntity
  8
0
100
AcDbLine
 62
253
  6
CONTINUOUS
 10
-40.4166360816
 20
10.0829870942
 11
-39.7528500619
 21
10.0729537173
  0
LINE
  5
47A
100
AcDbEntity
  8
0
100
AcDbLine
 62
7
  6
CONTINUOUS
 10
-40.6445550063
 20
10.2838369608
 11
-39.9498204923
 21
10.2733357857
  0
LINE
  5
47B
100
AcDbEntity
  8
0
100
AcDbLine
 62
253
  6
CONTINUOUS
 10
-17.9166360816
 20
10.0829870942
 11
-17.2528500619
 21
10.0729537173
  0
LINE
  5
47C
100
AcDbEntity
  8
0
100
AcDbLine
 62
7
  6
CONTINUOUS
 10
-18.1445550063
 20
10.2838369608
 11
-17.4498204923
 21
10.2733357857
  0
LINE
  5
47D
100
AcDbEntity
  8
0
100
AcDbLine
 62
7
  6
CONTINUOUS
 10
-29.488717157
 20
10.5362590392
 11
-30.183451671
 21
10.5467602143
  0
LINE
  5
47E
100
AcDbEntity
  8
0
100
AcDbLine
 62
253
  6
CONTINUOUS
 10
-29.7166360816
 20
10.7371089058
 11
-30.3804221014
 21
10.7471422827
  0
LINE
  5
47F
100
AcDbEntity
  8
0
100
AcDbLine
 62
253
  6
CONTINUOUS
 10
-39.957025104
 20
-8.7803524454
 11
-39.9640294448
 21
-8.7873567863
  0
LINE
  5
480
100
AcDbEntity
  8
0
100
AcDbLine
 62
7
  6
CONTINUOUS
 10
-3.3400403327
 20
27.4600481049
 11
-3.4038701346
 21
27.405048
  0
LINE
  5
481
100
AcDbEntity
  8
0
100
AcDbLine
 62
7
  6
CONTINUOUS
 10
-43.2400403103
 20
-7.3549518951
 11
-43.1123807511
 21
-7.244952
  0
LINE
  5
482
100
AcDbEntity
  8
0
100
AcDbLine
 62
7
  6
CONTINUOUS
 10
-4.3932318529
 20
25.7000480525
 11
-4.4889765224
 21
25.6175480525
  0
LINE
  5
483
100
AcDbEntity
  8
0
100
AcDbLine
 62
7
  6
CONTINUOUS
 10
-43.2400403103
 20
-8.5924522098
 11
-43.1123807511
 21
-8.482452
  0
LINE
  5
484
100
AcDbEntity
  8
0
100
AcDbLine
 62
7
  6
CONTINUOUS
 10
-4.3932318529
 20
24.5725480262
 11
-4.5208914122
 21
24.4625479738
  0
LINE
  5
485
100
AcDbEntity
  8
0
100
AcDbLine
 62
7
  6
CONTINUOUS
 10
-3.3400403327
 20
24.930048
 11
-3.2442956521
 21
25.012548
  0
LINE
  5
486
100
AcDbEntity
  8
0
100
AcDbLine
 62
7
  6
CONTINUOUS
 10
-44.2613169408
 20
-5.264952
 11
-44.3889765112
 21
-5.347452
  0
LINE
  5
487
100
AcDbEntity
  8
0
100
AcDbLine
 62
7
  6
CONTINUOUS
 10
-5.9548920816
 20
15.553928
 11
-6.9546190816
 21
15.191729
  0
LINE
  5
488
100
AcDbEntity
  8
0
100
AcDbLine
 62
7
  6
CONTINUOUS
 10
-3.0786530816
 20
15.812999
 11
-4.0791890816
 21
15.4508
  0
LINE
  5
489
100
AcDbEntity
  8
0
100
AcDbLine
 62
7
  6
CONTINUOUS
 10
-6.2460740816
 20
15.307393
 11
-5.9548920816
 21
15.406314
  0
LINE
  5
48A
100
AcDbEntity
  8
0
100
AcDbLine
 62
7
  6
CONTINUOUS
 10
-3.3698360816
 20
15.566465
 11
-3.0786530816
 21
15.665386
  0
LINE
  5
48B
100
AcDbEntity
  8
0
100
AcDbLine
 62
7
  6
CONTINUOUS
 10
-6.1051800816
 20
14.064814
 11
-6.9546190816
 21
13.777875
  0
LINE
  5
48C
100
AcDbEntity
  8
0
100
AcDbLine
 62
7
  6
CONTINUOUS
 10
-6.7928510816
 20
13.715189
 11
-5.9548920816
 21
13.996585
  0
LINE
  5
48D
100
AcDbEntity
  8
0
100
AcDbLine
 62
7
  6
CONTINUOUS
 10
-6.8097230816
 20
15.109606
 11
-6.3657830816
 21
15.25862
  0
LINE
  5
48E
100
AcDbEntity
  8
0
100
AcDbLine
 62
7
  6
CONTINUOUS
 10
-3.9334830816
 20
15.368678
 11
-3.4895440816
 21
15.517692
  0
LINE
  5
48F
100
AcDbEntity
  8
0
100
AcDbLine
 62
7
  6
CONTINUOUS
 10
-39.9498204923
 20
10.5467602143
 11
-40.6445550063
 21
10.5362590392
  0
LINE
  5
490
100
AcDbEntity
  8
0
100
AcDbLine
 62
253
  6
CONTINUOUS
 10
-39.7528500619
 20
10.7471422827
 11
-40.4166360816
 21
10.7371089058
  0
LINE
  5
491
100
AcDbEntity
  8
0
100
AcDbLine
 62
7
  6
CONTINUOUS
 10
-39.2528691003
 20
11.6962619802
 11
-30.8804030629
 21
11.6962619802
  0
LINE
  5
492
100
AcDbEntity
  8
0
100
AcDbLine
 62
7
  6
CONTINUOUS
 10
-16.7528691003
 20
11.6962619802
 11
-8.3804030629
 21
11.6962619802
  0
LINE
  5
493
100
AcDbEntity
  8
DRAFT
100
AcDbLine
 62
7
  6
CONTINUOUS
 10
-2.7190012764
 20
11.710048
 11
-6.7166360816
 21
11.710048
  0
LINE
  5
494
100
AcDbEntity
  8
DRAFT
100
AcDbLine
 62
7
  6
CONTINUOUS
 10
-18.4166360816
 20
11.710048
 11
-29.2166360816
 21
11.710048
  0
LINE
  5
495
100
AcDbEntity
  8
RACCORDO
100
AcDbLine
 62
7
  6
CONTINUOUS
 10
-40.9166360816
 20
11.710048
 11
-44.7145446831
 21
11.710048
  0
LINE
  5
496
100
AcDbEntity
  8
RACCORDO
100
AcDbLine
 62
7
  6
CONTINUOUS
 10
-2.9277592745
 20
11.7712900645
 11
-6.7105272742
 21
11.7712900645
  0
LINE
  5
497
100
AcDbEntity
  8
DRAFT
100
AcDbLine
 62
7
  6
CONTINUOUS
 10
-18.4227448891
 20
11.7712900645
 11
-29.2105272742
 21
11.7712900645
  0
LINE
  5
498
100
AcDbEntity
  8
RACCORDO
100
AcDbLine
 62
7
  6
CONTINUOUS
 10
-40.9227448891
 20
11.7712900645
 11
-44.7023261376
 21
11.7712900645
  0
LINE
  5
499
100
AcDbEntity
  8
0
100
AcDbLine
 62
253
  6
CONTINUOUS
 10
-18.4166360816
 20
11.960048
 11
-18.4227448891
 21
11.960048
  0
LINE
  5
49A
100
AcDbEntity
  8
0
100
AcDbLine
 62
253
  6
CONTINUOUS
 10
-40.9166360816
 20
11.960048
 11
-40.9227448891
 21
11.960048
  0
LINE
  5
49B
100
AcDbEntity
  8
0
100
AcDbLine
 62
253
  6
CONTINUOUS
 10
-29.2166360816
 20
11.960048
 11
-29.2105272742
 21
11.960048
  0
LINE
  5
49C
100
AcDbEntity
  8
0
100
AcDbLine
 62
253
  6
CONTINUOUS
 10
-6.7166360816
 20
11.960048
 11
-6.7105272742
 21
11.960048
  0
LINE
  5
49D
100
AcDbEntity
  8
0
100
AcDbLine
 62
7
  6
CONTINUOUS
 10
-39.9836233797
 20
12.360048
 11
-30.1496487835
 21
12.360048
  0
LINE
  5
49E
100
AcDbEntity
  8
0
100
AcDbLine
 62
7
  6
CONTINUOUS
 10
-17.4836233797
 20
12.360048
 11
-7.6496487835
 21
12.360048
  0
LINE
  5
49F
100
AcDbEntity
  8
0
100
AcDbLine
 62
7
  6
CONTINUOUS
 10
-6.988717157
 20
10.5362590392
 11
-7.683451671
 21
10.5467602143
  0
LINE
  5
4A0
100
AcDbEntity
  8
0
100
AcDbLine
 62
253
  6
CONTINUOUS
 10
-7.2166360816
 20
10.7371089058
 11
-7.8804221014
 21
10.7471422827
  0
LINE
  5
4A1
100
AcDbEntity
  8
0
100
AcDbLine
 62
253
  6
CONTINUOUS
 10
-39.957025104
 20
29.6004484454
 11
-39.9640294448
 21
29.6074527863
  0
LINE
  5
4A2
100
AcDbEntity
  8
0
100
AcDbLine
 62
7
  6
CONTINUOUS
 10
-4.4251467428
 20
29.137548
 11
-4.3613169631
 21
29.220048
  0
LINE
  5
4A3
100
AcDbEntity
  8
0
100
AcDbLine
 62
253
  6
CONTINUOUS
 10
-39.6570365271
 20
-9.0803410223
 11
-39.6640408679
 21
-9.0873453632
  0
LINE
  5
4A4
100
AcDbEntity
  8
0
100
AcDbLine
 62
7
  6
CONTINUOUS
 10
-43.8145084164
 20
-6.1449521049
 11
-43.6868488571
 21
-6.0624521049
  0
LINE
  5
4A5
100
AcDbEntity
  8
0
100
AcDbLine
 62
7
  6
CONTINUOUS
 10
-43.2719552001
 20
-3.5599519738
 11
-43.3676998696
 21
-3.614952
  0
LINE
  5
4A6
100
AcDbEntity
  8
0
100
AcDbLine
 62
7
  6
CONTINUOUS
 10
-44.2613169408
 20
-4.274952
 11
-44.0698275796
 21
-4.1649519475
  0
LINE
  5
4A7
100
AcDbEntity
  8
0
100
AcDbLine
 62
7
  6
CONTINUOUS
 10
-43.2719552001
 20
-4.7149520525
 11
-43.4634446284
 21
-4.8249519475
  0
LINE
  5
4A8
100
AcDbEntity
  8
0
100
AcDbLine
 62
7
  6
CONTINUOUS
 10
-43.8145084164
 20
-5.9799521049
 11
-43.9102530858
 21
-6.0349518951
  0
LINE
  5
4A9
100
AcDbEntity
  8
0
100
AcDbLine
 62
7
  6
CONTINUOUS
 10
-44.2613169408
 20
-6.4474518951
 11
-44.3570616102
 21
-6.502452
  0
LINE
  5
4AA
100
AcDbEntity
  8
0
100
AcDbLine
 62
7
  6
CONTINUOUS
 10
-7.6166703522
 20
12.860048
 11
-8.4666360816
 21
12.860048
  0
LINE
  5
4AB
100
AcDbEntity
  8
0
100
AcDbLine
 62
7
  6
CONTINUOUS
 10
-9.8192427185
 20
12.860048
 11
-15.3140294448
 21
12.860048
  0
LINE
  5
4AC
100
AcDbEntity
  8
0
100
AcDbLine
 62
7
  6
CONTINUOUS
 10
-16.6666360816
 20
12.860048
 11
-17.5166018111
 21
12.860048
  0
LINE
  5
4AD
100
AcDbEntity
  8
0
100
AcDbLine
 62
7
  6
CONTINUOUS
 10
-30.1166703522
 20
12.860048
 11
-30.9666360816
 21
12.860048
  0
LINE
  5
4AE
100
AcDbEntity
  8
0
100
AcDbLine
 62
7
  6
CONTINUOUS
 10
-32.3192427185
 20
12.860048
 11
-37.8140294448
 21
12.860048
  0
LINE
  5
4AF
100
AcDbEntity
  8
0
100
AcDbLine
 62
7
  6
CONTINUOUS
 10
-39.1666360816
 20
12.860048
 11
-40.0166018111
 21
12.860048
  0
LINE
  5
4B0
100
AcDbEntity
  8
0
100
AcDbLine
 62
7
  6
CONTINUOUS
 10
-8.7666246586
 20
13.410048
 11
-9.6140294448
 21
13.410048
  0
LINE
  5
4B1
100
AcDbEntity
  8
0
100
AcDbLine
 62
7
  6
CONTINUOUS
 10
-15.5192427185
 20
13.410048
 11
-16.3666475047
 21
13.410048
  0
LINE
  5
4B2
100
AcDbEntity
  8
0
100
AcDbLine
 62
7
  6
CONTINUOUS
 10
-31.2666246586
 20
13.410048
 11
-32.1140294448
 21
13.410048
  0
LINE
  5
4B3
100
AcDbEntity
  8
0
100
AcDbLine
 62
7
  6
CONTINUOUS
 10
-38.0192427185
 20
13.410048
 11
-38.8666475047
 21
13.410048
  0
LINE
  5
4B4
100
AcDbEntity
  8
0
100
AcDbLine
 62
7
  6
CONTINUOUS
 10
-8.7605158511
 20
13.4161568075
 11
-9.3105272742
 21
13.4161568075
  0
LINE
  5
4B5
100
AcDbEntity
  8
0
100
AcDbLine
 62
7
  6
CONTINUOUS
 10
-15.8227448891
 20
13.4161568075
 11
-16.3727563122
 21
13.4161568075
  0
LINE
  5
4B6
100
AcDbEntity
  8
0
100
AcDbLine
 62
7
  6
CONTINUOUS
 10
-31.2605158511
 20
13.4161568075
 11
-31.8105272742
 21
13.4161568075
  0
LINE
  5
4B7
100
AcDbEntity
  8
0
100
AcDbLine
 62
7
  6
CONTINUOUS
 10
-38.3227448891
 20
13.4161568075
 11
-38.8727563122
 21
13.4161568075
  0
LINE
  5
4B8
100
AcDbEntity
  8
0
100
AcDbLine
 62
7
  6
CONTINUOUS
 10
-6.9546190816
 20
13.584238
 11
-5.9548920816
 21
13.584238
  0
LINE
  5
4B9
100
AcDbEntity
  8
0
100
AcDbLine
 62
7
  6
CONTINUOUS
 10
-5.9548920816
 20
13.715189
 11
-6.7928510816
 21
13.715189
  0
LINE
  5
4BA
100
AcDbEntity
  8
0
100
AcDbLine
 62
7
  6
CONTINUOUS
 10
-4.0791890816
 20
13.790331
 11
-3.0786530816
 21
13.790331
  0
LINE
  5
4BB
100
AcDbEntity
  8
0
100
AcDbLine
 62
7
  6
CONTINUOUS
 10
-3.0786530816
 20
13.925488
 11
-4.0791890816
 21
13.925488
  0
LINE
  5
4BC
100
AcDbEntity
  8
0
100
AcDbLine
 62
7
  6
CONTINUOUS
 10
-4.0791890816
 20
14.070432
 11
-3.9594810816
 21
14.070432
  0
LINE
  5
4BD
100
AcDbEntity
  8
0
100
AcDbLine
 62
7
  6
CONTINUOUS
 10
-3.9594810816
 20
14.408932
 11
-3.0786530816
 21
14.408932
  0
LINE
  5
4BE
100
AcDbEntity
  8
0
100
AcDbLine
 62
7
  6
CONTINUOUS
 10
-6.7944680816
 20
14.411682
 11
-5.9548920816
 21
14.411682
  0
LINE
  5
4BF
100
AcDbEntity
  8
0
100
AcDbLine
 62
7
  6
CONTINUOUS
 10
-5.9548920816
 20
14.542634
 11
-6.9546190816
 21
14.542634
  0
LINE
  5
4C0
100
AcDbEntity
  8
0
100
AcDbLine
 62
7
  6
CONTINUOUS
 10
-3.0786530816
 20
14.544009
 11
-3.9594810816
 21
14.544009
  0
LINE
  5
4C1
100
AcDbEntity
  8
0
100
AcDbLine
 62
253
  6
CONTINUOUS
 10
-38.3192312954
 20
14.5666294149
 11
-37.5140408679
 21
14.5666294149
  0
LINE
  5
4C2
100
AcDbEntity
  8
0
100
AcDbLine
 62
253
  6
CONTINUOUS
 10
-32.6192312954
 20
14.5666294149
 11
-31.8140408679
 21
14.5666294149
  0
LINE
  5
4C3
100
AcDbEntity
  8
0
100
AcDbLine
 62
253
  6
CONTINUOUS
 10
-15.8192312954
 20
14.5666294149
 11
-15.0140408679
 21
14.5666294149
  0
LINE
  5
4C4
100
AcDbEntity
  8
0
100
AcDbLine
 62
253
  6
CONTINUOUS
 10
-10.1192312954
 20
14.5666294149
 11
-9.3140408679
 21
14.5666294149
  0
LINE
  5
4C5
100
AcDbEntity
  8
0
100
AcDbLine
 62
253
  6
CONTINUOUS
 10
-9.6140294448
 20
14.7594656978
 11
-9.8192427185
 21
14.7594656978
  0
LINE
  5
4C6
100
AcDbEntity
  8
0
100
AcDbLine
 62
253
  6
CONTINUOUS
 10
-15.3140294448
 20
14.7594656978
 11
-15.5192427185
 21
14.7594656978
  0
LINE
  5
4C7
100
AcDbEntity
  8
0
100
AcDbLine
 62
253
  6
CONTINUOUS
 10
-32.1140294448
 20
14.7594656978
 11
-32.3192427185
 21
14.7594656978
  0
LINE
  5
4C8
100
AcDbEntity
  8
0
100
AcDbLine
 62
253
  6
CONTINUOUS
 10
-37.8140294448
 20
14.7594656978
 11
-38.0192427185
 21
14.7594656978
  0
LINE
  5
4C9
100
AcDbEntity
  8
0
100
AcDbLine
 62
7
  6
CONTINUOUS
 10
-3.9594810816
 20
14.882509
 11
-4.0791890816
 21
14.882509
  0
LINE
  5
4CA
100
AcDbEntity
  8
0
100
AcDbLine
 62
253
  6
CONTINUOUS
 10
-39.6570365271
 20
29.9004370223
 11
-39.6640408679
 21
29.9074413632
  0
LINE
  5
4CB
100
AcDbEntity
  8
DRAFT
100
AcDbLine
 62
7
  6
CONTINUOUS
 10
-18.4166360816
 20
11.710048
 11
-18.4227448891
 21
11.7712900645
  0
LINE
  5
4CC
100
AcDbEntity
  8
0
100
AcDbLine
 62
7
  6
CONTINUOUS
 10
-18.4227448891
 20
9.0515739978
 11
-18.4227448891
 21
8.860048
  0
LINE
  5
4CD
100
AcDbEntity
  8
0
100
AcDbLine
 62
7
  6
CONTINUOUS
 10
-18.4227448891
 20
11.7712900645
 11
-18.4227448891
 21
11.960048
  0
LINE
  5
4CE
100
AcDbEntity
  8
0
100
AcDbLine
 62
7
  6
CONTINUOUS
 10
-18.4166360816
 20
11.960048
 11
-18.4166360816
 21
11.710048
  0
LINE
  5
4CF
100
AcDbEntity
  8
0
100
AcDbLine
 62
7
  6
CONTINUOUS
 10
-18.4166360816
 20
9.0576828052
 11
-18.4166360816
 21
8.860048
  0
LINE
  5
4D0
100
AcDbEntity
  8
0
100
AcDbLine
 62
7
  6
CONTINUOUS
 10
-17.9166360816
 20
8.8930607019
 11
-17.9166360816
 21
10.0829870942
  0
LINE
  5
4D1
100
AcDbEntity
  8
0
100
AcDbLine
 62
7
  6
CONTINUOUS
 10
-17.9166360816
 20
10.7371089058
 11
-17.9166360816
 21
11.9270352981
  0
LINE
  5
4D2
100
AcDbEntity
  8
0
100
AcDbLine
 62
7
  6
CONTINUOUS
 10
-17.2528500619
 20
9.6238149813
 11
-17.2528500619
 21
10.0729537173
  0
LINE
  5
4D3
100
AcDbEntity
  8
0
100
AcDbLine
 62
7
  6
CONTINUOUS
 10
-17.2528500619
 20
10.7471422827
 11
-17.2528500619
 21
11.1962810187
  0
LINE
  5
4D4
100
AcDbEntity
  8
0
100
AcDbLine
 62
7
  6
CONTINUOUS
 10
-4.4251467428
 20
27.9275478951
 11
-4.3613169631
 21
28.0100478951
  0
LINE
  5
4D5
100
AcDbEntity
  8
0
100
AcDbLine
 62
7
  6
CONTINUOUS
 10
-3.7868488571
 20
27.9550481049
 11
-3.7230190775
 21
28.0375481049
  0
LINE
  5
4D6
100
AcDbEntity
  8
0
100
AcDbLine
 62
7
  6
CONTINUOUS
 10
-3.8825935265
 20
26.7175481049
 11
-3.8187637469
 21
26.8000481049
  0
LINE
  5
4D7
100
AcDbEntity
  8
0
100
AcDbLine
 62
7
  6
CONTINUOUS
 10
-3.276210553
 20
27.322548
 11
-3.2123807622
 21
27.405048
  0
LINE
  5
4D8
100
AcDbEntity
  8
0
100
AcDbLine
 62
7
  6
CONTINUOUS
 10
-4.4251467428
 20
25.4525480525
 11
-4.3613169631
 21
25.5350480525
  0
LINE
  5
4D9
100
AcDbEntity
  8
0
100
AcDbLine
 62
7
  6
CONTINUOUS
 10
-3.3081254429
 20
26.332548
 11
-3.3719552225
 21
26.250048
  0
LINE
  5
4DA
100
AcDbEntity
  8
0
100
AcDbLine
 62
7
  6
CONTINUOUS
 10
-18.4166360816
 20
9.0576828052
 11
-18.4227448891
 21
9.0515739978
  0
LINE
  5
4DB
100
AcDbEntity
  8
0
100
AcDbLine
 62
253
  6
CONTINUOUS
 10
-17.2489264635
 20
9.56077032
 11
-17.9166360816
 21
8.8930607019
  0
LINE
  5
4DC
100
AcDbEntity
  8
0
100
AcDbLine
 62
253
  6
CONTINUOUS
 10
-17.4836233797
 20
8.460048
 11
-16.8159137617
 21
9.1277576181
  0
LINE
  5
4DD
100
AcDbEntity
  8
0
100
AcDbLine
 62
7
  6
CONTINUOUS
 10
-4.0791890816
 20
16.416152
 11
-3.4814560816
 21
16.793719
  0
LINE
  5
4DE
100
AcDbEntity
  8
0
100
AcDbLine
 62
7
  6
CONTINUOUS
 10
-5.3291750816
 20
15.422329
 11
-4.5167720816
 21
15.933517
  0
LINE
  5
4DF
100
AcDbEntity
  8
0
100
AcDbLine
 62
7
  6
CONTINUOUS
 10
-4.7047070816
 20
15.954466
 11
-5.5165000816
 21
15.451528
  0
LINE
  5
4E0
100
AcDbEntity
  8
0
100
AcDbLine
 62
7
  6
CONTINUOUS
 10
-3.5987380816
 20
16.860529
 11
-4.0791890816
 21
16.573553
  0
LINE
  5
4E1
100
AcDbEntity
  8
0
100
AcDbLine
 62
7
  6
CONTINUOUS
 10
-43.9102530858
 20
-7.3824521049
 11
-43.8145084164
 21
-7.327452
  0
LINE
  5
4E2
100
AcDbEntity
  8
0
100
AcDbLine
 62
7
  6
CONTINUOUS
 10
-43.2719552001
 20
-7.1899518951
 11
-43.3676998696
 21
-7.244952
  0
LINE
  5
4E3
100
AcDbEntity
  8
0
100
AcDbLine
 62
7
  6
CONTINUOUS
 10
-44.165572249
 20
-4.0549519738
 11
-44.2932318306
 21
-4.109952
  0
LINE
  5
4E4
100
AcDbEntity
  8
0
100
AcDbLine
 62
7
  6
CONTINUOUS
 10
-44.1336573592
 20
-5.2099520525
 11
-44.2613169408
 21
-5.264952
  0
LINE
  5
4E5
100
AcDbEntity
  8
0
100
AcDbLine
 62
7
  6
CONTINUOUS
 10
-43.3676998696
 20
-4.934952
 11
-43.2400403103
 21
-4.8799520525
  0
LINE
  5
4E6
100
AcDbEntity
  8
0
100
AcDbLine
 62
7
  6
CONTINUOUS
 10
-44.2613169408
 20
-5.429952
 11
-44.1336573592
 21
-5.3749520525
  0
LINE
  5
4E7
100
AcDbEntity
  8
0
100
AcDbLine
 62
7
  6
CONTINUOUS
 10
-5.5165000816
 20
14.924973
 11
-4.5167720816
 21
14.924973
  0
LINE
  5
4E8
100
AcDbEntity
  8
0
100
AcDbLine
 62
7
  6
CONTINUOUS
 10
-4.5167720816
 20
15.06013
 11
-5.5165000816
 21
15.06013
  0
LINE
  5
4E9
100
AcDbEntity
  8
0
100
AcDbLine
 62
7
  6
CONTINUOUS
 10
-5.5165000816
 20
15.291297
 11
-4.5167720816
 21
15.291297
  0
LINE
  5
4EA
100
AcDbEntity
  8
0
100
AcDbLine
 62
7
  6
CONTINUOUS
 10
-4.5167720816
 20
15.422329
 11
-5.3291750816
 21
15.422329
  0
LINE
  5
4EB
100
AcDbEntity
  8
0
100
AcDbLine
 62
7
  6
CONTINUOUS
 10
-38.0247390161
 20
15.510048
 11
-37.8085331471
 21
15.510048
  0
LINE
  5
4EC
100
AcDbEntity
  8
0
100
AcDbLine
 62
7
  6
CONTINUOUS
 10
-32.3247390161
 20
15.510048
 11
-32.1085331471
 21
15.510048
  0
LINE
  5
4ED
100
AcDbEntity
  8
0
100
AcDbLine
 62
7
  6
CONTINUOUS
 10
-15.5247390161
 20
15.510048
 11
-15.3085331471
 21
15.510048
  0
LINE
  5
4EE
100
AcDbEntity
  8
0
100
AcDbLine
 62
7
  6
CONTINUOUS
 10
-9.8247390161
 20
15.510048
 11
-9.6085331471
 21
15.510048
  0
LINE
  5
4EF
100
AcDbEntity
  8
0
100
AcDbLine
 62
7
  6
CONTINUOUS
 10
-6.9546190816
 20
15.684879
 11
-5.9548920816
 21
15.684879
  0
LINE
  5
4F0
100
AcDbEntity
  8
0
100
AcDbLine
 62
7
  6
CONTINUOUS
 10
-6.0705560816
 20
15.819955
 11
-6.8389550816
 21
15.819955
  0
LINE
  5
4F1
100
AcDbEntity
  8
0
100
AcDbLine
 62
7
  6
CONTINUOUS
 10
-4.0791890816
 20
15.936995
 11
-3.0786530816
 21
15.936995
  0
LINE
  5
4F2
100
AcDbEntity
  8
0
100
AcDbLine
 62
7
  6
CONTINUOUS
 10
-5.5165000816
 20
15.954466
 11
-4.7047070816
 21
15.954466
  0
LINE
  5
4F3
100
AcDbEntity
  8
0
100
AcDbLine
 62
7
  6
CONTINUOUS
 10
-3.1983620816
 20
16.072071
 11
-4.0791890816
 21
16.072071
  0
LINE
  5
4F4
100
AcDbEntity
  8
0
100
AcDbLine
 62
7
  6
CONTINUOUS
 10
-4.5167720816
 20
16.085336
 11
-5.5165000816
 21
16.085336
  0
LINE
  5
4F5
100
AcDbEntity
  8
0
100
AcDbLine
 62
7
  6
CONTINUOUS
 10
-37.8769434608
 20
16.110048
 11
-9.7563287024
 21
16.110048
  0
LINE
  5
4F6
100
AcDbEntity
  8
0
100
AcDbLine
 62
7
  6
CONTINUOUS
 10
-3.0786530816
 20
16.579134
 11
-3.1983620816
 21
16.579134
  0
LINE
  5
4F7
100
AcDbEntity
  8
0
100
AcDbLine
 62
7
  6
CONTINUOUS
 10
-6.9546190816
 20
16.697548
 11
-5.9548920816
 21
16.697548
  0
LINE
  5
4F8
100
AcDbEntity
  8
0
100
AcDbLine
 62
7
  6
CONTINUOUS
 10
-3.4814560816
 20
16.793719
 11
-3.0786530816
 21
16.793719
  0
LINE
  5
4F9
100
AcDbEntity
  8
0
100
AcDbLine
 62
7
  6
CONTINUOUS
 10
-6.0746000816
 20
16.832705
 11
-6.4086510816
 21
16.832705
  0
LINE
  5
4FA
100
AcDbEntity
  8
0
100
AcDbLine
 62
7
  6
CONTINUOUS
 10
-6.5283600816
 20
16.832705
 11
-6.8349100816
 21
16.832705
  0
LINE
  5
4FB
100
AcDbEntity
  8
0
100
AcDbLine
 62
7
  6
CONTINUOUS
 10
-3.0786530816
 20
16.928795
 11
-3.4814560816
 21
16.928795
  0
LINE
  5
4FC
100
AcDbEntity
  8
0
100
AcDbLine
 62
253
  6
CONTINUOUS
 10
-17.9166360816
 20
11.9270352981
 11
-17.2489264635
 21
11.25932568
  0
LINE
  5
4FD
100
AcDbEntity
  8
0
100
AcDbLine
 62
253
  6
CONTINUOUS
 10
-16.8159137617
 20
11.6923383819
 11
-17.4836233797
 21
12.360048
  0
LINE
  5
4FE
100
AcDbEntity
  8
0
100
AcDbLine
 62
253
  6
CONTINUOUS
 10
-15.8192312954
 20
14.5666294149
 11
-15.8227448891
 21
15.046450816
  0
LINE
  5
4FF
100
AcDbEntity
  8
0
100
AcDbLine
 62
253
  6
CONTINUOUS
 10
-15.5192427185
 20
14.7594656978
 11
-15.5247390161
 21
15.510048
  0
LINE
  5
500
100
AcDbEntity
  8
0
100
AcDbLine
 62
253
  6
CONTINUOUS
 10
-15.3140294448
 20
6.0606303022
 11
-15.3085331471
 21
5.310048
  0
LINE
  5
501
100
AcDbEntity
  8
0
100
AcDbLine
 62
7
  6
CONTINUOUS
 10
-16.6727448891
 20
13.1161682305
 11
-16.6727448891
 21
12.860048
  0
LINE
  5
502
100
AcDbEntity
  8
0
100
AcDbLine
 62
7
  6
CONTINUOUS
 10
-16.6727448891
 20
7.960048
 11
-16.6727448891
 21
7.7039277695
  0
LINE
  5
503
100
AcDbEntity
  8
0
100
AcDbLine
 62
7
  6
CONTINUOUS
 10
-16.6666360816
 20
13.1100594231
 11
-16.6666360816
 21
12.860048
  0
LINE
  5
504
100
AcDbEntity
  8
0
100
AcDbLine
 62
7
  6
CONTINUOUS
 10
-16.6666360816
 20
7.960048
 11
-16.6666360816
 21
7.7100365769
  0
LINE
  5
505
100
AcDbEntity
  8
0
100
AcDbLine
 62
7
  6
CONTINUOUS
 10
-15.8227448891
 20
15.046450816
 11
-15.8227448891
 21
13.4161568075
  0
LINE
  5
506
100
AcDbEntity
  8
0
100
AcDbLine
 62
7
  6
CONTINUOUS
 10
-15.8227448891
 20
7.4039391925
 11
-15.8227448891
 21
5.773645184
  0
LINE
  5
507
100
AcDbEntity
  8
0
100
AcDbLine
 62
253
  6
CONTINUOUS
 10
-15.8192312954
 20
14.5666294149
 11
-15.8192312954
 21
13.4126432137
  0
LINE
  5
508
100
AcDbEntity
  8
0
100
AcDbLine
 62
253
  6
CONTINUOUS
 10
-15.8192312954
 20
7.4074527863
 11
-15.8192312954
 21
6.2534665851
  0
LINE
  5
509
100
AcDbEntity
  8
0
100
AcDbLine
 62
253
  6
CONTINUOUS
 10
-15.5192427185
 20
6.0606303022
 11
-15.5192427185
 21
7.410048
  0
LINE
  5
50A
100
AcDbEntity
  8
0
100
AcDbLine
 62
253
  6
CONTINUOUS
 10
-15.5192427185
 20
13.410048
 11
-15.5192427185
 21
14.7594656978
  0
LINE
  5
50B
100
AcDbEntity
  8
0
100
AcDbLine
 62
253
  6
CONTINUOUS
 10
-15.3140294448
 20
6.0606303022
 11
-15.3140294448
 21
7.960048
  0
LINE
  5
50C
100
AcDbEntity
  8
0
100
AcDbLine
 62
253
  6
CONTINUOUS
 10
-15.3140294448
 20
12.860048
 11
-15.3140294448
 21
14.7594656978
  0
LINE
  5
50D
100
AcDbEntity
  8
0
100
AcDbLine
 62
7
  6
CONTINUOUS
 10
-15.1509012537
 20
32.6015454308
 11
-15.1509012537
 21
31.046429153
  0
LINE
  5
50E
100
AcDbEntity
  8
0
100
AcDbLine
 62
7
  6
CONTINUOUS
 10
-15.1509012537
 20
-11.7814494308
 11
-15.1509012537
 21
-10.226333153
  0
LINE
  5
50F
100
AcDbEntity
  8
0
100
AcDbLine
 62
253
  6
CONTINUOUS
 10
-15.8227448891
 20
5.773645184
 11
-15.8192312954
 21
6.2534665851
  0
LINE
  5
510
100
AcDbEntity
  8
0
100
AcDbLine
 62
253
  6
CONTINUOUS
 10
-15.5247390161
 20
5.310048
 11
-15.5192427185
 21
6.0606303022
  0
LINE
  5
511
100
AcDbEntity
  8
0
100
AcDbLine
 62
253
  6
CONTINUOUS
 10
-15.3085331471
 20
15.510048
 11
-15.3140294448
 21
14.7594656978
  0
LINE
  5
512
100
AcDbEntity
  8
0
100
AcDbLine
 62
7
  6
CONTINUOUS
 10
-4.5208914122
 20
29.302548
 11
-4.5847211918
 21
29.1925477902
  0
LINE
  5
513
100
AcDbEntity
  8
0
100
AcDbLine
 62
7
  6
CONTINUOUS
 10
-4.5208914122
 20
28.065048
 11
-4.5847211918
 21
27.9550481049
  0
LINE
  5
514
100
AcDbEntity
  8
0
100
AcDbLine
 62
7
  6
CONTINUOUS
 10
-3.9464233062
 20
26.8825481049
 11
-4.0421679756
 21
26.745048
  0
LINE
  5
515
100
AcDbEntity
  8
0
100
AcDbLine
 62
7
  6
CONTINUOUS
 10
-4.4889765224
 20
25.6175480525
 11
-4.5847211918
 21
25.4800479475
  0
LINE
  5
516
100
AcDbEntity
  8
0
100
AcDbLine
 62
7
  6
CONTINUOUS
 10
-3.2442956521
 20
26.167548
 11
-3.1485509742
 21
26.3050481049
  0
LINE
  5
517
100
AcDbEntity
  8
0
100
AcDbLine
 62
7
  6
CONTINUOUS
 10
-3.2442956521
 20
25.012548
 11
-3.1485509742
 21
25.1500479475
  0
LINE
  5
518
100
AcDbEntity
  8
0
100
AcDbLine
 62
7
  6
CONTINUOUS
 10
-4.4251467428
 20
24.2975479738
 11
-4.3613169631
 21
24.3800479738
  0
LINE
  5
519
100
AcDbEntity
  8
0
100
AcDbLine
 62
7
  6
CONTINUOUS
 10
-3.3081254429
 20
25.177548
 11
-3.3719552225
 21
25.095048
  0
LINE
  5
51A
100
AcDbEntity
  8
0
100
AcDbLine
 62
253
  6
CONTINUOUS
 10
-16.6666360816
 20
7.7100365769
 11
-16.6727448891
 21
7.7039277695
  0
LINE
  5
51B
100
AcDbEntity
  8
0
100
AcDbLine
 62
253
  6
CONTINUOUS
 10
-16.3666475047
 20
7.410048
 11
-16.3727563122
 21
7.4039391925
  0
LINE
  5
51C
100
AcDbEntity
  8
0
100
AcDbLine
 62
7
  6
CONTINUOUS
 10
-15.8192312954
 20
7.4074527863
 11
-15.8227448891
 21
7.4039391925
  0
LINE
  5
51D
100
AcDbEntity
  8
0
100
AcDbLine
 62
7
  6
CONTINUOUS
 10
-9.3140408679
 20
13.4126432137
 11
-9.3105272742
 21
13.4161568075
  0
LINE
  5
51E
100
AcDbEntity
  8
0
100
AcDbLine
 62
253
  6
CONTINUOUS
 10
-8.7666246586
 20
13.410048
 11
-8.7605158511
 21
13.4161568075
  0
LINE
  5
51F
100
AcDbEntity
  8
0
100
AcDbLine
 62
7
  6
CONTINUOUS
 10
-43.2719552001
 20
-8.399952
 11
-43.3676998696
 21
-8.4549517902
  0
LINE
  5
520
100
AcDbEntity
  8
0
100
AcDbLine
 62
7
  6
CONTINUOUS
 10
-44.2294020286
 20
-6.584952
 11
-44.165572249
 21
-6.5574521049
  0
LINE
  5
521
100
AcDbEntity
  8
0
100
AcDbLine
 62
7
  6
CONTINUOUS
 10
-43.9102530858
 20
-7.2174521049
 11
-44.0379126897
 21
-7.2724518951
  0
LINE
  5
522
100
AcDbEntity
  8
0
100
AcDbLine
 62
7
  6
CONTINUOUS
 10
-41.5349960816
 20
-4.98713
 11
-42.5143890816
 21
-5.354415
  0
LINE
  5
523
100
AcDbEntity
  8
0
100
AcDbLine
 62
7
  6
CONTINUOUS
 10
-41.8472470816
 20
-5.378079
 11
-41.0145100816
 21
-5.068303
  0
LINE
  5
524
100
AcDbEntity
  8
0
100
AcDbLine
 62
7
  6
CONTINUOUS
 10
-41.0145100816
 20
-2.788718
 11
-42.5143890816
 21
-3.264209
  0
LINE
  5
525
100
AcDbEntity
  8
0
100
AcDbLine
 62
7
  6
CONTINUOUS
 10
-44.0698275796
 20
-4.027452
 11
-44.165572249
 21
-4.0549519738
  0
LINE
  5
526
100
AcDbEntity
  8
0
100
AcDbLine
 62
7
  6
CONTINUOUS
 10
-5.5863490816
 20
24.234824
 11
-6.6187620816
 21
23.94892
  0
LINE
  5
527
100
AcDbEntity
  8
0
100
AcDbLine
 62
7
  6
CONTINUOUS
 10
-6.4086510816
 20
17.380129
 11
-6.5283600816
 21
17.380129
  0
LINE
  5
528
100
AcDbEntity
  8
0
100
AcDbLine
 62
7
  6
CONTINUOUS
 10
-6.8349100816
 20
17.426071
 11
-6.9546190816
 21
17.426071
  0
LINE
  5
529
100
AcDbEntity
  8
0
100
AcDbLine
 62
7
  6
CONTINUOUS
 10
-5.9548920816
 20
17.435858
 11
-6.0746000816
 21
17.435858
  0
LINE
  5
52A
100
AcDbEntity
  8
0
100
AcDbLine
 62
253
  6
CONTINUOUS
 10
-16.6666360816
 20
13.1100594231
 11
-16.6727448891
 21
13.1161682305
  0
LINE
  5
52B
100
AcDbEntity
  8
0
100
AcDbLine
 62
253
  6
CONTINUOUS
 10
-16.3666475047
 20
13.410048
 11
-16.3727563122
 21
13.4161568075
  0
LINE
  5
52C
100
AcDbEntity
  8
0
100
AcDbLine
 62
7
  6
CONTINUOUS
 10
-15.8192312954
 20
13.4126432137
 11
-15.8227448891
 21
13.4161568075
  0
LINE
  5
52D
100
AcDbEntity
  8
0
100
AcDbLine
 62
7
  6
CONTINUOUS
 10
-9.3140408679
 20
7.4074527863
 11
-9.3105272742
 21
7.4039391925
  0
LINE
  5
52E
100
AcDbEntity
  8
0
100
AcDbLine
 62
253
  6
CONTINUOUS
 10
-8.7666246586
 20
7.410048
 11
-8.7605158511
 21
7.4039391925
  0
LINE
  5
52F
100
AcDbEntity
  8
0
100
AcDbLine
 62
253
  6
CONTINUOUS
 10
-15.0140408679
 20
6.2534665851
 11
-15.0105272742
 21
5.773645184
  0
LINE
  5
530
100
AcDbEntity
  8
0
100
AcDbLine
 62
253
  6
CONTINUOUS
 10
-15.0140408679
 20
6.2534665851
 11
-15.0140408679
 21
7.960048
  0
LINE
  5
531
100
AcDbEntity
  8
0
100
AcDbLine
 62
253
  6
CONTINUOUS
 10
-15.0140408679
 20
12.860048
 11
-15.0140408679
 21
14.5666294149
  0
LINE
  5
532
100
AcDbEntity
  8
0
100
AcDbLine
 62
7
  6
CONTINUOUS
 10
-15.0105272742
 20
5.773645184
 11
-15.0105272742
 21
7.960048
  0
LINE
  5
533
100
AcDbEntity
  8
0
100
AcDbLine
 62
7
  6
CONTINUOUS
 10
-15.0105272742
 20
12.860048
 11
-15.0105272742
 21
15.046450816
  0
LINE
  5
534
100
AcDbEntity
  8
0
100
AcDbLine
 62
253
  6
CONTINUOUS
 10
-14.8743711086
 20
-11.756321167
 11
-14.8743711086
 21
-10.167962093
  0
LINE
  5
535
100
AcDbEntity
  8
0
100
AcDbLine
 62
253
  6
CONTINUOUS
 10
-14.8743711086
 20
30.988058093
 11
-14.8743711086
 21
32.576417167
  0
LINE
  5
536
100
AcDbEntity
  8
0
100
AcDbLine
 62
253
  6
CONTINUOUS
 10
-14.7011660278
 20
-11.7510747914
 11
-14.7011660278
 21
-10.1557751586
  0
LINE
  5
537
100
AcDbEntity
  8
0
100
AcDbLine
 62
253
  6
CONTINUOUS
 10
-14.7011660278
 20
30.9758711586
 11
-14.7011660278
 21
32.5711707914
  0
LINE
  5
538
100
AcDbEntity
  8
0
100
AcDbLine
 62
253
  6
CONTINUOUS
 10
-15.0105272742
 20
15.046450816
 11
-15.0140408679
 21
14.5666294149
  0
LINE
  5
539
100
AcDbEntity
  8
0
100
AcDbLine
 62
7
  6
CONTINUOUS
 10
-3.8187637469
 20
28.147548
 11
-3.8825935265
 21
28.0100478951
  0
LINE
  5
53A
100
AcDbEntity
  8
0
100
AcDbLine
 62
7
  6
CONTINUOUS
 10
-3.3081254429
 20
27.5150478951
 11
-3.3400403327
 21
27.4600481049
  0
LINE
  5
53B
100
AcDbEntity
  8
0
100
AcDbLine
 62
7
  6
CONTINUOUS
 10
-3.2123807622
 20
27.405048
 11
-3.1485509742
 21
27.5150478951
  0
LINE
  5
53C
100
AcDbEntity
  8
0
100
AcDbLine
 62
7
  6
CONTINUOUS
 10
-4.5208914122
 20
24.4625479738
 11
-4.5847211918
 21
24.352548
  0
LINE
  5
53D
100
AcDbEntity
  8
0
100
AcDbLine
 62
253
  6
CONTINUOUS
 10
-8.4666360816
 20
13.1100594231
 11
-8.4605272742
 21
13.1161682305
  0
LINE
  5
53E
100
AcDbEntity
  8
0
100
AcDbLine
 62
253
  6
CONTINUOUS
 10
-7.6496487835
 20
12.360048
 11
-8.3173584016
 21
11.6923383819
  0
LINE
  5
53F
100
AcDbEntity
  8
0
100
AcDbLine
 62
253
  6
CONTINUOUS
 10
-7.8843456997
 20
11.25932568
 11
-7.2166360816
 21
11.9270352981
  0
LINE
  5
540
100
AcDbEntity
  8
DRAFT
100
AcDbLine
 62
7
  6
CONTINUOUS
 10
-2.6666360816
 20
10.310048
 11
-2.7190012764
 21
10.2838673966
  0
LINE
  5
541
100
AcDbEntity
  8
RACCORDO
100
AcDbLine
 62
253
  6
CONTINUOUS
 10
-2.931219823
 20
9.0515739978
 11
-2.9190012776
 21
9.0576828052
  0
LINE
  5
542
100
AcDbEntity
  8
0
100
AcDbLine
 62
7
  6
CONTINUOUS
 10
-43.9740829101
 20
-6.1999518951
 11
-43.8145084164
 21
-6.1449521049
  0
LINE
  5
543
100
AcDbEntity
  8
0
100
AcDbLine
 62
7
  6
CONTINUOUS
 10
-43.4634446284
 20
-4.9624520525
 11
-43.3676998696
 21
-4.934952
  0
LINE
  5
544
100
AcDbEntity
  8
0
100
AcDbLine
 62
7
  6
CONTINUOUS
 10
-43.9102530858
 20
-6.0349518951
 11
-44.0059977999
 21
-6.0624521049
  0
LINE
  5
545
100
AcDbEntity
  8
0
100
AcDbLine
 62
7
  6
CONTINUOUS
 10
-44.165572249
 20
-6.419952
 11
-44.2613169408
 21
-6.4474518951
  0
LINE
  5
546
100
AcDbEntity
  8
0
100
AcDbLine
 62
7
  6
CONTINUOUS
 10
-4.2655722937
 20
24.600048
 11
-4.3932318529
 21
24.5725480262
  0
LINE
  5
547
100
AcDbEntity
  8
0
100
AcDbLine
 62
7
  6
CONTINUOUS
 10
-3.7230190775
 20
24.8200480262
 11
-3.5634445837
 21
24.847548
  0
LINE
  5
548
100
AcDbEntity
  8
DRAFT
100
AcDbLine
 62
7
  6
CONTINUOUS
 10
-44.9524239561
 20
19.610048
 11
-44.4166360816
 21
19.610048
  0
LINE
  5
549
100
AcDbEntity
  8
DRAFT
100
AcDbLine
 62
7
  6
CONTINUOUS
 10
-3.2166360816
 20
19.610048
 11
-2.6808482071
 21
19.610048
  0
LINE
  5
54A
100
AcDbEntity
  8
0
100
AcDbLine
 62
7
  6
CONTINUOUS
 10
-5.9548920816
 20
14.130287
 11
-6.7944680816
 21
14.411682
  0
LINE
  5
54B
100
AcDbEntity
  8
0
100
AcDbLine
 62
7
  6
CONTINUOUS
 10
-6.9546190816
 20
14.350372
 11
-6.1051800816
 21
14.064814
  0
LINE
  5
54C
100
AcDbEntity
  8
0
100
AcDbLine
 62
7
  6
CONTINUOUS
 10
-5.9548920816
 20
14.801706
 11
-6.2460740816
 21
14.906208
  0
LINE
  5
54D
100
AcDbEntity
  8
0
100
AcDbLine
 62
7
  6
CONTINUOUS
 10
-6.3657830816
 20
14.948025
 11
-6.8097230816
 21
15.109606
  0
LINE
  5
54E
100
AcDbEntity
  8
0
100
AcDbLine
 62
7
  6
CONTINUOUS
 10
-6.9546190816
 20
15.038534
 11
-5.9548920816
 21
14.662423
  0
LINE
  5
54F
100
AcDbEntity
  8
RACCORDO
100
AcDbLine
 62
7
  6
CONTINUOUS
 10
-2.6084080822
 20
10.5573480571
 11
-2.5560428874
 21
10.5311674537
  0
LINE
  5
550
100
AcDbEntity
  8
RACCORDO
100
AcDbLine
 62
253
  6
CONTINUOUS
 10
-2.7190012764
 20
10.73626668
 11
-2.6666360816
 21
10.7100860766
  0
LINE
  5
551
100
AcDbEntity
  8
0
100
AcDbLine
 62
253
  6
CONTINUOUS
 10
-8.4666360816
 20
7.7100365769
 11
-8.4605272742
 21
7.7039277695
  0
LINE
  5
552
100
AcDbEntity
  8
0
100
AcDbLine
 62
253
  6
CONTINUOUS
 10
-8.3173584016
 20
9.1277576181
 11
-7.6496487835
 21
8.460048
  0
LINE
  5
553
100
AcDbEntity
  8
0
100
AcDbLine
 62
253
  6
CONTINUOUS
 10
-7.2166360816
 20
8.8930607019
 11
-7.8843456997
 21
9.56077032
  0
LINE
  5
554
100
AcDbEntity
  8
RACCORDO
100
AcDbLine
 62
253
  6
CONTINUOUS
 10
-2.7277897355
 20
8.8533117556
 11
-2.7190012764
 21
8.8577056505
  0
LINE
  5
555
100
AcDbEntity
  8
0
100
AcDbLine
 62
7
  6
CONTINUOUS
 10
-42.5143890816
 20
-7.423876
 11
-41.0145100816
 21
-6.963676
  0
LINE
  5
556
100
AcDbEntity
  8
0
100
AcDbLine
 62
7
  6
CONTINUOUS
 10
-5.4183120816
 20
27.832889
 11
-5.1188830816
 21
27.913994
  0
LINE
  5
557
100
AcDbEntity
  8
0
100
AcDbLine
 62
7
  6
CONTINUOUS
 10
-6.2066340816
 20
27.626453
 11
-5.6500100816
 21
27.770319
  0
LINE
  5
558
100
AcDbEntity
  8
0
100
AcDbLine
 62
7
  6
CONTINUOUS
 10
-4.0102530858
 20
25.8100479475
 11
-4.1698275349
 21
25.7825480525
  0
LINE
  5
559
100
AcDbEntity
  8
0
100
AcDbLine
 62
7
  6
CONTINUOUS
 10
-3.5634445837
 20
24.9850479475
 11
-3.7549339673
 21
24.9575480525
  0
LINE
  5
55A
100
AcDbEntity
  8
0
100
AcDbLine
 62
7
  6
CONTINUOUS
 10
-4.1698275349
 20
25.6450479475
 11
-3.978338196
 21
25.672548
  0
LINE
  5
55B
100
AcDbEntity
  8
0
100
AcDbLine
 62
7
  6
CONTINUOUS
 10
-3.0786530816
 20
15.060777
 11
-3.3698360816
 21
15.16528
  0
LINE
  5
55C
100
AcDbEntity
  8
0
100
AcDbLine
 62
7
  6
CONTINUOUS
 10
-3.4895440816
 20
15.207016
 11
-3.9334830816
 21
15.368678
  0
LINE
  5
55D
100
AcDbEntity
  8
0
100
AcDbLine
 62
7
  6
CONTINUOUS
 10
-4.0791890816
 20
15.297606
 11
-3.0786530816
 21
14.921495
  0
LINE
  5
55E
100
AcDbEntity
  8
0
100
AcDbLine
 62
7
  6
CONTINUOUS
 10
-6.7166360816
 20
9.0576828052
 11
-6.7105272742
 21
9.0515739978
  0
LINE
  5
55F
100
AcDbEntity
  8
0
100
AcDbLine
 62
7
  6
CONTINUOUS
 10
-7.9747029702
 20
-9.9072133021
 11
-7.9692312954
 21
-9.9841982185
  0
LINE
  5
560
100
AcDbEntity
  8
0
100
AcDbLine
 62
253
  6
CONTINUOUS
 10
-10.1192312954
 20
14.5666294149
 11
-10.1227448891
 21
15.046450816
  0
LINE
  5
561
100
AcDbEntity
  8
0
100
AcDbLine
 62
253
  6
CONTINUOUS
 10
-9.8192427185
 20
14.7594656978
 11
-9.8247390161
 21
15.510048
  0
LINE
  5
562
100
AcDbEntity
  8
0
100
AcDbLine
 62
253
  6
CONTINUOUS
 10
-9.6140294448
 20
6.0606303022
 11
-9.6085331471
 21
5.310048
  0
LINE
  5
563
100
AcDbEntity
  8
0
100
AcDbLine
 62
253
  6
CONTINUOUS
 10
-9.3140408679
 20
6.2534665851
 11
-9.3105272742
 21
5.773645184
  0
LINE
  5
564
100
AcDbEntity
  8
0
100
AcDbLine
 62
253
  6
CONTINUOUS
 10
-10.4321061355
 20
32.5711707914
 11
-10.4321061355
 21
30.9758711586
  0
LINE
  5
565
100
AcDbEntity
  8
0
100
AcDbLine
 62
253
  6
CONTINUOUS
 10
-10.4321061355
 20
-10.1557751586
 11
-10.4321061355
 21
-11.7510747914
  0
LINE
  5
566
100
AcDbEntity
  8
0
100
AcDbLine
 62
253
  6
CONTINUOUS
 10
-10.2589010547
 20
32.576417167
 11
-10.2589010547
 21
30.988058093
  0
LINE
  5
567
100
AcDbEntity
  8
0
100
AcDbLine
 62
253
  6
CONTINUOUS
 10
-10.2589010547
 20
-10.167962093
 11
-10.2589010547
 21
-11.756321167
  0
LINE
  5
568
100
AcDbEntity
  8
0
100
AcDbLine
 62
7
  6
CONTINUOUS
 10
-10.1227448891
 20
15.046450816
 11
-10.1227448891
 21
12.860048
  0
LINE
  5
569
100
AcDbEntity
  8
0
100
AcDbLine
 62
7
  6
CONTINUOUS
 10
-10.1227448891
 20
7.960048
 11
-10.1227448891
 21
5.773645184
  0
LINE
  5
56A
100
AcDbEntity
  8
0
100
AcDbLine
 62
253
  6
CONTINUOUS
 10
-10.1192312954
 20
14.5666294149
 11
-10.1192312954
 21
12.860048
  0
LINE
  5
56B
100
AcDbEntity
  8
0
100
AcDbLine
 62
253
  6
CONTINUOUS
 10
-10.1192312954
 20
7.960048
 11
-10.1192312954
 21
6.2534665851
  0
LINE
  5
56C
100
AcDbEntity
  8
0
100
AcDbLine
 62
7
  6
CONTINUOUS
 10
-9.9823709096
 20
32.6015454308
 11
-9.9823709096
 21
31.046429153
  0
LINE
  5
56D
100
AcDbEntity
  8
0
100
AcDbLine
 62
7
  6
CONTINUOUS
 10
-9.9823709096
 20
-11.7814494308
 11
-9.9823709096
 21
-10.226333153
  0
LINE
  5
56E
100
AcDbEntity
  8
0
100
AcDbLine
 62
253
  6
CONTINUOUS
 10
-9.8192427185
 20
6.0606303022
 11
-9.8192427185
 21
7.960048
  0
LINE
  5
56F
100
AcDbEntity
  8
0
100
AcDbLine
 62
253
  6
CONTINUOUS
 10
-9.8192427185
 20
12.860048
 11
-9.8192427185
 21
14.7594656978
  0
LINE
  5
570
100
AcDbEntity
  8
0
100
AcDbLine
 62
253
  6
CONTINUOUS
 10
-9.6140294448
 20
6.0606303022
 11
-9.6140294448
 21
7.410048
  0
LINE
  5
571
100
AcDbEntity
  8
0
100
AcDbLine
 62
253
  6
CONTINUOUS
 10
-9.6140294448
 20
13.410048
 11
-9.6140294448
 21
14.7594656978
  0
LINE
  5
572
100
AcDbEntity
  8
0
100
AcDbLine
 62
253
  6
CONTINUOUS
 10
-9.3140408679
 20
6.2534665851
 11
-9.3140408679
 21
7.4074527863
  0
LINE
  5
573
100
AcDbEntity
  8
0
100
AcDbLine
 62
253
  6
CONTINUOUS
 10
-9.3140408679
 20
13.4126432137
 11
-9.3140408679
 21
14.5666294149
  0
LINE
  5
574
100
AcDbEntity
  8
0
100
AcDbLine
 62
7
  6
CONTINUOUS
 10
-9.3105272742
 20
5.773645184
 11
-9.3105272742
 21
7.4039391925
  0
LINE
  5
575
100
AcDbEntity
  8
0
100
AcDbLine
 62
7
  6
CONTINUOUS
 10
-9.3105272742
 20
13.4161568075
 11
-9.3105272742
 21
15.046450816
  0
LINE
  5
576
100
AcDbEntity
  8
0
100
AcDbLine
 62
253
  6
CONTINUOUS
 10
-10.1227448891
 20
5.773645184
 11
-10.1192312954
 21
6.2534665851
  0
LINE
  5
577
100
AcDbEntity
  8
0
100
AcDbLine
 62
253
  6
CONTINUOUS
 10
-9.8247390161
 20
5.310048
 11
-9.8192427185
 21
6.0606303022
  0
LINE
  5
578
100
AcDbEntity
  8
0
100
AcDbLine
 62
253
  6
CONTINUOUS
 10
-9.6085331471
 20
15.510048
 11
-9.6140294448
 21
14.7594656978
  0
LINE
  5
579
100
AcDbEntity
  8
0
100
AcDbLine
 62
253
  6
CONTINUOUS
 10
-9.3105272742
 20
15.046450816
 11
-9.3140408679
 21
14.5666294149
  0
LINE
  5
57A
100
AcDbEntity
  8
0
100
AcDbLine
 62
7
  6
CONTINUOUS
 10
-7.9747029702
 20
30.7273093021
 11
-7.9692312954
 21
30.8042942185
  0
LINE
  5
57B
100
AcDbEntity
  8
0
100
AcDbLine
 62
7
  6
CONTINUOUS
 10
-4.4570616326
 20
29.0000482098
 11
-4.4251467428
 21
29.137548
  0
LINE
  5
57C
100
AcDbEntity
  8
0
100
AcDbLine
 62
7
  6
CONTINUOUS
 10
-4.4570616326
 20
27.7900481049
 11
-4.4251467428
 21
27.9275478951
  0
LINE
  5
57D
100
AcDbEntity
  8
0
100
AcDbLine
 62
7
  6
CONTINUOUS
 10
-3.9145084164
 20
26.6075478951
 11
-3.8825935265
 21
26.7175481049
  0
LINE
  5
57E
100
AcDbEntity
  8
0
100
AcDbLine
 62
7
  6
CONTINUOUS
 10
-3.5953594735
 20
28.230048
 11
-3.7230190775
 21
28.2025481049
  0
LINE
  5
57F
100
AcDbEntity
  8
0
100
AcDbLine
 62
7
  6
CONTINUOUS
 10
-4.2655722937
 20
28.2025481049
 11
-4.3932318529
 21
28.1750478951
  0
LINE
  5
580
100
AcDbEntity
  8
0
100
AcDbLine
 62
7
  6
CONTINUOUS
 10
-4.2655722937
 20
29.4400477902
 11
-4.3932318529
 21
29.4125482098
  0
LINE
  5
581
100
AcDbEntity
  8
0
100
AcDbLine
 62
7
  6
CONTINUOUS
 10
-5.1188830816
 20
26.96128
 11
-6.6187620816
 21
26.821025
  0
LINE
  5
582
100
AcDbEntity
  8
0
100
AcDbLine
 62
7
  6
CONTINUOUS
 10
-6.0941930816
 20
26.590677
 11
-5.1188830816
 21
26.655001
  0
LINE
  5
583
100
AcDbEntity
  8
DRAFT
100
AcDbLine
 62
7
  6
CONTINUOUS
 10
-44.9524239561
 20
23.410048
 11
-44.4166360816
 21
23.410048
  0
LINE
  5
584
100
AcDbEntity
  8
DRAFT
100
AcDbLine
 62
7
  6
CONTINUOUS
 10
-3.2166360816
 20
23.410048
 11
-2.6808482071
 21
23.410048
  0
LINE
  5
585
100
AcDbEntity
  8
DRAFT
100
AcDbLine
 62
7
  6
CONTINUOUS
 10
-1.4166360816
 20
23.510048
 11
-2.6666360816
 21
23.510048
  0
LINE
  5
586
100
AcDbEntity
  8
DRAFT
100
AcDbLine
 62
7
  6
CONTINUOUS
 10
-44.9666360816
 20
23.510048
 11
-46.2166360816
 21
23.510048
  0
LINE
  5
587
100
AcDbEntity
  8
0
100
AcDbLine
 62
7
  6
CONTINUOUS
 10
-3.276210553
 20
23.610048
 11
-3.1166360816
 21
23.610048
  0
LINE
  5
588
100
AcDbEntity
  8
0
100
AcDbLine
 62
7
  6
CONTINUOUS
 10
-4.2655722937
 20
24.435048
 11
-4.2017424247
 21
24.435048
  0
LINE
  5
589
100
AcDbEntity
  8
0
100
AcDbLine
 62
7
  6
CONTINUOUS
 10
-3.1166360816
 20
24.600048
 11
-3.276210553
 21
24.600048
  0
LINE
  5
58A
100
AcDbEntity
  8
0
100
AcDbLine
 62
7
  6
CONTINUOUS
 10
-4.2017424247
 20
24.600048
 11
-4.2655722937
 21
24.600048
  0
LINE
  5
58B
100
AcDbEntity
  8
0
100
AcDbLine
 62
7
  6
CONTINUOUS
 10
-4.0102530858
 20
24.8200480262
 11
-3.7230190775
 21
24.8200480262
  0
LINE
  5
58C
100
AcDbEntity
  8
0
100
AcDbLine
 62
7
  6
CONTINUOUS
 10
-3.7549339673
 20
24.9575480525
 11
-3.978338196
 21
24.9575480525
  0
LINE
  5
58D
100
AcDbEntity
  8
0
100
AcDbLine
 62
7
  6
CONTINUOUS
 10
-6.6188520816
 20
24.958517
 11
-5.1188830816
 21
24.958517
  0
LINE
  5
58E
100
AcDbEntity
  8
0
100
AcDbLine
 62
7
  6
CONTINUOUS
 10
-5.1188830816
 20
25.271601
 11
-6.6188520816
 21
25.271601
  0
LINE
  5
58F
100
AcDbEntity
  8
0
100
AcDbLine
 62
7
  6
CONTINUOUS
 10
-8.8166360816
 20
-5.8502593792
 11
-8.8166360816
 21
3.7703553792
  0
LINE
  5
590
100
AcDbEntity
  8
0
100
AcDbLine
 62
7
  6
CONTINUOUS
 10
-8.8166360816
 20
17.0497406208
 11
-8.8166360816
 21
26.6703553792
  0
LINE
  5
591
100
AcDbEntity
  8
0
100
AcDbLine
 62
7
  6
CONTINUOUS
 10
-8.4666360816
 20
7.7100365769
 11
-8.4666360816
 21
7.960048
  0
LINE
  5
592
100
AcDbEntity
  8
0
100
AcDbLine
 62
7
  6
CONTINUOUS
 10
-8.4666360816
 20
12.860048
 11
-8.4666360816
 21
13.1100594231
  0
LINE
  5
593
100
AcDbEntity
  8
0
100
AcDbLine
 62
7
  6
CONTINUOUS
 10
-8.4605272742
 20
7.7039277695
 11
-8.4605272742
 21
7.960048
  0
LINE
  5
594
100
AcDbEntity
  8
0
100
AcDbLine
 62
7
  6
CONTINUOUS
 10
-8.4605272742
 20
12.860048
 11
-8.4605272742
 21
13.1161682305
  0
LINE
  5
595
100
AcDbEntity
  8
0
100
AcDbLine
 62
7
  6
CONTINUOUS
 10
-7.9762356362
 20
30.5288000717
 11
-7.9762356362
 21
29.9004370223
  0
LINE
  5
596
100
AcDbEntity
  8
0
100
AcDbLine
 62
7
  6
CONTINUOUS
 10
-7.9762356362
 20
-9.7087040717
 11
-7.9762356362
 21
-9.0803410223
  0
LINE
  5
597
100
AcDbEntity
  8
0
100
AcDbLine
 62
253
  6
CONTINUOUS
 10
-7.9692312954
 20
30.8042942185
 11
-7.9692312954
 21
29.9074413632
  0
LINE
  5
598
100
AcDbEntity
  8
0
100
AcDbLine
 62
253
  6
CONTINUOUS
 10
-7.9692312954
 20
-9.0873453632
 11
-7.9692312954
 21
-9.9841982185
  0
LINE
  5
599
100
AcDbEntity
  8
0
100
AcDbLine
 62
7
  6
CONTINUOUS
 10
-7.8804221014
 20
11.1962810187
 11
-7.8804221014
 21
10.7471422827
  0
LINE
  5
59A
100
AcDbEntity
  8
0
100
AcDbLine
 62
7
  6
CONTINUOUS
 10
-7.8804221014
 20
10.0729537173
 11
-7.8804221014
 21
9.6238149813
  0
LINE
  5
59B
100
AcDbEntity
  8
0
100
AcDbLine
 62
253
  6
CONTINUOUS
 10
-7.6692427185
 20
-8.7873567863
 11
-7.6692427185
 21
-10.0207121417
  0
LINE
  5
59C
100
AcDbEntity
  8
0
100
AcDbLine
 62
253
  6
CONTINUOUS
 10
-7.6692427185
 20
29.6074527863
 11
-7.6692427185
 21
30.8408081417
  0
LINE
  5
59D
100
AcDbEntity
  8
0
100
AcDbLine
 62
253
  6
CONTINUOUS
 10
-7.4640294448
 20
-8.7873567863
 11
-7.4640294448
 21
-10.0207121417
  0
LINE
  5
59E
100
AcDbEntity
  8
0
100
AcDbLine
 62
253
  6
CONTINUOUS
 10
-7.4640294448
 20
29.6074527863
 11
-7.4640294448
 21
30.8408081417
  0
LINE
  5
59F
100
AcDbEntity
  8
0
100
AcDbLine
 62
7
  6
CONTINUOUS
 10
-7.2166360816
 20
11.9270352981
 11
-7.2166360816
 21
10.7371089058
  0
LINE
  5
5A0
100
AcDbEntity
  8
0
100
AcDbLine
 62
7
  6
CONTINUOUS
 10
-7.2166360816
 20
10.0829870942
 11
-7.2166360816
 21
8.8930607019
  0
LINE
  5
5A1
100
AcDbEntity
  8
0
100
AcDbLine
 62
253
  6
CONTINUOUS
 10
-7.1640408679
 20
-9.9841982185
 11
-7.1640408679
 21
-9.0873453632
  0
LINE
  5
5A2
100
AcDbEntity
  8
0
100
AcDbLine
 62
253
  6
CONTINUOUS
 10
-7.1640408679
 20
29.9074413632
 11
-7.1640408679
 21
30.8042942185
  0
LINE
  5
5A3
100
AcDbEntity
  8
0
100
AcDbLine
 62
7
  6
CONTINUOUS
 10
-7.1570365271
 20
30.5288000717
 11
-7.1570365271
 21
29.9004370223
  0
LINE
  5
5A4
100
AcDbEntity
  8
0
100
AcDbLine
 62
7
  6
CONTINUOUS
 10
-7.1570365271
 20
-9.7087040717
 11
-7.1570365271
 21
-9.0803410223
  0
LINE
  5
5A5
100
AcDbEntity
  8
0
100
AcDbLine
 62
7
  6
CONTINUOUS
 10
-6.9546190816
 20
17.426071
 11
-6.9546190816
 21
16.697548
  0
LINE
  5
5A6
100
AcDbEntity
  8
0
100
AcDbLine
 62
7
  6
CONTINUOUS
 10
-6.9546190816
 20
16.0901871057
 11
-6.9546190816
 21
15.684879
  0
LINE
  5
5A7
100
AcDbEntity
  8
0
100
AcDbLine
 62
7
  6
CONTINUOUS
 10
-6.9546190816
 20
15.191729
 11
-6.9546190816
 21
15.038534
  0
LINE
  5
5A8
100
AcDbEntity
  8
0
100
AcDbLine
 62
7
  6
CONTINUOUS
 10
-6.9546190816
 20
14.542634
 11
-6.9546190816
 21
14.350372
  0
LINE
  5
5A9
100
AcDbEntity
  8
0
100
AcDbLine
 62
7
  6
CONTINUOUS
 10
-6.9546190816
 20
13.777875
 11
-6.9546190816
 21
13.584238
  0
LINE
  5
5AA
100
AcDbEntity
  8
0
100
AcDbLine
 62
7
  6
CONTINUOUS
 10
-6.8389550816
 20
15.819955
 11
-6.8389550816
 21
16.0720638356
  0
LINE
  5
5AB
100
AcDbEntity
  8
0
100
AcDbLine
 62
7
  6
CONTINUOUS
 10
-6.8349100816
 20
16.832705
 11
-6.8349100816
 21
17.426071
  0
LINE
  5
5AC
100
AcDbEntity
  8
DRAFT
100
AcDbLine
 62
7
  6
CONTINUOUS
 10
-6.7166360816
 20
11.710048
 11
-6.7105272742
 21
11.7712900645
  0
LINE
  5
5AD
100
AcDbEntity
  8
0
100
AcDbLine
 62
7
  6
CONTINUOUS
 10
-4.5847211918
 20
27.9550481049
 11
-4.6166360816
 21
27.7625478951
  0
LINE
  5
5AE
100
AcDbEntity
  8
0
100
AcDbLine
 62
7
  6
CONTINUOUS
 10
-4.5847211918
 20
29.1925477902
 11
-4.6166360816
 21
29.0275477902
  0
LINE
  5
5AF
100
AcDbEntity
  8
0
100
AcDbLine
 62
7
  6
CONTINUOUS
 10
-4.5847211918
 20
25.4800479475
 11
-4.6166360816
 21
25.3150479475
  0
LINE
  5
5B0
100
AcDbEntity
  8
0
100
AcDbLine
 62
7
  6
CONTINUOUS
 10
-4.5847211918
 20
24.352548
 11
-4.6166360816
 21
24.187548
  0
LINE
  5
5B1
100
AcDbEntity
  8
0
100
AcDbLine
 62
7
  6
CONTINUOUS
 10
-3.8187637469
 20
27.7900481049
 11
-3.7868488571
 21
27.9550481049
  0
LINE
  5
5B2
100
AcDbEntity
  8
0
100
AcDbLine
 62
7
  6
CONTINUOUS
 10
-4.4570616326
 20
25.3150479475
 11
-4.4251467428
 21
25.4525480525
  0
LINE
  5
5B3
100
AcDbEntity
  8
0
100
AcDbLine
 62
7
  6
CONTINUOUS
 10
-4.0421679756
 20
26.745048
 11
-4.0740828654
 21
26.6075478951
  0
LINE
  5
5B4
100
AcDbEntity
  8
0
100
AcDbLine
 62
7
  6
CONTINUOUS
 10
-4.4570616326
 20
24.1600479869
 11
-4.4251467428
 21
24.2975479738
  0
LINE
  5
5B5
100
AcDbEntity
  8
0
100
AcDbLine
 62
7
  6
CONTINUOUS
 10
-3.276210553
 20
27.652548
 11
-3.3081254429
 21
27.5150478951
  0
LINE
  5
5B6
100
AcDbEntity
  8
0
100
AcDbLine
 62
7
  6
CONTINUOUS
 10
-3.1485509742
 20
26.3050481049
 11
-3.1166360816
 21
26.4425478951
  0
LINE
  5
5B7
100
AcDbEntity
  8
0
100
AcDbLine
 62
7
  6
CONTINUOUS
 10
-3.276210553
 20
25.3150479475
 11
-3.3081254429
 21
25.177548
  0
LINE
  5
5B8
100
AcDbEntity
  8
0
100
AcDbLine
 62
7
  6
CONTINUOUS
 10
-3.1485509742
 20
27.5150478951
 11
-3.1166360816
 21
27.6250481049
  0
LINE
  5
5B9
100
AcDbEntity
  8
0
100
AcDbLine
 62
7
  6
CONTINUOUS
 10
-3.276210553
 20
26.4425478951
 11
-3.3081254429
 21
26.332548
  0
LINE
  5
5BA
100
AcDbEntity
  8
0
100
AcDbLine
 62
7
  6
CONTINUOUS
 10
-3.978338196
 20
25.672548
 11
-3.7549339673
 21
25.672548
  0
LINE
  5
5BB
100
AcDbEntity
  8
0
100
AcDbLine
 62
7
  6
CONTINUOUS
 10
-3.7230190775
 20
25.8100479475
 11
-4.0102530858
 21
25.8100479475
  0
LINE
  5
5BC
100
AcDbEntity
  8
0
100
AcDbLine
 62
7
  6
CONTINUOUS
 10
-4.6166360816
 20
26.0300480525
 11
-3.7868488571
 21
26.0300480525
  0
LINE
  5
5BD
100
AcDbEntity
  8
0
100
AcDbLine
 62
7
  6
CONTINUOUS
 10
-3.9464233062
 20
26.167548
 11
-4.4570616326
 21
26.167548
  0
LINE
  5
5BE
100
AcDbEntity
  8
0
100
AcDbLine
 62
7
  6
CONTINUOUS
 10
-3.6272743633
 20
26.8825481049
 11
-3.5634445837
 21
26.8825481049
  0
LINE
  5
5BF
100
AcDbEntity
  8
0
100
AcDbLine
 62
7
  6
CONTINUOUS
 10
-4.4570616326
 20
26.9650481049
 11
-4.6166360816
 21
26.9650481049
  0
LINE
  5
5C0
100
AcDbEntity
  8
0
100
AcDbLine
 62
7
  6
CONTINUOUS
 10
-3.5315296939
 20
27.0200478951
 11
-3.6591892531
 21
27.0200478951
  0
LINE
  5
5C1
100
AcDbEntity
  8
0
100
AcDbLine
 62
7
  6
CONTINUOUS
 10
-5.1188830816
 20
25.739662
 11
-6.0982760816
 21
25.807226
  0
LINE
  5
5C2
100
AcDbEntity
  8
0
100
AcDbLine
 62
7
  6
CONTINUOUS
 10
-6.6187620816
 20
25.575574
 11
-5.1188830816
 21
25.440143
  0
LINE
  5
5C3
100
AcDbEntity
  8
0
100
AcDbLine
 62
7
  6
CONTINUOUS
 10
-4.3932318529
 20
23.6650480016
 11
-4.2655722937
 21
23.6375480008
  0
LINE
  5
5C4
100
AcDbEntity
  8
0
100
AcDbLine
 62
7
  6
CONTINUOUS
 10
-4.0791890816
 20
17.147506
 11
-3.5987380816
 21
16.860529
  0
LINE
  5
5C5
100
AcDbEntity
  8
0
100
AcDbLine
 62
7
  6
CONTINUOUS
 10
-3.4814560816
 20
16.928795
 11
-4.0791890816
 21
17.306282
  0
LINE
  5
5C6
100
AcDbEntity
  8
0
100
AcDbLine
 62
7
  6
CONTINUOUS
 10
-7.1585691931
 20
30.7273093021
 11
-7.1640408679
 21
30.8042942185
  0
LINE
  5
5C7
100
AcDbEntity
  8
0
100
AcDbLine
 62
7
  6
CONTINUOUS
 10
-6.7166360816
 20
8.860048
 11
-6.7166360816
 21
9.0576828052
  0
LINE
  5
5C8
100
AcDbEntity
  8
0
100
AcDbLine
 62
7
  6
CONTINUOUS
 10
-6.7166360816
 20
11.710048
 11
-6.7166360816
 21
11.960048
  0
LINE
  5
5C9
100
AcDbEntity
  8
0
100
AcDbLine
 62
7
  6
CONTINUOUS
 10
-6.7105272742
 20
8.860048
 11
-6.7105272742
 21
9.0515739978
  0
LINE
  5
5CA
100
AcDbEntity
  8
0
100
AcDbLine
 62
7
  6
CONTINUOUS
 10
-6.7105272742
 20
11.7712900645
 11
-6.7105272742
 21
11.960048
  0
LINE
  5
5CB
100
AcDbEntity
  8
0
100
AcDbLine
 62
7
  6
CONTINUOUS
 10
-6.6188520816
 20
25.271601
 11
-6.6188520816
 21
24.958517
  0
LINE
  5
5CC
100
AcDbEntity
  8
0
100
AcDbLine
 62
7
  6
CONTINUOUS
 10
-6.6187620816
 20
27.783772
 11
-6.6187620816
 21
27.4809
  0
LINE
  5
5CD
100
AcDbEntity
  8
0
100
AcDbLine
 62
7
  6
CONTINUOUS
 10
-6.6187620816
 20
26.821025
 11
-6.6187620816
 21
26.511259
  0
LINE
  5
5CE
100
AcDbEntity
  8
0
100
AcDbLine
 62
7
  6
CONTINUOUS
 10
-6.6187620816
 20
25.888399
 11
-6.6187620816
 21
25.575574
  0
LINE
  5
5CF
100
AcDbEntity
  8
0
100
AcDbLine
 62
7
  6
CONTINUOUS
 10
-6.6187620816
 20
24.842332
 11
-6.6187620816
 21
24.529462
  0
LINE
  5
5D0
100
AcDbEntity
  8
0
100
AcDbLine
 62
7
  6
CONTINUOUS
 10
-6.6187620816
 20
23.94892
 11
-6.6187620816
 21
23.608814
  0
LINE
  5
5D1
100
AcDbEntity
  8
0
100
AcDbLine
 62
7
  6
CONTINUOUS
 10
-6.5283600816
 20
17.380129
 11
-6.5283600816
 21
16.832705
  0
LINE
  5
5D2
100
AcDbEntity
  8
0
100
AcDbLine
 62
7
  6
CONTINUOUS
 10
-6.4086510816
 20
16.832705
 11
-6.4086510816
 21
17.380129
  0
LINE
  5
5D3
100
AcDbEntity
  8
0
100
AcDbLine
 62
7
  6
CONTINUOUS
 10
-6.3657830816
 20
15.25862
 11
-6.3657830816
 21
14.948025
  0
LINE
  5
5D4
100
AcDbEntity
  8
0
100
AcDbLine
 62
7
  6
CONTINUOUS
 10
-6.2460740816
 20
14.906208
 11
-6.2460740816
 21
15.307393
  0
LINE
  5
5D5
100
AcDbEntity
  8
0
100
AcDbLine
 62
7
  6
CONTINUOUS
 10
-6.0746000816
 20
17.435858
 11
-6.0746000816
 21
16.832705
  0
LINE
  5
5D6
100
AcDbEntity
  8
0
100
AcDbLine
 62
7
  6
CONTINUOUS
 10
-6.0705560816
 20
16.0720762991
 11
-6.0705560816
 21
15.819955
  0
LINE
  5
5D7
100
AcDbEntity
  8
0
100
AcDbLine
 62
7
  6
CONTINUOUS
 10
-5.9548920816
 20
13.584238
 11
-5.9548920816
 21
13.715189
  0
LINE
  5
5D8
100
AcDbEntity
  8
0
100
AcDbLine
 62
7
  6
CONTINUOUS
 10
-5.9548920816
 20
13.996585
 11
-5.9548920816
 21
14.130287
  0
LINE
  5
5D9
100
AcDbEntity
  8
0
100
AcDbLine
 62
7
  6
CONTINUOUS
 10
-5.9548920816
 20
14.411682
 11
-5.9548920816
 21
14.542634
  0
LINE
  5
5DA
100
AcDbEntity
  8
0
100
AcDbLine
 62
7
  6
CONTINUOUS
 10
-5.9548920816
 20
14.662423
 11
-5.9548920816
 21
14.801706
  0
LINE
  5
5DB
100
AcDbEntity
  8
0
100
AcDbLine
 62
7
  6
CONTINUOUS
 10
-5.9548920816
 20
15.406314
 11
-5.9548920816
 21
15.553928
  0
LINE
  5
5DC
100
AcDbEntity
  8
0
100
AcDbLine
 62
7
  6
CONTINUOUS
 10
-5.9548920816
 20
15.684879
 11
-5.9548920816
 21
16.090199983
  0
LINE
  5
5DD
100
AcDbEntity
  8
0
100
AcDbLine
 62
7
  6
CONTINUOUS
 10
-5.9548920816
 20
16.697548
 11
-5.9548920816
 21
17.435858
  0
LINE
  5
5DE
100
AcDbEntity
  8
0
100
AcDbLine
 62
7
  6
CONTINUOUS
 10
-5.9514967992
 20
28.8162741998
 11
-5.9514967992
 21
28.6373500414
  0
LINE
  5
5DF
100
AcDbEntity
  8
0
100
AcDbLine
 62
7
  6
CONTINUOUS
 10
-5.7058528705
 20
28.6477314218
 11
-5.7058528705
 21
28.8155993539
  0
LINE
  5
5E0
100
AcDbEntity
  8
0
100
AcDbLine
 62
7
  6
CONTINUOUS
 10
-5.6500100816
 20
27.770319
 11
-5.6500100816
 21
27.470564
  0
LINE
  5
5E1
100
AcDbEntity
  8
0
100
AcDbLine
 62
7
  6
CONTINUOUS
 10
-5.5165000816
 20
16.085336
 11
-5.5165000816
 21
15.954466
  0
LINE
  5
5E2
100
AcDbEntity
  8
0
100
AcDbLine
 62
7
  6
CONTINUOUS
 10
-5.5165000816
 20
15.451528
 11
-5.5165000816
 21
15.291297
  0
LINE
  5
5E3
100
AcDbEntity
  8
0
100
AcDbLine
 62
7
  6
CONTINUOUS
 10
-5.5165000816
 20
15.06013
 11
-5.5165000816
 21
14.924973
  0
LINE
  5
5E4
100
AcDbEntity
  8
0
100
AcDbLine
 62
7
  6
CONTINUOUS
 10
-5.4183120816
 20
27.406521
 11
-5.4183120816
 21
27.832889
  0
LINE
  5
5E5
100
AcDbEntity
  8
0
100
AcDbLine
 62
7
  6
CONTINUOUS
 10
-5.1188830816
 20
24.084305
 11
-5.1188830816
 21
24.36021
  0
LINE
  5
5E6
100
AcDbEntity
  8
0
100
AcDbLine
 62
7
  6
CONTINUOUS
 10
-5.1188830816
 20
24.958517
 11
-5.1188830816
 21
25.271601
  0
LINE
  5
5E7
100
AcDbEntity
  8
0
100
AcDbLine
 62
7
  6
CONTINUOUS
 10
-5.1188830816
 20
25.440143
 11
-5.1188830816
 21
25.739662
  0
LINE
  5
5E8
100
AcDbEntity
  8
0
100
AcDbLine
 62
7
  6
CONTINUOUS
 10
-5.1188830816
 20
26.174511
 11
-5.1188830816
 21
26.218421
  0
LINE
  5
5E9
100
AcDbEntity
  8
0
100
AcDbLine
 62
7
  6
CONTINUOUS
 10
-5.1188830816
 20
26.655001
 11
-5.1188830816
 21
26.96128
  0
LINE
  5
5EA
100
AcDbEntity
  8
0
100
AcDbLine
 62
7
  6
CONTINUOUS
 10
-5.1188830816
 20
27.010443
 11
-5.1188830816
 21
27.320129
  0
LINE
  5
5EB
100
AcDbEntity
  8
0
100
AcDbLine
 62
7
  6
CONTINUOUS
 10
-5.1188830816
 20
27.913994
 11
-5.1188830816
 21
28.243972
  0
LINE
  5
5EC
100
AcDbEntity
  8
0
100
AcDbLine
 62
7
  6
CONTINUOUS
 10
-5.1188831035
 20
28.3359075994
 11
-5.1188831035
 21
28.6477314218
  0
LINE
  5
5ED
100
AcDbEntity
  8
0
100
AcDbLine
 62
7
  6
CONTINUOUS
 10
-5.1188831035
 20
29.1271757328
 11
-5.1188831035
 21
29.4283257416
  0
LINE
  5
5EE
100
AcDbEntity
  8
0
100
AcDbLine
 62
7
  6
CONTINUOUS
 10
-4.6166360816
 20
29.0275477902
 11
-4.6166360816
 21
28.9175482098
  0
LINE
  5
5EF
100
AcDbEntity
  8
0
100
AcDbLine
 62
7
  6
CONTINUOUS
 10
-4.6166360816
 20
27.7625478951
 11
-4.6166360816
 21
27.7075481049
  0
LINE
  5
5F0
100
AcDbEntity
  8
0
100
AcDbLine
 62
7
  6
CONTINUOUS
 10
-4.6166360816
 20
26.9650481049
 11
-4.6166360816
 21
26.0300480525
  0
LINE
  5
5F1
100
AcDbEntity
  8
0
100
AcDbLine
 62
7
  6
CONTINUOUS
 10
-4.6166360816
 20
24.187548
 11
-4.6166360816
 21
24.0775479869
  0
LINE
  5
5F2
100
AcDbEntity
  8
0
100
AcDbLine
 62
7
  6
CONTINUOUS
 10
-7.1585691931
 20
-9.9072133021
 11
-7.1640408679
 21
-9.9841982185
  0
LINE
  5
5F3
100
AcDbEntity
  8
RACCORDO
100
AcDbLine
 62
253
  6
CONTINUOUS
 10
-2.9277592745
 20
30.7273093021
 11
-2.8823931659
 21
31.046429153
  0
LINE
  5
5F4
100
AcDbEntity
  8
RACCORDO
100
AcDbLine
 62
253
  6
CONTINUOUS
 10
-2.7277897355
 20
30.5288000717
 11
-2.6823636052
 21
30.8483421346
  0
LINE
  5
5F5
100
AcDbEntity
  8
0
100
AcDbLine
 62
7
  6
CONTINUOUS
 10
-3.1485509742
 20
25.1500479475
 11
-3.1166360816
 21
25.3150479475
  0
LINE
  5
5F6
100
AcDbEntity
  8
0
100
AcDbLine
 62
7
  6
CONTINUOUS
 10
-10.2589010547
 20
30.988058093
 11
-9.9823709096
 21
31.046429153
  0
LINE
  5
5F7
100
AcDbEntity
  8
0
100
AcDbLine
 62
7
  6
CONTINUOUS
 10
-9.7563287024
 20
27.610048
 11
-37.8769434608
 21
27.610048
  0
LINE
  5
5F8
100
AcDbEntity
  8
0
100
AcDbLine
 62
7
  6
CONTINUOUS
 10
-3.9464233062
 20
27.6800478951
 11
-3.8187637469
 21
27.6800478951
  0
LINE
  5
5F9
100
AcDbEntity
  8
0
100
AcDbLine
 62
7
  6
CONTINUOUS
 10
-4.2655722937
 20
28.065048
 11
-4.2017424247
 21
28.065048
  0
LINE
  5
5FA
100
AcDbEntity
  8
0
100
AcDbLine
 62
7
  6
CONTINUOUS
 10
-3.5953594735
 20
28.0925478951
 11
-3.4676999143
 21
28.0925478951
  0
LINE
  5
5FB
100
AcDbEntity
  8
0
100
AcDbLine
 62
7
  6
CONTINUOUS
 10
-4.2017424247
 20
28.2025481049
 11
-4.2655722937
 21
28.2025481049
  0
LINE
  5
5FC
100
AcDbEntity
  8
0
100
AcDbLine
 62
7
  6
CONTINUOUS
 10
-3.4676999143
 20
28.230048
 11
-3.5953594735
 21
28.230048
  0
LINE
  5
5FD
100
AcDbEntity
  8
0
100
AcDbLine
 62
7
  6
CONTINUOUS
 10
-6.6012384878
 20
28.3359075994
 11
-5.1188831035
 21
28.3359075994
  0
LINE
  5
5FE
100
AcDbEntity
  8
0
100
AcDbLine
 62
7
  6
CONTINUOUS
 10
-3.276210553
 20
28.4500481049
 11
-3.1166360816
 21
28.4500481049
  0
LINE
  5
5FF
100
AcDbEntity
  8
0
100
AcDbLine
 62
7
  6
CONTINUOUS
 10
-5.9514967992
 20
28.6373500414
 11
-6.3632428132
 21
28.6373500414
  0
LINE
  5
600
100
AcDbEntity
  8
0
100
AcDbLine
 62
7
  6
CONTINUOUS
 10
-5.1188831035
 20
28.6477314218
 11
-5.7058528705
 21
28.6477314218
  0
LINE
  5
601
100
AcDbEntity
  8
0
100
AcDbLine
 62
7
  6
CONTINUOUS
 10
-5.8190132902
 20
29.140830116
 11
-5.8278762671
 21
29.140830116
  0
LINE
  5
602
100
AcDbEntity
  8
0
100
AcDbLine
 62
7
  6
CONTINUOUS
 10
-4.2655722937
 20
29.2750477902
 11
-4.2017424247
 21
29.2750477902
  0
LINE
  5
603
100
AcDbEntity
  8
0
100
AcDbLine
 62
7
  6
CONTINUOUS
 10
-3.1166360816
 20
29.4400477902
 11
-3.276210553
 21
29.4400477902
  0
LINE
  5
604
100
AcDbEntity
  8
0
100
AcDbLine
 62
7
  6
CONTINUOUS
 10
-4.2017424247
 20
29.4400477902
 11
-4.2655722937
 21
29.4400477902
  0
LINE
  5
605
100
AcDbEntity
  8
0
100
AcDbLine
 62
7
  6
CONTINUOUS
 10
-40.1762470593
 20
29.6004484454
 11
-39.957025104
 21
29.6004484454
  0
LINE
  5
606
100
AcDbEntity
  8
0
100
AcDbLine
 62
7
  6
CONTINUOUS
 10
-7.6762470593
 20
29.6004484454
 11
-7.457025104
 21
29.6004484454
  0
LINE
  5
607
100
AcDbEntity
  8
0
100
AcDbLine
 62
253
  6
CONTINUOUS
 10
-40.1692427185
 20
29.6074527863
 11
-39.9640294448
 21
29.6074527863
  0
LINE
  5
608
100
AcDbEntity
  8
0
100
AcDbLine
 62
253
  6
CONTINUOUS
 10
-7.6692427185
 20
29.6074527863
 11
-7.4640294448
 21
29.6074527863
  0
LINE
  5
609
100
AcDbEntity
  8
0
100
AcDbLine
 62
7
  6
CONTINUOUS
 10
-3.978338196
 20
24.9575480525
 11
-4.1698275349
 21
24.9850479475
  0
LINE
  5
60A
100
AcDbEntity
  8
0
100
AcDbLine
 62
7
  6
CONTINUOUS
 10
-3.7549339673
 20
25.672548
 11
-3.5634445837
 21
25.6450479475
  0
LINE
  5
60B
100
AcDbEntity
  8
0
100
AcDbLine
 62
7
  6
CONTINUOUS
 10
-4.1698275349
 20
24.847548
 11
-4.0102530858
 21
24.8200480262
  0
LINE
  5
60C
100
AcDbEntity
  8
0
100
AcDbLine
 62
7
  6
CONTINUOUS
 10
-3.5634445837
 20
25.7825480525
 11
-3.7230190775
 21
25.8100479475
  0
LINE
  5
60D
100
AcDbEntity
  8
0
100
AcDbLine
 62
7
  6
CONTINUOUS
 10
-37.3743711086
 20
30.988058093
 11
-37.6509012537
 21
31.046429153
  0
LINE
  5
60E
100
AcDbEntity
  8
0
100
AcDbLine
 62
7
  6
CONTINUOUS
 10
-4.0740828654
 20
24.5725480262
 11
-4.2017424247
 21
24.600048
  0
LINE
  5
60F
100
AcDbEntity
  8
0
100
AcDbLine
 62
7
  6
CONTINUOUS
 10
-6.6187620816
 20
24.529462
 11
-5.5863490816
 21
24.234824
  0
LINE
  5
610
100
AcDbEntity
  8
0
100
AcDbLine
 62
7
  6
CONTINUOUS
 10
-5.1188830816
 20
24.36021
 11
-6.6187620816
 21
24.842332
  0
LINE
  5
611
100
AcDbEntity
  8
RACCORDO
100
AcDbLine
 62
253
  6
CONTINUOUS
 10
-2.8823931659
 20
-10.226333153
 11
-2.9277592745
 21
-9.9072133021
  0
LINE
  5
612
100
AcDbEntity
  8
RACCORDO
100
AcDbLine
 62
253
  6
CONTINUOUS
 10
-2.6823636052
 20
-10.0282461346
 11
-2.7277897355
 21
-9.7087040717
  0
LINE
  5
613
100
AcDbEntity
  8
RACCORDO
100
AcDbLine
 62
7
  6
CONTINUOUS
 10
-2.6666360816
 20
23.510048
 11
-2.6823636052
 21
30.8483421346
  0
LINE
  5
614
100
AcDbEntity
  8
0
100
AcDbLine
 62
7
  6
CONTINUOUS
 10
-4.5167720816
 20
14.924973
 11
-4.5167720816
 21
15.06013
  0
LINE
  5
615
100
AcDbEntity
  8
0
100
AcDbLine
 62
7
  6
CONTINUOUS
 10
-4.5167720816
 20
15.291297
 11
-4.5167720816
 21
15.422329
  0
LINE
  5
616
100
AcDbEntity
  8
0
100
AcDbLine
 62
7
  6
CONTINUOUS
 10
-4.5167720816
 20
15.933517
 11
-4.5167720816
 21
16.085336
  0
LINE
  5
617
100
AcDbEntity
  8
0
100
AcDbLine
 62
7
  6
CONTINUOUS
 10
-4.4570616326
 20
24.0500480131
 11
-4.4570616326
 21
24.1600479869
  0
LINE
  5
618
100
AcDbEntity
  8
0
100
AcDbLine
 62
7
  6
CONTINUOUS
 10
-4.4570616326
 20
26.167548
 11
-4.4570616326
 21
26.9650481049
  0
LINE
  5
619
100
AcDbEntity
  8
0
100
AcDbLine
 62
7
  6
CONTINUOUS
 10
-4.4570616326
 20
27.6800478951
 11
-4.4570616326
 21
27.7900481049
  0
LINE
  5
61A
100
AcDbEntity
  8
0
100
AcDbLine
 62
7
  6
CONTINUOUS
 10
-4.4570616326
 20
28.890048
 11
-4.4570616326
 21
29.0000482098
  0
LINE
  5
61B
100
AcDbEntity
  8
0
100
AcDbLine
 62
7
  6
CONTINUOUS
 10
-4.2655722937
 20
23.6375480008
 11
-4.2655722937
 21
23.775048
  0
LINE
  5
61C
100
AcDbEntity
  8
0
100
AcDbLine
 62
7
  6
CONTINUOUS
 10
-4.2655722937
 20
27.2675478951
 11
-4.2655722937
 21
27.405048
  0
LINE
  5
61D
100
AcDbEntity
  8
0
100
AcDbLine
 62
7
  6
CONTINUOUS
 10
-4.2655722937
 20
28.477548
 11
-4.2655722937
 21
28.6150481049
  0
LINE
  5
61E
100
AcDbEntity
  8
0
100
AcDbLine
 62
7
  6
CONTINUOUS
 10
-4.0791890816
 20
17.306282
 11
-4.0791890816
 21
17.147506
  0
LINE
  5
61F
100
AcDbEntity
  8
0
100
AcDbLine
 62
7
  6
CONTINUOUS
 10
-4.0791890816
 20
16.573553
 11
-4.0791890816
 21
16.416152
  0
LINE
  5
620
100
AcDbEntity
  8
0
100
AcDbLine
 62
7
  6
CONTINUOUS
 10
-4.0791890816
 20
16.072071
 11
-4.0791890816
 21
15.936995
  0
LINE
  5
621
100
AcDbEntity
  8
0
100
AcDbLine
 62
7
  6
CONTINUOUS
 10
-4.0791890816
 20
15.4508
 11
-4.0791890816
 21
15.297606
  0
LINE
  5
622
100
AcDbEntity
  8
0
100
AcDbLine
 62
7
  6
CONTINUOUS
 10
-4.0791890816
 20
14.882509
 11
-4.0791890816
 21
14.070432
  0
LINE
  5
623
100
AcDbEntity
  8
0
100
AcDbLine
 62
7
  6
CONTINUOUS
 10
-4.0791890816
 20
13.925488
 11
-4.0791890816
 21
13.790331
  0
LINE
  5
624
100
AcDbEntity
  8
0
100
AcDbLine
 62
7
  6
CONTINUOUS
 10
-4.0740828654
 20
26.6075478951
 11
-4.0740828654
 21
26.4425478951
  0
LINE
  5
625
100
AcDbEntity
  8
0
100
AcDbLine
 62
7
  6
CONTINUOUS
 10
-3.9594810816
 20
14.070432
 11
-3.9594810816
 21
14.408932
  0
LINE
  5
626
100
AcDbEntity
  8
0
100
AcDbLine
 62
7
  6
CONTINUOUS
 10
-3.9594810816
 20
14.544009
 11
-3.9594810816
 21
14.882509
  0
LINE
  5
627
100
AcDbEntity
  8
0
100
AcDbLine
 62
7
  6
CONTINUOUS
 10
-3.9464233062
 20
27.7900481049
 11
-3.9464233062
 21
27.6800478951
  0
LINE
  5
628
100
AcDbEntity
  8
0
100
AcDbLine
 62
7
  6
CONTINUOUS
 10
-3.9145084164
 20
26.4425478951
 11
-3.9145084164
 21
26.6075478951
  0
LINE
  5
629
100
AcDbEntity
  8
0
100
AcDbLine
 62
7
  6
CONTINUOUS
 10
-3.8187637469
 20
27.6800478951
 11
-3.8187637469
 21
27.7900481049
  0
LINE
  5
62A
100
AcDbEntity
  8
0
100
AcDbLine
 62
7
  6
CONTINUOUS
 10
-3.7868488571
 20
26.0300480525
 11
-3.7868488571
 21
26.2225479475
  0
LINE
  5
62B
100
AcDbEntity
  8
0
100
AcDbLine
 62
7
  6
CONTINUOUS
 10
-3.4996148041
 20
26.1950480525
 11
-3.4996148041
 21
26.0300480525
  0
LINE
  5
62C
100
AcDbEntity
  8
0
100
AcDbLine
 62
7
  6
CONTINUOUS
 10
-3.4895440816
 20
15.517692
 11
-3.4895440816
 21
15.207016
  0
LINE
  5
62D
100
AcDbEntity
  8
0
100
AcDbLine
 62
7
  6
CONTINUOUS
 10
-3.4676999143
 20
27.3775481049
 11
-3.4676999143
 21
27.240048
  0
LINE
  5
62E
100
AcDbEntity
  8
0
100
AcDbLine
 62
7
  6
CONTINUOUS
 10
-3.3698360816
 20
15.16528
 11
-3.3698360816
 21
15.566465
  0
LINE
  5
62F
100
AcDbEntity
  8
0
100
AcDbLine
 62
7
  6
CONTINUOUS
 10
-3.276210553
 20
29.4400477902
 11
-3.276210553
 21
28.6700478951
  0
LINE
  5
630
100
AcDbEntity
  8
0
100
AcDbLine
 62
7
  6
CONTINUOUS
 10
-3.276210553
 20
27.817548
 11
-3.276210553
 21
27.652548
  0
LINE
  5
631
100
AcDbEntity
  8
0
100
AcDbLine
 62
7
  6
CONTINUOUS
 10
-3.276210553
 20
26.6075478951
 11
-3.276210553
 21
26.4425478951
  0
LINE
  5
632
100
AcDbEntity
  8
0
100
AcDbLine
 62
7
  6
CONTINUOUS
 10
-3.276210553
 20
24.600048
 11
-3.276210553
 21
23.8300480066
  0
LINE
  5
633
100
AcDbEntity
  8
0
100
AcDbLine
 62
7
  6
CONTINUOUS
 10
-3.2166360816
 20
1.210048
 11
-3.2166360816
 21
-2.589952
  0
LINE
  5
634
100
AcDbEntity
  8
0
100
AcDbLine
 62
7
  6
CONTINUOUS
 10
-3.2166360816
 20
19.610048
 11
-3.2166360816
 21
23.410048
  0
LINE
  5
635
100
AcDbEntity
  8
0
100
AcDbLine
 62
7
  6
CONTINUOUS
 10
-3.1983620816
 20
16.579134
 11
-3.1983620816
 21
16.072071
  0
LINE
  5
636
100
AcDbEntity
  8
0
100
AcDbLine
 62
7
  6
CONTINUOUS
 10
-3.1166360816
 20
23.610048
 11
-3.1166360816
 21
24.600048
  0
LINE
  5
637
100
AcDbEntity
  8
0
100
AcDbLine
 62
7
  6
CONTINUOUS
 10
-3.1166360816
 20
26.4425478951
 11
-3.1166360816
 21
26.6075478951
  0
LINE
  5
638
100
AcDbEntity
  8
0
100
AcDbLine
 62
7
  6
CONTINUOUS
 10
-3.1166360816
 20
27.6250481049
 11
-3.1166360816
 21
27.8450478951
  0
LINE
  5
639
100
AcDbEntity
  8
0
100
AcDbLine
 62
7
  6
CONTINUOUS
 10
-3.1166360816
 20
28.4500481049
 11
-3.1166360816
 21
29.4400477902
  0
LINE
  5
63A
100
AcDbEntity
  8
0
100
AcDbLine
 62
7
  6
CONTINUOUS
 10
-3.0786530816
 20
13.790331
 11
-3.0786530816
 21
13.925488
  0
LINE
  5
63B
100
AcDbEntity
  8
0
100
AcDbLine
 62
7
  6
CONTINUOUS
 10
-3.0786530816
 20
14.408932
 11
-3.0786530816
 21
14.544009
  0
LINE
  5
63C
100
AcDbEntity
  8
0
100
AcDbLine
 62
7
  6
CONTINUOUS
 10
-3.0786530816
 20
14.921495
 11
-3.0786530816
 21
15.060777
  0
LINE
  5
63D
100
AcDbEntity
  8
0
100
AcDbLine
 62
7
  6
CONTINUOUS
 10
-3.0786530816
 20
15.665386
 11
-3.0786530816
 21
15.812999
  0
LINE
  5
63E
100
AcDbEntity
  8
0
100
AcDbLine
 62
7
  6
CONTINUOUS
 10
-3.0786530816
 20
15.936995
 11
-3.0786530816
 21
16.579134
  0
LINE
  5
63F
100
AcDbEntity
  8
0
100
AcDbLine
 62
7
  6
CONTINUOUS
 10
-3.0786530816
 20
16.793719
 11
-3.0786530816
 21
16.928795
  0
LINE
  5
640
100
AcDbEntity
  8
RACCORDO
100
AcDbLine
 62
253
  6
CONTINUOUS
 10
-2.9277592745
 20
-9.9072133021
 11
-2.9277592745
 21
-2.589952
  0
LINE
  5
641
100
AcDbEntity
  8
RACCORDO
100
AcDbLine
 62
253
  6
CONTINUOUS
 10
-2.9277592745
 20
1.210048
 11
-2.9277592745
 21
9.0515440649
  0
LINE
  5
642
100
AcDbEntity
  8
RACCORDO
100
AcDbLine
 62
253
  6
CONTINUOUS
 10
-2.9277592745
 20
11.7712900645
 11
-2.9277592745
 21
19.610048
  0
LINE
  5
643
100
AcDbEntity
  8
RACCORDO
100
AcDbLine
 62
253
  6
CONTINUOUS
 10
-2.9277592745
 20
23.410048
 11
-2.9277592745
 21
30.7273093021
  0
LINE
  5
644
100
AcDbEntity
  8
RACCORDO
100
AcDbLine
 62
253
  6
CONTINUOUS
 10
-2.7277897355
 20
-9.7087040717
 11
-2.7277897355
 21
-2.589952
  0
LINE
  5
645
100
AcDbEntity
  8
RACCORDO
100
AcDbLine
 62
253
  6
CONTINUOUS
 10
-2.7277897355
 20
1.210048
 11
-2.7277897355
 21
8.8533117556
  0
LINE
  5
646
100
AcDbEntity
  8
RACCORDO
100
AcDbLine
 62
253
  6
CONTINUOUS
 10
-2.7277897355
 20
11.7540977093
 11
-2.7277897355
 21
19.610048
  0
LINE
  5
647
100
AcDbEntity
  8
RACCORDO
100
AcDbLine
 62
253
  6
CONTINUOUS
 10
-2.7277897355
 20
23.410048
 11
-2.7277897355
 21
30.5288000717
  0
LINE
  5
648
100
AcDbEntity
  8
RACCORDO
100
AcDbLine
 62
7
  6
CONTINUOUS
 10
-2.7190012764
 20
11.710048
 11
-2.7190012764
 21
10.73626668
  0
LINE
  5
649
100
AcDbEntity
  8
RACCORDO
100
AcDbLine
 62
7
  6
CONTINUOUS
 10
-2.7190012764
 20
10.2838673966
 11
-2.7190012764
 21
8.8577056505
  0
LINE
  5
64A
100
AcDbEntity
  8
DRAFT
100
AcDbLine
 62
7
  6
CONTINUOUS
 10
-2.6808482071
 20
1.210048
 11
-2.6808482071
 21
-2.589952
  0
LINE
  5
64B
100
AcDbEntity
  8
DRAFT
100
AcDbLine
 62
7
  6
CONTINUOUS
 10
-2.6808482071
 20
19.610048
 11
-2.6808482071
 21
23.410048
  0
LINE
  5
64C
100
AcDbEntity
  8
DRAFT
100
AcDbLine
 62
7
  6
CONTINUOUS
 10
-2.6666360816
 20
10.310048
 11
-2.6666360816
 21
-2.689952
  0
LINE
  5
64D
100
AcDbEntity
  8
RACCORDO
100
AcDbLine
 62
7
  6
CONTINUOUS
 10
-2.6666360816
 20
10.7100860766
 11
-2.6666360816
 21
23.510048
  0
LINE
  5
64E
100
AcDbEntity
  8
RACCORDO
100
AcDbLine
 62
7
  6
CONTINUOUS
 10
-2.6666360816
 20
-2.689952
 11
-2.6823636052
 21
-10.0282461346
  0
LINE
  5
64F
100
AcDbEntity
  8
0
100
AcDbLine
 62
7
  6
CONTINUOUS
 10
-10.2589010547
 20
32.576417167
 11
-9.9823709096
 21
32.6015454308
  0
LINE
  5
650
100
AcDbEntity
  8
0
100
AcDbLine
 62
253
  6
CONTINUOUS
 10
-40.4692312954
 20
29.9074413632
 11
-39.6640408679
 21
29.9074413632
  0
LINE
  5
651
100
AcDbEntity
  8
0
100
AcDbLine
 62
253
  6
CONTINUOUS
 10
-7.9692312954
 20
29.9074413632
 11
-7.1640408679
 21
29.9074413632
  0
LINE
  5
652
100
AcDbEntity
  8
RACCORDO
100
AcDbLine
 62
253
  6
CONTINUOUS
 10
-44.9054824278
 20
30.5288000717
 11
-40.4762356362
 21
30.5288000717
  0
LINE
  5
653
100
AcDbEntity
  8
RACCORDO
100
AcDbLine
 62
253
  6
CONTINUOUS
 10
-39.6570365271
 20
30.5288000717
 11
-7.9762356362
 21
30.5288000717
  0
LINE
  5
654
100
AcDbEntity
  8
RACCORDO
100
AcDbLine
 62
253
  6
CONTINUOUS
 10
-7.1570365271
 20
30.5288000717
 11
-2.7277897355
 21
30.5288000717
  0
LINE
  5
655
100
AcDbEntity
  8
RACCORDO
100
AcDbLine
 62
253
  6
CONTINUOUS
 10
-44.7055128888
 20
30.7273093021
 11
-40.4747029702
 21
30.7273093021
  0
LINE
  5
656
100
AcDbEntity
  8
RACCORDO
100
AcDbLine
 62
253
  6
CONTINUOUS
 10
-39.6585691931
 20
30.7273093021
 11
-7.9747029702
 21
30.7273093021
  0
LINE
  5
657
100
AcDbEntity
  8
RACCORDO
100
AcDbLine
 62
253
  6
CONTINUOUS
 10
-7.1585691931
 20
30.7273093021
 11
-2.9277592745
 21
30.7273093021
  0
LINE
  5
658
100
AcDbEntity
  8
0
100
AcDbLine
 62
7
  6
CONTINUOUS
 10
-40.1692427185
 20
30.8408081417
 11
-39.9640294448
 21
30.8408081417
  0
LINE
  5
659
100
AcDbEntity
  8
0
100
AcDbLine
 62
7
  6
CONTINUOUS
 10
-7.6692427185
 20
30.8408081417
 11
-7.4640294448
 21
30.8408081417
  0
LINE
  5
65A
100
AcDbEntity
  8
0
100
AcDbLine
 62
7
  6
CONTINUOUS
 10
-32.9321061355
 20
30.9758711586
 11
-37.2011660278
 21
30.9758711586
  0
LINE
  5
65B
100
AcDbEntity
  8
0
100
AcDbLine
 62
7
  6
CONTINUOUS
 10
-14.7011660278
 20
30.9758711586
 11
-10.4321061355
 21
30.9758711586
  0
LINE
  5
65C
100
AcDbEntity
  8
RACCORDO
100
AcDbLine
 62
7
  6
CONTINUOUS
 10
-2.8823931659
 20
31.046429153
 11
-9.9823709096
 21
31.046429153
  0
LINE
  5
65D
100
AcDbEntity
  8
0
100
AcDbLine
 62
7
  6
CONTINUOUS
 10
-15.1509012537
 20
31.046429153
 11
-32.4823709096
 21
31.046429153
  0
LINE
  5
65E
100
AcDbEntity
  8
RACCORDO
100
AcDbLine
 62
7
  6
CONTINUOUS
 10
-37.6509012537
 20
31.046429153
 11
-44.7508789973
 21
31.046429153
  0
LINE
  5
65F
100
AcDbEntity
  8
0
100
AcDbLine
 62
7
  6
CONTINUOUS
 10
-37.3743711086
 20
32.576417167
 11
-37.6509012537
 21
32.6015454308
  0
LINE
  5
660
100
AcDbEntity
  8
0
100
AcDbLine
 62
7
  6
CONTINUOUS
 10
-4.3932318529
 20
27.2950481049
 11
-4.2655722937
 21
27.2675478951
  0
LINE
  5
661
100
AcDbEntity
  8
0
100
AcDbLine
 62
7
  6
CONTINUOUS
 10
-4.2655722937
 20
24.8750479738
 11
-4.1698275349
 21
24.847548
  0
LINE
  5
662
100
AcDbEntity
  8
0
100
AcDbLine
 62
7
  6
CONTINUOUS
 10
-3.4676999143
 20
25.755048
 11
-3.5634445837
 21
25.7825480525
  0
LINE
  5
663
100
AcDbEntity
  8
0
100
AcDbLine
 62
7
  6
CONTINUOUS
 10
-6.6187620816
 20
26.511259
 11
-5.7860250816
 21
26.198175
  0
LINE
  5
664
100
AcDbEntity
  8
0
100
AcDbLine
 62
7
  6
CONTINUOUS
 10
-4.2017424247
 20
24.435048
 11
-4.0740828654
 21
24.3800479738
  0
LINE
  5
665
100
AcDbEntity
  8
0
100
AcDbLine
 62
7
  6
CONTINUOUS
 10
-4.3932318529
 20
24.930048
 11
-4.2655722937
 21
24.8750479738
  0
LINE
  5
666
100
AcDbEntity
  8
RACCORDO
100
AcDbLine
 62
7
  6
CONTINUOUS
 10
-2.7190012764
 20
11.710048
 11
-2.7277897355
 21
11.7540977093
  0
LINE
  5
667
100
AcDbEntity
  8
0
100
AcDbLine
 62
7
  6
CONTINUOUS
 10
-4.6166360816
 20
24.0775479869
 11
-4.5847211918
 21
23.8850479934
  0
LINE
  5
668
100
AcDbEntity
  8
0
100
AcDbLine
 62
7
  6
CONTINUOUS
 10
-1.4534887945
 20
32.1049691622
 11
-1.4166360816
 21
23.510048
  0
LINE
  5
669
100
AcDbEntity
  8
0
100
AcDbLine
 62
7
  6
CONTINUOUS
 10
-1.4166360816
 20
10.0601146212
 11
-1.4166360816
 21
-2.689952
  0
LINE
  5
66A
100
AcDbEntity
  8
0
100
AcDbLine
 62
7
  6
CONTINUOUS
 10
-1.4166360816
 20
10.7599813788
 11
-1.4166360816
 21
23.510048
  0
LINE
  5
66B
100
AcDbEntity
  8
0
100
AcDbLine
 62
7
  6
CONTINUOUS
 10
-1.4534887945
 20
-11.2848731622
 11
-1.4166360816
 21
-2.689952
  0
LINE
  5
66C
100
AcDbEntity
  8
0
100
AcDbLine
 62
7
  6
CONTINUOUS
 10
-32.7589010547
 20
30.988058093
 11
-32.4823709096
 21
31.046429153
  0
LINE
  5
66D
100
AcDbEntity
  8
0
100
AcDbLine
 62
7
  6
CONTINUOUS
 10
-32.7589010547
 20
32.576417167
 11
-32.4823709096
 21
32.6015454308
  0
LINE
  5
66E
100
AcDbEntity
  8
0
100
AcDbLine
 62
7
  6
CONTINUOUS
 10
-32.9321061355
 20
32.5711707914
 11
-37.2011660278
 21
32.5711707914
  0
LINE
  5
66F
100
AcDbEntity
  8
0
100
AcDbLine
 62
7
  6
CONTINUOUS
 10
-14.7011660278
 20
32.5711707914
 11
-10.4321061355
 21
32.5711707914
  0
LINE
  5
670
100
AcDbEntity
  8
0
100
AcDbLine
 62
7
  6
CONTINUOUS
 10
-1.9550089464
 20
32.6015454308
 11
-9.9823709096
 21
32.6015454308
  0
LINE
  5
671
100
AcDbEntity
  8
0
100
AcDbLine
 62
7
  6
CONTINUOUS
 10
-15.1509012537
 20
32.6015454308
 11
-32.4823709096
 21
32.6015454308
  0
LINE
  5
672
100
AcDbEntity
  8
0
100
AcDbLine
 62
7
  6
CONTINUOUS
 10
-37.6509012537
 20
32.6015454308
 11
-45.6782632169
 21
32.6015454308
  0
LINE
  5
673
100
AcDbEntity
  8
0
100
AcDbLine
 62
7
  6
CONTINUOUS
 10
-14.8743711086
 20
32.576417167
 11
-15.1509012537
 21
32.6015454308
  0
LINE
  5
674
100
AcDbEntity
  8
0
100
AcDbLine
 62
7
  6
CONTINUOUS
 10
-14.8743711086
 20
30.988058093
 11
-15.1509012537
 21
31.046429153
  0
LINE
  5
675
100
AcDbEntity
  8
0
100
AcDbLine
 62
7
  6
CONTINUOUS
 10
-4.0740828654
 20
28.1750478951
 11
-4.2017424247
 21
28.2025481049
  0
LINE
  5
676
100
AcDbEntity
  8
0
100
AcDbLine
 62
7
  6
CONTINUOUS
 10
-4.3932318529
 20
28.5050478951
 11
-4.2655722937
 21
28.477548
  0
LINE
  5
677
100
AcDbEntity
  8
0
100
AcDbLine
 62
7
  6
CONTINUOUS
 10
-4.0740828654
 20
29.4125482098
 11
-4.2017424247
 21
29.4400477902
  0
LINE
  5
678
100
AcDbEntity
  8
0
100
AcDbLine
 62
7
  6
CONTINUOUS
 10
-5.6500100816
 20
27.470564
 11
-6.2066340816
 21
27.626453
  0
LINE
  5
679
100
AcDbEntity
  8
0
100
AcDbLine
 62
7
  6
CONTINUOUS
 10
-3.5634445837
 20
26.8825481049
 11
-3.4676999143
 21
26.8550478951
  0
LINE
  5
67A
100
AcDbEntity
  8
0
100
AcDbLine
 62
7
  6
CONTINUOUS
 10
-3.3719552225
 20
28.2025481049
 11
-3.4676999143
 21
28.230048
  0
LINE
  5
67B
100
AcDbEntity
  8
0
100
AcDbLine
 62
7
  6
CONTINUOUS
 10
-5.1188830816
 20
27.320129
 11
-5.4183120816
 21
27.406521
  0
LINE
  5
67C
100
AcDbEntity
  8
0
100
AcDbLine
 62
7
  6
CONTINUOUS
 10
-6.6187620816
 20
27.4809
 11
-5.1188830816
 21
27.010443
  0
LINE
  5
67D
100
AcDbEntity
  8
0
100
AcDbLine
 62
7
  6
CONTINUOUS
 10
-3.3719552225
 20
26.9650481049
 11
-3.5315296939
 21
27.0200478951
  0
LINE
  5
67E
100
AcDbEntity
  8
0
100
AcDbLine
 62
7
  6
CONTINUOUS
 10
-5.1188830816
 20
26.218421
 11
-6.0941930816
 21
26.590677
  0
LINE
  5
67F
100
AcDbEntity
  8
0
100
AcDbLine
 62
7
  6
CONTINUOUS
 10
-3.3400403327
 20
25.7000480525
 11
-3.4676999143
 21
25.755048
  0
LINE
  5
680
100
AcDbEntity
  8
0
100
AcDbLine
 62
7
  6
CONTINUOUS
 10
-4.2655722937
 20
23.775048
 11
-4.3613169631
 21
23.8300480066
  0
LINE
  5
681
100
AcDbEntity
  8
0
100
AcDbLine
 62
7
  6
CONTINUOUS
 10
-3.978338196
 20
24.517548
 11
-4.0740828654
 21
24.5725480262
  0
LINE
  5
682
100
AcDbEntity
  8
0
100
AcDbLine
 62
7
  6
CONTINUOUS
 10
-4.1698275349
 20
24.9850479475
 11
-4.3613169631
 21
25.095048
  0
LINE
  5
683
100
AcDbEntity
  8
0
100
AcDbLine
 62
7
  6
CONTINUOUS
 10
-3.5634445837
 20
25.6450479475
 11
-3.3719552225
 21
25.5350480525
  0
LINE
  5
684
100
AcDbEntity
  8
0
100
AcDbLine
 62
7
  6
CONTINUOUS
 10
-4.5208914122
 20
23.775048
 11
-4.3932318529
 21
23.6650480016
  0
LINE
  5
685
100
AcDbEntity
  8
0
100
AcDbLine
 62
7
  6
CONTINUOUS
 10
-4.5847211918
 20
23.8850479934
 11
-4.5208914122
 21
23.775048
  0
LINE
  5
686
100
AcDbEntity
  8
0
100
AcDbLine
 62
7
  6
CONTINUOUS
 10
-4.4251467428
 20
23.9125480066
 11
-4.4570616326
 21
24.0500480131
  0
LINE
  5
687
100
AcDbEntity
  8
0
100
AcDbLine
 62
7
  6
CONTINUOUS
 10
-4.4251467428
 20
25.177548
 11
-4.4570616326
 21
25.3150479475
  0
LINE
  5
688
100
AcDbEntity
  8
0
100
AcDbLine
 62
7
  6
CONTINUOUS
 10
-4.4251467428
 20
27.5425481049
 11
-4.4570616326
 21
27.6800478951
  0
LINE
  5
689
100
AcDbEntity
  8
0
100
AcDbLine
 62
7
  6
CONTINUOUS
 10
-4.0740828654
 20
26.4425478951
 11
-4.0421679756
 21
26.3050481049
  0
LINE
  5
68A
100
AcDbEntity
  8
0
100
AcDbLine
 62
7
  6
CONTINUOUS
 10
-4.4251467428
 20
28.7525478951
 11
-4.4570616326
 21
28.890048
  0
LINE
  5
68B
100
AcDbEntity
  8
0
100
AcDbLine
 62
7
  6
CONTINUOUS
 10
-3.3081254429
 20
25.4525480525
 11
-3.276210553
 21
25.3150479475
  0
LINE
  5
68C
100
AcDbEntity
  8
0
100
AcDbLine
 62
7
  6
CONTINUOUS
 10
-4.6166360816
 20
25.3150479475
 11
-4.5847211918
 21
25.1500479475
  0
LINE
  5
68D
100
AcDbEntity
  8
0
100
AcDbLine
 62
7
  6
CONTINUOUS
 10
-3.1166360816
 20
25.3150479475
 11
-3.1485509742
 21
25.4800479475
  0
LINE
  5
68E
100
AcDbEntity
  8
0
100
AcDbLine
 62
7
  6
CONTINUOUS
 10
-4.6166360816
 20
27.7075481049
 11
-4.5847211918
 21
27.5150478951
  0
LINE
  5
68F
100
AcDbEntity
  8
0
100
AcDbLine
 62
7
  6
CONTINUOUS
 10
-4.6166360816
 20
28.9175482098
 11
-4.5847211918
 21
28.725048
  0
LINE
  5
690
100
AcDbEntity
  8
0
100
AcDbLine
 62
253
  6
CONTINUOUS
 10
-7.457025104
 20
-8.7803524454
 11
-7.4640294448
 21
-8.7873567863
  0
LINE
  5
691
100
AcDbEntity
  8
0
100
AcDbLine
 62
7
  6
CONTINUOUS
 10
-4.2017424247
 20
28.065048
 11
-4.0740828654
 21
28.0100478951
  0
LINE
  5
692
100
AcDbEntity
  8
0
100
AcDbLine
 62
7
  6
CONTINUOUS
 10
-3.4676999143
 20
28.0925478951
 11
-3.4038701346
 21
28.065048
  0
LINE
  5
693
100
AcDbEntity
  8
0
100
AcDbLine
 62
7
  6
CONTINUOUS
 10
-4.2017424247
 20
29.2750477902
 11
-4.0740828654
 21
29.220048
  0
LINE
  5
694
100
AcDbEntity
  8
0
100
AcDbLine
 62
7
  6
CONTINUOUS
 10
-3.4676999143
 20
26.8550478951
 11
-3.3719552225
 21
26.8000481049
  0
LINE
  5
695
100
AcDbEntity
  8
0
100
AcDbLine
 62
7
  6
CONTINUOUS
 10
-4.2655722937
 20
27.405048
 11
-4.3613169631
 21
27.4600481049
  0
LINE
  5
696
100
AcDbEntity
  8
0
100
AcDbLine
 62
7
  6
CONTINUOUS
 10
-3.978338196
 20
28.1200481049
 11
-4.0740828654
 21
28.1750478951
  0
LINE
  5
697
100
AcDbEntity
  8
0
100
AcDbLine
 62
7
  6
CONTINUOUS
 10
-3.2442956521
 20
26.8825481049
 11
-3.3719552225
 21
26.9650481049
  0
LINE
  5
698
100
AcDbEntity
  8
0
100
AcDbLine
 62
7
  6
CONTINUOUS
 10
-4.4889765224
 20
25.012548
 11
-4.3932318529
 21
24.930048
  0
LINE
  5
699
100
AcDbEntity
  8
0
100
AcDbLine
 62
7
  6
CONTINUOUS
 10
-3.2442956521
 20
25.6175480525
 11
-3.3400403327
 21
25.7000480525
  0
LINE
  5
69A
100
AcDbEntity
  8
0
100
AcDbLine
 62
7
  6
CONTINUOUS
 10
-4.5208914122
 20
27.405048
 11
-4.3932318529
 21
27.2950481049
  0
LINE
  5
69B
100
AcDbEntity
  8
0
100
AcDbLine
 62
7
  6
CONTINUOUS
 10
-4.0740828654
 20
24.3800479738
 11
-3.276210553
 21
23.610048
  0
LINE
  5
69C
100
AcDbEntity
  8
0
100
AcDbLine
 62
7
  6
CONTINUOUS
 10
-3.276210553
 20
23.8300480066
 11
-3.978338196
 21
24.517548
  0
LINE
  5
69D
100
AcDbEntity
  8
0
100
AcDbLine
 62
253
  6
CONTINUOUS
 10
-7.457025104
 20
29.6004484454
 11
-7.4640294448
 21
29.6074527863
  0
LINE
  5
69E
100
AcDbEntity
  8
0
100
AcDbLine
 62
7
  6
CONTINUOUS
 10
-3.7868488571
 20
26.2225479475
 11
-3.8825935265
 21
26.332548
  0
LINE
  5
69F
100
AcDbEntity
  8
0
100
AcDbLine
 62
7
  6
CONTINUOUS
 10
-4.3613169631
 20
23.8300480066
 11
-4.4251467428
 21
23.9125480066
  0
LINE
  5
6A0
100
AcDbEntity
  8
0
100
AcDbLine
 62
7
  6
CONTINUOUS
 10
-4.3613169631
 20
25.095048
 11
-4.4251467428
 21
25.177548
  0
LINE
  5
6A1
100
AcDbEntity
  8
0
100
AcDbLine
 62
7
  6
CONTINUOUS
 10
-3.3719552225
 20
25.5350480525
 11
-3.3081254429
 21
25.4525480525
  0
LINE
  5
6A2
100
AcDbEntity
  8
0
100
AcDbLine
 62
7
  6
CONTINUOUS
 10
-4.5847211918
 20
25.1500479475
 11
-4.4889765224
 21
25.012548
  0
LINE
  5
6A3
100
AcDbEntity
  8
0
100
AcDbLine
 62
7
  6
CONTINUOUS
 10
-4.0421679756
 20
26.3050481049
 11
-3.9464233062
 21
26.167548
  0
LINE
  5
6A4
100
AcDbEntity
  8
0
100
AcDbLine
 62
7
  6
CONTINUOUS
 10
-4.5847211918
 20
27.5150478951
 11
-4.5208914122
 21
27.405048
  0
LINE
  5
6A5
100
AcDbEntity
  8
0
100
AcDbLine
 62
7
  6
CONTINUOUS
 10
-4.0102530858
 20
27.9550481049
 11
-3.9464233062
 21
27.7900481049
  0
LINE
  5
6A6
100
AcDbEntity
  8
0
100
AcDbLine
 62
7
  6
CONTINUOUS
 10
-3.8825935265
 20
26.332548
 11
-3.9145084164
 21
26.4425478951
  0
LINE
  5
6A7
100
AcDbEntity
  8
0
100
AcDbLine
 62
7
  6
CONTINUOUS
 10
-3.3081254429
 20
26.7175481049
 11
-3.276210553
 21
26.6075478951
  0
LINE
  5
6A8
100
AcDbEntity
  8
0
100
AcDbLine
 62
7
  6
CONTINUOUS
 10
-3.1166360816
 20
27.8450478951
 11
-3.1485509742
 21
27.9550481049
  0
LINE
  5
6A9
100
AcDbEntity
  8
0
100
AcDbLine
 62
7
  6
CONTINUOUS
 10
-3.1166360816
 20
26.6075478951
 11
-3.1485509742
 21
26.745048
  0
LINE
  5
6AA
100
AcDbEntity
  8
0
100
AcDbLine
 62
7
  6
CONTINUOUS
 10
-3.3081254429
 20
27.9550481049
 11
-3.276210553
 21
27.817548
  0
LINE
  5
6AB
100
AcDbEntity
  8
0
100
AcDbLine
 62
253
  6
CONTINUOUS
 10
-7.1570365271
 20
-9.0803410223
 11
-7.1640408679
 21
-9.0873453632
  0
LINE
  5
6AC
100
AcDbEntity
  8
0
100
AcDbLine
 62
7
  6
CONTINUOUS
 10
-4.2655722937
 20
28.6150481049
 11
-4.3613169631
 21
28.6700478951
  0
LINE
  5
6AD
100
AcDbEntity
  8
0
100
AcDbLine
 62
7
  6
CONTINUOUS
 10
-3.276210553
 20
28.147548
 11
-3.3719552225
 21
28.2025481049
  0
LINE
  5
6AE
100
AcDbEntity
  8
0
100
AcDbLine
 62
7
  6
CONTINUOUS
 10
-3.978338196
 20
29.3575477902
 11
-4.0740828654
 21
29.4125482098
  0
LINE
  5
6AF
100
AcDbEntity
  8
0
100
AcDbLine
 62
7
  6
CONTINUOUS
 10
-4.0740828654
 20
28.0100478951
 11
-4.0102530858
 21
27.9550481049
  0
LINE
  5
6B0
100
AcDbEntity
  8
0
100
AcDbLine
 62
7
  6
CONTINUOUS
 10
-4.5208914122
 20
28.6150481049
 11
-4.3932318529
 21
28.5050478951
  0
LINE
  5
6B1
100
AcDbEntity
  8
0
100
AcDbLine
 62
7
  6
CONTINUOUS
 10
-3.4038701346
 20
28.065048
 11
-3.3400403327
 21
28.0100478951
  0
LINE
  5
6B2
100
AcDbEntity
  8
0
100
AcDbLine
 62
7
  6
CONTINUOUS
 10
-4.0740828654
 20
29.220048
 11
-3.276210553
 21
28.4500481049
  0
LINE
  5
6B3
100
AcDbEntity
  8
0
100
AcDbLine
 62
7
  6
CONTINUOUS
 10
-3.276210553
 20
28.6700478951
 11
-3.978338196
 21
29.3575477902
  0
LINE
  5
6B4
100
AcDbEntity
  8
0
100
AcDbLine
 62
253
  6
CONTINUOUS
 10
-7.1570365271
 20
29.9004370223
 11
-7.1640408679
 21
29.9074413632
  0
LINE
  5
6B5
100
AcDbEntity
  8
0
100
AcDbLine
 62
7
  6
CONTINUOUS
 10
-3.8825935265
 20
28.0100478951
 11
-3.978338196
 21
28.1200481049
  0
LINE
  5
6B6
100
AcDbEntity
  8
0
100
AcDbLine
 62
7
  6
CONTINUOUS
 10
-4.3613169631
 20
27.4600481049
 11
-4.4251467428
 21
27.5425481049
  0
LINE
  5
6B7
100
AcDbEntity
  8
0
100
AcDbLine
 62
7
  6
CONTINUOUS
 10
-3.3719552225
 20
26.8000481049
 11
-3.3081254429
 21
26.7175481049
  0
LINE
  5
6B8
100
AcDbEntity
  8
0
100
AcDbLine
 62
7
  6
CONTINUOUS
 10
-4.3613169631
 20
28.6700478951
 11
-4.4251467428
 21
28.7525478951
  0
LINE
  5
6B9
100
AcDbEntity
  8
0
100
AcDbLine
 62
7
  6
CONTINUOUS
 10
-3.2123807622
 20
28.065048
 11
-3.276210553
 21
28.147548
  0
LINE
  5
6BA
100
AcDbEntity
  8
0
100
AcDbLine
 62
7
  6
CONTINUOUS
 10
-3.1485509742
 20
25.4800479475
 11
-3.2442956521
 21
25.6175480525
  0
LINE
  5
6BB
100
AcDbEntity
  8
0
100
AcDbLine
 62
7
  6
CONTINUOUS
 10
-3.1485509742
 20
26.745048
 11
-3.2442956521
 21
26.8825481049
  0
LINE
  5
6BC
100
AcDbEntity
  8
0
100
AcDbLine
 62
7
  6
CONTINUOUS
 10
-4.5847211918
 20
28.725048
 11
-4.5208914122
 21
28.6150481049
  0
LINE
  5
6BD
100
AcDbEntity
  8
0
100
AcDbLine
 62
7
  6
CONTINUOUS
 10
-3.3400403327
 20
28.0100478951
 11
-3.3081254429
 21
27.9550481049
  0
LINE
  5
6BE
100
AcDbEntity
  8
0
100
AcDbLine
 62
7
  6
CONTINUOUS
 10
-3.1485509742
 20
27.9550481049
 11
-3.2123807622
 21
28.065048
  0
CIRCLE
  5
6BF
100
AcDbEntity
  8
0
100
AcDbCircle
 62
7
  6
CONTINUOUS
 10
-37.6166360816
 20
-5.589952
 40
0.6
  0
CIRCLE
  5
6C0
100
AcDbEntity
  8
ASSI
100
AcDbCircle
 62
7
  6
CONTINUOUS
 10
-37.6166360816
 20
-5.589952
 40
0.6
  0
ARC
  5
6C1
100
AcDbEntity
  8
0
100
AcDbCircle
 62
253
  6
CONTINUOUS
 10
-39.9640570486
 20
-9.087372967
 40
0.3000163825
100
AcDbArc
 50
0.0052716595
 51
89.9947283405
  0
ARC
  5
6C2
100
AcDbEntity
  8
0
100
AcDbCircle
 62
253
  6
CONTINUOUS
 10
-40.1692151029
 20
-9.0873729788
 40
0.3000163826
100
AcDbArc
 50
90.005273901
 51
179.994726099
  0
CIRCLE
  5
6C3
100
AcDbEntity
  8
0
100
AcDbCircle
 62
7
  6
CONTINUOUS
 10
-37.6166360816
 20
3.510048
 40
0.6
  0
CIRCLE
  5
6C4
100
AcDbEntity
  8
ASSI
100
AcDbCircle
 62
7
  6
CONTINUOUS
 10
-37.6166360816
 20
3.510048
 40
0.6
  0
ARC
  5
6C5
100
AcDbEntity
  8
0
100
AcDbCircle
 62
7
  6
CONTINUOUS
 10
-39.2544552262
 20
9.6222288554
 40
0.4982666755
100
AcDbArc
 50
187.0850391879
 51
262.9149608121
  0
ARC
  5
6C6
100
AcDbEntity
  8
0
100
AcDbCircle
 62
7
  6
CONTINUOUS
 10
-39.9522569512
 20
10.0738248191
 40
0.1994068561
100
AcDbArc
 50
0.0048220294
 51
1.9322808698
  0
ARC
  5
6C7
100
AcDbEntity
  8
0
100
AcDbCircle
 62
7
  6
CONTINUOUS
 10
-30.8788169371
 20
9.6222288554
 40
0.4982666755
100
AcDbArc
 50
277.0850391879
 51
352.9149608121
  0
ARC
  5
6C8
100
AcDbEntity
  8
0
100
AcDbCircle
 62
7
  6
CONTINUOUS
 10
-30.1810152121
 20
10.0738248191
 40
0.1994068561
100
AcDbArc
 50
178.0677191301
 51
179.9951779707
  0
CIRCLE
  5
6C9
100
AcDbEntity
  8
0
100
AcDbCircle
 62
7
  6
CONTINUOUS
 10
-37.6166360816
 20
17.310048
 40
0.6
  0
CIRCLE
  5
6CA
100
AcDbEntity
  8
ASSI
100
AcDbCircle
 62
7
  6
CONTINUOUS
 10
-37.6166360816
 20
17.310048
 40
0.6
  0
ARC
  5
6CB
100
AcDbEntity
  8
0
100
AcDbCircle
 62
7
  6
CONTINUOUS
 10
-39.2544552262
 20
11.1978671446
 40
0.4982666755
100
AcDbArc
 50
97.0850391879
 51
172.9149608121
  0
ARC
  5
6CC
100
AcDbEntity
  8
0
100
AcDbCircle
 62
7
  6
CONTINUOUS
 10
-39.9522569512
 20
10.7462711809
 40
0.1994068561
100
AcDbArc
 50
358.0677191302
 51
359.9951779706
  0
CIRCLE
  5
6CD
100
AcDbEntity
  8
0
100
AcDbCircle
 62
7
  6
CONTINUOUS
 10
-37.6166360816
 20
26.410048
 40
0.6
  0
CIRCLE
  5
6CE
100
AcDbEntity
  8
ASSI
100
AcDbCircle
 62
7
  6
CONTINUOUS
 10
-37.6166360816
 20
26.410048
 40
0.6
  0
ARC
  5
6CF
100
AcDbEntity
  8
0
100
AcDbCircle
 62
253
  6
CONTINUOUS
 10
-40.1692151029
 20
29.9074689788
 40
0.3000163826
100
AcDbArc
 50
180.005273901
 51
269.994726099
  0
ARC
  5
6D0
100
AcDbEntity
  8
0
100
AcDbCircle
 62
253
  6
CONTINUOUS
 10
-39.9640570486
 20
29.907468967
 40
0.3000163825
100
AcDbArc
 50
270.0052716595
 51
359.9947283405
  0
ARC
  5
6D1
100
AcDbEntity
  8
0
100
AcDbCircle
 62
7
  6
CONTINUOUS
 10
-30.8788169731
 20
11.1978671085
 40
0.4982666755
100
AcDbArc
 50
7.0850427896
 51
82.9149572104
  0
ARC
  5
6D2
100
AcDbEntity
  8
0
100
AcDbCircle
 62
7
  6
CONTINUOUS
 10
-30.1810152121
 20
10.7462711809
 40
0.1994068561
100
AcDbArc
 50
180.0048220294
 51
181.9322808698
  0
ARC
  5
6D3
100
AcDbEntity
  8
0
100
AcDbCircle
 62
7
  6
CONTINUOUS
 10
-16.7544552262
 20
9.6222288554
 40
0.4982666755
100
AcDbArc
 50
187.0850391879
 51
262.9149608121
  0
ARC
  5
6D4
100
AcDbEntity
  8
0
100
AcDbCircle
 62
7
  6
CONTINUOUS
 10
-17.4522569513
 20
10.0738248191
 40
0.1994068562
100
AcDbArc
 50
0.0048220297
 51
1.9322808696
  0
CIRCLE
  5
6D5
100
AcDbEntity
  8
0
100
AcDbCircle
 62
7
  6
CONTINUOUS
 10
-10.0166360816
 20
-5.589952
 40
0.6
  0
CIRCLE
  5
6D6
100
AcDbEntity
  8
ASSI
100
AcDbCircle
 62
7
  6
CONTINUOUS
 10
-10.0166360816
 20
-5.589952
 40
0.6
  0
ARC
  5
6D7
100
AcDbEntity
  8
0
100
AcDbCircle
 62
253
  6
CONTINUOUS
 10
-7.6692151146
 20
-9.087372967
 40
0.3000163825
100
AcDbArc
 50
90.0052716595
 51
179.9947283405
  0
ARC
  5
6D8
100
AcDbEntity
  8
0
100
AcDbCircle
 62
253
  6
CONTINUOUS
 10
-7.4640570487
 20
-9.087372967
 40
0.3000163826
100
AcDbArc
 50
0.0052716659
 51
89.9947283341
  0
CIRCLE
  5
6D9
100
AcDbEntity
  8
0
100
AcDbCircle
 62
7
  6
CONTINUOUS
 10
-10.0166360816
 20
3.510048
 40
0.6
  0
CIRCLE
  5
6DA
100
AcDbEntity
  8
ASSI
100
AcDbCircle
 62
7
  6
CONTINUOUS
 10
-10.0166360816
 20
3.510048
 40
0.6
  0
ARC
  5
6DB
100
AcDbEntity
  8
0
100
AcDbCircle
 62
7
  6
CONTINUOUS
 10
-8.3788169731
 20
9.6222288915
 40
0.4982666755
100
AcDbArc
 50
277.0850427896
 51
352.9149572104
  0
ARC
  5
6DC
100
AcDbEntity
  8
0
100
AcDbCircle
 62
7
  6
CONTINUOUS
 10
-7.681015212
 20
10.0738248191
 40
0.1994068562
100
AcDbArc
 50
178.0677191304
 51
179.9951779703
  0
ARC
  5
6DD
100
AcDbEntity
  8
0
100
AcDbCircle
 62
7
  6
CONTINUOUS
 10
-16.7544552262
 20
11.1978671446
 40
0.4982666755
100
AcDbArc
 50
97.0850391879
 51
172.9149608121
  0
ARC
  5
6DE
100
AcDbEntity
  8
0
100
AcDbCircle
 62
7
  6
CONTINUOUS
 10
-17.4522569513
 20
10.7462711809
 40
0.1994068562
100
AcDbArc
 50
358.0677191304
 51
359.9951779703
  0
CIRCLE
  5
6DF
100
AcDbEntity
  8
0
100
AcDbCircle
 62
7
  6
CONTINUOUS
 10
-10.0166360816
 20
17.310048
 40
0.6
  0
CIRCLE
  5
6E0
100
AcDbEntity
  8
ASSI
100
AcDbCircle
 62
7
  6
CONTINUOUS
 10
-10.0166360816
 20
17.310048
 40
0.6
  0
ARC
  5
6E1
100
AcDbEntity
  8
0
100
AcDbCircle
 62
7
  6
CONTINUOUS
 10
-8.3788169731
 20
11.1978671085
 40
0.4982666755
100
AcDbArc
 50
7.0850427896
 51
82.9149572104
  0
ARC
  5
6E2
100
AcDbEntity
  8
0
100
AcDbCircle
 62
7
  6
CONTINUOUS
 10
-7.681015212
 20
10.7462711809
 40
0.1994068562
100
AcDbArc
 50
180.0048220297
 51
181.9322808696
  0
CIRCLE
  5
6E3
100
AcDbEntity
  8
0
100
AcDbCircle
 62
7
  6
CONTINUOUS
 10
-10.0166360816
 20
26.410048
 40
0.6
  0
CIRCLE
  5
6E4
100
AcDbEntity
  8
ASSI
100
AcDbCircle
 62
7
  6
CONTINUOUS
 10
-10.0166360816
 20
26.410048
 40
0.6
  0
ARC
  5
6E5
100
AcDbEntity
  8
0
100
AcDbCircle
 62
253
  6
CONTINUOUS
 10
-7.6692151029
 20
29.9074689787
 40
0.3000163825
100
AcDbArc
 50
180.0052738946
 51
269.9947261054
  0
ARC
  5
6E6
100
AcDbEntity
  8
0
100
AcDbCircle
 62
253
  6
CONTINUOUS
 10
-7.4640570487
 20
29.907468967
 40
0.3000163826
100
AcDbArc
 50
270.0052716659
 51
359.9947283341
  0
SPLINE
  5
6E7
100
AcDbEntity
  8
0
100
AcDbSpline
 62
7
  6
CONTINUOUS
 70
0
 71
3
 72
26
 73
22
 74
0
 42
0.0000001
 43
0.0000001
 44
0.0000000001
 40
0.0
 40
0.0
 40
0.0
 40
0.0
 40
0.0563497335
 40
0.1115517994
 40
0.165685573
 40
0.2188529921
 40
0.2711748211
 40
0.3227847937
 40
0.3738295261
 40
0.4244647278
 40
0.4748518838
 40
0.5251557139
 40
0.5755424776
 40
0.6261768414
 40
0.6772205209
 40
0.7288292638
 40
0.7811498364
 40
0.8343161588
 40
0.8884490903
 40
0.9436505771
 40
1.0
 40
1.0
 40
1.0
 40
1.0
 10
-8.8166360816
 20
-5.8502593792
 30
0.0
 10
-8.8166360816
 20
-5.8781166917
 30
0.0
 10
-8.8188337737
 20
-5.9332911175
 30
0.0
 10
-8.8287220175
 20
-6.0146878677
 30
0.0
 10
-8.8448981065
 20
-6.0934711198
 30
0.0
 10
-8.8670850782
 20
-6.1692926131
 30
0.0
 10
-8.8950073813
 20
-6.241859227
 30
0.0
 10
-8.9283978319
 20
-6.3109134854
 30
0.0
 10
-8.9670021584
 20
-6.3762270352
 30
0.0
 10
-9.0105818001
 20
-6.4375912889
 30
0.0
 10
-9.0589136717
 20
-6.4948081241
 30
0.0
 10
-9.111788133
 20
-6.5476819143
 30
0.0
 10
-9.1690050981
 20
-6.5960126862
 30
0.0
 10
-9.2303689175
 20
-6.6395909824
 30
0.0
 10
-9.2956815034
 20
-6.6781938966
 30
0.0
 10
-9.3647344338
 20
-6.7115830595
 30
0.0
 10
-9.4372995412
 20
-6.7395043276
 30
0.0
 10
-9.5131195913
 20
-6.7616905868
 30
0.0
 10
-9.5919016518
 20
-6.7778662689
 30
0.0
 10
-9.673297558
 20
-6.7877543376
 30
0.0
 10
-9.7284715435
 20
-6.789952
 30
0.0
 10
-9.7563287024
 20
-6.789952
 30
0.0
  0
SPLINE
  5
6E8
100
AcDbEntity
  8
0
100
AcDbSpline
 62
7
  6
CONTINUOUS
 70
0
 71
3
 72
26
 73
22
 74
0
 42
0.0000001
 43
0.0000001
 44
0.0000000001
 40
0.0
 40
0.0
 40
0.0
 40
0.0
 40
0.0563497335
 40
0.1115517994
 40
0.165685573
 40
0.2188529921
 40
0.2711748211
 40
0.3227847937
 40
0.3738295261
 40
0.4244647278
 40
0.4748518838
 40
0.5251557139
 40
0.5755424776
 40
0.6261768414
 40
0.6772205209
 40
0.7288292638
 40
0.7811498364
 40
0.8343161588
 40
0.8884490903
 40
0.9436505771
 40
1.0
 40
1.0
 40
1.0
 40
1.0
 10
-37.8769434608
 20
-6.789952
 30
0.0
 10
-37.9048007733
 20
-6.789952
 30
0.0
 10
-37.9599751991
 20
-6.7877543079
 30
0.0
 10
-38.0413719493
 20
-6.7778660641
 30
0.0
 10
-38.1201552015
 20
-6.7616899752
 30
0.0
 10
-38.1959766947
 20
-6.7395030034
 30
0.0
 10
-38.2685433087
 20
-6.7115807003
 30
0.0
 10
-38.337597567
 20
-6.6781902498
 30
0.0
 10
-38.4029111168
 20
-6.6395859233
 30
0.0
 10
-38.4642753706
 20
-6.5960062815
 30
0.0
 10
-38.5214922057
 20
-6.5476744099
 30
0.0
 10
-38.5743659959
 20
-6.4947999486
 30
0.0
 10
-38.6226967678
 20
-6.4375829835
 30
0.0
 10
-38.666275064
 20
-6.3762191642
 30
0.0
 10
-38.7048779782
 20
-6.3109065782
 30
0.0
 10
-38.7382671411
 20
-6.2418536478
 30
0.0
 10
-38.7661884092
 20
-6.1692885404
 30
0.0
 10
-38.7883746684
 20
-6.0934684904
 30
0.0
 10
-38.8045503505
 20
-6.0146864298
 30
0.0
 10
-38.8144384192
 20
-5.9332905236
 30
0.0
 10
-38.8166360816
 20
-5.8781165382
 30
0.0
 10
-38.8166360816
 20
-5.8502593792
 30
0.0
  0
SPLINE
  5
6E9
100
AcDbEntity
  8
0
100
AcDbSpline
 62
7
  6
CONTINUOUS
 70
0
 71
3
 72
26
 73
22
 74
0
 42
0.0000001
 43
0.0000001
 44
0.0000000001
 40
0.0
 40
0.0
 40
0.0
 40
0.0
 40
0.0563497335
 40
0.1115517994
 40
0.165685573
 40
0.2188529921
 40
0.2711748211
 40
0.3227847937
 40
0.3738295261
 40
0.4244647278
 40
0.4748518838
 40
0.5251557139
 40
0.5755424776
 40
0.6261768414
 40
0.6772205209
 40
0.7288292638
 40
0.7811498364
 40
0.8343161588
 40
0.8884490903
 40
0.9436505771
 40
1.0
 40
1.0
 40
1.0
 40
1.0
 10
-38.8166360816
 20
3.7703553792
 30
0.0
 10
-38.8166360816
 20
3.7982126917
 30
0.0
 10
-38.8144383896
 20
3.8533871175
 30
0.0
 10
-38.8045501457
 20
3.9347838677
 30
0.0
 10
-38.7883740568
 20
4.0135671198
 30
0.0
 10
-38.7661870851
 20
4.0893886131
 30
0.0
 10
-38.7382647819
 20
4.161955227
 30
0.0
 10
-38.7048743314
 20
4.2310094854
 30
0.0
 10
-38.6662700049
 20
4.2963230352
 30
0.0
 10
-38.6226903631
 20
4.3576872889
 30
0.0
 10
-38.5743584915
 20
4.4149041241
 30
0.0
 10
-38.5214840302
 20
4.4677779143
 30
0.0
 10
-38.4642670651
 20
4.5161086862
 30
0.0
 10
-38.4029032458
 20
4.5596869824
 30
0.0
 10
-38.3375906598
 20
4.5982898966
 30
0.0
 10
-38.2685377295
 20
4.6316790595
 30
0.0
 10
-38.195972622
 20
4.6596003276
 30
0.0
 10
-38.120152572
 20
4.6817865868
 30
0.0
 10
-38.0413705115
 20
4.6979622689
 30
0.0
 10
-37.9599746053
 20
4.7078503376
 30
0.0
 10
-37.9048006198
 20
4.710048
 30
0.0
 10
-37.8769434608
 20
4.710048
 30
0.0
  0
SPLINE
  5
6EA
100
AcDbEntity
  8
0
100
AcDbSpline
 62
7
  6
CONTINUOUS
 70
0
 71
3
 72
26
 73
22
 74
0
 42
0.0000001
 43
0.0000001
 44
0.0000000001
 40
0.0
 40
0.0
 40
0.0
 40
0.0
 40
0.0563497335
 40
0.1115517994
 40
0.165685573
 40
0.2188529921
 40
0.2711748211
 40
0.3227847937
 40
0.3738295261
 40
0.4244647278
 40
0.4748518838
 40
0.5251557139
 40
0.5755424776
 40
0.6261768414
 40
0.6772205209
 40
0.7288292638
 40
0.7811498364
 40
0.8343161588
 40
0.8884490903
 40
0.9436505771
 40
1.0
 40
1.0
 40
1.0
 40
1.0
 10
-9.7563287024
 20
4.710048
 30
0.0
 10
-9.7284713899
 20
4.710048
 30
0.0
 10
-9.6732969641
 20
4.7078503079
 30
0.0
 10
-9.5919002139
 20
4.6979620641
 30
0.0
 10
-9.5131169618
 20
4.6817859752
 30
0.0
 10
-9.4372954686
 20
4.6595990034
 30
0.0
 10
-9.3647288546
 20
4.6316767003
 30
0.0
 10
-9.2956745962
 20
4.5982862498
 30
0.0
 10
-9.2303610465
 20
4.5596819233
 30
0.0
 10
-9.1689967927
 20
4.5161022815
 30
0.0
 10
-9.1117799575
 20
4.4677704099
 30
0.0
 10
-9.0589061673
 20
4.4148959486
 30
0.0
 10
-9.0105753954
 20
4.3576789835
 30
0.0
 10
-8.9669970992
 20
4.2963151642
 30
0.0
 10
-8.9283941851
 20
4.2310025782
 30
0.0
 10
-8.8950050221
 20
4.1619496478
 30
0.0
 10
-8.8670837541
 20
4.0893845404
 30
0.0
 10
-8.8448974948
 20
4.0135644904
 30
0.0
 10
-8.8287218127
 20
3.9347824298
 30
0.0
 10
-8.818833744
 20
3.8533865236
 30
0.0
 10
-8.8166360816
 20
3.7982125382
 30
0.0
 10
-8.8166360816
 20
3.7703553792
 30
0.0
  0
SPLINE
  5
6EB
100
AcDbEntity
  8
0
100
AcDbSpline
 62
7
  6
CONTINUOUS
 70
0
 71
3
 72
26
 73
22
 74
0
 42
0.0000001
 43
0.0000001
 44
0.0000000001
 40
0.0
 40
0.0
 40
0.0
 40
0.0
 40
0.0563497335
 40
0.1115517994
 40
0.165685573
 40
0.2188529921
 40
0.2711748211
 40
0.3227847937
 40
0.3738295261
 40
0.4244647278
 40
0.4748518838
 40
0.5251557139
 40
0.5755424776
 40
0.6261768414
 40
0.6772205209
 40
0.7288292638
 40
0.7811498364
 40
0.8343161588
 40
0.8884490903
 40
0.9436505771
 40
1.0
 40
1.0
 40
1.0
 40
1.0
 10
-9.7563287024
 20
27.610048
 30
0.0
 10
-9.7284713899
 20
27.610048
 30
0.0
 10
-9.6732969641
 20
27.6078503079
 30
0.0
 10
-9.5919002139
 20
27.5979620641
 30
0.0
 10
-9.5131169618
 20
27.5817859752
 30
0.0
 10
-9.4372954686
 20
27.5595990034
 30
0.0
 10
-9.3647288546
 20
27.5316767003
 30
0.0
 10
-9.2956745962
 20
27.4982862498
 30
0.0
 10
-9.2303610465
 20
27.4596819233
 30
0.0
 10
-9.1689967927
 20
27.4161022815
 30
0.0
 10
-9.1117799575
 20
27.3677704099
 30
0.0
 10
-9.0589061673
 20
27.3148959486
 30
0.0
 10
-9.0105753954
 20
27.2576789835
 30
0.0
 10
-8.9669970992
 20
27.1963151642
 30
0.0
 10
-8.9283941851
 20
27.1310025782
 30
0.0
 10
-8.8950050221
 20
27.0619496478
 30
0.0
 10
-8.8670837541
 20
26.9893845404
 30
0.0
 10
-8.8448974948
 20
26.9135644904
 30
0.0
 10
-8.8287218127
 20
26.8347824298
 30
0.0
 10
-8.818833744
 20
26.7533865236
 30
0.0
 10
-8.8166360816
 20
26.6982125382
 30
0.0
 10
-8.8166360816
 20
26.6703553792
 30
0.0
  0
SPLINE
  5
6EC
100
AcDbEntity
  8
0
100
AcDbSpline
 62
7
  6
CONTINUOUS
 70
0
 71
3
 72
26
 73
22
 74
0
 42
0.0000001
 43
0.0000001
 44
0.0000000001
 40
0.0
 40
0.0
 40
0.0
 40
0.0
 40
0.0563497335
 40
0.1115517994
 40
0.165685573
 40
0.2188529921
 40
0.2711748211
 40
0.3227847937
 40
0.3738295261
 40
0.4244647278
 40
0.4748518838
 40
0.5251557139
 40
0.5755424776
 40
0.6261768414
 40
0.6772205209
 40
0.7288292638
 40
0.7811498364
 40
0.8343161588
 40
0.8884490903
 40
0.9436505771
 40
1.0
 40
1.0
 40
1.0
 40
1.0
 10
-8.8166360816
 20
17.0497406208
 30
0.0
 10
-8.8166360816
 20
17.0218833083
 30
0.0
 10
-8.8188337737
 20
16.9667088825
 30
0.0
 10
-8.8287220175
 20
16.8853121323
 30
0.0
 10
-8.8448981065
 20
16.8065288802
 30
0.0
 10
-8.8670850782
 20
16.7307073869
 30
0.0
 10
-8.8950073813
 20
16.658140773
 30
0.0
 10
-8.9283978319
 20
16.5890865146
 30
0.0
 10
-8.9670021584
 20
16.5237729648
 30
0.0
 10
-9.0105818001
 20
16.4624087111
 30
0.0
 10
-9.0589136717
 20
16.4051918759
 30
0.0
 10
-9.111788133
 20
16.3523180857
 30
0.0
 10
-9.1690050981
 20
16.3039873138
 30
0.0
 10
-9.2303689175
 20
16.2604090176
 30
0.0
 10
-9.2956815034
 20
16.2218061034
 30
0.0
 10
-9.3647344338
 20
16.1884169405
 30
0.0
 10
-9.4372995412
 20
16.1604956724
 30
0.0
 10
-9.5131195913
 20
16.1383094132
 30
0.0
 10
-9.5919016518
 20
16.1221337311
 30
0.0
 10
-9.673297558
 20
16.1122456624
 30
0.0
 10
-9.7284715435
 20
16.110048
 30
0.0
 10
-9.7563287024
 20
16.110048
 30
0.0
  0
SPLINE
  5
6ED
100
AcDbEntity
  8
0
100
AcDbSpline
 62
7
  6
CONTINUOUS
 70
0
 71
3
 72
26
 73
22
 74
0
 42
0.0000001
 43
0.0000001
 44
0.0000000001
 40
0.0
 40
0.0
 40
0.0
 40
0.0
 40
0.0563497335
 40
0.1115517994
 40
0.165685573
 40
0.2188529921
 40
0.2711748211
 40
0.3227847937
 40
0.3738295261
 40
0.4244647278
 40
0.4748518838
 40
0.5251557139
 40
0.5755424776
 40
0.6261768414
 40
0.6772205209
 40
0.7288292638
 40
0.7811498364
 40
0.8343161588
 40
0.8884490903
 40
0.9436505771
 40
1.0
 40
1.0
 40
1.0
 40
1.0
 10
-37.8769434608
 20
16.110048
 30
0.0
 10
-37.9048007733
 20
16.110048
 30
0.0
 10
-37.9599751991
 20
16.1122456921
 30
0.0
 10
-38.0413719493
 20
16.1221339359
 30
0.0
 10
-38.1201552015
 20
16.1383100248
 30
0.0
 10
-38.1959766947
 20
16.1604969966
 30
0.0
 10
-38.2685433087
 20
16.1884192997
 30
0.0
 10
-38.337597567
 20
16.2218097502
 30
0.0
 10
-38.4029111168
 20
16.2604140767
 30
0.0
 10
-38.4642753706
 20
16.3039937185
 30
0.0
 10
-38.5214922057
 20
16.3523255901
 30
0.0
 10
-38.5743659959
 20
16.4052000514
 30
0.0
 10
-38.6226967678
 20
16.4624170165
 30
0.0
 10
-38.666275064
 20
16.5237808358
 30
0.0
 10
-38.7048779782
 20
16.5890934218
 30
0.0
 10
-38.7382671411
 20
16.6581463522
 30
0.0
 10
-38.7661884092
 20
16.7307114596
 30
0.0
 10
-38.7883746684
 20
16.8065315096
 30
0.0
 10
-38.8045503505
 20
16.8853135702
 30
0.0
 10
-38.8144384192
 20
16.9667094764
 30
0.0
 10
-38.8166360816
 20
17.0218834618
 30
0.0
 10
-38.8166360816
 20
17.0497406208
 30
0.0
  0
SPLINE
  5
6EE
100
AcDbEntity
  8
0
100
AcDbSpline
 62
7
  6
CONTINUOUS
 70
0
 71
3
 72
26
 73
22
 74
0
 42
0.0000001
 43
0.0000001
 44
0.0000000001
 40
0.0
 40
0.0
 40
0.0
 40
0.0
 40
0.0563497335
 40
0.1115517994
 40
0.165685573
 40
0.2188529921
 40
0.2711748211
 40
0.3227847937
 40
0.3738295261
 40
0.4244647278
 40
0.4748518838
 40
0.5251557139
 40
0.5755424776
 40
0.6261768414
 40
0.6772205209
 40
0.7288292638
 40
0.7811498364
 40
0.8343161588
 40
0.8884490903
 40
0.9436505771
 40
1.0
 40
1.0
 40
1.0
 40
1.0
 10
-38.8166360816
 20
26.6703553792
 30
0.0
 10
-38.8166360816
 20
26.6982126917
 30
0.0
 10
-38.8144383896
 20
26.7533871175
 30
0.0
 10
-38.8045501457
 20
26.8347838677
 30
0.0
 10
-38.7883740568
 20
26.9135671198
 30
0.0
 10
-38.7661870851
 20
26.9893886131
 30
0.0
 10
-38.7382647819
 20
27.061955227
 30
0.0
 10
-38.7048743314
 20
27.1310094854
 30
0.0
 10
-38.6662700049
 20
27.1963230352
 30
0.0
 10
-38.6226903631
 20
27.2576872889
 30
0.0
 10
-38.5743584915
 20
27.3149041241
 30
0.0
 10
-38.5214840302
 20
27.3677779143
 30
0.0
 10
-38.4642670651
 20
27.4161086862
 30
0.0
 10
-38.4029032458
 20
27.4596869824
 30
0.0
 10
-38.3375906598
 20
27.4982898966
 30
0.0
 10
-38.2685377295
 20
27.5316790595
 30
0.0
 10
-38.195972622
 20
27.5596003276
 30
0.0
 10
-38.120152572
 20
27.5817865868
 30
0.0
 10
-38.0413705115
 20
27.5979622689
 30
0.0
 10
-37.9599746053
 20
27.6078503376
 30
0.0
 10
-37.9048006198
 20
27.610048
 30
0.0
 10
-37.8769434608
 20
27.610048
 30
0.0
  0
SPLINE
  5
6EF
100
AcDbEntity
  8
0
100
AcDbSpline
 62
7
  6
CONTINUOUS
 70
0
 71
3
 72
13
 73
9
 74
0
 42
0.0000001
 43
0.0000001
 44
0.0000000001
 40
0.0
 40
0.0
 40
0.0
 40
0.0
 40
0.2440738953
 40
0.395158764
 40
0.5865889435
 40
0.7510142171
 40
0.8853879137
 40
1.0
 40
1.0
 40
1.0
 40
1.0
 10
-41.6783805855
 20
4.729896017
 30
0.0
 10
-41.6783792355
 20
4.6701498729
 30
0.0
 10
-41.6602657739
 20
4.5713701527
 30
0.0
 10
-41.5819704681
 20
4.448478106
 30
0.0
 10
-41.4806983074
 20
4.3717476557
 30
0.0
 10
-41.3676387799
 20
4.3291549285
 30
0.0
 10
-41.2676768637
 20
4.310208408
 30
0.0
 10
-41.2065723716
 20
4.3096513047
 30
0.0
 10
-41.1785168816
 20
4.3096513047
 30
0.0
  0
SPLINE
  5
6F0
100
AcDbEntity
  8
0
100
AcDbSpline
 62
7
  6
CONTINUOUS
 70
0
 71
3
 72
13
 73
9
 74
0
 42
0.0000001
 43
0.0000001
 44
0.0000000001
 40
0.0
 40
0.0
 40
0.0
 40
0.0
 40
0.1146100765
 40
0.2489814169
 40
0.4134038072
 40
0.60483063
 40
0.7559128494
 40
1.0
 40
1.0
 40
1.0
 40
1.0
 10
-41.1785168816
 20
4.3096513047
 30
0.0
 10
-41.1504613917
 20
4.3096513047
 30
0.0
 10
-41.0893568996
 20
4.310208408
 30
0.0
 10
-40.9893949834
 20
4.3291549285
 30
0.0
 10
-40.8763354559
 20
4.3717476557
 30
0.0
 10
-40.7750632952
 20
4.448478106
 30
0.0
 10
-40.6967656488
 20
4.5713738265
 30
0.0
 10
-40.6786529203
 20
4.6701586398
 30
0.0
 10
-40.6786531777
 20
4.7299088943
 30
0.0
  0
SPLINE
  5
6F1
100
AcDbEntity
  8
0
100
AcDbSpline
 62
7
  6
CONTINUOUS
 70
0
 71
3
 72
13
 73
9
 74
0
 42
0.0000001
 43
0.0000001
 44
0.0000000001
 40
0.0
 40
0.0
 40
0.0
 40
0.0
 40
0.1573215528
 40
0.3022116905
 40
0.4829432521
 40
0.685888386
 40
0.8294069828
 40
1.0
 40
1.0
 40
1.0
 40
1.0
 10
-40.7943174329
 20
4.7480321644
 30
0.0
 10
-40.7943169026
 20
4.7191295426
 30
0.0
 10
-40.8003697337
 20
4.6632804766
 30
0.0
 10
-40.8348902161
 20
4.5798172961
 30
0.0
 10
-40.9058665832
 20
4.509710416
 30
0.0
 10
-40.9955692892
 20
4.4685576052
 30
0.0
 10
-41.0894702224
 20
4.4522979368
 30
0.0
 10
-41.1471760369
 20
4.4482921413
 30
0.0
 10
-41.1785168816
 20
4.4482921413
 30
0.0
  0
SPLINE
  5
6F2
100
AcDbEntity
  8
0
100
AcDbSpline
 62
7
  6
CONTINUOUS
 70
0
 71
3
 72
13
 73
9
 74
0
 42
0.0000001
 43
0.0000001
 44
0.0000000001
 40
0.0
 40
0.0
 40
0.0
 40
0.0
 40
0.1705968751
 40
0.3141187174
 40
0.5170684408
 40
0.6978040895
 40
0.8426975037
 40
1.0
 40
1.0
 40
1.0
 40
1.0
 10
-41.1785168816
 20
4.4482921413
 30
0.0
 10
-41.2098577264
 20
4.4482921413
 30
0.0
 10
-41.2675635409
 20
4.4522979368
 30
0.0
 10
-41.3614644741
 20
4.4685576052
 30
0.0
 10
-41.4511671801
 20
4.509710416
 30
0.0
 10
-41.5221435472
 20
4.5798172961
 30
0.0
 10
-41.5566624132
 20
4.6632765684
 30
0.0
 10
-41.5627159548
 20
4.7191211846
 30
0.0
 10
-41.5627163304
 20
4.7480197009
 30
0.0
  0
SPLINE
  5
6F3
100
AcDbEntity
  8
0
100
AcDbSpline
 62
7
  6
CONTINUOUS
 70
0
 71
3
 72
10
 73
6
 74
0
 42
0.0000001
 43
0.0000001
 44
0.0000000001
 40
0.0
 40
0.0
 40
0.0
 40
0.0
 40
0.5155508727
 40
0.7534353234
 40
1.0
 40
1.0
 40
1.0
 40
1.0
 10
-41.2700293501
 20
-7.8172540414
 30
0.0
 10
-41.2629112819
 20
-7.858969349
 30
0.0
 10
-41.2551107183
 20
-7.920587084
 30
0.0
 10
-41.2554818643
 20
-8.0027608182
 30
0.0
 10
-41.2588665997
 20
-8.0424228774
 30
0.0
 10
-41.2612001155
 20
-8.0625268049
 30
0.0
  0
SPLINE
  5
6F4
100
AcDbEntity
  8
0
100
AcDbSpline
 62
7
  6
CONTINUOUS
 70
0
 71
3
 72
11
 73
7
 74
0
 42
0.0000001
 43
0.0000001
 44
0.0000000001
 40
0.0
 40
0.0
 40
0.0
 40
0.0
 40
0.2563160025
 40
0.5004807908
 40
0.743096622
 40
1.0
 40
1.0
 40
1.0
 40
1.0
 10
-41.2612001155
 20
-8.0625268049
 30
0.0
 10
-41.263969194
 20
-8.0863776571
 30
0.0
 10
-41.2767934571
 20
-8.1325275906
 30
0.0
 10
-41.3178565898
 20
-8.190512715
 30
0.0
 10
-41.3773574606
 20
-8.229856036
 30
0.0
 10
-41.4246316778
 20
-8.2390050764
 30
0.0
 10
-41.4486948175
 20
-8.2393814357
 30
0.0
  0
SPLINE
  5
6F5
100
AcDbEntity
  8
0
100
AcDbSpline
 62
7
  6
CONTINUOUS
 70
0
 71
3
 72
15
 73
11
 74
0
 42
0.0000001
 43
0.0000001
 44
0.0000000001
 40
0.0
 40
0.0
 40
0.0
 40
0.0
 40
0.1566388749
 40
0.291183068
 40
0.4114682686
 40
0.5250598557
 40
0.6380159125
 40
0.7540986409
 40
0.8748267263
 40
1.0
 40
1.0
 40
1.0
 40
1.0
 10
-41.4486948175
 20
-8.2393814357
 30
0.0
 10
-41.4687162974
 20
-8.2396903733
 30
0.0
 10
-41.5061215416
 20
-8.2374318406
 30
0.0
 10
-41.5572641421
 20
-8.2233573314
 30
0.0
 10
-41.5987236622
 20
-8.1999430659
 30
0.0
 10
-41.6307945574
 20
-8.1686506283
 30
0.0
 10
-41.6541924145
 20
-8.1312056462
 30
0.0
 10
-41.6699641229
 20
-8.0891131414
 30
0.0
 10
-41.679137431
 20
-8.0436047663
 30
0.0
 10
-41.6814180486
 20
-8.0121756815
 30
0.0
 10
-41.681775364
 20
-7.9961781998
 30
0.0
  0
SPLINE
  5
6F6
100
AcDbEntity
  8
0
100
AcDbSpline
 62
7
  6
CONTINUOUS
 70
0
 71
3
 72
11
 73
7
 74
0
 42
0.0000001
 43
0.0000001
 44
0.0000000001
 40
0.0
 40
0.0
 40
0.0
 40
0.0
 40
0.1980138724
 40
0.4790572041
 40
0.7705716328
 40
1.0
 40
1.0
 40
1.0
 40
1.0
 10
-42.5143890598
 20
-8.6082297416
 30
0.0
 10
-42.4876473102
 20
-8.6009667581
 30
0.0
 10
-42.4227961712
 20
-8.5839696901
 30
0.0
 10
-42.3184713725
 20
-8.5566800568
 30
0.0
 10
-42.2098993209
 20
-8.5282546606
 30
0.0
 10
-42.1394130965
 20
-8.5096388621
 30
0.0
 10
-42.1084354737
 20
-8.5011991726
 30
0.0
  0
SPLINE
  5
6F7
100
AcDbEntity
  8
0
100
AcDbSpline
 62
7
  6
CONTINUOUS
 70
0
 71
3
 72
13
 73
9
 74
0
 42
0.0000001
 43
0.0000001
 44
0.0000000001
 40
0.0
 40
0.0
 40
0.0
 40
0.0
 40
0.2367002196
 40
0.4930608629
 40
0.6210774851
 40
0.7470391497
 40
0.872028646
 40
1.0
 40
1.0
 40
1.0
 40
1.0
 10
-42.1084354737
 20
-8.5011991726
 30
0.0
 10
-42.0811801508
 20
-8.4937740018
 30
0.0
 10
-42.0243478267
 20
-8.4785962595
 30
0.0
 10
-41.9544970927
 20
-8.4528135893
 30
0.0
 10
-41.9011466926
 20
-8.4231260274
 30
0.0
 10
-41.8650106529
 20
-8.3955848951
 30
0.0
 10
-41.8345784861
 20
-8.3617106895
 30
0.0
 10
-41.8199156671
 20
-8.3349204333
 30
0.0
 10
-41.8142588731
 20
-8.320734116
 30
0.0
  0
SPLINE
  5
6F8
100
AcDbEntity
  8
0
100
AcDbSpline
 62
7
  6
CONTINUOUS
 70
0
 71
3
 72
38
 73
34
 74
0
 42
0.0000001
 43
0.0000001
 44
0.0000000001
 40
0.0
 40
0.0
 40
0.0
 40
0.0
 40
0.0073509397
 40
0.0194262906
 40
0.035821938
 40
0.0561164011
 40
0.0799111054
 40
0.1068448358
 40
0.1688952035
 40
0.240547603
 40
0.2798093939
 40
0.3214225051
 40
0.365577965
 40
0.4125734244
 40
0.4372648142
 40
0.4628238751
 40
0.4893149055
 40
0.5029323401
 40
0.5168090824
 40
0.5279417531
 40
0.5389072551
 40
0.5603568752
 40
0.5812003875
 40
0.6014765287
 40
0.6404589735
 40
0.6775665652
 40
0.7130014288
 40
0.7469122425
 40
0.8104434329
 40
0.8683635106
 40
0.9200965543
 40
0.9644958844
 40
1.0
 40
1.0
 40
1.0
 40
1.0
 10
-41.8053958961
 20
-8.320734116
 30
0.0
 10
-41.8051021562
 20
-8.3230106007
 30
0.0
 10
-41.8029490293
 20
-8.3287716132
 30
0.0
 10
-41.7981232432
 20
-8.3388272799
 30
0.0
 10
-41.7903619028
 20
-8.3519684902
 30
0.0
 10
-41.7797263251
 20
-8.3675808648
 30
0.0
 10
-41.7660786299
 20
-8.3850852192
 30
0.0
 10
-41.7426738653
 20
-8.4114246342
 30
0.0
 10
-41.705479838
 20
-8.4453452931
 30
0.0
 10
-41.6603164115
 20
-8.4754308096
 30
0.0
 10
-41.617622201
 20
-8.4966595138
 30
0.0
 10
-41.5811685364
 20
-8.5108010219
 30
0.0
 10
-41.5412072211
 20
-8.5220659268
 30
0.0
 10
-41.5055376848
 20
-8.5284456615
 30
0.0
 10
-41.4753276839
 20
-8.5316087879
 30
0.0
 10
-41.4513916104
 20
-8.532932996
 30
0.0
 10
-41.4308784966
 20
-8.5330678281
 30
0.0
 10
-41.4140274336
 20
-8.5325732507
 30
0.0
 10
-41.4019815811
 20
-8.5319370177
 30
0.0
 10
-41.3907795002
 20
-8.5310891713
 30
0.0
 10
-41.3772442547
 20
-8.5297760319
 30
0.0
 10
-41.3607452113
 20
-8.5276492258
 30
0.0
 10
-41.3414863827
 20
-8.5243246905
 30
0.0
 10
-41.3170380724
 20
-8.5190145209
 30
0.0
 10
-41.2880610165
 20
-8.5107550814
 30
0.0
 10
-41.2554738251
 20
-8.498360492
 30
0.0
 10
-41.225473235
 20
-8.483953641
 30
0.0
 10
-41.1896295894
 20
-8.462981461
 30
0.0
 10
-41.1507002729
 20
-8.433698142
 30
0.0
 10
-41.112431181
 20
-8.3952671711
 30
0.0
 10
-41.0830258832
 20
-8.3570409817
 30
0.0
 10
-41.0619063768
 20
-8.3216863289
 30
0.0
 10
-41.0515871683
 20
-8.2988824266
 30
0.0
 10
-41.0478250709
 20
-8.2884539843
 30
0.0
  0
SPLINE
  5
6F9
100
AcDbEntity
  8
0
100
AcDbSpline
 62
7
  6
CONTINUOUS
 70
0
 71
3
 72
15
 73
11
 74
0
 42
0.0000001
 43
0.0000001
 44
0.0000000001
 40
0.0
 40
0.0
 40
0.0
 40
0.0
 40
0.0449286911
 40
0.1077693214
 40
0.1906181565
 40
0.2959333553
 40
0.4264678428
 40
0.5852019261
 40
0.7752867232
 40
1.0
 40
1.0
 40
1.0
 40
1.0
 10
-41.0478250709
 20
-8.2884539843
 30
0.0
 10
-41.0438578805
 20
-8.2774729669
 30
0.0
 10
-41.0349092198
 20
-8.2509200191
 30
0.0
 10
-41.0222813836
 20
-8.2029740811
 30
0.0
 10
-41.0103224702
 20
-8.1387911699
 30
0.0
 10
-41.0010890655
 20
-8.0564170747
 30
0.0
 10
-40.9966097683
 20
-7.9539015687
 30
0.0
 10
-40.9989231309
 20
-7.829279572
 30
0.0
 10
-41.0100620257
 20
-7.6805838007
 30
0.0
 10
-41.0235340427
 20
-7.573586236
 30
0.0
 10
-41.0320336755
 20
-7.5158115994
 30
0.0
  0
SPLINE
  5
6FA
100
AcDbEntity
  8
0
100
AcDbSpline
 62
7
  6
CONTINUOUS
 70
0
 71
3
 72
10
 73
6
 74
0
 42
0.0000001
 43
0.0000001
 44
0.0000000001
 40
0.0
 40
0.0
 40
0.0
 40
0.0
 40
0.3517340052
 40
0.6302069713
 40
1.0
 40
1.0
 40
1.0
 40
1.0
 10
-41.9274192928
 20
-7.9955033539
 30
0.0
 10
-41.9274192928
 20
-8.0227863284
 30
0.0
 10
-41.9384499522
 20
-8.0727238511
 30
0.0
 10
-41.9872650931
 20
-8.1352269851
 30
0.0
 10
-42.0327217273
 20
-8.160097665
 30
0.0
 10
-42.0595766263
 20
-8.1701759827
 30
0.0
  0
SPLINE
  5
6FB
100
AcDbEntity
  8
0
100
AcDbSpline
 62
7
  6
CONTINUOUS
 70
0
 71
3
 72
14
 73
10
 74
0
 42
0.0000001
 43
0.0000001
 44
0.0000000001
 40
0.0
 40
0.0
 40
0.0
 40
0.0
 40
0.0370307187
 40
0.0879027943
 40
0.2222486784
 40
0.3851395112
 40
0.5586439326
 40
0.8657374975
 40
1.0
 40
1.0
 40
1.0
 40
1.0
 10
-42.0595766263
 20
-8.1701759827
 30
0.0
 10
-42.0650653863
 20
-8.1722380338
 30
0.0
 10
-42.0782247132
 20
-8.1767809954
 30
0.0
 10
-42.1116736516
 20
-8.1877110545
 30
0.0
 10
-42.164329669
 20
-8.2040125039
 30
0.0
 10
-42.2356888836
 20
-8.2255376298
 30
0.0
 10
-42.3333762841
 20
-8.2544933788
 30
0.0
 10
-42.426831205
 20
-8.2817733918
 30
0.0
 10
-42.4939580158
 20
-8.3012057256
 30
0.0
 10
-42.5143890598
 20
-8.3070797328
 30
0.0
  0
SPLINE
  5
6FC
100
AcDbEntity
  8
0
100
AcDbSpline
 62
7
  6
CONTINUOUS
 70
0
 71
3
 72
15
 73
11
 74
0
 42
0.0000001
 43
0.0000001
 44
0.0000000001
 40
0.0
 40
0.0
 40
0.0
 40
0.0
 40
0.127135644
 40
0.2538496456
 40
0.3799144258
 40
0.5052057031
 40
0.6297172418
 40
0.7535514736
 40
0.8768966597
 40
1.0
 40
1.0
 40
1.0
 40
1.0
 10
-17.2529634823
 20
10.0805484735
 30
0.0
 10
-17.2533972554
 20
10.0934078683
 30
0.0
 10
-17.2567649683
 20
10.1190693664
 30
0.0
 10
-17.2690929029
 20
10.155730466
 30
0.0
 10
-17.288129064
 20
10.1891972091
 30
0.0
 10
-17.3130449771
 20
10.2182467267
 30
0.0
 10
-17.3428249164
 20
10.2419159696
 30
0.0
 10
-17.3763447599
 20
10.2594784258
 30
0.0
 10
-17.4123994913
 20
10.2704372749
 30
0.0
 10
-17.4373655361
 20
10.2731475289
 30
0.0
 10
-17.4498227348
 20
10.2733357929
 30
0.0
  0
SPLINE
  5
6FD
100
AcDbEntity
  8
0
100
AcDbSpline
 62
7
  6
CONTINUOUS
 70
0
 71
3
 72
15
 73
11
 74
0
 42
0.0000001
 43
0.0000001
 44
0.0000000001
 40
0.0
 40
0.0
 40
0.0
 40
0.0
 40
0.127135644
 40
0.2538496456
 40
0.3799144258
 40
0.5052057031
 40
0.6297172418
 40
0.7535514736
 40
0.8768966597
 40
1.0
 40
1.0
 40
1.0
 40
1.0
 10
-7.880308681
 20
10.0805484735
 30
0.0
 10
-7.8798749078
 20
10.0934078683
 30
0.0
 10
-7.876507195
 20
10.1190693664
 30
0.0
 10
-7.8641792604
 20
10.155730466
 30
0.0
 10
-7.8451430992
 20
10.1891972091
 30
0.0
 10
-7.8202271862
 20
10.2182467267
 30
0.0
 10
-7.7904472469
 20
10.2419159696
 30
0.0
 10
-7.7569274034
 20
10.2594784258
 30
0.0
 10
-7.720872672
 20
10.2704372749
 30
0.0
 10
-7.6959066271
 20
10.2731475289
 30
0.0
 10
-7.6834494285
 20
10.2733357929
 30
0.0
  0
SPLINE
  5
6FE
100
AcDbEntity
  8
0
100
AcDbSpline
 62
7
  6
CONTINUOUS
 70
0
 71
3
 72
15
 73
11
 74
0
 42
0.0000001
 43
0.0000001
 44
0.0000000001
 40
0.0
 40
0.0
 40
0.0
 40
0.0
 40
0.127135644
 40
0.2538496456
 40
0.3799144258
 40
0.5052057031
 40
0.6297172418
 40
0.7535514736
 40
0.8768966597
 40
1.0
 40
1.0
 40
1.0
 40
1.0
 10
-39.7529634823
 20
10.0805484735
 30
0.0
 10
-39.7533972554
 20
10.0934078683
 30
0.0
 10
-39.7567649683
 20
10.1190693664
 30
0.0
 10
-39.7690929029
 20
10.155730466
 30
0.0
 10
-39.788129064
 20
10.1891972091
 30
0.0
 10
-39.8130449771
 20
10.2182467267
 30
0.0
 10
-39.8428249164
 20
10.2419159696
 30
0.0
 10
-39.8763447599
 20
10.2594784258
 30
0.0
 10
-39.9123994913
 20
10.2704372749
 30
0.0
 10
-39.9373655361
 20
10.2731475289
 30
0.0
 10
-39.9498227348
 20
10.2733357929
 30
0.0
  0
SPLINE
  5
6FF
100
AcDbEntity
  8
0
100
AcDbSpline
 62
7
  6
CONTINUOUS
 70
0
 71
3
 72
15
 73
11
 74
0
 42
0.0000001
 43
0.0000001
 44
0.0000000001
 40
0.0
 40
0.0
 40
0.0
 40
0.0
 40
0.127135644
 40
0.2538496456
 40
0.3799144258
 40
0.5052057031
 40
0.6297172418
 40
0.7535514736
 40
0.8768966597
 40
1.0
 40
1.0
 40
1.0
 40
1.0
 10
-30.380308681
 20
10.0805484735
 30
0.0
 10
-30.3798749078
 20
10.0934078683
 30
0.0
 10
-30.376507195
 20
10.1190693664
 30
0.0
 10
-30.3641792604
 20
10.155730466
 30
0.0
 10
-30.3451430992
 20
10.1891972091
 30
0.0
 10
-30.3202271862
 20
10.2182467267
 30
0.0
 10
-30.2904472469
 20
10.2419159696
 30
0.0
 10
-30.2569274034
 20
10.2594784258
 30
0.0
 10
-30.220872672
 20
10.2704372749
 30
0.0
 10
-30.1959066271
 20
10.2731475289
 30
0.0
 10
-30.1834494285
 20
10.2733357929
 30
0.0
  0
SPLINE
  5
700
100
AcDbEntity
  8
0
100
AcDbSpline
 62
253
  6
CONTINUOUS
 70
0
 71
3
 72
14
 73
10
 74
0
 42
0.0000001
 43
0.0000001
 44
0.0000000001
 40
0.0
 40
0.0
 40
0.0
 40
0.0
 40
0.0973220451
 40
0.1998158203
 40
0.3109796129
 40
0.4324252147
 40
0.5640264407
 40
0.7043082176
 40
1.0
 40
1.0
 40
1.0
 40
1.0
 10
-10.1192312954
 20
6.2534665851
 30
0.0
 10
-10.1190997229
 20
6.2408147541
 30
0.0
 10
-10.1147338465
 20
6.214733327
 30
0.0
 10
-10.0966512811
 20
6.1780444301
 30
0.0
 10
-10.0680854745
 20
6.1446450486
 30
0.0
 10
-10.0303138425
 20
6.1156293253
 30
0.0
 10
-9.9847586
 20
6.0918915757
 30
0.0
 10
-9.9147570729
 20
6.0679657335
 30
0.0
 10
-9.8576842679
 20
6.060795491
 30
0.0
 10
-9.8192427185
 20
6.0606303022
 30
0.0
  0
SPLINE
  5
701
100
AcDbEntity
  8
0
100
AcDbSpline
 62
253
  6
CONTINUOUS
 70
0
 71
3
 72
14
 73
10
 74
0
 42
0.0000001
 43
0.0000001
 44
0.0000000001
 40
0.0
 40
0.0
 40
0.0
 40
0.0
 40
0.0973220451
 40
0.1998158203
 40
0.3109796129
 40
0.4324252147
 40
0.5640264407
 40
0.7043082176
 40
1.0
 40
1.0
 40
1.0
 40
1.0
 10
-32.6192312954
 20
6.2534665851
 30
0.0
 10
-32.6190997229
 20
6.2408147541
 30
0.0
 10
-32.6147338465
 20
6.214733327
 30
0.0
 10
-32.5966512811
 20
6.1780444301
 30
0.0
 10
-32.5680854745
 20
6.1446450486
 30
0.0
 10
-32.5303138425
 20
6.1156293253
 30
0.0
 10
-32.4847586
 20
6.0918915757
 30
0.0
 10
-32.4147570729
 20
6.0679657335
 30
0.0
 10
-32.3576842679
 20
6.060795491
 30
0.0
 10
-32.3192427185
 20
6.0606303022
 30
0.0
  0
SPLINE
  5
702
100
AcDbEntity
  8
0
100
AcDbSpline
 62
253
  6
CONTINUOUS
 70
0
 71
3
 72
14
 73
10
 74
0
 42
0.0000001
 43
0.0000001
 44
0.0000000001
 40
0.0
 40
0.0
 40
0.0
 40
0.0
 40
0.2956919314
 40
0.4359737735
 40
0.5675750532
 40
0.6890206968
 40
0.8001845242
 40
0.9026783578
 40
1.0
 40
1.0
 40
1.0
 40
1.0
 10
-32.1140294448
 20
6.0606303022
 30
0.0
 10
-32.075587876
 20
6.0607954911
 30
0.0
 10
-32.0185150424
 20
6.0679657408
 30
0.0
 10
-31.9485134865
 20
6.0918916075
 30
0.0
 10
-31.9029582318
 20
6.11562938
 30
0.0
 10
-31.8651865987
 20
6.1446451304
 30
0.0
 10
-31.8366208004
 20
6.1780445437
 30
0.0
 10
-31.8185382932
 20
6.214733426
 30
0.0
 10
-31.8141724399
 20
6.2408148065
 30
0.0
 10
-31.8140408679
 20
6.2534665851
 30
0.0
  0
SPLINE
  5
703
100
AcDbEntity
  8
0
100
AcDbSpline
 62
253
  6
CONTINUOUS
 70
0
 71
3
 72
14
 73
10
 74
0
 42
0.0000001
 43
0.0000001
 44
0.0000000001
 40
0.0
 40
0.0
 40
0.0
 40
0.0
 40
0.2956919314
 40
0.4359737735
 40
0.5675750532
 40
0.6890206968
 40
0.8001845242
 40
0.9026783578
 40
1.0
 40
1.0
 40
1.0
 40
1.0
 10
-37.8140294448
 20
6.0606303022
 30
0.0
 10
-37.775587876
 20
6.0607954911
 30
0.0
 10
-37.7185150424
 20
6.0679657408
 30
0.0
 10
-37.6485134865
 20
6.0918916075
 30
0.0
 10
-37.6029582318
 20
6.11562938
 30
0.0
 10
-37.5651865987
 20
6.1446451304
 30
0.0
 10
-37.5366208004
 20
6.1780445437
 30
0.0
 10
-37.5185382932
 20
6.214733426
 30
0.0
 10
-37.5141724399
 20
6.2408148065
 30
0.0
 10
-37.5140408679
 20
6.2534665851
 30
0.0
  0
SPLINE
  5
704
100
AcDbEntity
  8
0
100
AcDbSpline
 62
253
  6
CONTINUOUS
 70
0
 71
3
 72
14
 73
10
 74
0
 42
0.0000001
 43
0.0000001
 44
0.0000000001
 40
0.0
 40
0.0
 40
0.0
 40
0.0
 40
0.0973220451
 40
0.1998158203
 40
0.3109796129
 40
0.4324252147
 40
0.5640264407
 40
0.7043082176
 40
1.0
 40
1.0
 40
1.0
 40
1.0
 10
-38.3192312954
 20
6.2534665851
 30
0.0
 10
-38.3190997229
 20
6.2408147541
 30
0.0
 10
-38.3147338465
 20
6.214733327
 30
0.0
 10
-38.2966512811
 20
6.1780444301
 30
0.0
 10
-38.2680854745
 20
6.1446450486
 30
0.0
 10
-38.2303138425
 20
6.1156293253
 30
0.0
 10
-38.1847586
 20
6.0918915757
 30
0.0
 10
-38.1147570729
 20
6.0679657335
 30
0.0
 10
-38.0576842679
 20
6.060795491
 30
0.0
 10
-38.0192427185
 20
6.0606303022
 30
0.0
  0
SPLINE
  5
705
100
AcDbEntity
  8
RACCORDO
100
AcDbSpline
 62
253
  6
CONTINUOUS
 70
0
 71
3
 72
15
 73
11
 74
0
 42
0.0000001
 43
0.0000001
 44
0.0000000001
 40
0.0
 40
0.0
 40
0.0
 40
0.0
 40
0.1253908891
 40
0.2507580891
 40
0.3760372155
 40
0.501171716
 40
0.6261280314
 40
0.750899564
 40
0.8755066554
 40
1.0
 40
1.0
 40
1.0
 40
1.0
 10
-44.7055128888
 20
-9.9072133021
 30
0.0
 10
-44.7185641618
 20
-9.9071857459
 30
0.0
 10
-44.7447298237
 20
-9.904578331
 30
0.0
 10
-44.7824154609
 20
-9.893164764
 30
0.0
 10
-44.817172382
 20
-9.8746847357
 30
0.0
 10
-44.8476501451
 20
-9.8498431743
 30
0.0
 10
-44.8726856972
 20
-9.8195916641
 30
0.0
 10
-44.8913157278
 20
-9.7850821119
 30
0.0
 10
-44.9028246344
 20
-9.7476563957
 30
0.0
 10
-44.9054546648
 20
-9.7216619232
 30
0.0
 10
-44.9054824278
 20
-9.7087040717
 30
0.0
  0
SPLINE
  5
706
100
AcDbEntity
  8
RACCORDO
100
AcDbSpline
 62
253
  6
CONTINUOUS
 70
0
 71
3
 72
15
 73
11
 74
0
 42
0.0000001
 43
0.0000001
 44
0.0000000001
 40
0.0
 40
0.0
 40
0.0
 40
0.0
 40
0.1244934386
 40
0.2491005229
 40
0.3738720508
 40
0.4988283611
 40
0.6239628557
 40
0.7492419759
 40
0.8746091733
 40
1.0
 40
1.0
 40
1.0
 40
1.0
 10
-2.7277897355
 20
-9.7087040717
 30
0.0
 10
-2.7278174985
 20
-9.721661933
 30
0.0
 10
-2.7304475311
 20
-9.7476564147
 30
0.0
 10
-2.7419564457
 20
-9.7850821376
 30
0.0
 10
-2.7605864811
 20
-9.8195916851
 30
0.0
 10
-2.7856220353
 20
-9.8498431912
 30
0.0
 10
-2.8160997997
 20
-9.8746847483
 30
0.0
 10
-2.8508567218
 20
-9.8931647715
 30
0.0
 10
-2.8885423529
 20
-9.9045783326
 30
0.0
 10
-2.914708008
 20
-9.9071857459
 30
0.0
 10
-2.9277592745
 20
-9.9072133021
 30
0.0
  0
SPLINE
  5
707
100
AcDbEntity
  8
RACCORDO
100
AcDbSpline
 62
7
  6
CONTINUOUS
 70
0
 71
3
 72
15
 73
11
 74
0
 42
0.0000001
 43
0.0000001
 44
0.0000000001
 40
0.0
 40
0.0
 40
0.0
 40
0.0
 40
0.1503253706
 40
0.2938998645
 40
0.4279799518
 40
0.5530913333
 40
0.6709944779
 40
0.7836166333
 40
0.8927421785
 40
1.0
 40
1.0
 40
1.0
 40
1.0
 10
-2.9277592745
 20
9.0515440649
 30
0.0
 10
-2.91220017
 20
9.0512748801
 30
0.0
 10
-2.8817257102
 20
9.0471981834
 30
0.0
 10
-2.8399091709
 20
9.031577176
 30
0.0
 10
-2.8045154185
 20
9.0089921146
 30
0.0
 10
-2.7761787416
 20
8.9818026205
 30
0.0
 10
-2.7546465888
 20
8.9516955031
 30
0.0
 10
-2.7394748725
 20
8.9197786384
 30
0.0
 10
-2.7302860697
 20
8.886820816
 30
0.0
 10
-2.7279851801
 20
8.864413187
 30
0.0
 10
-2.7277897355
 20
8.8533117556
 30
0.0
  0
SPLINE
  5
708
100
AcDbEntity
  8
0
100
AcDbSpline
 62
7
  6
CONTINUOUS
 70
0
 71
3
 72
12
 73
8
 74
0
 42
0.0000001
 43
0.0000001
 44
0.0000000001
 40
0.0
 40
0.0
 40
0.0
 40
0.0
 40
0.0849788816
 40
0.1851451052
 40
0.4244313341
 40
0.7022288855
 40
1.0
 40
1.0
 40
1.0
 40
1.0
 10
-37.3743711086
 20
-10.167962093
 30
0.0
 10
-37.369552496
 20
-10.1669449615
 30
0.0
 10
-37.3589828698
 20
-10.1650665202
 30
0.0
 10
-37.3346071783
 20
-10.161745275
 30
0.0
 10
-37.2989568075
 20
-10.1585901857
 30
0.0
 10
-37.2517821294
 20
-10.156291307
 30
0.0
 10
-37.2184227978
 20
-10.1557751586
 30
0.0
 10
-37.2011660278
 20
-10.1557751586
 30
0.0
  0
SPLINE
  5
709
100
AcDbEntity
  8
0
100
AcDbSpline
 62
7
  6
CONTINUOUS
 70
0
 71
3
 72
12
 73
8
 74
0
 42
0.0000001
 43
0.0000001
 44
0.0000000001
 40
0.0
 40
0.0
 40
0.0
 40
0.0
 40
0.2977711145
 40
0.5755686659
 40
0.8148548948
 40
0.9150211184
 40
1.0
 40
1.0
 40
1.0
 40
1.0
 10
-32.9321061355
 20
-10.1557751586
 30
0.0
 10
-32.9148493654
 20
-10.1557751586
 30
0.0
 10
-32.8814900339
 20
-10.156291307
 30
0.0
 10
-32.8343153557
 20
-10.1585901857
 30
0.0
 10
-32.7986649849
 20
-10.161745275
 30
0.0
 10
-32.7742892935
 20
-10.1650665202
 30
0.0
 10
-32.7637196673
 20
-10.1669449615
 30
0.0
 10
-32.7589010547
 20
-10.167962093
 30
0.0
  0
SPLINE
  5
70A
100
AcDbEntity
  8
0
100
AcDbSpline
 62
7
  6
CONTINUOUS
 70
0
 71
3
 72
12
 73
8
 74
0
 42
0.0000001
 43
0.0000001
 44
0.0000000001
 40
0.0
 40
0.0
 40
0.0
 40
0.0
 40
0.0849788816
 40
0.1851451052
 40
0.4244313341
 40
0.7022288855
 40
1.0
 40
1.0
 40
1.0
 40
1.0
 10
-14.8743711086
 20
-10.167962093
 30
0.0
 10
-14.869552496
 20
-10.1669449615
 30
0.0
 10
-14.8589828698
 20
-10.1650665202
 30
0.0
 10
-14.8346071783
 20
-10.161745275
 30
0.0
 10
-14.7989568075
 20
-10.1585901857
 30
0.0
 10
-14.7517821294
 20
-10.156291307
 30
0.0
 10
-14.7184227978
 20
-10.1557751586
 30
0.0
 10
-14.7011660278
 20
-10.1557751586
 30
0.0
  0
SPLINE
  5
70B
100
AcDbEntity
  8
0
100
AcDbSpline
 62
7
  6
CONTINUOUS
 70
0
 71
3
 72
12
 73
8
 74
0
 42
0.0000001
 43
0.0000001
 44
0.0000000001
 40
0.0
 40
0.0
 40
0.0
 40
0.0
 40
0.2977711145
 40
0.5755686659
 40
0.8148548948
 40
0.9150211184
 40
1.0
 40
1.0
 40
1.0
 40
1.0
 10
-10.4321061355
 20
-10.1557751586
 30
0.0
 10
-10.4148493654
 20
-10.1557751586
 30
0.0
 10
-10.3814900339
 20
-10.156291307
 30
0.0
 10
-10.3343153557
 20
-10.1585901857
 30
0.0
 10
-10.2986649849
 20
-10.161745275
 30
0.0
 10
-10.2742892935
 20
-10.1650665202
 30
0.0
 10
-10.2637196673
 20
-10.1669449615
 30
0.0
 10
-10.2589010547
 20
-10.167962093
 30
0.0
  0
SPLINE
  5
70C
100
AcDbEntity
  8
0
100
AcDbSpline
 62
253
  6
CONTINUOUS
 70
0
 71
3
 72
14
 73
10
 74
0
 42
0.0000001
 43
0.0000001
 44
0.0000000001
 40
0.0
 40
0.0
 40
0.0
 40
0.0
 40
0.2956919314
 40
0.4359737735
 40
0.5675750532
 40
0.6890206968
 40
0.8001845242
 40
0.9026783578
 40
1.0
 40
1.0
 40
1.0
 40
1.0
 10
-15.3140294448
 20
6.0606303022
 30
0.0
 10
-15.275587876
 20
6.0607954911
 30
0.0
 10
-15.2185150424
 20
6.0679657408
 30
0.0
 10
-15.1485134865
 20
6.0918916075
 30
0.0
 10
-15.1029582318
 20
6.11562938
 30
0.0
 10
-15.0651865987
 20
6.1446451304
 30
0.0
 10
-15.0366208004
 20
6.1780445437
 30
0.0
 10
-15.0185382932
 20
6.214733426
 30
0.0
 10
-15.0141724399
 20
6.2408148065
 30
0.0
 10
-15.0140408679
 20
6.2534665851
 30
0.0
  0
SPLINE
  5
70D
100
AcDbEntity
  8
0
100
AcDbSpline
 62
253
  6
CONTINUOUS
 70
0
 71
3
 72
14
 73
10
 74
0
 42
0.0000001
 43
0.0000001
 44
0.0000000001
 40
0.0
 40
0.0
 40
0.0
 40
0.0
 40
0.0973220451
 40
0.1998158203
 40
0.3109796129
 40
0.4324252147
 40
0.5640264407
 40
0.7043082176
 40
1.0
 40
1.0
 40
1.0
 40
1.0
 10
-15.8192312954
 20
6.2534665851
 30
0.0
 10
-15.8190997229
 20
6.2408147541
 30
0.0
 10
-15.8147338465
 20
6.214733327
 30
0.0
 10
-15.7966512811
 20
6.1780444301
 30
0.0
 10
-15.7680854745
 20
6.1446450486
 30
0.0
 10
-15.7303138425
 20
6.1156293253
 30
0.0
 10
-15.6847586
 20
6.0918915757
 30
0.0
 10
-15.6147570729
 20
6.0679657335
 30
0.0
 10
-15.5576842679
 20
6.060795491
 30
0.0
 10
-15.5192427185
 20
6.0606303022
 30
0.0
  0
SPLINE
  5
70E
100
AcDbEntity
  8
0
100
AcDbSpline
 62
253
  6
CONTINUOUS
 70
0
 71
3
 72
14
 73
10
 74
0
 42
0.0000001
 43
0.0000001
 44
0.0000000001
 40
0.0
 40
0.0
 40
0.0
 40
0.0
 40
0.2956919314
 40
0.4359737735
 40
0.5675750532
 40
0.6890206968
 40
0.8001845242
 40
0.9026783578
 40
1.0
 40
1.0
 40
1.0
 40
1.0
 10
-9.6140294448
 20
6.0606303022
 30
0.0
 10
-9.575587876
 20
6.0607954911
 30
0.0
 10
-9.5185150424
 20
6.0679657408
 30
0.0
 10
-9.4485134865
 20
6.0918916075
 30
0.0
 10
-9.4029582318
 20
6.11562938
 30
0.0
 10
-9.3651865987
 20
6.1446451304
 30
0.0
 10
-9.3366208004
 20
6.1780445437
 30
0.0
 10
-9.3185382932
 20
6.214733426
 30
0.0
 10
-9.3141724399
 20
6.2408148065
 30
0.0
 10
-9.3140408679
 20
6.2534665851
 30
0.0
  0
SPLINE
  5
70F
100
AcDbEntity
  8
0
100
AcDbSpline
 62
7
  6
CONTINUOUS
 70
0
 71
3
 72
13
 73
9
 74
0
 42
0.0000001
 43
0.0000001
 44
0.0000000001
 40
0.0
 40
0.0
 40
0.0
 40
0.0
 40
0.2440738953
 40
0.395158764
 40
0.5865889435
 40
0.7510142171
 40
0.8853879137
 40
1.0
 40
1.0
 40
1.0
 40
1.0
 10
-5.9548915778
 20
16.090199983
 30
0.0
 10
-5.9548929278
 20
16.1499461271
 30
0.0
 10
-5.9730063893
 20
16.2487258473
 30
0.0
 10
-6.0513016952
 20
16.371617894
 30
0.0
 10
-6.1525738559
 20
16.4483483443
 30
0.0
 10
-6.2656333833
 20
16.4909410715
 30
0.0
 10
-6.3655952996
 20
16.509887592
 30
0.0
 10
-6.4266997917
 20
16.5104446953
 30
0.0
 10
-6.4547552816
 20
16.5104446953
 30
0.0
  0
SPLINE
  5
710
100
AcDbEntity
  8
0
100
AcDbSpline
 62
7
  6
CONTINUOUS
 70
0
 71
3
 72
13
 73
9
 74
0
 42
0.0000001
 43
0.0000001
 44
0.0000000001
 40
0.0
 40
0.0
 40
0.0
 40
0.0
 40
0.1146100765
 40
0.2489814169
 40
0.4134038072
 40
0.60483063
 40
0.7559128494
 40
1.0
 40
1.0
 40
1.0
 40
1.0
 10
-6.4547552816
 20
16.5104446953
 30
0.0
 10
-6.4828107715
 20
16.5104446953
 30
0.0
 10
-6.5439152637
 20
16.509887592
 30
0.0
 10
-6.6438771799
 20
16.4909410715
 30
0.0
 10
-6.7569367074
 20
16.4483483443
 30
0.0
 10
-6.858208868
 20
16.371617894
 30
0.0
 10
-6.9365065145
 20
16.2487221735
 30
0.0
 10
-6.954619243
 20
16.1499373602
 30
0.0
 10
-6.9546189855
 20
16.0901871057
 30
0.0
  0
SPLINE
  5
711
100
AcDbEntity
  8
0
100
AcDbSpline
 62
7
  6
CONTINUOUS
 70
0
 71
3
 72
13
 73
9
 74
0
 42
0.0000001
 43
0.0000001
 44
0.0000000001
 40
0.0
 40
0.0
 40
0.0
 40
0.0
 40
0.1573215528
 40
0.3022116905
 40
0.4829432521
 40
0.685888386
 40
0.8294069828
 40
1.0
 40
1.0
 40
1.0
 40
1.0
 10
-6.8389547304
 20
16.0720638356
 30
0.0
 10
-6.8389552607
 20
16.1009664574
 30
0.0
 10
-6.8329024296
 20
16.1568155234
 30
0.0
 10
-6.7983819472
 20
16.2402787039
 30
0.0
 10
-6.72740558
 20
16.310385584
 30
0.0
 10
-6.637702874
 20
16.3515383948
 30
0.0
 10
-6.5438019409
 20
16.3677980632
 30
0.0
 10
-6.4860961263
 20
16.3718038587
 30
0.0
 10
-6.4547552816
 20
16.3718038587
 30
0.0
  0
SPLINE
  5
712
100
AcDbEntity
  8
0
100
AcDbSpline
 62
7
  6
CONTINUOUS
 70
0
 71
3
 72
13
 73
9
 74
0
 42
0.0000001
 43
0.0000001
 44
0.0000000001
 40
0.0
 40
0.0
 40
0.0
 40
0.0
 40
0.1705968751
 40
0.3141187174
 40
0.5170684408
 40
0.6978040895
 40
0.8426975037
 40
1.0
 40
1.0
 40
1.0
 40
1.0
 10
-6.4547552816
 20
16.3718038587
 30
0.0
 10
-6.4234144369
 20
16.3718038587
 30
0.0
 10
-6.3657086224
 20
16.3677980632
 30
0.0
 10
-6.2718076892
 20
16.3515383948
 30
0.0
 10
-6.1821049832
 20
16.310385584
 30
0.0
 10
-6.1111286161
 20
16.2402787039
 30
0.0
 10
-6.0766097501
 20
16.1568194316
 30
0.0
 10
-6.0705562085
 20
16.1009748154
 30
0.0
 10
-6.0705558328
 20
16.0720762991
 30
0.0
  0
SPLINE
  5
713
100
AcDbEntity
  8
0
100
AcDbSpline
 62
7
  6
CONTINUOUS
 70
0
 71
3
 72
10
 73
6
 74
0
 42
0.0000001
 43
0.0000001
 44
0.0000000001
 40
0.0
 40
0.0
 40
0.0
 40
0.0
 40
0.5155508727
 40
0.7534353234
 40
1.0
 40
1.0
 40
1.0
 40
1.0
 10
-6.3632428132
 20
28.6373500414
 30
0.0
 10
-6.3703608814
 20
28.679065349
 30
0.0
 10
-6.378161445
 20
28.740683084
 30
0.0
 10
-6.377790299
 20
28.8228568182
 30
0.0
 10
-6.3744055635
 20
28.8625188774
 30
0.0
 10
-6.3720720478
 20
28.8826228049
 30
0.0
  0
SPLINE
  5
714
100
AcDbEntity
  8
0
100
AcDbSpline
 62
7
  6
CONTINUOUS
 70
0
 71
3
 72
11
 73
7
 74
0
 42
0.0000001
 43
0.0000001
 44
0.0000000001
 40
0.0
 40
0.0
 40
0.0
 40
0.0
 40
0.2563160025
 40
0.5004807908
 40
0.743096622
 40
1.0
 40
1.0
 40
1.0
 40
1.0
 10
-6.3720720478
 20
28.8826228049
 30
0.0
 10
-6.3693029693
 20
28.9064736571
 30
0.0
 10
-6.3564787062
 20
28.9526235906
 30
0.0
 10
-6.3154155734
 20
29.010608715
 30
0.0
 10
-6.2559147027
 20
29.049952036
 30
0.0
 10
-6.2086404854
 20
29.0591010764
 30
0.0
 10
-6.1845773458
 20
29.0594774357
 30
0.0
  0
SPLINE
  5
715
100
AcDbEntity
  8
0
100
AcDbSpline
 62
7
  6
CONTINUOUS
 70
0
 71
3
 72
15
 73
11
 74
0
 42
0.0000001
 43
0.0000001
 44
0.0000000001
 40
0.0
 40
0.0
 40
0.0
 40
0.0
 40
0.1566388749
 40
0.291183068
 40
0.4114682686
 40
0.5250598557
 40
0.6380159125
 40
0.7540986409
 40
0.8748267263
 40
1.0
 40
1.0
 40
1.0
 40
1.0
 10
-6.1845773458
 20
29.0594774357
 30
0.0
 10
-6.1645558659
 20
29.0597863733
 30
0.0
 10
-6.1271506217
 20
29.0575278406
 30
0.0
 10
-6.0760080211
 20
29.0434533314
 30
0.0
 10
-6.0345485011
 20
29.0200390659
 30
0.0
 10
-6.0024776059
 20
28.9887466283
 30
0.0
 10
-5.9790797487
 20
28.9513016462
 30
0.0
 10
-5.9633080404
 20
28.9092091414
 30
0.0
 10
-5.9541347322
 20
28.8637007663
 30
0.0
 10
-5.9518541146
 20
28.8322716815
 30
0.0
 10
-5.9514967992
 20
28.8162741998
 30
0.0
  0
SPLINE
  5
716
100
AcDbEntity
  8
0
100
AcDbSpline
 62
7
  6
CONTINUOUS
 70
0
 71
3
 72
10
 73
6
 74
0
 42
0.0000001
 43
0.0000001
 44
0.0000000001
 40
0.0
 40
0.0
 40
0.0
 40
0.0
 40
0.3517340052
 40
0.6302069713
 40
1.0
 40
1.0
 40
1.0
 40
1.0
 10
-5.7058528705
 20
28.8155993539
 30
0.0
 10
-5.7058528705
 20
28.8428823284
 30
0.0
 10
-5.694822211
 20
28.8928198511
 30
0.0
 10
-5.6460070702
 20
28.9553229851
 30
0.0
 10
-5.600550436
 20
28.980193665
 30
0.0
 10
-5.573695537
 20
28.9902719827
 30
0.0
  0
SPLINE
  5
717
100
AcDbEntity
  8
0
100
AcDbSpline
 62
7
  6
CONTINUOUS
 70
0
 71
3
 72
14
 73
10
 74
0
 42
0.0000001
 43
0.0000001
 44
0.0000000001
 40
0.0
 40
0.0
 40
0.0
 40
0.0
 40
0.0370307187
 40
0.0879027943
 40
0.2222486784
 40
0.3851395112
 40
0.5586439326
 40
0.8657374975
 40
1.0
 40
1.0
 40
1.0
 40
1.0
 10
-5.573695537
 20
28.9902719827
 30
0.0
 10
-5.568206777
 20
28.9923340338
 30
0.0
 10
-5.55504745
 20
28.9968769954
 30
0.0
 10
-5.5215985116
 20
29.0078070545
 30
0.0
 10
-5.4689424943
 20
29.0241085039
 30
0.0
 10
-5.3975832796
 20
29.0456336298
 30
0.0
 10
-5.2998958792
 20
29.0745893788
 30
0.0
 10
-5.2064409583
 20
29.1018693918
 30
0.0
 10
-5.1393141475
 20
29.1213017256
 30
0.0
 10
-5.1188831035
 20
29.1271757328
 30
0.0
  0
SPLINE
  5
718
100
AcDbEntity
  8
0
100
AcDbSpline
 62
7
  6
CONTINUOUS
 70
0
 71
3
 72
11
 73
7
 74
0
 42
0.0000001
 43
0.0000001
 44
0.0000000001
 40
0.0
 40
0.0
 40
0.0
 40
0.0
 40
0.1980138724
 40
0.4790572041
 40
0.7705716328
 40
1.0
 40
1.0
 40
1.0
 40
1.0
 10
-5.1188831035
 20
29.4283257416
 30
0.0
 10
-5.1456248531
 20
29.4210627581
 30
0.0
 10
-5.2104759921
 20
29.4040656901
 30
0.0
 10
-5.3148007908
 20
29.3767760568
 30
0.0
 10
-5.4233728424
 20
29.3483506606
 30
0.0
 10
-5.4938590667
 20
29.3297348621
 30
0.0
 10
-5.5248366896
 20
29.3212951726
 30
0.0
  0
SPLINE
  5
719
100
AcDbEntity
  8
0
100
AcDbSpline
 62
7
  6
CONTINUOUS
 70
0
 71
3
 72
13
 73
9
 74
0
 42
0.0000001
 43
0.0000001
 44
0.0000000001
 40
0.0
 40
0.0
 40
0.0
 40
0.0
 40
0.2367002196
 40
0.4930608629
 40
0.6210774851
 40
0.7470391497
 40
0.872028646
 40
1.0
 40
1.0
 40
1.0
 40
1.0
 10
-5.5248366896
 20
29.3212951726
 30
0.0
 10
-5.5520920125
 20
29.3138700018
 30
0.0
 10
-5.6089243366
 20
29.2986922595
 30
0.0
 10
-5.6787750706
 20
29.2729095893
 30
0.0
 10
-5.7321254706
 20
29.2432220274
 30
0.0
 10
-5.7682615103
 20
29.2156808951
 30
0.0
 10
-5.7986936771
 20
29.1818066895
 30
0.0
 10
-5.8133564962
 20
29.1550164333
 30
0.0
 10
-5.8190132902
 20
29.140830116
 30
0.0
  0
SPLINE
  5
71A
100
AcDbEntity
  8
0
100
AcDbSpline
 62
7
  6
CONTINUOUS
 70
0
 71
3
 72
38
 73
34
 74
0
 42
0.0000001
 43
0.0000001
 44
0.0000000001
 40
0.0
 40
0.0
 40
0.0
 40
0.0
 40
0.0073509397
 40
0.0194262906
 40
0.035821938
 40
0.0561164011
 40
0.0799111054
 40
0.1068448358
 40
0.1688952035
 40
0.240547603
 40
0.2798093939
 40
0.3214225051
 40
0.365577965
 40
0.4125734244
 40
0.4372648142
 40
0.4628238751
 40
0.4893149055
 40
0.5029323401
 40
0.5168090824
 40
0.5279417531
 40
0.5389072551
 40
0.5603568752
 40
0.5812003875
 40
0.6014765287
 40
0.6404589735
 40
0.6775665652
 40
0.7130014288
 40
0.7469122425
 40
0.8104434329
 40
0.8683635106
 40
0.9200965543
 40
0.9644958844
 40
1.0
 40
1.0
 40
1.0
 40
1.0
 10
-5.8278762671
 20
29.140830116
 30
0.0
 10
-5.8281700071
 20
29.1431066007
 30
0.0
 10
-5.830323134
 20
29.1488676132
 30
0.0
 10
-5.83514892
 20
29.1589232799
 30
0.0
 10
-5.8429102604
 20
29.1720644902
 30
0.0
 10
-5.8535458382
 20
29.1876768648
 30
0.0
 10
-5.8671935334
 20
29.2051812192
 30
0.0
 10
-5.890598298
 20
29.2315206342
 30
0.0
 10
-5.9277923253
 20
29.2654412931
 30
0.0
 10
-5.9729557518
 20
29.2955268096
 30
0.0
 10
-6.0156499623
 20
29.3167555138
 30
0.0
 10
-6.0521036269
 20
29.3308970219
 30
0.0
 10
-6.0920649422
 20
29.3421619268
 30
0.0
 10
-6.1277344784
 20
29.3485416615
 30
0.0
 10
-6.1579444794
 20
29.3517047879
 30
0.0
 10
-6.1818805528
 20
29.353028996
 30
0.0
 10
-6.2023936666
 20
29.3531638281
 30
0.0
 10
-6.2192447297
 20
29.3526692507
 30
0.0
 10
-6.2312905822
 20
29.3520330177
 30
0.0
 10
-6.242492663
 20
29.3511851713
 30
0.0
 10
-6.2560279085
 20
29.3498720319
 30
0.0
 10
-6.272526952
 20
29.3477452258
 30
0.0
 10
-6.2917857806
 20
29.3444206905
 30
0.0
 10
-6.3162340909
 20
29.3391105209
 30
0.0
 10
-6.3452111468
 20
29.3308510814
 30
0.0
 10
-6.3777983381
 20
29.318456492
 30
0.0
 10
-6.4077989282
 20
29.304049641
 30
0.0
 10
-6.4436425738
 20
29.283077461
 30
0.0
 10
-6.4825718903
 20
29.253794142
 30
0.0
 10
-6.5208409823
 20
29.2153631711
 30
0.0
 10
-6.5502462801
 20
29.1771369817
 30
0.0
 10
-6.5713657865
 20
29.1417823289
 30
0.0
 10
-6.581684995
 20
29.1189784266
 30
0.0
 10
-6.5854470923
 20
29.1085499843
 30
0.0
  0
SPLINE
  5
71B
100
AcDbEntity
  8
0
100
AcDbSpline
 62
7
  6
CONTINUOUS
 70
0
 71
3
 72
15
 73
11
 74
0
 42
0.0000001
 43
0.0000001
 44
0.0000000001
 40
0.0
 40
0.0
 40
0.0
 40
0.0
 40
0.0449286911
 40
0.1077693214
 40
0.1906181565
 40
0.2959333553
 40
0.4264678428
 40
0.5852019261
 40
0.7752867232
 40
1.0
 40
1.0
 40
1.0
 40
1.0
 10
-6.5854470923
 20
29.1085499843
 30
0.0
 10
-6.5894142828
 20
29.0975689669
 30
0.0
 10
-6.5983629434
 20
29.0710160191
 30
0.0
 10
-6.6109907796
 20
29.0230700811
 30
0.0
 10
-6.622949693
 20
28.9588871699
 30
0.0
 10
-6.6321830978
 20
28.8765130747
 30
0.0
 10
-6.636662395
 20
28.7739975687
 30
0.0
 10
-6.6343490324
 20
28.649375572
 30
0.0
 10
-6.6232101375
 20
28.5006798007
 30
0.0
 10
-6.6097381206
 20
28.393682236
 30
0.0
 10
-6.6012384878
 20
28.3359075994
 30
0.0
  0
SPLINE
  5
71C
100
AcDbEntity
  8
0
100
AcDbSpline
 62
7
  6
CONTINUOUS
 70
0
 71
3
 72
15
 73
11
 74
0
 42
0.0000001
 43
0.0000001
 44
0.0000000001
 40
0.0
 40
0.0
 40
0.0
 40
0.0
 40
0.127135644
 40
0.2538496456
 40
0.3799144258
 40
0.5052057031
 40
0.6297172418
 40
0.7535514736
 40
0.8768966597
 40
1.0
 40
1.0
 40
1.0
 40
1.0
 10
-30.380308681
 20
10.7395475265
 30
0.0
 10
-30.3798749078
 20
10.7266881317
 30
0.0
 10
-30.376507195
 20
10.7010266336
 30
0.0
 10
-30.3641792604
 20
10.664365534
 30
0.0
 10
-30.3451430992
 20
10.6308987909
 30
0.0
 10
-30.3202271862
 20
10.6018492733
 30
0.0
 10
-30.2904472469
 20
10.5781800304
 30
0.0
 10
-30.2569274034
 20
10.5606175742
 30
0.0
 10
-30.220872672
 20
10.5496587251
 30
0.0
 10
-30.1959066271
 20
10.5469484711
 30
0.0
 10
-30.1834494285
 20
10.5467602071
 30
0.0
  0
SPLINE
  5
71D
100
AcDbEntity
  8
0
100
AcDbSpline
 62
7
  6
CONTINUOUS
 70
0
 71
3
 72
15
 73
11
 74
0
 42
0.0000001
 43
0.0000001
 44
0.0000000001
 40
0.0
 40
0.0
 40
0.0
 40
0.0
 40
0.127135644
 40
0.2538496456
 40
0.3799144258
 40
0.5052057031
 40
0.6297172418
 40
0.7535514736
 40
0.8768966597
 40
1.0
 40
1.0
 40
1.0
 40
1.0
 10
-39.7529634823
 20
10.7395475265
 30
0.0
 10
-39.7533972554
 20
10.7266881317
 30
0.0
 10
-39.7567649683
 20
10.7010266336
 30
0.0
 10
-39.7690929029
 20
10.664365534
 30
0.0
 10
-39.788129064
 20
10.6308987909
 30
0.0
 10
-39.8130449771
 20
10.6018492733
 30
0.0
 10
-39.8428249164
 20
10.5781800304
 30
0.0
 10
-39.8763447599
 20
10.5606175742
 30
0.0
 10
-39.9123994913
 20
10.5496587251
 30
0.0
 10
-39.9373655361
 20
10.5469484711
 30
0.0
 10
-39.9498227348
 20
10.5467602071
 30
0.0
  0
SPLINE
  5
71E
100
AcDbEntity
  8
0
100
AcDbSpline
 62
7
  6
CONTINUOUS
 70
0
 71
3
 72
15
 73
11
 74
0
 42
0.0000001
 43
0.0000001
 44
0.0000000001
 40
0.0
 40
0.0
 40
0.0
 40
0.0
 40
0.127135644
 40
0.2538496456
 40
0.3799144258
 40
0.5052057031
 40
0.6297172418
 40
0.7535514736
 40
0.8768966597
 40
1.0
 40
1.0
 40
1.0
 40
1.0
 10
-7.880308681
 20
10.7395475265
 30
0.0
 10
-7.8798749078
 20
10.7266881317
 30
0.0
 10
-7.876507195
 20
10.7010266336
 30
0.0
 10
-7.8641792604
 20
10.664365534
 30
0.0
 10
-7.8451430992
 20
10.6308987909
 30
0.0
 10
-7.8202271862
 20
10.6018492733
 30
0.0
 10
-7.7904472469
 20
10.5781800304
 30
0.0
 10
-7.7569274034
 20
10.5606175742
 30
0.0
 10
-7.720872672
 20
10.5496587251
 30
0.0
 10
-7.6959066271
 20
10.5469484711
 30
0.0
 10
-7.6834494285
 20
10.5467602071
 30
0.0
  0
SPLINE
  5
71F
100
AcDbEntity
  8
0
100
AcDbSpline
 62
7
  6
CONTINUOUS
 70
0
 71
3
 72
15
 73
11
 74
0
 42
0.0000001
 43
0.0000001
 44
0.0000000001
 40
0.0
 40
0.0
 40
0.0
 40
0.0
 40
0.127135644
 40
0.2538496456
 40
0.3799144258
 40
0.5052057031
 40
0.6297172418
 40
0.7535514736
 40
0.8768966597
 40
1.0
 40
1.0
 40
1.0
 40
1.0
 10
-17.2529634823
 20
10.7395475265
 30
0.0
 10
-17.2533972554
 20
10.7266881317
 30
0.0
 10
-17.2567649683
 20
10.7010266336
 30
0.0
 10
-17.2690929029
 20
10.664365534
 30
0.0
 10
-17.288129064
 20
10.6308987909
 30
0.0
 10
-17.3130449771
 20
10.6018492733
 30
0.0
 10
-17.3428249164
 20
10.5781800304
 30
0.0
 10
-17.3763447599
 20
10.5606175742
 30
0.0
 10
-17.4123994913
 20
10.5496587251
 30
0.0
 10
-17.4373655361
 20
10.5469484711
 30
0.0
 10
-17.4498227348
 20
10.5467602071
 30
0.0
  0
SPLINE
  5
720
100
AcDbEntity
  8
0
100
AcDbSpline
 62
253
  6
CONTINUOUS
 70
0
 71
3
 72
14
 73
10
 74
0
 42
0.0000001
 43
0.0000001
 44
0.0000000001
 40
0.0
 40
0.0
 40
0.0
 40
0.0
 40
0.2956917824
 40
0.4359735593
 40
0.5675747853
 40
0.6890203871
 40
0.8001841797
 40
0.9026779549
 40
1.0
 40
1.0
 40
1.0
 40
1.0
 10
-32.3192427185
 20
14.7594656978
 30
0.0
 10
-32.3576842679
 20
14.759300509
 30
0.0
 10
-32.4147570729
 20
14.7521302665
 30
0.0
 10
-32.4847586
 20
14.7282044243
 30
0.0
 10
-32.5303138425
 20
14.7044666747
 30
0.0
 10
-32.5680854745
 20
14.6754509514
 30
0.0
 10
-32.5966512811
 20
14.6420515699
 30
0.0
 10
-32.6147338465
 20
14.605362673
 30
0.0
 10
-32.6190997229
 20
14.5792812459
 30
0.0
 10
-32.6192312954
 20
14.5666294149
 30
0.0
  0
SPLINE
  5
721
100
AcDbEntity
  8
0
100
AcDbSpline
 62
253
  6
CONTINUOUS
 70
0
 71
3
 72
14
 73
10
 74
0
 42
0.0000001
 43
0.0000001
 44
0.0000000001
 40
0.0
 40
0.0
 40
0.0
 40
0.0
 40
0.0973220451
 40
0.1998158205
 40
0.3109796134
 40
0.4324252154
 40
0.5640264417
 40
0.704308219
 40
1.0
 40
1.0
 40
1.0
 40
1.0
 10
-31.8140408679
 20
14.5666294149
 30
0.0
 10
-31.8141724404
 20
14.5792812459
 30
0.0
 10
-31.8185383167
 20
14.6053626731
 30
0.0
 10
-31.8366208822
 20
14.64205157
 30
0.0
 10
-31.8651866889
 20
14.6754509515
 30
0.0
 10
-31.902958321
 20
14.7044666748
 30
0.0
 10
-31.9485135636
 20
14.7282044244
 30
0.0
 10
-32.0185150907
 20
14.7521302666
 30
0.0
 10
-32.0755878956
 20
14.759300509
 30
0.0
 10
-32.1140294448
 20
14.7594656978
 30
0.0
  0
SPLINE
  5
722
100
AcDbEntity
  8
0
100
AcDbSpline
 62
253
  6
CONTINUOUS
 70
0
 71
3
 72
14
 73
10
 74
0
 42
0.0000001
 43
0.0000001
 44
0.0000000001
 40
0.0
 40
0.0
 40
0.0
 40
0.0
 40
0.2956917824
 40
0.4359735593
 40
0.5675747853
 40
0.6890203871
 40
0.8001841797
 40
0.9026779549
 40
1.0
 40
1.0
 40
1.0
 40
1.0
 10
-38.0192427185
 20
14.7594656978
 30
0.0
 10
-38.0576842679
 20
14.759300509
 30
0.0
 10
-38.1147570729
 20
14.7521302665
 30
0.0
 10
-38.1847586
 20
14.7282044243
 30
0.0
 10
-38.2303138425
 20
14.7044666747
 30
0.0
 10
-38.2680854745
 20
14.6754509514
 30
0.0
 10
-38.2966512811
 20
14.6420515699
 30
0.0
 10
-38.3147338465
 20
14.605362673
 30
0.0
 10
-38.3190997229
 20
14.5792812459
 30
0.0
 10
-38.3192312954
 20
14.5666294149
 30
0.0
  0
SPLINE
  5
723
100
AcDbEntity
  8
0
100
AcDbSpline
 62
253
  6
CONTINUOUS
 70
0
 71
3
 72
14
 73
10
 74
0
 42
0.0000001
 43
0.0000001
 44
0.0000000001
 40
0.0
 40
0.0
 40
0.0
 40
0.0
 40
0.0973220451
 40
0.1998158205
 40
0.3109796134
 40
0.4324252154
 40
0.5640264417
 40
0.704308219
 40
1.0
 40
1.0
 40
1.0
 40
1.0
 10
-37.5140408679
 20
14.5666294149
 30
0.0
 10
-37.5141724404
 20
14.5792812459
 30
0.0
 10
-37.5185383167
 20
14.6053626731
 30
0.0
 10
-37.5366208822
 20
14.64205157
 30
0.0
 10
-37.5651866889
 20
14.6754509515
 30
0.0
 10
-37.602958321
 20
14.7044666748
 30
0.0
 10
-37.6485135636
 20
14.7282044244
 30
0.0
 10
-37.7185150907
 20
14.7521302666
 30
0.0
 10
-37.7755878956
 20
14.759300509
 30
0.0
 10
-37.8140294448
 20
14.7594656978
 30
0.0
  0
SPLINE
  5
724
100
AcDbEntity
  8
0
100
AcDbSpline
 62
253
  6
CONTINUOUS
 70
0
 71
3
 72
14
 73
10
 74
0
 42
0.0000001
 43
0.0000001
 44
0.0000000001
 40
0.0
 40
0.0
 40
0.0
 40
0.0
 40
0.0973220451
 40
0.1998158203
 40
0.3109796129
 40
0.4324252147
 40
0.5640264407
 40
0.7043082176
 40
1.0
 40
1.0
 40
1.0
 40
1.0
 10
-15.0140408679
 20
14.5666294149
 30
0.0
 10
-15.0141724404
 20
14.5792812459
 30
0.0
 10
-15.0185383167
 20
14.605362673
 30
0.0
 10
-15.0366208822
 20
14.6420515699
 30
0.0
 10
-15.0651866888
 20
14.6754509514
 30
0.0
 10
-15.1029583207
 20
14.7044666747
 30
0.0
 10
-15.1485135632
 20
14.7282044243
 30
0.0
 10
-15.2185150903
 20
14.7521302665
 30
0.0
 10
-15.2755878954
 20
14.759300509
 30
0.0
 10
-15.3140294448
 20
14.7594656978
 30
0.0
  0
SPLINE
  5
725
100
AcDbEntity
  8
0
100
AcDbSpline
 62
253
  6
CONTINUOUS
 70
0
 71
3
 72
14
 73
10
 74
0
 42
0.0000001
 43
0.0000001
 44
0.0000000001
 40
0.0
 40
0.0
 40
0.0
 40
0.0
 40
0.2956919314
 40
0.4359737735
 40
0.5675750532
 40
0.6890206968
 40
0.8001845242
 40
0.9026783578
 40
1.0
 40
1.0
 40
1.0
 40
1.0
 10
-15.5192427185
 20
14.7594656978
 30
0.0
 10
-15.5576842872
 20
14.7593005089
 30
0.0
 10
-15.6147571209
 20
14.7521302592
 30
0.0
 10
-15.6847586767
 20
14.7282043925
 30
0.0
 10
-15.7303139315
 20
14.70446662
 30
0.0
 10
-15.7680855645
 20
14.6754508696
 30
0.0
 10
-15.7966513629
 20
14.6420514563
 30
0.0
 10
-15.8147338701
 20
14.605362574
 30
0.0
 10
-15.8190997234
 20
14.5792811935
 30
0.0
 10
-15.8192312954
 20
14.5666294149
 30
0.0
  0
SPLINE
  5
726
100
AcDbEntity
  8
0
100
AcDbSpline
 62
253
  6
CONTINUOUS
 70
0
 71
3
 72
14
 73
10
 74
0
 42
0.0000001
 43
0.0000001
 44
0.0000000001
 40
0.0
 40
0.0
 40
0.0
 40
0.0
 40
0.0973220451
 40
0.1998158203
 40
0.3109796129
 40
0.4324252147
 40
0.5640264407
 40
0.7043082176
 40
1.0
 40
1.0
 40
1.0
 40
1.0
 10
-9.3140408679
 20
14.5666294149
 30
0.0
 10
-9.3141724404
 20
14.5792812459
 30
0.0
 10
-9.3185383167
 20
14.605362673
 30
0.0
 10
-9.3366208822
 20
14.6420515699
 30
0.0
 10
-9.3651866888
 20
14.6754509514
 30
0.0
 10
-9.4029583207
 20
14.7044666747
 30
0.0
 10
-9.4485135632
 20
14.7282044243
 30
0.0
 10
-9.5185150903
 20
14.7521302665
 30
0.0
 10
-9.5755878954
 20
14.759300509
 30
0.0
 10
-9.6140294448
 20
14.7594656978
 30
0.0
  0
SPLINE
  5
727
100
AcDbEntity
  8
0
100
AcDbSpline
 62
253
  6
CONTINUOUS
 70
0
 71
3
 72
14
 73
10
 74
0
 42
0.0000001
 43
0.0000001
 44
0.0000000001
 40
0.0
 40
0.0
 40
0.0
 40
0.0
 40
0.2956919314
 40
0.4359737735
 40
0.5675750532
 40
0.6890206968
 40
0.8001845242
 40
0.9026783578
 40
1.0
 40
1.0
 40
1.0
 40
1.0
 10
-9.8192427185
 20
14.7594656978
 30
0.0
 10
-9.8576842872
 20
14.7593005089
 30
0.0
 10
-9.9147571209
 20
14.7521302592
 30
0.0
 10
-9.9847586767
 20
14.7282043925
 30
0.0
 10
-10.0303139315
 20
14.70446662
 30
0.0
 10
-10.0680855645
 20
14.6754508696
 30
0.0
 10
-10.0966513629
 20
14.6420514563
 30
0.0
 10
-10.1147338701
 20
14.605362574
 30
0.0
 10
-10.1190997234
 20
14.5792811935
 30
0.0
 10
-10.1192312954
 20
14.5666294149
 30
0.0
  0
SPLINE
  5
728
100
AcDbEntity
  8
RACCORDO
100
AcDbSpline
 62
253
  6
CONTINUOUS
 70
0
 71
3
 72
15
 73
11
 74
0
 42
0.0000001
 43
0.0000001
 44
0.0000000001
 40
0.0
 40
0.0
 40
0.0
 40
0.0
 40
0.1253908891
 40
0.2507580891
 40
0.3760372155
 40
0.501171716
 40
0.6261280314
 40
0.750899564
 40
0.8755066554
 40
1.0
 40
1.0
 40
1.0
 40
1.0
 10
-2.9277592745
 20
30.7273093021
 30
0.0
 10
-2.9147080015
 20
30.7272817459
 30
0.0
 10
-2.8885423395
 20
30.724674331
 30
0.0
 10
-2.8508567023
 20
30.713260764
 30
0.0
 10
-2.8160997813
 20
30.6947807357
 30
0.0
 10
-2.7856220182
 20
30.6699391743
 30
0.0
 10
-2.7605864661
 20
30.6396876641
 30
0.0
 10
-2.7419564354
 20
30.6051781119
 30
0.0
 10
-2.7304475289
 20
30.5677523957
 30
0.0
 10
-2.7278174984
 20
30.5417579232
 30
0.0
 10
-2.7277897355
 20
30.5288000717
 30
0.0
  0
SPLINE
  5
729
100
AcDbEntity
  8
RACCORDO
100
AcDbSpline
 62
253
  6
CONTINUOUS
 70
0
 71
3
 72
15
 73
11
 74
0
 42
0.0000001
 43
0.0000001
 44
0.0000000001
 40
0.0
 40
0.0
 40
0.0
 40
0.0
 40
0.1244934386
 40
0.2491005229
 40
0.3738720508
 40
0.4988283611
 40
0.6239628557
 40
0.7492419759
 40
0.8746091733
 40
1.0
 40
1.0
 40
1.0
 40
1.0
 10
-44.9054824278
 20
30.5288000717
 30
0.0
 10
-44.9054546648
 20
30.541757933
 30
0.0
 10
-44.9028246321
 20
30.5677524147
 30
0.0
 10
-44.8913157175
 20
30.6051781376
 30
0.0
 10
-44.8726856822
 20
30.6396876851
 30
0.0
 10
-44.8476501279
 20
30.6699391912
 30
0.0
 10
-44.8171723635
 20
30.6947807483
 30
0.0
 10
-44.7824154415
 20
30.7132607715
 30
0.0
 10
-44.7447298104
 20
30.7246743326
 30
0.0
 10
-44.7185641553
 20
30.7272817459
 30
0.0
 10
-44.7055128888
 20
30.7273093021
 30
0.0
  0
SPLINE
  5
72A
100
AcDbEntity
  8
RACCORDO
100
AcDbSpline
 62
7
  6
CONTINUOUS
 70
0
 71
3
 72
15
 73
11
 74
0
 42
0.0000001
 43
0.0000001
 44
0.0000000001
 40
0.0
 40
0.0
 40
0.0
 40
0.0
 40
0.1526194612
 40
0.2984527708
 40
0.4342672025
 40
0.5601056265
 40
0.677563036
 40
0.7886743284
 40
0.895492577
 40
1.0
 40
1.0
 40
1.0
 40
1.0
 10
-44.7055128888
 20
11.7713155444
 30
0.0
 10
-44.7207230585
 20
11.7715587915
 30
0.0
 10
-44.7505117114
 20
11.7751603562
 30
0.0
 10
-44.7917917791
 20
11.7890881162
 30
0.0
 10
-44.8271920887
 20
11.8095275775
 30
0.0
 10
-44.8558744217
 20
11.8344740117
 30
0.0
 10
-44.8778606989
 20
11.8623824132
 30
0.0
 10
-44.8934421616
 20
11.8921751925
 30
0.0
 10
-44.9029101941
 20
11.9230691044
 30
0.0
 10
-44.9052840719
 20
11.9441415682
 30
0.0
 10
-44.9054824278
 20
11.9545562993
 30
0.0
  0
SPLINE
  5
72B
100
AcDbEntity
  8
0
100
AcDbSpline
 62
7
  6
CONTINUOUS
 70
0
 71
3
 72
12
 73
8
 74
0
 42
0.0000001
 43
0.0000001
 44
0.0000000001
 40
0.0
 40
0.0
 40
0.0
 40
0.0
 40
0.0849788816
 40
0.1851451052
 40
0.4244313341
 40
0.7022288855
 40
1.0
 40
1.0
 40
1.0
 40
1.0
 10
-10.2589010547
 20
30.988058093
 30
0.0
 10
-10.2637196673
 20
30.9870409615
 30
0.0
 10
-10.2742892935
 20
30.9851625202
 30
0.0
 10
-10.2986649849
 20
30.981841275
 30
0.0
 10
-10.3343153557
 20
30.9786861857
 30
0.0
 10
-10.3814900339
 20
30.976387307
 30
0.0
 10
-10.4148493654
 20
30.9758711586
 30
0.0
 10
-10.4321061355
 20
30.9758711586
 30
0.0
  0
SPLINE
  5
72C
100
AcDbEntity
  8
0
100
AcDbSpline
 62
7
  6
CONTINUOUS
 70
0
 71
3
 72
12
 73
8
 74
0
 42
0.0000001
 43
0.0000001
 44
0.0000000001
 40
0.0
 40
0.0
 40
0.0
 40
0.0
 40
0.2977711145
 40
0.5755686659
 40
0.8148548948
 40
0.9150211184
 40
1.0
 40
1.0
 40
1.0
 40
1.0
 10
-14.7011660278
 20
30.9758711586
 30
0.0
 10
-14.7184227978
 20
30.9758711586
 30
0.0
 10
-14.7517821294
 20
30.976387307
 30
0.0
 10
-14.7989568075
 20
30.9786861857
 30
0.0
 10
-14.8346071783
 20
30.981841275
 30
0.0
 10
-14.8589828698
 20
30.9851625202
 30
0.0
 10
-14.869552496
 20
30.9870409615
 30
0.0
 10
-14.8743711086
 20
30.988058093
 30
0.0
  0
SPLINE
  5
72D
100
AcDbEntity
  8
0
100
AcDbSpline
 62
7
  6
CONTINUOUS
 70
0
 71
3
 72
12
 73
8
 74
0
 42
0.0000001
 43
0.0000001
 44
0.0000000001
 40
0.0
 40
0.0
 40
0.0
 40
0.0
 40
0.0849788816
 40
0.1851451052
 40
0.4244313341
 40
0.7022288855
 40
1.0
 40
1.0
 40
1.0
 40
1.0
 10
-32.7589010547
 20
30.988058093
 30
0.0
 10
-32.7637196673
 20
30.9870409615
 30
0.0
 10
-32.7742892935
 20
30.9851625202
 30
0.0
 10
-32.7986649849
 20
30.981841275
 30
0.0
 10
-32.8343153557
 20
30.9786861857
 30
0.0
 10
-32.8814900339
 20
30.976387307
 30
0.0
 10
-32.9148493654
 20
30.9758711586
 30
0.0
 10
-32.9321061355
 20
30.9758711586
 30
0.0
  0
SPLINE
  5
72E
100
AcDbEntity
  8
0
100
AcDbSpline
 62
7
  6
CONTINUOUS
 70
0
 71
3
 72
12
 73
8
 74
0
 42
0.0000001
 43
0.0000001
 44
0.0000000001
 40
0.0
 40
0.0
 40
0.0
 40
0.0
 40
0.2977711145
 40
0.5755686659
 40
0.8148548948
 40
0.9150211184
 40
1.0
 40
1.0
 40
1.0
 40
1.0
 10
-37.2011660278
 20
30.9758711586
 30
0.0
 10
-37.2184227978
 20
30.9758711586
 30
0.0
 10
-37.2517821294
 20
30.976387307
 30
0.0
 10
-37.2989568075
 20
30.9786861857
 30
0.0
 10
-37.3346071783
 20
30.981841275
 30
0.0
 10
-37.3589828698
 20
30.9851625202
 30
0.0
 10
-37.369552496
 20
30.9870409615
 30
0.0
 10
-37.3743711086
 20
30.988058093
 30
0.0
  0
ELLIPSE
  5
72F
100
AcDbEntity
  8
0
100
AcDbEllipse
 62
7
  6
CONTINUOUS
 10
-1.6667884677
 20
10.0600384804
 30
0.0
 11
-0.2426981267
 21
-0.0606514259
 31
0.0
 40
0.9993528196
 41
2.8968558282
 42
4.4673476033
  0
ELLIPSE
  5
730
100
AcDbEntity
  8
0
100
AcDbEllipse
 62
7
  6
CONTINUOUS
 10
-45.9664836956
 20
10.0600384804
 30
0.0
 11
-0.2426981267
 21
0.0606514259
 31
0.0
 40
0.9993528196
 41
-1.3257549497
 42
0.2447368254
  0
ELLIPSE
  5
731
100
AcDbEntity
  8
0
100
AcDbEllipse
 62
7
  6
CONTINUOUS
 10
-37.2011660278
 20
-11.7615675425
 30
0.0
 11
0.2
 21
0.0
 31
0.0
 40
0.0524637553
 41
1.5707963268
 42
2.617993878
  0
ELLIPSE
  5
732
100
AcDbEntity
  8
0
100
AcDbEllipse
 62
7
  6
CONTINUOUS
 10
-32.9321061355
 20
-11.7615675425
 30
0.0
 11
0.2
 21
-0.0
 31
0.0
 40
0.0524637553
 41
0.5235987756
 42
1.5707963268
  0
ELLIPSE
  5
733
100
AcDbEntity
  8
0
100
AcDbEllipse
 62
7
  6
CONTINUOUS
 10
-14.7011660278
 20
-11.7615675425
 30
0.0
 11
0.2
 21
0.0
 31
0.0
 40
0.0524637553
 41
1.5707963268
 42
2.617993878
  0
ELLIPSE
  5
734
100
AcDbEntity
  8
0
100
AcDbEllipse
 62
7
  6
CONTINUOUS
 10
-10.4321061355
 20
-11.7615675425
 30
0.0
 11
0.2
 21
-0.0
 31
0.0
 40
0.0524637553
 41
0.5235987756
 42
1.5707963268
  0
ELLIPSE
  5
735
100
AcDbEntity
  8
0
100
AcDbEllipse
 62
7
  6
CONTINUOUS
 10
-39.7562888307
 20
10.0703876353
 30
0.0
 11
0.000044129
 21
0.2000221726
 31
0.0
 40
0.0171905225
 41
-1.5579631943
 42
-1.5535237603
  0
ELLIPSE
  5
736
100
AcDbEntity
  8
0
100
AcDbEllipse
 62
7
  6
CONTINUOUS
 10
-30.3769833326
 20
10.0703876353
 30
0.0
 11
-0.000044129
 21
0.2000221726
 31
0.0
 40
0.0171905225
 41
1.5535237603
 42
1.5579631943
  0
ELLIPSE
  5
737
100
AcDbEntity
  8
0
100
AcDbEllipse
 62
7
  6
CONTINUOUS
 10
-8.3729957042
 20
9.6164076226
 30
0.0
 11
0.1896138901
 21
0.4643386945
 31
0.0
 40
0.9790602997
 41
-1.3019498305
 42
-1.1756477791
  0
ELLIPSE
  5
738
100
AcDbEntity
  8
0
100
AcDbEllipse
 62
7
  6
CONTINUOUS
 10
-16.7602764591
 20
9.6164076226
 30
0.0
 11
0.4643386945
 21
-0.1896138901
 31
0.0
 40
0.9790602997
 41
-1.3019498305
 42
-1.1756477791
  0
ELLIPSE
  5
739
100
AcDbEntity
  8
0
100
AcDbEllipse
 62
7
  6
CONTINUOUS
 10
-30.8729957042
 20
9.6164076226
 30
0.0
 11
0.1896138901
 21
0.4643386945
 31
0.0
 40
0.9790602997
 41
-1.3019498305
 42
-1.1756477791
  0
ELLIPSE
  5
73A
100
AcDbEntity
  8
0
100
AcDbEllipse
 62
7
  6
CONTINUOUS
 10
-39.2602764591
 20
9.6164076226
 30
0.0
 11
0.4643386945
 21
-0.1896138901
 31
0.0
 40
0.9790602997
 41
-1.3019498305
 42
-1.1756477791
  0
ELLIPSE
  5
73B
100
AcDbEntity
  8
0
100
AcDbEllipse
 62
7
  6
CONTINUOUS
 10
-39.2602764591
 20
9.6164076226
 30
0.0
 11
-0.1896138901
 21
0.4643386945
 31
0.0
 40
0.9790602997
 41
1.1756477791
 42
1.3019498305
  0
ELLIPSE
  5
73C
100
AcDbEntity
  8
0
100
AcDbEllipse
 62
7
  6
CONTINUOUS
 10
-30.8729957042
 20
9.6164076226
 30
0.0
 11
0.4643386945
 21
0.1896138901
 31
0.0
 40
0.9790602997
 41
-1.9659448745
 42
-1.8396428231
  0
ELLIPSE
  5
73D
100
AcDbEntity
  8
0
100
AcDbEllipse
 62
7
  6
CONTINUOUS
 10
-8.3729957042
 20
9.6164076226
 30
0.0
 11
0.4643386945
 21
0.1896138901
 31
0.0
 40
0.9790602997
 41
-1.9659448745
 42
-1.8396428231
  0
ELLIPSE
  5
73E
100
AcDbEntity
  8
0
100
AcDbEllipse
 62
7
  6
CONTINUOUS
 10
-16.7602764591
 20
9.6164076226
 30
0.0
 11
-0.1896138901
 21
0.4643386945
 31
0.0
 40
0.9790602997
 41
1.1756477791
 42
1.3019498305
  0
ELLIPSE
  5
73F
100
AcDbEntity
  8
0
100
AcDbEllipse
 62
7
  6
CONTINUOUS
 10
-45.6794824926
 20
-11.2839645067
 30
0.0
 11
0.4901042491
 21
-0.1011361035
 31
0.0
 40
0.9938624933
 41
-2.9350443199
 42
-1.3660744926
  0
ELLIPSE
  5
740
100
AcDbEntity
  8
0
100
AcDbEllipse
 62
7
  6
CONTINUOUS
 10
-1.9537896706
 20
-11.2839645067
 30
0.0
 11
0.4901042491
 21
0.1011361035
 31
0.0
 40
0.9938624933
 41
-1.775518161
 42
-0.2065483337
  0
ELLIPSE
  5
741
100
AcDbEntity
  8
0
100
AcDbEllipse
 62
7
  6
CONTINUOUS
 10
-17.2562888307
 20
10.0703876353
 30
0.0
 11
0.000044129
 21
0.2000221726
 31
0.0
 40
0.0171905225
 41
-1.5579631943
 42
-1.5535237603
  0
ELLIPSE
  5
742
100
AcDbEntity
  8
0
100
AcDbEllipse
 62
7
  6
CONTINUOUS
 10
-7.8769833326
 20
10.0703876353
 30
0.0
 11
-0.000044129
 21
0.2000221726
 31
0.0
 40
0.0171905225
 41
1.5535237603
 42
1.5579631943
  0
ELLIPSE
  5
743
100
AcDbEntity
  8
0
100
AcDbEllipse
 62
7
  6
CONTINUOUS
 10
-9.8227334656
 20
5.7767651481
 30
0.0
 11
0.0034175972
 21
0.4667119782
 31
0.0
 40
0.6427774967
 41
-4.7009971771
 42
-3.1368858142
  0
ELLIPSE
  5
744
100
AcDbEntity
  8
0
100
AcDbEllipse
 62
7
  6
CONTINUOUS
 10
-9.6105386977
 20
5.7767651481
 30
0.0
 11
-0.0034175972
 21
0.4667119782
 31
0.0
 40
0.6427774967
 41
-3.146299493
 42
-1.58218813
  0
ELLIPSE
  5
745
100
AcDbEntity
  8
0
100
AcDbEllipse
 62
7
  6
CONTINUOUS
 10
-9.6140294448
 20
7.4074299397
 30
0.0
 11
0.3
 21
0.0
 31
0.0
 40
0.0087268678
 41
0.0087266463
 42
1.5707963268
  0
ELLIPSE
  5
746
100
AcDbEntity
  8
0
100
AcDbEllipse
 62
7
  6
CONTINUOUS
 10
-40.1692427185
 20
-9.9838767734
 30
0.0
 11
0.3
 21
-0.0
 31
0.0
 40
0.1227845609
 41
-3.1328660073
 42
-1.5707963268
  0
ELLIPSE
  5
747
100
AcDbEntity
  8
0
100
AcDbEllipse
 62
7
  6
CONTINUOUS
 10
-6.985695974
 20
10.083859781
 30
0.0
 11
-0.2309203249
 21
-0.0034904481
 31
0.0
 40
0.8660006717
 41
-1.5706979997
 42
-0.0130891803
  0
ELLIPSE
  5
748
100
AcDbEntity
  8
0
100
AcDbEllipse
 62
7
  6
CONTINUOUS
 10
-40.1762242127
 20
-9.0803638689
 30
0.0
 11
0.2121481893
 21
-0.2121481893
 31
0.0
 40
0.9999238505
 41
2.3562325664
 42
3.9269527408
  0
ELLIPSE
  5
749
100
AcDbEntity
  8
0
100
AcDbEllipse
 62
7
  6
CONTINUOUS
 10
-39.9640294448
 20
-9.9838767734
 30
0.0
 11
0.3
 21
0.0
 31
0.0
 40
0.1227845609
 41
-1.5707963268
 42
-0.0087266463
  0
ELLIPSE
  5
74A
100
AcDbEntity
  8
0
100
AcDbEllipse
 62
7
  6
CONTINUOUS
 10
-39.9570479506
 20
-9.0803638689
 30
0.0
 11
0.2121481893
 21
0.2121481893
 31
0.0
 40
0.9999238505
 41
-0.7853600872
 42
0.7853600872
  0
ELLIPSE
  5
74B
100
AcDbEntity
  8
0
100
AcDbEllipse
 62
7
  6
CONTINUOUS
 10
-16.3666246581
 20
7.7100594235
 30
0.0
 11
0.2121481893
 21
0.2121481893
 31
0.0
 40
0.9999238505
 41
2.3562325664
 42
3.9269527408
  0
ELLIPSE
  5
74C
100
AcDbEntity
  8
0
100
AcDbEllipse
 62
7
  6
CONTINUOUS
 10
-17.5166018111
 20
8.860048
 30
0.0
 11
0.9000342705
 21
-0.0
 31
0.0
 40
0.9999619231
 41
-3.1415926536
 42
-1.5707963268
  0
ELLIPSE
  5
74D
100
AcDbEntity
  8
0
100
AcDbEllipse
 62
7
  6
CONTINUOUS
 10
-31.2666475051
 20
7.7100594235
 30
0.0
 11
-0.2121481893
 21
0.2121481893
 31
0.0
 40
0.9999238505
 41
2.3562325664
 42
3.9269527408
  0
ELLIPSE
  5
74E
100
AcDbEntity
  8
0
100
AcDbEllipse
 62
7
  6
CONTINUOUS
 10
-38.8666246581
 20
7.7100594235
 30
0.0
 11
0.2121481893
 21
0.2121481893
 31
0.0
 40
0.9999238505
 41
2.3562325664
 42
3.9269527408
  0
ELLIPSE
  5
74F
100
AcDbEntity
  8
0
100
AcDbEllipse
 62
7
  6
CONTINUOUS
 10
-40.0166018111
 20
8.860048
 30
0.0
 11
0.9000342705
 21
-0.0
 31
0.0
 40
0.9999619231
 41
-3.1415926536
 42
-1.5707963268
  0
ELLIPSE
  5
750
100
AcDbEntity
  8
0
100
AcDbEllipse
 62
7
  6
CONTINUOUS
 10
-40.6475761893
 20
10.083859781
 30
0.0
 11
-0.2309203249
 21
0.0034904481
 31
0.0
 40
0.8660006717
 41
-3.1285034733
 42
-1.5708946539
  0
ELLIPSE
  5
751
100
AcDbEntity
  8
0
100
AcDbEllipse
 62
7
  6
CONTINUOUS
 10
-18.1475761893
 20
10.083859781
 30
0.0
 11
-0.2309203249
 21
0.0034904481
 31
0.0
 40
0.8660006717
 41
-3.1285034733
 42
-1.5708946539
  0
ELLIPSE
  5
752
100
AcDbEntity
  8
RACCORDO
100
AcDbEllipse
 62
7
  6
CONTINUOUS
 10
-2.9312502875
 20
8.8515663821
 30
0.0
 11
-0.1789222233
 21
-0.0894542984
 31
0.0
 40
0.9998096356
 41
-2.0517906194
 42
-2.0344896259
  0
ELLIPSE
  5
753
100
AcDbEntity
  8
0
100
AcDbEllipse
 62
7
  6
CONTINUOUS
 10
-7.6166703522
 20
8.860048
 30
0.0
 11
-0.9000342705
 21
0.0
 31
0.0
 40
0.9999619231
 41
1.5707963268
 42
3.1415926536
  0
ELLIPSE
  5
754
100
AcDbEntity
  8
0
100
AcDbEllipse
 62
7
  6
CONTINUOUS
 10
-8.7666475051
 20
7.7100594235
 30
0.0
 11
-0.2121481893
 21
0.2121481893
 31
0.0
 40
0.9999238505
 41
2.3562325664
 42
3.9269527408
  0
ELLIPSE
  5
755
100
AcDbEntity
  8
0
100
AcDbEllipse
 62
7
  6
CONTINUOUS
 10
-32.1105386977
 20
5.7767651481
 30
0.0
 11
-0.0034175972
 21
0.4667119782
 31
0.0
 40
0.6427774967
 41
-3.146299493
 42
-1.58218813
  0
ELLIPSE
  5
756
100
AcDbEntity
  8
0
100
AcDbEllipse
 62
7
  6
CONTINUOUS
 10
-32.1140294448
 20
7.4074299397
 30
0.0
 11
0.3
 21
-0.0
 31
0.0
 40
0.0087268678
 41
0.0087266463
 42
1.5707963268
  0
ELLIPSE
  5
757
100
AcDbEntity
  8
0
100
AcDbEllipse
 62
7
  6
CONTINUOUS
 10
-32.3227334656
 20
5.7767651481
 30
0.0
 11
0.0034175972
 21
0.4667119782
 31
0.0
 40
0.6427774967
 41
-4.7009971771
 42
-3.1368858142
  0
ELLIPSE
  5
758
100
AcDbEntity
  8
0
100
AcDbEllipse
 62
7
  6
CONTINUOUS
 10
-38.0192427185
 20
7.4074299397
 30
0.0
 11
0.3
 21
0.0
 31
0.0
 40
0.0087268678
 41
1.5707963268
 42
3.1328660073
  0
ELLIPSE
  5
759
100
AcDbEntity
  8
0
100
AcDbEllipse
 62
7
  6
CONTINUOUS
 10
-38.0227334656
 20
5.7767651481
 30
0.0
 11
0.0034175972
 21
0.4667119782
 31
0.0
 40
0.6427774967
 41
-4.7009971771
 42
-3.1368858142
  0
ELLIPSE
  5
75A
100
AcDbEntity
  8
0
100
AcDbEllipse
 62
7
  6
CONTINUOUS
 10
-37.8105386977
 20
5.7767651481
 30
0.0
 11
-0.0034175972
 21
0.4667119782
 31
0.0
 40
0.6427774967
 41
-3.146299493
 42
-1.58218813
  0
ELLIPSE
  5
75B
100
AcDbEntity
  8
0
100
AcDbEllipse
 62
7
  6
CONTINUOUS
 10
-16.3727334656
 20
7.7039506161
 30
0.0
 11
0.2121481893
 21
0.2121481893
 31
0.0
 40
0.9999238505
 41
-3.9269527408
 42
-2.3562325664
  0
ELLIPSE
  5
75C
100
AcDbEntity
  8
0
100
AcDbEllipse
 62
7
  6
CONTINUOUS
 10
-8.7605386977
 20
7.7039506161
 30
0.0
 11
-0.2121481893
 21
0.2121481893
 31
0.0
 40
0.9999238505
 41
-3.9269527408
 42
-2.3562325664
  0
ELLIPSE
  5
75D
100
AcDbEntity
  8
0
100
AcDbEllipse
 62
7
  6
CONTINUOUS
 10
-31.2605386977
 20
7.7039506161
 30
0.0
 11
-0.2121481893
 21
0.2121481893
 31
0.0
 40
0.9999238505
 41
-3.9269527408
 42
-2.3562325664
  0
ELLIPSE
  5
75E
100
AcDbEntity
  8
0
100
AcDbEllipse
 62
7
  6
CONTINUOUS
 10
-38.8727334656
 20
7.7039506161
 30
0.0
 11
0.2121481893
 21
0.2121481893
 31
0.0
 40
0.9999238505
 41
-3.9269527408
 42
-2.3562325664
  0
ELLIPSE
  5
75F
100
AcDbEntity
  8
0
100
AcDbEllipse
 62
7
  6
CONTINUOUS
 10
-40.0227106185
 20
8.860048
 30
0.0
 11
0.9000342705
 21
-0.0
 31
0.0
 40
0.9999619231
 41
-3.1415926536
 42
-1.5707963268
  0
ELLIPSE
  5
760
100
AcDbEntity
  8
0
100
AcDbEllipse
 62
7
  6
CONTINUOUS
 10
-30.1105615447
 20
8.860048
 30
0.0
 11
0.9000342705
 21
-0.0
 31
0.0
 40
0.9999619231
 41
-1.5707963268
 42
0.0
  0
ELLIPSE
  5
761
100
AcDbEntity
  8
0
100
AcDbEllipse
 62
7
  6
CONTINUOUS
 10
-7.6105615447
 20
8.860048
 30
0.0
 11
0.9000342705
 21
-0.0
 31
0.0
 40
0.9999619231
 41
-1.5707963268
 42
0.0
  0
ELLIPSE
  5
762
100
AcDbEntity
  8
0
100
AcDbEllipse
 62
7
  6
CONTINUOUS
 10
-17.5227106185
 20
8.860048
 30
0.0
 11
0.9000342705
 21
-0.0
 31
0.0
 40
0.9999619231
 41
-3.1415926536
 42
-1.5707963268
  0
ELLIPSE
  5
763
100
AcDbEntity
  8
0
100
AcDbEllipse
 62
7
  6
CONTINUOUS
 10
-29.485695974
 20
10.083859781
 30
0.0
 11
-0.2309203249
 21
-0.0034904481
 31
0.0
 40
0.8660006717
 41
-1.5706979997
 42
-0.0130891803
  0
ELLIPSE
  5
764
100
AcDbEntity
  8
RACCORDO
100
AcDbEllipse
 62
7
  6
CONTINUOUS
 10
-44.7508789973
 20
-10.0278239227
 30
0.0
 11
0.2000300132
 21
0.0
 31
0.0
 40
0.9923972267
 41
-3.1394657387
 42
-1.5707963268
  0
ELLIPSE
  5
765
100
AcDbEntity
  8
RACCORDO
100
AcDbEllipse
 62
7
  6
CONTINUOUS
 10
-45.1143013525
 20
10.083859781
 30
0.0
 11
0.1789222233
 21
-0.0894542984
 31
0.0
 40
0.9998096356
 41
0.4635410001
 42
1.570769266
  0
ELLIPSE
  5
766
100
AcDbEntity
  8
RACCORDO
100
AcDbEllipse
 62
7
  6
CONTINUOUS
 10
-2.8823931659
 20
-10.0278239227
 30
0.0
 11
0.2000300132
 21
0.0
 31
0.0
 40
0.9923972267
 41
-1.5707963268
 42
-0.0021269149
  0
ELLIPSE
  5
767
100
AcDbEntity
  8
0
100
AcDbEllipse
 62
7
  6
CONTINUOUS
 10
-30.1166703522
 20
8.860048
 30
0.0
 11
-0.9000342705
 21
0.0
 31
0.0
 40
0.9999619231
 41
7.853981634
 42
9.4247779608
  0
ELLIPSE
  5
768
100
AcDbEntity
  8
RACCORDO
100
AcDbEllipse
 62
7
  6
CONTINUOUS
 10
-45.1666665472
 20
10.1100403843
 30
0.0
 11
-0.1789222233
 21
0.0894542984
 31
0.0
 40
0.9998096356
 41
-2.6780516535
 42
-1.1071030277
  0
ELLIPSE
  5
769
100
AcDbEntity
  8
RACCORDO
100
AcDbEllipse
 62
7
  6
CONTINUOUS
 10
-2.919031742
 20
8.8576751895
 30
0.0
 11
0.1789222233
 21
0.0894542984
 31
0.0
 40
0.9998096356
 41
-0.4635410001
 42
1.1071030277
  0
ELLIPSE
  5
76A
100
AcDbEntity
  8
0
100
AcDbEllipse
 62
7
  6
CONTINUOUS
 10
-39.8392858124
 20
9.0373982692
 30
0.0
 11
0.4564354646
 21
0.4564354646
 31
0.0
 40
0.7745966692
 41
-3.8006506894
 42
-2.4825346178
  0
ELLIPSE
  5
76B
100
AcDbEntity
  8
0
100
AcDbEllipse
 62
7
  6
CONTINUOUS
 10
-30.2939863508
 20
9.0373982692
 30
0.0
 11
0.4564354646
 21
-0.4564354646
 31
0.0
 40
0.7745966692
 41
-0.6590580358
 42
0.6590580358
  0
ELLIPSE
  5
76C
100
AcDbEntity
  8
0
100
AcDbEllipse
 62
7
  6
CONTINUOUS
 10
-7.7939863508
 20
9.0373982692
 30
0.0
 11
0.4564354646
 21
-0.4564354646
 31
0.0
 40
0.7745966692
 41
-0.6590580358
 42
0.6590580358
  0
ELLIPSE
  5
76D
100
AcDbEntity
  8
0
100
AcDbEllipse
 62
7
  6
CONTINUOUS
 10
-17.3392858124
 20
9.0373982692
 30
0.0
 11
0.4564354646
 21
0.4564354646
 31
0.0
 40
0.7745966692
 41
-3.8006506894
 42
-2.4825346178
  0
ELLIPSE
  5
76E
100
AcDbEntity
  8
0
100
AcDbEllipse
 62
7
  6
CONTINUOUS
 10
-7.4570479506
 20
-9.0803638689
 30
0.0
 11
0.2121481893
 21
0.2121481893
 31
0.0
 40
0.9999238505
 41
-0.7853600872
 42
0.7853600872
  0
ELLIPSE
  5
76F
100
AcDbEntity
  8
RACCORDO
100
AcDbEllipse
 62
7
  6
CONTINUOUS
 10
-44.7055128888
 20
9.0533193713
 30
0.0
 11
0.2
 21
0.0
 31
0.0
 40
0.0087268678
 41
-3.1241393611
 42
-1.5707963268
  0
ELLIPSE
  5
770
100
AcDbEntity
  8
0
100
AcDbEllipse
 62
7
  6
CONTINUOUS
 10
-7.6762242127
 20
-9.0803638689
 30
0.0
 11
0.2121481893
 21
-0.2121481893
 31
0.0
 40
0.9999238505
 41
2.3562325664
 42
3.9269527408
  0
ELLIPSE
  5
771
100
AcDbEntity
  8
0
100
AcDbEllipse
 62
7
  6
CONTINUOUS
 10
-7.6692427185
 20
-9.9838767734
 30
0.0
 11
0.3
 21
0.0
 31
0.0
 40
0.1227845609
 41
-3.1328660073
 42
-1.5707963268
  0
ELLIPSE
  5
772
100
AcDbEntity
  8
0
100
AcDbEllipse
 62
7
  6
CONTINUOUS
 10
-7.4640294448
 20
-9.9838767734
 30
0.0
 11
0.3
 21
0.0
 31
0.0
 40
0.1227845609
 41
-1.5707963268
 42
-0.0087266463
  0
ELLIPSE
  5
773
100
AcDbEntity
  8
RACCORDO
100
AcDbEllipse
 62
7
  6
CONTINUOUS
 10
-40.4744902626
 20
-9.7087040717
 30
0.0
 11
-0.0
 21
0.2
 31
0.0
 40
0.0087268678
 41
-4.7123889804
 42
-3.2637657012
  0
ELLIPSE
  5
774
100
AcDbEntity
  8
0
100
AcDbEllipse
 62
7
  6
CONTINUOUS
 10
-15.5227334656
 20
5.7767651481
 30
0.0
 11
0.0034175972
 21
0.4667119782
 31
0.0
 40
0.6427774967
 41
-4.7009971771
 42
-3.1368858142
  0
ELLIPSE
  5
775
100
AcDbEntity
  8
RACCORDO
100
AcDbEllipse
 62
7
  6
CONTINUOUS
 10
-39.6587819006
 20
-9.7087040717
 30
0.0
 11
-0.0
 21
0.2
 31
0.0
 40
0.0087268678
 41
-3.019419606
 42
-1.5707963268
  0
ELLIPSE
  5
776
100
AcDbEntity
  8
RACCORDO
100
AcDbEllipse
 62
7
  6
CONTINUOUS
 10
-7.9744902626
 20
-9.7087040717
 30
0.0
 11
-0.0
 21
0.2
 31
0.0
 40
0.0087268678
 41
-4.7123889804
 42
-3.2637657012
  0
ELLIPSE
  5
777
100
AcDbEntity
  8
0
100
AcDbEllipse
 62
7
  6
CONTINUOUS
 10
-15.5192427185
 20
7.4074299397
 30
0.0
 11
0.3
 21
0.0
 31
0.0
 40
0.0087268678
 41
1.5707963268
 42
3.1328660073
  0
ELLIPSE
  5
778
100
AcDbEntity
  8
0
100
AcDbEllipse
 62
7
  6
CONTINUOUS
 10
-15.3105386977
 20
5.7767651481
 30
0.0
 11
-0.0034175972
 21
0.4667119782
 31
0.0
 40
0.6427774967
 41
-3.146299493
 42
-1.58218813
  0
ELLIPSE
  5
779
100
AcDbEntity
  8
RACCORDO
100
AcDbEllipse
 62
7
  6
CONTINUOUS
 10
-7.1587819006
 20
-9.7087040717
 30
0.0
 11
0.0
 21
0.2
 31
0.0
 40
0.0087268678
 41
-3.0194196059
 42
-1.5707963268
  0
ELLIPSE
  5
77A
100
AcDbEntity
  8
0
100
AcDbEllipse
 62
7
  6
CONTINUOUS
 10
-1.6667884677
 20
10.7600575196
 30
0.0
 11
0.2426981267
 21
-0.0606514259
 31
0.0
 40
0.9993528196
 41
-1.3257549497
 42
0.2447368254
  0
ELLIPSE
  5
77B
100
AcDbEntity
  8
0
100
AcDbEllipse
 62
7
  6
CONTINUOUS
 10
-45.9664836956
 20
10.7600575196
 30
0.0
 11
0.2426981267
 21
0.0606514259
 31
0.0
 40
0.9993528196
 41
2.8968558282
 42
4.4673476033
  0
ELLIPSE
  5
77C
100
AcDbEntity
  8
0
100
AcDbEllipse
 62
7
  6
CONTINUOUS
 10
-10.4321061355
 20
32.5816635425
 30
0.0
 11
0.2
 21
0.0
 31
0.0
 40
0.0524637553
 41
-1.5707963268
 42
-0.5235987756
  0
ELLIPSE
  5
77D
100
AcDbEntity
  8
0
100
AcDbEllipse
 62
7
  6
CONTINUOUS
 10
-14.7011660278
 20
32.5816635425
 30
0.0
 11
0.2
 21
-0.0
 31
0.0
 40
0.0524637553
 41
-2.617993878
 42
-1.5707963268
  0
ELLIPSE
  5
77E
100
AcDbEntity
  8
0
100
AcDbEllipse
 62
7
  6
CONTINUOUS
 10
-32.9321061355
 20
32.5816635425
 30
0.0
 11
0.2
 21
-0.0
 31
0.0
 40
0.0524637553
 41
-1.5707963268
 42
-0.5235987756
  0
ELLIPSE
  5
77F
100
AcDbEntity
  8
0
100
AcDbEllipse
 62
7
  6
CONTINUOUS
 10
-37.2011660278
 20
32.5816635425
 30
0.0
 11
0.2
 21
0.0
 31
0.0
 40
0.0524637553
 41
-2.617993878
 42
-1.5707963268
  0
ELLIPSE
  5
780
100
AcDbEntity
  8
0
100
AcDbEllipse
 62
7
  6
CONTINUOUS
 10
-7.8769833326
 20
10.7497083647
 30
0.0
 11
0.000044129
 21
0.2000221726
 31
0.0
 40
0.0171905225
 41
-4.6995558479
 42
-4.6951164139
  0
ELLIPSE
  5
781
100
AcDbEntity
  8
0
100
AcDbEllipse
 62
7
  6
CONTINUOUS
 10
-17.2562888307
 20
10.7497083647
 30
0.0
 11
-0.000044129
 21
0.2000221726
 31
0.0
 40
0.0171905225
 41
-1.5880688933
 42
-1.5836294593
  0
ELLIPSE
  5
782
100
AcDbEntity
  8
0
100
AcDbEllipse
 62
7
  6
CONTINUOUS
 10
-39.2602764591
 20
11.2036883774
 30
0.0
 11
0.1896138901
 21
0.4643386945
 31
0.0
 40
0.9790602997
 41
-4.4435424841
 42
-4.3172404327
  0
ELLIPSE
  5
783
100
AcDbEntity
  8
0
100
AcDbEllipse
 62
7
  6
CONTINUOUS
 10
-30.8729957042
 20
11.2036883774
 30
0.0
 11
0.4643386945
 21
-0.1896138901
 31
0.0
 40
0.9790602997
 41
1.8396428231
 42
1.9659448745
  0
ELLIPSE
  5
784
100
AcDbEntity
  8
0
100
AcDbEllipse
 62
7
  6
CONTINUOUS
 10
-16.7602764591
 20
11.2036883774
 30
0.0
 11
0.1896138901
 21
0.4643386945
 31
0.0
 40
0.9790602997
 41
-4.4435424841
 42
-4.3172404327
  0
ELLIPSE
  5
785
100
AcDbEntity
  8
0
100
AcDbEllipse
 62
7
  6
CONTINUOUS
 10
-8.3729957042
 20
11.2036883774
 30
0.0
 11
0.4643386945
 21
-0.1896138901
 31
0.0
 40
0.9790602997
 41
1.8396428231
 42
1.9659448745
  0
ELLIPSE
  5
786
100
AcDbEntity
  8
0
100
AcDbEllipse
 62
7
  6
CONTINUOUS
 10
-16.7602764591
 20
11.2036883774
 30
0.0
 11
0.4643386945
 21
0.1896138901
 31
0.0
 40
0.9790602997
 41
1.1756477791
 42
1.3019498305
  0
ELLIPSE
  5
787
100
AcDbEntity
  8
0
100
AcDbEllipse
 62
7
  6
CONTINUOUS
 10
-8.3729957042
 20
11.2036883774
 30
0.0
 11
-0.1896138901
 21
0.4643386945
 31
0.0
 40
0.9790602997
 41
-1.9659448745
 42
-1.8396428231
  0
ELLIPSE
  5
788
100
AcDbEntity
  8
0
100
AcDbEllipse
 62
7
  6
CONTINUOUS
 10
-39.2602764591
 20
11.2036883774
 30
0.0
 11
0.4643386945
 21
0.1896138901
 31
0.0
 40
0.9790602997
 41
1.1756477791
 42
1.3019498305
  0
ELLIPSE
  5
789
100
AcDbEntity
  8
0
100
AcDbEllipse
 62
7
  6
CONTINUOUS
 10
-30.8729957042
 20
11.2036883774
 30
0.0
 11
-0.1896138901
 21
0.4643386945
 31
0.0
 40
0.9790602997
 41
-1.9659448745
 42
-1.8396428231
  0
ELLIPSE
  5
78A
100
AcDbEntity
  8
0
100
AcDbEllipse
 62
7
  6
CONTINUOUS
 10
-1.9537896706
 20
32.1040605067
 30
0.0
 11
0.4901042491
 21
-0.1011361035
 31
0.0
 40
0.9938624933
 41
0.2065483337
 42
1.775518161
  0
ELLIPSE
  5
78B
100
AcDbEntity
  8
0
100
AcDbEllipse
 62
7
  6
CONTINUOUS
 10
-45.6794824926
 20
32.1040605067
 30
0.0
 11
0.4901042491
 21
0.1011361035
 31
0.0
 40
0.9938624933
 41
1.3660744926
 42
2.9350443199
  0
ELLIPSE
  5
78C
100
AcDbEntity
  8
0
100
AcDbEllipse
 62
7
  6
CONTINUOUS
 10
-30.3769833326
 20
10.7497083647
 30
0.0
 11
0.000044129
 21
0.2000221726
 31
0.0
 40
0.0171905225
 41
-4.6995558479
 42
-4.6951164139
  0
ELLIPSE
  5
78D
100
AcDbEntity
  8
0
100
AcDbEllipse
 62
7
  6
CONTINUOUS
 10
-39.7562888307
 20
10.7497083647
 30
0.0
 11
-0.000044129
 21
0.2000221726
 31
0.0
 40
0.0171905225
 41
-1.5880688933
 42
-1.5836294593
  0
ELLIPSE
  5
78E
100
AcDbEntity
  8
0
100
AcDbEllipse
 62
7
  6
CONTINUOUS
 10
-32.1105386977
 20
15.0433308519
 30
0.0
 11
0.0034175972
 21
0.4667119782
 31
0.0
 40
0.6427774967
 41
-1.5594045235
 42
0.0047068394
  0
ELLIPSE
  5
78F
100
AcDbEntity
  8
0
100
AcDbEllipse
 62
7
  6
CONTINUOUS
 10
-32.3227334656
 20
15.0433308519
 30
0.0
 11
-0.0034175972
 21
0.4667119782
 31
0.0
 40
0.6427774967
 41
-0.0047068394
 42
1.5594045235
  0
ELLIPSE
  5
790
100
AcDbEntity
  8
0
100
AcDbEllipse
 62
7
  6
CONTINUOUS
 10
-32.1140294448
 20
13.4126660603
 30
0.0
 11
0.3
 21
-0.0
 31
0.0
 40
0.0087268678
 41
-1.5707963268
 42
-0.0087266463
  0
ELLIPSE
  5
791
100
AcDbEntity
  8
0
100
AcDbEllipse
 62
7
  6
CONTINUOUS
 10
-37.8105386977
 20
15.0433308519
 30
0.0
 11
0.0034175972
 21
0.4667119782
 31
0.0
 40
0.6427774967
 41
-1.5594045235
 42
0.0047068394
  0
ELLIPSE
  5
792
100
AcDbEntity
  8
0
100
AcDbEllipse
 62
7
  6
CONTINUOUS
 10
-38.0227334656
 20
15.0433308519
 30
0.0
 11
-0.0034175972
 21
0.4667119782
 31
0.0
 40
0.6427774967
 41
-0.0047068394
 42
1.5594045235
  0
ELLIPSE
  5
793
100
AcDbEntity
  8
0
100
AcDbEllipse
 62
7
  6
CONTINUOUS
 10
-38.0192427185
 20
13.4126660603
 30
0.0
 11
0.3
 21
-0.0
 31
0.0
 40
0.0087268678
 41
-3.1328660073
 42
-1.5707963268
  0
ELLIPSE
  5
794
100
AcDbEntity
  8
0
100
AcDbEllipse
 62
7
  6
CONTINUOUS
 10
-38.8727334656
 20
13.1161453839
 30
0.0
 11
0.2121481893
 21
-0.2121481893
 31
0.0
 40
0.9999238505
 41
2.3562325664
 42
3.9269527408
  0
ELLIPSE
  5
795
100
AcDbEntity
  8
0
100
AcDbEllipse
 62
7
  6
CONTINUOUS
 10
-31.2666475051
 20
13.1100365765
 30
0.0
 11
-0.2121481893
 21
-0.2121481893
 31
0.0
 40
0.9999238505
 41
2.3562325664
 42
3.9269527408
  0
ELLIPSE
  5
796
100
AcDbEntity
  8
0
100
AcDbEllipse
 62
7
  6
CONTINUOUS
 10
-30.1166703522
 20
11.960048
 30
0.0
 11
-0.9000342705
 21
0.0
 31
0.0
 40
0.9999619231
 41
3.1415926536
 42
4.7123889804
  0
ELLIPSE
  5
797
100
AcDbEntity
  8
0
100
AcDbEllipse
 62
7
  6
CONTINUOUS
 10
-16.3666246581
 20
13.1100365765
 30
0.0
 11
0.2121481893
 21
-0.2121481893
 31
0.0
 40
0.9999238505
 41
2.3562325664
 42
3.9269527408
  0
ELLIPSE
  5
798
100
AcDbEntity
  8
0
100
AcDbEllipse
 62
7
  6
CONTINUOUS
 10
-8.7666475051
 20
13.1100365765
 30
0.0
 11
-0.2121481893
 21
-0.2121481893
 31
0.0
 40
0.9999238505
 41
2.3562325664
 42
3.9269527408
  0
ELLIPSE
  5
799
100
AcDbEntity
  8
0
100
AcDbEllipse
 62
7
  6
CONTINUOUS
 10
-7.6166703522
 20
11.960048
 30
0.0
 11
-0.9000342705
 21
0.0
 31
0.0
 40
0.9999619231
 41
3.1415926536
 42
4.7123889804
  0
ELLIPSE
  5
79A
100
AcDbEntity
  8
RACCORDO
100
AcDbEllipse
 62
7
  6
CONTINUOUS
 10
-44.7020218758
 20
11.972054032
 30
0.0
 11
0.039286661
 21
0.1969134736
 31
0.0
 40
0.9960441251
 41
-2.9613574367
 42
-2.9454252223
  0
ELLIPSE
  5
79B
100
AcDbEntity
  8
0
100
AcDbEllipse
 62
7
  6
CONTINUOUS
 10
-6.985695974
 20
10.736236219
 30
0.0
 11
0.2309203249
 21
-0.0034904481
 31
0.0
 40
0.8660006717
 41
-3.1285034733
 42
-1.5708946539
  0
ELLIPSE
  5
79C
100
AcDbEntity
  8
0
100
AcDbEllipse
 62
7
  6
CONTINUOUS
 10
-29.485695974
 20
10.736236219
 30
0.0
 11
0.2309203249
 21
-0.0034904481
 31
0.0
 40
0.8660006717
 41
-3.1285034733
 42
-1.5708946539
  0
ELLIPSE
  5
79D
100
AcDbEntity
  8
0
100
AcDbEllipse
 62
7
  6
CONTINUOUS
 10
-40.0166018111
 20
11.960048
 30
0.0
 11
0.9000342705
 21
-0.0
 31
0.0
 40
0.9999619231
 41
1.5707963268
 42
3.1415926536
  0
ELLIPSE
  5
79E
100
AcDbEntity
  8
0
100
AcDbEllipse
 62
7
  6
CONTINUOUS
 10
-38.8666246581
 20
13.1100365765
 30
0.0
 11
0.2121481893
 21
-0.2121481893
 31
0.0
 40
0.9999238505
 41
2.3562325664
 42
3.9269527408
  0
ELLIPSE
  5
79F
100
AcDbEntity
  8
0
100
AcDbEllipse
 62
7
  6
CONTINUOUS
 10
-7.4570479506
 20
29.9004598689
 30
0.0
 11
-0.2121481893
 21
0.2121481893
 31
0.0
 40
0.9999238505
 41
-3.9269527408
 42
-2.3562325664
  0
ELLIPSE
  5
7A0
100
AcDbEntity
  8
0
100
AcDbEllipse
 62
7
  6
CONTINUOUS
 10
-7.4640294448
 20
30.8039727734
 30
0.0
 11
0.3
 21
0.0
 31
0.0
 40
0.1227845609
 41
0.0087266463
 42
1.5707963268
  0
ELLIPSE
  5
7A1
100
AcDbEntity
  8
0
100
AcDbEllipse
 62
7
  6
CONTINUOUS
 10
-7.6692427185
 20
30.8039727734
 30
0.0
 11
0.3
 21
0.0
 31
0.0
 40
0.1227845609
 41
1.5707963268
 42
3.1328660073
  0
ELLIPSE
  5
7A2
100
AcDbEntity
  8
0
100
AcDbEllipse
 62
7
  6
CONTINUOUS
 10
-7.6762242127
 20
29.9004598689
 30
0.0
 11
0.2121481893
 21
0.2121481893
 31
0.0
 40
0.9999238505
 41
-3.9269527408
 42
-2.3562325664
  0
ELLIPSE
  5
7A3
100
AcDbEntity
  8
0
100
AcDbEllipse
 62
7
  6
CONTINUOUS
 10
-16.3727334656
 20
13.1161453839
 30
0.0
 11
0.2121481893
 21
-0.2121481893
 31
0.0
 40
0.9999238505
 41
2.3562325664
 42
3.9269527408
  0
ELLIPSE
  5
7A4
100
AcDbEntity
  8
0
100
AcDbEllipse
 62
7
  6
CONTINUOUS
 10
-15.5227334656
 20
15.0433308519
 30
0.0
 11
-0.0034175972
 21
0.4667119782
 31
0.0
 40
0.6427774967
 41
-0.0047068394
 42
1.5594045235
  0
ELLIPSE
  5
7A5
100
AcDbEntity
  8
0
100
AcDbEllipse
 62
7
  6
CONTINUOUS
 10
-15.5192427185
 20
13.4126660603
 30
0.0
 11
0.3
 21
0.0
 31
0.0
 40
0.0087268678
 41
-3.1328660073
 42
-1.5707963268
  0
ELLIPSE
  5
7A6
100
AcDbEntity
  8
0
100
AcDbEllipse
 62
7
  6
CONTINUOUS
 10
-15.3105386977
 20
15.0433308519
 30
0.0
 11
0.0034175972
 21
0.4667119782
 31
0.0
 40
0.6427774967
 41
-1.5594045235
 42
0.0047068394
  0
ELLIPSE
  5
7A7
100
AcDbEntity
  8
0
100
AcDbEllipse
 62
7
  6
CONTINUOUS
 10
-40.6475761893
 20
10.736236219
 30
0.0
 11
0.2309203249
 21
0.0034904481
 31
0.0
 40
0.8660006717
 41
-1.5706979997
 42
-0.0130891803
  0
ELLIPSE
  5
7A8
100
AcDbEntity
  8
0
100
AcDbEllipse
 62
7
  6
CONTINUOUS
 10
-17.5166018111
 20
11.960048
 30
0.0
 11
0.9000342705
 21
-0.0
 31
0.0
 40
0.9999619231
 41
7.853981634
 42
9.4247779608
  0
ELLIPSE
  5
7A9
100
AcDbEntity
  8
RACCORDO
100
AcDbEllipse
 62
7
  6
CONTINUOUS
 10
-2.5189708108
 20
10.736236219
 30
0.0
 11
0.1789222233
 21
-0.0894542984
 31
0.0
 40
0.9998096356
 41
-2.6780516535
 42
-1.5708233876
  0
ELLIPSE
  5
7AA
100
AcDbEntity
  8
RACCORDO
100
AcDbEllipse
 62
7
  6
CONTINUOUS
 10
-2.466605616
 20
10.7100556157
 30
0.0
 11
0.1789222233
 21
-0.0894542984
 31
0.0
 40
0.9998096356
 41
-2.6780516535
 42
-1.1071030277
  0
ELLIPSE
  5
7AB
100
AcDbEntity
  8
0
100
AcDbEllipse
 62
7
  6
CONTINUOUS
 10
-9.8227334656
 20
15.0433308519
 30
0.0
 11
-0.0034175972
 21
0.4667119782
 31
0.0
 40
0.6427774967
 41
-0.0047068394
 42
1.5594045235
  0
ELLIPSE
  5
7AC
100
AcDbEntity
  8
0
100
AcDbEllipse
 62
7
  6
CONTINUOUS
 10
-9.6140294448
 20
13.4126660603
 30
0.0
 11
0.3
 21
0.0
 31
0.0
 40
0.0087268678
 41
-1.5707963268
 42
-0.0087266463
  0
ELLIPSE
  5
7AD
100
AcDbEntity
  8
0
100
AcDbEllipse
 62
7
  6
CONTINUOUS
 10
-9.6105386977
 20
15.0433308519
 30
0.0
 11
0.0034175972
 21
0.4667119782
 31
0.0
 40
0.6427774967
 41
-1.5594045235
 42
0.0047068394
  0
ELLIPSE
  5
7AE
100
AcDbEntity
  8
0
100
AcDbEllipse
 62
7
  6
CONTINUOUS
 10
-8.7605386977
 20
13.1161453839
 30
0.0
 11
0.2121481893
 21
0.2121481893
 31
0.0
 40
0.9999238505
 41
-0.7853600872
 42
0.7853600872
  0
ELLIPSE
  5
7AF
100
AcDbEntity
  8
0
100
AcDbEllipse
 62
7
  6
CONTINUOUS
 10
-7.6105615447
 20
11.960048
 30
0.0
 11
0.9000342705
 21
-0.0
 31
0.0
 40
0.9999619231
 41
0.0
 42
1.5707963268
  0
ELLIPSE
  5
7B0
100
AcDbEntity
  8
0
100
AcDbEllipse
 62
7
  6
CONTINUOUS
 10
-17.5227106185
 20
11.960048
 30
0.0
 11
0.9000342705
 21
-0.0
 31
0.0
 40
0.9999619231
 41
1.5707963268
 42
3.1415926536
  0
ELLIPSE
  5
7B1
100
AcDbEntity
  8
0
100
AcDbEllipse
 62
7
  6
CONTINUOUS
 10
-40.0227106185
 20
11.960048
 30
0.0
 11
0.9000342705
 21
-0.0
 31
0.0
 40
0.9999619231
 41
1.5707963268
 42
3.1415926536
  0
ELLIPSE
  5
7B2
100
AcDbEntity
  8
0
100
AcDbEllipse
 62
7
  6
CONTINUOUS
 10
-30.1105615447
 20
11.960048
 30
0.0
 11
0.9000342705
 21
-0.0
 31
0.0
 40
0.9999619231
 41
0.0
 42
1.5707963268
  0
ELLIPSE
  5
7B3
100
AcDbEntity
  8
0
100
AcDbEllipse
 62
7
  6
CONTINUOUS
 10
-18.1475761893
 20
10.736236219
 30
0.0
 11
0.2309203249
 21
0.0034904481
 31
0.0
 40
0.8660006717
 41
-1.5706979997
 42
-0.0130891803
  0
ELLIPSE
  5
7B4
100
AcDbEntity
  8
RACCORDO
100
AcDbEllipse
 62
7
  6
CONTINUOUS
 10
-2.8823931659
 20
30.8479199227
 30
0.0
 11
0.2000300132
 21
0.0
 31
0.0
 40
0.9923972267
 41
0.0021269149
 42
1.5707963268
  0
ELLIPSE
  5
7B5
100
AcDbEntity
  8
RACCORDO
100
AcDbEllipse
 62
7
  6
CONTINUOUS
 10
-44.7508789973
 20
30.8479199227
 30
0.0
 11
0.2000300132
 21
0.0
 31
0.0
 40
0.9923972267
 41
1.5707963268
 42
3.1394657387
  0
ELLIPSE
  5
7B6
100
AcDbEntity
  8
RACCORDO
100
AcDbEllipse
 62
7
  6
CONTINUOUS
 10
-44.7142404212
 20
11.9108119675
 30
0.0
 11
0.039286661
 21
0.1969134736
 31
0.0
 40
0.9960441251
 41
-4.514700471
 42
-2.9454252223
  0
ELLIPSE
  5
7B7
100
AcDbEntity
  8
0
100
AcDbEllipse
 62
7
  6
CONTINUOUS
 10
-17.3392858124
 20
11.7826977308
 30
0.0
 11
0.4564354646
 21
-0.4564354646
 31
0.0
 40
0.7745966692
 41
2.4825346178
 42
3.8006506894
  0
ELLIPSE
  5
7B8
100
AcDbEntity
  8
0
100
AcDbEllipse
 62
7
  6
CONTINUOUS
 10
-7.7939863508
 20
11.7826977308
 30
0.0
 11
0.4564354646
 21
0.4564354646
 31
0.0
 40
0.7745966692
 41
-0.6590580358
 42
0.6590580358
  0
ELLIPSE
  5
7B9
100
AcDbEntity
  8
0
100
AcDbEllipse
 62
7
  6
CONTINUOUS
 10
-39.8392858124
 20
11.7826977308
 30
0.0
 11
0.4564354646
 21
-0.4564354646
 31
0.0
 40
0.7745966692
 41
2.4825346178
 42
3.8006506894
  0
ELLIPSE
  5
7BA
100
AcDbEntity
  8
0
100
AcDbEllipse
 62
7
  6
CONTINUOUS
 10
-30.2939863508
 20
11.7826977308
 30
0.0
 11
0.4564354646
 21
0.4564354646
 31
0.0
 40
0.7745966692
 41
-0.6590580358
 42
0.6590580358
  0
ELLIPSE
  5
7BB
100
AcDbEntity
  8
RACCORDO
100
AcDbEllipse
 62
7
  6
CONTINUOUS
 10
-7.1587819006
 20
30.5288000717
 30
0.0
 11
-0.0
 21
0.2
 31
0.0
 40
0.0087268678
 41
-1.5707963268
 42
-0.1221730476
  0
ELLIPSE
  5
7BC
100
AcDbEntity
  8
RACCORDO
100
AcDbEllipse
 62
7
  6
CONTINUOUS
 10
-7.9744902626
 20
30.5288000717
 30
0.0
 11
0.0
 21
0.2
 31
0.0
 40
0.0087268678
 41
0.1221730476
 42
1.5707963268
  0
ELLIPSE
  5
7BD
100
AcDbEntity
  8
RACCORDO
100
AcDbEllipse
 62
7
  6
CONTINUOUS
 10
-39.6587819006
 20
30.5288000717
 30
0.0
 11
-0.0
 21
0.2
 31
0.0
 40
0.0087268678
 41
-1.5707963268
 42
-0.1221730476
  0
ELLIPSE
  5
7BE
100
AcDbEntity
  8
RACCORDO
100
AcDbEllipse
 62
7
  6
CONTINUOUS
 10
-40.4744902626
 20
30.5288000717
 30
0.0
 11
-0.0
 21
0.2
 31
0.0
 40
0.0087268678
 41
0.1221730476
 42
1.5707963268
  0
ELLIPSE
  5
7BF
100
AcDbEntity
  8
RACCORDO
100
AcDbEllipse
 62
7
  6
CONTINUOUS
 10
-2.9277592745
 20
11.7537923318
 30
0.0
 11
0.2
 21
0.0
 31
0.0
 40
0.0874886635
 41
0.0174532925
 42
1.5707963268
  0
ELLIPSE
  5
7C0
100
AcDbEntity
  8
0
100
AcDbEllipse
 62
7
  6
CONTINUOUS
 10
-31.2605386977
 20
13.1161453839
 30
0.0
 11
0.2121481893
 21
0.2121481893
 31
0.0
 40
0.9999238505
 41
-0.7853600872
 42
0.7853600872
  0
ELLIPSE
  5
7C1
100
AcDbEntity
  8
0
100
AcDbEllipse
 62
7
  6
CONTINUOUS
 10
-39.9570479506
 20
29.9004598689
 30
0.0
 11
0.2121481893
 21
-0.2121481893
 31
0.0
 40
0.9999238505
 41
-0.7853600872
 42
0.7853600872
  0
ELLIPSE
  5
7C2
100
AcDbEntity
  8
0
100
AcDbEllipse
 62
7
  6
CONTINUOUS
 10
-40.1762242127
 20
29.9004598689
 30
0.0
 11
0.2121481893
 21
0.2121481893
 31
0.0
 40
0.9999238505
 41
-3.9269527408
 42
-2.3562325664
  0
ELLIPSE
  5
7C3
100
AcDbEntity
  8
0
100
AcDbEllipse
 62
7
  6
CONTINUOUS
 10
-40.1692427185
 20
30.8039727734
 30
0.0
 11
0.3
 21
0.0
 31
0.0
 40
0.1227845609
 41
1.5707963268
 42
3.1328660073
  0
ELLIPSE
  5
7C4
100
AcDbEntity
  8
0
100
AcDbEllipse
 62
7
  6
CONTINUOUS
 10
-39.9640294448
 20
30.8039727734
 30
0.0
 11
0.3
 21
0.0
 31
0.0
 40
0.1227845609
 41
0.0087266463
 42
1.5707963268
  0
ENDSEC
  0
SECTION
  2
OBJECTS
  0
DICTIONARY
  5
C
100
AcDbDictionary
280
0
281
1
  3
ACAD_GROUP
350
D
  3
ACAD_MLINESTYLE
350
17
  3
ACAD_LAYOUT
350
1A
  3
ACAD_PLOTSETTINGS
350
19
  3
ACAD_PLOTSTYLENAME
350
E
  0
DICTIONARY
  5
D
102
{ACAD_REACTORS
330
C
102
}
100
AcDbDictionary
280
0
281
1
  0
ACDBDICTIONARYWDFLT
  5
E
102
{ACAD_REACTORS
330
C
102
}
100
AcDbDictionary
281
1
  3
Normal
350
F
100
AcDbDictionaryWithDefault
340
F
  0
DICTIONARY
  5
17
102
{ACAD_REACTORS
330
C
102
}
100
AcDbDictionary
280
0
281
1
  3
Standard
350
18
  0
DICTIONARY
  5
19
102
{ACAD_REACTORS
330
C
102
}
100
AcDbDictionary
281
1
  0
DICTIONARY
  5
1A
102
{ACAD_REACTORS
330
C
102
}
100
AcDbDictionary
281
1
  3
Model
350
7C5
  3
Layout1
350
7C6
  0
ACDBPLACEHOLDER
  5
F
102
{ACAD_REACTORS
330
E
102
}
  0
MLINESTYLE
  5
18
102
{ACAD_REACTORS
330
17
102
}
100
AcDbMlineStyle
  2
STANDARD
 70
0
  3

 62
256
 51
90.0
 52
90.0
 71
2
 49
0.5
 62
256
  6
BYLAYER
 49
-0.5
 62
256
  6
BYLAYER
  0
LAYOUT
  5
7C5
102
{ACAD_REACTORS
330
1A
102
}
100
AcDbPlotSettings
  1

  2
none_device
  4

  6

 40
0.0
 41
0.0
 42
0.0
 43
0.0
 44
210.0
 45
297.0
 46
0.0
 47
0.0
 48
0.0
 49
0.0
140
0.0
141
0.0
142
1.0
143
1.0
 70
1024
 72
1
 73
0
 74
0
  7

 75
0
147
1.0
148
0.0
149
0.0
100
AcDbLayout
  1
Model
 70
0
 71
0
 10
0.0
 20
0.0
 11
210.0
 21
297.0
 12
0.0
 22
0.0
 32
0.0
 14
0.0
 24
0.0
 34
0.0
 15
0.0
 25
0.0
 35
0.0
146
0.0
 13
0.0
 23
0.0
 33
0.0
 16
1.0
 26
0.0
 36
0.0
 17
0.0
 27
1.0
 37
0.0
 76
0
330
222
345
0
346
0
  0
LAYOUT
  5
7C6
102
{ACAD_REACTORS
330
1A
102
}
100
AcDbPlotSettings
  1

  2
none_device
  4

  6

 40
0.0
 41
0.0
 42
0.0
 43
0.0
 44
210.0
 45
297.0
 46
0.0
 47
0.0
 48
0.0
 49
0.0
140
0.0
141
0.0
142
1.0
143
1.0
 70
0
 72
1
 73
0
 74
0
  7

 75
0
147
1.0
148
0.0
149
0.0
100
AcDbLayout
  1
Layout1
 70
0
 71
1
 10
0.0
 20
0.0
 11
210.0
 21
297.0
 12
0.0
 22
0.0
 32
0.0
 14
0.0
 24
0.0
 34
0.0
 15
0.0
 25
0.0
 35
0.0
146
0.0
 13
0.0
 23
0.0
 33
0.0
 16
1.0
 26
0.0
 36
0.0
 17
0.0
 27
1.0
 37
0.0
 76
0
330
223
345
0
346
0
  0
ENDSEC
  0
EOF
