  0
SECTION
  2
HEADER
  9
$ACADVER
  1
AC1015
  9
$DWGCODEPAGE
  3
ANSI_1252
  9
$EXTMAX
 10
297.0
 20
210.0
 30
0.0
  9
$EXTMIN
 10
0.0
 20
0.0
 30
0.0
  9
$LIMMIN
 10
0.0
 20
0.0
  9
$LIMMAX
 10
297.0
 20
210.0
  9
$VIEWCTR
 10
148.5
 20
105.0
  9
$VIEWSIZE
 40
210.0
  9
$CLAYER
  8
0
  9
$LTSCALE
 40
16.335
  9
$CELTYPE
  6
BYLAYER
  9
$DIMSCALE
 40
1.0
  9
$DIMASZ
 40
3.0
  9
$DIMEXO
 40
1.85625
  9
$DIMDLI
 40
11.286
  9
$DIMEXE
 40
5.346
  9
$DIMCEN
 40
2.673
  9
$DIMLFAC
 40
1.0
  9
$DIMBLK
  1
_FILLED
  9
$DIMTXT
 40
3.0
  9
$DIMTOL
 70
1
  9
$DIMLIM
 70
0
  9
$DIMTFAC
 40
1.0
  9
$DIMTP
 40
0.01
  9
$DIMTM
 40
0.01
  9
$PDMODE
 70
3
  9
$PDSIZE
 40
3.0
  9
$HANDSEED
  5
9E4
  9
$TILEMODE
 70
1
  9
$MEASUREMENT
 70
1
  9
$INSUNITS
 70
4
  0
ENDSEC
  0
SECTION
  2
CLASSES
  0
CLASS
  1
ACDBDICTIONARYWDFLT
  2
AcDbDictionaryWithDefault
  3
AutoCAD 2000
 90
0
280
0
281
0
  0
CLASS
  1
ACDBPLACEHOLDER
  2
AcDbPlaceHolder
  3
AutoCAD 2000
 90
0
280
0
281
0
  0
CLASS
  1
LAYOUT
  2
AcDbLayout
  3
AutoCAD 2000
 90
0
280
0
281
0
  0
ENDSEC
  0
SECTION
  2
TABLES
  0
TABLE
  2
VPORT
  5
8
100
AcDbSymbolTable
 70
2
  0
VPORT
  5
1F4
100
AcDbSymbolTableRecord
100
AcDbViewportTableRecord
  2
*ACTIVE
 70
0
 10
0.0
 20
0.0
 11
1.0
 21
1.0
 12
148.5
 22
105.0
 13
0.0
 23
0.0
 14
1.0
 24
1.0
 15
0.0
 25
0.0
 16
0.0
 26
0.0
 36
1.0
 17
0.0
 27
0.0
 37
0.0
 40
210.0
 41
1.4142857143
 42
50.0
 43
0.0
 44
0.0
 50
0.0
 51
0.0
 71
0
 72
100
 73
1
 74
1
 75
0
 76
0
 77
0
 78
0
  0
ENDTAB
  0
TABLE
  2
LTYPE
  5
5
100
AcDbSymbolTable
 70
6
  0
LTYPE
  5
14
100
AcDbSymbolTableRecord
100
AcDbLinetypeTableRecord
  2
BYBLOCK
 70
0
  3

 72
65
 73
0
 40
0.0
  0
LTYPE
  5
15
100
AcDbSymbolTableRecord
100
AcDbLinetypeTableRecord
  2
BYLAYER
 70
0
  3

 72
65
 73
0
 40
0.0
  0
LTYPE
  5
16
100
AcDbSymbolTableRecord
100
AcDbLinetypeTableRecord
  2
CONTINUOUS
 70
64
  3
Solid line
 72
65
 73
0
 40
0.0
  0
LTYPE
  5
1F5
100
AcDbSymbolTableRecord
100
AcDbLinetypeTableRecord
  2
CENTER
 70
64
  3
____ _ ____ _ ____ _ ____ _ ____ _ ____ _ ____
 72
65
 73
4
 40
0.6
 49
0.375
 74
0
 49
-0.075
 74
0
 49
0.075
 74
0
 49
-0.075
 74
0
  0
LTYPE
  5
1F6
100
AcDbSymbolTableRecord
100
AcDbLinetypeTableRecord
  2
HIDDEN
 70
64
  3
- - - - - - - - - - - - - - - - - - - -
 72
65
 73
2
 40
0.2
 49
0.1
 74
0
 49
-0.1
 74
0
  0
LTYPE
  5
1F7
100
AcDbSymbolTableRecord
100
AcDbLinetypeTableRecord
  2
PHANTOM
 70
64
  3
_____ _ _ _____ _ _ _____ _ _ _____
 72
65
 73
6
 40
0.8
 49
0.45
 74
0
 49
-0.05
 74
0
 49
0.1
 74
0
 49
-0.05
 74
0
 49
0.1
 74
0
 49
-0.05
 74
0
  0
LTYPE
  5
1F8
100
AcDbSymbolTableRecord
100
AcDbLinetypeTableRecord
  2
DOT
 70
64
  3
. . . . . . . . . . . . . . . . . . . .
 72
65
 73
2
 40
0.2
 49
0.1
 74
0
 49
-0.1
 74
0
  0
LTYPE
  5
1F9
100
AcDbSymbolTableRecord
100
AcDbLinetypeTableRecord
  2
DASHED
 70
64
  3
- - - - - - - - - - - - - - - - - - - -
 72
65
 73
2
 40
0.2
 49
0.1
 74
0
 49
-0.1
 74
0
  0
ENDTAB
  0
TABLE
  2
LAYER
  5
2
100
AcDbSymbolTable
 70
36
  0
LAYER
  5
10
100
AcDbSymbolTableRecord
100
AcDbLayerTableRecord
  2
0
 70
0
 62
7
  6
CONTINUOUS
370
-3
390
F
  0
LAYER
  5
1FA
100
AcDbSymbolTableRecord
100
AcDbLayerTableRecord
  2
DEFAULT_1
 70
0
 62
7
  6
CENTER
370
-3
390
F
  0
LAYER
  5
1FB
100
AcDbSymbolTableRecord
100
AcDbLayerTableRecord
  2
DEFAULT_2
 70
0
 62
7
  6
HIDDEN
370
-3
390
F
  0
LAYER
  5
1FC
100
AcDbSymbolTableRecord
100
AcDbLayerTableRecord
  2
DEFAULT_3
 70
0
 62
7
  6
PHANTOM
370
-3
390
F
  0
LAYER
  5
1FD
100
AcDbSymbolTableRecord
100
AcDbLayerTableRecord
  2
201A_260000
 70
0
 62
7
  6
CONTINUOUS
370
-3
390
F
  0
LAYER
  5
1FE
100
AcDbSymbolTableRecord
100
AcDbLayerTableRecord
  2
201A_260000_1
 70
0
 62
7
  6
CONTINUOUS
370
-3
390
F
  0
LAYER
  5
1FF
100
AcDbSymbolTableRecord
100
AcDbLayerTableRecord
  2
201A_260000_2
 70
0
 62
7
  6
CONTINUOUS
370
-3
390
F
  0
LAYER
  5
200
100
AcDbSymbolTableRecord
100
AcDbLayerTableRecord
  2
2125-CC-RF-VIMAR_65000
 70
0
 62
7
  6
CONTINUOUS
370
-3
390
F
  0
LAYER
  5
201
100
AcDbSymbolTableRecord
100
AcDbLayerTableRecord
  2
2125-CC-RF-VIMAR_65000_1
 70
0
 62
7
  6
CONTINUOUS
370
-3
390
F
  0
LAYER
  5
202
100
AcDbSymbolTableRecord
100
AcDbLayerTableRecord
  2
2125-R1-RF-VIMAR_60000
 70
0
 62
7
  6
CONTINUOUS
370
-3
390
F
  0
LAYER
  5
203
100
AcDbSymbolTableRecord
100
AcDbLayerTableRecord
  2
2125-R1-RF-VIMAR_60000_1
 70
0
 62
7
  6
CONTINUOUS
370
-3
390
F
  0
LAYER
  5
204
100
AcDbSymbolTableRecord
100
AcDbLayerTableRecord
  2
2125-R1-RF-VIMAR_60000_2
 70
0
 62
7
  6
CONTINUOUS
370
-3
390
F
  0
LAYER
  5
205
100
AcDbSymbolTableRecord
100
AcDbLayerTableRecord
  2
3216-R1-RF-VIMAR_60000
 70
0
 62
7
  6
CONTINUOUS
370
-3
390
F
  0
LAYER
  5
206
100
AcDbSymbolTableRecord
100
AcDbLayerTableRecord
  2
43000463A0
 70
0
 62
7
  6
CONTINUOUS
370
-3
390
F
  0
LAYER
  5
207
100
AcDbSymbolTableRecord
100
AcDbLayerTableRecord
  2
ASSI
 70
0
 62
7
  6
CONTINUOUS
370
-3
390
F
  0
LAYER
  5
208
100
AcDbSymbolTableRecord
100
AcDbLayerTableRecord
  2
AX-D100-1-VIMAR_300000
 70
0
 62
7
  6
CONTINUOUS
370
-3
390
F
  0
LAYER
  5
209
100
AcDbSymbolTableRecord
100
AcDbLayerTableRecord
  2
AX-R5W-3-VIMAR_2200000
 70
0
 62
7
  6
CONTINUOUS
370
-3
390
F
  0
LAYER
  5
20A
100
AcDbSymbolTableRecord
100
AcDbLayerTableRecord
  2
CN-1S-HEADER-PIH-1_254000
 70
0
 62
7
  6
CONTINUOUS
370
-3
390
F
  0
LAYER
  5
20B
100
AcDbSymbolTableRecord
100
AcDbLayerTableRecord
  2
CN-CSF_CSM_2-VIMAR_1150000
 70
0
 62
7
  6
CONTINUOUS
370
-3
390
F
  0
LAYER
  5
20C
100
AcDbSymbolTableRecord
100
AcDbLayerTableRecord
  2
CN-MKDSN2-VIMAR_1500000
 70
0
 62
7
  6
CONTINUOUS
370
-3
390
F
  0
LAYER
  5
20D
100
AcDbSymbolTableRecord
100
AcDbLayerTableRecord
  2
CN1-REF_SQUAREHOLE14_SPEA-VIMAR
 70
0
 62
7
  6
CONTINUOUS
370
-3
390
F
  0
LAYER
  5
20E
100
AcDbSymbolTableRecord
100
AcDbLayerTableRecord
  2
CN1-REF_SQUAREHOLE14_SPEA-VIM_1
 70
0
 62
7
  6
CONTINUOUS
370
-3
390
F
  0
LAYER
  5
20F
100
AcDbSymbolTableRecord
100
AcDbLayerTableRecord
  2
CN1-REF_SQUAREHOLE14_SPEA-VIM_2
 70
0
 62
7
  6
CONTINUOUS
370
-3
390
F
  0
LAYER
  5
210
100
AcDbSymbolTableRecord
100
AcDbLayerTableRecord
  2
CN1-REF_SQUAREHOLE14_SPEA-VIM_3
 70
0
 62
7
  6
CONTINUOUS
370
-3
390
F
  0
LAYER
  5
211
100
AcDbSymbolTableRecord
100
AcDbLayerTableRecord
  2
COLOR5
 70
0
 62
7
  6
CONTINUOUS
370
-3
390
F
  0
LAYER
  5
212
100
AcDbSymbolTableRecord
100
AcDbLayerTableRecord
  2
COLOR9
 70
0
 62
7
  6
CONTINUOUS
370
-3
390
F
  0
LAYER
  5
213
100
AcDbSymbolTableRecord
100
AcDbLayerTableRecord
  2
COLORE_MATERIALE
 70
0
 62
7
  6
CONTINUOUS
370
-3
390
F
  0
LAYER
  5
214
100
AcDbSymbolTableRecord
100
AcDbLayerTableRecord
  2
COORDINATE
 70
0
 62
7
  6
CONTINUOUS
370
-3
390
F
  0
LAYER
  5
215
100
AcDbSymbolTableRecord
100
AcDbLayerTableRecord
  2
COORD_ORIGINE
 70
0
 62
7
  6
CONTINUOUS
370
-3
390
F
  0
LAYER
  5
216
100
AcDbSymbolTableRecord
100
AcDbLayerTableRecord
  2
COPY_PUBLISH
 70
0
 62
7
  6
CONTINUOUS
370
-3
390
F
  0
LAYER
  5
217
100
AcDbSymbolTableRecord
100
AcDbLayerTableRecord
  2
COSMETIC
 70
0
 62
7
  6
CONTINUOUS
370
-3
390
F
  0
LAYER
  5
218
100
AcDbSymbolTableRecord
100
AcDbLayerTableRecord
  2
CP-DO-214AC-D-VIMAR_240000
 70
0
 62
7
  6
CONTINUOUS
370
-3
390
F
  0
LAYER
  5
219
100
AcDbSymbolTableRecord
100
AcDbLayerTableRecord
  2
CP-DO-214AC-D-VIMAR_240000_1
 70
0
 62
7
  6
CONTINUOUS
370
-3
390
F
  0
LAYER
  5
21A
100
AcDbSymbolTableRecord
100
AcDbLayerTableRecord
  2
CP-DO-214AC-D-VIMAR_240000_2
 70
0
 62
7
  6
CONTINUOUS
370
-3
390
F
  0
LAYER
  5
21B
100
AcDbSymbolTableRecord
100
AcDbLayerTableRecord
  2
CURVE
 70
0
 62
7
  6
CONTINUOUS
370
-3
390
F
  0
LAYER
  5
21C
100
AcDbSymbolTableRecord
100
AcDbLayerTableRecord
  2
DRAFT
 70
0
 62
7
  6
CONTINUOUS
370
-3
390
F
  0
LAYER
  5
21D
100
AcDbSymbolTableRecord
100
AcDbLayerTableRecord
  2
E2_MARK_10000
 70
0
 62
7
  6
CONTINUOUS
370
-3
390
F
  0
LAYER
  5
21E
100
AcDbSymbolTableRecord
100
AcDbLayerTableRecord
  2
FL-9_2X6X5_530000
 70
0
 62
7
  6
CONTINUOUS
370
-3
390
F
  0
LAYER
  5
21F
100
AcDbSymbolTableRecord
100
AcDbLayerTableRecord
  2
IGES
 70
0
 62
7
  6
CONTINUOUS
370
-3
390
F
  0
LAYER
  5
220
100
AcDbSymbolTableRecord
100
AcDbLayerTableRecord
  2
IMPORT_IGES
 70
0
 62
7
  6
CONTINUOUS
370
-3
390
F
  0
LAYER
  5
221
100
AcDbSymbolTableRecord
100
AcDbLayerTableRecord
  2
INTFCLR_2
 70
0
 62
7
  6
CONTINUOUS
370
-3
390
F
  0
LAYER
  5
222
100
AcDbSymbolTableRecord
100
AcDbLayerTableRecord
  2
INTF_GREEN
 70
0
 62
7
  6
CONTINUOUS
370
-3
390
F
  0
LAYER
  5
223
100
AcDbSymbolTableRecord
100
AcDbLayerTableRecord
  2
INTF_YELLOW
 70
0
 62
7
  6
CONTINUOUS
370
-3
390
F
  0
LAYER
  5
224
100
AcDbSymbolTableRecord
100
AcDbLayerTableRecord
  2
LOGO_RESIST-RESTYLING_10000
 70
0
 62
7
  6
CONTINUOUS
370
-3
390
F
  0
LAYER
  5
225
100
AcDbSymbolTableRecord
100
AcDbLayerTableRecord
  2
NO-PB_MARK_10000
 70
0
 62
7
  6
CONTINUOUS
370
-3
390
F
  0
LAYER
  5
226
100
AcDbSymbolTableRecord
100
AcDbLayerTableRecord
  2
NOTE
 70
0
 62
7
  6
CONTINUOUS
370
-3
390
F
  0
LAYER
  5
227
100
AcDbSymbolTableRecord
100
AcDbLayerTableRecord
  2
PIANI
 70
0
 62
7
  6
CONTINUOUS
370
-3
390
F
  0
LAYER
  5
228
100
AcDbSymbolTableRecord
100
AcDbLayerTableRecord
  2
PIANI_DI_RIFERIMENTO
 70
0
 62
7
  6
CONTINUOUS
370
-3
390
F
  0
LAYER
  5
229
100
AcDbSymbolTableRecord
100
AcDbLayerTableRecord
  2
PIANI_ORIGINE
 70
0
 62
7
  6
CONTINUOUS
370
-3
390
F
  0
LAYER
  5
22A
100
AcDbSymbolTableRecord
100
AcDbLayerTableRecord
  2
PUBBLISH
 70
0
 62
7
  6
CONTINUOUS
370
-3
390
F
  0
LAYER
  5
22B
100
AcDbSymbolTableRecord
100
AcDbLayerTableRecord
  2
PUBLISHED_GEOMETRY
 70
0
 62
7
  6
CONTINUOUS
370
-3
390
F
  0
LAYER
  5
22C
100
AcDbSymbolTableRecord
100
AcDbLayerTableRecord
  2
PUNTI
 70
0
 62
7
  6
CONTINUOUS
370
-3
390
F
  0
LAYER
  5
22D
100
AcDbSymbolTableRecord
100
AcDbLayerTableRecord
  2
RACCORDO
 70
0
 62
7
  6
CONTINUOUS
370
-3
390
F
  0
LAYER
  5
22E
100
AcDbSymbolTableRecord
100
AcDbLayerTableRecord
  2
RD-CE35-1-VIMAR_1150000
 70
0
 62
7
  6
CONTINUOUS
370
-3
390
F
  0
LAYER
  5
22F
100
AcDbSymbolTableRecord
100
AcDbLayerTableRecord
  2
RD-CE50-11-VIMAR_1250000
 70
0
 62
7
  6
CONTINUOUS
370
-3
390
F
  0
LAYER
  5
230
100
AcDbSymbolTableRecord
100
AcDbLayerTableRecord
  2
RD-CE50-11-VIMAR_1250000_1
 70
0
 62
7
  6
CONTINUOUS
370
-3
390
F
  0
LAYER
  5
231
100
AcDbSymbolTableRecord
100
AcDbLayerTableRecord
  2
RD-L50-4-VIMAR_950000
 70
0
 62
7
  6
CONTINUOUS
370
-3
390
F
  0
LAYER
  5
232
100
AcDbSymbolTableRecord
100
AcDbLayerTableRecord
  2
RD-ZNR75-1-VIMAR_0
 70
0
 62
7
  6
CONTINUOUS
370
-3
390
F
  0
LAYER
  5
233
100
AcDbSymbolTableRecord
100
AcDbLayerTableRecord
  2
SIMBOLO
 70
0
 62
7
  6
CONTINUOUS
370
-3
390
F
  0
LAYER
  5
234
100
AcDbSymbolTableRecord
100
AcDbLayerTableRecord
  2
SMD8C-VIMAR_343000
 70
0
 62
7
  6
CONTINUOUS
370
-3
390
F
  0
LAYER
  5
235
100
AcDbSymbolTableRecord
100
AcDbLayerTableRecord
  2
SMUSSO
 70
0
 62
7
  6
CONTINUOUS
370
-3
390
F
  0
LAYER
  5
236
100
AcDbSymbolTableRecord
100
AcDbLayerTableRecord
  2
SNAPLINE
 70
0
 62
7
  6
CONTINUOUS
370
-3
390
F
  0
LAYER
  5
237
100
AcDbSymbolTableRecord
100
AcDbLayerTableRecord
  2
SUPERFICI
 70
0
 62
7
  6
CONTINUOUS
370
-3
390
F
  0
LAYER
  5
238
100
AcDbSymbolTableRecord
100
AcDbLayerTableRecord
  2
TR-29V-1-VIMAR_1400000
 70
0
 62
7
  6
CONTINUOUS
370
-3
390
F
  0
LAYER
  5
239
100
AcDbSymbolTableRecord
100
AcDbLayerTableRecord
  2
TRASH
 70
0
 62
7
  6
CONTINUOUS
370
-3
390
F
  0
LAYER
  5
23A
100
AcDbSymbolTableRecord
100
AcDbLayerTableRecord
  2
___SHELL
 70
0
 62
7
  6
CONTINUOUS
370
-3
390
F
  0
ENDTAB
  0
TABLE
  2
STYLE
  5
3
100
AcDbSymbolTable
 70
1
  0
STYLE
  5
11
100
AcDbSymbolTableRecord
100
AcDbTextStyleTableRecord
  2
STANDARD
 70
0
 40
0.0
 41
0.8
 50
0.0
 71
0
 42
0.2
  3
txt
  4

  0
STYLE
  5
23B
100
AcDbSymbolTableRecord
100
AcDbTextStyleTableRecord
  2
TEXTSTYLE_1
 70
0
 40
0.0
 41
0.8
 50
0.0
 71
0
 42
0.2
  3
gdt
  4

  0
ENDTAB
  0
TABLE
  2
VIEW
  5
6
100
AcDbSymbolTable
 70
0
  0
ENDTAB
  0
TABLE
  2
UCS
  5
7
100
AcDbSymbolTable
 70
0
  0
ENDTAB
  0
TABLE
  2
APPID
  5
9
100
AcDbSymbolTable
 70
1
  0
APPID
  5
23C
100
AcDbSymbolTableRecord
100
AcDbRegAppTableRecord
  2
ACAD
 70
0
  0
ENDTAB
  0
TABLE
  2
BLOCK_RECORD
  5
1
100
AcDbSymbolTable
 70
0
  0
BLOCK_RECORD
  5
23D
100
AcDbSymbolTableRecord
100
AcDbBlockTableRecord
  2
*Model_Space
  0
BLOCK_RECORD
  5
23E
100
AcDbSymbolTableRecord
100
AcDbBlockTableRecord
  2
*Paper_Space
  0
ENDTAB
  0
TABLE
  2
DIMSTYLE
  5
A
100
AcDbSymbolTable
 70
1
100
AcDbDimStyleTable
 71
0
  0
DIMSTYLE
105
23F
100
AcDbSymbolTableRecord
100
AcDbDimStyleTableRecord
  2
STANDARD
 70
0
  3

  4

 40
1.0
 41
3.0
 42
0.0625
 43
0.38
 44
0.18
 45
0.0
 46
0.0
 47
0.01
 48
0.01
140
3.0
141
0.09
142
0.0
143
25.4
144
1.0
145
0.0
146
1.0
147
0.09
 71
1.0
 72
0.0
 73
0
 74
0
 75
0
 76
0
 77
1
 78
8
170
0
171
2
172
0
173
0
174
0
175
0
176
0
177
0
178
0
270
2
271
2
272
2
273
2
274
2
275
0
280
0
281
0
282
0
283
1
284
8
285
0
286
0
287
3
288
0
340
11
  0
ENDTAB
  0
ENDSEC
  0
SECTION
  2
BLOCKS
  0
BLOCK
  5
20
100
AcDbEntity
  8
0
100
AcDbBlockBegin
  2
*Model_Space
 70
0
 10
0.0
 20
0.0
 30
0.0
  3
*Model_Space
  1

  0
ENDBLK
  5
21
100
AcDbEntity
  8
0
100
AcDbBlockEnd
  0
BLOCK
  5
1C
100
AcDbEntity
  8
0
100
AcDbBlockBegin
  2
*Paper_Space
 70
0
 10
0.0
 20
0.0
 30
0.0
  3
*Paper_Space
  1

  0
ENDBLK
  5
1D
100
AcDbEntity
  8
0
100
AcDbBlockEnd
  0
ENDSEC
  0
SECTION
  2
ENTITIES
  0
LINE
  5
240
100
AcDbEntity
  8
ASSI
100
AcDbLine
 62
7
  6
CONTINUOUS
 10
-9.8956322698
 20
-24.495628166
 11
-7.5043674762
 21
-24.495628166
  0
LINE
  5
241
100
AcDbEntity
  8
0
100
AcDbLine
 62
7
  6
CONTINUOUS
 10
-9.8956322698
 20
-24.495628166
 11
-7.5043674762
 21
-24.495628166
  0
LINE
  5
242
100
AcDbEntity
  8
ASSI
100
AcDbLine
 62
7
  6
CONTINUOUS
 10
7.5043677302
 20
-24.495628166
 11
9.8956325238
 21
-24.495628166
  0
LINE
  5
243
100
AcDbEntity
  8
0
100
AcDbLine
 62
7
  6
CONTINUOUS
 10
7.5043677302
 20
-24.495628166
 11
9.8956325238
 21
-24.495628166
  0
LINE
  5
244
100
AcDbEntity
  8
ASSI
100
AcDbLine
 62
253
  6
CONTINUOUS
 10
7.254371961
 20
-24.2456323968
 11
10.145628293
 21
-24.2456323968
  0
LINE
  5
245
100
AcDbEntity
  8
0
100
AcDbLine
 62
253
  6
CONTINUOUS
 10
7.254371961
 20
-24.2456323968
 11
10.145628293
 21
-24.2456323968
  0
LINE
  5
246
100
AcDbEntity
  8
ASSI
100
AcDbLine
 62
253
  6
CONTINUOUS
 10
-7.254371707
 20
-24.2456323968
 11
-10.145628039
 21
-24.2456323968
  0
LINE
  5
247
100
AcDbEntity
  8
0
100
AcDbLine
 62
253
  6
CONTINUOUS
 10
-7.254371707
 20
-24.2456323968
 11
-10.145628039
 21
-24.2456323968
  0
LINE
  5
248
100
AcDbEntity
  8
ASSI
100
AcDbLine
 62
7
  6
CONTINUOUS
 10
-4.449999873
 20
-24.0
 11
-3.499999873
 21
-24.0
  0
LINE
  5
249
100
AcDbEntity
  8
0
100
AcDbLine
 62
7
  6
CONTINUOUS
 10
-4.449999873
 20
-24.0
 11
-3.499999873
 21
-24.0
  0
LINE
  5
24A
100
AcDbEntity
  8
ASSI
100
AcDbLine
 62
7
  6
CONTINUOUS
 10
3.500000127
 20
-24.0
 11
4.450000127
 21
-24.0
  0
LINE
  5
24B
100
AcDbEntity
  8
0
100
AcDbLine
 62
7
  6
CONTINUOUS
 10
3.500000127
 20
-24.0
 11
4.450000127
 21
-24.0
  0
LINE
  5
24C
100
AcDbEntity
  8
ASSI
100
AcDbLine
 62
7
  6
CONTINUOUS
 10
-3.499999873
 20
-23.9941821702
 11
-1.199999873
 21
-23.9941821702
  0
LINE
  5
24D
100
AcDbEntity
  8
0
100
AcDbLine
 62
7
  6
CONTINUOUS
 10
-3.499999873
 20
-23.9941821702
 11
-1.199999873
 21
-23.9941821702
  0
LINE
  5
24E
100
AcDbEntity
  8
ASSI
100
AcDbLine
 62
7
  6
CONTINUOUS
 10
1.200000127
 20
-23.9941821702
 11
3.500000127
 21
-23.9941821702
  0
LINE
  5
24F
100
AcDbEntity
  8
0
100
AcDbLine
 62
7
  6
CONTINUOUS
 10
1.200000127
 20
-23.9941821702
 11
3.500000127
 21
-23.9941821702
  0
LINE
  5
250
100
AcDbEntity
  8
ASSI
100
AcDbLine
 62
7
  6
CONTINUOUS
 10
-4.4063492261
 20
-23.9563493531
 11
-3.499999873
 21
-23.9563493531
  0
LINE
  5
251
100
AcDbEntity
  8
0
100
AcDbLine
 62
7
  6
CONTINUOUS
 10
-4.4063492261
 20
-23.9563493531
 11
-3.499999873
 21
-23.9563493531
  0
LINE
  5
252
100
AcDbEntity
  8
ASSI
100
AcDbLine
 62
7
  6
CONTINUOUS
 10
3.500000127
 20
-23.9563493531
 11
4.4063494801
 21
-23.9563493531
  0
LINE
  5
253
100
AcDbEntity
  8
0
100
AcDbLine
 62
7
  6
CONTINUOUS
 10
3.500000127
 20
-23.9563493531
 11
4.4063494801
 21
-23.9563493531
  0
LINE
  5
254
100
AcDbEntity
  8
ASSI
100
AcDbLine
 62
253
  6
CONTINUOUS
 10
7.254371961
 20
-23.8443375673
 11
10.145628293
 21
-23.8443375673
  0
LINE
  5
255
100
AcDbEntity
  8
0
100
AcDbLine
 62
253
  6
CONTINUOUS
 10
7.254371961
 20
-23.8443375673
 11
10.145628293
 21
-23.8443375673
  0
LINE
  5
256
100
AcDbEntity
  8
ASSI
100
AcDbLine
 62
253
  6
CONTINUOUS
 10
-7.254371707
 20
-23.8443375673
 11
-10.145628039
 21
-23.8443375673
  0
LINE
  5
257
100
AcDbEntity
  8
0
100
AcDbLine
 62
253
  6
CONTINUOUS
 10
-7.254371707
 20
-23.8443375673
 11
-10.145628039
 21
-23.8443375673
  0
LINE
  5
258
100
AcDbEntity
  8
ASSI
100
AcDbLine
 62
253
  6
CONTINUOUS
 10
9.8956325238
 20
-23.6278312164
 11
7.5043677302
 21
-23.6278312164
  0
LINE
  5
259
100
AcDbEntity
  8
0
100
AcDbLine
 62
253
  6
CONTINUOUS
 10
9.8956325238
 20
-23.6278312164
 11
7.5043677302
 21
-23.6278312164
  0
LINE
  5
25A
100
AcDbEntity
  8
ASSI
100
AcDbLine
 62
253
  6
CONTINUOUS
 10
-7.5043674762
 20
-23.6278312164
 11
-9.8956322698
 21
-23.6278312164
  0
LINE
  5
25B
100
AcDbEntity
  8
0
100
AcDbLine
 62
253
  6
CONTINUOUS
 10
-7.5043674762
 20
-23.6278312164
 11
-9.8956322698
 21
-23.6278312164
  0
LINE
  5
25C
100
AcDbEntity
  8
ASSI
100
AcDbLine
 62
7
  6
CONTINUOUS
 10
-9.9007228709
 20
-23.1226497308
 11
-7.4992768751
 21
-23.1226497308
  0
LINE
  5
25D
100
AcDbEntity
  8
0
100
AcDbLine
 62
7
  6
CONTINUOUS
 10
-9.9007228709
 20
-23.1226497308
 11
-7.4992768751
 21
-23.1226497308
  0
LINE
  5
25E
100
AcDbEntity
  8
ASSI
100
AcDbLine
 62
7
  6
CONTINUOUS
 10
9.9007231249
 20
-23.1226497308
 11
7.4992771291
 21
-23.1226497308
  0
LINE
  5
25F
100
AcDbEntity
  8
0
100
AcDbLine
 62
7
  6
CONTINUOUS
 10
9.9007231249
 20
-23.1226497308
 11
7.4992771291
 21
-23.1226497308
  0
LINE
  5
260
100
AcDbEntity
  8
ASSI
100
AcDbLine
 62
7
  6
CONTINUOUS
 10
-7.249999873
 20
-22.4
 11
-4.449999873
 21
-22.4
  0
LINE
  5
261
100
AcDbEntity
  8
0
100
AcDbLine
 62
7
  6
CONTINUOUS
 10
-7.249999873
 20
-22.4
 11
-4.449999873
 21
-22.4
  0
LINE
  5
262
100
AcDbEntity
  8
ASSI
100
AcDbLine
 62
7
  6
CONTINUOUS
 10
4.450000127
 20
-22.4
 11
7.250000127
 21
-22.4
  0
LINE
  5
263
100
AcDbEntity
  8
0
100
AcDbLine
 62
7
  6
CONTINUOUS
 10
4.450000127
 20
-22.4
 11
7.250000127
 21
-22.4
  0
LINE
  5
264
100
AcDbEntity
  8
ASSI
100
AcDbLine
 62
7
  6
CONTINUOUS
 10
-0.999999873
 20
-22.3947639644
 11
1.000000127
 21
-22.3947639644
  0
LINE
  5
265
100
AcDbEntity
  8
0
100
AcDbLine
 62
7
  6
CONTINUOUS
 10
-0.999999873
 20
-22.3947639644
 11
1.000000127
 21
-22.3947639644
  0
LINE
  5
266
100
AcDbEntity
  8
ASSI
100
AcDbLine
 62
7
  6
CONTINUOUS
 10
-10.6417156947
 20
-22.3941821702
 11
-7.2558177028
 21
-22.3941821702
  0
LINE
  5
267
100
AcDbEntity
  8
0
100
AcDbLine
 62
7
  6
CONTINUOUS
 10
-10.6417156947
 20
-22.3941821702
 11
-7.2558177028
 21
-22.3941821702
  0
LINE
  5
268
100
AcDbEntity
  8
ASSI
100
AcDbLine
 62
7
  6
CONTINUOUS
 10
7.2558179568
 20
-22.3941821702
 11
10.6417159487
 21
-22.3941821702
  0
LINE
  5
269
100
AcDbEntity
  8
0
100
AcDbLine
 62
7
  6
CONTINUOUS
 10
7.2558179568
 20
-22.3941821702
 11
10.6417159487
 21
-22.3941821702
  0
LINE
  5
26A
100
AcDbEntity
  8
ASSI
100
AcDbLine
 62
253
  6
CONTINUOUS
 10
-7.3140298475
 20
-22.3359700255
 11
-2.999999873
 21
-22.3359700255
  0
LINE
  5
26B
100
AcDbEntity
  8
0
100
AcDbLine
 62
7
  6
CONTINUOUS
 10
-7.3140298475
 20
-22.3359700255
 11
-2.999999873
 21
-22.3359700255
  0
LINE
  5
26C
100
AcDbEntity
  8
ASSI
100
AcDbLine
 62
253
  6
CONTINUOUS
 10
3.000000127
 20
-22.3359700255
 11
7.3140301015
 21
-22.3359700255
  0
LINE
  5
26D
100
AcDbEntity
  8
0
100
AcDbLine
 62
7
  6
CONTINUOUS
 10
3.000000127
 20
-22.3359700255
 11
7.3140301015
 21
-22.3359700255
  0
LINE
  5
26E
100
AcDbEntity
  8
ASSI
100
AcDbLine
 62
7
  6
CONTINUOUS
 10
-9.649999873
 20
20.1990396502
 11
-8.9498935354
 21
20.9
  0
LINE
  5
26F
100
AcDbEntity
  8
0
100
AcDbLine
 62
7
  6
CONTINUOUS
 10
-9.649999873
 20
20.1990396502
 11
-8.9498935354
 21
20.9
  0
LINE
  5
270
100
AcDbEntity
  8
RACCORDO
100
AcDbLine
 62
7
  6
CONTINUOUS
 10
-8.799999873
 20
20.85
 11
-10.5643026535
 21
19.0856972195
  0
LINE
  5
271
100
AcDbEntity
  8
ASSI
100
AcDbLine
 62
7
  6
CONTINUOUS
 10
-8.799999873
 20
20.85
 11
-11.1329824808
 21
18.5170173922
  0
LINE
  5
272
100
AcDbEntity
  8
0
100
AcDbLine
 62
7
  6
CONTINUOUS
 10
-10.149999873
 20
19.5
 11
-11.1329824808
 21
18.5170173922
  0
LINE
  5
273
100
AcDbEntity
  8
ASSI
100
AcDbLine
 62
7
  6
CONTINUOUS
 10
-8.249999873
 20
21.4
 11
-7.2558177028
 21
22.3941821702
  0
LINE
  5
274
100
AcDbEntity
  8
0
100
AcDbLine
 62
7
  6
CONTINUOUS
 10
-8.249999873
 20
21.4
 11
-7.2558177028
 21
22.3941821702
  0
LINE
  5
275
100
AcDbEntity
  8
RACCORDO
100
AcDbLine
 62
7
  6
CONTINUOUS
 10
-10.0850174184
 20
19.3181305591
 11
-8.5531479775
 21
20.85
  0
LINE
  5
276
100
AcDbEntity
  8
ASSI
100
AcDbLine
 62
7
  6
CONTINUOUS
 10
-10.0850174184
 20
19.3181305591
 11
-8.5531479775
 21
20.85
  0
LINE
  5
277
100
AcDbEntity
  8
RACCORDO
100
AcDbLine
 62
253
  6
CONTINUOUS
 10
-9.8824477458
 20
18.8290841082
 11
-9.9007027818
 21
18.8108290722
  0
LINE
  5
278
100
AcDbEntity
  8
ASSI
100
AcDbLine
 62
253
  6
CONTINUOUS
 10
-9.8824477458
 20
18.8290841082
 11
-9.9007027818
 21
18.8108290722
  0
LINE
  5
279
100
AcDbEntity
  8
ASSI
100
AcDbLine
 62
7
  6
CONTINUOUS
 10
-2.999999873
 20
-21.7
 11
3.000000127
 21
-21.7
  0
LINE
  5
27A
100
AcDbEntity
  8
0
100
AcDbLine
 62
7
  6
CONTINUOUS
 10
-2.999999873
 20
-21.7
 11
3.000000127
 21
-21.7
  0
LINE
  5
27B
100
AcDbEntity
  8
ASSI
100
AcDbLine
 62
253
  6
CONTINUOUS
 10
-7.5666455272
 20
-21.3359869487
 11
-2.999999873
 21
-21.3359869487
  0
LINE
  5
27C
100
AcDbEntity
  8
0
100
AcDbLine
 62
253
  6
CONTINUOUS
 10
-7.5666455272
 20
-21.3359869487
 11
-2.999999873
 21
-21.3359869487
  0
LINE
  5
27D
100
AcDbEntity
  8
ASSI
100
AcDbLine
 62
253
  6
CONTINUOUS
 10
3.000000127
 20
-21.3359869487
 11
7.5666457812
 21
-21.3359869487
  0
LINE
  5
27E
100
AcDbEntity
  8
0
100
AcDbLine
 62
253
  6
CONTINUOUS
 10
3.000000127
 20
-21.3359869487
 11
7.5666457812
 21
-21.3359869487
  0
LINE
  5
27F
100
AcDbEntity
  8
ASSI
100
AcDbLine
 62
7
  6
CONTINUOUS
 10
-7.299999873
 20
-20.9
 11
-8.9498935354
 21
-20.9
  0
LINE
  5
280
100
AcDbEntity
  8
ASSI
100
AcDbLine
 62
7
  6
CONTINUOUS
 10
7.300000127
 20
-20.9
 11
8.9498937894
 21
-20.9
  0
LINE
  5
281
100
AcDbEntity
  8
0
100
AcDbLine
 62
7
  6
CONTINUOUS
 10
-7.299999873
 20
-20.9
 11
-8.9498935354
 21
-20.9
  0
LINE
  5
282
100
AcDbEntity
  8
0
100
AcDbLine
 62
7
  6
CONTINUOUS
 10
7.300000127
 20
-20.9
 11
8.9498937894
 21
-20.9
  0
LINE
  5
283
100
AcDbEntity
  8
DRAFT
100
AcDbLine
 62
7
  6
CONTINUOUS
 10
7.400000127
 20
-20.85
 11
8.800000127
 21
-20.85
  0
LINE
  5
284
100
AcDbEntity
  8
DRAFT
100
AcDbLine
 62
7
  6
CONTINUOUS
 10
-7.399999873
 20
-20.85
 11
-8.799999873
 21
-20.85
  0
LINE
  5
285
100
AcDbEntity
  8
ASSI
100
AcDbLine
 62
7
  6
CONTINUOUS
 10
7.400000127
 20
-20.85
 11
8.800000127
 21
-20.85
  0
LINE
  5
286
100
AcDbEntity
  8
ASSI
100
AcDbLine
 62
7
  6
CONTINUOUS
 10
-7.399999873
 20
-20.85
 11
-8.799999873
 21
-20.85
  0
LINE
  5
287
100
AcDbEntity
  8
ASSI
100
AcDbLine
 62
7
  6
CONTINUOUS
 10
-2.999999873
 20
-20.8
 11
3.000000127
 21
-20.8
  0
LINE
  5
288
100
AcDbEntity
  8
0
100
AcDbLine
 62
7
  6
CONTINUOUS
 10
-2.999999873
 20
-20.8
 11
3.000000127
 21
-20.8
  0
LINE
  5
289
100
AcDbEntity
  8
ASSI
100
AcDbLine
 62
7
  6
CONTINUOUS
 10
7.400000127
 20
-20.5276115984
 11
7.300000127
 21
-20.5276115984
  0
LINE
  5
28A
100
AcDbEntity
  8
0
100
AcDbLine
 62
7
  6
CONTINUOUS
 10
7.400000127
 20
-20.5276115984
 11
7.300000127
 21
-20.5276115984
  0
LINE
  5
28B
100
AcDbEntity
  8
ASSI
100
AcDbLine
 62
7
  6
CONTINUOUS
 10
-7.299999873
 20
-20.5276115984
 11
-7.399999873
 21
-20.5276115984
  0
LINE
  5
28C
100
AcDbEntity
  8
0
100
AcDbLine
 62
7
  6
CONTINUOUS
 10
-7.299999873
 20
-20.5276115984
 11
-7.399999873
 21
-20.5276115984
  0
LINE
  5
28D
100
AcDbEntity
  8
ASSI
100
AcDbLine
 62
7
  6
CONTINUOUS
 10
-6.499999873
 20
-20.0
 11
6.500000127
 21
-20.0
  0
LINE
  5
28E
100
AcDbEntity
  8
0
100
AcDbLine
 62
7
  6
CONTINUOUS
 10
-6.499999873
 20
-20.0
 11
6.500000127
 21
-20.0
  0
LINE
  5
28F
100
AcDbEntity
  8
DRAFT
100
AcDbLine
 62
7
  6
CONTINUOUS
 10
-3.499999873
 20
-19.9
 11
-2.499999873
 21
-19.9
  0
LINE
  5
290
100
AcDbEntity
  8
ASSI
100
AcDbLine
 62
7
  6
CONTINUOUS
 10
-3.499999873
 20
-19.9
 11
-2.499999873
 21
-19.9
  0
LINE
  5
291
100
AcDbEntity
  8
DRAFT
100
AcDbLine
 62
7
  6
CONTINUOUS
 10
2.500000127
 20
-19.9
 11
3.500000127
 21
-19.9
  0
LINE
  5
292
100
AcDbEntity
  8
ASSI
100
AcDbLine
 62
7
  6
CONTINUOUS
 10
2.500000127
 20
-19.9
 11
3.500000127
 21
-19.9
  0
LINE
  5
293
100
AcDbEntity
  8
RACCORDO
100
AcDbLine
 62
7
  6
CONTINUOUS
 10
-1.5981172713
 20
-19.8825449351
 11
1.5981175253
 21
-19.8825449351
  0
LINE
  5
294
100
AcDbEntity
  8
ASSI
100
AcDbLine
 62
7
  6
CONTINUOUS
 10
-1.5981172713
 20
-19.8825449351
 11
1.5981175253
 21
-19.8825449351
  0
LINE
  5
295
100
AcDbEntity
  8
DRAFT
100
AcDbLine
 62
7
  6
CONTINUOUS
 10
-3.4109790419
 20
-19.8109791689
 11
3.4109792959
 21
-19.8109791689
  0
LINE
  5
296
100
AcDbEntity
  8
ASSI
100
AcDbLine
 62
7
  6
CONTINUOUS
 10
-3.4109790419
 20
-19.8109791689
 11
3.4109792959
 21
-19.8109791689
  0
LINE
  5
297
100
AcDbEntity
  8
0
100
AcDbLine
 62
7
  6
CONTINUOUS
 10
-11.1329824808
 20
-18.5170173922
 11
-10.149999873
 21
-19.5
  0
LINE
  5
298
100
AcDbEntity
  8
RACCORDO
100
AcDbLine
 62
7
  6
CONTINUOUS
 10
-10.5643026535
 20
-19.0856972195
 11
-8.799999873
 21
-20.85
  0
LINE
  5
299
100
AcDbEntity
  8
ASSI
100
AcDbLine
 62
7
  6
CONTINUOUS
 10
-11.1329824808
 20
-18.5170173922
 11
-8.799999873
 21
-20.85
  0
LINE
  5
29A
100
AcDbEntity
  8
ASSI
100
AcDbLine
 62
7
  6
CONTINUOUS
 10
-7.2558177028
 20
-22.3941821702
 11
-8.249999873
 21
-21.4
  0
LINE
  5
29B
100
AcDbEntity
  8
0
100
AcDbLine
 62
7
  6
CONTINUOUS
 10
-7.2558177028
 20
-22.3941821702
 11
-8.249999873
 21
-21.4
  0
LINE
  5
29C
100
AcDbEntity
  8
RACCORDO
100
AcDbLine
 62
7
  6
CONTINUOUS
 10
-8.5531479775
 20
-20.85
 11
-10.0850174184
 21
-19.3181305591
  0
LINE
  5
29D
100
AcDbEntity
  8
ASSI
100
AcDbLine
 62
7
  6
CONTINUOUS
 10
-8.5531479775
 20
-20.85
 11
-10.0850174184
 21
-19.3181305591
  0
LINE
  5
29E
100
AcDbEntity
  8
RACCORDO
100
AcDbLine
 62
253
  6
CONTINUOUS
 10
-9.9007027818
 20
-18.8108290722
 11
-9.8824477458
 21
-18.8290841082
  0
LINE
  5
29F
100
AcDbEntity
  8
ASSI
100
AcDbLine
 62
253
  6
CONTINUOUS
 10
-9.9007027818
 20
-18.8108290722
 11
-9.8824477458
 21
-18.8290841082
  0
LINE
  5
2A0
100
AcDbEntity
  8
ASSI
100
AcDbLine
 62
7
  6
CONTINUOUS
 10
-9.649999873
 20
-20.1990396502
 11
-8.9498935354
 21
-20.9
  0
LINE
  5
2A1
100
AcDbEntity
  8
0
100
AcDbLine
 62
7
  6
CONTINUOUS
 10
-9.649999873
 20
-20.1990396502
 11
-8.9498935354
 21
-20.9
  0
LINE
  5
2A2
100
AcDbEntity
  8
RACCORDO
100
AcDbLine
 62
253
  6
CONTINUOUS
 10
-9.1754486604
 20
18.1220850228
 11
-9.1937064679
 21
18.1038272153
  0
LINE
  5
2A3
100
AcDbEntity
  8
ASSI
100
AcDbLine
 62
253
  6
CONTINUOUS
 10
-9.1754486604
 20
18.1220850228
 11
-9.1937064679
 21
18.1038272153
  0
LINE
  5
2A4
100
AcDbEntity
  8
DRAFT
100
AcDbLine
 62
7
  6
CONTINUOUS
 10
-7.399999873
 20
19.7
 11
-7.4890207041
 21
19.6109791689
  0
LINE
  5
2A5
100
AcDbEntity
  8
ASSI
100
AcDbLine
 62
7
  6
CONTINUOUS
 10
-7.399999873
 20
19.7
 11
-7.4890207041
 21
19.6109791689
  0
LINE
  5
2A6
100
AcDbEntity
  8
0
100
AcDbLine
 62
7
  6
CONTINUOUS
 10
-7.299999873
 20
-19.7
 11
-6.499999873
 21
-19.7
  0
LINE
  5
2A7
100
AcDbEntity
  8
DRAFT
100
AcDbLine
 62
7
  6
CONTINUOUS
 10
-7.399999873
 20
-19.7
 11
-7.299999873
 21
-19.7
  0
LINE
  5
2A8
100
AcDbEntity
  8
DRAFT
100
AcDbLine
 62
7
  6
CONTINUOUS
 10
-6.499999873
 20
-19.7
 11
-3.499999873
 21
-19.7
  0
LINE
  5
2A9
100
AcDbEntity
  8
ASSI
100
AcDbLine
 62
7
  6
CONTINUOUS
 10
-7.399999873
 20
-19.7
 11
-3.499999873
 21
-19.7
  0
LINE
  5
2AA
100
AcDbEntity
  8
DRAFT
100
AcDbLine
 62
7
  6
CONTINUOUS
 10
3.500000127
 20
-19.7
 11
6.500000127
 21
-19.7
  0
LINE
  5
2AB
100
AcDbEntity
  8
0
100
AcDbLine
 62
7
  6
CONTINUOUS
 10
6.500000127
 20
-19.7
 11
7.300000127
 21
-19.7
  0
LINE
  5
2AC
100
AcDbEntity
  8
DRAFT
100
AcDbLine
 62
7
  6
CONTINUOUS
 10
7.300000127
 20
-19.7
 11
7.400000127
 21
-19.7
  0
LINE
  5
2AD
100
AcDbEntity
  8
ASSI
100
AcDbLine
 62
7
  6
CONTINUOUS
 10
3.500000127
 20
-19.7
 11
7.400000127
 21
-19.7
  0
LINE
  5
2AE
100
AcDbEntity
  8
RACCORDO
100
AcDbLine
 62
7
  6
CONTINUOUS
 10
9.378018587
 20
-19.6109791689
 11
7.4890209581
 21
-19.6109791689
  0
LINE
  5
2AF
100
AcDbEntity
  8
ASSI
100
AcDbLine
 62
7
  6
CONTINUOUS
 10
9.378018587
 20
-19.6109791689
 11
7.4890209581
 21
-19.6109791689
  0
LINE
  5
2B0
100
AcDbEntity
  8
DRAFT
100
AcDbLine
 62
7
  6
CONTINUOUS
 10
-3.4109790419
 20
-19.6109791689
 11
3.4109792959
 21
-19.6109791689
  0
LINE
  5
2B1
100
AcDbEntity
  8
ASSI
100
AcDbLine
 62
7
  6
CONTINUOUS
 10
-3.4109790419
 20
-19.6109791689
 11
3.4109792959
 21
-19.6109791689
  0
LINE
  5
2B2
100
AcDbEntity
  8
RACCORDO
100
AcDbLine
 62
7
  6
CONTINUOUS
 10
-7.4890207041
 20
-19.6109791689
 11
-9.378018333
 21
-19.6109791689
  0
LINE
  5
2B3
100
AcDbEntity
  8
ASSI
100
AcDbLine
 62
7
  6
CONTINUOUS
 10
-7.4890207041
 20
-19.6109791689
 11
-9.378018333
 21
-19.6109791689
  0
LINE
  5
2B4
100
AcDbEntity
  8
RACCORDO
100
AcDbLine
 62
7
  6
CONTINUOUS
 10
9.2587215306
 20
-19.3229705976
 11
-6.249999873
 21
-19.3229705976
  0
LINE
  5
2B5
100
AcDbEntity
  8
ASSI
100
AcDbLine
 62
7
  6
CONTINUOUS
 10
9.2587215306
 20
-19.3229705976
 11
-6.249999873
 21
-19.3229705976
  0
LINE
  5
2B6
100
AcDbEntity
  8
0
100
AcDbLine
 62
7
  6
CONTINUOUS
 10
9.2579985182
 20
-19.3212250911
 11
-0.649999873
 21
-19.3212250911
  0
LINE
  5
2B7
100
AcDbEntity
  8
RACCORDO
100
AcDbLine
 62
253
  6
CONTINUOUS
 10
-9.1754486604
 20
-19.121932718
 11
-6.749999873
 21
-19.121932718
  0
LINE
  5
2B8
100
AcDbEntity
  8
ASSI
100
AcDbLine
 62
253
  6
CONTINUOUS
 10
-9.1754486604
 20
-19.121932718
 11
-6.749999873
 21
-19.121932718
  0
LINE
  5
2B9
100
AcDbEntity
  8
0
100
AcDbLine
 62
253
  6
CONTINUOUS
 10
9.1754489144
 20
-19.121932718
 11
-6.149999873
 21
-19.121932718
  0
LINE
  5
2BA
100
AcDbEntity
  8
RACCORDO
100
AcDbLine
 62
7
  6
CONTINUOUS
 10
-6.3521042262
 20
-19.1187463379
 11
-6.749999873
 21
-19.1187463379
  0
LINE
  5
2BB
100
AcDbEntity
  8
ASSI
100
AcDbLine
 62
7
  6
CONTINUOUS
 10
-6.3521042262
 20
-19.1187463379
 11
-6.749999873
 21
-19.1187463379
  0
LINE
  5
2BC
100
AcDbEntity
  8
0
100
AcDbLine
 62
7
  6
CONTINUOUS
 10
-6.649999873
 20
-19.0760242242
 11
-6.149999873
 21
-19.0760242242
  0
LINE
  5
2BD
100
AcDbEntity
  8
ASSI
100
AcDbLine
 62
7
  6
CONTINUOUS
 10
-11.1840372496
 20
-18.1473460386
 11
-11.1329824808
 21
-18.1473460386
  0
LINE
  5
2BE
100
AcDbEntity
  8
ASSI
100
AcDbLine
 62
7
  6
CONTINUOUS
 10
11.1840375036
 20
-18.1473460386
 11
11.1329827348
 21
-18.1473460386
  0
LINE
  5
2BF
100
AcDbEntity
  8
0
100
AcDbLine
 62
7
  6
CONTINUOUS
 10
11.1840375036
 20
-18.1473460386
 11
11.1329827348
 21
-18.1473460386
  0
LINE
  5
2C0
100
AcDbEntity
  8
0
100
AcDbLine
 62
7
  6
CONTINUOUS
 10
-11.1840372496
 20
-18.1473460386
 11
-11.1329824808
 21
-18.1473460386
  0
LINE
  5
2C1
100
AcDbEntity
  8
RACCORDO
100
AcDbLine
 62
253
  6
CONTINUOUS
 10
-9.1754486604
 20
-18.1220850228
 11
-6.749999873
 21
-18.1220850228
  0
LINE
  5
2C2
100
AcDbEntity
  8
ASSI
100
AcDbLine
 62
253
  6
CONTINUOUS
 10
-9.1754486604
 20
-18.1220850228
 11
-6.749999873
 21
-18.1220850228
  0
LINE
  5
2C3
100
AcDbEntity
  8
0
100
AcDbLine
 62
253
  6
CONTINUOUS
 10
9.1767079523
 20
-18.1220850228
 11
-6.649999873
 21
-18.1220850228
  0
LINE
  5
2C4
100
AcDbEntity
  8
SUPERFICI
100
AcDbLine
 62
253
  6
CONTINUOUS
 10
9.4865553317
 20
-17.3968281299
 11
10.4864030268
 21
-17.3968281299
  0
LINE
  5
2C5
100
AcDbEntity
  8
RACCORDO
100
AcDbLine
 62
253
  6
CONTINUOUS
 10
-9.4865550777
 20
-17.3968281299
 11
-10.4864027728
 21
-17.3968281299
  0
LINE
  5
2C6
100
AcDbEntity
  8
ASSI
100
AcDbLine
 62
253
  6
CONTINUOUS
 10
-9.4865550777
 20
-17.3968281299
 11
-10.4864027728
 21
-17.3968281299
  0
LINE
  5
2C7
100
AcDbEntity
  8
RACCORDO
100
AcDbLine
 62
253
  6
CONTINUOUS
 10
-9.1937064679
 20
-18.1038272153
 11
-9.1754486604
 21
-18.1220850228
  0
LINE
  5
2C8
100
AcDbEntity
  8
ASSI
100
AcDbLine
 62
253
  6
CONTINUOUS
 10
-9.1937064679
 20
-18.1038272153
 11
-9.1754486604
 21
-18.1220850228
  0
LINE
  5
2C9
100
AcDbEntity
  8
DRAFT
100
AcDbLine
 62
7
  6
CONTINUOUS
 10
-7.399999873
 20
-19.7
 11
-7.4890207041
 21
-19.6109791689
  0
LINE
  5
2CA
100
AcDbEntity
  8
ASSI
100
AcDbLine
 62
7
  6
CONTINUOUS
 10
-7.399999873
 20
-19.7
 11
-7.4890207041
 21
-19.6109791689
  0
LINE
  5
2CB
100
AcDbEntity
  8
CURVE
100
AcDbLine
 62
253
  6
CONTINUOUS
 10
-8.799999873
 20
13.4166670799
 11
-8.6142855984
 21
13.6023806572
  0
LINE
  5
2CC
100
AcDbEntity
  8
CURVE
100
AcDbLine
 62
253
  6
CONTINUOUS
 10
-8.6142855984
 20
13.6023806572
 11
-8.4285713237
 21
13.6952386856
  0
LINE
  5
2CD
100
AcDbEntity
  8
CURVE
100
AcDbLine
 62
253
  6
CONTINUOUS
 10
-7.685714167
 20
13.1380954742
 11
-7.871428461
 21
13.0452386856
  0
LINE
  5
2CE
100
AcDbEntity
  8
CURVE
100
AcDbLine
 62
7
  6
CONTINUOUS
 10
11.1046262095
 20
-16.001437
 11
11.0540377487
 21
-16.001437
  0
LINE
  5
2CF
100
AcDbEntity
  8
CURVE
100
AcDbLine
 62
253
  6
CONTINUOUS
 10
10.8270814761
 20
-16.0
 11
10.8401870909
 21
-16.0
  0
LINE
  5
2D0
100
AcDbEntity
  8
CURVE
100
AcDbLine
 62
253
  6
CONTINUOUS
 10
10.9029282213
 20
-16.0
 11
10.9160337828
 21
-16.0
  0
LINE
  5
2D1
100
AcDbEntity
  8
CURVE
100
AcDbLine
 62
253
  6
CONTINUOUS
 10
11.018359119
 20
-15.9999991179
 11
11.0041478736
 21
-15.9999991179
  0
LINE
  5
2D2
100
AcDbEntity
  8
CURVE
100
AcDbLine
 62
253
  6
CONTINUOUS
 10
10.774716231
 20
-15.6285711288
 11
10.7876828513
 21
-15.6285711288
  0
LINE
  5
2D3
100
AcDbEntity
  8
CURVE
100
AcDbLine
 62
253
  6
CONTINUOUS
 10
10.8650119801
 20
-15.6
 11
10.8781032788
 21
-15.6
  0
LINE
  5
2D4
100
AcDbEntity
  8
CURVE
100
AcDbLine
 62
253
  6
CONTINUOUS
 10
11.0041478736
 20
-15.0499991179
 11
11.018359119
 21
-15.0499991179
  0
LINE
  5
2D5
100
AcDbEntity
  8
CURVE
100
AcDbLine
 62
7
  6
CONTINUOUS
 10
11.0688965584
 20
-15.502999
 11
11.1046262095
 21
-15.503009
  0
LINE
  5
2D6
100
AcDbEntity
  8
ASSI
100
AcDbLine
 62
7
  6
CONTINUOUS
 10
-11.1840372496
 20
-18.1473460386
 11
-11.149999873
 21
-18.491183651
  0
LINE
  5
2D7
100
AcDbEntity
  8
0
100
AcDbLine
 62
7
  6
CONTINUOUS
 10
-11.1840372496
 20
-18.1473460386
 11
-11.149999873
 21
-18.491183651
  0
LINE
  5
2D8
100
AcDbEntity
  8
ASSI
100
AcDbLine
 62
7
  6
CONTINUOUS
 10
-11.1840372496
 20
18.1473460386
 11
-11.149999873
 21
18.491183651
  0
LINE
  5
2D9
100
AcDbEntity
  8
0
100
AcDbLine
 62
7
  6
CONTINUOUS
 10
-11.1840372496
 20
18.1473460386
 11
-11.149999873
 21
18.491183651
  0
LINE
  5
2DA
100
AcDbEntity
  8
CURVE
100
AcDbLine
 62
253
  6
CONTINUOUS
 10
-7.499999873
 20
13.3238090515
 11
-7.685714167
 21
13.1380954742
  0
LINE
  5
2DB
100
AcDbEntity
  8
CURVE
100
AcDbLine
 62
253
  6
CONTINUOUS
 10
-8.0571427357
 20
12.6738090515
 11
-8.2428570491
 21
12.4880954742
  0
LINE
  5
2DC
100
AcDbEntity
  8
CURVE
100
AcDbLine
 62
253
  6
CONTINUOUS
 10
-7.685714167
 20
12.0238090515
 11
-7.499999873
 21
12.2095238686
  0
LINE
  5
2DD
100
AcDbEntity
  8
ASSI
100
AcDbLine
 62
7
  6
CONTINUOUS
 10
4.4063494801
 20
23.9563493531
 11
4.450000127
 21
24.0
  0
LINE
  5
2DE
100
AcDbEntity
  8
0
100
AcDbLine
 62
7
  6
CONTINUOUS
 10
4.4063494801
 20
23.9563493531
 11
4.450000127
 21
24.0
  0
LINE
  5
2DF
100
AcDbEntity
  8
CURVE
100
AcDbLine
 62
253
  6
CONTINUOUS
 10
-8.799999873
 20
10.3833329201
 11
-8.6142855984
 21
10.5690477371
  0
LINE
  5
2E0
100
AcDbEntity
  8
ASSI
100
AcDbLine
 62
7
  6
CONTINUOUS
 10
4.450000127
 20
22.4
 11
4.40607788
 21
22.356077753
  0
LINE
  5
2E1
100
AcDbEntity
  8
0
100
AcDbLine
 62
7
  6
CONTINUOUS
 10
4.450000127
 20
22.4
 11
4.40607788
 21
22.356077753
  0
LINE
  5
2E2
100
AcDbEntity
  8
CURVE
100
AcDbLine
 62
253
  6
CONTINUOUS
 10
-7.499999873
 20
10.2904761314
 11
-7.685714167
 21
10.1047613144
  0
LINE
  5
2E3
100
AcDbEntity
  8
CURVE
100
AcDbLine
 62
253
  6
CONTINUOUS
 10
-8.0571427357
 20
9.6404761314
 11
-8.2428570491
 21
9.4547613144
  0
LINE
  5
2E4
100
AcDbEntity
  8
RACCORDO
100
AcDbLine
 62
7
  6
CONTINUOUS
 10
2.500000127
 20
19.9
 11
2.4979804509
 21
19.8979803239
  0
LINE
  5
2E5
100
AcDbEntity
  8
ASSI
100
AcDbLine
 62
7
  6
CONTINUOUS
 10
2.500000127
 20
19.9
 11
2.4979804509
 21
19.8979803239
  0
LINE
  5
2E6
100
AcDbEntity
  8
SMUSSO
100
AcDbLine
 62
7
  6
CONTINUOUS
 10
-5.249999873
 20
12.15
 11
-5.8273501422
 21
11.5726497308
  0
LINE
  5
2E7
100
AcDbEntity
  8
ASSI
100
AcDbLine
 62
7
  6
CONTINUOUS
 10
-5.249999873
 20
12.15
 11
-5.8273501422
 21
11.5726497308
  0
LINE
  5
2E8
100
AcDbEntity
  8
CURVE
100
AcDbLine
 62
253
  6
CONTINUOUS
 10
-8.6142855984
 20
10.5690477371
 11
-8.4285713237
 21
10.6619045258
  0
LINE
  5
2E9
100
AcDbEntity
  8
CURVE
100
AcDbLine
 62
253
  6
CONTINUOUS
 10
-7.685714167
 20
10.1047613144
 11
-7.871428461
 21
10.0119045258
  0
LINE
  5
2EA
100
AcDbEntity
  8
RACCORDO
100
AcDbLine
 62
253
  6
CONTINUOUS
 10
10.5643029075
 20
19.0856972195
 11
9.9007030358
 21
18.8108290722
  0
LINE
  5
2EB
100
AcDbEntity
  8
ASSI
100
AcDbLine
 62
253
  6
CONTINUOUS
 10
10.5643029075
 20
19.0856972195
 11
9.9007030358
 21
18.8108290722
  0
LINE
  5
2EC
100
AcDbEntity
  8
CURVE
100
AcDbLine
 62
253
  6
CONTINUOUS
 10
11.0088849551
 20
-14.5071422338
 11
10.9994107917
 21
-14.5071422338
  0
LINE
  5
2ED
100
AcDbEntity
  8
CURVE
100
AcDbLine
 62
253
  6
CONTINUOUS
 10
10.774716231
 20
-14.4214291573
 11
10.7974078155
 21
-14.4214291573
  0
LINE
  5
2EE
100
AcDbEntity
  8
CURVE
100
AcDbLine
 62
253
  6
CONTINUOUS
 10
11.0230962005
 20
-14.4166659355
 11
11.0159905773
 21
-14.4166659355
  0
LINE
  5
2EF
100
AcDbEntity
  8
CURVE
100
AcDbLine
 62
7
  6
CONTINUOUS
 10
11.0540377487
 20
-13.66021
 11
11.1046262095
 21
-13.66021
  0
LINE
  5
2F0
100
AcDbEntity
  8
CURVE
100
AcDbLine
 62
253
  6
CONTINUOUS
 10
11.0159905773
 20
-13.6476180792
 11
11.0230962005
 21
-13.6476180792
  0
LINE
  5
2F1
100
AcDbEntity
  8
CURVE
100
AcDbLine
 62
253
  6
CONTINUOUS
 10
10.9994107917
 20
-13.5571422338
 11
11.0088849551
 21
-13.5571422338
  0
LINE
  5
2F2
100
AcDbEntity
  8
CURVE
100
AcDbLine
 62
253
  6
CONTINUOUS
 10
10.9994107917
 20
-13.0142848969
 11
11.0088849551
 21
-13.0142848969
  0
LINE
  5
2F3
100
AcDbEntity
  8
CURVE
100
AcDbLine
 62
253
  6
CONTINUOUS
 10
10.7974078155
 20
-12.5642859459
 11
10.774716231
 21
-12.5642859459
  0
LINE
  5
2F4
100
AcDbEntity
  8
0
100
AcDbLine
 62
253
  6
CONTINUOUS
 10
10.0999981804
 20
-18.8933759045
 11
9.8915755178
 21
-18.8199565902
  0
LINE
  5
2F5
100
AcDbEntity
  8
RACCORDO
100
AcDbLine
 62
253
  6
CONTINUOUS
 10
10.1017436869
 20
-18.8940989169
 11
10.5643029075
 21
-19.0856972195
  0
LINE
  5
2F6
100
AcDbEntity
  8
ASSI
100
AcDbLine
 62
253
  6
CONTINUOUS
 10
10.1017436869
 20
-18.8940989169
 11
10.5643029075
 21
-19.0856972195
  0
LINE
  5
2F7
100
AcDbEntity
  8
ASSI
100
AcDbLine
 62
7
  6
CONTINUOUS
 10
4.450000127
 20
-24.0
 11
4.4063494801
 21
-23.9563493531
  0
LINE
  5
2F8
100
AcDbEntity
  8
0
100
AcDbLine
 62
7
  6
CONTINUOUS
 10
4.450000127
 20
-24.0
 11
4.4063494801
 21
-23.9563493531
  0
LINE
  5
2F9
100
AcDbEntity
  8
ASSI
100
AcDbLine
 62
7
  6
CONTINUOUS
 10
4.450000127
 20
-22.4
 11
4.40607788
 21
-22.356077753
  0
LINE
  5
2FA
100
AcDbEntity
  8
0
100
AcDbLine
 62
7
  6
CONTINUOUS
 10
4.450000127
 20
-22.4
 11
4.40607788
 21
-22.356077753
  0
LINE
  5
2FB
100
AcDbEntity
  8
RACCORDO
100
AcDbLine
 62
7
  6
CONTINUOUS
 10
2.500000127
 20
-19.9
 11
2.4979804509
 21
-19.8979803239
  0
LINE
  5
2FC
100
AcDbEntity
  8
ASSI
100
AcDbLine
 62
7
  6
CONTINUOUS
 10
2.500000127
 20
-19.9
 11
2.4979804509
 21
-19.8979803239
  0
LINE
  5
2FD
100
AcDbEntity
  8
DRAFT
100
AcDbLine
 62
7
  6
CONTINUOUS
 10
-6.249999873
 20
-19.3229705976
 11
-6.3521042262
 21
-19.1187463379
  0
LINE
  5
2FE
100
AcDbEntity
  8
ASSI
100
AcDbLine
 62
7
  6
CONTINUOUS
 10
-6.249999873
 20
-19.3229705976
 11
-6.3521042262
 21
-19.1187463379
  0
LINE
  5
2FF
100
AcDbEntity
  8
ASSI
100
AcDbLine
 62
7
  6
CONTINUOUS
 10
-11.1329824808
 20
18.1473460386
 11
-11.149999873
 21
18.491183651
  0
LINE
  5
300
100
AcDbEntity
  8
0
100
AcDbLine
 62
7
  6
CONTINUOUS
 10
-11.1329824808
 20
18.1473460386
 11
-11.1504362164
 21
18.5
  0
LINE
  5
301
100
AcDbEntity
  8
ASSI
100
AcDbLine
 62
253
  6
CONTINUOUS
 10
-10.145628039
 20
-23.8443375673
 11
-10.149999873
 21
-23.4104851482
  0
LINE
  5
302
100
AcDbEntity
  8
0
100
AcDbLine
 62
253
  6
CONTINUOUS
 10
-10.145628039
 20
-23.8443375673
 11
-10.149999873
 21
-23.4104851482
  0
LINE
  5
303
100
AcDbEntity
  8
ASSI
100
AcDbLine
 62
253
  6
CONTINUOUS
 10
-9.8956322698
 20
-23.6278312164
 11
-9.9007228709
 21
-23.1226497308
  0
LINE
  5
304
100
AcDbEntity
  8
0
100
AcDbLine
 62
253
  6
CONTINUOUS
 10
-9.8956322698
 20
-23.6278312164
 11
-9.9007228709
 21
-23.1226497308
  0
LINE
  5
305
100
AcDbEntity
  8
ASSI
100
AcDbLine
 62
7
  6
CONTINUOUS
 10
-11.1840372496
 20
18.1473460386
 11
-11.1840372496
 21
-18.1473460386
  0
LINE
  5
306
100
AcDbEntity
  8
0
100
AcDbLine
 62
7
  6
CONTINUOUS
 10
-11.1840372496
 20
18.1473460386
 11
-11.1840372496
 21
-18.1473460386
  0
LINE
  5
307
100
AcDbEntity
  8
ASSI
100
AcDbLine
 62
7
  6
CONTINUOUS
 10
-11.1504362164
 20
21.900016923
 11
-11.1504362164
 21
18.5
  0
LINE
  5
308
100
AcDbEntity
  8
0
100
AcDbLine
 62
7
  6
CONTINUOUS
 10
-11.1504362164
 20
21.900016923
 11
-11.1504362164
 21
18.5
  0
LINE
  5
309
100
AcDbEntity
  8
ASSI
100
AcDbLine
 62
7
  6
CONTINUOUS
 10
-11.1504362164
 20
-21.900016923
 11
-11.1504362164
 21
-18.5
  0
LINE
  5
30A
100
AcDbEntity
  8
0
100
AcDbLine
 62
7
  6
CONTINUOUS
 10
-11.1504362164
 20
-21.900016923
 11
-11.1504362164
 21
-18.5
  0
LINE
  5
30B
100
AcDbEntity
  8
RACCORDO
100
AcDbLine
 62
7
  6
CONTINUOUS
 10
-11.149999873
 20
17.6716990487
 11
-11.149999873
 21
-17.6716990487
  0
LINE
  5
30C
100
AcDbEntity
  8
ASSI
100
AcDbLine
 62
7
  6
CONTINUOUS
 10
-11.149999873
 20
17.6716990487
 11
-11.149999873
 21
-17.6716990487
  0
LINE
  5
30D
100
AcDbEntity
  8
0
100
AcDbLine
 62
7
  6
CONTINUOUS
 10
-11.1417093486
 20
21.8941990932
 11
-11.1417093486
 21
18.5082905244
  0
LINE
  5
30E
100
AcDbEntity
  8
ASSI
100
AcDbLine
 62
7
  6
CONTINUOUS
 10
-11.1417093486
 20
21.8941990932
 11
-11.1417093486
 21
18.5082905244
  0
LINE
  5
30F
100
AcDbEntity
  8
0
100
AcDbLine
 62
7
  6
CONTINUOUS
 10
-11.1417093486
 20
-18.5082905244
 11
-11.1417093486
 21
-21.8941990932
  0
LINE
  5
310
100
AcDbEntity
  8
ASSI
100
AcDbLine
 62
7
  6
CONTINUOUS
 10
-11.1417093486
 20
-18.5082905244
 11
-11.1417093486
 21
-21.8941990932
  0
LINE
  5
311
100
AcDbEntity
  8
ASSI
100
AcDbLine
 62
7
  6
CONTINUOUS
 10
-11.1329824808
 20
18.5170173922
 11
-11.1329824808
 21
18.1473460386
  0
LINE
  5
312
100
AcDbEntity
  8
0
100
AcDbLine
 62
7
  6
CONTINUOUS
 10
-11.1329824808
 20
18.5170173922
 11
-11.1329824808
 21
18.1473460386
  0
LINE
  5
313
100
AcDbEntity
  8
ASSI
100
AcDbLine
 62
7
  6
CONTINUOUS
 10
-11.1329824808
 20
-18.1473460386
 11
-11.1329824808
 21
-18.5170173922
  0
LINE
  5
314
100
AcDbEntity
  8
0
100
AcDbLine
 62
7
  6
CONTINUOUS
 10
-11.1329824808
 20
-18.1473460386
 11
-11.1329824808
 21
-18.5170173922
  0
LINE
  5
315
100
AcDbEntity
  8
RACCORDO
100
AcDbLine
 62
253
  6
CONTINUOUS
 10
-10.4864027728
 20
17.3968249552
 11
-10.4864027728
 21
-17.3968249551
  0
LINE
  5
316
100
AcDbEntity
  8
ASSI
100
AcDbLine
 62
253
  6
CONTINUOUS
 10
-10.4864027728
 20
17.3968249552
 11
-10.4864027728
 21
-17.3968249551
  0
LINE
  5
317
100
AcDbEntity
  8
ASSI
100
AcDbLine
 62
7
  6
CONTINUOUS
 10
-10.149999873
 20
-22.4
 11
-10.149999873
 21
-23.8443375673
  0
LINE
  5
318
100
AcDbEntity
  8
0
100
AcDbLine
 62
7
  6
CONTINUOUS
 10
-10.149999873
 20
-22.4
 11
-10.149999873
 21
-23.8443375673
  0
LINE
  5
319
100
AcDbEntity
  8
ASSI
100
AcDbLine
 62
7
  6
CONTINUOUS
 10
-10.149999873
 20
22.4
 11
-10.149999873
 21
23.8443375673
  0
LINE
  5
31A
100
AcDbEntity
  8
0
100
AcDbLine
 62
7
  6
CONTINUOUS
 10
-10.149999873
 20
22.4
 11
-10.149999873
 21
23.8443375673
  0
LINE
  5
31B
100
AcDbEntity
  8
ASSI
100
AcDbLine
 62
7
  6
CONTINUOUS
 10
-10.145628039
 20
24.2456323968
 11
-10.145628039
 21
23.8443375673
  0
LINE
  5
31C
100
AcDbEntity
  8
0
100
AcDbLine
 62
7
  6
CONTINUOUS
 10
-10.145628039
 20
24.2456323968
 11
-10.145628039
 21
23.8443375673
  0
LINE
  5
31D
100
AcDbEntity
  8
ASSI
100
AcDbLine
 62
7
  6
CONTINUOUS
 10
-10.145628039
 20
-23.8443375673
 11
-10.145628039
 21
-24.2456323968
  0
LINE
  5
31E
100
AcDbEntity
  8
0
100
AcDbLine
 62
7
  6
CONTINUOUS
 10
-10.145628039
 20
-23.8443375673
 11
-10.145628039
 21
-24.2456323968
  0
LINE
  5
31F
100
AcDbEntity
  8
ASSI
100
AcDbLine
 62
253
  6
CONTINUOUS
 10
-9.8956322698
 20
-23.6278312164
 11
-9.8956322698
 21
-24.495628166
  0
LINE
  5
320
100
AcDbEntity
  8
0
100
AcDbLine
 62
253
  6
CONTINUOUS
 10
-9.8956322698
 20
-23.6278312164
 11
-9.8956322698
 21
-24.495628166
  0
LINE
  5
321
100
AcDbEntity
  8
ASSI
100
AcDbLine
 62
253
  6
CONTINUOUS
 10
-9.8956322698
 20
23.6278312164
 11
-9.8956322698
 21
24.495628166
  0
LINE
  5
322
100
AcDbEntity
  8
0
100
AcDbLine
 62
253
  6
CONTINUOUS
 10
-9.8956322698
 20
23.6278312164
 11
-9.8956322698
 21
24.495628166
  0
LINE
  5
323
100
AcDbEntity
  8
ASSI
100
AcDbLine
 62
253
  6
CONTINUOUS
 10
-10.149999873
 20
23.4104851482
 11
-10.145628039
 21
23.8443375673
  0
LINE
  5
324
100
AcDbEntity
  8
0
100
AcDbLine
 62
253
  6
CONTINUOUS
 10
-10.149999873
 20
23.4104851482
 11
-10.145628039
 21
23.8443375673
  0
LINE
  5
325
100
AcDbEntity
  8
ASSI
100
AcDbLine
 62
253
  6
CONTINUOUS
 10
-9.9007228709
 20
23.1226497308
 11
-9.8956322698
 21
23.6278312164
  0
LINE
  5
326
100
AcDbEntity
  8
0
100
AcDbLine
 62
253
  6
CONTINUOUS
 10
-9.9007228709
 20
23.1226497308
 11
-9.8956322698
 21
23.6278312164
  0
LINE
  5
327
100
AcDbEntity
  8
ASSI
100
AcDbLine
 62
7
  6
CONTINUOUS
 10
-11.1329824808
 20
-18.1473460386
 11
-11.149999873
 21
-18.491183651
  0
LINE
  5
328
100
AcDbEntity
  8
0
100
AcDbLine
 62
7
  6
CONTINUOUS
 10
-11.1329824808
 20
-18.1473460386
 11
-11.1504362164
 21
-18.5
  0
LINE
  5
329
100
AcDbEntity
  8
CURVE
100
AcDbLine
 62
253
  6
CONTINUOUS
 10
-7.9952379775
 20
6.26666646
 11
-7.8095236834
 21
6.5142858028
  0
LINE
  5
32A
100
AcDbEntity
  8
DRAFT
100
AcDbLine
 62
7
  6
CONTINUOUS
 10
3.500000127
 20
19.9
 11
3.4109792959
 21
19.8109791689
  0
LINE
  5
32B
100
AcDbEntity
  8
ASSI
100
AcDbLine
 62
7
  6
CONTINUOUS
 10
3.500000127
 20
19.9
 11
3.4109792959
 21
19.8109791689
  0
LINE
  5
32C
100
AcDbEntity
  8
DRAFT
100
AcDbLine
 62
7
  6
CONTINUOUS
 10
3.500000127
 20
19.7
 11
3.4109792959
 21
19.6109791689
  0
LINE
  5
32D
100
AcDbEntity
  8
ASSI
100
AcDbLine
 62
7
  6
CONTINUOUS
 10
3.500000127
 20
19.7
 11
3.4109792959
 21
19.6109791689
  0
LINE
  5
32E
100
AcDbEntity
  8
0
100
AcDbLine
 62
253
  6
CONTINUOUS
 10
11.1504364704
 20
21.900016923
 11
11.1417096026
 21
21.8941990932
  0
LINE
  5
32F
100
AcDbEntity
  8
RACCORDO
100
AcDbLine
 62
253
  6
CONTINUOUS
 10
11.150000127
 20
17.6716990487
 11
10.4864030268
 21
17.3968249551
  0
LINE
  5
330
100
AcDbEntity
  8
ASSI
100
AcDbLine
 62
253
  6
CONTINUOUS
 10
11.150000127
 20
17.6716990487
 11
10.4864030268
 21
17.3968249551
  0
LINE
  5
331
100
AcDbEntity
  8
CURVE
100
AcDbLine
 62
253
  6
CONTINUOUS
 10
11.0136220375
 20
-12.1999991179
 11
11.0278332819
 21
-12.1999991179
  0
LINE
  5
332
100
AcDbEntity
  8
CURVE
100
AcDbLine
 62
253
  6
CONTINUOUS
 10
11.018359119
 20
-11.6571420074
 11
11.0041478736
 21
-11.6571420074
  0
LINE
  5
333
100
AcDbEntity
  8
CURVE
100
AcDbLine
 62
253
  6
CONTINUOUS
 10
10.8270814782
 20
-11.61489
 11
10.8401870377
 21
-11.61489
  0
LINE
  5
334
100
AcDbEntity
  8
CURVE
100
AcDbLine
 62
253
  6
CONTINUOUS
 10
10.9029282213
 20
-11.61489
 11
10.9160337807
 21
-11.61489
  0
LINE
  5
335
100
AcDbEntity
  8
CURVE
100
AcDbLine
 62
253
  6
CONTINUOUS
 10
10.7974078155
 20
-11.6047620773
 11
10.774716231
 21
-11.6047620773
  0
LINE
  5
336
100
AcDbEntity
  8
CURVE
100
AcDbLine
 62
253
  6
CONTINUOUS
 10
11.0041478736
 20
-10.7071420074
 11
11.018359119
 21
-10.7071420074
  0
LINE
  5
337
100
AcDbEntity
  8
CURVE
100
AcDbLine
 62
253
  6
CONTINUOUS
 10
11.018359119
 20
-10.1642848969
 11
11.0230962005
 21
-10.1642848969
  0
LINE
  5
338
100
AcDbEntity
  8
CURVE
100
AcDbLine
 62
253
  6
CONTINUOUS
 10
10.7974078155
 20
-9.9642859459
 11
10.774716231
 21
-9.9642859459
  0
LINE
  5
339
100
AcDbEntity
  8
CURVE
100
AcDbLine
 62
7
  6
CONTINUOUS
 10
11.0893774328
 20
-14.165656
 11
11.0540377487
 21
-14.158632
  0
LINE
  5
33A
100
AcDbEntity
  8
RACCORDO
100
AcDbLine
 62
253
  6
CONTINUOUS
 10
10.6874409064
 20
-17.4801007461
 11
11.150000127
 21
-17.6716990487
  0
LINE
  5
33B
100
AcDbEntity
  8
ASSI
100
AcDbLine
 62
253
  6
CONTINUOUS
 10
10.6874409064
 20
-17.4801007461
 11
11.150000127
 21
-17.6716990487
  0
LINE
  5
33C
100
AcDbEntity
  8
0
100
AcDbLine
 62
253
  6
CONTINUOUS
 10
10.6856953999
 20
-17.4793777337
 11
10.4864030268
 21
-17.3968249552
  0
LINE
  5
33D
100
AcDbEntity
  8
DRAFT
100
AcDbLine
 62
7
  6
CONTINUOUS
 10
3.4109792959
 20
-19.8109791689
 11
3.500000127
 21
-19.9
  0
LINE
  5
33E
100
AcDbEntity
  8
ASSI
100
AcDbLine
 62
7
  6
CONTINUOUS
 10
3.4109792959
 20
-19.8109791689
 11
3.500000127
 21
-19.9
  0
LINE
  5
33F
100
AcDbEntity
  8
DRAFT
100
AcDbLine
 62
7
  6
CONTINUOUS
 10
3.500000127
 20
-19.7
 11
3.4109792959
 21
-19.6109791689
  0
LINE
  5
340
100
AcDbEntity
  8
ASSI
100
AcDbLine
 62
7
  6
CONTINUOUS
 10
3.500000127
 20
-19.7
 11
3.4109792959
 21
-19.6109791689
  0
LINE
  5
341
100
AcDbEntity
  8
ASSI
100
AcDbLine
 62
253
  6
CONTINUOUS
 10
-7.5043674762
 20
23.6278312164
 11
-7.4992768751
 21
23.1226497308
  0
LINE
  5
342
100
AcDbEntity
  8
0
100
AcDbLine
 62
253
  6
CONTINUOUS
 10
-7.5043674762
 20
23.6278312164
 11
-7.4992768751
 21
23.1226497308
  0
LINE
  5
343
100
AcDbEntity
  8
ASSI
100
AcDbLine
 62
7
  6
CONTINUOUS
 10
-9.649999873
 20
20.1990396502
 11
-9.649999873
 21
20.0
  0
LINE
  5
344
100
AcDbEntity
  8
0
100
AcDbLine
 62
7
  6
CONTINUOUS
 10
-9.649999873
 20
20.1990396502
 11
-9.649999873
 21
20.0
  0
LINE
  5
345
100
AcDbEntity
  8
ASSI
100
AcDbLine
 62
7
  6
CONTINUOUS
 10
-9.649999873
 20
-20.0
 11
-9.649999873
 21
-20.1990396502
  0
LINE
  5
346
100
AcDbEntity
  8
0
100
AcDbLine
 62
7
  6
CONTINUOUS
 10
-9.649999873
 20
-20.0
 11
-9.649999873
 21
-20.1990396502
  0
LINE
  5
347
100
AcDbEntity
  8
RACCORDO
100
AcDbLine
 62
253
  6
CONTINUOUS
 10
-9.4865550777
 20
17.3968281299
 11
-9.4865550777
 21
-17.3968281299
  0
LINE
  5
348
100
AcDbEntity
  8
ASSI
100
AcDbLine
 62
253
  6
CONTINUOUS
 10
-9.4865550777
 20
17.3968281299
 11
-9.4865550777
 21
-17.3968281299
  0
LINE
  5
349
100
AcDbEntity
  8
RACCORDO
100
AcDbLine
 62
253
  6
CONTINUOUS
 10
-9.1754486604
 20
-18.1220850228
 11
-9.1754486604
 21
-19.121932718
  0
LINE
  5
34A
100
AcDbEntity
  8
ASSI
100
AcDbLine
 62
253
  6
CONTINUOUS
 10
-9.1754486604
 20
-18.1220850228
 11
-9.1754486604
 21
-19.121932718
  0
LINE
  5
34B
100
AcDbEntity
  8
RACCORDO
100
AcDbLine
 62
253
  6
CONTINUOUS
 10
-9.1754486604
 20
18.1220850228
 11
-9.1754486604
 21
19.121932718
  0
LINE
  5
34C
100
AcDbEntity
  8
ASSI
100
AcDbLine
 62
253
  6
CONTINUOUS
 10
-9.1754486604
 20
18.1220850228
 11
-9.1754486604
 21
19.121932718
  0
LINE
  5
34D
100
AcDbEntity
  8
CURVE
100
AcDbLine
 62
253
  6
CONTINUOUS
 10
-8.799999873
 20
3.3571429014
 11
-8.799999873
 21
2.9857141972
  0
LINE
  5
34E
100
AcDbEntity
  8
CURVE
100
AcDbLine
 62
253
  6
CONTINUOUS
 10
-8.799999873
 20
2.4285712957
 11
-8.799999873
 21
2.15
  0
LINE
  5
34F
100
AcDbEntity
  8
CURVE
100
AcDbLine
 62
253
  6
CONTINUOUS
 10
-8.799999873
 20
-0.5428571761
 11
-8.799999873
 21
-0.8214285493
  0
LINE
  5
350
100
AcDbEntity
  8
CURVE
100
AcDbLine
 62
253
  6
CONTINUOUS
 10
-8.799999873
 20
0.2928570986
 11
-8.799999873
 21
0.3857143521
  0
LINE
  5
351
100
AcDbEntity
  8
CURVE
100
AcDbLine
 62
253
  6
CONTINUOUS
 10
-8.799999873
 20
4.1928574085
 11
-8.799999873
 21
4.2857141972
  0
LINE
  5
352
100
AcDbEntity
  8
CURVE
100
AcDbLine
 62
253
  6
CONTINUOUS
 10
-8.799999873
 20
9.0833329201
 11
-8.799999873
 21
9.6404761314
  0
LINE
  5
353
100
AcDbEntity
  8
CURVE
100
AcDbLine
 62
253
  6
CONTINUOUS
 10
-8.799999873
 20
10.2904761314
 11
-8.799999873
 21
10.3833329201
  0
LINE
  5
354
100
AcDbEntity
  8
CURVE
100
AcDbLine
 62
253
  6
CONTINUOUS
 10
-8.799999873
 20
13.3238090515
 11
-8.799999873
 21
13.4166670799
  0
LINE
  5
355
100
AcDbEntity
  8
CURVE
100
AcDbLine
 62
253
  6
CONTINUOUS
 10
-8.4285713237
 20
15.0880954742
 11
-8.4285713237
 21
15.6452386856
  0
LINE
  5
356
100
AcDbEntity
  8
ASSI
100
AcDbLine
 62
7
  6
CONTINUOUS
 10
-8.249999873
 20
-21.4
 11
-8.249999873
 21
-20.9
  0
LINE
  5
357
100
AcDbEntity
  8
0
100
AcDbLine
 62
7
  6
CONTINUOUS
 10
-8.249999873
 20
-21.4
 11
-8.249999873
 21
-20.9
  0
LINE
  5
358
100
AcDbEntity
  8
ASSI
100
AcDbLine
 62
7
  6
CONTINUOUS
 10
-8.249999873
 20
20.9
 11
-8.249999873
 21
21.4
  0
LINE
  5
359
100
AcDbEntity
  8
0
100
AcDbLine
 62
7
  6
CONTINUOUS
 10
-8.249999873
 20
20.9
 11
-8.249999873
 21
21.4
  0
LINE
  5
35A
100
AcDbEntity
  8
CURVE
100
AcDbLine
 62
253
  6
CONTINUOUS
 10
-8.2428570491
 20
12.4880954742
 11
-8.2428570491
 21
12.085714817
  0
LINE
  5
35B
100
AcDbEntity
  8
CURVE
100
AcDbLine
 62
253
  6
CONTINUOUS
 10
-8.2428570491
 20
9.4547613144
 11
-8.2428570491
 21
9.0833329201
  0
LINE
  5
35C
100
AcDbEntity
  8
CURVE
100
AcDbLine
 62
253
  6
CONTINUOUS
 10
-8.2428570491
 20
3.3571429014
 11
-8.2428570491
 21
3.1714287043
  0
LINE
  5
35D
100
AcDbEntity
  8
CURVE
100
AcDbLine
 62
253
  6
CONTINUOUS
 10
-8.2428570491
 20
14.0666670799
 11
-8.2428570491
 21
14.7166670799
  0
LINE
  5
35E
100
AcDbEntity
  8
ASSI
100
AcDbLine
 62
253
  6
CONTINUOUS
 10
-8.0665693748
 20
21.5834304982
 11
-8.0665693748
 21
20.9
  0
LINE
  5
35F
100
AcDbEntity
  8
0
100
AcDbLine
 62
253
  6
CONTINUOUS
 10
-8.0665693748
 20
21.5834304982
 11
-8.0665693748
 21
20.9
  0
LINE
  5
360
100
AcDbEntity
  8
ASSI
100
AcDbLine
 62
253
  6
CONTINUOUS
 10
-8.0665693748
 20
-20.9
 11
-8.0665693748
 21
-21.5834304982
  0
LINE
  5
361
100
AcDbEntity
  8
0
100
AcDbLine
 62
253
  6
CONTINUOUS
 10
-8.0665693748
 20
-20.9
 11
-8.0665693748
 21
-21.5834304982
  0
LINE
  5
362
100
AcDbEntity
  8
CURVE
100
AcDbLine
 62
253
  6
CONTINUOUS
 10
-7.9642855984
 20
1.0357141972
 11
-7.9642855984
 21
1.5928570986
  0
LINE
  5
363
100
AcDbEntity
  8
ASSI
100
AcDbLine
 62
253
  6
CONTINUOUS
 10
-7.5666455272
 20
21.3359869487
 11
-7.5666455272
 21
20.9
  0
LINE
  5
364
100
AcDbEntity
  8
0
100
AcDbLine
 62
253
  6
CONTINUOUS
 10
-7.5666455272
 20
21.3359869487
 11
-7.5666455272
 21
20.9
  0
LINE
  5
365
100
AcDbEntity
  8
ASSI
100
AcDbLine
 62
253
  6
CONTINUOUS
 10
-7.5666455272
 20
-20.9
 11
-7.5666455272
 21
-21.3359869487
  0
LINE
  5
366
100
AcDbEntity
  8
0
100
AcDbLine
 62
253
  6
CONTINUOUS
 10
-7.5666455272
 20
-20.9
 11
-7.5666455272
 21
-21.3359869487
  0
LINE
  5
367
100
AcDbEntity
  8
ASSI
100
AcDbLine
 62
253
  6
CONTINUOUS
 10
-7.5043674762
 20
-23.6278312164
 11
-7.5043674762
 21
-24.495628166
  0
LINE
  5
368
100
AcDbEntity
  8
0
100
AcDbLine
 62
253
  6
CONTINUOUS
 10
-7.5043674762
 20
-23.6278312164
 11
-7.5043674762
 21
-24.495628166
  0
LINE
  5
369
100
AcDbEntity
  8
ASSI
100
AcDbLine
 62
253
  6
CONTINUOUS
 10
-7.5043674762
 20
23.6278312164
 11
-7.5043674762
 21
24.495628166
  0
LINE
  5
36A
100
AcDbEntity
  8
0
100
AcDbLine
 62
253
  6
CONTINUOUS
 10
-7.5043674762
 20
23.6278312164
 11
-7.5043674762
 21
24.495628166
  0
LINE
  5
36B
100
AcDbEntity
  8
CURVE
100
AcDbLine
 62
253
  6
CONTINUOUS
 10
-7.499999873
 20
13.4166670799
 11
-7.499999873
 21
13.3238090515
  0
LINE
  5
36C
100
AcDbEntity
  8
CURVE
100
AcDbLine
 62
253
  6
CONTINUOUS
 10
-7.499999873
 20
10.3833329201
 11
-7.499999873
 21
10.2904761314
  0
LINE
  5
36D
100
AcDbEntity
  8
CURVE
100
AcDbLine
 62
253
  6
CONTINUOUS
 10
-7.499999873
 20
4.2857141972
 11
-7.499999873
 21
4.1928574085
  0
LINE
  5
36E
100
AcDbEntity
  8
CURVE
100
AcDbLine
 62
253
  6
CONTINUOUS
 10
-7.499999873
 20
2.6142858028
 11
-7.499999873
 21
1.9642858028
  0
LINE
  5
36F
100
AcDbEntity
  8
CURVE
100
AcDbLine
 62
253
  6
CONTINUOUS
 10
-7.499999873
 20
0.3857143521
 11
-7.499999873
 21
0.2928570986
  0
LINE
  5
370
100
AcDbEntity
  8
CURVE
100
AcDbLine
 62
253
  6
CONTINUOUS
 10
-7.499999873
 20
-0.3571429014
 11
-7.499999873
 21
-1.0071428239
  0
LINE
  5
371
100
AcDbEntity
  8
CURVE
100
AcDbLine
 62
253
  6
CONTINUOUS
 10
-7.499999873
 20
2.9857141972
 11
-7.499999873
 21
3.45
  0
LINE
  5
372
100
AcDbEntity
  8
CURVE
100
AcDbLine
 62
253
  6
CONTINUOUS
 10
-7.499999873
 20
9.0833329201
 11
-7.499999873
 21
9.4547613144
  0
LINE
  5
373
100
AcDbEntity
  8
CURVE
100
AcDbLine
 62
253
  6
CONTINUOUS
 10
-7.499999873
 20
12.2095238686
 11
-7.499999873
 21
12.4880954742
  0
LINE
  5
374
100
AcDbEntity
  8
CURVE
100
AcDbLine
 62
253
  6
CONTINUOUS
 10
-7.499999873
 20
15.0880954742
 11
-7.499999873
 21
15.6452386856
  0
LINE
  5
375
100
AcDbEntity
  8
DRAFT
100
AcDbLine
 62
7
  6
CONTINUOUS
 10
-7.4890207041
 20
-20.85
 11
-7.4890207041
 21
-19.6109791689
  0
LINE
  5
376
100
AcDbEntity
  8
ASSI
100
AcDbLine
 62
7
  6
CONTINUOUS
 10
-7.4890207041
 20
-20.85
 11
-7.4890207041
 21
-19.6109791689
  0
LINE
  5
377
100
AcDbEntity
  8
DRAFT
100
AcDbLine
 62
7
  6
CONTINUOUS
 10
-7.4890207041
 20
19.6109791689
 11
-7.4890207041
 21
20.85
  0
LINE
  5
378
100
AcDbEntity
  8
ASSI
100
AcDbLine
 62
7
  6
CONTINUOUS
 10
-7.4890207041
 20
19.6109791689
 11
-7.4890207041
 21
20.85
  0
LINE
  5
379
100
AcDbEntity
  8
DRAFT
100
AcDbLine
 62
7
  6
CONTINUOUS
 10
-7.399999873
 20
-20.85
 11
-7.399999873
 21
-19.7
  0
LINE
  5
37A
100
AcDbEntity
  8
ASSI
100
AcDbLine
 62
7
  6
CONTINUOUS
 10
-7.399999873
 20
-20.85
 11
-7.399999873
 21
-19.7
  0
LINE
  5
37B
100
AcDbEntity
  8
DRAFT
100
AcDbLine
 62
7
  6
CONTINUOUS
 10
-7.399999873
 20
19.7
 11
-7.399999873
 21
20.85
  0
LINE
  5
37C
100
AcDbEntity
  8
ASSI
100
AcDbLine
 62
7
  6
CONTINUOUS
 10
-7.399999873
 20
19.7
 11
-7.399999873
 21
20.85
  0
LINE
  5
37D
100
AcDbEntity
  8
ASSI
100
AcDbLine
 62
7
  6
CONTINUOUS
 10
-7.299999873
 20
-20.9
 11
-7.299999873
 21
-19.7
  0
LINE
  5
37E
100
AcDbEntity
  8
0
100
AcDbLine
 62
7
  6
CONTINUOUS
 10
-7.299999873
 20
-20.9
 11
-7.299999873
 21
-19.7
  0
LINE
  5
37F
100
AcDbEntity
  8
ASSI
100
AcDbLine
 62
7
  6
CONTINUOUS
 10
-7.299999873
 20
19.7
 11
-7.299999873
 21
20.9
  0
LINE
  5
380
100
AcDbEntity
  8
0
100
AcDbLine
 62
7
  6
CONTINUOUS
 10
-7.299999873
 20
19.7
 11
-7.299999873
 21
20.9
  0
LINE
  5
381
100
AcDbEntity
  8
ASSI
100
AcDbLine
 62
7
  6
CONTINUOUS
 10
-7.254371707
 20
-24.2456323968
 11
-7.254371707
 21
-23.8443375673
  0
LINE
  5
382
100
AcDbEntity
  8
0
100
AcDbLine
 62
7
  6
CONTINUOUS
 10
-7.254371707
 20
-24.2456323968
 11
-7.254371707
 21
-23.8443375673
  0
LINE
  5
383
100
AcDbEntity
  8
ASSI
100
AcDbLine
 62
7
  6
CONTINUOUS
 10
-7.254371707
 20
23.8443375673
 11
-7.254371707
 21
24.2456323968
  0
LINE
  5
384
100
AcDbEntity
  8
0
100
AcDbLine
 62
7
  6
CONTINUOUS
 10
-7.254371707
 20
23.8443375673
 11
-7.254371707
 21
24.2456323968
  0
LINE
  5
385
100
AcDbEntity
  8
ASSI
100
AcDbLine
 62
7
  6
CONTINUOUS
 10
-7.249999873
 20
-22.4
 11
-7.249999873
 21
-23.8443375673
  0
LINE
  5
386
100
AcDbEntity
  8
0
100
AcDbLine
 62
7
  6
CONTINUOUS
 10
-7.249999873
 20
-22.4
 11
-7.249999873
 21
-23.8443375673
  0
LINE
  5
387
100
AcDbEntity
  8
ASSI
100
AcDbLine
 62
7
  6
CONTINUOUS
 10
-7.249999873
 20
22.4
 11
-7.249999873
 21
23.8443375673
  0
LINE
  5
388
100
AcDbEntity
  8
0
100
AcDbLine
 62
7
  6
CONTINUOUS
 10
-7.249999873
 20
22.4
 11
-7.249999873
 21
23.8443375673
  0
LINE
  5
389
100
AcDbEntity
  8
ASSI
100
AcDbLine
 62
253
  6
CONTINUOUS
 10
-7.4992768751
 20
-23.1226497308
 11
-7.5043674762
 21
-23.6278312164
  0
LINE
  5
38A
100
AcDbEntity
  8
0
100
AcDbLine
 62
253
  6
CONTINUOUS
 10
-7.4992768751
 20
-23.1226497308
 11
-7.5043674762
 21
-23.6278312164
  0
LINE
  5
38B
100
AcDbEntity
  8
SMUSSO
100
AcDbLine
 62
7
  6
CONTINUOUS
 10
1.750000127
 20
15.45
 11
2.3273503962
 21
16.0273502692
  0
LINE
  5
38C
100
AcDbEntity
  8
ASSI
100
AcDbLine
 62
7
  6
CONTINUOUS
 10
1.750000127
 20
15.45
 11
2.3273503962
 21
16.0273502692
  0
LINE
  5
38D
100
AcDbEntity
  8
CURVE
100
AcDbLine
 62
253
  6
CONTINUOUS
 10
-8.799999873
 20
4.2857141972
 11
-8.6142855984
 21
4.4714283943
  0
LINE
  5
38E
100
AcDbEntity
  8
SMUSSO
100
AcDbLine
 62
7
  6
CONTINUOUS
 10
-5.249999873
 20
7.15
 11
-5.8273501422
 21
6.5726497308
  0
LINE
  5
38F
100
AcDbEntity
  8
ASSI
100
AcDbLine
 62
7
  6
CONTINUOUS
 10
-5.249999873
 20
7.15
 11
-5.8273501422
 21
6.5726497308
  0
LINE
  5
390
100
AcDbEntity
  8
CURVE
100
AcDbLine
 62
253
  6
CONTINUOUS
 10
-7.499999873
 20
4.1928574085
 11
-7.685714167
 21
4.0071425915
  0
LINE
  5
391
100
AcDbEntity
  8
CURVE
100
AcDbLine
 62
253
  6
CONTINUOUS
 10
-8.0571427357
 20
3.5428574085
 11
-8.2428570491
 21
3.3571429014
  0
LINE
  5
392
100
AcDbEntity
  8
CURVE
100
AcDbLine
 62
253
  6
CONTINUOUS
 10
-8.6142855984
 20
2.6142858028
 11
-8.799999873
 21
2.4285712957
  0
LINE
  5
393
100
AcDbEntity
  8
CURVE
100
AcDbLine
 62
253
  6
CONTINUOUS
 10
-6.4285713237
 20
4.6642858028
 11
-6.3357141476
 21
4.7571425915
  0
LINE
  5
394
100
AcDbEntity
  8
CURVE
100
AcDbLine
 62
253
  6
CONTINUOUS
 10
-8.6142855984
 20
3.5119045258
 11
-8.799999873
 21
3.3571429014
  0
LINE
  5
395
100
AcDbEntity
  8
CURVE
100
AcDbLine
 62
253
  6
CONTINUOUS
 10
-8.6142855984
 20
4.4714283943
 11
-8.4285713237
 21
4.5642858028
  0
LINE
  5
396
100
AcDbEntity
  8
CURVE
100
AcDbLine
 62
7
  6
CONTINUOUS
 10
11.0715700867
 20
-8.371575
 11
11.0540377487
 21
-8.371585
  0
LINE
  5
397
100
AcDbEntity
  8
CURVE
100
AcDbLine
 62
253
  6
CONTINUOUS
 10
10.7974078155
 20
-9.3142859459
 11
10.774716231
 21
-9.3142859459
  0
LINE
  5
398
100
AcDbEntity
  8
CURVE
100
AcDbLine
 62
253
  6
CONTINUOUS
 10
10.7974078155
 20
-8.7261904716
 11
10.774716231
 21
-8.7261904716
  0
LINE
  5
399
100
AcDbEntity
  8
CURVE
100
AcDbLine
 62
7
  6
CONTINUOUS
 10
11.0540377487
 20
-7.853838
 11
11.1046262095
 21
-7.853838
  0
LINE
  5
39A
100
AcDbEntity
  8
CURVE
100
AcDbLine
 62
7
  6
CONTINUOUS
 10
11.1046262095
 20
-7.238107
 11
11.0540377487
 21
-7.238107
  0
LINE
  5
39B
100
AcDbEntity
  8
CURVE
100
AcDbLine
 62
7
  6
CONTINUOUS
 10
11.1046262095
 20
-8.371585
 11
11.082569553
 21
-8.371575
  0
LINE
  5
39C
100
AcDbEntity
  8
ASSI
100
AcDbLine
 62
253
  6
CONTINUOUS
 10
-7.254371707
 20
23.8443375673
 11
-7.249999873
 21
23.4104851482
  0
LINE
  5
39D
100
AcDbEntity
  8
0
100
AcDbLine
 62
253
  6
CONTINUOUS
 10
-7.254371707
 20
23.8443375673
 11
-7.249999873
 21
23.4104851482
  0
LINE
  5
39E
100
AcDbEntity
  8
SMUSSO
100
AcDbLine
 62
7
  6
CONTINUOUS
 10
-6.3503591849
 20
-2.8996406881
 11
-6.3521042262
 21
-2.6979261096
  0
LINE
  5
39F
100
AcDbEntity
  8
ASSI
100
AcDbLine
 62
7
  6
CONTINUOUS
 10
-6.3503591849
 20
-2.8996406881
 11
-6.3521042262
 21
-2.6979261096
  0
LINE
  5
3A0
100
AcDbEntity
  8
CURVE
100
AcDbLine
 62
253
  6
CONTINUOUS
 10
-6.799999873
 20
-1.0
 11
-6.799999873
 21
-0.35
  0
LINE
  5
3A1
100
AcDbEntity
  8
CURVE
100
AcDbLine
 62
253
  6
CONTINUOUS
 10
-6.799999873
 20
0.3
 11
-6.799999873
 21
0.3928570986
  0
LINE
  5
3A2
100
AcDbEntity
  8
CURVE
100
AcDbLine
 62
253
  6
CONTINUOUS
 10
-6.799999873
 20
1.9714287043
 11
-6.799999873
 21
2.5285712957
  0
LINE
  5
3A3
100
AcDbEntity
  8
CURVE
100
AcDbLine
 62
253
  6
CONTINUOUS
 10
-6.799999873
 20
3.1785712957
 11
-6.799999873
 21
3.2714287043
  0
LINE
  5
3A4
100
AcDbEntity
  8
RACCORDO
100
AcDbLine
 62
7
  6
CONTINUOUS
 10
-6.749999873
 20
-19.1187463379
 11
-6.749999873
 21
-1.8909141526
  0
LINE
  5
3A5
100
AcDbEntity
  8
ASSI
100
AcDbLine
 62
7
  6
CONTINUOUS
 10
-6.749999873
 20
-19.1187463379
 11
-6.749999873
 21
-1.8909141526
  0
LINE
  5
3A6
100
AcDbEntity
  8
0
100
AcDbLine
 62
7
  6
CONTINUOUS
 10
-6.649999873
 20
-19.0760242242
 11
-6.649999873
 21
-3.1
  0
LINE
  5
3A7
100
AcDbEntity
  8
ASSI
100
AcDbLine
 62
7
  6
CONTINUOUS
 10
-6.499999873
 20
20.0
 11
-6.499999873
 21
19.7
  0
LINE
  5
3A8
100
AcDbEntity
  8
0
100
AcDbLine
 62
7
  6
CONTINUOUS
 10
-6.499999873
 20
20.0
 11
-6.499999873
 21
19.7
  0
LINE
  5
3A9
100
AcDbEntity
  8
ASSI
100
AcDbLine
 62
7
  6
CONTINUOUS
 10
-6.499999873
 20
-19.7
 11
-6.499999873
 21
-20.0
  0
LINE
  5
3AA
100
AcDbEntity
  8
0
100
AcDbLine
 62
7
  6
CONTINUOUS
 10
-6.499999873
 20
-19.7
 11
-6.499999873
 21
-20.0
  0
LINE
  5
3AB
100
AcDbEntity
  8
CURVE
100
AcDbLine
 62
253
  6
CONTINUOUS
 10
-6.4285713237
 20
3.9214287043
 11
-6.4285713237
 21
4.6642858028
  0
LINE
  5
3AC
100
AcDbEntity
  8
SMUSSO
100
AcDbLine
 62
7
  6
CONTINUOUS
 10
-6.3521042262
 20
-19.1187463379
 11
-6.3521042262
 21
-19.0760242242
  0
LINE
  5
3AD
100
AcDbEntity
  8
ASSI
100
AcDbLine
 62
7
  6
CONTINUOUS
 10
-6.3521042262
 20
-19.1187463379
 11
-6.3521042262
 21
-19.0760242242
  0
LINE
  5
3AE
100
AcDbEntity
  8
SMUSSO
100
AcDbLine
 62
7
  6
CONTINUOUS
 10
-6.3521042262
 20
-3.1
 11
-6.3521042262
 21
-2.6979261096
  0
LINE
  5
3AF
100
AcDbEntity
  8
ASSI
100
AcDbLine
 62
7
  6
CONTINUOUS
 10
-6.3521042262
 20
-3.1
 11
-6.3521042262
 21
-2.6979261096
  0
LINE
  5
3B0
100
AcDbEntity
  8
DRAFT
100
AcDbLine
 62
7
  6
CONTINUOUS
 10
-6.3459954187
 20
-3.1
 11
-6.3459954187
 21
-2.9040044543
  0
LINE
  5
3B1
100
AcDbEntity
  8
ASSI
100
AcDbLine
 62
7
  6
CONTINUOUS
 10
-6.3459954187
 20
-3.1
 11
-6.3459954187
 21
-2.9040044543
  0
LINE
  5
3B2
100
AcDbEntity
  8
RACCORDO
100
AcDbLine
 62
7
  6
CONTINUOUS
 10
-6.299999873
 20
-3.1
 11
-6.299999873
 21
-2.9040044543
  0
LINE
  5
3B3
100
AcDbEntity
  8
DRAFT
100
AcDbLine
 62
7
  6
CONTINUOUS
 10
-6.249999873
 20
-19.3229705976
 11
-6.249999873
 21
-19.0760242242
  0
LINE
  5
3B4
100
AcDbEntity
  8
ASSI
100
AcDbLine
 62
7
  6
CONTINUOUS
 10
-6.249999873
 20
-19.3229705976
 11
-6.249999873
 21
-19.0760242242
  0
LINE
  5
3B5
100
AcDbEntity
  8
CURVE
100
AcDbLine
 62
253
  6
CONTINUOUS
 10
-6.2428570491
 20
2.3428570986
 11
-6.2428570491
 21
1.9714287043
  0
LINE
  5
3B6
100
AcDbEntity
  8
DRAFT
100
AcDbLine
 62
7
  6
CONTINUOUS
 10
-6.202003014
 20
-3.1
 11
-6.202003014
 21
-3.0
  0
LINE
  5
3B7
100
AcDbEntity
  8
ASSI
100
AcDbLine
 62
7
  6
CONTINUOUS
 10
-6.202003014
 20
-3.1
 11
-6.202003014
 21
-3.0
  0
LINE
  5
3B8
100
AcDbEntity
  8
0
100
AcDbLine
 62
7
  6
CONTINUOUS
 10
-6.149999873
 20
-19.0760242242
 11
-6.149999873
 21
-19.121932718
  0
LINE
  5
3B9
100
AcDbEntity
  8
CURVE
100
AcDbLine
 62
253
  6
CONTINUOUS
 10
-5.9642855984
 20
1.0428570986
 11
-5.9642855984
 21
1.6
  0
LINE
  5
3BA
100
AcDbEntity
  8
CURVE
100
AcDbLine
 62
253
  6
CONTINUOUS
 10
-5.871428461
 20
5.2523806572
 11
-5.871428461
 21
5.7476193428
  0
LINE
  5
3BB
100
AcDbEntity
  8
SMUSSO
100
AcDbLine
 62
7
  6
CONTINUOUS
 10
-5.8273501422
 20
6.5726497308
 11
-5.8273501422
 21
11.0273502692
  0
LINE
  5
3BC
100
AcDbEntity
  8
ASSI
100
AcDbLine
 62
7
  6
CONTINUOUS
 10
-5.8273501422
 20
6.5726497308
 11
-5.8273501422
 21
11.0273502692
  0
LINE
  5
3BD
100
AcDbEntity
  8
SMUSSO
100
AcDbLine
 62
7
  6
CONTINUOUS
 10
-5.8273501422
 20
11.5726497308
 11
-5.8273501422
 21
16.0273502692
  0
LINE
  5
3BE
100
AcDbEntity
  8
ASSI
100
AcDbLine
 62
7
  6
CONTINUOUS
 10
-5.8273501422
 20
11.5726497308
 11
-5.8273501422
 21
16.0273502692
  0
LINE
  5
3BF
100
AcDbEntity
  8
CURVE
100
AcDbLine
 62
253
  6
CONTINUOUS
 10
-5.499999873
 20
3.2714287043
 11
-5.499999873
 21
3.1785712957
  0
LINE
  5
3C0
100
AcDbEntity
  8
CURVE
100
AcDbLine
 62
253
  6
CONTINUOUS
 10
-5.499999873
 20
0.3928570986
 11
-5.499999873
 21
0.3
  0
LINE
  5
3C1
100
AcDbEntity
  8
CURVE
100
AcDbLine
 62
253
  6
CONTINUOUS
 10
-5.499999873
 20
1.9714287043
 11
-5.499999873
 21
2.3428570986
  0
LINE
  5
3C2
100
AcDbEntity
  8
SMUSSO
100
AcDbLine
 62
7
  6
CONTINUOUS
 10
-5.249999873
 20
7.15
 11
-5.249999873
 21
10.45
  0
LINE
  5
3C3
100
AcDbEntity
  8
ASSI
100
AcDbLine
 62
7
  6
CONTINUOUS
 10
-5.249999873
 20
7.15
 11
-5.249999873
 21
10.45
  0
LINE
  5
3C4
100
AcDbEntity
  8
SMUSSO
100
AcDbLine
 62
7
  6
CONTINUOUS
 10
-5.249999873
 20
12.15
 11
-5.249999873
 21
15.45
  0
LINE
  5
3C5
100
AcDbEntity
  8
ASSI
100
AcDbLine
 62
7
  6
CONTINUOUS
 10
-5.249999873
 20
12.15
 11
-5.249999873
 21
15.45
  0
LINE
  5
3C6
100
AcDbEntity
  8
ASSI
100
AcDbLine
 62
253
  6
CONTINUOUS
 10
-7.249999873
 20
-23.4104851482
 11
-7.254371707
 21
-23.8443375673
  0
LINE
  5
3C7
100
AcDbEntity
  8
0
100
AcDbLine
 62
253
  6
CONTINUOUS
 10
-7.249999873
 20
-23.4104851482
 11
-7.254371707
 21
-23.8443375673
  0
LINE
  5
3C8
100
AcDbEntity
  8
CURVE
100
AcDbLine
 62
253
  6
CONTINUOUS
 10
-6.799999873
 20
3.2714287043
 11
-6.6142855984
 21
3.4571429014
  0
LINE
  5
3C9
100
AcDbEntity
  8
CURVE
100
AcDbLine
 62
253
  6
CONTINUOUS
 10
-8.799999873
 20
0.3857143521
 11
-8.6142855984
 21
0.5714285493
  0
LINE
  5
3CA
100
AcDbEntity
  8
RACCORDO
100
AcDbLine
 62
253
  6
CONTINUOUS
 10
9.1754489144
 20
18.1220850228
 11
9.8824479998
 21
18.8290841082
  0
LINE
  5
3CB
100
AcDbEntity
  8
ASSI
100
AcDbLine
 62
253
  6
CONTINUOUS
 10
9.1754489144
 20
18.1220850228
 11
9.8824479998
 21
18.8290841082
  0
LINE
  5
3CC
100
AcDbEntity
  8
RACCORDO
100
AcDbLine
 62
253
  6
CONTINUOUS
 10
9.1937067219
 20
18.1038272153
 11
9.9007058073
 21
18.8108263007
  0
LINE
  5
3CD
100
AcDbEntity
  8
ASSI
100
AcDbLine
 62
253
  6
CONTINUOUS
 10
9.1937067219
 20
18.1038272153
 11
9.9007058073
 21
18.8108263007
  0
LINE
  5
3CE
100
AcDbEntity
  8
SMUSSO
100
AcDbLine
 62
7
  6
CONTINUOUS
 10
1.750000127
 20
10.45
 11
2.3273503962
 21
11.0273502692
  0
LINE
  5
3CF
100
AcDbEntity
  8
ASSI
100
AcDbLine
 62
7
  6
CONTINUOUS
 10
1.750000127
 20
10.45
 11
2.3273503962
 21
11.0273502692
  0
LINE
  5
3D0
100
AcDbEntity
  8
CURVE
100
AcDbLine
 62
253
  6
CONTINUOUS
 10
-5.499999873
 20
3.1785712957
 11
-5.685714167
 21
2.9928570986
  0
LINE
  5
3D1
100
AcDbEntity
  8
CURVE
100
AcDbLine
 62
253
  6
CONTINUOUS
 10
-6.0571427357
 20
2.5285712957
 11
-6.2428570491
 21
2.3428570986
  0
LINE
  5
3D2
100
AcDbEntity
  8
CURVE
100
AcDbLine
 62
253
  6
CONTINUOUS
 10
-8.6142855984
 20
-0.3571429014
 11
-8.799999873
 21
-0.5428571761
  0
LINE
  5
3D3
100
AcDbEntity
  8
CURVE
100
AcDbLine
 62
253
  6
CONTINUOUS
 10
-7.499999873
 20
0.2928570986
 11
-7.685714167
 21
0.1071429014
  0
LINE
  5
3D4
100
AcDbEntity
  8
CURVE
100
AcDbLine
 62
253
  6
CONTINUOUS
 10
-6.799999873
 20
0.3928570986
 11
-6.6142855984
 21
0.5785714507
  0
LINE
  5
3D5
100
AcDbEntity
  8
CURVE
100
AcDbLine
 62
253
  6
CONTINUOUS
 10
-7.685714167
 20
4.0071425915
 11
-7.871428461
 21
3.9142858028
  0
LINE
  5
3D6
100
AcDbEntity
  8
CURVE
100
AcDbLine
 62
253
  6
CONTINUOUS
 10
3.100000127
 20
8.5
 11
5.000000127
 21
9.45
  0
LINE
  5
3D7
100
AcDbEntity
  8
CURVE
100
AcDbLine
 62
253
  6
CONTINUOUS
 10
-6.6142855984
 20
3.4571429014
 11
-6.4285713237
 21
3.55
  0
LINE
  5
3D8
100
AcDbEntity
  8
CURVE
100
AcDbLine
 62
253
  6
CONTINUOUS
 10
-5.685714167
 20
2.9928570986
 11
-5.871428461
 21
2.9
  0
LINE
  5
3D9
100
AcDbEntity
  8
CURVE
100
AcDbLine
 62
253
  6
CONTINUOUS
 10
-8.799999873
 20
4.9357141972
 11
-7.499999873
 21
5.3071425915
  0
LINE
  5
3DA
100
AcDbEntity
  8
CURVE
100
AcDbLine
 62
253
  6
CONTINUOUS
 10
-6.799999873
 20
5.5
 11
-5.499999873
 21
5.8714283943
  0
LINE
  5
3DB
100
AcDbEntity
  8
CURVE
100
AcDbLine
 62
7
  6
CONTINUOUS
 10
11.0540377487
 20
-6.720338
 11
11.1046262095
 21
-6.720338
  0
LINE
  5
3DC
100
AcDbEntity
  8
CURVE
100
AcDbLine
 62
253
  6
CONTINUOUS
 10
10.7974078155
 20
-6.5285717487
 11
10.774716231
 21
-6.5285717487
  0
LINE
  5
3DD
100
AcDbEntity
  8
CURVE
100
AcDbLine
 62
7
  6
CONTINUOUS
 10
11.0620667269
 20
-6.097666
 11
11.0540377487
 21
-6.097666
  0
LINE
  5
3DE
100
AcDbEntity
  8
CURVE
100
AcDbLine
 62
7
  6
CONTINUOUS
 10
11.1046262095
 20
-6.086013
 11
11.0965972312
 21
-6.086013
  0
LINE
  5
3DF
100
AcDbEntity
  8
CURVE
100
AcDbLine
 62
253
  6
CONTINUOUS
 10
10.7779578861
 20
-6.0023811102
 11
10.7941661607
 21
-6.0023811102
  0
LINE
  5
3E0
100
AcDbEntity
  8
CURVE
100
AcDbLine
 62
7
  6
CONTINUOUS
 10
11.0840181613
 20
-5.982127
 11
11.0759890086
 21
-5.982127
  0
LINE
  5
3E1
100
AcDbEntity
  8
CURVE
100
AcDbLine
 62
253
  6
CONTINUOUS
 10
10.7974078155
 20
-5.3523812652
 11
10.774716231
 21
-5.3523812652
  0
LINE
  5
3E2
100
AcDbEntity
  8
CURVE
100
AcDbLine
 62
253
  6
CONTINUOUS
 10
-8.799999873
 20
-0.8214285493
 11
-8.5214284223
 21
-1.0071428239
  0
LINE
  5
3E3
100
AcDbEntity
  8
CURVE
100
AcDbLine
 62
253
  6
CONTINUOUS
 10
-7.499999873
 20
-1.0071428239
 11
-8.4285713237
 21
-0.3571429014
  0
LINE
  5
3E4
100
AcDbEntity
  8
CURVE
100
AcDbLine
 62
253
  6
CONTINUOUS
 10
-8.4285713237
 20
-1.75
 11
-8.799999873
 21
-1.378571412
  0
LINE
  5
3E5
100
AcDbEntity
  8
SMUSSO
100
AcDbLine
 62
7
  6
CONTINUOUS
 10
-6.3459954187
 20
-2.9040044543
 11
-6.3503591849
 21
-2.8996406881
  0
LINE
  5
3E6
100
AcDbEntity
  8
ASSI
100
AcDbLine
 62
7
  6
CONTINUOUS
 10
-6.3459954187
 20
-2.9040044543
 11
-6.3503591849
 21
-2.8996406881
  0
LINE
  5
3E7
100
AcDbEntity
  8
SUPERFICI
100
AcDbLine
 62
253
  6
CONTINUOUS
 10
9.1937006388
 20
-18.1038332984
 11
9.9004641655
 21
-18.8105968252
  0
LINE
  5
3E8
100
AcDbEntity
  8
CURVE
100
AcDbLine
 62
253
  6
CONTINUOUS
 10
-8.6142855984
 20
0.1071429014
 11
-8.799999873
 21
0.2928570986
  0
LINE
  5
3E9
100
AcDbEntity
  8
CURVE
100
AcDbLine
 62
253
  6
CONTINUOUS
 10
-7.685714167
 20
0.5714285493
 11
-7.499999873
 21
0.3857143521
  0
LINE
  5
3EA
100
AcDbEntity
  8
CURVE
100
AcDbLine
 62
253
  6
CONTINUOUS
 10
-8.2428570491
 20
3.3571429014
 11
-8.3357141476
 21
3.5119045258
  0
LINE
  5
3EB
100
AcDbEntity
  8
DRAFT
100
AcDbLine
 62
7
  6
CONTINUOUS
 10
-6.249999873
 20
-2.9040044543
 11
-6.202003014
 21
-3.0
  0
LINE
  5
3EC
100
AcDbEntity
  8
ASSI
100
AcDbLine
 62
7
  6
CONTINUOUS
 10
-6.249999873
 20
-2.9040044543
 11
-6.202003014
 21
-3.0
  0
LINE
  5
3ED
100
AcDbEntity
  8
CURVE
100
AcDbLine
 62
253
  6
CONTINUOUS
 10
-7.9023808401
 20
6.05
 11
-7.9952379775
 21
6.26666646
  0
LINE
  5
3EE
100
AcDbEntity
  8
CURVE
100
AcDbLine
 62
253
  6
CONTINUOUS
 10
-7.8095236834
 20
6.5142858028
 11
-7.9023808401
 21
6.7619045258
  0
LINE
  5
3EF
100
AcDbEntity
  8
SMUSSO
100
AcDbLine
 62
7
  6
CONTINUOUS
 10
-3.6176694891
 20
-2.5720953298
 11
-3.6148358805
 21
-2.8996406881
  0
LINE
  5
3F0
100
AcDbEntity
  8
ASSI
100
AcDbLine
 62
7
  6
CONTINUOUS
 10
-3.6176694891
 20
-2.5720953298
 11
-3.6148358805
 21
-2.8996406881
  0
LINE
  5
3F1
100
AcDbEntity
  8
0
100
AcDbLine
 62
7
  6
CONTINUOUS
 10
-4.499999873
 20
7.5
 11
-4.499999873
 21
10.1
  0
LINE
  5
3F2
100
AcDbEntity
  8
0
100
AcDbLine
 62
7
  6
CONTINUOUS
 10
-4.499999873
 20
12.5
 11
-4.499999873
 21
15.1
  0
LINE
  5
3F3
100
AcDbEntity
  8
ASSI
100
AcDbLine
 62
7
  6
CONTINUOUS
 10
-4.449999873
 20
24.0
 11
-4.449999873
 21
23.3679449472
  0
LINE
  5
3F4
100
AcDbEntity
  8
0
100
AcDbLine
 62
7
  6
CONTINUOUS
 10
-4.449999873
 20
24.0
 11
-4.449999873
 21
23.3679449472
  0
LINE
  5
3F5
100
AcDbEntity
  8
ASSI
100
AcDbLine
 62
7
  6
CONTINUOUS
 10
-4.449999873
 20
22.9320550528
 11
-4.449999873
 21
22.4
  0
LINE
  5
3F6
100
AcDbEntity
  8
0
100
AcDbLine
 62
7
  6
CONTINUOUS
 10
-4.449999873
 20
22.9320550528
 11
-4.449999873
 21
22.4
  0
LINE
  5
3F7
100
AcDbEntity
  8
ASSI
100
AcDbLine
 62
7
  6
CONTINUOUS
 10
-4.449999873
 20
-22.4
 11
-4.449999873
 21
-22.9320550528
  0
LINE
  5
3F8
100
AcDbEntity
  8
0
100
AcDbLine
 62
7
  6
CONTINUOUS
 10
-4.449999873
 20
-22.4
 11
-4.449999873
 21
-22.9320550528
  0
LINE
  5
3F9
100
AcDbEntity
  8
ASSI
100
AcDbLine
 62
7
  6
CONTINUOUS
 10
-4.449999873
 20
-23.3679449472
 11
-4.449999873
 21
-24.0
  0
LINE
  5
3FA
100
AcDbEntity
  8
0
100
AcDbLine
 62
7
  6
CONTINUOUS
 10
-4.449999873
 20
-23.3679449472
 11
-4.449999873
 21
-24.0
  0
LINE
  5
3FB
100
AcDbEntity
  8
ASSI
100
AcDbLine
 62
7
  6
CONTINUOUS
 10
-4.406077626
 20
-23.9538922731
 11
-4.406077626
 21
-22.356077753
  0
LINE
  5
3FC
100
AcDbEntity
  8
0
100
AcDbLine
 62
7
  6
CONTINUOUS
 10
-4.406077626
 20
-23.9538922731
 11
-4.406077626
 21
-22.356077753
  0
LINE
  5
3FD
100
AcDbEntity
  8
ASSI
100
AcDbLine
 62
7
  6
CONTINUOUS
 10
-4.406077626
 20
22.356077753
 11
-4.406077626
 21
23.9538922731
  0
LINE
  5
3FE
100
AcDbEntity
  8
0
100
AcDbLine
 62
7
  6
CONTINUOUS
 10
-4.406077626
 20
22.356077753
 11
-4.406077626
 21
23.9538922731
  0
LINE
  5
3FF
100
AcDbEntity
  8
SMUSSO
100
AcDbLine
 62
7
  6
CONTINUOUS
 10
-4.099999873
 20
-1.8909141526
 11
-4.099999873
 21
0.7
  0
LINE
  5
400
100
AcDbEntity
  8
ASSI
100
AcDbLine
 62
7
  6
CONTINUOUS
 10
-4.099999873
 20
-1.8909141526
 11
-4.099999873
 21
0.7
  0
LINE
  5
401
100
AcDbEntity
  8
SMUSSO
100
AcDbLine
 62
7
  6
CONTINUOUS
 10
-3.6176694891
 20
-2.5720953298
 11
-3.6176694891
 21
0.2176696161
  0
LINE
  5
402
100
AcDbEntity
  8
ASSI
100
AcDbLine
 62
7
  6
CONTINUOUS
 10
-3.6176694891
 20
-2.5720953298
 11
-3.6176694891
 21
0.2176696161
  0
LINE
  5
403
100
AcDbEntity
  8
DRAFT
100
AcDbLine
 62
7
  6
CONTINUOUS
 10
-3.599999873
 20
-1.5148356752
 11
-3.599999873
 21
-2.9144766957
  0
LINE
  5
404
100
AcDbEntity
  8
ASSI
100
AcDbLine
 62
7
  6
CONTINUOUS
 10
-3.599999873
 20
-1.5148356752
 11
-3.599999873
 21
-2.9144766957
  0
LINE
  5
405
100
AcDbEntity
  8
DRAFT
100
AcDbLine
 62
7
  6
CONTINUOUS
 10
-3.499999873
 20
19.9
 11
-3.499999873
 21
19.7
  0
LINE
  5
406
100
AcDbEntity
  8
ASSI
100
AcDbLine
 62
7
  6
CONTINUOUS
 10
-3.499999873
 20
19.9
 11
-3.499999873
 21
19.7
  0
LINE
  5
407
100
AcDbEntity
  8
0
100
AcDbLine
 62
7
  6
CONTINUOUS
 10
-3.499999873
 20
-0.6
 11
-3.499999873
 21
-2.3
  0
LINE
  5
408
100
AcDbEntity
  8
DRAFT
100
AcDbLine
 62
7
  6
CONTINUOUS
 10
-3.499999873
 20
-19.7
 11
-3.499999873
 21
-19.9
  0
LINE
  5
409
100
AcDbEntity
  8
ASSI
100
AcDbLine
 62
7
  6
CONTINUOUS
 10
-3.499999873
 20
-19.7
 11
-3.499999873
 21
-19.9
  0
LINE
  5
40A
100
AcDbEntity
  8
ASSI
100
AcDbLine
 62
7
  6
CONTINUOUS
 10
-3.499999873
 20
-22.3560930869
 11
-3.499999873
 21
-23.9552966802
  0
LINE
  5
40B
100
AcDbEntity
  8
ASSI
100
AcDbLine
 62
7
  6
CONTINUOUS
 10
-3.499999873
 20
-23.9563493531
 11
-3.499999873
 21
-23.9941821702
  0
LINE
  5
40C
100
AcDbEntity
  8
0
100
AcDbLine
 62
7
  6
CONTINUOUS
 10
-3.499999873
 20
-22.3560930869
 11
-3.499999873
 21
-23.9552966802
  0
LINE
  5
40D
100
AcDbEntity
  8
0
100
AcDbLine
 62
7
  6
CONTINUOUS
 10
-3.499999873
 20
-23.9563493531
 11
-3.499999873
 21
-23.9941821702
  0
LINE
  5
40E
100
AcDbEntity
  8
SMUSSO
100
AcDbLine
 62
7
  6
CONTINUOUS
 10
-3.499999873
 20
-3.1
 11
-3.499999873
 21
-2.3
  0
LINE
  5
40F
100
AcDbEntity
  8
0
100
AcDbLine
 62
7
  6
CONTINUOUS
 10
-3.499999873
 20
7.5
 11
-3.499999873
 21
10.1
  0
LINE
  5
410
100
AcDbEntity
  8
0
100
AcDbLine
 62
7
  6
CONTINUOUS
 10
-3.499999873
 20
12.5
 11
-3.499999873
 21
15.1
  0
LINE
  5
411
100
AcDbEntity
  8
ASSI
100
AcDbLine
 62
7
  6
CONTINUOUS
 10
-3.499999873
 20
22.3560930869
 11
-3.499999873
 21
23.955318546
  0
LINE
  5
412
100
AcDbEntity
  8
0
100
AcDbLine
 62
7
  6
CONTINUOUS
 10
-3.499999873
 20
22.3560930869
 11
-3.499999873
 21
23.9541479441
  0
LINE
  5
413
100
AcDbEntity
  8
ASSI
100
AcDbLine
 62
7
  6
CONTINUOUS
 10
-3.499999873
 20
23.9563493531
 11
-3.499999873
 21
23.9941821702
  0
LINE
  5
414
100
AcDbEntity
  8
0
100
AcDbLine
 62
7
  6
CONTINUOUS
 10
-3.499999873
 20
23.9563493531
 11
-3.499999873
 21
23.9941821702
  0
LINE
  5
415
100
AcDbEntity
  8
DRAFT
100
AcDbLine
 62
7
  6
CONTINUOUS
 10
-3.4109790419
 20
19.8109791689
 11
-3.4109790419
 21
19.6109791689
  0
LINE
  5
416
100
AcDbEntity
  8
ASSI
100
AcDbLine
 62
7
  6
CONTINUOUS
 10
-3.4109790419
 20
19.8109791689
 11
-3.4109790419
 21
19.6109791689
  0
LINE
  5
417
100
AcDbEntity
  8
DRAFT
100
AcDbLine
 62
7
  6
CONTINUOUS
 10
-3.4109790419
 20
-19.6109791689
 11
-3.4109790419
 21
-19.8109791689
  0
LINE
  5
418
100
AcDbEntity
  8
ASSI
100
AcDbLine
 62
7
  6
CONTINUOUS
 10
-3.4109790419
 20
-19.6109791689
 11
-3.4109790419
 21
-19.8109791689
  0
LINE
  5
419
100
AcDbEntity
  8
ASSI
100
AcDbLine
 62
7
  6
CONTINUOUS
 10
-2.999999873
 20
-20.8
 11
-2.999999873
 21
-22.3536550199
  0
LINE
  5
41A
100
AcDbEntity
  8
0
100
AcDbLine
 62
7
  6
CONTINUOUS
 10
-2.999999873
 20
-20.8
 11
-2.999999873
 21
-22.3536550199
  0
LINE
  5
41B
100
AcDbEntity
  8
ASSI
100
AcDbLine
 62
7
  6
CONTINUOUS
 10
-2.999999873
 20
20.8
 11
-2.999999873
 21
22.3536550199
  0
LINE
  5
41C
100
AcDbEntity
  8
0
100
AcDbLine
 62
7
  6
CONTINUOUS
 10
-2.999999873
 20
20.8
 11
-2.999999873
 21
22.3536550199
  0
LINE
  5
41D
100
AcDbEntity
  8
RACCORDO
100
AcDbLine
 62
7
  6
CONTINUOUS
 10
-2.499999873
 20
20.0
 11
-2.499999873
 21
19.9
  0
LINE
  5
41E
100
AcDbEntity
  8
ASSI
100
AcDbLine
 62
7
  6
CONTINUOUS
 10
-2.499999873
 20
20.0
 11
-2.499999873
 21
19.9
  0
LINE
  5
41F
100
AcDbEntity
  8
RACCORDO
100
AcDbLine
 62
7
  6
CONTINUOUS
 10
-2.499999873
 20
-19.9
 11
-2.499999873
 21
-20.0
  0
LINE
  5
420
100
AcDbEntity
  8
ASSI
100
AcDbLine
 62
7
  6
CONTINUOUS
 10
-2.499999873
 20
-19.9
 11
-2.499999873
 21
-20.0
  0
LINE
  5
421
100
AcDbEntity
  8
RACCORDO
100
AcDbLine
 62
253
  6
CONTINUOUS
 10
-2.4979801969
 20
-20.0
 11
-2.4979801969
 21
-19.8979803239
  0
LINE
  5
422
100
AcDbEntity
  8
ASSI
100
AcDbLine
 62
253
  6
CONTINUOUS
 10
-2.4979801969
 20
-20.0
 11
-2.4979801969
 21
-19.8979803239
  0
LINE
  5
423
100
AcDbEntity
  8
RACCORDO
100
AcDbLine
 62
253
  6
CONTINUOUS
 10
-2.4979801969
 20
19.8979803239
 11
-2.4979801969
 21
20.0
  0
LINE
  5
424
100
AcDbEntity
  8
ASSI
100
AcDbLine
 62
253
  6
CONTINUOUS
 10
-2.4979801969
 20
19.8979803239
 11
-2.4979801969
 21
20.0
  0
LINE
  5
425
100
AcDbEntity
  8
ASSI
100
AcDbLine
 62
7
  6
CONTINUOUS
 10
-9.649999873
 20
-20.1990396502
 11
-9.6002702913
 21
-20.0497295817
  0
LINE
  5
426
100
AcDbEntity
  8
0
100
AcDbLine
 62
7
  6
CONTINUOUS
 10
-9.649999873
 20
-20.1990396502
 11
-9.6002702913
 21
-20.0497295817
  0
LINE
  5
427
100
AcDbEntity
  8
CURVE
100
AcDbLine
 62
253
  6
CONTINUOUS
 10
-5.499999873
 20
0.3
 11
-5.685714167
 21
0.1142857254
  0
LINE
  5
428
100
AcDbEntity
  8
CURVE
100
AcDbLine
 62
253
  6
CONTINUOUS
 10
-8.6142855984
 20
0.5714285493
 11
-8.4285713237
 21
0.6642856479
  0
LINE
  5
429
100
AcDbEntity
  8
CURVE
100
AcDbLine
 62
253
  6
CONTINUOUS
 10
-7.685714167
 20
0.1071429014
 11
-7.871428461
 21
0.0142856479
  0
LINE
  5
42A
100
AcDbEntity
  8
CURVE
100
AcDbLine
 62
253
  6
CONTINUOUS
 10
-6.6142855984
 20
0.5785714507
 11
-6.4285713237
 21
0.6714285493
  0
LINE
  5
42B
100
AcDbEntity
  8
CURVE
100
AcDbLine
 62
253
  6
CONTINUOUS
 10
-5.685714167
 20
0.1142857254
 11
-5.871428461
 21
0.0214285493
  0
LINE
  5
42C
100
AcDbEntity
  8
CURVE
100
AcDbLine
 62
7
  6
CONTINUOUS
 10
11.0759888341
 20
-4.554832
 11
11.0620664477
 21
-4.554832
  0
LINE
  5
42D
100
AcDbEntity
  8
CURVE
100
AcDbLine
 62
7
  6
CONTINUOUS
 10
11.0965973359
 20
-4.554832
 11
11.0840183358
 21
-4.554832
  0
LINE
  5
42E
100
AcDbEntity
  8
CURVE
100
AcDbLine
 62
7
  6
CONTINUOUS
 10
11.0540377487
 20
-4.037094
 11
11.1046262095
 21
-4.037094
  0
LINE
  5
42F
100
AcDbEntity
  8
CURVE
100
AcDbLine
 62
253
  6
CONTINUOUS
 10
10.774716231
 20
-3.8666669905
 11
10.7974078155
 21
-3.8666669905
  0
LINE
  5
430
100
AcDbEntity
  8
CURVE
100
AcDbLine
 62
253
  6
CONTINUOUS
 10
10.7974078155
 20
-3.1238098145
 11
10.774716231
 21
-3.1238098145
  0
LINE
  5
431
100
AcDbEntity
  8
0
100
AcDbLine
 62
7
  6
CONTINUOUS
 10
-3.499999873
 20
-3.1
 11
-6.649999873
 21
-3.1
  0
LINE
  5
432
100
AcDbEntity
  8
0
100
AcDbLine
 62
7
  6
CONTINUOUS
 10
8.000000127
 20
-3.1
 11
10.6856953999
 21
-3.1
  0
LINE
  5
433
100
AcDbEntity
  8
DRAFT
100
AcDbLine
 62
7
  6
CONTINUOUS
 10
-6.202003014
 20
-3.0
 11
-3.499999873
 21
-3.0
  0
LINE
  5
434
100
AcDbEntity
  8
ASSI
100
AcDbLine
 62
7
  6
CONTINUOUS
 10
-6.202003014
 20
-3.0
 11
-3.499999873
 21
-3.0
  0
LINE
  5
435
100
AcDbEntity
  8
DRAFT
100
AcDbLine
 62
7
  6
CONTINUOUS
 10
8.000000127
 20
-3.0
 11
10.6874409064
 21
-3.0
  0
LINE
  5
436
100
AcDbEntity
  8
ASSI
100
AcDbLine
 62
7
  6
CONTINUOUS
 10
8.000000127
 20
-3.0
 11
10.6874409064
 21
-3.0
  0
LINE
  5
437
100
AcDbEntity
  8
DRAFT
100
AcDbLine
 62
7
  6
CONTINUOUS
 10
8.100000127
 20
-2.9144766957
 11
8.000000127
 21
-2.9144766957
  0
LINE
  5
438
100
AcDbEntity
  8
ASSI
100
AcDbLine
 62
7
  6
CONTINUOUS
 10
8.100000127
 20
-2.9144766957
 11
8.000000127
 21
-2.9144766957
  0
LINE
  5
439
100
AcDbEntity
  8
DRAFT
100
AcDbLine
 62
7
  6
CONTINUOUS
 10
-3.499999873
 20
-2.9144766957
 11
-3.599999873
 21
-2.9144766957
  0
LINE
  5
43A
100
AcDbEntity
  8
ASSI
100
AcDbLine
 62
7
  6
CONTINUOUS
 10
-3.499999873
 20
-2.9144766957
 11
-3.599999873
 21
-2.9144766957
  0
LINE
  5
43B
100
AcDbEntity
  8
DRAFT
100
AcDbLine
 62
7
  6
CONTINUOUS
 10
-6.249999873
 20
-2.9040044543
 11
-6.3459954187
 21
-2.9040044543
  0
LINE
  5
43C
100
AcDbEntity
  8
ASSI
100
AcDbLine
 62
7
  6
CONTINUOUS
 10
-6.249999873
 20
-2.9040044543
 11
-6.3459954187
 21
-2.9040044543
  0
LINE
  5
43D
100
AcDbEntity
  8
SMUSSO
100
AcDbLine
 62
7
  6
CONTINUOUS
 10
-6.3503591849
 20
-2.8996406881
 11
-3.6148358805
 21
-2.8996406881
  0
LINE
  5
43E
100
AcDbEntity
  8
ASSI
100
AcDbLine
 62
7
  6
CONTINUOUS
 10
-6.3503591849
 20
-2.8996406881
 11
-3.6148358805
 21
-2.8996406881
  0
LINE
  5
43F
100
AcDbEntity
  8
SMUSSO
100
AcDbLine
 62
7
  6
CONTINUOUS
 10
8.1148361345
 20
-2.8996406881
 11
10.4867069951
 21
-2.8996406881
  0
LINE
  5
440
100
AcDbEntity
  8
ASSI
100
AcDbLine
 62
7
  6
CONTINUOUS
 10
8.1148361345
 20
-2.8996406881
 11
10.4867069951
 21
-2.8996406881
  0
LINE
  5
441
100
AcDbEntity
  8
SMUSSO
100
AcDbLine
 62
7
  6
CONTINUOUS
 10
8.000000127
 20
-2.8
 11
-3.499999873
 21
-2.8
  0
LINE
  5
442
100
AcDbEntity
  8
SMUSSO
100
AcDbLine
 62
7
  6
CONTINUOUS
 10
-6.3521042262
 20
-2.6979261096
 11
-6.749999873
 21
-2.6979261096
  0
LINE
  5
443
100
AcDbEntity
  8
ASSI
100
AcDbLine
 62
7
  6
CONTINUOUS
 10
-6.3521042262
 20
-2.6979261096
 11
-6.749999873
 21
-2.6979261096
  0
LINE
  5
444
100
AcDbEntity
  8
SMUSSO
100
AcDbLine
 62
7
  6
CONTINUOUS
 10
8.000000127
 20
-2.3
 11
-3.499999873
 21
-2.3
  0
LINE
  5
445
100
AcDbEntity
  8
CURVE
100
AcDbLine
 62
253
  6
CONTINUOUS
 10
-6.799999873
 20
-0.35
 11
-5.499999873
 21
-0.7214285687
  0
LINE
  5
446
100
AcDbEntity
  8
CURVE
100
AcDbLine
 62
253
  6
CONTINUOUS
 10
-8.4285713237
 20
0.0142856479
 11
-8.6142855984
 21
0.1071429014
  0
LINE
  5
447
100
AcDbEntity
  8
CURVE
100
AcDbLine
 62
253
  6
CONTINUOUS
 10
-7.871428461
 20
0.6642856479
 11
-7.685714167
 21
0.5714285493
  0
LINE
  5
448
100
AcDbEntity
  8
CURVE
100
AcDbLine
 62
253
  6
CONTINUOUS
 10
-6.4285713237
 20
0.0214285493
 11
-6.6142855984
 21
0.1142857254
  0
LINE
  5
449
100
AcDbEntity
  8
CURVE
100
AcDbLine
 62
253
  6
CONTINUOUS
 10
-8.799999873
 20
2.15
 11
-8.5214284223
 21
1.9642858028
  0
LINE
  5
44A
100
AcDbEntity
  8
CURVE
100
AcDbLine
 62
253
  6
CONTINUOUS
 10
-7.499999873
 20
1.9642858028
 11
-8.4285713237
 21
2.6142858028
  0
LINE
  5
44B
100
AcDbEntity
  8
SMUSSO
100
AcDbLine
 62
7
  6
CONTINUOUS
 10
-3.599999873
 20
-2.9144766957
 11
-3.6148358805
 21
-2.8996406881
  0
LINE
  5
44C
100
AcDbEntity
  8
ASSI
100
AcDbLine
 62
7
  6
CONTINUOUS
 10
-3.599999873
 20
-2.9144766957
 11
-3.6148358805
 21
-2.8996406881
  0
LINE
  5
44D
100
AcDbEntity
  8
CURVE
100
AcDbLine
 62
253
  6
CONTINUOUS
 10
-6.6142855984
 20
0.1142857254
 11
-6.799999873
 21
0.3
  0
LINE
  5
44E
100
AcDbEntity
  8
DRAFT
100
AcDbLine
 62
7
  6
CONTINUOUS
 10
-3.599999873
 20
-1.5148356752
 11
-3.6148355482
 21
-1.5
  0
LINE
  5
44F
100
AcDbEntity
  8
ASSI
100
AcDbLine
 62
7
  6
CONTINUOUS
 10
-3.599999873
 20
-1.5148356752
 11
-3.6148355482
 21
-1.5
  0
LINE
  5
450
100
AcDbEntity
  8
CURVE
100
AcDbLine
 62
253
  6
CONTINUOUS
 10
-5.685714167
 20
0.5785714507
 11
-5.499999873
 21
0.3928570986
  0
LINE
  5
451
100
AcDbEntity
  8
CURVE
100
AcDbLine
 62
253
  6
CONTINUOUS
 10
-8.6142855984
 20
4.0071425915
 11
-8.799999873
 21
4.1928574085
  0
LINE
  5
452
100
AcDbEntity
  8
CURVE
100
AcDbLine
 62
253
  6
CONTINUOUS
 10
-7.499999873
 20
3.45
 11
-7.59285702
 21
3.5428574085
  0
LINE
  5
453
100
AcDbEntity
  8
CURVE
100
AcDbLine
 62
253
  6
CONTINUOUS
 10
-6.6142855984
 20
2.9928570986
 11
-6.799999873
 21
3.1785712957
  0
LINE
  5
454
100
AcDbEntity
  8
DRAFT
100
AcDbLine
 62
7
  6
CONTINUOUS
 10
-3.6148355482
 20
0.2148356752
 11
-4.099999873
 21
0.7
  0
LINE
  5
455
100
AcDbEntity
  8
ASSI
100
AcDbLine
 62
7
  6
CONTINUOUS
 10
-3.6148355482
 20
0.2148356752
 11
-4.099999873
 21
0.7
  0
LINE
  5
456
100
AcDbEntity
  8
CURVE
100
AcDbLine
 62
253
  6
CONTINUOUS
 10
-7.685714167
 20
4.4714283943
 11
-7.499999873
 21
4.2857141972
  0
LINE
  5
457
100
AcDbEntity
  8
CURVE
100
AcDbLine
 62
253
  6
CONTINUOUS
 10
-5.499999873
 20
2.3428570986
 11
-5.685714167
 21
2.5285712957
  0
LINE
  5
458
100
AcDbEntity
  8
SMUSSO
100
AcDbLine
 62
7
  6
CONTINUOUS
 10
-4.099999873
 20
-1.8909141526
 11
-3.6176694891
 21
-2.5720953298
  0
LINE
  5
459
100
AcDbEntity
  8
ASSI
100
AcDbLine
 62
7
  6
CONTINUOUS
 10
-4.099999873
 20
-1.8909141526
 11
-3.6176694891
 21
-2.5720953298
  0
LINE
  5
45A
100
AcDbEntity
  8
ASSI
100
AcDbLine
 62
7
  6
CONTINUOUS
 10
-9.6002702913
 20
20.0497295817
 11
-9.649999873
 21
20.1990396502
  0
LINE
  5
45B
100
AcDbEntity
  8
0
100
AcDbLine
 62
7
  6
CONTINUOUS
 10
-9.6002702913
 20
20.0497295817
 11
-9.649999873
 21
20.1990396502
  0
LINE
  5
45C
100
AcDbEntity
  8
RACCORDO
100
AcDbLine
 62
253
  6
CONTINUOUS
 10
-1.5981172713
 20
-20.0
 11
-1.5981172713
 21
-19.8825449351
  0
LINE
  5
45D
100
AcDbEntity
  8
ASSI
100
AcDbLine
 62
253
  6
CONTINUOUS
 10
-1.5981172713
 20
-20.0
 11
-1.5981172713
 21
-19.8825449351
  0
LINE
  5
45E
100
AcDbEntity
  8
RACCORDO
100
AcDbLine
 62
253
  6
CONTINUOUS
 10
-1.5981172713
 20
19.8825449351
 11
-1.5981172713
 21
20.0
  0
LINE
  5
45F
100
AcDbEntity
  8
ASSI
100
AcDbLine
 62
253
  6
CONTINUOUS
 10
-1.5981172713
 20
19.8825449351
 11
-1.5981172713
 21
20.0
  0
LINE
  5
460
100
AcDbEntity
  8
ASSI
100
AcDbLine
 62
7
  6
CONTINUOUS
 10
-0.999999873
 20
23.7941787855
 11
-0.999999873
 21
22.3947639644
  0
LINE
  5
461
100
AcDbEntity
  8
0
100
AcDbLine
 62
7
  6
CONTINUOUS
 10
-0.999999873
 20
23.7941787855
 11
-0.999999873
 21
22.3947639644
  0
LINE
  5
462
100
AcDbEntity
  8
ASSI
100
AcDbLine
 62
7
  6
CONTINUOUS
 10
-0.999999873
 20
-22.3947639644
 11
-0.999999873
 21
-23.7941787855
  0
LINE
  5
463
100
AcDbEntity
  8
0
100
AcDbLine
 62
7
  6
CONTINUOUS
 10
-0.999999873
 20
-22.3947639644
 11
-0.999999873
 21
-23.7941787855
  0
LINE
  5
464
100
AcDbEntity
  8
0
100
AcDbLine
 62
7
  6
CONTINUOUS
 10
-0.699999873
 20
15.1
 11
-0.699999873
 21
12.5
  0
LINE
  5
465
100
AcDbEntity
  8
0
100
AcDbLine
 62
7
  6
CONTINUOUS
 10
-0.699999873
 20
10.1
 11
-0.699999873
 21
7.5
  0
LINE
  5
466
100
AcDbEntity
  8
0
100
AcDbLine
 62
7
  6
CONTINUOUS
 10
-0.649999873
 20
-19.3212250911
 11
-0.649999873
 21
-19.1379469093
  0
LINE
  5
467
100
AcDbEntity
  8
ASSI
100
AcDbLine
 62
7
  6
CONTINUOUS
 10
-8.9498935354
 20
-20.9
 11
-8.8999505808
 21
-20.7500492922
  0
LINE
  5
468
100
AcDbEntity
  8
0
100
AcDbLine
 62
7
  6
CONTINUOUS
 10
-8.9498935354
 20
-20.9
 11
-8.8999505808
 21
-20.7500492922
  0
LINE
  5
469
100
AcDbEntity
  8
RACCORDO
100
AcDbLine
 62
253
  6
CONTINUOUS
 10
-9.8824477458
 20
-18.8290841082
 11
-10.0850174184
 21
-19.3181305591
  0
LINE
  5
46A
100
AcDbEntity
  8
ASSI
100
AcDbLine
 62
253
  6
CONTINUOUS
 10
-9.8824477458
 20
-18.8290841082
 11
-10.0850174184
 21
-19.3181305591
  0
LINE
  5
46B
100
AcDbEntity
  8
RACCORDO
100
AcDbLine
 62
253
  6
CONTINUOUS
 10
-9.1754486604
 20
-19.121932718
 11
-9.378018333
 21
-19.6109791689
  0
LINE
  5
46C
100
AcDbEntity
  8
ASSI
100
AcDbLine
 62
253
  6
CONTINUOUS
 10
-9.1754486604
 20
-19.121932718
 11
-9.378018333
 21
-19.6109791689
  0
LINE
  5
46D
100
AcDbEntity
  8
SMUSSO
100
AcDbLine
 62
7
  6
CONTINUOUS
 10
-6.749999873
 20
-1.8909141526
 11
-4.099999873
 21
-1.8909141526
  0
LINE
  5
46E
100
AcDbEntity
  8
ASSI
100
AcDbLine
 62
7
  6
CONTINUOUS
 10
-6.749999873
 20
-1.8909141526
 11
-4.099999873
 21
-1.8909141526
  0
LINE
  5
46F
100
AcDbEntity
  8
RACCORDO
100
AcDbLine
 62
7
  6
CONTINUOUS
 10
8.600000127
 20
-1.8909141526
 11
9.4865553317
 21
-1.8909141526
  0
LINE
  5
470
100
AcDbEntity
  8
ASSI
100
AcDbLine
 62
7
  6
CONTINUOUS
 10
8.600000127
 20
-1.8909141526
 11
9.4865553317
 21
-1.8909141526
  0
LINE
  5
471
100
AcDbEntity
  8
DRAFT
100
AcDbLine
 62
7
  6
CONTINUOUS
 10
8.100000127
 20
-1.5148356752
 11
8.000000127
 21
-1.5148356752
  0
LINE
  5
472
100
AcDbEntity
  8
ASSI
100
AcDbLine
 62
7
  6
CONTINUOUS
 10
8.100000127
 20
-1.5148356752
 11
8.000000127
 21
-1.5148356752
  0
LINE
  5
473
100
AcDbEntity
  8
DRAFT
100
AcDbLine
 62
7
  6
CONTINUOUS
 10
-3.499999873
 20
-1.5148356752
 11
-3.599999873
 21
-1.5148356752
  0
LINE
  5
474
100
AcDbEntity
  8
ASSI
100
AcDbLine
 62
7
  6
CONTINUOUS
 10
-3.499999873
 20
-1.5148356752
 11
-3.599999873
 21
-1.5148356752
  0
LINE
  5
475
100
AcDbEntity
  8
CURVE
100
AcDbLine
 62
253
  6
CONTINUOUS
 10
10.6438032441
 20
-1.5
 11
10.6263481792
 21
-1.5
  0
LINE
  5
476
100
AcDbEntity
  8
CURVE
100
AcDbLine
 62
253
  6
CONTINUOUS
 10
10.5565279194
 20
-1.5
 11
10.5390728545
 21
-1.5
  0
LINE
  5
477
100
AcDbEntity
  8
0
100
AcDbLine
 62
7
  6
CONTINUOUS
 10
-3.6148355482
 20
-1.4
 11
-3.499999873
 21
-1.4
  0
LINE
  5
478
100
AcDbEntity
  8
RACCORDO
100
AcDbLine
 62
7
  6
CONTINUOUS
 10
-3.499999873
 20
-1.4
 11
-3.6148355482
 21
-1.4
  0
LINE
  5
479
100
AcDbEntity
  8
0
100
AcDbLine
 62
7
  6
CONTINUOUS
 10
8.000000127
 20
-1.4
 11
8.1148358022
 21
-1.4
  0
LINE
  5
47A
100
AcDbEntity
  8
RACCORDO
100
AcDbLine
 62
7
  6
CONTINUOUS
 10
8.000000127
 20
-1.4
 11
8.1148358022
 21
-1.4
  0
LINE
  5
47B
100
AcDbEntity
  8
CURVE
100
AcDbLine
 62
253
  6
CONTINUOUS
 10
-8.799999873
 20
-1.378571412
 11
-7.499999873
 21
-1.378571412
  0
LINE
  5
47C
100
AcDbEntity
  8
CURVE
100
AcDbLine
 62
253
  6
CONTINUOUS
 10
-6.5214284223
 20
-1.0
 11
-6.799999873
 21
-1.0
  0
LINE
  5
47D
100
AcDbEntity
  8
0
100
AcDbLine
 62
253
  6
CONTINUOUS
 10
-3.499999873
 20
-0.6
 11
8.000000127
 21
-0.6
  0
LINE
  5
47E
100
AcDbEntity
  8
CURVE
100
AcDbLine
 62
253
  6
CONTINUOUS
 10
-8.4285713237
 20
-0.3571429014
 11
-8.6142855984
 21
-0.3571429014
  0
LINE
  5
47F
100
AcDbEntity
  8
CURVE
100
AcDbLine
 62
253
  6
CONTINUOUS
 10
10.6874409064
 20
-0.0
 11
10.774716231
 21
-0.0
  0
LINE
  5
480
100
AcDbEntity
  8
CURVE
100
AcDbLine
 62
253
  6
CONTINUOUS
 10
10.5854534547
 20
-0.0
 11
10.5873236425
 21
-0.0
  0
LINE
  5
481
100
AcDbEntity
  8
CURVE
100
AcDbLine
 62
253
  6
CONTINUOUS
 10
10.5648814144
 20
-0.0
 11
10.5667516006
 21
-0.0
  0
LINE
  5
482
100
AcDbEntity
  8
CURVE
100
AcDbLine
 62
253
  6
CONTINUOUS
 10
-7.871428461
 20
0.0142856479
 11
-8.4285713237
 21
0.0142856479
  0
LINE
  5
483
100
AcDbEntity
  8
CURVE
100
AcDbLine
 62
253
  6
CONTINUOUS
 10
-5.871428461
 20
0.0214285493
 11
-6.4285713237
 21
0.0214285493
  0
LINE
  5
484
100
AcDbEntity
  8
RACCORDO
100
AcDbLine
 62
7
  6
CONTINUOUS
 10
-3.499999873
 20
0.2
 11
-3.6148355482
 21
0.2
  0
LINE
  5
485
100
AcDbEntity
  8
0
100
AcDbLine
 62
7
  6
CONTINUOUS
 10
-3.6148355482
 20
0.2
 11
8.1148358022
 21
0.2
  0
LINE
  5
486
100
AcDbEntity
  8
RACCORDO
100
AcDbLine
 62
7
  6
CONTINUOUS
 10
8.000000127
 20
0.2
 11
8.1148358022
 21
0.2
  0
LINE
  5
487
100
AcDbEntity
  8
DRAFT
100
AcDbLine
 62
7
  6
CONTINUOUS
 10
8.1148358022
 20
0.2104722413
 11
8.000000127
 21
0.2104722413
  0
LINE
  5
488
100
AcDbEntity
  8
ASSI
100
AcDbLine
 62
7
  6
CONTINUOUS
 10
8.1148358022
 20
0.2104722413
 11
8.000000127
 21
0.2104722413
  0
LINE
  5
489
100
AcDbEntity
  8
DRAFT
100
AcDbLine
 62
7
  6
CONTINUOUS
 10
-3.499999873
 20
0.2104722413
 11
-3.6148355482
 21
0.2104722413
  0
LINE
  5
48A
100
AcDbEntity
  8
ASSI
100
AcDbLine
 62
7
  6
CONTINUOUS
 10
-3.499999873
 20
0.2104722413
 11
-3.6148355482
 21
0.2104722413
  0
LINE
  5
48B
100
AcDbEntity
  8
DRAFT
100
AcDbLine
 62
7
  6
CONTINUOUS
 10
-3.6176694891
 20
0.2176696161
 11
8.1176697431
 21
0.2176696161
  0
LINE
  5
48C
100
AcDbEntity
  8
ASSI
100
AcDbLine
 62
7
  6
CONTINUOUS
 10
-3.6176694891
 20
0.2176696161
 11
8.1176697431
 21
0.2176696161
  0
LINE
  5
48D
100
AcDbEntity
  8
CURVE
100
AcDbLine
 62
253
  6
CONTINUOUS
 10
-5.871428461
 20
0.6714285493
 11
-5.685714167
 21
0.5785714507
  0
LINE
  5
48E
100
AcDbEntity
  8
DRAFT
100
AcDbLine
 62
7
  6
CONTINUOUS
 10
-3.499999873
 20
0.2104722413
 11
-3.4958111679
 21
0.2083780483
  0
LINE
  5
48F
100
AcDbEntity
  8
ASSI
100
AcDbLine
 62
7
  6
CONTINUOUS
 10
-3.499999873
 20
0.2104722413
 11
-3.4958111679
 21
0.2083780483
  0
LINE
  5
490
100
AcDbEntity
  8
CURVE
100
AcDbLine
 62
253
  6
CONTINUOUS
 10
-6.4285713237
 20
2.9
 11
-6.6142855984
 21
2.9928570986
  0
LINE
  5
491
100
AcDbEntity
  8
CURVE
100
AcDbLine
 62
253
  6
CONTINUOUS
 10
-8.4285713237
 20
3.9142858028
 11
-8.6142855984
 21
4.0071425915
  0
LINE
  5
492
100
AcDbEntity
  8
CURVE
100
AcDbLine
 62
253
  6
CONTINUOUS
 10
-5.685714167
 20
3.4571429014
 11
-5.499999873
 21
3.2714287043
  0
LINE
  5
493
100
AcDbEntity
  8
RACCORDO
100
AcDbLine
 62
253
  6
CONTINUOUS
 10
-10.0850174184
 20
19.3181305591
 11
-9.8824477458
 21
18.8290841082
  0
LINE
  5
494
100
AcDbEntity
  8
ASSI
100
AcDbLine
 62
253
  6
CONTINUOUS
 10
-10.0850174184
 20
19.3181305591
 11
-9.8824477458
 21
18.8290841082
  0
LINE
  5
495
100
AcDbEntity
  8
RACCORDO
100
AcDbLine
 62
253
  6
CONTINUOUS
 10
-9.378018333
 20
19.6109791689
 11
-9.1754486604
 21
19.121932718
  0
LINE
  5
496
100
AcDbEntity
  8
ASSI
100
AcDbLine
 62
253
  6
CONTINUOUS
 10
-9.378018333
 20
19.6109791689
 11
-9.1754486604
 21
19.121932718
  0
LINE
  5
497
100
AcDbEntity
  8
ASSI
100
AcDbLine
 62
7
  6
CONTINUOUS
 10
-8.8999505808
 20
20.7500492922
 11
-8.9498935354
 21
20.9
  0
LINE
  5
498
100
AcDbEntity
  8
0
100
AcDbLine
 62
7
  6
CONTINUOUS
 10
-8.8999505808
 20
20.7500492922
 11
-8.9498935354
 21
20.9
  0
LINE
  5
499
100
AcDbEntity
  8
ASSI
100
AcDbLine
 62
7
  6
CONTINUOUS
 10
1.000000127
 20
23.7941787855
 11
1.000000127
 21
22.3947639644
  0
LINE
  5
49A
100
AcDbEntity
  8
0
100
AcDbLine
 62
7
  6
CONTINUOUS
 10
1.000000127
 20
23.7941787855
 11
1.000000127
 21
22.3947639644
  0
LINE
  5
49B
100
AcDbEntity
  8
ASSI
100
AcDbLine
 62
7
  6
CONTINUOUS
 10
1.000000127
 20
-22.3947639644
 11
1.000000127
 21
-23.7941787855
  0
LINE
  5
49C
100
AcDbEntity
  8
0
100
AcDbLine
 62
7
  6
CONTINUOUS
 10
1.000000127
 20
-22.3947639644
 11
1.000000127
 21
-23.7941787855
  0
LINE
  5
49D
100
AcDbEntity
  8
RACCORDO
100
AcDbLine
 62
253
  6
CONTINUOUS
 10
1.5981175253
 20
20.0
 11
1.5981175253
 21
19.8825449351
  0
LINE
  5
49E
100
AcDbEntity
  8
ASSI
100
AcDbLine
 62
253
  6
CONTINUOUS
 10
1.5981175253
 20
20.0
 11
1.5981175253
 21
19.8825449351
  0
LINE
  5
49F
100
AcDbEntity
  8
RACCORDO
100
AcDbLine
 62
253
  6
CONTINUOUS
 10
1.5981175253
 20
-19.8825449351
 11
1.5981175253
 21
-20.0
  0
LINE
  5
4A0
100
AcDbEntity
  8
ASSI
100
AcDbLine
 62
253
  6
CONTINUOUS
 10
1.5981175253
 20
-19.8825449351
 11
1.5981175253
 21
-20.0
  0
LINE
  5
4A1
100
AcDbEntity
  8
SMUSSO
100
AcDbLine
 62
7
  6
CONTINUOUS
 10
1.750000127
 20
15.45
 11
1.750000127
 21
12.15
  0
LINE
  5
4A2
100
AcDbEntity
  8
ASSI
100
AcDbLine
 62
7
  6
CONTINUOUS
 10
1.750000127
 20
15.45
 11
1.750000127
 21
12.15
  0
LINE
  5
4A3
100
AcDbEntity
  8
SMUSSO
100
AcDbLine
 62
7
  6
CONTINUOUS
 10
1.750000127
 20
10.45
 11
1.750000127
 21
7.15
  0
LINE
  5
4A4
100
AcDbEntity
  8
ASSI
100
AcDbLine
 62
7
  6
CONTINUOUS
 10
1.750000127
 20
10.45
 11
1.750000127
 21
7.15
  0
LINE
  5
4A5
100
AcDbEntity
  8
SMUSSO
100
AcDbLine
 62
7
  6
CONTINUOUS
 10
2.3273503962
 20
16.0273502692
 11
2.3273503962
 21
11.5726497308
  0
LINE
  5
4A6
100
AcDbEntity
  8
ASSI
100
AcDbLine
 62
7
  6
CONTINUOUS
 10
2.3273503962
 20
16.0273502692
 11
2.3273503962
 21
11.5726497308
  0
LINE
  5
4A7
100
AcDbEntity
  8
SMUSSO
100
AcDbLine
 62
7
  6
CONTINUOUS
 10
2.3273503962
 20
11.0273502692
 11
2.3273503962
 21
6.5726497308
  0
LINE
  5
4A8
100
AcDbEntity
  8
ASSI
100
AcDbLine
 62
7
  6
CONTINUOUS
 10
2.3273503962
 20
11.0273502692
 11
2.3273503962
 21
6.5726497308
  0
LINE
  5
4A9
100
AcDbEntity
  8
RACCORDO
100
AcDbLine
 62
253
  6
CONTINUOUS
 10
2.4979804509
 20
20.0
 11
2.4979804509
 21
19.8979803239
  0
LINE
  5
4AA
100
AcDbEntity
  8
ASSI
100
AcDbLine
 62
253
  6
CONTINUOUS
 10
2.4979804509
 20
20.0
 11
2.4979804509
 21
19.8979803239
  0
LINE
  5
4AB
100
AcDbEntity
  8
RACCORDO
100
AcDbLine
 62
253
  6
CONTINUOUS
 10
2.4979804509
 20
-19.8979803239
 11
2.4979804509
 21
-20.0
  0
LINE
  5
4AC
100
AcDbEntity
  8
ASSI
100
AcDbLine
 62
253
  6
CONTINUOUS
 10
2.4979804509
 20
-19.8979803239
 11
2.4979804509
 21
-20.0
  0
LINE
  5
4AD
100
AcDbEntity
  8
RACCORDO
100
AcDbLine
 62
7
  6
CONTINUOUS
 10
2.500000127
 20
20.0
 11
2.500000127
 21
19.9
  0
LINE
  5
4AE
100
AcDbEntity
  8
ASSI
100
AcDbLine
 62
7
  6
CONTINUOUS
 10
2.500000127
 20
20.0
 11
2.500000127
 21
19.9
  0
LINE
  5
4AF
100
AcDbEntity
  8
RACCORDO
100
AcDbLine
 62
7
  6
CONTINUOUS
 10
2.500000127
 20
-19.9
 11
2.500000127
 21
-20.0
  0
LINE
  5
4B0
100
AcDbEntity
  8
ASSI
100
AcDbLine
 62
7
  6
CONTINUOUS
 10
2.500000127
 20
-19.9
 11
2.500000127
 21
-20.0
  0
LINE
  5
4B1
100
AcDbEntity
  8
ASSI
100
AcDbLine
 62
7
  6
CONTINUOUS
 10
8.8999508348
 20
20.7500492922
 11
8.9498937894
 21
20.9
  0
LINE
  5
4B2
100
AcDbEntity
  8
0
100
AcDbLine
 62
7
  6
CONTINUOUS
 10
8.8999508348
 20
20.7500492922
 11
8.9498937894
 21
20.9
  0
LINE
  5
4B3
100
AcDbEntity
  8
ASSI
100
AcDbLine
 62
7
  6
CONTINUOUS
 10
9.6002705453
 20
20.0497295817
 11
9.650000127
 21
20.1990396502
  0
LINE
  5
4B4
100
AcDbEntity
  8
0
100
AcDbLine
 62
7
  6
CONTINUOUS
 10
9.6002705453
 20
20.0497295817
 11
9.650000127
 21
20.1990396502
  0
LINE
  5
4B5
100
AcDbEntity
  8
RACCORDO
100
AcDbLine
 62
253
  6
CONTINUOUS
 10
9.1754489144
 20
19.121932718
 11
9.378018587
 21
19.6109791689
  0
LINE
  5
4B6
100
AcDbEntity
  8
ASSI
100
AcDbLine
 62
253
  6
CONTINUOUS
 10
9.1754489144
 20
19.121932718
 11
9.378018587
 21
19.6109791689
  0
LINE
  5
4B7
100
AcDbEntity
  8
RACCORDO
100
AcDbLine
 62
253
  6
CONTINUOUS
 10
9.8824479998
 20
18.8290841082
 11
10.0850176724
 21
19.3181305591
  0
LINE
  5
4B8
100
AcDbEntity
  8
ASSI
100
AcDbLine
 62
253
  6
CONTINUOUS
 10
9.8824479998
 20
18.8290841082
 11
10.0850176724
 21
19.3181305591
  0
LINE
  5
4B9
100
AcDbEntity
  8
CURVE
100
AcDbLine
 62
253
  6
CONTINUOUS
 10
10.6371952567
 20
0.4285714477
 11
10.6272209345
 21
0.4285714477
  0
LINE
  5
4BA
100
AcDbEntity
  8
CURVE
100
AcDbLine
 62
253
  6
CONTINUOUS
 10
-8.4285713237
 20
0.6642856479
 11
-7.871428461
 21
0.6642856479
  0
LINE
  5
4BB
100
AcDbEntity
  8
CURVE
100
AcDbLine
 62
253
  6
CONTINUOUS
 10
-6.4285713237
 20
0.6714285493
 11
-5.871428461
 21
0.6714285493
  0
LINE
  5
4BC
100
AcDbEntity
  8
SMUSSO
100
AcDbLine
 62
7
  6
CONTINUOUS
 10
-4.099999873
 20
0.7
 11
8.600000127
 21
0.7
  0
LINE
  5
4BD
100
AcDbEntity
  8
ASSI
100
AcDbLine
 62
7
  6
CONTINUOUS
 10
-4.099999873
 20
0.7
 11
8.600000127
 21
0.7
  0
LINE
  5
4BE
100
AcDbEntity
  8
CURVE
100
AcDbLine
 62
253
  6
CONTINUOUS
 10
10.6153764214
 20
1.071428597
 11
10.600414938
 21
1.071428597
  0
LINE
  5
4BF
100
AcDbEntity
  8
CURVE
100
AcDbLine
 62
253
  6
CONTINUOUS
 10
10.7092597376
 20
1.25
 11
10.7528973999
 21
1.25
  0
LINE
  5
4C0
100
AcDbEntity
  8
CURVE
100
AcDbLine
 62
253
  6
CONTINUOUS
 10
10.5873236425
 20
1.5
 11
10.5854534547
 21
1.5
  0
LINE
  5
4C1
100
AcDbEntity
  8
CURVE
100
AcDbLine
 62
253
  6
CONTINUOUS
 10
10.5667516006
 20
1.5
 11
10.5648814144
 21
1.5
  0
LINE
  5
4C2
100
AcDbEntity
  8
CURVE
100
AcDbLine
 62
253
  6
CONTINUOUS
 10
-6.2428570491
 20
1.9714287043
 11
-6.799999873
 21
1.9714287043
  0
LINE
  5
4C3
100
AcDbEntity
  8
CURVE
100
AcDbLine
 62
253
  6
CONTINUOUS
 10
10.5396962499
 20
2.0
 11
10.530345322
 21
2.0
  0
LINE
  5
4C4
100
AcDbEntity
  8
CURVE
100
AcDbLine
 62
253
  6
CONTINUOUS
 10
10.5490471778
 20
2.0
 11
10.5621384765
 21
2.0
  0
LINE
  5
4C5
100
AcDbEntity
  8
CURVE
100
AcDbLine
 62
253
  6
CONTINUOUS
 10
10.6158751402
 20
2.5
 11
10.6088931142
 21
2.5
  0
LINE
  5
4C6
100
AcDbEntity
  8
CURVE
100
AcDbLine
 62
253
  6
CONTINUOUS
 10
10.6228571662
 20
2.5
 11
10.6298391921
 21
2.5
  0
LINE
  5
4C7
100
AcDbEntity
  8
CURVE
100
AcDbLine
 62
253
  6
CONTINUOUS
 10
10.6368212181
 20
2.5
 11
10.6438032441
 21
2.5
  0
LINE
  5
4C8
100
AcDbEntity
  8
CURVE
100
AcDbLine
 62
253
  6
CONTINUOUS
 10
-5.685714167
 20
2.5285712957
 11
-6.0571427357
 21
2.5285712957
  0
LINE
  5
4C9
100
AcDbEntity
  8
CURVE
100
AcDbLine
 62
253
  6
CONTINUOUS
 10
-8.4285713237
 20
2.6142858028
 11
-8.6142855984
 21
2.6142858028
  0
LINE
  5
4CA
100
AcDbEntity
  8
CURVE
100
AcDbLine
 62
253
  6
CONTINUOUS
 10
-5.871428461
 20
3.55
 11
-5.685714167
 21
3.4571429014
  0
LINE
  5
4CB
100
AcDbEntity
  8
CURVE
100
AcDbLine
 62
253
  6
CONTINUOUS
 10
-7.871428461
 20
4.5642858028
 11
-7.685714167
 21
4.4714283943
  0
LINE
  5
4CC
100
AcDbEntity
  8
SMUSSO
100
AcDbLine
 62
7
  6
CONTINUOUS
 10
10.4867069951
 20
-2.8996406881
 11
10.6874409064
 21
-3.0
  0
LINE
  5
4CD
100
AcDbEntity
  8
ASSI
100
AcDbLine
 62
7
  6
CONTINUOUS
 10
10.4867069951
 20
-2.8996406881
 11
10.6874409064
 21
-3.0
  0
LINE
  5
4CE
100
AcDbEntity
  8
CURVE
100
AcDbLine
 62
253
  6
CONTINUOUS
 10
-8.6142855984
 20
10.1047613144
 11
-8.799999873
 21
10.2904761314
  0
LINE
  5
4CF
100
AcDbEntity
  8
CURVE
100
AcDbLine
 62
253
  6
CONTINUOUS
 10
-7.499999873
 20
9.4547613144
 11
-7.685714167
 21
9.6404761314
  0
LINE
  5
4D0
100
AcDbEntity
  8
CURVE
100
AcDbLine
 62
253
  6
CONTINUOUS
 10
-7.685714167
 20
10.5690477371
 11
-7.499999873
 21
10.3833329201
  0
LINE
  5
4D1
100
AcDbEntity
  8
CURVE
100
AcDbLine
 62
253
  6
CONTINUOUS
 10
-8.799999873
 20
12.4880954742
 11
-8.5214284223
 21
12.2095238686
  0
LINE
  5
4D2
100
AcDbEntity
  8
RACCORDO
100
AcDbLine
 62
253
  6
CONTINUOUS
 10
9.378018587
 20
-19.6109791689
 11
9.2587215306
 21
-19.3229705976
  0
LINE
  5
4D3
100
AcDbEntity
  8
ASSI
100
AcDbLine
 62
253
  6
CONTINUOUS
 10
9.378018587
 20
-19.6109791689
 11
9.2587215306
 21
-19.3229705976
  0
LINE
  5
4D4
100
AcDbEntity
  8
0
100
AcDbLine
 62
253
  6
CONTINUOUS
 10
9.1754489144
 20
-19.121932718
 11
9.2579985182
 21
-19.3212250911
  0
LINE
  5
4D5
100
AcDbEntity
  8
RACCORDO
100
AcDbLine
 62
253
  6
CONTINUOUS
 10
10.0850176724
 20
-19.3181305591
 11
9.965720616
 21
-19.0301219878
  0
LINE
  5
4D6
100
AcDbEntity
  8
ASSI
100
AcDbLine
 62
253
  6
CONTINUOUS
 10
10.0850176724
 20
-19.3181305591
 11
9.965720616
 21
-19.0301219878
  0
LINE
  5
4D7
100
AcDbEntity
  8
ASSI
100
AcDbLine
 62
7
  6
CONTINUOUS
 10
8.9498937894
 20
-20.9
 11
8.8999508348
 21
-20.7500492922
  0
LINE
  5
4D8
100
AcDbEntity
  8
0
100
AcDbLine
 62
7
  6
CONTINUOUS
 10
8.9498937894
 20
-20.9
 11
8.8999508348
 21
-20.7500492922
  0
LINE
  5
4D9
100
AcDbEntity
  8
ASSI
100
AcDbLine
 62
7
  6
CONTINUOUS
 10
9.650000127
 20
-20.1990396502
 11
9.6002705453
 21
-20.0497295817
  0
LINE
  5
4DA
100
AcDbEntity
  8
0
100
AcDbLine
 62
7
  6
CONTINUOUS
 10
9.650000127
 20
-20.1990396502
 11
9.6002705453
 21
-20.0497295817
  0
LINE
  5
4DB
100
AcDbEntity
  8
ASSI
100
AcDbLine
 62
7
  6
CONTINUOUS
 10
3.000000127
 20
-20.8
 11
3.000000127
 21
-22.3536550199
  0
LINE
  5
4DC
100
AcDbEntity
  8
0
100
AcDbLine
 62
7
  6
CONTINUOUS
 10
3.000000127
 20
-20.8
 11
3.000000127
 21
-22.3536550199
  0
LINE
  5
4DD
100
AcDbEntity
  8
ASSI
100
AcDbLine
 62
7
  6
CONTINUOUS
 10
3.000000127
 20
20.8
 11
3.000000127
 21
22.3536550199
  0
LINE
  5
4DE
100
AcDbEntity
  8
0
100
AcDbLine
 62
7
  6
CONTINUOUS
 10
3.000000127
 20
20.8
 11
3.000000127
 21
22.3536550199
  0
LINE
  5
4DF
100
AcDbEntity
  8
DRAFT
100
AcDbLine
 62
7
  6
CONTINUOUS
 10
3.4109792959
 20
19.8109791689
 11
3.4109792959
 21
19.6109791689
  0
LINE
  5
4E0
100
AcDbEntity
  8
ASSI
100
AcDbLine
 62
7
  6
CONTINUOUS
 10
3.4109792959
 20
19.8109791689
 11
3.4109792959
 21
19.6109791689
  0
LINE
  5
4E1
100
AcDbEntity
  8
DRAFT
100
AcDbLine
 62
7
  6
CONTINUOUS
 10
3.4109792959
 20
-19.6109791689
 11
3.4109792959
 21
-19.8109791689
  0
LINE
  5
4E2
100
AcDbEntity
  8
ASSI
100
AcDbLine
 62
7
  6
CONTINUOUS
 10
3.4109792959
 20
-19.6109791689
 11
3.4109792959
 21
-19.8109791689
  0
LINE
  5
4E3
100
AcDbEntity
  8
DRAFT
100
AcDbLine
 62
7
  6
CONTINUOUS
 10
3.500000127
 20
19.9
 11
3.500000127
 21
19.7
  0
LINE
  5
4E4
100
AcDbEntity
  8
ASSI
100
AcDbLine
 62
7
  6
CONTINUOUS
 10
3.500000127
 20
19.9
 11
3.500000127
 21
19.7
  0
LINE
  5
4E5
100
AcDbEntity
  8
DRAFT
100
AcDbLine
 62
7
  6
CONTINUOUS
 10
3.500000127
 20
-19.7
 11
3.500000127
 21
-19.9
  0
LINE
  5
4E6
100
AcDbEntity
  8
ASSI
100
AcDbLine
 62
7
  6
CONTINUOUS
 10
3.500000127
 20
-19.7
 11
3.500000127
 21
-19.9
  0
LINE
  5
4E7
100
AcDbEntity
  8
ASSI
100
AcDbLine
 62
7
  6
CONTINUOUS
 10
3.500000127
 20
-22.3560930869
 11
3.500000127
 21
-23.9552966802
  0
LINE
  5
4E8
100
AcDbEntity
  8
ASSI
100
AcDbLine
 62
7
  6
CONTINUOUS
 10
3.500000127
 20
-23.9563493531
 11
3.500000127
 21
-23.9941821702
  0
LINE
  5
4E9
100
AcDbEntity
  8
0
100
AcDbLine
 62
7
  6
CONTINUOUS
 10
3.500000127
 20
-22.3560930869
 11
3.500000127
 21
-23.9552966802
  0
LINE
  5
4EA
100
AcDbEntity
  8
0
100
AcDbLine
 62
7
  6
CONTINUOUS
 10
3.500000127
 20
-23.9563493531
 11
3.500000127
 21
-23.9941821702
  0
LINE
  5
4EB
100
AcDbEntity
  8
ASSI
100
AcDbLine
 62
7
  6
CONTINUOUS
 10
3.500000127
 20
22.3560930869
 11
3.500000127
 21
23.955318546
  0
LINE
  5
4EC
100
AcDbEntity
  8
0
100
AcDbLine
 62
7
  6
CONTINUOUS
 10
3.500000127
 20
22.3560930869
 11
3.500000127
 21
23.9541479441
  0
LINE
  5
4ED
100
AcDbEntity
  8
ASSI
100
AcDbLine
 62
7
  6
CONTINUOUS
 10
3.500000127
 20
23.9563493531
 11
3.500000127
 21
23.9941821702
  0
LINE
  5
4EE
100
AcDbEntity
  8
0
100
AcDbLine
 62
7
  6
CONTINUOUS
 10
3.500000127
 20
23.9563493531
 11
3.500000127
 21
23.9941821702
  0
LINE
  5
4EF
100
AcDbEntity
  8
ASSI
100
AcDbLine
 62
7
  6
CONTINUOUS
 10
4.40607788
 20
-23.9538922731
 11
4.40607788
 21
-22.356077753
  0
LINE
  5
4F0
100
AcDbEntity
  8
0
100
AcDbLine
 62
7
  6
CONTINUOUS
 10
4.40607788
 20
-23.9538922731
 11
4.40607788
 21
-22.356077753
  0
LINE
  5
4F1
100
AcDbEntity
  8
ASSI
100
AcDbLine
 62
7
  6
CONTINUOUS
 10
4.40607788
 20
22.356077753
 11
4.40607788
 21
23.9538922731
  0
LINE
  5
4F2
100
AcDbEntity
  8
0
100
AcDbLine
 62
7
  6
CONTINUOUS
 10
4.40607788
 20
22.356077753
 11
4.40607788
 21
23.9538922731
  0
LINE
  5
4F3
100
AcDbEntity
  8
ASSI
100
AcDbLine
 62
7
  6
CONTINUOUS
 10
4.450000127
 20
-24.0
 11
4.450000127
 21
-23.3679449472
  0
LINE
  5
4F4
100
AcDbEntity
  8
0
100
AcDbLine
 62
7
  6
CONTINUOUS
 10
4.450000127
 20
-24.0
 11
4.450000127
 21
-23.3679449472
  0
LINE
  5
4F5
100
AcDbEntity
  8
ASSI
100
AcDbLine
 62
7
  6
CONTINUOUS
 10
4.450000127
 20
-22.9320550528
 11
4.450000127
 21
-22.4
  0
LINE
  5
4F6
100
AcDbEntity
  8
0
100
AcDbLine
 62
7
  6
CONTINUOUS
 10
4.450000127
 20
-22.9320550528
 11
4.450000127
 21
-22.4
  0
LINE
  5
4F7
100
AcDbEntity
  8
ASSI
100
AcDbLine
 62
7
  6
CONTINUOUS
 10
4.450000127
 20
22.4
 11
4.450000127
 21
22.9320550528
  0
LINE
  5
4F8
100
AcDbEntity
  8
0
100
AcDbLine
 62
7
  6
CONTINUOUS
 10
4.450000127
 20
22.4
 11
4.450000127
 21
22.9320550528
  0
LINE
  5
4F9
100
AcDbEntity
  8
ASSI
100
AcDbLine
 62
7
  6
CONTINUOUS
 10
4.450000127
 20
23.3679449472
 11
4.450000127
 21
24.0
  0
LINE
  5
4FA
100
AcDbEntity
  8
0
100
AcDbLine
 62
7
  6
CONTINUOUS
 10
4.450000127
 20
23.3679449472
 11
4.450000127
 21
24.0
  0
LINE
  5
4FB
100
AcDbEntity
  8
CURVE
100
AcDbLine
 62
253
  6
CONTINUOUS
 10
5.000000127
 20
13.5
 11
5.000000127
 21
14.1785714447
  0
LINE
  5
4FC
100
AcDbEntity
  8
DRAFT
100
AcDbLine
 62
7
  6
CONTINUOUS
 10
8.000000127
 20
0.2104722413
 11
7.9958114219
 21
0.2083780483
  0
LINE
  5
4FD
100
AcDbEntity
  8
ASSI
100
AcDbLine
 62
7
  6
CONTINUOUS
 10
8.000000127
 20
0.2104722413
 11
7.9958114219
 21
0.2083780483
  0
LINE
  5
4FE
100
AcDbEntity
  8
CURVE
100
AcDbLine
 62
253
  6
CONTINUOUS
 10
10.5340856933
 20
2.8571428955
 11
10.5378260645
 21
2.8571428955
  0
LINE
  5
4FF
100
AcDbEntity
  8
CURVE
100
AcDbLine
 62
253
  6
CONTINUOUS
 10
-5.871428461
 20
2.9
 11
-6.4285713237
 21
2.9
  0
LINE
  5
500
100
AcDbEntity
  8
CURVE
100
AcDbLine
 62
253
  6
CONTINUOUS
 10
10.6438032441
 20
3.0
 11
10.6088931142
 21
3.0
  0
LINE
  5
501
100
AcDbEntity
  8
CURVE
100
AcDbLine
 62
253
  6
CONTINUOUS
 10
10.5527875486
 20
3.5
 11
10.5583981041
 21
3.5
  0
LINE
  5
502
100
AcDbEntity
  8
CURVE
100
AcDbLine
 62
253
  6
CONTINUOUS
 10
10.530345322
 20
3.5
 11
10.5378260645
 21
3.5
  0
LINE
  5
503
100
AcDbEntity
  8
CURVE
100
AcDbLine
 62
253
  6
CONTINUOUS
 10
-8.3357141476
 20
3.5119045258
 11
-8.6142855984
 21
3.5119045258
  0
LINE
  5
504
100
AcDbEntity
  8
CURVE
100
AcDbLine
 62
253
  6
CONTINUOUS
 10
-7.59285702
 20
3.5428574085
 11
-8.0571427357
 21
3.5428574085
  0
LINE
  5
505
100
AcDbEntity
  8
CURVE
100
AcDbLine
 62
253
  6
CONTINUOUS
 10
-6.4285713237
 20
3.55
 11
-5.871428461
 21
3.55
  0
LINE
  5
506
100
AcDbEntity
  8
CURVE
100
AcDbLine
 62
253
  6
CONTINUOUS
 10
10.7528973999
 20
3.75
 11
10.7092597376
 21
3.75
  0
LINE
  5
507
100
AcDbEntity
  8
CURVE
100
AcDbLine
 62
253
  6
CONTINUOUS
 10
-7.871428461
 20
3.9142858028
 11
-8.4285713237
 21
3.9142858028
  0
LINE
  5
508
100
AcDbEntity
  8
CURVE
100
AcDbLine
 62
253
  6
CONTINUOUS
 10
-5.499999873
 20
3.9214287043
 11
-6.4285713237
 21
3.9214287043
  0
LINE
  5
509
100
AcDbEntity
  8
CURVE
100
AcDbLine
 62
253
  6
CONTINUOUS
 10
10.5935575933
 20
4.0
 11
10.5879470363
 21
4.0
  0
LINE
  5
50A
100
AcDbEntity
  8
CURVE
100
AcDbLine
 62
253
  6
CONTINUOUS
 10
-6.4285713237
 20
4.3238096714
 11
-5.499999873
 21
4.3238096714
  0
LINE
  5
50B
100
AcDbEntity
  8
CURVE
100
AcDbLine
 62
253
  6
CONTINUOUS
 10
10.5742323425
 20
4.4285714477
 11
10.5642580197
 21
4.4285714477
  0
LINE
  5
50C
100
AcDbEntity
  8
CURVE
100
AcDbLine
 62
253
  6
CONTINUOUS
 10
-8.4285713237
 20
4.5642858028
 11
-7.871428461
 21
4.5642858028
  0
LINE
  5
50D
100
AcDbEntity
  8
CURVE
100
AcDbLine
 62
253
  6
CONTINUOUS
 10
-6.3357141476
 20
4.7571425915
 11
-5.499999873
 21
4.7571425915
  0
LINE
  5
50E
100
AcDbEntity
  8
CURVE
100
AcDbLine
 62
253
  6
CONTINUOUS
 10
10.774716231
 20
5.0
 11
10.6874409064
 21
5.0
  0
LINE
  5
50F
100
AcDbEntity
  8
CURVE
100
AcDbLine
 62
253
  6
CONTINUOUS
 10
11.0780620529
 20
5.30544429
 11
11.0777629704
 21
5.30544429
  0
LINE
  5
510
100
AcDbEntity
  8
CURVE
100
AcDbLine
 62
253
  6
CONTINUOUS
 10
-7.499999873
 20
5.3071425915
 11
-8.799999873
 21
5.6785716057
  0
LINE
  5
511
100
AcDbEntity
  8
CURVE
100
AcDbLine
 62
253
  6
CONTINUOUS
 10
-5.499999873
 20
5.1285716057
 11
-6.799999873
 21
5.5
  0
LINE
  5
512
100
AcDbEntity
  8
CURVE
100
AcDbLine
 62
253
  6
CONTINUOUS
 10
-8.4285713237
 20
10.0119045258
 11
-8.6142855984
 21
10.1047613144
  0
LINE
  5
513
100
AcDbEntity
  8
CURVE
100
AcDbLine
 62
253
  6
CONTINUOUS
 10
-8.6761903566
 20
11.7761909485
 11
-7.5309522545
 21
11.0333329201
  0
LINE
  5
514
100
AcDbEntity
  8
CURVE
100
AcDbLine
 62
253
  6
CONTINUOUS
 10
-8.6142855984
 20
13.1380954742
 11
-8.799999873
 21
13.3238090515
  0
LINE
  5
515
100
AcDbEntity
  8
CURVE
100
AcDbLine
 62
253
  6
CONTINUOUS
 10
-7.499999873
 20
12.4880954742
 11
-7.685714167
 21
12.6738090515
  0
LINE
  5
516
100
AcDbEntity
  8
SMUSSO
100
AcDbLine
 62
7
  6
CONTINUOUS
 10
-5.249999873
 20
10.45
 11
-5.8273501422
 21
11.0273502692
  0
LINE
  5
517
100
AcDbEntity
  8
ASSI
100
AcDbLine
 62
7
  6
CONTINUOUS
 10
-5.249999873
 20
10.45
 11
-5.8273501422
 21
11.0273502692
  0
LINE
  5
518
100
AcDbEntity
  8
CURVE
100
AcDbLine
 62
253
  6
CONTINUOUS
 10
-7.685714167
 20
13.6023806572
 11
-7.499999873
 21
13.4166670799
  0
LINE
  5
519
100
AcDbEntity
  8
0
100
AcDbLine
 62
253
  6
CONTINUOUS
 10
9.8915755178
 20
-18.8199565902
 11
9.9649976036
 21
-19.0283764813
  0
LINE
  5
51A
100
AcDbEntity
  8
ASSI
100
AcDbLine
 62
253
  6
CONTINUOUS
 10
7.254371961
 20
-23.8443375673
 11
7.250000127
 21
-23.4104851482
  0
LINE
  5
51B
100
AcDbEntity
  8
0
100
AcDbLine
 62
253
  6
CONTINUOUS
 10
7.254371961
 20
-23.8443375673
 11
7.250000127
 21
-23.4104851482
  0
LINE
  5
51C
100
AcDbEntity
  8
ASSI
100
AcDbLine
 62
253
  6
CONTINUOUS
 10
7.5043677302
 20
-23.6278312164
 11
7.4992771291
 21
-23.1226497308
  0
LINE
  5
51D
100
AcDbEntity
  8
0
100
AcDbLine
 62
253
  6
CONTINUOUS
 10
7.5043677302
 20
-23.6278312164
 11
7.4992771291
 21
-23.1226497308
  0
LINE
  5
51E
100
AcDbEntity
  8
ASSI
100
AcDbLine
 62
7
  6
CONTINUOUS
 10
6.500000127
 20
-20.0
 11
6.500000127
 21
-19.7
  0
LINE
  5
51F
100
AcDbEntity
  8
0
100
AcDbLine
 62
7
  6
CONTINUOUS
 10
6.500000127
 20
-20.0
 11
6.500000127
 21
-19.7
  0
LINE
  5
520
100
AcDbEntity
  8
ASSI
100
AcDbLine
 62
7
  6
CONTINUOUS
 10
6.500000127
 20
19.7
 11
6.500000127
 21
20.0
  0
LINE
  5
521
100
AcDbEntity
  8
0
100
AcDbLine
 62
7
  6
CONTINUOUS
 10
6.500000127
 20
19.7
 11
6.500000127
 21
20.0
  0
LINE
  5
522
100
AcDbEntity
  8
ASSI
100
AcDbLine
 62
7
  6
CONTINUOUS
 10
7.250000127
 20
-22.4
 11
7.250000127
 21
-23.8443375673
  0
LINE
  5
523
100
AcDbEntity
  8
0
100
AcDbLine
 62
7
  6
CONTINUOUS
 10
7.250000127
 20
-22.4
 11
7.250000127
 21
-23.8443375673
  0
LINE
  5
524
100
AcDbEntity
  8
ASSI
100
AcDbLine
 62
7
  6
CONTINUOUS
 10
7.250000127
 20
22.4
 11
7.250000127
 21
23.8443375673
  0
LINE
  5
525
100
AcDbEntity
  8
0
100
AcDbLine
 62
7
  6
CONTINUOUS
 10
7.250000127
 20
22.4
 11
7.250000127
 21
23.8443375673
  0
LINE
  5
526
100
AcDbEntity
  8
ASSI
100
AcDbLine
 62
7
  6
CONTINUOUS
 10
7.254371961
 20
24.2456323968
 11
7.254371961
 21
23.8443375673
  0
LINE
  5
527
100
AcDbEntity
  8
0
100
AcDbLine
 62
7
  6
CONTINUOUS
 10
7.254371961
 20
24.2456323968
 11
7.254371961
 21
23.8443375673
  0
LINE
  5
528
100
AcDbEntity
  8
ASSI
100
AcDbLine
 62
7
  6
CONTINUOUS
 10
7.254371961
 20
-23.8443375673
 11
7.254371961
 21
-24.2456323968
  0
LINE
  5
529
100
AcDbEntity
  8
0
100
AcDbLine
 62
7
  6
CONTINUOUS
 10
7.254371961
 20
-23.8443375673
 11
7.254371961
 21
-24.2456323968
  0
LINE
  5
52A
100
AcDbEntity
  8
ASSI
100
AcDbLine
 62
7
  6
CONTINUOUS
 10
7.300000127
 20
20.9
 11
7.300000127
 21
19.7
  0
LINE
  5
52B
100
AcDbEntity
  8
0
100
AcDbLine
 62
7
  6
CONTINUOUS
 10
7.300000127
 20
20.9
 11
7.300000127
 21
19.7
  0
LINE
  5
52C
100
AcDbEntity
  8
ASSI
100
AcDbLine
 62
7
  6
CONTINUOUS
 10
7.300000127
 20
-19.7
 11
7.300000127
 21
-20.9
  0
LINE
  5
52D
100
AcDbEntity
  8
0
100
AcDbLine
 62
7
  6
CONTINUOUS
 10
7.300000127
 20
-19.7
 11
7.300000127
 21
-20.9
  0
LINE
  5
52E
100
AcDbEntity
  8
DRAFT
100
AcDbLine
 62
7
  6
CONTINUOUS
 10
7.400000127
 20
20.85
 11
7.400000127
 21
19.7
  0
LINE
  5
52F
100
AcDbEntity
  8
ASSI
100
AcDbLine
 62
7
  6
CONTINUOUS
 10
7.400000127
 20
20.85
 11
7.400000127
 21
19.7
  0
LINE
  5
530
100
AcDbEntity
  8
DRAFT
100
AcDbLine
 62
7
  6
CONTINUOUS
 10
7.400000127
 20
-19.7
 11
7.400000127
 21
-20.85
  0
LINE
  5
531
100
AcDbEntity
  8
ASSI
100
AcDbLine
 62
7
  6
CONTINUOUS
 10
7.400000127
 20
-19.7
 11
7.400000127
 21
-20.85
  0
LINE
  5
532
100
AcDbEntity
  8
DRAFT
100
AcDbLine
 62
7
  6
CONTINUOUS
 10
7.4890209581
 20
20.85
 11
7.4890209581
 21
19.6109791689
  0
LINE
  5
533
100
AcDbEntity
  8
ASSI
100
AcDbLine
 62
7
  6
CONTINUOUS
 10
7.4890209581
 20
20.85
 11
7.4890209581
 21
19.6109791689
  0
LINE
  5
534
100
AcDbEntity
  8
DRAFT
100
AcDbLine
 62
7
  6
CONTINUOUS
 10
7.4890209581
 20
-19.6109791689
 11
7.4890209581
 21
-20.85
  0
LINE
  5
535
100
AcDbEntity
  8
ASSI
100
AcDbLine
 62
7
  6
CONTINUOUS
 10
7.4890209581
 20
-19.6109791689
 11
7.4890209581
 21
-20.85
  0
LINE
  5
536
100
AcDbEntity
  8
ASSI
100
AcDbLine
 62
253
  6
CONTINUOUS
 10
7.5043677302
 20
-23.6278312164
 11
7.5043677302
 21
-24.495628166
  0
LINE
  5
537
100
AcDbEntity
  8
0
100
AcDbLine
 62
253
  6
CONTINUOUS
 10
7.5043677302
 20
-23.6278312164
 11
7.5043677302
 21
-24.495628166
  0
LINE
  5
538
100
AcDbEntity
  8
ASSI
100
AcDbLine
 62
253
  6
CONTINUOUS
 10
7.5043677302
 20
23.6278312164
 11
7.5043677302
 21
24.495628166
  0
LINE
  5
539
100
AcDbEntity
  8
0
100
AcDbLine
 62
253
  6
CONTINUOUS
 10
7.5043677302
 20
23.6278312164
 11
7.5043677302
 21
24.495628166
  0
LINE
  5
53A
100
AcDbEntity
  8
ASSI
100
AcDbLine
 62
253
  6
CONTINUOUS
 10
7.5666457812
 20
21.3359869487
 11
7.5666457812
 21
20.9
  0
LINE
  5
53B
100
AcDbEntity
  8
0
100
AcDbLine
 62
253
  6
CONTINUOUS
 10
7.5666457812
 20
21.3359869487
 11
7.5666457812
 21
20.9
  0
LINE
  5
53C
100
AcDbEntity
  8
ASSI
100
AcDbLine
 62
253
  6
CONTINUOUS
 10
7.5666457812
 20
-20.9
 11
7.5666457812
 21
-21.3359869487
  0
LINE
  5
53D
100
AcDbEntity
  8
0
100
AcDbLine
 62
253
  6
CONTINUOUS
 10
7.5666457812
 20
-20.9
 11
7.5666457812
 21
-21.3359869487
  0
LINE
  5
53E
100
AcDbEntity
  8
ASSI
100
AcDbLine
 62
253
  6
CONTINUOUS
 10
7.250000127
 20
23.4104851482
 11
7.254371961
 21
23.8443375673
  0
LINE
  5
53F
100
AcDbEntity
  8
0
100
AcDbLine
 62
253
  6
CONTINUOUS
 10
7.250000127
 20
23.4104851482
 11
7.254371961
 21
23.8443375673
  0
LINE
  5
540
100
AcDbEntity
  8
ASSI
100
AcDbLine
 62
253
  6
CONTINUOUS
 10
7.4992771291
 20
23.1226497308
 11
7.5043677302
 21
23.6278312164
  0
LINE
  5
541
100
AcDbEntity
  8
0
100
AcDbLine
 62
253
  6
CONTINUOUS
 10
7.4992771291
 20
23.1226497308
 11
7.5043677302
 21
23.6278312164
  0
LINE
  5
542
100
AcDbEntity
  8
DRAFT
100
AcDbLine
 62
7
  6
CONTINUOUS
 10
8.1176697431
 20
0.2176696161
 11
8.600000127
 21
0.7
  0
LINE
  5
543
100
AcDbEntity
  8
ASSI
100
AcDbLine
 62
7
  6
CONTINUOUS
 10
8.1148358022
 20
0.2148356752
 11
8.600000127
 21
0.7
  0
LINE
  5
544
100
AcDbEntity
  8
RACCORDO
100
AcDbLine
 62
253
  6
CONTINUOUS
 10
-9.1937064679
 20
-18.1038272153
 11
-9.9007055533
 21
-18.8108263007
  0
LINE
  5
545
100
AcDbEntity
  8
ASSI
100
AcDbLine
 62
253
  6
CONTINUOUS
 10
-9.1937064679
 20
-18.1038272153
 11
-9.9007055533
 21
-18.8108263007
  0
LINE
  5
546
100
AcDbEntity
  8
RACCORDO
100
AcDbLine
 62
253
  6
CONTINUOUS
 10
-9.1754486604
 20
-18.1220850228
 11
-9.8824477458
 21
-18.8290841082
  0
LINE
  5
547
100
AcDbEntity
  8
ASSI
100
AcDbLine
 62
253
  6
CONTINUOUS
 10
-9.1754486604
 20
-18.1220850228
 11
-9.8824477458
 21
-18.8290841082
  0
LINE
  5
548
100
AcDbEntity
  8
DRAFT
100
AcDbLine
 62
7
  6
CONTINUOUS
 10
8.100000127
 20
-1.5148356752
 11
8.1148358022
 21
-1.5
  0
LINE
  5
549
100
AcDbEntity
  8
ASSI
100
AcDbLine
 62
7
  6
CONTINUOUS
 10
8.100000127
 20
-1.5148356752
 11
8.1148358022
 21
-1.5
  0
LINE
  5
54A
100
AcDbEntity
  8
SMUSSO
100
AcDbLine
 62
7
  6
CONTINUOUS
 10
8.100000127
 20
-2.9144766957
 11
8.1148361345
 21
-2.8996406881
  0
LINE
  5
54B
100
AcDbEntity
  8
ASSI
100
AcDbLine
 62
7
  6
CONTINUOUS
 10
8.100000127
 20
-2.9144766957
 11
8.1148361345
 21
-2.8996406881
  0
LINE
  5
54C
100
AcDbEntity
  8
CURVE
100
AcDbLine
 62
253
  6
CONTINUOUS
 10
11.0739443554
 20
6.2587313832
 11
11.0541369741
 21
6.2587313832
  0
LINE
  5
54D
100
AcDbEntity
  8
CURVE
100
AcDbLine
 62
253
  6
CONTINUOUS
 10
11.0961280759
 20
6.2788012718
 11
11.082233646
 21
6.2788012718
  0
LINE
  5
54E
100
AcDbEntity
  8
SMUSSO
100
AcDbLine
 62
7
  6
CONTINUOUS
 10
2.3273503962
 20
6.5726497308
 11
-5.8273501422
 21
6.5726497308
  0
LINE
  5
54F
100
AcDbEntity
  8
ASSI
100
AcDbLine
 62
7
  6
CONTINUOUS
 10
2.3273503962
 20
6.5726497308
 11
-5.8273501422
 21
6.5726497308
  0
LINE
  5
550
100
AcDbEntity
  8
RACCORDO
100
AcDbLine
 62
7
  6
CONTINUOUS
 10
9.350000127
 20
6.7
 11
10.5870742831
 21
6.7
  0
LINE
  5
551
100
AcDbEntity
  8
ASSI
100
AcDbLine
 62
7
  6
CONTINUOUS
 10
9.350000127
 20
6.7
 11
10.5870742831
 21
6.7
  0
LINE
  5
552
100
AcDbEntity
  8
CURVE
100
AcDbLine
 62
253
  6
CONTINUOUS
 10
11.0541369741
 20
6.8615673444
 11
11.104159275
 21
6.8615673444
  0
LINE
  5
553
100
AcDbEntity
  8
SMUSSO
100
AcDbLine
 62
7
  6
CONTINUOUS
 10
1.750000127
 20
7.15
 11
-5.249999873
 21
7.15
  0
LINE
  5
554
100
AcDbEntity
  8
ASSI
100
AcDbLine
 62
7
  6
CONTINUOUS
 10
1.750000127
 20
7.15
 11
-5.249999873
 21
7.15
  0
LINE
  5
555
100
AcDbEntity
  8
0
100
AcDbLine
 62
7
  6
CONTINUOUS
 10
1.750000127
 20
7.5
 11
-4.499999873
 21
7.5
  0
LINE
  5
556
100
AcDbEntity
  8
CURVE
100
AcDbLine
 62
253
  6
CONTINUOUS
 10
-7.871428461
 20
10.6619045258
 11
-7.685714167
 21
10.5690477371
  0
LINE
  5
557
100
AcDbEntity
  8
CURVE
100
AcDbLine
 62
253
  6
CONTINUOUS
 10
-8.5214284223
 20
12.2095238686
 11
-8.149999873
 21
12.0238090515
  0
LINE
  5
558
100
AcDbEntity
  8
SMUSSO
100
AcDbLine
 62
7
  6
CONTINUOUS
 10
1.750000127
 20
7.15
 11
2.3273503962
 21
6.5726497308
  0
LINE
  5
559
100
AcDbEntity
  8
ASSI
100
AcDbLine
 62
7
  6
CONTINUOUS
 10
1.750000127
 20
7.15
 11
2.3273503962
 21
6.5726497308
  0
LINE
  5
55A
100
AcDbEntity
  8
RACCORDO
100
AcDbLine
 62
253
  6
CONTINUOUS
 10
-9.1937064679
 20
18.1038272153
 11
-9.9007055533
 21
18.8108263007
  0
LINE
  5
55B
100
AcDbEntity
  8
ASSI
100
AcDbLine
 62
253
  6
CONTINUOUS
 10
-9.1937064679
 20
18.1038272153
 11
-9.9007055533
 21
18.8108263007
  0
LINE
  5
55C
100
AcDbEntity
  8
RACCORDO
100
AcDbLine
 62
253
  6
CONTINUOUS
 10
-9.1754486604
 20
18.1220850228
 11
-9.8824477458
 21
18.8290841082
  0
LINE
  5
55D
100
AcDbEntity
  8
ASSI
100
AcDbLine
 62
253
  6
CONTINUOUS
 10
-9.1754486604
 20
18.1220850228
 11
-9.8824477458
 21
18.8290841082
  0
LINE
  5
55E
100
AcDbEntity
  8
SMUSSO
100
AcDbLine
 62
7
  6
CONTINUOUS
 10
-5.249999873
 20
15.45
 11
-5.8273501422
 21
16.0273502692
  0
LINE
  5
55F
100
AcDbEntity
  8
ASSI
100
AcDbLine
 62
7
  6
CONTINUOUS
 10
-5.249999873
 20
15.45
 11
-5.8273501422
 21
16.0273502692
  0
LINE
  5
560
100
AcDbEntity
  8
CURVE
100
AcDbLine
 62
253
  6
CONTINUOUS
 10
10.7974078155
 20
-13.6785711288
 11
10.774716231
 21
-13.3071433544
  0
LINE
  5
561
100
AcDbEntity
  8
ASSI
100
AcDbLine
 62
7
  6
CONTINUOUS
 10
11.1329827348
 20
-18.1473460386
 11
11.150000127
 21
-18.491183651
  0
LINE
  5
562
100
AcDbEntity
  8
0
100
AcDbLine
 62
7
  6
CONTINUOUS
 10
11.1329827348
 20
-18.1473460386
 11
11.1504364704
 21
-18.5
  0
LINE
  5
563
100
AcDbEntity
  8
CURVE
100
AcDbLine
 62
253
  6
CONTINUOUS
 10
10.7974078155
 20
-16.0000007629
 11
10.7876828513
 21
-15.6285711288
  0
LINE
  5
564
100
AcDbEntity
  8
ASSI
100
AcDbLine
 62
253
  6
CONTINUOUS
 10
9.8956325238
 20
23.6278312164
 11
9.9007231249
 21
23.1226497308
  0
LINE
  5
565
100
AcDbEntity
  8
0
100
AcDbLine
 62
253
  6
CONTINUOUS
 10
9.8956325238
 20
23.6278312164
 11
9.9007231249
 21
23.1226497308
  0
LINE
  5
566
100
AcDbEntity
  8
ASSI
100
AcDbLine
 62
253
  6
CONTINUOUS
 10
10.145628293
 20
23.8443375673
 11
10.150000127
 21
23.4104851482
  0
LINE
  5
567
100
AcDbEntity
  8
0
100
AcDbLine
 62
253
  6
CONTINUOUS
 10
10.145628293
 20
23.8443375673
 11
10.150000127
 21
23.4104851482
  0
LINE
  5
568
100
AcDbEntity
  8
0
100
AcDbLine
 62
7
  6
CONTINUOUS
 10
8.000000127
 20
-0.6
 11
8.000000127
 21
-2.3
  0
LINE
  5
569
100
AcDbEntity
  8
SMUSSO
100
AcDbLine
 62
7
  6
CONTINUOUS
 10
8.000000127
 20
-2.3
 11
8.000000127
 21
-3.1
  0
LINE
  5
56A
100
AcDbEntity
  8
ASSI
100
AcDbLine
 62
253
  6
CONTINUOUS
 10
8.0665696288
 20
21.5834304982
 11
8.0665696288
 21
20.9
  0
LINE
  5
56B
100
AcDbEntity
  8
0
100
AcDbLine
 62
253
  6
CONTINUOUS
 10
8.0665696288
 20
21.5834304982
 11
8.0665696288
 21
20.9
  0
LINE
  5
56C
100
AcDbEntity
  8
ASSI
100
AcDbLine
 62
253
  6
CONTINUOUS
 10
8.0665696288
 20
-20.9
 11
8.0665696288
 21
-21.5834304982
  0
LINE
  5
56D
100
AcDbEntity
  8
0
100
AcDbLine
 62
253
  6
CONTINUOUS
 10
8.0665696288
 20
-20.9
 11
8.0665696288
 21
-21.5834304982
  0
LINE
  5
56E
100
AcDbEntity
  8
DRAFT
100
AcDbLine
 62
7
  6
CONTINUOUS
 10
8.100000127
 20
-1.5148356752
 11
8.100000127
 21
-2.9144766957
  0
LINE
  5
56F
100
AcDbEntity
  8
ASSI
100
AcDbLine
 62
7
  6
CONTINUOUS
 10
8.100000127
 20
-1.5148356752
 11
8.100000127
 21
-2.9144766957
  0
LINE
  5
570
100
AcDbEntity
  8
SMUSSO
100
AcDbLine
 62
7
  6
CONTINUOUS
 10
8.1176697431
 20
-2.5720953298
 11
8.1176697431
 21
0.2176696161
  0
LINE
  5
571
100
AcDbEntity
  8
ASSI
100
AcDbLine
 62
7
  6
CONTINUOUS
 10
8.1176697431
 20
-2.5720953298
 11
8.1176697431
 21
0.2176696161
  0
LINE
  5
572
100
AcDbEntity
  8
ASSI
100
AcDbLine
 62
7
  6
CONTINUOUS
 10
8.250000127
 20
21.4
 11
8.250000127
 21
20.9
  0
LINE
  5
573
100
AcDbEntity
  8
0
100
AcDbLine
 62
7
  6
CONTINUOUS
 10
8.250000127
 20
21.4
 11
8.250000127
 21
20.9
  0
LINE
  5
574
100
AcDbEntity
  8
ASSI
100
AcDbLine
 62
7
  6
CONTINUOUS
 10
8.250000127
 20
-20.9
 11
8.250000127
 21
-21.4
  0
LINE
  5
575
100
AcDbEntity
  8
0
100
AcDbLine
 62
7
  6
CONTINUOUS
 10
8.250000127
 20
-20.9
 11
8.250000127
 21
-21.4
  0
LINE
  5
576
100
AcDbEntity
  8
SMUSSO
100
AcDbLine
 62
7
  6
CONTINUOUS
 10
8.600000127
 20
0.7
 11
8.600000127
 21
-1.8909141526
  0
LINE
  5
577
100
AcDbEntity
  8
ASSI
100
AcDbLine
 62
7
  6
CONTINUOUS
 10
8.600000127
 20
0.7
 11
8.600000127
 21
-1.8909141526
  0
LINE
  5
578
100
AcDbEntity
  8
SUPERFICI
100
AcDbLine
 62
253
  6
CONTINUOUS
 10
9.1754489144
 20
-18.1220850228
 11
9.1754489144
 21
-19.121932718
  0
LINE
  5
579
100
AcDbEntity
  8
RACCORDO
100
AcDbLine
 62
253
  6
CONTINUOUS
 10
9.1754489144
 20
18.1220850228
 11
9.1754489144
 21
19.121932718
  0
LINE
  5
57A
100
AcDbEntity
  8
ASSI
100
AcDbLine
 62
253
  6
CONTINUOUS
 10
9.1754489144
 20
18.1220850228
 11
9.1754489144
 21
19.121932718
  0
LINE
  5
57B
100
AcDbEntity
  8
ASSI
100
AcDbLine
 62
7
  6
CONTINUOUS
 10
9.350000127
 20
15.9
 11
9.350000127
 21
11.7
  0
LINE
  5
57C
100
AcDbEntity
  8
ASSI
100
AcDbLine
 62
7
  6
CONTINUOUS
 10
9.350000127
 20
10.9
 11
9.350000127
 21
6.7
  0
LINE
  5
57D
100
AcDbEntity
  8
0
100
AcDbLine
 62
253
  6
CONTINUOUS
 10
9.4865553317
 20
-3.1
 11
9.4865553317
 21
-17.3968281299
  0
LINE
  5
57E
100
AcDbEntity
  8
RACCORDO
100
AcDbLine
 62
253
  6
CONTINUOUS
 10
9.4865553317
 20
-1.8909141526
 11
9.4865553317
 21
6.7
  0
LINE
  5
57F
100
AcDbEntity
  8
ASSI
100
AcDbLine
 62
253
  6
CONTINUOUS
 10
9.4865553317
 20
-1.8909141526
 11
9.4865553317
 21
6.7
  0
LINE
  5
580
100
AcDbEntity
  8
RACCORDO
100
AcDbLine
 62
253
  6
CONTINUOUS
 10
9.4865553317
 20
10.9
 11
9.4865553317
 21
11.7
  0
LINE
  5
581
100
AcDbEntity
  8
ASSI
100
AcDbLine
 62
253
  6
CONTINUOUS
 10
9.4865553317
 20
10.9
 11
9.4865553317
 21
11.7
  0
LINE
  5
582
100
AcDbEntity
  8
RACCORDO
100
AcDbLine
 62
253
  6
CONTINUOUS
 10
9.4865553317
 20
15.9
 11
9.4865553317
 21
17.3968281299
  0
LINE
  5
583
100
AcDbEntity
  8
ASSI
100
AcDbLine
 62
253
  6
CONTINUOUS
 10
9.4865553317
 20
15.9
 11
9.4865553317
 21
17.3968281299
  0
LINE
  5
584
100
AcDbEntity
  8
ASSI
100
AcDbLine
 62
7
  6
CONTINUOUS
 10
9.5121051141
 20
6.7
 11
9.5121051141
 21
10.9
  0
LINE
  5
585
100
AcDbEntity
  8
0
100
AcDbLine
 62
7
  6
CONTINUOUS
 10
9.5121051141
 20
6.7
 11
9.5121051141
 21
10.9
  0
LINE
  5
586
100
AcDbEntity
  8
ASSI
100
AcDbLine
 62
7
  6
CONTINUOUS
 10
9.5121051141
 20
11.7
 11
9.5121051141
 21
12.5132676422
  0
LINE
  5
587
100
AcDbEntity
  8
0
100
AcDbLine
 62
7
  6
CONTINUOUS
 10
9.5121051141
 20
11.7
 11
9.5121051141
 21
12.5132676422
  0
LINE
  5
588
100
AcDbEntity
  8
ASSI
100
AcDbLine
 62
7
  6
CONTINUOUS
 10
9.650000127
 20
20.1990396502
 11
9.650000127
 21
20.0
  0
LINE
  5
589
100
AcDbEntity
  8
0
100
AcDbLine
 62
7
  6
CONTINUOUS
 10
9.650000127
 20
20.1990396502
 11
9.650000127
 21
20.0
  0
LINE
  5
58A
100
AcDbEntity
  8
ASSI
100
AcDbLine
 62
7
  6
CONTINUOUS
 10
9.650000127
 20
-20.0
 11
9.650000127
 21
-20.1990396502
  0
LINE
  5
58B
100
AcDbEntity
  8
0
100
AcDbLine
 62
7
  6
CONTINUOUS
 10
9.650000127
 20
-20.0
 11
9.650000127
 21
-20.1990396502
  0
LINE
  5
58C
100
AcDbEntity
  8
ASSI
100
AcDbLine
 62
253
  6
CONTINUOUS
 10
9.8956325238
 20
-23.6278312164
 11
9.8956325238
 21
-24.495628166
  0
LINE
  5
58D
100
AcDbEntity
  8
0
100
AcDbLine
 62
253
  6
CONTINUOUS
 10
9.8956325238
 20
-23.6278312164
 11
9.8956325238
 21
-24.495628166
  0
LINE
  5
58E
100
AcDbEntity
  8
ASSI
100
AcDbLine
 62
253
  6
CONTINUOUS
 10
9.8956325238
 20
23.6278312164
 11
9.8956325238
 21
24.495628166
  0
LINE
  5
58F
100
AcDbEntity
  8
0
100
AcDbLine
 62
253
  6
CONTINUOUS
 10
9.8956325238
 20
23.6278312164
 11
9.8956325238
 21
24.495628166
  0
LINE
  5
590
100
AcDbEntity
  8
ASSI
100
AcDbLine
 62
7
  6
CONTINUOUS
 10
10.145628293
 20
-24.2456323968
 11
10.145628293
 21
-23.8443375673
  0
LINE
  5
591
100
AcDbEntity
  8
0
100
AcDbLine
 62
7
  6
CONTINUOUS
 10
10.145628293
 20
-24.2456323968
 11
10.145628293
 21
-23.8443375673
  0
LINE
  5
592
100
AcDbEntity
  8
ASSI
100
AcDbLine
 62
7
  6
CONTINUOUS
 10
10.145628293
 20
23.8443375673
 11
10.145628293
 21
24.2456323968
  0
LINE
  5
593
100
AcDbEntity
  8
0
100
AcDbLine
 62
7
  6
CONTINUOUS
 10
10.145628293
 20
23.8443375673
 11
10.145628293
 21
24.2456323968
  0
LINE
  5
594
100
AcDbEntity
  8
ASSI
100
AcDbLine
 62
7
  6
CONTINUOUS
 10
10.150000127
 20
-22.4
 11
10.150000127
 21
-23.8443375673
  0
LINE
  5
595
100
AcDbEntity
  8
0
100
AcDbLine
 62
7
  6
CONTINUOUS
 10
10.150000127
 20
-22.4
 11
10.150000127
 21
-23.8443375673
  0
LINE
  5
596
100
AcDbEntity
  8
ASSI
100
AcDbLine
 62
7
  6
CONTINUOUS
 10
10.150000127
 20
22.4
 11
10.150000127
 21
23.8443375673
  0
LINE
  5
597
100
AcDbEntity
  8
0
100
AcDbLine
 62
7
  6
CONTINUOUS
 10
10.150000127
 20
22.4
 11
10.150000127
 21
23.8443375673
  0
LINE
  5
598
100
AcDbEntity
  8
SMUSSO
100
AcDbLine
 62
7
  6
CONTINUOUS
 10
8.1148361345
 20
-2.8996406881
 11
8.1176697431
 21
-2.5720953298
  0
LINE
  5
599
100
AcDbEntity
  8
ASSI
100
AcDbLine
 62
7
  6
CONTINUOUS
 10
8.1148361345
 20
-2.8996406881
 11
8.1176697431
 21
-2.5720953298
  0
LINE
  5
59A
100
AcDbEntity
  8
ASSI
100
AcDbLine
 62
253
  6
CONTINUOUS
 10
9.9007231249
 20
-23.1226497308
 11
9.8956325238
 21
-23.6278312164
  0
LINE
  5
59B
100
AcDbEntity
  8
0
100
AcDbLine
 62
253
  6
CONTINUOUS
 10
9.9007231249
 20
-23.1226497308
 11
9.8956325238
 21
-23.6278312164
  0
LINE
  5
59C
100
AcDbEntity
  8
ASSI
100
AcDbLine
 62
253
  6
CONTINUOUS
 10
10.150000127
 20
-23.4104851482
 11
10.145628293
 21
-23.8443375673
  0
LINE
  5
59D
100
AcDbEntity
  8
0
100
AcDbLine
 62
253
  6
CONTINUOUS
 10
10.150000127
 20
-23.4104851482
 11
10.145628293
 21
-23.8443375673
  0
LINE
  5
59E
100
AcDbEntity
  8
ASSI
100
AcDbLine
 62
7
  6
CONTINUOUS
 10
11.1329827348
 20
18.1473460386
 11
11.150000127
 21
18.491183651
  0
LINE
  5
59F
100
AcDbEntity
  8
0
100
AcDbLine
 62
7
  6
CONTINUOUS
 10
11.1329827348
 20
18.1473460386
 11
11.1504364704
 21
18.5
  0
LINE
  5
5A0
100
AcDbEntity
  8
CURVE
100
AcDbLine
 62
253
  6
CONTINUOUS
 10
11.1047506116
 20
16.00026
 11
11.0541369802
 21
15.081013
  0
LINE
  5
5A1
100
AcDbEntity
  8
CURVE
100
AcDbLine
 62
253
  6
CONTINUOUS
 10
11.069911681
 20
14.790021
 11
11.1047506116
 21
15.342748
  0
LINE
  5
5A2
100
AcDbEntity
  8
CURVE
100
AcDbLine
 62
253
  6
CONTINUOUS
 10
11.0541369802
 20
9.519077
 11
11.1047506116
 21
9.790227
  0
LINE
  5
5A3
100
AcDbEntity
  8
CURVE
100
AcDbLine
 62
253
  6
CONTINUOUS
 10
11.087048959
 20
10.235548
 11
11.0541369802
 21
10.111193
  0
LINE
  5
5A4
100
AcDbEntity
  8
SMUSSO
100
AcDbLine
 62
7
  6
CONTINUOUS
 10
8.1176697431
 20
-2.5720953298
 11
8.600000127
 21
-1.8909141526
  0
LINE
  5
5A5
100
AcDbEntity
  8
ASSI
100
AcDbLine
 62
7
  6
CONTINUOUS
 10
8.1176697431
 20
-2.5720953298
 11
8.600000127
 21
-1.8909141526
  0
LINE
  5
5A6
100
AcDbEntity
  8
CURVE
100
AcDbLine
 62
253
  6
CONTINUOUS
 10
5.000000127
 20
8.5
 11
3.100000127
 21
8.5
  0
LINE
  5
5A7
100
AcDbEntity
  8
CURVE
100
AcDbLine
 62
253
  6
CONTINUOUS
 10
-8.2428570491
 20
9.0833329201
 11
-8.799999873
 21
9.0833329201
  0
LINE
  5
5A8
100
AcDbEntity
  8
CURVE
100
AcDbLine
 62
253
  6
CONTINUOUS
 10
5.000000127
 20
9.45
 11
3.100000127
 21
9.45
  0
LINE
  5
5A9
100
AcDbEntity
  8
CURVE
100
AcDbLine
 62
253
  6
CONTINUOUS
 10
-7.685714167
 20
9.6404761314
 11
-8.0571427357
 21
9.6404761314
  0
LINE
  5
5AA
100
AcDbEntity
  8
CURVE
100
AcDbLine
 62
253
  6
CONTINUOUS
 10
-7.871428461
 20
10.0119045258
 11
-8.4285713237
 21
10.0119045258
  0
LINE
  5
5AB
100
AcDbEntity
  8
0
100
AcDbLine
 62
7
  6
CONTINUOUS
 10
-4.499999873
 20
10.1
 11
1.750000127
 21
10.1
  0
LINE
  5
5AC
100
AcDbEntity
  8
CURVE
100
AcDbLine
 62
253
  6
CONTINUOUS
 10
-8.4285713237
 20
13.0452386856
 11
-8.6142855984
 21
13.1380954742
  0
LINE
  5
5AD
100
AcDbEntity
  8
CURVE
100
AcDbLine
 62
253
  6
CONTINUOUS
 10
-7.871428461
 20
13.6952386856
 11
-7.685714167
 21
13.6023806572
  0
LINE
  5
5AE
100
AcDbEntity
  8
CURVE
100
AcDbLine
 62
253
  6
CONTINUOUS
 10
-8.4285713237
 20
15.6452386856
 11
-7.499999873
 21
15.0880954742
  0
LINE
  5
5AF
100
AcDbEntity
  8
SMUSSO
100
AcDbLine
 62
7
  6
CONTINUOUS
 10
1.750000127
 20
12.15
 11
2.3273503962
 21
11.5726497308
  0
LINE
  5
5B0
100
AcDbEntity
  8
ASSI
100
AcDbLine
 62
7
  6
CONTINUOUS
 10
1.750000127
 20
12.15
 11
2.3273503962
 21
11.5726497308
  0
LINE
  5
5B1
100
AcDbEntity
  8
CURVE
100
AcDbLine
 62
253
  6
CONTINUOUS
 10
11.0720599107
 20
8.5345
 11
11.0908432712
 21
8.233126
  0
LINE
  5
5B2
100
AcDbEntity
  8
CURVE
100
AcDbLine
 62
253
  6
CONTINUOUS
 10
11.1047506116
 20
14.22041
 11
11.069911681
 21
14.790021
  0
LINE
  5
5B3
100
AcDbEntity
  8
CURVE
100
AcDbLine
 62
253
  6
CONTINUOUS
 10
10.7974078155
 20
-4.6095241666
 11
10.774716231
 21
-4.2380955398
  0
LINE
  5
5B4
100
AcDbEntity
  8
CURVE
100
AcDbLine
 62
253
  6
CONTINUOUS
 10
11.0541369802
 20
8.825329
 11
11.0642412635
 21
8.658312
  0
LINE
  5
5B5
100
AcDbEntity
  8
CURVE
100
AcDbLine
 62
253
  6
CONTINUOUS
 10
11.1047506116
 20
8.514517
 11
11.0541369802
 21
9.424033
  0
LINE
  5
5B6
100
AcDbEntity
  8
CURVE
100
AcDbLine
 62
253
  6
CONTINUOUS
 10
11.0541369802
 20
14.547617
 11
11.1047506116
 21
13.615552
  0
LINE
  5
5B7
100
AcDbEntity
  8
CURVE
100
AcDbLine
 62
253
  6
CONTINUOUS
 10
11.1047506116
 20
10.389084
 11
11.0766497724
 21
10.994355
  0
LINE
  5
5B8
100
AcDbEntity
  8
CURVE
100
AcDbLine
 62
253
  6
CONTINUOUS
 10
11.0541369802
 20
10.955216
 11
11.087048959
 21
10.235548
  0
LINE
  5
5B9
100
AcDbEntity
  8
CURVE
100
AcDbLine
 62
253
  6
CONTINUOUS
 10
11.0041478736
 20
-15.9999991179
 11
10.9994107917
 21
-15.8642848969
  0
LINE
  5
5BA
100
AcDbEntity
  8
CURVE
100
AcDbLine
 62
253
  6
CONTINUOUS
 10
11.018359119
 20
-15.0499991179
 11
11.0230962005
 21
-15.1857133389
  0
LINE
  5
5BB
100
AcDbEntity
  8
CURVE
100
AcDbLine
 62
253
  6
CONTINUOUS
 10
11.0041478736
 20
-11.6571420074
 11
10.9994107917
 21
-11.5214277864
  0
LINE
  5
5BC
100
AcDbEntity
  8
CURVE
100
AcDbLine
 62
253
  6
CONTINUOUS
 10
11.018359119
 20
-10.7071420074
 11
11.0230962005
 21
-10.8428563416
  0
LINE
  5
5BD
100
AcDbEntity
  8
CURVE
100
AcDbLine
 62
253
  6
CONTINUOUS
 10
10.7974078155
 20
-3.8666669905
 11
10.7844411959
 21
-3.4952384025
  0
LINE
  5
5BE
100
AcDbEntity
  8
CURVE
100
AcDbLine
 62
253
  6
CONTINUOUS
 10
11.0230962005
 20
-13.6476180792
 11
11.0278332819
 21
-13.8285706758
  0
LINE
  5
5BF
100
AcDbEntity
  8
CURVE
100
AcDbLine
 62
253
  6
CONTINUOUS
 10
11.0278332819
 20
-9.4857134804
 11
11.0207276588
 21
-9.2142848969
  0
LINE
  5
5C0
100
AcDbEntity
  8
CURVE
100
AcDbLine
 62
253
  6
CONTINUOUS
 10
10.9946737097
 20
-9.2142848969
 11
11.018359119
 21
-10.1642848969
  0
LINE
  5
5C1
100
AcDbEntity
  8
CURVE
100
AcDbLine
 62
253
  6
CONTINUOUS
 10
10.5611410435
 20
0.2142857239
 11
10.5648814144
 21
-0.0
  0
LINE
  5
5C2
100
AcDbEntity
  8
CURVE
100
AcDbLine
 62
253
  6
CONTINUOUS
 10
10.5817130854
 20
0.2142857239
 11
10.5854534547
 21
-0.0
  0
LINE
  5
5C3
100
AcDbEntity
  8
CURVE
100
AcDbLine
 62
253
  6
CONTINUOUS
 10
10.5378260645
 20
2.8571428955
 11
10.5415664353
 21
2.6428571492
  0
LINE
  5
5C4
100
AcDbEntity
  8
CURVE
100
AcDbLine
 62
253
  6
CONTINUOUS
 10
10.5704919714
 20
1.2857142985
 11
10.5667516006
 21
1.5
  0
LINE
  5
5C5
100
AcDbEntity
  8
CURVE
100
AcDbLine
 62
253
  6
CONTINUOUS
 10
10.5910640117
 20
1.2857142985
 11
10.5873236425
 21
1.5
  0
LINE
  5
5C6
100
AcDbEntity
  8
CURVE
100
AcDbLine
 62
253
  6
CONTINUOUS
 10
10.5583981041
 20
3.5
 11
10.5621384765
 21
3.2857142985
  0
LINE
  5
5C7
100
AcDbEntity
  8
CURVE
100
AcDbLine
 62
253
  6
CONTINUOUS
 10
10.6172466123
 20
0.9642857015
 11
10.6153764214
 21
1.071428597
  0
LINE
  5
5C8
100
AcDbEntity
  8
CURVE
100
AcDbLine
 62
253
  6
CONTINUOUS
 10
10.5879470363
 20
4.0
 11
10.5842066655
 21
4.2142857239
  0
LINE
  5
5C9
100
AcDbEntity
  8
CURVE
100
AcDbLine
 62
253
  6
CONTINUOUS
 10
10.774716231
 20
-5.816666913
 11
10.7779578861
 21
-6.0023811102
  0
LINE
  5
5CA
100
AcDbEntity
  8
CURVE
100
AcDbLine
 62
253
  6
CONTINUOUS
 10
10.9994107917
 20
-15.8642848969
 11
10.9946737097
 21
-15.5928564548
  0
LINE
  5
5CB
100
AcDbEntity
  8
CURVE
100
AcDbLine
 62
253
  6
CONTINUOUS
 10
10.9994107917
 20
-14.5071422338
 11
10.9946737097
 21
-14.2357133389
  0
LINE
  5
5CC
100
AcDbEntity
  8
CURVE
100
AcDbLine
 62
253
  6
CONTINUOUS
 10
11.0230962005
 20
-15.1857133389
 11
11.0278332819
 21
-15.4571422338
  0
LINE
  5
5CD
100
AcDbEntity
  8
CURVE
100
AcDbLine
 62
253
  6
CONTINUOUS
 10
10.9946737097
 20
-12.7428562284
 11
10.9994107917
 21
-13.0142848969
  0
LINE
  5
5CE
100
AcDbEntity
  8
CURVE
100
AcDbLine
 62
253
  6
CONTINUOUS
 10
11.0088849551
 20
-13.5571422338
 11
11.0136220375
 21
-13.8285706758
  0
LINE
  5
5CF
100
AcDbEntity
  8
CURVE
100
AcDbLine
 62
253
  6
CONTINUOUS
 10
10.9994107917
 20
-11.5214277864
 11
10.9946737097
 21
-11.2499991179
  0
LINE
  5
5D0
100
AcDbEntity
  8
CURVE
100
AcDbLine
 62
253
  6
CONTINUOUS
 10
11.0230962005
 20
-10.8428563416
 11
11.0278332819
 21
-11.1142848969
  0
LINE
  5
5D1
100
AcDbEntity
  8
RACCORDO
100
AcDbLine
 62
7
  6
CONTINUOUS
 10
10.4864030268
 20
-2.882073723
 11
10.4867069951
 21
-2.8996406881
  0
LINE
  5
5D2
100
AcDbEntity
  8
ASSI
100
AcDbLine
 62
7
  6
CONTINUOUS
 10
10.4864030268
 20
-2.882073723
 11
10.4867069951
 21
-2.8996406881
  0
LINE
  5
5D3
100
AcDbEntity
  8
CURVE
100
AcDbLine
 62
7
  6
CONTINUOUS
 10
11.082569553
 20
-8.371575
 11
11.1046262095
 21
-9.656836
  0
LINE
  5
5D4
100
AcDbEntity
  8
CURVE
100
AcDbLine
 62
7
  6
CONTINUOUS
 10
11.1046262095
 20
-10.35105
 11
11.0838095322
 21
-9.10422
  0
LINE
  5
5D5
100
AcDbEntity
  8
CURVE
100
AcDbLine
 62
7
  6
CONTINUOUS
 10
11.077595415
 20
-8.741819
 11
11.0715700867
 21
-8.371575
  0
LINE
  5
5D6
100
AcDbEntity
  8
CURVE
100
AcDbLine
 62
253
  6
CONTINUOUS
 10
10.5378260645
 20
3.5
 11
10.5409430402
 21
3.2857142985
  0
LINE
  5
5D7
100
AcDbEntity
  8
CURVE
100
AcDbLine
 62
253
  6
CONTINUOUS
 10
11.0159905773
 20
-14.4166659355
 11
11.0136220375
 21
-14.2357133389
  0
LINE
  5
5D8
100
AcDbEntity
  8
CURVE
100
AcDbLine
 62
253
  6
CONTINUOUS
 10
10.6197401876
 20
4.0
 11
10.6047787074
 21
5.5
  0
LINE
  5
5D9
100
AcDbEntity
  8
CURVE
100
AcDbLine
 62
253
  6
CONTINUOUS
 10
10.5592708589
 20
0.4285714477
 11
10.5611410435
 21
0.2142857239
  0
LINE
  5
5DA
100
AcDbEntity
  8
CURVE
100
AcDbLine
 62
253
  6
CONTINUOUS
 10
10.572362156
 20
1.071428597
 11
10.5704919714
 21
1.2857142985
  0
LINE
  5
5DB
100
AcDbEntity
  8
CURVE
100
AcDbLine
 62
253
  6
CONTINUOUS
 10
10.5798428977
 20
0.4285714477
 11
10.5817130854
 21
0.2142857239
  0
LINE
  5
5DC
100
AcDbEntity
  8
CURVE
100
AcDbLine
 62
253
  6
CONTINUOUS
 10
10.5929341964
 20
1.071428597
 11
10.5910640117
 21
1.2857142985
  0
LINE
  5
5DD
100
AcDbEntity
  8
CURVE
100
AcDbLine
 62
253
  6
CONTINUOUS
 10
10.5770999598
 20
2.0
 11
10.5696192181
 21
3.5
  0
LINE
  5
5DE
100
AcDbEntity
  8
CURVE
100
AcDbLine
 62
253
  6
CONTINUOUS
 10
10.5767259238
 20
4.0
 11
10.5692451814
 21
5.5
  0
LINE
  5
5DF
100
AcDbEntity
  8
CURVE
100
AcDbLine
 62
253
  6
CONTINUOUS
 10
10.6396888341
 20
-0.0
 11
10.6322080956
 21
1.5
  0
LINE
  5
5E0
100
AcDbEntity
  8
0
100
AcDbLine
 62
253
  6
CONTINUOUS
 10
10.4864030268
 20
-3.1
 11
10.4864030268
 21
-17.3968249552
  0
LINE
  5
5E1
100
AcDbEntity
  8
RACCORDO
100
AcDbLine
 62
253
  6
CONTINUOUS
 10
10.4864030268
 20
-2.882073723
 11
10.4864030268
 21
6.7
  0
LINE
  5
5E2
100
AcDbEntity
  8
ASSI
100
AcDbLine
 62
253
  6
CONTINUOUS
 10
10.4864030268
 20
-2.882073723
 11
10.4864030268
 21
6.7
  0
LINE
  5
5E3
100
AcDbEntity
  8
RACCORDO
100
AcDbLine
 62
253
  6
CONTINUOUS
 10
10.4864030268
 20
10.9
 11
10.4864030268
 21
11.7
  0
LINE
  5
5E4
100
AcDbEntity
  8
ASSI
100
AcDbLine
 62
253
  6
CONTINUOUS
 10
10.4864030268
 20
10.9
 11
10.4864030268
 21
11.7
  0
LINE
  5
5E5
100
AcDbEntity
  8
RACCORDO
100
AcDbLine
 62
253
  6
CONTINUOUS
 10
10.4864030268
 20
15.9
 11
10.4864030268
 21
17.3968249551
  0
LINE
  5
5E6
100
AcDbEntity
  8
ASSI
100
AcDbLine
 62
253
  6
CONTINUOUS
 10
10.4864030268
 20
15.9
 11
10.4864030268
 21
17.3968249551
  0
LINE
  5
5E7
100
AcDbEntity
  8
CURVE
100
AcDbLine
 62
253
  6
CONTINUOUS
 10
10.5409430402
 20
3.2857142985
 11
10.5409430402
 21
2.9642857015
  0
LINE
  5
5E8
100
AcDbEntity
  8
CURVE
100
AcDbLine
 62
253
  6
CONTINUOUS
 10
10.5415664353
 20
2.6428571492
 11
10.5415664353
 21
2.1071428619
  0
LINE
  5
5E9
100
AcDbEntity
  8
CURVE
100
AcDbLine
 62
253
  6
CONTINUOUS
 10
10.547800387
 20
-2.0
 11
10.547800387
 21
-1.0
  0
LINE
  5
5EA
100
AcDbEntity
  8
CURVE
100
AcDbLine
 62
253
  6
CONTINUOUS
 10
10.5517901164
 20
-0.0
 11
10.5517901164
 21
1.5
  0
LINE
  5
5EB
100
AcDbEntity
  8
CURVE
100
AcDbLine
 62
253
  6
CONTINUOUS
 10
10.5592708589
 20
1.071428597
 11
10.5592708589
 21
0.4285714477
  0
LINE
  5
5EC
100
AcDbEntity
  8
CURVE
100
AcDbLine
 62
253
  6
CONTINUOUS
 10
10.5621384765
 20
3.2857142985
 11
10.5621384765
 21
3.071428597
  0
LINE
  5
5ED
100
AcDbEntity
  8
CURVE
100
AcDbLine
 62
253
  6
CONTINUOUS
 10
10.572362156
 20
0.4285714477
 11
10.572362156
 21
1.071428597
  0
LINE
  5
5EE
100
AcDbEntity
  8
CURVE
100
AcDbLine
 62
253
  6
CONTINUOUS
 10
10.5798428977
 20
1.071428597
 11
10.5798428977
 21
0.4285714477
  0
LINE
  5
5EF
100
AcDbEntity
  8
CURVE
100
AcDbLine
 62
253
  6
CONTINUOUS
 10
10.5842066655
 20
4.2142857239
 11
10.5842066655
 21
5.5
  0
LINE
  5
5F0
100
AcDbEntity
  8
CURVE
100
AcDbLine
 62
253
  6
CONTINUOUS
 10
10.5929341964
 20
0.4285714477
 11
10.5929341964
 21
1.071428597
  0
LINE
  5
5F1
100
AcDbEntity
  8
CURVE
100
AcDbLine
 62
253
  6
CONTINUOUS
 10
10.5972979626
 20
5.5
 11
10.5972979626
 21
4.2142857239
  0
LINE
  5
5F2
100
AcDbEntity
  8
CURVE
100
AcDbLine
 62
253
  6
CONTINUOUS
 10
10.600414938
 20
1.071428597
 11
10.600414938
 21
-0.0
  0
LINE
  5
5F3
100
AcDbEntity
  8
CURVE
100
AcDbLine
 62
253
  6
CONTINUOUS
 10
10.6085190756
 20
-0.0
 11
10.6085190756
 21
1.071428597
  0
LINE
  5
5F4
100
AcDbEntity
  8
CURVE
100
AcDbLine
 62
253
  6
CONTINUOUS
 10
10.6172466123
 20
-0.0
 11
10.6172466123
 21
0.9642857015
  0
LINE
  5
5F5
100
AcDbEntity
  8
0
100
AcDbLine
 62
7
  6
CONTINUOUS
 10
10.6856953999
 20
-3.1
 11
10.6856953999
 21
-17.4793777337
  0
LINE
  5
5F6
100
AcDbEntity
  8
CURVE
100
AcDbLine
 62
253
  6
CONTINUOUS
 10
10.6874409064
 20
5.0
 11
10.6874409064
 21
-0.0
  0
LINE
  5
5F7
100
AcDbEntity
  8
ASSI
100
AcDbLine
 62
7
  6
CONTINUOUS
 10
10.6874409064
 20
-3.0
 11
10.6874409064
 21
-17.4801007461
  0
LINE
  5
5F8
100
AcDbEntity
  8
RACCORDO
100
AcDbLine
 62
7
  6
CONTINUOUS
 10
10.6874409064
 20
-3.0
 11
10.6874409064
 21
-17.4801007461
  0
LINE
  5
5F9
100
AcDbEntity
  8
CURVE
100
AcDbLine
 62
253
  6
CONTINUOUS
 10
10.7092597376
 20
3.75
 11
10.7092597376
 21
1.25
  0
LINE
  5
5FA
100
AcDbEntity
  8
CURVE
100
AcDbLine
 62
253
  6
CONTINUOUS
 10
10.7528973999
 20
1.25
 11
10.7528973999
 21
3.75
  0
LINE
  5
5FB
100
AcDbEntity
  8
CURVE
100
AcDbLine
 62
253
  6
CONTINUOUS
 10
10.774716231
 20
-5.3523812652
 11
10.774716231
 21
-5.816666913
  0
LINE
  5
5FC
100
AcDbEntity
  8
CURVE
100
AcDbLine
 62
253
  6
CONTINUOUS
 10
10.774716231
 20
-6.5285717487
 11
10.774716231
 21
-7.0857146502
  0
LINE
  5
5FD
100
AcDbEntity
  8
CURVE
100
AcDbLine
 62
253
  6
CONTINUOUS
 10
10.774716231
 20
-14.8857143402
 11
10.774716231
 21
-14.4214291573
  0
LINE
  5
5FE
100
AcDbEntity
  8
CURVE
100
AcDbLine
 62
253
  6
CONTINUOUS
 10
10.774716231
 20
-0.0
 11
10.774716231
 21
5.0
  0
LINE
  5
5FF
100
AcDbEntity
  8
CURVE
100
AcDbLine
 62
253
  6
CONTINUOUS
 10
10.7811995412
 20
-13.9261904716
 11
10.7811995412
 21
-13.4309524059
  0
LINE
  5
600
100
AcDbEntity
  8
CURVE
100
AcDbLine
 62
253
  6
CONTINUOUS
 10
10.7811995412
 20
-4.8571431994
 11
10.7811995412
 21
-4.3619050562
  0
LINE
  5
601
100
AcDbEntity
  8
CURVE
100
AcDbLine
 62
253
  6
CONTINUOUS
 10
10.7876828513
 20
-6.5285717487
 11
10.7876828513
 21
-6.9000001431
  0
LINE
  5
602
100
AcDbEntity
  8
CURVE
100
AcDbLine
 62
253
  6
CONTINUOUS
 10
10.7974078155
 20
-12.9357143402
 11
10.7974078155
 21
-12.1928575516
  0
LINE
  5
603
100
AcDbEntity
  8
CURVE
100
AcDbLine
 62
253
  6
CONTINUOUS
 10
10.7974078155
 20
-7.0857146502
 11
10.7974078155
 21
-6.5285717487
  0
LINE
  5
604
100
AcDbEntity
  8
CURVE
100
AcDbLine
 62
253
  6
CONTINUOUS
 10
10.7974078155
 20
-5.816666913
 11
10.7974078155
 21
-5.3523812652
  0
LINE
  5
605
100
AcDbEntity
  8
CURVE
100
AcDbLine
 62
253
  6
CONTINUOUS
 10
10.8650119801
 20
-14.139499
 11
10.8650119801
 21
-15.6
  0
LINE
  5
606
100
AcDbEntity
  8
CURVE
100
AcDbLine
 62
253
  6
CONTINUOUS
 10
10.8781032788
 20
-15.6
 11
10.8781032788
 21
-14.139495888
  0
LINE
  5
607
100
AcDbEntity
  8
CURVE
100
AcDbLine
 62
253
  6
CONTINUOUS
 10
10.9946737097
 20
-12.1999991179
 11
10.9946737097
 21
-12.7428562284
  0
LINE
  5
608
100
AcDbEntity
  8
CURVE
100
AcDbLine
 62
253
  6
CONTINUOUS
 10
10.9946737097
 20
-15.5928564548
 11
10.9946737097
 21
-15.4571422338
  0
LINE
  5
609
100
AcDbEntity
  8
CURVE
100
AcDbLine
 62
253
  6
CONTINUOUS
 10
10.9946737097
 20
-14.2357133389
 11
10.9946737097
 21
-13.8285706758
  0
LINE
  5
60A
100
AcDbEntity
  8
CURVE
100
AcDbLine
 62
253
  6
CONTINUOUS
 10
10.9946737097
 20
-11.2499991179
 11
10.9946737097
 21
-11.1142848969
  0
LINE
  5
60B
100
AcDbEntity
  8
CURVE
100
AcDbLine
 62
253
  6
CONTINUOUS
 10
10.9946737097
 20
-10.1642848969
 11
10.9946737097
 21
-9.2142848969
  0
LINE
  5
60C
100
AcDbEntity
  8
CURVE
100
AcDbLine
 62
253
  6
CONTINUOUS
 10
11.0136220375
 20
-13.8285706758
 11
11.0136220375
 21
-14.2357133389
  0
LINE
  5
60D
100
AcDbEntity
  8
CURVE
100
AcDbLine
 62
253
  6
CONTINUOUS
 10
11.0136220375
 20
-12.7428562284
 11
11.0136220375
 21
-12.1999991179
  0
LINE
  5
60E
100
AcDbEntity
  8
CURVE
100
AcDbLine
 62
253
  6
CONTINUOUS
 10
11.0278332819
 20
-11.1142848969
 11
11.0278332819
 21
-11.2499991179
  0
LINE
  5
60F
100
AcDbEntity
  8
CURVE
100
AcDbLine
 62
253
  6
CONTINUOUS
 10
11.0278332819
 20
-12.1999991179
 11
11.0278332819
 21
-13.0142848969
  0
LINE
  5
610
100
AcDbEntity
  8
CURVE
100
AcDbLine
 62
253
  6
CONTINUOUS
 10
11.0278332819
 20
-13.8285706758
 11
11.0278332819
 21
-14.2357133389
  0
LINE
  5
611
100
AcDbEntity
  8
CURVE
100
AcDbLine
 62
253
  6
CONTINUOUS
 10
11.0278332819
 20
-15.4571422338
 11
11.0278332819
 21
-15.5928564548
  0
LINE
  5
612
100
AcDbEntity
  8
CURVE
100
AcDbLine
 62
253
  6
CONTINUOUS
 10
11.0278332819
 20
-9.8928563416
 11
11.0278332819
 21
-9.4857134804
  0
LINE
  5
613
100
AcDbEntity
  8
CURVE
100
AcDbLine
 62
7
  6
CONTINUOUS
 10
11.0540377487
 20
-16.001437
 11
11.0540377487
 21
-15.484078
  0
LINE
  5
614
100
AcDbEntity
  8
CURVE
100
AcDbLine
 62
7
  6
CONTINUOUS
 10
11.0540377487
 20
-14.158632
 11
11.0540377487
 21
-13.66021
  0
LINE
  5
615
100
AcDbEntity
  8
CURVE
100
AcDbLine
 62
7
  6
CONTINUOUS
 10
11.0540377487
 20
-10.357884
 11
11.0540377487
 21
-9.706581
  0
LINE
  5
616
100
AcDbEntity
  8
CURVE
100
AcDbLine
 62
7
  6
CONTINUOUS
 10
11.0540377487
 20
-8.371585
 11
11.0540377487
 21
-7.853838
  0
LINE
  5
617
100
AcDbEntity
  8
CURVE
100
AcDbLine
 62
7
  6
CONTINUOUS
 10
11.0540377487
 20
-7.238107
 11
11.0540377487
 21
-6.720338
  0
LINE
  5
618
100
AcDbEntity
  8
CURVE
100
AcDbLine
 62
7
  6
CONTINUOUS
 10
11.0540377487
 20
-6.097666
 11
11.0540377487
 21
-4.037094
  0
LINE
  5
619
100
AcDbEntity
  8
CURVE
100
AcDbLine
 62
253
  6
CONTINUOUS
 10
11.0541369802
 20
15.081013
 11
11.0541369802
 21
14.547617
  0
LINE
  5
61A
100
AcDbEntity
  8
CURVE
100
AcDbLine
 62
253
  6
CONTINUOUS
 10
11.0541369802
 20
12.459827
 11
11.0541369802
 21
11.880779
  0
LINE
  5
61B
100
AcDbEntity
  8
CURVE
100
AcDbLine
 62
253
  6
CONTINUOUS
 10
11.0541369802
 20
11.040105
 11
11.0541369802
 21
10.955216
  0
LINE
  5
61C
100
AcDbEntity
  8
CURVE
100
AcDbLine
 62
253
  6
CONTINUOUS
 10
11.0541369802
 20
10.111193
 11
11.0541369802
 21
9.519077
  0
LINE
  5
61D
100
AcDbEntity
  8
CURVE
100
AcDbLine
 62
253
  6
CONTINUOUS
 10
11.0541369802
 20
9.424033
 11
11.0541369802
 21
8.825329
  0
LINE
  5
61E
100
AcDbEntity
  8
CURVE
100
AcDbLine
 62
253
  6
CONTINUOUS
 10
11.0541369802
 20
7.677235
 11
11.0541369802
 21
7.039304
  0
LINE
  5
61F
100
AcDbEntity
  8
CURVE
100
AcDbLine
 62
253
  6
CONTINUOUS
 10
11.0541369741
 20
4.7496410148
 11
11.0541369741
 21
5.3318417383
  0
LINE
  5
620
100
AcDbEntity
  8
CURVE
100
AcDbLine
 62
253
  6
CONTINUOUS
 10
11.0541369741
 20
6.2587313832
 11
11.0541369741
 21
6.8615673444
  0
LINE
  5
621
100
AcDbEntity
  8
CURVE
100
AcDbLine
 62
253
  6
CONTINUOUS
 10
11.0541369802
 20
12.785664
 11
11.0541369802
 21
13.390935
  0
LINE
  5
622
100
AcDbEntity
  8
CURVE
100
AcDbLine
 62
7
  6
CONTINUOUS
 10
11.0620664477
 20
-4.554832
 11
11.0620667269
 21
-6.097666
  0
LINE
  5
623
100
AcDbEntity
  8
CURVE
100
AcDbLine
 62
253
  6
CONTINUOUS
 10
11.0642412635
 20
8.658312
 11
11.0642412635
 21
7.834033
  0
LINE
  5
624
100
AcDbEntity
  8
CURVE
100
AcDbLine
 62
253
  6
CONTINUOUS
 10
11.0720599107
 20
7.954996
 11
11.0720599107
 21
8.5345
  0
LINE
  5
625
100
AcDbEntity
  8
CURVE
100
AcDbLine
 62
253
  6
CONTINUOUS
 10
11.0739443554
 20
5.9341993273
 11
11.0739443554
 21
6.2587313832
  0
LINE
  5
626
100
AcDbEntity
  8
CURVE
100
AcDbLine
 62
7
  6
CONTINUOUS
 10
11.0759890086
 20
-5.982127
 11
11.0759888341
 21
-4.554832
  0
LINE
  5
627
100
AcDbEntity
  8
CURVE
100
AcDbLine
 62
253
  6
CONTINUOUS
 10
11.082233646
 20
6.2788012718
 11
11.082233646
 21
5.9328946758
  0
LINE
  5
628
100
AcDbEntity
  8
CURVE
100
AcDbLine
 62
7
  6
CONTINUOUS
 10
11.0840183358
 20
-4.554832
 11
11.0840181613
 21
-5.982127
  0
LINE
  5
629
100
AcDbEntity
  8
CURVE
100
AcDbLine
 62
7
  6
CONTINUOUS
 10
11.0965972312
 20
-6.086013
 11
11.0965973359
 21
-4.554832
  0
LINE
  5
62A
100
AcDbEntity
  8
CURVE
100
AcDbLine
 62
7
  6
CONTINUOUS
 10
11.1046262095
 20
-4.037094
 11
11.1046262095
 21
-6.086013
  0
LINE
  5
62B
100
AcDbEntity
  8
CURVE
100
AcDbLine
 62
7
  6
CONTINUOUS
 10
11.1046262095
 20
-6.720338
 11
11.1046262095
 21
-7.238107
  0
LINE
  5
62C
100
AcDbEntity
  8
CURVE
100
AcDbLine
 62
7
  6
CONTINUOUS
 10
11.1046262095
 20
-7.853838
 11
11.1046262095
 21
-8.371585
  0
LINE
  5
62D
100
AcDbEntity
  8
CURVE
100
AcDbLine
 62
7
  6
CONTINUOUS
 10
11.1046262095
 20
-9.656836
 11
11.1046262095
 21
-10.35105
  0
LINE
  5
62E
100
AcDbEntity
  8
CURVE
100
AcDbLine
 62
7
  6
CONTINUOUS
 10
11.1046262095
 20
-13.66021
 11
11.1046262095
 21
-14.166101
  0
LINE
  5
62F
100
AcDbEntity
  8
CURVE
100
AcDbLine
 62
7
  6
CONTINUOUS
 10
11.1046262095
 20
-15.503009
 11
11.1046262095
 21
-16.001437
  0
LINE
  5
630
100
AcDbEntity
  8
CURVE
100
AcDbLine
 62
253
  6
CONTINUOUS
 10
11.1047506116
 20
7.92899
 11
11.1047506116
 21
8.514517
  0
LINE
  5
631
100
AcDbEntity
  8
CURVE
100
AcDbLine
 62
253
  6
CONTINUOUS
 10
11.1047506116
 20
9.790227
 11
11.1047506116
 21
10.389084
  0
LINE
  5
632
100
AcDbEntity
  8
CURVE
100
AcDbLine
 62
253
  6
CONTINUOUS
 10
11.1047506116
 20
11.593234
 11
11.1047506116
 21
12.198005
  0
LINE
  5
633
100
AcDbEntity
  8
CURVE
100
AcDbLine
 62
253
  6
CONTINUOUS
 10
11.1047506116
 20
13.615552
 11
11.1047506116
 21
14.22041
  0
LINE
  5
634
100
AcDbEntity
  8
CURVE
100
AcDbLine
 62
253
  6
CONTINUOUS
 10
11.1047506116
 20
15.342748
 11
11.1047506116
 21
16.00026
  0
LINE
  5
635
100
AcDbEntity
  8
CURVE
100
AcDbLine
 62
253
  6
CONTINUOUS
 10
11.1047536488
 20
13.390935
 11
11.1047536488
 21
12.785664
  0
LINE
  5
636
100
AcDbEntity
  8
ASSI
100
AcDbLine
 62
7
  6
CONTINUOUS
 10
11.1329827348
 20
-18.5170173922
 11
11.1329827348
 21
-18.1473460386
  0
LINE
  5
637
100
AcDbEntity
  8
0
100
AcDbLine
 62
7
  6
CONTINUOUS
 10
11.1329827348
 20
-18.5170173922
 11
11.1329827348
 21
-18.1473460386
  0
LINE
  5
638
100
AcDbEntity
  8
ASSI
100
AcDbLine
 62
7
  6
CONTINUOUS
 10
11.1329827348
 20
18.1473460386
 11
11.1329827348
 21
18.5170173922
  0
LINE
  5
639
100
AcDbEntity
  8
0
100
AcDbLine
 62
7
  6
CONTINUOUS
 10
11.1329827348
 20
18.1473460386
 11
11.1329827348
 21
18.5170173922
  0
LINE
  5
63A
100
AcDbEntity
  8
0
100
AcDbLine
 62
7
  6
CONTINUOUS
 10
11.1417096026
 20
21.8941990932
 11
11.1417096026
 21
18.5082905244
  0
LINE
  5
63B
100
AcDbEntity
  8
ASSI
100
AcDbLine
 62
7
  6
CONTINUOUS
 10
11.1417096026
 20
21.8941990932
 11
11.1417096026
 21
18.5082905244
  0
LINE
  5
63C
100
AcDbEntity
  8
0
100
AcDbLine
 62
7
  6
CONTINUOUS
 10
11.1417096026
 20
-18.5082905244
 11
11.1417096026
 21
-21.8941990932
  0
LINE
  5
63D
100
AcDbEntity
  8
ASSI
100
AcDbLine
 62
7
  6
CONTINUOUS
 10
11.1417096026
 20
-18.5082905244
 11
11.1417096026
 21
-21.8941990932
  0
LINE
  5
63E
100
AcDbEntity
  8
RACCORDO
100
AcDbLine
 62
7
  6
CONTINUOUS
 10
11.150000127
 20
-17.6716990487
 11
11.150000127
 21
17.6716990487
  0
LINE
  5
63F
100
AcDbEntity
  8
ASSI
100
AcDbLine
 62
7
  6
CONTINUOUS
 10
11.150000127
 20
-17.6716990487
 11
11.150000127
 21
17.6716990487
  0
LINE
  5
640
100
AcDbEntity
  8
ASSI
100
AcDbLine
 62
7
  6
CONTINUOUS
 10
11.1504364704
 20
21.900016923
 11
11.1504364704
 21
18.5
  0
LINE
  5
641
100
AcDbEntity
  8
0
100
AcDbLine
 62
7
  6
CONTINUOUS
 10
11.1504364704
 20
21.900016923
 11
11.1504364704
 21
18.5
  0
LINE
  5
642
100
AcDbEntity
  8
ASSI
100
AcDbLine
 62
7
  6
CONTINUOUS
 10
11.1504364704
 20
-21.900016923
 11
11.1504364704
 21
-18.5
  0
LINE
  5
643
100
AcDbEntity
  8
0
100
AcDbLine
 62
7
  6
CONTINUOUS
 10
11.1504364704
 20
-21.900016923
 11
11.1504364704
 21
-18.5
  0
LINE
  5
644
100
AcDbEntity
  8
ASSI
100
AcDbLine
 62
7
  6
CONTINUOUS
 10
11.1840375036
 20
-18.1473460386
 11
11.1840375036
 21
18.1473460386
  0
LINE
  5
645
100
AcDbEntity
  8
0
100
AcDbLine
 62
7
  6
CONTINUOUS
 10
11.1840375036
 20
-18.1473460386
 11
11.1840375036
 21
18.1473460386
  0
LINE
  5
646
100
AcDbEntity
  8
CURVE
100
AcDbLine
 62
253
  6
CONTINUOUS
 10
10.5692451814
 20
5.5
 11
10.5617644389
 21
4.0
  0
LINE
  5
647
100
AcDbEntity
  8
CURVE
100
AcDbLine
 62
253
  6
CONTINUOUS
 10
10.5845807015
 20
3.5
 11
10.5770999598
 21
2.0
  0
LINE
  5
648
100
AcDbEntity
  8
CURVE
100
AcDbLine
 62
253
  6
CONTINUOUS
 10
10.6322080956
 20
1.5
 11
10.6247273508
 21
-0.0
  0
LINE
  5
649
100
AcDbEntity
  8
CURVE
100
AcDbLine
 62
253
  6
CONTINUOUS
 10
10.5611410435
 20
1.2857142985
 11
10.5592708589
 21
1.071428597
  0
LINE
  5
64A
100
AcDbEntity
  8
CURVE
100
AcDbLine
 62
253
  6
CONTINUOUS
 10
10.5704919714
 20
0.2142857239
 11
10.572362156
 21
0.4285714477
  0
LINE
  5
64B
100
AcDbEntity
  8
CURVE
100
AcDbLine
 62
253
  6
CONTINUOUS
 10
10.5817130854
 20
1.2857142985
 11
10.5798428977
 21
1.071428597
  0
LINE
  5
64C
100
AcDbEntity
  8
CURVE
100
AcDbLine
 62
253
  6
CONTINUOUS
 10
10.5910640117
 20
0.2142857239
 11
10.5929341964
 21
0.4285714477
  0
LINE
  5
64D
100
AcDbEntity
  8
CURVE
100
AcDbLine
 62
253
  6
CONTINUOUS
 10
10.6197401876
 20
5.5
 11
10.6047787074
 21
4.0
  0
LINE
  5
64E
100
AcDbEntity
  8
CURVE
100
AcDbLine
 62
253
  6
CONTINUOUS
 10
10.5490471778
 20
3.178571403
 11
10.5527875486
 21
3.5
  0
LINE
  5
64F
100
AcDbEntity
  8
CURVE
100
AcDbLine
 62
253
  6
CONTINUOUS
 10
10.5621384765
 20
3.071428597
 11
10.5490471778
 21
2.0
  0
LINE
  5
650
100
AcDbEntity
  8
CURVE
100
AcDbLine
 62
253
  6
CONTINUOUS
 10
11.0136220375
 20
-13.8285706758
 11
11.0159905773
 21
-13.6476180792
  0
LINE
  5
651
100
AcDbEntity
  8
CURVE
100
AcDbLine
 62
253
  6
CONTINUOUS
 10
10.5415664353
 20
2.1071428619
 11
10.5396962499
 21
2.0
  0
LINE
  5
652
100
AcDbEntity
  8
CURVE
100
AcDbLine
 62
253
  6
CONTINUOUS
 10
10.5972979626
 20
4.2142857239
 11
10.5935575933
 21
4.0
  0
LINE
  5
653
100
AcDbEntity
  8
CURVE
100
AcDbLine
 62
253
  6
CONTINUOUS
 10
10.5517901164
 20
1.5
 11
10.544309374
 21
1.071428597
  0
LINE
  5
654
100
AcDbEntity
  8
CURVE
100
AcDbLine
 62
253
  6
CONTINUOUS
 10
10.5648814144
 20
1.5
 11
10.5611410435
 21
1.2857142985
  0
LINE
  5
655
100
AcDbEntity
  8
CURVE
100
AcDbLine
 62
253
  6
CONTINUOUS
 10
10.5854534547
 20
1.5
 11
10.5817130854
 21
1.2857142985
  0
LINE
  5
656
100
AcDbEntity
  8
CURVE
100
AcDbLine
 62
253
  6
CONTINUOUS
 10
10.5667516006
 20
-0.0
 11
10.5704919714
 21
0.2142857239
  0
LINE
  5
657
100
AcDbEntity
  8
CURVE
100
AcDbLine
 62
253
  6
CONTINUOUS
 10
10.5873236425
 20
-0.0
 11
10.5910640117
 21
0.2142857239
  0
LINE
  5
658
100
AcDbEntity
  8
CURVE
100
AcDbLine
 62
253
  6
CONTINUOUS
 10
10.7941661607
 20
-6.0023811102
 11
10.7974078155
 21
-5.816666913
  0
LINE
  5
659
100
AcDbEntity
  8
CURVE
100
AcDbLine
 62
253
  6
CONTINUOUS
 10
10.9946737097
 20
-11.1142848969
 11
10.9994107917
 21
-10.8428563416
  0
LINE
  5
65A
100
AcDbEntity
  8
CURVE
100
AcDbLine
 62
253
  6
CONTINUOUS
 10
11.0230962005
 20
-10.1642848969
 11
11.0278332819
 21
-9.8928563416
  0
LINE
  5
65B
100
AcDbEntity
  8
CURVE
100
AcDbLine
 62
253
  6
CONTINUOUS
 10
11.0278332819
 20
-11.2499991179
 11
11.0230962005
 21
-11.5214277864
  0
LINE
  5
65C
100
AcDbEntity
  8
CURVE
100
AcDbLine
 62
253
  6
CONTINUOUS
 10
10.9946737097
 20
-13.8285706758
 11
10.9994107917
 21
-13.5571422338
  0
LINE
  5
65D
100
AcDbEntity
  8
CURVE
100
AcDbLine
 62
253
  6
CONTINUOUS
 10
11.0088849551
 20
-13.0142848969
 11
11.0136220375
 21
-12.7428562284
  0
LINE
  5
65E
100
AcDbEntity
  8
CURVE
100
AcDbLine
 62
253
  6
CONTINUOUS
 10
11.0136220375
 20
-14.2357133389
 11
11.0088849551
 21
-14.5071422338
  0
LINE
  5
65F
100
AcDbEntity
  8
CURVE
100
AcDbLine
 62
253
  6
CONTINUOUS
 10
10.9946737097
 20
-15.4571422338
 11
10.9994107917
 21
-15.1857133389
  0
LINE
  5
660
100
AcDbEntity
  8
CURVE
100
AcDbLine
 62
253
  6
CONTINUOUS
 10
11.0278332819
 20
-15.5928564548
 11
11.0230962005
 21
-15.8642848969
  0
LINE
  5
661
100
AcDbEntity
  8
CURVE
100
AcDbLine
 62
7
  6
CONTINUOUS
 10
11.0838095322
 20
-9.10422
 11
11.0540377487
 21
-10.357884
  0
LINE
  5
662
100
AcDbEntity
  8
CURVE
100
AcDbLine
 62
7
  6
CONTINUOUS
 10
11.0540377487
 20
-9.706581
 11
11.077595415
 21
-8.741819
  0
LINE
  5
663
100
AcDbEntity
  8
CURVE
100
AcDbLine
 62
253
  6
CONTINUOUS
 10
10.7876828513
 20
-15.6285711288
 11
10.7974078155
 21
-15.2571427345
  0
LINE
  5
664
100
AcDbEntity
  8
CURVE
100
AcDbLine
 62
253
  6
CONTINUOUS
 10
11.0278332819
 20
-14.2357133389
 11
11.0230962005
 21
-14.4166659355
  0
LINE
  5
665
100
AcDbEntity
  8
CURVE
100
AcDbLine
 62
7
  6
CONTINUOUS
 10
11.1046262095
 20
-14.166101
 11
11.0688965584
 21
-15.502999
  0
LINE
  5
666
100
AcDbEntity
  8
CURVE
100
AcDbLine
 62
7
  6
CONTINUOUS
 10
11.0540377487
 20
-15.484078
 11
11.0893774328
 21
-14.165656
  0
LINE
  5
667
100
AcDbEntity
  8
CURVE
100
AcDbLine
 62
253
  6
CONTINUOUS
 10
10.5409430402
 20
2.9642857015
 11
10.5378260645
 21
2.8571428955
  0
LINE
  5
668
100
AcDbEntity
  8
CURVE
100
AcDbLine
 62
253
  6
CONTINUOUS
 10
10.7844411959
 20
-3.4952384025
 11
10.7974078155
 21
-3.1238098145
  0
LINE
  5
669
100
AcDbEntity
  8
CURVE
100
AcDbLine
 62
253
  6
CONTINUOUS
 10
10.774716231
 20
-9.9642859459
 11
10.7974078155
 21
-9.3142859459
  0
LINE
  5
66A
100
AcDbEntity
  8
CURVE
100
AcDbLine
 62
253
  6
CONTINUOUS
 10
10.9994107917
 20
-10.8428563416
 11
11.0041478736
 21
-10.7071420074
  0
LINE
  5
66B
100
AcDbEntity
  8
CURVE
100
AcDbLine
 62
253
  6
CONTINUOUS
 10
11.0230962005
 20
-11.5214277864
 11
11.018359119
 21
-11.6571420074
  0
LINE
  5
66C
100
AcDbEntity
  8
CURVE
100
AcDbLine
 62
253
  6
CONTINUOUS
 10
10.9994107917
 20
-15.1857133389
 11
11.0041478736
 21
-15.0499991179
  0
LINE
  5
66D
100
AcDbEntity
  8
CURVE
100
AcDbLine
 62
253
  6
CONTINUOUS
 10
11.0230962005
 20
-15.8642848969
 11
11.018359119
 21
-15.9999991179
  0
LINE
  5
66E
100
AcDbEntity
  8
CURVE
100
AcDbLine
 62
253
  6
CONTINUOUS
 10
11.0871867318
 20
11.750162
 11
11.0541369802
 21
11.040105
  0
LINE
  5
66F
100
AcDbEntity
  8
CURVE
100
AcDbLine
 62
253
  6
CONTINUOUS
 10
11.0766497724
 20
10.994355
 11
11.1047506116
 21
11.593234
  0
LINE
  5
670
100
AcDbEntity
  8
CURVE
100
AcDbLine
 62
253
  6
CONTINUOUS
 10
11.0541369802
 20
7.039304
 11
11.1047506116
 21
7.92899
  0
LINE
  5
671
100
AcDbEntity
  8
CURVE
100
AcDbLine
 62
253
  6
CONTINUOUS
 10
10.774716231
 20
-4.9809527159
 11
10.7974078155
 21
-4.6095241666
  0
LINE
  5
672
100
AcDbEntity
  8
CURVE
100
AcDbLine
 62
253
  6
CONTINUOUS
 10
10.774716231
 20
-14.0500007629
 11
10.7974078155
 21
-13.6785711288
  0
LINE
  5
673
100
AcDbEntity
  8
CURVE
100
AcDbLine
 62
253
  6
CONTINUOUS
 10
11.0642412635
 20
7.834033
 11
11.0541369802
 21
7.677235
  0
LINE
  5
674
100
AcDbEntity
  8
CURVE
100
AcDbLine
 62
253
  6
CONTINUOUS
 10
11.0908432712
 20
8.233126
 11
11.0720599107
 21
7.954996
  0
LINE
  5
675
100
AcDbEntity
  8
CURVE
100
AcDbLine
 62
7
  6
CONTINUOUS
 10
11.0540377487
 20
-4.0765736866
 11
11.0935174353
 21
-4.037094
  0
LINE
  5
676
100
AcDbEntity
  8
CURVE
100
AcDbLine
 62
7
  6
CONTINUOUS
 10
11.0540377487
 20
-4.1185758294
 11
11.1046262095
 21
-4.0679873686
  0
LINE
  5
677
100
AcDbEntity
  8
CURVE
100
AcDbLine
 62
7
  6
CONTINUOUS
 10
11.0540377487
 20
-4.1605779722
 11
11.1046262095
 21
-4.1099895114
  0
LINE
  5
678
100
AcDbEntity
  8
CURVE
100
AcDbLine
 62
7
  6
CONTINUOUS
 10
11.0540377487
 20
-4.202580115
 11
11.1046262095
 21
-4.1519916542
  0
LINE
  5
679
100
AcDbEntity
  8
CURVE
100
AcDbLine
 62
7
  6
CONTINUOUS
 10
11.0540377487
 20
-4.2445822578
 11
11.1046262095
 21
-4.1939937971
  0
LINE
  5
67A
100
AcDbEntity
  8
CURVE
100
AcDbLine
 62
7
  6
CONTINUOUS
 10
11.0540377487
 20
-4.2865844006
 11
11.1046262095
 21
-4.2359959399
  0
LINE
  5
67B
100
AcDbEntity
  8
CURVE
100
AcDbLine
 62
7
  6
CONTINUOUS
 10
11.0540377487
 20
-4.3285865434
 11
11.1046262095
 21
-4.2779980827
  0
LINE
  5
67C
100
AcDbEntity
  8
CURVE
100
AcDbLine
 62
7
  6
CONTINUOUS
 10
11.0540377487
 20
-4.3705886862
 11
11.1046262095
 21
-4.3200002255
  0
LINE
  5
67D
100
AcDbEntity
  8
CURVE
100
AcDbLine
 62
7
  6
CONTINUOUS
 10
11.0540377487
 20
-4.412590829
 11
11.1046262095
 21
-4.3620023683
  0
LINE
  5
67E
100
AcDbEntity
  8
CURVE
100
AcDbLine
 62
7
  6
CONTINUOUS
 10
11.0540377487
 20
-4.4545929718
 11
11.1046262095
 21
-4.4040045111
  0
LINE
  5
67F
100
AcDbEntity
  8
CURVE
100
AcDbLine
 62
7
  6
CONTINUOUS
 10
11.0540377487
 20
-4.4965951146
 11
11.1046262095
 21
-4.4460066539
  0
LINE
  5
680
100
AcDbEntity
  8
CURVE
100
AcDbLine
 62
7
  6
CONTINUOUS
 10
11.0540377487
 20
-4.5385972574
 11
11.1046262095
 21
-4.4880087967
  0
LINE
  5
681
100
AcDbEntity
  8
CURVE
100
AcDbLine
 62
7
  6
CONTINUOUS
 10
11.0540377487
 20
-4.5805994002
 11
11.0620664509
 21
-4.572570698
  0
LINE
  5
682
100
AcDbEntity
  8
CURVE
100
AcDbLine
 62
7
  6
CONTINUOUS
 10
11.0759888346
 20
-4.5586483143
 11
11.1046262095
 21
-4.5300109395
  0
LINE
  5
683
100
AcDbEntity
  8
CURVE
100
AcDbLine
 62
7
  6
CONTINUOUS
 10
11.0540377487
 20
-4.622601543
 11
11.0620664585
 21
-4.6145728332
  0
LINE
  5
684
100
AcDbEntity
  8
CURVE
100
AcDbLine
 62
7
  6
CONTINUOUS
 10
11.0759888397
 20
-4.600650452
 11
11.0840183312
 21
-4.5926209605
  0
LINE
  5
685
100
AcDbEntity
  8
CURVE
100
AcDbLine
 62
7
  6
CONTINUOUS
 10
11.0965973342
 20
-4.5800419575
 11
11.1046262095
 21
-4.5720130823
  0
LINE
  5
686
100
AcDbEntity
  8
CURVE
100
AcDbLine
 62
7
  6
CONTINUOUS
 10
11.0540377487
 20
-4.6646036858
 11
11.0620664661
 21
-4.6565749684
  0
LINE
  5
687
100
AcDbEntity
  8
CURVE
100
AcDbLine
 62
7
  6
CONTINUOUS
 10
11.0759888449
 20
-4.6426525897
 11
11.0840183261
 21
-4.6346231084
  0
LINE
  5
688
100
AcDbEntity
  8
CURVE
100
AcDbLine
 62
7
  6
CONTINUOUS
 10
11.0965973313
 20
-4.6220441032
 11
11.1046262095
 21
-4.6140152251
  0
LINE
  5
689
100
AcDbEntity
  8
CURVE
100
AcDbLine
 62
7
  6
CONTINUOUS
 10
11.0540377487
 20
-4.7066058286
 11
11.0620664737
 21
-4.6985771036
  0
LINE
  5
68A
100
AcDbEntity
  8
CURVE
100
AcDbLine
 62
7
  6
CONTINUOUS
 10
11.07598885
 20
-4.6846547273
 11
11.084018321
 21
-4.6766252564
  0
LINE
  5
68B
100
AcDbEntity
  8
CURVE
100
AcDbLine
 62
7
  6
CONTINUOUS
 10
11.0965973285
 20
-4.6640462489
 11
11.1046262095
 21
-4.6560173679
  0
LINE
  5
68C
100
AcDbEntity
  8
CURVE
100
AcDbLine
 62
7
  6
CONTINUOUS
 10
11.0540377487
 20
-4.7486079714
 11
11.0620664813
 21
-4.7405792388
  0
LINE
  5
68D
100
AcDbEntity
  8
CURVE
100
AcDbLine
 62
7
  6
CONTINUOUS
 10
11.0759888551
 20
-4.726656865
 11
11.0840183158
 21
-4.7186274043
  0
LINE
  5
68E
100
AcDbEntity
  8
CURVE
100
AcDbLine
 62
7
  6
CONTINUOUS
 10
11.0965973256
 20
-4.7060483945
 11
11.1046262095
 21
-4.6980195107
  0
LINE
  5
68F
100
AcDbEntity
  8
CURVE
100
AcDbLine
 62
7
  6
CONTINUOUS
 10
11.0540377487
 20
-4.7906101142
 11
11.0620664889
 21
-4.782581374
  0
LINE
  5
690
100
AcDbEntity
  8
CURVE
100
AcDbLine
 62
7
  6
CONTINUOUS
 10
11.0759888603
 20
-4.7686590027
 11
11.0840183107
 21
-4.7606295523
  0
LINE
  5
691
100
AcDbEntity
  8
CURVE
100
AcDbLine
 62
7
  6
CONTINUOUS
 10
11.0965973227
 20
-4.7480505402
 11
11.1046262095
 21
-4.7400216535
  0
LINE
  5
692
100
AcDbEntity
  8
CURVE
100
AcDbLine
 62
7
  6
CONTINUOUS
 10
11.0540377487
 20
-4.832612257
 11
11.0620664965
 21
-4.8245835092
  0
LINE
  5
693
100
AcDbEntity
  8
CURVE
100
AcDbLine
 62
7
  6
CONTINUOUS
 10
11.0759888654
 20
-4.8106611403
 11
11.0840183056
 21
-4.8026317002
  0
LINE
  5
694
100
AcDbEntity
  8
CURVE
100
AcDbLine
 62
7
  6
CONTINUOUS
 10
11.0965973199
 20
-4.7900526859
 11
11.1046262095
 21
-4.7820237963
  0
LINE
  5
695
100
AcDbEntity
  8
CURVE
100
AcDbLine
 62
7
  6
CONTINUOUS
 10
11.0540377487
 20
-4.8746143998
 11
11.0620665041
 21
-4.8665856444
  0
LINE
  5
696
100
AcDbEntity
  8
CURVE
100
AcDbLine
 62
7
  6
CONTINUOUS
 10
11.0759888706
 20
-4.852663278
 11
11.0840183004
 21
-4.8446338481
  0
LINE
  5
697
100
AcDbEntity
  8
CURVE
100
AcDbLine
 62
7
  6
CONTINUOUS
 10
11.096597317
 20
-4.8320548316
 11
11.1046262095
 21
-4.8240259391
  0
LINE
  5
698
100
AcDbEntity
  8
CURVE
100
AcDbLine
 62
7
  6
CONTINUOUS
 10
11.0540377487
 20
-4.9166165426
 11
11.0620665117
 21
-4.9085877796
  0
LINE
  5
699
100
AcDbEntity
  8
CURVE
100
AcDbLine
 62
7
  6
CONTINUOUS
 10
11.0759888757
 20
-4.8946654157
 11
11.0840182953
 21
-4.8866359961
  0
LINE
  5
69A
100
AcDbEntity
  8
CURVE
100
AcDbLine
 62
7
  6
CONTINUOUS
 10
11.0965973141
 20
-4.8740569772
 11
11.1046262095
 21
-4.8660280819
  0
LINE
  5
69B
100
AcDbEntity
  8
CURVE
100
AcDbLine
 62
7
  6
CONTINUOUS
 10
11.0540377487
 20
-4.9586186854
 11
11.0620665193
 21
-4.9505899148
  0
LINE
  5
69C
100
AcDbEntity
  8
CURVE
100
AcDbLine
 62
7
  6
CONTINUOUS
 10
11.0759888808
 20
-4.9366675533
 11
11.0840182901
 21
-4.928638144
  0
LINE
  5
69D
100
AcDbEntity
  8
CURVE
100
AcDbLine
 62
7
  6
CONTINUOUS
 10
11.0965973112
 20
-4.9160591229
 11
11.1046262095
 21
-4.9080302247
  0
LINE
  5
69E
100
AcDbEntity
  8
CURVE
100
AcDbLine
 62
7
  6
CONTINUOUS
 10
11.0540377487
 20
-5.0006208282
 11
11.0620665269
 21
-4.99259205
  0
LINE
  5
69F
100
AcDbEntity
  8
CURVE
100
AcDbLine
 62
7
  6
CONTINUOUS
 10
11.075988886
 20
-4.978669691
 11
11.084018285
 21
-4.9706402919
  0
LINE
  5
6A0
100
AcDbEntity
  8
CURVE
100
AcDbLine
 62
7
  6
CONTINUOUS
 10
11.0965973084
 20
-4.9580612686
 11
11.1046262095
 21
-4.9500323675
  0
LINE
  5
6A1
100
AcDbEntity
  8
CURVE
100
AcDbLine
 62
7
  6
CONTINUOUS
 10
11.0540377487
 20
-5.042622971
 11
11.0620665345
 21
-5.0345941852
  0
LINE
  5
6A2
100
AcDbEntity
  8
CURVE
100
AcDbLine
 62
7
  6
CONTINUOUS
 10
11.0759888911
 20
-5.0206718287
 11
11.0840182799
 21
-5.0126424399
  0
LINE
  5
6A3
100
AcDbEntity
  8
CURVE
100
AcDbLine
 62
7
  6
CONTINUOUS
 10
11.0965973055
 20
-5.0000634143
 11
11.1046262095
 21
-4.9920345103
  0
LINE
  5
6A4
100
AcDbEntity
  8
CURVE
100
AcDbLine
 62
7
  6
CONTINUOUS
 10
11.0540377487
 20
-5.0846251138
 11
11.0620665421
 21
-5.0765963204
  0
LINE
  5
6A5
100
AcDbEntity
  8
CURVE
100
AcDbLine
 62
7
  6
CONTINUOUS
 10
11.0759888962
 20
-5.0626739663
 11
11.0840182747
 21
-5.0546445878
  0
LINE
  5
6A6
100
AcDbEntity
  8
CURVE
100
AcDbLine
 62
7
  6
CONTINUOUS
 10
11.0965973026
 20
-5.0420655599
 11
11.1046262095
 21
-5.0340366531
  0
LINE
  5
6A7
100
AcDbEntity
  8
CURVE
100
AcDbLine
 62
7
  6
CONTINUOUS
 10
11.0540377487
 20
-5.1266272567
 11
11.0620665497
 21
-5.1185984556
  0
LINE
  5
6A8
100
AcDbEntity
  8
CURVE
100
AcDbLine
 62
7
  6
CONTINUOUS
 10
11.0759889014
 20
-5.104676104
 11
11.0840182696
 21
-5.0966467358
  0
LINE
  5
6A9
100
AcDbEntity
  8
CURVE
100
AcDbLine
 62
7
  6
CONTINUOUS
 10
11.0965972998
 20
-5.0840677056
 11
11.1046262095
 21
-5.0760387959
  0
LINE
  5
6AA
100
AcDbEntity
  8
DRAFT
100
AcDbLine
 62
7
  6
CONTINUOUS
 10
-3.499999873
 20
-19.7
 11
-3.4109790419
 21
-19.6109791689
  0
LINE
  5
6AB
100
AcDbEntity
  8
ASSI
100
AcDbLine
 62
7
  6
CONTINUOUS
 10
-3.499999873
 20
-19.7
 11
-3.4109790419
 21
-19.6109791689
  0
LINE
  5
6AC
100
AcDbEntity
  8
CURVE
100
AcDbLine
 62
7
  6
CONTINUOUS
 10
11.0540377487
 20
-5.1686293995
 11
11.0620665573
 21
-5.1606005908
  0
LINE
  5
6AD
100
AcDbEntity
  8
CURVE
100
AcDbLine
 62
7
  6
CONTINUOUS
 10
11.0759889065
 20
-5.1466782417
 11
11.0840182645
 21
-5.1386488837
  0
LINE
  5
6AE
100
AcDbEntity
  8
CURVE
100
AcDbLine
 62
7
  6
CONTINUOUS
 10
11.0965972969
 20
-5.1260698513
 11
11.1046262095
 21
-5.1180409387
  0
LINE
  5
6AF
100
AcDbEntity
  8
CURVE
100
AcDbLine
 62
7
  6
CONTINUOUS
 10
11.0540377487
 20
-5.2106315423
 11
11.0620665649
 21
-5.202602726
  0
LINE
  5
6B0
100
AcDbEntity
  8
CURVE
100
AcDbLine
 62
7
  6
CONTINUOUS
 10
11.0759889116
 20
-5.1886803793
 11
11.0840182593
 21
-5.1806510316
  0
LINE
  5
6B1
100
AcDbEntity
  8
CURVE
100
AcDbLine
 62
7
  6
CONTINUOUS
 10
11.096597294
 20
-5.168071997
 11
11.1046262095
 21
-5.1600430815
  0
LINE
  5
6B2
100
AcDbEntity
  8
CURVE
100
AcDbLine
 62
7
  6
CONTINUOUS
 10
11.0540377487
 20
-5.2526336851
 11
11.0620665725
 21
-5.2446048612
  0
LINE
  5
6B3
100
AcDbEntity
  8
CURVE
100
AcDbLine
 62
7
  6
CONTINUOUS
 10
11.0759889168
 20
-5.230682517
 11
11.0840182542
 21
-5.2226531796
  0
LINE
  5
6B4
100
AcDbEntity
  8
CURVE
100
AcDbLine
 62
7
  6
CONTINUOUS
 10
11.0965972911
 20
-5.2100741426
 11
11.1046262095
 21
-5.2020452243
  0
LINE
  5
6B5
100
AcDbEntity
  8
CURVE
100
AcDbLine
 62
7
  6
CONTINUOUS
 10
11.0540377487
 20
-5.2946358279
 11
11.0620665801
 21
-5.2866069964
  0
LINE
  5
6B6
100
AcDbEntity
  8
CURVE
100
AcDbLine
 62
7
  6
CONTINUOUS
 10
11.0759889219
 20
-5.2726846547
 11
11.0840182491
 21
-5.2646553275
  0
LINE
  5
6B7
100
AcDbEntity
  8
CURVE
100
AcDbLine
 62
7
  6
CONTINUOUS
 10
11.0965972883
 20
-5.2520762883
 11
11.1046262095
 21
-5.2440473671
  0
LINE
  5
6B8
100
AcDbEntity
  8
CURVE
100
AcDbLine
 62
7
  6
CONTINUOUS
 10
11.0540377487
 20
-5.3366379707
 11
11.0620665877
 21
-5.3286091316
  0
LINE
  5
6B9
100
AcDbEntity
  8
CURVE
100
AcDbLine
 62
7
  6
CONTINUOUS
 10
11.075988927
 20
-5.3146867923
 11
11.0840182439
 21
-5.3066574754
  0
LINE
  5
6BA
100
AcDbEntity
  8
CURVE
100
AcDbLine
 62
7
  6
CONTINUOUS
 10
11.0965972854
 20
-5.294078434
 11
11.1046262095
 21
-5.2860495099
  0
LINE
  5
6BB
100
AcDbEntity
  8
DRAFT
100
AcDbLine
 62
7
  6
CONTINUOUS
 10
-3.4109790419
 20
-19.8109791689
 11
-3.499999873
 21
-19.9
  0
LINE
  5
6BC
100
AcDbEntity
  8
ASSI
100
AcDbLine
 62
7
  6
CONTINUOUS
 10
-3.4109790419
 20
-19.8109791689
 11
-3.499999873
 21
-19.9
  0
LINE
  5
6BD
100
AcDbEntity
  8
CURVE
100
AcDbLine
 62
7
  6
CONTINUOUS
 10
11.0540377487
 20
-5.3786401135
 11
11.0620665953
 21
-5.3706112668
  0
LINE
  5
6BE
100
AcDbEntity
  8
CURVE
100
AcDbLine
 62
7
  6
CONTINUOUS
 10
11.0759889322
 20
-5.35668893
 11
11.0840182388
 21
-5.3486596234
  0
LINE
  5
6BF
100
AcDbEntity
  8
CURVE
100
AcDbLine
 62
7
  6
CONTINUOUS
 10
11.0965972825
 20
-5.3360805797
 11
11.1046262095
 21
-5.3280516527
  0
LINE
  5
6C0
100
AcDbEntity
  8
CURVE
100
AcDbLine
 62
7
  6
CONTINUOUS
 10
11.0540377487
 20
-5.4206422563
 11
11.0620666029
 21
-5.412613402
  0
LINE
  5
6C1
100
AcDbEntity
  8
CURVE
100
AcDbLine
 62
7
  6
CONTINUOUS
 10
11.0759889373
 20
-5.3986910677
 11
11.0840182337
 21
-5.3906617713
  0
LINE
  5
6C2
100
AcDbEntity
  8
CURVE
100
AcDbLine
 62
7
  6
CONTINUOUS
 10
11.0965972796
 20
-5.3780827253
 11
11.1046262095
 21
-5.3700537955
  0
LINE
  5
6C3
100
AcDbEntity
  8
CURVE
100
AcDbLine
 62
7
  6
CONTINUOUS
 10
11.0540377487
 20
-5.4626443991
 11
11.0620666105
 21
-5.4546155372
  0
LINE
  5
6C4
100
AcDbEntity
  8
CURVE
100
AcDbLine
 62
7
  6
CONTINUOUS
 10
11.0759889424
 20
-5.4406932053
 11
11.0840182285
 21
-5.4326639193
  0
LINE
  5
6C5
100
AcDbEntity
  8
CURVE
100
AcDbLine
 62
7
  6
CONTINUOUS
 10
11.0965972768
 20
-5.420084871
 11
11.1046262095
 21
-5.4120559383
  0
LINE
  5
6C6
100
AcDbEntity
  8
CURVE
100
AcDbLine
 62
7
  6
CONTINUOUS
 10
11.0540377487
 20
-5.5046465419
 11
11.0620666181
 21
-5.4966176724
  0
LINE
  5
6C7
100
AcDbEntity
  8
CURVE
100
AcDbLine
 62
7
  6
CONTINUOUS
 10
11.0759889476
 20
-5.482695343
 11
11.0840182234
 21
-5.4746660672
  0
LINE
  5
6C8
100
AcDbEntity
  8
CURVE
100
AcDbLine
 62
7
  6
CONTINUOUS
 10
11.0965972739
 20
-5.4620870167
 11
11.1046262095
 21
-5.4540580811
  0
LINE
  5
6C9
100
AcDbEntity
  8
CURVE
100
AcDbLine
 62
7
  6
CONTINUOUS
 10
11.0540377487
 20
-5.5466486847
 11
11.0620666258
 21
-5.5386198076
  0
LINE
  5
6CA
100
AcDbEntity
  8
CURVE
100
AcDbLine
 62
7
  6
CONTINUOUS
 10
11.0759889527
 20
-5.5246974807
 11
11.0840182183
 21
-5.5166682151
  0
LINE
  5
6CB
100
AcDbEntity
  8
CURVE
100
AcDbLine
 62
7
  6
CONTINUOUS
 10
11.096597271
 20
-5.5040891623
 11
11.1046262095
 21
-5.4960602239
  0
LINE
  5
6CC
100
AcDbEntity
  8
CURVE
100
AcDbLine
 62
7
  6
CONTINUOUS
 10
11.0540377487
 20
-5.5886508275
 11
11.0620666334
 21
-5.5806219428
  0
LINE
  5
6CD
100
AcDbEntity
  8
CURVE
100
AcDbLine
 62
7
  6
CONTINUOUS
 10
11.0759889579
 20
-5.5666996183
 11
11.0840182131
 21
-5.5586703631
  0
LINE
  5
6CE
100
AcDbEntity
  8
CURVE
100
AcDbLine
 62
7
  6
CONTINUOUS
 10
11.0965972682
 20
-5.546091308
 11
11.1046262095
 21
-5.5380623667
  0
LINE
  5
6CF
100
AcDbEntity
  8
CURVE
100
AcDbLine
 62
7
  6
CONTINUOUS
 10
11.0540377487
 20
-5.6306529703
 11
11.062066641
 21
-5.622624078
  0
LINE
  5
6D0
100
AcDbEntity
  8
CURVE
100
AcDbLine
 62
7
  6
CONTINUOUS
 10
11.075988963
 20
-5.608701756
 11
11.084018208
 21
-5.600672511
  0
LINE
  5
6D1
100
AcDbEntity
  8
CURVE
100
AcDbLine
 62
7
  6
CONTINUOUS
 10
11.0965972653
 20
-5.5880934537
 11
11.1046262095
 21
-5.5800645095
  0
LINE
  5
6D2
100
AcDbEntity
  8
CURVE
100
AcDbLine
 62
7
  6
CONTINUOUS
 10
11.0540377487
 20
-5.6726551131
 11
11.0620666486
 21
-5.6646262132
  0
LINE
  5
6D3
100
AcDbEntity
  8
CURVE
100
AcDbLine
 62
7
  6
CONTINUOUS
 10
11.0759889681
 20
-5.6507038937
 11
11.0840182028
 21
-5.6426746589
  0
LINE
  5
6D4
100
AcDbEntity
  8
CURVE
100
AcDbLine
 62
7
  6
CONTINUOUS
 10
11.0965972624
 20
-5.6300955994
 11
11.1046262095
 21
-5.6220666523
  0
LINE
  5
6D5
100
AcDbEntity
  8
CURVE
100
AcDbLine
 62
7
  6
CONTINUOUS
 10
11.0540377487
 20
-5.7146572559
 11
11.0620666562
 21
-5.7066283484
  0
LINE
  5
6D6
100
AcDbEntity
  8
CURVE
100
AcDbLine
 62
7
  6
CONTINUOUS
 10
11.0759889733
 20
-5.6927060313
 11
11.0840181977
 21
-5.6846768069
  0
LINE
  5
6D7
100
AcDbEntity
  8
CURVE
100
AcDbLine
 62
7
  6
CONTINUOUS
 10
11.0965972595
 20
-5.672097745
 11
11.1046262095
 21
-5.6640687951
  0
LINE
  5
6D8
100
AcDbEntity
  8
CURVE
100
AcDbLine
 62
7
  6
CONTINUOUS
 10
11.0540377487
 20
-5.7566593987
 11
11.0620666638
 21
-5.7486304836
  0
LINE
  5
6D9
100
AcDbEntity
  8
CURVE
100
AcDbLine
 62
7
  6
CONTINUOUS
 10
11.0759889784
 20
-5.734708169
 11
11.0840181926
 21
-5.7266789548
  0
LINE
  5
6DA
100
AcDbEntity
  8
CURVE
100
AcDbLine
 62
7
  6
CONTINUOUS
 10
11.0965972567
 20
-5.7140998907
 11
11.1046262095
 21
-5.7060709379
  0
LINE
  5
6DB
100
AcDbEntity
  8
CURVE
100
AcDbLine
 62
7
  6
CONTINUOUS
 10
11.0540377487
 20
-5.7986615415
 11
11.0620666714
 21
-5.7906326188
  0
LINE
  5
6DC
100
AcDbEntity
  8
CURVE
100
AcDbLine
 62
7
  6
CONTINUOUS
 10
11.0759889835
 20
-5.7767103067
 11
11.0840181874
 21
-5.7686811028
  0
LINE
  5
6DD
100
AcDbEntity
  8
CURVE
100
AcDbLine
 62
7
  6
CONTINUOUS
 10
11.0965972538
 20
-5.7561020364
 11
11.1046262095
 21
-5.7480730807
  0
LINE
  5
6DE
100
AcDbEntity
  8
CURVE
100
AcDbLine
 62
7
  6
CONTINUOUS
 10
11.0540377487
 20
-5.8406636843
 11
11.062066679
 21
-5.832634754
  0
LINE
  5
6DF
100
AcDbEntity
  8
CURVE
100
AcDbLine
 62
7
  6
CONTINUOUS
 10
11.0759889887
 20
-5.8187124443
 11
11.0840181823
 21
-5.8106832507
  0
LINE
  5
6E0
100
AcDbEntity
  8
CURVE
100
AcDbLine
 62
7
  6
CONTINUOUS
 10
11.0965972509
 20
-5.7981041821
 11
11.1046262095
 21
-5.7900752235
  0
LINE
  5
6E1
100
AcDbEntity
  8
CURVE
100
AcDbLine
 62
7
  6
CONTINUOUS
 10
11.0540377487
 20
-5.8826658271
 11
11.0620666866
 21
-5.8746368892
  0
LINE
  5
6E2
100
AcDbEntity
  8
CURVE
100
AcDbLine
 62
7
  6
CONTINUOUS
 10
11.0759889938
 20
-5.860714582
 11
11.0840181772
 21
-5.8526853986
  0
LINE
  5
6E3
100
AcDbEntity
  8
CURVE
100
AcDbLine
 62
7
  6
CONTINUOUS
 10
11.0965972481
 20
-5.8401063277
 11
11.1046262095
 21
-5.8320773663
  0
LINE
  5
6E4
100
AcDbEntity
  8
CURVE
100
AcDbLine
 62
7
  6
CONTINUOUS
 10
11.0540377487
 20
-5.9246679699
 11
11.0620666942
 21
-5.9166390244
  0
LINE
  5
6E5
100
AcDbEntity
  8
CURVE
100
AcDbLine
 62
7
  6
CONTINUOUS
 10
11.0759889989
 20
-5.9027167197
 11
11.084018172
 21
-5.8946875466
  0
LINE
  5
6E6
100
AcDbEntity
  8
CURVE
100
AcDbLine
 62
7
  6
CONTINUOUS
 10
11.0965972452
 20
-5.8821084734
 11
11.1046262095
 21
-5.8740795092
  0
LINE
  5
6E7
100
AcDbEntity
  8
CURVE
100
AcDbLine
 62
7
  6
CONTINUOUS
 10
11.0540377487
 20
-5.9666701127
 11
11.0620667018
 21
-5.9586411596
  0
LINE
  5
6E8
100
AcDbEntity
  8
CURVE
100
AcDbLine
 62
7
  6
CONTINUOUS
 10
11.0759890041
 20
-5.9447188573
 11
11.0840181669
 21
-5.9366896945
  0
LINE
  5
6E9
100
AcDbEntity
  8
CURVE
100
AcDbLine
 62
7
  6
CONTINUOUS
 10
11.0965972423
 20
-5.9241106191
 11
11.1046262095
 21
-5.916081652
  0
LINE
  5
6EA
100
AcDbEntity
  8
CURVE
100
AcDbLine
 62
7
  6
CONTINUOUS
 10
11.0540377487
 20
-6.0086722555
 11
11.0620667094
 21
-6.0006432948
  0
LINE
  5
6EB
100
AcDbEntity
  8
CURVE
100
AcDbLine
 62
7
  6
CONTINUOUS
 10
11.0805830042
 20
-5.982127
 11
11.0840181618
 21
-5.9786918424
  0
LINE
  5
6EC
100
AcDbEntity
  8
CURVE
100
AcDbLine
 62
7
  6
CONTINUOUS
 10
11.0965972394
 20
-5.9661127648
 11
11.1046262095
 21
-5.9580837948
  0
LINE
  5
6ED
100
AcDbEntity
  8
CURVE
100
AcDbLine
 62
7
  6
CONTINUOUS
 10
11.0540377487
 20
-6.0506743983
 11
11.062066717
 21
-6.0426454301
  0
LINE
  5
6EE
100
AcDbEntity
  8
CURVE
100
AcDbLine
 62
7
  6
CONTINUOUS
 10
11.0965972366
 20
-6.0081149104
 11
11.1046262095
 21
-6.0000859376
  0
LINE
  5
6EF
100
AcDbEntity
  8
CURVE
100
AcDbLine
 62
7
  6
CONTINUOUS
 10
11.0540377487
 20
-6.0926765411
 11
11.0620667246
 21
-6.0846475653
  0
LINE
  5
6F0
100
AcDbEntity
  8
CURVE
100
AcDbLine
 62
7
  6
CONTINUOUS
 10
11.0965972337
 20
-6.0501170561
 11
11.1046262095
 21
-6.0420880804
  0
LINE
  5
6F1
100
AcDbEntity
  8
CURVE
100
AcDbLine
 62
7
  6
CONTINUOUS
 10
11.1027034326
 20
-6.086013
 11
11.1046262095
 21
-6.0840902232
  0
LINE
  5
6F2
100
AcDbEntity
  8
RACCORDO
100
AcDbLine
 62
7
  6
CONTINUOUS
 10
-2.499999873
 20
-19.9
 11
-2.4979801969
 21
-19.8979803239
  0
LINE
  5
6F3
100
AcDbEntity
  8
ASSI
100
AcDbLine
 62
7
  6
CONTINUOUS
 10
-2.499999873
 20
-19.9
 11
-2.4979801969
 21
-19.8979803239
  0
LINE
  5
6F4
100
AcDbEntity
  8
CURVE
100
AcDbLine
 62
7
  6
CONTINUOUS
 10
11.0540377487
 20
-6.7227086831
 11
11.0564084319
 21
-6.720338
  0
LINE
  5
6F5
100
AcDbEntity
  8
CURVE
100
AcDbLine
 62
7
  6
CONTINUOUS
 10
11.0540377487
 20
-6.7647108259
 11
11.0984105747
 21
-6.720338
  0
LINE
  5
6F6
100
AcDbEntity
  8
CURVE
100
AcDbLine
 62
7
  6
CONTINUOUS
 10
11.0540377487
 20
-6.8067129688
 11
11.1046262095
 21
-6.756124508
  0
LINE
  5
6F7
100
AcDbEntity
  8
CURVE
100
AcDbLine
 62
7
  6
CONTINUOUS
 10
11.0540377487
 20
-6.8487151116
 11
11.1046262095
 21
-6.7981266508
  0
LINE
  5
6F8
100
AcDbEntity
  8
CURVE
100
AcDbLine
 62
7
  6
CONTINUOUS
 10
11.0540377487
 20
-6.8907172544
 11
11.1046262095
 21
-6.8401287936
  0
LINE
  5
6F9
100
AcDbEntity
  8
ASSI
100
AcDbLine
 62
7
  6
CONTINUOUS
 10
-4.449999873
 20
-22.4
 11
-4.406077626
 21
-22.356077753
  0
LINE
  5
6FA
100
AcDbEntity
  8
0
100
AcDbLine
 62
7
  6
CONTINUOUS
 10
-4.449999873
 20
-22.4
 11
-4.406077626
 21
-22.356077753
  0
LINE
  5
6FB
100
AcDbEntity
  8
CURVE
100
AcDbLine
 62
7
  6
CONTINUOUS
 10
11.0540377487
 20
-6.9327193972
 11
11.1046262095
 21
-6.8821309364
  0
LINE
  5
6FC
100
AcDbEntity
  8
CURVE
100
AcDbLine
 62
7
  6
CONTINUOUS
 10
11.0540377487
 20
-6.97472154
 11
11.1046262095
 21
-6.9241330792
  0
LINE
  5
6FD
100
AcDbEntity
  8
CURVE
100
AcDbLine
 62
7
  6
CONTINUOUS
 10
11.0540377487
 20
-7.0167236828
 11
11.1046262095
 21
-6.966135222
  0
LINE
  5
6FE
100
AcDbEntity
  8
CURVE
100
AcDbLine
 62
7
  6
CONTINUOUS
 10
11.0540377487
 20
-7.0587258256
 11
11.1046262095
 21
-7.0081373648
  0
LINE
  5
6FF
100
AcDbEntity
  8
CURVE
100
AcDbLine
 62
7
  6
CONTINUOUS
 10
11.0540377487
 20
-7.1007279684
 11
11.1046262095
 21
-7.0501395076
  0
LINE
  5
700
100
AcDbEntity
  8
CURVE
100
AcDbLine
 62
7
  6
CONTINUOUS
 10
11.0540377487
 20
-7.1427301112
 11
11.1046262095
 21
-7.0921416504
  0
LINE
  5
701
100
AcDbEntity
  8
CURVE
100
AcDbLine
 62
7
  6
CONTINUOUS
 10
11.0540377487
 20
-7.184732254
 11
11.1046262095
 21
-7.1341437932
  0
LINE
  5
702
100
AcDbEntity
  8
0
100
AcDbLine
 62
253
  6
CONTINUOUS
 10
-11.1504362164
 20
-21.900016923
 11
-11.1417093486
 21
-21.8941990932
  0
LINE
  5
703
100
AcDbEntity
  8
RACCORDO
100
AcDbLine
 62
253
  6
CONTINUOUS
 10
-11.149999873
 20
-17.6716990487
 11
-10.4864027728
 21
-17.3968249551
  0
LINE
  5
704
100
AcDbEntity
  8
ASSI
100
AcDbLine
 62
253
  6
CONTINUOUS
 10
-11.149999873
 20
-17.6716990487
 11
-10.4864027728
 21
-17.3968249551
  0
LINE
  5
705
100
AcDbEntity
  8
SMUSSO
100
AcDbLine
 62
7
  6
CONTINUOUS
 10
-5.249999873
 20
10.45
 11
1.750000127
 21
10.45
  0
LINE
  5
706
100
AcDbEntity
  8
ASSI
100
AcDbLine
 62
7
  6
CONTINUOUS
 10
-5.249999873
 20
10.45
 11
1.750000127
 21
10.45
  0
LINE
  5
707
100
AcDbEntity
  8
CURVE
100
AcDbLine
 62
253
  6
CONTINUOUS
 10
-8.4285713237
 20
10.6619045258
 11
-7.871428461
 21
10.6619045258
  0
LINE
  5
708
100
AcDbEntity
  8
RACCORDO
100
AcDbLine
 62
7
  6
CONTINUOUS
 10
9.350000127
 20
10.9
 11
10.5870742831
 21
10.9
  0
LINE
  5
709
100
AcDbEntity
  8
ASSI
100
AcDbLine
 62
7
  6
CONTINUOUS
 10
9.350000127
 20
10.9
 11
10.5870742831
 21
10.9
  0
LINE
  5
70A
100
AcDbEntity
  8
SMUSSO
100
AcDbLine
 62
7
  6
CONTINUOUS
 10
-5.8273501422
 20
11.0273502692
 11
2.3273503962
 21
11.0273502692
  0
LINE
  5
70B
100
AcDbEntity
  8
ASSI
100
AcDbLine
 62
7
  6
CONTINUOUS
 10
-5.8273501422
 20
11.0273502692
 11
2.3273503962
 21
11.0273502692
  0
LINE
  5
70C
100
AcDbEntity
  8
SMUSSO
100
AcDbLine
 62
7
  6
CONTINUOUS
 10
2.3273503962
 20
11.5726497308
 11
-5.8273501422
 21
11.5726497308
  0
LINE
  5
70D
100
AcDbEntity
  8
ASSI
100
AcDbLine
 62
7
  6
CONTINUOUS
 10
2.3273503962
 20
11.5726497308
 11
-5.8273501422
 21
11.5726497308
  0
LINE
  5
70E
100
AcDbEntity
  8
RACCORDO
100
AcDbLine
 62
7
  6
CONTINUOUS
 10
9.350000127
 20
11.7
 11
10.5870742831
 21
11.7
  0
LINE
  5
70F
100
AcDbEntity
  8
ASSI
100
AcDbLine
 62
7
  6
CONTINUOUS
 10
9.350000127
 20
11.7
 11
10.5870742831
 21
11.7
  0
LINE
  5
710
100
AcDbEntity
  8
CURVE
100
AcDbLine
 62
253
  6
CONTINUOUS
 10
-8.149999873
 20
12.0238090515
 11
-7.685714167
 21
12.0238090515
  0
LINE
  5
711
100
AcDbEntity
  8
SMUSSO
100
AcDbLine
 62
7
  6
CONTINUOUS
 10
1.750000127
 20
12.15
 11
-5.249999873
 21
12.15
  0
LINE
  5
712
100
AcDbEntity
  8
ASSI
100
AcDbLine
 62
7
  6
CONTINUOUS
 10
1.750000127
 20
12.15
 11
-5.249999873
 21
12.15
  0
LINE
  5
713
100
AcDbEntity
  8
0
100
AcDbLine
 62
7
  6
CONTINUOUS
 10
1.750000127
 20
12.5
 11
-4.499999873
 21
12.5
  0
LINE
  5
714
100
AcDbEntity
  8
ASSI
100
AcDbLine
 62
7
  6
CONTINUOUS
 10
9.5121051141
 20
12.5132676422
 11
9.350000127
 21
12.5132676422
  0
LINE
  5
715
100
AcDbEntity
  8
DRAFT
100
AcDbLine
 62
7
  6
CONTINUOUS
 10
9.5121051141
 20
12.5132676422
 11
9.350000127
 21
12.5132676422
  0
LINE
  5
716
100
AcDbEntity
  8
CURVE
100
AcDbLine
 62
253
  6
CONTINUOUS
 10
-7.685714167
 20
12.6738090515
 11
-8.0571427357
 21
12.6738090515
  0
LINE
  5
717
100
AcDbEntity
  8
CURVE
100
AcDbLine
 62
253
  6
CONTINUOUS
 10
11.1047536488
 20
12.785664
 11
11.0541369802
 21
12.785664
  0
LINE
  5
718
100
AcDbEntity
  8
RACCORDO
100
AcDbLine
 62
253
  6
CONTINUOUS
 10
-10.4864027728
 20
17.3968249552
 11
-11.149999873
 21
17.6716990487
  0
LINE
  5
719
100
AcDbEntity
  8
ASSI
100
AcDbLine
 62
253
  6
CONTINUOUS
 10
-10.4864027728
 20
17.3968249552
 11
-11.149999873
 21
17.6716990487
  0
LINE
  5
71A
100
AcDbEntity
  8
0
100
AcDbLine
 62
253
  6
CONTINUOUS
 10
-11.1417093486
 20
21.8941990932
 11
-11.1504362164
 21
21.900016923
  0
LINE
  5
71B
100
AcDbEntity
  8
DRAFT
100
AcDbLine
 62
7
  6
CONTINUOUS
 10
-3.499999873
 20
19.7
 11
-3.4109790419
 21
19.6109791689
  0
LINE
  5
71C
100
AcDbEntity
  8
ASSI
100
AcDbLine
 62
7
  6
CONTINUOUS
 10
-3.499999873
 20
19.7
 11
-3.4109790419
 21
19.6109791689
  0
LINE
  5
71D
100
AcDbEntity
  8
DRAFT
100
AcDbLine
 62
7
  6
CONTINUOUS
 10
-3.499999873
 20
19.9
 11
-3.4109790419
 21
19.8109791689
  0
LINE
  5
71E
100
AcDbEntity
  8
ASSI
100
AcDbLine
 62
7
  6
CONTINUOUS
 10
-3.499999873
 20
19.9
 11
-3.4109790419
 21
19.8109791689
  0
LINE
  5
71F
100
AcDbEntity
  8
RACCORDO
100
AcDbLine
 62
7
  6
CONTINUOUS
 10
-2.499999873
 20
19.9
 11
-2.4979801969
 21
19.8979803239
  0
LINE
  5
720
100
AcDbEntity
  8
ASSI
100
AcDbLine
 62
7
  6
CONTINUOUS
 10
-2.499999873
 20
19.9
 11
-2.4979801969
 21
19.8979803239
  0
LINE
  5
721
100
AcDbEntity
  8
ASSI
100
AcDbLine
 62
7
  6
CONTINUOUS
 10
-4.449999873
 20
22.4
 11
-4.406077626
 21
22.356077753
  0
LINE
  5
722
100
AcDbEntity
  8
0
100
AcDbLine
 62
7
  6
CONTINUOUS
 10
-4.449999873
 20
22.4
 11
-4.406077626
 21
22.356077753
  0
LINE
  5
723
100
AcDbEntity
  8
ASSI
100
AcDbLine
 62
7
  6
CONTINUOUS
 10
11.1840375036
 20
18.1473460386
 11
11.150000127
 21
18.491183651
  0
LINE
  5
724
100
AcDbEntity
  8
0
100
AcDbLine
 62
7
  6
CONTINUOUS
 10
11.1840375036
 20
18.1473460386
 11
11.150000127
 21
18.491183651
  0
LINE
  5
725
100
AcDbEntity
  8
ASSI
100
AcDbLine
 62
7
  6
CONTINUOUS
 10
11.1840375036
 20
-18.1473460386
 11
11.150000127
 21
-18.491183651
  0
LINE
  5
726
100
AcDbEntity
  8
0
100
AcDbLine
 62
7
  6
CONTINUOUS
 10
11.1840375036
 20
-18.1473460386
 11
11.150000127
 21
-18.491183651
  0
LINE
  5
727
100
AcDbEntity
  8
CURVE
100
AcDbLine
 62
7
  6
CONTINUOUS
 10
11.0540377487
 20
-7.2267343968
 11
11.1046262095
 21
-7.176145936
  0
LINE
  5
728
100
AcDbEntity
  8
CURVE
100
AcDbLine
 62
7
  6
CONTINUOUS
 10
11.0846672883
 20
-7.238107
 11
11.1046262095
 21
-7.2181480788
  0
LINE
  5
729
100
AcDbEntity
  8
CURVE
100
AcDbLine
 62
7
  6
CONTINUOUS
 10
11.0540377487
 20
-7.8567665388
 11
11.0569662875
 21
-7.853838
  0
LINE
  5
72A
100
AcDbEntity
  8
CURVE
100
AcDbLine
 62
7
  6
CONTINUOUS
 10
11.0540377487
 20
-7.8987686816
 11
11.0989684303
 21
-7.853838
  0
LINE
  5
72B
100
AcDbEntity
  8
CURVE
100
AcDbLine
 62
7
  6
CONTINUOUS
 10
11.0540377487
 20
-7.9407708244
 11
11.1046262095
 21
-7.8901823637
  0
LINE
  5
72C
100
AcDbEntity
  8
CURVE
100
AcDbLine
 62
7
  6
CONTINUOUS
 10
11.0540377487
 20
-7.9827729672
 11
11.1046262095
 21
-7.9321845065
  0
LINE
  5
72D
100
AcDbEntity
  8
CURVE
100
AcDbLine
 62
7
  6
CONTINUOUS
 10
11.0540377487
 20
-8.02477511
 11
11.1046262095
 21
-7.9741866493
  0
LINE
  5
72E
100
AcDbEntity
  8
CURVE
100
AcDbLine
 62
7
  6
CONTINUOUS
 10
11.0540377487
 20
-8.0667772528
 11
11.1046262095
 21
-8.0161887921
  0
LINE
  5
72F
100
AcDbEntity
  8
CURVE
100
AcDbLine
 62
7
  6
CONTINUOUS
 10
11.0540377487
 20
-8.1087793956
 11
11.1046262095
 21
-8.0581909349
  0
LINE
  5
730
100
AcDbEntity
  8
CURVE
100
AcDbLine
 62
7
  6
CONTINUOUS
 10
11.0540377487
 20
-8.1507815384
 11
11.1046262095
 21
-8.1001930777
  0
LINE
  5
731
100
AcDbEntity
  8
CURVE
100
AcDbLine
 62
7
  6
CONTINUOUS
 10
11.0540377487
 20
-8.1927836812
 11
11.1046262095
 21
-8.1421952205
  0
LINE
  5
732
100
AcDbEntity
  8
CURVE
100
AcDbLine
 62
7
  6
CONTINUOUS
 10
11.0540377487
 20
-8.234785824
 11
11.1046262095
 21
-8.1841973633
  0
LINE
  5
733
100
AcDbEntity
  8
CURVE
100
AcDbLine
 62
7
  6
CONTINUOUS
 10
11.0540377487
 20
-8.2767879668
 11
11.1046262095
 21
-8.2261995061
  0
LINE
  5
734
100
AcDbEntity
  8
CURVE
100
AcDbLine
 62
7
  6
CONTINUOUS
 10
11.0540377487
 20
-8.3187901096
 11
11.1046262095
 21
-8.2682016489
  0
LINE
  5
735
100
AcDbEntity
  8
CURVE
100
AcDbLine
 62
7
  6
CONTINUOUS
 10
11.0540377487
 20
-8.3607922524
 11
11.1046262095
 21
-8.3102037917
  0
LINE
  5
736
100
AcDbEntity
  8
CURVE
100
AcDbLine
 62
7
  6
CONTINUOUS
 10
11.0717892622
 20
-8.3850428817
 11
11.0826148972
 21
-8.3742172467
  0
LINE
  5
737
100
AcDbEntity
  8
CURVE
100
AcDbLine
 62
7
  6
CONTINUOUS
 10
11.085255926
 20
-8.3715762179
 11
11.1046262095
 21
-8.3522059345
  0
LINE
  5
738
100
AcDbEntity
  8
CURVE
100
AcDbLine
 62
7
  6
CONTINUOUS
 10
11.0724618568
 20
-8.42637243
 11
11.0833235443
 21
-8.4155107424
  0
LINE
  5
739
100
AcDbEntity
  8
CURVE
100
AcDbLine
 62
7
  6
CONTINUOUS
 10
11.0731344513
 20
-8.4677019782
 11
11.0840321914
 21
-8.4568042382
  0
LINE
  5
73A
100
AcDbEntity
  8
ASSI
100
AcDbLine
 62
7
  6
CONTINUOUS
 10
-4.4063492261
 20
-23.9563493531
 11
-4.449999873
 21
-24.0
  0
LINE
  5
73B
100
AcDbEntity
  8
0
100
AcDbLine
 62
7
  6
CONTINUOUS
 10
-4.4063492261
 20
-23.9563493531
 11
-4.449999873
 21
-24.0
  0
LINE
  5
73C
100
AcDbEntity
  8
CURVE
100
AcDbLine
 62
7
  6
CONTINUOUS
 10
11.0738070459
 20
-8.5090315265
 11
11.0847408385
 21
-8.4980977339
  0
LINE
  5
73D
100
AcDbEntity
  8
CURVE
100
AcDbLine
 62
7
  6
CONTINUOUS
 10
11.0744796404
 20
-8.5503610748
 11
11.0854494855
 21
-8.5393912296
  0
LINE
  5
73E
100
AcDbEntity
  8
CURVE
100
AcDbLine
 62
7
  6
CONTINUOUS
 10
11.075152235
 20
-8.591690623
 11
11.0861581326
 21
-8.5806847254
  0
LINE
  5
73F
100
AcDbEntity
  8
CURVE
100
AcDbLine
 62
7
  6
CONTINUOUS
 10
11.0758248295
 20
-8.6330201713
 11
11.0868667797
 21
-8.6219782211
  0
LINE
  5
740
100
AcDbEntity
  8
CURVE
100
AcDbLine
 62
7
  6
CONTINUOUS
 10
11.0764974241
 20
-8.6743497195
 11
11.0875754268
 21
-8.6632717168
  0
LINE
  5
741
100
AcDbEntity
  8
CURVE
100
AcDbLine
 62
7
  6
CONTINUOUS
 10
11.0771700186
 20
-8.7156792678
 11
11.0882840738
 21
-8.7045652125
  0
LINE
  5
742
100
AcDbEntity
  8
CURVE
100
AcDbLine
 62
7
  6
CONTINUOUS
 10
11.0772090377
 20
-8.7576423915
 11
11.0889927209
 21
-8.7458587083
  0
LINE
  5
743
100
AcDbEntity
  8
CURVE
100
AcDbLine
 62
7
  6
CONTINUOUS
 10
11.0761577543
 20
-8.8006958177
 11
11.089701368
 21
-8.787152204
  0
LINE
  5
744
100
AcDbEntity
  8
CURVE
100
AcDbLine
 62
7
  6
CONTINUOUS
 10
11.0751064709
 20
-8.8437492438
 11
11.0904100151
 21
-8.8284456997
  0
LINE
  5
745
100
AcDbEntity
  8
CURVE
100
AcDbLine
 62
7
  6
CONTINUOUS
 10
11.0740551876
 20
-8.88680267
 11
11.0911186621
 21
-8.8697391955
  0
LINE
  5
746
100
AcDbEntity
  8
CURVE
100
AcDbLine
 62
7
  6
CONTINUOUS
 10
11.0730039042
 20
-8.9298560962
 11
11.0918273092
 21
-8.9110326912
  0
LINE
  5
747
100
AcDbEntity
  8
CURVE
100
AcDbLine
 62
7
  6
CONTINUOUS
 10
11.0719526208
 20
-8.9729095224
 11
11.0925359563
 21
-8.9523261869
  0
LINE
  5
748
100
AcDbEntity
  8
CURVE
100
AcDbLine
 62
7
  6
CONTINUOUS
 10
11.0709013375
 20
-9.0159629485
 11
11.0932446034
 21
-8.9936196826
  0
LINE
  5
749
100
AcDbEntity
  8
CURVE
100
AcDbLine
 62
7
  6
CONTINUOUS
 10
11.0698500541
 20
-9.0590163747
 11
11.0939532504
 21
-9.0349131784
  0
LINE
  5
74A
100
AcDbEntity
  8
CURVE
100
AcDbLine
 62
7
  6
CONTINUOUS
 10
11.0687987707
 20
-9.1020698009
 11
11.0946618975
 21
-9.0762066741
  0
LINE
  5
74B
100
AcDbEntity
  8
CURVE
100
AcDbLine
 62
7
  6
CONTINUOUS
 10
11.0677474873
 20
-9.1451232271
 11
11.0832052581
 21
-9.1296654563
  0
LINE
  5
74C
100
AcDbEntity
  8
CURVE
100
AcDbLine
 62
7
  6
CONTINUOUS
 10
11.084217462
 20
-9.1286532524
 11
11.0953705446
 21
-9.1175001698
  0
LINE
  5
74D
100
AcDbEntity
  8
CURVE
100
AcDbLine
 62
7
  6
CONTINUOUS
 10
11.066696204
 20
-9.1881766532
 11
11.0821835352
 21
-9.172689322
  0
LINE
  5
74E
100
AcDbEntity
  8
CURVE
100
AcDbLine
 62
7
  6
CONTINUOUS
 10
11.0849072007
 20
-9.1699656565
 11
11.0960791916
 21
-9.1587936655
  0
LINE
  5
74F
100
AcDbEntity
  8
CURVE
100
AcDbLine
 62
7
  6
CONTINUOUS
 10
11.0656449206
 20
-9.2312300794
 11
11.0811618123
 21
-9.2157131877
  0
LINE
  5
750
100
AcDbEntity
  8
CURVE
100
AcDbLine
 62
7
  6
CONTINUOUS
 10
11.0855969395
 20
-9.2112780605
 11
11.0967878387
 21
-9.2000871613
  0
LINE
  5
751
100
AcDbEntity
  8
CURVE
100
AcDbLine
 62
7
  6
CONTINUOUS
 10
11.0645936372
 20
-9.2742835056
 11
11.0801400894
 21
-9.2587370534
  0
LINE
  5
752
100
AcDbEntity
  8
CURVE
100
AcDbLine
 62
7
  6
CONTINUOUS
 10
11.0862866783
 20
-9.2525904645
 11
11.0974964858
 21
-9.241380657
  0
LINE
  5
753
100
AcDbEntity
  8
CURVE
100
AcDbLine
 62
7
  6
CONTINUOUS
 10
11.0635423539
 20
-9.3173369317
 11
11.0791183665
 21
-9.3017609191
  0
LINE
  5
754
100
AcDbEntity
  8
CURVE
100
AcDbLine
 62
7
  6
CONTINUOUS
 10
11.086976417
 20
-9.2939028686
 11
11.0982051329
 21
-9.2826741527
  0
LINE
  5
755
100
AcDbEntity
  8
CURVE
100
AcDbLine
 62
7
  6
CONTINUOUS
 10
11.0624910705
 20
-9.3603903579
 11
11.0780966436
 21
-9.3447847848
  0
LINE
  5
756
100
AcDbEntity
  8
CURVE
100
AcDbLine
 62
7
  6
CONTINUOUS
 10
11.0876661558
 20
-9.3352152726
 11
11.0989137799
 21
-9.3239676485
  0
LINE
  5
757
100
AcDbEntity
  8
CURVE
100
AcDbLine
 62
7
  6
CONTINUOUS
 10
11.0614397871
 20
-9.4034437841
 11
11.0770749207
 21
-9.3878086505
  0
LINE
  5
758
100
AcDbEntity
  8
CURVE
100
AcDbLine
 62
7
  6
CONTINUOUS
 10
11.0883558946
 20
-9.3765276767
 11
11.099622427
 21
-9.3652611442
  0
LINE
  5
759
100
AcDbEntity
  8
CURVE
100
AcDbLine
 62
7
  6
CONTINUOUS
 10
11.0603885037
 20
-9.4464972103
 11
11.0760531978
 21
-9.4308325162
  0
LINE
  5
75A
100
AcDbEntity
  8
CURVE
100
AcDbLine
 62
7
  6
CONTINUOUS
 10
11.0890456333
 20
-9.4178400807
 11
11.1003310741
 21
-9.4065546399
  0
LINE
  5
75B
100
AcDbEntity
  8
CURVE
100
AcDbLine
 62
7
  6
CONTINUOUS
 10
11.0593372204
 20
-9.4895506364
 11
11.0750314749
 21
-9.4738563819
  0
LINE
  5
75C
100
AcDbEntity
  8
CURVE
100
AcDbLine
 62
7
  6
CONTINUOUS
 10
11.0897353721
 20
-9.4591524847
 11
11.1010397212
 21
-9.4478481356
  0
LINE
  5
75D
100
AcDbEntity
  8
CURVE
100
AcDbLine
 62
7
  6
CONTINUOUS
 10
11.058285937
 20
-9.5326040626
 11
11.074009752
 21
-9.5168802476
  0
LINE
  5
75E
100
AcDbEntity
  8
CURVE
100
AcDbLine
 62
7
  6
CONTINUOUS
 10
11.0904251108
 20
-9.5004648888
 11
11.1017483682
 21
-9.4891416314
  0
LINE
  5
75F
100
AcDbEntity
  8
CURVE
100
AcDbLine
 62
7
  6
CONTINUOUS
 10
11.0572346536
 20
-9.5756574888
 11
11.0729880292
 21
-9.5599041133
  0
LINE
  5
760
100
AcDbEntity
  8
CURVE
100
AcDbLine
 62
7
  6
CONTINUOUS
 10
11.0911148496
 20
-9.5417772928
 11
11.1024570153
 21
-9.5304351271
  0
LINE
  5
761
100
AcDbEntity
  8
CURVE
100
AcDbLine
 62
7
  6
CONTINUOUS
 10
11.0561833703
 20
-9.618710915
 11
11.0719663063
 21
-9.602927979
  0
LINE
  5
762
100
AcDbEntity
  8
CURVE
100
AcDbLine
 62
7
  6
CONTINUOUS
 10
11.0918045884
 20
-9.5830896968
 11
11.1031656624
 21
-9.5717286228
  0
LINE
  5
763
100
AcDbEntity
  8
CURVE
100
AcDbLine
 62
7
  6
CONTINUOUS
 10
11.0551320869
 20
-9.6617643411
 11
11.0709445834
 21
-9.6459518447
  0
LINE
  5
764
100
AcDbEntity
  8
CURVE
100
AcDbLine
 62
7
  6
CONTINUOUS
 10
11.0924943271
 20
-9.6244021009
 11
11.1038743095
 21
-9.6130221186
  0
LINE
  5
765
100
AcDbEntity
  8
CURVE
100
AcDbLine
 62
7
  6
CONTINUOUS
 10
11.0540808035
 20
-9.7048177673
 11
11.0699228605
 21
-9.6889757104
  0
LINE
  5
766
100
AcDbEntity
  8
CURVE
100
AcDbLine
 62
7
  6
CONTINUOUS
 10
11.0931840659
 20
-9.6657145049
 11
11.1045829565
 21
-9.6543156143
  0
LINE
  5
767
100
AcDbEntity
  8
CURVE
100
AcDbLine
 62
7
  6
CONTINUOUS
 10
11.0540377487
 20
-9.7468629649
 11
11.0689011376
 21
-9.7319995761
  0
LINE
  5
768
100
AcDbEntity
  8
CURVE
100
AcDbLine
 62
7
  6
CONTINUOUS
 10
11.0938738047
 20
-9.707026909
 11
11.1046262095
 21
-9.6962745042
  0
LINE
  5
769
100
AcDbEntity
  8
CURVE
100
AcDbLine
 62
7
  6
CONTINUOUS
 10
11.0540377487
 20
-9.7888651077
 11
11.0678794147
 21
-9.7750234418
  0
LINE
  5
76A
100
AcDbEntity
  8
CURVE
100
AcDbLine
 62
7
  6
CONTINUOUS
 10
11.0945635434
 20
-9.748339313
 11
11.1046262095
 21
-9.738276647
  0
LINE
  5
76B
100
AcDbEntity
  8
CURVE
100
AcDbLine
 62
7
  6
CONTINUOUS
 10
11.0540377487
 20
-9.8308672505
 11
11.0668576918
 21
-9.8180473075
  0
LINE
  5
76C
100
AcDbEntity
  8
CURVE
100
AcDbLine
 62
7
  6
CONTINUOUS
 10
11.0952532822
 20
-9.789651717
 11
11.1046262095
 21
-9.7802787898
  0
LINE
  5
76D
100
AcDbEntity
  8
CURVE
100
AcDbLine
 62
7
  6
CONTINUOUS
 10
11.0540377487
 20
-9.8728693933
 11
11.0658359689
 21
-9.8610711732
  0
LINE
  5
76E
100
AcDbEntity
  8
CURVE
100
AcDbLine
 62
7
  6
CONTINUOUS
 10
11.095943021
 20
-9.8309641211
 11
11.1046262095
 21
-9.8222809326
  0
LINE
  5
76F
100
AcDbEntity
  8
CURVE
100
AcDbLine
 62
7
  6
CONTINUOUS
 10
11.0540377487
 20
-9.9148715361
 11
11.064814246
 21
-9.9040950389
  0
LINE
  5
770
100
AcDbEntity
  8
CURVE
100
AcDbLine
 62
7
  6
CONTINUOUS
 10
11.0966327597
 20
-9.8722765251
 11
11.1046262095
 21
-9.8642830754
  0
LINE
  5
771
100
AcDbEntity
  8
CURVE
100
AcDbLine
 62
7
  6
CONTINUOUS
 10
11.0540377487
 20
-9.9568736789
 11
11.0637925231
 21
-9.9471189046
  0
LINE
  5
772
100
AcDbEntity
  8
CURVE
100
AcDbLine
 62
7
  6
CONTINUOUS
 10
11.0973224985
 20
-9.9135889292
 11
11.1046262095
 21
-9.9062852182
  0
LINE
  5
773
100
AcDbEntity
  8
CURVE
100
AcDbLine
 62
7
  6
CONTINUOUS
 10
11.0540377487
 20
-9.9988758217
 11
11.0627708002
 21
-9.9901427703
  0
LINE
  5
774
100
AcDbEntity
  8
CURVE
100
AcDbLine
 62
7
  6
CONTINUOUS
 10
11.0980122373
 20
-9.9549013332
 11
11.1046262095
 21
-9.948287361
  0
LINE
  5
775
100
AcDbEntity
  8
CURVE
100
AcDbLine
 62
7
  6
CONTINUOUS
 10
11.0540377487
 20
-10.0408779645
 11
11.0617490773
 21
-10.033166636
  0
LINE
  5
776
100
AcDbEntity
  8
CURVE
100
AcDbLine
 62
7
  6
CONTINUOUS
 10
11.098701976
 20
-9.9962137372
 11
11.1046262095
 21
-9.9902895038
  0
LINE
  5
777
100
AcDbEntity
  8
CURVE
100
AcDbLine
 62
7
  6
CONTINUOUS
 10
11.0540377487
 20
-10.0828801073
 11
11.0607273544
 21
-10.0761905016
  0
LINE
  5
778
100
AcDbEntity
  8
CURVE
100
AcDbLine
 62
7
  6
CONTINUOUS
 10
11.0993917148
 20
-10.0375261413
 11
11.1046262095
 21
-10.0322916466
  0
LINE
  5
779
100
AcDbEntity
  8
CURVE
100
AcDbLine
 62
7
  6
CONTINUOUS
 10
11.0540377487
 20
-10.1248822501
 11
11.0597056315
 21
-10.1192143673
  0
LINE
  5
77A
100
AcDbEntity
  8
CURVE
100
AcDbLine
 62
7
  6
CONTINUOUS
 10
11.1000814535
 20
-10.0788385453
 11
11.1046262095
 21
-10.0742937894
  0
LINE
  5
77B
100
AcDbEntity
  8
CURVE
100
AcDbLine
 62
7
  6
CONTINUOUS
 10
11.0540377487
 20
-10.1668843929
 11
11.0586839086
 21
-10.162238233
  0
LINE
  5
77C
100
AcDbEntity
  8
CURVE
100
AcDbLine
 62
7
  6
CONTINUOUS
 10
11.1007711923
 20
-10.1201509493
 11
11.1046262095
 21
-10.1162959322
  0
LINE
  5
77D
100
AcDbEntity
  8
CURVE
100
AcDbLine
 62
7
  6
CONTINUOUS
 10
11.0540377487
 20
-10.2088865358
 11
11.0576621857
 21
-10.2052620987
  0
LINE
  5
77E
100
AcDbEntity
  8
CURVE
100
AcDbLine
 62
7
  6
CONTINUOUS
 10
11.1014609311
 20
-10.1614633534
 11
11.1046262095
 21
-10.158298075
  0
LINE
  5
77F
100
AcDbEntity
  8
CURVE
100
AcDbLine
 62
7
  6
CONTINUOUS
 10
11.0540377487
 20
-10.2508886786
 11
11.0566404628
 21
-10.2482859644
  0
LINE
  5
780
100
AcDbEntity
  8
CURVE
100
AcDbLine
 62
7
  6
CONTINUOUS
 10
11.1021506698
 20
-10.2027757574
 11
11.1046262095
 21
-10.2003002178
  0
LINE
  5
781
100
AcDbEntity
  8
CURVE
100
AcDbLine
 62
7
  6
CONTINUOUS
 10
11.0540377487
 20
-10.2928908214
 11
11.0556187399
 21
-10.2913098301
  0
LINE
  5
782
100
AcDbEntity
  8
CURVE
100
AcDbLine
 62
7
  6
CONTINUOUS
 10
11.1028404086
 20
-10.2440881615
 11
11.1046262095
 21
-10.2423023606
  0
LINE
  5
783
100
AcDbEntity
  8
CURVE
100
AcDbLine
 62
7
  6
CONTINUOUS
 10
11.0540377487
 20
-10.3348929642
 11
11.054597017
 21
-10.3343336958
  0
LINE
  5
784
100
AcDbEntity
  8
CURVE
100
AcDbLine
 62
7
  6
CONTINUOUS
 10
11.1035301474
 20
-10.2854005655
 11
11.1046262095
 21
-10.2843045034
  0
LINE
  5
785
100
AcDbEntity
  8
CURVE
100
AcDbLine
 62
7
  6
CONTINUOUS
 10
11.1042198861
 20
-10.3267129695
 11
11.1046262095
 21
-10.3263066462
  0
LINE
  5
786
100
AcDbEntity
  8
CURVE
100
AcDbLine
 62
7
  6
CONTINUOUS
 10
11.0729330017
 20
-10.4000019967
 11
11.0846392726
 21
-10.3882957259
  0
LINE
  5
787
100
AcDbEntity
  8
CURVE
100
AcDbLine
 62
7
  6
CONTINUOUS
 10
11.0698385043
 20
-10.445098637
 11
11.0877520921
 21
-10.4271850492
  0
LINE
  5
788
100
AcDbEntity
  8
CURVE
100
AcDbLine
 62
7
  6
CONTINUOUS
 10
11.0676918786
 20
-10.4892474055
 11
11.0899533645
 21
-10.4669859196
  0
LINE
  5
789
100
AcDbEntity
  8
CURVE
100
AcDbLine
 62
7
  6
CONTINUOUS
 10
11.0659529475
 20
-10.5329884794
 11
11.0917459046
 21
-10.5071955223
  0
LINE
  5
78A
100
AcDbEntity
  8
CURVE
100
AcDbLine
 62
7
  6
CONTINUOUS
 10
11.0644765293
 20
-10.5764670404
 11
11.0932573559
 21
-10.5476862137
  0
LINE
  5
78B
100
AcDbEntity
  8
CURVE
100
AcDbLine
 62
7
  6
CONTINUOUS
 10
11.0632022215
 20
-10.6197434909
 11
11.0945659889
 21
-10.5883797236
  0
LINE
  5
78C
100
AcDbEntity
  8
CURVE
100
AcDbLine
 62
7
  6
CONTINUOUS
 10
11.0620849276
 20
-10.6628629276
 11
11.0957232535
 21
-10.6292246018
  0
LINE
  5
78D
100
AcDbEntity
  8
CURVE
100
AcDbLine
 62
7
  6
CONTINUOUS
 10
11.0611204244
 20
-10.7058295736
 11
11.0967649835
 21
-10.6701850146
  0
LINE
  5
78E
100
AcDbEntity
  8
RACCORDO
100
AcDbLine
 62
253
  6
CONTINUOUS
 10
-10.5643026535
 20
-19.0856972195
 11
-9.9007027818
 21
-18.8108290722
  0
LINE
  5
78F
100
AcDbEntity
  8
ASSI
100
AcDbLine
 62
253
  6
CONTINUOUS
 10
-10.5643026535
 20
-19.0856972195
 11
-9.9007027818
 21
-18.8108290722
  0
LINE
  5
790
100
AcDbEntity
  8
CURVE
100
AcDbLine
 62
253
  6
CONTINUOUS
 10
-7.871428461
 20
13.0452386856
 11
-8.4285713237
 21
13.0452386856
  0
LINE
  5
791
100
AcDbEntity
  8
CURVE
100
AcDbLine
 62
253
  6
CONTINUOUS
 10
11.0541369802
 20
13.390935
 11
11.1047536488
 21
13.390935
  0
LINE
  5
792
100
AcDbEntity
  8
CURVE
100
AcDbLine
 62
253
  6
CONTINUOUS
 10
3.100000127
 20
13.5
 11
5.000000127
 21
13.5
  0
LINE
  5
793
100
AcDbEntity
  8
CURVE
100
AcDbLine
 62
253
  6
CONTINUOUS
 10
-8.4285713237
 20
13.6952386856
 11
-7.871428461
 21
13.6952386856
  0
LINE
  5
794
100
AcDbEntity
  8
CURVE
100
AcDbLine
 62
253
  6
CONTINUOUS
 10
-7.499999873
 20
14.0666670799
 11
-8.799999873
 21
14.0666670799
  0
LINE
  5
795
100
AcDbEntity
  8
CURVE
100
AcDbLine
 62
253
  6
CONTINUOUS
 10
-8.799999873
 20
14.7166670799
 11
-7.499999873
 21
14.7166670799
  0
LINE
  5
796
100
AcDbEntity
  8
0
100
AcDbLine
 62
7
  6
CONTINUOUS
 10
-4.499999873
 20
15.1
 11
1.750000127
 21
15.1
  0
LINE
  5
797
100
AcDbEntity
  8
RACCORDO
100
AcDbLine
 62
253
  6
CONTINUOUS
 10
-9.9007027818
 20
18.8108290722
 11
-10.5643026535
 21
19.0856972195
  0
LINE
  5
798
100
AcDbEntity
  8
ASSI
100
AcDbLine
 62
253
  6
CONTINUOUS
 10
-9.9007027818
 20
18.8108290722
 11
-10.5643026535
 21
19.0856972195
  0
LINE
  5
799
100
AcDbEntity
  8
ASSI
100
AcDbLine
 62
7
  6
CONTINUOUS
 10
-4.4063492261
 20
23.9563493531
 11
-4.449999873
 21
24.0
  0
LINE
  5
79A
100
AcDbEntity
  8
0
100
AcDbLine
 62
7
  6
CONTINUOUS
 10
-4.4063492261
 20
23.9563493531
 11
-4.449999873
 21
24.0
  0
LINE
  5
79B
100
AcDbEntity
  8
CURVE
100
AcDbLine
 62
253
  6
CONTINUOUS
 10
11.0541369802
 20
11.880779
 11
11.0871867318
 21
11.750162
  0
LINE
  5
79C
100
AcDbEntity
  8
CURVE
100
AcDbLine
 62
253
  6
CONTINUOUS
 10
11.1047506116
 20
12.198005
 11
11.0541369802
 21
12.459827
  0
LINE
  5
79D
100
AcDbEntity
  8
CURVE
100
AcDbLine
 62
7
  6
CONTINUOUS
 10
11.0602494246
 20
-10.7487027163
 11
11.0976751793
 21
-10.7112769616
  0
LINE
  5
79E
100
AcDbEntity
  8
CURVE
100
AcDbLine
 62
7
  6
CONTINUOUS
 10
11.0594467264
 20
-10.7915075573
 11
11.0984956717
 21
-10.752458612
  0
LINE
  5
79F
100
AcDbEntity
  8
CURVE
100
AcDbLine
 62
7
  6
CONTINUOUS
 10
11.0587620845
 20
-10.834194342
 11
11.0992626657
 21
-10.7936937608
  0
LINE
  5
7A0
100
AcDbEntity
  8
CURVE
100
AcDbLine
 62
7
  6
CONTINUOUS
 10
11.0581153267
 20
-10.8768432426
 11
11.0999257258
 21
-10.8350328435
  0
LINE
  5
7A1
100
AcDbEntity
  8
CURVE
100
AcDbLine
 62
7
  6
CONTINUOUS
 10
11.057532874
 20
-10.9194278381
 11
11.0752673094
 21
-10.9016934027
  0
LINE
  5
7A2
100
AcDbEntity
  8
CURVE
100
AcDbLine
 62
7
  6
CONTINUOUS
 10
11.0825078835
 20
-10.8944528286
 11
11.1005530948
 21
-10.8764076173
  0
LINE
  5
7A3
100
AcDbEntity
  8
CURVE
100
AcDbLine
 62
7
  6
CONTINUOUS
 10
11.0570015706
 20
-10.9619612843
 11
11.0718268337
 21
-10.9471360212
  0
LINE
  5
7A4
100
AcDbEntity
  8
CURVE
100
AcDbLine
 62
7
  6
CONTINUOUS
 10
11.0859823762
 20
-10.9329804787
 11
11.1011198457
 21
-10.9178430092
  0
LINE
  5
7A5
100
AcDbEntity
  8
CURVE
100
AcDbLine
 62
7
  6
CONTINUOUS
 10
11.0565073494
 20
-11.0044576483
 11
11.0697729092
 21
-10.9911920885
  0
LINE
  5
7A6
100
AcDbEntity
  8
CURVE
100
AcDbLine
 62
7
  6
CONTINUOUS
 10
11.0881052952
 20
-10.9728597025
 11
11.1016421425
 21
-10.9593228552
  0
LINE
  5
7A7
100
AcDbEntity
  8
CURVE
100
AcDbLine
 62
7
  6
CONTINUOUS
 10
11.0560664031
 20
-11.0469007374
 11
11.0682115203
 21
-11.0347556202
  0
LINE
  5
7A8
100
AcDbEntity
  8
CURVE
100
AcDbLine
 62
7
  6
CONTINUOUS
 10
11.0897045893
 20
-11.0132625512
 11
11.1021250051
 21
-11.0008421354
  0
LINE
  5
7A9
100
AcDbEntity
  8
CURVE
100
AcDbLine
 62
7
  6
CONTINUOUS
 10
11.0556507235
 20
-11.0893185598
 11
11.0669812549
 21
-11.0779880284
  0
LINE
  5
7AA
100
AcDbEntity
  8
CURVE
100
AcDbLine
 62
7
  6
CONTINUOUS
 10
11.0910268094
 20
-11.0539424739
 11
11.1025639371
 21
-11.0424053462
  0
LINE
  5
7AB
100
AcDbEntity
  8
CURVE
100
AcDbLine
 62
7
  6
CONTINUOUS
 10
11.0552839967
 20
-11.1316874294
 11
11.0659591511
 21
-11.121012275
  0
LINE
  5
7AC
100
AcDbEntity
  8
CURVE
100
AcDbLine
 62
7
  6
CONTINUOUS
 10
11.0921103013
 20
-11.0948611248
 11
11.1029715448
 21
-11.0839998813
  0
LINE
  5
7AD
100
AcDbEntity
  8
CURVE
100
AcDbLine
 62
7
  6
CONTINUOUS
 10
11.0549401777
 20
-11.1740333912
 11
11.0650952737
 21
-11.1638782952
  0
LINE
  5
7AE
100
AcDbEntity
  8
CURVE
100
AcDbLine
 62
7
  6
CONTINUOUS
 10
11.0930248613
 20
-11.1359487076
 11
11.1033412158
 21
-11.1256323531
  0
LINE
  5
7AF
100
AcDbEntity
  8
CURVE
100
AcDbLine
 62
7
  6
CONTINUOUS
 10
11.0546365725
 20
-11.2163391393
 11
11.0643852645
 21
-11.2065904473
  0
LINE
  5
7B0
100
AcDbEntity
  8
CURVE
100
AcDbLine
 62
7
  6
CONTINUOUS
 10
11.0938012536
 20
-11.1771744581
 11
11.103679486
 21
-11.1672962258
  0
LINE
  5
7B1
100
AcDbEntity
  8
CURVE
100
AcDbLine
 62
7
  6
CONTINUOUS
 10
11.054359421
 20
-11.2586184335
 11
11.0637875685
 21
-11.2491902861
  0
LINE
  5
7B2
100
AcDbEntity
  8
CURVE
100
AcDbLine
 62
7
  6
CONTINUOUS
 10
11.0944551191
 20
-11.2185227354
 11
11.1039895875
 21
-11.2089882671
  0
LINE
  5
7B3
100
AcDbEntity
  8
CURVE
100
AcDbLine
 62
7
  6
CONTINUOUS
 10
11.0541098733
 20
-11.300870124
 11
11.0632757
 21
-11.2917042973
  0
LINE
  5
7B4
100
AcDbEntity
  8
CURVE
100
AcDbLine
 62
7
  6
CONTINUOUS
 10
11.0950119742
 20
-11.2599680231
 11
11.1042631129
 21
-11.2507168845
  0
LINE
  5
7B5
100
AcDbEntity
  8
CURVE
100
AcDbLine
 62
7
  6
CONTINUOUS
 10
11.0538929776
 20
-11.3430891625
 11
11.0628325074
 21
-11.3341496327
  0
LINE
  5
7B6
100
AcDbEntity
  8
CURVE
100
AcDbLine
 62
7
  6
CONTINUOUS
 10
11.0954931905
 20
-11.3014889496
 11
11.1045212356
 21
-11.2924609046
  0
LINE
  5
7B7
100
AcDbEntity
  8
CURVE
100
AcDbLine
 62
7
  6
CONTINUOUS
 10
11.0536902404
 20
-11.3852940425
 11
11.0624489357
 21
-11.3765353473
  0
LINE
  5
7B8
100
AcDbEntity
  8
CURVE
100
AcDbLine
 62
7
  6
CONTINUOUS
 10
11.0959128014
 20
-11.3430714815
 11
11.104735895
 21
-11.3342483879
  0
LINE
  5
7B9
100
AcDbEntity
  8
CURVE
100
AcDbLine
 62
7
  6
CONTINUOUS
 10
11.0535279402
 20
-11.4274584855
 11
11.0621240075
 21
-11.4188624182
  0
LINE
  5
7BA
100
AcDbEntity
  8
CURVE
100
AcDbLine
 62
7
  6
CONTINUOUS
 10
11.0962803903
 20
-11.3847060355
 11
11.1049484011
 21
-11.3760380246
  0
LINE
  5
7BB
100
AcDbEntity
  8
CURVE
100
AcDbLine
 62
7
  6
CONTINUOUS
 10
11.0533666137
 20
-11.4696219549
 11
11.0618423904
 21
-11.4611461782
  0
LINE
  5
7BC
100
AcDbEntity
  8
CURVE
100
AcDbLine
 62
7
  6
CONTINUOUS
 10
11.0965979115
 20
-11.426390657
 11
11.1051094374
 21
-11.4178791311
  0
LINE
  5
7BD
100
AcDbEntity
  8
CURVE
100
AcDbLine
 62
7
  6
CONTINUOUS
 10
11.0532544624
 20
-11.511736249
 11
11.0615999461
 21
-11.5033907652
  0
LINE
  5
7BE
100
AcDbEntity
  8
CURVE
100
AcDbLine
 62
7
  6
CONTINUOUS
 10
11.0968662493
 20
-11.468124462
 11
11.1052704737
 21
-11.4597202377
  0
LINE
  5
7BF
100
AcDbEntity
  8
CURVE
100
AcDbLine
 62
7
  6
CONTINUOUS
 10
11.0531423111
 20
-11.5538505431
 11
11.0613937397
 21
-11.5455991144
  0
LINE
  5
7C0
100
AcDbEntity
  8
CURVE
100
AcDbLine
 62
7
  6
CONTINUOUS
 10
11.0970978154
 20
-11.5098950387
 11
11.1053927574
 21
-11.5016000967
  0
LINE
  5
7C1
100
AcDbEntity
  8
CURVE
100
AcDbLine
 62
7
  6
CONTINUOUS
 10
11.0530652234
 20
-11.5959297735
 11
11.0612273051
 21
-11.5877676918
  0
LINE
  5
7C2
100
AcDbEntity
  8
CURVE
100
AcDbLine
 62
7
  6
CONTINUOUS
 10
11.0972949273
 20
-11.5517000696
 11
11.105504296
 21
-11.5434907009
  0
LINE
  5
7C3
100
AcDbEntity
  8
CURVE
100
AcDbLine
 62
7
  6
CONTINUOUS
 10
11.0529997676
 20
-11.6379973721
 11
11.0611027216
 21
-11.6298944181
  0
LINE
  5
7C4
100
AcDbEntity
  8
CURVE
100
AcDbLine
 62
7
  6
CONTINUOUS
 10
11.0974591683
 20
-11.5935379714
 11
11.1055925801
 21
-11.5854045596
  0
LINE
  5
7C5
100
AcDbEntity
  8
CURVE
100
AcDbLine
 62
7
  6
CONTINUOUS
 10
11.0529548691
 20
-11.6800444135
 11
11.0610104901
 21
-11.6719887925
  0
LINE
  5
7C6
100
AcDbEntity
  8
CURVE
100
AcDbLine
 62
7
  6
CONTINUOUS
 10
11.0975774854
 20
-11.6354217971
 11
11.1056578205
 21
-11.627341462
  0
LINE
  5
7C7
100
AcDbEntity
  8
CURVE
100
AcDbLine
 62
7
  6
CONTINUOUS
 10
11.0529334961
 20
-11.7220679293
 11
11.0609507675
 21
-11.7140506578
  0
LINE
  5
7C8
100
AcDbEntity
  8
CURVE
100
AcDbLine
 62
7
  6
CONTINUOUS
 10
11.0976632539
 20
-11.6773381715
 11
11.1057138177
 21
-11.6692876077
  0
LINE
  5
7C9
100
AcDbEntity
  8
CURVE
100
AcDbLine
 62
7
  6
CONTINUOUS
 10
11.0529197388
 20
-11.7640838293
 11
11.0609264347
 21
-11.7560771335
  0
LINE
  5
7CA
100
AcDbEntity
  8
CURVE
100
AcDbLine
 62
7
  6
CONTINUOUS
 10
11.0977168607
 20
-11.7192867074
 11
11.1057351644
 21
-11.7112684038
  0
LINE
  5
7CB
100
AcDbEntity
  8
CURVE
100
AcDbLine
 62
7
  6
CONTINUOUS
 10
11.0529410886
 20
-11.8060646224
 11
11.0609488312
 21
-11.7980568798
  0
LINE
  5
7CC
100
AcDbEntity
  8
CURVE
100
AcDbLine
 62
7
  6
CONTINUOUS
 10
11.0977373049
 20
-11.761268406
 11
11.105756511
 21
-11.7532491999
  0
LINE
  5
7CD
100
AcDbEntity
  8
CURVE
100
AcDbLine
 62
7
  6
CONTINUOUS
 10
11.0529624383
 20
-11.8480454155
 11
11.0610049213
 21
-11.8400029325
  0
LINE
  5
7CE
100
AcDbEntity
  8
CURVE
100
AcDbLine
 62
7
  6
CONTINUOUS
 10
11.0977126998
 20
-11.8032951539
 11
11.1057385496
 21
-11.7952693042
  0
LINE
  5
7CF
100
AcDbEntity
  8
CURVE
100
AcDbLine
 62
7
  6
CONTINUOUS
 10
11.0530227766
 20
-11.8899872199
 11
11.0610937262
 21
-11.8819162704
  0
LINE
  5
7D0
100
AcDbEntity
  8
CURVE
100
AcDbLine
 62
7
  6
CONTINUOUS
 10
11.0976504194
 20
-11.8453595772
 11
11.1057171781
 21
-11.8372928184
  0
LINE
  5
7D1
100
AcDbEntity
  8
CURVE
100
AcDbLine
 62
7
  6
CONTINUOUS
 10
11.0530880266
 20
-11.9319241127
 11
11.0612147703
 21
-11.9237973691
  0
LINE
  5
7D2
100
AcDbEntity
  8
CURVE
100
AcDbLine
 62
7
  6
CONTINUOUS
 10
11.0975550677
 20
-11.8874570717
 11
11.1056679309
 21
-11.8793442085
  0
LINE
  5
7D3
100
AcDbEntity
  8
CURVE
100
AcDbLine
 62
7
  6
CONTINUOUS
 10
11.0531809066
 20
-11.9738333756
 11
11.0613814136
 21
-11.9656328686
  0
LINE
  5
7D4
100
AcDbEntity
  8
CURVE
100
AcDbLine
 62
7
  6
CONTINUOUS
 10
11.097426771
 20
-11.9295875112
 11
11.1056024776
 21
-11.9214118046
  0
LINE
  5
7D5
100
AcDbEntity
  8
CURVE
100
AcDbLine
 62
7
  6
CONTINUOUS
 10
11.0532924627
 20
-12.0157239623
 11
11.0615830272
 21
-12.0074333978
  0
LINE
  5
7D6
100
AcDbEntity
  8
CURVE
100
AcDbLine
 62
7
  6
CONTINUOUS
 10
11.0972587981
 20
-11.9717576268
 11
11.1055207708
 21
-11.9634956542
  0
LINE
  5
7D7
100
AcDbEntity
  8
CURVE
100
AcDbLine
 62
7
  6
CONTINUOUS
 10
11.0534196781
 20
-12.0575988897
 11
11.0618197063
 21
-12.0491988615
  0
LINE
  5
7D8
100
AcDbEntity
  8
CURVE
100
AcDbLine
 62
7
  6
CONTINUOUS
 10
11.0970479593
 20
-12.0139706084
 11
11.105408619
 21
-12.0056099488
  0
LINE
  5
7D9
100
AcDbEntity
  8
CURVE
100
AcDbLine
 62
7
  6
CONTINUOUS
 10
11.0535807417
 20
-12.0994399689
 11
11.0620938572
 21
-12.0909268534
  0
LINE
  5
7DA
100
AcDbEntity
  8
CURVE
100
AcDbLine
 62
7
  6
CONTINUOUS
 10
11.0968002437
 20
-12.0562204669
 11
11.1052924651
 21
-12.0477282455
  0
LINE
  5
7DB
100
AcDbEntity
  8
CURVE
100
AcDbLine
 62
7
  6
CONTINUOUS
 10
11.0537449877
 20
-12.1412778657
 11
11.0624134454
 21
-12.132609408
  0
LINE
  5
7DC
100
AcDbEntity
  8
CURVE
100
AcDbLine
 62
7
  6
CONTINUOUS
 10
11.0965126211
 20
-12.0985102323
 11
11.1051301565
 21
-12.0898926969
  0
LINE
  5
7DD
100
AcDbEntity
  8
CURVE
100
AcDbLine
 62
7
  6
CONTINUOUS
 10
11.0539596873
 20
-12.1830653089
 11
11.0627876743
 21
-12.1742373219
  0
LINE
  5
7DE
100
AcDbEntity
  8
CURVE
100
AcDbLine
 62
7
  6
CONTINUOUS
 10
11.0961808223
 20
-12.1408441739
 11
11.1049678478
 21
-12.1320571484
  0
LINE
  5
7DF
100
AcDbEntity
  8
CURVE
100
AcDbLine
 62
7
  6
CONTINUOUS
 10
11.0541743869
 20
-12.2248527521
 11
11.0632147988
 21
-12.2158123402
  0
LINE
  5
7E0
100
AcDbEntity
  8
CURVE
100
AcDbLine
 62
7
  6
CONTINUOUS
 10
11.0957951022
 20
-12.1832320368
 11
11.1047596598
 21
-12.1742674792
  0
LINE
  5
7E1
100
AcDbEntity
  8
CURVE
100
AcDbLine
 62
7
  6
CONTINUOUS
 10
11.0544384377
 20
-12.266590844
 11
11.0637046061
 21
-12.2573246757
  0
LINE
  5
7E2
100
AcDbEntity
  8
CURVE
100
AcDbLine
 62
7
  6
CONTINUOUS
 10
11.0953440963
 20
-12.2256851855
 11
11.1045427417
 21
-12.2164865401
  0
LINE
  5
7E3
100
AcDbEntity
  8
CURVE
100
AcDbLine
 62
7
  6
CONTINUOUS
 10
11.0547120203
 20
-12.3083194043
 11
11.0642714137
 21
-12.2987600108
  0
LINE
  5
7E4
100
AcDbEntity
  8
CURVE
100
AcDbLine
 62
7
  6
CONTINUOUS
 10
11.0948232723
 20
-12.2682081523
 11
11.1042871469
 21
-12.2587442777
  0
LINE
  5
7E5
100
AcDbEntity
  8
CURVE
100
AcDbLine
 62
7
  6
CONTINUOUS
 10
11.0550286738
 20
-12.3500048936
 11
11.0649369988
 21
-12.3400965686
  0
LINE
  5
7E6
100
AcDbEntity
  8
CURVE
100
AcDbLine
 62
7
  6
CONTINUOUS
 10
11.0942151766
 20
-12.3108183907
 11
11.1040099513
 21
-12.3010236161
  0
LINE
  5
7E7
100
AcDbEntity
  8
CURVE
100
AcDbLine
 62
7
  6
CONTINUOUS
 10
11.0553670219
 20
-12.3916686883
 11
11.0657259832
 21
-12.3813097269
  0
LINE
  5
7E8
100
AcDbEntity
  8
CURVE
100
AcDbLine
 62
7
  6
CONTINUOUS
 10
11.0934928951
 20
-12.3535428151
 11
11.1036996162
 21
-12.3433360939
  0
LINE
  5
7E9
100
AcDbEntity
  8
CURVE
100
AcDbLine
 62
7
  6
CONTINUOUS
 10
11.0557437456
 20
-12.4332941073
 11
11.0666528107
 21
-12.4223850423
  0
LINE
  5
7EA
100
AcDbEntity
  8
CURVE
100
AcDbLine
 62
7
  6
CONTINUOUS
 10
11.0926137745
 20
-12.3964240785
 11
11.1033557243
 21
-12.3856821287
  0
LINE
  5
7EB
100
AcDbEntity
  8
CURVE
100
AcDbLine
 62
7
  6
CONTINUOUS
 10
11.0561514489
 20
-12.4748885469
 11
11.067764318
 21
-12.4632756778
  0
LINE
  5
7EC
100
AcDbEntity
  8
CURVE
100
AcDbLine
 62
7
  6
CONTINUOUS
 10
11.091573559
 20
-12.4394664368
 11
11.1029816977
 21
-12.4280582981
  0
LINE
  5
7ED
100
AcDbEntity
  8
CURVE
100
AcDbLine
 62
7
  6
CONTINUOUS
 10
11.056598069
 20
-12.5164440696
 11
11.0691071927
 21
-12.5039349459
  0
LINE
  5
7EE
100
AcDbEntity
  8
CURVE
100
AcDbLine
 62
7
  6
CONTINUOUS
 10
11.0903184825
 20
-12.4827236561
 11
11.10256592
 21
-12.4704762186
  0
LINE
  5
7EF
100
AcDbEntity
  8
CURVE
100
AcDbLine
 62
7
  6
CONTINUOUS
 10
11.0570810379
 20
-12.5579632435
 11
11.0707370848
 21
-12.5443071966
  0
LINE
  5
7F0
100
AcDbEntity
  8
CURVE
100
AcDbLine
 62
7
  6
CONTINUOUS
 10
11.0887028267
 20
-12.5263414547
 11
11.1021169521
 21
-12.5129273293
  0
LINE
  5
7F1
100
AcDbEntity
  8
CURVE
100
AcDbLine
 62
7
  6
CONTINUOUS
 10
11.0576119298
 20
-12.5994344944
 11
11.0729555481
 21
-12.5840908761
  0
LINE
  5
7F2
100
AcDbEntity
  8
CURVE
100
AcDbLine
 62
7
  6
CONTINUOUS
 10
11.086558877
 20
-12.5704875472
 11
11.1016226158
 21
-12.5554238084
  0
LINE
  5
7F3
100
AcDbEntity
  8
CURVE
100
AcDbLine
 62
7
  6
CONTINUOUS
 10
11.0581787884
 20
-12.6408697786
 11
11.0767430982
 21
-12.6223054688
  0
LINE
  5
7F4
100
AcDbEntity
  8
CURVE
100
AcDbLine
 62
7
  6
CONTINUOUS
 10
11.0828183439
 20
-12.6162302231
 11
11.1010822682
 21
-12.5979662988
  0
LINE
  5
7F5
100
AcDbEntity
  8
CURVE
100
AcDbLine
 62
7
  6
CONTINUOUS
 10
11.0588160345
 20
-12.6822346753
 11
11.1004996946
 21
-12.6405510152
  0
LINE
  5
7F6
100
AcDbEntity
  8
CURVE
100
AcDbLine
 62
7
  6
CONTINUOUS
 10
11.0594804591
 20
-12.7235723935
 11
11.0998424491
 21
-12.6832104035
  0
LINE
  5
7F7
100
AcDbEntity
  8
CURVE
100
AcDbLine
 62
7
  6
CONTINUOUS
 10
11.0602578883
 20
-12.7647971071
 11
11.0991497042
 21
-12.7259052912
  0
LINE
  5
7F8
100
AcDbEntity
  8
CURVE
100
AcDbLine
 62
7
  6
CONTINUOUS
 10
11.0610920115
 20
-12.8059651267
 11
11.0983424448
 21
-12.7687146934
  0
LINE
  5
7F9
100
AcDbEntity
  8
CURVE
100
AcDbLine
 62
7
  6
CONTINUOUS
 10
11.0620022867
 20
-12.8470569943
 11
11.0974564952
 21
-12.8116027859
  0
LINE
  5
7FA
100
AcDbEntity
  8
CURVE
100
AcDbLine
 62
7
  6
CONTINUOUS
 10
11.0630591316
 20
-12.8880022922
 11
11.0964751885
 21
-12.8545862353
  0
LINE
  5
7FB
100
AcDbEntity
  8
CURVE
100
AcDbLine
 62
7
  6
CONTINUOUS
 10
11.064233794
 20
-12.9288297726
 11
11.0953578742
 21
-12.8977056924
  0
LINE
  5
7FC
100
AcDbEntity
  8
CURVE
100
AcDbLine
 62
7
  6
CONTINUOUS
 10
11.0655628595
 20
-12.9695028499
 11
11.0940643739
 21
-12.9410013355
  0
LINE
  5
7FD
100
AcDbEntity
  8
CURVE
100
AcDbLine
 62
7
  6
CONTINUOUS
 10
11.0670989105
 20
-13.0099689417
 11
11.0925639965
 21
-12.9845038558
  0
LINE
  5
7FE
100
AcDbEntity
  8
CURVE
100
AcDbLine
 62
7
  6
CONTINUOUS
 10
11.0689220062
 20
-13.0501479888
 11
11.0907929446
 21
-13.0282770505
  0
LINE
  5
7FF
100
AcDbEntity
  8
CURVE
100
AcDbLine
 62
7
  6
CONTINUOUS
 10
11.0711776067
 20
-13.0898945311
 11
11.0885954555
 21
-13.0724766823
  0
LINE
  5
800
100
AcDbEntity
  8
CURVE
100
AcDbLine
 62
7
  6
CONTINUOUS
 10
11.074418284
 20
-13.1286559967
 11
11.0853473043
 21
-13.1177269764
  0
LINE
  5
801
100
AcDbEntity
  8
CURVE
100
AcDbLine
 62
7
  6
CONTINUOUS
 10
11.0540377487
 20
-13.6950643884
 11
11.0888921371
 21
-13.66021
  0
LINE
  5
802
100
AcDbEntity
  8
CURVE
100
AcDbLine
 62
7
  6
CONTINUOUS
 10
11.0540377487
 20
-13.7370665312
 11
11.1046262095
 21
-13.6864780704
  0
LINE
  5
803
100
AcDbEntity
  8
CURVE
100
AcDbLine
 62
7
  6
CONTINUOUS
 10
11.0540377487
 20
-13.779068674
 11
11.1046262095
 21
-13.7284802132
  0
LINE
  5
804
100
AcDbEntity
  8
CURVE
100
AcDbLine
 62
7
  6
CONTINUOUS
 10
11.0540377487
 20
-13.8210708168
 11
11.1046262095
 21
-13.770482356
  0
LINE
  5
805
100
AcDbEntity
  8
CURVE
100
AcDbLine
 62
7
  6
CONTINUOUS
 10
11.0540377487
 20
-13.8630729596
 11
11.1046262095
 21
-13.8124844988
  0
LINE
  5
806
100
AcDbEntity
  8
CURVE
100
AcDbLine
 62
7
  6
CONTINUOUS
 10
11.0540377487
 20
-13.9050751024
 11
11.1046262095
 21
-13.8544866416
  0
LINE
  5
807
100
AcDbEntity
  8
CURVE
100
AcDbLine
 62
7
  6
CONTINUOUS
 10
11.0540377487
 20
-13.9470772452
 11
11.1046262095
 21
-13.8964887844
  0
LINE
  5
808
100
AcDbEntity
  8
CURVE
100
AcDbLine
 62
7
  6
CONTINUOUS
 10
11.0540377487
 20
-13.989079388
 11
11.1046262095
 21
-13.9384909272
  0
LINE
  5
809
100
AcDbEntity
  8
CURVE
100
AcDbLine
 62
7
  6
CONTINUOUS
 10
11.0540377487
 20
-14.0310815308
 11
11.1046262095
 21
-13.98049307
  0
LINE
  5
80A
100
AcDbEntity
  8
CURVE
100
AcDbLine
 62
7
  6
CONTINUOUS
 10
11.0540377487
 20
-14.0730836736
 11
11.1046262095
 21
-14.0224952128
  0
LINE
  5
80B
100
AcDbEntity
  8
CURVE
100
AcDbLine
 62
7
  6
CONTINUOUS
 10
11.0540377487
 20
-14.1150858164
 11
11.1046262095
 21
-14.0644973556
  0
LINE
  5
80C
100
AcDbEntity
  8
CURVE
100
AcDbLine
 62
7
  6
CONTINUOUS
 10
11.0540377487
 20
-14.1570879592
 11
11.1046262095
 21
-14.1064994984
  0
LINE
  5
80D
100
AcDbEntity
  8
CURVE
100
AcDbLine
 62
7
  6
CONTINUOUS
 10
11.0877878008
 20
-14.1653400499
 11
11.1046262095
 21
-14.1485016412
  0
LINE
  5
80E
100
AcDbEntity
  8
CURVE
100
AcDbLine
 62
7
  6
CONTINUOUS
 10
11.0882730611
 20
-14.2068569324
 11
11.1039561171
 21
-14.1911738764
  0
LINE
  5
80F
100
AcDbEntity
  8
CURVE
100
AcDbLine
 62
7
  6
CONTINUOUS
 10
11.0871162043
 20
-14.250015932
 11
11.1028027522
 21
-14.2343293841
  0
LINE
  5
810
100
AcDbEntity
  8
SMUSSO
100
AcDbLine
 62
7
  6
CONTINUOUS
 10
-5.249999873
 20
15.45
 11
1.750000127
 21
15.45
  0
LINE
  5
811
100
AcDbEntity
  8
ASSI
100
AcDbLine
 62
7
  6
CONTINUOUS
 10
-5.249999873
 20
15.45
 11
1.750000127
 21
15.45
  0
LINE
  5
812
100
AcDbEntity
  8
RACCORDO
100
AcDbLine
 62
7
  6
CONTINUOUS
 10
9.350000127
 20
15.9
 11
10.5870742831
 21
15.9
  0
LINE
  5
813
100
AcDbEntity
  8
ASSI
100
AcDbLine
 62
7
  6
CONTINUOUS
 10
9.350000127
 20
15.9
 11
10.5870742831
 21
15.9
  0
LINE
  5
814
100
AcDbEntity
  8
SMUSSO
100
AcDbLine
 62
7
  6
CONTINUOUS
 10
-5.8273501422
 20
16.0273502692
 11
2.3273503962
 21
16.0273502692
  0
LINE
  5
815
100
AcDbEntity
  8
ASSI
100
AcDbLine
 62
7
  6
CONTINUOUS
 10
-5.8273501422
 20
16.0273502692
 11
2.3273503962
 21
16.0273502692
  0
LINE
  5
816
100
AcDbEntity
  8
RACCORDO
100
AcDbLine
 62
253
  6
CONTINUOUS
 10
9.4865553317
 20
17.3968281299
 11
10.4864030268
 21
17.3968281299
  0
LINE
  5
817
100
AcDbEntity
  8
ASSI
100
AcDbLine
 62
253
  6
CONTINUOUS
 10
9.4865553317
 20
17.3968281299
 11
10.4864030268
 21
17.3968281299
  0
LINE
  5
818
100
AcDbEntity
  8
RACCORDO
100
AcDbLine
 62
253
  6
CONTINUOUS
 10
-9.4865550777
 20
17.3968281299
 11
-10.4864027728
 21
17.3968281299
  0
LINE
  5
819
100
AcDbEntity
  8
ASSI
100
AcDbLine
 62
253
  6
CONTINUOUS
 10
-9.4865550777
 20
17.3968281299
 11
-10.4864027728
 21
17.3968281299
  0
LINE
  5
81A
100
AcDbEntity
  8
CURVE
100
AcDbLine
 62
7
  6
CONTINUOUS
 10
11.0859593475
 20
-14.2931749316
 11
11.1016493873
 21
-14.2774848918
  0
LINE
  5
81B
100
AcDbEntity
  8
CURVE
100
AcDbLine
 62
7
  6
CONTINUOUS
 10
11.0848024908
 20
-14.3363339311
 11
11.1004960224
 21
-14.3206403995
  0
LINE
  5
81C
100
AcDbEntity
  8
CURVE
100
AcDbLine
 62
7
  6
CONTINUOUS
 10
11.083645634
 20
-14.3794929307
 11
11.0993426575
 21
-14.3637959072
  0
LINE
  5
81D
100
AcDbEntity
  8
CURVE
100
AcDbLine
 62
7
  6
CONTINUOUS
 10
11.0824887772
 20
-14.4226519303
 11
11.0981892926
 21
-14.4069514149
  0
LINE
  5
81E
100
AcDbEntity
  8
CURVE
100
AcDbLine
 62
7
  6
CONTINUOUS
 10
11.0813319205
 20
-14.4658109298
 11
11.0970359277
 21
-14.4501069226
  0
LINE
  5
81F
100
AcDbEntity
  8
CURVE
100
AcDbLine
 62
7
  6
CONTINUOUS
 10
11.0801750637
 20
-14.5089699294
 11
11.0958825628
 21
-14.4932624303
  0
LINE
  5
820
100
AcDbEntity
  8
CURVE
100
AcDbLine
 62
7
  6
CONTINUOUS
 10
11.079018207
 20
-14.552128929
 11
11.0947291979
 21
-14.536417938
  0
LINE
  5
821
100
AcDbEntity
  8
CURVE
100
AcDbLine
 62
7
  6
CONTINUOUS
 10
11.0778613502
 20
-14.5952879285
 11
11.093575833
 21
-14.5795734457
  0
LINE
  5
822
100
AcDbEntity
  8
CURVE
100
AcDbLine
 62
7
  6
CONTINUOUS
 10
11.0767044934
 20
-14.6384469281
 11
11.0924224681
 21
-14.6227289534
  0
LINE
  5
823
100
AcDbEntity
  8
CURVE
100
AcDbLine
 62
7
  6
CONTINUOUS
 10
11.0755476367
 20
-14.6816059277
 11
11.0912691032
 21
-14.6658844611
  0
LINE
  5
824
100
AcDbEntity
  8
CURVE
100
AcDbLine
 62
7
  6
CONTINUOUS
 10
11.0743907799
 20
-14.7247649272
 11
11.0901157383
 21
-14.7090399688
  0
LINE
  5
825
100
AcDbEntity
  8
CURVE
100
AcDbLine
 62
7
  6
CONTINUOUS
 10
11.0732339231
 20
-14.7679239268
 11
11.0889623734
 21
-14.7521954765
  0
LINE
  5
826
100
AcDbEntity
  8
CURVE
100
AcDbLine
 62
7
  6
CONTINUOUS
 10
11.0720770664
 20
-14.8110829264
 11
11.0878090085
 21
-14.7953509843
  0
LINE
  5
827
100
AcDbEntity
  8
CURVE
100
AcDbLine
 62
7
  6
CONTINUOUS
 10
11.0709202096
 20
-14.8542419259
 11
11.0866556436
 21
-14.838506492
  0
LINE
  5
828
100
AcDbEntity
  8
CURVE
100
AcDbLine
 62
7
  6
CONTINUOUS
 10
11.0697633528
 20
-14.8974009255
 11
11.0855022787
 21
-14.8816619997
  0
LINE
  5
829
100
AcDbEntity
  8
CURVE
100
AcDbLine
 62
7
  6
CONTINUOUS
 10
11.0686064961
 20
-14.9405599251
 11
11.0843489138
 21
-14.9248175074
  0
LINE
  5
82A
100
AcDbEntity
  8
CURVE
100
AcDbLine
 62
7
  6
CONTINUOUS
 10
11.0674496393
 20
-14.9837189246
 11
11.0831955489
 21
-14.9679730151
  0
LINE
  5
82B
100
AcDbEntity
  8
CURVE
100
AcDbLine
 62
7
  6
CONTINUOUS
 10
11.0662927825
 20
-15.0268779242
 11
11.082042184
 21
-15.0111285228
  0
LINE
  5
82C
100
AcDbEntity
  8
CURVE
100
AcDbLine
 62
7
  6
CONTINUOUS
 10
11.0651359258
 20
-15.0700369238
 11
11.0808888191
 21
-15.0542840305
  0
LINE
  5
82D
100
AcDbEntity
  8
CURVE
100
AcDbLine
 62
7
  6
CONTINUOUS
 10
11.063979069
 20
-15.1131959233
 11
11.0797354542
 21
-15.0974395382
  0
LINE
  5
82E
100
AcDbEntity
  8
CURVE
100
AcDbLine
 62
7
  6
CONTINUOUS
 10
11.0628222123
 20
-15.1563549229
 11
11.0785820893
 21
-15.1405950459
  0
LINE
  5
82F
100
AcDbEntity
  8
CURVE
100
AcDbLine
 62
7
  6
CONTINUOUS
 10
11.0616653555
 20
-15.1995139225
 11
11.0774287244
 21
-15.1837505536
  0
LINE
  5
830
100
AcDbEntity
  8
CURVE
100
AcDbLine
 62
7
  6
CONTINUOUS
 10
11.0605084987
 20
-15.242672922
 11
11.0762753595
 21
-15.2269060613
  0
LINE
  5
831
100
AcDbEntity
  8
CURVE
100
AcDbLine
 62
7
  6
CONTINUOUS
 10
11.059351642
 20
-15.2858319216
 11
11.0751219946
 21
-15.270061569
  0
LINE
  5
832
100
AcDbEntity
  8
CURVE
100
AcDbLine
 62
7
  6
CONTINUOUS
 10
11.0581947852
 20
-15.3289909212
 11
11.0739686297
 21
-15.3132170767
  0
LINE
  5
833
100
AcDbEntity
  8
CURVE
100
AcDbLine
 62
7
  6
CONTINUOUS
 10
11.0570379284
 20
-15.3721499207
 11
11.0728152648
 21
-15.3563725844
  0
LINE
  5
834
100
AcDbEntity
  8
CURVE
100
AcDbLine
 62
7
  6
CONTINUOUS
 10
11.0558810717
 20
-15.4153089203
 11
11.0716618999
 21
-15.3995280921
  0
LINE
  5
835
100
AcDbEntity
  8
CURVE
100
AcDbLine
 62
7
  6
CONTINUOUS
 10
11.0547242149
 20
-15.4584679199
 11
11.070508535
 21
-15.4426835998
  0
LINE
  5
836
100
AcDbEntity
  8
CURVE
100
AcDbLine
 62
7
  6
CONTINUOUS
 10
11.0540377487
 20
-15.5011565289
 11
11.0693551701
 21
-15.4858391075
  0
LINE
  5
837
100
AcDbEntity
  8
CURVE
100
AcDbLine
 62
7
  6
CONTINUOUS
 10
11.0540377487
 20
-15.5431586717
 11
11.0941903412
 21
-15.5030060792
  0
LINE
  5
838
100
AcDbEntity
  8
CURVE
100
AcDbLine
 62
7
  6
CONTINUOUS
 10
11.0540377487
 20
-15.5851608145
 11
11.1046262095
 21
-15.5345723537
  0
LINE
  5
839
100
AcDbEntity
  8
CURVE
100
AcDbLine
 62
7
  6
CONTINUOUS
 10
11.0540377487
 20
-15.6271629573
 11
11.1046262095
 21
-15.5765744965
  0
LINE
  5
83A
100
AcDbEntity
  8
CURVE
100
AcDbLine
 62
7
  6
CONTINUOUS
 10
11.0540377487
 20
-15.6691651001
 11
11.1046262095
 21
-15.6185766393
  0
LINE
  5
83B
100
AcDbEntity
  8
CURVE
100
AcDbLine
 62
7
  6
CONTINUOUS
 10
11.0540377487
 20
-15.7111672429
 11
11.1046262095
 21
-15.6605787821
  0
LINE
  5
83C
100
AcDbEntity
  8
CURVE
100
AcDbLine
 62
7
  6
CONTINUOUS
 10
11.0540377487
 20
-15.7531693857
 11
11.1046262095
 21
-15.7025809249
  0
LINE
  5
83D
100
AcDbEntity
  8
CURVE
100
AcDbLine
 62
7
  6
CONTINUOUS
 10
11.0540377487
 20
-15.7951715285
 11
11.1046262095
 21
-15.7445830677
  0
LINE
  5
83E
100
AcDbEntity
  8
CURVE
100
AcDbLine
 62
7
  6
CONTINUOUS
 10
11.0540377487
 20
-15.8371736713
 11
11.1046262095
 21
-15.7865852105
  0
LINE
  5
83F
100
AcDbEntity
  8
CURVE
100
AcDbLine
 62
7
  6
CONTINUOUS
 10
11.0540377487
 20
-15.8791758141
 11
11.1046262095
 21
-15.8285873533
  0
LINE
  5
840
100
AcDbEntity
  8
CURVE
100
AcDbLine
 62
7
  6
CONTINUOUS
 10
11.0540377487
 20
-15.9211779569
 11
11.1046262095
 21
-15.8705894961
  0
LINE
  5
841
100
AcDbEntity
  8
CURVE
100
AcDbLine
 62
7
  6
CONTINUOUS
 10
11.0540377487
 20
-15.9631800997
 11
11.1046262095
 21
-15.9125916389
  0
LINE
  5
842
100
AcDbEntity
  8
CURVE
100
AcDbLine
 62
7
  6
CONTINUOUS
 10
11.0577829912
 20
-16.001437
 11
11.1046262095
 21
-15.9545937817
  0
LINE
  5
843
100
AcDbEntity
  8
DRAFT
100
AcDbLine
 62
7
  6
CONTINUOUS
 10
7.400000127
 20
-19.7
 11
7.4890209581
 21
-19.6109791689
  0
LINE
  5
844
100
AcDbEntity
  8
ASSI
100
AcDbLine
 62
7
  6
CONTINUOUS
 10
7.400000127
 20
-19.7
 11
7.4890209581
 21
-19.6109791689
  0
LINE
  5
845
100
AcDbEntity
  8
CURVE
100
AcDbLine
 62
7
  6
CONTINUOUS
 10
11.099785134
 20
-16.001437
 11
11.1046262095
 21
-15.9965959245
  0
LINE
  5
846
100
AcDbEntity
  8
RACCORDO
100
AcDbLine
 62
253
  6
CONTINUOUS
 10
9.1754489144
 20
18.1220850228
 11
-9.1754486604
 21
18.1220850228
  0
LINE
  5
847
100
AcDbEntity
  8
ASSI
100
AcDbLine
 62
253
  6
CONTINUOUS
 10
9.1754489144
 20
18.1220850228
 11
-9.1754486604
 21
18.1220850228
  0
LINE
  5
848
100
AcDbEntity
  8
ASSI
100
AcDbLine
 62
7
  6
CONTINUOUS
 10
-11.1840372496
 20
18.1473460386
 11
-11.1329824808
 21
18.1473460386
  0
LINE
  5
849
100
AcDbEntity
  8
ASSI
100
AcDbLine
 62
7
  6
CONTINUOUS
 10
11.1840375036
 20
18.1473460386
 11
11.1329827348
 21
18.1473460386
  0
LINE
  5
84A
100
AcDbEntity
  8
0
100
AcDbLine
 62
7
  6
CONTINUOUS
 10
-11.1840372496
 20
18.1473460386
 11
-11.1329824808
 21
18.1473460386
  0
LINE
  5
84B
100
AcDbEntity
  8
0
100
AcDbLine
 62
7
  6
CONTINUOUS
 10
11.1840375036
 20
18.1473460386
 11
11.1329827348
 21
18.1473460386
  0
LINE
  5
84C
100
AcDbEntity
  8
RACCORDO
100
AcDbLine
 62
253
  6
CONTINUOUS
 10
9.1754489144
 20
19.121932718
 11
-9.1754486604
 21
19.121932718
  0
LINE
  5
84D
100
AcDbEntity
  8
ASSI
100
AcDbLine
 62
253
  6
CONTINUOUS
 10
9.1754489144
 20
19.121932718
 11
-9.1754486604
 21
19.121932718
  0
LINE
  5
84E
100
AcDbEntity
  8
RACCORDO
100
AcDbLine
 62
7
  6
CONTINUOUS
 10
9.378018587
 20
19.6109791689
 11
7.4890209581
 21
19.6109791689
  0
LINE
  5
84F
100
AcDbEntity
  8
ASSI
100
AcDbLine
 62
7
  6
CONTINUOUS
 10
9.378018587
 20
19.6109791689
 11
7.4890209581
 21
19.6109791689
  0
LINE
  5
850
100
AcDbEntity
  8
DRAFT
100
AcDbLine
 62
7
  6
CONTINUOUS
 10
-3.4109790419
 20
19.6109791689
 11
3.4109792959
 21
19.6109791689
  0
LINE
  5
851
100
AcDbEntity
  8
ASSI
100
AcDbLine
 62
7
  6
CONTINUOUS
 10
-3.4109790419
 20
19.6109791689
 11
3.4109792959
 21
19.6109791689
  0
LINE
  5
852
100
AcDbEntity
  8
RACCORDO
100
AcDbLine
 62
7
  6
CONTINUOUS
 10
-7.4890207041
 20
19.6109791689
 11
-9.378018333
 21
19.6109791689
  0
LINE
  5
853
100
AcDbEntity
  8
ASSI
100
AcDbLine
 62
7
  6
CONTINUOUS
 10
-7.4890207041
 20
19.6109791689
 11
-9.378018333
 21
19.6109791689
  0
LINE
  5
854
100
AcDbEntity
  8
DRAFT
100
AcDbLine
 62
7
  6
CONTINUOUS
 10
7.400000127
 20
19.7
 11
7.300000127
 21
19.7
  0
LINE
  5
855
100
AcDbEntity
  8
0
100
AcDbLine
 62
7
  6
CONTINUOUS
 10
7.300000127
 20
19.7
 11
6.500000127
 21
19.7
  0
LINE
  5
856
100
AcDbEntity
  8
DRAFT
100
AcDbLine
 62
7
  6
CONTINUOUS
 10
6.500000127
 20
19.7
 11
3.500000127
 21
19.7
  0
LINE
  5
857
100
AcDbEntity
  8
ASSI
100
AcDbLine
 62
7
  6
CONTINUOUS
 10
7.400000127
 20
19.7
 11
3.500000127
 21
19.7
  0
LINE
  5
858
100
AcDbEntity
  8
DRAFT
100
AcDbLine
 62
7
  6
CONTINUOUS
 10
-3.499999873
 20
19.7
 11
-6.499999873
 21
19.7
  0
LINE
  5
859
100
AcDbEntity
  8
0
100
AcDbLine
 62
7
  6
CONTINUOUS
 10
-6.499999873
 20
19.7
 11
-7.299999873
 21
19.7
  0
LINE
  5
85A
100
AcDbEntity
  8
DRAFT
100
AcDbLine
 62
7
  6
CONTINUOUS
 10
-7.299999873
 20
19.7
 11
-7.399999873
 21
19.7
  0
LINE
  5
85B
100
AcDbEntity
  8
ASSI
100
AcDbLine
 62
7
  6
CONTINUOUS
 10
-3.499999873
 20
19.7
 11
-7.399999873
 21
19.7
  0
LINE
  5
85C
100
AcDbEntity
  8
DRAFT
100
AcDbLine
 62
7
  6
CONTINUOUS
 10
-3.4109790419
 20
19.8109791689
 11
3.4109792959
 21
19.8109791689
  0
LINE
  5
85D
100
AcDbEntity
  8
ASSI
100
AcDbLine
 62
7
  6
CONTINUOUS
 10
-3.4109790419
 20
19.8109791689
 11
3.4109792959
 21
19.8109791689
  0
LINE
  5
85E
100
AcDbEntity
  8
RACCORDO
100
AcDbLine
 62
7
  6
CONTINUOUS
 10
-1.5981172713
 20
19.8825449351
 11
1.5981175253
 21
19.8825449351
  0
LINE
  5
85F
100
AcDbEntity
  8
ASSI
100
AcDbLine
 62
7
  6
CONTINUOUS
 10
-1.5981172713
 20
19.8825449351
 11
1.5981175253
 21
19.8825449351
  0
LINE
  5
860
100
AcDbEntity
  8
DRAFT
100
AcDbLine
 62
7
  6
CONTINUOUS
 10
-3.499999873
 20
19.9
 11
-2.499999873
 21
19.9
  0
LINE
  5
861
100
AcDbEntity
  8
ASSI
100
AcDbLine
 62
7
  6
CONTINUOUS
 10
-3.499999873
 20
19.9
 11
-2.499999873
 21
19.9
  0
LINE
  5
862
100
AcDbEntity
  8
DRAFT
100
AcDbLine
 62
7
  6
CONTINUOUS
 10
2.500000127
 20
19.9
 11
3.500000127
 21
19.9
  0
LINE
  5
863
100
AcDbEntity
  8
ASSI
100
AcDbLine
 62
7
  6
CONTINUOUS
 10
2.500000127
 20
19.9
 11
3.500000127
 21
19.9
  0
LINE
  5
864
100
AcDbEntity
  8
ASSI
100
AcDbLine
 62
7
  6
CONTINUOUS
 10
6.500000127
 20
20.0
 11
-6.499999873
 21
20.0
  0
LINE
  5
865
100
AcDbEntity
  8
0
100
AcDbLine
 62
7
  6
CONTINUOUS
 10
6.500000127
 20
20.0
 11
-6.499999873
 21
20.0
  0
LINE
  5
866
100
AcDbEntity
  8
DRAFT
100
AcDbLine
 62
7
  6
CONTINUOUS
 10
7.400000127
 20
19.7
 11
7.4890209581
 21
19.6109791689
  0
LINE
  5
867
100
AcDbEntity
  8
ASSI
100
AcDbLine
 62
7
  6
CONTINUOUS
 10
7.400000127
 20
19.7
 11
7.4890209581
 21
19.6109791689
  0
LINE
  5
868
100
AcDbEntity
  8
RACCORDO
100
AcDbLine
 62
253
  6
CONTINUOUS
 10
9.1937067219
 20
18.1038272153
 11
9.1754489144
 21
18.1220850228
  0
LINE
  5
869
100
AcDbEntity
  8
ASSI
100
AcDbLine
 62
253
  6
CONTINUOUS
 10
9.1937067219
 20
18.1038272153
 11
9.1754489144
 21
18.1220850228
  0
LINE
  5
86A
100
AcDbEntity
  8
RACCORDO
100
AcDbLine
 62
253
  6
CONTINUOUS
 10
9.9007030358
 20
18.8108290722
 11
9.8824479998
 21
18.8290841082
  0
LINE
  5
86B
100
AcDbEntity
  8
ASSI
100
AcDbLine
 62
253
  6
CONTINUOUS
 10
9.9007030358
 20
18.8108290722
 11
9.8824479998
 21
18.8290841082
  0
LINE
  5
86C
100
AcDbEntity
  8
ASSI
100
AcDbLine
 62
7
  6
CONTINUOUS
 10
9.650000127
 20
-20.1990396502
 11
8.9498937894
 21
-20.9
  0
LINE
  5
86D
100
AcDbEntity
  8
0
100
AcDbLine
 62
7
  6
CONTINUOUS
 10
9.650000127
 20
-20.1990396502
 11
8.9498937894
 21
-20.9
  0
LINE
  5
86E
100
AcDbEntity
  8
0
100
AcDbLine
 62
7
  6
CONTINUOUS
 10
10.0999981804
 20
-18.8933759045
 11
9.9649976036
 21
-19.0283764813
  0
LINE
  5
86F
100
AcDbEntity
  8
RACCORDO
100
AcDbLine
 62
7
  6
CONTINUOUS
 10
9.965720616
 20
-19.0301219878
 11
10.1017436869
 21
-18.8940989169
  0
LINE
  5
870
100
AcDbEntity
  8
ASSI
100
AcDbLine
 62
7
  6
CONTINUOUS
 10
9.965720616
 20
-19.0301219878
 11
10.1017436869
 21
-18.8940989169
  0
LINE
  5
871
100
AcDbEntity
  8
RACCORDO
100
AcDbLine
 62
7
  6
CONTINUOUS
 10
10.0850176724
 20
-19.3181305591
 11
8.5531482315
 21
-20.85
  0
LINE
  5
872
100
AcDbEntity
  8
ASSI
100
AcDbLine
 62
7
  6
CONTINUOUS
 10
10.0850176724
 20
-19.3181305591
 11
8.5531482315
 21
-20.85
  0
LINE
  5
873
100
AcDbEntity
  8
ASSI
100
AcDbLine
 62
7
  6
CONTINUOUS
 10
7.2558179568
 20
-22.3941821702
 11
8.250000127
 21
-21.4
  0
LINE
  5
874
100
AcDbEntity
  8
0
100
AcDbLine
 62
7
  6
CONTINUOUS
 10
7.2558179568
 20
-22.3941821702
 11
8.250000127
 21
-21.4
  0
LINE
  5
875
100
AcDbEntity
  8
RACCORDO
100
AcDbLine
 62
7
  6
CONTINUOUS
 10
8.800000127
 20
-20.85
 11
10.5643029075
 21
-19.0856972195
  0
LINE
  5
876
100
AcDbEntity
  8
ASSI
100
AcDbLine
 62
7
  6
CONTINUOUS
 10
8.800000127
 20
-20.85
 11
11.1329827348
 21
-18.5170173922
  0
LINE
  5
877
100
AcDbEntity
  8
0
100
AcDbLine
 62
7
  6
CONTINUOUS
 10
10.150000127
 20
-19.5
 11
11.1329827348
 21
-18.5170173922
  0
LINE
  5
878
100
AcDbEntity
  8
ASSI
100
AcDbLine
 62
7
  6
CONTINUOUS
 10
7.400000127
 20
20.5276115984
 11
7.300000127
 21
20.5276115984
  0
LINE
  5
879
100
AcDbEntity
  8
0
100
AcDbLine
 62
7
  6
CONTINUOUS
 10
7.400000127
 20
20.5276115984
 11
7.300000127
 21
20.5276115984
  0
LINE
  5
87A
100
AcDbEntity
  8
ASSI
100
AcDbLine
 62
7
  6
CONTINUOUS
 10
-7.299999873
 20
20.5276115984
 11
-7.399999873
 21
20.5276115984
  0
LINE
  5
87B
100
AcDbEntity
  8
0
100
AcDbLine
 62
7
  6
CONTINUOUS
 10
-7.299999873
 20
20.5276115984
 11
-7.399999873
 21
20.5276115984
  0
LINE
  5
87C
100
AcDbEntity
  8
ASSI
100
AcDbLine
 62
7
  6
CONTINUOUS
 10
-2.999999873
 20
20.8
 11
3.000000127
 21
20.8
  0
LINE
  5
87D
100
AcDbEntity
  8
0
100
AcDbLine
 62
7
  6
CONTINUOUS
 10
-2.999999873
 20
20.8
 11
3.000000127
 21
20.8
  0
LINE
  5
87E
100
AcDbEntity
  8
DRAFT
100
AcDbLine
 62
7
  6
CONTINUOUS
 10
7.400000127
 20
20.85
 11
8.800000127
 21
20.85
  0
LINE
  5
87F
100
AcDbEntity
  8
ASSI
100
AcDbLine
 62
7
  6
CONTINUOUS
 10
7.400000127
 20
20.85
 11
8.800000127
 21
20.85
  0
LINE
  5
880
100
AcDbEntity
  8
DRAFT
100
AcDbLine
 62
7
  6
CONTINUOUS
 10
-7.399999873
 20
20.85
 11
-8.799999873
 21
20.85
  0
LINE
  5
881
100
AcDbEntity
  8
ASSI
100
AcDbLine
 62
7
  6
CONTINUOUS
 10
-7.399999873
 20
20.85
 11
-8.799999873
 21
20.85
  0
LINE
  5
882
100
AcDbEntity
  8
ASSI
100
AcDbLine
 62
7
  6
CONTINUOUS
 10
-7.299999873
 20
20.9
 11
-8.9498935354
 21
20.9
  0
LINE
  5
883
100
AcDbEntity
  8
0
100
AcDbLine
 62
7
  6
CONTINUOUS
 10
-7.299999873
 20
20.9
 11
-8.9498935354
 21
20.9
  0
LINE
  5
884
100
AcDbEntity
  8
ASSI
100
AcDbLine
 62
7
  6
CONTINUOUS
 10
7.300000127
 20
20.9
 11
8.9498937894
 21
20.9
  0
LINE
  5
885
100
AcDbEntity
  8
0
100
AcDbLine
 62
7
  6
CONTINUOUS
 10
7.300000127
 20
20.9
 11
8.9498937894
 21
20.9
  0
LINE
  5
886
100
AcDbEntity
  8
ASSI
100
AcDbLine
 62
253
  6
CONTINUOUS
 10
7.5666457812
 20
21.3359869487
 11
3.000000127
 21
21.3359869487
  0
LINE
  5
887
100
AcDbEntity
  8
0
100
AcDbLine
 62
253
  6
CONTINUOUS
 10
7.5666457812
 20
21.3359869487
 11
3.000000127
 21
21.3359869487
  0
LINE
  5
888
100
AcDbEntity
  8
ASSI
100
AcDbLine
 62
253
  6
CONTINUOUS
 10
-2.999999873
 20
21.3359869487
 11
-7.5666455272
 21
21.3359869487
  0
LINE
  5
889
100
AcDbEntity
  8
0
100
AcDbLine
 62
253
  6
CONTINUOUS
 10
-2.999999873
 20
21.3359869487
 11
-7.5666455272
 21
21.3359869487
  0
LINE
  5
88A
100
AcDbEntity
  8
ASSI
100
AcDbLine
 62
7
  6
CONTINUOUS
 10
3.000000127
 20
21.7
 11
-2.999999873
 21
21.7
  0
LINE
  5
88B
100
AcDbEntity
  8
0
100
AcDbLine
 62
7
  6
CONTINUOUS
 10
3.000000127
 20
21.7
 11
-2.999999873
 21
21.7
  0
LINE
  5
88C
100
AcDbEntity
  8
ASSI
100
AcDbLine
 62
253
  6
CONTINUOUS
 10
7.3140301015
 20
22.3359700255
 11
3.000000127
 21
22.3359700255
  0
LINE
  5
88D
100
AcDbEntity
  8
0
100
AcDbLine
 62
7
  6
CONTINUOUS
 10
7.3140301015
 20
22.3359700255
 11
3.000000127
 21
22.3359700255
  0
LINE
  5
88E
100
AcDbEntity
  8
ASSI
100
AcDbLine
 62
253
  6
CONTINUOUS
 10
-2.999999873
 20
22.3359700255
 11
-7.3140298475
 21
22.3359700255
  0
LINE
  5
88F
100
AcDbEntity
  8
0
100
AcDbLine
 62
7
  6
CONTINUOUS
 10
-2.999999873
 20
22.3359700255
 11
-7.3140298475
 21
22.3359700255
  0
LINE
  5
890
100
AcDbEntity
  8
ASSI
100
AcDbLine
 62
7
  6
CONTINUOUS
 10
-10.6417156947
 20
22.3941821702
 11
-7.2558177028
 21
22.3941821702
  0
LINE
  5
891
100
AcDbEntity
  8
0
100
AcDbLine
 62
7
  6
CONTINUOUS
 10
-10.6417156947
 20
22.3941821702
 11
-7.2558177028
 21
22.3941821702
  0
LINE
  5
892
100
AcDbEntity
  8
ASSI
100
AcDbLine
 62
7
  6
CONTINUOUS
 10
7.2558179568
 20
22.3941821702
 11
10.6417159487
 21
22.3941821702
  0
LINE
  5
893
100
AcDbEntity
  8
0
100
AcDbLine
 62
7
  6
CONTINUOUS
 10
7.2558179568
 20
22.3941821702
 11
10.6417159487
 21
22.3941821702
  0
LINE
  5
894
100
AcDbEntity
  8
ASSI
100
AcDbLine
 62
7
  6
CONTINUOUS
 10
-0.999999873
 20
22.3947639644
 11
1.000000127
 21
22.3947639644
  0
LINE
  5
895
100
AcDbEntity
  8
0
100
AcDbLine
 62
7
  6
CONTINUOUS
 10
-0.999999873
 20
22.3947639644
 11
1.000000127
 21
22.3947639644
  0
LINE
  5
896
100
AcDbEntity
  8
ASSI
100
AcDbLine
 62
7
  6
CONTINUOUS
 10
-7.249999873
 20
22.4
 11
-4.449999873
 21
22.4
  0
LINE
  5
897
100
AcDbEntity
  8
0
100
AcDbLine
 62
7
  6
CONTINUOUS
 10
-7.249999873
 20
22.4
 11
-4.449999873
 21
22.4
  0
LINE
  5
898
100
AcDbEntity
  8
ASSI
100
AcDbLine
 62
7
  6
CONTINUOUS
 10
4.450000127
 20
22.4
 11
7.250000127
 21
22.4
  0
LINE
  5
899
100
AcDbEntity
  8
0
100
AcDbLine
 62
7
  6
CONTINUOUS
 10
4.450000127
 20
22.4
 11
7.250000127
 21
22.4
  0
LINE
  5
89A
100
AcDbEntity
  8
RACCORDO
100
AcDbLine
 62
7
  6
CONTINUOUS
 10
8.5531482315
 20
20.85
 11
10.0850176724
 21
19.3181305591
  0
LINE
  5
89B
100
AcDbEntity
  8
ASSI
100
AcDbLine
 62
7
  6
CONTINUOUS
 10
8.5531482315
 20
20.85
 11
10.0850176724
 21
19.3181305591
  0
LINE
  5
89C
100
AcDbEntity
  8
0
100
AcDbLine
 62
7
  6
CONTINUOUS
 10
11.1329827348
 20
18.5170173922
 11
10.150000127
 21
19.5
  0
LINE
  5
89D
100
AcDbEntity
  8
RACCORDO
100
AcDbLine
 62
7
  6
CONTINUOUS
 10
10.5643029075
 20
19.0856972195
 11
8.800000127
 21
20.85
  0
LINE
  5
89E
100
AcDbEntity
  8
ASSI
100
AcDbLine
 62
7
  6
CONTINUOUS
 10
11.1329827348
 20
18.5170173922
 11
8.800000127
 21
20.85
  0
LINE
  5
89F
100
AcDbEntity
  8
ASSI
100
AcDbLine
 62
7
  6
CONTINUOUS
 10
8.250000127
 20
21.4
 11
7.2558179568
 21
22.3941821702
  0
LINE
  5
8A0
100
AcDbEntity
  8
0
100
AcDbLine
 62
7
  6
CONTINUOUS
 10
8.250000127
 20
21.4
 11
7.2558179568
 21
22.3941821702
  0
LINE
  5
8A1
100
AcDbEntity
  8
ASSI
100
AcDbLine
 62
7
  6
CONTINUOUS
 10
9.650000127
 20
20.1990396502
 11
8.9498937894
 21
20.9
  0
LINE
  5
8A2
100
AcDbEntity
  8
0
100
AcDbLine
 62
7
  6
CONTINUOUS
 10
9.650000127
 20
20.1990396502
 11
8.9498937894
 21
20.9
  0
LINE
  5
8A3
100
AcDbEntity
  8
ASSI
100
AcDbLine
 62
7
  6
CONTINUOUS
 10
-9.9007228709
 20
23.1226497308
 11
-7.4992768751
 21
23.1226497308
  0
LINE
  5
8A4
100
AcDbEntity
  8
0
100
AcDbLine
 62
7
  6
CONTINUOUS
 10
-9.9007228709
 20
23.1226497308
 11
-7.4992768751
 21
23.1226497308
  0
LINE
  5
8A5
100
AcDbEntity
  8
ASSI
100
AcDbLine
 62
7
  6
CONTINUOUS
 10
9.9007231249
 20
23.1226497308
 11
7.4992771291
 21
23.1226497308
  0
LINE
  5
8A6
100
AcDbEntity
  8
0
100
AcDbLine
 62
7
  6
CONTINUOUS
 10
9.9007231249
 20
23.1226497308
 11
7.4992771291
 21
23.1226497308
  0
LINE
  5
8A7
100
AcDbEntity
  8
ASSI
100
AcDbLine
 62
253
  6
CONTINUOUS
 10
-9.8956322698
 20
23.6278312164
 11
-7.5043674762
 21
23.6278312164
  0
LINE
  5
8A8
100
AcDbEntity
  8
0
100
AcDbLine
 62
253
  6
CONTINUOUS
 10
-9.8956322698
 20
23.6278312164
 11
-7.5043674762
 21
23.6278312164
  0
LINE
  5
8A9
100
AcDbEntity
  8
ASSI
100
AcDbLine
 62
253
  6
CONTINUOUS
 10
7.5043677302
 20
23.6278312164
 11
9.8956325238
 21
23.6278312164
  0
LINE
  5
8AA
100
AcDbEntity
  8
0
100
AcDbLine
 62
253
  6
CONTINUOUS
 10
7.5043677302
 20
23.6278312164
 11
9.8956325238
 21
23.6278312164
  0
LINE
  5
8AB
100
AcDbEntity
  8
ASSI
100
AcDbLine
 62
253
  6
CONTINUOUS
 10
7.254371961
 20
23.8443375673
 11
10.145628293
 21
23.8443375673
  0
LINE
  5
8AC
100
AcDbEntity
  8
0
100
AcDbLine
 62
253
  6
CONTINUOUS
 10
7.254371961
 20
23.8443375673
 11
10.145628293
 21
23.8443375673
  0
LINE
  5
8AD
100
AcDbEntity
  8
ASSI
100
AcDbLine
 62
253
  6
CONTINUOUS
 10
-7.254371707
 20
23.8443375673
 11
-10.145628039
 21
23.8443375673
  0
LINE
  5
8AE
100
AcDbEntity
  8
0
100
AcDbLine
 62
253
  6
CONTINUOUS
 10
-7.254371707
 20
23.8443375673
 11
-10.145628039
 21
23.8443375673
  0
LINE
  5
8AF
100
AcDbEntity
  8
ASSI
100
AcDbLine
 62
7
  6
CONTINUOUS
 10
-4.4063492261
 20
23.9563493531
 11
-3.499999873
 21
23.9563493531
  0
LINE
  5
8B0
100
AcDbEntity
  8
0
100
AcDbLine
 62
7
  6
CONTINUOUS
 10
-4.4063492261
 20
23.9563493531
 11
-3.499999873
 21
23.9563493531
  0
LINE
  5
8B1
100
AcDbEntity
  8
ASSI
100
AcDbLine
 62
7
  6
CONTINUOUS
 10
3.500000127
 20
23.9563493531
 11
4.4063494801
 21
23.9563493531
  0
LINE
  5
8B2
100
AcDbEntity
  8
0
100
AcDbLine
 62
7
  6
CONTINUOUS
 10
3.500000127
 20
23.9563493531
 11
4.4063494801
 21
23.9563493531
  0
LINE
  5
8B3
100
AcDbEntity
  8
ASSI
100
AcDbLine
 62
7
  6
CONTINUOUS
 10
-3.499999873
 20
23.9941821702
 11
-1.199999873
 21
23.9941821702
  0
LINE
  5
8B4
100
AcDbEntity
  8
0
100
AcDbLine
 62
7
  6
CONTINUOUS
 10
-3.499999873
 20
23.9941821702
 11
-1.199999873
 21
23.9941821702
  0
LINE
  5
8B5
100
AcDbEntity
  8
ASSI
100
AcDbLine
 62
7
  6
CONTINUOUS
 10
1.200000127
 20
23.9941821702
 11
3.500000127
 21
23.9941821702
  0
LINE
  5
8B6
100
AcDbEntity
  8
0
100
AcDbLine
 62
7
  6
CONTINUOUS
 10
1.200000127
 20
23.9941821702
 11
3.500000127
 21
23.9941821702
  0
LINE
  5
8B7
100
AcDbEntity
  8
ASSI
100
AcDbLine
 62
7
  6
CONTINUOUS
 10
4.450000127
 20
24.0
 11
3.500000127
 21
24.0
  0
LINE
  5
8B8
100
AcDbEntity
  8
0
100
AcDbLine
 62
7
  6
CONTINUOUS
 10
4.450000127
 20
24.0
 11
3.500000127
 21
24.0
  0
LINE
  5
8B9
100
AcDbEntity
  8
ASSI
100
AcDbLine
 62
7
  6
CONTINUOUS
 10
-3.499999873
 20
24.0
 11
-4.449999873
 21
24.0
  0
LINE
  5
8BA
100
AcDbEntity
  8
0
100
AcDbLine
 62
7
  6
CONTINUOUS
 10
-3.499999873
 20
24.0
 11
-4.449999873
 21
24.0
  0
LINE
  5
8BB
100
AcDbEntity
  8
ASSI
100
AcDbLine
 62
253
  6
CONTINUOUS
 10
7.254371961
 20
24.2456323968
 11
10.145628293
 21
24.2456323968
  0
LINE
  5
8BC
100
AcDbEntity
  8
0
100
AcDbLine
 62
253
  6
CONTINUOUS
 10
7.254371961
 20
24.2456323968
 11
10.145628293
 21
24.2456323968
  0
LINE
  5
8BD
100
AcDbEntity
  8
ASSI
100
AcDbLine
 62
253
  6
CONTINUOUS
 10
-7.254371707
 20
24.2456323968
 11
-10.145628039
 21
24.2456323968
  0
LINE
  5
8BE
100
AcDbEntity
  8
0
100
AcDbLine
 62
253
  6
CONTINUOUS
 10
-7.254371707
 20
24.2456323968
 11
-10.145628039
 21
24.2456323968
  0
LINE
  5
8BF
100
AcDbEntity
  8
ASSI
100
AcDbLine
 62
7
  6
CONTINUOUS
 10
9.8956325238
 20
24.495628166
 11
7.5043677302
 21
24.495628166
  0
LINE
  5
8C0
100
AcDbEntity
  8
0
100
AcDbLine
 62
7
  6
CONTINUOUS
 10
9.8956325238
 20
24.495628166
 11
7.5043677302
 21
24.495628166
  0
LINE
  5
8C1
100
AcDbEntity
  8
ASSI
100
AcDbLine
 62
7
  6
CONTINUOUS
 10
-7.5043674762
 20
24.495628166
 11
-9.8956322698
 21
24.495628166
  0
LINE
  5
8C2
100
AcDbEntity
  8
0
100
AcDbLine
 62
7
  6
CONTINUOUS
 10
-7.5043674762
 20
24.495628166
 11
-9.8956322698
 21
24.495628166
  0
ARC
  5
8C3
100
AcDbEntity
  8
CURVE
100
AcDbCircle
 62
253
  6
CONTINUOUS
 10
-80.5721787054
 20
5.9833401189
 40
91.6687814635
100
AcDbArc
 50
359.8883075732
 51
0.1846725335
  0
ARC
  5
8C4
100
AcDbEntity
  8
ASSI
100
AcDbCircle
 62
7
  6
CONTINUOUS
 10
-3.999999873
 20
-23.15
 40
0.5
100
AcDbArc
 50
144.3637748935
 51
215.6362251065
  0
ARC
  5
8C5
100
AcDbEntity
  8
0
100
AcDbCircle
 62
7
  6
CONTINUOUS
 10
-3.999999873
 20
-23.15
 40
0.5
100
AcDbArc
 50
144.3637748935
 51
215.6362251065
  0
ARC
  5
8C6
100
AcDbEntity
  8
ASSI
100
AcDbCircle
 62
7
  6
CONTINUOUS
 10
-9.8985365335
 20
-24.2485366605
 40
0.252037201
100
AcDbArc
 50
215.0820718466
 51
234.9179281534
  0
ARC
  5
8C7
100
AcDbEntity
  8
ASSI
100
AcDbCircle
 62
7
  6
CONTINUOUS
 10
-7.5014632125
 20
-24.2485366605
 40
0.252037201
100
AcDbArc
 50
305.0820718466
 51
324.9179281534
  0
ARC
  5
8C8
100
AcDbEntity
  8
ASSI
100
AcDbCircle
 62
7
  6
CONTINUOUS
 10
-9.899680711
 20
-24.2481597005
 40
0.2518405071
100
AcDbArc
 50
250.0741436399
 51
269.9264254649
  0
ARC
  5
8C9
100
AcDbEntity
  8
ASSI
100
AcDbCircle
 62
7
  6
CONTINUOUS
 10
-7.5018401725
 20
-24.249680838
 40
0.2518405071
100
AcDbArc
 50
340.0741436399
 51
359.9264254649
  0
ARC
  5
8CA
100
AcDbEntity
  8
ASSI
100
AcDbCircle
 62
7
  6
CONTINUOUS
 10
-9.8991051009
 20
-24.2495215689
 40
0.2510063076
100
AcDbArc
 50
200.0335911751
 51
214.9726884319
  0
ARC
  5
8CB
100
AcDbEntity
  8
ASSI
100
AcDbCircle
 62
7
  6
CONTINUOUS
 10
-9.8995214419
 20
-24.2491052279
 40
0.2510063076
100
AcDbArc
 50
235.0273115681
 51
249.9664088249
  0
ARC
  5
8CC
100
AcDbEntity
  8
ASSI
100
AcDbCircle
 62
7
  6
CONTINUOUS
 10
-7.5004783041
 20
-24.2491052279
 40
0.2510063076
100
AcDbArc
 50
290.0335911751
 51
304.9726884319
  0
ARC
  5
8CD
100
AcDbEntity
  8
ASSI
100
AcDbCircle
 62
7
  6
CONTINUOUS
 10
-7.5008946451
 20
-24.2495215689
 40
0.2510063076
100
AcDbArc
 50
325.0273115681
 51
339.9664088249
  0
ARC
  5
8CE
100
AcDbEntity
  8
ASSI
100
AcDbCircle
 62
7
  6
CONTINUOUS
 10
-9.8992495853
 20
-24.2499037573
 40
0.2507503079
100
AcDbArc
 50
180.0229579261
 51
189.9928590727
  0
ARC
  5
8CF
100
AcDbEntity
  8
ASSI
100
AcDbCircle
 62
7
  6
CONTINUOUS
 10
-7.5000961157
 20
-24.2492497123
 40
0.2507503079
100
AcDbArc
 50
270.0229579261
 51
279.9928590727
  0
ARC
  5
8D0
100
AcDbEntity
  8
ASSI
100
AcDbCircle
 62
7
  6
CONTINUOUS
 10
-9.8998733823
 20
-24.2500478404
 40
0.2501109744
100
AcDbArc
 50
189.9851498879
 51
194.9828336345
  0
ARC
  5
8D1
100
AcDbEntity
  8
ASSI
100
AcDbCircle
 62
7
  6
CONTINUOUS
 10
-7.4999520326
 20
-24.2498735093
 40
0.2501109744
100
AcDbArc
 50
279.9851498879
 51
284.9828336345
  0
ARC
  5
8D2
100
AcDbEntity
  8
ASSI
100
AcDbCircle
 62
7
  6
CONTINUOUS
 10
-9.8956220557
 20
-24.2456221827
 40
0.2500059835
100
AcDbArc
 50
180.0023408295
 51
269.9976591705
  0
ARC
  5
8D3
100
AcDbEntity
  8
ASSI
100
AcDbCircle
 62
7
  6
CONTINUOUS
 10
-7.5043776902
 20
-24.2456221828
 40
0.2500059834
100
AcDbArc
 50
270.0023408215
 51
359.9976591785
  0
ARC
  5
8D4
100
AcDbEntity
  8
0
100
AcDbCircle
 62
7
  6
CONTINUOUS
 10
-9.8956227562
 20
-24.2456228881
 40
0.2500047265
100
AcDbArc
 50
180.0049064987
 51
269.9951055297
  0
ARC
  5
8D5
100
AcDbEntity
  8
0
100
AcDbCircle
 62
7
  6
CONTINUOUS
 10
-7.5043769811
 20
-24.2456228919
 40
0.2500047179
100
AcDbArc
 50
270.0049052584
 51
359.9950947416
  0
ARC
  5
8D6
100
AcDbEntity
  8
0
100
AcDbCircle
 62
7
  6
CONTINUOUS
 10
-9.9000072264
 20
-24.2500073534
 40
0.2499918163
100
AcDbArc
 50
180.0029596495
 51
269.9970403505
  0
ARC
  5
8D7
100
AcDbEntity
  8
0
100
AcDbCircle
 62
7
  6
CONTINUOUS
 10
-7.4999925196
 20
-24.2500073534
 40
0.2499918163
100
AcDbArc
 50
270.0029596495
 51
359.9970403505
  0
ARC
  5
8D8
100
AcDbEntity
  8
ASSI
100
AcDbCircle
 62
7
  6
CONTINUOUS
 10
-9.9005834761
 20
-24.2501918848
 40
0.2493877856
100
AcDbArc
 50
194.9930419022
 51
200.0052617039
  0
ARC
  5
8D9
100
AcDbEntity
  8
ASSI
100
AcDbCircle
 62
7
  6
CONTINUOUS
 10
-7.4998079882
 20
-24.2505836031
 40
0.2493877856
100
AcDbArc
 50
284.9930419022
 51
290.0052617039
  0
ARC
  5
8DA
100
AcDbEntity
  8
RACCORDO
100
AcDbCircle
 62
253
  6
CONTINUOUS
 10
-8.4864012245
 20
-17.3967013151
 40
2.0000015524
100
AcDbArc
 50
180.0035420266
 51
224.9964793091
  0
ARC
  5
8DB
100
AcDbEntity
  8
ASSI
100
AcDbCircle
 62
253
  6
CONTINUOUS
 10
-8.4864012245
 20
-17.3967013151
 40
2.0000015524
100
AcDbArc
 50
180.0035420266
 51
224.9964793091
  0
ARC
  5
8DC
100
AcDbEntity
  8
RACCORDO
100
AcDbCircle
 62
253
  6
CONTINUOUS
 10
-9.1753172808
 20
-18.1217678446
 40
1.0001648821
100
AcDbArc
 50
225.0075262524
 51
269.9924737476
  0
ARC
  5
8DD
100
AcDbEntity
  8
ASSI
100
AcDbCircle
 62
253
  6
CONTINUOUS
 10
-9.1753172808
 20
-18.1217678446
 40
1.0001648821
100
AcDbArc
 50
225.0075262524
 51
269.9924737476
  0
ARC
  5
8DE
100
AcDbEntity
  8
RACCORDO
100
AcDbCircle
 62
253
  6
CONTINUOUS
 10
-8.4867191401
 20
-17.396833
 40
0.9998359376
100
AcDbArc
 50
179.9997209164
 51
225.0002790836
  0
ARC
  5
8DF
100
AcDbEntity
  8
ASSI
100
AcDbCircle
 62
253
  6
CONTINUOUS
 10
-8.4867191401
 20
-17.396833
 40
0.9998359376
100
AcDbArc
 50
179.9997209164
 51
225.0002790836
  0
ARC
  5
8E0
100
AcDbEntity
  8
ASSI
100
AcDbCircle
 62
7
  6
CONTINUOUS
 10
4.000000127
 20
-23.15
 40
0.5
100
AcDbArc
 50
324.3637748935
 51
35.6362251065
  0
ARC
  5
8E1
100
AcDbEntity
  8
0
100
AcDbCircle
 62
7
  6
CONTINUOUS
 10
4.000000127
 20
-23.15
 40
0.5
100
AcDbArc
 50
324.3637748935
 51
35.6362251065
  0
ARC
  5
8E2
100
AcDbEntity
  8
ASSI
100
AcDbCircle
 62
7
  6
CONTINUOUS
 10
9.8985367875
 20
-24.2485366605
 40
0.252037201
100
AcDbArc
 50
305.0820718466
 51
324.9179281534
  0
ARC
  5
8E3
100
AcDbEntity
  8
ASSI
100
AcDbCircle
 62
7
  6
CONTINUOUS
 10
7.5014634665
 20
-24.2485366605
 40
0.252037201
100
AcDbArc
 50
215.0820718466
 51
234.9179281534
  0
ARC
  5
8E4
100
AcDbEntity
  8
ASSI
100
AcDbCircle
 62
7
  6
CONTINUOUS
 10
9.8981598275
 20
-24.249680838
 40
0.2518405071
100
AcDbArc
 50
340.0741436399
 51
359.9264254649
  0
ARC
  5
8E5
100
AcDbEntity
  8
ASSI
100
AcDbCircle
 62
7
  6
CONTINUOUS
 10
7.500319289
 20
-24.2481597005
 40
0.2518405071
100
AcDbArc
 50
250.0741436399
 51
269.9264254649
  0
ARC
  5
8E6
100
AcDbEntity
  8
ASSI
100
AcDbCircle
 62
7
  6
CONTINUOUS
 10
9.8995216959
 20
-24.2491052279
 40
0.2510063076
100
AcDbArc
 50
290.0335911751
 51
304.9726884319
  0
ARC
  5
8E7
100
AcDbEntity
  8
ASSI
100
AcDbCircle
 62
7
  6
CONTINUOUS
 10
9.8991053549
 20
-24.2495215689
 40
0.2510063076
100
AcDbArc
 50
325.0273115681
 51
339.9664088249
  0
ARC
  5
8E8
100
AcDbEntity
  8
ASSI
100
AcDbCircle
 62
7
  6
CONTINUOUS
 10
7.5008948991
 20
-24.2495215689
 40
0.2510063076
100
AcDbArc
 50
200.0335911751
 51
214.9726884319
  0
ARC
  5
8E9
100
AcDbEntity
  8
ASSI
100
AcDbCircle
 62
7
  6
CONTINUOUS
 10
7.5004785581
 20
-24.2491052279
 40
0.2510063076
100
AcDbArc
 50
235.0273115681
 51
249.9664088249
  0
ARC
  5
8EA
100
AcDbEntity
  8
ASSI
100
AcDbCircle
 62
7
  6
CONTINUOUS
 10
9.8999038843
 20
-24.2492497123
 40
0.2507503079
100
AcDbArc
 50
270.0229579261
 51
279.9928590727
  0
ARC
  5
8EB
100
AcDbEntity
  8
ASSI
100
AcDbCircle
 62
7
  6
CONTINUOUS
 10
7.5007504147
 20
-24.2499037573
 40
0.2507503079
100
AcDbArc
 50
180.0229579261
 51
189.9928590727
  0
ARC
  5
8EC
100
AcDbEntity
  8
ASSI
100
AcDbCircle
 62
7
  6
CONTINUOUS
 10
9.9000479674
 20
-24.2498735093
 40
0.2501109744
100
AcDbArc
 50
279.9851498879
 51
284.9828336345
  0
ARC
  5
8ED
100
AcDbEntity
  8
ASSI
100
AcDbCircle
 62
7
  6
CONTINUOUS
 10
7.5001266177
 20
-24.2500478404
 40
0.2501109744
100
AcDbArc
 50
189.9851498879
 51
194.9828336345
  0
ARC
  5
8EE
100
AcDbEntity
  8
ASSI
100
AcDbCircle
 62
7
  6
CONTINUOUS
 10
9.8956223097
 20
-24.2456221827
 40
0.2500059835
100
AcDbArc
 50
270.0023408295
 51
359.9976591705
  0
ARC
  5
8EF
100
AcDbEntity
  8
ASSI
100
AcDbCircle
 62
7
  6
CONTINUOUS
 10
7.5043779442
 20
-24.2456221828
 40
0.2500059834
100
AcDbArc
 50
180.0023408215
 51
269.9976591785
  0
ARC
  5
8F0
100
AcDbEntity
  8
0
100
AcDbCircle
 62
7
  6
CONTINUOUS
 10
9.8956230102
 20
-24.2456228881
 40
0.2500047265
100
AcDbArc
 50
270.0048944703
 51
359.9950935013
  0
ARC
  5
8F1
100
AcDbEntity
  8
0
100
AcDbCircle
 62
7
  6
CONTINUOUS
 10
7.5043772351
 20
-24.2456228919
 40
0.2500047179
100
AcDbArc
 50
180.0049052584
 51
269.9950947416
  0
ARC
  5
8F2
100
AcDbEntity
  8
0
100
AcDbCircle
 62
7
  6
CONTINUOUS
 10
9.9000074804
 20
-24.2500073534
 40
0.2499918163
100
AcDbArc
 50
270.0029596495
 51
359.9970403505
  0
ARC
  5
8F3
100
AcDbEntity
  8
0
100
AcDbCircle
 62
7
  6
CONTINUOUS
 10
7.4999927736
 20
-24.2500073534
 40
0.2499918163
100
AcDbArc
 50
180.0029596495
 51
269.9970403505
  0
ARC
  5
8F4
100
AcDbEntity
  8
ASSI
100
AcDbCircle
 62
7
  6
CONTINUOUS
 10
9.9001920118
 20
-24.2505836031
 40
0.2493877856
100
AcDbArc
 50
284.9930419022
 51
290.0052617039
  0
ARC
  5
8F5
100
AcDbEntity
  8
ASSI
100
AcDbCircle
 62
7
  6
CONTINUOUS
 10
7.4994165239
 20
-24.2501918848
 40
0.2493877856
100
AcDbArc
 50
194.9930419022
 51
200.0052617039
  0
ARC
  5
8F6
100
AcDbEntity
  8
SUPERFICI
100
AcDbCircle
 62
253
  6
CONTINUOUS
 10
8.4864014785
 20
-17.3967013151
 40
2.0000015524
100
AcDbArc
 50
315.0035206907
 51
359.9964579731
  0
ARC
  5
8F7
100
AcDbEntity
  8
SUPERFICI
100
AcDbCircle
 62
253
  6
CONTINUOUS
 10
9.1753175348
 20
-18.1217678446
 40
1.0001648821
100
AcDbArc
 50
270.0075262524
 51
314.9924737476
  0
ARC
  5
8F8
100
AcDbEntity
  8
RACCORDO
100
AcDbCircle
 62
253
  6
CONTINUOUS
 10
-8.4864012245
 20
17.3967013151
 40
2.0000015524
100
AcDbArc
 50
135.0035206907
 51
179.9964579731
  0
ARC
  5
8F9
100
AcDbEntity
  8
ASSI
100
AcDbCircle
 62
253
  6
CONTINUOUS
 10
-8.4864012245
 20
17.3967013151
 40
2.0000015524
100
AcDbArc
 50
135.0035206907
 51
179.9964579731
  0
ARC
  5
8FA
100
AcDbEntity
  8
RACCORDO
100
AcDbCircle
 62
253
  6
CONTINUOUS
 10
-9.1753172808
 20
18.1217678446
 40
1.0001648821
100
AcDbArc
 50
90.0075262524
 51
134.9924737476
  0
ARC
  5
8FB
100
AcDbEntity
  8
ASSI
100
AcDbCircle
 62
253
  6
CONTINUOUS
 10
-9.1753172808
 20
18.1217678446
 40
1.0001648821
100
AcDbArc
 50
90.0075262524
 51
134.9924737476
  0
ARC
  5
8FC
100
AcDbEntity
  8
RACCORDO
100
AcDbCircle
 62
253
  6
CONTINUOUS
 10
-8.4867191401
 20
17.396833
 40
0.9998359376
100
AcDbArc
 50
134.9997209164
 51
180.0002790836
  0
ARC
  5
8FD
100
AcDbEntity
  8
ASSI
100
AcDbCircle
 62
253
  6
CONTINUOUS
 10
-8.4867191401
 20
17.396833
 40
0.9998359376
100
AcDbArc
 50
134.9997209164
 51
180.0002790836
  0
ARC
  5
8FE
100
AcDbEntity
  8
ASSI
100
AcDbCircle
 62
7
  6
CONTINUOUS
 10
-3.999999873
 20
23.15
 40
0.5
100
AcDbArc
 50
144.3637748935
 51
215.6362251065
  0
ARC
  5
8FF
100
AcDbEntity
  8
0
100
AcDbCircle
 62
7
  6
CONTINUOUS
 10
-3.999999873
 20
23.15
 40
0.5
100
AcDbArc
 50
144.3637748935
 51
215.6362251065
  0
ARC
  5
900
100
AcDbEntity
  8
ASSI
100
AcDbCircle
 62
7
  6
CONTINUOUS
 10
-7.5014632125
 20
24.2485366605
 40
0.252037201
100
AcDbArc
 50
35.0820718466
 51
54.9179281534
  0
ARC
  5
901
100
AcDbEntity
  8
ASSI
100
AcDbCircle
 62
7
  6
CONTINUOUS
 10
-9.8985365335
 20
24.2485366605
 40
0.252037201
100
AcDbArc
 50
125.0820718466
 51
144.9179281534
  0
ARC
  5
902
100
AcDbEntity
  8
ASSI
100
AcDbCircle
 62
7
  6
CONTINUOUS
 10
-7.500319035
 20
24.2481597005
 40
0.2518405071
100
AcDbArc
 50
70.0741436399
 51
89.9264254649
  0
ARC
  5
903
100
AcDbEntity
  8
ASSI
100
AcDbCircle
 62
7
  6
CONTINUOUS
 10
-9.8981595735
 20
24.249680838
 40
0.2518405071
100
AcDbArc
 50
160.0741436399
 51
179.9264254649
  0
ARC
  5
904
100
AcDbEntity
  8
ASSI
100
AcDbCircle
 62
7
  6
CONTINUOUS
 10
-7.5008946451
 20
24.2495215689
 40
0.2510063076
100
AcDbArc
 50
20.0335911751
 51
34.9726884319
  0
ARC
  5
905
100
AcDbEntity
  8
ASSI
100
AcDbCircle
 62
7
  6
CONTINUOUS
 10
-7.5004783041
 20
24.2491052279
 40
0.2510063076
100
AcDbArc
 50
55.0273115681
 51
69.9664088249
  0
ARC
  5
906
100
AcDbEntity
  8
ASSI
100
AcDbCircle
 62
7
  6
CONTINUOUS
 10
-9.8995214419
 20
24.2491052279
 40
0.2510063076
100
AcDbArc
 50
110.0335911751
 51
124.9726884319
  0
ARC
  5
907
100
AcDbEntity
  8
ASSI
100
AcDbCircle
 62
7
  6
CONTINUOUS
 10
-9.8991051009
 20
24.2495215689
 40
0.2510063076
100
AcDbArc
 50
145.0273115681
 51
159.9664088249
  0
ARC
  5
908
100
AcDbEntity
  8
ASSI
100
AcDbCircle
 62
7
  6
CONTINUOUS
 10
-7.5007501607
 20
24.2499037573
 40
0.2507503079
100
AcDbArc
 50
0.0229579261
 51
9.9928590727
  0
ARC
  5
909
100
AcDbEntity
  8
ASSI
100
AcDbCircle
 62
7
  6
CONTINUOUS
 10
-9.8999036303
 20
24.2492497123
 40
0.2507503079
100
AcDbArc
 50
90.0229579261
 51
99.9928590727
  0
ARC
  5
90A
100
AcDbEntity
  8
ASSI
100
AcDbCircle
 62
7
  6
CONTINUOUS
 10
-7.5001263637
 20
24.2500478404
 40
0.2501109744
100
AcDbArc
 50
9.9851498879
 51
14.9828336345
  0
ARC
  5
90B
100
AcDbEntity
  8
ASSI
100
AcDbCircle
 62
7
  6
CONTINUOUS
 10
-9.9000477134
 20
24.2498735093
 40
0.2501109744
100
AcDbArc
 50
99.9851498879
 51
104.9828336344
  0
ARC
  5
90C
100
AcDbEntity
  8
ASSI
100
AcDbCircle
 62
7
  6
CONTINUOUS
 10
-7.5043776902
 20
24.2456221828
 40
0.2500059834
100
AcDbArc
 50
0.0023408215
 51
89.9976591785
  0
ARC
  5
90D
100
AcDbEntity
  8
ASSI
100
AcDbCircle
 62
7
  6
CONTINUOUS
 10
-9.8956220557
 20
24.2456221827
 40
0.2500059835
100
AcDbArc
 50
90.0023408295
 51
179.9976591705
  0
ARC
  5
90E
100
AcDbEntity
  8
0
100
AcDbCircle
 62
7
  6
CONTINUOUS
 10
-9.8956227562
 20
24.2456228881
 40
0.2500047265
100
AcDbArc
 50
90.0048944703
 51
179.9950935013
  0
ARC
  5
90F
100
AcDbEntity
  8
0
100
AcDbCircle
 62
7
  6
CONTINUOUS
 10
-7.5043769811
 20
24.2456228919
 40
0.2500047179
100
AcDbArc
 50
0.0049052584
 51
89.9950947417
  0
ARC
  5
910
100
AcDbEntity
  8
0
100
AcDbCircle
 62
7
  6
CONTINUOUS
 10
-7.4999925196
 20
24.2500073534
 40
0.2499918163
100
AcDbArc
 50
0.0029596495
 51
89.9970403505
  0
ARC
  5
911
100
AcDbEntity
  8
0
100
AcDbCircle
 62
7
  6
CONTINUOUS
 10
-9.9000072264
 20
24.2500073534
 40
0.2499918163
100
AcDbArc
 50
90.0029596495
 51
179.9970403505
  0
ARC
  5
912
100
AcDbEntity
  8
ASSI
100
AcDbCircle
 62
7
  6
CONTINUOUS
 10
-7.4994162699
 20
24.2501918848
 40
0.2493877856
100
AcDbArc
 50
14.9930419022
 51
20.0052617039
  0
ARC
  5
913
100
AcDbEntity
  8
ASSI
100
AcDbCircle
 62
7
  6
CONTINUOUS
 10
-9.9001917578
 20
24.2505836031
 40
0.2493877856
100
AcDbArc
 50
104.9930419022
 51
110.005261704
  0
ARC
  5
914
100
AcDbEntity
  8
RACCORDO
100
AcDbCircle
 62
253
  6
CONTINUOUS
 10
8.4864014785
 20
17.3967013151
 40
2.0000015524
100
AcDbArc
 50
0.0035420266
 51
44.9964793091
  0
ARC
  5
915
100
AcDbEntity
  8
ASSI
100
AcDbCircle
 62
253
  6
CONTINUOUS
 10
8.4864014785
 20
17.3967013151
 40
2.0000015524
100
AcDbArc
 50
0.0035420266
 51
44.9964793091
  0
ARC
  5
916
100
AcDbEntity
  8
RACCORDO
100
AcDbCircle
 62
253
  6
CONTINUOUS
 10
9.1753175348
 20
18.1217678446
 40
1.0001648821
100
AcDbArc
 50
45.0075262524
 51
89.9924737476
  0
ARC
  5
917
100
AcDbEntity
  8
ASSI
100
AcDbCircle
 62
253
  6
CONTINUOUS
 10
9.1753175348
 20
18.1217678446
 40
1.0001648821
100
AcDbArc
 50
45.0075262524
 51
89.9924737476
  0
ARC
  5
918
100
AcDbEntity
  8
RACCORDO
100
AcDbCircle
 62
253
  6
CONTINUOUS
 10
8.4867193941
 20
17.396833
 40
0.9998359376
100
AcDbArc
 50
359.9997209164
 51
45.0002790836
  0
ARC
  5
919
100
AcDbEntity
  8
ASSI
100
AcDbCircle
 62
253
  6
CONTINUOUS
 10
8.4867193941
 20
17.396833
 40
0.9998359376
100
AcDbArc
 50
359.9997209164
 51
45.0002790836
  0
ARC
  5
91A
100
AcDbEntity
  8
ASSI
100
AcDbCircle
 62
7
  6
CONTINUOUS
 10
4.000000127
 20
23.15
 40
0.5
100
AcDbArc
 50
324.3637748935
 51
35.6362251065
  0
ARC
  5
91B
100
AcDbEntity
  8
0
100
AcDbCircle
 62
7
  6
CONTINUOUS
 10
4.000000127
 20
23.15
 40
0.5
100
AcDbArc
 50
324.3637748935
 51
35.6362251065
  0
ARC
  5
91C
100
AcDbEntity
  8
ASSI
100
AcDbCircle
 62
7
  6
CONTINUOUS
 10
9.8985367875
 20
24.2485366605
 40
0.252037201
100
AcDbArc
 50
35.0820718466
 51
54.9179281534
  0
ARC
  5
91D
100
AcDbEntity
  8
ASSI
100
AcDbCircle
 62
7
  6
CONTINUOUS
 10
7.5014634665
 20
24.2485366605
 40
0.252037201
100
AcDbArc
 50
125.0820718466
 51
144.9179281534
  0
ARC
  5
91E
100
AcDbEntity
  8
ASSI
100
AcDbCircle
 62
7
  6
CONTINUOUS
 10
9.899680965
 20
24.2481597005
 40
0.2518405071
100
AcDbArc
 50
70.0741436399
 51
89.9264254649
  0
ARC
  5
91F
100
AcDbEntity
  8
ASSI
100
AcDbCircle
 62
7
  6
CONTINUOUS
 10
7.5018404265
 20
24.249680838
 40
0.2518405071
100
AcDbArc
 50
160.0741436399
 51
179.9264254649
  0
ARC
  5
920
100
AcDbEntity
  8
ASSI
100
AcDbCircle
 62
7
  6
CONTINUOUS
 10
9.8991053549
 20
24.2495215689
 40
0.2510063076
100
AcDbArc
 50
20.0335911751
 51
34.9726884319
  0
ARC
  5
921
100
AcDbEntity
  8
ASSI
100
AcDbCircle
 62
7
  6
CONTINUOUS
 10
9.8995216959
 20
24.2491052279
 40
0.2510063076
100
AcDbArc
 50
55.0273115681
 51
69.9664088249
  0
ARC
  5
922
100
AcDbEntity
  8
ASSI
100
AcDbCircle
 62
7
  6
CONTINUOUS
 10
7.5004785581
 20
24.2491052279
 40
0.2510063076
100
AcDbArc
 50
110.0335911751
 51
124.9726884319
  0
ARC
  5
923
100
AcDbEntity
  8
ASSI
100
AcDbCircle
 62
7
  6
CONTINUOUS
 10
7.5008948991
 20
24.2495215689
 40
0.2510063076
100
AcDbArc
 50
145.0273115681
 51
159.9664088249
  0
ARC
  5
924
100
AcDbEntity
  8
ASSI
100
AcDbCircle
 62
7
  6
CONTINUOUS
 10
9.8992498393
 20
24.2499037573
 40
0.2507503079
100
AcDbArc
 50
0.0229579261
 51
9.9928590727
  0
ARC
  5
925
100
AcDbEntity
  8
ASSI
100
AcDbCircle
 62
7
  6
CONTINUOUS
 10
7.5000963697
 20
24.2492497123
 40
0.2507503079
100
AcDbArc
 50
90.0229579261
 51
99.9928590727
  0
ARC
  5
926
100
AcDbEntity
  8
ASSI
100
AcDbCircle
 62
7
  6
CONTINUOUS
 10
9.8998736363
 20
24.2500478404
 40
0.2501109744
100
AcDbArc
 50
9.9851498878
 51
14.9828336345
  0
ARC
  5
927
100
AcDbEntity
  8
ASSI
100
AcDbCircle
 62
7
  6
CONTINUOUS
 10
7.4999522866
 20
24.2498735093
 40
0.2501109744
100
AcDbArc
 50
99.9851498879
 51
104.9828336344
  0
ARC
  5
928
100
AcDbEntity
  8
ASSI
100
AcDbCircle
 62
7
  6
CONTINUOUS
 10
9.8956223097
 20
24.2456221827
 40
0.2500059835
100
AcDbArc
 50
0.0023408295
 51
89.9976591705
  0
ARC
  5
929
100
AcDbEntity
  8
ASSI
100
AcDbCircle
 62
7
  6
CONTINUOUS
 10
7.5043779443
 20
24.2456221827
 40
0.2500059835
100
AcDbArc
 50
90.0023408295
 51
179.9976591705
  0
ARC
  5
92A
100
AcDbEntity
  8
0
100
AcDbCircle
 62
7
  6
CONTINUOUS
 10
9.8956230102
 20
24.2456228881
 40
0.2500047265
100
AcDbArc
 50
0.0049064987
 51
89.9951055297
  0
ARC
  5
92B
100
AcDbEntity
  8
0
100
AcDbCircle
 62
7
  6
CONTINUOUS
 10
7.5043772438
 20
24.2456228881
 40
0.2500047265
100
AcDbArc
 50
90.0048944703
 51
179.9950935013
  0
ARC
  5
92C
100
AcDbEntity
  8
0
100
AcDbCircle
 62
7
  6
CONTINUOUS
 10
9.9000074804
 20
24.2500073534
 40
0.2499918163
100
AcDbArc
 50
0.0029596495
 51
89.9970403505
  0
ARC
  5
92D
100
AcDbEntity
  8
0
100
AcDbCircle
 62
7
  6
CONTINUOUS
 10
7.4999927736
 20
24.2500073534
 40
0.2499918163
100
AcDbArc
 50
90.0029596495
 51
179.9970403505
  0
ARC
  5
92E
100
AcDbEntity
  8
ASSI
100
AcDbCircle
 62
7
  6
CONTINUOUS
 10
9.9005837301
 20
24.2501918848
 40
0.2493877856
100
AcDbArc
 50
14.9930419022
 51
20.0052617039
  0
ARC
  5
92F
100
AcDbEntity
  8
ASSI
100
AcDbCircle
 62
7
  6
CONTINUOUS
 10
7.4998082422
 20
24.2505836031
 40
0.2493877856
100
AcDbArc
 50
104.9930419021
 51
110.0052617041
  0
SPLINE
  5
930
100
AcDbEntity
  8
SUPERFICI
100
AcDbSpline
 62
253
  6
CONTINUOUS
 70
0
 71
3
 72
10
 73
6
 74
4
 42
0.0000001
 43
0.0000001
 44
0.0000000001
 12
0.570526676
 22
0.5705325703
 32
0.0
 13
0.0000036538
 23
0.8068507308
 33
0.0
 40
0.0
 40
0.0
 40
0.0
 40
0.0
 40
0.2507127634
 40
0.501333281
 40
1.0
 40
1.0
 40
1.0
 40
1.0
 10
9.1767079523
 20
-18.1220850228
 30
0.0
 10
9.2243873921
 20
-18.0744050904
 30
0.0
 10
9.3133000881
 20
-17.9717752247
 30
0.0
 10
9.4443886492
 20
-17.7353576737
 30
0.0
 10
9.4865547243
 20
-17.5309446654
 30
0.0
 10
9.4865553317
 20
-17.3968281299
 30
0.0
 11
9.1767079523
 21
-18.1220850228
 31
0.0
 11
9.3075159047
 21
-17.9677813481
 31
0.0
 11
9.4056012118
 21
-17.7909494772
 31
0.0
 11
9.4865553317
 21
-17.3968281299
 31
0.0
  0
LINE
  5
931
100
AcDbEntity
  8
ASSI
100
AcDbLine
 62
7
  6
CONTINUOUS
 10
11.150000127
 20
-18.491183651
 11
11.1504364704
 21
-18.5
  0
LINE
  5
932
100
AcDbEntity
  8
ASSI
100
AcDbLine
 62
7
  6
CONTINUOUS
 10
11.1504364704
 20
18.5
 11
11.1500486069
 21
18.4921638023
  0
LINE
  5
933
100
AcDbEntity
  8
ASSI
100
AcDbLine
 62
7
  6
CONTINUOUS
 10
11.1500486069
 20
18.4921638023
 11
11.150000127
 21
18.491183651
  0
LINE
  5
934
100
AcDbEntity
  8
ASSI
100
AcDbLine
 62
7
  6
CONTINUOUS
 10
-11.149999873
 20
-18.491183651
 11
-11.1504362164
 21
-18.5
  0
LINE
  5
935
100
AcDbEntity
  8
ASSI
100
AcDbLine
 62
7
  6
CONTINUOUS
 10
-11.1504362164
 20
18.5
 11
-11.1500483529
 21
18.4921638023
  0
LINE
  5
936
100
AcDbEntity
  8
ASSI
100
AcDbLine
 62
7
  6
CONTINUOUS
 10
-11.1500483529
 20
18.4921638023
 11
-11.149999873
 21
18.491183651
  0
SPLINE
  5
937
100
AcDbEntity
  8
ASSI
100
AcDbSpline
 62
7
  6
CONTINUOUS
 70
0
 71
3
 72
11
 73
7
 74
5
 42
0.0000001
 43
0.0000001
 44
0.0000000001
 12
-0.4255226135
 22
0.4470314454
 32
0.0
 13
-0.3965494807
 23
0.4729218933
 33
0.0
 40
0.0
 40
0.0
 40
0.0
 40
0.0
 40
0.2850374893
 40
0.5591811932
 40
0.8068589515
 40
1.0
 40
1.0
 40
1.0
 40
1.0
 10
3.9530428369
 20
23.4563578147
 30
0.0
 10
3.9126128711
 20
23.4988313883
 30
0.0
 10
3.8333055768
 20
23.582160332
 30
0.0
 10
3.7191365959
 20
23.7026624115
 30
0.0
 10
3.6188417647
 20
23.8102295746
 30
0.0
 10
3.5578148668
 20
23.8773649484
 30
0.0
 10
3.5322848727
 20
23.9078118252
 30
0.0
 11
3.9530428369
 21
23.4563578147
 31
0.0
 11
3.8318084094
 21
23.5838313134
 31
0.0
 11
3.7155671685
 21
23.7067740748
 31
0.0
 11
3.6114474144
 21
23.8186915236
 31
0.0
 11
3.5322848727
 21
23.9078118252
 31
0.0
  0
SPLINE
  5
938
100
AcDbEntity
  8
ASSI
100
AcDbSpline
 62
7
  6
CONTINUOUS
 70
0
 71
3
 72
11
 73
7
 74
5
 42
0.0000001
 43
0.0000001
 44
0.0000000001
 12
-0.0364941763
 22
0.0435226769
 32
0.0
 13
0.0
 23
0.0567983126
 33
0.0
 40
0.0
 40
0.0
 40
0.0
 40
0.0
 40
0.3785682196
 40
0.6764635623
 40
0.8846793121
 40
1.0
 40
1.0
 40
1.0
 40
1.0
 10
3.5322848727
 20
23.9078118252
 30
0.0
 10
3.5276796942
 20
23.913303926
 30
0.0
 10
3.5195780028
 20
23.9231830043
 30
0.0
 10
3.5092764595
 20
23.9365335572
 30
0.0
 10
3.502997256
 20
23.9462386318
 30
0.0
 10
3.500000127
 20
23.9519646039
 30
0.0
 10
3.500000127
 20
23.9541479441
 30
0.0
 11
3.5322848727
 21
23.9078118252
 31
0.0
 11
3.5186821909
 21
23.9244642906
 31
0.0
 11
3.5085022145
 21
23.9379792039
 31
0.0
 11
3.5021712677
 21
23.9479682259
 31
0.0
 11
3.500000127
 21
23.9541479441
 31
0.0
  0
SPLINE
  5
939
100
AcDbEntity
  8
ASSI
100
AcDbSpline
 62
7
  6
CONTINUOUS
 70
0
 71
3
 72
18
 73
14
 74
12
 42
0.0000001
 43
0.0000001
 44
0.0000000001
 12
-0.0392554497
 22
-0.6725675433
 32
0.0
 13
-0.4645022106
 23
-0.4879813387
 33
0.0
 40
0.0
 40
0.0
 40
0.0
 40
0.0
 40
0.0136901372
 40
0.039313907
 40
0.0759050613
 40
0.1218887959
 40
0.1756992874
 40
0.2358450295
 40
0.3705490324
 40
0.518583656
 40
0.6749783739
 40
0.8364040884
 40
1.0
 40
1.0
 40
1.0
 40
1.0
 10
4.40607788
 20
23.9538922731
 30
0.0
 10
4.4058987425
 20
23.9508230924
 30
0.0
 10
4.4009723281
 20
23.9429036979
 30
0.0
 10
4.39144006
 20
23.9291722243
 30
0.0
 10
4.3759442904
 20
23.9102329788
 30
0.0
 10
4.3561032625
 20
23.8869823919
 30
0.0
 10
4.3322615944
 20
23.8600874908
 30
0.0
 10
4.2948055651
 20
23.8186819242
 30
0.0
 10
4.2425106222
 20
23.762152575
 30
0.0
 10
4.1750441178
 20
23.6902279473
 30
0.0
 10
4.1031588903
 20
23.6142182246
 30
0.0
 10
4.0286975837
 20
23.53583652
 30
0.0
 10
3.9783730578
 20
23.4829683987
 30
0.0
 10
3.9530428369
 20
23.4563578147
 30
0.0
 11
4.40607788
 21
23.9538922731
 31
0.0
 11
4.4024664327
 21
23.9454055134
 31
0.0
 11
4.392631257
 21
23.9312181224
 31
0.0
 11
4.3772527839
 21
23.911951077
 31
0.0
 11
4.3571658416
 21
23.8883658515
 31
0.0
 11
4.3331662012
 21
23.8611945148
 31
0.0
 11
4.3060014098
 21
23.8311276069
 31
0.0
 11
4.2444718121
 21
23.7644194032
 31
0.0
 11
4.1762801114
 21
23.6916422849
 31
0.0
 11
4.1039072631
 21
23.6150657915
 31
0.0
 11
4.0290201777
 21
23.5362022454
 31
0.0
 11
3.9530428369
 21
23.4563578147
 31
0.0
  0
SPLINE
  5
93A
100
AcDbEntity
  8
ASSI
100
AcDbSpline
 62
7
  6
CONTINUOUS
 70
0
 71
3
 72
18
 73
14
 74
12
 42
0.0000001
 43
0.0000001
 44
0.0000000001
 12
-0.4645022106
 22
0.4879813387
 32
0.0
 13
-0.0392554497
 23
0.6725675433
 33
0.0
 40
0.0
 40
0.0
 40
0.0
 40
0.0
 40
0.1635959114
 40
0.3250216259
 40
0.4814163442
 40
0.6294509681
 40
0.7641549714
 40
0.8243007134
 40
0.8781112049
 40
0.9240949393
 40
0.9606860931
 40
0.9863098628
 40
1.0
 40
1.0
 40
1.0
 40
1.0
 10
-3.9530425829
 20
23.4563578147
 30
0.0
 10
-3.9783728038
 20
23.4829683987
 30
0.0
 10
-4.0286973296
 20
23.5358365199
 30
0.0
 10
-4.1031586363
 20
23.6142182246
 30
0.0
 10
-4.1750438639
 20
23.6902279473
 30
0.0
 10
-4.2425103684
 20
23.7621525753
 30
0.0
 10
-4.2948053114
 20
23.8186819245
 30
0.0
 10
-4.3322613408
 20
23.8600874913
 30
0.0
 10
-4.3561030089
 20
23.8869823923
 30
0.0
 10
-4.3759440366
 20
23.9102329791
 30
0.0
 10
-4.3914398061
 20
23.9291722244
 30
0.0
 10
-4.4009720741
 20
23.9429036979
 30
0.0
 10
-4.4058984885
 20
23.9508230924
 30
0.0
 10
-4.406077626
 20
23.9538922731
 30
0.0
 11
-3.9530425829
 21
23.4563578147
 31
0.0
 11
-4.0290199236
 21
23.5362022453
 31
0.0
 11
-4.103907009
 21
23.6150657914
 31
0.0
 11
-4.1762798574
 21
23.691642285
 31
0.0
 11
-4.2444715583
 21
23.7644194034
 31
0.0
 11
-4.3060011562
 21
23.8311276073
 31
0.0
 11
-4.3331659476
 21
23.8611945152
 31
0.0
 11
-4.357165588
 21
23.8883658519
 31
0.0
 11
-4.3772525302
 21
23.9119510774
 31
0.0
 11
-4.3926310031
 21
23.9312181225
 31
0.0
 11
-4.4024661787
 21
23.9454055134
 31
0.0
 11
-4.406077626
 21
23.9538922731
 31
0.0
  0
SPLINE
  5
93B
100
AcDbEntity
  8
ASSI
100
AcDbSpline
 62
7
  6
CONTINUOUS
 70
0
 71
3
 72
11
 73
7
 74
5
 42
0.0000001
 43
0.0000001
 44
0.0000000001
 12
0.0
 22
-0.0567983995
 32
0.0
 13
-0.0364942357
 23
-0.0435227405
 33
0.0
 40
0.0
 40
0.0
 40
0.0
 40
0.0
 40
0.1153206577
 40
0.3235364075
 40
0.6214317666
 40
1.0
 40
1.0
 40
1.0
 40
1.0
 10
-3.499999873
 20
23.9541479441
 30
0.0
 10
-3.499999873
 20
23.9519646012
 30
0.0
 10
-3.5029970081
 20
23.9462386214
 30
0.0
 10
-3.5092762223
 20
23.9365335333
 30
0.0
 10
-3.5195777835
 20
23.9231829607
 30
0.0
 10
-3.5276794885
 20
23.9133038675
 30
0.0
 10
-3.5322846746
 20
23.9078117585
 30
0.0
 11
-3.499999873
 21
23.9541479441
 31
0.0
 11
-3.5021710176
 21
23.9479682185
 31
0.0
 11
-3.5085019758
 21
23.9379791823
 31
0.0
 11
-3.51868197
 21
23.9244642488
 31
0.0
 11
-3.5322846746
 21
23.9078117585
 31
0.0
  0
SPLINE
  5
93C
100
AcDbEntity
  8
ASSI
100
AcDbSpline
 62
7
  6
CONTINUOUS
 70
0
 71
3
 72
9
 73
5
 74
3
 42
0.0000001
 43
0.0000001
 44
0.0000000001
 12
-0.0262932138
 22
-0.0313570815
 32
0.0
 13
-0.0270680486
 23
-0.0306907217
 33
0.0
 40
0.0
 40
0.0
 40
0.0
 40
0.0
 40
0.2300290241
 40
1.0
 40
1.0
 40
1.0
 40
1.0
 10
-3.5322846746
 20
23.9078117585
 30
0.0
 10
-3.534300742
 20
23.9054074122
 30
0.0
 10
-3.5431117083
 20
23.8949940875
 30
0.0
 10
-3.5520751226
 20
23.8847105965
 30
0.0
 10
-3.5590223265
 20
23.8768336082
 30
0.0
 11
-3.5322846746
 21
23.9078117585
 31
0.0
 11
-3.5383623645
 21
23.9006235483
 31
0.0
 11
-3.5590223265
 21
23.8768336082
 31
0.0
  0
SPLINE
  5
93D
100
AcDbEntity
  8
ASSI
100
AcDbSpline
 62
7
  6
CONTINUOUS
 70
0
 71
3
 72
10
 73
6
 74
4
 42
0.0000001
 43
0.0000001
 44
0.0000000001
 12
-0.3811711228
 22
-0.4321854529
 32
0.0
 13
-0.39731223
 23
-0.4173951156
 33
0.0
 40
0.0
 40
0.0
 40
0.0
 40
0.0
 40
0.2092096051
 40
0.4568473988
 40
1.0
 40
1.0
 40
1.0
 40
1.0
 10
-3.5590223265
 20
23.8768336082
 30
0.0
 10
-3.5856038799
 20
23.8466944922
 30
0.0
 10
-3.6449367936
 20
23.7820235767
 30
0.0
 10
-3.7763182228
 20
23.6418983719
 30
0.0
 10
-3.8811088592
 20
23.5319275623
 30
0.0
 10
-3.9530425829
 20
23.4563578147
 30
0.0
 11
-3.5590223265
 21
23.8768336082
 31
0.0
 11
-3.6400902992
 21
23.7876008146
 31
0.0
 11
-3.7375808781
 21
23.6833897067
 31
0.0
 11
-3.9530425829
 21
23.4563578147
 31
0.0
  0
SPLINE
  5
93E
100
AcDbEntity
  8
ASSI
100
AcDbSpline
 62
7
  6
CONTINUOUS
 70
0
 71
3
 72
11
 73
7
 74
5
 42
0.0000001
 43
0.0000001
 44
0.0000000001
 12
0.0
 22
0.056798951
 32
0.0
 13
0.0364946128
 23
0.0435231441
 33
0.0
 40
0.0
 40
0.0
 40
0.0
 40
0.0
 40
0.1153204739
 40
0.3235362267
 40
0.6214316832
 40
1.0
 40
1.0
 40
1.0
 40
1.0
 10
3.500000127
 20
-23.9541479441
 30
0.0
 10
3.500000127
 20
-23.9519645834
 30
0.0
 10
3.5029973018
 20
-23.9462385552
 30
0.0
 10
3.5092765828
 20
-23.936533381
 30
0.0
 10
3.5195782576
 20
-23.9231826836
 30
0.0
 10
3.5276800486
 20
-23.9133034966
 30
0.0
 10
3.5322852833
 20
-23.9078113354
 30
0.0
 11
3.500000127
 21
-23.9541479441
 31
0.0
 11
3.5021712968
 21
-23.947968171
 31
0.0
 11
3.508502327
 21
-23.9379790443
 31
0.0
 11
3.5186824338
 21
-23.924463983
 31
0.0
 11
3.5322852833
 21
-23.9078113354
 31
0.0
  0
SPLINE
  5
93F
100
AcDbEntity
  8
ASSI
100
AcDbSpline
 62
7
  6
CONTINUOUS
 70
0
 71
3
 72
9
 73
5
 74
3
 42
0.0000001
 43
0.0000001
 44
0.0000000001
 12
0.0262933854
 22
0.0313572528
 32
0.0
 13
0.027068218
 23
0.0306908943
 33
0.0
 40
0.0
 40
0.0
 40
0.0
 40
0.0
 40
0.2300291213
 40
1.0
 40
1.0
 40
1.0
 40
1.0
 10
3.5322852833
 20
-23.9078113354
 30
0.0
 10
3.5343013648
 20
-23.905406975
 30
0.0
 10
3.5431123881
 20
-23.8949935931
 30
0.0
 10
3.5520758589
 20
-23.8847100445
 30
0.0
 10
3.5590231055
 20
-23.8768330129
 30
0.0
 11
3.5322852833
 21
-23.9078113354
 31
0.0
 11
3.5383630152
 21
-23.9006230827
 31
0.0
 11
3.5590231055
 21
-23.8768330129
 31
0.0
  0
SPLINE
  5
940
100
AcDbEntity
  8
ASSI
100
AcDbSpline
 62
7
  6
CONTINUOUS
 70
0
 71
3
 72
10
 73
6
 74
4
 42
0.0000001
 43
0.0000001
 44
0.0000000001
 12
0.3811707341
 22
0.4321847376
 32
0.0
 13
0.3973116828
 23
0.4173945407
 33
0.0
 40
0.0
 40
0.0
 40
0.0
 40
0.0
 40
0.2092098445
 40
0.4568476351
 40
1.0
 40
1.0
 40
1.0
 40
1.0
 10
3.5590231055
 20
-23.8768330129
 30
0.0
 10
3.5856046622
 20
-23.8466939123
 30
0.0
 10
3.6449375304
 20
-23.7820230578
 30
0.0
 10
3.7763187839
 20
-23.6418980508
 30
0.0
 10
3.8811092436
 20
-23.5319274253
 30
0.0
 10
3.9530428369
 20
-23.4563578147
 30
0.0
 11
3.5590231055
 21
-23.8768330129
 31
0.0
 11
3.6400910732
 21
-23.7876002529
 31
0.0
 11
3.7375815212
 21
-23.683389294
 31
0.0
 11
3.9530428369
 21
-23.4563578147
 31
0.0
  0
SPLINE
  5
941
100
AcDbEntity
  8
ASSI
100
AcDbSpline
 62
253
  6
CONTINUOUS
 70
0
 71
3
 72
11
 73
7
 74
5
 42
0.0000001
 43
0.0000001
 44
0.0000000001
 12
-0.0012232485
 22
0.3641908163
 32
0.0
 13
-0.3641917149
 23
0.0009174697
 33
0.0
 40
0.0
 40
0.0
 40
0.0
 40
0.0
 40
0.2331796045
 40
0.4766702451
 40
0.7337918715
 40
1.0
 40
1.0
 40
1.0
 40
1.0
 10
-7.254371707
 20
-23.8443375673
 30
0.0
 10
-7.2544667859
 20
-23.8160302771
 30
0.0
 10
-7.2683979088
 20
-23.7574871479
 30
0.0
 10
-7.3253290853
 20
-23.685828756
 30
0.0
 10
-7.4079945686
 20
-23.6388309168
 30
0.0
 10
-7.4720505446
 20
-23.627912629
 30
0.0
 10
-7.5043674762
 20
-23.6278312164
 30
0.0
 11
-7.254371707
 21
-23.8443375673
 31
0.0
 11
-7.273612764
 21
-23.7616236799
 31
0.0
 11
-7.3278502572
 21
-23.6914666905
 31
0.0
 11
-7.4088591452
 21
-23.6444947988
 31
0.0
 11
-7.5043674762
 21
-23.6278312164
 31
0.0
  0
SPLINE
  5
942
100
AcDbEntity
  8
ASSI
100
AcDbSpline
 62
7
  6
CONTINUOUS
 70
0
 71
3
 72
9
 73
5
 74
3
 42
0.0000001
 43
0.0000001
 44
0.0000000001
 12
0.0031559419
 22
3.3867309309
 32
0.0
 13
0.00543395
 23
3.386728042
 33
0.0
 40
0.0
 40
0.0
 40
0.0
 40
0.0
 40
0.2502456718
 40
1.0
 40
1.0
 40
1.0
 40
1.0
 10
9.5121051141
 20
12.5132676422
 30
0.0
 10
9.5123683677
 20
12.7957725611
 30
0.0
 10
9.5135150152
 20
13.9246827812
 30
0.0
 10
9.5150404313
 20
15.053592617
 30
0.0
 10
9.5163984738
 20
15.8999972863
 30
0.0
 11
9.5121051141
 21
12.5132676422
 31
0.0
 11
9.5129659744
 21
13.3607823299
 31
0.0
 11
9.5163984738
 21
15.8999972863
 31
0.0
  0
SPLINE
  5
943
100
AcDbEntity
  8
ASSI
100
AcDbSpline
 62
253
  6
CONTINUOUS
 70
0
 71
3
 72
11
 73
7
 74
5
 42
0.0000001
 43
0.0000001
 44
0.0000000001
 12
0.0012232485
 22
0.3641908181
 32
0.0
 13
0.3641917168
 23
0.0009174697
 33
0.0
 40
0.0
 40
0.0
 40
0.0
 40
0.0
 40
0.233179978
 40
0.4766705298
 40
0.733792102
 40
1.0
 40
1.0
 40
1.0
 40
1.0
 10
-10.145628039
 20
-23.8443375673
 30
0.0
 10
-10.14553296
 20
-23.8160302316
 30
0.0
 10
-10.1316018172
 20
-23.7574870611
 30
0.0
 10
-10.0746705709
 20
-23.6858286896
 30
0.0
 10
-9.9920051138
 20
-23.6388309047
 30
0.0
 10
-9.9279491736
 20
-23.6279126289
 30
0.0
 10
-9.8956322698
 20
-23.6278312164
 30
0.0
 11
-10.145628039
 21
-23.8443375673
 31
0.0
 11
-10.126386929
 21
-23.7616235521
 31
0.0
 11
-10.0721494105
 21
-23.6914666226
 31
0.0
 11
-9.9911405207
 21
-23.6444947725
 31
0.0
 11
-9.8956322698
 21
-23.6278312164
 31
0.0
  0
SPLINE
  5
944
100
AcDbEntity
  8
ASSI
100
AcDbSpline
 62
253
  6
CONTINUOUS
 70
0
 71
3
 72
11
 73
7
 74
5
 42
0.0000001
 43
0.0000001
 44
0.0000000001
 12
0.0012232485
 22
0.3641908163
 32
0.0
 13
0.3641917149
 23
0.0009174697
 33
0.0
 40
0.0
 40
0.0
 40
0.0
 40
0.0
 40
0.2331796045
 40
0.4766702451
 40
0.7337918715
 40
1.0
 40
1.0
 40
1.0
 40
1.0
 10
7.254371961
 20
-23.8443375673
 30
0.0
 10
7.2544670399
 20
-23.8160302771
 30
0.0
 10
7.2683981628
 20
-23.7574871479
 30
0.0
 10
7.3253293393
 20
-23.685828756
 30
0.0
 10
7.4079948226
 20
-23.6388309168
 30
0.0
 10
7.4720507986
 20
-23.627912629
 30
0.0
 10
7.5043677302
 20
-23.6278312164
 30
0.0
 11
7.254371961
 21
-23.8443375673
 31
0.0
 11
7.273613018
 21
-23.7616236799
 31
0.0
 11
7.3278505112
 21
-23.6914666905
 31
0.0
 11
7.4088593992
 21
-23.6444947988
 31
0.0
 11
7.5043677302
 21
-23.6278312164
 31
0.0
  0
SPLINE
  5
945
100
AcDbEntity
  8
ASSI
100
AcDbSpline
 62
253
  6
CONTINUOUS
 70
0
 71
3
 72
11
 73
7
 74
5
 42
0.0000001
 43
0.0000001
 44
0.0000000001
 12
-0.0012232485
 22
0.3641908181
 32
0.0
 13
-0.3641917168
 23
0.0009174697
 33
0.0
 40
0.0
 40
0.0
 40
0.0
 40
0.0
 40
0.233179978
 40
0.4766705298
 40
0.733792102
 40
1.0
 40
1.0
 40
1.0
 40
1.0
 10
10.145628293
 20
-23.8443375673
 30
0.0
 10
10.145533214
 20
-23.8160302316
 30
0.0
 10
10.1316020712
 20
-23.7574870611
 30
0.0
 10
10.0746708249
 20
-23.6858286896
 30
0.0
 10
9.9920053678
 20
-23.6388309047
 30
0.0
 10
9.9279494276
 20
-23.6279126289
 30
0.0
 10
9.8956325238
 20
-23.6278312164
 30
0.0
 11
10.145628293
 21
-23.8443375673
 31
0.0
 11
10.126387183
 21
-23.7616235521
 31
0.0
 11
10.0721496645
 21
-23.6914666226
 31
0.0
 11
9.9911407747
 21
-23.6444947725
 31
0.0
 11
9.8956325238
 21
-23.6278312164
 31
0.0
  0
SPLINE
  5
946
100
AcDbEntity
  8
ASSI
100
AcDbSpline
 62
253
  6
CONTINUOUS
 70
0
 71
3
 72
11
 73
7
 74
5
 42
0.0000001
 43
0.0000001
 44
0.0000000001
 12
0.0012232485
 22
-0.364190819
 32
0.0
 13
0.3641917177
 23
-0.0009174697
 33
0.0
 40
0.0
 40
0.0
 40
0.0
 40
0.0
 40
0.2331799492
 40
0.4766704679
 40
0.7337919896
 40
1.0
 40
1.0
 40
1.0
 40
1.0
 10
-10.145628039
 20
23.8443375673
 30
0.0
 10
-10.14553296
 20
23.8160302351
 30
0.0
 10
-10.1316018209
 20
23.7574870719
 30
0.0
 10
-10.0746705886
 20
23.6858287082
 30
0.0
 10
-9.992005137
 20
23.6388309069
 30
0.0
 10
-9.9279491873
 20
23.6279126289
 30
0.0
 10
-9.8956322698
 20
23.6278312164
 30
0.0
 11
-10.145628039
 21
23.8443375673
 31
0.0
 11
-10.1263869336
 21
23.7616235616
 31
0.0
 11
-10.0721494275
 21
23.6914666374
 31
0.0
 11
-9.9911405604
 21
23.6444947844
 31
0.0
 11
-9.8956322698
 21
23.6278312164
 31
0.0
  0
SPLINE
  5
947
100
AcDbEntity
  8
ASSI
100
AcDbSpline
 62
253
  6
CONTINUOUS
 70
0
 71
3
 72
11
 73
7
 74
5
 42
0.0000001
 43
0.0000001
 44
0.0000000001
 12
-0.0012232485
 22
-0.364190819
 32
0.0
 13
-0.3641917177
 23
-0.0009174697
 33
0.0
 40
0.0
 40
0.0
 40
0.0
 40
0.0
 40
0.2331799492
 40
0.4766704679
 40
0.7337919896
 40
1.0
 40
1.0
 40
1.0
 40
1.0
 10
-7.254371707
 20
23.8443375673
 30
0.0
 10
-7.254466786
 20
23.8160302351
 30
0.0
 10
-7.2683979251
 20
23.7574870719
 30
0.0
 10
-7.3253291574
 20
23.6858287082
 30
0.0
 10
-7.407994609
 20
23.6388309069
 30
0.0
 10
-7.4720505587
 20
23.6279126289
 30
0.0
 10
-7.5043674762
 20
23.6278312164
 30
0.0
 11
-7.254371707
 21
23.8443375673
 31
0.0
 11
-7.2736128124
 21
23.7616235616
 31
0.0
 11
-7.3278503185
 21
23.6914666374
 31
0.0
 11
-7.4088591856
 21
23.6444947844
 31
0.0
 11
-7.5043674762
 21
23.6278312164
 31
0.0
  0
SPLINE
  5
948
100
AcDbEntity
  8
ASSI
100
AcDbSpline
 62
253
  6
CONTINUOUS
 70
0
 71
3
 72
11
 73
7
 74
5
 42
0.0000001
 43
0.0000001
 44
0.0000000001
 12
0.0012232485
 22
-0.364190819
 32
0.0
 13
0.3641917177
 23
-0.0009174697
 33
0.0
 40
0.0
 40
0.0
 40
0.0
 40
0.0
 40
0.2331799492
 40
0.4766704679
 40
0.7337919896
 40
1.0
 40
1.0
 40
1.0
 40
1.0
 10
7.254371961
 20
23.8443375673
 30
0.0
 10
7.25446704
 20
23.8160302351
 30
0.0
 10
7.2683981791
 20
23.7574870719
 30
0.0
 10
7.3253294114
 20
23.6858287082
 30
0.0
 10
7.407994863
 20
23.6388309069
 30
0.0
 10
7.4720508127
 20
23.6279126289
 30
0.0
 10
7.5043677302
 20
23.6278312164
 30
0.0
 11
7.254371961
 21
23.8443375673
 31
0.0
 11
7.2736130664
 21
23.7616235616
 31
0.0
 11
7.3278505725
 21
23.6914666374
 31
0.0
 11
7.4088594396
 21
23.6444947844
 31
0.0
 11
7.5043677302
 21
23.6278312164
 31
0.0
  0
SPLINE
  5
949
100
AcDbEntity
  8
ASSI
100
AcDbSpline
 62
253
  6
CONTINUOUS
 70
0
 71
3
 72
11
 73
7
 74
5
 42
0.0000001
 43
0.0000001
 44
0.0000000001
 12
-0.0012232485
 22
-0.364190819
 32
0.0
 13
-0.3641917177
 23
-0.0009174697
 33
0.0
 40
0.0
 40
0.0
 40
0.0
 40
0.0
 40
0.2331799492
 40
0.4766704679
 40
0.7337919896
 40
1.0
 40
1.0
 40
1.0
 40
1.0
 10
10.145628293
 20
23.8443375673
 30
0.0
 10
10.145533214
 20
23.8160302351
 30
0.0
 10
10.1316020749
 20
23.7574870719
 30
0.0
 10
10.0746708426
 20
23.6858287082
 30
0.0
 10
9.992005391
 20
23.6388309069
 30
0.0
 10
9.9279494413
 20
23.6279126289
 30
0.0
 10
9.8956325238
 20
23.6278312164
 30
0.0
 11
10.145628293
 21
23.8443375673
 31
0.0
 11
10.1263871876
 21
23.7616235616
 31
0.0
 11
10.0721496815
 21
23.6914666374
 31
0.0
 11
9.9911408144
 21
23.6444947844
 31
0.0
 11
9.8956325238
 21
23.6278312164
 31
0.0
  0
SPLINE
  5
94A
100
AcDbEntity
  8
ASSI
100
AcDbSpline
 62
7
  6
CONTINUOUS
 70
0
 71
3
 72
9
 73
5
 74
3
 42
0.0000001
 43
0.0000001
 44
0.0000000001
 12
-0.3103132119
 22
0.4388491529
 32
0.0
 13
-0.2907976493
 23
0.4520172515
 33
0.0
 40
0.0
 40
0.0
 40
0.0
 40
0.0
 40
0.5094985537
 40
1.0
 40
1.0
 40
1.0
 40
1.0
 10
-7.5666455272
 20
21.3359869487
 30
0.0
 10
-7.6193469048
 20
21.4105179516
 30
0.0
 10
-7.7227831446
 20
21.5567930276
 30
0.0
 10
-7.8235983768
 20
21.7049509019
 30
0.0
 10
-7.8711439326
 20
21.7788559404
 30
0.0
 11
-7.5666455272
 21
21.3359869487
 31
0.0
 11
-7.7240677498
 21
21.5600605842
 31
0.0
 11
-7.8711439326
 21
21.7788559404
 31
0.0
  0
SPLINE
  5
94B
100
AcDbEntity
  8
ASSI
100
AcDbSpline
 62
7
  6
CONTINUOUS
 70
0
 71
3
 72
9
 73
5
 74
3
 42
0.0000001
 43
0.0000001
 44
0.0000000001
 12
-0.2907976493
 22
-0.4520172515
 32
0.0
 13
-0.3103132119
 23
-0.4388491529
 33
0.0
 40
0.0
 40
0.0
 40
0.0
 40
0.0
 40
0.4905014463
 40
1.0
 40
1.0
 40
1.0
 40
1.0
 10
7.8711441866
 20
21.7788559404
 30
0.0
 10
7.8235986308
 20
21.7049509019
 30
0.0
 10
7.7227833986
 20
21.5567930276
 30
0.0
 10
7.6193471588
 20
21.4105179516
 30
0.0
 10
7.5666457812
 20
21.3359869487
 30
0.0
 11
7.8711441866
 21
21.7788559404
 31
0.0
 11
7.7240680038
 21
21.5600605842
 31
0.0
 11
7.5666457812
 21
21.3359869487
 31
0.0
  0
SPLINE
  5
94C
100
AcDbEntity
  8
ASSI
100
AcDbSpline
 62
7
  6
CONTINUOUS
 70
0
 71
3
 72
9
 73
5
 74
3
 42
0.0000001
 43
0.0000001
 44
0.0000000001
 12
0.3103132119
 22
-0.4388491529
 32
0.0
 13
0.2907976493
 23
-0.4520172515
 33
0.0
 40
0.0
 40
0.0
 40
0.0
 40
0.0
 40
0.5094985537
 40
1.0
 40
1.0
 40
1.0
 40
1.0
 10
7.5666457812
 20
-21.3359869487
 30
0.0
 10
7.6193471588
 20
-21.4105179516
 30
0.0
 10
7.7227833986
 20
-21.5567930276
 30
0.0
 10
7.8235986308
 20
-21.7049509019
 30
0.0
 10
7.8711441866
 20
-21.7788559404
 30
0.0
 11
7.5666457812
 21
-21.3359869487
 31
0.0
 11
7.7240680038
 21
-21.5600605842
 31
0.0
 11
7.8711441866
 21
-21.7788559404
 31
0.0
  0
SPLINE
  5
94D
100
AcDbEntity
  8
ASSI
100
AcDbSpline
 62
7
  6
CONTINUOUS
 70
0
 71
3
 72
18
 73
14
 74
12
 42
0.0000001
 43
0.0000001
 44
0.0000000001
 12
0.4645022106
 22
-0.4879813387
 32
0.0
 13
0.0392554497
 23
-0.6725675433
 33
0.0
 40
0.0
 40
0.0
 40
0.0
 40
0.0
 40
0.1635959151
 40
0.3250216316
 40
0.481416346
 40
0.6294509653
 40
0.7641549652
 40
0.8243007074
 40
0.8781111991
 40
0.9240949347
 40
0.9606860915
 40
0.9863098623
 40
1.0
 40
1.0
 40
1.0
 40
1.0
 10
3.9530428369
 20
-23.4563578147
 30
0.0
 10
3.9783730583
 20
-23.4829683993
 30
0.0
 10
4.0286975851
 20
-23.5358365214
 30
0.0
 10
4.103158892
 20
-23.6142182265
 30
0.0
 10
4.1750441186
 20
-23.6902279481
 30
0.0
 10
4.2425106213
 20
-23.7621525741
 30
0.0
 10
4.2948055631
 20
-23.8186819221
 30
0.0
 10
4.3322615921
 20
-23.8600874882
 30
0.0
 10
4.3561032605
 20
-23.8869823895
 30
0.0
 10
4.3759442888
 20
-23.910232977
 30
0.0
 10
4.3914400592
 20
-23.9291722231
 30
0.0
 10
4.4009723278
 20
-23.9429036976
 30
0.0
 10
4.4058987425
 20
-23.9508230923
 30
0.0
 10
4.40607788
 20
-23.9538922731
 30
0.0
 11
3.9530428369
 21
-23.4563578147
 31
0.0
 11
4.0290201794
 21
-23.5362022471
 31
0.0
 11
4.1039072657
 21
-23.6150657942
 31
0.0
 11
4.1762801123
 21
-23.6916422859
 31
0.0
 11
4.244471811
 21
-23.7644194021
 31
0.0
 11
4.3060014074
 21
-23.8311276043
 31
0.0
 11
4.3331661989
 21
-23.8611945122
 31
0.0
 11
4.3571658394
 21
-23.888365849
 31
0.0
 11
4.3772527822
 21
-23.911951075
 31
0.0
 11
4.3926312564
 21
-23.9312181216
 31
0.0
 11
4.4024664325
 21
-23.9454055131
 31
0.0
 11
4.40607788
 21
-23.9538922731
 31
0.0
  0
SPLINE
  5
94E
100
AcDbEntity
  8
ASSI
100
AcDbSpline
 62
7
  6
CONTINUOUS
 70
0
 71
3
 72
9
 73
5
 74
3
 42
0.0000001
 43
0.0000001
 44
0.0000000001
 12
0.2907976493
 22
0.4520172515
 32
0.0
 13
0.3103132119
 23
0.4388491529
 33
0.0
 40
0.0
 40
0.0
 40
0.0
 40
0.0
 40
0.4905014463
 40
1.0
 40
1.0
 40
1.0
 40
1.0
 10
-7.8711439326
 20
-21.7788559404
 30
0.0
 10
-7.8235983768
 20
-21.7049509019
 30
0.0
 10
-7.7227831446
 20
-21.5567930276
 30
0.0
 10
-7.6193469048
 20
-21.4105179516
 30
0.0
 10
-7.5666455272
 20
-21.3359869487
 30
0.0
 11
-7.8711439326
 21
-21.7788559404
 31
0.0
 11
-7.7240677498
 21
-21.5600605842
 31
0.0
 11
-7.5666455272
 21
-21.3359869487
 31
0.0
  0
SPLINE
  5
94F
100
AcDbEntity
  8
ASSI
100
AcDbSpline
 62
7
  6
CONTINUOUS
 70
0
 71
3
 72
11
 73
7
 74
5
 42
0.0000001
 43
0.0000001
 44
0.0000000001
 12
0.4255221207
 22
-0.4470309277
 32
0.0
 13
0.3965493412
 23
-0.4729210775
 33
0.0
 40
0.0
 40
0.0
 40
0.0
 40
0.0
 40
0.2850372889
 40
0.5591808347
 40
0.8068585851
 40
1.0
 40
1.0
 40
1.0
 40
1.0
 10
-3.9530425829
 20
-23.4563578147
 30
0.0
 10
-3.9126126924
 20
-23.4988313093
 30
0.0
 10
-3.8333055405
 20
-23.5821601029
 30
0.0
 10
-3.7191367435
 20
-23.7026619877
 30
0.0
 10
-3.6188419926
 20
-23.8102290498
 30
0.0
 10
-3.5578151117
 20
-23.8773643953
 30
0.0
 10
-3.5322850781
 20
-23.9078112773
 30
0.0
 11
-3.9530425829
 21
-23.4563578147
 31
0.0
 11
-3.8318083808
 21
-23.583831076
 31
0.0
 11
-3.7155673398
 21
-23.7067736224
 31
0.0
 11
-3.6114477027
 21
-23.8186909316
 31
0.0
 11
-3.5322850781
 21
-23.9078112773
 31
0.0
  0
SPLINE
  5
950
100
AcDbEntity
  8
ASSI
100
AcDbSpline
 62
7
  6
CONTINUOUS
 70
0
 71
3
 72
11
 73
7
 74
5
 42
0.0000001
 43
0.0000001
 44
0.0000000001
 12
0.0364946646
 22
-0.0435231995
 32
0.0
 13
0.0
 23
-0.0567990267
 33
0.0
 40
0.0
 40
0.0
 40
0.0
 40
0.0
 40
0.3785683288
 40
0.6764637998
 40
0.8846795525
 40
1.0
 40
1.0
 40
1.0
 40
1.0
 10
-3.5322850781
 20
-23.9078112773
 30
0.0
 10
-3.5276798367
 20
-23.9133034456
 30
0.0
 10
-3.5195780338
 20
-23.9231826455
 30
0.0
 10
-3.5092763434
 20
-23.9365333601
 30
0.0
 10
-3.5029970532
 20
-23.9462385461
 30
0.0
 10
-3.499999873
 20
-23.951964581
 30
0.0
 10
-3.499999873
 20
-23.9541479441
 30
0.0
 11
-3.5322850781
 21
-23.9078112773
 31
0.0
 11
-3.5186822086
 21
-23.9244639465
 31
0.0
 11
-3.5085020863
 21
-23.9379790254
 31
0.0
 11
-3.5021710462
 21
-23.9479681645
 31
0.0
 11
-3.499999873
 21
-23.9541479441
 31
0.0
  0
SPLINE
  5
951
100
AcDbEntity
  8
ASSI
100
AcDbSpline
 62
7
  6
CONTINUOUS
 70
0
 71
3
 72
18
 73
14
 74
12
 42
0.0000001
 43
0.0000001
 44
0.0000000001
 12
0.0392554497
 22
0.6725675433
 32
0.0
 13
0.4645022106
 23
0.4879813387
 33
0.0
 40
0.0
 40
0.0
 40
0.0
 40
0.0
 40
0.0136901377
 40
0.0393139084
 40
0.0759050647
 40
0.1218888002
 40
0.1756992919
 40
0.2358450341
 40
0.3705490343
 40
0.5185836539
 40
0.6749783685
 40
0.8364040851
 40
1.0
 40
1.0
 40
1.0
 40
1.0
 10
-4.406077626
 20
-23.9538922731
 30
0.0
 10
-4.4058984884
 20
-23.9508230923
 30
0.0
 10
-4.4009720738
 20
-23.9429036976
 30
0.0
 10
-4.3914398053
 20
-23.9291722233
 30
0.0
 10
-4.375944035
 20
-23.9102329773
 30
0.0
 10
-4.3561030068
 20
-23.8869823898
 30
0.0
 10
-4.3322613384
 20
-23.8600874886
 30
0.0
 10
-4.2948053094
 20
-23.8186819224
 30
0.0
 10
-4.2425103675
 20
-23.7621525743
 30
0.0
 10
-4.1750438647
 20
-23.6902279482
 30
0.0
 10
-4.103158638
 20
-23.6142182264
 30
0.0
 10
-4.0286973311
 20
-23.5358365214
 30
0.0
 10
-3.9783728043
 20
-23.4829683992
 30
0.0
 10
-3.9530425829
 20
-23.4563578147
 30
0.0
 11
-4.406077626
 21
-23.9538922731
 31
0.0
 11
-4.4024661785
 21
-23.9454055131
 31
0.0
 11
-4.3926310025
 21
-23.9312181216
 31
0.0
 11
-4.3772525285
 21
-23.9119510752
 31
0.0
 11
-4.3571655857
 21
-23.8883658493
 31
0.0
 11
-4.3331659452
 21
-23.8611945125
 31
0.0
 11
-4.3060011537
 21
-23.8311276046
 31
0.0
 11
-4.2444715572
 21
-23.7644194022
 31
0.0
 11
-4.1762798583
 21
-23.691642286
 31
0.0
 11
-4.1039070116
 21
-23.6150657941
 31
0.0
 11
-4.0290199253
 21
-23.536202247
 31
0.0
 11
-3.9530425829
 21
-23.4563578147
 31
0.0
  0
SPLINE
  5
952
100
AcDbEntity
  8
0
100
AcDbSpline
 62
7
  6
CONTINUOUS
 70
0
 71
3
 72
9
 73
5
 74
3
 42
0.0000001
 43
0.0000001
 44
0.0000000001
 12
0.0031559446
 22
3.3867338376
 32
0.0
 13
0.0054339556
 23
3.3867309487
 33
0.0
 40
0.0
 40
0.0
 40
0.0
 40
0.0
 40
0.2502478317
 40
1.0
 40
1.0
 40
1.0
 40
1.0
 10
9.5121051141
 20
12.5132676422
 30
0.0
 10
9.5123683702
 20
12.7957752419
 30
0.0
 10
9.5135150105
 20
13.9246864309
 30
0.0
 10
9.5150404414
 20
15.0535972355
 30
0.0
 10
9.5163984814
 20
15.900000193
 30
0.0
 11
9.5121051141
 21
12.5132676422
 31
0.0
 11
9.5129659801
 21
13.3607903722
 31
0.0
 11
9.5163984814
 21
15.900000193
 31
0.0
  0
SPLINE
  5
953
100
AcDbEntity
  8
0
100
AcDbSpline
 62
7
  6
CONTINUOUS
 70
0
 71
3
 72
18
 73
14
 74
12
 42
0.0000001
 43
0.0000001
 44
0.0000000001
 12
0.4645026772
 22
-0.487981829
 32
0.0
 13
0.0392554892
 23
-0.6725682189
 33
0.0
 40
0.0
 40
0.0
 40
0.0
 40
0.0
 40
0.1636778156
 40
0.3250651433
 40
0.4815207483
 40
0.6295730363
 40
0.7642644103
 40
0.8244082433
 40
0.8781857762
 40
0.9241530805
 40
0.9607159207
 40
0.9863262087
 40
1.0
 40
1.0
 40
1.0
 40
1.0
 10
3.9530428369
 20
-23.4563578147
 30
0.0
 10
3.9783857648
 20
-23.482981748
 30
0.0
 10
4.0287172023
 20
-23.5358568835
 30
0.0
 10
4.1031940496
 20
-23.6142563159
 30
0.0
 10
4.1750861056
 20
-23.69027213
 30
0.0
 10
4.2425624376
 20
-23.7622080098
 30
0.0
 10
4.294855953
 20
-23.8187396632
 30
0.0
 10
4.3323062712
 20
-23.8601361882
 30
0.0
 10
4.3561379967
 20
-23.8870243334
 30
0.0
 10
4.3759697814
 20
-23.9102604857
 30
0.0
 10
4.3914505767
 20
-23.9291937475
 30
0.0
 10
4.4009848
 20
-23.9429096887
 30
0.0
 10
4.4058989562
 20
-23.9508267539
 30
0.0
 10
4.40607788
 20
-23.9538922731
 30
0.0
 11
3.9530428369
 21
-23.4563578147
 31
0.0
 11
4.029058263
 21
-23.5362423272
 31
0.0
 11
4.103927292
 21
-23.6150875061
 31
0.0
 11
4.1763285882
 21
-23.6916937007
 31
0.0
 11
4.2445278758
 21
-23.7644801561
 31
0.0
 11
4.3060508263
 21
-23.8311830401
 31
0.0
 11
4.3332149396
 21
-23.861248882
 31
0.0
 11
4.3571989306
 21
-23.888404464
 31
0.0
 11
4.377278198
 21
-23.9119817272
 31
0.0
 11
4.3926432534
 21
-23.9312351068
 31
0.0
 11
4.4024750635
 21
-23.9454138
 31
0.0
 11
4.40607788
 21
-23.9538922731
 31
0.0
  0
SPLINE
  5
954
100
AcDbEntity
  8
0
100
AcDbSpline
 62
7
  6
CONTINUOUS
 70
0
 71
3
 72
18
 73
14
 74
12
 42
0.0000001
 43
0.0000001
 44
0.0000000001
 12
0.4646710751
 22
-0.4881587388
 32
0.0
 13
0.0
 23
-0.6739570923
 33
0.0
 40
0.0
 40
0.0
 40
0.0
 40
0.0
 40
0.1641060183
 40
0.3259011307
 40
0.482718549
 40
0.6310477659
 40
0.7658671704
 40
0.8259881902
 40
0.8796624717
 40
0.9254267902
 40
0.9616703427
 40
0.9868411377
 40
1.0
 40
1.0
 40
1.0
 40
1.0
 10
-3.9530425829
 20
-23.4563578147
 30
0.0
 10
-3.9276241429
 20
-23.483061077
 30
0.0
 10
-3.8771449606
 20
-23.5360914144
 30
0.0
 10
-3.8024563003
 20
-23.6147148011
 30
0.0
 10
-3.7303780883
 20
-23.6909305519
 30
0.0
 10
-3.6627637384
 20
-23.7630215517
 30
0.0
 10
-3.6103985309
 20
-23.8196436195
 30
0.0
 10
-3.5729475047
 20
-23.861064467
 30
0.0
 10
-3.5491632306
 20
-23.8879204551
 30
0.0
 10
-3.5294478162
 20
-23.9110657267
 30
0.0
 10
-3.5140895749
 20
-23.929881626
 30
0.0
 10
-3.5048352777
 20
-23.9433593806
 30
0.0
 10
-3.499999873
 20
-23.9511917746
 30
0.0
 10
-3.499999873
 20
-23.9541479441
 30
0.0
 11
-3.9530425829
 21
-23.4563578147
 31
0.0
 11
-3.8768007413
 21
-23.5364804293
 31
0.0
 11
-3.8017159301
 21
-23.6155540595
 31
0.0
 11
-3.7291227504
 21
-23.6923670029
 31
0.0
 11
-3.6607755393
 21
-23.7653201751
 31
0.0
 11
-3.5991814598
 21
-23.8321195924
 31
0.0
 11
-3.5720264614
 21
-23.8621927437
 31
0.0
 11
-3.5480929775
 21
-23.8893176104
 31
0.0
 11
-3.5281157304
 21
-23.9128167973
 31
0.0
 11
-3.5129135426
 21
-23.9319362177
 31
0.0
 11
-3.5033106459
 21
-23.9459205978
 31
0.0
 11
-3.499999873
 21
-23.9541479441
 31
0.0
  0
SPLINE
  5
955
100
AcDbEntity
  8
0
100
AcDbSpline
 62
7
  6
CONTINUOUS
 70
0
 71
3
 72
18
 73
14
 74
12
 42
0.0000001
 43
0.0000001
 44
0.0000000001
 12
0.0392554892
 22
0.6725682189
 32
0.0
 13
0.4645026772
 23
0.4879818289
 33
0.0
 40
0.0
 40
0.0
 40
0.0
 40
0.0
 40
0.013673802
 40
0.0392841065
 40
0.0758469559
 40
0.1218142562
 40
0.1755917792
 40
0.2357356036
 40
0.3704269753
 40
0.5184792767
 40
0.6749348536
 40
0.8363221475
 40
1.0
 40
1.0
 40
1.0
 40
1.0
 10
-4.406077626
 20
-23.9538922731
 30
0.0
 10
-4.405898702
 20
-23.9508267515
 30
0.0
 10
-4.4009845413
 20
-23.9429096812
 30
0.0
 10
-4.3914503126
 20
-23.9291937343
 30
0.0
 10
-4.3759695136
 20
-23.9102604691
 30
0.0
 10
-4.3561377292
 20
-23.887024318
 30
0.0
 10
-4.3323060068
 20
-23.8601361767
 30
0.0
 10
-4.2948556916
 20
-23.8187396553
 30
0.0
 10
-4.2425621758
 20
-23.7622080014
 30
0.0
 10
-4.1750858463
 20
-23.6902721246
 30
0.0
 10
-4.1031937979
 20
-23.6142563184
 30
0.0
 10
-4.0287169545
 20
-23.5358568901
 30
0.0
 10
-3.9783855165
 20
-23.482981754
 30
0.0
 10
-3.9530425829
 20
-23.4563578147
 30
0.0
 11
-4.406077626
 21
-23.9538922731
 31
0.0
 11
-4.4024748059
 21
-23.9454137936
 31
0.0
 11
-4.3926429884
 21
-23.9312350921
 31
0.0
 11
-4.3772779284
 21
-23.9119817082
 31
0.0
 11
-4.3571986623
 21
-23.8884044476
 31
0.0
 11
-4.3332146755
 21
-23.8612488708
 31
0.0
 11
-4.3060505659
 21
-23.8311830332
 31
0.0
 11
-4.2445276165
 21
-23.7644801503
 31
0.0
 11
-4.1763283226
 21
-23.6916936885
 31
0.0
 11
-4.1039270393
 21
-23.6150875077
 31
0.0
 11
-4.0290580261
 21
-23.5362423452
 31
0.0
 11
-3.9530425829
 21
-23.4563578147
 31
0.0
  0
SPLINE
  5
956
100
AcDbEntity
  8
0
100
AcDbSpline
 62
253
  6
CONTINUOUS
 70
0
 71
3
 72
11
 73
7
 74
5
 42
0.0000001
 43
0.0000001
 44
0.0000000001
 12
-0.0012232482
 22
0.3641907442
 32
0.0
 13
-0.3641916429
 23
0.0009174695
 33
0.0
 40
0.0
 40
0.0
 40
0.0
 40
0.0
 40
0.2331622206
 40
0.4766705204
 40
0.7338116472
 40
1.0
 40
1.0
 40
1.0
 40
1.0
 10
-7.254371707
 20
-23.8443375673
 30
0.0
 10
-7.2544667788
 20
-23.8160323931
 30
0.0
 10
-7.2683966272
 20
-23.7574892617
 30
0.0
 10
-7.3253290421
 20
-23.6858281428
 30
0.0
 10
-7.4079970888
 20
-23.6388299344
 30
0.0
 10
-7.4720529517
 20
-23.6279126229
 30
0.0
 10
-7.5043674762
 20
-23.6278312164
 30
0.0
 11
-7.254371707
 21
-23.8443375673
 31
0.0
 11
-7.2736099213
 21
-23.761629536
 31
0.0
 11
-7.3278504843
 21
-23.6914668129
 31
0.0
 11
-7.4088660393
 21
-23.644492298
 31
0.0
 11
-7.5043674762
 21
-23.6278312164
 31
0.0
  0
SPLINE
  5
957
100
AcDbEntity
  8
0
100
AcDbSpline
 62
7
  6
CONTINUOUS
 70
0
 71
3
 72
18
 73
14
 74
12
 42
0.0000001
 43
0.0000001
 44
0.0000000001
 12
-0.4646710749
 22
0.4881587386
 32
0.0
 13
0.0
 23
0.673957092
 33
0.0
 40
0.0
 40
0.0
 40
0.0
 40
0.0
 40
0.1641064696
 40
0.3259015364
 40
0.4827187367
 40
0.631047858
 40
0.7658671698
 40
0.8259880963
 40
0.879662272
 40
0.9254265467
 40
0.9616701868
 40
0.9868410964
 40
1.0
 40
1.0
 40
1.0
 40
1.0
 10
3.9530428369
 20
23.4563578147
 30
0.0
 10
3.9276243271
 20
23.4830611504
 30
0.0
 10
3.877145082
 20
23.536091554
 30
0.0
 10
3.8024563935
 20
23.6147149719
 30
0.0
 10
3.7303782366
 20
23.6909306638
 30
0.0
 10
3.6627639501
 20
23.7630215978
 30
0.0
 10
3.6103987855
 20
23.819643619
 30
0.0
 10
3.5729478035
 20
23.8610644182
 30
0.0
 10
3.5491635646
 20
23.8879203646
 30
0.0
 10
3.5294481562
 20
23.9110656229
 30
0.0
 10
3.514089888
 20
23.929881547
 30
0.0
 10
3.5048355572
 20
23.9433593417
 30
0.0
 10
3.500000127
 20
23.9511917653
 30
0.0
 10
3.500000127
 20
23.9541479441
 30
0.0
 11
3.9530428369
 21
23.4563578147
 31
0.0
 11
3.8768007859
 21
23.5364806498
 31
0.0
 11
3.8017159964
 21
23.6155542583
 31
0.0
 11
3.7291229177
 21
23.6923670949
 31
0.0
 11
3.6607757512
 21
23.7653202206
 31
0.0
 11
3.5991817143
 21
23.8321195921
 31
0.0
 11
3.572026758
 21
23.8621926967
 31
0.0
 11
3.54809332
 21
23.8893175088
 31
0.0
 11
3.5281160887
 21
23.9128166704
 31
0.0
 11
3.5129138596
 21
23.9319361333
 31
0.0
 11
3.5033109139
 21
23.9459205734
 31
0.0
 11
3.500000127
 21
23.9541479441
 31
0.0
  0
SPLINE
  5
958
100
AcDbEntity
  8
0
100
AcDbSpline
 62
7
  6
CONTINUOUS
 70
0
 71
3
 72
18
 73
14
 74
12
 42
0.0000001
 43
0.0000001
 44
0.0000000001
 12
-0.0392554892
 22
-0.6725682188
 32
0.0
 13
-0.4645026771
 23
-0.4879818289
 33
0.0
 40
0.0
 40
0.0
 40
0.0
 40
0.0
 40
0.0136738202
 40
0.0392842007
 40
0.0758471061
 40
0.1218143585
 40
0.175591793
 40
0.2357355402
 40
0.3704268326
 40
0.5184790161
 40
0.6749344368
 40
0.8363217555
 40
1.0
 40
1.0
 40
1.0
 40
1.0
 10
4.40607788
 20
23.9538922731
 30
0.0
 10
4.4058989558
 20
23.9508267474
 30
0.0
 10
4.4009847807
 20
23.9429096593
 30
0.0
 10
4.3914505312
 20
23.9291936873
 30
0.0
 10
4.3759697179
 20
23.910260409
 30
0.0
 10
4.3561379432
 20
23.8870242733
 30
0.0
 10
4.3323062524
 20
23.8601361682
 30
0.0
 10
4.2948559749
 20
23.8187396869
 30
0.0
 10
4.2425625008
 20
23.7622080785
 30
0.0
 10
4.1750862269
 20
23.6902722583
 30
0.0
 10
4.1031942167
 20
23.6142564931
 30
0.0
 10
4.0287173336
 20
23.5358570217
 30
0.0
 10
3.9783858312
 20
23.4829818177
 30
0.0
 10
3.9530428369
 20
23.4563578147
 30
0.0
 11
4.40607788
 21
23.9538922731
 31
0.0
 11
4.4024750535
 21
23.945413783
 31
0.0
 11
4.3926432041
 21
23.9312350413
 31
0.0
 11
4.3772781179
 21
23.91198163
 31
0.0
 11
4.3571988708
 21
23.8884043956
 31
0.0
 11
4.333214923
 21
23.861248864
 31
0.0
 11
4.3060508486
 21
23.8311830647
 31
0.0
 11
4.2445279358
 21
23.7644802208
 31
0.0
 11
4.176328697
 21
23.6916938162
 31
0.0
 11
4.1039274863
 21
23.6150877117
 31
0.0
 11
4.029058462
 21
23.5362425367
 31
0.0
 11
3.9530428369
 21
23.4563578147
 31
0.0
  0
SPLINE
  5
959
100
AcDbEntity
  8
0
100
AcDbSpline
 62
7
  6
CONTINUOUS
 70
0
 71
3
 72
18
 73
14
 74
12
 42
0.0000001
 43
0.0000001
 44
0.0000000001
 12
-0.4645026771
 22
0.4879818288
 32
0.0
 13
-0.0392554892
 23
0.6725682188
 33
0.0
 40
0.0
 40
0.0
 40
0.0
 40
0.0
 40
0.1636782756
 40
0.3250655602
 40
0.4815209525
 40
0.6295731481
 40
0.764264436
 40
0.8244081756
 40
0.878185601
 40
0.9241528523
 40
0.9607157693
 40
0.9863261679
 40
1.0
 40
1.0
 40
1.0
 40
1.0
 10
-3.9530425829
 20
23.4563578147
 30
0.0
 10
-3.978385582
 20
23.4829818228
 30
0.0
 10
-4.0287170839
 20
23.5358570263
 30
0.0
 10
-4.1031939621
 20
23.6142564926
 30
0.0
 10
-4.1750859646
 20
23.6902722496
 30
0.0
 10
-4.2425622354
 20
23.7622080662
 30
0.0
 10
-4.2948557095
 20
23.8187396746
 30
0.0
 10
-4.332305984
 20
23.8601361523
 30
0.0
 10
-4.3561376724
 20
23.8870242542
 30
0.0
 10
-4.3759694477
 20
23.9102603897
 30
0.0
 10
-4.391450266
 20
23.9291936724
 30
0.0
 10
-4.4009845213
 20
23.9429096511
 30
0.0
 10
-4.4058987016
 20
23.9508267448
 30
0.0
 10
-4.406077626
 20
23.9538922731
 30
0.0
 11
-3.9530425829
 21
23.4563578147
 31
0.0
 11
-4.0290582224
 21
23.5362425519
 31
0.0
 11
-4.1039272308
 21
23.6150877103
 31
0.0
 11
-4.1763284285
 21
23.6916938008
 31
0.0
 11
-4.2445276729
 21
23.7644802112
 31
0.0
 11
-4.3060505838
 21
23.8311830528
 31
0.0
 11
-4.3332146548
 21
23.8612488482
 31
0.0
 11
-4.3571985989
 21
23.888404375
 31
0.0
 11
-4.3772778461
 21
23.9119816084
 31
0.0
 11
-4.392642938
 21
23.9312350251
 31
0.0
 11
-4.4024747955
 21
23.945413776
 31
0.0
 11
-4.406077626
 21
23.9538922731
 31
0.0
  0
SPLINE
  5
95A
100
AcDbEntity
  8
0
100
AcDbSpline
 62
7
  6
CONTINUOUS
 70
0
 71
3
 72
11
 73
7
 74
5
 42
0.0000001
 43
0.0000001
 44
0.0000000001
 12
0.0
 22
-0.0555100291
 32
0.0
 13
-0.0356139129
 23
-0.042579485
 33
0.0
 40
0.0
 40
0.0
 40
0.0
 40
0.0
 40
0.1156591226
 40
0.3239639327
 40
0.6215751135
 40
1.0
 40
1.0
 40
1.0
 40
1.0
 10
-3.499999873
 20
23.9541479441
 30
0.0
 10
-3.499999873
 20
23.9520078637
 30
0.0
 10
-3.5028955784
 20
23.9463921241
 30
0.0
 10
-3.5090292966
 20
23.9368947473
 30
0.0
 10
-3.519061792
 20
23.9238319605
 30
0.0
 10
-3.5269634974
 20
23.9141724083
 30
0.0
 10
-3.5314558944
 20
23.9088013627
 30
0.0
 11
-3.499999873
 21
23.9541479441
 31
0.0
 11
-3.5021058657
 21
23.9480829385
 31
0.0
 11
-3.5082746608
 21
23.9383029039
 31
0.0
 11
-3.5181900216
 21
23.9250889185
 31
0.0
 11
-3.5314558944
 21
23.9088013627
 31
0.0
  0
SPLINE
  5
95B
100
AcDbEntity
  8
0
100
AcDbSpline
 62
7
  6
CONTINUOUS
 70
0
 71
3
 72
9
 73
5
 74
3
 42
0.0000001
 43
0.0000001
 44
0.0000000001
 12
-0.0277682565
 22
-0.0331993304
 32
0.0
 13
-0.0286417499
 23
-0.032448756
 33
0.0
 40
0.0
 40
0.0
 40
0.0
 40
0.0
 40
0.2288016571
 40
1.0
 40
1.0
 40
1.0
 40
1.0
 10
-3.5314558944
 20
23.9088013627
 30
0.0
 10
-3.5335737021
 20
23.9062693421
 30
0.0
 10
-3.542883748
 20
23.8952480241
 30
0.0
 10
-3.5523667623
 20
23.8843738879
 30
0.0
 10
-3.5597295857
 20
23.8760324123
 30
0.0
 11
-3.5314558944
 21
23.9088013627
 31
0.0
 11
-3.5378430649
 21
23.9012336554
 31
0.0
 11
-3.5597295857
 21
23.8760324123
 31
0.0
  0
SPLINE
  5
95C
100
AcDbEntity
  8
0
100
AcDbSpline
 62
7
  6
CONTINUOUS
 70
0
 71
3
 72
9
 73
5
 74
3
 42
0.0000001
 43
0.0000001
 44
0.0000000001
 12
-0.3806330178
 22
-0.4312260246
 32
0.0
 13
-0.3965707484
 23
-0.4166161544
 33
0.0
 40
0.0
 40
0.0
 40
0.0
 40
0.0
 40
0.4571269999
 40
1.0
 40
1.0
 40
1.0
 40
1.0
 10
-3.5597295857
 20
23.8760324123
 30
0.0
 10
-3.6177287955
 20
23.8103240594
 30
0.0
 10
-3.7492761564
 20
23.6707706782
 30
0.0
 10
-3.8812800656
 20
23.5317477019
 30
0.0
 10
-3.9530425829
 20
23.4563578147
 30
0.0
 11
-3.5597295857
 21
23.8760324123
 31
0.0
 11
-3.738091899
 21
23.6828476585
 31
0.0
 11
-3.9530425829
 21
23.4563578147
 31
0.0
  0
SPLINE
  5
95D
100
AcDbEntity
  8
0
100
AcDbSpline
 62
253
  6
CONTINUOUS
 70
0
 71
3
 72
11
 73
7
 74
5
 42
0.0000001
 43
0.0000001
 44
0.0000000001
 12
0.0012232482
 22
0.3641907438
 32
0.0
 13
0.3641916425
 23
0.0009174695
 33
0.0
 40
0.0
 40
0.0
 40
0.0
 40
0.0
 40
0.2331623162
 40
0.4766706026
 40
0.7338117062
 40
1.0
 40
1.0
 40
1.0
 40
1.0
 10
-10.145628039
 20
-23.8443375673
 30
0.0
 10
-10.1455329672
 20
-23.8160323815
 30
0.0
 10
-10.1316031083
 20
-23.7574892401
 30
0.0
 10
-10.0746706804
 20
-23.685828124
 30
0.0
 10
-9.9920026396
 20
-23.6388299294
 30
0.0
 10
-9.9279467871
 20
-23.6279126229
 30
0.0
 10
-9.8956322698
 20
-23.6278312164
 30
0.0
 11
-10.145628039
 21
-23.8443375673
 31
0.0
 11
-10.1263898082
 21
-23.7616295042
 31
0.0
 11
-10.0721492384
 21
-23.6914667926
 31
0.0
 11
-9.9911336862
 21
-23.6444922901
 31
0.0
 11
-9.8956322698
 21
-23.6278312164
 31
0.0
  0
SPLINE
  5
95E
100
AcDbEntity
  8
0
100
AcDbSpline
 62
253
  6
CONTINUOUS
 70
0
 71
3
 72
11
 73
7
 74
5
 42
0.0000001
 43
0.0000001
 44
0.0000000001
 12
0.0012232482
 22
0.3641907442
 32
0.0
 13
0.3641916429
 23
0.0009174695
 33
0.0
 40
0.0
 40
0.0
 40
0.0
 40
0.0
 40
0.2331622206
 40
0.4766705204
 40
0.7338116472
 40
1.0
 40
1.0
 40
1.0
 40
1.0
 10
7.254371961
 20
-23.8443375673
 30
0.0
 10
7.2544670328
 20
-23.8160323931
 30
0.0
 10
7.2683968812
 20
-23.7574892617
 30
0.0
 10
7.3253292961
 20
-23.6858281428
 30
0.0
 10
7.4079973428
 20
-23.6388299344
 30
0.0
 10
7.4720532057
 20
-23.6279126229
 30
0.0
 10
7.5043677302
 20
-23.6278312164
 30
0.0
 11
7.254371961
 21
-23.8443375673
 31
0.0
 11
7.2736101753
 21
-23.761629536
 31
0.0
 11
7.3278507383
 21
-23.6914668129
 31
0.0
 11
7.4088662933
 21
-23.644492298
 31
0.0
 11
7.5043677302
 21
-23.6278312164
 31
0.0
  0
SPLINE
  5
95F
100
AcDbEntity
  8
0
100
AcDbSpline
 62
7
  6
CONTINUOUS
 70
0
 71
3
 72
11
 73
7
 74
5
 42
0.0000001
 43
0.0000001
 44
0.0000000001
 12
0.0
 22
0.0554281801
 32
0.0
 13
0.0355579742
 23
0.0425195675
 33
0.0
 40
0.0
 40
0.0
 40
0.0
 40
0.0
 40
0.1156875281
 40
0.3239917492
 40
0.6215880112
 40
1.0
 40
1.0
 40
1.0
 40
1.0
 10
3.500000127
 20
-23.9541479441
 30
0.0
 10
3.500000127
 20
-23.9520104944
 30
0.0
 10
3.5028900063
 20
-23.9464019837
 30
0.0
 10
3.509013773
 20
-23.9369173851
 30
0.0
 10
3.5190294514
 20
-23.9238731449
 30
0.0
 10
3.5269183903
 20
-23.9142275253
 30
0.0
 10
3.5314035782
 20
-23.9088642206
 30
0.0
 11
3.500000127
 21
-23.9541479441
 31
0.0
 11
3.5021024096
 21
-23.9480900047
 31
0.0
 11
3.5082605206
 21
-23.9383234277
 31
0.0
 11
3.5181591955
 21
-23.92512841
 31
0.0
 11
3.5314035782
 21
-23.9088642206
 31
0.0
  0
SPLINE
  5
960
100
AcDbEntity
  8
0
100
AcDbSpline
 62
7
  6
CONTINUOUS
 70
0
 71
3
 72
9
 73
5
 74
3
 42
0.0000001
 43
0.0000001
 44
0.0000000001
 12
0.0277911113
 22
0.0332320966
 32
0.0
 13
0.0286675519
 23
0.0324790637
 33
0.0
 40
0.0
 40
0.0
 40
0.0
 40
0.0
 40
0.2287588549
 40
1.0
 40
1.0
 40
1.0
 40
1.0
 10
3.5314035782
 20
-23.9088642206
 30
0.0
 10
3.5335227325
 20
-23.9063301751
 30
0.0
 10
3.5428406151
 20
-23.8952981103
 30
0.0
 10
3.5523320856
 20
-23.8844137387
 30
0.0
 10
3.5597019508
 20
-23.8760640086
 30
0.0
 11
3.5314035782
 21
-23.9088642206
 31
0.0
 11
3.5377949128
 21
-23.901290539
 31
0.0
 11
3.5597019508
 21
-23.8760640086
 31
0.0
  0
SPLINE
  5
961
100
AcDbEntity
  8
0
100
AcDbSpline
 62
7
  6
CONTINUOUS
 70
0
 71
3
 72
9
 73
5
 74
3
 42
0.0000001
 43
0.0000001
 44
0.0000000001
 12
0.3806538121
 22
0.4312638709
 32
0.0
 13
0.396599799
 23
0.4166466734
 33
0.0
 40
0.0
 40
0.0
 40
0.0
 40
0.0
 40
0.4571145814
 40
1.0
 40
1.0
 40
1.0
 40
1.0
 10
3.5597019508
 20
-23.8760640086
 30
0.0
 10
3.6177027535
 20
-23.810351674
 30
0.0
 10
3.7492600368
 20
-23.6707882655
 30
0.0
 10
3.881273421
 20
-23.5317549493
 30
0.0
 10
3.9530428369
 20
-23.4563578147
 30
0.0
 11
3.5597019508
 21
-23.8760640086
 31
0.0
 11
3.7380715625
 21
-23.6828695006
 31
0.0
 11
3.9530428369
 21
-23.4563578147
 31
0.0
  0
SPLINE
  5
962
100
AcDbEntity
  8
0
100
AcDbSpline
 62
253
  6
CONTINUOUS
 70
0
 71
3
 72
11
 73
7
 74
5
 42
0.0000001
 43
0.0000001
 44
0.0000000001
 12
-0.0012232482
 22
0.3641907438
 32
0.0
 13
-0.3641916425
 23
0.0009174695
 33
0.0
 40
0.0
 40
0.0
 40
0.0
 40
0.0
 40
0.2331623162
 40
0.4766706026
 40
0.7338117062
 40
1.0
 40
1.0
 40
1.0
 40
1.0
 10
10.145628293
 20
-23.8443375673
 30
0.0
 10
10.1455332212
 20
-23.8160323815
 30
0.0
 10
10.1316033623
 20
-23.7574892401
 30
0.0
 10
10.0746709344
 20
-23.685828124
 30
0.0
 10
9.9920028936
 20
-23.6388299294
 30
0.0
 10
9.9279470411
 20
-23.6279126229
 30
0.0
 10
9.8956325238
 20
-23.6278312164
 30
0.0
 11
10.145628293
 21
-23.8443375673
 31
0.0
 11
10.1263900622
 21
-23.7616295042
 31
0.0
 11
10.0721494924
 21
-23.6914667926
 31
0.0
 11
9.9911339402
 21
-23.6444922901
 31
0.0
 11
9.8956325238
 21
-23.6278312164
 31
0.0
  0
SPLINE
  5
963
100
AcDbEntity
  8
0
100
AcDbSpline
 62
253
  6
CONTINUOUS
 70
0
 71
3
 72
11
 73
7
 74
5
 42
0.0000001
 43
0.0000001
 44
0.0000000001
 12
0.0012232482
 22
-0.3641907438
 32
0.0
 13
0.3641916425
 23
-0.0009174695
 33
0.0
 40
0.0
 40
0.0
 40
0.0
 40
0.0
 40
0.2331623084
 40
0.476670585
 40
0.7338116789
 40
1.0
 40
1.0
 40
1.0
 40
1.0
 10
-10.145628039
 20
23.8443375673
 30
0.0
 10
-10.1455329672
 20
23.8160323825
 30
0.0
 10
-10.1316031095
 20
23.7574892432
 30
0.0
 10
-10.0746706853
 20
23.6858281285
 30
0.0
 10
-9.9920026452
 20
23.6388299314
 30
0.0
 10
-9.9279467904
 20
23.6279126229
 30
0.0
 10
-9.8956322698
 20
23.6278312164
 30
0.0
 11
-10.145628039
 21
23.8443375673
 31
0.0
 11
-10.1263898096
 21
23.7616295068
 31
0.0
 11
-10.0721492434
 21
23.6914667969
 31
0.0
 11
-9.9911336956
 21
23.6444922937
 31
0.0
 11
-9.8956322698
 21
23.6278312164
 31
0.0
  0
SPLINE
  5
964
100
AcDbEntity
  8
0
100
AcDbSpline
 62
253
  6
CONTINUOUS
 70
0
 71
3
 72
11
 73
7
 74
5
 42
0.0000001
 43
0.0000001
 44
0.0000000001
 12
-0.0012232482
 22
-0.3641907438
 32
0.0
 13
-0.3641916425
 23
-0.0009174695
 33
0.0
 40
0.0
 40
0.0
 40
0.0
 40
0.0
 40
0.2331623084
 40
0.476670585
 40
0.7338116789
 40
1.0
 40
1.0
 40
1.0
 40
1.0
 10
-7.254371707
 20
23.8443375673
 30
0.0
 10
-7.2544667788
 20
23.8160323825
 30
0.0
 10
-7.2683966365
 20
23.7574892432
 30
0.0
 10
-7.3253290607
 20
23.6858281285
 30
0.0
 10
-7.4079971008
 20
23.6388299314
 30
0.0
 10
-7.4720529556
 20
23.6279126229
 30
0.0
 10
-7.5043674762
 20
23.6278312164
 30
0.0
 11
-7.254371707
 21
23.8443375673
 31
0.0
 11
-7.2736099364
 21
23.7616295068
 31
0.0
 11
-7.3278505026
 21
23.6914667969
 31
0.0
 11
-7.4088660504
 21
23.6444922937
 31
0.0
 11
-7.5043674762
 21
23.6278312164
 31
0.0
  0
SPLINE
  5
965
100
AcDbEntity
  8
0
100
AcDbSpline
 62
253
  6
CONTINUOUS
 70
0
 71
3
 72
11
 73
7
 74
5
 42
0.0000001
 43
0.0000001
 44
0.0000000001
 12
0.0012232482
 22
-0.3641907438
 32
0.0
 13
0.3641916425
 23
-0.0009174695
 33
0.0
 40
0.0
 40
0.0
 40
0.0
 40
0.0
 40
0.2331623084
 40
0.476670585
 40
0.7338116789
 40
1.0
 40
1.0
 40
1.0
 40
1.0
 10
7.254371961
 20
23.8443375673
 30
0.0
 10
7.2544670328
 20
23.8160323825
 30
0.0
 10
7.2683968905
 20
23.7574892432
 30
0.0
 10
7.3253293147
 20
23.6858281285
 30
0.0
 10
7.4079973548
 20
23.6388299314
 30
0.0
 10
7.4720532096
 20
23.6279126229
 30
0.0
 10
7.5043677302
 20
23.6278312164
 30
0.0
 11
7.254371961
 21
23.8443375673
 31
0.0
 11
7.2736101904
 21
23.7616295068
 31
0.0
 11
7.3278507566
 21
23.6914667969
 31
0.0
 11
7.4088663044
 21
23.6444922937
 31
0.0
 11
7.5043677302
 21
23.6278312164
 31
0.0
  0
SPLINE
  5
966
100
AcDbEntity
  8
0
100
AcDbSpline
 62
253
  6
CONTINUOUS
 70
0
 71
3
 72
11
 73
7
 74
5
 42
0.0000001
 43
0.0000001
 44
0.0000000001
 12
-0.0012232482
 22
-0.3641907438
 32
0.0
 13
-0.3641916425
 23
-0.0009174695
 33
0.0
 40
0.0
 40
0.0
 40
0.0
 40
0.0
 40
0.2331623084
 40
0.476670585
 40
0.7338116789
 40
1.0
 40
1.0
 40
1.0
 40
1.0
 10
10.145628293
 20
23.8443375673
 30
0.0
 10
10.1455332212
 20
23.8160323825
 30
0.0
 10
10.1316033635
 20
23.7574892432
 30
0.0
 10
10.0746709393
 20
23.6858281285
 30
0.0
 10
9.9920028992
 20
23.6388299314
 30
0.0
 10
9.9279470444
 20
23.6279126229
 30
0.0
 10
9.8956325238
 20
23.6278312164
 30
0.0
 11
10.145628293
 21
23.8443375673
 31
0.0
 11
10.1263900636
 21
23.7616295068
 31
0.0
 11
10.0721494974
 21
23.6914667969
 31
0.0
 11
9.9911339496
 21
23.6444922937
 31
0.0
 11
9.8956325238
 21
23.6278312164
 31
0.0
  0
SPLINE
  5
967
100
AcDbEntity
  8
0
100
AcDbSpline
 62
7
  6
CONTINUOUS
 70
0
 71
3
 72
9
 73
5
 74
3
 42
0.0000001
 43
0.0000001
 44
0.0000000001
 12
0.2907990714
 22
0.452019462
 32
0.0
 13
0.3103147295
 23
0.438851299
 33
0.0
 40
0.0
 40
0.0
 40
0.0
 40
0.0
 40
0.2415199464
 40
1.0
 40
1.0
 40
1.0
 40
1.0
 10
-7.8711439326
 20
-21.7788559404
 30
0.0
 10
-7.8477326739
 20
-21.7424653683
 30
0.0
 10
-7.7487584129
 20
-21.5931046295
 30
0.0
 10
-7.6451013714
 20
-21.4469402676
 30
0.0
 10
-7.5666455272
 20
-21.3359869487
 30
0.0
 11
-7.8711439326
 21
-21.7788559404
 31
0.0
 11
-7.7996510021
 21
-21.6705046238
 31
0.0
 11
-7.5666455272
 21
-21.3359869487
 31
0.0
  0
SPLINE
  5
968
100
AcDbEntity
  8
0
100
AcDbSpline
 62
7
  6
CONTINUOUS
 70
0
 71
3
 72
9
 73
5
 74
3
 42
0.0000001
 43
0.0000001
 44
0.0000000001
 12
-0.3103049581
 22
0.4388374803
 32
0.0
 13
-0.2907899146
 23
0.4520052286
 33
0.0
 40
0.0
 40
0.0
 40
0.0
 40
0.0
 40
0.2558503823
 40
1.0
 40
1.0
 40
1.0
 40
1.0
 10
-7.5666455272
 20
21.3359869487
 30
0.0
 10
-7.593109408
 20
21.3734125277
 30
0.0
 10
-7.6964894272
 20
21.5197162838
 30
0.0
 10
-7.7990135314
 20
21.666736101
 30
0.0
 10
-7.8711439326
 20
21.7788559404
 30
0.0
 11
-7.5666455272
 21
21.3359869487
 31
0.0
 11
-7.6459530151
 21
21.4483231445
 31
0.0
 11
-7.8711439326
 21
21.7788559404
 31
0.0
  0
SPLINE
  5
969
100
AcDbEntity
  8
0
100
AcDbSpline
 62
7
  6
CONTINUOUS
 70
0
 71
3
 72
9
 73
5
 74
3
 42
0.0000001
 43
0.0000001
 44
0.0000000001
 12
-0.2907990714
 22
-0.452019462
 32
0.0
 13
-0.3103147295
 23
-0.438851299
 33
0.0
 40
0.0
 40
0.0
 40
0.0
 40
0.0
 40
0.2415199464
 40
1.0
 40
1.0
 40
1.0
 40
1.0
 10
7.8711441866
 20
21.7788559404
 30
0.0
 10
7.8477329279
 20
21.7424653683
 30
0.0
 10
7.7487586669
 20
21.5931046295
 30
0.0
 10
7.6451016254
 20
21.4469402676
 30
0.0
 10
7.5666457812
 20
21.3359869487
 30
0.0
 11
7.8711441866
 21
21.7788559404
 31
0.0
 11
7.7996512561
 21
21.6705046238
 31
0.0
 11
7.5666457812
 21
21.3359869487
 31
0.0
  0
SPLINE
  5
96A
100
AcDbEntity
  8
0
100
AcDbSpline
 62
7
  6
CONTINUOUS
 70
0
 71
3
 72
9
 73
5
 74
3
 42
0.0000001
 43
0.0000001
 44
0.0000000001
 12
0.3103049581
 22
-0.4388374803
 32
0.0
 13
0.2907899146
 23
-0.4520052286
 33
0.0
 40
0.0
 40
0.0
 40
0.0
 40
0.0
 40
0.2558503823
 40
1.0
 40
1.0
 40
1.0
 40
1.0
 10
7.5666457812
 20
-21.3359869487
 30
0.0
 10
7.593109662
 20
-21.3734125277
 30
0.0
 10
7.6964896812
 20
-21.5197162838
 30
0.0
 10
7.7990137854
 20
-21.666736101
 30
0.0
 10
7.8711441866
 20
-21.7788559404
 30
0.0
 11
7.5666457812
 21
-21.3359869487
 31
0.0
 11
7.6459532691
 21
-21.4483231445
 31
0.0
 11
7.8711441866
 21
-21.7788559404
 31
0.0
  0
LINE
  5
96B
100
AcDbEntity
  8
CURVE
100
AcDbLine
 62
253
  6
CONTINUOUS
 10
11.0678348547
 20
4.9565418369
 11
11.0541369741
 21
4.7496410148
  0
SPLINE
  5
96C
100
AcDbEntity
  8
CURVE
100
AcDbSpline
 62
253
  6
CONTINUOUS
 70
0
 71
3
 72
16
 73
12
 74
10
 42
0.0000001
 43
0.0000001
 44
0.0000000001
 12
-0.0043273597
 22
-0.6217285849
 32
0.0
 13
-0.0141985893
 23
-0.2216138674
 33
0.0
 40
0.0
 40
0.0
 40
0.0
 40
0.0
 40
0.1111111111
 40
0.2222222222
 40
0.3333333333
 40
0.4444444444
 40
0.5555555556
 40
0.6666666667
 40
0.7777777778
 40
0.8888888889
 40
1.0
 40
1.0
 40
1.0
 40
1.0
 10
11.0777629704
 20
5.30544429
 30
0.0
 10
11.0776026978
 20
5.2824173054
 30
0.0
 10
11.077197526
 20
5.2393482959
 30
0.0
 10
11.0763524442
 20
5.1816522403
 30
0.0
 10
11.0753705967
 20
5.1335210226
 30
0.0
 10
11.0742915408
 20
5.0927768273
 30
0.0
 10
11.0731754748
 20
5.0589912272
 30
0.0
 10
11.0719984692
 20
5.0296357284
 30
0.0
 10
11.0707411942
 20
5.0035593846
 30
0.0
 10
11.0693733155
 20
4.9801088876
 30
0.0
 10
11.0683607284
 20
4.9647497583
 30
0.0
 10
11.0678348547
 20
4.9565418373
 30
0.0
 11
11.0777629704
 21
5.30544429
 31
0.0
 11
11.077157972
 21
5.240499539
 31
0.0
 11
11.0763296499
 21
5.1832463799
 31
0.0
 11
11.0753543953
 21
5.134752193
 31
0.0
 11
11.0742853725
 21
5.0939365932
 31
0.0
 11
11.0731653182
 21
5.0597295774
 31
0.0
 11
11.0719850909
 21
5.0301822542
 31
0.0
 11
11.0707227602
 21
5.0039970257
 31
0.0
 11
11.0693481485
 21
4.9801775214
 31
0.0
 11
11.0678348547
 21
4.9565418373
 31
0.0
  0
SPLINE
  5
96D
100
AcDbEntity
  8
CURVE
100
AcDbSpline
 62
253
  6
CONTINUOUS
 70
0
 71
3
 72
34
 73
30
 74
28
 42
0.0000001
 43
0.0000001
 44
0.0000000001
 12
-0.0149450571
 22
-2.3733703801
 32
0.0
 13
-0.0017040253
 23
0.7565824497
 33
0.0
 40
0.0
 40
0.0
 40
0.0
 40
0.0
 40
0.0294117647
 40
0.0588235294
 40
0.0882352941
 40
0.1176470588
 40
0.1470588235
 40
0.1764705882
 40
0.2058823529
 40
0.2352941176
 40
0.2647058824
 40
0.2941176471
 40
0.3529411765
 40
0.4117647059
 40
0.4705882353
 40
0.5294117647
 40
0.5882352941
 40
0.6470588235
 40
0.7058823529
 40
0.7647058824
 40
0.7941176471
 40
0.8235294118
 40
0.8529411765
 40
0.8676470588
 40
0.8823529412
 40
0.8970588235
 40
0.9117647059
 40
0.9411764706
 40
1.0
 40
1.0
 40
1.0
 40
1.0
 10
11.103626392
 20
5.3678501192
 30
0.0
 10
11.1034798719
 20
5.3445817822
 30
0.0
 10
11.1031191915
 20
5.299132296
 30
0.0
 10
11.1023904452
 20
5.2317492981
 30
0.0
 10
11.1014644786
 20
5.16325043
 30
0.0
 10
11.1003796653
 20
5.0996747177
 30
0.0
 10
11.0991648072
 20
5.0434623532
 30
0.0
 10
11.0978472842
 20
4.9957695654
 30
0.0
 10
11.0964727812
 20
4.9577389269
 30
0.0
 10
11.0950759962
 20
4.9297192883
 30
0.0
 10
11.093761981
 20
4.91154486
 30
0.0
 10
11.0920660471
 20
4.896876869
 30
0.0
 10
11.0901383784
 20
4.8926308407
 30
0.0
 10
11.0880405737
 20
4.9034036932
 30
0.0
 10
11.0861868222
 20
4.9271604282
 30
0.0
 10
11.0845716113
 20
4.9602159611
 30
0.0
 10
11.0831812163
 20
4.9993305314
 30
0.0
 10
11.0819926794
 20
5.0424268704
 30
0.0
 10
11.080995978
 20
5.0880466717
 30
0.0
 10
11.0803050007
 20
5.1266090112
 30
0.0
 10
11.0798134332
 20
5.1567140822
 30
0.0
 10
11.0794705894
 20
5.1788415882
 30
0.0
 10
11.0792048754
 20
5.1966848844
 30
0.0
 10
11.0790018963
 20
5.2106269766
 30
0.0
 10
11.078852782
 20
5.2209785182
 30
0.0
 10
11.0787074307
 20
5.2312838076
 30
0.0
 10
11.0785241481
 20
5.2450165288
 30
0.0
 10
11.0782422968
 20
5.2690450063
 30
0.0
 10
11.0780954651
 20
5.29060934
 30
0.0
 10
11.0780620529
 20
5.30544429
 30
0.0
 11
11.103626392
 21
5.3678501192
 31
0.0
 11
11.1030879039
 21
5.2992641679
 31
0.0
 11
11.1023575752
 21
5.2315633197
 31
0.0
 11
11.1014380042
 21
5.164070956
 31
0.0
 11
11.1003579912
 21
5.1009019423
 31
0.0
 11
11.0991476964
 21
5.0448822826
 31
0.0
 11
11.0978377875
 21
4.9973799236
 31
0.0
 11
11.0964690675
 21
4.9594074269
 31
0.0
 11
11.0950897911
 21
4.9313601567
 31
0.0
 11
11.0937689918
 21
4.9127404325
 31
0.0
 11
11.0925028472
 21
4.9014831308
 31
0.0
 11
11.090174278
 21
4.8952755218
 31
0.0
 11
11.0880812492
 21
4.9055676736
 31
0.0
 11
11.086226579
 21
4.9287102279
 31
0.0
 11
11.0846090806
 21
4.9612258007
 31
0.0
 11
11.0832148593
 21
4.9999941595
 31
0.0
 11
11.082024652
 21
5.0428474474
 31
0.0
 11
11.0810238994
 21
5.0881558394
 31
0.0
 11
11.08018721
 21
5.1340732122
 31
0.0
 11
11.0798177385
 21
5.156638866
 31
0.0
 11
11.0794745873
 21
5.1787223298
 31
0.0
 11
11.07915493
 21
5.2001426954
 31
0.0
 11
11.0790024163
 21
5.210609472
 31
0.0
 11
11.0788534092
 21
5.2209708095
 31
0.0
 11
11.0787087456
 21
5.2312828495
 31
0.0
 11
11.0785718208
 21
5.2415831683
 31
0.0
 11
11.0783333541
 21
5.2622873377
 31
0.0
 11
11.0780620529
 21
5.30544429
 31
0.0
  0
SPLINE
  5
96E
100
AcDbEntity
  8
CURVE
100
AcDbSpline
 62
253
  6
CONTINUOUS
 70
0
 71
3
 72
15
 73
11
 74
9
 42
0.0000001
 43
0.0000001
 44
0.0000000001
 12
0.0045437073
 22
-1.7693996452
 32
0.0
 13
-0.008582614
 23
-1.3609984754
 33
0.0
 40
0.0
 40
0.0
 40
0.0
 40
0.0
 40
0.125
 40
0.25
 40
0.375
 40
0.5
 40
0.625
 40
0.75
 40
0.875
 40
1.0
 40
1.0
 40
1.0
 40
1.0
 10
11.104159275
 20
6.8615673444
 30
0.0
 10
11.1043485961
 20
6.7878423591
 30
0.0
 10
11.1046890257
 20
6.6449573895
 30
0.0
 10
11.1050597666
 20
6.4459362111
 30
0.0
 10
11.1052895787
 20
6.2567360832
 30
0.0
 10
11.1053715666
 20
6.0743022441
 30
0.0
 10
11.1052908972
 20
5.8946811593
 30
0.0
 10
11.1050351131
 20
5.7167329802
 30
0.0
 10
11.1045438282
 20
5.5399680174
 30
0.0
 10
11.1039840009
 20
5.424558389
 30
0.0
 10
11.103626392
 20
5.3678501192
 30
0.0
 11
11.104159275
 21
6.8615673444
 31
0.0
 11
11.1046657085
 21
6.6475084355
 31
0.0
 11
11.1050362785
 21
6.4475730528
 31
0.0
 11
11.1052649413
 21
6.257863798
 31
0.0
 11
11.1053444571
 21
6.0747710365
 31
0.0
 11
11.1052617114
 21
5.8949599769
 31
0.0
 11
11.104995863
 21
5.7169301829
 31
0.0
 11
11.1044857522
 21
5.5405764374
 31
0.0
 11
11.103626392
 21
5.3678501192
 31
0.0
  0
SPLINE
  5
96F
100
AcDbEntity
  8
CURVE
100
AcDbSpline
 62
253
  6
CONTINUOUS
 70
0
 71
3
 72
14
 73
10
 74
8
 42
0.0000001
 43
0.0000001
 44
0.0000000001
 12
0.0090878627
 22
0.1957270596
 32
0.0
 13
0.0
 23
0.4570367353
 33
0.0
 40
0.0
 40
0.0
 40
0.0
 40
0.0
 40
0.25
 40
0.375
 40
0.5
 40
0.625
 40
0.75
 40
0.875
 40
1.0
 40
1.0
 40
1.0
 40
1.0
 10
11.069488934
 20
5.5966034314
 30
0.0
 10
11.0702462559
 20
5.6129140197
 30
0.0
 10
11.0712185574
 20
5.6445097166
 30
0.0
 10
11.0722297012
 20
5.6939831221
 30
0.0
 10
11.0728509367
 20
5.7344916061
 30
0.0
 10
11.0733386398
 20
5.7786641722
 30
0.0
 10
11.0736819587
 20
5.8265255892
 30
0.0
 10
11.07389509
 20
5.879010941
 30
0.0
 10
11.0739443554
 20
5.91515613
 30
0.0
 10
11.0739443554
 20
5.9341993273
 30
0.0
 11
11.069488934
 21
5.5966034314
 31
0.0
 11
11.0714475718
 21
5.6574902188
 31
0.0
 11
11.0722068475
 21
5.6945503604
 31
0.0
 11
11.0728286813
 21
5.7351022865
 31
0.0
 11
11.0733145757
 21
5.7792789807
 31
0.0
 11
11.0736602607
 21
5.827296245
 31
0.0
 11
11.0738718845
 21
5.8792996796
 31
0.0
 11
11.0739443554
 21
5.9341993273
 31
0.0
  0
SPLINE
  5
970
100
AcDbEntity
  8
CURVE
100
AcDbSpline
 62
253
  6
CONTINUOUS
 70
0
 71
3
 72
12
 73
8
 74
6
 42
0.0000001
 43
0.0000001
 44
0.0000000001
 12
0.0165717516
 22
0.272954878
 32
0.0
 13
0.013874926
 23
0.2986760245
 33
0.0
 40
0.0
 40
0.0
 40
0.0
 40
0.0
 40
0.1666666667
 40
0.3333333333
 40
0.5
 40
0.6666666667
 40
1.0
 40
1.0
 40
1.0
 40
1.0
 10
11.0541369741
 20
5.3318417383
 30
0.0
 10
11.055057627
 20
5.3470058982
 30
0.0
 10
11.0568752398
 20
5.3774894908
 30
0.0
 10
11.0595348005
 20
5.4224032442
 30
0.0
 10
11.0621374972
 20
5.464933961
 30
0.0
 10
11.065524119
 20
5.5196255413
 30
0.0
 10
11.0679451518
 20
5.5633715194
 30
0.0
 10
11.0694868102
 20
5.5965577443
 30
0.0
 11
11.0541369741
 21
5.3318417383
 31
0.0
 11
11.0568640967
 21
5.3773542182
 31
0.0
 11
11.0595253232
 21
5.4220060714
 31
0.0
 11
11.0621270422
 21
5.4646819557
 31
0.0
 11
11.0646642487
 21
5.5062556787
 31
0.0
 11
11.0694868102
 21
5.5965577443
 31
0.0
  0
SPLINE
  5
971
100
AcDbEntity
  8
CURVE
100
AcDbSpline
 62
253
  6
CONTINUOUS
 70
0
 71
3
 72
15
 73
11
 74
9
 42
0.0000001
 43
0.0000001
 44
0.0000000001
 12
0.0095092835
 22
0.0085207271
 32
0.0
 13
0.001169342
 23
0.5772030334
 33
0.0
 40
0.0
 40
0.0
 40
0.0
 40
0.0
 40
0.125
 40
0.25
 40
0.375
 40
0.5
 40
0.625
 40
0.75
 40
0.875
 40
1.0
 40
1.0
 40
1.0
 40
1.0
 10
11.0900989833
 20
5.4627200261
 30
0.0
 10
11.0904952035
 20
5.4630750564
 30
0.0
 10
11.0912719866
 20
5.4681903829
 30
0.0
 10
11.0924061585
 20
5.487699595
 30
0.0
 10
11.0934630034
 20
5.5183155907
 30
0.0
 10
11.0944015072
 20
5.5593434451
 30
0.0
 10
11.0951771626
 20
5.6105284399
 30
0.0
 10
11.0957807735
 20
5.6694268011
 30
0.0
 10
11.0962111625
 20
5.734252503
 30
0.0
 10
11.0963773283
 20
5.7805909333
 30
0.0
 10
11.0964260508
 20
5.8046410597
 30
0.0
 11
11.0900989833
 21
5.4627200261
 31
0.0
 11
11.0912668195
 21
5.4701630867
 31
0.0
 11
11.0923932707
 21
5.4895507256
 31
0.0
 11
11.0934432799
 21
5.5200509005
 31
0.0
 11
11.0943743658
 21
5.5610363018
 31
0.0
 11
11.0951484885
 21
5.611814001
 31
0.0
 11
11.0957519032
 21
5.6704146912
 31
0.0
 11
11.0961809725
 21
5.7350328269
 31
0.0
 11
11.0964260508
 21
5.8046410597
 31
0.0
  0
SPLINE
  5
972
100
AcDbEntity
  8
CURVE
100
AcDbSpline
 62
253
  6
CONTINUOUS
 70
0
 71
3
 72
19
 73
15
 74
13
 42
0.0000001
 43
0.0000001
 44
0.0000000001
 12
0.0003019562
 22
-0.7745016342
 32
0.0
 13
0.0129728157
 23
0.0114679899
 33
0.0
 40
0.0
 40
0.0
 40
0.0
 40
0.0
 40
0.125
 40
0.25
 40
0.375
 40
0.4375
 40
0.5
 40
0.5625
 40
0.625
 40
0.6875
 40
0.75
 40
0.8125
 40
0.875
 40
1.0
 40
1.0
 40
1.0
 40
1.0
 10
11.082233646
 20
5.9328946758
 30
0.0
 10
11.0822462275
 20
5.9006237743
 30
0.0
 10
11.0823314454
 20
5.8372576832
 30
0.0
 10
11.082665424
 20
5.7454899438
 30
0.0
 10
11.0831705963
 20
5.6724948725
 30
0.0
 10
11.0837352273
 20
5.6198097817
 30
0.0
 10
11.0842445848
 20
5.5839631266
 30
0.0
 10
11.0848330099
 20
5.5524018662
 30
0.0
 10
11.0854862042
 20
5.5253280659
 30
0.0
 10
11.0861923313
 20
5.5030623431
 30
0.0
 10
11.0869407192
 20
5.4860918575
 30
0.0
 10
11.0877088862
 20
5.4742613315
 30
0.0
 10
11.0887625083
 20
5.4641840105
 30
0.0
 10
11.0895584494
 20
5.4622421932
 30
0.0
 10
11.0900989833
 20
5.4627200261
 30
0.0
 11
11.082233646
 21
5.9328946758
 31
0.0
 11
11.082365804
 21
5.8378045828
 31
0.0
 11
11.0827107954
 21
5.7461855528
 31
0.0
 11
11.0833251285
 21
5.6597995136
 31
0.0
 11
11.0837495414
 21
5.6204209755
 31
0.0
 11
11.0842577628
 21
5.584677359
 31
0.0
 11
11.0848438047
 21
5.5531497762
 31
0.0
 11
11.0854950263
 21
5.5261294121
 31
0.0
 11
11.0861993748
 21
5.5039448826
 31
0.0
 11
11.0869440157
 21
5.4869485174
 31
0.0
 11
11.0877125611
 21
5.4749734207
 31
0.0
 11
11.0884997388
 21
5.46732736
 31
0.0
 11
11.0900989833
 21
5.4627200261
 31
0.0
  0
SPLINE
  5
973
100
AcDbEntity
  8
CURVE
100
AcDbSpline
 62
7
  6
CONTINUOUS
 70
0
 71
3
 72
9
 73
5
 74
3
 42
0.0000001
 43
0.0000001
 44
0.0000000001
 12
-0.0153058037
 22
-0.7468061142
 32
0.0
 13
0.0
 23
-1.1518909321
 33
0.0
 40
0.0
 40
0.0
 40
0.0
 40
0.0
 40
0.4999424868
 40
1.0
 40
1.0
 40
1.0
 40
1.0
 10
11.060703538
 20
-10.7246185849
 30
0.0
 10
11.0581528642
 20
-10.8490719536
 30
0.0
 10
11.0540724986
 20
-11.174920788
 30
0.0
 10
11.052915933
 20
-11.5645963952
 30
0.0
 10
11.052915933
 20
-11.7566003002
 30
0.0
 11
11.060703538
 21
-10.7246185849
 31
0.0
 11
11.0548037498
 21
-11.1908363293
 31
0.0
 11
11.052915933
 21
-11.7566003002
 31
0.0
  0
SPLINE
  5
974
100
AcDbEntity
  8
CURVE
100
AcDbSpline
 62
7
  6
CONTINUOUS
 70
0
 71
3
 72
9
 73
5
 74
3
 42
0.0000001
 43
0.0000001
 44
0.0000000001
 12
0.0
 22
-1.1517571284
 32
0.0
 13
0.0153049149
 23
-0.746659532
 33
0.0
 40
0.0
 40
0.0
 40
0.0
 40
0.0
 40
0.5000576434
 40
1.0
 40
1.0
 40
1.0
 40
1.0
 10
11.052915933
 20
-11.7566003002
 30
0.0
 10
11.052915933
 20
-11.948581952
 30
0.0
 10
11.0540722482
 20
-12.3382212405
 30
0.0
 10
11.0581530129
 20
-12.6639996485
 30
0.0
 10
11.060703538
 20
-12.7884285572
 30
0.0
 11
11.052915933
 21
-11.7566003002
 31
0.0
 11
11.0548036625
 21
-12.3222972593
 31
0.0
 11
11.060703538
 21
-12.7884285572
 31
0.0
  0
SPLINE
  5
975
100
AcDbEntity
  8
CURVE
100
AcDbSpline
 62
7
  6
CONTINUOUS
 70
0
 71
3
 72
9
 73
5
 74
3
 42
0.0000001
 43
0.0000001
 44
0.0000000001
 12
0.0151368023
 22
-0.7384580574
 32
0.0
 13
0.0198801404
 23
0.0
 33
0.0
 40
0.0
 40
0.0
 40
0.0
 40
0.0
 40
0.7499778839
 40
1.0
 40
1.0
 40
1.0
 40
1.0
 10
11.060703538
 20
-12.7884285572
 30
0.0
 10
11.064487627
 20
-12.9730376276
 30
0.0
 10
11.0710841836
 20
-13.1207928882
 30
0.0
 10
11.0776802491
 20
-13.1507078752
 30
0.0
 10
11.079337074
 20
-13.1507078752
 30
0.0
 11
11.060703538
 21
-12.7884285572
 31
0.0
 11
11.0743818939
 21
-13.1283827383
 31
0.0
 11
11.079337074
 21
-13.1507078752
 31
0.0
  0
SPLINE
  5
976
100
AcDbEntity
  8
CURVE
100
AcDbSpline
 62
7
  6
CONTINUOUS
 70
0
 71
3
 72
9
 73
5
 74
3
 42
0.0000001
 43
0.0000001
 44
0.0000000001
 12
0.019912147
 22
0.0
 32
0.0
 13
0.0151606292
 23
0.7396835099
 33
0.0
 40
0.0
 40
0.0
 40
0.0
 40
0.0
 40
0.750054758
 40
1.0
 40
1.0
 40
1.0
 40
1.0
 10
11.079337074
 20
-13.1507078752
 30
0.0
 10
11.0843154742
 20
-13.1507078752
 30
0.0
 10
11.0911456568
 20
-13.0616694123
 30
0.0
 10
11.0967075902
 20
-12.8500553485
 30
0.0
 10
11.0979706993
 20
-12.7884285572
 30
0.0
 11
11.079337074
 21
-13.1507078752
 31
0.0
 11
11.0938480018
 21
-12.9481815859
 31
0.0
 11
11.0979706993
 21
-12.7884285572
 31
0.0
  0
SPLINE
  5
977
100
AcDbEntity
  8
CURVE
100
AcDbSpline
 62
7
  6
CONTINUOUS
 70
0
 71
3
 72
9
 73
5
 74
3
 42
0.0000001
 43
0.0000001
 44
0.0000000001
 12
0.0153043231
 22
0.746694301
 32
0.0
 13
0.0
 23
1.1517538486
 33
0.0
 40
0.0
 40
0.0
 40
0.0
 40
0.0
 40
0.4999423617
 40
1.0
 40
1.0
 40
1.0
 40
1.0
 10
11.0979706993
 20
-12.7884285572
 30
0.0
 10
11.1005211258
 20
-12.6639938531
 30
0.0
 10
11.1046019055
 20
-12.3382210796
 30
0.0
 10
11.105758215
 20
-11.9485814034
 30
0.0
 10
11.105758215
 20
-11.7566003002
 30
0.0
 11
11.0979706993
 21
-12.7884285572
 31
0.0
 11
11.1038704861
 21
-12.3222955888
 31
0.0
 11
11.105758215
 21
-11.7566003002
 31
0.0
  0
SPLINE
  5
978
100
AcDbEntity
  8
CURVE
100
AcDbSpline
 62
7
  6
CONTINUOUS
 70
0
 71
3
 72
9
 73
5
 74
3
 42
0.0000001
 43
0.0000001
 44
0.0000000001
 12
0.0
 22
1.1518927052
 32
0.0
 13
-0.0153064231
 23
0.7467671714
 33
0.0
 40
0.0
 40
0.0
 40
0.0
 40
0.0
 40
0.5000575813
 40
1.0
 40
1.0
 40
1.0
 40
1.0
 10
11.105758215
 20
-11.7566003002
 30
0.0
 10
11.105758215
 20
-11.5645960735
 30
0.0
 10
11.1046019259
 20
-11.174918261
 30
0.0
 10
11.100521476
 20
-10.8490654469
 30
0.0
 10
11.0979706993
 20
-10.7246185849
 30
0.0
 11
11.105758215
 21
-11.7566003002
 31
0.0
 11
11.1038705842
 21
-11.1908333096
 31
0.0
 11
11.0979706993
 21
-10.7246185849
 31
0.0
  0
SPLINE
  5
979
100
AcDbEntity
  8
CURVE
100
AcDbSpline
 62
7
  6
CONTINUOUS
 70
0
 71
3
 72
9
 73
5
 74
3
 42
0.0000001
 43
0.0000001
 44
0.0000000001
 12
-0.0151363035
 22
0.7385080985
 32
0.0
 13
-0.0198803268
 23
0.0
 33
0.0
 40
0.0
 40
0.0
 40
0.0
 40
0.0
 40
0.7499778947
 40
1.0
 40
1.0
 40
1.0
 40
1.0
 10
11.0979706993
 20
-10.7246185849
 30
0.0
 10
11.0941867349
 20
-10.539997002
 30
0.0
 10
11.0875900263
 20
-10.3922411511
 30
0.0
 10
11.0809939144
 20
-10.3623239211
 30
0.0
 10
11.079337074
 20
-10.3623239211
 30
0.0
 11
11.0979706993
 21
-10.7246185849
 31
0.0
 11
11.0842922993
 21
-10.384650075
 31
0.0
 11
11.079337074
 21
-10.3623239211
 31
0.0
  0
SPLINE
  5
97A
100
AcDbEntity
  8
CURVE
100
AcDbSpline
 62
7
  6
CONTINUOUS
 70
0
 71
3
 72
9
 73
5
 74
3
 42
0.0000001
 43
0.0000001
 44
0.0000000001
 12
-0.0199121426
 22
0.0
 32
0.0
 13
-0.0151602881
 23
-0.7397060674
 33
0.0
 40
0.0
 40
0.0
 40
0.0
 40
0.0
 40
0.7500547609
 40
1.0
 40
1.0
 40
1.0
 40
1.0
 10
11.079337074
 20
-10.3623239211
 30
0.0
 10
11.0743586749
 20
-10.3623239211
 30
0.0
 10
11.0675285539
 20
-10.4513763062
 30
0.0
 10
11.0619666186
 20
-10.662989915
 30
0.0
 10
11.060703538
 20
-10.7246185849
 30
0.0
 11
11.079337074
 21
-10.3623239211
 31
0.0
 11
11.064826204
 21
-10.564863008
 31
0.0
 11
11.060703538
 21
-10.7246185849
 31
0.0
  0
SPLINE
  5
97B
100
AcDbEntity
  8
CURVE
100
AcDbSpline
 62
7
  6
CONTINUOUS
 70
0
 71
3
 72
8
 73
4
 74
2
 42
0.0000001
 43
0.0000001
 44
0.0000000001
 12
-0.0083522649
 22
0.4385102618
 32
0.0
 13
0.0
 23
0.6490948727
 33
0.0
 40
0.0
 40
0.0
 40
0.0
 40
0.0
 40
1.0
 40
1.0
 40
1.0
 40
1.0
 10
11.0652482267
 20
-12.3579267794
 30
0.0
 10
11.0624641384
 20
-12.2117566921
 30
0.0
 10
11.0609253499
 20
-11.9743156911
 30
0.0
 10
11.0609253499
 20
-11.7579507336
 30
0.0
 11
11.0652482267
 21
-12.3579267794
 31
0.0
 11
11.0609253499
 21
-11.7579507336
 31
0.0
  0
SPLINE
  5
97C
100
AcDbEntity
  8
CURVE
100
AcDbSpline
 62
7
  6
CONTINUOUS
 70
0
 71
3
 72
8
 73
4
 74
2
 42
0.0000001
 43
0.0000001
 44
0.0000000001
 12
0.0
 22
0.651743576
 32
0.0
 13
0.0083868107
 23
0.4402706656
 33
0.0
 40
0.0
 40
0.0
 40
0.0
 40
0.0
 40
1.0
 40
1.0
 40
1.0
 40
1.0
 10
11.0609253499
 20
-11.7579507336
 30
0.0
 10
11.0609253499
 20
-11.5407028749
 30
0.0
 10
11.0624526231
 20
-11.3018670207
 30
0.0
 10
11.0652482267
 20
-11.1551101322
 30
0.0
 11
11.0609253499
 21
-11.7579507336
 31
0.0
 11
11.0652482267
 21
-11.1551101322
 31
0.0
  0
SPLINE
  5
97D
100
AcDbEntity
  8
CURVE
100
AcDbSpline
 62
7
  6
CONTINUOUS
 70
0
 71
3
 72
9
 73
5
 74
3
 42
0.0000001
 43
0.0000001
 44
0.0000000001
 12
0.0110756524
 22
0.5814230277
 32
0.0
 13
0.0150211975
 23
0.0
 33
0.0
 40
0.0
 40
0.0
 40
0.0
 40
0.0
 40
0.7499573136
 40
1.0
 40
1.0
 40
1.0
 40
1.0
 10
11.0652482267
 20
-11.1551101322
 30
0.0
 10
11.0680169822
 20
-11.0097626482
 30
0.0
 10
11.0731065732
 20
-10.9029716844
 30
0.0
 10
11.0780801845
 20
-10.8833098474
 30
0.0
 10
11.0793321647
 20
-10.8833098474
 30
0.0
 11
11.0652482267
 21
-11.1551101322
 31
0.0
 11
11.075585703
 21
-10.8985898747
 31
0.0
 11
11.0793321647
 21
-10.8833098474
 31
0.0
  0
SPLINE
  5
97E
100
AcDbEntity
  8
CURVE
100
AcDbSpline
 62
7
  6
CONTINUOUS
 70
0
 71
3
 72
9
 73
5
 74
3
 42
0.0000001
 43
0.0000001
 44
0.0000000001
 12
0.0150666641
 22
0.0
 32
0.0
 13
0.0111086872
 23
-0.5832135014
 33
0.0
 40
0.0
 40
0.0
 40
0.0
 40
0.0
 40
0.7501681644
 40
1.0
 40
1.0
 40
1.0
 40
1.0
 10
11.0793321647
 20
-10.8833098474
 30
0.0
 10
11.0830996753
 20
-10.8833098474
 30
0.0
 10
11.0883061163
 20
-10.9425121049
 30
0.0
 10
11.0924912692
 20
-11.106541699
 30
0.0
 10
11.0934163705
 20
-11.1551101322
 30
0.0
 11
11.0793321647
 21
-10.8833098474
 31
0.0
 11
11.0903363557
 21
-11.0311249672
 31
0.0
 11
11.0934163705
 21
-11.1551101322
 31
0.0
  0
SPLINE
  5
97F
100
AcDbEntity
  8
CURVE
100
AcDbSpline
 62
7
  6
CONTINUOUS
 70
0
 71
3
 72
8
 73
4
 74
2
 42
0.0000001
 43
0.0000001
 44
0.0000000001
 12
0.0083866923
 22
-0.4402780709
 32
0.0
 13
0.0
 23
-0.651743576
 33
0.0
 40
0.0
 40
0.0
 40
0.0
 40
0.0
 40
1.0
 40
1.0
 40
1.0
 40
1.0
 10
11.0934163705
 20
-11.1551101322
 30
0.0
 10
11.0962119346
 20
-11.3018694891
 30
0.0
 10
11.0977392473
 20
-11.5407028749
 30
0.0
 10
11.0977392473
 20
-11.7579507336
 30
0.0
 11
11.0934163705
 21
-11.1551101322
 31
0.0
 11
11.0977392473
 21
-11.7579507336
 31
0.0
  0
SPLINE
  5
980
100
AcDbEntity
  8
CURVE
100
AcDbSpline
 62
7
  6
CONTINUOUS
 70
0
 71
3
 72
8
 73
4
 74
2
 42
0.0000001
 43
0.0000001
 44
0.0000000001
 12
0.0
 22
-0.6490948727
 32
0.0
 13
-0.0083523917
 23
-0.4385023289
 33
0.0
 40
0.0
 40
0.0
 40
0.0
 40
0.0
 40
1.0
 40
1.0
 40
1.0
 40
1.0
 10
11.0977392473
 20
-11.7579507336
 30
0.0
 10
11.0977392473
 20
-11.9743156911
 30
0.0
 10
11.0962005011
 20
-12.2117593364
 30
0.0
 10
11.0934163705
 20
-12.3579267794
 30
0.0
 11
11.0977392473
 21
-11.7579507336
 31
0.0
 11
11.0934163705
 21
-12.3579267794
 31
0.0
  0
SPLINE
  5
981
100
AcDbEntity
  8
CURVE
100
AcDbSpline
 62
7
  6
CONTINUOUS
 70
0
 71
3
 72
9
 73
5
 74
3
 42
0.0000001
 43
0.0000001
 44
0.0000000001
 12
-0.011075379
 22
-0.5814597384
 32
0.0
 13
-0.0150214287
 23
0.0
 33
0.0
 40
0.0
 40
0.0
 40
0.0
 40
0.0
 40
0.7499573393
 40
1.0
 40
1.0
 40
1.0
 40
1.0
 10
11.0934163705
 20
-12.3579267794
 30
0.0
 10
11.0906476832
 20
-12.5032834455
 30
0.0
 10
11.085557835
 20
-12.6100652632
 30
0.0
 10
11.080584164
 20
-12.6297219488
 30
0.0
 10
11.0793321647
 20
-12.6297219488
 30
0.0
 11
11.0934163705
 21
-12.3579267794
 31
0.0
 11
11.0830786874
 21
-12.6144447496
 31
0.0
 11
11.0793321647
 21
-12.6297219488
 31
0.0
  0
SPLINE
  5
982
100
AcDbEntity
  8
CURVE
100
AcDbSpline
 62
7
  6
CONTINUOUS
 70
0
 71
3
 72
9
 73
5
 74
3
 42
0.0000001
 43
0.0000001
 44
0.0000000001
 12
-0.0150663779
 22
0.0
 32
0.0
 13
-0.0111083516
 23
0.5832102119
 33
0.0
 40
0.0
 40
0.0
 40
0.0
 40
0.0
 40
0.7501681637
 40
1.0
 40
1.0
 40
1.0
 40
1.0
 10
11.0793321647
 20
-12.6297219488
 30
0.0
 10
11.0755647257
 20
-12.6297219488
 30
0.0
 10
11.0703583993
 20
-12.5705197887
 30
0.0
 10
11.0661733
 20
-12.4064949388
 30
0.0
 10
11.0652482267
 20
-12.3579267794
 30
0.0
 11
11.0793321647
 21
-12.6297219488
 31
0.0
 11
11.0683281829
 21
-12.4819095903
 31
0.0
 11
11.0652482267
 21
-12.3579267794
 31
0.0
  0
ELLIPSE
  5
983
100
AcDbEntity
  8
0
100
AcDbEllipse
 62
7
  6
CONTINUOUS
 10
9.2578723351
 20
-18.321072763
 30
0.0
 11
-0.3827517265
 21
0.924044409
 31
0.0
 40
0.9998215708
 41
-3.5342286494
 42
-2.7489566578
  0
ELLIPSE
  5
984
100
AcDbEntity
  8
0
100
AcDbEllipse
 62
7
  6
CONTINUOUS
 10
8.6853907438
 20
-17.4791253675
 30
0.0
 11
-1.8480888181
 21
0.7655034529
 31
0.0
 40
0.9998215708
 41
9.032141965
 42
9.8174139566
  0
ELLIPSE
  5
985
100
AcDbEntity
  8
ASSI
100
AcDbEllipse
 62
7
  6
CONTINUOUS
 10
2.500000127
 20
-22.3586934083
 30
0.0
 11
1.0
 21
-0.0
 31
0.0
 40
0.0058178298
 41
6.2831853072
 42
7.3303828584
  0
ELLIPSE
  5
986
100
AcDbEntity
  8
ASSI
100
AcDbEllipse
 62
7
  6
CONTINUOUS
 10
2.500000127
 20
22.3586934083
 30
0.0
 11
1.0
 21
-0.0
 31
0.0
 40
0.0058178298
 41
-1.0471975512
 42
-0.0537738501
  0
ELLIPSE
  5
987
100
AcDbEntity
  8
ASSI
100
AcDbEllipse
 62
7
  6
CONTINUOUS
 10
-2.499999873
 20
-22.3586934083
 30
0.0
 11
1.0
 21
-0.0
 31
0.0
 40
0.0058178298
 41
8.3775804096
 42
9.4247779608
  0
ELLIPSE
  5
988
100
AcDbEntity
  8
ASSI
100
AcDbEllipse
 62
7
  6
CONTINUOUS
 10
-2.499999873
 20
22.3586934083
 30
0.0
 11
1.0
 21
-0.0
 31
0.0
 40
0.0058178298
 41
-3.0878188035
 42
-2.0943951024
  0
ELLIPSE
  5
989
100
AcDbEntity
  8
ASSI
100
AcDbEllipse
 62
7
  6
CONTINUOUS
 10
3.9530428369
 20
22.3560930869
 30
0.0
 11
0.4530427099
 21
-0.0
 31
0.0
 40
0.0058178298
 41
-3.1415926536
 42
-0.0058177642
  0
ELLIPSE
  5
98A
100
AcDbEntity
  8
ASSI
100
AcDbEllipse
 62
7
  6
CONTINUOUS
 10
-7.5000041039
 20
-23.4113248654
 30
0.0
 11
0.0029088041
 21
0.2886641433
 31
0.0
 40
0.8660144118
 41
-1.5591610446
 42
0.0087264124
  0
ELLIPSE
  5
98B
100
AcDbEntity
  8
ASSI
100
AcDbEllipse
 62
7
  6
CONTINUOUS
 10
1.200000127
 20
23.7941787855
 30
0.0
 11
0.0
 21
0.2000033847
 31
0.0
 40
0.9999830769
 41
6.2831853072
 42
7.853981634
  0
ELLIPSE
  5
98C
100
AcDbEntity
  8
ASSI
100
AcDbEllipse
 62
7
  6
CONTINUOUS
 10
-1.199999873
 20
-23.7941787855
 30
0.0
 11
-0.0
 21
-0.2000033847
 31
0.0
 40
0.9999830769
 41
6.2831853072
 42
7.853981634
  0
ELLIPSE
  5
98D
100
AcDbEntity
  8
ASSI
100
AcDbEllipse
 62
7
  6
CONTINUOUS
 10
1.200000127
 20
-23.7941787855
 30
0.0
 11
0.0
 21
0.2000033847
 31
0.0
 40
0.9999830769
 41
7.853981634
 42
9.4247779608
  0
ELLIPSE
  5
98E
100
AcDbEntity
  8
ASSI
100
AcDbEllipse
 62
7
  6
CONTINUOUS
 10
-9.8999956421
 20
-23.4113248654
 30
0.0
 11
-0.0029088041
 21
0.2886641433
 31
0.0
 40
0.8660144118
 41
-0.0087264124
 42
1.5591610446
  0
ELLIPSE
  5
98F
100
AcDbEntity
  8
ASSI
100
AcDbEllipse
 62
7
  6
CONTINUOUS
 10
7.5000043579
 20
-23.4113248654
 30
0.0
 11
-0.0029088041
 21
0.2886641433
 31
0.0
 40
0.8660144118
 41
-0.0087264124
 42
1.5591610446
  0
ELLIPSE
  5
990
100
AcDbEntity
  8
ASSI
100
AcDbEllipse
 62
7
  6
CONTINUOUS
 10
9.8999958961
 20
-23.4113248654
 30
0.0
 11
0.0029088041
 21
0.2886641433
 31
0.0
 40
0.8660144118
 41
-1.5591610446
 42
0.0087264124
  0
ELLIPSE
  5
991
100
AcDbEntity
  8
ASSI
100
AcDbEllipse
 62
7
  6
CONTINUOUS
 10
-10.6416903094
 20
-21.8941737085
 30
0.0
 11
0.4160498344
 21
0.2773626446
 31
0.0
 40
0.9999450019
 41
2.5536219432
 42
4.1243675013
  0
ELLIPSE
  5
992
100
AcDbEntity
  8
ASSI
100
AcDbEllipse
 62
7
  6
CONTINUOUS
 10
-9.8999956421
 20
23.4113248654
 30
0.0
 11
0.0029088041
 21
0.2886641433
 31
0.0
 40
0.8660144118
 41
-4.7007536982
 42
-3.1328662412
  0
ELLIPSE
  5
993
100
AcDbEntity
  8
ASSI
100
AcDbEllipse
 62
7
  6
CONTINUOUS
 10
-7.5000041039
 20
23.4113248654
 30
0.0
 11
-0.0029088041
 21
0.2886641433
 31
0.0
 40
0.8660144118
 41
-3.150319066
 42
-1.582431609
  0
ELLIPSE
  5
994
100
AcDbEntity
  8
ASSI
100
AcDbEllipse
 62
7
  6
CONTINUOUS
 10
7.5000043579
 20
23.4113248654
 30
0.0
 11
0.0029088041
 21
0.2886641433
 31
0.0
 40
0.8660144118
 41
-4.7007536982
 42
-3.1328662412
  0
ELLIPSE
  5
995
100
AcDbEntity
  8
ASSI
100
AcDbEllipse
 62
7
  6
CONTINUOUS
 10
3.9530428369
 20
-22.3560930869
 30
0.0
 11
0.4530427099
 21
0.0
 31
0.0
 40
0.0058178298
 41
0.0058177642
 42
3.1415926536
  0
ELLIPSE
  5
996
100
AcDbEntity
  8
ASSI
100
AcDbEllipse
 62
7
  6
CONTINUOUS
 10
-10.6416903094
 20
21.8941737085
 30
0.0
 11
-0.4160498344
 21
0.2773626446
 31
0.0
 40
0.9999450019
 41
-0.9827748477
 42
0.5879707104
  0
ELLIPSE
  5
997
100
AcDbEntity
  8
ASSI
100
AcDbEllipse
 62
7
  6
CONTINUOUS
 10
-3.9530425829
 20
-22.3560930869
 30
0.0
 11
0.4530427099
 21
0.0
 31
0.0
 40
0.0058178298
 41
-0.0
 42
3.1357748894
  0
ELLIPSE
  5
998
100
AcDbEntity
  8
ASSI
100
AcDbEllipse
 62
7
  6
CONTINUOUS
 10
10.6416905634
 20
-21.8941737085
 30
0.0
 11
0.4160498344
 21
-0.2773626446
 31
0.0
 40
0.9999450019
 41
-0.9827748477
 42
0.5879707104
  0
ELLIPSE
  5
999
100
AcDbEntity
  8
ASSI
100
AcDbEllipse
 62
7
  6
CONTINUOUS
 10
-3.9530425829
 20
22.3560930869
 30
0.0
 11
0.4530427099
 21
0.0
 31
0.0
 40
0.0058178298
 41
-3.1357748894
 42
-0.0
  0
ELLIPSE
  5
99A
100
AcDbEntity
  8
ASSI
100
AcDbEllipse
 62
7
  6
CONTINUOUS
 10
-1.199999873
 20
23.7941787855
 30
0.0
 11
-0.0
 21
-0.2000033847
 31
0.0
 40
0.9999830769
 41
7.853981634
 42
9.4247779608
  0
ELLIPSE
  5
99B
100
AcDbEntity
  8
ASSI
100
AcDbEllipse
 62
7
  6
CONTINUOUS
 10
10.6416905634
 20
21.8941737085
 30
0.0
 11
-0.4160498344
 21
-0.2773626446
 31
0.0
 40
0.9999450019
 41
2.5536219432
 42
4.1243675013
  0
ELLIPSE
  5
99C
100
AcDbEntity
  8
ASSI
100
AcDbEllipse
 62
7
  6
CONTINUOUS
 10
9.8999958961
 20
23.4113248654
 30
0.0
 11
-0.0029088041
 21
0.2886641433
 31
0.0
 40
0.8660144118
 41
-3.150319066
 42
-1.582431609
  0
ELLIPSE
  5
99D
100
AcDbEntity
  8
0
100
AcDbEllipse
 62
7
  6
CONTINUOUS
 10
2.500000127
 20
-22.3586934083
 30
0.0
 11
1.0
 21
-0.0
 31
0.0
 40
0.0058178298
 41
6.3369591573
 42
7.3303828584
  0
ELLIPSE
  5
99E
100
AcDbEntity
  8
0
100
AcDbEllipse
 62
7
  6
CONTINUOUS
 10
2.500000127
 20
22.3586934083
 30
0.0
 11
1.0
 21
-0.0
 31
0.0
 40
0.0058178298
 41
-1.0471975512
 42
-0.0
  0
ELLIPSE
  5
99F
100
AcDbEntity
  8
0
100
AcDbEllipse
 62
7
  6
CONTINUOUS
 10
-2.499999873
 20
-22.3586934083
 30
0.0
 11
1.0
 21
-0.0
 31
0.0
 40
0.0058178298
 41
8.3775804096
 42
9.3710041106
  0
ELLIPSE
  5
9A0
100
AcDbEntity
  8
0
100
AcDbEllipse
 62
7
  6
CONTINUOUS
 10
-2.499999873
 20
22.3586934083
 30
0.0
 11
1.0
 21
0.0
 31
0.0
 40
0.0058178298
 41
-3.1415926536
 42
-2.0943951024
  0
ELLIPSE
  5
9A1
100
AcDbEntity
  8
0
100
AcDbEllipse
 62
7
  6
CONTINUOUS
 10
-10.6416903094
 20
21.8941737085
 30
0.0
 11
-0.4160498344
 21
0.2773626446
 31
0.0
 40
0.9999450019
 41
-0.9827748477
 42
0.5879707104
  0
ELLIPSE
  5
9A2
100
AcDbEntity
  8
0
100
AcDbEllipse
 62
7
  6
CONTINUOUS
 10
10.6416905634
 20
-21.8941737085
 30
0.0
 11
0.4160498344
 21
-0.2773626446
 31
0.0
 40
0.9999450019
 41
-0.9827748477
 42
0.5879707104
  0
ELLIPSE
  5
9A3
100
AcDbEntity
  8
0
100
AcDbEllipse
 62
7
  6
CONTINUOUS
 10
10.6416905634
 20
21.8941737085
 30
0.0
 11
-0.4160498344
 21
-0.2773626446
 31
0.0
 40
0.9999450019
 41
2.5536219432
 42
4.1243675013
  0
ELLIPSE
  5
9A4
100
AcDbEntity
  8
0
100
AcDbEllipse
 62
7
  6
CONTINUOUS
 10
-7.5000041039
 20
-23.4113248654
 30
0.0
 11
0.0029088041
 21
0.2886641433
 31
0.0
 40
0.8660144118
 41
-1.5591610446
 42
0.0087264124
  0
ELLIPSE
  5
9A5
100
AcDbEntity
  8
0
100
AcDbEllipse
 62
7
  6
CONTINUOUS
 10
-9.8999956421
 20
-23.4113248654
 30
0.0
 11
-0.0029088041
 21
0.2886641433
 31
0.0
 40
0.8660144118
 41
-0.0087264124
 42
1.5591610446
  0
ELLIPSE
  5
9A6
100
AcDbEntity
  8
0
100
AcDbEllipse
 62
7
  6
CONTINUOUS
 10
7.5000043579
 20
-23.4113248654
 30
0.0
 11
-0.0029088041
 21
0.2886641433
 31
0.0
 40
0.8660144118
 41
-0.0087264124
 42
1.5591610446
  0
ELLIPSE
  5
9A7
100
AcDbEntity
  8
0
100
AcDbEllipse
 62
7
  6
CONTINUOUS
 10
9.8999958961
 20
-23.4113248654
 30
0.0
 11
0.0029088041
 21
0.2886641433
 31
0.0
 40
0.8660144118
 41
-1.5591610446
 42
0.0087264124
  0
ELLIPSE
  5
9A8
100
AcDbEntity
  8
0
100
AcDbEllipse
 62
7
  6
CONTINUOUS
 10
1.200000127
 20
23.7941787855
 30
0.0
 11
0.0
 21
0.2000033847
 31
0.0
 40
0.9999830769
 41
-0.0
 42
1.5707963268
  0
ELLIPSE
  5
9A9
100
AcDbEntity
  8
0
100
AcDbEllipse
 62
7
  6
CONTINUOUS
 10
-1.199999873
 20
-23.7941787855
 30
0.0
 11
-0.0
 21
-0.2000033847
 31
0.0
 40
0.9999830769
 41
0.0
 42
1.5707963268
  0
ELLIPSE
  5
9AA
100
AcDbEntity
  8
0
100
AcDbEllipse
 62
7
  6
CONTINUOUS
 10
-9.8999956421
 20
23.4113248654
 30
0.0
 11
0.0029088041
 21
0.2886641433
 31
0.0
 40
0.8660144118
 41
-4.7007536982
 42
-3.1328662412
  0
ELLIPSE
  5
9AB
100
AcDbEntity
  8
0
100
AcDbEllipse
 62
7
  6
CONTINUOUS
 10
-1.199999873
 20
23.7941787855
 30
0.0
 11
-0.0
 21
-0.2000033847
 31
0.0
 40
0.9999830769
 41
1.5707963268
 42
3.1415926536
  0
ELLIPSE
  5
9AC
100
AcDbEntity
  8
0
100
AcDbEllipse
 62
7
  6
CONTINUOUS
 10
1.200000127
 20
-23.7941787855
 30
0.0
 11
0.0
 21
0.2000033847
 31
0.0
 40
0.9999830769
 41
1.5707963268
 42
3.1415926536
  0
ELLIPSE
  5
9AD
100
AcDbEntity
  8
0
100
AcDbEllipse
 62
7
  6
CONTINUOUS
 10
-7.5000041039
 20
23.4113248654
 30
0.0
 11
-0.0029088041
 21
0.2886641433
 31
0.0
 40
0.8660144118
 41
-3.150319066
 42
-1.582431609
  0
ELLIPSE
  5
9AE
100
AcDbEntity
  8
0
100
AcDbEllipse
 62
7
  6
CONTINUOUS
 10
7.5000043579
 20
23.4113248654
 30
0.0
 11
0.0029088041
 21
0.2886641433
 31
0.0
 40
0.8660144118
 41
-4.7007536982
 42
-3.1328662412
  0
ELLIPSE
  5
9AF
100
AcDbEntity
  8
0
100
AcDbEllipse
 62
7
  6
CONTINUOUS
 10
9.8999958961
 20
23.4113248654
 30
0.0
 11
-0.0029088041
 21
0.2886641433
 31
0.0
 40
0.8660144118
 41
-3.150319066
 42
-1.582431609
  0
ELLIPSE
  5
9B0
100
AcDbEntity
  8
0
100
AcDbEllipse
 62
7
  6
CONTINUOUS
 10
4.4063664034
 20
-23.4563578147
 30
0.0
 11
-0.0
 21
0.5
 31
0.0
 40
0.0058178298
 41
-3.2409419489
 42
-3.1474104178
  0
ELLIPSE
  5
9B1
100
AcDbEntity
  8
0
100
AcDbEllipse
 62
7
  6
CONTINUOUS
 10
-4.4063661494
 20
-23.4563578147
 30
0.0
 11
-0.0
 21
0.5
 31
0.0
 40
0.0058178298
 41
-3.1357748894
 42
-3.0422433583
  0
ELLIPSE
  5
9B2
100
AcDbEntity
  8
0
100
AcDbEllipse
 62
7
  6
CONTINUOUS
 10
3.9530428369
 20
-22.3560930869
 30
0.0
 11
0.4530427099
 21
0.0
 31
0.0
 40
0.0058178298
 41
0.0058177642
 42
3.1415926536
  0
ELLIPSE
  5
9B3
100
AcDbEntity
  8
0
100
AcDbEllipse
 62
7
  6
CONTINUOUS
 10
-3.9530425829
 20
-22.3560930869
 30
0.0
 11
0.4530427099
 21
0.0
 31
0.0
 40
0.0058178298
 41
-0.0
 42
3.1357748894
  0
ELLIPSE
  5
9B4
100
AcDbEntity
  8
0
100
AcDbEllipse
 62
7
  6
CONTINUOUS
 10
-3.9530425829
 20
22.3560930869
 30
0.0
 11
0.4530427099
 21
0.0
 31
0.0
 40
0.0058178298
 41
-3.1357748894
 42
-0.0
  0
ELLIPSE
  5
9B5
100
AcDbEntity
  8
0
100
AcDbEllipse
 62
7
  6
CONTINUOUS
 10
-10.6416903094
 20
-21.8941737085
 30
0.0
 11
0.4160498344
 21
0.2773626446
 31
0.0
 40
0.9999450019
 41
2.5536219432
 42
4.1243675013
  0
ELLIPSE
  5
9B6
100
AcDbEntity
  8
0
100
AcDbEllipse
 62
7
  6
CONTINUOUS
 10
3.9530428369
 20
22.3560930869
 30
0.0
 11
0.4530427099
 21
-0.0
 31
0.0
 40
0.0058178298
 41
-3.1415926536
 42
-0.0058177642
  0
ELLIPSE
  5
9B7
100
AcDbEntity
  8
DRAFT
100
AcDbEllipse
 62
7
  6
CONTINUOUS
 10
9.5435586407
 20
8.8
 30
0.0
 11
0.0
 21
2.1
 31
0.0
 40
0.0087268678
 41
-3.1415926536
 42
-0.0
  0
ELLIPSE
  5
9B8
100
AcDbEntity
  8
DRAFT
100
AcDbEllipse
 62
7
  6
CONTINUOUS
 10
9.5435586407
 20
13.8
 30
0.0
 11
0.0
 21
2.1
 31
0.0
 40
0.0087268678
 41
-3.1415926536
 42
-0.0
  0
ELLIPSE
  5
9B9
100
AcDbEntity
  8
RACCORDO
100
AcDbEllipse
 62
7
  6
CONTINUOUS
 10
9.1496954709
 20
17.6714466826
 30
0.0
 11
1.8480888181
 21
0.7655034529
 31
0.0
 40
0.9998215708
 41
-0.3926359958
 42
0.3926359958
  0
ELLIPSE
  5
9BA
100
AcDbEntity
  8
RACCORDO
100
AcDbEllipse
 62
7
  6
CONTINUOUS
 10
9.1496954709
 20
-17.6714466826
 30
0.0
 11
1.8480888181
 21
-0.7655034529
 31
0.0
 40
0.9998215708
 41
-0.3926359958
 42
0.3926359958
  0
ELLIPSE
  5
9BB
100
AcDbEntity
  8
RACCORDO
100
AcDbEllipse
 62
7
  6
CONTINUOUS
 10
-9.1496952169
 20
-17.6714466826
 30
0.0
 11
1.8480888181
 21
0.7655034529
 31
0.0
 40
0.9998215708
 41
2.7489566578
 42
3.5342286494
  0
ELLIPSE
  5
9BC
100
AcDbEntity
  8
RACCORDO
100
AcDbEllipse
 62
7
  6
CONTINUOUS
 10
-9.1496952169
 20
17.6714466826
 30
0.0
 11
1.8480888181
 21
-0.7655034529
 31
0.0
 40
0.9998215708
 41
2.7489566578
 42
3.5342286494
  0
ELLIPSE
  5
9BD
100
AcDbEntity
  8
RACCORDO
100
AcDbEllipse
 62
7
  6
CONTINUOUS
 10
8.6871362503
 20
-17.47984838
 30
0.0
 11
-1.8480888181
 21
0.7655034529
 31
0.0
 40
0.9998215708
 41
9.032141965
 42
9.8174139566
  0
ELLIPSE
  5
9BE
100
AcDbEntity
  8
DRAFT
100
AcDbEllipse
 62
7
  6
CONTINUOUS
 10
10.5870742831
 20
13.8
 30
0.0
 11
0.0
 21
2.1
 31
0.0
 40
0.0174550649
 41
-3.1415926536
 42
0.0
  0
ELLIPSE
  5
9BF
100
AcDbEntity
  8
DRAFT
100
AcDbEllipse
 62
7
  6
CONTINUOUS
 10
10.5870742831
 20
8.8
 30
0.0
 11
0.0
 21
2.1
 31
0.0
 40
0.0174550649
 41
-3.1415926536
 42
0.0
  0
ELLIPSE
  5
9C0
100
AcDbEntity
  8
RACCORDO
100
AcDbEllipse
 62
7
  6
CONTINUOUS
 10
9.3778924039
 20
-18.6108268408
 30
0.0
 11
-0.3827517265
 21
0.924044409
 31
0.0
 40
0.9998215708
 41
-3.5342286494
 42
-2.7489566578
  0
ELLIPSE
  5
9C1
100
AcDbEntity
  8
RACCORDO
100
AcDbEllipse
 62
7
  6
CONTINUOUS
 10
-9.3778921499
 20
-18.6108268408
 30
0.0
 11
0.3827517265
 21
0.924044409
 31
0.0
 40
0.9998215708
 41
-3.5342286494
 42
-2.7489566578
  0
ELLIPSE
  5
9C2
100
AcDbEntity
  8
RACCORDO
100
AcDbEllipse
 62
7
  6
CONTINUOUS
 10
1.5981175253
 20
-19.8982544935
 30
0.0
 11
0.9
 21
-0.0
 31
0.0
 40
0.0174550649
 41
0.0174532925
 42
1.5707963268
  0
ELLIPSE
  5
9C3
100
AcDbEntity
  8
RACCORDO
100
AcDbEllipse
 62
7
  6
CONTINUOUS
 10
9.4865553317
 20
-2.8996790988
 30
0.0
 11
0.0
 21
1.0087649462
 31
0.0
 40
0.9913112106
 41
-1.5533430343
 42
0.0
  0
ELLIPSE
  5
9C4
100
AcDbEntity
  8
RACCORDO
100
AcDbEllipse
 62
7
  6
CONTINUOUS
 10
-9.3778921499
 20
18.6108268408
 30
0.0
 11
-0.3827517265
 21
0.924044409
 31
0.0
 40
0.9998215708
 41
-0.3926359958
 42
0.3926359958
  0
ELLIPSE
  5
9C5
100
AcDbEntity
  8
RACCORDO
100
AcDbEllipse
 62
7
  6
CONTINUOUS
 10
-1.5981172713
 20
19.8982544935
 30
0.0
 11
0.9
 21
-0.0
 31
0.0
 40
0.0174550649
 41
-3.1241393611
 42
-1.5707963268
  0
ELLIPSE
  5
9C6
100
AcDbEntity
  8
RACCORDO
100
AcDbEllipse
 62
7
  6
CONTINUOUS
 10
9.3778924039
 20
18.6108268408
 30
0.0
 11
0.3827517265
 21
0.924044409
 31
0.0
 40
0.9998215708
 41
-0.3926359958
 42
0.3926359958
  0
ELLIPSE
  5
9C7
100
AcDbEntity
  8
RACCORDO
100
AcDbEllipse
 62
7
  6
CONTINUOUS
 10
1.5981175253
 20
19.8982544935
 30
0.0
 11
0.9
 21
0.0
 31
0.0
 40
0.0174550649
 41
-1.5707963268
 42
-0.0174532925
  0
ELLIPSE
  5
9C8
100
AcDbEntity
  8
RACCORDO
100
AcDbEllipse
 62
7
  6
CONTINUOUS
 10
9.2585953476
 20
-18.3228182695
 30
0.0
 11
0.3827517265
 21
-0.924044409
 31
0.0
 40
0.9998215708
 41
5.8905493114
 42
6.675821303
  0
ELLIPSE
  5
9C9
100
AcDbEntity
  8
RACCORDO
100
AcDbEllipse
 62
7
  6
CONTINUOUS
 10
-1.5981172713
 20
-19.8982544935
 30
0.0
 11
0.9
 21
-0.0
 31
0.0
 40
0.0174550649
 41
1.5707963268
 42
3.1241393611
  0
ELLIPSE
  5
9CA
100
AcDbEntity
  8
ASSI
100
AcDbEllipse
 62
7
  6
CONTINUOUS
 10
-9.1496952169
 20
17.6714466826
 30
0.0
 11
1.8480888181
 21
-0.7655034529
 31
0.0
 40
0.9998215708
 41
2.7489566578
 42
3.5342286494
  0
ELLIPSE
  5
9CB
100
AcDbEntity
  8
ASSI
100
AcDbEllipse
 62
7
  6
CONTINUOUS
 10
-9.1496952169
 20
-17.6714466826
 30
0.0
 11
1.8480888181
 21
0.7655034529
 31
0.0
 40
0.9998215708
 41
2.7489566578
 42
3.5342286494
  0
ELLIPSE
  5
9CC
100
AcDbEntity
  8
ASSI
100
AcDbEllipse
 62
7
  6
CONTINUOUS
 10
9.1496954709
 20
-17.6714466826
 30
0.0
 11
1.8480888181
 21
-0.7655034529
 31
0.0
 40
0.9998215708
 41
-0.3926359958
 42
0.3926359958
  0
ELLIPSE
  5
9CD
100
AcDbEntity
  8
ASSI
100
AcDbEllipse
 62
7
  6
CONTINUOUS
 10
9.1496954709
 20
17.6714466826
 30
0.0
 11
1.8480888181
 21
0.7655034529
 31
0.0
 40
0.9998215708
 41
-0.3926359958
 42
0.3926359958
  0
ELLIPSE
  5
9CE
100
AcDbEntity
  8
ASSI
100
AcDbEllipse
 62
7
  6
CONTINUOUS
 10
9.5435586407
 20
13.8
 30
0.0
 11
0.0
 21
2.1
 31
0.0
 40
0.0087268678
 41
-3.1415926536
 42
-0.0
  0
ELLIPSE
  5
9CF
100
AcDbEntity
  8
ASSI
100
AcDbEllipse
 62
7
  6
CONTINUOUS
 10
9.5435586407
 20
8.8
 30
0.0
 11
0.0
 21
2.1
 31
0.0
 40
0.0087268678
 41
-3.1415926536
 42
-0.0
  0
ELLIPSE
  5
9D0
100
AcDbEntity
  8
ASSI
100
AcDbEllipse
 62
7
  6
CONTINUOUS
 10
1.5981175253
 20
-19.8982544935
 30
0.0
 11
0.9
 21
-0.0
 31
0.0
 40
0.0174550649
 41
0.0174532925
 42
1.5707963268
  0
ELLIPSE
  5
9D1
100
AcDbEntity
  8
ASSI
100
AcDbEllipse
 62
7
  6
CONTINUOUS
 10
-1.5981172713
 20
-19.8982544935
 30
0.0
 11
0.9
 21
-0.0
 31
0.0
 40
0.0174550649
 41
1.5707963268
 42
3.1241393611
  0
ELLIPSE
  5
9D2
100
AcDbEntity
  8
ASSI
100
AcDbEllipse
 62
7
  6
CONTINUOUS
 10
1.5981175253
 20
19.8982544935
 30
0.0
 11
0.9
 21
0.0
 31
0.0
 40
0.0174550649
 41
-1.5707963268
 42
-0.0174532925
  0
ELLIPSE
  5
9D3
100
AcDbEntity
  8
ASSI
100
AcDbEllipse
 62
7
  6
CONTINUOUS
 10
-1.5981172713
 20
19.8982544935
 30
0.0
 11
0.9
 21
-0.0
 31
0.0
 40
0.0174550649
 41
-3.1241393611
 42
-1.5707963268
  0
ELLIPSE
  5
9D4
100
AcDbEntity
  8
ASSI
100
AcDbEllipse
 62
7
  6
CONTINUOUS
 10
8.6871362503
 20
-17.47984838
 30
0.0
 11
-1.8480888181
 21
0.7655034529
 31
0.0
 40
0.9998215708
 41
2.7489566578
 42
3.5342286494
  0
ELLIPSE
  5
9D5
100
AcDbEntity
  8
ASSI
100
AcDbEllipse
 62
7
  6
CONTINUOUS
 10
9.3778924039
 20
18.6108268408
 30
0.0
 11
0.3827517265
 21
0.924044409
 31
0.0
 40
0.9998215708
 41
-0.3926359958
 42
0.3926359958
  0
ELLIPSE
  5
9D6
100
AcDbEntity
  8
ASSI
100
AcDbEllipse
 62
7
  6
CONTINUOUS
 10
-9.3778921499
 20
18.6108268408
 30
0.0
 11
-0.3827517265
 21
0.924044409
 31
0.0
 40
0.9998215708
 41
-0.3926359958
 42
0.3926359958
  0
ELLIPSE
  5
9D7
100
AcDbEntity
  8
ASSI
100
AcDbEllipse
 62
7
  6
CONTINUOUS
 10
-9.3778921499
 20
-18.6108268408
 30
0.0
 11
0.3827517265
 21
0.924044409
 31
0.0
 40
0.9998215708
 41
-3.5342286494
 42
-2.7489566578
  0
ELLIPSE
  5
9D8
100
AcDbEntity
  8
ASSI
100
AcDbEllipse
 62
7
  6
CONTINUOUS
 10
9.3778924039
 20
-18.6108268408
 30
0.0
 11
-0.3827517265
 21
0.924044409
 31
0.0
 40
0.9998215708
 41
-3.5342286494
 42
-2.7489566578
  0
ELLIPSE
  5
9D9
100
AcDbEntity
  8
ASSI
100
AcDbEllipse
 62
7
  6
CONTINUOUS
 10
9.2585953476
 20
-18.3228182695
 30
0.0
 11
0.3827517265
 21
-0.924044409
 31
0.0
 40
0.9998215708
 41
-0.3926359958
 42
0.3926359958
  0
ELLIPSE
  5
9DA
100
AcDbEntity
  8
ASSI
100
AcDbEllipse
 62
7
  6
CONTINUOUS
 10
10.5870742831
 20
13.8
 30
0.0
 11
0.0
 21
2.1
 31
0.0
 40
0.0174550649
 41
-3.1415926536
 42
0.0
  0
ELLIPSE
  5
9DB
100
AcDbEntity
  8
ASSI
100
AcDbEllipse
 62
7
  6
CONTINUOUS
 10
10.5870742831
 20
8.8
 30
0.0
 11
0.0
 21
2.1
 31
0.0
 40
0.0174550649
 41
-3.1415926536
 42
0.0
  0
ELLIPSE
  5
9DC
100
AcDbEntity
  8
ASSI
100
AcDbEllipse
 62
7
  6
CONTINUOUS
 10
9.4865553317
 20
-2.8996790988
 30
0.0
 11
0.0
 21
1.0087649462
 31
0.0
 40
0.9913112106
 41
-1.5533430343
 42
0.0
  0
ELLIPSE
  5
9DD
100
AcDbEntity
  8
CURVE
100
AcDbEllipse
 62
253
  6
CONTINUOUS
 10
10.8715576295
 20
-15.9
 30
0.0
 11
0.0
 21
2.5499986575
 31
0.0
 40
0.0174550649
 41
-1.6100220921
 42
1.6100220921
  0
ELLIPSE
  5
9DE
100
AcDbEntity
  8
CURVE
100
AcDbEllipse
 62
253
  6
CONTINUOUS
 10
10.8715576295
 20
-15.9
 30
0.0
 11
0.0
 21
1.7999999246
 31
0.0
 40
0.0174550649
 41
-1.6263805024
 42
-0.2098706012
  0
ELLIPSE
  5
9DF
100
AcDbEntity
  8
CURVE
100
AcDbEllipse
 62
253
  6
CONTINUOUS
 10
10.8715576295
 20
-15.9
 30
0.0
 11
0.0
 21
1.7999968808
 31
0.0
 40
0.0174550649
 41
0.2098709614
 42
1.6263805965
  0
ELLIPSE
  5
9E0
100
AcDbEntity
  8
CURVE
100
AcDbEllipse
 62
253
  6
CONTINUOUS
 10
10.8715576295
 20
-11.51489
 30
0.0
 11
0.0
 21
2.5499985399
 31
0.0
 40
0.0174550649
 41
-1.6100220939
 42
1.6100220939
  0
ELLIPSE
  5
9E1
100
AcDbEntity
  8
CURVE
100
AcDbEllipse
 62
253
  6
CONTINUOUS
 10
10.8715576295
 20
-11.51489
 30
0.0
 11
0.0
 21
1.7999999246
 31
0.0
 40
0.0174550649
 41
-1.6263805024
 42
1.6263805024
  0
ENDSEC
  0
SECTION
  2
OBJECTS
  0
DICTIONARY
  5
C
100
AcDbDictionary
280
0
281
1
  3
ACAD_GROUP
350
D
  3
ACAD_MLINESTYLE
350
17
  3
ACAD_LAYOUT
350
1A
  3
ACAD_PLOTSETTINGS
350
19
  3
ACAD_PLOTSTYLENAME
350
E
  0
DICTIONARY
  5
D
102
{ACAD_REACTORS
330
C
102
}
100
AcDbDictionary
280
0
281
1
  0
ACDBDICTIONARYWDFLT
  5
E
102
{ACAD_REACTORS
330
C
102
}
100
AcDbDictionary
281
1
  3
Normal
350
F
100
AcDbDictionaryWithDefault
340
F
  0
DICTIONARY
  5
17
102
{ACAD_REACTORS
330
C
102
}
100
AcDbDictionary
280
0
281
1
  3
Standard
350
18
  0
DICTIONARY
  5
19
102
{ACAD_REACTORS
330
C
102
}
100
AcDbDictionary
281
1
  0
DICTIONARY
  5
1A
102
{ACAD_REACTORS
330
C
102
}
100
AcDbDictionary
281
1
  3
Model
350
9E2
  3
Layout1
350
9E3
  0
ACDBPLACEHOLDER
  5
F
102
{ACAD_REACTORS
330
E
102
}
  0
MLINESTYLE
  5
18
102
{ACAD_REACTORS
330
17
102
}
100
AcDbMlineStyle
  2
STANDARD
 70
0
  3

 62
256
 51
90.0
 52
90.0
 71
2
 49
0.5
 62
256
  6
BYLAYER
 49
-0.5
 62
256
  6
BYLAYER
  0
LAYOUT
  5
9E2
102
{ACAD_REACTORS
330
1A
102
}
100
AcDbPlotSettings
  1

  2
none_device
  4
ISO_A4_(297.00_x_210.00_MM)
  6

 40
0.0
 41
0.0
 42
0.0
 43
0.0
 44
297.0
 45
210.0
 46
0.0
 47
0.0
 48
0.0
 49
0.0
140
0.0
141
0.0
142
1.0
143
1.0
 70
1024
 72
1
 73
0
 74
0
  7

 75
0
147
1.0
148
0.0
149
0.0
100
AcDbLayout
  1
Model
 70
0
 71
0
 10
0.0
 20
0.0
 11
297.0
 21
210.0
 12
0.0
 22
0.0
 32
0.0
 14
0.0
 24
0.0
 34
0.0
 15
0.0
 25
0.0
 35
0.0
146
0.0
 13
0.0
 23
0.0
 33
0.0
 16
1.0
 26
0.0
 36
0.0
 17
0.0
 27
1.0
 37
0.0
 76
0
330
23D
345
0
346
0
  0
LAYOUT
  5
9E3
102
{ACAD_REACTORS
330
1A
102
}
100
AcDbPlotSettings
  1

  2
none_device
  4
ISO_A4_(297.00_x_210.00_MM)
  6

 40
0.0
 41
0.0
 42
0.0
 43
0.0
 44
297.0
 45
210.0
 46
0.0
 47
0.0
 48
0.0
 49
0.0
140
0.0
141
0.0
142
1.0
143
1.0
 70
0
 72
1
 73
0
 74
0
  7

 75
0
147
1.0
148
0.0
149
0.0
100
AcDbLayout
  1
Layout1
 70
0
 71
1
 10
0.0
 20
0.0
 11
297.0
 21
210.0
 12
0.0
 22
0.0
 32
0.0
 14
0.0
 24
0.0
 34
0.0
 15
0.0
 25
0.0
 35
0.0
146
0.0
 13
0.0
 23
0.0
 33
0.0
 16
1.0
 26
0.0
 36
0.0
 17
0.0
 27
1.0
 37
0.0
 76
0
330
23E
345
0
346
0
  0
ENDSEC
  0
EOF
