  0
SECTION
  2
HEADER
  9
$ACADVER
  1
AC1015
  9
$DWGCODEPAGE
  3
ANSI_1252
  9
$EXTMAX
 10
297.0
 20
210.0
 30
0.0
  9
$EXTMIN
 10
0.0
 20
0.0
 30
0.0
  9
$LIMMIN
 10
0.0
 20
0.0
  9
$LIMMAX
 10
297.0
 20
210.0
  9
$VIEWCTR
 10
148.5
 20
105.0
  9
$VIEWSIZE
 40
210.0
  9
$CLAYER
  8
0
  9
$LTSCALE
 40
16.335
  9
$CELTYPE
  6
BYLAYER
  9
$DIMSCALE
 40
1.0
  9
$DIMASZ
 40
3.0
  9
$DIMEXO
 40
0.5
  9
$DIMDLI
 40
11.286
  9
$DIMEXE
 40
1.5
  9
$DIMCEN
 40
2.673
  9
$DIMLFAC
 40
1.0
  9
$DIMBLK
  1
_FILLED
  9
$DIMTXT
 40
3.0
  9
$DIMTOL
 70
1
  9
$DIMLIM
 70
0
  9
$DIMTFAC
 40
1.0
  9
$DIMTP
 40
0.01
  9
$DIMTM
 40
0.01
  9
$DIMGAP
 40
0.625
  9
$DIMDSEP
 70
44
  9
$PDMODE
 70
3
  9
$PDSIZE
 40
3.0
  9
$HANDSEED
  5
8EE
  9
$TILEMODE
 70
1
  9
$MEASUREMENT
 70
1
  9
$INSUNITS
 70
4
  0
ENDSEC
  0
SECTION
  2
CLASSES
  0
CLASS
  1
ACDBDICTIONARYWDFLT
  2
AcDbDictionaryWithDefault
  3
AutoCAD 2000
 90
0
280
0
281
0
  0
CLASS
  1
ACDBPLACEHOLDER
  2
AcDbPlaceHolder
  3
AutoCAD 2000
 90
0
280
0
281
0
  0
CLASS
  1
LAYOUT
  2
AcDbLayout
  3
AutoCAD 2000
 90
0
280
0
281
0
  0
ENDSEC
  0
SECTION
  2
TABLES
  0
TABLE
  2
VPORT
  5
8
100
AcDbSymbolTable
 70
2
  0
VPORT
  5
1F4
100
AcDbSymbolTableRecord
100
AcDbViewportTableRecord
  2
*ACTIVE
 70
0
 10
0.0
 20
0.0
 11
1.0
 21
1.0
 12
148.5
 22
105.0
 13
0.0
 23
0.0
 14
1.0
 24
1.0
 15
0.0
 25
0.0
 16
0.0
 26
0.0
 36
1.0
 17
0.0
 27
0.0
 37
0.0
 40
210.0
 41
1.4142857143
 42
50.0
 43
0.0
 44
0.0
 50
0.0
 51
0.0
 71
0
 72
100
 73
1
 74
1
 75
0
 76
0
 77
0
 78
0
  0
ENDTAB
  0
TABLE
  2
LTYPE
  5
5
100
AcDbSymbolTable
 70
6
  0
LTYPE
  5
14
100
AcDbSymbolTableRecord
100
AcDbLinetypeTableRecord
  2
BYBLOCK
 70
0
  3

 72
65
 73
0
 40
0.0
  0
LTYPE
  5
15
100
AcDbSymbolTableRecord
100
AcDbLinetypeTableRecord
  2
BYLAYER
 70
0
  3

 72
65
 73
0
 40
0.0
  0
LTYPE
  5
16
100
AcDbSymbolTableRecord
100
AcDbLinetypeTableRecord
  2
CONTINUOUS
 70
64
  3
Solid line
 72
65
 73
0
 40
0.0
  0
LTYPE
  5
1F5
100
AcDbSymbolTableRecord
100
AcDbLinetypeTableRecord
  2
CENTER
 70
64
  3
____ _ ____ _ ____ _ ____ _ ____ _ ____ _ ____
 72
65
 73
4
 40
0.6
 49
0.375
 74
0
 49
-0.075
 74
0
 49
0.075
 74
0
 49
-0.075
 74
0
  0
LTYPE
  5
1F6
100
AcDbSymbolTableRecord
100
AcDbLinetypeTableRecord
  2
HIDDEN
 70
64
  3
- - - - - - - - - - - - - - - - - - - -
 72
65
 73
2
 40
0.2
 49
0.1
 74
0
 49
-0.1
 74
0
  0
LTYPE
  5
1F7
100
AcDbSymbolTableRecord
100
AcDbLinetypeTableRecord
  2
PHANTOM
 70
64
  3
_____ _ _ _____ _ _ _____ _ _ _____
 72
65
 73
6
 40
0.8
 49
0.45
 74
0
 49
-0.05
 74
0
 49
0.1
 74
0
 49
-0.05
 74
0
 49
0.1
 74
0
 49
-0.05
 74
0
  0
LTYPE
  5
1F8
100
AcDbSymbolTableRecord
100
AcDbLinetypeTableRecord
  2
DOT
 70
64
  3
. . . . . . . . . . . . . . . . . . . .
 72
65
 73
2
 40
0.2
 49
0.1
 74
0
 49
-0.1
 74
0
  0
LTYPE
  5
1F9
100
AcDbSymbolTableRecord
100
AcDbLinetypeTableRecord
  2
DASHED
 70
64
  3
- - - - - - - - - - - - - - - - - - - -
 72
65
 73
2
 40
0.2
 49
0.1
 74
0
 49
-0.1
 74
0
  0
ENDTAB
  0
TABLE
  2
LAYER
  5
2
100
AcDbSymbolTable
 70
36
  0
LAYER
  5
10
100
AcDbSymbolTableRecord
100
AcDbLayerTableRecord
  2
0
 70
0
 62
7
  6
CONTINUOUS
370
-3
390
F
  0
LAYER
  5
1FA
100
AcDbSymbolTableRecord
100
AcDbLayerTableRecord
  2
DEFAULT_1
 70
0
 62
7
  6
CENTER
370
-3
390
F
  0
LAYER
  5
1FB
100
AcDbSymbolTableRecord
100
AcDbLayerTableRecord
  2
DEFAULT_2
 70
0
 62
7
  6
HIDDEN
370
-3
390
F
  0
LAYER
  5
1FC
100
AcDbSymbolTableRecord
100
AcDbLayerTableRecord
  2
DEFAULT_3
 70
0
 62
7
  6
PHANTOM
370
-3
390
F
  0
LAYER
  5
1FD
100
AcDbSymbolTableRecord
100
AcDbLayerTableRecord
  2
ASSI
 70
0
 62
7
  6
CONTINUOUS
370
-3
390
F
  0
LAYER
  5
1FE
100
AcDbSymbolTableRecord
100
AcDbLayerTableRecord
  2
COORDINATE
 70
0
 62
7
  6
CONTINUOUS
370
-3
390
F
  0
LAYER
  5
1FF
100
AcDbSymbolTableRecord
100
AcDbLayerTableRecord
  2
COPY_PUBLISH
 70
0
 62
7
  6
CONTINUOUS
370
-3
390
F
  0
LAYER
  5
200
100
AcDbSymbolTableRecord
100
AcDbLayerTableRecord
  2
COSMETIC
 70
0
 62
7
  6
CONTINUOUS
370
-3
390
F
  0
LAYER
  5
201
100
AcDbSymbolTableRecord
100
AcDbLayerTableRecord
  2
CRV_ROUND_OLD
 70
0
 62
7
  6
CONTINUOUS
370
-3
390
F
  0
LAYER
  5
202
100
AcDbSymbolTableRecord
100
AcDbLayerTableRecord
  2
CURVE
 70
0
 62
7
  6
CONTINUOUS
370
-3
390
F
  0
LAYER
  5
203
100
AcDbSymbolTableRecord
100
AcDbLayerTableRecord
  2
DRAFT
 70
0
 62
7
  6
CONTINUOUS
370
-3
390
F
  0
LAYER
  5
204
100
AcDbSymbolTableRecord
100
AcDbLayerTableRecord
  2
FILLET_G
 70
0
 62
7
  6
CONTINUOUS
370
-3
390
F
  0
LAYER
  5
205
100
AcDbSymbolTableRecord
100
AcDbLayerTableRecord
  2
IMPORT_IGES
 70
0
 62
7
  6
CONTINUOUS
370
-3
390
F
  0
LAYER
  5
206
100
AcDbSymbolTableRecord
100
AcDbLayerTableRecord
  2
INTF_1
 70
0
 62
7
  6
CONTINUOUS
370
-3
390
F
  0
LAYER
  5
207
100
AcDbSymbolTableRecord
100
AcDbLayerTableRecord
  2
INTF_BLANK
 70
0
 62
7
  6
CONTINUOUS
370
-3
390
F
  0
LAYER
  5
208
100
AcDbSymbolTableRecord
100
AcDbLayerTableRecord
  2
INTF_CYAN
 70
0
 62
7
  6
CONTINUOUS
370
-3
390
F
  0
LAYER
  5
209
100
AcDbSymbolTableRecord
100
AcDbLayerTableRecord
  2
LAYER_3158
 70
0
 62
7
  6
CONTINUOUS
370
-3
390
F
  0
LAYER
  5
20A
100
AcDbSymbolTableRecord
100
AcDbLayerTableRecord
  2
NONE
 70
0
 62
7
  6
CONTINUOUS
370
-3
390
F
  0
LAYER
  5
20B
100
AcDbSymbolTableRecord
100
AcDbLayerTableRecord
  2
PELLE_ESTERNA
 70
0
 62
7
  6
CONTINUOUS
370
-3
390
F
  0
LAYER
  5
20C
100
AcDbSymbolTableRecord
100
AcDbLayerTableRecord
  2
PELLE_INTERNA
 70
0
 62
7
  6
CONTINUOUS
370
-3
390
F
  0
LAYER
  5
20D
100
AcDbSymbolTableRecord
100
AcDbLayerTableRecord
  2
PIANI
 70
0
 62
7
  6
CONTINUOUS
370
-3
390
F
  0
LAYER
  5
20E
100
AcDbSymbolTableRecord
100
AcDbLayerTableRecord
  2
PUNTI
 70
0
 62
7
  6
CONTINUOUS
370
-3
390
F
  0
LAYER
  5
20F
100
AcDbSymbolTableRecord
100
AcDbLayerTableRecord
  2
RACCORDO
 70
0
 62
7
  6
CONTINUOUS
370
-3
390
F
  0
LAYER
  5
210
100
AcDbSymbolTableRecord
100
AcDbLayerTableRecord
  2
SHELL
 70
0
 62
7
  6
CONTINUOUS
370
-3
390
F
  0
LAYER
  5
211
100
AcDbSymbolTableRecord
100
AcDbLayerTableRecord
  2
SNAPLINE
 70
0
 62
7
  6
CONTINUOUS
370
-3
390
F
  0
LAYER
  5
212
100
AcDbSymbolTableRecord
100
AcDbLayerTableRecord
  2
SOLIDI
 70
0
 62
7
  6
CONTINUOUS
370
-3
390
F
  0
LAYER
  5
213
100
AcDbSymbolTableRecord
100
AcDbLayerTableRecord
  2
SOLIDO_1
 70
0
 62
7
  6
CONTINUOUS
370
-3
390
F
  0
LAYER
  5
214
100
AcDbSymbolTableRecord
100
AcDbLayerTableRecord
  2
SRF_COSTRUZIONE
 70
0
 62
7
  6
CONTINUOUS
370
-3
390
F
  0
LAYER
  5
215
100
AcDbSymbolTableRecord
100
AcDbLayerTableRecord
  2
SUPERFICI
 70
0
 62
7
  6
CONTINUOUS
370
-3
390
F
  0
LAYER
  5
216
100
AcDbSymbolTableRecord
100
AcDbLayerTableRecord
  2
SUP_TAGLIO_APPOGGI
 70
0
 62
7
  6
CONTINUOUS
370
-3
390
F
  0
LAYER
  5
217
100
AcDbSymbolTableRecord
100
AcDbLayerTableRecord
  2
TRASH
 70
0
 62
7
  6
CONTINUOUS
370
-3
390
F
  0
LAYER
  5
218
100
AcDbSymbolTableRecord
100
AcDbLayerTableRecord
  2
XSEC_DATUMS
 70
0
 62
7
  6
CONTINUOUS
370
-3
390
F
  0
ENDTAB
  0
TABLE
  2
STYLE
  5
3
100
AcDbSymbolTable
 70
1
  0
STYLE
  5
11
100
AcDbSymbolTableRecord
100
AcDbTextStyleTableRecord
  2
STANDARD
 70
0
 40
0.0
 41
0.8
 50
0.0
 71
0
 42
0.2
  3
txt
  4

  0
STYLE
  5
219
100
AcDbSymbolTableRecord
100
AcDbTextStyleTableRecord
  2
TEXTSTYLE_1
 70
0
 40
0.0
 41
0.8
 50
0.0
 71
0
 42
0.2
  3
gdt
  4

  0
ENDTAB
  0
TABLE
  2
VIEW
  5
6
100
AcDbSymbolTable
 70
0
  0
ENDTAB
  0
TABLE
  2
UCS
  5
7
100
AcDbSymbolTable
 70
0
  0
ENDTAB
  0
TABLE
  2
APPID
  5
9
100
AcDbSymbolTable
 70
1
  0
APPID
  5
21A
100
AcDbSymbolTableRecord
100
AcDbRegAppTableRecord
  2
ACAD
 70
0
  0
ENDTAB
  0
TABLE
  2
BLOCK_RECORD
  5
1
100
AcDbSymbolTable
 70
0
  0
BLOCK_RECORD
  5
21B
100
AcDbSymbolTableRecord
100
AcDbBlockTableRecord
  2
*Model_Space
  0
BLOCK_RECORD
  5
21C
100
AcDbSymbolTableRecord
100
AcDbBlockTableRecord
  2
*Paper_Space
  0
ENDTAB
  0
TABLE
  2
DIMSTYLE
  5
A
100
AcDbSymbolTable
 70
1
100
AcDbDimStyleTable
 71
0
  0
DIMSTYLE
105
21D
100
AcDbSymbolTableRecord
100
AcDbDimStyleTableRecord
  2
STANDARD
 70
0
  3

  4

 40
1.0
 41
3.0
 42
0.5
 43
0.38
 44
1.5
 45
0.0
 46
0.0
 47
0.01
 48
0.01
140
3.0
141
0.09
142
0.0
143
25.4
144
1.0
145
0.0
146
1.0
147
0.625
 71
1.0
 72
0.0
 73
0
 74
0
 75
0
 76
0
 77
1
 78
8
170
0
171
2
172
0
173
0
174
0
175
0
176
0
177
0
178
0
270
2
271
2
272
2
273
2
274
2
275
0
280
0
281
0
282
0
283
1
284
8
285
0
286
0
287
3
288
0
340
11
278
44
  0
ENDTAB
  0
ENDSEC
  0
SECTION
  2
BLOCKS
  0
BLOCK
  5
20
100
AcDbEntity
  8
0
100
AcDbBlockBegin
  2
*Model_Space
 70
0
 10
0.0
 20
0.0
 30
0.0
  3
*Model_Space
  1

  0
ENDBLK
  5
21
100
AcDbEntity
  8
0
100
AcDbBlockEnd
  0
BLOCK
  5
1C
100
AcDbEntity
  8
0
100
AcDbBlockBegin
  2
*Paper_Space
 70
0
 10
0.0
 20
0.0
 30
0.0
  3
*Paper_Space
  1

  0
ENDBLK
  5
1D
100
AcDbEntity
  8
0
100
AcDbBlockEnd
  0
ENDSEC
  0
SECTION
  2
ENTITIES
  0
LINE
  5
21E
100
AcDbEntity
  8
0
100
AcDbLine
 62
7
  6
CONTINUOUS
 10
-34.0488852543
 20
-33.967607251
 11
-34.2238852126
 21
-33.8782455595
  0
LINE
  5
21F
100
AcDbEntity
  8
0
100
AcDbLine
 62
7
  6
CONTINUOUS
 10
-33.1738852126
 20
-35.7548413152
 11
-32.955135296
 21
-35.8888838641
  0
LINE
  5
220
100
AcDbEntity
  8
0
100
AcDbLine
 62
7
  6
CONTINUOUS
 10
-31.2926351291
 20
-35.7548413152
 11
-31.0738852126
 21
-35.8888838641
  0
LINE
  5
221
100
AcDbEntity
  8
0
100
AcDbLine
 62
7
  6
CONTINUOUS
 10
-32.2113851291
 20
-34.0122880967
 11
-32.430135296
 21
-33.8782455595
  0
LINE
  5
222
100
AcDbEntity
  8
0
100
AcDbLine
 62
7
  6
CONTINUOUS
 10
-33.8634684665
 20
-32.7633519532
 11
-33.6551352126
 21
-32.8910115236
  0
LINE
  5
223
100
AcDbEntity
  8
0
100
AcDbLine
 62
7
  6
CONTINUOUS
 10
-30.1988850457
 20
-34.7718625994
 11
-30.4176352126
 21
-34.6378200622
  0
LINE
  5
224
100
AcDbEntity
  8
0
100
AcDbLine
 62
7
  6
CONTINUOUS
 10
-32.9113852126
 20
-35.665479608
 11
-33.0426352126
 21
-35.5761179166
  0
LINE
  5
225
100
AcDbEntity
  8
0
100
AcDbLine
 62
7
  6
CONTINUOUS
 10
-34.3113852543
 20
-34.1016497882
 11
-34.1801352543
 21
-34.1910114797
  0
LINE
  5
226
100
AcDbEntity
  8
0
100
AcDbLine
 62
7
  6
CONTINUOUS
 10
-31.0301353795
 20
-35.665479608
 11
-31.1613853795
 21
-35.5761179166
  0
LINE
  5
227
100
AcDbEntity
  8
0
100
AcDbLine
 62
7
  6
CONTINUOUS
 10
-32.4738851291
 20
-34.1016497882
 11
-32.3426351291
 21
-34.1910114797
  0
LINE
  5
228
100
AcDbEntity
  8
0
100
AcDbLine
 62
7
  6
CONTINUOUS
 10
-30.4613850457
 20
-34.8612242909
 11
-30.3301350457
 21
-34.9505859824
  0
LINE
  5
229
100
AcDbEntity
  8
0
100
AcDbLine
 62
7
  6
CONTINUOUS
 10
-30.5051353795
 20
-34.1016497882
 11
-30.3738853795
 21
-34.1910114797
  0
LINE
  5
22A
100
AcDbEntity
  8
0
100
AcDbLine
 62
7
  6
CONTINUOUS
 10
-33.4884684665
 20
-31.7420753749
 11
-33.6134684665
 21
-31.6569690021
  0
LINE
  5
22B
100
AcDbEntity
  8
0
100
AcDbLine
 62
7
  6
CONTINUOUS
 10
-32.9468019587
 20
-32.0825008662
 11
-32.8218019587
 21
-32.1676072391
  0
LINE
  5
22C
100
AcDbEntity
  8
0
100
AcDbLine
 62
7
  6
CONTINUOUS
 10
-34.5301352126
 20
-31.1037774594
 11
-34.6968018395
 21
-30.9761179002
  0
LINE
  5
22D
100
AcDbEntity
  8
0
100
AcDbLine
 62
7
  6
CONTINUOUS
 10
-33.3051352126
 20
-35.6207987623
 11
-33.1738852126
 21
-35.7548413152
  0
LINE
  5
22E
100
AcDbEntity
  8
0
100
AcDbLine
 62
7
  6
CONTINUOUS
 10
-33.8738851709
 20
-34.1463306339
 11
-34.0488852543
 21
-33.967607251
  0
LINE
  5
22F
100
AcDbEntity
  8
0
100
AcDbLine
 62
7
  6
CONTINUOUS
 10
-34.7384685857
 20
-32.0825008662
 11
-34.6551352126
 21
-32.1676072391
  0
LINE
  5
230
100
AcDbEntity
  8
0
100
AcDbLine
 62
7
  6
CONTINUOUS
 10
-33.6134684665
 20
-32.635692379
 11
-33.7384684665
 21
-32.50803279
  0
LINE
  5
231
100
AcDbEntity
  8
0
100
AcDbLine
 62
7
  6
CONTINUOUS
 10
-32.0801351291
 20
-34.1463306339
 11
-32.2113851291
 21
-34.0122880967
  0
LINE
  5
232
100
AcDbEntity
  8
0
100
AcDbLine
 62
7
  6
CONTINUOUS
 10
-34.7384685857
 20
-31.2314370187
 11
-34.6551352126
 21
-31.3165433915
  0
LINE
  5
233
100
AcDbEntity
  8
0
100
AcDbLine
 62
7
  6
CONTINUOUS
 10
-33.8634684665
 20
-31.7420753749
 11
-33.6968019587
 21
-31.9122881206
  0
LINE
  5
234
100
AcDbEntity
  8
0
100
AcDbLine
 62
7
  6
CONTINUOUS
 10
-30.3301350457
 20
-34.9505859824
 11
-30.2426353795
 21
-35.0399476738
  0
LINE
  5
235
100
AcDbEntity
  8
0
100
AcDbLine
 62
7
  6
CONTINUOUS
 10
-30.0676350457
 20
-34.9059051366
 11
-30.1988850457
 21
-34.7718625994
  0
LINE
  5
236
100
AcDbEntity
  8
0
100
AcDbLine
 62
7
  6
CONTINUOUS
 10
-32.5718019587
 20
-32.0825008662
 11
-32.7384684665
 21
-31.9122881206
  0
LINE
  5
237
100
AcDbEntity
  8
0
100
AcDbLine
 62
7
  6
CONTINUOUS
 10
-32.9884684665
 20
-31.2314370187
 11
-32.9051352126
 21
-31.3165433915
  0
LINE
  5
238
100
AcDbEntity
  8
0
100
AcDbLine
 62
7
  6
CONTINUOUS
 10
-34.4051352126
 20
-32.1250540526
 11
-34.5301352126
 21
-31.954841307
  0
LINE
  5
239
100
AcDbEntity
  8
0
100
AcDbLine
 62
7
  6
CONTINUOUS
 10
-31.4238851291
 20
-35.5761179166
 11
-31.2926351291
 21
-35.7548413152
  0
LINE
  5
23A
100
AcDbEntity
  8
0
100
AcDbLine
 62
7
  6
CONTINUOUS
 10
-34.4051352126
 20
-31.2739902051
 11
-34.5301352126
 21
-31.1037774594
  0
LINE
  5
23B
100
AcDbEntity
  8
0
100
AcDbLine
 62
7
  6
CONTINUOUS
 10
-32.0718019587
 20
-32.5931391926
 11
-31.9468019587
 21
-32.7633519532
  0
LINE
  5
23C
100
AcDbEntity
  8
0
100
AcDbLine
 62
7
  6
CONTINUOUS
 10
-34.1801352543
 20
-34.1910114797
 11
-34.0926352126
 21
-34.3250540169
  0
LINE
  5
23D
100
AcDbEntity
  8
0
100
AcDbLine
 62
7
  6
CONTINUOUS
 10
-33.0426352126
 20
-35.5761179166
 11
-33.217635296
 21
-35.3080328109
  0
LINE
  5
23E
100
AcDbEntity
  8
0
100
AcDbLine
 62
7
  6
CONTINUOUS
 10
-32.3426351291
 20
-34.1910114797
 11
-32.167635296
 21
-34.4590966793
  0
LINE
  5
23F
100
AcDbEntity
  8
0
100
AcDbLine
 62
7
  6
CONTINUOUS
 10
-31.1613853795
 20
-35.5761179166
 11
-31.248885296
 21
-35.4420753481
  0
LINE
  5
240
100
AcDbEntity
  8
0
100
AcDbLine
 62
7
  6
CONTINUOUS
 10
-32.8218019587
 20
-32.1676072391
 11
-32.7384684665
 21
-32.2952668579
  0
LINE
  5
241
100
AcDbEntity
  8
0
100
AcDbLine
 62
7
  6
CONTINUOUS
 10
-33.9884685857
 20
-32.5505859764
 11
-33.8634684665
 21
-32.7633519532
  0
LINE
  5
242
100
AcDbEntity
  8
0
100
AcDbLine
 62
7
  6
CONTINUOUS
 10
-33.3926352543
 20
-35.4420753481
 11
-33.3051352126
 21
-35.6207987623
  0
LINE
  5
243
100
AcDbEntity
  8
0
100
AcDbLine
 62
7
  6
CONTINUOUS
 10
-40.4051352126
 20
35.0664352862
 11
-40.4051352126
 21
29.0664352862
  0
LINE
  5
244
100
AcDbEntity
  8
0
100
AcDbLine
 62
7
  6
CONTINUOUS
 10
-36.9449822126
 20
34.1045002862
 11
-37.7306502126
 21
31.3515122862
  0
LINE
  5
245
100
AcDbEntity
  8
0
100
AcDbLine
 62
7
  6
CONTINUOUS
 10
-37.3963002126
 20
30.1049882862
 11
-36.1106972126
 21
34.1045002862
  0
LINE
  5
246
100
AcDbEntity
  8
0
100
AcDbLine
 62
7
  6
CONTINUOUS
 10
-31.6604062126
 20
34.1045002862
 11
-32.4952612126
 21
31.8839592862
  0
LINE
  5
247
100
AcDbEntity
  8
0
100
AcDbLine
 62
7
  6
CONTINUOUS
 10
-32.4412762126
 20
30.1049882862
 11
-31.4486332126
 21
32.7057072862
  0
LINE
  5
248
100
AcDbEntity
  8
0
100
AcDbLine
 62
7
  6
CONTINUOUS
 10
-32.955135296
 20
-35.8888838641
 11
-32.692635296
 21
-35.9335647138
  0
LINE
  5
249
100
AcDbEntity
  8
0
100
AcDbLine
 62
7
  6
CONTINUOUS
 10
-32.692635296
 20
-35.7101604538
 11
-32.9113852126
 21
-35.665479608
  0
LINE
  5
24A
100
AcDbEntity
  8
0
100
AcDbLine
 62
7
  6
CONTINUOUS
 10
-31.0738852126
 20
-35.8888838641
 11
-30.8551350457
 21
-35.9335647138
  0
LINE
  5
24B
100
AcDbEntity
  8
0
100
AcDbLine
 62
7
  6
CONTINUOUS
 10
-30.8988853795
 20
-35.7101604538
 11
-31.0301353795
 21
-35.665479608
  0
LINE
  5
24C
100
AcDbEntity
  8
0
100
AcDbLine
 62
7
  6
CONTINUOUS
 10
-30.5926350457
 20
-34.8165434452
 11
-30.4613850457
 21
-34.8612242909
  0
LINE
  5
24D
100
AcDbEntity
  8
0
100
AcDbLine
 62
7
  6
CONTINUOUS
 10
-30.6363853795
 20
-34.0569689424
 11
-30.5051353795
 21
-34.1016497882
  0
LINE
  5
24E
100
AcDbEntity
  8
0
100
AcDbLine
 62
7
  6
CONTINUOUS
 10
-34.8634685857
 20
-32.0399476798
 11
-34.7384685857
 21
-32.0825008662
  0
LINE
  5
24F
100
AcDbEntity
  8
0
100
AcDbLine
 62
7
  6
CONTINUOUS
 10
-33.3634684665
 20
-31.7846285613
 11
-33.4884684665
 21
-31.7420753749
  0
LINE
  5
250
100
AcDbEntity
  8
0
100
AcDbLine
 62
7
  6
CONTINUOUS
 10
-34.8634685857
 20
-31.1888838323
 11
-34.7384685857
 21
-31.2314370187
  0
LINE
  5
251
100
AcDbEntity
  8
0
100
AcDbLine
 62
7
  6
CONTINUOUS
 10
-34.5301352126
 20
-31.954841307
 11
-34.6134685857
 21
-31.9122881206
  0
LINE
  5
252
100
AcDbEntity
  8
0
100
AcDbLine
 62
7
  6
CONTINUOUS
 10
-33.6968019587
 20
-31.9122881206
 11
-33.5301352126
 21
-31.9973944934
  0
LINE
  5
253
100
AcDbEntity
  8
0
100
AcDbLine
 62
7
  6
CONTINUOUS
 10
-32.7384684665
 20
-31.9122881206
 11
-32.9051352126
 21
-31.8271817477
  0
LINE
  5
254
100
AcDbEntity
  8
0
100
AcDbLine
 62
7
  6
CONTINUOUS
 10
-28.2384687049
 20
-32.8059051396
 11
-28.0718017203
 21
-32.8910115236
  0
LINE
  5
255
100
AcDbEntity
  8
0
100
AcDbLine
 62
7
  6
CONTINUOUS
 10
-28.0718017203
 20
-32.6782455655
 11
-28.1551352126
 21
-32.635692379
  0
LINE
  5
256
100
AcDbEntity
  8
0
100
AcDbLine
 62
7
  6
CONTINUOUS
 10
-26.4051352126
 20
-32.8059051396
 11
-26.238468228
 21
-32.8910115236
  0
LINE
  5
257
100
AcDbEntity
  8
0
100
AcDbLine
 62
7
  6
CONTINUOUS
 10
-26.238468228
 20
-32.6782455655
 11
-26.3218021971
 21
-32.635692379
  0
LINE
  5
258
100
AcDbEntity
  8
0
100
AcDbLine
 62
7
  6
CONTINUOUS
 10
-30.2426353795
 20
-34.0122880967
 11
-30.4613850457
 21
-33.8782455595
  0
LINE
  5
259
100
AcDbEntity
  8
0
100
AcDbLine
 62
7
  6
CONTINUOUS
 10
-31.9468019587
 20
-32.7633519532
 11
-31.7384687049
 21
-32.8910115236
  0
LINE
  5
25A
100
AcDbEntity
  8
0
100
AcDbLine
 62
7
  6
CONTINUOUS
 10
-30.8634687049
 20
-31.8271817477
 11
-31.0718017203
 21
-31.6995221885
  0
LINE
  5
25B
100
AcDbEntity
  8
0
100
AcDbLine
 62
7
  6
CONTINUOUS
 10
-31.6968017203
 20
-32.6782455655
 11
-31.8218017203
 21
-32.5931391926
  0
LINE
  5
25C
100
AcDbEntity
  8
0
100
AcDbLine
 62
7
  6
CONTINUOUS
 10
-31.1134687049
 20
-31.9122881206
 11
-30.9884687049
 21
-31.9973944934
  0
LINE
  5
25D
100
AcDbEntity
  8
0
100
AcDbLine
 62
7
  6
CONTINUOUS
 10
-28.3634687049
 20
-32.7207987519
 11
-28.2384687049
 21
-32.8059051396
  0
LINE
  5
25E
100
AcDbEntity
  8
0
100
AcDbLine
 62
7
  6
CONTINUOUS
 10
-26.5301352126
 20
-32.7207987519
 11
-26.4051352126
 21
-32.8059051396
  0
LINE
  5
25F
100
AcDbEntity
  8
0
100
AcDbLine
 62
7
  6
CONTINUOUS
 10
-27.4051352126
 20
-32.0399476798
 11
-27.2801352126
 21
-32.1250540526
  0
LINE
  5
260
100
AcDbEntity
  8
0
100
AcDbLine
 62
7
  6
CONTINUOUS
 10
-27.4468021971
 20
-31.1888838323
 11
-27.3218021971
 21
-31.2739902051
  0
LINE
  5
261
100
AcDbEntity
  8
0
100
AcDbLine
 62
7
  6
CONTINUOUS
 10
-25.5718021971
 20
-32.0399476798
 11
-25.4468021971
 21
-32.1250540526
  0
LINE
  5
262
100
AcDbEntity
  8
0
100
AcDbLine
 62
7
  6
CONTINUOUS
 10
-32.7801352126
 20
-31.1037774594
 11
-32.9468019587
 21
-30.9761179002
  0
LINE
  5
263
100
AcDbEntity
  8
0
100
AcDbLine
 62
7
  6
CONTINUOUS
 10
-28.1551352126
 20
-32.635692379
 11
-28.2384687049
 21
-32.5505859764
  0
LINE
  5
264
100
AcDbEntity
  8
0
100
AcDbLine
 62
7
  6
CONTINUOUS
 10
-26.3218021971
 20
-32.635692379
 11
-26.4051352126
 21
-32.5505859764
  0
LINE
  5
265
100
AcDbEntity
  8
0
100
AcDbLine
 62
7
  6
CONTINUOUS
 10
-27.0718021971
 20
-31.2314370187
 11
-27.238468228
 21
-31.061224273
  0
LINE
  5
266
100
AcDbEntity
  8
0
100
AcDbLine
 62
7
  6
CONTINUOUS
 10
-32.6551352126
 20
-31.2739902051
 11
-32.7801352126
 21
-31.1037774594
  0
LINE
  5
267
100
AcDbEntity
  8
0
100
AcDbLine
 62
7
  6
CONTINUOUS
 10
-30.1113853795
 20
-34.1910114797
 11
-30.2426353795
 21
-34.0122880967
  0
LINE
  5
268
100
AcDbEntity
  8
0
100
AcDbLine
 62
7
  6
CONTINUOUS
 10
-30.7384687049
 20
-31.9973944934
 11
-30.8634687049
 21
-31.8271817477
  0
LINE
  5
269
100
AcDbEntity
  8
0
100
AcDbLine
 62
7
  6
CONTINUOUS
 10
-30.3738853795
 20
-34.1910114797
 11
-30.2863852126
 21
-34.3250540169
  0
LINE
  5
26A
100
AcDbEntity
  8
0
100
AcDbLine
 62
7
  6
CONTINUOUS
 10
-30.9884687049
 20
-31.9973944934
 11
-30.9051352126
 21
-32.1250540526
  0
LINE
  5
26B
100
AcDbEntity
  8
0
100
AcDbLine
 62
7
  6
CONTINUOUS
 10
-28.4468017203
 20
-32.5931391926
 11
-28.3634687049
 21
-32.7207987519
  0
LWPOLYLINE
  5
26C
100
AcDbEntity
  8
RACCORDO
100
AcDbPolyline
 62
7
  6
CONTINUOUS
 90
22
 70
0
 10
-47.2901124449
 20
-3.6850366073
 10
-47.2868763183
 20
-3.6914105406
 10
-47.28105498
 20
-3.6976882949
 10
-47.27264843
 20
-3.7038698704
 10
-47.2615519734
 20
-3.7100030375
 10
-47.2478703051
 20
-3.7160400256
 10
-47.2319175098
 20
-3.7218375234
 10
-47.2136681421
 20
-3.7273724454
 10
-47.1931476474
 20
-3.732667877
 10
-47.1707464468
 20
-3.7376497631
 10
-47.1465175351
 20
-3.7423057904
 10
-47.1204079174
 20
-3.7466482722
 10
-47.0926490297
 20
-3.7506400925
 10
-47.063153979
 20
-3.7542902866
 10
-47.0320096583
 20
-3.7575898191
 10
-46.9997081832
 20
-3.7604744682
 10
-46.9661333826
 20
-3.7629359892
 10
-46.9314014274
 20
-3.7649826268
 10
-46.8963529464
 20
-3.7665748932
 10
-46.8612681489
 20
-3.7676996257
 10
-46.8258668254
 20
-3.768369987
 10
-46.790148976
 20
-3.7685859771
  0
LINE
  5
26D
100
AcDbEntity
  8
0
100
AcDbLine
 62
7
  6
CONTINUOUS
 10
-31.9926352126
 20
-34.3250540169
 11
-32.0801351291
 21
-34.1463306339
  0
LINE
  5
26E
100
AcDbEntity
  8
0
100
AcDbLine
 62
7
  6
CONTINUOUS
 10
-32.4884684665
 20
-32.2527136715
 11
-32.5718019587
 21
-32.0825008662
  0
LINE
  5
26F
100
AcDbEntity
  8
0
100
AcDbLine
 62
7
  6
CONTINUOUS
 10
-32.9051352126
 20
-31.3165433915
 11
-32.8634684665
 21
-31.4016497643
  0
LINE
  5
270
100
AcDbEntity
  8
0
100
AcDbLine
 62
7
  6
CONTINUOUS
 10
-32.1551352126
 20
-32.4229264172
 11
-32.0718019587
 21
-32.5931391926
  0
LINE
  5
271
100
AcDbEntity
  8
0
100
AcDbLine
 62
7
  6
CONTINUOUS
 10
-31.8218017203
 20
-32.5931391926
 11
-31.9051352126
 21
-32.4229264172
  0
LINE
  5
272
100
AcDbEntity
  8
0
100
AcDbLine
 62
7
  6
CONTINUOUS
 10
-31.511385296
 20
-35.3527136566
 11
-31.4238851291
 21
-35.5761179166
  0
LINE
  5
273
100
AcDbEntity
  8
0
100
AcDbLine
 62
7
  6
CONTINUOUS
 10
-29.9801353795
 20
-35.1293093653
 11
-30.0676350457
 21
-34.9059051366
  0
LINE
  5
274
100
AcDbEntity
  8
0
100
AcDbLine
 62
7
  6
CONTINUOUS
 10
-34.6551352126
 20
-32.1676072391
 11
-34.6134685857
 21
-32.2952668579
  0
LINE
  5
275
100
AcDbEntity
  8
0
100
AcDbLine
 62
7
  6
CONTINUOUS
 10
-33.4363852126
 20
-35.3080328109
 11
-33.3926352543
 21
-35.4420753481
  0
LINE
  5
276
100
AcDbEntity
  8
0
100
AcDbLine
 62
7
  6
CONTINUOUS
 10
-34.3634685857
 20
-32.2527136715
 11
-34.4051352126
 21
-32.1250540526
  0
LINE
  5
277
100
AcDbEntity
  8
0
100
AcDbLine
 62
7
  6
CONTINUOUS
 10
-34.6551352126
 20
-31.3165433915
 11
-34.6134685857
 21
-31.44420307
  0
LINE
  5
278
100
AcDbEntity
  8
0
100
AcDbLine
 62
7
  6
CONTINUOUS
 10
-34.3634685857
 20
-31.4016497643
 11
-34.4051352126
 21
-31.2739902051
  0
LINE
  5
279
100
AcDbEntity
  8
0
100
AcDbLine
 62
7
  6
CONTINUOUS
 10
-33.7384684665
 20
-32.50803279
 11
-33.7801352126
 21
-32.3803732307
  0
LINE
  5
27A
100
AcDbEntity
  8
0
100
AcDbLine
 62
7
  6
CONTINUOUS
 10
-33.6134684665
 20
-31.6569690021
 11
-33.6551352126
 21
-31.5293094428
  0
LINE
  5
27B
100
AcDbEntity
  8
0
100
AcDbLine
 62
7
  6
CONTINUOUS
 10
-31.9488851291
 20
-34.4590966793
 11
-31.9926352126
 21
-34.3250540169
  0
LINE
  5
27C
100
AcDbEntity
  8
0
100
AcDbLine
 62
7
  6
CONTINUOUS
 10
-32.6134684665
 20
-31.4016497643
 11
-32.6551352126
 21
-31.2739902051
  0
LINE
  5
27D
100
AcDbEntity
  8
0
100
AcDbLine
 62
7
  6
CONTINUOUS
 10
-31.248885296
 20
-35.4420753481
 11
-31.2926351291
 21
-35.3080328109
  0
LINE
  5
27E
100
AcDbEntity
  8
0
100
AcDbLine
 62
7
  6
CONTINUOUS
 10
-33.8301352126
 20
-34.3250540169
 11
-33.8738851709
 21
-34.1463306339
  0
LINE
  5
27F
100
AcDbEntity
  8
0
100
AcDbLine
 62
7
  6
CONTINUOUS
 10
-34.0301352126
 20
-32.3803732307
 11
-33.9884685857
 21
-32.5505859764
  0
LINE
  5
280
100
AcDbEntity
  8
0
100
AcDbLine
 62
7
  6
CONTINUOUS
 10
-33.9051352126
 20
-31.5718626292
 11
-33.8634684665
 21
-31.7420753749
  0
LINE
  5
281
100
AcDbEntity
  8
0
100
AcDbLine
 62
7
  6
CONTINUOUS
 10
-36.9051352126
 20
-30.4335647138
 11
-36.9051352126
 21
-36.4335647138
  0
LINE
  5
282
100
AcDbEntity
  8
0
100
AcDbLine
 62
7
  6
CONTINUOUS
 10
-35.9051352126
 20
-30.9335647138
 11
-35.9051352126
 21
-32.9335647138
  0
LINE
  5
283
100
AcDbEntity
  8
0
100
AcDbLine
 62
7
  6
CONTINUOUS
 10
-34.1554642126
 20
34.1045002862
 11
-34.5165962126
 21
30.1049882862
  0
LINE
  5
284
100
AcDbEntity
  8
0
100
AcDbLine
 62
7
  6
CONTINUOUS
 10
-29.1023652126
 20
31.5212662862
 11
-28.6866782126
 21
33.0055362862
  0
LINE
  5
285
100
AcDbEntity
  8
0
100
AcDbLine
 62
7
  6
CONTINUOUS
 10
-29.5035072126
 20
30.1049882862
 11
-29.2731392126
 21
30.9034332862
  0
LINE
  5
286
100
AcDbEntity
  8
0
100
AcDbLine
 62
7
  6
CONTINUOUS
 10
-29.0748032126
 20
34.1045002862
 11
-30.3293052126
 21
30.1049882862
  0
LINE
  5
287
100
AcDbEntity
  8
RACCORDO
100
AcDbLine
 62
7
  6
CONTINUOUS
 10
-45.527812292
 20
-3.6405467179
 11
-45.5667840963
 21
-3.7202982556
  0
LWPOLYLINE
  5
288
100
AcDbEntity
  8
0
100
AcDbPolyline
 62
7
  6
CONTINUOUS
 90
51
 70
0
 10
-24.4975502883
 20
32.0866434187
 10
-24.4814947439
 20
32.1003107091
 10
-24.4652366377
 20
32.1145011551
 10
-24.4487640674
 20
32.1291671846
 10
-24.4320889352
 20
32.1443563697
 10
-24.4152528433
 20
32.1602847096
 10
-24.3982447895
 20
32.1769183583
 10
-24.3810757758
 20
32.1942911619
 10
-24.3638204105
 20
32.2127206573
 10
-24.3464610269
 20
32.2322091939
 10
-24.3290152916
 20
32.2527544223
 10
-24.311610813
 20
32.2746668306
 10
-24.2942339369
 20
32.2980196532
 10
-24.2768983175
 20
32.3227396556
 10
-24.2597725253
 20
32.3489176234
 10
-24.2428365854
 20
32.376550132
 10
-24.2261104727
 20
32.4056406058
 10
-24.2098226826
 20
32.4362901036
 10
-24.1939391926
 20
32.4684485752
 10
-24.1784940251
 20
32.5021660707
 10
-24.1638177436
 20
32.5376937987
 10
-24.1498808761
 20
32.5750465762
 10
-24.1367128945
 20
32.6142095863
 10
-24.1247327781
 20
32.6553895872
 10
-24.1139183158
 20
32.6986266182
 10
-24.1042917187
 20
32.74388064
 10
-24.0963385986
 20
32.7912382928
 10
-24.0900426495
 20
32.8407011883
 10
-24.0854201774
 20
32.8922677148
 10
-24.0830057123
 20
32.9460196769
 10
-24.0826383226
 20
33.001971064
 10
-24.0844789399
 20
33.0601078866
 10
-24.0895448897
 20
33.1204699816
 10
-24.0977392175
 20
33.1835577426
 10
-24.1091588779
 20
33.248870776
 10
-24.1251120602
 20
33.3149477371
 10
-24.1461256741
 20
33.3822866991
 10
-24.1716728099
 20
33.4503895889
 10
-24.2014809281
 20
33.5163008424
 10
-24.2360136276
 20
33.5796430261
 10
-24.2748073095
 20
33.6407935735
 10
-24.3161986373
 20
33.6979292203
 10
-24.3603643226
 20
33.7506267046
 10
-24.4071276538
 20
33.7993092883
 10
-24.454295159
 20
33.8434234923
 10
-24.5013882108
 20
33.8826145046
 10
-24.5488854367
 20
33.9172371373
 10
-24.5960292466
 20
33.9478023477
 10
-24.6425671105
 20
33.9744804548
 10
-24.6887515585
 20
33.9971011396
 10
-24.7345825906
 20
34.0156644021
  0
LINE
  5
289
100
AcDbEntity
  8
0
100
AcDbLine
 62
253
  6
CONTINUOUS
 10
19.1898292824
 20
-35.5189408997
 11
17.249638393
 21
-35.5868012691
  0
LINE
  5
28A
100
AcDbEntity
  8
0
100
AcDbLine
 62
7
  6
CONTINUOUS
 10
-11.9051352126
 20
-37.9335647138
 11
12.0948647874
 21
-37.9335647138
  0
LINE
  5
28B
100
AcDbEntity
  8
0
100
AcDbLine
 62
7
  6
CONTINUOUS
 10
-36.9051352126
 20
-36.4335647138
 11
-23.9051352126
 21
-36.4335647138
  0
LINE
  5
28C
100
AcDbEntity
  8
0
100
AcDbLine
 62
7
  6
CONTINUOUS
 10
-35.4051352126
 20
-35.9335647138
 11
-33.8301352126
 21
-35.9335647138
  0
LINE
  5
28D
100
AcDbEntity
  8
0
100
AcDbLine
 62
7
  6
CONTINUOUS
 10
-30.8551350457
 20
-35.9335647138
 11
-30.6363853795
 21
-35.9335647138
  0
LINE
  5
28E
100
AcDbEntity
  8
0
100
AcDbLine
 62
7
  6
CONTINUOUS
 10
-29.1926353795
 20
-35.9335647138
 11
-28.9301353795
 21
-35.9335647138
  0
LINE
  5
28F
100
AcDbEntity
  8
0
100
AcDbLine
 62
7
  6
CONTINUOUS
 10
-27.2676352126
 20
-35.9335647138
 11
-27.0051352126
 21
-35.9335647138
  0
LINE
  5
290
100
AcDbEntity
  8
0
100
AcDbLine
 62
253
  6
CONTINUOUS
 10
-17.0599189692
 20
-35.5868038538
 11
-19.000114803
 21
-35.5189362434
  0
LINE
  5
291
100
AcDbEntity
  8
0
100
AcDbLine
 62
7
  6
CONTINUOUS
 10
-34.2238852126
 20
-33.8782455595
 11
-34.4863852126
 21
-33.8335647138
  0
LINE
  5
292
100
AcDbEntity
  8
0
100
AcDbLine
 62
7
  6
CONTINUOUS
 10
-32.430135296
 20
-33.8782455595
 11
-32.692635296
 21
-33.8335647138
  0
LINE
  5
293
100
AcDbEntity
  8
0
100
AcDbLine
 62
7
  6
CONTINUOUS
 10
-27.6551352126
 20
-31.9973944934
 11
-27.4051352126
 21
-32.0399476798
  0
LINE
  5
294
100
AcDbEntity
  8
0
100
AcDbLine
 62
7
  6
CONTINUOUS
 10
-25.8218021971
 20
-31.9973944934
 11
-25.5718021971
 21
-32.0399476798
  0
LINE
  5
295
100
AcDbEntity
  8
0
100
AcDbLine
 62
7
  6
CONTINUOUS
 10
-34.5301352335
 20
-34.0569689424
 11
-34.3113852543
 21
-34.1016497882
  0
LINE
  5
296
100
AcDbEntity
  8
0
100
AcDbLine
 62
7
  6
CONTINUOUS
 10
-30.4176352126
 20
-34.6378200622
 11
-30.6363853795
 21
-34.5931392165
  0
LINE
  5
297
100
AcDbEntity
  8
0
100
AcDbLine
 62
7
  6
CONTINUOUS
 10
-32.692635296
 20
-34.0569689424
 11
-32.4738851291
 21
-34.1016497882
  0
LINE
  5
298
100
AcDbEntity
  8
0
100
AcDbLine
 62
7
  6
CONTINUOUS
 10
-30.4613850457
 20
-33.8782455595
 11
-30.6801352126
 21
-33.8335647138
  0
LINE
  5
299
100
AcDbEntity
  8
0
100
AcDbLine
 62
7
  6
CONTINUOUS
 10
-33.6551352126
 20
-32.8910115236
 11
-33.4468019587
 21
-32.9335647138
  0
LINE
  5
29A
100
AcDbEntity
  8
0
100
AcDbLine
 62
7
  6
CONTINUOUS
 10
-31.7384687049
 20
-32.8910115236
 11
-31.5301352126
 21
-32.9335647138
  0
LINE
  5
29B
100
AcDbEntity
  8
0
100
AcDbLine
 62
7
  6
CONTINUOUS
 10
-32.9051352126
 20
-31.8271817477
 11
-33.1134684665
 21
-31.7846285613
  0
LINE
  5
29C
100
AcDbEntity
  8
0
100
AcDbLine
 62
7
  6
CONTINUOUS
 10
-27.863468228
 20
-32.7207987519
 11
-28.0718017203
 21
-32.6782455655
  0
LINE
  5
29D
100
AcDbEntity
  8
0
100
AcDbLine
 62
7
  6
CONTINUOUS
 10
-34.6968018395
 20
-30.9761179002
 11
-34.9051352126
 21
-30.9335647138
  0
LINE
  5
29E
100
AcDbEntity
  8
0
100
AcDbLine
 62
7
  6
CONTINUOUS
 10
-31.0718017203
 20
-31.6995221885
 11
-31.2801352126
 21
-31.6569690021
  0
LINE
  5
29F
100
AcDbEntity
  8
0
100
AcDbLine
 62
7
  6
CONTINUOUS
 10
-26.0301352126
 20
-32.7207987519
 11
-26.238468228
 21
-32.6782455655
  0
LINE
  5
2A0
100
AcDbEntity
  8
0
100
AcDbLine
 62
7
  6
CONTINUOUS
 10
-32.9468019587
 20
-30.9761179002
 11
-33.1551352126
 21
-30.9335647138
  0
LINE
  5
2A1
100
AcDbEntity
  8
0
100
AcDbLine
 62
7
  6
CONTINUOUS
 10
-27.6551352126
 20
-31.1463306458
 11
-27.4468021971
 21
-31.1888838323
  0
LINE
  5
2A2
100
AcDbEntity
  8
0
100
AcDbLine
 62
7
  6
CONTINUOUS
 10
-33.4468019587
 20
-32.6782455655
 11
-33.6134684665
 21
-32.635692379
  0
LINE
  5
2A3
100
AcDbEntity
  8
0
100
AcDbLine
 62
7
  6
CONTINUOUS
 10
-31.5301352126
 20
-32.7207987519
 11
-31.6968017203
 21
-32.6782455655
  0
LINE
  5
2A4
100
AcDbEntity
  8
0
100
AcDbLine
 62
7
  6
CONTINUOUS
 10
-33.5301352126
 20
-31.9973944934
 11
-33.3634684665
 21
-32.0399476798
  0
LINE
  5
2A5
100
AcDbEntity
  8
0
100
AcDbLine
 62
7
  6
CONTINUOUS
 10
-33.1134684665
 20
-32.0399476798
 11
-32.9468019587
 21
-32.0825008662
  0
LINE
  5
2A6
100
AcDbEntity
  8
0
100
AcDbLine
 62
7
  6
CONTINUOUS
 10
-28.0718017203
 20
-32.8910115236
 11
-27.9051352126
 21
-32.9335647138
  0
LINE
  5
2A7
100
AcDbEntity
  8
0
100
AcDbLine
 62
7
  6
CONTINUOUS
 10
-31.2801352126
 20
-31.8697349341
 11
-31.1134687049
 21
-31.9122881206
  0
LINE
  5
2A8
100
AcDbEntity
  8
0
100
AcDbLine
 62
7
  6
CONTINUOUS
 10
-26.238468228
 20
-32.8910115236
 11
-26.0718021971
 21
-32.9335647138
  0
LINE
  5
2A9
100
AcDbEntity
  8
0
100
AcDbLine
 62
7
  6
CONTINUOUS
 10
-33.1134684665
 20
-31.1888838323
 11
-32.9884684665
 21
-31.2314370187
  0
LINE
  5
2AA
100
AcDbEntity
  8
0
100
AcDbLine
 62
7
  6
CONTINUOUS
 10
-27.113468228
 20
-31.9973944934
 11
-27.3218021971
 21
-31.9122881206
  0
LINE
  5
2AB
100
AcDbEntity
  8
0
100
AcDbLine
 62
7
  6
CONTINUOUS
 10
-25.2801352126
 20
-31.9973944934
 11
-25.488468228
 21
-31.9122881206
  0
LINE
  5
2AC
100
AcDbEntity
  8
0
100
AcDbLine
 62
7
  6
CONTINUOUS
 10
-27.238468228
 20
-31.061224273
 11
-27.4051352126
 21
-30.9761179002
  0
LINE
  5
2AD
100
AcDbEntity
  8
0
100
AcDbLine
 62
7
  6
CONTINUOUS
 10
-25.4051352126
 20
-31.061224273
 11
-25.5718021971
 21
-30.9761179002
  0
LINE
  5
2AE
100
AcDbEntity
  8
0
100
AcDbLine
 62
7
  6
CONTINUOUS
 10
-25.613468228
 20
-31.1888838323
 11
-25.488468228
 21
-31.2739902051
  0
LINE
  5
2AF
100
AcDbEntity
  8
0
100
AcDbLine
 62
7
  6
CONTINUOUS
 10
-25.238468228
 20
-31.2314370187
 11
-25.4051352126
 21
-31.061224273
  0
LINE
  5
2B0
100
AcDbEntity
  8
0
100
AcDbLine
 62
7
  6
CONTINUOUS
 10
-27.0301352126
 20
-32.1250540526
 11
-27.113468228
 21
-31.9973944934
  0
LINE
  5
2B1
100
AcDbEntity
  8
0
100
AcDbLine
 62
7
  6
CONTINUOUS
 10
-26.613468228
 20
-32.5931391926
 11
-26.5301352126
 21
-32.7207987519
  0
LINE
  5
2B2
100
AcDbEntity
  8
0
100
AcDbLine
 62
7
  6
CONTINUOUS
 10
-27.3218021971
 20
-31.2739902051
 11
-27.238468228
 21
-31.4016497643
  0
LINE
  5
2B3
100
AcDbEntity
  8
0
100
AcDbLine
 62
7
  6
CONTINUOUS
 10
-25.1968021971
 20
-32.1250540526
 11
-25.2801352126
 21
-31.9973944934
  0
LINE
  5
2B4
100
AcDbEntity
  8
0
100
AcDbLine
 62
7
  6
CONTINUOUS
 10
-25.488468228
 20
-31.2739902051
 11
-25.4051352126
 21
-31.4016497643
  0
LINE
  5
2B5
100
AcDbEntity
  8
0
100
AcDbLine
 62
7
  6
CONTINUOUS
 10
-28.2384687049
 20
-32.5505859764
 11
-28.2801352126
 21
-32.4654796036
  0
LINE
  5
2B6
100
AcDbEntity
  8
0
100
AcDbLine
 62
7
  6
CONTINUOUS
 10
-27.2801352126
 20
-32.1250540526
 11
-27.1968021971
 21
-32.2952668579
  0
LINE
  5
2B7
100
AcDbEntity
  8
0
100
AcDbLine
 62
7
  6
CONTINUOUS
 10
-26.4051352126
 20
-32.5505859764
 11
-26.4468021971
 21
-32.4654796036
  0
LINE
  5
2B8
100
AcDbEntity
  8
0
100
AcDbLine
 62
7
  6
CONTINUOUS
 10
-25.4468021971
 20
-32.1250540526
 11
-25.363468228
 21
-32.2952668579
  0
LINE
  5
2B9
100
AcDbEntity
  8
RACCORDO
100
AcDbLine
 62
7
  6
CONTINUOUS
 10
-45.5667840963
 20
3.8531688281
 11
-45.527812292
 21
3.7734172904
  0
LINE
  5
2BA
100
AcDbEntity
  8
0
100
AcDbLine
 62
7
  6
CONTINUOUS
 10
-30.6551352126
 20
-32.2101604851
 11
-30.7384687049
 21
-31.9973944934
  0
LWPOLYLINE
  5
2BB
100
AcDbEntity
  8
RACCORDO
100
AcDbPolyline
 62
7
  6
CONTINUOUS
 90
19
 70
0
 10
-43.421787495
 20
3.6731546737
 10
-43.4233676538
 20
3.6777687925
 10
-43.4271363543
 20
3.682286044
 10
-43.4330935964
 20
3.6867064281
 10
-43.4413506101
 20
3.6910718429
 10
-43.4517961654
 20
3.6953403904
 10
-43.4640965725
 20
3.6993863767
 10
-43.4782535061
 20
3.7031871965
 10
-43.4942652915
 20
3.7067654552
 10
-43.5117932143
 20
3.710063275
 10
-43.5308318256
 20
3.7130779779
 10
-43.5513865743
 20
3.7158122418
 10
-43.5731350921
 20
3.718216223
 10
-43.5962173788
 20
3.7202908966
 10
-43.6204934346
 20
3.7220352875
 10
-43.6452208921
 20
3.723396627
 10
-43.6701522953
 20
3.7243573257
 10
-43.6955351002
 20
3.7249349729
 10
-43.7213693066
 20
3.7251295689
  0
LINE
  5
2BC
100
AcDbEntity
  8
0
100
AcDbLine
 62
7
  6
CONTINUOUS
 10
-30.2426353795
 20
-35.0399476738
 11
-30.1988850457
 21
-35.1739902736
  0
LINE
  5
2BD
100
AcDbEntity
  8
0
100
AcDbLine
 62
7
  6
CONTINUOUS
 10
-30.9051352126
 20
-32.1250540526
 11
-30.8634687049
 21
-32.2527136715
  0
LINE
  5
2BE
100
AcDbEntity
  8
0
100
AcDbLine
 62
7
  6
CONTINUOUS
 10
-30.0676350457
 20
-34.3250540169
 11
-30.1113853795
 21
-34.1910114797
  0
LINE
  5
2BF
100
AcDbEntity
  8
0
100
AcDbLine
 62
7
  6
CONTINUOUS
 10
-28.4884687049
 20
-32.4654796036
 11
-28.4468017203
 21
-32.5931391926
  0
LINE
  5
2C0
100
AcDbEntity
  8
0
100
AcDbLine
 62
7
  6
CONTINUOUS
 10
-33.4801351709
 20
-35.0846285196
 11
-33.4363852126
 21
-35.3080328109
  0
LINE
  5
2C1
100
AcDbEntity
  8
0
100
AcDbLine
 62
7
  6
CONTINUOUS
 10
-31.905135296
 20
-34.6825009079
 11
-31.9488851291
 21
-34.4590966793
  0
LINE
  5
2C2
100
AcDbEntity
  8
0
100
AcDbLine
 62
7
  6
CONTINUOUS
 10
-33.217635296
 20
-35.3080328109
 11
-33.2613851291
 21
-35.0399476738
  0
LINE
  5
2C3
100
AcDbEntity
  8
0
100
AcDbLine
 62
7
  6
CONTINUOUS
 10
-32.167635296
 20
-34.4590966793
 11
-32.1238852126
 21
-34.7271817537
  0
LINE
  5
2C4
100
AcDbEntity
  8
0
100
AcDbLine
 62
7
  6
CONTINUOUS
 10
-31.5551351291
 20
-35.0399476738
 11
-31.511385296
 21
-35.3527136566
  0
LINE
  5
2C5
100
AcDbEntity
  8
RACCORDO
100
AcDbLine
 62
253
  6
CONTINUOUS
 10
-36.0041620232
 20
41.2657266289
 11
-36.0998697101
 21
42.5746488179
  0
LINE
  5
2C6
100
AcDbEntity
  8
RACCORDO
100
AcDbLine
 62
253
  6
CONTINUOUS
 10
-36.2098324484
 20
44.0785266444
 11
-36.2563064881
 21
44.7141171989
  0
LINE
  5
2C7
100
AcDbEntity
  8
RACCORDO
100
AcDbLine
 62
253
  6
CONTINUOUS
 10
-36.3237502173
 20
45.6364944553
 11
-36.3656132011
 21
46.2090230601
  0
LINE
  5
2C8
100
AcDbEntity
  8
0
100
AcDbLine
 62
7
  6
CONTINUOUS
 10
-35.8008802126
 20
34.1047402862
 11
-35.8008802126
 21
30.1049882862
  0
LINE
  5
2C9
100
AcDbEntity
  8
0
100
AcDbLine
 62
7
  6
CONTINUOUS
 10
-35.6551352126
 20
-32.6782455655
 11
-35.6551352126
 21
-32.0399476798
  0
LINE
  5
2CA
100
AcDbEntity
  8
0
100
AcDbLine
 62
7
  6
CONTINUOUS
 10
-35.6551352126
 20
-31.7846285613
 11
-35.6551352126
 21
-31.1888838323
  0
LINE
  5
2CB
100
AcDbEntity
  8
0
100
AcDbLine
 62
7
  6
CONTINUOUS
 10
-35.4051352126
 20
-35.7101604538
 11
-35.4051352126
 21
-35.9335647138
  0
LINE
  5
2CC
100
AcDbEntity
  8
0
100
AcDbLine
 62
7
  6
CONTINUOUS
 10
-34.9660252126
 20
30.1049882862
 11
-34.9660252126
 21
34.1047402862
  0
LINE
  5
2CD
100
AcDbEntity
  8
0
100
AcDbLine
 62
7
  6
CONTINUOUS
 10
-34.6134685857
 20
-31.44420307
 11
-34.6134685857
 21
-31.5293094428
  0
LINE
  5
2CE
100
AcDbEntity
  8
0
100
AcDbLine
 62
7
  6
CONTINUOUS
 10
-34.6134685857
 20
-32.2952668579
 11
-34.6134685857
 21
-32.4229264172
  0
LINE
  5
2CF
100
AcDbEntity
  8
0
100
AcDbLine
 62
7
  6
CONTINUOUS
 10
-34.3634685857
 20
-32.4654796036
 11
-34.3634685857
 21
-32.2527136715
  0
LINE
  5
2D0
100
AcDbEntity
  8
0
100
AcDbLine
 62
7
  6
CONTINUOUS
 10
-34.3634685857
 20
-31.5718626292
 11
-34.3634685857
 21
-31.4016497643
  0
LINE
  5
2D1
100
AcDbEntity
  8
0
100
AcDbLine
 62
7
  6
CONTINUOUS
 10
-34.0926352126
 20
-34.3250540169
 11
-34.0926352126
 21
-34.4144158335
  0
LINE
  5
2D2
100
AcDbEntity
  8
0
100
AcDbLine
 62
7
  6
CONTINUOUS
 10
-33.9051352126
 20
-31.4016497643
 11
-33.9051352126
 21
-31.5718626292
  0
LINE
  5
2D3
100
AcDbEntity
  8
0
100
AcDbLine
 62
7
  6
CONTINUOUS
 10
-33.8301352126
 20
-35.9335647138
 11
-33.8301352126
 21
-35.7101604538
  0
LINE
  5
2D4
100
AcDbEntity
  8
0
100
AcDbLine
 62
7
  6
CONTINUOUS
 10
-33.8301352126
 20
-34.4144158335
 11
-33.8301352126
 21
-34.3250540169
  0
LINE
  5
2D5
100
AcDbEntity
  8
0
100
AcDbLine
 62
7
  6
CONTINUOUS
 10
-33.6551352126
 20
-31.5293094428
 11
-33.6551352126
 21
-31.44420307
  0
LINE
  5
2D6
100
AcDbEntity
  8
0
100
AcDbLine
 62
7
  6
CONTINUOUS
 10
-33.4801351709
 20
-34.6825009079
 11
-33.4801351709
 21
-35.0846285196
  0
LINE
  5
2D7
100
AcDbEntity
  8
0
100
AcDbLine
 62
7
  6
CONTINUOUS
 10
-33.2613851291
 20
-35.0399476738
 11
-33.2613851291
 21
-34.7271817537
  0
LINE
  5
2D8
100
AcDbEntity
  8
0
100
AcDbLine
 62
7
  6
CONTINUOUS
 10
-32.7384684665
 20
-32.2952668579
 11
-32.7384684665
 21
-32.4229264172
  0
LINE
  5
2D9
100
AcDbEntity
  8
0
100
AcDbLine
 62
7
  6
CONTINUOUS
 10
-32.4884684665
 20
-32.4654796036
 11
-32.4884684665
 21
-32.2527136715
  0
LINE
  5
2DA
100
AcDbEntity
  8
0
100
AcDbLine
 62
7
  6
CONTINUOUS
 10
-32.1551352126
 20
-30.9335647138
 11
-32.1551352126
 21
-32.0399476798
  0
LINE
  5
2DB
100
AcDbEntity
  8
0
100
AcDbLine
 62
7
  6
CONTINUOUS
 10
-32.1238852126
 20
-34.7271817537
 11
-32.1238852126
 21
-35.0399476738
  0
LINE
  5
2DC
100
AcDbEntity
  8
0
100
AcDbLine
 62
7
  6
CONTINUOUS
 10
-31.9468019587
 20
-31.8271817477
 11
-31.9468019587
 21
-31.1463306458
  0
LINE
  5
2DD
100
AcDbEntity
  8
0
100
AcDbLine
 62
7
  6
CONTINUOUS
 10
-31.905135296
 20
-35.0846285196
 11
-31.905135296
 21
-34.6825009079
  0
LINE
  5
2DE
100
AcDbEntity
  8
0
100
AcDbLine
 62
7
  6
CONTINUOUS
 10
-31.5551351291
 20
-34.7271817537
 11
-31.5551351291
 21
-35.0399476738
  0
LINE
  5
2DF
100
AcDbEntity
  8
0
100
AcDbLine
 62
7
  6
CONTINUOUS
 10
-31.3363852126
 20
-34.8165434452
 11
-31.3363852126
 21
-34.7271817537
  0
LINE
  5
2E0
100
AcDbEntity
  8
0
100
AcDbLine
 62
7
  6
CONTINUOUS
 10
-31.2926351291
 20
-35.3080328109
 11
-31.2926351291
 21
-35.1739902736
  0
LINE
  5
2E1
100
AcDbEntity
  8
0
100
AcDbLine
 62
7
  6
CONTINUOUS
 10
-33.7179122126
 20
30.1049882862
 11
-33.5377502126
 21
32.7165942862
  0
LINE
  5
2E2
100
AcDbEntity
  8
RACCORDO
100
AcDbLine
 62
253
  6
CONTINUOUS
 10
-36.0041620232
 20
-41.1328560564
 11
-36.0998697101
 21
-42.4417782454
  0
LINE
  5
2E3
100
AcDbEntity
  8
RACCORDO
100
AcDbLine
 62
253
  6
CONTINUOUS
 10
-36.2098324484
 20
-43.9456560719
 11
-36.2563064881
 21
-44.5812466264
  0
LINE
  5
2E4
100
AcDbEntity
  8
RACCORDO
100
AcDbLine
 62
253
  6
CONTINUOUS
 10
-36.3237502173
 20
-45.5036238829
 11
-36.3656132011
 21
-46.0761524877
  0
LWPOLYLINE
  5
2E5
100
AcDbEntity
  8
RACCORDO
100
AcDbPolyline
 62
253
  6
CONTINUOUS
 90
13
 70
0
 10
-23.0217834103
 20
22.7790064939
 10
-23.0527338778
 20
22.7277495497
 10
-23.0813042167
 20
22.675137695
 10
-23.1074914164
 20
22.6211770254
 10
-23.1313337632
 20
22.5659647633
 10
-23.1527869172
 20
22.5094160115
 10
-23.1717238234
 20
22.4512639155
 10
-23.1882392852
 20
22.3913393953
 10
-23.2022323098
 20
22.3298241741
 10
-23.2132814469
 20
22.266979185
 10
-23.2212435028
 20
22.2028971592
 10
-23.2262542136
 20
22.1375010983
 10
-23.2283100207
 20
22.0707985583
  0
LWPOLYLINE
  5
2E6
100
AcDbEntity
  8
RACCORDO
100
AcDbPolyline
 62
253
  6
CONTINUOUS
 90
13
 70
0
 10
-22.9409050892
 20
22.7423641194
 10
-22.9716095199
 20
22.6936543656
 10
-23.000034193
 20
22.6434859108
 10
-23.0261068072
 20
22.5919651071
 10
-23.0496674455
 20
22.5394257558
 10
-23.0707674668
 20
22.4857659488
 10
-23.089564573
 20
22.4304064582
 10
-23.1059651862
 20
22.3732241327
 10
-23.1197438936
 20
22.3145284575
 10
-23.1307589675
 20
22.2543683668
 10
-23.138857708
 20
22.1928489069
 10
-23.1438881291
 20
22.130133118
 10
-23.145706131
 20
22.0663758925
  0
LWPOLYLINE
  5
2E7
100
AcDbEntity
  8
RACCORDO
100
AcDbPolyline
 62
7
  6
CONTINUOUS
 90
19
 70
0
 10
-45.527812292
 20
-3.6405467179
 10
-45.5246116209
 20
-3.6361681571
 10
-45.5194485786
 20
-3.6318996759
 10
-45.5123231649
 20
-3.6277412746
 10
-45.50312721
 20
-3.623657511
 10
-45.4919688837
 20
-3.6196838271
 10
-45.4791726961
 20
-3.615926549
 10
-45.4647447113
 20
-3.6124050504
 10
-45.4486788652
 20
-3.6090999574
 10
-45.4312814755
 20
-3.6060594747
 10
-45.4125591625
 20
-3.6032859017
 10
-45.392505306
 20
-3.600776939
 10
-45.3714063628
 20
-3.5985738928
 10
-45.3491406325
 20
-3.596675846
 10
-45.3258298155
 20
-3.5950837159
 10
-45.3021254707
 20
-3.59384156
 10
-45.2782447844
 20
-3.5929640645
 10
-45.2539705703
 20
-3.5924365433
 10
-45.2293028284
 20
-3.5922589964
  0
LINE
  5
2E8
100
AcDbEntity
  8
RACCORDO
100
AcDbLine
 62
253
  6
CONTINUOUS
 10
-41.1044265552
 20
-36.0325915244
 11
-42.4133487442
 21
-36.1282992112
  0
LINE
  5
2E9
100
AcDbEntity
  8
RACCORDO
100
AcDbLine
 62
253
  6
CONTINUOUS
 10
-43.9172265707
 20
-36.2382619496
 11
-44.5528171252
 21
-36.2847359893
  0
LINE
  5
2EA
100
AcDbEntity
  8
RACCORDO
100
AcDbLine
 62
253
  6
CONTINUOUS
 10
-45.4751943817
 20
-36.3521797185
 11
-46.0477229865
 21
-36.3940427023
  0
LWPOLYLINE
  5
2EB
100
AcDbEntity
  8
0
100
AcDbPolyline
 62
253
  6
CONTINUOUS
 90
4
 70
0
 10
21.8004750999
 20
-32.506681394
 10
19.3613262513
 20
-32.6105904871
 10
15.5068721675
 20
-32.7449307858
 10
14.4414029525
 20
-32.7738115625
  0
LWPOLYLINE
  5
2EC
100
AcDbEntity
  8
0
100
AcDbPolyline
 62
253
  6
CONTINUOUS
 90
4
 70
0
 10
21.8417809807
 20
-32.0572214588
 10
19.3645967725
 20
-32.1627383321
 10
15.5122870668
 20
-32.2969696355
 10
14.366141309
 20
-32.3280262328
  0
LINE
  5
2ED
100
AcDbEntity
  8
0
100
AcDbLine
 62
7
  6
CONTINUOUS
 10
-0.4935652126
 20
-35.8396817138
 11
0.6886807874
 21
-35.8396817138
  0
LINE
  5
2EE
100
AcDbEntity
  8
0
100
AcDbLine
 62
7
  6
CONTINUOUS
 10
-30.5926350457
 20
-35.7101604538
 11
-30.8988853795
 21
-35.7101604538
  0
LINE
  5
2EF
100
AcDbEntity
  8
0
100
AcDbLine
 62
7
  6
CONTINUOUS
 10
-33.8301352126
 20
-35.7101604538
 11
-35.0551352022
 21
-35.7101604538
  0
LINE
  5
2F0
100
AcDbEntity
  8
0
100
AcDbLine
 62
7
  6
CONTINUOUS
 10
0.6886807874
 20
-35.4230167138
 11
0.3195687874
 21
-35.4230167138
  0
LINE
  5
2F1
100
AcDbEntity
  8
0
100
AcDbLine
 62
7
  6
CONTINUOUS
 10
-0.1243102126
 20
-35.4230167138
 11
-0.4935652126
 21
-35.4230167138
  0
LINE
  5
2F2
100
AcDbEntity
  8
0
100
AcDbLine
 62
7
  6
CONTINUOUS
 10
-30.8988853795
 20
-34.8165434452
 11
-30.5926350457
 21
-34.8165434452
  0
LINE
  5
2F3
100
AcDbEntity
  8
0
100
AcDbLine
 62
7
  6
CONTINUOUS
 10
6.8678647874
 20
-34.7135647138
 11
7.1918647874
 21
-34.7135647138
  0
LINE
  5
2F4
100
AcDbEntity
  8
0
100
AcDbLine
 62
7
  6
CONTINUOUS
 10
8.9978647874
 20
-34.7135647138
 11
9.3218647874
 21
-34.7135647138
  0
LINE
  5
2F5
100
AcDbEntity
  8
0
100
AcDbLine
 62
7
  6
CONTINUOUS
 10
-30.6363853795
 20
-34.5931392165
 11
-30.8551350457
 21
-34.5931392165
  0
LINE
  5
2F6
100
AcDbEntity
  8
0
100
AcDbLine
 62
7
  6
CONTINUOUS
 10
9.1922317874
 20
-34.4735647138
 11
9.1274977874
 21
-34.4735647138
  0
LINE
  5
2F7
100
AcDbEntity
  8
0
100
AcDbLine
 62
7
  6
CONTINUOUS
 10
7.0622317874
 20
-34.4735647138
 11
6.9974977874
 21
-34.4735647138
  0
LINE
  5
2F8
100
AcDbEntity
  8
0
100
AcDbLine
 62
7
  6
CONTINUOUS
 10
-35.3613852113
 20
-34.3250540169
 11
-35.1426352126
 21
-34.3250540169
  0
LINE
  5
2F9
100
AcDbEntity
  8
0
100
AcDbLine
 62
7
  6
CONTINUOUS
 10
-30.2863852126
 20
-34.3250540169
 11
-30.0676350457
 21
-34.3250540169
  0
LINE
  5
2FA
100
AcDbEntity
  8
ASSI
100
AcDbLine
 62
7
  6
CONTINUOUS
 10
-6.2480802126
 20
-34.3085647138
 11
-4.7875792126
 21
-34.3085647138
  0
LINE
  5
2FB
100
AcDbEntity
  8
0
100
AcDbLine
 62
7
  6
CONTINUOUS
 10
-34.7051351917
 20
-34.0569689424
 11
-34.5301352335
 21
-34.0569689424
  0
LINE
  5
2FC
100
AcDbEntity
  8
0
100
AcDbLine
 62
7
  6
CONTINUOUS
 10
-30.8988853795
 20
-34.0569689424
 11
-30.6363853795
 21
-34.0569689424
  0
LINE
  5
2FD
100
AcDbEntity
  8
0
100
AcDbLine
 62
7
  6
CONTINUOUS
 10
-29.6301352126
 20
-34.0569689424
 11
-28.3176352126
 21
-34.0569689424
  0
LINE
  5
2FE
100
AcDbEntity
  8
0
100
AcDbLine
 62
7
  6
CONTINUOUS
 10
-27.7051350457
 20
-34.0569689424
 11
-26.3926355464
 21
-34.0569689424
  0
LINE
  5
2FF
100
AcDbEntity
  8
0
100
AcDbLine
 62
7
  6
CONTINUOUS
 10
-26.1301355464
 20
-33.8335647138
 11
-27.7051350457
 21
-33.8335647138
  0
LINE
  5
300
100
AcDbEntity
  8
0
100
AcDbLine
 62
7
  6
CONTINUOUS
 10
-28.0551352126
 20
-33.8335647138
 11
-29.6301352126
 21
-33.8335647138
  0
LINE
  5
301
100
AcDbEntity
  8
0
100
AcDbLine
 62
7
  6
CONTINUOUS
 10
-30.6801352126
 20
-33.8335647138
 11
-30.8551350457
 21
-33.8335647138
  0
LINE
  5
302
100
AcDbEntity
  8
0
100
AcDbLine
 62
7
  6
CONTINUOUS
 10
-34.4863852126
 20
-33.8335647138
 11
-34.6613852335
 21
-33.8335647138
  0
LINE
  5
303
100
AcDbEntity
  8
ASSI
100
AcDbLine
 62
7
  6
CONTINUOUS
 10
-4.7875792126
 20
-33.5585647138
 11
-6.2480832675
 21
-33.5585647138
  0
LINE
  5
304
100
AcDbEntity
  8
0
100
AcDbLine
 62
7
  6
CONTINUOUS
 10
6.8663307874
 20
-33.2435647138
 11
7.9748647874
 21
-33.2435647138
  0
LINE
  5
305
100
AcDbEntity
  8
0
100
AcDbLine
 62
7
  6
CONTINUOUS
 10
8.2148647874
 20
-33.2435647138
 11
9.3233987874
 21
-33.2435647138
  0
LINE
  5
306
100
AcDbEntity
  8
0
100
AcDbLine
 62
7
  6
CONTINUOUS
 10
9.3233987874
 20
-33.0035647138
 11
6.8663307874
 21
-33.0035647138
  0
LINE
  5
307
100
AcDbEntity
  8
0
100
AcDbLine
 62
7
  6
CONTINUOUS
 10
-35.9051352126
 20
-32.9335647138
 11
-34.9051352126
 21
-32.9335647138
  0
LINE
  5
308
100
AcDbEntity
  8
0
100
AcDbLine
 62
7
  6
CONTINUOUS
 10
-33.4468019587
 20
-32.9335647138
 11
-33.1134684665
 21
-32.9335647138
  0
LINE
  5
309
100
AcDbEntity
  8
0
100
AcDbLine
 62
7
  6
CONTINUOUS
 10
-31.5301352126
 20
-32.9335647138
 11
-31.2801352126
 21
-32.9335647138
  0
LINE
  5
30A
100
AcDbEntity
  8
0
100
AcDbLine
 62
7
  6
CONTINUOUS
 10
-29.9051352126
 20
-32.9335647138
 11
-29.6551352126
 21
-32.9335647138
  0
LINE
  5
30B
100
AcDbEntity
  8
0
100
AcDbLine
 62
7
  6
CONTINUOUS
 10
-27.9051352126
 20
-32.9335647138
 11
-27.5718021971
 21
-32.9335647138
  0
LINE
  5
30C
100
AcDbEntity
  8
0
100
AcDbLine
 62
7
  6
CONTINUOUS
 10
-26.0718021971
 20
-32.9335647138
 11
-25.738468228
 21
-32.9335647138
  0
LINE
  5
30D
100
AcDbEntity
  8
0
100
AcDbLine
 62
7
  6
CONTINUOUS
 10
-25.7801352126
 20
-32.7207987519
 11
-26.0301352126
 21
-32.7207987519
  0
LINE
  5
30E
100
AcDbEntity
  8
0
100
AcDbLine
 62
7
  6
CONTINUOUS
 10
-27.613468228
 20
-32.7207987519
 11
-27.863468228
 21
-32.7207987519
  0
LINE
  5
30F
100
AcDbEntity
  8
0
100
AcDbLine
 62
7
  6
CONTINUOUS
 10
-31.2801352126
 20
-32.7207987519
 11
-31.5301352126
 21
-32.7207987519
  0
LINE
  5
310
100
AcDbEntity
  8
0
100
AcDbLine
 62
7
  6
CONTINUOUS
 10
-33.1134684665
 20
-32.6782455655
 11
-33.4468019587
 21
-32.6782455655
  0
LINE
  5
311
100
AcDbEntity
  8
0
100
AcDbLine
 62
7
  6
CONTINUOUS
 10
-34.8634685857
 20
-32.6782455655
 11
-35.6551352126
 21
-32.6782455655
  0
LINE
  5
312
100
AcDbEntity
  8
0
100
AcDbLine
 62
7
  6
CONTINUOUS
 10
-26.4468021971
 20
-32.4654796036
 11
-26.6551352126
 21
-32.4654796036
  0
LINE
  5
313
100
AcDbEntity
  8
0
100
AcDbLine
 62
7
  6
CONTINUOUS
 10
-28.2801352126
 20
-32.4654796036
 11
-28.4884687049
 21
-32.4654796036
  0
LINE
  5
314
100
AcDbEntity
  8
0
100
AcDbLine
 62
7
  6
CONTINUOUS
 10
-0.4799582126
 20
-32.4628187138
 11
-0.1243102126
 21
-32.4628187138
  0
LINE
  5
315
100
AcDbEntity
  8
0
100
AcDbLine
 62
7
  6
CONTINUOUS
 10
0.3195687874
 20
-32.4628187138
 11
0.6750737874
 21
-32.4628187138
  0
LINE
  5
316
100
AcDbEntity
  8
0
100
AcDbLine
 62
7
  6
CONTINUOUS
 10
-31.9051352126
 20
-32.4229264172
 11
-32.1551352126
 21
-32.4229264172
  0
LINE
  5
317
100
AcDbEntity
  8
0
100
AcDbLine
 62
7
  6
CONTINUOUS
 10
-33.7801352126
 20
-32.3803732307
 11
-34.0301352126
 21
-32.3803732307
  0
LINE
  5
318
100
AcDbEntity
  8
0
100
AcDbLine
 62
7
  6
CONTINUOUS
 10
0.6750737874
 20
-32.0438617138
 11
-0.4799582126
 21
-32.0438617138
  0
LINE
  5
319
100
AcDbEntity
  8
0
100
AcDbLine
 62
7
  6
CONTINUOUS
 10
-35.6551352126
 20
-32.0399476798
 11
-34.8634685857
 21
-32.0399476798
  0
LINE
  5
31A
100
AcDbEntity
  8
0
100
AcDbLine
 62
7
  6
CONTINUOUS
 10
-33.3634684665
 20
-32.0399476798
 11
-33.1134684665
 21
-32.0399476798
  0
LINE
  5
31B
100
AcDbEntity
  8
0
100
AcDbLine
 62
7
  6
CONTINUOUS
 10
-32.1551352126
 20
-32.0399476798
 11
-31.8634687049
 21
-32.0399476798
  0
LINE
  5
31C
100
AcDbEntity
  8
0
100
AcDbLine
 62
7
  6
CONTINUOUS
 10
-27.8218021971
 20
-31.9973944934
 11
-27.6551352126
 21
-31.9973944934
  0
LINE
  5
31D
100
AcDbEntity
  8
0
100
AcDbLine
 62
7
  6
CONTINUOUS
 10
-25.988468228
 20
-31.9973944934
 11
-25.8218021971
 21
-31.9973944934
  0
LINE
  5
31E
100
AcDbEntity
  8
0
100
AcDbLine
 62
7
  6
CONTINUOUS
 10
-31.5301352126
 20
-31.8697349341
 11
-31.2801352126
 21
-31.8697349341
  0
LINE
  5
31F
100
AcDbEntity
  8
0
100
AcDbLine
 62
7
  6
CONTINUOUS
 10
-25.8218021971
 20
-31.8271817477
 11
-25.988468228
 21
-31.8271817477
  0
LINE
  5
320
100
AcDbEntity
  8
0
100
AcDbLine
 62
7
  6
CONTINUOUS
 10
-27.6551352126
 20
-31.8271817477
 11
-27.8218021971
 21
-31.8271817477
  0
LINE
  5
321
100
AcDbEntity
  8
0
100
AcDbLine
 62
7
  6
CONTINUOUS
 10
-33.1134684665
 20
-31.7846285613
 11
-33.3634684665
 21
-31.7846285613
  0
LINE
  5
322
100
AcDbEntity
  8
0
100
AcDbLine
 62
7
  6
CONTINUOUS
 10
-34.8634685857
 20
-31.7846285613
 11
-35.6551352126
 21
-31.7846285613
  0
LINE
  5
323
100
AcDbEntity
  8
0
100
AcDbLine
 62
7
  6
CONTINUOUS
 10
-31.2801352126
 20
-31.6569690021
 11
-31.5301352126
 21
-31.6569690021
  0
LINE
  5
324
100
AcDbEntity
  8
0
100
AcDbLine
 62
7
  6
CONTINUOUS
 10
-32.8634684665
 20
-31.4016497643
 11
-32.6134684665
 21
-31.4016497643
  0
LINE
  5
325
100
AcDbEntity
  8
0
100
AcDbLine
 62
7
  6
CONTINUOUS
 10
-28.4468017203
 20
-31.4016497643
 11
-28.2384687049
 21
-31.4016497643
  0
LINE
  5
326
100
AcDbEntity
  8
0
100
AcDbLine
 62
7
  6
CONTINUOUS
 10
-26.613468228
 20
-31.4016497643
 11
-26.4051352126
 21
-31.4016497643
  0
LINE
  5
327
100
AcDbEntity
  8
ASSI
100
AcDbLine
 62
7
  6
CONTINUOUS
 10
-8.8882133494
 20
-32.1337057487
 11
-8.7726892126
 21
-32.1363447138
  0
LWPOLYLINE
  5
328
100
AcDbEntity
  8
0
100
AcDbPolyline
 62
253
  6
CONTINUOUS
 90
4
 70
0
 10
-14.1764117828
 20
-32.3280266214
 10
-15.3225659908
 20
-32.2969699357
 10
-19.174870701
 20
-32.1627396626
 10
-21.6520513487
 20
-32.0572237535
  0
LWPOLYLINE
  5
329
100
AcDbEntity
  8
0
100
AcDbPolyline
 62
253
  6
CONTINUOUS
 90
4
 70
0
 10
-14.2516727167
 20
-32.7738086668
 10
-15.3195063444
 20
-32.7448575563
 10
-19.1728090926
 20
-32.6105435356
 10
-21.6107452185
 20
-32.5066831328
  0
LINE
  5
32A
100
AcDbEntity
  8
RACCORDO
100
AcDbLine
 62
253
  6
CONTINUOUS
 10
41.2941561301
 20
-36.0325915244
 11
42.6030783191
 21
-36.1282992112
  0
LINE
  5
32B
100
AcDbEntity
  8
RACCORDO
100
AcDbLine
 62
253
  6
CONTINUOUS
 10
44.1069561455
 20
-36.2382619496
 11
44.7425467
 21
-36.2847359893
  0
LINE
  5
32C
100
AcDbEntity
  8
RACCORDO
100
AcDbLine
 62
253
  6
CONTINUOUS
 10
45.6649239565
 20
-36.3521797185
 11
46.2374525613
 21
-36.3940427023
  0
LINE
  5
32D
100
AcDbEntity
  8
0
100
AcDbLine
 62
7
  6
CONTINUOUS
 10
-27.4051352126
 20
-30.9761179002
 11
-27.6968021971
 21
-30.9335647138
  0
LINE
  5
32E
100
AcDbEntity
  8
0
100
AcDbLine
 62
7
  6
CONTINUOUS
 10
-25.5718021971
 20
-30.9761179002
 11
-25.863468228
 21
-30.9335647138
  0
LINE
  5
32F
100
AcDbEntity
  8
0
100
AcDbLine
 62
7
  6
CONTINUOUS
 10
-25.8218021971
 20
-31.1463306458
 11
-25.613468228
 21
-31.1888838323
  0
LWPOLYLINE
  5
330
100
AcDbEntity
  8
RACCORDO
100
AcDbPolyline
 62
7
  6
CONTINUOUS
 90
19
 70
0
 10
-45.5667840963
 20
3.8531688281
 10
-45.5699841204
 20
3.8575474522
 10
-45.5751464741
 20
3.8618159808
 10
-45.5822711572
 20
3.8659744141
 10
-45.5914663323
 20
3.8700581907
 10
-45.6026238369
 20
3.8740318719
 10
-45.6154191834
 20
3.8777891411
 10
-45.6298463014
 20
3.8813106254
 10
-45.6459112613
 20
3.8846156976
 10
-45.6633077868
 20
3.8876561593
 10
-45.6820292509
 20
3.8904297116
 10
-45.7020822806
 20
3.8929386533
 10
-45.7231804799
 20
3.8951416819
 10
-45.7454455497
 20
3.8970397162
 10
-45.7687557892
 20
3.8986318374
 10
-45.7924596998
 20
3.8998739872
 10
-45.8163401156
 20
3.9007514794
 10
-45.8406142025
 20
3.9012790002
 10
-45.8652819607
 20
3.9014565496
  0
LWPOLYLINE
  5
331
100
AcDbEntity
  8
RACCORDO
100
AcDbPolyline
 62
253
  6
CONTINUOUS
 90
19
 70
0
 10
-23.0120501725
 20
-22.6416330415
 10
-22.9682752728
 20
-22.7045908661
 10
-22.921821806
 20
-22.7642366403
 10
-22.872689772
 20
-22.8205703643
 10
-22.8206998077
 20
-22.8736438402
 10
-22.7660312762
 20
-22.9234052659
 10
-22.7092222673
 20
-22.9696992345
 10
-22.6502979781
 20
-23.0125120311
 10
-22.5892332113
 20
-23.0518573708
 10
-22.5264904647
 20
-23.0876209918
 10
-22.4621014321
 20
-23.1198039974
 10
-22.3960344196
 20
-23.1484052844
 10
-22.3286568433
 20
-23.173307281
 10
-22.2598122551
 20
-23.1945314392
 10
-22.1896571031
 20
-23.2120563071
 10
-22.1190281468
 20
-23.2256999561
 10
-22.0482043063
 20
-23.2354017435
 10
-21.9769066615
 20
-23.2412223122
 10
-21.9051352126
 20
-23.243161662
  0
LWPOLYLINE
  5
332
100
AcDbEntity
  8
RACCORDO
100
AcDbPolyline
 62
253
  6
CONTINUOUS
 90
19
 70
0
 10
-22.9409050892
 20
-22.6094935469
 10
-22.9014132375
 20
-22.6691163229
 10
-22.8587714788
 20
-22.7259638607
 10
-22.8131950145
 20
-22.7798879904
 10
-22.7649218759
 20
-22.8307433826
 10
-22.7141596289
 20
-22.878431115
 10
-22.6610765173
 20
-22.922888427
 10
-22.6059326771
 20
-22.9639959999
 10
-22.548916182
 20
-23.0017093403
 10
-22.4900639607
 20
-23.0360629064
 10
-22.4296099553
 20
-23.0669676691
 10
-22.3677391762
 20
-23.0943750473
 10
-22.3043806558
 20
-23.1183266581
 10
-22.2395894639
 20
-23.1387791974
 10
-22.1737059274
 20
-23.155604899
 10
-22.1070817923
 20
-23.1687147318
 10
-22.0399807025
 20
-23.1780769444
 10
-21.9725700132
 20
-23.1836914694
 10
-21.9050638962
 20
-23.1855587127
  0
LINE
  5
333
100
AcDbEntity
  8
0
100
AcDbLine
 62
7
  6
CONTINUOUS
 10
-26.6551352126
 20
-32.4654796036
 11
-26.613468228
 21
-32.5931391926
  0
LINE
  5
334
100
AcDbEntity
  8
0
100
AcDbLine
 62
7
  6
CONTINUOUS
 10
-26.988468228
 20
-32.2952668579
 11
-27.0301352126
 21
-32.1250540526
  0
LINE
  5
335
100
AcDbEntity
  8
0
100
AcDbLine
 62
7
  6
CONTINUOUS
 10
-27.0301352126
 20
-31.4016497643
 11
-27.0718021971
 21
-31.2314370187
  0
LINE
  5
336
100
AcDbEntity
  8
0
100
AcDbLine
 62
7
  6
CONTINUOUS
 10
-25.1551352126
 20
-32.2952668579
 11
-25.1968021971
 21
-32.1250540526
  0
LINE
  5
337
100
AcDbEntity
  8
0
100
AcDbLine
 62
7
  6
CONTINUOUS
 10
-25.1968021971
 20
-31.4016497643
 11
-25.238468228
 21
-31.2314370187
  0
LINE
  5
338
100
AcDbEntity
  8
0
100
AcDbLine
 62
7
  6
CONTINUOUS
 10
-30.4603992126
 20
30.1049882862
 11
-30.8343992126
 21
34.1045002862
  0
LINE
  5
339
100
AcDbEntity
  8
0
100
AcDbLine
 62
7
  6
CONTINUOUS
 10
-31.4486332126
 20
32.7057072862
 11
-31.2771092126
 21
30.1049882862
  0
LINE
  5
33A
100
AcDbEntity
  8
0
100
AcDbLine
 62
7
  6
CONTINUOUS
 10
-30.8634687049
 20
-32.2527136715
 11
-30.8634687049
 21
-32.3378200443
  0
LINE
  5
33B
100
AcDbEntity
  8
0
100
AcDbLine
 62
7
  6
CONTINUOUS
 10
-30.7384687049
 20
-31.1463306458
 11
-30.7384687049
 21
-30.9335647138
  0
LINE
  5
33C
100
AcDbEntity
  8
0
100
AcDbLine
 62
7
  6
CONTINUOUS
 10
-30.6551352126
 20
-32.3803732307
 11
-30.6551352126
 21
-32.2101604851
  0
LINE
  5
33D
100
AcDbEntity
  8
0
100
AcDbLine
 62
7
  6
CONTINUOUS
 10
-30.3218017203
 20
-30.9335647138
 11
-30.3218017203
 21
-31.1463306458
  0
LINE
  5
33E
100
AcDbEntity
  8
0
100
AcDbLine
 62
7
  6
CONTINUOUS
 10
-30.1988850457
 20
-35.1739902736
 11
-30.1988850457
 21
-35.3080328109
  0
LINE
  5
33F
100
AcDbEntity
  8
0
100
AcDbLine
 62
7
  6
CONTINUOUS
 10
-29.9801353795
 20
-35.3527136566
 11
-29.9801353795
 21
-35.1293093653
  0
LINE
  5
340
100
AcDbEntity
  8
0
100
AcDbLine
 62
7
  6
CONTINUOUS
 10
-29.6301352126
 20
-33.8335647138
 11
-29.6301352126
 21
-34.0569689424
  0
LINE
  5
341
100
AcDbEntity
  8
0
100
AcDbLine
 62
7
  6
CONTINUOUS
 10
-28.8218017203
 20
-31.1463306458
 11
-28.8218017203
 21
-30.9335647138
  0
LINE
  5
342
100
AcDbEntity
  8
0
100
AcDbLine
 62
7
  6
CONTINUOUS
 10
-28.0551352126
 20
-34.0569689424
 11
-28.0551352126
 21
-33.8335647138
  0
LINE
  5
343
100
AcDbEntity
  8
0
100
AcDbLine
 62
7
  6
CONTINUOUS
 10
-27.8218021971
 20
-31.8271817477
 11
-27.8218021971
 21
-31.9973944934
  0
LINE
  5
344
100
AcDbEntity
  8
0
100
AcDbLine
 62
7
  6
CONTINUOUS
 10
-27.7051350457
 20
-33.8335647138
 11
-27.7051350457
 21
-34.0569689424
  0
LINE
  5
345
100
AcDbEntity
  8
0
100
AcDbLine
 62
7
  6
CONTINUOUS
 10
-27.238468228
 20
-31.4016497643
 11
-27.238468228
 21
-31.4867562564
  0
LINE
  5
346
100
AcDbEntity
  8
0
100
AcDbLine
 62
7
  6
CONTINUOUS
 10
-27.1968021971
 20
-32.2952668579
 11
-27.1968021971
 21
-32.4654796036
  0
LINE
  5
347
100
AcDbEntity
  8
0
100
AcDbLine
 62
7
  6
CONTINUOUS
 10
-27.0301352126
 20
-31.4867562564
 11
-27.0301352126
 21
-31.4016497643
  0
LINE
  5
348
100
AcDbEntity
  8
0
100
AcDbLine
 62
7
  6
CONTINUOUS
 10
-26.988468228
 20
-32.4654796036
 11
-26.988468228
 21
-32.2952668579
  0
LINE
  5
349
100
AcDbEntity
  8
0
100
AcDbLine
 62
7
  6
CONTINUOUS
 10
-26.7948773391
 20
34.0577730537
 11
-26.7948773391
 21
30.1049883333
  0
LINE
  5
34A
100
AcDbEntity
  8
0
100
AcDbLine
 62
7
  6
CONTINUOUS
 10
-33.2613851291
 20
-34.7271817537
 11
-33.217635296
 21
-34.4590966793
  0
LINE
  5
34B
100
AcDbEntity
  8
0
100
AcDbLine
 62
253
  6
CONTINUOUS
 10
-26.8327809261
 20
12.7766575384
 11
-26.8344523083
 21
12.7704198552
  0
LINE
  5
34C
100
AcDbEntity
  8
0
100
AcDbLine
 62
253
  6
CONTINUOUS
 10
-26.8327809261
 20
9.2766575384
 11
-26.8344523083
 21
9.2704198552
  0
LINE
  5
34D
100
AcDbEntity
  8
0
100
AcDbLine
 62
7
  6
CONTINUOUS
 10
-26.2766611829
 20
10.0891904507
 11
-26.0266611829
 21
10.5222031526
  0
LINE
  5
34E
100
AcDbEntity
  8
0
100
AcDbLine
 62
7
  6
CONTINUOUS
 10
-26.2551352126
 20
10.0834225843
 11
-26.0051352126
 21
10.5164352862
  0
LINE
  5
34F
100
AcDbEntity
  8
0
100
AcDbLine
 62
7
  6
CONTINUOUS
 10
-25.7467616293
 20
14.3263682798
 11
-25.5916687484
 21
14.5103440696
  0
LINE
  5
350
100
AcDbEntity
  8
0
100
AcDbLine
 62
7
  6
CONTINUOUS
 10
-25.2054093056
 20
14.3263682798
 11
-25.2064103753
 21
14.3253159673
  0
LINE
  5
351
100
AcDbEntity
  8
0
100
AcDbLine
 62
7
  6
CONTINUOUS
 10
-13.9653422992
 20
25.4664352862
 11
-13.9824331937
 21
25.4492002501
  0
LINE
  5
352
100
AcDbEntity
  8
0
100
AcDbLine
 62
7
  6
CONTINUOUS
 10
-14.1557663735
 20
25.2760318297
 11
-14.1640155082
 21
25.2677108987
  0
LWPOLYLINE
  5
353
100
AcDbEntity
  8
0
100
AcDbPolyline
 62
7
  6
CONTINUOUS
 90
3
 70
0
 10
-25.34030201
 20
14.1915148166
 10
-25.3878954465
 20
14.1437379469
 10
-25.4051352126
 20
14.1266423729
  0
LINE
  5
354
100
AcDbEntity
  8
0
100
AcDbLine
 62
7
  6
CONTINUOUS
 10
-26.2766611829
 20
13.8253516351
 11
-25.5916687484
 21
14.5103440696
  0
LINE
  5
355
100
AcDbEntity
  8
0
100
AcDbLine
 62
7
  6
CONTINUOUS
 10
-26.2551352126
 20
13.8164352862
 11
-25.9449281259
 21
14.1266423729
  0
LINE
  5
356
100
AcDbEntity
  8
0
100
AcDbLine
 62
7
  6
CONTINUOUS
 10
-14.3490439959
 20
25.702968822
 11
-13.6140515614
 21
26.4379612565
  0
LINE
  5
357
100
AcDbEntity
  8
0
100
AcDbLine
 62
7
  6
CONTINUOUS
 10
-13.9653422992
 20
26.0562281996
 11
-13.6051352126
 21
26.4164352862
  0
LINE
  5
358
100
AcDbEntity
  8
0
100
AcDbLine
 62
7
  6
CONTINUOUS
 10
-13.9824331937
 20
25.4492002501
 11
-14.1557663735
 21
25.2760318297
  0
LWPOLYLINE
  5
359
100
AcDbEntity
  8
0
100
AcDbPolyline
 62
7
  6
CONTINUOUS
 90
3
 70
0
 10
-25.2064103753
 20
14.3253159673
 10
-25.211075353
 20
14.3207022325
 10
-25.34030201
 20
14.1915148166
  0
LINE
  5
35A
100
AcDbEntity
  8
0
100
AcDbLine
 62
7
  6
CONTINUOUS
 10
-14.1640155082
 20
25.2677108987
 11
-14.1650682062
 21
25.2667093793
  0
LINE
  5
35B
100
AcDbEntity
  8
0
100
AcDbLine
 62
7
  6
CONTINUOUS
 10
-14.1650682062
 20
25.858061703
 11
-14.3490439959
 21
25.702968822
  0
LINE
  5
35C
100
AcDbEntity
  8
0
100
AcDbLine
 62
7
  6
CONTINUOUS
 10
-10.3609030789
 20
26.1879612565
 11
-9.9278903771
 21
26.4379612565
  0
LINE
  5
35D
100
AcDbEntity
  8
0
100
AcDbLine
 62
7
  6
CONTINUOUS
 10
-10.3551352126
 20
26.1664352862
 11
-9.9221225107
 21
26.4164352862
  0
LINE
  5
35E
100
AcDbEntity
  8
0
100
AcDbLine
 62
253
  6
CONTINUOUS
 10
12.8050870395
 20
-26.8612104273
 11
12.7988493564
 21
-26.8628818095
  0
LINE
  5
35F
100
AcDbEntity
  8
0
100
AcDbLine
 62
253
  6
CONTINUOUS
 10
9.3050870395
 20
-26.8612104273
 11
9.2988493564
 21
-26.8628818095
  0
LINE
  5
360
100
AcDbEntity
  8
0
100
AcDbLine
 62
7
  6
CONTINUOUS
 10
-30.6363853795
 20
-35.9335647138
 11
-30.4176352126
 21
-35.8888838641
  0
LINE
  5
361
100
AcDbEntity
  8
0
100
AcDbLine
 62
7
  6
CONTINUOUS
 10
-32.4738851291
 20
-35.665479608
 11
-32.692635296
 21
-35.7101604538
  0
LINE
  5
362
100
AcDbEntity
  8
0
100
AcDbLine
 62
7
  6
CONTINUOUS
 10
-30.8551350457
 20
-34.5931392165
 11
-31.0738852126
 21
-34.6378200622
  0
LINE
  5
363
100
AcDbEntity
  8
0
100
AcDbLine
 62
7
  6
CONTINUOUS
 10
-30.8551350457
 20
-33.8335647138
 11
-31.0738852126
 21
-33.8782455595
  0
LINE
  5
364
100
AcDbEntity
  8
0
100
AcDbLine
 62
7
  6
CONTINUOUS
 10
-25.5718021971
 20
-32.6782455655
 11
-25.7801352126
 21
-32.7207987519
  0
LINE
  5
365
100
AcDbEntity
  8
0
100
AcDbLine
 62
7
  6
CONTINUOUS
 10
-32.9113852126
 20
-34.1016497882
 11
-32.692635296
 21
-34.0569689424
  0
LINE
  5
366
100
AcDbEntity
  8
0
100
AcDbLine
 62
7
  6
CONTINUOUS
 10
-32.692635296
 20
-35.9335647138
 11
-32.430135296
 21
-35.8888838641
  0
LINE
  5
367
100
AcDbEntity
  8
0
100
AcDbLine
 62
7
  6
CONTINUOUS
 10
-32.692635296
 20
-33.8335647138
 11
-32.955135296
 21
-33.8782455595
  0
LINE
  5
368
100
AcDbEntity
  8
0
100
AcDbLine
 62
7
  6
CONTINUOUS
 10
-34.6613852335
 20
-33.8335647138
 11
-34.967635223
 21
-33.8782455595
  0
LINE
  5
369
100
AcDbEntity
  8
0
100
AcDbLine
 62
7
  6
CONTINUOUS
 10
-25.9468021971
 20
-30.9335647138
 11
-26.238468228
 21
-30.9761179002
  0
LINE
  5
36A
100
AcDbEntity
  8
0
100
AcDbLine
 62
7
  6
CONTINUOUS
 10
-35.6551352126
 20
-31.1888838323
 11
-34.8634685857
 21
-31.1888838323
  0
LINE
  5
36B
100
AcDbEntity
  8
0
100
AcDbLine
 62
7
  6
CONTINUOUS
 10
-33.3634684665
 20
-31.1888838323
 11
-33.1134684665
 21
-31.1888838323
  0
LINE
  5
36C
100
AcDbEntity
  8
0
100
AcDbLine
 62
7
  6
CONTINUOUS
 10
-31.9468019587
 20
-31.1463306458
 11
-30.7384687049
 21
-31.1463306458
  0
LINE
  5
36D
100
AcDbEntity
  8
0
100
AcDbLine
 62
7
  6
CONTINUOUS
 10
-30.3218017203
 20
-31.1463306458
 11
-29.0718017203
 21
-31.1463306458
  0
LINE
  5
36E
100
AcDbEntity
  8
0
100
AcDbLine
 62
7
  6
CONTINUOUS
 10
-27.8218021971
 20
-31.1463306458
 11
-27.6551352126
 21
-31.1463306458
  0
LINE
  5
36F
100
AcDbEntity
  8
0
100
AcDbLine
 62
7
  6
CONTINUOUS
 10
-25.988468228
 20
-31.1463306458
 11
-25.8218021971
 21
-31.1463306458
  0
LINE
  5
370
100
AcDbEntity
  8
0
100
AcDbLine
 62
7
  6
CONTINUOUS
 10
-25.863468228
 20
-30.9335647138
 11
-25.9468021971
 21
-30.9335647138
  0
LINE
  5
371
100
AcDbEntity
  8
0
100
AcDbLine
 62
7
  6
CONTINUOUS
 10
-27.6968021971
 20
-30.9335647138
 11
-27.7801352126
 21
-30.9335647138
  0
LINE
  5
372
100
AcDbEntity
  8
0
100
AcDbLine
 62
7
  6
CONTINUOUS
 10
-28.8218017203
 20
-30.9335647138
 11
-30.3218017203
 21
-30.9335647138
  0
LINE
  5
373
100
AcDbEntity
  8
0
100
AcDbLine
 62
7
  6
CONTINUOUS
 10
-30.7384687049
 20
-30.9335647138
 11
-32.1551352126
 21
-30.9335647138
  0
LINE
  5
374
100
AcDbEntity
  8
0
100
AcDbLine
 62
7
  6
CONTINUOUS
 10
-33.1551352126
 20
-30.9335647138
 11
-33.3634684665
 21
-30.9335647138
  0
LINE
  5
375
100
AcDbEntity
  8
0
100
AcDbLine
 62
7
  6
CONTINUOUS
 10
-34.9051352126
 20
-30.9335647138
 11
-35.9051352126
 21
-30.9335647138
  0
LINE
  5
376
100
AcDbEntity
  8
0
100
AcDbLine
 62
7
  6
CONTINUOUS
 10
12.0948647874
 20
-30.4335647138
 11
-11.9051352126
 21
-30.4335647138
  0
LINE
  5
377
100
AcDbEntity
  8
0
100
AcDbLine
 62
7
  6
CONTINUOUS
 10
-23.9051352126
 20
-30.4335647138
 11
-36.9051352126
 21
-30.4335647138
  0
LINE
  5
378
100
AcDbEntity
  8
0
100
AcDbLine
 62
253
  6
CONTINUOUS
 10
-12.6153574647
 20
-26.8612104273
 11
-12.6091197816
 21
-26.8628818095
  0
LINE
  5
379
100
AcDbEntity
  8
0
100
AcDbLine
 62
253
  6
CONTINUOUS
 10
-9.1153574647
 20
-26.8612104273
 11
-9.1091197816
 21
-26.8628818095
  0
LINE
  5
37A
100
AcDbEntity
  8
0
100
AcDbLine
 62
7
  6
CONTINUOUS
 10
-9.9278903771
 20
-26.3050906841
 11
-10.3609030789
 21
-26.0550906841
  0
LINE
  5
37B
100
AcDbEntity
  8
0
100
AcDbLine
 62
7
  6
CONTINUOUS
 10
-9.9221225107
 20
-26.2835647138
 11
-10.3551352126
 21
-26.0335647138
  0
LINE
  5
37C
100
AcDbEntity
  8
0
100
AcDbLine
 62
7
  6
CONTINUOUS
 10
-14.1650682062
 20
-25.7251911305
 11
-14.3490439959
 21
-25.5700982496
  0
LINE
  5
37D
100
AcDbEntity
  8
0
100
AcDbLine
 62
7
  6
CONTINUOUS
 10
-14.1650682062
 20
-25.1338388068
 11
-14.1640155082
 21
-25.1348403262
  0
LINE
  5
37E
100
AcDbEntity
  8
0
100
AcDbLine
 62
7
  6
CONTINUOUS
 10
-25.4051352126
 20
-13.9937718004
 11
-25.3878954465
 21
-14.0108673744
  0
LWPOLYLINE
  5
37F
100
AcDbEntity
  8
0
100
AcDbPolyline
 62
7
  6
CONTINUOUS
 90
3
 70
0
 10
-25.211075353
 20
-14.18783166
 10
-25.2064103753
 20
-14.1924453949
 10
-25.2054093056
 20
-14.1934977074
  0
LWPOLYLINE
  5
380
100
AcDbEntity
  8
0
100
AcDbPolyline
 62
7
  6
CONTINUOUS
 90
3
 70
0
 10
-14.0302003231
 20
-25.2687459066
 10
-13.9824331937
 20
-25.3163296776
 10
-13.9653422992
 20
-25.3335647138
  0
LINE
  5
381
100
AcDbEntity
  8
0
100
AcDbLine
 62
7
  6
CONTINUOUS
 10
-25.5916687484
 20
-14.3774734971
 11
-26.2766611829
 21
-13.6924810626
  0
LINE
  5
382
100
AcDbEntity
  8
0
100
AcDbLine
 62
7
  6
CONTINUOUS
 10
-25.9449281259
 20
-13.9937718004
 11
-26.2551352126
 21
-13.6835647138
  0
LINE
  5
383
100
AcDbEntity
  8
0
100
AcDbLine
 62
7
  6
CONTINUOUS
 10
-13.6140515614
 20
-26.3050906841
 11
-14.3490439959
 21
-25.5700982496
  0
LINE
  5
384
100
AcDbEntity
  8
0
100
AcDbLine
 62
7
  6
CONTINUOUS
 10
-13.6051352126
 20
-26.2835647138
 11
-13.9653422992
 21
-25.9233576271
  0
LINE
  5
385
100
AcDbEntity
  8
0
100
AcDbLine
 62
7
  6
CONTINUOUS
 10
-25.3878954465
 20
-14.0108673744
 11
-25.211075353
 21
-14.18783166
  0
LWPOLYLINE
  5
386
100
AcDbEntity
  8
0
100
AcDbPolyline
 62
7
  6
CONTINUOUS
 90
3
 70
0
 10
-14.1640155082
 20
-25.1348403262
 10
-14.1593998699
 20
-25.1395071432
 10
-14.0302003231
 20
-25.2687459066
  0
LINE
  5
387
100
AcDbEntity
  8
0
100
AcDbLine
 62
7
  6
CONTINUOUS
 10
-25.7467616293
 20
-14.1934977074
 11
-25.5916687484
 21
-14.3774734971
  0
LINE
  5
388
100
AcDbEntity
  8
0
100
AcDbLine
 62
7
  6
CONTINUOUS
 10
-26.0266611829
 20
-10.3893325801
 11
-26.2766611829
 21
-9.9563198782
  0
LINE
  5
389
100
AcDbEntity
  8
0
100
AcDbLine
 62
7
  6
CONTINUOUS
 10
-26.0051352126
 20
-10.3835647138
 11
-26.2551352126
 21
-9.9505520119
  0
LINE
  5
38A
100
AcDbEntity
  8
0
100
AcDbLine
 62
7
  6
CONTINUOUS
 10
-39.3999402126
 20
34.1045002862
 11
-38.1320172126
 21
30.1049882862
  0
LINE
  5
38B
100
AcDbEntity
  8
0
100
AcDbLine
 62
7
  6
CONTINUOUS
 10
-37.7306502126
 20
31.3515122862
 11
-38.4930302126
 21
34.1045002862
  0
LINE
  5
38C
100
AcDbEntity
  8
0
100
AcDbLine
 62
253
  6
CONTINUOUS
 10
-26.8327809261
 20
-12.6437869659
 11
-26.8344523083
 21
-12.6375492827
  0
LINE
  5
38D
100
AcDbEntity
  8
0
100
AcDbLine
 62
253
  6
CONTINUOUS
 10
-26.8327809261
 20
-9.1437869659
 11
-26.8344523083
 21
-9.1375492827
  0
LINE
  5
38E
100
AcDbEntity
  8
RACCORDO
100
AcDbLine
 62
253
  6
CONTINUOUS
 10
-23.3488831917
 20
-23.1452972507
 11
-23.3702020907
 21
-22.7528266303
  0
LINE
  5
38F
100
AcDbEntity
  8
RACCORDO
100
AcDbLine
 62
253
  6
CONTINUOUS
 10
-23.2490066605
 20
-23.0983863092
 11
-23.2691022191
 21
-22.7286103008
  0
LINE
  5
390
100
AcDbEntity
  8
RACCORDO
100
AcDbLine
 62
253
  6
CONTINUOUS
 10
-23.3702020907
 20
-22.7528266303
 11
-23.4308957009
 21
-21.3563990466
  0
LINE
  5
391
100
AcDbEntity
  8
RACCORDO
100
AcDbLine
 62
253
  6
CONTINUOUS
 10
-23.2543122405
 20
-22.7257813219
 11
-23.314903032
 21
-21.3291656717
  0
LINE
  5
392
100
AcDbEntity
  8
RACCORDO
100
AcDbLine
 62
253
  6
CONTINUOUS
 10
-23.4308957009
 20
-21.3563990466
 11
-23.4796084859
 21
-20.1659668311
  0
LINE
  5
393
100
AcDbEntity
  8
RACCORDO
100
AcDbLine
 62
253
  6
CONTINUOUS
 10
-23.314903032
 20
-21.3291656717
 11
-23.3635669674
 21
-20.1382774224
  0
LINE
  5
394
100
AcDbEntity
  8
RACCORDO
100
AcDbLine
 62
253
  6
CONTINUOUS
 10
-23.4796084859
 20
-20.1659668311
 11
-23.5308772568
 21
-18.8321938587
  0
LINE
  5
395
100
AcDbEntity
  8
RACCORDO
100
AcDbLine
 62
253
  6
CONTINUOUS
 10
-23.3635669674
 20
-20.1382774224
 11
-23.4147722331
 21
-18.8044765416
  0
LINE
  5
396
100
AcDbEntity
  8
RACCORDO
100
AcDbLine
 62
253
  6
CONTINUOUS
 10
-23.5308772568
 20
-18.8321938587
 11
-23.5838717532
 21
-17.3464044596
  0
LINE
  5
397
100
AcDbEntity
  8
RACCORDO
100
AcDbLine
 62
253
  6
CONTINUOUS
 10
-23.4147722331
 20
-18.8044765416
 11
-23.4676875609
 21
-17.3190600827
  0
LINE
  5
398
100
AcDbEntity
  8
RACCORDO
100
AcDbLine
 62
253
  6
CONTINUOUS
 10
-23.5838717532
 20
-17.3464044596
 11
-23.6197289348
 21
-16.2645338582
  0
LINE
  5
399
100
AcDbEntity
  8
RACCORDO
100
AcDbLine
 62
253
  6
CONTINUOUS
 10
-23.4676875609
 20
-17.3190600827
 11
-23.5035126972
 21
-16.2377716825
  0
LINE
  5
39A
100
AcDbEntity
  8
RACCORDO
100
AcDbLine
 62
253
  6
CONTINUOUS
 10
-23.6197289348
 20
-16.2645338582
 11
-23.6555820374
 21
-15.105799454
  0
LINE
  5
39B
100
AcDbEntity
  8
RACCORDO
100
AcDbLine
 62
253
  6
CONTINUOUS
 10
-23.5035126972
 20
-16.2377716825
 11
-23.5393264815
 21
-15.0799364026
  0
LINE
  5
39C
100
AcDbEntity
  8
RACCORDO
100
AcDbLine
 62
253
  6
CONTINUOUS
 10
-23.6555820374
 20
-15.105799454
 11
-23.6908933501
 21
-13.8707380047
  0
LINE
  5
39D
100
AcDbEntity
  8
RACCORDO
100
AcDbLine
 62
253
  6
CONTINUOUS
 10
-23.5393264815
 20
-15.0799364026
 11
-23.574535355
 21
-13.8461373171
  0
LWPOLYLINE
  5
39E
100
AcDbEntity
  8
RACCORDO
100
AcDbPolyline
 62
253
  6
CONTINUOUS
 90
13
 70
0
 10
-23.1457059481
 20
-21.9335611948
 10
-23.1441165977
 20
-21.9929654878
 10
-23.1396708963
 20
-22.0520823111
 10
-23.1323992016
 20
-22.1107742886
 10
-23.1223585518
 20
-22.1688017272
 10
-23.1095819372
 20
-22.226139758
 10
-23.0940286439
 20
-22.2829676665
 10
-23.075727144
 20
-22.3391004859
 10
-23.0546838494
 20
-22.3944469829
 10
-23.0307284564
 20
-22.4492924257
 10
-23.0037610506
 20
-22.5036056895
 10
-22.9738223945
 20
-22.5570664345
 10
-22.9409050892
 20
-22.6094935469
  0
LWPOLYLINE
  5
39F
100
AcDbEntity
  8
RACCORDO
100
AcDbPolyline
 62
253
  6
CONTINUOUS
 90
13
 70
0
 10
-23.2283100207
 20
-21.9379279858
 10
-23.2266565796
 20
-22.0002477659
 10
-23.2221794908
 20
-22.0620252634
 10
-23.2148819603
 20
-22.1232535347
 10
-23.2047636312
 20
-22.1839501231
 10
-23.1918316741
 20
-22.2440828598
 10
-23.1761007556
 20
-22.3035699476
 10
-23.1576298211
 20
-22.3623860846
 10
-23.1363673485
 20
-22.4205409251
 10
-23.1121626529
 20
-22.4780044261
 10
-23.0849684448
 20
-22.5347604415
 10
-23.0548405815
 20
-22.5908072693
 10
-23.0217834516
 20
-22.6461358412
  0
LINE
  5
3A0
100
AcDbEntity
  8
RACCORDO
100
AcDbLine
 62
253
  6
CONTINUOUS
 10
-23.6908933501
 20
-13.8707380047
 11
-23.7251036488
 21
-12.5593882888
  0
LINE
  5
3A1
100
AcDbEntity
  8
RACCORDO
100
AcDbLine
 62
253
  6
CONTINUOUS
 10
-23.574535355
 20
-13.8461373171
 11
-23.6086973281
 21
-12.5363915215
  0
LINE
  5
3A2
100
AcDbEntity
  8
RACCORDO
100
AcDbLine
 62
253
  6
CONTINUOUS
 10
-23.7251036488
 20
-12.5593882888
 11
-23.7575963798
 21
-11.1730332981
  0
LINE
  5
3A3
100
AcDbEntity
  8
RACCORDO
100
AcDbLine
 62
253
  6
CONTINUOUS
 10
-23.6086973281
 20
-12.5363915215
 11
-23.6411485249
 21
-11.1519587751
  0
LINE
  5
3A4
100
AcDbEntity
  8
RACCORDO
100
AcDbLine
 62
253
  6
CONTINUOUS
 10
-23.7575963798
 20
-11.1730332981
 11
-23.7878570096
 21
-9.7066732628
  0
LINE
  5
3A5
100
AcDbEntity
  8
RACCORDO
100
AcDbLine
 62
253
  6
CONTINUOUS
 10
-23.6411485249
 20
-11.1519587751
 11
-23.6713032791
 21
-9.6878065767
  0
LINE
  5
3A6
100
AcDbEntity
  8
RACCORDO
100
AcDbLine
 62
253
  6
CONTINUOUS
 10
-23.7878570096
 20
-9.7066732628
 11
-23.8152578071
 21
-8.1561733176
  0
LINE
  5
3A7
100
AcDbEntity
  8
RACCORDO
100
AcDbLine
 62
253
  6
CONTINUOUS
 10
-23.6713032791
 20
-9.6878065767
 11
-23.698657103
 21
-8.1398211288
  0
LINE
  5
3A8
100
AcDbEntity
  8
RACCORDO
100
AcDbLine
 62
253
  6
CONTINUOUS
 10
-23.698657103
 20
-8.1398211288
 11
-23.722520042
 21
-6.4995647066
  0
LINE
  5
3A9
100
AcDbEntity
  8
RACCORDO
100
AcDbLine
 62
253
  6
CONTINUOUS
 10
-23.8152578071
 20
-8.1561733176
 11
-23.8391407633
 21
-6.5130339931
  0
LINE
  5
3AA
100
AcDbEntity
  8
RACCORDO
100
AcDbLine
 62
253
  6
CONTINUOUS
 10
-23.8391407633
 20
-6.5130339931
 11
-23.8586846538
 21
-4.7696312839
  0
LWPOLYLINE
  5
3AB
100
AcDbEntity
  8
RACCORDO
100
AcDbPolyline
 62
253
  6
CONTINUOUS
 90
7
 70
0
 10
-23.722520042
 20
-6.4995647066
 10
-23.7419480882
 20
-4.7594181076
 10
-23.7498202262
 20
-3.8509792416
 10
-23.7561201786
 20
-2.9143837947
 10
-23.76070555
 20
-1.9488083238
 10
-23.7636194249
 20
-0.9551823237
 10
-23.7648105502
 20
0.0664354303
  0
LWPOLYLINE
  5
3AC
100
AcDbEntity
  8
RACCORDO
100
AcDbPolyline
 62
253
  6
CONTINUOUS
 90
5
 70
0
 10
-23.8586846538
 20
-4.7696312839
 10
-23.8728838328
 20
-2.9208842715
 10
-23.8776427556
 20
-1.9533314424
 10
-23.8806167476
 20
-0.9575571181
 10
-23.8816368814
 20
0.0664354303
  0
LINE
  5
3AD
100
AcDbEntity
  8
RACCORDO
100
AcDbLine
 62
253
  6
CONTINUOUS
 10
-23.2532800204
 20
-3.66275811
 11
-23.2283100207
 21
-21.9379279858
  0
LINE
  5
3AE
100
AcDbEntity
  8
RACCORDO
100
AcDbLine
 62
253
  6
CONTINUOUS
 10
-23.170510541
 20
-3.6620307536
 11
-23.1457059447
 21
-21.9335611948
  0
LINE
  5
3AF
100
AcDbEntity
  8
0
100
AcDbLine
 62
7
  6
CONTINUOUS
 10
-26.2766611829
 20
-13.6924810626
 11
-26.2766611829
 21
-13.3790398264
  0
LINE
  5
3B0
100
AcDbEntity
  8
0
100
AcDbLine
 62
7
  6
CONTINUOUS
 10
-26.2766611829
 20
-12.4880896011
 11
-26.2766611829
 21
-12.4108095493
  0
LINE
  5
3B1
100
AcDbEntity
  8
0
100
AcDbLine
 62
7
  6
CONTINUOUS
 10
-26.2766611829
 20
-9.9563198782
 11
-26.2766611829
 21
-9.8790398264
  0
LINE
  5
3B2
100
AcDbEntity
  8
0
100
AcDbLine
 62
7
  6
CONTINUOUS
 10
-26.2766611829
 20
-8.9880896011
 11
-26.2766611829
 21
-8.6746483649
  0
LINE
  5
3B3
100
AcDbEntity
  8
0
100
AcDbLine
 62
7
  6
CONTINUOUS
 10
-26.2766611829
 20
8.8075189374
 11
-26.2766611829
 21
9.1209601736
  0
LINE
  5
3B4
100
AcDbEntity
  8
0
100
AcDbLine
 62
7
  6
CONTINUOUS
 10
-26.2766611829
 20
10.0119103989
 11
-26.2766611829
 21
10.0891904507
  0
LINE
  5
3B5
100
AcDbEntity
  8
0
100
AcDbLine
 62
7
  6
CONTINUOUS
 10
-26.2766611829
 20
12.5436801218
 11
-26.2766611829
 21
12.6209601736
  0
LINE
  5
3B6
100
AcDbEntity
  8
0
100
AcDbLine
 62
7
  6
CONTINUOUS
 10
-26.2766611829
 20
13.5119103989
 11
-26.2766611829
 21
13.8253516351
  0
LINE
  5
3B7
100
AcDbEntity
  8
0
100
AcDbLine
 62
7
  6
CONTINUOUS
 10
-26.2551352126
 20
-13.6835647138
 11
-26.2551352126
 21
-13.3781221641
  0
LINE
  5
3B8
100
AcDbEntity
  8
0
100
AcDbLine
 62
7
  6
CONTINUOUS
 10
-26.2551352126
 20
-12.4890072634
 11
-26.2551352126
 21
-12.4165774157
  0
LINE
  5
3B9
100
AcDbEntity
  8
0
100
AcDbLine
 62
7
  6
CONTINUOUS
 10
-26.2551352126
 20
-9.9505520119
 11
-26.2551352126
 21
-9.8781221641
  0
LINE
  5
3BA
100
AcDbEntity
  8
0
100
AcDbLine
 62
7
  6
CONTINUOUS
 10
-26.2551352126
 20
-8.9890072634
 11
-26.2551352126
 21
-8.6835647138
  0
LINE
  5
3BB
100
AcDbEntity
  8
0
100
AcDbLine
 62
7
  6
CONTINUOUS
 10
-26.2551352126
 20
8.8164352862
 11
-26.2551352126
 21
9.1218778359
  0
LINE
  5
3BC
100
AcDbEntity
  8
0
100
AcDbLine
 62
7
  6
CONTINUOUS
 10
-26.2551352126
 20
10.0109927366
 11
-26.2551352126
 21
10.0834225843
  0
LINE
  5
3BD
100
AcDbEntity
  8
0
100
AcDbLine
 62
7
  6
CONTINUOUS
 10
-26.2551352126
 20
12.5494479881
 11
-26.2551352126
 21
12.6218778359
  0
LINE
  5
3BE
100
AcDbEntity
  8
0
100
AcDbLine
 62
7
  6
CONTINUOUS
 10
-26.2551352126
 20
13.5109927366
 11
-26.2551352126
 21
13.8164352862
  0
LINE
  5
3BF
100
AcDbEntity
  8
0
100
AcDbLine
 62
7
  6
CONTINUOUS
 10
-26.1301355464
 20
-34.0569689424
 11
-26.1301355464
 21
-33.8335647138
  0
LINE
  5
3C0
100
AcDbEntity
  8
0
100
AcDbLine
 62
7
  6
CONTINUOUS
 10
-26.0266611829
 20
-11.9777968474
 11
-26.0266611829
 21
-10.3893325801
  0
LINE
  5
3C1
100
AcDbEntity
  8
0
100
AcDbLine
 62
7
  6
CONTINUOUS
 10
-26.0266611829
 20
10.5222031526
 11
-26.0266611829
 21
12.1106674199
  0
LINE
  5
3C2
100
AcDbEntity
  8
0
100
AcDbLine
 62
7
  6
CONTINUOUS
 10
-26.0051352126
 20
-11.9835647138
 11
-26.0051352126
 21
-10.3835647138
  0
LINE
  5
3C3
100
AcDbEntity
  8
0
100
AcDbLine
 62
7
  6
CONTINUOUS
 10
-26.0051352126
 20
10.5164352862
 11
-26.0051352126
 21
12.1164352862
  0
LINE
  5
3C4
100
AcDbEntity
  8
0
100
AcDbLine
 62
7
  6
CONTINUOUS
 10
-25.9910639676
 20
32.325199984
 11
-25.9910639676
 21
33.4231440869
  0
LINE
  5
3C5
100
AcDbEntity
  8
0
100
AcDbLine
 62
7
  6
CONTINUOUS
 10
-25.988468228
 20
-31.8271817477
 11
-25.988468228
 21
-31.9973944934
  0
LINE
  5
3C6
100
AcDbEntity
  8
0
100
AcDbLine
 62
7
  6
CONTINUOUS
 10
-25.9633814281
 20
30.1049883333
 11
-25.9633814281
 21
31.6701765135
  0
LINE
  5
3C7
100
AcDbEntity
  8
0
100
AcDbLine
 62
7
  6
CONTINUOUS
 10
-25.4051352126
 20
-31.4016497643
 11
-25.4051352126
 21
-31.4867562564
  0
LINE
  5
3C8
100
AcDbEntity
  8
0
100
AcDbLine
 62
253
  6
CONTINUOUS
 10
-25.4051352126
 20
-13.9937718004
 11
-25.4051352126
 21
-8.3733576271
  0
LINE
  5
3C9
100
AcDbEntity
  8
0
100
AcDbLine
 62
253
  6
CONTINUOUS
 10
-25.4051352126
 20
8.5062281996
 11
-25.4051352126
 21
14.1266423729
  0
LINE
  5
3CA
100
AcDbEntity
  8
0
100
AcDbLine
 62
7
  6
CONTINUOUS
 10
-25.363468228
 20
-32.2952668579
 11
-25.363468228
 21
-32.4654796036
  0
LINE
  5
3CB
100
AcDbEntity
  8
0
100
AcDbLine
 62
7
  6
CONTINUOUS
 10
-25.2051352126
 20
-22.4335647138
 11
-25.2051352126
 21
22.5664352862
  0
LINE
  5
3CC
100
AcDbEntity
  8
0
100
AcDbLine
 62
7
  6
CONTINUOUS
 10
-25.1968021971
 20
-31.4867562564
 11
-25.1968021971
 21
-31.4016497643
  0
LINE
  5
3CD
100
AcDbEntity
  8
0
100
AcDbLine
 62
7
  6
CONTINUOUS
 10
-25.1551352126
 20
-32.4654796036
 11
-25.1551352126
 21
-32.2952668579
  0
LINE
  5
3CE
100
AcDbEntity
  8
0
100
AcDbLine
 62
7
  6
CONTINUOUS
 10
-24.6485057884
 20
31.9719251919
 11
-24.6485057884
 21
31.9955588226
  0
LINE
  5
3CF
100
AcDbEntity
  8
0
100
AcDbLine
 62
7
  6
CONTINUOUS
 10
-23.9051352126
 20
-36.4335647138
 11
-23.9051352126
 21
-30.4335647138
  0
LINE
  5
3D0
100
AcDbEntity
  8
DRAFT
100
AcDbLine
 62
7
  6
CONTINUOUS
 10
-23.1051352126
 20
-21.9335647138
 11
-23.1051352126
 21
22.0664352862
  0
LINE
  5
3D1
100
AcDbEntity
  8
0
100
AcDbLine
 62
7
  6
CONTINUOUS
 10
-22.9051352126
 20
29.0664352862
 11
-22.9051352126
 21
35.0664352862
  0
LINE
  5
3D2
100
AcDbEntity
  8
RACCORDO
100
AcDbLine
 62
7
  6
CONTINUOUS
 10
-22.4051352126
 20
21.9672575654
 11
-22.4051352126
 21
-21.8343869929
  0
LINE
  5
3D3
100
AcDbEntity
  8
RACCORDO
100
AcDbLine
 62
7
  6
CONTINUOUS
 10
-22.4051352126
 20
-23.854070058
 11
-22.4051352126
 21
-25.1335647138
  0
LINE
  5
3D4
100
AcDbEntity
  8
RACCORDO
100
AcDbLine
 62
7
  6
CONTINUOUS
 10
-22.4051352126
 20
23.9869406305
 11
-22.4051352126
 21
25.2664352862
  0
LINE
  5
3D5
100
AcDbEntity
  8
RACCORDO
100
AcDbLine
 62
253
  6
CONTINUOUS
 10
-23.8816368814
 20
0.0664354303
 11
-23.8807475505
 21
1.0226414062
  0
LINE
  5
3D6
100
AcDbEntity
  8
RACCORDO
100
AcDbLine
 62
253
  6
CONTINUOUS
 10
-23.2283100207
 20
22.0707985583
 11
-23.2532800204
 21
-3.66275811
  0
LINE
  5
3D7
100
AcDbEntity
  8
RACCORDO
100
AcDbLine
 62
253
  6
CONTINUOUS
 10
-23.1457060722
 20
22.0663758926
 11
-23.170510541
 21
-3.6620307536
  0
LINE
  5
3D8
100
AcDbEntity
  8
RACCORDO
100
AcDbLine
 62
253
  6
CONTINUOUS
 10
-23.7648105481
 20
0.0664354303
 11
-23.7612313644
 21
1.9493970356
  0
LINE
  5
3D9
100
AcDbEntity
  8
RACCORDO
100
AcDbLine
 62
253
  6
CONTINUOUS
 10
-23.8807475505
 20
1.0226414062
 11
-23.8739954963
 21
2.8577708886
  0
LINE
  5
3DA
100
AcDbEntity
  8
RACCORDO
100
AcDbLine
 62
253
  6
CONTINUOUS
 10
-23.7612313644
 20
1.9493970356
 11
-23.7517146028
 21
3.728802067
  0
LINE
  5
3DB
100
AcDbEntity
  8
RACCORDO
100
AcDbLine
 62
253
  6
CONTINUOUS
 10
-23.8739954963
 20
2.8577708886
 11
-23.8615759547
 21
4.5877903213
  0
LINE
  5
3DC
100
AcDbEntity
  8
RACCORDO
100
AcDbLine
 62
253
  6
CONTINUOUS
 10
-23.7517146028
 20
3.728802067
 11
-23.736821588
 21
5.4074675039
  0
LWPOLYLINE
  5
3DD
100
AcDbEntity
  8
0
100
AcDbPolyline
 62
7
  6
CONTINUOUS
 90
22
 70
0
 10
-24.8654373251
 20
32.946722483
 10
-24.8660207346
 20
32.8912366227
 10
-24.8697185845
 20
32.8383810786
 10
-24.8765308748
 20
32.7881558508
 10
-24.8864993461
 20
32.7405611588
 10
-24.8995822579
 20
32.6955967831
 10
-24.9156543882
 20
32.6532620649
 10
-24.9348326421
 20
32.6135654065
 10
-24.9570001145
 20
32.5764984057
 10
-24.9816808686
 20
32.5420351965
 10
-25.0085181779
 20
32.5102456668
 10
-25.0378687689
 20
32.4810599287
 10
-25.0703268842
 20
32.4542424525
 10
-25.1058825454
 20
32.4296908776
 10
-25.1445457309
 20
32.4075075646
 10
-25.1869406179
 20
32.3877640649
 10
-25.2335334684
 20
32.3703169055
 10
-25.2838580204
 20
32.3553095594
 10
-25.3371396654
 20
32.3432439971
 10
-25.3931202005
 20
32.3342875422
 10
-25.4520578286
 20
32.3282728712
 10
-25.5139525496
 20
32.325199984
  0
LINE
  5
3DE
100
AcDbEntity
  8
RACCORDO
100
AcDbLine
 62
253
  6
CONTINUOUS
 10
-23.8615759547
 20
4.5877903213
 11
-23.844416224
 21
6.2241305581
  0
LINE
  5
3DF
100
AcDbEntity
  8
RACCORDO
100
AcDbLine
 62
253
  6
CONTINUOUS
 10
-23.736821588
 20
5.4074675039
 11
-23.7176434388
 21
6.9960244796
  0
LINE
  5
3E0
100
AcDbEntity
  8
RACCORDO
100
AcDbLine
 62
253
  6
CONTINUOUS
 10
-23.844416224
 20
6.2241305581
 11
-23.823338342
 21
7.7724561271
  0
LINE
  5
3E1
100
AcDbEntity
  8
RACCORDO
100
AcDbLine
 62
253
  6
CONTINUOUS
 10
-23.7176434388
 20
6.9960244796
 11
-23.6949280641
 21
8.5021214814
  0
LINE
  5
3E2
100
AcDbEntity
  8
RACCORDO
100
AcDbLine
 62
253
  6
CONTINUOUS
 10
-23.823338342
 20
7.7724561271
 11
-23.7989967866
 21
9.2408677217
  0
LINE
  5
3E3
100
AcDbEntity
  8
RACCORDO
100
AcDbLine
 62
253
  6
CONTINUOUS
 10
-23.6949280641
 20
8.5021214814
 11
-23.6692055878
 21
9.9301841624
  0
LINE
  5
3E4
100
AcDbEntity
  8
RACCORDO
100
AcDbLine
 62
253
  6
CONTINUOUS
 10
-23.7989967866
 20
9.2408677217
 11
-23.7719662294
 21
10.6349593103
  0
LINE
  5
3E5
100
AcDbEntity
  8
RACCORDO
100
AcDbLine
 62
253
  6
CONTINUOUS
 10
-23.6692055878
 20
9.9301841624
 11
-23.6410711441
 21
11.2865119301
  0
LWPOLYLINE
  5
3E6
100
AcDbEntity
  8
RACCORDO
100
AcDbPolyline
 62
253
  6
CONTINUOUS
 90
7
 70
0
 10
-22.6968145268
 20
-23.7608969249
 10
-22.6970171665
 20
-23.7698979354
 10
-22.6971346692
 20
-23.7775368112
 10
-22.6971649719
 20
-23.7836794345
 10
-22.6971075426
 20
-23.7882179574
 10
-22.6969633894
 20
-23.7910726962
 10
-22.6967350433
 20
-23.7921935293
  0
LINE
  5
3E7
100
AcDbEntity
  8
RACCORDO
100
AcDbLine
 62
253
  6
CONTINUOUS
 10
-23.7719662294
 20
10.6349593103
 11
-23.7428040151
 21
11.9571250917
  0
LINE
  5
3E8
100
AcDbEntity
  8
RACCORDO
100
AcDbLine
 62
253
  6
CONTINUOUS
 10
-23.6410711441
 20
11.2865119301
 11
-23.6111170009
 21
12.5719467119
  0
LINE
  5
3E9
100
AcDbEntity
  8
RACCORDO
100
AcDbLine
 62
253
  6
CONTINUOUS
 10
-23.7428040151
 20
11.9571250917
 11
-23.7120309516
 21
13.2088307274
  0
LINE
  5
3EA
100
AcDbEntity
  8
RACCORDO
100
AcDbLine
 62
253
  6
CONTINUOUS
 10
-23.6111170009
 20
12.5719467119
 11
-23.5797699097
 21
13.7869972184
  0
LINE
  5
3EB
100
AcDbEntity
  8
RACCORDO
100
AcDbLine
 62
253
  6
CONTINUOUS
 10
-23.7120309516
 20
13.2088307274
 11
-23.6801832066
 21
14.38944888
  0
LINE
  5
3EC
100
AcDbEntity
  8
RACCORDO
100
AcDbLine
 62
253
  6
CONTINUOUS
 10
-23.5797699097
 20
13.7869972184
 11
-23.5476073678
 21
14.9310170514
  0
LINE
  5
3ED
100
AcDbEntity
  8
RACCORDO
100
AcDbLine
 62
253
  6
CONTINUOUS
 10
-23.6801832066
 20
14.38944888
 11
-23.6477391998
 21
15.4995949395
  0
LINE
  5
3EE
100
AcDbEntity
  8
RACCORDO
100
AcDbLine
 62
253
  6
CONTINUOUS
 10
-23.5476073678
 20
14.9310170514
 11
-23.4987544939
 21
16.5180252261
  0
LINE
  5
3EF
100
AcDbEntity
  8
RACCORDO
100
AcDbLine
 62
253
  6
CONTINUOUS
 10
-23.6477391998
 20
15.4995949395
 11
-23.5987995518
 21
17.0372601533
  0
LINE
  5
3F0
100
AcDbEntity
  8
RACCORDO
100
AcDbLine
 62
253
  6
CONTINUOUS
 10
-23.4987544939
 20
16.5180252261
 11
-23.450158397
 21
17.9577903692
  0
LINE
  5
3F1
100
AcDbEntity
  8
RACCORDO
100
AcDbLine
 62
253
  6
CONTINUOUS
 10
-23.5987995518
 20
17.0372601533
 11
-23.5504260002
 21
18.4309827032
  0
LINE
  5
3F2
100
AcDbEntity
  8
RACCORDO
100
AcDbLine
 62
253
  6
CONTINUOUS
 10
-23.450158397
 20
17.9577903692
 11
-23.402568314
 21
19.2636270664
  0
LINE
  5
3F3
100
AcDbEntity
  8
RACCORDO
100
AcDbLine
 62
253
  6
CONTINUOUS
 10
-23.5504260002
 20
18.4309827032
 11
-23.5032743731
 21
19.6944294418
  0
LINE
  5
3F4
100
AcDbEntity
  8
RACCORDO
100
AcDbLine
 62
253
  6
CONTINUOUS
 10
-23.402568314
 20
19.2636270664
 11
-23.3567736685
 21
20.4416140002
  0
LINE
  5
3F5
100
AcDbEntity
  8
RACCORDO
100
AcDbLine
 62
253
  6
CONTINUOUS
 10
-23.5032743731
 20
19.6944294418
 11
-23.4436822614
 21
21.1832813244
  0
LINE
  5
3F6
100
AcDbEntity
  8
RACCORDO
100
AcDbLine
 62
253
  6
CONTINUOUS
 10
-23.3567736685
 20
20.4416140002
 11
-23.2989728887
 21
21.8379210856
  0
LINE
  5
3F7
100
AcDbEntity
  8
RACCORDO
100
AcDbLine
 62
253
  6
CONTINUOUS
 10
-23.4436822614
 20
21.1832813244
 11
-23.3845224375
 21
22.5639020548
  0
LINE
  5
3F8
100
AcDbEntity
  8
RACCORDO
100
AcDbLine
 62
253
  6
CONTINUOUS
 10
-23.3845224375
 20
22.5639020548
 11
-23.3702020907
 21
22.8856972028
  0
LINE
  5
3F9
100
AcDbEntity
  8
RACCORDO
100
AcDbLine
 62
253
  6
CONTINUOUS
 10
-23.2989728887
 20
21.8379210856
 11
-23.2543122406
 21
22.8586518936
  0
LINE
  5
3FA
100
AcDbEntity
  8
RACCORDO
100
AcDbLine
 62
253
  6
CONTINUOUS
 10
-23.3702020907
 20
22.8856972028
 11
-23.3488831917
 21
23.2781678232
  0
LINE
  5
3FB
100
AcDbEntity
  8
RACCORDO
100
AcDbLine
 62
253
  6
CONTINUOUS
 10
-23.2691022102
 20
22.8614808709
 11
-23.2490066605
 21
23.2312568817
  0
LWPOLYLINE
  5
3FC
100
AcDbEntity
  8
RACCORDO
100
AcDbPolyline
 62
7
  6
CONTINUOUS
 90
22
 70
0
 10
-23.3488831917
 20
23.2781678232
 10
-23.3443673741
 20
23.3281064046
 10
-23.3362387931
 20
23.3774375089
 10
-23.3245703905
 20
23.4259036674
 10
-23.3094389006
 20
23.4732901055
 10
-23.2909614625
 20
23.5193194822
 10
-23.269319512
 20
23.5636643455
 10
-23.2446857073
 20
23.6060996815
 10
-23.2172226813
 20
23.6464554391
 10
-23.1871446594
 20
23.6845252495
 10
-23.1546623061
 20
23.7201454243
 10
-23.1199709986
 20
23.7531944643
 10
-23.0832786624
 20
23.7835603945
 10
-23.0448126803
 20
23.8111338388
 10
-23.0047778844
 20
23.83584122
 10
-22.963345572
 20
23.8576398566
 10
-22.9207322283
 20
23.8764686093
 10
-22.8771504502
 20
23.8922836346
 10
-22.8327563552
 20
23.9050708076
 10
-22.7877403315
 20
23.9148075073
 10
-22.7423308499
 20
23.9214752107
 10
-22.6967355364
 20
23.9250759283
  0
LWPOLYLINE
  5
3FD
100
AcDbEntity
  8
RACCORDO
100
AcDbPolyline
 62
253
  6
CONTINUOUS
 90
22
 70
0
 10
-23.2490066605
 20
23.2312568817
 10
-23.245005877
 20
23.2740977352
 10
-23.2380670377
 20
23.3160293244
 10
-23.2281901425
 20
23.3570516493
 10
-23.2152463919
 20
23.3973973558
 10
-23.1993645855
 20
23.436833798
 10
-23.1809311217
 20
23.4746630384
 10
-23.1599090955
 20
23.5108077553
 10
-23.1363354118
 20
23.5453452703
 10
-23.1107071846
 20
23.5778096109
 10
-23.0830121041
 20
23.6081438097
 10
-23.0532624799
 20
23.6364048341
 10
-23.0219923556
 20
23.6622976136
 10
-22.9892086866
 20
23.6857766116
 10
-22.9549045174
 20
23.7068873648
 10
-22.9195930242
 20
23.7254714128
 10
-22.8832759316
 20
23.7415004657
 10
-22.845951515
 20
23.7550028135
 10
-22.8081277769
 20
23.7659048661
 10
-22.7699740515
 20
23.7741820932
 10
-22.7313210046
 20
23.7798590251
 10
-22.6921686363
 20
23.7829356617
  0
LINE
  5
3FE
100
AcDbEntity
  8
0
100
AcDbLine
 62
7
  6
CONTINUOUS
 10
-31.511385296
 20
-34.4144158335
 11
-31.5551351291
 21
-34.7271817537
  0
LINE
  5
3FF
100
AcDbEntity
  8
0
100
AcDbLine
 62
7
  6
CONTINUOUS
 10
-32.1238852126
 20
-35.0399476738
 11
-32.167635296
 21
-35.3080328109
  0
LINE
  5
400
100
AcDbEntity
  8
0
100
AcDbLine
 62
7
  6
CONTINUOUS
 10
-31.3363852126
 20
-34.7271817537
 11
-31.2926351291
 21
-34.4590966793
  0
LINE
  5
401
100
AcDbEntity
  8
0
100
AcDbLine
 62
7
  6
CONTINUOUS
 10
-33.4363852126
 20
-34.4590966793
 11
-33.4801351709
 21
-34.6825009079
  0
LINE
  5
402
100
AcDbEntity
  8
0
100
AcDbLine
 62
7
  6
CONTINUOUS
 10
-31.9488851291
 20
-35.3080328109
 11
-31.905135296
 21
-35.0846285196
  0
LINE
  5
403
100
AcDbEntity
  8
0
100
AcDbLine
 62
7
  6
CONTINUOUS
 10
-35.31763521
 20
-34.1463306339
 11
-35.3613852113
 21
-34.3250540169
  0
LINE
  5
404
100
AcDbEntity
  8
0
100
AcDbLine
 62
7
  6
CONTINUOUS
 10
-33.8634684665
 20
-31.2314370187
 11
-33.9051352126
 21
-31.4016497643
  0
LINE
  5
405
100
AcDbEntity
  8
0
100
AcDbLine
 62
7
  6
CONTINUOUS
 10
-33.8738851709
 20
-34.5931392165
 11
-33.8301352126
 21
-34.4144158335
  0
LINE
  5
406
100
AcDbEntity
  8
0
100
AcDbLine
 62
253
  6
CONTINUOUS
 10
-26.8327809261
 20
-9.7233424616
 11
-26.8344523083
 21
-9.7295801448
  0
LINE
  5
407
100
AcDbEntity
  8
0
100
AcDbLine
 62
253
  6
CONTINUOUS
 10
-26.8327809261
 20
-13.2233424616
 11
-26.8344523083
 21
-13.2295801448
  0
LINE
  5
408
100
AcDbEntity
  8
0
100
AcDbLine
 62
7
  6
CONTINUOUS
 10
-34.6134685857
 20
-31.5293094428
 11
-34.6551352126
 21
-31.6569690021
  0
LINE
  5
409
100
AcDbEntity
  8
0
100
AcDbLine
 62
7
  6
CONTINUOUS
 10
-34.4051352126
 20
-31.6995221885
 11
-34.3634685857
 21
-31.5718626292
  0
LINE
  5
40A
100
AcDbEntity
  8
0
100
AcDbLine
 62
7
  6
CONTINUOUS
 10
-34.6134685857
 20
-32.4229264172
 11
-34.6551352126
 21
-32.5505859764
  0
LINE
  5
40B
100
AcDbEntity
  8
0
100
AcDbLine
 62
7
  6
CONTINUOUS
 10
-34.4051352126
 20
-32.5931391926
 11
-34.3634685857
 21
-32.4654796036
  0
LINE
  5
40C
100
AcDbEntity
  8
0
100
AcDbLine
 62
7
  6
CONTINUOUS
 10
-33.6551352126
 20
-31.44420307
 11
-33.6134684665
 21
-31.3165433915
  0
LINE
  5
40D
100
AcDbEntity
  8
0
100
AcDbLine
 62
253
  6
CONTINUOUS
 10
-9.6949129605
 20
-26.8612104273
 11
-9.7011506436
 21
-26.8628818095
  0
LINE
  5
40E
100
AcDbEntity
  8
0
100
AcDbLine
 62
253
  6
CONTINUOUS
 10
-13.1949129605
 20
-26.8612104273
 11
-13.2011506436
 21
-26.8628818095
  0
LINE
  5
40F
100
AcDbEntity
  8
0
100
AcDbLine
 62
7
  6
CONTINUOUS
 10
-25.738468228
 20
-32.9335647138
 11
-25.5718021971
 21
-32.8910115236
  0
LINE
  5
410
100
AcDbEntity
  8
0
100
AcDbLine
 62
7
  6
CONTINUOUS
 10
-27.5718021971
 20
-32.9335647138
 11
-27.4051352126
 21
-32.8910115236
  0
LINE
  5
411
100
AcDbEntity
  8
0
100
AcDbLine
 62
7
  6
CONTINUOUS
 10
-31.1134687049
 20
-32.6782455655
 11
-31.2801352126
 21
-32.7207987519
  0
LINE
  5
412
100
AcDbEntity
  8
0
100
AcDbLine
 62
7
  6
CONTINUOUS
 10
-32.9468019587
 20
-32.635692379
 11
-33.1134684665
 21
-32.6782455655
  0
LINE
  5
413
100
AcDbEntity
  8
0
100
AcDbLine
 62
7
  6
CONTINUOUS
 10
-31.6968017203
 20
-31.9122881206
 11
-31.5301352126
 21
-31.8697349341
  0
LINE
  5
414
100
AcDbEntity
  8
0
100
AcDbLine
 62
7
  6
CONTINUOUS
 10
-27.4051352126
 20
-32.6782455655
 11
-27.613468228
 21
-32.7207987519
  0
LINE
  5
415
100
AcDbEntity
  8
0
100
AcDbLine
 62
7
  6
CONTINUOUS
 10
-34.9238852022
 20
-34.1016497882
 11
-34.7051351917
 21
-34.0569689424
  0
LINE
  5
416
100
AcDbEntity
  8
0
100
AcDbLine
 62
7
  6
CONTINUOUS
 10
-31.2801352126
 20
-32.9335647138
 11
-31.0718017203
 21
-32.8910115236
  0
LINE
  5
417
100
AcDbEntity
  8
0
100
AcDbLine
 62
7
  6
CONTINUOUS
 10
-33.1134684665
 20
-32.9335647138
 11
-32.9051352126
 21
-32.8910115236
  0
LINE
  5
418
100
AcDbEntity
  8
0
100
AcDbLine
 62
7
  6
CONTINUOUS
 10
-26.1968021971
 20
-31.1888838323
 11
-25.988468228
 21
-31.1463306458
  0
LINE
  5
419
100
AcDbEntity
  8
0
100
AcDbLine
 62
7
  6
CONTINUOUS
 10
-34.9051352126
 20
-32.9335647138
 11
-34.6968018395
 21
-32.8910115236
  0
LINE
  5
41A
100
AcDbEntity
  8
0
100
AcDbLine
 62
7
  6
CONTINUOUS
 10
-28.0301352126
 20
-31.1888838323
 11
-27.8218021971
 21
-31.1463306458
  0
LINE
  5
41B
100
AcDbEntity
  8
0
100
AcDbLine
 62
7
  6
CONTINUOUS
 10
-31.5301352126
 20
-31.6569690021
 11
-31.7384687049
 21
-31.6995221885
  0
LINE
  5
41C
100
AcDbEntity
  8
0
100
AcDbLine
 62
7
  6
CONTINUOUS
 10
-27.7801352126
 20
-30.9335647138
 11
-28.0718017203
 21
-30.9761179002
  0
LWPOLYLINE
  5
41D
100
AcDbEntity
  8
RACCORDO
100
AcDbPolyline
 62
253
  6
CONTINUOUS
 90
12
 70
0
 10
22.8864651112
 20
-23.7922053558
 10
19.0898497336
 20
-23.9500328288
 10
15.2921540118
 20
-24.0791766369
 10
11.4935928565
 20
-24.1796294713
 10
7.6943794533
 20
-24.2513856265
 10
3.8947305724
 20
-24.2944409525
 10
0.0948665575
 20
-24.3087929902
 10
-3.7049975606
 20
-24.2944409785
 10
-7.5046467454
 20
-24.2513856738
 10
-11.3038606452
 20
-24.179629531
 10
-15.1024224866
 20
-24.0791766959
 10
-18.9001190867
 20
-23.9500328694
  0
LWPOLYLINE
  5
41E
100
AcDbEntity
  8
RACCORDO
100
AcDbPolyline
 62
253
  6
CONTINUOUS
 90
13
 70
0
 10
22.8818982111
 20
-23.6500650892
 10
19.0856901268
 20
-23.8078701041
 10
15.2888295611
 20
-23.9369853318
 10
11.4913165138
 20
-24.0374107722
 10
7.6929335225
 20
-24.1091489155
 10
3.8938980497
 20
-24.1521972716
 10
0.094862483
 20
-24.1665483703
 10
-3.7041734738
 20
-24.1521972227
 10
-7.5032095245
 20
-24.1091488178
 10
-11.3015923936
 20
-24.0374106523
 10
-15.0991043227
 20
-23.9369852252
 10
-18.8959630703
 20
-23.8078700375
 10
-22.6921686363
 20
-23.6500650892
  0
LWPOLYLINE
  5
41F
100
AcDbEntity
  8
RACCORDO
100
AcDbPolyline
 62
253
  6
CONTINUOUS
 90
22
 70
0
 10
22.0948647874
 20
-23.243161662
 10
22.1565496612
 20
-23.2416225653
 10
22.2175035872
 20
-23.2373760239
 10
22.2777265655
 20
-23.2304220375
 10
22.3371538857
 20
-23.2207651345
 10
22.3958502581
 20
-23.2084007866
 10
22.4540098141
 20
-23.1933154097
 10
22.5117908404
 20
-23.1755141262
 10
22.5690350502
 20
-23.1549918137
 10
22.6254617143
 20
-23.1317195211
 10
22.6811304858
 20
-23.1056607348
 10
22.7359817116
 20
-23.0768519685
 10
22.7895557026
 20
-23.0453738124
 10
22.8418198127
 20
-23.0112307643
 10
22.892806688
 20
-22.9744183264
 10
22.9421545787
 20
-22.9350035956
 10
22.9897921653
 20
-22.8930968593
 10
23.0357907673
 20
-22.84858783
 10
23.0800025923
 20
-22.8012127416
 10
23.1223783764
 20
-22.7508836721
 10
23.1629673836
 20
-22.6976885435
 10
23.201769614
 20
-22.6416273559
  0
LWPOLYLINE
  5
420
100
AcDbEntity
  8
RACCORDO
100
AcDbPolyline
 62
253
  6
CONTINUOUS
 90
22
 70
0
 10
22.0948731514
 20
-23.1855585432
 10
22.1528213991
 20
-23.1841772594
 10
22.2102989412
 20
-23.1800785088
 10
22.267177934
 20
-23.1733186019
 10
22.3231436792
 20
-23.1639952976
 10
22.3782740469
 20
-23.1521573652
 10
22.4330210909
 20
-23.1377181033
 10
22.4874003325
 20
-23.1206306271
 10
22.5411314733
 20
-23.1009372415
 10
22.5941982183
 20
-23.0786012131
 10
22.6465087882
 20
-23.0536030754
 10
22.6978693763
 20
-23.0259769748
 10
22.7481047887
 20
-22.9957663345
 10
22.797024701
 20
-22.9630387806
 10
22.8445394508
 20
-22.927807256
 10
22.8906159986
 20
-22.890033747
 10
22.935026096
 20
-22.8498332129
 10
22.9776985408
 20
-22.8071939673
 10
23.0187770378
 20
-22.7618404228
 10
23.0581506748
 20
-22.7136855964
 10
23.0955068795
 20
-22.6628828989
 10
23.130634664
 20
-22.6094935469
  0
LINE
  5
421
100
AcDbEntity
  8
0
100
AcDbLine
 62
7
  6
CONTINUOUS
 10
13.8037811363
 20
-26.3050906841
 11
13.5403399
 21
-26.3050906841
  0
LINE
  5
422
100
AcDbEntity
  8
0
100
AcDbLine
 62
7
  6
CONTINUOUS
 10
12.6493896748
 20
-26.3050906841
 11
12.5721096229
 21
-26.3050906841
  0
LINE
  5
423
100
AcDbEntity
  8
0
100
AcDbLine
 62
7
  6
CONTINUOUS
 10
10.1176199519
 20
-26.3050906841
 11
10.0403399
 21
-26.3050906841
  0
LINE
  5
424
100
AcDbEntity
  8
0
100
AcDbLine
 62
7
  6
CONTINUOUS
 10
9.1493896748
 20
-26.3050906841
 11
8.8859484386
 21
-26.3050906841
  0
LINE
  5
425
100
AcDbEntity
  8
0
100
AcDbLine
 62
7
  6
CONTINUOUS
 10
-8.6962188637
 20
-26.3050906841
 11
-8.9596601
 21
-26.3050906841
  0
LINE
  5
426
100
AcDbEntity
  8
0
100
AcDbLine
 62
7
  6
CONTINUOUS
 10
-9.8506103252
 20
-26.3050906841
 11
-9.9278903771
 21
-26.3050906841
  0
LINE
  5
427
100
AcDbEntity
  8
0
100
AcDbLine
 62
7
  6
CONTINUOUS
 10
-12.3823800481
 20
-26.3050906841
 11
-12.4596601
 21
-26.3050906841
  0
LINE
  5
428
100
AcDbEntity
  8
0
100
AcDbLine
 62
7
  6
CONTINUOUS
 10
-13.3506103252
 20
-26.3050906841
 11
-13.6140515614
 21
-26.3050906841
  0
LINE
  5
429
100
AcDbEntity
  8
0
100
AcDbLine
 62
7
  6
CONTINUOUS
 10
13.7948647874
 20
-26.2835647138
 11
13.5394222377
 21
-26.2835647138
  0
LINE
  5
42A
100
AcDbEntity
  8
0
100
AcDbLine
 62
7
  6
CONTINUOUS
 10
12.6503073371
 20
-26.2835647138
 11
12.5778774893
 21
-26.2835647138
  0
LINE
  5
42B
100
AcDbEntity
  8
0
100
AcDbLine
 62
7
  6
CONTINUOUS
 10
10.1118520855
 20
-26.2835647138
 11
10.0394222377
 21
-26.2835647138
  0
LINE
  5
42C
100
AcDbEntity
  8
0
100
AcDbLine
 62
7
  6
CONTINUOUS
 10
9.1503073371
 20
-26.2835647138
 11
8.8948647874
 21
-26.2835647138
  0
LINE
  5
42D
100
AcDbEntity
  8
0
100
AcDbLine
 62
7
  6
CONTINUOUS
 10
-8.7051352126
 20
-26.2835647138
 11
-8.9605777623
 21
-26.2835647138
  0
LINE
  5
42E
100
AcDbEntity
  8
0
100
AcDbLine
 62
7
  6
CONTINUOUS
 10
-9.8496926629
 20
-26.2835647138
 11
-9.9221225107
 21
-26.2835647138
  0
LINE
  5
42F
100
AcDbEntity
  8
0
100
AcDbLine
 62
7
  6
CONTINUOUS
 10
-12.3881479145
 20
-26.2835647138
 11
-12.4605777623
 21
-26.2835647138
  0
LINE
  5
430
100
AcDbEntity
  8
0
100
AcDbLine
 62
7
  6
CONTINUOUS
 10
-13.3496926629
 20
-26.2835647138
 11
-13.6051352126
 21
-26.2835647138
  0
LINE
  5
431
100
AcDbEntity
  8
0
100
AcDbLine
 62
7
  6
CONTINUOUS
 10
12.1390969211
 20
-26.0550906841
 11
10.5506326538
 21
-26.0550906841
  0
LINE
  5
432
100
AcDbEntity
  8
0
100
AcDbLine
 62
7
  6
CONTINUOUS
 10
-10.3609030789
 20
-26.0550906841
 11
-11.9493673462
 21
-26.0550906841
  0
LINE
  5
433
100
AcDbEntity
  8
0
100
AcDbLine
 62
7
  6
CONTINUOUS
 10
12.1448647874
 20
-26.0335647138
 11
10.5448647874
 21
-26.0335647138
  0
LINE
  5
434
100
AcDbEntity
  8
0
100
AcDbLine
 62
7
  6
CONTINUOUS
 10
-10.3551352126
 20
-26.0335647138
 11
-11.9551352126
 21
-26.0335647138
  0
LINE
  5
435
100
AcDbEntity
  8
0
100
AcDbLine
 62
253
  6
CONTINUOUS
 10
14.1550718741
 20
-25.3335647138
 11
8.5346577008
 21
-25.3335647138
  0
LINE
  5
436
100
AcDbEntity
  8
0
100
AcDbLine
 62
253
  6
CONTINUOUS
 10
-8.3449281259
 20
-25.3335647138
 11
-13.9653422992
 21
-25.3335647138
  0
LINE
  5
437
100
AcDbEntity
  8
0
100
AcDbLine
 62
7
  6
CONTINUOUS
 10
22.5948647874
 20
-25.1335647138
 11
-22.4051352126
 21
-25.1335647138
  0
LINE
  5
438
100
AcDbEntity
  8
0
100
AcDbLine
 62
7
  6
CONTINUOUS
 10
-13.9051352126
 20
-24.9835647138
 11
-8.4051352126
 21
-24.9835647138
  0
LINE
  5
439
100
AcDbEntity
  8
0
100
AcDbLine
 62
7
  6
CONTINUOUS
 10
8.5948647874
 20
-24.9835647138
 11
14.0948647874
 21
-24.9835647138
  0
LINE
  5
43A
100
AcDbEntity
  8
RACCORDO
100
AcDbLine
 62
253
  6
CONTINUOUS
 10
-21.9051352126
 20
-23.243161662
 11
22.0948647874
 21
-23.243161662
  0
LINE
  5
43B
100
AcDbEntity
  8
RACCORDO
100
AcDbLine
 62
253
  6
CONTINUOUS
 10
-21.9050638964
 20
-23.1855585588
 11
22.0948731514
 21
-23.1855585588
  0
LINE
  5
43C
100
AcDbEntity
  8
DRAFT
100
AcDbLine
 62
7
  6
CONTINUOUS
 10
22.0948647874
 20
-23.1335647138
 11
-21.9051352126
 21
-23.1335647138
  0
LINE
  5
43D
100
AcDbEntity
  8
RACCORDO
100
AcDbLine
 62
7
  6
CONTINUOUS
 10
-21.8059574917
 20
-22.4335647138
 11
21.9956870666
 21
-22.4335647138
  0
LINE
  5
43E
100
AcDbEntity
  8
RACCORDO
100
AcDbLine
 62
7
  6
CONTINUOUS
 10
23.6091770566
 20
-22.4335647138
 11
25.3948647874
 21
-22.4335647138
  0
LINE
  5
43F
100
AcDbEntity
  8
RACCORDO
100
AcDbLine
 62
7
  6
CONTINUOUS
 10
-23.4194474818
 20
-22.4335647138
 11
-25.2051352126
 21
-22.4335647138
  0
LINE
  5
440
100
AcDbEntity
  8
RACCORDO
100
AcDbLine
 62
253
  6
CONTINUOUS
 10
-18.9001190867
 20
-23.9500328694
 11
-22.6967355344
 21
-23.7922053559
  0
LWPOLYLINE
  5
441
100
AcDbEntity
  8
RACCORDO
100
AcDbPolyline
 62
253
  6
CONTINUOUS
 90
22
 70
0
 10
-22.6921686363
 20
-23.6500650892
 10
-22.7312967557
 20
-23.646992883
 10
-22.7699311254
 20
-23.6413205408
 10
-22.8080717454
 20
-23.6330480626
 10
-22.8458889489
 20
-23.6221513186
 10
-22.8832124027
 20
-23.6086544386
 10
-22.9195311068
 20
-23.592629812
 10
-22.9548474924
 20
-23.5740476968
 10
-22.9891591283
 20
-23.552937835
 10
-23.0219477214
 20
-23.5294618425
 10
-23.053217277
 20
-23.5035758829
 10
-23.0829637898
 20
-23.4753237925
 10
-23.110656951
 20
-23.4449986956
 10
-23.1362861724
 20
-23.4125416532
 10
-23.1598620423
 20
-23.3780116042
 10
-23.1808860164
 20
-23.34187849
 10
-23.1993191835
 20
-23.3040755877
 10
-23.2152004549
 20
-23.2646696203
 10
-23.2281480194
 20
-23.2243306977
 10
-23.2380346066
 20
-23.18328219
 10
-23.244987487
 20
-23.1413007272
 10
-23.2490066605
 20
-23.0983863092
  0
LWPOLYLINE
  5
442
100
AcDbEntity
  8
RACCORDO
100
AcDbPolyline
 62
7
  6
CONTINUOUS
 90
22
 70
0
 10
-22.6967355344
 20
-23.7922053559
 10
-22.7423970567
 20
-23.7885972147
 10
-22.7878541951
 20
-23.7819163173
 10
-22.8328991726
 20
-23.7721642581
 10
-22.8772973161
 20
-23.7593652904
 10
-22.920865894
 20
-23.7435443041
 10
-22.9634687003
 20
-23.7247097719
 10
-23.0049011267
 20
-23.7029003038
 10
-23.0449376441
 20
-23.6781800551
 10
-23.0834005767
 20
-23.6505958443
 10
-23.1200826029
 20
-23.6202247425
 10
-23.1547603455
 20
-23.5871746331
 10
-23.187229565
 20
-23.5515546814
 10
-23.2172970043
 20
-23.513483583
 10
-23.2447497007
 20
-23.4731274239
 10
-23.269370831
 20
-23.4306975507
 10
-23.2909968533
 20
-23.3863691917
 10
-23.3094591295
 20
-23.3403633049
 10
-23.3245801781
 20
-23.2929981109
 10
-23.3362428045
 20
-23.2445471724
 10
-23.3443684003
 20
-23.1952278418
 10
-23.3488831917
 20
-23.1452972507
  0
LINE
  5
443
100
AcDbEntity
  8
0
100
AcDbLine
 62
253
  6
CONTINUOUS
 10
9.8846425353
 20
-26.8612104273
 11
9.8908802184
 21
-26.8628818095
  0
LINE
  5
444
100
AcDbEntity
  8
0
100
AcDbLine
 62
253
  6
CONTINUOUS
 10
13.3846425353
 20
-26.8612104273
 11
13.3908802184
 21
-26.8628818095
  0
LINE
  5
445
100
AcDbEntity
  8
0
100
AcDbLine
 62
7
  6
CONTINUOUS
 10
-1.2446712126
 20
-33.0973977138
 11
-0.1243102126
 21
-34.0415337138
  0
LINE
  5
446
100
AcDbEntity
  8
0
100
AcDbLine
 62
7
  6
CONTINUOUS
 10
-0.1243102126
 20
-33.5251777138
 11
-1.2963842126
 21
-32.5374647138
  0
LINE
  5
447
100
AcDbEntity
  8
0
100
AcDbLine
 62
253
  6
CONTINUOUS
 10
-26.8327809261
 20
9.8562130341
 11
-26.8344523083
 21
9.8624507173
  0
LINE
  5
448
100
AcDbEntity
  8
0
100
AcDbLine
 62
253
  6
CONTINUOUS
 10
-26.8327809261
 20
13.3562130341
 11
-26.8344523083
 21
13.3624507173
  0
LINE
  5
449
100
AcDbEntity
  8
RACCORDO
100
AcDbLine
 62
253
  6
CONTINUOUS
 10
-22.6921686363
 20
23.7829356617
 11
-22.6934787397
 21
23.8081403899
  0
LINE
  5
44A
100
AcDbEntity
  8
RACCORDO
100
AcDbLine
 62
253
  6
CONTINUOUS
 10
-22.6967355364
 20
23.9250759283
 11
-22.7225099684
 21
24.4887688873
  0
LINE
  5
44B
100
AcDbEntity
  8
RACCORDO
100
AcDbLine
 62
253
  6
CONTINUOUS
 10
-22.6934787397
 20
23.8081403899
 11
-22.6946972252
 21
23.8345378116
  0
LINE
  5
44C
100
AcDbEntity
  8
RACCORDO
100
AcDbLine
 62
253
  6
CONTINUOUS
 10
-22.6946972252
 20
23.8345378116
 11
-22.6957388821
 21
23.8602819094
  0
LWPOLYLINE
  5
44D
100
AcDbEntity
  8
RACCORDO
100
AcDbPolyline
 62
253
  6
CONTINUOUS
 90
9
 70
0
 10
-22.6957388821
 20
23.8602819094
 10
-22.6965308655
 20
23.883572354
 10
-22.6968151243
 20
23.8937785389
 10
-22.6970177906
 20
23.9027804041
 10
-22.6971353057
 20
23.9104198769
 10
-22.6971656059
 20
23.9165628077
 10
-22.6971081593
 20
23.9211013266
 10
-22.6969639745
 20
23.9239557372
 10
-22.6967355834
 20
23.925075916
  0
LINE
  5
44E
100
AcDbEntity
  8
RACCORDO
100
AcDbLine
 62
253
  6
CONTINUOUS
 10
-21.9051352126
 20
23.3760322345
 11
-21.9051352126
 21
23.2664352862
  0
LINE
  5
44F
100
AcDbEntity
  8
RACCORDO
100
AcDbLine
 62
253
  6
CONTINUOUS
 10
-21.9051352126
 20
-23.243161662
 11
-21.9051352126
 21
-23.1335647138
  0
LINE
  5
450
100
AcDbEntity
  8
RACCORDO
100
AcDbLine
 62
253
  6
CONTINUOUS
 10
-22.6961695006
 20
-23.7394617733
 11
-22.6968145268
 21
-23.7608969249
  0
LINE
  5
451
100
AcDbEntity
  8
RACCORDO
100
AcDbLine
 62
253
  6
CONTINUOUS
 10
-22.6952446916
 20
-23.7147301198
 11
-22.6961695006
 21
-23.7394617733
  0
LINE
  5
452
100
AcDbEntity
  8
RACCORDO
100
AcDbLine
 62
253
  6
CONTINUOUS
 10
-22.6941047638
 20
-23.6884312217
 11
-22.6952446916
 21
-23.7147301198
  0
LINE
  5
453
100
AcDbEntity
  8
RACCORDO
100
AcDbLine
 62
253
  6
CONTINUOUS
 10
-22.6967355344
 20
-23.7922053559
 11
-22.7225099686
 21
-24.3558983147
  0
LWPOLYLINE
  5
454
100
AcDbEntity
  8
RACCORDO
100
AcDbPolyline
 62
253
  6
CONTINUOUS
 90
3
 70
0
 10
-22.6921686363
 20
-23.6500650895
 10
-22.6928294224
 20
-23.6624039192
 10
-22.6941047638
 20
-23.6884312217
  0
LINE
  5
455
100
AcDbEntity
  8
0
100
AcDbLine
 62
7
  6
CONTINUOUS
 10
-28.4051352126
 20
-31.2314370187
 11
-28.4468017203
 21
-31.4016497643
  0
LINE
  5
456
100
AcDbEntity
  8
0
100
AcDbLine
 62
7
  6
CONTINUOUS
 10
-27.0718021971
 20
-31.6569690021
 11
-27.0301352126
 21
-31.4867562564
  0
LINE
  5
457
100
AcDbEntity
  8
0
100
AcDbLine
 62
7
  6
CONTINUOUS
 10
-26.5718021971
 20
-31.2314370187
 11
-26.613468228
 21
-31.4016497643
  0
LINE
  5
458
100
AcDbEntity
  8
0
100
AcDbLine
 62
7
  6
CONTINUOUS
 10
-13.3506103252
 20
26.4379612565
 11
-13.2011506436
 21
26.9957523819
  0
LINE
  5
459
100
AcDbEntity
  8
0
100
AcDbLine
 62
7
  6
CONTINUOUS
 10
-13.3496926629
 20
26.4164352862
 11
-13.1949129605
 21
26.9940809998
  0
LINE
  5
45A
100
AcDbEntity
  8
0
100
AcDbLine
 62
7
  6
CONTINUOUS
 10
-12.3881479145
 20
26.4164352862
 11
-12.3823800481
 21
26.4379612565
  0
LINE
  5
45B
100
AcDbEntity
  8
0
100
AcDbLine
 62
7
  6
CONTINUOUS
 10
-11.9551352126
 20
26.1664352862
 11
-11.9493673462
 21
26.1879612565
  0
LINE
  5
45C
100
AcDbEntity
  8
0
100
AcDbLine
 62
7
  6
CONTINUOUS
 10
-33.3926352543
 20
-34.3250540169
 11
-33.4363852126
 21
-34.4590966793
  0
LINE
  5
45D
100
AcDbEntity
  8
0
100
AcDbLine
 62
7
  6
CONTINUOUS
 10
-31.9926352126
 20
-35.4420753481
 11
-31.9488851291
 21
-35.3080328109
  0
LINE
  5
45E
100
AcDbEntity
  8
0
100
AcDbLine
 62
7
  6
CONTINUOUS
 10
-30.8634687049
 20
-32.3378200443
 11
-30.9051352126
 21
-32.4654796036
  0
LINE
  5
45F
100
AcDbEntity
  8
0
100
AcDbLine
 62
7
  6
CONTINUOUS
 10
-31.2926351291
 20
-34.4590966793
 11
-31.248885296
 21
-34.3250540169
  0
LINE
  5
460
100
AcDbEntity
  8
0
100
AcDbLine
 62
7
  6
CONTINUOUS
 10
-31.2926351291
 20
-35.1739902736
 11
-31.248885296
 21
-35.0399476738
  0
LINE
  5
461
100
AcDbEntity
  8
0
100
AcDbLine
 62
7
  6
CONTINUOUS
 10
-30.1988850457
 20
-35.3080328109
 11
-30.2426353795
 21
-35.4420753481
  0
LINE
  5
462
100
AcDbEntity
  8
0
100
AcDbLine
 62
7
  6
CONTINUOUS
 10
-8.9748272126
 20
32.5414352862
 11
-8.3981482126
 21
34.2631702862
  0
LINE
  5
463
100
AcDbEntity
  8
0
100
AcDbLine
 62
7
  6
CONTINUOUS
 10
-8.5237342126
 20
34.5914352862
 11
-9.1090632126
 21
32.8499222862
  0
LINE
  5
464
100
AcDbEntity
  8
0
100
AcDbLine
 62
7
  6
CONTINUOUS
 10
-7.5986232126
 20
32.5414352862
 11
-7.3844552126
 21
33.1381152862
  0
LINE
  5
465
100
AcDbEntity
  8
0
100
AcDbLine
 62
7
  6
CONTINUOUS
 10
-7.2987742126
 20
33.3836512862
 11
-6.9674742126
 21
34.2940852862
  0
LINE
  5
466
100
AcDbEntity
  8
0
100
AcDbLine
 62
7
  6
CONTINUOUS
 10
-7.1132542126
 20
34.5914352862
 11
-7.8841142126
 21
32.5414352862
  0
LINE
  5
467
100
AcDbEntity
  8
0
100
AcDbLine
 62
7
  6
CONTINUOUS
 10
-8.7051352126
 20
26.4164352862
 11
-8.6962188637
 21
26.4379612565
  0
LINE
  5
468
100
AcDbEntity
  8
0
100
AcDbLine
 62
7
  6
CONTINUOUS
 10
-26.2551352126
 20
8.8164352862
 11
-26.2766611829
 21
8.8075189374
  0
LINE
  5
469
100
AcDbEntity
  8
0
100
AcDbLine
 62
7
  6
CONTINUOUS
 10
27.0241818831
 20
-13.2295801448
 11
26.4663907577
 21
-13.3790398264
  0
LINE
  5
46A
100
AcDbEntity
  8
0
100
AcDbLine
 62
7
  6
CONTINUOUS
 10
27.0225105009
 20
-13.2233424616
 11
26.4448647874
 21
-13.3781221641
  0
LINE
  5
46B
100
AcDbEntity
  8
0
100
AcDbLine
 62
7
  6
CONTINUOUS
 10
26.4448647874
 20
-12.4165774157
 11
26.4663907577
 21
-12.4108095493
  0
LINE
  5
46C
100
AcDbEntity
  8
0
100
AcDbLine
 62
7
  6
CONTINUOUS
 10
26.1948647874
 20
-11.9835647138
 11
26.2163907577
 21
-11.9777968474
  0
LINE
  5
46D
100
AcDbEntity
  8
0
100
AcDbLine
 62
7
  6
CONTINUOUS
 10
-33.3634684665
 20
-30.9335647138
 11
-33.5301352126
 21
-30.9761179002
  0
LWPOLYLINE
  5
46E
100
AcDbEntity
  8
RACCORDO
100
AcDbPolyline
 62
253
  6
CONTINUOUS
 90
13
 70
0
 10
-23.2490066605
 20
-23.0983863092
 10
-23.2620749302
 20
-23.0993369608
 10
-23.2749185058
 20
-23.1009978775
 10
-23.2873165564
 20
-23.1033405017
 10
-23.2990559116
 20
-23.1063245546
 10
-23.3099347262
 20
-23.1098987289
 10
-23.3197659515
 20
-23.1140015705
 10
-23.3283805506
 20
-23.1185625359
 10
-23.3356304051
 20
-23.1235032042
 10
-23.3413908619
 20
-23.1287386264
 10
-23.3455628765
 20
-23.1341787852
 10
-23.3480747159
 20
-23.1397301431
 10
-23.3488831917
 20
-23.145297251
  0
LWPOLYLINE
  5
46F
100
AcDbEntity
  8
RACCORDO
100
AcDbPolyline
 62
7
  6
CONTINUOUS
 90
13
 70
0
 10
-23.2691018146
 20
-22.7286102632
 10
-23.2824303446
 20
-22.7294246404
 10
-23.2954994425
 20
-22.73052796
 10
-23.308080001
 20
-22.7319132239
 10
-23.319954072
 20
-22.7336106357
 10
-23.330921711
 20
-22.7355823239
 10
-23.3408045024
 20
-22.737722385
 10
-23.3494407799
 20
-22.740044603
 10
-23.3566969781
 20
-22.7425402625
 10
-23.3624713051
 20
-22.7450726304
 10
-23.3666817078
 20
-22.747601406
 10
-23.3692683094
 20
-22.7501826863
 10
-23.3702020906
 20
-22.7528266303
  0
LINE
  5
470
100
AcDbEntity
  8
RACCORDO
100
AcDbLine
 62
253
  6
CONTINUOUS
 10
-23.3488831917
 20
-23.1452972507
 11
-23.9080690042
 21
-23.1713376446
  0
LWPOLYLINE
  5
471
100
AcDbEntity
  8
RACCORDO
100
AcDbPolyline
 62
253
  6
CONTINUOUS
 90
13
 70
0
 10
-23.228310237
 20
-21.9379279311
 10
-23.2174006477
 20
-21.9377884974
 10
-23.2068444672
 20
-21.9375960487
 10
-23.1967741914
 20
-21.9373530001
 10
-23.1873162184
 20
-21.9370624018
 10
-23.1785892632
 20
-21.936727901
 10
-23.1707028672
 20
-21.9363536959
 10
-23.1637560202
 20
-21.935944483
 10
-23.1578359236
 20
-21.9355053983
 10
-23.1530168936
 20
-21.9350419533
 10
-23.1493594221
 20
-21.9345599651
 10
-23.1469094195
 20
-21.934065483
 10
-23.1456976424
 20
-21.9335647138
  0
LINE
  5
472
100
AcDbEntity
  8
RACCORDO
100
AcDbLine
 62
253
  6
CONTINUOUS
 10
23.3354356472
 20
-21.9335052618
 11
23.2948647874
 21
-21.9335647138
  0
LINE
  5
473
100
AcDbEntity
  8
RACCORDO
100
AcDbLine
 62
253
  6
CONTINUOUS
 10
-23.1457059447
 20
-21.9335611948
 11
-23.1051352126
 21
-21.9335647138
  0
LWPOLYLINE
  5
474
100
AcDbEntity
  8
RACCORDO
100
AcDbPolyline
 62
253
  6
CONTINUOUS
 90
13
 70
0
 10
23.4180395955
 20
-21.9379279858
 10
23.407130633
 20
-21.9377885132
 10
23.3965751799
 20
-21.9375960314
 10
23.3865057082
 20
-21.9373529561
 10
23.3770485908
 20
-21.9370623379
 10
23.3683225157
 20
-21.9367278242
 10
23.360436996
 20
-21.9363536131
 10
23.3534909959
 20
-21.935944401
 10
23.3475716884
 20
-21.9355053235
 10
23.3427533614
 20
-21.9350418912
 10
23.3390964855
 20
-21.9345599202
 10
23.3366469549
 20
-21.9340654592
 10
23.3354355114
 20
-21.9335647138
  0
LINE
  5
475
100
AcDbEntity
  8
RACCORDO
100
AcDbLine
 62
253
  6
CONTINUOUS
 10
23.5386127665
 20
-23.1452972507
 11
24.0977985789
 21
-23.1713376447
  0
LWPOLYLINE
  5
476
100
AcDbEntity
  8
RACCORDO
100
AcDbPolyline
 62
7
  6
CONTINUOUS
 90
13
 70
0
 10
23.4588313907
 20
-22.7286102398
 10
23.4721635162
 20
-22.7293514683
 10
23.4852321111
 20
-22.7304650079
 10
23.4978095756
 20
-22.7319132004
 10
23.5096834272
 20
-22.7336150695
 10
23.5206532315
 20
-22.7355427066
 10
23.5305340763
 20
-22.7377223612
 10
23.5391693244
 20
-22.7400655095
 10
23.5464284754
 20
-22.7425010996
 10
23.5522008794
 20
-22.7450726065
 10
23.5564047858
 20
-22.74773356
 10
23.5589897208
 20
-22.7503487591
 10
23.5599316655
 20
-22.7528266303
  0
LWPOLYLINE
  5
477
100
AcDbEntity
  8
RACCORDO
100
AcDbPolyline
 62
7
  6
CONTINUOUS
 90
10
 70
0
 10
23.4588317862
 20
-22.7286102765
 10
23.4571944727
 20
-22.7285113535
 10
23.4555557899
 20
-22.7283590976
 10
23.4539157379
 20
-22.7281535087
 10
23.4522744809
 20
-22.7278952729
 10
23.4506318546
 20
-22.7275837042
 10
23.4489873662
 20
-22.7272167443
 10
23.4473408515
 20
-22.7267937073
 10
23.4456924748
 20
-22.7263152792
 10
23.444042236
 20
-22.7257814599
  0
LWPOLYLINE
  5
478
100
AcDbEntity
  8
RACCORDO
100
AcDbPolyline
 62
253
  6
CONTINUOUS
 90
13
 70
0
 10
23.4387362353
 20
-23.0983863093
 10
23.4518040272
 20
-23.0993372293
 10
23.4646470508
 20
-23.1009983534
 10
23.4770445008
 20
-23.1033411225
 10
23.4887832328
 20
-23.1063252585
 10
23.4996614272
 20
-23.1098994562
 10
23.5094920595
 20
-23.1140022659
 10
23.5181061154
 20
-23.1185631495
 10
23.5253554968
 20
-23.1235036938
 10
23.531115568
 20
-23.1287389577
 10
23.5352872981
 20
-23.1341789336
 10
23.5377989644
 20
-23.139730094
 10
23.5386073846
 20
-23.145297
  0
LINE
  5
479
100
AcDbEntity
  8
0
100
AcDbLine
 62
7
  6
CONTINUOUS
 10
-26.2766611829
 20
-13.3790398264
 11
-26.8344523083
 21
-13.2295801448
  0
LINE
  5
47A
100
AcDbEntity
  8
0
100
AcDbLine
 62
7
  6
CONTINUOUS
 10
-26.2551352126
 20
-13.3781221641
 11
-26.8327809261
 21
-13.2233424616
  0
LINE
  5
47B
100
AcDbEntity
  8
0
100
AcDbLine
 62
7
  6
CONTINUOUS
 10
-26.2551352126
 20
-12.4165774157
 11
-26.2766611829
 21
-12.4108095493
  0
LINE
  5
47C
100
AcDbEntity
  8
0
100
AcDbLine
 62
7
  6
CONTINUOUS
 10
-26.0051352126
 20
-11.9835647138
 11
-26.0266611829
 21
-11.9777968474
  0
LINE
  5
47D
100
AcDbEntity
  8
0
100
AcDbLine
 62
7
  6
CONTINUOUS
 10
-26.2551352126
 20
-8.6835647138
 11
-26.2766611829
 21
-8.6746483649
  0
LINE
  5
47E
100
AcDbEntity
  8
0
100
AcDbLine
 62
7
  6
CONTINUOUS
 10
8.5695057874
 20
-33.6635647138
 11
8.3648357874
 21
-33.4918257138
  0
LINE
  5
47F
100
AcDbEntity
  8
0
100
AcDbLine
 62
7
  6
CONTINUOUS
 10
5.1651587874
 20
-34.1032707138
 11
7.9251587874
 21
-36.8632707138
  0
LINE
  5
480
100
AcDbEntity
  8
0
100
AcDbLine
 62
7
  6
CONTINUOUS
 10
8.0948647874
 20
-36.6935647138
 11
5.3348647874
 21
-33.9335647138
  0
LINE
  5
481
100
AcDbEntity
  8
0
100
AcDbLine
 62
7
  6
CONTINUOUS
 10
-8.7051352126
 20
-26.2835647138
 11
-8.6962188637
 21
-26.3050906841
  0
LINE
  5
482
100
AcDbEntity
  8
0
100
AcDbLine
 62
7
  6
CONTINUOUS
 10
-33.5377502126
 20
32.7165942862
 11
-32.5583642126
 21
30.1049882862
  0
LINE
  5
483
100
AcDbEntity
  8
0
100
AcDbLine
 62
7
  6
CONTINUOUS
 10
-32.4952612126
 20
31.8839592862
 11
-33.3212982126
 21
34.1045002862
  0
LINE
  5
484
100
AcDbEntity
  8
0
100
AcDbLine
 62
7
  6
CONTINUOUS
 10
-28.1362062126
 20
30.9034332862
 11
-27.9199342126
 21
30.1049882862
  0
LINE
  5
485
100
AcDbEntity
  8
0
100
AcDbLine
 62
7
  6
CONTINUOUS
 10
-13.2011506436
 20
-26.8628818095
 11
-13.3506103252
 21
-26.3050906841
  0
LINE
  5
486
100
AcDbEntity
  8
0
100
AcDbLine
 62
7
  6
CONTINUOUS
 10
-13.1949129605
 20
-26.8612104273
 11
-13.3496926629
 21
-26.2835647138
  0
LINE
  5
487
100
AcDbEntity
  8
0
100
AcDbLine
 62
7
  6
CONTINUOUS
 10
-12.3881479145
 20
-26.2835647138
 11
-12.3823800481
 21
-26.3050906841
  0
LINE
  5
488
100
AcDbEntity
  8
0
100
AcDbLine
 62
7
  6
CONTINUOUS
 10
-11.9551352126
 20
-26.0335647138
 11
-11.9493673462
 21
-26.0550906841
  0
LINE
  5
489
100
AcDbEntity
  8
0
100
AcDbLine
 62
7
  6
CONTINUOUS
 10
-28.6866782126
 20
33.0055362862
 11
-28.3030512126
 21
31.5212662862
  0
LINE
  5
48A
100
AcDbEntity
  8
0
100
AcDbLine
 62
7
  6
CONTINUOUS
 10
-12.4605777623
 20
-26.2835647138
 11
-12.4596601
 21
-26.3050906841
  0
LINE
  5
48B
100
AcDbEntity
  8
0
100
AcDbLine
 62
7
  6
CONTINUOUS
 10
-14.3490439959
 20
-25.5700982496
 11
-14.3490439959
 21
-25.1335647138
  0
LINE
  5
48C
100
AcDbEntity
  8
0
100
AcDbLine
 62
7
  6
CONTINUOUS
 10
-14.3490439959
 20
25.2664352862
 11
-14.3490439959
 21
25.702968822
  0
LINE
  5
48D
100
AcDbEntity
  8
0
100
AcDbLine
 62
253
  6
CONTINUOUS
 10
-14.1650682062
 20
25.858061703
 11
-14.1650682062
 21
25.2667093793
  0
LINE
  5
48E
100
AcDbEntity
  8
0
100
AcDbLine
 62
253
  6
CONTINUOUS
 10
-14.1650682062
 20
-25.1338388068
 11
-14.1650682062
 21
-25.7251911305
  0
LINE
  5
48F
100
AcDbEntity
  8
0
100
AcDbLine
 62
253
  6
CONTINUOUS
 10
-13.9653422992
 20
26.0562281996
 11
-13.9653422992
 21
25.4664352862
  0
LINE
  5
490
100
AcDbEntity
  8
0
100
AcDbLine
 62
253
  6
CONTINUOUS
 10
-13.9653422992
 20
-25.3335647138
 11
-13.9653422992
 21
-25.9233576271
  0
LINE
  5
491
100
AcDbEntity
  8
0
100
AcDbLine
 62
7
  6
CONTINUOUS
 10
-13.9051352126
 20
-24.9835647138
 11
-13.9051352126
 21
-25.1335647138
  0
LINE
  5
492
100
AcDbEntity
  8
0
100
AcDbLine
 62
7
  6
CONTINUOUS
 10
-13.9051352126
 20
25.1164352862
 11
-13.9051352126
 21
25.2664352862
  0
LINE
  5
493
100
AcDbEntity
  8
0
100
AcDbLine
 62
7
  6
CONTINUOUS
 10
-12.4605777623
 20
26.4164352862
 11
-12.4596601
 21
26.4379612565
  0
LINE
  5
494
100
AcDbEntity
  8
0
100
AcDbLine
 62
7
  6
CONTINUOUS
 10
-25.238468228
 20
-31.6569690021
 11
-25.1968021971
 21
-31.4867562564
  0
LINE
  5
495
100
AcDbEntity
  8
0
100
AcDbLine
 62
7
  6
CONTINUOUS
 10
-9.8506103252
 20
26.4379612565
 11
-9.7011506436
 21
26.9957523819
  0
LINE
  5
496
100
AcDbEntity
  8
0
100
AcDbLine
 62
7
  6
CONTINUOUS
 10
-9.8496926629
 20
26.4164352862
 11
-9.6949129605
 21
26.9940809998
  0
LINE
  5
497
100
AcDbEntity
  8
0
100
AcDbLine
 62
7
  6
CONTINUOUS
 10
-27.0301352126
 20
-32.5931391926
 11
-26.988468228
 21
-32.4654796036
  0
LINE
  5
498
100
AcDbEntity
  8
0
100
AcDbLine
 62
7
  6
CONTINUOUS
 10
-25.1968021971
 20
-32.5931391926
 11
-25.1551352126
 21
-32.4654796036
  0
LINE
  5
499
100
AcDbEntity
  8
0
100
AcDbLine
 62
7
  6
CONTINUOUS
 10
-31.4238851291
 20
-34.1910114797
 11
-31.511385296
 21
-34.4144158335
  0
LINE
  5
49A
100
AcDbEntity
  8
0
100
AcDbLine
 62
7
  6
CONTINUOUS
 10
-30.7384687049
 20
-32.5931391926
 11
-30.6551352126
 21
-32.3803732307
  0
LINE
  5
49B
100
AcDbEntity
  8
0
100
AcDbLine
 62
7
  6
CONTINUOUS
 10
-30.0676350457
 20
-35.5761179166
 11
-29.9801353795
 21
-35.3527136566
  0
LINE
  5
49C
100
AcDbEntity
  8
0
100
AcDbLine
 62
7
  6
CONTINUOUS
 10
-29.0718017203
 20
-31.1463306458
 11
-29.9051352126
 21
-32.9335647138
  0
LINE
  5
49D
100
AcDbEntity
  8
0
100
AcDbLine
 62
7
  6
CONTINUOUS
 10
-34.0926352126
 20
-34.4144158335
 11
-34.1801352543
 21
-34.5931392165
  0
LINE
  5
49E
100
AcDbEntity
  8
0
100
AcDbLine
 62
7
  6
CONTINUOUS
 10
-32.5718019587
 20
-32.635692379
 11
-32.4884684665
 21
-32.4654796036
  0
LINE
  5
49F
100
AcDbEntity
  8
0
100
AcDbLine
 62
7
  6
CONTINUOUS
 10
-33.3051352126
 20
-34.1463306339
 11
-33.3926352543
 21
-34.3250540169
  0
LINE
  5
4A0
100
AcDbEntity
  8
0
100
AcDbLine
 62
7
  6
CONTINUOUS
 10
-32.0801351291
 20
-35.6207987623
 11
-31.9926352126
 21
-35.4420753481
  0
LINE
  5
4A1
100
AcDbEntity
  8
0
100
AcDbLine
 62
7
  6
CONTINUOUS
 10
-26.2766611829
 20
-12.4108095493
 11
-26.0266611829
 21
-11.9777968474
  0
LINE
  5
4A2
100
AcDbEntity
  8
0
100
AcDbLine
 62
7
  6
CONTINUOUS
 10
-26.2551352126
 20
-12.4165774157
 11
-26.0051352126
 21
-11.9835647138
  0
LINE
  5
4A3
100
AcDbEntity
  8
0
100
AcDbLine
 62
7
  6
CONTINUOUS
 10
-25.7467616293
 20
-8.1736317202
 11
-25.5916687484
 21
-7.9896559304
  0
LINE
  5
4A4
100
AcDbEntity
  8
0
100
AcDbLine
 62
7
  6
CONTINUOUS
 10
8.3349317938
 20
25.858061703
 11
8.1509560041
 21
25.702968822
  0
LINE
  5
4A5
100
AcDbEntity
  8
0
100
AcDbLine
 62
7
  6
CONTINUOUS
 10
12.1390969211
 20
26.1879612565
 11
12.5721096229
 21
26.4379612565
  0
LINE
  5
4A6
100
AcDbEntity
  8
0
100
AcDbLine
 62
7
  6
CONTINUOUS
 10
12.1448647874
 20
26.1664352862
 11
12.5778774893
 21
26.4164352862
  0
LINE
  5
4A7
100
AcDbEntity
  8
RACCORDO
100
AcDbLine
 62
7
  6
CONTINUOUS
 10
23.4440422308
 20
22.8586520309
 11
23.2115030039
 21
22.7790030689
  0
LWPOLYLINE
  5
4A8
100
AcDbEntity
  8
RACCORDO
100
AcDbPolyline
 62
7
  6
CONTINUOUS
 90
9
 70
0
 10
23.4440422308
 20
22.8586520309
 10
23.4456924718
 20
22.859185851
 10
23.4473408503
 20
22.8596642798
 10
23.4489873661
 20
22.8600873173
 10
23.4506318545
 20
22.8604542773
 10
23.4522744803
 20
22.8607658459
 10
23.4539157378
 20
22.8610240816
 10
23.4555557919
 20
22.8612296707
 10
23.4571944777
 20
22.8613819269
  0
LINE
  5
4A9
100
AcDbEntity
  8
0
100
AcDbLine
 62
7
  6
CONTINUOUS
 10
27.0241818831
 20
-9.7295801448
 11
26.4663907577
 21
-9.8790398264
  0
LINE
  5
4AA
100
AcDbEntity
  8
0
100
AcDbLine
 62
7
  6
CONTINUOUS
 10
27.0225105009
 20
-9.7233424616
 11
26.4448647874
 21
-9.8781221641
  0
LINE
  5
4AB
100
AcDbEntity
  8
0
100
AcDbLine
 62
7
  6
CONTINUOUS
 10
26.4448647874
 20
-12.4890072634
 11
26.4663907577
 21
-12.4880896011
  0
LINE
  5
4AC
100
AcDbEntity
  8
0
100
AcDbLine
 62
7
  6
CONTINUOUS
 10
25.7813983232
 20
-14.3774734971
 11
25.3948647874
 21
-14.3774734971
  0
LINE
  5
4AD
100
AcDbEntity
  8
0
100
AcDbLine
 62
7
  6
CONTINUOUS
 10
-25.2051352126
 20
-14.3774734971
 11
-25.5916687484
 21
-14.3774734971
  0
LINE
  5
4AE
100
AcDbEntity
  8
0
100
AcDbLine
 62
253
  6
CONTINUOUS
 10
-25.7467616293
 20
-14.1934977074
 11
-25.2054093056
 21
-14.1934977074
  0
LINE
  5
4AF
100
AcDbEntity
  8
0
100
AcDbLine
 62
253
  6
CONTINUOUS
 10
25.3951388805
 20
-14.1934977074
 11
25.9364912041
 21
-14.1934977074
  0
LINE
  5
4B0
100
AcDbEntity
  8
0
100
AcDbLine
 62
253
  6
CONTINUOUS
 10
-25.9449281259
 20
-13.9937718004
 11
-25.4051352126
 21
-13.9937718004
  0
LINE
  5
4B1
100
AcDbEntity
  8
0
100
AcDbLine
 62
253
  6
CONTINUOUS
 10
25.5948647874
 20
-13.9937718004
 11
26.1346577008
 21
-13.9937718004
  0
LINE
  5
4B2
100
AcDbEntity
  8
0
100
AcDbLine
 62
7
  6
CONTINUOUS
 10
-26.2551352126
 20
-12.4890072634
 11
-26.2766611829
 21
-12.4880896011
  0
LINE
  5
4B3
100
AcDbEntity
  8
0
100
AcDbLine
 62
7
  6
CONTINUOUS
 10
-26.2766611829
 20
-9.8790398264
 11
-26.8344523083
 21
-9.7295801448
  0
LINE
  5
4B4
100
AcDbEntity
  8
0
100
AcDbLine
 62
7
  6
CONTINUOUS
 10
-26.2551352126
 20
-9.8781221641
 11
-26.8327809261
 21
-9.7233424616
  0
LINE
  5
4B5
100
AcDbEntity
  8
RACCORDO
100
AcDbLine
 62
7
  6
CONTINUOUS
 10
23.444042236
 20
-22.7257814599
 11
23.2115049098
 21
-22.6461332253
  0
LWPOLYLINE
  5
4B6
100
AcDbEntity
  8
RACCORDO
100
AcDbPolyline
 62
7
  6
CONTINUOUS
 90
9
 70
0
 10
23.2115049098
 20
-22.6461332253
 10
23.2103304547
 20
-22.6457142038
 10
23.2091769098
 20
-22.6452733186
 10
23.2080442751
 20
-22.6448105697
 10
23.2069295124
 20
-22.6443240156
 10
23.2058356598
 20
-22.6438155978
 10
23.2047718322
 20
-22.6432911405
 10
23.2037410678
 20
-22.6427525851
 10
23.2027403284
 20
-22.6421979903
  0
LINE
  5
4B7
100
AcDbEntity
  8
0
100
AcDbLine
 62
7
  6
CONTINUOUS
 10
12.5721096229
 20
-26.3050906841
 11
12.1390969211
 21
-26.0550906841
  0
LINE
  5
4B8
100
AcDbEntity
  8
0
100
AcDbLine
 62
7
  6
CONTINUOUS
 10
12.5778774893
 20
-26.2835647138
 11
12.1448647874
 21
-26.0335647138
  0
LINE
  5
4B9
100
AcDbEntity
  8
0
100
AcDbLine
 62
7
  6
CONTINUOUS
 10
8.3349317938
 20
-25.7251911305
 11
8.1509560041
 21
-25.5700982496
  0
LINE
  5
4BA
100
AcDbEntity
  8
0
100
AcDbLine
 62
7
  6
CONTINUOUS
 10
8.0948647874
 20
-31.1735647138
 11
10.8548647874
 21
-33.9335647138
  0
LINE
  5
4BB
100
AcDbEntity
  8
0
100
AcDbLine
 62
7
  6
CONTINUOUS
 10
11.0245707874
 20
-33.7638587138
 11
8.2645707874
 21
-31.0038587138
  0
LINE
  5
4BC
100
AcDbEntity
  8
0
100
AcDbLine
 62
7
  6
CONTINUOUS
 10
-25.7467616293
 20
8.3065022926
 11
-25.5916687484
 21
8.1225265029
  0
LINE
  5
4BD
100
AcDbEntity
  8
0
100
AcDbLine
 62
7
  6
CONTINUOUS
 10
-26.0266611829
 20
12.1106674199
 11
-26.2766611829
 21
12.5436801218
  0
LINE
  5
4BE
100
AcDbEntity
  8
0
100
AcDbLine
 62
7
  6
CONTINUOUS
 10
-26.0051352126
 20
12.1164352862
 11
-26.2551352126
 21
12.5494479881
  0
LINE
  5
4BF
100
AcDbEntity
  8
0
100
AcDbLine
 62
7
  6
CONTINUOUS
 10
0.8677437874
 20
-35.3105867138
 11
1.0595407874
 21
-35.6523057138
  0
LWPOLYLINE
  5
4C0
100
AcDbEntity
  8
0
100
AcDbPolyline
 62
7
  6
CONTINUOUS
 90
6
 70
0
 10
-25.0499775913
 20
31.317771487
 10
-25.0083061037
 20
31.1961368045
 10
-24.9673675868
 20
31.0710712565
 10
-24.9271620405
 20
30.9425748429
 10
-24.8882970639
 20
30.8104460767
 10
-24.8109432258
 20
30.5365004086
  0
LINE
  5
4C1
100
AcDbEntity
  8
0
100
AcDbLine
 62
7
  6
CONTINUOUS
 10
-27.0400312126
 20
30.1049882862
 11
-28.2671812126
 21
34.1045002862
  0
LINE
  5
4C2
100
AcDbEntity
  8
0
100
AcDbLine
 62
7
  6
CONTINUOUS
 10
-24.8109432258
 20
30.5365004086
 11
-24.6849159758
 21
30.1049883333
  0
LINE
  5
4C3
100
AcDbEntity
  8
0
100
AcDbLine
 62
7
  6
CONTINUOUS
 10
-9.7011506436
 20
-26.8628818095
 11
-9.8506103252
 21
-26.3050906841
  0
LINE
  5
4C4
100
AcDbEntity
  8
0
100
AcDbLine
 62
7
  6
CONTINUOUS
 10
-9.6949129605
 20
-26.8612104273
 11
-9.8496926629
 21
-26.2835647138
  0
LINE
  5
4C5
100
AcDbEntity
  8
0
100
AcDbLine
 62
7
  6
CONTINUOUS
 10
-24.0687187143
 20
30.8179986214
 11
-24.1672854778
 21
31.1874865989
  0
LINE
  5
4C6
100
AcDbEntity
  8
0
100
AcDbLine
 62
7
  6
CONTINUOUS
 10
-23.8818823942
 20
30.1049883333
 11
-24.0687187143
 21
30.8179986214
  0
LWPOLYLINE
  5
4C7
100
AcDbEntity
  8
0
100
AcDbPolyline
 62
7
  6
CONTINUOUS
 90
19
 70
0
 10
-24.1672854778
 20
31.1874865989
 10
-24.1839988178
 20
31.2530551645
 10
-24.2019780194
 20
31.3171039212
 10
-24.2212230824
 20
31.379632869
 10
-24.2416439612
 20
31.4410479558
 10
-24.2633307016
 20
31.5009432336
 10
-24.2865534405
 20
31.5581008584
 10
-24.3115427565
 20
31.6124383725
 10
-24.3380680712
 20
31.6640382336
 10
-24.3657077865
 20
31.7119299711
 10
-24.3944695717
 20
31.7558449491
 10
-24.4243457576
 20
31.7960518036
 10
-24.4548917378
 20
31.8323859717
 10
-24.4860644325
 20
31.8646744602
 10
-24.5179069216
 20
31.8930902622
 10
-24.5501038384
 20
31.9179877948
 10
-24.5825500607
 20
31.9394851967
 10
-24.6153507107
 20
31.9574643291
 10
-24.6485057884
 20
31.9719251919
  0
LINE
  5
4C8
100
AcDbEntity
  8
0
100
AcDbLine
 62
7
  6
CONTINUOUS
 10
-13.3496926629
 20
26.4164352862
 11
-13.3506103252
 21
26.4379612565
  0
LINE
  5
4C9
100
AcDbEntity
  8
0
100
AcDbLine
 62
7
  6
CONTINUOUS
 10
-8.9605777623
 20
-26.2835647138
 11
-8.9596601
 21
-26.3050906841
  0
LINE
  5
4CA
100
AcDbEntity
  8
0
100
AcDbLine
 62
7
  6
CONTINUOUS
 10
-9.8496926629
 20
26.4164352862
 11
-9.8506103252
 21
26.4379612565
  0
LINE
  5
4CB
100
AcDbEntity
  8
0
100
AcDbLine
 62
7
  6
CONTINUOUS
 10
-11.9051352126
 20
-30.4335647138
 11
-11.9051352126
 21
-37.9335647138
  0
LINE
  5
4CC
100
AcDbEntity
  8
0
100
AcDbLine
 62
7
  6
CONTINUOUS
 10
-10.9051352126
 20
35.0664352862
 11
-10.9051352126
 21
29.0664352862
  0
LINE
  5
4CD
100
AcDbEntity
  8
0
100
AcDbLine
 62
7
  6
CONTINUOUS
 10
-10.0940962126
 20
34.5914352862
 11
-10.0940962126
 21
32.5414352862
  0
LINE
  5
4CE
100
AcDbEntity
  8
0
100
AcDbLine
 62
7
  6
CONTINUOUS
 10
-9.8257242126
 20
32.5414352862
 11
-9.8257242126
 21
34.2603512862
  0
LINE
  5
4CF
100
AcDbEntity
  8
ASSI
100
AcDbLine
 62
7
  6
CONTINUOUS
 10
-8.7726892126
 20
-36.4816017243
 11
-8.7726892126
 21
-35.7307847244
  0
LINE
  5
4D0
100
AcDbEntity
  8
ASSI
100
AcDbLine
 62
7
  6
CONTINUOUS
 10
-8.7726892126
 20
-32.1363447138
 11
-8.7726892126
 21
-31.3855277138
  0
LINE
  5
4D1
100
AcDbEntity
  8
0
100
AcDbLine
 62
7
  6
CONTINUOUS
 10
-13.3496926629
 20
-26.2835647138
 11
-13.3506103252
 21
-26.3050906841
  0
LINE
  5
4D2
100
AcDbEntity
  8
0
100
AcDbLine
 62
7
  6
CONTINUOUS
 10
-8.9605777623
 20
26.4164352862
 11
-8.9596601
 21
26.4379612565
  0
LINE
  5
4D3
100
AcDbEntity
  8
0
100
AcDbLine
 62
7
  6
CONTINUOUS
 10
-9.8496926629
 20
-26.2835647138
 11
-9.8506103252
 21
-26.3050906841
  0
LINE
  5
4D4
100
AcDbEntity
  8
0
100
AcDbLine
 62
7
  6
CONTINUOUS
 10
-29.6551352126
 20
-32.9335647138
 11
-28.8218017203
 21
-31.1463306458
  0
LINE
  5
4D5
100
AcDbEntity
  8
0
100
AcDbLine
 62
7
  6
CONTINUOUS
 10
-28.3176352126
 20
-34.0569689424
 11
-29.1926353795
 21
-35.9335647138
  0
LINE
  5
4D6
100
AcDbEntity
  8
0
100
AcDbLine
 62
7
  6
CONTINUOUS
 10
-28.9301353795
 20
-35.9335647138
 11
-28.0551352126
 21
-34.0569689424
  0
LINE
  5
4D7
100
AcDbEntity
  8
0
100
AcDbLine
 62
7
  6
CONTINUOUS
 10
-26.3926355464
 20
-34.0569689424
 11
-27.2676352126
 21
-35.9335647138
  0
LINE
  5
4D8
100
AcDbEntity
  8
0
100
AcDbLine
 62
7
  6
CONTINUOUS
 10
-27.0051352126
 20
-35.9335647138
 11
-26.1301355464
 21
-34.0569689424
  0
LINE
  5
4D9
100
AcDbEntity
  8
0
100
AcDbLine
 62
7
  6
CONTINUOUS
 10
-27.238468228
 20
-31.4867562564
 11
-27.3218021971
 21
-31.6569690021
  0
LINE
  5
4DA
100
AcDbEntity
  8
0
100
AcDbLine
 62
7
  6
CONTINUOUS
 10
-27.1968021971
 20
-32.4654796036
 11
-27.238468228
 21
-32.5505859764
  0
LINE
  5
4DB
100
AcDbEntity
  8
0
100
AcDbLine
 62
7
  6
CONTINUOUS
 10
-25.4051352126
 20
-31.4867562564
 11
-25.488468228
 21
-31.6569690021
  0
LINE
  5
4DC
100
AcDbEntity
  8
0
100
AcDbLine
 62
7
  6
CONTINUOUS
 10
-25.363468228
 20
-32.4654796036
 11
-25.4051352126
 21
-32.5505859764
  0
LINE
  5
4DD
100
AcDbEntity
  8
0
100
AcDbLine
 62
7
  6
CONTINUOUS
 10
9.9582137874
 20
34.5914352862
 11
9.3701547874
 21
33.6063082862
  0
LINE
  5
4DE
100
AcDbEntity
  8
0
100
AcDbLine
 62
7
  6
CONTINUOUS
 10
9.5099157874
 20
33.3665742862
 11
10.2838257874
 21
34.5914352862
  0
LINE
  5
4DF
100
AcDbEntity
  8
0
100
AcDbLine
 62
7
  6
CONTINUOUS
 10
-35.1426352126
 20
-34.3250540169
 11
-35.0551352022
 21
-34.1910114797
  0
LINE
  5
4E0
100
AcDbEntity
  8
0
100
AcDbLine
 62
7
  6
CONTINUOUS
 10
-32.7384684665
 20
-32.4229264172
 11
-32.8218019587
 21
-32.5505859764
  0
LINE
  5
4E1
100
AcDbEntity
  8
0
100
AcDbLine
 62
7
  6
CONTINUOUS
 10
-33.9613852126
 20
-34.7271817537
 11
-33.8738851709
 21
-34.5931392165
  0
LINE
  5
4E2
100
AcDbEntity
  8
0
100
AcDbLine
 62
7
  6
CONTINUOUS
 10
-33.217635296
 20
-34.4590966793
 11
-33.0426352126
 21
-34.1910114797
  0
LINE
  5
4E3
100
AcDbEntity
  8
0
100
AcDbLine
 62
7
  6
CONTINUOUS
 10
-34.5301352126
 20
-31.8697349341
 11
-34.4051352126
 21
-31.6995221885
  0
LINE
  5
4E4
100
AcDbEntity
  8
0
100
AcDbLine
 62
7
  6
CONTINUOUS
 10
-25.2054093056
 20
-8.1736317202
 11
-25.2064103753
 21
-8.1746840327
  0
LINE
  5
4E5
100
AcDbEntity
  8
0
100
AcDbLine
 62
7
  6
CONTINUOUS
 10
8.5346577008
 20
25.4664352862
 11
8.5175668063
 21
25.4492002501
  0
LINE
  5
4E6
100
AcDbEntity
  8
0
100
AcDbLine
 62
7
  6
CONTINUOUS
 10
8.3442336265
 20
25.2760318297
 11
8.3359844918
 21
25.2677108987
  0
LWPOLYLINE
  5
4E7
100
AcDbEntity
  8
0
100
AcDbPolyline
 62
7
  6
CONTINUOUS
 90
3
 70
0
 10
-25.34030201
 20
-8.3084851834
 10
-25.3878954465
 20
-8.3562620531
 10
-25.4051352126
 20
-8.3733576271
  0
LINE
  5
4E8
100
AcDbEntity
  8
0
100
AcDbLine
 62
7
  6
CONTINUOUS
 10
-26.2766611829
 20
-8.6746483649
 11
-25.5916687484
 21
-7.9896559304
  0
LINE
  5
4E9
100
AcDbEntity
  8
0
100
AcDbLine
 62
7
  6
CONTINUOUS
 10
-26.2551352126
 20
-8.6835647138
 11
-25.9449281259
 21
-8.3733576271
  0
LINE
  5
4EA
100
AcDbEntity
  8
0
100
AcDbLine
 62
7
  6
CONTINUOUS
 10
8.1509560041
 20
25.702968822
 11
8.8859484386
 21
26.4379612565
  0
LINE
  5
4EB
100
AcDbEntity
  8
0
100
AcDbLine
 62
7
  6
CONTINUOUS
 10
8.5346577008
 20
26.0562281996
 11
8.8948647874
 21
26.4164352862
  0
LINE
  5
4EC
100
AcDbEntity
  8
0
100
AcDbLine
 62
7
  6
CONTINUOUS
 10
8.5175668063
 20
25.4492002501
 11
8.3442336265
 21
25.2760318297
  0
LWPOLYLINE
  5
4ED
100
AcDbEntity
  8
0
100
AcDbPolyline
 62
7
  6
CONTINUOUS
 90
3
 70
0
 10
-25.2064103753
 20
-8.1746840327
 10
-25.211075353
 20
-8.1792977675
 10
-25.34030201
 20
-8.3084851834
  0
LINE
  5
4EE
100
AcDbEntity
  8
0
100
AcDbLine
 62
7
  6
CONTINUOUS
 10
8.3359844918
 20
25.2677108987
 11
8.3349317938
 21
25.2667093793
  0
LINE
  5
4EF
100
AcDbEntity
  8
0
100
AcDbLine
 62
7
  6
CONTINUOUS
 10
-26.2551352126
 20
-13.3781221641
 11
-26.2766611829
 21
-13.3790398264
  0
LINE
  5
4F0
100
AcDbEntity
  8
0
100
AcDbLine
 62
7
  6
CONTINUOUS
 10
26.4448647874
 20
-8.9890072634
 11
26.4663907577
 21
-8.9880896011
  0
LINE
  5
4F1
100
AcDbEntity
  8
0
100
AcDbLine
 62
7
  6
CONTINUOUS
 10
-26.2551352126
 20
-9.8781221641
 11
-26.2766611829
 21
-9.8790398264
  0
LINE
  5
4F2
100
AcDbEntity
  8
0
100
AcDbLine
 62
7
  6
CONTINUOUS
 10
26.4448647874
 20
-13.3781221641
 11
26.4663907577
 21
-13.3790398264
  0
LINE
  5
4F3
100
AcDbEntity
  8
0
100
AcDbLine
 62
7
  6
CONTINUOUS
 10
-26.2551352126
 20
-8.9890072634
 11
-26.2766611829
 21
-8.9880896011
  0
LINE
  5
4F4
100
AcDbEntity
  8
0
100
AcDbLine
 62
7
  6
CONTINUOUS
 10
26.4448647874
 20
-9.8781221641
 11
26.4663907577
 21
-9.8790398264
  0
LINE
  5
4F5
100
AcDbEntity
  8
0
100
AcDbLine
 62
7
  6
CONTINUOUS
 10
8.3349317938
 20
-25.1338388068
 11
8.3359844918
 21
-25.1348403262
  0
LINE
  5
4F6
100
AcDbEntity
  8
0
100
AcDbLine
 62
7
  6
CONTINUOUS
 10
-25.4051352126
 20
8.5062281996
 11
-25.3878954465
 21
8.4891326256
  0
LWPOLYLINE
  5
4F7
100
AcDbEntity
  8
0
100
AcDbPolyline
 62
7
  6
CONTINUOUS
 90
3
 70
0
 10
-25.211075353
 20
8.31216834
 10
-25.2064103753
 20
8.3075546051
 10
-25.2054093056
 20
8.3065022926
  0
LWPOLYLINE
  5
4F8
100
AcDbEntity
  8
0
100
AcDbPolyline
 62
7
  6
CONTINUOUS
 90
3
 70
0
 10
8.4697996769
 20
-25.2687459066
 10
8.5175668063
 20
-25.3163296776
 10
8.5346577008
 20
-25.3335647138
  0
LINE
  5
4F9
100
AcDbEntity
  8
0
100
AcDbLine
 62
7
  6
CONTINUOUS
 10
-25.5916687484
 20
8.1225265029
 11
-26.2766611829
 21
8.8075189374
  0
LINE
  5
4FA
100
AcDbEntity
  8
0
100
AcDbLine
 62
7
  6
CONTINUOUS
 10
-25.9449281259
 20
8.5062281996
 11
-26.2551352126
 21
8.8164352862
  0
LINE
  5
4FB
100
AcDbEntity
  8
0
100
AcDbLine
 62
7
  6
CONTINUOUS
 10
8.8859484386
 20
-26.3050906841
 11
8.1509560041
 21
-25.5700982496
  0
LINE
  5
4FC
100
AcDbEntity
  8
0
100
AcDbLine
 62
7
  6
CONTINUOUS
 10
8.8948647874
 20
-26.2835647138
 11
8.5346577008
 21
-25.9233576271
  0
LINE
  5
4FD
100
AcDbEntity
  8
0
100
AcDbLine
 62
7
  6
CONTINUOUS
 10
-25.3878954465
 20
8.4891326256
 11
-25.211075353
 21
8.31216834
  0
LWPOLYLINE
  5
4FE
100
AcDbEntity
  8
0
100
AcDbPolyline
 62
7
  6
CONTINUOUS
 90
3
 70
0
 10
8.3359844918
 20
-25.1348403262
 10
8.3406001301
 20
-25.1395071432
 10
8.4697996769
 20
-25.2687459066
  0
LWPOLYLINE
  5
4FF
100
AcDbEntity
  8
0
100
AcDbPolyline
 62
7
  6
CONTINUOUS
 90
25
 70
0
 10
-4.0962538987
 20
33.5664352862
 10
-4.0964265499
 20
33.6470033036
 10
-4.1006351662
 20
33.724504884
 10
-4.1088797478
 20
33.7989400275
 10
-4.1214906527
 20
33.8702761855
 10
-4.1381375228
 20
33.9385459065
 10
-4.1578292836
 20
34.0038468361
 10
-4.1803178296
 20
34.0665862311
 10
-4.2058512662
 20
34.1263568347
 10
-4.2341828354
 20
34.1820345218
 10
-4.2654206427
 20
34.2329255278
 10
-4.2994565825
 20
34.2797236173
 10
-4.3357195811
 20
34.32338596
 10
-4.3742156148
 20
34.3643779584
 10
-4.4149387071
 20
34.4022342099
 10
-4.4572998549
 20
34.4365156763
 10
-4.5006100998
 20
34.4668996377
 10
-4.5455584002
 20
34.493708814
 10
-4.5936226276
 20
34.5174723269
 10
-4.6453528578
 20
34.5385783072
 10
-4.700199015
 20
34.5566386242
 10
-4.7579887438
 20
34.5710180076
 10
-4.8186645923
 20
34.5815047007
 10
-4.8822840124
 20
34.5883104602
 10
-4.9488470041
 20
34.5914352862
  0
LINE
  5
500
100
AcDbEntity
  8
0
100
AcDbLine
 62
7
  6
CONTINUOUS
 10
-8.4051352126
 20
-24.9835647138
 11
-8.4051352126
 21
-25.1335647138
  0
LINE
  5
501
100
AcDbEntity
  8
0
100
AcDbLine
 62
7
  6
CONTINUOUS
 10
-8.4051352126
 20
25.1164352862
 11
-8.4051352126
 21
25.2664352862
  0
LINE
  5
502
100
AcDbEntity
  8
0
100
AcDbLine
 62
7
  6
CONTINUOUS
 10
-8.3981482126
 20
34.2631702862
 11
-8.3981482126
 21
32.5414352862
  0
LINE
  5
503
100
AcDbEntity
  8
0
100
AcDbLine
 62
253
  6
CONTINUOUS
 10
-8.3449281259
 20
-25.9233576271
 11
-8.3449281259
 21
-25.3335647138
  0
LINE
  5
504
100
AcDbEntity
  8
0
100
AcDbLine
 62
253
  6
CONTINUOUS
 10
-8.3449281259
 20
25.4664352862
 11
-8.3449281259
 21
26.0562281996
  0
LINE
  5
505
100
AcDbEntity
  8
0
100
AcDbLine
 62
253
  6
CONTINUOUS
 10
-8.145202219
 20
-25.7251911305
 11
-8.145202219
 21
-25.1338388068
  0
LINE
  5
506
100
AcDbEntity
  8
0
100
AcDbLine
 62
253
  6
CONTINUOUS
 10
-8.145202219
 20
25.2667093793
 11
-8.145202219
 21
25.858061703
  0
LINE
  5
507
100
AcDbEntity
  8
0
100
AcDbLine
 62
7
  6
CONTINUOUS
 10
-8.1296662126
 20
32.5414352862
 11
-8.1296662126
 21
34.5914352862
  0
LINE
  5
508
100
AcDbEntity
  8
0
100
AcDbLine
 62
7
  6
CONTINUOUS
 10
-7.9612264292
 20
25.702968822
 11
-7.9612264292
 21
25.2664352862
  0
LINE
  5
509
100
AcDbEntity
  8
0
100
AcDbLine
 62
7
  6
CONTINUOUS
 10
-7.9612264292
 20
-25.1335647138
 11
-7.9612264292
 21
-25.5700982496
  0
LINE
  5
50A
100
AcDbEntity
  8
0
100
AcDbLine
 62
7
  6
CONTINUOUS
 10
-5.7884552126
 20
34.5914352862
 11
-5.7884552126
 21
32.5414352862
  0
LINE
  5
50B
100
AcDbEntity
  8
0
100
AcDbLine
 62
7
  6
CONTINUOUS
 10
-5.5114192126
 20
32.7783502862
 11
-5.5114192126
 21
34.3545202862
  0
LINE
  5
50C
100
AcDbEntity
  8
ASSI
100
AcDbLine
 62
7
  6
CONTINUOUS
 10
-4.7875792126
 20
-34.3085647138
 11
-4.7875792126
 21
-33.5585647138
  0
LINE
  5
50D
100
AcDbEntity
  8
ASSI
100
AcDbLine
 62
7
  6
CONTINUOUS
 10
-4.3875792126
 20
-36.4816018416
 11
-4.3875792126
 21
-35.7307813852
  0
LINE
  5
50E
100
AcDbEntity
  8
ASSI
100
AcDbLine
 62
7
  6
CONTINUOUS
 10
-4.3875792126
 20
-32.1363447138
 11
-4.3875792126
 21
-31.3855278645
  0
LWPOLYLINE
  5
50F
100
AcDbEntity
  8
0
100
AcDbPolyline
 62
7
  6
CONTINUOUS
 90
25
 70
0
 10
-4.381216983
 20
33.5664352862
 10
-4.3819344415
 20
33.5048368502
 10
-4.3849489856
 20
33.4456731373
 10
-4.3902606153
 20
33.3889441477
 10
-4.3979962878
 20
33.334639815
 10
-4.408029046
 20
33.2827702056
 10
-4.4199780183
 20
33.2333655181
 10
-4.4336082679
 20
33.1863843489
 10
-4.4491547317
 20
33.1418681017
 10
-4.4669413485
 20
33.0999711866
 10
-4.4871698784
 20
33.0607809171
 10
-4.5096385613
 20
33.0242099798
 10
-4.5340660563
 20
32.9901508447
 10
-4.560418518
 20
32.9585851419
 10
-4.5887297918
 20
32.9295312413
 10
-4.6188200732
 20
32.9029367225
 10
-4.6506417216
 20
32.8787651203
 10
-4.6842423774
 20
32.8570528998
 10
-4.7195851585
 20
32.837857036
 10
-4.7567890324
 20
32.8210961132
 10
-4.7957350316
 20
32.8068515471
 10
-4.8360293701
 20
32.7954245591
 10
-4.8775407863
 20
32.7869155566
 10
-4.920400542
 20
32.7812241323
 10
-4.9646086371
 20
32.7783502862
  0
LINE
  5
510
100
AcDbEntity
  8
0
100
AcDbLine
 62
7
  6
CONTINUOUS
 10
-12.4605777623
 20
-26.2835647138
 11
-12.6153574647
 21
-26.8612104273
  0
LINE
  5
511
100
AcDbEntity
  8
0
100
AcDbLine
 62
7
  6
CONTINUOUS
 10
-12.4596601
 20
-26.3050906841
 11
-12.6091197816
 21
-26.8628818095
  0
LINE
  5
512
100
AcDbEntity
  8
0
100
AcDbLine
 62
7
  6
CONTINUOUS
 10
5.2527967874
 20
32.5414352862
 11
5.4669807874
 21
33.1381152862
  0
LINE
  5
513
100
AcDbEntity
  8
0
100
AcDbLine
 62
7
  6
CONTINUOUS
 10
5.5526447874
 20
33.3836512862
 11
5.8839277874
 21
34.2940852862
  0
LINE
  5
514
100
AcDbEntity
  8
0
100
AcDbLine
 62
7
  6
CONTINUOUS
 10
5.7382807874
 20
34.5914352862
 11
4.9673217874
 21
32.5414352862
  0
LINE
  5
515
100
AcDbEntity
  8
0
100
AcDbLine
 62
7
  6
CONTINUOUS
 10
-30.9051352126
 20
-32.4654796036
 11
-30.9884687049
 21
-32.5931391926
  0
LINE
  5
516
100
AcDbEntity
  8
0
100
AcDbLine
 62
7
  6
CONTINUOUS
 10
-32.167635296
 20
-35.3080328109
 11
-32.3426351291
 21
-35.5761179166
  0
LINE
  5
517
100
AcDbEntity
  8
0
100
AcDbLine
 62
7
  6
CONTINUOUS
 10
-31.248885296
 20
-34.3250540169
 11
-31.1613853795
 21
-34.1910114797
  0
LINE
  5
518
100
AcDbEntity
  8
0
100
AcDbLine
 62
7
  6
CONTINUOUS
 10
-28.2384687049
 20
-31.4016497643
 11
-28.1551352126
 21
-31.2739902051
  0
LINE
  5
519
100
AcDbEntity
  8
0
100
AcDbLine
 62
7
  6
CONTINUOUS
 10
-30.2426353795
 20
-35.4420753481
 11
-30.3301350457
 21
-35.5761179166
  0
LINE
  5
51A
100
AcDbEntity
  8
0
100
AcDbLine
 62
7
  6
CONTINUOUS
 10
-27.1551352126
 20
-31.7846285613
 11
-27.0718021971
 21
-31.6569690021
  0
LINE
  5
51B
100
AcDbEntity
  8
0
100
AcDbLine
 62
7
  6
CONTINUOUS
 10
-26.4051352126
 20
-31.4016497643
 11
-26.3218021971
 21
-31.2739902051
  0
LINE
  5
51C
100
AcDbEntity
  8
0
100
AcDbLine
 62
7
  6
CONTINUOUS
 10
-27.113468228
 20
-32.7207987519
 11
-27.0301352126
 21
-32.5931391926
  0
LINE
  5
51D
100
AcDbEntity
  8
0
100
AcDbLine
 62
7
  6
CONTINUOUS
 10
-34.5301352126
 20
-32.7633519532
 11
-34.4051352126
 21
-32.5931391926
  0
LINE
  5
51E
100
AcDbEntity
  8
0
100
AcDbLine
 62
7
  6
CONTINUOUS
 10
-30.8634687049
 20
-32.7633519532
 11
-30.7384687049
 21
-32.5931391926
  0
LINE
  5
51F
100
AcDbEntity
  8
0
100
AcDbLine
 62
7
  6
CONTINUOUS
 10
-31.2926351291
 20
-34.0122880967
 11
-31.4238851291
 21
-34.1910114797
  0
LWPOLYLINE
  5
520
100
AcDbEntity
  8
RACCORDO
100
AcDbPolyline
 62
7
  6
CONTINUOUS
 90
10
 70
0
 10
23.2016909859
 20
22.7744545203
 10
23.1897223968
 20
22.7673286869
 10
23.1782971622
 20
22.7609240286
 10
23.1676601025
 20
22.7553412042
 10
23.1580723439
 20
22.7506048602
 10
23.1497047061
 20
22.7468046166
 10
23.1426409499
 20
22.744095258
 10
23.1370093534
 20
22.7425086365
 10
23.1329736309
 20
22.7419542432
 10
23.1306331242
 20
22.7423631145
  0
LWPOLYLINE
  5
521
100
AcDbEntity
  8
RACCORDO
100
AcDbPolyline
 62
7
  6
CONTINUOUS
 90
10
 70
0
 10
23.2017797472
 20
22.7745036141
 10
23.2027458133
 20
22.7750716027
 10
23.203743081
 20
22.7756242178
 10
23.2047715502
 20
22.7761614595
 10
23.2058347243
 20
22.7766855127
 10
23.2069291
 20
22.7771941926
 10
23.2080441669
 20
22.7776809436
 10
23.2091764214
 20
22.7781435808
 10
23.210329367
 20
22.7785842893
 10
23.2115030039
 20
22.7790030689
  0
LINE
  5
522
100
AcDbEntity
  8
0
100
AcDbLine
 62
7
  6
CONTINUOUS
 10
-26.8327809261
 20
-12.6437869659
 11
-26.2551352126
 21
-12.4890072634
  0
LINE
  5
523
100
AcDbEntity
  8
0
100
AcDbLine
 62
7
  6
CONTINUOUS
 10
-26.8344523083
 20
-12.6375492827
 11
-26.2766611829
 21
-12.4880896011
  0
LWPOLYLINE
  5
524
100
AcDbEntity
  8
RACCORDO
100
AcDbPolyline
 62
7
  6
CONTINUOUS
 90
22
 70
0
 10
46.9798785508
 20
-3.7685859771
 10
47.0155964002
 20
-3.768369987
 10
47.0509977237
 20
-3.7676996257
 10
47.0860825212
 20
-3.7665748932
 10
47.1211310023
 20
-3.7649826268
 10
47.1558629574
 20
-3.7629359892
 10
47.189437758
 20
-3.7604744682
 10
47.2217392332
 20
-3.7575898191
 10
47.2528835538
 20
-3.7542902866
 10
47.2823786046
 20
-3.7506400925
 10
47.3101374922
 20
-3.7466482722
 10
47.3362471099
 20
-3.7423057904
 10
47.3604760216
 20
-3.7376497631
 10
47.3828772223
 20
-3.732667877
 10
47.4033977169
 20
-3.7273724454
 10
47.4216470846
 20
-3.7218375234
 10
47.4375998799
 20
-3.7160400256
 10
47.4512815482
 20
-3.7100030375
 10
47.4623780048
 20
-3.7038698704
 10
47.4707845548
 20
-3.6976882949
 10
47.4766058931
 20
-3.6914105406
 10
47.4798420197
 20
-3.6850366073
  0
LINE
  5
525
100
AcDbEntity
  8
0
100
AcDbLine
 62
253
  6
CONTINUOUS
 10
26.1346577008
 20
-8.3733576271
 11
25.5948647874
 21
-8.3733576271
  0
LINE
  5
526
100
AcDbEntity
  8
0
100
AcDbLine
 62
253
  6
CONTINUOUS
 10
-25.4051352126
 20
-8.3733576271
 11
-25.9449281259
 21
-8.3733576271
  0
LINE
  5
527
100
AcDbEntity
  8
0
100
AcDbLine
 62
253
  6
CONTINUOUS
 10
25.9364912041
 20
-8.1736317202
 11
25.3951388805
 21
-8.1736317202
  0
LINE
  5
528
100
AcDbEntity
  8
0
100
AcDbLine
 62
253
  6
CONTINUOUS
 10
-25.2054093056
 20
-8.1736317202
 11
-25.7467616293
 21
-8.1736317202
  0
LINE
  5
529
100
AcDbEntity
  8
0
100
AcDbLine
 62
7
  6
CONTINUOUS
 10
-25.5916687484
 20
-7.9896559304
 11
-25.2051352126
 21
-7.9896559304
  0
LINE
  5
52A
100
AcDbEntity
  8
0
100
AcDbLine
 62
7
  6
CONTINUOUS
 10
25.3948647874
 20
-7.9896559304
 11
25.7813983232
 21
-7.9896559304
  0
LINE
  5
52B
100
AcDbEntity
  8
0
100
AcDbLine
 62
7
  6
CONTINUOUS
 10
26.4448647874
 20
-12.4890072634
 11
27.0225105009
 21
-12.6437869659
  0
LINE
  5
52C
100
AcDbEntity
  8
0
100
AcDbLine
 62
7
  6
CONTINUOUS
 10
26.4663907577
 20
-12.4880896011
 11
27.0241818831
 21
-12.6375492827
  0
LWPOLYLINE
  5
52D
100
AcDbEntity
  8
RACCORDO
100
AcDbPolyline
 62
7
  6
CONTINUOUS
 90
10
 70
0
 10
23.2016906846
 20
-22.6415835685
 10
23.1896516602
 20
-22.6345680642
 10
23.1782368592
 20
-22.628147653
 10
23.1676604566
 20
-22.6224707026
 10
23.1580760538
 20
-22.6177291776
 10
23.1496659036
 20
-22.6139949028
 10
23.1426411199
 20
-22.6112246472
 10
23.1371171745
 20
-22.6094703396
 10
23.1331105149
 20
-22.6088705232
 10
23.1306328669
 20
-22.6094923742
  0
LINE
  5
52E
100
AcDbEntity
  8
0
100
AcDbLine
 62
7
  6
CONTINUOUS
 10
-12.6153574647
 20
26.9940809998
 11
-12.4605777623
 21
26.4164352862
  0
LINE
  5
52F
100
AcDbEntity
  8
0
100
AcDbLine
 62
7
  6
CONTINUOUS
 10
-12.6091197816
 20
26.9957523819
 11
-12.4596601
 21
26.4379612565
  0
LINE
  5
530
100
AcDbEntity
  8
0
100
AcDbLine
 62
7
  6
CONTINUOUS
 10
-3.7126752126
 20
34.5914352862
 11
-3.7126752126
 21
32.5414352862
  0
LINE
  5
531
100
AcDbEntity
  8
0
100
AcDbLine
 62
7
  6
CONTINUOUS
 10
-3.4356562126
 20
32.7869712862
 11
-3.4356562126
 21
33.4721832862
  0
LINE
  5
532
100
AcDbEntity
  8
0
100
AcDbLine
 62
7
  6
CONTINUOUS
 10
-3.4356562126
 20
33.7177192862
 11
-3.4356562126
 21
34.3458992862
  0
LINE
  5
533
100
AcDbEntity
  8
0
100
AcDbLine
 62
7
  6
CONTINUOUS
 10
-2.3135692126
 20
33.4721832862
 11
-2.3135692126
 21
33.7177192862
  0
LINE
  5
534
100
AcDbEntity
  8
0
100
AcDbLine
 62
7
  6
CONTINUOUS
 10
-2.2193502126
 20
34.3458992862
 11
-2.2193502126
 21
34.5914352862
  0
LINE
  5
535
100
AcDbEntity
  8
0
100
AcDbLine
 62
7
  6
CONTINUOUS
 10
-2.1993392126
 20
32.5414352862
 11
-2.1993392126
 21
32.7869712862
  0
LINE
  5
536
100
AcDbEntity
  8
0
100
AcDbLine
 62
7
  6
CONTINUOUS
 10
-1.0001102126
 20
34.5914352862
 11
-1.0001102126
 21
32.5414352862
  0
LINE
  5
537
100
AcDbEntity
  8
0
100
AcDbLine
 62
7
  6
CONTINUOUS
 10
-0.7231732126
 20
32.5414352862
 11
-0.7231732126
 21
34.5914352862
  0
LINE
  5
538
100
AcDbEntity
  8
0
100
AcDbLine
 62
7
  6
CONTINUOUS
 10
-0.4935652126
 20
-35.4230167138
 11
-0.4935652126
 21
-35.8396817138
  0
LINE
  5
539
100
AcDbEntity
  8
0
100
AcDbLine
 62
7
  6
CONTINUOUS
 10
-0.4799582126
 20
-32.0438617138
 11
-0.4799582126
 21
-32.4628187138
  0
LINE
  5
53A
100
AcDbEntity
  8
0
100
AcDbLine
 62
7
  6
CONTINUOUS
 10
-0.2492772126
 20
34.5914352862
 11
-0.2492772126
 21
32.5414352862
  0
LINE
  5
53B
100
AcDbEntity
  8
0
100
AcDbLine
 62
7
  6
CONTINUOUS
 10
-0.1243102126
 20
-32.4628187138
 11
-0.1243102126
 21
-33.5251777138
  0
LINE
  5
53C
100
AcDbEntity
  8
0
100
AcDbLine
 62
7
  6
CONTINUOUS
 10
-0.1243102126
 20
-34.0415337138
 11
-0.1243102126
 21
-35.4230167138
  0
LINE
  5
53D
100
AcDbEntity
  8
0
100
AcDbLine
 62
7
  6
CONTINUOUS
 10
0.0192197874
 20
32.5414352862
 11
0.0192197874
 21
34.2062802862
  0
LINE
  5
53E
100
AcDbEntity
  8
0
100
AcDbLine
 62
7
  6
CONTINUOUS
 10
0.3195687874
 20
-35.4230167138
 11
0.3195687874
 21
-34.0368737138
  0
LINE
  5
53F
100
AcDbEntity
  8
0
100
AcDbLine
 62
7
  6
CONTINUOUS
 10
0.3195687874
 20
-33.5251777138
 11
0.3195687874
 21
-32.4628187138
  0
LINE
  5
540
100
AcDbEntity
  8
0
100
AcDbLine
 62
7
  6
CONTINUOUS
 10
0.6750737874
 20
-32.4628187138
 11
0.6750737874
 21
-32.0438617138
  0
LINE
  5
541
100
AcDbEntity
  8
0
100
AcDbLine
 62
7
  6
CONTINUOUS
 10
0.6886807874
 20
-35.8396817138
 11
0.6886807874
 21
-35.4230167138
  0
LINE
  5
542
100
AcDbEntity
  8
0
100
AcDbLine
 62
7
  6
CONTINUOUS
 10
-10.3551352126
 20
-26.0335647138
 11
-10.3609030789
 21
-26.0550906841
  0
LINE
  5
543
100
AcDbEntity
  8
0
100
AcDbLine
 62
7
  6
CONTINUOUS
 10
-9.9221225107
 20
-26.2835647138
 11
-9.9278903771
 21
-26.3050906841
  0
LINE
  5
544
100
AcDbEntity
  8
0
100
AcDbLine
 62
7
  6
CONTINUOUS
 10
-8.9605777623
 20
-26.2835647138
 11
-9.1153574647
 21
-26.8612104273
  0
LINE
  5
545
100
AcDbEntity
  8
0
100
AcDbLine
 62
7
  6
CONTINUOUS
 10
-8.9596601
 20
-26.3050906841
 11
-9.1091197816
 21
-26.8628818095
  0
LINE
  5
546
100
AcDbEntity
  8
0
100
AcDbLine
 62
7
  6
CONTINUOUS
 10
-13.6051352126
 20
-26.2835647138
 11
-13.6140515614
 21
-26.3050906841
  0
LINE
  5
547
100
AcDbEntity
  8
0
100
AcDbLine
 62
7
  6
CONTINUOUS
 10
-25.3218021971
 20
-31.7846285613
 11
-25.238468228
 21
-31.6569690021
  0
LINE
  5
548
100
AcDbEntity
  8
0
100
AcDbLine
 62
7
  6
CONTINUOUS
 10
-25.2801352126
 20
-32.7207987519
 11
-25.1968021971
 21
-32.5931391926
  0
LINE
  5
549
100
AcDbEntity
  8
0
100
AcDbLine
 62
7
  6
CONTINUOUS
 10
-30.1988850457
 20
-35.7548413152
 11
-30.0676350457
 21
-35.5761179166
  0
LINE
  5
54A
100
AcDbEntity
  8
0
100
AcDbLine
 62
7
  6
CONTINUOUS
 10
-34.6551352126
 20
-31.6569690021
 11
-34.7384685857
 21
-31.7420753749
  0
LINE
  5
54B
100
AcDbEntity
  8
0
100
AcDbLine
 62
7
  6
CONTINUOUS
 10
-33.6968019587
 20
-31.061224273
 11
-33.8634684665
 21
-31.2314370187
  0
LINE
  5
54C
100
AcDbEntity
  8
0
100
AcDbLine
 62
7
  6
CONTINUOUS
 10
-34.6551352126
 20
-32.5505859764
 11
-34.7384685857
 21
-32.635692379
  0
LINE
  5
54D
100
AcDbEntity
  8
0
100
AcDbLine
 62
7
  6
CONTINUOUS
 10
-35.1426352126
 20
-33.967607251
 11
-35.31763521
 21
-34.1463306339
  0
LINE
  5
54E
100
AcDbEntity
  8
0
100
AcDbLine
 62
7
  6
CONTINUOUS
 10
-32.7384684665
 20
-32.8059051396
 11
-32.5718019587
 21
-32.635692379
  0
LINE
  5
54F
100
AcDbEntity
  8
0
100
AcDbLine
 62
7
  6
CONTINUOUS
 10
-33.1738852126
 20
-34.0122880967
 11
-33.3051352126
 21
-34.1463306339
  0
LINE
  5
550
100
AcDbEntity
  8
0
100
AcDbLine
 62
7
  6
CONTINUOUS
 10
31.3436907874
 20
34.0651852862
 11
29.5709177874
 21
32.3217232862
  0
LINE
  5
551
100
AcDbEntity
  8
0
100
AcDbLine
 62
7
  6
CONTINUOUS
 10
30.5814627874
 20
32.4197372862
 11
32.3012277874
 21
34.0651852862
  0
LINE
  5
552
100
AcDbEntity
  8
0
100
AcDbLine
 62
7
  6
CONTINUOUS
 10
29.5709177874
 20
31.4522732862
 11
30.0815987874
 21
31.9285442862
  0
LINE
  5
553
100
AcDbEntity
  8
0
100
AcDbLine
 62
7
  6
CONTINUOUS
 10
26.4448647874
 20
13.7164352862
 11
26.4663907577
 21
13.7253516351
  0
LINE
  5
554
100
AcDbEntity
  8
0
100
AcDbLine
 62
7
  6
CONTINUOUS
 10
-26.0051352126
 20
-10.3835647138
 11
-26.0266611829
 21
-10.3893325801
  0
LINE
  5
555
100
AcDbEntity
  8
0
100
AcDbLine
 62
7
  6
CONTINUOUS
 10
-26.2551352126
 20
-9.9505520119
 11
-26.2766611829
 21
-9.9563198782
  0
LINE
  5
556
100
AcDbEntity
  8
0
100
AcDbLine
 62
7
  6
CONTINUOUS
 10
-26.8327809261
 20
-9.1437869659
 11
-26.2551352126
 21
-8.9890072634
  0
LINE
  5
557
100
AcDbEntity
  8
0
100
AcDbLine
 62
7
  6
CONTINUOUS
 10
-26.8344523083
 20
-9.1375492827
 11
-26.2766611829
 21
-8.9880896011
  0
LWPOLYLINE
  5
558
100
AcDbEntity
  8
RACCORDO
100
AcDbPolyline
 62
7
  6
CONTINUOUS
 90
19
 70
0
 10
-43.7213693066
 20
-3.5922589964
 10
-43.6955351002
 20
-3.5920644005
 10
-43.6701522953
 20
-3.5914867532
 10
-43.6452208921
 20
-3.5905260546
 10
-43.6204934346
 20
-3.589164715
 10
-43.5962173788
 20
-3.5874203241
 10
-43.5731350921
 20
-3.5853456506
 10
-43.5513865743
 20
-3.5829416693
 10
-43.5308318256
 20
-3.5802074054
 10
-43.5117932143
 20
-3.5771927025
 10
-43.4942652915
 20
-3.5738948828
 10
-43.4782535061
 20
-3.5703166241
 10
-43.4640965725
 20
-3.5665158042
 10
-43.4517961654
 20
-3.5624698179
 10
-43.4413506101
 20
-3.5582012704
 10
-43.4330935964
 20
-3.5538358557
 10
-43.4271363543
 20
-3.5494154715
 10
-43.4233676538
 20
-3.54489822
 10
-43.421787495
 20
-3.5402841012
  0
LWPOLYLINE
  5
559
100
AcDbEntity
  8
RACCORDO
100
AcDbPolyline
 62
7
  6
CONTINUOUS
 90
19
 70
0
 10
-45.8652819607
 20
-3.7685859771
 10
-45.840607838
 20
-3.7684082643
 10
-45.8163285444
 20
-3.7678805136
 10
-45.7924440801
 20
-3.7670027251
 10
-45.7687368884
 20
-3.7657600998
 10
-45.7454245259
 20
-3.7641674367
 10
-45.7231596618
 20
-3.7622691328
 10
-45.7020649122
 20
-3.7600661507
 10
-45.6820176611
 20
-3.7575575277
 10
-45.6633027288
 20
-3.754784773
 10
-45.645914213
 20
-3.7517459457
 10
-45.6298580161
 20
-3.7484429867
 10
-45.6154366664
 20
-3.7449232271
 10
-45.602642167
 20
-3.7411671946
 10
-45.5914825148
 20
-3.7371943616
 10
-45.5822842296
 20
-3.7331104764
 10
-45.5751561515
 20
-3.7289507883
 10
-45.5699894403
 20
-3.7246800481
 10
-45.5667840963
 20
-3.7202982556
  0
LINE
  5
55A
100
AcDbEntity
  8
RACCORDO
100
AcDbLine
 62
7
  6
CONTINUOUS
 10
-46.790148976
 20
-3.7685859771
 11
-45.8652819607
 21
-3.7685859771
  0
LINE
  5
55B
100
AcDbEntity
  8
RACCORDO
100
AcDbLine
 62
7
  6
CONTINUOUS
 10
46.9798785508
 20
-3.7685859771
 11
46.0550115355
 21
-3.7685859771
  0
LINE
  5
55C
100
AcDbEntity
  8
RACCORDO
100
AcDbLine
 62
7
  6
CONTINUOUS
 10
-45.2293028284
 20
-3.5922589964
 11
-43.7213693066
 21
-3.5922589964
  0
LINE
  5
55D
100
AcDbEntity
  8
RACCORDO
100
AcDbLine
 62
7
  6
CONTINUOUS
 10
45.4190324032
 20
-3.5922589964
 11
43.9110988814
 21
-3.5922589964
  0
LINE
  5
55E
100
AcDbEntity
  8
DRAFT
100
AcDbLine
 62
7
  6
CONTINUOUS
 10
-47.3666805308
 20
-3.4335647138
 11
-43.411987318
 21
-3.4335647138
  0
LINE
  5
55F
100
AcDbEntity
  8
DRAFT
100
AcDbLine
 62
7
  6
CONTINUOUS
 10
47.5564101056
 20
-3.4335647138
 11
43.6017168928
 21
-3.4335647138
  0
LINE
  5
560
100
AcDbEntity
  8
RACCORDO
100
AcDbLine
 62
253
  6
CONTINUOUS
 10
24.071366456
 20
0.0664351422
 11
23.3609875731
 21
0.0664351903
  0
LINE
  5
561
100
AcDbEntity
  8
RACCORDO
100
AcDbLine
 62
253
  6
CONTINUOUS
 10
-23.1712579983
 20
0.0664353822
 11
-23.8816368812
 21
0.0664354303
  0
LWPOLYLINE
  5
562
100
AcDbEntity
  8
RACCORDO
100
AcDbPolyline
 62
7
  6
CONTINUOUS
 90
19
 70
0
 10
45.4190324032
 20
-3.5922589964
 10
45.4437064863
 20
-3.5924367061
 10
45.4679858878
 20
-3.5929644563
 10
45.4918706076
 20
-3.593842247
 10
45.5155782201
 20
-3.5950848765
 10
45.5388911511
 20
-3.5966775464
 10
45.5611566771
 20
-3.5985758619
 10
45.582252187
 20
-3.6007788622
 10
45.6023002919
 20
-3.6032875082
 10
45.6210161017
 20
-3.6060602874
 10
45.6384055139
 20
-3.6090991426
 10
45.6544626309
 20
-3.6124021312
 10
45.6688848698
 20
-3.6159219127
 10
45.681680215
 20
-3.6196779609
 10
45.6928406821
 20
-3.6236508021
 10
45.7020397345
 20
-3.6277346745
 10
45.7091685266
 20
-3.6318943244
 10
45.7143359041
 20
-3.6361650055
 10
45.7175418668
 20
-3.6405467179
  0
LINE
  5
563
100
AcDbEntity
  8
0
100
AcDbLine
 62
7
  6
CONTINUOUS
 10
26.1948647874
 20
-10.3835647138
 11
26.2163907577
 21
-10.3893325801
  0
LINE
  5
564
100
AcDbEntity
  8
0
100
AcDbLine
 62
7
  6
CONTINUOUS
 10
26.4448647874
 20
-9.9505520119
 11
26.4663907577
 21
-9.9563198782
  0
LINE
  5
565
100
AcDbEntity
  8
0
100
AcDbLine
 62
7
  6
CONTINUOUS
 10
26.4448647874
 20
-8.9890072634
 11
27.0225105009
 21
-9.1437869659
  0
LINE
  5
566
100
AcDbEntity
  8
0
100
AcDbLine
 62
7
  6
CONTINUOUS
 10
26.4663907577
 20
-8.9880896011
 11
27.0241818831
 21
-9.1375492827
  0
LINE
  5
567
100
AcDbEntity
  8
0
100
AcDbLine
 62
7
  6
CONTINUOUS
 10
26.4448647874
 20
-13.6835647138
 11
26.4663907577
 21
-13.6924810626
  0
LINE
  5
568
100
AcDbEntity
  8
0
100
AcDbLine
 62
7
  6
CONTINUOUS
 10
-13.6051352126
 20
26.4164352862
 11
-13.6140515614
 21
26.4379612565
  0
LINE
  5
569
100
AcDbEntity
  8
0
100
AcDbLine
 62
7
  6
CONTINUOUS
 10
7.1457237874
 20
-34.2023147138
 11
7.1780914595
 21
-34.3223134982
  0
LINE
  5
56A
100
AcDbEntity
  8
0
100
AcDbLine
 62
7
  6
CONTINUOUS
 10
7.547724251
 20
-34.8023143585
 11
7.2036537872
 21
-33.5266887132
  0
LINE
  5
56B
100
AcDbEntity
  8
0
100
AcDbLine
 62
7
  6
CONTINUOUS
 10
9.2757237874
 20
-34.2023147138
 11
9.3080914595
 21
-34.3223134982
  0
LINE
  5
56C
100
AcDbEntity
  8
0
100
AcDbLine
 62
7
  6
CONTINUOUS
 10
9.677724251
 20
-34.8023143585
 11
9.3336537874
 21
-33.5266887138
  0
LINE
  5
56D
100
AcDbEntity
  8
0
100
AcDbLine
 62
7
  6
CONTINUOUS
 10
-10.3551352126
 20
26.1664352862
 11
-10.3609030789
 21
26.1879612565
  0
LINE
  5
56E
100
AcDbEntity
  8
0
100
AcDbLine
 62
7
  6
CONTINUOUS
 10
-9.9221225107
 20
26.4164352862
 11
-9.9278903771
 21
26.4379612565
  0
LINE
  5
56F
100
AcDbEntity
  8
0
100
AcDbLine
 62
7
  6
CONTINUOUS
 10
-9.1153574647
 20
26.9940809998
 11
-8.9605777623
 21
26.4164352862
  0
LINE
  5
570
100
AcDbEntity
  8
0
100
AcDbLine
 62
7
  6
CONTINUOUS
 10
-9.1091197816
 20
26.9957523819
 11
-8.9596601
 21
26.4379612565
  0
LINE
  5
571
100
AcDbEntity
  8
0
100
AcDbLine
 62
7
  6
CONTINUOUS
 10
1.1099397874
 20
34.5914352862
 11
1.1099397874
 21
32.9262522862
  0
LINE
  5
572
100
AcDbEntity
  8
0
100
AcDbLine
 62
7
  6
CONTINUOUS
 10
1.3783047874
 20
32.5414352862
 11
1.3783047874
 21
34.5914352862
  0
LINE
  5
573
100
AcDbEntity
  8
0
100
AcDbLine
 62
7
  6
CONTINUOUS
 10
2.6488237874
 20
34.5914352862
 11
2.6488237874
 21
32.5414352862
  0
LINE
  5
574
100
AcDbEntity
  8
0
100
AcDbLine
 62
7
  6
CONTINUOUS
 10
2.9258427874
 20
32.5414352862
 11
2.9258427874
 21
34.5914352862
  0
LINE
  5
575
100
AcDbEntity
  8
0
100
AcDbLine
 62
7
  6
CONTINUOUS
 10
3.2227907874
 20
34.5914352862
 11
3.2227907874
 21
34.3458992862
  0
LINE
  5
576
100
AcDbEntity
  8
0
100
AcDbLine
 62
7
  6
CONTINUOUS
 10
3.9166237874
 20
34.3458992862
 11
3.9166237874
 21
32.5414352862
  0
LINE
  5
577
100
AcDbEntity
  8
0
100
AcDbLine
 62
7
  6
CONTINUOUS
 10
4.1935437874
 20
32.5414352862
 11
4.1935437874
 21
34.3458992862
  0
LINE
  5
578
100
AcDbEntity
  8
0
100
AcDbLine
 62
7
  6
CONTINUOUS
 10
4.8873777874
 20
34.3458992862
 11
4.8873777874
 21
34.5914352862
  0
LINE
  5
579
100
AcDbEntity
  8
0
100
AcDbLine
 62
7
  6
CONTINUOUS
 10
9.1493896748
 20
26.4379612565
 11
9.2988493564
 21
26.9957523819
  0
LINE
  5
57A
100
AcDbEntity
  8
0
100
AcDbLine
 62
7
  6
CONTINUOUS
 10
9.1503073371
 20
26.4164352862
 11
9.3050870395
 21
26.9940809998
  0
LINE
  5
57B
100
AcDbEntity
  8
0
100
AcDbLine
 62
7
  6
CONTINUOUS
 10
10.1118520855
 20
26.4164352862
 11
10.1176199519
 21
26.4379612565
  0
LINE
  5
57C
100
AcDbEntity
  8
0
100
AcDbLine
 62
7
  6
CONTINUOUS
 10
10.5448647874
 20
26.1664352862
 11
10.5506326538
 21
26.1879612565
  0
LINE
  5
57D
100
AcDbEntity
  8
0
100
AcDbLine
 62
7
  6
CONTINUOUS
 10
13.7948647874
 20
26.4164352862
 11
13.8037811363
 21
26.4379612565
  0
LWPOLYLINE
  5
57E
100
AcDbEntity
  8
0
100
AcDbPolyline
 62
7
  6
CONTINUOUS
 90
16
 70
0
 10
32.8164947541
 20
33.5391021973
 10
32.7616613697
 20
33.4719475002
 10
32.7090430861
 20
33.3996395167
 10
32.6586399032
 20
33.3221782469
 10
32.6101426268
 20
33.2395270618
 10
32.5638604511
 20
33.1517225903
 10
32.5207209587
 20
33.0588747191
 10
32.4806293508
 20
32.9604675595
 10
32.4436804262
 20
32.8570170001
 10
32.4110861637
 20
32.7501805937
 10
32.3829770182
 20
32.6395909255
 10
32.3592225347
 20
32.5256154103
 10
32.3406433274
 20
32.4110138446
 10
32.3275129342
 20
32.2967061608
 10
32.3195578172
 20
32.1817724265
 10
32.3167779763
 20
32.0662126418
  0
LWPOLYLINE
  5
57F
100
AcDbEntity
  8
0
100
AcDbPolyline
 62
7
  6
CONTINUOUS
 90
13
 70
0
 10
33.4102761985
 20
33.1791065862
 10
33.4565908047
 20
33.2266353225
 10
33.5079578389
 20
33.2715368355
 10
33.5643773011
 20
33.3138111251
 10
33.6264491885
 20
33.3540393677
 10
33.6935735039
 20
33.3916403869
 10
33.7639502553
 20
33.4248706546
 10
33.8373176476
 20
33.4534516716
 10
33.9139374759
 20
33.4776619371
 10
33.9927951336
 20
33.4965934199
 10
34.0735524184
 20
33.5099434431
 10
34.1565475327
 20
33.5180146838
 10
34.2417804763
 20
33.5208071418
  0
LWPOLYLINE
  5
580
100
AcDbEntity
  8
0
100
AcDbPolyline
 62
7
  6
CONTINUOUS
 90
13
 70
0
 10
35.069333643
 20
30.9525637529
 10
35.0226062822
 20
30.9046637252
 10
34.9709447086
 20
30.8594763804
 10
34.9143489222
 20
30.8170017186
 10
34.8521894702
 20
30.7766630113
 10
34.7850958053
 20
30.739036987
 10
34.7149562856
 20
30.7058538308
 10
34.6421097138
 20
30.6774181342
 10
34.5662172872
 20
30.6534253058
 10
34.4881509552
 20
30.6346917568
 10
34.4082013676
 20
30.6214896242
 10
34.3260778747
 20
30.6135467711
 10
34.2417804763
 20
30.6108631973
  0
LINE
  5
581
100
AcDbEntity
  8
0
100
AcDbLine
 62
7
  6
CONTINUOUS
 10
-28.2384687049
 20
-31.061224273
 11
-28.4051352126
 21
-31.2314370187
  0
LINE
  5
582
100
AcDbEntity
  8
0
100
AcDbLine
 62
7
  6
CONTINUOUS
 10
-32.2113851291
 20
-35.7548413152
 11
-32.0801351291
 21
-35.6207987623
  0
LINE
  5
583
100
AcDbEntity
  8
0
100
AcDbLine
 62
7
  6
CONTINUOUS
 10
-31.248885296
 20
-35.0399476738
 11
-31.1613853795
 21
-34.9505859824
  0
LINE
  5
584
100
AcDbEntity
  8
0
100
AcDbLine
 62
7
  6
CONTINUOUS
 10
-27.3218021971
 20
-31.6569690021
 11
-27.4051352126
 21
-31.7420753749
  0
LINE
  5
585
100
AcDbEntity
  8
0
100
AcDbLine
 62
7
  6
CONTINUOUS
 10
-26.4051352126
 20
-31.061224273
 11
-26.5718021971
 21
-31.2314370187
  0
LINE
  5
586
100
AcDbEntity
  8
0
100
AcDbLine
 62
7
  6
CONTINUOUS
 10
-27.238468228
 20
-32.5505859764
 11
-27.3218021971
 21
-32.635692379
  0
LINE
  5
587
100
AcDbEntity
  8
0
100
AcDbLine
 62
7
  6
CONTINUOUS
 10
-25.488468228
 20
-31.6569690021
 11
-25.5718021971
 21
-31.7420753749
  0
LINE
  5
588
100
AcDbEntity
  8
0
100
AcDbLine
 62
7
  6
CONTINUOUS
 10
-25.4051352126
 20
-32.5505859764
 11
-25.488468228
 21
-32.635692379
  0
LINE
  5
589
100
AcDbEntity
  8
0
100
AcDbLine
 62
7
  6
CONTINUOUS
 10
-34.1801352543
 20
-34.5931392165
 11
-35.4051352126
 21
-35.7101604538
  0
LINE
  5
58A
100
AcDbEntity
  8
0
100
AcDbLine
 62
7
  6
CONTINUOUS
 10
-35.0551352022
 20
-35.7101604538
 11
-33.9613852126
 21
-34.7271817537
  0
LINE
  5
58B
100
AcDbEntity
  8
0
100
AcDbLine
 62
7
  6
CONTINUOUS
 10
-34.6968018395
 20
-32.8910115236
 11
-34.5301352126
 21
-32.7633519532
  0
LINE
  5
58C
100
AcDbEntity
  8
0
100
AcDbLine
 62
7
  6
CONTINUOUS
 10
-26.2551352126
 20
-13.6835647138
 11
-26.2766611829
 21
-13.6924810626
  0
LINE
  5
58D
100
AcDbEntity
  8
0
100
AcDbLine
 62
7
  6
CONTINUOUS
 10
27.0241818831
 20
9.1704198552
 11
26.4663907577
 21
9.0209601736
  0
LINE
  5
58E
100
AcDbEntity
  8
0
100
AcDbLine
 62
7
  6
CONTINUOUS
 10
27.0225105009
 20
9.1766575384
 11
26.4448647874
 21
9.0218778359
  0
LINE
  5
58F
100
AcDbEntity
  8
0
100
AcDbLine
 62
7
  6
CONTINUOUS
 10
26.4448647874
 20
9.9834225843
 11
26.4663907577
 21
9.9891904507
  0
LINE
  5
590
100
AcDbEntity
  8
0
100
AcDbLine
 62
7
  6
CONTINUOUS
 10
26.1948647874
 20
10.4164352862
 11
26.2163907577
 21
10.4222031526
  0
LWPOLYLINE
  5
591
100
AcDbEntity
  8
RACCORDO
100
AcDbPolyline
 62
7
  6
CONTINUOUS
 90
19
 70
0
 10
43.9110988814
 20
3.7251295689
 10
43.885264675
 20
3.7249349729
 10
43.8598818701
 20
3.7243573257
 10
43.8349504669
 20
3.723396627
 10
43.8102230095
 20
3.7220352875
 10
43.7859469536
 20
3.7202908966
 10
43.7628646669
 20
3.718216223
 10
43.7411161491
 20
3.7158122418
 10
43.7205614004
 20
3.7130779779
 10
43.7015227891
 20
3.710063275
 10
43.6839948664
 20
3.7067654552
 10
43.667983081
 20
3.7031871965
 10
43.6538261473
 20
3.6993863767
 10
43.6415257402
 20
3.6953403904
 10
43.6310801849
 20
3.6910718429
 10
43.6228231712
 20
3.6867064281
 10
43.6168659291
 20
3.682286044
 10
43.6130972287
 20
3.6777687925
 10
43.6115170698
 20
3.6731546737
  0
LWPOLYLINE
  5
592
100
AcDbEntity
  8
RACCORDO
100
AcDbPolyline
 62
7
  6
CONTINUOUS
 90
19
 70
0
 10
46.0550115355
 20
3.9014565496
 10
46.0303374128
 20
3.9012788367
 10
46.0060581193
 20
3.9007510861
 10
45.9821736549
 20
3.8998732976
 10
45.9584664632
 20
3.8986306723
 10
45.9351541007
 20
3.8970380092
 10
45.9128892366
 20
3.8951397053
 10
45.891794487
 20
3.8929367231
 10
45.8717472359
 20
3.8904281002
 10
45.8530323036
 20
3.8876553455
 10
45.8356437878
 20
3.8846165182
 10
45.8195875909
 20
3.8813135591
 10
45.8051662413
 20
3.8777937995
 10
45.7923717418
 20
3.8740377671
 10
45.7812120896
 20
3.8700649341
 10
45.7720138045
 20
3.8659810488
 10
45.7648857263
 20
3.8618213608
 10
45.7597190152
 20
3.8575506206
 10
45.7565136711
 20
3.8531688281
  0
LWPOLYLINE
  5
593
100
AcDbEntity
  8
RACCORDO
100
AcDbPolyline
 62
7
  6
CONTINUOUS
 90
22
 70
0
 10
-46.790148976
 20
3.9014565496
 10
-46.8258668254
 20
3.9012405595
 10
-46.8612681489
 20
3.9005701982
 10
-46.8963529464
 20
3.8994454657
 10
-46.9314014274
 20
3.8978531993
 10
-46.9661333826
 20
3.8958065617
 10
-46.9997081832
 20
3.8933450407
 10
-47.0320096583
 20
3.8904603916
 10
-47.063153979
 20
3.887160859
 10
-47.0926490297
 20
3.883510665
 10
-47.1204079174
 20
3.8795188447
 10
-47.1465175351
 20
3.8751763629
 10
-47.1707464468
 20
3.8705203355
 10
-47.1931476475
 20
3.8655384495
 10
-47.2136681421
 20
3.8602430179
 10
-47.2319175098
 20
3.8547080959
 10
-47.2478703051
 20
3.8489105981
 10
-47.2615519734
 20
3.8428736099
 10
-47.27264843
 20
3.8367404429
 10
-47.28105498
 20
3.8305588674
 10
-47.2868763183
 20
3.8242811131
 10
-47.2901124449
 20
3.8179071798
  0
LINE
  5
594
100
AcDbEntity
  8
DRAFT
100
AcDbLine
 62
7
  6
CONTINUOUS
 10
-47.3666805308
 20
3.5664352862
 11
-43.411987318
 21
3.5664352862
  0
LINE
  5
595
100
AcDbEntity
  8
DRAFT
100
AcDbLine
 62
7
  6
CONTINUOUS
 10
47.5564101056
 20
3.5664352862
 11
43.6017168928
 21
3.5664352862
  0
LINE
  5
596
100
AcDbEntity
  8
RACCORDO
100
AcDbLine
 62
7
  6
CONTINUOUS
 10
-45.2293028284
 20
3.7251295689
 11
-43.7213693066
 21
3.7251295689
  0
LINE
  5
597
100
AcDbEntity
  8
RACCORDO
100
AcDbLine
 62
7
  6
CONTINUOUS
 10
45.4190324032
 20
3.7251295689
 11
43.9110988814
 21
3.7251295689
  0
LINE
  5
598
100
AcDbEntity
  8
RACCORDO
100
AcDbLine
 62
7
  6
CONTINUOUS
 10
-46.790148976
 20
3.9014565496
 11
-45.8652819607
 21
3.9014565496
  0
LINE
  5
599
100
AcDbEntity
  8
RACCORDO
100
AcDbLine
 62
7
  6
CONTINUOUS
 10
46.9798785508
 20
3.9014565496
 11
46.0550115355
 21
3.9014565496
  0
LWPOLYLINE
  5
59A
100
AcDbEntity
  8
RACCORDO
100
AcDbPolyline
 62
7
  6
CONTINUOUS
 90
19
 70
0
 10
-45.2293028284
 20
3.7251295689
 10
-45.2539769115
 20
3.7253072786
 10
-45.2782563129
 20
3.7258350288
 10
-45.3021410327
 20
3.7267128195
 10
-45.3258486453
 20
3.7279554489
 10
-45.3491615763
 20
3.7295481189
 10
-45.3714271022
 20
3.7314464344
 10
-45.3925226122
 20
3.7336494347
 10
-45.4125707171
 20
3.7361580806
 10
-45.4312865269
 20
3.7389308599
 10
-45.4486759391
 20
3.7419697151
 10
-45.4647330561
 20
3.7452727036
 10
-45.479155295
 20
3.7487924851
 10
-45.4919506402
 20
3.7525485334
 10
-45.5031111073
 20
3.7565213745
 10
-45.5123101597
 20
3.760605247
 10
-45.5194389518
 20
3.7647648968
 10
-45.5246063292
 20
3.769035578
 10
-45.527812292
 20
3.7734172904
  0
LINE
  5
59B
100
AcDbEntity
  8
0
100
AcDbLine
 62
7
  6
CONTINUOUS
 10
-26.2766611829
 20
9.1209601736
 11
-26.8344523083
 21
9.2704198552
  0
LINE
  5
59C
100
AcDbEntity
  8
0
100
AcDbLine
 62
7
  6
CONTINUOUS
 10
-26.2551352126
 20
9.1218778359
 11
-26.8327809261
 21
9.2766575384
  0
LINE
  5
59D
100
AcDbEntity
  8
0
100
AcDbLine
 62
7
  6
CONTINUOUS
 10
-26.2551352126
 20
10.0834225843
 11
-26.2766611829
 21
10.0891904507
  0
LINE
  5
59E
100
AcDbEntity
  8
0
100
AcDbLine
 62
7
  6
CONTINUOUS
 10
-26.0051352126
 20
10.5164352862
 11
-26.0266611829
 21
10.5222031526
  0
LINE
  5
59F
100
AcDbEntity
  8
0
100
AcDbLine
 62
7
  6
CONTINUOUS
 10
-26.2551352126
 20
13.8164352862
 11
-26.2766611829
 21
13.8253516351
  0
LINE
  5
5A0
100
AcDbEntity
  8
0
100
AcDbLine
 62
7
  6
CONTINUOUS
 10
13.7948647874
 20
-26.2835647138
 11
13.8037811363
 21
-26.3050906841
  0
LINE
  5
5A1
100
AcDbEntity
  8
0
100
AcDbLine
 62
7
  6
CONTINUOUS
 10
-6.5622002126
 20
33.1381152862
 11
-6.3595042126
 21
32.5414352862
  0
LINE
  5
5A2
100
AcDbEntity
  8
0
100
AcDbLine
 62
7
  6
CONTINUOUS
 10
-9.1090632126
 20
32.8499222862
 11
-9.6972132126
 21
34.5914352862
  0
LINE
  5
5A3
100
AcDbEntity
  8
0
100
AcDbLine
 62
7
  6
CONTINUOUS
 10
-9.8257242126
 20
34.2603512862
 11
-9.2489332126
 21
32.5414352862
  0
LINE
  5
5A4
100
AcDbEntity
  8
0
100
AcDbLine
 62
7
  6
CONTINUOUS
 10
-6.9674742126
 20
34.2940852862
 11
-6.6620552126
 21
33.3836512862
  0
LINE
  5
5A5
100
AcDbEntity
  8
0
100
AcDbLine
 62
7
  6
CONTINUOUS
 10
9.2988493564
 20
-26.8628818095
 11
9.1493896748
 21
-26.3050906841
  0
LINE
  5
5A6
100
AcDbEntity
  8
0
100
AcDbLine
 62
7
  6
CONTINUOUS
 10
9.3050870395
 20
-26.8612104273
 11
9.1503073371
 21
-26.2835647138
  0
LINE
  5
5A7
100
AcDbEntity
  8
0
100
AcDbLine
 62
7
  6
CONTINUOUS
 10
10.1118520855
 20
-26.2835647138
 11
10.1176199519
 21
-26.3050906841
  0
LINE
  5
5A8
100
AcDbEntity
  8
0
100
AcDbLine
 62
7
  6
CONTINUOUS
 10
10.5448647874
 20
-26.0335647138
 11
10.5506326538
 21
-26.0550906841
  0
LINE
  5
5A9
100
AcDbEntity
  8
0
100
AcDbLine
 62
7
  6
CONTINUOUS
 10
10.0394222377
 20
-26.2835647138
 11
10.0403399
 21
-26.3050906841
  0
LINE
  5
5AA
100
AcDbEntity
  8
0
100
AcDbLine
 62
7
  6
CONTINUOUS
 10
7.0487557874
 20
34.5914352862
 11
7.0487557874
 21
32.5414352862
  0
LINE
  5
5AB
100
AcDbEntity
  8
0
100
AcDbLine
 62
7
  6
CONTINUOUS
 10
7.3257917874
 20
32.7869712862
 11
7.3257917874
 21
34.5914352862
  0
LINE
  5
5AC
100
AcDbEntity
  8
0
100
AcDbLine
 62
7
  6
CONTINUOUS
 10
7.9748647874
 20
-33.2435647138
 11
7.9748647874
 21
-33.4110727138
  0
LINE
  5
5AD
100
AcDbEntity
  8
0
100
AcDbLine
 62
7
  6
CONTINUOUS
 10
7.9748647874
 20
-34.9383225075
 11
7.9748647874
 21
-35.2835647138
  0
LINE
  5
5AE
100
AcDbEntity
  8
0
100
AcDbLine
 62
7
  6
CONTINUOUS
 10
7.9951847874
 20
-34.2215643555
 11
7.9951847874
 21
-34.3415647138
  0
LINE
  5
5AF
100
AcDbEntity
  8
0
100
AcDbLine
 62
7
  6
CONTINUOUS
 10
8.1509560041
 20
-25.5700982496
 11
8.1509560041
 21
-25.1335647138
  0
LINE
  5
5B0
100
AcDbEntity
  8
0
100
AcDbLine
 62
7
  6
CONTINUOUS
 10
8.1509560041
 20
25.2664352862
 11
8.1509560041
 21
25.702968822
  0
LINE
  5
5B1
100
AcDbEntity
  8
0
100
AcDbLine
 62
7
  6
CONTINUOUS
 10
8.2148647874
 20
-35.2835647138
 11
8.2148647874
 21
-34.9383227138
  0
LINE
  5
5B2
100
AcDbEntity
  8
0
100
AcDbLine
 62
7
  6
CONTINUOUS
 10
8.2148647874
 20
-33.4110720741
 11
8.2148647874
 21
-33.2435647138
  0
LINE
  5
5B3
100
AcDbEntity
  8
0
100
AcDbLine
 62
7
  6
CONTINUOUS
 10
8.2250797874
 20
-34.0115646571
 11
8.2250797874
 21
-33.8915647138
  0
LINE
  5
5B4
100
AcDbEntity
  8
0
100
AcDbLine
 62
253
  6
CONTINUOUS
 10
8.3349317938
 20
25.858061703
 11
8.3349317938
 21
25.2667093793
  0
LINE
  5
5B5
100
AcDbEntity
  8
0
100
AcDbLine
 62
253
  6
CONTINUOUS
 10
8.3349317938
 20
-25.1338388068
 11
8.3349317938
 21
-25.7251911305
  0
LINE
  5
5B6
100
AcDbEntity
  8
0
100
AcDbLine
 62
7
  6
CONTINUOUS
 10
8.3651327874
 20
32.5414352862
 11
8.3651327874
 21
32.7869712862
  0
LINE
  5
5B7
100
AcDbEntity
  8
0
100
AcDbLine
 62
253
  6
CONTINUOUS
 10
8.5346577008
 20
26.0562281996
 11
8.5346577008
 21
25.4664352862
  0
LINE
  5
5B8
100
AcDbEntity
  8
0
100
AcDbLine
 62
253
  6
CONTINUOUS
 10
8.5346577008
 20
-25.3335647138
 11
8.5346577008
 21
-25.9233576271
  0
LINE
  5
5B9
100
AcDbEntity
  8
0
100
AcDbLine
 62
7
  6
CONTINUOUS
 10
8.5948647874
 20
-24.9835647138
 11
8.5948647874
 21
-25.1335647138
  0
LINE
  5
5BA
100
AcDbEntity
  8
0
100
AcDbLine
 62
7
  6
CONTINUOUS
 10
8.5948647874
 20
25.1164352862
 11
8.5948647874
 21
25.2664352862
  0
LINE
  5
5BB
100
AcDbEntity
  8
0
100
AcDbLine
 62
7
  6
CONTINUOUS
 10
9.2330457874
 20
33.3665742862
 11
9.2330457874
 21
32.5414352862
  0
LINE
  5
5BC
100
AcDbEntity
  8
0
100
AcDbLine
 62
7
  6
CONTINUOUS
 10
9.5099157874
 20
32.5414352862
 11
9.5099157874
 21
33.3665742862
  0
LINE
  5
5BD
100
AcDbEntity
  8
0
100
AcDbLine
 62
7
  6
CONTINUOUS
 10
10.0394222377
 20
26.4164352862
 11
10.0403399
 21
26.4379612565
  0
LINE
  5
5BE
100
AcDbEntity
  8
0
100
AcDbLine
 62
7
  6
CONTINUOUS
 10
12.6493896748
 20
26.4379612565
 11
12.7988493564
 21
26.9957523819
  0
LINE
  5
5BF
100
AcDbEntity
  8
0
100
AcDbLine
 62
7
  6
CONTINUOUS
 10
12.6503073371
 20
26.4164352862
 11
12.8050870395
 21
26.9940809998
  0
LWPOLYLINE
  5
5C0
100
AcDbEntity
  8
0
100
AcDbPolyline
 62
7
  6
CONTINUOUS
 90
16
 70
0
 10
35.6631291985
 20
30.5933301418
 10
35.7179630479
 20
30.6604921745
 10
35.7705814021
 20
30.7328066575
 10
35.8209842612
 20
30.8102735907
 10
35.8694808393
 20
30.8929299034
 10
35.9157619223
 20
30.9807386663
 10
35.9588998678
 20
31.0735890923
 10
35.9989893178
 20
31.171996797
 10
36.0359356302
 20
31.2754461647
 10
36.0685272369
 20
31.3822795615
 10
36.096633619
 20
31.4928635776
 10
36.1203852954
 20
31.6068316228
 10
36.1389622539
 20
31.7214262922
 10
36.152091157
 20
31.8357284511
 10
36.1600453423
 20
31.9506572343
 10
36.1628248096
 20
32.0662126418
  0
LINE
  5
5C1
100
AcDbEntity
  8
0
100
AcDbLine
 62
7
  6
CONTINUOUS
 10
-31.8634687049
 20
-32.0399476798
 11
-31.6968017203
 21
-31.9122881206
  0
LINE
  5
5C2
100
AcDbEntity
  8
0
100
AcDbLine
 62
7
  6
CONTINUOUS
 10
-27.3218021971
 20
-31.9122881206
 11
-27.1551352126
 21
-31.7846285613
  0
LINE
  5
5C3
100
AcDbEntity
  8
0
100
AcDbLine
 62
7
  6
CONTINUOUS
 10
-33.6134684665
 20
-31.3165433915
 11
-33.4884684665
 21
-31.2314370187
  0
LINE
  5
5C4
100
AcDbEntity
  8
0
100
AcDbLine
 62
7
  6
CONTINUOUS
 10
-32.8218019587
 20
-32.5505859764
 11
-32.9468019587
 21
-32.635692379
  0
LINE
  5
5C5
100
AcDbEntity
  8
0
100
AcDbLine
 62
7
  6
CONTINUOUS
 10
-35.0551352022
 20
-34.1910114797
 11
-34.9238852022
 21
-34.1016497882
  0
LINE
  5
5C6
100
AcDbEntity
  8
0
100
AcDbLine
 62
7
  6
CONTINUOUS
 10
-30.9884687049
 20
-32.5931391926
 11
-31.1134687049
 21
-32.6782455655
  0
LINE
  5
5C7
100
AcDbEntity
  8
0
100
AcDbLine
 62
7
  6
CONTINUOUS
 10
-33.0426352126
 20
-34.1910114797
 11
-32.9113852126
 21
-34.1016497882
  0
LWPOLYLINE
  5
5C8
100
AcDbEntity
  8
RACCORDO
100
AcDbPolyline
 62
7
  6
CONTINUOUS
 90
10
 70
0
 10
-23.0119614112
 20
-22.6415839476
 10
-22.9999928216
 20
-22.6344581146
 10
-22.9885675863
 20
-22.6280534571
 10
-22.9779305256
 20
-22.6224706338
 10
-22.9683427652
 20
-22.6177342919
 10
-22.9599751255
 20
-22.6139340509
 10
-22.9529113687
 20
-22.6112246933
 10
-22.9472797734
 20
-22.6096380709
 10
-22.9432440531
 20
-22.609083675
 10
-22.9409035494
 20
-22.609492542
  0
LWPOLYLINE
  5
5C9
100
AcDbEntity
  8
RACCORDO
100
AcDbPolyline
 62
7
  6
CONTINUOUS
 90
10
 70
0
 10
-23.0120501725
 20
-22.6416330415
 10
-23.0130162387
 20
-22.64220103
 10
-23.0140135063
 20
-22.642753645
 10
-23.0150419755
 20
-22.6432908866
 10
-23.01610515
 20
-22.6438149399
 10
-23.0171995261
 20
-22.6443236198
 10
-23.0183145923
 20
-22.6448103706
 10
-23.019446845
 20
-22.6452730072
 10
-23.0205997878
 20
-22.6457137148
 10
-23.0217734209
 20
-22.6461324933
  0
LINE
  5
5CA
100
AcDbEntity
  8
0
100
AcDbLine
 62
7
  6
CONTINUOUS
 10
27.0241818831
 20
12.6704198552
 11
26.4663907577
 21
12.5209601736
  0
LINE
  5
5CB
100
AcDbEntity
  8
0
100
AcDbLine
 62
7
  6
CONTINUOUS
 10
27.0225105009
 20
12.6766575384
 11
26.4448647874
 21
12.5218778359
  0
LINE
  5
5CC
100
AcDbEntity
  8
0
100
AcDbLine
 62
7
  6
CONTINUOUS
 10
26.4448647874
 20
9.9109927366
 11
26.4663907577
 21
9.9119103989
  0
LINE
  5
5CD
100
AcDbEntity
  8
0
100
AcDbLine
 62
7
  6
CONTINUOUS
 10
25.7813983232
 20
8.0225265029
 11
25.3948647874
 21
8.0225265029
  0
LINE
  5
5CE
100
AcDbEntity
  8
0
100
AcDbLine
 62
7
  6
CONTINUOUS
 10
-25.2051352126
 20
8.1225265029
 11
-25.5916687484
 21
8.1225265029
  0
LINE
  5
5CF
100
AcDbEntity
  8
0
100
AcDbLine
 62
253
  6
CONTINUOUS
 10
25.3951388805
 20
8.2065022926
 11
25.9364912041
 21
8.2065022926
  0
LINE
  5
5D0
100
AcDbEntity
  8
0
100
AcDbLine
 62
253
  6
CONTINUOUS
 10
-25.7467616293
 20
8.3065022926
 11
-25.2054093056
 21
8.3065022926
  0
LINE
  5
5D1
100
AcDbEntity
  8
0
100
AcDbLine
 62
253
  6
CONTINUOUS
 10
25.5948647874
 20
8.4062281996
 11
26.1346577008
 21
8.4062281996
  0
LINE
  5
5D2
100
AcDbEntity
  8
0
100
AcDbLine
 62
253
  6
CONTINUOUS
 10
-25.9449281259
 20
8.5062281996
 11
-25.4051352126
 21
8.5062281996
  0
LINE
  5
5D3
100
AcDbEntity
  8
0
100
AcDbLine
 62
7
  6
CONTINUOUS
 10
-26.2551352126
 20
10.0109927366
 11
-26.2766611829
 21
10.0119103989
  0
LINE
  5
5D4
100
AcDbEntity
  8
0
100
AcDbLine
 62
7
  6
CONTINUOUS
 10
-26.2766611829
 20
12.6209601736
 11
-26.8344523083
 21
12.7704198552
  0
LINE
  5
5D5
100
AcDbEntity
  8
0
100
AcDbLine
 62
7
  6
CONTINUOUS
 10
-26.2551352126
 20
12.6218778359
 11
-26.8327809261
 21
12.7766575384
  0
LWPOLYLINE
  5
5D6
100
AcDbEntity
  8
RACCORDO
100
AcDbPolyline
 62
7
  6
CONTINUOUS
 90
10
 70
0
 10
-23.0119611095
 20
22.7744541413
 10
-22.9999220863
 20
22.7674386366
 10
-22.988507287
 20
22.7610182235
 10
-22.977930887
 20
22.7553412699
 10
-22.9683464885
 20
22.7505997382
 10
-22.9599363436
 20
22.7468654557
 10
-22.9529115632
 20
22.7440951976
 10
-22.9473876176
 20
22.7423408947
 10
-22.9433809546
 20
22.7417410874
 10
-22.9409032997
 20
22.7423629516
  0
LINE
  5
5D7
100
AcDbEntity
  8
0
100
AcDbLine
 62
7
  6
CONTINUOUS
 10
-6.0568212126
 20
32.5414352862
 11
-6.7991312126
 21
34.5914352862
  0
LINE
  5
5D8
100
AcDbEntity
  8
0
100
AcDbLine
 62
7
  6
CONTINUOUS
 10
12.7988493564
 20
-26.8628818095
 11
12.6493896748
 21
-26.3050906841
  0
LINE
  5
5D9
100
AcDbEntity
  8
0
100
AcDbLine
 62
7
  6
CONTINUOUS
 10
12.8050870395
 20
-26.8612104273
 11
12.6503073371
 21
-26.2835647138
  0
LINE
  5
5DA
100
AcDbEntity
  8
0
100
AcDbLine
 62
7
  6
CONTINUOUS
 10
9.1503073371
 20
26.4164352862
 11
9.1493896748
 21
26.4379612565
  0
LINE
  5
5DB
100
AcDbEntity
  8
0
100
AcDbLine
 62
7
  6
CONTINUOUS
 10
13.5394222377
 20
-26.2835647138
 11
13.5403399
 21
-26.3050906841
  0
LINE
  5
5DC
100
AcDbEntity
  8
0
100
AcDbLine
 62
7
  6
CONTINUOUS
 10
12.6503073371
 20
26.4164352862
 11
12.6493896748
 21
26.4379612565
  0
LINE
  5
5DD
100
AcDbEntity
  8
0
100
AcDbLine
 62
7
  6
CONTINUOUS
 10
11.0948647874
 20
29.0664352862
 11
11.0948647874
 21
35.0664352862
  0
LINE
  5
5DE
100
AcDbEntity
  8
0
100
AcDbLine
 62
7
  6
CONTINUOUS
 10
12.0948647874
 20
-37.9335647138
 11
12.0948647874
 21
-30.4335647138
  0
LINE
  5
5DF
100
AcDbEntity
  8
0
100
AcDbLine
 62
7
  6
CONTINUOUS
 10
14.0948647874
 20
-24.9835647138
 11
14.0948647874
 21
-25.1335647138
  0
LINE
  5
5E0
100
AcDbEntity
  8
0
100
AcDbLine
 62
7
  6
CONTINUOUS
 10
14.0948647874
 20
25.1164352862
 11
14.0948647874
 21
25.2664352862
  0
LINE
  5
5E1
100
AcDbEntity
  8
0
100
AcDbLine
 62
253
  6
CONTINUOUS
 10
14.1550718741
 20
-25.9233576271
 11
14.1550718741
 21
-25.3335647138
  0
LINE
  5
5E2
100
AcDbEntity
  8
0
100
AcDbLine
 62
253
  6
CONTINUOUS
 10
14.1550718741
 20
25.4664352862
 11
14.1550718741
 21
26.0562281996
  0
LINE
  5
5E3
100
AcDbEntity
  8
0
100
AcDbLine
 62
253
  6
CONTINUOUS
 10
14.354797781
 20
-25.7251911305
 11
14.354797781
 21
-25.1338388068
  0
LINE
  5
5E4
100
AcDbEntity
  8
0
100
AcDbLine
 62
253
  6
CONTINUOUS
 10
14.354797781
 20
25.2667093793
 11
14.354797781
 21
25.858061703
  0
LINE
  5
5E5
100
AcDbEntity
  8
0
100
AcDbLine
 62
7
  6
CONTINUOUS
 10
9.1503073371
 20
-26.2835647138
 11
9.1493896748
 21
-26.3050906841
  0
LINE
  5
5E6
100
AcDbEntity
  8
0
100
AcDbLine
 62
7
  6
CONTINUOUS
 10
13.5394222377
 20
26.4164352862
 11
13.5403399
 21
26.4379612565
  0
LINE
  5
5E7
100
AcDbEntity
  8
0
100
AcDbLine
 62
7
  6
CONTINUOUS
 10
12.6503073371
 20
-26.2835647138
 11
12.6493896748
 21
-26.3050906841
  0
LINE
  5
5E8
100
AcDbEntity
  8
0
100
AcDbLine
 62
7
  6
CONTINUOUS
 10
25.3951388805
 20
8.2065022926
 11
25.3961399501
 21
8.2075546051
  0
LINE
  5
5E9
100
AcDbEntity
  8
0
100
AcDbLine
 62
7
  6
CONTINUOUS
 10
-8.3449281259
 20
-25.3335647138
 11
-8.3278372315
 21
-25.3163296776
  0
LINE
  5
5EA
100
AcDbEntity
  8
0
100
AcDbLine
 62
7
  6
CONTINUOUS
 10
-8.1545040517
 20
-25.1431612572
 11
-8.146254917
 21
-25.1348403262
  0
LWPOLYLINE
  5
5EB
100
AcDbEntity
  8
0
100
AcDbPolyline
 62
7
  6
CONTINUOUS
 90
3
 70
0
 10
25.5300315848
 20
8.3413557558
 10
25.5776250214
 20
8.3891326256
 10
25.5948647874
 20
8.4062281996
  0
LINE
  5
5EC
100
AcDbEntity
  8
0
100
AcDbLine
 62
7
  6
CONTINUOUS
 10
-8.3449281259
 20
-25.9233576271
 11
-8.7051352126
 21
-26.2835647138
  0
LINE
  5
5ED
100
AcDbEntity
  8
0
100
AcDbLine
 62
7
  6
CONTINUOUS
 10
-7.9612264292
 20
-25.5700982496
 11
-8.6962188637
 21
-26.3050906841
  0
LINE
  5
5EE
100
AcDbEntity
  8
0
100
AcDbLine
 62
7
  6
CONTINUOUS
 10
26.4448647874
 20
8.7164352862
 11
26.1346577008
 21
8.4062281996
  0
LINE
  5
5EF
100
AcDbEntity
  8
0
100
AcDbLine
 62
7
  6
CONTINUOUS
 10
26.4663907577
 20
8.7075189374
 11
25.7813983232
 21
8.0225265029
  0
LINE
  5
5F0
100
AcDbEntity
  8
0
100
AcDbLine
 62
7
  6
CONTINUOUS
 10
25.404457564
 20
8.2158003699
 11
25.5300315848
 21
8.3413557558
  0
LINE
  5
5F1
100
AcDbEntity
  8
0
100
AcDbLine
 62
7
  6
CONTINUOUS
 10
-8.3278372315
 20
-25.3163296776
 11
-8.1545040517
 21
-25.1431612572
  0
LWPOLYLINE
  5
5F2
100
AcDbEntity
  8
0
100
AcDbPolyline
 62
7
  6
CONTINUOUS
 90
3
 70
0
 10
25.3961399501
 20
8.2075546051
 10
25.4008049278
 20
8.21216834
 10
25.404457564
 20
8.2158003699
  0
LINE
  5
5F3
100
AcDbEntity
  8
0
100
AcDbLine
 62
7
  6
CONTINUOUS
 10
-8.146254917
 20
-25.1348403262
 11
-8.145202219
 21
-25.1338388068
  0
LINE
  5
5F4
100
AcDbEntity
  8
0
100
AcDbLine
 62
7
  6
CONTINUOUS
 10
-25.488468228
 20
-31.9122881206
 11
-25.3218021971
 21
-31.7846285613
  0
LINE
  5
5F5
100
AcDbEntity
  8
0
100
AcDbLine
 62
7
  6
CONTINUOUS
 10
-28.1551352126
 20
-31.2739902051
 11
-28.0301352126
 21
-31.1888838323
  0
LINE
  5
5F6
100
AcDbEntity
  8
0
100
AcDbLine
 62
7
  6
CONTINUOUS
 10
-31.1613853795
 20
-34.1910114797
 11
-31.0301353795
 21
-34.1016497882
  0
LINE
  5
5F7
100
AcDbEntity
  8
0
100
AcDbLine
 62
7
  6
CONTINUOUS
 10
-26.3218021971
 20
-31.2739902051
 11
-26.1968021971
 21
-31.1888838323
  0
LINE
  5
5F8
100
AcDbEntity
  8
0
100
AcDbLine
 62
7
  6
CONTINUOUS
 10
-31.0738852126
 20
-34.6378200622
 11
-31.3363852126
 21
-34.8165434452
  0
LINE
  5
5F9
100
AcDbEntity
  8
0
100
AcDbLine
 62
7
  6
CONTINUOUS
 10
-32.3426351291
 20
-35.5761179166
 11
-32.4738851291
 21
-35.665479608
  0
LINE
  5
5FA
100
AcDbEntity
  8
0
100
AcDbLine
 62
7
  6
CONTINUOUS
 10
-31.1613853795
 20
-34.9505859824
 11
-31.0301353795
 21
-34.8612242909
  0
LINE
  5
5FB
100
AcDbEntity
  8
0
100
AcDbLine
 62
7
  6
CONTINUOUS
 10
-27.238468228
 20
-32.8059051396
 11
-27.113468228
 21
-32.7207987519
  0
LINE
  5
5FC
100
AcDbEntity
  8
0
100
AcDbLine
 62
7
  6
CONTINUOUS
 10
-30.3301350457
 20
-35.5761179166
 11
-30.4613850457
 21
-35.665479608
  0
LINE
  5
5FD
100
AcDbEntity
  8
0
100
AcDbLine
 62
7
  6
CONTINUOUS
 10
-25.4051352126
 20
-32.8059051396
 11
-25.2801352126
 21
-32.7207987519
  0
LINE
  5
5FE
100
AcDbEntity
  8
0
100
AcDbLine
 62
7
  6
CONTINUOUS
 10
-31.7384687049
 20
-31.6995221885
 11
-31.9468019587
 21
-31.8271817477
  0
LINE
  5
5FF
100
AcDbEntity
  8
0
100
AcDbLine
 62
7
  6
CONTINUOUS
 10
-32.955135296
 20
-33.8782455595
 11
-33.1738852126
 21
-34.0122880967
  0
LINE
  5
600
100
AcDbEntity
  8
0
100
AcDbLine
 62
7
  6
CONTINUOUS
 10
-31.0718017203
 20
-32.8910115236
 11
-30.8634687049
 21
-32.7633519532
  0
LINE
  5
601
100
AcDbEntity
  8
0
100
AcDbLine
 62
7
  6
CONTINUOUS
 10
-31.0738852126
 20
-33.8782455595
 11
-31.2926351291
 21
-34.0122880967
  0
LINE
  5
602
100
AcDbEntity
  8
0
100
AcDbLine
 62
7
  6
CONTINUOUS
 10
-32.430135296
 20
-35.8888838641
 11
-32.2113851291
 21
-35.7548413152
  0
LINE
  5
603
100
AcDbEntity
  8
0
100
AcDbLine
 62
7
  6
CONTINUOUS
 10
-33.5301352126
 20
-30.9761179002
 11
-33.6968019587
 21
-31.061224273
  0
LINE
  5
604
100
AcDbEntity
  8
0
100
AcDbLine
 62
7
  6
CONTINUOUS
 10
-34.6134685857
 20
-31.9122881206
 11
-34.5301352126
 21
-31.8697349341
  0
LINE
  5
605
100
AcDbEntity
  8
0
100
AcDbLine
 62
7
  6
CONTINUOUS
 10
-34.967635223
 20
-33.8782455595
 11
-35.1426352126
 21
-33.967607251
  0
LINE
  5
606
100
AcDbEntity
  8
RACCORDO
100
AcDbLine
 62
7
  6
CONTINUOUS
 10
-23.2543124865
 20
-22.7257814092
 11
-23.0217734209
 21
-22.6461324933
  0
LINE
  5
607
100
AcDbEntity
  8
0
100
AcDbLine
 62
7
  6
CONTINUOUS
 10
-26.2551352126
 20
9.1218778359
 11
-26.2766611829
 21
9.1209601736
  0
LINE
  5
608
100
AcDbEntity
  8
0
100
AcDbLine
 62
7
  6
CONTINUOUS
 10
26.4448647874
 20
13.4109927366
 11
26.4663907577
 21
13.4119103989
  0
LINE
  5
609
100
AcDbEntity
  8
0
100
AcDbLine
 62
7
  6
CONTINUOUS
 10
-26.2551352126
 20
12.6218778359
 11
-26.2766611829
 21
12.6209601736
  0
LINE
  5
60A
100
AcDbEntity
  8
0
100
AcDbLine
 62
253
  6
CONTINUOUS
 10
26.1346577008
 20
14.0266423729
 11
25.5948647874
 21
14.0266423729
  0
LINE
  5
60B
100
AcDbEntity
  8
0
100
AcDbLine
 62
253
  6
CONTINUOUS
 10
-25.4051352126
 20
14.1266423729
 11
-25.9449281259
 21
14.1266423729
  0
LINE
  5
60C
100
AcDbEntity
  8
0
100
AcDbLine
 62
253
  6
CONTINUOUS
 10
25.9364912041
 20
14.2263682798
 11
25.3951388805
 21
14.2263682798
  0
LINE
  5
60D
100
AcDbEntity
  8
0
100
AcDbLine
 62
253
  6
CONTINUOUS
 10
-25.2054093056
 20
14.3263682798
 11
-25.7467616293
 21
14.3263682798
  0
LINE
  5
60E
100
AcDbEntity
  8
0
100
AcDbLine
 62
7
  6
CONTINUOUS
 10
26.4448647874
 20
9.0218778359
 11
26.4663907577
 21
9.0209601736
  0
LINE
  5
60F
100
AcDbEntity
  8
0
100
AcDbLine
 62
7
  6
CONTINUOUS
 10
-26.2551352126
 20
13.5109927366
 11
-26.2766611829
 21
13.5119103989
  0
LINE
  5
610
100
AcDbEntity
  8
0
100
AcDbLine
 62
7
  6
CONTINUOUS
 10
26.4448647874
 20
12.5218778359
 11
26.4663907577
 21
12.5209601736
  0
LINE
  5
611
100
AcDbEntity
  8
RACCORDO
100
AcDbLine
 62
7
  6
CONTINUOUS
 10
-23.2543124984
 20
22.8586519852
 11
-23.0217753526
 21
22.7790038046
  0
LWPOLYLINE
  5
612
100
AcDbEntity
  8
RACCORDO
100
AcDbPolyline
 62
7
  6
CONTINUOUS
 90
9
 70
0
 10
-23.0217753526
 20
22.7790038046
 10
-23.0206008895
 20
22.7785847807
 10
-23.0194473385
 20
22.7781438936
 10
-23.0183146998
 20
22.7776811434
 10
-23.0171999357
 20
22.7771945888
 10
-23.0161060839
 20
22.7766861711
 10
-23.015042257
 20
22.7761617139
 10
-23.0140114927
 20
22.7756231583
 10
-23.0130107533
 20
22.7750685633
  0
LINE
  5
613
100
AcDbEntity
  8
0
100
AcDbLine
 62
7
  6
CONTINUOUS
 10
-8.145202219
 20
25.2667093793
 11
-8.146254917
 21
25.2677108987
  0
LINE
  5
614
100
AcDbEntity
  8
0
100
AcDbLine
 62
7
  6
CONTINUOUS
 10
25.5948647874
 20
-8.3733576271
 11
25.5776250214
 21
-8.3562620531
  0
LWPOLYLINE
  5
615
100
AcDbEntity
  8
0
100
AcDbPolyline
 62
7
  6
CONTINUOUS
 90
3
 70
0
 10
25.4008049278
 20
-8.1792977675
 10
25.3961399501
 20
-8.1746840327
 10
25.3951388805
 20
-8.1736317202
  0
LWPOLYLINE
  5
616
100
AcDbEntity
  8
0
100
AcDbPolyline
 62
7
  6
CONTINUOUS
 90
3
 70
0
 10
-8.2800701021
 20
25.4016164791
 10
-8.3278372315
 20
25.4492002501
 10
-8.3449281259
 20
25.4664352862
  0
LINE
  5
617
100
AcDbEntity
  8
0
100
AcDbLine
 62
7
  6
CONTINUOUS
 10
-8.7051352126
 20
26.4164352862
 11
-8.3449281259
 21
26.0562281996
  0
LINE
  5
618
100
AcDbEntity
  8
0
100
AcDbLine
 62
7
  6
CONTINUOUS
 10
-8.6962188637
 20
26.4379612565
 11
-7.9612264292
 21
25.702968822
  0
LINE
  5
619
100
AcDbEntity
  8
0
100
AcDbLine
 62
7
  6
CONTINUOUS
 10
26.1346577008
 20
-8.3733576271
 11
26.4448647874
 21
-8.6835647138
  0
LINE
  5
61A
100
AcDbEntity
  8
0
100
AcDbLine
 62
7
  6
CONTINUOUS
 10
25.7813983232
 20
-7.9896559304
 11
26.4663907577
 21
-8.6746483649
  0
LINE
  5
61B
100
AcDbEntity
  8
0
100
AcDbLine
 62
7
  6
CONTINUOUS
 10
-8.1545040517
 20
25.2760318297
 11
-8.2800701021
 21
25.4016164791
  0
LINE
  5
61C
100
AcDbEntity
  8
0
100
AcDbLine
 62
7
  6
CONTINUOUS
 10
25.5776250214
 20
-8.3562620531
 11
25.4008049278
 21
-8.1792977675
  0
LINE
  5
61D
100
AcDbEntity
  8
0
100
AcDbLine
 62
7
  6
CONTINUOUS
 10
-8.146254917
 20
25.2677108987
 11
-8.1545040517
 21
25.2760318297
  0
LINE
  5
61E
100
AcDbEntity
  8
0
100
AcDbLine
 62
7
  6
CONTINUOUS
 10
14.5387735708
 20
25.702968822
 11
14.5387735708
 21
25.2664352862
  0
LINE
  5
61F
100
AcDbEntity
  8
0
100
AcDbLine
 62
7
  6
CONTINUOUS
 10
14.5387735708
 20
-25.1335647138
 11
14.5387735708
 21
-25.5700982496
  0
LINE
  5
620
100
AcDbEntity
  8
0
100
AcDbLine
 62
7
  6
CONTINUOUS
 10
10.0394222377
 20
-26.2835647138
 11
9.8846425353
 21
-26.8612104273
  0
LINE
  5
621
100
AcDbEntity
  8
0
100
AcDbLine
 62
7
  6
CONTINUOUS
 10
10.0403399
 20
-26.3050906841
 11
9.8908802184
 21
-26.8628818095
  0
LINE
  5
622
100
AcDbEntity
  8
0
100
AcDbLine
 62
7
  6
CONTINUOUS
 10
12.1448647874
 20
-26.0335647138
 11
12.1390969211
 21
-26.0550906841
  0
LINE
  5
623
100
AcDbEntity
  8
0
100
AcDbLine
 62
7
  6
CONTINUOUS
 10
12.5778774893
 20
-26.2835647138
 11
12.5721096229
 21
-26.3050906841
  0
LINE
  5
624
100
AcDbEntity
  8
0
100
AcDbLine
 62
7
  6
CONTINUOUS
 10
6.8560757874
 20
-33.5266887137
 11
6.5120057874
 21
-34.8023147138
  0
LINE
  5
625
100
AcDbEntity
  8
0
100
AcDbLine
 62
7
  6
CONTINUOUS
 10
6.8816377874
 20
-34.3223147138
 11
6.9140057874
 21
-34.2023147138
  0
LINE
  5
626
100
AcDbEntity
  8
0
100
AcDbLine
 62
7
  6
CONTINUOUS
 10
8.9860757876
 20
-33.5266887131
 11
8.6420057874
 21
-34.8023147138
  0
LINE
  5
627
100
AcDbEntity
  8
0
100
AcDbLine
 62
7
  6
CONTINUOUS
 10
9.0116377875
 20
-34.3223147136
 11
9.0440057874
 21
-34.202314714
  0
LINE
  5
628
100
AcDbEntity
  8
0
100
AcDbLine
 62
7
  6
CONTINUOUS
 10
8.8948647874
 20
-26.2835647138
 11
8.8859484386
 21
-26.3050906841
  0
LINE
  5
629
100
AcDbEntity
  8
0
100
AcDbLine
 62
7
  6
CONTINUOUS
 10
-0.8698110363
 20
-35.6523053996
 11
-0.6780142761
 21
-35.310586827
  0
LINE
  5
62A
100
AcDbEntity
  8
0
100
AcDbLine
 62
7
  6
CONTINUOUS
 10
26.4448647874
 20
12.4494479881
 11
26.1948647874
 21
12.0164352862
  0
LINE
  5
62B
100
AcDbEntity
  8
0
100
AcDbLine
 62
7
  6
CONTINUOUS
 10
26.4663907577
 20
12.4436801218
 11
26.2163907577
 21
12.0106674199
  0
LINE
  5
62C
100
AcDbEntity
  8
0
100
AcDbLine
 62
7
  6
CONTINUOUS
 10
25.9364912041
 20
8.2065022926
 11
25.7813983232
 21
8.0225265029
  0
LINE
  5
62D
100
AcDbEntity
  8
0
100
AcDbLine
 62
7
  6
CONTINUOUS
 10
-8.145202219
 20
-25.7251911305
 11
-7.9612264292
 21
-25.5700982496
  0
LINE
  5
62E
100
AcDbEntity
  8
0
100
AcDbLine
 62
7
  6
CONTINUOUS
 10
-30.4176352126
 20
-35.8888838641
 11
-30.1988850457
 21
-35.7548413152
  0
LINE
  5
62F
100
AcDbEntity
  8
0
100
AcDbLine
 62
7
  6
CONTINUOUS
 10
-11.9551352126
 20
-26.0335647138
 11
-12.3881479145
 21
-26.2835647138
  0
LINE
  5
630
100
AcDbEntity
  8
0
100
AcDbLine
 62
7
  6
CONTINUOUS
 10
-11.9493673462
 20
-26.0550906841
 11
-12.3823800481
 21
-26.3050906841
  0
LINE
  5
631
100
AcDbEntity
  8
0
100
AcDbLine
 62
7
  6
CONTINUOUS
 10
-32.9051352126
 20
-32.8910115236
 11
-32.7384684665
 21
-32.8059051396
  0
LINE
  5
632
100
AcDbEntity
  8
0
100
AcDbLine
 62
7
  6
CONTINUOUS
 10
-28.0718017203
 20
-30.9761179002
 11
-28.2384687049
 21
-31.061224273
  0
LINE
  5
633
100
AcDbEntity
  8
0
100
AcDbLine
 62
7
  6
CONTINUOUS
 10
-26.238468228
 20
-30.9761179002
 11
-26.4051352126
 21
-31.061224273
  0
LINE
  5
634
100
AcDbEntity
  8
0
100
AcDbLine
 62
7
  6
CONTINUOUS
 10
-27.3218021971
 20
-32.635692379
 11
-27.4051352126
 21
-32.6782455655
  0
LINE
  5
635
100
AcDbEntity
  8
0
100
AcDbLine
 62
7
  6
CONTINUOUS
 10
-27.4051352126
 20
-32.8910115236
 11
-27.238468228
 21
-32.8059051396
  0
LINE
  5
636
100
AcDbEntity
  8
0
100
AcDbLine
 62
7
  6
CONTINUOUS
 10
-25.488468228
 20
-32.635692379
 11
-25.5718021971
 21
-32.6782455655
  0
LINE
  5
637
100
AcDbEntity
  8
0
100
AcDbLine
 62
7
  6
CONTINUOUS
 10
-25.5718021971
 20
-32.8910115236
 11
-25.4051352126
 21
-32.8059051396
  0
LINE
  5
638
100
AcDbEntity
  8
0
100
AcDbLine
 62
7
  6
CONTINUOUS
 10
26.4448647874
 20
-8.6835647138
 11
26.4663907577
 21
-8.6746483649
  0
LINE
  5
639
100
AcDbEntity
  8
0
100
AcDbLine
 62
7
  6
CONTINUOUS
 10
-33.4884684665
 20
-31.2314370187
 11
-33.3634684665
 21
-31.1888838323
  0
LWPOLYLINE
  5
63A
100
AcDbEntity
  8
RACCORDO
100
AcDbPolyline
 62
7
  6
CONTINUOUS
 90
9
 70
0
 10
-23.2543124865
 20
-22.7257814092
 10
-23.2559628003
 20
-22.7263152609
 10
-23.2576112335
 20
-22.7267937134
 10
-23.259257786
 20
-22.7272167667
 10
-23.2609022871
 20
-22.7275837321
 10
-23.2625449075
 20
-22.7278952984
 10
-23.2641861597
 20
-22.7281535318
 10
-23.2658262145
 20
-22.728359121
 10
-23.2674649009
 20
-22.7285113773
  0
LINE
  5
63B
100
AcDbEntity
  8
0
100
AcDbLine
 62
7
  6
CONTINUOUS
 10
-26.8327809261
 20
9.8562130341
 11
-26.2551352126
 21
10.0109927366
  0
LINE
  5
63C
100
AcDbEntity
  8
0
100
AcDbLine
 62
7
  6
CONTINUOUS
 10
-26.8344523083
 20
9.8624507173
 11
-26.2766611829
 21
10.0119103989
  0
LINE
  5
63D
100
AcDbEntity
  8
0
100
AcDbLine
 62
7
  6
CONTINUOUS
 10
-26.0051352126
 20
12.1164352862
 11
-26.0266611829
 21
12.1106674199
  0
LINE
  5
63E
100
AcDbEntity
  8
0
100
AcDbLine
 62
7
  6
CONTINUOUS
 10
-26.2551352126
 20
12.5494479881
 11
-26.2766611829
 21
12.5436801218
  0
LINE
  5
63F
100
AcDbEntity
  8
0
100
AcDbLine
 62
7
  6
CONTINUOUS
 10
25.3948647874
 20
14.4103440696
 11
25.7813983232
 21
14.4103440696
  0
LINE
  5
640
100
AcDbEntity
  8
0
100
AcDbLine
 62
7
  6
CONTINUOUS
 10
-25.5916687484
 20
14.5103440696
 11
-25.2051352126
 21
14.5103440696
  0
LINE
  5
641
100
AcDbEntity
  8
0
100
AcDbLine
 62
7
  6
CONTINUOUS
 10
26.4448647874
 20
9.9109927366
 11
27.0225105009
 21
9.7562130341
  0
LINE
  5
642
100
AcDbEntity
  8
0
100
AcDbLine
 62
7
  6
CONTINUOUS
 10
26.4663907577
 20
9.9119103989
 11
27.0241818831
 21
9.7624507173
  0
LINE
  5
643
100
AcDbEntity
  8
0
100
AcDbLine
 62
7
  6
CONTINUOUS
 10
26.1948647874
 20
12.0164352862
 11
26.2163907577
 21
12.0106674199
  0
LINE
  5
644
100
AcDbEntity
  8
0
100
AcDbLine
 62
7
  6
CONTINUOUS
 10
26.4448647874
 20
12.4494479881
 11
26.4663907577
 21
12.4436801218
  0
LINE
  5
645
100
AcDbEntity
  8
0
100
AcDbLine
 62
7
  6
CONTINUOUS
 10
26.4448647874
 20
8.7164352862
 11
26.4663907577
 21
8.7075189374
  0
LINE
  5
646
100
AcDbEntity
  8
0
100
AcDbLine
 62
7
  6
CONTINUOUS
 10
-12.3881479145
 20
26.4164352862
 11
-11.9551352126
 21
26.1664352862
  0
LINE
  5
647
100
AcDbEntity
  8
0
100
AcDbLine
 62
7
  6
CONTINUOUS
 10
-12.3823800481
 20
26.4379612565
 11
-11.9493673462
 21
26.1879612565
  0
LINE
  5
648
100
AcDbEntity
  8
0
100
AcDbLine
 62
7
  6
CONTINUOUS
 10
-8.145202219
 20
25.858061703
 11
-7.9612264292
 21
25.702968822
  0
LINE
  5
649
100
AcDbEntity
  8
0
100
AcDbLine
 62
7
  6
CONTINUOUS
 10
25.9364912041
 20
-8.1736317202
 11
25.7813983232
 21
-7.9896559304
  0
LINE
  5
64A
100
AcDbEntity
  8
0
100
AcDbLine
 62
7
  6
CONTINUOUS
 10
0.0192197874
 20
34.2062802862
 11
1.0670987874
 21
32.5414352862
  0
LINE
  5
64B
100
AcDbEntity
  8
0
100
AcDbLine
 62
7
  6
CONTINUOUS
 10
1.1099397874
 20
32.9262522862
 11
0.0791367874
 21
34.5914352862
  0
LINE
  5
64C
100
AcDbEntity
  8
0
100
AcDbLine
 62
7
  6
CONTINUOUS
 10
26.1948647874
 20
-11.9835647138
 11
26.4448647874
 21
-12.4165774157
  0
LINE
  5
64D
100
AcDbEntity
  8
0
100
AcDbLine
 62
7
  6
CONTINUOUS
 10
26.2163907577
 20
-11.9777968474
 11
26.4663907577
 21
-12.4108095493
  0
LINE
  5
64E
100
AcDbEntity
  8
0
100
AcDbLine
 62
7
  6
CONTINUOUS
 10
8.8948647874
 20
26.4164352862
 11
8.8859484386
 21
26.4379612565
  0
LINE
  5
64F
100
AcDbEntity
  8
0
100
AcDbLine
 62
7
  6
CONTINUOUS
 10
6.7947647874
 20
32.5414352862
 11
6.0523047874
 21
34.5914352862
  0
LINE
  5
650
100
AcDbEntity
  8
0
100
AcDbLine
 62
7
  6
CONTINUOUS
 10
6.2893187874
 20
33.1381152862
 11
6.4920307874
 21
32.5414352862
  0
LINE
  5
651
100
AcDbEntity
  8
0
100
AcDbLine
 62
7
  6
CONTINUOUS
 10
5.8839277874
 20
34.2940852862
 11
6.1893637874
 21
33.3836512862
  0
LINE
  5
652
100
AcDbEntity
  8
0
100
AcDbLine
 62
7
  6
CONTINUOUS
 10
9.8846425353
 20
26.9940809998
 11
10.0394222377
 21
26.4164352862
  0
LINE
  5
653
100
AcDbEntity
  8
0
100
AcDbLine
 62
7
  6
CONTINUOUS
 10
9.8908802184
 20
26.9957523819
 11
10.0403399
 21
26.4379612565
  0
LINE
  5
654
100
AcDbEntity
  8
0
100
AcDbLine
 62
7
  6
CONTINUOUS
 10
12.1448647874
 20
26.1664352862
 11
12.1390969211
 21
26.1879612565
  0
LINE
  5
655
100
AcDbEntity
  8
0
100
AcDbLine
 62
7
  6
CONTINUOUS
 10
12.5778774893
 20
26.4164352862
 11
12.5721096229
 21
26.4379612565
  0
LINE
  5
656
100
AcDbEntity
  8
RACCORDO
100
AcDbLine
 62
253
  6
CONTINUOUS
 10
22.8818982111
 20
-23.6500650892
 11
22.8832083145
 21
-23.6752698174
  0
LINE
  5
657
100
AcDbEntity
  8
RACCORDO
100
AcDbLine
 62
253
  6
CONTINUOUS
 10
22.9122395433
 20
-24.3558983148
 11
22.8864651112
 21
-23.7922053558
  0
LINE
  5
658
100
AcDbEntity
  8
RACCORDO
100
AcDbLine
 62
253
  6
CONTINUOUS
 10
22.8832083145
 20
-23.6752698174
 11
22.8844268001
 21
-23.7016672391
  0
LINE
  5
659
100
AcDbEntity
  8
RACCORDO
100
AcDbLine
 62
253
  6
CONTINUOUS
 10
22.8844268001
 20
-23.7016672391
 11
22.885468457
 21
-23.727411337
  0
LWPOLYLINE
  5
65A
100
AcDbEntity
  8
RACCORDO
100
AcDbPolyline
 62
253
  6
CONTINUOUS
 90
9
 70
0
 10
22.885468457
 20
-23.727411337
 10
22.8862604404
 20
-23.7507017815
 10
22.8865446991
 20
-23.7609079664
 10
22.8867473655
 20
-23.7699098317
 10
22.8868648805
 20
-23.7775493044
 10
22.8868951808
 20
-23.7836922352
 10
22.8868377341
 20
-23.7882307542
 10
22.8866935493
 20
-23.7910851648
 10
22.8864651582
 20
-23.7922053435
  0
LINE
  5
65B
100
AcDbEntity
  8
RACCORDO
100
AcDbLine
 62
253
  6
CONTINUOUS
 10
22.0948647874
 20
23.3760322345
 11
22.0948647874
 21
23.2664352862
  0
LINE
  5
65C
100
AcDbEntity
  8
RACCORDO
100
AcDbLine
 62
253
  6
CONTINUOUS
 10
22.0948647874
 20
-23.243161662
 11
22.0948647874
 21
-23.1335647138
  0
LINE
  5
65D
100
AcDbEntity
  8
RACCORDO
100
AcDbLine
 62
7
  6
CONTINUOUS
 10
22.5948647874
 20
-23.854070058
 11
22.5948647874
 21
-25.1335647138
  0
LINE
  5
65E
100
AcDbEntity
  8
RACCORDO
100
AcDbLine
 62
7
  6
CONTINUOUS
 10
22.5948647874
 20
-21.8343869929
 11
22.5948647874
 21
21.9672575654
  0
LINE
  5
65F
100
AcDbEntity
  8
RACCORDO
100
AcDbLine
 62
7
  6
CONTINUOUS
 10
22.5948647874
 20
23.9869406305
 11
22.5948647874
 21
25.2664352862
  0
LINE
  5
660
100
AcDbEntity
  8
0
100
AcDbLine
 62
7
  6
CONTINUOUS
 10
23.0948647874
 20
35.0664352862
 11
23.0948647874
 21
29.0664352862
  0
LINE
  5
661
100
AcDbEntity
  8
DRAFT
100
AcDbLine
 62
7
  6
CONTINUOUS
 10
23.2948647874
 20
22.0664352862
 11
23.2948647874
 21
-21.9335647138
  0
LINE
  5
662
100
AcDbEntity
  8
RACCORDO
100
AcDbLine
 62
253
  6
CONTINUOUS
 10
23.4180395955
 20
-21.9379279858
 11
23.4180395955
 21
22.0707985583
  0
LINE
  5
663
100
AcDbEntity
  8
RACCORDO
100
AcDbLine
 62
253
  6
CONTINUOUS
 10
23.3354356472
 20
-21.9335052618
 11
23.3354355195
 21
22.0664317747
  0
LWPOLYLINE
  5
664
100
AcDbEntity
  8
RACCORDO
100
AcDbPolyline
 62
253
  6
CONTINUOUS
 90
7
 70
0
 10
22.8865441016
 20
23.8937674974
 10
22.8867467413
 20
23.9027685079
 10
22.886864244
 20
23.9104073837
 10
22.8868945467
 20
23.9165500069
 10
22.8868371174
 20
23.9210885299
 10
22.8866929642
 20
23.9239432686
 10
22.8864646181
 20
23.9250641017
  0
LINE
  5
665
100
AcDbEntity
  8
RACCORDO
100
AcDbLine
 62
253
  6
CONTINUOUS
 10
22.8858990754
 20
23.8723323458
 11
22.8865441016
 21
23.8937674974
  0
LINE
  5
666
100
AcDbEntity
  8
RACCORDO
100
AcDbLine
 62
253
  6
CONTINUOUS
 10
22.8849742664
 20
23.8476006923
 11
22.8858990754
 21
23.8723323458
  0
LINE
  5
667
100
AcDbEntity
  8
RACCORDO
100
AcDbLine
 62
253
  6
CONTINUOUS
 10
22.8838343386
 20
23.8213017942
 11
22.8849742664
 21
23.8476006923
  0
LINE
  5
668
100
AcDbEntity
  8
RACCORDO
100
AcDbLine
 62
253
  6
CONTINUOUS
 10
22.9122395434
 20
24.4887688872
 11
22.8864651092
 21
23.9250759284
  0
LWPOLYLINE
  5
669
100
AcDbEntity
  8
RACCORDO
100
AcDbPolyline
 62
253
  6
CONTINUOUS
 90
3
 70
0
 10
22.8818982111
 20
23.7829356619
 10
22.8825589972
 20
23.7952744917
 10
22.8838343386
 20
23.8213017942
  0
LINE
  5
66A
100
AcDbEntity
  8
0
100
AcDbLine
 62
7
  6
CONTINUOUS
 10
13.5394222377
 20
-26.2835647138
 11
13.3846425353
 21
-26.8612104273
  0
LINE
  5
66B
100
AcDbEntity
  8
0
100
AcDbLine
 62
7
  6
CONTINUOUS
 10
13.5403399
 20
-26.3050906841
 11
13.3908802184
 21
-26.8628818095
  0
LINE
  5
66C
100
AcDbEntity
  8
0
100
AcDbLine
 62
253
  6
CONTINUOUS
 10
27.0225105009
 20
13.2562130341
 11
27.0241818831
 21
13.2624507173
  0
LINE
  5
66D
100
AcDbEntity
  8
0
100
AcDbLine
 62
7
  6
CONTINUOUS
 10
1.6037967874
 20
-37.1625827138
 11
1.8212247874
 21
-36.8543447138
  0
LINE
  5
66E
100
AcDbEntity
  8
0
100
AcDbLine
 62
7
  6
CONTINUOUS
 10
-34.7384685857
 20
-31.7420753749
 11
-34.8634685857
 21
-31.7846285613
  0
LINE
  5
66F
100
AcDbEntity
  8
0
100
AcDbLine
 62
7
  6
CONTINUOUS
 10
-34.7384685857
 20
-32.635692379
 11
-34.8634685857
 21
-32.6782455655
  0
LINE
  5
670
100
AcDbEntity
  8
0
100
AcDbLine
 62
7
  6
CONTINUOUS
 10
-27.4051352126
 20
-31.7420753749
 11
-27.6551352126
 21
-31.8271817477
  0
LINE
  5
671
100
AcDbEntity
  8
0
100
AcDbLine
 62
7
  6
CONTINUOUS
 10
-25.5718021971
 20
-31.7420753749
 11
-25.8218021971
 21
-31.8271817477
  0
LINE
  5
672
100
AcDbEntity
  8
0
100
AcDbLine
 62
7
  6
CONTINUOUS
 10
-31.0301353795
 20
-34.1016497882
 11
-30.8988853795
 21
-34.0569689424
  0
LINE
  5
673
100
AcDbEntity
  8
0
100
AcDbLine
 62
7
  6
CONTINUOUS
 10
-31.0301353795
 20
-34.8612242909
 11
-30.8988853795
 21
-34.8165434452
  0
LINE
  5
674
100
AcDbEntity
  8
0
100
AcDbLine
 62
7
  6
CONTINUOUS
 10
-26.8327809261
 20
13.3562130341
 11
-26.2551352126
 21
13.5109927366
  0
LINE
  5
675
100
AcDbEntity
  8
0
100
AcDbLine
 62
7
  6
CONTINUOUS
 10
-26.8344523083
 20
13.3624507173
 11
-26.2766611829
 21
13.5119103989
  0
LINE
  5
676
100
AcDbEntity
  8
0
100
AcDbLine
 62
253
  6
CONTINUOUS
 10
13.3846425353
 20
26.9940809998
 11
13.3908802184
 21
26.9957523819
  0
LWPOLYLINE
  5
677
100
AcDbEntity
  8
RACCORDO
100
AcDbPolyline
 62
253
  6
CONTINUOUS
 90
13
 70
0
 10
23.4387362353
 20
23.2312568817
 10
23.451804505
 20
23.2322075333
 10
23.4646480806
 20
23.2338684499
 10
23.4770461312
 20
23.2362110741
 10
23.4887854864
 20
23.2391951271
 10
23.4996643011
 20
23.2427693013
 10
23.5094955264
 20
23.246872143
 10
23.5181101254
 20
23.2514331083
 10
23.5253599799
 20
23.2563737767
 10
23.5311204367
 20
23.2616091989
 10
23.5352924514
 20
23.2670493576
 10
23.5378042907
 20
23.2726007156
 10
23.5386127665
 20
23.2781678235
  0
LWPOLYLINE
  5
678
100
AcDbEntity
  8
RACCORDO
100
AcDbPolyline
 62
7
  6
CONTINUOUS
 90
13
 70
0
 10
23.4588313907
 20
22.8614808127
 10
23.4721599202
 20
22.8622951899
 10
23.4852290175
 20
22.8633985094
 10
23.4978095755
 20
22.8647837731
 10
23.5096836462
 20
22.8664811846
 10
23.5206512849
 20
22.8684528725
 10
23.5305340762
 20
22.8705929332
 10
23.5391703539
 20
22.8729151499
 10
23.5464265523
 20
22.8754108079
 10
23.5522008793
 20
22.8779431774
 10
23.5564112818
 20
22.8804719585
 10
23.5589978835
 20
22.8830532473
 10
23.5599316653
 20
22.8856972028
  0
LINE
  5
679
100
AcDbEntity
  8
RACCORDO
100
AcDbLine
 62
253
  6
CONTINUOUS
 10
23.5386127665
 20
23.2781678232
 11
24.097798579
 21
23.3042082171
  0
LWPOLYLINE
  5
67A
100
AcDbEntity
  8
RACCORDO
100
AcDbPolyline
 62
253
  6
CONTINUOUS
 90
13
 70
0
 10
23.4180398118
 20
22.0707985036
 10
23.4071302226
 20
22.0706590699
 10
23.3965740421
 20
22.0704666212
 10
23.3865037663
 20
22.0702235726
 10
23.3770457935
 20
22.0699329743
 10
23.3683188385
 20
22.0695984735
 10
23.3604324427
 20
22.0692242684
 10
23.3534855959
 20
22.0688150554
 10
23.3475654994
 20
22.0683759707
 10
23.3427464696
 20
22.0679125258
 10
23.3390889982
 20
22.0674305375
 10
23.3366389958
 20
22.0669360555
 10
23.3354272187
 20
22.0664352863
  0
LINE
  5
67B
100
AcDbEntity
  8
RACCORDO
100
AcDbLine
 62
253
  6
CONTINUOUS
 10
-23.1457060722
 20
22.0663758926
 11
-23.1051352126
 21
22.0664352862
  0
LINE
  5
67C
100
AcDbEntity
  8
RACCORDO
100
AcDbLine
 62
7
  6
CONTINUOUS
 10
21.9956870666
 20
22.5664352862
 11
-21.8059574917
 21
22.5664352862
  0
LINE
  5
67D
100
AcDbEntity
  8
RACCORDO
100
AcDbLine
 62
7
  6
CONTINUOUS
 10
23.6091770566
 20
22.5664352862
 11
25.3948647874
 21
22.5664352862
  0
LINE
  5
67E
100
AcDbEntity
  8
RACCORDO
100
AcDbLine
 62
7
  6
CONTINUOUS
 10
-23.4194474818
 20
22.5664352862
 11
-25.2051352126
 21
22.5664352862
  0
LINE
  5
67F
100
AcDbEntity
  8
DRAFT
100
AcDbLine
 62
7
  6
CONTINUOUS
 10
-21.9051352126
 20
23.2664352862
 11
22.0948647874
 21
23.2664352862
  0
LINE
  5
680
100
AcDbEntity
  8
RACCORDO
100
AcDbLine
 62
253
  6
CONTINUOUS
 10
22.0947934712
 20
23.3184291313
 11
-21.9051435766
 21
23.3184291313
  0
LINE
  5
681
100
AcDbEntity
  8
RACCORDO
100
AcDbLine
 62
253
  6
CONTINUOUS
 10
22.0948647874
 20
23.3760322345
 11
-21.9051352126
 21
23.3760322345
  0
LINE
  5
682
100
AcDbEntity
  8
RACCORDO
100
AcDbLine
 62
253
  6
CONTINUOUS
 10
23.3354355195
 20
22.0664317747
 11
23.2948647874
 21
22.0664352862
  0
LWPOLYLINE
  5
683
100
AcDbEntity
  8
RACCORDO
100
AcDbPolyline
 62
253
  6
CONTINUOUS
 90
13
 70
0
 10
-23.2283100207
 20
22.0707985583
 10
-23.2174010582
 20
22.0706590856
 10
-23.2068456051
 20
22.0704666038
 10
-23.1967761333
 20
22.0702235285
 10
-23.187319016
 20
22.0699329104
 10
-23.1785929409
 20
22.0695983967
 10
-23.1707074212
 20
22.0692241856
 10
-23.1637614211
 20
22.0688149734
 10
-23.1578421136
 20
22.068375896
 10
-23.1530237866
 20
22.0679124637
 10
-23.1493669107
 20
22.0674304926
 10
-23.1469173801
 20
22.0669360316
 10
-23.1457059366
 20
22.0664352862
  0
LINE
  5
684
100
AcDbEntity
  8
RACCORDO
100
AcDbLine
 62
253
  6
CONTINUOUS
 10
-23.3488831917
 20
23.2781678232
 11
-23.908069004
 21
23.3042082172
  0
LWPOLYLINE
  5
685
100
AcDbEntity
  8
RACCORDO
100
AcDbPolyline
 62
7
  6
CONTINUOUS
 90
13
 70
0
 10
-23.2691018147
 20
22.8614808342
 10
-23.2824339407
 20
22.8622220627
 10
-23.2955025361
 20
22.8633356024
 10
-23.308080001
 20
22.8647837951
 10
-23.3199538529
 20
22.8664856643
 10
-23.3309236574
 20
22.8684133016
 10
-23.3408045024
 20
22.8705929564
 10
-23.3494397506
 20
22.8729361058
 10
-23.3566989015
 20
22.875371697
 10
-23.3624713051
 20
22.8779432024
 10
-23.3666752109
 20
22.8806041508
 10
-23.3692601457
 20
22.8832193421
 10
-23.3702020907
 20
22.8856972028
  0
LWPOLYLINE
  5
686
100
AcDbEntity
  8
RACCORDO
100
AcDbPolyline
 62
7
  6
CONTINUOUS
 90
10
 70
0
 10
-23.2691022102
 20
22.8614808709
 10
-23.267464896
 20
22.8613819479
 10
-23.2658262126
 20
22.8612296918
 10
-23.26418616
 20
22.8610241028
 10
-23.262544908
 20
22.8607658693
 10
-23.2609022869
 20
22.8604543028
 10
-23.2592577863
 20
22.8600873377
 10
-23.2576112364
 20
22.8596642855
 10
-23.2559628071
 20
22.8591858346
 10
-23.2543124984
 20
22.8586519852
  0
LWPOLYLINE
  5
687
100
AcDbEntity
  8
RACCORDO
100
AcDbPolyline
 62
253
  6
CONTINUOUS
 90
13
 70
0
 10
-23.2490066605
 20
23.2312568818
 10
-23.2620744524
 20
23.2322078018
 10
-23.274917476
 20
23.2338689258
 10
-23.287314926
 20
23.236211695
 10
-23.2990536579
 20
23.239195831
 10
-23.3099318523
 20
23.2427700286
 10
-23.3197624846
 20
23.2468728383
 10
-23.3283765406
 20
23.251433722
 10
-23.335625922
 20
23.2563742663
 10
-23.3413859932
 20
23.2616095302
 10
-23.3455577233
 20
23.2670495061
 10
-23.3480693896
 20
23.2726006665
 10
-23.3488778098
 20
23.2781675725
  0
LINE
  5
688
100
AcDbEntity
  8
0
100
AcDbLine
 62
7
  6
CONTINUOUS
 10
26.4448647874
 20
13.4109927366
 11
27.0225105009
 21
13.2562130341
  0
LINE
  5
689
100
AcDbEntity
  8
0
100
AcDbLine
 62
7
  6
CONTINUOUS
 10
26.4663907577
 20
13.4119103989
 11
27.0241818831
 21
13.2624507173
  0
LINE
  5
68A
100
AcDbEntity
  8
0
100
AcDbLine
 62
253
  6
CONTINUOUS
 10
-13.1949129605
 20
26.9940809998
 11
-13.2011506436
 21
26.9957523819
  0
LINE
  5
68B
100
AcDbEntity
  8
0
100
AcDbLine
 62
7
  6
CONTINUOUS
 10
13.3846425353
 20
26.9940809998
 11
13.5394222377
 21
26.4164352862
  0
LINE
  5
68C
100
AcDbEntity
  8
0
100
AcDbLine
 62
7
  6
CONTINUOUS
 10
13.3908802184
 20
26.9957523819
 11
13.5403399
 21
26.4379612565
  0
LINE
  5
68D
100
AcDbEntity
  8
0
100
AcDbLine
 62
253
  6
CONTINUOUS
 10
27.0225105009
 20
-13.2233424616
 11
27.0241818831
 21
-13.2295801448
  0
LINE
  5
68E
100
AcDbEntity
  8
RACCORDO
100
AcDbLine
 62
253
  6
CONTINUOUS
 10
23.4387362353
 20
23.2312568817
 11
23.4588317952
 21
22.8614808503
  0
LINE
  5
68F
100
AcDbEntity
  8
RACCORDO
100
AcDbLine
 62
253
  6
CONTINUOUS
 10
23.5386127665
 20
23.2781678232
 11
23.5599316655
 21
22.8856972028
  0
LINE
  5
690
100
AcDbEntity
  8
RACCORDO
100
AcDbLine
 62
253
  6
CONTINUOUS
 10
23.5599316655
 20
22.8856972028
 11
23.6207984691
 21
21.4851535784
  0
LINE
  5
691
100
AcDbEntity
  8
RACCORDO
100
AcDbLine
 62
253
  6
CONTINUOUS
 10
23.4440418158
 20
22.8586518836
 11
23.5048026853
 21
21.458025874
  0
LINE
  5
692
100
AcDbEntity
  8
RACCORDO
100
AcDbLine
 62
253
  6
CONTINUOUS
 10
23.6207984691
 20
21.4851535784
 11
23.6694366408
 21
20.2963576231
  0
LINE
  5
693
100
AcDbEntity
  8
RACCORDO
100
AcDbLine
 62
253
  6
CONTINUOUS
 10
23.5048026853
 20
21.458025874
 11
23.553396512
 21
20.2686152125
  0
LINE
  5
694
100
AcDbEntity
  8
RACCORDO
100
AcDbLine
 62
253
  6
CONTINUOUS
 10
23.553396512
 20
20.2686152125
 11
23.60461311
 21
18.9343500397
  0
LINE
  5
695
100
AcDbEntity
  8
RACCORDO
100
AcDbLine
 62
253
  6
CONTINUOUS
 10
23.6694366408
 20
20.2963576231
 11
23.7207177328
 21
18.9620770712
  0
LINE
  5
696
100
AcDbEntity
  8
RACCORDO
100
AcDbLine
 62
253
  6
CONTINUOUS
 10
23.7207177328
 20
18.9620770712
 11
23.77370068
 21
17.4763704354
  0
LINE
  5
697
100
AcDbEntity
  8
RACCORDO
100
AcDbLine
 62
253
  6
CONTINUOUS
 10
23.60461311
 20
18.9343500397
 11
23.6575169649
 21
17.4490059053
  0
LINE
  5
698
100
AcDbEntity
  8
RACCORDO
100
AcDbLine
 62
253
  6
CONTINUOUS
 10
23.77370068
 20
17.4763704354
 11
23.8095528161
 21
16.3944645279
  0
LINE
  5
699
100
AcDbEntity
  8
RACCORDO
100
AcDbLine
 62
253
  6
CONTINUOUS
 10
23.6575169649
 20
17.4490059053
 11
23.6933372668
 21
16.3676780082
  0
LINE
  5
69A
100
AcDbEntity
  8
RACCORDO
100
AcDbLine
 62
253
  6
CONTINUOUS
 10
23.6933372668
 20
16.3676780082
 11
23.7291395038
 21
15.2100059584
  0
LINE
  5
69B
100
AcDbEntity
  8
RACCORDO
100
AcDbLine
 62
253
  6
CONTINUOUS
 10
23.8095528161
 20
16.3944645279
 11
23.8453942541
 21
15.2358968511
  0
LINE
  5
69C
100
AcDbEntity
  8
RACCORDO
100
AcDbLine
 62
253
  6
CONTINUOUS
 10
23.7291395038
 20
15.2100059584
 11
23.7643356915
 21
13.97642273
  0
LINE
  5
69D
100
AcDbEntity
  8
RACCORDO
100
AcDbLine
 62
253
  6
CONTINUOUS
 10
23.8453942541
 20
15.2358968511
 11
23.8806929922
 21
14.0010489083
  0
LWPOLYLINE
  5
69E
100
AcDbEntity
  8
RACCORDO
100
AcDbPolyline
 62
253
  6
CONTINUOUS
 90
13
 70
0
 10
23.3354355229
 20
22.0664317747
 10
23.3338461593
 20
22.1258363208
 10
23.3294004171
 20
22.1849534269
 10
23.3221286497
 20
22.2436457148
 10
23.3120878764
 20
22.3016735634
 10
23.2993110916
 20
22.3590120242
 10
23.2837576435
 20
22.4158401586
 10
23.2654560703
 20
22.4719728967
 10
23.244412783
 20
22.5273191268
 10
23.2204574548
 20
22.5821642349
 10
23.1934901635
 20
22.6364771376
 10
23.1635516964
 20
22.6899374673
 10
23.130634664
 20
22.7423641194
  0
LWPOLYLINE
  5
69F
100
AcDbEntity
  8
RACCORDO
100
AcDbPolyline
 62
253
  6
CONTINUOUS
 90
13
 70
0
 10
23.4180395955
 20
22.0707985583
 10
23.4163861487
 20
22.133118586
 10
23.4119090209
 20
22.1948963551
 10
23.4046114181
 20
22.2561249217
 10
23.394492959
 20
22.3168218941
 10
23.3815608389
 20
22.3769550383
 10
23.365829797
 20
22.4364423621
 10
23.3473587919
 20
22.4952584722
 10
23.3260962883
 20
22.5534131149
 10
23.3018916343
 20
22.6108763271
 10
23.2746975517
 20
22.6676319897
 10
23.2445698861
 20
22.7236783747
 10
23.2115130263
 20
22.779006414
  0
LINE
  5
6A0
100
AcDbEntity
  8
RACCORDO
100
AcDbLine
 62
253
  6
CONTINUOUS
 10
23.8806929922
 20
14.0010489083
 11
23.9148914648
 21
12.6899102071
  0
LINE
  5
6A1
100
AcDbEntity
  8
RACCORDO
100
AcDbLine
 62
253
  6
CONTINUOUS
 10
23.7643356915
 20
13.97642273
 11
23.7984855456
 21
12.6668954946
  0
LINE
  5
6A2
100
AcDbEntity
  8
RACCORDO
100
AcDbLine
 62
253
  6
CONTINUOUS
 10
23.7984855456
 20
12.6668954946
 11
23.8309272371
 21
11.2825986285
  0
LINE
  5
6A3
100
AcDbEntity
  8
RACCORDO
100
AcDbLine
 62
253
  6
CONTINUOUS
 10
23.9148914648
 20
12.6899102071
 11
23.9473749174
 21
11.3036858312
  0
LINE
  5
6A4
100
AcDbEntity
  8
RACCORDO
100
AcDbLine
 62
253
  6
CONTINUOUS
 10
23.8309272371
 20
11.2825986285
 11
23.861072471
 21
9.8186115881
  0
LINE
  5
6A5
100
AcDbEntity
  8
RACCORDO
100
AcDbLine
 62
253
  6
CONTINUOUS
 10
23.9473749174
 20
11.3036858312
 11
23.9776260282
 21
9.8374887665
  0
LINE
  5
6A6
100
AcDbEntity
  8
RACCORDO
100
AcDbLine
 62
253
  6
CONTINUOUS
 10
23.9776260282
 20
9.8374887665
 11
24.0050168818
 21
8.2872170175
  0
LINE
  5
6A7
100
AcDbEntity
  8
RACCORDO
100
AcDbLine
 62
253
  6
CONTINUOUS
 10
23.861072471
 20
9.8186115881
 11
23.8884163317
 21
8.2708540278
  0
LINE
  5
6A8
100
AcDbEntity
  8
RACCORDO
100
AcDbLine
 62
253
  6
CONTINUOUS
 10
23.8884163317
 20
8.2708540278
 11
23.9122692006
 21
6.6309185942
  0
LINE
  5
6A9
100
AcDbEntity
  8
RACCORDO
100
AcDbLine
 62
253
  6
CONTINUOUS
 10
24.0050168818
 20
8.2872170175
 11
24.0288898077
 21
6.6443976538
  0
LWPOLYLINE
  5
6AA
100
AcDbEntity
  8
RACCORDO
100
AcDbPolyline
 62
253
  6
CONTINUOUS
 90
7
 70
0
 10
23.9122692006
 20
6.6309185942
 10
23.931688589
 20
4.8911362625
 10
23.9395571253
 20
3.982891025
 10
23.9458541276
 20
3.046506869
 10
23.950437292
 20
2.0811629791
 10
23.9533496943
 20
1.0877861581
 10
23.954540125
 20
0.0664351422
  0
LINE
  5
6AB
100
AcDbEntity
  8
RACCORDO
100
AcDbLine
 62
253
  6
CONTINUOUS
 10
24.0288898077
 20
6.6443976538
 11
24.048425092
 21
4.9013578215
  0
LWPOLYLINE
  5
6AC
100
AcDbEntity
  8
RACCORDO
100
AcDbPolyline
 62
253
  6
CONTINUOUS
 90
5
 70
0
 10
24.048425092
 20
4.9013578215
 10
24.0626177532
 20
3.053013774
 10
24.0673743531
 20
2.0856907644
 10
24.0703468483
 20
1.0901634642
 10
24.0713664563
 20
0.0664351422
  0
LINE
  5
6AD
100
AcDbEntity
  8
0
100
AcDbLine
 62
7
  6
CONTINUOUS
 10
23.5923227874
 20
34.0651852862
 11
23.5923227874
 21
30.0664352862
  0
LINE
  5
6AE
100
AcDbEntity
  8
0
100
AcDbLine
 62
7
  6
CONTINUOUS
 10
24.3064437874
 20
30.7010612862
 11
24.3064437874
 21
31.8015522862
  0
LINE
  5
6AF
100
AcDbEntity
  8
0
100
AcDbLine
 62
7
  6
CONTINUOUS
 10
24.3064437874
 20
32.4362412862
 11
24.3064437874
 21
33.4305452862
  0
LINE
  5
6B0
100
AcDbEntity
  8
0
100
AcDbLine
 62
7
  6
CONTINUOUS
 10
25.3948647874
 20
-22.4335647138
 11
25.3948647874
 21
22.5664352862
  0
LINE
  5
6B1
100
AcDbEntity
  8
0
100
AcDbLine
 62
253
  6
CONTINUOUS
 10
25.5948647874
 20
14.0266423729
 11
25.5948647874
 21
8.4062281996
  0
LINE
  5
6B2
100
AcDbEntity
  8
0
100
AcDbLine
 62
253
  6
CONTINUOUS
 10
25.5948647874
 20
-8.3733576271
 11
25.5948647874
 21
-13.9937718004
  0
LINE
  5
6B3
100
AcDbEntity
  8
0
100
AcDbLine
 62
7
  6
CONTINUOUS
 10
26.1948647874
 20
12.0164352862
 11
26.1948647874
 21
10.4164352862
  0
LINE
  5
6B4
100
AcDbEntity
  8
0
100
AcDbLine
 62
7
  6
CONTINUOUS
 10
26.1948647874
 20
-10.3835647138
 11
26.1948647874
 21
-11.9835647138
  0
LINE
  5
6B5
100
AcDbEntity
  8
0
100
AcDbLine
 62
7
  6
CONTINUOUS
 10
26.2163907577
 20
12.0106674199
 11
26.2163907577
 21
10.4222031526
  0
LINE
  5
6B6
100
AcDbEntity
  8
0
100
AcDbLine
 62
7
  6
CONTINUOUS
 10
26.2163907577
 20
-10.3893325801
 11
26.2163907577
 21
-11.9777968474
  0
LINE
  5
6B7
100
AcDbEntity
  8
0
100
AcDbLine
 62
7
  6
CONTINUOUS
 10
26.2751267874
 20
31.8015662862
 11
26.2751267874
 21
32.4362272862
  0
LINE
  5
6B8
100
AcDbEntity
  8
0
100
AcDbLine
 62
7
  6
CONTINUOUS
 10
26.4184187874
 20
33.4305372862
 11
26.4184187874
 21
34.0651852862
  0
LINE
  5
6B9
100
AcDbEntity
  8
0
100
AcDbLine
 62
7
  6
CONTINUOUS
 10
26.4344907874
 20
30.0664352862
 11
26.4344907874
 21
30.7010832862
  0
LINE
  5
6BA
100
AcDbEntity
  8
0
100
AcDbLine
 62
7
  6
CONTINUOUS
 10
26.4448647874
 20
13.7164352862
 11
26.4448647874
 21
13.4109927366
  0
LINE
  5
6BB
100
AcDbEntity
  8
0
100
AcDbLine
 62
7
  6
CONTINUOUS
 10
26.4448647874
 20
12.5218778359
 11
26.4448647874
 21
12.4494479881
  0
LINE
  5
6BC
100
AcDbEntity
  8
0
100
AcDbLine
 62
7
  6
CONTINUOUS
 10
26.4448647874
 20
9.9834225843
 11
26.4448647874
 21
9.9109927366
  0
LINE
  5
6BD
100
AcDbEntity
  8
0
100
AcDbLine
 62
7
  6
CONTINUOUS
 10
26.4448647874
 20
9.0218778359
 11
26.4448647874
 21
8.7164352862
  0
LINE
  5
6BE
100
AcDbEntity
  8
0
100
AcDbLine
 62
7
  6
CONTINUOUS
 10
26.4448647874
 20
-8.6835647138
 11
26.4448647874
 21
-8.9890072634
  0
LINE
  5
6BF
100
AcDbEntity
  8
0
100
AcDbLine
 62
7
  6
CONTINUOUS
 10
26.4448647874
 20
-9.8781221641
 11
26.4448647874
 21
-9.9505520119
  0
LINE
  5
6C0
100
AcDbEntity
  8
0
100
AcDbLine
 62
7
  6
CONTINUOUS
 10
26.4448647874
 20
-12.4165774157
 11
26.4448647874
 21
-12.4890072634
  0
LINE
  5
6C1
100
AcDbEntity
  8
0
100
AcDbLine
 62
7
  6
CONTINUOUS
 10
26.4448647874
 20
-13.3781221641
 11
26.4448647874
 21
-13.6835647138
  0
LINE
  5
6C2
100
AcDbEntity
  8
0
100
AcDbLine
 62
7
  6
CONTINUOUS
 10
26.4663907577
 20
13.7253516351
 11
26.4663907577
 21
13.4119103989
  0
LINE
  5
6C3
100
AcDbEntity
  8
0
100
AcDbLine
 62
7
  6
CONTINUOUS
 10
26.4663907577
 20
12.5209601736
 11
26.4663907577
 21
12.4436801218
  0
LINE
  5
6C4
100
AcDbEntity
  8
0
100
AcDbLine
 62
7
  6
CONTINUOUS
 10
26.4663907577
 20
9.9891904507
 11
26.4663907577
 21
9.9119103989
  0
LINE
  5
6C5
100
AcDbEntity
  8
0
100
AcDbLine
 62
7
  6
CONTINUOUS
 10
26.4663907577
 20
9.0209601736
 11
26.4663907577
 21
8.7075189374
  0
LINE
  5
6C6
100
AcDbEntity
  8
0
100
AcDbLine
 62
7
  6
CONTINUOUS
 10
26.4663907577
 20
-8.6746483649
 11
26.4663907577
 21
-8.9880896011
  0
LINE
  5
6C7
100
AcDbEntity
  8
0
100
AcDbLine
 62
7
  6
CONTINUOUS
 10
26.4663907577
 20
-9.8790398264
 11
26.4663907577
 21
-9.9563198782
  0
LINE
  5
6C8
100
AcDbEntity
  8
0
100
AcDbLine
 62
7
  6
CONTINUOUS
 10
26.4663907577
 20
-12.4108095493
 11
26.4663907577
 21
-12.4880896011
  0
LINE
  5
6C9
100
AcDbEntity
  8
0
100
AcDbLine
 62
7
  6
CONTINUOUS
 10
26.4663907577
 20
-13.3790398264
 11
26.4663907577
 21
-13.6924810626
  0
LINE
  5
6CA
100
AcDbEntity
  8
0
100
AcDbLine
 62
7
  6
CONTINUOUS
 10
27.2933497874
 20
34.0651852862
 11
27.2933497874
 21
30.0664352862
  0
LINE
  5
6CB
100
AcDbEntity
  8
0
100
AcDbLine
 62
7
  6
CONTINUOUS
 10
28.0075127874
 20
30.0664352862
 11
28.0075127874
 21
34.0651852862
  0
LINE
  5
6CC
100
AcDbEntity
  8
RACCORDO
100
AcDbLine
 62
253
  6
CONTINUOUS
 10
24.0713664563
 20
0.0664351422
 11
24.0704768009
 21
-0.8899449772
  0
LINE
  5
6CD
100
AcDbEntity
  8
RACCORDO
100
AcDbLine
 62
253
  6
CONTINUOUS
 10
23.954540123
 20
0.0664351422
 11
23.95095976
 21
-1.8168327216
  0
LINE
  5
6CE
100
AcDbEntity
  8
RACCORDO
100
AcDbLine
 62
253
  6
CONTINUOUS
 10
24.0704768009
 20
-0.8899449772
 11
24.0637223287
 21
-2.7254007542
  0
LINE
  5
6CF
100
AcDbEntity
  8
RACCORDO
100
AcDbLine
 62
253
  6
CONTINUOUS
 10
23.95095976
 20
-1.8168327216
 11
23.9414399662
 21
-3.5965189856
  0
LINE
  5
6D0
100
AcDbEntity
  8
RACCORDO
100
AcDbLine
 62
253
  6
CONTINUOUS
 10
24.0637223287
 20
-2.7254007542
 11
24.0512984557
 21
-4.4557164273
  0
LINE
  5
6D1
100
AcDbEntity
  8
RACCORDO
100
AcDbLine
 62
253
  6
CONTINUOUS
 10
23.9414399662
 20
-3.5965189856
 11
23.9265422971
 21
-5.275441205
  0
LINE
  5
6D2
100
AcDbEntity
  8
RACCORDO
100
AcDbLine
 62
253
  6
CONTINUOUS
 10
24.0512984557
 20
-4.4557164273
 11
24.0341329005
 21
-6.0923264356
  0
LINE
  5
6D3
100
AcDbEntity
  8
RACCORDO
100
AcDbLine
 62
253
  6
CONTINUOUS
 10
23.9265422971
 20
-5.275441205
 11
23.9073583217
 21
-6.864231931
  0
LINE
  5
6D4
100
AcDbEntity
  8
RACCORDO
100
AcDbLine
 62
253
  6
CONTINUOUS
 10
24.0341329005
 20
-6.0923264356
 11
24.0130480421
 21
-7.640898627
  0
LINE
  5
6D5
100
AcDbEntity
  8
RACCORDO
100
AcDbLine
 62
253
  6
CONTINUOUS
 10
23.9073583217
 20
-6.864231931
 11
23.8846361237
 21
-8.3705479517
  0
LINE
  5
6D6
100
AcDbEntity
  8
RACCORDO
100
AcDbLine
 62
253
  6
CONTINUOUS
 10
24.0130480421
 20
-7.640898627
 11
23.9886985064
 21
-9.1095428648
  0
LINE
  5
6D7
100
AcDbEntity
  8
RACCORDO
100
AcDbLine
 62
253
  6
CONTINUOUS
 10
23.8846361237
 20
-8.3705479517
 11
23.858906019
 21
-9.7988158329
  0
LINE
  5
6D8
100
AcDbEntity
  8
RACCORDO
100
AcDbLine
 62
253
  6
CONTINUOUS
 10
23.9886985064
 20
-9.1095428648
 11
23.9616592059
 21
-10.5038516913
  0
LINE
  5
6D9
100
AcDbEntity
  8
RACCORDO
100
AcDbLine
 62
253
  6
CONTINUOUS
 10
23.858906019
 20
-9.7988158329
 11
23.8307632786
 21
-11.1553363565
  0
LINE
  5
6DA
100
AcDbEntity
  8
RACCORDO
100
AcDbLine
 62
253
  6
CONTINUOUS
 10
23.9616592059
 20
-10.5038516913
 11
23.9324879661
 21
-11.826207805
  0
LINE
  5
6DB
100
AcDbEntity
  8
RACCORDO
100
AcDbLine
 62
253
  6
CONTINUOUS
 10
23.8307632786
 20
-11.1553363565
 11
23.8008015414
 21
-12.4409088062
  0
LINE
  5
6DC
100
AcDbEntity
  8
RACCORDO
100
AcDbLine
 62
253
  6
CONTINUOUS
 10
23.9324879661
 20
-11.826207805
 11
23.9017071263
 21
-13.0780285614
  0
LINE
  5
6DD
100
AcDbEntity
  8
RACCORDO
100
AcDbLine
 62
253
  6
CONTINUOUS
 10
23.8008015414
 20
-12.4409088062
 11
23.7694478267
 21
-13.6560413126
  0
LINE
  5
6DE
100
AcDbEntity
  8
RACCORDO
100
AcDbLine
 62
253
  6
CONTINUOUS
 10
23.9017071263
 20
-13.0780285614
 11
23.8698523107
 21
-14.2587274643
  0
LINE
  5
6DF
100
AcDbEntity
  8
RACCORDO
100
AcDbLine
 62
253
  6
CONTINUOUS
 10
23.7694478267
 20
-13.6560413126
 11
23.7372791697
 21
-14.8001235321
  0
LINE
  5
6E0
100
AcDbEntity
  8
RACCORDO
100
AcDbLine
 62
253
  6
CONTINUOUS
 10
23.8698523107
 20
-14.2587274643
 11
23.8374016881
 21
-15.368937112
  0
LINE
  5
6E1
100
AcDbEntity
  8
RACCORDO
100
AcDbLine
 62
253
  6
CONTINUOUS
 10
23.7372791697
 20
-14.8001235321
 11
23.688416534
 21
-16.3872417042
  0
LINE
  5
6E2
100
AcDbEntity
  8
RACCORDO
100
AcDbLine
 62
253
  6
CONTINUOUS
 10
23.8374016881
 20
-15.368937112
 11
23.7884514777
 21
-16.9067185088
  0
LINE
  5
6E3
100
AcDbEntity
  8
RACCORDO
100
AcDbLine
 62
253
  6
CONTINUOUS
 10
23.688416534
 20
-16.3872417042
 11
23.6398131844
 21
-17.8270481035
  0
LINE
  5
6E4
100
AcDbEntity
  8
RACCORDO
100
AcDbLine
 62
253
  6
CONTINUOUS
 10
23.7884514777
 20
-16.9067185088
 11
23.7400706008
 21
-18.3004672841
  0
LINE
  5
6E5
100
AcDbEntity
  8
RACCORDO
100
AcDbLine
 62
253
  6
CONTINUOUS
 10
23.6398131844
 20
-17.8270481035
 11
23.5922093685
 21
-19.1330962762
  0
LINE
  5
6E6
100
AcDbEntity
  8
RACCORDO
100
AcDbLine
 62
253
  6
CONTINUOUS
 10
23.7400706008
 20
-18.3004672841
 11
23.6929054639
 21
-19.5641126283
  0
LINE
  5
6E7
100
AcDbEntity
  8
RACCORDO
100
AcDbLine
 62
253
  6
CONTINUOUS
 10
23.5922093685
 20
-19.1330962762
 11
23.546439499
 21
-20.3103514453
  0
LINE
  5
6E8
100
AcDbEntity
  8
RACCORDO
100
AcDbLine
 62
253
  6
CONTINUOUS
 10
23.6929054639
 20
-19.5641126283
 11
23.6333233245
 21
-21.0525446191
  0
LINE
  5
6E9
100
AcDbEntity
  8
RACCORDO
100
AcDbLine
 62
253
  6
CONTINUOUS
 10
23.546439499
 20
-20.3103514453
 11
23.4885707266
 21
-21.7081311836
  0
LINE
  5
6EA
100
AcDbEntity
  8
RACCORDO
100
AcDbLine
 62
253
  6
CONTINUOUS
 10
23.4885707266
 20
-21.7081311836
 11
23.4440418158
 21
-22.7257813108
  0
LINE
  5
6EB
100
AcDbEntity
  8
RACCORDO
100
AcDbLine
 62
253
  6
CONTINUOUS
 10
23.6333233245
 20
-21.0525446191
 11
23.5742524801
 21
-22.4310314209
  0
LINE
  5
6EC
100
AcDbEntity
  8
RACCORDO
100
AcDbLine
 62
253
  6
CONTINUOUS
 10
23.5742524801
 20
-22.4310314209
 11
23.5599316655
 21
-22.7528266303
  0
LINE
  5
6ED
100
AcDbEntity
  8
RACCORDO
100
AcDbLine
 62
253
  6
CONTINUOUS
 10
23.4588317862
 20
-22.7286102765
 11
23.4387362353
 21
-23.0983863092
  0
LINE
  5
6EE
100
AcDbEntity
  8
RACCORDO
100
AcDbLine
 62
253
  6
CONTINUOUS
 10
23.5599316655
 20
-22.7528266303
 11
23.5386127665
 21
-23.1452972507
  0
LWPOLYLINE
  5
6EF
100
AcDbEntity
  8
RACCORDO
100
AcDbPolyline
 62
7
  6
CONTINUOUS
 90
22
 70
0
 10
23.5386127665
 20
-23.1452972507
 10
23.5340969489
 20
-23.1952358321
 10
23.5259683679
 20
-23.2445669364
 10
23.5142999653
 20
-23.2930330949
 10
23.4991684754
 20
-23.3404195331
 10
23.4806910373
 20
-23.3864489098
 10
23.4590490868
 20
-23.4307937731
 10
23.4344152822
 20
-23.4732291091
 10
23.4069522561
 20
-23.5135848666
 10
23.3768742342
 20
-23.551654677
 10
23.344391881
 20
-23.5872748518
 10
23.3097005734
 20
-23.6203238918
 10
23.2730082373
 20
-23.650689822
 10
23.2345422551
 20
-23.6782632664
 10
23.1945074593
 20
-23.7029706475
 10
23.1530751469
 20
-23.7247692841
 10
23.1104618031
 20
-23.7435980369
 10
23.066880025
 20
-23.7594130621
 10
23.02248593
 20
-23.7722002351
 10
22.9774699063
 20
-23.7819369348
 10
22.9320604247
 20
-23.7886046383
 10
22.8864651112
 20
-23.7922053558
  0
LWPOLYLINE
  5
6F0
100
AcDbEntity
  8
RACCORDO
100
AcDbPolyline
 62
253
  6
CONTINUOUS
 90
22
 70
0
 10
23.4387362353
 20
-23.0983863092
 10
23.4347354518
 20
-23.1412271627
 10
23.4277966125
 20
-23.1831587519
 10
23.4179197173
 20
-23.2241810769
 10
23.4049759667
 20
-23.2645267834
 10
23.3890941603
 20
-23.3039632256
 10
23.3706606966
 20
-23.3417924659
 10
23.3496386703
 20
-23.3779371828
 10
23.3260649866
 20
-23.4124746979
 10
23.3004367595
 20
-23.4449390385
 10
23.2727416789
 20
-23.4752732372
 10
23.2429920548
 20
-23.5035342616
 10
23.2117219304
 20
-23.5294270411
 10
23.1789382614
 20
-23.5529060391
 10
23.1446340922
 20
-23.5740167923
 10
23.109322599
 20
-23.5926008403
 10
23.0730055064
 20
-23.6086298933
 10
23.0356810898
 20
-23.6221322411
 10
22.9978573517
 20
-23.6330342936
 10
22.9597036263
 20
-23.6413115208
 10
22.9210505795
 20
-23.6469884526
 10
22.8818982111
 20
-23.6500650892
  0
LINE
  5
6F1
100
AcDbEntity
  8
0
100
AcDbLine
 62
253
  6
CONTINUOUS
 10
27.0225105009
 20
9.7562130341
 11
27.0241818831
 21
9.7624507173
  0
LINE
  5
6F2
100
AcDbEntity
  8
0
100
AcDbLine
 62
7
  6
CONTINUOUS
 10
26.4448647874
 20
-9.9505520119
 11
26.1948647874
 21
-10.3835647138
  0
LINE
  5
6F3
100
AcDbEntity
  8
0
100
AcDbLine
 62
7
  6
CONTINUOUS
 10
26.4663907577
 20
-9.9563198782
 11
26.2163907577
 21
-10.3893325801
  0
LINE
  5
6F4
100
AcDbEntity
  8
0
100
AcDbLine
 62
7
  6
CONTINUOUS
 10
14.1550718741
 20
-25.3335647138
 11
14.1721627685
 21
-25.3163296776
  0
LINE
  5
6F5
100
AcDbEntity
  8
0
100
AcDbLine
 62
7
  6
CONTINUOUS
 10
14.3454959483
 20
-25.1431612572
 11
14.353745083
 21
-25.1348403262
  0
LWPOLYLINE
  5
6F6
100
AcDbEntity
  8
0
100
AcDbPolyline
 62
7
  6
CONTINUOUS
 90
3
 70
0
 10
25.5300315848
 20
-14.0586442442
 10
25.5776250214
 20
-14.0108673744
 10
25.5948647874
 20
-13.9937718004
  0
LINE
  5
6F7
100
AcDbEntity
  8
0
100
AcDbLine
 62
7
  6
CONTINUOUS
 10
7.9251587874
 20
-31.0038587138
 11
5.1651587874
 21
-33.7638587138
  0
LINE
  5
6F8
100
AcDbEntity
  8
0
100
AcDbLine
 62
7
  6
CONTINUOUS
 10
5.3348647874
 20
-33.9335647138
 11
8.0948647874
 21
-31.1735647138
  0
LINE
  5
6F9
100
AcDbEntity
  8
0
100
AcDbLine
 62
7
  6
CONTINUOUS
 10
25.404457564
 20
-14.1841996301
 11
25.5300315848
 21
-14.0586442442
  0
LINE
  5
6FA
100
AcDbEntity
  8
0
100
AcDbLine
 62
7
  6
CONTINUOUS
 10
14.1721627685
 20
-25.3163296776
 11
14.3454959483
 21
-25.1431612572
  0
LWPOLYLINE
  5
6FB
100
AcDbEntity
  8
0
100
AcDbPolyline
 62
7
  6
CONTINUOUS
 90
3
 70
0
 10
25.3961399501
 20
-14.1924453949
 10
25.4008049278
 20
-14.18783166
 10
25.404457564
 20
-14.1841996301
  0
LINE
  5
6FC
100
AcDbEntity
  8
0
100
AcDbLine
 62
7
  6
CONTINUOUS
 10
1.4886441799
 20
-32.539990383
 11
0.3195687874
 21
-33.5251777138
  0
LINE
  5
6FD
100
AcDbEntity
  8
0
100
AcDbLine
 62
7
  6
CONTINUOUS
 10
0.3195687874
 20
-34.0368737138
 11
1.4344006871
 21
-33.0973977983
  0
LINE
  5
6FE
100
AcDbEntity
  8
0
100
AcDbLine
 62
7
  6
CONTINUOUS
 10
10.5448647874
 20
-26.0335647138
 11
10.1118520855
 21
-26.2835647138
  0
LINE
  5
6FF
100
AcDbEntity
  8
0
100
AcDbLine
 62
7
  6
CONTINUOUS
 10
10.5506326538
 20
-26.0550906841
 11
10.1176199519
 21
-26.3050906841
  0
LINE
  5
700
100
AcDbEntity
  8
0
100
AcDbLine
 62
7
  6
CONTINUOUS
 10
-30.4613850457
 20
-35.665479608
 11
-30.5926350457
 21
-35.7101604538
  0
LINE
  5
701
100
AcDbEntity
  8
0
100
AcDbLine
 62
253
  6
CONTINUOUS
 10
9.8846425353
 20
26.9940809998
 11
9.8908802184
 21
26.9957523819
  0
LWPOLYLINE
  5
702
100
AcDbEntity
  8
RACCORDO
100
AcDbPolyline
 62
253
  6
CONTINUOUS
 90
13
 70
0
 10
-22.6921686363
 20
23.7829356617
 10
-18.8959605517
 20
23.9407406766
 10
-15.0990999858
 20
24.0698559043
 10
-11.3015869384
 20
24.1702813447
 10
-7.5032039473
 20
24.242019488
 10
-3.7041684747
 20
24.2850678441
 10
0.0948670919
 20
24.2994189428
 10
3.8939030484
 20
24.2850677952
 10
7.6929390988
 20
24.2420193903
 10
11.4913219679
 20
24.1702812248
 10
15.288833897
 20
24.0698557976
 10
19.0856926448
 20
23.94074061
 10
22.8818982111
 20
23.7829356617
  0
LWPOLYLINE
  5
703
100
AcDbEntity
  8
RACCORDO
100
AcDbPolyline
 62
253
  6
CONTINUOUS
 90
12
 70
0
 10
-22.6967355364
 20
23.9250759283
 10
-18.9001201585
 20
24.0829034013
 10
-15.1024244365
 20
24.2120472094
 10
-11.3038632812
 20
24.3125000438
 10
-7.504649878
 20
24.384256199
 10
-3.7050009974
 20
24.427311525
 10
0.0948630173
 20
24.4416635626
 10
3.8947271352
 20
24.427311551
 10
7.6943763198
 20
24.3842562463
 10
11.4935902195
 20
24.3125001035
 10
15.292152061
 20
24.2120472684
 10
19.0898486612
 20
24.0829034419
  0
LWPOLYLINE
  5
704
100
AcDbEntity
  8
RACCORDO
100
AcDbPolyline
 62
253
  6
CONTINUOUS
 90
22
 70
0
 10
-21.9051352126
 20
23.3760322345
 10
-21.9668200864
 20
23.3744931378
 10
-22.0277740124
 20
23.3702465963
 10
-22.0879969907
 20
23.36329261
 10
-22.1474243109
 20
23.3536357069
 10
-22.2061206833
 20
23.341271359
 10
-22.2642802393
 20
23.3261859822
 10
-22.3220612656
 20
23.3083846986
 10
-22.3793054754
 20
23.2878623861
 10
-22.4357321395
 20
23.2645900936
 10
-22.491400911
 20
23.2385313073
 10
-22.5462521368
 20
23.209722541
 10
-22.5998261278
 20
23.1782443849
 10
-22.6520902379
 20
23.1441013368
 10
-22.7030771132
 20
23.1072888989
 10
-22.7524250039
 20
23.067874168
 10
-22.8000625905
 20
23.0259674317
 10
-22.8460611925
 20
22.9814584024
 10
-22.8902730175
 20
22.9340833141
 10
-22.9326488015
 20
22.8837542447
 10
-22.9732378087
 20
22.8305591162
 10
-23.0120400388
 20
22.7744979287
  0
LWPOLYLINE
  5
705
100
AcDbEntity
  8
RACCORDO
100
AcDbPolyline
 62
253
  6
CONTINUOUS
 90
22
 70
0
 10
-21.9051435766
 20
23.3184291157
 10
-21.9630918243
 20
23.3170478319
 10
-22.0205693664
 20
23.3129490812
 10
-22.0774483592
 20
23.3061891743
 10
-22.1334141044
 20
23.2968658701
 10
-22.1885444721
 20
23.2850279377
 10
-22.243291516
 20
23.2705886758
 10
-22.2976707577
 20
23.2535011995
 10
-22.3514018985
 20
23.233807814
 10
-22.4044686435
 20
23.2114717856
 10
-22.4567792133
 20
23.1864736479
 10
-22.5081398015
 20
23.1588475473
 10
-22.5583752139
 20
23.128636907
 10
-22.6072951262
 20
23.0959093531
 10
-22.654809876
 20
23.0606778285
 10
-22.7008864238
 20
23.0229043194
 10
-22.7452965212
 20
22.9827037854
 10
-22.787968966
 20
22.9400645398
 10
-22.829047463
 20
22.8947109952
 10
-22.8684211
 20
22.8465561689
 10
-22.9057773047
 20
22.7957534714
 10
-22.9409050892
 20
22.7423641194
  0
LINE
  5
706
100
AcDbEntity
  8
0
100
AcDbLine
 62
7
  6
CONTINUOUS
 10
14.0948647874
 20
25.1164352862
 11
8.5948647874
 21
25.1164352862
  0
LINE
  5
707
100
AcDbEntity
  8
0
100
AcDbLine
 62
7
  6
CONTINUOUS
 10
-8.4051352126
 20
25.1164352862
 11
-13.9051352126
 21
25.1164352862
  0
LINE
  5
708
100
AcDbEntity
  8
0
100
AcDbLine
 62
7
  6
CONTINUOUS
 10
22.5948647874
 20
25.2664352862
 11
-22.4051352126
 21
25.2664352862
  0
LINE
  5
709
100
AcDbEntity
  8
0
100
AcDbLine
 62
253
  6
CONTINUOUS
 10
-13.9653422992
 20
25.4664352862
 11
-8.3449281259
 21
25.4664352862
  0
LINE
  5
70A
100
AcDbEntity
  8
0
100
AcDbLine
 62
253
  6
CONTINUOUS
 10
8.5346577008
 20
25.4664352862
 11
14.1550718741
 21
25.4664352862
  0
LINE
  5
70B
100
AcDbEntity
  8
0
100
AcDbLine
 62
7
  6
CONTINUOUS
 10
-11.9551352126
 20
26.1664352862
 11
-10.3551352126
 21
26.1664352862
  0
LINE
  5
70C
100
AcDbEntity
  8
0
100
AcDbLine
 62
7
  6
CONTINUOUS
 10
10.5448647874
 20
26.1664352862
 11
12.1448647874
 21
26.1664352862
  0
LINE
  5
70D
100
AcDbEntity
  8
0
100
AcDbLine
 62
7
  6
CONTINUOUS
 10
-11.9493673462
 20
26.1879612565
 11
-10.3609030789
 21
26.1879612565
  0
LINE
  5
70E
100
AcDbEntity
  8
0
100
AcDbLine
 62
7
  6
CONTINUOUS
 10
10.5506326538
 20
26.1879612565
 11
12.1390969211
 21
26.1879612565
  0
LINE
  5
70F
100
AcDbEntity
  8
0
100
AcDbLine
 62
7
  6
CONTINUOUS
 10
-13.6051352126
 20
26.4164352862
 11
-13.3496926629
 21
26.4164352862
  0
LINE
  5
710
100
AcDbEntity
  8
0
100
AcDbLine
 62
7
  6
CONTINUOUS
 10
-12.4605777623
 20
26.4164352862
 11
-12.3881479145
 21
26.4164352862
  0
LINE
  5
711
100
AcDbEntity
  8
0
100
AcDbLine
 62
7
  6
CONTINUOUS
 10
-9.9221225107
 20
26.4164352862
 11
-9.8496926629
 21
26.4164352862
  0
LINE
  5
712
100
AcDbEntity
  8
0
100
AcDbLine
 62
7
  6
CONTINUOUS
 10
-8.9605777623
 20
26.4164352862
 11
-8.7051352126
 21
26.4164352862
  0
LINE
  5
713
100
AcDbEntity
  8
0
100
AcDbLine
 62
7
  6
CONTINUOUS
 10
8.8948647874
 20
26.4164352862
 11
9.1503073371
 21
26.4164352862
  0
LINE
  5
714
100
AcDbEntity
  8
0
100
AcDbLine
 62
7
  6
CONTINUOUS
 10
10.0394222377
 20
26.4164352862
 11
10.1118520855
 21
26.4164352862
  0
LINE
  5
715
100
AcDbEntity
  8
0
100
AcDbLine
 62
7
  6
CONTINUOUS
 10
12.5778774893
 20
26.4164352862
 11
12.6503073371
 21
26.4164352862
  0
LINE
  5
716
100
AcDbEntity
  8
0
100
AcDbLine
 62
7
  6
CONTINUOUS
 10
13.5394222377
 20
26.4164352862
 11
13.7948647874
 21
26.4164352862
  0
LINE
  5
717
100
AcDbEntity
  8
0
100
AcDbLine
 62
7
  6
CONTINUOUS
 10
-13.6140515614
 20
26.4379612565
 11
-13.3506103252
 21
26.4379612565
  0
LINE
  5
718
100
AcDbEntity
  8
0
100
AcDbLine
 62
7
  6
CONTINUOUS
 10
-12.4596601
 20
26.4379612565
 11
-12.3823800481
 21
26.4379612565
  0
LINE
  5
719
100
AcDbEntity
  8
0
100
AcDbLine
 62
7
  6
CONTINUOUS
 10
-9.9278903771
 20
26.4379612565
 11
-9.8506103252
 21
26.4379612565
  0
LINE
  5
71A
100
AcDbEntity
  8
0
100
AcDbLine
 62
7
  6
CONTINUOUS
 10
-8.9596601
 20
26.4379612565
 11
-8.6962188637
 21
26.4379612565
  0
LINE
  5
71B
100
AcDbEntity
  8
0
100
AcDbLine
 62
7
  6
CONTINUOUS
 10
8.8859484386
 20
26.4379612565
 11
9.1493896748
 21
26.4379612565
  0
LINE
  5
71C
100
AcDbEntity
  8
0
100
AcDbLine
 62
7
  6
CONTINUOUS
 10
10.0403399
 20
26.4379612565
 11
10.1176199519
 21
26.4379612565
  0
LINE
  5
71D
100
AcDbEntity
  8
0
100
AcDbLine
 62
7
  6
CONTINUOUS
 10
12.5721096229
 20
26.4379612565
 11
12.6493896748
 21
26.4379612565
  0
LINE
  5
71E
100
AcDbEntity
  8
0
100
AcDbLine
 62
7
  6
CONTINUOUS
 10
13.5403399
 20
26.4379612565
 11
13.8037811363
 21
26.4379612565
  0
LINE
  5
71F
100
AcDbEntity
  8
RACCORDO
100
AcDbLine
 62
253
  6
CONTINUOUS
 10
19.0898486612
 20
24.0829034419
 11
22.8864651092
 21
23.9250759284
  0
LWPOLYLINE
  5
720
100
AcDbEntity
  8
RACCORDO
100
AcDbPolyline
 62
253
  6
CONTINUOUS
 90
22
 70
0
 10
22.8818982111
 20
23.7829356617
 10
22.9210263305
 20
23.7798634555
 10
22.9596607002
 20
23.7741911133
 10
22.9978013202
 20
23.7659186351
 10
23.0356185237
 20
23.755021891
 10
23.0729419775
 20
23.741525011
 10
23.1092606816
 20
23.7255003845
 10
23.1445770672
 20
23.7069182693
 10
23.1788887031
 20
23.6858084075
 10
23.2116772963
 20
23.662332415
 10
23.2429468518
 20
23.6364464554
 10
23.2726933646
 20
23.608194365
 10
23.3003865258
 20
23.5778692681
 10
23.3260157473
 20
23.5454122256
 10
23.3495916171
 20
23.5108821767
 10
23.3706155912
 20
23.4747490625
 10
23.3890487584
 20
23.4369461602
 10
23.4049300297
 20
23.3975401928
 10
23.4178775942
 20
23.3572012702
 10
23.4277641814
 20
23.3161527625
 10
23.4347170618
 20
23.2741712997
 10
23.4387362353
 20
23.2312568817
  0
LWPOLYLINE
  5
721
100
AcDbEntity
  8
RACCORDO
100
AcDbPolyline
 62
7
  6
CONTINUOUS
 90
22
 70
0
 10
22.8864651092
 20
23.9250759284
 10
22.9321266315
 20
23.9214677871
 10
22.9775837699
 20
23.9147868898
 10
23.0226287474
 20
23.9050348306
 10
23.067026891
 20
23.8922358629
 10
23.1105954688
 20
23.8764148766
 10
23.1531982752
 20
23.8575803444
 10
23.1946307015
 20
23.8357708763
 10
23.2346672189
 20
23.8110506276
 10
23.2731301516
 20
23.7834664168
 10
23.3098121777
 20
23.7530953149
 10
23.3444899203
 20
23.7200452056
 10
23.3769591399
 20
23.6844252539
 10
23.4070265791
 20
23.6463541555
 10
23.4344792755
 20
23.6059979963
 10
23.4591004059
 20
23.5635681232
 10
23.4807264282
 20
23.5192397642
 10
23.4991887043
 20
23.4732338774
 10
23.5143097529
 20
23.4258686834
 10
23.5259723793
 20
23.3774177449
 10
23.5340979751
 20
23.3280984143
 10
23.5386127665
 20
23.2781678232
  0
LINE
  5
722
100
AcDbEntity
  8
0
100
AcDbLine
 62
253
  6
CONTINUOUS
 10
-9.6949129605
 20
26.9940809998
 11
-9.7011506436
 21
26.9957523819
  0
LWPOLYLINE
  5
723
100
AcDbEntity
  8
0
100
AcDbPolyline
 62
7
  6
CONTINUOUS
 90
16
 70
0
 10
-24.7345825906
 20
34.0156644021
 10
-24.8333208454
 20
34.0477441939
 10
-24.9378766663
 20
34.0754170409
 10
-25.0482500533
 20
34.0986829431
 10
-25.1646559268
 20
34.1173835471
 10
-25.2868793665
 20
34.1316772064
 10
-25.414275611
 20
34.1420389809
 10
-25.5465831167
 20
34.1486794635
 10
-25.6840634272
 20
34.1513880614
 10
-25.826856413
 20
34.1500080565
 10
-25.9750302868
 20
34.1444050198
 10
-26.128516836
 20
34.1347133802
 10
-26.2872512925
 20
34.1211797069
 10
-26.4512120672
 20
34.1038861896
 10
-26.6204207494
 20
34.0827506385
 10
-26.7948773391
 20
34.0577730537
  0
LINE
  5
724
100
AcDbEntity
  8
0
100
AcDbLine
 62
7
  6
CONTINUOUS
 10
10.1118520855
 20
26.4164352862
 11
10.5448647874
 21
26.1664352862
  0
LINE
  5
725
100
AcDbEntity
  8
0
100
AcDbLine
 62
7
  6
CONTINUOUS
 10
10.1176199519
 20
26.4379612565
 11
10.5506326538
 21
26.1879612565
  0
LINE
  5
726
100
AcDbEntity
  8
0
100
AcDbLine
 62
7
  6
CONTINUOUS
 10
25.5948647874
 20
14.0266423729
 11
25.5776250214
 21
14.0437379469
  0
LWPOLYLINE
  5
727
100
AcDbEntity
  8
0
100
AcDbPolyline
 62
7
  6
CONTINUOUS
 90
3
 70
0
 10
25.4008049278
 20
14.2207022325
 10
25.3961399501
 20
14.2253159673
 10
25.3951388805
 20
14.2263682798
  0
LWPOLYLINE
  5
728
100
AcDbEntity
  8
0
100
AcDbPolyline
 62
7
  6
CONTINUOUS
 90
3
 70
0
 10
14.2199298979
 20
25.4016164791
 10
14.1721627685
 20
25.4492002501
 10
14.1550718741
 20
25.4664352862
  0
LINE
  5
729
100
AcDbEntity
  8
0
100
AcDbLine
 62
7
  6
CONTINUOUS
 10
14.3454959483
 20
25.2760318297
 11
14.2199298979
 21
25.4016164791
  0
LINE
  5
72A
100
AcDbEntity
  8
0
100
AcDbLine
 62
7
  6
CONTINUOUS
 10
25.5776250214
 20
14.0437379469
 11
25.4008049278
 21
14.2207022325
  0
LINE
  5
72B
100
AcDbEntity
  8
0
100
AcDbLine
 62
7
  6
CONTINUOUS
 10
14.353745083
 20
25.2677108987
 11
14.3454959483
 21
25.2760318297
  0
LINE
  5
72C
100
AcDbEntity
  8
0
100
AcDbLine
 62
7
  6
CONTINUOUS
 10
8.4593017874
 20
34.5914352862
 11
9.2330457874
 21
33.3665742862
  0
LINE
  5
72D
100
AcDbEntity
  8
0
100
AcDbLine
 62
7
  6
CONTINUOUS
 10
9.3701547874
 20
33.6063082862
 11
8.7819297874
 21
34.5914352862
  0
LINE
  5
72E
100
AcDbEntity
  8
0
100
AcDbLine
 62
7
  6
CONTINUOUS
 10
26.1948647874
 20
10.4164352862
 11
26.4448647874
 21
9.9834225843
  0
LINE
  5
72F
100
AcDbEntity
  8
0
100
AcDbLine
 62
7
  6
CONTINUOUS
 10
26.2163907577
 20
10.4222031526
 11
26.4663907577
 21
9.9891904507
  0
LINE
  5
730
100
AcDbEntity
  8
0
100
AcDbLine
 62
253
  6
CONTINUOUS
 10
27.0225105009
 20
-9.7233424616
 11
27.0241818831
 21
-9.7295801448
  0
LINE
  5
731
100
AcDbEntity
  8
0
100
AcDbLine
 62
7
  6
CONTINUOUS
 10
28.8567977874
 20
34.0651852862
 11
28.8567977874
 21
30.0664352862
  0
LINE
  5
732
100
AcDbEntity
  8
0
100
AcDbLine
 62
7
  6
CONTINUOUS
 10
29.5709177874
 20
32.3217232862
 11
29.5709317874
 21
34.0651852862
  0
LINE
  5
733
100
AcDbEntity
  8
0
100
AcDbLine
 62
7
  6
CONTINUOUS
 10
29.5709317874
 20
30.0664352862
 11
29.5709177874
 21
31.4522732862
  0
LWPOLYLINE
  5
734
100
AcDbEntity
  8
0
100
AcDbPolyline
 62
7
  6
CONTINUOUS
 90
16
 70
0
 10
33.0353792541
 20
32.0658245862
 10
33.0383505726
 20
32.1682130979
 10
33.0452356798
 20
32.2667698853
 10
33.0560345757
 20
32.3614949484
 10
33.0710731759
 20
32.4525411265
 10
33.0900255647
 20
32.5397555804
 10
33.1119139956
 20
32.6226797919
 10
33.1366863292
 20
32.7011198768
 10
33.1643947049
 20
32.7752697193
 10
33.1942177946
 20
32.8452524551
 10
33.2260909509
 20
32.9110639184
 10
33.2600788212
 20
32.9727082748
 10
33.2955540196
 20
33.0303211566
 10
33.3323074177
 20
33.0839477745
 10
33.370548144
 20
33.1335429177
 10
33.4102761985
 20
33.1791065862
  0
LINE
  5
735
100
AcDbEntity
  8
0
100
AcDbLine
 62
253
  6
CONTINUOUS
 10
27.0225105009
 20
-9.1437869659
 11
27.0241818831
 21
-9.1375492827
  0
LINE
  5
736
100
AcDbEntity
  8
0
100
AcDbLine
 62
253
  6
CONTINUOUS
 10
27.0225105009
 20
-12.6437869659
 11
27.0241818831
 21
-12.6375492827
  0
LWPOLYLINE
  5
737
100
AcDbEntity
  8
RACCORDO
100
AcDbPolyline
 62
253
  6
CONTINUOUS
 90
13
 70
0
 10
23.2115129855
 20
-22.6461359207
 10
23.2424620907
 20
-22.5948819408
 10
23.2710316115
 20
-22.5422718649
 10
23.2972185387
 20
-22.4883117856
 10
23.3210614333
 20
-22.4330983314
 10
23.3425156836
 20
-22.3765471924
 10
23.3614534148
 20
-22.3183932868
 10
23.3779690669
 20
-22.258468307
 10
23.3919620088
 20
-22.1969532076
 10
23.403011057
 20
-22.1341083848
 10
23.4109731072
 20
-22.0700263905
 10
23.4159838063
 20
-22.0046304055
 10
23.4180395955
 20
-21.9379279858
  0
LWPOLYLINE
  5
738
100
AcDbEntity
  8
RACCORDO
100
AcDbPolyline
 62
253
  6
CONTINUOUS
 90
13
 70
0
 10
23.130634664
 20
-22.6094935469
 10
23.161336889
 20
-22.5607874872
 10
23.1897604804
 20
-22.5106214767
 10
23.2158329467
 20
-22.459101738
 10
23.2393944679
 20
-22.4065612468
 10
23.2604958257
 20
-22.3528986902
 10
23.2792938021
 20
-22.2975369893
 10
23.2956946483
 20
-22.2403539951
 10
23.3094733831
 20
-22.1816582953
 10
23.3204884773
 20
-22.1214982073
 10
23.3285872586
 20
-22.0599785633
 10
23.3336177001
 20
-21.9972626167
 10
23.335435706
 20
-21.9335052618
  0
LINE
  5
739
100
AcDbEntity
  8
0
100
AcDbLine
 62
7
  6
CONTINUOUS
 10
25.9364912041
 20
-14.1934977074
 11
25.7813983232
 21
-14.3774734971
  0
LINE
  5
73A
100
AcDbEntity
  8
0
100
AcDbLine
 62
7
  6
CONTINUOUS
 10
25.3951388805
 20
-14.1934977074
 11
25.3961399501
 21
-14.1924453949
  0
LINE
  5
73B
100
AcDbEntity
  8
0
100
AcDbLine
 62
7
  6
CONTINUOUS
 10
14.1550718741
 20
-25.9233576271
 11
13.7948647874
 21
-26.2835647138
  0
LINE
  5
73C
100
AcDbEntity
  8
0
100
AcDbLine
 62
7
  6
CONTINUOUS
 10
14.5387735708
 20
-25.5700982496
 11
13.8037811363
 21
-26.3050906841
  0
LINE
  5
73D
100
AcDbEntity
  8
0
100
AcDbLine
 62
7
  6
CONTINUOUS
 10
26.4448647874
 20
-13.6835647138
 11
26.1346577008
 21
-13.9937718004
  0
LINE
  5
73E
100
AcDbEntity
  8
0
100
AcDbLine
 62
7
  6
CONTINUOUS
 10
26.4663907577
 20
-13.6924810626
 11
25.7813983232
 21
-14.3774734971
  0
LINE
  5
73F
100
AcDbEntity
  8
0
100
AcDbLine
 62
7
  6
CONTINUOUS
 10
10.8548647874
 20
-33.9335647138
 11
8.0948647874
 21
-36.6935647138
  0
LINE
  5
740
100
AcDbEntity
  8
0
100
AcDbLine
 62
7
  6
CONTINUOUS
 10
8.2645707874
 20
-36.8632707138
 11
11.0245707874
 21
-34.1032707138
  0
LINE
  5
741
100
AcDbEntity
  8
0
100
AcDbLine
 62
7
  6
CONTINUOUS
 10
14.353745083
 20
-25.1348403262
 11
14.354797781
 21
-25.1338388068
  0
LINE
  5
742
100
AcDbEntity
  8
0
100
AcDbLine
 62
7
  6
CONTINUOUS
 10
14.354797781
 20
-25.7251911305
 11
14.5387735708
 21
-25.5700982496
  0
LINE
  5
743
100
AcDbEntity
  8
0
100
AcDbLine
 62
253
  6
CONTINUOUS
 10
-9.1153574647
 20
26.9940809998
 11
-9.1091197816
 21
26.9957523819
  0
LINE
  5
744
100
AcDbEntity
  8
0
100
AcDbLine
 62
253
  6
CONTINUOUS
 10
-12.6153574647
 20
26.9940809998
 11
-12.6091197816
 21
26.9957523819
  0
LWPOLYLINE
  5
745
100
AcDbEntity
  8
0
100
AcDbPolyline
 62
7
  6
CONTINUOUS
 90
16
 70
0
 10
34.2399178096
 20
29.9777611418
 10
34.3648310486
 20
29.9818087425
 10
34.4851429245
 20
29.9916292752
 10
34.6008534376
 20
30.0072227399
 10
34.711840023
 20
30.0288189157
 10
34.8182252456
 20
30.0561880234
 10
34.9203767989
 20
30.088640726
 10
35.0181000518
 20
30.1259738749
 10
35.1115896356
 20
30.1683906186
 10
35.2017971373
 20
30.2158110655
 10
35.2895172491
 20
30.2686501252
 10
35.3739552789
 20
30.3264928881
 10
35.4536787376
 20
30.3880147333
 10
35.528210129
 20
30.4527741205
 10
35.5980269493
 20
30.52121259
 10
35.6631291985
 20
30.5933301418
  0
LINE
  5
746
100
AcDbEntity
  8
0
100
AcDbLine
 62
7
  6
CONTINUOUS
 10
-40.4051352126
 20
29.0664352862
 11
-22.9051352126
 21
29.0664352862
  0
LINE
  5
747
100
AcDbEntity
  8
0
100
AcDbLine
 62
7
  6
CONTINUOUS
 10
-10.9051352126
 20
29.0664352862
 11
11.0948647874
 21
29.0664352862
  0
LINE
  5
748
100
AcDbEntity
  8
0
100
AcDbLine
 62
7
  6
CONTINUOUS
 10
23.0948647874
 20
29.0664352862
 11
40.5948647874
 21
29.0664352862
  0
LINE
  5
749
100
AcDbEntity
  8
0
100
AcDbLine
 62
7
  6
CONTINUOUS
 10
23.5923227874
 20
30.0664352862
 11
26.4344907874
 21
30.0664352862
  0
LINE
  5
74A
100
AcDbEntity
  8
0
100
AcDbLine
 62
7
  6
CONTINUOUS
 10
27.2933497874
 20
30.0664352862
 11
28.0075127874
 21
30.0664352862
  0
LINE
  5
74B
100
AcDbEntity
  8
0
100
AcDbLine
 62
7
  6
CONTINUOUS
 10
28.8567977874
 20
30.0664352862
 11
29.5709317874
 21
30.0664352862
  0
LINE
  5
74C
100
AcDbEntity
  8
0
100
AcDbLine
 62
7
  6
CONTINUOUS
 10
31.4123047874
 20
30.0664352862
 11
32.3106537874
 21
30.0664352862
  0
LINE
  5
74D
100
AcDbEntity
  8
0
100
AcDbLine
 62
7
  6
CONTINUOUS
 10
36.8655867874
 20
30.0664352862
 11
37.5530647874
 21
30.0664352862
  0
LINE
  5
74E
100
AcDbEntity
  8
0
100
AcDbLine
 62
7
  6
CONTINUOUS
 10
39.3812667874
 20
30.0664352862
 11
40.0948647874
 21
30.0664352862
  0
LINE
  5
74F
100
AcDbEntity
  8
0
100
AcDbLine
 62
7
  6
CONTINUOUS
 10
-38.1320172126
 20
30.1049882862
 11
-37.3963002126
 21
30.1049882862
  0
LINE
  5
750
100
AcDbEntity
  8
0
100
AcDbLine
 62
7
  6
CONTINUOUS
 10
-35.8008802126
 20
30.1049882862
 11
-34.9660252126
 21
30.1049882862
  0
LINE
  5
751
100
AcDbEntity
  8
0
100
AcDbLine
 62
7
  6
CONTINUOUS
 10
-34.5165962126
 20
30.1049882862
 11
-33.7179122126
 21
30.1049882862
  0
LINE
  5
752
100
AcDbEntity
  8
0
100
AcDbLine
 62
7
  6
CONTINUOUS
 10
-32.5583642126
 20
30.1049882862
 11
-32.4412762126
 21
30.1049882862
  0
LINE
  5
753
100
AcDbEntity
  8
0
100
AcDbLine
 62
7
  6
CONTINUOUS
 10
-31.2771092126
 20
30.1049882862
 11
-30.4603992126
 21
30.1049882862
  0
LINE
  5
754
100
AcDbEntity
  8
0
100
AcDbLine
 62
7
  6
CONTINUOUS
 10
-30.3293052126
 20
30.1049882862
 11
-29.5035072126
 21
30.1049882862
  0
LINE
  5
755
100
AcDbEntity
  8
0
100
AcDbLine
 62
7
  6
CONTINUOUS
 10
-27.9199342126
 20
30.1049882862
 11
-27.0400312126
 21
30.1049882862
  0
LINE
  5
756
100
AcDbEntity
  8
0
100
AcDbLine
 62
7
  6
CONTINUOUS
 10
-26.7948773391
 20
30.1049883333
 11
-25.9633814281
 21
30.1049883333
  0
LINE
  5
757
100
AcDbEntity
  8
0
100
AcDbLine
 62
7
  6
CONTINUOUS
 10
-24.6849159758
 20
30.1049883333
 11
-23.8818823942
 21
30.1049883333
  0
LINE
  5
758
100
AcDbEntity
  8
0
100
AcDbLine
 62
7
  6
CONTINUOUS
 10
26.4344907874
 20
30.7010832862
 11
24.3064437874
 21
30.7010612862
  0
LINE
  5
759
100
AcDbEntity
  8
0
100
AcDbLine
 62
7
  6
CONTINUOUS
 10
-29.2731392126
 20
30.9034332862
 11
-28.1362062126
 21
30.9034332862
  0
LINE
  5
75A
100
AcDbEntity
  8
0
100
AcDbLine
 62
7
  6
CONTINUOUS
 10
-28.3030512126
 20
31.5212662862
 11
-29.1023652126
 21
31.5212662862
  0
LINE
  5
75B
100
AcDbEntity
  8
0
100
AcDbLine
 62
7
  6
CONTINUOUS
 10
-25.9633814281
 20
31.6701765135
 11
-25.5157520646
 21
31.6701765135
  0
LINE
  5
75C
100
AcDbEntity
  8
0
100
AcDbLine
 62
7
  6
CONTINUOUS
 10
24.3064437874
 20
31.8015522862
 11
26.2751267874
 21
31.8015662862
  0
LINE
  5
75D
100
AcDbEntity
  8
0
100
AcDbLine
 62
7
  6
CONTINUOUS
 10
-25.5139525496
 20
32.325199984
 11
-25.9910639676
 21
32.325199984
  0
LINE
  5
75E
100
AcDbEntity
  8
0
100
AcDbLine
 62
7
  6
CONTINUOUS
 10
26.2751267874
 20
32.4362272862
 11
24.3064437874
 21
32.4362412862
  0
LINE
  5
75F
100
AcDbEntity
  8
0
100
AcDbLine
 62
7
  6
CONTINUOUS
 10
-10.0940962126
 20
32.5414352862
 11
-9.8257242126
 21
32.5414352862
  0
LINE
  5
760
100
AcDbEntity
  8
0
100
AcDbLine
 62
7
  6
CONTINUOUS
 10
-9.2489332126
 20
32.5414352862
 11
-8.9748272126
 21
32.5414352862
  0
LINE
  5
761
100
AcDbEntity
  8
0
100
AcDbLine
 62
7
  6
CONTINUOUS
 10
-8.3981482126
 20
32.5414352862
 11
-8.1296662126
 21
32.5414352862
  0
LINE
  5
762
100
AcDbEntity
  8
0
100
AcDbLine
 62
7
  6
CONTINUOUS
 10
-7.8841142126
 20
32.5414352862
 11
-7.5986232126
 21
32.5414352862
  0
LINE
  5
763
100
AcDbEntity
  8
0
100
AcDbLine
 62
7
  6
CONTINUOUS
 10
-6.3595042126
 20
32.5414352862
 11
-6.0568212126
 21
32.5414352862
  0
LINE
  5
764
100
AcDbEntity
  8
0
100
AcDbLine
 62
7
  6
CONTINUOUS
 10
-5.7884552126
 20
32.5414352862
 11
-4.9575631402
 21
32.5414352862
  0
LINE
  5
765
100
AcDbEntity
  8
0
100
AcDbLine
 62
7
  6
CONTINUOUS
 10
-3.7126752126
 20
32.5414352862
 11
-2.1993392126
 21
32.5414352862
  0
LINE
  5
766
100
AcDbEntity
  8
0
100
AcDbLine
 62
7
  6
CONTINUOUS
 10
-1.0001102126
 20
32.5414352862
 11
-0.7231732126
 21
32.5414352862
  0
LINE
  5
767
100
AcDbEntity
  8
0
100
AcDbLine
 62
7
  6
CONTINUOUS
 10
-0.2492772126
 20
32.5414352862
 11
0.0192197874
 21
32.5414352862
  0
LINE
  5
768
100
AcDbEntity
  8
0
100
AcDbLine
 62
7
  6
CONTINUOUS
 10
1.0670987874
 20
32.5414352862
 11
1.3783047874
 21
32.5414352862
  0
LINE
  5
769
100
AcDbEntity
  8
0
100
AcDbLine
 62
7
  6
CONTINUOUS
 10
2.6488237874
 20
32.5414352862
 11
2.9258427874
 21
32.5414352862
  0
LINE
  5
76A
100
AcDbEntity
  8
0
100
AcDbLine
 62
7
  6
CONTINUOUS
 10
3.9166237874
 20
32.5414352862
 11
4.1935437874
 21
32.5414352862
  0
LINE
  5
76B
100
AcDbEntity
  8
0
100
AcDbLine
 62
7
  6
CONTINUOUS
 10
4.9673217874
 20
32.5414352862
 11
5.2527967874
 21
32.5414352862
  0
LINE
  5
76C
100
AcDbEntity
  8
0
100
AcDbLine
 62
7
  6
CONTINUOUS
 10
6.4920307874
 20
32.5414352862
 11
6.7947647874
 21
32.5414352862
  0
LINE
  5
76D
100
AcDbEntity
  8
0
100
AcDbLine
 62
7
  6
CONTINUOUS
 10
7.0487557874
 20
32.5414352862
 11
8.3651327874
 21
32.5414352862
  0
LINE
  5
76E
100
AcDbEntity
  8
0
100
AcDbLine
 62
7
  6
CONTINUOUS
 10
9.2330457874
 20
32.5414352862
 11
9.5099157874
 21
32.5414352862
  0
LWPOLYLINE
  5
76F
100
AcDbEntity
  8
0
100
AcDbPolyline
 62
7
  6
CONTINUOUS
 90
13
 70
0
 10
34.2417804763
 20
30.6108631973
 10
34.1565455716
 20
30.6136555294
 10
34.0735488166
 20
30.6217267447
 10
33.9927902114
 20
30.6350768431
 10
33.9139315053
 20
30.6540085563
 10
33.8373109489
 20
30.6782191527
 10
33.7639432942
 20
30.7068004376
 10
33.6935668514
 20
30.740030882
 10
33.6264433103
 20
30.7776320148
 10
33.5643724922
 20
30.8178602291
 10
33.5079543379
 20
30.8601343223
 10
33.4565889066
 20
30.9050354969
 10
33.4102761985
 20
30.9525637529
  0
LWPOLYLINE
  5
770
100
AcDbEntity
  8
0
100
AcDbPolyline
 62
7
  6
CONTINUOUS
 90
16
 70
0
 10
-25.5157520646
 20
31.6701765135
 10
-25.4744243458
 20
31.6682207779
 10
-25.4348505475
 20
31.6634474277
 10
-25.3970306697
 20
31.6558564627
 10
-25.3611572864
 20
31.6455276559
 10
-25.3270378237
 20
31.6323812345
 10
-25.2940945595
 20
31.6161778793
 10
-25.2622708527
 20
31.5970870743
 10
-25.2316233445
 20
31.5749393354
 10
-25.2017442363
 20
31.5489868915
 10
-25.1720462171
 20
31.5187622035
 10
-25.1431165979
 20
31.4847328103
 10
-25.1163095124
 20
31.4475535575
 10
-25.0920763384
 20
31.407442727
 10
-25.069965698
 20
31.3641820368
 10
-25.0499775913
 20
31.317771487
  0
LWPOLYLINE
  5
771
100
AcDbEntity
  8
0
100
AcDbPolyline
 62
7
  6
CONTINUOUS
 90
19
 70
0
 10
-25.3370302304
 20
33.4466877419
 10
-25.2910611987
 20
33.4392476276
 10
-25.2468788944
 20
33.4288295333
 10
-25.2044833175
 20
33.4154334589
 10
-25.1635324067
 20
33.3987804629
 10
-25.1243682233
 20
33.3791494869
 10
-25.0880169509
 20
33.3573773553
 10
-25.0549385863
 20
33.3337832383
 10
-25.0246731329
 20
33.3080479658
 10
-24.996866784
 20
33.2800508519
 10
-24.9713597304
 20
33.2496788251
 10
-24.9483117815
 20
33.2170449569
 10
-24.9278485589
 20
33.1823677768
 10
-24.9097957292
 20
33.1451686359
 10
-24.8943276259
 20
33.105926183
 10
-24.8820928716
 20
33.0662948938
 10
-24.8733076738
 20
33.0268262599
 10
-24.867755825
 20
32.9869687897
 10
-24.8654373251
 20
32.946722483
  0
LINE
  5
772
100
AcDbEntity
  8
0
100
AcDbLine
 62
253
  6
CONTINUOUS
 10
9.3050870395
 20
26.9940809998
 11
9.2988493564
 21
26.9957523819
  0
LINE
  5
773
100
AcDbEntity
  8
0
100
AcDbLine
 62
253
  6
CONTINUOUS
 10
12.8050870395
 20
26.9940809998
 11
12.7988493564
 21
26.9957523819
  0
LINE
  5
774
100
AcDbEntity
  8
0
100
AcDbLine
 62
7
  6
CONTINUOUS
 10
14.354797781
 20
25.858061703
 11
14.5387735708
 21
25.702968822
  0
LINE
  5
775
100
AcDbEntity
  8
0
100
AcDbLine
 62
7
  6
CONTINUOUS
 10
14.354797781
 20
25.2667093793
 11
14.353745083
 21
25.2677108987
  0
LINE
  5
776
100
AcDbEntity
  8
0
100
AcDbLine
 62
7
  6
CONTINUOUS
 10
26.1346577008
 20
14.0266423729
 11
26.4448647874
 21
13.7164352862
  0
LINE
  5
777
100
AcDbEntity
  8
0
100
AcDbLine
 62
7
  6
CONTINUOUS
 10
25.7813983232
 20
14.4103440696
 11
26.4663907577
 21
13.7253516351
  0
LINE
  5
778
100
AcDbEntity
  8
0
100
AcDbLine
 62
7
  6
CONTINUOUS
 10
13.7948647874
 20
26.4164352862
 11
14.1550718741
 21
26.0562281996
  0
LINE
  5
779
100
AcDbEntity
  8
0
100
AcDbLine
 62
7
  6
CONTINUOUS
 10
13.8037811363
 20
26.4379612565
 11
14.5387735708
 21
25.702968822
  0
LINE
  5
77A
100
AcDbEntity
  8
0
100
AcDbLine
 62
7
  6
CONTINUOUS
 10
25.9364912041
 20
14.2263682798
 11
25.7813983232
 21
14.4103440696
  0
LWPOLYLINE
  5
77B
100
AcDbEntity
  8
RACCORDO
100
AcDbPolyline
 62
253
  6
CONTINUOUS
 90
19
 70
0
 10
23.2017797472
 20
22.7745036141
 10
23.1580048475
 20
22.8374614386
 10
23.1115513808
 20
22.8971072129
 10
23.0624193468
 20
22.9534409368
 10
23.0104293825
 20
23.0065144127
 10
22.9557608511
 20
23.0562758383
 10
22.8989518421
 20
23.102569807
 10
22.8400275529
 20
23.1453826036
 10
22.7789627861
 20
23.1847279433
 10
22.7162200395
 20
23.2204915643
 10
22.6518310069
 20
23.2526745699
 10
22.5857639945
 20
23.2812758569
 10
22.5183864181
 20
23.3061778534
 10
22.4495418299
 20
23.3274020117
 10
22.3793866779
 20
23.3449268795
 10
22.3087577216
 20
23.3585705286
 10
22.2379338811
 20
23.368272316
 10
22.1666362363
 20
23.3740928846
 10
22.0948647874
 20
23.3760322345
  0
LWPOLYLINE
  5
77C
100
AcDbEntity
  8
RACCORDO
100
AcDbPolyline
 62
253
  6
CONTINUOUS
 90
19
 70
0
 10
23.130634664
 20
22.7423641194
 10
23.0911428123
 20
22.8019868953
 10
23.0485010537
 20
22.8588344331
 10
23.0029245893
 20
22.9127585629
 10
22.9546514508
 20
22.9636139551
 10
22.9038892037
 20
23.0113016875
 10
22.8508060921
 20
23.0557589995
 10
22.795662252
 20
23.0968665724
 10
22.7386457569
 20
23.1345799128
 10
22.6797935355
 20
23.1689334789
 10
22.6193395302
 20
23.1998382416
 10
22.557468751
 20
23.2272456198
 10
22.4941102306
 20
23.2511972306
 10
22.4293190388
 20
23.2716497698
 10
22.3634355022
 20
23.2884754715
 10
22.2968113672
 20
23.3015853042
 10
22.2297102773
 20
23.3109475169
 10
22.162299588
 20
23.3165620419
 10
22.094793471
 20
23.3184292852
  0
LINE
  5
77D
100
AcDbEntity
  8
0
100
AcDbLine
 62
253
  6
CONTINUOUS
 10
27.0225105009
 20
9.1766575384
 11
27.0241818831
 21
9.1704198552
  0
LINE
  5
77E
100
AcDbEntity
  8
0
100
AcDbLine
 62
253
  6
CONTINUOUS
 10
27.0225105009
 20
12.6766575384
 11
27.0241818831
 21
12.6704198552
  0
LINE
  5
77F
100
AcDbEntity
  8
RACCORDO
100
AcDbLine
 62
253
  6
CONTINUOUS
 10
36.193891598
 20
-41.1328560564
 11
36.2895992849
 21
-42.4417782454
  0
LINE
  5
780
100
AcDbEntity
  8
RACCORDO
100
AcDbLine
 62
253
  6
CONTINUOUS
 10
36.3995620232
 20
-43.9456560719
 11
36.4460360629
 21
-44.5812466264
  0
LINE
  5
781
100
AcDbEntity
  8
RACCORDO
100
AcDbLine
 62
253
  6
CONTINUOUS
 10
36.5134797921
 20
-45.5036238829
 11
36.5553427759
 21
-46.0761524877
  0
LWPOLYLINE
  5
782
100
AcDbEntity
  8
0
100
AcDbPolyline
 62
7
  6
CONTINUOUS
 90
16
 70
0
 10
32.3167779763
 20
32.0662126418
 10
32.3196129513
 20
31.949028292
 10
32.3275820654
 20
31.8330721807
 10
32.3406853188
 20
31.718344308
 10
32.3591443806
 20
31.6042022974
 10
32.3827375817
 20
31.4912885253
 10
32.410799914
 20
31.3815301214
 10
32.4435323182
 20
31.2750088264
 10
32.4807338537
 20
31.1716428995
 10
32.5211366911
 20
31.0731142484
 10
32.5647534295
 20
30.979744946
 10
32.6115714698
 20
30.8912129194
 10
32.6602851851
 20
30.8082338568
 10
32.7104593664
 20
30.7310463211
 10
32.7625292227
 20
30.6594117494
 10
32.8164947541
 20
30.5933301418
  0
LWPOLYLINE
  5
783
100
AcDbEntity
  8
0
100
AcDbPolyline
 62
7
  6
CONTINUOUS
 90
16
 70
0
 10
36.1628248096
 20
32.0662126418
 10
36.1599898389
 20
32.1833985577
 10
36.1520218752
 20
32.2993539425
 10
36.1389209188
 20
32.4140787963
 10
36.1204656251
 20
32.528214241
 10
36.0968773385
 20
32.6411191545
 10
36.0688200921
 20
32.750870171
 10
36.0360933546
 20
32.8573861403
 10
35.9988976573
 20
32.9607482124
 10
35.9584986267
 20
33.0592764716
 10
35.9148824531
 20
33.1526507209
 10
35.8680629464
 20
33.2411911572
 10
35.819347162
 20
33.3241784555
 10
35.7691707851
 20
33.4013728408
 10
35.7170981306
 20
33.473014088
 10
35.6631291985
 20
33.5391021973
  0
LINE
  5
784
100
AcDbEntity
  8
0
100
AcDbLine
 62
7
  6
CONTINUOUS
 10
36.8655867874
 20
34.0651852862
 11
36.8655867874
 21
30.0664352862
  0
LWPOLYLINE
  5
785
100
AcDbEntity
  8
0
100
AcDbPolyline
 62
7
  6
CONTINUOUS
 90
16
 70
0
 10
35.4442235319
 20
32.0658245862
 10
35.4412517689
 20
31.9634342184
 10
35.4343663315
 20
31.8648765894
 10
35.4235672196
 20
31.7701516991
 10
35.4085285034
 20
31.6791070669
 10
35.3895761127
 20
31.5918951734
 10
35.367687837
 20
31.5089734612
 10
35.3429158213
 20
31.4305354605
 10
35.3152079207
 20
31.356387641
 10
35.2853854893
 20
31.2864068543
 10
35.2535132312
 20
31.2205972273
 10
35.2195264424
 20
31.158954633
 10
35.184052365
 20
31.1013435414
 10
35.1473000796
 20
31.0477187759
 10
35.1090605056
 20
30.998125513
 10
35.069333643
 20
30.9525637529
  0
LINE
  5
786
100
AcDbEntity
  8
RACCORDO
100
AcDbLine
 62
253
  6
CONTINUOUS
 10
36.193891598
 20
41.2657266289
 11
36.2895992849
 21
42.5746488179
  0
LINE
  5
787
100
AcDbEntity
  8
RACCORDO
100
AcDbLine
 62
253
  6
CONTINUOUS
 10
36.3995620232
 20
44.0785266444
 11
36.4460360629
 21
44.7141171989
  0
LINE
  5
788
100
AcDbEntity
  8
RACCORDO
100
AcDbLine
 62
253
  6
CONTINUOUS
 10
36.5134797921
 20
45.6364944553
 11
36.5553427759
 21
46.2090230601
  0
LWPOLYLINE
  5
789
100
AcDbEntity
  8
RACCORDO
100
AcDbPolyline
 62
7
  6
CONTINUOUS
 90
19
 70
0
 10
45.7175418668
 20
3.7734172904
 10
45.7143411957
 20
3.7690387295
 10
45.7091781534
 20
3.7647702484
 10
45.7020527398
 20
3.760611847
 10
45.6928567848
 20
3.7565280835
 10
45.6816984585
 20
3.7525543996
 10
45.6689022709
 20
3.7487971215
 10
45.6544742861
 20
3.7452756228
 10
45.63840844
 20
3.7419705299
 10
45.6210110503
 20
3.7389300472
 10
45.6022887373
 20
3.7361564742
 10
45.5822348808
 20
3.7336475114
 10
45.5611359377
 20
3.7314444653
 10
45.5388702073
 20
3.7295464185
 10
45.5155593903
 20
3.7279542883
 10
45.4918550456
 20
3.7267121325
 10
45.4679743593
 20
3.7258346369
 10
45.4437001451
 20
3.7253071157
 10
45.4190324032
 20
3.7251295689
  0
LINE
  5
78A
100
AcDbEntity
  8
0
100
AcDbLine
 62
7
  6
CONTINUOUS
 10
8.2250797874
 20
-33.8915647138
 11
8.5695057874
 21
-33.6635647138
  0
LINE
  5
78B
100
AcDbEntity
  8
0
100
AcDbLine
 62
7
  6
CONTINUOUS
 10
7.9951847874
 20
-34.3415647138
 11
7.6271727874
 21
-34.5815647138
  0
LWPOLYLINE
  5
78C
100
AcDbEntity
  8
0
100
AcDbPolyline
 62
7
  6
CONTINUOUS
 90
10
 70
0
 10
-24.6485057884
 20
31.9955588226
 10
-24.6340378085
 20
31.9983656212
 10
-24.6194354348
 20
32.0027724251
 10
-24.6046986672
 20
32.0087792345
 10
-24.5898296693
 20
32.0165710198
 10
-24.5748262776
 20
32.0259628105
 10
-24.5596820015
 20
32.0363996951
 10
-24.5444172015
 20
32.0478951103
 10
-24.5290115171
 20
32.0604356193
 10
-24.4975502883
 20
32.0866434187
  0
LINE
  5
78D
100
AcDbEntity
  8
RACCORDO
100
AcDbLine
 62
253
  6
CONTINUOUS
 10
41.2941561301
 20
36.1654620968
 11
42.6030783191
 21
36.2611697837
  0
LINE
  5
78E
100
AcDbEntity
  8
RACCORDO
100
AcDbLine
 62
253
  6
CONTINUOUS
 10
44.1069561455
 20
36.371132522
 11
44.7425467
 21
36.4176065617
  0
LINE
  5
78F
100
AcDbEntity
  8
RACCORDO
100
AcDbLine
 62
253
  6
CONTINUOUS
 10
45.6649239565
 20
36.4850502909
 11
46.2374525613
 21
36.5269132748
  0
LWPOLYLINE
  5
790
100
AcDbEntity
  8
0
100
AcDbPolyline
 62
253
  6
CONTINUOUS
 90
4
 70
0
 10
-21.6520514059
 20
32.1900920323
 10
-19.1748594724
 20
32.2956092364
 10
-15.3225411941
 20
32.4298407389
 10
-14.1764117383
 20
32.4608968382
  0
LWPOLYLINE
  5
791
100
AcDbEntity
  8
0
100
AcDbPolyline
 62
7
  6
CONTINUOUS
 90
25
 70
0
 10
-4.9575631402
 20
32.5414352862
 10
-4.8905376724
 20
32.5439738669
 10
-4.8264040212
 20
32.5502742452
 10
-4.7651621867
 20
32.5603364212
 10
-4.7067376759
 20
32.5743729438
 10
-4.6512049816
 20
32.592171264
 10
-4.5987875831
 20
32.6130937349
 10
-4.550050253
 20
32.6367352017
 10
-4.5044282185
 20
32.6635008191
 10
-4.4604506411
 20
32.6939684049
 10
-4.4174008589
 20
32.728516799
 10
-4.3759955337
 20
32.7667671615
 10
-4.336913812
 20
32.8081607906
 10
-4.3001771891
 20
32.8522602496
 10
-4.2657641696
 20
32.8995029752
 10
-4.2342894144
 20
32.9506425753
 10
-4.2059342984
 20
33.006219486
 10
-4.1805174467
 20
33.0656932714
 10
-4.1581093951
 20
33.1281962316
 10
-4.1383904358
 20
33.193389355
 10
-4.1216802766
 20
33.2616116533
 10
-4.1090085774
 20
33.333012462
 10
-4.1007185579
 20
33.4076415597
 10
-4.0964669984
 20
33.4854491677
 10
-4.0962538987
 20
33.5664352862
  0
LINE
  5
792
100
AcDbEntity
  8
0
100
AcDbLine
 62
253
  6
CONTINUOUS
 10
-19.0000992545
 20
35.651811612
 11
-17.0599088422
 21
35.7196718476
  0
LWPOLYLINE
  5
793
100
AcDbEntity
  8
0
100
AcDbPolyline
 62
7
  6
CONTINUOUS
 90
16
 70
0
 10
34.2399178096
 20
34.1546641418
 10
34.114980212
 20
34.1506162725
 10
33.9946434318
 20
34.140794244
 10
33.8789074689
 20
34.1251980564
 10
33.7678944744
 20
34.1035977955
 10
33.6614822973
 20
34.0762233754
 10
33.5593044844
 20
34.0437645385
 10
33.4615542583
 20
34.0064233315
 10
33.3680383964
 20
33.9639977076
 10
33.2778107778
 20
33.9165712692
 10
33.190078665
 20
33.8637296817
 10
33.1056347956
 20
33.8058872798
 10
33.0259112606
 20
33.7443706697
 10
32.9513854239
 20
33.6796220537
 10
32.8815799218
 20
33.6111992296
 10
32.8164947541
 20
33.5391021973
  0
LWPOLYLINE
  5
794
100
AcDbEntity
  8
0
100
AcDbPolyline
 62
253
  6
CONTINUOUS
 90
4
 70
0
 10
-14.2516727167
 20
32.9066792392
 10
-15.3195063444
 20
32.8777281288
 10
-19.1728090926
 20
32.743414108
 10
-21.6107452185
 20
32.6395537053
  0
LINE
  5
795
100
AcDbEntity
  8
0
100
AcDbLine
 62
7
  6
CONTINUOUS
 10
-4.9646086371
 20
32.7783502862
 11
-5.5114192126
 21
32.7783502862
  0
LINE
  5
796
100
AcDbEntity
  8
0
100
AcDbLine
 62
7
  6
CONTINUOUS
 10
8.3651327874
 20
32.7869712862
 11
7.3257917874
 21
32.7869712862
  0
LINE
  5
797
100
AcDbEntity
  8
0
100
AcDbLine
 62
7
  6
CONTINUOUS
 10
-2.1993392126
 20
32.7869712862
 11
-3.4356562126
 21
32.7869712862
  0
LINE
  5
798
100
AcDbEntity
  8
0
100
AcDbLine
 62
7
  6
CONTINUOUS
 10
-7.3844552126
 20
33.1381152862
 11
-6.5622002126
 21
33.1381152862
  0
LINE
  5
799
100
AcDbEntity
  8
0
100
AcDbLine
 62
7
  6
CONTINUOUS
 10
5.4669807874
 20
33.1381152862
 11
6.2893187874
 21
33.1381152862
  0
LINE
  5
79A
100
AcDbEntity
  8
0
100
AcDbLine
 62
7
  6
CONTINUOUS
 10
6.1893637874
 20
33.3836512862
 11
5.5526447874
 21
33.3836512862
  0
LINE
  5
79B
100
AcDbEntity
  8
0
100
AcDbLine
 62
7
  6
CONTINUOUS
 10
-6.6620552126
 20
33.3836512862
 11
-7.2987742126
 21
33.3836512862
  0
LINE
  5
79C
100
AcDbEntity
  8
0
100
AcDbLine
 62
7
  6
CONTINUOUS
 10
24.3064437874
 20
33.4305452862
 11
26.4184187874
 21
33.4305372862
  0
LINE
  5
79D
100
AcDbEntity
  8
0
100
AcDbLine
 62
7
  6
CONTINUOUS
 10
-3.4356562126
 20
33.4721832862
 11
-2.3135692126
 21
33.4721832862
  0
LINE
  5
79E
100
AcDbEntity
  8
0
100
AcDbLine
 62
7
  6
CONTINUOUS
 10
-2.3135692126
 20
33.7177192862
 11
-3.4356562126
 21
33.7177192862
  0
LINE
  5
79F
100
AcDbEntity
  8
0
100
AcDbLine
 62
7
  6
CONTINUOUS
 10
40.0948647874
 20
34.0651852862
 11
39.4073787874
 21
34.0651852862
  0
LINE
  5
7A0
100
AcDbEntity
  8
0
100
AcDbLine
 62
7
  6
CONTINUOUS
 10
37.5633667874
 20
34.0651852862
 11
36.8655867874
 21
34.0651852862
  0
LINE
  5
7A1
100
AcDbEntity
  8
0
100
AcDbLine
 62
7
  6
CONTINUOUS
 10
32.3012277874
 20
34.0651852862
 11
31.3436907874
 21
34.0651852862
  0
LINE
  5
7A2
100
AcDbEntity
  8
0
100
AcDbLine
 62
7
  6
CONTINUOUS
 10
29.5709317874
 20
34.0651852862
 11
28.8567977874
 21
34.0651852862
  0
LINE
  5
7A3
100
AcDbEntity
  8
0
100
AcDbLine
 62
7
  6
CONTINUOUS
 10
28.0075127874
 20
34.0651852862
 11
27.2933497874
 21
34.0651852862
  0
LINE
  5
7A4
100
AcDbEntity
  8
0
100
AcDbLine
 62
7
  6
CONTINUOUS
 10
26.4184187874
 20
34.0651852862
 11
23.5923227874
 21
34.0651852862
  0
LINE
  5
7A5
100
AcDbEntity
  8
0
100
AcDbLine
 62
7
  6
CONTINUOUS
 10
-28.2671812126
 20
34.1045002862
 11
-29.0748032126
 21
34.1045002862
  0
LINE
  5
7A6
100
AcDbEntity
  8
0
100
AcDbLine
 62
7
  6
CONTINUOUS
 10
-30.8343992126
 20
34.1045002862
 11
-31.6604062126
 21
34.1045002862
  0
LINE
  5
7A7
100
AcDbEntity
  8
0
100
AcDbLine
 62
7
  6
CONTINUOUS
 10
-33.3212982126
 20
34.1045002862
 11
-34.1554642126
 21
34.1045002862
  0
LINE
  5
7A8
100
AcDbEntity
  8
0
100
AcDbLine
 62
7
  6
CONTINUOUS
 10
-36.1106972126
 20
34.1045002862
 11
-36.9449822126
 21
34.1045002862
  0
LINE
  5
7A9
100
AcDbEntity
  8
0
100
AcDbLine
 62
7
  6
CONTINUOUS
 10
-38.4930302126
 20
34.1045002862
 11
-39.3999402126
 21
34.1045002862
  0
LINE
  5
7AA
100
AcDbEntity
  8
0
100
AcDbLine
 62
7
  6
CONTINUOUS
 10
-34.9660252126
 20
34.1047402862
 11
-35.8008802126
 21
34.1047402862
  0
LINE
  5
7AB
100
AcDbEntity
  8
0
100
AcDbLine
 62
7
  6
CONTINUOUS
 10
-3.4356562126
 20
34.3458992862
 11
-2.2193502126
 21
34.3458992862
  0
LINE
  5
7AC
100
AcDbEntity
  8
0
100
AcDbLine
 62
7
  6
CONTINUOUS
 10
3.2227907874
 20
34.3458992862
 11
3.9166237874
 21
34.3458992862
  0
LINE
  5
7AD
100
AcDbEntity
  8
0
100
AcDbLine
 62
7
  6
CONTINUOUS
 10
4.1935437874
 20
34.3458992862
 11
4.8873777874
 21
34.3458992862
  0
LINE
  5
7AE
100
AcDbEntity
  8
0
100
AcDbLine
 62
7
  6
CONTINUOUS
 10
-5.5114192126
 20
34.3545202862
 11
-4.9646086371
 21
34.3545202862
  0
LINE
  5
7AF
100
AcDbEntity
  8
0
100
AcDbLine
 62
7
  6
CONTINUOUS
 10
10.2838257874
 20
34.5914352862
 11
9.9582137874
 21
34.5914352862
  0
LINE
  5
7B0
100
AcDbEntity
  8
0
100
AcDbLine
 62
7
  6
CONTINUOUS
 10
8.7819297874
 20
34.5914352862
 11
8.4593017874
 21
34.5914352862
  0
LINE
  5
7B1
100
AcDbEntity
  8
0
100
AcDbLine
 62
7
  6
CONTINUOUS
 10
7.3257917874
 20
34.5914352862
 11
7.0487557874
 21
34.5914352862
  0
LINE
  5
7B2
100
AcDbEntity
  8
0
100
AcDbLine
 62
7
  6
CONTINUOUS
 10
6.0523047874
 20
34.5914352862
 11
5.7382807874
 21
34.5914352862
  0
LINE
  5
7B3
100
AcDbEntity
  8
0
100
AcDbLine
 62
7
  6
CONTINUOUS
 10
4.8873777874
 20
34.5914352862
 11
3.2227907874
 21
34.5914352862
  0
LINE
  5
7B4
100
AcDbEntity
  8
0
100
AcDbLine
 62
7
  6
CONTINUOUS
 10
2.9258427874
 20
34.5914352862
 11
2.6488237874
 21
34.5914352862
  0
LINE
  5
7B5
100
AcDbEntity
  8
0
100
AcDbLine
 62
7
  6
CONTINUOUS
 10
1.3783047874
 20
34.5914352862
 11
1.1099397874
 21
34.5914352862
  0
LINE
  5
7B6
100
AcDbEntity
  8
0
100
AcDbLine
 62
7
  6
CONTINUOUS
 10
0.0791367874
 20
34.5914352862
 11
-0.2492772126
 21
34.5914352862
  0
LINE
  5
7B7
100
AcDbEntity
  8
0
100
AcDbLine
 62
7
  6
CONTINUOUS
 10
-0.7231732126
 20
34.5914352862
 11
-1.0001102126
 21
34.5914352862
  0
LINE
  5
7B8
100
AcDbEntity
  8
0
100
AcDbLine
 62
7
  6
CONTINUOUS
 10
-2.2193502126
 20
34.5914352862
 11
-3.7126752126
 21
34.5914352862
  0
LINE
  5
7B9
100
AcDbEntity
  8
0
100
AcDbLine
 62
7
  6
CONTINUOUS
 10
-4.9488470041
 20
34.5914352862
 11
-5.7884552126
 21
34.5914352862
  0
LINE
  5
7BA
100
AcDbEntity
  8
0
100
AcDbLine
 62
7
  6
CONTINUOUS
 10
-6.7991312126
 20
34.5914352862
 11
-7.1132542126
 21
34.5914352862
  0
LINE
  5
7BB
100
AcDbEntity
  8
0
100
AcDbLine
 62
7
  6
CONTINUOUS
 10
-8.1296662126
 20
34.5914352862
 11
-8.5237342126
 21
34.5914352862
  0
LINE
  5
7BC
100
AcDbEntity
  8
0
100
AcDbLine
 62
7
  6
CONTINUOUS
 10
-9.6972132126
 20
34.5914352862
 11
-10.0940962126
 21
34.5914352862
  0
LINE
  5
7BD
100
AcDbEntity
  8
0
100
AcDbLine
 62
7
  6
CONTINUOUS
 10
40.5948647874
 20
35.0664352862
 11
23.0948647874
 21
35.0664352862
  0
LINE
  5
7BE
100
AcDbEntity
  8
0
100
AcDbLine
 62
7
  6
CONTINUOUS
 10
11.0948647874
 20
35.0664352862
 11
-10.9051352126
 21
35.0664352862
  0
LINE
  5
7BF
100
AcDbEntity
  8
0
100
AcDbLine
 62
7
  6
CONTINUOUS
 10
-22.9051352126
 20
35.0664352862
 11
-40.4051352126
 21
35.0664352862
  0
LWPOLYLINE
  5
7C0
100
AcDbEntity
  8
0
100
AcDbPolyline
 62
253
  6
CONTINUOUS
 90
4
 70
0
 10
14.3661413166
 20
32.4608968662
 10
15.5123448923
 20
32.4298386006
 10
19.364628644
 20
32.2956078999
 10
21.8417809776
 20
32.1900921573
  0
LWPOLYLINE
  5
7C1
100
AcDbEntity
  8
0
100
AcDbPolyline
 62
7
  6
CONTINUOUS
 90
13
 70
0
 10
34.2417804763
 20
33.5208071418
 10
34.3260804198
 20
33.5181232764
 10
34.4082061645
 20
33.5101800246
 10
34.4881577103
 20
33.4969773863
 10
34.5662258782
 20
33.4782431067
 10
34.6421198473
 20
33.4542494406
 10
34.714967155
 20
33.4258131525
 10
34.7851063339
 20
33.3926297309
 10
34.8521988515
 20
33.3550036874
 10
34.9143566472
 20
33.3146653212
 10
34.9709503676
 20
33.2721913989
 10
35.0226093662
 20
33.2270051539
 10
35.069333643
 20
33.1791065862
  0
LINE
  5
7C2
100
AcDbEntity
  8
0
100
AcDbLine
 62
253
  6
CONTINUOUS
 10
17.2496485322
 20
35.7196744233
 11
19.1898439501
 21
35.6518069478
  0
LWPOLYLINE
  5
7C3
100
AcDbEntity
  8
0
100
AcDbPolyline
 62
253
  6
CONTINUOUS
 90
4
 70
0
 10
21.8004750999
 20
32.6395519664
 10
19.3613262513
 20
32.7434610596
 10
15.5068721675
 20
32.8778013582
 10
14.4414029525
 20
32.906682135
  0
LWPOLYLINE
  5
7C4
100
AcDbEntity
  8
0
100
AcDbPolyline
 62
7
  6
CONTINUOUS
 90
25
 70
0
 10
-4.9646086371
 20
34.3545202862
 10
-4.920400542
 20
34.3516464402
 10
-4.8775407863
 20
34.3459550159
 10
-4.8360293701
 20
34.3374460133
 10
-4.7957350316
 20
34.3260190254
 10
-4.7567890324
 20
34.3117744593
 10
-4.7195851585
 20
34.2950135365
 10
-4.6842423774
 20
34.2758176727
 10
-4.6506417216
 20
34.2541054522
 10
-4.6188200732
 20
34.22993385
 10
-4.5887297918
 20
34.2033393311
 10
-4.560418518
 20
34.1742854305
 10
-4.5340660563
 20
34.1427197278
 10
-4.5096385613
 20
34.1086605927
 10
-4.4871698784
 20
34.0720896553
 10
-4.4669413485
 20
34.0328993859
 10
-4.4491547317
 20
33.9910024708
 10
-4.4336082679
 20
33.9464862236
 10
-4.4199780183
 20
33.8995050544
 10
-4.408029046
 20
33.8501003669
 10
-4.3979962878
 20
33.7982307574
 10
-4.3902606153
 20
33.7439264248
 10
-4.3849489856
 20
33.6871974351
 10
-4.3819344415
 20
33.6280337223
 10
-4.381216983
 20
33.5664352862
  0
LINE
  5
7C5
100
AcDbEntity
  8
RACCORDO
100
AcDbLine
 62
253
  6
CONTINUOUS
 10
-41.1044265552
 20
36.1654620968
 11
-42.4133487442
 21
36.2611697837
  0
LINE
  5
7C6
100
AcDbEntity
  8
RACCORDO
100
AcDbLine
 62
253
  6
CONTINUOUS
 10
-43.9172265707
 20
36.371132522
 11
-44.5528171252
 21
36.4176065617
  0
LINE
  5
7C7
100
AcDbEntity
  8
RACCORDO
100
AcDbLine
 62
253
  6
CONTINUOUS
 10
-45.4751943817
 20
36.4850502909
 11
-46.0477229865
 21
36.5269132748
  0
LWPOLYLINE
  5
7C8
100
AcDbEntity
  8
RACCORDO
100
AcDbPolyline
 62
7
  6
CONTINUOUS
 90
19
 70
0
 10
45.7565136711
 20
-3.7202982556
 10
45.7597136953
 20
-3.7246768797
 10
45.7648760489
 20
-3.7289454084
 10
45.772000732
 20
-3.7331038416
 10
45.7811959071
 20
-3.7371876182
 10
45.7923534117
 20
-3.7411612995
 10
45.8051487582
 20
-3.7449185686
 10
45.8195758762
 20
-3.7484400529
 10
45.8356408361
 20
-3.7517451252
 10
45.8530373616
 20
-3.7547855868
 10
45.8717588258
 20
-3.7575591391
 10
45.8918118554
 20
-3.7600680808
 10
45.9129100548
 20
-3.7622711094
 10
45.9351751246
 20
-3.7641691437
 10
45.958485364
 20
-3.7657612649
 10
45.9821892746
 20
-3.7670034147
 10
46.0060696904
 20
-3.7678809069
 10
46.0303437773
 20
-3.7684084277
 10
46.0550115355
 20
-3.7685859771
  0
LINE
  5
7C9
100
AcDbEntity
  8
0
100
AcDbLine
 62
7
  6
CONTINUOUS
 10
39.4073787874
 20
34.0651852862
 11
39.4073637874
 21
31.2409452862
  0
LINE
  5
7CA
100
AcDbEntity
  8
0
100
AcDbLine
 62
7
  6
CONTINUOUS
 10
40.0948647874
 20
30.0664352862
 11
40.0948647874
 21
34.0651852862
  0
LINE
  5
7CB
100
AcDbEntity
  8
0
100
AcDbLine
 62
7
  6
CONTINUOUS
 10
40.5948647874
 20
29.0664352862
 11
40.5948647874
 21
35.0664352862
  0
LINE
  5
7CC
100
AcDbEntity
  8
0
100
AcDbLine
 62
7
  6
CONTINUOUS
 10
37.5530647874
 20
30.0664352862
 11
37.5627527874
 21
32.8598492862
  0
LINE
  5
7CD
100
AcDbEntity
  8
RACCORDO
100
AcDbLine
 62
7
  6
CONTINUOUS
 10
45.7175418668
 20
3.7734172904
 11
45.7565136711
 21
3.8531688281
  0
LWPOLYLINE
  5
7CE
100
AcDbEntity
  8
0
100
AcDbPolyline
 62
7
  6
CONTINUOUS
 90
10
 70
0
 10
-25.9910639676
 20
33.4231440869
 10
-25.9168233944
 20
33.4354542252
 10
-25.8430583017
 20
33.4453422432
 10
-25.7697686894
 20
33.4528081408
 10
-25.6970651455
 20
33.4578538166
 10
-25.6248370821
 20
33.4604773721
 10
-25.5527527352
 20
33.4606731119
 10
-25.480701517
 20
33.4584391376
 10
-25.4087940154
 20
33.4537773475
 10
-25.3370302304
 20
33.4466877419
  0
LINE
  5
7CF
100
AcDbEntity
  8
RACCORDO
100
AcDbLine
 62
7
  6
CONTINUOUS
 10
45.7565136711
 20
-3.7202982556
 11
45.7175418668
 21
-3.6405467179
  0
LWPOLYLINE
  5
7D0
100
AcDbEntity
  8
RACCORDO
100
AcDbPolyline
 62
7
  6
CONTINUOUS
 90
19
 70
0
 10
43.6115170698
 20
-3.5402841012
 10
43.6130972287
 20
-3.54489822
 10
43.6168659291
 20
-3.5494154715
 10
43.6228231712
 20
-3.5538358557
 10
43.6310801849
 20
-3.5582012704
 10
43.6415257402
 20
-3.5624698179
 10
43.6538261473
 20
-3.5665158042
 10
43.667983081
 20
-3.5703166241
 10
43.6839948664
 20
-3.5738948828
 10
43.7015227891
 20
-3.5771927025
 10
43.7205614004
 20
-3.5802074054
 10
43.7411161491
 20
-3.5829416693
 10
43.7628646669
 20
-3.5853456506
 10
43.7859469536
 20
-3.5874203241
 10
43.8102230095
 20
-3.589164715
 10
43.8349504669
 20
-3.5905260546
 10
43.8598818701
 20
-3.5914867532
 10
43.885264675
 20
-3.5920644005
 10
43.9110988814
 20
-3.5922589964
  0
LWPOLYLINE
  5
7D1
100
AcDbEntity
  8
0
100
AcDbPolyline
 62
7
  6
CONTINUOUS
 90
16
 70
0
 10
32.8164947541
 20
30.5933301418
 10
32.8815890901
 20
30.5212294486
 10
32.9514029599
 20
30.4528036439
 10
33.0259363636
 20
30.3880527279
 10
33.105666609
 20
30.3265346442
 10
33.1901163883
 20
30.2686914492
 10
33.2778537773
 20
30.2158493114
 10
33.3680864945
 20
30.1684224011
 10
33.4616068214
 20
30.125996548
 10
33.5593596787
 20
30.0886554102
 10
33.6615390025
 20
30.0561970136
 10
33.7679508567
 20
30.0288233321
 10
33.8789583534
 20
30.0072239462
 10
33.9946825297
 20
29.9916287159
 10
34.1150023485
 20
29.9818077811
 10
34.2399178096
 20
29.9777611418
  0
LWPOLYLINE
  5
7D2
100
AcDbEntity
  8
0
100
AcDbPolyline
 62
7
  6
CONTINUOUS
 90
13
 70
0
 10
33.4102761985
 20
30.9525637529
 10
33.3601809496
 20
31.0101336163
 10
33.3127060533
 20
31.0742994787
 10
33.2678515097
 20
31.1450613403
 10
33.2251481591
 20
31.222436742
 10
33.1850651612
 20
31.3064081428
 10
33.1490099951
 20
31.3969229196
 10
33.1168851232
 20
31.4943891847
 10
33.0887880831
 20
31.5983988258
 10
33.0664189669
 20
31.7076748825
 10
33.050344472
 20
31.8217917014
 10
33.0399979011
 20
31.941174936
 10
33.0353792541
 20
32.0658245862
  0
LINE
  5
7D3
100
AcDbEntity
  8
0
100
AcDbLine
 62
7
  6
CONTINUOUS
 10
32.3106537874
 20
30.0664352862
 11
30.5814627874
 21
32.4197372862
  0
LINE
  5
7D4
100
AcDbEntity
  8
0
100
AcDbLine
 62
7
  6
CONTINUOUS
 10
30.0815987874
 20
31.9285442862
 11
31.4123047874
 21
30.0664352862
  0
LWPOLYLINE
  5
7D5
100
AcDbEntity
  8
RACCORDO
100
AcDbPolyline
 62
7
  6
CONTINUOUS
 90
22
 70
0
 10
47.4798420197
 20
3.8179071798
 10
47.4766058931
 20
3.8242811131
 10
47.4707845548
 20
3.8305588674
 10
47.4623780048
 20
3.8367404429
 10
47.4512815482
 20
3.8428736099
 10
47.4375998799
 20
3.8489105981
 10
47.4216470846
 20
3.8547080959
 10
47.4033977169
 20
3.8602430179
 10
47.3828772223
 20
3.8655384495
 10
47.3604760216
 20
3.8705203355
 10
47.3362471099
 20
3.8751763629
 10
47.3101374922
 20
3.8795188447
 10
47.2823786046
 20
3.883510665
 10
47.2528835538
 20
3.887160859
 10
47.2217392332
 20
3.8904603916
 10
47.189437758
 20
3.8933450407
 10
47.1558629574
 20
3.8958065617
 10
47.1211310023
 20
3.8978531993
 10
47.0860825212
 20
3.8994454657
 10
47.0509977237
 20
3.9005701982
 10
47.0155964002
 20
3.9012405595
 10
46.9798785508
 20
3.9014565496
  0
LWPOLYLINE
  5
7D6
100
AcDbEntity
  8
0
100
AcDbPolyline
 62
7
  6
CONTINUOUS
 90
16
 70
0
 10
35.6631291985
 20
33.5391021973
 10
35.5980159605
 20
33.6112255588
 10
35.5281901662
 20
33.6796682373
 10
35.4536518154
 20
33.7444302329
 10
35.3739234026
 20
33.8059528293
 10
35.2894824335
 20
33.8637947428
 10
35.2017614251
 20
33.9166321218
 10
35.1115556351
 20
33.964049933
 10
35.0180698058
 20
34.0064632097
 10
34.9203506822
 20
34.0437932005
 10
34.8182031955
 20
34.0762433771
 10
34.7118224143
 20
34.1036102678
 10
34.6008402901
 20
34.1252047063
 10
34.4851341397
 20
34.1407969703
 10
34.3648266462
 20
34.1506167822
 10
34.2399178096
 20
34.1546641418
  0
LWPOLYLINE
  5
7D7
100
AcDbEntity
  8
0
100
AcDbPolyline
 62
7
  6
CONTINUOUS
 90
13
 70
0
 10
35.069333643
 20
33.1791065862
 10
35.1194274687
 20
33.121543041
 10
35.1669009576
 20
33.0573829581
 10
35.2117541098
 20
32.9866263376
 10
35.2544560567
 20
32.9092555469
 10
35.2945376669
 20
32.8252882186
 10
35.3305915456
 20
32.73477725
 10
35.3627150105
 20
32.6373171702
 10
35.390810744
 20
32.5333134502
 10
35.4131793976
 20
32.4240354008
 10
35.4292545221
 20
32.3099061254
 10
35.4396025669
 20
32.1905025206
 10
35.4442235319
 20
32.0658245862
  0
LINE
  5
7D8
100
AcDbEntity
  8
0
100
AcDbLine
 62
7
  6
CONTINUOUS
 10
39.4073637874
 20
31.2409452862
 11
37.5633667874
 21
34.0651852862
  0
LINE
  5
7D9
100
AcDbEntity
  8
0
100
AcDbLine
 62
7
  6
CONTINUOUS
 10
37.5627527874
 20
32.8598492862
 11
39.3812667874
 21
30.0664352862
  0
ARC
  5
7DA
100
AcDbEntity
  8
0
100
AcDbCircle
 62
7
  6
CONTINUOUS
 10
-35.6018139466
 20
-35.6302434478
 40
10.5
100
AcDbArc
 50
184.181994037
 51
265.8180028832
  0
ARC
  5
7DB
100
AcDbEntity
  8
DRAFT
100
AcDbCircle
 62
7
  6
CONTINUOUS
 10
-35.601813947
 20
-35.6302434482
 40
10.4737961104
100
AcDbArc
 50
184.1819942475
 51
265.8180057525
  0
ARC
  5
7DC
100
AcDbEntity
  8
RACCORDO
100
AcDbCircle
 62
253
  6
CONTINUOUS
 10
-35.601813947
 20
-35.6302434482
 40
10.3990538137
100
AcDbArc
 50
184.1819942475
 51
265.8180057525
  0
ARC
  5
7DD
100
AcDbEntity
  8
RACCORDO
100
AcDbCircle
 62
253
  6
CONTINUOUS
 10
-35.601813947
 20
-35.6302434482
 40
9.8997390464
100
AcDbArc
 50
184.1819942475
 51
265.8180057525
  0
ARC
  5
7DE
100
AcDbEntity
  8
RACCORDO
100
AcDbCircle
 62
253
  6
CONTINUOUS
 10
-35.601813947
 20
-35.6302434482
 40
8.9748993522
100
AcDbArc
 50
184.1819942475
 51
265.8180057525
  0
ARC
  5
7DF
100
AcDbEntity
  8
RACCORDO
100
AcDbCircle
 62
253
  6
CONTINUOUS
 10
-35.601813947
 20
-35.6302434482
 40
8.6760409428
100
AcDbArc
 50
184.1819942472
 51
265.8180057527
  0
ARC
  5
7E0
100
AcDbEntity
  8
RACCORDO
100
AcDbCircle
 62
253
  6
CONTINUOUS
 10
-35.601813947
 20
-35.6302434482
 40
8.6364703937
100
AcDbArc
 50
184.1819942473
 51
265.8180057527
  0
ARC
  5
7E1
100
AcDbEntity
  8
RACCORDO
100
AcDbCircle
 62
253
  6
CONTINUOUS
 10
-35.601813947
 20
-35.6302434482
 40
8.3376119843
100
AcDbArc
 50
184.1819942475
 51
265.8180057525
  0
ARC
  5
7E2
100
AcDbEntity
  8
RACCORDO
100
AcDbCircle
 62
253
  6
CONTINUOUS
 10
-35.601813947
 20
-35.6302434482
 40
6.8297193088
100
AcDbArc
 50
184.1819942475
 51
265.8180057525
  0
ARC
  5
7E3
100
AcDbEntity
  8
RACCORDO
100
AcDbCircle
 62
253
  6
CONTINUOUS
 10
-35.601813947
 20
-35.6302434482
 40
6.5297650002
100
AcDbArc
 50
184.1819942475
 51
265.8180057525
  0
ARC
  5
7E4
100
AcDbEntity
  8
RACCORDO
100
AcDbCircle
 62
253
  6
CONTINUOUS
 10
-35.601813947
 20
-35.6302434482
 40
6.517150432
100
AcDbArc
 50
184.1819942475
 51
265.8180057525
  0
ARC
  5
7E5
100
AcDbEntity
  8
RACCORDO
100
AcDbCircle
 62
253
  6
CONTINUOUS
 10
-35.601813947
 20
-35.6302434482
 40
5.5173027369
100
AcDbArc
 50
184.1819942475
 51
265.8180057525
  0
CIRCLE
  5
7E6
100
AcDbEntity
  8
RACCORDO
100
AcDbCircle
 62
253
  6
CONTINUOUS
 10
-17.9051352126
 20
-31.9335647138
 40
4.25
  0
CIRCLE
  5
7E7
100
AcDbEntity
  8
RACCORDO
100
AcDbCircle
 62
7
  6
CONTINUOUS
 10
-17.9051352126
 20
-31.9335647138
 40
3.75
  0
ARC
  5
7E8
100
AcDbEntity
  8
RACCORDO
100
AcDbCircle
 62
253
  6
CONTINUOUS
 10
-22.6657015577
 20
-23.1134825687
 40
1.2437138263
100
AcDbArc
 50
182.6662470766
 51
267.382022322
  0
ARC
  5
7E9
100
AcDbEntity
  8
DRAFT
100
AcDbCircle
 62
7
  6
CONTINUOUS
 10
-21.9051352126
 20
-21.9335647138
 40
1.2
100
AcDbArc
 50
180.0
 51
270.0
  0
ARC
  5
7EA
100
AcDbEntity
  8
RACCORDO
100
AcDbCircle
 62
253
  6
CONTINUOUS
 10
-22.6657015577
 20
-23.1134825687
 40
0.7437899788
100
AcDbArc
 50
182.6662470766
 51
267.3820223219
  0
ARC
  5
7EB
100
AcDbEntity
  8
0
100
AcDbCircle
 62
7
  6
CONTINUOUS
 10
-26.7551352126
 20
-9.4335647138
 40
0.3064577248
100
AcDbArc
 50
105.0
 51
255.0
  0
ARC
  5
7EC
100
AcDbEntity
  8
0
100
AcDbCircle
 62
7
  6
CONTINUOUS
 10
-26.7551352126
 20
-12.9335647138
 40
0.3064577248
100
AcDbArc
 50
105.0
 51
255.0
  0
ARC
  5
7ED
100
AcDbEntity
  8
0
100
AcDbCircle
 62
7
  6
CONTINUOUS
 10
-26.7551352126
 20
-12.9335647138
 40
0.3
100
AcDbArc
 50
105.0
 51
255.0
  0
ARC
  5
7EE
100
AcDbEntity
  8
0
100
AcDbCircle
 62
7
  6
CONTINUOUS
 10
-26.7551352126
 20
-9.4335647138
 40
0.3
100
AcDbArc
 50
105.0
 51
255.0
  0
ARC
  5
7EF
100
AcDbEntity
  8
ASSI
100
AcDbCircle
 62
7
  6
CONTINUOUS
 10
-4.4875792126
 20
-33.9335647138
 40
2.5499986575
100
AcDbArc
 50
87.7525289614
 51
272.247470793
  0
ARC
  5
7F0
100
AcDbEntity
  8
ASSI
100
AcDbCircle
 62
7
  6
CONTINUOUS
 10
-8.8726892126
 20
-33.9335647138
 40
2.5499985399
100
AcDbArc
 50
87.7525290943
 51
272.2474708964
  0
ARC
  5
7F1
100
AcDbEntity
  8
0
100
AcDbCircle
 62
7
  6
CONTINUOUS
 10
0.0155077874
 20
-38.8796577138
 40
2.3390187052
100
AcDbArc
 50
47.2312712626
 51
84.2012841963
  0
ARC
  5
7F2
100
AcDbEntity
  8
ASSI
100
AcDbCircle
 62
7
  6
CONTINUOUS
 10
-4.4875792126
 20
-33.9335647138
 40
1.7999999246
100
AcDbArc
 50
86.8152613297
 51
167.9752999293
  0
ARC
  5
7F3
100
AcDbEntity
  8
ASSI
100
AcDbCircle
 62
7
  6
CONTINUOUS
 10
-8.8726892126
 20
-33.9335647138
 40
1.7999999246
100
AcDbArc
 50
90.4941750873
 51
273.1847386516
  0
ARC
  5
7F4
100
AcDbEntity
  8
ASSI
100
AcDbCircle
 62
7
  6
CONTINUOUS
 10
-4.4875792126
 20
-33.9335647138
 40
1.7999968808
100
AcDbArc
 50
192.0247203293
 51
273.1847445565
  0
ARC
  5
7F5
100
AcDbEntity
  8
0
100
AcDbCircle
 62
7
  6
CONTINUOUS
 10
-9.4051352126
 20
-26.7835647138
 40
0.3064577248
100
AcDbArc
 50
195.0
 51
345.0
  0
ARC
  5
7F6
100
AcDbEntity
  8
0
100
AcDbCircle
 62
7
  6
CONTINUOUS
 10
-12.9051352126
 20
-26.7835647138
 40
0.3064577248
100
AcDbArc
 50
195.0
 51
345.0
  0
ARC
  5
7F7
100
AcDbEntity
  8
0
100
AcDbCircle
 62
7
  6
CONTINUOUS
 10
-9.4051352126
 20
-26.7835647138
 40
0.3
100
AcDbArc
 50
195.0
 51
345.0
  0
ARC
  5
7F8
100
AcDbEntity
  8
0
100
AcDbCircle
 62
7
  6
CONTINUOUS
 10
-12.9051352126
 20
-26.7835647138
 40
0.3
100
AcDbArc
 50
195.0
 51
345.0
  0
ARC
  5
7F9
100
AcDbEntity
  8
0
100
AcDbCircle
 62
7
  6
CONTINUOUS
 10
-452.4051352181
 20
0.0664352863
 40
500.0000000055
100
AcDbArc
 50
355.8180057574
 51
4.1819942422
  0
ARC
  5
7FA
100
AcDbEntity
  8
DRAFT
100
AcDbCircle
 62
7
  6
CONTINUOUS
 10
-452.4051352126
 20
0.0664352862
 40
499.9737961104
100
AcDbArc
 50
355.8180057525
 51
359.5989052471
  0
ARC
  5
7FB
100
AcDbEntity
  8
DRAFT
100
AcDbCircle
 62
7
  6
CONTINUOUS
 10
-452.4051352126
 20
0.0664352862
 40
499.9737961104
100
AcDbArc
 50
0.4010947529
 51
4.1819942475
  0
ARC
  5
7FC
100
AcDbEntity
  8
RACCORDO
100
AcDbCircle
 62
253
  6
CONTINUOUS
 10
-452.4051352126
 20
0.0664352862
 40
499.8990538137
100
AcDbArc
 50
0.4299778573
 51
4.1819942475
  0
ARC
  5
7FD
100
AcDbEntity
  8
RACCORDO
100
AcDbCircle
 62
253
  6
CONTINUOUS
 10
-452.4051352126
 20
0.0664352862
 40
499.8990538137
100
AcDbArc
 50
355.8180057525
 51
359.5700221427
  0
ARC
  5
7FE
100
AcDbEntity
  8
RACCORDO
100
AcDbCircle
 62
253
  6
CONTINUOUS
 10
-474.9051352126
 20
0.0664352862
 40
499.5437138263
100
AcDbArc
 50
357.3337529234
 51
357.4184615144
  0
ARC
  5
7FF
100
AcDbEntity
  8
RACCORDO
100
AcDbCircle
 62
253
  6
CONTINUOUS
 10
-474.9051352126
 20
0.0664352862
 40
499.5437138263
100
AcDbArc
 50
2.5815384856
 51
2.6662470766
  0
ARC
  5
800
100
AcDbEntity
  8
DRAFT
100
AcDbCircle
 62
7
  6
CONTINUOUS
 10
-452.4051352126
 20
0.0664352862
 40
499.5
100
AcDbArc
 50
359.5985247862
 51
0.4014752138
  0
ARC
  5
801
100
AcDbEntity
  8
RACCORDO
100
AcDbCircle
 62
253
  6
CONTINUOUS
 10
-452.4051352126
 20
0.0664352862
 40
499.3997390464
100
AcDbArc
 50
355.8180057525
 51
359.5600063932
  0
ARC
  5
802
100
AcDbEntity
  8
RACCORDO
100
AcDbCircle
 62
253
  6
CONTINUOUS
 10
-452.4051352126
 20
0.0664352862
 40
499.3997390464
100
AcDbArc
 50
0.4399936068
 51
4.1819942475
  0
ARC
  5
803
100
AcDbEntity
  8
RACCORDO
100
AcDbCircle
 62
253
  6
CONTINUOUS
 10
-474.9051352126
 20
0.0664352862
 40
499.0437899788
100
AcDbArc
 50
2.5841263306
 51
2.6662470766
  0
ARC
  5
804
100
AcDbEntity
  8
RACCORDO
100
AcDbCircle
 62
253
  6
CONTINUOUS
 10
-474.9051352126
 20
0.0664352862
 40
499.0437899788
100
AcDbArc
 50
357.3337529234
 51
357.4158736694
  0
ARC
  5
805
100
AcDbEntity
  8
RACCORDO
100
AcDbCircle
 62
253
  6
CONTINUOUS
 10
-452.4051352126
 20
0.0664352862
 40
498.4748993522
100
AcDbArc
 50
355.8180057525
 51
359.55919004
  0
ARC
  5
806
100
AcDbEntity
  8
RACCORDO
100
AcDbCircle
 62
253
  6
CONTINUOUS
 10
-452.4051352126
 20
0.0664352862
 40
498.4748993522
100
AcDbArc
 50
0.44080996
 51
4.1819942475
  0
ARC
  5
807
100
AcDbEntity
  8
RACCORDO
100
AcDbCircle
 62
253
  6
CONTINUOUS
 10
-452.4051352126
 20
0.0664352862
 40
498.1760409428
100
AcDbArc
 50
355.8180057525
 51
359.5644793776
  0
ARC
  5
808
100
AcDbEntity
  8
RACCORDO
100
AcDbCircle
 62
253
  6
CONTINUOUS
 10
-452.4051352126
 20
0.0664352862
 40
498.1760409428
100
AcDbArc
 50
0.4355206224
 51
4.1819942475
  0
ARC
  5
809
100
AcDbEntity
  8
RACCORDO
100
AcDbCircle
 62
253
  6
CONTINUOUS
 10
-452.4051352126
 20
0.0664352862
 40
498.1364703937
100
AcDbArc
 50
355.8180057525
 51
359.5736180814
  0
ARC
  5
80A
100
AcDbEntity
  8
RACCORDO
100
AcDbCircle
 62
253
  6
CONTINUOUS
 10
-452.4051352126
 20
0.0664352862
 40
498.1364703937
100
AcDbArc
 50
0.4263819186
 51
4.1819942475
  0
ARC
  5
80B
100
AcDbEntity
  8
RACCORDO
100
AcDbCircle
 62
253
  6
CONTINUOUS
 10
-452.4051352126
 20
0.0664352862
 40
497.8376119843
100
AcDbArc
 50
0.4210803341
 51
4.1819942475
  0
ARC
  5
80C
100
AcDbEntity
  8
RACCORDO
100
AcDbCircle
 62
253
  6
CONTINUOUS
 10
-452.4051352126
 20
0.0664352862
 40
497.8376119843
100
AcDbArc
 50
355.8180057525
 51
359.5789196659
  0
ARC
  5
80D
100
AcDbEntity
  8
RACCORDO
100
AcDbCircle
 62
253
  6
CONTINUOUS
 10
-452.4051352126
 20
0.0664352862
 40
496.3297193088
100
AcDbArc
 50
0.4223596358
 51
4.1819942475
  0
ARC
  5
80E
100
AcDbEntity
  8
RACCORDO
100
AcDbCircle
 62
253
  6
CONTINUOUS
 10
-452.4051352126
 20
0.0664352862
 40
496.3297193088
100
AcDbArc
 50
355.8180057525
 51
359.5776403642
  0
ARC
  5
80F
100
AcDbEntity
  8
RACCORDO
100
AcDbCircle
 62
253
  6
CONTINUOUS
 10
-452.4051352126
 20
0.0664352862
 40
496.0297650002
100
AcDbArc
 50
355.8180057525
 51
359.5833886707
  0
ARC
  5
810
100
AcDbEntity
  8
RACCORDO
100
AcDbCircle
 62
253
  6
CONTINUOUS
 10
-452.4051352126
 20
0.0664352862
 40
496.0297650002
100
AcDbArc
 50
0.4166113293
 51
4.1819942475
  0
ARC
  5
811
100
AcDbEntity
  8
DRAFT
100
AcDbCircle
 62
7
  6
CONTINUOUS
 10
-452.4051352126
 20
0.0664352862
 40
496.0192005714
100
AcDbArc
 50
359.5957073996
 51
0.4042926004
  0
ARC
  5
812
100
AcDbEntity
  8
RACCORDO
100
AcDbCircle
 62
253
  6
CONTINUOUS
 10
-452.4051352126
 20
0.0664352862
 40
496.017150432
100
AcDbArc
 50
355.8180057525
 51
4.1819942475
  0
ARC
  5
813
100
AcDbEntity
  8
RACCORDO
100
AcDbCircle
 62
253
  6
CONTINUOUS
 10
-452.4051352126
 20
0.0664352862
 40
495.0173027369
100
AcDbArc
 50
355.8180057525
 51
4.1819942475
  0
ARC
  5
814
100
AcDbEntity
  8
0
100
AcDbCircle
 62
7
  6
CONTINUOUS
 10
-26.7551352126
 20
13.0664352862
 40
0.3064577248
100
AcDbArc
 50
105.0
 51
255.0
  0
ARC
  5
815
100
AcDbEntity
  8
0
100
AcDbCircle
 62
7
  6
CONTINUOUS
 10
-26.7551352126
 20
9.5664352862
 40
0.3064577248
100
AcDbArc
 50
105.0
 51
255.0
  0
ARC
  5
816
100
AcDbEntity
  8
0
100
AcDbCircle
 62
7
  6
CONTINUOUS
 10
-26.7551352126
 20
9.5664352862
 40
0.3
100
AcDbArc
 50
105.0
 51
255.0
  0
ARC
  5
817
100
AcDbEntity
  8
0
100
AcDbCircle
 62
7
  6
CONTINUOUS
 10
-26.7551352126
 20
13.0664352862
 40
0.3
100
AcDbArc
 50
105.0
 51
255.0
  0
ARC
  5
818
100
AcDbEntity
  8
0
100
AcDbCircle
 62
7
  6
CONTINUOUS
 10
-35.6018139466
 20
35.7631140202
 40
10.5
100
AcDbArc
 50
94.1819943567
 51
175.8180066901
  0
ARC
  5
819
100
AcDbEntity
  8
DRAFT
100
AcDbCircle
 62
7
  6
CONTINUOUS
 10
-35.601813947
 20
35.7631140207
 40
10.4737961104
100
AcDbArc
 50
94.1819942475
 51
175.8180057525
  0
ARC
  5
81A
100
AcDbEntity
  8
RACCORDO
100
AcDbCircle
 62
253
  6
CONTINUOUS
 10
-35.601813947
 20
35.7631140207
 40
10.3990538137
100
AcDbArc
 50
94.1819942475
 51
175.8180057525
  0
ARC
  5
81B
100
AcDbEntity
  8
RACCORDO
100
AcDbCircle
 62
253
  6
CONTINUOUS
 10
-35.601813947
 20
35.7631140207
 40
9.8997390464
100
AcDbArc
 50
94.1819942475
 51
175.8180057525
  0
ARC
  5
81C
100
AcDbEntity
  8
RACCORDO
100
AcDbCircle
 62
253
  6
CONTINUOUS
 10
-35.601813947
 20
35.7631140207
 40
8.9748993522
100
AcDbArc
 50
94.1819942475
 51
175.8180057525
  0
ARC
  5
81D
100
AcDbEntity
  8
RACCORDO
100
AcDbCircle
 62
253
  6
CONTINUOUS
 10
-35.601813947
 20
35.7631140207
 40
8.6760409428
100
AcDbArc
 50
94.1819942472
 51
175.8180057527
  0
ARC
  5
81E
100
AcDbEntity
  8
RACCORDO
100
AcDbCircle
 62
253
  6
CONTINUOUS
 10
-35.601813947
 20
35.7631140207
 40
8.6364703937
100
AcDbArc
 50
94.1819942473
 51
175.8180057527
  0
ARC
  5
81F
100
AcDbEntity
  8
RACCORDO
100
AcDbCircle
 62
253
  6
CONTINUOUS
 10
-35.601813947
 20
35.7631140207
 40
8.3376119843
100
AcDbArc
 50
94.1819942475
 51
175.8180057525
  0
ARC
  5
820
100
AcDbEntity
  8
RACCORDO
100
AcDbCircle
 62
253
  6
CONTINUOUS
 10
-35.601813947
 20
35.7631140207
 40
6.8297193088
100
AcDbArc
 50
94.1819942475
 51
175.8180057525
  0
ARC
  5
821
100
AcDbEntity
  8
RACCORDO
100
AcDbCircle
 62
253
  6
CONTINUOUS
 10
-35.601813947
 20
35.7631140207
 40
6.5297650002
100
AcDbArc
 50
94.1819942475
 51
175.8180057525
  0
ARC
  5
822
100
AcDbEntity
  8
RACCORDO
100
AcDbCircle
 62
253
  6
CONTINUOUS
 10
-35.601813947
 20
35.7631140207
 40
6.517150432
100
AcDbArc
 50
94.1819942475
 51
175.8180057525
  0
ARC
  5
823
100
AcDbEntity
  8
RACCORDO
100
AcDbCircle
 62
253
  6
CONTINUOUS
 10
-35.601813947
 20
35.7631140207
 40
5.5173027369
100
AcDbArc
 50
94.1819942475
 51
175.8180057525
  0
CIRCLE
  5
824
100
AcDbEntity
  8
RACCORDO
100
AcDbCircle
 62
253
  6
CONTINUOUS
 10
-17.9051352126
 20
32.0664352862
 40
4.25
  0
CIRCLE
  5
825
100
AcDbEntity
  8
RACCORDO
100
AcDbCircle
 62
7
  6
CONTINUOUS
 10
-17.9051352126
 20
32.0664352862
 40
3.75
  0
ARC
  5
826
100
AcDbEntity
  8
RACCORDO
100
AcDbCircle
 62
253
  6
CONTINUOUS
 10
-22.6657015577
 20
23.2463531412
 40
1.2437138263
100
AcDbArc
 50
92.617977678
 51
177.3337529234
  0
ARC
  5
827
100
AcDbEntity
  8
DRAFT
100
AcDbCircle
 62
7
  6
CONTINUOUS
 10
-21.9051352126
 20
22.0664352862
 40
1.2
100
AcDbArc
 50
90.0
 51
180.0
  0
ARC
  5
828
100
AcDbEntity
  8
RACCORDO
100
AcDbCircle
 62
253
  6
CONTINUOUS
 10
-22.6657015577
 20
23.2463531412
 40
0.7437899788
100
AcDbArc
 50
92.6179776781
 51
177.3337529234
  0
ARC
  5
829
100
AcDbEntity
  8
0
100
AcDbCircle
 62
7
  6
CONTINUOUS
 10
-9.4051352126
 20
26.9164352862
 40
0.3064577248
100
AcDbArc
 50
15.0
 51
165.0
  0
ARC
  5
82A
100
AcDbEntity
  8
0
100
AcDbCircle
 62
7
  6
CONTINUOUS
 10
-12.9051352126
 20
26.9164352862
 40
0.3064577248
100
AcDbArc
 50
15.0
 51
165.0
  0
ARC
  5
82B
100
AcDbEntity
  8
0
100
AcDbCircle
 62
7
  6
CONTINUOUS
 10
-12.9051352126
 20
26.9164352862
 40
0.3
100
AcDbArc
 50
15.0
 51
165.0
  0
ARC
  5
82C
100
AcDbEntity
  8
0
100
AcDbCircle
 62
7
  6
CONTINUOUS
 10
-9.4051352126
 20
26.9164352862
 40
0.3
100
AcDbArc
 50
15.0
 51
165.0
  0
ARC
  5
82D
100
AcDbEntity
  8
0
100
AcDbCircle
 62
7
  6
CONTINUOUS
 10
0.0948647875
 20
-452.4335647088
 40
499.9999999951
100
AcDbArc
 50
85.8180057504
 51
94.1819942498
  0
ARC
  5
82E
100
AcDbEntity
  8
DRAFT
100
AcDbCircle
 62
7
  6
CONTINUOUS
 10
0.0948647874
 20
-452.4335647138
 40
499.9737961104
100
AcDbArc
 50
85.8180057525
 51
94.1819942475
  0
ARC
  5
82F
100
AcDbEntity
  8
RACCORDO
100
AcDbCircle
 62
253
  6
CONTINUOUS
 10
0.0948647874
 20
-452.4335647138
 40
499.8990538137
100
AcDbArc
 50
85.8180057525
 51
94.1819942475
  0
ARC
  5
830
100
AcDbEntity
  8
RACCORDO
100
AcDbCircle
 62
253
  6
CONTINUOUS
 10
0.0948647874
 20
-474.5335647138
 40
499.5437138263
100
AcDbArc
 50
87.3820223219
 51
87.4184615144
  0
ARC
  5
831
100
AcDbEntity
  8
RACCORDO
100
AcDbCircle
 62
253
  6
CONTINUOUS
 10
0.0948647874
 20
-474.5335647138
 40
499.5437138263
100
AcDbArc
 50
92.5815384856
 51
92.6179776781
  0
ARC
  5
832
100
AcDbEntity
  8
RACCORDO
100
AcDbCircle
 62
253
  6
CONTINUOUS
 10
0.0948647874
 20
-452.4335647138
 40
499.3997390464
100
AcDbArc
 50
85.8180057525
 51
94.1819942475
  0
ARC
  5
833
100
AcDbEntity
  8
RACCORDO
100
AcDbCircle
 62
253
  6
CONTINUOUS
 10
0.0948647874
 20
-474.5335647138
 40
499.0437899788
100
AcDbArc
 50
92.5841263306
 51
92.6179776781
  0
ARC
  5
834
100
AcDbEntity
  8
RACCORDO
100
AcDbCircle
 62
253
  6
CONTINUOUS
 10
0.0948647874
 20
-474.5335647138
 40
499.0437899788
100
AcDbArc
 50
87.3820223219
 51
87.4158736694
  0
ARC
  5
835
100
AcDbEntity
  8
RACCORDO
100
AcDbCircle
 62
253
  6
CONTINUOUS
 10
0.0948647874
 20
-452.4335647138
 40
498.4748993522
100
AcDbArc
 50
85.8180057525
 51
94.1819942475
  0
ARC
  5
836
100
AcDbEntity
  8
RACCORDO
100
AcDbCircle
 62
253
  6
CONTINUOUS
 10
0.0948647874
 20
-452.4335647138
 40
498.1760409428
100
AcDbArc
 50
85.8180057525
 51
94.1819942475
  0
ARC
  5
837
100
AcDbEntity
  8
RACCORDO
100
AcDbCircle
 62
253
  6
CONTINUOUS
 10
0.0948647874
 20
-452.4335647138
 40
498.1364703937
100
AcDbArc
 50
85.8180057525
 51
94.1819942475
  0
ARC
  5
838
100
AcDbEntity
  8
RACCORDO
100
AcDbCircle
 62
253
  6
CONTINUOUS
 10
0.0948647874
 20
-452.4335647138
 40
497.8376119843
100
AcDbArc
 50
85.8180057525
 51
94.1819942475
  0
ARC
  5
839
100
AcDbEntity
  8
RACCORDO
100
AcDbCircle
 62
253
  6
CONTINUOUS
 10
0.0948647874
 20
-452.4335647138
 40
496.3297193088
100
AcDbArc
 50
85.8180057525
 51
94.1819942475
  0
ARC
  5
83A
100
AcDbEntity
  8
RACCORDO
100
AcDbCircle
 62
253
  6
CONTINUOUS
 10
0.0948647874
 20
-452.4335647138
 40
496.0297650002
100
AcDbArc
 50
85.8180057525
 51
94.1819942475
  0
ARC
  5
83B
100
AcDbEntity
  8
RACCORDO
100
AcDbCircle
 62
253
  6
CONTINUOUS
 10
0.0948647874
 20
-452.4335647138
 40
496.017150432
100
AcDbArc
 50
85.8180057525
 51
94.1819942475
  0
ARC
  5
83C
100
AcDbEntity
  8
RACCORDO
100
AcDbCircle
 62
253
  6
CONTINUOUS
 10
0.0948647874
 20
-452.4335647138
 40
495.0173027369
100
AcDbArc
 50
85.8180057525
 51
94.1819942475
  0
ARC
  5
83D
100
AcDbEntity
  8
0
100
AcDbCircle
 62
7
  6
CONTINUOUS
 10
0.0948647874
 20
-33.9335647138
 40
2.6237424326
100
AcDbArc
 50
292.0885393584
 51
273.4297246723
  0
ARC
  5
83E
100
AcDbEntity
  8
0
100
AcDbCircle
 62
7
  6
CONTINUOUS
 10
0.1995867874
 20
-38.5007887138
 40
2.3109495123
100
AcDbArc
 50
45.4348886633
 51
67.5658613447
  0
CIRCLE
  5
83F
100
AcDbEntity
  8
0
100
AcDbCircle
 62
7
  6
CONTINUOUS
 10
0.0948647874
 20
-33.9335647138
 40
2.20376
  0
ARC
  5
840
100
AcDbEntity
  8
0
100
AcDbCircle
 62
7
  6
CONTINUOUS
 10
0.0948647874
 20
-33.9335647138
 40
1.9709567246
100
AcDbArc
 50
299.3041457634
 51
44.9957848293
  0
ARC
  5
841
100
AcDbEntity
  8
0
100
AcDbCircle
 62
7
  6
CONTINUOUS
 10
0.0948647874
 20
-33.9335647138
 40
1.9709563643
100
AcDbArc
 50
134.9002846268
 51
240.6958542366
  0
ARC
  5
842
100
AcDbEntity
  8
0
100
AcDbCircle
 62
7
  6
CONTINUOUS
 10
0.0948647874
 20
-33.9335647138
 40
1.5790921275
100
AcDbArc
 50
148.0267086216
 51
240.6958772397
  0
ARC
  5
843
100
AcDbEntity
  8
0
100
AcDbCircle
 62
7
  6
CONTINUOUS
 10
0.0948647874
 20
-33.9335647138
 40
1.5790919977
100
AcDbArc
 50
299.3041227603
 51
31.9732907039
  0
ARC
  5
844
100
AcDbEntity
  8
0
100
AcDbCircle
 62
7
  6
CONTINUOUS
 10
5.3348647874
 20
-33.9335647138
 40
0.2400005268
100
AcDbArc
 50
135.0
 51
225.0
  0
ARC
  5
845
100
AcDbEntity
  8
0
100
AcDbCircle
 62
7
  6
CONTINUOUS
 10
8.0948647874
 20
-34.4735647138
 40
0.4799999985
100
AcDbArc
 50
284.477512232
 51
74.2594770322
  0
ARC
  5
846
100
AcDbEntity
  8
0
100
AcDbCircle
 62
7
  6
CONTINUOUS
 10
8.0948647874
 20
-34.4735647138
 40
0.4799997988
100
AcDbArc
 50
193.0028837084
 51
255.5224816136
  0
ARC
  5
847
100
AcDbEntity
  8
0
100
AcDbCircle
 62
7
  6
CONTINUOUS
 10
8.0948647874
 20
-33.8135647138
 40
0.4200003869
100
AcDbArc
 50
50.0000079668
 51
73.3984661354
  0
ARC
  5
848
100
AcDbEntity
  8
0
100
AcDbCircle
 62
7
  6
CONTINUOUS
 10
8.0948647874
 20
-33.8135647138
 40
0.4199997739
100
AcDbArc
 50
106.6015587956
 51
256.2707876568
  0
ARC
  5
849
100
AcDbEntity
  8
0
100
AcDbCircle
 62
7
  6
CONTINUOUS
 10
8.0948647874
 20
-36.6935647138
 40
0.2400005268
100
AcDbArc
 50
225.0
 51
315.0
  0
ARC
  5
84A
100
AcDbEntity
  8
0
100
AcDbCircle
 62
7
  6
CONTINUOUS
 10
10.8548647874
 20
-33.9335647138
 40
0.2400005268
100
AcDbArc
 50
315.0
 51
45.0
  0
ARC
  5
84B
100
AcDbEntity
  8
0
100
AcDbCircle
 62
7
  6
CONTINUOUS
 10
9.1598647874
 20
-33.5735647138
 40
0.179999933
100
AcDbArc
 50
15.0951225334
 51
164.9048772555
  0
ARC
  5
84C
100
AcDbEntity
  8
0
100
AcDbCircle
 62
7
  6
CONTINUOUS
 10
7.0298647874
 20
-33.5735647138
 40
0.179999933
100
AcDbArc
 50
15.0951227291
 51
164.9048774511
  0
ARC
  5
84D
100
AcDbEntity
  8
0
100
AcDbCircle
 62
7
  6
CONTINUOUS
 10
9.1274977874
 20
-34.3535647138
 40
0.1200004254
100
AcDbArc
 50
164.9052676087
 51
270.0
  0
ARC
  5
84E
100
AcDbEntity
  8
0
100
AcDbCircle
 62
7
  6
CONTINUOUS
 10
6.9974977874
 20
-34.3535647138
 40
0.1200004254
100
AcDbArc
 50
164.9052676867
 51
270.0
  0
ARC
  5
84F
100
AcDbEntity
  8
0
100
AcDbCircle
 62
7
  6
CONTINUOUS
 10
9.1922317874
 20
-34.3535647138
 40
0.12
100
AcDbArc
 50
270.0
 51
15.0953334413
  0
ARC
  5
850
100
AcDbEntity
  8
0
100
AcDbCircle
 62
7
  6
CONTINUOUS
 10
8.9978647874
 20
-34.8335647138
 40
0.12
100
AcDbArc
 50
90.0
 51
180.0
  0
ARC
  5
851
100
AcDbEntity
  8
0
100
AcDbCircle
 62
7
  6
CONTINUOUS
 10
9.3218647874
 20
-34.8335647138
 40
0.12
100
AcDbArc
 50
0.0
 51
90.0
  0
ARC
  5
852
100
AcDbEntity
  8
0
100
AcDbCircle
 62
7
  6
CONTINUOUS
 10
7.0622317874
 20
-34.3535647138
 40
0.12
100
AcDbArc
 50
270.0
 51
15.0953334413
  0
ARC
  5
853
100
AcDbEntity
  8
0
100
AcDbCircle
 62
7
  6
CONTINUOUS
 10
6.8678647874
 20
-34.8335647138
 40
0.12
100
AcDbArc
 50
90.0
 51
180.0
  0
ARC
  5
854
100
AcDbEntity
  8
0
100
AcDbCircle
 62
7
  6
CONTINUOUS
 10
7.1918647874
 20
-34.8335647138
 40
0.12
100
AcDbArc
 50
0.0
 51
90.0
  0
ARC
  5
855
100
AcDbEntity
  8
0
100
AcDbCircle
 62
7
  6
CONTINUOUS
 10
6.8663307874
 20
-33.1235647138
 40
0.12
100
AcDbArc
 50
90.0
 51
270.0
  0
ARC
  5
856
100
AcDbEntity
  8
0
100
AcDbCircle
 62
7
  6
CONTINUOUS
 10
8.0948647874
 20
-35.2835647138
 40
0.12
100
AcDbArc
 50
180.0
 51
360.0
  0
ARC
  5
857
100
AcDbEntity
  8
0
100
AcDbCircle
 62
7
  6
CONTINUOUS
 10
9.3233987874
 20
-33.1235647138
 40
0.12
100
AcDbArc
 50
270.0
 51
90.0
  0
ARC
  5
858
100
AcDbEntity
  8
0
100
AcDbCircle
 62
7
  6
CONTINUOUS
 10
9.5618647874
 20
-34.8335647138
 40
0.12
100
AcDbArc
 50
180.0
 51
15.0949627667
  0
ARC
  5
859
100
AcDbEntity
  8
0
100
AcDbCircle
 62
7
  6
CONTINUOUS
 10
7.4318647874
 20
-34.8335647138
 40
0.12
100
AcDbArc
 50
180.0
 51
15.0949627667
  0
ARC
  5
85A
100
AcDbEntity
  8
0
100
AcDbCircle
 62
7
  6
CONTINUOUS
 10
9.1598647874
 20
-34.2335647138
 40
0.1199994599
100
AcDbArc
 50
15.0948566532
 51
164.9051434452
  0
ARC
  5
85B
100
AcDbEntity
  8
0
100
AcDbCircle
 62
7
  6
CONTINUOUS
 10
7.0298647874
 20
-34.2335647138
 40
0.1199994599
100
AcDbArc
 50
15.0948566532
 51
164.9051433468
  0
ARC
  5
85C
100
AcDbEntity
  8
0
100
AcDbCircle
 62
7
  6
CONTINUOUS
 10
8.7578647874
 20
-34.8335647138
 40
0.1199994599
100
AcDbArc
 50
164.9051433468
 51
360.0
  0
ARC
  5
85D
100
AcDbEntity
  8
0
100
AcDbCircle
 62
7
  6
CONTINUOUS
 10
6.6278647874
 20
-34.8335647138
 40
0.1199994599
100
AcDbArc
 50
164.9051433468
 51
360.0
  0
ARC
  5
85E
100
AcDbEntity
  8
0
100
AcDbCircle
 62
7
  6
CONTINUOUS
 10
9.5948647874
 20
-26.7835647138
 40
0.3064577248
100
AcDbArc
 50
195.0
 51
345.0
  0
ARC
  5
85F
100
AcDbEntity
  8
0
100
AcDbCircle
 62
7
  6
CONTINUOUS
 10
13.0948647874
 20
-26.7835647138
 40
0.3064577248
100
AcDbArc
 50
195.0
 51
345.0
  0
ARC
  5
860
100
AcDbEntity
  8
0
100
AcDbCircle
 62
7
  6
CONTINUOUS
 10
13.0948647874
 20
-26.7835647138
 40
0.3
100
AcDbArc
 50
195.0
 51
345.0
  0
ARC
  5
861
100
AcDbEntity
  8
0
100
AcDbCircle
 62
7
  6
CONTINUOUS
 10
9.5948647874
 20
-26.7835647138
 40
0.3
100
AcDbArc
 50
195.0
 51
345.0
  0
ARC
  5
862
100
AcDbEntity
  8
0
100
AcDbCircle
 62
7
  6
CONTINUOUS
 10
8.0948647874
 20
-31.1735647138
 40
0.2400005268
100
AcDbArc
 50
45.0
 51
135.0
  0
ARC
  5
863
100
AcDbEntity
  8
0
100
AcDbCircle
 62
7
  6
CONTINUOUS
 10
35.7915435214
 20
-35.6302434478
 40
10.5
100
AcDbArc
 50
274.1819942842
 51
355.8180059811
  0
ARC
  5
864
100
AcDbEntity
  8
DRAFT
100
AcDbCircle
 62
7
  6
CONTINUOUS
 10
35.7915435218
 20
-35.6302434482
 40
10.4737961104
100
AcDbArc
 50
274.1819942475
 51
355.8180057525
  0
ARC
  5
865
100
AcDbEntity
  8
RACCORDO
100
AcDbCircle
 62
253
  6
CONTINUOUS
 10
35.7915435218
 20
-35.6302434482
 40
10.3990538137
100
AcDbArc
 50
274.1819942475
 51
355.8180057525
  0
ARC
  5
866
100
AcDbEntity
  8
RACCORDO
100
AcDbCircle
 62
253
  6
CONTINUOUS
 10
35.7915435218
 20
-35.6302434482
 40
9.8997390464
100
AcDbArc
 50
274.1819942475
 51
355.8180057525
  0
ARC
  5
867
100
AcDbEntity
  8
RACCORDO
100
AcDbCircle
 62
253
  6
CONTINUOUS
 10
35.7915435218
 20
-35.6302434482
 40
8.9748993522
100
AcDbArc
 50
274.1819942475
 51
355.8180057525
  0
ARC
  5
868
100
AcDbEntity
  8
RACCORDO
100
AcDbCircle
 62
253
  6
CONTINUOUS
 10
35.7915435218
 20
-35.6302434482
 40
8.6760409428
100
AcDbArc
 50
274.1819942472
 51
355.8180057527
  0
ARC
  5
869
100
AcDbEntity
  8
RACCORDO
100
AcDbCircle
 62
253
  6
CONTINUOUS
 10
35.7915435218
 20
-35.6302434482
 40
8.6364703937
100
AcDbArc
 50
274.1819942473
 51
355.8180057527
  0
ARC
  5
86A
100
AcDbEntity
  8
RACCORDO
100
AcDbCircle
 62
253
  6
CONTINUOUS
 10
35.7915435218
 20
-35.6302434482
 40
8.3376119843
100
AcDbArc
 50
274.1819942475
 51
355.8180057525
  0
ARC
  5
86B
100
AcDbEntity
  8
RACCORDO
100
AcDbCircle
 62
253
  6
CONTINUOUS
 10
35.7915435218
 20
-35.6302434482
 40
6.8297193088
100
AcDbArc
 50
274.1819942475
 51
355.8180057525
  0
ARC
  5
86C
100
AcDbEntity
  8
RACCORDO
100
AcDbCircle
 62
253
  6
CONTINUOUS
 10
35.7915435218
 20
-35.6302434482
 40
6.5297650002
100
AcDbArc
 50
274.1819942475
 51
355.8180057525
  0
ARC
  5
86D
100
AcDbEntity
  8
RACCORDO
100
AcDbCircle
 62
253
  6
CONTINUOUS
 10
35.7915435218
 20
-35.6302434482
 40
6.517150432
100
AcDbArc
 50
274.1819942475
 51
355.8180057525
  0
ARC
  5
86E
100
AcDbEntity
  8
RACCORDO
100
AcDbCircle
 62
253
  6
CONTINUOUS
 10
35.7915435218
 20
-35.6302434482
 40
5.5173027369
100
AcDbArc
 50
274.1819942475
 51
355.8180057525
  0
CIRCLE
  5
86F
100
AcDbEntity
  8
RACCORDO
100
AcDbCircle
 62
253
  6
CONTINUOUS
 10
18.0948647874
 20
-31.9335647138
 40
4.25
  0
CIRCLE
  5
870
100
AcDbEntity
  8
RACCORDO
100
AcDbCircle
 62
7
  6
CONTINUOUS
 10
18.0948647874
 20
-31.9335647138
 40
3.75
  0
ARC
  5
871
100
AcDbEntity
  8
RACCORDO
100
AcDbCircle
 62
253
  6
CONTINUOUS
 10
22.8554311326
 20
-23.1134825687
 40
1.2437138263
100
AcDbArc
 50
272.617977678
 51
357.3337529234
  0
ARC
  5
872
100
AcDbEntity
  8
DRAFT
100
AcDbCircle
 62
7
  6
CONTINUOUS
 10
22.0948647874
 20
-21.9335647138
 40
1.2
100
AcDbArc
 50
270.0
 51
360.0
  0
ARC
  5
873
100
AcDbEntity
  8
RACCORDO
100
AcDbCircle
 62
253
  6
CONTINUOUS
 10
22.8554311326
 20
-23.1134825687
 40
0.7437899788
100
AcDbArc
 50
272.6179776781
 51
357.3337529234
  0
ARC
  5
874
100
AcDbEntity
  8
0
100
AcDbCircle
 62
7
  6
CONTINUOUS
 10
26.9448647874
 20
-12.9335647138
 40
0.3064577248
100
AcDbArc
 50
285.0
 51
75.0
  0
ARC
  5
875
100
AcDbEntity
  8
0
100
AcDbCircle
 62
7
  6
CONTINUOUS
 10
26.9448647874
 20
-9.4335647138
 40
0.3064577248
100
AcDbArc
 50
285.0
 51
75.0
  0
ARC
  5
876
100
AcDbEntity
  8
0
100
AcDbCircle
 62
7
  6
CONTINUOUS
 10
26.9448647874
 20
-9.4335647138
 40
0.3
100
AcDbArc
 50
285.0
 51
75.0
  0
ARC
  5
877
100
AcDbEntity
  8
0
100
AcDbCircle
 62
7
  6
CONTINUOUS
 10
26.9448647874
 20
-12.9335647138
 40
0.3
100
AcDbArc
 50
285.0
 51
75.0
  0
ARC
  5
878
100
AcDbEntity
  8
0
100
AcDbCircle
 62
7
  6
CONTINUOUS
 10
35.7915435214
 20
35.7631140202
 40
10.5
100
AcDbArc
 50
4.1819940002
 51
85.8180056541
  0
ARC
  5
879
100
AcDbEntity
  8
DRAFT
100
AcDbCircle
 62
7
  6
CONTINUOUS
 10
35.7915435218
 20
35.7631140207
 40
10.4737961104
100
AcDbArc
 50
4.1819942475
 51
85.8180057525
  0
ARC
  5
87A
100
AcDbEntity
  8
RACCORDO
100
AcDbCircle
 62
253
  6
CONTINUOUS
 10
35.7915435218
 20
35.7631140207
 40
10.3990538137
100
AcDbArc
 50
4.1819942475
 51
85.8180057525
  0
ARC
  5
87B
100
AcDbEntity
  8
RACCORDO
100
AcDbCircle
 62
253
  6
CONTINUOUS
 10
35.7915435218
 20
35.7631140207
 40
9.8997390464
100
AcDbArc
 50
4.1819942475
 51
85.8180057525
  0
ARC
  5
87C
100
AcDbEntity
  8
RACCORDO
100
AcDbCircle
 62
253
  6
CONTINUOUS
 10
35.7915435218
 20
35.7631140207
 40
8.9748993522
100
AcDbArc
 50
4.1819942475
 51
85.8180057525
  0
ARC
  5
87D
100
AcDbEntity
  8
RACCORDO
100
AcDbCircle
 62
253
  6
CONTINUOUS
 10
35.7915435218
 20
35.7631140207
 40
8.6760409428
100
AcDbArc
 50
4.1819942472
 51
85.8180057527
  0
ARC
  5
87E
100
AcDbEntity
  8
RACCORDO
100
AcDbCircle
 62
253
  6
CONTINUOUS
 10
35.7915435218
 20
35.7631140207
 40
8.6364703937
100
AcDbArc
 50
4.1819942473
 51
85.8180057527
  0
ARC
  5
87F
100
AcDbEntity
  8
RACCORDO
100
AcDbCircle
 62
253
  6
CONTINUOUS
 10
35.7915435218
 20
35.7631140207
 40
8.3376119843
100
AcDbArc
 50
4.1819942475
 51
85.8180057525
  0
ARC
  5
880
100
AcDbEntity
  8
RACCORDO
100
AcDbCircle
 62
253
  6
CONTINUOUS
 10
35.7915435218
 20
35.7631140207
 40
6.8297193088
100
AcDbArc
 50
4.1819942475
 51
85.8180057525
  0
ARC
  5
881
100
AcDbEntity
  8
RACCORDO
100
AcDbCircle
 62
253
  6
CONTINUOUS
 10
35.7915435218
 20
35.7631140207
 40
6.5297650002
100
AcDbArc
 50
4.1819942475
 51
85.8180057525
  0
ARC
  5
882
100
AcDbEntity
  8
RACCORDO
100
AcDbCircle
 62
253
  6
CONTINUOUS
 10
35.7915435218
 20
35.7631140207
 40
6.517150432
100
AcDbArc
 50
4.1819942475
 51
85.8180057525
  0
ARC
  5
883
100
AcDbEntity
  8
RACCORDO
100
AcDbCircle
 62
253
  6
CONTINUOUS
 10
35.7915435218
 20
35.7631140207
 40
5.5173027369
100
AcDbArc
 50
4.1819942475
 51
85.8180057525
  0
CIRCLE
  5
884
100
AcDbEntity
  8
RACCORDO
100
AcDbCircle
 62
253
  6
CONTINUOUS
 10
18.0948647874
 20
32.0664352862
 40
4.25
  0
CIRCLE
  5
885
100
AcDbEntity
  8
RACCORDO
100
AcDbCircle
 62
7
  6
CONTINUOUS
 10
18.0948647874
 20
32.0664352862
 40
3.75
  0
ARC
  5
886
100
AcDbEntity
  8
RACCORDO
100
AcDbCircle
 62
253
  6
CONTINUOUS
 10
22.8554311326
 20
23.2463531412
 40
1.2437138263
100
AcDbArc
 50
2.6662470766
 51
87.382022322
  0
ARC
  5
887
100
AcDbEntity
  8
DRAFT
100
AcDbCircle
 62
7
  6
CONTINUOUS
 10
22.0948647874
 20
22.0664352862
 40
1.2
100
AcDbArc
 50
0.0
 51
90.0
  0
ARC
  5
888
100
AcDbEntity
  8
RACCORDO
100
AcDbCircle
 62
253
  6
CONTINUOUS
 10
22.8554311326
 20
23.2463531412
 40
0.7437899788
100
AcDbArc
 50
2.6662470766
 51
87.3820223219
  0
ARC
  5
889
100
AcDbEntity
  8
0
100
AcDbCircle
 62
7
  6
CONTINUOUS
 10
26.9448647874
 20
9.4664352862
 40
0.3064577248
100
AcDbArc
 50
285.0
 51
75.0
  0
ARC
  5
88A
100
AcDbEntity
  8
0
100
AcDbCircle
 62
7
  6
CONTINUOUS
 10
26.9448647874
 20
12.9664352862
 40
0.3064577248
100
AcDbArc
 50
285.0
 51
75.0
  0
ARC
  5
88B
100
AcDbEntity
  8
0
100
AcDbCircle
 62
7
  6
CONTINUOUS
 10
13.0948647874
 20
26.9164352862
 40
0.3064577248
100
AcDbArc
 50
15.0
 51
165.0
  0
ARC
  5
88C
100
AcDbEntity
  8
0
100
AcDbCircle
 62
7
  6
CONTINUOUS
 10
9.5948647874
 20
26.9164352862
 40
0.3064577248
100
AcDbArc
 50
15.0
 51
165.0
  0
ARC
  5
88D
100
AcDbEntity
  8
0
100
AcDbCircle
 62
7
  6
CONTINUOUS
 10
26.9448647874
 20
12.9664352862
 40
0.3
100
AcDbArc
 50
285.0
 51
75.0
  0
ARC
  5
88E
100
AcDbEntity
  8
0
100
AcDbCircle
 62
7
  6
CONTINUOUS
 10
26.9448647874
 20
9.4664352862
 40
0.3
100
AcDbArc
 50
285.0
 51
75.0
  0
ARC
  5
88F
100
AcDbEntity
  8
0
100
AcDbCircle
 62
7
  6
CONTINUOUS
 10
9.5948647874
 20
26.9164352862
 40
0.3
100
AcDbArc
 50
15.0
 51
165.0
  0
ARC
  5
890
100
AcDbEntity
  8
0
100
AcDbCircle
 62
7
  6
CONTINUOUS
 10
13.0948647874
 20
26.9164352862
 40
0.3
100
AcDbArc
 50
15.0
 51
165.0
  0
ARC
  5
891
100
AcDbEntity
  8
0
100
AcDbCircle
 62
7
  6
CONTINUOUS
 10
0.0948647848
 20
452.5664353333
 40
500.0000000364
100
AcDbArc
 50
265.818005693
 51
274.1819942482
  0
ARC
  5
892
100
AcDbEntity
  8
DRAFT
100
AcDbCircle
 62
7
  6
CONTINUOUS
 10
0.0948647874
 20
452.5664352862
 40
499.9737961104
100
AcDbArc
 50
265.8180057525
 51
274.1819942475
  0
ARC
  5
893
100
AcDbEntity
  8
RACCORDO
100
AcDbCircle
 62
253
  6
CONTINUOUS
 10
0.0948647874
 20
452.5664352862
 40
499.8990538137
100
AcDbArc
 50
265.8180057525
 51
274.1819942475
  0
ARC
  5
894
100
AcDbEntity
  8
RACCORDO
100
AcDbCircle
 62
253
  6
CONTINUOUS
 10
0.0948647874
 20
474.6664352862
 40
499.5437138263
100
AcDbArc
 50
272.5815384856
 51
272.6179776781
  0
ARC
  5
895
100
AcDbEntity
  8
RACCORDO
100
AcDbCircle
 62
253
  6
CONTINUOUS
 10
0.0948647874
 20
474.6664352862
 40
499.5437138263
100
AcDbArc
 50
267.3820223219
 51
267.4184615144
  0
ARC
  5
896
100
AcDbEntity
  8
RACCORDO
100
AcDbCircle
 62
253
  6
CONTINUOUS
 10
0.0948647874
 20
452.5664352862
 40
499.3997390464
100
AcDbArc
 50
265.8180057525
 51
274.1819942475
  0
ARC
  5
897
100
AcDbEntity
  8
RACCORDO
100
AcDbCircle
 62
253
  6
CONTINUOUS
 10
0.0948647874
 20
474.6664352862
 40
499.0437899788
100
AcDbArc
 50
272.5841263306
 51
272.6179776781
  0
ARC
  5
898
100
AcDbEntity
  8
RACCORDO
100
AcDbCircle
 62
253
  6
CONTINUOUS
 10
0.0948647874
 20
474.6664352862
 40
499.0437899788
100
AcDbArc
 50
267.3820223219
 51
267.4158736694
  0
ARC
  5
899
100
AcDbEntity
  8
RACCORDO
100
AcDbCircle
 62
253
  6
CONTINUOUS
 10
0.0948647874
 20
452.5664352862
 40
498.4748993522
100
AcDbArc
 50
265.8180057525
 51
274.1819942475
  0
ARC
  5
89A
100
AcDbEntity
  8
RACCORDO
100
AcDbCircle
 62
253
  6
CONTINUOUS
 10
0.0948647874
 20
452.5664352862
 40
498.1760409428
100
AcDbArc
 50
265.8180057525
 51
274.1819942475
  0
ARC
  5
89B
100
AcDbEntity
  8
RACCORDO
100
AcDbCircle
 62
253
  6
CONTINUOUS
 10
0.0948647874
 20
452.5664352862
 40
498.1364703937
100
AcDbArc
 50
265.8180057525
 51
274.1819942475
  0
ARC
  5
89C
100
AcDbEntity
  8
RACCORDO
100
AcDbCircle
 62
253
  6
CONTINUOUS
 10
0.0948647874
 20
452.5664352862
 40
497.8376119843
100
AcDbArc
 50
265.8180057525
 51
274.1819942475
  0
ARC
  5
89D
100
AcDbEntity
  8
RACCORDO
100
AcDbCircle
 62
253
  6
CONTINUOUS
 10
0.0948647874
 20
452.5664352862
 40
496.3297193088
100
AcDbArc
 50
265.8180057525
 51
274.1819942475
  0
ARC
  5
89E
100
AcDbEntity
  8
RACCORDO
100
AcDbCircle
 62
253
  6
CONTINUOUS
 10
0.0948647874
 20
452.5664352862
 40
496.0297650002
100
AcDbArc
 50
265.8180057525
 51
274.1819942475
  0
ARC
  5
89F
100
AcDbEntity
  8
RACCORDO
100
AcDbCircle
 62
253
  6
CONTINUOUS
 10
0.0948647874
 20
452.5664352862
 40
496.017150432
100
AcDbArc
 50
265.8180057525
 51
274.1819942475
  0
ARC
  5
8A0
100
AcDbEntity
  8
RACCORDO
100
AcDbCircle
 62
253
  6
CONTINUOUS
 10
0.0948647874
 20
452.5664352862
 40
495.0173027369
100
AcDbArc
 50
265.8180057525
 51
274.1819942475
  0
ARC
  5
8A1
100
AcDbEntity
  8
0
100
AcDbCircle
 62
7
  6
CONTINUOUS
 10
452.5948647928
 20
0.0664352867
 40
500.0000000078
100
AcDbArc
 50
175.8180057723
 51
184.1819942431
  0
ARC
  5
8A2
100
AcDbEntity
  8
DRAFT
100
AcDbCircle
 62
7
  6
CONTINUOUS
 10
452.5948647874
 20
0.0664352862
 40
499.9737961104
100
AcDbArc
 50
180.4010947529
 51
184.1819942475
  0
ARC
  5
8A3
100
AcDbEntity
  8
DRAFT
100
AcDbCircle
 62
7
  6
CONTINUOUS
 10
452.5948647874
 20
0.0664352862
 40
499.9737961104
100
AcDbArc
 50
175.8180057525
 51
179.5989052471
  0
ARC
  5
8A4
100
AcDbEntity
  8
RACCORDO
100
AcDbCircle
 62
253
  6
CONTINUOUS
 10
452.5948647874
 20
0.0664352862
 40
499.8990538137
100
AcDbArc
 50
175.8180057525
 51
179.5700221427
  0
ARC
  5
8A5
100
AcDbEntity
  8
RACCORDO
100
AcDbCircle
 62
253
  6
CONTINUOUS
 10
452.5948647874
 20
0.0664352862
 40
499.8990538137
100
AcDbArc
 50
180.4299778573
 51
184.1819942475
  0
ARC
  5
8A6
100
AcDbEntity
  8
RACCORDO
100
AcDbCircle
 62
253
  6
CONTINUOUS
 10
475.0948647874
 20
0.0664352862
 40
499.5437138263
100
AcDbArc
 50
177.3337529234
 51
177.4184615144
  0
ARC
  5
8A7
100
AcDbEntity
  8
RACCORDO
100
AcDbCircle
 62
253
  6
CONTINUOUS
 10
475.0948647874
 20
0.0664352862
 40
499.5437138263
100
AcDbArc
 50
182.5815384856
 51
182.6662470766
  0
ARC
  5
8A8
100
AcDbEntity
  8
DRAFT
100
AcDbCircle
 62
7
  6
CONTINUOUS
 10
452.5948647874
 20
0.0664352862
 40
499.5
100
AcDbArc
 50
179.5985247862
 51
180.4014752138
  0
ARC
  5
8A9
100
AcDbEntity
  8
RACCORDO
100
AcDbCircle
 62
253
  6
CONTINUOUS
 10
452.5948647874
 20
0.0664352862
 40
499.3997390464
100
AcDbArc
 50
180.4399936068
 51
184.1819942475
  0
ARC
  5
8AA
100
AcDbEntity
  8
RACCORDO
100
AcDbCircle
 62
253
  6
CONTINUOUS
 10
452.5948647874
 20
0.0664352862
 40
499.3997390464
100
AcDbArc
 50
175.8180057525
 51
179.5600063932
  0
ARC
  5
8AB
100
AcDbEntity
  8
RACCORDO
100
AcDbCircle
 62
253
  6
CONTINUOUS
 10
475.0948647874
 20
0.0664352862
 40
499.0437899788
100
AcDbArc
 50
182.5841263306
 51
182.6662470766
  0
ARC
  5
8AC
100
AcDbEntity
  8
RACCORDO
100
AcDbCircle
 62
253
  6
CONTINUOUS
 10
475.0948647874
 20
0.0664352862
 40
499.0437899788
100
AcDbArc
 50
177.3337529234
 51
177.4158736694
  0
ARC
  5
8AD
100
AcDbEntity
  8
RACCORDO
100
AcDbCircle
 62
253
  6
CONTINUOUS
 10
452.5948647874
 20
0.0664352862
 40
498.4748993522
100
AcDbArc
 50
180.44080996
 51
184.1819942475
  0
ARC
  5
8AE
100
AcDbEntity
  8
RACCORDO
100
AcDbCircle
 62
253
  6
CONTINUOUS
 10
452.5948647874
 20
0.0664352862
 40
498.4748993522
100
AcDbArc
 50
175.8180057525
 51
179.55919004
  0
ARC
  5
8AF
100
AcDbEntity
  8
RACCORDO
100
AcDbCircle
 62
253
  6
CONTINUOUS
 10
452.5948647874
 20
0.0664352862
 40
498.1760409428
100
AcDbArc
 50
180.4355206224
 51
184.1819942475
  0
ARC
  5
8B0
100
AcDbEntity
  8
RACCORDO
100
AcDbCircle
 62
253
  6
CONTINUOUS
 10
452.5948647874
 20
0.0664352862
 40
498.1760409428
100
AcDbArc
 50
175.8180057525
 51
179.5644793776
  0
ARC
  5
8B1
100
AcDbEntity
  8
RACCORDO
100
AcDbCircle
 62
253
  6
CONTINUOUS
 10
452.5948647874
 20
0.0664352862
 40
498.1364703937
100
AcDbArc
 50
180.4263819186
 51
184.1819942475
  0
ARC
  5
8B2
100
AcDbEntity
  8
RACCORDO
100
AcDbCircle
 62
253
  6
CONTINUOUS
 10
452.5948647874
 20
0.0664352862
 40
498.1364703937
100
AcDbArc
 50
175.8180057525
 51
179.5736180814
  0
ARC
  5
8B3
100
AcDbEntity
  8
RACCORDO
100
AcDbCircle
 62
253
  6
CONTINUOUS
 10
452.5948647874
 20
0.0664352862
 40
497.8376119843
100
AcDbArc
 50
175.8180057525
 51
179.5789196659
  0
ARC
  5
8B4
100
AcDbEntity
  8
RACCORDO
100
AcDbCircle
 62
253
  6
CONTINUOUS
 10
452.5948647874
 20
0.0664352862
 40
497.8376119843
100
AcDbArc
 50
180.4210803341
 51
184.1819942475
  0
ARC
  5
8B5
100
AcDbEntity
  8
RACCORDO
100
AcDbCircle
 62
253
  6
CONTINUOUS
 10
452.5948647874
 20
0.0664352862
 40
496.3297193088
100
AcDbArc
 50
175.8180057525
 51
179.5776403642
  0
ARC
  5
8B6
100
AcDbEntity
  8
RACCORDO
100
AcDbCircle
 62
253
  6
CONTINUOUS
 10
452.5948647874
 20
0.0664352862
 40
496.3297193088
100
AcDbArc
 50
180.4223596358
 51
184.1819942475
  0
ARC
  5
8B7
100
AcDbEntity
  8
RACCORDO
100
AcDbCircle
 62
253
  6
CONTINUOUS
 10
452.5948647874
 20
0.0664352862
 40
496.0297650002
100
AcDbArc
 50
180.4166113293
 51
184.1819942475
  0
ARC
  5
8B8
100
AcDbEntity
  8
RACCORDO
100
AcDbCircle
 62
253
  6
CONTINUOUS
 10
452.5948647874
 20
0.0664352862
 40
496.0297650002
100
AcDbArc
 50
175.8180057525
 51
179.5833886707
  0
ARC
  5
8B9
100
AcDbEntity
  8
DRAFT
100
AcDbCircle
 62
7
  6
CONTINUOUS
 10
452.5948647874
 20
0.0664352862
 40
496.0192005714
100
AcDbArc
 50
179.5957073996
 51
180.4042926004
  0
ARC
  5
8BA
100
AcDbEntity
  8
RACCORDO
100
AcDbCircle
 62
253
  6
CONTINUOUS
 10
452.5948647874
 20
0.0664352862
 40
496.017150432
100
AcDbArc
 50
175.8180057525
 51
184.1819942475
  0
ARC
  5
8BB
100
AcDbEntity
  8
RACCORDO
100
AcDbCircle
 62
253
  6
CONTINUOUS
 10
452.5948647874
 20
0.0664352862
 40
495.0173027369
100
AcDbArc
 50
175.8180057525
 51
184.1819942475
  0
ELLIPSE
  5
8BC
100
AcDbEntity
  8
RACCORDO
100
AcDbEllipse
 62
7
  6
CONTINUOUS
 10
21.9940413798
 20
21.9656118786
 30
0.0
 11
0.4254277461
 21
0.4254277461
 31
0.0
 40
0.9972646886
 41
-0.7840286355
 42
0.7840286355
  0
ELLIPSE
  5
8BD
100
AcDbEntity
  8
RACCORDO
100
AcDbEllipse
 62
7
  6
CONTINUOUS
 10
-21.804311805
 20
21.9656118786
 30
0.0
 11
0.4254277461
 21
-0.4254277461
 31
0.0
 40
0.9972646886
 41
2.3575640181
 42
3.9256212891
  0
ELLIPSE
  5
8BE
100
AcDbEntity
  8
RACCORDO
100
AcDbEllipse
 62
7
  6
CONTINUOUS
 10
-21.804311805
 20
-21.8327413062
 30
0.0
 11
0.4254277461
 21
0.4254277461
 31
0.0
 40
0.9972646886
 41
-3.9256212891
 42
-2.3575640181
  0
ELLIPSE
  5
8BF
100
AcDbEntity
  8
RACCORDO
100
AcDbEllipse
 62
7
  6
CONTINUOUS
 10
21.9940413798
 20
-21.8327413062
 30
0.0
 11
-0.4254277461
 21
0.4254277461
 31
0.0
 40
0.9972646886
 41
-3.9256212891
 42
-2.3575640181
  0
ELLIPSE
  5
8C0
100
AcDbEntity
  8
0
100
AcDbEllipse
 62
7
  6
CONTINUOUS
 10
8.3343832316
 20
-25.3335647138
 30
0.0
 11
0.0
 21
0.2
 31
0.0
 40
0.0524077793
 41
-0.0523598776
 42
0.0
  0
ELLIPSE
  5
8C1
100
AcDbEntity
  8
0
100
AcDbEllipse
 62
7
  6
CONTINUOUS
 10
14.3553463433
 20
-25.3335647138
 30
0.0
 11
0.0
 21
0.2
 31
0.0
 40
0.0524077793
 41
0.0
 42
0.0523598776
  0
ELLIPSE
  5
8C2
100
AcDbEntity
  8
0
100
AcDbEllipse
 62
7
  6
CONTINUOUS
 10
-25.9465736567
 20
14.1266423729
 30
0.0
 11
0.2000050771
 21
0.1999983076
 31
0.0
 40
0.0041137573
 41
-1.5666824535
 42
-0.0482460042
  0
ELLIPSE
  5
8C3
100
AcDbEntity
  8
0
100
AcDbEllipse
 62
7
  6
CONTINUOUS
 10
-25.9465736567
 20
8.5062281996
 30
0.0
 11
0.2000050771
 21
-0.1999983076
 31
0.0
 40
0.0041137573
 41
0.0482460042
 42
1.5666824535
  0
ELLIPSE
  5
8C4
100
AcDbEntity
  8
0
100
AcDbEllipse
 62
7
  6
CONTINUOUS
 10
-25.4051352126
 20
14.3269168421
 30
0.0
 11
0.2
 21
-0.0
 31
0.0
 40
0.0524077793
 41
-0.0523598776
 42
-0.0
  0
ELLIPSE
  5
8C5
100
AcDbEntity
  8
0
100
AcDbEllipse
 62
7
  6
CONTINUOUS
 10
-25.4051352126
 20
8.3059537304
 30
0.0
 11
0.2
 21
-0.0
 31
0.0
 40
0.0524077793
 41
-0.0
 42
0.0523598776
  0
ELLIPSE
  5
8C6
100
AcDbEntity
  8
0
100
AcDbEllipse
 62
7
  6
CONTINUOUS
 10
-25.9465736567
 20
-8.3733576271
 30
0.0
 11
0.2000050771
 21
0.1999983076
 31
0.0
 40
0.0041137573
 41
-1.5666824535
 42
-0.0482460042
  0
ELLIPSE
  5
8C7
100
AcDbEntity
  8
0
100
AcDbEllipse
 62
7
  6
CONTINUOUS
 10
-25.9465736567
 20
-13.9937718004
 30
0.0
 11
0.2000050771
 21
-0.1999983076
 31
0.0
 40
0.0041137573
 41
0.0482460042
 42
1.5666824535
  0
ELLIPSE
  5
8C8
100
AcDbEntity
  8
0
100
AcDbEllipse
 62
7
  6
CONTINUOUS
 10
-25.4051352126
 20
-8.1730831579
 30
0.0
 11
0.2
 21
0.0
 31
0.0
 40
0.0524077793
 41
-0.0523598776
 42
0.0
  0
ELLIPSE
  5
8C9
100
AcDbEntity
  8
0
100
AcDbEllipse
 62
7
  6
CONTINUOUS
 10
-25.4051352126
 20
-14.1940462696
 30
0.0
 11
0.2
 21
-0.0
 31
0.0
 40
0.0524077793
 41
0.0
 42
0.0523598776
  0
ELLIPSE
  5
8CA
100
AcDbEntity
  8
0
100
AcDbEllipse
 62
7
  6
CONTINUOUS
 10
26.1363032315
 20
8.4062281996
 30
0.0
 11
0.2000050771
 21
0.1999983076
 31
0.0
 40
0.0041137573
 41
1.5749102001
 42
3.0933466494
  0
ELLIPSE
  5
8CB
100
AcDbEntity
  8
0
100
AcDbEllipse
 62
7
  6
CONTINUOUS
 10
26.1363032315
 20
14.0266423729
 30
0.0
 11
0.2000050771
 21
-0.1999983076
 31
0.0
 40
0.0041137573
 41
-3.0933466494
 42
-1.5749102001
  0
ELLIPSE
  5
8CC
100
AcDbEntity
  8
0
100
AcDbEllipse
 62
7
  6
CONTINUOUS
 10
25.5948647874
 20
8.2059537304
 30
0.0
 11
0.2
 21
0.0
 31
0.0
 40
0.0524077793
 41
3.089232776
 42
3.1415926536
  0
ELLIPSE
  5
8CD
100
AcDbEntity
  8
0
100
AcDbEllipse
 62
7
  6
CONTINUOUS
 10
25.5948647874
 20
14.2269168421
 30
0.0
 11
0.2
 21
-0.0
 31
0.0
 40
0.0524077793
 41
-3.1415926536
 42
-3.089232776
  0
ELLIPSE
  5
8CE
100
AcDbEntity
  8
0
100
AcDbEllipse
 62
7
  6
CONTINUOUS
 10
26.1363032315
 20
-13.9937718004
 30
0.0
 11
0.2000050771
 21
0.1999983076
 31
0.0
 40
0.0041137573
 41
1.5749102001
 42
3.0933466494
  0
ELLIPSE
  5
8CF
100
AcDbEntity
  8
0
100
AcDbEllipse
 62
7
  6
CONTINUOUS
 10
26.1363032315
 20
-8.3733576271
 30
0.0
 11
0.2000050771
 21
-0.1999983076
 31
0.0
 40
0.0041137573
 41
-3.0933466494
 42
-1.5749102001
  0
ELLIPSE
  5
8D0
100
AcDbEntity
  8
0
100
AcDbEllipse
 62
7
  6
CONTINUOUS
 10
25.5948647874
 20
-14.1940462696
 30
0.0
 11
0.2
 21
-0.0
 31
0.0
 40
0.0524077793
 41
3.089232776
 42
3.1415926536
  0
ELLIPSE
  5
8D1
100
AcDbEntity
  8
0
100
AcDbEllipse
 62
7
  6
CONTINUOUS
 10
25.5948647874
 20
-8.1730831579
 30
0.0
 11
0.2
 21
-0.0
 31
0.0
 40
0.0524077793
 41
-3.1415926536
 42
-3.089232776
  0
ELLIPSE
  5
8D2
100
AcDbEntity
  8
DRAFT
100
AcDbEllipse
 62
7
  6
CONTINUOUS
 10
0.0948647874
 20
468.640800788
 30
0.0
 11
0.0
 21
493.008644392
 31
0.0
 40
0.9999253065
 41
-3.187250069
 42
-3.0959352382
  0
ELLIPSE
  5
8D3
100
AcDbEntity
  8
DRAFT
100
AcDbEllipse
 62
7
  6
CONTINUOUS
 10
0.0948647874
 20
-468.5079302155
 30
0.0
 11
0.0
 21
493.008644392
 31
0.0
 40
0.9999253065
 41
-0.0456574154
 42
0.0456574154
  0
ELLIPSE
  5
8D4
100
AcDbEntity
  8
DRAFT
100
AcDbEllipse
 62
7
  6
CONTINUOUS
 10
469.069304991
 20
0.0664352862
 30
0.0
 11
493.002532395
 21
-0.0
 31
0.0
 40
0.9999253065
 41
3.0959346718
 42
3.1872506354
  0
ELLIPSE
  5
8D5
100
AcDbEntity
  8
DRAFT
100
AcDbEllipse
 62
7
  6
CONTINUOUS
 10
-468.8795754162
 20
0.0664352862
 30
0.0
 11
493.002532395
 21
-0.0
 31
0.0
 40
0.9999253065
 41
-0.0456579818
 42
0.0456579818
  0
ELLIPSE
  5
8D6
100
AcDbEntity
  8
0
100
AcDbEllipse
 62
7
  6
CONTINUOUS
 10
-8.3449281259
 20
26.0578737303
 30
0.0
 11
-0.1999983076
 21
0.2000050771
 31
0.0
 40
0.0041137573
 41
-4.7082751071
 42
-3.1898386578
  0
ELLIPSE
  5
8D7
100
AcDbEntity
  8
0
100
AcDbEllipse
 62
7
  6
CONTINUOUS
 10
-13.9653422992
 20
26.0578737303
 30
0.0
 11
0.1999983076
 21
0.2000050771
 31
0.0
 40
0.0041137573
 41
-3.0933466494
 42
-1.5749102001
  0
ELLIPSE
  5
8D8
100
AcDbEntity
  8
0
100
AcDbEllipse
 62
7
  6
CONTINUOUS
 10
-8.1446536567
 20
25.4664352862
 30
0.0
 11
0.0
 21
0.2
 31
0.0
 40
0.0524077793
 41
-3.1939525311
 42
-3.1415926536
  0
ELLIPSE
  5
8D9
100
AcDbEntity
  8
0
100
AcDbEllipse
 62
7
  6
CONTINUOUS
 10
-14.1656167684
 20
25.4664352862
 30
0.0
 11
0.0
 21
0.2
 31
0.0
 40
0.0524077793
 41
-3.1415926536
 42
-3.089232776
  0
ELLIPSE
  5
8DA
100
AcDbEntity
  8
RACCORDO
100
AcDbEllipse
 62
7
  6
CONTINUOUS
 10
452.5948647874
 20
-163.2739860173
 30
0.0
 11
0.0
 21
549.5619869818
 31
0.0
 40
0.9548092459
 41
1.2618599078
 42
1.2623401969
  0
ELLIPSE
  5
8DB
100
AcDbEntity
  8
RACCORDO
100
AcDbEllipse
 62
7
  6
CONTINUOUS
 10
452.5948647874
 20
163.4068565897
 30
0.0
 11
0.0
 21
549.5619869818
 31
0.0
 40
0.9548092459
 41
-4.4039328505
 42
-4.4034525614
  0
ELLIPSE
  5
8DC
100
AcDbEntity
  8
RACCORDO
100
AcDbEllipse
 62
7
  6
CONTINUOUS
 10
-452.4051352126
 20
-163.2739860173
 30
0.0
 11
0.0
 21
549.5619869818
 31
0.0
 40
0.9548092459
 41
-1.2623401969
 42
-1.2618599078
  0
ELLIPSE
  5
8DD
100
AcDbEntity
  8
RACCORDO
100
AcDbEllipse
 62
7
  6
CONTINUOUS
 10
-452.4051352126
 20
163.4068565897
 30
0.0
 11
0.0
 21
549.5619869818
 31
0.0
 40
0.9548092459
 41
-1.8797327458
 42
-1.8792524567
  0
ELLIPSE
  5
8DE
100
AcDbEntity
  8
0
100
AcDbEllipse
 62
7
  6
CONTINUOUS
 10
14.1550718741
 20
26.0578737303
 30
0.0
 11
-0.1999983076
 21
0.2000050771
 31
0.0
 40
0.0041137573
 41
-4.7082751071
 42
-3.1898386578
  0
ELLIPSE
  5
8DF
100
AcDbEntity
  8
0
100
AcDbEllipse
 62
7
  6
CONTINUOUS
 10
8.5346577008
 20
26.0578737303
 30
0.0
 11
0.1999983076
 21
0.2000050771
 31
0.0
 40
0.0041137573
 41
-3.0933466493
 42
-1.5749102001
  0
ELLIPSE
  5
8E0
100
AcDbEntity
  8
0
100
AcDbEllipse
 62
7
  6
CONTINUOUS
 10
14.3553463433
 20
25.4664352862
 30
0.0
 11
0.0
 21
0.2
 31
0.0
 40
0.0524077793
 41
-3.1939525311
 42
-3.1415926536
  0
ELLIPSE
  5
8E1
100
AcDbEntity
  8
0
100
AcDbEllipse
 62
7
  6
CONTINUOUS
 10
8.3343832316
 20
25.4664352862
 30
0.0
 11
0.0
 21
0.2
 31
0.0
 40
0.0524077793
 41
-3.1415926536
 42
-3.089232776
  0
ELLIPSE
  5
8E2
100
AcDbEntity
  8
0
100
AcDbEllipse
 62
7
  6
CONTINUOUS
 10
-13.9653422992
 20
-25.9250031579
 30
0.0
 11
-0.1999983076
 21
0.2000050771
 31
0.0
 40
0.0041137573
 41
-1.5666824535
 42
-0.0482460042
  0
ELLIPSE
  5
8E3
100
AcDbEntity
  8
0
100
AcDbEllipse
 62
7
  6
CONTINUOUS
 10
-8.3449281259
 20
-25.9250031579
 30
0.0
 11
0.1999983076
 21
0.2000050771
 31
0.0
 40
0.0041137573
 41
0.0482460042
 42
1.5666824535
  0
ELLIPSE
  5
8E4
100
AcDbEntity
  8
RACCORDO
100
AcDbEllipse
 62
7
  6
CONTINUOUS
 10
452.5948647874
 20
-49.4870943518
 30
0.0
 11
0.0
 21
500.5781588589
 31
0.0
 40
0.9950881703
 41
1.4786653685
 42
1.4788794667
  0
ELLIPSE
  5
8E5
100
AcDbEntity
  8
RACCORDO
100
AcDbEllipse
 62
7
  6
CONTINUOUS
 10
452.5948647874
 20
49.6199649243
 30
0.0
 11
0.0
 21
500.5781588589
 31
0.0
 40
0.9950881703
 41
-4.6204721202
 42
-4.6202580221
  0
ELLIPSE
  5
8E6
100
AcDbEntity
  8
RACCORDO
100
AcDbEllipse
 62
7
  6
CONTINUOUS
 10
-452.4051352126
 20
49.6199649243
 30
0.0
 11
0.0
 21
500.5781588589
 31
0.0
 40
0.9950881703
 41
-1.6629272851
 42
-1.6627131869
  0
ELLIPSE
  5
8E7
100
AcDbEntity
  8
RACCORDO
100
AcDbEllipse
 62
7
  6
CONTINUOUS
 10
-452.4051352126
 20
-49.4870943518
 30
0.0
 11
0.0
 21
500.5781588589
 31
0.0
 40
0.9950881703
 41
-1.4788794667
 42
-1.4786653685
  0
ELLIPSE
  5
8E8
100
AcDbEntity
  8
0
100
AcDbEllipse
 62
7
  6
CONTINUOUS
 10
-14.1656167684
 20
-25.3335647138
 30
0.0
 11
-0.0
 21
0.2
 31
0.0
 40
0.0524077793
 41
-0.0523598776
 42
0.0
  0
ELLIPSE
  5
8E9
100
AcDbEntity
  8
0
100
AcDbEllipse
 62
7
  6
CONTINUOUS
 10
-8.1446536567
 20
-25.3335647138
 30
0.0
 11
0.0
 21
0.2
 31
0.0
 40
0.0524077793
 41
0.0
 42
0.0523598776
  0
ELLIPSE
  5
8EA
100
AcDbEntity
  8
0
100
AcDbEllipse
 62
7
  6
CONTINUOUS
 10
8.5346577008
 20
-25.9250031579
 30
0.0
 11
-0.1999983076
 21
0.2000050771
 31
0.0
 40
0.0041137573
 41
-1.5666824535
 42
-0.0482460042
  0
ELLIPSE
  5
8EB
100
AcDbEntity
  8
0
100
AcDbEllipse
 62
7
  6
CONTINUOUS
 10
14.1550718741
 20
-25.9250031579
 30
0.0
 11
0.1999983076
 21
0.2000050771
 31
0.0
 40
0.0041137573
 41
0.0482460042
 42
1.5666824535
  0
ENDSEC
  0
SECTION
  2
OBJECTS
  0
DICTIONARY
  5
C
100
AcDbDictionary
280
0
281
1
  3
ACAD_GROUP
350
D
  3
ACAD_MLINESTYLE
350
17
  3
ACAD_LAYOUT
350
1A
  3
ACAD_PLOTSETTINGS
350
19
  3
ACAD_PLOTSTYLENAME
350
E
  0
DICTIONARY
  5
D
102
{ACAD_REACTORS
330
C
102
}
100
AcDbDictionary
280
0
281
1
  0
ACDBDICTIONARYWDFLT
  5
E
102
{ACAD_REACTORS
330
C
102
}
100
AcDbDictionary
281
1
  3
Normal
350
F
100
AcDbDictionaryWithDefault
340
F
  0
DICTIONARY
  5
17
102
{ACAD_REACTORS
330
C
102
}
100
AcDbDictionary
280
0
281
1
  3
Standard
350
18
  0
DICTIONARY
  5
19
102
{ACAD_REACTORS
330
C
102
}
100
AcDbDictionary
281
1
  0
DICTIONARY
  5
1A
102
{ACAD_REACTORS
330
C
102
}
100
AcDbDictionary
281
1
  3
Model
350
8EC
  3
Layout1
350
8ED
  0
ACDBPLACEHOLDER
  5
F
102
{ACAD_REACTORS
330
E
102
}
  0
MLINESTYLE
  5
18
102
{ACAD_REACTORS
330
17
102
}
100
AcDbMlineStyle
  2
STANDARD
 70
0
  3

 62
256
 51
90.0
 52
90.0
 71
2
 49
0.5
 62
256
  6
BYLAYER
 49
-0.5
 62
256
  6
BYLAYER
  0
LAYOUT
  5
8EC
102
{ACAD_REACTORS
330
1A
102
}
100
AcDbPlotSettings
  1

  2
none_device
  4
ISO_A4_(297.00_x_210.00_MM)
  6

 40
0.0
 41
0.0
 42
0.0
 43
0.0
 44
297.0
 45
210.0
 46
0.0
 47
0.0
 48
0.0
 49
0.0
140
0.0
141
0.0
142
1.0
143
1.0
 70
1024
 72
1
 73
0
 74
0
  7

 75
0
147
1.0
148
0.0
149
0.0
100
AcDbLayout
  1
Model
 70
0
 71
0
 10
0.0
 20
0.0
 11
297.0
 21
210.0
 12
0.0
 22
0.0
 32
0.0
 14
0.0
 24
0.0
 34
0.0
 15
0.0
 25
0.0
 35
0.0
146
0.0
 13
0.0
 23
0.0
 33
0.0
 16
1.0
 26
0.0
 36
0.0
 17
0.0
 27
1.0
 37
0.0
 76
0
330
21B
345
0
346
0
  0
LAYOUT
  5
8ED
102
{ACAD_REACTORS
330
1A
102
}
100
AcDbPlotSettings
  1

  2
none_device
  4
ISO_A4_(297.00_x_210.00_MM)
  6

 40
0.0
 41
0.0
 42
0.0
 43
0.0
 44
297.0
 45
210.0
 46
0.0
 47
0.0
 48
0.0
 49
0.0
140
0.0
141
0.0
142
1.0
143
1.0
 70
0
 72
1
 73
0
 74
0
  7

 75
0
147
1.0
148
0.0
149
0.0
100
AcDbLayout
  1
Layout1
 70
0
 71
1
 10
0.0
 20
0.0
 11
297.0
 21
210.0
 12
0.0
 22
0.0
 32
0.0
 14
0.0
 24
0.0
 34
0.0
 15
0.0
 25
0.0
 35
0.0
146
0.0
 13
0.0
 23
0.0
 33
0.0
 16
1.0
 26
0.0
 36
0.0
 17
0.0
 27
1.0
 37
0.0
 76
0
330
21C
345
0
346
0
  0
ENDSEC
  0
EOF
