  0
SECTION
  2
HEADER
  9
$ACADVER
  1
AC1015
  9
$DWGCODEPAGE
  3
ANSI_1252
  9
$EXTMAX
 10
297.0
 20
210.0
 30
0.0
  9
$EXTMIN
 10
0.0
 20
0.0
 30
0.0
  9
$LIMMIN
 10
0.0
 20
0.0
  9
$LIMMAX
 10
297.0
 20
210.0
  9
$VIEWCTR
 10
148.5
 20
105.0
  9
$VIEWSIZE
 40
210.0
  9
$CLAYER
  8
0
  9
$LTSCALE
 40
16.335
  9
$CELTYPE
  6
BYLAYER
  9
$DIMSCALE
 40
1.0
  9
$DIMASZ
 40
3.0
  9
$DIMEXO
 40
0.5
  9
$DIMDLI
 40
11.286
  9
$DIMEXE
 40
1.5
  9
$DIMCEN
 40
2.673
  9
$DIMLFAC
 40
1.0
  9
$DIMBLK
  1
_FILLED
  9
$DIMTXT
 40
3.0
  9
$DIMTOL
 70
1
  9
$DIMLIM
 70
0
  9
$DIMTFAC
 40
1.0
  9
$DIMTP
 40
0.01
  9
$DIMTM
 40
0.01
  9
$DIMGAP
 40
0.625
  9
$DIMDSEP
 70
44
  9
$PDMODE
 70
3
  9
$PDSIZE
 40
3.0
  9
$HANDSEED
  5
950
  9
$TILEMODE
 70
1
  9
$MEASUREMENT
 70
1
  9
$INSUNITS
 70
4
  0
ENDSEC
  0
SECTION
  2
CLASSES
  0
CLASS
  1
ACDBDICTIONARYWDFLT
  2
AcDbDictionaryWithDefault
  3
AutoCAD 2000
 90
0
280
0
281
0
  0
CLASS
  1
ACDBPLACEHOLDER
  2
AcDbPlaceHolder
  3
AutoCAD 2000
 90
0
280
0
281
0
  0
CLASS
  1
LAYOUT
  2
AcDbLayout
  3
AutoCAD 2000
 90
0
280
0
281
0
  0
ENDSEC
  0
SECTION
  2
TABLES
  0
TABLE
  2
VPORT
  5
8
100
AcDbSymbolTable
 70
2
  0
VPORT
  5
1F4
100
AcDbSymbolTableRecord
100
AcDbViewportTableRecord
  2
*ACTIVE
 70
0
 10
0.0
 20
0.0
 11
1.0
 21
1.0
 12
148.5
 22
105.0
 13
0.0
 23
0.0
 14
1.0
 24
1.0
 15
0.0
 25
0.0
 16
0.0
 26
0.0
 36
1.0
 17
0.0
 27
0.0
 37
0.0
 40
210.0
 41
1.4142857143
 42
50.0
 43
0.0
 44
0.0
 50
0.0
 51
0.0
 71
0
 72
100
 73
1
 74
1
 75
0
 76
0
 77
0
 78
0
  0
ENDTAB
  0
TABLE
  2
LTYPE
  5
5
100
AcDbSymbolTable
 70
6
  0
LTYPE
  5
14
100
AcDbSymbolTableRecord
100
AcDbLinetypeTableRecord
  2
BYBLOCK
 70
0
  3

 72
65
 73
0
 40
0.0
  0
LTYPE
  5
15
100
AcDbSymbolTableRecord
100
AcDbLinetypeTableRecord
  2
BYLAYER
 70
0
  3

 72
65
 73
0
 40
0.0
  0
LTYPE
  5
16
100
AcDbSymbolTableRecord
100
AcDbLinetypeTableRecord
  2
CONTINUOUS
 70
64
  3
Solid line
 72
65
 73
0
 40
0.0
  0
LTYPE
  5
1F5
100
AcDbSymbolTableRecord
100
AcDbLinetypeTableRecord
  2
CENTER
 70
64
  3
____ _ ____ _ ____ _ ____ _ ____ _ ____ _ ____
 72
65
 73
4
 40
0.6
 49
0.375
 74
0
 49
-0.075
 74
0
 49
0.075
 74
0
 49
-0.075
 74
0
  0
LTYPE
  5
1F6
100
AcDbSymbolTableRecord
100
AcDbLinetypeTableRecord
  2
HIDDEN
 70
64
  3
- - - - - - - - - - - - - - - - - - - -
 72
65
 73
2
 40
0.2
 49
0.1
 74
0
 49
-0.1
 74
0
  0
LTYPE
  5
1F7
100
AcDbSymbolTableRecord
100
AcDbLinetypeTableRecord
  2
PHANTOM
 70
64
  3
_____ _ _ _____ _ _ _____ _ _ _____
 72
65
 73
6
 40
0.8
 49
0.45
 74
0
 49
-0.05
 74
0
 49
0.1
 74
0
 49
-0.05
 74
0
 49
0.1
 74
0
 49
-0.05
 74
0
  0
LTYPE
  5
1F8
100
AcDbSymbolTableRecord
100
AcDbLinetypeTableRecord
  2
DOT
 70
64
  3
. . . . . . . . . . . . . . . . . . . .
 72
65
 73
2
 40
0.2
 49
0.1
 74
0
 49
-0.1
 74
0
  0
LTYPE
  5
1F9
100
AcDbSymbolTableRecord
100
AcDbLinetypeTableRecord
  2
DASHED
 70
64
  3
- - - - - - - - - - - - - - - - - - - -
 72
65
 73
2
 40
0.2
 49
0.1
 74
0
 49
-0.1
 74
0
  0
ENDTAB
  0
TABLE
  2
LAYER
  5
2
100
AcDbSymbolTable
 70
36
  0
LAYER
  5
10
100
AcDbSymbolTableRecord
100
AcDbLayerTableRecord
  2
0
 70
0
 62
7
  6
CONTINUOUS
370
-3
390
F
  0
LAYER
  5
1FA
100
AcDbSymbolTableRecord
100
AcDbLayerTableRecord
  2
DEFAULT_1
 70
0
 62
7
  6
CENTER
370
-3
390
F
  0
LAYER
  5
1FB
100
AcDbSymbolTableRecord
100
AcDbLayerTableRecord
  2
DEFAULT_2
 70
0
 62
7
  6
HIDDEN
370
-3
390
F
  0
LAYER
  5
1FC
100
AcDbSymbolTableRecord
100
AcDbLayerTableRecord
  2
DEFAULT_3
 70
0
 62
7
  6
PHANTOM
370
-3
390
F
  0
LAYER
  5
1FD
100
AcDbSymbolTableRecord
100
AcDbLayerTableRecord
  2
ASSI
 70
0
 62
7
  6
CONTINUOUS
370
-3
390
F
  0
LAYER
  5
1FE
100
AcDbSymbolTableRecord
100
AcDbLayerTableRecord
  2
COLOR15
 70
0
 62
7
  6
CONTINUOUS
370
-3
390
F
  0
LAYER
  5
1FF
100
AcDbSymbolTableRecord
100
AcDbLayerTableRecord
  2
COORDINATE
 70
0
 62
7
  6
CONTINUOUS
370
-3
390
F
  0
LAYER
  5
200
100
AcDbSymbolTableRecord
100
AcDbLayerTableRecord
  2
COPY_PUBLISH
 70
0
 62
7
  6
CONTINUOUS
370
-3
390
F
  0
LAYER
  5
201
100
AcDbSymbolTableRecord
100
AcDbLayerTableRecord
  2
COSMETIC
 70
0
 62
7
  6
CONTINUOUS
370
-3
390
F
  0
LAYER
  5
202
100
AcDbSymbolTableRecord
100
AcDbLayerTableRecord
  2
CRV_ROUND_OLD
 70
0
 62
7
  6
CONTINUOUS
370
-3
390
F
  0
LAYER
  5
203
100
AcDbSymbolTableRecord
100
AcDbLayerTableRecord
  2
CURVE
 70
0
 62
7
  6
CONTINUOUS
370
-3
390
F
  0
LAYER
  5
204
100
AcDbSymbolTableRecord
100
AcDbLayerTableRecord
  2
DRAFT
 70
0
 62
7
  6
CONTINUOUS
370
-3
390
F
  0
LAYER
  5
205
100
AcDbSymbolTableRecord
100
AcDbLayerTableRecord
  2
IMPORT_IGES
 70
0
 62
7
  6
CONTINUOUS
370
-3
390
F
  0
LAYER
  5
206
100
AcDbSymbolTableRecord
100
AcDbLayerTableRecord
  2
INTF_1
 70
0
 62
7
  6
CONTINUOUS
370
-3
390
F
  0
LAYER
  5
207
100
AcDbSymbolTableRecord
100
AcDbLayerTableRecord
  2
INTF_CYAN
 70
0
 62
7
  6
CONTINUOUS
370
-3
390
F
  0
LAYER
  5
208
100
AcDbSymbolTableRecord
100
AcDbLayerTableRecord
  2
PELLE_ESTERNA
 70
0
 62
7
  6
CONTINUOUS
370
-3
390
F
  0
LAYER
  5
209
100
AcDbSymbolTableRecord
100
AcDbLayerTableRecord
  2
PELLE_INTERNA
 70
0
 62
7
  6
CONTINUOUS
370
-3
390
F
  0
LAYER
  5
20A
100
AcDbSymbolTableRecord
100
AcDbLayerTableRecord
  2
PIANI
 70
0
 62
7
  6
CONTINUOUS
370
-3
390
F
  0
LAYER
  5
20B
100
AcDbSymbolTableRecord
100
AcDbLayerTableRecord
  2
PUNTI
 70
0
 62
7
  6
CONTINUOUS
370
-3
390
F
  0
LAYER
  5
20C
100
AcDbSymbolTableRecord
100
AcDbLayerTableRecord
  2
PUNZ_REFER
 70
0
 62
7
  6
CONTINUOUS
370
-3
390
F
  0
LAYER
  5
20D
100
AcDbSymbolTableRecord
100
AcDbLayerTableRecord
  2
RACCORDO
 70
0
 62
7
  6
CONTINUOUS
370
-3
390
F
  0
LAYER
  5
20E
100
AcDbSymbolTableRecord
100
AcDbLayerTableRecord
  2
SHELL
 70
0
 62
7
  6
CONTINUOUS
370
-3
390
F
  0
LAYER
  5
20F
100
AcDbSymbolTableRecord
100
AcDbLayerTableRecord
  2
SMUSSO
 70
0
 62
7
  6
CONTINUOUS
370
-3
390
F
  0
LAYER
  5
210
100
AcDbSymbolTableRecord
100
AcDbLayerTableRecord
  2
SNAPLINE
 70
0
 62
7
  6
CONTINUOUS
370
-3
390
F
  0
LAYER
  5
211
100
AcDbSymbolTableRecord
100
AcDbLayerTableRecord
  2
SOLIDI
 70
0
 62
7
  6
CONTINUOUS
370
-3
390
F
  0
LAYER
  5
212
100
AcDbSymbolTableRecord
100
AcDbLayerTableRecord
  2
SRF_COSTRUZIONE
 70
0
 62
7
  6
CONTINUOUS
370
-3
390
F
  0
LAYER
  5
213
100
AcDbSymbolTableRecord
100
AcDbLayerTableRecord
  2
SUPERFICI
 70
0
 62
7
  6
CONTINUOUS
370
-3
390
F
  0
LAYER
  5
214
100
AcDbSymbolTableRecord
100
AcDbLayerTableRecord
  2
SUP_TAGLIO_COSTOLE
 70
0
 62
7
  6
CONTINUOUS
370
-3
390
F
  0
LAYER
  5
215
100
AcDbSymbolTableRecord
100
AcDbLayerTableRecord
  2
TRASH
 70
0
 62
7
  6
CONTINUOUS
370
-3
390
F
  0
LAYER
  5
216
100
AcDbSymbolTableRecord
100
AcDbLayerTableRecord
  2
XSEC_DATUMS
 70
0
 62
7
  6
CONTINUOUS
370
-3
390
F
  0
ENDTAB
  0
TABLE
  2
STYLE
  5
3
100
AcDbSymbolTable
 70
1
  0
STYLE
  5
11
100
AcDbSymbolTableRecord
100
AcDbTextStyleTableRecord
  2
STANDARD
 70
0
 40
0.0
 41
0.8
 50
0.0
 71
0
 42
0.2
  3
txt
  4

  0
STYLE
  5
217
100
AcDbSymbolTableRecord
100
AcDbTextStyleTableRecord
  2
TEXTSTYLE_1
 70
0
 40
0.0
 41
0.8
 50
0.0
 71
0
 42
0.2
  3
gdt
  4

  0
ENDTAB
  0
TABLE
  2
VIEW
  5
6
100
AcDbSymbolTable
 70
0
  0
ENDTAB
  0
TABLE
  2
UCS
  5
7
100
AcDbSymbolTable
 70
0
  0
ENDTAB
  0
TABLE
  2
APPID
  5
9
100
AcDbSymbolTable
 70
1
  0
APPID
  5
218
100
AcDbSymbolTableRecord
100
AcDbRegAppTableRecord
  2
ACAD
 70
0
  0
ENDTAB
  0
TABLE
  2
BLOCK_RECORD
  5
1
100
AcDbSymbolTable
 70
0
  0
BLOCK_RECORD
  5
219
100
AcDbSymbolTableRecord
100
AcDbBlockTableRecord
  2
*Model_Space
  0
BLOCK_RECORD
  5
21A
100
AcDbSymbolTableRecord
100
AcDbBlockTableRecord
  2
*Paper_Space
  0
ENDTAB
  0
TABLE
  2
DIMSTYLE
  5
A
100
AcDbSymbolTable
 70
1
100
AcDbDimStyleTable
 71
0
  0
DIMSTYLE
105
21B
100
AcDbSymbolTableRecord
100
AcDbDimStyleTableRecord
  2
STANDARD
 70
0
  3

  4

 40
1.0
 41
3.0
 42
0.5
 43
0.38
 44
1.5
 45
0.0
 46
0.0
 47
0.01
 48
0.01
140
3.0
141
0.09
142
0.0
143
25.4
144
1.0
145
0.0
146
1.0
147
0.625
 71
1.0
 72
0.0
 73
0
 74
0
 75
0
 76
0
 77
1
 78
8
170
0
171
2
172
0
173
0
174
0
175
0
176
0
177
0
178
0
270
2
271
2
272
2
273
2
274
2
275
0
280
0
281
0
282
0
283
1
284
8
285
0
286
0
287
3
288
0
340
11
278
44
  0
ENDTAB
  0
ENDSEC
  0
SECTION
  2
BLOCKS
  0
BLOCK
  5
20
100
AcDbEntity
  8
0
100
AcDbBlockBegin
  2
*Model_Space
 70
0
 10
0.0
 20
0.0
 30
0.0
  3
*Model_Space
  1

  0
ENDBLK
  5
21
100
AcDbEntity
  8
0
100
AcDbBlockEnd
  0
BLOCK
  5
1C
100
AcDbEntity
  8
0
100
AcDbBlockBegin
  2
*Paper_Space
 70
0
 10
0.0
 20
0.0
 30
0.0
  3
*Paper_Space
  1

  0
ENDBLK
  5
1D
100
AcDbEntity
  8
0
100
AcDbBlockEnd
  0
ENDSEC
  0
SECTION
  2
ENTITIES
  0
LINE
  5
21C
100
AcDbEntity
  8
0
100
AcDbLine
 62
7
  6
CONTINUOUS
 10
-70.3684846004
 20
5.5518382869
 11
-70.3684846004
 21
-4.4481617131
  0
LINE
  5
21D
100
AcDbEntity
  8
0
100
AcDbLine
 62
7
  6
CONTINUOUS
 10
-69.3163946004
 20
4.5247032869
 11
-69.3163946004
 21
2.4752622869
  0
LINE
  5
21E
100
AcDbEntity
  8
0
100
AcDbLine
 62
7
  6
CONTINUOUS
 10
-69.0479446004
 20
2.4752622869
 11
-69.0479446004
 21
4.1930782869
  0
LINE
  5
21F
100
AcDbEntity
  8
0
100
AcDbLine
 62
7
  6
CONTINUOUS
 10
-68.8939046004
 20
-1.3699277131
 11
-68.8939046004
 21
-3.4210267131
  0
LINE
  5
220
100
AcDbEntity
  8
0
100
AcDbLine
 62
7
  6
CONTINUOUS
 10
-68.6168326004
 20
-3.4210267131
 11
-68.6168326004
 21
-1.3699277131
  0
LINE
  5
221
100
AcDbEntity
  8
0
100
AcDbLine
 62
7
  6
CONTINUOUS
 10
-68.3196966004
 20
-1.3699277131
 11
-68.3196966004
 21
-1.6153297131
  0
LINE
  5
222
100
AcDbEntity
  8
0
100
AcDbLine
 62
7
  6
CONTINUOUS
 10
-67.6257716004
 20
-1.6153297131
 11
-67.6257716004
 21
-3.4210267131
  0
LINE
  5
223
100
AcDbEntity
  8
0
100
AcDbLine
 62
7
  6
CONTINUOUS
 10
-67.6201336004
 20
4.1963942869
 11
-67.6201336004
 21
2.4752622869
  0
LINE
  5
224
100
AcDbEntity
  8
0
100
AcDbLine
 62
7
  6
CONTINUOUS
 10
-67.3516836004
 20
2.4752622869
 11
-67.3516836004
 21
4.5247032869
  0
LINE
  5
225
100
AcDbEntity
  8
0
100
AcDbLine
 62
7
  6
CONTINUOUS
 10
-67.3488646004
 20
-3.4210267131
 11
-67.3488646004
 21
-1.6153297131
  0
LINE
  5
226
100
AcDbEntity
  8
0
100
AcDbLine
 62
7
  6
CONTINUOUS
 10
-66.6549396004
 20
-1.6153297131
 11
-66.6549396004
 21
-1.3699277131
  0
LINE
  5
227
100
AcDbEntity
  8
0
100
AcDbLine
 62
7
  6
CONTINUOUS
 10
-66.5678886004
 20
1.5765592869
 11
-66.5678886004
 21
-0.4728827131
  0
LINE
  5
228
100
AcDbEntity
  8
0
100
AcDbLine
 62
7
  6
CONTINUOUS
 10
-66.2908156004
 20
-0.4728827131
 11
-66.2908156004
 21
1.5765592869
  0
LINE
  5
229
100
AcDbEntity
  8
0
100
AcDbLine
 62
7
  6
CONTINUOUS
 10
-65.8169246004
 20
1.5765592869
 11
-65.8169246004
 21
-0.4728827131
  0
LWPOLYLINE
  5
22A
100
AcDbEntity
  8
RACCORDO
100
AcDbPolyline
 62
7
  6
CONTINUOUS
 90
22
 70
0
 10
-77.2534618327
 20
-3.1996336067
 10
-77.2501140849
 20
-3.2060677764
 10
-77.2442467489
 20
-3.2123747286
 10
-77.2358598249
 20
-3.2185544633
 10
-77.2248914936
 20
-3.2246349757
 10
-77.2114035742
 20
-3.2305882707
 10
-77.1955815243
 20
-3.2363303622
 10
-77.1773884643
 20
-3.2418615994
 10
-77.1568612738
 20
-3.2471816332
 10
-77.134296049
 20
-3.2522054302
 10
-77.1096048411
 20
-3.2569334904
 10
-77.082875599
 20
-3.2613653138
 10
-77.0546682655
 20
-3.2654143678
 10
-77.0250062197
 20
-3.2690641653
 10
-76.9938660825
 20
-3.2723311934
 10
-76.9617376606
 20
-3.2751783813
 10
-76.9286247561
 20
-3.2776003258
 10
-76.8945235669
 20
-3.2796024301
 10
-76.8599124931
 20
-3.2811638334
 10
-76.8249510013
 20
-3.2822775821
 10
-76.7894796249
 20
-3.2829506298
 10
-76.7534983638
 20
-3.2831829765
  0
LWPOLYLINE
  5
22B
100
AcDbEntity
  8
RACCORDO
100
AcDbPolyline
 62
7
  6
CONTINUOUS
 90
22
 70
0
 10
-73.3851368828
 20
4.1585576743
 10
-73.3863878086
 20
4.1625260889
 10
-73.3892216304
 20
4.1664176964
 10
-73.3936383481
 20
4.1702324968
 10
-73.3996647707
 20
4.1739845439
 10
-73.4072740892
 20
4.1776597838
 10
-73.4163858771
 20
4.1812160555
 10
-73.4270371839
 20
4.1846602772
 10
-73.43919096
 20
4.1879855306
 10
-73.4526556297
 20
4.1911288991
 10
-73.4674836773
 20
4.1940882999
 10
-73.4836226184
 20
4.1968658159
 10
-73.5007234243
 20
4.1994047791
 10
-73.5187947937
 20
4.2016955711
 10
-73.5378280279
 20
4.2037478102
 10
-73.5574480027
 20
4.2055336841
 10
-73.5776045086
 20
4.2070464056
 10
-73.5983477551
 20
4.2082927619
 10
-73.6194532465
 20
4.2092653016
 10
-73.6408461509
 20
4.2099615409
 10
-73.6626013002
 20
4.2103839635
 10
-73.6847186945
 20
4.2105325695
  0
LINE
  5
22C
100
AcDbEntity
  8
RACCORDO
100
AcDbLine
 62
253
  6
CONTINUOUS
 10
-66.019295919
 20
44.9285172901
 11
-65.9885198352
 21
44.2919734801
  0
LINE
  5
22D
100
AcDbEntity
  8
RACCORDO
100
AcDbLine
 62
253
  6
CONTINUOUS
 10
-65.8523205663
 20
41.4749548415
 11
-65.9157002037
 21
42.7858401454
  0
LINE
  5
22E
100
AcDbEntity
  8
RACCORDO
100
AcDbLine
 62
253
  6
CONTINUOUS
 10
-66.0639585709
 20
45.8522779233
 11
-66.0916811167
 21
46.4256652035
  0
LINE
  5
22F
100
AcDbEntity
  8
0
100
AcDbLine
 62
7
  6
CONTINUOUS
 10
-65.5483086004
 20
-0.4728827131
 11
-65.5483086004
 21
1.1925432869
  0
LINE
  5
230
100
AcDbEntity
  8
0
100
AcDbLine
 62
7
  6
CONTINUOUS
 10
-65.0100816004
 20
4.5247032869
 11
-65.0100816004
 21
2.4752622869
  0
LINE
  5
231
100
AcDbEntity
  8
0
100
AcDbLine
 62
7
  6
CONTINUOUS
 10
-64.7331746004
 20
2.7123732869
 11
-64.7331746004
 21
4.2875912869
  0
LINE
  5
232
100
AcDbEntity
  8
0
100
AcDbLine
 62
7
  6
CONTINUOUS
 10
-64.4932436004
 20
-1.3699277131
 11
-64.4932436004
 21
-3.4210267131
  0
LINE
  5
233
100
AcDbEntity
  8
0
100
AcDbLine
 62
7
  6
CONTINUOUS
 10
-64.4574286004
 20
1.5765592869
 11
-64.4574286004
 21
-0.0876157131
  0
LINE
  5
234
100
AcDbEntity
  8
0
100
AcDbLine
 62
7
  6
CONTINUOUS
 10
-64.2163376004
 20
-3.1756247131
 11
-64.2163376004
 21
-1.3699277131
  0
LINE
  5
235
100
AcDbEntity
  8
0
100
AcDbLine
 62
7
  6
CONTINUOUS
 10
-64.1891436004
 20
-0.4728827131
 11
-64.1891436004
 21
1.5765592869
  0
LINE
  5
236
100
AcDbEntity
  8
0
100
AcDbLine
 62
7
  6
CONTINUOUS
 10
-63.1768596004
 20
-3.4210267131
 11
-63.1768596004
 21
-3.1756247131
  0
LINE
  5
237
100
AcDbEntity
  8
0
100
AcDbLine
 62
7
  6
CONTINUOUS
 10
-62.9341096004
 20
4.5247032869
 11
-62.9341096004
 21
2.4752622869
  0
LINE
  5
238
100
AcDbEntity
  8
0
100
AcDbLine
 62
7
  6
CONTINUOUS
 10
-62.7369586004
 20
-2.5952807131
 11
-62.7369586004
 21
-3.4210267131
  0
LINE
  5
239
100
AcDbEntity
  8
0
100
AcDbLine
 62
7
  6
CONTINUOUS
 10
-62.6570376004
 20
2.7206642869
 11
-62.6570376004
 21
3.4054692869
  0
LINE
  5
23A
100
AcDbEntity
  8
0
100
AcDbLine
 62
7
  6
CONTINUOUS
 10
-62.6570376004
 20
3.6508722869
 11
-62.6570376004
 21
4.2793012869
  0
LINE
  5
23B
100
AcDbEntity
  8
0
100
AcDbLine
 62
7
  6
CONTINUOUS
 10
-62.4600526004
 20
-3.4210267131
 11
-62.4600526004
 21
-2.5952807131
  0
LINE
  5
23C
100
AcDbEntity
  8
0
100
AcDbLine
 62
7
  6
CONTINUOUS
 10
-61.5348196004
 20
3.4054692869
 11
-61.5348196004
 21
3.6508722869
  0
LINE
  5
23D
100
AcDbEntity
  8
0
100
AcDbLine
 62
7
  6
CONTINUOUS
 10
-61.4406376004
 20
4.2793012869
 11
-61.4406376004
 21
4.5247032869
  0
LINE
  5
23E
100
AcDbEntity
  8
0
100
AcDbLine
 62
7
  6
CONTINUOUS
 10
-61.4205746004
 20
2.4752622869
 11
-61.4205746004
 21
2.7206642869
  0
LINE
  5
23F
100
AcDbEntity
  8
0
100
AcDbLine
 62
7
  6
CONTINUOUS
 10
-60.3684846004
 20
-4.4481617131
 11
-60.3684846004
 21
5.5518382869
  0
LWPOLYLINE
  5
240
100
AcDbEntity
  8
0
100
AcDbPolyline
 62
7
  6
CONTINUOUS
 90
25
 70
0
 10
-63.3175029653
 20
3.4214871453
 10
-63.3175029653
 20
3.5784781484
 10
-63.3217251151
 20
3.6552752321
 10
-63.3303378244
 20
3.730373898
 10
-63.3437406508
 20
3.804504904
 10
-63.3615340369
 20
3.876937492
 10
-63.38251931
 20
3.9454793887
 10
-63.406564434
 20
4.0095120943
 10
-63.4338014451
 20
4.0696541085
 10
-63.4634277802
 20
4.1255686562
 10
-63.4953710877
 20
4.1770339874
 10
-63.5297037193
 20
4.2242718521
 10
-63.5658401669
 20
4.267610726
 10
-63.6033944195
 20
4.3068738517
 10
-63.6427524882
 20
4.3422379866
 10
-63.6844868984
 20
4.3745618774
 10
-63.7286269405
 20
4.4041472692
 10
-63.7751433241
 20
4.430692417
 10
-63.8245207032
 20
4.4541508323
 10
-63.8770183892
 20
4.4747027109
 10
-63.9323770707
 20
4.4921678571
 10
-63.9903034684
 20
4.5059591953
 10
-64.0506998227
 20
4.5158810338
 10
-64.1136638932
 20
4.5221290643
 10
-64.1791956799
 20
4.5247032869
  0
LWPOLYLINE
  5
241
100
AcDbEntity
  8
0
100
AcDbPolyline
 62
7
  6
CONTINUOUS
 90
25
 70
0
 10
-63.6018850901
 20
3.4999826468
 10
-63.6036788636
 20
3.4343713494
 10
-63.6076906156
 20
3.3714223681
 10
-63.6139203462
 20
3.3111357029
 10
-63.6222228288
 20
3.2533941778
 10
-63.63274329
 20
3.1983149688
 10
-63.6459174091
 20
3.1462496044
 10
-63.662062955
 20
3.0973085825
 10
-63.6808621588
 20
3.0513814052
 10
-63.7017973931
 20
3.0084881068
 10
-63.7250295824
 20
2.968537375
 10
-63.7503978021
 20
2.9316205222
 10
-63.7769016521
 20
2.8980315198
 10
-63.8041915332
 20
2.8680497646
 10
-63.8326170446
 20
2.8413958598
 10
-63.8622265827
 20
2.8175255872
 10
-63.8926223438
 20
2.7964815538
 10
-63.9242021317
 20
2.7782211527
 10
-63.958207754
 20
2.7620723452
 10
-63.9950281564
 20
2.7476557703
 10
-64.0342743932
 20
2.7353507889
 10
-64.076021436
 20
2.7256234455
 10
-64.120294275
 20
2.718629088
 10
-64.16706792
 20
2.7142123685
 10
-64.2163423709
 20
2.7123732869
  0
LINE
  5
242
100
AcDbEntity
  8
RACCORDO
100
AcDbLine
 62
253
  6
CONTINUOUS
 10
-66.019295919
 20
-43.8248407164
 11
-65.9885198352
 21
-43.1882969064
  0
LINE
  5
243
100
AcDbEntity
  8
RACCORDO
100
AcDbLine
 62
253
  6
CONTINUOUS
 10
-65.8523205663
 20
-40.3712782678
 11
-65.9157002037
 21
-41.6821635716
  0
LINE
  5
244
100
AcDbEntity
  8
RACCORDO
100
AcDbLine
 62
253
  6
CONTINUOUS
 10
-66.0639585709
 20
-44.7486013495
 11
-66.0916811167
 21
-45.3219886298
  0
LWPOLYLINE
  5
245
100
AcDbEntity
  8
RACCORDO
100
AcDbPolyline
 62
7
  6
CONTINUOUS
 90
31
 70
0
 10
-57.1748232833
 20
23.3335414691
 10
-57.1634516822
 20
23.3757604051
 10
-57.1497977683
 20
23.4161748773
 10
-57.134100003
 20
23.4546944002
 10
-57.1165784357
 20
23.4912798158
 10
-57.0974729129
 20
23.5258571482
 10
-57.0770571255
 20
23.5583246217
 10
-57.0555921401
 20
23.5886378725
 10
-57.0332610178
 20
23.6168681222
 10
-57.0102074829
 20
23.643112573
 10
-56.9866249258
 20
23.6673985692
 10
-56.9626701624
 20
23.6897914333
 10
-56.9383913724
 20
23.7104389694
 10
-56.9139100714
 20
23.7294044546
 10
-56.8893630982
 20
23.7467376913
 10
-56.8647872617
 20
23.7625515013
 10
-56.8402722567
 20
23.7769126373
 10
-56.8159216408
 20
23.7898782709
 10
-56.7917715509
 20
23.8015367693
 10
-56.7678939423
 20
23.8119535054
 10
-56.7443610918
 20
23.8211924735
 10
-56.7211951853
 20
23.8293325637
 10
-56.6984503934
 20
23.8364375159
 10
-56.6761771208
 20
23.8425710151
 10
-56.6543811355
 20
23.8478043754
 10
-56.6331835097
 20
23.8521818992
 10
-56.6125368736
 20
23.8557841702
 10
-56.5921822518
 20
23.8587060667
 10
-56.5720461644
 20
23.8609894116
 10
-56.5522456894
 20
23.8626522229
 10
-56.5328000369
 20
23.8637274125
  0
LWPOLYLINE
  5
246
100
AcDbEntity
  8
RACCORDO
100
AcDbPolyline
 62
253
  6
CONTINUOUS
 90
31
 70
0
 10
-57.0715858128
 20
23.2913878292
 10
-57.0605205086
 20
23.325917945
 10
-57.0480856852
 20
23.3588088349
 10
-57.0342813426
 20
23.3900604989
 10
-57.018919187
 20
23.4196964637
 10
-57.0021875122
 20
23.4476932026
 10
-56.9846511989
 20
23.4739801353
 10
-56.9663630733
 20
23.498485115
 10
-56.9472703092
 20
23.5212802885
 10
-56.9277793087
 20
23.5425115164
 10
-56.9079361177
 20
23.5621595552
 10
-56.8876946904
 20
23.5802436485
 10
-56.8673232918
 20
23.596967387
 10
-56.8468430999
 20
23.6123369824
 10
-56.8262329366
 20
23.6263462231
 10
-56.8056975334
 20
23.6391800656
 10
-56.7852517334
 20
23.650842782
 10
-56.7648806935
 20
23.6613301001
 10
-56.7447446152
 20
23.67081416
 10
-56.7248587217
 20
23.6792971053
 10
-56.70520779
 20
23.6867767925
 10
-56.6859063521
 20
23.6934189305
 10
-56.6669690814
 20
23.6992267201
 10
-56.6483813045
 20
23.7041969606
 10
-56.6302135339
 20
23.7084857594
 10
-56.6125449121
 20
23.7120953064
 10
-56.5952962964
 20
23.7150234116
 10
-56.5783007717
 20
23.7174196123
 10
-56.5615026994
 20
23.7193337544
 10
-56.5449577179
 20
23.7207159919
 10
-56.5286658273
 20
23.721566325
  0
LINE
  5
247
100
AcDbEntity
  8
0
100
AcDbLine
 62
7
  6
CONTINUOUS
 10
-68.1969956004
 20
2.4752622869
 11
-67.6201336004
 21
4.1963942869
  0
LINE
  5
248
100
AcDbEntity
  8
0
100
AcDbLine
 62
7
  6
CONTINUOUS
 10
-67.7458196004
 20
4.5247032869
 11
-68.3312136004
 21
2.7833532869
  0
LINE
  5
249
100
AcDbEntity
  8
0
100
AcDbLine
 62
7
  6
CONTINUOUS
 10
-66.8205866004
 20
2.4752622869
 11
-66.6063566004
 21
3.0721862869
  0
LINE
  5
24A
100
AcDbEntity
  8
0
100
AcDbLine
 62
7
  6
CONTINUOUS
 10
-66.2894896004
 20
-3.4210267131
 11
-66.0752596004
 21
-2.8241017131
  0
LINE
  5
24B
100
AcDbEntity
  8
0
100
AcDbLine
 62
7
  6
CONTINUOUS
 10
-66.5206316004
 20
3.3175892869
 11
-66.1893906004
 21
4.2276662869
  0
LINE
  5
24C
100
AcDbEntity
  8
0
100
AcDbLine
 62
7
  6
CONTINUOUS
 10
-65.9897006004
 20
-2.5786997131
 11
-65.6582926004
 21
-1.6686247131
  0
LINE
  5
24D
100
AcDbEntity
  8
0
100
AcDbLine
 62
7
  6
CONTINUOUS
 10
-65.8039906004
 20
-1.3699277131
 11
-66.5750186004
 21
-3.4210267131
  0
LINE
  5
24E
100
AcDbEntity
  8
0
100
AcDbLine
 62
7
  6
CONTINUOUS
 10
-66.3350876004
 20
4.5247032869
 11
-67.1061156004
 21
2.4752622869
  0
LWPOLYLINE
  5
24F
100
AcDbEntity
  8
RACCORDO
100
AcDbPolyline
 62
253
  6
CONTINUOUS
 90
13
 70
0
 10
-56.6270781596
 20
23.1803324559
 10
-56.6597871209
 20
23.1276702051
 10
-56.6899220649
 20
23.073704227
 10
-56.7174801862
 20
23.0184407776
 10
-56.7424759935
 20
22.9620115549
 10
-56.7648893016
 20
22.9042975678
 10
-56.7846653015
 20
22.8449289552
 10
-56.8019280359
 20
22.7836924972
 10
-56.8165478685
 20
22.7208137784
 10
-56.8280888853
 20
22.6565824251
 10
-56.8364031748
 20
22.5911006865
 10
-56.8416314683
 20
22.5242819496
 10
-56.8437702298
 20
22.4561337815
  0
LWPOLYLINE
  5
250
100
AcDbEntity
  8
RACCORDO
100
AcDbPolyline
 62
253
  6
CONTINUOUS
 90
13
 70
0
 10
-56.542109984
 20
23.1423513788
 10
-56.5744871202
 20
23.0924430495
 10
-56.6043860534
 20
23.04106839
 10
-56.6317432085
 20
22.9883523897
 10
-56.6563913509
 20
22.9346810093
 10
-56.6784147074
 20
22.8799357537
 10
-56.6980244283
 20
22.8234430329
 10
-56.71513336
 20
22.7650504269
 10
-56.7294972718
 20
22.7051103484
 10
-56.7409725967
 20
22.6436780633
 10
-56.7494035305
 20
22.580866553
 10
-56.754634366
 20
22.516848745
 10
-56.7565185523
 20
22.4517892499
  0
LINE
  5
251
100
AcDbEntity
  8
0
100
AcDbLine
 62
7
  6
CONTINUOUS
 10
-65.2785316004
 20
2.4752622869
 11
-66.0210396004
 21
4.5247032869
  0
LINE
  5
252
100
AcDbEntity
  8
0
100
AcDbLine
 62
7
  6
CONTINUOUS
 10
-64.7474346004
 20
-3.4210267131
 11
-65.4899426004
 21
-1.3699277131
  0
LINE
  5
253
100
AcDbEntity
  8
0
100
AcDbLine
 62
7
  6
CONTINUOUS
 10
-65.2528306004
 20
-2.8241017131
 11
-65.0500416004
 21
-3.4210267131
  0
LINE
  5
254
100
AcDbEntity
  8
0
100
AcDbLine
 62
7
  6
CONTINUOUS
 10
-65.7839276004
 20
3.0721862869
 11
-65.5811386004
 21
2.4752622869
  0
LINE
  5
255
100
AcDbEntity
  8
0
100
AcDbLine
 62
7
  6
CONTINUOUS
 10
-68.3312136004
 20
2.7833532869
 11
-68.9194396004
 21
4.5247032869
  0
LINE
  5
256
100
AcDbEntity
  8
0
100
AcDbLine
 62
7
  6
CONTINUOUS
 10
-69.0479446004
 20
4.1930782869
 11
-68.4710836004
 21
2.4752622869
  0
LINE
  5
257
100
AcDbEntity
  8
0
100
AcDbLine
 62
7
  6
CONTINUOUS
 10
-65.6582926004
 20
-1.6686247131
 11
-65.3528156004
 21
-2.5786997131
  0
LINE
  5
258
100
AcDbEntity
  8
0
100
AcDbLine
 62
7
  6
CONTINUOUS
 10
-66.1893906004
 20
4.2276662869
 11
-65.8839126004
 21
3.3175892869
  0
LWPOLYLINE
  5
259
100
AcDbEntity
  8
RACCORDO
100
AcDbPolyline
 62
253
  6
CONTINUOUS
 90
13
 70
0
 10
-57.1748232833
 20
-22.2298648954
 10
-57.177024753
 20
-22.2198338157
 10
-57.1790767189
 20
-22.2097694758
 10
-57.1809786536
 20
-22.1996740954
 10
-57.182730472
 20
-22.1895474143
 10
-57.1843312287
 20
-22.1793941462
 10
-57.1857794901
 20
-22.1692240357
 10
-57.1870747802
 20
-22.1590428696
 10
-57.1882175962
 20
-22.1488494604
 10
-57.1892082185
 20
-22.1386431238
 10
-57.1900466338
 20
-22.1284251391
 10
-57.1907326822
 20
-22.1181987655
 10
-57.1912663424
 20
-22.1079662721
  0
LWPOLYLINE
  5
25A
100
AcDbEntity
  8
RACCORDO
100
AcDbPolyline
 62
253
  6
CONTINUOUS
 90
10
 70
0
 10
-57.0698478719
 20
-22.1872795374
 10
-57.071375673
 20
-22.1785351033
 10
-57.0727713519
 20
-22.169767016
 10
-57.0740348871
 20
-22.1609753223
 10
-57.0751668361
 20
-22.1521553985
 10
-57.0761665987
 20
-22.1433119603
 10
-57.0770324171
 20
-22.1344590648
 10
-57.077763691
 20
-22.1256014282
 10
-57.078360978
 20
-22.1167344253
 10
-57.0788242573
 20
-22.1078581004
  0
LINE
  5
25B
100
AcDbEntity
  8
RACCORDO
100
AcDbLine
 62
253
  6
CONTINUOUS
 10
-56.5286658273
 20
23.721566325
 11
-56.5296577963
 21
23.7424436309
  0
LWPOLYLINE
  5
25C
100
AcDbEntity
  8
RACCORDO
100
AcDbPolyline
 62
253
  6
CONTINUOUS
 90
10
 70
0
 10
-57.0788242573
 20
-22.1078581004
 10
-57.1709816032
 20
-19.9735272759
 10
-57.255939264
 20
-17.7460319295
 10
-57.3331632576
 20
-15.4259991172
 10
-57.4029350679
 20
-13.0200551375
 10
-57.4641187723
 20
-10.523131326
 10
-57.5139653525
 20
-7.9185232724
 10
-57.5508868508
 20
-5.2011319649
 10
-57.5747407836
 20
-2.3774705917
 10
-57.5846001127
 20
0.5518415554
  0
LWPOLYLINE
  5
25D
100
AcDbEntity
  8
RACCORDO
100
AcDbPolyline
 62
253
  6
CONTINUOUS
 90
10
 70
0
 10
-57.1912663424
 20
-22.1079662721
 10
-57.2819203679
 20
-19.9724337603
 10
-57.3669526237
 20
-17.7451516677
 10
-57.4451371284
 20
-15.4261155894
 10
-57.5150344125
 20
-13.020438878
 10
-57.5755319004
 20
-10.5230301684
 10
-57.6255879911
 20
-7.9185871855
 10
-57.6636126715
 20
-5.2020349564
 10
-57.6877236104
 20
-2.3785350151
 10
-57.6961076774
 20
0.5518415559
  0
LINE
  5
25E
100
AcDbEntity
  8
RACCORDO
100
AcDbLine
 62
253
  6
CONTINUOUS
 10
-56.5559482466
 20
24.4230807098
 11
-56.5328000369
 21
23.8637274125
  0
LINE
  5
25F
100
AcDbEntity
  8
RACCORDO
100
AcDbLine
 62
253
  6
CONTINUOUS
 10
-56.5296577963
 20
23.7424436309
 11
-56.5310407489
 21
23.7753778094
  0
LINE
  5
260
100
AcDbEntity
  8
RACCORDO
100
AcDbLine
 62
253
  6
CONTINUOUS
 10
-56.5310407489
 20
23.7753778094
 11
-56.5318273102
 21
23.7968551217
  0
LINE
  5
261
100
AcDbEntity
  8
RACCORDO
100
AcDbLine
 62
253
  6
CONTINUOUS
 10
-56.5318273102
 20
23.7968551217
 11
-56.5324600458
 21
23.8167254681
  0
LWPOLYLINE
  5
262
100
AcDbEntity
  8
RACCORDO
100
AcDbPolyline
 62
253
  6
CONTINUOUS
 90
13
 70
0
 10
-56.7565184039
 20
-21.3481618526
 10
-56.7548586646
 20
-21.4090280606
 10
-56.7501954013
 20
-21.4696577934
 10
-56.7425514862
 20
-21.529902592
 10
-56.7319718556
 20
-21.5895405743
 10
-56.7184864672
 20
-21.648504298
 10
-56.7020735397
 20
-21.7068728506
 10
-56.6827569377
 20
-21.7644842592
 10
-56.6605598253
 20
-21.8212030397
 10
-56.6354006717
 20
-21.8771260862
 10
-56.6072430484
 20
-21.9321671831
 10
-56.5761375373
 20
-21.9860737318
 10
-56.542109984
 20
-22.0386748051
  0
LWPOLYLINE
  5
263
100
AcDbEntity
  8
RACCORDO
100
AcDbPolyline
 62
253
  6
CONTINUOUS
 90
13
 70
0
 10
-56.8437702298
 20
-21.3524572078
 10
-56.8420497675
 20
-21.416334488
 10
-56.8373429674
 20
-21.4796976793
 10
-56.8296530849
 20
-21.5425397369
 10
-56.8189743124
 20
-21.604915314
 10
-56.805319194
 20
-21.6667549554
 10
-56.7887185536
 20
-21.7278652847
 10
-56.7692009507
 20
-21.7882413195
 10
-56.7467447729
 20
-21.8478724996
 10
-56.7213055944
 20
-21.9065570324
 10
-56.6928710083
 20
-21.9642222496
 10
-56.6614606318
 20
-22.0209246136
 10
-56.6270781223
 20
-22.0766559477
  0
LWPOLYLINE
  5
264
100
AcDbEntity
  8
RACCORDO
100
AcDbPolyline
 62
253
  6
CONTINUOUS
 90
9
 70
0
 10
-56.5324600458
 20
23.8167254681
 10
-56.5329081692
 20
23.8340220338
 10
-56.5330558046
 20
23.8414360913
 10
-56.5331498766
 20
23.8479032342
 10
-56.5331892376
 20
23.8533445551
 10
-56.5331734073
 20
23.8576936633
 10
-56.5331025789
 20
23.8608974939
 10
-56.5329776165
 20
23.8629169563
 10
-56.5328000448
 20
23.8637274105
  0
LINE
  5
265
100
AcDbEntity
  8
RACCORDO
100
AcDbLine
 62
253
  6
CONTINUOUS
 10
-56.8580436883
 20
-14.0930452073
 11
-56.8437702298
 21
-21.3524572078
  0
LINE
  5
266
100
AcDbEntity
  8
RACCORDO
100
AcDbLine
 62
253
  6
CONTINUOUS
 10
-56.7703225797
 20
-14.0901907399
 11
-56.7565184041
 21
-21.3481618526
  0
LINE
  5
267
100
AcDbEntity
  8
RACCORDO
100
AcDbLine
 62
253
  6
CONTINUOUS
 10
-56.7786675303
 20
-6.770522793
 11
-56.7703225797
 21
-14.0901907399
  0
LINE
  5
268
100
AcDbEntity
  8
RACCORDO
100
AcDbLine
 62
253
  6
CONTINUOUS
 10
-56.8684523585
 20
-4.331113075
 11
-56.8580436883
 21
-14.0930452073
  0
LINE
  5
269
100
AcDbEntity
  8
RACCORDO
100
AcDbLine
 62
253
  6
CONTINUOUS
 10
-56.7814605466
 20
0.5518393412
 11
-56.7786675303
 21
-6.770522793
  0
LINE
  5
26A
100
AcDbEntity
  8
DRAFT
100
AcDbLine
 62
7
  6
CONTINUOUS
 10
-56.7184846004
 20
-21.3481617131
 11
-56.7184846004
 21
22.4518382869
  0
LINE
  5
26B
100
AcDbEntity
  8
RACCORDO
100
AcDbLine
 62
7
  6
CONTINUOUS
 10
-56.3684846004
 20
-22.8040899963
 11
-56.3684846004
 21
-24.6481617131
  0
LINE
  5
26C
100
AcDbEntity
  8
RACCORDO
100
AcDbLine
 62
7
  6
CONTINUOUS
 10
-56.3684846004
 20
23.9077665701
 11
-56.3684846004
 21
25.7518382869
  0
LINE
  5
26D
100
AcDbEntity
  8
RACCORDO
100
AcDbLine
 62
7
  6
CONTINUOUS
 10
-56.1184846004
 20
22.452660566
 11
-56.1184846004
 21
-21.3489839923
  0
LINE
  5
26E
100
AcDbEntity
  8
RACCORDO
100
AcDbLine
 62
253
  6
CONTINUOUS
 10
-55.5184846004
 20
23.7589293804
 11
-55.5184846004
 21
23.6518382869
  0
LINE
  5
26F
100
AcDbEntity
  8
RACCORDO
100
AcDbLine
 62
253
  6
CONTINUOUS
 10
-55.5184846004
 20
-22.6552528067
 11
-55.5184846004
 21
-22.5481617131
  0
LINE
  5
270
100
AcDbEntity
  8
RACCORDO
100
AcDbLine
 62
253
  6
CONTINUOUS
 10
-56.8694515585
 20
2.9935711389
 11
-56.8684523585
 21
-4.331113075
  0
LINE
  5
271
100
AcDbEntity
  8
RACCORDO
100
AcDbLine
 62
253
  6
CONTINUOUS
 10
-56.7786675011
 20
7.8742329511
 11
-56.7814605466
 21
0.5518393412
  0
LINE
  5
272
100
AcDbEntity
  8
RACCORDO
100
AcDbLine
 62
253
  6
CONTINUOUS
 10
-56.8643339062
 20
10.3183899395
 11
-56.8694515585
 21
2.9935711389
  0
LINE
  5
273
100
AcDbEntity
  8
RACCORDO
100
AcDbLine
 62
253
  6
CONTINUOUS
 10
-56.7703224984
 20
15.1939259035
 11
-56.7786675011
 21
7.8742329511
  0
LINE
  5
274
100
AcDbEntity
  8
RACCORDO
100
AcDbLine
 62
253
  6
CONTINUOUS
 10
-56.8540334335
 20
17.6236193158
 11
-56.8643339062
 21
10.3183899395
  0
LINE
  5
275
100
AcDbEntity
  8
RACCORDO
100
AcDbLine
 62
253
  6
CONTINUOUS
 10
-56.8437702298
 20
22.4561337815
 11
-56.8540334335
 21
17.6236193158
  0
LINE
  5
276
100
AcDbEntity
  8
RACCORDO
100
AcDbLine
 62
253
  6
CONTINUOUS
 10
-56.7565184976
 20
22.45178925
 11
-56.7703224984
 21
15.1939259035
  0
LWPOLYLINE
  5
277
100
AcDbEntity
  8
RACCORDO
100
AcDbPolyline
 62
253
  6
CONTINUOUS
 90
10
 70
0
 10
-57.6961076774
 20
0.5518415559
 10
-57.6877163982
 20
3.4834967671
 10
-57.6635877557
 20
6.3079273324
 10
-57.6255413855
 20
9.0250621412
 10
-57.5754666042
 20
11.6297022888
 10
-57.5149584785
 20
14.1269602663
 10
-57.4450598708
 20
16.5322506944
 10
-57.3668850943
 20
18.8507024553
 10
-57.2818776931
 20
21.0771649289
 10
-57.1912663502
 20
23.2116426713
  0
LWPOLYLINE
  5
278
100
AcDbEntity
  8
RACCORDO
100
AcDbPolyline
 62
253
  6
CONTINUOUS
 90
10
 70
0
 10
-57.5846001128
 20
0.5518415554
 10
-57.5747255517
 20
3.4824314505
 10
-57.5508554632
 20
6.3070225901
 10
-57.5139186801
 20
9.0249957636
 10
-57.464055949
 20
11.6298009246
 10
-57.4028589943
 20
14.1265738214
 10
-57.3330860018
 20
16.5321302695
 10
-57.2558759102
 20
18.8515775422
 10
-57.1709441272
 20
21.0782540583
 10
-57.0788242573
 20
23.2115346741
  0
LWPOLYLINE
  5
279
100
AcDbEntity
  8
RACCORDO
100
AcDbPolyline
 62
253
  6
CONTINUOUS
 90
7
 70
0
 10
-56.533055802
 20
-22.7377595017
 10
-56.5331498744
 20
-22.7442266469
 10
-56.5331892357
 20
-22.7496679702
 10
-56.5331734058
 20
-22.7540170804
 10
-56.5331025778
 20
-22.7572209128
 10
-56.5329776158
 20
-22.7592403767
 10
-56.5328000446
 20
-22.760050832
  0
LINE
  5
27A
100
AcDbEntity
  8
RACCORDO
100
AcDbLine
 62
253
  6
CONTINUOUS
 10
-56.532708769
 20
-22.7220749284
 11
-56.533055802
 21
-22.7377595017
  0
LINE
  5
27B
100
AcDbEntity
  8
RACCORDO
100
AcDbLine
 62
253
  6
CONTINUOUS
 10
-56.5321650221
 20
-22.7033774025
 11
-56.532708769
 21
-22.7220749284
  0
LINE
  5
27C
100
AcDbEntity
  8
RACCORDO
100
AcDbLine
 62
253
  6
CONTINUOUS
 10
-56.531451018
 20
-22.682576675
 11
-56.5321650221
 21
-22.7033774025
  0
LINE
  5
27D
100
AcDbEntity
  8
RACCORDO
100
AcDbLine
 62
253
  6
CONTINUOUS
 10
-56.5559482467
 20
-23.319404136
 11
-56.5327980973
 21
-22.7600509186
  0
LINE
  5
27E
100
AcDbEntity
  8
RACCORDO
100
AcDbLine
 62
253
  6
CONTINUOUS
 10
-56.5301386311
 20
-22.6496619439
 11
-56.531451018
 21
-22.682576675
  0
LWPOLYLINE
  5
27F
100
AcDbEntity
  8
RACCORDO
100
AcDbPolyline
 62
253
  6
CONTINUOUS
 90
3
 70
0
 10
-56.5286658273
 20
-22.6178897513
 10
-56.5291648554
 20
-22.6281330646
 10
-56.5301386311
 20
-22.6496619439
  0
LWPOLYLINE
  5
280
100
AcDbEntity
  8
RACCORDO
100
AcDbPolyline
 62
253
  6
CONTINUOUS
 90
13
 70
0
 10
-57.1912663502
 20
23.2116426713
 10
-57.190738654
 20
23.2217750685
 10
-57.1900623701
 20
23.2318902465
 10
-57.1892380157
 20
23.2419860424
 10
-57.1882678332
 20
23.2520440011
 10
-57.1871511862
 20
23.2620783448
 10
-57.1858821646
 20
23.2721357083
 10
-57.184460299
 20
23.2822066184
 10
-57.1828832696
 20
23.2922957335
 10
-57.1811371698
 20
23.3024700903
 10
-57.1792129385
 20
23.3127496739
 10
-57.177109824
 20
23.3231079513
 10
-57.1748232833
 20
23.3335414691
  0
LWPOLYLINE
  5
281
100
AcDbEntity
  8
RACCORDO
100
AcDbPolyline
 62
253
  6
CONTINUOUS
 90
10
 70
0
 10
-57.0788242573
 20
23.2115346741
 10
-57.0783610896
 20
23.2203961848
 10
-57.0777660205
 20
23.2292384659
 10
-57.0770390706
 20
23.2380614741
 10
-57.0761825271
 20
23.2468516882
 10
-57.075194144
 20
23.2556225418
 10
-57.0740671438
 20
23.2644144187
 10
-57.0727992832
 20
23.273240745
 10
-57.0713928514
 20
23.2820879931
 10
-57.0698478719
 20
23.2909561111
  0
LWPOLYLINE
  5
282
100
AcDbEntity
  8
RACCORDO
100
AcDbPolyline
 62
7
  6
CONTINUOUS
 90
19
 70
0
 10
-75.4911616798
 20
-3.1551437173
 10
-75.4880016518
 20
-3.15078497
 10
-75.4828609115
 20
-3.1465278218
 10
-75.475739459
 20
-3.1423722729
 10
-75.4665180816
 20
-3.1382781564
 10
-75.455315992
 20
-3.1342856392
 10
-75.4424908278
 20
-3.1305152213
 10
-75.4280692067
 20
-3.1269935503
 10
-75.412024511
 20
-3.1236939785
 10
-75.3946345248
 20
-3.1206570632
 10
-75.3758953335
 20
-3.1178817233
 10
-75.3558108517
 20
-3.1153690398
 10
-75.3346706079
 20
-3.1131628121
 10
-75.3123335181
 20
-3.111262552
 10
-75.2889406662
 20
-3.1096687478
 10
-75.2652048321
 20
-3.1084266637
 10
-75.241363609
 20
-3.1075513876
 10
-75.2171794037
 20
-3.1070278317
 10
-75.1926522162
 20
-3.1068559958
  0
LWPOLYLINE
  5
283
100
AcDbEntity
  8
RACCORDO
100
AcDbPolyline
 62
7
  6
CONTINUOUS
 90
19
 70
0
 10
-75.5301334841
 20
4.3385718287
 10
-75.5332928721
 20
4.3429306415
 10
-75.5384329293
 20
4.347187839
 10
-75.5455536558
 20
4.3513434211
 10
-75.5547742578
 20
4.3554375518
 10
-75.5659755291
 20
4.3594300671
 10
-75.5787998511
 20
4.3632004756
 10
-75.5932205955
 20
4.3667221298
 10
-75.6092643907
 20
4.3700216773
 10
-75.6266535029
 20
4.3730585691
 10
-75.6453918447
 20
4.3758338881
 10
-75.6654755034
 20
4.3783465515
 10
-75.6866150074
 20
4.3805527625
 10
-75.7089514395
 20
4.3824530103
 10
-75.7323437169
 20
4.3840468057
 10
-75.7560791186
 20
4.3852888839
 10
-75.7799200709
 20
4.3861641565
 10
-75.8041041476
 20
4.386687712
 10
-75.8286313485
 20
4.3868595502
  0
LWPOLYLINE
  5
284
100
AcDbEntity
  8
RACCORDO
100
AcDbPolyline
 62
253
  6
CONTINUOUS
 90
22
 70
0
 10
-56.6129272653
 20
-22.070798215
 10
-56.5771432728
 20
-22.1212505218
 10
-56.5397333665
 20
-22.1694364261
 10
-56.5006975462
 20
-22.2153559278
 10
-56.4599967515
 20
-22.2589742498
 10
-56.417670043
 20
-22.3003261694
 10
-56.373834602
 20
-22.3395160176
 10
-56.3284041638
 20
-22.3766258276
 10
-56.2814649931
 20
-22.4115735663
 10
-56.2333930663
 20
-22.4442174659
 10
-56.184253721
 20
-22.4745115818
 10
-56.1339816197
 20
-22.5025018585
 10
-56.0827567257
 20
-22.5281843617
 10
-56.0307635901
 20
-22.5515394733
 10
-55.9778176618
 20
-22.5725868113
 10
-55.9235452515
 20
-22.5913812952
 10
-55.867851339
 20
-22.6079895414
 10
-55.8108309444
 20
-22.6223449335
 10
-55.7523954385
 20
-22.6343025409
 10
-55.692515278
 20
-22.6438140535
 10
-55.631220006
 20
-22.6509277814
 10
-55.5685096227
 20
-22.6556437247
  0
LWPOLYLINE
  5
285
100
AcDbEntity
  8
RACCORDO
100
AcDbPolyline
 62
253
  6
CONTINUOUS
 90
22
 70
0
 10
-56.542109984
 20
-22.0386748051
 10
-56.5088163291
 20
-22.0878040159
 10
-56.4733871278
 20
-22.1349681135
 10
-56.435951336
 20
-22.1800860289
 10
-56.3966674522
 20
-22.2230587851
 10
-56.3556426923
 20
-22.2638510398
 10
-56.3129202557
 20
-22.3024780486
 10
-56.268589445
 20
-22.3389060818
 10
-56.2228073848
 20
-22.3730523726
 10
-56.1757116762
 20
-22.4048592296
 10
-56.1274874201
 20
-22.4342560854
 10
-56.0782088885
 20
-22.4612509892
 10
-56.0278373346
 20
-22.4858946446
 10
-55.9766863527
 20
-22.5080699958
 10
-55.9246839208
 20
-22.5278401326
 10
-55.8711635287
 20
-22.545410927
 10
-55.8160826973
 20
-22.5606911299
 10
-55.7596664408
 20
-22.5735079422
 10
-55.7016137498
 20
-22.5837897275
 10
-55.6418998231
 20
-22.5913692605
 10
-55.5807892257
 20
-22.5960473925
 10
-55.5184273416
 20
-22.5976517916
  0
LINE
  5
286
100
AcDbEntity
  8
0
100
AcDbLine
 62
7
  6
CONTINUOUS
 10
-63.5109716004
 20
-1.3699277131
 11
-62.7369586004
 21
-2.5952807131
  0
LINE
  5
287
100
AcDbEntity
  8
0
100
AcDbLine
 62
7
  6
CONTINUOUS
 10
-65.5483086004
 20
1.1925432869
 11
-64.5003736004
 21
-0.4728827131
  0
LINE
  5
288
100
AcDbEntity
  8
0
100
AcDbLine
 62
7
  6
CONTINUOUS
 10
-64.4574286004
 20
-0.0876157131
 11
-65.4884496004
 21
1.5765592869
  0
LINE
  5
289
100
AcDbEntity
  8
0
100
AcDbLine
 62
7
  6
CONTINUOUS
 10
-62.5999976004
 20
-2.3548527131
 11
-63.1883006004
 21
-1.3699277131
  0
LINE
  5
28A
100
AcDbEntity
  8
0
100
AcDbLine
 62
7
  6
CONTINUOUS
 10
-48.0623933838
 20
-25.0846952489
 11
-48.0623933838
 21
-24.6481617131
  0
LINE
  5
28B
100
AcDbEntity
  8
0
100
AcDbLine
 62
7
  6
CONTINUOUS
 10
-48.0623933838
 20
25.7518382869
 11
-48.0623933838
 21
26.1883718227
  0
LINE
  5
28C
100
AcDbEntity
  8
0
100
AcDbLine
 62
253
  6
CONTINUOUS
 10
-47.878417594
 20
26.3434647036
 11
-47.878417594
 21
25.7521123799
  0
LINE
  5
28D
100
AcDbEntity
  8
0
100
AcDbLine
 62
253
  6
CONTINUOUS
 10
-47.878417594
 20
-24.6484358062
 11
-47.878417594
 21
-25.2397881299
  0
LINE
  5
28E
100
AcDbEntity
  8
0
100
AcDbLine
 62
253
  6
CONTINUOUS
 10
-47.6786916871
 20
26.5416312002
 11
-47.6786916871
 21
25.9518382869
  0
LINE
  5
28F
100
AcDbEntity
  8
0
100
AcDbLine
 62
253
  6
CONTINUOUS
 10
-47.6786916871
 20
-24.8481617131
 11
-47.6786916871
 21
-25.4379546265
  0
LINE
  5
290
100
AcDbEntity
  8
0
100
AcDbLine
 62
7
  6
CONTINUOUS
 10
-47.6184846004
 20
-24.4981617131
 11
-47.6184846004
 21
-24.6481617131
  0
LINE
  5
291
100
AcDbEntity
  8
0
100
AcDbLine
 62
7
  6
CONTINUOUS
 10
-47.6184846004
 20
25.6018382869
 11
-47.6184846004
 21
25.7518382869
  0
LINE
  5
292
100
AcDbEntity
  8
0
100
AcDbLine
 62
7
  6
CONTINUOUS
 10
-47.0639597131
 20
26.9233642572
 11
-46.9145000315
 21
27.4811553826
  0
LINE
  5
293
100
AcDbEntity
  8
0
100
AcDbLine
 62
7
  6
CONTINUOUS
 10
-47.0630420508
 20
26.9018382869
 11
-46.9082623483
 21
27.4794840004
  0
LINE
  5
294
100
AcDbEntity
  8
0
100
AcDbLine
 62
7
  6
CONTINUOUS
 10
-46.1014973023
 20
26.9018382869
 11
-46.095729436
 21
26.9233642572
  0
LINE
  5
295
100
AcDbEntity
  8
0
100
AcDbLine
 62
7
  6
CONTINUOUS
 10
-45.6684846004
 20
26.6518382869
 11
-45.6627167341
 21
26.6733642572
  0
LINE
  5
296
100
AcDbEntity
  8
0
100
AcDbLine
 62
7
  6
CONTINUOUS
 10
-43.5639597131
 20
26.9233642572
 11
-43.4145000315
 21
27.4811553826
  0
LINE
  5
297
100
AcDbEntity
  8
0
100
AcDbLine
 62
7
  6
CONTINUOUS
 10
-43.5630420508
 20
26.9018382869
 11
-43.4082623483
 21
27.4794840004
  0
LINE
  5
298
100
AcDbEntity
  8
0
100
AcDbLine
 62
7
  6
CONTINUOUS
 10
-42.4184846004
 20
26.9018382869
 11
-42.4095682516
 21
26.9233642572
  0
LINE
  5
299
100
AcDbEntity
  8
0
100
AcDbLine
 62
7
  6
CONTINUOUS
 10
-62.0116956004
 20
-1.3699277131
 11
-62.5999976004
 21
-2.3548527131
  0
LINE
  5
29A
100
AcDbEntity
  8
0
100
AcDbLine
 62
7
  6
CONTINUOUS
 10
-62.4600526004
 20
-2.5952807131
 11
-61.6862056004
 21
-1.3699277131
  0
LINE
  5
29B
100
AcDbEntity
  8
0
100
AcDbLine
 62
7
  6
CONTINUOUS
 10
-47.6786916871
 20
25.9518382869
 11
-47.6957825815
 21
25.9346032507
  0
LINE
  5
29C
100
AcDbEntity
  8
0
100
AcDbLine
 62
7
  6
CONTINUOUS
 10
-47.8691157614
 20
25.7614348303
 11
-47.877364896
 21
25.7531138993
  0
LINE
  5
29D
100
AcDbEntity
  8
0
100
AcDbLine
 62
7
  6
CONTINUOUS
 10
-48.0623933838
 20
26.1883718227
 11
-47.3274009493
 21
26.9233642572
  0
LINE
  5
29E
100
AcDbEntity
  8
0
100
AcDbLine
 62
7
  6
CONTINUOUS
 10
-47.6786916871
 20
26.5416312002
 11
-47.3184846004
 21
26.9018382869
  0
LINE
  5
29F
100
AcDbEntity
  8
0
100
AcDbLine
 62
7
  6
CONTINUOUS
 10
-47.6957825815
 20
25.9346032507
 11
-47.8691157614
 21
25.7614348303
  0
LINE
  5
2A0
100
AcDbEntity
  8
0
100
AcDbLine
 62
7
  6
CONTINUOUS
 10
-47.877364896
 20
25.7531138993
 11
-47.878417594
 21
25.7521123799
  0
LINE
  5
2A1
100
AcDbEntity
  8
0
100
AcDbLine
 62
7
  6
CONTINUOUS
 10
-47.878417594
 20
26.3434647036
 11
-48.0623933838
 21
26.1883718227
  0
LINE
  5
2A2
100
AcDbEntity
  8
0
100
AcDbLine
 62
7
  6
CONTINUOUS
 10
66.3559780762
 20
-45.348161683
 11
64.492879351
 21
-45.4369701792
  0
LINE
  5
2A3
100
AcDbEntity
  8
0
100
AcDbLine
 62
7
  6
CONTINUOUS
 10
-64.2298485518
 20
-45.4369701792
 11
-66.092947277
 21
-45.348161683
  0
LINE
  5
2A4
100
AcDbEntity
  8
0
100
AcDbLine
 62
7
  6
CONTINUOUS
 10
-33.1372346004
 20
-35.2694383145
 11
-32.9184846839
 21
-35.4034808635
  0
LINE
  5
2A5
100
AcDbEntity
  8
0
100
AcDbLine
 62
7
  6
CONTINUOUS
 10
-32.8747346004
 20
-35.1800766074
 11
-33.0059846004
 21
-35.090714916
  0
LINE
  5
2A6
100
AcDbEntity
  8
0
100
AcDbLine
 62
7
  6
CONTINUOUS
 10
-47.878417594
 20
-25.2397881299
 11
-48.0623933838
 21
-25.0846952489
  0
LINE
  5
2A7
100
AcDbEntity
  8
0
100
AcDbLine
 62
7
  6
CONTINUOUS
 10
-47.878417594
 20
-24.6484358062
 11
-47.877364896
 21
-24.6494373256
  0
LWPOLYLINE
  5
2A8
100
AcDbEntity
  8
0
100
AcDbPolyline
 62
7
  6
CONTINUOUS
 90
3
 70
0
 10
-47.7435497109
 20
-24.783342906
 10
-47.6957825815
 20
-24.830926677
 10
-47.6786916871
 20
-24.8481617131
  0
LINE
  5
2A9
100
AcDbEntity
  8
0
100
AcDbLine
 62
7
  6
CONTINUOUS
 10
-47.3274009493
 20
-25.8196876834
 11
-48.0623933838
 21
-25.0846952489
  0
LINE
  5
2AA
100
AcDbEntity
  8
0
100
AcDbLine
 62
7
  6
CONTINUOUS
 10
-47.3184846004
 20
-25.7981617131
 11
-47.6786916871
 21
-25.4379546265
  0
LINE
  5
2AB
100
AcDbEntity
  8
0
100
AcDbLine
 62
7
  6
CONTINUOUS
 10
-47.8691157614
 20
-24.6577582566
 11
-47.7435497109
 21
-24.783342906
  0
LINE
  5
2AC
100
AcDbEntity
  8
0
100
AcDbLine
 62
7
  6
CONTINUOUS
 10
-47.877364896
 20
-24.6494373256
 11
-47.8691157614
 21
-24.6577582566
  0
LINE
  5
2AD
100
AcDbEntity
  8
0
100
AcDbLine
 62
7
  6
CONTINUOUS
 10
-33.2684846004
 20
-35.1353957617
 11
-33.1372346004
 21
-35.2694383145
  0
LINE
  5
2AE
100
AcDbEntity
  8
0
100
AcDbLine
 62
7
  6
CONTINUOUS
 10
-33.8372345587
 20
-33.6609276333
 11
-34.0122346422
 21
-33.4822042504
  0
LINE
  5
2AF
100
AcDbEntity
  8
0
100
AcDbLine
 62
7
  6
CONTINUOUS
 10
-42.4184846004
 20
-25.7981617131
 11
-42.4095682516
 21
-25.8196876834
  0
LINE
  5
2B0
100
AcDbEntity
  8
0
100
AcDbLine
 62
7
  6
CONTINUOUS
 10
-46.9145000315
 20
-26.3774788088
 11
-47.0639597131
 21
-25.8196876834
  0
LINE
  5
2B1
100
AcDbEntity
  8
0
100
AcDbLine
 62
7
  6
CONTINUOUS
 10
-46.9082623483
 20
-26.3758074267
 11
-47.0630420508
 21
-25.7981617131
  0
LINE
  5
2B2
100
AcDbEntity
  8
0
100
AcDbLine
 62
7
  6
CONTINUOUS
 10
-46.1014973023
 20
-25.7981617131
 11
-46.095729436
 21
-25.8196876834
  0
LINE
  5
2B3
100
AcDbEntity
  8
0
100
AcDbLine
 62
7
  6
CONTINUOUS
 10
-45.6684846004
 20
-25.5481617131
 11
-45.6627167341
 21
-25.5696876834
  0
LINE
  5
2B4
100
AcDbEntity
  8
0
100
AcDbLine
 62
7
  6
CONTINUOUS
 10
-43.4145000315
 20
-26.3774788088
 11
-43.5639597131
 21
-25.8196876834
  0
LINE
  5
2B5
100
AcDbEntity
  8
0
100
AcDbLine
 62
7
  6
CONTINUOUS
 10
-43.4082623483
 20
-26.3758074267
 11
-43.5630420508
 21
-25.7981617131
  0
LINE
  5
2B6
100
AcDbEntity
  8
0
100
AcDbLine
 62
7
  6
CONTINUOUS
 10
-46.1739271501
 20
-25.7981617131
 11
-46.1730094878
 21
-25.8196876834
  0
LINE
  5
2B7
100
AcDbEntity
  8
0
100
AcDbLine
 62
7
  6
CONTINUOUS
 10
-47.0630420508
 20
26.9018382869
 11
-47.0639597131
 21
26.9233642572
  0
LINE
  5
2B8
100
AcDbEntity
  8
0
100
AcDbLine
 62
7
  6
CONTINUOUS
 10
-42.6739271501
 20
-25.7981617131
 11
-42.6730094878
 21
-25.8196876834
  0
LINE
  5
2B9
100
AcDbEntity
  8
0
100
AcDbLine
 62
7
  6
CONTINUOUS
 10
-43.5630420508
 20
26.9018382869
 11
-43.5639597131
 21
26.9233642572
  0
LINE
  5
2BA
100
AcDbEntity
  8
0
100
AcDbLine
 62
7
  6
CONTINUOUS
 10
-42.1184846004
 20
-24.4981617131
 11
-42.1184846004
 21
-24.6481617131
  0
LINE
  5
2BB
100
AcDbEntity
  8
0
100
AcDbLine
 62
7
  6
CONTINUOUS
 10
-42.1184846004
 20
25.6018382869
 11
-42.1184846004
 21
25.7518382869
  0
LINE
  5
2BC
100
AcDbEntity
  8
0
100
AcDbLine
 62
253
  6
CONTINUOUS
 10
-42.0582775138
 20
-25.4379546265
 11
-42.0582775138
 21
-24.8481617131
  0
LINE
  5
2BD
100
AcDbEntity
  8
0
100
AcDbLine
 62
253
  6
CONTINUOUS
 10
-42.0582775138
 20
25.9518382869
 11
-42.0582775138
 21
26.5416312002
  0
LINE
  5
2BE
100
AcDbEntity
  8
0
100
AcDbLine
 62
253
  6
CONTINUOUS
 10
-41.8585516068
 20
-25.2397881299
 11
-41.8585516068
 21
-24.6484358062
  0
LINE
  5
2BF
100
AcDbEntity
  8
0
100
AcDbLine
 62
253
  6
CONTINUOUS
 10
-41.8585516068
 20
25.7521123799
 11
-41.8585516068
 21
26.3434647036
  0
LINE
  5
2C0
100
AcDbEntity
  8
0
100
AcDbLine
 62
7
  6
CONTINUOUS
 10
-41.6745758171
 20
26.1883718227
 11
-41.6745758171
 21
25.7518382869
  0
LINE
  5
2C1
100
AcDbEntity
  8
0
100
AcDbLine
 62
7
  6
CONTINUOUS
 10
-41.6745758171
 20
-24.6481617131
 11
-41.6745758171
 21
-25.0846952489
  0
LINE
  5
2C2
100
AcDbEntity
  8
0
100
AcDbLine
 62
7
  6
CONTINUOUS
 10
-46.1739271501
 20
26.9018382869
 11
-46.1730094878
 21
26.9233642572
  0
LINE
  5
2C3
100
AcDbEntity
  8
0
100
AcDbLine
 62
7
  6
CONTINUOUS
 10
-47.0630420508
 20
-25.7981617131
 11
-47.0639597131
 21
-25.8196876834
  0
LINE
  5
2C4
100
AcDbEntity
  8
0
100
AcDbLine
 62
7
  6
CONTINUOUS
 10
-42.6739271501
 20
26.9018382869
 11
-42.6730094878
 21
26.9233642572
  0
LINE
  5
2C5
100
AcDbEntity
  8
0
100
AcDbLine
 62
7
  6
CONTINUOUS
 10
-43.5630420508
 20
-25.7981617131
 11
-43.5639597131
 21
-25.8196876834
  0
LINE
  5
2C6
100
AcDbEntity
  8
0
100
AcDbLine
 62
7
  6
CONTINUOUS
 10
-34.7918646004
 20
34.6639472869
 11
-35.5775326004
 21
31.9109592869
  0
LINE
  5
2C7
100
AcDbEntity
  8
0
100
AcDbLine
 62
7
  6
CONTINUOUS
 10
-35.2431826004
 20
30.6644352869
 11
-33.9575796004
 21
34.6639472869
  0
LINE
  5
2C8
100
AcDbEntity
  8
0
100
AcDbLine
 62
7
  6
CONTINUOUS
 10
-44.0742524668
 20
26.6733642572
 11
-43.6412397649
 21
26.9233642572
  0
LINE
  5
2C9
100
AcDbEntity
  8
0
100
AcDbLine
 62
7
  6
CONTINUOUS
 10
-44.0684846004
 20
26.6518382869
 11
-43.6354718985
 21
26.9018382869
  0
LINE
  5
2CA
100
AcDbEntity
  8
0
100
AcDbLine
 62
7
  6
CONTINUOUS
 10
-32.6559846839
 20
-35.2247574532
 11
-32.8747346004
 21
-35.1800766074
  0
LINE
  5
2CB
100
AcDbEntity
  8
0
100
AcDbLine
 62
7
  6
CONTINUOUS
 10
-30.8622347673
 20
-35.2247574532
 11
-30.9934847673
 21
-35.1800766074
  0
LINE
  5
2CC
100
AcDbEntity
  8
0
100
AcDbLine
 62
7
  6
CONTINUOUS
 10
-30.5559844335
 20
-34.3311404445
 11
-30.4247344335
 21
-34.3758212903
  0
LINE
  5
2CD
100
AcDbEntity
  8
0
100
AcDbLine
 62
7
  6
CONTINUOUS
 10
-27.0122344335
 20
-35.2247574532
 11
-27.1434844335
 21
-35.1800766074
  0
LINE
  5
2CE
100
AcDbEntity
  8
0
100
AcDbLine
 62
7
  6
CONTINUOUS
 10
-30.5997347673
 20
-33.5715659418
 11
-30.4684847673
 21
-33.6162467876
  0
LINE
  5
2CF
100
AcDbEntity
  8
0
100
AcDbLine
 62
7
  6
CONTINUOUS
 10
-27.0559847673
 20
-34.4651829817
 11
-27.1872347673
 21
-34.420502136
  0
LINE
  5
2D0
100
AcDbEntity
  8
0
100
AcDbLine
 62
7
  6
CONTINUOUS
 10
-34.8268179735
 20
-31.5545446792
 11
-34.7018179735
 21
-31.5970978656
  0
LINE
  5
2D1
100
AcDbEntity
  8
0
100
AcDbLine
 62
7
  6
CONTINUOUS
 10
-34.0122346422
 20
-33.4822042504
 11
-34.1872346004
 21
-33.3928425589
  0
LINE
  5
2D2
100
AcDbEntity
  8
0
100
AcDbLine
 62
7
  6
CONTINUOUS
 10
-34.4934846004
 20
-31.4694383064
 11
-34.5768179735
 21
-31.4268851199
  0
LINE
  5
2D3
100
AcDbEntity
  8
0
100
AcDbLine
 62
7
  6
CONTINUOUS
 10
-33.6601513466
 20
-31.4268851199
 11
-33.4934846004
 21
-31.5119914928
  0
LINE
  5
2D4
100
AcDbEntity
  8
0
100
AcDbLine
 62
7
  6
CONTINUOUS
 10
-32.7018178543
 20
-31.4268851199
 11
-32.8684846004
 21
-31.3417787471
  0
LINE
  5
2D5
100
AcDbEntity
  8
0
100
AcDbLine
 62
7
  6
CONTINUOUS
 10
-28.2018180927
 20
-32.320502139
 11
-28.0351511082
 21
-32.405608523
  0
LINE
  5
2D6
100
AcDbEntity
  8
0
100
AcDbLine
 62
7
  6
CONTINUOUS
 10
-28.0351511082
 20
-32.1928425648
 11
-28.1184846004
 21
-32.1502893784
  0
LINE
  5
2D7
100
AcDbEntity
  8
0
100
AcDbLine
 62
7
  6
CONTINUOUS
 10
-43.6412397649
 20
-25.8196876834
 11
-44.0742524668
 21
-25.5696876834
  0
LINE
  5
2D8
100
AcDbEntity
  8
0
100
AcDbLine
 62
7
  6
CONTINUOUS
 10
-43.6354718985
 20
-25.7981617131
 11
-44.0684846004
 21
-25.5481617131
  0
LINE
  5
2D9
100
AcDbEntity
  8
0
100
AcDbLine
 62
7
  6
CONTINUOUS
 10
-31.255984517
 20
-35.2694383145
 11
-31.0372346004
 21
-35.4034808635
  0
LINE
  5
2DA
100
AcDbEntity
  8
0
100
AcDbLine
 62
7
  6
CONTINUOUS
 10
-32.174734517
 20
-33.5268850961
 11
-32.3934846839
 21
-33.3928425589
  0
LINE
  5
2DB
100
AcDbEntity
  8
0
100
AcDbLine
 62
7
  6
CONTINUOUS
 10
-33.8268178543
 20
-32.2779489526
 11
-33.6184846004
 21
-32.405608523
  0
LINE
  5
2DC
100
AcDbEntity
  8
0
100
AcDbLine
 62
7
  6
CONTINUOUS
 10
-30.1622344335
 20
-34.2864595988
 11
-30.3809846004
 21
-34.1524170616
  0
LINE
  5
2DD
100
AcDbEntity
  8
0
100
AcDbLine
 62
7
  6
CONTINUOUS
 10
-27.4059844335
 20
-35.2694383145
 11
-27.1872347673
 21
-35.4034808635
  0
LINE
  5
2DE
100
AcDbEntity
  8
0
100
AcDbLine
 62
7
  6
CONTINUOUS
 10
-30.2059847673
 20
-33.5268850961
 11
-30.4247344335
 21
-33.3928425589
  0
LINE
  5
2DF
100
AcDbEntity
  8
0
100
AcDbLine
 62
7
  6
CONTINUOUS
 10
-31.9101513466
 20
-32.2779489526
 11
-31.7018180927
 21
-32.405608523
  0
LINE
  5
2E0
100
AcDbEntity
  8
0
100
AcDbLine
 62
7
  6
CONTINUOUS
 10
-27.4497347673
 20
-34.5098638275
 11
-27.2309846004
 21
-34.6439063647
  0
LINE
  5
2E1
100
AcDbEntity
  8
0
100
AcDbLine
 62
7
  6
CONTINUOUS
 10
-30.8268180927
 20
-31.3417787471
 11
-31.0351511082
 21
-31.2141191879
  0
LINE
  5
2E2
100
AcDbEntity
  8
0
100
AcDbLine
 62
7
  6
CONTINUOUS
 10
-26.3559849342
 20
-33.5268850961
 11
-26.5747346004
 21
-33.3928425589
  0
LINE
  5
2E3
100
AcDbEntity
  8
0
100
AcDbLine
 62
7
  6
CONTINUOUS
 10
-34.2747346422
 20
-33.6162467876
 11
-34.1434846422
 21
-33.705608479
  0
LINE
  5
2E4
100
AcDbEntity
  8
0
100
AcDbLine
 62
7
  6
CONTINUOUS
 10
-30.9934847673
 20
-35.1800766074
 11
-31.1247347673
 21
-35.090714916
  0
LINE
  5
2E5
100
AcDbEntity
  8
0
100
AcDbLine
 62
7
  6
CONTINUOUS
 10
-32.437234517
 20
-33.6162467876
 11
-32.305984517
 21
-33.705608479
  0
LINE
  5
2E6
100
AcDbEntity
  8
0
100
AcDbLine
 62
7
  6
CONTINUOUS
 10
-30.4247344335
 20
-34.3758212903
 11
-30.2934844335
 21
-34.4651829817
  0
LINE
  5
2E7
100
AcDbEntity
  8
0
100
AcDbLine
 62
7
  6
CONTINUOUS
 10
-30.4684847673
 20
-33.6162467876
 11
-30.3372347673
 21
-33.705608479
  0
LINE
  5
2E8
100
AcDbEntity
  8
0
100
AcDbLine
 62
7
  6
CONTINUOUS
 10
-33.4518178543
 20
-31.2566723743
 11
-33.5768178543
 21
-31.1715660014
  0
LINE
  5
2E9
100
AcDbEntity
  8
0
100
AcDbLine
 62
7
  6
CONTINUOUS
 10
-32.9101513466
 20
-31.5970978656
 11
-32.7851513466
 21
-31.6822042384
  0
LINE
  5
2EA
100
AcDbEntity
  8
0
100
AcDbLine
 62
7
  6
CONTINUOUS
 10
-31.6601511082
 20
-32.1928425648
 11
-31.7851511082
 21
-32.107736192
  0
LINE
  5
2EB
100
AcDbEntity
  8
0
100
AcDbLine
 62
7
  6
CONTINUOUS
 10
-27.1434844335
 20
-35.1800766074
 11
-27.2747344335
 21
-35.090714916
  0
LINE
  5
2EC
100
AcDbEntity
  8
0
100
AcDbLine
 62
7
  6
CONTINUOUS
 10
-27.1872347673
 20
-34.420502136
 11
-27.3184847673
 21
-34.3311404445
  0
LINE
  5
2ED
100
AcDbEntity
  8
0
100
AcDbLine
 62
7
  6
CONTINUOUS
 10
-31.0768180927
 20
-31.4268851199
 11
-30.9518180927
 21
-31.5119914928
  0
LINE
  5
2EE
100
AcDbEntity
  8
0
100
AcDbLine
 62
7
  6
CONTINUOUS
 10
-26.6184849342
 20
-33.6162467876
 11
-26.4872349342
 21
-33.705608479
  0
LINE
  5
2EF
100
AcDbEntity
  8
0
100
AcDbLine
 62
7
  6
CONTINUOUS
 10
-28.3268180927
 20
-32.2353957513
 11
-28.2018180927
 21
-32.320502139
  0
LINE
  5
2F0
100
AcDbEntity
  8
0
100
AcDbLine
 62
7
  6
CONTINUOUS
 10
-26.4934846004
 20
-32.2353957513
 11
-26.3684846004
 21
-32.320502139
  0
LINE
  5
2F1
100
AcDbEntity
  8
0
100
AcDbLine
 62
7
  6
CONTINUOUS
 10
-27.3684846004
 20
-31.5545446792
 11
-27.2434846004
 21
-31.639651052
  0
LINE
  5
2F2
100
AcDbEntity
  8
0
100
AcDbLine
 62
7
  6
CONTINUOUS
 10
-34.4934846004
 20
-30.6183744588
 11
-34.6601512274
 21
-30.4907148996
  0
LINE
  5
2F3
100
AcDbEntity
  8
0
100
AcDbLine
 62
7
  6
CONTINUOUS
 10
-32.7434846004
 20
-30.6183744588
 11
-32.9101513466
 21
-30.4907148996
  0
LINE
  5
2F4
100
AcDbEntity
  8
0
100
AcDbLine
 62
7
  6
CONTINUOUS
 10
-34.7018179735
 20
-31.5970978656
 11
-34.6184846004
 21
-31.6822042384
  0
LINE
  5
2F5
100
AcDbEntity
  8
0
100
AcDbLine
 62
7
  6
CONTINUOUS
 10
-33.5768178543
 20
-32.1502893784
 11
-33.7018178543
 21
-32.0226297894
  0
LINE
  5
2F6
100
AcDbEntity
  8
0
100
AcDbLine
 62
7
  6
CONTINUOUS
 10
-32.043484517
 20
-33.6609276333
 11
-32.174734517
 21
-33.5268850961
  0
LINE
  5
2F7
100
AcDbEntity
  8
0
100
AcDbLine
 62
7
  6
CONTINUOUS
 10
-34.7018179735
 20
-30.7460340181
 11
-34.6184846004
 21
-30.8311403909
  0
LINE
  5
2F8
100
AcDbEntity
  8
0
100
AcDbLine
 62
7
  6
CONTINUOUS
 10
-33.8268178543
 20
-31.2566723743
 11
-33.6601513466
 21
-31.4268851199
  0
LINE
  5
2F9
100
AcDbEntity
  8
0
100
AcDbLine
 62
7
  6
CONTINUOUS
 10
-30.2934844335
 20
-34.4651829817
 11
-30.2059847673
 21
-34.5545446732
  0
LINE
  5
2FA
100
AcDbEntity
  8
0
100
AcDbLine
 62
7
  6
CONTINUOUS
 10
-30.0309844335
 20
-34.420502136
 11
-30.1622344335
 21
-34.2864595988
  0
LINE
  5
2FB
100
AcDbEntity
  8
0
100
AcDbLine
 62
7
  6
CONTINUOUS
 10
-32.5351513466
 20
-31.5970978656
 11
-32.7018178543
 21
-31.4268851199
  0
LINE
  5
2FC
100
AcDbEntity
  8
0
100
AcDbLine
 62
7
  6
CONTINUOUS
 10
-32.9518178543
 20
-30.7460340181
 11
-32.8684846004
 21
-30.8311403909
  0
LINE
  5
2FD
100
AcDbEntity
  8
0
100
AcDbLine
 62
7
  6
CONTINUOUS
 10
-28.1184846004
 20
-32.1502893784
 11
-28.2018180927
 21
-32.0651829758
  0
LINE
  5
2FE
100
AcDbEntity
  8
0
100
AcDbLine
 62
7
  6
CONTINUOUS
 10
-26.285151585
 20
-32.1502893784
 11
-26.3684846004
 21
-32.0651829758
  0
LINE
  5
2FF
100
AcDbEntity
  8
0
100
AcDbLine
 62
7
  6
CONTINUOUS
 10
-34.3684846004
 20
-31.639651052
 11
-34.4934846004
 21
-31.4694383064
  0
LINE
  5
300
100
AcDbEntity
  8
0
100
AcDbLine
 62
7
  6
CONTINUOUS
 10
-31.387234517
 20
-35.090714916
 11
-31.255984517
 21
-35.2694383145
  0
LINE
  5
301
100
AcDbEntity
  8
0
100
AcDbLine
 62
7
  6
CONTINUOUS
 10
-34.3684846004
 20
-30.7885872045
 11
-34.4934846004
 21
-30.6183744588
  0
LINE
  5
302
100
AcDbEntity
  8
0
100
AcDbLine
 62
7
  6
CONTINUOUS
 10
-32.0351513466
 20
-32.107736192
 11
-31.9101513466
 21
-32.2779489526
  0
LINE
  5
303
100
AcDbEntity
  8
0
100
AcDbLine
 62
7
  6
CONTINUOUS
 10
-32.6184846004
 20
-30.7885872045
 11
-32.7434846004
 21
-30.6183744588
  0
LINE
  5
304
100
AcDbEntity
  8
0
100
AcDbLine
 62
7
  6
CONTINUOUS
 10
-30.0747347673
 20
-33.705608479
 11
-30.2059847673
 21
-33.5268850961
  0
LINE
  5
305
100
AcDbEntity
  8
0
100
AcDbLine
 62
7
  6
CONTINUOUS
 10
-30.7018180927
 20
-31.5119914928
 11
-30.8268180927
 21
-31.3417787471
  0
LINE
  5
306
100
AcDbEntity
  8
0
100
AcDbLine
 62
7
  6
CONTINUOUS
 10
-27.5372344335
 20
-35.090714916
 11
-27.4059844335
 21
-35.2694383145
  0
LINE
  5
307
100
AcDbEntity
  8
0
100
AcDbLine
 62
7
  6
CONTINUOUS
 10
-27.5809847673
 20
-34.3311404445
 11
-27.4497347673
 21
-34.5098638275
  0
LINE
  5
308
100
AcDbEntity
  8
0
100
AcDbLine
 62
7
  6
CONTINUOUS
 10
-34.1434846422
 20
-33.705608479
 11
-34.0559846004
 21
-33.8396510163
  0
LINE
  5
309
100
AcDbEntity
  8
0
100
AcDbLine
 62
7
  6
CONTINUOUS
 10
-33.0059846004
 20
-35.090714916
 11
-33.1809846839
 21
-34.8226298102
  0
LINE
  5
30A
100
AcDbEntity
  8
0
100
AcDbLine
 62
7
  6
CONTINUOUS
 10
-32.305984517
 20
-33.705608479
 11
-32.1309846839
 21
-33.9736936786
  0
LINE
  5
30B
100
AcDbEntity
  8
0
100
AcDbLine
 62
7
  6
CONTINUOUS
 10
-31.1247347673
 20
-35.090714916
 11
-31.2122346839
 21
-34.9566723474
  0
LINE
  5
30C
100
AcDbEntity
  8
0
100
AcDbLine
 62
7
  6
CONTINUOUS
 10
-32.7851513466
 20
-31.6822042384
 11
-32.7018178543
 21
-31.8098638573
  0
LINE
  5
30D
100
AcDbEntity
  8
0
100
AcDbLine
 62
7
  6
CONTINUOUS
 10
-30.3372347673
 20
-33.705608479
 11
-30.2497346004
 21
-33.8396510163
  0
LINE
  5
30E
100
AcDbEntity
  8
0
100
AcDbLine
 62
7
  6
CONTINUOUS
 10
-30.9518180927
 20
-31.5119914928
 11
-30.8684846004
 21
-31.639651052
  0
LINE
  5
30F
100
AcDbEntity
  8
0
100
AcDbLine
 62
7
  6
CONTINUOUS
 10
-27.2747344335
 20
-35.090714916
 11
-27.3622346004
 21
-34.9566723474
  0
LINE
  5
310
100
AcDbEntity
  8
0
100
AcDbLine
 62
7
  6
CONTINUOUS
 10
-27.3184847673
 20
-34.3311404445
 11
-27.4059844335
 21
-34.1970979073
  0
LINE
  5
311
100
AcDbEntity
  8
0
100
AcDbLine
 62
7
  6
CONTINUOUS
 10
-28.4101511082
 20
-32.107736192
 11
-28.3268180927
 21
-32.2353957513
  0
LINE
  5
312
100
AcDbEntity
  8
0
100
AcDbLine
 62
7
  6
CONTINUOUS
 10
-33.9518179735
 20
-32.0651829758
 11
-33.8268178543
 21
-32.2779489526
  0
LINE
  5
313
100
AcDbEntity
  8
0
100
AcDbLine
 62
7
  6
CONTINUOUS
 10
-33.3559846422
 20
-34.9566723474
 11
-33.2684846004
 21
-35.1353957617
  0
LINE
  5
314
100
AcDbEntity
  8
0
100
AcDbLine
 62
7
  6
CONTINUOUS
 10
-31.9559846004
 20
-33.8396510163
 11
-32.043484517
 21
-33.6609276333
  0
LINE
  5
315
100
AcDbEntity
  8
0
100
AcDbLine
 62
7
  6
CONTINUOUS
 10
-32.4518178543
 20
-31.7673106709
 11
-32.5351513466
 21
-31.5970978656
  0
LINE
  5
316
100
AcDbEntity
  8
0
100
AcDbLine
 62
7
  6
CONTINUOUS
 10
-32.8684846004
 20
-30.8311403909
 11
-32.8268178543
 21
-30.9162467637
  0
LINE
  5
317
100
AcDbEntity
  8
0
100
AcDbLine
 62
7
  6
CONTINUOUS
 10
-32.1184846004
 20
-31.9375234165
 11
-32.0351513466
 21
-32.107736192
  0
LINE
  5
318
100
AcDbEntity
  8
0
100
AcDbLine
 62
7
  6
CONTINUOUS
 10
-31.7851511082
 20
-32.107736192
 11
-31.8684846004
 21
-31.9375234165
  0
LINE
  5
319
100
AcDbEntity
  8
0
100
AcDbLine
 62
7
  6
CONTINUOUS
 10
-31.4747346839
 20
-34.867310656
 11
-31.387234517
 21
-35.090714916
  0
LINE
  5
31A
100
AcDbEntity
  8
0
100
AcDbLine
 62
7
  6
CONTINUOUS
 10
-34.6184846004
 20
-31.6822042384
 11
-34.5768179735
 21
-31.8098638573
  0
LINE
  5
31B
100
AcDbEntity
  8
0
100
AcDbLine
 62
7
  6
CONTINUOUS
 10
-33.3997346004
 20
-34.8226298102
 11
-33.3559846422
 21
-34.9566723474
  0
LINE
  5
31C
100
AcDbEntity
  8
0
100
AcDbLine
 62
7
  6
CONTINUOUS
 10
-34.3268179735
 20
-31.7673106709
 11
-34.3684846004
 21
-31.639651052
  0
LINE
  5
31D
100
AcDbEntity
  8
0
100
AcDbLine
 62
7
  6
CONTINUOUS
 10
-34.6184846004
 20
-30.8311403909
 11
-34.5768179735
 21
-30.9588000694
  0
LINE
  5
31E
100
AcDbEntity
  8
0
100
AcDbLine
 62
7
  6
CONTINUOUS
 10
-34.3268179735
 20
-30.9162467637
 11
-34.3684846004
 21
-30.7885872045
  0
LINE
  5
31F
100
AcDbEntity
  8
0
100
AcDbLine
 62
7
  6
CONTINUOUS
 10
-33.7018178543
 20
-32.0226297894
 11
-33.7434846004
 21
-31.8949702301
  0
LINE
  5
320
100
AcDbEntity
  8
0
100
AcDbLine
 62
7
  6
CONTINUOUS
 10
-33.5768178543
 20
-31.1715660014
 11
-33.6184846004
 21
-31.0439064422
  0
LINE
  5
321
100
AcDbEntity
  8
0
100
AcDbLine
 62
7
  6
CONTINUOUS
 10
-38.3684846004
 20
35.5518382869
 11
-38.3684846004
 21
29.5518382869
  0
LINE
  5
322
100
AcDbEntity
  8
0
100
AcDbLine
 62
7
  6
CONTINUOUS
 10
-36.8684846004
 20
-29.9481617131
 11
-36.8684846004
 21
-35.9481617131
  0
LINE
  5
323
100
AcDbEntity
  8
0
100
AcDbLine
 62
7
  6
CONTINUOUS
 10
-35.8684846004
 20
-30.4481617131
 11
-35.8684846004
 21
-32.4481617131
  0
LINE
  5
324
100
AcDbEntity
  8
0
100
AcDbLine
 62
7
  6
CONTINUOUS
 10
-35.6184846004
 20
-32.1928425648
 11
-35.6184846004
 21
-31.5545446792
  0
LINE
  5
325
100
AcDbEntity
  8
0
100
AcDbLine
 62
7
  6
CONTINUOUS
 10
-35.6184846004
 20
-31.2992255607
 11
-35.6184846004
 21
-30.7034808316
  0
LINE
  5
326
100
AcDbEntity
  8
0
100
AcDbLine
 62
7
  6
CONTINUOUS
 10
-46.1739271501
 20
-25.7981617131
 11
-46.3287068525
 21
-26.3758074267
  0
LINE
  5
327
100
AcDbEntity
  8
0
100
AcDbLine
 62
7
  6
CONTINUOUS
 10
-46.1730094878
 20
-25.8196876834
 11
-46.3224691694
 21
-26.3774788088
  0
LINE
  5
328
100
AcDbEntity
  8
0
100
AcDbLine
 62
7
  6
CONTINUOUS
 10
-44.0684846004
 20
-25.5481617131
 11
-44.0742524668
 21
-25.5696876834
  0
LINE
  5
329
100
AcDbEntity
  8
0
100
AcDbLine
 62
7
  6
CONTINUOUS
 10
-26.9216856004
 20
34.6639472869
 11
-28.1761876004
 21
30.6644352869
  0
LINE
  5
32A
100
AcDbEntity
  8
0
100
AcDbLine
 62
7
  6
CONTINUOUS
 10
-29.5072886004
 20
34.6639472869
 11
-30.3421436004
 21
32.4434052869
  0
LINE
  5
32B
100
AcDbEntity
  8
0
100
AcDbLine
 62
7
  6
CONTINUOUS
 10
-30.2881586004
 20
30.6644352869
 11
-29.2955156004
 21
33.2651542869
  0
LINE
  5
32C
100
AcDbEntity
  8
0
100
AcDbLine
 62
7
  6
CONTINUOUS
 10
-25.1786916871
 20
26.0518382869
 11
-25.1957872611
 21
26.0345985208
  0
LWPOLYLINE
  5
32D
100
AcDbEntity
  8
0
100
AcDbPolyline
 62
7
  6
CONTINUOUS
 90
3
 70
0
 10
-25.3727515467
 20
25.8577784272
 10
-25.3773652815
 20
25.8531134495
 10
-25.378417594
 20
25.8521123799
  0
LINE
  5
32E
100
AcDbEntity
  8
0
100
AcDbLine
 62
7
  6
CONTINUOUS
 10
-25.5623933838
 20
26.2383718227
 11
-24.8774009493
 21
26.9233642572
  0
LINE
  5
32F
100
AcDbEntity
  8
0
100
AcDbLine
 62
7
  6
CONTINUOUS
 10
-25.1786916871
 20
26.5916312002
 11
-24.8684846004
 21
26.9018382869
  0
LINE
  5
330
100
AcDbEntity
  8
0
100
AcDbLine
 62
7
  6
CONTINUOUS
 10
-25.1957872611
 20
26.0345985208
 11
-25.3727515467
 21
25.8577784272
  0
LWPOLYLINE
  5
331
100
AcDbEntity
  8
0
100
AcDbPolyline
 62
7
  6
CONTINUOUS
 90
51
 70
0
 10
-22.3468941954
 20
32.6440055309
 10
-22.3309677169
 20
32.6575294195
 10
-22.3148216246
 20
32.6715776411
 10
-22.2984456289
 20
32.6860962732
 10
-22.2818500194
 20
32.7011392382
 10
-22.2650718091
 20
32.7169233341
 10
-22.2480999073
 20
32.7334135964
 10
-22.2309454047
 20
32.7506449895
 10
-22.2136785862
 20
32.7689392047
 10
-22.1962810771
 20
32.7882911562
 10
-22.1787712523
 20
32.8087059297
 10
-22.161274521
 20
32.8305204739
 10
-22.1437749909
 20
32.8538092843
 10
-22.1262885545
 20
32.8784978655
 10
-22.1089882979
 20
32.9046996803
 10
-22.0918529154
 20
32.9324148801
 10
-22.0749037128
 20
32.9616433135
 10
-22.0583776941
 20
32.9924979891
 10
-22.0422380557
 20
33.0249244173
 10
-22.0265216011
 20
33.0589770878
 10
-22.0115757452
 20
33.0949324783
 10
-21.997366139
 20
33.132803431
 10
-21.9839271315
 20
33.1725771036
 10
-21.9717091833
 20
33.2144914467
 10
-21.9606855148
 20
33.2585883425
 10
-21.9508829057
 20
33.3048259088
 10
-21.9428321559
 20
33.3533164489
 10
-21.9365092823
 20
33.4040614245
 10
-21.931938268
 20
33.4570593739
 10
-21.9297218624
 20
33.5124182162
 10
-21.9296693538
 20
33.5701675099
 10
-21.9319714538
 20
33.6302776964
 10
-21.9378030467
 20
33.6927680191
 10
-21.9473122562
 20
33.758655848
 10
-21.9603509585
 20
33.826923813
 10
-21.9776496671
 20
33.8945390476
 10
-21.9995494888
 20
33.9610341437
 10
-22.0257093166
 20
34.0268765093
 10
-22.0558363432
 20
34.0904355021
 10
-22.0903024412
 20
34.1516480704
 10
-22.128735738
 20
34.2105772658
 10
-22.1697278073
 20
34.2657816016
 10
-22.2135677718
 20
34.317028535
 10
-22.2599665088
 20
34.3645506087
 10
-22.3066482245
 20
34.4076039642
 10
-22.3531011471
 20
34.4457733171
 10
-22.3998370483
 20
34.4794739519
 10
-22.4461154493
 20
34.5092078625
 10
-22.4916895237
 20
34.5351423804
 10
-22.5368060979
 20
34.5571101741
 10
-22.5814651718
 20
34.5751112437
  0
LINE
  5
332
100
AcDbEntity
  8
0
100
AcDbLine
 62
7
  6
CONTINUOUS
 10
-25.378417594
 20
26.3934647036
 11
-25.5623933838
 21
26.2383718227
  0
LINE
  5
333
100
AcDbEntity
  8
0
100
AcDbLine
 62
253
  6
CONTINUOUS
 10
46.5917376517
 20
-26.3758074267
 11
46.5854999685
 21
-26.3774788088
  0
LINE
  5
334
100
AcDbEntity
  8
0
100
AcDbLine
 62
253
  6
CONTINUOUS
 10
43.0917376517
 20
-26.3758074267
 11
43.0854999685
 21
-26.3774788088
  0
LWPOLYLINE
  5
335
100
AcDbEntity
  8
0
100
AcDbPolyline
 62
253
  6
CONTINUOUS
 90
3
 70
0
 10
48.0374525309
 20
-34.5577458049
 10
49.4394303323
 20
-34.5110383907
 10
52.4519242192
 20
-34.3939513571
  0
LINE
  5
336
100
AcDbEntity
  8
0
100
AcDbLine
 62
7
  6
CONTINUOUS
 10
10.1315153996
 20
-37.4481617131
 11
40.1315153996
 21
-37.4481617131
  0
LINE
  5
337
100
AcDbEntity
  8
0
100
AcDbLine
 62
7
  6
CONTINUOUS
 10
-36.8684846004
 20
-35.9481617131
 11
-23.8684846004
 21
-35.9481617131
  0
LINE
  5
338
100
AcDbEntity
  8
0
100
AcDbLine
 62
7
  6
CONTINUOUS
 10
-35.3684846004
 20
-35.4481617131
 11
-33.7934846004
 21
-35.4481617131
  0
LINE
  5
339
100
AcDbEntity
  8
0
100
AcDbLine
 62
7
  6
CONTINUOUS
 10
-30.8184844335
 20
-35.4481617131
 11
-30.5997347673
 21
-35.4481617131
  0
LINE
  5
33A
100
AcDbEntity
  8
0
100
AcDbLine
 62
7
  6
CONTINUOUS
 10
-29.1559847673
 20
-35.4481617131
 11
-28.8934847673
 21
-35.4481617131
  0
LINE
  5
33B
100
AcDbEntity
  8
0
100
AcDbLine
 62
7
  6
CONTINUOUS
 10
-26.9684846004
 20
-35.4481617131
 11
-26.7934842666
 21
-35.4481617131
  0
LINE
  5
33C
100
AcDbEntity
  8
0
100
AcDbLine
 62
7
  6
CONTINUOUS
 10
20.5430853996
 20
-35.3542787131
 11
21.7253313996
 21
-35.3542787131
  0
LINE
  5
33D
100
AcDbEntity
  8
0
100
AcDbLine
 62
7
  6
CONTINUOUS
 10
-26.7497349342
 20
-35.2247574532
 11
-27.0122344335
 21
-35.2247574532
  0
LINE
  5
33E
100
AcDbEntity
  8
0
100
AcDbLine
 62
7
  6
CONTINUOUS
 10
-30.5559844335
 20
-35.2247574532
 11
-30.8622347673
 21
-35.2247574532
  0
LINE
  5
33F
100
AcDbEntity
  8
0
100
AcDbLine
 62
7
  6
CONTINUOUS
 10
-33.7934846004
 20
-35.2247574532
 11
-35.01848459
 21
-35.2247574532
  0
LWPOLYLINE
  5
340
100
AcDbEntity
  8
0
100
AcDbPolyline
 62
253
  6
CONTINUOUS
 90
3
 70
0
 10
-52.188896594
 20
-34.3939487365
 10
-49.1748912978
 20
-34.5110928233
 10
-47.774424244
 20
-34.5577475052
  0
LINE
  5
341
100
AcDbEntity
  8
0
100
AcDbLine
 62
7
  6
CONTINUOUS
 10
-32.9184846839
 20
-35.4034808635
 11
-32.6559846839
 21
-35.4481617131
  0
LINE
  5
342
100
AcDbEntity
  8
0
100
AcDbLine
 62
7
  6
CONTINUOUS
 10
-34.1872346004
 20
-33.3928425589
 11
-34.4497346004
 21
-33.3481617131
  0
LINE
  5
343
100
AcDbEntity
  8
0
100
AcDbLine
 62
7
  6
CONTINUOUS
 10
-32.3934846839
 20
-33.3928425589
 11
-32.6559846839
 21
-33.3481617131
  0
LINE
  5
344
100
AcDbEntity
  8
0
100
AcDbLine
 62
7
  6
CONTINUOUS
 10
-27.6184846004
 20
-31.5119914928
 11
-27.3684846004
 21
-31.5545446792
  0
LINE
  5
345
100
AcDbEntity
  8
0
100
AcDbLine
 62
7
  6
CONTINUOUS
 10
-25.785151585
 20
-31.5119914928
 11
-25.535151585
 21
-31.5545446792
  0
LINE
  5
346
100
AcDbEntity
  8
0
100
AcDbLine
 62
7
  6
CONTINUOUS
 10
-31.0372346004
 20
-35.4034808635
 11
-30.8184844335
 21
-35.4481617131
  0
LINE
  5
347
100
AcDbEntity
  8
0
100
AcDbLine
 62
7
  6
CONTINUOUS
 10
-27.1872347673
 20
-35.4034808635
 11
-26.9684846004
 21
-35.4481617131
  0
LINE
  5
348
100
AcDbEntity
  8
0
100
AcDbLine
 62
7
  6
CONTINUOUS
 10
-34.4934846213
 20
-33.5715659418
 11
-34.2747346422
 21
-33.6162467876
  0
LINE
  5
349
100
AcDbEntity
  8
0
100
AcDbLine
 62
7
  6
CONTINUOUS
 10
-30.3809846004
 20
-34.1524170616
 11
-30.5997347673
 21
-34.1077362158
  0
LINE
  5
34A
100
AcDbEntity
  8
0
100
AcDbLine
 62
7
  6
CONTINUOUS
 10
-32.6559846839
 20
-33.5715659418
 11
-32.437234517
 21
-33.6162467876
  0
LINE
  5
34B
100
AcDbEntity
  8
0
100
AcDbLine
 62
7
  6
CONTINUOUS
 10
-27.2309846004
 20
-34.6439063647
 11
-27.0122344335
 21
-34.688587273
  0
LINE
  5
34C
100
AcDbEntity
  8
0
100
AcDbLine
 62
7
  6
CONTINUOUS
 10
-30.4247344335
 20
-33.3928425589
 11
-30.6434846004
 21
-33.3481617131
  0
LINE
  5
34D
100
AcDbEntity
  8
0
100
AcDbLine
 62
7
  6
CONTINUOUS
 10
-33.6184846004
 20
-32.405608523
 11
-33.4101513466
 21
-32.4481617131
  0
LINE
  5
34E
100
AcDbEntity
  8
0
100
AcDbLine
 62
7
  6
CONTINUOUS
 10
-31.7018180927
 20
-32.405608523
 11
-31.4934846004
 21
-32.4481617131
  0
LINE
  5
34F
100
AcDbEntity
  8
0
100
AcDbLine
 62
7
  6
CONTINUOUS
 10
-26.5747346004
 20
-33.3928425589
 11
-26.7934842666
 21
-33.3481617131
  0
LINE
  5
350
100
AcDbEntity
  8
0
100
AcDbLine
 62
7
  6
CONTINUOUS
 10
-32.8684846004
 20
-31.3417787471
 11
-33.0768178543
 21
-31.2992255607
  0
LINE
  5
351
100
AcDbEntity
  8
0
100
AcDbLine
 62
7
  6
CONTINUOUS
 10
-27.8268176159
 20
-32.2353957513
 11
-28.0351511082
 21
-32.1928425648
  0
LINE
  5
352
100
AcDbEntity
  8
0
100
AcDbLine
 62
7
  6
CONTINUOUS
 10
-34.6601512274
 20
-30.4907148996
 11
-34.8684846004
 21
-30.4481617131
  0
LINE
  5
353
100
AcDbEntity
  8
0
100
AcDbLine
 62
7
  6
CONTINUOUS
 10
-31.0351511082
 20
-31.2141191879
 11
-31.2434846004
 21
-31.1715660014
  0
LINE
  5
354
100
AcDbEntity
  8
0
100
AcDbLine
 62
7
  6
CONTINUOUS
 10
-25.9934846004
 20
-32.2353957513
 11
-26.2018176159
 21
-32.1928425648
  0
LINE
  5
355
100
AcDbEntity
  8
0
100
AcDbLine
 62
7
  6
CONTINUOUS
 10
-32.9101513466
 20
-30.4907148996
 11
-33.1184846004
 21
-30.4481617131
  0
LINE
  5
356
100
AcDbEntity
  8
0
100
AcDbLine
 62
7
  6
CONTINUOUS
 10
-27.6184846004
 20
-30.6609276452
 11
-27.410151585
 21
-30.7034808316
  0
LINE
  5
357
100
AcDbEntity
  8
0
100
AcDbLine
 62
7
  6
CONTINUOUS
 10
-25.785151585
 20
-30.6609276452
 11
-25.5768176159
 21
-30.7034808316
  0
LINE
  5
358
100
AcDbEntity
  8
0
100
AcDbLine
 62
7
  6
CONTINUOUS
 10
-33.4101513466
 20
-32.1928425648
 11
-33.5768178543
 21
-32.1502893784
  0
LINE
  5
359
100
AcDbEntity
  8
0
100
AcDbLine
 62
7
  6
CONTINUOUS
 10
-31.4934846004
 20
-32.2353957513
 11
-31.6601511082
 21
-32.1928425648
  0
LINE
  5
35A
100
AcDbEntity
  8
0
100
AcDbLine
 62
7
  6
CONTINUOUS
 10
-33.4934846004
 20
-31.5119914928
 11
-33.3268178543
 21
-31.5545446792
  0
LINE
  5
35B
100
AcDbEntity
  8
0
100
AcDbLine
 62
7
  6
CONTINUOUS
 10
-33.0768178543
 20
-31.5545446792
 11
-32.9101513466
 21
-31.5970978656
  0
LINE
  5
35C
100
AcDbEntity
  8
0
100
AcDbLine
 62
7
  6
CONTINUOUS
 10
-28.0351511082
 20
-32.405608523
 11
-27.8684846004
 21
-32.4481617131
  0
LINE
  5
35D
100
AcDbEntity
  8
0
100
AcDbLine
 62
7
  6
CONTINUOUS
 10
-31.2434846004
 20
-31.3843319335
 11
-31.0768180927
 21
-31.4268851199
  0
LINE
  5
35E
100
AcDbEntity
  8
0
100
AcDbLine
 62
7
  6
CONTINUOUS
 10
-26.2018176159
 20
-32.405608523
 11
-26.035151585
 21
-32.4481617131
  0
LINE
  5
35F
100
AcDbEntity
  8
0
100
AcDbLine
 62
253
  6
CONTINUOUS
 10
-46.3287068525
 20
-26.3758074267
 11
-46.3224691694
 21
-26.3774788088
  0
LINE
  5
360
100
AcDbEntity
  8
0
100
AcDbLine
 62
253
  6
CONTINUOUS
 10
-42.8287068525
 20
-26.3758074267
 11
-42.8224691694
 21
-26.3774788088
  0
LINE
  5
361
100
AcDbEntity
  8
0
100
AcDbLine
 62
7
  6
CONTINUOUS
 10
-26.7497349342
 20
-33.5715659418
 11
-26.6184849342
 21
-33.6162467876
  0
LINE
  5
362
100
AcDbEntity
  8
0
100
AcDbLine
 62
7
  6
CONTINUOUS
 10
-33.3268178543
 20
-31.2992255607
 11
-33.4518178543
 21
-31.2566723743
  0
LINE
  5
363
100
AcDbEntity
  8
0
100
AcDbLine
 62
7
  6
CONTINUOUS
 10
-34.8268179735
 20
-30.7034808316
 11
-34.7018179735
 21
-30.7460340181
  0
LINE
  5
364
100
AcDbEntity
  8
0
100
AcDbLine
 62
7
  6
CONTINUOUS
 10
-33.0768178543
 20
-30.7034808316
 11
-32.9518178543
 21
-30.7460340181
  0
LINE
  5
365
100
AcDbEntity
  8
0
100
AcDbLine
 62
7
  6
CONTINUOUS
 10
-27.0768176159
 20
-31.5119914928
 11
-27.285151585
 21
-31.4268851199
  0
LINE
  5
366
100
AcDbEntity
  8
0
100
AcDbLine
 62
7
  6
CONTINUOUS
 10
-25.2434846004
 20
-31.5119914928
 11
-25.4518176159
 21
-31.4268851199
  0
LINE
  5
367
100
AcDbEntity
  8
0
100
AcDbLine
 62
7
  6
CONTINUOUS
 10
-26.3684846004
 20
-32.320502139
 11
-26.2018176159
 21
-32.405608523
  0
LINE
  5
368
100
AcDbEntity
  8
0
100
AcDbLine
 62
7
  6
CONTINUOUS
 10
-26.2018176159
 20
-32.1928425648
 11
-26.285151585
 21
-32.1502893784
  0
LINE
  5
369
100
AcDbEntity
  8
0
100
AcDbLine
 62
7
  6
CONTINUOUS
 10
-27.2018176159
 20
-30.5758212724
 11
-27.3684846004
 21
-30.4907148996
  0
LINE
  5
36A
100
AcDbEntity
  8
0
100
AcDbLine
 62
7
  6
CONTINUOUS
 10
-25.3684846004
 20
-30.5758212724
 11
-25.535151585
 21
-30.4907148996
  0
LINE
  5
36B
100
AcDbEntity
  8
0
100
AcDbLine
 62
7
  6
CONTINUOUS
 10
-27.410151585
 20
-30.7034808316
 11
-27.285151585
 21
-30.7885872045
  0
LINE
  5
36C
100
AcDbEntity
  8
0
100
AcDbLine
 62
7
  6
CONTINUOUS
 10
-25.535151585
 20
-31.5545446792
 11
-25.410151585
 21
-31.639651052
  0
LINE
  5
36D
100
AcDbEntity
  8
0
100
AcDbLine
 62
7
  6
CONTINUOUS
 10
-25.5768176159
 20
-30.7034808316
 11
-25.4518176159
 21
-30.7885872045
  0
LINE
  5
36E
100
AcDbEntity
  8
0
100
AcDbLine
 62
7
  6
CONTINUOUS
 10
-25.378417594
 20
-25.2897881299
 11
-25.5623933838
 21
-25.1346952489
  0
LINE
  5
36F
100
AcDbEntity
  8
0
100
AcDbLine
 62
7
  6
CONTINUOUS
 10
-25.378417594
 20
-24.7484358062
 11
-25.3773652815
 21
-24.7494368758
  0
LWPOLYLINE
  5
370
100
AcDbEntity
  8
0
100
AcDbPolyline
 62
7
  6
CONTINUOUS
 90
3
 70
0
 10
-25.2435641308
 20
-24.8833285106
 10
-25.1957872611
 20
-24.9309219471
 10
-25.1786916871
 20
-24.9481617131
  0
LINE
  5
371
100
AcDbEntity
  8
0
100
AcDbLine
 62
7
  6
CONTINUOUS
 10
-24.8774009493
 20
-25.8196876834
 11
-25.5623933838
 21
-25.1346952489
  0
LINE
  5
372
100
AcDbEntity
  8
0
100
AcDbLine
 62
7
  6
CONTINUOUS
 10
-24.8684846004
 20
-25.7981617131
 11
-25.1786916871
 21
-25.4879546265
  0
LINE
  5
373
100
AcDbEntity
  8
0
100
AcDbLine
 62
7
  6
CONTINUOUS
 10
-25.3691195168
 20
-24.7577544897
 11
-25.2435641308
 21
-24.8833285106
  0
LWPOLYLINE
  5
374
100
AcDbEntity
  8
0
100
AcDbPolyline
 62
7
  6
CONTINUOUS
 90
3
 70
0
 10
-25.3773652815
 20
-24.7494368758
 10
-25.3727515467
 20
-24.7541018535
 10
-25.3691195168
 20
-24.7577544897
  0
LINE
  5
375
100
AcDbEntity
  8
0
100
AcDbLine
 62
7
  6
CONTINUOUS
 10
-27.035151585
 20
-30.7460340181
 11
-27.2018176159
 21
-30.5758212724
  0
LINE
  5
376
100
AcDbEntity
  8
0
100
AcDbLine
 62
7
  6
CONTINUOUS
 10
-25.2018176159
 20
-30.7460340181
 11
-25.3684846004
 21
-30.5758212724
  0
LINE
  5
377
100
AcDbEntity
  8
0
100
AcDbLine
 62
7
  6
CONTINUOUS
 10
-26.2247349342
 20
-33.705608479
 11
-26.3559849342
 21
-33.5268850961
  0
LINE
  5
378
100
AcDbEntity
  8
0
100
AcDbLine
 62
7
  6
CONTINUOUS
 10
-26.4872349342
 20
-33.705608479
 11
-26.3997342666
 21
-33.8396510163
  0
LINE
  5
379
100
AcDbEntity
  8
0
100
AcDbLine
 62
7
  6
CONTINUOUS
 10
-26.9934846004
 20
-31.639651052
 11
-27.0768176159
 21
-31.5119914928
  0
LINE
  5
37A
100
AcDbEntity
  8
0
100
AcDbLine
 62
7
  6
CONTINUOUS
 10
-26.5768176159
 20
-32.107736192
 11
-26.4934846004
 21
-32.2353957513
  0
LINE
  5
37B
100
AcDbEntity
  8
0
100
AcDbLine
 62
7
  6
CONTINUOUS
 10
-27.285151585
 20
-30.7885872045
 11
-27.2018176159
 21
-30.9162467637
  0
LINE
  5
37C
100
AcDbEntity
  8
0
100
AcDbLine
 62
7
  6
CONTINUOUS
 10
-25.160151585
 20
-31.639651052
 11
-25.2434846004
 21
-31.5119914928
  0
LINE
  5
37D
100
AcDbEntity
  8
0
100
AcDbLine
 62
7
  6
CONTINUOUS
 10
-25.4518176159
 20
-30.7885872045
 11
-25.3684846004
 21
-30.9162467637
  0
LINE
  5
37E
100
AcDbEntity
  8
0
100
AcDbLine
 62
7
  6
CONTINUOUS
 10
-28.2018180927
 20
-32.0651829758
 11
-28.2434846004
 21
-31.980076603
  0
LINE
  5
37F
100
AcDbEntity
  8
0
100
AcDbLine
 62
7
  6
CONTINUOUS
 10
-27.2434846004
 20
-31.639651052
 11
-27.160151585
 21
-31.8098638573
  0
LINE
  5
380
100
AcDbEntity
  8
0
100
AcDbLine
 62
7
  6
CONTINUOUS
 10
-26.3684846004
 20
-32.0651829758
 11
-26.410151585
 21
-31.980076603
  0
LINE
  5
381
100
AcDbEntity
  8
0
100
AcDbLine
 62
7
  6
CONTINUOUS
 10
-25.410151585
 20
-31.639651052
 11
-25.3268176159
 21
-31.8098638573
  0
LINE
  5
382
100
AcDbEntity
  8
0
100
AcDbLine
 62
7
  6
CONTINUOUS
 10
-29.9434847673
 20
-34.6439063647
 11
-30.0309844335
 21
-34.420502136
  0
LINE
  5
383
100
AcDbEntity
  8
0
100
AcDbLine
 62
7
  6
CONTINUOUS
 10
-30.6184846004
 20
-31.7247574845
 11
-30.7018180927
 21
-31.5119914928
  0
LINE
  5
384
100
AcDbEntity
  8
0
100
AcDbLine
 62
7
  6
CONTINUOUS
 10
-27.6684844335
 20
-34.1077362158
 11
-27.5809847673
 21
-34.3311404445
  0
LINE
  5
385
100
AcDbEntity
  8
0
100
AcDbLine
 62
7
  6
CONTINUOUS
 10
-26.1372342666
 20
-33.9290128329
 11
-26.2247349342
 21
-33.705608479
  0
LINE
  5
386
100
AcDbEntity
  8
0
100
AcDbLine
 62
7
  6
CONTINUOUS
 10
-31.912234517
 20
-33.9736936786
 11
-31.9559846004
 21
-33.8396510163
  0
LINE
  5
387
100
AcDbEntity
  8
0
100
AcDbLine
 62
7
  6
CONTINUOUS
 10
-32.5768178543
 20
-30.9162467637
 11
-32.6184846004
 21
-30.7885872045
  0
LINE
  5
388
100
AcDbEntity
  8
0
100
AcDbLine
 62
7
  6
CONTINUOUS
 10
-31.2122346839
 20
-34.9566723474
 11
-31.255984517
 21
-34.8226298102
  0
LINE
  5
389
100
AcDbEntity
  8
0
100
AcDbLine
 62
7
  6
CONTINUOUS
 10
-30.2059847673
 20
-34.5545446732
 11
-30.1622344335
 21
-34.688587273
  0
LINE
  5
38A
100
AcDbEntity
  8
0
100
AcDbLine
 62
7
  6
CONTINUOUS
 10
-30.8684846004
 20
-31.639651052
 11
-30.8268180927
 21
-31.7673106709
  0
LINE
  5
38B
100
AcDbEntity
  8
0
100
AcDbLine
 62
7
  6
CONTINUOUS
 10
-30.0309844335
 20
-33.8396510163
 11
-30.0747347673
 21
-33.705608479
  0
LINE
  5
38C
100
AcDbEntity
  8
0
100
AcDbLine
 62
7
  6
CONTINUOUS
 10
-27.5809847673
 20
-34.9566723474
 11
-27.5372344335
 21
-35.090714916
  0
LINE
  5
38D
100
AcDbEntity
  8
0
100
AcDbLine
 62
7
  6
CONTINUOUS
 10
-28.4518180927
 20
-31.980076603
 11
-28.4101511082
 21
-32.107736192
  0
LINE
  5
38E
100
AcDbEntity
  8
0
100
AcDbLine
 62
7
  6
CONTINUOUS
 10
-27.4059844335
 20
-34.1970979073
 11
-27.4497347673
 21
-34.0630553701
  0
LINE
  5
38F
100
AcDbEntity
  8
0
100
AcDbLine
 62
7
  6
CONTINUOUS
 10
-26.3997342666
 20
-33.8396510163
 11
-26.3559849342
 21
-33.9736936786
  0
LINE
  5
390
100
AcDbEntity
  8
0
100
AcDbLine
 62
7
  6
CONTINUOUS
 10
-46.3287068525
 20
27.4794840004
 11
-46.1739271501
 21
26.9018382869
  0
LINE
  5
391
100
AcDbEntity
  8
0
100
AcDbLine
 62
7
  6
CONTINUOUS
 10
-46.3224691694
 20
27.4811553826
 11
-46.1730094878
 21
26.9233642572
  0
LINE
  5
392
100
AcDbEntity
  8
0
100
AcDbLine
 62
7
  6
CONTINUOUS
 10
-44.0684846004
 20
26.6518382869
 11
-44.0742524668
 21
26.6733642572
  0
LINE
  5
393
100
AcDbEntity
  8
0
100
AcDbLine
 62
7
  6
CONTINUOUS
 10
-33.7934846004
 20
-33.8396510163
 11
-33.8372345587
 21
-33.6609276333
  0
LINE
  5
394
100
AcDbEntity
  8
0
100
AcDbLine
 62
7
  6
CONTINUOUS
 10
-33.9934846004
 20
-31.8949702301
 11
-33.9518179735
 21
-32.0651829758
  0
LINE
  5
395
100
AcDbEntity
  8
0
100
AcDbLine
 62
7
  6
CONTINUOUS
 10
-33.8684846004
 20
-31.0864596286
 11
-33.8268178543
 21
-31.2566723743
  0
LINE
  5
396
100
AcDbEntity
  8
0
100
AcDbLine
 62
7
  6
CONTINUOUS
 10
-33.4434845587
 20
-34.599225519
 11
-33.3997346004
 21
-34.8226298102
  0
LINE
  5
397
100
AcDbEntity
  8
0
100
AcDbLine
 62
7
  6
CONTINUOUS
 10
-31.8684846839
 20
-34.1970979073
 11
-31.912234517
 21
-33.9736936786
  0
LINE
  5
398
100
AcDbEntity
  8
0
100
AcDbLine
 62
7
  6
CONTINUOUS
 10
-33.1809846839
 20
-34.8226298102
 11
-33.224734517
 21
-34.5545446732
  0
LINE
  5
399
100
AcDbEntity
  8
0
100
AcDbLine
 62
7
  6
CONTINUOUS
 10
-32.1309846839
 20
-33.9736936786
 11
-32.0872346004
 21
-34.2417787531
  0
LINE
  5
39A
100
AcDbEntity
  8
0
100
AcDbLine
 62
7
  6
CONTINUOUS
 10
-31.518484517
 20
-34.5545446732
 11
-31.4747346839
 21
-34.867310656
  0
LINE
  5
39B
100
AcDbEntity
  8
0
100
AcDbLine
 62
7
  6
CONTINUOUS
 10
-35.3684846004
 20
-35.2247574532
 11
-35.3684846004
 21
-35.4481617131
  0
LINE
  5
39C
100
AcDbEntity
  8
0
100
AcDbLine
 62
7
  6
CONTINUOUS
 10
-34.5768179735
 20
-30.9588000694
 11
-34.5768179735
 21
-31.0439064422
  0
LINE
  5
39D
100
AcDbEntity
  8
0
100
AcDbLine
 62
7
  6
CONTINUOUS
 10
-34.5768179735
 20
-31.8098638573
 11
-34.5768179735
 21
-31.9375234165
  0
LINE
  5
39E
100
AcDbEntity
  8
0
100
AcDbLine
 62
7
  6
CONTINUOUS
 10
-34.3268179735
 20
-31.980076603
 11
-34.3268179735
 21
-31.7673106709
  0
LINE
  5
39F
100
AcDbEntity
  8
0
100
AcDbLine
 62
7
  6
CONTINUOUS
 10
-34.3268179735
 20
-31.0864596286
 11
-34.3268179735
 21
-30.9162467637
  0
LINE
  5
3A0
100
AcDbEntity
  8
0
100
AcDbLine
 62
7
  6
CONTINUOUS
 10
-34.0559846004
 20
-33.8396510163
 11
-34.0559846004
 21
-33.9290128329
  0
LINE
  5
3A1
100
AcDbEntity
  8
0
100
AcDbLine
 62
7
  6
CONTINUOUS
 10
-33.8684846004
 20
-30.9162467637
 11
-33.8684846004
 21
-31.0864596286
  0
LINE
  5
3A2
100
AcDbEntity
  8
0
100
AcDbLine
 62
7
  6
CONTINUOUS
 10
-33.7934846004
 20
-35.4481617131
 11
-33.7934846004
 21
-35.2247574532
  0
LINE
  5
3A3
100
AcDbEntity
  8
0
100
AcDbLine
 62
7
  6
CONTINUOUS
 10
-33.7934846004
 20
-33.9290128329
 11
-33.7934846004
 21
-33.8396510163
  0
LINE
  5
3A4
100
AcDbEntity
  8
0
100
AcDbLine
 62
7
  6
CONTINUOUS
 10
-33.6477626004
 20
34.6641872869
 11
-33.6477626004
 21
30.6644352869
  0
LINE
  5
3A5
100
AcDbEntity
  8
0
100
AcDbLine
 62
7
  6
CONTINUOUS
 10
-33.6184846004
 20
-31.0439064422
 11
-33.6184846004
 21
-30.9588000694
  0
LINE
  5
3A6
100
AcDbEntity
  8
0
100
AcDbLine
 62
7
  6
CONTINUOUS
 10
-33.4434845587
 20
-34.1970979073
 11
-33.4434845587
 21
-34.599225519
  0
LINE
  5
3A7
100
AcDbEntity
  8
0
100
AcDbLine
 62
7
  6
CONTINUOUS
 10
-33.224734517
 20
-34.5545446732
 11
-33.224734517
 21
-34.2417787531
  0
LINE
  5
3A8
100
AcDbEntity
  8
0
100
AcDbLine
 62
7
  6
CONTINUOUS
 10
-32.8129076004
 20
30.6644352869
 11
-32.8129076004
 21
34.6641872869
  0
LINE
  5
3A9
100
AcDbEntity
  8
0
100
AcDbLine
 62
7
  6
CONTINUOUS
 10
-32.7018178543
 20
-31.8098638573
 11
-32.7018178543
 21
-31.9375234165
  0
LINE
  5
3AA
100
AcDbEntity
  8
0
100
AcDbLine
 62
7
  6
CONTINUOUS
 10
-32.4518178543
 20
-31.980076603
 11
-32.4518178543
 21
-31.7673106709
  0
LINE
  5
3AB
100
AcDbEntity
  8
0
100
AcDbLine
 62
7
  6
CONTINUOUS
 10
-32.1184846004
 20
-30.4481617131
 11
-32.1184846004
 21
-31.5545446792
  0
LINE
  5
3AC
100
AcDbEntity
  8
0
100
AcDbLine
 62
7
  6
CONTINUOUS
 10
-32.0872346004
 20
-34.2417787531
 11
-32.0872346004
 21
-34.5545446732
  0
LINE
  5
3AD
100
AcDbEntity
  8
0
100
AcDbLine
 62
7
  6
CONTINUOUS
 10
-31.9101513466
 20
-31.3417787471
 11
-31.9101513466
 21
-30.6609276452
  0
LINE
  5
3AE
100
AcDbEntity
  8
0
100
AcDbLine
 62
7
  6
CONTINUOUS
 10
-31.8684846839
 20
-34.599225519
 11
-31.8684846839
 21
-34.1970979073
  0
LINE
  5
3AF
100
AcDbEntity
  8
0
100
AcDbLine
 62
7
  6
CONTINUOUS
 10
-31.518484517
 20
-34.2417787531
 11
-31.518484517
 21
-34.5545446732
  0
LINE
  5
3B0
100
AcDbEntity
  8
0
100
AcDbLine
 62
7
  6
CONTINUOUS
 10
-31.2997346004
 20
-34.3311404445
 11
-31.2997346004
 21
-34.2417787531
  0
LINE
  5
3B1
100
AcDbEntity
  8
0
100
AcDbLine
 62
7
  6
CONTINUOUS
 10
-31.255984517
 20
-34.8226298102
 11
-31.255984517
 21
-34.688587273
  0
LINE
  5
3B2
100
AcDbEntity
  8
0
100
AcDbLine
 62
7
  6
CONTINUOUS
 10
-30.8268180927
 20
-31.7673106709
 11
-30.8268180927
 21
-31.8524170437
  0
LINE
  5
3B3
100
AcDbEntity
  8
0
100
AcDbLine
 62
7
  6
CONTINUOUS
 10
-30.7018180927
 20
-30.6609276452
 11
-30.7018180927
 21
-30.4481617131
  0
LINE
  5
3B4
100
AcDbEntity
  8
0
100
AcDbLine
 62
7
  6
CONTINUOUS
 10
-30.6184846004
 20
-31.8949702301
 11
-30.6184846004
 21
-31.7247574845
  0
LINE
  5
3B5
100
AcDbEntity
  8
0
100
AcDbLine
 62
7
  6
CONTINUOUS
 10
-30.2851511082
 20
-30.4481617131
 11
-30.2851511082
 21
-30.6609276452
  0
LINE
  5
3B6
100
AcDbEntity
  8
0
100
AcDbLine
 62
7
  6
CONTINUOUS
 10
-30.1622344335
 20
-34.688587273
 11
-30.1622344335
 21
-34.8226298102
  0
LINE
  5
3B7
100
AcDbEntity
  8
0
100
AcDbLine
 62
7
  6
CONTINUOUS
 10
-29.9434847673
 20
-34.867310656
 11
-29.9434847673
 21
-34.6439063647
  0
LINE
  5
3B8
100
AcDbEntity
  8
0
100
AcDbLine
 62
7
  6
CONTINUOUS
 10
-29.5934846004
 20
-33.3481617131
 11
-29.5934846004
 21
-33.5715659418
  0
LINE
  5
3B9
100
AcDbEntity
  8
0
100
AcDbLine
 62
7
  6
CONTINUOUS
 10
-31.5647946004
 20
30.6644352869
 11
-31.3846326004
 21
33.2760412869
  0
LINE
  5
3BA
100
AcDbEntity
  8
0
100
AcDbLine
 62
7
  6
CONTINUOUS
 10
-32.0023466004
 20
34.6639472869
 11
-32.3634786004
 21
30.6644352869
  0
LINE
  5
3BB
100
AcDbEntity
  8
0
100
AcDbLine
 62
7
  6
CONTINUOUS
 10
-43.6354718985
 20
-25.7981617131
 11
-43.6412397649
 21
-25.8196876834
  0
LINE
  5
3BC
100
AcDbEntity
  8
0
100
AcDbLine
 62
7
  6
CONTINUOUS
 10
-42.6739271501
 20
-25.7981617131
 11
-42.8287068525
 21
-26.3758074267
  0
LINE
  5
3BD
100
AcDbEntity
  8
0
100
AcDbLine
 62
7
  6
CONTINUOUS
 10
-42.6730094878
 20
-25.8196876834
 11
-42.8224691694
 21
-26.3774788088
  0
LINE
  5
3BE
100
AcDbEntity
  8
0
100
AcDbLine
 62
7
  6
CONTINUOUS
 10
-24.5639597131
 20
26.9233642572
 11
-24.4145000315
 21
27.4811553826
  0
LINE
  5
3BF
100
AcDbEntity
  8
0
100
AcDbLine
 62
7
  6
CONTINUOUS
 10
-24.5630420508
 20
26.9018382869
 11
-24.4082623483
 21
27.4794840004
  0
LINE
  5
3C0
100
AcDbEntity
  8
0
100
AcDbLine
 62
7
  6
CONTINUOUS
 10
-23.6014973023
 20
26.9018382869
 11
-23.595729436
 21
26.9233642572
  0
LINE
  5
3C1
100
AcDbEntity
  8
0
100
AcDbLine
 62
7
  6
CONTINUOUS
 10
-26.9492476004
 20
32.0807132869
 11
-26.5335596004
 21
33.5649832869
  0
LINE
  5
3C2
100
AcDbEntity
  8
0
100
AcDbLine
 62
7
  6
CONTINUOUS
 10
-27.3503896004
 20
30.6644352869
 11
-27.1200216004
 21
31.4628802869
  0
LINE
  5
3C3
100
AcDbEntity
  8
0
100
AcDbLine
 62
7
  6
CONTINUOUS
 10
-47.3184846004
 20
-25.7981617131
 11
-47.3274009493
 21
-25.8196876834
  0
LINE
  5
3C4
100
AcDbEntity
  8
0
100
AcDbLine
 62
7
  6
CONTINUOUS
 10
-21.5742524668
 20
26.6733642572
 11
-21.1412397649
 21
26.9233642572
  0
LINE
  5
3C5
100
AcDbEntity
  8
0
100
AcDbLine
 62
7
  6
CONTINUOUS
 10
-21.5684846004
 20
26.6518382869
 11
-21.1354718985
 21
26.9018382869
  0
LINE
  5
3C6
100
AcDbEntity
  8
0
100
AcDbLine
 62
253
  6
CONTINUOUS
 10
24.0917376517
 20
-26.3758074267
 11
24.0854999685
 21
-26.3774788088
  0
LINE
  5
3C7
100
AcDbEntity
  8
0
100
AcDbLine
 62
253
  6
CONTINUOUS
 10
20.5917376517
 20
-26.3758074267
 11
20.5854999685
 21
-26.3774788088
  0
LINE
  5
3C8
100
AcDbEntity
  8
0
100
AcDbLine
 62
7
  6
CONTINUOUS
 10
-26.7934842666
 20
-35.4481617131
 11
-26.5747346004
 21
-35.4034808635
  0
LINE
  5
3C9
100
AcDbEntity
  8
0
100
AcDbLine
 62
7
  6
CONTINUOUS
 10
-32.6559846839
 20
-35.4481617131
 11
-32.3934846839
 21
-35.4034808635
  0
LINE
  5
3CA
100
AcDbEntity
  8
RACCORDO
100
AcDbLine
 62
253
  6
CONTINUOUS
 10
-74.5372601961
 20
-35.5096904791
 11
-73.9016426738
 21
-35.4635867399
  0
LINE
  5
3CB
100
AcDbEntity
  8
RACCORDO
100
AcDbLine
 62
253
  6
CONTINUOUS
 10
-71.0887233129
 20
-35.2595550761
 11
-72.3977010387
 21
-35.3545001737
  0
LINE
  5
3CC
100
AcDbEntity
  8
RACCORDO
100
AcDbLine
 62
253
  6
CONTINUOUS
 10
-75.4596765885
 20
-35.5765968234
 11
-76.0322294853
 21
-35.6181262471
  0
LWPOLYLINE
  5
3CD
100
AcDbEntity
  8
0
100
AcDbPolyline
 62
253
  6
CONTINUOUS
 90
3
 70
0
 10
53.881101326
 20
-31.4374912156
 10
49.4379507394
 20
-31.609909737
 10
46.3918160332
 20
-31.7112280708
  0
LWPOLYLINE
  5
3CE
100
AcDbEntity
  8
0
100
AcDbPolyline
 62
253
  6
CONTINUOUS
 90
3
 70
0
 10
53.8524423032
 20
-30.990561228
 10
49.4428034744
 20
-31.16167579
 10
46.3862206931
 20
-31.2633284328
  0
LINE
  5
3CF
100
AcDbEntity
  8
0
100
AcDbLine
 62
7
  6
CONTINUOUS
 10
-27.3622346004
 20
-34.9566723474
 11
-27.5809847673
 21
-34.9566723474
  0
LINE
  5
3D0
100
AcDbEntity
  8
0
100
AcDbLine
 62
7
  6
CONTINUOUS
 10
21.7253313996
 20
-34.9376137131
 11
21.3562193996
 21
-34.9376137131
  0
LINE
  5
3D1
100
AcDbEntity
  8
0
100
AcDbLine
 62
7
  6
CONTINUOUS
 10
20.9123403996
 20
-34.9376137131
 11
20.5430853996
 21
-34.9376137131
  0
LINE
  5
3D2
100
AcDbEntity
  8
0
100
AcDbLine
 62
7
  6
CONTINUOUS
 10
-27.0122344335
 20
-34.688587273
 11
-26.7934842666
 21
-34.688587273
  0
LINE
  5
3D3
100
AcDbEntity
  8
0
100
AcDbLine
 62
7
  6
CONTINUOUS
 10
-26.7497349342
 20
-34.4651829817
 11
-27.0559847673
 21
-34.4651829817
  0
LINE
  5
3D4
100
AcDbEntity
  8
0
100
AcDbLine
 62
7
  6
CONTINUOUS
 10
-30.8622347673
 20
-34.3311404445
 11
-30.5559844335
 21
-34.3311404445
  0
LINE
  5
3D5
100
AcDbEntity
  8
0
100
AcDbLine
 62
7
  6
CONTINUOUS
 10
26.4045153996
 20
-34.2281617131
 11
26.7285153996
 21
-34.2281617131
  0
LINE
  5
3D6
100
AcDbEntity
  8
0
100
AcDbLine
 62
7
  6
CONTINUOUS
 10
28.5345153996
 20
-34.2281617131
 11
28.8585153996
 21
-34.2281617131
  0
LINE
  5
3D7
100
AcDbEntity
  8
0
100
AcDbLine
 62
7
  6
CONTINUOUS
 10
-30.5997347673
 20
-34.1077362158
 11
-30.8184844335
 21
-34.1077362158
  0
LINE
  5
3D8
100
AcDbEntity
  8
0
100
AcDbLine
 62
7
  6
CONTINUOUS
 10
28.7288823996
 20
-33.9881617131
 11
28.6641483996
 21
-33.9881617131
  0
LINE
  5
3D9
100
AcDbEntity
  8
0
100
AcDbLine
 62
7
  6
CONTINUOUS
 10
26.5988823996
 20
-33.9881617131
 11
26.5341483996
 21
-33.9881617131
  0
LINE
  5
3DA
100
AcDbEntity
  8
0
100
AcDbLine
 62
7
  6
CONTINUOUS
 10
-35.3247345991
 20
-33.8396510163
 11
-35.1059846004
 21
-33.8396510163
  0
LINE
  5
3DB
100
AcDbEntity
  8
0
100
AcDbLine
 62
7
  6
CONTINUOUS
 10
-30.2497346004
 20
-33.8396510163
 11
-30.0309844335
 21
-33.8396510163
  0
LINE
  5
3DC
100
AcDbEntity
  8
ASSI
100
AcDbLine
 62
7
  6
CONTINUOUS
 10
15.7885703996
 20
-33.8231617131
 11
17.2490713996
 21
-33.8231617131
  0
LINE
  5
3DD
100
AcDbEntity
  8
0
100
AcDbLine
 62
7
  6
CONTINUOUS
 10
-34.6684845796
 20
-33.5715659418
 11
-34.4934846213
 21
-33.5715659418
  0
LINE
  5
3DE
100
AcDbEntity
  8
0
100
AcDbLine
 62
7
  6
CONTINUOUS
 10
-30.8622347673
 20
-33.5715659418
 11
-30.5997347673
 21
-33.5715659418
  0
LINE
  5
3DF
100
AcDbEntity
  8
0
100
AcDbLine
 62
7
  6
CONTINUOUS
 10
-29.5934846004
 20
-33.5715659418
 11
-28.2809846004
 21
-33.5715659418
  0
LINE
  5
3E0
100
AcDbEntity
  8
0
100
AcDbLine
 62
7
  6
CONTINUOUS
 10
-27.0559847673
 20
-33.5715659418
 11
-26.7497349342
 21
-33.5715659418
  0
LINE
  5
3E1
100
AcDbEntity
  8
0
100
AcDbLine
 62
7
  6
CONTINUOUS
 10
-26.7934842666
 20
-33.3481617131
 11
-27.0122344335
 21
-33.3481617131
  0
LINE
  5
3E2
100
AcDbEntity
  8
0
100
AcDbLine
 62
7
  6
CONTINUOUS
 10
-28.0184846004
 20
-33.3481617131
 11
-29.5934846004
 21
-33.3481617131
  0
LINE
  5
3E3
100
AcDbEntity
  8
0
100
AcDbLine
 62
7
  6
CONTINUOUS
 10
-30.6434846004
 20
-33.3481617131
 11
-30.8184844335
 21
-33.3481617131
  0
LINE
  5
3E4
100
AcDbEntity
  8
0
100
AcDbLine
 62
7
  6
CONTINUOUS
 10
-34.4497346004
 20
-33.3481617131
 11
-34.6247346213
 21
-33.3481617131
  0
LINE
  5
3E5
100
AcDbEntity
  8
ASSI
100
AcDbLine
 62
7
  6
CONTINUOUS
 10
17.2490713996
 20
-33.0731617131
 11
15.7885673373
 21
-33.0731617131
  0
LINE
  5
3E6
100
AcDbEntity
  8
0
100
AcDbLine
 62
7
  6
CONTINUOUS
 10
26.4029813996
 20
-32.7581617131
 11
27.5115153996
 21
-32.7581617131
  0
LINE
  5
3E7
100
AcDbEntity
  8
0
100
AcDbLine
 62
7
  6
CONTINUOUS
 10
27.7515153996
 20
-32.7581617131
 11
28.8600493996
 21
-32.7581617131
  0
LINE
  5
3E8
100
AcDbEntity
  8
0
100
AcDbLine
 62
7
  6
CONTINUOUS
 10
28.8600493996
 20
-32.5181617131
 11
26.4029813996
 21
-32.5181617131
  0
LINE
  5
3E9
100
AcDbEntity
  8
0
100
AcDbLine
 62
253
  6
CONTINUOUS
 10
3.7327296873
 20
-32.493031087
 11
-3.4697075958
 21
-32.4929985895
  0
LINE
  5
3EA
100
AcDbEntity
  8
0
100
AcDbLine
 62
7
  6
CONTINUOUS
 10
-35.8684846004
 20
-32.4481617131
 11
-34.8684846004
 21
-32.4481617131
  0
LINE
  5
3EB
100
AcDbEntity
  8
0
100
AcDbLine
 62
7
  6
CONTINUOUS
 10
-33.4101513466
 20
-32.4481617131
 11
-33.0768178543
 21
-32.4481617131
  0
LINE
  5
3EC
100
AcDbEntity
  8
0
100
AcDbLine
 62
7
  6
CONTINUOUS
 10
-31.4934846004
 20
-32.4481617131
 11
-31.2434846004
 21
-32.4481617131
  0
LINE
  5
3ED
100
AcDbEntity
  8
0
100
AcDbLine
 62
7
  6
CONTINUOUS
 10
-29.8684846004
 20
-32.4481617131
 11
-29.6184846004
 21
-32.4481617131
  0
LINE
  5
3EE
100
AcDbEntity
  8
0
100
AcDbLine
 62
7
  6
CONTINUOUS
 10
-27.8684846004
 20
-32.4481617131
 11
-27.535151585
 21
-32.4481617131
  0
LINE
  5
3EF
100
AcDbEntity
  8
0
100
AcDbLine
 62
7
  6
CONTINUOUS
 10
-26.035151585
 20
-32.4481617131
 11
-25.7018176159
 21
-32.4481617131
  0
LINE
  5
3F0
100
AcDbEntity
  8
0
100
AcDbLine
 62
7
  6
CONTINUOUS
 10
-25.7434846004
 20
-32.2353957513
 11
-25.9934846004
 21
-32.2353957513
  0
LINE
  5
3F1
100
AcDbEntity
  8
0
100
AcDbLine
 62
7
  6
CONTINUOUS
 10
-27.5768176159
 20
-32.2353957513
 11
-27.8268176159
 21
-32.2353957513
  0
LINE
  5
3F2
100
AcDbEntity
  8
0
100
AcDbLine
 62
7
  6
CONTINUOUS
 10
-31.2434846004
 20
-32.2353957513
 11
-31.4934846004
 21
-32.2353957513
  0
LINE
  5
3F3
100
AcDbEntity
  8
0
100
AcDbLine
 62
7
  6
CONTINUOUS
 10
-33.0768178543
 20
-32.1928425648
 11
-33.4101513466
 21
-32.1928425648
  0
LINE
  5
3F4
100
AcDbEntity
  8
0
100
AcDbLine
 62
7
  6
CONTINUOUS
 10
-34.8268179735
 20
-32.1928425648
 11
-35.6184846004
 21
-32.1928425648
  0
LINE
  5
3F5
100
AcDbEntity
  8
0
100
AcDbLine
 62
253
  6
CONTINUOUS
 10
3.8328123449
 20
-32.0444825234
 11
-3.5697816222
 21
-32.0444820684
  0
LINE
  5
3F6
100
AcDbEntity
  8
0
100
AcDbLine
 62
7
  6
CONTINUOUS
 10
-26.410151585
 20
-31.980076603
 11
-26.6184846004
 21
-31.980076603
  0
LINE
  5
3F7
100
AcDbEntity
  8
0
100
AcDbLine
 62
7
  6
CONTINUOUS
 10
-28.2434846004
 20
-31.980076603
 11
-28.4518180927
 21
-31.980076603
  0
LINE
  5
3F8
100
AcDbEntity
  8
0
100
AcDbLine
 62
7
  6
CONTINUOUS
 10
20.5566923996
 20
-31.9774157131
 11
20.9123403996
 21
-31.9774157131
  0
LINE
  5
3F9
100
AcDbEntity
  8
0
100
AcDbLine
 62
7
  6
CONTINUOUS
 10
21.3562193996
 20
-31.9774157131
 11
21.7117243996
 21
-31.9774157131
  0
LINE
  5
3FA
100
AcDbEntity
  8
0
100
AcDbLine
 62
7
  6
CONTINUOUS
 10
-31.8684846004
 20
-31.9375234165
 11
-32.1184846004
 21
-31.9375234165
  0
LINE
  5
3FB
100
AcDbEntity
  8
0
100
AcDbLine
 62
7
  6
CONTINUOUS
 10
-33.7434846004
 20
-31.8949702301
 11
-33.9934846004
 21
-31.8949702301
  0
LINE
  5
3FC
100
AcDbEntity
  8
0
100
AcDbLine
 62
7
  6
CONTINUOUS
 10
21.7117243996
 20
-31.5584587131
 11
20.5566923996
 21
-31.5584587131
  0
LINE
  5
3FD
100
AcDbEntity
  8
0
100
AcDbLine
 62
7
  6
CONTINUOUS
 10
-35.6184846004
 20
-31.5545446792
 11
-34.8268179735
 21
-31.5545446792
  0
LINE
  5
3FE
100
AcDbEntity
  8
0
100
AcDbLine
 62
7
  6
CONTINUOUS
 10
-33.3268178543
 20
-31.5545446792
 11
-33.0768178543
 21
-31.5545446792
  0
LINE
  5
3FF
100
AcDbEntity
  8
0
100
AcDbLine
 62
7
  6
CONTINUOUS
 10
-32.1184846004
 20
-31.5545446792
 11
-31.8268180927
 21
-31.5545446792
  0
LINE
  5
400
100
AcDbEntity
  8
0
100
AcDbLine
 62
7
  6
CONTINUOUS
 10
-27.785151585
 20
-31.5119914928
 11
-27.6184846004
 21
-31.5119914928
  0
LINE
  5
401
100
AcDbEntity
  8
0
100
AcDbLine
 62
7
  6
CONTINUOUS
 10
-25.9518176159
 20
-31.5119914928
 11
-25.785151585
 21
-31.5119914928
  0
LINE
  5
402
100
AcDbEntity
  8
0
100
AcDbLine
 62
7
  6
CONTINUOUS
 10
-31.4934846004
 20
-31.3843319335
 11
-31.2434846004
 21
-31.3843319335
  0
LINE
  5
403
100
AcDbEntity
  8
0
100
AcDbLine
 62
7
  6
CONTINUOUS
 10
-25.785151585
 20
-31.3417787471
 11
-25.9518176159
 21
-31.3417787471
  0
LINE
  5
404
100
AcDbEntity
  8
0
100
AcDbLine
 62
7
  6
CONTINUOUS
 10
-27.6184846004
 20
-31.3417787471
 11
-27.785151585
 21
-31.3417787471
  0
LINE
  5
405
100
AcDbEntity
  8
0
100
AcDbLine
 62
7
  6
CONTINUOUS
 10
-33.0768178543
 20
-31.2992255607
 11
-33.3268178543
 21
-31.2992255607
  0
LINE
  5
406
100
AcDbEntity
  8
0
100
AcDbLine
 62
7
  6
CONTINUOUS
 10
-34.8268179735
 20
-31.2992255607
 11
-35.6184846004
 21
-31.2992255607
  0
LINE
  5
407
100
AcDbEntity
  8
0
100
AcDbLine
 62
7
  6
CONTINUOUS
 10
-31.2434846004
 20
-31.1715660014
 11
-31.4934846004
 21
-31.1715660014
  0
LINE
  5
408
100
AcDbEntity
  8
0
100
AcDbLine
 62
7
  6
CONTINUOUS
 10
-32.8268178543
 20
-30.9162467637
 11
-32.5768178543
 21
-30.9162467637
  0
LINE
  5
409
100
AcDbEntity
  8
0
100
AcDbLine
 62
7
  6
CONTINUOUS
 10
-28.4101511082
 20
-30.9162467637
 11
-28.2018180927
 21
-30.9162467637
  0
LINE
  5
40A
100
AcDbEntity
  8
0
100
AcDbLine
 62
7
  6
CONTINUOUS
 10
-26.5768176159
 20
-30.9162467637
 11
-26.3684846004
 21
-30.9162467637
  0
LINE
  5
40B
100
AcDbEntity
  8
0
100
AcDbLine
 62
7
  6
CONTINUOUS
 10
-35.6184846004
 20
-30.7034808316
 11
-34.8268179735
 21
-30.7034808316
  0
LINE
  5
40C
100
AcDbEntity
  8
0
100
AcDbLine
 62
7
  6
CONTINUOUS
 10
-33.3268178543
 20
-30.7034808316
 11
-33.0768178543
 21
-30.7034808316
  0
LINE
  5
40D
100
AcDbEntity
  8
0
100
AcDbLine
 62
7
  6
CONTINUOUS
 10
-31.9101513466
 20
-30.6609276452
 11
-30.7018180927
 21
-30.6609276452
  0
LINE
  5
40E
100
AcDbEntity
  8
0
100
AcDbLine
 62
7
  6
CONTINUOUS
 10
-30.2851511082
 20
-30.6609276452
 11
-29.0351511082
 21
-30.6609276452
  0
LINE
  5
40F
100
AcDbEntity
  8
0
100
AcDbLine
 62
7
  6
CONTINUOUS
 10
-27.785151585
 20
-30.6609276452
 11
-27.6184846004
 21
-30.6609276452
  0
LINE
  5
410
100
AcDbEntity
  8
0
100
AcDbLine
 62
7
  6
CONTINUOUS
 10
-25.9518176159
 20
-30.6609276452
 11
-25.785151585
 21
-30.6609276452
  0
LINE
  5
411
100
AcDbEntity
  8
0
100
AcDbLine
 62
7
  6
CONTINUOUS
 10
-25.8268176159
 20
-30.4481617131
 11
-25.910151585
 21
-30.4481617131
  0
LINE
  5
412
100
AcDbEntity
  8
0
100
AcDbLine
 62
7
  6
CONTINUOUS
 10
-27.660151585
 20
-30.4481617131
 11
-27.7434846004
 21
-30.4481617131
  0
LINE
  5
413
100
AcDbEntity
  8
0
100
AcDbLine
 62
7
  6
CONTINUOUS
 10
-28.7851511082
 20
-30.4481617131
 11
-30.2851511082
 21
-30.4481617131
  0
LINE
  5
414
100
AcDbEntity
  8
0
100
AcDbLine
 62
7
  6
CONTINUOUS
 10
-30.7018180927
 20
-30.4481617131
 11
-32.1184846004
 21
-30.4481617131
  0
LINE
  5
415
100
AcDbEntity
  8
0
100
AcDbLine
 62
7
  6
CONTINUOUS
 10
-33.1184846004
 20
-30.4481617131
 11
-33.3268178543
 21
-30.4481617131
  0
LINE
  5
416
100
AcDbEntity
  8
0
100
AcDbLine
 62
7
  6
CONTINUOUS
 10
-34.8684846004
 20
-30.4481617131
 11
-35.8684846004
 21
-30.4481617131
  0
LINE
  5
417
100
AcDbEntity
  8
0
100
AcDbLine
 62
7
  6
CONTINUOUS
 10
40.1315153996
 20
-29.9481617131
 11
10.1315153996
 21
-29.9481617131
  0
LINE
  5
418
100
AcDbEntity
  8
0
100
AcDbLine
 62
7
  6
CONTINUOUS
 10
-23.8684846004
 20
-29.9481617131
 11
-36.8684846004
 21
-29.9481617131
  0
LINE
  5
419
100
AcDbEntity
  8
ASSI
100
AcDbLine
 62
7
  6
CONTINUOUS
 10
13.1549360931
 20
-31.6482433397
 11
13.2639613996
 21
-31.6509417131
  0
LWPOLYLINE
  5
41A
100
AcDbEntity
  8
0
100
AcDbPolyline
 62
253
  6
CONTINUOUS
 90
3
 70
0
 10
-46.1287853095
 20
-31.7112291262
 10
-49.1763735746
 20
-31.6098573568
 10
-53.6180705875
 20
-31.4374929229
  0
LWPOLYLINE
  5
41B
100
AcDbEntity
  8
0
100
AcDbPolyline
 62
253
  6
CONTINUOUS
 90
3
 70
0
 10
-46.1231898802
 20
-31.2633286243
 10
-49.1798152385
 20
-31.1616744458
 10
-53.5894115194
 20
-30.9905613561
  0
LINE
  5
41C
100
AcDbEntity
  8
RACCORDO
100
AcDbLine
 62
253
  6
CONTINUOUS
 10
74.8002909952
 20
-35.5096904791
 11
74.164673473
 21
-35.4635867399
  0
LINE
  5
41D
100
AcDbEntity
  8
RACCORDO
100
AcDbLine
 62
253
  6
CONTINUOUS
 10
71.351754112
 20
-35.2595550761
 11
72.6607318378
 21
-35.3545001737
  0
LINE
  5
41E
100
AcDbEntity
  8
RACCORDO
100
AcDbLine
 62
253
  6
CONTINUOUS
 10
75.7227073876
 20
-35.5765968234
 11
76.2952602845
 21
-35.6181262471
  0
LINE
  5
41F
100
AcDbEntity
  8
0
100
AcDbLine
 62
7
  6
CONTINUOUS
 10
-27.3684846004
 20
-30.4907148996
 11
-27.660151585
 21
-30.4481617131
  0
LINE
  5
420
100
AcDbEntity
  8
0
100
AcDbLine
 62
7
  6
CONTINUOUS
 10
-25.535151585
 20
-30.4907148996
 11
-25.8268176159
 21
-30.4481617131
  0
LINE
  5
421
100
AcDbEntity
  8
0
100
AcDbLine
 62
253
  6
CONTINUOUS
 10
-23.8287068525
 20
-26.3758074267
 11
-23.8224691694
 21
-26.3774788088
  0
LINE
  5
422
100
AcDbEntity
  8
0
100
AcDbLine
 62
253
  6
CONTINUOUS
 10
-20.3287068525
 20
-26.3758074267
 11
-20.3224691694
 21
-26.3774788088
  0
LINE
  5
423
100
AcDbEntity
  8
0
100
AcDbLine
 62
7
  6
CONTINUOUS
 10
-21.1412397649
 20
-25.8196876834
 11
-21.5742524668
 21
-25.5696876834
  0
LINE
  5
424
100
AcDbEntity
  8
0
100
AcDbLine
 62
7
  6
CONTINUOUS
 10
-21.1354718985
 20
-25.7981617131
 11
-21.5684846004
 21
-25.5481617131
  0
LINE
  5
425
100
AcDbEntity
  8
0
100
AcDbLine
 62
7
  6
CONTINUOUS
 10
-47.3184846004
 20
26.9018382869
 11
-47.3274009493
 21
26.9233642572
  0
LINE
  5
426
100
AcDbEntity
  8
0
100
AcDbLine
 62
7
  6
CONTINUOUS
 10
-26.6184846004
 20
-31.980076603
 11
-26.5768176159
 21
-32.107736192
  0
LINE
  5
427
100
AcDbEntity
  8
0
100
AcDbLine
 62
7
  6
CONTINUOUS
 10
-43.6354718985
 20
26.9018382869
 11
-43.6412397649
 21
26.9233642572
  0
LINE
  5
428
100
AcDbEntity
  8
0
100
AcDbLine
 62
7
  6
CONTINUOUS
 10
-42.8287068525
 20
27.4794840004
 11
-42.6739271501
 21
26.9018382869
  0
LINE
  5
429
100
AcDbEntity
  8
0
100
AcDbLine
 62
7
  6
CONTINUOUS
 10
-42.8224691694
 20
27.4811553826
 11
-42.6730094878
 21
26.9233642572
  0
LINE
  5
42A
100
AcDbEntity
  8
0
100
AcDbLine
 62
7
  6
CONTINUOUS
 10
-24.4145000315
 20
-26.3774788088
 11
-24.5639597131
 21
-25.8196876834
  0
LINE
  5
42B
100
AcDbEntity
  8
0
100
AcDbLine
 62
7
  6
CONTINUOUS
 10
-24.4082623483
 20
-26.3758074267
 11
-24.5630420508
 21
-25.7981617131
  0
LINE
  5
42C
100
AcDbEntity
  8
0
100
AcDbLine
 62
7
  6
CONTINUOUS
 10
-23.6014973023
 20
-25.7981617131
 11
-23.595729436
 21
-25.8196876834
  0
LINE
  5
42D
100
AcDbEntity
  8
0
100
AcDbLine
 62
7
  6
CONTINUOUS
 10
-26.9518176159
 20
-31.8098638573
 11
-26.9934846004
 21
-31.639651052
  0
LINE
  5
42E
100
AcDbEntity
  8
0
100
AcDbLine
 62
7
  6
CONTINUOUS
 10
-26.9934846004
 20
-30.9162467637
 11
-27.035151585
 21
-30.7460340181
  0
LINE
  5
42F
100
AcDbEntity
  8
0
100
AcDbLine
 62
7
  6
CONTINUOUS
 10
-25.1184846004
 20
-31.8098638573
 11
-25.160151585
 21
-31.639651052
  0
LINE
  5
430
100
AcDbEntity
  8
0
100
AcDbLine
 62
7
  6
CONTINUOUS
 10
-25.160151585
 20
-30.9162467637
 11
-25.2018176159
 21
-30.7460340181
  0
LINE
  5
431
100
AcDbEntity
  8
0
100
AcDbLine
 62
7
  6
CONTINUOUS
 10
-26.0934849342
 20
-34.2417787531
 11
-26.1372342666
 21
-33.9290128329
  0
LINE
  5
432
100
AcDbEntity
  8
0
100
AcDbLine
 62
7
  6
CONTINUOUS
 10
-28.3072816004
 20
30.6644352869
 11
-28.6812816004
 21
34.6639472869
  0
LINE
  5
433
100
AcDbEntity
  8
0
100
AcDbLine
 62
7
  6
CONTINUOUS
 10
-29.2955156004
 20
33.2651542869
 11
-29.1239916004
 21
30.6644352869
  0
LINE
  5
434
100
AcDbEntity
  8
0
100
AcDbLine
 62
7
  6
CONTINUOUS
 10
-23.6739271501
 20
-25.7981617131
 11
-23.6730094878
 21
-25.8196876834
  0
LINE
  5
435
100
AcDbEntity
  8
0
100
AcDbLine
 62
7
  6
CONTINUOUS
 10
-24.5630420508
 20
26.9018382869
 11
-24.5639597131
 21
26.9233642572
  0
LINE
  5
436
100
AcDbEntity
  8
0
100
AcDbLine
 62
7
  6
CONTINUOUS
 10
-28.7851511082
 20
-30.6609276452
 11
-28.7851511082
 21
-30.4481617131
  0
LINE
  5
437
100
AcDbEntity
  8
0
100
AcDbLine
 62
7
  6
CONTINUOUS
 10
-28.0184846004
 20
-33.5715659418
 11
-28.0184846004
 21
-33.3481617131
  0
LINE
  5
438
100
AcDbEntity
  8
0
100
AcDbLine
 62
7
  6
CONTINUOUS
 10
-27.785151585
 20
-31.3417787471
 11
-27.785151585
 21
-31.5119914928
  0
LINE
  5
439
100
AcDbEntity
  8
0
100
AcDbLine
 62
7
  6
CONTINUOUS
 10
-27.6684844335
 20
-33.9290128329
 11
-27.6684844335
 21
-34.1077362158
  0
LINE
  5
43A
100
AcDbEntity
  8
0
100
AcDbLine
 62
7
  6
CONTINUOUS
 10
-27.4497347673
 20
-34.0630553701
 11
-27.4497347673
 21
-33.9736936786
  0
LINE
  5
43B
100
AcDbEntity
  8
0
100
AcDbLine
 62
7
  6
CONTINUOUS
 10
-27.2018176159
 20
-30.9162467637
 11
-27.2018176159
 21
-31.0013532558
  0
LINE
  5
43C
100
AcDbEntity
  8
0
100
AcDbLine
 62
7
  6
CONTINUOUS
 10
-27.160151585
 20
-31.8098638573
 11
-27.160151585
 21
-31.980076603
  0
LINE
  5
43D
100
AcDbEntity
  8
0
100
AcDbLine
 62
7
  6
CONTINUOUS
 10
-26.9934846004
 20
-31.0013532558
 11
-26.9934846004
 21
-30.9162467637
  0
LINE
  5
43E
100
AcDbEntity
  8
0
100
AcDbLine
 62
7
  6
CONTINUOUS
 10
-26.9518176159
 20
-31.980076603
 11
-26.9518176159
 21
-31.8098638573
  0
LINE
  5
43F
100
AcDbEntity
  8
0
100
AcDbLine
 62
7
  6
CONTINUOUS
 10
-26.3559849342
 20
-33.9736936786
 11
-26.3559849342
 21
-34.0630553701
  0
LINE
  5
440
100
AcDbEntity
  8
0
100
AcDbLine
 62
7
  6
CONTINUOUS
 10
-26.3122346004
 20
-34.4651829817
 11
-26.3122346004
 21
-34.5545446732
  0
LINE
  5
441
100
AcDbEntity
  8
0
100
AcDbLine
 62
7
  6
CONTINUOUS
 10
-26.0934849342
 20
-34.5545446732
 11
-26.0934849342
 21
-34.2417787531
  0
LINE
  5
442
100
AcDbEntity
  8
0
100
AcDbLine
 62
7
  6
CONTINUOUS
 10
-25.9518176159
 20
-31.3417787471
 11
-25.9518176159
 21
-31.5119914928
  0
LINE
  5
443
100
AcDbEntity
  8
0
100
AcDbLine
 62
7
  6
CONTINUOUS
 10
-25.5623933838
 20
-25.1346952489
 11
-25.5623933838
 21
-24.7481617131
  0
LINE
  5
444
100
AcDbEntity
  8
0
100
AcDbLine
 62
7
  6
CONTINUOUS
 10
-25.5623933838
 20
25.8518382869
 11
-25.5623933838
 21
26.2383718227
  0
LINE
  5
445
100
AcDbEntity
  8
0
100
AcDbLine
 62
253
  6
CONTINUOUS
 10
-25.378417594
 20
26.3934647036
 11
-25.378417594
 21
25.8521123799
  0
LINE
  5
446
100
AcDbEntity
  8
0
100
AcDbLine
 62
253
  6
CONTINUOUS
 10
-25.378417594
 20
-24.7484358062
 11
-25.378417594
 21
-25.2897881299
  0
LINE
  5
447
100
AcDbEntity
  8
0
100
AcDbLine
 62
7
  6
CONTINUOUS
 10
-25.3684846004
 20
-30.9162467637
 11
-25.3684846004
 21
-31.0013532558
  0
LINE
  5
448
100
AcDbEntity
  8
0
100
AcDbLine
 62
7
  6
CONTINUOUS
 10
-25.3268176159
 20
-31.8098638573
 11
-25.3268176159
 21
-31.980076603
  0
LINE
  5
449
100
AcDbEntity
  8
0
100
AcDbLine
 62
253
  6
CONTINUOUS
 10
-25.1786916871
 20
26.5916312002
 11
-25.1786916871
 21
26.0518382869
  0
LINE
  5
44A
100
AcDbEntity
  8
0
100
AcDbLine
 62
253
  6
CONTINUOUS
 10
-25.1786916871
 20
-24.9481617131
 11
-25.1786916871
 21
-25.4879546265
  0
LINE
  5
44B
100
AcDbEntity
  8
0
100
AcDbLine
 62
7
  6
CONTINUOUS
 10
-25.160151585
 20
-31.0013532558
 11
-25.160151585
 21
-30.9162467637
  0
LINE
  5
44C
100
AcDbEntity
  8
0
100
AcDbLine
 62
7
  6
CONTINUOUS
 10
-25.1184846004
 20
-31.980076603
 11
-25.1184846004
 21
-31.8098638573
  0
LINE
  5
44D
100
AcDbEntity
  8
0
100
AcDbLine
 62
7
  6
CONTINUOUS
 10
-24.6417599202
 20
34.6172198954
 11
-24.6417599202
 21
30.6644351749
  0
LINE
  5
44E
100
AcDbEntity
  8
0
100
AcDbLine
 62
7
  6
CONTINUOUS
 10
-23.8684846004
 20
-35.9481617131
 11
-23.8684846004
 21
-29.9481617131
  0
LINE
  5
44F
100
AcDbEntity
  8
0
100
AcDbLine
 62
7
  6
CONTINUOUS
 10
-23.8379465488
 20
32.8846468256
 11
-23.8379465488
 21
33.9825909285
  0
LINE
  5
450
100
AcDbEntity
  8
0
100
AcDbLine
 62
7
  6
CONTINUOUS
 10
-23.8102640092
 20
30.6644351749
 11
-23.8102640092
 21
32.2296233551
  0
LINE
  5
451
100
AcDbEntity
  8
0
100
AcDbLine
 62
7
  6
CONTINUOUS
 10
-23.6739271501
 20
26.9018382869
 11
-23.6730094878
 21
26.9233642572
  0
LINE
  5
452
100
AcDbEntity
  8
0
100
AcDbLine
 62
7
  6
CONTINUOUS
 10
-24.5630420508
 20
-25.7981617131
 11
-24.5639597131
 21
-25.8196876834
  0
LINE
  5
453
100
AcDbEntity
  8
0
100
AcDbLine
 62
7
  6
CONTINUOUS
 10
-31.4747346839
 20
-33.9290128329
 11
-31.518484517
 21
-34.2417787531
  0
LINE
  5
454
100
AcDbEntity
  8
0
100
AcDbLine
 62
7
  6
CONTINUOUS
 10
-33.224734517
 20
-34.2417787531
 11
-33.1809846839
 21
-33.9736936786
  0
LINE
  5
455
100
AcDbEntity
  8
0
100
AcDbLine
 62
7
  6
CONTINUOUS
 10
-32.0872346004
 20
-34.5545446732
 11
-32.1309846839
 21
-34.8226298102
  0
LINE
  5
456
100
AcDbEntity
  8
0
100
AcDbLine
 62
7
  6
CONTINUOUS
 10
-31.2997346004
 20
-34.2417787531
 11
-31.255984517
 21
-33.9736936786
  0
LINE
  5
457
100
AcDbEntity
  8
0
100
AcDbLine
 62
7
  6
CONTINUOUS
 10
-33.3997346004
 20
-33.9736936786
 11
-33.4434845587
 21
-34.1970979073
  0
LINE
  5
458
100
AcDbEntity
  8
0
100
AcDbLine
 62
7
  6
CONTINUOUS
 10
-31.912234517
 20
-34.8226298102
 11
-31.8684846839
 21
-34.599225519
  0
LINE
  5
459
100
AcDbEntity
  8
0
100
AcDbLine
 62
7
  6
CONTINUOUS
 10
-35.2809845978
 20
-33.6609276333
 11
-35.3247345991
 21
-33.8396510163
  0
LINE
  5
45A
100
AcDbEntity
  8
0
100
AcDbLine
 62
7
  6
CONTINUOUS
 10
-33.8268178543
 20
-30.7460340181
 11
-33.8684846004
 21
-30.9162467637
  0
LINE
  5
45B
100
AcDbEntity
  8
0
100
AcDbLine
 62
7
  6
CONTINUOUS
 10
-33.8372345587
 20
-34.1077362158
 11
-33.7934846004
 21
-33.9290128329
  0
LINE
  5
45C
100
AcDbEntity
  8
0
100
AcDbLine
 62
7
  6
CONTINUOUS
 10
-23.1684846004
 20
26.6518382869
 11
-23.1627167341
 21
26.6733642572
  0
LINE
  5
45D
100
AcDbEntity
  8
0
100
AcDbLine
 62
7
  6
CONTINUOUS
 10
-21.0639597131
 20
26.9233642572
 11
-20.9145000315
 21
27.4811553826
  0
LINE
  5
45E
100
AcDbEntity
  8
0
100
AcDbLine
 62
7
  6
CONTINUOUS
 10
-21.0630420508
 20
26.9018382869
 11
-20.9082623483
 21
27.4794840004
  0
LINE
  5
45F
100
AcDbEntity
  8
0
100
AcDbLine
 62
7
  6
CONTINUOUS
 10
-19.8684846004
 20
26.9018382869
 11
-19.8595682516
 21
26.9233642572
  0
LINE
  5
460
100
AcDbEntity
  8
0
100
AcDbLine
 62
253
  6
CONTINUOUS
 10
1.5917376517
 20
-26.3758074267
 11
1.5854999685
 21
-26.3774788088
  0
LINE
  5
461
100
AcDbEntity
  8
0
100
AcDbLine
 62
253
  6
CONTINUOUS
 10
-1.9082623483
 20
-26.3758074267
 11
-1.9145000315
 21
-26.3774788088
  0
LINE
  5
462
100
AcDbEntity
  8
0
100
AcDbLine
 62
7
  6
CONTINUOUS
 10
-25.7018176159
 20
-32.4481617131
 11
-25.535151585
 21
-32.405608523
  0
LINE
  5
463
100
AcDbEntity
  8
0
100
AcDbLine
 62
7
  6
CONTINUOUS
 10
-27.535151585
 20
-32.4481617131
 11
-27.3684846004
 21
-32.405608523
  0
LINE
  5
464
100
AcDbEntity
  8
0
100
AcDbLine
 62
7
  6
CONTINUOUS
 10
-31.0768180927
 20
-32.1928425648
 11
-31.2434846004
 21
-32.2353957513
  0
LINE
  5
465
100
AcDbEntity
  8
0
100
AcDbLine
 62
7
  6
CONTINUOUS
 10
-32.9101513466
 20
-32.1502893784
 11
-33.0768178543
 21
-32.1928425648
  0
LINE
  5
466
100
AcDbEntity
  8
0
100
AcDbLine
 62
7
  6
CONTINUOUS
 10
-26.7934842666
 20
-34.688587273
 11
-26.5747346004
 21
-34.6439063647
  0
LINE
  5
467
100
AcDbEntity
  8
0
100
AcDbLine
 62
7
  6
CONTINUOUS
 10
-30.5997347673
 20
-35.4481617131
 11
-30.3809846004
 21
-35.4034808635
  0
LINE
  5
468
100
AcDbEntity
  8
0
100
AcDbLine
 62
7
  6
CONTINUOUS
 10
-32.437234517
 20
-35.1800766074
 11
-32.6559846839
 21
-35.2247574532
  0
LINE
  5
469
100
AcDbEntity
  8
0
100
AcDbLine
 62
7
  6
CONTINUOUS
 10
-27.0122344335
 20
-33.3481617131
 11
-27.2309846004
 21
-33.3928425589
  0
LINE
  5
46A
100
AcDbEntity
  8
0
100
AcDbLine
 62
7
  6
CONTINUOUS
 10
-30.8184844335
 20
-34.1077362158
 11
-31.0372346004
 21
-34.1524170616
  0
LINE
  5
46B
100
AcDbEntity
  8
0
100
AcDbLine
 62
7
  6
CONTINUOUS
 10
-30.8184844335
 20
-33.3481617131
 11
-31.0372346004
 21
-33.3928425589
  0
LINE
  5
46C
100
AcDbEntity
  8
0
100
AcDbLine
 62
7
  6
CONTINUOUS
 10
-25.535151585
 20
-32.1928425648
 11
-25.7434846004
 21
-32.2353957513
  0
LINE
  5
46D
100
AcDbEntity
  8
0
100
AcDbLine
 62
7
  6
CONTINUOUS
 10
-32.8747346004
 20
-33.6162467876
 11
-32.6559846839
 21
-33.5715659418
  0
LINE
  5
46E
100
AcDbEntity
  8
0
100
AcDbLine
 62
7
  6
CONTINUOUS
 10
-27.3684846004
 20
-32.1928425648
 11
-27.5768176159
 21
-32.2353957513
  0
LINE
  5
46F
100
AcDbEntity
  8
0
100
AcDbLine
 62
7
  6
CONTINUOUS
 10
-34.88723459
 20
-33.6162467876
 11
-34.6684845796
 21
-33.5715659418
  0
LINE
  5
470
100
AcDbEntity
  8
0
100
AcDbLine
 62
7
  6
CONTINUOUS
 10
-31.2434846004
 20
-32.4481617131
 11
-31.0351511082
 21
-32.405608523
  0
LINE
  5
471
100
AcDbEntity
  8
0
100
AcDbLine
 62
7
  6
CONTINUOUS
 10
-33.0768178543
 20
-32.4481617131
 11
-32.8684846004
 21
-32.405608523
  0
LINE
  5
472
100
AcDbEntity
  8
0
100
AcDbLine
 62
7
  6
CONTINUOUS
 10
-26.160151585
 20
-30.7034808316
 11
-25.9518176159
 21
-30.6609276452
  0
LINE
  5
473
100
AcDbEntity
  8
0
100
AcDbLine
 62
7
  6
CONTINUOUS
 10
-34.8684846004
 20
-32.4481617131
 11
-34.6601512274
 21
-32.405608523
  0
LINE
  5
474
100
AcDbEntity
  8
0
100
AcDbLine
 62
7
  6
CONTINUOUS
 10
-27.9934846004
 20
-30.7034808316
 11
-27.785151585
 21
-30.6609276452
  0
LINE
  5
475
100
AcDbEntity
  8
0
100
AcDbLine
 62
7
  6
CONTINUOUS
 10
-31.4934846004
 20
-31.1715660014
 11
-31.7018180927
 21
-31.2141191879
  0
LINE
  5
476
100
AcDbEntity
  8
0
100
AcDbLine
 62
7
  6
CONTINUOUS
 10
-32.6559846839
 20
-33.3481617131
 11
-32.9184846839
 21
-33.3928425589
  0
LINE
  5
477
100
AcDbEntity
  8
0
100
AcDbLine
 62
7
  6
CONTINUOUS
 10
-34.6247346213
 20
-33.3481617131
 11
-34.9309846109
 21
-33.3928425589
  0
LINE
  5
478
100
AcDbEntity
  8
0
100
AcDbLine
 62
7
  6
CONTINUOUS
 10
-25.910151585
 20
-30.4481617131
 11
-26.2018176159
 21
-30.4907148996
  0
LINE
  5
479
100
AcDbEntity
  8
0
100
AcDbLine
 62
7
  6
CONTINUOUS
 10
-27.7434846004
 20
-30.4481617131
 11
-28.0351511082
 21
-30.4907148996
  0
LWPOLYLINE
  5
47A
100
AcDbEntity
  8
RACCORDO
100
AcDbPolyline
 62
7
  6
CONTINUOUS
 90
7
 70
0
 10
55.8341336795
 20
-22.6555454491
 10
55.8254373654
 20
-22.6564892872
 10
55.8167081514
 20
-22.6572885713
 10
55.8079486795
 20
-22.6579420946
 10
55.7991616096
 20
-22.6584488071
 10
55.7903496183
 20
-22.6588078096
 10
55.7815153986
 20
-22.6590183488
  0
LWPOLYLINE
  5
47B
100
AcDbEntity
  8
RACCORDO
100
AcDbPolyline
 62
253
  6
CONTINUOUS
 90
22
 70
0
 10
55.8341336869
 20
-22.6555406207
 10
55.8912660249
 20
-22.6513910019
 10
55.9479323175
 20
-22.644974364
 10
56.0041325647
 20
-22.636290707
 10
56.0598797794
 20
-22.6253987092
 10
56.1151609488
 20
-22.6122396924
 10
56.1699370342
 20
-22.5966376218
 10
56.2242892994
 20
-22.5785366407
 10
56.2781364807
 20
-22.5579926059
 10
56.3311957479
 20
-22.5349970535
 10
56.3834947543
 20
-22.5095273104
 10
56.4350058466
 20
-22.4816060497
 10
56.4853632358
 20
-22.4512928268
 10
56.5345510398
 20
-22.4185866352
 10
56.5825851405
 20
-22.3834884814
 10
56.6291473945
 20
-22.3460609403
 10
56.6741692226
 20
-22.3063953221
 10
56.7177192038
 20
-22.2644003165
 10
56.7596849323
 20
-22.2198645676
 10
56.8000289392
 20
-22.1727176233
 10
56.8387886933
 20
-22.1230299357
 10
56.8759641947
 20
-22.0708015047
  0
LWPOLYLINE
  5
47C
100
AcDbEntity
  8
RACCORDO
100
AcDbPolyline
 62
253
  6
CONTINUOUS
 90
18
 70
0
 10
56.795830836
 20
-22.7600508388
 10
50.5047426307
 20
-23.003939344
 10
44.2120442664
 20
-23.2191747504
 10
37.917865098
 20
-23.4057448056
 10
31.6222391302
 20
-23.5636399439
 10
25.325391318
 20
-23.6928460835
 10
19.02773765
 20
-23.7933490131
 10
12.7294078873
 20
-23.8651428011
 10
6.4305318059
 20
-23.9082219841
 10
0.1315255861
 20
-23.9225818217
 10
-6.1674809119
 20
-23.9082220757
 10
-12.4663578282
 20
-23.8651429767
 10
-18.7646889829
 20
-23.7933492575
 10
-25.0623447523
 20
-23.6928463711
 10
-31.3591952226
 20
-23.5636402428
 10
-37.654823948
 20
-23.4057450888
 10
-43.9490058211
 20
-23.2191749945
 10
-50.2417069892
 20
-23.0039395208
  0
LWPOLYLINE
  5
47D
100
AcDbEntity
  8
RACCORDO
100
AcDbPolyline
 62
253
  6
CONTINUOUS
 90
19
 70
0
 10
55.7816070623
 20
-22.6571161279
 10
49.6028268832
 20
-22.8932146679
 10
43.4227394696
 20
-23.1014447909
 10
37.2413448215
 20
-23.2818064969
 10
31.0584207159
 20
-23.4342407025
 10
24.8741893758
 20
-23.5588064911
 10
18.6893174702
 20
-23.6556811127
 10
12.5038137884
 20
-23.7249268915
 10
6.3176695412
 20
-23.7664815033
 10
0.1315250294
 20
-23.7803352262
 10
-6.0546197146
 20
-23.7664815866
 10
-12.2407647232
 20
-23.7249270581
 10
-18.4262697919
 20
-23.6556813388
 10
-24.6111439159
 20
-23.5588067467
 10
-30.7953781
 20
-23.4342409639
 10
-36.9783051543
 20
-23.2818067357
 10
-43.1597026822
 20
-23.1014449771
 10
-49.3397930802
 20
-22.8932147731
 10
-55.5185763484
 20
-22.6571161237
  0
LWPOLYLINE
  5
47E
100
AcDbEntity
  8
RACCORDO
100
AcDbPolyline
 62
253
  6
CONTINUOUS
 90
3
 70
0
 10
56.7916966264
 20
-22.6178897513
 10
55.993747716
 20
-22.6496785947
 10
55.8341336869
 20
-22.6555406207
  0
LWPOLYLINE
  5
47F
100
AcDbEntity
  8
RACCORDO
100
AcDbPolyline
 62
253
  6
CONTINUOUS
 90
22
 70
0
 10
55.781530023
 20
-22.5976516524
 10
55.8380094512
 20
-22.5963376532
 10
55.8942096889
 20
-22.592419532
 10
55.950008948
 20
-22.5859271903
 10
56.0051609148
 20
-22.5769194594
 10
56.0596784941
 20
-22.5654254464
 10
56.1138220978
 20
-22.5513879125
 10
56.1675535657
 20
-22.5347802884
 10
56.2206573862
 20
-22.5156309277
 10
56.2731102804
 20
-22.4939092491
 10
56.3248110261
 20
-22.4696054641
 10
56.3755888688
 20
-22.4427477817
 10
56.4253088757
 20
-22.4133586962
 10
56.4738094323
 20
-22.3814832988
 10
56.5209778382
 20
-22.3471448572
 10
56.5667451844
 20
-22.3103343919
 10
56.6109282721
 20
-22.2711304508
 10
56.6534233919
 20
-22.2295536314
 10
56.6942495196
 20
-22.1854863202
 10
56.73328767
 20
-22.1389139071
 10
56.770308752
 20
-22.0899528482
 10
56.8051407831
 20
-22.0386748051
  0
LINE
  5
480
100
AcDbEntity
  8
0
100
AcDbLine
 62
7
  6
CONTINUOUS
 10
47.5904317484
 20
-25.8196876834
 11
47.3269905122
 21
-25.8196876834
  0
LINE
  5
481
100
AcDbEntity
  8
0
100
AcDbLine
 62
7
  6
CONTINUOUS
 10
46.4360402869
 20
-25.8196876834
 11
46.3587602351
 21
-25.8196876834
  0
LINE
  5
482
100
AcDbEntity
  8
0
100
AcDbLine
 62
7
  6
CONTINUOUS
 10
43.904270564
 20
-25.8196876834
 11
43.8269905122
 21
-25.8196876834
  0
LINE
  5
483
100
AcDbEntity
  8
0
100
AcDbLine
 62
7
  6
CONTINUOUS
 10
42.9360402869
 20
-25.8196876834
 11
42.6725990507
 21
-25.8196876834
  0
LINE
  5
484
100
AcDbEntity
  8
0
100
AcDbLine
 62
7
  6
CONTINUOUS
 10
25.1404317484
 20
-25.8196876834
 11
24.8269905122
 21
-25.8196876834
  0
LINE
  5
485
100
AcDbEntity
  8
0
100
AcDbLine
 62
7
  6
CONTINUOUS
 10
23.9360402869
 20
-25.8196876834
 11
23.8587602351
 21
-25.8196876834
  0
LINE
  5
486
100
AcDbEntity
  8
0
100
AcDbLine
 62
7
  6
CONTINUOUS
 10
21.404270564
 20
-25.8196876834
 11
21.3269905122
 21
-25.8196876834
  0
LINE
  5
487
100
AcDbEntity
  8
0
100
AcDbLine
 62
7
  6
CONTINUOUS
 10
20.4360402869
 20
-25.8196876834
 11
20.1225990507
 21
-25.8196876834
  0
LINE
  5
488
100
AcDbEntity
  8
0
100
AcDbLine
 62
7
  6
CONTINUOUS
 10
2.6404317484
 20
-25.8196876834
 11
2.3269905122
 21
-25.8196876834
  0
LINE
  5
489
100
AcDbEntity
  8
0
100
AcDbLine
 62
7
  6
CONTINUOUS
 10
1.4360402869
 20
-25.8196876834
 11
1.3587602351
 21
-25.8196876834
  0
LINE
  5
48A
100
AcDbEntity
  8
0
100
AcDbLine
 62
7
  6
CONTINUOUS
 10
-1.095729436
 20
-25.8196876834
 11
-1.1730094878
 21
-25.8196876834
  0
LINE
  5
48B
100
AcDbEntity
  8
0
100
AcDbLine
 62
7
  6
CONTINUOUS
 10
-2.0639597131
 20
-25.8196876834
 11
-2.3774009493
 21
-25.8196876834
  0
LINE
  5
48C
100
AcDbEntity
  8
0
100
AcDbLine
 62
7
  6
CONTINUOUS
 10
-19.8595682516
 20
-25.8196876834
 11
-20.1730094878
 21
-25.8196876834
  0
LINE
  5
48D
100
AcDbEntity
  8
0
100
AcDbLine
 62
7
  6
CONTINUOUS
 10
-21.0639597131
 20
-25.8196876834
 11
-21.1412397649
 21
-25.8196876834
  0
LINE
  5
48E
100
AcDbEntity
  8
0
100
AcDbLine
 62
7
  6
CONTINUOUS
 10
-23.595729436
 20
-25.8196876834
 11
-23.6730094878
 21
-25.8196876834
  0
LINE
  5
48F
100
AcDbEntity
  8
0
100
AcDbLine
 62
7
  6
CONTINUOUS
 10
-24.5639597131
 20
-25.8196876834
 11
-24.8774009493
 21
-25.8196876834
  0
LINE
  5
490
100
AcDbEntity
  8
0
100
AcDbLine
 62
7
  6
CONTINUOUS
 10
-42.4095682516
 20
-25.8196876834
 11
-42.6730094878
 21
-25.8196876834
  0
LINE
  5
491
100
AcDbEntity
  8
0
100
AcDbLine
 62
7
  6
CONTINUOUS
 10
-43.5639597131
 20
-25.8196876834
 11
-43.6412397649
 21
-25.8196876834
  0
LINE
  5
492
100
AcDbEntity
  8
0
100
AcDbLine
 62
7
  6
CONTINUOUS
 10
-46.095729436
 20
-25.8196876834
 11
-46.1730094878
 21
-25.8196876834
  0
LINE
  5
493
100
AcDbEntity
  8
0
100
AcDbLine
 62
7
  6
CONTINUOUS
 10
-47.0639597131
 20
-25.8196876834
 11
-47.3274009493
 21
-25.8196876834
  0
LINE
  5
494
100
AcDbEntity
  8
0
100
AcDbLine
 62
7
  6
CONTINUOUS
 10
47.5815153996
 20
-25.7981617131
 11
47.3260728499
 21
-25.7981617131
  0
LINE
  5
495
100
AcDbEntity
  8
0
100
AcDbLine
 62
7
  6
CONTINUOUS
 10
46.4369579492
 20
-25.7981617131
 11
46.3645281015
 21
-25.7981617131
  0
LINE
  5
496
100
AcDbEntity
  8
0
100
AcDbLine
 62
7
  6
CONTINUOUS
 10
43.8985026977
 20
-25.7981617131
 11
43.8260728499
 21
-25.7981617131
  0
LINE
  5
497
100
AcDbEntity
  8
0
100
AcDbLine
 62
7
  6
CONTINUOUS
 10
42.9369579492
 20
-25.7981617131
 11
42.6815153996
 21
-25.7981617131
  0
LINE
  5
498
100
AcDbEntity
  8
0
100
AcDbLine
 62
7
  6
CONTINUOUS
 10
25.1315153996
 20
-25.7981617131
 11
24.8260728499
 21
-25.7981617131
  0
LINE
  5
499
100
AcDbEntity
  8
0
100
AcDbLine
 62
7
  6
CONTINUOUS
 10
23.9369579492
 20
-25.7981617131
 11
23.8645281015
 21
-25.7981617131
  0
LINE
  5
49A
100
AcDbEntity
  8
0
100
AcDbLine
 62
7
  6
CONTINUOUS
 10
21.3985026977
 20
-25.7981617131
 11
21.3260728499
 21
-25.7981617131
  0
LINE
  5
49B
100
AcDbEntity
  8
0
100
AcDbLine
 62
7
  6
CONTINUOUS
 10
20.4369579492
 20
-25.7981617131
 11
20.1315153996
 21
-25.7981617131
  0
LINE
  5
49C
100
AcDbEntity
  8
0
100
AcDbLine
 62
7
  6
CONTINUOUS
 10
2.6315153996
 20
-25.7981617131
 11
2.3260728499
 21
-25.7981617131
  0
LINE
  5
49D
100
AcDbEntity
  8
0
100
AcDbLine
 62
7
  6
CONTINUOUS
 10
1.4369579492
 20
-25.7981617131
 11
1.3645281015
 21
-25.7981617131
  0
LINE
  5
49E
100
AcDbEntity
  8
0
100
AcDbLine
 62
7
  6
CONTINUOUS
 10
-1.1014973023
 20
-25.7981617131
 11
-1.1739271501
 21
-25.7981617131
  0
LINE
  5
49F
100
AcDbEntity
  8
0
100
AcDbLine
 62
7
  6
CONTINUOUS
 10
-2.0630420508
 20
-25.7981617131
 11
-2.3684846004
 21
-25.7981617131
  0
LINE
  5
4A0
100
AcDbEntity
  8
0
100
AcDbLine
 62
7
  6
CONTINUOUS
 10
-19.8684846004
 20
-25.7981617131
 11
-20.1739271501
 21
-25.7981617131
  0
LINE
  5
4A1
100
AcDbEntity
  8
0
100
AcDbLine
 62
7
  6
CONTINUOUS
 10
-21.0630420508
 20
-25.7981617131
 11
-21.1354718985
 21
-25.7981617131
  0
LINE
  5
4A2
100
AcDbEntity
  8
0
100
AcDbLine
 62
7
  6
CONTINUOUS
 10
-23.6014973023
 20
-25.7981617131
 11
-23.6739271501
 21
-25.7981617131
  0
LINE
  5
4A3
100
AcDbEntity
  8
0
100
AcDbLine
 62
7
  6
CONTINUOUS
 10
-24.5630420508
 20
-25.7981617131
 11
-24.8684846004
 21
-25.7981617131
  0
LINE
  5
4A4
100
AcDbEntity
  8
0
100
AcDbLine
 62
7
  6
CONTINUOUS
 10
-42.4184846004
 20
-25.7981617131
 11
-42.6739271501
 21
-25.7981617131
  0
LINE
  5
4A5
100
AcDbEntity
  8
0
100
AcDbLine
 62
7
  6
CONTINUOUS
 10
-43.5630420508
 20
-25.7981617131
 11
-43.6354718985
 21
-25.7981617131
  0
LINE
  5
4A6
100
AcDbEntity
  8
0
100
AcDbLine
 62
7
  6
CONTINUOUS
 10
-46.1014973023
 20
-25.7981617131
 11
-46.1739271501
 21
-25.7981617131
  0
LINE
  5
4A7
100
AcDbEntity
  8
0
100
AcDbLine
 62
7
  6
CONTINUOUS
 10
-47.0630420508
 20
-25.7981617131
 11
-47.3184846004
 21
-25.7981617131
  0
LINE
  5
4A8
100
AcDbEntity
  8
0
100
AcDbLine
 62
7
  6
CONTINUOUS
 10
45.9257475332
 20
-25.5696876834
 11
44.3372832659
 21
-25.5696876834
  0
LINE
  5
4A9
100
AcDbEntity
  8
0
100
AcDbLine
 62
7
  6
CONTINUOUS
 10
23.4257475332
 20
-25.5696876834
 11
21.8372832659
 21
-25.5696876834
  0
LINE
  5
4AA
100
AcDbEntity
  8
0
100
AcDbLine
 62
7
  6
CONTINUOUS
 10
0.9257475332
 20
-25.5696876834
 11
-0.6627167341
 21
-25.5696876834
  0
LINE
  5
4AB
100
AcDbEntity
  8
0
100
AcDbLine
 62
7
  6
CONTINUOUS
 10
-21.5742524668
 20
-25.5696876834
 11
-23.1627167341
 21
-25.5696876834
  0
LINE
  5
4AC
100
AcDbEntity
  8
0
100
AcDbLine
 62
7
  6
CONTINUOUS
 10
-44.0742524668
 20
-25.5696876834
 11
-45.6627167341
 21
-25.5696876834
  0
LINE
  5
4AD
100
AcDbEntity
  8
0
100
AcDbLine
 62
7
  6
CONTINUOUS
 10
45.9315153996
 20
-25.5481617131
 11
44.3315153996
 21
-25.5481617131
  0
LINE
  5
4AE
100
AcDbEntity
  8
0
100
AcDbLine
 62
7
  6
CONTINUOUS
 10
23.4315153996
 20
-25.5481617131
 11
21.8315153996
 21
-25.5481617131
  0
LINE
  5
4AF
100
AcDbEntity
  8
0
100
AcDbLine
 62
7
  6
CONTINUOUS
 10
0.9315153996
 20
-25.5481617131
 11
-0.6684846004
 21
-25.5481617131
  0
LINE
  5
4B0
100
AcDbEntity
  8
0
100
AcDbLine
 62
7
  6
CONTINUOUS
 10
-21.5684846004
 20
-25.5481617131
 11
-23.1684846004
 21
-25.5481617131
  0
LINE
  5
4B1
100
AcDbEntity
  8
0
100
AcDbLine
 62
7
  6
CONTINUOUS
 10
-44.0684846004
 20
-25.5481617131
 11
-45.6684846004
 21
-25.5481617131
  0
LINE
  5
4B2
100
AcDbEntity
  8
0
100
AcDbLine
 62
253
  6
CONTINUOUS
 10
25.4417224862
 20
-24.9481617131
 11
19.8213083129
 21
-24.9481617131
  0
LINE
  5
4B3
100
AcDbEntity
  8
0
100
AcDbLine
 62
253
  6
CONTINUOUS
 10
2.9417224862
 20
-24.9481617131
 11
-2.6786916871
 21
-24.9481617131
  0
LINE
  5
4B4
100
AcDbEntity
  8
0
100
AcDbLine
 62
253
  6
CONTINUOUS
 10
-19.5582775138
 20
-24.9481617131
 11
-25.1786916871
 21
-24.9481617131
  0
LINE
  5
4B5
100
AcDbEntity
  8
0
100
AcDbLine
 62
253
  6
CONTINUOUS
 10
47.9417224862
 20
-24.8481617131
 11
42.3213083129
 21
-24.8481617131
  0
LINE
  5
4B6
100
AcDbEntity
  8
0
100
AcDbLine
 62
253
  6
CONTINUOUS
 10
-42.0582775138
 20
-24.8481617131
 11
-47.6786916871
 21
-24.8481617131
  0
LINE
  5
4B7
100
AcDbEntity
  8
0
100
AcDbLine
 62
7
  6
CONTINUOUS
 10
-3.0623933838
 20
-24.7481617131
 11
3.3254241829
 21
-24.7481617131
  0
LINE
  5
4B8
100
AcDbEntity
  8
0
100
AcDbLine
 62
7
  6
CONTINUOUS
 10
-19.1745758171
 20
-24.7481617131
 11
-25.5623933838
 21
-24.7481617131
  0
LINE
  5
4B9
100
AcDbEntity
  8
0
100
AcDbLine
 62
7
  6
CONTINUOUS
 10
19.4376066162
 20
-24.7481617131
 11
25.8254241829
 21
-24.7481617131
  0
LINE
  5
4BA
100
AcDbEntity
  8
0
100
AcDbLine
 62
7
  6
CONTINUOUS
 10
56.6315153996
 20
-24.6481617131
 11
-56.3684846004
 21
-24.6481617131
  0
LINE
  5
4BB
100
AcDbEntity
  8
0
100
AcDbLine
 62
7
  6
CONTINUOUS
 10
-47.6184846004
 20
-24.4981617131
 11
-42.1184846004
 21
-24.4981617131
  0
LINE
  5
4BC
100
AcDbEntity
  8
0
100
AcDbLine
 62
7
  6
CONTINUOUS
 10
42.3815153996
 20
-24.4981617131
 11
47.8815153996
 21
-24.4981617131
  0
LWPOLYLINE
  5
4BD
100
AcDbEntity
  8
RACCORDO
100
AcDbPolyline
 62
7
  6
CONTINUOUS
 90
7
 70
0
 10
-55.5184846004
 20
-22.6590184951
 10
-55.5268867477
 20
-22.6588258697
 10
-55.5352665532
 20
-22.6584844678
 10
-55.5436213672
 20
-22.6579950666
 10
-55.5519485565
 20
-22.6573586026
 10
-55.560245505
 20
-22.6565761775
 10
-55.5685096146
 20
-22.6556490646
  0
LINE
  5
4BE
100
AcDbEntity
  8
RACCORDO
100
AcDbLine
 62
253
  6
CONTINUOUS
 10
-50.2417069892
 20
-23.0039395208
 11
-56.5327980973
 21
-22.7600509186
  0
LWPOLYLINE
  5
4BF
100
AcDbEntity
  8
RACCORDO
100
AcDbPolyline
 62
253
  6
CONTINUOUS
 90
3
 70
0
 10
-55.5685096227
 20
-22.6556437247
 10
-56.3686600401
 20
-22.6245958762
 10
-56.5286658273
 20
-22.6178897513
  0
LWPOLYLINE
  5
4C0
100
AcDbEntity
  8
RACCORDO
100
AcDbPolyline
 62
253
  6
CONTINUOUS
 90
31
 70
0
 10
-56.5286658273
 20
-22.6178897513
 10
-56.5438407284
 20
-22.6171435972
 10
-56.5594900724
 20
-22.6158724631
 10
-56.5756138593
 20
-22.614076349
 10
-56.5922294721
 20
-22.6118009933
 10
-56.6093195279
 20
-22.6090006576
 10
-56.6268318776
 20
-22.605538127
 10
-56.6447654544
 20
-22.6014213277
 10
-56.6631213251
 20
-22.5966423336
 10
-56.6818505406
 20
-22.5910401507
 10
-56.700970835
 20
-22.5846194566
 10
-56.7204644743
 20
-22.5773755737
 10
-56.7402293064
 20
-22.5691334752
 10
-56.760278261
 20
-22.5598999227
 10
-56.7805984086
 20
-22.5496681546
 10
-56.8010488082
 20
-22.5382428599
 10
-56.821642835
 20
-22.5256371955
 10
-56.8423671139
 20
-22.5118380046
 10
-56.8630405795
 20
-22.4966105046
 10
-56.8837015621
 20
-22.4799559171
 10
-56.9043117313
 20
-22.4618730206
 10
-56.9245750312
 20
-22.4421233682
 10
-56.944556095
 20
-22.4206613373
 10
-56.9641902894
 20
-22.3975325505
 10
-56.9829876586
 20
-22.3726354286
 10
-57.0009935066
 20
-22.3458695656
 10
-57.0181625294
 20
-22.3173353675
 10
-57.0338688582
 20
-22.2872324736
 10
-57.0479038702
 20
-22.2556274301
 10
-57.0604761882
 20
-22.2224536907
 10
-57.0715858123
 20
-22.1877112554
  0
LWPOLYLINE
  5
4C1
100
AcDbEntity
  8
RACCORDO
100
AcDbPolyline
 62
7
  6
CONTINUOUS
 90
31
 70
0
 10
-56.5327980973
 20
-22.760050918
 10
-56.5509145515
 20
-22.7590665841
 10
-56.5696509919
 20
-22.7575444132
 10
-56.5889892319
 20
-22.7554317038
 10
-56.608901065
 20
-22.7526752222
 10
-56.6293686026
 20
-22.7492198274
 10
-56.650383808
 20
-22.745006595
 10
-56.671898554
 20
-22.7399810982
 10
-56.6938916983
 20
-22.7340818256
 10
-56.7163874382
 20
-22.7272300839
 10
-56.7393422061
 20
-22.7193585095
 10
-56.7626972195
 20
-22.7104032081
 10
-56.7864418835
 20
-22.7002789777
 10
-56.8104977481
 20
-22.6889216295
 10
-56.8347999066
 20
-22.6762594639
 10
-56.8593411025
 20
-22.6621835664
 10
-56.8840063519
 20
-22.6466347333
 10
-56.9087118807
 20
-22.6295334962
 10
-56.933468057
 20
-22.6107195088
 10
-56.9581454131
 20
-22.5901116205
 10
-56.98258952
 20
-22.5676461703
 10
-57.0067319059
 20
-22.543168102
 10
-57.0304256606
 20
-22.5165675825
 10
-57.0534277767
 20
-22.4878338809
 10
-57.0754986461
 20
-22.4569696248
 10
-57.0964555197
 20
-22.4238976264
 10
-57.1160244182
 20
-22.3886754929
 10
-57.1338582609
 20
-22.3515626222
 10
-57.1497211542
 20
-22.3127033239
 10
-57.1634456643
 20
-22.2721030357
 10
-57.1748232833
 20
-22.2298648954
  0
LINE
  5
4C2
100
AcDbEntity
  8
0
100
AcDbLine
 62
253
  6
CONTINUOUS
 10
-1.3287068525
 20
-26.3758074267
 11
-1.3224691694
 21
-26.3774788088
  0
LINE
  5
4C3
100
AcDbEntity
  8
0
100
AcDbLine
 62
253
  6
CONTINUOUS
 10
2.1712931475
 20
-26.3758074267
 11
2.1775308306
 21
-26.3774788088
  0
LINE
  5
4C4
100
AcDbEntity
  8
0
100
AcDbLine
 62
7
  6
CONTINUOUS
 10
-19.8684846004
 20
-25.7981617131
 11
-19.8595682516
 21
-25.8196876834
  0
LINE
  5
4C5
100
AcDbEntity
  8
0
100
AcDbLine
 62
7
  6
CONTINUOUS
 10
-37.2468226004
 20
34.6639472869
 11
-35.9788996004
 21
30.6644352869
  0
LINE
  5
4C6
100
AcDbEntity
  8
0
100
AcDbLine
 62
7
  6
CONTINUOUS
 10
-35.5775326004
 20
31.9109592869
 11
-36.3399126004
 21
34.6639472869
  0
LINE
  5
4C7
100
AcDbEntity
  8
0
100
AcDbLine
 62
7
  6
CONTINUOUS
 10
-23.1684846004
 20
-25.5481617131
 11
-23.1627167341
 21
-25.5696876834
  0
LINE
  5
4C8
100
AcDbEntity
  8
0
100
AcDbLine
 62
7
  6
CONTINUOUS
 10
-20.9145000315
 20
-26.3774788088
 11
-21.0639597131
 21
-25.8196876834
  0
LINE
  5
4C9
100
AcDbEntity
  8
0
100
AcDbLine
 62
7
  6
CONTINUOUS
 10
-20.9082623483
 20
-26.3758074267
 11
-21.0630420508
 21
-25.7981617131
  0
LINE
  5
4CA
100
AcDbEntity
  8
0
100
AcDbLine
 62
7
  6
CONTINUOUS
 10
-20.1739271501
 20
-25.7981617131
 11
-20.1730094878
 21
-25.8196876834
  0
LINE
  5
4CB
100
AcDbEntity
  8
0
100
AcDbLine
 62
7
  6
CONTINUOUS
 10
-21.0630420508
 20
26.9018382869
 11
-21.0639597131
 21
26.9233642572
  0
LINE
  5
4CC
100
AcDbEntity
  8
0
100
AcDbLine
 62
7
  6
CONTINUOUS
 10
-22.4953883696
 20
32.5313720335
 11
-22.4953883696
 21
32.5550056642
  0
LINE
  5
4CD
100
AcDbEntity
  8
0
100
AcDbLine
 62
7
  6
CONTINUOUS
 10
-20.8684846004
 20
29.5518382869
 11
-20.8684846004
 21
35.5518382869
  0
LINE
  5
4CE
100
AcDbEntity
  8
0
100
AcDbLine
 62
253
  6
CONTINUOUS
 10
-19.5582775138
 20
-25.4879546265
 11
-19.5582775138
 21
-24.9481617131
  0
LINE
  5
4CF
100
AcDbEntity
  8
0
100
AcDbLine
 62
253
  6
CONTINUOUS
 10
-19.5582775138
 20
26.0518382869
 11
-19.5582775138
 21
26.5916312002
  0
LINE
  5
4D0
100
AcDbEntity
  8
0
100
AcDbLine
 62
253
  6
CONTINUOUS
 10
-19.3585516068
 20
-25.2897881299
 11
-19.3585516068
 21
-24.7484358062
  0
LINE
  5
4D1
100
AcDbEntity
  8
0
100
AcDbLine
 62
253
  6
CONTINUOUS
 10
-19.3585516068
 20
25.8521123799
 11
-19.3585516068
 21
26.3934647036
  0
LINE
  5
4D2
100
AcDbEntity
  8
0
100
AcDbLine
 62
7
  6
CONTINUOUS
 10
-19.1745758171
 20
26.2383718227
 11
-19.1745758171
 21
25.8518382869
  0
LINE
  5
4D3
100
AcDbEntity
  8
0
100
AcDbLine
 62
7
  6
CONTINUOUS
 10
-19.1745758171
 20
-24.7481617131
 11
-19.1745758171
 21
-25.1346952489
  0
LWPOLYLINE
  5
4D4
100
AcDbEntity
  8
0
100
AcDbPolyline
 62
7
  6
CONTINUOUS
 90
25
 70
0
 10
-22.7123199063
 20
33.5061693246
 10
-22.7127624874
 20
33.4559904693
 10
-22.7156729643
 20
33.408071785
 10
-22.721051337
 20
33.3624132718
 10
-22.7289494421
 20
33.3190049002
 10
-22.739315443
 20
33.2778566998
 10
-22.7519938301
 20
33.2389987587
 10
-22.7670331962
 20
33.2025449577
 10
-22.7843849484
 20
33.1683814161
 10
-22.803747798
 20
33.1361965803
 10
-22.8250543528
 20
33.1058771508
 10
-22.8483720049
 20
33.0775364271
 10
-22.8736016422
 20
33.0512027547
 10
-22.9005192197
 20
33.0269679157
 10
-22.9293487824
 20
33.0047401279
 10
-22.9606633522
 20
32.9842723909
 10
-22.9945224433
 20
32.9654487798
 10
-23.0308665416
 20
32.9483852194
 10
-23.0700901269
 20
32.9331824834
 10
-23.1125415329
 20
32.9197481666
 10
-23.1578724258
 20
32.9081746742
 10
-23.2054322842
 20
32.898839995
 10
-23.2550042676
 20
32.8918701253
 10
-23.3068052164
 20
32.8871390689
 10
-23.3608351308
 20
32.8846468256
  0
LINE
  5
4D5
100
AcDbEntity
  8
0
100
AcDbLine
 62
7
  6
CONTINUOUS
 10
-20.1739271501
 20
26.9018382869
 11
-20.1730094878
 21
26.9233642572
  0
LINE
  5
4D6
100
AcDbEntity
  8
0
100
AcDbLine
 62
7
  6
CONTINUOUS
 10
-21.0630420508
 20
-25.7981617131
 11
-21.0639597131
 21
-25.8196876834
  0
LINE
  5
4D7
100
AcDbEntity
  8
0
100
AcDbLine
 62
7
  6
CONTINUOUS
 10
-26.1372342666
 20
-34.867310656
 11
-26.0934849342
 21
-34.5545446732
  0
LINE
  5
4D8
100
AcDbEntity
  8
0
100
AcDbLine
 62
7
  6
CONTINUOUS
 10
-26.3122346004
 20
-34.5545446732
 11
-26.3559849342
 21
-34.8226298102
  0
LINE
  5
4D9
100
AcDbEntity
  8
0
100
AcDbLine
 62
7
  6
CONTINUOUS
 10
-28.3684846004
 20
-30.7460340181
 11
-28.4101511082
 21
-30.9162467637
  0
LINE
  5
4DA
100
AcDbEntity
  8
0
100
AcDbLine
 62
7
  6
CONTINUOUS
 10
-27.035151585
 20
-31.1715660014
 11
-26.9934846004
 21
-31.0013532558
  0
LINE
  5
4DB
100
AcDbEntity
  8
0
100
AcDbLine
 62
7
  6
CONTINUOUS
 10
-26.535151585
 20
-30.7460340181
 11
-26.5768176159
 21
-30.9162467637
  0
LINE
  5
4DC
100
AcDbEntity
  8
0
100
AcDbLine
 62
7
  6
CONTINUOUS
 10
-34.5768179735
 20
-31.0439064422
 11
-34.6184846004
 21
-31.1715660014
  0
LINE
  5
4DD
100
AcDbEntity
  8
0
100
AcDbLine
 62
7
  6
CONTINUOUS
 10
-34.3684846004
 20
-31.2141191879
 11
-34.3268179735
 21
-31.0864596286
  0
LINE
  5
4DE
100
AcDbEntity
  8
0
100
AcDbLine
 62
7
  6
CONTINUOUS
 10
-34.5768179735
 20
-31.9375234165
 11
-34.6184846004
 21
-32.0651829758
  0
LINE
  5
4DF
100
AcDbEntity
  8
0
100
AcDbLine
 62
7
  6
CONTINUOUS
 10
-34.3684846004
 20
-32.107736192
 11
-34.3268179735
 21
-31.980076603
  0
LINE
  5
4E0
100
AcDbEntity
  8
0
100
AcDbLine
 62
7
  6
CONTINUOUS
 10
-33.6184846004
 20
-30.9588000694
 11
-33.5768178543
 21
-30.8311403909
  0
LINE
  5
4E1
100
AcDbEntity
  8
0
100
AcDbLine
 62
7
  6
CONTINUOUS
 10
-33.3559846422
 20
-33.8396510163
 11
-33.3997346004
 21
-33.9736936786
  0
LINE
  5
4E2
100
AcDbEntity
  8
0
100
AcDbLine
 62
7
  6
CONTINUOUS
 10
-31.9559846004
 20
-34.9566723474
 11
-31.912234517
 21
-34.8226298102
  0
LINE
  5
4E3
100
AcDbEntity
  8
0
100
AcDbLine
 62
7
  6
CONTINUOUS
 10
-30.8268180927
 20
-31.8524170437
 11
-30.8684846004
 21
-31.980076603
  0
LINE
  5
4E4
100
AcDbEntity
  8
0
100
AcDbLine
 62
7
  6
CONTINUOUS
 10
-31.255984517
 20
-33.9736936786
 11
-31.2122346839
 21
-33.8396510163
  0
LINE
  5
4E5
100
AcDbEntity
  8
0
100
AcDbLine
 62
7
  6
CONTINUOUS
 10
-31.255984517
 20
-34.688587273
 11
-31.2122346839
 21
-34.5545446732
  0
LINE
  5
4E6
100
AcDbEntity
  8
0
100
AcDbLine
 62
7
  6
CONTINUOUS
 10
-30.1622344335
 20
-34.8226298102
 11
-30.2059847673
 21
-34.9566723474
  0
LINE
  5
4E7
100
AcDbEntity
  8
0
100
AcDbLine
 62
7
  6
CONTINUOUS
 10
-2.6786916871
 20
26.0518382869
 11
-2.6957872611
 21
26.0345985208
  0
LWPOLYLINE
  5
4E8
100
AcDbEntity
  8
0
100
AcDbPolyline
 62
7
  6
CONTINUOUS
 90
3
 70
0
 10
-2.8727515467
 20
25.8577784272
 10
-2.8773652815
 20
25.8531134495
 10
-2.878417594
 20
25.8521123799
  0
LINE
  5
4E9
100
AcDbEntity
  8
0
100
AcDbLine
 62
7
  6
CONTINUOUS
 10
-3.0623933838
 20
26.2383718227
 11
-2.3774009493
 21
26.9233642572
  0
LINE
  5
4EA
100
AcDbEntity
  8
0
100
AcDbLine
 62
7
  6
CONTINUOUS
 10
-2.6786916871
 20
26.5916312002
 11
-2.3684846004
 21
26.9018382869
  0
LINE
  5
4EB
100
AcDbEntity
  8
0
100
AcDbLine
 62
7
  6
CONTINUOUS
 10
-2.6957872611
 20
26.0345985208
 11
-2.8727515467
 21
25.8577784272
  0
LINE
  5
4EC
100
AcDbEntity
  8
0
100
AcDbLine
 62
7
  6
CONTINUOUS
 10
-2.878417594
 20
26.3934647036
 11
-3.0623933838
 21
26.2383718227
  0
LINE
  5
4ED
100
AcDbEntity
  8
0
100
AcDbLine
 62
7
  6
CONTINUOUS
 10
0.9257475332
 20
26.6733642572
 11
1.3587602351
 21
26.9233642572
  0
LINE
  5
4EE
100
AcDbEntity
  8
0
100
AcDbLine
 62
7
  6
CONTINUOUS
 10
0.9315153996
 20
26.6518382869
 11
1.3645281015
 21
26.9018382869
  0
LINE
  5
4EF
100
AcDbEntity
  8
0
100
AcDbLine
 62
253
  6
CONTINUOUS
 10
-20.9082623483
 20
-26.3758074267
 11
-20.9145000315
 21
-26.3774788088
  0
LINE
  5
4F0
100
AcDbEntity
  8
0
100
AcDbLine
 62
253
  6
CONTINUOUS
 10
-24.4082623483
 20
-26.3758074267
 11
-24.4145000315
 21
-26.3774788088
  0
LINE
  5
4F1
100
AcDbEntity
  8
0
100
AcDbLine
 62
7
  6
CONTINUOUS
 10
-31.6601511082
 20
-31.4268851199
 11
-31.4934846004
 21
-31.3843319335
  0
LINE
  5
4F2
100
AcDbEntity
  8
0
100
AcDbLine
 62
7
  6
CONTINUOUS
 10
-33.3268178543
 20
-30.4481617131
 11
-33.4934846004
 21
-30.4907148996
  0
LWPOLYLINE
  5
4F3
100
AcDbEntity
  8
RACCORDO
100
AcDbPolyline
 62
253
  6
CONTINUOUS
 90
16
 70
0
 10
-57.0788242232
 20
-22.1078581124
 10
-57.0899608592
 20
-22.1083926132
 10
-57.1011152765
 20
-22.1088650946
 10
-57.1121481743
 20
-22.1092696561
 10
-57.1229217692
 20
-22.1096012453
 10
-57.1333015161
 20
-22.1098557212
 10
-57.1431577885
 20
-22.1100299059
 10
-57.1523674972
 20
-22.110121624
 10
-57.1608156277
 20
-22.1101297301
 10
-57.1683966762
 20
-22.110054123
 10
-57.1750159674
 20
-22.1098957469
 10
-57.1805908371
 20
-22.1096565798
 10
-57.1850516639
 20
-22.1093396083
 10
-57.1883427391
 20
-22.108948791
 10
-57.1904229626
 20
-22.1084890086
 10
-57.1912663556
 20
-22.107966003
  0
LINE
  5
4F4
100
AcDbEntity
  8
RACCORDO
100
AcDbLine
 62
253
  6
CONTINUOUS
 10
-57.7469538572
 20
-22.1332216337
 11
-57.1912663424
 21
-22.1079662721
  0
LWPOLYLINE
  5
4F5
100
AcDbEntity
  8
RACCORDO
100
AcDbPolyline
 62
253
  6
CONTINUOUS
 90
13
 70
0
 10
-56.8437703638
 20
-21.3524571621
 10
-56.8323727025
 20
-21.352338495
 10
-56.8212976561
 20
-21.3521636795
 10
-56.8106941059
 20
-21.3519350654
 10
-56.8007045956
 20
-21.3516557256
 10
-56.7914634166
 20
-21.351329415
 10
-56.7830948015
 20
-21.3509605199
 10
-56.7757112526
 20
-21.350553999
 10
-56.7694120337
 20
-21.3501153171
 10
-56.7642818343
 20
-21.3496503716
 10
-56.7603896244
 20
-21.3491654127
 10
-56.7577877302
 20
-21.3486669597
 10
-56.7565111333
 20
-21.3481617132
  0
LINE
  5
4F6
100
AcDbEntity
  8
RACCORDO
100
AcDbLine
 62
253
  6
CONTINUOUS
 10
56.9815153996
 20
-21.3481617131
 11
57.0195492967
 21
-21.3481126808
  0
LINE
  5
4F7
100
AcDbEntity
  8
RACCORDO
100
AcDbLine
 62
253
  6
CONTINUOUS
 10
-55.5185763484
 20
-22.6571161237
 11
55.7816070623
 21
-22.6571161279
  0
LINE
  5
4F8
100
AcDbEntity
  8
RACCORDO
100
AcDbLine
 62
253
  6
CONTINUOUS
 10
-55.5184273417
 20
-22.5976516792
 11
55.781530023
 21
-22.5976516792
  0
LINE
  5
4F9
100
AcDbEntity
  8
DRAFT
100
AcDbLine
 62
7
  6
CONTINUOUS
 10
55.7815153996
 20
-22.5481617131
 11
-55.5184846004
 21
-22.5481617131
  0
LINE
  5
4FA
100
AcDbEntity
  8
RACCORDO
100
AcDbLine
 62
7
  6
CONTINUOUS
 10
-55.5193068796
 20
-21.9481617131
 11
55.7823376787
 21
-21.9481617131
  0
LINE
  5
4FB
100
AcDbEntity
  8
RACCORDO
100
AcDbLine
 62
253
  6
CONTINUOUS
 10
-56.7184846004
 20
-21.3481617131
 11
-56.7565184041
 21
-21.3481618526
  0
LWPOLYLINE
  5
4FC
100
AcDbEntity
  8
RACCORDO
100
AcDbPolyline
 62
253
  6
CONTINUOUS
 90
13
 70
0
 10
57.1068010012
 20
-21.3524572172
 10
57.0954038664
 20
-21.3523385147
 10
57.0843294435
 20
-21.352163669
 10
57.0737265917
 20
-21.3519350304
 10
57.0637378309
 20
-21.3516556722
 10
57.0544974272
 20
-21.3513293494
 10
57.0461295869
 20
-21.3509604483
 10
57.0387467881
 20
-21.3505539277
 10
57.032448268
 20
-21.3501152518
 10
57.0273186893
 20
-21.3496503172
 10
57.0234270021
 20
-21.3491653733
 10
57.0208255174
 20
-21.3486669387
 10
57.0195492035
 20
-21.3481617131
  0
LINE
  5
4FD
100
AcDbEntity
  8
RACCORDO
100
AcDbLine
 62
253
  6
CONTINUOUS
 10
58.0099846563
 20
-22.1332216338
 11
57.4542971493
 21
-22.1079660975
  0
LWPOLYLINE
  5
4FE
100
AcDbEntity
  8
RACCORDO
100
AcDbPolyline
 62
253
  6
CONTINUOUS
 90
16
 70
0
 10
57.3418550564
 20
-22.1078581004
 10
57.3529916726
 20
-22.1083925998
 10
57.3641460699
 20
-22.10886508
 10
57.3751789483
 20
-22.1092696407
 10
57.3859525251
 20
-22.1096012294
 10
57.396332256
 20
-22.1098557052
 10
57.4061885151
 20
-22.11002989
 10
57.4153982139
 20
-22.1101216087
 10
57.4238463382
 20
-22.1101297158
 10
57.4314273849
 20
-22.11005411
 10
57.438046679
 20
-22.1098957355
 10
57.4436215564
 20
-22.1096565703
 10
57.448082396
 20
-22.1093396009
 10
57.4513734891
 20
-22.108948786
 10
57.4534537355
 20
-22.1084890061
 10
57.4542971562
 20
-22.1079660031
  0
LINE
  5
4FF
100
AcDbEntity
  8
0
100
AcDbLine
 62
253
  6
CONTINUOUS
 10
21.1712931475
 20
-26.3758074267
 11
21.1775308306
 21
-26.3774788088
  0
LINE
  5
500
100
AcDbEntity
  8
0
100
AcDbLine
 62
253
  6
CONTINUOUS
 10
24.6712931475
 20
-26.3758074267
 11
24.6775308306
 21
-26.3774788088
  0
LINE
  5
501
100
AcDbEntity
  8
0
100
AcDbLine
 62
7
  6
CONTINUOUS
 10
1.3587602351
 20
-25.8196876834
 11
0.9257475332
 21
-25.5696876834
  0
LINE
  5
502
100
AcDbEntity
  8
0
100
AcDbLine
 62
7
  6
CONTINUOUS
 10
1.3645281015
 20
-25.7981617131
 11
0.9315153996
 21
-25.5481617131
  0
LINE
  5
503
100
AcDbEntity
  8
0
100
AcDbLine
 62
7
  6
CONTINUOUS
 10
-2.878417594
 20
-25.2897881299
 11
-3.0623933838
 21
-25.1346952489
  0
LINE
  5
504
100
AcDbEntity
  8
0
100
AcDbLine
 62
7
  6
CONTINUOUS
 10
-2.878417594
 20
-24.7484358062
 11
-2.8773652815
 21
-24.7494368758
  0
LWPOLYLINE
  5
505
100
AcDbEntity
  8
0
100
AcDbPolyline
 62
7
  6
CONTINUOUS
 90
3
 70
0
 10
-2.7435641308
 20
-24.8833285106
 10
-2.6957872611
 20
-24.9309219471
 10
-2.6786916871
 20
-24.9481617131
  0
LINE
  5
506
100
AcDbEntity
  8
0
100
AcDbLine
 62
7
  6
CONTINUOUS
 10
-2.3774009493
 20
-25.8196876834
 11
-3.0623933838
 21
-25.1346952489
  0
LINE
  5
507
100
AcDbEntity
  8
0
100
AcDbLine
 62
7
  6
CONTINUOUS
 10
-2.3684846004
 20
-25.7981617131
 11
-2.6786916871
 21
-25.4879546265
  0
LWPOLYLINE
  5
508
100
AcDbEntity
  8
0
100
AcDbPolyline
 62
7
  6
CONTINUOUS
 90
3
 70
0
 10
-2.8773652815
 20
-24.7494368758
 10
-2.8727515467
 20
-24.7541018535
 10
-2.7435641308
 20
-24.8833285106
  0
LINE
  5
509
100
AcDbEntity
  8
0
100
AcDbLine
 62
7
  6
CONTINUOUS
 10
-31.3846326004
 20
33.2760412869
 11
-30.4052466004
 21
30.6644352869
  0
LINE
  5
50A
100
AcDbEntity
  8
0
100
AcDbLine
 62
7
  6
CONTINUOUS
 10
-30.3421436004
 20
32.4434052869
 11
-31.1681806004
 21
34.6639472869
  0
LINE
  5
50B
100
AcDbEntity
  8
0
100
AcDbLine
 62
7
  6
CONTINUOUS
 10
-26.5335596004
 20
33.5649832869
 11
-26.1499336004
 21
32.0807132869
  0
LINE
  5
50C
100
AcDbEntity
  8
0
100
AcDbLine
 62
7
  6
CONTINUOUS
 10
-25.2018176159
 20
-31.1715660014
 11
-25.160151585
 21
-31.0013532558
  0
LINE
  5
50D
100
AcDbEntity
  8
0
100
AcDbLine
 62
7
  6
CONTINUOUS
 10
-23.6739271501
 20
-25.7981617131
 11
-23.8287068525
 21
-26.3758074267
  0
LINE
  5
50E
100
AcDbEntity
  8
0
100
AcDbLine
 62
7
  6
CONTINUOUS
 10
-23.6730094878
 20
-25.8196876834
 11
-23.8224691694
 21
-26.3774788088
  0
LINE
  5
50F
100
AcDbEntity
  8
0
100
AcDbLine
 62
7
  6
CONTINUOUS
 10
-21.5684846004
 20
-25.5481617131
 11
-21.5742524668
 21
-25.5696876834
  0
LINE
  5
510
100
AcDbEntity
  8
0
100
AcDbLine
 62
7
  6
CONTINUOUS
 10
-21.1354718985
 20
-25.7981617131
 11
-21.1412397649
 21
-25.8196876834
  0
LINE
  5
511
100
AcDbEntity
  8
0
100
AcDbLine
 62
7
  6
CONTINUOUS
 10
-20.1739271501
 20
-25.7981617131
 11
-20.3287068525
 21
-26.3758074267
  0
LINE
  5
512
100
AcDbEntity
  8
0
100
AcDbLine
 62
7
  6
CONTINUOUS
 10
-20.1730094878
 20
-25.8196876834
 11
-20.3224691694
 21
-26.3774788088
  0
LINE
  5
513
100
AcDbEntity
  8
0
100
AcDbLine
 62
7
  6
CONTINUOUS
 10
-26.9934846004
 20
-32.107736192
 11
-26.9518176159
 21
-31.980076603
  0
LINE
  5
514
100
AcDbEntity
  8
0
100
AcDbLine
 62
7
  6
CONTINUOUS
 10
-27.4497347673
 20
-33.9736936786
 11
-27.4059844335
 21
-33.8396510163
  0
LINE
  5
515
100
AcDbEntity
  8
0
100
AcDbLine
 62
7
  6
CONTINUOUS
 10
-26.3559849342
 20
-34.0630553701
 11
-26.3997342666
 21
-34.1970979073
  0
LINE
  5
516
100
AcDbEntity
  8
0
100
AcDbLine
 62
7
  6
CONTINUOUS
 10
-26.3559849342
 20
-34.8226298102
 11
-26.3997342666
 21
-34.9566723474
  0
LINE
  5
517
100
AcDbEntity
  8
0
100
AcDbLine
 62
7
  6
CONTINUOUS
 10
-25.160151585
 20
-32.107736192
 11
-25.1184846004
 21
-31.980076603
  0
LINE
  5
518
100
AcDbEntity
  8
0
100
AcDbLine
 62
7
  6
CONTINUOUS
 10
-31.387234517
 20
-33.705608479
 11
-31.4747346839
 21
-33.9290128329
  0
LINE
  5
519
100
AcDbEntity
  8
0
100
AcDbLine
 62
7
  6
CONTINUOUS
 10
-30.7018180927
 20
-32.107736192
 11
-30.6184846004
 21
-31.8949702301
  0
LINE
  5
51A
100
AcDbEntity
  8
0
100
AcDbLine
 62
7
  6
CONTINUOUS
 10
-30.0309844335
 20
-35.090714916
 11
-29.9434847673
 21
-34.867310656
  0
LINE
  5
51B
100
AcDbEntity
  8
0
100
AcDbLine
 62
7
  6
CONTINUOUS
 10
-27.5809847673
 20
-33.705608479
 11
-27.6684844335
 21
-33.9290128329
  0
LINE
  5
51C
100
AcDbEntity
  8
0
100
AcDbLine
 62
7
  6
CONTINUOUS
 10
-26.2247349342
 20
-35.090714916
 11
-26.1372342666
 21
-34.867310656
  0
LINE
  5
51D
100
AcDbEntity
  8
0
100
AcDbLine
 62
7
  6
CONTINUOUS
 10
-24.8684846004
 20
-25.7981617131
 11
-24.8774009493
 21
-25.8196876834
  0
LINE
  5
51E
100
AcDbEntity
  8
0
100
AcDbLine
 62
7
  6
CONTINUOUS
 10
-29.0351511082
 20
-30.6609276452
 11
-29.8684846004
 21
-32.4481617131
  0
LINE
  5
51F
100
AcDbEntity
  8
0
100
AcDbLine
 62
7
  6
CONTINUOUS
 10
-29.6184846004
 20
-32.4481617131
 11
-28.7851511082
 21
-30.6609276452
  0
LINE
  5
520
100
AcDbEntity
  8
0
100
AcDbLine
 62
7
  6
CONTINUOUS
 10
-28.2809846004
 20
-33.5715659418
 11
-29.1559847673
 21
-35.4481617131
  0
LINE
  5
521
100
AcDbEntity
  8
0
100
AcDbLine
 62
7
  6
CONTINUOUS
 10
-34.0559846004
 20
-33.9290128329
 11
-34.1434846422
 21
-34.1077362158
  0
LINE
  5
522
100
AcDbEntity
  8
0
100
AcDbLine
 62
7
  6
CONTINUOUS
 10
-32.5351513466
 20
-32.1502893784
 11
-32.4518178543
 21
-31.980076603
  0
LINE
  5
523
100
AcDbEntity
  8
0
100
AcDbLine
 62
7
  6
CONTINUOUS
 10
-33.2684846004
 20
-33.6609276333
 11
-33.3559846422
 21
-33.8396510163
  0
LINE
  5
524
100
AcDbEntity
  8
0
100
AcDbLine
 62
7
  6
CONTINUOUS
 10
-32.043484517
 20
-35.1353957617
 11
-31.9559846004
 21
-34.9566723474
  0
LINE
  5
525
100
AcDbEntity
  8
0
100
AcDbLine
 62
7
  6
CONTINUOUS
 10
-42.0582775138
 20
-24.8481617131
 11
-42.0411866194
 21
-24.830926677
  0
LINE
  5
526
100
AcDbEntity
  8
0
100
AcDbLine
 62
7
  6
CONTINUOUS
 10
-41.8678534395
 20
-24.6577582566
 11
-41.8596043048
 21
-24.6494373256
  0
LINE
  5
527
100
AcDbEntity
  8
0
100
AcDbLine
 62
7
  6
CONTINUOUS
 10
-42.0582775138
 20
-25.4379546265
 11
-42.4184846004
 21
-25.7981617131
  0
LINE
  5
528
100
AcDbEntity
  8
0
100
AcDbLine
 62
7
  6
CONTINUOUS
 10
-41.6745758171
 20
-25.0846952489
 11
-42.4095682516
 21
-25.8196876834
  0
LINE
  5
529
100
AcDbEntity
  8
0
100
AcDbLine
 62
7
  6
CONTINUOUS
 10
-42.0411866194
 20
-24.830926677
 11
-41.8678534395
 21
-24.6577582566
  0
LINE
  5
52A
100
AcDbEntity
  8
0
100
AcDbLine
 62
253
  6
CONTINUOUS
 10
-43.4082623483
 20
-26.3758074267
 11
-43.4145000315
 21
-26.3774788088
  0
LINE
  5
52B
100
AcDbEntity
  8
0
100
AcDbLine
 62
253
  6
CONTINUOUS
 10
-46.9082623483
 20
-26.3758074267
 11
-46.9145000315
 21
-26.3774788088
  0
LINE
  5
52C
100
AcDbEntity
  8
0
100
AcDbLine
 62
253
  6
CONTINUOUS
 10
43.6712931475
 20
-26.3758074267
 11
43.6775308306
 21
-26.3774788088
  0
LINE
  5
52D
100
AcDbEntity
  8
0
100
AcDbLine
 62
253
  6
CONTINUOUS
 10
47.1712931475
 20
-26.3758074267
 11
47.1775308306
 21
-26.3774788088
  0
LINE
  5
52E
100
AcDbEntity
  8
0
100
AcDbLine
 62
7
  6
CONTINUOUS
 10
19.7919793996
 20
-32.6119947131
 11
20.9123403996
 21
-33.5561307131
  0
LINE
  5
52F
100
AcDbEntity
  8
0
100
AcDbLine
 62
7
  6
CONTINUOUS
 10
20.9123403996
 20
-33.0397747131
 11
19.7402663996
 21
-32.0520617131
  0
LWPOLYLINE
  5
530
100
AcDbEntity
  8
0
100
AcDbPolyline
 62
7
  6
CONTINUOUS
 90
3
 70
0
 10
-41.9934194899
 20
25.8870194797
 10
-42.0411866194
 20
25.9346032507
 10
-42.0582775138
 20
25.9518382869
  0
LINE
  5
531
100
AcDbEntity
  8
0
100
AcDbLine
 62
7
  6
CONTINUOUS
 10
-42.4184846004
 20
26.9018382869
 11
-42.0582775138
 21
26.5416312002
  0
LINE
  5
532
100
AcDbEntity
  8
0
100
AcDbLine
 62
7
  6
CONTINUOUS
 10
-42.4095682516
 20
26.9233642572
 11
-41.6745758171
 21
26.1883718227
  0
LWPOLYLINE
  5
533
100
AcDbEntity
  8
0
100
AcDbPolyline
 62
7
  6
CONTINUOUS
 90
3
 70
0
 10
-41.8596043048
 20
25.7531138993
 10
-41.8642199432
 20
25.7577807163
 10
-41.9934194899
 20
25.8870194797
  0
LINE
  5
534
100
AcDbEntity
  8
0
100
AcDbLine
 62
7
  6
CONTINUOUS
 10
-24.8684846004
 20
26.9018382869
 11
-24.8774009493
 21
26.9233642572
  0
LWPOLYLINE
  5
535
100
AcDbEntity
  8
0
100
AcDbPolyline
 62
7
  6
CONTINUOUS
 90
6
 70
0
 10
-22.8968601725
 20
31.8772183286
 10
-22.8553684249
 20
31.7561943951
 10
-22.8145653651
 20
31.6315903562
 10
-22.7744509932
 20
31.5034062119
 10
-22.7356337775
 20
31.3714450717
 10
-22.6582400042
 20
31.0973731464
  0
LINE
  5
536
100
AcDbEntity
  8
0
100
AcDbLine
 62
7
  6
CONTINUOUS
 10
-24.8869136004
 20
30.6644352869
 11
-26.1140636004
 21
34.6639472869
  0
LINE
  5
537
100
AcDbEntity
  8
0
100
AcDbLine
 62
7
  6
CONTINUOUS
 10
-22.6582400042
 20
31.0973731464
 11
-22.531798557
 21
30.6644351749
  0
LINE
  5
538
100
AcDbEntity
  8
0
100
AcDbLine
 62
7
  6
CONTINUOUS
 10
-25.9830886004
 20
31.4628802869
 11
-25.7668166004
 21
30.6644352869
  0
LINE
  5
539
100
AcDbEntity
  8
0
100
AcDbLine
 62
7
  6
CONTINUOUS
 10
-23.8287068525
 20
27.4794840004
 11
-23.6739271501
 21
26.9018382869
  0
LINE
  5
53A
100
AcDbEntity
  8
0
100
AcDbLine
 62
7
  6
CONTINUOUS
 10
-23.8224691694
 20
27.4811553826
 11
-23.6730094878
 21
26.9233642572
  0
LINE
  5
53B
100
AcDbEntity
  8
0
100
AcDbLine
 62
7
  6
CONTINUOUS
 10
-21.5684846004
 20
26.6518382869
 11
-21.5742524668
 21
26.6733642572
  0
LINE
  5
53C
100
AcDbEntity
  8
0
100
AcDbLine
 62
7
  6
CONTINUOUS
 10
-21.1354718985
 20
26.9018382869
 11
-21.1412397649
 21
26.9233642572
  0
LINE
  5
53D
100
AcDbEntity
  8
0
100
AcDbLine
 62
7
  6
CONTINUOUS
 10
-20.3287068525
 20
27.4794840004
 11
-20.1739271501
 21
26.9018382869
  0
LINE
  5
53E
100
AcDbEntity
  8
0
100
AcDbLine
 62
7
  6
CONTINUOUS
 10
-20.3224691694
 20
27.4811553826
 11
-20.1730094878
 21
26.9233642572
  0
LINE
  5
53F
100
AcDbEntity
  8
0
100
AcDbLine
 62
7
  6
CONTINUOUS
 10
-21.9154701006
 20
31.376945495
 11
-22.0141680589
 21
31.7469334405
  0
LINE
  5
540
100
AcDbEntity
  8
0
100
AcDbLine
 62
7
  6
CONTINUOUS
 10
-21.7287649754
 20
30.6644351749
 11
-21.9154701006
 21
31.376945495
  0
LWPOLYLINE
  5
541
100
AcDbEntity
  8
0
100
AcDbPolyline
 62
7
  6
CONTINUOUS
 90
19
 70
0
 10
-22.0141680589
 20
31.7469334405
 10
-22.0311306114
 20
31.8134774132
 10
-22.0493721295
 20
31.8783711652
 10
-22.0688926134
 20
31.9416146965
 10
-22.089617452
 20
32.003627569
 10
-22.1116212562
 20
32.0639902208
 10
-22.1351278591
 20
32.1214439668
 10
-22.1603652613
 20
32.1758744628
 10
-22.1871054621
 20
32.2273960531
 10
-22.2148882924
 20
32.2750930849
 10
-22.2437172643
 20
32.3186879924
 10
-22.2735888658
 20
32.3584583416
 10
-22.3040323911
 20
32.3943211775
 10
-22.3349788704
 20
32.426097088
 10
-22.3664972735
 20
32.4539654853
 10
-22.3983238046
 20
32.4783816503
 10
-22.4303705316
 20
32.4994973436
 10
-22.4627253866
 20
32.5171608046
 10
-22.4953883696
 20
32.5313720335
  0
LINE
  5
542
100
AcDbEntity
  8
0
100
AcDbLine
 62
7
  6
CONTINUOUS
 10
-2.0639597131
 20
26.9233642572
 11
-1.9145000315
 21
27.4811553826
  0
LINE
  5
543
100
AcDbEntity
  8
0
100
AcDbLine
 62
7
  6
CONTINUOUS
 10
-2.0630420508
 20
26.9018382869
 11
-1.9082623483
 21
27.4794840004
  0
LINE
  5
544
100
AcDbEntity
  8
0
100
AcDbLine
 62
7
  6
CONTINUOUS
 10
-1.1014973023
 20
26.9018382869
 11
-1.095729436
 21
26.9233642572
  0
LINE
  5
545
100
AcDbEntity
  8
0
100
AcDbLine
 62
7
  6
CONTINUOUS
 10
-0.6684846004
 20
26.6518382869
 11
-0.6627167341
 21
26.6733642572
  0
LINE
  5
546
100
AcDbEntity
  8
0
100
AcDbLine
 62
7
  6
CONTINUOUS
 10
1.4360402869
 20
26.9233642572
 11
1.5854999685
 21
27.4811553826
  0
LINE
  5
547
100
AcDbEntity
  8
0
100
AcDbLine
 62
7
  6
CONTINUOUS
 10
1.4369579492
 20
26.9018382869
 11
1.5917376517
 21
27.4794840004
  0
LINE
  5
548
100
AcDbEntity
  8
0
100
AcDbLine
 62
7
  6
CONTINUOUS
 10
2.6315153996
 20
26.9018382869
 11
2.6404317484
 21
26.9233642572
  0
LINE
  5
549
100
AcDbEntity
  8
0
100
AcDbLine
 62
7
  6
CONTINUOUS
 10
-28.8934847673
 20
-35.4481617131
 11
-28.0184846004
 21
-33.5715659418
  0
LINE
  5
54A
100
AcDbEntity
  8
0
100
AcDbLine
 62
7
  6
CONTINUOUS
 10
-27.2018176159
 20
-31.0013532558
 11
-27.285151585
 21
-31.1715660014
  0
LINE
  5
54B
100
AcDbEntity
  8
0
100
AcDbLine
 62
7
  6
CONTINUOUS
 10
-27.160151585
 20
-31.980076603
 11
-27.2018176159
 21
-32.0651829758
  0
LINE
  5
54C
100
AcDbEntity
  8
0
100
AcDbLine
 62
7
  6
CONTINUOUS
 10
-25.3684846004
 20
-31.0013532558
 11
-25.4518176159
 21
-31.1715660014
  0
LINE
  5
54D
100
AcDbEntity
  8
0
100
AcDbLine
 62
7
  6
CONTINUOUS
 10
-25.3268176159
 20
-31.980076603
 11
-25.3684846004
 21
-32.0651829758
  0
LINE
  5
54E
100
AcDbEntity
  8
0
100
AcDbLine
 62
7
  6
CONTINUOUS
 10
-35.1059846004
 20
-33.8396510163
 11
-35.01848459
 21
-33.705608479
  0
LINE
  5
54F
100
AcDbEntity
  8
0
100
AcDbLine
 62
7
  6
CONTINUOUS
 10
-32.7018178543
 20
-31.9375234165
 11
-32.7851513466
 21
-32.0651829758
  0
LINE
  5
550
100
AcDbEntity
  8
0
100
AcDbLine
 62
7
  6
CONTINUOUS
 10
-33.9247346004
 20
-34.2417787531
 11
-33.8372345587
 21
-34.1077362158
  0
LINE
  5
551
100
AcDbEntity
  8
0
100
AcDbLine
 62
7
  6
CONTINUOUS
 10
-33.1809846839
 20
-33.9736936786
 11
-33.0059846004
 21
-33.705608479
  0
LINE
  5
552
100
AcDbEntity
  8
0
100
AcDbLine
 62
7
  6
CONTINUOUS
 10
-30.8684846004
 20
-31.980076603
 11
-30.9518180927
 21
-32.107736192
  0
LINE
  5
553
100
AcDbEntity
  8
0
100
AcDbLine
 62
7
  6
CONTINUOUS
 10
-32.1309846839
 20
-34.8226298102
 11
-32.305984517
 21
-35.090714916
  0
LINE
  5
554
100
AcDbEntity
  8
0
100
AcDbLine
 62
7
  6
CONTINUOUS
 10
-31.2122346839
 20
-33.8396510163
 11
-31.1247347673
 21
-33.705608479
  0
LINE
  5
555
100
AcDbEntity
  8
0
100
AcDbLine
 62
7
  6
CONTINUOUS
 10
-28.2018180927
 20
-30.9162467637
 11
-28.1184846004
 21
-30.7885872045
  0
LINE
  5
556
100
AcDbEntity
  8
0
100
AcDbLine
 62
7
  6
CONTINUOUS
 10
-30.2059847673
 20
-34.9566723474
 11
-30.2934844335
 21
-35.090714916
  0
LINE
  5
557
100
AcDbEntity
  8
0
100
AcDbLine
 62
7
  6
CONTINUOUS
 10
-27.1184846004
 20
-31.2992255607
 11
-27.035151585
 21
-31.1715660014
  0
LINE
  5
558
100
AcDbEntity
  8
0
100
AcDbLine
 62
7
  6
CONTINUOUS
 10
-34.4934846004
 20
-31.3843319335
 11
-34.3684846004
 21
-31.2141191879
  0
LINE
  5
559
100
AcDbEntity
  8
0
100
AcDbLine
 62
7
  6
CONTINUOUS
 10
-34.4934846004
 20
-32.2779489526
 11
-34.3684846004
 21
-32.107736192
  0
LINE
  5
55A
100
AcDbEntity
  8
0
100
AcDbLine
 62
7
  6
CONTINUOUS
 10
-30.8268180927
 20
-32.2779489526
 11
-30.7018180927
 21
-32.107736192
  0
LINE
  5
55B
100
AcDbEntity
  8
0
100
AcDbLine
 62
7
  6
CONTINUOUS
 10
-41.8596043048
 20
-24.6494373256
 11
-41.8585516068
 21
-24.6484358062
  0
LINE
  5
55C
100
AcDbEntity
  8
0
100
AcDbLine
 62
7
  6
CONTINUOUS
 10
-41.8585516068
 20
-25.2397881299
 11
-41.6745758171
 21
-25.0846952489
  0
LINE
  5
55D
100
AcDbEntity
  8
0
100
AcDbLine
 62
7
  6
CONTINUOUS
 10
19.621582406
 20
26.3934647036
 11
19.4376066162
 21
26.2383718227
  0
LWPOLYLINE
  5
55E
100
AcDbEntity
  8
RACCORDO
100
AcDbPolyline
 62
7
  6
CONTINUOUS
 90
13
 70
0
 10
-56.612770343
 20
-22.070712297
 10
-56.6038638346
 20
-22.0652793472
 10
-56.5952248981
 20
-22.0602279067
 10
-56.5869564479
 20
-22.0556061304
 10
-56.5791676035
 20
-22.0514385542
 10
-56.5719404901
 20
-22.0477709205
 10
-56.5653305072
 20
-22.0446694807
 10
-56.559424052
 20
-22.042139007
 10
-56.5542877926
 20
-22.0401889483
 10
-56.5499394213
 20
-22.0388791885
 10
-56.5464215742
 20
-22.0382175567
 10
-56.5437985524
 20
-22.0381593949
 10
-56.542109072
 20
-22.0386741899
  0
LWPOLYLINE
  5
55F
100
AcDbEntity
  8
RACCORDO
100
AcDbPolyline
 62
7
  6
CONTINUOUS
 90
10
 70
0
 10
-56.6129272653
 20
-22.070798215
 10
-56.6142684493
 20
-22.0715994384
 10
-56.61567201
 20
-22.0723661903
 10
-56.6171379473
 20
-22.0730984705
 10
-56.6186724935
 20
-22.0738004643
 10
-56.6202694163
 20
-22.0744679865
 10
-56.6219100189
 20
-22.0750884819
 10
-56.6235880691
 20
-22.0756577655
 10
-56.625309799
 20
-22.0761800222
 10
-56.6270752087
 20
-22.076655252
  0
LINE
  5
560
100
AcDbEntity
  8
0
100
AcDbLine
 62
7
  6
CONTINUOUS
 10
23.4257475332
 20
26.6733642572
 11
23.8587602351
 21
26.9233642572
  0
LINE
  5
561
100
AcDbEntity
  8
0
100
AcDbLine
 62
7
  6
CONTINUOUS
 10
23.4315153996
 20
26.6518382869
 11
23.8645281015
 21
26.9018382869
  0
LINE
  5
562
100
AcDbEntity
  8
RACCORDO
100
AcDbLine
 62
7
  6
CONTINUOUS
 10
-57.0715858123
 20
-22.1877112554
 11
-56.6270752087
 21
-22.076655252
  0
LWPOLYLINE
  5
563
100
AcDbEntity
  8
RACCORDO
100
AcDbPolyline
 62
7
  6
CONTINUOUS
 90
16
 70
0
 10
-57.0715860006
 20
-22.1877107587
 10
-57.0822841455
 20
-22.1900445997
 10
-57.0929525926
 20
-22.1926348347
 10
-57.103464508
 20
-22.1954383227
 10
-57.1137210468
 20
-22.1983945511
 10
-57.1235666243
 20
-22.2014634872
 10
-57.1328029186
 20
-22.2046222177
 10
-57.1413038053
 20
-22.207797265
 10
-57.1490066261
 20
-22.2109380159
 10
-57.1558292652
 20
-22.214054785
 10
-57.1616971866
 20
-22.2170939054
 10
-57.1665479612
 20
-22.2199962446
 10
-57.1703238247
 20
-22.2227691727
 10
-57.1729783449
 20
-22.2253813341
 10
-57.1744834748
 20
-22.2277623572
 10
-57.1748229434
 20
-22.2298648177
  0
LWPOLYLINE
  5
564
100
AcDbEntity
  8
RACCORDO
100
AcDbPolyline
 62
7
  6
CONTINUOUS
 90
16
 70
0
 10
57.332878671
 20
-22.1872795374
 10
57.344147515
 20
-22.1898188125
 10
57.3552851407
 20
-22.1925098226
 10
57.3661421203
 20
-22.1953407158
 10
57.3765485358
 20
-22.1983192872
 10
57.3864071598
 20
-22.2014184025
 10
57.3956844815
 20
-22.2045688333
 10
57.4042886272
 20
-22.2077593354
 10
57.4120811537
 20
-22.2109689972
 10
57.4189682296
 20
-22.2141066066
 10
57.4248695046
 20
-22.2171538724
 10
57.429716237
 20
-22.2200983747
 10
57.4334627019
 20
-22.2228581968
 10
57.4360790701
 20
-22.2253996234
 10
57.4375444228
 20
-22.2277371428
 10
57.4378540692
 20
-22.2298648924
  0
LINE
  5
565
100
AcDbEntity
  8
RACCORDO
100
AcDbLine
 62
7
  6
CONTINUOUS
 10
57.3346166119
 20
-22.1877112555
 11
56.890104861
 21
-22.076654904
  0
LWPOLYLINE
  5
566
100
AcDbEntity
  8
RACCORDO
100
AcDbPolyline
 62
7
  6
CONTINUOUS
 90
10
 70
0
 10
56.890104861
 20
-22.076654904
 10
56.8883399033
 20
-22.0761797566
 10
56.8866184952
 20
-22.0756575558
 10
56.8849406366
 20
-22.0750883019
 10
56.8832998029
 20
-22.0744676671
 10
56.8817025188
 20
-22.0737999791
 10
56.8801683585
 20
-22.0730982205
 10
56.8787038467
 20
-22.0723667191
 10
56.8773024588
 20
-22.0716011471
 10
56.8759641947
 20
-22.0708015047
  0
LINE
  5
567
100
AcDbEntity
  8
0
100
AcDbLine
 62
7
  6
CONTINUOUS
 10
23.8587602351
 20
-25.8196876834
 11
23.4257475332
 21
-25.5696876834
  0
LINE
  5
568
100
AcDbEntity
  8
0
100
AcDbLine
 62
7
  6
CONTINUOUS
 10
23.8645281015
 20
-25.7981617131
 11
23.4315153996
 21
-25.5481617131
  0
LWPOLYLINE
  5
569
100
AcDbEntity
  8
RACCORDO
100
AcDbPolyline
 62
7
  6
CONTINUOUS
 90
13
 70
0
 10
-56.6127710748
 20
23.1743893676
 10
-56.6038413889
 20
23.1689900711
 10
-56.5952053163
 20
23.1639333861
 10
-56.5869559482
 20
23.1592822784
 10
-56.5791676919
 20
23.1551137
 10
-56.5719267009
 20
23.1514671304
 10
-56.5653301026
 20
23.1483455931
 10
-56.5594292437
 20
23.1458064873
 10
-56.5542727798
 20
23.1438867521
 10
-56.5499391882
 20
23.1425550718
 10
-56.5464677632
 20
23.1418242026
 10
-56.5438570195
 20
23.1417481928
 10
-56.5421093437
 20
23.1423509469
  0
LINE
  5
56A
100
AcDbEntity
  8
0
100
AcDbLine
 62
7
  6
CONTINUOUS
 10
28.1061563996
 20
-33.1781617131
 11
27.9014863996
 21
-33.0064227131
  0
LINE
  5
56B
100
AcDbEntity
  8
0
100
AcDbLine
 62
7
  6
CONTINUOUS
 10
-41.8585516068
 20
26.3434647036
 11
-41.6745758171
 21
26.1883718227
  0
LINE
  5
56C
100
AcDbEntity
  8
0
100
AcDbLine
 62
7
  6
CONTINUOUS
 10
19.621582406
 20
-25.2897881299
 11
19.4376066162
 21
-25.1346952489
  0
LINE
  5
56D
100
AcDbEntity
  8
0
100
AcDbLine
 62
7
  6
CONTINUOUS
 10
-41.8585516068
 20
25.7521123799
 11
-41.8596043048
 21
25.7531138993
  0
LINE
  5
56E
100
AcDbEntity
  8
0
100
AcDbLine
 62
7
  6
CONTINUOUS
 10
24.7018093996
 20
-33.6178677131
 11
27.4618093996
 21
-36.3778677131
  0
LINE
  5
56F
100
AcDbEntity
  8
0
100
AcDbLine
 62
7
  6
CONTINUOUS
 10
27.6315153996
 20
-36.2081617131
 11
24.8715153996
 21
-33.4481617131
  0
LINE
  5
570
100
AcDbEntity
  8
0
100
AcDbLine
 62
7
  6
CONTINUOUS
 10
2.6315153996
 20
-25.7981617131
 11
2.6404317484
 21
-25.8196876834
  0
LINE
  5
571
100
AcDbEntity
  8
0
100
AcDbLine
 62
7
  6
CONTINUOUS
 10
-1.9145000315
 20
-26.3774788088
 11
-2.0639597131
 21
-25.8196876834
  0
LINE
  5
572
100
AcDbEntity
  8
0
100
AcDbLine
 62
7
  6
CONTINUOUS
 10
-1.9082623483
 20
-26.3758074267
 11
-2.0630420508
 21
-25.7981617131
  0
LINE
  5
573
100
AcDbEntity
  8
0
100
AcDbLine
 62
7
  6
CONTINUOUS
 10
-1.1014973023
 20
-25.7981617131
 11
-1.095729436
 21
-25.8196876834
  0
LINE
  5
574
100
AcDbEntity
  8
0
100
AcDbLine
 62
7
  6
CONTINUOUS
 10
-0.6684846004
 20
-25.5481617131
 11
-0.6627167341
 21
-25.5696876834
  0
LINE
  5
575
100
AcDbEntity
  8
0
100
AcDbLine
 62
7
  6
CONTINUOUS
 10
1.5854999685
 20
-26.3774788088
 11
1.4360402869
 21
-25.8196876834
  0
LINE
  5
576
100
AcDbEntity
  8
0
100
AcDbLine
 62
7
  6
CONTINUOUS
 10
1.5917376517
 20
-26.3758074267
 11
1.4369579492
 21
-25.7981617131
  0
LINE
  5
577
100
AcDbEntity
  8
0
100
AcDbLine
 62
7
  6
CONTINUOUS
 10
-1.1739271501
 20
-25.7981617131
 11
-1.1730094878
 21
-25.8196876834
  0
LINE
  5
578
100
AcDbEntity
  8
0
100
AcDbLine
 62
7
  6
CONTINUOUS
 10
-2.0630420508
 20
26.9018382869
 11
-2.0639597131
 21
26.9233642572
  0
LINE
  5
579
100
AcDbEntity
  8
0
100
AcDbLine
 62
7
  6
CONTINUOUS
 10
-3.0623933838
 20
-25.1346952489
 11
-3.0623933838
 21
-24.7481617131
  0
LINE
  5
57A
100
AcDbEntity
  8
0
100
AcDbLine
 62
7
  6
CONTINUOUS
 10
-3.0623933838
 20
25.8518382869
 11
-3.0623933838
 21
26.2383718227
  0
LINE
  5
57B
100
AcDbEntity
  8
0
100
AcDbLine
 62
253
  6
CONTINUOUS
 10
-2.878417594
 20
26.3934647036
 11
-2.878417594
 21
25.8521123799
  0
LINE
  5
57C
100
AcDbEntity
  8
0
100
AcDbLine
 62
253
  6
CONTINUOUS
 10
-2.878417594
 20
-24.7484358062
 11
-2.878417594
 21
-25.2897881299
  0
LINE
  5
57D
100
AcDbEntity
  8
0
100
AcDbLine
 62
253
  6
CONTINUOUS
 10
-2.6786916871
 20
26.5916312002
 11
-2.6786916871
 21
26.0518382869
  0
LINE
  5
57E
100
AcDbEntity
  8
0
100
AcDbLine
 62
253
  6
CONTINUOUS
 10
-2.6786916871
 20
-24.9481617131
 11
-2.6786916871
 21
-25.4879546265
  0
LINE
  5
57F
100
AcDbEntity
  8
0
100
AcDbLine
 62
7
  6
CONTINUOUS
 10
-1.1739271501
 20
26.9018382869
 11
-1.1730094878
 21
26.9233642572
  0
LINE
  5
580
100
AcDbEntity
  8
0
100
AcDbLine
 62
7
  6
CONTINUOUS
 10
-2.0630420508
 20
-25.7981617131
 11
-2.0639597131
 21
-25.8196876834
  0
LINE
  5
581
100
AcDbEntity
  8
0
100
AcDbLine
 62
7
  6
CONTINUOUS
 10
-26.3684846004
 20
-30.9162467637
 11
-26.285151585
 21
-30.7885872045
  0
LINE
  5
582
100
AcDbEntity
  8
0
100
AcDbLine
 62
7
  6
CONTINUOUS
 10
-27.0768176159
 20
-32.2353957513
 11
-26.9934846004
 21
-32.107736192
  0
LINE
  5
583
100
AcDbEntity
  8
0
100
AcDbLine
 62
7
  6
CONTINUOUS
 10
-27.4059844335
 20
-33.8396510163
 11
-27.3184847673
 21
-33.705608479
  0
LINE
  5
584
100
AcDbEntity
  8
0
100
AcDbLine
 62
7
  6
CONTINUOUS
 10
-25.285151585
 20
-31.2992255607
 11
-25.2018176159
 21
-31.1715660014
  0
LINE
  5
585
100
AcDbEntity
  8
0
100
AcDbLine
 62
7
  6
CONTINUOUS
 10
-25.2434846004
 20
-32.2353957513
 11
-25.160151585
 21
-32.107736192
  0
LINE
  5
586
100
AcDbEntity
  8
0
100
AcDbLine
 62
7
  6
CONTINUOUS
 10
-26.3997342666
 20
-34.1970979073
 11
-26.4872349342
 21
-34.3311404445
  0
LINE
  5
587
100
AcDbEntity
  8
0
100
AcDbLine
 62
7
  6
CONTINUOUS
 10
-26.3997342666
 20
-34.9566723474
 11
-26.4872349342
 21
-35.090714916
  0
LINE
  5
588
100
AcDbEntity
  8
0
100
AcDbLine
 62
7
  6
CONTINUOUS
 10
-31.255984517
 20
-33.5268850961
 11
-31.387234517
 21
-33.705608479
  0
LINE
  5
589
100
AcDbEntity
  8
0
100
AcDbLine
 62
7
  6
CONTINUOUS
 10
-30.1622344335
 20
-35.2694383145
 11
-30.0309844335
 21
-35.090714916
  0
LINE
  5
58A
100
AcDbEntity
  8
0
100
AcDbLine
 62
7
  6
CONTINUOUS
 10
-27.4497347673
 20
-33.5268850961
 11
-27.5809847673
 21
-33.705608479
  0
LINE
  5
58B
100
AcDbEntity
  8
0
100
AcDbLine
 62
7
  6
CONTINUOUS
 10
-26.3559849342
 20
-35.2694383145
 11
-26.2247349342
 21
-35.090714916
  0
LWPOLYLINE
  5
58C
100
AcDbEntity
  8
0
100
AcDbPolyline
 62
7
  6
CONTINUOUS
 90
16
 70
0
 10
31.4981985754
 20
33.6651344917
 10
31.5346009334
 20
33.7029455091
 10
31.574369702
 20
33.7393069236
 10
31.617504881
 20
33.7742187352
 10
31.6642293916
 20
33.8079869096
 10
31.7143203127
 20
33.8403054811
 10
31.7671088811
 20
33.8702565525
 10
31.8227800137
 20
33.8977990752
 10
31.8811487937
 20
33.9229740977
 10
31.9409917076
 20
33.9449868683
 10
32.0018585518
 20
33.9636551234
 10
32.0641995298
 20
33.9791611265
 10
32.1281417392
 20
33.9912569165
 10
32.1937275459
 20
33.9998598398
 10
32.2609145838
 20
34.0050525501
 10
32.3297028532
 20
34.0068350473
  0
LINE
  5
58D
100
AcDbEntity
  8
0
100
AcDbLine
 62
7
  6
CONTINUOUS
 10
-34.6184846004
 20
-31.1715660014
 11
-34.7018179735
 21
-31.2566723743
  0
LINE
  5
58E
100
AcDbEntity
  8
0
100
AcDbLine
 62
7
  6
CONTINUOUS
 10
-33.6601513466
 20
-30.5758212724
 11
-33.8268178543
 21
-30.7460340181
  0
LINE
  5
58F
100
AcDbEntity
  8
0
100
AcDbLine
 62
7
  6
CONTINUOUS
 10
-34.6184846004
 20
-32.0651829758
 11
-34.7018179735
 21
-32.1502893784
  0
LINE
  5
590
100
AcDbEntity
  8
0
100
AcDbLine
 62
7
  6
CONTINUOUS
 10
-35.1059846004
 20
-33.4822042504
 11
-35.2809845978
 21
-33.6609276333
  0
LINE
  5
591
100
AcDbEntity
  8
0
100
AcDbLine
 62
7
  6
CONTINUOUS
 10
-32.7018178543
 20
-32.320502139
 11
-32.5351513466
 21
-32.1502893784
  0
LINE
  5
592
100
AcDbEntity
  8
0
100
AcDbLine
 62
7
  6
CONTINUOUS
 10
-33.1372346004
 20
-33.5268850961
 11
-33.2684846004
 21
-33.6609276333
  0
LINE
  5
593
100
AcDbEntity
  8
0
100
AcDbLine
 62
7
  6
CONTINUOUS
 10
19.8213083129
 20
26.0518382869
 11
19.8042127389
 21
26.0345985208
  0
LWPOLYLINE
  5
594
100
AcDbEntity
  8
0
100
AcDbPolyline
 62
7
  6
CONTINUOUS
 90
3
 70
0
 10
19.6272484533
 20
25.8577784272
 10
19.6226347185
 20
25.8531134495
 10
19.621582406
 20
25.8521123799
  0
LINE
  5
595
100
AcDbEntity
  8
0
100
AcDbLine
 62
7
  6
CONTINUOUS
 10
19.4376066162
 20
26.2383718227
 11
20.1225990507
 21
26.9233642572
  0
LINE
  5
596
100
AcDbEntity
  8
0
100
AcDbLine
 62
7
  6
CONTINUOUS
 10
19.8213083129
 20
26.5916312002
 11
20.1315153996
 21
26.9018382869
  0
LINE
  5
597
100
AcDbEntity
  8
0
100
AcDbLine
 62
7
  6
CONTINUOUS
 10
19.8042127389
 20
26.0345985208
 11
19.6272484533
 21
25.8577784272
  0
LINE
  5
598
100
AcDbEntity
  8
0
100
AcDbLine
 62
7
  6
CONTINUOUS
 10
29.4316133996
 20
34.5512122869
 11
27.6588393996
 21
32.8077512869
  0
LINE
  5
599
100
AcDbEntity
  8
0
100
AcDbLine
 62
7
  6
CONTINUOUS
 10
28.6693873996
 20
32.9057652869
 11
30.3891493996
 21
34.5512122869
  0
LINE
  5
59A
100
AcDbEntity
  8
0
100
AcDbLine
 62
7
  6
CONTINUOUS
 10
27.6588393996
 20
31.9383022869
 11
28.1695213996
 21
32.4145722869
  0
LINE
  5
59B
100
AcDbEntity
  8
0
100
AcDbLine
 62
7
  6
CONTINUOUS
 10
-45.6684846004
 20
-25.5481617131
 11
-46.1014973023
 21
-25.7981617131
  0
LINE
  5
59C
100
AcDbEntity
  8
0
100
AcDbLine
 62
7
  6
CONTINUOUS
 10
-45.6627167341
 20
-25.5696876834
 11
-46.095729436
 21
-25.8196876834
  0
LINE
  5
59D
100
AcDbEntity
  8
0
100
AcDbLine
 62
7
  6
CONTINUOUS
 10
45.9257475332
 20
26.6733642572
 11
46.3587602351
 21
26.9233642572
  0
LINE
  5
59E
100
AcDbEntity
  8
0
100
AcDbLine
 62
7
  6
CONTINUOUS
 10
45.9315153996
 20
26.6518382869
 11
46.3645281015
 21
26.9018382869
  0
LWPOLYLINE
  5
59F
100
AcDbEntity
  8
RACCORDO
100
AcDbPolyline
 62
7
  6
CONTINUOUS
 90
19
 70
0
 10
-75.8286313485
 20
-3.2831829765
 10
-75.8040993546
 20
-3.2830110167
 10
-75.7799113514
 20
-3.2824872886
 10
-75.7560673388
 20
-3.2816117922
 10
-75.7323292517
 20
-3.2803693228
 10
-75.7089351553
 20
-3.2787750851
 10
-75.6865992453
 20
-3.2768746934
 10
-75.6654636275
 20
-3.2746686762
 10
-75.6453861962
 20
-3.2721565051
 10
-75.6266548296
 20
-3.2693822089
 10
-75.6092741603
 20
-3.2663471999
 10
-75.5932395557
 20
-3.2630500659
 10
-75.5788249964
 20
-3.2595305989
 10
-75.566002293
 20
-3.2557624014
 10
-75.5547996348
 20
-3.251771871
 10
-75.54557557
 20
-3.2476779926
 10
-75.5384496147
 20
-3.243520428
 10
-75.5333022527
 20
-3.2392595154
 10
-75.5301334841
 20
-3.234895255
  0
LWPOLYLINE
  5
5A0
100
AcDbEntity
  8
RACCORDO
100
AcDbPolyline
 62
7
  6
CONTINUOUS
 90
22
 70
0
 10
-73.6847186945
 20
-3.1068559958
 10
-73.6626013002
 20
-3.1067073898
 10
-73.6408461509
 20
-3.1062849671
 10
-73.6194532465
 20
-3.1055887279
 10
-73.5983477551
 20
-3.1046161882
 10
-73.5776045086
 20
-3.1033698319
 10
-73.5574480027
 20
-3.1018571103
 10
-73.5378280279
 20
-3.1000712365
 10
-73.5187947937
 20
-3.0980189973
 10
-73.5007234243
 20
-3.0957282054
 10
-73.4836226184
 20
-3.0931892422
 10
-73.4674836773
 20
-3.0904117262
 10
-73.4526556297
 20
-3.0874523254
 10
-73.43919096
 20
-3.0843089568
 10
-73.4270371839
 20
-3.0809837035
 10
-73.4163858771
 20
-3.0775394818
 10
-73.4072740892
 20
-3.0739832101
 10
-73.3996647707
 20
-3.0703079701
 10
-73.3936383481
 20
-3.0665559231
 10
-73.3892216304
 20
-3.0627411227
 10
-73.3863878086
 20
-3.0588495152
 10
-73.3851368828
 20
-3.0548811006
  0
LWPOLYLINE
  5
5A1
100
AcDbEntity
  8
RACCORDO
100
AcDbPolyline
 62
7
  6
CONTINUOUS
 90
22
 70
0
 10
77.016529163
 20
-3.2831829765
 10
77.052510424
 20
-3.2829506298
 10
77.0879818004
 20
-3.2822775821
 10
77.1229432922
 20
-3.2811638334
 10
77.1575543661
 20
-3.2796024301
 10
77.1916555553
 20
-3.2776003258
 10
77.2247684598
 20
-3.2751783813
 10
77.2568968816
 20
-3.2723311934
 10
77.2880370188
 20
-3.2690641653
 10
77.3176990647
 20
-3.2654143678
 10
77.3459063981
 20
-3.2613653138
 10
77.3726356403
 20
-3.2569334904
 10
77.3973268482
 20
-3.2522054302
 10
77.4198920729
 20
-3.2471816332
 10
77.4404192634
 20
-3.2418615994
 10
77.4586123234
 20
-3.2363303622
 10
77.4744343733
 20
-3.2305882707
 10
77.4879222927
 20
-3.2246349757
 10
77.4988906241
 20
-3.2185544633
 10
77.5072775481
 20
-3.2123747286
 10
77.513144884
 20
-3.2060677764
 10
77.5164926318
 20
-3.1996336067
  0
LINE
  5
5A2
100
AcDbEntity
  8
0
100
AcDbLine
 62
7
  6
CONTINUOUS
 10
-70.3684846004
 20
-4.4481617131
 11
-60.3684846004
 21
-4.4481617131
  0
LINE
  5
5A3
100
AcDbEntity
  8
0
100
AcDbLine
 62
7
  6
CONTINUOUS
 10
-68.8939046004
 20
-3.4210267131
 11
-68.6168326004
 21
-3.4210267131
  0
LINE
  5
5A4
100
AcDbEntity
  8
0
100
AcDbLine
 62
7
  6
CONTINUOUS
 10
-67.6257716004
 20
-3.4210267131
 11
-67.3488646004
 21
-3.4210267131
  0
LINE
  5
5A5
100
AcDbEntity
  8
0
100
AcDbLine
 62
7
  6
CONTINUOUS
 10
-66.5750186004
 20
-3.4210267131
 11
-66.2894896004
 21
-3.4210267131
  0
LINE
  5
5A6
100
AcDbEntity
  8
0
100
AcDbLine
 62
7
  6
CONTINUOUS
 10
-65.0500416004
 20
-3.4210267131
 11
-64.7474346004
 21
-3.4210267131
  0
LINE
  5
5A7
100
AcDbEntity
  8
0
100
AcDbLine
 62
7
  6
CONTINUOUS
 10
-64.4932436004
 20
-3.4210267131
 11
-63.1768596004
 21
-3.4210267131
  0
LINE
  5
5A8
100
AcDbEntity
  8
0
100
AcDbLine
 62
7
  6
CONTINUOUS
 10
-62.7369586004
 20
-3.4210267131
 11
-62.4600526004
 21
-3.4210267131
  0
LINE
  5
5A9
100
AcDbEntity
  8
RACCORDO
100
AcDbLine
 62
7
  6
CONTINUOUS
 10
-76.7534983638
 20
-3.2831829765
 11
-75.8286313485
 21
-3.2831829765
  0
LINE
  5
5AA
100
AcDbEntity
  8
RACCORDO
100
AcDbLine
 62
7
  6
CONTINUOUS
 10
77.016529163
 20
-3.2831829765
 11
76.0916621476
 21
-3.2831829765
  0
LINE
  5
5AB
100
AcDbEntity
  8
0
100
AcDbLine
 62
7
  6
CONTINUOUS
 10
-63.1768596004
 20
-3.1756247131
 11
-64.2163376004
 21
-3.1756247131
  0
LINE
  5
5AC
100
AcDbEntity
  8
RACCORDO
100
AcDbLine
 62
7
  6
CONTINUOUS
 10
-75.1926522162
 20
-3.1068559958
 11
-73.6847186945
 21
-3.1068559958
  0
LINE
  5
5AD
100
AcDbEntity
  8
RACCORDO
100
AcDbLine
 62
7
  6
CONTINUOUS
 10
75.4556830154
 20
-3.1068559958
 11
73.9477494936
 21
-3.1068559958
  0
LINE
  5
5AE
100
AcDbEntity
  8
DRAFT
100
AcDbLine
 62
7
  6
CONTINUOUS
 10
-77.3300299187
 20
-2.9481617131
 11
-73.3753367058
 21
-2.9481617131
  0
LINE
  5
5AF
100
AcDbEntity
  8
DRAFT
100
AcDbLine
 62
7
  6
CONTINUOUS
 10
77.5930607178
 20
-2.9481617131
 11
73.638367505
 21
-2.9481617131
  0
LINE
  5
5B0
100
AcDbEntity
  8
0
100
AcDbLine
 62
7
  6
CONTINUOUS
 10
-66.0752596004
 20
-2.8241017131
 11
-65.2528306004
 21
-2.8241017131
  0
LINE
  5
5B1
100
AcDbEntity
  8
0
100
AcDbLine
 62
7
  6
CONTINUOUS
 10
-65.3528156004
 20
-2.5786997131
 11
-65.9897006004
 21
-2.5786997131
  0
LINE
  5
5B2
100
AcDbEntity
  8
0
100
AcDbLine
 62
7
  6
CONTINUOUS
 10
-68.3196966004
 20
-1.6153297131
 11
-67.6257716004
 21
-1.6153297131
  0
LINE
  5
5B3
100
AcDbEntity
  8
0
100
AcDbLine
 62
7
  6
CONTINUOUS
 10
-67.3488646004
 20
-1.6153297131
 11
-66.6549396004
 21
-1.6153297131
  0
LINE
  5
5B4
100
AcDbEntity
  8
0
100
AcDbLine
 62
7
  6
CONTINUOUS
 10
-61.6862056004
 20
-1.3699277131
 11
-62.0116956004
 21
-1.3699277131
  0
LINE
  5
5B5
100
AcDbEntity
  8
0
100
AcDbLine
 62
7
  6
CONTINUOUS
 10
-63.1883006004
 20
-1.3699277131
 11
-63.5109716004
 21
-1.3699277131
  0
LINE
  5
5B6
100
AcDbEntity
  8
0
100
AcDbLine
 62
7
  6
CONTINUOUS
 10
-64.2163376004
 20
-1.3699277131
 11
-64.4932436004
 21
-1.3699277131
  0
LINE
  5
5B7
100
AcDbEntity
  8
0
100
AcDbLine
 62
7
  6
CONTINUOUS
 10
-65.4899426004
 20
-1.3699277131
 11
-65.8039906004
 21
-1.3699277131
  0
LINE
  5
5B8
100
AcDbEntity
  8
0
100
AcDbLine
 62
7
  6
CONTINUOUS
 10
-66.6549396004
 20
-1.3699277131
 11
-68.3196966004
 21
-1.3699277131
  0
LINE
  5
5B9
100
AcDbEntity
  8
0
100
AcDbLine
 62
7
  6
CONTINUOUS
 10
-68.6168326004
 20
-1.3699277131
 11
-68.8939046004
 21
-1.3699277131
  0
LINE
  5
5BA
100
AcDbEntity
  8
0
100
AcDbLine
 62
7
  6
CONTINUOUS
 10
-66.5678886004
 20
-0.4728827131
 11
-66.2908156004
 21
-0.4728827131
  0
LINE
  5
5BB
100
AcDbEntity
  8
0
100
AcDbLine
 62
7
  6
CONTINUOUS
 10
-65.8169246004
 20
-0.4728827131
 11
-65.5483086004
 21
-0.4728827131
  0
LINE
  5
5BC
100
AcDbEntity
  8
0
100
AcDbLine
 62
7
  6
CONTINUOUS
 10
-64.5003736004
 20
-0.4728827131
 11
-64.1891436004
 21
-0.4728827131
  0
LINE
  5
5BD
100
AcDbEntity
  8
RACCORDO
100
AcDbLine
 62
253
  6
CONTINUOUS
 10
57.9591384746
 20
0.5518350178
 11
57.0444913458
 21
0.5518372325
  0
LINE
  5
5BE
100
AcDbEntity
  8
RACCORDO
100
AcDbLine
 62
253
  6
CONTINUOUS
 10
-56.7814605466
 20
0.5518393412
 11
-57.6961076754
 21
0.5518415559
  0
LWPOLYLINE
  5
5BF
100
AcDbEntity
  8
RACCORDO
100
AcDbPolyline
 62
7
  6
CONTINUOUS
 90
19
 70
0
 10
75.4556830154
 20
-3.1068559958
 10
75.4802149761
 20
-3.1070279528
 10
75.5044030919
 20
-3.1075516807
 10
75.5282473626
 20
-3.1084271795
 10
75.5519858714
 20
-3.1096696533
 10
75.5753805352
 20
-3.1112638981
 10
75.5977171047
 20
-3.1131643014
 10
75.6188534765
 20
-3.1153703357
 10
75.6389317539
 20
-3.1178825286
 10
75.6576639975
 20
-3.1206568498
 10
75.6750455767
 20
-3.1236918903
 10
75.691081122
 20
-3.1269890591
 10
75.7054965852
 20
-3.1305085522
 10
75.7183201376
 20
-3.1342767684
 10
75.7295236079
 20
-3.1382673091
 10
75.7387484334
 20
-3.1423611743
 10
75.7458750933
 20
-3.1465186974
 10
75.7510231085
 20
-3.1507795451
 10
75.7541924789
 20
-3.1551437173
  0
LINE
  5
5C0
100
AcDbEntity
  8
0
100
AcDbLine
 62
7
  6
CONTINUOUS
 10
-46.1014973023
 20
26.9018382869
 11
-45.6684846004
 21
26.6518382869
  0
LINE
  5
5C1
100
AcDbEntity
  8
0
100
AcDbLine
 62
7
  6
CONTINUOUS
 10
-46.095729436
 20
26.9233642572
 11
-45.6627167341
 21
26.6733642572
  0
LINE
  5
5C2
100
AcDbEntity
  8
0
100
AcDbLine
 62
7
  6
CONTINUOUS
 10
46.3587602351
 20
-25.8196876834
 11
45.9257475332
 21
-25.5696876834
  0
LINE
  5
5C3
100
AcDbEntity
  8
0
100
AcDbLine
 62
7
  6
CONTINUOUS
 10
46.3645281015
 20
-25.7981617131
 11
45.9315153996
 21
-25.5481617131
  0
LINE
  5
5C4
100
AcDbEntity
  8
0
100
AcDbLine
 62
7
  6
CONTINUOUS
 10
19.621582406
 20
-24.7484358062
 11
19.6226347185
 21
-24.7494368758
  0
LWPOLYLINE
  5
5C5
100
AcDbEntity
  8
0
100
AcDbPolyline
 62
7
  6
CONTINUOUS
 90
3
 70
0
 10
19.7564358692
 20
-24.8833285106
 10
19.8042127389
 20
-24.9309219471
 10
19.8213083129
 20
-24.9481617131
  0
LINE
  5
5C6
100
AcDbEntity
  8
0
100
AcDbLine
 62
7
  6
CONTINUOUS
 10
20.1225990507
 20
-25.8196876834
 11
19.4376066162
 21
-25.1346952489
  0
LINE
  5
5C7
100
AcDbEntity
  8
0
100
AcDbLine
 62
7
  6
CONTINUOUS
 10
20.1315153996
 20
-25.7981617131
 11
19.8213083129
 21
-25.4879546265
  0
LINE
  5
5C8
100
AcDbEntity
  8
0
100
AcDbLine
 62
7
  6
CONTINUOUS
 10
27.6315153996
 20
-30.6881617131
 11
30.3915153996
 21
-33.4481617131
  0
LINE
  5
5C9
100
AcDbEntity
  8
0
100
AcDbLine
 62
7
  6
CONTINUOUS
 10
30.5612213996
 20
-33.2784557131
 11
27.8012213996
 21
-30.5184557131
  0
LWPOLYLINE
  5
5CA
100
AcDbEntity
  8
0
100
AcDbPolyline
 62
7
  6
CONTINUOUS
 90
3
 70
0
 10
19.6226347185
 20
-24.7494368758
 10
19.6272484533
 20
-24.7541018535
 10
19.7564358692
 20
-24.8833285106
  0
LINE
  5
5CB
100
AcDbEntity
  8
0
100
AcDbLine
 62
7
  6
CONTINUOUS
 10
2.3260728499
 20
-25.7981617131
 11
2.3269905122
 21
-25.8196876834
  0
LINE
  5
5CC
100
AcDbEntity
  8
0
100
AcDbLine
 62
7
  6
CONTINUOUS
 10
1.4369579492
 20
26.9018382869
 11
1.4360402869
 21
26.9233642572
  0
LINE
  5
5CD
100
AcDbEntity
  8
0
100
AcDbLine
 62
253
  6
CONTINUOUS
 10
2.9417224862
 20
-25.4879546265
 11
2.9417224862
 21
-24.9481617131
  0
LINE
  5
5CE
100
AcDbEntity
  8
0
100
AcDbLine
 62
253
  6
CONTINUOUS
 10
2.9417224862
 20
26.0518382869
 11
2.9417224862
 21
26.5916312002
  0
LINE
  5
5CF
100
AcDbEntity
  8
0
100
AcDbLine
 62
253
  6
CONTINUOUS
 10
3.1414483932
 20
-25.2897881299
 11
3.1414483932
 21
-24.7484358062
  0
LINE
  5
5D0
100
AcDbEntity
  8
0
100
AcDbLine
 62
253
  6
CONTINUOUS
 10
3.1414483932
 20
25.8521123799
 11
3.1414483932
 21
26.3934647036
  0
LINE
  5
5D1
100
AcDbEntity
  8
0
100
AcDbLine
 62
7
  6
CONTINUOUS
 10
3.3254241829
 20
26.2383718227
 11
3.3254241829
 21
25.8518382869
  0
LINE
  5
5D2
100
AcDbEntity
  8
0
100
AcDbLine
 62
7
  6
CONTINUOUS
 10
3.3254241829
 20
-24.7481617131
 11
3.3254241829
 21
-25.1346952489
  0
LINE
  5
5D3
100
AcDbEntity
  8
0
100
AcDbLine
 62
7
  6
CONTINUOUS
 10
2.3260728499
 20
26.9018382869
 11
2.3269905122
 21
26.9233642572
  0
LINE
  5
5D4
100
AcDbEntity
  8
0
100
AcDbLine
 62
7
  6
CONTINUOUS
 10
1.4369579492
 20
-25.7981617131
 11
1.4360402869
 21
-25.8196876834
  0
LINE
  5
5D5
100
AcDbEntity
  8
0
100
AcDbLine
 62
7
  6
CONTINUOUS
 10
-1.1739271501
 20
-25.7981617131
 11
-1.3287068525
 21
-26.3758074267
  0
LINE
  5
5D6
100
AcDbEntity
  8
0
100
AcDbLine
 62
7
  6
CONTINUOUS
 10
-1.1730094878
 20
-25.8196876834
 11
-1.3224691694
 21
-26.3774788088
  0
LWPOLYLINE
  5
5D7
100
AcDbEntity
  8
0
100
AcDbPolyline
 62
7
  6
CONTINUOUS
 90
16
 70
0
 10
33.7510515754
 20
31.0793580473
 10
33.8058624637
 20
31.1464877316
 10
33.858462978
 20
31.2187735139
 10
33.9088531185
 20
31.2962153941
 10
33.9573418967
 20
31.378846607
 10
34.0036203009
 20
31.4666339178
 10
34.0467612964
 20
31.5594776221
 10
34.0868599505
 20
31.6578831432
 10
34.1238211959
 20
31.7613450578
 10
34.1564327952
 20
31.8682473922
 10
34.1845717127
 20
31.9790306634
 10
34.2083609842
 20
32.0932543543
 10
34.2269574802
 20
32.2079809406
 10
34.2400801577
 20
32.3222312475
 10
34.2480100598
 20
32.4369844497
 10
34.2507471865
 20
32.5522405473
  0
LWPOLYLINE
  5
5D8
100
AcDbEntity
  8
0
100
AcDbPolyline
 62
7
  6
CONTINUOUS
 90
16
 70
0
 10
30.9044171309
 20
34.0251301028
 10
30.8496067553
 20
33.9580078205
 10
30.7970063467
 20
33.885728592
 10
30.7466159051
 20
33.8082924174
 10
30.6981264348
 20
33.7256663566
 10
30.6518469316
 20
33.6378833497
 10
30.6087043823
 20
33.5450422166
 10
30.5686035716
 20
33.4466372966
 10
30.5316397149
 20
33.3431742504
 10
30.4990254458
 20
33.2362688805
 10
30.4708837196
 20
33.1254797477
 10
30.447091581
 20
33.0112482911
 10
30.4284927983
 20
32.8965146308
 10
30.4153686274
 20
32.7822588067
 10
30.4074378124
 20
32.6675007789
 10
30.4047003532
 20
32.5522405473
  0
LWPOLYLINE
  5
5D9
100
AcDbEntity
  8
0
100
AcDbPolyline
 62
7
  6
CONTINUOUS
 90
16
 70
0
 10
33.1572560198
 20
31.4385916584
 10
33.120554637
 20
31.4004909376
 10
33.0805393015
 20
31.3638871046
 10
33.0372100133
 20
31.3287801596
 10
32.9903162099
 20
31.294858327
 10
32.9401084539
 20
31.2624333822
 10
32.8873384325
 20
31.2324406521
 10
32.8318586829
 20
31.204941173
 10
32.7738166678
 20
31.1798739086
 10
32.7144064629
 20
31.1579910761
 10
32.6540964098
 20
31.1394760252
 10
32.5924181669
 20
31.1241454063
 10
32.5291607847
 20
31.1122013877
 10
32.4642539468
 20
31.1037113591
 10
32.3977679696
 20
31.0986079307
 10
32.3297028532
 20
31.0968911028
  0
LINE
  5
5DA
100
AcDbEntity
  8
0
100
AcDbLine
 62
7
  6
CONTINUOUS
 10
-28.2018180927
 20
-30.5758212724
 11
-28.3684846004
 21
-30.7460340181
  0
LINE
  5
5DB
100
AcDbEntity
  8
0
100
AcDbLine
 62
7
  6
CONTINUOUS
 10
-32.174734517
 20
-35.2694383145
 11
-32.043484517
 21
-35.1353957617
  0
LINE
  5
5DC
100
AcDbEntity
  8
0
100
AcDbLine
 62
7
  6
CONTINUOUS
 10
-31.2122346839
 20
-34.5545446732
 11
-31.1247347673
 21
-34.4651829817
  0
LINE
  5
5DD
100
AcDbEntity
  8
0
100
AcDbLine
 62
7
  6
CONTINUOUS
 10
-27.285151585
 20
-31.1715660014
 11
-27.3684846004
 21
-31.2566723743
  0
LINE
  5
5DE
100
AcDbEntity
  8
0
100
AcDbLine
 62
7
  6
CONTINUOUS
 10
-26.3684846004
 20
-30.5758212724
 11
-26.535151585
 21
-30.7460340181
  0
LINE
  5
5DF
100
AcDbEntity
  8
0
100
AcDbLine
 62
7
  6
CONTINUOUS
 10
-27.2018176159
 20
-32.0651829758
 11
-27.285151585
 21
-32.1502893784
  0
LINE
  5
5E0
100
AcDbEntity
  8
0
100
AcDbLine
 62
7
  6
CONTINUOUS
 10
-25.4518176159
 20
-31.1715660014
 11
-25.535151585
 21
-31.2566723743
  0
LINE
  5
5E1
100
AcDbEntity
  8
0
100
AcDbLine
 62
7
  6
CONTINUOUS
 10
-25.3684846004
 20
-32.0651829758
 11
-25.4518176159
 21
-32.1502893784
  0
LINE
  5
5E2
100
AcDbEntity
  8
0
100
AcDbLine
 62
7
  6
CONTINUOUS
 10
-19.5582775138
 20
-24.9481617131
 11
-19.5411819397
 21
-24.9309219471
  0
LWPOLYLINE
  5
5E3
100
AcDbEntity
  8
0
100
AcDbPolyline
 62
7
  6
CONTINUOUS
 90
3
 70
0
 10
-19.3642176542
 20
-24.7541018535
 10
-19.3596039193
 20
-24.7494368758
 10
-19.3585516068
 20
-24.7484358062
  0
LINE
  5
5E4
100
AcDbEntity
  8
0
100
AcDbLine
 62
7
  6
CONTINUOUS
 10
-19.5582775138
 20
-25.4879546265
 11
-19.8684846004
 21
-25.7981617131
  0
LINE
  5
5E5
100
AcDbEntity
  8
0
100
AcDbLine
 62
7
  6
CONTINUOUS
 10
-19.1745758171
 20
-25.1346952489
 11
-19.8595682516
 21
-25.8196876834
  0
LINE
  5
5E6
100
AcDbEntity
  8
0
100
AcDbLine
 62
7
  6
CONTINUOUS
 10
-19.5411819397
 20
-24.9309219471
 11
-19.3642176542
 21
-24.7541018535
  0
LINE
  5
5E7
100
AcDbEntity
  8
0
100
AcDbLine
 62
7
  6
CONTINUOUS
 10
-34.1434846422
 20
-34.1077362158
 11
-35.3684846004
 21
-35.2247574532
  0
LINE
  5
5E8
100
AcDbEntity
  8
0
100
AcDbLine
 62
7
  6
CONTINUOUS
 10
-35.01848459
 20
-35.2247574532
 11
-33.9247346004
 21
-34.2417787531
  0
LINE
  5
5E9
100
AcDbEntity
  8
0
100
AcDbLine
 62
7
  6
CONTINUOUS
 10
-34.6601512274
 20
-32.405608523
 11
-34.4934846004
 21
-32.2779489526
  0
LINE
  5
5EA
100
AcDbEntity
  8
0
100
AcDbLine
 62
7
  6
CONTINUOUS
 10
-31.8268180927
 20
-31.5545446792
 11
-31.6601511082
 21
-31.4268851199
  0
LWPOLYLINE
  5
5EB
100
AcDbEntity
  8
0
100
AcDbPolyline
 62
7
  6
CONTINUOUS
 90
24
 70
0
 10
-64.1791928577
 20
2.4752622869
 10
-64.1136623253
 20
2.477836385
 10
-64.0506991955
 20
2.4840843221
 10
-63.9903034684
 20
2.4940060983
 10
-63.9323772797
 20
2.5077974158
 10
-63.8770184937
 20
2.5252625724
 10
-63.8245207032
 20
2.5458144614
 10
-63.7751433241
 20
2.5692728767
 10
-63.7286269405
 20
2.5958180245
 10
-63.6844868984
 20
2.6254034163
 10
-63.6427524882
 20
2.6577273071
 10
-63.6033944195
 20
2.6930914419
 10
-63.5658401669
 20
2.7323545677
 10
-63.5297037193
 20
2.7756934415
 10
-63.4953710877
 20
2.8229313063
 10
-63.4634277802
 20
2.8743966374
 10
-63.4338014451
 20
2.9303111852
 10
-63.406564434
 20
2.9904531993
 10
-63.38251931
 20
3.054485905
 10
-63.3615340369
 20
3.1230278016
 10
-63.3437406508
 20
3.1954603897
 10
-63.3303378244
 20
3.2695913956
 10
-63.3217251151
 20
3.3446900615
 10
-63.3175029653
 20
3.4214871453
  0
LWPOLYLINE
  5
5EC
100
AcDbEntity
  8
RACCORDO
100
AcDbPolyline
 62
7
  6
CONTINUOUS
 90
19
 70
0
 10
76.0916621476
 20
4.3868595502
 10
76.0671301537
 20
4.3866875904
 10
76.0429421505
 20
4.3861638623
 10
76.019098138
 20
4.3852883659
 10
75.9953600508
 20
4.3840458965
 10
75.9719659544
 20
4.3824516588
 10
75.9496300444
 20
4.3805512671
 10
75.9284944267
 20
4.3783452499
 10
75.9084169954
 20
4.3758330788
 10
75.8896856288
 20
4.3730587826
 10
75.8723049595
 20
4.3700237736
 10
75.8562703549
 20
4.3667266396
 10
75.8418557955
 20
4.3632071726
 10
75.8290330921
 20
4.3594389751
 10
75.817830434
 20
4.3554484447
 10
75.8086063692
 20
4.3513545663
 10
75.8014804138
 20
4.3471970017
 10
75.7963330518
 20
4.3429360892
 10
75.7931642832
 20
4.3385718287
  0
LWPOLYLINE
  5
5ED
100
AcDbEntity
  8
RACCORDO
100
AcDbPolyline
 62
7
  6
CONTINUOUS
 90
22
 70
0
 10
73.9477494936
 20
4.2105325695
 10
73.9256320994
 20
4.2103839635
 10
73.90387695
 20
4.2099615409
 10
73.8824840456
 20
4.2092653016
 10
73.8613785542
 20
4.2082927619
 10
73.8406353077
 20
4.2070464056
 10
73.8204788018
 20
4.2055336841
 10
73.800858827
 20
4.2037478102
 10
73.7818255928
 20
4.2016955711
 10
73.7637542235
 20
4.1994047791
 10
73.7466534175
 20
4.1968658159
 10
73.7305144764
 20
4.1940882999
 10
73.7156864289
 20
4.1911288991
 10
73.7022217592
 20
4.1879855306
 10
73.6900679831
 20
4.1846602772
 10
73.6794166762
 20
4.1812160555
 10
73.6703048884
 20
4.1776597838
 10
73.6626955698
 20
4.1739845439
 10
73.6566691473
 20
4.1702324968
 10
73.6522524295
 20
4.1664176964
 10
73.6494186078
 20
4.1625260889
 10
73.648167682
 20
4.1585576743
  0
LWPOLYLINE
  5
5EE
100
AcDbEntity
  8
RACCORDO
100
AcDbPolyline
 62
7
  6
CONTINUOUS
 90
22
 70
0
 10
-76.7534983638
 20
4.3868595502
 10
-76.7894796249
 20
4.3866272035
 10
-76.8249510013
 20
4.3859541558
 10
-76.8599124931
 20
4.3848404071
 10
-76.8945235669
 20
4.3832790038
 10
-76.9286247561
 20
4.3812768995
 10
-76.9617376606
 20
4.378854955
 10
-76.9938660825
 20
4.3760077671
 10
-77.0250062197
 20
4.372740739
 10
-77.0546682655
 20
4.3690909416
 10
-77.082875599
 20
4.3650418875
 10
-77.1096048411
 20
4.3606100641
 10
-77.134296049
 20
4.355882004
 10
-77.1568612738
 20
4.3508582069
 10
-77.1773884643
 20
4.3455381731
 10
-77.1955815243
 20
4.3400069359
 10
-77.2114035742
 20
4.3342648444
 10
-77.2248914936
 20
4.3283115494
 10
-77.2358598249
 20
4.322231037
 10
-77.2442467489
 20
4.3160513023
 10
-77.2501140849
 20
4.3097443501
 10
-77.2534618327
 20
4.3033101804
  0
LINE
  5
5EF
100
AcDbEntity
  8
0
100
AcDbLine
 62
7
  6
CONTINUOUS
 10
-64.1891436004
 20
1.5765592869
 11
-64.4574286004
 21
1.5765592869
  0
LINE
  5
5F0
100
AcDbEntity
  8
0
100
AcDbLine
 62
7
  6
CONTINUOUS
 10
-65.4884496004
 20
1.5765592869
 11
-65.8169246004
 21
1.5765592869
  0
LINE
  5
5F1
100
AcDbEntity
  8
0
100
AcDbLine
 62
7
  6
CONTINUOUS
 10
-66.2908156004
 20
1.5765592869
 11
-66.5678886004
 21
1.5765592869
  0
LINE
  5
5F2
100
AcDbEntity
  8
0
100
AcDbLine
 62
7
  6
CONTINUOUS
 10
-69.3163946004
 20
2.4752622869
 11
-69.0479446004
 21
2.4752622869
  0
LINE
  5
5F3
100
AcDbEntity
  8
0
100
AcDbLine
 62
7
  6
CONTINUOUS
 10
-68.4710836004
 20
2.4752622869
 11
-68.1969956004
 21
2.4752622869
  0
LINE
  5
5F4
100
AcDbEntity
  8
0
100
AcDbLine
 62
7
  6
CONTINUOUS
 10
-67.6201336004
 20
2.4752622869
 11
-67.3516836004
 21
2.4752622869
  0
LINE
  5
5F5
100
AcDbEntity
  8
0
100
AcDbLine
 62
7
  6
CONTINUOUS
 10
-67.1061156004
 20
2.4752622869
 11
-66.8205866004
 21
2.4752622869
  0
LINE
  5
5F6
100
AcDbEntity
  8
0
100
AcDbLine
 62
7
  6
CONTINUOUS
 10
-65.5811386004
 20
2.4752622869
 11
-65.2785316004
 21
2.4752622869
  0
LINE
  5
5F7
100
AcDbEntity
  8
0
100
AcDbLine
 62
7
  6
CONTINUOUS
 10
-65.0100816004
 20
2.4752622869
 11
-64.1791928577
 21
2.4752622869
  0
LINE
  5
5F8
100
AcDbEntity
  8
0
100
AcDbLine
 62
7
  6
CONTINUOUS
 10
-62.9341096004
 20
2.4752622869
 11
-61.4205746004
 21
2.4752622869
  0
LINE
  5
5F9
100
AcDbEntity
  8
0
100
AcDbLine
 62
7
  6
CONTINUOUS
 10
-64.2163423709
 20
2.7123732869
 11
-64.7331746004
 21
2.7123732869
  0
LINE
  5
5FA
100
AcDbEntity
  8
0
100
AcDbLine
 62
7
  6
CONTINUOUS
 10
-61.4205746004
 20
2.7206642869
 11
-62.6570376004
 21
2.7206642869
  0
LINE
  5
5FB
100
AcDbEntity
  8
0
100
AcDbLine
 62
7
  6
CONTINUOUS
 10
-66.6063566004
 20
3.0721862869
 11
-65.7839276004
 21
3.0721862869
  0
LINE
  5
5FC
100
AcDbEntity
  8
0
100
AcDbLine
 62
7
  6
CONTINUOUS
 10
-65.8839126004
 20
3.3175892869
 11
-66.5206316004
 21
3.3175892869
  0
LINE
  5
5FD
100
AcDbEntity
  8
0
100
AcDbLine
 62
7
  6
CONTINUOUS
 10
-62.6570376004
 20
3.4054692869
 11
-61.5348196004
 21
3.4054692869
  0
LINE
  5
5FE
100
AcDbEntity
  8
0
100
AcDbLine
 62
7
  6
CONTINUOUS
 10
-61.5348196004
 20
3.6508722869
 11
-62.6570376004
 21
3.6508722869
  0
LINE
  5
5FF
100
AcDbEntity
  8
DRAFT
100
AcDbLine
 62
7
  6
CONTINUOUS
 10
-77.3300299187
 20
4.0518382869
 11
-73.3753367058
 21
4.0518382869
  0
LINE
  5
600
100
AcDbEntity
  8
DRAFT
100
AcDbLine
 62
7
  6
CONTINUOUS
 10
77.5930607178
 20
4.0518382869
 11
73.638367505
 21
4.0518382869
  0
LINE
  5
601
100
AcDbEntity
  8
RACCORDO
100
AcDbLine
 62
7
  6
CONTINUOUS
 10
-75.1926522162
 20
4.2105325695
 11
-73.6847186945
 21
4.2105325695
  0
LINE
  5
602
100
AcDbEntity
  8
RACCORDO
100
AcDbLine
 62
7
  6
CONTINUOUS
 10
75.4556830154
 20
4.2105325695
 11
73.9477494936
 21
4.2105325695
  0
LINE
  5
603
100
AcDbEntity
  8
0
100
AcDbLine
 62
7
  6
CONTINUOUS
 10
-62.6570376004
 20
4.2793012869
 11
-61.4406376004
 21
4.2793012869
  0
LINE
  5
604
100
AcDbEntity
  8
0
100
AcDbLine
 62
7
  6
CONTINUOUS
 10
-64.7331746004
 20
4.2875912869
 11
-64.2163347469
 21
4.2875912869
  0
LINE
  5
605
100
AcDbEntity
  8
RACCORDO
100
AcDbLine
 62
7
  6
CONTINUOUS
 10
-76.7534983638
 20
4.3868595502
 11
-75.8286313485
 21
4.3868595502
  0
LINE
  5
606
100
AcDbEntity
  8
RACCORDO
100
AcDbLine
 62
7
  6
CONTINUOUS
 10
77.016529163
 20
4.3868595502
 11
76.0916621476
 21
4.3868595502
  0
LINE
  5
607
100
AcDbEntity
  8
0
100
AcDbLine
 62
7
  6
CONTINUOUS
 10
-61.4406376004
 20
4.5247032869
 11
-62.9341096004
 21
4.5247032869
  0
LINE
  5
608
100
AcDbEntity
  8
0
100
AcDbLine
 62
7
  6
CONTINUOUS
 10
-64.1791956799
 20
4.5247032869
 11
-65.0100816004
 21
4.5247032869
  0
LINE
  5
609
100
AcDbEntity
  8
0
100
AcDbLine
 62
7
  6
CONTINUOUS
 10
-66.0210396004
 20
4.5247032869
 11
-66.3350876004
 21
4.5247032869
  0
LINE
  5
60A
100
AcDbEntity
  8
0
100
AcDbLine
 62
7
  6
CONTINUOUS
 10
-67.3516836004
 20
4.5247032869
 11
-67.7458196004
 21
4.5247032869
  0
LINE
  5
60B
100
AcDbEntity
  8
0
100
AcDbLine
 62
7
  6
CONTINUOUS
 10
-68.9194396004
 20
4.5247032869
 11
-69.3163946004
 21
4.5247032869
  0
LINE
  5
60C
100
AcDbEntity
  8
0
100
AcDbLine
 62
7
  6
CONTINUOUS
 10
-60.3684846004
 20
5.5518382869
 11
-70.3684846004
 21
5.5518382869
  0
LWPOLYLINE
  5
60D
100
AcDbEntity
  8
RACCORDO
100
AcDbPolyline
 62
7
  6
CONTINUOUS
 90
19
 70
0
 10
-75.1926522162
 20
4.2105325695
 10
-75.217184177
 20
4.2107045265
 10
-75.2413722928
 20
4.2112282544
 10
-75.2652165635
 20
4.2121037532
 10
-75.2889550723
 20
4.2133462271
 10
-75.3123497361
 20
4.2149404718
 10
-75.3346863055
 20
4.2168408751
 10
-75.3558226773
 20
4.2190469095
 10
-75.3759009548
 20
4.2215591024
 10
-75.3946331983
 20
4.2243334235
 10
-75.4120147775
 20
4.227368464
 10
-75.4280503229
 20
4.2306656328
 10
-75.442465786
 20
4.2341851259
 10
-75.4552893385
 20
4.2379533422
 10
-75.4664928088
 20
4.2419438828
 10
-75.4757176343
 20
4.246037748
 10
-75.4828442942
 20
4.2501952711
 10
-75.4879923094
 20
4.2544561188
 10
-75.4911616798
 20
4.258820291
  0
LWPOLYLINE
  5
60E
100
AcDbEntity
  8
0
100
AcDbPolyline
 62
7
  6
CONTINUOUS
 90
25
 70
0
 10
-64.2163347469
 20
4.2875912869
 10
-64.1670585564
 20
4.2857520835
 10
-64.1202829072
 20
4.2813346995
 10
-64.0760077992
 20
4.2743391347
 10
-64.034258043
 20
4.2646100235
 10
-63.995008828
 20
4.2523027316
 10
-63.9581857224
 20
4.2378833561
 10
-63.9241779604
 20
4.22173141
 10
-63.8925963078
 20
4.2034673803
 10
-63.8621986308
 20
4.1824188246
 10
-63.832586789
 20
4.1585429164
 10
-63.8041589227
 20
4.1318824822
 10
-63.7768673192
 20
4.1018935596
 10
-63.7503625122
 20
4.0682967802
 10
-63.724993968
 20
4.0313715123
 10
-63.7017623724
 20
3.991411898
 10
-63.68082886
 20
3.9485089839
 10
-63.6620322961
 20
3.9025717234
 10
-63.6458899624
 20
3.8536211192
 10
-63.6327196291
 20
3.8015418254
 10
-63.622203526
 20
3.7464491879
 10
-63.6139056234
 20
3.6887102472
 10
-63.6076805783
 20
3.6284473503
 10
-63.6036737339
 20
3.5655381501
 10
-63.6018850901
 20
3.4999826468
  0
LINE
  5
60F
100
AcDbEntity
  8
0
100
AcDbLine
 62
7
  6
CONTINUOUS
 10
-19.3585516068
 20
25.8521123799
 11
-19.3596039193
 21
25.8531134495
  0
LWPOLYLINE
  5
610
100
AcDbEntity
  8
0
100
AcDbPolyline
 62
7
  6
CONTINUOUS
 90
3
 70
0
 10
-19.49340507
 20
25.9870050843
 10
-19.5411819397
 20
26.0345985208
 10
-19.5582775138
 20
26.0518382869
  0
LINE
  5
611
100
AcDbEntity
  8
0
100
AcDbLine
 62
7
  6
CONTINUOUS
 10
-19.8684846004
 20
26.9018382869
 11
-19.5582775138
 21
26.5916312002
  0
LINE
  5
612
100
AcDbEntity
  8
0
100
AcDbLine
 62
7
  6
CONTINUOUS
 10
-19.8595682516
 20
26.9233642572
 11
-19.1745758171
 21
26.2383718227
  0
LINE
  5
613
100
AcDbEntity
  8
0
100
AcDbLine
 62
7
  6
CONTINUOUS
 10
-19.3678496841
 20
25.8614310634
 11
-19.49340507
 21
25.9870050843
  0
LWPOLYLINE
  5
614
100
AcDbEntity
  8
0
100
AcDbPolyline
 62
7
  6
CONTINUOUS
 90
3
 70
0
 10
-19.3596039193
 20
25.8531134495
 10
-19.3642176542
 20
25.8577784272
 10
-19.3678496841
 20
25.8614310634
  0
LINE
  5
615
100
AcDbEntity
  8
0
100
AcDbLine
 62
7
  6
CONTINUOUS
 10
21.9043943996
 20
-34.8251837131
 11
22.0961913996
 21
-35.1669027131
  0
LINE
  5
616
100
AcDbEntity
  8
0
100
AcDbLine
 62
7
  6
CONTINUOUS
 10
-1.3287068525
 20
27.4794840004
 11
-1.1739271501
 21
26.9018382869
  0
LINE
  5
617
100
AcDbEntity
  8
0
100
AcDbLine
 62
7
  6
CONTINUOUS
 10
-1.3224691694
 20
27.4811553826
 11
-1.1730094878
 21
26.9233642572
  0
LINE
  5
618
100
AcDbEntity
  8
0
100
AcDbLine
 62
7
  6
CONTINUOUS
 10
10.1315153996
 20
-29.9481617131
 11
10.1315153996
 21
-37.4481617131
  0
LINE
  5
619
100
AcDbEntity
  8
0
100
AcDbLine
 62
7
  6
CONTINUOUS
 10
0.9315153996
 20
-25.5481617131
 11
0.9257475332
 21
-25.5696876834
  0
LINE
  5
61A
100
AcDbEntity
  8
0
100
AcDbLine
 62
7
  6
CONTINUOUS
 10
1.3645281015
 20
-25.7981617131
 11
1.3587602351
 21
-25.8196876834
  0
LINE
  5
61B
100
AcDbEntity
  8
0
100
AcDbLine
 62
7
  6
CONTINUOUS
 10
2.3260728499
 20
-25.7981617131
 11
2.1712931475
 21
-26.3758074267
  0
LINE
  5
61C
100
AcDbEntity
  8
0
100
AcDbLine
 62
7
  6
CONTINUOUS
 10
2.3269905122
 20
-25.8196876834
 11
2.1775308306
 21
-26.3774788088
  0
LINE
  5
61D
100
AcDbEntity
  8
0
100
AcDbLine
 62
7
  6
CONTINUOUS
 10
20.4360402869
 20
26.9233642572
 11
20.5854999685
 21
27.4811553826
  0
LINE
  5
61E
100
AcDbEntity
  8
0
100
AcDbLine
 62
7
  6
CONTINUOUS
 10
20.4369579492
 20
26.9018382869
 11
20.5917376517
 21
27.4794840004
  0
LINE
  5
61F
100
AcDbEntity
  8
0
100
AcDbLine
 62
7
  6
CONTINUOUS
 10
-2.3684846004
 20
-25.7981617131
 11
-2.3774009493
 21
-25.8196876834
  0
LINE
  5
620
100
AcDbEntity
  8
0
100
AcDbLine
 62
7
  6
CONTINUOUS
 10
42.3213083129
 20
25.9518382869
 11
42.3042174185
 21
25.9346032507
  0
LINE
  5
621
100
AcDbEntity
  8
0
100
AcDbLine
 62
7
  6
CONTINUOUS
 10
42.1308842386
 20
25.7614348303
 11
42.122635104
 21
25.7531138993
  0
LINE
  5
622
100
AcDbEntity
  8
0
100
AcDbLine
 62
7
  6
CONTINUOUS
 10
41.9376066162
 20
26.1883718227
 11
42.6725990507
 21
26.9233642572
  0
LINE
  5
623
100
AcDbEntity
  8
0
100
AcDbLine
 62
7
  6
CONTINUOUS
 10
42.3213083129
 20
26.5416312002
 11
42.6815153996
 21
26.9018382869
  0
LINE
  5
624
100
AcDbEntity
  8
0
100
AcDbLine
 62
7
  6
CONTINUOUS
 10
42.3042174185
 20
25.9346032507
 11
42.1308842386
 21
25.7614348303
  0
LINE
  5
625
100
AcDbEntity
  8
0
100
AcDbLine
 62
7
  6
CONTINUOUS
 10
42.122635104
 20
25.7531138993
 11
42.121582406
 21
25.7521123799
  0
LINE
  5
626
100
AcDbEntity
  8
0
100
AcDbLine
 62
7
  6
CONTINUOUS
 10
-19.3585516068
 20
-25.2897881299
 11
-19.1745758171
 21
-25.1346952489
  0
LINE
  5
627
100
AcDbEntity
  8
0
100
AcDbLine
 62
7
  6
CONTINUOUS
 10
42.121582406
 20
26.3434647036
 11
41.9376066162
 21
26.1883718227
  0
LINE
  5
628
100
AcDbEntity
  8
0
100
AcDbLine
 62
7
  6
CONTINUOUS
 10
-27.285151585
 20
-31.4268851199
 11
-27.1184846004
 21
-31.2992255607
  0
LINE
  5
629
100
AcDbEntity
  8
0
100
AcDbLine
 62
7
  6
CONTINUOUS
 10
-25.4518176159
 20
-31.4268851199
 11
-25.285151585
 21
-31.2992255607
  0
LINE
  5
62A
100
AcDbEntity
  8
0
100
AcDbLine
 62
7
  6
CONTINUOUS
 10
-33.5768178543
 20
-30.8311403909
 11
-33.4518178543
 21
-30.7460340181
  0
LINE
  5
62B
100
AcDbEntity
  8
0
100
AcDbLine
 62
7
  6
CONTINUOUS
 10
-32.7851513466
 20
-32.0651829758
 11
-32.9101513466
 21
-32.1502893784
  0
LINE
  5
62C
100
AcDbEntity
  8
0
100
AcDbLine
 62
7
  6
CONTINUOUS
 10
-35.01848459
 20
-33.705608479
 11
-34.88723459
 21
-33.6162467876
  0
LINE
  5
62D
100
AcDbEntity
  8
0
100
AcDbLine
 62
7
  6
CONTINUOUS
 10
-30.9518180927
 20
-32.107736192
 11
-31.0768180927
 21
-32.1928425648
  0
LINE
  5
62E
100
AcDbEntity
  8
0
100
AcDbLine
 62
7
  6
CONTINUOUS
 10
-33.0059846004
 20
-33.705608479
 11
-32.8747346004
 21
-33.6162467876
  0
LINE
  5
62F
100
AcDbEntity
  8
0
100
AcDbLine
 62
7
  6
CONTINUOUS
 10
-28.1184846004
 20
-30.7885872045
 11
-27.9934846004
 21
-30.7034808316
  0
LINE
  5
630
100
AcDbEntity
  8
0
100
AcDbLine
 62
7
  6
CONTINUOUS
 10
-31.1247347673
 20
-33.705608479
 11
-30.9934847673
 21
-33.6162467876
  0
LINE
  5
631
100
AcDbEntity
  8
0
100
AcDbLine
 62
7
  6
CONTINUOUS
 10
-26.285151585
 20
-30.7885872045
 11
-26.160151585
 21
-30.7034808316
  0
LINE
  5
632
100
AcDbEntity
  8
0
100
AcDbLine
 62
7
  6
CONTINUOUS
 10
-31.0372346004
 20
-34.1524170616
 11
-31.2997346004
 21
-34.3311404445
  0
LINE
  5
633
100
AcDbEntity
  8
0
100
AcDbLine
 62
7
  6
CONTINUOUS
 10
-32.305984517
 20
-35.090714916
 11
-32.437234517
 21
-35.1800766074
  0
LINE
  5
634
100
AcDbEntity
  8
0
100
AcDbLine
 62
7
  6
CONTINUOUS
 10
-31.1247347673
 20
-34.4651829817
 11
-30.9934847673
 21
-34.3758212903
  0
LINE
  5
635
100
AcDbEntity
  8
0
100
AcDbLine
 62
7
  6
CONTINUOUS
 10
-27.2018176159
 20
-32.320502139
 11
-27.0768176159
 21
-32.2353957513
  0
LINE
  5
636
100
AcDbEntity
  8
0
100
AcDbLine
 62
7
  6
CONTINUOUS
 10
-30.2934844335
 20
-35.090714916
 11
-30.4247344335
 21
-35.1800766074
  0
LINE
  5
637
100
AcDbEntity
  8
0
100
AcDbLine
 62
7
  6
CONTINUOUS
 10
-25.3684846004
 20
-32.320502139
 11
-25.2434846004
 21
-32.2353957513
  0
LINE
  5
638
100
AcDbEntity
  8
0
100
AcDbLine
 62
7
  6
CONTINUOUS
 10
-27.3184847673
 20
-33.705608479
 11
-27.1872347673
 21
-33.6162467876
  0
LINE
  5
639
100
AcDbEntity
  8
0
100
AcDbLine
 62
7
  6
CONTINUOUS
 10
-31.7018180927
 20
-31.2141191879
 11
-31.9101513466
 21
-31.3417787471
  0
LINE
  5
63A
100
AcDbEntity
  8
0
100
AcDbLine
 62
7
  6
CONTINUOUS
 10
-32.9184846839
 20
-33.3928425589
 11
-33.1372346004
 21
-33.5268850961
  0
LINE
  5
63B
100
AcDbEntity
  8
0
100
AcDbLine
 62
7
  6
CONTINUOUS
 10
-31.0351511082
 20
-32.405608523
 11
-30.8268180927
 21
-32.2779489526
  0
LINE
  5
63C
100
AcDbEntity
  8
0
100
AcDbLine
 62
7
  6
CONTINUOUS
 10
-31.0372346004
 20
-33.3928425589
 11
-31.255984517
 21
-33.5268850961
  0
LWPOLYLINE
  5
63D
100
AcDbEntity
  8
RACCORDO
100
AcDbPolyline
 62
7
  6
CONTINUOUS
 90
13
 70
0
 10
56.8758011422
 20
23.1743888707
 10
56.8668946347
 20
23.1689559199
 10
56.8582556992
 20
23.1639044783
 10
56.84998725
 20
23.1592827008
 10
56.8421984066
 20
23.1551151234
 10
56.8349712944
 20
23.1514474884
 10
56.8283613129
 20
23.1483460468
 10
56.8224548604
 20
23.1458155697
 10
56.817318604
 20
23.143865507
 10
56.8129702332
 20
23.1425557458
 10
56.8094523837
 20
23.1418941165
 10
56.8068293575
 20
23.1418359601
 10
56.8051398712
 20
23.1423507636
  0
LWPOLYLINE
  5
63E
100
AcDbEntity
  8
RACCORDO
100
AcDbPolyline
 62
7
  6
CONTINUOUS
 90
10
 70
0
 10
56.8759580644
 20
23.1744747888
 10
56.8772992484
 20
23.1752760123
 10
56.8787028089
 20
23.1760427643
 10
56.8801687462
 20
23.1767750448
 10
56.8817032917
 20
23.1774770387
 10
56.8833002139
 20
23.178144561
 10
56.8849408176
 20
23.1787650568
 10
56.8866188709
 20
23.1793343411
 10
56.8883406058
 20
23.1798565988
 10
56.890106022
 20
23.18033183
  0
LINE
  5
63F
100
AcDbEntity
  8
0
100
AcDbLine
 62
7
  6
CONTINUOUS
 10
-23.1684846004
 20
-25.5481617131
 11
-23.6014973023
 21
-25.7981617131
  0
LINE
  5
640
100
AcDbEntity
  8
0
100
AcDbLine
 62
7
  6
CONTINUOUS
 10
-23.1627167341
 20
-25.5696876834
 11
-23.595729436
 21
-25.8196876834
  0
LINE
  5
641
100
AcDbEntity
  8
0
100
AcDbLine
 62
7
  6
CONTINUOUS
 10
-33.4934846004
 20
-30.4907148996
 11
-33.6601513466
 21
-30.5758212724
  0
LINE
  5
642
100
AcDbEntity
  8
0
100
AcDbLine
 62
7
  6
CONTINUOUS
 10
-34.5768179735
 20
-31.4268851199
 11
-34.4934846004
 21
-31.3843319335
  0
LINE
  5
643
100
AcDbEntity
  8
RACCORDO
100
AcDbLine
 62
7
  6
CONTINUOUS
 10
57.3346166114
 20
23.2913878291
 11
56.890106022
 21
23.18033183
  0
LWPOLYLINE
  5
644
100
AcDbEntity
  8
RACCORDO
100
AcDbPolyline
 62
7
  6
CONTINUOUS
 90
16
 70
0
 10
57.3346167997
 20
23.2913873324
 10
57.3453149447
 20
23.2937211734
 10
57.3559833917
 20
23.2963114084
 10
57.3664953071
 20
23.2991148964
 10
57.3767518459
 20
23.3020711248
 10
57.3865974235
 20
23.3051400609
 10
57.3958337177
 20
23.3082987914
 10
57.4043346044
 20
23.3114738387
 10
57.4120374252
 20
23.3146145896
 10
57.4188600643
 20
23.3177313587
 10
57.4247279857
 20
23.3207704791
 10
57.4295787603
 20
23.3236728183
 10
57.4333546239
 20
23.3264457465
 10
57.4360091441
 20
23.3290579078
 10
57.4375142739
 20
23.3314389309
 10
57.4378537425
 20
23.3335413915
  0
LWPOLYLINE
  5
645
100
AcDbEntity
  8
RACCORDO
100
AcDbPolyline
 62
7
  6
CONTINUOUS
 90
16
 70
0
 10
-57.0698478719
 20
23.2909561111
 10
-57.0811167159
 20
23.2934953862
 10
-57.0922543415
 20
23.2961863964
 10
-57.1031113211
 20
23.2990172896
 10
-57.1135177367
 20
23.301995861
 10
-57.1233763607
 20
23.3050949762
 10
-57.1326536823
 20
23.3082454071
 10
-57.1412578281
 20
23.3114359091
 10
-57.1490503545
 20
23.3146455709
 10
-57.1559374304
 20
23.3177831803
 10
-57.1618387054
 20
23.320830446
 10
-57.1666854379
 20
23.3237749483
 10
-57.1704319028
 20
23.3265347703
 10
-57.173048271
 20
23.3290761969
 10
-57.1745136236
 20
23.3314137164
 10
-57.17482327
 20
23.3335414661
  0
LINE
  5
646
100
AcDbEntity
  8
RACCORDO
100
AcDbLine
 62
7
  6
CONTINUOUS
 10
-57.0715858128
 20
23.2913878292
 11
-56.6270740607
 21
23.1803314774
  0
LWPOLYLINE
  5
647
100
AcDbEntity
  8
RACCORDO
100
AcDbPolyline
 62
7
  6
CONTINUOUS
 90
10
 70
0
 10
-56.6270740607
 20
23.1803314774
 10
-56.6253091035
 20
23.17985633
 10
-56.6235876958
 20
23.1793341294
 10
-56.6219098375
 20
23.1787648755
 10
-56.6202690039
 20
23.1781442407
 10
-56.6186717197
 20
23.1774765527
 10
-56.6171375594
 20
23.1767747942
 10
-56.6156730476
 20
23.1760432928
 10
-56.6142716597
 20
23.1752777208
 10
-56.6129333955
 20
23.1744780784
  0
LINE
  5
648
100
AcDbEntity
  8
0
100
AcDbLine
 62
7
  6
CONTINUOUS
 10
-23.6014973023
 20
26.9018382869
 11
-23.1684846004
 21
26.6518382869
  0
LINE
  5
649
100
AcDbEntity
  8
0
100
AcDbLine
 62
7
  6
CONTINUOUS
 10
-23.595729436
 20
26.9233642572
 11
-23.1627167341
 21
26.6733642572
  0
LWPOLYLINE
  5
64A
100
AcDbEntity
  8
RACCORDO
100
AcDbPolyline
 62
7
  6
CONTINUOUS
 90
13
 70
0
 10
56.8758018739
 20
-22.0707127939
 10
56.8668721881
 20
-22.0653134973
 10
56.8582361156
 20
-22.0602568122
 10
56.8499867476
 20
-22.0556057044
 10
56.8421984915
 20
-22.0514371258
 10
56.8349575005
 20
-22.0477905561
 10
56.8283609024
 20
-22.0446690186
 10
56.822460044
 20
-22.0421299122
 10
56.8173035805
 20
-22.0402101763
 10
56.8129699891
 20
-22.0388784959
 10
56.809498564
 20
-22.0381476271
 10
56.8068878198
 20
-22.0380716181
 10
56.8051401433
 20
-22.0386743735
  0
LINE
  5
64B
100
AcDbEntity
  8
0
100
AcDbLine
 62
7
  6
CONTINUOUS
 10
-19.3585516068
 20
26.3934647036
 11
-19.1745758171
 21
26.2383718227
  0
LINE
  5
64C
100
AcDbEntity
  8
0
100
AcDbLine
 62
7
  6
CONTINUOUS
 10
42.121582406
 20
-25.2397881299
 11
41.9376066162
 21
-25.0846952489
  0
LINE
  5
64D
100
AcDbEntity
  8
0
100
AcDbLine
 62
7
  6
CONTINUOUS
 10
42.121582406
 20
-24.6484358062
 11
42.122635104
 21
-24.6494373256
  0
LWPOLYLINE
  5
64E
100
AcDbEntity
  8
0
100
AcDbPolyline
 62
7
  6
CONTINUOUS
 90
3
 70
0
 10
42.2564502891
 20
-24.783342906
 10
42.3042174185
 20
-24.830926677
 10
42.3213083129
 20
-24.8481617131
  0
LINE
  5
64F
100
AcDbEntity
  8
0
100
AcDbLine
 62
7
  6
CONTINUOUS
 10
42.6725990507
 20
-25.8196876834
 11
41.9376066162
 21
-25.0846952489
  0
LINE
  5
650
100
AcDbEntity
  8
0
100
AcDbLine
 62
7
  6
CONTINUOUS
 10
42.6815153996
 20
-25.7981617131
 11
42.3213083129
 21
-25.4379546265
  0
LINE
  5
651
100
AcDbEntity
  8
0
100
AcDbLine
 62
7
  6
CONTINUOUS
 10
42.1308842386
 20
-24.6577582566
 11
42.2564502891
 21
-24.783342906
  0
LINE
  5
652
100
AcDbEntity
  8
0
100
AcDbLine
 62
7
  6
CONTINUOUS
 10
42.122635104
 20
-24.6494373256
 11
42.1308842386
 21
-24.6577582566
  0
LINE
  5
653
100
AcDbEntity
  8
0
100
AcDbLine
 62
7
  6
CONTINUOUS
 10
-2.3684846004
 20
26.9018382869
 11
-2.3774009493
 21
26.9233642572
  0
LINE
  5
654
100
AcDbEntity
  8
0
100
AcDbLine
 62
7
  6
CONTINUOUS
 10
0.9315153996
 20
26.6518382869
 11
0.9257475332
 21
26.6733642572
  0
LINE
  5
655
100
AcDbEntity
  8
0
100
AcDbLine
 62
7
  6
CONTINUOUS
 10
1.3645281015
 20
26.9018382869
 11
1.3587602351
 21
26.9233642572
  0
LINE
  5
656
100
AcDbEntity
  8
0
100
AcDbLine
 62
7
  6
CONTINUOUS
 10
2.1712931475
 20
27.4794840004
 11
2.3260728499
 21
26.9018382869
  0
LINE
  5
657
100
AcDbEntity
  8
0
100
AcDbLine
 62
7
  6
CONTINUOUS
 10
2.1775308306
 20
27.4811553826
 11
2.3269905122
 21
26.9233642572
  0
LINE
  5
658
100
AcDbEntity
  8
0
100
AcDbLine
 62
7
  6
CONTINUOUS
 10
20.5854999685
 20
-26.3774788088
 11
20.4360402869
 21
-25.8196876834
  0
LINE
  5
659
100
AcDbEntity
  8
0
100
AcDbLine
 62
7
  6
CONTINUOUS
 10
20.5917376517
 20
-26.3758074267
 11
20.4369579492
 21
-25.7981617131
  0
LINE
  5
65A
100
AcDbEntity
  8
ASSI
100
AcDbLine
 62
7
  6
CONTINUOUS
 10
13.2639613996
 20
-35.9961987226
 11
13.2639613996
 21
-35.2453817232
  0
LINE
  5
65B
100
AcDbEntity
  8
ASSI
100
AcDbLine
 62
7
  6
CONTINUOUS
 10
13.2639613996
 20
-31.6509417131
 11
13.2639613996
 21
-30.9001247131
  0
LINE
  5
65C
100
AcDbEntity
  8
ASSI
100
AcDbLine
 62
7
  6
CONTINUOUS
 10
17.2490713996
 20
-33.8231617131
 11
17.2490713996
 21
-33.0731617131
  0
LINE
  5
65D
100
AcDbEntity
  8
ASSI
100
AcDbLine
 62
7
  6
CONTINUOUS
 10
17.6490713996
 20
-35.99619884
 11
17.6490713996
 21
-35.2453784196
  0
LINE
  5
65E
100
AcDbEntity
  8
ASSI
100
AcDbLine
 62
7
  6
CONTINUOUS
 10
17.6490713996
 20
-31.6509417131
 11
17.6490713996
 21
-30.900124837
  0
LINE
  5
65F
100
AcDbEntity
  8
0
100
AcDbLine
 62
7
  6
CONTINUOUS
 10
21.3985026977
 20
26.9018382869
 11
21.404270564
 21
26.9233642572
  0
LINE
  5
660
100
AcDbEntity
  8
0
100
AcDbLine
 62
7
  6
CONTINUOUS
 10
21.8315153996
 20
26.6518382869
 11
21.8372832659
 21
26.6733642572
  0
LINE
  5
661
100
AcDbEntity
  8
0
100
AcDbLine
 62
7
  6
CONTINUOUS
 10
23.9360402869
 20
26.9233642572
 11
24.0854999685
 21
27.4811553826
  0
LINE
  5
662
100
AcDbEntity
  8
0
100
AcDbLine
 62
7
  6
CONTINUOUS
 10
23.9369579492
 20
26.9018382869
 11
24.0917376517
 21
27.4794840004
  0
LINE
  5
663
100
AcDbEntity
  8
0
100
AcDbLine
 62
7
  6
CONTINUOUS
 10
25.1315153996
 20
26.9018382869
 11
25.1404317484
 21
26.9233642572
  0
LINE
  5
664
100
AcDbEntity
  8
0
100
AcDbLine
 62
7
  6
CONTINUOUS
 10
-26.4872349342
 20
-34.3311404445
 11
-26.6184849342
 21
-34.420502136
  0
LINE
  5
665
100
AcDbEntity
  8
0
100
AcDbLine
 62
7
  6
CONTINUOUS
 10
-26.5747346004
 20
-34.6439063647
 11
-26.3122346004
 21
-34.4651829817
  0
LINE
  5
666
100
AcDbEntity
  8
0
100
AcDbLine
 62
7
  6
CONTINUOUS
 10
-26.4872349342
 20
-35.090714916
 11
-26.6184849342
 21
-35.1800766074
  0
LINE
  5
667
100
AcDbEntity
  8
0
100
AcDbLine
 62
7
  6
CONTINUOUS
 10
-32.3934846839
 20
-35.4034808635
 11
-32.174734517
 21
-35.2694383145
  0
LINE
  5
668
100
AcDbEntity
  8
0
100
AcDbLine
 62
7
  6
CONTINUOUS
 10
-27.2309846004
 20
-33.3928425589
 11
-27.4497347673
 21
-33.5268850961
  0
LINE
  5
669
100
AcDbEntity
  8
0
100
AcDbLine
 62
7
  6
CONTINUOUS
 10
-30.3809846004
 20
-35.4034808635
 11
-30.1622344335
 21
-35.2694383145
  0
LINE
  5
66A
100
AcDbEntity
  8
0
100
AcDbLine
 62
7
  6
CONTINUOUS
 10
-26.5747346004
 20
-35.4034808635
 11
-26.3559849342
 21
-35.2694383145
  0
LINE
  5
66B
100
AcDbEntity
  8
0
100
AcDbLine
 62
7
  6
CONTINUOUS
 10
-34.9309846109
 20
-33.3928425589
 11
-35.1059846004
 21
-33.4822042504
  0
LINE
  5
66C
100
AcDbEntity
  8
0
100
AcDbLine
 62
7
  6
CONTINUOUS
 10
-32.8684846004
 20
-32.405608523
 11
-32.7018178543
 21
-32.320502139
  0
LINE
  5
66D
100
AcDbEntity
  8
0
100
AcDbLine
 62
7
  6
CONTINUOUS
 10
-28.0351511082
 20
-30.4907148996
 11
-28.2018180927
 21
-30.5758212724
  0
LINE
  5
66E
100
AcDbEntity
  8
0
100
AcDbLine
 62
7
  6
CONTINUOUS
 10
-26.2018176159
 20
-30.4907148996
 11
-26.3684846004
 21
-30.5758212724
  0
LINE
  5
66F
100
AcDbEntity
  8
0
100
AcDbLine
 62
7
  6
CONTINUOUS
 10
-27.285151585
 20
-32.1502893784
 11
-27.3684846004
 21
-32.1928425648
  0
LINE
  5
670
100
AcDbEntity
  8
0
100
AcDbLine
 62
7
  6
CONTINUOUS
 10
-27.3684846004
 20
-32.405608523
 11
-27.2018176159
 21
-32.320502139
  0
LINE
  5
671
100
AcDbEntity
  8
0
100
AcDbLine
 62
7
  6
CONTINUOUS
 10
-25.4518176159
 20
-32.1502893784
 11
-25.535151585
 21
-32.1928425648
  0
LINE
  5
672
100
AcDbEntity
  8
0
100
AcDbLine
 62
7
  6
CONTINUOUS
 10
-25.535151585
 20
-32.405608523
 11
-25.3684846004
 21
-32.320502139
  0
LINE
  5
673
100
AcDbEntity
  8
0
100
AcDbLine
 62
7
  6
CONTINUOUS
 10
-33.4518178543
 20
-30.7460340181
 11
-33.3268178543
 21
-30.7034808316
  0
LINE
  5
674
100
AcDbEntity
  8
0
100
AcDbLine
 62
7
  6
CONTINUOUS
 10
-34.7018179735
 20
-31.2566723743
 11
-34.8268179735
 21
-31.2992255607
  0
LINE
  5
675
100
AcDbEntity
  8
0
100
AcDbLine
 62
253
  6
CONTINUOUS
 10
47.1712931475
 20
27.4794840004
 11
47.1775308306
 21
27.4811553826
  0
LINE
  5
676
100
AcDbEntity
  8
0
100
AcDbLine
 62
253
  6
CONTINUOUS
 10
43.6712931475
 20
27.4794840004
 11
43.6775308306
 21
27.4811553826
  0
LINE
  5
677
100
AcDbEntity
  8
0
100
AcDbLine
 62
253
  6
CONTINUOUS
 10
-46.9082623483
 20
27.4794840004
 11
-46.9145000315
 21
27.4811553826
  0
LINE
  5
678
100
AcDbEntity
  8
0
100
AcDbLine
 62
253
  6
CONTINUOUS
 10
-43.4082623483
 20
27.4794840004
 11
-43.4145000315
 21
27.4811553826
  0
LINE
  5
679
100
AcDbEntity
  8
0
100
AcDbLine
 62
7
  6
CONTINUOUS
 10
25.1315153996
 20
-25.7981617131
 11
25.1404317484
 21
-25.8196876834
  0
LINE
  5
67A
100
AcDbEntity
  8
0
100
AcDbLine
 62
7
  6
CONTINUOUS
 10
26.6823743996
 20
-33.7169117131
 11
26.7147420717
 21
-33.8369104976
  0
LINE
  5
67B
100
AcDbEntity
  8
0
100
AcDbLine
 62
7
  6
CONTINUOUS
 10
27.0843748631
 20
-34.3169113579
 11
26.7403043999
 21
-33.0412857143
  0
LINE
  5
67C
100
AcDbEntity
  8
0
100
AcDbLine
 62
7
  6
CONTINUOUS
 10
28.8123743996
 20
-33.7169117131
 11
28.8447420717
 21
-33.8369104976
  0
LINE
  5
67D
100
AcDbEntity
  8
0
100
AcDbLine
 62
7
  6
CONTINUOUS
 10
21.3985026977
 20
-25.7981617131
 11
21.404270564
 21
-25.8196876834
  0
LINE
  5
67E
100
AcDbEntity
  8
0
100
AcDbLine
 62
7
  6
CONTINUOUS
 10
21.8315153996
 20
-25.5481617131
 11
21.8372832659
 21
-25.5696876834
  0
LINE
  5
67F
100
AcDbEntity
  8
0
100
AcDbLine
 62
7
  6
CONTINUOUS
 10
24.0854999685
 20
-26.3774788088
 11
23.9360402869
 21
-25.8196876834
  0
LINE
  5
680
100
AcDbEntity
  8
0
100
AcDbLine
 62
7
  6
CONTINUOUS
 10
24.0917376517
 20
-26.3758074267
 11
23.9369579492
 21
-25.7981617131
  0
LINE
  5
681
100
AcDbEntity
  8
0
100
AcDbLine
 62
7
  6
CONTINUOUS
 10
21.3260728499
 20
-25.7981617131
 11
21.3269905122
 21
-25.8196876834
  0
LINE
  5
682
100
AcDbEntity
  8
0
100
AcDbLine
 62
7
  6
CONTINUOUS
 10
20.4369579492
 20
26.9018382869
 11
20.4360402869
 21
26.9233642572
  0
LINE
  5
683
100
AcDbEntity
  8
0
100
AcDbLine
 62
7
  6
CONTINUOUS
 10
24.8260728499
 20
-25.7981617131
 11
24.8269905122
 21
-25.8196876834
  0
LINE
  5
684
100
AcDbEntity
  8
0
100
AcDbLine
 62
7
  6
CONTINUOUS
 10
23.9369579492
 20
26.9018382869
 11
23.9360402869
 21
26.9233642572
  0
LINE
  5
685
100
AcDbEntity
  8
0
100
AcDbLine
 62
7
  6
CONTINUOUS
 10
19.4376066162
 20
-25.1346952489
 11
19.4376066162
 21
-24.7481617131
  0
LINE
  5
686
100
AcDbEntity
  8
0
100
AcDbLine
 62
7
  6
CONTINUOUS
 10
19.4376066162
 20
25.8518382869
 11
19.4376066162
 21
26.2383718227
  0
LINE
  5
687
100
AcDbEntity
  8
0
100
AcDbLine
 62
253
  6
CONTINUOUS
 10
19.621582406
 20
26.3934647036
 11
19.621582406
 21
25.8521123799
  0
LINE
  5
688
100
AcDbEntity
  8
0
100
AcDbLine
 62
253
  6
CONTINUOUS
 10
19.621582406
 20
-24.7484358062
 11
19.621582406
 21
-25.2897881299
  0
LINE
  5
689
100
AcDbEntity
  8
0
100
AcDbLine
 62
253
  6
CONTINUOUS
 10
19.8213083129
 20
26.5916312002
 11
19.8213083129
 21
26.0518382869
  0
LINE
  5
68A
100
AcDbEntity
  8
0
100
AcDbLine
 62
253
  6
CONTINUOUS
 10
19.8213083129
 20
-24.9481617131
 11
19.8213083129
 21
-25.4879546265
  0
LINE
  5
68B
100
AcDbEntity
  8
0
100
AcDbLine
 62
7
  6
CONTINUOUS
 10
20.5430853996
 20
-34.9376137131
 11
20.5430853996
 21
-35.3542787131
  0
LINE
  5
68C
100
AcDbEntity
  8
0
100
AcDbLine
 62
7
  6
CONTINUOUS
 10
20.5566923996
 20
-31.5584587131
 11
20.5566923996
 21
-31.9774157131
  0
LINE
  5
68D
100
AcDbEntity
  8
0
100
AcDbLine
 62
7
  6
CONTINUOUS
 10
20.9123403996
 20
-31.9774157131
 11
20.9123403996
 21
-33.0397747131
  0
LINE
  5
68E
100
AcDbEntity
  8
0
100
AcDbLine
 62
7
  6
CONTINUOUS
 10
20.9123403996
 20
-33.5561307131
 11
20.9123403996
 21
-34.9376137131
  0
LINE
  5
68F
100
AcDbEntity
  8
0
100
AcDbLine
 62
7
  6
CONTINUOUS
 10
21.1315153996
 20
35.5518382869
 11
21.1315153996
 21
29.5518382869
  0
LINE
  5
690
100
AcDbEntity
  8
0
100
AcDbLine
 62
7
  6
CONTINUOUS
 10
21.3562193996
 20
-34.9376137131
 11
21.3562193996
 21
-33.5514707131
  0
LINE
  5
691
100
AcDbEntity
  8
0
100
AcDbLine
 62
7
  6
CONTINUOUS
 10
21.3562193996
 20
-33.0397747131
 11
21.3562193996
 21
-31.9774157131
  0
LINE
  5
692
100
AcDbEntity
  8
0
100
AcDbLine
 62
7
  6
CONTINUOUS
 10
21.6802433996
 20
34.5512122869
 11
21.6802433996
 21
30.5524642869
  0
LINE
  5
693
100
AcDbEntity
  8
0
100
AcDbLine
 62
7
  6
CONTINUOUS
 10
21.7117243996
 20
-31.9774157131
 11
21.7117243996
 21
-31.5584587131
  0
LINE
  5
694
100
AcDbEntity
  8
0
100
AcDbLine
 62
7
  6
CONTINUOUS
 10
21.7253313996
 20
-35.3542787131
 11
21.7253313996
 21
-34.9376137131
  0
LINE
  5
695
100
AcDbEntity
  8
0
100
AcDbLine
 62
7
  6
CONTINUOUS
 10
22.3943663996
 20
31.1870872869
 11
22.3943663996
 21
32.2875792869
  0
LINE
  5
696
100
AcDbEntity
  8
0
100
AcDbLine
 62
7
  6
CONTINUOUS
 10
22.3943663996
 20
32.9222692869
 11
22.3943663996
 21
33.9165722869
  0
LINE
  5
697
100
AcDbEntity
  8
0
100
AcDbLine
 62
7
  6
CONTINUOUS
 10
24.3630483996
 20
32.2875932869
 11
24.3630483996
 21
32.9222542869
  0
LINE
  5
698
100
AcDbEntity
  8
0
100
AcDbLine
 62
7
  6
CONTINUOUS
 10
24.5063403996
 20
33.9165652869
 11
24.5063403996
 21
34.5512122869
  0
LINE
  5
699
100
AcDbEntity
  8
0
100
AcDbLine
 62
7
  6
CONTINUOUS
 10
24.5224133996
 20
30.5524642869
 11
24.5224133996
 21
31.1871112869
  0
LINE
  5
69A
100
AcDbEntity
  8
0
100
AcDbLine
 62
7
  6
CONTINUOUS
 10
21.3260728499
 20
26.9018382869
 11
21.3269905122
 21
26.9233642572
  0
LINE
  5
69B
100
AcDbEntity
  8
0
100
AcDbLine
 62
7
  6
CONTINUOUS
 10
20.4369579492
 20
-25.7981617131
 11
20.4360402869
 21
-25.8196876834
  0
LINE
  5
69C
100
AcDbEntity
  8
0
100
AcDbLine
 62
7
  6
CONTINUOUS
 10
24.8260728499
 20
26.9018382869
 11
24.8269905122
 21
26.9233642572
  0
LINE
  5
69D
100
AcDbEntity
  8
0
100
AcDbLine
 62
7
  6
CONTINUOUS
 10
23.9369579492
 20
-25.7981617131
 11
23.9360402869
 21
-25.8196876834
  0
LINE
  5
69E
100
AcDbEntity
  8
0
100
AcDbLine
 62
7
  6
CONTINUOUS
 10
2.9417224862
 20
-24.9481617131
 11
2.9588180603
 21
-24.9309219471
  0
LWPOLYLINE
  5
69F
100
AcDbEntity
  8
0
100
AcDbPolyline
 62
7
  6
CONTINUOUS
 90
3
 70
0
 10
3.1357823458
 20
-24.7541018535
 10
3.1403960807
 20
-24.7494368758
 10
3.1414483932
 20
-24.7484358062
  0
LINE
  5
6A0
100
AcDbEntity
  8
0
100
AcDbLine
 62
7
  6
CONTINUOUS
 10
2.9417224862
 20
-25.4879546265
 11
2.6315153996
 21
-25.7981617131
  0
LINE
  5
6A1
100
AcDbEntity
  8
0
100
AcDbLine
 62
7
  6
CONTINUOUS
 10
3.3254241829
 20
-25.1346952489
 11
2.6404317484
 21
-25.8196876834
  0
LINE
  5
6A2
100
AcDbEntity
  8
0
100
AcDbLine
 62
7
  6
CONTINUOUS
 10
2.9588180603
 20
-24.9309219471
 11
3.1357823458
 21
-24.7541018535
  0
LINE
  5
6A3
100
AcDbEntity
  8
0
100
AcDbLine
 62
7
  6
CONTINUOUS
 10
3.1414483932
 20
-25.2897881299
 11
3.3254241829
 21
-25.1346952489
  0
LINE
  5
6A4
100
AcDbEntity
  8
0
100
AcDbLine
 62
7
  6
CONTINUOUS
 10
-0.6684846004
 20
-25.5481617131
 11
-1.1014973023
 21
-25.7981617131
  0
LINE
  5
6A5
100
AcDbEntity
  8
0
100
AcDbLine
 62
7
  6
CONTINUOUS
 10
-0.6627167341
 20
-25.5696876834
 11
-1.095729436
 21
-25.8196876834
  0
LINE
  5
6A6
100
AcDbEntity
  8
0
100
AcDbLine
 62
7
  6
CONTINUOUS
 10
-34.7018179735
 20
-32.1502893784
 11
-34.8268179735
 21
-32.1928425648
  0
LINE
  5
6A7
100
AcDbEntity
  8
0
100
AcDbLine
 62
7
  6
CONTINUOUS
 10
-27.3684846004
 20
-31.2566723743
 11
-27.6184846004
 21
-31.3417787471
  0
LINE
  5
6A8
100
AcDbEntity
  8
0
100
AcDbLine
 62
7
  6
CONTINUOUS
 10
-25.535151585
 20
-31.2566723743
 11
-25.785151585
 21
-31.3417787471
  0
LINE
  5
6A9
100
AcDbEntity
  8
0
100
AcDbLine
 62
7
  6
CONTINUOUS
 10
-30.9934847673
 20
-33.6162467876
 11
-30.8622347673
 21
-33.5715659418
  0
LINE
  5
6AA
100
AcDbEntity
  8
0
100
AcDbLine
 62
7
  6
CONTINUOUS
 10
-30.9934847673
 20
-34.3758212903
 11
-30.8622347673
 21
-34.3311404445
  0
LINE
  5
6AB
100
AcDbEntity
  8
0
100
AcDbLine
 62
7
  6
CONTINUOUS
 10
-27.1872347673
 20
-33.6162467876
 11
-27.0559847673
 21
-33.5715659418
  0
LINE
  5
6AC
100
AcDbEntity
  8
0
100
AcDbLine
 62
7
  6
CONTINUOUS
 10
-30.4247344335
 20
-35.1800766074
 11
-30.5559844335
 21
-35.2247574532
  0
LINE
  5
6AD
100
AcDbEntity
  8
0
100
AcDbLine
 62
7
  6
CONTINUOUS
 10
-26.6184849342
 20
-34.420502136
 11
-26.7497349342
 21
-34.4651829817
  0
LINE
  5
6AE
100
AcDbEntity
  8
0
100
AcDbLine
 62
253
  6
CONTINUOUS
 10
24.6712931475
 20
27.4794840004
 11
24.6775308306
 21
27.4811553826
  0
LINE
  5
6AF
100
AcDbEntity
  8
0
100
AcDbLine
 62
253
  6
CONTINUOUS
 10
21.1712931475
 20
27.4794840004
 11
21.1775308306
 21
27.4811553826
  0
LWPOLYLINE
  5
6B0
100
AcDbEntity
  8
RACCORDO
100
AcDbPolyline
 62
253
  6
CONTINUOUS
 90
16
 70
0
 10
57.3418550223
 20
23.2115346861
 10
57.3529916583
 20
23.2120691869
 10
57.3641460757
 20
23.2125416683
 10
57.3751789735
 20
23.2129462298
 10
57.3859525683
 20
23.213277819
 10
57.3963323152
 20
23.2135322949
 10
57.4061885876
 20
23.2137064796
 10
57.4153982964
 20
23.2137981977
 10
57.4238464268
 20
23.2138063038
 10
57.4314274753
 20
23.2137306967
 10
57.4380467666
 20
23.2135723207
 10
57.4436216362
 20
23.2133331535
 10
57.448082463
 20
23.213016182
 10
57.4513735383
 20
23.2126253647
 10
57.4534537617
 20
23.2121655823
 10
57.4542971547
 20
23.2116425767
  0
LINE
  5
6B1
100
AcDbEntity
  8
RACCORDO
100
AcDbLine
 62
253
  6
CONTINUOUS
 10
58.0099846563
 20
23.2368982074
 11
57.4542971415
 21
23.2116428461
  0
LWPOLYLINE
  5
6B2
100
AcDbEntity
  8
RACCORDO
100
AcDbPolyline
 62
253
  6
CONTINUOUS
 90
22
 70
0
 10
-55.5184992238
 20
23.7013282261
 10
-55.574978652
 20
23.7000142269
 10
-55.6311788897
 20
23.6960961057
 10
-55.6869781488
 20
23.689603764
 10
-55.7421301156
 20
23.6805960331
 10
-55.796647695
 20
23.6691020202
 10
-55.8507912986
 20
23.6550644862
 10
-55.9045227665
 20
23.6384568621
 10
-55.9576265871
 20
23.6193075015
 10
-56.0100794813
 20
23.5975858228
 10
-56.061780227
 20
23.5732820378
 10
-56.1125580696
 20
23.5464243554
 10
-56.1622780765
 20
23.5170352699
 10
-56.2107786331
 20
23.4851598725
 10
-56.257947039
 20
23.4508214309
 10
-56.3037143852
 20
23.4140109656
 10
-56.3478974729
 20
23.3748070245
 10
-56.3903925927
 20
23.3332302051
 10
-56.4312187205
 20
23.289162894
 10
-56.4702568709
 20
23.2425904808
 10
-56.5072779528
 20
23.193629422
 10
-56.542109984
 20
23.1423513788
  0
LWPOLYLINE
  5
6B3
100
AcDbEntity
  8
RACCORDO
100
AcDbPolyline
 62
253
  6
CONTINUOUS
 90
13
 70
0
 10
57.106801163
 20
22.4561337358
 10
57.0954035016
 20
22.4560150687
 10
57.0843284553
 20
22.4558402532
 10
57.073724905
 20
22.4556116391
 10
57.0637353947
 20
22.4553322994
 10
57.0544942157
 20
22.4550059887
 10
57.0461256006
 20
22.4546370936
 10
57.0387420517
 20
22.4542305727
 10
57.0324428328
 20
22.4537918908
 10
57.0273126334
 20
22.4533269453
 10
57.0234204235
 20
22.4528419864
 10
57.0208185292
 20
22.4523435334
 10
57.0195419323
 20
22.4518382869
  0
LINE
  5
6B4
100
AcDbEntity
  8
RACCORDO
100
AcDbLine
 62
253
  6
CONTINUOUS
 10
-56.7184846004
 20
22.4518382869
 11
-56.7565184976
 21
22.45178925
  0
LINE
  5
6B5
100
AcDbEntity
  8
RACCORDO
100
AcDbLine
 62
253
  6
CONTINUOUS
 10
56.9815153996
 20
22.4518382869
 11
57.0195492032
 21
22.4518384228
  0
LINE
  5
6B6
100
AcDbEntity
  8
RACCORDO
100
AcDbLine
 62
7
  6
CONTINUOUS
 10
55.7823376787
 20
23.0518382869
 11
-55.5193068796
 21
23.0518382869
  0
LINE
  5
6B7
100
AcDbEntity
  8
DRAFT
100
AcDbLine
 62
7
  6
CONTINUOUS
 10
-55.5184846004
 20
23.6518382869
 11
55.7815153996
 21
23.6518382869
  0
LINE
  5
6B8
100
AcDbEntity
  8
RACCORDO
100
AcDbLine
 62
253
  6
CONTINUOUS
 10
55.7814581408
 20
23.7013282529
 11
-55.5184992238
 21
23.7013282529
  0
LINE
  5
6B9
100
AcDbEntity
  8
RACCORDO
100
AcDbLine
 62
253
  6
CONTINUOUS
 10
55.7816071475
 20
23.7607926975
 11
-55.5185762632
 21
23.7607927016
  0
LINE
  5
6BA
100
AcDbEntity
  8
0
100
AcDbLine
 62
7
  6
CONTINUOUS
 10
47.8815153996
 20
25.6018382869
 11
42.3815153996
 21
25.6018382869
  0
LINE
  5
6BB
100
AcDbEntity
  8
0
100
AcDbLine
 62
7
  6
CONTINUOUS
 10
-42.1184846004
 20
25.6018382869
 11
-47.6184846004
 21
25.6018382869
  0
LWPOLYLINE
  5
6BC
100
AcDbEntity
  8
RACCORDO
100
AcDbPolyline
 62
253
  6
CONTINUOUS
 90
13
 70
0
 10
-56.8437702021
 20
22.456133791
 10
-56.8323730672
 20
22.4560150884
 10
-56.8212986444
 20
22.4558402427
 10
-56.8106957925
 20
22.4556116041
 10
-56.8007070318
 20
22.4553322459
 10
-56.791466628
 20
22.4550059231
 10
-56.7830987878
 20
22.454637022
 10
-56.775715989
 20
22.4542305014
 10
-56.7694174688
 20
22.4537918255
 10
-56.7642878901
 20
22.4533268909
 10
-56.760396203
 20
22.452841947
 10
-56.7577947183
 20
22.4523435124
 10
-56.7565184044
 20
22.4518382869
  0
LWPOLYLINE
  5
6BD
100
AcDbEntity
  8
RACCORDO
100
AcDbPolyline
 62
7
  6
CONTINUOUS
 90
7
 70
0
 10
55.7815153995
 20
23.7626950688
 10
55.7899175696
 20
23.7625024425
 10
55.7982973979
 20
23.7621610397
 10
55.8066522347
 20
23.7616716375
 10
55.8149794468
 20
23.7610351727
 10
55.823276418
 20
23.7602527467
 10
55.8315405504
 20
23.7593256329
  0
LINE
  5
6BE
100
AcDbEntity
  8
RACCORDO
100
AcDbLine
 62
253
  6
CONTINUOUS
 10
-57.7469538571
 20
23.2368982075
 11
-57.1912663502
 21
23.2116426713
  0
LWPOLYLINE
  5
6BF
100
AcDbEntity
  8
RACCORDO
100
AcDbPolyline
 62
253
  6
CONTINUOUS
 90
16
 70
0
 10
-57.0788242573
 20
23.2115346741
 10
-57.0899608734
 20
23.2120691735
 10
-57.1011152708
 20
23.2125416537
 10
-57.1121481492
 20
23.2129462144
 10
-57.122921726
 20
23.2132778031
 10
-57.1333014569
 20
23.2135322789
 10
-57.143157716
 20
23.2137064638
 10
-57.1523674147
 20
23.2137981824
 10
-57.1608155391
 20
23.2138062895
 10
-57.1683965858
 20
23.2137306837
 10
-57.1750158799
 20
23.2135723093
 10
-57.1805907572
 20
23.213333144
 10
-57.1850515968
 20
23.2130161746
 10
-57.18834269
 20
23.2126253597
 10
-57.1904229363
 20
23.2121655798
 10
-57.191266357
 20
23.2116425768
  0
LINE
  5
6C0
100
AcDbEntity
  8
0
100
AcDbLine
 62
253
  6
CONTINUOUS
 10
-24.4082623483
 20
27.4794840004
 11
-24.4145000315
 21
27.4811553826
  0
LINE
  5
6C1
100
AcDbEntity
  8
0
100
AcDbLine
 62
253
  6
CONTINUOUS
 10
-20.9082623483
 20
27.4794840004
 11
-20.9145000315
 21
27.4811553826
  0
LINE
  5
6C2
100
AcDbEntity
  8
0
100
AcDbLine
 62
7
  6
CONTINUOUS
 10
-1.1014973023
 20
26.9018382869
 11
-0.6684846004
 21
26.6518382869
  0
LINE
  5
6C3
100
AcDbEntity
  8
0
100
AcDbLine
 62
7
  6
CONTINUOUS
 10
-1.095729436
 20
26.9233642572
 11
-0.6627167341
 21
26.6733642572
  0
LINE
  5
6C4
100
AcDbEntity
  8
0
100
AcDbLine
 62
7
  6
CONTINUOUS
 10
3.1414483932
 20
26.3934647036
 11
3.3254241829
 21
26.2383718227
  0
LINE
  5
6C5
100
AcDbEntity
  8
0
100
AcDbLine
 62
7
  6
CONTINUOUS
 10
3.1414483932
 20
25.8521123799
 11
3.1403960807
 21
25.8531134495
  0
LWPOLYLINE
  5
6C6
100
AcDbEntity
  8
0
100
AcDbPolyline
 62
7
  6
CONTINUOUS
 90
3
 70
0
 10
3.00659493
 20
25.9870050843
 10
2.9588180603
 20
26.0345985208
 10
2.9417224862
 20
26.0518382869
  0
LINE
  5
6C7
100
AcDbEntity
  8
0
100
AcDbLine
 62
7
  6
CONTINUOUS
 10
2.6315153996
 20
26.9018382869
 11
2.9417224862
 21
26.5916312002
  0
LINE
  5
6C8
100
AcDbEntity
  8
0
100
AcDbLine
 62
7
  6
CONTINUOUS
 10
2.6404317484
 20
26.9233642572
 11
3.3254241829
 21
26.2383718227
  0
LINE
  5
6C9
100
AcDbEntity
  8
0
100
AcDbLine
 62
7
  6
CONTINUOUS
 10
3.1321503159
 20
25.8614310634
 11
3.00659493
 21
25.9870050843
  0
LWPOLYLINE
  5
6CA
100
AcDbEntity
  8
0
100
AcDbPolyline
 62
7
  6
CONTINUOUS
 90
3
 70
0
 10
3.1403960807
 20
25.8531134495
 10
3.1357823458
 20
25.8577784272
 10
3.1321503159
 20
25.8614310634
  0
LINE
  5
6CB
100
AcDbEntity
  8
0
100
AcDbLine
 62
7
  6
CONTINUOUS
 10
29.2143748631
 20
-34.3169113579
 11
28.8703043996
 21
-33.0412857131
  0
LWPOLYLINE
  5
6CC
100
AcDbEntity
  8
0
100
AcDbPolyline
 62
7
  6
CONTINUOUS
 90
16
 70
0
 10
30.4047003532
 20
32.5522405473
 10
30.4075267097
 20
32.4352260922
 10
30.4154732835
 20
32.3194336307
 10
30.4285400747
 20
32.2048631627
 10
30.4469453768
 20
32.0908795467
 10
30.4704708962
 20
31.9781179242
 10
30.4984617524
 20
31.8684837197
 10
30.5311028958
 20
31.7620765069
 10
30.568209376
 20
31.6587967121
 10
30.6085714614
 20
31.5602510376
 10
30.6522405407
 20
31.4666879722
 10
30.6991652252
 20
31.3778590272
 10
30.7479816162
 20
31.2946254386
 10
30.7982350812
 20
31.217274285
 10
30.8503802527
 20
31.1455184879
 10
30.9044171309
 20
31.0793580473
  0
LINE
  5
6CD
100
AcDbEntity
  8
0
100
AcDbLine
 62
7
  6
CONTINUOUS
 10
25.3812713996
 20
34.5512122869
 11
25.3812713996
 21
30.5524642869
  0
LINE
  5
6CE
100
AcDbEntity
  8
0
100
AcDbLine
 62
253
  6
CONTINUOUS
 10
25.4417224862
 20
-25.4879546265
 11
25.4417224862
 21
-24.9481617131
  0
LINE
  5
6CF
100
AcDbEntity
  8
0
100
AcDbLine
 62
253
  6
CONTINUOUS
 10
25.4417224862
 20
26.0518382869
 11
25.4417224862
 21
26.5916312002
  0
LINE
  5
6D0
100
AcDbEntity
  8
0
100
AcDbLine
 62
253
  6
CONTINUOUS
 10
25.6414483932
 20
-25.2897881299
 11
25.6414483932
 21
-24.7484358062
  0
LINE
  5
6D1
100
AcDbEntity
  8
0
100
AcDbLine
 62
253
  6
CONTINUOUS
 10
25.6414483932
 20
25.8521123799
 11
25.6414483932
 21
26.3934647036
  0
LINE
  5
6D2
100
AcDbEntity
  8
0
100
AcDbLine
 62
7
  6
CONTINUOUS
 10
25.8254241829
 20
26.2383718227
 11
25.8254241829
 21
25.8518382869
  0
LINE
  5
6D3
100
AcDbEntity
  8
0
100
AcDbLine
 62
7
  6
CONTINUOUS
 10
25.8254241829
 20
-24.7481617131
 11
25.8254241829
 21
-25.1346952489
  0
LINE
  5
6D4
100
AcDbEntity
  8
0
100
AcDbLine
 62
7
  6
CONTINUOUS
 10
26.0954343996
 20
30.5524642869
 11
26.0954343996
 21
34.5512122869
  0
LINE
  5
6D5
100
AcDbEntity
  8
0
100
AcDbLine
 62
7
  6
CONTINUOUS
 10
26.9447213996
 20
34.5512122869
 11
26.9447213996
 21
30.5524642869
  0
LINE
  5
6D6
100
AcDbEntity
  8
0
100
AcDbLine
 62
7
  6
CONTINUOUS
 10
27.5115153996
 20
-32.7581617131
 11
27.5115153996
 21
-32.9256697131
  0
LINE
  5
6D7
100
AcDbEntity
  8
0
100
AcDbLine
 62
7
  6
CONTINUOUS
 10
27.5115153996
 20
-34.4529195069
 11
27.5115153996
 21
-34.7981617131
  0
LINE
  5
6D8
100
AcDbEntity
  8
0
100
AcDbLine
 62
7
  6
CONTINUOUS
 10
27.5318353996
 20
-33.7361613549
 11
27.5318353996
 21
-33.8561617131
  0
LINE
  5
6D9
100
AcDbEntity
  8
0
100
AcDbLine
 62
7
  6
CONTINUOUS
 10
27.6588393996
 20
32.8077512869
 11
27.6588533996
 21
34.5512122869
  0
LINE
  5
6DA
100
AcDbEntity
  8
0
100
AcDbLine
 62
7
  6
CONTINUOUS
 10
27.6588533996
 20
30.5524642869
 11
27.6588393996
 21
31.9383022869
  0
LINE
  5
6DB
100
AcDbEntity
  8
0
100
AcDbLine
 62
7
  6
CONTINUOUS
 10
27.7515153996
 20
-34.7981617131
 11
27.7515153996
 21
-34.4529197131
  0
LINE
  5
6DC
100
AcDbEntity
  8
0
100
AcDbLine
 62
7
  6
CONTINUOUS
 10
27.7515153996
 20
-32.9256690735
 11
27.7515153996
 21
-32.7581617131
  0
LINE
  5
6DD
100
AcDbEntity
  8
0
100
AcDbLine
 62
7
  6
CONTINUOUS
 10
27.7617303996
 20
-33.5261616565
 11
27.7617303996
 21
-33.4061617131
  0
LWPOLYLINE
  5
6DE
100
AcDbEntity
  8
0
100
AcDbPolyline
 62
7
  6
CONTINUOUS
 90
16
 70
0
 10
31.1233016309
 20
32.5518524917
 10
31.1262270828
 20
32.654176033
 10
31.1331275582
 20
32.7528407711
 10
31.1440030572
 20
32.8478467058
 10
31.1592050471
 20
32.9394664521
 10
31.1783820605
 20
33.027427395
 10
31.2004796958
 20
33.1109116904
 10
31.2254370972
 20
33.1895853247
 10
31.2533151204
 20
33.2637823115
 10
31.2832419314
 20
33.3336868462
 10
31.3151448854
 20
33.3992939002
 10
31.3490966272
 20
33.4606085021
 10
31.384443257
 20
33.5178299341
 10
31.4209668084
 20
33.5710246233
 10
31.4588852479
 20
33.6201261425
 10
31.4981985754
 20
33.6651344917
  0
LINE
  5
6DF
100
AcDbEntity
  8
0
100
AcDbLine
 62
7
  6
CONTINUOUS
 10
21.3260728499
 20
-25.7981617131
 11
21.1712931475
 21
-26.3758074267
  0
LINE
  5
6E0
100
AcDbEntity
  8
0
100
AcDbLine
 62
7
  6
CONTINUOUS
 10
21.3269905122
 20
-25.8196876834
 11
21.1775308306
 21
-26.3774788088
  0
LINE
  5
6E1
100
AcDbEntity
  8
0
100
AcDbLine
 62
7
  6
CONTINUOUS
 10
23.4315153996
 20
-25.5481617131
 11
23.4257475332
 21
-25.5696876834
  0
LINE
  5
6E2
100
AcDbEntity
  8
0
100
AcDbLine
 62
7
  6
CONTINUOUS
 10
23.8645281015
 20
-25.7981617131
 11
23.8587602351
 21
-25.8196876834
  0
LINE
  5
6E3
100
AcDbEntity
  8
0
100
AcDbLine
 62
7
  6
CONTINUOUS
 10
24.8260728499
 20
-25.7981617131
 11
24.6712931475
 21
-26.3758074267
  0
LINE
  5
6E4
100
AcDbEntity
  8
0
100
AcDbLine
 62
7
  6
CONTINUOUS
 10
24.8269905122
 20
-25.8196876834
 11
24.6775308306
 21
-26.3774788088
  0
LINE
  5
6E5
100
AcDbEntity
  8
0
100
AcDbLine
 62
7
  6
CONTINUOUS
 10
20.1315153996
 20
-25.7981617131
 11
20.1225990507
 21
-25.8196876834
  0
LINE
  5
6E6
100
AcDbEntity
  8
0
100
AcDbLine
 62
7
  6
CONTINUOUS
 10
-26.6184849342
 20
-35.1800766074
 11
-26.7497349342
 21
-35.2247574532
  0
LINE
  5
6E7
100
AcDbEntity
  8
0
100
AcDbLine
 62
253
  6
CONTINUOUS
 10
2.1712931475
 20
27.4794840004
 11
2.1775308306
 21
27.4811553826
  0
LINE
  5
6E8
100
AcDbEntity
  8
0
100
AcDbLine
 62
253
  6
CONTINUOUS
 10
-1.3287068525
 20
27.4794840004
 11
-1.3224691694
 21
27.4811553826
  0
LWPOLYLINE
  5
6E9
100
AcDbEntity
  8
RACCORDO
100
AcDbPolyline
 62
7
  6
CONTINUOUS
 90
7
 70
0
 10
-55.5711029246
 20
23.759222021
 10
-55.5624066032
 20
23.7601658594
 10
-55.5536773818
 20
23.7609651438
 10
-55.5449179025
 20
23.7616186674
 10
-55.5361308252
 20
23.7621253802
 10
-55.5273188265
 20
23.7624843831
 10
-55.5184845995
 20
23.7626949225
  0
LWPOLYLINE
  5
6EA
100
AcDbEntity
  8
RACCORDO
100
AcDbPolyline
 62
253
  6
CONTINUOUS
 90
22
 70
0
 10
-55.5711029321
 20
23.7592171926
 10
-55.6282352675
 20
23.7550675721
 10
-55.6849015577
 20
23.7486509327
 10
-55.7411018025
 20
23.7399672744
 10
-55.7968490149
 20
23.7290752754
 10
-55.852130182
 20
23.7159162576
 10
-55.9069062651
 20
23.7003141863
 10
-55.961258528
 20
23.6822132045
 10
-56.015105707
 20
23.6616691693
 10
-56.068164972
 20
23.6386736166
 10
-56.1204639761
 20
23.6132038734
 10
-56.1719750661
 20
23.5852826128
 10
-56.222332453
 20
23.5549693902
 10
-56.2715202549
 20
23.522263199
 10
-56.3195543535
 20
23.4871650459
 10
-56.3661166055
 20
23.4497375055
 10
-56.4111384316
 20
23.4100718883
 10
-56.454688411
 20
23.3680768838
 10
-56.4966541377
 20
23.3235411362
 10
-56.536998143
 20
23.2763941935
 10
-56.5757578956
 20
23.2267065075
 10
-56.6129333955
 20
23.1744780784
  0
LINE
  5
6EB
100
AcDbEntity
  8
RACCORDO
100
AcDbLine
 62
253
  6
CONTINUOUS
 10
74.8002909952
 20
36.6133670528
 11
74.164673473
 21
36.5672633136
  0
LINE
  5
6EC
100
AcDbEntity
  8
RACCORDO
100
AcDbLine
 62
253
  6
CONTINUOUS
 10
71.351754112
 20
36.3632316499
 11
72.6607318379
 21
36.4581767474
  0
LINE
  5
6ED
100
AcDbEntity
  8
RACCORDO
100
AcDbLine
 62
253
  6
CONTINUOUS
 10
75.7227073876
 20
36.6802733971
 11
76.2952602845
 21
36.7218028208
  0
LWPOLYLINE
  5
6EE
100
AcDbEntity
  8
RACCORDO
100
AcDbPolyline
 62
253
  6
CONTINUOUS
 90
18
 70
0
 10
-56.5328000369
 20
23.8637274125
 10
-50.2417118315
 20
24.1076159177
 10
-43.9490134672
 20
24.3228513241
 10
-37.6548342988
 20
24.5094213793
 10
-31.359208331
 20
24.6673165176
 10
-25.0623605187
 20
24.7965226572
 10
-18.7647068507
 20
24.8970255868
 10
-12.466377088
 20
24.9688193748
 10
-6.1675010067
 20
25.0118985578
 10
0.1315052131
 20
25.0262583954
 10
6.4305117112
 20
25.0118986494
 10
12.7293886274
 20
24.9688195504
 10
19.0277197821
 20
24.8970258312
 10
25.3253755515
 20
24.7965229448
 10
31.6222260217
 20
24.6673168165
 10
37.9178547471
 20
24.5094216625
 10
44.2120366202
 20
24.3228515682
 10
50.5047377883
 20
24.1076160945
  0
LWPOLYLINE
  5
6EF
100
AcDbEntity
  8
RACCORDO
100
AcDbPolyline
 62
253
  6
CONTINUOUS
 90
19
 70
0
 10
-55.5185762632
 20
23.7607927016
 10
-49.339796084
 20
23.9968912416
 10
-43.1597086704
 20
24.2051213646
 10
-36.9783140223
 20
24.3854830706
 10
-30.7953899166
 20
24.5379172762
 10
-24.6111585765
 20
24.6624830648
 10
-18.4262866709
 20
24.7593576864
 10
-12.2407829892
 20
24.8286034652
 10
-6.0546387419
 20
24.870158077
 10
0.1315057698
 20
24.8840117999
 10
6.3176505139
 20
24.8701581603
 10
12.5037955224
 20
24.8286036318
 10
18.6893005911
 20
24.7593579126
 10
24.8741747151
 20
24.6624833204
 10
31.0584088992
 20
24.5379175376
 10
37.2413359535
 20
24.3854833094
 10
43.4227334813
 20
24.2051215508
 10
49.6028238793
 20
23.9968913468
 10
55.7816071475
 20
23.7607926975
  0
LWPOLYLINE
  5
6F0
100
AcDbEntity
  8
RACCORDO
100
AcDbPolyline
 62
253
  6
CONTINUOUS
 90
3
 70
0
 10
-56.5286658273
 20
23.721566325
 10
-55.7307169537
 20
23.7533551669
 10
-55.5711029321
 20
23.7592171926
  0
LWPOLYLINE
  5
6F1
100
AcDbEntity
  8
0
100
AcDbPolyline
 62
7
  6
CONTINUOUS
 90
16
 70
0
 10
32.3278401865
 20
30.4637890473
 10
32.4527534254
 20
30.467836648
 10
32.5730653014
 20
30.4776571807
 10
32.6887758144
 20
30.4932506454
 10
32.7997623999
 20
30.5148468211
 10
32.9061476224
 20
30.5422159289
 10
33.0082991757
 20
30.5746686315
 10
33.1060224287
 20
30.6120017804
 10
33.1995120124
 20
30.6544185241
 10
33.2897195141
 20
30.701838971
 10
33.3774396259
 20
30.7546780307
 10
33.4618776557
 20
30.8125207936
 10
33.5416011145
 20
30.8740426388
 10
33.6161325058
 20
30.938802026
 10
33.6859493261
 20
31.0072404955
 10
33.7510515754
 20
31.0793580473
  0
LINE
  5
6F2
100
AcDbEntity
  8
0
100
AcDbLine
 62
7
  6
CONTINUOUS
 10
56.6315153996
 20
25.7518382869
 11
-56.3684846004
 21
25.7518382869
  0
LINE
  5
6F3
100
AcDbEntity
  8
0
100
AcDbLine
 62
7
  6
CONTINUOUS
 10
3.3254241829
 20
25.8518382869
 11
-3.0623933838
 21
25.8518382869
  0
LINE
  5
6F4
100
AcDbEntity
  8
0
100
AcDbLine
 62
7
  6
CONTINUOUS
 10
-19.1745758171
 20
25.8518382869
 11
-25.5623933838
 21
25.8518382869
  0
LINE
  5
6F5
100
AcDbEntity
  8
0
100
AcDbLine
 62
7
  6
CONTINUOUS
 10
19.4376066162
 20
25.8518382869
 11
25.8254241829
 21
25.8518382869
  0
LINE
  5
6F6
100
AcDbEntity
  8
0
100
AcDbLine
 62
253
  6
CONTINUOUS
 10
-47.6786916871
 20
25.9518382869
 11
-42.0582775138
 21
25.9518382869
  0
LINE
  5
6F7
100
AcDbEntity
  8
0
100
AcDbLine
 62
253
  6
CONTINUOUS
 10
42.3213083129
 20
25.9518382869
 11
47.9417224862
 21
25.9518382869
  0
LINE
  5
6F8
100
AcDbEntity
  8
0
100
AcDbLine
 62
253
  6
CONTINUOUS
 10
-25.1786916871
 20
26.0518382869
 11
-19.5582775138
 21
26.0518382869
  0
LINE
  5
6F9
100
AcDbEntity
  8
0
100
AcDbLine
 62
253
  6
CONTINUOUS
 10
-2.6786916871
 20
26.0518382869
 11
2.9417224862
 21
26.0518382869
  0
LINE
  5
6FA
100
AcDbEntity
  8
0
100
AcDbLine
 62
253
  6
CONTINUOUS
 10
19.8213083129
 20
26.0518382869
 11
25.4417224862
 21
26.0518382869
  0
LINE
  5
6FB
100
AcDbEntity
  8
0
100
AcDbLine
 62
7
  6
CONTINUOUS
 10
-45.6684846004
 20
26.6518382869
 11
-44.0684846004
 21
26.6518382869
  0
LINE
  5
6FC
100
AcDbEntity
  8
0
100
AcDbLine
 62
7
  6
CONTINUOUS
 10
-23.1684846004
 20
26.6518382869
 11
-21.5684846004
 21
26.6518382869
  0
LINE
  5
6FD
100
AcDbEntity
  8
0
100
AcDbLine
 62
7
  6
CONTINUOUS
 10
-0.6684846004
 20
26.6518382869
 11
0.9315153996
 21
26.6518382869
  0
LINE
  5
6FE
100
AcDbEntity
  8
0
100
AcDbLine
 62
7
  6
CONTINUOUS
 10
21.8315153996
 20
26.6518382869
 11
23.4315153996
 21
26.6518382869
  0
LINE
  5
6FF
100
AcDbEntity
  8
0
100
AcDbLine
 62
7
  6
CONTINUOUS
 10
44.3315153996
 20
26.6518382869
 11
45.9315153996
 21
26.6518382869
  0
LINE
  5
700
100
AcDbEntity
  8
0
100
AcDbLine
 62
7
  6
CONTINUOUS
 10
-45.6627167341
 20
26.6733642572
 11
-44.0742524668
 21
26.6733642572
  0
LINE
  5
701
100
AcDbEntity
  8
0
100
AcDbLine
 62
7
  6
CONTINUOUS
 10
-23.1627167341
 20
26.6733642572
 11
-21.5742524668
 21
26.6733642572
  0
LINE
  5
702
100
AcDbEntity
  8
0
100
AcDbLine
 62
7
  6
CONTINUOUS
 10
-0.6627167341
 20
26.6733642572
 11
0.9257475332
 21
26.6733642572
  0
LINE
  5
703
100
AcDbEntity
  8
0
100
AcDbLine
 62
7
  6
CONTINUOUS
 10
21.8372832659
 20
26.6733642572
 11
23.4257475332
 21
26.6733642572
  0
LINE
  5
704
100
AcDbEntity
  8
0
100
AcDbLine
 62
7
  6
CONTINUOUS
 10
44.3372832659
 20
26.6733642572
 11
45.9257475332
 21
26.6733642572
  0
LINE
  5
705
100
AcDbEntity
  8
0
100
AcDbLine
 62
7
  6
CONTINUOUS
 10
-47.3184846004
 20
26.9018382869
 11
-47.0630420508
 21
26.9018382869
  0
LINE
  5
706
100
AcDbEntity
  8
0
100
AcDbLine
 62
7
  6
CONTINUOUS
 10
-46.1739271501
 20
26.9018382869
 11
-46.1014973023
 21
26.9018382869
  0
LINE
  5
707
100
AcDbEntity
  8
0
100
AcDbLine
 62
7
  6
CONTINUOUS
 10
-43.6354718985
 20
26.9018382869
 11
-43.5630420508
 21
26.9018382869
  0
LINE
  5
708
100
AcDbEntity
  8
0
100
AcDbLine
 62
7
  6
CONTINUOUS
 10
-42.6739271501
 20
26.9018382869
 11
-42.4184846004
 21
26.9018382869
  0
LINE
  5
709
100
AcDbEntity
  8
0
100
AcDbLine
 62
7
  6
CONTINUOUS
 10
-24.8684846004
 20
26.9018382869
 11
-24.5630420508
 21
26.9018382869
  0
LINE
  5
70A
100
AcDbEntity
  8
0
100
AcDbLine
 62
7
  6
CONTINUOUS
 10
-23.6739271501
 20
26.9018382869
 11
-23.6014973023
 21
26.9018382869
  0
LINE
  5
70B
100
AcDbEntity
  8
0
100
AcDbLine
 62
7
  6
CONTINUOUS
 10
-21.1354718985
 20
26.9018382869
 11
-21.0630420508
 21
26.9018382869
  0
LINE
  5
70C
100
AcDbEntity
  8
0
100
AcDbLine
 62
7
  6
CONTINUOUS
 10
-20.1739271501
 20
26.9018382869
 11
-19.8684846004
 21
26.9018382869
  0
LINE
  5
70D
100
AcDbEntity
  8
0
100
AcDbLine
 62
7
  6
CONTINUOUS
 10
-2.3684846004
 20
26.9018382869
 11
-2.0630420508
 21
26.9018382869
  0
LINE
  5
70E
100
AcDbEntity
  8
0
100
AcDbLine
 62
7
  6
CONTINUOUS
 10
-1.1739271501
 20
26.9018382869
 11
-1.1014973023
 21
26.9018382869
  0
LINE
  5
70F
100
AcDbEntity
  8
0
100
AcDbLine
 62
7
  6
CONTINUOUS
 10
1.3645281015
 20
26.9018382869
 11
1.4369579492
 21
26.9018382869
  0
LINE
  5
710
100
AcDbEntity
  8
0
100
AcDbLine
 62
7
  6
CONTINUOUS
 10
2.3260728499
 20
26.9018382869
 11
2.6315153996
 21
26.9018382869
  0
LINE
  5
711
100
AcDbEntity
  8
0
100
AcDbLine
 62
7
  6
CONTINUOUS
 10
20.1315153996
 20
26.9018382869
 11
20.4369579492
 21
26.9018382869
  0
LINE
  5
712
100
AcDbEntity
  8
0
100
AcDbLine
 62
7
  6
CONTINUOUS
 10
21.3260728499
 20
26.9018382869
 11
21.3985026977
 21
26.9018382869
  0
LINE
  5
713
100
AcDbEntity
  8
0
100
AcDbLine
 62
7
  6
CONTINUOUS
 10
23.8645281015
 20
26.9018382869
 11
23.9369579492
 21
26.9018382869
  0
LINE
  5
714
100
AcDbEntity
  8
0
100
AcDbLine
 62
7
  6
CONTINUOUS
 10
24.8260728499
 20
26.9018382869
 11
25.1315153996
 21
26.9018382869
  0
LINE
  5
715
100
AcDbEntity
  8
0
100
AcDbLine
 62
7
  6
CONTINUOUS
 10
42.6815153996
 20
26.9018382869
 11
42.9369579492
 21
26.9018382869
  0
LINE
  5
716
100
AcDbEntity
  8
0
100
AcDbLine
 62
7
  6
CONTINUOUS
 10
43.8260728499
 20
26.9018382869
 11
43.8985026977
 21
26.9018382869
  0
LINE
  5
717
100
AcDbEntity
  8
0
100
AcDbLine
 62
7
  6
CONTINUOUS
 10
46.3645281015
 20
26.9018382869
 11
46.4369579492
 21
26.9018382869
  0
LINE
  5
718
100
AcDbEntity
  8
0
100
AcDbLine
 62
7
  6
CONTINUOUS
 10
47.3260728499
 20
26.9018382869
 11
47.5815153996
 21
26.9018382869
  0
LINE
  5
719
100
AcDbEntity
  8
0
100
AcDbLine
 62
7
  6
CONTINUOUS
 10
-47.3274009493
 20
26.9233642572
 11
-47.0639597131
 21
26.9233642572
  0
LINE
  5
71A
100
AcDbEntity
  8
0
100
AcDbLine
 62
7
  6
CONTINUOUS
 10
-46.1730094878
 20
26.9233642572
 11
-46.095729436
 21
26.9233642572
  0
LINE
  5
71B
100
AcDbEntity
  8
0
100
AcDbLine
 62
7
  6
CONTINUOUS
 10
-43.6412397649
 20
26.9233642572
 11
-43.5639597131
 21
26.9233642572
  0
LINE
  5
71C
100
AcDbEntity
  8
0
100
AcDbLine
 62
7
  6
CONTINUOUS
 10
-42.6730094878
 20
26.9233642572
 11
-42.4095682516
 21
26.9233642572
  0
LINE
  5
71D
100
AcDbEntity
  8
0
100
AcDbLine
 62
7
  6
CONTINUOUS
 10
-24.8774009493
 20
26.9233642572
 11
-24.5639597131
 21
26.9233642572
  0
LINE
  5
71E
100
AcDbEntity
  8
0
100
AcDbLine
 62
7
  6
CONTINUOUS
 10
-23.6730094878
 20
26.9233642572
 11
-23.595729436
 21
26.9233642572
  0
LINE
  5
71F
100
AcDbEntity
  8
0
100
AcDbLine
 62
7
  6
CONTINUOUS
 10
-21.1412397649
 20
26.9233642572
 11
-21.0639597131
 21
26.9233642572
  0
LINE
  5
720
100
AcDbEntity
  8
0
100
AcDbLine
 62
7
  6
CONTINUOUS
 10
-20.1730094878
 20
26.9233642572
 11
-19.8595682516
 21
26.9233642572
  0
LINE
  5
721
100
AcDbEntity
  8
0
100
AcDbLine
 62
7
  6
CONTINUOUS
 10
-2.3774009493
 20
26.9233642572
 11
-2.0639597131
 21
26.9233642572
  0
LINE
  5
722
100
AcDbEntity
  8
0
100
AcDbLine
 62
7
  6
CONTINUOUS
 10
-1.1730094878
 20
26.9233642572
 11
-1.095729436
 21
26.9233642572
  0
LINE
  5
723
100
AcDbEntity
  8
0
100
AcDbLine
 62
7
  6
CONTINUOUS
 10
1.3587602351
 20
26.9233642572
 11
1.4360402869
 21
26.9233642572
  0
LINE
  5
724
100
AcDbEntity
  8
0
100
AcDbLine
 62
7
  6
CONTINUOUS
 10
2.3269905122
 20
26.9233642572
 11
2.6404317484
 21
26.9233642572
  0
LINE
  5
725
100
AcDbEntity
  8
0
100
AcDbLine
 62
7
  6
CONTINUOUS
 10
20.1225990507
 20
26.9233642572
 11
20.4360402869
 21
26.9233642572
  0
LINE
  5
726
100
AcDbEntity
  8
0
100
AcDbLine
 62
7
  6
CONTINUOUS
 10
21.3269905122
 20
26.9233642572
 11
21.404270564
 21
26.9233642572
  0
LINE
  5
727
100
AcDbEntity
  8
0
100
AcDbLine
 62
7
  6
CONTINUOUS
 10
23.8587602351
 20
26.9233642572
 11
23.9360402869
 21
26.9233642572
  0
LINE
  5
728
100
AcDbEntity
  8
0
100
AcDbLine
 62
7
  6
CONTINUOUS
 10
24.8269905122
 20
26.9233642572
 11
25.1404317484
 21
26.9233642572
  0
LINE
  5
729
100
AcDbEntity
  8
0
100
AcDbLine
 62
7
  6
CONTINUOUS
 10
42.6725990507
 20
26.9233642572
 11
42.9360402869
 21
26.9233642572
  0
LINE
  5
72A
100
AcDbEntity
  8
0
100
AcDbLine
 62
7
  6
CONTINUOUS
 10
43.8269905122
 20
26.9233642572
 11
43.904270564
 21
26.9233642572
  0
LINE
  5
72B
100
AcDbEntity
  8
0
100
AcDbLine
 62
7
  6
CONTINUOUS
 10
46.3587602351
 20
26.9233642572
 11
46.4360402869
 21
26.9233642572
  0
LINE
  5
72C
100
AcDbEntity
  8
0
100
AcDbLine
 62
7
  6
CONTINUOUS
 10
47.3269905122
 20
26.9233642572
 11
47.5904317484
 21
26.9233642572
  0
LINE
  5
72D
100
AcDbEntity
  8
0
100
AcDbLine
 62
7
  6
CONTINUOUS
 10
-38.3684846004
 20
29.5518382869
 11
-20.8684846004
 21
29.5518382869
  0
LINE
  5
72E
100
AcDbEntity
  8
0
100
AcDbLine
 62
7
  6
CONTINUOUS
 10
21.1315153996
 20
29.5518382869
 11
38.6315153996
 21
29.5518382869
  0
LINE
  5
72F
100
AcDbEntity
  8
0
100
AcDbLine
 62
7
  6
CONTINUOUS
 10
21.6802433996
 20
30.5524642869
 11
24.5224133996
 21
30.5524642869
  0
LINE
  5
730
100
AcDbEntity
  8
0
100
AcDbLine
 62
7
  6
CONTINUOUS
 10
25.3812713996
 20
30.5524642869
 11
26.0954343996
 21
30.5524642869
  0
LINE
  5
731
100
AcDbEntity
  8
0
100
AcDbLine
 62
7
  6
CONTINUOUS
 10
26.9447213996
 20
30.5524642869
 11
27.6588533996
 21
30.5524642869
  0
LINE
  5
732
100
AcDbEntity
  8
0
100
AcDbLine
 62
7
  6
CONTINUOUS
 10
29.5002273996
 20
30.5524642869
 11
30.3985753996
 21
30.5524642869
  0
LINE
  5
733
100
AcDbEntity
  8
0
100
AcDbLine
 62
7
  6
CONTINUOUS
 10
34.9535093996
 20
30.5524642869
 11
35.6409873996
 21
30.5524642869
  0
LINE
  5
734
100
AcDbEntity
  8
0
100
AcDbLine
 62
7
  6
CONTINUOUS
 10
37.4691893996
 20
30.5524642869
 11
38.1827873996
 21
30.5524642869
  0
LINE
  5
735
100
AcDbEntity
  8
0
100
AcDbLine
 62
7
  6
CONTINUOUS
 10
-35.9788996004
 20
30.6644352869
 11
-35.2431826004
 21
30.6644352869
  0
LINE
  5
736
100
AcDbEntity
  8
0
100
AcDbLine
 62
7
  6
CONTINUOUS
 10
-33.6477626004
 20
30.6644352869
 11
-32.8129076004
 21
30.6644352869
  0
LINE
  5
737
100
AcDbEntity
  8
0
100
AcDbLine
 62
7
  6
CONTINUOUS
 10
-32.3634786004
 20
30.6644352869
 11
-31.5647946004
 21
30.6644352869
  0
LINE
  5
738
100
AcDbEntity
  8
0
100
AcDbLine
 62
7
  6
CONTINUOUS
 10
-30.4052466004
 20
30.6644352869
 11
-30.2881586004
 21
30.6644352869
  0
LINE
  5
739
100
AcDbEntity
  8
0
100
AcDbLine
 62
7
  6
CONTINUOUS
 10
-29.1239916004
 20
30.6644352869
 11
-28.3072816004
 21
30.6644352869
  0
LINE
  5
73A
100
AcDbEntity
  8
0
100
AcDbLine
 62
7
  6
CONTINUOUS
 10
-28.1761876004
 20
30.6644352869
 11
-27.3503896004
 21
30.6644352869
  0
LINE
  5
73B
100
AcDbEntity
  8
0
100
AcDbLine
 62
7
  6
CONTINUOUS
 10
-25.7668166004
 20
30.6644352869
 11
-24.8869136004
 21
30.6644352869
  0
LINE
  5
73C
100
AcDbEntity
  8
0
100
AcDbLine
 62
7
  6
CONTINUOUS
 10
-24.6417599202
 20
30.6644351749
 11
-23.8102640092
 21
30.6644351749
  0
LINE
  5
73D
100
AcDbEntity
  8
0
100
AcDbLine
 62
7
  6
CONTINUOUS
 10
-22.531798557
 20
30.6644351749
 11
-21.7287649754
 21
30.6644351749
  0
LINE
  5
73E
100
AcDbEntity
  8
0
100
AcDbLine
 62
7
  6
CONTINUOUS
 10
24.5224133996
 20
31.1871112869
 11
22.3943663996
 21
31.1870872869
  0
LINE
  5
73F
100
AcDbEntity
  8
0
100
AcDbLine
 62
7
  6
CONTINUOUS
 10
-27.1200216004
 20
31.4628802869
 11
-25.9830886004
 21
31.4628802869
  0
LINE
  5
740
100
AcDbEntity
  8
RACCORDO
100
AcDbLine
 62
253
  6
CONTINUOUS
 10
50.5047377883
 20
24.1076160945
 11
56.7958288964
 21
23.8637274923
  0
LWPOLYLINE
  5
741
100
AcDbEntity
  8
0
100
AcDbPolyline
 62
7
  6
CONTINUOUS
 90
19
 70
0
 10
-23.3626346458
 20
32.2296233551
 10
-23.3280672075
 20
32.2282459087
 10
-23.294739303
 20
32.2248889388
 10
-23.2626509323
 20
32.2195524456
 10
-23.2318677932
 20
32.2122294988
 10
-23.2023241879
 20
32.2029270286
 10
-23.1738230228
 20
32.1916658258
 10
-23.146490086
 20
32.1786128852
 10
-23.1201995894
 20
32.163601212
 10
-23.0943770753
 20
32.1461506126
 10
-23.0687490919
 20
32.1261910823
 10
-23.0435890911
 20
32.1037926258
 10
-23.0191429708
 20
32.0786850629
 10
-22.9951626735
 20
32.0505335101
 10
-22.9718962568
 20
32.0196728509
 10
-22.9503337913
 20
31.9868375561
 10
-22.9308053005
 20
31.9522724492
 10
-22.9129807609
 20
31.9157327067
 10
-22.8968601725
 20
31.8772183286
  0
LWPOLYLINE
  5
742
100
AcDbEntity
  8
RACCORDO
100
AcDbPolyline
 62
253
  6
CONTINUOUS
 90
3
 70
0
 10
55.8315405584
 20
23.759320293
 10
56.631690862
 20
23.7282724489
 10
56.7916966265
 20
23.721566325
  0
LWPOLYLINE
  5
743
100
AcDbEntity
  8
RACCORDO
100
AcDbPolyline
 62
253
  6
CONTINUOUS
 90
31
 70
0
 10
56.7916966265
 20
23.721566325
 10
56.8068715275
 20
23.7208201709
 10
56.8225208715
 20
23.7195490368
 10
56.8386446584
 20
23.7177529227
 10
56.8552602713
 20
23.715477567
 10
56.8723503271
 20
23.7126772313
 10
56.8898626767
 20
23.7092147007
 10
56.9077962535
 20
23.7050979015
 10
56.9261521242
 20
23.7003189073
 10
56.9448813397
 20
23.6947167244
 10
56.9640016342
 20
23.6882960303
 10
56.9834952734
 20
23.6810521474
 10
57.0032601056
 20
23.6728100489
 10
57.0233090602
 20
23.6635764964
 10
57.0436292077
 20
23.6533447283
 10
57.0640796074
 20
23.6419194336
 10
57.0846736341
 20
23.6293137693
 10
57.105397913
 20
23.6155145783
 10
57.1260713787
 20
23.6002870783
 10
57.1467323612
 20
23.5836324908
 10
57.1673425304
 20
23.5655495944
 10
57.1876058303
 20
23.5457999419
 10
57.2075868941
 20
23.524337911
 10
57.2272210886
 20
23.5012091242
 10
57.2460184577
 20
23.4763120023
 10
57.2640243058
 20
23.4495461393
 10
57.2811933285
 20
23.4210119412
 10
57.2968996573
 20
23.3909090473
 10
57.3109346693
 20
23.3593040038
 10
57.3235069874
 20
23.3261302644
 10
57.3346166114
 20
23.2913878291
  0
LWPOLYLINE
  5
744
100
AcDbEntity
  8
RACCORDO
100
AcDbPolyline
 62
7
  6
CONTINUOUS
 90
31
 70
0
 10
56.7958288964
 20
23.8637274917
 10
56.8139453507
 20
23.8627431579
 10
56.8326817911
 20
23.8612209869
 10
56.852020031
 20
23.8591082776
 10
56.8719318642
 20
23.8563517959
 10
56.8923994017
 20
23.8528964011
 10
56.9134146072
 20
23.8486831687
 10
56.9349293532
 20
23.843657672
 10
56.9569224974
 20
23.8377583993
 10
56.9794182374
 20
23.8309066576
 10
57.0023730052
 20
23.8230350832
 10
57.0257280186
 20
23.8140797818
 10
57.0494726827
 20
23.8039555514
 10
57.0735285473
 20
23.7925982032
 10
57.0978307057
 20
23.7799360376
 10
57.1223719017
 20
23.7658601402
 10
57.147037151
 20
23.7503113071
 10
57.1717426799
 20
23.7332100699
 10
57.1964988561
 20
23.7143960825
 10
57.2211762122
 20
23.6937881943
 10
57.2456203191
 20
23.6713227441
 10
57.269762705
 20
23.6468446757
 10
57.2934564597
 20
23.6202441562
 10
57.3164585759
 20
23.5915104546
 10
57.3385294453
 20
23.5606461985
 10
57.3594863189
 20
23.5275742001
 10
57.3790552174
 20
23.4923520666
 10
57.39688906
 20
23.4552391959
 10
57.4127519533
 20
23.4163798976
 10
57.4264764634
 20
23.3757796094
 10
57.4378540824
 20
23.3335414691
  0
LINE
  5
745
100
AcDbEntity
  8
RACCORDO
100
AcDbLine
 62
253
  6
CONTINUOUS
 10
-74.5372601961
 20
36.6133670528
 11
-73.9016426738
 21
36.5672633136
  0
LINE
  5
746
100
AcDbEntity
  8
RACCORDO
100
AcDbLine
 62
253
  6
CONTINUOUS
 10
-71.0887233129
 20
36.3632316499
 11
-72.3977010387
 21
36.4581767474
  0
LINE
  5
747
100
AcDbEntity
  8
RACCORDO
100
AcDbLine
 62
253
  6
CONTINUOUS
 10
-75.4596765885
 20
36.6802733971
 11
-76.0322294853
 21
36.7218028208
  0
LWPOLYLINE
  5
748
100
AcDbEntity
  8
0
100
AcDbPolyline
 62
7
  6
CONTINUOUS
 90
22
 70
0
 10
-23.1839128115
 20
34.0061345835
 10
-23.1447499086
 20
34.0001181728
 10
-23.1066981085
 20
33.991804072
 10
-23.0697574112
 20
33.9811922811
 10
-23.0336174965
 20
33.9680751345
 10
-22.9985886845
 20
33.9526602977
 10
-22.965601936
 20
33.9355707682
 10
-22.9349959969
 20
33.9169702687
 10
-22.9064321213
 20
33.8966950764
 10
-22.8798250324
 20
33.8748770201
 10
-22.8552241575
 20
33.8516230754
 10
-22.8325800693
 20
33.8268262667
 10
-22.8116592101
 20
33.8002974952
 10
-22.7922769294
 20
33.7718243089
 10
-22.7746178776
 20
33.7416191598
 10
-22.7590024478
 20
33.7101303059
 10
-22.7454095419
 20
33.6770985213
 10
-22.733860258
 20
33.642783032
 10
-22.7247382837
 20
33.608409774
 10
-22.7181715149
 20
33.5743873929
 10
-22.7140320558
 20
33.540307243
 10
-22.7123199063
 20
33.5061693246
  0
LINE
  5
749
100
AcDbEntity
  8
0
100
AcDbLine
 62
253
  6
CONTINUOUS
 10
-1.9082623483
 20
27.4794840004
 11
-1.9145000315
 21
27.4811553826
  0
LINE
  5
74A
100
AcDbEntity
  8
0
100
AcDbLine
 62
253
  6
CONTINUOUS
 10
1.5917376517
 20
27.4794840004
 11
1.5854999685
 21
27.4811553826
  0
LWPOLYLINE
  5
74B
100
AcDbEntity
  8
0
100
AcDbPolyline
 62
7
  6
CONTINUOUS
 90
19
 70
0
 10
-22.5814651718
 20
34.5751112437
 10
-22.6617523869
 20
34.6018642798
 10
-22.7463076592
 20
34.6256020606
 10
-22.8351309885
 20
34.6463245863
 10
-22.9283675446
 20
34.6639403917
 10
-23.0258721579
 20
34.678540942
 10
-23.1272093192
 20
34.6904006319
 10
-23.2322439077
 20
34.6996193037
 10
-23.3411110443
 20
34.7060971152
 10
-23.453780582
 20
34.7098089344
 10
-23.5701975642
 20
34.7107887565
 10
-23.6904169475
 20
34.7090025864
 10
-23.8145734555
 20
34.7043233066
 10
-23.9427379829
 20
34.6966351443
 10
-24.0748396349
 20
34.6860538724
 10
-24.2108004508
 20
34.6727996915
 10
-24.3505944435
 20
34.6569460018
 10
-24.4942475999
 20
34.6384194031
 10
-24.6417599202
 20
34.6172198954
  0
LINE
  5
74C
100
AcDbEntity
  8
0
100
AcDbLine
 62
7
  6
CONTINUOUS
 10
20.1315153996
 20
26.9018382869
 11
20.1225990507
 21
26.9233642572
  0
LINE
  5
74D
100
AcDbEntity
  8
0
100
AcDbLine
 62
7
  6
CONTINUOUS
 10
21.1712931475
 20
27.4794840004
 11
21.3260728499
 21
26.9018382869
  0
LINE
  5
74E
100
AcDbEntity
  8
0
100
AcDbLine
 62
7
  6
CONTINUOUS
 10
21.1775308306
 20
27.4811553826
 11
21.3269905122
 21
26.9233642572
  0
LINE
  5
74F
100
AcDbEntity
  8
0
100
AcDbLine
 62
7
  6
CONTINUOUS
 10
23.4315153996
 20
26.6518382869
 11
23.4257475332
 21
26.6733642572
  0
LINE
  5
750
100
AcDbEntity
  8
0
100
AcDbLine
 62
7
  6
CONTINUOUS
 10
23.8645281015
 20
26.9018382869
 11
23.8587602351
 21
26.9233642572
  0
LINE
  5
751
100
AcDbEntity
  8
0
100
AcDbLine
 62
7
  6
CONTINUOUS
 10
24.6712931475
 20
27.4794840004
 11
24.8260728499
 21
26.9018382869
  0
LINE
  5
752
100
AcDbEntity
  8
0
100
AcDbLine
 62
7
  6
CONTINUOUS
 10
24.6775308306
 20
27.4811553826
 11
24.8269905122
 21
26.9233642572
  0
LWPOLYLINE
  5
753
100
AcDbEntity
  8
0
100
AcDbPolyline
 62
7
  6
CONTINUOUS
 90
16
 70
0
 10
34.2507471865
 20
32.5522405473
 10
34.2479207206
 20
32.6692604031
 10
34.239974739
 20
32.7850561744
 10
34.2269092416
 20
32.8996278612
 10
34.2085057978
 20
33.0136105168
 10
34.1849828383
 20
33.126369088
 10
34.1569956549
 20
33.2359984141
 10
34.1243602196
 20
33.342397361
 10
34.0872605603
 20
33.445667063
 10
34.0469040529
 20
33.5442057621
 10
34.0032388735
 20
33.6377666976
 10
33.9563168459
 20
33.7265966303
 10
33.9075008175
 20
33.8098340847
 10
33.8572450709
 20
33.8871919024
 10
33.8050953235
 20
33.9589572417
 10
33.7510515754
 20
34.0251301028
  0
LINE
  5
754
100
AcDbEntity
  8
0
100
AcDbLine
 62
7
  6
CONTINUOUS
 10
34.9535093996
 20
34.5512122869
 11
34.9535093996
 21
30.5524642869
  0
LINE
  5
755
100
AcDbEntity
  8
0
100
AcDbLine
 62
7
  6
CONTINUOUS
 10
35.6409873996
 20
30.5524642869
 11
35.6506763996
 21
33.3458762869
  0
LWPOLYLINE
  5
756
100
AcDbEntity
  8
0
100
AcDbPolyline
 62
7
  6
CONTINUOUS
 90
16
 70
0
 10
33.5321459087
 20
32.5518524917
 10
33.5292195572
 20
32.4495229087
 10
33.5223183131
 20
32.3508542553
 10
33.5114421766
 20
32.2558465316
 10
33.4962396142
 20
32.1642277372
 10
33.4770621593
 20
32.0762698724
 10
33.4549644116
 20
31.9927889381
 10
33.4300073228
 20
31.9141184951
 10
33.4021299411
 20
31.8399249826
 10
33.3722040114
 20
31.7700237181
 10
33.3403022038
 20
31.7044195231
 10
33.306351848
 20
31.6431075761
 10
33.2710066783
 20
31.5858887307
 10
33.2344846061
 20
31.5326966049
 10
33.1965677199
 20
31.4835975808
 10
33.1572560198
 20
31.4385916584
  0
LINE
  5
757
100
AcDbEntity
  8
0
100
AcDbLine
 62
7
  6
CONTINUOUS
 10
42.9360402869
 20
26.9233642572
 11
43.0854999685
 21
27.4811553826
  0
LINE
  5
758
100
AcDbEntity
  8
0
100
AcDbLine
 62
7
  6
CONTINUOUS
 10
42.9369579492
 20
26.9018382869
 11
43.0917376517
 21
27.4794840004
  0
LINE
  5
759
100
AcDbEntity
  8
0
100
AcDbLine
 62
7
  6
CONTINUOUS
 10
43.8985026977
 20
26.9018382869
 11
43.904270564
 21
26.9233642572
  0
LINE
  5
75A
100
AcDbEntity
  8
0
100
AcDbLine
 62
7
  6
CONTINUOUS
 10
44.3315153996
 20
26.6518382869
 11
44.3372832659
 21
26.6733642572
  0
LINE
  5
75B
100
AcDbEntity
  8
0
100
AcDbLine
 62
7
  6
CONTINUOUS
 10
26.3927263997
 20
-33.0412857125
 11
26.0486563996
 21
-34.3169117131
  0
LINE
  5
75C
100
AcDbEntity
  8
0
100
AcDbLine
 62
7
  6
CONTINUOUS
 10
26.4182883996
 20
-33.8369117131
 11
26.4506563996
 21
-33.7169117131
  0
LINE
  5
75D
100
AcDbEntity
  8
0
100
AcDbLine
 62
7
  6
CONTINUOUS
 10
28.5227263994
 20
-33.0412857137
 11
28.1786563996
 21
-34.3169117131
  0
LINE
  5
75E
100
AcDbEntity
  8
0
100
AcDbLine
 62
7
  6
CONTINUOUS
 10
28.5482883996
 20
-33.8369117131
 11
28.5806563996
 21
-33.7169117131
  0
LINE
  5
75F
100
AcDbEntity
  8
0
100
AcDbLine
 62
7
  6
CONTINUOUS
 10
47.5815153996
 20
26.9018382869
 11
47.5904317484
 21
26.9233642572
  0
LINE
  5
760
100
AcDbEntity
  8
0
100
AcDbLine
 62
7
  6
CONTINUOUS
 10
20.1668395759
 20
-35.166902399
 11
20.358636336
 21
-34.8251838264
  0
LINE
  5
761
100
AcDbEntity
  8
0
100
AcDbLine
 62
7
  6
CONTINUOUS
 10
25.4417224862
 20
-24.9481617131
 11
25.4588180603
 21
-24.9309219471
  0
LWPOLYLINE
  5
762
100
AcDbEntity
  8
0
100
AcDbPolyline
 62
7
  6
CONTINUOUS
 90
3
 70
0
 10
25.6357823458
 20
-24.7541018535
 10
25.6403960807
 20
-24.7494368758
 10
25.6414483932
 20
-24.7484358062
  0
LINE
  5
763
100
AcDbEntity
  8
0
100
AcDbLine
 62
7
  6
CONTINUOUS
 10
25.4417224862
 20
-25.4879546265
 11
25.1315153996
 21
-25.7981617131
  0
LINE
  5
764
100
AcDbEntity
  8
0
100
AcDbLine
 62
7
  6
CONTINUOUS
 10
25.8254241829
 20
-25.1346952489
 11
25.1404317484
 21
-25.8196876834
  0
LINE
  5
765
100
AcDbEntity
  8
0
100
AcDbLine
 62
7
  6
CONTINUOUS
 10
25.4588180603
 20
-24.9309219471
 11
25.6357823458
 21
-24.7541018535
  0
LINE
  5
766
100
AcDbEntity
  8
0
100
AcDbLine
 62
7
  6
CONTINUOUS
 10
25.6414483932
 20
-25.2897881299
 11
25.8254241829
 21
-25.1346952489
  0
LINE
  5
767
100
AcDbEntity
  8
0
100
AcDbLine
 62
7
  6
CONTINUOUS
 10
21.8315153996
 20
-25.5481617131
 11
21.3985026977
 21
-25.7981617131
  0
LINE
  5
768
100
AcDbEntity
  8
0
100
AcDbLine
 62
7
  6
CONTINUOUS
 10
21.8372832659
 20
-25.5696876834
 11
21.404270564
 21
-25.8196876834
  0
LINE
  5
769
100
AcDbEntity
  8
0
100
AcDbLine
 62
253
  6
CONTINUOUS
 10
-20.3287068525
 20
27.4794840004
 11
-20.3224691694
 21
27.4811553826
  0
LINE
  5
76A
100
AcDbEntity
  8
0
100
AcDbLine
 62
253
  6
CONTINUOUS
 10
-23.8287068525
 20
27.4794840004
 11
-23.8224691694
 21
27.4811553826
  0
LINE
  5
76B
100
AcDbEntity
  8
0
100
AcDbLine
 62
253
  6
CONTINUOUS
 10
-42.8287068525
 20
27.4794840004
 11
-42.8224691694
 21
27.4811553826
  0
LWPOLYLINE
  5
76C
100
AcDbEntity
  8
0
100
AcDbPolyline
 62
7
  6
CONTINUOUS
 90
10
 70
0
 10
-22.4953883696
 20
32.5550056642
 10
-22.4812845167
 20
32.5576959115
 10
-22.4670187394
 20
32.5619462137
 10
-22.4525910375
 20
32.5677565707
 10
-22.4380025036
 20
32.5752910166
 10
-22.4232520452
 20
32.5843855173
 10
-22.4083363849
 20
32.5945479708
 10
-22.3932746158
 20
32.6058138928
 10
-22.3780476449
 20
32.6181477675
 10
-22.3468941954
 20
32.6440055309
  0
LWPOLYLINE
  5
76D
100
AcDbEntity
  8
0
100
AcDbPolyline
 62
7
  6
CONTINUOUS
 90
10
 70
0
 10
-23.8379465488
 20
33.9825909285
 10
-23.763578006
 20
33.9949135881
 10
-23.689727891
 20
34.0048090011
 10
-23.6163962038
 20
34.0122771675
 10
-23.543708139
 20
34.0173173246
 10
-23.4715385019
 20
34.0199302351
 10
-23.399511709
 20
34.0201181874
 10
-23.3275025657
 20
34.0178819443
 10
-23.2556362666
 20
34.013220743
 10
-23.1839128115
 20
34.0061345835
  0
LWPOLYLINE
  5
76E
100
AcDbEntity
  8
0
100
AcDbPolyline
 62
253
  6
CONTINUOUS
 90
3
 70
0
 10
-53.589411504
 20
32.0942378017
 10
-49.1797726748
 20
32.2653523638
 10
-46.1231898939
 20
32.3670050065
  0
LWPOLYLINE
  5
76F
100
AcDbEntity
  8
0
100
AcDbPolyline
 62
253
  6
CONTINUOUS
 90
3
 70
0
 10
-47.7744216898
 20
35.6614223501
 10
-49.1764153221
 20
35.614714394
 10
-52.1888934132
 20
35.4976279365
  0
LWPOLYLINE
  5
770
100
AcDbEntity
  8
0
100
AcDbPolyline
 62
253
  6
CONTINUOUS
 90
3
 70
0
 10
-46.1287853095
 20
32.8149057
 10
-49.1763735746
 20
32.7135339305
 10
-53.6180705875
 20
32.5411694966
  0
LWPOLYLINE
  5
771
100
AcDbEntity
  8
0
100
AcDbPolyline
 62
7
  6
CONTINUOUS
 90
16
 70
0
 10
32.3278401865
 20
34.6406920473
 10
32.2029025889
 20
34.6366441779
 10
32.0825658087
 20
34.6268221495
 10
31.9668298458
 20
34.6112259618
 10
31.8558168513
 20
34.5896257009
 10
31.7494046742
 20
34.5622512809
 10
31.6472268612
 20
34.529792444
 10
31.5494766351
 20
34.4924512369
 10
31.4559607732
 20
34.4500256131
 10
31.3657331546
 20
34.4025991747
 10
31.2780010419
 20
34.3497575872
 10
31.1935571724
 20
34.2919151853
 10
31.1138336375
 20
34.2303985752
 10
31.0393078008
 20
34.1656499592
 10
30.9695022986
 20
34.097227135
 10
30.9044171309
 20
34.0251301028
  0
LINE
  5
772
100
AcDbEntity
  8
0
100
AcDbLine
 62
7
  6
CONTINUOUS
 10
-26.1499336004
 20
32.0807132869
 11
-26.9492476004
 21
32.0807132869
  0
LINE
  5
773
100
AcDbEntity
  8
0
100
AcDbLine
 62
7
  6
CONTINUOUS
 10
-23.8102640092
 20
32.2296233551
 11
-23.3626346458
 21
32.2296233551
  0
LINE
  5
774
100
AcDbEntity
  8
0
100
AcDbLine
 62
7
  6
CONTINUOUS
 10
22.3943663996
 20
32.2875792869
 11
24.3630483996
 21
32.2875932869
  0
LINE
  5
775
100
AcDbEntity
  8
0
100
AcDbLine
 62
7
  6
CONTINUOUS
 10
-23.3608351308
 20
32.8846468256
 11
-23.8379465488
 21
32.8846468256
  0
LINE
  5
776
100
AcDbEntity
  8
0
100
AcDbLine
 62
7
  6
CONTINUOUS
 10
24.3630483996
 20
32.9222542869
 11
22.3943663996
 21
32.9222692869
  0
LINE
  5
777
100
AcDbEntity
  8
0
100
AcDbLine
 62
253
  6
CONTINUOUS
 10
-3.5697815457
 20
33.1481590971
 11
3.8328124214
 21
33.1481586421
  0
LINE
  5
778
100
AcDbEntity
  8
0
100
AcDbLine
 62
253
  6
CONTINUOUS
 10
3.7327296873
 20
33.5967076607
 11
-3.4697075958
 21
33.5966751632
  0
LINE
  5
779
100
AcDbEntity
  8
0
100
AcDbLine
 62
7
  6
CONTINUOUS
 10
22.3943663996
 20
33.9165722869
 11
24.5063403996
 21
33.9165652869
  0
LINE
  5
77A
100
AcDbEntity
  8
0
100
AcDbLine
 62
7
  6
CONTINUOUS
 10
38.1827873996
 20
34.5512122869
 11
37.4953003996
 21
34.5512122869
  0
LINE
  5
77B
100
AcDbEntity
  8
0
100
AcDbLine
 62
7
  6
CONTINUOUS
 10
35.6512883996
 20
34.5512122869
 11
34.9535093996
 21
34.5512122869
  0
LINE
  5
77C
100
AcDbEntity
  8
0
100
AcDbLine
 62
7
  6
CONTINUOUS
 10
30.3891493996
 20
34.5512122869
 11
29.4316133996
 21
34.5512122869
  0
LINE
  5
77D
100
AcDbEntity
  8
0
100
AcDbLine
 62
7
  6
CONTINUOUS
 10
27.6588533996
 20
34.5512122869
 11
26.9447213996
 21
34.5512122869
  0
LINE
  5
77E
100
AcDbEntity
  8
0
100
AcDbLine
 62
7
  6
CONTINUOUS
 10
26.0954343996
 20
34.5512122869
 11
25.3812713996
 21
34.5512122869
  0
LINE
  5
77F
100
AcDbEntity
  8
0
100
AcDbLine
 62
7
  6
CONTINUOUS
 10
24.5063403996
 20
34.5512122869
 11
21.6802433996
 21
34.5512122869
  0
LINE
  5
780
100
AcDbEntity
  8
0
100
AcDbLine
 62
7
  6
CONTINUOUS
 10
-26.1140636004
 20
34.6639472869
 11
-26.9216856004
 21
34.6639472869
  0
LINE
  5
781
100
AcDbEntity
  8
0
100
AcDbLine
 62
7
  6
CONTINUOUS
 10
-28.6812816004
 20
34.6639472869
 11
-29.5072886004
 21
34.6639472869
  0
LINE
  5
782
100
AcDbEntity
  8
0
100
AcDbLine
 62
7
  6
CONTINUOUS
 10
-31.1681806004
 20
34.6639472869
 11
-32.0023466004
 21
34.6639472869
  0
LINE
  5
783
100
AcDbEntity
  8
0
100
AcDbLine
 62
7
  6
CONTINUOUS
 10
-33.9575796004
 20
34.6639472869
 11
-34.7918646004
 21
34.6639472869
  0
LINE
  5
784
100
AcDbEntity
  8
0
100
AcDbLine
 62
7
  6
CONTINUOUS
 10
-36.3399126004
 20
34.6639472869
 11
-37.2468226004
 21
34.6639472869
  0
LINE
  5
785
100
AcDbEntity
  8
0
100
AcDbLine
 62
7
  6
CONTINUOUS
 10
-32.8129076004
 20
34.6641872869
 11
-33.6477626004
 21
34.6641872869
  0
LINE
  5
786
100
AcDbEntity
  8
0
100
AcDbLine
 62
7
  6
CONTINUOUS
 10
38.6315153996
 20
35.5518382869
 11
21.1315153996
 21
35.5518382869
  0
LINE
  5
787
100
AcDbEntity
  8
0
100
AcDbLine
 62
7
  6
CONTINUOUS
 10
-20.8684846004
 20
35.5518382869
 11
-38.3684846004
 21
35.5518382869
  0
LWPOLYLINE
  5
788
100
AcDbEntity
  8
0
100
AcDbPolyline
 62
7
  6
CONTINUOUS
 90
16
 70
0
 10
32.3297028532
 20
34.0068350473
 10
32.3977699117
 20
34.0051180585
 10
32.464257715
 20
34.0000143635
 10
32.5291662628
 20
33.9915239622
 10
32.5924253424
 20
33.9795794098
 10
32.6541051667
 20
33.9642481512
 10
32.7144163742
 20
33.9457325208
 10
32.773827236
 20
33.9238491656
 10
32.8318694812
 20
33.8987814386
 10
32.8873489355
 20
33.871281733
 10
32.9401180109
 20
33.8412890777
 10
32.9903242956
 20
33.8088644437
 10
33.0372163798
 20
33.7749431374
 10
33.0805437936
 20
33.7398369278
 10
33.1205570069
 20
33.7032340459
 10
33.1572560198
 20
33.6651344917
  0
LWPOLYLINE
  5
789
100
AcDbEntity
  8
0
100
AcDbPolyline
 62
7
  6
CONTINUOUS
 90
16
 70
0
 10
32.3297028532
 20
31.0968911028
 10
32.2609130634
 20
31.0986734767
 10
32.1937246675
 20
31.10386614
 10
32.1281376656
 20
31.1124690926
 10
32.0641943744
 20
31.1245650127
 10
32.0018524771
 20
31.1400712222
 10
31.9409850235
 20
31.1587396865
 10
31.881141876
 20
31.1807526691
 10
31.8227731722
 20
31.2059279066
 10
31.7671023741
 20
31.2334705747
 10
31.714314412
 20
31.2634217067
 10
31.6642243556
 20
31.2957402694
 10
31.6175008766
 20
31.3295083383
 10
31.5743668655
 20
31.3644199387
 10
31.5345994318
 20
31.4007810454
 10
31.4981985754
 20
31.4385916584
  0
LWPOLYLINE
  5
78A
100
AcDbEntity
  8
0
100
AcDbPolyline
 62
253
  6
CONTINUOUS
 90
3
 70
0
 10
46.3862206794
 20
32.3670051981
 10
49.4428460377
 20
32.2653510195
 10
53.8524423185
 20
32.0942379298
  0
LWPOLYLINE
  5
78B
100
AcDbEntity
  8
0
100
AcDbPolyline
 62
253
  6
CONTINUOUS
 90
3
 70
0
 10
53.881101326
 20
32.5411677893
 10
49.4379507394
 20
32.7135863107
 10
46.3918160332
 20
32.8149046445
  0
LWPOLYLINE
  5
78C
100
AcDbEntity
  8
0
100
AcDbPolyline
 62
253
  6
CONTINUOUS
 90
3
 70
0
 10
52.4519273809
 20
35.4976253203
 10
49.4379438372
 20
35.6147686131
 10
48.0374549885
 20
35.6614240419
  0
LINE
  5
78D
100
AcDbEntity
  8
0
100
AcDbLine
 62
253
  6
CONTINUOUS
 10
20.5917376517
 20
27.4794840004
 11
20.5854999685
 21
27.4811553826
  0
LINE
  5
78E
100
AcDbEntity
  8
0
100
AcDbLine
 62
253
  6
CONTINUOUS
 10
24.0917376517
 20
27.4794840004
 11
24.0854999685
 21
27.4811553826
  0
LINE
  5
78F
100
AcDbEntity
  8
0
100
AcDbLine
 62
253
  6
CONTINUOUS
 10
43.0917376517
 20
27.4794840004
 11
43.0854999685
 21
27.4811553826
  0
LINE
  5
790
100
AcDbEntity
  8
0
100
AcDbLine
 62
7
  6
CONTINUOUS
 10
21.3985026977
 20
26.9018382869
 11
21.8315153996
 21
26.6518382869
  0
LINE
  5
791
100
AcDbEntity
  8
0
100
AcDbLine
 62
7
  6
CONTINUOUS
 10
21.404270564
 20
26.9233642572
 11
21.8372832659
 21
26.6733642572
  0
LINE
  5
792
100
AcDbEntity
  8
0
100
AcDbLine
 62
7
  6
CONTINUOUS
 10
25.6414483932
 20
26.3934647036
 11
25.8254241829
 21
26.2383718227
  0
LINE
  5
793
100
AcDbEntity
  8
0
100
AcDbLine
 62
7
  6
CONTINUOUS
 10
25.6414483932
 20
25.8521123799
 11
25.6403960807
 21
25.8531134495
  0
LWPOLYLINE
  5
794
100
AcDbEntity
  8
0
100
AcDbPolyline
 62
7
  6
CONTINUOUS
 90
3
 70
0
 10
25.50659493
 20
25.9870050843
 10
25.4588180603
 20
26.0345985208
 10
25.4417224862
 20
26.0518382869
  0
LINE
  5
795
100
AcDbEntity
  8
0
100
AcDbLine
 62
7
  6
CONTINUOUS
 10
25.1315153996
 20
26.9018382869
 11
25.4417224862
 21
26.5916312002
  0
LINE
  5
796
100
AcDbEntity
  8
0
100
AcDbLine
 62
7
  6
CONTINUOUS
 10
25.1404317484
 20
26.9233642572
 11
25.8254241829
 21
26.2383718227
  0
LWPOLYLINE
  5
797
100
AcDbEntity
  8
0
100
AcDbPolyline
 62
7
  6
CONTINUOUS
 90
3
 70
0
 10
25.6403960807
 20
25.8531134495
 10
25.6357823458
 20
25.8577784272
 10
25.50659493
 20
25.9870050843
  0
LINE
  5
798
100
AcDbEntity
  8
0
100
AcDbLine
 62
7
  6
CONTINUOUS
 10
47.5815153996
 20
-25.7981617131
 11
47.5904317484
 21
-25.8196876834
  0
LINE
  5
799
100
AcDbEntity
  8
0
100
AcDbLine
 62
7
  6
CONTINUOUS
 10
43.0854999685
 20
-26.3774788088
 11
42.9360402869
 21
-25.8196876834
  0
LINE
  5
79A
100
AcDbEntity
  8
0
100
AcDbLine
 62
7
  6
CONTINUOUS
 10
43.0917376517
 20
-26.3758074267
 11
42.9369579492
 21
-25.7981617131
  0
LINE
  5
79B
100
AcDbEntity
  8
0
100
AcDbLine
 62
7
  6
CONTINUOUS
 10
43.8985026977
 20
-25.7981617131
 11
43.904270564
 21
-25.8196876834
  0
LINE
  5
79C
100
AcDbEntity
  8
0
100
AcDbLine
 62
7
  6
CONTINUOUS
 10
44.3315153996
 20
-25.5481617131
 11
44.3372832659
 21
-25.5696876834
  0
LINE
  5
79D
100
AcDbEntity
  8
0
100
AcDbLine
 62
7
  6
CONTINUOUS
 10
43.8260728499
 20
-25.7981617131
 11
43.8269905122
 21
-25.8196876834
  0
LINE
  5
79E
100
AcDbEntity
  8
0
100
AcDbLine
 62
7
  6
CONTINUOUS
 10
37.4953003996
 20
34.5512122869
 11
37.4952863996
 21
31.7269722869
  0
LINE
  5
79F
100
AcDbEntity
  8
0
100
AcDbLine
 62
7
  6
CONTINUOUS
 10
38.1827873996
 20
30.5524642869
 11
38.1827873996
 21
34.5512122869
  0
LINE
  5
7A0
100
AcDbEntity
  8
0
100
AcDbLine
 62
7
  6
CONTINUOUS
 10
38.6315153996
 20
29.5518382869
 11
38.6315153996
 21
35.5518382869
  0
LINE
  5
7A1
100
AcDbEntity
  8
0
100
AcDbLine
 62
7
  6
CONTINUOUS
 10
40.1315153996
 20
-37.4481617131
 11
40.1315153996
 21
-29.9481617131
  0
LINE
  5
7A2
100
AcDbEntity
  8
0
100
AcDbLine
 62
7
  6
CONTINUOUS
 10
41.9376066162
 20
-25.0846952489
 11
41.9376066162
 21
-24.6481617131
  0
LINE
  5
7A3
100
AcDbEntity
  8
0
100
AcDbLine
 62
7
  6
CONTINUOUS
 10
41.9376066162
 20
25.7518382869
 11
41.9376066162
 21
26.1883718227
  0
LINE
  5
7A4
100
AcDbEntity
  8
0
100
AcDbLine
 62
253
  6
CONTINUOUS
 10
42.121582406
 20
26.3434647036
 11
42.121582406
 21
25.7521123799
  0
LINE
  5
7A5
100
AcDbEntity
  8
0
100
AcDbLine
 62
253
  6
CONTINUOUS
 10
42.121582406
 20
-24.6484358062
 11
42.121582406
 21
-25.2397881299
  0
LINE
  5
7A6
100
AcDbEntity
  8
0
100
AcDbLine
 62
253
  6
CONTINUOUS
 10
42.3213083129
 20
26.5416312002
 11
42.3213083129
 21
25.9518382869
  0
LINE
  5
7A7
100
AcDbEntity
  8
0
100
AcDbLine
 62
253
  6
CONTINUOUS
 10
42.3213083129
 20
-24.8481617131
 11
42.3213083129
 21
-25.4379546265
  0
LINE
  5
7A8
100
AcDbEntity
  8
0
100
AcDbLine
 62
7
  6
CONTINUOUS
 10
42.3815153996
 20
-24.4981617131
 11
42.3815153996
 21
-24.6481617131
  0
LINE
  5
7A9
100
AcDbEntity
  8
0
100
AcDbLine
 62
7
  6
CONTINUOUS
 10
42.3815153996
 20
25.6018382869
 11
42.3815153996
 21
25.7518382869
  0
LINE
  5
7AA
100
AcDbEntity
  8
0
100
AcDbLine
 62
7
  6
CONTINUOUS
 10
43.8260728499
 20
26.9018382869
 11
43.8269905122
 21
26.9233642572
  0
LINE
  5
7AB
100
AcDbEntity
  8
0
100
AcDbLine
 62
7
  6
CONTINUOUS
 10
46.4360402869
 20
26.9233642572
 11
46.5854999685
 21
27.4811553826
  0
LINE
  5
7AC
100
AcDbEntity
  8
0
100
AcDbLine
 62
7
  6
CONTINUOUS
 10
46.4369579492
 20
26.9018382869
 11
46.5917376517
 21
27.4794840004
  0
LINE
  5
7AD
100
AcDbEntity
  8
0
100
AcDbLine
 62
7
  6
CONTINUOUS
 10
22.6404473996
 20
-36.6771797131
 11
22.8578753996
 21
-36.3689417131
  0
LINE
  5
7AE
100
AcDbEntity
  8
0
100
AcDbLine
 62
7
  6
CONTINUOUS
 10
27.4618093996
 20
-30.5184557131
 11
24.7018093996
 21
-33.2784557131
  0
LINE
  5
7AF
100
AcDbEntity
  8
0
100
AcDbLine
 62
7
  6
CONTINUOUS
 10
24.8715153996
 20
-33.4481617131
 11
27.6315153996
 21
-30.6881617131
  0
LINE
  5
7B0
100
AcDbEntity
  8
0
100
AcDbLine
 62
7
  6
CONTINUOUS
 10
22.525294792
 20
-32.0545873824
 11
21.3562193996
 21
-33.0397747131
  0
LINE
  5
7B1
100
AcDbEntity
  8
0
100
AcDbLine
 62
7
  6
CONTINUOUS
 10
21.3562193996
 20
-33.5514707131
 11
22.4710512993
 21
-32.6119947977
  0
LINE
  5
7B2
100
AcDbEntity
  8
0
100
AcDbLine
 62
253
  6
CONTINUOUS
 10
-46.3287068525
 20
27.4794840004
 11
-46.3224691694
 21
27.4811553826
  0
LINE
  5
7B3
100
AcDbEntity
  8
0
100
AcDbLine
 62
253
  6
CONTINUOUS
 10
46.5917376517
 20
27.4794840004
 11
46.5854999685
 21
27.4811553826
  0
LINE
  5
7B4
100
AcDbEntity
  8
0
100
AcDbLine
 62
7
  6
CONTINUOUS
 10
30.3985753996
 20
30.5524642869
 11
28.6693873996
 21
32.9057652869
  0
LINE
  5
7B5
100
AcDbEntity
  8
0
100
AcDbLine
 62
7
  6
CONTINUOUS
 10
28.1695213996
 20
32.4145722869
 11
29.5002273996
 21
30.5524642869
  0
LINE
  5
7B6
100
AcDbEntity
  8
0
100
AcDbLine
 62
7
  6
CONTINUOUS
 10
46.5854999685
 20
-26.3774788088
 11
46.4360402869
 21
-25.8196876834
  0
LINE
  5
7B7
100
AcDbEntity
  8
0
100
AcDbLine
 62
7
  6
CONTINUOUS
 10
46.5917376517
 20
-26.3758074267
 11
46.4369579492
 21
-25.7981617131
  0
LINE
  5
7B8
100
AcDbEntity
  8
0
100
AcDbLine
 62
7
  6
CONTINUOUS
 10
42.9369579492
 20
26.9018382869
 11
42.9360402869
 21
26.9233642572
  0
LINE
  5
7B9
100
AcDbEntity
  8
0
100
AcDbLine
 62
7
  6
CONTINUOUS
 10
47.3260728499
 20
-25.7981617131
 11
47.3269905122
 21
-25.8196876834
  0
LINE
  5
7BA
100
AcDbEntity
  8
0
100
AcDbLine
 62
7
  6
CONTINUOUS
 10
46.4369579492
 20
26.9018382869
 11
46.4360402869
 21
26.9233642572
  0
LINE
  5
7BB
100
AcDbEntity
  8
0
100
AcDbLine
 62
7
  6
CONTINUOUS
 10
47.8815153996
 20
-24.4981617131
 11
47.8815153996
 21
-24.6481617131
  0
LINE
  5
7BC
100
AcDbEntity
  8
0
100
AcDbLine
 62
7
  6
CONTINUOUS
 10
47.8815153996
 20
25.6018382869
 11
47.8815153996
 21
25.7518382869
  0
LINE
  5
7BD
100
AcDbEntity
  8
0
100
AcDbLine
 62
253
  6
CONTINUOUS
 10
47.9417224862
 20
-25.4379546265
 11
47.9417224862
 21
-24.8481617131
  0
LINE
  5
7BE
100
AcDbEntity
  8
0
100
AcDbLine
 62
253
  6
CONTINUOUS
 10
47.9417224862
 20
25.9518382869
 11
47.9417224862
 21
26.5416312002
  0
LINE
  5
7BF
100
AcDbEntity
  8
0
100
AcDbLine
 62
253
  6
CONTINUOUS
 10
48.1414483932
 20
-25.2397881299
 11
48.1414483932
 21
-24.6484358062
  0
LINE
  5
7C0
100
AcDbEntity
  8
0
100
AcDbLine
 62
253
  6
CONTINUOUS
 10
48.1414483932
 20
25.7521123799
 11
48.1414483932
 21
26.3434647036
  0
LINE
  5
7C1
100
AcDbEntity
  8
0
100
AcDbLine
 62
7
  6
CONTINUOUS
 10
48.3254241829
 20
26.1883718227
 11
48.3254241829
 21
25.7518382869
  0
LINE
  5
7C2
100
AcDbEntity
  8
0
100
AcDbLine
 62
7
  6
CONTINUOUS
 10
48.3254241829
 20
-24.6481617131
 11
48.3254241829
 21
-25.0846952489
  0
LINE
  5
7C3
100
AcDbEntity
  8
0
100
AcDbLine
 62
7
  6
CONTINUOUS
 10
42.9369579492
 20
-25.7981617131
 11
42.9360402869
 21
-25.8196876834
  0
LINE
  5
7C4
100
AcDbEntity
  8
0
100
AcDbLine
 62
7
  6
CONTINUOUS
 10
47.3260728499
 20
26.9018382869
 11
47.3269905122
 21
26.9233642572
  0
LINE
  5
7C5
100
AcDbEntity
  8
0
100
AcDbLine
 62
7
  6
CONTINUOUS
 10
46.4369579492
 20
-25.7981617131
 11
46.4360402869
 21
-25.8196876834
  0
LINE
  5
7C6
100
AcDbEntity
  8
0
100
AcDbLine
 62
7
  6
CONTINUOUS
 10
43.8260728499
 20
-25.7981617131
 11
43.6712931475
 21
-26.3758074267
  0
LINE
  5
7C7
100
AcDbEntity
  8
0
100
AcDbLine
 62
7
  6
CONTINUOUS
 10
43.8269905122
 20
-25.8196876834
 11
43.6775308306
 21
-26.3774788088
  0
LINE
  5
7C8
100
AcDbEntity
  8
0
100
AcDbLine
 62
7
  6
CONTINUOUS
 10
30.3915153996
 20
-33.4481617131
 11
27.6315153996
 21
-36.2081617131
  0
LINE
  5
7C9
100
AcDbEntity
  8
0
100
AcDbLine
 62
7
  6
CONTINUOUS
 10
27.8012213996
 20
-36.3778677131
 11
30.5612213996
 21
-33.6178677131
  0
LINE
  5
7CA
100
AcDbEntity
  8
0
100
AcDbLine
 62
7
  6
CONTINUOUS
 10
27.7617303996
 20
-33.4061617131
 11
28.1061563996
 21
-33.1781617131
  0
LINE
  5
7CB
100
AcDbEntity
  8
0
100
AcDbLine
 62
7
  6
CONTINUOUS
 10
27.5318353996
 20
-33.8561617131
 11
27.1638233996
 21
-34.0961617131
  0
LINE
  5
7CC
100
AcDbEntity
  8
0
100
AcDbLine
 62
7
  6
CONTINUOUS
 10
44.3315153996
 20
-25.5481617131
 11
43.8985026977
 21
-25.7981617131
  0
LINE
  5
7CD
100
AcDbEntity
  8
0
100
AcDbLine
 62
7
  6
CONTINUOUS
 10
44.3372832659
 20
-25.5696876834
 11
43.904270564
 21
-25.8196876834
  0
LINE
  5
7CE
100
AcDbEntity
  8
0
100
AcDbLine
 62
7
  6
CONTINUOUS
 10
-66.092947277
 20
46.4518382567
 11
-64.2298485518
 21
46.5406467529
  0
LINE
  5
7CF
100
AcDbEntity
  8
0
100
AcDbLine
 62
7
  6
CONTINUOUS
 10
64.492879351
 20
46.5406467529
 11
66.3559780762
 21
46.4518382567
  0
LINE
  5
7D0
100
AcDbEntity
  8
0
100
AcDbLine
 62
7
  6
CONTINUOUS
 10
43.8985026977
 20
26.9018382869
 11
44.3315153996
 21
26.6518382869
  0
LINE
  5
7D1
100
AcDbEntity
  8
0
100
AcDbLine
 62
7
  6
CONTINUOUS
 10
43.904270564
 20
26.9233642572
 11
44.3372832659
 21
26.6733642572
  0
LWPOLYLINE
  5
7D2
100
AcDbEntity
  8
0
100
AcDbPolyline
 62
7
  6
CONTINUOUS
 90
16
 70
0
 10
30.9044171309
 20
31.0793580473
 10
30.969511467
 20
31.007257354
 10
31.0393253368
 20
30.9388315494
 10
31.1138587404
 20
30.8740806334
 10
31.1935889859
 20
30.8125625497
 10
31.2780387651
 20
30.7547193546
 10
31.3657761541
 20
30.7018772168
 10
31.4560088713
 20
30.6544503065
 10
31.5495291983
 20
30.6120244535
 10
31.6472820556
 20
30.5746833157
 10
31.7494613794
 20
30.542224919
 10
31.8558732336
 20
30.5148512376
 10
31.9668807302
 20
30.4932518517
 10
32.0826049066
 20
30.4776566214
 10
32.2029247253
 20
30.4678356866
 10
32.3278401865
 20
30.4637890473
  0
LWPOLYLINE
  5
7D3
100
AcDbEntity
  8
0
100
AcDbPolyline
 62
7
  6
CONTINUOUS
 90
16
 70
0
 10
33.7510515754
 20
34.0251301028
 10
33.6859383374
 20
34.0972534643
 10
33.616112543
 20
34.1656961428
 10
33.5415741923
 20
34.2304581384
 10
33.4618457795
 20
34.2919807348
 10
33.3774048103
 20
34.3498226483
 10
33.289683802
 20
34.4026600273
 10
33.1994780119
 20
34.4500778385
 10
33.1059921827
 20
34.4924911151
 10
33.0082730591
 20
34.529821106
 10
32.9061255723
 20
34.5622712825
 10
32.7997447912
 20
34.5896381733
 10
32.6887626669
 20
34.6112326117
 10
32.5730565166
 20
34.6268248758
 10
32.4527490231
 20
34.6366446877
 10
32.3278401865
 20
34.6406920473
  0
LWPOLYLINE
  5
7D4
100
AcDbEntity
  8
0
100
AcDbPolyline
 62
7
  6
CONTINUOUS
 90
16
 70
0
 10
31.4981985754
 20
31.4385916584
 10
31.4584176642
 20
31.4839225734
 10
31.4201078407
 20
31.5334402012
 10
31.3832691048
 20
31.587144542
 10
31.347684133
 20
31.6449468427
 10
31.3135702489
 20
31.7069358562
 10
31.2815794232
 20
31.7733778414
 10
31.2516392328
 20
31.8444778965
 10
31.2238221008
 20
31.9200309231
 10
31.1989972682
 20
31.9996878856
 10
31.1771331264
 20
32.0837495405
 10
31.158261284
 20
32.1719151313
 10
31.1433458066
 20
32.2629333523
 10
31.1327080496
 20
32.3563871018
 10
31.1260266577
 20
32.4526934816
 10
31.1233016309
 20
32.5518524917
  0
LWPOLYLINE
  5
7D5
100
AcDbEntity
  8
0
100
AcDbPolyline
 62
7
  6
CONTINUOUS
 90
16
 70
0
 10
33.1572560198
 20
33.6651344917
 10
33.1970357676
 20
33.6198086582
 10
33.2353444411
 20
33.5702957871
 10
33.2721820404
 20
33.5165958785
 10
33.3077659063
 20
33.458797615
 10
33.3418786978
 20
33.3968123138
 10
33.3738683924
 20
33.3303739276
 10
33.4038072604
 20
33.2592777426
 10
33.4316230314
 20
33.1837284724
 10
33.4564468708
 20
33.1040742109
 10
33.4783104917
 20
33.0200157124
 10
33.497182181
 20
32.9318522226
 10
33.5120979648
 20
32.8408295725
 10
33.5227365184
 20
32.7473630391
 10
33.5294191663
 20
32.6510373455
 10
33.5321459087
 20
32.5518524917
  0
LINE
  5
7D6
100
AcDbEntity
  8
0
100
AcDbLine
 62
7
  6
CONTINUOUS
 10
37.4952863996
 20
31.7269722869
 11
35.6512883996
 21
34.5512122869
  0
LINE
  5
7D7
100
AcDbEntity
  8
0
100
AcDbLine
 62
7
  6
CONTINUOUS
 10
35.6506763996
 20
33.3458762869
 11
37.4691893996
 21
30.5524642869
  0
LINE
  5
7D8
100
AcDbEntity
  8
0
100
AcDbLine
 62
7
  6
CONTINUOUS
 10
43.6712931475
 20
27.4794840004
 11
43.8260728499
 21
26.9018382869
  0
LINE
  5
7D9
100
AcDbEntity
  8
0
100
AcDbLine
 62
7
  6
CONTINUOUS
 10
43.6775308306
 20
27.4811553826
 11
43.8269905122
 21
26.9233642572
  0
LINE
  5
7DA
100
AcDbEntity
  8
0
100
AcDbLine
 62
7
  6
CONTINUOUS
 10
45.9315153996
 20
-25.5481617131
 11
45.9257475332
 21
-25.5696876834
  0
LINE
  5
7DB
100
AcDbEntity
  8
0
100
AcDbLine
 62
7
  6
CONTINUOUS
 10
46.3645281015
 20
-25.7981617131
 11
46.3587602351
 21
-25.8196876834
  0
LINE
  5
7DC
100
AcDbEntity
  8
0
100
AcDbLine
 62
7
  6
CONTINUOUS
 10
47.3260728499
 20
-25.7981617131
 11
47.1712931475
 21
-26.3758074267
  0
LINE
  5
7DD
100
AcDbEntity
  8
0
100
AcDbLine
 62
7
  6
CONTINUOUS
 10
47.3269905122
 20
-25.8196876834
 11
47.1775308306
 21
-26.3774788088
  0
LINE
  5
7DE
100
AcDbEntity
  8
0
100
AcDbLine
 62
7
  6
CONTINUOUS
 10
42.6815153996
 20
-25.7981617131
 11
42.6725990507
 21
-25.8196876834
  0
LINE
  5
7DF
100
AcDbEntity
  8
0
100
AcDbLine
 62
7
  6
CONTINUOUS
 10
47.9417224862
 20
-24.8481617131
 11
47.9588133806
 21
-24.830926677
  0
LINE
  5
7E0
100
AcDbEntity
  8
0
100
AcDbLine
 62
7
  6
CONTINUOUS
 10
48.1321465605
 20
-24.6577582566
 11
48.1403956952
 21
-24.6494373256
  0
LINE
  5
7E1
100
AcDbEntity
  8
0
100
AcDbLine
 62
7
  6
CONTINUOUS
 10
47.9417224862
 20
-25.4379546265
 11
47.5815153996
 21
-25.7981617131
  0
LINE
  5
7E2
100
AcDbEntity
  8
0
100
AcDbLine
 62
7
  6
CONTINUOUS
 10
48.3254241829
 20
-25.0846952489
 11
47.5904317484
 21
-25.8196876834
  0
LINE
  5
7E3
100
AcDbEntity
  8
0
100
AcDbLine
 62
7
  6
CONTINUOUS
 10
47.9588133806
 20
-24.830926677
 11
48.1321465605
 21
-24.6577582566
  0
LINE
  5
7E4
100
AcDbEntity
  8
0
100
AcDbLine
 62
7
  6
CONTINUOUS
 10
48.1403956952
 20
-24.6494373256
 11
48.1414483932
 21
-24.6484358062
  0
LINE
  5
7E5
100
AcDbEntity
  8
0
100
AcDbLine
 62
7
  6
CONTINUOUS
 10
48.1414483932
 20
-25.2397881299
 11
48.3254241829
 21
-25.0846952489
  0
LINE
  5
7E6
100
AcDbEntity
  8
0
100
AcDbLine
 62
7
  6
CONTINUOUS
 10
48.1414483932
 20
26.3434647036
 11
48.3254241829
 21
26.1883718227
  0
LINE
  5
7E7
100
AcDbEntity
  8
0
100
AcDbLine
 62
7
  6
CONTINUOUS
 10
48.1414483932
 20
25.7521123799
 11
48.1403956952
 21
25.7531138993
  0
LWPOLYLINE
  5
7E8
100
AcDbEntity
  8
0
100
AcDbPolyline
 62
7
  6
CONTINUOUS
 90
3
 70
0
 10
48.0065805101
 20
25.8870194797
 10
47.9588133806
 20
25.9346032507
 10
47.9417224862
 20
25.9518382869
  0
LINE
  5
7E9
100
AcDbEntity
  8
0
100
AcDbLine
 62
7
  6
CONTINUOUS
 10
47.5815153996
 20
26.9018382869
 11
47.9417224862
 21
26.5416312002
  0
LINE
  5
7EA
100
AcDbEntity
  8
0
100
AcDbLine
 62
7
  6
CONTINUOUS
 10
47.5904317484
 20
26.9233642572
 11
48.3254241829
 21
26.1883718227
  0
LWPOLYLINE
  5
7EB
100
AcDbEntity
  8
0
100
AcDbPolyline
 62
7
  6
CONTINUOUS
 90
3
 70
0
 10
48.1403956952
 20
25.7531138993
 10
48.1357800568
 20
25.7577807163
 10
48.0065805101
 20
25.8870194797
  0
LINE
  5
7EC
100
AcDbEntity
  8
0
100
AcDbLine
 62
7
  6
CONTINUOUS
 10
42.6815153996
 20
26.9018382869
 11
42.6725990507
 21
26.9233642572
  0
LINE
  5
7ED
100
AcDbEntity
  8
0
100
AcDbLine
 62
7
  6
CONTINUOUS
 10
45.9315153996
 20
26.6518382869
 11
45.9257475332
 21
26.6733642572
  0
LINE
  5
7EE
100
AcDbEntity
  8
0
100
AcDbLine
 62
7
  6
CONTINUOUS
 10
46.3645281015
 20
26.9018382869
 11
46.3587602351
 21
26.9233642572
  0
LINE
  5
7EF
100
AcDbEntity
  8
0
100
AcDbLine
 62
7
  6
CONTINUOUS
 10
47.1712931475
 20
27.4794840004
 11
47.3260728499
 21
26.9018382869
  0
LINE
  5
7F0
100
AcDbEntity
  8
0
100
AcDbLine
 62
7
  6
CONTINUOUS
 10
47.1775308306
 20
27.4811553826
 11
47.3269905122
 21
26.9233642572
  0
LINE
  5
7F1
100
AcDbEntity
  8
RACCORDO
100
AcDbLine
 62
253
  6
CONTINUOUS
 10
56.7916966265
 20
-22.6178897513
 11
56.7926885954
 21
-22.6387670572
  0
LWPOLYLINE
  5
7F2
100
AcDbEntity
  8
RACCORDO
100
AcDbPolyline
 62
253
  6
CONTINUOUS
 90
10
 70
0
 10
57.3418550564
 20
23.2115346741
 10
57.4340124006
 20
21.0772038908
 10
57.5189700598
 20
18.8497085911
 10
57.5961940523
 20
16.5296758311
 10
57.6659658617
 20
14.1237319301
 10
57.7271495656
 20
11.6268082027
 10
57.7769961461
 20
9.0222001757
 10
57.8139176458
 20
6.3048088161
 10
57.8377715805
 20
3.481147333
 10
57.8476309119
 20
0.5518350183
  0
LWPOLYLINE
  5
7F3
100
AcDbEntity
  8
RACCORDO
100
AcDbPolyline
 62
253
  6
CONTINUOUS
 90
10
 70
0
 10
57.4542971415
 20
23.2116428461
 10
57.5449511654
 20
21.0761103754
 10
57.6299834197
 20
18.8488283294
 10
57.7081679231
 20
16.5297923033
 10
57.7780652058
 20
14.1241156706
 10
57.8385626929
 20
11.6267070452
 10
57.8886187847
 20
9.0222640888
 10
57.9266434675
 20
6.3057118075
 10
57.9507544086
 20
3.4822117564
 10
57.9591384766
 20
0.5518350178
  0
LINE
  5
7F4
100
AcDbEntity
  8
RACCORDO
100
AcDbLine
 62
253
  6
CONTINUOUS
 10
56.8189790458
 20
-23.3194041361
 11
56.795830836
 21
-22.7600508388
  0
LINE
  5
7F5
100
AcDbEntity
  8
RACCORDO
100
AcDbLine
 62
253
  6
CONTINUOUS
 10
56.7926885954
 20
-22.6387670572
 11
56.7940715481
 21
-22.6717012357
  0
LINE
  5
7F6
100
AcDbEntity
  8
RACCORDO
100
AcDbLine
 62
253
  6
CONTINUOUS
 10
56.7940715481
 20
-22.6717012357
 11
56.7948581093
 21
-22.693178548
  0
LINE
  5
7F7
100
AcDbEntity
  8
RACCORDO
100
AcDbLine
 62
253
  6
CONTINUOUS
 10
56.7948581093
 20
-22.693178548
 11
56.7954908449
 21
-22.7130488944
  0
LWPOLYLINE
  5
7F8
100
AcDbEntity
  8
RACCORDO
100
AcDbPolyline
 62
253
  6
CONTINUOUS
 90
13
 70
0
 10
57.0195492031
 20
22.4518384228
 10
57.0178892727
 20
22.5127083184
 10
57.0132253975
 20
22.5733422549
 10
57.0055803735
 20
22.633591736
 10
56.9949988571
 20
22.6932358513
 10
56.9815108451
 20
22.7522060665
 10
56.9650954049
 20
22.8105784283
 10
56.9457771717
 20
22.8681899373
 10
56.923579384
 20
22.9249063612
 10
56.8984206908
 20
22.9808251066
 10
56.870264888
 20
23.0358602384
 10
56.839162884
 20
23.0897592301
 10
56.8051407831
 20
23.1423513788
  0
LWPOLYLINE
  5
7F9
100
AcDbEntity
  8
RACCORDO
100
AcDbPolyline
 62
253
  6
CONTINUOUS
 90
13
 70
0
 10
57.1068010289
 20
22.4561337815
 10
57.1050805242
 20
22.5200145587
 10
57.1003731398
 20
22.5833817263
 10
57.0926821322
 20
22.6462282377
 10
57.0820013517
 20
22.7086096964
 10
57.0683436867
 20
22.7704556918
 10
57.0517409896
 20
22.8315699903
 10
57.0322218478
 20
22.8919465268
 10
57.0097646187
 20
22.9515758293
 10
56.9843258139
 20
23.0102565126
 10
56.9558933365
 20
23.0679160498
 10
56.9244864875
 20
23.1246107761
 10
56.890108921
 20
23.1803325222
  0
LWPOLYLINE
  5
7FA
100
AcDbEntity
  8
RACCORDO
100
AcDbPolyline
 62
253
  6
CONTINUOUS
 90
9
 70
0
 10
56.7954908449
 20
-22.7130488944
 10
56.7959389684
 20
-22.7303454601
 10
56.7960866037
 20
-22.7377595176
 10
56.7961806758
 20
-22.7442266604
 10
56.7962200368
 20
-22.7496679814
 10
56.7962042065
 20
-22.7540170895
 10
56.796133378
 20
-22.7572209202
 10
56.7960084156
 20
-22.7592403826
 10
56.795830844
 20
-22.7600508368
  0
LINE
  5
7FB
100
AcDbEntity
  8
RACCORDO
100
AcDbLine
 62
253
  6
CONTINUOUS
 10
57.0333533788
 20
15.1938673136
 11
57.0195492032
 21
22.4518384228
  0
LINE
  5
7FC
100
AcDbEntity
  8
RACCORDO
100
AcDbLine
 62
253
  6
CONTINUOUS
 10
57.1210744875
 20
15.196721781
 11
57.1068010289
 21
22.4561337815
  0
LINE
  5
7FD
100
AcDbEntity
  8
RACCORDO
100
AcDbLine
 62
253
  6
CONTINUOUS
 10
57.0416983294
 20
7.8741993667
 11
57.0333533788
 21
15.1938673136
  0
LINE
  5
7FE
100
AcDbEntity
  8
RACCORDO
100
AcDbLine
 62
253
  6
CONTINUOUS
 10
57.1314831577
 20
5.4347896487
 11
57.1210744875
 21
15.196721781
  0
LINE
  5
7FF
100
AcDbEntity
  8
RACCORDO
100
AcDbLine
 62
253
  6
CONTINUOUS
 10
57.0444913458
 20
0.5518372325
 11
57.0416983294
 21
7.8741993667
  0
LINE
  5
800
100
AcDbEntity
  8
RACCORDO
100
AcDbLine
 62
253
  6
CONTINUOUS
 10
55.7815153996
 20
23.7589293804
 11
55.7815153996
 21
23.6518382869
  0
LINE
  5
801
100
AcDbEntity
  8
RACCORDO
100
AcDbLine
 62
253
  6
CONTINUOUS
 10
55.7815153996
 20
-22.6552528067
 11
55.7815153996
 21
-22.5481617131
  0
LINE
  5
802
100
AcDbEntity
  8
RACCORDO
100
AcDbLine
 62
7
  6
CONTINUOUS
 10
56.3815153996
 20
-21.3489839923
 11
56.3815153996
 21
22.452660566
  0
LINE
  5
803
100
AcDbEntity
  8
RACCORDO
100
AcDbLine
 62
7
  6
CONTINUOUS
 10
56.6315153996
 20
-22.8040899963
 11
56.6315153996
 21
-24.6481617131
  0
LINE
  5
804
100
AcDbEntity
  8
RACCORDO
100
AcDbLine
 62
7
  6
CONTINUOUS
 10
56.6315153996
 20
23.9077665701
 11
56.6315153996
 21
25.7518382869
  0
LINE
  5
805
100
AcDbEntity
  8
DRAFT
100
AcDbLine
 62
7
  6
CONTINUOUS
 10
56.9815153996
 20
22.4518382869
 11
56.9815153996
 21
-21.3481617131
  0
LINE
  5
806
100
AcDbEntity
  8
RACCORDO
100
AcDbLine
 62
253
  6
CONTINUOUS
 10
57.1324823576
 20
-1.8898945651
 11
57.1314831577
 21
5.4347896487
  0
LINE
  5
807
100
AcDbEntity
  8
RACCORDO
100
AcDbLine
 62
253
  6
CONTINUOUS
 10
57.0416983002
 20
-6.7705563773
 11
57.0444913458
 21
0.5518372325
  0
LINE
  5
808
100
AcDbEntity
  8
RACCORDO
100
AcDbLine
 62
253
  6
CONTINUOUS
 10
57.1273647053
 20
-9.2147133658
 11
57.1324823576
 21
-1.8898945651
  0
LINE
  5
809
100
AcDbEntity
  8
RACCORDO
100
AcDbLine
 62
253
  6
CONTINUOUS
 10
57.0333532976
 20
-14.0902493298
 11
57.0416983002
 21
-6.7705563773
  0
LINE
  5
80A
100
AcDbEntity
  8
RACCORDO
100
AcDbLine
 62
253
  6
CONTINUOUS
 10
57.1170642327
 20
-16.5199427421
 11
57.1273647053
 21
-9.2147133658
  0
LINE
  5
80B
100
AcDbEntity
  8
RACCORDO
100
AcDbLine
 62
253
  6
CONTINUOUS
 10
57.0195492967
 20
-21.3481126808
 11
57.0333532976
 21
-14.0902493298
  0
LINE
  5
80C
100
AcDbEntity
  8
RACCORDO
100
AcDbLine
 62
253
  6
CONTINUOUS
 10
57.1068010289
 20
-21.3524572078
 11
57.1170642327
 21
-16.5199427421
  0
LWPOLYLINE
  5
80D
100
AcDbEntity
  8
RACCORDO
100
AcDbPolyline
 62
253
  6
CONTINUOUS
 90
10
 70
0
 10
57.9591384766
 20
0.5518350178
 10
57.9507471973
 20
-2.3798201931
 10
57.9266185548
 20
-5.2042507582
 10
57.8885721847
 20
-7.9213855669
 10
57.8384974034
 20
-10.5260257145
 10
57.7779892777
 20
-13.0232836922
 10
57.70809067
 20
-15.4285741204
 10
57.6299158935
 20
-17.7470258814
 10
57.5449084922
 20
-19.973488355
 10
57.4542971493
 20
-22.1079660975
  0
LWPOLYLINE
  5
80E
100
AcDbEntity
  8
RACCORDO
100
AcDbPolyline
 62
253
  6
CONTINUOUS
 90
10
 70
0
 10
57.8476309119
 20
0.5518350183
 10
57.8377563509
 20
-2.3787548765
 10
57.8138862623
 20
-5.2033460159
 10
57.7769494792
 20
-7.9213191893
 10
57.7270867481
 20
-10.5261243503
 10
57.6658897935
 20
-13.0228972473
 10
57.5961168009
 20
-15.4284536955
 10
57.5189067093
 20
-17.7479009683
 10
57.4339749264
 20
-19.9745774845
 10
57.3418550564
 20
-22.1078581004
  0
LWPOLYLINE
  5
80F
100
AcDbEntity
  8
RACCORDO
100
AcDbPolyline
 62
253
  6
CONTINUOUS
 90
7
 70
0
 10
56.7960866011
 20
23.8414360754
 10
56.7961806735
 20
23.8479032206
 10
56.7962200349
 20
23.8533445439
 10
56.7962042049
 20
23.8576936541
 10
56.7961333769
 20
23.8608974865
 10
56.796008415
 20
23.8629169504
 10
56.7958308438
 20
23.8637274057
  0
LINE
  5
810
100
AcDbEntity
  8
RACCORDO
100
AcDbLine
 62
253
  6
CONTINUOUS
 10
56.7957395682
 20
23.8257515021
 11
56.7960866011
 21
23.8414360754
  0
LINE
  5
811
100
AcDbEntity
  8
RACCORDO
100
AcDbLine
 62
253
  6
CONTINUOUS
 10
56.7951958213
 20
23.8070539762
 11
56.7957395682
 21
23.8257515021
  0
LINE
  5
812
100
AcDbEntity
  8
RACCORDO
100
AcDbLine
 62
253
  6
CONTINUOUS
 10
56.7944818171
 20
23.7862532487
 11
56.7951958213
 21
23.8070539762
  0
LINE
  5
813
100
AcDbEntity
  8
RACCORDO
100
AcDbLine
 62
253
  6
CONTINUOUS
 10
56.8189790459
 20
24.4230807098
 11
56.7958288964
 21
23.8637274923
  0
LINE
  5
814
100
AcDbEntity
  8
RACCORDO
100
AcDbLine
 62
253
  6
CONTINUOUS
 10
56.7931694303
 20
23.7533385176
 11
56.7944818171
 21
23.7862532487
  0
LWPOLYLINE
  5
815
100
AcDbEntity
  8
RACCORDO
100
AcDbPolyline
 62
253
  6
CONTINUOUS
 90
3
 70
0
 10
56.7916966265
 20
23.721566325
 10
56.7921956546
 20
23.7318096383
 10
56.7931694303
 20
23.7533385176
  0
LWPOLYLINE
  5
816
100
AcDbEntity
  8
RACCORDO
100
AcDbPolyline
 62
253
  6
CONTINUOUS
 90
13
 70
0
 10
57.4542971493
 20
-22.1079660975
 10
57.4537694519
 20
-22.1180985158
 10
57.4530931669
 20
-22.1282137041
 10
57.4522688121
 20
-22.1383094994
 10
57.4512986306
 20
-22.1483674439
 10
57.4501819863
 20
-22.1584017625
 10
57.4489129685
 20
-22.1684590987
 10
57.4474911087
 20
-22.1785299732
 10
57.4459140866
 20
-22.1886190505
 10
57.4441679911
 20
-22.1987933932
 10
57.4422437582
 20
-22.2090729947
 10
57.4401406367
 20
-22.2194313133
 10
57.4378540824
 20
-22.2298648954
  0
LWPOLYLINE
  5
817
100
AcDbEntity
  8
RACCORDO
100
AcDbPolyline
 62
253
  6
CONTINUOUS
 90
10
 70
0
 10
57.3418550564
 20
-22.1078581004
 10
57.3413918862
 20
-22.1167196418
 10
57.3407968152
 20
-22.1255619444
 10
57.3400698639
 20
-22.1343849648
 10
57.3392133197
 20
-22.1431751797
 10
57.3382249365
 20
-22.1519460248
 10
57.3370979368
 20
-22.1607378903
 10
57.3358300775
 20
-22.1695642044
 10
57.3344236478
 20
-22.1784114374
 10
57.332878671
 20
-22.1872795374
  0
LWPOLYLINE
  5
818
100
AcDbEntity
  8
RACCORDO
100
AcDbPolyline
 62
7
  6
CONTINUOUS
 90
31
 70
0
 10
57.4378540824
 20
-22.2298648954
 10
57.4264824813
 20
-22.2720838314
 10
57.4128285674
 20
-22.3124983036
 10
57.3971308021
 20
-22.3510178265
 10
57.3796092349
 20
-22.387603242
 10
57.3605037121
 20
-22.4221805744
 10
57.3400879246
 20
-22.454648048
 10
57.3186229392
 20
-22.4849612988
 10
57.2962918169
 20
-22.5131915484
 10
57.273238282
 20
-22.5394359993
 10
57.2496557249
 20
-22.5637219955
 10
57.2257009615
 20
-22.5861148596
 10
57.2014221716
 20
-22.6067623956
 10
57.1769408705
 20
-22.6257278809
 10
57.1523938974
 20
-22.6430611176
 10
57.1278180609
 20
-22.6588749276
 10
57.1033030559
 20
-22.6732360636
 10
57.07895244
 20
-22.6862016971
 10
57.05480235
 20
-22.6978601956
 10
57.0309247414
 20
-22.7082769317
 10
57.0073918909
 20
-22.7175158997
 10
56.9842259844
 20
-22.72565599
 10
56.9614811926
 20
-22.7327609422
 10
56.93920792
 20
-22.7388944414
 10
56.9174119347
 20
-22.7441278017
 10
56.8962143088
 20
-22.7485053255
 10
56.8755676728
 20
-22.7521075965
 10
56.855213051
 20
-22.755029493
 10
56.8350769635
 20
-22.7573128379
 10
56.8152764885
 20
-22.7589756491
 10
56.795830836
 20
-22.7600508388
  0
LWPOLYLINE
  5
819
100
AcDbEntity
  8
RACCORDO
100
AcDbPolyline
 62
253
  6
CONTINUOUS
 90
13
 70
0
 10
56.8901089587
 20
-22.0766558823
 10
56.9228178944
 20
-22.0239936826
 10
56.9529528207
 20
-21.9700277425
 10
56.9805109324
 20
-21.9147643179
 10
57.0055067405
 20
-21.8583351047
 10
57.0279200574
 20
-21.8006211137
 10
57.0476960669
 20
-21.74125249
 10
57.0649588108
 20
-21.6800160121
 10
57.0795786537
 20
-21.6171372662
 10
57.0911196784
 20
-21.5529058893
 10
57.0994339723
 20
-21.4874241345
 10
57.1046622678
 20
-21.420605385
 10
57.1068010289
 20
-21.3524572078
  0
LWPOLYLINE
  5
81A
100
AcDbEntity
  8
RACCORDO
100
AcDbPolyline
 62
253
  6
CONTINUOUS
 90
13
 70
0
 10
56.8051407831
 20
-22.0386748051
 10
56.8375178645
 20
-21.9887665652
 10
56.8674167664
 20
-21.937391973
 10
56.8947739104
 20
-21.8846760151
 10
56.9194220612
 20
-21.8310046418
 10
56.9414454377
 20
-21.7762593637
 10
56.9610551776
 20
-21.7197666148
 10
56.9781641251
 20
-21.6613739808
 10
56.9925280509
 20
-21.6014338687
 10
57.0040033856
 20
-21.5400015532
 10
57.0124343253
 20
-21.4771900192
 10
57.017665164
 20
-21.4131721914
 10
57.0195493514
 20
-21.3481126807
  0
LWPOLYLINE
  5
81B
100
AcDbEntity
  8
RACCORDO
100
AcDbPolyline
 62
7
  6
CONTINUOUS
 90
19
 70
0
 10
75.7541924789
 20
4.258820291
 10
75.7510324509
 20
4.2544615437
 10
75.7458917107
 20
4.2502043955
 10
75.7387702581
 20
4.2460488466
 10
75.7295488808
 20
4.2419547302
 10
75.7183467912
 20
4.2379622129
 10
75.7055216269
 20
4.234191795
 10
75.6911000058
 20
4.230670124
 10
75.6750553101
 20
4.2273705523
 10
75.6576653239
 20
4.2243336369
 10
75.6389261326
 20
4.221558297
 10
75.6188416509
 20
4.2190456135
 10
75.597701407
 20
4.2168393858
 10
75.5753643172
 20
4.2149391258
 10
75.5519714653
 20
4.2133453215
 10
75.5282356312
 20
4.2121032374
 10
75.5043944082
 20
4.2112279613
 10
75.4802102029
 20
4.2107044054
 10
75.4556830154
 20
4.2105325695
  0
LWPOLYLINE
  5
81C
100
AcDbEntity
  8
RACCORDO
100
AcDbPolyline
 62
7
  6
CONTINUOUS
 90
19
 70
0
 10
75.7931642832
 20
-3.234895255
 10
75.7963236712
 20
-3.2392540678
 10
75.8014637284
 20
-3.2435112653
 10
75.8085844549
 20
-3.2476668474
 10
75.8178050569
 20
-3.2517609781
 10
75.8290063282
 20
-3.2557534934
 10
75.8418306502
 20
-3.2595239019
 10
75.8562513947
 20
-3.2630455561
 10
75.8722951898
 20
-3.2663451036
 10
75.889684302
 20
-3.2693819954
 10
75.9084226438
 20
-3.2721573144
 10
75.9285063026
 20
-3.2746699778
 10
75.9496458065
 20
-3.2768761888
 10
75.9719822387
 20
-3.2787764366
 10
75.995374516
 20
-3.280370232
 10
76.0191099177
 20
-3.2816123102
 10
76.0429508701
 20
-3.2824875828
 10
76.0671349467
 20
-3.2830111383
 10
76.0916621476
 20
-3.2831829765
  0
LWPOLYLINE
  5
81D
100
AcDbEntity
  8
RACCORDO
100
AcDbPolyline
 62
253
  6
CONTINUOUS
 90
22
 70
0
 10
56.8759580644
 20
23.1744747888
 10
56.8401740757
 20
23.2249270905
 10
56.8027641735
 20
23.2731129902
 10
56.7637283576
 20
23.3190324877
 10
56.7230275677
 20
23.3626508061
 10
56.6807008642
 20
23.4040027225
 10
56.6368654286
 20
23.443192568
 10
56.5914349959
 20
23.4803023756
 10
56.5444958311
 20
23.5152501124
 10
56.4964239103
 20
23.5478940106
 10
56.4472845711
 20
23.5781881256
 10
56.3970124759
 20
23.606178402
 10
56.3457875884
 20
23.6318609053
 10
56.2937944593
 20
23.6552160174
 10
56.2408485379
 20
23.6762633564
 10
56.1865761348
 20
23.6950578417
 10
56.1308822302
 20
23.7116660898
 10
56.073861844
 20
23.7260214843
 10
56.0154263466
 20
23.7379790949
 10
55.955546195
 20
23.7474906115
 10
55.8942509323
 20
23.7546043442
 10
55.8315405584
 20
23.759320293
  0
LWPOLYLINE
  5
81E
100
AcDbEntity
  8
RACCORDO
100
AcDbPolyline
 62
253
  6
CONTINUOUS
 90
22
 70
0
 10
56.8051407831
 20
23.1423513788
 10
56.7718471282
 20
23.1914805896
 10
56.736417927
 20
23.2386446872
 10
56.6989821352
 20
23.2837626026
 10
56.6596982514
 20
23.3267353588
 10
56.6186734914
 20
23.3675276135
 10
56.5759510548
 20
23.4061546223
 10
56.5316202441
 20
23.4425826555
 10
56.4858381839
 20
23.4767289463
 10
56.4387424753
 20
23.5085358033
 10
56.3905182192
 20
23.5379326591
 10
56.3412396876
 20
23.5649275629
 10
56.2908681337
 20
23.5895712183
 10
56.2397171519
 20
23.6117465696
 10
56.1877147199
 20
23.6315167063
 10
56.1341943278
 20
23.6490875008
 10
56.0791134964
 20
23.6643677036
 10
56.0226972399
 20
23.677184516
 10
55.9646445489
 20
23.6874663012
 10
55.9049306223
 20
23.6950458342
 10
55.8438200248
 20
23.6997239663
 10
55.7814581407
 20
23.7013283653
  0
LWPOLYLINE
  5
81F
100
AcDbEntity
  8
RACCORDO
100
AcDbPolyline
 62
253
  6
CONTINUOUS
 90
13
 70
0
 10
57.4378540824
 20
23.3335414691
 10
57.4400555554
 20
23.3235103738
 10
57.4421075229
 20
23.3134460248
 10
57.4440094577
 20
23.3033506417
 10
57.4457612745
 20
23.2932239681
 10
57.4473620287
 20
23.2830707141
 10
57.4488102887
 20
23.2729006134
 10
57.4501055789
 20
23.2627194474
 10
57.4512483953
 20
23.2525260341
 10
57.4522390179
 20
23.2423196944
 10
57.4530774332
 20
23.2321017096
 10
57.4537634815
 20
23.2218753371
 10
57.4542971415
 20
23.2116428461
  0
LWPOLYLINE
  5
820
100
AcDbEntity
  8
RACCORDO
100
AcDbPolyline
 62
253
  6
CONTINUOUS
 90
10
 70
0
 10
57.332878671
 20
23.2909561111
 10
57.3344064708
 20
23.2822116872
 10
57.3358021488
 20
23.2734436063
 10
57.3370656836
 20
23.2646519154
 10
57.338197633
 20
23.255831989
 10
57.3391973966
 20
23.2469885447
 10
57.3400632158
 20
23.2381356439
 10
57.34079449
 20
23.2292780046
 10
57.3413917772
 20
23.2204109998
 10
57.3418550564
 20
23.2115346741
  0
LINE
  5
821
100
AcDbEntity
  8
RACCORDO
100
AcDbLine
 62
253
  6
CONTINUOUS
 10
66.2823267181
 20
-43.8248407164
 11
66.2515506343
 21
-43.1882969064
  0
LINE
  5
822
100
AcDbEntity
  8
RACCORDO
100
AcDbLine
 62
253
  6
CONTINUOUS
 10
66.1153513654
 20
-40.3712782678
 11
66.1787310029
 21
-41.6821635716
  0
LINE
  5
823
100
AcDbEntity
  8
RACCORDO
100
AcDbLine
 62
253
  6
CONTINUOUS
 10
66.32698937
 20
-44.7486013495
 11
66.3547119159
 21
-45.3219886298
  0
LINE
  5
824
100
AcDbEntity
  8
RACCORDO
100
AcDbLine
 62
253
  6
CONTINUOUS
 10
66.2823267181
 20
44.9285172901
 11
66.2515506343
 21
44.2919734801
  0
LINE
  5
825
100
AcDbEntity
  8
RACCORDO
100
AcDbLine
 62
253
  6
CONTINUOUS
 10
66.1153513654
 20
41.4749548415
 11
66.1787310029
 21
42.7858401454
  0
LINE
  5
826
100
AcDbEntity
  8
RACCORDO
100
AcDbLine
 62
253
  6
CONTINUOUS
 10
66.32698937
 20
45.8522779233
 11
66.3547119159
 21
46.4256652035
  0
LWPOLYLINE
  5
827
100
AcDbEntity
  8
RACCORDO
100
AcDbPolyline
 62
253
  6
CONTINUOUS
 90
31
 70
0
 10
57.3346166119
 20
-22.1877112555
 10
57.3235513078
 20
-22.2222413713
 10
57.3111164844
 20
-22.2551322612
 10
57.2973121417
 20
-22.2863839251
 10
57.2819499862
 20
-22.31601989
 10
57.2652183114
 20
-22.3440166289
 10
57.2476819981
 20
-22.3703035616
 10
57.2293938724
 20
-22.3948085413
 10
57.2103011083
 20
-22.4176037148
 10
57.1908101079
 20
-22.4388349427
 10
57.1709669169
 20
-22.4584829815
 10
57.1507254895
 20
-22.4765670748
 10
57.130354091
 20
-22.4932908133
 10
57.109873899
 20
-22.5086604087
 10
57.0892637358
 20
-22.5226696494
 10
57.0687283326
 20
-22.5355034919
 10
57.0482825326
 20
-22.5471662082
 10
57.0279114926
 20
-22.5576535263
 10
57.0077754143
 20
-22.5671375863
 10
56.9878895209
 20
-22.5756205316
 10
56.9682385891
 20
-22.5831002188
 10
56.9489371513
 20
-22.5897423568
 10
56.9299998805
 20
-22.5955501464
 10
56.9114121037
 20
-22.6005203869
 10
56.893244333
 20
-22.6048091857
 10
56.8755757112
 20
-22.6084187327
 10
56.8583270956
 20
-22.6113468379
 10
56.8413315708
 20
-22.6137430386
 10
56.8245334985
 20
-22.6156571806
 10
56.807988517
 20
-22.6170394182
 10
56.7916966264
 20
-22.6178897513
  0
LWPOLYLINE
  5
828
100
AcDbEntity
  8
RACCORDO
100
AcDbPolyline
 62
7
  6
CONTINUOUS
 90
22
 70
0
 10
77.5164926318
 20
4.3033101804
 10
77.513144884
 20
4.3097443501
 10
77.5072775481
 20
4.3160513023
 10
77.4988906241
 20
4.322231037
 10
77.4879222927
 20
4.3283115494
 10
77.4744343733
 20
4.3342648444
 10
77.4586123234
 20
4.3400069359
 10
77.4404192634
 20
4.3455381731
 10
77.4198920729
 20
4.3508582069
 10
77.3973268482
 20
4.355882004
 10
77.3726356403
 20
4.3606100641
 10
77.3459063981
 20
4.3650418875
 10
77.3176990647
 20
4.3690909416
 10
77.2880370188
 20
4.372740739
 10
77.2568968816
 20
4.3760077671
 10
77.2247684598
 20
4.378854955
 10
77.1916555553
 20
4.3812768995
 10
77.1575543661
 20
4.3832790038
 10
77.1229432922
 20
4.3848404071
 10
77.0879818004
 20
4.3859541558
 10
77.052510424
 20
4.3866272035
 10
77.016529163
 20
4.3868595502
  0
LWPOLYLINE
  5
829
100
AcDbEntity
  8
RACCORDO
100
AcDbPolyline
 62
7
  6
CONTINUOUS
 90
22
 70
0
 10
73.648167682
 20
-3.0548811006
 10
73.6494186078
 20
-3.0588495152
 10
73.6522524295
 20
-3.0627411227
 10
73.6566691473
 20
-3.0665559231
 10
73.6626955698
 20
-3.0703079701
 10
73.6703048884
 20
-3.0739832101
 10
73.6794166762
 20
-3.0775394818
 10
73.6900679831
 20
-3.0809837035
 10
73.7022217592
 20
-3.0843089568
 10
73.7156864289
 20
-3.0874523254
 10
73.7305144764
 20
-3.0904117262
 10
73.7466534175
 20
-3.0931892422
 10
73.7637542235
 20
-3.0957282054
 10
73.7818255928
 20
-3.0980189973
 10
73.800858827
 20
-3.1000712365
 10
73.8204788018
 20
-3.1018571103
 10
73.8406353077
 20
-3.1033698319
 10
73.8613785542
 20
-3.1046161882
 10
73.8824840456
 20
-3.1055887279
 10
73.90387695
 20
-3.1062849671
 10
73.9256320994
 20
-3.1067073898
 10
73.9477494936
 20
-3.1068559958
  0
ARC
  5
82A
100
AcDbEntity
  8
0
100
AcDbCircle
 62
7
  6
CONTINUOUS
 10
-65.5858772484
 20
-34.8604126402
 40
10.5
100
AcDbArc
 50
184.1486144086
 51
267.2319769518
  0
ARC
  5
82B
100
AcDbEntity
  8
DRAFT
100
AcDbCircle
 62
7
  6
CONTINUOUS
 10
-65.5858772321
 20
-34.8604128694
 40
10.4737961104
100
AcDbArc
 50
184.1486139433
 51
267.2319774201
  0
ARC
  5
82C
100
AcDbEntity
  8
RACCORDO
100
AcDbCircle
 62
253
  6
CONTINUOUS
 10
-65.5858772321
 20
-34.8604128694
 40
10.3990538137
100
AcDbArc
 50
184.1486139434
 51
267.2319774201
  0
ARC
  5
82D
100
AcDbEntity
  8
RACCORDO
100
AcDbCircle
 62
253
  6
CONTINUOUS
 10
-65.5858772321
 20
-34.8604128694
 40
9.8997390464
100
AcDbArc
 50
184.1486139433
 51
267.2319774201
  0
ARC
  5
82E
100
AcDbEntity
  8
RACCORDO
100
AcDbCircle
 62
253
  6
CONTINUOUS
 10
-65.5858772321
 20
-34.8604128694
 40
8.9748993522
100
AcDbArc
 50
184.1486139433
 51
267.2319774201
  0
ARC
  5
82F
100
AcDbEntity
  8
RACCORDO
100
AcDbCircle
 62
253
  6
CONTINUOUS
 10
-65.5858772321
 20
-34.8604128694
 40
8.6760409428
100
AcDbArc
 50
184.1486139434
 51
267.2319774201
  0
ARC
  5
830
100
AcDbEntity
  8
RACCORDO
100
AcDbCircle
 62
253
  6
CONTINUOUS
 10
-65.5858772321
 20
-34.8604128694
 40
8.6364703937
100
AcDbArc
 50
184.1486139434
 51
267.2319774201
  0
ARC
  5
831
100
AcDbEntity
  8
RACCORDO
100
AcDbCircle
 62
253
  6
CONTINUOUS
 10
-65.5858772321
 20
-34.8604128694
 40
8.3376119843
100
AcDbArc
 50
184.1486139433
 51
267.2319774201
  0
ARC
  5
832
100
AcDbEntity
  8
RACCORDO
100
AcDbCircle
 62
253
  6
CONTINUOUS
 10
-65.5858772321
 20
-34.8604128694
 40
6.8297193088
100
AcDbArc
 50
184.1486139433
 51
267.2319774201
  0
ARC
  5
833
100
AcDbEntity
  8
RACCORDO
100
AcDbCircle
 62
253
  6
CONTINUOUS
 10
-65.5858772321
 20
-34.8604128694
 40
6.5297650002
100
AcDbArc
 50
184.1486139434
 51
267.2319774201
  0
ARC
  5
834
100
AcDbEntity
  8
RACCORDO
100
AcDbCircle
 62
253
  6
CONTINUOUS
 10
-65.5858772321
 20
-34.8604128694
 40
6.517150432
100
AcDbArc
 50
184.1486139434
 51
267.2319774201
  0
ARC
  5
835
100
AcDbEntity
  8
RACCORDO
100
AcDbCircle
 62
253
  6
CONTINUOUS
 10
-65.5858772321
 20
-34.8604128694
 40
5.5173027369
100
AcDbArc
 50
184.1486139434
 51
267.2319774201
  0
CIRCLE
  5
836
100
AcDbEntity
  8
RACCORDO
100
AcDbCircle
 62
253
  6
CONTINUOUS
 10
-49.8684846004
 20
-31.4481617131
 40
4.25
  0
CIRCLE
  5
837
100
AcDbEntity
  8
RACCORDO
100
AcDbCircle
 62
7
  6
CONTINUOUS
 10
-49.8684846004
 20
-31.4481617131
 40
3.75
  0
ARC
  5
838
100
AcDbEntity
  8
RACCORDO
100
AcDbCircle
 62
253
  6
CONTINUOUS
 10
-56.5045225783
 20
-22.076753951
 40
1.2437138263
100
AcDbArc
 50
182.6022646146
 51
267.6302313829
  0
ARC
  5
839
100
AcDbEntity
  8
DRAFT
100
AcDbCircle
 62
7
  6
CONTINUOUS
 10
-55.5184846004
 20
-21.3481617131
 40
1.2
100
AcDbArc
 50
180.0
 51
270.0
  0
ARC
  5
83A
100
AcDbEntity
  8
RACCORDO
100
AcDbCircle
 62
253
  6
CONTINUOUS
 10
-56.5045225783
 20
-22.076753951
 40
0.7437899788
100
AcDbArc
 50
182.6022646146
 51
267.6302313829
  0
ARC
  5
83B
100
AcDbEntity
  8
0
100
AcDbCircle
 62
7
  6
CONTINUOUS
 10
-24.1184846004
 20
-26.2981617131
 40
0.3064577248
100
AcDbArc
 50
195.0
 51
345.0
  0
ARC
  5
83C
100
AcDbEntity
  8
0
100
AcDbCircle
 62
7
  6
CONTINUOUS
 10
-20.6184846004
 20
-26.2981617131
 40
0.3064577248
100
AcDbArc
 50
195.0
 51
345.0
  0
ARC
  5
83D
100
AcDbEntity
  8
0
100
AcDbCircle
 62
7
  6
CONTINUOUS
 10
-1.6184846004
 20
-26.2981617131
 40
0.3064577248
100
AcDbArc
 50
195.0
 51
345.0
  0
ARC
  5
83E
100
AcDbEntity
  8
0
100
AcDbCircle
 62
7
  6
CONTINUOUS
 10
-46.6184846004
 20
-26.2981617131
 40
0.3064577248
100
AcDbArc
 50
195.0
 51
345.0
  0
ARC
  5
83F
100
AcDbEntity
  8
0
100
AcDbCircle
 62
7
  6
CONTINUOUS
 10
-43.1184846004
 20
-26.2981617131
 40
0.3064577248
100
AcDbArc
 50
195.0
 51
345.0
  0
ARC
  5
840
100
AcDbEntity
  8
0
100
AcDbCircle
 62
7
  6
CONTINUOUS
 10
-43.1184846004
 20
-26.2981617131
 40
0.3
100
AcDbArc
 50
195.0
 51
345.0
  0
ARC
  5
841
100
AcDbEntity
  8
0
100
AcDbCircle
 62
7
  6
CONTINUOUS
 10
-46.6184846004
 20
-26.2981617131
 40
0.3
100
AcDbArc
 50
195.0
 51
345.0
  0
ARC
  5
842
100
AcDbEntity
  8
0
100
AcDbCircle
 62
7
  6
CONTINUOUS
 10
-20.6184846004
 20
-26.2981617131
 40
0.3
100
AcDbArc
 50
195.0
 51
345.0
  0
ARC
  5
843
100
AcDbEntity
  8
0
100
AcDbCircle
 62
7
  6
CONTINUOUS
 10
-24.1184846004
 20
-26.2981617131
 40
0.3
100
AcDbArc
 50
195.0
 51
345.0
  0
ARC
  5
844
100
AcDbEntity
  8
0
100
AcDbCircle
 62
7
  6
CONTINUOUS
 10
-1.6184846004
 20
-26.2981617131
 40
0.3
100
AcDbArc
 50
195.0
 51
345.0
  0
ARC
  5
845
100
AcDbEntity
  8
0
100
AcDbCircle
 62
7
  6
CONTINUOUS
 10
-422.3684845939
 20
0.5518382867
 40
499.9999999936
100
AcDbArc
 50
355.8513860822
 51
4.1486139268
  0
ARC
  5
846
100
AcDbEntity
  8
DRAFT
100
AcDbCircle
 62
7
  6
CONTINUOUS
 10
-422.3684846004
 20
0.5518382869
 40
499.9737961104
100
AcDbArc
 50
0.4010947529
 51
4.1486139434
  0
ARC
  5
847
100
AcDbEntity
  8
DRAFT
100
AcDbCircle
 62
7
  6
CONTINUOUS
 10
-422.3684846004
 20
0.5518382869
 40
499.9737961104
100
AcDbArc
 50
355.8513860566
 51
359.5989052471
  0
ARC
  5
848
100
AcDbEntity
  8
RACCORDO
100
AcDbCircle
 62
253
  6
CONTINUOUS
 10
-422.3684846004
 20
0.5518382869
 40
499.8990538137
100
AcDbArc
 50
355.8513860566
 51
359.5700221427
  0
ARC
  5
849
100
AcDbEntity
  8
RACCORDO
100
AcDbCircle
 62
253
  6
CONTINUOUS
 10
-422.3684846004
 20
0.5518382869
 40
499.8990538137
100
AcDbArc
 50
0.4299778573
 51
4.1486139434
  0
ARC
  5
84A
100
AcDbEntity
  8
RACCORDO
100
AcDbCircle
 62
253
  6
CONTINUOUS
 10
-441.1184846004
 20
0.5518382869
 40
499.6437138263
100
AcDbArc
 50
357.3977353854
 51
2.6022646146
  0
ARC
  5
84B
100
AcDbEntity
  8
DRAFT
100
AcDbCircle
 62
7
  6
CONTINUOUS
 10
-422.3684846004
 20
0.5518382869
 40
499.5
100
AcDbArc
 50
359.5985247862
 51
0.4014752138
  0
ARC
  5
84C
100
AcDbEntity
  8
RACCORDO
100
AcDbCircle
 62
253
  6
CONTINUOUS
 10
-422.3684846004
 20
0.5518382869
 40
499.3997390464
100
AcDbArc
 50
355.8513860566
 51
359.5600063932
  0
ARC
  5
84D
100
AcDbEntity
  8
RACCORDO
100
AcDbCircle
 62
253
  6
CONTINUOUS
 10
-422.3684846004
 20
0.5518382869
 40
499.3997390464
100
AcDbArc
 50
0.4399936068
 51
4.1486139434
  0
ARC
  5
84E
100
AcDbEntity
  8
RACCORDO
100
AcDbCircle
 62
253
  6
CONTINUOUS
 10
-441.1184846004
 20
0.5518382869
 40
499.1437899788
100
AcDbArc
 50
357.3977353854
 51
2.6022646146
  0
ARC
  5
84F
100
AcDbEntity
  8
RACCORDO
100
AcDbCircle
 62
253
  6
CONTINUOUS
 10
-422.3684846004
 20
0.5518382869
 40
498.4748993522
100
AcDbArc
 50
355.8513860566
 51
359.55919004
  0
ARC
  5
850
100
AcDbEntity
  8
RACCORDO
100
AcDbCircle
 62
253
  6
CONTINUOUS
 10
-422.3684846004
 20
0.5518382869
 40
498.4748993522
100
AcDbArc
 50
0.44080996
 51
4.1486139434
  0
ARC
  5
851
100
AcDbEntity
  8
RACCORDO
100
AcDbCircle
 62
253
  6
CONTINUOUS
 10
-422.3684846004
 20
0.5518382869
 40
498.1760409428
100
AcDbArc
 50
355.8513860566
 51
359.5644793776
  0
ARC
  5
852
100
AcDbEntity
  8
RACCORDO
100
AcDbCircle
 62
253
  6
CONTINUOUS
 10
-422.3684846004
 20
0.5518382869
 40
498.1760409428
100
AcDbArc
 50
0.4355206224
 51
4.1486139434
  0
ARC
  5
853
100
AcDbEntity
  8
RACCORDO
100
AcDbCircle
 62
253
  6
CONTINUOUS
 10
-422.3684846004
 20
0.5518382869
 40
498.1364703937
100
AcDbArc
 50
355.8513860566
 51
359.5736180814
  0
ARC
  5
854
100
AcDbEntity
  8
RACCORDO
100
AcDbCircle
 62
253
  6
CONTINUOUS
 10
-422.3684846004
 20
0.5518382869
 40
498.1364703937
100
AcDbArc
 50
0.4263819186
 51
4.1486139434
  0
ARC
  5
855
100
AcDbEntity
  8
RACCORDO
100
AcDbCircle
 62
253
  6
CONTINUOUS
 10
-422.3684846004
 20
0.5518382869
 40
497.8376119843
100
AcDbArc
 50
355.8513860566
 51
359.5789196659
  0
ARC
  5
856
100
AcDbEntity
  8
RACCORDO
100
AcDbCircle
 62
253
  6
CONTINUOUS
 10
-422.3684846004
 20
0.5518382869
 40
497.8376119843
100
AcDbArc
 50
0.4210803341
 51
4.1486139434
  0
ARC
  5
857
100
AcDbEntity
  8
RACCORDO
100
AcDbCircle
 62
253
  6
CONTINUOUS
 10
-422.3684846004
 20
0.5518382869
 40
496.3297193088
100
AcDbArc
 50
355.8513860566
 51
359.5776403642
  0
ARC
  5
858
100
AcDbEntity
  8
RACCORDO
100
AcDbCircle
 62
253
  6
CONTINUOUS
 10
-422.3684846004
 20
0.5518382869
 40
496.3297193088
100
AcDbArc
 50
0.4223596358
 51
4.1486139434
  0
ARC
  5
859
100
AcDbEntity
  8
RACCORDO
100
AcDbCircle
 62
253
  6
CONTINUOUS
 10
-422.3684846004
 20
0.5518382869
 40
496.0297650002
100
AcDbArc
 50
355.8513860566
 51
359.5833886707
  0
ARC
  5
85A
100
AcDbEntity
  8
RACCORDO
100
AcDbCircle
 62
253
  6
CONTINUOUS
 10
-422.3684846004
 20
0.5518382869
 40
496.0297650002
100
AcDbArc
 50
0.4166113293
 51
4.1486139434
  0
ARC
  5
85B
100
AcDbEntity
  8
DRAFT
100
AcDbCircle
 62
7
  6
CONTINUOUS
 10
-422.3684846004
 20
0.5518382869
 40
496.0192005714
100
AcDbArc
 50
359.5957073996
 51
0.4042926004
  0
ARC
  5
85C
100
AcDbEntity
  8
RACCORDO
100
AcDbCircle
 62
253
  6
CONTINUOUS
 10
-422.3684846004
 20
0.5518382869
 40
496.017150432
100
AcDbArc
 50
355.8513860566
 51
4.1486139434
  0
ARC
  5
85D
100
AcDbEntity
  8
RACCORDO
100
AcDbCircle
 62
253
  6
CONTINUOUS
 10
-422.3684846004
 20
0.5518382869
 40
495.0173027369
100
AcDbArc
 50
355.8513860566
 51
4.1486139434
  0
ARC
  5
85E
100
AcDbEntity
  8
0
100
AcDbCircle
 62
7
  6
CONTINUOUS
 10
-65.5858772484
 20
35.9640892139
 40
10.5
100
AcDbArc
 50
92.7680230482
 51
175.851385592
  0
ARC
  5
85F
100
AcDbEntity
  8
DRAFT
100
AcDbCircle
 62
7
  6
CONTINUOUS
 10
-65.5858772321
 20
35.9640894431
 40
10.4737961104
100
AcDbArc
 50
92.7680225799
 51
175.8513860567
  0
ARC
  5
860
100
AcDbEntity
  8
RACCORDO
100
AcDbCircle
 62
253
  6
CONTINUOUS
 10
-65.5858772321
 20
35.9640894431
 40
10.3990538137
100
AcDbArc
 50
92.7680225799
 51
175.8513860566
  0
ARC
  5
861
100
AcDbEntity
  8
RACCORDO
100
AcDbCircle
 62
253
  6
CONTINUOUS
 10
-65.5858772321
 20
35.9640894431
 40
9.8997390464
100
AcDbArc
 50
92.7680225799
 51
175.8513860566
  0
ARC
  5
862
100
AcDbEntity
  8
RACCORDO
100
AcDbCircle
 62
253
  6
CONTINUOUS
 10
-65.5858772321
 20
35.9640894431
 40
8.9748993522
100
AcDbArc
 50
92.7680225799
 51
175.8513860567
  0
ARC
  5
863
100
AcDbEntity
  8
RACCORDO
100
AcDbCircle
 62
253
  6
CONTINUOUS
 10
-65.5858772321
 20
35.9640894431
 40
8.6760409428
100
AcDbArc
 50
92.7680225799
 51
175.8513860566
  0
ARC
  5
864
100
AcDbEntity
  8
RACCORDO
100
AcDbCircle
 62
253
  6
CONTINUOUS
 10
-65.5858772321
 20
35.9640894431
 40
8.6364703937
100
AcDbArc
 50
92.7680225799
 51
175.8513860566
  0
ARC
  5
865
100
AcDbEntity
  8
RACCORDO
100
AcDbCircle
 62
253
  6
CONTINUOUS
 10
-65.5858772321
 20
35.9640894431
 40
8.3376119843
100
AcDbArc
 50
92.7680225799
 51
175.8513860566
  0
ARC
  5
866
100
AcDbEntity
  8
RACCORDO
100
AcDbCircle
 62
253
  6
CONTINUOUS
 10
-65.5858772321
 20
35.9640894431
 40
6.8297193088
100
AcDbArc
 50
92.7680225799
 51
175.8513860567
  0
ARC
  5
867
100
AcDbEntity
  8
RACCORDO
100
AcDbCircle
 62
253
  6
CONTINUOUS
 10
-65.5858772321
 20
35.9640894431
 40
6.5297650002
100
AcDbArc
 50
92.7680225799
 51
175.8513860566
  0
ARC
  5
868
100
AcDbEntity
  8
RACCORDO
100
AcDbCircle
 62
253
  6
CONTINUOUS
 10
-65.5858772321
 20
35.9640894431
 40
6.517150432
100
AcDbArc
 50
92.7680225799
 51
175.8513860566
  0
ARC
  5
869
100
AcDbEntity
  8
RACCORDO
100
AcDbCircle
 62
253
  6
CONTINUOUS
 10
-65.5858772321
 20
35.9640894431
 40
5.5173027369
100
AcDbArc
 50
92.7680225799
 51
175.8513860566
  0
CIRCLE
  5
86A
100
AcDbEntity
  8
RACCORDO
100
AcDbCircle
 62
253
  6
CONTINUOUS
 10
-49.8684846004
 20
32.5518382869
 40
4.25
  0
CIRCLE
  5
86B
100
AcDbEntity
  8
RACCORDO
100
AcDbCircle
 62
7
  6
CONTINUOUS
 10
-49.8684846004
 20
32.5518382869
 40
3.75
  0
ARC
  5
86C
100
AcDbEntity
  8
RACCORDO
100
AcDbCircle
 62
253
  6
CONTINUOUS
 10
-56.5045225783
 20
23.1804305247
 40
1.2437138263
100
AcDbArc
 50
92.3697686171
 51
177.3977353854
  0
ARC
  5
86D
100
AcDbEntity
  8
DRAFT
100
AcDbCircle
 62
7
  6
CONTINUOUS
 10
-55.5184846004
 20
22.4518382869
 40
1.2
100
AcDbArc
 50
90.0
 51
180.0
  0
ARC
  5
86E
100
AcDbEntity
  8
RACCORDO
100
AcDbCircle
 62
253
  6
CONTINUOUS
 10
-56.5045225783
 20
23.1804305247
 40
0.7437899788
100
AcDbArc
 50
92.3697686171
 51
177.3977353854
  0
ARC
  5
86F
100
AcDbEntity
  8
0
100
AcDbCircle
 62
7
  6
CONTINUOUS
 10
-1.6184846004
 20
27.4018382869
 40
0.3064577248
100
AcDbArc
 50
15.0
 51
165.0
  0
ARC
  5
870
100
AcDbEntity
  8
0
100
AcDbCircle
 62
7
  6
CONTINUOUS
 10
-43.1184846004
 20
27.4018382869
 40
0.3064577248
100
AcDbArc
 50
15.0
 51
165.0
  0
ARC
  5
871
100
AcDbEntity
  8
0
100
AcDbCircle
 62
7
  6
CONTINUOUS
 10
-46.6184846004
 20
27.4018382869
 40
0.3064577248
100
AcDbArc
 50
15.0
 51
165.0
  0
ARC
  5
872
100
AcDbEntity
  8
0
100
AcDbCircle
 62
7
  6
CONTINUOUS
 10
-20.6184846004
 20
27.4018382869
 40
0.3064577248
100
AcDbArc
 50
15.0
 51
165.0
  0
ARC
  5
873
100
AcDbEntity
  8
0
100
AcDbCircle
 62
7
  6
CONTINUOUS
 10
-24.1184846004
 20
27.4018382869
 40
0.3064577248
100
AcDbArc
 50
15.0
 51
165.0
  0
ARC
  5
874
100
AcDbEntity
  8
0
100
AcDbCircle
 62
7
  6
CONTINUOUS
 10
-46.6184846004
 20
27.4018382869
 40
0.3
100
AcDbArc
 50
15.0
 51
165.0
  0
ARC
  5
875
100
AcDbEntity
  8
0
100
AcDbCircle
 62
7
  6
CONTINUOUS
 10
-43.1184846004
 20
27.4018382869
 40
0.3
100
AcDbArc
 50
15.0
 51
165.0
  0
ARC
  5
876
100
AcDbEntity
  8
0
100
AcDbCircle
 62
7
  6
CONTINUOUS
 10
-24.1184846004
 20
27.4018382869
 40
0.3
100
AcDbArc
 50
15.0
 51
165.0
  0
ARC
  5
877
100
AcDbEntity
  8
0
100
AcDbCircle
 62
7
  6
CONTINUOUS
 10
-20.6184846004
 20
27.4018382869
 40
0.3
100
AcDbArc
 50
15.0
 51
165.0
  0
ARC
  5
878
100
AcDbEntity
  8
0
100
AcDbCircle
 62
7
  6
CONTINUOUS
 10
-1.6184846004
 20
27.4018382869
 40
0.3
100
AcDbArc
 50
15.0
 51
165.0
  0
ARC
  5
879
100
AcDbEntity
  8
0
100
AcDbCircle
 62
7
  6
CONTINUOUS
 10
0.1315153999
 20
-1323.2729661229
 40
1371.3248044092
100
AcDbArc
 50
87.3099081343
 51
92.6900918659
  0
ARC
  5
87A
100
AcDbEntity
  8
DRAFT
100
AcDbCircle
 62
7
  6
CONTINUOUS
 10
0.1315153996
 20
-1323.2731617131
 40
1371.2987961104
100
AcDbArc
 50
87.2319774201
 51
92.7680225799
  0
ARC
  5
87B
100
AcDbEntity
  8
RACCORDO
100
AcDbCircle
 62
253
  6
CONTINUOUS
 10
0.1315153996
 20
-1323.2731617131
 40
1371.2240538137
100
AcDbArc
 50
87.2319774201
 51
92.7680225799
  0
ARC
  5
87C
100
AcDbEntity
  8
RACCORDO
100
AcDbCircle
 62
253
  6
CONTINUOUS
 10
0.1315153996
 20
-1345.3731617131
 40
1370.9687138263
100
AcDbArc
 50
87.6302313829
 51
87.6380725822
  0
ARC
  5
87D
100
AcDbEntity
  8
RACCORDO
100
AcDbCircle
 62
253
  6
CONTINUOUS
 10
0.1315153996
 20
-1345.3731617131
 40
1370.9687138263
100
AcDbArc
 50
92.3619274178
 51
92.3697686171
  0
ARC
  5
87E
100
AcDbEntity
  8
RACCORDO
100
AcDbCircle
 62
253
  6
CONTINUOUS
 10
0.1315153996
 20
-1323.2731617131
 40
1370.7247390464
100
AcDbArc
 50
87.2319774201
 51
92.7680225799
  0
ARC
  5
87F
100
AcDbEntity
  8
RACCORDO
100
AcDbCircle
 62
253
  6
CONTINUOUS
 10
0.1315153996
 20
-1345.3731617131
 40
1370.4687899788
100
AcDbArc
 50
92.3627894976
 51
92.3697686171
  0
ARC
  5
880
100
AcDbEntity
  8
RACCORDO
100
AcDbCircle
 62
253
  6
CONTINUOUS
 10
0.1315153996
 20
-1345.3731617131
 40
1370.4687899788
100
AcDbArc
 50
87.6302313829
 51
87.6372105024
  0
ARC
  5
881
100
AcDbEntity
  8
RACCORDO
100
AcDbCircle
 62
253
  6
CONTINUOUS
 10
0.1315153996
 20
-1323.2731617131
 40
1369.7998993522
100
AcDbArc
 50
87.2319774201
 51
92.7680225799
  0
ARC
  5
882
100
AcDbEntity
  8
RACCORDO
100
AcDbCircle
 62
253
  6
CONTINUOUS
 10
0.1315153996
 20
-1323.2731617131
 40
1369.5010409428
100
AcDbArc
 50
87.2319774201
 51
92.7680225799
  0
ARC
  5
883
100
AcDbEntity
  8
RACCORDO
100
AcDbCircle
 62
253
  6
CONTINUOUS
 10
0.1315153996
 20
-1323.2731617131
 40
1369.4614703937
100
AcDbArc
 50
87.2319774201
 51
92.7680225799
  0
ARC
  5
884
100
AcDbEntity
  8
RACCORDO
100
AcDbCircle
 62
253
  6
CONTINUOUS
 10
0.1315153996
 20
-1323.2731617131
 40
1369.1626119843
100
AcDbArc
 50
87.2319774201
 51
92.7680225799
  0
ARC
  5
885
100
AcDbEntity
  8
RACCORDO
100
AcDbCircle
 62
253
  6
CONTINUOUS
 10
0.1315153996
 20
-1323.2731617131
 40
1367.6547193088
100
AcDbArc
 50
87.2319774201
 51
92.7680225799
  0
ARC
  5
886
100
AcDbEntity
  8
RACCORDO
100
AcDbCircle
 62
253
  6
CONTINUOUS
 10
0.1315153996
 20
-1323.2731617131
 40
1367.3547650002
100
AcDbArc
 50
87.2319774201
 51
92.7680225799
  0
ARC
  5
887
100
AcDbEntity
  8
RACCORDO
100
AcDbCircle
 62
253
  6
CONTINUOUS
 10
0.1315153996
 20
-1323.2731617131
 40
1367.342150432
100
AcDbArc
 50
87.2319774201
 51
92.7680225799
  0
ARC
  5
888
100
AcDbEntity
  8
RACCORDO
100
AcDbCircle
 62
253
  6
CONTINUOUS
 10
0.1315153996
 20
-1323.2731617131
 40
1366.3423027369
100
AcDbArc
 50
87.2319774201
 51
92.7680225799
  0
ARC
  5
889
100
AcDbEntity
  8
ASSI
100
AcDbCircle
 62
7
  6
CONTINUOUS
 10
13.1639613996
 20
-33.4481617131
 40
2.5499985399
100
AcDbArc
 50
87.7525290943
 51
272.2474708974
  0
ARC
  5
88A
100
AcDbEntity
  8
ASSI
100
AcDbCircle
 62
7
  6
CONTINUOUS
 10
13.1639613996
 20
-33.4481617131
 40
1.7999999246
100
AcDbArc
 50
90.2872950472
 51
273.1847386526
  0
CIRCLE
  5
88B
100
AcDbEntity
  8
RACCORDO
100
AcDbCircle
 62
253
  6
CONTINUOUS
 10
0.1315153996
 20
-31.4481617131
 40
4.25
  0
CIRCLE
  5
88C
100
AcDbEntity
  8
RACCORDO
100
AcDbCircle
 62
7
  6
CONTINUOUS
 10
0.1315153996
 20
-31.4481617131
 40
3.75
  0
ARC
  5
88D
100
AcDbEntity
  8
0
100
AcDbCircle
 62
7
  6
CONTINUOUS
 10
1.8815153996
 20
-26.2981617131
 40
0.3064577248
100
AcDbArc
 50
195.0
 51
345.0
  0
ARC
  5
88E
100
AcDbEntity
  8
0
100
AcDbCircle
 62
7
  6
CONTINUOUS
 10
1.8815153996
 20
-26.2981617131
 40
0.3
100
AcDbArc
 50
195.0
 51
345.0
  0
ARC
  5
88F
100
AcDbEntity
  8
0
100
AcDbCircle
 62
7
  6
CONTINUOUS
 10
21.0521583996
 20
-38.3942547131
 40
2.3390187052
100
AcDbArc
 50
47.2312712626
 51
84.2012841963
  0
ARC
  5
890
100
AcDbEntity
  8
0
100
AcDbCircle
 62
7
  6
CONTINUOUS
 10
21.2362373996
 20
-38.0153857131
 40
2.3109495123
100
AcDbArc
 50
45.4348886633
 51
67.5658613447
  0
ARC
  5
891
100
AcDbEntity
  8
0
100
AcDbCircle
 62
7
  6
CONTINUOUS
 10
21.1315153996
 20
-33.4481617131
 40
2.6237424326
100
AcDbArc
 50
292.0885393584
 51
273.4297246723
  0
ARC
  5
892
100
AcDbEntity
  8
ASSI
100
AcDbCircle
 62
7
  6
CONTINUOUS
 10
17.5490713996
 20
-33.4481617131
 40
2.5499986575
100
AcDbArc
 50
87.7525289851
 51
272.2474707939
  0
CIRCLE
  5
893
100
AcDbEntity
  8
0
100
AcDbCircle
 62
7
  6
CONTINUOUS
 10
21.1315153996
 20
-33.4481617131
 40
2.20376
  0
ARC
  5
894
100
AcDbEntity
  8
0
100
AcDbCircle
 62
7
  6
CONTINUOUS
 10
21.1315153996
 20
-33.4481617131
 40
1.9709567246
100
AcDbArc
 50
299.3041457634
 51
44.9957848293
  0
ARC
  5
895
100
AcDbEntity
  8
0
100
AcDbCircle
 62
7
  6
CONTINUOUS
 10
21.1315153996
 20
-33.4481617131
 40
1.9709563643
100
AcDbArc
 50
134.9002846268
 51
240.6958542366
  0
ARC
  5
896
100
AcDbEntity
  8
ASSI
100
AcDbCircle
 62
7
  6
CONTINUOUS
 10
17.5490713996
 20
-33.4481617131
 40
1.7999999246
100
AcDbArc
 50
86.8152613297
 51
167.9752999778
  0
ARC
  5
897
100
AcDbEntity
  8
ASSI
100
AcDbCircle
 62
7
  6
CONTINUOUS
 10
17.5490713996
 20
-33.4481617131
 40
1.7999968808
100
AcDbArc
 50
192.0247203293
 51
273.1847444946
  0
ARC
  5
898
100
AcDbEntity
  8
0
100
AcDbCircle
 62
7
  6
CONTINUOUS
 10
21.1315153996
 20
-33.4481617131
 40
1.5790921275
100
AcDbArc
 50
148.0267086216
 51
240.6958772397
  0
ARC
  5
899
100
AcDbEntity
  8
0
100
AcDbCircle
 62
7
  6
CONTINUOUS
 10
21.1315153996
 20
-33.4481617131
 40
1.5790919977
100
AcDbArc
 50
299.3041227603
 51
31.9732907039
  0
ARC
  5
89A
100
AcDbEntity
  8
0
100
AcDbCircle
 62
7
  6
CONTINUOUS
 10
27.6315153996
 20
-36.2081617131
 40
0.2400005268
100
AcDbArc
 50
225.0
 51
315.0
  0
ARC
  5
89B
100
AcDbEntity
  8
0
100
AcDbCircle
 62
7
  6
CONTINUOUS
 10
27.6315153996
 20
-33.9881617131
 40
0.4799999985
100
AcDbArc
 50
284.477512232
 51
74.2594770322
  0
ARC
  5
89C
100
AcDbEntity
  8
0
100
AcDbCircle
 62
7
  6
CONTINUOUS
 10
27.6315153996
 20
-33.9881617131
 40
0.4799997988
100
AcDbArc
 50
193.0028837084
 51
255.5224816136
  0
ARC
  5
89D
100
AcDbEntity
  8
0
100
AcDbCircle
 62
7
  6
CONTINUOUS
 10
27.6315153996
 20
-33.3281617131
 40
0.4200003869
100
AcDbArc
 50
50.0000079668
 51
73.3984661354
  0
ARC
  5
89E
100
AcDbEntity
  8
0
100
AcDbCircle
 62
7
  6
CONTINUOUS
 10
27.6315153996
 20
-33.3281617131
 40
0.4199997739
100
AcDbArc
 50
106.6015587956
 51
256.2707876568
  0
ARC
  5
89F
100
AcDbEntity
  8
0
100
AcDbCircle
 62
7
  6
CONTINUOUS
 10
24.8715153996
 20
-33.4481617131
 40
0.2400005268
100
AcDbArc
 50
135.0
 51
225.0
  0
ARC
  5
8A0
100
AcDbEntity
  8
0
100
AcDbCircle
 62
7
  6
CONTINUOUS
 10
30.3915153996
 20
-33.4481617131
 40
0.2400005268
100
AcDbArc
 50
315.0
 51
45.0
  0
ARC
  5
8A1
100
AcDbEntity
  8
0
100
AcDbCircle
 62
7
  6
CONTINUOUS
 10
28.6965153996
 20
-33.0881617131
 40
0.179999933
100
AcDbArc
 50
15.0951225334
 51
164.904877647
  0
ARC
  5
8A2
100
AcDbEntity
  8
0
100
AcDbCircle
 62
7
  6
CONTINUOUS
 10
26.5665153996
 20
-33.0881617131
 40
0.179999933
100
AcDbArc
 50
15.0951221414
 51
164.9048772555
  0
ARC
  5
8A3
100
AcDbEntity
  8
0
100
AcDbCircle
 62
7
  6
CONTINUOUS
 10
28.6641483996
 20
-33.8681617131
 40
0.1200004254
100
AcDbArc
 50
164.9052676867
 51
270.0
  0
ARC
  5
8A4
100
AcDbEntity
  8
0
100
AcDbCircle
 62
7
  6
CONTINUOUS
 10
26.5341483996
 20
-33.8681617131
 40
0.1200004254
100
AcDbArc
 50
164.9052676867
 51
270.0
  0
ARC
  5
8A5
100
AcDbEntity
  8
0
100
AcDbCircle
 62
7
  6
CONTINUOUS
 10
28.5345153996
 20
-34.3481617131
 40
0.12
100
AcDbArc
 50
90.0
 51
180.0
  0
ARC
  5
8A6
100
AcDbEntity
  8
0
100
AcDbCircle
 62
7
  6
CONTINUOUS
 10
28.8585153996
 20
-34.3481617131
 40
0.12
100
AcDbArc
 50
0.0
 51
90.0
  0
ARC
  5
8A7
100
AcDbEntity
  8
0
100
AcDbCircle
 62
7
  6
CONTINUOUS
 10
28.7288823996
 20
-33.8681617131
 40
0.12
100
AcDbArc
 50
270.0
 51
15.0953334413
  0
ARC
  5
8A8
100
AcDbEntity
  8
0
100
AcDbCircle
 62
7
  6
CONTINUOUS
 10
26.5988823996
 20
-33.8681617131
 40
0.12
100
AcDbArc
 50
270.0
 51
15.0953334413
  0
ARC
  5
8A9
100
AcDbEntity
  8
0
100
AcDbCircle
 62
7
  6
CONTINUOUS
 10
26.4045153996
 20
-34.3481617131
 40
0.12
100
AcDbArc
 50
90.0
 51
180.0
  0
ARC
  5
8AA
100
AcDbEntity
  8
0
100
AcDbCircle
 62
7
  6
CONTINUOUS
 10
26.7285153996
 20
-34.3481617131
 40
0.12
100
AcDbArc
 50
0.0
 51
90.0
  0
ARC
  5
8AB
100
AcDbEntity
  8
0
100
AcDbCircle
 62
7
  6
CONTINUOUS
 10
26.4029813996
 20
-32.6381617131
 40
0.12
100
AcDbArc
 50
90.0
 51
270.0
  0
ARC
  5
8AC
100
AcDbEntity
  8
0
100
AcDbCircle
 62
7
  6
CONTINUOUS
 10
27.6315153996
 20
-34.7981617131
 40
0.12
100
AcDbArc
 50
180.0
 51
360.0
  0
ARC
  5
8AD
100
AcDbEntity
  8
0
100
AcDbCircle
 62
7
  6
CONTINUOUS
 10
28.8600493996
 20
-32.6381617131
 40
0.12
100
AcDbArc
 50
270.0
 51
90.0
  0
ARC
  5
8AE
100
AcDbEntity
  8
0
100
AcDbCircle
 62
7
  6
CONTINUOUS
 10
29.0985153996
 20
-34.3481617131
 40
0.12
100
AcDbArc
 50
180.0
 51
15.0949627667
  0
ARC
  5
8AF
100
AcDbEntity
  8
0
100
AcDbCircle
 62
7
  6
CONTINUOUS
 10
26.9685153996
 20
-34.3481617131
 40
0.12
100
AcDbArc
 50
180.0
 51
15.0949627667
  0
ARC
  5
8B0
100
AcDbEntity
  8
0
100
AcDbCircle
 62
7
  6
CONTINUOUS
 10
28.6965153996
 20
-33.7481617131
 40
0.1199994599
100
AcDbArc
 50
15.0948566532
 51
164.9051433468
  0
ARC
  5
8B1
100
AcDbEntity
  8
0
100
AcDbCircle
 62
7
  6
CONTINUOUS
 10
26.5665153996
 20
-33.7481617131
 40
0.1199994599
100
AcDbArc
 50
15.0948566532
 51
164.9051433468
  0
ARC
  5
8B2
100
AcDbEntity
  8
0
100
AcDbCircle
 62
7
  6
CONTINUOUS
 10
28.2945153996
 20
-34.3481617131
 40
0.1199994599
100
AcDbArc
 50
164.9051433468
 51
360.0
  0
ARC
  5
8B3
100
AcDbEntity
  8
0
100
AcDbCircle
 62
7
  6
CONTINUOUS
 10
26.1645153996
 20
-34.3481617131
 40
0.1199994599
100
AcDbArc
 50
164.9051433468
 51
360.0
  0
ARC
  5
8B4
100
AcDbEntity
  8
0
100
AcDbCircle
 62
7
  6
CONTINUOUS
 10
20.8815153996
 20
-26.2981617131
 40
0.3064577248
100
AcDbArc
 50
195.0
 51
345.0
  0
ARC
  5
8B5
100
AcDbEntity
  8
0
100
AcDbCircle
 62
7
  6
CONTINUOUS
 10
24.3815153996
 20
-26.2981617131
 40
0.3064577248
100
AcDbArc
 50
195.0
 51
345.0
  0
ARC
  5
8B6
100
AcDbEntity
  8
0
100
AcDbCircle
 62
7
  6
CONTINUOUS
 10
24.3815153996
 20
-26.2981617131
 40
0.3
100
AcDbArc
 50
195.0
 51
345.0
  0
ARC
  5
8B7
100
AcDbEntity
  8
0
100
AcDbCircle
 62
7
  6
CONTINUOUS
 10
20.8815153996
 20
-26.2981617131
 40
0.3
100
AcDbArc
 50
195.0
 51
345.0
  0
ARC
  5
8B8
100
AcDbEntity
  8
0
100
AcDbCircle
 62
7
  6
CONTINUOUS
 10
27.6315153996
 20
-30.6881617131
 40
0.2400005268
100
AcDbArc
 50
45.0
 51
135.0
  0
ARC
  5
8B9
100
AcDbEntity
  8
0
100
AcDbCircle
 62
7
  6
CONTINUOUS
 10
65.8489080476
 20
-34.8604126402
 40
10.5
100
AcDbArc
 50
272.7680230482
 51
355.8513860216
  0
ARC
  5
8BA
100
AcDbEntity
  8
DRAFT
100
AcDbCircle
 62
7
  6
CONTINUOUS
 10
65.8489080312
 20
-34.8604128694
 40
10.4737961104
100
AcDbArc
 50
272.7680225799
 51
355.8513860567
  0
ARC
  5
8BB
100
AcDbEntity
  8
RACCORDO
100
AcDbCircle
 62
253
  6
CONTINUOUS
 10
65.8489080312
 20
-34.8604128694
 40
10.3990538137
100
AcDbArc
 50
272.7680225799
 51
355.8513860566
  0
ARC
  5
8BC
100
AcDbEntity
  8
RACCORDO
100
AcDbCircle
 62
253
  6
CONTINUOUS
 10
65.8489080312
 20
-34.8604128694
 40
9.8997390464
100
AcDbArc
 50
272.7680225799
 51
355.8513860566
  0
ARC
  5
8BD
100
AcDbEntity
  8
RACCORDO
100
AcDbCircle
 62
253
  6
CONTINUOUS
 10
65.8489080312
 20
-34.8604128694
 40
8.9748993522
100
AcDbArc
 50
272.7680225799
 51
355.8513860566
  0
ARC
  5
8BE
100
AcDbEntity
  8
RACCORDO
100
AcDbCircle
 62
253
  6
CONTINUOUS
 10
65.8489080312
 20
-34.8604128694
 40
8.6760409428
100
AcDbArc
 50
272.7680225799
 51
355.8513860566
  0
ARC
  5
8BF
100
AcDbEntity
  8
RACCORDO
100
AcDbCircle
 62
253
  6
CONTINUOUS
 10
65.8489080312
 20
-34.8604128694
 40
8.6364703937
100
AcDbArc
 50
272.7680225799
 51
355.8513860566
  0
ARC
  5
8C0
100
AcDbEntity
  8
RACCORDO
100
AcDbCircle
 62
253
  6
CONTINUOUS
 10
65.8489080312
 20
-34.8604128694
 40
8.3376119843
100
AcDbArc
 50
272.7680225799
 51
355.8513860566
  0
ARC
  5
8C1
100
AcDbEntity
  8
RACCORDO
100
AcDbCircle
 62
253
  6
CONTINUOUS
 10
65.8489080312
 20
-34.8604128694
 40
6.8297193088
100
AcDbArc
 50
272.7680225799
 51
355.8513860567
  0
ARC
  5
8C2
100
AcDbEntity
  8
RACCORDO
100
AcDbCircle
 62
253
  6
CONTINUOUS
 10
65.8489080312
 20
-34.8604128694
 40
6.5297650002
100
AcDbArc
 50
272.7680225799
 51
355.8513860566
  0
ARC
  5
8C3
100
AcDbEntity
  8
RACCORDO
100
AcDbCircle
 62
253
  6
CONTINUOUS
 10
65.8489080312
 20
-34.8604128694
 40
6.517150432
100
AcDbArc
 50
272.7680225799
 51
355.8513860566
  0
ARC
  5
8C4
100
AcDbEntity
  8
RACCORDO
100
AcDbCircle
 62
253
  6
CONTINUOUS
 10
65.8489080312
 20
-34.8604128694
 40
5.5173027369
100
AcDbArc
 50
272.7680225799
 51
355.8513860566
  0
CIRCLE
  5
8C5
100
AcDbEntity
  8
RACCORDO
100
AcDbCircle
 62
253
  6
CONTINUOUS
 10
50.1315153996
 20
-31.4481617131
 40
4.25
  0
CIRCLE
  5
8C6
100
AcDbEntity
  8
RACCORDO
100
AcDbCircle
 62
7
  6
CONTINUOUS
 10
50.1315153996
 20
-31.4481617131
 40
3.75
  0
ARC
  5
8C7
100
AcDbEntity
  8
RACCORDO
100
AcDbCircle
 62
253
  6
CONTINUOUS
 10
56.7675533775
 20
-22.076753951
 40
1.2437138263
100
AcDbArc
 50
272.3697686171
 51
357.3977353853
  0
ARC
  5
8C8
100
AcDbEntity
  8
DRAFT
100
AcDbCircle
 62
7
  6
CONTINUOUS
 10
55.7815153996
 20
-21.3481617131
 40
1.2
100
AcDbArc
 50
270.0
 51
360.0
  0
ARC
  5
8C9
100
AcDbEntity
  8
RACCORDO
100
AcDbCircle
 62
253
  6
CONTINUOUS
 10
56.7675533775
 20
-22.076753951
 40
0.7437899788
100
AcDbArc
 50
272.3697686171
 51
357.3977353854
  0
ARC
  5
8CA
100
AcDbEntity
  8
0
100
AcDbCircle
 62
7
  6
CONTINUOUS
 10
43.3815153996
 20
-26.2981617131
 40
0.3064577248
100
AcDbArc
 50
195.0
 51
345.0
  0
ARC
  5
8CB
100
AcDbEntity
  8
0
100
AcDbCircle
 62
7
  6
CONTINUOUS
 10
46.8815153996
 20
-26.2981617131
 40
0.3064577248
100
AcDbArc
 50
195.0
 51
345.0
  0
ARC
  5
8CC
100
AcDbEntity
  8
0
100
AcDbCircle
 62
7
  6
CONTINUOUS
 10
46.8815153996
 20
-26.2981617131
 40
0.3
100
AcDbArc
 50
195.0
 51
345.0
  0
ARC
  5
8CD
100
AcDbEntity
  8
0
100
AcDbCircle
 62
7
  6
CONTINUOUS
 10
43.3815153996
 20
-26.2981617131
 40
0.3
100
AcDbArc
 50
195.0
 51
345.0
  0
ARC
  5
8CE
100
AcDbEntity
  8
0
100
AcDbCircle
 62
7
  6
CONTINUOUS
 10
1.8815153996
 20
27.4018382869
 40
0.3064577248
100
AcDbArc
 50
15.0
 51
165.0
  0
ARC
  5
8CF
100
AcDbEntity
  8
0
100
AcDbCircle
 62
7
  6
CONTINUOUS
 10
24.3815153996
 20
27.4018382869
 40
0.3064577248
100
AcDbArc
 50
15.0
 51
165.0
  0
ARC
  5
8D0
100
AcDbEntity
  8
0
100
AcDbCircle
 62
7
  6
CONTINUOUS
 10
20.8815153996
 20
27.4018382869
 40
0.3064577248
100
AcDbArc
 50
15.0
 51
165.0
  0
ARC
  5
8D1
100
AcDbEntity
  8
0
100
AcDbCircle
 62
7
  6
CONTINUOUS
 10
24.3815153996
 20
27.4018382869
 40
0.3
100
AcDbArc
 50
15.0
 51
165.0
  0
ARC
  5
8D2
100
AcDbEntity
  8
0
100
AcDbCircle
 62
7
  6
CONTINUOUS
 10
20.8815153996
 20
27.4018382869
 40
0.3
100
AcDbArc
 50
15.0
 51
165.0
  0
ARC
  5
8D3
100
AcDbEntity
  8
0
100
AcDbCircle
 62
7
  6
CONTINUOUS
 10
1.8815153996
 20
27.4018382869
 40
0.3
100
AcDbArc
 50
15.0
 51
165.0
  0
CIRCLE
  5
8D4
100
AcDbEntity
  8
RACCORDO
100
AcDbCircle
 62
253
  6
CONTINUOUS
 10
0.1315153996
 20
32.5518382869
 40
4.25
  0
CIRCLE
  5
8D5
100
AcDbEntity
  8
RACCORDO
100
AcDbCircle
 62
7
  6
CONTINUOUS
 10
0.1315153996
 20
32.5518382869
 40
3.75
  0
ARC
  5
8D6
100
AcDbEntity
  8
RACCORDO
100
AcDbCircle
 62
253
  6
CONTINUOUS
 10
56.7675533775
 20
23.1804305247
 40
1.2437138263
100
AcDbArc
 50
2.6022646146
 51
87.6302313829
  0
ARC
  5
8D7
100
AcDbEntity
  8
DRAFT
100
AcDbCircle
 62
7
  6
CONTINUOUS
 10
55.7815153996
 20
22.4518382869
 40
1.2
100
AcDbArc
 50
0.0
 51
90.0
  0
ARC
  5
8D8
100
AcDbEntity
  8
RACCORDO
100
AcDbCircle
 62
253
  6
CONTINUOUS
 10
56.7675533775
 20
23.1804305247
 40
0.7437899788
100
AcDbArc
 50
2.6022646146
 51
87.6302313829
  0
ARC
  5
8D9
100
AcDbEntity
  8
0
100
AcDbCircle
 62
7
  6
CONTINUOUS
 10
46.8815153996
 20
27.4018382869
 40
0.3064577248
100
AcDbArc
 50
15.0
 51
165.0
  0
ARC
  5
8DA
100
AcDbEntity
  8
0
100
AcDbCircle
 62
7
  6
CONTINUOUS
 10
43.3815153996
 20
27.4018382869
 40
0.3064577248
100
AcDbArc
 50
15.0
 51
165.0
  0
ARC
  5
8DB
100
AcDbEntity
  8
0
100
AcDbCircle
 62
7
  6
CONTINUOUS
 10
43.3815153996
 20
27.4018382869
 40
0.3
100
AcDbArc
 50
15.0
 51
165.0
  0
ARC
  5
8DC
100
AcDbEntity
  8
0
100
AcDbCircle
 62
7
  6
CONTINUOUS
 10
46.8815153996
 20
27.4018382869
 40
0.3
100
AcDbArc
 50
15.0
 51
165.0
  0
ARC
  5
8DD
100
AcDbEntity
  8
0
100
AcDbCircle
 62
7
  6
CONTINUOUS
 10
65.8489080476
 20
35.9640892139
 40
10.5
100
AcDbArc
 50
4.148614408
 51
87.2319769518
  0
ARC
  5
8DE
100
AcDbEntity
  8
DRAFT
100
AcDbCircle
 62
7
  6
CONTINUOUS
 10
65.8489080312
 20
35.9640894431
 40
10.4737961104
100
AcDbArc
 50
4.1486139433
 51
87.2319774201
  0
ARC
  5
8DF
100
AcDbEntity
  8
RACCORDO
100
AcDbCircle
 62
253
  6
CONTINUOUS
 10
65.8489080312
 20
35.9640894431
 40
10.3990538137
100
AcDbArc
 50
4.1486139434
 51
87.2319774201
  0
ARC
  5
8E0
100
AcDbEntity
  8
RACCORDO
100
AcDbCircle
 62
253
  6
CONTINUOUS
 10
65.8489080312
 20
35.9640894431
 40
9.8997390464
100
AcDbArc
 50
4.1486139433
 51
87.2319774201
  0
ARC
  5
8E1
100
AcDbEntity
  8
RACCORDO
100
AcDbCircle
 62
253
  6
CONTINUOUS
 10
65.8489080312
 20
35.9640894431
 40
8.9748993522
100
AcDbArc
 50
4.1486139434
 51
87.2319774201
  0
ARC
  5
8E2
100
AcDbEntity
  8
RACCORDO
100
AcDbCircle
 62
253
  6
CONTINUOUS
 10
65.8489080312
 20
35.9640894431
 40
8.6760409428
100
AcDbArc
 50
4.1486139434
 51
87.2319774201
  0
ARC
  5
8E3
100
AcDbEntity
  8
RACCORDO
100
AcDbCircle
 62
253
  6
CONTINUOUS
 10
65.8489080312
 20
35.9640894431
 40
8.6364703937
100
AcDbArc
 50
4.1486139434
 51
87.2319774201
  0
ARC
  5
8E4
100
AcDbEntity
  8
RACCORDO
100
AcDbCircle
 62
253
  6
CONTINUOUS
 10
65.8489080312
 20
35.9640894431
 40
8.3376119843
100
AcDbArc
 50
4.1486139433
 51
87.2319774201
  0
ARC
  5
8E5
100
AcDbEntity
  8
RACCORDO
100
AcDbCircle
 62
253
  6
CONTINUOUS
 10
65.8489080312
 20
35.9640894431
 40
6.8297193088
100
AcDbArc
 50
4.1486139433
 51
87.2319774201
  0
ARC
  5
8E6
100
AcDbEntity
  8
RACCORDO
100
AcDbCircle
 62
253
  6
CONTINUOUS
 10
65.8489080312
 20
35.9640894431
 40
6.5297650002
100
AcDbArc
 50
4.1486139434
 51
87.2319774201
  0
ARC
  5
8E7
100
AcDbEntity
  8
RACCORDO
100
AcDbCircle
 62
253
  6
CONTINUOUS
 10
65.8489080312
 20
35.9640894431
 40
6.517150432
100
AcDbArc
 50
4.1486139434
 51
87.2319774201
  0
ARC
  5
8E8
100
AcDbEntity
  8
RACCORDO
100
AcDbCircle
 62
253
  6
CONTINUOUS
 10
65.8489080312
 20
35.9640894431
 40
5.5173027369
100
AcDbArc
 50
4.1486139434
 51
87.2319774201
  0
CIRCLE
  5
8E9
100
AcDbEntity
  8
RACCORDO
100
AcDbCircle
 62
253
  6
CONTINUOUS
 10
50.1315153996
 20
32.5518382869
 40
4.25
  0
CIRCLE
  5
8EA
100
AcDbEntity
  8
RACCORDO
100
AcDbCircle
 62
7
  6
CONTINUOUS
 10
50.1315153996
 20
32.5518382869
 40
3.75
  0
ARC
  5
8EB
100
AcDbEntity
  8
0
100
AcDbCircle
 62
7
  6
CONTINUOUS
 10
0.1315153999
 20
1324.3766426966
 40
1371.3248044092
100
AcDbArc
 50
267.3099081341
 51
272.6900918657
  0
ARC
  5
8EC
100
AcDbEntity
  8
DRAFT
100
AcDbCircle
 62
7
  6
CONTINUOUS
 10
0.1315153996
 20
1324.3768382869
 40
1371.2987961104
100
AcDbArc
 50
267.2319774201
 51
272.7680225799
  0
ARC
  5
8ED
100
AcDbEntity
  8
RACCORDO
100
AcDbCircle
 62
253
  6
CONTINUOUS
 10
0.1315153996
 20
1324.3768382869
 40
1371.2240538137
100
AcDbArc
 50
267.2319774201
 51
272.7680225799
  0
ARC
  5
8EE
100
AcDbEntity
  8
RACCORDO
100
AcDbCircle
 62
253
  6
CONTINUOUS
 10
0.1315153996
 20
1346.4768382869
 40
1370.9687138263
100
AcDbArc
 50
272.3619274178
 51
272.3697686171
  0
ARC
  5
8EF
100
AcDbEntity
  8
RACCORDO
100
AcDbCircle
 62
253
  6
CONTINUOUS
 10
0.1315153996
 20
1346.4768382869
 40
1370.9687138263
100
AcDbArc
 50
267.6302313829
 51
267.6380725822
  0
ARC
  5
8F0
100
AcDbEntity
  8
RACCORDO
100
AcDbCircle
 62
253
  6
CONTINUOUS
 10
0.1315153996
 20
1324.3768382869
 40
1370.7247390464
100
AcDbArc
 50
267.2319774201
 51
272.7680225799
  0
ARC
  5
8F1
100
AcDbEntity
  8
RACCORDO
100
AcDbCircle
 62
253
  6
CONTINUOUS
 10
0.1315153996
 20
1346.4768382869
 40
1370.4687899788
100
AcDbArc
 50
272.3627894976
 51
272.3697686171
  0
ARC
  5
8F2
100
AcDbEntity
  8
RACCORDO
100
AcDbCircle
 62
253
  6
CONTINUOUS
 10
0.1315153996
 20
1346.4768382869
 40
1370.4687899788
100
AcDbArc
 50
267.6302313829
 51
267.6372105024
  0
ARC
  5
8F3
100
AcDbEntity
  8
RACCORDO
100
AcDbCircle
 62
253
  6
CONTINUOUS
 10
0.1315153996
 20
1324.3768382869
 40
1369.7998993522
100
AcDbArc
 50
267.2319774201
 51
272.7680225799
  0
ARC
  5
8F4
100
AcDbEntity
  8
RACCORDO
100
AcDbCircle
 62
253
  6
CONTINUOUS
 10
0.1315153996
 20
1324.3768382869
 40
1369.5010409428
100
AcDbArc
 50
267.2319774201
 51
272.7680225799
  0
ARC
  5
8F5
100
AcDbEntity
  8
RACCORDO
100
AcDbCircle
 62
253
  6
CONTINUOUS
 10
0.1315153996
 20
1324.3768382869
 40
1369.4614703937
100
AcDbArc
 50
267.2319774201
 51
272.7680225799
  0
ARC
  5
8F6
100
AcDbEntity
  8
RACCORDO
100
AcDbCircle
 62
253
  6
CONTINUOUS
 10
0.1315153996
 20
1324.3768382869
 40
1369.1626119843
100
AcDbArc
 50
267.2319774201
 51
272.7680225799
  0
ARC
  5
8F7
100
AcDbEntity
  8
RACCORDO
100
AcDbCircle
 62
253
  6
CONTINUOUS
 10
0.1315153996
 20
1324.3768382869
 40
1367.6547193088
100
AcDbArc
 50
267.2319774201
 51
272.7680225799
  0
ARC
  5
8F8
100
AcDbEntity
  8
RACCORDO
100
AcDbCircle
 62
253
  6
CONTINUOUS
 10
0.1315153996
 20
1324.3768382869
 40
1367.3547650002
100
AcDbArc
 50
267.2319774201
 51
272.7680225799
  0
ARC
  5
8F9
100
AcDbEntity
  8
RACCORDO
100
AcDbCircle
 62
253
  6
CONTINUOUS
 10
0.1315153996
 20
1324.3768382869
 40
1367.342150432
100
AcDbArc
 50
267.2319774201
 51
272.7680225799
  0
ARC
  5
8FA
100
AcDbEntity
  8
RACCORDO
100
AcDbCircle
 62
253
  6
CONTINUOUS
 10
0.1315153996
 20
1324.3768382869
 40
1366.3423027369
100
AcDbArc
 50
267.2319774201
 51
272.7680225799
  0
ARC
  5
8FB
100
AcDbEntity
  8
0
100
AcDbCircle
 62
7
  6
CONTINUOUS
 10
422.631515393
 20
0.5518382867
 40
499.9999999936
100
AcDbArc
 50
175.8513860732
 51
184.1486139268
  0
ARC
  5
8FC
100
AcDbEntity
  8
DRAFT
100
AcDbCircle
 62
7
  6
CONTINUOUS
 10
422.6315153996
 20
0.5518382869
 40
499.9737961104
100
AcDbArc
 50
175.8513860566
 51
179.5989052471
  0
ARC
  5
8FD
100
AcDbEntity
  8
DRAFT
100
AcDbCircle
 62
7
  6
CONTINUOUS
 10
422.6315153996
 20
0.5518382869
 40
499.9737961104
100
AcDbArc
 50
180.4010947529
 51
184.1486139434
  0
ARC
  5
8FE
100
AcDbEntity
  8
RACCORDO
100
AcDbCircle
 62
253
  6
CONTINUOUS
 10
422.6315153996
 20
0.5518382869
 40
499.8990538137
100
AcDbArc
 50
180.4299778573
 51
184.1486139434
  0
ARC
  5
8FF
100
AcDbEntity
  8
RACCORDO
100
AcDbCircle
 62
253
  6
CONTINUOUS
 10
422.6315153996
 20
0.5518382869
 40
499.8990538137
100
AcDbArc
 50
175.8513860566
 51
179.5700221427
  0
ARC
  5
900
100
AcDbEntity
  8
RACCORDO
100
AcDbCircle
 62
253
  6
CONTINUOUS
 10
441.3815153996
 20
0.5518382869
 40
499.6437138263
100
AcDbArc
 50
177.3977353854
 51
182.6022646146
  0
ARC
  5
901
100
AcDbEntity
  8
DRAFT
100
AcDbCircle
 62
7
  6
CONTINUOUS
 10
422.6315153996
 20
0.5518382869
 40
499.5
100
AcDbArc
 50
179.5985247862
 51
180.4014752138
  0
ARC
  5
902
100
AcDbEntity
  8
RACCORDO
100
AcDbCircle
 62
253
  6
CONTINUOUS
 10
422.6315153996
 20
0.5518382869
 40
499.3997390464
100
AcDbArc
 50
180.4399936068
 51
184.1486139434
  0
ARC
  5
903
100
AcDbEntity
  8
RACCORDO
100
AcDbCircle
 62
253
  6
CONTINUOUS
 10
422.6315153996
 20
0.5518382869
 40
499.3997390464
100
AcDbArc
 50
175.8513860566
 51
179.5600063932
  0
ARC
  5
904
100
AcDbEntity
  8
RACCORDO
100
AcDbCircle
 62
253
  6
CONTINUOUS
 10
441.3815153996
 20
0.5518382869
 40
499.1437899788
100
AcDbArc
 50
177.3977353854
 51
182.6022646146
  0
ARC
  5
905
100
AcDbEntity
  8
RACCORDO
100
AcDbCircle
 62
253
  6
CONTINUOUS
 10
422.6315153996
 20
0.5518382869
 40
498.4748993522
100
AcDbArc
 50
180.44080996
 51
184.1486139434
  0
ARC
  5
906
100
AcDbEntity
  8
RACCORDO
100
AcDbCircle
 62
253
  6
CONTINUOUS
 10
422.6315153996
 20
0.5518382869
 40
498.4748993522
100
AcDbArc
 50
175.8513860566
 51
179.55919004
  0
ARC
  5
907
100
AcDbEntity
  8
RACCORDO
100
AcDbCircle
 62
253
  6
CONTINUOUS
 10
422.6315153996
 20
0.5518382869
 40
498.1760409428
100
AcDbArc
 50
180.4355206224
 51
184.1486139434
  0
ARC
  5
908
100
AcDbEntity
  8
RACCORDO
100
AcDbCircle
 62
253
  6
CONTINUOUS
 10
422.6315153996
 20
0.5518382869
 40
498.1760409428
100
AcDbArc
 50
175.8513860566
 51
179.5644793776
  0
ARC
  5
909
100
AcDbEntity
  8
RACCORDO
100
AcDbCircle
 62
253
  6
CONTINUOUS
 10
422.6315153996
 20
0.5518382869
 40
498.1364703937
100
AcDbArc
 50
180.4263819186
 51
184.1486139434
  0
ARC
  5
90A
100
AcDbEntity
  8
RACCORDO
100
AcDbCircle
 62
253
  6
CONTINUOUS
 10
422.6315153996
 20
0.5518382869
 40
498.1364703937
100
AcDbArc
 50
175.8513860566
 51
179.5736180814
  0
ARC
  5
90B
100
AcDbEntity
  8
RACCORDO
100
AcDbCircle
 62
253
  6
CONTINUOUS
 10
422.6315153996
 20
0.5518382869
 40
497.8376119843
100
AcDbArc
 50
180.4210803341
 51
184.1486139434
  0
ARC
  5
90C
100
AcDbEntity
  8
RACCORDO
100
AcDbCircle
 62
253
  6
CONTINUOUS
 10
422.6315153996
 20
0.5518382869
 40
497.8376119843
100
AcDbArc
 50
175.8513860566
 51
179.5789196659
  0
ARC
  5
90D
100
AcDbEntity
  8
RACCORDO
100
AcDbCircle
 62
253
  6
CONTINUOUS
 10
422.6315153996
 20
0.5518382869
 40
496.3297193088
100
AcDbArc
 50
180.4223596358
 51
184.1486139434
  0
ARC
  5
90E
100
AcDbEntity
  8
RACCORDO
100
AcDbCircle
 62
253
  6
CONTINUOUS
 10
422.6315153996
 20
0.5518382869
 40
496.3297193088
100
AcDbArc
 50
175.8513860566
 51
179.5776403642
  0
ARC
  5
90F
100
AcDbEntity
  8
RACCORDO
100
AcDbCircle
 62
253
  6
CONTINUOUS
 10
422.6315153996
 20
0.5518382869
 40
496.0297650002
100
AcDbArc
 50
180.4166113293
 51
184.1486139434
  0
ARC
  5
910
100
AcDbEntity
  8
RACCORDO
100
AcDbCircle
 62
253
  6
CONTINUOUS
 10
422.6315153996
 20
0.5518382869
 40
496.0297650002
100
AcDbArc
 50
175.8513860566
 51
179.5833886707
  0
ARC
  5
911
100
AcDbEntity
  8
DRAFT
100
AcDbCircle
 62
7
  6
CONTINUOUS
 10
422.6315153996
 20
0.5518382869
 40
496.0192005714
100
AcDbArc
 50
179.5957073996
 51
180.4042926004
  0
ARC
  5
912
100
AcDbEntity
  8
RACCORDO
100
AcDbCircle
 62
253
  6
CONTINUOUS
 10
422.6315153996
 20
0.5518382869
 40
496.017150432
100
AcDbArc
 50
175.8513860566
 51
184.1486139434
  0
ARC
  5
913
100
AcDbEntity
  8
RACCORDO
100
AcDbCircle
 62
253
  6
CONTINUOUS
 10
422.6315153996
 20
0.5518382869
 40
495.0173027369
100
AcDbArc
 50
175.8513860566
 51
184.1486139434
  0
ELLIPSE
  5
914
100
AcDbEntity
  8
RACCORDO
100
AcDbEllipse
 62
7
  6
CONTINUOUS
 10
55.780691992
 20
22.4510148793
 30
0.0
 11
0.4254277461
 21
0.4254277461
 31
0.0
 40
0.9972646886
 41
-0.7840286355
 42
0.7840286355
  0
ELLIPSE
  5
915
100
AcDbEntity
  8
RACCORDO
100
AcDbEllipse
 62
7
  6
CONTINUOUS
 10
-55.5176611928
 20
22.4510148793
 30
0.0
 11
-0.4254277461
 21
0.4254277461
 31
0.0
 40
0.9972646886
 41
-0.7840286355
 42
0.7840286355
  0
ELLIPSE
  5
916
100
AcDbEntity
  8
RACCORDO
100
AcDbEllipse
 62
7
  6
CONTINUOUS
 10
-55.5176611928
 20
-21.3473383055
 30
0.0
 11
0.4254277461
 21
0.4254277461
 31
0.0
 40
0.9972646886
 41
-3.9256212891
 42
-2.3575640181
  0
ELLIPSE
  5
917
100
AcDbEntity
  8
RACCORDO
100
AcDbEllipse
 62
7
  6
CONTINUOUS
 10
55.780691992
 20
-21.3473383055
 30
0.0
 11
-0.4254277461
 21
0.4254277461
 31
0.0
 40
0.9972646886
 41
-3.9256212891
 42
-2.3575640181
  0
ELLIPSE
  5
918
100
AcDbEntity
  8
0
100
AcDbEllipse
 62
7
  6
CONTINUOUS
 10
25.4417224862
 20
26.593276731
 30
0.0
 11
-0.1999983076
 21
0.2000050771
 31
0.0
 40
0.0041137573
 41
-4.7082751071
 42
-3.1898386578
  0
ELLIPSE
  5
919
100
AcDbEntity
  8
0
100
AcDbEllipse
 62
7
  6
CONTINUOUS
 10
19.8213083129
 20
26.593276731
 30
0.0
 11
0.1999983076
 21
0.2000050771
 31
0.0
 40
0.0041137573
 41
-3.0933466494
 42
-1.5749102001
  0
ELLIPSE
  5
91A
100
AcDbEntity
  8
0
100
AcDbEllipse
 62
7
  6
CONTINUOUS
 10
25.6419969554
 20
26.0518382869
 30
0.0
 11
0.0
 21
0.2
 31
0.0
 40
0.0524077793
 41
-3.1939525311
 42
-3.1415926536
  0
ELLIPSE
  5
91B
100
AcDbEntity
  8
0
100
AcDbEllipse
 62
7
  6
CONTINUOUS
 10
19.6210338437
 20
26.0518382869
 30
0.0
 11
0.0
 21
0.2
 31
0.0
 40
0.0524077793
 41
-3.1415926536
 42
-3.089232776
  0
ELLIPSE
  5
91C
100
AcDbEntity
  8
0
100
AcDbEllipse
 62
7
  6
CONTINUOUS
 10
19.8213083129
 20
-25.4896001572
 30
0.0
 11
-0.1999983076
 21
0.2000050771
 31
0.0
 40
0.0041137573
 41
-1.5666824535
 42
-0.0482460042
  0
ELLIPSE
  5
91D
100
AcDbEntity
  8
0
100
AcDbEllipse
 62
7
  6
CONTINUOUS
 10
25.4417224862
 20
-25.4896001572
 30
0.0
 11
0.1999983076
 21
0.2000050771
 31
0.0
 40
0.0041137573
 41
0.0482460042
 42
1.5666824535
  0
ELLIPSE
  5
91E
100
AcDbEntity
  8
0
100
AcDbEllipse
 62
7
  6
CONTINUOUS
 10
19.6210338437
 20
-24.9481617131
 30
0.0
 11
0.0
 21
0.2
 31
0.0
 40
0.0524077793
 41
-0.0523598776
 42
-0.0
  0
ELLIPSE
  5
91F
100
AcDbEntity
  8
0
100
AcDbEllipse
 62
7
  6
CONTINUOUS
 10
25.6419969554
 20
-24.9481617131
 30
0.0
 11
0.0
 21
0.2
 31
0.0
 40
0.0524077793
 41
0.0
 42
0.0523598776
  0
ELLIPSE
  5
920
100
AcDbEntity
  8
DRAFT
100
AcDbEllipse
 62
7
  6
CONTINUOUS
 10
0.1315153996
 20
1329.9290889349
 30
0.0
 11
0.0
 21
1353.9127668781
 31
0.0
 40
0.9999253065
 41
-3.1833387965
 42
-3.0998465107
  0
ELLIPSE
  5
921
100
AcDbEntity
  8
DRAFT
100
AcDbEllipse
 62
7
  6
CONTINUOUS
 10
0.1315153996
 20
-1328.8254123612
 30
0.0
 11
0.0
 21
1353.9127668781
 31
0.0
 40
0.9999253065
 41
-0.0417461429
 42
0.0417461429
  0
ELLIPSE
  5
922
100
AcDbEntity
  8
0
100
AcDbEllipse
 62
7
  6
CONTINUOUS
 10
-42.0582775138
 20
26.543276731
 30
0.0
 11
-0.1999983076
 21
0.2000050771
 31
0.0
 40
0.0041137573
 41
-4.7082751071
 42
-3.1898386578
  0
ELLIPSE
  5
923
100
AcDbEntity
  8
0
100
AcDbEllipse
 62
7
  6
CONTINUOUS
 10
-47.6786916871
 20
26.543276731
 30
0.0
 11
0.1999983076
 21
0.2000050771
 31
0.0
 40
0.0041137573
 41
-3.0933466494
 42
-1.5749102001
  0
ELLIPSE
  5
924
100
AcDbEntity
  8
RACCORDO
100
AcDbEllipse
 62
7
  6
CONTINUOUS
 10
-422.3684846004
 20
50.1053679249
 30
0.0
 11
0.0
 21
500.5781588589
 31
0.0
 40
0.9950881703
 41
-1.6629272851
 42
-1.6627131869
  0
ELLIPSE
  5
925
100
AcDbEntity
  8
RACCORDO
100
AcDbEllipse
 62
7
  6
CONTINUOUS
 10
-422.3684846004
 20
-49.0016913512
 30
0.0
 11
0.0
 21
500.5781588589
 31
0.0
 40
0.9950881703
 41
-1.4788794667
 42
-1.4786653685
  0
ELLIPSE
  5
926
100
AcDbEntity
  8
RACCORDO
100
AcDbEllipse
 62
7
  6
CONTINUOUS
 10
422.6315153996
 20
-49.0016913512
 30
0.0
 11
0.0
 21
500.5781588589
 31
0.0
 40
0.9950881703
 41
1.4786653685
 42
1.4788794667
  0
ELLIPSE
  5
927
100
AcDbEntity
  8
RACCORDO
100
AcDbEllipse
 62
7
  6
CONTINUOUS
 10
422.6315153996
 20
50.1053679249
 30
0.0
 11
0.0
 21
500.5781588589
 31
0.0
 40
0.9950881703
 41
-4.6204721202
 42
-4.6202580221
  0
ELLIPSE
  5
928
100
AcDbEntity
  8
0
100
AcDbEllipse
 62
7
  6
CONTINUOUS
 10
2.9417224862
 20
-25.4896001572
 30
0.0
 11
0.1999983076
 21
0.2000050771
 31
0.0
 40
0.0041137573
 41
0.0482460042
 42
1.5666824535
  0
ELLIPSE
  5
929
100
AcDbEntity
  8
0
100
AcDbEllipse
 62
7
  6
CONTINUOUS
 10
-41.8580030446
 20
25.9518382869
 30
0.0
 11
0.0
 21
0.2
 31
0.0
 40
0.0524077793
 41
-3.1939525311
 42
-3.1415926536
  0
ELLIPSE
  5
92A
100
AcDbEntity
  8
0
100
AcDbEllipse
 62
7
  6
CONTINUOUS
 10
-47.8789661563
 20
25.9518382869
 30
0.0
 11
0.0
 21
0.2
 31
0.0
 40
0.0524077793
 41
-3.1415926536
 42
-3.089232776
  0
ELLIPSE
  5
92B
100
AcDbEntity
  8
0
100
AcDbEllipse
 62
7
  6
CONTINUOUS
 10
-47.6786916871
 20
-25.4396001572
 30
0.0
 11
-0.1999983076
 21
0.2000050771
 31
0.0
 40
0.0041137573
 41
-1.5666824535
 42
-0.0482460042
  0
ELLIPSE
  5
92C
100
AcDbEntity
  8
0
100
AcDbEllipse
 62
7
  6
CONTINUOUS
 10
-42.0582775138
 20
-25.4396001572
 30
0.0
 11
0.1999983076
 21
0.2000050771
 31
0.0
 40
0.0041137573
 41
0.0482460042
 42
1.5666824535
  0
ELLIPSE
  5
92D
100
AcDbEntity
  8
0
100
AcDbEllipse
 62
7
  6
CONTINUOUS
 10
-2.8789661563
 20
-24.9481617131
 30
0.0
 11
-0.0
 21
0.2
 31
0.0
 40
0.0524077793
 41
-0.0523598776
 42
-0.0
  0
ELLIPSE
  5
92E
100
AcDbEntity
  8
0
100
AcDbEllipse
 62
7
  6
CONTINUOUS
 10
3.1419969554
 20
-24.9481617131
 30
0.0
 11
0.0
 21
0.2
 31
0.0
 40
0.0524077793
 41
0.0
 42
0.0523598776
  0
ELLIPSE
  5
92F
100
AcDbEntity
  8
0
100
AcDbEllipse
 62
7
  6
CONTINUOUS
 10
-47.8789661563
 20
-24.8481617131
 30
0.0
 11
-0.0
 21
0.2
 31
0.0
 40
0.0524077793
 41
-0.0523598776
 42
0.0
  0
ELLIPSE
  5
930
100
AcDbEntity
  8
RACCORDO
100
AcDbEllipse
 62
7
  6
CONTINUOUS
 10
422.6315153996
 20
163.8922595904
 30
0.0
 11
0.0
 21
549.5619869818
 31
0.0
 40
0.9548092459
 41
-4.4039328505
 42
-4.4034525614
  0
ELLIPSE
  5
931
100
AcDbEntity
  8
RACCORDO
100
AcDbEllipse
 62
7
  6
CONTINUOUS
 10
422.6315153996
 20
-162.7885830166
 30
0.0
 11
0.0
 21
549.5619869818
 31
0.0
 40
0.9548092459
 41
1.2618599078
 42
1.2623401969
  0
ELLIPSE
  5
932
100
AcDbEntity
  8
RACCORDO
100
AcDbEllipse
 62
7
  6
CONTINUOUS
 10
-422.3684846004
 20
163.8922595904
 30
0.0
 11
0.0
 21
549.5619869818
 31
0.0
 40
0.9548092459
 41
-1.8797327458
 42
-1.8792524567
  0
ELLIPSE
  5
933
100
AcDbEntity
  8
RACCORDO
100
AcDbEllipse
 62
7
  6
CONTINUOUS
 10
-422.3684846004
 20
-162.7885830166
 30
0.0
 11
0.0
 21
549.5619869818
 31
0.0
 40
0.9548092459
 41
-1.2623401969
 42
-1.2618599078
  0
ELLIPSE
  5
934
100
AcDbEntity
  8
0
100
AcDbEllipse
 62
7
  6
CONTINUOUS
 10
-41.8580030446
 20
-24.8481617131
 30
0.0
 11
0.0
 21
0.2
 31
0.0
 40
0.0524077793
 41
0.0
 42
0.0523598776
  0
ELLIPSE
  5
935
100
AcDbEntity
  8
0
100
AcDbEllipse
 62
7
  6
CONTINUOUS
 10
47.9417224862
 20
26.543276731
 30
0.0
 11
-0.1999983076
 21
0.2000050771
 31
0.0
 40
0.0041137573
 41
-4.7082751071
 42
-3.1898386578
  0
ELLIPSE
  5
936
100
AcDbEntity
  8
0
100
AcDbEllipse
 62
7
  6
CONTINUOUS
 10
42.3213083129
 20
26.543276731
 30
0.0
 11
0.1999983076
 21
0.2000050771
 31
0.0
 40
0.0041137573
 41
-3.0933466494
 42
-1.5749102001
  0
ELLIPSE
  5
937
100
AcDbEntity
  8
RACCORDO
100
AcDbEllipse
 62
7
  6
CONTINUOUS
 10
-422.3684846004
 20
-326.1198372879
 30
0.0
 11
0.0
 21
658.3827883028
 31
0.0
 40
0.8682237535
 41
-1.0582232137
 42
-1.0580842129
  0
ELLIPSE
  5
938
100
AcDbEntity
  8
RACCORDO
100
AcDbEllipse
 62
7
  6
CONTINUOUS
 10
-422.3684846004
 20
327.2235138617
 30
0.0
 11
0.0
 21
658.3827883028
 31
0.0
 40
0.8682237535
 41
-2.0835084407
 42
-2.0833694399
  0
ELLIPSE
  5
939
100
AcDbEntity
  8
RACCORDO
100
AcDbEllipse
 62
7
  6
CONTINUOUS
 10
422.6315153996
 20
-326.119837288
 30
0.0
 11
0.0
 21
658.3827883028
 31
0.0
 40
0.8682237535
 41
1.0580842129
 42
1.0582232137
  0
ELLIPSE
  5
93A
100
AcDbEntity
  8
RACCORDO
100
AcDbEllipse
 62
7
  6
CONTINUOUS
 10
422.6315153996
 20
327.2235138617
 30
0.0
 11
0.0
 21
658.3827883028
 31
0.0
 40
0.8682237535
 41
-4.1998158673
 42
-4.1996768665
  0
ELLIPSE
  5
93B
100
AcDbEntity
  8
0
100
AcDbEllipse
 62
7
  6
CONTINUOUS
 10
48.1419969554
 20
25.9518382869
 30
0.0
 11
0.0
 21
0.2
 31
0.0
 40
0.0524077793
 41
-3.1939525311
 42
-3.1415926536
  0
ELLIPSE
  5
93C
100
AcDbEntity
  8
0
100
AcDbEllipse
 62
7
  6
CONTINUOUS
 10
42.1210338437
 20
25.9518382869
 30
0.0
 11
0.0
 21
0.2
 31
0.0
 40
0.0524077793
 41
-3.1415926536
 42
-3.089232776
  0
ELLIPSE
  5
93D
100
AcDbEntity
  8
0
100
AcDbEllipse
 62
7
  6
CONTINUOUS
 10
42.3213083129
 20
-25.4396001572
 30
0.0
 11
-0.1999983076
 21
0.2000050771
 31
0.0
 40
0.0041137573
 41
-1.5666824535
 42
-0.0482460042
  0
ELLIPSE
  5
93E
100
AcDbEntity
  8
0
100
AcDbEllipse
 62
7
  6
CONTINUOUS
 10
47.9417224862
 20
-25.4396001572
 30
0.0
 11
0.1999983076
 21
0.2000050771
 31
0.0
 40
0.0041137573
 41
0.0482460042
 42
1.5666824535
  0
ELLIPSE
  5
93F
100
AcDbEntity
  8
0
100
AcDbEllipse
 62
7
  6
CONTINUOUS
 10
42.1210338437
 20
-24.8481617131
 30
0.0
 11
-0.0
 21
0.2
 31
0.0
 40
0.0524077793
 41
-0.0523598776
 42
0.0
  0
ELLIPSE
  5
940
100
AcDbEntity
  8
0
100
AcDbEllipse
 62
7
  6
CONTINUOUS
 10
48.1419969554
 20
-24.8481617131
 30
0.0
 11
0.0
 21
0.2
 31
0.0
 40
0.0524077793
 41
0.0
 42
0.0523598776
  0
ELLIPSE
  5
941
100
AcDbEntity
  8
0
100
AcDbEllipse
 62
7
  6
CONTINUOUS
 10
-19.5582775138
 20
26.593276731
 30
0.0
 11
-0.1999983076
 21
0.2000050771
 31
0.0
 40
0.0041137573
 41
-4.7082751071
 42
-3.1898386578
  0
ELLIPSE
  5
942
100
AcDbEntity
  8
0
100
AcDbEllipse
 62
7
  6
CONTINUOUS
 10
-25.1786916871
 20
26.593276731
 30
0.0
 11
0.1999983076
 21
0.2000050771
 31
0.0
 40
0.0041137573
 41
-3.0933466494
 42
-1.5749102001
  0
ELLIPSE
  5
943
100
AcDbEntity
  8
0
100
AcDbEllipse
 62
7
  6
CONTINUOUS
 10
-19.3580030446
 20
26.0518382869
 30
0.0
 11
0.0
 21
0.2
 31
0.0
 40
0.0524077793
 41
-3.1939525311
 42
-3.1415926536
  0
ELLIPSE
  5
944
100
AcDbEntity
  8
0
100
AcDbEllipse
 62
7
  6
CONTINUOUS
 10
-25.3789661563
 20
26.0518382869
 30
0.0
 11
-0.0
 21
0.2
 31
0.0
 40
0.0524077793
 41
-3.1415926536
 42
-3.089232776
  0
ELLIPSE
  5
945
100
AcDbEntity
  8
0
100
AcDbEllipse
 62
7
  6
CONTINUOUS
 10
-25.1786916871
 20
-25.4896001572
 30
0.0
 11
-0.1999983076
 21
0.2000050771
 31
0.0
 40
0.0041137573
 41
-1.5666824535
 42
-0.0482460042
  0
ELLIPSE
  5
946
100
AcDbEntity
  8
0
100
AcDbEllipse
 62
7
  6
CONTINUOUS
 10
-19.5582775138
 20
-25.4896001572
 30
0.0
 11
0.1999983076
 21
0.2000050771
 31
0.0
 40
0.0041137573
 41
0.0482460042
 42
1.5666824535
  0
ELLIPSE
  5
947
100
AcDbEntity
  8
0
100
AcDbEllipse
 62
7
  6
CONTINUOUS
 10
-25.3789661563
 20
-24.9481617131
 30
0.0
 11
0.0
 21
0.2
 31
0.0
 40
0.0524077793
 41
-0.0523598776
 42
0.0
  0
ELLIPSE
  5
948
100
AcDbEntity
  8
0
100
AcDbEllipse
 62
7
  6
CONTINUOUS
 10
-19.3580030446
 20
-24.9481617131
 30
0.0
 11
0.0
 21
0.2
 31
0.0
 40
0.0524077793
 41
-0.0
 42
0.0523598776
  0
ELLIPSE
  5
949
100
AcDbEntity
  8
0
100
AcDbEllipse
 62
7
  6
CONTINUOUS
 10
2.9417224862
 20
26.593276731
 30
0.0
 11
-0.1999983076
 21
0.2000050771
 31
0.0
 40
0.0041137573
 41
-4.7082751071
 42
-3.1898386578
  0
ELLIPSE
  5
94A
100
AcDbEntity
  8
0
100
AcDbEllipse
 62
7
  6
CONTINUOUS
 10
-2.6786916871
 20
26.593276731
 30
0.0
 11
0.1999983076
 21
0.2000050771
 31
0.0
 40
0.0041137573
 41
-3.0933466494
 42
-1.5749102001
  0
ELLIPSE
  5
94B
100
AcDbEntity
  8
0
100
AcDbEllipse
 62
7
  6
CONTINUOUS
 10
3.1419969554
 20
26.0518382869
 30
0.0
 11
0.0
 21
0.2
 31
0.0
 40
0.0524077793
 41
-3.1939525311
 42
-3.1415926536
  0
ELLIPSE
  5
94C
100
AcDbEntity
  8
0
100
AcDbEllipse
 62
7
  6
CONTINUOUS
 10
-2.8789661563
 20
26.0518382869
 30
0.0
 11
0.0
 21
0.2
 31
0.0
 40
0.0524077793
 41
-3.1415926536
 42
-3.089232776
  0
ELLIPSE
  5
94D
100
AcDbEntity
  8
0
100
AcDbEllipse
 62
7
  6
CONTINUOUS
 10
-2.6786916871
 20
-25.4896001572
 30
0.0
 11
-0.1999983076
 21
0.2000050771
 31
0.0
 40
0.0041137573
 41
-1.5666824535
 42
-0.0482460042
  0
ENDSEC
  0
SECTION
  2
OBJECTS
  0
DICTIONARY
  5
C
100
AcDbDictionary
280
0
281
1
  3
ACAD_GROUP
350
D
  3
ACAD_MLINESTYLE
350
17
  3
ACAD_LAYOUT
350
1A
  3
ACAD_PLOTSETTINGS
350
19
  3
ACAD_PLOTSTYLENAME
350
E
  0
DICTIONARY
  5
D
102
{ACAD_REACTORS
330
C
102
}
100
AcDbDictionary
280
0
281
1
  0
ACDBDICTIONARYWDFLT
  5
E
102
{ACAD_REACTORS
330
C
102
}
100
AcDbDictionary
281
1
  3
Normal
350
F
100
AcDbDictionaryWithDefault
340
F
  0
DICTIONARY
  5
17
102
{ACAD_REACTORS
330
C
102
}
100
AcDbDictionary
280
0
281
1
  3
Standard
350
18
  0
DICTIONARY
  5
19
102
{ACAD_REACTORS
330
C
102
}
100
AcDbDictionary
281
1
  0
DICTIONARY
  5
1A
102
{ACAD_REACTORS
330
C
102
}
100
AcDbDictionary
281
1
  3
Model
350
94E
  3
Layout1
350
94F
  0
ACDBPLACEHOLDER
  5
F
102
{ACAD_REACTORS
330
E
102
}
  0
MLINESTYLE
  5
18
102
{ACAD_REACTORS
330
17
102
}
100
AcDbMlineStyle
  2
STANDARD
 70
0
  3

 62
256
 51
90.0
 52
90.0
 71
2
 49
0.5
 62
256
  6
BYLAYER
 49
-0.5
 62
256
  6
BYLAYER
  0
LAYOUT
  5
94E
102
{ACAD_REACTORS
330
1A
102
}
100
AcDbPlotSettings
  1

  2
none_device
  4
ISO_A4_(297.00_x_210.00_MM)
  6

 40
0.0
 41
0.0
 42
0.0
 43
0.0
 44
297.0
 45
210.0
 46
0.0
 47
0.0
 48
0.0
 49
0.0
140
0.0
141
0.0
142
1.0
143
1.0
 70
1024
 72
1
 73
0
 74
0
  7

 75
0
147
1.0
148
0.0
149
0.0
100
AcDbLayout
  1
Model
 70
0
 71
0
 10
0.0
 20
0.0
 11
297.0
 21
210.0
 12
0.0
 22
0.0
 32
0.0
 14
0.0
 24
0.0
 34
0.0
 15
0.0
 25
0.0
 35
0.0
146
0.0
 13
0.0
 23
0.0
 33
0.0
 16
1.0
 26
0.0
 36
0.0
 17
0.0
 27
1.0
 37
0.0
 76
0
330
219
345
0
346
0
  0
LAYOUT
  5
94F
102
{ACAD_REACTORS
330
1A
102
}
100
AcDbPlotSettings
  1

  2
none_device
  4
ISO_A4_(297.00_x_210.00_MM)
  6

 40
0.0
 41
0.0
 42
0.0
 43
0.0
 44
297.0
 45
210.0
 46
0.0
 47
0.0
 48
0.0
 49
0.0
140
0.0
141
0.0
142
1.0
143
1.0
 70
0
 72
1
 73
0
 74
0
  7

 75
0
147
1.0
148
0.0
149
0.0
100
AcDbLayout
  1
Layout1
 70
0
 71
1
 10
0.0
 20
0.0
 11
297.0
 21
210.0
 12
0.0
 22
0.0
 32
0.0
 14
0.0
 24
0.0
 34
0.0
 15
0.0
 25
0.0
 35
0.0
146
0.0
 13
0.0
 23
0.0
 33
0.0
 16
1.0
 26
0.0
 36
0.0
 17
0.0
 27
1.0
 37
0.0
 76
0
330
21A
345
0
346
0
  0
ENDSEC
  0
EOF
