0
SECTION
2
HEADER
9
$ACADVER
1
AC1015
9
$DWGCODEPAGE
3
ANSI_1252
9
$EXTMAX
10
297.0000000000
20
210.0000000000
30
0.0000000000
9
$EXTMIN
10
0.0000000000
20
0.0000000000
30
0.0000000000
9
$LIMMIN
10
0.0000000000
20
0.0000000000
9
$LIMMAX
10
297.0000000000
20
210.0000000000
9
$VIEWCTR
10
148.5000000000
20
105.0000000000
9
$VIEWSIZE
40
210.0000000000
9
$CLAYER
8
0
9
$LTSCALE
40
16.3350000000
9
$CELTYPE
6
BYLAYER
9
$DIMSCALE
40
1
9
$DIMASZ
40
3.0000000000
9
$DIMEXO
40
1.8562500000
9
$DIMDLI
40
11.2860000000
9
$DIMEXE
40
5.3460000000
9
$DIMCEN
40
2.6730000000
9
$DIMLFAC
40
1.0000000000
9
$DIMBLK
1
_FILLED
9
$DIMTXT
40
3.0000000000
9
$DIMTOL
70
1
9
$DIMLIM
70
0
9
$DIMTFAC
40
1.0000000000
9
$DIMTP
40
0.0100000000
9
$DIMTM
40
0.0100000000
9
$PDMODE
70
3
9
$PDSIZE
40
3.0000000000
9
$HANDSEED
5
5EE
9
$MEASUREMENT
70
1
9
$INSUNITS
70
4
0
ENDSEC
0
SECTION
2
CLASSES
0
CLASS
1
ACDBDICTIONARYWDFLT
2
AcDbDictionaryWithDefault
3
AutoCAD 2000
90
0
280
0
281
0
0
CLASS
1
ACDBPLACEHOLDER
2
AcDbPlaceHolder
3
AutoCAD 2000
90
0
280
0
281
0
0
CLASS
1
LAYOUT
2
AcDbLayout
3
AutoCAD 2000
90
0
280
0
281
0
0
ENDSEC
0
SECTION
2
TABLES
0
TABLE
2
VPORT
5
8
100
AcDbSymbolTable
70
2
0
VPORT
5
1F4
100
AcDbSymbolTableRecord
100
AcDbViewportTableRecord
2
*ACTIVE
70
0
10
0.0
20
0.0
11
1.0
21
1.0
12
148.5000000000
22
105.0000000000
13
0.0
23
0.0
14
1.0
24
1.0
15
0.0
25
0.0
16
0.0
26
0.0
36
1.0
17
0.0
27
0.0
37
0.0
40
210.0000000000
41
1.4142857143
42
50.0
43
0.0
44
0.0
50
0.0
51
0.0
71
0
72
100
73
1
74
1
75
0
76
0
77
0
78
0
0
ENDTAB
0
TABLE
2
LTYPE
5
5
100
AcDbSymbolTable
70
6
0
LTYPE
5
14
100
AcDbSymbolTableRecord
100
AcDbLinetypeTableRecord
2
BYBLOCK
70
0
3

72
65
73
0
40
0.0
0
LTYPE
5
15
100
AcDbSymbolTableRecord
100
AcDbLinetypeTableRecord
2
BYLAYER
70
0
3

72
65
73
0
40
0.0
0
LTYPE
5
16
100
AcDbSymbolTableRecord
100
AcDbLinetypeTableRecord
2
CONTINUOUS
70
64
3
Solid line
72
65
73
0
40
0
0
LTYPE
5
1F5
100
AcDbSymbolTableRecord
100
AcDbLinetypeTableRecord
2
CENTER
70
64
3
____ _ ____ _ ____ _ ____ _ ____ _ ____ _ ____
72
65
73
4
40
0.6
49
0.375
74
0
49
-0.075
74
0
49
0.075
74
0
49
-0.075
74
0
0
LTYPE
5
1F6
100
AcDbSymbolTableRecord
100
AcDbLinetypeTableRecord
2
HIDDEN
70
64
3
- - - - - - - - - - - - - - - - - - - -
72
65
73
2
40
0.2
49
0.1
74
0
49
-0.1
74
0
0
LTYPE
5
1F7
100
AcDbSymbolTableRecord
100
AcDbLinetypeTableRecord
2
PHANTOM
70
64
3
_____ _ _ _____ _ _ _____ _ _ _____
72
65
73
6
40
0.8
49
0.45
74
0
49
-0.05
74
0
49
0.1
74
0
49
-0.05
74
0
49
0.1
74
0
49
-0.05
74
0
0
LTYPE
5
1F8
100
AcDbSymbolTableRecord
100
AcDbLinetypeTableRecord
2
DOT
70
64
3
. . . . . . . . . . . . . . . . . . . .
72
65
73
2
40
0.2
49
0.1
74
0
49
-0.1
74
0
0
LTYPE
5
1F9
100
AcDbSymbolTableRecord
100
AcDbLinetypeTableRecord
2
DASHED
70
64
3
- - - - - - - - - - - - - - - - - - - -
72
65
73
2
40
0.2
49
0.1
74
0
49
-0.1
74
0
0
ENDTAB
0
TABLE
2
LAYER
5
2
100
AcDbSymbolTable
70
36
0
LAYER
5
10
100
AcDbSymbolTableRecord
100
AcDbLayerTableRecord
2
0
70
0
62
7
6
CONTINUOUS
370
-3
390
F
0
LAYER
5
1FA
100
AcDbSymbolTableRecord
100
AcDbLayerTableRecord
2
DEFAULT_1
70
0
62
7
6
CENTER
370
-3
390
F
0
LAYER
5
1FB
100
AcDbSymbolTableRecord
100
AcDbLayerTableRecord
2
DEFAULT_2
70
0
62
8
6
HIDDEN
370
-3
390
F
0
LAYER
5
1FC
100
AcDbSymbolTableRecord
100
AcDbLayerTableRecord
2
DEFAULT_3
70
0
62
7
6
PHANTOM
370
-3
390
F
0
LAYER
5
1FD
100
AcDbSymbolTableRecord
100
AcDbLayerTableRecord
2
_2D_DELETED_OBJS
70
0
62
7
6
CONTINUOUS
370
-3
390
F
0
LAYER
5
1FE
100
AcDbSymbolTableRecord
100
AcDbLayerTableRecord
2
_BLACK_HOLE
70
0
62
7
6
CONTINUOUS
370
-3
390
F
0
LAYER
5
1FF
100
AcDbSymbolTableRecord
100
AcDbLayerTableRecord
2
ASSI
70
0
62
7
6
CONTINUOUS
370
-3
390
F
0
LAYER
5
200
100
AcDbSymbolTableRecord
100
AcDbLayerTableRecord
2
COORDINATE
70
0
62
7
6
CONTINUOUS
370
-3
390
F
0
LAYER
5
201
100
AcDbSymbolTableRecord
100
AcDbLayerTableRecord
2
COORD_ORIGINE
70
0
62
7
6
CONTINUOUS
370
-3
390
F
0
LAYER
5
202
100
AcDbSymbolTableRecord
100
AcDbLayerTableRecord
2
COPY_PLACCA
70
0
62
7
6
CONTINUOUS
370
-3
390
F
0
LAYER
5
203
100
AcDbSymbolTableRecord
100
AcDbLayerTableRecord
2
COPY_SUPP
70
0
62
7
6
CONTINUOUS
370
-3
390
F
0
LAYER
5
204
100
AcDbSymbolTableRecord
100
AcDbLayerTableRecord
2
CURVE
70
0
62
7
6
CONTINUOUS
370
-3
390
F
0
LAYER
5
205
100
AcDbSymbolTableRecord
100
AcDbLayerTableRecord
2
DRAFT
70
0
62
7
6
CONTINUOUS
370
-3
390
F
0
LAYER
5
206
100
AcDbSymbolTableRecord
100
AcDbLayerTableRecord
2
IGES
70
0
62
7
6
CONTINUOUS
370
-3
390
F
0
LAYER
5
207
100
AcDbSymbolTableRecord
100
AcDbLayerTableRecord
2
IGES_SCRITTE
70
0
62
7
6
CONTINUOUS
370
-3
390
F
0
LAYER
5
208
100
AcDbSymbolTableRecord
100
AcDbLayerTableRecord
2
NOTE
70
0
62
7
6
CONTINUOUS
370
-3
390
F
0
LAYER
5
209
100
AcDbSymbolTableRecord
100
AcDbLayerTableRecord
2
PIANI
70
0
62
7
6
CONTINUOUS
370
-3
390
F
0
LAYER
5
20A
100
AcDbSymbolTableRecord
100
AcDbLayerTableRecord
2
PIANI_ORIGINE
70
0
62
7
6
CONTINUOUS
370
-3
390
F
0
LAYER
5
20B
100
AcDbSymbolTableRecord
100
AcDbLayerTableRecord
2
PUNTI
70
0
62
7
6
CONTINUOUS
370
-3
390
F
0
LAYER
5
20C
100
AcDbSymbolTableRecord
100
AcDbLayerTableRecord
2
RACCORDO
70
0
62
7
6
CONTINUOUS
370
-3
390
F
0
LAYER
5
20D
100
AcDbSymbolTableRecord
100
AcDbLayerTableRecord
2
SMUSSO
70
0
62
7
6
CONTINUOUS
370
-3
390
F
0
LAYER
5
20E
100
AcDbSymbolTableRecord
100
AcDbLayerTableRecord
2
SNAPLINE
70
0
62
7
6
CONTINUOUS
370
-3
390
F
0
LAYER
5
20F
100
AcDbSymbolTableRecord
100
AcDbLayerTableRecord
2
SUPERFICI
70
0
62
7
6
CONTINUOUS
370
-3
390
F
0
LAYER
5
210
100
AcDbSymbolTableRecord
100
AcDbLayerTableRecord
2
TRASH
70
0
62
7
6
CONTINUOUS
370
-3
390
F
0
LAYER
5
211
100
AcDbSymbolTableRecord
100
AcDbLayerTableRecord
2
XSEC_DATUMS
70
0
62
7
6
CONTINUOUS
370
-3
390
F
0
ENDTAB
0
TABLE
2
STYLE
5
3
100
AcDbSymbolTable
70
1
0
STYLE
5
11
100
AcDbSymbolTableRecord
100
AcDbTextStyleTableRecord
2
STANDARD
70
0
40
0.0
41
0.8000000000
50
0.0
71
0
42
0.2
3
txt
4

0
ENDTAB
0
TABLE
2
VIEW
5
6
100
AcDbSymbolTable
70
0
0
ENDTAB
0
TABLE
2
UCS
5
7
100
AcDbSymbolTable
70
0
0
ENDTAB
0
TABLE
2
APPID
5
9
100
AcDbSymbolTable
70
1
0
APPID
5
212
100
AcDbSymbolTableRecord
100
AcDbRegAppTableRecord
2
ACAD
70
0
0
ENDTAB
0
TABLE
2
BLOCK_RECORD
5
1
100
AcDbSymbolTable
70
0
0
BLOCK_RECORD
5
1F
100
AcDbSymbolTableRecord
100
AcDbBlockTableRecord
2
*MODEL_SPACE
0
BLOCK_RECORD
5
1B
100
AcDbSymbolTableRecord
100
AcDbBlockTableRecord
2
*PAPER_SPACE
0
ENDTAB
0
TABLE
2
DIMSTYLE
5
A
100
AcDbSymbolTable
70
1
100
AcDbDimStyleTable
71
0
0
DIMSTYLE
105
213
100
AcDbSymbolTableRecord
100
AcDbDimStyleTableRecord
2
STANDARD
70
0
3

4

40
1.0
41
3.0000000000
42
0.0625
43
0.38
44
0.18
45
0.0
46
0.0
47
0.0100000000
48
0.0100000000
140
3.0000000000
141
0.09
142
0.0
143
25.4
144
1.0000000000
145
0.0
146
1.0000000000
147
0.09
71
1
72
0
73
0
74
0
75
0
76
0
77
1
78
8
170
0
171
2
172
0
173
0
174
0
175
0
176
0
177
0
178
0
270
2
271
2
272
2
273
2
274
2
275
0
280
0
281
0
282
0
283
1
284
8
285
0
286
0
287
3
288
0
340
11
0
ENDTAB
0
ENDSEC
0
SECTION
2
BLOCKS
0
BLOCK
5
20
100
AcDbEntity
8
0
100
AcDbBlockBegin
2
*MODEL_SPACE
70
0
10
0.0
20
0.0
30
0.0
3
*MODEL_SPACE
1

0
ENDBLK
5
21
100
AcDbEntity
8
0
100
AcDbBlockEnd
0
BLOCK
5
1C
100
AcDbEntity
8
0
100
AcDbBlockBegin
2
*PAPER_SPACE
70
0
10
0.0
20
0.0
30
0.0
3
*PAPER_SPACE
1

0
ENDBLK
5
1D
100
AcDbEntity
8
0
100
AcDbBlockEnd
0
ENDSEC
0
SECTION
2
ENTITIES
0
LINE
5
214
100
AcDbEntity
8
0
100
AcDbLine
62
7
6
CONTINUOUS
10
-59.2679424248
20
-65.0856436248
11
-59.4658590159
21
-64.9643670329
0
LINE
5
215
100
AcDbEntity
8
0
100
AcDbLine
62
7
6
CONTINUOUS
10
-57.5658590159
20
-65.0856436248
11
-57.7637756071
21
-64.9643670329
0
LINE
5
216
100
AcDbEntity
8
0
100
AcDbLine
62
7
6
CONTINUOUS
10
-58.7929424248
20
-63.2664946825
11
-58.5950256071
21
-63.3877712638
0
LINE
5
217
100
AcDbEntity
8
0
100
AcDbLine
62
7
6
CONTINUOUS
10
-55.8241921983
20
-65.0856436248
11
-56.0221090159
21
-64.9643670329
0
LINE
5
218
100
AcDbEntity
8
0
100
AcDbLine
62
7
6
CONTINUOUS
10
-56.9721090159
20
-63.9537287564
11
-56.7741921983
21
-64.0750053377
0
LINE
5
219
100
AcDbEntity
8
0
100
AcDbLine
62
7
6
CONTINUOUS
10
-59.3471090159
20
-64.8026649104
11
-59.2283590159
21
-64.8835159646
0
LINE
5
21A
100
AcDbEntity
8
0
100
AcDbLine
62
7
6
CONTINUOUS
10
-60.3762757203
20
-63.5494733722
11
-60.4950257203
21
-63.4686223180
0
LINE
5
21B
100
AcDbEntity
8
0
100
AcDbLine
62
7
6
CONTINUOUS
10
-57.6450258336
20
-64.8026649104
11
-57.5262758336
21
-64.8835159646
0
LINE
5
21C
100
AcDbEntity
8
0
100
AcDbLine
62
7
6
CONTINUOUS
10
-58.7137756071
20
-63.5494733722
11
-58.8325256071
21
-63.4686223180
0
LINE
5
21D
100
AcDbEntity
8
0
100
AcDbLine
62
7
6
CONTINUOUS
10
-56.8929421983
20
-64.2367074461
11
-57.0116921983
21
-64.1558563919
0
LINE
5
21E
100
AcDbEntity
8
0
100
AcDbLine
62
7
6
CONTINUOUS
10
-55.9033590159
20
-64.8026649104
11
-55.7846090159
21
-64.8835159646
0
LINE
5
21F
100
AcDbEntity
8
0
100
AcDbLine
62
7
6
CONTINUOUS
10
-56.9325258336
20
-63.5494733722
11
-57.0512758336
21
-63.4686223180
0
LINE
5
220
100
AcDbEntity
8
0
100
AcDbLine
62
7
6
CONTINUOUS
10
-55.9429421983
20
-64.1154308648
11
-55.8241921983
21
-64.1962819190
0
LINE
5
221
100
AcDbEntity
8
0
100
AcDbLine
62
7
6
CONTINUOUS
10
-59.4658590159
20
-64.9643670329
11
-59.5846090159
21
-64.8430904375
0
LINE
5
222
100
AcDbEntity
8
0
100
AcDbLine
62
7
6
CONTINUOUS
10
-60.2575257203
20
-63.3473457367
11
-60.0991923115
21
-63.5090478451
0
LINE
5
223
100
AcDbEntity
8
0
100
AcDbLine
62
7
6
CONTINUOUS
10
-58.5950256071
20
-63.3877712638
11
-58.4762756071
21
-63.5090478451
0
LINE
5
224
100
AcDbEntity
8
0
100
AcDbLine
62
7
6
CONTINUOUS
10
-56.8137758336
20
-64.3175585003
11
-56.8929421983
21
-64.2367074461
0
LINE
5
225
100
AcDbEntity
8
0
100
AcDbLine
62
7
6
CONTINUOUS
10
-56.7741921983
20
-64.0750053377
11
-56.6554421983
21
-64.1962819190
0
LINE
5
226
100
AcDbEntity
8
0
100
AcDbLine
62
7
6
CONTINUOUS
10
-57.7637756071
20
-64.9643670329
11
-57.8825256071
21
-64.8026649104
0
LINE
5
227
100
AcDbEntity
8
0
100
AcDbLine
62
7
6
CONTINUOUS
10
-60.2971090159
20
-63.6707499535
11
-60.3762757203
21
-63.5494733722
0
LINE
5
228
100
AcDbEntity
8
0
100
AcDbLine
62
7
6
CONTINUOUS
10
-59.5054424248
20
-64.5601117195
11
-59.3471090159
21
-64.8026649104
0
LINE
5
229
100
AcDbEntity
8
0
100
AcDbLine
62
7
6
CONTINUOUS
10
-55.9346090159
20
56.8739308446
11
-55.8086681407
21
56.9998717198
0
LINE
5
22A
100
AcDbEntity
8
0
100
AcDbLine
62
7
6
CONTINUOUS
10
-57.5262758336
20
-64.8835159646
11
-57.4075258336
21
-64.9239414916
0
LINE
5
22B
100
AcDbEntity
8
0
100
AcDbLine
62
7
6
CONTINUOUS
10
-55.7846090159
20
-64.8835159646
11
-55.6658590159
21
-64.9239414916
0
LINE
5
22C
100
AcDbEntity
8
0
100
AcDbLine
62
7
6
CONTINUOUS
10
-57.0116921983
20
-64.1558563919
11
-57.1304421983
21
-64.1154308648
0
LINE
5
22D
100
AcDbEntity
8
0
100
AcDbLine
62
7
6
CONTINUOUS
10
-55.8241921983
20
-64.1962819190
11
-55.7054421983
21
-64.2367074461
0
LINE
5
22E
100
AcDbEntity
8
0
100
AcDbLine
62
7
6
CONTINUOUS
10
-57.0512758336
20
-63.4686223180
11
-57.1700258336
21
-63.4281967909
0
LINE
5
22F
100
AcDbEntity
8
0
100
AcDbLine
62
7
6
CONTINUOUS
10
-55.3096090159
20
-63.4686223180
11
-55.4283590159
21
-63.4281967909
0
LINE
5
230
100
AcDbEntity
8
0
100
AcDbLine
62
7
6
CONTINUOUS
10
-60.4158590159
20
-63.2664946825
11
-60.2575257203
21
-63.3473457367
0
LINE
5
231
100
AcDbEntity
8
0
100
AcDbLine
62
7
6
CONTINUOUS
10
-54.2012758336
20
-64.8026649104
11
-54.0429421983
21
-64.8835159646
0
LINE
5
232
100
AcDbEntity
8
0
100
AcDbLine
62
7
6
CONTINUOUS
10
-54.2012758336
20
-64.1558563919
11
-54.2804421983
21
-64.1154308648
0
LINE
5
233
100
AcDbEntity
8
0
100
AcDbLine
62
7
6
CONTINUOUS
10
-53.4096090159
20
-64.3579840274
11
-53.5679426513
21
-64.2771329732
0
LINE
5
234
100
AcDbEntity
8
0
100
AcDbLine
62
7
6
CONTINUOUS
10
-53.4096090159
20
-64.1558563919
11
-53.3304426513
21
-64.1962819190
0
LINE
5
235
100
AcDbEntity
8
0
100
AcDbLine
62
7
6
CONTINUOUS
10
-55.8637758336
20
-64.3984095545
11
-56.0616921983
21
-64.2771329732
0
LINE
5
236
100
AcDbEntity
8
0
100
AcDbLine
62
7
6
CONTINUOUS
10
-54.1221090159
20
-65.0856436248
11
-54.3200258336
21
-64.9643670329
0
LINE
5
237
100
AcDbEntity
8
0
100
AcDbLine
62
7
6
CONTINUOUS
10
-57.0116921983
20
-63.2664946825
11
-56.8137758336
21
-63.3877712638
0
LINE
5
238
100
AcDbEntity
8
0
100
AcDbLine
62
7
6
CONTINUOUS
10
-55.2700258336
20
-63.2664946825
11
-55.0721090159
21
-63.3877712638
0
LINE
5
239
100
AcDbEntity
8
0
100
AcDbLine
62
7
6
CONTINUOUS
10
-53.5283590159
20
-63.2664946825
11
-53.3304426513
21
-63.3877712638
0
LINE
5
23A
100
AcDbEntity
8
0
100
AcDbLine
62
7
6
CONTINUOUS
10
-55.1908590159
20
-63.5494733722
11
-55.3096090159
21
-63.4686223180
0
LINE
5
23B
100
AcDbEntity
8
0
100
AcDbLine
62
7
6
CONTINUOUS
10
-54.2012758336
20
-63.9133032293
11
-54.0429421983
21
-64.0345798106
0
LINE
5
23C
100
AcDbEntity
8
0
100
AcDbLine
62
7
6
CONTINUOUS
10
-53.3304426513
20
-64.1962819190
11
-53.1721090159
21
-64.3175585003
0
LINE
5
23D
100
AcDbEntity
8
0
100
AcDbLine
62
7
6
CONTINUOUS
10
-53.4096090159
20
-63.5898988993
11
-53.5679426513
21
-63.4686223180
0
LINE
5
23E
100
AcDbEntity
8
0
100
AcDbLine
62
7
6
CONTINUOUS
10
-55.9346090159
20
-55.1260691554
11
-55.8086681407
21
-55.2520100307
0
LINE
5
23F
100
AcDbEntity
8
0
100
AcDbLine
62
7
6
CONTINUOUS
10
-54.3200258336
20
-64.9643670329
11
-54.4387758336
21
-64.8430904375
0
LINE
5
240
100
AcDbEntity
8
0
100
AcDbLine
62
7
6
CONTINUOUS
10
-54.2804421983
20
-64.1154308648
11
-54.3991921983
21
-63.9941542835
0
LINE
5
241
100
AcDbEntity
8
0
100
AcDbLine
62
7
6
CONTINUOUS
10
-53.3304426513
20
-63.3877712638
11
-53.2116926513
21
-63.5090478451
0
LINE
5
242
100
AcDbEntity
8
0
100
AcDbLine
62
7
6
CONTINUOUS
10
-56.0221090159
20
-64.9643670329
11
-56.1408590159
21
-64.8026649104
0
LINE
5
243
100
AcDbEntity
8
0
100
AcDbLine
62
7
6
CONTINUOUS
10
-56.8137758336
20
-63.3877712638
11
-56.6950258336
21
-63.5494733722
0
LINE
5
244
100
AcDbEntity
8
0
100
AcDbLine
62
7
6
CONTINUOUS
10
-56.0616921983
20
-64.2771329732
11
-56.1804421983
21
-64.1154308648
0
LINE
5
245
100
AcDbEntity
8
0
100
AcDbLine
62
7
6
CONTINUOUS
10
-54.3200258336
20
-64.6409627737
11
-54.2012758336
21
-64.8026649104
0
LINE
5
246
100
AcDbEntity
8
0
100
AcDbLine
62
7
6
CONTINUOUS
10
-55.0721090159
20
-63.3877712638
11
-54.9533590159
21
-63.5494733722
0
LINE
5
247
100
AcDbEntity
8
0
100
AcDbLine
62
7
6
CONTINUOUS
10
-53.2908590159
20
-64.5196861924
11
-53.4096090159
21
-64.3579840274
0
LINE
5
248
100
AcDbEntity
8
0
100
AcDbLine
62
7
6
CONTINUOUS
10
-58.5554424248
20
-63.7920266480
11
-58.7137756071
21
-63.5494733722
0
LINE
5
249
100
AcDbEntity
8
0
100
AcDbLine
62
7
6
CONTINUOUS
10
-57.7241924248
20
-64.6813883008
11
-57.6450258336
21
-64.8026649104
0
LINE
5
24A
100
AcDbEntity
8
0
100
AcDbLine
62
7
6
CONTINUOUS
10
-56.8533590159
20
-63.6707499535
11
-56.9325258336
21
-63.5494733722
0
LINE
5
24B
100
AcDbEntity
8
0
100
AcDbLine
62
7
6
CONTINUOUS
10
-55.9825258336
20
-64.6813883008
11
-55.9033590159
21
-64.8026649104
0
LINE
5
24C
100
AcDbEntity
8
0
100
AcDbLine
62
7
6
CONTINUOUS
10
-56.0221090159
20
-63.9941542835
11
-55.9429421983
21
-64.1154308648
0
LINE
5
24D
100
AcDbEntity
8
0
100
AcDbLine
62
7
6
CONTINUOUS
10
-55.1116921983
20
-63.6707499535
11
-55.1908590159
21
-63.5494733722
0
LINE
5
24E
100
AcDbEntity
8
0
100
AcDbLine
62
7
6
CONTINUOUS
10
-54.2804421983
20
-63.7920266480
11
-54.2012758336
21
-63.9133032293
0
LINE
5
24F
100
AcDbEntity
8
0
100
AcDbLine
62
7
6
CONTINUOUS
10
-53.3304426513
20
-63.7111755938
11
-53.4096090159
21
-63.5898988993
0
LINE
5
250
100
AcDbEntity
8
0
100
AcDbLine
62
7
6
CONTINUOUS
10
-59.5846090159
20
-64.8430904375
11
-59.6637757203
21
-64.6813883008
0
LINE
5
251
100
AcDbEntity
8
0
100
AcDbLine
62
7
6
CONTINUOUS
10
-58.4762756071
20
-63.5090478451
11
-58.3971090159
21
-63.6707499535
0
LINE
5
252
100
AcDbEntity
8
0
100
AcDbLine
62
7
6
CONTINUOUS
10
-59.4346090159
20
48.8739308446
11
-59.5401323308
21
48.7684075297
0
LINE
5
253
100
AcDbEntity
8
0
100
AcDbLine
62
7
6
CONTINUOUS
10
58.5578171621
20
-70.0537146371
11
57.5631613573
21
-70.1308145077
0
LINE
5
254
100
AcDbEntity
8
0
100
AcDbLine
62
7
6
CONTINUOUS
10
61.2217043985
20
-69.8701615700
11
58.5578171621
21
-70.0537146371
0
LINE
5
255
100
AcDbEntity
8
0
100
AcDbLine
62
7
6
CONTINUOUS
10
57.5631613573
20
-70.1308145077
11
55.8929557580
21
-70.2457501234
0
LINE
5
256
100
AcDbEntity
8
0
100
AcDbLine
62
7
6
CONTINUOUS
10
55.8929557580
20
-70.2457501234
11
46.8912187738
21
-70.6581303812
0
LINE
5
257
100
AcDbEntity
8
0
100
AcDbLine
62
7
6
CONTINUOUS
10
32.3107879844
20
-70.4819689279
11
30.3199939837
21
-70.4819689279
0
LINE
5
258
100
AcDbEntity
8
0
100
AcDbLine
62
7
6
CONTINUOUS
10
-30.6892120156
20
-70.4819689279
11
-32.6800060163
21
-70.4819689279
0
LINE
5
259
100
AcDbEntity
8
0
100
AcDbLine
62
7
6
CONTINUOUS
10
32.2653909841
20
-70.2760691554
11
30.3653909841
21
-70.2760691554
0
LINE
5
25A
100
AcDbEntity
8
0
100
AcDbLine
62
7
6
CONTINUOUS
10
-30.7346090159
20
-70.2760691554
11
-32.6346090159
21
-70.2760691554
0
LINE
5
25B
100
AcDbEntity
8
0
100
AcDbLine
62
7
6
CONTINUOUS
10
-47.2604367937
20
-70.6581318662
11
-56.2616130055
21
-70.2457754971
0
LINE
5
25C
100
AcDbEntity
8
0
100
AcDbLine
62
7
6
CONTINUOUS
10
-56.2616130055
20
-70.2457754971
11
-57.6741543888
21
-70.1507181513
0
LINE
5
25D
100
AcDbEntity
8
0
100
AcDbLine
62
7
6
CONTINUOUS
10
-58.9835652978
20
-70.0494079458
11
-61.5909224296
21
-69.8701615695
0
LINE
5
25E
100
AcDbEntity
8
0
100
AcDbLine
62
7
6
CONTINUOUS
10
-57.6741543888
20
-70.1507181513
11
-58.9835652978
21
-70.0494079458
0
LINE
5
25F
100
AcDbEntity
8
0
100
AcDbLine
62
7
6
CONTINUOUS
10
-59.0304424248
20
-65.1260691554
11
-59.2679424248
21
-65.0856436248
0
LINE
5
260
100
AcDbEntity
8
0
100
AcDbLine
62
7
6
CONTINUOUS
10
-60.6533590159
20
-63.2260691554
11
-60.4158590159
21
-63.2664946825
0
LINE
5
261
100
AcDbEntity
8
0
100
AcDbLine
62
7
6
CONTINUOUS
10
-59.0304424248
20
-63.2260691554
11
-58.7929424248
21
-63.2664946825
0
LINE
5
262
100
AcDbEntity
8
0
100
AcDbLine
62
7
6
CONTINUOUS
10
-59.2283590159
20
-64.8835159646
11
-59.0304424248
21
-64.9239414916
0
LINE
5
263
100
AcDbEntity
8
0
100
AcDbLine
62
7
6
CONTINUOUS
10
-57.3679421983
20
-65.1260691554
11
-57.5658590159
21
-65.0856436248
0
LINE
5
264
100
AcDbEntity
8
0
100
AcDbLine
62
7
6
CONTINUOUS
10
-55.6262758336
20
-65.1260691554
11
-55.8241921983
21
-65.0856436248
0
LINE
5
265
100
AcDbEntity
8
0
100
AcDbLine
62
7
6
CONTINUOUS
10
-53.9241921983
20
-65.1260691554
11
-54.1221090159
21
-65.0856436248
0
LINE
5
266
100
AcDbEntity
8
0
100
AcDbLine
62
7
6
CONTINUOUS
10
-60.4950257203
20
-63.4686223180
11
-60.6929423681
21
-63.4281967909
0
LINE
5
267
100
AcDbEntity
8
0
100
AcDbLine
62
7
6
CONTINUOUS
10
-55.6658590159
20
-64.4388351382
11
-55.8637758336
21
-64.3984095545
0
LINE
5
268
100
AcDbEntity
8
0
100
AcDbLine
62
7
6
CONTINUOUS
10
-57.1700258336
20
-63.9133032293
11
-56.9721090159
21
-63.9537287564
0
LINE
5
269
100
AcDbEntity
8
0
100
AcDbLine
62
7
6
CONTINUOUS
10
-58.8325256071
20
-63.4686223180
11
-59.0304424248
21
-63.4281967909
0
LINE
5
26A
100
AcDbEntity
8
0
100
AcDbLine
62
7
6
CONTINUOUS
10
-57.2096090159
20
-63.2260691554
11
-57.0116921983
21
-63.2664946825
0
LINE
5
26B
100
AcDbEntity
8
0
100
AcDbLine
62
7
6
CONTINUOUS
10
-55.4679421983
20
-63.2260691554
11
-55.2700258336
21
-63.2664946825
0
LINE
5
26C
100
AcDbEntity
8
0
100
AcDbLine
62
7
6
CONTINUOUS
10
-53.7262753806
20
-63.2260691554
11
-53.5283590159
21
-63.2664946825
0
LINE
5
26D
100
AcDbEntity
8
0
100
AcDbLine
62
7
6
CONTINUOUS
10
-54.0429421983
20
-64.8835159646
11
-53.8846090159
21
-64.9239414916
0
LINE
5
26E
100
AcDbEntity
8
0
100
AcDbLine
62
7
6
CONTINUOUS
10
-53.5679426513
20
-64.2771329732
11
-53.7262753806
21
-64.2367074461
0
LINE
5
26F
100
AcDbEntity
8
0
100
AcDbLine
62
7
6
CONTINUOUS
10
-54.0429421983
20
-64.0345798106
11
-53.8846090159
21
-64.0750053377
0
LINE
5
270
100
AcDbEntity
8
0
100
AcDbLine
62
7
6
CONTINUOUS
10
-53.5679426513
20
-63.4686223180
11
-53.7262753806
21
-63.4281967909
0
LINE
5
271
100
AcDbEntity
8
0
100
AcDbLine
62
7
6
CONTINUOUS
10
-59.4346090159
20
-47.1260691554
11
-59.5401323308
21
-47.0205458406
0
LINE
5
272
100
AcDbEntity
8
0
100
AcDbLine
62
7
6
CONTINUOUS
10
-40.6779510159
20
-67.3014021554
11
-41.4512460159
21
-66.0765681554
0
LINE
5
273
100
AcDbEntity
8
0
100
AcDbLine
62
7
6
CONTINUOUS
10
-54.3991921983
20
-63.9941542835
11
-54.4783590159
21
-63.8324521751
0
LINE
5
274
100
AcDbEntity
8
0
100
AcDbLine
62
7
6
CONTINUOUS
10
-57.8825256071
20
-64.8026649104
11
-57.9616924248
21
-64.6005372466
0
LINE
5
275
100
AcDbEntity
8
0
100
AcDbLine
62
7
6
CONTINUOUS
10
-56.6554421983
20
-64.1962819190
11
-56.5762758336
21
-64.3984095545
0
LINE
5
276
100
AcDbEntity
8
0
100
AcDbLine
62
7
6
CONTINUOUS
10
-56.1804421983
20
-64.1154308648
11
-56.2596090159
21
-63.9133032293
0
LINE
5
277
100
AcDbEntity
8
0
100
AcDbLine
62
7
6
CONTINUOUS
10
-54.9533590159
20
-63.5494733722
11
-54.8741921983
21
-63.7516011209
0
LINE
5
278
100
AcDbEntity
8
0
100
AcDbLine
62
7
6
CONTINUOUS
10
-54.4387758336
20
-64.8430904375
11
-54.5179421983
21
-64.6409627737
0
LINE
5
279
100
AcDbEntity
8
0
100
AcDbLine
62
7
6
CONTINUOUS
10
-53.1721090159
20
-64.3175585003
11
-53.0929426513
21
-64.5196861924
0
LINE
5
27A
100
AcDbEntity
8
0
100
AcDbLine
62
7
6
CONTINUOUS
10
-53.2116926513
20
-63.5090478451
11
-53.1325253806
21
-63.7111755938
0
LINE
5
27B
100
AcDbEntity
8
0
100
AcDbLine
62
7
6
CONTINUOUS
10
-59.6637757203
20
-64.6813883008
11
-59.7033590159
21
-64.5601117195
0
LINE
5
27C
100
AcDbEntity
8
0
100
AcDbLine
62
7
6
CONTINUOUS
10
-58.3971090159
20
-63.6707499535
11
-58.3575256071
21
-63.7920266480
0
LINE
5
27D
100
AcDbEntity
8
0
100
AcDbLine
62
7
6
CONTINUOUS
10
-57.7637756071
20
-64.5601117195
11
-57.7241924248
21
-64.6813883008
0
LINE
5
27E
100
AcDbEntity
8
0
100
AcDbLine
62
7
6
CONTINUOUS
10
-56.7741921983
20
-64.4388351382
11
-56.8137758336
21
-64.3175585003
0
LINE
5
27F
100
AcDbEntity
8
0
100
AcDbLine
62
7
6
CONTINUOUS
10
-56.6950258336
20
-63.5494733722
11
-56.6554421983
21
-63.6707499535
0
LINE
5
280
100
AcDbEntity
8
0
100
AcDbLine
62
7
6
CONTINUOUS
10
-56.1408590159
20
-64.8026649104
11
-56.1804421983
21
-64.6813883008
0
LINE
5
281
100
AcDbEntity
8
0
100
AcDbLine
62
7
6
CONTINUOUS
10
-56.0616921983
20
-63.8728777022
11
-56.0221090159
21
-63.9941542835
0
LINE
5
282
100
AcDbEntity
8
0
100
AcDbLine
62
7
6
CONTINUOUS
10
-55.0721090159
20
-63.7920266480
11
-55.1116921983
21
-63.6707499535
0
LINE
5
283
100
AcDbEntity
8
0
100
AcDbLine
62
7
6
CONTINUOUS
10
-60.0991923115
20
-63.5090478451
11
-60.0596090159
21
-63.6707499535
0
LINE
5
284
100
AcDbEntity
8
0
100
AcDbLine
62
7
6
CONTINUOUS
10
-59.7033590159
20
-64.5601117195
11
-59.7429423115
21
-64.3579840274
0
LINE
5
285
100
AcDbEntity
8
0
100
AcDbLine
62
7
6
CONTINUOUS
10
-67.0913729608
20
-64.2436097893
11
-67.3574090480
21
-59.0897244281
0
LINE
5
286
100
AcDbEntity
8
0
100
AcDbLine
62
7
6
CONTINUOUS
10
-67.3574515688
20
60.8375862015
11
-67.0913729588
21
65.9914714757
0
LINE
5
287
100
AcDbEntity
8
0
100
AcDbLine
62
7
6
CONTINUOUS
10
-58.6800060163
20
49.8180310721
11
-58.6346090159
21
50.0239308446
0
LINE
5
288
100
AcDbEntity
8
0
100
AcDbLine
62
7
6
CONTINUOUS
10
-56.6892120156
20
55.9298306170
11
-56.7346090159
21
55.7239308446
0
LINE
5
289
100
AcDbEntity
8
0
100
AcDbLine
62
7
6
CONTINUOUS
10
-51.6502490159
20
65.4197808446
11
-50.7659390159
21
68.1741208446
0
LINE
5
28A
100
AcDbEntity
8
0
100
AcDbLine
62
7
6
CONTINUOUS
10
-49.9658990159
20
68.1741208446
11
-51.2502290159
21
64.1739408446
0
LINE
5
28B
100
AcDbEntity
8
0
100
AcDbLine
62
7
6
CONTINUOUS
10
-33.4346090159
20
65.1739308446
11
-33.5666847664
21
65.0418550940
0
LINE
5
28C
100
AcDbEntity
8
0
100
AcDbLine
62
7
6
CONTINUOUS
10
48.8153909841
20
-69.1260691554
11
36.8153909841
21
-69.1260691554
0
LINE
5
28D
100
AcDbEntity
8
0
100
AcDbLine
62
7
6
CONTINUOUS
10
-37.1846090159
20
-69.1260691554
11
-49.1846090159
21
-69.1260691554
0
LINE
5
28E
100
AcDbEntity
8
0
100
AcDbLine
62
7
6
CONTINUOUS
10
46.9464689841
20
-68.1260691554
11
46.6494489841
21
-68.1260691554
0
LINE
5
28F
100
AcDbEntity
8
0
100
AcDbLine
62
7
6
CONTINUOUS
10
45.4018063019
20
-68.1260691554
11
44.5711229841
21
-68.1260691554
0
LINE
5
290
100
AcDbEntity
8
0
100
AcDbLine
62
7
6
CONTINUOUS
10
44.1229239841
20
-68.1260691554
11
43.8116599841
21
-68.1260691554
0
LINE
5
291
100
AcDbEntity
8
0
100
AcDbLine
62
7
6
CONTINUOUS
10
42.7639179841
20
-68.1260691554
11
42.4955489841
21
-68.1260691554
0
LINE
5
292
100
AcDbEntity
8
0
100
AcDbLine
62
7
6
CONTINUOUS
10
42.1329749841
20
-68.1260691554
11
40.6197139841
21
-68.1260691554
0
LINE
5
293
100
AcDbEntity
8
0
100
AcDbLine
62
7
6
CONTINUOUS
10
38.9923389841
20
-68.1260691554
11
38.7153909841
21
-68.1260691554
0
LINE
5
294
100
AcDbEntity
8
0
100
AcDbLine
62
7
6
CONTINUOUS
10
-40.4010800159
20
-68.1260691554
11
-40.6779510159
21
-68.1260691554
0
LINE
5
295
100
AcDbEntity
8
0
100
AcDbLine
62
7
6
CONTINUOUS
10
-41.1462540159
20
-68.1260691554
11
-42.4619370159
21
-68.1260691554
0
LINE
5
296
100
AcDbEntity
8
0
100
AcDbLine
62
7
6
CONTINUOUS
10
-42.7160970159
20
-68.1260691554
11
-43.0183850159
21
-68.1260691554
0
LINE
5
297
100
AcDbEntity
8
0
100
AcDbLine
62
7
6
CONTINUOUS
10
-44.2572780159
20
-68.1260691554
11
-44.5422620159
21
-68.1260691554
0
LINE
5
298
100
AcDbEntity
8
0
100
AcDbLine
62
7
6
CONTINUOUS
10
-44.9737930159
20
-68.1260691554
11
-45.2506650159
21
-68.1260691554
0
LINE
5
299
100
AcDbEntity
8
0
100
AcDbLine
62
7
6
CONTINUOUS
10
-46.2413470159
20
-68.1260691554
11
-46.5182190159
21
-68.1260691554
0
LINE
5
29A
100
AcDbEntity
8
0
100
AcDbLine
62
7
6
CONTINUOUS
10
44.8480719841
20
-67.8891011554
11
45.3647395826
21
-67.8891011554
0
LINE
5
29B
100
AcDbEntity
8
0
100
AcDbLine
62
7
6
CONTINUOUS
10
-42.1850650159
20
-67.8805611554
11
-41.1462540159
21
-67.8805611554
0
LINE
5
29C
100
AcDbEntity
8
0
100
AcDbLine
62
7
6
CONTINUOUS
10
40.8966619841
20
-67.8805221554
11
42.1329749841
21
-67.8805221554
0
LINE
5
29D
100
AcDbEntity
8
0
100
AcDbLine
62
7
6
CONTINUOUS
10
46.6494489841
20
-67.8233841554
11
46.9464689841
21
-67.8233841554
0
LINE
5
29E
100
AcDbEntity
8
0
100
AcDbLine
62
7
6
CONTINUOUS
10
-43.2211720159
20
-67.5296051554
11
-44.0431350159
21
-67.5296051554
0
LINE
5
29F
100
AcDbEntity
8
0
100
AcDbLine
62
7
6
CONTINUOUS
10
-43.9576940159
20
-67.2840971554
11
-43.3206730159
21
-67.2840971554
0
LINE
5
2A0
100
AcDbEntity
8
0
100
AcDbLine
62
7
6
CONTINUOUS
10
39.6375267914
20
-67.2609091554
11
38.9923389841
21
-67.2609091554
0
LINE
5
2A1
100
AcDbEntity
8
0
100
AcDbLine
62
7
6
CONTINUOUS
10
42.0186989841
20
-67.1951931554
11
40.8966619841
21
-67.1951931554
0
LINE
5
2A2
100
AcDbEntity
8
0
100
AcDbLine
62
7
6
CONTINUOUS
10
38.9923389841
20
-67.0239411554
11
39.5548145924
21
-67.0239411554
0
LINE
5
2A3
100
AcDbEntity
8
0
100
AcDbLine
62
7
6
CONTINUOUS
10
40.8966619841
20
-66.9498081554
11
42.0186989841
21
-66.9498081554
0
LINE
5
2A4
100
AcDbEntity
8
0
100
AcDbLine
62
7
6
CONTINUOUS
10
-44.2799910159
20
-66.3226161554
11
-44.9737930159
21
-66.3226161554
0
LINE
5
2A5
100
AcDbEntity
8
0
100
AcDbLine
62
7
6
CONTINUOUS
10
-45.2506650159
20
-66.3226161554
11
-45.9439260159
21
-66.3226161554
0
LINE
5
2A6
100
AcDbEntity
8
0
100
AcDbLine
62
7
6
CONTINUOUS
10
42.1129039841
20
-66.3216161554
11
40.8966619841
21
-66.3216161554
0
LINE
5
2A7
100
AcDbEntity
8
0
100
AcDbLine
62
7
6
CONTINUOUS
10
45.3647395826
20
-66.3130371554
11
44.8480719841
21
-66.3130371554
0
LINE
5
2A8
100
AcDbEntity
8
0
100
AcDbLine
62
7
6
CONTINUOUS
10
39.5548145924
20
-66.3130371554
11
38.9923389841
21
-66.3130371554
0
LINE
5
2A9
100
AcDbEntity
8
0
100
AcDbLine
62
7
6
CONTINUOUS
10
-46.5182190159
20
-66.0765681554
11
-46.2413470159
21
-66.0765681554
0
LINE
5
2AA
100
AcDbEntity
8
0
100
AcDbLine
62
7
6
CONTINUOUS
10
-45.9439260159
20
-66.0765681554
11
-44.2799910159
21
-66.0765681554
0
LINE
5
2AB
100
AcDbEntity
8
0
100
AcDbLine
62
7
6
CONTINUOUS
10
-43.7716710159
20
-66.0765681554
11
-43.4580270159
21
-66.0765681554
0
LINE
5
2AC
100
AcDbEntity
8
0
100
AcDbLine
62
7
6
CONTINUOUS
10
-42.4619370159
20
-66.0765681554
11
-42.1850650159
21
-66.0765681554
0
LINE
5
2AD
100
AcDbEntity
8
0
100
AcDbLine
62
7
6
CONTINUOUS
10
-41.4512460159
20
-66.0765681554
11
-41.1289500159
21
-66.0765681554
0
LINE
5
2AE
100
AcDbEntity
8
0
100
AcDbLine
62
7
6
CONTINUOUS
10
-39.9527850159
20
-66.0765681554
11
-39.6277850159
21
-66.0765681554
0
LINE
5
2AF
100
AcDbEntity
8
0
100
AcDbLine
62
7
6
CONTINUOUS
10
38.7153909841
20
-66.0760691554
11
39.6375267914
21
-66.0760691554
0
LINE
5
2B0
100
AcDbEntity
8
0
100
AcDbLine
62
7
6
CONTINUOUS
10
40.6197139841
20
-66.0760691554
11
42.1129039841
21
-66.0760691554
0
LINE
5
2B1
100
AcDbEntity
8
0
100
AcDbLine
62
7
6
CONTINUOUS
10
42.4955489841
20
-66.0760691554
11
42.8238079841
21
-66.0760691554
0
LINE
5
2B2
100
AcDbEntity
8
0
100
AcDbLine
62
7
6
CONTINUOUS
10
43.8545539841
20
-66.0760691554
11
44.1229239841
21
-66.0760691554
0
LINE
5
2B3
100
AcDbEntity
8
0
100
AcDbLine
62
7
6
CONTINUOUS
10
44.5711229841
20
-66.0760691554
11
45.4018063019
21
-66.0760691554
0
LINE
5
2B4
100
AcDbEntity
8
0
100
AcDbLine
62
7
6
CONTINUOUS
10
-53.6866926513
20
-65.1260691554
11
-53.9241921983
21
-65.1260691554
0
LINE
5
2B5
100
AcDbEntity
8
0
100
AcDbLine
62
7
6
CONTINUOUS
10
-55.4679421983
20
-65.1260691554
11
-55.6262758336
21
-65.1260691554
0
LINE
5
2B6
100
AcDbEntity
8
0
100
AcDbLine
62
7
6
CONTINUOUS
10
-57.1700258336
20
-65.1260691554
11
-57.3679421983
21
-65.1260691554
0
LINE
5
2B7
100
AcDbEntity
8
0
100
AcDbLine
62
7
6
CONTINUOUS
10
-60.0596090159
20
-65.1260691554
11
-61.4846090159
21
-65.1260691554
0
LINE
5
2B8
100
AcDbEntity
8
0
100
AcDbLine
62
7
6
CONTINUOUS
10
45.7574199841
20
-65.0461321554
11
45.4604009841
21
-65.0461321554
0
LINE
5
2B9
100
AcDbEntity
8
0
100
AcDbLine
62
7
6
CONTINUOUS
10
44.4782139841
20
-65.0461321554
11
44.2014269841
21
-65.0461321554
0
LINE
5
2BA
100
AcDbEntity
8
0
100
AcDbLine
62
7
6
CONTINUOUS
10
43.4304719841
20
-65.0461321554
11
43.1277869841
21
-65.0461321554
0
LINE
5
2BB
100
AcDbEntity
8
0
100
AcDbLine
62
7
6
CONTINUOUS
10
41.8887229841
20
-65.0461321554
11
41.6031959841
21
-65.0461321554
0
LINE
5
2BC
100
AcDbEntity
8
0
100
AcDbLine
62
7
6
CONTINUOUS
10
40.1813879841
20
-65.0461321554
11
39.9044399841
21
-65.0461321554
0
LINE
5
2BD
100
AcDbEntity
8
0
100
AcDbLine
62
7
6
CONTINUOUS
10
-61.1679423398
20
-64.9239414916
11
-60.0596090159
21
-64.9239414916
0
LINE
5
2BE
100
AcDbEntity
8
0
100
AcDbLine
62
7
6
CONTINUOUS
10
-57.4075258336
20
-64.9239414916
11
-57.1304421983
21
-64.9239414916
0
LINE
5
2BF
100
AcDbEntity
8
0
100
AcDbLine
62
7
6
CONTINUOUS
10
-55.6658590159
20
-64.9239414916
11
-55.4283590159
21
-64.9239414916
0
LINE
5
2C0
100
AcDbEntity
8
0
100
AcDbLine
62
7
6
CONTINUOUS
10
-53.8846090159
20
-64.9239414916
11
-53.7262753806
21
-64.9239414916
0
LINE
5
2C1
100
AcDbEntity
8
0
100
AcDbLine
62
7
6
CONTINUOUS
10
-37.4885160159
20
-64.7462851554
11
-37.7999970159
21
-64.7462851554
0
LINE
5
2C2
100
AcDbEntity
8
0
100
AcDbLine
62
7
6
CONTINUOUS
10
-38.8474600159
20
-64.7462851554
11
-39.1156800159
21
-64.7462851554
0
LINE
5
2C3
100
AcDbEntity
8
0
100
AcDbLine
62
7
6
CONTINUOUS
10
-39.5893900159
20
-64.7462851554
11
-39.8662620159
21
-64.7462851554
0
LINE
5
2C4
100
AcDbEntity
8
0
100
AcDbLine
62
7
6
CONTINUOUS
10
-40.9937590159
20
-64.7462851554
11
-42.5062800159
21
-64.7462851554
0
LINE
5
2C5
100
AcDbEntity
8
0
100
AcDbLine
62
7
6
CONTINUOUS
10
-43.7505810159
20
-64.7462851554
11
-44.5811970159
21
-64.7462851554
0
LINE
5
2C6
100
AcDbEntity
8
0
100
AcDbLine
62
7
6
CONTINUOUS
10
-44.8494170159
20
-64.7462851554
11
-45.1517050159
21
-64.7462851554
0
LINE
5
2C7
100
AcDbEntity
8
0
100
AcDbLine
62
7
6
CONTINUOUS
10
-46.3905980159
20
-64.7462851554
11
-46.6761230159
21
-64.7462851554
0
LINE
5
2C8
100
AcDbEntity
8
0
100
AcDbLine
62
7
6
CONTINUOUS
10
-46.9216300159
20
-64.7462851554
11
-47.1893090159
21
-64.7462851554
0
LINE
5
2C9
100
AcDbEntity
8
0
100
AcDbLine
62
7
6
CONTINUOUS
10
-47.7657650159
20
-64.7462851554
11
-48.0399330159
21
-64.7462851554
0
LINE
5
2CA
100
AcDbEntity
8
0
100
AcDbLine
62
7
6
CONTINUOUS
10
-48.6169300159
20
-64.7462851554
11
-48.8846090159
21
-64.7462851554
0
LINE
5
2CB
100
AcDbEntity
8
0
100
AcDbLine
62
7
6
CONTINUOUS
10
45.4604009841
20
-64.7434481554
11
45.7574199841
21
-64.7434481554
0
LINE
5
2CC
100
AcDbEntity
8
0
100
AcDbLine
62
7
6
CONTINUOUS
10
-56.1804421983
20
-64.6813883008
11
-55.9825258336
21
-64.6813883008
0
LINE
5
2CD
100
AcDbEntity
8
0
100
AcDbLine
62
7
6
CONTINUOUS
10
-32.6346090159
20
-64.5760691554
11
-30.7346090159
21
-64.5760691554
0
LINE
5
2CE
100
AcDbEntity
8
0
100
AcDbLine
62
7
6
CONTINUOUS
10
30.3653909841
20
-64.5760691554
11
32.2653909841
21
-64.5760691554
0
LINE
5
2CF
100
AcDbEntity
8
0
100
AcDbLine
62
7
6
CONTINUOUS
10
-44.3037840159
20
-64.5094291554
11
-43.7878940159
21
-64.5094291554
0
LINE
5
2D0
100
AcDbEntity
8
0
100
AcDbLine
62
7
6
CONTINUOUS
10
-42.2294080159
20
-64.5007771554
11
-40.9937590159
21
-64.5007771554
0
LINE
5
2D1
100
AcDbEntity
8
0
100
AcDbLine
62
7
6
CONTINUOUS
10
42.9251339841
20
-64.4495041554
11
42.1028679841
21
-64.4495041554
0
LINE
5
2D2
100
AcDbEntity
8
0
100
AcDbLine
62
7
6
CONTINUOUS
10
-55.4679421983
20
-64.4388351382
11
-55.6658590159
21
-64.4388351382
0
LINE
5
2D3
100
AcDbEntity
8
0
100
AcDbLine
62
7
6
CONTINUOUS
10
-32.6800060163
20
-64.3701693830
11
-30.6892120156
21
-64.3701693830
0
LINE
5
2D4
100
AcDbEntity
8
0
100
AcDbLine
62
7
6
CONTINUOUS
10
30.3199939837
20
-64.3701693830
11
32.3107879844
21
-64.3701693830
0
LINE
5
2D5
100
AcDbEntity
8
0
100
AcDbLine
62
7
6
CONTINUOUS
10
-55.7054421983
20
-64.2367074461
11
-55.4283590159
21
-64.2367074461
0
LINE
5
2D6
100
AcDbEntity
8
0
100
AcDbLine
62
7
6
CONTINUOUS
10
-53.7262753806
20
-64.2367074461
11
-53.8846090159
21
-64.2367074461
0
LINE
5
2D7
100
AcDbEntity
8
0
100
AcDbLine
62
7
6
CONTINUOUS
10
42.1884939841
20
-64.2039571554
11
42.8252649841
21
-64.2039571554
0
LINE
5
2D8
100
AcDbEntity
8
0
100
AcDbLine
62
7
6
CONTINUOUS
10
40.8267372138
20
-64.1809721554
11
40.1813879841
21
-64.1809721554
0
LINE
5
2D9
100
AcDbEntity
8
0
100
AcDbLine
62
7
6
CONTINUOUS
10
-45.3544920159
20
-64.1498201554
11
-46.1764550159
21
-64.1498201554
0
LINE
5
2DA
100
AcDbEntity
8
0
100
AcDbLine
62
7
6
CONTINUOUS
10
-57.1304421983
20
-64.1154308648
11
-57.4075258336
21
-64.1154308648
0
LINE
5
2DB
100
AcDbEntity
8
0
100
AcDbLine
62
7
6
CONTINUOUS
10
-53.8846090159
20
-64.0750053377
11
-53.7262753806
21
-64.0750053377
0
LINE
5
2DC
100
AcDbEntity
8
0
100
AcDbLine
62
7
6
CONTINUOUS
10
40.1813879841
20
-63.9440041554
11
40.7438631515
21
-63.9440041554
0
LINE
5
2DD
100
AcDbEntity
8
0
100
AcDbLine
62
7
6
CONTINUOUS
10
-57.3679421983
20
-63.9133032293
11
-57.1700258336
21
-63.9133032293
0
LINE
5
2DE
100
AcDbEntity
8
0
100
AcDbLine
62
7
6
CONTINUOUS
10
-46.0904740159
20
-63.9043131554
11
-45.4545330159
21
-63.9043131554
0
LINE
5
2DF
100
AcDbEntity
8
0
100
AcDbLine
62
7
6
CONTINUOUS
10
-41.1078600159
20
-63.8161681554
11
-42.2294080159
21
-63.8161681554
0
LINE
5
2E0
100
AcDbEntity
8
0
100
AcDbLine
62
7
6
CONTINUOUS
10
-56.6554421983
20
-63.6707499535
11
-56.8533590159
21
-63.6707499535
0
LINE
5
2E1
100
AcDbEntity
8
0
100
AcDbLine
62
7
6
CONTINUOUS
10
-61.2471090159
20
-63.6707499535
11
-61.4450256814
21
-63.6707499535
0
LINE
5
2E2
100
AcDbEntity
8
0
100
AcDbLine
62
7
6
CONTINUOUS
10
-42.2294080159
20
-63.5706601554
11
-41.1078600159
21
-63.5706601554
0
LINE
5
2E3
100
AcDbEntity
8
0
100
AcDbLine
62
7
6
CONTINUOUS
10
-53.7262753806
20
-63.4281967909
11
-53.8846090159
21
-63.4281967909
0
LINE
5
2E4
100
AcDbEntity
8
0
100
AcDbLine
62
7
6
CONTINUOUS
10
-55.4283590159
20
-63.4281967909
11
-55.7054421983
21
-63.4281967909
0
LINE
5
2E5
100
AcDbEntity
8
0
100
AcDbLine
62
7
6
CONTINUOUS
10
-57.1700258336
20
-63.4281967909
11
-57.4075258336
21
-63.4281967909
0
LINE
5
2E6
100
AcDbEntity
8
0
100
AcDbLine
62
7
6
CONTINUOUS
10
-60.6929423681
20
-63.4281967909
11
-60.8512756637
21
-63.4281967909
0
LINE
5
2E7
100
AcDbEntity
8
0
100
AcDbLine
62
7
6
CONTINUOUS
10
29.5653909841
20
-63.4260691554
11
33.0653909841
21
-63.4260691554
0
LINE
5
2E8
100
AcDbEntity
8
0
100
AcDbLine
62
7
6
CONTINUOUS
10
-29.9346090159
20
-63.4260691554
11
-33.4346090159
21
-63.4260691554
0
LINE
5
2E9
100
AcDbEntity
8
0
100
AcDbLine
62
7
6
CONTINUOUS
10
45.1721219841
20
-63.2416791554
11
44.4782139841
21
-63.2416791554
0
LINE
5
2EA
100
AcDbEntity
8
0
100
AcDbLine
62
7
6
CONTINUOUS
10
44.2014269841
20
-63.2416791554
11
43.5075189841
21
-63.2416791554
0
LINE
5
2EB
100
AcDbEntity
8
0
100
AcDbLine
62
7
6
CONTINUOUS
10
40.7438631515
20
-63.2331001554
11
40.1813879841
21
-63.2331001554
0
LINE
5
2EC
100
AcDbEntity
8
0
100
AcDbLine
62
7
6
CONTINUOUS
10
-60.8116923681
20
-63.2260691554
11
-60.6533590159
21
-63.2260691554
0
LINE
5
2ED
100
AcDbEntity
8
0
100
AcDbLine
62
7
6
CONTINUOUS
10
-57.3679421983
20
-63.2260691554
11
-57.2096090159
21
-63.2260691554
0
LINE
5
2EE
100
AcDbEntity
8
0
100
AcDbLine
62
7
6
CONTINUOUS
10
-55.6658590159
20
-63.2260691554
11
-55.4679421983
21
-63.2260691554
0
LINE
5
2EF
100
AcDbEntity
8
0
100
AcDbLine
62
7
6
CONTINUOUS
10
-53.8846090159
20
-63.2260691554
11
-53.7262753806
21
-63.2260691554
0
LINE
5
2F0
100
AcDbEntity
8
0
100
AcDbLine
62
7
6
CONTINUOUS
10
39.9044399841
20
-62.9961321554
11
40.8267372138
21
-62.9961321554
0
LINE
5
2F1
100
AcDbEntity
8
0
100
AcDbLine
62
7
6
CONTINUOUS
10
42.3741509841
20
-62.9961321554
11
42.6881659841
21
-62.9961321554
0
LINE
5
2F2
100
AcDbEntity
8
0
100
AcDbLine
62
7
6
CONTINUOUS
10
43.5075189841
20
-62.9961321554
11
45.1721219841
21
-62.9961321554
0
LINE
5
2F3
100
AcDbEntity
8
0
100
AcDbLine
62
7
6
CONTINUOUS
10
-41.0132260159
20
-62.9428311554
11
-42.2294080159
21
-62.9428311554
0
LINE
5
2F4
100
AcDbEntity
8
0
100
AcDbLine
62
7
6
CONTINUOUS
10
-43.7878940159
20
-62.9341791554
11
-44.3037840159
21
-62.9341791554
0
LINE
5
2F5
100
AcDbEntity
8
0
100
AcDbLine
62
7
6
CONTINUOUS
10
-48.8846090159
20
-62.6973241554
11
-48.4882280159
21
-62.6973241554
0
LINE
5
2F6
100
AcDbEntity
8
0
100
AcDbLine
62
7
6
CONTINUOUS
10
-47.3153070159
20
-62.6973241554
11
-46.9216300159
21
-62.6973241554
0
LINE
5
2F7
100
AcDbEntity
8
0
100
AcDbLine
62
7
6
CONTINUOUS
10
-45.9049910159
20
-62.6973241554
11
-45.5913470159
21
-62.6973241554
0
LINE
5
2F8
100
AcDbEntity
8
0
100
AcDbLine
62
7
6
CONTINUOUS
10
-44.5811970159
20
-62.6973241554
11
-43.7505810159
21
-62.6973241554
0
LINE
5
2F9
100
AcDbEntity
8
0
100
AcDbLine
62
7
6
CONTINUOUS
10
-42.5062800159
20
-62.6973241554
11
-41.0132260159
21
-62.6973241554
0
LINE
5
2FA
100
AcDbEntity
8
0
100
AcDbLine
62
7
6
CONTINUOUS
10
-39.8662620159
20
-62.6973241554
11
-39.5893900159
21
-62.6973241554
0
LINE
5
2FB
100
AcDbEntity
8
0
100
AcDbLine
62
7
6
CONTINUOUS
10
-39.1156800159
20
-62.6973241554
11
-38.7874350159
21
-62.6973241554
0
LINE
5
2FC
100
AcDbEntity
8
0
100
AcDbLine
62
7
6
CONTINUOUS
10
-37.7572770159
20
-62.6973241554
11
-37.4885160159
21
-62.6973241554
0
LINE
5
2FD
100
AcDbEntity
8
0
100
AcDbLine
62
7
6
CONTINUOUS
10
-33.4346090159
20
-63.4260691554
11
-33.5666847664
21
-63.2939934049
0
LINE
5
2FE
100
AcDbEntity
8
0
100
AcDbLine
62
7
6
CONTINUOUS
10
-37.7999970159
20
-64.7462851554
11
-38.8474600159
21
-63.0815471554
0
LINE
5
2FF
100
AcDbEntity
8
0
100
AcDbLine
62
7
6
CONTINUOUS
10
-38.7874350159
20
-62.6973241554
11
-37.7572770159
21
-64.3613421554
0
LINE
5
300
100
AcDbEntity
8
0
100
AcDbLine
62
7
6
CONTINUOUS
10
-41.1289500159
20
-66.0765681554
11
-40.5411380159
21
-67.0613021554
0
LINE
5
301
100
AcDbEntity
8
0
100
AcDbLine
62
7
6
CONTINUOUS
10
-45.5913470159
20
-62.6973241554
11
-44.8494170159
21
-64.7462851554
0
LINE
5
302
100
AcDbEntity
8
0
100
AcDbLine
62
7
6
CONTINUOUS
10
-43.4580270159
20
-66.0765681554
11
-42.7160970159
21
-68.1260691554
0
LINE
5
303
100
AcDbEntity
8
0
100
AcDbLine
62
7
6
CONTINUOUS
10
-45.1517050159
20
-64.7462851554
11
-45.3544920159
21
-64.1498201554
0
LINE
5
304
100
AcDbEntity
8
0
100
AcDbLine
62
7
6
CONTINUOUS
10
-48.4882280159
20
-62.6973241554
11
-47.9001370159
21
-64.4382251554
0
LINE
5
305
100
AcDbEntity
8
0
100
AcDbLine
62
7
6
CONTINUOUS
10
-48.0399330159
20
-64.7462851554
11
-48.6169300159
21
-63.0282721554
0
LINE
5
306
100
AcDbEntity
8
0
100
AcDbLine
62
7
6
CONTINUOUS
10
-45.4545330159
20
-63.9043131554
11
-45.7596750159
21
-62.9937981554
0
LINE
5
307
100
AcDbEntity
8
0
100
AcDbLine
62
7
6
CONTINUOUS
10
-58.6800060163
20
-48.0701693830
11
-58.6346090159
21
-48.2760691554
0
LINE
5
308
100
AcDbEntity
8
0
100
AcDbLine
62
7
6
CONTINUOUS
10
-56.6892120156
20
-54.1819689279
11
-56.7346090159
21
-53.9760691554
0
LINE
5
309
100
AcDbEntity
8
0
100
AcDbLine
62
7
6
CONTINUOUS
10
-58.3575256071
20
-63.7920266480
11
-58.3179424248
21
-63.9941542835
0
LINE
5
30A
100
AcDbEntity
8
0
100
AcDbLine
62
7
6
CONTINUOUS
10
-59.5450256071
20
-64.3175585003
11
-59.5054424248
21
-64.5601117195
0
LINE
5
30B
100
AcDbEntity
8
0
100
AcDbLine
62
7
6
CONTINUOUS
10
-58.5158590159
20
-64.0345798106
11
-58.5554424248
21
-63.7920266480
0
LINE
5
30C
100
AcDbEntity
8
0
100
AcDbLine
62
7
6
CONTINUOUS
10
-57.9616924248
20
-64.6005372466
11
-58.0012756071
21
-64.3175585003
0
LINE
5
30D
100
AcDbEntity
8
0
100
AcDbLine
62
7
6
CONTINUOUS
10
-61.4846090159
20
-65.1260691554
11
-61.4846090159
21
-64.9239414916
0
LINE
5
30E
100
AcDbEntity
8
0
100
AcDbLine
62
7
6
CONTINUOUS
10
-60.2971090159
20
-63.7516011209
11
-60.2971090159
21
-63.6707499535
0
LINE
5
30F
100
AcDbEntity
8
0
100
AcDbLine
62
7
6
CONTINUOUS
10
-60.0596090159
20
-63.6707499535
11
-60.0596090159
21
-63.7516011209
0
LINE
5
310
100
AcDbEntity
8
0
100
AcDbLine
62
7
6
CONTINUOUS
10
-60.0596090159
20
-64.9239414916
11
-60.0596090159
21
-65.1260691554
0
LINE
5
311
100
AcDbEntity
8
0
100
AcDbLine
62
7
6
CONTINUOUS
10
-59.7429423115
20
-64.3579840274
11
-59.7429423115
21
-63.9941542835
0
LINE
5
312
100
AcDbEntity
8
0
100
AcDbLine
62
7
6
CONTINUOUS
10
-59.5450256071
20
-64.0345798106
11
-59.5450256071
21
-64.3175585003
0
LINE
5
313
100
AcDbEntity
8
0
100
AcDbLine
62
7
6
CONTINUOUS
10
-59.4346090159
20
56.8739308446
11
-59.4346090159
21
48.8739308446
0
LINE
5
314
100
AcDbEntity
8
0
100
AcDbLine
62
7
6
CONTINUOUS
10
-59.4346090159
20
4.8739308446
11
-59.4346090159
21
-3.1260691554
0
LINE
5
315
100
AcDbEntity
8
0
100
AcDbLine
62
7
6
CONTINUOUS
10
-59.4346090159
20
-47.1260691554
11
-59.4346090159
21
-55.1260691554
0
LINE
5
316
100
AcDbEntity
8
0
100
AcDbLine
62
7
6
CONTINUOUS
10
-58.6800060163
20
-54.1819689279
11
-58.6800060163
21
-48.0701693830
0
LINE
5
317
100
AcDbEntity
8
0
100
AcDbLine
62
7
6
CONTINUOUS
10
-58.6800060163
20
-2.1819689279
11
-58.6800060163
21
3.9298306170
0
LINE
5
318
100
AcDbEntity
8
0
100
AcDbLine
62
7
6
CONTINUOUS
10
-58.6800060163
20
49.8180310721
11
-58.6800060163
21
55.9298306170
0
LINE
5
319
100
AcDbEntity
8
0
100
AcDbLine
62
7
6
CONTINUOUS
10
-58.6346090159
20
-53.9760691554
11
-58.6346090159
21
-48.2760691554
0
LINE
5
31A
100
AcDbEntity
8
0
100
AcDbLine
62
7
6
CONTINUOUS
10
-58.6346090159
20
-1.9760691554
11
-58.6346090159
21
3.7239308446
0
LINE
5
31B
100
AcDbEntity
8
0
100
AcDbLine
62
7
6
CONTINUOUS
10
-58.6346090159
20
50.0239308446
11
-58.6346090159
21
55.7239308446
0
LINE
5
31C
100
AcDbEntity
8
0
100
AcDbLine
62
7
6
CONTINUOUS
10
-58.5158590159
20
-64.3175585003
11
-58.5158590159
21
-64.0345798106
0
LINE
5
31D
100
AcDbEntity
8
0
100
AcDbLine
62
7
6
CONTINUOUS
10
-58.3179424248
20
-63.9941542835
11
-58.3179424248
21
-64.3579840274
0
LINE
5
31E
100
AcDbEntity
8
0
100
AcDbLine
62
7
6
CONTINUOUS
10
-58.0012756071
20
-64.3175585003
11
-58.0012756071
21
-64.0345798106
0
LINE
5
31F
100
AcDbEntity
8
0
100
AcDbLine
62
7
6
CONTINUOUS
10
-57.8033590159
20
-64.0345798106
11
-57.8033590159
21
-64.1154308648
0
LINE
5
320
100
AcDbEntity
8
0
100
AcDbLine
62
7
6
CONTINUOUS
10
-57.7637756071
20
-64.4388351382
11
-57.7637756071
21
-64.5601117195
0
LINE
5
321
100
AcDbEntity
8
0
100
AcDbLine
62
7
6
CONTINUOUS
10
-56.7741921983
20
-64.5601117195
11
-56.7741921983
21
-64.4388351382
0
LINE
5
322
100
AcDbEntity
8
0
100
AcDbLine
62
7
6
CONTINUOUS
10
-56.7346090159
20
55.7239308446
11
-56.7346090159
21
50.0239308446
0
LINE
5
323
100
AcDbEntity
8
0
100
AcDbLine
62
7
6
CONTINUOUS
10
-56.7346090159
20
3.7239308446
11
-56.7346090159
21
-1.9760691554
0
LINE
5
324
100
AcDbEntity
8
0
100
AcDbLine
62
7
6
CONTINUOUS
10
-56.7346090159
20
-48.2760691554
11
-56.7346090159
21
-53.9760691554
0
LINE
5
325
100
AcDbEntity
8
0
100
AcDbLine
62
7
6
CONTINUOUS
10
-56.6892120156
20
55.9298306170
11
-56.6892120156
21
49.8180310721
0
LINE
5
326
100
AcDbEntity
8
0
100
AcDbLine
62
7
6
CONTINUOUS
10
-56.6892120156
20
3.9298306170
11
-56.6892120156
21
-2.1819689279
0
LINE
5
327
100
AcDbEntity
8
0
100
AcDbLine
62
7
6
CONTINUOUS
10
-56.6892120156
20
-48.0701693830
11
-56.6892120156
21
-54.1819689279
0
LINE
5
328
100
AcDbEntity
8
0
100
AcDbLine
62
7
6
CONTINUOUS
10
-56.5762758336
20
-64.3984095545
11
-56.5762758336
21
-64.6005372466
0
LINE
5
329
100
AcDbEntity
8
0
100
AcDbLine
62
7
6
CONTINUOUS
10
-58.6800060163
20
-2.1819689279
11
-58.6346090159
21
-1.9760691554
0
LINE
5
32A
100
AcDbEntity
8
0
100
AcDbLine
62
7
6
CONTINUOUS
10
-45.8760990159
20
65.5690608446
11
-45.1291090159
21
68.1741208446
0
LINE
5
32B
100
AcDbEntity
8
0
100
AcDbLine
62
7
6
CONTINUOUS
10
-44.7197190159
20
66.8117908446
11
-45.4760990159
21
64.1739508446
0
LINE
5
32C
100
AcDbEntity
8
0
100
AcDbLine
62
7
6
CONTINUOUS
10
-43.3863290159
20
64.1739408446
11
-42.1020190159
21
68.1741308446
0
LINE
5
32D
100
AcDbEntity
8
0
100
AcDbLine
62
7
6
CONTINUOUS
10
-42.3337290159
20
64.9606108446
11
-42.5862990159
21
64.1739508446
0
LINE
5
32E
100
AcDbEntity
8
0
100
AcDbLine
62
7
6
CONTINUOUS
10
-41.7019890159
20
66.9282808446
11
-42.0896990159
21
65.7206408446
0
LINE
5
32F
100
AcDbEntity
8
0
100
AcDbLine
62
7
6
CONTINUOUS
10
-49.1846090159
20
-61.6260691554
11
-37.1846090159
21
-61.6260691554
0
LINE
5
330
100
AcDbEntity
8
0
100
AcDbLine
62
7
6
CONTINUOUS
10
36.8153909841
20
-61.6260691554
11
48.8153909841
21
-61.6260691554
0
LINE
5
331
100
AcDbEntity
8
0
100
AcDbLine
62
9
6
CONTINUOUS
10
46.8878558391
20
-59.0875984724
11
55.8938360608
21
-59.0874876102
0
LINE
5
332
100
AcDbEntity
8
0
100
AcDbLine
62
9
6
CONTINUOUS
10
-47.2570738709
20
-59.0875984724
11
-56.2630372013
21
-59.0874876164
0
LINE
5
333
100
AcDbEntity
8
0
100
AcDbLine
62
7
6
CONTINUOUS
10
44.7446404820
20
-57.0553186534
11
-45.1138585139
21
-57.0553186534
0
LINE
5
334
100
AcDbEntity
8
0
100
AcDbLine
62
7
6
CONTINUOUS
10
-43.0183850159
20
-68.1260691554
11
-43.2211720159
21
-67.5296051554
0
LINE
5
335
100
AcDbEntity
8
0
100
AcDbLine
62
7
6
CONTINUOUS
10
-43.3206730159
20
-67.2840971554
11
-43.6263560159
21
-66.3735981554
0
LINE
5
336
100
AcDbEntity
8
0
100
AcDbLine
62
7
6
CONTINUOUS
10
-58.6800060163
20
3.9298306170
11
-58.6346090159
21
3.7239308446
0
LINE
5
337
100
AcDbEntity
8
0
100
AcDbLine
62
7
6
CONTINUOUS
10
-54.8741921983
20
-63.7516011209
11
-54.8346090159
21
-64.0345798106
0
LINE
5
338
100
AcDbEntity
8
0
100
AcDbLine
62
7
6
CONTINUOUS
10
-56.2596090159
20
-63.9133032293
11
-56.2596090159
21
-63.7516011209
0
LINE
5
339
100
AcDbEntity
8
0
100
AcDbLine
62
7
6
CONTINUOUS
10
-56.0616921983
20
-63.7920266480
11
-56.0616921983
21
-63.8728777022
0
LINE
5
33A
100
AcDbEntity
8
0
100
AcDbLine
62
7
6
CONTINUOUS
10
-55.9346090159
20
-55.1260691554
11
-55.9346090159
21
-47.1260691554
0
LINE
5
33B
100
AcDbEntity
8
0
100
AcDbLine
62
7
6
CONTINUOUS
10
-55.9346090159
20
-3.1260691554
11
-55.9346090159
21
4.8739308446
0
LINE
5
33C
100
AcDbEntity
8
0
100
AcDbLine
62
7
6
CONTINUOUS
10
-55.9346090159
20
48.8739308446
11
-55.9346090159
21
56.8739308446
0
LINE
5
33D
100
AcDbEntity
8
0
100
AcDbLine
62
7
6
CONTINUOUS
10
-55.0721090159
20
-63.8728777022
11
-55.0721090159
21
-63.7920266480
0
LINE
5
33E
100
AcDbEntity
8
0
100
AcDbLine
62
7
6
CONTINUOUS
10
-55.0325258336
20
-64.3175585003
11
-55.0325258336
21
-64.2367074461
0
LINE
5
33F
100
AcDbEntity
8
0
100
AcDbLine
62
7
6
CONTINUOUS
10
-54.8346090159
20
-64.0345798106
11
-54.8346090159
21
-64.3175585003
0
LINE
5
340
100
AcDbEntity
8
0
100
AcDbLine
62
7
6
CONTINUOUS
10
-54.5179421983
20
-64.6409627737
11
-54.5179421983
21
-64.5196861924
0
LINE
5
341
100
AcDbEntity
8
0
100
AcDbLine
62
7
6
CONTINUOUS
10
-54.4783590159
20
-63.8324521751
11
-54.4783590159
21
-63.7111755938
0
LINE
5
342
100
AcDbEntity
8
0
100
AcDbLine
62
7
6
CONTINUOUS
10
-54.3200258336
20
-64.5196861924
11
-54.3200258336
21
-64.6409627737
0
LINE
5
343
100
AcDbEntity
8
0
100
AcDbLine
62
7
6
CONTINUOUS
10
-54.2804421983
20
-63.7111755938
11
-54.2804421983
21
-63.7920266480
0
LINE
5
344
100
AcDbEntity
8
0
100
AcDbLine
62
7
6
CONTINUOUS
10
-53.3304426513
20
-63.7920266480
11
-53.3304426513
21
-63.7111755938
0
LINE
5
345
100
AcDbEntity
8
0
100
AcDbLine
62
7
6
CONTINUOUS
10
-53.2908590159
20
-64.6409627737
11
-53.2908590159
21
-64.5196861924
0
LINE
5
346
100
AcDbEntity
8
0
100
AcDbLine
62
7
6
CONTINUOUS
10
-53.1325253806
20
-63.7111755938
11
-53.1325253806
21
-63.8324521751
0
LINE
5
347
100
AcDbEntity
8
0
100
AcDbLine
62
7
6
CONTINUOUS
10
-53.0929426513
20
-64.5196861924
11
-53.0929426513
21
-64.6409627737
0
LINE
5
348
100
AcDbEntity
8
0
100
AcDbLine
62
7
6
CONTINUOUS
10
-50.1846090159
20
-68.1260691554
11
-50.1846090159
21
-62.6260691554
0
LINE
5
349
100
AcDbEntity
8
0
100
AcDbLine
62
7
6
CONTINUOUS
10
-49.4325590159
20
64.1739308446
11
-49.4325490159
21
68.1741208446
0
LINE
5
34A
100
AcDbEntity
8
0
100
AcDbLine
62
7
6
CONTINUOUS
10
-56.6892120156
20
3.9298306170
11
-56.7346090159
21
3.7239308446
0
LINE
5
34B
100
AcDbEntity
8
0
100
AcDbLine
62
7
6
CONTINUOUS
10
-53.7262753806
20
-64.9239414916
11
-53.5679426513
21
-64.8835159646
0
LINE
5
34C
100
AcDbEntity
8
0
100
AcDbLine
62
7
6
CONTINUOUS
10
-53.8846090159
20
-64.2367074461
11
-54.0429421983
21
-64.2771329732
0
LINE
5
34D
100
AcDbEntity
8
0
100
AcDbLine
62
7
6
CONTINUOUS
10
-53.7262753806
20
-64.0750053377
11
-53.5679426513
21
-64.0345798106
0
LINE
5
34E
100
AcDbEntity
8
0
100
AcDbLine
62
7
6
CONTINUOUS
10
-53.4887753806
20
-65.0856436248
11
-53.6866926513
21
-65.1260691554
0
LINE
5
34F
100
AcDbEntity
8
0
100
AcDbLine
62
7
6
CONTINUOUS
10
-55.2700258336
20
-65.0856436248
11
-55.4679421983
21
-65.1260691554
0
LINE
5
350
100
AcDbEntity
8
0
100
AcDbLine
62
7
6
CONTINUOUS
10
-56.9721090159
20
-65.0856436248
11
-57.1700258336
21
-65.1260691554
0
LINE
5
351
100
AcDbEntity
8
0
100
AcDbLine
62
7
6
CONTINUOUS
10
-55.2700258336
20
-64.3984095545
11
-55.4679421983
21
-64.4388351382
0
LINE
5
352
100
AcDbEntity
8
0
100
AcDbLine
62
7
6
CONTINUOUS
10
-59.0304424248
20
-64.9239414916
11
-58.8325256071
21
-64.8835159646
0
LINE
5
353
100
AcDbEntity
8
0
100
AcDbLine
62
7
6
CONTINUOUS
10
-54.0825258336
20
-63.2664946825
11
-53.8846090159
21
-63.2260691554
0
LINE
5
354
100
AcDbEntity
8
0
100
AcDbLine
62
7
6
CONTINUOUS
10
-57.5658590159
20
-63.9537287564
11
-57.3679421983
21
-63.9133032293
0
LINE
5
355
100
AcDbEntity
8
0
100
AcDbLine
62
7
6
CONTINUOUS
10
-55.8637758336
20
-63.2664946825
11
-55.6658590159
21
-63.2260691554
0
LINE
5
356
100
AcDbEntity
8
0
100
AcDbLine
62
7
6
CONTINUOUS
10
-57.5658590159
20
-63.2664946825
11
-57.3679421983
21
-63.2260691554
0
LINE
5
357
100
AcDbEntity
8
0
100
AcDbLine
62
7
6
CONTINUOUS
10
-59.0304424248
20
-63.4281967909
11
-59.2283590159
21
-63.4686223180
0
LINE
5
358
100
AcDbEntity
8
0
100
AcDbLine
62
7
6
CONTINUOUS
10
-60.8512756637
20
-63.4281967909
11
-61.0491923398
21
-63.4686223180
0
LINE
5
359
100
AcDbEntity
8
0
100
AcDbLine
62
7
6
CONTINUOUS
10
-58.7929424248
20
-65.0856436248
11
-59.0304424248
21
-65.1260691554
0
LINE
5
35A
100
AcDbEntity
8
0
100
AcDbLine
62
7
6
CONTINUOUS
10
-59.2679424248
20
-63.2664946825
11
-59.0304424248
21
-63.2260691554
0
LINE
5
35B
100
AcDbEntity
8
0
100
AcDbLine
62
7
6
CONTINUOUS
10
-61.0887756920
20
-63.2664946825
11
-60.8116923681
21
-63.2260691554
0
LINE
5
35C
100
AcDbEntity
8
0
100
AcDbLine
62
7
6
CONTINUOUS
10
-59.4346090159
20
-55.1260691554
11
-55.9346090159
21
-55.1260691554
0
LINE
5
35D
100
AcDbEntity
8
0
100
AcDbLine
62
7
6
CONTINUOUS
10
55.5653909841
20
-55.1260691554
11
59.0653909841
21
-55.1260691554
0
LINE
5
35E
100
AcDbEntity
8
0
100
AcDbLine
62
7
6
CONTINUOUS
10
70.2588725359
20
-54.6260691554
11
68.4581114273
21
-54.6260691554
0
LINE
5
35F
100
AcDbEntity
8
0
100
AcDbLine
62
7
6
CONTINUOUS
10
-68.8273294592
20
-54.6260691554
11
-70.6280905678
21
-54.6260691554
0
LINE
5
360
100
AcDbEntity
8
0
100
AcDbLine
62
7
6
CONTINUOUS
10
58.3107879844
20
-54.1819689279
11
56.3199939837
21
-54.1819689279
0
LINE
5
361
100
AcDbEntity
8
0
100
AcDbLine
62
7
6
CONTINUOUS
10
-56.6892120156
20
-54.1819689279
11
-58.6800060163
21
-54.1819689279
0
LINE
5
362
100
AcDbEntity
8
0
100
AcDbLine
62
7
6
CONTINUOUS
10
58.2653909841
20
-53.9760691554
11
56.3653909841
21
-53.9760691554
0
LINE
5
363
100
AcDbEntity
8
0
100
AcDbLine
62
7
6
CONTINUOUS
10
-56.7346090159
20
-53.9760691554
11
-58.6346090159
21
-53.9760691554
0
LINE
5
364
100
AcDbEntity
8
0
100
AcDbLine
62
7
6
CONTINUOUS
10
-58.6346090159
20
-48.2760691554
11
-56.7346090159
21
-48.2760691554
0
LINE
5
365
100
AcDbEntity
8
0
100
AcDbLine
62
7
6
CONTINUOUS
10
56.3653909841
20
-48.2760691554
11
58.2653909841
21
-48.2760691554
0
LINE
5
366
100
AcDbEntity
8
0
100
AcDbLine
62
7
6
CONTINUOUS
10
-56.6892120156
20
-2.1819689279
11
-56.7346090159
21
-1.9760691554
0
LINE
5
367
100
AcDbEntity
8
0
100
AcDbLine
62
7
6
CONTINUOUS
10
-48.8846090159
20
-64.7462851554
11
-48.8846090159
21
-62.6973241554
0
LINE
5
368
100
AcDbEntity
8
0
100
AcDbLine
62
7
6
CONTINUOUS
10
-48.6325190159
20
68.1741208446
11
-48.6325290159
21
64.1739408446
0
LINE
5
369
100
AcDbEntity
8
0
100
AcDbLine
62
7
6
CONTINUOUS
10
-48.6169300159
20
-63.0282721554
11
-48.6169300159
21
-64.7462851554
0
LINE
5
36A
100
AcDbEntity
8
0
100
AcDbLine
62
7
6
CONTINUOUS
10
-47.8325190159
20
64.1739408446
11
-47.8325190159
21
68.1741208446
0
LINE
5
36B
100
AcDbEntity
8
0
100
AcDbLine
62
9
6
CONTINUOUS
10
-47.6846090159
20
36.3745469091
11
-47.6846090159
21
-34.6260691585
0
LINE
5
36C
100
AcDbEntity
8
0
100
AcDbLine
62
7
6
CONTINUOUS
10
-47.1893090159
20
-64.7462851554
11
-47.1893090159
21
-63.0250281554
0
LINE
5
36D
100
AcDbEntity
8
0
100
AcDbLine
62
7
6
CONTINUOUS
10
-47.0324890159
20
66.8117908446
11
-47.0324890159
21
64.1739408446
0
LINE
5
36E
100
AcDbEntity
8
0
100
AcDbLine
62
7
6
CONTINUOUS
10
-46.9216300159
20
-62.6973241554
11
-46.9216300159
21
-64.7462851554
0
LINE
5
36F
100
AcDbEntity
8
0
100
AcDbLine
62
7
6
CONTINUOUS
10
-46.5182190159
20
-68.1260691554
11
-46.5182190159
21
-66.0765681554
0
LINE
5
370
100
AcDbEntity
8
0
100
AcDbLine
62
7
6
CONTINUOUS
10
-46.2413470159
20
-66.0765681554
11
-46.2413470159
21
-68.1260691554
0
LINE
5
371
100
AcDbEntity
8
0
100
AcDbLine
62
7
6
CONTINUOUS
10
-45.9439260159
20
-66.3226161554
11
-45.9439260159
21
-66.0765681554
0
LINE
5
372
100
AcDbEntity
8
0
100
AcDbLine
62
7
6
CONTINUOUS
10
-45.2506650159
20
-68.1260691554
11
-45.2506650159
21
-66.3226161554
0
LINE
5
373
100
AcDbEntity
8
0
100
AcDbLine
62
7
6
CONTINUOUS
10
-45.1138585139
20
-57.0553186534
11
-45.1138585139
21
58.8031803425
0
LINE
5
374
100
AcDbEntity
8
0
100
AcDbLine
62
7
6
CONTINUOUS
10
-44.9737930159
20
-66.3226161554
11
-44.9737930159
21
-68.1260691554
0
LINE
5
375
100
AcDbEntity
8
0
100
AcDbLine
62
7
6
CONTINUOUS
10
-44.7197090159
20
64.1739408446
11
-44.7197190159
21
66.8117908446
0
LINE
5
376
100
AcDbEntity
8
0
100
AcDbLine
62
7
6
CONTINUOUS
10
-44.5811970159
20
-64.7462851554
11
-44.5811970159
21
-62.6973241554
0
LINE
5
377
100
AcDbEntity
8
0
100
AcDbLine
62
7
6
CONTINUOUS
10
-44.3037840159
20
-62.9341791554
11
-44.3037840159
21
-64.5094291554
0
LINE
5
378
100
AcDbEntity
8
0
100
AcDbLine
62
7
6
CONTINUOUS
10
-44.2799910159
20
-66.0765681554
11
-44.2799910159
21
-66.3226161554
0
LINE
5
379
100
AcDbEntity
8
0
100
AcDbLine
62
7
6
CONTINUOUS
10
-43.9196790159
20
68.1741208446
11
-43.9196790159
21
64.1739408446
0
LINE
5
37A
100
AcDbEntity
8
0
100
AcDbLine
62
7
6
CONTINUOUS
10
-42.5062800159
20
-64.7462851554
11
-42.5062800159
21
-62.6973241554
0
LINE
5
37B
100
AcDbEntity
8
0
100
AcDbLine
62
7
6
CONTINUOUS
10
-42.4619370159
20
-68.1260691554
11
-42.4619370159
21
-66.0765681554
0
LINE
5
37C
100
AcDbEntity
8
0
100
AcDbLine
62
7
6
CONTINUOUS
10
-42.2294080159
20
-62.9428311554
11
-42.2294080159
21
-63.5706601554
0
LINE
5
37D
100
AcDbEntity
8
0
100
AcDbLine
62
7
6
CONTINUOUS
10
-42.2294080159
20
-63.8161681554
11
-42.2294080159
21
-64.5007771554
0
LINE
5
37E
100
AcDbEntity
8
0
100
AcDbLine
62
7
6
CONTINUOUS
10
-42.1850650159
20
-66.0765681554
11
-42.1850650159
21
-67.8805611554
0
LINE
5
37F
100
AcDbEntity
8
0
100
AcDbLine
62
7
6
CONTINUOUS
10
-43.1746739740
20
-63.8972921165
11
-43.1738200133
21
-63.5497640842
0
LINE
5
380
100
AcDbEntity
8
0
100
AcDbLine
62
7
6
CONTINUOUS
10
-42.8934600233
20
-63.5608041615
11
-42.8959400215
21
-63.8978889157
0
LINE
5
381
100
AcDbEntity
8
0
100
AcDbLine
62
7
6
CONTINUOUS
10
-58.0012756071
20
-64.0345798106
11
-57.9616924248
21
-63.7516011209
0
LINE
5
382
100
AcDbEntity
8
0
100
AcDbLine
62
7
6
CONTINUOUS
10
-54.8346090159
20
-64.3175585003
11
-54.8741921983
21
-64.6005372466
0
LINE
5
383
100
AcDbEntity
8
0
100
AcDbLine
62
7
6
CONTINUOUS
10
-59.5054424248
20
-63.7920266480
11
-59.5450256071
21
-64.0345798106
0
LINE
5
384
100
AcDbEntity
8
0
100
AcDbLine
62
7
6
CONTINUOUS
10
-58.5554424248
20
-64.5601117195
11
-58.5158590159
21
-64.3175585003
0
LINE
5
385
100
AcDbEntity
8
0
100
AcDbLine
62
7
6
CONTINUOUS
10
-57.7637756071
20
-63.7920266480
11
-57.8033590159
21
-64.0345798106
0
LINE
5
386
100
AcDbEntity
8
0
100
AcDbLine
62
7
6
CONTINUOUS
10
-55.0721090159
20
-64.5601117195
11
-55.0325258336
21
-64.3175585003
0
LINE
5
387
100
AcDbEntity
8
0
100
AcDbLine
62
7
6
CONTINUOUS
10
-59.7429423115
20
-63.9941542835
11
-59.7033590159
21
-63.7920266480
0
LINE
5
388
100
AcDbEntity
8
0
100
AcDbLine
62
7
6
CONTINUOUS
10
-58.3179424248
20
-64.3579840274
11
-58.3575256071
21
-64.5601117195
0
LINE
5
389
100
AcDbEntity
8
0
100
AcDbLine
62
7
6
CONTINUOUS
10
-32.6800060163
20
66.1180310721
11
-32.6346090159
21
66.3239308446
0
LINE
5
38A
100
AcDbEntity
8
0
100
AcDbLine
62
7
6
CONTINUOUS
10
-58.6800060163
20
-54.1819689279
11
-58.6346090159
21
-53.9760691554
0
LINE
5
38B
100
AcDbEntity
8
0
100
AcDbLine
62
7
6
CONTINUOUS
10
-30.6892120156
20
72.2298306170
11
-30.7346090159
21
72.0239308446
0
LINE
5
38C
100
AcDbEntity
8
0
100
AcDbLine
62
7
6
CONTINUOUS
10
-56.6892120156
20
-48.0701693830
11
-56.7346090159
21
-48.2760691554
0
LINE
5
38D
100
AcDbEntity
8
0
100
AcDbLine
62
7
6
CONTINUOUS
10
-61.4450256814
20
-63.6707499535
11
-61.4054423469
21
-63.5090478451
0
LINE
5
38E
100
AcDbEntity
8
0
100
AcDbLine
62
7
6
CONTINUOUS
10
-60.0596090159
20
-63.7516011209
11
-60.0991923115
21
-63.9133032293
0
LINE
5
38F
100
AcDbEntity
8
0
100
AcDbLine
62
7
6
CONTINUOUS
10
-55.9346090159
20
4.8739308446
11
-55.8063542342
21
5.0021856263
0
LINE
5
390
100
AcDbEntity
8
0
100
AcDbLine
62
7
6
CONTINUOUS
10
-53.8846090159
20
-63.4281967909
11
-54.0429421983
21
-63.4686223180
0
LINE
5
391
100
AcDbEntity
8
0
100
AcDbLine
62
7
6
CONTINUOUS
10
-58.6800060163
20
-48.0701693830
11
-56.6892120156
21
-48.0701693830
0
LINE
5
392
100
AcDbEntity
8
0
100
AcDbLine
62
7
6
CONTINUOUS
10
56.3199939837
20
-48.0701693830
11
58.3107879844
21
-48.0701693830
0
LINE
5
393
100
AcDbEntity
8
0
100
AcDbLine
62
7
6
CONTINUOUS
10
70.4495194402
20
-47.6260691554
11
68.6489383025
21
-47.6260691554
0
LINE
5
394
100
AcDbEntity
8
0
100
AcDbLine
62
7
6
CONTINUOUS
10
-69.0181563344
20
-47.6260691554
11
-70.8187374720
21
-47.6260691554
0
LINE
5
395
100
AcDbEntity
8
0
100
AcDbLine
62
7
6
CONTINUOUS
10
59.0653909841
20
-47.1260691554
11
55.5653909841
21
-47.1260691554
0
LINE
5
396
100
AcDbEntity
8
0
100
AcDbLine
62
7
6
CONTINUOUS
10
-55.9346090159
20
-47.1260691554
11
-59.4346090159
21
-47.1260691554
0
LINE
5
397
100
AcDbEntity
8
0
100
AcDbLine
62
7
6
CONTINUOUS
10
-55.9346090159
20
-3.1260691554
11
-55.8063542342
21
-3.2543239372
0
LINE
5
398
100
AcDbEntity
8
0
100
AcDbLine
62
7
6
CONTINUOUS
10
-32.6800060163
20
-64.3701693830
11
-32.6346090159
21
-64.5760691554
0
LINE
5
399
100
AcDbEntity
8
0
100
AcDbLine
62
7
6
CONTINUOUS
10
-58.6800060163
20
55.9298306170
11
-58.6346090159
21
55.7239308446
0
LINE
5
39A
100
AcDbEntity
8
0
100
AcDbLine
62
7
6
CONTINUOUS
10
-30.6892120156
20
-70.4819689279
11
-30.7346090159
21
-70.2760691554
0
LINE
5
39B
100
AcDbEntity
8
0
100
AcDbLine
62
7
6
CONTINUOUS
10
-56.6892120156
20
49.8180310721
11
-56.7346090159
21
50.0239308446
0
LINE
5
39C
100
AcDbEntity
8
0
100
AcDbLine
62
7
6
CONTINUOUS
10
-41.1462540159
20
-67.8805611554
11
-41.1462540159
21
-68.1260691554
0
LINE
5
39D
100
AcDbEntity
8
0
100
AcDbLine
62
7
6
CONTINUOUS
10
-41.1078600159
20
-63.5706601554
11
-41.1078600159
21
-63.8161681554
0
LINE
5
39E
100
AcDbEntity
8
0
100
AcDbLine
62
7
6
CONTINUOUS
10
-41.0132260159
20
-62.6973241554
11
-41.0132260159
21
-62.9428311554
0
LINE
5
39F
100
AcDbEntity
8
0
100
AcDbLine
62
7
6
CONTINUOUS
10
-40.9937590159
20
-64.5007771554
11
-40.9937590159
21
-64.7462851554
0
LINE
5
3A0
100
AcDbEntity
8
0
100
AcDbLine
62
7
6
CONTINUOUS
10
-40.6779510159
20
-68.1260691554
11
-40.6779510159
21
-67.3014021554
0
LINE
5
3A1
100
AcDbEntity
8
0
100
AcDbLine
62
7
6
CONTINUOUS
10
-40.4010800159
20
-67.3014021554
11
-40.4010800159
21
-68.1260691554
0
LINE
5
3A2
100
AcDbEntity
8
0
100
AcDbLine
62
7
6
CONTINUOUS
10
-39.8662620159
20
-64.7462851554
11
-39.8662620159
21
-62.6973241554
0
LINE
5
3A3
100
AcDbEntity
8
0
100
AcDbLine
62
7
6
CONTINUOUS
10
-39.5893900159
20
-62.6973241554
11
-39.5893900159
21
-64.7462851554
0
LINE
5
3A4
100
AcDbEntity
8
0
100
AcDbLine
62
7
6
CONTINUOUS
10
-39.4842690159
20
64.1739508446
11
-39.4842690159
21
68.1741308446
0
LINE
5
3A5
100
AcDbEntity
8
0
100
AcDbLine
62
7
6
CONTINUOUS
10
-39.1156800159
20
-64.7462851554
11
-39.1156800159
21
-62.6973241554
0
LINE
5
3A6
100
AcDbEntity
8
0
100
AcDbLine
62
7
6
CONTINUOUS
10
-38.8474600159
20
-63.0815471554
11
-38.8474600159
21
-64.7462851554
0
LINE
5
3A7
100
AcDbEntity
8
0
100
AcDbLine
62
7
6
CONTINUOUS
10
-38.6952690159
20
67.4341008446
11
-38.6952590159
21
66.4606808446
0
LINE
5
3A8
100
AcDbEntity
8
0
100
AcDbLine
62
7
6
CONTINUOUS
10
-37.7572770159
20
-64.3613421554
11
-37.7572770159
21
-62.6973241554
0
LINE
5
3A9
100
AcDbEntity
8
0
100
AcDbLine
62
7
6
CONTINUOUS
10
-37.4885160159
20
-62.6973241554
11
-37.4885160159
21
-64.7462851554
0
LINE
5
3AA
100
AcDbEntity
8
0
100
AcDbLine
62
7
6
CONTINUOUS
10
-36.1846090159
20
-62.6260691554
11
-36.1846090159
21
-68.1260691554
0
LINE
5
3AB
100
AcDbEntity
8
0
100
AcDbLine
62
7
6
CONTINUOUS
10
-38.6841390159
20
65.7206508446
11
-38.6842290159
21
64.1739508446
0
LINE
5
3AC
100
AcDbEntity
8
0
100
AcDbLine
62
7
6
CONTINUOUS
10
-59.7033590159
20
-63.7920266480
11
-59.6637757203
21
-63.6707499535
0
LINE
5
3AD
100
AcDbEntity
8
0
100
AcDbLine
62
7
6
CONTINUOUS
10
-58.3575256071
20
-64.5601117195
11
-58.3971090159
21
-64.6813883008
0
LINE
5
3AE
100
AcDbEntity
8
0
100
AcDbLine
62
7
6
CONTINUOUS
10
-59.4346090159
20
-3.1260691554
11
-59.5428875164
21
-3.2343476559
0
LINE
5
3AF
100
AcDbEntity
8
0
100
AcDbLine
62
9
6
CONTINUOUS
10
-47.6846090159
20
-34.6260691554
11
-56.2621537413
21
-34.6266655058
0
LINE
5
3B0
100
AcDbEntity
8
0
100
AcDbLine
62
9
6
CONTINUOUS
10
55.8929357097
20
-34.6266655058
11
47.3153909841
21
-34.6260691554
0
LINE
5
3B1
100
AcDbEntity
8
0
100
AcDbLine
62
7
6
CONTINUOUS
10
-59.4346090159
20
4.8739308446
11
-59.5428875164
21
4.9822093451
0
LINE
5
3B2
100
AcDbEntity
8
0
100
AcDbLine
62
7
6
CONTINUOUS
10
-33.4346090159
20
-63.4260691554
11
-33.4346090159
21
-70.8393792764
0
LINE
5
3B3
100
AcDbEntity
8
0
100
AcDbLine
62
7
6
CONTINUOUS
10
-33.4346090159
20
65.1739308446
11
-33.4346090159
21
72.5872409664
0
LINE
5
3B4
100
AcDbEntity
8
0
100
AcDbLine
62
7
6
CONTINUOUS
10
-32.6800060163
20
-70.4819689279
11
-32.6800060163
21
-64.3701693830
0
LINE
5
3B5
100
AcDbEntity
8
0
100
AcDbLine
62
7
6
CONTINUOUS
10
-32.6800060163
20
66.1180310721
11
-32.6800060163
21
72.2298306170
0
LINE
5
3B6
100
AcDbEntity
8
0
100
AcDbLine
62
7
6
CONTINUOUS
10
-32.6346090159
20
-70.2760691554
11
-32.6346090159
21
-64.5760691554
0
LINE
5
3B7
100
AcDbEntity
8
0
100
AcDbLine
62
7
6
CONTINUOUS
10
-32.6346090159
20
66.3239308446
11
-32.6346090159
21
72.0239308446
0
LINE
5
3B8
100
AcDbEntity
8
0
100
AcDbLine
62
7
6
CONTINUOUS
10
-30.7346090159
20
72.0239308446
11
-30.7346090159
21
66.3239308446
0
LINE
5
3B9
100
AcDbEntity
8
0
100
AcDbLine
62
7
6
CONTINUOUS
10
-30.7346090159
20
-64.5760691554
11
-30.7346090159
21
-70.2760691554
0
LINE
5
3BA
100
AcDbEntity
8
0
100
AcDbLine
62
7
6
CONTINUOUS
10
-30.6892120156
20
72.2298306170
11
-30.6892120156
21
66.1180310721
0
LINE
5
3BB
100
AcDbEntity
8
0
100
AcDbLine
62
7
6
CONTINUOUS
10
-30.6892120156
20
-64.3701693830
11
-30.6892120156
21
-70.4819689279
0
LINE
5
3BC
100
AcDbEntity
8
0
100
AcDbLine
62
7
6
CONTINUOUS
10
-29.9346090159
20
72.6797999476
11
-29.9346090159
21
65.1739308446
0
LINE
5
3BD
100
AcDbEntity
8
0
100
AcDbLine
62
7
6
CONTINUOUS
10
-29.9346090159
20
-70.9319382574
11
-29.9346090159
21
-63.4260691554
0
LINE
5
3BE
100
AcDbEntity
8
0
100
AcDbLine
62
7
6
CONTINUOUS
10
-57.7241924248
20
-63.6707499535
11
-57.7637756071
21
-63.7920266480
0
LINE
5
3BF
100
AcDbEntity
8
0
100
AcDbLine
62
7
6
CONTINUOUS
10
-57.7241924248
20
-64.3175585003
11
-57.7637756071
21
-64.4388351382
0
LINE
5
3C0
100
AcDbEntity
8
0
100
AcDbLine
62
7
6
CONTINUOUS
10
-56.8137758336
20
-64.6813883008
11
-56.7741921983
21
-64.5601117195
0
LINE
5
3C1
100
AcDbEntity
8
0
100
AcDbLine
62
7
6
CONTINUOUS
10
-56.0221090159
20
-63.6707499535
11
-56.0616921983
21
-63.7920266480
0
LINE
5
3C2
100
AcDbEntity
8
0
100
AcDbLine
62
7
6
CONTINUOUS
10
-55.1116921983
20
-63.9941542835
11
-55.0721090159
21
-63.8728777022
0
LINE
5
3C3
100
AcDbEntity
8
0
100
AcDbLine
62
7
6
CONTINUOUS
10
-55.1116921983
20
-64.6813883008
11
-55.0721090159
21
-64.5601117195
0
LINE
5
3C4
100
AcDbEntity
8
0
100
AcDbLine
62
7
6
CONTINUOUS
10
-57.9616924248
20
-63.7516011209
11
-57.8825256071
21
-63.5494733722
0
LINE
5
3C5
100
AcDbEntity
8
0
100
AcDbLine
62
7
6
CONTINUOUS
10
-56.2596090159
20
-63.7516011209
11
-56.1804421983
21
-63.5494733722
0
LINE
5
3C6
100
AcDbEntity
8
0
100
AcDbLine
62
7
6
CONTINUOUS
10
-56.5762758336
20
-64.6005372466
11
-56.6554421983
21
-64.8026649104
0
LINE
5
3C7
100
AcDbEntity
8
0
100
AcDbLine
62
7
6
CONTINUOUS
10
-52.0502890159
20
64.1739308446
11
-53.3346090159
21
68.1741208446
0
LINE
5
3C8
100
AcDbEntity
8
0
100
AcDbLine
62
7
6
CONTINUOUS
10
-52.5345690159
20
68.1741208446
11
-51.6502490159
21
65.4197808446
0
LINE
5
3C9
100
AcDbEntity
8
0
100
AcDbLine
62
7
6
CONTINUOUS
10
-47.1893090159
20
-63.0250281554
11
-47.7657650159
21
-64.7462851554
0
LINE
5
3CA
100
AcDbEntity
8
0
100
AcDbLine
62
7
6
CONTINUOUS
10
-47.9001370159
20
-64.4382251554
11
-47.3153070159
21
-62.6973241554
0
LINE
5
3CB
100
AcDbEntity
8
0
100
AcDbLine
62
7
6
CONTINUOUS
10
-46.1764550159
20
-64.1498201554
11
-46.3905980159
21
-64.7462851554
0
LINE
5
3CC
100
AcDbEntity
8
0
100
AcDbLine
62
7
6
CONTINUOUS
10
-45.7596750159
20
-62.9937981554
11
-46.0904740159
21
-63.9043131554
0
LINE
5
3CD
100
AcDbEntity
8
0
100
AcDbLine
62
7
6
CONTINUOUS
10
-54.8741921983
20
-64.6005372466
11
-54.9533590159
21
-64.8026649104
0
LINE
5
3CE
100
AcDbEntity
8
0
100
AcDbLine
62
7
6
CONTINUOUS
10
-54.4783590159
20
-63.7111755938
11
-54.3991921983
21
-63.5090478451
0
LINE
5
3CF
100
AcDbEntity
8
0
100
AcDbLine
62
7
6
CONTINUOUS
10
-54.5179421983
20
-64.5196861924
11
-54.4387758336
21
-64.3175585003
0
LINE
5
3D0
100
AcDbEntity
8
0
100
AcDbLine
62
7
6
CONTINUOUS
10
-53.0929426513
20
-64.6409627737
11
-53.1721090159
21
-64.8430904375
0
LINE
5
3D1
100
AcDbEntity
8
0
100
AcDbLine
62
7
6
CONTINUOUS
10
-60.3762757203
20
-63.9133032293
11
-60.2971090159
21
-63.7516011209
0
LINE
5
3D2
100
AcDbEntity
8
0
100
AcDbLine
62
7
6
CONTINUOUS
10
-59.6637757203
20
-63.6707499535
11
-59.5846090159
21
-63.5090478451
0
LINE
5
3D3
100
AcDbEntity
8
0
100
AcDbLine
62
7
6
CONTINUOUS
10
-58.3971090159
20
-64.6813883008
11
-58.4762756071
21
-64.8430904375
0
LINE
5
3D4
100
AcDbEntity
8
0
100
AcDbLine
62
7
6
CONTINUOUS
10
29.5653909841
20
65.1739308446
11
29.4326472215
21
65.0411870820
0
LINE
5
3D5
100
AcDbEntity
8
0
100
AcDbLine
62
7
6
CONTINUOUS
10
29.5653909841
20
-63.4260691554
11
29.4326472215
21
-63.2933253928
0
LINE
5
3D6
100
AcDbEntity
8
0
100
AcDbLine
62
7
6
CONTINUOUS
10
-46.2761090159
20
64.1739408446
11
-47.0324890159
21
66.8117908446
0
LINE
5
3D7
100
AcDbEntity
8
0
100
AcDbLine
62
7
6
CONTINUOUS
10
-46.6230890159
20
68.1741208446
11
-45.8760990159
21
65.5690608446
0
LINE
5
3D8
100
AcDbEntity
8
0
100
AcDbLine
62
7
6
CONTINUOUS
10
-32.6800060163
20
-70.4819689279
11
-32.6346090159
21
-70.2760691554
0
LINE
5
3D9
100
AcDbEntity
8
0
100
AcDbLine
62
7
6
CONTINUOUS
10
-30.6892120156
20
-64.3701693830
11
-30.7346090159
21
-64.5760691554
0
LINE
5
3DA
100
AcDbEntity
8
0
100
AcDbLine
62
7
6
CONTINUOUS
10
-44.0431350159
20
-67.5296051554
11
-44.2572780159
21
-68.1260691554
0
LINE
5
3DB
100
AcDbEntity
8
0
100
AcDbLine
62
7
6
CONTINUOUS
10
-43.6263560159
20
-66.3735981554
11
-43.9576940159
21
-67.2840971554
0
LINE
5
3DC
100
AcDbEntity
8
0
100
AcDbLine
62
7
6
CONTINUOUS
10
-44.5422620159
20
-68.1260691554
11
-43.7716710159
21
-66.0765681554
0
LINE
5
3DD
100
AcDbEntity
8
0
100
AcDbLine
62
7
6
CONTINUOUS
10
-46.6761230159
20
-64.7462851554
11
-45.9049910159
21
-62.6973241554
0
LINE
5
3DE
100
AcDbEntity
8
0
100
AcDbLine
62
7
6
CONTINUOUS
10
-53.1325253806
20
-63.8324521751
11
-53.2116926513
21
-63.9941542835
0
LINE
5
3DF
100
AcDbEntity
8
0
100
AcDbLine
62
7
6
CONTINUOUS
10
-61.1679423398
20
-63.5494733722
11
-61.2471090159
21
-63.6707499535
0
LINE
5
3E0
100
AcDbEntity
8
0
100
AcDbLine
62
7
6
CONTINUOUS
10
-60.0991923115
20
-63.9133032293
11
-60.1783590159
21
-64.0345798106
0
LINE
5
3E1
100
AcDbEntity
8
0
100
AcDbLine
62
7
6
CONTINUOUS
10
-59.3471090159
20
-63.5494733722
11
-59.5054424248
21
-63.7920266480
0
LINE
5
3E2
100
AcDbEntity
8
0
100
AcDbLine
62
7
6
CONTINUOUS
10
42.4414439841
20
66.4292188446
11
44.2142169841
21
68.1726808446
0
LINE
5
3E3
100
AcDbEntity
8
0
100
AcDbLine
62
7
6
CONTINUOUS
10
45.1717539841
20
68.1726808446
11
43.4519889841
21
66.5272328446
0
LINE
5
3E4
100
AcDbEntity
8
0
100
AcDbLine
62
7
6
CONTINUOUS
10
42.9521249841
20
66.0360398446
11
42.4414439841
21
65.5597688446
0
LINE
5
3E5
100
AcDbEntity
8
0
100
AcDbLine
62
7
6
CONTINUOUS
10
58.9329469839
20
-12.5010691556
11
57.4724459839
21
-12.5010691556
0
LINE
5
3E6
100
AcDbEntity
8
0
100
AcDbLine
62
7
6
CONTINUOUS
10
-40.8176590159
20
64.1739508446
11
-41.0702190159
21
64.9606108446
0
LINE
5
3E7
100
AcDbEntity
8
0
100
AcDbLine
62
7
6
CONTINUOUS
10
-41.3142590159
20
65.7206408446
11
-41.7019890159
21
66.9282808446
0
LINE
5
3E8
100
AcDbEntity
8
0
100
AcDbLine
62
7
6
CONTINUOUS
10
-41.3019490159
20
68.1741308446
11
-40.0176190159
21
64.1739408446
0
LINE
5
3E9
100
AcDbEntity
8
0
100
AcDbLine
62
7
6
CONTINUOUS
10
-32.6800060163
20
72.2298306170
11
-32.6346090159
21
72.0239308446
0
LINE
5
3EA
100
AcDbEntity
8
0
100
AcDbLine
62
7
6
CONTINUOUS
10
-30.6892120156
20
66.1180310721
11
-30.7346090159
21
66.3239308446
0
LINE
5
3EB
100
AcDbEntity
8
0
100
AcDbLine
62
7
6
CONTINUOUS
10
-58.7137756071
20
-64.8026649104
11
-58.5554424248
21
-64.5601117195
0
LINE
5
3EC
100
AcDbEntity
8
0
100
AcDbLine
62
7
6
CONTINUOUS
10
-57.6450258336
20
-63.5494733722
11
-57.7241924248
21
-63.6707499535
0
LINE
5
3ED
100
AcDbEntity
8
0
100
AcDbLine
62
7
6
CONTINUOUS
10
-56.8929421983
20
-64.8026649104
11
-56.8137758336
21
-64.6813883008
0
LINE
5
3EE
100
AcDbEntity
8
0
100
AcDbLine
62
7
6
CONTINUOUS
10
-55.9429421983
20
-63.5494733722
11
-56.0221090159
21
-63.6707499535
0
LINE
5
3EF
100
AcDbEntity
8
0
100
AcDbLine
62
7
6
CONTINUOUS
10
-55.1908590159
20
-64.1154308648
11
-55.1116921983
21
-63.9941542835
0
LINE
5
3F0
100
AcDbEntity
8
0
100
AcDbLine
62
7
6
CONTINUOUS
10
-55.1908590159
20
-64.8026649104
11
-55.1116921983
21
-64.6813883008
0
LINE
5
3F1
100
AcDbEntity
8
0
100
AcDbLine
62
7
6
CONTINUOUS
10
-54.2012758336
20
-63.5898988993
11
-54.2804421983
21
-63.7111755938
0
LINE
5
3F2
100
AcDbEntity
8
0
100
AcDbLine
62
7
6
CONTINUOUS
10
-53.4096090159
20
-63.9133032293
11
-53.3304426513
21
-63.7920266480
0
LINE
5
3F3
100
AcDbEntity
8
0
100
AcDbLine
62
7
6
CONTINUOUS
10
-57.8825256071
20
-63.5494733722
11
-57.7637756071
21
-63.3877712638
0
LINE
5
3F4
100
AcDbEntity
8
0
100
AcDbLine
62
7
6
CONTINUOUS
10
-56.1804421983
20
-63.5494733722
11
-56.0616921983
21
-63.3877712638
0
LINE
5
3F5
100
AcDbEntity
8
0
100
AcDbLine
62
7
6
CONTINUOUS
10
-56.6554421983
20
-64.8026649104
11
-56.7741921983
21
-64.9643670329
0
LINE
5
3F6
100
AcDbEntity
8
0
100
AcDbLine
62
7
6
CONTINUOUS
10
57.4724428719
20
-11.7510691556
11
58.9329469839
21
-11.7510691556
0
LINE
5
3F7
100
AcDbEntity
8
0
100
AcDbLine
62
9
6
CONTINUOUS
10
-0.1846090159
20
73.3359037176
11
-0.1846090159
21
61.7739308446
0
LINE
5
3F8
100
AcDbEntity
8
0
100
AcDbLine
62
9
6
CONTINUOUS
10
-0.1846090159
20
-60.0260691554
11
-0.1846090159
21
-71.5880420283
0
LINE
5
3F9
100
AcDbEntity
8
0
100
AcDbLine
62
7
6
CONTINUOUS
10
-40.5411380159
20
-67.0613021554
11
-39.9527850159
21
-66.0765681554
0
LINE
5
3FA
100
AcDbEntity
8
0
100
AcDbLine
62
7
6
CONTINUOUS
10
-54.9533590159
20
-64.8026649104
11
-55.0721090159
21
-64.9643670329
0
LINE
5
3FB
100
AcDbEntity
8
0
100
AcDbLine
62
7
6
CONTINUOUS
10
-54.2012758336
20
-64.3579840274
11
-54.3200258336
21
-64.5196861924
0
LINE
5
3FC
100
AcDbEntity
8
0
100
AcDbLine
62
7
6
CONTINUOUS
10
-53.4096090159
20
-64.8026649104
11
-53.2908590159
21
-64.6409627737
0
LINE
5
3FD
100
AcDbEntity
8
0
100
AcDbLine
62
7
6
CONTINUOUS
10
-55.9346090159
20
-47.1260691554
11
-55.8076805393
21
-46.9991406788
0
LINE
5
3FE
100
AcDbEntity
8
0
100
AcDbLine
62
7
6
CONTINUOUS
10
-59.4346090159
20
-55.1260691554
11
-59.5384920199
21
-55.2299521594
0
LINE
5
3FF
100
AcDbEntity
8
0
100
AcDbLine
62
7
6
CONTINUOUS
10
-59.4346090159
20
-3.1260691554
11
-55.9346090159
21
-3.1260691554
0
LINE
5
400
100
AcDbEntity
8
0
100
AcDbLine
62
7
6
CONTINUOUS
10
55.5653909841
20
-3.1260691554
11
59.0653909841
21
-3.1260691554
0
LINE
5
401
100
AcDbEntity
8
0
100
AcDbLine
62
7
6
CONTINUOUS
10
58.3107879844
20
-2.1819689279
11
56.3199939837
21
-2.1819689279
0
LINE
5
402
100
AcDbEntity
8
0
100
AcDbLine
62
7
6
CONTINUOUS
10
-56.6892120156
20
-2.1819689279
11
-58.6800060163
21
-2.1819689279
0
LINE
5
403
100
AcDbEntity
8
0
100
AcDbLine
62
7
6
CONTINUOUS
10
58.2653909841
20
-1.9760691554
11
56.3653909841
21
-1.9760691554
0
LINE
5
404
100
AcDbEntity
8
0
100
AcDbLine
62
7
6
CONTINUOUS
10
-56.7346090159
20
-1.9760691554
11
-58.6346090159
21
-1.9760691554
0
LINE
5
405
100
AcDbEntity
8
0
100
AcDbLine
62
9
6
CONTINUOUS
10
-68.3191806393
20
0.8739308448
11
-59.5429085559
21
0.8739308446
0
LINE
5
406
100
AcDbEntity
8
0
100
AcDbLine
62
9
6
CONTINUOUS
10
55.4371269219
20
0.8739308445
11
47.3153909841
21
0.8739308444
0
LINE
5
407
100
AcDbEntity
8
0
100
AcDbLine
62
9
6
CONTINUOUS
10
67.9499626075
20
0.8739308444
11
59.1736905240
21
0.8739308445
0
LINE
5
408
100
AcDbEntity
8
0
100
AcDbLine
62
9
6
CONTINUOUS
10
-55.8063449537
20
0.8739308446
11
-47.6846090159
21
0.8739308448
0
LINE
5
409
100
AcDbEntity
8
0
100
AcDbLine
62
7
6
CONTINUOUS
10
-55.9346090159
20
48.8739308446
11
-55.8076805393
21
48.7470023680
0
LINE
5
40A
100
AcDbEntity
8
0
100
AcDbLine
62
7
6
CONTINUOUS
10
-59.4346090159
20
56.8739308446
11
-59.5384920199
21
56.9778138485
0
LINE
5
40B
100
AcDbEntity
8
0
100
AcDbLine
62
7
6
CONTINUOUS
10
43.8116599841
20
-68.1260691554
11
42.7639179841
21
-66.4610421554
0
LINE
5
40C
100
AcDbEntity
8
0
100
AcDbLine
62
7
6
CONTINUOUS
10
-37.1841590159
20
64.1739508446
11
-37.9858890159
21
65.7206408446
0
LINE
5
40D
100
AcDbEntity
8
0
100
AcDbLine
62
7
6
CONTINUOUS
10
-37.1346404045
20
65.8168535234
11
-36.2830490159
21
64.1739608446
0
LINE
5
40E
100
AcDbEntity
8
0
100
AcDbLine
62
7
6
CONTINUOUS
10
-39.6277850159
20
-66.0765681554
11
-40.4010800159
21
-67.3014021554
0
LINE
5
40F
100
AcDbEntity
8
0
100
AcDbLine
62
7
6
CONTINUOUS
10
-61.4054423469
20
-63.5090478451
11
-61.2471090159
21
-63.3473457367
0
LINE
5
410
100
AcDbEntity
8
0
100
AcDbLine
62
7
6
CONTINUOUS
10
-59.5846090159
20
-63.5090478451
11
-59.4658590159
21
-63.3877712638
0
LINE
5
411
100
AcDbEntity
8
0
100
AcDbLine
62
7
6
CONTINUOUS
10
-58.4762756071
20
-64.8430904375
11
-58.5950256071
21
-64.9643670329
0
LINE
5
412
100
AcDbEntity
8
0
100
AcDbLine
62
7
6
CONTINUOUS
10
-57.6450258336
20
-64.2367074461
11
-57.7241924248
21
-64.3175585003
0
LINE
5
413
100
AcDbEntity
8
0
100
AcDbLine
62
7
6
CONTINUOUS
10
-54.3991921983
20
-63.5090478451
11
-54.2804421983
21
-63.3877712638
0
LINE
5
414
100
AcDbEntity
8
0
100
AcDbLine
62
7
6
CONTINUOUS
10
-53.2116926513
20
-63.9941542835
11
-53.3304426513
21
-64.1154308648
0
LINE
5
415
100
AcDbEntity
8
0
100
AcDbLine
62
7
6
CONTINUOUS
10
59.0653909841
20
56.8739308446
11
59.1692739880
21
56.9778138485
0
LINE
5
416
100
AcDbEntity
8
0
100
AcDbLine
62
7
6
CONTINUOUS
10
55.5653909841
20
48.8739308446
11
55.4384625075
21
48.7470023680
0
LINE
5
417
100
AcDbEntity
8
0
100
AcDbLine
62
7
6
CONTINUOUS
10
-61.4846090159
20
-64.9239414916
11
-60.3762757203
21
-63.9133032293
0
LINE
5
418
100
AcDbEntity
8
0
100
AcDbLine
62
7
6
CONTINUOUS
10
-58.6346090159
20
3.7239308446
11
-56.7346090159
21
3.7239308446
0
LINE
5
419
100
AcDbEntity
8
0
100
AcDbLine
62
7
6
CONTINUOUS
10
56.3653909841
20
3.7239308446
11
58.2653909841
21
3.7239308446
0
LINE
5
41A
100
AcDbEntity
8
0
100
AcDbLine
62
7
6
CONTINUOUS
10
-58.6800060163
20
3.9298306170
11
-56.6892120156
21
3.9298306170
0
LINE
5
41B
100
AcDbEntity
8
0
100
AcDbLine
62
7
6
CONTINUOUS
10
56.3199939837
20
3.9298306170
11
58.3107879844
21
3.9298306170
0
LINE
5
41C
100
AcDbEntity
8
0
100
AcDbLine
62
7
6
CONTINUOUS
10
59.0653909841
20
4.8739308446
11
55.5653909841
21
4.8739308446
0
LINE
5
41D
100
AcDbEntity
8
0
100
AcDbLine
62
7
6
CONTINUOUS
10
-55.9346090159
20
4.8739308446
11
-59.4346090159
21
4.8739308446
0
LINE
5
41E
100
AcDbEntity
8
0
100
AcDbLine
62
7
6
CONTINUOUS
10
59.0653909841
20
-55.1260691554
11
59.1692739881
21
-55.2299521594
0
LINE
5
41F
100
AcDbEntity
8
0
100
AcDbLine
62
7
6
CONTINUOUS
10
55.5653909841
20
-47.1260691554
11
55.4384625075
21
-46.9991406788
0
LINE
5
420
100
AcDbEntity
8
0
100
AcDbLine
62
7
6
CONTINUOUS
10
42.8238079841
20
-66.0760691554
11
43.8545539841
21
-67.7412461554
0
LINE
5
421
100
AcDbEntity
8
0
100
AcDbLine
62
7
6
CONTINUOUS
10
-53.1721090159
20
-64.8430904375
11
-53.2908590159
21
-64.9643670329
0
LINE
5
422
100
AcDbEntity
8
0
100
AcDbLine
62
7
6
CONTINUOUS
10
-60.1783590159
20
-64.0345798106
11
-61.1679423398
21
-64.9239414916
0
LINE
5
423
100
AcDbEntity
8
0
100
AcDbLine
62
7
6
CONTINUOUS
10
30.3199939837
20
66.1180310721
11
30.3653909841
21
66.3239308446
0
LINE
5
424
100
AcDbEntity
8
0
100
AcDbLine
62
7
6
CONTINUOUS
10
32.3107879844
20
72.2298306170
11
32.2653909841
21
72.0239308446
0
LINE
5
425
100
AcDbEntity
8
0
100
AcDbLine
62
7
6
CONTINUOUS
10
-54.0429421983
20
-63.4686223180
11
-54.2012758336
21
-63.5898988993
0
LINE
5
426
100
AcDbEntity
8
0
100
AcDbLine
62
7
6
CONTINUOUS
10
-54.4387758336
20
-64.3175585003
11
-54.2804421983
21
-64.1962819190
0
LINE
5
427
100
AcDbEntity
8
0
100
AcDbLine
62
7
6
CONTINUOUS
10
-53.5679426513
20
-64.0345798106
11
-53.4096090159
21
-63.9133032293
0
LINE
5
428
100
AcDbEntity
8
0
100
AcDbLine
62
7
6
CONTINUOUS
10
-61.0491923398
20
-63.4686223180
11
-61.1679423398
21
-63.5494733722
0
LINE
5
429
100
AcDbEntity
8
0
100
AcDbLine
62
7
6
CONTINUOUS
10
-59.2283590159
20
-63.4686223180
11
-59.3471090159
21
-63.5494733722
0
LINE
5
42A
100
AcDbEntity
8
0
100
AcDbLine
62
7
6
CONTINUOUS
10
-57.5262758336
20
-63.4686223180
11
-57.6450258336
21
-63.5494733722
0
LINE
5
42B
100
AcDbEntity
8
0
100
AcDbLine
62
7
6
CONTINUOUS
10
-57.8033590159
20
-64.1154308648
11
-57.5658590159
21
-63.9537287564
0
LINE
5
42C
100
AcDbEntity
8
0
100
AcDbLine
62
7
6
CONTINUOUS
10
-58.8325256071
20
-64.8835159646
11
-58.7137756071
21
-64.8026649104
0
LINE
5
42D
100
AcDbEntity
8
0
100
AcDbLine
62
7
6
CONTINUOUS
10
-57.5262758336
20
-64.1558563919
11
-57.6450258336
21
-64.2367074461
0
LINE
5
42E
100
AcDbEntity
8
0
100
AcDbLine
62
7
6
CONTINUOUS
10
-55.8241921983
20
-63.4686223180
11
-55.9429421983
21
-63.5494733722
0
LINE
5
42F
100
AcDbEntity
8
0
100
AcDbLine
62
7
6
CONTINUOUS
10
-57.0116921983
20
-64.8835159646
11
-56.8929421983
21
-64.8026649104
0
LINE
5
430
100
AcDbEntity
8
0
100
AcDbLine
62
7
6
CONTINUOUS
10
42.6881659841
20
-62.9961321554
11
43.4304719841
21
-65.0461321554
0
LINE
5
431
100
AcDbEntity
8
0
100
AcDbLine
62
7
6
CONTINUOUS
10
43.1277869841
20
-65.0461321554
11
42.9251339841
21
-64.4495041554
0
LINE
5
432
100
AcDbEntity
8
0
100
AcDbLine
62
7
6
CONTINUOUS
10
42.8252649841
20
-64.2039571554
11
42.5198629841
21
-63.2936311554
0
LINE
5
433
100
AcDbEntity
8
0
100
AcDbLine
62
7
6
CONTINUOUS
10
30.3199939837
20
-64.3701693830
11
30.3653909841
21
-64.5760691554
0
LINE
5
434
100
AcDbEntity
8
0
100
AcDbLine
62
7
6
CONTINUOUS
10
32.3107879844
20
-70.4819689279
11
32.2653909841
21
-70.2760691554
0
LINE
5
435
100
AcDbEntity
8
0
100
AcDbLine
62
7
6
CONTINUOUS
10
-29.9346090159
20
-63.4260691554
11
-29.8018652533
21
-63.2933253928
0
LINE
5
436
100
AcDbEntity
8
0
100
AcDbLine
62
7
6
CONTINUOUS
10
-55.3096090159
20
-64.1962819190
11
-55.1908590159
21
-64.1154308648
0
LINE
5
437
100
AcDbEntity
8
0
100
AcDbLine
62
7
6
CONTINUOUS
10
-55.0325258336
20
-64.2367074461
11
-55.2700258336
21
-64.3984095545
0
LINE
5
438
100
AcDbEntity
8
0
100
AcDbLine
62
7
6
CONTINUOUS
10
-55.3096090159
20
-64.8835159646
11
-55.1908590159
21
-64.8026649104
0
LINE
5
439
100
AcDbEntity
8
0
100
AcDbLine
62
7
6
CONTINUOUS
10
-59.4658590159
20
-63.3877712638
11
-59.2679424248
21
-63.2664946825
0
LINE
5
43A
100
AcDbEntity
8
0
100
AcDbLine
62
7
6
CONTINUOUS
10
-57.7637756071
20
-63.3877712638
11
-57.5658590159
21
-63.2664946825
0
LINE
5
43B
100
AcDbEntity
8
0
100
AcDbLine
62
7
6
CONTINUOUS
10
-56.0616921983
20
-63.3877712638
11
-55.8637758336
21
-63.2664946825
0
LINE
5
43C
100
AcDbEntity
8
0
100
AcDbLine
62
7
6
CONTINUOUS
10
-58.5950256071
20
-64.9643670329
11
-58.7929424248
21
-65.0856436248
0
LINE
5
43D
100
AcDbEntity
8
0
100
AcDbLine
62
7
6
CONTINUOUS
10
-54.2804421983
20
-63.3877712638
11
-54.0825258336
21
-63.2664946825
0
LINE
5
43E
100
AcDbEntity
8
0
100
AcDbLine
62
7
6
CONTINUOUS
10
-56.7741921983
20
-64.9643670329
11
-56.9721090159
21
-65.0856436248
0
LINE
5
43F
100
AcDbEntity
8
0
100
AcDbLine
62
7
6
CONTINUOUS
10
-55.0721090159
20
-64.9643670329
11
-55.2700258336
21
-65.0856436248
0
LINE
5
440
100
AcDbEntity
8
0
100
AcDbLine
62
7
6
CONTINUOUS
10
-53.2908590159
20
-64.9643670329
11
-53.4887753806
21
-65.0856436248
0
LINE
5
441
100
AcDbEntity
8
0
100
AcDbLine
62
7
6
CONTINUOUS
10
-61.2471090159
20
-63.3473457367
11
-61.0887756920
21
-63.2664946825
0
LINE
5
442
100
AcDbEntity
8
0
100
AcDbLine
62
7
6
CONTINUOUS
10
-29.9346090159
20
65.1739308446
11
-29.8018652533
21
65.0411870820
0
LINE
5
443
100
AcDbEntity
8
0
100
AcDbLine
62
7
6
CONTINUOUS
10
29.5653909841
20
72.6797999465
11
29.5653909841
21
65.1739308446
0
LINE
5
444
100
AcDbEntity
8
0
100
AcDbLine
62
7
6
CONTINUOUS
10
29.5653909841
20
-70.9319382585
11
29.5653909841
21
-63.4260691554
0
LINE
5
445
100
AcDbEntity
8
0
100
AcDbLine
62
7
6
CONTINUOUS
10
30.3199939837
20
-70.4819689279
11
30.3199939837
21
-64.3701693830
0
LINE
5
446
100
AcDbEntity
8
0
100
AcDbLine
62
7
6
CONTINUOUS
10
30.3199939837
20
66.1180310721
11
30.3199939837
21
72.2298306170
0
LINE
5
447
100
AcDbEntity
8
0
100
AcDbLine
62
7
6
CONTINUOUS
10
30.3653909841
20
-70.2760691554
11
30.3653909841
21
-64.5760691554
0
LINE
5
448
100
AcDbEntity
8
0
100
AcDbLine
62
7
6
CONTINUOUS
10
30.3653909841
20
66.3239308446
11
30.3653909841
21
72.0239308446
0
LINE
5
449
100
AcDbEntity
8
0
100
AcDbLine
62
7
6
CONTINUOUS
10
32.2653909841
20
72.0239308446
11
32.2653909841
21
66.3239308446
0
LINE
5
44A
100
AcDbEntity
8
0
100
AcDbLine
62
7
6
CONTINUOUS
10
32.2653909841
20
-64.5760691554
11
32.2653909841
21
-70.2760691554
0
LINE
5
44B
100
AcDbEntity
8
0
100
AcDbLine
62
7
6
CONTINUOUS
10
32.3107879844
20
72.2298306170
11
32.3107879844
21
66.1180310721
0
LINE
5
44C
100
AcDbEntity
8
0
100
AcDbLine
62
7
6
CONTINUOUS
10
32.3107879844
20
-64.3701693830
11
32.3107879844
21
-70.4819689279
0
LINE
5
44D
100
AcDbEntity
8
0
100
AcDbLine
62
7
6
CONTINUOUS
10
33.0653909841
20
-63.4260691554
11
33.0653909841
21
-70.8393792773
0
LINE
5
44E
100
AcDbEntity
8
0
100
AcDbLine
62
7
6
CONTINUOUS
10
33.0653909841
20
65.1739308446
11
33.0653909841
21
72.5872409655
0
LINE
5
44F
100
AcDbEntity
8
0
100
AcDbLine
62
7
6
CONTINUOUS
10
35.8153909841
20
-68.1260691554
11
35.8153909841
21
-62.6260691554
0
LINE
5
450
100
AcDbEntity
8
0
100
AcDbLine
62
7
6
CONTINUOUS
10
36.4628489841
20
64.1739308446
11
36.4628489841
21
68.1726808446
0
LINE
5
451
100
AcDbEntity
8
0
100
AcDbLine
62
7
6
CONTINUOUS
10
-54.2804421983
20
-64.1962819190
11
-54.2012758336
21
-64.1558563919
0
LINE
5
452
100
AcDbEntity
8
0
100
AcDbLine
62
7
6
CONTINUOUS
10
-54.0429421983
20
-64.2771329732
11
-54.2012758336
21
-64.3579840274
0
LINE
5
453
100
AcDbEntity
8
0
100
AcDbLine
62
7
6
CONTINUOUS
10
-53.3304426513
20
-64.1154308648
11
-53.4096090159
21
-64.1558563919
0
LINE
5
454
100
AcDbEntity
8
0
100
AcDbLine
62
7
6
CONTINUOUS
10
-53.5679426513
20
-64.8835159646
11
-53.4096090159
21
-64.8026649104
0
LINE
5
455
100
AcDbEntity
8
0
100
AcDbLine
62
9
6
CONTINUOUS
10
55.8929072992
20
36.3745338923
11
47.3153909841
21
36.3739308449
0
LINE
5
456
100
AcDbEntity
8
0
100
AcDbLine
62
9
6
CONTINUOUS
10
-56.2621537415
20
36.3745271949
11
-47.6846090159
21
36.3739308446
0
LINE
5
457
100
AcDbEntity
8
0
100
AcDbLine
62
7
6
CONTINUOUS
10
37.1769699841
20
67.5380408446
11
37.1769699841
21
66.5437368446
0
LINE
5
458
100
AcDbEntity
8
0
100
AcDbLine
62
7
6
CONTINUOUS
10
37.1769699841
20
65.9090478446
11
37.1769699841
21
64.8085568446
0
LINE
5
459
100
AcDbEntity
8
0
100
AcDbLine
62
7
6
CONTINUOUS
10
38.7153909841
20
-68.1260691554
11
38.7153909841
21
-66.0760691554
0
LINE
5
45A
100
AcDbEntity
8
0
100
AcDbLine
62
7
6
CONTINUOUS
10
38.9923389841
20
-66.3130371554
11
38.9923389841
21
-67.0239411554
0
LINE
5
45B
100
AcDbEntity
8
0
100
AcDbLine
62
7
6
CONTINUOUS
10
38.9923389841
20
-67.2609091554
11
38.9923389841
21
-68.1260691554
0
LINE
5
45C
100
AcDbEntity
8
0
100
AcDbLine
62
7
6
CONTINUOUS
10
39.1456529841
20
66.5437228446
11
39.1456529841
21
65.9090618446
0
LINE
5
45D
100
AcDbEntity
8
0
100
AcDbLine
62
7
6
CONTINUOUS
10
39.2889449841
20
68.1726808446
11
39.2889449841
21
67.5380328446
0
LINE
5
45E
100
AcDbEntity
8
0
100
AcDbLine
62
7
6
CONTINUOUS
10
39.3050169841
20
64.8085788446
11
39.3050169841
21
64.1739308446
0
LINE
5
45F
100
AcDbEntity
8
0
100
AcDbLine
62
7
6
CONTINUOUS
10
39.9044399841
20
-65.0461321554
11
39.9044399841
21
-62.9961321554
0
LINE
5
460
100
AcDbEntity
8
0
100
AcDbLine
62
7
6
CONTINUOUS
10
40.1638759841
20
64.1739308446
11
40.1638759841
21
68.1726808446
0
LINE
5
461
100
AcDbEntity
8
0
100
AcDbLine
62
7
6
CONTINUOUS
10
40.1813879841
20
-63.2331001554
11
40.1813879841
21
-63.9440041554
0
LINE
5
462
100
AcDbEntity
8
0
100
AcDbLine
62
7
6
CONTINUOUS
10
40.1813879841
20
-64.1809721554
11
40.1813879841
21
-65.0461321554
0
LINE
5
463
100
AcDbEntity
8
0
100
AcDbLine
62
7
6
CONTINUOUS
10
40.6197139841
20
-68.1260691554
11
40.6197139841
21
-66.0760691554
0
LINE
5
464
100
AcDbEntity
8
0
100
AcDbLine
62
7
6
CONTINUOUS
10
40.8780389841
20
68.1726808446
11
40.8780389841
21
64.1739308446
0
LINE
5
465
100
AcDbEntity
8
0
100
AcDbLine
62
7
6
CONTINUOUS
10
40.8966619841
20
-66.3216161554
11
40.8966619841
21
-66.9498081554
0
LINE
5
466
100
AcDbEntity
8
0
100
AcDbLine
62
7
6
CONTINUOUS
10
40.8966619841
20
-67.1951931554
11
40.8966619841
21
-67.8805221554
0
LINE
5
467
100
AcDbEntity
8
0
100
AcDbLine
62
7
6
CONTINUOUS
10
41.7273239841
20
64.1739308446
11
41.7273239841
21
68.1726808446
0
LINE
5
468
100
AcDbEntity
8
0
100
AcDbLine
62
7
6
CONTINUOUS
10
42.0186989841
20
-66.9498081554
11
42.0186989841
21
-67.1951931554
0
LINE
5
469
100
AcDbEntity
8
0
100
AcDbLine
62
7
6
CONTINUOUS
10
42.1129039841
20
-66.0760691554
11
42.1129039841
21
-66.3216161554
0
LINE
5
46A
100
AcDbEntity
8
0
100
AcDbLine
62
7
6
CONTINUOUS
10
42.1329749841
20
-67.8805221554
11
42.1329749841
21
-68.1260691554
0
LINE
5
46B
100
AcDbEntity
8
0
100
AcDbLine
62
7
6
CONTINUOUS
10
42.4414579841
20
68.1726808446
11
42.4414439841
21
66.4292188446
0
LINE
5
46C
100
AcDbEntity
8
0
100
AcDbLine
62
7
6
CONTINUOUS
10
42.4414439841
20
65.5597688446
11
42.4414579841
21
64.1739308446
0
LINE
5
46D
100
AcDbEntity
8
0
100
AcDbLine
62
7
6
CONTINUOUS
10
42.4955489841
20
-68.1260691554
11
42.4955489841
21
-66.0760691554
0
LINE
5
46E
100
AcDbEntity
8
0
100
AcDbLine
62
7
6
CONTINUOUS
10
42.7639179841
20
-66.4610421554
11
42.7639179841
21
-68.1260691554
0
LINE
5
46F
100
AcDbEntity
8
0
100
AcDbLine
62
7
6
CONTINUOUS
10
43.5075189841
20
-63.2416791554
11
43.5075189841
21
-62.9961321554
0
LINE
5
470
100
AcDbEntity
8
0
100
AcDbLine
62
7
6
CONTINUOUS
10
59.0653909841
20
4.8739308446
11
59.1736694846
21
4.9822093451
0
LINE
5
471
100
AcDbEntity
8
0
100
AcDbLine
62
7
6
CONTINUOUS
10
55.5653909841
20
-3.1260691554
11
55.4371362024
21
-3.2543239372
0
LINE
5
472
100
AcDbEntity
8
0
100
AcDbLine
62
7
6
CONTINUOUS
10
-57.4075258336
20
-63.4281967909
11
-57.5262758336
21
-63.4686223180
0
LINE
5
473
100
AcDbEntity
8
0
100
AcDbLine
62
7
6
CONTINUOUS
10
-55.7054421983
20
-63.4281967909
11
-55.8241921983
21
-63.4686223180
0
LINE
5
474
100
AcDbEntity
8
0
100
AcDbLine
62
7
6
CONTINUOUS
10
-57.4075258336
20
-64.1154308648
11
-57.5262758336
21
-64.1558563919
0
LINE
5
475
100
AcDbEntity
8
0
100
AcDbLine
62
7
6
CONTINUOUS
10
-55.4283590159
20
-64.2367074461
11
-55.3096090159
21
-64.1962819190
0
LINE
5
476
100
AcDbEntity
8
0
100
AcDbLine
62
7
6
CONTINUOUS
10
59.0653909841
20
-3.1260691554
11
59.1736694846
21
-3.2343476559
0
LINE
5
477
100
AcDbEntity
8
0
100
AcDbLine
62
7
6
CONTINUOUS
10
55.5653909841
20
4.8739308446
11
55.4371362024
21
5.0021856263
0
LINE
5
478
100
AcDbEntity
8
0
100
AcDbLine
62
7
6
CONTINUOUS
10
43.8545539841
20
-67.7412461554
11
43.8545539841
21
-66.0760691554
0
LINE
5
479
100
AcDbEntity
8
0
100
AcDbLine
62
7
6
CONTINUOUS
10
44.1229239841
20
-66.0760691554
11
44.1229239841
21
-68.1260691554
0
LINE
5
47A
100
AcDbEntity
8
0
100
AcDbLine
62
7
6
CONTINUOUS
10
44.2014269841
20
-65.0461321554
11
44.2014269841
21
-63.2416791554
0
LINE
5
47B
100
AcDbEntity
8
0
100
AcDbLine
62
7
6
CONTINUOUS
10
44.4782139841
20
-63.2416791554
11
44.4782139841
21
-65.0461321554
0
LINE
5
47C
100
AcDbEntity
8
0
100
AcDbLine
62
7
6
CONTINUOUS
10
44.5711229841
20
-68.1260691554
11
44.5711229841
21
-66.0760691554
0
LINE
5
47D
100
AcDbEntity
8
0
100
AcDbLine
62
7
6
CONTINUOUS
10
44.7446404820
20
58.8031803425
11
44.7446404820
21
-57.0553186534
0
LINE
5
47E
100
AcDbEntity
8
0
100
AcDbLine
62
7
6
CONTINUOUS
10
44.8480719841
20
-66.3130371554
11
44.8480719841
21
-67.8891011554
0
LINE
5
47F
100
AcDbEntity
8
0
100
AcDbLine
62
7
6
CONTINUOUS
10
45.1721219841
20
-62.9961321554
11
45.1721219841
21
-63.2416791554
0
LINE
5
480
100
AcDbEntity
8
0
100
AcDbLine
62
7
6
CONTINUOUS
10
45.4604009841
20
-65.0461321554
11
45.4604009841
21
-64.7434481554
0
LINE
5
481
100
AcDbEntity
8
0
100
AcDbLine
62
7
6
CONTINUOUS
10
45.7574199841
20
-64.7434481554
11
45.7574199841
21
-65.0461321554
0
LINE
5
482
100
AcDbEntity
8
0
100
AcDbLine
62
7
6
CONTINUOUS
10
46.6494489841
20
-68.1260691554
11
46.6494489841
21
-67.8233841554
0
LINE
5
483
100
AcDbEntity
8
0
100
AcDbLine
62
7
6
CONTINUOUS
10
46.9464689841
20
-67.8233841554
11
46.9464689841
21
-68.1260691554
0
LINE
5
484
100
AcDbEntity
8
0
100
AcDbLine
62
9
6
CONTINUOUS
10
47.3153909841
20
-34.6260691585
11
47.3153909841
21
36.3739308476
0
LINE
5
485
100
AcDbEntity
8
0
100
AcDbLine
62
7
6
CONTINUOUS
10
49.7361129841
20
64.1739308446
11
49.7361129841
21
68.1726808446
0
LINE
5
486
100
AcDbEntity
8
0
100
AcDbLine
62
7
6
CONTINUOUS
10
49.8153909841
20
-62.6260691554
11
49.8153909841
21
-68.1260691554
0
LINE
5
487
100
AcDbEntity
8
0
100
AcDbLine
62
7
6
CONTINUOUS
10
50.4332789841
20
66.9673448446
11
50.4235909841
21
64.1739308446
0
LINE
5
488
100
AcDbEntity
8
0
100
AcDbLine
62
7
6
CONTINUOUS
10
56.3199939837
20
49.8180310721
11
56.3653909841
21
50.0239308446
0
LINE
5
489
100
AcDbEntity
8
0
100
AcDbLine
62
7
6
CONTINUOUS
10
30.3199939837
20
-70.4819689279
11
30.3653909841
21
-70.2760691554
0
LINE
5
48A
100
AcDbEntity
8
0
100
AcDbLine
62
7
6
CONTINUOUS
10
58.3107879844
20
55.9298306170
11
58.2653909841
21
55.7239308446
0
LINE
5
48B
100
AcDbEntity
8
0
100
AcDbLine
62
7
6
CONTINUOUS
10
32.3107879844
20
-64.3701693830
11
32.2653909841
21
-64.5760691554
0
LINE
5
48C
100
AcDbEntity
8
0
100
AcDbLine
62
7
6
CONTINUOUS
10
-57.1304421983
20
-64.9239414916
11
-57.0116921983
21
-64.8835159646
0
LINE
5
48D
100
AcDbEntity
8
0
100
AcDbLine
62
7
6
CONTINUOUS
10
-55.4283590159
20
-64.9239414916
11
-55.3096090159
21
-64.8835159646
0
LINE
5
48E
100
AcDbEntity
8
0
100
AcDbLine
62
7
6
CONTINUOUS
10
-59.4346090159
20
48.8739308446
11
-55.9346090159
21
48.8739308446
0
LINE
5
48F
100
AcDbEntity
8
0
100
AcDbLine
62
7
6
CONTINUOUS
10
55.5653909841
20
48.8739308446
11
59.0653909841
21
48.8739308446
0
LINE
5
490
100
AcDbEntity
8
0
100
AcDbLine
62
7
6
CONTINUOUS
10
70.4495194402
20
49.3739308446
11
68.6489383025
21
49.3739308446
0
LINE
5
491
100
AcDbEntity
8
0
100
AcDbLine
62
7
6
CONTINUOUS
10
-69.0181563344
20
49.3739308446
11
-70.8187374720
21
49.3739308446
0
LINE
5
492
100
AcDbEntity
8
0
100
AcDbLine
62
7
6
CONTINUOUS
10
58.3107879844
20
49.8180310721
11
56.3199939837
21
49.8180310721
0
LINE
5
493
100
AcDbEntity
8
0
100
AcDbLine
62
7
6
CONTINUOUS
10
-56.6892120156
20
49.8180310721
11
-58.6800060163
21
49.8180310721
0
LINE
5
494
100
AcDbEntity
8
0
100
AcDbLine
62
7
6
CONTINUOUS
10
58.2653909841
20
50.0239308446
11
56.3653909841
21
50.0239308446
0
LINE
5
495
100
AcDbEntity
8
0
100
AcDbLine
62
7
6
CONTINUOUS
10
-56.7346090159
20
50.0239308446
11
-58.6346090159
21
50.0239308446
0
LINE
5
496
100
AcDbEntity
8
0
100
AcDbLine
62
7
6
CONTINUOUS
10
56.3199939837
20
-48.0701693830
11
56.3653909841
21
-48.2760691554
0
LINE
5
497
100
AcDbEntity
8
0
100
AcDbLine
62
7
6
CONTINUOUS
10
30.3199939837
20
72.2298306170
11
30.3653909841
21
72.0239308446
0
LINE
5
498
100
AcDbEntity
8
0
100
AcDbLine
62
7
6
CONTINUOUS
10
58.3107879844
20
-54.1819689279
11
58.2653909841
21
-53.9760691554
0
LINE
5
499
100
AcDbEntity
8
0
100
AcDbLine
62
7
6
CONTINUOUS
10
32.3107879844
20
66.1180310721
11
32.2653909841
21
66.3239308446
0
LINE
5
49A
100
AcDbEntity
8
0
100
AcDbLine
62
7
6
CONTINUOUS
10
52.2778899841
20
65.3484408446
11
52.2779049841
21
68.1726808446
0
LINE
5
49B
100
AcDbEntity
8
0
100
AcDbLine
62
7
6
CONTINUOUS
10
52.9653909841
20
68.1726808446
11
52.9653909841
21
64.1739308446
0
LINE
5
49C
100
AcDbEntity
8
0
100
AcDbLine
62
7
6
CONTINUOUS
10
54.9478369839
20
-9.5780321556
11
54.9478369839
21
-10.3288491556
0
LINE
5
49D
100
AcDbEntity
8
0
100
AcDbLine
62
7
6
CONTINUOUS
10
54.9478369839
20
-13.9232891556
11
54.9478369839
21
-14.6741061556
0
LINE
5
49E
100
AcDbEntity
8
0
100
AcDbLine
62
7
6
CONTINUOUS
10
55.5653909841
20
56.8739308446
11
55.5653909841
21
48.8739308446
0
LINE
5
49F
100
AcDbEntity
8
0
100
AcDbLine
62
7
6
CONTINUOUS
10
55.5653909841
20
4.8739308446
11
55.5653909841
21
-3.1260691554
0
LINE
5
4A0
100
AcDbEntity
8
0
100
AcDbLine
62
7
6
CONTINUOUS
10
55.5653909841
20
-47.1260691554
11
55.5653909841
21
-55.1260691554
0
LINE
5
4A1
100
AcDbEntity
8
0
100
AcDbLine
62
7
6
CONTINUOUS
10
56.3199939837
20
-54.1819689279
11
56.3199939837
21
-48.0701693830
0
LINE
5
4A2
100
AcDbEntity
8
0
100
AcDbLine
62
7
6
CONTINUOUS
10
56.3199939837
20
-2.1819689279
11
56.3199939837
21
3.9298306170
0
LINE
5
4A3
100
AcDbEntity
8
0
100
AcDbLine
62
7
6
CONTINUOUS
10
56.3199939837
20
49.8180310721
11
56.3199939837
21
55.9298306170
0
LINE
5
4A4
100
AcDbEntity
8
0
100
AcDbLine
62
7
6
CONTINUOUS
10
56.3653909841
20
-53.9760691554
11
56.3653909841
21
-48.2760691554
0
LINE
5
4A5
100
AcDbEntity
8
0
100
AcDbLine
62
7
6
CONTINUOUS
10
56.3653909841
20
-1.9760691554
11
56.3653909841
21
3.7239308446
0
LINE
5
4A6
100
AcDbEntity
8
0
100
AcDbLine
62
7
6
CONTINUOUS
10
56.3653909841
20
50.0239308446
11
56.3653909841
21
55.7239308446
0
LINE
5
4A7
100
AcDbEntity
8
0
100
AcDbLine
62
7
6
CONTINUOUS
10
56.3199939837
20
-2.1819689279
11
56.3653909841
21
-1.9760691554
0
LINE
5
4A8
100
AcDbEntity
8
0
100
AcDbLine
62
7
6
CONTINUOUS
10
58.3107879844
20
3.9298306170
11
58.2653909841
21
3.7239308446
0
LINE
5
4A9
100
AcDbEntity
8
0
100
AcDbLine
62
7
6
CONTINUOUS
10
-58.6346090159
20
55.7239308446
11
-56.7346090159
21
55.7239308446
0
LINE
5
4AA
100
AcDbEntity
8
0
100
AcDbLine
62
7
6
CONTINUOUS
10
56.3653909841
20
55.7239308446
11
58.2653909841
21
55.7239308446
0
LINE
5
4AB
100
AcDbEntity
8
0
100
AcDbLine
62
7
6
CONTINUOUS
10
-58.6800060163
20
55.9298306170
11
-56.6892120156
21
55.9298306170
0
LINE
5
4AC
100
AcDbEntity
8
0
100
AcDbLine
62
7
6
CONTINUOUS
10
56.3199939837
20
55.9298306170
11
58.3107879844
21
55.9298306170
0
LINE
5
4AD
100
AcDbEntity
8
0
100
AcDbLine
62
7
6
CONTINUOUS
10
70.2588725359
20
56.3739308446
11
68.4581114273
21
56.3739308446
0
LINE
5
4AE
100
AcDbEntity
8
0
100
AcDbLine
62
7
6
CONTINUOUS
10
-68.8273294592
20
56.3739308446
11
-70.6280905678
21
56.3739308446
0
LINE
5
4AF
100
AcDbEntity
8
0
100
AcDbLine
62
7
6
CONTINUOUS
10
59.0653909841
20
56.8739308446
11
55.5653909841
21
56.8739308446
0
LINE
5
4B0
100
AcDbEntity
8
0
100
AcDbLine
62
7
6
CONTINUOUS
10
-55.9346090159
20
56.8739308446
11
-59.4346090159
21
56.8739308446
0
LINE
5
4B1
100
AcDbEntity
8
0
100
AcDbLine
62
7
6
CONTINUOUS
10
-45.1138585139
20
58.8031803425
11
44.7446404820
21
58.8031803425
0
LINE
5
4B2
100
AcDbEntity
8
0
100
AcDbLine
62
7
6
CONTINUOUS
10
56.3199939837
20
3.9298306170
11
56.3653909841
21
3.7239308446
0
LINE
5
4B3
100
AcDbEntity
8
0
100
AcDbLine
62
7
6
CONTINUOUS
10
58.3107879844
20
-2.1819689279
11
58.2653909841
21
-1.9760691554
0
LINE
5
4B4
100
AcDbEntity
8
0
100
AcDbLine
62
7
6
CONTINUOUS
10
58.2653909841
20
55.7239308446
11
58.2653909841
21
50.0239308446
0
LINE
5
4B5
100
AcDbEntity
8
0
100
AcDbLine
62
7
6
CONTINUOUS
10
58.2653909841
20
3.7239308446
11
58.2653909841
21
-1.9760691554
0
LINE
5
4B6
100
AcDbEntity
8
0
100
AcDbLine
62
7
6
CONTINUOUS
10
58.2653909841
20
-48.2760691554
11
58.2653909841
21
-53.9760691554
0
LINE
5
4B7
100
AcDbEntity
8
0
100
AcDbLine
62
7
6
CONTINUOUS
10
58.3107879844
20
55.9298306170
11
58.3107879844
21
49.8180310721
0
LINE
5
4B8
100
AcDbEntity
8
0
100
AcDbLine
62
7
6
CONTINUOUS
10
58.3107879844
20
3.9298306170
11
58.3107879844
21
-2.1819689279
0
LINE
5
4B9
100
AcDbEntity
8
0
100
AcDbLine
62
7
6
CONTINUOUS
10
58.3107879844
20
-48.0701693830
11
58.3107879844
21
-54.1819689279
0
LINE
5
4BA
100
AcDbEntity
8
0
100
AcDbLine
62
7
6
CONTINUOUS
10
58.9329469839
20
-11.7510691556
11
58.9329469839
21
-12.5010691556
0
LINE
5
4BB
100
AcDbEntity
8
0
100
AcDbLine
62
7
6
CONTINUOUS
10
59.0653909841
20
-55.1260691554
11
59.0653909841
21
-47.1260691554
0
LINE
5
4BC
100
AcDbEntity
8
0
100
AcDbLine
62
7
6
CONTINUOUS
10
59.0653909841
20
-3.1260691554
11
59.0653909841
21
4.8739308446
0
LINE
5
4BD
100
AcDbEntity
8
0
100
AcDbLine
62
7
6
CONTINUOUS
10
59.0653909841
20
48.8739308446
11
59.0653909841
21
56.8739308446
0
LINE
5
4BE
100
AcDbEntity
8
0
100
AcDbLine
62
7
6
CONTINUOUS
10
59.3329469839
20
-9.5780320378
11
59.3329469839
21
-10.3288491556
0
LINE
5
4BF
100
AcDbEntity
8
0
100
AcDbLine
62
7
6
CONTINUOUS
10
59.3329469839
20
-13.9232861071
11
59.3329469839
21
-14.6741062733
0
LINE
5
4C0
100
AcDbEntity
8
0
100
AcDbLine
62
7
6
CONTINUOUS
10
42.1028679841
20
-64.4495041554
11
41.8887229841
21
-65.0461321554
0
LINE
5
4C1
100
AcDbEntity
8
0
100
AcDbLine
62
7
6
CONTINUOUS
10
42.5198629841
20
-63.2936311554
11
42.1884939841
21
-64.2039571554
0
LINE
5
4C2
100
AcDbEntity
8
0
100
AcDbLine
62
7
6
CONTINUOUS
10
41.6031959841
20
-65.0461321554
11
42.3741509841
21
-62.9961321554
0
LINE
5
4C3
100
AcDbEntity
8
0
100
AcDbLine
62
9
6
CONTINUOUS
10
-56.2630421942
20
60.8353493054
11
-47.2570738709
21
60.8354601616
0
LINE
5
4C4
100
AcDbEntity
8
0
100
AcDbLine
62
9
6
CONTINUOUS
10
55.8938360608
20
60.8353492994
11
46.8878558391
21
60.8354601616
0
LINE
5
4C5
100
AcDbEntity
8
0
100
AcDbLine
62
7
6
CONTINUOUS
10
-40.0176190159
20
64.1739408446
11
-40.8176590159
21
64.1739508446
0
LINE
5
4C6
100
AcDbEntity
8
0
100
AcDbLine
62
7
6
CONTINUOUS
10
52.9653909841
20
64.1739308446
11
52.2517929841
21
64.1739308446
0
LINE
5
4C7
100
AcDbEntity
8
0
100
AcDbLine
62
7
6
CONTINUOUS
10
50.4235909841
20
64.1739308446
11
49.7361129841
21
64.1739308446
0
LINE
5
4C8
100
AcDbEntity
8
0
100
AcDbLine
62
7
6
CONTINUOUS
10
45.1811799841
20
64.1739308446
11
44.2828309841
21
64.1739308446
0
LINE
5
4C9
100
AcDbEntity
8
0
100
AcDbLine
62
7
6
CONTINUOUS
10
42.4414579841
20
64.1739308446
11
41.7273239841
21
64.1739308446
0
LINE
5
4CA
100
AcDbEntity
8
0
100
AcDbLine
62
7
6
CONTINUOUS
10
40.8780389841
20
64.1739308446
11
40.1638759841
21
64.1739308446
0
LINE
5
4CB
100
AcDbEntity
8
0
100
AcDbLine
62
7
6
CONTINUOUS
10
39.3050169841
20
64.1739308446
11
36.4628489841
21
64.1739308446
0
LINE
5
4CC
100
AcDbEntity
8
0
100
AcDbLine
62
7
6
CONTINUOUS
10
-43.9196790159
20
64.1739408446
11
-44.7197090159
21
64.1739408446
0
LINE
5
4CD
100
AcDbEntity
8
0
100
AcDbLine
62
7
6
CONTINUOUS
10
-47.0324890159
20
64.1739408446
11
-47.8325190159
21
64.1739408446
0
LINE
5
4CE
100
AcDbEntity
8
0
100
AcDbLine
62
7
6
CONTINUOUS
10
-38.6842290159
20
64.1739508446
11
-39.4842690159
21
64.1739508446
0
LINE
5
4CF
100
AcDbEntity
8
0
100
AcDbLine
62
7
6
CONTINUOUS
10
-36.2830490159
20
64.1739608446
11
-37.1841590159
21
64.1739508446
0
LINE
5
4D0
100
AcDbEntity
8
0
100
AcDbLine
62
7
6
CONTINUOUS
10
-42.5862990159
20
64.1739508446
11
-43.3863290159
21
64.1739408446
0
LINE
5
4D1
100
AcDbEntity
8
0
100
AcDbLine
62
7
6
CONTINUOUS
10
-45.4760990159
20
64.1739508446
11
-46.2761090159
21
64.1739408446
0
LINE
5
4D2
100
AcDbEntity
8
0
100
AcDbLine
62
7
6
CONTINUOUS
10
-48.6325290159
20
64.1739408446
11
-49.4325590159
21
64.1739308446
0
LINE
5
4D3
100
AcDbEntity
8
0
100
AcDbLine
62
7
6
CONTINUOUS
10
-51.2502290159
20
64.1739408446
11
-52.0502890159
21
64.1739308446
0
LINE
5
4D4
100
AcDbEntity
8
0
100
AcDbLine
62
7
6
CONTINUOUS
10
37.1769699841
20
64.8085568446
11
39.3050169841
21
64.8085788446
0
LINE
5
4D5
100
AcDbEntity
8
0
100
AcDbLine
62
7
6
CONTINUOUS
10
-41.0702190159
20
64.9606108446
11
-42.3337290159
21
64.9606108446
0
LINE
5
4D6
100
AcDbEntity
8
0
100
AcDbLine
62
7
6
CONTINUOUS
10
29.5653909841
20
65.1739308446
11
33.0653909841
21
65.1739308446
0
LINE
5
4D7
100
AcDbEntity
8
0
100
AcDbLine
62
7
6
CONTINUOUS
10
-29.9346090159
20
65.1739308446
11
-33.4346090159
21
65.1739308446
0
LINE
5
4D8
100
AcDbEntity
8
0
100
AcDbLine
62
7
6
CONTINUOUS
10
-37.9858890159
20
65.7206408446
11
-38.6841390159
21
65.7206508446
0
LINE
5
4D9
100
AcDbEntity
8
0
100
AcDbLine
62
7
6
CONTINUOUS
10
-42.0896990159
20
65.7206408446
11
-41.3142590159
21
65.7206408446
0
LINE
5
4DA
100
AcDbEntity
8
0
100
AcDbLine
62
7
6
CONTINUOUS
10
39.1456529841
20
65.9090618446
11
37.1769699841
21
65.9090478446
0
LINE
5
4DB
100
AcDbEntity
8
0
100
AcDbLine
62
7
6
CONTINUOUS
10
32.3107879844
20
66.1180310721
11
30.3199939837
21
66.1180310721
0
LINE
5
4DC
100
AcDbEntity
8
0
100
AcDbLine
62
7
6
CONTINUOUS
10
-30.6892120156
20
66.1180310721
11
-32.6800060163
21
66.1180310721
0
LINE
5
4DD
100
AcDbEntity
8
0
100
AcDbLine
62
7
6
CONTINUOUS
10
66.7221549265
20
65.9914714739
11
66.9881921956
21
60.8375861195
0
LINE
5
4DE
100
AcDbEntity
8
0
100
AcDbLine
62
7
6
CONTINUOUS
10
66.9882326637
20
-59.0897245111
11
66.7221549277
21
-64.2436097875
0
LINE
5
4DF
100
AcDbEntity
8
0
100
AcDbLine
62
7
6
CONTINUOUS
10
56.3199939837
20
-54.1819689279
11
56.3653909841
21
-53.9760691554
0
LINE
5
4E0
100
AcDbEntity
8
0
100
AcDbLine
62
7
6
CONTINUOUS
10
58.3107879844
20
-48.0701693830
11
58.2653909841
21
-48.2760691554
0
LINE
5
4E1
100
AcDbEntity
8
0
100
AcDbLine
62
7
6
CONTINUOUS
10
33.0653909841
20
-63.4260691554
11
33.1974667346
21
-63.2939934049
0
LINE
5
4E2
100
AcDbEntity
8
0
100
AcDbLine
62
7
6
CONTINUOUS
10
32.2653909841
20
66.3239308446
11
30.3653909841
21
66.3239308446
0
LINE
5
4E3
100
AcDbEntity
8
0
100
AcDbLine
62
7
6
CONTINUOUS
10
-30.7346090159
20
66.3239308446
11
-32.6346090159
21
66.3239308446
0
LINE
5
4E4
100
AcDbEntity
8
0
100
AcDbLine
62
7
6
CONTINUOUS
10
-38.6952590159
20
66.4606808446
11
-37.7219120159
21
66.4606808446
0
LINE
5
4E5
100
AcDbEntity
8
0
100
AcDbLine
62
7
6
CONTINUOUS
10
37.1769699841
20
66.5437368446
11
39.1456529841
21
66.5437228446
0
LINE
5
4E6
100
AcDbEntity
8
0
100
AcDbLine
62
7
6
CONTINUOUS
10
-37.7219120159
20
67.4341008446
11
-38.6952690159
21
67.4341008446
0
LINE
5
4E7
100
AcDbEntity
8
0
100
AcDbLine
62
7
6
CONTINUOUS
10
39.2889449841
20
67.5380328446
11
37.1769699841
21
67.5380408446
0
LINE
5
4E8
100
AcDbEntity
8
0
100
AcDbLine
62
7
6
CONTINUOUS
10
36.4628489841
20
68.1726808446
11
39.2889449841
21
68.1726808446
0
LINE
5
4E9
100
AcDbEntity
8
0
100
AcDbLine
62
7
6
CONTINUOUS
10
40.1638759841
20
68.1726808446
11
40.8780389841
21
68.1726808446
0
LINE
5
4EA
100
AcDbEntity
8
0
100
AcDbLine
62
7
6
CONTINUOUS
10
41.7273239841
20
68.1726808446
11
42.4414579841
21
68.1726808446
0
LINE
5
4EB
100
AcDbEntity
8
0
100
AcDbLine
62
7
6
CONTINUOUS
10
44.2142169841
20
68.1726808446
11
45.1717539841
21
68.1726808446
0
LINE
5
4EC
100
AcDbEntity
8
0
100
AcDbLine
62
7
6
CONTINUOUS
10
49.7361129841
20
68.1726808446
11
50.4338929841
21
68.1726808446
0
LINE
5
4ED
100
AcDbEntity
8
0
100
AcDbLine
62
7
6
CONTINUOUS
10
52.2779049841
20
68.1726808446
11
52.9653909841
21
68.1726808446
0
LINE
5
4EE
100
AcDbEntity
8
0
100
AcDbLine
62
7
6
CONTINUOUS
10
-53.3346090159
20
68.1741208446
11
-52.5345690159
21
68.1741208446
0
LINE
5
4EF
100
AcDbEntity
8
0
100
AcDbLine
62
7
6
CONTINUOUS
10
-50.7659390159
20
68.1741208446
11
-49.9658990159
21
68.1741208446
0
LINE
5
4F0
100
AcDbEntity
8
0
100
AcDbLine
62
7
6
CONTINUOUS
10
-49.4325490159
20
68.1741208446
11
-48.6325190159
21
68.1741208446
0
LINE
5
4F1
100
AcDbEntity
8
0
100
AcDbLine
62
7
6
CONTINUOUS
10
-47.8325190159
20
68.1741208446
11
-46.6230890159
21
68.1741208446
0
LINE
5
4F2
100
AcDbEntity
8
0
100
AcDbLine
62
7
6
CONTINUOUS
10
-45.1291090159
20
68.1741208446
11
-43.9196790159
21
68.1741208446
0
LINE
5
4F3
100
AcDbEntity
8
0
100
AcDbLine
62
7
6
CONTINUOUS
10
-42.1020190159
20
68.1741308446
11
-41.3019490159
21
68.1741308446
0
LINE
5
4F4
100
AcDbEntity
8
0
100
AcDbLine
62
7
6
CONTINUOUS
10
-39.4842690159
20
68.1741308446
11
-37.6108690159
21
68.1741308446
0
LINE
5
4F5
100
AcDbEntity
8
0
100
AcDbLine
62
7
6
CONTINUOUS
10
-32.6346090159
20
72.0239308446
11
-30.7346090159
21
72.0239308446
0
LINE
5
4F6
100
AcDbEntity
8
0
100
AcDbLine
62
7
6
CONTINUOUS
10
30.3653909841
20
72.0239308446
11
32.2653909841
21
72.0239308446
0
LINE
5
4F7
100
AcDbEntity
8
0
100
AcDbLine
62
7
6
CONTINUOUS
10
-32.6800060163
20
72.2298306170
11
-30.6892120156
21
72.2298306170
0
LINE
5
4F8
100
AcDbEntity
8
0
100
AcDbLine
62
7
6
CONTINUOUS
10
30.3199939837
20
72.2298306170
11
32.3107879844
21
72.2298306170
0
LINE
5
4F9
100
AcDbEntity
8
0
100
AcDbLine
62
7
6
CONTINUOUS
10
33.0653909841
20
65.1739308446
11
33.1974667346
21
65.0418550941
0
LINE
5
4FA
100
AcDbEntity
8
0
100
AcDbLine
62
7
6
CONTINUOUS
10
56.3199939837
20
55.9298306170
11
56.3653909841
21
55.7239308446
0
LINE
5
4FB
100
AcDbEntity
8
0
100
AcDbLine
62
7
6
CONTINUOUS
10
58.3107879844
20
49.8180310721
11
58.2653909841
21
50.0239308446
0
LINE
5
4FC
100
AcDbEntity
8
0
100
AcDbLine
62
7
6
CONTINUOUS
10
59.0653909841
20
-47.1260691554
11
59.1709142989
21
-47.0205458406
0
LINE
5
4FD
100
AcDbEntity
8
0
100
AcDbLine
62
7
6
CONTINUOUS
10
55.5653909841
20
-55.1260691554
11
55.4394501088
21
-55.2520100307
0
LINE
5
4FE
100
AcDbEntity
8
0
100
AcDbLine
62
7
6
CONTINUOUS
10
-58.9270429167
20
71.8015756825
11
-57.9324124152
21
71.8786736519
0
LINE
5
4FF
100
AcDbEntity
8
0
100
AcDbLine
62
7
6
CONTINUOUS
10
-61.5909224299
20
71.6180232587
11
-58.9270429167
21
71.8015756825
0
LINE
5
500
100
AcDbEntity
8
0
100
AcDbLine
62
7
6
CONTINUOUS
10
-57.9324124152
20
71.8786736519
11
-56.2622000746
21
71.9936104857
0
LINE
5
501
100
AcDbEntity
8
0
100
AcDbLine
62
7
6
CONTINUOUS
10
-56.2622000746
20
71.9936104857
11
-47.2604368056
21
72.4059920698
0
LINE
5
502
100
AcDbEntity
8
0
100
AcDbLine
62
7
6
CONTINUOUS
10
46.8912187618
20
72.4059935487
11
55.8908632863
21
71.9937076474
0
LINE
5
503
100
AcDbEntity
8
0
100
AcDbLine
62
7
6
CONTINUOUS
10
55.8908632863
20
71.9937076474
11
57.3038667106
21
71.8986649887
0
LINE
5
504
100
AcDbEntity
8
0
100
AcDbLine
62
7
6
CONTINUOUS
10
58.6131316747
20
71.7973624480
11
61.2217043983
21
71.6180232588
0
LINE
5
505
100
AcDbEntity
8
0
100
AcDbLine
62
7
6
CONTINUOUS
10
57.3038667106
20
71.8986649887
11
58.6131316747
21
71.7973624480
0
LINE
5
506
100
AcDbEntity
8
0
100
AcDbLine
62
7
6
CONTINUOUS
10
59.0653909841
20
48.8739308446
11
59.1709142989
21
48.7684075297
0
LINE
5
507
100
AcDbEntity
8
0
100
AcDbLine
62
7
6
CONTINUOUS
10
55.5653909841
20
56.8739308446
11
55.4394501088
21
56.9998717198
0
LINE
5
508
100
AcDbEntity
8
0
100
AcDbLine
62
7
6
CONTINUOUS
10
43.4519889841
20
66.5272328446
11
45.1811799841
21
64.1739308446
0
LINE
5
509
100
AcDbEntity
8
0
100
AcDbLine
62
7
6
CONTINUOUS
10
44.2828309841
20
64.1739308446
11
42.9521249841
21
66.0360398446
0
LINE
5
50A
100
AcDbEntity
8
0
100
AcDbLine
62
7
6
CONTINUOUS
10
50.4338929841
20
68.1726808446
11
52.2778899841
21
65.3484408446
0
LINE
5
50B
100
AcDbEntity
8
0
100
AcDbLine
62
7
6
CONTINUOUS
10
52.2517929841
20
64.1739308446
11
50.4332789841
21
66.9673448446
0
ARC
5
50C
100
AcDbEntity
8
0
100
AcDbCircle
62
7
6
CONTINUOUS
10
-1799.4248996808
20
0.8739308446
40
1870.5164945546
100
AcDbArc
50
358.5142228565
51
1.4857771435
0
ARC
5
50D
100
AcDbEntity
8
0
100
AcDbCircle
62
7
6
CONTINUOUS
10
1799.0556816489
20
0.8739308446
40
1870.5164945546
100
AcDbArc
50
178.5142228565
51
181.4857771435
0
ARC
5
50E
100
AcDbEntity
8
0
100
AcDbCircle
62
7
6
CONTINUOUS
10
-0.1846090159
20
-1119.2420106454
40
1195.6421453807
100
AcDbArc
50
87.7383563777
51
92.2616436223
0
ARC
5
50F
100
AcDbEntity
8
0
100
AcDbCircle
62
7
6
CONTINUOUS
10
-0.1846090159
20
1120.9898723345
40
1195.6421453807
100
AcDbArc
50
267.7383563777
51
272.2616436223
0
ARC
5
510
100
AcDbEntity
8
0
100
AcDbCircle
62
7
6
CONTINUOUS
10
-1838.9346090159
20
0.8739308446
40
1908.2000000000
100
AcDbArc
50
358.5435779349
51
1.4564220651
0
ARC
5
511
100
AcDbEntity
8
0
100
AcDbCircle
62
7
6
CONTINUOUS
10
1838.5653909841
20
0.8739308446
40
1908.2000000000
100
AcDbArc
50
178.5435779349
51
181.4564220651
0
ARC
5
512
100
AcDbEntity
8
0
100
AcDbCircle
62
7
6
CONTINUOUS
10
60.9553264304
20
-64.0816939278
40
9.0000000000
100
AcDbArc
50
272.8939307673
51
358.0418686302
0
ARC
5
513
100
AcDbEntity
8
0
100
AcDbCircle
62
7
6
CONTINUOUS
10
-0.1846090159
20
1145.3739308446
40
1220.0000000000
100
AcDbArc
50
267.1060692328
51
272.8939307672
0
ARC
5
514
100
AcDbEntity
8
0
100
AcDbCircle
62
7
6
CONTINUOUS
10
-61.3245444623
20
-64.0816939278
40
9.0000000000
100
AcDbArc
50
181.9581313698
51
267.1060692328
0
ARC
5
515
100
AcDbEntity
8
0
100
AcDbCircle
62
7
6
CONTINUOUS
10
1838.5653909841
20
0.8739308446
40
1908.2000000000
100
AcDbArc
50
181.6666828784
51
181.9581313698
0
ARC
5
516
100
AcDbEntity
8
0
100
AcDbCircle
62
7
6
CONTINUOUS
10
-61.3245444623
20
-64.0816939278
40
7.2000000000
100
AcDbArc
50
181.9581313698
51
267.1060692327
0
ARC
5
517
100
AcDbEntity
8
0
100
AcDbCircle
62
7
6
CONTINUOUS
10
-0.1846090159
20
1145.3739308446
40
1218.2000000000
100
AcDbArc
50
267.1060692327
51
272.8939307673
0
ARC
5
518
100
AcDbEntity
8
0
100
AcDbCircle
62
7
6
CONTINUOUS
10
60.9553264304
20
-64.0816939278
40
7.2000000000
100
AcDbArc
50
272.8939307673
51
358.0418686302
0
ARC
5
519
100
AcDbEntity
8
0
100
AcDbCircle
62
7
6
CONTINUOUS
10
-1838.9346090159
20
0.8739308446
40
1908.2000000000
100
AcDbArc
50
358.0418686302
51
358.3333171216
0
ARC
5
51A
100
AcDbEntity
8
0
100
AcDbCircle
62
7
6
CONTINUOUS
10
-1838.9346090159
20
0.8739308446
40
1908.2000000000
100
AcDbArc
50
1.6666828784
51
1.9581313698
0
ARC
5
51B
100
AcDbEntity
8
0
100
AcDbCircle
62
7
6
CONTINUOUS
10
60.9553264304
20
65.8295556170
40
7.2000000000
100
AcDbArc
50
1.9581313698
51
87.1060692327
0
ARC
5
51C
100
AcDbEntity
8
0
100
AcDbCircle
62
7
6
CONTINUOUS
10
-0.1846090159
20
-1143.6260691554
40
1218.2000000000
100
AcDbArc
50
87.1060692327
51
92.8939307672
0
ARC
5
51D
100
AcDbEntity
8
0
100
AcDbCircle
62
7
6
CONTINUOUS
10
-61.3245444623
20
65.8295556170
40
7.2000000000
100
AcDbArc
50
92.8939307672
51
178.0418686302
0
ARC
5
51E
100
AcDbEntity
8
0
100
AcDbCircle
62
7
6
CONTINUOUS
10
1838.5653909841
20
0.8739308446
40
1908.2000000000
100
AcDbArc
50
178.0418686302
51
178.3333171216
0
ARC
5
51F
100
AcDbEntity
8
0
100
AcDbCircle
62
7
6
CONTINUOUS
10
-61.3245444623
20
65.8295556170
40
9.0000000000
100
AcDbArc
50
92.8939307673
51
178.0418686302
0
ARC
5
520
100
AcDbEntity
8
0
100
AcDbCircle
62
7
6
CONTINUOUS
10
-0.1846090159
20
-1143.6260691554
40
1220.0000000000
100
AcDbArc
50
87.1060692327
51
92.8939307672
0
ARC
5
521
100
AcDbEntity
8
0
100
AcDbCircle
62
7
6
CONTINUOUS
10
60.9553264304
20
65.8295556170
40
9.0000000000
100
AcDbArc
50
1.9581313698
51
87.1060692327
0
ARC
5
522
100
AcDbEntity
8
0
100
AcDbCircle
62
7
6
CONTINUOUS
10
-1838.9346090159
20
0.8739308446
40
1910.0000000000
100
AcDbArc
50
358.0418686302
51
1.9581313698
0
ARC
5
523
100
AcDbEntity
8
0
100
AcDbCircle
62
7
6
CONTINUOUS
10
1838.5653909841
20
0.8739308446
40
1910.0000000000
100
AcDbArc
50
178.0418686302
51
181.9581313698
0
ARC
5
524
100
AcDbEntity
8
0
100
AcDbCircle
62
7
6
CONTINUOUS
10
36.8153909841
20
-62.6260691554
40
1.0000000000
100
AcDbArc
50
90.0000000000
51
180.0000000000
0
ARC
5
525
100
AcDbEntity
8
0
100
AcDbCircle
62
7
6
CONTINUOUS
10
36.8153909841
20
-68.1260691554
40
1.0000000000
100
AcDbArc
50
180.0000000000
51
270.0000000000
0
ARC
5
526
100
AcDbEntity
8
0
100
AcDbCircle
62
7
6
CONTINUOUS
10
48.8153909841
20
-62.6260691554
40
1.0000000000
100
AcDbArc
50
0.0000000000
51
90.0000000000
0
ARC
5
527
100
AcDbEntity
8
0
100
AcDbCircle
62
7
6
CONTINUOUS
10
48.8153909841
20
-68.1260691554
40
1.0000000000
100
AcDbArc
50
270.0000000000
51
360.0000000000
0
CIRCLE
5
528
100
AcDbEntity
8
0
100
AcDbCircle
62
7
6
CONTINUOUS
10
55.8153909841
20
-12.1260691554
40
5.0000000000
0
ARC
5
529
100
AcDbEntity
8
0
100
AcDbCircle
62
7
6
CONTINUOUS
10
54.8478369839
20
-12.1260691556
40
1.7999999246
100
AcDbArc
50
86.8152613297
51
273.1847386703
0
ARC
5
52A
100
AcDbEntity
8
0
100
AcDbCircle
62
7
6
CONTINUOUS
10
54.8478369839
20
-12.1260691556
40
2.5499985399
100
AcDbArc
50
87.7525290943
51
272.2474709057
0
ARC
5
52B
100
AcDbEntity
8
0
100
AcDbCircle
62
7
6
CONTINUOUS
10
59.2329469839
20
-12.1260691556
40
1.7999968808
100
AcDbArc
50
192.0247203293
51
273.1847440612
0
ARC
5
52C
100
AcDbEntity
8
0
100
AcDbCircle
62
7
6
CONTINUOUS
10
59.2329469839
20
-12.1260691556
40
1.7999999246
100
AcDbArc
50
86.8152613297
51
167.9753003079
0
ARC
5
52D
100
AcDbEntity
8
0
100
AcDbCircle
62
7
6
CONTINUOUS
10
59.2329469839
20
-12.1260691556
40
2.5499986575
100
AcDbArc
50
87.7525291980
51
272.2474708020
0
ARC
5
52E
100
AcDbEntity
8
0
100
AcDbCircle
62
7
6
CONTINUOUS
10
-43.7878940159
20
-63.8962081554
40
0.6132210000
100
AcDbArc
50
270.0000000000
51
359.8987209722
0
ARC
5
52F
100
AcDbEntity
8
0
100
AcDbCircle
62
7
6
CONTINUOUS
10
-43.7878940159
20
-63.5482551554
40
0.6140758565
100
AcDbArc
50
359.8592106564
51
90.0000000000
0
ARC
5
530
100
AcDbEntity
8
0
100
AcDbCircle
62
7
6
CONTINUOUS
10
-43.7505810159
20
-63.5544981554
40
0.8571731888
100
AcDbArc
50
359.5784713959
51
90.0000000000
0
ARC
5
531
100
AcDbEntity
8
0
100
AcDbCircle
62
7
6
CONTINUOUS
10
-43.7505810159
20
-63.8916011554
40
0.8546840000
100
AcDbArc
50
270.0000000000
51
359.5784713959
0
ARC
5
532
100
AcDbEntity
8
0
100
AcDbCircle
62
7
6
CONTINUOUS
10
-49.1846090159
20
-62.6260691554
40
1.0000000000
100
AcDbArc
50
90.0000000000
51
180.0000000000
0
ARC
5
533
100
AcDbEntity
8
0
100
AcDbCircle
62
7
6
CONTINUOUS
10
-49.1846090159
20
-68.1260691554
40
1.0000000000
100
AcDbArc
50
180.0000000000
51
270.0000000000
0
ARC
5
534
100
AcDbEntity
8
0
100
AcDbCircle
62
7
6
CONTINUOUS
10
-37.7219120159
20
66.9473888446
40
0.4867110000
100
AcDbArc
50
270.0000000000
51
90.0000000000
0
ARC
5
535
100
AcDbEntity
8
0
100
AcDbCircle
62
7
6
CONTINUOUS
10
-37.6108690159
20
66.9473888446
40
1.2267452070
100
AcDbArc
50
292.8428546881
51
90.0000000000
0
ARC
5
536
100
AcDbEntity
8
0
100
AcDbCircle
62
7
6
CONTINUOUS
10
-37.1846090159
20
-68.1260691554
40
1.0000000000
100
AcDbArc
50
270.0000000000
51
360.0000000000
0
ARC
5
537
100
AcDbEntity
8
0
100
AcDbCircle
62
7
6
CONTINUOUS
10
-37.1846090159
20
-62.6260691554
40
1.0000000000
100
AcDbArc
50
0.0000000000
51
90.0000000000
0
SPLINE
5
538
100
AcDbEntity
8
0
100
AcDbSpline
62
7
6
CONTINUOUS
70
0
71
3
72
10
73
6
74
4
42
0.0000001000
43
0.0000001000
44
0.0000000001
12
-47.0658585248
22
-1.8593455004
32
0.0000000000
13
-47.0697518377
23
0.0000000000
33
0.0000000000
40
0.0000000000
40
0.0000000000
40
0.0000000000
40
0.0000000000
40
0.4999998215
40
0.7499999108
40
1.0000000000
40
1.0000000000
40
1.0000000000
40
1.0000000000
10
46.8912149144
20
-70.6580326884
30
0.0000000000
10
39.0469079599
20
-70.9679234945
30
0.0000000000
10
27.2746868596
20
-71.3165945152
30
0.0000000000
10
11.5831213646
20
-71.5494084049
30
0.0000000000
10
3.7378717038
20
-71.5882398793
30
0.0000000000
10
-0.1846090159
20
-71.5882398793
30
0.0000000000
11
46.8912149144
21
-70.6580326884
31
0.0000000000
11
23.3521939508
21
-71.3554578375
31
0.0000000000
11
11.5832553364
21
-71.5300145269
31
0.0000000000
11
-0.1846090159
21
-71.5882398793
31
0.0000000000
0
SPLINE
5
539
100
AcDbEntity
8
0
100
AcDbSpline
62
7
6
CONTINUOUS
70
0
71
3
72
19
73
15
74
13
42
0.0000001000
43
0.0000001000
44
0.0000000001
12
-0.5628592173
22
-8.5608085657
32
0.0000000000
13
-8.5532179871
23
-0.6683680592
33
0.0000000000
40
0.0000000000
40
0.0000000000
40
0.0000000000
40
0.0000000000
40
0.1245844393
40
0.2404483563
40
0.3424434828
40
0.4340693537
40
0.5135929635
40
0.5851428971
40
0.6501402544
40
0.7079807688
40
0.7703153104
40
0.8392787591
40
0.9154429679
40
1.0000000000
40
1.0000000000
40
1.0000000000
40
1.0000000000
10
66.7221549277
20
-64.2436097875
30
0.0000000000
10
66.6987804277
20
-64.5991242991
30
0.0000000000
10
66.6163131181
20
-65.2861417521
30
0.0000000000
10
66.2967344495
20
-66.2181647688
30
0.0000000000
10
65.8854058748
20
-67.0048476659
30
0.0000000000
10
65.4297748058
20
-67.6421721135
30
0.0000000000
10
64.9609136380
20
-68.1557727834
30
0.0000000000
10
64.4981864465
20
-68.5668219253
30
0.0000000000
10
64.0488767545
20
-68.8954405122
30
0.0000000000
10
63.5960639280
20
-69.1710481290
30
0.0000000000
10
63.1112716739
20
-69.4126076094
30
0.0000000000
10
62.5566731150
20
-69.6257991336
30
0.0000000000
10
61.9206360546
20
-69.7969107712
30
0.0000000000
10
61.4627826411
20
-69.8513231635
30
0.0000000000
10
61.2217043985
20
-69.8701615700
30
0.0000000000
11
66.7221549277
21
-64.2436097875
31
0.0000000000
11
66.5752202655
21
-65.3023083386
31
0.0000000000
11
66.2593997951
21
-66.2448335922
31
0.0000000000
11
65.8534092543
21
-67.0199962612
31
0.0000000000
11
65.3966487803
21
-67.6597615907
31
0.0000000000
11
64.9367317724
21
-68.1636960900
31
0.0000000000
11
64.4777855556
21
-68.5713448011
31
0.0000000000
11
64.0277275701
21
-68.9005871063
31
0.0000000000
11
63.6037739678
21
-69.1584789866
31
0.0000000000
11
63.1250046189
21
-69.3967566327
31
0.0000000000
11
62.5727790538
21
-69.6091374471
31
0.0000000000
11
61.9410053799
21
-69.7759886464
31
0.0000000000
11
61.2217043985
21
-69.8701615700
31
0.0000000000
0
SPLINE
5
53A
100
AcDbEntity
8
0
100
AcDbSpline
62
7
6
CONTINUOUS
70
0
71
3
72
8
73
4
74
2
42
0.0000001000
43
0.0000001000
44
0.0000000001
12
-0.4477069215
22
-24.4646500142
32
0.0000000000
13
-0.8099711081
23
-24.4553366280
33
0.0000000000
40
0.0000000000
40
0.0000000000
40
0.0000000000
40
0.0000000000
40
1.0000000000
40
1.0000000000
40
1.0000000000
40
1.0000000000
10
67.6141977135
20
-34.6289647440
30
0.0000000000
10
67.4649620730
20
-42.7838480821
30
0.0000000000
10
67.2553272415
20
-50.9378497252
30
0.0000000000
10
66.9853368721
20
-59.0896286012
30
0.0000000000
11
67.6141977135
21
-34.6289647440
31
0.0000000000
11
66.9853368721
21
-59.0896286012
31
0.0000000000
0
SPLINE
5
53B
100
AcDbEntity
8
0
100
AcDbSpline
62
7
6
CONTINUOUS
70
0
71
3
72
8
73
4
74
2
42
0.0000001000
43
0.0000001000
44
0.0000000001
12
-0.0000180238
22
-35.5045369345
32
0.0000000000
13
-0.6413927769
23
-35.4987430444
33
0.0000000000
40
0.0000000000
40
0.0000000000
40
0.0000000000
40
0.0000000000
40
1.0000000000
40
1.0000000000
40
1.0000000000
40
1.0000000000
10
67.9502093472
20
0.8739308446
30
0.0000000000
10
67.9502033393
20
-10.9609148003
30
0.0000000000
10
67.8338254307
20
-22.7961564114
30
0.0000000000
10
67.6200278384
20
-34.6290707595
30
0.0000000000
11
67.9502093472
21
0.8739308446
31
0.0000000000
11
67.6200278384
21
-34.6290707595
31
0.0000000000
0
SPLINE
5
53C
100
AcDbEntity
8
0
100
AcDbSpline
62
7
6
CONTINUOUS
70
0
71
3
72
8
73
4
74
2
42
0.0000001000
43
0.0000001000
44
0.0000000001
12
0.6413931678
22
-35.4987431512
32
0.0000000000
13
0.0000180257
23
-35.5045370484
33
0.0000000000
40
0.0000000000
40
0.0000000000
40
0.0000000000
40
0.0000000000
40
1.0000000000
40
1.0000000000
40
1.0000000000
40
1.0000000000
10
67.6200359150
20
36.3769325616
30
0.0000000000
10
67.8338336376
20
24.5440181779
30
0.0000000000
10
67.9502115193
20
12.7087765274
30
0.0000000000
10
67.9502175279
20
0.8739308446
30
0.0000000000
11
67.6200359150
21
36.3769325616
31
0.0000000000
11
67.9502175279
21
0.8739308446
31
0.0000000000
0
SPLINE
5
53D
100
AcDbEntity
8
0
100
AcDbSpline
62
7
6
CONTINUOUS
70
0
71
3
72
8
73
4
74
2
42
0.0000001000
43
0.0000001000
44
0.0000000001
12
0.8099711474
22
-24.4553379327
32
0.0000000000
13
0.4477069651
23
-24.4646513190
33
0.0000000000
40
0.0000000000
40
0.0000000000
40
0.0000000000
40
0.0000000000
40
1.0000000000
40
1.0000000000
40
1.0000000000
40
1.0000000000
10
66.9853376649
20
60.8374915763
30
0.0000000000
10
67.2553280474
20
52.6857122654
30
0.0000000000
10
67.4649628927
20
44.5317101873
30
0.0000000000
10
67.6141985477
20
36.3768264143
30
0.0000000000
11
66.9853376649
21
60.8374915763
31
0.0000000000
11
67.6141985477
21
36.3768264143
31
0.0000000000
0
SPLINE
5
53E
100
AcDbEntity
8
0
100
AcDbSpline
62
7
6
CONTINUOUS
70
0
71
3
72
24
73
20
74
18
42
0.0000001000
43
0.0000001000
44
0.0000000001
12
8.5605951688
22
-0.6099250636
32
0.0000000000
13
0.5105253953
23
-8.5670976444
33
0.0000000000
40
0.0000000000
40
0.0000000000
40
0.0000000000
40
0.0000000000
40
0.0630051539
40
0.1206423152
40
0.1730459953
40
0.2202458667
40
0.2638482381
40
0.3034943486
40
0.3406229434
40
0.3818595066
40
0.4270408895
40
0.4766516572
40
0.5297906636
40
0.5894444480
40
0.6562987618
40
0.7291343412
40
0.8100561616
40
0.8999792192
40
1.0000000000
40
1.0000000000
40
1.0000000000
40
1.0000000000
10
61.2217043983
20
71.6180232588
30
0.0000000000
10
61.4014916036
20
71.6052137846
30
0.0000000000
10
61.7453608584
20
71.5690420654
30
0.0000000000
10
62.2299463974
20
71.4640346731
30
0.0000000000
10
62.6607320890
20
71.3330821025
30
0.0000000000
10
63.0430158565
20
71.1848465892
30
0.0000000000
10
63.3816285898
20
71.0274229640
30
0.0000000000
10
63.6849559567
20
70.8639929572
30
0.0000000000
10
63.9731688510
20
70.6879018703
30
0.0000000000
10
64.2645566301
20
70.4875376082
30
0.0000000000
10
64.5716697242
20
70.2481307115
30
0.0000000000
10
64.8877844849
20
69.9662624838
30
0.0000000000
10
65.2120935957
20
69.6330009505
30
0.0000000000
10
65.5407721196
20
69.2371391227
30
0.0000000000
10
65.8654916927
20
68.7673409645
30
0.0000000000
10
66.1717075769
20
68.2140915995
30
0.0000000000
10
66.4392906416
20
67.5688923961
30
0.0000000000
10
66.6490245799
20
66.8198876169
30
0.0000000000
10
66.7051338770
20
66.2771007391
30
0.0000000000
10
66.7221549265
20
65.9914714739
30
0.0000000000
11
61.2217043983
21
71.6180232588
31
0.0000000000
11
61.7590163909
21
71.5573312586
31
0.0000000000
11
62.2427702684
21
71.4540362065
31
0.0000000000
11
62.6730535926
21
71.3231705723
31
0.0000000000
11
63.0508108476
21
71.1769108872
31
0.0000000000
11
63.3901635881
21
71.0192033260
31
0.0000000000
11
63.6897117039
21
70.8578213346
31
0.0000000000
11
63.9616633947
21
70.6917514902
31
0.0000000000
11
64.2532688525
21
70.4912157959
31
0.0000000000
11
64.5590679573
21
70.2527945030
31
0.0000000000
11
64.8768921642
21
69.9694722366
31
0.0000000000
11
65.1948943102
21
69.6425770083
31
0.0000000000
11
65.5219544694
21
69.2486972544
31
0.0000000000
11
65.8480403453
21
68.7766034741
31
0.0000000000
11
66.1504799227
21
68.2295423209
31
0.0000000000
11
66.4169962515
21
67.5882215504
31
0.0000000000
11
66.6208179746
21
66.8438768714
31
0.0000000000
11
66.7221549265
21
65.9914714739
31
0.0000000000
0
SPLINE
5
53F
100
AcDbEntity
8
0
100
AcDbSpline
62
7
6
CONTINUOUS
70
0
71
3
72
10
73
6
74
4
42
0.0000001000
43
0.0000001000
44
0.0000000001
12
47.0697518352
22
0.0000000000
32
0.0000000000
13
47.0658584596
23
-1.8593454894
33
0.0000000000
40
0.0000000000
40
0.0000000000
40
0.0000000000
40
0.0000000000
40
0.2500000894
40
0.5000001788
40
1.0000000000
40
1.0000000000
40
1.0000000000
40
1.0000000000
10
-0.1846090159
20
73.3361025537
30
0.0000000000
10
3.7378717063
20
73.3361025537
30
0.0000000000
10
11.5831213725
20
73.2972710817
30
0.0000000000
10
27.2746868647
20
73.0644571902
30
0.0000000000
10
39.0469079449
20
72.7157861711
30
0.0000000000
10
46.8912148832
20
72.4058953670
30
0.0000000000
11
-0.1846090159
21
73.3361025537
31
0.0000000000
11
11.5832553439
21
73.2778772029
31
0.0000000000
11
23.3521939629
21
73.1033205132
31
0.0000000000
11
46.8912148832
21
72.4058953670
31
0.0000000000
0
SPLINE
5
540
100
AcDbEntity
8
0
100
AcDbSpline
62
7
6
CONTINUOUS
70
0
71
3
72
10
73
6
74
4
42
0.0000001000
43
0.0000001000
44
0.0000000001
12
47.0658585248
22
1.8593455004
32
0.0000000000
13
47.0697518377
23
0.0000000000
33
0.0000000000
40
0.0000000000
40
0.0000000000
40
0.0000000000
40
0.0000000000
40
0.4999998216
40
0.7499999108
40
1.0000000000
40
1.0000000000
40
1.0000000000
40
1.0000000000
10
-47.2604329463
20
72.4058943772
30
0.0000000000
10
-39.4161259918
20
72.7157851834
30
0.0000000000
10
-27.6439048915
20
73.0644562040
30
0.0000000000
10
-11.9523393965
20
73.2972700937
30
0.0000000000
10
-4.1070897357
20
73.3361015681
30
0.0000000000
10
-0.1846090159
20
73.3361015681
30
0.0000000000
11
-47.2604329463
21
72.4058943772
31
0.0000000000
11
-23.7214119827
21
73.1033195264
31
0.0000000000
11
-11.9524733682
21
73.2778762157
31
0.0000000000
11
-0.1846090159
21
73.3361015681
31
0.0000000000
0
SPLINE
5
541
100
AcDbEntity
8
0
100
AcDbSpline
62
7
6
CONTINUOUS
70
0
71
3
72
19
73
15
74
13
42
0.0000001000
43
0.0000001000
44
0.0000000001
12
0.5627781148
22
8.5608134806
32
0.0000000000
13
8.5532182271
23
0.6683596452
33
0.0000000000
40
0.0000000000
40
0.0000000000
40
0.0000000000
40
0.0000000000
40
0.1245841272
40
0.2404651494
40
0.3424737197
40
0.4340910553
40
0.5136093224
40
0.5851540521
40
0.6501480825
40
0.7079869478
40
0.7703206834
40
0.8392828802
40
0.9154453428
40
1.0000000000
40
1.0000000000
40
1.0000000000
40
1.0000000000
10
-67.0913729588
20
65.9914714757
30
0.0000000000
10
-67.0680018854
20
66.3469853009
30
0.0000000000
10
-66.9855238400
20
67.0340502220
30
0.0000000000
10
-66.6659061862
20
67.9661531104
30
0.0000000000
10
-66.2545209719
20
68.7528786561
30
0.0000000000
10
-65.7988676874
20
69.3901849273
30
0.0000000000
10
-65.3300300429
20
69.9037327928
30
0.0000000000
10
-64.8673247573
20
70.3147464707
30
0.0000000000
10
-64.4180344003
20
70.6433419370
30
0.0000000000
10
-63.9652330335
20
70.9189364432
30
0.0000000000
10
-63.4804483403
20
71.1604871949
30
0.0000000000
10
-62.9258585202
20
71.3736709498
30
0.0000000000
10
-62.2898355588
20
71.5447752343
30
0.0000000000
10
-61.8319939082
20
71.5991856184
30
0.0000000000
10
-61.5909224299
20
71.6180232587
30
0.0000000000
11
-67.0913729588
21
65.9914714757
31
0.0000000000
11
-66.9444389391
21
67.0501673607
31
0.0000000000
11
-66.6285603821
21
67.9928278698
31
0.0000000000
11
-66.2224901214
21
68.7680789360
31
0.0000000000
11
-65.7657487556
21
69.4077678868
31
0.0000000000
11
-65.3058493626
21
69.9116563606
31
0.0000000000
11
-64.8469287230
21
70.3192665938
31
0.0000000000
11
-64.3968894694
21
70.6484861162
31
0.0000000000
11
-63.9729454371
21
70.9063664599
31
0.0000000000
11
-63.4941803429
21
71.1446370773
31
0.0000000000
11
-62.9419633515
21
71.3570101818
31
0.0000000000
11
-62.3102033572
21
71.5238543857
31
0.0000000000
11
-61.5909224299
21
71.6180232587
31
0.0000000000
0
SPLINE
5
542
100
AcDbEntity
8
0
100
AcDbSpline
62
7
6
CONTINUOUS
70
0
71
3
72
8
73
4
74
2
42
0.0000001000
43
0.0000001000
44
0.0000000001
12
0.4477069200
22
24.4646499873
32
0.0000000000
13
0.8099711080
23
24.4553366010
33
0.0000000000
40
0.0000000000
40
0.0000000000
40
0.0000000000
40
0.0000000000
40
1.0000000000
40
1.0000000000
40
1.0000000000
40
1.0000000000
10
-67.9834157753
20
36.3768264335
30
0.0000000000
10
-67.8341801353
20
44.5317097626
30
0.0000000000
10
-67.6245453041
20
52.6857113968
30
0.0000000000
10
-67.3545549348
20
60.8374902638
30
0.0000000000
11
-67.9834157753
21
36.3768264335
31
0.0000000000
11
-67.3545549348
21
60.8374902638
31
0.0000000000
0
SPLINE
5
543
100
AcDbEntity
8
0
100
AcDbSpline
62
7
6
CONTINUOUS
70
0
71
3
72
8
73
4
74
2
42
0.0000001000
43
0.0000001000
44
0.0000000001
12
0.0000180238
22
35.5045369344
32
0.0000000000
13
0.6413927770
23
35.4987430443
33
0.0000000000
40
0.0000000000
40
0.0000000000
40
0.0000000000
40
0.0000000000
40
1.0000000000
40
1.0000000000
40
1.0000000000
40
1.0000000000
10
-68.3194273804
20
0.8739308446
30
0.0000000000
10
-68.3194213725
20
12.7087764894
30
0.0000000000
10
-68.2030434639
20
24.5440181005
30
0.0000000000
10
-67.9892458716
20
36.3769324486
30
0.0000000000
11
-68.3194273804
21
0.8739308446
31
0.0000000000
11
-67.9892458716
21
36.3769324486
31
0.0000000000
0
SPLINE
5
544
100
AcDbEntity
8
0
100
AcDbSpline
62
7
6
CONTINUOUS
70
0
71
3
72
8
73
4
74
2
42
0.0000001000
43
0.0000001000
44
0.0000000001
12
-0.6413931679
22
35.4987431513
32
0.0000000000
13
-0.0000180257
23
35.5045370485
33
0.0000000000
40
0.0000000000
40
0.0000000000
40
0.0000000000
40
0.0000000000
40
1.0000000000
40
1.0000000000
40
1.0000000000
40
1.0000000000
10
-67.9892539483
20
-34.6290708726
30
0.0000000000
10
-68.2030516709
20
-22.7961564888
30
0.0000000000
10
-68.3194295526
20
-10.9609148383
30
0.0000000000
10
-68.3194355612
20
0.8739308446
30
0.0000000000
11
-67.9892539483
21
-34.6290708726
31
0.0000000000
11
-68.3194355612
21
0.8739308446
31
0.0000000000
0
SPLINE
5
545
100
AcDbEntity
8
0
100
AcDbSpline
62
7
6
CONTINUOUS
70
0
71
3
72
8
73
4
74
2
42
0.0000001000
43
0.0000001000
44
0.0000000001
12
-0.8099711477
22
24.4553379690
32
0.0000000000
13
-0.4477069669
23
24.4646513553
33
0.0000000000
40
0.0000000000
40
0.0000000000
40
0.0000000000
40
0.0000000000
40
1.0000000000
40
1.0000000000
40
1.0000000000
40
1.0000000000
10
-67.3545556741
20
-59.0896299231
30
0.0000000000
10
-67.6245460567
20
-50.9378506001
30
0.0000000000
10
-67.8341809024
20
-42.7838485100
30
0.0000000000
10
-67.9834165580
20
-34.6289647249
30
0.0000000000
11
-67.3545556741
21
-59.0896299231
31
0.0000000000
11
-67.9834165580
21
-34.6289647249
31
0.0000000000
0
SPLINE
5
546
100
AcDbEntity
8
0
100
AcDbSpline
62
7
6
CONTINUOUS
70
0
71
3
72
24
73
20
74
18
42
0.0000001000
43
0.0000001000
44
0.0000000001
12
-8.5605949812
22
0.6099267481
32
0.0000000000
13
-0.5105296778
23
8.5670973216
33
0.0000000000
40
0.0000000000
40
0.0000000000
40
0.0000000000
40
0.0000000000
40
0.0630054390
40
0.1206426578
40
0.1730462217
40
0.2202458404
40
0.2638478568
40
0.3034935235
40
0.3406213726
40
0.3818574243
40
0.4270384653
40
0.4766487260
40
0.5297873300
40
0.5894410138
40
0.6562953105
40
0.7291310044
40
0.8100535755
40
0.8999778189
40
1.0000000000
40
1.0000000000
40
1.0000000000
40
1.0000000000
10
-61.5909224296
20
-69.8701615695
30
0.0000000000
10
-61.7707104445
20
-69.8573520019
30
0.0000000000
10
-62.1145806744
20
-69.8211801463
30
0.0000000000
10
-62.5991667912
20
-69.7161723616
30
0.0000000000
10
-63.0299515700
20
-69.5852198761
30
0.0000000000
10
-63.4122333731
20
-69.4369850485
30
0.0000000000
10
-63.7508434213
20
-69.2795628051
30
0.0000000000
10
-64.0541670301
20
-69.1161351557
30
0.0000000000
10
-64.3423760485
20
-68.9400470807
30
0.0000000000
10
-64.6337605712
20
-68.7396861734
30
0.0000000000
10
-64.9408713169
20
-68.5002826091
30
0.0000000000
10
-65.2569844664
20
-68.2184179736
30
0.0000000000
10
-65.5812929844
20
-67.8851599121
30
0.0000000000
10
-65.9099724316
20
-67.4893007966
30
0.0000000000
10
-66.2346942798
20
-67.0195042292
30
0.0000000000
10
-66.5409140294
20
-66.4662542283
30
0.0000000000
10
-66.8085021404
20
-65.8210507376
30
0.0000000000
10
-67.0182410282
20
-65.0720373188
30
0.0000000000
10
-67.0743515302
20
-64.5292430426
30
0.0000000000
10
-67.0913729608
20
-64.2436097893
30
0.0000000000
11
-61.5909224296
21
-69.8701615695
31
0.0000000000
11
-62.1282368350
21
-69.8094691677
31
0.0000000000
11
-62.6119911410
21
-69.7061737756
31
0.0000000000
11
-63.0422734510
21
-69.5753082490
31
0.0000000000
11
-63.4200286574
21
-69.4290492881
31
0.0000000000
11
-63.7593786808
21
-69.2713431161
31
0.0000000000
11
-64.0589235772
21
-69.1099631857
31
0.0000000000
11
-64.3308700780
21
-68.9438971263
31
0.0000000000
11
-64.6224724291
21
-68.7433646670
31
0.0000000000
11
-64.9282699556
21
-68.5049461262
31
0.0000000000
11
-65.2460919739
21
-68.2216279482
31
0.0000000000
11
-65.5640931255
21
-67.8947365761
31
0.0000000000
11
-65.8911545955
21
-67.5008590383
31
0.0000000000
11
-66.2172426829
21
-67.0287669693
31
0.0000000000
11
-66.5196853935
21
-66.4817064315
31
0.0000000000
11
-66.7862069751
21
-65.8403808723
31
0.0000000000
11
-66.9900336355
21
-65.0960270002
31
0.0000000000
11
-67.0913729608
21
-64.2436097893
31
0.0000000000
0
SPLINE
5
547
100
AcDbEntity
8
0
100
AcDbSpline
62
7
6
CONTINUOUS
70
0
71
3
72
10
73
6
74
4
42
0.0000001000
43
0.0000001000
44
0.0000000001
12
-47.0697518350
22
0.0000000000
32
0.0000000000
13
-47.0658584593
23
1.8593454894
33
0.0000000000
40
0.0000000000
40
0.0000000000
40
0.0000000000
40
0.0000000000
40
0.2500000894
40
0.5000001788
40
1.0000000000
40
1.0000000000
40
1.0000000000
40
1.0000000000
10
-0.1846090159
20
-71.5882408649
30
0.0000000000
10
-4.1070897381
20
-71.5882408649
30
0.0000000000
10
-11.9523394044
20
-71.5494093929
30
0.0000000000
10
-27.6439048964
20
-71.3165955013
30
0.0000000000
10
-39.4161259766
20
-70.9679244823
30
0.0000000000
10
-47.2604329148
20
-70.6580336782
30
0.0000000000
11
-0.1846090159
21
-71.5882408649
31
0.0000000000
11
-11.9524733757
21
-71.5300155141
31
0.0000000000
11
-23.7214119948
21
-71.3554588243
31
0.0000000000
11
-47.2604329148
21
-70.6580336782
31
0.0000000000
0
SPLINE
5
548
100
AcDbEntity
8
0
100
AcDbSpline
62
7
6
CONTINUOUS
70
0
71
3
72
15
73
11
74
9
42
0.0000001000
43
0.0000001000
44
0.0000000001
12
0.0000000000
22
0.6188942544
32
0.0000000000
13
-0.6188942544
23
-0.0000000000
33
0.0000000000
40
0.0000000000
40
0.0000000000
40
0.0000000000
40
0.0000000000
40
0.1199853283
40
0.2092340414
40
0.3286257149
40
0.4397667804
40
0.5487353211
40
0.6612541388
40
0.8230710299
40
1.0000000000
40
1.0000000000
40
1.0000000000
40
1.0000000000
10
39.9608628192
20
-66.6684892107
30
0.0000000000
10
39.9608628192
20
-66.6437364673
30
0.0000000000
10
39.9586692302
20
-66.6005336966
30
0.0000000000
10
39.9466869160
20
-66.5334840733
30
0.0000000000
10
39.9203892490
20
-66.4724051064
30
0.0000000000
10
39.8801641779
20
-66.4139168109
30
0.0000000000
10
39.8240260290
20
-66.3729923205
30
0.0000000000
10
39.7530822509
20
-66.3372850021
30
0.0000000000
10
39.6612066402
20
-66.3171257488
30
0.0000000000
10
39.5913147001
20
-66.3130371775
30
0.0000000000
10
39.5548145924
20
-66.3130371775
30
0.0000000000
11
39.9608628192
21
-66.6684892107
31
0.0000000000
11
39.9565595589
21
-66.5943557721
31
0.0000000000
11
39.9460384377
21
-66.5401315321
31
0.0000000000
11
39.9174695470
21
-66.4719870394
31
0.0000000000
11
39.8770846280
21
-66.4163060287
31
0.0000000000
11
39.8237506367
21
-66.3750308609
31
0.0000000000
11
39.7613522948
21
-66.3441149509
31
0.0000000000
11
39.6640723895
21
-66.3203210307
31
0.0000000000
11
39.5548145924
21
-66.3130371775
31
0.0000000000
0
SPLINE
5
549
100
AcDbEntity
8
0
100
AcDbSpline
62
7
6
CONTINUOUS
70
0
71
3
72
15
73
11
74
9
42
0.0000001000
43
0.0000001000
44
0.0000000001
12
0.6188942544
22
0.0000000000
32
0.0000000000
13
0.0000000000
23
0.6188942544
33
0.0000000000
40
0.0000000000
40
0.0000000000
40
0.0000000000
40
0.0000000000
40
0.1769289701
40
0.3387458612
40
0.4512646789
40
0.5602332196
40
0.6713742851
40
0.7907659586
40
0.8800146717
40
1.0000000000
40
1.0000000000
40
1.0000000000
40
1.0000000000
10
39.5548145924
20
-67.0239412439
30
0.0000000000
10
39.5913147001
20
-67.0239412439
30
0.0000000000
10
39.6612066402
20
-67.0198526726
30
0.0000000000
10
39.7530822509
20
-66.9996934194
30
0.0000000000
10
39.8240260290
20
-66.9639861010
30
0.0000000000
10
39.8801641779
20
-66.9230616105
30
0.0000000000
10
39.9203892490
20
-66.8645733150
30
0.0000000000
10
39.9466869160
20
-66.8034943482
30
0.0000000000
10
39.9586692302
20
-66.7364447248
30
0.0000000000
10
39.9608628192
20
-66.6932419541
30
0.0000000000
10
39.9608628192
20
-66.6684892107
30
0.0000000000
11
39.5548145924
21
-67.0239412439
31
0.0000000000
11
39.6640723895
21
-67.0166573907
31
0.0000000000
11
39.7613522948
21
-66.9928634705
31
0.0000000000
11
39.8237506367
21
-66.9619475605
31
0.0000000000
11
39.8770846280
21
-66.9206723927
31
0.0000000000
11
39.9174695470
21
-66.8649913820
31
0.0000000000
11
39.9460384377
21
-66.7968468894
31
0.0000000000
11
39.9565595589
21
-66.7426226493
31
0.0000000000
11
39.9608628192
21
-66.6684892107
31
0.0000000000
0
SPLINE
5
54A
100
AcDbEntity
8
0
100
AcDbSpline
62
7
6
CONTINUOUS
70
0
71
3
72
13
73
9
74
7
42
0.0000001000
43
0.0000001000
44
0.0000000001
12
0.0000000000
22
-0.5084479205
32
0.0000000000
13
-0.3920785352
23
-0.3251997321
33
0.0000000000
40
0.0000000000
40
0.0000000000
40
0.0000000000
40
0.0000000000
40
0.1902132292
40
0.3435737462
40
0.5648465947
40
0.7807237792
40
0.9965126286
40
1.0000000000
40
1.0000000000
40
1.0000000000
40
1.0000000000
10
40.2449126494
20
-66.6684892107
30
0.0000000000
10
40.2449126494
20
-66.7007270510
30
0.0000000000
10
40.2439442247
20
-66.7591123189
30
0.0000000000
10
40.2268680610
20
-66.8537413704
30
0.0000000000
10
40.1912588599
20
-66.9477875620
30
0.0000000000
10
40.1363403511
20
-67.0448616119
30
0.0000000000
10
40.0836585450
20
-67.0975993247
30
0.0000000000
10
40.0550337148
20
-67.1214127847
30
0.0000000000
10
40.0545779403
20
-67.1217908155
30
0.0000000000
11
40.2449126494
21
-66.6684892107
31
0.0000000000
11
40.2409535581
21
-66.7651216623
31
0.0000000000
11
40.2270333054
21
-66.8418449154
31
0.0000000000
11
40.1882670204
21
-66.9474607859
31
0.0000000000
11
40.1323432146
21
-67.0419080816
31
0.0000000000
11
40.0559436884
21
-67.1206546272
31
0.0000000000
11
40.0545779403
21
-67.1217908155
31
0.0000000000
0
SPLINE
5
54B
100
AcDbEntity
8
0
100
AcDbSpline
62
7
6
CONTINUOUS
70
0
71
3
72
11
73
7
74
5
42
0.0000001000
43
0.0000001000
44
0.0000000001
12
-0.2744343007
22
-0.2276226649
32
0.0000000000
13
-0.3546148156
23
-0.0405108999
33
0.0000000000
40
0.0000000000
40
0.0000000000
40
0.0000000000
40
0.0000000000
40
0.2043804700
40
0.5296285048
40
0.7596891366
40
1.0000000000
40
1.0000000000
40
1.0000000000
40
1.0000000000
10
40.0545779403
20
-67.1217908155
30
0.0000000000
10
40.0358816032
20
-67.1372980246
30
0.0000000000
10
39.9851434128
20
-67.1744360881
30
0.0000000000
10
39.9043696749
20
-67.2161635645
30
0.0000000000
10
39.8136632739
20
-67.2430587805
30
0.0000000000
10
39.7584139868
20
-67.2524784974
30
0.0000000000
10
39.7300080559
20
-67.2557235672
30
0.0000000000
11
40.0545779403
21
-67.1217908155
31
0.0000000000
11
39.9958923658
21
-67.1647624046
31
0.0000000000
11
39.8927853781
21
-67.2173680106
31
0.0000000000
11
39.8144434910
21
-67.2411619308
31
0.0000000000
11
39.7300080559
21
-67.2557235672
31
0.0000000000
0
SPLINE
5
54C
100
AcDbEntity
8
0
100
AcDbSpline
62
7
6
CONTINUOUS
70
0
71
3
72
8
73
4
74
2
42
0.0000001000
43
0.0000001000
44
0.0000000001
12
-0.0921613716
22
-0.0105284380
32
0.0000000000
13
-0.0924919325
23
0.0000000000
33
0.0000000000
40
0.0000000000
40
0.0000000000
40
0.0000000000
40
0.0000000000
40
1.0000000000
40
1.0000000000
40
1.0000000000
40
1.0000000000
10
39.7300080559
20
-67.2557235672
30
0.0000000000
10
39.6992875987
20
-67.2592330465
30
0.0000000000
10
39.6683574356
20
-67.2609092660
30
0.0000000000
10
39.6375267914
20
-67.2609092660
30
0.0000000000
11
39.7300080559
21
-67.2557235672
31
0.0000000000
11
39.6375267914
21
-67.2609092660
31
0.0000000000
0
SPLINE
5
54D
100
AcDbEntity
8
0
100
AcDbSpline
62
7
6
CONTINUOUS
70
0
71
3
72
8
73
4
74
2
42
0.0000001000
43
0.0000001000
44
0.0000000001
12
0.0863754991
22
0.0000000000
32
0.0000000000
13
0.0861407135
23
-0.0091548312
33
0.0000000000
40
0.0000000000
40
0.0000000000
40
0.0000000000
40
0.0000000000
40
1.0000000000
40
1.0000000000
40
1.0000000000
40
1.0000000000
10
39.6375267914
20
-66.0760691554
30
0.0000000000
10
39.6663186245
20
-66.0760691554
30
0.0000000000
10
39.6951972494
20
-66.0775310105
30
0.0000000000
10
39.7239108206
20
-66.0805826209
30
0.0000000000
11
39.6375267914
21
-66.0760691554
31
0.0000000000
11
39.7239108206
21
-66.0805826209
31
0.0000000000
0
SPLINE
5
54E
100
AcDbEntity
8
0
100
AcDbSpline
62
7
6
CONTINUOUS
70
0
71
3
72
11
73
7
74
5
42
0.0000001000
43
0.0000001000
44
0.0000000001
12
0.3307319222
22
-0.0351494061
32
0.0000000000
13
0.2656935595
23
-0.1986259741
33
0.0000000000
40
0.0000000000
40
0.0000000000
40
0.0000000000
40
0.0000000000
40
0.2763288945
40
0.5232145672
40
0.8722489901
40
1.0000000000
40
1.0000000000
40
1.0000000000
40
1.0000000000
10
39.7239108206
20
-66.0805826209
30
0.0000000000
10
39.7543744161
20
-66.0838202197
30
0.0000000000
10
39.8117038926
20
-66.0933386678
30
0.0000000000
10
39.9043696749
20
-66.1208148570
30
0.0000000000
10
39.9760701309
20
-66.1578551025
30
0.0000000000
10
40.0193866612
20
-66.1879216799
30
0.0000000000
10
40.0307008681
20
-66.1963799028
30
0.0000000000
11
39.7239108206
21
-66.0805826209
31
0.0000000000
11
39.8144434910
21
-66.0958164906
31
0.0000000000
11
39.8927853781
21
-66.1196104109
31
0.0000000000
11
39.9958923658
21
-66.1722160169
31
0.0000000000
11
40.0307008681
21
-66.1963799028
31
0.0000000000
0
SPLINE
5
54F
100
AcDbEntity
8
0
100
AcDbSpline
62
7
6
CONTINUOUS
70
0
71
3
72
13
73
9
74
7
42
0.0000001000
43
0.0000001000
44
0.0000000001
12
0.4316827328
22
-0.3227153999
32
0.0000000000
13
-0.0000000000
23
-0.5388177210
33
0.0000000000
40
0.0000000000
40
0.0000000000
40
0.0000000000
40
0.0000000000
40
0.0596545844
40
0.2632807598
40
0.4669902913
40
0.6757913669
40
0.8205079063
40
1.0000000000
40
1.0000000000
40
1.0000000000
40
1.0000000000
10
40.0307008681
20
-66.1963799028
30
0.0000000000
10
40.0392848194
20
-66.2027970539
30
0.0000000000
10
40.0764272891
20
-66.2321401669
30
0.0000000000
10
40.1363403511
20
-66.2921168095
30
0.0000000000
10
40.1912588599
20
-66.3891908594
30
0.0000000000
10
40.2268680610
20
-66.4832370510
30
0.0000000000
10
40.2439442247
20
-66.5778661025
30
0.0000000000
10
40.2449126494
20
-66.6362513704
30
0.0000000000
10
40.2449126494
20
-66.6684892107
30
0.0000000000
11
40.0307008681
21
-66.1963799028
31
0.0000000000
11
40.0559436884
21
-66.2163237942
31
0.0000000000
11
40.1323432146
21
-66.2950703398
31
0.0000000000
11
40.1882670204
21
-66.3895176355
31
0.0000000000
11
40.2270333054
21
-66.4951335060
31
0.0000000000
11
40.2409535581
21
-66.5718567591
31
0.0000000000
11
40.2449126494
21
-66.6684892107
31
0.0000000000
0
SPLINE
5
550
100
AcDbEntity
8
0
100
AcDbSpline
62
7
6
CONTINUOUS
70
0
71
3
72
17
73
13
74
11
42
0.0000001000
43
0.0000001000
44
0.0000000001
12
0.0000000000
22
1.1315965457
32
0.0000000000
13
-1.1315965457
23
0.0000000000
33
0.0000000000
40
0.0000000000
40
0.0000000000
40
0.0000000000
40
0.0000000000
40
0.0648468588
40
0.1698973609
40
0.2666331574
40
0.3558846670
40
0.4787995206
40
0.5905165300
40
0.6981240051
40
0.8061545400
40
0.9191875468
40
1.0000000000
40
1.0000000000
40
1.0000000000
40
1.0000000000
10
45.9789731118
20
-67.1010691554
30
0.0000000000
10
45.9789731118
20
-67.0766089950
30
0.0000000000
10
45.9752692283
20
-67.0125920467
30
0.0000000000
10
45.9689389131
20
-66.9121720577
30
0.0000000000
10
45.9499239440
20
-66.8037339855
30
0.0000000000
10
45.9175419476
20
-66.6917991115
30
0.0000000000
10
45.8695680956
20
-66.5781053594
30
0.0000000000
10
45.7882412396
20
-66.4766201717
30
0.0000000000
10
45.6947330363
20
-66.3938928544
30
0.0000000000
10
45.5795858643
20
-66.3443283525
30
0.0000000000
10
45.4685890495
20
-66.3164095195
30
0.0000000000
10
45.3952219469
20
-66.3130371775
30
0.0000000000
10
45.3647395826
20
-66.3130371775
30
0.0000000000
11
45.9789731118
21
-67.1010691554
31
0.0000000000
11
45.9760976560
21
-67.0277450338
31
0.0000000000
11
45.9664667835
21
-66.9092610228
31
0.0000000000
11
45.9474478337
21
-66.8014599963
31
0.0000000000
11
45.9194454649
21
-66.7044228862
31
0.0000000000
11
45.8621458202
21
-66.5776838416
31
0.0000000000
11
45.7845323185
21
-66.4778950536
31
0.0000000000
11
45.6913799300
21
-66.3994722348
31
0.0000000000
11
45.5804225672
21
-66.3481615360
31
0.0000000000
11
45.4560305419
21
-66.3183786698
31
0.0000000000
11
45.3647395826
21
-66.3130371775
31
0.0000000000
0
SPLINE
5
551
100
AcDbEntity
8
0
100
AcDbSpline
62
7
6
CONTINUOUS
70
0
71
3
72
17
73
13
74
11
42
0.0000001000
43
0.0000001000
44
0.0000000001
12
1.1315965457
22
0.0000000000
32
0.0000000000
13
0.0000000000
23
1.1315965457
33
0.0000000000
40
0.0000000000
40
0.0000000000
40
0.0000000000
40
0.0000000000
40
0.0808124532
40
0.1938454600
40
0.3018759949
40
0.4094834700
40
0.5212004794
40
0.6441153330
40
0.7333668426
40
0.8301026391
40
0.9351531412
40
1.0000000000
40
1.0000000000
40
1.0000000000
40
1.0000000000
10
45.3647395826
20
-67.8891011333
30
0.0000000000
10
45.3952219469
20
-67.8891011333
30
0.0000000000
10
45.4685890495
20
-67.8857287914
30
0.0000000000
10
45.5795858643
20
-67.8578099584
30
0.0000000000
10
45.6947330363
20
-67.8082454565
30
0.0000000000
10
45.7882412396
20
-67.7255181392
30
0.0000000000
10
45.8695680956
20
-67.6240329515
30
0.0000000000
10
45.9175419476
20
-67.5103391993
30
0.0000000000
10
45.9499239440
20
-67.3984043253
30
0.0000000000
10
45.9689389131
20
-67.2899662531
30
0.0000000000
10
45.9752692283
20
-67.1895462642
30
0.0000000000
10
45.9789731118
20
-67.1255293159
30
0.0000000000
10
45.9789731118
20
-67.1010691554
30
0.0000000000
11
45.3647395826
21
-67.8891011333
31
0.0000000000
11
45.4560305419
21
-67.8837596410
31
0.0000000000
11
45.5804225672
21
-67.8539767749
31
0.0000000000
11
45.6913799300
21
-67.8026660761
31
0.0000000000
11
45.7845323185
21
-67.7242432573
31
0.0000000000
11
45.8621458202
21
-67.6244544693
31
0.0000000000
11
45.9194454649
21
-67.4977154247
31
0.0000000000
11
45.9474478337
21
-67.4006783145
31
0.0000000000
11
45.9664667835
21
-67.2928772881
31
0.0000000000
11
45.9760976560
21
-67.1743932770
31
0.0000000000
11
45.9789731118
21
-67.1010691554
31
0.0000000000
0
SPLINE
5
552
100
AcDbEntity
8
0
100
AcDbSpline
62
7
6
CONTINUOUS
70
0
71
3
72
11
73
7
74
5
42
0.0000001000
43
0.0000001000
44
0.0000000001
12
0.0000000000
22
-0.4914848531
32
0.0000000000
13
-0.1723035795
23
-0.4624197195
33
0.0000000000
40
0.0000000000
40
0.0000000000
40
0.0000000000
40
0.0000000000
40
0.2044059501
40
0.4895903724
40
0.8930284938
40
1.0000000000
40
1.0000000000
40
1.0000000000
40
1.0000000000
10
46.2630281106
20
-67.1010691554
30
0.0000000000
10
46.2630281106
20
-67.1345566315
30
0.0000000000
10
46.2615556344
20
-67.2147917267
30
0.0000000000
10
46.2477343826
20
-67.3606388876
30
0.0000000000
10
46.2207100090
20
-67.4885905310
30
0.0000000000
10
46.1935243749
20
-67.5680369836
30
0.0000000000
10
46.1873805171
20
-67.5845255616
30
0.0000000000
11
46.2630281106
21
-67.1010691554
31
0.0000000000
11
46.2607344503
21
-67.2015053971
31
0.0000000000
11
46.2473807196
21
-67.3410316505
31
0.0000000000
11
46.2044869177
21
-67.5346202806
31
0.0000000000
11
46.1873805171
21
-67.5845255616
31
0.0000000000
0
SPLINE
5
553
100
AcDbEntity
8
0
100
AcDbSpline
62
7
6
CONTINUOUS
70
0
71
3
72
10
73
6
74
4
42
0.0000001000
43
0.0000001000
44
0.0000000001
12
-0.1848448503
22
-0.4960773542
32
0.0000000000
13
-0.4380958744
23
-0.2960430576
33
0.0000000000
40
0.0000000000
40
0.0000000000
40
0.0000000000
40
0.0000000000
40
0.3624727170
40
0.6903188544
40
1.0000000000
40
1.0000000000
40
1.0000000000
40
1.0000000000
10
46.1873805171
20
-67.5845255616
30
0.0000000000
10
46.1650467787
20
-67.6444637304
30
0.0000000000
10
46.1112812053
20
-67.7545427029
30
0.0000000000
10
45.9989452707
20
-67.8912082553
30
0.0000000000
10
45.9135276283
20
-67.9646532395
30
0.0000000000
10
45.8683042842
20
-67.9952128905
30
0.0000000000
11
46.1873805171
21
-67.5845255616
31
0.0000000000
11
46.1020273836
21
-67.7557256892
31
0.0000000000
11
45.9932551767
21
-67.8900723137
31
0.0000000000
11
45.8683042842
21
-67.9952128905
31
0.0000000000
0
SPLINE
5
554
100
AcDbEntity
8
0
100
AcDbSpline
62
7
6
CONTINUOUS
70
0
71
3
72
10
73
6
74
4
42
0.0000001000
43
0.0000001000
44
0.0000000001
12
-0.3360506237
22
-0.2270860330
32
0.0000000000
13
-0.4031697577
23
-0.0420074734
33
0.0000000000
40
0.0000000000
40
0.0000000000
40
0.0000000000
40
0.0000000000
40
0.0168230652
40
0.5894160033
40
1.0000000000
40
1.0000000000
40
1.0000000000
40
1.0000000000
10
45.8683042842
20
-67.9952128905
30
0.0000000000
10
45.8664198170
20
-67.9964863183
30
0.0000000000
10
45.8001682696
20
-68.0407910918
30
0.0000000000
10
45.6742007508
20
-68.0971710402
30
0.0000000000
10
45.5423420316
20
-68.1139968670
30
0.0000000000
10
45.4871636815
20
-68.1197460658
30
0.0000000000
11
45.8683042842
21
-67.9952128905
31
0.0000000000
11
45.8626314104
21
-67.9990063840
31
0.0000000000
11
45.6510759426
21
-68.0932108846
31
0.0000000000
11
45.4871636815
21
-68.1197460658
31
0.0000000000
0
SPLINE
5
555
100
AcDbEntity
8
0
100
AcDbSpline
62
7
6
CONTINUOUS
70
0
71
3
72
9
73
5
74
3
42
0.0000001000
43
0.0000001000
44
0.0000000001
12
-0.0852875969
22
-0.0088863720
32
0.0000000000
13
-0.0855572203
23
0.0000000000
33
0.0000000000
40
0.0000000000
40
0.0000000000
40
0.0000000000
40
0.0000000000
40
0.2435416943
40
1.0000000000
40
1.0000000000
40
1.0000000000
40
1.0000000000
10
45.4871636815
20
-68.1197460658
30
0.0000000000
10
45.4802399862
20
-68.1204674665
30
0.0000000000
10
45.4518034883
20
-68.1233470055
30
0.0000000000
10
45.4233797919
20
-68.1260691554
30
0.0000000000
10
45.4018063019
20
-68.1260691554
30
0.0000000000
11
45.4871636815
21
-68.1197460658
31
0.0000000000
11
45.4663897997
21
-68.1218607070
31
0.0000000000
11
45.4018063019
21
-68.1260691554
31
0.0000000000
0
SPLINE
5
556
100
AcDbEntity
8
0
100
AcDbSpline
62
7
6
CONTINUOUS
70
0
71
3
72
9
73
5
74
3
42
0.0000001000
43
0.0000001000
44
0.0000000001
12
0.1566497767
22
0.0000000000
32
0.0000000000
13
0.1552164788
23
-0.0221954679
33
0.0000000000
40
0.0000000000
40
0.0000000000
40
0.0000000000
40
0.0000000000
40
0.4131539242
40
1.0000000000
40
1.0000000000
40
1.0000000000
40
1.0000000000
10
45.4018063019
20
-66.0760691554
30
0.0000000000
10
45.4233797919
20
-66.0760691554
30
0.0000000000
10
45.4754217548
20
-66.0810532371
30
0.0000000000
10
45.5275066327
20
-66.0865649386
30
0.0000000000
10
45.5578693598
20
-66.0909067130
30
0.0000000000
11
45.4018063019
21
-66.0760691554
31
0.0000000000
11
45.4663897997
21
-66.0802776039
31
0.0000000000
11
45.5578693598
21
-66.0909067130
31
0.0000000000
0
SPLINE
5
557
100
AcDbEntity
8
0
100
AcDbSpline
62
7
6
CONTINUOUS
70
0
71
3
72
9
73
5
74
3
42
0.0000001000
43
0.0000001000
44
0.0000000001
12
0.3186522063
22
-0.0455662624
32
0.0000000000
13
0.2703891871
23
-0.1761616165
33
0.0000000000
40
0.0000000000
40
0.0000000000
40
0.0000000000
40
0.0000000000
40
0.2952965564
40
1.0000000000
40
1.0000000000
40
1.0000000000
40
1.0000000000
10
45.5578693598
20
-66.0909067130
30
0.0000000000
10
45.5892349929
20
-66.0953918998
30
0.0000000000
10
45.6947185012
20
-66.1145820860
30
0.0000000000
10
45.7949625200
20
-66.1590238003
30
0.0000000000
10
45.8584772504
20
-66.2004043663
30
0.0000000000
11
45.5578693598
21
-66.0909067130
31
0.0000000000
11
45.6510759426
21
-66.1089274263
31
0.0000000000
11
45.8584772504
21
-66.2004043663
31
0.0000000000
0
SPLINE
5
558
100
AcDbEntity
8
0
100
AcDbSpline
62
7
6
CONTINUOUS
70
0
71
3
72
11
73
7
74
5
42
0.0000001000
43
0.0000001000
44
0.0000000001
12
0.4446692590
22
-0.2897070563
32
0.0000000000
13
0.1906218207
23
-0.4956689297
33
0.0000000000
40
0.0000000000
40
0.0000000000
40
0.0000000000
40
0.0000000000
40
0.0093652099
40
0.3309618793
40
0.6578029286
40
1.0000000000
40
1.0000000000
40
1.0000000000
40
1.0000000000
10
45.8584772504
20
-66.2004043663
30
0.0000000000
10
45.8598653907
20
-66.2013087554
30
0.0000000000
10
45.9088012669
20
-66.2334392738
30
0.0000000000
10
45.9974956334
20
-66.3091664570
30
0.0000000000
10
46.1091217340
20
-66.4449684402
30
0.0000000000
10
46.1620339128
20
-66.5515560366
30
0.0000000000
10
46.1837773224
20
-66.6080948553
30
0.0000000000
11
45.8584772504
21
-66.2004043663
31
0.0000000000
11
45.8626314104
21
-66.2031319269
31
0.0000000000
11
45.9932551767
21
-66.3120659971
31
0.0000000000
11
46.1020273836
21
-66.4464126217
31
0.0000000000
11
46.1837773224
21
-66.6080948553
31
0.0000000000
0
SPLINE
5
559
100
AcDbEntity
8
0
100
AcDbSpline
62
7
6
CONTINUOUS
70
0
71
3
72
11
73
7
74
5
42
0.0000001000
43
0.0000001000
44
0.0000000001
12
0.1807970042
22
-0.4701217165
32
0.0000000000
13
0.0000000000
23
-0.5016205107
33
0.0000000000
40
0.0000000000
40
0.0000000000
40
0.0000000000
40
0.0000000000
40
0.1250158861
40
0.5203022063
40
0.7997242413
40
1.0000000000
40
1.0000000000
40
1.0000000000
40
1.0000000000
10
46.1837773224
20
-66.6080948553
30
0.0000000000
10
46.1913114883
20
-66.6276857496
30
0.0000000000
10
46.2200095126
20
-66.7102311566
30
0.0000000000
10
46.2477343826
20
-66.8414994233
30
0.0000000000
10
46.2615556344
20
-66.9873465842
30
0.0000000000
10
46.2630281106
20
-67.0675816793
30
0.0000000000
10
46.2630281106
20
-67.1010691554
30
0.0000000000
11
46.1837773224
21
-66.6080948553
31
0.0000000000
11
46.2044869177
21
-66.6675180303
31
0.0000000000
11
46.2473807196
21
-66.8611066604
31
0.0000000000
11
46.2607344503
21
-67.0006329138
31
0.0000000000
11
46.2630281106
21
-67.1010691554
31
0.0000000000
0
SPLINE
5
55A
100
AcDbEntity
8
0
100
AcDbSpline
62
7
6
CONTINUOUS
70
0
71
3
72
16
73
12
74
10
42
0.0000001000
43
0.0000001000
44
0.0000000001
12
0.0000000000
22
0.6192925866
32
0.0000000000
13
-0.6192925866
23
-0.0000000000
33
0.0000000000
40
0.0000000000
40
0.0000000000
40
0.0000000000
40
0.0000000000
40
0.1199081531
40
0.2090994610
40
0.2907836170
40
0.3669692037
40
0.4760196724
40
0.5854260037
40
0.7007487161
40
0.8229064890
40
1.0000000000
40
1.0000000000
40
1.0000000000
40
1.0000000000
10
41.1500732416
20
-63.5885523769
30
0.0000000000
10
41.1500732416
20
-63.5637996335
30
0.0000000000
10
41.1479743511
20
-63.5205597697
30
0.0000000000
10
41.1370374019
20
-63.4613212203
30
0.0000000000
10
41.1197518197
20
-63.4131276589
30
0.0000000000
10
41.0930197010
20
-63.3645450312
30
0.0000000000
10
41.0506640617
20
-63.3200069457
30
0.0000000000
10
40.9940011561
20
-63.2797301616
30
0.0000000000
10
40.9260790392
20
-63.2552740409
30
0.0000000000
10
40.8424985968
20
-63.2362702208
30
0.0000000000
10
40.7804207176
20
-63.2331003438
30
0.0000000000
10
40.7438631515
20
-63.2331003438
30
0.0000000000
11
41.1500732416
21
-63.5885523769
31
0.0000000000
11
41.1457699813
21
-63.5144189383
31
0.0000000000
11
41.1352488601
21
-63.4601946983
31
0.0000000000
11
41.1180913394
21
-63.4126068578
31
0.0000000000
11
41.0949448727
21
-63.3714935534
31
0.0000000000
11
41.0492993931
21
-63.3217205569
31
0.0000000000
11
40.9936183824
21
-63.2831161353
31
0.0000000000
11
40.9270925238
21
-63.2571370591
31
0.0000000000
11
40.8532828119
21
-63.2405460603
31
0.0000000000
11
40.7438631515
21
-63.2331003438
31
0.0000000000
0
SPLINE
5
55B
100
AcDbEntity
8
0
100
AcDbSpline
62
7
6
CONTINUOUS
70
0
71
3
72
16
73
12
74
10
42
0.0000001000
43
0.0000001000
44
0.0000000001
12
0.6192925866
22
0.0000000000
32
0.0000000000
13
0.0000000000
23
0.6192925866
33
0.0000000000
40
0.0000000000
40
0.0000000000
40
0.0000000000
40
0.0000000000
40
0.1770935110
40
0.2992512839
40
0.4145739963
40
0.5239803276
40
0.6330307963
40
0.7092163830
40
0.7909005390
40
0.8800918469
40
1.0000000000
40
1.0000000000
40
1.0000000000
40
1.0000000000
10
40.7438631515
20
-63.9440044101
30
0.0000000000
10
40.7804207176
20
-63.9440044101
30
0.0000000000
10
40.8424985968
20
-63.9408345330
30
0.0000000000
10
40.9260790392
20
-63.9218307129
30
0.0000000000
10
40.9940011561
20
-63.8973745922
30
0.0000000000
10
41.0506640617
20
-63.8570978082
30
0.0000000000
10
41.0930197010
20
-63.8125597226
30
0.0000000000
10
41.1197518197
20
-63.7639770949
30
0.0000000000
10
41.1370374019
20
-63.7157835335
30
0.0000000000
10
41.1479743511
20
-63.6565449842
30
0.0000000000
10
41.1500732416
20
-63.6133051204
30
0.0000000000
10
41.1500732416
20
-63.5885523769
30
0.0000000000
11
40.7438631515
21
-63.9440044101
31
0.0000000000
11
40.8532828119
21
-63.9365586935
31
0.0000000000
11
40.9270925238
21
-63.9199676947
31
0.0000000000
11
40.9936183824
21
-63.8939886185
31
0.0000000000
11
41.0492993931
21
-63.8553841969
31
0.0000000000
11
41.0949448727
21
-63.8056112004
31
0.0000000000
11
41.1180913394
21
-63.7644978961
31
0.0000000000
11
41.1352488601
21
-63.7169100556
31
0.0000000000
11
41.1457699813
21
-63.6626858155
31
0.0000000000
11
41.1500732416
21
-63.5885523769
31
0.0000000000
0
SPLINE
5
55C
100
AcDbEntity
8
0
100
AcDbSpline
62
7
6
CONTINUOUS
70
0
71
3
72
13
73
9
74
7
42
0.0000001000
43
0.0000001000
44
0.0000000001
12
0.0000000000
22
-0.5155077420
32
0.0000000000
13
-0.3987882506
23
-0.3290088956
33
0.0000000000
40
0.0000000000
40
0.0000000000
40
0.0000000000
40
0.0000000000
40
0.1088415479
40
0.2628160000
40
0.4848461991
40
0.6989775919
40
0.9109391188
40
1.0000000000
40
1.0000000000
40
1.0000000000
40
1.0000000000
10
41.4341170849
20
-63.5885523769
30
0.0000000000
10
41.4341170849
20
-63.6072552638
30
0.0000000000
10
41.4330677711
20
-63.6524537463
30
0.0000000000
10
41.4232048722
20
-63.7352572476
30
0.0000000000
10
41.3982333379
20
-63.8344611238
30
0.0000000000
10
41.3442010459
20
-63.9327949317
30
0.0000000000
10
41.2893991397
20
-64.0029879216
30
0.0000000000
10
41.2509858772
20
-64.0378468820
30
0.0000000000
10
41.2391470662
20
-64.0476141560
30
0.0000000000
11
41.4341170849
21
-63.5885523769
31
0.0000000000
11
41.4325109999
21
-63.6446380461
31
0.0000000000
11
41.4232038542
21
-63.7234655234
31
0.0000000000
11
41.3932591246
21
-63.8339372960
31
0.0000000000
11
41.3415437673
21
-63.9314599963
31
0.0000000000
11
41.2731564795
21
-64.0166810781
31
0.0000000000
11
41.2391470662
21
-64.0476141560
31
0.0000000000
0
SPLINE
5
55D
100
AcDbEntity
8
0
100
AcDbSpline
62
7
6
CONTINUOUS
70
0
71
3
72
8
73
4
74
2
42
0.0000001000
43
0.0000001000
44
0.0000000001
12
-0.0327219840
22
-0.0269963416
32
0.0000000000
13
-0.0349343225
23
-0.0241980142
33
0.0000000000
40
0.0000000000
40
0.0000000000
40
0.0000000000
40
0.0000000000
40
1.0000000000
40
1.0000000000
40
1.0000000000
40
1.0000000000
10
41.2391470662
20
-64.0476141560
30
0.0000000000
10
41.2282397382
20
-64.0566129366
30
0.0000000000
10
41.2169302235
20
-64.0651481344
30
0.0000000000
10
41.2052854493
20
-64.0732141391
30
0.0000000000
11
41.2391470662
21
-64.0476141560
31
0.0000000000
11
41.2052854493
21
-64.0732141391
31
0.0000000000
0
SPLINE
5
55E
100
AcDbEntity
8
0
100
AcDbSpline
62
7
6
CONTINUOUS
70
0
71
3
72
10
73
6
74
4
42
0.0000001000
43
0.0000001000
44
0.0000000001
12
-0.2390428958
22
-0.1655782326
32
0.0000000000
13
-0.2875928414
23
-0.0390896302
33
0.0000000000
40
0.0000000000
40
0.0000000000
40
0.0000000000
40
0.0000000000
40
0.2099709128
40
0.7619382823
40
1.0000000000
40
1.0000000000
40
1.0000000000
40
1.0000000000
10
41.2052854493
20
-64.0732141391
30
0.0000000000
10
41.1885547643
20
-64.0848030100
30
0.0000000000
10
41.1253314381
20
-64.1233418609
30
0.0000000000
10
41.0338244784
20
-64.1568957301
30
0.0000000000
10
40.9585690010
20
-64.1706959499
30
0.0000000000
10
40.9357473858
20
-64.1737978647
30
0.0000000000
11
41.2052854493
21
-64.0732141391
31
0.0000000000
11
41.1532156979
21
-64.1050584961
31
0.0000000000
11
41.0036539134
21
-64.1612250970
31
0.0000000000
11
40.9357473858
21
-64.1737978647
31
0.0000000000
0
SPLINE
5
55F
100
AcDbEntity
8
0
100
AcDbSpline
62
7
6
CONTINUOUS
70
0
71
3
72
8
73
4
74
2
42
0.0000001000
43
0.0000001000
44
0.0000000001
12
-0.1084155159
22
-0.0147358412
32
0.0000000000
13
-0.1091112047
23
0.0000000000
33
0.0000000000
40
0.0000000000
40
0.0000000000
40
0.0000000000
40
0.0000000000
40
1.0000000000
40
1.0000000000
40
1.0000000000
40
1.0000000000
10
40.9357473858
20
-64.1737978647
30
0.0000000000
10
40.8996088805
20
-64.1787098118
30
0.0000000000
10
40.8631076154
20
-64.1809724322
30
0.0000000000
10
40.8267372138
20
-64.1809724322
30
0.0000000000
11
40.9357473858
21
-64.1737978647
31
0.0000000000
11
40.8267372138
21
-64.1809724322
31
0.0000000000
0
SPLINE
5
560
100
AcDbEntity
8
0
100
AcDbSpline
62
7
6
CONTINUOUS
70
0
71
3
72
8
73
4
74
2
42
0.0000001000
43
0.0000001000
44
0.0000000001
12
0.1087196111
22
0.0000000000
32
0.0000000000
13
0.1080341835
23
-0.0146261251
33
0.0000000000
40
0.0000000000
40
0.0000000000
40
0.0000000000
40
0.0000000000
40
1.0000000000
40
1.0000000000
40
1.0000000000
40
1.0000000000
10
40.8267372138
20
-62.9961323216
30
0.0000000000
10
40.8629770842
20
-62.9961323216
30
0.0000000000
10
40.8993468804
20
-62.9983787304
30
0.0000000000
10
40.9353582749
20
-63.0032541054
30
0.0000000000
11
40.8267372138
21
-62.9961323216
31
0.0000000000
11
40.9353582749
21
-63.0032541054
31
0.0000000000
0
SPLINE
5
561
100
AcDbEntity
8
0
100
AcDbSpline
62
7
6
CONTINUOUS
70
0
71
3
72
10
73
6
74
4
42
0.0000001000
43
0.0000001000
44
0.0000000001
12
0.2892728869
22
-0.0391629879
32
0.0000000000
13
0.2400024150
23
-0.1671189254
33
0.0000000000
40
0.0000000000
40
0.0000000000
40
0.0000000000
40
0.0000000000
40
0.2380412916
40
0.7868423754
40
1.0000000000
40
1.0000000000
40
1.0000000000
40
1.0000000000
10
40.9353582749
20
-63.0032541054
30
0.0000000000
10
40.9583112388
20
-63.0063615748
30
0.0000000000
10
41.0337006747
20
-63.0201636272
30
0.0000000000
10
41.1257355801
20
-63.0539110841
30
0.0000000000
10
41.1892874841
20
-63.0927489546
30
0.0000000000
10
41.2063402657
20
-63.1046231790
30
0.0000000000
11
40.9353582749
21
-63.0032541054
31
0.0000000000
11
41.0036539134
21
-63.0158796568
31
0.0000000000
11
41.1532156979
21
-63.0720462577
31
0.0000000000
11
41.2063402657
21
-63.1046231790
31
0.0000000000
0
SPLINE
5
562
100
AcDbEntity
8
0
100
AcDbSpline
62
7
6
CONTINUOUS
70
0
71
3
72
8
73
4
74
2
42
0.0000001000
43
0.0000001000
44
0.0000000001
12
0.0352978512
22
-0.0245786650
32
0.0000000000
13
0.0330163880
23
-0.0274442813
33
0.0000000000
40
0.0000000000
40
0.0000000000
40
0.0000000000
40
0.0000000000
40
1.0000000000
40
1.0000000000
40
1.0000000000
40
1.0000000000
10
41.2063402657
20
-63.1046231790
30
0.0000000000
10
41.2181062161
20
-63.1128160673
30
0.0000000000
10
41.2295266232
20
-63.1214894673
30
0.0000000000
10
41.2405320859
20
-63.1306375610
30
0.0000000000
11
41.2063402657
21
-63.1046231790
31
0.0000000000
11
41.2405320859
21
-63.1306375610
31
0.0000000000
0
SPLINE
5
563
100
AcDbEntity
8
0
100
AcDbSpline
62
7
6
CONTINUOUS
70
0
71
3
72
13
73
9
74
7
42
0.0000001000
43
0.0000001000
44
0.0000000001
12
0.3961542630
22
-0.3292961370
32
0.0000000000
13
0.0000000000
23
-0.5137145377
33
0.0000000000
40
0.0000000000
40
0.0000000000
40
0.0000000000
40
0.0000000000
40
0.0858810997
40
0.2985825130
40
0.5134613662
40
0.7362665979
40
0.8907785229
40
1.0000000000
40
1.0000000000
40
1.0000000000
40
1.0000000000
10
41.2405320859
20
-63.1306375610
30
0.0000000000
10
41.2518728071
20
-63.1400643325
30
0.0000000000
10
41.2897691836
20
-63.1745908029
30
0.0000000000
10
41.3442010459
20
-63.2443098222
30
0.0000000000
10
41.3982333379
20
-63.3426436300
30
0.0000000000
10
41.4232048722
20
-63.4418475062
30
0.0000000000
10
41.4330677711
20
-63.5246510075
30
0.0000000000
10
41.4341170849
20
-63.5698494900
30
0.0000000000
10
41.4341170849
20
-63.5885523769
30
0.0000000000
11
41.2405320859
21
-63.1306375610
31
0.0000000000
11
41.2731564795
21
-63.1604236758
31
0.0000000000
11
41.3415437673
21
-63.2456447575
31
0.0000000000
11
41.3932591246
21
-63.3431674578
31
0.0000000000
11
41.4232038542
21
-63.4536392304
31
0.0000000000
11
41.4325109999
21
-63.5324667077
31
0.0000000000
11
41.4341170849
21
-63.5885523769
31
0.0000000000
0
SPLINE
5
564
100
AcDbEntity
8
0
100
AcDbSpline
62
7
6
CONTINUOUS
70
0
71
3
72
8
73
4
74
2
42
0.0000001000
43
0.0000001000
44
0.0000000001
12
-0.6047941319
22
0.6601723800
32
0.0000000000
13
-0.8953231335
23
0.0000000000
33
0.0000000000
40
0.0000000000
40
0.0000000000
40
0.0000000000
40
0.0000000000
40
1.0000000000
40
1.0000000000
40
1.0000000000
40
1.0000000000
10
47.9398598396
20
67.2866021446
30
0.0000000000
10
47.7382617957
20
67.5066596046
30
0.0000000000
10
47.4107477175
20
67.6283027001
30
0.0000000000
10
47.1123066730
20
67.6283027001
30
0.0000000000
11
47.9398598396
21
67.2866021446
31
0.0000000000
11
47.1123066730
21
67.6283027001
31
0.0000000000
0
SPLINE
5
565
100
AcDbEntity
8
0
100
AcDbSpline
62
7
6
CONTINUOUS
70
0
71
3
72
9
73
5
74
3
42
0.0000001000
43
0.0000001000
44
0.0000000001
12
0.0000000000
22
1.1881590712
32
0.0000000000
13
-0.8026059053
23
0.8760968778
33
0.0000000000
40
0.0000000000
40
0.0000000000
40
0.0000000000
40
0.0000000000
40
0.2717487242
40
1.0000000000
40
1.0000000000
40
1.0000000000
40
1.0000000000
10
48.3147497285
20
66.1733201446
30
0.0000000000
10
48.3147497285
20
66.2809470485
30
0.0000000000
10
48.2852526257
20
66.6743931793
30
0.0000000000
10
48.1346927645
20
67.0739292549
30
0.0000000000
10
47.9398598396
20
67.2866021446
30
0.0000000000
11
48.3147497285
21
66.1733201446
31
0.0000000000
11
48.2897779622
21
66.4952337430
31
0.0000000000
11
47.9398598396
21
67.2866021446
31
0.0000000000
0
SPLINE
5
566
100
AcDbEntity
8
0
100
AcDbSpline
62
7
6
CONTINUOUS
70
0
71
3
72
9
73
5
74
3
42
0.0000001000
43
0.0000001000
44
0.0000000001
12
0.8026066757
22
0.8760685640
32
0.0000000000
13
0.0000000000
23
1.1881387144
33
0.0000000000
40
0.0000000000
40
0.0000000000
40
0.0000000000
40
0.0000000000
40
0.7282554908
40
1.0000000000
40
1.0000000000
40
1.0000000000
40
1.0000000000
10
47.9398598396
20
65.0600593112
30
0.0000000000
10
48.1346940791
20
65.2727265586
30
0.0000000000
10
48.2852500904
20
65.6722578746
30
0.0000000000
10
48.3147497285
20
66.0656967540
30
0.0000000000
10
48.3147497285
20
66.1733201446
30
0.0000000000
11
47.9398598396
21
65.0600593112
31
0.0000000000
11
48.2897775818
21
65.8514171472
31
0.0000000000
11
48.3147497285
21
66.1733201446
31
0.0000000000
0
SPLINE
5
567
100
AcDbEntity
8
0
100
AcDbSpline
62
7
6
CONTINUOUS
70
0
71
3
72
8
73
4
74
2
42
0.0000001000
43
0.0000001000
44
0.0000000001
12
0.8953231335
22
0.0000000000
32
0.0000000000
13
0.6048050746
23
0.6601623550
33
0.0000000000
40
0.0000000000
40
0.0000000000
40
0.0000000000
40
0.0000000000
40
1.0000000000
40
1.0000000000
40
1.0000000000
40
1.0000000000
10
47.1123066730
20
64.7183587557
30
0.0000000000
10
47.4107477174
20
64.7183587557
30
0.0000000000
10
47.7382581481
20
64.8400051929
30
0.0000000000
10
47.9398598396
20
65.0600593112
30
0.0000000000
11
47.1123066730
21
64.7183587557
31
0.0000000000
11
47.9398598396
21
65.0600593112
31
0.0000000000
0
SPLINE
5
568
100
AcDbEntity
8
0
100
AcDbSpline
62
7
6
CONTINUOUS
70
0
71
3
72
8
73
4
74
2
42
0.0000001000
43
0.0000001000
44
0.0000000001
12
0.2251851744
22
-0.0430104411
32
0.0000000000
13
0.2213759039
23
0.0000000000
33
0.0000000000
40
0.0000000000
40
0.0000000000
40
0.0000000000
40
0.0000000000
40
1.0000000000
40
1.0000000000
40
1.0000000000
40
1.0000000000
10
46.8878553954
20
64.7400171017
30
0.0000000000
10
46.9629171202
20
64.7256802880
30
0.0000000000
10
47.0385147050
20
64.7183587557
30
0.0000000000
10
47.1123066730
20
64.7183587557
30
0.0000000000
11
46.8878553954
21
64.7400171017
31
0.0000000000
11
47.1123066730
21
64.7183587557
31
0.0000000000
0
SPLINE
5
569
100
AcDbEntity
8
0
100
AcDbSpline
62
7
6
CONTINUOUS
70
0
71
3
72
8
73
4
74
2
42
0.0000001000
43
0.0000001000
44
0.0000000001
12
0.4576998435
22
-0.4996532150
32
0.0000000000
13
0.6892601747
23
-0.1316489160
33
0.0000000000
40
0.0000000000
40
0.0000000000
40
0.0000000000
40
0.0000000000
40
1.0000000000
40
1.0000000000
40
1.0000000000
40
1.0000000000
10
46.2808023952
20
65.0600593112
30
0.0000000000
10
46.4333690097
20
64.8935082396
30
0.0000000000
10
46.6581020039
20
64.7839000737
30
0.0000000000
10
46.8878553954
20
64.7400171017
30
0.0000000000
11
46.2808023952
21
65.0600593112
31
0.0000000000
11
46.8878553954
21
64.7400171017
31
0.0000000000
0
SPLINE
5
56A
100
AcDbEntity
8
0
100
AcDbSpline
62
7
6
CONTINUOUS
70
0
71
3
72
9
73
5
74
3
42
0.0000001000
43
0.0000001000
44
0.0000000001
12
0.0000000000
22
-1.1881404238
32
0.0000000000
13
0.8025549859
23
-0.8761182347
33
0.0000000000
40
0.0000000000
40
0.0000000000
40
0.0000000000
40
0.0000000000
40
0.2717421890
40
1.0000000000
40
1.0000000000
40
1.0000000000
40
1.0000000000
10
45.9059054507
20
66.1733201446
30
0.0000000000
10
45.9059054507
20
66.0656975180
30
0.0000000000
10
45.9354095104
20
65.6722562124
30
0.0000000000
10
46.0859800828
20
65.2727392938
30
0.0000000000
10
46.2808023952
20
65.0600593112
30
0.0000000000
11
45.9059054507
21
66.1733201446
31
0.0000000000
11
45.9308804597
21
65.8514196683
31
0.0000000000
11
46.2808023952
21
65.0600593112
31
0.0000000000
0
SPLINE
5
56B
100
AcDbEntity
8
0
100
AcDbSpline
62
7
6
CONTINUOUS
70
0
71
3
72
9
73
5
74
3
42
0.0000001000
43
0.0000001000
44
0.0000000001
12
-0.8027909358
22
-0.8760943696
32
0.0000000000
13
0.0000000000
23
-1.1882824261
33
0.0000000000
40
0.0000000000
40
0.0000000000
40
0.0000000000
40
0.0000000000
40
0.7282797463
40
1.0000000000
40
1.0000000000
40
1.0000000000
40
1.0000000000
10
46.2808839276
20
67.2866911317
30
0.0000000000
10
46.0859984679
20
67.0740105367
30
0.0000000000
10
45.9354060443
20
66.6744341178
30
0.0000000000
10
45.9059054507
20
66.2809469453
30
0.0000000000
10
45.9059054507
20
66.1733201446
30
0.0000000000
11
46.2808839276
21
67.2866911317
31
0.0000000000
11
45.9308777077
21
66.4952333946
31
0.0000000000
11
45.9059054507
21
66.1733201446
31
0.0000000000
0
SPLINE
5
56C
100
AcDbEntity
8
0
100
AcDbSpline
62
7
6
CONTINUOUS
70
0
71
3
72
8
73
4
74
2
42
0.0000001000
43
0.0000001000
44
0.0000000001
12
-0.2213765857
22
0.0000000000
32
0.0000000000
13
-0.2251850768
23
-0.0430114188
33
0.0000000000
40
0.0000000000
40
0.0000000000
40
0.0000000000
40
0.0000000000
40
1.0000000000
40
1.0000000000
40
1.0000000000
40
1.0000000000
10
47.1123066730
20
67.6283027001
30
0.0000000000
10
47.0385144777
20
67.6283027001
30
0.0000000000
10
46.9629168611
20
67.6209809335
30
0.0000000000
10
46.8878551688
20
67.6066437939
30
0.0000000000
11
47.1123066730
21
67.6283027001
31
0.0000000000
11
46.8878551688
21
67.6066437939
31
0.0000000000
0
SPLINE
5
56D
100
AcDbEntity
8
0
100
AcDbSpline
62
7
6
CONTINUOUS
70
0
71
3
72
8
73
4
74
2
42
0.0000001000
43
0.0000001000
44
0.0000000001
12
-0.6891342931
22
-0.1316279220
32
0.0000000000
13
-0.4577026571
23
-0.4994958251
33
0.0000000000
40
0.0000000000
40
0.0000000000
40
0.0000000000
40
0.0000000000
40
1.0000000000
40
1.0000000000
40
1.0000000000
40
1.0000000000
10
46.8878551688
20
67.6066437939
30
0.0000000000
10
46.6581437378
20
67.5627678199
30
0.0000000000
10
46.4334514785
20
67.4531897414
30
0.0000000000
10
46.2808839261
20
67.2866911331
30
0.0000000000
11
46.8878551688
21
67.6066437939
31
0.0000000000
11
46.2808839261
21
67.2866911331
31
0.0000000000
0
SPLINE
5
56E
100
AcDbEntity
8
0
100
AcDbSpline
62
7
6
CONTINUOUS
70
0
71
3
72
8
73
4
74
2
42
0.0000001000
43
0.0000001000
44
0.0000000001
12
-0.2201304205
22
0.0000000000
32
0.0000000000
13
-0.2242154019
23
0.0264013390
33
0.0000000000
40
0.0000000000
40
0.0000000000
40
0.0000000000
40
0.0000000000
40
1.0000000000
40
1.0000000000
40
1.0000000000
40
1.0000000000
10
47.1104440063
20
64.0852567001
30
0.0000000000
10
47.0370671995
20
64.0852567001
30
0.0000000000
10
46.9625939287
20
64.0897288897
30
0.0000000000
10
46.8878554614
20
64.0985293361
30
0.0000000000
11
47.1104440063
21
64.0852567001
31
0.0000000000
11
46.8878554614
21
64.0985293361
31
0.0000000000
0
SPLINE
5
56F
100
AcDbEntity
8
0
100
AcDbSpline
62
7
6
CONTINUOUS
70
0
71
3
72
8
73
4
74
2
42
0.0000001000
43
0.0000001000
44
0.0000000001
12
-1.3553884752
22
0.1595968444
32
0.0000000000
13
-0.8626538554
23
1.0132011490
33
0.0000000000
40
0.0000000000
40
0.0000000000
40
0.0000000000
40
0.0000000000
40
1.0000000000
40
1.0000000000
40
1.0000000000
40
1.0000000000
10
46.8878554614
20
64.0985293361
30
0.0000000000
10
46.4360593030
20
64.1517282842
30
0.0000000000
10
45.9745722359
20
64.3630919838
30
0.0000000000
10
45.6870209507
20
64.7008257001
30
0.0000000000
11
46.8878554614
21
64.0985293361
31
0.0000000000
11
45.6870209507
21
64.7008257001
31
0.0000000000
0
SPLINE
5
570
100
AcDbEntity
8
0
100
AcDbSpline
62
7
6
CONTINUOUS
70
0
71
3
72
8
73
4
74
2
42
0.0000001000
43
0.0000001000
44
0.0000000001
12
-1.0051520357
22
-1.1807308061
32
0.0000000000
13
-1.5506307914
23
0.0000000000
33
0.0000000000
40
0.0000000000
40
0.0000000000
40
0.0000000000
40
0.0000000000
40
1.0000000000
40
1.0000000000
40
1.0000000000
40
1.0000000000
10
48.5336553952
20
64.7008257001
30
0.0000000000
10
48.1986047166
20
64.3072487647
30
0.0000000000
10
47.6273209368
20
64.0852567001
30
0.0000000000
10
47.1104440063
20
64.0852567001
30
0.0000000000
11
48.5336553952
21
64.7008257001
31
0.0000000000
11
47.1104440063
21
64.0852567001
31
0.0000000000
0
SPLINE
5
571
100
AcDbEntity
8
0
100
AcDbSpline
62
7
6
CONTINUOUS
70
0
71
3
72
8
73
4
74
2
42
0.0000001000
43
0.0000001000
44
0.0000000001
12
0.0000000000
22
-1.5553387292
32
0.0000000000
13
-1.0082038216
23
-1.1843156744
33
0.0000000000
40
0.0000000000
40
0.0000000000
40
0.0000000000
40
0.0000000000
40
1.0000000000
40
1.0000000000
40
1.0000000000
40
1.0000000000
10
49.0333510063
20
66.1737082001
30
0.0000000000
10
49.0333510063
20
65.6552619570
30
0.0000000000
10
48.8697233357
20
65.0955975916
30
0.0000000000
10
48.5336553952
20
64.7008257001
30
0.0000000000
11
49.0333510063
21
66.1737082001
31
0.0000000000
11
48.5336553952
21
64.7008257001
31
0.0000000000
0
SPLINE
5
572
100
AcDbEntity
8
0
100
AcDbSpline
62
7
6
CONTINUOUS
70
0
71
3
72
8
73
4
74
2
42
0.0000001000
43
0.0000001000
44
0.0000000001
12
1.0082579786
22
-1.1842783437
32
0.0000000000
13
0.0000000000
23
-1.5553454108
33
0.0000000000
40
0.0000000000
40
0.0000000000
40
0.0000000000
40
0.0000000000
40
1.0000000000
40
1.0000000000
40
1.0000000000
40
1.0000000000
10
48.5336553952
20
67.6465977557
30
0.0000000000
10
48.8697413880
20
67.2518383078
30
0.0000000000
10
49.0333510063
20
66.6921566704
30
0.0000000000
10
49.0333510063
20
66.1737082001
30
0.0000000000
11
48.5336553952
21
67.6465977557
31
0.0000000000
11
49.0333510063
21
66.1737082001
31
0.0000000000
0
SPLINE
5
573
100
AcDbEntity
8
0
100
AcDbSpline
62
7
6
CONTINUOUS
70
0
71
3
72
8
73
4
74
2
42
0.0000001000
43
0.0000001000
44
0.0000000001
12
1.5499113671
22
-0.0007787278
32
0.0000000000
13
1.0046118407
23
-1.1799956678
33
0.0000000000
40
0.0000000000
40
0.0000000000
40
0.0000000000
40
0.0000000000
40
1.0000000000
40
1.0000000000
40
1.0000000000
40
1.0000000000
10
47.1113511981
20
68.2621594722
30
0.0000000000
10
47.6279883205
20
68.2618998963
30
0.0000000000
10
48.1987847816
20
68.0399296450
30
0.0000000000
10
48.5336553952
20
67.6465977557
30
0.0000000000
11
47.1113511981
21
68.2621594722
31
0.0000000000
11
48.5336553952
21
67.6465977557
31
0.0000000000
0
SPLINE
5
574
100
AcDbEntity
8
0
100
AcDbSpline
62
7
6
CONTINUOUS
70
0
71
3
72
8
73
4
74
2
42
0.0000001000
43
0.0000001000
44
0.0000000001
12
0.2251386172
22
0.0265074500
32
0.0000000000
13
0.2210076040
23
-0.0001110417
33
0.0000000000
40
0.0000000000
40
0.0000000000
40
0.0000000000
40
0.0000000000
40
1.0000000000
40
1.0000000000
40
1.0000000000
40
1.0000000000
10
46.8878572224
20
68.2488884944
30
0.0000000000
10
46.9629034282
20
68.2577243110
30
0.0000000000
10
47.0376819968
20
68.2621964861
30
0.0000000000
10
47.1113511981
20
68.2621594722
30
0.0000000000
11
46.8878572224
21
68.2488884944
31
0.0000000000
11
47.1113511981
21
68.2621594722
31
0.0000000000
0
SPLINE
5
575
100
AcDbEntity
8
0
100
AcDbSpline
62
7
6
CONTINUOUS
70
0
71
3
72
8
73
4
74
2
42
0.0000001000
43
0.0000001000
44
0.0000000001
12
0.8626348149
22
1.0129734180
32
0.0000000000
13
1.3551959168
23
0.1595585352
33
0.0000000000
40
0.0000000000
40
0.0000000000
40
0.0000000000
40
0.0000000000
40
1.0000000000
40
1.0000000000
40
1.0000000000
40
1.0000000000
10
45.6871510476
20
67.6467505482
30
0.0000000000
10
45.9746959859
20
67.9844083542
30
0.0000000000
10
46.4361252501
20
68.1957023159
30
0.0000000000
10
46.8878572224
20
68.2488884944
30
0.0000000000
11
45.6871510476
21
67.6467505482
31
0.0000000000
11
46.8878572224
21
68.2488884944
31
0.0000000000
0
SPLINE
5
576
100
AcDbEntity
8
0
100
AcDbSpline
62
7
6
CONTINUOUS
70
0
71
3
72
8
73
4
74
2
42
0.0000001000
43
0.0000001000
44
0.0000000001
12
0.0000000000
22
1.5555528876
32
0.0000000000
13
1.0085350557
23
1.1843009172
33
0.0000000000
40
0.0000000000
40
0.0000000000
40
0.0000000000
40
0.0000000000
40
1.0000000000
40
1.0000000000
40
1.0000000000
40
1.0000000000
10
45.1873041730
20
66.1737082001
30
0.0000000000
10
45.1873041730
20
66.6922258293
30
0.0000000000
10
45.3509726978
20
67.2519835740
30
0.0000000000
10
45.6871510497
20
67.6467505464
30
0.0000000000
11
45.1873041730
21
66.1737082001
31
0.0000000000
11
45.6871510497
21
67.6467505464
31
0.0000000000
0
SPLINE
5
577
100
AcDbEntity
8
0
100
AcDbSpline
62
7
6
CONTINUOUS
70
0
71
3
72
8
73
4
74
2
42
0.0000001000
43
0.0000001000
44
0.0000000001
12
-1.0082890324
22
1.1842520609
32
0.0000000000
13
0.0000000000
23
1.5553455297
33
0.0000000000
40
0.0000000000
40
0.0000000000
40
0.0000000000
40
0.0000000000
40
1.0000000000
40
1.0000000000
40
1.0000000000
40
1.0000000000
10
45.6870209507
20
64.7008257001
30
0.0000000000
10
45.3509246066
20
65.0955763871
30
0.0000000000
10
45.1873041730
20
65.6552596902
30
0.0000000000
10
45.1873041730
20
66.1737082001
30
0.0000000000
11
45.6870209507
21
64.7008257001
31
0.0000000000
11
45.1873041730
21
66.1737082001
31
0.0000000000
0
SPLINE
5
578
100
AcDbEntity
8
0
100
AcDbSpline
62
9
6
CONTINUOUS
70
0
71
3
72
12
73
8
74
6
42
0.0000001000
43
0.0000001000
44
0.0000000001
12
-11.7227165809
22
-0.0010007582
32
0.0000000000
13
-11.7227116685
23
-0.0107784426
33
0.0000000000
40
0.0000000000
40
0.0000000000
40
0.0000000000
40
0.0000000000
40
0.3513830773
40
0.7484600360
40
0.8960872654
40
0.9554616014
40
1.0000000000
40
1.0000000000
40
1.0000000000
40
1.0000000000
10
-56.2621537413
20
-34.6266655058
30
0.0000000000
10
-57.6352084834
20
-34.6267827223
30
0.0000000000
10
-60.5598701053
20
-34.6270663458
30
0.0000000000
10
-64.0613957716
20
-34.6275160991
30
0.0000000000
10
-66.4218761625
20
-34.6281136514
30
0.0000000000
10
-67.4047866382
20
-34.6285552840
30
0.0000000000
10
-67.8108330672
20
-34.6288316867
30
0.0000000000
10
-67.9848700020
20
-34.6289917049
30
0.0000000000
11
-56.2621537413
21
-34.6266655058
31
0.0000000000
11
-60.3813179629
21
-34.6270693154
31
0.0000000000
11
-65.0361385729
21
-34.6277823504
31
0.0000000000
11
-66.7667306769
21
-34.6282816524
31
0.0000000000
11
-67.4627591149
21
-34.6286120084
31
0.0000000000
11
-67.9848700020
21
-34.6289917049
31
0.0000000000
0
SPLINE
5
579
100
AcDbEntity
8
0
100
AcDbSpline
62
7
6
CONTINUOUS
70
0
71
3
72
10
73
6
74
4
42
0.0000001000
43
0.0000001000
44
0.0000000001
12
3.2754170437
22
-0.0242737080
32
0.0000000000
13
3.2754680247
23
-0.0159763002
33
0.0000000000
40
0.0000000000
40
0.0000000000
40
0.0000000000
40
0.0000000000
40
0.3222516357
40
0.6555388936
40
1.0000000000
40
1.0000000000
40
1.0000000000
40
1.0000000000
10
-59.5384920199
20
-55.2299521594
30
0.0000000000
10
-59.1866558532
20
-55.2325595735
30
0.0000000000
10
-58.4709321826
20
-55.2375200381
30
0.0000000000
10
-57.3791164755
20
-55.2441399094
30
0.0000000000
10
-56.6391367620
20
-55.2480275459
30
0.0000000000
10
-56.2630463154
20
-55.2498619506
30
0.0000000000
11
-59.5384920199
21
-55.2299521594
31
0.0000000000
11
-58.4829800168
21
-55.2372864932
31
0.0000000000
11
-57.3913154356
21
-55.2439210942
31
0.0000000000
11
-56.2630463154
21
-55.2498619506
31
0.0000000000
0
SPLINE
5
57A
100
AcDbEntity
8
0
100
AcDbSpline
62
9
6
CONTINUOUS
70
0
71
3
72
10
73
6
74
4
42
0.0000001000
43
0.0000001000
44
0.0000000001
12
0.0002754304
22
-3.8381419678
32
0.0000000000
13
-0.0002532748
23
-3.8381419693
33
0.0000000000
40
0.0000000000
40
0.0000000000
40
0.0000000000
40
0.0000000000
40
0.3334031972
40
0.6667144795
40
1.0000000000
40
1.0000000000
40
1.0000000000
40
1.0000000000
10
-56.2630463436
20
-55.2498619515
30
0.0000000000
10
-56.2630157338
20
-55.6764115526
30
0.0000000000
10
-56.2629739263
20
-56.5293931623
30
0.0000000000
10
-56.2629703790
20
-57.8087738219
30
0.0000000000
10
-56.2630071041
20
-58.6616048784
30
0.0000000000
10
-56.2630352417
20
-59.0880039264
30
0.0000000000
11
-56.2630463436
21
-55.2498619515
31
0.0000000000
11
-56.2629837839
21
-56.5295107567
31
0.0000000000
11
-56.2629801521
21
-57.8088067808
31
0.0000000000
11
-56.2630352417
21
-59.0880039264
31
0.0000000000
0
SPLINE
5
57B
100
AcDbEntity
8
0
100
AcDbSpline
62
9
6
CONTINUOUS
70
0
71
3
72
10
73
6
74
4
42
0.0000001000
43
0.0000001000
44
0.0000000001
12
0.0005691761
22
-12.3745511966
32
0.0000000000
13
-0.0017126639
23
-12.3745510911
33
0.0000000000
40
0.0000000000
40
0.0000000000
40
0.0000000000
40
0.0000000000
40
0.3333373746
40
0.6666750301
40
1.0000000000
40
1.0000000000
40
1.0000000000
40
1.0000000000
10
-56.2621253342
20
-34.6266722026
30
0.0000000000
10
-56.2620620916
20
-36.0016390052
30
0.0000000000
10
-56.2621079970
20
-38.7515737774
30
0.0000000000
10
-56.2624967341
20
-42.8764241637
30
0.0000000000
10
-56.2628635016
20
-45.6263077388
30
0.0000000000
10
-56.2630537928
20
-47.0012233621
30
0.0000000000
11
-56.2621253342
21
-34.6266722026
31
0.0000000000
11
-56.2621613109
21
-38.7515726146
31
0.0000000000
11
-56.2625236428
21
-42.8764764867
31
0.0000000000
11
-56.2630537928
21
-47.0012233621
31
0.0000000000
0
SPLINE
5
57C
100
AcDbEntity
8
0
100
AcDbSpline
62
7
6
CONTINUOUS
70
0
71
3
72
10
73
6
74
4
42
0.0000001000
43
0.0000001000
44
0.0000000001
12
-3.2770997178
22
-0.0154717936
32
0.0000000000
13
-3.2770514014
23
-0.0235806872
33
0.0000000000
40
0.0000000000
40
0.0000000000
40
0.0000000000
40
0.0000000000
40
0.3443117574
40
0.6776002701
40
1.0000000000
40
1.0000000000
40
1.0000000000
40
1.0000000000
10
-56.2630537928
20
-47.0012233621
30
0.0000000000
10
-56.6391684471
20
-47.0029990689
30
0.0000000000
10
-57.3793550793
20
-47.0067668050
30
0.0000000000
10
-58.4717150366
20
-47.0131922687
30
0.0000000000
10
-59.1879588352
20
-47.0180117049
30
0.0000000000
10
-59.5401323308
20
-47.0205458406
30
0.0000000000
11
-56.2630537928
21
-47.0012233621
31
0.0000000000
11
-57.3913956489
21
-47.0069794454
31
0.0000000000
11
-58.4836085297
21
-47.0134188944
31
0.0000000000
11
-59.5401323308
21
-47.0205458406
31
0.0000000000
0
SPLINE
5
57D
100
AcDbEntity
8
0
100
AcDbSpline
62
7
6
CONTINUOUS
70
0
71
3
72
10
73
6
74
4
42
0.0000001000
43
0.0000001000
44
0.0000000001
12
0.0013649508
22
-8.2094063706
32
0.0000000000
13
0.0019213630
23
-8.2094062593
33
0.0000000000
40
0.0000000000
40
0.0000000000
40
0.0000000000
40
0.0000000000
40
0.3338764680
40
0.6671712057
40
1.0000000000
40
1.0000000000
40
1.0000000000
40
1.0000000000
10
-59.5401323308
20
-47.0205458406
30
0.0000000000
10
-59.5399804225
20
-47.9341883751
30
0.0000000000
10
-59.5396568303
20
-49.7598815540
30
0.0000000000
10
-59.5391105954
20
-52.4963503277
30
0.0000000000
10
-59.5387051816
20
-54.3191765638
30
0.0000000000
10
-59.5384920199
20
-55.2299521594
30
0.0000000000
11
-59.5401323308
21
-47.0205458406
31
0.0000000000
11
-59.5396463203
21
-49.7614734388
31
0.0000000000
11
-59.5390999379
21
-52.4976253652
31
0.0000000000
11
-59.5384920199
21
-55.2299521594
31
0.0000000000
0
SPLINE
5
57E
100
AcDbEntity
8
0
100
AcDbSpline
62
9
6
CONTINUOUS
70
0
71
3
72
9
73
5
74
3
42
0.0000001000
43
0.0000001000
44
0.0000000001
12
-0.1196911964
22
-4.2962962040
32
0.0000000000
13
-0.0299938674
23
-4.2978974179
33
0.0000000000
40
0.0000000000
40
0.0000000000
40
0.0000000000
40
0.0000000000
40
0.8023274087
40
1.0000000000
40
1.0000000000
40
1.0000000000
40
1.0000000000
10
-56.2630684599
20
-59.0880032951
30
0.0000000000
10
-56.2950789690
20
-60.2370153619
30
0.0000000000
10
-56.3220285764
20
-61.6694996257
30
0.0000000000
10
-56.3348128879
20
-63.1021151558
30
0.0000000000
10
-56.3367892098
20
-63.3853073291
30
0.0000000000
11
-56.2630684599
21
-59.0880032951
31
0.0000000000
11
-56.3292051708
21
-62.5357426366
31
0.0000000000
11
-56.3367892098
21
-63.3853073291
31
0.0000000000
0
SPLINE
5
57F
100
AcDbEntity
8
0
100
AcDbSpline
62
9
6
CONTINUOUS
70
0
71
3
72
8
73
4
74
2
42
0.0000001000
43
0.0000001000
44
0.0000000001
12
-0.0003009175
22
-0.0431192314
32
0.0000000000
13
-0.0002924058
23
-0.0431192824
33
0.0000000000
40
0.0000000000
40
0.0000000000
40
0.0000000000
40
0.0000000000
40
1.0000000000
40
1.0000000000
40
1.0000000000
40
1.0000000000
10
-56.3367892098
20
-63.3853073291
30
0.0000000000
10
-56.3368895156
20
-63.3996804062
30
0.0000000000
10
-56.3369884026
20
-63.4140534920
30
0.0000000000
10
-56.3370858712
20
-63.4284265861
30
0.0000000000
11
-56.3367892098
21
-63.3853073291
31
0.0000000000
11
-56.3370858712
21
-63.4284265861
31
0.0000000000
0
SPLINE
5
580
100
AcDbEntity
8
0
100
AcDbSpline
62
9
6
CONTINUOUS
70
0
71
3
72
8
73
4
74
2
42
0.0000001000
43
0.0000001000
44
0.0000000001
12
-0.0008150521
22
-0.1201907230
32
0.0000000000
13
-0.0007489508
23
-0.1201910992
33
0.0000000000
40
0.0000000000
40
0.0000000000
40
0.0000000000
40
0.0000000000
40
1.0000000000
40
1.0000000000
40
1.0000000000
40
1.0000000000
10
-56.3370858712
20
-63.4284265861
30
0.0000000000
10
-56.3373575553
20
-63.4684901604
30
0.0000000000
10
-56.3376182186
20
-63.5085538000
30
0.0000000000
10
-56.3378678688
20
-63.5486174997
30
0.0000000000
11
-56.3370858712
21
-63.4284265861
31
0.0000000000
11
-56.3378678688
21
-63.5486174997
31
0.0000000000
0
SPLINE
5
581
100
AcDbEntity
8
0
100
AcDbSpline
62
9
6
CONTINUOUS
70
0
71
3
72
8
73
4
74
2
42
0.0000001000
43
0.0000001000
44
0.0000000001
12
-0.0012621664
22
-0.2025515784
32
0.0000000000
13
-0.0010746110
23
-0.2025525315
33
0.0000000000
40
0.0000000000
40
0.0000000000
40
0.0000000000
40
0.0000000000
40
1.0000000000
40
1.0000000000
40
1.0000000000
40
1.0000000000
10
-56.3378678688
20
-63.5486174997
30
0.0000000000
10
-56.3382885910
20
-63.6161346926
30
0.0000000000
10
-56.3386780355
20
-63.6836520563
30
0.0000000000
10
-56.3390362392
20
-63.7511695668
30
0.0000000000
11
-56.3378678688
21
-63.5486174997
31
0.0000000000
11
-56.3390362392
21
-63.7511695668
31
0.0000000000
0
SPLINE
5
582
100
AcDbEntity
8
0
100
AcDbSpline
62
9
6
CONTINUOUS
70
0
71
3
72
8
73
4
74
2
42
0.0000001000
43
0.0000001000
44
0.0000000001
12
-0.0008578628
22
-0.1616978405
32
0.0000000000
13
-0.0007384632
23
-0.1616983650
33
0.0000000000
40
0.0000000000
40
0.0000000000
40
0.0000000000
40
0.0000000000
40
1.0000000000
40
1.0000000000
40
1.0000000000
40
1.0000000000
10
-56.3390362392
20
-63.7511695668
30
0.0000000000
10
-56.3393221934
20
-63.8050688470
30
0.0000000000
10
-56.3395882384
20
-63.8589682207
30
0.0000000000
10
-56.3398343928
20
-63.9128676757
30
0.0000000000
11
-56.3390362392
21
-63.7511695668
31
0.0000000000
11
-56.3398343928
21
-63.9128676757
31
0.0000000000
0
SPLINE
5
583
100
AcDbEntity
8
0
100
AcDbSpline
62
9
6
CONTINUOUS
70
0
71
3
72
8
73
4
74
2
42
0.0000001000
43
0.0000001000
44
0.0000000001
12
-0.0009211133
22
-0.2016925239
32
0.0000000000
13
-0.0007355416
23
-0.2016932111
33
0.0000000000
40
0.0000000000
40
0.0000000000
40
0.0000000000
40
0.0000000000
40
1.0000000000
40
1.0000000000
40
1.0000000000
40
1.0000000000
10
-56.3398343928
20
-63.9128676757
30
0.0000000000
10
-56.3401414306
20
-63.9800985169
30
0.0000000000
10
-56.3404175216
20
-64.0473294847
30
0.0000000000
10
-56.3406627021
20
-64.1145605551
30
0.0000000000
11
-56.3398343928
21
-63.9128676757
31
0.0000000000
11
-56.3406627021
21
-64.1145605551
31
0.0000000000
0
SPLINE
5
584
100
AcDbEntity
8
0
100
AcDbSpline
62
9
6
CONTINUOUS
70
0
71
3
72
8
73
4
74
2
42
0.0000001000
43
0.0000001000
44
0.0000000001
12
-0.0004003042
22
-0.1097676228
32
0.0000000000
13
-0.0003453902
23
-0.1097677937
33
0.0000000000
40
0.0000000000
40
0.0000000000
40
0.0000000000
40
0.0000000000
40
1.0000000000
40
1.0000000000
40
1.0000000000
40
1.0000000000
10
-56.3406627021
20
-64.1145605551
30
0.0000000000
10
-56.3407961368
20
-64.1511497627
30
0.0000000000
10
-56.3409204163
20
-64.1877390007
30
0.0000000000
10
-56.3410355463
20
-64.2243282653
30
0.0000000000
11
-56.3406627021
21
-64.1145605551
31
0.0000000000
11
-56.3410355463
21
-64.2243282653
31
0.0000000000
0
SPLINE
5
585
100
AcDbEntity
8
0
100
AcDbSpline
62
9
6
CONTINUOUS
70
0
71
3
72
8
73
4
74
2
42
0.0000001000
43
0.0000001000
44
0.0000000001
12
-0.0001646389
22
-0.0523235682
32
0.0000000000
13
-0.0001521672
23
-0.0523236032
33
0.0000000000
40
0.0000000000
40
0.0000000000
40
0.0000000000
40
0.0000000000
40
1.0000000000
40
1.0000000000
40
1.0000000000
40
1.0000000000
10
-56.3410355463
20
-64.2243282653
30
0.0000000000
10
-56.3410904260
20
-64.2417694547
30
0.0000000000
10
-56.3411432267
20
-64.2592106501
30
0.0000000000
10
-56.3411939491
20
-64.2766518512
30
0.0000000000
11
-56.3410355463
21
-64.2243282653
31
0.0000000000
11
-56.3411939491
21
-64.2766518512
31
0.0000000000
0
SPLINE
5
586
100
AcDbEntity
8
0
100
AcDbSpline
62
9
6
CONTINUOUS
70
0
71
3
72
8
73
4
74
2
42
0.0000001000
43
0.0000001000
44
0.0000000001
12
-0.0011762417
22
-0.4044576748
32
0.0000000000
13
-0.0004320317
23
-0.4044591132
33
0.0000000000
40
0.0000000000
40
0.0000000000
40
0.0000000000
40
0.0000000000
40
1.0000000000
40
1.0000000000
40
1.0000000000
40
1.0000000000
10
-56.3411939491
20
-64.2766518512
30
0.0000000000
10
-56.3415860296
20
-64.4114710761
30
0.0000000000
10
-56.3418539288
20
-64.5462906368
30
0.0000000000
10
-56.3419979393
20
-64.6811103412
30
0.0000000000
11
-56.3411939491
21
-64.2766518512
31
0.0000000000
11
-56.3419979393
21
-64.6811103412
31
0.0000000000
0
SPLINE
5
587
100
AcDbEntity
8
0
100
AcDbSpline
62
9
6
CONTINUOUS
70
0
71
3
72
8
73
4
74
2
42
0.0000001000
43
0.0000001000
44
0.0000000001
12
-0.0001294712
22
-0.1212082327
32
0.0000000000
13
-0.0000627378
23
-0.1212082947
33
0.0000000000
40
0.0000000000
40
0.0000000000
40
0.0000000000
40
0.0000000000
40
1.0000000000
40
1.0000000000
40
1.0000000000
40
1.0000000000
10
-56.3419979393
20
-64.6811103412
30
0.0000000000
10
-56.3420410964
20
-64.7215130855
30
0.0000000000
10
-56.3420731273
20
-64.7619158426
30
0.0000000000
10
-56.3420940399
20
-64.8023186075
30
0.0000000000
11
-56.3419979393
21
-64.6811103412
31
0.0000000000
11
-56.3420940399
21
-64.8023186075
31
0.0000000000
0
SPLINE
5
588
100
AcDbEntity
8
0
100
AcDbSpline
62
9
6
CONTINUOUS
70
0
71
3
72
8
73
4
74
2
42
0.0000001000
43
0.0000001000
44
0.0000000001
12
-0.0000999575
22
-0.1931161487
32
0.0000000000
13
0.0000692878
23
-0.1931162038
33
0.0000000000
40
0.0000000000
40
0.0000000000
40
0.0000000000
40
0.0000000000
40
1.0000000000
40
1.0000000000
40
1.0000000000
40
1.0000000000
10
-56.3420940399
20
-64.8023186075
30
0.0000000000
10
-56.3421273590
20
-64.8666906571
30
0.0000000000
10
-56.3421324547
20
-64.9310627263
30
0.0000000000
10
-56.3421093588
20
-64.9954347942
30
0.0000000000
11
-56.3420940399
21
-64.8023186075
31
0.0000000000
11
-56.3421093588
21
-64.9954347942
31
0.0000000000
0
SPLINE
5
589
100
AcDbEntity
8
0
100
AcDbSpline
62
9
6
CONTINUOUS
70
0
71
3
72
11
73
7
74
5
42
0.0000001000
43
0.0000001000
44
0.0000000001
12
0.0018837547
22
-5.2503251649
32
0.0000000000
13
0.1529603250
23
-5.2480599799
33
0.0000000000
40
0.0000000000
40
0.0000000000
40
0.0000000000
40
0.0000000000
40
0.1272520351
40
0.6319612305
40
0.8410361896
40
1.0000000000
40
1.0000000000
40
1.0000000000
40
1.0000000000
10
-56.3421093588
20
-64.9954347942
30
0.0000000000
10
-56.3420294549
20
-65.2181396483
30
0.0000000000
10
-56.3399568821
20
-66.3241402235
30
0.0000000000
10
-56.3261665548
20
-67.7960157016
30
0.0000000000
10
-56.2965963998
20
-69.3231311688
30
0.0000000000
10
-56.2800654950
20
-69.9670271931
30
0.0000000000
10
-56.2719604429
20
-70.2451110635
30
0.0000000000
11
-56.3421093588
21
-64.9954347942
31
0.0000000000
11
-56.3408586762
21
-65.6635484454
31
0.0000000000
11
-56.3150791982
21
-68.3132919774
31
0.0000000000
11
-56.2935879672
21
-69.4107854504
31
0.0000000000
11
-56.2719604429
21
-70.2451110635
31
0.0000000000
0
SPLINE
5
58A
100
AcDbEntity
8
0
100
AcDbSpline
62
9
6
CONTINUOUS
70
0
71
3
72
11
73
7
74
5
42
0.0000001000
43
0.0000001000
44
0.0000000001
12
11.0972234726
22
0.0113718835
32
0.0000000000
13
11.0972292824
23
0.0006101887
33
0.0000000000
40
0.0000000000
40
0.0000000000
40
0.0000000000
40
0.0000000000
40
0.0708249247
40
0.1639235960
40
0.4032190773
40
1.0000000000
40
1.0000000000
40
1.0000000000
40
1.0000000000
10
-67.3602686399
20
-59.0899573489
30
0.0000000000
10
-67.0982819678
20
-59.0896888779
30
0.0000000000
10
-66.4919161358
20
-59.0893183123
30
0.0000000000
10
-65.0003780419
20
-59.0888129062
30
0.0000000000
10
-61.5632884257
20
-59.0883181727
30
0.0000000000
10
-58.4705779190
20
-59.0881253096
30
0.0000000000
10
-56.2630396756
20
-59.0880039266
30
0.0000000000
11
-67.3602686399
21
-59.0899573489
31
0.0000000000
11
-66.5743084089
21
-59.0893994844
31
0.0000000000
11
-65.5411711769
21
-59.0890149534
31
0.0000000000
11
-62.8856543949
21
-59.0885291814
31
0.0000000000
11
-56.2630396756
21
-59.0880039266
31
0.0000000000
0
SPLINE
5
58B
100
AcDbEntity
8
0
100
AcDbSpline
62
7
6
CONTINUOUS
70
0
71
3
72
8
73
4
74
2
42
0.0000001000
43
0.0000001000
44
0.0000000001
12
3.4999332725
22
0.0874323234
32
0.0000000000
13
3.5000432668
23
0.0976947174
33
0.0000000000
40
0.0000000000
40
0.0000000000
40
0.0000000000
40
0.0000000000
40
1.0000000000
40
1.0000000000
40
1.0000000000
40
1.0000000000
10
29.5653910424
20
-70.9319405950
30
0.0000000000
10
30.7320354666
20
-70.9027964872
30
0.0000000000
10
31.8987098402
20
-70.8719422140
30
0.0000000000
10
33.0653909291
20
-70.8393773082
30
0.0000000000
11
29.5653910424
21
-70.9319405950
31
0.0000000000
11
33.0653909291
21
-70.8393773082
31
0.0000000000
0
SPLINE
5
58C
100
AcDbEntity
8
0
100
AcDbSpline
62
7
6
CONTINUOUS
70
0
71
3
72
11
73
7
74
5
42
0.0000001000
43
0.0000001000
44
0.0000000001
12
0.2823547339
22
7.5414842328
32
0.0000000000
13
0.0506756740
23
7.5465979491
33
0.0000000000
40
0.0000000000
40
0.0000000000
40
0.0000000000
40
0.0000000000
40
0.2104067152
40
0.4477361226
40
0.7109226355
40
1.0000000000
40
1.0000000000
40
1.0000000000
40
1.0000000000
10
33.0653909841
20
-70.8393792773
30
0.0000000000
10
33.0851940948
20
-70.3104529689
30
0.0000000000
10
33.1173632608
20
-69.1845546749
30
0.0000000000
10
33.1530253654
20
-67.3965137967
30
0.0000000000
10
33.1803220395
20
-65.4103970595
30
0.0000000000
10
33.1925836712
20
-64.0211769537
30
0.0000000000
10
33.1974667346
20
-63.2939934049
30
0.0000000000
11
33.0653909841
21
-70.8393792773
31
0.0000000000
11
33.1132847135
21
-69.2522110388
31
0.0000000000
11
33.1499735908
21
-67.4615168531
31
0.0000000000
11
33.1778757267
21
-65.4755052692
31
0.0000000000
11
33.1974667346
21
-63.2939934049
31
0.0000000000
0
SPLINE
5
58D
100
AcDbEntity
8
0
100
AcDbSpline
62
7
6
CONTINUOUS
70
0
71
3
72
10
73
6
74
4
42
0.0000001000
43
0.0000001000
44
0.0000000001
12
-3.7648195040
22
0.0007181621
32
0.0000000000
13
-3.7648195216
23
0.0006190745
33
0.0000000000
40
0.0000000000
40
0.0000000000
40
0.0000000000
40
0.0000000000
40
0.3328140769
40
0.6661563870
40
1.0000000000
40
1.0000000000
40
1.0000000000
40
1.0000000000
10
33.1974667346
20
-63.2939934049
30
0.0000000000
10
32.7798050920
20
-63.2939137334
30
0.0000000000
10
31.9438189051
20
-63.2937580625
30
0.0000000000
10
30.6888790673
20
-63.2935355095
30
0.0000000000
10
29.8516008719
20
-63.2933942842
30
0.0000000000
10
29.4326472215
20
-63.2933253928
30
0.0000000000
11
33.1974667346
21
-63.2939934049
31
0.0000000000
11
31.9444818057
21
-63.2937600370
31
0.0000000000
11
30.6895081719
21
-63.2935374331
31
0.0000000000
11
29.4326472215
21
-63.2933253928
31
0.0000000000
0
SPLINE
5
58E
100
AcDbEntity
8
0
100
AcDbSpline
62
7
6
CONTINUOUS
70
0
71
3
72
11
73
7
74
5
42
0.0000001000
43
0.0000001000
44
0.0000000001
12
0.0498195134
22
-7.6398362497
32
0.0000000000
13
0.2864502373
23
-7.6346267864
33
0.0000000000
40
0.0000000000
40
0.0000000000
40
0.0000000000
40
0.0000000000
40
0.2894230432
40
0.5527288028
40
0.7899573332
40
1.0000000000
40
1.0000000000
40
1.0000000000
40
1.0000000000
10
29.4326472215
20
-63.2933253928
30
0.0000000000
10
29.4374535265
20
-64.0303736119
30
0.0000000000
10
29.4496271424
20
-65.4379419508
30
0.0000000000
10
29.4769765700
20
-67.4495258967
30
0.0000000000
10
29.5128626542
20
-69.2587794124
30
0.0000000000
10
29.5453353935
20
-70.3974058016
30
0.0000000000
10
29.5653909841
20
-70.9319382585
30
0.0000000000
11
29.4326472215
21
-63.2933253928
31
0.0000000000
11
29.4521114053
21
-65.5044313933
31
0.0000000000
11
29.4800791541
21
-67.5158926252
31
0.0000000000
11
29.5170162158
21
-69.3279418592
31
0.0000000000
11
29.5653909841
21
-70.9319382585
31
0.0000000000
0
SPLINE
5
58F
100
AcDbEntity
8
0
100
AcDbSpline
62
9
6
CONTINUOUS
70
0
71
3
72
9
73
5
74
3
42
0.0000001000
43
0.0000001000
44
0.0000000001
12
-0.0002141431
22
2.5384706783
32
0.0000000000
13
-0.0000193027
23
2.5384706872
33
0.0000000000
40
0.0000000000
40
0.0000000000
40
0.0000000000
40
0.0000000000
40
0.4915326531
40
1.0000000000
40
1.0000000000
40
1.0000000000
40
1.0000000000
10
46.8879660692
20
-61.6260691569
30
0.0000000000
10
46.8879309831
20
-61.2101554145
30
0.0000000000
10
46.8878789453
20
-60.3639985200
30
0.0000000000
10
46.8878591107
20
-59.5178416243
30
0.0000000000
10
46.8878558391
20
-59.0875984724
30
0.0000000000
11
46.8879660692
21
-61.6260691569
31
0.0000000000
11
46.8878876070
21
-60.3783279277
31
0.0000000000
11
46.8878558391
21
-59.0875984724
31
0.0000000000
0
SPLINE
5
590
100
AcDbEntity
8
0
100
AcDbSpline
62
9
6
CONTINUOUS
70
0
71
3
72
9
73
5
74
3
42
0.0000001000
43
0.0000001000
44
0.0000000001
12
-0.0015327661
22
1.5321589736
32
0.0000000000
13
-0.0008006717
23
1.5321595311
33
0.0000000000
40
0.0000000000
40
0.0000000000
40
0.0000000000
40
0.0000000000
40
0.6043123951
40
1.0000000000
40
1.0000000000
40
1.0000000000
40
1.0000000000
10
46.8912111402
20
-70.6582285279
30
0.0000000000
10
46.8909023837
20
-70.3495943082
30
0.0000000000
10
46.8905507187
20
-69.8388744978
30
0.0000000000
10
46.8902683751
20
-69.3281546656
30
0.0000000000
10
46.8901627699
20
-69.1260691539
30
0.0000000000
11
46.8912111402
21
-70.6582285279
31
0.0000000000
11
46.8905026684
21
-69.7323256765
31
0.0000000000
11
46.8901627699
21
-69.1260691539
31
0.0000000000
0
SPLINE
5
591
100
AcDbEntity
8
0
100
AcDbSpline
62
9
6
CONTINUOUS
70
0
71
3
72
12
73
8
74
6
42
0.0000001000
43
0.0000001000
44
0.0000000001
12
0.3250846749
22
11.1536413412
32
0.0000000000
13
-0.3107424487
23
11.1540501812
33
0.0000000000
40
0.0000000000
40
0.0000000000
40
0.0000000000
40
0.0000000000
40
0.0747963442
40
0.1731712059
40
0.4106491468
40
0.6909611119
40
1.0000000000
40
1.0000000000
40
1.0000000000
40
1.0000000000
10
55.9027424693
20
-70.2451090505
30
0.0000000000
10
55.9108475177
20
-69.9670251848
30
0.0000000000
10
55.9273784120
20
-69.3231291660
30
0.0000000000
10
55.9569485479
20
-67.7960138215
30
0.0000000000
10
55.9784206340
20
-65.5042432792
30
0.0000000000
10
55.9670958140
20
-62.4288212687
30
0.0000000000
10
55.9258609283
20
-60.2370150504
30
0.0000000000
10
55.8938504280
20
-59.0880032953
30
0.0000000000
11
55.9027424693
21
-70.2451090505
31
0.0000000000
11
55.9243699813
21
-69.4107834514
31
0.0000000000
11
55.9458611993
21
-68.3132899814
31
0.0000000000
11
55.9716406503
21
-65.6635468004
31
0.0000000000
11
55.9599871287
21
-62.5357417015
31
0.0000000000
11
55.8938504280
21
-59.0880032953
31
0.0000000000
0
SPLINE
5
592
100
AcDbEntity
8
0
100
AcDbSpline
62
9
6
CONTINUOUS
70
0
71
3
72
11
73
7
74
5
42
0.0000001000
43
0.0000001000
44
0.0000000001
12
11.0973133915
22
-0.0006101934
32
0.0000000000
13
11.0973075807
23
-0.0113729521
33
0.0000000000
40
0.0000000000
40
0.0000000000
40
0.0000000000
40
0.0000000000
40
0.5967763996
40
0.8360700672
40
0.9291680330
40
1.0000000000
40
1.0000000000
40
1.0000000000
40
1.0000000000
10
55.8938216432
20
-59.0880039266
30
0.0000000000
10
58.1013598868
20
-59.0881253096
30
0.0000000000
10
61.1940703937
20
-59.0883181727
30
0.0000000000
10
64.6311600101
20
-59.0888129062
30
0.0000000000
10
66.1227261402
20
-59.0893183218
30
0.0000000000
10
66.7291200083
20
-59.0896889122
30
0.0000000000
10
66.9911347166
20
-59.0899574350
30
0.0000000000
11
55.8938216432
21
-59.0880039266
31
0.0000000000
11
62.5164363631
21
-59.0885291814
31
0.0000000000
11
65.1719531451
21
-59.0890149534
31
0.0000000000
11
66.2050903771
21
-59.0893994844
31
0.0000000000
11
66.9911347166
21
-59.0899574350
31
0.0000000000
0
SPLINE
5
593
100
AcDbEntity
8
0
100
AcDbSpline
62
7
6
CONTINUOUS
70
0
71
3
72
10
73
6
74
4
42
0.0000001000
43
0.0000001000
44
0.0000000001
12
0.0019213630
22
8.2094062593
32
0.0000000000
13
0.0013649508
23
8.2094063706
33
0.0000000000
40
0.0000000000
40
0.0000000000
40
0.0000000000
40
0.0000000000
40
0.3328288972
40
0.6661236314
40
1.0000000000
40
1.0000000000
40
1.0000000000
40
1.0000000000
10
59.1692739881
20
-55.2299521594
30
0.0000000000
10
59.1694871498
20
-54.3191762822
30
0.0000000000
10
59.1698925637
20
-52.4963497741
30
0.0000000000
10
59.1704387985
20
-49.7598810004
30
0.0000000000
10
59.1707623907
20
-47.9341881030
30
0.0000000000
10
59.1709142989
20
-47.0205458406
30
0.0000000000
11
59.1692739881
21
-55.2299521594
31
0.0000000000
11
59.1698819062
21
-52.4976245206
31
0.0000000000
11
59.1704282886
21
-49.7614726227
31
0.0000000000
11
59.1709142989
21
-47.0205458406
31
0.0000000000
0
SPLINE
5
594
100
AcDbEntity
8
0
100
AcDbSpline
62
7
6
CONTINUOUS
70
0
71
3
72
10
73
6
74
4
42
0.0000001000
43
0.0000001000
44
0.0000000001
12
-3.2770506888
22
0.0235806820
32
0.0000000000
13
-3.2770990051
23
0.0154717918
33
0.0000000000
40
0.0000000000
40
0.0000000000
40
0.0000000000
40
0.0000000000
40
0.3223997298
40
0.6556882387
40
1.0000000000
40
1.0000000000
40
1.0000000000
40
1.0000000000
10
59.1709142989
20
-47.0205458406
30
0.0000000000
10
58.8187408801
20
-47.0180117054
30
0.0000000000
10
58.1024972416
20
-47.0131922710
30
0.0000000000
10
57.0101375219
20
-47.0067668049
30
0.0000000000
10
56.2699510504
20
-47.0029990781
30
0.0000000000
10
55.8938364736
20
-47.0012233715
30
0.0000000000
11
59.1709142989
21
-47.0205458406
31
0.0000000000
11
58.1143907281
21
-47.0134188958
31
0.0000000000
11
57.0221780973
21
-47.0069794480
31
0.0000000000
11
55.8938364736
21
-47.0012233715
31
0.0000000000
0
SPLINE
5
595
100
AcDbEntity
8
0
100
AcDbSpline
62
7
6
CONTINUOUS
70
0
71
3
72
10
73
6
74
4
42
0.0000001000
43
0.0000001000
44
0.0000000001
12
3.2754681107
22
0.0159763004
32
0.0000000000
13
3.2754171297
23
0.0242737087
33
0.0000000000
40
0.0000000000
40
0.0000000000
40
0.0000000000
40
0.0000000000
40
0.3444610933
40
0.6777483581
40
1.0000000000
40
1.0000000000
40
1.0000000000
40
1.0000000000
10
55.8938281978
20
-55.2498619954
30
0.0000000000
10
56.2699186399
20
-55.2480275908
30
0.0000000000
10
57.0098983658
20
-55.2441398898
30
0.0000000000
10
58.1017141017
20
-55.2375200438
30
0.0000000000
10
58.8174378054
20
-55.2325595736
30
0.0000000000
10
59.1692739881
20
-55.2299521594
30
0.0000000000
11
55.8938281978
21
-55.2498619954
31
0.0000000000
11
57.0220973045
21
-55.2439210947
31
0.0000000000
11
58.1137619371
21
-55.2372864935
31
0.0000000000
11
59.1692739881
21
-55.2299521594
31
0.0000000000
0
SPLINE
5
596
100
AcDbEntity
8
0
100
AcDbSpline
62
7
6
CONTINUOUS
70
0
71
3
72
10
73
6
74
4
42
0.0000001000
43
0.0000001000
44
0.0000000001
12
0.0000000009
22
-4.1282547817
32
0.0000000000
13
0.0000183207
23
-4.1282547817
33
0.0000000000
40
0.0000000000
40
0.0000000000
40
0.0000000000
40
0.0000000000
40
0.3324590472
40
0.6657932438
40
1.0000000000
40
1.0000000000
40
1.0000000000
40
1.0000000000
10
55.4371269219
20
0.8739308445
30
0.0000000000
10
55.4371269220
20
0.4164389607
30
0.0000000000
10
55.4371276247
20
-0.4997490867
30
0.0000000000
10
55.4371307395
20
-1.8758340139
30
0.0000000000
10
55.4371341614
20
-2.7944270573
30
0.0000000000
10
55.4371362024
20
-3.2543239372
30
0.0000000000
11
55.4371269219
21
0.8739308445
31
0.0000000000
11
55.4371279657
21
-0.4985448069
31
0.0000000000
11
55.4371310716
21
-1.8746332977
31
0.0000000000
11
55.4371362024
21
-3.2543239372
31
0.0000000000
0
SPLINE
5
597
100
AcDbEntity
8
0
100
AcDbSpline
62
7
6
CONTINUOUS
70
0
71
3
72
10
73
6
74
4
42
0.0000001000
43
0.0000001000
44
0.0000000001
12
3.7365556744
22
0.0154409033
32
0.0000000000
13
3.7365039637
23
0.0249971722
33
0.0000000000
40
0.0000000000
40
0.0000000000
40
0.0000000000
40
0.0000000000
40
0.3452554664
40
0.6785342327
40
1.0000000000
40
1.0000000000
40
1.0000000000
40
1.0000000000
10
55.4371362024
20
-3.2543239372
30
0.0000000000
10
55.8671582930
20
-3.2525469184
30
0.0000000000
10
56.7122839823
20
-3.2487313090
30
0.0000000000
10
57.9577955908
20
-3.2420882069
30
0.0000000000
10
58.7732834467
20
-3.2370262343
30
0.0000000000
10
59.1736694846
20
-3.2343476559
30
0.0000000000
11
55.4371362024
21
-3.2543239372
31
0.0000000000
11
56.7272002748
21
-3.2484848088
31
0.0000000000
11
57.9725077660
21
-3.2418251376
31
0.0000000000
11
59.1736694846
21
-3.2343476559
31
0.0000000000
0
SPLINE
5
598
100
AcDbEntity
8
0
100
AcDbSpline
62
7
6
CONTINUOUS
70
0
71
3
72
10
73
6
74
4
42
0.0000001000
43
0.0000001000
44
0.0000000001
12
0.0000415857
22
4.1082785004
32
0.0000000000
13
0.0000000001
23
4.1082785006
33
0.0000000000
40
0.0000000000
40
0.0000000000
40
0.0000000000
40
0.0000000000
40
0.3343644887
40
0.6676983742
40
1.0000000000
40
1.0000000000
40
1.0000000000
40
1.0000000000
10
59.1736694846
20
-3.2343476559
30
0.0000000000
10
59.1736741195
20
-2.7764601759
30
0.0000000000
10
59.1736818822
20
-1.8620965508
30
0.0000000000
10
59.1736889358
20
-0.4926703839
30
0.0000000000
10
59.1736905240
20
0.4188683029
30
0.0000000000
10
59.1736905240
20
0.8739308445
30
0.0000000000
11
59.1736694846
21
-3.2343476559
31
0.0000000000
11
59.1736811286
21
-1.8606852157
31
0.0000000000
11
59.1736881640
21
-0.4912567805
31
0.0000000000
11
59.1736905240
21
0.8739308445
31
0.0000000000
0
SPLINE
5
599
100
AcDbEntity
8
0
100
AcDbSpline
62
9
6
CONTINUOUS
70
0
71
3
72
12
73
8
74
6
42
0.0000001000
43
0.0000001000
44
0.0000000001
12
-11.7227108573
22
0.0107784326
32
0.0000000000
13
-11.7227157697
23
0.0010007581
33
0.0000000000
40
0.0000000000
40
0.0000000000
40
0.0000000000
40
0.0000000000
40
0.0445383325
40
0.1039126726
40
0.2515399121
40
0.6486168983
40
1.0000000000
40
1.0000000000
40
1.0000000000
40
1.0000000000
10
67.6156511592
20
-34.6289917041
30
0.0000000000
10
67.4416144947
20
-34.6288316863
30
0.0000000000
10
67.0355683360
20
-34.6285552838
30
0.0000000000
10
66.0526581310
20
-34.6281136514
30
0.0000000000
10
63.6921777404
20
-34.6275160991
30
0.0000000000
10
60.1906520742
20
-34.6270663458
30
0.0000000000
10
57.2659904521
20
-34.6267827223
30
0.0000000000
10
55.8929357097
20
-34.6266655058
30
0.0000000000
11
67.6156511592
21
-34.6289917041
31
0.0000000000
11
67.0935410831
21
-34.6286120084
31
0.0000000000
11
66.3975126451
21
-34.6282816524
31
0.0000000000
11
64.6669205421
21
-34.6277823504
31
0.0000000000
11
60.0120999321
21
-34.6270693154
31
0.0000000000
11
55.8929357097
21
-34.6266655058
31
0.0000000000
0
SPLINE
5
59A
100
AcDbEntity
8
0
100
AcDbSpline
62
7
6
CONTINUOUS
70
0
71
3
72
10
73
6
74
4
42
0.0000001000
43
0.0000001000
44
0.0000000001
12
-3.7365039637
22
0.0249971722
32
0.0000000000
13
-3.7365556744
23
0.0154409033
33
0.0000000000
40
0.0000000000
40
0.0000000000
40
0.0000000000
40
0.0000000000
40
0.3214657640
40
0.6547445275
40
1.0000000000
40
1.0000000000
40
1.0000000000
40
1.0000000000
10
59.1736694846
20
4.9822093451
30
0.0000000000
10
58.7732834508
20
4.9848879234
30
0.0000000000
10
57.9577956025
20
4.9899498959
30
0.0000000000
10
56.7122839940
20
4.9965929981
30
0.0000000000
10
55.8671583006
20
5.0004086075
30
0.0000000000
10
55.4371362024
20
5.0021856263
30
0.0000000000
11
59.1736694846
21
4.9822093451
31
0.0000000000
11
57.9725077783
21
4.9896868266
31
0.0000000000
11
56.7272002975
21
4.9963464979
31
0.0000000000
11
55.4371362024
21
5.0021856263
31
0.0000000000
0
SPLINE
5
59B
100
AcDbEntity
8
0
100
AcDbSpline
62
7
6
CONTINUOUS
70
0
71
3
72
10
73
6
74
4
42
0.0000001000
43
0.0000001000
44
0.0000000001
12
-0.0000183207
22
-4.1282547817
32
0.0000000000
13
-0.0000000009
23
-4.1282547817
33
0.0000000000
40
0.0000000000
40
0.0000000000
40
0.0000000000
40
0.0000000000
40
0.3342068037
40
0.6675410002
40
1.0000000000
40
1.0000000000
40
1.0000000000
40
1.0000000000
10
55.4371362024
20
5.0021856263
30
0.0000000000
10
55.4371341614
20
4.5422886811
30
0.0000000000
10
55.4371307395
20
3.6236955724
30
0.0000000000
10
55.4371276247
20
2.2476106452
30
0.0000000000
10
55.4371269220
20
1.3314226631
30
0.0000000000
10
55.4371269219
20
0.8739308445
30
0.0000000000
11
55.4371362024
21
5.0021856263
31
0.0000000000
11
55.4371310716
21
3.6224947909
31
0.0000000000
11
55.4371279657
21
2.2464063001
31
0.0000000000
11
55.4371269219
21
0.8739308445
31
0.0000000000
0
SPLINE
5
59C
100
AcDbEntity
8
0
100
AcDbSpline
62
7
6
CONTINUOUS
70
0
71
3
72
10
73
6
74
4
42
0.0000001000
43
0.0000001000
44
0.0000000001
12
-0.0000000001
22
4.1082785006
32
0.0000000000
13
-0.0000415857
23
4.1082785004
33
0.0000000000
40
0.0000000000
40
0.0000000000
40
0.0000000000
40
0.0000000000
40
0.3323016881
40
0.6656355736
40
1.0000000000
40
1.0000000000
40
1.0000000000
40
1.0000000000
10
59.1736905240
20
0.8739308445
30
0.0000000000
10
59.1736905240
20
1.3289934715
30
0.0000000000
10
59.1736889358
20
2.2405322435
30
0.0000000000
10
59.1736818822
20
3.6099584104
30
0.0000000000
10
59.1736741195
20
4.5243219503
30
0.0000000000
10
59.1736694846
20
4.9822093451
30
0.0000000000
11
59.1736905240
21
0.8739308445
31
0.0000000000
11
59.1736881639
21
2.2391187253
31
0.0000000000
11
59.1736811286
21
3.6085471608
31
0.0000000000
11
59.1736694846
21
4.9822093451
31
0.0000000000
0
SPLINE
5
59D
100
AcDbEntity
8
0
100
AcDbSpline
62
7
6
CONTINUOUS
70
0
71
3
72
10
73
6
74
4
42
0.0000001000
43
0.0000001000
44
0.0000000001
12
-3.2759469611
22
0.0242776352
32
0.0000000000
13
-3.2759979560
23
0.0159777249
33
0.0000000000
40
0.0000000000
40
0.0000000000
40
0.0000000000
40
0.0000000000
40
0.3222500242
40
0.6555372680
40
1.0000000000
40
1.0000000000
40
1.0000000000
40
1.0000000000
10
59.1692739880
20
56.9778138485
30
0.0000000000
10
58.8173826588
20
56.9804216714
30
0.0000000000
10
58.1015449687
20
56.9853828726
30
0.0000000000
10
57.0095526195
20
56.9920035992
30
0.0000000000
10
56.2694514265
20
56.9958916475
30
0.0000000000
10
55.8932983579
20
56.9977262244
30
0.0000000000
11
59.1692739880
21
56.9778138485
31
0.0000000000
11
58.1135964963
21
56.9851492587
31
0.0000000000
11
57.0217553437
21
56.9917847211
31
0.0000000000
11
55.8932983579
21
56.9977262244
31
0.0000000000
0
SPLINE
5
59E
100
AcDbEntity
8
0
100
AcDbSpline
62
9
6
CONTINUOUS
70
0
71
3
72
10
73
6
74
4
42
0.0000001000
43
0.0000001000
44
0.0000000001
12
-0.0003795422
22
3.8381394450
32
0.0000000000
13
0.0015911134
23
3.8381391340
33
0.0000000000
40
0.0000000000
40
0.0000000000
40
0.0000000000
40
0.0000000000
40
0.3353072442
40
0.6686184156
40
1.0000000000
40
1.0000000000
40
1.0000000000
40
1.0000000000
10
55.8932983860
20
56.9977262253
30
0.0000000000
10
55.8932559649
20
57.4267115454
30
0.0000000000
10
55.8932266393
20
58.2821284574
30
0.0000000000
10
55.8933844792
20
59.5615082745
30
0.0000000000
10
55.8936464528
20
60.4119027400
30
0.0000000000
10
55.8938222080
20
60.8358656158
30
0.0000000000
11
55.8932983860
21
56.9977262253
31
0.0000000000
11
55.8932604685
21
58.2846821913
31
0.0000000000
11
55.8934242767
21
59.5639769414
31
0.0000000000
11
55.8938222080
21
60.8358656158
31
0.0000000000
0
SPLINE
5
59F
100
AcDbEntity
8
0
100
AcDbSpline
62
9
6
CONTINUOUS
70
0
71
3
72
11
73
7
74
5
42
0.0000001000
43
0.0000001000
44
0.0000000001
12
-11.7227409486
22
-0.0106158673
32
0.0000000000
13
-11.7227457117
23
-0.0010109391
33
0.0000000000
40
0.0000000000
40
0.0000000000
40
0.0000000000
40
0.0000000000
40
0.0667168422
40
0.1552090700
40
0.3833991538
40
1.0000000000
40
1.0000000000
40
1.0000000000
40
1.0000000000
10
67.6156526993
20
36.3768688889
30
0.0000000000
10
67.3549512799
20
36.3766328032
30
0.0000000000
10
66.7484592049
20
36.3762811345
30
0.0000000000
10
65.2502957026
20
36.3757466217
30
0.0000000000
10
61.6034153532
20
36.3750625484
30
0.0000000000
10
58.3023256103
20
36.3747416819
30
0.0000000000
10
55.8929073018
20
36.3745339000
30
0.0000000000
11
67.6156526993
21
36.3768688889
31
0.0000000000
11
66.8335482889
21
36.3763554695
31
0.0000000000
11
65.7961764779
21
36.3759577295
31
0.0000000000
11
63.1211622059
21
36.3753690115
31
0.0000000000
11
55.8929073018
21
36.3745339000
31
0.0000000000
0
SPLINE
5
5A0
100
AcDbEntity
8
0
100
AcDbSpline
62
9
6
CONTINUOUS
70
0
71
3
72
10
73
6
74
4
42
0.0000001000
43
0.0000001000
44
0.0000000001
12
0.0034622236
22
12.3745503437
32
0.0000000000
13
0.0024951552
23
12.3745505765
33
0.0000000000
40
0.0000000000
40
0.0000000000
40
0.0000000000
40
0.0000000000
40
0.3394389417
40
0.6727763922
40
1.0000000000
40
1.0000000000
40
1.0000000000
40
1.0000000000
10
55.8929073018
20
36.3745338917
30
0.0000000000
10
55.8932990397
20
37.7746686494
30
0.0000000000
10
55.8935787777
20
40.5497705623
30
0.0000000000
10
55.8933855959
20
44.6746208192
30
0.0000000000
10
55.8934826118
20
47.3993363074
30
0.0000000000
10
55.8937547697
20
48.7490846689
30
0.0000000000
11
55.8929073018
21
36.3745338917
31
0.0000000000
11
55.8934770218
21
40.5749382906
31
0.0000000000
11
55.8934416152
21
44.6998395144
31
0.0000000000
11
55.8937547697
21
48.7490846689
31
0.0000000000
0
SPLINE
5
5A1
100
AcDbEntity
8
0
100
AcDbSpline
62
7
6
CONTINUOUS
70
0
71
3
72
10
73
6
74
4
42
0.0000001000
43
0.0000001000
44
0.0000000001
12
3.2771807099
22
0.0154720021
32
0.0000000000
13
3.2771323915
23
0.0235812699
33
0.0000000000
40
0.0000000000
40
0.0000000000
40
0.0000000000
40
0.0000000000
40
0.3443120208
40
0.6776005135
40
1.0000000000
40
1.0000000000
40
1.0000000000
40
1.0000000000
10
55.8937547697
20
48.7490846689
30
0.0000000000
10
56.2698790072
20
48.7508604010
30
0.0000000000
10
57.0100841988
20
48.7546281976
30
0.0000000000
10
58.1024711532
20
48.7610537879
30
0.0000000000
10
58.8187323655
20
48.7658733333
30
0.0000000000
10
59.1709142989
20
48.7684075297
30
0.0000000000
11
55.8937547697
21
48.7490846689
31
0.0000000000
11
57.0221253755
21
48.7548408475
31
0.0000000000
11
58.1143651842
21
48.7612804237
31
0.0000000000
11
59.1709142989
21
48.7684075297
31
0.0000000000
0
SPLINE
5
5A2
100
AcDbEntity
8
0
100
AcDbSpline
62
7
6
CONTINUOUS
70
0
71
3
72
10
73
6
74
4
42
0.0000001000
43
0.0000001000
44
0.0000000001
12
-0.0013649508
22
8.2094063706
32
0.0000000000
13
-0.0019213630
23
8.2094062593
33
0.0000000000
40
0.0000000000
40
0.0000000000
40
0.0000000000
40
0.0000000000
40
0.3338764675
40
0.6671712052
40
1.0000000000
40
1.0000000000
40
1.0000000000
40
1.0000000000
10
59.1709142989
20
48.7684075297
30
0.0000000000
10
59.1707623906
20
49.6820500628
30
0.0000000000
10
59.1704387984
20
51.5077432402
30
0.0000000000
10
59.1698925636
20
54.2442120139
30
0.0000000000
10
59.1694871497
20
56.0670382514
30
0.0000000000
10
59.1692739880
20
56.9778138485
30
0.0000000000
11
59.1709142989
21
48.7684075297
31
0.0000000000
11
59.1704282885
21
51.5093351237
31
0.0000000000
11
59.1698819060
21
54.2454870499
31
0.0000000000
11
59.1692739880
21
56.9778138485
31
0.0000000000
0
SPLINE
5
5A3
100
AcDbEntity
8
0
100
AcDbSpline
62
9
6
CONTINUOUS
70
0
71
3
72
12
73
8
74
6
42
0.0000001000
43
0.0000001000
44
0.0000000001
12
0.3107416066
22
11.1540198859
32
0.0000000000
13
-0.3250809349
23
11.1536111316
33
0.0000000000
40
0.0000000000
40
0.0000000000
40
0.0000000000
40
0.0000000000
40
0.3090398113
40
0.5893526014
40
0.8268312189
40
0.9252063479
40
1.0000000000
40
1.0000000000
40
1.0000000000
40
1.0000000000
10
55.8938504280
20
60.8358649835
30
0.0000000000
10
55.9258609372
20
61.9848770502
30
0.0000000000
10
55.9670958277
20
64.1766838169
30
0.0000000000
10
55.9784206319
20
67.2521064932
30
0.0000000000
10
55.9569485230
20
69.5438773901
30
0.0000000000
10
55.9273785765
20
71.0709820856
30
0.0000000000
10
55.9108480162
20
71.7148673410
30
0.0000000000
10
55.9027433527
20
71.9929404446
30
0.0000000000
11
55.8938504280
21
60.8358649835
31
0.0000000000
11
55.9599871389
21
64.2836043249
31
0.0000000000
11
55.9716406443
21
67.4114101336
31
0.0000000000
11
55.9458611663
21
70.0611536666
31
0.0000000000
11
55.9243699353
21
71.1586471386
31
0.0000000000
11
55.9027433527
21
71.9929404446
31
0.0000000000
0
SPLINE
5
5A4
100
AcDbEntity
8
0
100
AcDbSpline
62
9
6
CONTINUOUS
70
0
71
3
72
11
73
7
74
5
42
0.0000001000
43
0.0000001000
44
0.0000000001
12
-11.0972258105
22
-0.0113719125
32
0.0000000000
13
-11.0972316202
23
-0.0006101889
33
0.0000000000
40
0.0000000000
40
0.0000000000
40
0.0000000000
40
0.0000000000
40
0.0708251118
40
0.1639237631
40
0.4032191951
40
1.0000000000
40
1.0000000000
40
1.0000000000
40
1.0000000000
10
66.9910529455
20
60.8378190403
30
0.0000000000
10
66.7290655259
20
60.8375505680
30
0.0000000000
10
66.1226989481
20
60.8371800017
30
0.0000000000
10
64.6311601044
20
60.8366745953
30
0.0000000000
10
61.1940704564
20
60.8361798618
30
0.0000000000
10
58.1013599161
20
60.8359869988
30
0.0000000000
10
55.8938216433
20
60.8358656158
30
0.0000000000
11
66.9910529455
21
60.8378190403
31
0.0000000000
11
66.2050904721
21
60.8372611736
31
0.0000000000
11
65.1719532451
21
60.8368766426
31
0.0000000000
11
62.5164364511
21
60.8363908706
31
0.0000000000
11
55.8938216433
21
60.8358656158
31
0.0000000000
0
SPLINE
5
5A5
100
AcDbEntity
8
0
100
AcDbSpline
62
9
6
CONTINUOUS
70
0
71
3
72
9
73
5
74
3
42
0.0000001000
43
0.0000001000
44
0.0000000001
12
-0.0001643771
22
-1.0712550018
32
0.0000000000
13
-0.0001992455
23
-1.0712549959
33
0.0000000000
40
0.0000000000
40
0.0000000000
40
0.0000000000
40
0.0000000000
40
0.5033790677
40
1.0000000000
40
1.0000000000
40
1.0000000000
40
1.0000000000
10
-47.2573964440
20
-61.6260691563
30
0.0000000000
10
-47.2574240254
20
-61.8058182711
30
0.0000000000
10
-47.2574813869
20
-62.1629032713
30
0.0000000000
10
-47.2575445422
20
-62.5199882705
30
0.0000000000
10
-47.2575775254
20
-62.6973241554
30
0.0000000000
11
-47.2573964440
21
-61.6260691563
31
0.0000000000
11
-47.2574832426
21
-62.1653164998
31
0.0000000000
11
-47.2575775254
21
-62.6973241554
31
0.0000000000
0
SPLINE
5
5A6
100
AcDbEntity
8
0
100
AcDbSpline
62
9
6
CONTINUOUS
70
0
71
3
72
8
73
4
74
2
42
0.0000001000
43
0.0000001000
44
0.0000000001
12
-0.0002738588
22
-1.4457422058
32
0.0000000000
13
-0.0004185359
23
-1.4457421748
33
0.0000000000
40
0.0000000000
40
0.0000000000
40
0.0000000000
40
0.0000000000
40
1.0000000000
40
1.0000000000
40
1.0000000000
40
1.0000000000
10
-47.2576078145
20
-63.2291843641
30
0.0000000000
10
-47.2576991008
20
-63.7110984327
30
0.0000000000
10
-47.2578096830
20
-64.1930124998
30
0.0000000000
10
-47.2579491950
20
-64.6749265581
30
0.0000000000
11
-47.2576078145
21
-63.2291843641
31
0.0000000000
11
-47.2579491950
21
-64.6749265581
31
0.0000000000
0
SPLINE
5
5A7
100
AcDbEntity
8
0
100
AcDbSpline
62
9
6
CONTINUOUS
70
0
71
3
72
8
73
4
74
2
42
0.0000001000
43
0.0000001000
44
0.0000000001
12
-0.0000206521
22
-0.0713383005
32
0.0000000000
13
-0.0000210782
23
-0.0713383004
33
0.0000000000
40
0.0000000000
40
0.0000000000
40
0.0000000000
40
0.0000000000
40
1.0000000000
40
1.0000000000
40
1.0000000000
40
1.0000000000
10
-47.2579491950
20
-64.6749265581
30
0.0000000000
10
-47.2579560790
20
-64.6987059916
30
0.0000000000
10
-47.2579630335
20
-64.7224854251
30
0.0000000000
10
-47.2579700596
20
-64.7462648586
30
0.0000000000
11
-47.2579491950
21
-64.6749265581
31
0.0000000000
11
-47.2579700596
21
-64.7462648586
31
0.0000000000
0
SPLINE
5
5A8
100
AcDbEntity
8
0
100
AcDbSpline
62
9
6
CONTINUOUS
70
0
71
3
72
10
73
6
74
4
42
0.0000001000
43
0.0000001000
44
0.0000000001
12
-0.0012940941
22
-4.3798045522
32
0.0000000000
13
-0.0028367249
23
-4.3798038141
33
0.0000000000
40
0.0000000000
40
0.0000000000
40
0.0000000000
40
0.0000000000
40
0.2526920215
40
0.8801634337
40
1.0000000000
40
1.0000000000
40
1.0000000000
40
1.0000000000
10
-47.2579700596
20
-64.7462648586
30
0.0000000000
10
-47.2580790620
20
-65.1151787472
30
0.0000000000
10
-47.2585187546
20
-66.4001599996
30
0.0000000000
10
-47.2593154105
20
-67.8600947077
30
0.0000000000
10
-47.2599917976
20
-68.9511155046
30
0.0000000000
10
-47.2601051121
20
-69.1260690546
30
0.0000000000
11
-47.2579700596
21
-64.7462648586
31
0.0000000000
11
-47.2583530842
21
-65.8530065050
31
0.0000000000
11
-47.2597769538
21
-68.6012083970
31
0.0000000000
11
-47.2601051121
21
-69.1260690546
31
0.0000000000
0
SPLINE
5
5A9
100
AcDbEntity
8
0
100
AcDbSpline
62
9
6
CONTINUOUS
70
0
71
3
72
9
73
5
74
3
42
0.0000001000
43
0.0000001000
44
0.0000000001
12
-0.0005568178
22
1.0000000082
32
0.0000000000
13
-0.0005937227
23
0.9999999870
33
0.0000000000
40
0.0000000000
40
0.0000000000
40
0.0000000000
40
0.0000000000
40
0.4894932848
40
1.0000000000
40
1.0000000000
40
1.0000000000
40
1.0000000000
10
46.8907243701
20
-69.1260691547
30
0.0000000000
10
46.8906335172
20
-68.9629047251
30
0.0000000000
10
46.8904480461
20
-68.6295713889
30
0.0000000000
10
46.8902528848
20
-68.2962380582
30
0.0000000000
10
46.8901518517
20
-68.1260691554
30
0.0000000000
11
46.8907243701
21
-69.1260691547
31
0.0000000000
11
46.8904496217
21
-68.6365758671
31
0.0000000000
11
46.8901518517
21
-68.1260691554
31
0.0000000000
0
SPLINE
5
5AA
100
AcDbEntity
8
0
100
AcDbSpline
62
9
6
CONTINUOUS
70
0
71
3
72
9
73
5
74
3
42
0.0000001000
43
0.0000001000
44
0.0000000001
12
-0.0008006724
22
-1.5321615115
32
0.0000000000
13
-0.0015327731
23
-1.5321609540
33
0.0000000000
40
0.0000000000
40
0.0000000000
40
0.0000000000
40
0.0000000000
40
0.3956884575
40
1.0000000000
40
1.0000000000
40
1.0000000000
40
1.0000000000
10
-47.2593808016
20
-69.1260691539
30
0.0000000000
10
-47.2594864072
20
-69.3281553623
30
0.0000000000
10
-47.2597687511
20
-69.8388758546
30
0.0000000000
10
-47.2601204164
20
-70.3495963251
30
0.0000000000
10
-47.2604291739
20
-70.6582305082
30
0.0000000000
11
-47.2593808016
21
-69.1260691539
31
0.0000000000
11
-47.2597207013
21
-69.7323277665
31
0.0000000000
11
-47.2604291739
21
-70.6582305082
31
0.0000000000
0
SPLINE
5
5AB
100
AcDbEntity
8
0
100
AcDbSpline
62
9
6
CONTINUOUS
70
0
71
3
72
9
73
5
74
3
42
0.0000001000
43
0.0000001000
44
0.0000000001
12
-0.0035213765
22
6.1973142667
32
0.0000000000
13
-0.0006517092
23
6.1973152328
33
0.0000000000
40
0.0000000000
40
0.0000000000
40
0.0000000000
40
0.0000000000
40
0.3179409529
40
1.0000000000
40
1.0000000000
40
1.0000000000
40
1.0000000000
10
46.8901459686
20
-67.8233840708
30
0.0000000000
10
46.8897727720
20
-67.1665907363
30
0.0000000000
10
46.8887421500
20
-65.1008192248
30
0.0000000000
10
46.8883527150
20
-63.0350474598
30
0.0000000000
10
46.8882045470
20
-61.6260691525
30
0.0000000000
11
46.8901459686
21
-67.8233840708
31
0.0000000000
11
46.8891822335
21
-65.8530039848
31
0.0000000000
11
46.8882045470
21
-61.6260691525
31
0.0000000000
0
SPLINE
5
5AC
100
AcDbEntity
8
0
100
AcDbSpline
62
9
6
CONTINUOUS
70
0
71
3
72
9
73
5
74
3
42
0.0000001000
43
0.0000001000
44
0.0000000001
12
-0.0000193027
22
-2.5384706870
32
0.0000000000
13
-0.0002141434
23
-2.5384706780
33
0.0000000000
40
0.0000000000
40
0.0000000000
40
0.0000000000
40
0.0000000000
40
0.5084697356
40
1.0000000000
40
1.0000000000
40
1.0000000000
40
1.0000000000
10
-47.2570738709
20
-59.0875984724
30
0.0000000000
10
-47.2570771425
20
-59.5178436454
30
0.0000000000
10
-47.2570969773
20
-60.3640005410
30
0.0000000000
10
-47.2571490153
20
-61.2101574354
30
0.0000000000
10
-47.2571841013
20
-61.6260691566
30
0.0000000000
11
-47.2570738709
21
-59.0875984724
31
0.0000000000
11
-47.2571056391
21
-60.3783339910
31
0.0000000000
11
-47.2571841013
21
-61.6260691566
31
0.0000000000
0
SPLINE
5
5AD
100
AcDbEntity
8
0
100
AcDbSpline
62
9
6
CONTINUOUS
70
0
71
3
72
8
73
4
74
2
42
0.0000001000
43
0.0000001000
44
0.0000000001
12
0.0007483448
22
-1.2609486946
32
0.0000000000
13
0.0007047876
23
-1.2609487198
33
0.0000000000
40
0.0000000000
40
0.0000000000
40
0.0000000000
40
0.0000000000
40
1.0000000000
40
1.0000000000
40
1.0000000000
40
1.0000000000
10
-47.2542948736
20
68.1741208446
30
0.0000000000
10
-47.2540454253
20
67.7538046130
30
0.0000000000
10
-47.2538040442
20
67.3334883767
30
0.0000000000
10
-47.2535691150
20
66.9131721368
30
0.0000000000
11
-47.2542948736
21
68.1741208446
31
0.0000000000
11
-47.2535691150
21
66.9131721368
31
0.0000000000
0
SPLINE
5
5AE
100
AcDbEntity
8
0
100
AcDbSpline
62
9
6
CONTINUOUS
70
0
71
3
72
8
73
4
74
2
42
0.0000001000
43
0.0000001000
44
0.0000000001
12
0.0000567336
22
-0.1015031596
32
0.0000000000
13
0.0000564853
23
-0.1015031598
33
0.0000000000
40
0.0000000000
40
0.0000000000
40
0.0000000000
40
0.0000000000
40
1.0000000000
40
1.0000000000
40
1.0000000000
40
1.0000000000
10
-47.2535691150
20
66.9131721368
30
0.0000000000
10
-47.2535502038
20
66.8793377502
30
0.0000000000
10
-47.2535313344
20
66.8455033637
30
0.0000000000
10
-47.2535125060
20
66.8116689771
30
0.0000000000
11
-47.2535691150
21
66.9131721368
31
0.0000000000
11
-47.2535125060
21
66.8116689771
31
0.0000000000
0
SPLINE
5
5AF
100
AcDbEntity
8
0
100
AcDbSpline
62
9
6
CONTINUOUS
70
0
71
3
72
9
73
5
74
3
42
0.0000001000
43
0.0000001000
44
0.0000000001
12
0.0014678639
22
-2.6377280936
32
0.0000000000
13
0.0013296295
23
-2.6377281665
33
0.0000000000
40
0.0000000000
40
0.0000000000
40
0.0000000000
40
0.0000000000
40
0.2117333917
40
1.0000000000
40
1.0000000000
40
1.0000000000
40
1.0000000000
10
-47.2535125060
20
66.8116689771
30
0.0000000000
10
-47.2534089074
20
66.6255039386
30
0.0000000000
10
-47.2529254768
20
65.7462612374
30
0.0000000000
10
-47.2524665794
20
64.8670185231
30
0.0000000000
10
-47.2521172119
20
64.1739408446
30
0.0000000000
11
-47.2535125060
21
66.8116689771
31
0.0000000000
11
-47.2532052904
21
66.2531738595
31
0.0000000000
11
-47.2521172119
21
64.1739408446
31
0.0000000000
0
SPLINE
5
5B0
100
AcDbEntity
8
0
100
AcDbSpline
62
9
6
CONTINUOUS
70
0
71
3
72
8
73
4
74
2
42
0.0000001000
43
0.0000001000
44
0.0000000001
12
0.0000000204
22
-0.2116762446
32
0.0000000000
13
0.0000000211
23
-0.2116762446
33
0.0000000000
40
0.0000000000
40
0.0000000000
40
0.0000000000
40
0.0000000000
40
1.0000000000
40
1.0000000000
40
1.0000000000
40
1.0000000000
10
46.8878553960
20
64.7400171014
30
0.0000000000
10
46.8878554028
20
64.6694583532
30
0.0000000000
10
46.8878554097
20
64.5988996051
30
0.0000000000
10
46.8878554167
20
64.5283408569
30
0.0000000000
11
46.8878553960
21
64.7400171014
31
0.0000000000
11
46.8878554167
21
64.5283408569
31
0.0000000000
0
SPLINE
5
5B1
100
AcDbEntity
8
0
100
AcDbSpline
62
9
6
CONTINUOUS
70
0
71
3
72
9
73
5
74
3
42
0.0000001000
43
0.0000001000
44
0.0000000001
12
0.0000000428
22
-0.4298115208
32
0.0000000000
13
0.0000000476
23
-0.4298115208
33
0.0000000000
40
0.0000000000
40
0.0000000000
40
0.0000000000
40
0.0000000000
40
0.2481325429
40
1.0000000000
40
1.0000000000
40
1.0000000000
40
1.0000000000
10
46.8878554167
20
64.5283408569
30
0.0000000000
10
46.8878554202
20
64.4927907817
30
0.0000000000
10
46.8878554347
20
64.3495202747
30
0.0000000000
10
46.8878554500
20
64.2062497678
30
0.0000000000
10
46.8878554619
20
64.0985293361
30
0.0000000000
11
46.8878554167
21
64.5283408569
31
0.0000000000
11
46.8878554275
21
64.4216906313
31
0.0000000000
11
46.8878554619
21
64.0985293361
31
0.0000000000
0
SPLINE
5
5B2
100
AcDbEntity
8
0
100
AcDbSpline
62
9
6
CONTINUOUS
70
0
71
3
72
9
73
5
74
3
42
0.0000001000
43
0.0000001000
44
0.0000000001
12
0.0000001350
22
-0.4253521289
32
0.0000000000
13
0.0000001134
23
-0.4253521289
33
0.0000000000
40
0.0000000000
40
0.0000000000
40
0.0000000000
40
0.0000000000
40
0.7474962451
40
1.0000000000
40
1.0000000000
40
1.0000000000
40
1.0000000000
10
46.8878548134
20
68.2488882104
30
0.0000000000
10
46.8878548471
20
68.1429051706
30
0.0000000000
10
46.8878548903
20
68.0011211276
30
0.0000000000
10
46.8878549293
20
67.8593370847
30
0.0000000000
10
46.8878549388
20
67.8235360814
30
0.0000000000
11
46.8878548134
21
68.2488882104
31
0.0000000000
11
46.8878549093
21
67.9309390911
31
0.0000000000
11
46.8878549388
21
67.8235360814
31
0.0000000000
0
SPLINE
5
5B3
100
AcDbEntity
8
0
100
AcDbSpline
62
9
6
CONTINUOUS
70
0
71
3
72
8
73
4
74
2
42
0.0000001000
43
0.0000001000
44
0.0000000001
12
0.0000000578
22
-0.2168923213
32
0.0000000000
13
0.0000000496
23
-0.2168923213
33
0.0000000000
40
0.0000000000
40
0.0000000000
40
0.0000000000
40
0.0000000000
40
1.0000000000
40
1.0000000000
40
1.0000000000
40
1.0000000000
10
46.8878549388
20
67.8235360814
30
0.0000000000
10
46.8878549581
20
67.7512386410
30
0.0000000000
10
46.8878549761
20
67.6789412005
30
0.0000000000
10
46.8878549926
20
67.6066437601
30
0.0000000000
11
46.8878549388
21
67.8235360814
31
0.0000000000
11
46.8878549926
21
67.6066437601
31
0.0000000000
0
SPLINE
5
5B4
100
AcDbEntity
8
0
100
AcDbSpline
62
9
6
CONTINUOUS
70
0
71
3
72
9
73
5
74
3
42
0.0000001000
43
0.0000001000
44
0.0000000001
12
-0.0005567601
22
-3.2630081737
32
0.0000000000
13
-0.0005086597
23
-3.2630081816
33
0.0000000000
40
0.0000000000
40
0.0000000000
40
0.0000000000
40
0.0000000000
40
0.4882820598
40
1.0000000000
40
1.0000000000
40
1.0000000000
40
1.0000000000
10
46.8883811142
20
64.0984683405
30
0.0000000000
10
46.8882904955
20
63.5673788897
30
0.0000000000
10
46.8881126568
20
62.4797094971
30
0.0000000000
10
46.8879426023
20
61.3920401034
30
0.0000000000
10
46.8878558389
20
60.8354601616
30
0.0000000000
11
46.8883811142
21
64.0984683405
31
0.0000000000
11
46.8881186805
21
62.5051999866
31
0.0000000000
11
46.8878558389
21
60.8354601616
31
0.0000000000
0
SPLINE
5
5B5
100
AcDbEntity
8
0
100
AcDbSpline
62
9
6
CONTINUOUS
70
0
71
3
72
10
73
6
74
4
42
0.0000001000
43
0.0000001000
44
0.0000000001
12
-0.0042201817
22
-4.1570249088
32
0.0000000000
13
-0.0010837895
23
-4.1570269097
33
0.0000000000
40
0.0000000000
40
0.0000000000
40
0.0000000000
40
0.0000000000
40
0.2227319473
40
0.4979562592
40
1.0000000000
40
1.0000000000
40
1.0000000000
40
1.0000000000
10
46.8912319154
20
72.4060940183
30
0.0000000000
10
46.8909185923
20
72.0974599340
30
0.0000000000
10
46.8904067329
20
71.4074542230
30
0.0000000000
10
46.8897361496
20
70.0217786989
30
0.0000000000
10
46.8894120147
20
68.9447372999
30
0.0000000000
10
46.8892306448
20
68.2490675198
30
0.0000000000
11
46.8912319154
21
72.4060940183
31
0.0000000000
11
46.8904962910
21
71.4801915806
31
0.0000000000
11
46.8899129620
21
70.3360768196
31
0.0000000000
11
46.8892306448
21
68.2490675198
31
0.0000000000
0
SPLINE
5
5B6
100
AcDbEntity
8
0
100
AcDbSpline
62
9
6
CONTINUOUS
70
0
71
3
72
8
73
4
74
2
42
0.0000001000
43
0.0000001000
44
0.0000000001
12
-0.0001072739
22
-0.4541014721
32
0.0000000000
13
-0.0001011359
23
-0.4541014735
33
0.0000000000
40
0.0000000000
40
0.0000000000
40
0.0000000000
40
0.0000000000
40
1.0000000000
40
1.0000000000
40
1.0000000000
40
1.0000000000
10
46.8890714998
20
67.6068781075
30
0.0000000000
10
46.8890357418
20
67.4555109502
30
0.0000000000
10
46.8890010733
20
67.3041437926
30
0.0000000000
10
46.8889673613
20
67.1527766348
30
0.0000000000
11
46.8890714998
21
67.6068781075
31
0.0000000000
11
46.8889673613
21
67.1527766348
31
0.0000000000
0
SPLINE
5
5B7
100
AcDbEntity
8
0
100
AcDbSpline
62
9
6
CONTINUOUS
70
0
71
3
72
9
73
5
74
3
42
0.0000001000
43
0.0000001000
44
0.0000000001
12
-0.0005373890
22
-2.4128839823
32
0.0000000000
13
-0.0004276596
23
-2.4128840041
33
0.0000000000
40
0.0000000000
40
0.0000000000
40
0.0000000000
40
0.0000000000
40
0.3888538749
40
1.0000000000
40
1.0000000000
40
1.0000000000
40
1.0000000000
10
46.8889673613
20
67.1527766348
30
0.0000000000
10
46.8888977060
20
66.8400235394
30
0.0000000000
10
46.8887290785
20
66.0357288762
30
0.0000000000
10
46.8885797097
20
65.2314342093
30
0.0000000000
10
46.8884925888
20
64.7398926395
30
0.0000000000
11
46.8889673613
21
67.1527766348
31
0.0000000000
11
46.8887694751
21
66.2145173461
31
0.0000000000
11
46.8884925888
21
64.7398926395
31
0.0000000000
0
SPLINE
5
5B8
100
AcDbEntity
8
0
100
AcDbSpline
62
7
6
CONTINUOUS
70
0
71
3
72
8
73
4
74
2
42
0.0000001000
43
0.0000001000
44
0.0000000001
12
-3.5000432668
22
0.0976947174
32
0.0000000000
13
-3.4999332725
23
0.0874323235
33
0.0000000000
40
0.0000000000
40
0.0000000000
40
0.0000000000
40
0.0000000000
40
1.0000000000
40
1.0000000000
40
1.0000000000
40
1.0000000000
10
33.0653909291
20
72.5872389962
30
0.0000000000
10
31.8987098402
20
72.6198039020
30
0.0000000000
10
30.7320354666
20
72.6506581753
30
0.0000000000
10
29.5653910424
20
72.6798022831
30
0.0000000000
11
33.0653909291
21
72.5872389962
31
0.0000000000
11
29.5653910424
21
72.6798022831
31
0.0000000000
0
SPLINE
5
5B9
100
AcDbEntity
8
0
100
AcDbSpline
62
7
6
CONTINUOUS
70
0
71
3
72
11
73
7
74
5
42
0.0000001000
43
0.0000001000
44
0.0000000001
12
-0.2864502377
22
-7.6346267854
32
0.0000000000
13
-0.0498195135
23
-7.6398362487
33
0.0000000000
40
0.0000000000
40
0.0000000000
40
0.0000000000
40
0.0000000000
40
0.2100467050
40
0.4472569406
40
0.7105564385
40
1.0000000000
40
1.0000000000
40
1.0000000000
40
1.0000000000
10
29.5653909841
20
72.6797999465
30
0.0000000000
10
29.5453350079
20
72.1452572131
30
0.0000000000
10
29.5128634694
20
71.0066671111
30
0.0000000000
10
29.4769780092
20
69.1974658500
30
0.0000000000
10
29.4496280035
20
67.1858921965
30
0.0000000000
10
29.4374538673
20
65.7782875531
30
0.0000000000
10
29.4326472215
20
65.0411870820
30
0.0000000000
11
29.5653909841
21
72.6797999465
31
0.0000000000
11
29.5170154590
21
71.0757727048
31
0.0000000000
11
29.4800809914
21
69.2638632190
31
0.0000000000
11
29.4521131686
21
67.2524498326
31
0.0000000000
11
29.4326472215
21
65.0411870820
31
0.0000000000
0
SPLINE
5
5BA
100
AcDbEntity
8
0
100
AcDbSpline
62
7
6
CONTINUOUS
70
0
71
3
72
10
73
6
74
4
42
0.0000001000
43
0.0000001000
44
0.0000000001
12
3.7648195216
22
0.0006190745
32
0.0000000000
13
3.7648195040
23
0.0007181621
33
0.0000000000
40
0.0000000000
40
0.0000000000
40
0.0000000000
40
0.0000000000
40
0.3338436229
40
0.6671859332
40
1.0000000000
40
1.0000000000
40
1.0000000000
40
1.0000000000
10
29.4326472215
20
65.0411870820
30
0.0000000000
10
29.8516008844
20
65.0412559733
30
0.0000000000
10
30.6888790924
20
65.0413971987
30
0.0000000000
10
31.9438189302
20
65.0416197516
30
0.0000000000
10
32.7798051046
20
65.0417754226
30
0.0000000000
10
33.1974667346
20
65.0418550941
30
0.0000000000
11
29.4326472215
21
65.0411870820
31
0.0000000000
11
30.6895082093
21
65.0413991222
31
0.0000000000
11
31.9444818436
21
65.0416217261
31
0.0000000000
11
33.1974667346
21
65.0418550941
31
0.0000000000
0
SPLINE
5
5BB
100
AcDbEntity
8
0
100
AcDbSpline
62
7
6
CONTINUOUS
70
0
71
3
72
11
73
7
74
5
42
0.0000001000
43
0.0000001000
44
0.0000000001
12
-0.0506756741
22
7.5465979483
32
0.0000000000
13
-0.2823547343
23
7.5414842320
33
0.0000000000
40
0.0000000000
40
0.0000000000
40
0.0000000000
40
0.0000000000
40
0.2890652099
40
0.5522577575
40
0.7895988871
40
1.0000000000
40
1.0000000000
40
1.0000000000
40
1.0000000000
10
33.1974667346
20
65.0418550941
30
0.0000000000
10
33.1925838765
20
65.7690080673
30
0.0000000000
10
33.1803225006
20
67.1582127789
30
0.0000000000
10
33.1530260092
20
69.1443436128
30
0.0000000000
10
33.1173634004
20
70.9324150654
30
0.0000000000
10
33.0851935675
20
72.0583287403
30
0.0000000000
10
33.0653909841
20
72.5872409655
30
0.0000000000
11
33.1974667346
21
65.0418550941
31
0.0000000000
11
33.1778767732
21
67.2232752352
31
0.0000000000
11
33.1499743757
21
69.2093323632
31
0.0000000000
11
33.1132836733
21
71.0001149943
31
0.0000000000
11
33.0653909841
21
72.5872409655
31
0.0000000000
0
SPLINE
5
5BC
100
AcDbEntity
8
0
100
AcDbSpline
62
7
6
CONTINUOUS
70
0
71
3
72
8
73
4
74
2
42
0.0000001000
43
0.0000001000
44
0.0000000001
12
-3.4999332725
22
-0.0874323234
32
0.0000000000
13
-3.5000432668
23
-0.0976947174
33
0.0000000000
40
0.0000000000
40
0.0000000000
40
0.0000000000
40
0.0000000000
40
1.0000000000
40
1.0000000000
40
1.0000000000
40
1.0000000000
10
-29.9346090743
20
72.6798022842
30
0.0000000000
10
-31.1012534985
20
72.6506581764
30
0.0000000000
10
-32.2679278720
20
72.6198039031
30
0.0000000000
10
-33.4346089610
20
72.5872389973
30
0.0000000000
11
-29.9346090743
21
72.6798022842
31
0.0000000000
11
-33.4346089610
21
72.5872389973
31
0.0000000000
0
SPLINE
5
5BD
100
AcDbEntity
8
0
100
AcDbSpline
62
7
6
CONTINUOUS
70
0
71
3
72
11
73
7
74
5
42
0.0000001000
43
0.0000001000
44
0.0000000001
12
-0.2823547339
22
-7.5414842328
32
0.0000000000
13
-0.0506756740
23
-7.5465979491
33
0.0000000000
40
0.0000000000
40
0.0000000000
40
0.0000000000
40
0.0000000000
40
0.2104067152
40
0.4477361226
40
0.7109226355
40
1.0000000000
40
1.0000000000
40
1.0000000000
40
1.0000000000
10
-33.4346090159
20
72.5872409664
30
0.0000000000
10
-33.4544121266
20
72.0583146580
30
0.0000000000
10
-33.4865812927
20
70.9324163640
30
0.0000000000
10
-33.5222433973
20
69.1443754859
30
0.0000000000
10
-33.5495400714
20
67.1582587486
30
0.0000000000
10
-33.5618017030
20
65.7690386428
30
0.0000000000
10
-33.5666847664
20
65.0418550940
30
0.0000000000
11
-33.4346090159
21
72.5872409664
31
0.0000000000
11
-33.4825027453
21
71.0000727279
31
0.0000000000
11
-33.5191916227
21
69.2093785422
31
0.0000000000
11
-33.5470937586
21
67.2233669583
31
0.0000000000
11
-33.5666847664
21
65.0418550940
31
0.0000000000
0
SPLINE
5
5BE
100
AcDbEntity
8
0
100
AcDbSpline
62
7
6
CONTINUOUS
70
0
71
3
72
10
73
6
74
4
42
0.0000001000
43
0.0000001000
44
0.0000000001
12
3.7648195040
22
-0.0007181621
32
0.0000000000
13
3.7648195216
23
-0.0006190745
33
0.0000000000
40
0.0000000000
40
0.0000000000
40
0.0000000000
40
0.0000000000
40
0.3328140769
40
0.6661563870
40
1.0000000000
40
1.0000000000
40
1.0000000000
40
1.0000000000
10
-33.5666847664
20
65.0418550940
30
0.0000000000
10
-33.1490231238
20
65.0417754226
30
0.0000000000
10
-32.3130369369
20
65.0416197516
30
0.0000000000
10
-31.0580970992
20
65.0413971986
30
0.0000000000
10
-30.2208189038
20
65.0412559733
30
0.0000000000
10
-29.8018652533
20
65.0411870820
30
0.0000000000
11
-33.5666847664
21
65.0418550940
31
0.0000000000
11
-32.3136998376
21
65.0416217261
31
0.0000000000
11
-31.0587262037
21
65.0413991222
31
0.0000000000
11
-29.8018652533
21
65.0411870820
31
0.0000000000
0
SPLINE
5
5BF
100
AcDbEntity
8
0
100
AcDbSpline
62
7
6
CONTINUOUS
70
0
71
3
72
11
73
7
74
5
42
0.0000001000
43
0.0000001000
44
0.0000000001
12
-0.0498195134
22
7.6398362497
32
0.0000000000
13
-0.2864502373
23
7.6346267864
33
0.0000000000
40
0.0000000000
40
0.0000000000
40
0.0000000000
40
0.0000000000
40
0.2894230432
40
0.5527288028
40
0.7899573332
40
1.0000000000
40
1.0000000000
40
1.0000000000
40
1.0000000000
10
-29.8018652533
20
65.0411870820
30
0.0000000000
10
-29.8066715584
20
65.7782353010
30
0.0000000000
10
-29.8188451743
20
67.1858036399
30
0.0000000000
10
-29.8461946019
20
69.1973875858
30
0.0000000000
10
-29.8820806861
20
71.0066411015
30
0.0000000000
10
-29.9145534253
20
72.1452674907
30
0.0000000000
10
-29.9346090159
20
72.6797999476
30
0.0000000000
11
-29.8018652533
21
65.0411870820
31
0.0000000000
11
-29.8213294372
21
67.2522930825
31
0.0000000000
11
-29.8492971859
21
69.2637543143
31
0.0000000000
11
-29.8862342477
21
71.0758035483
31
0.0000000000
11
-29.9346090159
21
72.6797999476
31
0.0000000000
0
SPLINE
5
5C0
100
AcDbEntity
8
0
100
AcDbSpline
62
9
6
CONTINUOUS
70
0
71
3
72
9
73
5
74
3
42
0.0000001000
43
0.0000001000
44
0.0000000001
12
0.0003868181
22
-3.3384806673
32
0.0000000000
13
0.0000253786
23
-3.3384806896
33
0.0000000000
40
0.0000000000
40
0.0000000000
40
0.0000000000
40
0.0000000000
40
0.4878741276
40
1.0000000000
40
1.0000000000
40
1.0000000000
40
1.0000000000
10
-47.2572639124
20
64.1739408446
30
0.0000000000
10
-47.2572010062
20
63.6310213969
30
0.0000000000
10
-47.2571099430
20
62.5181945033
30
0.0000000000
10
-47.2570782033
20
61.4053676068
30
0.0000000000
10
-47.2570738709
20
60.8354601616
30
0.0000000000
11
-47.2572639124
21
64.1739408446
31
0.0000000000
11
-47.2571262717
21
62.5451824965
31
0.0000000000
11
-47.2570738709
21
60.8354601616
31
0.0000000000
0
SPLINE
5
5C1
100
AcDbEntity
8
0
100
AcDbSpline
62
9
6
CONTINUOUS
70
0
71
3
72
9
73
5
74
3
42
0.0000001000
43
0.0000001000
44
0.0000000001
12
-0.0000166690
22
-0.4426742666
32
0.0000000000
13
-0.0000186441
23
-0.4426742665
33
0.0000000000
40
0.0000000000
40
0.0000000000
40
0.0000000000
40
0.0000000000
40
0.6017714742
40
1.0000000000
40
1.0000000000
40
1.0000000000
40
1.0000000000
10
-47.2571769907
20
-62.6973241554
30
0.0000000000
10
-47.2571803343
20
-62.7861204041
30
0.0000000000
10
-47.2571860804
20
-62.9336784930
30
0.0000000000
10
-47.2571921583
20
-63.0812365818
30
0.0000000000
10
-47.2571946331
20
-63.1399984220
30
0.0000000000
11
-47.2571769907
21
-62.6973241554
31
0.0000000000
11
-47.2571873701
21
-62.9637129014
31
0.0000000000
11
-47.2571946331
21
-63.1399984220
31
0.0000000000
0
SPLINE
5
5C2
100
AcDbEntity
8
0
100
AcDbSpline
62
9
6
CONTINUOUS
70
0
71
3
72
8
73
4
74
2
42
0.0000001000
43
0.0000001000
44
0.0000000001
12
-0.0000036955
22
-0.0877425614
32
0.0000000000
13
-0.0000037771
23
-0.0877425614
33
0.0000000000
40
0.0000000000
40
0.0000000000
40
0.0000000000
40
0.0000000000
40
1.0000000000
40
1.0000000000
40
1.0000000000
40
1.0000000000
10
-47.2571946331
20
-63.1399984220
30
0.0000000000
10
-47.2571958650
20
-63.1692459424
30
0.0000000000
10
-47.2571971103
20
-63.1984934629
30
0.0000000000
10
-47.2571983693
20
-63.2277409834
30
0.0000000000
11
-47.2571946331
21
-63.1399984220
31
0.0000000000
11
-47.2571983693
21
-63.2277409834
31
0.0000000000
0
SPLINE
5
5C3
100
AcDbEntity
8
0
100
AcDbSpline
62
9
6
CONTINUOUS
70
0
71
3
72
10
73
6
74
4
42
0.0000001000
43
0.0000001000
44
0.0000000001
12
0.0042336450
22
-4.2319678937
32
0.0000000000
13
0.0015485900
23
-4.2319697280
33
0.0000000000
40
0.0000000000
40
0.0000000000
40
0.0000000000
40
0.0000000000
40
0.2187877325
40
0.4891381380
40
1.0000000000
40
1.0000000000
40
1.0000000000
40
1.0000000000
10
-47.2604291680
20
72.4060902163
30
0.0000000000
10
-47.2601204115
20
72.0974559966
30
0.0000000000
10
-47.2596455262
20
71.4074501608
30
0.0000000000
10
-47.2589312480
20
69.9967936787
30
0.0000000000
10
-47.2584310800
20
68.8947714896
30
0.0000000000
10
-47.2581673748
20
68.1741208446
30
0.0000000000
11
-47.2604291680
21
72.4060902163
31
0.0000000000
11
-47.2597206961
21
71.4801873648
31
0.0000000000
11
-47.2591099664
21
70.3360727189
31
0.0000000000
11
-47.2581673748
21
68.1741208446
31
0.0000000000
0
SPLINE
5
5C4
100
AcDbEntity
8
0
100
AcDbSpline
62
9
6
CONTINUOUS
70
0
71
3
72
9
73
5
74
3
42
0.0000001000
43
0.0000001000
44
0.0000000001
12
-0.0000120002
22
0.2518265594
32
0.0000000000
13
-0.0000353228
23
0.2518265572
33
0.0000000000
40
0.0000000000
40
0.0000000000
40
0.0000000000
40
0.0000000000
40
0.5980166645
40
1.0000000000
40
1.0000000000
40
1.0000000000
40
1.0000000000
10
46.8883179590
20
-68.1260691554
30
0.0000000000
10
46.8883155669
20
-68.0758703291
30
0.0000000000
10
46.8883091847
20
-67.9919281427
30
0.0000000000
10
46.8882989361
20
-67.9079859567
30
0.0000000000
10
46.8882942030
20
-67.8742425969
30
0.0000000000
11
46.8883179590
21
-68.1260691554
31
0.0000000000
11
46.8883065509
21
-67.9754726766
31
0.0000000000
11
46.8882942030
21
-67.8742425969
31
0.0000000000
0
SPLINE
5
5C5
100
AcDbEntity
8
0
100
AcDbSpline
62
9
6
CONTINUOUS
70
0
71
3
72
8
73
4
74
2
42
0.0000001000
43
0.0000001000
44
0.0000000001
12
-0.0000071337
22
0.0508584416
32
0.0000000000
13
-0.0000080581
23
0.0508584414
33
0.0000000000
40
0.0000000000
40
0.0000000000
40
0.0000000000
40
0.0000000000
40
1.0000000000
40
1.0000000000
40
1.0000000000
40
1.0000000000
10
46.8882942030
20
-67.8742425969
30
0.0000000000
10
46.8882918251
20
-67.8572897831
30
0.0000000000
10
46.8882892924
20
-67.8403369692
30
0.0000000000
10
46.8882866064
20
-67.8233841554
30
0.0000000000
11
46.8882942030
21
-67.8742425969
31
0.0000000000
11
46.8882866064
21
-67.8233841554
31
0.0000000000
0
SPLINE
5
5C6
100
AcDbEntity
8
0
100
AcDbSpline
62
9
6
CONTINUOUS
70
0
71
3
72
12
73
8
74
6
42
0.0000001000
43
0.0000001000
44
0.0000000001
12
-0.3250847330
22
-11.1536418190
32
0.0000000000
13
0.3107424621
23
-11.1540506603
33
0.0000000000
40
0.0000000000
40
0.0000000000
40
0.0000000000
40
0.0000000000
40
0.0747963840
40
0.1731712413
40
0.4106491720
40
0.6909611252
40
1.0000000000
40
1.0000000000
40
1.0000000000
40
1.0000000000
10
-56.2719604872
20
71.9929712184
30
0.0000000000
10
-56.2800655414
20
71.7148871931
30
0.0000000000
10
-56.2965964407
20
71.0709910148
30
0.0000000000
10
-56.3261665797
20
69.5438755106
30
0.0000000000
10
-56.3476386658
20
67.2521049683
30
0.0000000000
10
-56.3363138458
20
64.1766829577
30
0.0000000000
10
-56.2950789602
20
61.9848767393
30
0.0000000000
10
-56.2630684599
20
60.8358649841
30
0.0000000000
11
-56.2719604872
21
71.9929712184
31
0.0000000000
11
-56.2935880132
21
71.1586451406
31
0.0000000000
11
-56.3150792312
21
70.0611516706
31
0.0000000000
11
-56.3408586822
21
67.4114084896
31
0.0000000000
11
-56.3292051606
21
64.2836033906
31
0.0000000000
11
-56.2630684599
21
60.8358649841
31
0.0000000000
0
SPLINE
5
5C7
100
AcDbEntity
8
0
100
AcDbSpline
62
9
6
CONTINUOUS
70
0
71
3
72
11
73
7
74
5
42
0.0000001000
43
0.0000001000
44
0.0000000001
12
-11.0973151079
22
0.0006101935
32
0.0000000000
13
-11.0973092972
23
0.0113729732
33
0.0000000000
40
0.0000000000
40
0.0000000000
40
0.0000000000
40
0.0000000000
40
0.5967763152
40
0.8360699469
40
0.9291678978
40
1.0000000000
40
1.0000000000
40
1.0000000000
40
1.0000000000
10
-56.2630396751
20
60.8358656158
30
0.0000000000
10
-58.4705779480
20
60.8359869988
30
0.0000000000
10
-61.5632884882
20
60.8361798618
30
0.0000000000
10
-65.0003781363
20
60.8366745953
30
0.0000000000
10
-66.4919448092
20
60.8371800111
30
0.0000000000
10
-67.0983392162
20
60.8375506020
30
0.0000000000
10
-67.3603544649
20
60.8378191258
30
0.0000000000
11
-56.2630396751
21
60.8358656158
31
0.0000000000
11
-62.8856544829
21
60.8363908706
31
0.0000000000
11
-65.5411712769
21
60.8368766426
31
0.0000000000
11
-66.5743085039
21
60.8372611736
31
0.0000000000
11
-67.3603544649
21
60.8378191258
31
0.0000000000
0
SPLINE
5
5C8
100
AcDbEntity
8
0
100
AcDbSpline
62
7
6
CONTINUOUS
70
0
71
3
72
10
73
6
74
4
42
0.0000001000
43
0.0000001000
44
0.0000000001
12
-0.0019213630
22
-8.2094062593
32
0.0000000000
13
-0.0013649508
23
-8.2094063706
33
0.0000000000
40
0.0000000000
40
0.0000000000
40
0.0000000000
40
0.0000000000
40
0.3328288977
40
0.6661236319
40
1.0000000000
40
1.0000000000
40
1.0000000000
40
1.0000000000
10
-59.5384920199
20
56.9778138485
30
0.0000000000
10
-59.5387051816
20
56.0670379699
30
0.0000000000
10
-59.5391105956
20
54.2442114604
30
0.0000000000
10
-59.5396568304
20
51.5077426867
30
0.0000000000
10
-59.5399804225
20
49.6820497907
30
0.0000000000
10
-59.5401323308
20
48.7684075297
30
0.0000000000
11
-59.5384920199
21
56.9778138485
31
0.0000000000
11
-59.5390999381
21
54.2454862053
31
0.0000000000
11
-59.5396463205
21
51.5093343076
31
0.0000000000
11
-59.5401323308
21
48.7684075297
31
0.0000000000
0
SPLINE
5
5C9
100
AcDbEntity
8
0
100
AcDbSpline
62
7
6
CONTINUOUS
70
0
71
3
72
10
73
6
74
4
42
0.0000001000
43
0.0000001000
44
0.0000000001
12
3.2771197441
22
-0.0235811789
32
0.0000000000
13
3.2771680621
23
-0.0154719695
33
0.0000000000
40
0.0000000000
40
0.0000000000
40
0.0000000000
40
0.0000000000
40
0.3223995222
40
0.6556880137
40
1.0000000000
40
1.0000000000
40
1.0000000000
40
1.0000000000
10
-59.5401323308
20
48.7684075297
30
0.0000000000
10
-59.1879517175
20
48.7658733428
30
0.0000000000
10
-58.4716932317
20
48.7610538152
30
0.0000000000
10
-57.3793104932
20
48.7546282412
30
0.0000000000
10
-56.6391081973
20
48.7508604628
30
0.0000000000
10
-56.2629854491
20
48.7490847346
30
0.0000000000
11
-59.5401323308
21
48.7684075297
31
0.0000000000
11
-58.4835871765
21
48.7612804487
31
0.0000000000
11
-57.3913515871
21
48.7548408925
31
0.0000000000
11
-56.2629854491
21
48.7490847346
31
0.0000000000
0
SPLINE
5
5CA
100
AcDbEntity
8
0
100
AcDbSpline
62
9
6
CONTINUOUS
70
0
71
3
72
10
73
6
74
4
42
0.0000001000
43
0.0000001000
44
0.0000000001
12
0.0025156510
22
-12.3745506393
32
0.0000000000
13
0.0034927800
23
-12.3745504021
33
0.0000000000
40
0.0000000000
40
0.0000000000
40
0.0000000000
40
0.0000000000
40
0.3271916559
40
0.6605291053
40
1.0000000000
40
1.0000000000
40
1.0000000000
40
1.0000000000
10
-56.2629854528
20
48.7490847347
30
0.0000000000
10
-56.2627110861
20
47.3994681629
30
0.0000000000
10
-56.2626121534
20
44.6748844609
30
0.0000000000
10
-56.2628040080
20
40.5500341818
30
0.0000000000
10
-56.2625205661
20
37.7748004572
30
0.0000000000
10
-56.2621253337
20
36.3745338917
30
0.0000000000
11
-56.2629854528
21
48.7490847347
31
0.0000000000
11
-56.2626684435
21
44.7002349482
31
0.0000000000
11
-56.2627015722
21
40.5753337159
31
0.0000000000
11
-56.2621253337
21
36.3745338917
31
0.0000000000
0
SPLINE
5
5CB
100
AcDbEntity
8
0
100
AcDbSpline
62
9
6
CONTINUOUS
70
0
71
3
72
10
73
6
74
4
42
0.0000001000
43
0.0000001000
44
0.0000000001
12
0.0016284378
22
-3.8381390285
32
0.0000000000
13
-0.0003899478
23
-3.8381393542
33
0.0000000000
40
0.0000000000
40
0.0000000000
40
0.0000000000
40
0.0000000000
40
0.3313109407
40
0.6646221079
40
1.0000000000
40
1.0000000000
40
1.0000000000
40
1.0000000000
10
-56.2630402399
20
60.8358656158
30
0.0000000000
10
-56.2628604001
20
60.4119931318
30
0.0000000000
10
-56.2625926520
20
59.5616890731
30
0.0000000000
10
-56.2624320571
20
58.2823092860
30
0.0000000000
10
-56.2624626238
20
57.4268020137
30
0.0000000000
10
-56.2625062170
20
56.9977263184
30
0.0000000000
11
-56.2630402399
21
60.8358656158
31
0.0000000000
11
-56.2626334692
21
59.5642481143
31
0.0000000000
11
-56.2624666648
21
58.2849534106
31
0.0000000000
11
-56.2625062170
21
56.9977263184
31
0.0000000000
0
SPLINE
5
5CC
100
AcDbEntity
8
0
100
AcDbSpline
62
7
6
CONTINUOUS
70
0
71
3
72
10
73
6
74
4
42
0.0000001000
43
0.0000001000
44
0.0000000001
12
-3.2760081290
22
-0.0159777522
32
0.0000000000
13
-3.2759571338
23
-0.0242777106
33
0.0000000000
40
0.0000000000
40
0.0000000000
40
0.0000000000
40
0.0000000000
40
0.3444627498
40
0.6777500003
40
1.0000000000
40
1.0000000000
40
1.0000000000
40
1.0000000000
10
-56.2625062170
20
56.9977263184
30
0.0000000000
10
-56.6386604732
20
56.9958917382
30
0.0000000000
10
-57.3787639909
20
56.9920036177
30
0.0000000000
10
-58.4707597313
20
56.9853829002
30
0.0000000000
10
-59.1865996248
20
56.9804216793
30
0.0000000000
10
-59.5384920199
20
56.9778138485
30
0.0000000000
11
-56.2625062170
21
56.9977263184
31
0.0000000000
11
-57.3909667654
21
56.9917847585
31
0.0000000000
11
-58.4828113304
21
56.9851492795
31
0.0000000000
11
-59.5384920199
21
56.9778138485
31
0.0000000000
0
SPLINE
5
5CD
100
AcDbEntity
8
0
100
AcDbSpline
62
7
6
CONTINUOUS
70
0
71
3
72
10
73
6
74
4
42
0.0000001000
43
0.0000001000
44
0.0000000001
12
-0.0000415857
22
-4.1082785004
32
0.0000000000
13
-0.0000000001
23
-4.1082785006
33
0.0000000000
40
0.0000000000
40
0.0000000000
40
0.0000000000
40
0.0000000000
40
0.3343644887
40
0.6676983742
40
1.0000000000
40
1.0000000000
40
1.0000000000
40
1.0000000000
10
-59.5428875164
20
4.9822093451
30
0.0000000000
10
-59.5428921514
20
4.5243218650
30
0.0000000000
10
-59.5428999140
20
3.6099582399
30
0.0000000000
10
-59.5429069677
20
2.2405320730
30
0.0000000000
10
-59.5429085559
20
1.3289933863
30
0.0000000000
10
-59.5429085559
20
0.8739308446
30
0.0000000000
11
-59.5428875164
21
4.9822093451
31
0.0000000000
11
-59.5428991604
21
3.6085469049
31
0.0000000000
11
-59.5429061958
21
2.2391184697
31
0.0000000000
11
-59.5429085559
21
0.8739308446
31
0.0000000000
0
SPLINE
5
5CE
100
AcDbEntity
8
0
100
AcDbSpline
62
9
6
CONTINUOUS
70
0
71
3
72
12
73
8
74
6
42
0.0000001000
43
0.0000001000
44
0.0000000001
12
11.7227108573
22
-0.0107784326
32
0.0000000000
13
11.7227157697
23
-0.0010007581
33
0.0000000000
40
0.0000000000
40
0.0000000000
40
0.0000000000
40
0.0000000000
40
0.0445383325
40
0.1039126726
40
0.2515399121
40
0.6486168983
40
1.0000000000
40
1.0000000000
40
1.0000000000
40
1.0000000000
10
-67.9848691910
20
36.3768533932
30
0.0000000000
10
-67.8108325265
20
36.3766933754
30
0.0000000000
10
-67.4047863679
20
36.3764169729
30
0.0000000000
10
-66.4218761629
20
36.3759753405
30
0.0000000000
10
-64.0613957723
20
36.3753777882
30
0.0000000000
10
-60.5598701060
20
36.3749280349
30
0.0000000000
10
-57.6352084839
20
36.3746444114
30
0.0000000000
10
-56.2621537415
20
36.3745271949
30
0.0000000000
11
-67.9848691910
21
36.3768533932
31
0.0000000000
11
-67.4627591149
21
36.3764736976
31
0.0000000000
11
-66.7667306769
21
36.3761433416
31
0.0000000000
11
-65.0361385739
21
36.3756440396
31
0.0000000000
11
-60.3813179639
21
36.3749310046
31
0.0000000000
11
-56.2621537415
21
36.3745271949
31
0.0000000000
0
SPLINE
5
5CF
100
AcDbEntity
8
0
100
AcDbSpline
62
7
6
CONTINUOUS
70
0
71
3
72
10
73
6
74
4
42
0.0000001000
43
0.0000001000
44
0.0000000001
12
-0.4538383912
22
-0.0020780535
32
0.0000000000
13
-0.4538377506
23
-0.0022135466
33
0.0000000000
40
0.0000000000
40
0.0000000000
40
0.0000000000
40
0.0000000000
40
0.3346888649
40
0.6680216258
40
1.0000000000
40
1.0000000000
40
1.0000000000
40
1.0000000000
10
-55.8086681407
20
56.9998717198
30
0.0000000000
10
-55.8592996927
20
56.9996398860
30
0.0000000000
10
-55.9603576233
20
56.9991721928
30
0.0000000000
10
-56.1116369827
20
56.9984570351
30
0.0000000000
10
-56.2122847775
20
56.9979712682
30
0.0000000000
10
-56.2625062170
20
56.9977263184
30
0.0000000000
11
-55.8086681407
21
56.9998717198
31
0.0000000000
11
-55.9605627621
21
56.9991687213
31
0.0000000000
11
-56.1118418616
21
56.9984535652
31
0.0000000000
11
-56.2625062170
21
56.9977263184
31
0.0000000000
0
SPLINE
5
5D0
100
AcDbEntity
8
0
100
AcDbSpline
62
7
6
CONTINUOUS
70
0
71
3
72
10
73
6
74
4
42
0.0000001000
43
0.0000001000
44
0.0000000001
12
-0.0007923640
22
8.2528693736
32
0.0000000000
13
-0.0011880063
23
8.2528693261
33
0.0000000000
40
0.0000000000
40
0.0000000000
40
0.0000000000
40
0.0000000000
40
0.3337193167
40
0.6670087813
40
1.0000000000
40
1.0000000000
40
1.0000000000
40
1.0000000000
10
-55.8076805393
20
48.7470023680
30
0.0000000000
10
-55.8077686817
20
49.6650496774
30
0.0000000000
10
-55.8079589782
20
51.4999617905
30
0.0000000000
10
-55.8082876523
20
54.2509182416
30
0.0000000000
10
-55.8085362754
20
56.0838273816
30
0.0000000000
10
-55.8086681407
20
56.9998717198
30
0.0000000000
11
-55.8076805393
21
48.7470023680
31
0.0000000000
11
-55.8079663431
21
51.5011442943
31
0.0000000000
11
-55.8082951654
21
54.2517387021
31
0.0000000000
11
-55.8086681407
21
56.9998717198
31
0.0000000000
0
SPLINE
5
5D1
100
AcDbEntity
8
0
100
AcDbSpline
62
7
6
CONTINUOUS
70
0
71
3
72
10
73
6
74
4
42
0.0000001000
43
0.0000001000
44
0.0000000001
12
0.4553045986
22
-0.0021496246
32
0.0000000000
13
0.4553052108
23
-0.0020157888
33
0.0000000000
40
0.0000000000
40
0.0000000000
40
0.0000000000
40
0.0000000000
40
0.3319911208
40
0.6653239217
40
1.0000000000
40
1.0000000000
40
1.0000000000
40
1.0000000000
10
-56.2629854491
20
48.7490847346
30
0.0000000000
10
-56.2125997544
20
48.7488468492
30
0.0000000000
10
-56.1116247170
20
48.7483751202
30
0.0000000000
10
-55.9598564130
20
48.7476810137
30
0.0000000000
10
-55.8584737935
20
48.7472272467
30
0.0000000000
10
-55.8076805393
20
48.7470023680
30
0.0000000000
11
-56.2629854491
21
48.7490847346
31
0.0000000000
11
-56.1118283300
21
48.7483785423
31
0.0000000000
11
-55.9600602687
21
48.7476844117
31
0.0000000000
11
-55.8076805393
21
48.7470023680
31
0.0000000000
0
SPLINE
5
5D2
100
AcDbEntity
8
0
100
AcDbSpline
62
7
6
CONTINUOUS
70
0
71
3
72
10
73
6
74
4
42
0.0000001000
43
0.0000001000
44
0.0000000001
12
0.4552925632
22
0.0020157328
32
0.0000000000
13
0.4552919510
23
0.0021495611
33
0.0000000000
40
0.0000000000
40
0.0000000000
40
0.0000000000
40
0.0000000000
40
0.3346760377
40
0.6680088360
40
1.0000000000
40
1.0000000000
40
1.0000000000
40
1.0000000000
10
55.4384625075
20
48.7470023680
30
0.0000000000
10
55.4892543445
20
48.7472272405
30
0.0000000000
10
55.5906341412
20
48.7476809938
30
0.0000000000
10
55.7423982294
20
48.7483750841
30
0.0000000000
10
55.8433704681
20
48.7488467904
30
0.0000000000
10
55.8937547697
20
48.7490846689
30
0.0000000000
11
55.4384625075
21
48.7470023680
31
0.0000000000
11
55.5908379856
21
48.7476843925
31
0.0000000000
11
55.7426018298
21
48.7483785032
31
0.0000000000
11
55.8937547697
21
48.7490846689
31
0.0000000000
0
SPLINE
5
5D3
100
AcDbEntity
8
0
100
AcDbSpline
62
7
6
CONTINUOUS
70
0
71
3
72
10
73
6
74
4
42
0.0000001000
43
0.0000001000
44
0.0000000001
12
-0.0011880063
22
-8.2528693261
32
0.0000000000
13
-0.0007923640
23
-8.2528693736
33
0.0000000000
40
0.0000000000
40
0.0000000000
40
0.0000000000
40
0.0000000000
40
0.3329913009
40
0.6662807621
40
1.0000000000
40
1.0000000000
40
1.0000000000
40
1.0000000000
10
55.4394501088
20
56.9998717198
30
0.0000000000
10
55.4393182436
20
56.0838271556
30
0.0000000000
10
55.4390696204
20
54.2509177985
30
0.0000000000
10
55.4387409463
20
51.4999613475
30
0.0000000000
10
55.4385506498
20
49.6650494605
30
0.0000000000
10
55.4384625075
20
48.7470023680
30
0.0000000000
11
55.4394501088
21
56.9998717198
31
0.0000000000
11
55.4390771335
21
54.2517380240
31
0.0000000000
11
55.4387483112
21
51.5011436433
31
0.0000000000
11
55.4384625075
21
48.7470023680
31
0.0000000000
0
SPLINE
5
5D4
100
AcDbEntity
8
0
100
AcDbSpline
62
7
6
CONTINUOUS
70
0
71
3
72
10
73
6
74
4
42
0.0000001000
43
0.0000001000
44
0.0000000001
12
-0.4538479235
22
0.0022135993
32
0.0000000000
13
-0.4538485642
23
0.0020781001
33
0.0000000000
40
0.0000000000
40
0.0000000000
40
0.0000000000
40
0.0000000000
40
0.3319783023
40
0.6653110838
40
1.0000000000
40
1.0000000000
40
1.0000000000
40
1.0000000000
10
55.8932983579
20
56.9977262244
30
0.0000000000
10
55.8430758035
20
56.9979711801
30
0.0000000000
10
55.7424257607
20
56.9984570234
30
0.0000000000
10
55.5911430102
20
56.9991721710
30
0.0000000000
10
55.4900828035
20
56.9996398808
30
0.0000000000
10
55.4394501088
20
56.9998717198
30
0.0000000000
11
55.8932983579
21
56.9977262244
31
0.0000000000
11
55.7426306580
21
56.9984535326
31
0.0000000000
11
55.5913481583
21
56.9991687053
31
0.0000000000
11
55.4394501088
21
56.9998717198
31
0.0000000000
0
SPLINE
5
5D5
100
AcDbEntity
8
0
100
AcDbSpline
62
9
6
CONTINUOUS
70
0
71
3
72
10
73
6
74
4
42
0.0000001000
43
0.0000001000
44
0.0000000001
12
-0.0005712878
22
-12.3745512054
32
0.0000000000
13
0.0017144497
23
-12.3745510998
33
0.0000000000
40
0.0000000000
40
0.0000000000
40
0.0000000000
40
0.0000000000
40
0.3333350970
40
0.6666727526
40
1.0000000000
40
1.0000000000
40
1.0000000000
40
1.0000000000
10
55.8929072992
20
-34.6266722032
30
0.0000000000
10
55.8928438224
20
-36.0016296119
30
0.0000000000
10
55.8928895923
20
-38.7515549916
30
0.0000000000
10
55.8932787786
20
-42.8764053809
30
0.0000000000
10
55.8936459827
20
-45.6262983527
30
0.0000000000
10
55.8938364736
20
-47.0012233715
30
0.0000000000
11
55.8929072992
21
-34.6266722032
31
0.0000000000
11
55.8929430142
21
-38.7515444335
31
0.0000000000
11
55.8933057203
21
-42.8764483097
31
0.0000000000
11
55.8938364736
21
-47.0012233715
31
0.0000000000
0
SPLINE
5
5D6
100
AcDbEntity
8
0
100
AcDbSpline
62
9
6
CONTINUOUS
70
0
71
3
72
10
73
6
74
4
42
0.0000001000
43
0.0000001000
44
0.0000000001
12
-0.0002744105
22
-3.8376256148
32
0.0000000000
13
0.0002682728
23
-3.8376256153
33
0.0000000000
40
0.0000000000
40
0.0000000000
40
0.0000000000
40
0.0000000000
40
0.3333779550
40
0.6667340844
40
1.0000000000
40
1.0000000000
40
1.0000000000
40
1.0000000000
10
55.8938281696
20
-55.2498619945
30
0.0000000000
10
55.8937976754
20
-55.6763219211
30
0.0000000000
10
55.8937569127
20
-56.5292138562
30
0.0000000000
10
55.8937552306
20
-57.8084223982
30
0.0000000000
10
55.8937943603
20
-58.6611710116
30
0.0000000000
10
55.8938241624
20
-59.0874876163
30
0.0000000000
11
55.8938281696
21
-55.2498619945
31
0.0000000000
11
55.8937668223
21
-56.5292417760
31
0.0000000000
11
55.8937652959
21
-57.8085378003
31
0.0000000000
11
55.8938241624
21
-59.0874876163
31
0.0000000000
0
SPLINE
5
5D7
100
AcDbEntity
8
0
100
AcDbSpline
62
7
6
CONTINUOUS
70
0
71
3
72
10
73
6
74
4
42
0.0000001000
43
0.0000001000
44
0.0000000001
12
0.4543784046
22
0.0020805261
32
0.0000000000
13
0.4543777624
23
0.0022163445
33
0.0000000000
40
0.0000000000
40
0.0000000000
40
0.0000000000
40
0.0000000000
40
0.3346905018
40
0.6680232614
40
1.0000000000
40
1.0000000000
40
1.0000000000
40
1.0000000000
10
55.4394501088
20
-55.2520100307
30
0.0000000000
10
55.4901421542
20
-55.2517779199
30
0.0000000000
10
55.5913205794
20
-55.2513096632
30
0.0000000000
10
55.7427799430
20
-55.2505936274
30
0.0000000000
10
55.8435472486
20
-55.2501072537
30
0.0000000000
10
55.8938281978
20
-55.2498619954
30
0.0000000000
11
55.4394501088
21
-55.2520100307
31
0.0000000000
11
55.5915262105
21
-55.2513061832
31
0.0000000000
11
55.7429853132
21
-55.2505901491
31
0.0000000000
11
55.8938281978
21
-55.2498619954
31
0.0000000000
0
SPLINE
5
5D8
100
AcDbEntity
8
0
100
AcDbSpline
62
7
6
CONTINUOUS
70
0
71
3
72
10
73
6
74
4
42
0.0000001000
43
0.0000001000
44
0.0000000001
12
0.0007923640
22
-8.2528693736
32
0.0000000000
13
0.0011880063
23
-8.2528693261
33
0.0000000000
40
0.0000000000
40
0.0000000000
40
0.0000000000
40
0.0000000000
40
0.3337193167
40
0.6670087813
40
1.0000000000
40
1.0000000000
40
1.0000000000
40
1.0000000000
10
55.4384625075
20
-46.9991406788
30
0.0000000000
10
55.4385506499
20
-47.9171879883
30
0.0000000000
10
55.4387409463
20
-49.7521001014
30
0.0000000000
10
55.4390696204
20
-52.5030565524
30
0.0000000000
10
55.4393182436
20
-54.3359656925
30
0.0000000000
10
55.4394501088
20
-55.2520100307
30
0.0000000000
11
55.4384625075
21
-46.9991406788
31
0.0000000000
11
55.4387483113
21
-49.7532826051
31
0.0000000000
11
55.4390771336
21
-52.5038770130
31
0.0000000000
11
55.4394501088
21
-55.2520100307
31
0.0000000000
0
SPLINE
5
5D9
100
AcDbEntity
8
0
100
AcDbSpline
62
7
6
CONTINUOUS
70
0
71
3
72
10
73
6
74
4
42
0.0000001000
43
0.0000001000
44
0.0000000001
12
-0.4553736549
22
0.0021499712
32
0.0000000000
13
-0.4553742673
23
0.0020160945
33
0.0000000000
40
0.0000000000
40
0.0000000000
40
0.0000000000
40
0.0000000000
40
0.3319909136
40
0.6653237137
40
1.0000000000
40
1.0000000000
40
1.0000000000
40
1.0000000000
10
55.8938364736
20
-47.0012233715
30
0.0000000000
10
55.8434431684
20
-47.0009854479
30
0.0000000000
10
55.7424528476
20
-47.0005136437
30
0.0000000000
10
55.5906615248
20
-46.9998194285
30
0.0000000000
10
55.4892634970
20
-46.9993655919
30
0.0000000000
10
55.4384625075
20
-46.9991406788
30
0.0000000000
11
55.8938364736
21
-47.0012233715
31
0.0000000000
11
55.7426565228
21
-47.0005170669
31
0.0000000000
11
55.5908654431
21
-46.9998228276
31
0.0000000000
11
55.4384625075
21
-46.9991406788
31
0.0000000000
0
SPLINE
5
5DA
100
AcDbEntity
8
0
100
AcDbSpline
62
7
6
CONTINUOUS
70
0
71
3
72
10
73
6
74
4
42
0.0000001000
43
0.0000001000
44
0.0000000001
12
-0.4553735546
22
-0.0020160914
32
0.0000000000
13
-0.4553729422
23
-0.0021499676
33
0.0000000000
40
0.0000000000
40
0.0000000000
40
0.0000000000
40
0.0000000000
40
0.3346762816
40
0.6680090790
40
1.0000000000
40
1.0000000000
40
1.0000000000
40
1.0000000000
10
-55.8076805393
20
-46.9991406788
30
0.0000000000
10
-55.8584814487
20
-46.9993655915
30
0.0000000000
10
-55.9598793166
20
-46.9998194266
30
0.0000000000
10
-56.1116704018
20
-47.0005136444
30
0.0000000000
10
-56.2126605653
20
-47.0009854389
30
0.0000000000
10
-56.2630537928
20
-47.0012233621
30
0.0000000000
11
-55.8076805393
21
-46.9991406788
31
0.0000000000
11
-55.9600832344
21
-46.9998228265
31
0.0000000000
11
-56.1118740752
21
-47.0005170647
31
0.0000000000
11
-56.2630537928
21
-47.0012233621
31
0.0000000000
0
SPLINE
5
5DB
100
AcDbEntity
8
0
100
AcDbSpline
62
7
6
CONTINUOUS
70
0
71
3
72
10
73
6
74
4
42
0.0000001000
43
0.0000001000
44
0.0000000001
12
-0.0000000009
22
4.1282547817
32
0.0000000000
13
-0.0000183207
23
4.1282547817
33
0.0000000000
40
0.0000000000
40
0.0000000000
40
0.0000000000
40
0.0000000000
40
0.3324590472
40
0.6657932438
40
1.0000000000
40
1.0000000000
40
1.0000000000
40
1.0000000000
10
-55.8063449537
20
0.8739308446
30
0.0000000000
10
-55.8063449538
20
1.3314227284
30
0.0000000000
10
-55.8063456566
20
2.2476107758
30
0.0000000000
10
-55.8063487714
20
3.6236957030
30
0.0000000000
10
-55.8063521932
20
4.5422887465
30
0.0000000000
10
-55.8063542342
20
5.0021856263
30
0.0000000000
11
-55.8063449537
21
0.8739308446
31
0.0000000000
11
-55.8063459975
21
2.2464064960
31
0.0000000000
11
-55.8063491034
21
3.6224949868
31
0.0000000000
11
-55.8063542342
21
5.0021856263
31
0.0000000000
0
SPLINE
5
5DC
100
AcDbEntity
8
0
100
AcDbSpline
62
7
6
CONTINUOUS
70
0
71
3
72
10
73
6
74
4
42
0.0000001000
43
0.0000001000
44
0.0000000001
12
-3.7365556744
22
-0.0154409033
32
0.0000000000
13
-3.7365039637
23
-0.0249971722
33
0.0000000000
40
0.0000000000
40
0.0000000000
40
0.0000000000
40
0.0000000000
40
0.3452554664
40
0.6785342327
40
1.0000000000
40
1.0000000000
40
1.0000000000
40
1.0000000000
10
-55.8063542342
20
5.0021856263
30
0.0000000000
10
-56.2363763249
20
5.0004086075
30
0.0000000000
10
-57.0815020142
20
4.9965929982
30
0.0000000000
10
-58.3270136227
20
4.9899498960
30
0.0000000000
10
-59.1425014786
20
4.9848879234
30
0.0000000000
10
-59.5428875164
20
4.9822093451
30
0.0000000000
11
-55.8063542342
21
5.0021856263
31
0.0000000000
11
-57.0964183067
21
4.9963464980
31
0.0000000000
11
-58.3417257979
21
4.9896868267
31
0.0000000000
11
-59.5428875164
21
4.9822093451
31
0.0000000000
0
SPLINE
5
5DD
100
AcDbEntity
8
0
100
AcDbSpline
62
7
6
CONTINUOUS
70
0
71
3
72
10
73
6
74
4
42
0.0000001000
43
0.0000001000
44
0.0000000001
12
0.0000000001
22
-4.1082785006
32
0.0000000000
13
0.0000415857
23
-4.1082785004
33
0.0000000000
40
0.0000000000
40
0.0000000000
40
0.0000000000
40
0.0000000000
40
0.3323016881
40
0.6656355736
40
1.0000000000
40
1.0000000000
40
1.0000000000
40
1.0000000000
10
-59.5429085559
20
0.8739308446
30
0.0000000000
10
-59.5429085559
20
0.4188682177
30
0.0000000000
10
-59.5429069677
20
-0.4926705544
30
0.0000000000
10
-59.5428999140
20
-1.8620967213
30
0.0000000000
10
-59.5428921513
20
-2.7764602612
30
0.0000000000
10
-59.5428875164
20
-3.2343476559
30
0.0000000000
11
-59.5429085559
21
0.8739308446
31
0.0000000000
11
-59.5429061958
21
-0.4912570362
31
0.0000000000
11
-59.5428991604
21
-1.8606854716
31
0.0000000000
11
-59.5428875164
21
-3.2343476559
31
0.0000000000
0
SPLINE
5
5DE
100
AcDbEntity
8
0
100
AcDbSpline
62
7
6
CONTINUOUS
70
0
71
3
72
10
73
6
74
4
42
0.0000001000
43
0.0000001000
44
0.0000000001
12
3.7365039637
22
-0.0249971722
32
0.0000000000
13
3.7365556744
23
-0.0154409033
33
0.0000000000
40
0.0000000000
40
0.0000000000
40
0.0000000000
40
0.0000000000
40
0.3214657640
40
0.6547445275
40
1.0000000000
40
1.0000000000
40
1.0000000000
40
1.0000000000
10
-59.5428875164
20
-3.2343476559
30
0.0000000000
10
-59.1425014826
20
-3.2370262343
30
0.0000000000
10
-58.3270136343
20
-3.2420882068
30
0.0000000000
10
-57.0815020258
20
-3.2487313090
30
0.0000000000
10
-56.2363763325
20
-3.2525469184
30
0.0000000000
10
-55.8063542342
20
-3.2543239372
30
0.0000000000
11
-59.5428875164
21
-3.2343476559
31
0.0000000000
11
-58.3417258101
21
-3.2418251375
31
0.0000000000
11
-57.0964183294
21
-3.2484848087
31
0.0000000000
11
-55.8063542342
21
-3.2543239372
31
0.0000000000
0
SPLINE
5
5DF
100
AcDbEntity
8
0
100
AcDbSpline
62
7
6
CONTINUOUS
70
0
71
3
72
10
73
6
74
4
42
0.0000001000
43
0.0000001000
44
0.0000000001
12
0.0000183207
22
4.1282547817
32
0.0000000000
13
0.0000000009
23
4.1282547817
33
0.0000000000
40
0.0000000000
40
0.0000000000
40
0.0000000000
40
0.0000000000
40
0.3342068037
40
0.6675410002
40
1.0000000000
40
1.0000000000
40
1.0000000000
40
1.0000000000
10
-55.8063542342
20
-3.2543239372
30
0.0000000000
10
-55.8063521932
20
-2.7944269920
30
0.0000000000
10
-55.8063487714
20
-1.8758338833
30
0.0000000000
10
-55.8063456566
20
-0.4997489561
30
0.0000000000
10
-55.8063449538
20
0.4164390260
30
0.0000000000
10
-55.8063449537
20
0.8739308446
30
0.0000000000
11
-55.8063542342
21
-3.2543239372
31
0.0000000000
11
-55.8063491034
21
-1.8746331017
31
0.0000000000
11
-55.8063459975
21
-0.4985446110
31
0.0000000000
11
-55.8063449537
21
0.8739308446
31
0.0000000000
0
SPLINE
5
5E0
100
AcDbEntity
8
0
100
AcDbSpline
62
7
6
CONTINUOUS
70
0
71
3
72
10
73
6
74
4
42
0.0000001000
43
0.0000001000
44
0.0000000001
12
0.0011880063
22
8.2528693261
32
0.0000000000
13
0.0007923639
23
8.2528693736
33
0.0000000000
40
0.0000000000
40
0.0000000000
40
0.0000000000
40
0.0000000000
40
0.3329913010
40
0.6662807623
40
1.0000000000
40
1.0000000000
40
1.0000000000
40
1.0000000000
10
-55.8086681407
20
-55.2520100307
30
0.0000000000
10
-55.8085362754
20
-54.3359654660
30
0.0000000000
10
-55.8082876522
20
-52.5030561084
30
0.0000000000
10
-55.8079589781
20
-49.7520996574
30
0.0000000000
10
-55.8077686817
20
-47.9171877708
30
0.0000000000
10
-55.8076805393
20
-46.9991406788
30
0.0000000000
11
-55.8086681407
21
-55.2520100307
31
0.0000000000
11
-55.8082951653
21
-52.5038763334
31
0.0000000000
11
-55.8079663431
21
-49.7532819527
31
0.0000000000
11
-55.8076805393
21
-46.9991406788
31
0.0000000000
0
SPLINE
5
5E1
100
AcDbEntity
8
0
100
AcDbSpline
62
7
6
CONTINUOUS
70
0
71
3
72
8
73
4
74
2
42
0.0000001000
43
0.0000001000
44
0.0000000001
12
3.5000432668
22
-0.0976947174
32
0.0000000000
13
3.4999332725
23
-0.0874323235
33
0.0000000000
40
0.0000000000
40
0.0000000000
40
0.0000000000
40
0.0000000000
40
1.0000000000
40
1.0000000000
40
1.0000000000
40
1.0000000000
10
-33.4346089610
20
-70.8393773071
30
0.0000000000
10
-32.2679278720
20
-70.8719422129
30
0.0000000000
10
-31.1012534985
20
-70.9027964862
30
0.0000000000
10
-29.9346090743
20
-70.9319405940
30
0.0000000000
11
-33.4346089610
21
-70.8393773071
31
0.0000000000
11
-29.9346090743
21
-70.9319405940
31
0.0000000000
0
SPLINE
5
5E2
100
AcDbEntity
8
0
100
AcDbSpline
62
7
6
CONTINUOUS
70
0
71
3
72
11
73
7
74
5
42
0.0000001000
43
0.0000001000
44
0.0000000001
12
0.2864502377
22
7.6346267854
32
0.0000000000
13
0.0498195135
23
7.6398362487
33
0.0000000000
40
0.0000000000
40
0.0000000000
40
0.0000000000
40
0.0000000000
40
0.2100467050
40
0.4472569406
40
0.7105564385
40
1.0000000000
40
1.0000000000
40
1.0000000000
40
1.0000000000
10
-29.9346090159
20
-70.9319382574
30
0.0000000000
10
-29.9145530397
20
-70.3973955240
30
0.0000000000
10
-29.8820815012
20
-69.2588054220
30
0.0000000000
10
-29.8461960411
20
-67.4496041609
30
0.0000000000
10
-29.8188460354
20
-65.4380305074
30
0.0000000000
10
-29.8066718991
20
-64.0304258640
30
0.0000000000
10
-29.8018652533
20
-63.2933253928
30
0.0000000000
11
-29.9346090159
21
-70.9319382574
31
0.0000000000
11
-29.8862334909
21
-69.3279110156
31
0.0000000000
11
-29.8492990232
21
-67.5160015299
31
0.0000000000
11
-29.8213312004
21
-65.5045881435
31
0.0000000000
11
-29.8018652533
21
-63.2933253928
31
0.0000000000
0
SPLINE
5
5E3
100
AcDbEntity
8
0
100
AcDbSpline
62
7
6
CONTINUOUS
70
0
71
3
72
10
73
6
74
4
42
0.0000001000
43
0.0000001000
44
0.0000000001
12
-3.7648195216
22
-0.0006190745
32
0.0000000000
13
-3.7648195040
23
-0.0007181621
33
0.0000000000
40
0.0000000000
40
0.0000000000
40
0.0000000000
40
0.0000000000
40
0.3338436229
40
0.6671859332
40
1.0000000000
40
1.0000000000
40
1.0000000000
40
1.0000000000
10
-29.8018652533
20
-63.2933253928
30
0.0000000000
10
-30.2208189162
20
-63.2933942842
30
0.0000000000
10
-31.0580971242
20
-63.2935355095
30
0.0000000000
10
-32.3130369620
20
-63.2937580625
30
0.0000000000
10
-33.1490231365
20
-63.2939137335
30
0.0000000000
10
-33.5666847664
20
-63.2939934049
30
0.0000000000
11
-29.8018652533
21
-63.2933253928
31
0.0000000000
11
-31.0587262411
21
-63.2935374331
31
0.0000000000
11
-32.3136998754
21
-63.2937600370
31
0.0000000000
11
-33.5666847664
21
-63.2939934049
31
0.0000000000
0
SPLINE
5
5E4
100
AcDbEntity
8
0
100
AcDbSpline
62
7
6
CONTINUOUS
70
0
71
3
72
11
73
7
74
5
42
0.0000001000
43
0.0000001000
44
0.0000000001
12
0.0506756741
22
-7.5465979483
32
0.0000000000
13
0.2823547343
23
-7.5414842320
33
0.0000000000
40
0.0000000000
40
0.0000000000
40
0.0000000000
40
0.0000000000
40
0.2890652099
40
0.5522577575
40
0.7895988871
40
1.0000000000
40
1.0000000000
40
1.0000000000
40
1.0000000000
10
-33.5666847664
20
-63.2939934049
30
0.0000000000
10
-33.5618019083
20
-64.0211463781
30
0.0000000000
10
-33.5495405325
20
-65.4103510898
30
0.0000000000
10
-33.5222440411
20
-67.3964819237
30
0.0000000000
10
-33.4865814323
20
-69.1845533763
30
0.0000000000
10
-33.4544115994
20
-70.3104670512
30
0.0000000000
10
-33.4346090159
20
-70.8393792764
30
0.0000000000
11
-33.5666847664
21
-63.2939934049
31
0.0000000000
11
-33.5470948050
21
-65.4754135460
31
0.0000000000
11
-33.5191924076
21
-67.4614706740
31
0.0000000000
11
-33.4825017052
21
-69.2522533052
31
0.0000000000
11
-33.4346090159
21
-70.8393792764
31
0.0000000000
0
SPLINE
5
5E5
100
AcDbEntity
8
0
100
AcDbSpline
62
9
6
CONTINUOUS
70
0
71
3
72
8
73
4
74
2
42
0.0000001000
43
0.0000001000
44
0.0000000001
12
0.0000215377
22
24.4646493257
32
0.0000000000
13
0.8549181907
23
24.4497070000
33
0.0000000000
40
0.0000000000
40
0.0000000000
40
0.0000000000
40
0.0000000000
40
1.0000000000
40
1.0000000000
40
1.0000000000
40
1.0000000000
10
-47.6846090157
20
36.3745469091
30
0.0000000000
10
-47.6846018364
20
44.5294300176
30
0.0000000000
10
-47.5420466021
20
52.6855578004
30
0.0000000000
10
-47.2570738719
20
60.8354601337
30
0.0000000000
11
-47.6846090157
21
36.3745469091
31
0.0000000000
11
-47.2570738719
21
60.8354601337
31
0.0000000000
0
SPLINE
5
5E6
100
AcDbEntity
8
0
100
AcDbSpline
62
9
6
CONTINUOUS
70
0
71
3
72
10
73
6
74
4
42
0.0000001000
43
0.0000001000
44
0.0000000001
12
47.0444063121
22
1.8765684597
32
0.0000000000
13
47.0818189161
23
-0.0000000000
33
0.0000000000
40
0.0000000000
40
0.0000000000
40
0.0000000000
40
0.0000000000
40
0.5000000000
40
0.7500000000
40
1.0000000000
40
1.0000000000
40
1.0000000000
40
1.0000000000
10
-47.2570738671
20
60.8354601617
30
0.0000000000
10
-39.4163394823
20
61.1482215716
30
0.0000000000
10
-27.6493925310
20
61.5001480781
30
0.0000000000
10
-11.9554533502
20
61.7348123611
30
0.0000000000
10
-4.1080939259
20
61.7739308446
30
0.0000000000
10
-0.1846090159
20
61.7739308446
30
0.0000000000
11
-47.2570738671
21
60.8354601617
31
0.0000000000
11
-23.7255180219
21
61.5392665606
31
0.0000000000
11
-11.9553558919
21
61.7152589466
31
0.0000000000
11
-0.1846090159
21
61.7739308446
31
0.0000000000
0
SPLINE
5
5E7
100
AcDbEntity
8
0
100
AcDbSpline
62
9
6
CONTINUOUS
70
0
71
3
72
10
73
6
74
4
42
0.0000001000
43
0.0000001000
44
0.0000000001
12
47.0818189161
22
0.0000000000
32
0.0000000000
13
47.0444063121
23
-1.8765684597
33
0.0000000000
40
0.0000000000
40
0.0000000000
40
0.0000000000
40
0.0000000000
40
0.2500000000
40
0.5000000000
40
1.0000000000
40
1.0000000000
40
1.0000000000
40
1.0000000000
10
-0.1846090159
20
61.7739308446
30
0.0000000000
10
3.7388758941
20
61.7739308446
30
0.0000000000
10
11.5862353184
20
61.7348123611
30
0.0000000000
10
27.2801744992
20
61.5001480781
30
0.0000000000
10
39.0471214505
20
61.1482215716
30
0.0000000000
10
46.8878558352
20
60.8354601617
30
0.0000000000
11
-0.1846090159
21
61.7739308446
31
0.0000000000
11
11.5861378601
21
61.7152589466
31
0.0000000000
11
23.3562999901
21
61.5392665606
31
0.0000000000
11
46.8878558352
21
60.8354601617
31
0.0000000000
0
SPLINE
5
5E8
100
AcDbEntity
8
0
100
AcDbSpline
62
9
6
CONTINUOUS
70
0
71
3
72
8
73
4
74
2
42
0.0000001000
43
0.0000001000
44
0.0000000001
12
0.8549397189
22
-24.4503226852
32
0.0000000000
13
0.0000000001
23
-24.4652651991
33
0.0000000000
40
0.0000000000
40
0.0000000000
40
0.0000000000
40
0.0000000000
40
1.0000000000
40
1.0000000000
40
1.0000000000
40
1.0000000000
10
46.8878558400
20
60.8354601337
30
0.0000000000
10
47.1728357464
20
52.6853525720
30
0.0000000000
10
47.3153909840
20
44.5290192473
30
0.0000000000
10
47.3153909841
20
36.3739308476
30
0.0000000000
11
46.8878558400
21
60.8354601337
31
0.0000000000
11
47.3153909841
21
36.3739308476
31
0.0000000000
0
SPLINE
5
5E9
100
AcDbEntity
8
0
100
AcDbSpline
62
9
6
CONTINUOUS
70
0
71
3
72
8
73
4
74
2
42
0.0000001000
43
0.0000001000
44
0.0000000001
12
-0.0000000001
22
-24.4652651991
32
0.0000000000
13
-0.8549397189
23
-24.4503226852
33
0.0000000000
40
0.0000000000
40
0.0000000000
40
0.0000000000
40
0.0000000000
40
1.0000000000
40
1.0000000000
40
1.0000000000
40
1.0000000000
10
47.3153909841
20
-34.6260691585
30
0.0000000000
10
47.3153909840
20
-42.7811575582
30
0.0000000000
10
47.1728357464
20
-50.9374908829
30
0.0000000000
10
46.8878558400
20
-59.0875984446
30
0.0000000000
11
47.3153909841
21
-34.6260691585
31
0.0000000000
11
46.8878558400
21
-59.0875984446
31
0.0000000000
0
SPLINE
5
5EA
100
AcDbEntity
8
0
100
AcDbSpline
62
9
6
CONTINUOUS
70
0
71
3
72
10
73
6
74
4
42
0.0000001000
43
0.0000001000
44
0.0000000001
12
-47.0444063121
22
-1.8765684597
32
0.0000000000
13
-47.0818189161
23
0.0000000000
33
0.0000000000
40
0.0000000000
40
0.0000000000
40
0.0000000000
40
0.0000000000
40
0.5000000000
40
0.7500000000
40
1.0000000000
40
1.0000000000
40
1.0000000000
40
1.0000000000
10
46.8878558352
20
-59.0875984726
30
0.0000000000
10
39.0471214505
20
-59.4003598825
30
0.0000000000
10
27.2801744992
20
-59.7522863890
30
0.0000000000
10
11.5862353184
20
-59.9869506719
30
0.0000000000
10
3.7388758941
20
-60.0260691554
30
0.0000000000
10
-0.1846090159
20
-60.0260691554
30
0.0000000000
11
46.8878558352
21
-59.0875984726
31
0.0000000000
11
23.3562999901
21
-59.7914048714
31
0.0000000000
11
11.5861378601
21
-59.9673972574
31
0.0000000000
11
-0.1846090159
21
-60.0260691554
31
0.0000000000
0
SPLINE
5
5EB
100
AcDbEntity
8
0
100
AcDbSpline
62
9
6
CONTINUOUS
70
0
71
3
72
10
73
6
74
4
42
0.0000001000
43
0.0000001000
44
0.0000000001
12
-47.0818189161
22
0.0000000000
32
0.0000000000
13
-47.0444063121
23
1.8765684597
33
0.0000000000
40
0.0000000000
40
0.0000000000
40
0.0000000000
40
0.0000000000
40
0.2500000000
40
0.5000000000
40
1.0000000000
40
1.0000000000
40
1.0000000000
40
1.0000000000
10
-0.1846090159
20
-60.0260691554
30
0.0000000000
10
-4.1080939259
20
-60.0260691554
30
0.0000000000
10
-11.9554533502
20
-59.9869506719
30
0.0000000000
10
-27.6493925310
20
-59.7522863890
30
0.0000000000
10
-39.4163394823
20
-59.4003598825
30
0.0000000000
10
-47.2570738671
20
-59.0875984726
30
0.0000000000
11
-0.1846090159
21
-60.0260691554
31
0.0000000000
11
-11.9553558919
21
-59.9673972574
31
0.0000000000
11
-23.7255180219
21
-59.7914048714
31
0.0000000000
11
-47.2570738671
21
-59.0875984726
31
0.0000000000
0
SPLINE
5
5EC
100
AcDbEntity
8
0
100
AcDbSpline
62
9
6
CONTINUOUS
70
0
71
3
72
8
73
4
74
2
42
0.0000001000
43
0.0000001000
44
0.0000000001
12
-0.8549397189
22
24.4503226852
32
0.0000000000
13
-0.0000000001
23
24.4652651991
33
0.0000000000
40
0.0000000000
40
0.0000000000
40
0.0000000000
40
0.0000000000
40
1.0000000000
40
1.0000000000
40
1.0000000000
40
1.0000000000
10
-47.2570738719
20
-59.0875984446
30
0.0000000000
10
-47.5420537782
20
-50.9374908829
30
0.0000000000
10
-47.6846090159
20
-42.7811575582
30
0.0000000000
10
-47.6846090159
20
-34.6260691585
30
0.0000000000
11
-47.2570738719
21
-59.0875984446
31
0.0000000000
11
-47.6846090159
21
-34.6260691585
31
0.0000000000
0
SPLINE
5
5ED
100
AcDbEntity
8
0
100
AcDbSpline
62
7
6
CONTINUOUS
70
0
71
3
72
10
73
6
74
4
42
0.0000001000
43
0.0000001000
44
0.0000000001
12
0.4543778484
22
-0.0022163449
32
0.0000000000
13
0.4543784906
23
-0.0020805265
33
0.0000000000
40
0.0000000000
40
0.0000000000
40
0.0000000000
40
0.0000000000
40
0.3319766972
40
0.6653094774
40
1.0000000000
40
1.0000000000
40
1.0000000000
40
1.0000000000
10
-56.2630463154
20
-55.2498619506
30
0.0000000000
10
-56.2127653629
20
-55.2501072089
30
0.0000000000
10
-56.1119980418
20
-55.2505936479
30
0.0000000000
10
-55.9605386494
20
-55.2513096570
30
0.0000000000
10
-55.8593601988
20
-55.2517779199
30
0.0000000000
10
-55.8086681407
20
-55.2520100307
30
0.0000000000
11
-56.2630463154
21
-55.2498619506
31
0.0000000000
11
-56.1122034212
21
-55.2505901488
31
0.0000000000
11
-55.9607442805
21
-55.2513061831
31
0.0000000000
11
-55.8086681407
21
-55.2520100307
31
0.0000000000
0
ENDSEC
0
SECTION
2
OBJECTS
0
DICTIONARY
5
C
100
AcDbDictionary
280
0
281
1
3
ACAD_GROUP
350
D
3
ACAD_MLINESTYLE
350
17
3
ACAD_LAYOUT
350
1A
3
ACAD_PLOTSETTINGS
350
19
3
ACAD_PLOTSTYLENAME
350
E
0
DICTIONARY
5
D
102
{ACAD_REACTORS
330
C
102
}
100
AcDbDictionary
280
0
281
1
0
ACDBDICTIONARYWDFLT
5
E
102
{ACAD_REACTORS
330
C
102
}
100
AcDbDictionary
281
1
3
Normal
350
F
100
AcDbDictionaryWithDefault
340
F
0
DICTIONARY
5
17
102
{ACAD_REACTORS
330
C
102
}
100
AcDbDictionary
280
0
281
1
3
Standard
350
18
0
DICTIONARY
5
19
102
{ACAD_REACTORS
330
C
102
}
100
AcDbDictionary
281
1
0
DICTIONARY
5
1A
102
{ACAD_REACTORS
330
C
102
}
100
AcDbDictionary
281
1
3
Layout1
350
1E
3
Model
350
22
0
ACDBPLACEHOLDER
5
F
102
{ACAD_REACTORS
330
E
102
}
0
MLINESTYLE
5
18
102
{ACAD_REACTORS
330
17
102
}
100
AcDbMlineStyle
2
STANDARD
70
0
3

62
256
51
90.0
52
90.0
71
2
49
0.5
62
256
6
BYLAYER
49
-0.5
62
256
6
BYLAYER
0
LAYOUT
5
1E
102
{ACAD_REACTORS
330
1A
102
}
100
AcDbPlotSettings
1

2

4

6

40
0.0
41
0.0
42
0.0
43
0.0
44
0.0
45
0.0
46
0.0
47
0.0
48
0.0
49
0.0
140
0.0
141
0.0
142
1.0
143
1.0
70
0
72
0
73
0
74
0
7

75
0
147
1.0
148
0.0
149
0.0
100
AcDbLayout
1
Layout1
70
0
71
0
10
0.0
20
0.0
11
0.0
21
0.0
12
0.0
22
0.0
32
0.0
14
0.0
24
0.0
34
0.0
15
0.0
25
0.0
35
0.0
146
0.0
13
0.0
23
0.0
33
0.0
16
0.0
26
0.0
36
0.0
17
0.0
27
0.0
37
0.0
76
0
330
1B
331
0
345
0
346
0
0
LAYOUT
5
22
102
{ACAD_REACTORS
330
1A
102
}
100
AcDbPlotSettings
1

2

4

6

40
0.0
41
0.0
42
0.0
43
0.0
44
0.0
45
0.0
46
0.0
47
0.0
48
0.0
49
0.0
140
0.0
141
0.0
142
1.0
143
1.0
70
0
72
0
73
0
74
0
7

75
0
147
1.0
148
0.0
149
0.0
100
AcDbLayout
1
Model
70
0
71
0
10
0.0
20
0.0
11
0.0
21
0.0
12
0.0
22
0.0
32
0.0
14
0.0
24
0.0
34
0.0
15
0.0
25
0.0
35
0.0
146
0.0
13
0.0
23
0.0
33
0.0
16
0.0
26
0.0
36
0.0
17
0.0
27
0.0
37
0.0
76
0
330
1F
331
0
345
0
346
0
0
ENDSEC
0
EOF
