0
SECTION
2
HEADER
9
$ACADVER
1
AC1014
9
$HANDSEED
5
       3D5
9
$EXTMAX
10
297.0000000000
20
210.0000000000
9
$EXTMIN
10
0.0000000000
20
0.0000000000
9
$LIMMIN
10
0.0000000000
20
0.0000000000
9
$LIMMAX
10
297.0000000000
20
210.0000000000
9
$VIEWCTR
10
148.5000000000
20
105.0000000000
9
$VIEWSIZE
40
210.0000000000
9
$CLAYER
8
0
9
$LTSCALE
40
16.3350000000
9
$CELTYPE
6
BYLAYER
9
$DIMSCALE
40
1
9
$DIMASZ
40
3.0000000000
9
$DIMEXO
40
1.8562500000
9
$DIMDLI
40
11.2860000000
9
$DIMEXE
40
5.3460000000
9
$DIMCEN
40
2.6730000000
9
$DIMLFAC
40
1.0000000000
9
$DIMTXT
40
3.0000000000
9
$DIMTOL
70
1
9
$DIMLIM
70
0
9
$DIMTFAC
40
1.0000000000
9
$DIMTP
40
0.0100000000
9
$DIMTM
40
0.0100000000
9
$MEASUREMENT
70
1
0
ENDSEC
0
SECTION
2
CLASSES
0
ENDSEC
0
SECTION
2
TABLES
0
TABLE
2
VPORT
5
8
100
AcDbSymbolTable
70
2
0
VPORT
5
1F4
100
AcDbSymbolTableRecord
100
AcDbViewportTableRecord
2
*ACTIVE
70
0
10
0.0
20
0.0
11
1.0
21
1.0
12
148.5000000000
22
105.0000000000
13
0.0
23
0.0
14
1.0
24
1.0
15
0.0
25
0.0
16
0.0
26
0.0
36
1.0
17
0.0
27
0.0
37
0.0
40
210.0000000000
41
1.4142857143
42
50.0
43
0.0
44
0.0
50
0.0
51
0.0
71
0
72
100
73
1
74
1
75
0
76
0
77
0
78
0
0
ENDTAB
0
TABLE
2
LTYPE
5
5
100
AcDbSymbolTable
70
6
0
LTYPE
5
14
100
AcDbSymbolTableRecord
100
AcDbLinetypeTableRecord
2
BYBLOCK
70
0
3

72
65
73
0
40
0.0
0
LTYPE
5
15
100
AcDbSymbolTableRecord
100
AcDbLinetypeTableRecord
2
BYLAYER
70
0
3

72
65
73
0
40
0.0
0
LTYPE
5
16
100
AcDbSymbolTableRecord
100
AcDbLinetypeTableRecord
2
CONTINUOUS
70
64
3
Solid line
72
65
73
0
40
0
0
LTYPE
5
1F5
100
AcDbSymbolTableRecord
100
AcDbLinetypeTableRecord
2
CENTER
70
64
3
____ _ ____ _ ____ _ ____ _ ____ _ ____ _ ____
72
65
73
4
40
0.6
49
0.375
74
0
49
-0.075
74
0
49
0.075
74
0
49
-0.075
74
0
0
LTYPE
5
1F6
100
AcDbSymbolTableRecord
100
AcDbLinetypeTableRecord
2
HIDDEN
70
64
3
- - - - - - - - - - - - - - - - - - - -
72
65
73
2
40
0.2
49
0.1
74
0
49
-0.1
74
0
0
LTYPE
5
1F7
100
AcDbSymbolTableRecord
100
AcDbLinetypeTableRecord
2
PHANTOM
70
64
3
_____ _ _ _____ _ _ _____ _ _ _____
72
65
73
6
40
0.8
49
0.45
74
0
49
-0.05
74
0
49
0.1
74
0
49
-0.05
74
0
49
0.1
74
0
49
-0.05
74
0
0
LTYPE
5
1F8
100
AcDbSymbolTableRecord
100
AcDbLinetypeTableRecord
2
DOT
70
64
3
. . . . . . . . . . . . . . . . . . . .
72
65
73
2
40
0.2
49
0.1
74
0
49
-0.1
74
0
0
LTYPE
5
1F9
100
AcDbSymbolTableRecord
100
AcDbLinetypeTableRecord
2
DASHED
70
64
3
- - - - - - - - - - - - - - - - - - - -
72
65
73
2
40
0.2
49
0.1
74
0
49
-0.1
74
0
0
ENDTAB
0
TABLE
2
LAYER
5
2
100
AcDbSymbolTable
70
36
0
LAYER
5
10
100
AcDbSymbolTableRecord
100
AcDbLayerTableRecord
2
0
70
0
62
7
6
CONTINUOUS
0
LAYER
5
1FA
100
AcDbSymbolTableRecord
100
AcDbLayerTableRecord
2
DEFAULT_1
70
0
62
7
6
CENTER
0
LAYER
5
1FB
100
AcDbSymbolTableRecord
100
AcDbLayerTableRecord
2
DEFAULT_2
70
0
62
8
6
HIDDEN
0
LAYER
5
1FC
100
AcDbSymbolTableRecord
100
AcDbLayerTableRecord
2
DEFAULT_3
70
0
62
7
6
PHANTOM
0
LAYER
5
1FD
100
AcDbSymbolTableRecord
100
AcDbLayerTableRecord
2
ASSI
70
0
62
7
6
CONTINUOUS
0
LAYER
5
1FE
100
AcDbSymbolTableRecord
100
AcDbLayerTableRecord
2
COLOR5
70
0
62
7
6
CONTINUOUS
0
LAYER
5
1FF
100
AcDbSymbolTableRecord
100
AcDbLayerTableRecord
2
COORDINATE
70
0
62
7
6
CONTINUOUS
0
LAYER
5
200
100
AcDbSymbolTableRecord
100
AcDbLayerTableRecord
2
COORD_ORIGINE
70
0
62
7
6
CONTINUOUS
0
LAYER
5
201
100
AcDbSymbolTableRecord
100
AcDbLayerTableRecord
2
CURVE
70
0
62
7
6
CONTINUOUS
0
LAYER
5
202
100
AcDbSymbolTableRecord
100
AcDbLayerTableRecord
2
DRAFT
70
0
62
7
6
CONTINUOUS
0
LAYER
5
203
100
AcDbSymbolTableRecord
100
AcDbLayerTableRecord
2
IMPORT_SCRITTE
70
0
62
7
6
CONTINUOUS
0
LAYER
5
204
100
AcDbSymbolTableRecord
100
AcDbLayerTableRecord
2
INTF_1
70
0
62
7
6
CONTINUOUS
0
LAYER
5
205
100
AcDbSymbolTableRecord
100
AcDbLayerTableRecord
2
NOTE
70
0
62
7
6
CONTINUOUS
0
LAYER
5
206
100
AcDbSymbolTableRecord
100
AcDbLayerTableRecord
2
PIANI
70
0
62
7
6
CONTINUOUS
0
LAYER
5
207
100
AcDbSymbolTableRecord
100
AcDbLayerTableRecord
2
PIANI_ORIGINE
70
0
62
7
6
CONTINUOUS
0
LAYER
5
208
100
AcDbSymbolTableRecord
100
AcDbLayerTableRecord
2
PIANI_STAMPO
70
0
62
7
6
CONTINUOUS
0
LAYER
5
209
100
AcDbSymbolTableRecord
100
AcDbLayerTableRecord
2
PUNTI
70
0
62
7
6
CONTINUOUS
0
LAYER
5
20A
100
AcDbSymbolTableRecord
100
AcDbLayerTableRecord
2
RACCORDO
70
0
62
7
6
CONTINUOUS
0
LAYER
5
20B
100
AcDbSymbolTableRecord
100
AcDbLayerTableRecord
2
RGB____0____0____0__
70
0
62
7
6
CONTINUOUS
0
LAYER
5
20C
100
AcDbSymbolTableRecord
100
AcDbLayerTableRecord
2
SMUSSO
70
0
62
7
6
CONTINUOUS
0
LAYER
5
20D
100
AcDbSymbolTableRecord
100
AcDbLayerTableRecord
2
SUPERFICI
70
0
62
7
6
CONTINUOUS
0
LAYER
5
20E
100
AcDbSymbolTableRecord
100
AcDbLayerTableRecord
2
TRASH
70
0
62
7
6
CONTINUOUS
0
LAYER
5
20F
100
AcDbSymbolTableRecord
100
AcDbLayerTableRecord
2
XSEC_DATUMS
70
0
62
7
6
CONTINUOUS
0
ENDTAB
0
TABLE
2
STYLE
5
3
100
AcDbSymbolTable
70
1
0
STYLE
5
11
100
AcDbSymbolTableRecord
100
AcDbTextStyleTableRecord
2
STANDARD
70
0
40
0.0
41
0.8000000000
50
0.0
71
0
42
0.2
3
txt
4

0
ENDTAB
0
TABLE
2
VIEW
5
6
100
AcDbSymbolTable
70
0
0
ENDTAB
0
TABLE
2
UCS
5
7
100
AcDbSymbolTable
70
0
0
ENDTAB
0
TABLE
2
APPID
5
9
100
AcDbSymbolTable
70
1
0
APPID
5
210
100
AcDbSymbolTableRecord
100
AcDbRegAppTableRecord
2
ACAD
70
0
0
ENDTAB
0
TABLE
2
DIMSTYLE
5
A
100
AcDbSymbolTable
70
1
0
DIMSTYLE
105
211
100
AcDbSymbolTableRecord
100
AcDbDimStyleTableRecord
2
STANDARD
70
0
3

4

5

6

7

40
1.0
41
3.0000000000
42
0.0625
43
0.38
44
0.18
45
0.0
46
0.0
47
0.0100000000
48
0.0100000000
140
3.0000000000
141
0.09
142
0.0
143
25.4
144
1.0000000000
145
0.0
146
1.0000000000
147
0.09
71
1
72
0
73
0
74
0
75
0
76
0
77
1
78
8
170
0
171
2
172
0
173
0
174
0
175
0
176
0
177
0
178
0
270
2
271
2
272
2
273
2
274
2
340
11
275
0
280
0
281
0
282
0
283
1
284
8
285
0
286
0
287
3
288
0
0
ENDTAB
0
TABLE
2
BLOCK_RECORD
5
1
100
AcDbSymbolTable
70
0
0
BLOCK_RECORD
5
1B
100
AcDbSymbolTableRecord
100
AcDbBlockTableRecord
2
*MODEL_SPACE
0
BLOCK_RECORD
5
1C
100
AcDbSymbolTableRecord
100
AcDbBlockTableRecord
2
*PAPER_SPACE
0
ENDTAB
0
ENDSEC
0
SECTION
2
BLOCKS
0
BLOCK
5
1E
100
AcDbEntity
8
0
100
AcDbBlockBegin
2
*MODEL_SPACE
70
0
10
0.0
20
0.0
30
0.0
3
*MODEL_SPACE
1

0
ENDBLK
5
1F
100
AcDbEntity
8
0
100
AcDbBlockEnd
0
BLOCK
5
20
100
AcDbEntity
8
0
100
AcDbBlockBegin
2
*PAPER_SPACE
70
0
10
0.0
20
0.0
30
0.0
3
*PAPER_SPACE
1

0
ENDBLK
5
21
100
AcDbEntity
8
0
100
AcDbBlockEnd
0
ENDSEC
0
SECTION
2
ENTITIES
0
LINE
5
212
100
AcDbEntity
8
0
100
AcDbLine
62
7
6
CONTINUOUS
10
-106.2630122951
20
-38.1998942990
11
-106.2630160374
21
43.4522601363
0
LINE
5
213
100
AcDbEntity
8
0
100
AcDbLine
62
9
6
CONTINUOUS
10
-103.1922095003
20
-25.7112709723
11
-103.1922094986
21
-26.4924557582
0
LINE
5
214
100
AcDbEntity
8
0
100
AcDbLine
62
9
6
CONTINUOUS
10
-102.9598754789
20
15.1214747684
11
-102.9598755093
21
15.4941334957
0
LINE
5
215
100
AcDbEntity
8
0
100
AcDbLine
62
9
6
CONTINUOUS
10
-102.4696292356
20
41.8534594322
11
-102.4696292317
21
41.5544122715
0
LINE
5
216
100
AcDbEntity
8
0
100
AcDbLine
62
9
6
CONTINUOUS
10
-101.3406538914
20
-43.3238534248
11
-101.3406538742
21
-43.3189477239
0
LINE
5
217
100
AcDbEntity
8
0
100
AcDbLine
62
9
6
CONTINUOUS
10
-101.1502773697
20
35.8683592976
11
-101.1502774109
21
36.8214880145
0
LINE
5
218
100
AcDbEntity
8
0
100
AcDbLine
62
9
6
CONTINUOUS
10
-104.1776865359
20
-40.1183717160
11
-104.1775358767
21
-40.0919133793
0
LINE
5
219
100
AcDbEntity
8
0
100
AcDbLine
62
7
6
CONTINUOUS
10
-102.4434819080
20
-43.0213564483
11
-102.4465811320
21
-43.0194264771
0
LINE
5
21A
100
AcDbEntity
8
0
100
AcDbLine
62
7
6
CONTINUOUS
10
-90.9630122951
20
16.3264498978
11
-90.9630122951
21
24.2493781515
0
LINE
5
21B
100
AcDbEntity
8
0
100
AcDbLine
62
7
6
CONTINUOUS
10
-90.7630122951
20
26.1164054045
11
-90.7630122951
21
24.2493781515
0
LINE
5
21C
100
AcDbEntity
8
0
100
AcDbLine
62
7
6
CONTINUOUS
10
-90.6142815671
20
24.2493781515
11
-90.6142815671
21
15.1214747684
0
LINE
5
21D
100
AcDbEntity
8
0
100
AcDbLine
62
7
6
CONTINUOUS
10
-77.9248925104
20
2.6993777319
11
-77.9248925104
21
0.1993776293
0
LINE
5
21E
100
AcDbEntity
8
0
100
AcDbLine
62
7
6
CONTINUOUS
10
-77.4630122951
20
2.6993781515
11
-77.4630122951
21
0.1993781515
0
LINE
5
21F
100
AcDbEntity
8
0
100
AcDbLine
62
7
6
CONTINUOUS
10
-76.9630122951
20
0.1993781515
11
-76.9630122951
21
2.6993781515
0
LINE
5
220
100
AcDbEntity
8
0
100
AcDbLine
62
7
6
CONTINUOUS
10
-76.5011320797
20
0.1993784865
11
-76.5011320797
21
2.6993778695
0
LINE
5
221
100
AcDbEntity
8
0
100
AcDbLine
62
7
6
CONTINUOUS
10
-73.4248925104
20
2.6993781515
11
-73.4248925104
21
0.1993781515
0
LINE
5
222
100
AcDbEntity
8
0
100
AcDbLine
62
7
6
CONTINUOUS
10
-73.3117430231
20
20.1006474235
11
-73.3117430231
21
24.2493781515
0
LINE
5
223
100
AcDbEntity
8
0
100
AcDbLine
62
7
6
CONTINUOUS
10
-73.1630122951
20
20.2493781515
11
-73.1630122951
21
24.2493781515
0
LINE
5
224
100
AcDbEntity
8
0
100
AcDbLine
62
7
6
CONTINUOUS
10
-72.9630122951
20
2.6993781515
11
-72.9630122951
21
0.1993781515
0
LINE
5
225
100
AcDbEntity
8
0
100
AcDbLine
62
7
6
CONTINUOUS
10
-72.9630122951
20
21.2493781515
11
-72.9630122951
21
24.2493781515
0
LINE
5
226
100
AcDbEntity
8
0
100
AcDbLine
62
7
6
CONTINUOUS
10
-72.4630122951
20
0.1993781515
11
-72.4630122951
21
2.6993781515
0
LINE
5
227
100
AcDbEntity
8
0
100
AcDbLine
62
7
6
CONTINUOUS
10
-72.0011320797
20
0.1993781515
11
-72.0011320797
21
2.6993781515
0
LINE
5
228
100
AcDbEntity
8
0
100
AcDbLine
62
7
6
CONTINUOUS
10
-67.4630122951
20
20.4493781515
11
-67.4630122951
21
20.2493781515
0
LINE
5
229
100
AcDbEntity
8
0
100
AcDbLine
62
7
6
CONTINUOUS
10
-67.4616976772
20
27.0806111468
11
-67.4616976772
21
23.9493781515
0
LINE
5
22A
100
AcDbEntity
8
0
100
AcDbLine
62
7
6
CONTINUOUS
10
-67.3304646819
20
26.9493781515
11
-67.3304646819
21
23.9493781515
0
LINE
5
22B
100
AcDbEntity
8
0
100
AcDbLine
62
7
6
CONTINUOUS
10
-73.3117430231
20
20.1006474235
11
-73.1630122951
21
20.2493781515
0
LINE
5
22C
100
AcDbEntity
8
0
100
AcDbLine
62
7
6
CONTINUOUS
10
-58.5955599083
20
23.9493781515
11
-58.5955599083
21
26.9493781515
0
LINE
5
22D
100
AcDbEntity
8
0
100
AcDbLine
62
7
6
CONTINUOUS
10
-58.4643269130
20
23.9493781515
11
-58.4643269130
21
27.0806111468
0
LINE
5
22E
100
AcDbEntity
8
0
100
AcDbLine
62
7
6
CONTINUOUS
10
-58.4630122951
20
20.2493781515
11
-58.4630122951
21
20.4493781515
0
LINE
5
22F
100
AcDbEntity
8
0
100
AcDbLine
62
7
6
CONTINUOUS
10
-58.4643269130
20
27.0806111468
11
-58.5955599083
21
26.9493781515
0
LINE
5
230
100
AcDbEntity
8
0
100
AcDbLine
62
7
6
CONTINUOUS
10
-37.1479224249
20
-22.2680816555
11
-37.1130122951
21
-22.9960221240
0
LINE
5
231
100
AcDbEntity
8
0
100
AcDbLine
62
7
6
CONTINUOUS
10
-39.9395956566
20
-16.2680816555
11
-40.1130122951
21
-10.2985118383
0
LINE
5
232
100
AcDbEntity
8
0
100
AcDbLine
62
7
6
CONTINUOUS
10
-40.1130122951
20
-22.9960221240
11
-40.1130122951
21
-10.2985118383
0
LINE
5
233
100
AcDbEntity
8
0
100
AcDbLine
62
7
6
CONTINUOUS
10
-38.1748925104
20
3.9493781515
11
-38.1748925104
21
0.9493781515
0
LINE
5
234
100
AcDbEntity
8
0
100
AcDbLine
62
7
6
CONTINUOUS
10
-37.7130122951
20
3.9493781515
11
-37.7130122951
21
0.9493781515
0
LINE
5
235
100
AcDbEntity
8
0
100
AcDbLine
62
7
6
CONTINUOUS
10
-40.0781021652
20
-22.2680816555
11
-40.1130122951
21
-22.9960221240
0
LINE
5
236
100
AcDbEntity
8
0
100
AcDbLine
62
9
6
CONTINUOUS
10
-17.7097411992
20
36.5575135936
11
-18.3988929570
21
35.8683618358
0
LINE
5
237
100
AcDbEntity
8
0
100
AcDbLine
62
7
6
CONTINUOUS
10
100.9146291047
20
-43.3238534248
11
-101.3406538769
21
-43.3238534248
0
LINE
5
238
100
AcDbEntity
8
0
100
AcDbLine
62
9
6
CONTINUOUS
10
100.9146291082
20
-43.3189478236
11
-101.3406536955
21
-43.3189478236
0
LINE
5
239
100
AcDbEntity
8
0
100
AcDbLine
62
7
6
CONTINUOUS
10
-104.1776865359
20
-40.1183717160
11
103.7516626583
21
-40.1183717160
0
LINE
5
23A
100
AcDbEntity
8
0
100
AcDbLine
62
7
6
CONTINUOUS
10
-104.2631928907
20
-39.9310878481
11
103.8371683005
21
-39.9310878481
0
LINE
5
23B
100
AcDbEntity
8
0
100
AcDbLine
62
7
6
CONTINUOUS
10
-37.2130122951
20
0.9493781515
11
-37.2130122951
21
3.9493781515
0
LINE
5
23C
100
AcDbEntity
8
0
100
AcDbLine
62
7
6
CONTINUOUS
10
-37.1479224249
20
-11.5002330763
11
-37.1479224249
21
-22.2680816555
0
LINE
5
23D
100
AcDbEntity
8
0
100
AcDbLine
62
7
6
CONTINUOUS
10
-37.1130122951
20
-22.9960221240
11
-37.1130122951
21
-10.2985118383
0
LINE
5
23E
100
AcDbEntity
8
0
100
AcDbLine
62
7
6
CONTINUOUS
10
-36.7511320797
20
0.9493781515
11
-36.7511320797
21
3.9493781515
0
LINE
5
23F
100
AcDbEntity
8
0
100
AcDbLine
62
7
6
CONTINUOUS
10
-37.1130122951
20
-10.2985118383
11
-37.2864289336
21
-16.2680816555
0
LINE
5
240
100
AcDbEntity
8
0
100
AcDbLine
62
9
6
CONTINUOUS
10
-11.6719216729
20
35.2602139493
11
-12.3610734306
21
34.5710621916
0
LINE
5
241
100
AcDbEntity
8
0
100
AcDbLine
62
7
6
CONTINUOUS
10
-23.6748925104
20
3.9493781515
11
-23.6748925104
21
0.9493781515
0
LINE
5
242
100
AcDbEntity
8
0
100
AcDbLine
62
7
6
CONTINUOUS
10
-23.2130122951
20
3.9493781515
11
-23.2130122951
21
0.9493781515
0
LINE
5
243
100
AcDbEntity
8
0
100
AcDbLine
62
7
6
CONTINUOUS
10
-22.7130122951
20
0.9493781515
11
-22.7130122951
21
3.9493781515
0
LINE
5
244
100
AcDbEntity
8
0
100
AcDbLine
62
7
6
CONTINUOUS
10
-22.2511320797
20
0.9493781515
11
-22.2511320797
21
3.9493781515
0
LINE
5
245
100
AcDbEntity
8
0
100
AcDbLine
62
9
6
CONTINUOUS
10
-7.7295745395
20
25.1990434184
11
-7.0404227818
21
25.8881951762
0
LINE
5
246
100
AcDbEntity
8
0
100
AcDbLine
62
9
6
CONTINUOUS
10
103.7225052339
20
-24.4429357658
11
104.7208080557
21
-24.4154336867
0
LINE
5
247
100
AcDbEntity
8
0
100
AcDbLine
62
9
6
CONTINUOUS
10
-103.1921863451
20
-26.4924557582
11
102.7662018324
21
-26.4924557626
0
LINE
5
248
100
AcDbEntity
8
0
100
AcDbLine
62
9
6
CONTINUOUS
10
-103.1922095003
20
-25.7112709723
11
102.7661849133
21
-25.7112709837
0
LINE
5
249
100
AcDbEntity
8
0
100
AcDbLine
62
7
6
CONTINUOUS
10
36.6869877049
20
-22.9960221240
11
39.6869877049
21
-22.9960221240
0
LINE
5
24A
100
AcDbEntity
8
0
100
AcDbLine
62
7
6
CONTINUOUS
10
-37.1130122951
20
-22.9960221240
11
-40.1130122951
21
-22.9960221240
0
LINE
5
24B
100
AcDbEntity
8
0
100
AcDbLine
62
7
6
CONTINUOUS
10
36.7218978348
20
-22.2680816555
11
39.6520775751
21
-22.2680816555
0
LINE
5
24C
100
AcDbEntity
8
0
100
AcDbLine
62
7
6
CONTINUOUS
10
-37.1479224249
20
-22.2680816555
11
-40.0781021652
21
-22.2680816555
0
LINE
5
24D
100
AcDbEntity
8
0
100
AcDbLine
62
9
6
CONTINUOUS
10
-104.1485298220
20
-24.4429357437
11
-105.1468108174
21
-24.4154346613
0
LINE
5
24E
100
AcDbEntity
8
0
100
AcDbLine
62
7
6
CONTINUOUS
10
-67.4616976772
20
27.0806111468
11
-67.3304646819
21
26.9493781515
0
LINE
5
24F
100
AcDbEntity
8
0
100
AcDbLine
62
9
6
CONTINUOUS
10
-18.3988929570
20
35.8683603307
11
-18.3988929570
21
36.8214880667
0
LINE
5
250
100
AcDbEntity
8
0
100
AcDbLine
62
9
6
CONTINUOUS
10
-15.6097549347
20
39.1980472112
11
-15.6097549347
21
40.1697959195
0
LINE
5
251
100
AcDbEntity
8
0
100
AcDbLine
62
9
6
CONTINUOUS
10
15.1837303445
20
39.1980472112
11
11.2458970827
21
35.2602139493
0
LINE
5
252
100
AcDbEntity
8
0
100
AcDbLine
62
9
6
CONTINUOUS
10
16.8668390608
20
39.5028524119
11
11.9350488405
21
34.5710621916
0
LINE
5
253
100
AcDbEntity
8
0
100
AcDbLine
62
7
6
CONTINUOUS
10
39.5473603835
20
-16.2680816555
11
36.7218978348
21
-16.2680816555
0
LINE
5
254
100
AcDbEntity
8
0
100
AcDbLine
62
7
6
CONTINUOUS
10
-37.1479224249
20
-16.2680816555
11
-39.9733849737
21
-16.2680816555
0
LINE
5
255
100
AcDbEntity
8
0
100
AcDbLine
62
9
6
CONTINUOUS
10
-11.6719216729
20
35.2602139493
11
-11.6719216729
21
34.4941695062
0
LINE
5
256
100
AcDbEntity
8
0
100
AcDbLine
62
9
6
CONTINUOUS
10
11.2458970827
20
34.4941695062
11
5.4944987441
21
25.1083574651
0
LINE
5
257
100
AcDbEntity
8
0
100
AcDbLine
62
9
6
CONTINUOUS
10
11.9350488405
20
34.5710621916
11
6.6143981916
21
25.8881951762
0
LINE
5
258
100
AcDbEntity
8
0
100
AcDbLine
62
9
6
CONTINUOUS
10
17.2850719556
20
36.5588689402
11
6.6143981916
21
25.8881951762
0
LINE
5
259
100
AcDbEntity
8
0
100
AcDbLine
62
9
6
CONTINUOUS
10
17.9728668592
20
35.8683603283
11
7.3035499494
21
25.1990434184
0
LINE
5
25A
100
AcDbEntity
8
0
100
AcDbLine
62
7
6
CONTINUOUS
10
36.6869877049
20
-10.2985118383
11
39.6869877049
21
-10.2985118383
0
LINE
5
25B
100
AcDbEntity
8
0
100
AcDbLine
62
7
6
CONTINUOUS
10
-37.1130122951
20
-10.2985118383
11
-40.1130122951
21
-10.2985118383
0
LINE
5
25C
100
AcDbEntity
8
0
100
AcDbLine
62
9
6
CONTINUOUS
10
-5.9205233343
20
24.3423130220
11
-5.9205233343
21
25.1083574651
0
LINE
5
25D
100
AcDbEntity
8
0
100
AcDbLine
62
7
6
CONTINUOUS
10
-5.7130122951
20
29.2977260790
11
-5.7130122951
21
30.9046951033
0
LINE
5
25E
100
AcDbEntity
8
0
100
AcDbLine
62
7
6
CONTINUOUS
10
-3.8130122951
20
32.4254588514
11
-3.8130122951
21
32.2387397233
0
LINE
5
25F
100
AcDbEntity
8
0
100
AcDbLine
62
9
6
CONTINUOUS
10
71.5751074896
20
0.1993778727
11
72.0369877049
21
0.1993781515
0
LINE
5
260
100
AcDbEntity
8
0
100
AcDbLine
62
9
6
CONTINUOUS
10
77.4988679203
20
0.1993781515
11
77.0369877049
21
0.1993781515
0
LINE
5
261
100
AcDbEntity
8
0
100
AcDbLine
62
9
6
CONTINUOUS
10
-73.4248925104
20
0.1993781515
11
-72.9630122951
21
0.1993781515
0
LINE
5
262
100
AcDbEntity
8
0
100
AcDbLine
62
9
6
CONTINUOUS
10
72.9988679203
20
0.1993781515
11
72.5369877049
21
0.1993781515
0
LINE
5
263
100
AcDbEntity
8
0
100
AcDbLine
62
9
6
CONTINUOUS
10
-72.0011320797
20
0.1993781515
11
-72.4630122951
21
0.1993781515
0
LINE
5
264
100
AcDbEntity
8
0
100
AcDbLine
62
9
6
CONTINUOUS
10
76.0751074896
20
0.1993781515
11
76.5369877049
21
0.1993781515
0
LINE
5
265
100
AcDbEntity
8
0
100
AcDbLine
62
9
6
CONTINUOUS
10
-76.5011320797
20
0.1993784865
11
-76.9630122951
21
0.1993781515
0
LINE
5
266
100
AcDbEntity
8
0
100
AcDbLine
62
9
6
CONTINUOUS
10
-77.9248925104
20
0.1993776293
11
-77.4630122951
21
0.1993781515
0
LINE
5
267
100
AcDbEntity
8
0
100
AcDbLine
62
9
6
CONTINUOUS
10
-38.1748925104
20
0.9493781515
11
-37.7130122951
21
0.9493781515
0
LINE
5
268
100
AcDbEntity
8
0
100
AcDbLine
62
9
6
CONTINUOUS
10
37.7488679203
20
0.9493781515
11
37.2869877049
21
0.9493781515
0
LINE
5
269
100
AcDbEntity
8
0
100
AcDbLine
62
9
6
CONTINUOUS
10
-23.6748925104
20
0.9493781515
11
-23.2130122951
21
0.9493781515
0
LINE
5
26A
100
AcDbEntity
8
0
100
AcDbLine
62
9
6
CONTINUOUS
10
23.2488679203
20
0.9493781515
11
22.7869877049
21
0.9493781515
0
LINE
5
26B
100
AcDbEntity
8
0
100
AcDbLine
62
9
6
CONTINUOUS
10
21.8251074896
20
0.9493781515
11
22.2869877049
21
0.9493781515
0
LINE
5
26C
100
AcDbEntity
8
0
100
AcDbLine
62
9
6
CONTINUOUS
10
-22.2511320797
20
0.9493781515
11
-22.7130122951
21
0.9493781515
0
LINE
5
26D
100
AcDbEntity
8
0
100
AcDbLine
62
9
6
CONTINUOUS
10
36.3251074896
20
0.9493781515
11
36.7869877049
21
0.9493781515
0
LINE
5
26E
100
AcDbEntity
8
0
100
AcDbLine
62
9
6
CONTINUOUS
10
-36.7511320797
20
0.9493781515
11
-37.2130122951
21
0.9493781515
0
LINE
5
26F
100
AcDbEntity
8
0
100
AcDbLine
62
7
6
CONTINUOUS
10
3.3869877049
20
32.4254588514
11
3.3869877049
21
32.2387397233
0
LINE
5
270
100
AcDbEntity
8
0
100
AcDbLine
62
7
6
CONTINUOUS
10
5.2869877049
20
30.9046951033
11
5.2869877049
21
29.2977260790
0
LINE
5
271
100
AcDbEntity
8
0
100
AcDbLine
62
9
6
CONTINUOUS
10
5.4944987441
20
24.3423130220
11
5.4944987441
21
25.1083574651
0
LINE
5
272
100
AcDbEntity
8
0
100
AcDbLine
62
9
6
CONTINUOUS
10
-76.5011320797
20
2.6993778695
11
-76.9630122951
21
2.6993781515
0
LINE
5
273
100
AcDbEntity
8
0
100
AcDbLine
62
9
6
CONTINUOUS
10
71.5751074896
20
2.6993778735
11
72.0369877049
21
2.6993781515
0
LINE
5
274
100
AcDbEntity
8
0
100
AcDbLine
62
9
6
CONTINUOUS
10
77.4988679203
20
2.6993781515
11
77.0369877049
21
2.6993781515
0
LINE
5
275
100
AcDbEntity
8
0
100
AcDbLine
62
9
6
CONTINUOUS
10
-73.4248925104
20
2.6993781515
11
-72.9630122951
21
2.6993781515
0
LINE
5
276
100
AcDbEntity
8
0
100
AcDbLine
62
9
6
CONTINUOUS
10
72.9988679203
20
2.6993781515
11
72.5369877049
21
2.6993781515
0
LINE
5
277
100
AcDbEntity
8
0
100
AcDbLine
62
9
6
CONTINUOUS
10
-72.0011320797
20
2.6993781515
11
-72.4630122951
21
2.6993781515
0
LINE
5
278
100
AcDbEntity
8
0
100
AcDbLine
62
9
6
CONTINUOUS
10
76.0751074896
20
2.6993781515
11
76.5369877049
21
2.6993781515
0
LINE
5
279
100
AcDbEntity
8
0
100
AcDbLine
62
9
6
CONTINUOUS
10
-77.9248925104
20
2.6993777319
11
-77.4630122951
21
2.6993781515
0
LINE
5
27A
100
AcDbEntity
8
0
100
AcDbLine
62
9
6
CONTINUOUS
10
-38.1748925104
20
3.9493781515
11
-37.7130122951
21
3.9493781515
0
LINE
5
27B
100
AcDbEntity
8
0
100
AcDbLine
62
9
6
CONTINUOUS
10
37.7488679203
20
3.9493781515
11
37.2869877049
21
3.9493781515
0
LINE
5
27C
100
AcDbEntity
8
0
100
AcDbLine
62
9
6
CONTINUOUS
10
-23.6748925104
20
3.9493781515
11
-23.2130122951
21
3.9493781515
0
LINE
5
27D
100
AcDbEntity
8
0
100
AcDbLine
62
9
6
CONTINUOUS
10
23.2488679203
20
3.9493781515
11
22.7869877049
21
3.9493781515
0
LINE
5
27E
100
AcDbEntity
8
0
100
AcDbLine
62
9
6
CONTINUOUS
10
21.8251074896
20
3.9493781515
11
22.2869877049
21
3.9493781515
0
LINE
5
27F
100
AcDbEntity
8
0
100
AcDbLine
62
9
6
CONTINUOUS
10
-22.2511320797
20
3.9493781515
11
-22.7130122951
21
3.9493781515
0
LINE
5
280
100
AcDbEntity
8
0
100
AcDbLine
62
9
6
CONTINUOUS
10
36.3251074896
20
3.9493781515
11
36.7869877049
21
3.9493781515
0
LINE
5
281
100
AcDbEntity
8
0
100
AcDbLine
62
9
6
CONTINUOUS
10
-36.7511320797
20
3.9493781515
11
-37.2130122951
21
3.9493781515
0
LINE
5
282
100
AcDbEntity
8
0
100
AcDbLine
62
9
6
CONTINUOUS
10
-7.0404227818
20
25.8881951762
11
-12.3610734306
21
34.5710621916
0
LINE
5
283
100
AcDbEntity
8
0
100
AcDbLine
62
9
6
CONTINUOUS
10
-5.9205233343
20
25.1083574651
11
-11.6719216729
21
34.4941695062
0
LINE
5
284
100
AcDbEntity
8
0
100
AcDbLine
62
9
6
CONTINUOUS
10
11.2458970827
20
34.4941695062
11
11.2458970827
21
35.2602139493
0
LINE
5
285
100
AcDbEntity
8
0
100
AcDbLine
62
9
6
CONTINUOUS
10
15.1837303445
20
39.1980472112
11
15.1837303445
21
40.1697959195
0
LINE
5
286
100
AcDbEntity
8
0
100
AcDbLine
62
9
6
CONTINUOUS
10
102.5338508879
20
15.1214747684
11
90.1882569769
21
15.1214747684
0
LINE
5
287
100
AcDbEntity
8
0
100
AcDbLine
62
9
6
CONTINUOUS
10
-90.6142815671
20
15.1214747684
11
-102.9598754781
21
15.1214747684
0
LINE
5
288
100
AcDbEntity
8
0
100
AcDbLine
62
7
6
CONTINUOUS
10
-102.7481686810
20
15.4863021836
11
-91.7630122951
21
15.4863021836
0
LINE
5
289
100
AcDbEntity
8
0
100
AcDbLine
62
7
6
CONTINUOUS
10
91.3369877049
20
15.4863021836
11
102.3221440909
21
15.4863021836
0
LINE
5
28A
100
AcDbEntity
8
0
100
AcDbLine
62
9
6
CONTINUOUS
10
90.9403336490
20
15.5977823314
11
90.2186952334
21
15.5977823314
0
LINE
5
28B
100
AcDbEntity
8
0
100
AcDbLine
62
9
6
CONTINUOUS
10
-90.6447198236
20
15.5977823314
11
-91.3663062970
21
15.5977823314
0
LINE
5
28C
100
AcDbEntity
8
0
100
AcDbLine
62
9
6
CONTINUOUS
10
-7.7295745395
20
25.1990434184
11
-18.3988914518
21
35.8683603307
0
LINE
5
28D
100
AcDbEntity
8
0
100
AcDbLine
62
9
6
CONTINUOUS
10
-7.0404227818
20
25.8881951762
11
-17.7110965464
21
36.5588689409
0
LINE
5
28E
100
AcDbEntity
8
0
100
AcDbLine
62
9
6
CONTINUOUS
10
-12.3610734306
20
34.5710621916
11
-17.2928636510
21
39.5028524119
0
LINE
5
28F
100
AcDbEntity
8
0
100
AcDbLine
62
9
6
CONTINUOUS
10
-11.6719216729
20
35.2602139493
11
-15.6097549347
21
39.1980472112
0
LINE
5
290
100
AcDbEntity
8
0
100
AcDbLine
62
9
6
CONTINUOUS
10
17.9728683668
20
35.8683603283
11
17.9728683668
21
36.8214880664
0
LINE
5
291
100
AcDbEntity
8
0
100
AcDbLine
62
7
6
CONTINUOUS
10
21.8251074896
20
3.9493781515
11
21.8251074896
21
0.9493781515
0
LINE
5
292
100
AcDbEntity
8
0
100
AcDbLine
62
7
6
CONTINUOUS
10
22.2869877049
20
3.9493781515
11
22.2869877049
21
0.9493781515
0
LINE
5
293
100
AcDbEntity
8
0
100
AcDbLine
62
7
6
CONTINUOUS
10
22.7869877049
20
0.9493781515
11
22.7869877049
21
3.9493781515
0
LINE
5
294
100
AcDbEntity
8
0
100
AcDbLine
62
7
6
CONTINUOUS
10
23.2488679203
20
0.9493781515
11
23.2488679203
21
3.9493781515
0
LINE
5
295
100
AcDbEntity
8
0
100
AcDbLine
62
9
6
CONTINUOUS
10
102.0872427583
20
22.7437045295
11
103.0844534037
21
22.7762322359
0
LINE
5
296
100
AcDbEntity
8
0
100
AcDbLine
62
9
6
CONTINUOUS
10
104.4050705564
20
22.8912068408
11
104.1792857829
21
22.8858159127
0
LINE
5
297
100
AcDbEntity
8
0
100
AcDbLine
62
7
6
CONTINUOUS
10
-73.3117430231
20
20.1006474235
11
72.8857184329
21
20.1006474235
0
LINE
5
298
100
AcDbEntity
8
0
100
AcDbLine
62
7
6
CONTINUOUS
10
72.7369877049
20
20.2493781515
11
-73.1630122951
21
20.2493781515
0
LINE
5
299
100
AcDbEntity
8
0
100
AcDbLine
62
7
6
CONTINUOUS
10
-67.4630122951
20
20.3868389949
11
-58.4630122951
21
20.3868389949
0
LINE
5
29A
100
AcDbEntity
8
0
100
AcDbLine
62
7
6
CONTINUOUS
10
58.0369877049
20
20.3868389949
11
67.0369877049
21
20.3868389949
0
LINE
5
29B
100
AcDbEntity
8
0
100
AcDbLine
62
7
6
CONTINUOUS
10
71.7369877049
20
20.4493781515
11
-72.1630122951
21
20.4493781515
0
LINE
5
29C
100
AcDbEntity
8
0
100
AcDbLine
62
7
6
CONTINUOUS
10
-67.4616976772
20
23.9493781515
11
-58.4643269130
21
23.9493781515
0
LINE
5
29D
100
AcDbEntity
8
0
100
AcDbLine
62
7
6
CONTINUOUS
10
58.0383023228
20
23.9493781515
11
67.0356730870
21
23.9493781515
0
LINE
5
29E
100
AcDbEntity
8
0
100
AcDbLine
62
9
6
CONTINUOUS
10
-90.7630122951
20
24.2493781515
11
-90.6142815671
21
24.2493781515
0
LINE
5
29F
100
AcDbEntity
8
0
100
AcDbLine
62
9
6
CONTINUOUS
10
90.3369877049
20
24.2493781515
11
90.1882569769
21
24.2493781515
0
LINE
5
2A0
100
AcDbEntity
8
0
100
AcDbLine
62
9
6
CONTINUOUS
10
-73.3117430231
20
24.2493781515
11
-73.1630122951
21
24.2493781515
0
LINE
5
2A1
100
AcDbEntity
8
0
100
AcDbLine
62
9
6
CONTINUOUS
10
72.8857184329
20
24.2493781515
11
72.7369877049
21
24.2493781515
0
LINE
5
2A2
100
AcDbEntity
8
0
100
AcDbLine
62
7
6
CONTINUOUS
10
66.9044400917
20
24.2493781515
11
58.1695353181
21
24.2493781515
0
LINE
5
2A3
100
AcDbEntity
8
0
100
AcDbLine
62
7
6
CONTINUOUS
10
-58.5955599083
20
24.2493781515
11
-67.3304646819
21
24.2493781515
0
LINE
5
2A4
100
AcDbEntity
8
0
100
AcDbLine
62
9
6
CONTINUOUS
10
5.4944987441
20
24.3423130220
11
-5.9205233343
21
24.3423130220
0
LINE
5
2A5
100
AcDbEntity
8
0
100
AcDbLine
62
9
6
CONTINUOUS
10
-104.8311232974
20
22.8912075125
11
-104.6053103747
21
22.8858158503
0
LINE
5
2A6
100
AcDbEntity
8
0
100
AcDbLine
62
9
6
CONTINUOUS
10
-102.5132673484
20
22.7437045295
11
-103.5104779917
21
22.7762322358
0
LINE
5
2A7
100
AcDbEntity
8
0
100
AcDbLine
62
9
6
CONTINUOUS
10
7.3035499494
20
25.1990434184
11
6.6143981916
21
25.8881951762
0
LINE
5
2A8
100
AcDbEntity
8
0
100
AcDbLine
62
7
6
CONTINUOUS
10
67.0356730870
20
27.0806111468
11
66.9044400917
21
26.9493781515
0
LINE
5
2A9
100
AcDbEntity
8
0
100
AcDbLine
62
9
6
CONTINUOUS
10
101.7066337205
20
34.8722350649
11
102.7035133623
21
34.9024161657
0
LINE
5
2AA
100
AcDbEntity
8
0
100
AcDbLine
62
9
6
CONTINUOUS
10
5.4944987441
20
25.1083574651
11
-5.9205233343
21
25.1083574651
0
LINE
5
2AB
100
AcDbEntity
8
0
100
AcDbLine
62
7
6
CONTINUOUS
10
66.9044400917
20
26.9493781515
11
58.1695353181
21
26.9493781515
0
LINE
5
2AC
100
AcDbEntity
8
0
100
AcDbLine
62
7
6
CONTINUOUS
10
-58.5955599083
20
26.9493781515
11
-67.3304646819
21
26.9493781515
0
LINE
5
2AD
100
AcDbEntity
8
0
100
AcDbLine
62
7
6
CONTINUOUS
10
67.0356730870
20
27.0806111468
11
58.0383023228
21
27.0806111468
0
LINE
5
2AE
100
AcDbEntity
8
0
100
AcDbLine
62
7
6
CONTINUOUS
10
-58.4643269130
20
27.0806111468
11
-67.4616976772
21
27.0806111468
0
LINE
5
2AF
100
AcDbEntity
8
0
100
AcDbLine
62
9
6
CONTINUOUS
10
-102.1326583107
20
34.8722350695
11
-103.1295615197
21
34.9024169408
0
LINE
5
2B0
100
AcDbEntity
8
0
100
AcDbLine
62
7
6
CONTINUOUS
10
39.6869877049
20
-22.9960221240
11
39.6520775751
21
-22.2680816555
0
LINE
5
2B1
100
AcDbEntity
8
0
100
AcDbLine
62
7
6
CONTINUOUS
10
36.8604043434
20
-16.2680816555
11
36.6869877049
21
-10.2985118383
0
LINE
5
2B2
100
AcDbEntity
8
0
100
AcDbLine
62
7
6
CONTINUOUS
10
36.3251074896
20
3.9493781515
11
36.3251074896
21
0.9493781515
0
LINE
5
2B3
100
AcDbEntity
8
0
100
AcDbLine
62
7
6
CONTINUOUS
10
36.6869877049
20
-22.9960221240
11
36.6869877049
21
-10.2985118383
0
LINE
5
2B4
100
AcDbEntity
8
0
100
AcDbLine
62
7
6
CONTINUOUS
10
36.7218978348
20
-22.2680816555
11
36.7218978348
21
-11.5002330763
0
LINE
5
2B5
100
AcDbEntity
8
0
100
AcDbLine
62
7
6
CONTINUOUS
10
36.7869877049
20
3.9493781515
11
36.7869877049
21
0.9493781515
0
LINE
5
2B6
100
AcDbEntity
8
0
100
AcDbLine
62
7
6
CONTINUOUS
10
37.2869877049
20
0.9493781515
11
37.2869877049
21
3.9493781515
0
LINE
5
2B7
100
AcDbEntity
8
0
100
AcDbLine
62
7
6
CONTINUOUS
10
37.7488679203
20
0.9493781515
11
37.7488679203
21
3.9493781515
0
LINE
5
2B8
100
AcDbEntity
8
0
100
AcDbLine
62
7
6
CONTINUOUS
10
36.6869877049
20
-22.9960221240
11
36.7218978348
21
-22.2680816555
0
LINE
5
2B9
100
AcDbEntity
8
0
100
AcDbLine
62
9
6
CONTINUOUS
10
104.0272227083
20
39.8930176285
11
103.7737509487
21
39.8877951335
0
LINE
5
2BA
100
AcDbEntity
8
0
100
AcDbLine
62
9
6
CONTINUOUS
10
-11.6719216729
20
34.4941695062
11
11.2458970827
21
34.4941695062
0
LINE
5
2BB
100
AcDbEntity
8
0
100
AcDbLine
62
9
6
CONTINUOUS
10
-11.6719216729
20
35.2602139493
11
11.2458970827
21
35.2602139493
0
LINE
5
2BC
100
AcDbEntity
8
0
100
AcDbLine
62
9
6
CONTINUOUS
10
100.7242527794
20
35.8683592956
11
17.9728668592
21
35.8683603283
0
LINE
5
2BD
100
AcDbEntity
8
0
100
AcDbLine
62
9
6
CONTINUOUS
10
-18.3988914518
20
35.8683603307
11
-101.1502773697
21
35.8683592976
0
LINE
5
2BE
100
AcDbEntity
8
0
100
AcDbLine
62
9
6
CONTINUOUS
10
100.7242698611
20
36.8214880140
11
17.9742300198
21
36.8214880664
0
LINE
5
2BF
100
AcDbEntity
8
0
100
AcDbLine
62
9
6
CONTINUOUS
10
-18.4002546107
20
36.8214880667
11
-101.1502960139
21
36.8214880145
0
LINE
5
2C0
100
AcDbEntity
8
0
100
AcDbLine
62
9
6
CONTINUOUS
10
15.1837303445
20
39.1980472112
11
-15.6097549347
21
39.1980472112
0
LINE
5
2C1
100
AcDbEntity
8
0
100
AcDbLine
62
9
6
CONTINUOUS
10
15.1837303445
20
40.1697959195
11
-15.6097549347
21
40.1697959195
0
LINE
5
2C2
100
AcDbEntity
8
0
100
AcDbLine
62
9
6
CONTINUOUS
10
-104.4532459830
20
39.8930176825
11
-104.1997755142
21
39.8877952673
0
LINE
5
2C3
100
AcDbEntity
8
0
100
AcDbLine
62
9
6
CONTINUOUS
10
11.2458970827
20
35.2602139493
11
11.9350488405
21
34.5710621916
0
LINE
5
2C4
100
AcDbEntity
8
0
100
AcDbLine
62
9
6
CONTINUOUS
10
17.9728683668
20
35.8683618358
11
17.2837166090
21
36.5575135936
0
LINE
5
2C5
100
AcDbEntity
8
0
100
AcDbLine
62
7
6
CONTINUOUS
10
39.6869877049
20
-22.9960221240
11
39.6869877049
21
-10.2985118383
0
LINE
5
2C6
100
AcDbEntity
8
0
100
AcDbLine
62
7
6
CONTINUOUS
10
39.6869877049
20
-10.2985118383
11
39.5135710664
21
-16.2680816555
0
LINE
5
2C7
100
AcDbEntity
8
0
100
AcDbLine
62
7
6
CONTINUOUS
10
101.8245516657
20
41.5675203175
11
-102.2505762558
21
41.5675203175
0
LINE
5
2C8
100
AcDbEntity
8
0
100
AcDbLine
62
9
6
CONTINUOUS
10
-102.4696292354
20
41.8534594322
11
102.0436047059
21
41.8534594365
0
LINE
5
2C9
100
AcDbEntity
8
0
100
AcDbLine
62
7
6
CONTINUOUS
10
103.8375912683
20
45.4493781515
11
-104.2635691842
21
45.4493781515
0
LINE
5
2CA
100
AcDbEntity
8
0
100
AcDbLine
62
7
6
CONTINUOUS
10
58.0369877049
20
20.4493781515
11
58.0369877049
21
20.2493781515
0
LINE
5
2CB
100
AcDbEntity
8
0
100
AcDbLine
62
7
6
CONTINUOUS
10
58.0383023228
20
27.0806111468
11
58.0383023228
21
23.9493781515
0
LINE
5
2CC
100
AcDbEntity
8
0
100
AcDbLine
62
7
6
CONTINUOUS
10
58.1695353181
20
26.9493781515
11
58.1695353181
21
23.9493781515
0
LINE
5
2CD
100
AcDbEntity
8
0
100
AcDbLine
62
7
6
CONTINUOUS
10
58.0383023228
20
27.0806111468
11
58.1695353181
21
26.9493781515
0
LINE
5
2CE
100
AcDbEntity
8
0
100
AcDbLine
62
7
6
CONTINUOUS
10
66.9044400917
20
23.9493781515
11
66.9044400917
21
26.9493781515
0
LINE
5
2CF
100
AcDbEntity
8
0
100
AcDbLine
62
7
6
CONTINUOUS
10
67.0356730870
20
23.9493781515
11
67.0356730870
21
27.0806111468
0
LINE
5
2D0
100
AcDbEntity
8
0
100
AcDbLine
62
7
6
CONTINUOUS
10
67.0369877049
20
20.2493781515
11
67.0369877049
21
20.4493781515
0
LINE
5
2D1
100
AcDbEntity
8
0
100
AcDbLine
62
7
6
CONTINUOUS
10
72.8857184329
20
20.1006474235
11
72.7369877049
21
20.2493781515
0
LINE
5
2D2
100
AcDbEntity
8
0
100
AcDbLine
62
7
6
CONTINUOUS
10
71.5751074896
20
2.6993778735
11
71.5751074896
21
0.1993778727
0
LINE
5
2D3
100
AcDbEntity
8
0
100
AcDbLine
62
7
6
CONTINUOUS
10
72.0369877049
20
2.6993781515
11
72.0369877049
21
0.1993781515
0
LINE
5
2D4
100
AcDbEntity
8
0
100
AcDbLine
62
7
6
CONTINUOUS
10
72.5369877049
20
24.2493781515
11
72.5369877049
21
21.2493781515
0
LINE
5
2D5
100
AcDbEntity
8
0
100
AcDbLine
62
7
6
CONTINUOUS
10
72.5369877049
20
0.1993781515
11
72.5369877049
21
2.6993781515
0
LINE
5
2D6
100
AcDbEntity
8
0
100
AcDbLine
62
7
6
CONTINUOUS
10
72.7369877049
20
24.2493781515
11
72.7369877049
21
20.2493781515
0
LINE
5
2D7
100
AcDbEntity
8
0
100
AcDbLine
62
7
6
CONTINUOUS
10
72.8857184329
20
24.2493781515
11
72.8857184329
21
20.1006474235
0
LINE
5
2D8
100
AcDbEntity
8
0
100
AcDbLine
62
7
6
CONTINUOUS
10
72.9988679203
20
0.1993781515
11
72.9988679203
21
2.6993781515
0
LINE
5
2D9
100
AcDbEntity
8
0
100
AcDbLine
62
7
6
CONTINUOUS
10
76.0751074896
20
2.6993781515
11
76.0751074896
21
0.1993781515
0
LINE
5
2DA
100
AcDbEntity
8
0
100
AcDbLine
62
7
6
CONTINUOUS
10
76.5369877049
20
2.6993781515
11
76.5369877049
21
0.1993781515
0
LINE
5
2DB
100
AcDbEntity
8
0
100
AcDbLine
62
7
6
CONTINUOUS
10
77.0369877049
20
0.1993781515
11
77.0369877049
21
2.6993781515
0
LINE
5
2DC
100
AcDbEntity
8
0
100
AcDbLine
62
7
6
CONTINUOUS
10
77.4988679203
20
0.1993781515
11
77.4988679203
21
2.6993781515
0
LINE
5
2DD
100
AcDbEntity
8
0
100
AcDbLine
62
7
6
CONTINUOUS
10
90.1882569769
20
15.1214747684
11
90.1882569769
21
24.2493781515
0
LINE
5
2DE
100
AcDbEntity
8
0
100
AcDbLine
62
7
6
CONTINUOUS
10
90.3369877049
20
26.1164054045
11
90.3369877049
21
24.2493781515
0
LINE
5
2DF
100
AcDbEntity
8
0
100
AcDbLine
62
7
6
CONTINUOUS
10
90.5369877049
20
16.3264498978
11
90.5369877049
21
24.2493781515
0
LINE
5
2E0
100
AcDbEntity
8
0
100
AcDbLine
62
7
6
CONTINUOUS
10
102.0205566430
20
-43.0194264238
11
102.0174777790
21
-43.0213437447
0
LINE
5
2E1
100
AcDbEntity
8
0
100
AcDbLine
62
9
6
CONTINUOUS
10
103.7516626583
20
-40.1183717160
11
103.7515112829
21
-40.0919133793
0
LINE
5
2E2
100
AcDbEntity
8
0
100
AcDbLine
62
9
6
CONTINUOUS
10
100.7242527794
20
35.8683592956
11
100.7242528000
21
36.8214880140
0
LINE
5
2E3
100
AcDbEntity
8
0
100
AcDbLine
62
9
6
CONTINUOUS
10
100.9146291047
20
-43.3238534248
11
100.9146291279
21
-43.3189478236
0
LINE
5
2E4
100
AcDbEntity
8
0
100
AcDbLine
62
9
6
CONTINUOUS
10
102.0436047062
20
41.8534594365
11
102.0436047124
21
41.5544122641
0
LINE
5
2E5
100
AcDbEntity
8
0
100
AcDbLine
62
9
6
CONTINUOUS
10
102.5338508888
20
15.1214747684
11
102.5338508887
21
15.4941162635
0
LINE
5
2E6
100
AcDbEntity
8
0
100
AcDbLine
62
9
6
CONTINUOUS
10
102.7661849133
20
-25.7112709837
11
102.7661849099
21
-26.4924557440
0
LINE
5
2E7
100
AcDbEntity
8
0
100
AcDbLine
62
7
6
CONTINUOUS
10
105.8369914472
20
43.4522601367
11
105.8369877049
21
-38.1998942990
0
CIRCLE
5
2E8
100
AcDbEntity
8
0
100
AcDbCircle
62
7
6
CONTINUOUS
10
81.5369877049
20
24.2493781515
40
6.0000000000
0
CIRCLE
5
2E9
100
AcDbEntity
8
0
100
AcDbCircle
62
7
6
CONTINUOUS
10
81.5369877049
20
24.2493781515
40
4.0481345110
0
CIRCLE
5
2EA
100
AcDbEntity
8
0
100
AcDbCircle
62
7
6
CONTINUOUS
10
89.5369877049
20
-17.5506218485
40
6.0000000000
0
CIRCLE
5
2EB
100
AcDbEntity
8
0
100
AcDbCircle
62
7
6
CONTINUOUS
10
89.5369877049
20
-17.5506218485
40
4.0481345110
0
CIRCLE
5
2EC
100
AcDbEntity
8
0
100
AcDbCircle
62
7
6
CONTINUOUS
10
-89.9630122951
20
-17.5506218485
40
6.0000000000
0
CIRCLE
5
2ED
100
AcDbEntity
8
0
100
AcDbCircle
62
7
6
CONTINUOUS
10
-89.9630122951
20
-17.5506218485
40
4.0481345110
0
CIRCLE
5
2EE
100
AcDbEntity
8
0
100
AcDbCircle
62
7
6
CONTINUOUS
10
-81.9630122951
20
24.2493781515
40
6.0000000000
0
CIRCLE
5
2EF
100
AcDbEntity
8
0
100
AcDbCircle
62
7
6
CONTINUOUS
10
-81.9630122951
20
24.2493781515
40
4.0481345110
0
ARC
5
2F0
100
AcDbEntity
8
0
100
AcDbCircle
62
7
6
CONTINUOUS
10
81.5369877049
20
24.2493781515
40
9.0000000000
100
AcDbArc
50
0.0000000000
51
180.0000000000
0
ARC
5
2F1
100
AcDbEntity
8
0
100
AcDbCircle
62
7
6
CONTINUOUS
10
71.7369877049
20
21.2493781515
40
0.8000000000
100
AcDbArc
50
270.0000000000
51
360.0000000000
0
ARC
5
2F2
100
AcDbEntity
8
0
100
AcDbCircle
62
7
6
CONTINUOUS
10
-72.1630122951
20
21.2493781515
40
0.8000000000
100
AcDbArc
50
180.0000000000
51
270.0000000000
0
ARC
5
2F3
100
AcDbEntity
8
0
100
AcDbCircle
62
7
6
CONTINUOUS
10
-81.9630122951
20
24.2493781515
40
9.0000000000
100
AcDbArc
50
0.0000000000
51
180.0000000000
0
ARC
5
2F4
100
AcDbEntity
8
0
100
AcDbCircle
62
7
6
CONTINUOUS
10
81.5369877049
20
24.2493781515
40
8.8000000000
100
AcDbArc
50
0.0000000000
51
180.0000000000
0
CIRCLE
5
2F5
100
AcDbEntity
8
0
100
AcDbCircle
62
7
6
CONTINUOUS
10
-89.9630122951
20
-17.5506218485
40
6.8660254038
0
CIRCLE
5
2F6
100
AcDbEntity
8
0
100
AcDbCircle
62
7
6
CONTINUOUS
10
89.5369877049
20
-17.5506218485
40
6.8660254038
0
CIRCLE
5
2F7
100
AcDbEntity
8
0
100
AcDbCircle
62
7
6
CONTINUOUS
10
-81.9630122951
20
24.2493781515
40
6.8660254038
0
ARC
5
2F8
100
AcDbEntity
8
0
100
AcDbCircle
62
7
6
CONTINUOUS
10
-81.9630122951
20
24.2493781515
40
8.8000000000
100
AcDbArc
50
0.0000000000
51
180.0000000000
0
CIRCLE
5
2F9
100
AcDbEntity
8
0
100
AcDbCircle
62
7
6
CONTINUOUS
10
81.5369877049
20
24.2493781515
40
6.8660254038
0
ARC
5
2FA
100
AcDbEntity
8
0
100
AcDbCircle
62
7
6
CONTINUOUS
10
74.5369877049
20
0.1993781515
40
2.9618802154
100
AcDbArc
50
180.0000053944
51
360.0000000000
0
ARC
5
2FB
100
AcDbEntity
8
0
100
AcDbCircle
62
7
6
CONTINUOUS
10
74.5369877049
20
2.6993781515
40
2.9618802154
100
AcDbArc
50
0.0000000000
51
180.0000053774
0
ARC
5
2FC
100
AcDbEntity
8
0
100
AcDbCircle
62
7
6
CONTINUOUS
10
74.5369877049
20
2.6993781515
40
1.5381197846
100
AcDbArc
50
0.0000000000
51
180.0000000000
0
ARC
5
2FD
100
AcDbEntity
8
0
100
AcDbCircle
62
7
6
CONTINUOUS
10
74.5369877049
20
0.1993781515
40
1.5381197846
100
AcDbArc
50
180.0000000000
51
360.0000000000
0
ARC
5
2FE
100
AcDbEntity
8
0
100
AcDbCircle
62
7
6
CONTINUOUS
10
-74.9630122951
20
0.1993781515
40
2.9618802154
100
AcDbArc
50
180.0000101023
51
360.0000000000
0
ARC
5
2FF
100
AcDbEntity
8
0
100
AcDbCircle
62
7
6
CONTINUOUS
10
-74.9630122951
20
2.6993781515
40
2.9618802154
100
AcDbArc
50
0.0000000000
51
180.0000081174
0
ARC
5
300
100
AcDbEntity
8
0
100
AcDbCircle
62
7
6
CONTINUOUS
10
-74.9630122951
20
2.6993781515
40
1.5381197846
100
AcDbArc
50
0.0000000000
51
180.0000105064
0
ARC
5
301
100
AcDbEntity
8
0
100
AcDbCircle
62
7
6
CONTINUOUS
10
-74.9630122951
20
0.1993781515
40
1.5381197846
100
AcDbArc
50
179.9999875201
51
360.0000000000
0
ARC
5
302
100
AcDbEntity
8
0
100
AcDbCircle
62
7
6
CONTINUOUS
10
29.7869877049
20
3.9493781515
40
6.5381197846
100
AcDbArc
50
0.0000000000
51
180.0000000000
0
ARC
5
303
100
AcDbEntity
8
0
100
AcDbCircle
62
7
6
CONTINUOUS
10
29.7869877049
20
0.9493781515
40
6.5381197846
100
AcDbArc
50
180.0000000000
51
360.0000000000
0
ARC
5
304
100
AcDbEntity
8
0
100
AcDbCircle
62
7
6
CONTINUOUS
10
29.7869877049
20
0.9493781515
40
7.9618802154
100
AcDbArc
50
180.0000000000
51
360.0000000000
0
ARC
5
305
100
AcDbEntity
8
0
100
AcDbCircle
62
7
6
CONTINUOUS
10
29.7869877049
20
3.9493781515
40
7.9618802154
100
AcDbArc
50
0.0000000000
51
180.0000000000
0
ARC
5
306
100
AcDbEntity
8
0
100
AcDbCircle
62
7
6
CONTINUOUS
10
-30.2130122951
20
3.9493781515
40
6.5381197846
100
AcDbArc
50
0.0000000000
51
180.0000000000
0
ARC
5
307
100
AcDbEntity
8
0
100
AcDbCircle
62
7
6
CONTINUOUS
10
-30.2130122951
20
0.9493781515
40
6.5381197846
100
AcDbArc
50
180.0000000000
51
360.0000000000
0
ARC
5
308
100
AcDbEntity
8
0
100
AcDbCircle
62
7
6
CONTINUOUS
10
-30.2130122951
20
0.9493781515
40
7.9618802154
100
AcDbArc
50
180.0000000000
51
360.0000000000
0
ARC
5
309
100
AcDbEntity
8
0
100
AcDbCircle
62
7
6
CONTINUOUS
10
-30.2130122951
20
3.9493781515
40
7.5000000000
100
AcDbArc
50
0.0000000000
51
180.0000000000
0
ARC
5
30A
100
AcDbEntity
8
0
100
AcDbCircle
62
7
6
CONTINUOUS
10
-30.2130122951
20
0.9493781515
40
7.5000000000
100
AcDbArc
50
180.0000000000
51
360.0000000000
0
ARC
5
30B
100
AcDbEntity
8
0
100
AcDbCircle
62
7
6
CONTINUOUS
10
-30.2130122951
20
3.9493781515
40
7.0000000000
100
AcDbArc
50
0.0000000000
51
180.0000000000
0
ARC
5
30C
100
AcDbEntity
8
0
100
AcDbCircle
62
7
6
CONTINUOUS
10
-30.2130122951
20
0.9493781515
40
7.0000000000
100
AcDbArc
50
180.0000000000
51
360.0000000000
0
ARC
5
30D
100
AcDbEntity
8
0
100
AcDbCircle
62
7
6
CONTINUOUS
10
-30.2130122951
20
3.9493781515
40
7.9618802154
100
AcDbArc
50
0.0000000000
51
180.0000000000
0
ARC
5
30E
100
AcDbEntity
8
0
100
AcDbCircle
62
7
6
CONTINUOUS
10
29.7869877049
20
3.9493781515
40
7.5000000000
100
AcDbArc
50
0.0000000000
51
180.0000000000
0
ARC
5
30F
100
AcDbEntity
8
0
100
AcDbCircle
62
7
6
CONTINUOUS
10
29.7869877049
20
0.9493781515
40
7.5000000000
100
AcDbArc
50
180.0000000000
51
360.0000000000
0
ARC
5
310
100
AcDbEntity
8
0
100
AcDbCircle
62
7
6
CONTINUOUS
10
29.7869877049
20
3.9493781515
40
7.0000000000
100
AcDbArc
50
0.0000000000
51
180.0000000000
0
ARC
5
311
100
AcDbEntity
8
0
100
AcDbCircle
62
7
6
CONTINUOUS
10
29.7869877049
20
0.9493781515
40
7.0000000000
100
AcDbArc
50
180.0000000000
51
360.0000000000
0
ARC
5
312
100
AcDbEntity
8
0
100
AcDbCircle
62
7
6
CONTINUOUS
10
-74.9630122951
20
2.6993781515
40
2.0000000000
100
AcDbArc
50
0.0000000000
51
180.0000000000
0
ARC
5
313
100
AcDbEntity
8
0
100
AcDbCircle
62
7
6
CONTINUOUS
10
-74.9630122951
20
0.1993781515
40
2.0000000000
100
AcDbArc
50
180.0000000000
51
360.0000000000
0
ARC
5
314
100
AcDbEntity
8
0
100
AcDbCircle
62
7
6
CONTINUOUS
10
-74.9630122951
20
2.6993781515
40
2.5000000000
100
AcDbArc
50
0.0000000000
51
180.0000000000
0
ARC
5
315
100
AcDbEntity
8
0
100
AcDbCircle
62
7
6
CONTINUOUS
10
-74.9630122951
20
0.1993781515
40
2.5000000000
100
AcDbArc
50
180.0000000000
51
360.0000000000
0
ARC
5
316
100
AcDbEntity
8
0
100
AcDbCircle
62
7
6
CONTINUOUS
10
74.5369877049
20
2.6993781515
40
2.0000000000
100
AcDbArc
50
0.0000000000
51
180.0000000000
0
ARC
5
317
100
AcDbEntity
8
0
100
AcDbCircle
62
7
6
CONTINUOUS
10
74.5369877049
20
0.1993781515
40
2.0000000000
100
AcDbArc
50
180.0000000000
51
360.0000000000
0
ARC
5
318
100
AcDbEntity
8
0
100
AcDbCircle
62
7
6
CONTINUOUS
10
74.5369877049
20
2.6993781515
40
2.5000000000
100
AcDbArc
50
0.0000000000
51
180.0000000000
0
ARC
5
319
100
AcDbEntity
8
0
100
AcDbCircle
62
7
6
CONTINUOUS
10
74.5369877049
20
0.1993781515
40
2.5000000000
100
AcDbArc
50
180.0000000000
51
360.0000000000
0
ARC
5
31A
100
AcDbEntity
8
0
100
AcDbCircle
62
7
6
CONTINUOUS
10
-81.9630122951
20
24.2493781515
40
8.6512692720
100
AcDbArc
50
0.0000000000
51
180.0000000000
0
ARC
5
31B
100
AcDbEntity
8
0
100
AcDbCircle
62
7
6
CONTINUOUS
10
81.5369877049
20
24.2493781515
40
8.6512692720
100
AcDbArc
50
0.0000000000
51
180.0000000000
0
SPLINE
5
31C
100
AcDbEntity
8
0
100
AcDbSpline
62
7
6
CONTINUOUS
70
0
71
3
72
11
73
7
74
5
42
0.0000001000
43
0.0000001000
44
0.0000000001
12
0.0000000000
22
-1.2800843378
32
0.0000000000
13
1.2800843378
23
0.0000000000
33
0.0000000000
40
0.0000000000
40
0.0000000000
40
0.0000000000
40
0.0000000000
40
0.2593770769
40
0.5134213242
40
0.7605947378
40
1.0000000000
40
1.0000000000
40
1.0000000000
40
1.0000000000
10
90.5369877049
20
16.3264498978
30
0.0000000000
10
90.5369877049
20
16.2157750532
30
0.0000000000
10
90.5790399489
20
15.9943895602
30
0.0000000000
10
90.7587599786
20
15.7146754181
30
0.0000000000
10
91.0249048610
20
15.5293681318
30
0.0000000000
10
91.2348347294
20
15.4863021836
30
0.0000000000
10
91.3369877049
20
15.4863021836
30
0.0000000000
11
90.5369877049
21
16.3264498978
31
0.0000000000
11
90.5997063940
21
16.0004028812
31
0.0000000000
11
90.7762296075
21
15.7272850775
31
0.0000000000
11
91.0367477190
21
15.5477271335
31
0.0000000000
11
91.3369877049
21
15.4863021836
31
0.0000000000
0
SPLINE
5
31D
100
AcDbEntity
8
0
100
AcDbSpline
62
7
6
CONTINUOUS
70
0
71
3
72
11
73
7
74
5
42
0.0000001000
43
0.0000001000
44
0.0000000001
12
1.2800837708
22
0.0000000000
32
0.0000000000
13
0.0000000000
23
1.2800837708
33
0.0000000000
40
0.0000000000
40
0.0000000000
40
0.0000000000
40
0.0000000000
40
0.2398427783
40
0.4874144295
40
0.7412931667
40
1.0000000000
40
1.0000000000
40
1.0000000000
40
1.0000000000
10
-91.7630122951
20
15.4863021836
30
0.0000000000
10
-91.6606726791
20
15.4863021836
30
0.0000000000
10
-91.4503742572
20
15.5295257654
30
0.0000000000
10
-91.1841639041
20
15.7152983763
30
0.0000000000
10
-91.0048821073
20
15.9950504213
30
0.0000000000
10
-90.9630122951
20
16.2160610915
30
0.0000000000
10
-90.9630122951
20
16.3264498978
30
0.0000000000
11
-91.7630122951
21
15.4863021836
31
0.0000000000
11
-91.4622466001
21
15.5479509450
31
0.0000000000
11
-91.2014957721
21
15.7280689852
31
0.0000000000
11
-91.0254060544
21
16.0012142667
31
0.0000000000
11
-90.9630122951
21
16.3264498978
31
0.0000000000
0
SPLINE
5
31E
100
AcDbEntity
8
0
100
AcDbSpline
62
7
6
CONTINUOUS
70
0
71
3
72
12
73
8
74
6
42
0.0000001000
43
0.0000001000
44
0.0000000001
12
3.0856568081
22
-0.0000093109
32
0.0000000000
13
0.0644619545
23
-3.0849834025
33
0.0000000000
40
0.0000000000
40
0.0000000000
40
0.0000000000
40
0.0000000000
40
0.1968739725
40
0.3956916654
40
0.5945221250
40
0.7970348172
40
1.0000000000
40
1.0000000000
40
1.0000000000
40
1.0000000000
10
101.8245516657
20
41.5675203175
30
0.0000000000
10
102.0270468368
20
41.5675197065
30
0.0000000000
10
102.4368768769
20
41.5035326063
30
0.0000000000
10
102.9909549997
20
41.2225405991
30
0.0000000000
10
103.4361745109
20
40.7804303195
30
0.0000000000
10
103.7270492880
20
40.2202731789
30
0.0000000000
10
103.7995030039
20
39.8018204629
30
0.0000000000
10
103.8038641814
20
39.5931057228
30
0.0000000000
11
101.8245516657
21
41.5675203175
31
0.0000000000
11
102.4247001999
21
41.4733906938
31
0.0000000000
11
102.9720422497
21
41.1963017591
31
0.0000000000
11
103.4077829815
21
40.7643990530
31
0.0000000000
11
103.6962206744
21
40.2100665310
31
0.0000000000
11
103.8038641814
21
39.5931057228
31
0.0000000000
0
SPLINE
5
31F
100
AcDbEntity
8
0
100
AcDbSpline
62
7
6
CONTINUOUS
70
0
71
3
72
12
73
8
74
6
42
0.0000001000
43
0.0000001000
44
0.0000000001
12
0.0644617152
22
3.0849834008
32
0.0000000000
13
3.0856568014
23
0.0000112904
33
0.0000000000
40
0.0000000000
40
0.0000000000
40
0.0000000000
40
0.0000000000
40
0.2029651830
40
0.4054778752
40
0.6043083348
40
0.8031260276
40
1.0000000000
40
1.0000000000
40
1.0000000000
40
1.0000000000
10
-104.2298887715
20
39.5931057228
30
0.0000000000
10
-104.2255276103
20
39.8018204630
30
0.0000000000
10
-104.1530738678
20
40.2202731762
30
0.0000000000
10
-103.8621990995
20
40.7804303205
30
0.0000000000
10
-103.4169795857
20
41.2225405781
30
0.0000000000
10
-102.8629014638
20
41.5035326563
30
0.0000000000
10
-102.4530714265
20
41.5675195766
30
0.0000000000
10
-102.2505762558
20
41.5675203175
30
0.0000000000
11
-104.2298887715
21
39.5931057228
31
0.0000000000
11
-104.1222452622
21
40.2100665297
31
0.0000000000
11
-103.8338075682
21
40.7643990496
31
0.0000000000
11
-103.3980668360
21
41.1963017539
31
0.0000000000
11
-102.8507247874
21
41.4733906866
31
0.0000000000
11
-102.2505762558
21
41.5675203175
31
0.0000000000
0
SPLINE
5
320
100
AcDbEntity
8
0
100
AcDbSpline
62
7
6
CONTINUOUS
70
0
71
3
72
10
73
6
74
4
42
0.0000001000
43
0.0000001000
44
0.0000000001
12
0.4029142533
22
16.7131850667
32
0.0000000000
13
0.3492605496
23
16.7143923622
33
0.0000000000
40
0.0000000000
40
0.0000000000
40
0.0000000000
40
0.0000000000
40
0.3209465546
40
0.6542792813
40
1.0000000000
40
1.0000000000
40
1.0000000000
40
1.0000000000
10
-104.6054666370
20
22.8792904103
30
0.0000000000
10
-104.5623619899
20
24.6673034646
30
0.0000000000
10
-104.4764646759
20
28.3123816231
30
0.0000000000
10
-104.3511621984
20
33.8836540293
30
0.0000000000
10
-104.2701376409
20
37.6669351429
30
0.0000000000
10
-104.2298887715
20
39.5931057228
30
0.0000000000
11
-104.6054666370
21
22.8792904103
31
0.0000000000
11
-104.4790327222
21
28.2433982300
31
0.0000000000
11
-104.3536933565
21
33.8146586915
31
0.0000000000
11
-104.2298887715
21
39.5931057228
31
0.0000000000
0
SPLINE
5
321
100
AcDbEntity
8
0
100
AcDbSpline
62
7
6
CONTINUOUS
70
0
71
3
72
8
73
4
74
2
42
0.0000001000
43
0.0000001000
44
0.0000000001
12
0.0000000000
22
-0.9340060301
32
0.0000000000
13
-0.3599732940
23
-0.8687483122
33
0.0000000000
40
0.0000000000
40
0.0000000000
40
0.0000000000
40
0.0000000000
40
1.0000000000
40
1.0000000000
40
1.0000000000
40
1.0000000000
10
5.2869877049
20
29.2977260790
30
0.0000000000
10
5.2869877049
20
28.9863907357
30
0.0000000000
10
5.2195708475
20
28.6722976354
30
0.0000000000
10
5.0995797495
20
28.3827148647
30
0.0000000000
11
5.2869877049
21
29.2977260790
31
0.0000000000
11
5.0995797495
21
28.3827148647
31
0.0000000000
0
SPLINE
5
322
100
AcDbEntity
8
0
100
AcDbSpline
62
7
6
CONTINUOUS
70
0
71
3
72
18
73
14
74
12
42
0.0000001000
43
0.0000001000
44
0.0000000001
12
-5.1590497359
22
-12.4506896081
32
0.0000000000
13
0.0000000000
23
13.3859473552
33
0.0000000000
40
0.0000000000
40
0.0000000000
40
0.0000000000
40
0.0000000000
40
0.0757776707
40
0.1609570600
40
0.2558407019
40
0.3583891220
40
0.4651124420
40
0.5718357620
40
0.6743841821
40
0.7692678239
40
0.8544472132
40
0.9302248840
40
1.0000000000
40
1.0000000000
40
1.0000000000
40
1.0000000000
10
5.0995797495
20
28.3827148647
30
0.0000000000
10
4.9692661588
20
28.0682201121
30
0.0000000000
10
4.5607596632
20
27.4616156865
30
0.0000000000
10
3.6640760598
20
26.7341577397
30
0.0000000000
10
2.5191729256
20
26.1839003441
30
0.0000000000
10
1.1987039951
20
25.8399217530
30
0.0000000000
10
-0.2130122951
20
25.7228571382
30
0.0000000000
10
-1.6247285852
20
25.8399217530
30
0.0000000000
10
-2.9451975158
20
26.1839003441
30
0.0000000000
10
-4.0901006500
20
26.7341577397
30
0.0000000000
10
-4.9867842533
20
27.4616156865
30
0.0000000000
10
-5.5723788999
20
28.3311839994
30
0.0000000000
10
-5.7130122951
20
28.9863907357
30
0.0000000000
10
-5.7130122951
20
29.2977260790
30
0.0000000000
11
5.0995797495
21
28.3827148647
31
0.0000000000
11
4.5501274257
21
27.5300601524
31
0.0000000000
11
3.6760750014
21
26.7978689518
31
0.0000000000
11
2.5369877049
21
26.2360388833
31
0.0000000000
11
1.2104924530
21
25.8828577375
31
0.0000000000
11
-0.2130122951
21
25.7623942258
31
0.0000000000
11
-1.6365170431
21
25.8828577375
31
0.0000000000
11
-2.9630122951
21
26.2360388833
31
0.0000000000
11
-4.1020995916
21
26.7978689518
31
0.0000000000
11
-4.9761520159
21
27.5300601524
31
0.0000000000
11
-5.5256043397
21
28.3827148647
31
0.0000000000
11
-5.7130122951
21
29.2977260790
31
0.0000000000
0
SPLINE
5
323
100
AcDbEntity
8
0
100
AcDbSpline
62
7
6
CONTINUOUS
70
0
71
3
72
8
73
4
74
2
42
0.0000001000
43
0.0000001000
44
0.0000000001
12
0.0093270747
22
-0.3034321038
32
0.0000000000
13
0.0000000000
23
-0.3013185202
33
0.0000000000
40
0.0000000000
40
0.0000000000
40
0.0000000000
40
0.0000000000
40
1.0000000000
40
1.0000000000
40
1.0000000000
40
1.0000000000
10
-58.7915425633
20
24.2493996691
30
0.0000000000
10
-58.7884335384
20
24.1482556345
30
0.0000000000
10
-58.7880349680
20
24.0498176582
30
0.0000000000
10
-58.7880349680
20
23.9493781515
30
0.0000000000
11
-58.7915425633
21
24.2493996691
31
0.0000000000
11
-58.7880349680
21
23.9493781515
31
0.0000000000
0
SPLINE
5
324
100
AcDbEntity
8
0
100
AcDbSpline
62
7
6
CONTINUOUS
70
0
71
3
72
8
73
4
74
2
42
0.0000001000
43
0.0000001000
44
0.0000000001
12
-0.0093270629
22
-0.3034320853
32
0.0000000000
13
0.0000000000
23
-0.3013185293
33
0.0000000000
40
0.0000000000
40
0.0000000000
40
0.0000000000
40
0.0000000000
40
1.0000000000
40
1.0000000000
40
1.0000000000
40
1.0000000000
10
-67.1344820304
20
24.2493996691
30
0.0000000000
10
-67.1375910514
20
24.1482556406
30
0.0000000000
10
-67.1379896221
20
24.0498176613
30
0.0000000000
10
-67.1379896221
20
23.9493781515
30
0.0000000000
11
-67.1344820304
21
24.2493996691
31
0.0000000000
11
-67.1379896221
21
23.9493781515
31
0.0000000000
0
SPLINE
5
325
100
AcDbEntity
8
0
100
AcDbSpline
62
7
6
CONTINUOUS
70
0
71
3
72
8
73
4
74
2
42
0.0000001000
43
0.0000001000
44
0.0000000001
12
0.0093270747
22
-0.3034321038
32
0.0000000000
13
0.0000000000
23
-0.3013185202
33
0.0000000000
40
0.0000000000
40
0.0000000000
40
0.0000000000
40
0.0000000000
40
1.0000000000
40
1.0000000000
40
1.0000000000
40
1.0000000000
10
66.7084574367
20
24.2493996691
30
0.0000000000
10
66.7115664616
20
24.1482556345
30
0.0000000000
10
66.7119650320
20
24.0498176582
30
0.0000000000
10
66.7119650320
20
23.9493781515
30
0.0000000000
11
66.7084574367
21
24.2493996691
31
0.0000000000
11
66.7119650320
21
23.9493781515
31
0.0000000000
0
SPLINE
5
326
100
AcDbEntity
8
0
100
AcDbSpline
62
7
6
CONTINUOUS
70
0
71
3
72
8
73
4
74
2
42
0.0000001000
43
0.0000001000
44
0.0000000001
12
-0.0093270629
22
-0.3034320853
32
0.0000000000
13
0.0000000000
23
-0.3013185293
33
0.0000000000
40
0.0000000000
40
0.0000000000
40
0.0000000000
40
0.0000000000
40
1.0000000000
40
1.0000000000
40
1.0000000000
40
1.0000000000
10
58.3655179696
20
24.2493996691
30
0.0000000000
10
58.3624089486
20
24.1482556406
30
0.0000000000
10
58.3620103779
20
24.0498176613
30
0.0000000000
10
58.3620103779
20
23.9493781515
30
0.0000000000
11
58.3655179696
21
24.2493996691
31
0.0000000000
11
58.3620103779
21
23.9493781515
31
0.0000000000
0
SPLINE
5
327
100
AcDbEntity
8
0
100
AcDbSpline
62
7
6
CONTINUOUS
70
0
71
3
72
10
73
6
74
4
42
0.0000001000
43
0.0000001000
44
0.0000000001
12
0.3492597270
22
-16.7143923794
32
0.0000000000
13
0.4029142533
23
-16.7131850667
33
0.0000000000
40
0.0000000000
40
0.0000000000
40
0.0000000000
40
0.0000000000
40
0.3457259652
40
0.6790586921
40
1.0000000000
40
1.0000000000
40
1.0000000000
40
1.0000000000
10
103.8038641814
20
39.5931057228
30
0.0000000000
10
103.8441135668
20
37.6669059100
30
0.0000000000
10
103.9251389177
20
33.8835955687
30
0.0000000000
10
104.0504414354
20
28.3123231635
30
0.0000000000
10
104.1363381044
20
24.6672742352
30
0.0000000000
10
104.1794420468
20
22.8792904103
30
0.0000000000
11
103.8038641814
21
39.5931057228
31
0.0000000000
11
103.9276706924
21
33.8145710008
31
0.0000000000
11
104.0530101523
21
28.2433105396
31
0.0000000000
11
104.1794420468
21
22.8792904103
31
0.0000000000
0
SPLINE
5
328
100
AcDbEntity
8
0
100
AcDbSpline
62
7
6
CONTINUOUS
70
0
71
3
72
11
73
7
74
5
42
0.0000001000
43
0.0000001000
44
0.0000000001
12
-1.0720326242
22
0.0000000000
32
0.0000000000
13
-0.1845422780
23
1.0560294006
33
0.0000000000
40
0.0000000000
40
0.0000000000
40
0.0000000000
40
0.0000000000
40
0.3375405531
40
0.6362720512
40
0.8601705542
40
1.0000000000
40
1.0000000000
40
1.0000000000
40
1.0000000000
10
-102.7481698202
20
15.4863021836
30
0.0000000000
10
-102.8687879818
20
15.4863021836
30
0.0000000000
10
-103.0960135563
20
15.4984278199
30
0.0000000000
10
-103.4007794473
20
15.5575346346
30
0.0000000000
10
-103.6201826686
20
15.6358663641
30
0.0000000000
10
-103.7283985281
20
15.7348842757
30
0.0000000000
10
-103.7370000096
20
15.7841056109
30
0.0000000000
11
-102.7481698202
21
15.4863021836
31
0.0000000000
11
-103.1093696164
21
15.5080593769
31
0.0000000000
11
-103.4233466939
21
15.5711339426
31
0.0000000000
11
-103.6433845087
21
15.6670301397
31
0.0000000000
11
-103.7370000096
21
15.7841056109
31
0.0000000000
0
SPLINE
5
329
100
AcDbEntity
8
0
100
AcDbSpline
62
7
6
CONTINUOUS
70
0
71
3
72
10
73
6
74
4
42
0.0000001000
43
0.0000001000
44
0.0000000001
12
-0.3498362657
22
1.7942275412
32
0.0000000000
13
-0.4026568121
23
1.7831167584
33
0.0000000000
40
0.0000000000
40
0.0000000000
40
0.0000000000
40
0.0000000000
40
0.3525336105
40
0.6858581824
40
1.0000000000
40
1.0000000000
40
1.0000000000
40
1.0000000000
10
-104.1744351263
20
18.1597015844
30
0.0000000000
10
-104.2155448070
20
18.3705434221
30
0.0000000000
10
-104.2972332677
20
18.7804084996
30
0.0000000000
10
-104.4219060136
20
19.3768649332
30
0.0000000000
10
-104.5065709607
20
19.7622087919
30
0.0000000000
10
-104.5487347417
20
19.9489259717
30
0.0000000000
11
-104.1744351263
21
18.1597015844
31
0.0000000000
11
-104.3005302158
21
18.7916814938
31
0.0000000000
11
-104.4253427476
21
19.3880835493
31
0.0000000000
11
-104.5487347417
21
19.9489259717
31
0.0000000000
0
SPLINE
5
32A
100
AcDbEntity
8
0
100
AcDbSpline
62
7
6
CONTINUOUS
70
0
71
3
72
10
73
6
74
4
42
0.0000001000
43
0.0000001000
44
0.0000000001
12
-0.4158217109
22
2.3795087388
32
0.0000000000
13
-0.4622792842
23
2.3709212126
33
0.0000000000
40
0.0000000000
40
0.0000000000
40
0.0000000000
40
0.0000000000
40
0.3512109274
40
0.6845630898
40
1.0000000000
40
1.0000000000
40
1.0000000000
40
1.0000000000
10
-103.7370000096
20
15.7841056109
30
0.0000000000
10
-103.7856803858
20
16.0626754346
30
0.0000000000
10
-103.8820817472
20
16.6053869239
30
0.0000000000
10
-104.0278125017
20
17.3972837105
30
0.0000000000
10
-104.1258284767
20
17.9104095639
30
0.0000000000
10
-104.1744351263
20
18.1597015844
30
0.0000000000
11
-103.7370000096
21
15.7841056109
31
0.0000000000
11
-103.8854811893
21
16.6193850075
31
0.0000000000
11
-104.0313387034
21
17.4112996370
31
0.0000000000
11
-104.1744351263
21
18.1597015844
31
0.0000000000
0
SPLINE
5
32B
100
AcDbEntity
8
0
100
AcDbSpline
62
7
6
CONTINUOUS
70
0
71
3
72
11
73
7
74
5
42
0.0000001000
43
0.0000001000
44
0.0000000001
12
-0.1845449835
22
-1.0560448830
32
0.0000000000
13
-1.0720483412
23
0.0000000000
33
0.0000000000
40
0.0000000000
40
0.0000000000
40
0.0000000000
40
0.0000000000
40
0.1393427083
40
0.3637700345
40
0.6627945647
40
1.0000000000
40
1.0000000000
40
1.0000000000
40
1.0000000000
10
103.3109754194
20
15.7841056109
30
0.0000000000
10
103.3024037535
20
15.7350548929
30
0.0000000000
10
103.1943790559
20
15.6359079217
30
0.0000000000
10
102.9747824661
20
15.5575350066
30
0.0000000000
10
102.6698679913
20
15.4984139957
30
0.0000000000
10
102.4426454059
20
15.4863021836
30
0.0000000000
10
102.3221452300
20
15.4863021836
30
0.0000000000
11
103.3109754194
21
15.7841056109
31
0.0000000000
11
103.2178116722
21
15.6673343227
31
0.0000000000
11
102.9972885321
21
15.5711239617
31
0.0000000000
11
102.6829930756
21
15.5080154004
31
0.0000000000
11
102.3221452300
21
15.4863021836
31
0.0000000000
0
SPLINE
5
32C
100
AcDbEntity
8
0
100
AcDbSpline
62
7
6
CONTINUOUS
70
0
71
3
72
10
73
6
74
4
42
0.0000001000
43
0.0000001000
44
0.0000000001
12
-0.4622792842
22
-2.3709212126
32
0.0000000000
13
-0.4158217109
23
-2.3795087388
33
0.0000000000
40
0.0000000000
40
0.0000000000
40
0.0000000000
40
0.0000000000
40
0.3154369102
40
0.6487890726
40
1.0000000000
40
1.0000000000
40
1.0000000000
40
1.0000000000
10
103.7484105362
20
18.1597015844
30
0.0000000000
10
103.6998038865
20
17.9104095638
30
0.0000000000
10
103.6017879115
20
17.3972837105
30
0.0000000000
10
103.4560571570
20
16.6053869239
30
0.0000000000
10
103.3596557957
20
16.0626754346
30
0.0000000000
10
103.3109754194
20
15.7841056109
30
0.0000000000
11
103.7484105362
21
18.1597015844
31
0.0000000000
11
103.6053141133
21
17.4112996370
31
0.0000000000
11
103.4594565991
21
16.6193850075
31
0.0000000000
11
103.3109754194
21
15.7841056109
31
0.0000000000
0
SPLINE
5
32D
100
AcDbEntity
8
0
100
AcDbSpline
62
7
6
CONTINUOUS
70
0
71
3
72
10
73
6
74
4
42
0.0000001000
43
0.0000001000
44
0.0000000001
12
-0.4026568121
22
-1.7831167584
32
0.0000000000
13
-0.3498362657
23
-1.7942275412
33
0.0000000000
40
0.0000000000
40
0.0000000000
40
0.0000000000
40
0.0000000000
40
0.3141418176
40
0.6474663895
40
1.0000000000
40
1.0000000000
40
1.0000000000
40
1.0000000000
10
104.1227101515
20
19.9489259717
30
0.0000000000
10
104.0805463706
20
19.7622087919
30
0.0000000000
10
103.9958814235
20
19.3768649332
30
0.0000000000
10
103.8712086776
20
18.7804084996
30
0.0000000000
10
103.7895202168
20
18.3705434221
30
0.0000000000
10
103.7484105362
20
18.1597015844
30
0.0000000000
11
104.1227101515
21
19.9489259717
31
0.0000000000
11
103.9993181575
21
19.3880835493
31
0.0000000000
11
103.8745056257
21
18.7916814938
31
0.0000000000
11
103.7484105362
21
18.1597015844
31
0.0000000000
0
SPLINE
5
32E
100
AcDbEntity
8
0
100
AcDbSpline
62
7
6
CONTINUOUS
70
0
71
3
72
13
73
9
74
7
42
0.0000001000
43
0.0000001000
44
0.0000000001
12
-0.0706973836
22
-2.9325804333
32
0.0000000000
13
0.6461471818
23
-2.8613842694
33
0.0000000000
40
0.0000000000
40
0.0000000000
40
0.0000000000
40
0.0000000000
40
0.2274148493
40
0.4472341773
40
0.6426827300
40
0.8037233348
40
0.9251172857
40
1.0000000000
40
1.0000000000
40
1.0000000000
40
1.0000000000
10
-104.6054666370
20
22.8792904103
30
0.0000000000
10
-104.6108258486
20
22.6569862978
30
0.0000000000
10
-104.6187414658
20
22.2197407847
30
0.0000000000
10
-104.6223642751
20
21.5912874230
30
0.0000000000
10
-104.6172096306
20
21.0278362213
30
0.0000000000
10
-104.6047361706
20
20.5604969281
30
0.0000000000
10
-104.5838979615
20
20.2120746019
30
0.0000000000
10
-104.5648631599
20
20.0203487119
30
0.0000000000
10
-104.5487347417
20
19.9489259717
30
0.0000000000
11
-104.6054666370
21
22.8792904103
31
0.0000000000
11
-104.6174810632
21
22.2122925021
31
0.0000000000
11
-104.6208049796
21
21.5674759125
31
0.0000000000
11
-104.6150633671
21
20.9941695298
31
0.0000000000
11
-104.6007430607
21
20.5219848907
31
0.0000000000
11
-104.5782828248
21
20.1665929515
31
0.0000000000
11
-104.5487347417
21
19.9489259717
31
0.0000000000
0
SPLINE
5
32F
100
AcDbEntity
8
0
100
AcDbSpline
62
7
6
CONTINUOUS
70
0
71
3
72
13
73
9
74
7
42
0.0000001000
43
0.0000001000
44
0.0000000001
12
0.6461470257
22
2.8613835780
32
0.0000000000
13
-0.0706973665
23
2.9325797246
33
0.0000000000
40
0.0000000000
40
0.0000000000
40
0.0000000000
40
0.0000000000
40
0.0751118682
40
0.1972447787
40
0.3582170697
40
0.5535055784
40
0.7729876731
40
1.0000000000
40
1.0000000000
40
1.0000000000
40
1.0000000000
10
104.1227101515
20
19.9489259717
30
0.0000000000
10
104.1388879216
20
20.0205672604
30
0.0000000000
10
104.1579741846
20
20.2132448922
30
0.0000000000
10
104.1787946258
20
20.5625465932
30
0.0000000000
10
104.1912253147
20
21.0303863019
30
0.0000000000
10
104.1963372050
20
21.5932846619
30
0.0000000000
10
104.1926988618
20
22.2208577720
30
0.0000000000
10
104.1847917714
20
22.6573798279
30
0.0000000000
10
104.1794420468
20
22.8792904103
30
0.0000000000
11
104.1227101515
21
19.9489259717
31
0.0000000000
11
104.1523189486
21
20.1672630266
31
0.0000000000
11
104.1748438673
21
20.5248227968
31
0.0000000000
11
104.1890894959
21
20.9968090954
31
0.0000000000
11
104.1947847366
21
21.5696463008
31
0.0000000000
11
104.1914425367
21
22.2134733757
31
0.0000000000
11
104.1794420468
21
22.8792904103
31
0.0000000000
0
SPLINE
5
330
100
AcDbEntity
8
0
100
AcDbSpline
62
7
6
CONTINUOUS
70
0
71
3
72
8
73
4
74
2
42
0.0000001000
43
0.0000001000
44
0.0000000001
12
0.0000000000
22
0.9340060301
32
0.0000000000
13
-0.3599732940
23
0.8687483122
33
0.0000000000
40
0.0000000000
40
0.0000000000
40
0.0000000000
40
0.0000000000
40
1.0000000000
40
1.0000000000
40
1.0000000000
40
1.0000000000
10
5.2869877049
20
29.7556284386
30
0.0000000000
10
5.2869877049
20
30.0669637819
30
0.0000000000
10
5.2195708475
20
30.3810568822
30
0.0000000000
10
5.0995797495
20
30.6706396530
30
0.0000000000
11
5.2869877049
21
29.7556284386
31
0.0000000000
11
5.0995797495
21
30.6706396530
31
0.0000000000
0
SPLINE
5
331
100
AcDbEntity
8
0
100
AcDbSpline
62
7
6
CONTINUOUS
70
0
71
3
72
8
73
4
74
2
42
0.0000001000
43
0.0000001000
44
0.0000000001
12
-0.1254350700
22
0.3027210829
32
0.0000000000
13
-0.1610104993
23
0.2844579370
33
0.0000000000
40
0.0000000000
40
0.0000000000
40
0.0000000000
40
0.0000000000
40
1.0000000000
40
1.0000000000
40
1.0000000000
40
1.0000000000
10
5.0995797495
20
30.6706396530
30
0.0000000000
10
5.0577680595
20
30.7715466806
30
0.0000000000
10
5.0095727000
20
30.8694776149
30
0.0000000000
10
4.9559025335
20
30.9642969273
30
0.0000000000
11
5.0995797495
21
30.6706396530
31
0.0000000000
11
4.9559025335
21
30.9642969273
31
0.0000000000
0
SPLINE
5
332
100
AcDbEntity
8
0
100
AcDbSpline
62
7
6
CONTINUOUS
70
0
71
3
72
10
73
6
74
4
42
0.0000001000
43
0.0000001000
44
0.0000000001
12
-1.0705006774
22
1.8912581205
32
0.0000000000
13
-1.8936248948
23
1.0552443840
33
0.0000000000
40
0.0000000000
40
0.0000000000
40
0.0000000000
40
0.0000000000
40
0.3183626614
40
0.8452921583
40
1.0000000000
40
1.0000000000
40
1.0000000000
40
1.0000000000
10
4.9559025335
20
30.9642969273
30
0.0000000000
10
4.8423000520
20
31.1649989168
30
0.0000000000
10
4.4755441130
20
31.6608721675
30
0.0000000000
10
3.9089766867
20
32.1205147607
30
0.0000000000
10
3.4859464203
20
32.3733839771
30
0.0000000000
10
3.3882935468
20
32.4278021708
30
0.0000000000
11
4.9559025335
21
30.9642969273
31
0.0000000000
11
4.5501274257
21
31.5232943652
31
0.0000000000
11
3.6760750014
21
32.2554855658
31
0.0000000000
11
3.3882935468
21
32.4278021708
31
0.0000000000
0
SPLINE
5
333
100
AcDbEntity
8
0
100
AcDbSpline
62
7
6
CONTINUOUS
70
0
71
3
72
8
73
4
74
2
42
0.0000001000
43
0.0000001000
44
0.0000000001
12
-0.0648801782
22
0.0361552300
32
0.0000000000
13
-0.0653543390
23
0.0352844917
33
0.0000000000
40
0.0000000000
40
0.0000000000
40
0.0000000000
40
0.0000000000
40
1.0000000000
40
1.0000000000
40
1.0000000000
40
1.0000000000
10
3.3882935468
20
32.4278021708
30
0.0000000000
10
3.3666668207
20
32.4398539142
30
0.0000000000
10
3.3449596678
20
32.4517597785
30
0.0000000000
10
3.3231748882
20
32.4635212757
30
0.0000000000
11
3.3882935468
21
32.4278021708
31
0.0000000000
11
3.3231748882
21
32.4635212757
31
0.0000000000
0
SPLINE
5
334
100
AcDbEntity
8
0
100
AcDbSpline
62
7
6
CONTINUOUS
70
0
71
3
72
8
73
4
74
2
42
0.0000001000
43
0.0000001000
44
0.0000000001
12
-0.3754518704
22
0.2027046501
32
0.0000000000
13
-0.3892309034
23
0.1749769593
33
0.0000000000
40
0.0000000000
40
0.0000000000
40
0.0000000000
40
0.0000000000
40
1.0000000000
40
1.0000000000
40
1.0000000000
40
1.0000000000
10
3.3231748882
20
32.4635212757
30
0.0000000000
10
3.1980242647
20
32.5310894924
30
0.0000000000
10
3.0703116882
20
32.5938930937
30
0.0000000000
10
2.9405680537
20
32.6522187468
30
0.0000000000
11
3.3231748882
21
32.4635212757
31
0.0000000000
11
2.9405680537
21
32.6522187468
31
0.0000000000
0
SPLINE
5
335
100
AcDbEntity
8
0
100
AcDbSpline
62
7
6
CONTINUOUS
70
0
71
3
72
13
73
9
74
7
42
0.0000001000
43
0.0000001000
44
0.0000000001
12
-5.9155426710
22
2.6593049530
32
0.0000000000
13
-5.9155426710
23
-2.6593049530
33
0.0000000000
40
0.0000000000
40
0.0000000000
40
0.0000000000
40
0.0000000000
40
0.0672437272
40
0.2793051935
40
0.5000000000
40
0.7206948065
40
0.9327562728
40
1.0000000000
40
1.0000000000
40
1.0000000000
40
1.0000000000
10
2.9405680537
20
32.6522187468
30
0.0000000000
10
2.8079736745
20
32.7118259391
30
0.0000000000
10
2.2484153612
20
32.9399857880
30
0.0000000000
10
1.1987039951
20
33.2134327646
30
0.0000000000
10
-0.2130122951
20
33.3304973794
30
0.0000000000
10
-1.6247285852
20
33.2134327646
30
0.0000000000
10
-2.6744399514
20
32.9399857880
30
0.0000000000
10
-3.2339982646
20
32.7118259391
30
0.0000000000
10
-3.3665926439
20
32.6522187468
30
0.0000000000
11
2.9405680537
21
32.6522187468
31
0.0000000000
11
2.5369877049
21
32.8173156343
31
0.0000000000
11
1.2104924530
21
33.1704967802
31
0.0000000000
11
-0.2130122951
21
33.2909602919
31
0.0000000000
11
-1.6365170431
21
33.1704967802
31
0.0000000000
11
-2.9630122951
21
32.8173156343
31
0.0000000000
11
-3.3665926439
21
32.6522187468
31
0.0000000000
0
SPLINE
5
336
100
AcDbEntity
8
0
100
AcDbSpline
62
7
6
CONTINUOUS
70
0
71
3
72
8
73
4
74
2
42
0.0000001000
43
0.0000001000
44
0.0000000001
12
-0.4569837378
22
-0.2054349339
32
0.0000000000
13
-0.4376080586
23
-0.2438621543
33
0.0000000000
40
0.0000000000
40
0.0000000000
40
0.0000000000
40
0.0000000000
40
1.0000000000
40
1.0000000000
40
1.0000000000
40
1.0000000000
10
-3.3665926439
20
32.6522187468
30
0.0000000000
10
-3.5189205565
20
32.5837404356
30
0.0000000000
10
-3.6684487841
20
32.5090895556
30
0.0000000000
10
-3.8143181369
20
32.4278021708
30
0.0000000000
11
-3.3665926439
21
32.6522187468
31
0.0000000000
11
-3.8143181369
21
32.4278021708
31
0.0000000000
0
SPLINE
5
337
100
AcDbEntity
8
0
100
AcDbSpline
62
7
6
CONTINUOUS
70
0
71
3
72
8
73
4
74
2
42
0.0000001000
43
0.0000001000
44
0.0000000001
12
-0.0827077408
22
-0.0460898456
32
0.0000000000
13
-0.0819061505
23
-0.0475216113
33
0.0000000000
40
0.0000000000
40
0.0000000000
40
0.0000000000
40
0.0000000000
40
1.0000000000
40
1.0000000000
40
1.0000000000
40
1.0000000000
10
-3.8143181369
20
32.4278021708
30
0.0000000000
10
-3.8418873839
20
32.4124388890
30
0.0000000000
10
-3.8693259327
20
32.3968385455
30
0.0000000000
10
-3.8966279829
20
32.3809980085
30
0.0000000000
11
-3.8143181369
21
32.4278021708
31
0.0000000000
11
-3.8966279829
21
32.3809980085
31
0.0000000000
0
SPLINE
5
338
100
AcDbEntity
8
0
100
AcDbSpline
62
7
6
CONTINUOUS
70
0
71
3
72
10
73
6
74
4
42
0.0000001000
43
0.0000001000
44
0.0000000001
12
-1.7933660328
22
-1.0405035871
32
0.0000000000
13
-1.0237444836
23
-1.8086537531
33
0.0000000000
40
0.0000000000
40
0.0000000000
40
0.0000000000
40
0.0000000000
40
0.1161018764
40
0.6670971614
40
1.0000000000
40
1.0000000000
40
1.0000000000
40
1.0000000000
10
-3.8966279829
20
32.3809980085
30
0.0000000000
10
-3.9660323701
20
32.3407298688
30
0.0000000000
10
-4.3597472083
20
32.1004389787
30
0.0000000000
10
-4.9015687031
20
31.6608721675
30
0.0000000000
10
-5.2683246421
20
31.1649989168
30
0.0000000000
10
-5.3819271237
20
30.9642969273
30
0.0000000000
11
-3.8966279829
21
32.3809980085
31
0.0000000000
11
-4.1020995916
21
32.2554855658
31
0.0000000000
11
-4.9761520159
21
31.5232943652
31
0.0000000000
11
-5.3819271237
21
30.9642969273
31
0.0000000000
0
SPLINE
5
339
100
AcDbEntity
8
0
100
AcDbSpline
62
7
6
CONTINUOUS
70
0
71
3
72
8
73
4
74
2
42
0.0000001000
43
0.0000001000
44
0.0000000001
12
-0.1610104993
22
-0.2844579370
32
0.0000000000
13
-0.1254350700
23
-0.3027210829
33
0.0000000000
40
0.0000000000
40
0.0000000000
40
0.0000000000
40
0.0000000000
40
1.0000000000
40
1.0000000000
40
1.0000000000
40
1.0000000000
10
-5.3819271237
20
30.9642969273
30
0.0000000000
10
-5.4355972901
20
30.8694776149
30
0.0000000000
10
-5.4837926497
20
30.7715466806
30
0.0000000000
10
-5.5256043397
20
30.6706396530
30
0.0000000000
11
-5.3819271237
21
30.9642969273
31
0.0000000000
11
-5.5256043397
21
30.6706396530
31
0.0000000000
0
SPLINE
5
33A
100
AcDbEntity
8
0
100
AcDbSpline
62
7
6
CONTINUOUS
70
0
71
3
72
8
73
4
74
2
42
0.0000001000
43
0.0000001000
44
0.0000000001
12
-0.3599732940
22
-0.8687483122
32
0.0000000000
13
0.0000000000
23
-0.9340060301
33
0.0000000000
40
0.0000000000
40
0.0000000000
40
0.0000000000
40
0.0000000000
40
1.0000000000
40
1.0000000000
40
1.0000000000
40
1.0000000000
10
-5.5256043397
20
30.6706396530
30
0.0000000000
10
-5.6455954377
20
30.3810568822
30
0.0000000000
10
-5.7130122951
20
30.0669637819
30
0.0000000000
10
-5.7130122951
20
29.7556284386
30
0.0000000000
11
-5.5256043397
21
30.6706396530
31
0.0000000000
11
-5.7130122951
21
29.7556284386
31
0.0000000000
0
SPLINE
5
33B
100
AcDbEntity
8
0
100
AcDbSpline
62
9
6
CONTINUOUS
70
0
71
3
72
10
73
6
74
4
42
0.0000001000
43
0.0000001000
44
0.0000000001
12
0.5515999623
22
0.5218142140
32
0.0000000000
13
0.7591981271
23
0.0130688996
33
0.0000000000
40
0.0000000000
40
0.0000000000
40
0.0000000000
40
0.0000000000
40
0.3325372303
40
0.6663146414
40
1.0000000000
40
1.0000000000
40
1.0000000000
40
1.0000000000
10
16.8668390863
20
39.5028523864
30
0.0000000000
10
16.9279815942
20
39.5606932708
30
0.0000000000
10
17.0656477614
20
39.6616537133
30
0.0000000000
10
17.3022516365
20
39.7578750530
30
0.0000000000
10
17.4715463855
20
39.7818470464
30
0.0000000000
10
17.5559908186
20
39.7833006799
30
0.0000000000
11
16.8668390863
21
39.5028523864
31
0.0000000000
11
17.0703695618
21
39.6522883702
31
0.0000000000
11
17.3051168184
21
39.7478180925
31
0.0000000000
11
17.5559908186
21
39.7833006799
31
0.0000000000
0
SPLINE
5
33C
100
AcDbEntity
8
0
100
AcDbSpline
62
9
6
CONTINUOUS
70
0
71
3
72
10
73
6
74
4
42
0.0000001000
43
0.0000001000
44
0.0000000001
12
-0.5516001516
22
0.5218134280
32
0.0000000000
13
-0.7591977440
23
0.0130677632
33
0.0000000000
40
0.0000000000
40
0.0000000000
40
0.0000000000
40
0.0000000000
40
0.3325371120
40
0.6663145292
40
1.0000000000
40
1.0000000000
40
1.0000000000
40
1.0000000000
10
-17.2928636510
20
39.5028524119
30
0.0000000000
10
-17.3540061581
20
39.5606931887
30
0.0000000000
10
-17.4916723612
20
39.6616533939
30
0.0000000000
10
-17.7282762641
20
39.7578743136
30
0.0000000000
10
-17.8975709899
20
39.7818460302
30
0.0000000000
10
-17.9820154087
20
39.7832995378
30
0.0000000000
11
-17.2928636510
21
39.5028524119
31
0.0000000000
11
-17.4963941230
21
39.6522880225
31
0.0000000000
11
-17.7311414025
21
39.7478173440
31
0.0000000000
11
-17.9820154087
21
39.7832995378
31
0.0000000000
0
SPLINE
5
33D
100
AcDbEntity
8
0
100
AcDbSpline
62
9
6
CONTINUOUS
70
0
71
3
72
10
73
6
74
4
42
0.0000001000
43
0.0000001000
44
0.0000000001
12
-0.5558689807
22
0.5078343293
32
0.0000000000
13
-0.7529120887
23
0.0030686271
33
0.0000000000
40
0.0000000000
40
0.0000000000
40
0.0000000000
40
0.0000000000
40
0.3310014991
40
0.6652164104
40
1.0000000000
40
1.0000000000
40
1.0000000000
40
1.0000000000
10
-17.7097411992
20
36.5575135936
30
0.0000000000
10
-17.7710723545
20
36.6135449017
30
0.0000000000
10
-17.9097456040
20
36.7102421622
30
0.0000000000
10
-18.1462697354
20
36.8006885483
30
0.0000000000
10
-18.3148720864
20
36.8211457008
30
0.0000000000
10
-18.3988929570
20
36.8214881428
30
0.0000000000
11
-17.7097411992
21
36.5575135936
31
0.0000000000
11
-17.9136973698
21
36.7007303641
31
0.0000000000
11
-18.1487228399
21
36.7906412928
31
0.0000000000
11
-18.3988929570
21
36.8214881428
31
0.0000000000
0
SPLINE
5
33E
100
AcDbEntity
8
0
100
AcDbSpline
62
9
6
CONTINUOUS
70
0
71
3
72
13
73
9
74
7
42
0.0000001000
43
0.0000001000
44
0.0000000001
12
-3.0330771756
22
-0.0275206896
32
0.0000000000
13
-0.1244145646
23
-3.0306493624
33
0.0000000000
40
0.0000000000
40
0.0000000000
40
0.0000000000
40
0.0000000000
40
0.1378043506
40
0.2906415854
40
0.4564781952
40
0.6328381199
40
0.8156725342
40
1.0000000000
40
1.0000000000
40
1.0000000000
40
1.0000000000
10
-101.1502959828
20
36.8214832439
30
0.0000000000
10
-101.2896197262
20
36.8202190870
30
0.0000000000
10
-101.5840671398
20
36.7866058208
30
0.0000000000
10
-102.0237418017
20
36.6334766555
30
0.0000000000
10
-102.4476033805
20
36.3573253832
30
0.0000000000
10
-102.8070624217
20
35.9579475964
30
0.0000000000
10
-103.0541128693
20
35.4594613305
30
0.0000000000
10
-103.1219196829
20
35.0886275905
30
0.0000000000
10
-103.1295640234
20
34.9024169516
30
0.0000000000
11
-101.1502959828
21
36.8214832439
31
0.0000000000
11
-101.5655766425
21
36.7739826544
31
0.0000000000
11
-102.0033805547
21
36.6215362405
31
0.0000000000
11
-102.4248030934
21
36.3468945089
31
0.0000000000
11
-102.7827046099
21
35.9493240627
31
0.0000000000
11
-103.0288648626
21
35.4523762417
31
0.0000000000
11
-103.1295640234
21
34.9024169516
31
0.0000000000
0
SPLINE
5
33F
100
AcDbEntity
8
0
100
AcDbSpline
62
9
6
CONTINUOUS
70
0
71
3
72
13
73
9
74
7
42
0.0000001000
43
0.0000001000
44
0.0000000001
12
-0.1244142328
22
3.0306509235
32
0.0000000000
13
-3.0330786799
23
0.0275253158
33
0.0000000000
40
0.0000000000
40
0.0000000000
40
0.0000000000
40
0.0000000000
40
0.1843276038
40
0.3671618548
40
0.5435217542
40
0.7093580970
40
0.8621954667
40
1.0000000000
40
1.0000000000
40
1.0000000000
40
1.0000000000
10
102.7035394331
20
34.9024169469
30
0.0000000000
10
102.6958951073
20
35.0886278212
30
0.0000000000
10
102.6280881480
20
35.4594617227
30
0.0000000000
10
102.3810374917
20
35.9579481320
30
0.0000000000
10
102.0215784001
20
36.3573256292
30
0.0000000000
10
101.5977167731
20
36.6334769298
30
0.0000000000
10
101.1580417317
20
36.7866061382
30
0.0000000000
10
100.8635938316
20
36.8202188906
30
0.0000000000
10
100.7242698343
20
36.8214832617
30
0.0000000000
11
102.7035394331
21
34.9024169469
31
0.0000000000
11
102.6028400443
21
35.4523769108
31
0.0000000000
11
102.3566797423
21
35.9493244699
31
0.0000000000
11
101.9987779606
21
36.3468949409
31
0.0000000000
11
101.5773558607
21
36.6215363322
31
0.0000000000
11
101.1395512795
21
36.7739827880
31
0.0000000000
11
100.7242698343
21
36.8214832617
31
0.0000000000
0
SPLINE
5
340
100
AcDbEntity
8
0
100
AcDbSpline
62
9
6
CONTINUOUS
70
0
71
3
72
16
73
12
74
10
42
0.0000001000
43
0.0000001000
44
0.0000000001
12
0.0881571803
22
1.7572671036
32
0.0000000000
13
-1.6690967199
23
-0.5566646220
33
0.0000000000
40
0.0000000000
40
0.0000000000
40
0.0000000000
40
0.0000000000
40
0.0212056326
40
0.0542355715
40
0.1104937048
40
0.1940293408
40
0.3049005212
40
0.4417363898
40
0.6037185703
40
0.7899429949
40
1.0000000000
40
1.0000000000
40
1.0000000000
40
1.0000000000
10
16.8668390608
20
39.5028524119
30
0.0000000000
10
16.8674622037
20
39.5152737321
30
0.0000000000
10
16.8516906588
20
39.5482008305
30
0.0000000000
10
16.7848339209
20
39.5657806041
30
0.0000000000
10
16.6850006850
20
39.5704465400
30
0.0000000000
10
16.5374918328
20
39.5564509668
30
0.0000000000
10
16.3462161074
20
39.5240997349
30
0.0000000000
10
16.1114411833
20
39.4719500751
30
0.0000000000
10
15.8361936983
20
39.4000906310
30
0.0000000000
10
15.5219326399
20
39.3080125532
30
0.0000000000
10
15.3005988306
20
39.2370243123
30
0.0000000000
10
15.1837303445
20
39.1980472112
30
0.0000000000
11
16.8668390608
21
39.5028524119
31
0.0000000000
11
16.8525234040
21
39.5373075929
31
0.0000000000
11
16.7992236245
21
39.5604708252
31
0.0000000000
11
16.7005130298
21
39.5678347508
31
0.0000000000
11
16.5539735936
21
39.5564756438
31
0.0000000000
11
16.3614273788
21
39.5251654970
31
0.0000000000
11
16.1262014046
21
39.4738438697
31
0.0000000000
11
15.8502929408
21
39.4024172934
31
0.0000000000
11
15.5357335928
21
39.3107007962
31
0.0000000000
11
15.1837303445
21
39.1980472112
31
0.0000000000
0
SPLINE
5
341
100
AcDbEntity
8
0
100
AcDbSpline
62
9
6
CONTINUOUS
70
0
71
3
72
10
73
6
74
4
42
0.0000001000
43
0.0000001000
44
0.0000000001
12
0.6890894078
22
-0.1744665457
32
0.0000000000
13
0.5947691418
23
0.3892716987
33
0.0000000000
40
0.0000000000
40
0.0000000000
40
0.0000000000
40
0.0000000000
40
0.3626529934
40
0.6963683951
40
1.0000000000
40
1.0000000000
40
1.0000000000
40
1.0000000000
10
11.2458970827
20
34.4941695062
30
0.0000000000
10
11.3291971948
20
34.4730792345
30
0.0000000000
10
11.4941329779
20
34.4489843755
30
0.0000000000
10
11.7324460093
20
34.4723590271
30
0.0000000000
10
11.8748519374
20
34.5316637947
30
0.0000000000
10
11.9350488405
20
34.5710621916
30
0.0000000000
11
11.2458970827
21
34.4941695062
31
0.0000000000
11
11.5012629435
21
34.4589324334
31
0.0000000000
11
11.7370157596
21
34.4852367515
31
0.0000000000
11
11.9350488405
21
34.5710621916
31
0.0000000000
0
SPLINE
5
342
100
AcDbEntity
8
0
100
AcDbSpline
62
9
6
CONTINUOUS
70
0
71
3
72
13
73
9
74
7
42
0.0000001000
43
0.0000001000
44
0.0000000001
12
-0.9034385608
22
-1.0524948949
32
0.0000000000
13
-1.3619013013
23
-0.2630049096
33
0.0000000000
40
0.0000000000
40
0.0000000000
40
0.0000000000
40
0.0000000000
40
0.2162566786
40
0.4111791686
40
0.5858215298
40
0.7413658780
40
0.8791099270
40
1.0000000000
40
1.0000000000
40
1.0000000000
40
1.0000000000
10
6.6143981916
20
25.8881951762
30
0.0000000000
10
6.5492733174
20
25.8123254928
30
0.0000000000
10
6.4198268809
20
25.6727476236
30
0.0000000000
10
6.2193141704
20
25.4901606968
30
0.0000000000
10
6.0253046049
20
25.3435725397
30
0.0000000000
10
5.8397874250
20
25.2313789158
30
0.0000000000
10
5.6648137623
20
25.1523660766
30
0.0000000000
10
5.5493788600
20
25.1189556927
30
0.0000000000
10
5.4944987441
20
25.1083574651
30
0.0000000000
11
6.6143981916
21
25.8881951762
31
0.0000000000
11
6.4099874100
21
25.6686653258
31
0.0000000000
11
6.2095774715
21
25.4871831394
31
0.0000000000
11
6.0157547262
21
25.3418799013
31
0.0000000000
11
5.8305857391
21
25.2311527648
31
0.0000000000
11
5.6559428614
21
25.1536690854
31
0.0000000000
11
5.4944987441
21
25.1083574651
31
0.0000000000
0
SPLINE
5
343
100
AcDbEntity
8
0
100
AcDbSpline
62
9
6
CONTINUOUS
70
0
71
3
72
10
73
6
74
4
42
0.0000001000
43
0.0000001000
44
0.0000000001
12
-0.6890896590
22
-0.1744666093
32
0.0000000000
13
-0.5947693586
23
0.3892718407
33
0.0000000000
40
0.0000000000
40
0.0000000000
40
0.0000000000
40
0.0000000000
40
0.3625018685
40
0.6966355479
40
1.0000000000
40
1.0000000000
40
1.0000000000
40
1.0000000000
10
-11.6719216729
20
34.4941695062
30
0.0000000000
10
-11.7551871025
20
34.4730880156
30
0.0000000000
10
-11.9201818426
20
34.4489770560
30
0.0000000000
10
-12.1585047120
20
34.4723587637
30
0.0000000000
10
-12.3009294704
20
34.5316984454
30
0.0000000000
10
-12.3610734306
20
34.5710621916
30
0.0000000000
11
-11.6719216729
21
34.4941695062
31
0.0000000000
11
-11.9271794579
21
34.4589344049
31
0.0000000000
11
-12.1632263828
21
34.4852848644
31
0.0000000000
11
-12.3610734306
21
34.5710621916
31
0.0000000000
0
SPLINE
5
344
100
AcDbEntity
8
0
100
AcDbSpline
62
9
6
CONTINUOUS
70
0
71
3
72
13
73
9
74
7
42
0.0000001000
43
0.0000001000
44
0.0000000001
12
-1.3619014189
22
0.2630043078
32
0.0000000000
13
-0.9034384981
23
1.0524949505
33
0.0000000000
40
0.0000000000
40
0.0000000000
40
0.0000000000
40
0.0000000000
40
0.1208900765
40
0.2586341217
40
0.4141784712
40
0.5888208319
40
0.7837433208
40
1.0000000000
40
1.0000000000
40
1.0000000000
40
1.0000000000
10
-5.9205233343
20
25.1083574651
30
0.0000000000
10
-5.9754034565
20
25.1189556688
30
0.0000000000
10
-6.0908383595
20
25.1523660652
30
0.0000000000
10
-6.2658120102
20
25.2313789260
30
0.0000000000
10
-6.4513291975
20
25.3435725351
30
0.0000000000
10
-6.6453387603
20
25.4901606972
30
0.0000000000
10
-6.8458514675
20
25.6727476263
30
0.0000000000
10
-6.9752979120
20
25.8123254886
30
0.0000000000
10
-7.0404227818
20
25.8881951762
30
0.0000000000
11
-5.9205233343
21
25.1083574651
31
0.0000000000
11
-6.0819674599
21
25.1536690746
31
0.0000000000
11
-6.2566103260
21
25.2311527678
31
0.0000000000
11
-6.4417793174
21
25.3418799007
31
0.0000000000
11
-6.6356020617
21
25.4871831394
31
0.0000000000
11
-6.8360119985
21
25.6686653259
31
0.0000000000
11
-7.0404227818
21
25.8881951762
31
0.0000000000
0
SPLINE
5
345
100
AcDbEntity
8
0
100
AcDbSpline
62
9
6
CONTINUOUS
70
0
71
3
72
10
73
6
74
4
42
0.0000001000
43
0.0000001000
44
0.0000000001
12
-0.2367250365
22
-7.2573431609
32
0.0000000000
13
-0.2329641605
23
-7.2574648602
33
0.0000000000
40
0.0000000000
40
0.0000000000
40
0.0000000000
40
0.0000000000
40
0.3334264582
40
0.6667598138
40
1.0000000000
40
1.0000000000
40
1.0000000000
40
1.0000000000
10
-102.5132673484
20
22.7437045295
30
0.0000000000
10
-102.5395774786
20
21.9371077875
30
0.0000000000
10
-102.5920637654
20
20.3241353954
30
0.0000000000
10
-102.6703780155
20
17.9050016919
30
0.0000000000
10
-102.7222910076
20
16.2924618307
30
0.0000000000
10
-102.7481686810
20
15.4863021836
30
0.0000000000
11
-102.5132673484
21
22.7437045295
31
0.0000000000
11
-102.5920037025
21
20.3239079821
31
0.0000000000
11
-102.6703129881
21
17.9047739668
31
0.0000000000
11
-102.7481686810
21
15.4863021836
31
0.0000000000
0
SPLINE
5
346
100
AcDbEntity
8
0
100
AcDbSpline
62
9
6
CONTINUOUS
70
0
71
3
72
10
73
6
74
4
42
0.0000001000
43
0.0000001000
44
0.0000000001
12
-0.3672127028
22
-12.1289460021
32
0.0000000000
13
-0.3956010329
23
-12.1280532697
33
0.0000000000
40
0.0000000000
40
0.0000000000
40
0.0000000000
40
0.0000000000
40
0.3414962849
40
0.6747835763
40
1.0000000000
40
1.0000000000
40
1.0000000000
40
1.0000000000
10
-102.1326583107
20
34.8722350695
30
0.0000000000
10
-102.1744589019
20
33.4915717363
30
0.0000000000
10
-102.2579561891
20
30.7634610342
30
0.0000000000
10
-102.3847277287
20
26.7206132436
30
0.0000000000
10
-102.4703820307
20
24.0584518996
30
0.0000000000
10
-102.5132673484
20
22.7437045295
30
0.0000000000
11
-102.1326583107
21
34.8722350695
31
0.0000000000
11
-102.2594960024
21
30.7302887926
31
0.0000000000
11
-102.3863079872
21
26.6880016152
31
0.0000000000
11
-102.5132673484
21
22.7437045295
31
0.0000000000
0
SPLINE
5
347
100
AcDbEntity
8
0
100
AcDbSpline
62
9
6
CONTINUOUS
70
0
71
3
72
16
73
12
74
10
42
0.0000001000
43
0.0000001000
44
0.0000000001
12
-1.6690967396
22
0.5566645632
32
0.0000000000
13
0.0881574019
23
-1.7572670925
33
0.0000000000
40
0.0000000000
40
0.0000000000
40
0.0000000000
40
0.0000000000
40
0.2100570049
40
0.3962814297
40
0.5582636099
40
0.6950994787
40
0.8059706591
40
0.8895062951
40
0.9457644282
40
0.9787943672
40
1.0000000000
40
1.0000000000
40
1.0000000000
40
1.0000000000
10
-15.6097549347
20
39.1980472112
30
0.0000000000
10
-15.7266234220
20
39.2370243081
30
0.0000000000
10
-15.9479572381
20
39.3080125267
30
0.0000000000
10
-16.2622182846
20
39.4000906447
30
0.0000000000
10
-16.5374657747
20
39.4719500702
30
0.0000000000
10
-16.7722406972
20
39.5240997364
30
0.0000000000
10
-16.9635164231
20
39.5564509660
30
0.0000000000
10
-17.1110252750
20
39.5704465410
30
0.0000000000
10
-17.2108585111
20
39.5657806027
30
0.0000000000
10
-17.2777152487
20
39.5482008314
30
0.0000000000
10
-17.2934867955
20
39.5152737321
30
0.0000000000
10
-17.2928636510
20
39.5028524119
30
0.0000000000
11
-15.6097549347
21
39.1980472112
31
0.0000000000
11
-15.9617581869
21
39.3107007826
31
0.0000000000
11
-16.2763175299
21
39.4024172980
31
0.0000000000
11
-16.5522259949
21
39.4738438685
31
0.0000000000
11
-16.7874519690
21
39.5251654972
31
0.0000000000
11
-16.9799981838
21
39.5564756438
31
0.0000000000
11
-17.1265376200
21
39.5678347509
31
0.0000000000
11
-17.2252482143
21
39.5604708248
31
0.0000000000
11
-17.2785479946
21
39.5373075933
31
0.0000000000
11
-17.2928636510
21
39.5028524119
31
0.0000000000
0
SPLINE
5
348
100
AcDbEntity
8
0
100
AcDbSpline
62
9
6
CONTINUOUS
70
0
71
3
72
13
73
9
74
7
42
0.0000001000
43
0.0000001000
44
0.0000000001
12
-1.5443946205
22
0.0000681956
32
0.0000000000
13
-0.0460061908
23
-1.5437092275
33
0.0000000000
40
0.0000000000
40
0.0000000000
40
0.0000000000
40
0.0000000000
40
0.1356535110
40
0.2861094686
40
0.4501292462
40
0.6262547690
40
0.8112852055
40
1.0000000000
40
1.0000000000
40
1.0000000000
40
1.0000000000
10
-101.1502773697
20
35.8683592976
30
0.0000000000
10
-101.2201115539
20
35.8683623812
30
0.0000000000
10
-101.3678959812
20
35.8520912704
30
0.0000000000
10
-101.5882397797
20
35.7734041353
30
0.0000000000
10
-101.7996142569
20
35.6299034780
30
0.0000000000
10
-101.9773955959
20
35.4217512334
30
0.0000000000
10
-102.0980431741
20
35.1619217095
30
0.0000000000
10
-102.1297642944
20
34.9693419927
30
0.0000000000
10
-102.1326583107
20
34.8722350695
30
0.0000000000
11
-101.1502773697
21
35.8683592976
31
0.0000000000
11
-101.3585122753
21
35.8453474796
31
0.0000000000
11
-101.5773772612
21
35.7673035531
31
0.0000000000
11
-101.7870960359
21
35.6252309265
31
0.0000000000
11
-101.9641508529
21
35.4187374192
31
0.0000000000
11
-102.0849107518
21
35.1597473987
31
0.0000000000
11
-102.1326583107
21
34.8722350695
31
0.0000000000
0
SPLINE
5
349
100
AcDbEntity
8
0
100
AcDbSpline
62
9
6
CONTINUOUS
70
0
71
3
72
13
73
9
74
7
42
0.0000001000
43
0.0000001000
44
0.0000000001
12
-2.0509795546
22
-0.0002749525
32
0.0000000000
13
-1.4503454890
23
1.4501776345
33
0.0000000000
40
0.0000000000
40
0.0000000000
40
0.0000000000
40
0.0000000000
40
0.1371847838
40
0.2846662154
40
0.4431748465
40
0.6141858634
40
0.7992644889
40
1.0000000000
40
1.0000000000
40
1.0000000000
40
1.0000000000
10
-5.9205233343
20
24.3423130220
30
0.0000000000
10
-6.0143110632
20
24.3423004489
30
0.0000000000
10
-6.2091735149
20
24.3578401369
30
0.0000000000
10
-6.5054420889
20
24.4256237753
30
0.0000000000
10
-6.8114114058
20
24.5411873208
30
0.0000000000
10
-7.1227674916
20
24.7069308641
30
0.0000000000
10
-7.4353028390
20
24.9257892495
30
0.0000000000
10
-7.6325292585
20
25.1020093689
30
0.0000000000
10
-7.7295745395
20
25.1990434184
30
0.0000000000
11
-5.9205233343
21
24.3423130220
31
0.0000000000
11
-6.2010663394
21
24.3637808257
31
0.0000000000
11
-6.4961460061
21
24.4302863875
31
0.0000000000
11
-6.8006166744
21
24.5442438301
31
0.0000000000
11
-7.1106615389
21
24.7082279801
31
0.0000000000
11
-7.4220681376
21
24.9252910617
31
0.0000000000
11
-7.7295745395
21
25.1990434184
31
0.0000000000
0
SPLINE
5
34A
100
AcDbEntity
8
0
100
AcDbSpline
62
9
6
CONTINUOUS
70
0
71
3
72
13
73
9
74
7
42
0.0000001000
43
0.0000001000
44
0.0000000001
12
-1.4503456715
22
-1.4501774495
32
0.0000000000
13
-2.0509795530
23
0.0002740301
33
0.0000000000
40
0.0000000000
40
0.0000000000
40
0.0000000000
40
0.0000000000
40
0.2007355110
40
0.3858141366
40
0.5568251536
40
0.7153337850
40
0.8628152165
40
1.0000000000
40
1.0000000000
40
1.0000000000
40
1.0000000000
10
7.3035499494
20
25.1990434184
30
0.0000000000
10
7.2065046562
20
25.1020093813
30
0.0000000000
10
7.0092782421
20
24.9257892600
30
0.0000000000
10
6.6967429078
20
24.7069308526
30
0.0000000000
10
6.3853868100
20
24.5411873329
30
0.0000000000
10
6.0794175045
20
24.4256237614
30
0.0000000000
10
5.7831489208
20
24.3578401408
30
0.0000000000
10
5.5882864728
20
24.3423004911
30
0.0000000000
10
5.4944987441
20
24.3423130220
30
0.0000000000
11
7.3035499494
21
25.1990434184
31
0.0000000000
11
6.9960435419
21
24.9252910686
31
0.0000000000
11
6.6846369510
21
24.7082279763
31
0.0000000000
11
6.3745920825
21
24.5442438339
31
0.0000000000
11
6.0701214180
21
24.4302863807
31
0.0000000000
11
5.7750417475
21
24.3637808372
31
0.0000000000
11
5.4944987441
21
24.3423130220
31
0.0000000000
0
SPLINE
5
34B
100
AcDbEntity
8
0
100
AcDbSpline
62
9
6
CONTINUOUS
70
0
71
3
72
13
73
9
74
7
42
0.0000001000
43
0.0000001000
44
0.0000000001
12
-0.0460069542
22
1.5437092016
32
0.0000000000
13
-1.5443946175
23
-0.0000651027
33
0.0000000000
40
0.0000000000
40
0.0000000000
40
0.0000000000
40
0.0000000000
40
0.1887148468
40
0.3737453302
40
0.5498708669
40
0.7138906293
40
0.8643465434
40
1.0000000000
40
1.0000000000
40
1.0000000000
40
1.0000000000
10
101.7066337205
20
34.8722350649
30
0.0000000000
10
101.7037396554
20
34.9693420134
30
0.0000000000
10
101.6720186131
20
35.1619217804
30
0.0000000000
10
101.5513709565
20
35.4217513757
30
0.0000000000
10
101.3735894608
20
35.6299034663
30
0.0000000000
10
101.1622151699
20
35.7734043793
30
0.0000000000
10
100.9418712681
20
35.8520911482
30
0.0000000000
10
100.7940869355
20
35.8683622394
30
0.0000000000
10
100.7242527794
20
35.8683592956
30
0.0000000000
11
101.7066337205
21
34.8722350649
31
0.0000000000
11
101.6588861561
21
35.1597474745
31
0.0000000000
11
101.5381261853
21
35.4187375408
31
0.0000000000
11
101.3610712809
21
35.6252310007
31
0.0000000000
11
101.1513525846
21
35.7673037002
31
0.0000000000
11
100.9324875922
21
35.8453474072
31
0.0000000000
11
100.7242527794
21
35.8683592956
31
0.0000000000
0
SPLINE
5
34C
100
AcDbEntity
8
0
100
AcDbSpline
62
9
6
CONTINUOUS
70
0
71
3
72
10
73
6
74
4
42
0.0000001000
43
0.0000001000
44
0.0000000001
12
-0.3956010333
22
12.1280532651
32
0.0000000000
13
-0.3672127025
23
12.1289459975
33
0.0000000000
40
0.0000000000
40
0.0000000000
40
0.0000000000
40
0.0000000000
40
0.3252164293
40
0.6585037210
40
1.0000000000
40
1.0000000000
40
1.0000000000
40
1.0000000000
10
102.0872427583
20
22.7437045295
30
0.0000000000
10
102.0443574398
20
24.0584519221
30
0.0000000000
10
101.9587031371
20
26.7206132889
30
0.0000000000
10
101.8319315976
20
30.7634610781
30
0.0000000000
10
101.7484343110
20
33.4915717562
30
0.0000000000
10
101.7066337205
20
34.8722350649
30
0.0000000000
11
102.0872427583
21
22.7437045295
31
0.0000000000
11
101.9602833949
21
26.6880016825
31
0.0000000000
11
101.8334714101
21
30.7302888613
31
0.0000000000
11
101.7066337205
21
34.8722350649
31
0.0000000000
0
SPLINE
5
34D
100
AcDbEntity
8
0
100
AcDbSpline
62
7
6
CONTINUOUS
70
0
71
3
72
11
73
7
74
5
42
0.0000001000
43
0.0000001000
44
0.0000000001
12
0.0000000000
22
3.4974758107
32
0.0000000000
13
3.0830455581
23
1.6645213949
33
0.0000000000
40
0.0000000000
40
0.0000000000
40
0.0000000000
40
0.0000000000
40
0.2670514624
40
0.5570766023
40
0.8830850960
40
1.0000000000
40
1.0000000000
40
1.0000000000
40
1.0000000000
10
-5.7130122951
20
30.9046951033
30
0.0000000000
10
-5.7130122951
20
31.2160304466
30
0.0000000000
10
-5.5723788999
20
31.8712371828
30
0.0000000000
10
-4.9867842533
20
32.7408054958
30
0.0000000000
10
-4.3155893037
20
33.2853298946
30
0.0000000000
10
-3.8693508035
20
33.5477188207
30
0.0000000000
10
-3.7491994783
20
33.6125879404
30
0.0000000000
11
-5.7130122951
21
30.9046951033
31
0.0000000000
11
-5.5256043397
21
31.8197063176
31
0.0000000000
11
-4.9761520159
21
32.6723610299
31
0.0000000000
11
-4.1020995916
21
33.4045522305
31
0.0000000000
11
-3.7491994783
21
33.6125879404
31
0.0000000000
0
SPLINE
5
34E
100
AcDbEntity
8
0
100
AcDbSpline
62
7
6
CONTINUOUS
70
0
71
3
72
13
73
9
74
7
42
0.0000001000
43
0.0000001000
44
0.0000000001
12
6.4570322638
22
3.4861205092
32
0.0000000000
13
6.4570322638
23
-3.4861205092
33
0.0000000000
40
0.0000000000
40
0.0000000000
40
0.0000000000
40
0.0000000000
40
0.1175699902
40
0.3049703210
40
0.5000000000
40
0.6950296790
40
0.8824300098
40
1.0000000000
40
1.0000000000
40
1.0000000000
40
1.0000000000
10
-3.7491994783
20
33.6125879404
30
0.0000000000
10
-3.4961484049
20
33.7492089918
30
0.0000000000
10
-2.8125777778
20
34.0530679219
30
0.0000000000
10
-1.6247285852
20
34.3624994292
30
0.0000000000
10
-0.2130122951
20
34.4795640440
30
0.0000000000
10
1.1987039951
20
34.3624994292
30
0.0000000000
10
2.3865531876
20
34.0530679219
30
0.0000000000
10
3.0701238148
20
33.7492089918
30
0.0000000000
10
3.3231748882
20
33.6125879404
30
0.0000000000
11
-3.7491994783
21
33.6125879404
31
0.0000000000
11
-2.9630122951
21
33.9663822990
31
0.0000000000
11
-1.6365170431
21
34.3195634448
31
0.0000000000
11
-0.2130122951
21
34.4400269565
31
0.0000000000
11
1.2104924530
21
34.3195634448
31
0.0000000000
11
2.5369877049
21
33.9663822990
31
0.0000000000
11
3.3231748882
21
33.6125879404
31
0.0000000000
0
SPLINE
5
34F
100
AcDbEntity
8
0
100
AcDbSpline
62
7
6
CONTINUOUS
70
0
71
3
72
11
73
7
74
5
42
0.0000001000
43
0.0000001000
44
0.0000000001
12
3.0830455581
22
-1.6645213949
32
0.0000000000
13
0.0000000000
23
-3.4974758107
33
0.0000000000
40
0.0000000000
40
0.0000000000
40
0.0000000000
40
0.0000000000
40
0.1169149040
40
0.4429233977
40
0.7329485376
40
1.0000000000
40
1.0000000000
40
1.0000000000
40
1.0000000000
10
3.3231748882
20
33.6125879404
30
0.0000000000
10
3.4433262133
20
33.5477188207
30
0.0000000000
10
3.8895647135
20
33.2853298946
30
0.0000000000
10
4.5607596632
20
32.7408054958
30
0.0000000000
10
5.1463543097
20
31.8712371828
30
0.0000000000
10
5.2869877049
20
31.2160304466
30
0.0000000000
10
5.2869877049
20
30.9046951033
30
0.0000000000
11
3.3231748882
21
33.6125879404
31
0.0000000000
11
3.6760750014
21
33.4045522305
31
0.0000000000
11
4.5501274257
21
32.6723610299
31
0.0000000000
11
5.0995797495
21
31.8197063176
31
0.0000000000
11
5.2869877049
21
30.9046951033
31
0.0000000000
0
SPLINE
5
350
100
AcDbEntity
8
0
100
AcDbSpline
62
9
6
CONTINUOUS
70
0
71
3
72
10
73
6
74
4
42
0.0000001000
43
0.0000001000
44
0.0000000001
12
-0.0700928068
22
2.9797909866
32
0.0000000000
13
-0.8234682754
23
2.8646059633
33
0.0000000000
40
0.0000000000
40
0.0000000000
40
0.0000000000
40
0.0000000000
40
0.3267287209
40
0.6609319146
40
1.0000000000
40
1.0000000000
40
1.0000000000
40
1.0000000000
10
17.2850719556
20
36.5588689402
30
0.0000000000
10
17.2774381778
20
36.8833967060
30
0.0000000000
10
17.2389321976
20
37.5395506874
30
0.0000000000
10
17.1092398109
20
38.5255578970
30
0.0000000000
10
16.9599096646
20
39.1790869255
30
0.0000000000
10
16.8668390608
20
39.5028524119
30
0.0000000000
11
17.2850719556
21
36.5588689402
31
0.0000000000
11
17.2278301468
21
37.5310377956
31
0.0000000000
11
17.0945909857
21
38.5182179070
31
0.0000000000
11
16.8668390608
21
39.5028524119
31
0.0000000000
0
SPLINE
5
351
100
AcDbEntity
8
0
100
AcDbSpline
62
9
6
CONTINUOUS
70
0
71
3
72
10
73
6
74
4
42
0.0000001000
43
0.0000001000
44
0.0000000001
12
-0.8234682448
22
-2.8646059711
32
0.0000000000
13
-0.0700927595
23
-2.9797909868
33
0.0000000000
40
0.0000000000
40
0.0000000000
40
0.0000000000
40
0.0000000000
40
0.3390680853
40
0.6732712806
40
1.0000000000
40
1.0000000000
40
1.0000000000
40
1.0000000000
10
-17.2928636510
20
39.5028524119
30
0.0000000000
10
-17.3859342513
20
39.1790869247
30
0.0000000000
10
-17.5352644085
20
38.5255578972
30
0.0000000000
10
-17.6649567746
20
37.5395506854
30
0.0000000000
10
-17.7034627739
20
36.8833967052
30
0.0000000000
10
-17.7110965464
20
36.5588689409
30
0.0000000000
11
-17.2928636510
21
39.5028524119
31
0.0000000000
11
-17.5206155768
21
38.5182179079
31
0.0000000000
11
-17.6538547323
21
37.5310377913
31
0.0000000000
11
-17.7110965464
21
36.5588689409
31
0.0000000000
0
SPLINE
5
352
100
AcDbEntity
8
0
100
AcDbSpline
62
9
6
CONTINUOUS
70
0
71
3
72
10
73
6
74
4
42
0.0000001000
43
0.0000001000
44
0.0000000001
12
1.3263064273
22
-4.6889878303
32
0.0000000000
13
0.9401935475
23
-4.7813943265
33
0.0000000000
40
0.0000000000
40
0.0000000000
40
0.0000000000
40
0.0000000000
40
0.2894688746
40
0.6220056136
40
1.0000000000
40
1.0000000000
40
1.0000000000
40
1.0000000000
10
-102.2502299899
20
41.5675203175
30
0.0000000000
10
-102.1222551802
20
41.1150816408
30
0.0000000000
10
-101.8671973312
20
40.1372358482
30
0.0000000000
10
-101.5017213895
20
38.5544207134
30
0.0000000000
10
-101.2687586416
20
37.4239347527
30
0.0000000000
10
-101.1502960139
20
36.8214880145
30
0.0000000000
11
-102.2502299899
21
41.5675203175
31
0.0000000000
11
-101.8908632843
21
40.2034967314
31
0.0000000000
11
-101.5241875181
21
38.6250911698
31
0.0000000000
11
-101.1502960139
21
36.8214880145
31
0.0000000000
0
SPLINE
5
353
100
AcDbEntity
8
0
100
AcDbSpline
62
9
6
CONTINUOUS
70
0
71
3
72
10
73
6
74
4
42
0.0000001000
43
0.0000001000
44
0.0000000001
12
0.9401979453
22
4.7814167052
32
0.0000000000
13
1.3263126378
23
4.6890097751
33
0.0000000000
40
0.0000000000
40
0.0000000000
40
0.0000000000
40
0.0000000000
40
0.3780455155
40
0.7105757591
40
1.0000000000
40
1.0000000000
40
1.0000000000
40
1.0000000000
10
100.7242698611
20
36.8214880140
30
0.0000000000
10
100.8427490668
20
37.4240190618
30
0.0000000000
10
101.0757463783
20
38.5545765979
30
0.0000000000
10
101.4411698913
20
40.1374135969
30
0.0000000000
10
101.6963379545
20
41.1151492859
30
0.0000000000
10
101.8242936307
20
41.5675203175
30
0.0000000000
11
100.7242698611
21
36.8214880140
31
0.0000000000
11
101.0982180616
21
38.6253426685
31
0.0000000000
11
101.4648946845
21
40.2037233218
31
0.0000000000
11
101.8242936307
21
41.5675203175
31
0.0000000000
0
SPLINE
5
354
100
AcDbEntity
8
0
100
AcDbSpline
62
9
6
CONTINUOUS
70
0
71
3
72
10
73
6
74
4
42
0.0000001000
43
0.0000001000
44
0.0000000001
12
-0.0701154489
22
2.9974220011
32
0.0000000000
13
-0.8240810573
23
2.8827669417
33
0.0000000000
40
0.0000000000
40
0.0000000000
40
0.0000000000
40
0.0000000000
40
0.3270788542
40
0.6611378333
40
1.0000000000
40
1.0000000000
40
1.0000000000
40
1.0000000000
10
17.9742300198
20
36.8214880664
30
0.0000000000
10
17.9665855929
20
37.1482858510
30
0.0000000000
10
17.9281724122
20
37.8085387480
30
0.0000000000
10
17.7983958639
20
38.8004586370
30
0.0000000000
10
17.6490741161
20
39.4576795559
30
0.0000000000
10
17.5559908186
20
39.7832997733
30
0.0000000000
11
17.9742300198
21
36.8214880664
31
0.0000000000
11
17.9169800469
21
37.8004770878
31
0.0000000000
11
17.7837415694
21
38.7931650190
31
0.0000000000
11
17.5559908186
21
39.7832997733
31
0.0000000000
0
SPLINE
5
355
100
AcDbEntity
8
0
100
AcDbSpline
62
9
6
CONTINUOUS
70
0
71
3
72
16
73
12
74
10
42
0.0000001000
43
0.0000001000
44
0.0000000001
12
-0.6724490543
22
2.3569103207
32
0.0000000000
13
-2.4509618492
23
0.0000654467
33
0.0000000000
40
0.0000000000
40
0.0000000000
40
0.0000000000
40
0.0000000000
40
0.0288726675
40
0.0739426004
40
0.1406021071
40
0.2309106960
40
0.3441939435
40
0.4787206326
40
0.6335255512
40
0.8075179026
40
1.0000000000
40
1.0000000000
40
1.0000000000
40
1.0000000000
10
17.5559908186
20
39.7832997733
30
0.0000000000
10
17.5495190193
20
39.8059832026
30
0.0000000000
10
17.5108161173
20
39.8565470837
30
0.0000000000
10
17.4114861797
20
39.9157230645
30
0.0000000000
10
17.2565717488
20
39.9743935112
30
0.0000000000
10
17.0422001748
20
40.0283915350
30
0.0000000000
10
16.7699807291
20
40.0763220220
30
0.0000000000
10
16.4433380745
20
40.1160402966
30
0.0000000000
10
16.0659277375
20
40.1462426224
30
0.0000000000
10
15.6404141260
20
40.1655240546
30
0.0000000000
10
15.3409857703
20
40.1697917204
30
0.0000000000
10
15.1837303445
20
40.1697959195
30
0.0000000000
11
17.5559908186
21
39.7832997733
31
0.0000000000
11
17.5172304282
21
39.8425064580
31
0.0000000000
11
17.4256421362
21
39.9042643046
31
0.0000000000
11
17.2739555257
21
39.9649616399
31
0.0000000000
11
17.0599488629
21
40.0214756237
31
0.0000000000
11
16.7867626408
21
40.0710783549
31
0.0000000000
11
16.4595854453
21
40.1119466529
31
0.0000000000
11
16.0814322017
21
40.1429366754
31
0.0000000000
11
15.6554439523
21
40.1627465957
31
0.0000000000
11
15.1837303445
21
40.1697959195
31
0.0000000000
0
SPLINE
5
356
100
AcDbEntity
8
0
100
AcDbSpline
62
9
6
CONTINUOUS
70
0
71
3
72
16
73
12
74
10
42
0.0000001000
43
0.0000001000
44
0.0000000001
12
-2.4509618495
22
-0.0000650364
32
0.0000000000
13
-0.6724486849
23
-2.3569104264
33
0.0000000000
40
0.0000000000
40
0.0000000000
40
0.0000000000
40
0.0000000000
40
0.1924820979
40
0.3664744482
40
0.5212793678
40
0.6558060562
40
0.7690893040
40
0.8593978929
40
0.9260573994
40
0.9711273327
40
1.0000000000
40
1.0000000000
40
1.0000000000
40
1.0000000000
10
-15.6097549347
20
40.1697959195
30
0.0000000000
10
-15.7670103609
20
40.1697917468
30
0.0000000000
10
-16.0664387163
20
40.1655240486
30
0.0000000000
10
-16.4919523277
20
40.1462426212
30
0.0000000000
10
-16.8693626646
20
40.1160402980
30
0.0000000000
10
-17.1960053193
20
40.0763220213
30
0.0000000000
10
-17.4682247650
20
40.0283915351
30
0.0000000000
10
-17.6825963387
20
39.9743935116
30
0.0000000000
10
-17.8375107705
20
39.9157230637
30
0.0000000000
10
-17.9368407062
20
39.8565470840
30
0.0000000000
10
-17.9755436130
20
39.8059832035
30
0.0000000000
10
-17.9820154087
20
39.7832997733
30
0.0000000000
11
-15.6097549347
21
40.1697959195
31
0.0000000000
11
-16.0814685437
21
40.1627465979
31
0.0000000000
11
-16.5074567905
21
40.1429366742
31
0.0000000000
11
-16.8856100364
21
40.1119466534
31
0.0000000000
11
-17.2127872305
21
40.0710783548
31
0.0000000000
11
-17.4859734532
21
40.0214756237
31
0.0000000000
11
-17.6999801160
21
39.9649616400
31
0.0000000000
11
-17.8516667258
21
39.9042643045
31
0.0000000000
11
-17.9432550195
21
39.8425064581
31
0.0000000000
11
-17.9820154087
21
39.7832997733
31
0.0000000000
0
SPLINE
5
357
100
AcDbEntity
8
0
100
AcDbSpline
62
9
6
CONTINUOUS
70
0
71
3
72
10
73
6
74
4
42
0.0000001000
43
0.0000001000
44
0.0000000001
12
-0.8240810316
22
-2.8827669485
32
0.0000000000
13
-0.0701154017
23
-2.9974220017
33
0.0000000000
40
0.0000000000
40
0.0000000000
40
0.0000000000
40
0.0000000000
40
0.3388621669
40
0.6729211457
40
1.0000000000
40
1.0000000000
40
1.0000000000
40
1.0000000000
10
-17.9820154087
20
39.7832997733
30
0.0000000000
10
-18.0750987034
20
39.4576795550
30
0.0000000000
10
-18.2244204606
20
38.8004586381
30
0.0000000000
10
-18.3541969899
20
37.8085387471
30
0.0000000000
10
-18.3926101890
20
37.1482858514
30
0.0000000000
10
-18.4002546107
20
36.8214880667
30
0.0000000000
11
-17.9820154087
21
39.7832997733
31
0.0000000000
11
-18.2097661606
21
38.7931650190
31
0.0000000000
11
-18.3430046324
21
37.8004770878
31
0.0000000000
11
-18.4002546107
21
36.8214880667
31
0.0000000000
0
SPLINE
5
358
100
AcDbEntity
8
0
100
AcDbSpline
62
9
6
CONTINUOUS
70
0
71
3
72
10
73
6
74
4
42
0.0000001000
43
0.0000001000
44
0.0000000001
12
-0.2282090281
22
-6.9920718680
32
0.0000000000
13
-0.2247314206
23
-6.9921845053
33
0.0000000000
40
0.0000000000
40
0.0000000000
40
0.0000000000
40
0.0000000000
40
0.3334216311
40
0.6667549829
40
1.0000000000
40
1.0000000000
40
1.0000000000
40
1.0000000000
10
-103.5104779918
20
22.7762322358
30
0.0000000000
10
-103.5358412672
20
21.9991295668
30
0.0000000000
10
-103.5864437725
20
20.4451261481
30
0.0000000000
10
-103.6619625243
20
18.1144175998
30
0.0000000000
10
-103.7120364609
20
16.5608091228
30
0.0000000000
10
-103.7370000030
20
15.7841055744
30
0.0000000000
11
-103.5104779918
21
22.7762322358
31
0.0000000000
11
-103.5863879555
21
20.4449183653
31
0.0000000000
11
-103.6619028702
21
18.1142095733
31
0.0000000000
11
-103.7370000030
21
15.7841055744
31
0.0000000000
0
SPLINE
5
359
100
AcDbEntity
8
0
100
AcDbSpline
62
9
6
CONTINUOUS
70
0
71
3
72
9
73
5
74
3
42
0.0000001000
43
0.0000001000
44
0.0000000001
12
0.6254298764
22
4.6219384713
32
0.0000000000
13
0.7023786256
23
4.6108721549
33
0.0000000000
40
0.0000000000
40
0.0000000000
40
0.0000000000
40
0.0000000000
40
0.2498378969
40
1.0000000000
40
1.0000000000
40
1.0000000000
40
1.0000000000
10
-104.1744351263
20
18.1597015844
30
0.0000000000
10
-104.1223497647
20
18.5446133802
30
0.0000000000
10
-103.9106571460
20
20.0848226752
30
0.0000000000
10
-103.6861106007
20
21.6232650516
30
0.0000000000
10
-103.5104779918
20
22.7762322358
30
0.0000000000
11
-104.1744351263
21
18.1597015844
31
0.0000000000
11
-104.0157697585
21
19.3141083932
31
0.0000000000
11
-103.5104779918
21
22.7762322358
31
0.0000000000
0
SPLINE
5
35A
100
AcDbEntity
8
0
100
AcDbSpline
62
9
6
CONTINUOUS
70
0
71
3
72
10
73
6
74
4
42
0.0000001000
43
0.0000001000
44
0.0000000001
12
-0.3675357325
22
-12.1266000829
32
0.0000000000
13
-0.3958948036
23
-12.1257073769
33
0.0000000000
40
0.0000000000
40
0.0000000000
40
0.0000000000
40
0.0000000000
40
0.3415036738
40
0.6747906612
40
1.0000000000
40
1.0000000000
40
1.0000000000
40
1.0000000000
10
-103.1295613816
20
34.9024169111
30
0.0000000000
10
-103.1713996492
20
33.5219907513
30
0.0000000000
10
-103.2549707854
20
30.7943791133
30
0.0000000000
10
-103.3818432020
20
26.7523132259
30
0.0000000000
10
-103.4675617627
20
24.0906966620
30
0.0000000000
10
-103.5104779918
20
22.7762322358
30
0.0000000000
11
-103.1295613816
21
34.9024169111
31
0.0000000000
11
-103.2565112010
21
30.7611821736
31
0.0000000000
11
-103.3834248309
21
26.7196805070
31
0.0000000000
11
-103.5104779918
21
22.7762322358
31
0.0000000000
0
SPLINE
5
35B
100
AcDbEntity
8
0
100
AcDbSpline
62
9
6
CONTINUOUS
70
0
71
3
72
10
73
6
74
4
42
0.0000001000
43
0.0000001000
44
0.0000000001
12
-0.2329641605
22
7.2574648602
32
0.0000000000
13
-0.2367250365
23
7.2573431609
33
0.0000000000
40
0.0000000000
40
0.0000000000
40
0.0000000000
40
0.0000000000
40
0.3332401862
40
0.6665735418
40
1.0000000000
40
1.0000000000
40
1.0000000000
40
1.0000000000
10
102.3221440909
20
15.4863021836
30
0.0000000000
10
102.2962664175
20
16.2924618307
30
0.0000000000
10
102.2443534254
20
17.9050016919
30
0.0000000000
10
102.1660391752
20
20.3241353954
30
0.0000000000
10
102.1135528885
20
21.9371077875
30
0.0000000000
10
102.0872427583
20
22.7437045295
30
0.0000000000
11
102.3221440909
21
15.4863021836
31
0.0000000000
11
102.2442883979
21
17.9047739668
31
0.0000000000
11
102.1659791123
21
20.3239079821
31
0.0000000000
11
102.0872427583
21
22.7437045295
31
0.0000000000
0
SPLINE
5
35C
100
AcDbEntity
8
0
100
AcDbSpline
62
9
6
CONTINUOUS
70
0
71
3
72
10
73
6
74
4
42
0.0000001000
43
0.0000001000
44
0.0000000001
12
1.3251594252
22
-4.6319767551
32
0.0000000000
13
0.9403860960
23
-4.7251381093
33
0.0000000000
40
0.0000000000
40
0.0000000000
40
0.0000000000
40
0.0000000000
40
0.2893981134
40
0.6219938475
40
1.0000000000
40
1.0000000000
40
1.0000000000
40
1.0000000000
10
-104.2299190982
20
39.5916922645
30
0.0000000000
10
-104.1020862191
20
39.1448638199
30
0.0000000000
10
-103.8460958840
20
38.1791072515
30
0.0000000000
10
-103.4812163776
20
36.6150076177
30
0.0000000000
10
-103.2480519583
20
35.4977940033
30
0.0000000000
10
-103.1295613816
20
34.9024169111
30
0.0000000000
11
-104.2299190982
21
39.5916922645
31
0.0000000000
11
-103.8701605383
21
38.2446414435
31
0.0000000000
11
-103.5035077096
21
36.6847718791
31
0.0000000000
11
-103.1295613816
21
34.9024169111
31
0.0000000000
0
SPLINE
5
35D
100
AcDbEntity
8
0
100
AcDbSpline
62
9
6
CONTINUOUS
70
0
71
3
72
10
73
6
74
4
42
0.0000001000
43
0.0000001000
44
0.0000000001
12
-0.2247314206
22
6.9921845053
32
0.0000000000
13
-0.2282090281
23
6.9920718680
33
0.0000000000
40
0.0000000000
40
0.0000000000
40
0.0000000000
40
0.0000000000
40
0.3332450171
40
0.6665783689
40
1.0000000000
40
1.0000000000
40
1.0000000000
40
1.0000000000
10
103.3109754128
20
15.7841055744
30
0.0000000000
10
103.2860118708
20
16.5608091228
30
0.0000000000
10
103.2359379341
20
18.1144175997
30
0.0000000000
10
103.1604191823
20
20.4451261480
30
0.0000000000
10
103.1098166771
20
21.9991295668
30
0.0000000000
10
103.0844534016
20
22.7762322358
30
0.0000000000
11
103.3109754128
21
15.7841055744
31
0.0000000000
11
103.2358782801
21
18.1142095732
31
0.0000000000
11
103.1603633653
21
20.4449183653
31
0.0000000000
11
103.0844534016
21
22.7762322358
31
0.0000000000
0
SPLINE
5
35E
100
AcDbEntity
8
0
100
AcDbSpline
62
9
6
CONTINUOUS
70
0
71
3
72
9
73
5
74
3
42
0.0000001000
43
0.0000001000
44
0.0000000001
12
-0.6254298764
22
4.6219384713
32
0.0000000000
13
-0.7023786256
23
4.6108721549
33
0.0000000000
40
0.0000000000
40
0.0000000000
40
0.0000000000
40
0.0000000000
40
0.2498378969
40
1.0000000000
40
1.0000000000
40
1.0000000000
40
1.0000000000
10
103.7484105362
20
18.1597015844
30
0.0000000000
10
103.6963251745
20
18.5446133802
30
0.0000000000
10
103.4846325558
20
20.0848226752
30
0.0000000000
10
103.2600860106
20
21.6232650516
30
0.0000000000
10
103.0844534016
20
22.7762322358
30
0.0000000000
11
103.7484105362
21
18.1597015844
31
0.0000000000
11
103.5897451683
21
19.3141083932
31
0.0000000000
11
103.0844534016
21
22.7762322358
31
0.0000000000
0
SPLINE
5
35F
100
AcDbEntity
8
0
100
AcDbSpline
62
9
6
CONTINUOUS
70
0
71
3
72
10
73
6
74
4
42
0.0000001000
43
0.0000001000
44
0.0000000001
12
-0.3958948037
22
12.1257073722
32
0.0000000000
13
-0.3675357324
23
12.1266000782
33
0.0000000000
40
0.0000000000
40
0.0000000000
40
0.0000000000
40
0.0000000000
40
0.3252093445
40
0.6584963321
40
1.0000000000
40
1.0000000000
40
1.0000000000
40
1.0000000000
10
103.0844534016
20
22.7762322358
30
0.0000000000
10
103.0415371717
20
24.0906966844
30
0.0000000000
10
102.9558186104
20
26.7523132712
30
0.0000000000
10
102.8289461939
20
30.7943791571
30
0.0000000000
10
102.7453750585
20
33.5219907711
30
0.0000000000
10
102.7035367916
20
34.9024169064
30
0.0000000000
11
103.0844534016
21
22.7762322358
31
0.0000000000
11
102.9574002386
21
26.7196805743
31
0.0000000000
11
102.8304866087
21
30.7611822422
31
0.0000000000
11
102.7035367916
21
34.9024169064
31
0.0000000000
0
SPLINE
5
360
100
AcDbEntity
8
0
100
AcDbSpline
62
9
6
CONTINUOUS
70
0
71
3
72
10
73
6
74
4
42
0.0000001000
43
0.0000001000
44
0.0000000001
12
0.9404386171
22
4.7254020490
32
0.0000000000
13
1.3252350433
23
4.6322350325
33
0.0000000000
40
0.0000000000
40
0.0000000000
40
0.0000000000
40
0.0000000000
40
0.3780289130
40
0.7106076973
40
1.0000000000
40
1.0000000000
40
1.0000000000
40
1.0000000000
10
102.7035367916
20
34.9024169064
30
0.0000000000
10
102.8220411210
20
35.4978631064
30
0.0000000000
10
103.0552073595
20
36.6151518545
30
0.0000000000
10
103.4201680726
20
38.1793228495
30
0.0000000000
10
103.6760508906
20
39.1451280129
30
0.0000000000
10
103.8038884976
20
39.5919724004
30
0.0000000000
11
102.7035367916
21
34.9024169064
31
0.0000000000
11
103.0775289012
21
36.6849782606
31
0.0000000000
11
103.4441891224
21
38.2448541417
31
0.0000000000
11
103.8038884976
21
39.5919724004
31
0.0000000000
0
SPLINE
5
361
100
AcDbEntity
8
0
100
AcDbSpline
62
9
6
CONTINUOUS
70
0
71
3
72
10
73
6
74
4
42
0.0000001000
43
0.0000001000
44
0.0000000001
12
0.5572218660
22
0.5063496339
32
0.0000000000
13
0.7529166905
23
0.0016176616
33
0.0000000000
40
0.0000000000
40
0.0000000000
40
0.0000000000
40
0.0000000000
40
0.3306182691
40
0.6644472180
40
1.0000000000
40
1.0000000000
40
1.0000000000
40
1.0000000000
10
17.2837166090
20
36.5575135936
30
0.0000000000
10
17.3451258520
20
36.6133164068
30
0.0000000000
10
17.4834016319
20
36.7101816853
30
0.0000000000
10
17.7199714192
20
36.8005301501
30
0.0000000000
10
17.8886539367
20
36.8213072058
30
0.0000000000
10
17.9728683668
20
36.8214881428
30
0.0000000000
11
17.2837166090
21
36.5575135936
31
0.0000000000
11
17.4874159750
21
36.7005940256
31
0.0000000000
11
17.7221320880
21
36.7905003193
31
0.0000000000
11
17.9728683668
21
36.8214881428
31
0.0000000000
0
SPLINE
5
362
100
AcDbEntity
8
0
100
AcDbSpline
62
7
6
CONTINUOUS
70
0
71
3
72
11
73
7
74
5
42
0.0000001000
43
0.0000001000
44
0.0000000001
12
0.9860114519
22
-0.6154707964
32
0.0000000000
13
1.1618117388
23
-0.0000351673
33
0.0000000000
40
0.0000000000
40
0.0000000000
40
0.0000000000
40
0.0000000000
40
0.0458293964
40
0.3976922812
40
0.7632532143
40
1.0000000000
40
1.0000000000
40
1.0000000000
40
1.0000000000
10
-102.4466379535
20
-43.0193825971
30
0.0000000000
10
-102.4315751836
20
-43.0287848155
30
0.0000000000
10
-102.2996985002
20
-43.1084954117
30
0.0000000000
10
-102.0283145666
20
-43.2298594287
30
0.0000000000
10
-101.6657821719
20
-43.3099378175
30
0.0000000000
10
-101.4323389577
20
-43.3238311920
30
0.0000000000
10
-101.3406538928
20
-43.3238339672
30
0.0000000000
11
-102.4466379535
21
-43.0193825971
31
0.0000000000
11
-102.4010541590
21
-43.0469374756
31
0.0000000000
11
-102.0289772562
21
-43.2147238550
31
0.0000000000
11
-101.6151456072
21
-43.3072459171
31
0.0000000000
11
-101.3406538928
21
-43.3238339672
31
0.0000000000
0
SPLINE
5
363
100
AcDbEntity
8
0
100
AcDbSpline
62
7
6
CONTINUOUS
70
0
71
3
72
11
73
7
74
5
42
0.0000001000
43
0.0000001000
44
0.0000000001
12
1.1617267831
22
0.0000424862
32
0.0000000000
13
0.9860079988
23
0.6154649208
33
0.0000000000
40
0.0000000000
40
0.0000000000
40
0.0000000000
40
0.0000000000
40
0.2464239846
40
0.6100445461
40
0.9601592443
40
1.0000000000
40
1.0000000000
40
1.0000000000
40
1.0000000000
10
100.9146291053
20
-43.3238351278
30
0.0000000000
10
101.0100548863
20
-43.3238316380
30
0.0000000000
10
101.2465036928
20
-43.3091821453
30
0.0000000000
10
101.6109157452
20
-43.2268722363
30
0.0000000000
10
101.8783587921
20
-43.1059560789
30
0.0000000000
10
102.0075197554
20
-43.0275570376
30
0.0000000000
10
102.0206141900
20
-43.0193835084
30
0.0000000000
11
100.9146291053
21
-43.3238351278
31
0.0000000000
11
101.2002768755
21
-43.3058536270
31
0.0000000000
11
101.6114781331
21
-43.2118704373
31
0.0000000000
11
101.9810312792
21
-43.0434114811
31
0.0000000000
11
102.0206141900
21
-43.0193835084
31
0.0000000000
0
SPLINE
5
364
100
AcDbEntity
8
0
100
AcDbSpline
62
7
6
CONTINUOUS
70
0
71
3
72
10
73
6
74
4
42
0.0000001000
43
0.0000001000
44
0.0000000001
12
4.4814536356
22
2.7836397600
32
0.0000000000
13
2.5737025027
23
4.6034711213
33
0.0000000000
40
0.0000000000
40
0.0000000000
40
0.0000000000
40
0.0000000000
40
0.2865838905
40
0.6317796435
40
1.0000000000
40
1.0000000000
40
1.0000000000
40
1.0000000000
10
102.0174707229
20
-43.0213248453
30
0.0000000000
10
102.4455748623
20
-42.7554094079
30
0.0000000000
10
103.3381930738
20
-42.0826267543
30
0.0000000000
10
104.5345258138
20
-40.7828973437
30
0.0000000000
10
105.2217648099
20
-39.7269763620
30
0.0000000000
10
105.5376613609
20
-39.1619457696
30
0.0000000000
11
102.0174707229
21
-43.0213248453
31
0.0000000000
11
103.2272339218
21
-42.1145152377
31
0.0000000000
11
104.4680590823
21
-40.7826977017
31
0.0000000000
11
105.5376613609
21
-39.1619457696
31
0.0000000000
0
SPLINE
5
365
100
AcDbEntity
8
0
100
AcDbSpline
62
7
6
CONTINUOUS
70
0
71
3
72
9
73
5
74
3
42
0.0000001000
43
0.0000001000
44
0.0000000001
12
-0.1125401008
22
0.2012201589
32
0.0000000000
13
-0.0817565393
23
0.2156060874
33
0.0000000000
40
0.0000000000
40
0.0000000000
40
0.0000000000
40
0.0000000000
40
0.4192853281
40
1.0000000000
40
1.0000000000
40
1.0000000000
40
1.0000000000
10
-105.9636777632
20
-39.1619402149
30
0.0000000000
10
-105.9794065675
20
-39.1338173281
30
0.0000000000
10
-106.0148907178
20
-39.0656135125
30
0.0000000000
10
-106.0452653030
20
-38.9949351732
30
0.0000000000
10
-106.0610910437
20
-38.9531999671
30
0.0000000000
11
-105.9636777632
21
-39.1619402149
31
0.0000000000
11
-106.0082642722
21
-39.0761885880
31
0.0000000000
11
-106.0610910437
21
-38.9531999671
31
0.0000000000
0
SPLINE
5
366
100
AcDbEntity
8
0
100
AcDbSpline
62
7
6
CONTINUOUS
70
0
71
3
72
10
73
6
74
4
42
0.0000001000
43
0.0000001000
44
0.0000000001
12
2.5737494750
22
-4.6035575109
32
0.0000000000
13
4.4814258516
23
-2.7835746366
33
0.0000000000
40
0.0000000000
40
0.0000000000
40
0.0000000000
40
0.0000000000
40
0.3670871747
40
0.7123325738
40
1.0000000000
40
1.0000000000
40
1.0000000000
40
1.0000000000
10
-105.9636837916
20
-39.1619497309
30
0.0000000000
10
-105.6487536506
20
-39.7252520375
30
0.0000000000
10
-104.9627887509
20
-40.7796828953
30
0.0000000000
10
-103.7672081992
20
-42.0801029980
30
0.0000000000
10
-102.8731955542
20
-42.7544239678
30
0.0000000000
10
-102.4434754741
20
-43.0213385515
30
0.0000000000
11
-105.9636837916
21
-39.1619497309
31
0.0000000000
11
-104.8977548477
21
-40.7779953663
31
0.0000000000
11
-103.6575104431
21
-42.1107226460
31
0.0000000000
11
-102.4434754741
21
-43.0213385515
31
0.0000000000
0
SPLINE
5
367
100
AcDbEntity
8
0
100
AcDbSpline
62
7
6
CONTINUOUS
70
0
71
3
72
9
73
5
74
3
42
0.0000001000
43
0.0000001000
44
0.0000000001
12
-0.0817842232
22
-0.2157365301
32
0.0000000000
13
-0.1126060060
23
-0.2013381279
33
0.0000000000
40
0.0000000000
40
0.0000000000
40
0.0000000000
40
0.0000000000
40
0.5757041814
40
1.0000000000
40
1.0000000000
40
1.0000000000
40
1.0000000000
10
105.6351145073
20
-38.9530741071
30
0.0000000000
10
105.6194200008
20
-38.9944742480
30
0.0000000000
10
105.5890592289
20
-39.0652052986
30
0.0000000000
10
105.5535796940
20
-39.1334630168
30
0.0000000000
10
105.5376536081
20
-39.1619386587
30
0.0000000000
11
105.6351145073
21
-38.9530741071
31
0.0000000000
11
105.5827658154
21
-39.0750948215
31
0.0000000000
11
105.5376536081
21
-39.1619386587
31
0.0000000000
0
SPLINE
5
368
100
AcDbEntity
8
0
100
AcDbSpline
62
9
6
CONTINUOUS
70
0
71
3
72
9
73
5
74
3
42
0.0000001000
43
0.0000001000
44
0.0000000001
12
0.2981799251
22
0.0004487808
32
0.0000000000
13
0.2957933319
23
0.0385837664
33
0.0000000000
40
0.0000000000
40
0.0000000000
40
0.0000000000
40
0.0000000000
40
0.7523825246
40
1.0000000000
40
1.0000000000
40
1.0000000000
40
1.0000000000
10
103.7515112816
20
-40.0919107875
30
0.0000000000
10
103.8262930699
20
-40.0917982359
30
0.0000000000
10
103.9257470877
20
-40.0868986058
30
0.0000000000
10
104.0245551961
20
-40.0756217639
30
0.0000000000
10
104.0489697288
20
-40.0724370922
30
0.0000000000
11
103.7515112816
21
-40.0919107875
31
0.0000000000
11
103.9755823638
21
-40.0808154351
31
0.0000000000
11
104.0489697288
21
-40.0724370922
31
0.0000000000
0
SPLINE
5
369
100
AcDbEntity
8
0
100
AcDbSpline
62
9
6
CONTINUOUS
70
0
71
3
72
8
73
4
74
2
42
0.0000001000
43
0.0000001000
44
0.0000000001
12
0.1458635232
22
0.0190266767
32
0.0000000000
13
0.1443285199
23
0.0283936763
33
0.0000000000
40
0.0000000000
40
0.0000000000
40
0.0000000000
40
0.0000000000
40
1.0000000000
40
1.0000000000
40
1.0000000000
40
1.0000000000
10
104.0489697288
20
-40.0724370922
30
0.0000000000
10
104.0975909032
20
-40.0660948667
30
0.0000000000
10
104.1460055212
20
-40.0581966615
30
0.0000000000
10
104.1941150278
20
-40.0487321028
30
0.0000000000
11
104.0489697288
21
-40.0724370922
31
0.0000000000
11
104.1941150278
21
-40.0487321028
31
0.0000000000
0
SPLINE
5
36A
100
AcDbEntity
8
0
100
AcDbSpline
62
9
6
CONTINUOUS
70
0
71
3
72
15
73
11
74
9
42
0.0000001000
43
0.0000001000
44
0.0000000001
12
1.4886144428
22
0.2928543622
32
0.0000000000
13
0.8442420233
23
1.2609864051
33
0.0000000000
40
0.0000000000
40
0.0000000000
40
0.0000000000
40
0.0000000000
40
0.1444208455
40
0.2864371878
40
0.4249925809
40
0.5611287362
40
0.6960379181
40
0.8285124685
40
0.9575264153
40
1.0000000000
40
1.0000000000
40
1.0000000000
40
1.0000000000
10
104.1941150278
20
-40.0487321028
30
0.0000000000
10
104.2657773466
20
-40.0346340112
30
0.0000000000
10
104.4065661618
20
-39.9997795359
30
0.0000000000
10
104.6093105390
20
-39.9276105708
30
0.0000000000
10
104.7999478078
20
-39.8371178784
30
0.0000000000
10
104.9771356936
20
-39.7292337135
30
0.0000000000
10
105.1393001764
20
-39.6048029228
30
0.0000000000
10
105.2839865593
20
-39.4655331942
30
0.0000000000
10
105.3819303533
20
-39.3466805146
30
0.0000000000
10
105.4316258445
20
-39.2755609638
30
0.0000000000
10
105.4435785062
20
-39.2577080928
30
0.0000000000
11
104.1941150278
21
-40.0487321028
31
0.0000000000
11
104.4066948472
21
-39.9959823225
31
0.0000000000
11
104.6095548457
21
-39.9236192426
31
0.0000000000
11
104.7993145495
21
-39.8333617656
31
0.0000000000
11
104.9755664947
21
-39.7258353323
31
0.0000000000
11
105.1377687802
21
-39.6011269192
31
0.0000000000
11
105.2823786004
21
-39.4616547340
31
0.0000000000
11
105.4066677579
21
-39.3105409517
31
0.0000000000
11
105.4435785062
21
-39.2577080928
31
0.0000000000
0
SPLINE
5
36B
100
AcDbEntity
8
0
100
AcDbSpline
62
9
6
CONTINUOUS
70
0
71
3
72
9
73
5
74
3
42
0.0000001000
43
0.0000001000
44
0.0000000001
12
0.0817065605
22
0.1220394853
32
0.0000000000
13
0.0701056170
23
0.1290575839
33
0.0000000000
40
0.0000000000
40
0.0000000000
40
0.0000000000
40
0.0000000000
40
0.8739584549
40
1.0000000000
40
1.0000000000
40
1.0000000000
40
1.0000000000
10
105.4435785062
20
-39.2577080928
30
0.0000000000
10
105.4673812193
20
-39.2221556128
30
0.0000000000
10
105.4930022911
20
-39.1803950656
30
0.0000000000
10
105.5166251140
20
-39.1375143203
30
0.0000000000
10
105.5195705208
20
-39.1320921145
30
0.0000000000
11
105.4435785062
21
-39.2577080928
31
0.0000000000
11
105.5106384547
21
-39.1483060351
31
0.0000000000
11
105.5195705208
21
-39.1320921145
31
0.0000000000
0
SPLINE
5
36C
100
AcDbEntity
8
0
100
AcDbSpline
62
7
6
CONTINUOUS
70
0
71
3
72
8
73
4
74
2
42
0.0000001000
43
0.0000001000
44
0.0000000001
12
-0.0004126499
22
0.1608251059
32
0.0000000000
13
0.0001487025
23
0.1608258251
33
0.0000000000
40
0.0000000000
40
0.0000000000
40
0.0000000000
40
0.0000000000
40
1.0000000000
40
1.0000000000
40
1.0000000000
40
1.0000000000
10
103.7515112829
20
-40.0919133793
30
0.0000000000
10
103.7513737329
20
-40.0383050106
30
0.0000000000
10
103.7514140809
20
-39.9846964124
30
0.0000000000
10
103.7514636484
20
-39.9310878041
30
0.0000000000
11
103.7515112829
21
-40.0919133793
31
0.0000000000
11
103.7514636484
21
-39.9310878041
31
0.0000000000
0
SPLINE
5
36D
100
AcDbEntity
8
0
100
AcDbSpline
62
7
6
CONTINUOUS
70
0
71
3
72
8
73
4
74
2
42
0.0000001000
43
0.0000001000
44
0.0000000001
12
0.0004122912
22
0.1608251066
32
0.0000000000
13
-0.0001485732
23
0.1608258246
33
0.0000000000
40
0.0000000000
40
0.0000000000
40
0.0000000000
40
0.0000000000
40
1.0000000000
40
1.0000000000
40
1.0000000000
40
1.0000000000
10
-104.1775358767
20
-40.0919133793
30
0.0000000000
10
-104.1773984463
20
-40.0383050104
30
0.0000000000
10
-104.1774387592
20
-39.9846964123
30
0.0000000000
10
-104.1774882836
20
-39.9310878041
30
0.0000000000
11
-104.1775358767
21
-40.0919133793
31
0.0000000000
11
-104.1774882836
21
-39.9310878041
31
0.0000000000
0
SPLINE
5
36E
100
AcDbEntity
8
0
100
AcDbSpline
62
9
6
CONTINUOUS
70
0
71
3
72
9
73
5
74
3
42
0.0000001000
43
0.0000001000
44
0.0000000001
12
0.0701056461
22
-0.1290576517
32
0.0000000000
13
0.0817066014
23
-0.1220395463
33
0.0000000000
40
0.0000000000
40
0.0000000000
40
0.0000000000
40
0.0000000000
40
0.1260419816
40
1.0000000000
40
1.0000000000
40
1.0000000000
40
1.0000000000
10
-105.9455951516
20
-39.1320920598
30
0.0000000000
10
-105.9426497334
20
-39.1375142872
30
0.0000000000
10
-105.9190268996
20
-39.1803950545
30
0.0000000000
10
-105.8934058150
20
-39.2221556226
30
0.0000000000
10
-105.8696031019
20
-39.2577081026
30
0.0000000000
11
-105.9455951516
21
-39.1320920598
31
0.0000000000
11
-105.9366630505
21
-39.1483060448
31
0.0000000000
11
-105.8696031019
21
-39.2577081026
31
0.0000000000
0
SPLINE
5
36F
100
AcDbEntity
8
0
100
AcDbSpline
62
9
6
CONTINUOUS
70
0
71
3
72
15
73
11
74
9
42
0.0000001000
43
0.0000001000
44
0.0000000001
12
0.8442420244
22
-1.2609864061
32
0.0000000000
13
1.4886144441
23
-0.2928543634
33
0.0000000000
40
0.0000000000
40
0.0000000000
40
0.0000000000
40
0.0000000000
40
0.0424735847
40
0.1714875315
40
0.3039620819
40
0.4388712638
40
0.5750074190
40
0.7135628120
40
0.8555791544
40
1.0000000000
40
1.0000000000
40
1.0000000000
40
1.0000000000
10
-105.8696031019
20
-39.2577081026
30
0.0000000000
10
-105.8576504402
20
-39.2755609736
30
0.0000000000
10
-105.8079549490
20
-39.3466805245
30
0.0000000000
10
-105.7100111549
20
-39.4655332042
30
0.0000000000
10
-105.5653247720
20
-39.6048029330
30
0.0000000000
10
-105.4031602891
20
-39.7292337238
30
0.0000000000
10
-105.2259724033
20
-39.8371178890
30
0.0000000000
10
-105.0353351345
20
-39.9276105816
30
0.0000000000
10
-104.8325907570
20
-39.9997795471
30
0.0000000000
10
-104.6918019416
20
-40.0346340225
30
0.0000000000
10
-104.6201396227
20
-40.0487321141
30
0.0000000000
11
-105.8696031019
21
-39.2577081026
31
0.0000000000
11
-105.8326923536
21
-39.3105409616
31
0.0000000000
11
-105.7084031961
21
-39.4616547439
31
0.0000000000
11
-105.5637933758
21
-39.6011269293
31
0.0000000000
11
-105.4015910902
21
-39.7258353426
31
0.0000000000
11
-105.2253391451
21
-39.8333617761
31
0.0000000000
11
-105.0355794412
21
-39.9236192533
31
0.0000000000
11
-104.8327194424
21
-39.9959823336
31
0.0000000000
11
-104.6201396227
21
-40.0487321141
31
0.0000000000
0
SPLINE
5
370
100
AcDbEntity
8
0
100
AcDbSpline
62
9
6
CONTINUOUS
70
0
71
3
72
9
73
5
74
3
42
0.0000001000
43
0.0000001000
44
0.0000000001
12
0.3476900316
22
-0.0684008833
32
0.0000000000
13
0.3540780184
23
-0.0142940781
33
0.0000000000
40
0.0000000000
40
0.0000000000
40
0.0000000000
40
0.0000000000
40
0.6235477441
40
1.0000000000
40
1.0000000000
40
1.0000000000
40
1.0000000000
10
-104.6201396227
20
-40.0487321141
30
0.0000000000
10
-104.5478725111
20
-40.0629491863
30
0.0000000000
10
-104.4308717342
20
-40.0800813521
30
0.0000000000
10
-104.3129594326
20
-40.0882138259
30
0.0000000000
10
-104.2685282763
20
-40.0900075052
30
0.0000000000
11
-104.6201396227
21
-40.0487321141
31
0.0000000000
11
-104.4016069586
21
-40.0808154466
31
0.0000000000
11
-104.2685282763
21
-40.0900075052
31
0.0000000000
0
SPLINE
5
371
100
AcDbEntity
8
0
100
AcDbSpline
62
9
6
CONTINUOUS
70
0
71
3
72
8
73
4
74
2
42
0.0000001000
43
0.0000001000
44
0.0000000001
12
0.0909600498
22
-0.0036720440
32
0.0000000000
13
0.0909973041
23
-0.0001369570
33
0.0000000000
40
0.0000000000
40
0.0000000000
40
0.0000000000
40
0.0000000000
40
1.0000000000
40
1.0000000000
40
1.0000000000
40
1.0000000000
10
-104.2685282763
20
-40.0900075052
30
0.0000000000
10
-104.2382082597
20
-40.0912315199
30
0.0000000000
10
-104.2078683102
20
-40.0918651467
30
0.0000000000
10
-104.1775358755
20
-40.0919107990
30
0.0000000000
11
-104.2685282763
21
-40.0900075052
31
0.0000000000
11
-104.1775358755
21
-40.0919107990
31
0.0000000000
0
SPLINE
5
372
100
AcDbEntity
8
0
100
AcDbSpline
62
7
6
CONTINUOUS
70
0
71
3
72
12
73
8
74
6
42
0.0000001000
43
0.0000001000
44
0.0000000001
12
-0.8423923134
22
-1.5061869026
32
0.0000000000
13
-1.7006825713
23
-0.2905723860
33
0.0000000000
40
0.0000000000
40
0.0000000000
40
0.0000000000
40
0.0000000000
40
0.1414632453
40
0.3456377759
40
0.5569574033
40
0.7742880887
40
1.0000000000
40
1.0000000000
40
1.0000000000
40
1.0000000000
10
105.5376536081
20
-39.1619386587
30
0.0000000000
10
105.4979310913
20
-39.2329620211
30
0.0000000000
10
105.3876187470
20
-39.3991093969
30
0.0000000000
10
105.1650142769
20
-39.6317114258
30
0.0000000000
10
104.8659326637
20
-39.8419020385
30
0.0000000000
10
104.5223876864
20
-39.9990113292
30
0.0000000000
10
104.2749414623
20
-40.0631380579
30
0.0000000000
10
104.1469866911
20
-40.0849999408
30
0.0000000000
11
105.5376536081
21
-39.1619386587
31
0.0000000000
11
105.4029712435
21
-39.3653126702
31
0.0000000000
11
105.1605524275
21
-39.6201507399
31
0.0000000000
11
104.8633152865
21
-39.8303157550
31
0.0000000000
11
104.5232155827
21
-39.9868334183
31
0.0000000000
11
104.1469866911
21
-40.0849999408
31
0.0000000000
0
SPLINE
5
373
100
AcDbEntity
8
0
100
AcDbSpline
62
7
6
CONTINUOUS
70
0
71
3
72
8
73
4
74
2
42
0.0000001000
43
0.0000001000
44
0.0000000001
12
-0.3020625310
22
-0.0516092961
32
0.0000000000
13
-0.3059919888
23
-0.0117380766
33
0.0000000000
40
0.0000000000
40
0.0000000000
40
0.0000000000
40
0.0000000000
40
1.0000000000
40
1.0000000000
40
1.0000000000
40
1.0000000000
10
104.1469866911
20
-40.0849999408
30
0.0000000000
10
104.0462991807
20
-40.1022030395
30
0.0000000000
10
103.9444406592
20
-40.1127136888
30
0.0000000000
10
103.8424433296
20
-40.1166263810
30
0.0000000000
11
104.1469866911
21
-40.0849999408
31
0.0000000000
11
103.8424433296
21
-40.1166263810
31
0.0000000000
0
SPLINE
5
374
100
AcDbEntity
8
0
100
AcDbSpline
62
7
6
CONTINUOUS
70
0
71
3
72
8
73
4
74
2
42
0.0000001000
43
0.0000001000
44
0.0000000001
12
-0.0909223612
22
-0.0034878483
32
0.0000000000
13
-0.0909146553
23
-0.0000000048
33
0.0000000000
40
0.0000000000
40
0.0000000000
40
0.0000000000
40
0.0000000000
40
1.0000000000
40
1.0000000000
40
1.0000000000
40
1.0000000000
10
103.8424433296
20
-40.1166263810
30
0.0000000000
10
103.8121358759
20
-40.1177889971
30
0.0000000000
10
103.7818161665
20
-40.1183690664
30
0.0000000000
10
103.7515112814
20
-40.1183690680
30
0.0000000000
11
103.8424433296
21
-40.1166263810
31
0.0000000000
11
103.7515112814
21
-40.1183690680
31
0.0000000000
0
SPLINE
5
375
100
AcDbEntity
8
0
100
AcDbSpline
62
9
6
CONTINUOUS
70
0
71
3
72
10
73
6
74
4
42
0.0000001000
43
0.0000001000
44
0.0000000001
12
-0.9020464281
22
-0.0065616394
32
0.0000000000
13
-0.8246568999
23
0.3687316107
33
0.0000000000
40
0.0000000000
40
0.0000000000
40
0.0000000000
40
0.0000000000
40
0.3991752824
40
0.7977242836
40
1.0000000000
40
1.0000000000
40
1.0000000000
40
1.0000000000
10
-101.3406538732
20
-43.3189464173
30
0.0000000000
10
-101.4606787525
20
-43.3198194987
30
0.0000000000
10
-101.7011603073
20
-43.3025983811
30
0.0000000000
10
-101.9947486674
20
-43.2312954662
30
0.0000000000
10
-102.1634023160
20
-43.1652517809
30
0.0000000000
10
-102.2190050044
20
-43.1403899640
30
0.0000000000
11
-101.3406538732
21
-43.3189464173
31
0.0000000000
11
-101.6997768923
21
-43.2926545499
31
0.0000000000
11
-102.0489658423
21
-43.2070908738
31
0.0000000000
11
-102.2190050044
21
-43.1403899640
31
0.0000000000
0
SPLINE
5
376
100
AcDbEntity
8
0
100
AcDbSpline
62
9
6
CONTINUOUS
70
0
71
3
72
8
73
4
74
2
42
0.0000001000
43
0.0000001000
44
0.0000000001
12
-0.0545909995
22
0.0244094571
32
0.0000000000
13
-0.0538032542
23
0.0260975760
33
0.0000000000
40
0.0000000000
40
0.0000000000
40
0.0000000000
40
0.0000000000
40
1.0000000000
40
1.0000000000
40
1.0000000000
40
1.0000000000
10
-102.2190050044
20
-43.1403899640
30
0.0000000000
10
-102.2372020043
20
-43.1322534783
30
0.0000000000
10
-102.2552729604
20
-43.1238355943
30
0.0000000000
10
-102.2732073784
20
-43.1151364023
30
0.0000000000
11
-102.2190050044
21
-43.1403899640
31
0.0000000000
11
-102.2732073784
21
-43.1151364023
31
0.0000000000
0
SPLINE
5
377
100
AcDbEntity
8
0
100
AcDbSpline
62
9
6
CONTINUOUS
70
0
71
3
72
8
73
4
74
2
42
0.0000001000
43
0.0000001000
44
0.0000000001
12
-0.0449155255
22
0.0217865324
32
0.0000000000
13
-0.0443262822
23
0.0229626512
33
0.0000000000
40
0.0000000000
40
0.0000000000
40
0.0000000000
40
0.0000000000
40
1.0000000000
40
1.0000000000
40
1.0000000000
40
1.0000000000
10
-102.2732073784
20
-43.1151364023
30
0.0000000000
10
-102.2881792202
20
-43.1078742249
30
0.0000000000
10
-102.3030559076
20
-43.1004160014
30
0.0000000000
10
-102.3178313350
20
-43.0927617843
30
0.0000000000
11
-102.2732073784
21
-43.1151364023
31
0.0000000000
11
-102.3178313350
21
-43.0927617843
31
0.0000000000
0
SPLINE
5
378
100
AcDbEntity
8
0
100
AcDbSpline
62
9
6
CONTINUOUS
70
0
71
3
72
9
73
5
74
3
42
0.0000001000
43
0.0000001000
44
0.0000000001
12
-0.0739360220
22
0.0383015900
32
0.0000000000
13
-0.0721600256
23
0.0415710764
33
0.0000000000
40
0.0000000000
40
0.0000000000
40
0.0000000000
40
0.0000000000
40
0.7335198086
40
1.0000000000
40
1.0000000000
40
1.0000000000
40
1.0000000000
10
-102.3178313350
20
-43.0927617843
30
0.0000000000
10
-102.3359091805
20
-43.0833967926
30
0.0000000000
10
-102.3603478695
20
-43.0702296114
30
0.0000000000
10
-102.3844840492
20
-43.0565173140
30
0.0000000000
10
-102.3908937884
20
-43.0528246912
30
0.0000000000
11
-102.3178313350
21
-43.0927617843
31
0.0000000000
11
-102.3715989399
21
-43.0637867157
31
0.0000000000
11
-102.3908937884
21
-43.0528246912
31
0.0000000000
0
SPLINE
5
379
100
AcDbEntity
8
0
100
AcDbSpline
62
9
6
CONTINUOUS
70
0
71
3
72
8
73
4
74
2
42
0.0000001000
43
0.0000001000
44
0.0000000001
12
-0.0531033332
22
0.0305925990
32
0.0000000000
13
-0.0520557651
23
0.0323483735
33
0.0000000000
40
0.0000000000
40
0.0000000000
40
0.0000000000
40
0.0000000000
40
1.0000000000
40
1.0000000000
40
1.0000000000
40
1.0000000000
10
-102.3908937884
20
-43.0528246912
30
0.0000000000
10
-102.4085948994
20
-43.0426271583
30
0.0000000000
10
-102.4261276601
20
-43.0321354961
30
0.0000000000
10
-102.4434795818
20
-43.0213527049
30
0.0000000000
11
-102.3908937884
21
-43.0528246912
31
0.0000000000
11
-102.4434795818
21
-43.0213527049
31
0.0000000000
0
SPLINE
5
37A
100
AcDbEntity
8
0
100
AcDbSpline
62
7
6
CONTINUOUS
70
0
71
3
72
8
73
4
74
2
42
0.0000001000
43
0.0000001000
44
0.0000000001
12
-0.2652831238
22
0.0000000138
32
0.0000000000
13
-0.2640216140
23
0.0298180852
33
0.0000000000
40
0.0000000000
40
0.0000000000
40
0.0000000000
40
0.0000000000
40
1.0000000000
40
1.0000000000
40
1.0000000000
40
1.0000000000
10
-104.1775358753
20
-40.1183690802
30
0.0000000000
10
-104.2659635832
20
-40.1183690756
30
0.0000000000
10
-104.3545176109
20
-40.1134301169
30
0.0000000000
10
-104.4425248156
20
-40.1034907552
30
0.0000000000
11
-104.1775358753
21
-40.1183690802
31
0.0000000000
11
-104.4425248156
21
-40.1034907552
31
0.0000000000
0
SPLINE
5
37B
100
AcDbEntity
8
0
100
AcDbSpline
62
7
6
CONTINUOUS
70
0
71
3
72
8
73
4
74
2
42
0.0000001000
43
0.0000001000
44
0.0000000001
12
-0.1307135038
22
0.0147625277
32
0.0000000000
13
-0.1296642520
23
0.0221388066
33
0.0000000000
40
0.0000000000
40
0.0000000000
40
0.0000000000
40
0.0000000000
40
1.0000000000
40
1.0000000000
40
1.0000000000
40
1.0000000000
10
-104.4425248156
20
-40.1034907552
30
0.0000000000
10
-104.4860959835
20
-40.0985699126
30
0.0000000000
10
-104.5295331194
20
-40.0924234186
30
0.0000000000
10
-104.5727545367
20
-40.0850438164
30
0.0000000000
11
-104.4425248156
21
-40.1034907552
31
0.0000000000
11
-104.5727545367
21
-40.0850438164
31
0.0000000000
0
SPLINE
5
37C
100
AcDbEntity
8
0
100
AcDbSpline
62
7
6
CONTINUOUS
70
0
71
3
72
12
73
8
74
6
42
0.0000001000
43
0.0000001000
44
0.0000000001
12
-1.7009646020
22
0.2904218073
32
0.0000000000
13
-0.8425176749
23
1.5064100636
33
0.0000000000
40
0.0000000000
40
0.0000000000
40
0.0000000000
40
0.0000000000
40
0.2251848658
40
0.4425183150
40
0.6534771391
40
0.8579320494
40
1.0000000000
40
1.0000000000
40
1.0000000000
40
1.0000000000
10
-104.5727545367
20
-40.0850438164
30
0.0000000000
10
-104.7004316986
20
-40.0632442845
30
0.0000000000
10
-104.9476351604
20
-39.9992596133
30
0.0000000000
10
-105.2908499765
20
-39.8425148194
30
0.0000000000
10
-105.5900757941
20
-39.6325298685
30
0.0000000000
10
-105.8131089490
20
-39.3998407470
30
0.0000000000
10
-105.9237795100
20
-39.2332777451
30
0.0000000000
10
-105.9636777632
20
-39.1619402149
30
0.0000000000
11
-104.5727545367
21
-40.0850438164
31
0.0000000000
11
-104.9481920932
21
-39.9872072957
31
0.0000000000
11
-105.2884286432
21
-39.8308396893
31
0.0000000000
11
-105.5853494871
21
-39.6212084583
31
0.0000000000
11
-105.8283334716
21
-39.3661676907
31
0.0000000000
11
-105.9636777632
21
-39.1619402149
31
0.0000000000
0
SPLINE
5
37D
100
AcDbEntity
8
0
100
AcDbSpline
62
9
6
CONTINUOUS
70
0
71
3
72
8
73
4
74
2
42
0.0000001000
43
0.0000001000
44
0.0000000001
12
-0.0475801174
22
-0.0295679961
32
0.0000000000
13
-0.0484580237
23
-0.0281017866
33
0.0000000000
40
0.0000000000
40
0.0000000000
40
0.0000000000
40
0.0000000000
40
1.0000000000
40
1.0000000000
40
1.0000000000
40
1.0000000000
10
102.0174754523
20
-43.0213400006
30
0.0000000000
10
102.0016154131
20
-43.0311959993
30
0.0000000000
10
101.9856042880
20
-43.0408087753
30
0.0000000000
10
101.9694516135
20
-43.0501760375
30
0.0000000000
11
102.0174754523
21
-43.0213400006
31
0.0000000000
11
101.9694516135
21
-43.0501760375
31
0.0000000000
0
SPLINE
5
37E
100
AcDbEntity
8
0
100
AcDbSpline
62
9
6
CONTINUOUS
70
0
71
3
72
9
73
5
74
3
42
0.0000001000
43
0.0000001000
44
0.0000000001
12
-0.0704284941
22
-0.0408429061
32
0.0000000000
13
-0.0721383627
23
-0.0377191020
33
0.0000000000
40
0.0000000000
40
0.0000000000
40
0.0000000000
40
0.0000000000
40
0.3375803969
40
1.0000000000
40
1.0000000000
40
1.0000000000
40
1.0000000000
10
101.9694516135
20
-43.0501760375
30
0.0000000000
10
101.9615265205
20
-43.0547719590
30
0.0000000000
10
101.9379494187
20
-43.0682111883
30
0.0000000000
10
101.9140831989
20
-43.0811294327
30
0.0000000000
10
101.8981545770
20
-43.0894580569
30
0.0000000000
11
101.9694516135
21
-43.0501760375
31
0.0000000000
11
101.9455752377
21
-43.0637862280
31
0.0000000000
11
101.8981545770
21
-43.0894580569
31
0.0000000000
0
SPLINE
5
37F
100
AcDbEntity
8
0
100
AcDbSpline
62
9
6
CONTINUOUS
70
0
71
3
72
8
73
4
74
2
42
0.0000001000
43
0.0000001000
44
0.0000000001
12
-0.0470070894
22
-0.0245786726
32
0.0000000000
13
-0.0476770195
23
-0.0232507954
33
0.0000000000
40
0.0000000000
40
0.0000000000
40
0.0000000000
40
0.0000000000
40
1.0000000000
40
1.0000000000
40
1.0000000000
40
1.0000000000
10
101.8981545770
20
-43.0894580569
30
0.0000000000
10
101.8824855472
20
-43.0976509478
30
0.0000000000
10
101.8667012000
20
-43.1056225573
30
0.0000000000
10
101.8508088602
20
-43.1133728224
30
0.0000000000
11
101.8981545770
21
-43.0894580569
31
0.0000000000
11
101.8508088602
21
-43.1133728224
31
0.0000000000
0
SPLINE
5
380
100
AcDbEntity
8
0
100
AcDbSpline
62
9
6
CONTINUOUS
70
0
71
3
72
8
73
4
74
2
42
0.0000001000
43
0.0000001000
44
0.0000000001
12
-0.0542454425
22
-0.0264540380
32
0.0000000000
13
-0.0550518683
23
-0.0247345535
33
0.0000000000
40
0.0000000000
40
0.0000000000
40
0.0000000000
40
0.0000000000
40
1.0000000000
40
1.0000000000
40
1.0000000000
40
1.0000000000
10
101.8508088602
20
-43.1133728224
30
0.0000000000
10
101.8327270460
20
-43.1221908351
30
0.0000000000
10
101.8145054333
20
-43.1307223133
30
0.0000000000
10
101.7961548106
20
-43.1389671645
30
0.0000000000
11
101.8508088602
21
-43.1133728224
31
0.0000000000
11
101.7961548106
21
-43.1389671645
31
0.0000000000
0
SPLINE
5
381
100
AcDbEntity
8
0
100
AcDbSpline
62
9
6
CONTINUOUS
70
0
71
3
72
10
73
6
74
4
42
0.0000001000
43
0.0000001000
44
0.0000000001
12
-0.8271638326
22
-0.3716409395
32
0.0000000000
13
-0.9055201210
23
0.0065869247
33
0.0000000000
40
0.0000000000
40
0.0000000000
40
0.0000000000
40
0.0000000000
40
0.2053351482
40
0.6023556698
40
1.0000000000
40
1.0000000000
40
1.0000000000
40
1.0000000000
10
101.7961548106
20
-43.1389671645
30
0.0000000000
10
101.7395395412
20
-43.1644041470
30
0.0000000000
10
101.5698549739
20
-43.2310207928
30
0.0000000000
10
101.2751360466
20
-43.3025983559
30
0.0000000000
10
101.0346542661
20
-43.3198195074
30
0.0000000000
10
100.9146292855
20
-43.3189464229
30
0.0000000000
11
101.7961548106
21
-43.1389671645
31
0.0000000000
11
101.6229418936
21
-43.2070906641
31
0.0000000000
11
101.2737526064
21
-43.2926545097
31
0.0000000000
11
100.9146292855
21
-43.3189464229
31
0.0000000000
0
SPLINE
5
382
100
AcDbEntity
8
0
100
AcDbSpline
62
9
6
CONTINUOUS
70
0
71
3
72
10
73
6
74
4
42
0.0000001000
43
0.0000001000
44
0.0000000001
12
2.0779756296
22
-3.7851379869
32
0.0000000000
13
3.6538880346
23
-2.3009464417
33
0.0000000000
40
0.0000000000
40
0.0000000000
40
0.0000000000
40
0.0000000000
40
0.3582574214
40
0.6896595119
40
1.0000000000
40
1.0000000000
40
1.0000000000
40
1.0000000000
10
-104.1775357850
20
-40.1183718722
30
0.0000000000
10
-103.9293857214
20
-40.5703897971
30
0.0000000000
10
-103.3982293220
20
-41.4134601538
30
0.0000000000
10
-102.4492045451
20
-42.5039357854
30
0.0000000000
10
-101.7186368275
20
-43.0809222097
30
0.0000000000
10
-101.3406536955
20
-43.3189478236
30
0.0000000000
11
-104.1775357850
21
-40.1183718722
31
0.0000000000
11
-103.3442608738
21
-41.4217294015
31
0.0000000000
11
-102.3968049039
21
-42.4941499128
31
0.0000000000
11
-101.3406536955
21
-43.3189478236
31
0.0000000000
0
SPLINE
5
383
100
AcDbEntity
8
0
100
AcDbSpline
62
9
6
CONTINUOUS
70
0
71
3
72
10
73
6
74
4
42
0.0000001000
43
0.0000001000
44
0.0000000001
12
3.6538880985
22
2.3009463409
32
0.0000000000
13
2.0779756682
23
3.7851379660
33
0.0000000000
40
0.0000000000
40
0.0000000000
40
0.0000000000
40
0.0000000000
40
0.3103395351
40
0.6417415337
40
1.0000000000
40
1.0000000000
40
1.0000000000
40
1.0000000000
10
100.9146291082
20
-43.3189478236
30
0.0000000000
10
101.2926110861
20
-43.0809229511
30
0.0000000000
10
102.0231777600
20
-42.5039377170
30
0.0000000000
10
102.9722031169
20
-41.4134625754
30
0.0000000000
10
103.5033603988
20
-40.5703911138
30
0.0000000000
10
103.7515111908
20
-40.1183718729
30
0.0000000000
11
100.9146291082
21
-43.3189478236
31
0.0000000000
11
101.9707773150
21
-42.4941527548
31
0.0000000000
11
102.9182335713
21
-41.4217330262
31
0.0000000000
11
103.7515111908
21
-40.1183718729
31
0.0000000000
0
SPLINE
5
384
100
AcDbEntity
8
0
100
AcDbSpline
62
7
6
CONTINUOUS
70
0
71
3
72
12
73
8
74
6
42
0.0000001000
43
0.0000001000
44
0.0000000001
12
3.1261221534
22
0.0000032044
32
0.0000000000
13
0.0000105542
23
-3.1261221534
33
0.0000000000
40
0.0000000000
40
0.0000000000
40
0.0000000000
40
0.0000000000
40
0.1994399898
40
0.4003189134
40
0.5998302254
40
0.8010188667
40
1.0000000000
40
1.0000000000
40
1.0000000000
40
1.0000000000
10
103.8375200413
20
45.4493781515
30
0.0000000000
10
104.0453446314
20
45.4493783645
30
0.0000000000
10
104.4653952887
20
45.3833961425
30
0.0000000000
10
105.0314513100
20
45.0955118167
30
0.0000000000
10
105.4825293210
20
44.6452022455
30
0.0000000000
10
105.7709697713
20
44.0795018570
30
0.0000000000
10
105.8369907471
20
43.6596065797
30
0.0000000000
10
105.8369914472
20
43.4522601367
30
0.0000000000
11
103.8375200413
21
45.4493781515
31
0.0000000000
11
104.4533932139
21
45.3523226128
31
0.0000000000
11
105.0132031893
21
45.0677849335
31
0.0000000000
11
105.4545661854
21
44.6271078187
31
0.0000000000
11
105.7400676585
21
44.0667019207
31
0.0000000000
11
105.8369914472
21
43.4522601367
31
0.0000000000
0
SPLINE
5
385
100
AcDbEntity
8
0
100
AcDbSpline
62
7
6
CONTINUOUS
70
0
71
3
72
12
73
8
74
6
42
0.0000001000
43
0.0000001000
44
0.0000000001
12
0.0000105538
22
3.1261221544
32
0.0000000000
13
3.1261221545
23
-0.0000001761
33
0.0000000000
40
0.0000000000
40
0.0000000000
40
0.0000000000
40
0.0000000000
40
0.1989811341
40
0.4001697744
40
0.5996810865
40
0.8005600092
40
1.0000000000
40
1.0000000000
40
1.0000000000
40
1.0000000000
10
-106.2630160374
20
43.4522601363
30
0.0000000000
10
-106.2630153374
20
43.6596065801
30
0.0000000000
10
-106.1969943598
20
44.0795018551
30
0.0000000000
10
-105.9085539109
20
44.6452022528
30
0.0000000000
10
-105.4574759015
20
45.0955117912
30
0.0000000000
10
-104.8914198809
20
45.3833962390
30
0.0000000000
10
-104.4713692227
20
45.4493781632
30
0.0000000000
10
-104.2635446314
20
45.4493781515
30
0.0000000000
11
-106.2630160374
21
43.4522601363
31
0.0000000000
11
-106.1660922471
21
44.0667019227
31
0.0000000000
11
-105.8805907758
21
44.6271078184
31
0.0000000000
11
-105.4392277802
21
45.0677849341
31
0.0000000000
11
-104.8794178076
21
45.3523226135
31
0.0000000000
11
-104.2635446314
21
45.4493781515
31
0.0000000000
0
SPLINE
5
386
100
AcDbEntity
8
0
100
AcDbSpline
62
7
6
CONTINUOUS
70
0
71
3
72
14
73
10
74
8
42
0.0000001000
43
0.0000001000
44
0.0000000001
12
0.8939628030
22
0.8853936237
32
0.0000000000
13
0.0000000000
23
-6.0052447948
33
0.0000000000
40
0.0000000000
40
0.0000000000
40
0.0000000000
40
0.0000000000
40
0.0005396091
40
0.0376587050
40
0.1390897627
40
0.2981637997
40
0.5042503016
40
0.7435383415
40
1.0000000000
40
1.0000000000
40
1.0000000000
40
1.0000000000
10
39.5482408380
20
-16.2689946017
30
0.0000000000
10
39.5484016348
20
-16.2688353462
30
0.0000000000
10
39.5595955213
20
-16.2596112546
30
0.0000000000
10
39.5933170687
20
-16.7228567553
30
0.0000000000
10
39.6006799173
20
-17.1521736349
30
0.0000000000
10
39.6270322868
20
-18.1733785716
30
0.0000000000
10
39.6394756298
20
-19.3484388655
30
0.0000000000
10
39.6501281243
20
-20.7652961933
30
0.0000000000
10
39.6520775751
20
-21.7547099755
30
0.0000000000
10
39.6520775751
20
-22.2680816555
30
0.0000000000
11
39.5482408380
21
-16.2689946017
31
0.0000000000
11
39.5487220040
21
-16.2685986492
31
0.0000000000
11
39.5755599887
21
-16.4898863796
31
0.0000000000
11
39.6005074146
21
-17.0984936155
31
0.0000000000
11
39.6218898737
21
-18.0535328110
31
0.0000000000
11
39.6382763955
21
-19.2910242160
31
0.0000000000
11
39.6485685908
21
-20.7279706130
31
0.0000000000
11
39.6520775751
21
-22.2680816555
31
0.0000000000
0
SPLINE
5
387
100
AcDbEntity
8
0
100
AcDbSpline
62
7
6
CONTINUOUS
70
0
71
3
72
14
73
10
74
8
42
0.0000001000
43
0.0000001000
44
0.0000000001
12
-0.8939626834
22
0.8853924338
32
0.0000000000
13
0.0000000000
23
-6.0052448011
33
0.0000000000
40
0.0000000000
40
0.0000000000
40
0.0000000000
40
0.0000000000
40
0.0005396096
40
0.0376586982
40
0.1390897520
40
0.2981637882
40
0.5042502923
40
0.7435383362
40
1.0000000000
40
1.0000000000
40
1.0000000000
40
1.0000000000
10
-39.9742654241
20
-16.2689945987
30
0.0000000000
10
-39.9744262211
20
-16.2688353432
30
0.0000000000
10
-39.9856201041
20
-16.2596112699
30
0.0000000000
10
-40.0193416653
20
-16.7228566874
30
0.0000000000
10
-40.0267045006
20
-17.1521735839
30
0.0000000000
10
-40.0530568781
20
-18.1733784996
30
0.0000000000
10
-40.0655002187
20
-19.3484388116
30
0.0000000000
10
-40.0761527146
20
-20.7652961620
30
0.0000000000
10
-40.0781021652
20
-21.7547099644
30
0.0000000000
10
-40.0781021652
20
-22.2680816555
30
0.0000000000
11
-39.9742654241
21
-16.2689945987
31
0.0000000000
11
-39.9747465906
21
-16.2685986465
31
0.0000000000
11
-40.0015845760
21
-16.4898863330
31
0.0000000000
11
-40.0265320027
21
-17.0984935457
31
0.0000000000
11
-40.0479144625
21
-18.0535327374
31
0.0000000000
11
-40.0643009851
21
-19.2910241568
31
0.0000000000
11
-40.0745931808
21
-20.7279705798
31
0.0000000000
11
-40.0781021652
21
-22.2680816555
31
0.0000000000
0
SPLINE
5
388
100
AcDbEntity
8
0
100
AcDbSpline
62
7
6
CONTINUOUS
70
0
71
3
72
8
73
4
74
2
42
0.0000001000
43
0.0000001000
44
0.0000000001
12
0.0000000245
22
-0.5413374715
32
0.0000000000
13
-0.1901066012
23
-0.5104275451
33
0.0000000000
40
0.0000000000
40
0.0000000000
40
0.0000000000
40
0.0000000000
40
1.0000000000
40
1.0000000000
40
1.0000000000
40
1.0000000000
10
105.8369877049
20
-38.1998942990
30
0.0000000000
10
105.8369877131
20
-38.3803401228
30
0.0000000000
10
105.8034174764
20
-38.5623389316
30
0.0000000000
10
105.7400486094
20
-38.7324814466
30
0.0000000000
11
105.8369877049
21
-38.1998942990
31
0.0000000000
11
105.7400486094
21
-38.7324814466
31
0.0000000000
0
SPLINE
5
389
100
AcDbEntity
8
0
100
AcDbSpline
62
7
6
CONTINUOUS
70
0
71
3
72
8
73
4
74
2
42
0.0000001000
43
0.0000001000
44
0.0000000001
12
-0.0647791510
22
-0.1739290630
32
0.0000000000
13
-0.0845695545
23
-0.1649337646
33
0.0000000000
40
0.0000000000
40
0.0000000000
40
0.0000000000
40
0.0000000000
40
1.0000000000
40
1.0000000000
40
1.0000000000
40
1.0000000000
10
105.7400486094
20
-38.7324814466
30
0.0000000000
10
105.7184555591
20
-38.7904578010
30
0.0000000000
10
105.6934025381
20
-38.8470575005
30
0.0000000000
10
105.6652126866
20
-38.9020354220
30
0.0000000000
11
105.7400486094
21
-38.7324814466
31
0.0000000000
11
105.6652126866
21
-38.9020354220
31
0.0000000000
0
SPLINE
5
38A
100
AcDbEntity
8
0
100
AcDbSpline
62
7
6
CONTINUOUS
70
0
71
3
72
8
73
4
74
2
42
0.0000001000
43
0.0000001000
44
0.0000000001
12
-0.0270747622
22
-0.0528031923
32
0.0000000000
13
-0.0289720024
23
-0.0517817209
33
0.0000000000
40
0.0000000000
40
0.0000000000
40
0.0000000000
40
0.0000000000
40
1.0000000000
40
1.0000000000
40
1.0000000000
40
1.0000000000
10
105.6652126866
20
-38.9020354220
30
0.0000000000
10
105.6561877659
20
-38.9196364861
30
0.0000000000
10
105.6468413368
20
-38.9370713266
30
0.0000000000
10
105.6371840027
20
-38.9543319003
30
0.0000000000
11
105.6652126866
21
-38.9020354220
31
0.0000000000
11
105.6371840027
21
-38.9543319003
31
0.0000000000
0
SPLINE
5
38B
100
AcDbEntity
8
0
100
AcDbSpline
62
7
6
CONTINUOUS
70
0
71
3
72
9
73
5
74
3
42
0.0000001000
43
0.0000001000
44
0.0000000001
12
-0.3468408984
22
-0.6199094690
32
0.0000000000
13
-0.5600733449
23
-0.4362861937
33
0.0000000000
40
0.0000000000
40
0.0000000000
40
0.0000000000
40
0.0000000000
40
0.4526286432
40
1.0000000000
40
1.0000000000
40
1.0000000000
40
1.0000000000
10
105.6371840027
20
-38.9543319003
30
0.0000000000
10
105.5848539609
20
-39.0478614942
30
0.0000000000
10
105.4490718395
20
-39.2431932447
30
0.0000000000
10
105.2769656939
20
-39.4073027918
30
0.0000000000
10
105.1747763250
20
-39.4869063137
30
0.0000000000
11
105.6371840027
21
-38.9543319003
31
0.0000000000
11
105.4544944056
21
-39.2182904079
31
0.0000000000
11
105.1747763250
21
-39.4869063137
31
0.0000000000
0
SPLINE
5
38C
100
AcDbEntity
8
0
100
AcDbSpline
62
7
6
CONTINUOUS
70
0
71
3
72
10
73
6
74
4
42
0.0000001000
43
0.0000001000
44
0.0000000001
12
-1.1331110138
22
-0.8826713424
32
0.0000000000
13
-1.4303295128
23
-0.0000021380
33
0.0000000000
40
0.0000000000
40
0.0000000000
40
0.0000000000
40
0.0000000000
40
0.1376152897
40
0.5653870483
40
1.0000000000
40
1.0000000000
40
1.0000000000
40
1.0000000000
10
105.1747763250
20
-39.4869063137
30
0.0000000000
10
105.1227985249
20
-39.5273960045
30
0.0000000000
10
104.9007639939
20
-39.6828775237
30
0.0000000000
10
104.4577811945
20
-39.8754774184
30
0.0000000000
10
104.0443815443
20
-39.9310875384
30
0.0000000000
10
103.8371683005
20
-39.9310878481
30
0.0000000000
11
105.1747763250
21
-39.4869063137
31
0.0000000000
11
105.0130282160
21
-39.6003244090
31
0.0000000000
11
104.4530911766
21
-39.8469750284
31
0.0000000000
11
103.8371683005
21
-39.9310878481
31
0.0000000000
0
SPLINE
5
38D
100
AcDbEntity
8
0
100
AcDbSpline
62
7
6
CONTINUOUS
70
0
71
3
72
10
73
6
74
4
42
0.0000001000
43
0.0000001000
44
0.0000000001
12
-1.4303295143
22
0.0000009062
32
0.0000000000
13
-1.1331110145
23
0.8826713373
33
0.0000000000
40
0.0000000000
40
0.0000000000
40
0.0000000000
40
0.0000000000
40
0.4346129501
40
0.8623847081
40
1.0000000000
40
1.0000000000
40
1.0000000000
40
1.0000000000
10
-104.2631928907
20
-39.9310878481
30
0.0000000000
10
-104.4704061339
20
-39.9310877168
30
0.0000000000
10
-104.8838057828
20
-39.8754773326
30
0.0000000000
10
-105.3267885830
20
-39.6828775199
30
0.0000000000
10
-105.5488231150
20
-39.5273960070
30
0.0000000000
10
-105.6008009160
20
-39.4869063157
30
0.0000000000
11
-104.2631928907
21
-39.9310878481
31
0.0000000000
11
-104.8791157648
21
-39.8469750258
31
0.0000000000
11
-105.4390528041
21
-39.6003244070
31
0.0000000000
11
-105.6008009160
21
-39.4869063157
31
0.0000000000
0
SPLINE
5
38E
100
AcDbEntity
8
0
100
AcDbSpline
62
7
6
CONTINUOUS
70
0
71
3
72
9
73
5
74
3
42
0.0000001000
43
0.0000001000
44
0.0000000001
12
-0.5599654558
22
0.4362021473
32
0.0000000000
13
-0.3468255734
23
0.6197611881
33
0.0000000000
40
0.0000000000
40
0.0000000000
40
0.0000000000
40
0.0000000000
40
0.5474768136
40
1.0000000000
40
1.0000000000
40
1.0000000000
40
1.0000000000
10
-105.6008009160
20
-39.4869063157
30
0.0000000000
10
-105.7029902838
20
-39.4073027952
30
0.0000000000
10
-105.8750632759
20
-39.2432248529
30
0.0000000000
10
-106.0108262369
20
-39.0479367431
30
0.0000000000
10
-106.0631417748
20
-38.9544513072
30
0.0000000000
11
-105.6008009160
21
-39.4869063157
31
0.0000000000
11
-105.8805189938
21
-39.2182904067
31
0.0000000000
11
-106.0631417748
21
-38.9544513072
31
0.0000000000
0
SPLINE
5
38F
100
AcDbEntity
8
0
100
AcDbSpline
62
7
6
CONTINUOUS
70
0
71
3
72
8
73
4
74
2
42
0.0000001000
43
0.0000001000
44
0.0000000001
12
-0.0290431251
22
0.0518987153
32
0.0000000000
13
-0.0271371982
23
0.0529249592
33
0.0000000000
40
0.0000000000
40
0.0000000000
40
0.0000000000
40
0.0000000000
40
1.0000000000
40
1.0000000000
40
1.0000000000
40
1.0000000000
10
-106.0631417748
20
-38.9544513072
30
0.0000000000
10
-106.0728228164
20
-38.9371517354
30
0.0000000000
10
-106.0821915421
20
-38.9196770735
30
0.0000000000
10
-106.0912372748
20
-38.9020354204
30
0.0000000000
11
-106.0631417748
21
-38.9544513072
31
0.0000000000
11
-106.0912372748
21
-38.9020354204
31
0.0000000000
0
SPLINE
5
390
100
AcDbEntity
8
0
100
AcDbSpline
62
7
6
CONTINUOUS
70
0
71
3
72
8
73
4
74
2
42
0.0000001000
43
0.0000001000
44
0.0000000001
12
-0.0845695552
22
0.1649337643
32
0.0000000000
13
-0.0647791518
23
0.1739290630
33
0.0000000000
40
0.0000000000
40
0.0000000000
40
0.0000000000
40
0.0000000000
40
1.0000000000
40
1.0000000000
40
1.0000000000
40
1.0000000000
10
-106.0912372748
20
-38.9020354204
30
0.0000000000
10
-106.1194271266
20
-38.8470574990
30
0.0000000000
10
-106.1444801478
20
-38.7904577996
30
0.0000000000
10
-106.1660731984
20
-38.7324814453
30
0.0000000000
11
-106.0912372748
21
-38.9020354204
31
0.0000000000
11
-106.1660731984
21
-38.7324814453
31
0.0000000000
0
SPLINE
5
391
100
AcDbEntity
8
0
100
AcDbSpline
62
7
6
CONTINUOUS
70
0
71
3
72
8
73
4
74
2
42
0.0000001000
43
0.0000001000
44
0.0000000001
12
-0.1901066024
22
0.5104275417
32
0.0000000000
13
0.0000000255
23
0.5413374704
33
0.0000000000
40
0.0000000000
40
0.0000000000
40
0.0000000000
40
0.0000000000
40
1.0000000000
40
1.0000000000
40
1.0000000000
40
1.0000000000
10
-106.1660731984
20
-38.7324814453
30
0.0000000000
10
-106.2294420659
20
-38.5623389314
30
0.0000000000
10
-106.2630123036
20
-38.3803401225
30
0.0000000000
10
-106.2630122951
20
-38.1998942990
30
0.0000000000
11
-106.1660731984
21
-38.7324814453
31
0.0000000000
11
-106.2630122951
21
-38.1998942990
31
0.0000000000
0
SPLINE
5
392
100
AcDbEntity
8
0
100
AcDbSpline
62
7
6
CONTINUOUS
70
0
71
3
72
13
73
9
74
7
42
0.0000001000
43
0.0000001000
44
0.0000000001
12
-6.5293494000
22
3.6336442875
32
0.0000000000
13
-6.5293494000
23
-3.6336442875
33
0.0000000000
40
0.0000000000
40
0.0000000000
40
0.0000000000
40
0.0000000000
40
0.1584739760
40
0.3256464020
40
0.5000000000
40
0.6743535980
40
0.8415260240
40
1.0000000000
40
1.0000000000
40
1.0000000000
40
1.0000000000
10
3.3869877049
20
32.2387397233
30
0.0000000000
10
3.0420770514
20
32.4306857425
30
0.0000000000
10
2.2904562213
20
32.7505585162
30
0.0000000000
10
1.0733422294
20
33.0367517995
30
0.0000000000
10
-0.2130122951
20
33.1342234431
30
0.0000000000
10
-1.4993668195
20
33.0367517995
30
0.0000000000
10
-2.7164808114
20
32.7505585162
30
0.0000000000
10
-3.4681016416
20
32.4306857425
30
0.0000000000
10
-3.8130122951
20
32.2387397233
30
0.0000000000
11
3.3869877049
21
32.2387397233
31
0.0000000000
11
2.3008051083
21
32.7104038682
31
0.0000000000
11
1.0859713112
21
33.0012646847
31
0.0000000000
11
-0.2130122951
21
33.1012806188
31
0.0000000000
11
-1.5119959014
21
33.0012646847
31
0.0000000000
11
-2.7268296985
21
32.7104038682
31
0.0000000000
11
-3.8130122951
21
32.2387397233
31
0.0000000000
0
SPLINE
5
393
100
AcDbEntity
8
0
100
AcDbSpline
62
7
6
CONTINUOUS
70
0
71
3
72
9
73
5
74
3
42
0.0000001000
43
0.0000001000
44
0.0000000001
12
0.1324666811
22
-0.4511446697
32
0.0000000000
13
0.1287021980
23
-0.4522336882
33
0.0000000000
40
0.0000000000
40
0.0000000000
40
0.0000000000
40
0.0000000000
40
0.7475441530
40
1.0000000000
40
1.0000000000
40
1.0000000000
40
1.0000000000
10
-90.9379896221
20
16.6322479827
30
0.0000000000
10
-90.9049813912
20
16.5198311294
30
0.0000000000
10
-90.8613127929
20
16.3693061500
30
0.0000000000
10
-90.8182595372
20
16.2186049750
30
0.0000000000
10
-90.8074289964
20
16.1805486287
30
0.0000000000
11
-90.9379896221
21
16.6322479827
31
0.0000000000
11
-90.8400368477
21
16.2946845309
31
0.0000000000
11
-90.8074289964
21
16.1805486287
31
0.0000000000
0
SPLINE
5
394
100
AcDbEntity
8
0
100
AcDbSpline
62
7
6
CONTINUOUS
70
0
71
3
72
8
73
4
74
2
42
0.0000001000
43
0.0000001000
44
0.0000000001
12
0.0656154632
22
-0.2305595659
32
0.0000000000
13
0.0646908787
23
-0.2308207661
33
0.0000000000
40
0.0000000000
40
0.0000000000
40
0.0000000000
40
0.0000000000
40
1.0000000000
40
1.0000000000
40
1.0000000000
40
1.0000000000
10
-90.8074289964
20
16.1805486287
30
0.0000000000
10
-90.7855571753
20
16.1036954401
30
0.0000000000
10
-90.7638423871
20
16.0267975808
30
0.0000000000
10
-90.7422787609
20
15.9498573255
30
0.0000000000
11
-90.8074289964
21
16.1805486287
31
0.0000000000
11
-90.7422787609
21
15.9498573255
31
0.0000000000
0
SPLINE
5
395
100
AcDbEntity
8
0
100
AcDbSpline
62
7
6
CONTINUOUS
70
0
71
3
72
8
73
4
74
2
42
0.0000001000
43
0.0000001000
44
0.0000000001
12
0.0985935180
22
-0.3517873275
32
0.0000000000
13
0.0965431299
23
-0.3523548946
33
0.0000000000
40
0.0000000000
40
0.0000000000
40
0.0000000000
40
0.0000000000
40
1.0000000000
40
1.0000000000
40
1.0000000000
40
1.0000000000
10
-90.7422787609
20
15.9498573255
30
0.0000000000
10
-90.7094142549
20
15.8325948830
30
0.0000000000
10
-90.6769008669
20
15.7152339630
30
0.0000000000
10
-90.6447198236
20
15.5977823314
30
0.0000000000
11
-90.7422787609
21
15.9498573255
31
0.0000000000
11
-90.6447198236
21
15.5977823314
31
0.0000000000
0
SPLINE
5
396
100
AcDbEntity
8
0
100
AcDbSpline
62
9
6
CONTINUOUS
70
0
71
3
72
9
73
5
74
3
42
0.0000001000
43
0.0000001000
44
0.0000000001
12
-0.8961915633
22
13.4516325221
32
0.0000000000
13
-1.2090270023
23
13.4271303910
33
0.0000000000
40
0.0000000000
40
0.0000000000
40
0.0000000000
40
0.0000000000
40
0.4759771202
40
1.0000000000
40
1.0000000000
40
1.0000000000
40
1.0000000000
10
103.8370248447
20
-39.9310878481
30
0.0000000000
10
103.6948359515
20
-37.7968647447
30
0.0000000000
10
103.3618086836
20
-33.3152508272
30
0.0000000000
10
102.9773877696
20
-28.8378302742
30
0.0000000000
10
102.7662018324
20
-26.4924557626
30
0.0000000000
11
103.8370248447
21
-39.9310878481
31
0.0000000000
11
103.3661657843
21
-33.5315233963
31
0.0000000000
11
102.7662018324
21
-26.4924557626
31
0.0000000000
0
SPLINE
5
397
100
AcDbEntity
8
0
100
AcDbSpline
62
9
6
CONTINUOUS
70
0
71
3
72
9
73
5
74
3
42
0.0000001000
43
0.0000001000
44
0.0000000001
12
-1.2090278033
22
-13.4271391428
32
0.0000000000
13
-0.8961921763
23
-13.4516412891
33
0.0000000000
40
0.0000000000
40
0.0000000000
40
0.0000000000
40
0.0000000000
40
0.5240241203
40
1.0000000000
40
1.0000000000
40
1.0000000000
40
1.0000000000
10
-103.1921863451
20
-26.4924557582
30
0.0000000000
10
-103.4033729221
20
-28.8378373507
30
0.0000000000
10
-103.7878117587
20
-33.3152588493
30
0.0000000000
10
-104.1209341296
20
-37.7968689162
30
0.0000000000
10
-104.2631227494
20
-39.9310878481
30
0.0000000000
11
-103.1921863451
21
-26.4924557582
31
0.0000000000
11
-103.7921918013
21
-33.5315412611
31
0.0000000000
11
-104.2631227494
21
-39.9310878481
31
0.0000000000
0
SPLINE
5
398
100
AcDbEntity
8
0
100
AcDbSpline
62
7
6
CONTINUOUS
70
0
71
3
72
10
73
6
74
4
42
0.0000001000
43
0.0000001000
44
0.0000000001
12
0.1262852240
22
-0.4609050569
32
0.0000000000
13
-0.0000000000
23
-0.4778926964
33
0.0000000000
40
0.0000000000
40
0.0000000000
40
0.0000000000
40
0.0000000000
40
0.2199411624
40
0.5743898233
40
1.0000000000
40
1.0000000000
40
1.0000000000
40
1.0000000000
10
-90.6447198236
20
15.5977823314
30
0.0000000000
10
-90.6354613839
20
15.5639916668
30
0.0000000000
10
-90.6261227757
20
15.4723456785
30
0.0000000000
10
-90.6161198574
20
15.3136736622
30
0.0000000000
10
-90.6142815671
20
15.1892734334
30
0.0000000000
10
-90.6142815671
20
15.1214747684
30
0.0000000000
11
-90.6447198236
21
15.5977823314
31
0.0000000000
11
-90.6288364587
21
15.4938810888
31
0.0000000000
11
-90.6180631718
21
15.3248356059
31
0.0000000000
11
-90.6142815671
21
15.1214747684
31
0.0000000000
0
SPLINE
5
399
100
AcDbEntity
8
0
100
AcDbSpline
62
9
6
CONTINUOUS
70
0
71
3
72
10
73
6
74
4
42
0.0000001000
43
0.0000001000
44
0.0000000001
12
0.0268246376
22
0.5110141969
32
0.0000000000
13
0.4661492430
23
0.2262706578
33
0.0000000000
40
0.0000000000
40
0.0000000000
40
0.0000000000
40
0.0000000000
40
0.4714057571
40
0.9541316646
40
1.0000000000
40
1.0000000000
40
1.0000000000
40
1.0000000000
10
-103.9529978922
20
15.2860540209
30
0.0000000000
10
-103.9487827960
20
15.3663523657
30
0.0000000000
10
-103.8948310201
20
15.5292681369
30
0.0000000000
10
-103.7639081972
20
15.6486610893
30
0.0000000000
10
-103.6827072033
20
15.6904061148
30
0.0000000000
10
-103.6755800400
20
15.6938656676
30
0.0000000000
11
-103.9529978922
21
15.2860540209
31
0.0000000000
11
-103.8781481483
21
15.5153744010
31
0.0000000000
11
-103.6967091771
21
15.6830004572
31
0.0000000000
11
-103.6755800400
21
15.6938656676
31
0.0000000000
0
SPLINE
5
39A
100
AcDbEntity
8
0
100
AcDbSpline
62
9
6
CONTINUOUS
70
0
71
3
72
9
73
5
74
3
42
0.0000001000
43
0.0000001000
44
0.0000000001
12
0.0210437342
22
0.4695737012
32
0.0000000000
13
0.4046586382
23
0.2496587512
33
0.0000000000
40
0.0000000000
40
0.0000000000
40
0.0000000000
40
0.0000000000
40
0.5217060858
40
1.0000000000
40
1.0000000000
40
1.0000000000
40
1.0000000000
10
-104.4198498164
20
17.8225396868
30
0.0000000000
10
-104.4161902683
20
17.9041995060
30
0.0000000000
10
-104.3660445601
20
18.0615298015
30
0.0000000000
10
-104.2502815088
20
18.1748575484
30
0.0000000000
10
-104.1857662542
20
18.2146609688
30
0.0000000000
11
-104.4198498164
21
17.8225396868
31
0.0000000000
11
-104.3460080787
21
18.0563833591
31
0.0000000000
11
-104.1857662542
21
18.2146609688
31
0.0000000000
0
SPLINE
5
39B
100
AcDbEntity
8
0
100
AcDbSpline
62
9
6
CONTINUOUS
70
0
71
3
72
9
73
5
74
3
42
0.0000001000
43
0.0000001000
44
0.0000000001
12
0.0178498496
22
0.4747591455
32
0.0000000000
13
0.4079750101
23
0.2541170696
33
0.0000000000
40
0.0000000000
40
0.0000000000
40
0.0000000000
40
0.0000000000
40
0.5224217844
40
1.0000000000
40
1.0000000000
40
1.0000000000
40
1.0000000000
10
-104.7653955973
20
19.4734615454
30
0.0000000000
10
-104.7622872139
20
19.5561363854
30
0.0000000000
10
-104.7130672484
20
19.7155776951
30
0.0000000000
10
-104.5968632958
20
19.8310940531
30
0.0000000000
10
-104.5319166367
20
19.8715476453
30
0.0000000000
11
-104.7653955973
21
19.4734615454
31
0.0000000000
11
-104.6925784769
21
19.7107394161
31
0.0000000000
11
-104.5319166367
21
19.8715476453
31
0.0000000000
0
SPLINE
5
39C
100
AcDbEntity
8
0
100
AcDbSpline
62
9
6
CONTINUOUS
70
0
71
3
72
9
73
5
74
3
42
0.0000001000
43
0.0000001000
44
0.0000000001
12
-0.0179660921
22
0.4747047041
32
0.0000000000
13
-0.4079564504
23
0.2540478535
33
0.0000000000
40
0.0000000000
40
0.0000000000
40
0.0000000000
40
0.0000000000
40
0.5224208278
40
1.0000000000
40
1.0000000000
40
1.0000000000
40
1.0000000000
10
104.3394017498
20
19.4734623347
30
0.0000000000
10
104.3362731296
20
19.5561275428
30
0.0000000000
10
104.2870245874
20
19.7155391836
30
0.0000000000
10
104.1708178248
20
19.8310255441
30
0.0000000000
10
104.1058739901
20
19.8714681986
30
0.0000000000
11
104.3394017498
21
19.4734623347
31
0.0000000000
11
104.2665417279
21
19.7106992234
31
0.0000000000
11
104.1058739901
21
19.8714681986
31
0.0000000000
0
SPLINE
5
39D
100
AcDbEntity
8
0
100
AcDbSpline
62
9
6
CONTINUOUS
70
0
71
3
72
9
73
5
74
3
42
0.0000001000
43
0.0000001000
44
0.0000000001
12
-0.0210437386
22
0.4695736910
32
0.0000000000
13
-0.4046586269
23
0.2496587500
33
0.0000000000
40
0.0000000000
40
0.0000000000
40
0.0000000000
40
0.0000000000
40
0.5217060895
40
1.0000000000
40
1.0000000000
40
1.0000000000
40
1.0000000000
10
103.9938252199
20
17.8225396866
30
0.0000000000
10
103.9901656711
20
17.9041995046
30
0.0000000000
10
103.9400199630
20
18.0615297963
30
0.0000000000
10
103.8242569149
20
18.1748575410
30
0.0000000000
10
103.7597416625
20
18.2146609610
30
0.0000000000
11
103.9938252199
21
17.8225396866
31
0.0000000000
11
103.9199834818
21
18.0563833551
31
0.0000000000
11
103.7597416625
21
18.2146609610
31
0.0000000000
0
SPLINE
5
39E
100
AcDbEntity
8
0
100
AcDbSpline
62
9
6
CONTINUOUS
70
0
71
3
72
10
73
6
74
4
42
0.0000001000
43
0.0000001000
44
0.0000000001
12
-0.0268219855
22
0.5109638137
32
0.0000000000
13
-0.4660804793
23
0.2262941402
33
0.0000000000
40
0.0000000000
40
0.0000000000
40
0.0000000000
40
0.0000000000
40
0.4714522919
40
0.9542262185
40
1.0000000000
40
1.0000000000
40
1.0000000000
40
1.0000000000
10
103.5269740759
20
15.2860540404
30
0.0000000000
10
103.5227589804
20
15.3663523940
30
0.0000000000
10
103.4688070839
20
15.5292682407
30
0.0000000000
10
103.3378970566
20
15.6486492940
30
0.0000000000
10
103.2567134456
20
15.6903904915
30
0.0000000000
10
103.2496020236
20
15.6938432710
30
0.0000000000
11
103.5269740759
21
15.2860540404
31
0.0000000000
11
103.4521242355
21
15.5153744169
31
0.0000000000
11
103.2706849868
21
15.6830004894
31
0.0000000000
11
103.2496020236
21
15.6938432710
31
0.0000000000
0
SPLINE
5
39F
100
AcDbEntity
8
0
100
AcDbSpline
62
7
6
CONTINUOUS
70
0
71
3
72
10
73
6
74
4
42
0.0000001000
43
0.0000001000
44
0.0000000001
12
0.0000000000
22
0.4778926964
32
0.0000000000
13
0.1262852240
23
0.4609050569
33
0.0000000000
40
0.0000000000
40
0.0000000000
40
0.0000000000
40
0.0000000000
40
0.4256101767
40
0.7800588376
40
1.0000000000
40
1.0000000000
40
1.0000000000
40
1.0000000000
10
90.1882569769
20
15.1214747684
30
0.0000000000
10
90.1882569769
20
15.1892734334
30
0.0000000000
10
90.1900952672
20
15.3136736622
30
0.0000000000
10
90.2000981856
20
15.4723456785
30
0.0000000000
10
90.2094367937
20
15.5639916668
30
0.0000000000
10
90.2186952334
20
15.5977823314
30
0.0000000000
11
90.1882569769
21
15.1214747684
31
0.0000000000
11
90.1920385816
21
15.3248356059
31
0.0000000000
11
90.2028118686
21
15.4938810888
31
0.0000000000
11
90.2186952334
21
15.5977823314
31
0.0000000000
0
SPLINE
5
3A0
100
AcDbEntity
8
0
100
AcDbSpline
62
9
6
CONTINUOUS
70
0
71
3
72
14
73
10
74
8
42
0.0000001000
43
0.0000001000
44
0.0000000001
12
-1.0206062558
22
0.0163835260
32
0.0000000000
13
-0.3601466669
23
0.9550915807
33
0.0000000000
40
0.0000000000
40
0.0000000000
40
0.0000000000
40
0.0000000000
40
0.1910787477
40
0.3853416159
40
0.5706970689
40
0.7338568222
40
0.8625911202
40
0.9500630323
40
1.0000000000
40
1.0000000000
40
1.0000000000
40
1.0000000000
10
-102.9598754789
20
15.1214747684
30
0.0000000000
10
-103.0248808673
20
15.1225182830
30
0.0000000000
10
-103.1559606763
20
15.1266490644
30
0.0000000000
10
-103.3497356463
20
15.1391142386
30
0.0000000000
10
-103.5336242309
20
15.1581997408
30
0.0000000000
10
-103.6937916066
20
15.1827547140
30
0.0000000000
10
-103.8208501191
20
15.2121070373
30
0.0000000000
10
-103.9041264078
20
15.2416356017
30
0.0000000000
10
-103.9470029762
20
15.2701558885
30
0.0000000000
10
-103.9529978537
20
15.2860540143
30
0.0000000000
11
-102.9598754789
21
15.1214747684
31
0.0000000000
11
-103.1548183922
21
15.1276687612
31
0.0000000000
11
-103.3526855816
21
15.1406330035
31
0.0000000000
11
-103.5408298334
21
15.1605859104
31
0.0000000000
11
-103.7052827859
21
15.1868899697
31
0.0000000000
11
-103.8329817600
21
15.2178733851
31
0.0000000000
11
-103.9158229965
21
15.2511795159
31
0.0000000000
11
-103.9529978537
21
15.2860540143
31
0.0000000000
0
SPLINE
5
3A1
100
AcDbEntity
8
0
100
AcDbSpline
62
9
6
CONTINUOUS
70
0
71
3
72
14
73
10
74
8
42
0.0000001000
43
0.0000001000
44
0.0000000001
12
-0.3601524676
22
-0.9550906292
32
0.0000000000
13
-1.0206073691
23
-0.0163862137
33
0.0000000000
40
0.0000000000
40
0.0000000000
40
0.0000000000
40
0.0000000000
40
0.0499031545
40
0.1372639473
40
0.2658624168
40
0.4288878885
40
0.6142029148
40
0.8085882941
40
1.0000000000
40
1.0000000000
40
1.0000000000
40
1.0000000000
10
103.5269732635
20
15.2860540143
30
0.0000000000
10
103.5209823488
20
15.2701666692
30
0.0000000000
10
103.4781603904
20
15.2416670170
30
0.0000000000
10
103.3949749310
20
15.2121520066
30
0.0000000000
10
103.2680496198
20
15.1828093594
30
0.0000000000
10
103.1079889528
20
15.1582495709
30
0.0000000000
10
102.9241198332
20
15.1391470721
30
0.0000000000
10
102.7302045111
20
15.1266589846
30
0.0000000000
10
102.5989696213
20
15.1225202728
30
0.0000000000
10
102.5338508888
20
15.1214747684
30
0.0000000000
11
103.5269732635
21
15.2860540143
31
0.0000000000
11
103.4898292630
21
15.2511969868
31
0.0000000000
11
103.4070995869
21
15.2179171712
31
0.0000000000
11
103.2795403322
21
15.1869452851
31
0.0000000000
11
103.1152260675
21
15.1606407959
31
0.0000000000
11
102.9271247786
21
15.1406720400
31
0.0000000000
11
102.7291335454
21
15.1276848937
31
0.0000000000
11
102.5338508888
21
15.1214747684
31
0.0000000000
0
SPLINE
5
3A2
100
AcDbEntity
8
0
100
AcDbSpline
62
9
6
CONTINUOUS
70
0
71
3
72
16
73
12
74
10
42
0.0000001000
43
0.0000001000
44
0.0000000001
12
0.0662487527
22
2.7950130176
32
0.0000000000
13
2.7666057625
23
0.4137304224
33
0.0000000000
40
0.0000000000
40
0.0000000000
40
0.0000000000
40
0.0000000000
40
0.1251212042
40
0.2580506941
40
0.3929426408
40
0.5237289928
40
0.6448404716
40
0.7548898390
40
0.8547866556
40
0.9444453251
40
1.0000000000
40
1.0000000000
40
1.0000000000
40
1.0000000000
10
-104.4532464393
20
39.8930108205
30
0.0000000000
10
-104.4504833981
20
40.0095826186
30
0.0000000000
10
-104.4240636482
20
40.2500077016
30
0.0000000000
10
-104.3196843016
20
40.6030929557
30
0.0000000000
10
-104.1494400524
20
40.9357504083
30
0.0000000000
10
-103.9276487969
20
41.2224623599
30
0.0000000000
10
-103.6763544092
20
41.4499198413
30
0.0000000000
10
-103.4160267945
20
41.6178008493
30
0.0000000000
10
-103.1607444061
20
41.7331699612
30
0.0000000000
10
-102.9412908477
20
41.7987488455
30
0.0000000000
10
-102.8081685090
20
41.8240318275
30
0.0000000000
10
-102.7569358811
20
41.8316933805
30
0.0000000000
11
-104.4532464393
21
39.8930108205
31
0.0000000000
11
-104.4149589054
21
40.2407228154
31
0.0000000000
11
-104.3095526985
21
40.5971057547
31
0.0000000000
11
-104.1376654788
21
40.9327876030
31
0.0000000000
11
-103.9138934796
21
41.2219720475
31
0.0000000000
11
-103.6628321960
21
41.4491732411
31
0.0000000000
11
-103.4042526712
21
41.6159096517
31
0.0000000000
11
-103.1497432403
21
41.7309252732
31
0.0000000000
11
-102.9095714368
21
41.8027007318
31
0.0000000000
11
-102.7569358811
21
41.8316933805
31
0.0000000000
0
SPLINE
5
3A3
100
AcDbEntity
8
0
100
AcDbSpline
62
9
6
CONTINUOUS
70
0
71
3
72
9
73
5
74
3
42
0.0000001000
43
0.0000001000
44
0.0000000001
12
0.2852267725
22
0.0426540690
32
0.0000000000
13
0.2882352278
23
0.0008176562
33
0.0000000000
40
0.0000000000
40
0.0000000000
40
0.0000000000
40
0.0000000000
40
0.2590841045
40
1.0000000000
40
1.0000000000
40
1.0000000000
40
1.0000000000
10
-102.7569358811
20
41.8316933805
30
0.0000000000
10
-102.7323033068
20
41.8353770442
30
0.0000000000
10
-102.6369567913
20
41.8478007316
30
0.0000000000
10
-102.5408152615
20
41.8532571795
30
0.0000000000
10
-102.4696292409
20
41.8534591177
30
0.0000000000
11
-102.7569358811
21
41.8316933805
31
0.0000000000
11
-102.6828444086
21
41.8413469311
31
0.0000000000
11
-102.4696292409
21
41.8534591177
31
0.0000000000
0
SPLINE
5
3A4
100
AcDbEntity
8
0
100
AcDbSpline
62
9
6
CONTINUOUS
70
0
71
3
72
9
73
5
74
3
42
0.0000001000
43
0.0000001000
44
0.0000000001
12
0.2857610237
22
-0.0008108317
32
0.0000000000
13
0.2828274495
23
-0.0419331710
33
0.0000000000
40
0.0000000000
40
0.0000000000
40
0.0000000000
40
0.0000000000
40
0.7415693959
40
1.0000000000
40
1.0000000000
40
1.0000000000
40
1.0000000000
10
102.0436047135
20
41.8534590018
30
0.0000000000
10
102.1142419234
20
41.8532585725
30
0.0000000000
10
102.2095573019
20
41.8478887507
30
0.0000000000
10
102.3040966097
20
41.8356705197
30
0.0000000000
10
102.3284603659
20
41.8320582481
30
0.0000000000
11
102.0436047135
21
41.8534590018
31
0.0000000000
11
102.2551810779
21
41.8415282689
31
0.0000000000
11
102.3284603659
21
41.8320582481
31
0.0000000000
0
SPLINE
5
3A5
100
AcDbEntity
8
0
100
AcDbSpline
62
9
6
CONTINUOUS
70
0
71
3
72
16
73
12
74
10
42
0.0000001000
43
0.0000001000
44
0.0000000001
12
2.7695072113
22
-0.4106186282
32
0.0000000000
13
0.0663056813
23
-2.7974589831
33
0.0000000000
40
0.0000000000
40
0.0000000000
40
0.0000000000
40
0.0000000000
40
0.0547983431
40
0.1431613067
40
0.2418185637
40
0.3509134870
40
0.4715969877
40
0.6027445668
40
0.7386838166
40
0.8731340627
40
1.0000000000
40
1.0000000000
40
1.0000000000
40
1.0000000000
10
102.3284603659
20
41.8320582481
30
0.0000000000
10
102.3790485013
20
41.8245578413
30
0.0000000000
10
102.5104436237
20
41.7998414262
30
0.0000000000
10
102.7273245694
20
41.7357673974
30
0.0000000000
10
102.9803794068
20
41.6228636252
30
0.0000000000
10
103.2398853458
20
41.4577853919
30
0.0000000000
10
103.4922714532
20
41.2325434605
30
0.0000000000
10
103.7168025345
20
40.9463777205
30
0.0000000000
10
103.8903702385
20
40.6119276538
30
0.0000000000
10
103.9973256099
20
40.2550000483
30
0.0000000000
10
104.0244179094
20
40.0113111427
30
0.0000000000
10
104.0272218869
20
39.8930103907
30
0.0000000000
11
102.3284603659
21
41.8320582481
31
0.0000000000
11
102.4791984609
21
41.8036998223
31
0.0000000000
11
102.7163262007
21
41.7336389076
31
0.0000000000
11
102.9684398020
21
41.6211586888
31
0.0000000000
11
103.2260230201
21
41.4573195116
31
0.0000000000
11
103.4780000274
21
41.2324857887
31
0.0000000000
11
103.7045762219
21
40.9437995225
31
0.0000000000
11
103.8798722777
21
40.6062068402
31
0.0000000000
11
103.9879147984
21
40.2458295011
31
0.0000000000
11
104.0272218869
21
39.8930103907
31
0.0000000000
0
SPLINE
5
3A6
100
AcDbEntity
8
0
100
AcDbSpline
62
9
6
CONTINUOUS
70
0
71
3
72
18
73
14
74
12
42
0.0000001000
43
0.0000001000
44
0.0000000001
12
-0.0375832891
22
-3.1628424754
32
0.0000000000
13
3.1625706538
23
-0.0559632658
33
0.0000000000
40
0.0000000000
40
0.0000000000
40
0.0000000000
40
0.0000000000
40
0.0995986939
40
0.2046545156
40
0.3119748262
40
0.4184042181
40
0.5207657697
40
0.6170298445
40
0.7065457039
40
0.7893042124
40
0.8653051905
40
0.9342423829
40
1.0000000000
40
1.0000000000
40
1.0000000000
40
1.0000000000
10
-105.1468107007
20
-24.4154346652
30
0.0000000000
10
-105.1480584495
20
-24.5204396584
30
0.0000000000
10
-105.1346082480
20
-24.7367262678
30
0.0000000000
10
-105.0641701305
20
-25.0593691330
30
0.0000000000
10
-104.9405645957
20
-25.3735656449
30
0.0000000000
10
-104.7690669270
20
-25.6610858632
30
0.0000000000
10
-104.5611139463
20
-25.9082527237
30
0.0000000000
10
-104.3308603467
20
-26.1082479704
30
0.0000000000
10
-104.0912309990
20
-26.2608777388
30
0.0000000000
10
-103.8524042501
20
-26.3699430721
30
0.0000000000
10
-103.6224280804
20
-26.4409663305
30
0.0000000000
10
-103.4034839503
20
-26.4811186060
30
0.0000000000
10
-103.2615074452
20
-26.4912411714
30
0.0000000000
10
-103.1921864084
20
-26.4924678417
30
0.0000000000
11
-105.1468107007
21
-24.4154346652
31
0.0000000000
11
-105.1272085634
21
-24.7298614538
31
0.0000000000
11
-105.0562660981
21
-25.0544988542
31
0.0000000000
11
-104.9318774957
21
-25.3703491070
31
0.0000000000
11
-104.7593100181
21
-25.6593976960
31
0.0000000000
11
-104.5507638037
21
-25.9070659852
31
0.0000000000
11
-104.3208166371
21
-26.1066611168
31
0.0000000000
11
-104.0819639196
21
-26.2587144483
31
0.0000000000
11
-103.8438302102
21
-26.3674167305
31
0.0000000000
11
-103.6141323951
21
-26.4383335457
31
0.0000000000
11
-103.3996537510
21
-26.4776523286
31
0.0000000000
11
-103.1921864084
21
-26.4924678417
31
0.0000000000
0
SPLINE
5
3A7
100
AcDbEntity
8
0
100
AcDbSpline
62
9
6
CONTINUOUS
70
0
71
3
72
17
73
13
74
11
42
0.0000001000
43
0.0000001000
44
0.0000000001
12
3.1619355873
22
0.0556396833
32
0.0000000000
13
-0.0374905799
23
3.1622028539
33
0.0000000000
40
0.0000000000
40
0.0000000000
40
0.0000000000
40
0.0000000000
40
0.0720164604
40
0.1477719665
40
0.2314165173
40
0.3236255445
40
0.4244271115
40
0.5339670868
40
0.6504915919
40
0.7700813165
40
0.8880955536
40
1.0000000000
40
1.0000000000
40
1.0000000000
40
1.0000000000
10
102.7662017832
20
-26.4924666117
30
0.0000000000
10
102.8421055862
20
-26.4911309540
30
0.0000000000
10
102.9978448727
20
-26.4792076985
30
0.0000000000
10
103.2376461947
20
-26.4313099960
30
0.0000000000
10
103.4896039750
20
-26.3458426535
30
0.0000000000
10
103.7506421945
20
-26.2134104980
30
0.0000000000
10
104.0105074910
20
-26.0261432762
30
0.0000000000
10
104.2539559842
20
-25.7798919894
30
0.0000000000
10
104.4618380630
20
-25.4782378718
30
0.0000000000
10
104.6157245020
20
-25.1358388535
30
0.0000000000
10
104.7048504316
20
-24.7764322441
30
0.0000000000
10
104.7221843409
20
-24.5333699819
30
0.0000000000
10
104.7207858867
20
-24.4154151286
30
0.0000000000
11
102.7662017832
21
-26.4924666117
31
0.0000000000
11
102.9932835814
21
-26.4750769994
31
0.0000000000
11
103.2282167221
21
-26.4281649802
31
0.0000000000
11
103.4787266414
21
-26.3432213945
31
0.0000000000
11
103.7388063236
21
-26.2113444292
31
0.0000000000
11
103.9974891828
21
-26.0250591328
31
0.0000000000
11
104.2411436614
21
-25.7788199293
31
0.0000000000
11
104.4503987789
21
-25.4754973962
31
0.0000000000
11
104.6056020096
21
-25.1306172505
31
0.0000000000
11
104.6955284136
21
-24.7684020800
31
0.0000000000
11
104.7207858867
21
-24.4154151286
31
0.0000000000
0
SPLINE
5
3A8
100
AcDbEntity
8
0
100
AcDbSpline
62
9
6
CONTINUOUS
70
0
71
3
72
10
73
6
74
4
42
0.0000001000
43
0.0000001000
44
0.0000000001
12
-1.0900490664
22
39.5672801139
32
0.0000000000
13
-1.2688032261
23
39.5619514301
33
0.0000000000
40
0.0000000000
40
0.0000000000
40
0.0000000000
40
0.0000000000
40
0.3283250118
40
0.6615901600
40
1.0000000000
40
1.0000000000
40
1.0000000000
40
1.0000000000
10
103.7225052339
20
-24.4429357658
30
0.0000000000
10
103.6032084430
20
-20.1126265284
30
0.0000000000
10
103.3543650765
20
-11.3870834736
30
0.0000000000
10
102.9563850373
20
1.8010148324
30
0.0000000000
10
102.6769760535
20
10.6587568840
30
0.0000000000
10
102.5338508879
20
15.1214747684
30
0.0000000000
11
103.7225052339
21
-24.4429357658
31
0.0000000000
11
103.3526628997
21
-11.4523428235
31
0.0000000000
11
102.9554547318
21
1.7330741259
31
0.0000000000
11
102.5338508879
21
15.1214747684
31
0.0000000000
0
SPLINE
5
3A9
100
AcDbEntity
8
0
100
AcDbSpline
62
9
6
CONTINUOUS
70
0
71
3
72
17
73
13
74
11
42
0.0000001000
43
0.0000001000
44
0.0000000001
12
1.7654982011
22
-0.0000284873
32
0.0000000000
13
-0.0486041219
23
1.7648290394
33
0.0000000000
40
0.0000000000
40
0.0000000000
40
0.0000000000
40
0.0000000000
40
0.0645209997
40
0.1325904175
40
0.2086289859
40
0.2942303499
40
0.3906490941
40
0.4992656116
40
0.6192412437
40
0.7466480453
40
0.8756977498
40
1.0000000000
40
1.0000000000
40
1.0000000000
40
1.0000000000
10
102.7661849133
20
-25.7112709837
30
0.0000000000
10
102.8041554829
20
-25.7112715964
30
0.0000000000
10
102.8823050513
20
-25.7055806818
30
0.0000000000
10
103.0024850361
20
-25.6783011874
30
0.0000000000
10
103.1284648227
20
-25.6275893320
30
0.0000000000
10
103.2584031680
20
-25.5475250622
30
0.0000000000
10
103.3868431543
20
-25.4332410101
30
0.0000000000
10
103.5059149712
20
-25.2823068645
30
0.0000000000
10
103.6060807333
20
-25.0971569319
30
0.0000000000
10
103.6785967738
20
-24.8868265951
30
0.0000000000
10
103.7186876119
20
-24.6655703417
30
0.0000000000
10
103.7245191011
20
-24.5160598394
30
0.0000000000
10
103.7225052339
20
-24.4429357658
30
0.0000000000
11
102.7661849133
21
-25.7112709837
31
0.0000000000
11
102.8797941455
21
-25.7029752159
31
0.0000000000
11
102.9970065353
21
-25.6764491694
31
0.0000000000
11
103.1216138991
21
-25.6264993792
31
0.0000000000
11
103.2504766954
21
-25.5475413477
31
0.0000000000
11
103.3780264716
21
-25.4348101330
31
0.0000000000
11
103.4973667456
21
-25.2847079485
31
0.0000000000
11
103.5988273266
21
-25.0987722300
31
0.0000000000
11
103.6727515379
21
-24.8863301659
31
0.0000000000
11
103.7137792443
21
-24.6622176149
31
0.0000000000
11
103.7225052339
21
-24.4429357658
31
0.0000000000
0
SPLINE
5
3AA
100
AcDbEntity
8
0
100
AcDbSpline
62
9
6
CONTINUOUS
70
0
71
3
72
18
73
14
74
12
42
0.0000001000
43
0.0000001000
44
0.0000000001
12
-0.0486148491
22
-1.7651620094
32
0.0000000000
13
1.7658313398
23
-0.0000465494
33
0.0000000000
40
0.0000000000
40
0.0000000000
40
0.0000000000
40
0.0000000000
40
0.1107175160
40
0.2259877122
40
0.3412268567
40
0.4522503510
40
0.5555255979
40
0.6493958393
40
0.7340198789
40
0.8103225356
40
0.8791966600
40
0.9410912613
40
1.0000000000
40
1.0000000000
40
1.0000000000
40
1.0000000000
10
-104.1485298220
20
-24.4429357437
30
0.0000000000
10
-104.1503239938
20
-24.5080805280
30
0.0000000000
10
-104.1460849328
20
-24.6414039233
30
0.0000000000
10
-104.1147437651
20
-24.8403474853
30
0.0000000000
10
-104.0568438160
20
-25.0335566359
30
0.0000000000
10
-103.9746594096
20
-25.2100547105
30
0.0000000000
10
-103.8735354935
20
-25.3615364385
30
0.0000000000
10
-103.7603732123
20
-25.4837543324
30
0.0000000000
10
-103.6416849161
20
-25.5764909271
30
0.0000000000
10
-103.5227352297
20
-25.6420567566
30
0.0000000000
10
-103.4077619839
20
-25.6839042573
30
0.0000000000
10
-103.2980815877
20
-25.7065441240
30
0.0000000000
10
-103.2268837993
20
-25.7112700582
30
0.0000000000
10
-103.1922095003
20
-25.7112709723
30
0.0000000000
11
-104.1485298220
21
-24.4429357437
31
0.0000000000
11
-104.1422056430
21
-24.6383418914
31
0.0000000000
11
-104.1102631468
21
-24.8393676443
31
0.0000000000
11
-104.0514417165
21
-25.0341736937
31
0.0000000000
11
-103.9681973578
21
-25.2116715677
31
0.0000000000
11
-103.8664745689
21
-25.3630323146
31
0.0000000000
11
-103.7534903799
21
-25.4843196750
31
0.0000000000
11
-103.6355033444
21
-25.5760198208
31
0.0000000000
11
-103.5173816130
21
-25.6408386719
31
0.0000000000
11
-103.4030519471
21
-25.6823136426
31
0.0000000000
11
-103.2960023023
21
-25.7043559619
31
0.0000000000
11
-103.1922095003
21
-25.7112709723
31
0.0000000000
0
SPLINE
5
3AB
100
AcDbEntity
8
0
100
AcDbSpline
62
9
6
CONTINUOUS
70
0
71
3
72
10
73
6
74
4
42
0.0000001000
43
0.0000001000
44
0.0000000001
12
-1.2688032256
22
-39.5619514080
32
0.0000000000
13
-1.0900490661
23
-39.5672800918
33
0.0000000000
40
0.0000000000
40
0.0000000000
40
0.0000000000
40
0.0000000000
40
0.3384098394
40
0.6716749878
40
1.0000000000
40
1.0000000000
40
1.0000000000
40
1.0000000000
10
-102.9598754781
20
15.1214747684
30
0.0000000000
10
-103.1030006433
20
10.6587568947
30
0.0000000000
10
-103.3824096266
20
1.8010148521
30
0.0000000000
10
-103.7803896666
20
-11.3870834465
30
0.0000000000
10
-104.0292330310
20
-20.1126265047
30
0.0000000000
10
-104.1485298220
20
-24.4429357437
30
0.0000000000
11
-102.9598754781
21
15.1214747684
31
0.0000000000
11
-103.3814793210
21
1.7330741580
31
0.0000000000
11
-103.7786874891
21
-11.4523427965
31
0.0000000000
11
-104.1485298220
21
-24.4429357437
31
0.0000000000
0
SPLINE
5
3AC
100
AcDbEntity
8
0
100
AcDbSpline
62
9
6
CONTINUOUS
70
0
71
3
72
9
73
5
74
3
42
0.0000001000
43
0.0000001000
44
0.0000000001
12
-0.3208495842
22
-1.6383992225
32
0.0000000000
13
-0.2966885657
23
-1.6429498301
33
0.0000000000
40
0.0000000000
40
0.0000000000
40
0.0000000000
40
0.0000000000
40
0.4849935774
40
1.0000000000
40
1.0000000000
40
1.0000000000
40
1.0000000000
10
103.9938252231
20
17.8225396867
30
0.0000000000
10
103.9419552273
20
17.5576686533
30
0.0000000000
10
103.8372874366
20
17.0110868417
30
0.0000000000
10
103.7366184444
20
16.4637571295
30
0.0000000000
10
103.6856862721
20
16.1817138913
30
0.0000000000
11
103.9938252231
21
17.8225396867
31
0.0000000000
11
103.8413694073
21
17.0273153967
31
0.0000000000
11
103.6856862721
21
16.1817138913
31
0.0000000000
0
SPLINE
5
3AD
100
AcDbEntity
8
0
100
AcDbSpline
62
9
6
CONTINUOUS
70
0
71
3
72
8
73
4
74
2
42
0.0000001000
43
0.0000001000
44
0.0000000001
12
-0.1067807437
22
-0.5913116482
32
0.0000000000
13
-0.1042195548
23
-0.5917681783
33
0.0000000000
40
0.0000000000
40
0.0000000000
40
0.0000000000
40
0.0000000000
40
1.0000000000
40
1.0000000000
40
1.0000000000
40
1.0000000000
10
103.6856862721
20
16.1817138913
30
0.0000000000
10
103.6500926909
20
15.9846100086
30
0.0000000000
10
103.6149450043
20
15.7874255814
30
0.0000000000
10
103.5802051527
20
15.5901695220
30
0.0000000000
11
103.6856862721
21
16.1817138913
31
0.0000000000
11
103.5802051527
21
15.5901695220
31
0.0000000000
0
SPLINE
5
3AE
100
AcDbEntity
8
0
100
AcDbSpline
62
9
6
CONTINUOUS
70
0
71
3
72
8
73
4
74
2
42
0.0000001000
43
0.0000001000
44
0.0000000001
12
-0.0535496777
22
-0.3040599750
32
0.0000000000
13
-0.0529191387
23
-0.3041698168
33
0.0000000000
40
0.0000000000
40
0.0000000000
40
0.0000000000
40
0.0000000000
40
1.0000000000
40
1.0000000000
40
1.0000000000
40
1.0000000000
10
103.5802051527
20
15.5901695220
30
0.0000000000
10
103.5623552601
20
15.4888161970
30
0.0000000000
10
103.5446130388
20
15.3874439606
30
0.0000000000
10
103.5269733259
20
15.2860540216
30
0.0000000000
11
103.5802051527
21
15.5901695220
31
0.0000000000
11
103.5269733259
21
15.2860540216
31
0.0000000000
0
SPLINE
5
3AF
100
AcDbEntity
8
0
100
AcDbSpline
62
9
6
CONTINUOUS
70
0
71
3
72
9
73
5
74
3
42
0.0000001000
43
0.0000001000
44
0.0000000001
12
-1.2273669303
22
18.4264829835
32
0.0000000000
13
-2.4540700009
23
18.3035309477
33
0.0000000000
40
0.0000000000
40
0.0000000000
40
0.0000000000
40
0.0000000000
40
0.2495811003
40
1.0000000000
40
1.0000000000
40
1.0000000000
40
1.0000000000
10
105.8369877049
20
-0.5506218485
30
0.0000000000
10
105.7348785086
20
0.9823454510
30
0.0000000000
10
105.2742372380
20
7.1209720106
30
0.0000000000
10
104.6076853931
20
13.2441011688
30
0.0000000000
10
103.9938252231
20
17.8225396867
30
0.0000000000
11
105.8369877049
21
-0.5506218485
31
0.0000000000
11
105.4921174791
21
4.0455504494
31
0.0000000000
11
103.9938252231
21
17.8225396867
31
0.0000000000
0
SPLINE
5
3B0
100
AcDbEntity
8
0
100
AcDbSpline
62
9
6
CONTINUOUS
70
0
71
3
72
9
73
5
74
3
42
0.0000001000
43
0.0000001000
44
0.0000000001
12
-0.9293003034
22
13.7987320021
32
0.0000000000
13
-1.2626943495
23
13.7722259239
33
0.0000000000
40
0.0000000000
40
0.0000000000
40
0.0000000000
40
0.0000000000
40
0.4754057124
40
1.0000000000
40
1.0000000000
40
1.0000000000
40
1.0000000000
10
105.8369877049
20
-38.2000333358
30
0.0000000000
10
105.6897228140
20
-36.0133679964
30
0.0000000000
10
105.3429033993
20
-31.4162645952
30
0.0000000000
10
104.9416081609
20
-26.8236862682
30
0.0000000000
10
104.7208074134
20
-24.4154092527
30
0.0000000000
11
105.8369877049
21
-38.2000333358
31
0.0000000000
11
105.3476508390
21
-31.6434122759
31
0.0000000000
11
104.7208074134
21
-24.4154092527
31
0.0000000000
0
SPLINE
5
3B1
100
AcDbEntity
8
0
100
AcDbSpline
62
9
6
CONTINUOUS
70
0
71
3
72
10
73
6
74
4
42
0.0000001000
43
0.0000001000
44
0.0000000001
12
-1.0945869405
22
39.7043538522
32
0.0000000000
13
-1.2743971839
23
39.6989892466
33
0.0000000000
40
0.0000000000
40
0.0000000000
40
0.0000000000
40
0.0000000000
40
0.3283154074
40
0.6615799300
40
1.0000000000
40
1.0000000000
40
1.0000000000
40
1.0000000000
10
104.7208074134
20
-24.4154092527
30
0.0000000000
10
104.6010174943
20
-20.0702255485
30
0.0000000000
10
104.3511006235
20
-11.3145912798
30
0.0000000000
10
103.9513839022
20
1.9191910245
30
0.0000000000
10
103.6707338540
20
10.8077424481
30
0.0000000000
10
103.5269733259
20
15.2860540216
30
0.0000000000
11
104.7208074134
21
-24.4154092527
31
0.0000000000
11
104.3493924029
21
-11.3801957785
31
0.0000000000
11
103.9504495525
21
1.8508710068
31
0.0000000000
11
103.5269733259
21
15.2860540216
31
0.0000000000
0
SPLINE
5
3B2
100
AcDbEntity
8
0
100
AcDbSpline
62
9
6
CONTINUOUS
70
0
71
3
72
9
73
5
74
3
42
0.0000001000
43
0.0000001000
44
0.0000000001
12
-0.1981368243
22
-0.8812623920
32
0.0000000000
13
-0.1837854249
23
-0.8843697129
33
0.0000000000
40
0.0000000000
40
0.0000000000
40
0.0000000000
40
0.0000000000
40
0.5887774480
40
1.0000000000
40
1.0000000000
40
1.0000000000
40
1.0000000000
10
104.3394017410
20
19.4734623345
30
0.0000000000
10
104.3005155764
20
19.3005065271
30
0.0000000000
10
104.2360543452
20
19.0063944212
30
0.0000000000
10
104.1739180221
20
18.7117863814
30
0.0000000000
10
104.1487257849
20
18.5905621246
30
0.0000000000
11
104.3394017410
21
19.4734623345
31
0.0000000000
11
104.2254148880
21
18.9540014569
31
0.0000000000
11
104.1487257849
21
18.5905621246
31
0.0000000000
0
SPLINE
5
3B3
100
AcDbEntity
8
0
100
AcDbSpline
62
9
6
CONTINUOUS
70
0
71
3
72
9
73
5
74
3
42
0.0000001000
43
0.0000001000
44
0.0000000001
12
-0.1185264906
22
-0.5703457634
32
0.0000000000
13
-0.1135694558
23
-0.5713533124
33
0.0000000000
40
0.0000000000
40
0.0000000000
40
0.0000000000
40
0.0000000000
40
0.3275237738
40
1.0000000000
40
1.0000000000
40
1.0000000000
40
1.0000000000
10
104.1487257849
20
18.5905621246
30
0.0000000000
10
104.1357857038
20
18.5282948590
30
0.0000000000
10
104.0965665691
20
18.3381193594
30
0.0000000000
10
104.0581895751
20
18.1477713864
30
0.0000000000
10
104.0327319888
20
18.0196975466
30
0.0000000000
11
104.1487257849
21
18.5905621246
31
0.0000000000
11
104.1101856437
21
18.4037023628
31
0.0000000000
11
104.0327319888
21
18.0196975466
31
0.0000000000
0
SPLINE
5
3B4
100
AcDbEntity
8
0
100
AcDbSpline
62
9
6
CONTINUOUS
70
0
71
3
72
8
73
4
74
2
42
0.0000001000
43
0.0000001000
44
0.0000000001
12
-0.0391789537
22
-0.1971042727
32
0.0000000000
13
-0.0386387365
23
-0.1972102803
33
0.0000000000
40
0.0000000000
40
0.0000000000
40
0.0000000000
40
0.0000000000
40
1.0000000000
40
1.0000000000
40
1.0000000000
40
1.0000000000
10
104.0327319888
20
18.0196975466
30
0.0000000000
10
104.0196723375
20
17.9539961224
30
0.0000000000
10
104.0067048020
20
17.8882764468
30
0.0000000000
10
103.9938252231
20
17.8225396867
30
0.0000000000
11
104.0327319888
21
18.0196975466
31
0.0000000000
11
103.9938252231
21
17.8225396867
31
0.0000000000
0
SPLINE
5
3B5
100
AcDbEntity
8
0
100
AcDbSpline
62
9
6
CONTINUOUS
70
0
71
3
72
8
73
4
74
2
42
0.0000001000
43
0.0000001000
44
0.0000000001
12
0.0075332377
22
-0.3154785273
32
0.0000000000
13
0.0060221393
23
-0.3155202140
33
0.0000000000
40
0.0000000000
40
0.0000000000
40
0.0000000000
40
0.0000000000
40
1.0000000000
40
1.0000000000
40
1.0000000000
40
1.0000000000
10
104.4050987053
20
22.8912075124
30
0.0000000000
10
104.4076097845
20
22.7860480033
30
0.0000000000
10
104.4098759932
20
22.6808797678
30
0.0000000000
10
104.4118833730
20
22.5757063631
30
0.0000000000
11
104.4050987053
21
22.8912075124
31
0.0000000000
11
104.4118833730
21
22.5757063631
31
0.0000000000
0
SPLINE
5
3B6
100
AcDbEntity
8
0
100
AcDbSpline
62
9
6
CONTINUOUS
70
0
71
3
72
10
73
6
74
4
42
0.0000001000
43
0.0000001000
44
0.0000000001
12
0.0424169690
22
-2.2223682264
32
0.0000000000
13
-0.0760052798
23
-2.2198674591
33
0.0000000000
40
0.0000000000
40
0.0000000000
40
0.0000000000
40
0.0000000000
40
0.2756200120
40
0.6680017173
40
1.0000000000
40
1.0000000000
40
1.0000000000
40
1.0000000000
10
104.4118833730
20
22.5757063631
30
0.0000000000
10
104.4157803615
20
22.3715299774
30
0.0000000000
10
104.4228610605
20
21.8766341648
30
0.0000000000
10
104.4239852112
20
21.1358316328
30
0.0000000000
10
104.4160349316
20
20.5988542689
30
0.0000000000
10
104.4076237241
20
20.3531902075
30
0.0000000000
11
104.4118833730
21
22.5757063631
31
0.0000000000
11
104.4205458165
21
21.9631447890
31
0.0000000000
11
104.4214814149
21
21.0909953261
31
0.0000000000
11
104.4076237241
21
20.3531902075
31
0.0000000000
0
SPLINE
5
3B7
100
AcDbEntity
8
0
100
AcDbSpline
62
9
6
CONTINUOUS
70
0
71
3
72
9
73
5
74
3
42
0.0000001000
43
0.0000001000
44
0.0000000001
12
-0.0272864717
22
-0.7969492466
32
0.0000000000
13
-0.1244757841
23
-0.7877720930
33
0.0000000000
40
0.0000000000
40
0.0000000000
40
0.0000000000
40
0.0000000000
40
0.6945163497
40
1.0000000000
40
1.0000000000
40
1.0000000000
40
1.0000000000
10
104.4076237241
20
20.3531902075
30
0.0000000000
10
104.4013067572
20
20.1686921136
30
0.0000000000
10
104.3883395604
20
19.9034027290
30
0.0000000000
10
104.3679140932
20
19.6370668884
30
0.0000000000
10
104.3552389876
20
19.5568497235
30
0.0000000000
11
104.4076237241
21
20.3531902075
31
0.0000000000
11
104.3796973780
21
19.7996917224
31
0.0000000000
11
104.3552389876
21
19.5568497235
31
0.0000000000
0
SPLINE
5
3B8
100
AcDbEntity
8
0
100
AcDbSpline
62
9
6
CONTINUOUS
70
0
71
3
72
8
73
4
74
2
42
0.0000001000
43
0.0000001000
44
0.0000000001
12
-0.0132501846
22
-0.0838566776
32
0.0000000000
13
-0.0186671470
23
-0.0828655622
33
0.0000000000
40
0.0000000000
40
0.0000000000
40
0.0000000000
40
0.0000000000
40
1.0000000000
40
1.0000000000
40
1.0000000000
40
1.0000000000
10
104.3552389876
20
19.5568497235
30
0.0000000000
10
104.3508222594
20
19.5288974976
30
0.0000000000
10
104.3456241234
20
19.5010841885
30
0.0000000000
10
104.3394017410
20
19.4734623345
30
0.0000000000
11
104.3552389876
21
19.5568497235
31
0.0000000000
11
104.3394017410
21
19.4734623345
31
0.0000000000
0
SPLINE
5
3B9
100
AcDbEntity
8
0
100
AcDbSpline
62
9
6
CONTINUOUS
70
0
71
3
72
8
73
4
74
2
42
0.0000001000
43
0.0000001000
44
0.0000000001
12
0.0060856287
22
-0.2951317384
32
0.0000000000
13
0.0061014069
23
-0.2951314154
33
0.0000000000
40
0.0000000000
40
0.0000000000
40
0.0000000000
40
0.0000000000
40
1.0000000000
40
1.0000000000
40
1.0000000000
40
1.0000000000
10
104.0272217220
20
39.8930103393
30
0.0000000000
10
104.0292502649
20
39.7946330932
30
0.0000000000
10
104.0312814344
20
39.6962559007
30
0.0000000000
10
104.0333152367
20
39.5978787622
30
0.0000000000
11
104.0272217220
21
39.8930103393
31
0.0000000000
11
104.0333152367
21
39.5978787622
31
0.0000000000
0
SPLINE
5
3BA
100
AcDbEntity
8
0
100
AcDbSpline
62
9
6
CONTINUOUS
70
0
71
3
72
10
73
6
74
4
42
0.0000001000
43
0.0000001000
44
0.0000000001
12
0.3453976400
22
-16.7072441127
32
0.0000000000
13
0.3991043651
23
-16.7060472856
33
0.0000000000
40
0.0000000000
40
0.0000000000
40
0.0000000000
40
0.0000000000
40
0.3339251930
40
0.6730509187
40
1.0000000000
40
1.0000000000
40
1.0000000000
40
1.0000000000
10
104.0333152367
20
39.5978787622
30
0.0000000000
10
104.0717608945
20
37.7382221908
30
0.0000000000
10
104.1511472403
20
33.9899857466
30
0.0000000000
10
104.2750336090
20
28.4210912770
30
0.0000000000
10
104.3616031034
20
24.7118831163
30
0.0000000000
10
104.4050987053
20
22.8912075124
30
0.0000000000
11
104.0333152367
21
39.5978787622
31
0.0000000000
11
104.1515173331
21
34.0189690282
31
0.0000000000
11
104.2775924810
21
28.3533047160
31
0.0000000000
11
104.4050987053
21
22.8912075124
31
0.0000000000
0
SPLINE
5
3BB
100
AcDbEntity
8
0
100
AcDbSpline
62
9
6
CONTINUOUS
70
0
71
3
72
15
73
11
74
9
42
0.0000001000
43
0.0000001000
44
0.0000000001
12
1.1452512620
22
3.9456555235
32
0.0000000000
13
4.1070017206
23
-0.1110622789
33
0.0000000000
40
0.0000000000
40
0.0000000000
40
0.0000000000
40
0.0000000000
40
0.2895120254
40
0.5088676370
40
0.6716787308
40
0.7897029075
40
0.8731259856
40
0.9308435068
40
0.9707620367
40
1.0000000000
40
1.0000000000
40
1.0000000000
40
1.0000000000
10
104.0272217220
20
39.8930103393
30
0.0000000000
10
104.1377430595
20
40.2737819133
30
0.0000000000
10
104.3438371643
20
40.9397896650
30
0.0000000000
10
104.6595549684
20
41.8042763307
30
0.0000000000
10
104.9350755098
20
42.4320516645
30
0.0000000000
10
105.1732202657
20
42.8713046136
30
0.0000000000
10
105.3774357223
20
43.1627540791
30
0.0000000000
10
105.5518749606
20
43.3414123873
30
0.0000000000
10
105.7016851843
20
43.4335652605
30
0.0000000000
10
105.7969646563
20
43.4541962533
30
0.0000000000
10
105.8369914449
20
43.4531138416
30
0.0000000000
11
104.0272217220
21
39.8930103393
31
0.0000000000
11
104.3829634281
21
41.0280281616
31
0.0000000000
11
104.6963049581
21
41.8730254233
31
0.0000000000
11
104.9694626651
21
42.4836196468
31
0.0000000000
11
105.2051211397
21
42.9074069885
31
0.0000000000
11
105.4063428390
21
43.1848655652
31
0.0000000000
11
105.5764388083
21
43.3500903787
31
0.0000000000
11
105.7188348360
21
43.4314607922
31
0.0000000000
11
105.8369914449
21
43.4531138416
31
0.0000000000
0
SPLINE
5
3BC
100
AcDbEntity
8
0
100
AcDbSpline
62
9
6
CONTINUOUS
70
0
71
3
72
8
73
4
74
2
42
0.0000001000
43
0.0000001000
44
0.0000000001
12
-0.0529191387
22
0.3041698167
32
0.0000000000
13
-0.0535496777
23
0.3040599749
33
0.0000000000
40
0.0000000000
40
0.0000000000
40
0.0000000000
40
0.0000000000
40
1.0000000000
40
1.0000000000
40
1.0000000000
40
1.0000000000
10
-103.9529979161
20
15.2860540216
30
0.0000000000
10
-103.9706376290
20
15.3874439606
30
0.0000000000
10
-103.9883798503
20
15.4888161970
30
0.0000000000
10
-104.0062297429
20
15.5901695219
30
0.0000000000
11
-103.9529979161
21
15.2860540216
31
0.0000000000
11
-104.0062297429
21
15.5901695219
31
0.0000000000
0
SPLINE
5
3BD
100
AcDbEntity
8
0
100
AcDbSpline
62
9
6
CONTINUOUS
70
0
71
3
72
8
73
4
74
2
42
0.0000001000
43
0.0000001000
44
0.0000000001
12
-0.1042195548
22
0.5917681783
32
0.0000000000
13
-0.1067807437
23
0.5913116482
33
0.0000000000
40
0.0000000000
40
0.0000000000
40
0.0000000000
40
0.0000000000
40
1.0000000000
40
1.0000000000
40
1.0000000000
40
1.0000000000
10
-104.0062297429
20
15.5901695219
30
0.0000000000
10
-104.0409695945
20
15.7874255814
30
0.0000000000
10
-104.0761172811
20
15.9846100085
30
0.0000000000
10
-104.1117108623
20
16.1817138912
30
0.0000000000
11
-104.0062297429
21
15.5901695219
31
0.0000000000
11
-104.1117108623
21
16.1817138912
31
0.0000000000
0
SPLINE
5
3BE
100
AcDbEntity
8
0
100
AcDbSpline
62
9
6
CONTINUOUS
70
0
71
3
72
9
73
5
74
3
42
0.0000001000
43
0.0000001000
44
0.0000000001
12
-0.2966885657
22
1.6429498302
32
0.0000000000
13
-0.3208495842
23
1.6383992226
33
0.0000000000
40
0.0000000000
40
0.0000000000
40
0.0000000000
40
0.0000000000
40
0.5150064226
40
1.0000000000
40
1.0000000000
40
1.0000000000
40
1.0000000000
10
-104.1117108623
20
16.1817138912
30
0.0000000000
10
-104.1626430346
20
16.4637571294
30
0.0000000000
10
-104.2633120268
20
17.0110868417
30
0.0000000000
10
-104.3679798174
20
17.5576686533
30
0.0000000000
10
-104.4198498133
20
17.8225396867
30
0.0000000000
11
-104.1117108623
21
16.1817138912
31
0.0000000000
11
-104.2673939974
21
17.0273153967
31
0.0000000000
11
-104.4198498133
21
17.8225396867
31
0.0000000000
0
SPLINE
5
3BF
100
AcDbEntity
8
0
100
AcDbSpline
62
9
6
CONTINUOUS
70
0
71
3
72
10
73
6
74
4
42
0.0000001000
43
0.0000001000
44
0.0000000001
12
-1.2743979667
22
-39.6990136289
32
0.0000000000
13
-1.0945875397
23
-39.7043782397
33
0.0000000000
40
0.0000000000
40
0.0000000000
40
0.0000000000
40
0.0000000000
40
0.3384198618
40
0.6716841834
40
1.0000000000
40
1.0000000000
40
1.0000000000
40
1.0000000000
10
-103.9529979161
20
15.2860540216
30
0.0000000000
10
-104.0967584440
20
10.8077424531
30
0.0000000000
10
-104.3774084924
20
1.9191909846
30
0.0000000000
10
-104.7771254644
20
-11.3145994475
30
0.0000000000
10
-105.0270425411
20
-20.0702418502
30
0.0000000000
10
-105.1468326751
20
-24.4154336382
30
0.0000000000
11
-103.9529979161
21
15.2860540216
31
0.0000000000
11
-104.3764741422
21
1.8508710219
31
0.0000000000
11
-104.7754169970
21
-11.3801959132
31
0.0000000000
11
-105.1468326751
21
-24.4154336382
31
0.0000000000
0
SPLINE
5
3C0
100
AcDbEntity
8
0
100
AcDbSpline
62
9
6
CONTINUOUS
70
0
71
3
72
9
73
5
74
3
42
0.0000001000
43
0.0000001000
44
0.0000000001
12
-1.2626892472
22
-13.7721707744
32
0.0000000000
13
-0.9292965637
23
-13.7986767434
33
0.0000000000
40
0.0000000000
40
0.0000000000
40
0.0000000000
40
0.0000000000
40
0.5245953472
40
1.0000000000
40
1.0000000000
40
1.0000000000
40
1.0000000000
10
-105.1468326751
20
-24.4154336382
30
0.0000000000
10
-105.3676329764
20
-26.8237058746
30
0.0000000000
10
-105.7689274079
20
-31.4162657253
30
0.0000000000
10
-106.1157483250
20
-36.0133505080
30
0.0000000000
10
-106.2630122951
20
-38.2000022168
30
0.0000000000
11
-105.1468326751
21
-24.4154336382
31
0.0000000000
11
-105.7736762333
21
-31.6434221960
31
0.0000000000
11
-106.2630122951
21
-38.2000022168
31
0.0000000000
0
SPLINE
5
3C1
100
AcDbEntity
8
0
100
AcDbSpline
62
9
6
CONTINUOUS
70
0
71
3
72
9
73
5
74
3
42
0.0000001000
43
0.0000001000
44
0.0000000001
12
1.2273669303
22
18.4264829835
32
0.0000000000
13
2.4540700009
23
18.3035309477
33
0.0000000000
40
0.0000000000
40
0.0000000000
40
0.0000000000
40
0.0000000000
40
0.2495811003
40
1.0000000000
40
1.0000000000
40
1.0000000000
40
1.0000000000
10
-106.2630122951
20
-0.5506218485
30
0.0000000000
10
-106.1609030988
20
0.9823454510
30
0.0000000000
10
-105.7002618282
20
7.1209720106
30
0.0000000000
10
-105.0337099832
20
13.2441011688
30
0.0000000000
10
-104.4198498133
20
17.8225396867
30
0.0000000000
11
-106.2630122951
21
-0.5506218485
31
0.0000000000
11
-105.9181420693
21
4.0455504494
31
0.0000000000
11
-104.4198498133
21
17.8225396867
31
0.0000000000
0
SPLINE
5
3C2
100
AcDbEntity
8
0
100
AcDbSpline
62
9
6
CONTINUOUS
70
0
71
3
72
10
73
6
74
4
42
0.0000001000
43
0.0000001000
44
0.0000000001
12
0.3991043543
22
16.7060472858
32
0.0000000000
13
0.3453976432
23
16.7072441126
33
0.0000000000
40
0.0000000000
40
0.0000000000
40
0.0000000000
40
0.0000000000
40
0.3269490926
40
0.6660748215
40
1.0000000000
40
1.0000000000
40
1.0000000000
40
1.0000000000
10
-104.8311232954
20
22.8912075124
30
0.0000000000
10
-104.7876276933
20
24.7118831794
30
0.0000000000
10
-104.7010581955
20
28.4210914208
30
0.0000000000
10
-104.5771718270
20
33.9899858904
30
0.0000000000
10
-104.4977854843
20
37.7382222716
30
0.0000000000
10
-104.4593398278
20
39.5978787622
30
0.0000000000
11
-104.8311232954
21
22.8912075124
31
0.0000000000
11
-104.7036170669
21
28.3533049052
31
0.0000000000
11
-104.5775419180
21
34.0189692705
31
0.0000000000
11
-104.4593398278
21
39.5978787622
31
0.0000000000
0
SPLINE
5
3C3
100
AcDbEntity
8
0
100
AcDbSpline
62
9
6
CONTINUOUS
70
0
71
3
72
8
73
4
74
2
42
0.0000001000
43
0.0000001000
44
0.0000000001
12
0.0061014158
22
0.2951318448
32
0.0000000000
13
0.0060856376
23
0.2951321679
33
0.0000000000
40
0.0000000000
40
0.0000000000
40
0.0000000000
40
0.0000000000
40
1.0000000000
40
1.0000000000
40
1.0000000000
40
1.0000000000
10
-104.4593398278
20
39.5978787622
30
0.0000000000
10
-104.4573060225
20
39.6962560438
30
0.0000000000
10
-104.4552748501
20
39.7946333794
30
0.0000000000
10
-104.4532463042
20
39.8930107687
30
0.0000000000
11
-104.4593398278
21
39.5978787622
31
0.0000000000
11
-104.4532463042
21
39.8930107687
31
0.0000000000
0
SPLINE
5
3C4
100
AcDbEntity
8
0
100
AcDbSpline
62
9
6
CONTINUOUS
70
0
71
3
72
8
73
4
74
2
42
0.0000001000
43
0.0000001000
44
0.0000000001
12
-0.0717617267
22
0.3193598500
32
0.0000000000
13
-0.0224702894
23
0.3273353064
33
0.0000000000
40
0.0000000000
40
0.0000000000
40
0.0000000000
40
0.0000000000
40
1.0000000000
40
1.0000000000
40
1.0000000000
40
1.0000000000
10
-104.7654263312
20
19.4734623345
30
0.0000000000
10
-104.7893469068
20
19.5799156178
30
0.0000000000
10
-104.7981247981
20
19.6891972042
30
0.0000000000
10
-104.8056148946
20
19.7983089730
30
0.0000000000
11
-104.7654263312
21
19.4734623345
31
0.0000000000
11
-104.8056148946
21
19.7983089730
31
0.0000000000
0
SPLINE
5
3C5
100
AcDbEntity
8
0
100
AcDbSpline
62
9
6
CONTINUOUS
70
0
71
3
72
8
73
4
74
2
42
0.0000001000
43
0.0000001000
44
0.0000000001
12
-0.0380701107
22
0.5545852635
32
0.0000000000
13
-0.0189492460
23
0.5538640272
33
0.0000000000
40
0.0000000000
40
0.0000000000
40
0.0000000000
40
0.0000000000
40
1.0000000000
40
1.0000000000
40
1.0000000000
40
1.0000000000
10
-104.8056148946
20
19.7983089730
30
0.0000000000
10
-104.8183049315
20
19.9831707275
30
0.0000000000
10
-104.8272984093
20
20.1675450280
30
0.0000000000
10
-104.8336148246
20
20.3521663704
30
0.0000000000
11
-104.8056148946
21
19.7983089730
31
0.0000000000
11
-104.8336148246
21
20.3521663704
31
0.0000000000
0
SPLINE
5
3C6
100
AcDbEntity
8
0
100
AcDbSpline
62
9
6
CONTINUOUS
70
0
71
3
72
10
73
6
74
4
42
0.0000001000
43
0.0000001000
44
0.0000000001
12
-0.0759327700
22
2.2194249722
32
0.0000000000
13
0.0423617524
23
2.2218931524
33
0.0000000000
40
0.0000000000
40
0.0000000000
40
0.0000000000
40
0.0000000000
40
0.3319934107
40
0.7236753447
40
1.0000000000
40
1.0000000000
40
1.0000000000
40
1.0000000000
10
-104.8336148246
20
20.3521663704
30
0.0000000000
10
-104.8420178844
20
20.5977778591
30
0.0000000000
10
-104.8500070101
20
21.1341119595
30
0.0000000000
10
-104.8488920205
20
21.8747585087
30
0.0000000000
10
-104.8418467724
20
22.3695526045
30
0.0000000000
10
-104.8379449069
20
22.5742072243
30
0.0000000000
11
-104.8336148246
21
20.3521663704
31
0.0000000000
11
-104.8474968521
21
21.0898023703
31
0.0000000000
11
-104.8465973127
21
21.9602103100
31
0.0000000000
11
-104.8379449069
21
22.5742072243
31
0.0000000000
0
SPLINE
5
3C7
100
AcDbEntity
8
0
100
AcDbSpline
62
9
6
CONTINUOUS
70
0
71
3
72
8
73
4
74
2
42
0.0000001000
43
0.0000001000
44
0.0000000001
12
0.0060441737
22
0.3170196555
32
0.0000000000
13
0.0075865886
23
0.3169773268
33
0.0000000000
40
0.0000000000
40
0.0000000000
40
0.0000000000
40
0.0000000000
40
1.0000000000
40
1.0000000000
40
1.0000000000
40
1.0000000000
10
-104.8379449069
20
22.5742072243
30
0.0000000000
10
-104.8359301823
20
22.6798804428
30
0.0000000000
10
-104.8336521583
20
22.7855484035
30
0.0000000000
10
-104.8311232954
20
22.8912075124
30
0.0000000000
11
-104.8379449069
21
22.5742072243
31
0.0000000000
11
-104.8311232954
21
22.8912075124
31
0.0000000000
0
SPLINE
5
3C8
100
AcDbEntity
8
0
100
AcDbSpline
62
9
6
CONTINUOUS
70
0
71
3
72
8
73
4
74
2
42
0.0000001000
43
0.0000001000
44
0.0000000001
12
-0.0386387365
22
0.1972102803
32
0.0000000000
13
-0.0391789537
23
0.1971042726
33
0.0000000000
40
0.0000000000
40
0.0000000000
40
0.0000000000
40
0.0000000000
40
1.0000000000
40
1.0000000000
40
1.0000000000
40
1.0000000000
10
-104.4198498133
20
17.8225396867
30
0.0000000000
10
-104.4327293921
20
17.8882764468
30
0.0000000000
10
-104.4456969277
20
17.9539961224
30
0.0000000000
10
-104.4587565789
20
18.0196975466
30
0.0000000000
11
-104.4198498133
21
17.8225396867
31
0.0000000000
11
-104.4587565789
21
18.0196975466
31
0.0000000000
0
SPLINE
5
3C9
100
AcDbEntity
8
0
100
AcDbSpline
62
9
6
CONTINUOUS
70
0
71
3
72
9
73
5
74
3
42
0.0000001000
43
0.0000001000
44
0.0000000001
12
-0.1135694558
22
0.5713533125
32
0.0000000000
13
-0.1185264906
23
0.5703457634
33
0.0000000000
40
0.0000000000
40
0.0000000000
40
0.0000000000
40
0.0000000000
40
0.6724762261
40
1.0000000000
40
1.0000000000
40
1.0000000000
40
1.0000000000
10
-104.4587565789
20
18.0196975466
30
0.0000000000
10
-104.4842141653
20
18.1477713864
30
0.0000000000
10
-104.5225911592
20
18.3381193594
30
0.0000000000
10
-104.5618102939
20
18.5282948590
30
0.0000000000
10
-104.5747503751
20
18.5905621247
30
0.0000000000
11
-104.4587565789
21
18.0196975466
31
0.0000000000
11
-104.5362102339
21
18.4037023628
31
0.0000000000
11
-104.5747503751
21
18.5905621247
31
0.0000000000
0
SPLINE
5
3CA
100
AcDbEntity
8
0
100
AcDbSpline
62
9
6
CONTINUOUS
70
0
71
3
72
9
73
5
74
3
42
0.0000001000
43
0.0000001000
44
0.0000000001
12
-0.1837854249
22
0.8843697129
32
0.0000000000
13
-0.1981368243
23
0.8812623920
33
0.0000000000
40
0.0000000000
40
0.0000000000
40
0.0000000000
40
0.0000000000
40
0.4112225521
40
1.0000000000
40
1.0000000000
40
1.0000000000
40
1.0000000000
10
-104.5747503751
20
18.5905621247
30
0.0000000000
10
-104.5999426122
20
18.7117863814
30
0.0000000000
10
-104.6620789353
20
19.0063944212
30
0.0000000000
10
-104.7265401666
20
19.3005065271
30
0.0000000000
10
-104.7654263312
20
19.4734623345
30
0.0000000000
11
-104.5747503751
21
18.5905621247
31
0.0000000000
11
-104.6514394782
21
18.9540014570
31
0.0000000000
11
-104.7654263312
21
19.4734623345
31
0.0000000000
0
SPLINE
5
3CB
100
AcDbEntity
8
0
100
AcDbSpline
62
9
6
CONTINUOUS
70
0
71
3
72
16
73
12
74
10
42
0.0000001000
43
0.0000001000
44
0.0000000001
12
4.1073845137
22
0.1110732739
32
0.0000000000
13
1.1453559357
23
-3.9460238971
33
0.0000000000
40
0.0000000000
40
0.0000000000
40
0.0000000000
40
0.0000000000
40
0.0279603708
40
0.0633748409
40
0.1110496635
40
0.1759931732
40
0.2638602492
40
0.3813291878
40
0.5364159954
40
0.7387640137
40
1.0000000000
40
1.0000000000
40
1.0000000000
40
1.0000000000
10
-106.2630160363
20
43.4526535542
30
0.0000000000
10
-106.2247347051
20
43.4536887708
30
0.0000000000
10
-106.1372816247
20
43.4363372464
30
0.0000000000
10
-106.0039887927
20
43.3595979956
30
0.0000000000
10
-105.8551277327
20
43.2201122262
30
0.0000000000
10
-105.6864338584
20
43.0024964601
30
0.0000000000
10
-105.4940192883
20
42.6855617036
30
0.0000000000
10
-105.2743645190
20
42.2429876652
30
0.0000000000
10
-105.0240485621
20
41.6422379511
30
0.0000000000
10
-104.7397656157
20
40.8436739859
30
0.0000000000
10
-104.5529823667
20
40.2366252502
30
0.0000000000
10
-104.4532463042
20
39.8930107687
30
0.0000000000
11
-106.2630160363
21
43.4526535542
31
0.0000000000
11
-106.1497837308
21
43.4332310682
31
0.0000000000
11
-106.0216438318
21
43.3642782051
31
0.0000000000
11
-105.8758063136
21
43.2334941355
31
0.0000000000
11
-105.7092971319
21
43.0249726639
31
0.0000000000
11
-105.5189461227
21
42.7181936781
31
0.0000000000
11
-105.3014593604
21
42.2873033837
31
0.0000000000
11
-105.0535069680
21
41.7002882105
31
0.0000000000
11
-104.7718235502
21
40.9180338343
31
0.0000000000
11
-104.4532463042
21
39.8930107687
31
0.0000000000
0
SPLINE
5
3CC
100
AcDbEntity
8
0
100
AcDbSpline
62
9
6
CONTINUOUS
70
0
71
3
72
16
73
12
74
10
42
0.0000001000
43
0.0000001000
44
0.0000000001
12
4.1294978575
22
-0.0000030945
32
0.0000000000
13
1.1372453211
23
-3.9698143073
33
0.0000000000
40
0.0000000000
40
0.0000000000
40
0.0000000000
40
0.0000000000
40
0.0277840552
40
0.0632578649
40
0.1111539639
40
0.1764033680
40
0.2645815860
40
0.3822781770
40
0.5374018640
40
0.7394611039
40
1.0000000000
40
1.0000000000
40
1.0000000000
40
1.0000000000
10
-104.2635691842
20
45.4493781515
30
0.0000000000
10
-104.2253244520
20
45.4493781229
30
0.0000000000
10
-104.1380340254
20
45.4300234785
30
0.0000000000
10
-104.0059947392
20
45.3493488952
30
0.0000000000
10
-103.8583524046
20
45.2061243599
30
0.0000000000
10
-103.6910866888
20
44.9842318480
30
0.0000000000
10
-103.5003437021
20
44.6628236730
30
0.0000000000
10
-103.2827102132
20
44.2156283574
30
0.0000000000
10
-103.0348206779
20
43.6104031997
30
0.0000000000
10
-102.7533939296
20
42.8077200222
30
0.0000000000
10
-102.5683947822
20
42.1982231114
30
0.0000000000
10
-102.4696292354
20
41.8534594322
30
0.0000000000
11
-104.2635691842
21
45.4493781515
31
0.0000000000
11
-104.1509884867
21
45.4272529989
31
0.0000000000
11
-104.0236864505
21
45.3547738647
31
0.0000000000
11
-103.8788882976
21
45.2200403188
31
0.0000000000
11
-103.7136691885
21
45.0071918292
31
0.0000000000
11
-103.5249123693
21
44.6958033201
31
0.0000000000
11
-103.3093794034
21
44.2601789602
31
0.0000000000
11
-103.0637957761
21
43.6685412534
31
0.0000000000
11
-102.7849503142
21
42.8821101341
31
0.0000000000
11
-102.4696292354
21
41.8534594322
31
0.0000000000
0
SPLINE
5
3CD
100
AcDbEntity
8
0
100
AcDbSpline
62
9
6
CONTINUOUS
70
0
71
3
72
15
73
11
74
9
42
0.0000001000
43
0.0000001000
44
0.0000000001
12
1.1371369978
22
3.9694240789
32
0.0000000000
13
4.1290928871
23
0.0000034573
33
0.0000000000
40
0.0000000000
40
0.0000000000
40
0.0000000000
40
0.0000000000
40
0.2888160802
40
0.5079402636
40
0.6708655039
40
0.7891870637
40
0.8729528263
40
0.9309371912
40
0.9709405898
40
1.0000000000
40
1.0000000000
40
1.0000000000
40
1.0000000000
10
102.0436047059
20
41.8534594365
30
0.0000000000
10
102.1530791894
20
42.2356039376
30
0.0000000000
10
102.3572611730
20
42.9045102316
30
0.0000000000
10
102.6698695581
20
43.7738037471
30
0.0000000000
10
102.9427477362
20
44.4067420472
30
0.0000000000
10
103.1787286084
20
44.8510677701
30
0.0000000000
10
103.3811054947
20
45.1475455212
30
0.0000000000
10
103.5540853900
20
45.3302675510
30
0.0000000000
10
103.7023495809
20
45.4272378426
30
0.0000000000
10
103.7975949336
20
45.4493781180
30
0.0000000000
10
103.8375912683
20
45.4493781515
30
0.0000000000
11
102.0436047059
21
41.8534594365
31
0.0000000000
11
102.3957856979
21
42.9928190326
31
0.0000000000
11
102.7060326203
21
43.8427491047
31
0.0000000000
11
102.9766190711
21
44.4586657129
31
0.0000000000
11
103.2101897769
21
44.8877767634
31
0.0000000000
11
103.4097592895
21
45.1702703776
31
0.0000000000
11
103.5785848986
21
45.3400384685
31
0.0000000000
11
103.7200361045
21
45.4253335151
31
0.0000000000
11
103.8375912683
21
45.4493781515
31
0.0000000000
0
SPLINE
5
3CE
100
AcDbEntity
8
0
100
AcDbSpline
62
7
6
CONTINUOUS
70
0
71
3
72
9
73
5
74
3
42
0.0000001000
43
0.0000001000
44
0.0000000001
12
0.1598886727
22
0.5835480626
32
0.0000000000
13
0.1656181138
23
0.5819488057
33
0.0000000000
40
0.0000000000
40
0.0000000000
40
0.0000000000
40
0.0000000000
40
0.6038146936
40
1.0000000000
40
1.0000000000
40
1.0000000000
40
1.0000000000
10
90.2186952334
20
15.5977823314
30
0.0000000000
10
90.2508762767
20
15.7152339630
30
0.0000000000
10
90.3047229094
20
15.9095997531
30
0.0000000000
10
90.3595325851
20
16.1036954401
30
0.0000000000
10
90.3814044062
20
16.1805486287
30
0.0000000000
11
90.2186952334
21
15.5977823314
31
0.0000000000
11
90.3162541707
21
15.9498573255
31
0.0000000000
11
90.3814044062
21
16.1805486287
31
0.0000000000
0
SPLINE
5
3CF
100
AcDbEntity
8
0
100
AcDbSpline
62
7
6
CONTINUOUS
70
0
71
3
72
9
73
5
74
3
42
0.0000001000
43
0.0000001000
44
0.0000000001
12
0.0968424705
22
0.3402850011
32
0.0000000000
13
0.0989537218
23
0.3396770882
33
0.0000000000
40
0.0000000000
40
0.0000000000
40
0.0000000000
40
0.0000000000
40
0.3355100532
40
1.0000000000
40
1.0000000000
40
1.0000000000
40
1.0000000000
10
90.3814044062
20
16.1805486287
30
0.0000000000
10
90.3922349470
20
16.2186049750
30
0.0000000000
10
90.4246305371
20
16.3320006614
30
0.0000000000
10
90.4573745260
20
16.4452965882
30
0.0000000000
10
90.4792924438
20
16.5205339250
30
0.0000000000
11
90.3814044062
21
16.1805486287
31
0.0000000000
11
90.4140122575
21
16.2946845309
31
0.0000000000
11
90.4792924438
21
16.5205339250
31
0.0000000000
0
SPLINE
5
3D0
100
AcDbEntity
8
0
100
AcDbSpline
62
7
6
CONTINUOUS
70
0
71
3
72
8
73
4
74
2
42
0.0000001000
43
0.0000001000
44
0.0000000001
12
0.0325542977
22
0.1117486928
32
0.0000000000
13
0.0327916107
23
0.1116791048
33
0.0000000000
40
0.0000000000
40
0.0000000000
40
0.0000000000
40
0.0000000000
40
1.0000000000
40
1.0000000000
40
1.0000000000
40
1.0000000000
10
90.4792924438
20
16.5205339250
30
0.0000000000
10
90.4901438764
20
16.5577834893
30
0.0000000000
10
90.5010344951
20
16.5950216145
30
0.0000000000
10
90.5119650320
20
16.6322479827
30
0.0000000000
11
90.4792924438
21
16.5205339250
31
0.0000000000
11
90.5119650320
21
16.6322479827
31
0.0000000000
0
ENDSEC
0
SECTION
2
OBJECTS
0
DICTIONARY
5
3D1
100
AcDbDictionary
3
ACAD_GROUP
350
3D2
3
ACAD_MLINESTYLE
350
3D3
0
DICTIONARY
5
3D2
102
{ACAD_REACTORS
330
3D1
102
}
100
AcDbDictionary
0
DICTIONARY
5
3D3
102
{ACAD_REACTORS
330
3D1
102
}
100
AcDbDictionary
3
STANDARD
350
3D4
0
MLINESTYLE
5
3D4
102
{ACAD_REACTORS
330
3D3
102
}
100
AcDbMlineStyle
2
STANDARD
70
0
3

62
256
51
90.0
52
90.0
71
2
49
0.5
62
256
6
BYLAYER
49
-0.5
62
256
6
BYLAYER
0
ENDSEC
0
EOF
