  0
SECTION
  2
HEADER
  9
$ACADVER
  1
AC1015
  9
$DWGCODEPAGE
  3
ANSI_1252
  9
$EXTMAX
 10
297.0
 20
210.0
 30
0.0
  9
$EXTMIN
 10
0.0
 20
0.0
 30
0.0
  9
$LIMMIN
 10
0.0
 20
0.0
  9
$LIMMAX
 10
297.0
 20
210.0
  9
$VIEWCTR
 10
148.5
 20
105.0
  9
$VIEWSIZE
 40
210.0
  9
$CLAYER
  8
0
  9
$LTSCALE
 40
16.335
  9
$CELTYPE
  6
BYLAYER
  9
$DIMSCALE
 40
1.0
  9
$DIMASZ
 40
3.0
  9
$DIMEXO
 40
1.85625
  9
$DIMDLI
 40
11.286
  9
$DIMEXE
 40
5.346
  9
$DIMCEN
 40
2.673
  9
$DIMLFAC
 40
1.0
  9
$DIMBLK
  1
_FILLED
  9
$DIMTXT
 40
3.0
  9
$DIMTOL
 70
1
  9
$DIMLIM
 70
0
  9
$DIMTFAC
 40
1.0
  9
$DIMTP
 40
0.01
  9
$DIMTM
 40
0.01
  9
$PDMODE
 70
3
  9
$PDSIZE
 40
3.0
  9
$HANDSEED
  5
2EB
  9
$TILEMODE
 70
1
  9
$MEASUREMENT
 70
1
  9
$INSUNITS
 70
4
  0
ENDSEC
  0
SECTION
  2
CLASSES
  0
CLASS
  1
ACDBDICTIONARYWDFLT
  2
AcDbDictionaryWithDefault
  3
AutoCAD 2000
 90
0
280
0
281
0
  0
CLASS
  1
ACDBPLACEHOLDER
  2
AcDbPlaceHolder
  3
AutoCAD 2000
 90
0
280
0
281
0
  0
CLASS
  1
LAYOUT
  2
AcDbLayout
  3
AutoCAD 2000
 90
0
280
0
281
0
  0
ENDSEC
  0
SECTION
  2
TABLES
  0
TABLE
  2
VPORT
  5
8
100
AcDbSymbolTable
 70
2
  0
VPORT
  5
1F4
100
AcDbSymbolTableRecord
100
AcDbViewportTableRecord
  2
*ACTIVE
 70
0
 10
0.0
 20
0.0
 11
1.0
 21
1.0
 12
148.5
 22
105.0
 13
0.0
 23
0.0
 14
1.0
 24
1.0
 15
0.0
 25
0.0
 16
0.0
 26
0.0
 36
1.0
 17
0.0
 27
0.0
 37
0.0
 40
210.0
 41
1.4142857143
 42
50.0
 43
0.0
 44
0.0
 50
0.0
 51
0.0
 71
0
 72
100
 73
1
 74
1
 75
0
 76
0
 77
0
 78
0
  0
ENDTAB
  0
TABLE
  2
LTYPE
  5
5
100
AcDbSymbolTable
 70
6
  0
LTYPE
  5
14
100
AcDbSymbolTableRecord
100
AcDbLinetypeTableRecord
  2
BYBLOCK
 70
0
  3

 72
65
 73
0
 40
0.0
  0
LTYPE
  5
15
100
AcDbSymbolTableRecord
100
AcDbLinetypeTableRecord
  2
BYLAYER
 70
0
  3

 72
65
 73
0
 40
0.0
  0
LTYPE
  5
16
100
AcDbSymbolTableRecord
100
AcDbLinetypeTableRecord
  2
CONTINUOUS
 70
64
  3
Solid line
 72
65
 73
0
 40
0.0
  0
LTYPE
  5
1F5
100
AcDbSymbolTableRecord
100
AcDbLinetypeTableRecord
  2
CENTER
 70
64
  3
____ _ ____ _ ____ _ ____ _ ____ _ ____ _ ____
 72
65
 73
4
 40
0.6
 49
0.375
 74
0
 49
-0.075
 74
0
 49
0.075
 74
0
 49
-0.075
 74
0
  0
LTYPE
  5
1F6
100
AcDbSymbolTableRecord
100
AcDbLinetypeTableRecord
  2
HIDDEN
 70
64
  3
- - - - - - - - - - - - - - - - - - - -
 72
65
 73
2
 40
0.2
 49
0.1
 74
0
 49
-0.1
 74
0
  0
LTYPE
  5
1F7
100
AcDbSymbolTableRecord
100
AcDbLinetypeTableRecord
  2
PHANTOM
 70
64
  3
_____ _ _ _____ _ _ _____ _ _ _____
 72
65
 73
6
 40
0.8
 49
0.45
 74
0
 49
-0.05
 74
0
 49
0.1
 74
0
 49
-0.05
 74
0
 49
0.1
 74
0
 49
-0.05
 74
0
  0
LTYPE
  5
1F8
100
AcDbSymbolTableRecord
100
AcDbLinetypeTableRecord
  2
DOT
 70
64
  3
. . . . . . . . . . . . . . . . . . . .
 72
65
 73
2
 40
0.2
 49
0.1
 74
0
 49
-0.1
 74
0
  0
LTYPE
  5
1F9
100
AcDbSymbolTableRecord
100
AcDbLinetypeTableRecord
  2
DASHED
 70
64
  3
- - - - - - - - - - - - - - - - - - - -
 72
65
 73
2
 40
0.2
 49
0.1
 74
0
 49
-0.1
 74
0
  0
ENDTAB
  0
TABLE
  2
LAYER
  5
2
100
AcDbSymbolTable
 70
36
  0
LAYER
  5
10
100
AcDbSymbolTableRecord
100
AcDbLayerTableRecord
  2
0
 70
0
 62
7
  6
CONTINUOUS
370
-3
390
F
  0
LAYER
  5
1FA
100
AcDbSymbolTableRecord
100
AcDbLayerTableRecord
  2
DEFAULT_1
 70
0
 62
7
  6
CENTER
370
-3
390
F
  0
LAYER
  5
1FB
100
AcDbSymbolTableRecord
100
AcDbLayerTableRecord
  2
DEFAULT_2
 70
0
 62
7
  6
HIDDEN
370
-3
390
F
  0
LAYER
  5
1FC
100
AcDbSymbolTableRecord
100
AcDbLayerTableRecord
  2
DEFAULT_3
 70
0
 62
7
  6
PHANTOM
370
-3
390
F
  0
LAYER
  5
1FD
100
AcDbSymbolTableRecord
100
AcDbLayerTableRecord
  2
ASSI
 70
0
 62
7
  6
CONTINUOUS
370
-3
390
F
  0
LAYER
  5
1FE
100
AcDbSymbolTableRecord
100
AcDbLayerTableRecord
  2
COLORE_MATERIALE
 70
0
 62
7
  6
CONTINUOUS
370
-3
390
F
  0
LAYER
  5
1FF
100
AcDbSymbolTableRecord
100
AcDbLayerTableRecord
  2
COORDINATE
 70
0
 62
7
  6
CONTINUOUS
370
-3
390
F
  0
LAYER
  5
200
100
AcDbSymbolTableRecord
100
AcDbLayerTableRecord
  2
COORD_ORIGINE
 70
0
 62
7
  6
CONTINUOUS
370
-3
390
F
  0
LAYER
  5
201
100
AcDbSymbolTableRecord
100
AcDbLayerTableRecord
  2
COPY
 70
0
 62
7
  6
CONTINUOUS
370
-3
390
F
  0
LAYER
  5
202
100
AcDbSymbolTableRecord
100
AcDbLayerTableRecord
  2
CURVE
 70
0
 62
7
  6
CONTINUOUS
370
-3
390
F
  0
LAYER
  5
203
100
AcDbSymbolTableRecord
100
AcDbLayerTableRecord
  2
DRAFT
 70
0
 62
7
  6
CONTINUOUS
370
-3
390
F
  0
LAYER
  5
204
100
AcDbSymbolTableRecord
100
AcDbLayerTableRecord
  2
IGS
 70
0
 62
7
  6
CONTINUOUS
370
-3
390
F
  0
LAYER
  5
205
100
AcDbSymbolTableRecord
100
AcDbLayerTableRecord
  2
PIANI
 70
0
 62
7
  6
CONTINUOUS
370
-3
390
F
  0
LAYER
  5
206
100
AcDbSymbolTableRecord
100
AcDbLayerTableRecord
  2
PIANI_ORIGINE
 70
0
 62
7
  6
CONTINUOUS
370
-3
390
F
  0
LAYER
  5
207
100
AcDbSymbolTableRecord
100
AcDbLayerTableRecord
  2
PIANI_RIFERIMENTO
 70
0
 62
7
  6
CONTINUOUS
370
-3
390
F
  0
LAYER
  5
208
100
AcDbSymbolTableRecord
100
AcDbLayerTableRecord
  2
RACCORDO
 70
0
 62
7
  6
CONTINUOUS
370
-3
390
F
  0
LAYER
  5
209
100
AcDbSymbolTableRecord
100
AcDbLayerTableRecord
  2
SMUSSO
 70
0
 62
7
  6
CONTINUOUS
370
-3
390
F
  0
LAYER
  5
20A
100
AcDbSymbolTableRecord
100
AcDbLayerTableRecord
  2
SNAPLINE
 70
0
 62
7
  6
CONTINUOUS
370
-3
390
F
  0
LAYER
  5
20B
100
AcDbSymbolTableRecord
100
AcDbLayerTableRecord
  2
SOLIDO
 70
0
 62
7
  6
CONTINUOUS
370
-3
390
F
  0
LAYER
  5
20C
100
AcDbSymbolTableRecord
100
AcDbLayerTableRecord
  2
SUPERFICI
 70
0
 62
7
  6
CONTINUOUS
370
-3
390
F
  0
LAYER
  5
20D
100
AcDbSymbolTableRecord
100
AcDbLayerTableRecord
  2
TRASH
 70
0
 62
7
  6
CONTINUOUS
370
-3
390
F
  0
ENDTAB
  0
TABLE
  2
STYLE
  5
3
100
AcDbSymbolTable
 70
1
  0
STYLE
  5
11
100
AcDbSymbolTableRecord
100
AcDbTextStyleTableRecord
  2
STANDARD
 70
0
 40
0.0
 41
0.8
 50
0.0
 71
0
 42
0.2
  3
txt
  4

  0
STYLE
  5
20E
100
AcDbSymbolTableRecord
100
AcDbTextStyleTableRecord
  2
TEXTSTYLE_1
 70
0
 40
0.0
 41
0.8
 50
0.0
 71
0
 42
0.2
  3
gdt
  4

  0
ENDTAB
  0
TABLE
  2
VIEW
  5
6
100
AcDbSymbolTable
 70
0
  0
ENDTAB
  0
TABLE
  2
UCS
  5
7
100
AcDbSymbolTable
 70
0
  0
ENDTAB
  0
TABLE
  2
APPID
  5
9
100
AcDbSymbolTable
 70
1
  0
APPID
  5
20F
100
AcDbSymbolTableRecord
100
AcDbRegAppTableRecord
  2
ACAD
 70
0
  0
ENDTAB
  0
TABLE
  2
BLOCK_RECORD
  5
1
100
AcDbSymbolTable
 70
0
  0
BLOCK_RECORD
  5
210
100
AcDbSymbolTableRecord
100
AcDbBlockTableRecord
  2
*Model_Space
  0
BLOCK_RECORD
  5
211
100
AcDbSymbolTableRecord
100
AcDbBlockTableRecord
  2
*Paper_Space
  0
ENDTAB
  0
TABLE
  2
DIMSTYLE
  5
A
100
AcDbSymbolTable
 70
1
100
AcDbDimStyleTable
 71
0
  0
DIMSTYLE
105
212
100
AcDbSymbolTableRecord
100
AcDbDimStyleTableRecord
  2
STANDARD
 70
0
  3

  4

 40
1.0
 41
3.0
 42
0.0625
 43
0.38
 44
0.18
 45
0.0
 46
0.0
 47
0.01
 48
0.01
140
3.0
141
0.09
142
0.0
143
25.4
144
1.0
145
0.0
146
1.0
147
0.09
 71
1.0
 72
0.0
 73
0
 74
0
 75
0
 76
0
 77
1
 78
8
170
0
171
2
172
0
173
0
174
0
175
0
176
0
177
0
178
0
270
2
271
2
272
2
273
2
274
2
275
0
280
0
281
0
282
0
283
1
284
8
285
0
286
0
287
3
288
0
340
11
  0
ENDTAB
  0
ENDSEC
  0
SECTION
  2
BLOCKS
  0
BLOCK
  5
20
100
AcDbEntity
  8
0
100
AcDbBlockBegin
  2
*Model_Space
 70
0
 10
0.0
 20
0.0
 30
0.0
  3
*Model_Space
  1

  0
ENDBLK
  5
21
100
AcDbEntity
  8
0
100
AcDbBlockEnd
  0
BLOCK
  5
1C
100
AcDbEntity
  8
0
100
AcDbBlockBegin
  2
*Paper_Space
 70
0
 10
0.0
 20
0.0
 30
0.0
  3
*Paper_Space
  1

  0
ENDBLK
  5
1D
100
AcDbEntity
  8
0
100
AcDbBlockEnd
  0
ENDSEC
  0
SECTION
  2
ENTITIES
  0
LINE
  5
213
100
AcDbEntity
  8
DRAFT
100
AcDbLine
 62
7
  6
CONTINUOUS
 10
-11.1112716852
 20
6.9837957537
 11
-11.1112716852
 21
-2.1048593182
  0
LINE
  5
214
100
AcDbEntity
  8
RACCORDO
100
AcDbLine
 62
7
  6
CONTINUOUS
 10
-11.1112716852
 20
-2.1048593182
 11
-11.1112716852
 21
-10.6659753942
  0
LINE
  5
215
100
AcDbEntity
  8
RACCORDO
100
AcDbLine
 62
7
  6
CONTINUOUS
 10
-11.0711250358
 20
10.7250974425
 11
-11.0711250358
 21
6.9837957537
  0
LINE
  5
216
100
AcDbEntity
  8
0
100
AcDbLine
 62
253
  6
CONTINUOUS
 10
-10.8674739941
 20
-2.0846166494
 11
-10.8674739941
 21
2.0522081569
  0
LINE
  5
217
100
AcDbEntity
  8
RACCORDO
100
AcDbLine
 62
7
  6
CONTINUOUS
 10
2.3953526418
 20
-11.1662042463
 11
3.7809932879
 21
-11.040425576
  0
LINE
  5
218
100
AcDbEntity
  8
RACCORDO
100
AcDbLine
 62
7
  6
CONTINUOUS
 10
-10.6116522849
 20
-11.1662042463
 11
-8.8046473582
 21
-11.1662042463
  0
LINE
  5
219
100
AcDbEntity
  8
DRAFT
100
AcDbLine
 62
7
  6
CONTINUOUS
 10
-2.4178960122
 20
-11.1662042463
 11
2.3953526418
 21
-11.1662042463
  0
LINE
  5
21A
100
AcDbEntity
  8
RACCORDO
100
AcDbLine
 62
7
  6
CONTINUOUS
 10
8.7821039878
 20
-11.1662042463
 11
10.5891089146
 21
-11.1662042463
  0
LINE
  5
21B
100
AcDbEntity
  8
RACCORDO
100
AcDbLine
 62
7
  6
CONTINUOUS
 10
7.223258261
 20
-11.0351847981
 11
3.9541983687
 21
-11.0351847981
  0
LINE
  5
21C
100
AcDbEntity
  8
RACCORDO
100
AcDbLine
 62
7
  6
CONTINUOUS
 10
-3.976741739
 20
-11.0351847981
 11
-7.2458016313
 21
-11.0351847981
  0
LINE
  5
21D
100
AcDbEntity
  8
RACCORDO
100
AcDbLine
 62
7
  6
CONTINUOUS
 10
-2.4178960122
 20
-11.1662042463
 11
-3.8035366583
 21
-11.040425576
  0
LINE
  5
21E
100
AcDbEntity
  8
0
100
AcDbLine
 62
253
  6
CONTINUOUS
 10
-10.1713086674
 20
-2.0791463862
 11
-10.1713086674
 21
2.0467378937
  0
LINE
  5
21F
100
AcDbEntity
  8
DRAFT
100
AcDbLine
 62
7
  6
CONTINUOUS
 10
-9.9612716852
 20
2.0467378937
 11
-9.9612716852
 21
-2.0791463862
  0
LINE
  5
220
100
AcDbEntity
  8
RACCORDO
100
AcDbLine
 62
7
  6
CONTINUOUS
 10
-9.9612716852
 20
-2.1048593182
 11
-9.9612716852
 21
-9.5361024643
  0
LINE
  5
221
100
AcDbEntity
  8
DRAFT
100
AcDbLine
 62
7
  6
CONTINUOUS
 10
-9.9612716852
 20
-2.1048593182
 11
-9.9612716852
 21
-2.0930780466
  0
LINE
  5
222
100
AcDbEntity
  8
DRAFT
100
AcDbLine
 62
7
  6
CONTINUOUS
 10
-9.9612716852
 20
2.0606695541
 11
-9.9612716852
 21
6.9837957537
  0
LINE
  5
223
100
AcDbEntity
  8
RACCORDO
100
AcDbLine
 62
7
  6
CONTINUOUS
 10
-9.9211250358
 20
9.5663711498
 11
-9.9211250358
 21
6.9837957537
  0
LINE
  5
224
100
AcDbEntity
  8
RACCORDO
100
AcDbLine
 62
253
  6
CONTINUOUS
 10
-9.6798721815
 20
-9.0798146241
 11
-9.6798721815
 21
-9.2504553626
  0
LINE
  5
225
100
AcDbEntity
  8
RACCORDO
100
AcDbLine
 62
253
  6
CONTINUOUS
 10
-9.6635362796
 20
9.7087214715
 11
-9.6635362796
 21
9.508120146
  0
LINE
  5
226
100
AcDbEntity
  8
DRAFT
100
AcDbLine
 62
7
  6
CONTINUOUS
 10
-9.3612716852
 20
-2.090054971
 11
-9.3612716852
 21
2.0576464784
  0
LINE
  5
227
100
AcDbEntity
  8
RACCORDO
100
AcDbLine
 62
7
  6
CONTINUOUS
 10
3.1459079918
 20
-9.6662042463
 11
3.7809932879
 21
-9.5311412293
  0
LINE
  5
228
100
AcDbEntity
  8
DRAFT
100
AcDbLine
 62
7
  6
CONTINUOUS
 10
3.1459079918
 20
-9.6662042463
 11
2.3953526418
 21
-9.7362042463
  0
LINE
  5
229
100
AcDbEntity
  8
RACCORDO
100
AcDbLine
 62
7
  6
CONTINUOUS
 10
-8.8046473582
 20
-11.1662042463
 11
-7.4190067121
 21
-11.040425576
  0
LINE
  5
22A
100
AcDbEntity
  8
RACCORDO
100
AcDbLine
 62
7
  6
CONTINUOUS
 10
-9.7614289253
 20
-9.7362042463
 11
-8.8046473582
 21
-9.7362042463
  0
LINE
  5
22B
100
AcDbEntity
  8
DRAFT
100
AcDbLine
 62
7
  6
CONTINUOUS
 10
-2.4178960122
 20
-9.7362042463
 11
2.3953526418
 21
-9.7362042463
  0
LINE
  5
22C
100
AcDbEntity
  8
RACCORDO
100
AcDbLine
 62
7
  6
CONTINUOUS
 10
8.7821039878
 20
-9.7362042463
 11
9.7388855549
 21
-9.7362042463
  0
LINE
  5
22D
100
AcDbEntity
  8
RACCORDO
100
AcDbLine
 62
7
  6
CONTINUOUS
 10
9.7164317123
 20
-9.6662042463
 11
8.0315486378
 21
-9.6662042463
  0
LINE
  5
22E
100
AcDbEntity
  8
DRAFT
100
AcDbLine
 62
7
  6
CONTINUOUS
 10
3.1459079918
 20
-9.6662042463
 11
-3.1684513622
 21
-9.6662042463
  0
LINE
  5
22F
100
AcDbEntity
  8
RACCORDO
100
AcDbLine
 62
7
  6
CONTINUOUS
 10
-8.0540920082
 20
-9.6662042463
 11
-9.7389750826
 21
-9.6662042463
  0
LINE
  5
230
100
AcDbEntity
  8
RACCORDO
100
AcDbLine
 62
7
  6
CONTINUOUS
 10
7.223258261
 20
-9.5188627732
 11
3.9541983687
 21
-9.5188627732
  0
LINE
  5
231
100
AcDbEntity
  8
RACCORDO
100
AcDbLine
 62
7
  6
CONTINUOUS
 10
-3.976741739
 20
-9.5188627732
 11
-7.2458016313
 21
-9.5188627732
  0
LINE
  5
232
100
AcDbEntity
  8
RACCORDO
100
AcDbLine
 62
7
  6
CONTINUOUS
 10
8.7821039878
 20
-11.1662042463
 11
7.3964633417
 21
-11.040425576
  0
LINE
  5
233
100
AcDbEntity
  8
DRAFT
100
AcDbLine
 62
7
  6
CONTINUOUS
 10
-3.1684513622
 20
-9.6662042463
 11
-2.4178960122
 21
-9.7362042463
  0
LINE
  5
234
100
AcDbEntity
  8
RACCORDO
100
AcDbLine
 62
7
  6
CONTINUOUS
 10
-3.1684513622
 20
-9.6662042463
 11
-3.8035366583
 21
-9.5311412293
  0
LINE
  5
235
100
AcDbEntity
  8
DRAFT
100
AcDbLine
 62
7
  6
CONTINUOUS
 10
-8.8046473582
 20
-11.1662042463
 11
-8.8046473582
 21
-9.7362042463
  0
LINE
  5
236
100
AcDbEntity
  8
RACCORDO
100
AcDbLine
 62
253
  6
CONTINUOUS
 10
-9.8798417196
 20
-9.0519461256
 11
-9.9388261094
 21
-9.4668613626
  0
LINE
  5
237
100
AcDbEntity
  8
RACCORDO
100
AcDbLine
 62
253
  6
CONTINUOUS
 10
-9.6798721815
 20
-9.2504553626
 11
-9.7389750826
 21
-9.6662042463
  0
LINE
  5
238
100
AcDbEntity
  8
DRAFT
100
AcDbLine
 62
7
  6
CONTINUOUS
 10
-8.0540920082
 20
-9.6662042463
 11
-8.8046473582
 21
-9.7362042463
  0
LINE
  5
239
100
AcDbEntity
  8
RACCORDO
100
AcDbLine
 62
253
  6
CONTINUOUS
 10
9.6573288112
 20
-9.2504553626
 11
-9.6798721815
 21
-9.2504553626
  0
LINE
  5
23A
100
AcDbEntity
  8
RACCORDO
100
AcDbLine
 62
253
  6
CONTINUOUS
 10
9.6573287747
 20
-9.0798146241
 11
-9.6798721451
 21
-9.0798146241
  0
LINE
  5
23B
100
AcDbEntity
  8
DRAFT
100
AcDbLine
 62
7
  6
CONTINUOUS
 10
8.0315486378
 20
-9.6662042463
 11
8.7821039878
 21
-9.7362042463
  0
LINE
  5
23C
100
AcDbEntity
  8
DRAFT
100
AcDbLine
 62
7
  6
CONTINUOUS
 10
-8.1862490122
 20
10.9750688859
 11
-8.1862490122
 21
9.7663406888
  0
LINE
  5
23D
100
AcDbEntity
  8
DRAFT
100
AcDbLine
 62
7
  6
CONTINUOUS
 10
-8.0112716852
 20
10.9576151503
 11
-8.0112716852
 21
9.7314305589
  0
LINE
  5
23E
100
AcDbEntity
  8
RACCORDO
100
AcDbLine
 62
253
  6
CONTINUOUS
 10
-7.4190067121
 20
-11.040425576
 11
-7.4190067121
 21
-9.5311412293
  0
LINE
  5
23F
100
AcDbEntity
  8
RACCORDO
100
AcDbLine
 62
253
  6
CONTINUOUS
 10
-7.2458016313
 20
-11.0351847981
 11
-7.2458016313
 21
-9.5188627732
  0
LINE
  5
240
100
AcDbEntity
  8
RACCORDO
100
AcDbLine
 62
7
  6
CONTINUOUS
 10
-8.0540920082
 20
-9.6662042463
 11
-7.4190067121
 21
-9.5311412293
  0
LINE
  5
241
100
AcDbEntity
  8
0
100
AcDbLine
 62
7
  6
CONTINUOUS
 10
-2.8135476852
 20
-7.7485052463
 11
-2.5008556852
 21
-7.7485052463
  0
LINE
  5
242
100
AcDbEntity
  8
0
100
AcDbLine
 62
7
  6
CONTINUOUS
 10
-1.8227736852
 20
-7.7485052463
 11
-1.4679456852
 21
-7.7485052463
  0
LINE
  5
243
100
AcDbEntity
  8
0
100
AcDbLine
 62
7
  6
CONTINUOUS
 10
-1.2769306852
 20
-7.7485052463
 11
-0.9374756852
 21
-7.7485052463
  0
LINE
  5
244
100
AcDbEntity
  8
0
100
AcDbLine
 62
7
  6
CONTINUOUS
 10
-0.4446476852
 20
-7.7485052463
 11
-0.3948836852
 21
-7.7485052463
  0
LINE
  5
245
100
AcDbEntity
  8
0
100
AcDbLine
 62
7
  6
CONTINUOUS
 10
0.0999083148
 20
-7.7485052463
 11
0.4470243148
 21
-7.7485052463
  0
LINE
  5
246
100
AcDbEntity
  8
0
100
AcDbLine
 62
7
  6
CONTINUOUS
 10
0.5027413148
 20
-7.7485052463
 11
0.8537193148
 21
-7.7485052463
  0
LINE
  5
247
100
AcDbEntity
  8
0
100
AcDbLine
 62
7
  6
CONTINUOUS
 10
1.5267663148
 20
-7.7485052463
 11
1.9007403148
 21
-7.7485052463
  0
LINE
  5
248
100
AcDbEntity
  8
0
100
AcDbLine
 62
7
  6
CONTINUOUS
 10
2.0049349787
 20
-7.748504933
 11
2.3583353108
 21
-7.748504933
  0
LINE
  5
249
100
AcDbEntity
  8
0
100
AcDbLine
 62
7
  6
CONTINUOUS
 10
2.9017055299
 20
-7.748504933
 11
3.2430088733
 21
-7.748504933
  0
LINE
  5
24A
100
AcDbEntity
  8
0
100
AcDbLine
 62
7
  6
CONTINUOUS
 10
0.9516303148
 20
-7.4091522463
 11
1.4348473148
 21
-7.4091522463
  0
LINE
  5
24B
100
AcDbEntity
  8
RACCORDO
100
AcDbLine
 62
7
  6
CONTINUOUS
 10
8.0315486378
 20
-9.6662042463
 11
7.3964633417
 21
-9.5311412293
  0
LINE
  5
24C
100
AcDbEntity
  8
RACCORDO
100
AcDbLine
 62
253
  6
CONTINUOUS
 10
-9.9388261094
 20
-9.4668613626
 11
-9.9612716852
 21
-9.5361024643
  0
LINE
  5
24D
100
AcDbEntity
  8
RACCORDO
100
AcDbLine
 62
253
  6
CONTINUOUS
 10
-9.7387373409
 20
-9.6662042463
 11
-9.7614289253
 21
-9.7362042463
  0
LINE
  5
24E
100
AcDbEntity
  8
RACCORDO
100
AcDbLine
 62
7
  6
CONTINUOUS
 10
-9.9612716852
 20
2.0724508256
 11
-9.8648687512
 21
2.1206486216
  0
LINE
  5
24F
100
AcDbEntity
  8
0
100
AcDbLine
 62
7
  6
CONTINUOUS
 10
1.0242123148
 20
-7.1465622463
 11
1.3639343148
 21
-7.1465622463
  0
LINE
  5
250
100
AcDbEntity
  8
0
100
AcDbLine
 62
7
  6
CONTINUOUS
 10
2.3583353108
 20
-7.0832725304
 11
2.5485856338
 21
-7.0832725304
  0
LINE
  5
251
100
AcDbEntity
  8
0
100
AcDbLine
 62
7
  6
CONTINUOUS
 10
2.3465697464
 20
-6.8048760778
 11
2.5493504593
 21
-6.8048760778
  0
LINE
  5
252
100
AcDbEntity
  8
RACCORDO
100
AcDbLine
 62
7
  6
CONTINUOUS
 10
-9.8676779935
 20
-2.1516526
 11
-9.9612716852
 21
-2.1048593182
  0
LINE
  5
253
100
AcDbEntity
  8
0
100
AcDbLine
 62
7
  6
CONTINUOUS
 10
-3.3524376852
 20
-6.0486422463
 11
-2.9669846852
 21
-6.0486422463
  0
LINE
  5
254
100
AcDbEntity
  8
0
100
AcDbLine
 62
7
  6
CONTINUOUS
 10
-2.3090376852
 20
-6.0486422463
 11
-1.9544516852
 21
-6.0486422463
  0
LINE
  5
255
100
AcDbEntity
  8
0
100
AcDbLine
 62
7
  6
CONTINUOUS
 10
-1.1234436852
 20
-6.0486422463
 11
-0.7689086852
 21
-6.0486422463
  0
LINE
  5
256
100
AcDbEntity
  8
0
100
AcDbLine
 62
7
  6
CONTINUOUS
 10
-0.0629996852
 20
-6.0486422463
 11
0.2880673148
 21
-6.0486422463
  0
LINE
  5
257
100
AcDbEntity
  8
0
100
AcDbLine
 62
7
  6
CONTINUOUS
 10
1.0359263148
 20
-6.0486422463
 11
1.3791803148
 21
-6.0486422463
  0
LINE
  5
258
100
AcDbEntity
  8
0
100
AcDbLine
 62
7
  6
CONTINUOUS
 10
-1.8227736852
 20
-6.0485402463
 11
-1.4679456852
 21
-6.0485402463
  0
LINE
  5
259
100
AcDbEntity
  8
0
100
AcDbLine
 62
7
  6
CONTINUOUS
 10
-2.8135476852
 20
-7.7485052463
 11
-3.3524376852
 21
-6.0486422463
  0
LINE
  5
25A
100
AcDbEntity
  8
0
100
AcDbLine
 62
7
  6
CONTINUOUS
 10
-2.6429596852
 20
-7.2187102463
 11
-2.9669846852
 21
-6.0486422463
  0
LINE
  5
25B
100
AcDbEntity
  8
RACCORDO
100
AcDbLine
 62
253
  6
CONTINUOUS
 10
-3.976741739
 20
-9.5188627732
 11
-3.976741739
 21
-11.0351847981
  0
LINE
  5
25C
100
AcDbEntity
  8
RACCORDO
100
AcDbLine
 62
253
  6
CONTINUOUS
 10
-3.8035366583
 20
-9.5311412293
 11
-3.8035366583
 21
-11.040425576
  0
LINE
  5
25D
100
AcDbEntity
  8
0
100
AcDbLine
 62
7
  6
CONTINUOUS
 10
-0.4446476852
 20
-7.7485052463
 11
-0.8609036852
 21
-6.6385262463
  0
LINE
  5
25E
100
AcDbEntity
  8
DRAFT
100
AcDbLine
 62
7
  6
CONTINUOUS
 10
-2.4178960122
 20
-11.1662042463
 11
-2.4178960122
 21
-9.7362042463
  0
LINE
  5
25F
100
AcDbEntity
  8
DRAFT
100
AcDbLine
 62
7
  6
CONTINUOUS
 10
9.9387283148
 20
-2.0791463862
 11
9.3387283148
 21
-2.0843825069
  0
LINE
  5
260
100
AcDbEntity
  8
DRAFT
100
AcDbLine
 62
7
  6
CONTINUOUS
 10
-11.1112716852
 20
-2.1048593182
 11
-9.9612716852
 21
-2.1048593182
  0
LINE
  5
261
100
AcDbEntity
  8
DRAFT
100
AcDbLine
 62
7
  6
CONTINUOUS
 10
9.9387283148
 20
-2.1048593182
 11
11.0887283148
 21
-2.1048593182
  0
LINE
  5
262
100
AcDbEntity
  8
0
100
AcDbLine
 62
7
  6
CONTINUOUS
 10
10.148765297
 20
-2.0791463862
 11
9.9387283148
 21
-2.0791463862
  0
LINE
  5
263
100
AcDbEntity
  8
0
100
AcDbLine
 62
7
  6
CONTINUOUS
 10
-9.9612716852
 20
-2.0791463862
 11
-10.1713086674
 21
-2.0791463862
  0
LINE
  5
264
100
AcDbEntity
  8
DRAFT
100
AcDbLine
 62
7
  6
CONTINUOUS
 10
-9.3612716852
 20
-2.0843825069
 11
-9.9612716852
 21
-2.0791463862
  0
LINE
  5
265
100
AcDbEntity
  8
0
100
AcDbLine
 62
7
  6
CONTINUOUS
 10
-0.4178276852
 20
-6.9924112463
 11
-0.7689086852
 21
-6.0486422463
  0
LINE
  5
266
100
AcDbEntity
  8
0
100
AcDbLine
 62
7
  6
CONTINUOUS
 10
-1.8227736852
 20
-7.7485052463
 11
-1.8227736852
 21
-6.0485402463
  0
LINE
  5
267
100
AcDbEntity
  8
0
100
AcDbLine
 62
7
  6
CONTINUOUS
 10
-1.4679456852
 20
-7.7485052463
 11
-1.4679456852
 21
-6.0485402463
  0
LINE
  5
268
100
AcDbEntity
  8
0
100
AcDbLine
 62
7
  6
CONTINUOUS
 10
-10.8674739941
 20
-2.0846166494
 11
-11.1112716852
 21
-2.1048593182
  0
LINE
  5
269
100
AcDbEntity
  8
DRAFT
100
AcDbLine
 62
7
  6
CONTINUOUS
 10
-9.9612716852
 20
-2.0930780466
 11
-9.3612716852
 21
-2.090054971
  0
LINE
  5
26A
100
AcDbEntity
  8
DRAFT
100
AcDbLine
 62
7
  6
CONTINUOUS
 10
9.3387283148
 20
-2.090054971
 11
9.9387283148
 21
-2.0930780466
  0
LINE
  5
26B
100
AcDbEntity
  8
0
100
AcDbLine
 62
7
  6
CONTINUOUS
 10
11.0887283148
 20
-2.1048593182
 11
10.8449306238
 21
-2.0846166494
  0
LINE
  5
26C
100
AcDbEntity
  8
0
100
AcDbLine
 62
7
  6
CONTINUOUS
 10
0.4470243148
 20
-7.7485052463
 11
0.2880673148
 21
-6.0486422463
  0
LINE
  5
26D
100
AcDbEntity
  8
0
100
AcDbLine
 62
7
  6
CONTINUOUS
 10
0.0999083148
 20
-7.7485052463
 11
0.0270073148
 21
-6.6431532463
  0
LINE
  5
26E
100
AcDbEntity
  8
0
100
AcDbLine
 62
7
  6
CONTINUOUS
 10
-0.9374756852
 20
-7.7485052463
 11
-0.8609036852
 21
-6.6385262463
  0
LINE
  5
26F
100
AcDbEntity
  8
0
100
AcDbLine
 62
7
  6
CONTINUOUS
 10
-1.2769306852
 20
-7.7485052463
 11
-1.1234436852
 21
-6.0486422463
  0
LINE
  5
270
100
AcDbEntity
  8
0
100
AcDbLine
 62
7
  6
CONTINUOUS
 10
-2.6429596852
 20
-7.2187102463
 11
-2.3090376852
 21
-6.0486422463
  0
LINE
  5
271
100
AcDbEntity
  8
0
100
AcDbLine
 62
7
  6
CONTINUOUS
 10
-2.5008556852
 20
-7.7485052463
 11
-1.9544516852
 21
-6.0486422463
  0
LINE
  5
272
100
AcDbEntity
  8
RACCORDO
100
AcDbLine
 62
253
  6
CONTINUOUS
 10
9.6409929092
 20
9.7087214715
 11
9.6986121264
 21
9.7663406888
  0
LINE
  5
273
100
AcDbEntity
  8
RACCORDO
100
AcDbLine
 62
253
  6
CONTINUOUS
 10
-9.9211250358
 20
9.5663711498
 11
-9.8635058188
 21
9.5087519327
  0
LINE
  5
274
100
AcDbEntity
  8
RACCORDO
100
AcDbLine
 62
253
  6
CONTINUOUS
 10
-9.7211554968
 20
9.7663406888
 11
-9.6635362796
 21
9.7087214715
  0
LINE
  5
275
100
AcDbEntity
  8
0
100
AcDbLine
 62
7
  6
CONTINUOUS
 10
1.9007403148
 20
-7.7485052463
 11
1.3791803148
 21
-6.0486422463
  0
LINE
  5
276
100
AcDbEntity
  8
0
100
AcDbLine
 62
7
  6
CONTINUOUS
 10
1.5267663148
 20
-7.7485052463
 11
1.4348473148
 21
-7.4091522463
  0
LINE
  5
277
100
AcDbEntity
  8
0
100
AcDbLine
 62
7
  6
CONTINUOUS
 10
1.3639343148
 20
-7.1465622463
 11
1.2008863148
 21
-6.5157212463
  0
LINE
  5
278
100
AcDbEntity
  8
RACCORDO
100
AcDbLine
 62
253
  6
CONTINUOUS
 10
9.8409624484
 20
9.5087519327
 11
9.8985816655
 21
9.5663711498
  0
LINE
  5
279
100
AcDbEntity
  8
0
100
AcDbLine
 62
7
  6
CONTINUOUS
 10
2.0049349787
 20
-7.748504933
 11
2.0049349787
 21
-6.0685021641
  0
LINE
  5
27A
100
AcDbEntity
  8
0
100
AcDbLine
 62
7
  6
CONTINUOUS
 10
-0.4178276852
 20
-6.9924112463
 11
-0.0629996852
 21
-6.0486422463
  0
LINE
  5
27B
100
AcDbEntity
  8
0
100
AcDbLine
 62
7
  6
CONTINUOUS
 10
11.0887283148
 20
2.0724508256
 11
10.8449306238
 21
2.0522081569
  0
LINE
  5
27C
100
AcDbEntity
  8
DRAFT
100
AcDbLine
 62
7
  6
CONTINUOUS
 10
-9.3612716852
 20
2.0519740143
 11
-9.9612716852
 21
2.0467378937
  0
LINE
  5
27D
100
AcDbEntity
  8
DRAFT
100
AcDbLine
 62
7
  6
CONTINUOUS
 10
9.3387283148
 20
2.0576464784
 11
9.9387283148
 21
2.0606695541
  0
LINE
  5
27E
100
AcDbEntity
  8
DRAFT
100
AcDbLine
 62
253
  6
CONTINUOUS
 10
9.3387283148
 20
1.6065957537
 11
-9.3612716852
 21
1.6065957537
  0
LINE
  5
27F
100
AcDbEntity
  8
0
100
AcDbLine
 62
7
  6
CONTINUOUS
 10
10.148765297
 20
2.0467378937
 11
9.9387283148
 21
2.0467378937
  0
LINE
  5
280
100
AcDbEntity
  8
0
100
AcDbLine
 62
7
  6
CONTINUOUS
 10
-9.9612716852
 20
2.0467378937
 11
-10.1713086674
 21
2.0467378937
  0
LINE
  5
281
100
AcDbEntity
  8
DRAFT
100
AcDbLine
 62
7
  6
CONTINUOUS
 10
-11.1112716852
 20
2.0724508256
 11
-9.9612716852
 21
2.0724508256
  0
LINE
  5
282
100
AcDbEntity
  8
DRAFT
100
AcDbLine
 62
7
  6
CONTINUOUS
 10
9.9387283148
 20
2.0724508256
 11
11.0887283148
 21
2.0724508256
  0
LINE
  5
283
100
AcDbEntity
  8
DRAFT
100
AcDbLine
 62
7
  6
CONTINUOUS
 10
-9.9612716852
 20
2.0606695541
 11
-9.3612716852
 21
2.0576464784
  0
LINE
  5
284
100
AcDbEntity
  8
DRAFT
100
AcDbLine
 62
7
  6
CONTINUOUS
 10
9.9387283148
 20
2.0467378937
 11
9.3387283148
 21
2.0519740143
  0
LINE
  5
285
100
AcDbEntity
  8
0
100
AcDbLine
 62
7
  6
CONTINUOUS
 10
-10.8674739941
 20
2.0522081569
 11
-11.1112716852
 21
2.0724508256
  0
LINE
  5
286
100
AcDbEntity
  8
0
100
AcDbLine
 62
7
  6
CONTINUOUS
 10
2.3465697464
 20
-6.8048760778
 11
2.3465697464
 21
-6.3382305953
  0
LINE
  5
287
100
AcDbEntity
  8
0
100
AcDbLine
 62
7
  6
CONTINUOUS
 10
2.3583353108
 20
-7.748504933
 11
2.3583353108
 21
-7.0832725304
  0
LINE
  5
288
100
AcDbEntity
  8
DRAFT
100
AcDbLine
 62
7
  6
CONTINUOUS
 10
2.3953526418
 20
-11.1662042463
 11
2.3953526418
 21
-9.7362042463
  0
LINE
  5
289
100
AcDbEntity
  8
0
100
AcDbLine
 62
7
  6
CONTINUOUS
 10
2.9171804976
 20
-6.9550240547
 11
2.9171804976
 21
-6.9449793475
  0
LINE
  5
28A
100
AcDbEntity
  8
0
100
AcDbLine
 62
7
  6
CONTINUOUS
 10
1.0242123148
 20
-7.1465622463
 11
1.2008863148
 21
-6.5157212463
  0
LINE
  5
28B
100
AcDbEntity
  8
0
100
AcDbLine
 62
7
  6
CONTINUOUS
 10
0.8537193148
 20
-7.7485052463
 11
0.9516303148
 21
-7.4091522463
  0
LINE
  5
28C
100
AcDbEntity
  8
0
100
AcDbLine
 62
7
  6
CONTINUOUS
 10
0.5027413148
 20
-7.7485052463
 11
1.0359263148
 21
-6.0486422463
  0
LINE
  5
28D
100
AcDbEntity
  8
0
100
AcDbLine
 62
7
  6
CONTINUOUS
 10
-0.3948836852
 20
-7.7485052463
 11
0.0270073148
 21
-6.6431532463
  0
LINE
  5
28E
100
AcDbEntity
  8
RACCORDO
100
AcDbLine
 62
253
  6
CONTINUOUS
 10
3.7809932879
 20
-11.040425576
 11
3.7809932879
 21
-9.5311412293
  0
LINE
  5
28F
100
AcDbEntity
  8
RACCORDO
100
AcDbLine
 62
253
  6
CONTINUOUS
 10
3.9541983687
 20
-11.0351847981
 11
3.9541983687
 21
-9.5188627732
  0
LINE
  5
290
100
AcDbEntity
  8
RACCORDO
100
AcDbLine
 62
7
  6
CONTINUOUS
 10
9.8451346231
 20
-2.1516526
 11
9.9387283148
 21
-2.1048593182
  0
LINE
  5
291
100
AcDbEntity
  8
RACCORDO
100
AcDbLine
 62
7
  6
CONTINUOUS
 10
9.9387283148
 20
2.0724508256
 11
9.8423253809
 21
2.1206486216
  0
LINE
  5
292
100
AcDbEntity
  8
RACCORDO
100
AcDbLine
 62
253
  6
CONTINUOUS
 10
9.7388855549
 20
-9.7362042463
 11
9.7161939705
 21
-9.6662042463
  0
LINE
  5
293
100
AcDbEntity
  8
RACCORDO
100
AcDbLine
 62
253
  6
CONTINUOUS
 10
7.223258261
 20
-9.5188627732
 11
7.223258261
 21
-11.0351847981
  0
LINE
  5
294
100
AcDbEntity
  8
RACCORDO
100
AcDbLine
 62
253
  6
CONTINUOUS
 10
7.3964633417
 20
-9.5311412293
 11
7.3964633417
 21
-11.040425576
  0
LINE
  5
295
100
AcDbEntity
  8
DRAFT
100
AcDbLine
 62
7
  6
CONTINUOUS
 10
-9.9211250358
 20
6.9837957537
 11
-11.1112716852
 21
6.9837957537
  0
LINE
  5
296
100
AcDbEntity
  8
DRAFT
100
AcDbLine
 62
7
  6
CONTINUOUS
 10
9.8985816655
 20
6.9837957537
 11
11.0887283148
 21
6.9837957537
  0
LINE
  5
297
100
AcDbEntity
  8
RACCORDO
100
AcDbLine
 62
253
  6
CONTINUOUS
 10
9.9387283148
 20
-9.5361024643
 11
9.9162827391
 21
-9.4668613626
  0
LINE
  5
298
100
AcDbEntity
  8
DRAFT
100
AcDbLine
 62
7
  6
CONTINUOUS
 10
7.9887283148
 20
10.9576151503
 11
7.9887283148
 21
9.7314305589
  0
LINE
  5
299
100
AcDbEntity
  8
DRAFT
100
AcDbLine
 62
7
  6
CONTINUOUS
 10
8.1637056419
 20
9.7663406888
 11
8.1637056419
 21
10.9750688859
  0
LINE
  5
29A
100
AcDbEntity
  8
DRAFT
100
AcDbLine
 62
7
  6
CONTINUOUS
 10
8.1637056419
 20
9.7663406888
 11
7.9887283148
 21
9.7314305589
  0
LINE
  5
29B
100
AcDbEntity
  8
DRAFT
100
AcDbLine
 62
7
  6
CONTINUOUS
 10
-8.1862490122
 20
9.7663406888
 11
-8.0112716852
 21
9.7314305589
  0
LINE
  5
29C
100
AcDbEntity
  8
RACCORDO
100
AcDbLine
 62
253
  6
CONTINUOUS
 10
9.7164317123
 20
-9.6662042463
 11
9.6573288112
 21
-9.2504553626
  0
LINE
  5
29D
100
AcDbEntity
  8
DRAFT
100
AcDbLine
 62
7
  6
CONTINUOUS
 10
8.7821039878
 20
-11.1662042463
 11
8.7821039878
 21
-9.7362042463
  0
LINE
  5
29E
100
AcDbEntity
  8
DRAFT
100
AcDbLine
 62
7
  6
CONTINUOUS
 10
9.3387283148
 20
-2.090054971
 11
9.3387283148
 21
2.0576464784
  0
LINE
  5
29F
100
AcDbEntity
  8
RACCORDO
100
AcDbLine
 62
253
  6
CONTINUOUS
 10
9.9162827391
 20
-9.4668613626
 11
9.8572983492
 21
-9.0519461256
  0
LINE
  5
2A0
100
AcDbEntity
  8
RACCORDO
100
AcDbLine
 62
253
  6
CONTINUOUS
 10
9.6409929092
 20
9.508120146
 11
9.6409929092
 21
9.7087214715
  0
LINE
  5
2A1
100
AcDbEntity
  8
RACCORDO
100
AcDbLine
 62
253
  6
CONTINUOUS
 10
9.6573288112
 20
-9.2504553626
 11
9.6573288112
 21
-9.0798146241
  0
LINE
  5
2A2
100
AcDbEntity
  8
RACCORDO
100
AcDbLine
 62
7
  6
CONTINUOUS
 10
9.8985816655
 20
9.5663711498
 11
9.8985816655
 21
6.9837957537
  0
LINE
  5
2A3
100
AcDbEntity
  8
DRAFT
100
AcDbLine
 62
7
  6
CONTINUOUS
 10
9.9387283148
 20
2.0467378937
 11
9.9387283148
 21
-2.0791463862
  0
LINE
  5
2A4
100
AcDbEntity
  8
RACCORDO
100
AcDbLine
 62
7
  6
CONTINUOUS
 10
9.9387283148
 20
-2.1048593182
 11
9.9387283148
 21
-9.5361024643
  0
LINE
  5
2A5
100
AcDbEntity
  8
DRAFT
100
AcDbLine
 62
7
  6
CONTINUOUS
 10
9.9387283148
 20
-2.1048593177
 11
9.9387283148
 21
-2.0930780466
  0
LINE
  5
2A6
100
AcDbEntity
  8
DRAFT
100
AcDbLine
 62
7
  6
CONTINUOUS
 10
9.9387283148
 20
2.0606695541
 11
9.9387283148
 21
6.9837957537
  0
LINE
  5
2A7
100
AcDbEntity
  8
0
100
AcDbLine
 62
253
  6
CONTINUOUS
 10
10.148765297
 20
-2.0791463862
 11
10.148765297
 21
2.0467378937
  0
LINE
  5
2A8
100
AcDbEntity
  8
DRAFT
100
AcDbLine
 62
7
  6
CONTINUOUS
 10
8.1637056419
 20
10.9750688859
 11
7.9887283148
 21
10.9576151503
  0
LINE
  5
2A9
100
AcDbEntity
  8
RACCORDO
100
AcDbLine
 62
253
  6
CONTINUOUS
 10
-9.6635362799
 20
9.508120146
 11
9.6409929096
 21
9.508120146
  0
LINE
  5
2AA
100
AcDbEntity
  8
RACCORDO
100
AcDbLine
 62
253
  6
CONTINUOUS
 10
-9.6635362796
 20
9.7087214715
 11
9.6409929092
 21
9.7087214715
  0
LINE
  5
2AB
100
AcDbEntity
  8
DRAFT
100
AcDbLine
 62
7
  6
CONTINUOUS
 10
-8.0112716852
 20
9.7314305589
 11
7.9887283148
 21
9.7314305589
  0
LINE
  5
2AC
100
AcDbEntity
  8
RACCORDO
100
AcDbLine
 62
7
  6
CONTINUOUS
 10
-9.7211554968
 20
9.7663406888
 11
-8.1862490122
 21
9.7663406888
  0
LINE
  5
2AD
100
AcDbEntity
  8
RACCORDO
100
AcDbLine
 62
7
  6
CONTINUOUS
 10
8.1637056419
 20
9.7663406888
 11
9.6986121264
 21
9.7663406888
  0
LINE
  5
2AE
100
AcDbEntity
  8
DRAFT
100
AcDbLine
 62
7
  6
CONTINUOUS
 10
-8.1862490122
 20
10.9750688859
 11
-8.0112716852
 21
10.9576151503
  0
LINE
  5
2AF
100
AcDbEntity
  8
0
100
AcDbLine
 62
253
  6
CONTINUOUS
 10
10.8449306238
 20
-2.0846166494
 11
10.8449306238
 21
2.0522081569
  0
LINE
  5
2B0
100
AcDbEntity
  8
RACCORDO
100
AcDbLine
 62
7
  6
CONTINUOUS
 10
11.0485816655
 20
10.7250974425
 11
11.0485816655
 21
6.9837957537
  0
LINE
  5
2B1
100
AcDbEntity
  8
DRAFT
100
AcDbLine
 62
7
  6
CONTINUOUS
 10
11.0887283148
 20
6.9837957537
 11
11.0887283148
 21
-2.1048593182
  0
LINE
  5
2B2
100
AcDbEntity
  8
RACCORDO
100
AcDbLine
 62
7
  6
CONTINUOUS
 10
11.0887283148
 20
-2.1048593182
 11
11.0887283148
 21
-10.6659753942
  0
LINE
  5
2B3
100
AcDbEntity
  8
DRAFT
100
AcDbLine
 62
7
  6
CONTINUOUS
 10
-8.0112716852
 20
10.9576151503
 11
7.9887283148
 21
10.9576151503
  0
LINE
  5
2B4
100
AcDbEntity
  8
RACCORDO
100
AcDbLine
 62
7
  6
CONTINUOUS
 10
10.798581664
 20
10.9750688859
 11
8.1637056419
 21
10.9750688859
  0
LINE
  5
2B5
100
AcDbEntity
  8
RACCORDO
100
AcDbLine
 62
7
  6
CONTINUOUS
 10
-8.1862490122
 20
10.9750688859
 11
-10.8211250344
 21
10.9750688859
  0
ARC
  5
2B6
100
AcDbEntity
  8
RACCORDO
100
AcDbCircle
 62
253
  6
CONTINUOUS
 10
9.6409199175
 20
9.5086789408
 40
0.2000430318
100
AcDbArc
 50
0.0209061378
 51
89.9790938622
  0
ARC
  5
2B7
100
AcDbEntity
  8
RACCORDO
100
AcDbCircle
 62
253
  6
CONTINUOUS
 10
-9.6634632898
 20
9.5086789428
 40
0.2000430319
100
AcDbArc
 50
90.0209055674
 51
179.9790944273
  0
SPLINE
  5
2B8
100
AcDbEntity
  8
0
100
AcDbSpline
 62
7
  6
CONTINUOUS
 70
0
 71
3
 72
12
 73
8
 74
6
 42
0.0000001
 43
0.0000001
 44
0.0000000001
 12
0.4330417776
 22
0.0096723036
 32
0.0
 13
-0.0065834261
 23
0.4331211565
 33
0.0
 40
0.0
 40
0.0
 40
0.0
 40
0.0
 40
0.2462397771
 40
0.4749267589
 40
0.5889085029
 40
0.7096068513
 40
1.0
 40
1.0
 40
1.0
 40
1.0
 10
2.5493504593
 20
-6.8048760778
 30
0.0
 10
2.5848944962
 20
-6.8040821758
 30
0.0
 10
2.6537100804
 20
-6.796159332
 30
0.0
 10
2.733092063
 20
-6.7591771065
 30
0.0
 10
2.7802798622
 20
-6.7107381608
 30
0.0
 10
2.8179696245
 20
-6.6440628397
 30
0.0
 10
2.8256195885
 20
-6.5827434658
 30
0.0
 10
2.8249823279
 20
-6.540818327
 30
0.0
 11
2.5493504593
 21
-6.8048760778
 31
0.0
 11
2.6549636877
 21
-6.7899789118
 31
0.0
 11
2.7435236994
 21
-6.7456037012
 31
0.0
 11
2.7779319302
 21
-6.7101976868
 31
0.0
 11
2.8039046745
 21
-6.6648251906
 31
0.0
 11
2.8249823279
 21
-6.540818327
 31
0.0
  0
SPLINE
  5
2B9
100
AcDbEntity
  8
0
100
AcDbSpline
 62
7
  6
CONTINUOUS
 70
0
 71
3
 72
11
 73
7
 74
5
 42
0.0000001
 43
0.0000001
 44
0.0000000001
 12
-0.004842274
 22
0.3185660313
 32
0.0
 13
-0.3164879412
 23
0.0367327261
 33
0.0
 40
0.0
 40
0.0
 40
0.0
 40
0.0
 40
0.2571296801
 40
0.4996621843
 40
0.7437431137
 40
1.0
 40
1.0
 40
1.0
 40
1.0
 10
2.8249823384
 20
-6.5408183269
 30
0.0
 10
2.8245673076
 20
-6.5135140663
 30
0.0
 10
2.8142042054
 20
-6.4598976512
 30
0.0
 10
2.7695962432
 20
-6.3924348003
 30
0.0
 10
2.7038772107
 20
-6.3458947717
 30
0.0
 10
2.6515704649
 20
-6.3313607384
 30
0.0
 10
2.6245363935
 20
-6.3282230671
 30
0.0
 11
2.8249823384
 21
-6.5408183269
 31
0.0
 11
2.8087095308
 21
-6.4605275741
 31
0.0
 11
2.7662453879
 21
-6.3959669475
 31
0.0
 11
2.7030401355
 21
-6.3506584108
 31
0.0
 11
2.6245363935
 21
-6.3282230671
 31
0.0
  0
SPLINE
  5
2BA
100
AcDbEntity
  8
0
100
AcDbSpline
 62
7
  6
CONTINUOUS
 70
0
 71
3
 72
9
 73
5
 74
3
 42
0.0000001
 43
0.0000001
 44
0.0000000001
 12
-0.2771129337
 22
0.0321627199
 32
0.0
 13
-0.2749983205
 23
-0.0469241847
 33
0.0
 40
0.0
 40
0.0
 40
0.0
 40
0.0
 40
0.4842439571
 40
1.0
 40
1.0
 40
1.0
 40
1.0
 10
2.6245363935
 20
-6.3282230672
 30
0.0
 10
2.5798063056
 20
-6.3230315329
 30
0.0
 10
2.4864589303
 20
-6.3183240357
 30
0.0
 10
2.393847095
 20
-6.3301634514
 30
0.0
 10
2.3465697464
 20
-6.3382305953
 30
0.0
 11
2.6245363935
 21
-6.3282230672
 31
0.0
 11
2.4895729792
 21
-6.3223525009
 31
0.0
 11
2.3465697464
 21
-6.3382305953
 31
0.0
  0
SPLINE
  5
2BB
100
AcDbEntity
  8
0
100
AcDbSpline
 62
7
  6
CONTINUOUS
 70
0
 71
3
 72
10
 73
6
 74
4
 42
0.0000001
 43
0.0000001
 44
0.0000000001
 12
0.8731819798
 22
0.1284599377
 32
0.0
 13
0.8300707046
 23
-0.2998855628
 33
0.0
 40
0.0
 40
0.0
 40
0.0
 40
0.0
 40
0.4151262789
 40
0.7045762354
 40
1.0
 40
1.0
 40
1.0
 40
1.0
 10
2.0049349787
 20
-6.0685021641
 30
0.0
 10
2.1257619074
 20
-6.0507264655
 30
0.0
 10
2.332383308
 20
-6.0282144714
 30
0.0
 10
2.626685893
 20
-6.0281592353
 30
0.0
 10
2.7988554775
 20
-6.0568679716
 30
0.0
 10
2.8805963484
 20
-6.0863990789
 30
0.0
 11
2.0049349787
 21
-6.0685021641
 31
0.0
 11
2.3694945917
 21
-6.0320002734
 31
0.0
 11
2.6249375181
 21
-6.0351987973
 31
0.0
 11
2.8805963484
 21
-6.0863990789
 31
0.0
  0
SPLINE
  5
2BC
100
AcDbEntity
  8
0
100
AcDbSpline
 62
7
  6
CONTINUOUS
 70
0
 71
3
 72
29
 73
25
 74
23
 42
0.0000001
 43
0.0000001
 44
0.0000000001
 12
0.9982821705
 22
-0.3601338191
 32
0.0
 13
-1.0525299136
 23
-0.1358103114
 33
0.0
 40
0.0
 40
0.0
 40
0.0
 40
0.0
 40
0.0797921543
 40
0.1315450168
 40
0.1894872835
 40
0.2530428125
 40
0.3223573394
 40
0.3594791469
 40
0.3984765258
 40
0.4396024585
 40
0.461060296
 40
0.4831657108
 40
0.5106684577
 40
0.5371696367
 40
0.5874242403
 40
0.6344377035
 40
0.6786100793
 40
0.7594318421
 40
0.8311116915
 40
0.8931858305
 40
0.9201298729
 40
0.9439336987
 40
0.9806160801
 40
1.0
 40
1.0
 40
1.0
 40
1.0
 10
2.8805963484
 20
-6.0863990789
 30
0.0
 10
2.9071480433
 20
-6.0959776967
 30
0.0
 10
2.9484101458
 20
-6.1187688688
 30
0.0
 10
3.0016443273
 20
-6.1595871811
 30
0.0
 10
3.0452104648
 20
-6.2030063928
 30
0.0
 10
3.0859418542
 20
-6.2571293039
 30
0.0
 10
3.1142328094
 20
-6.3105305122
 30
0.0
 10
3.1325363365
 20
-6.3586660051
 30
0.0
 10
3.1439220923
 20
-6.3986032934
 30
0.0
 10
3.150766512
 20
-6.433928041
 30
0.0
 10
3.1546000311
 20
-6.4636482647
 30
0.0
 10
3.1567486667
 20
-6.4887033012
 30
0.0
 10
3.1578533371
 20
-6.5156157169
 30
0.0
 10
3.1576178436
 20
-6.5525076461
 30
0.0
 10
3.154181155
 20
-6.5962320285
 30
0.0
 10
3.1453547524
 20
-6.6455664242
 30
0.0
 10
3.128831379
 20
-6.7042085353
 30
0.0
 10
3.1006813054
 20
-6.7683044223
 30
0.0
 10
3.0584083017
 20
-6.8317255203
 30
0.0
 10
3.0199633163
 20
-6.8739139343
 30
0.0
 10
2.9901111721
 20
-6.9003930147
 30
0.0
 10
2.9657023313
 20
-6.919561824
 30
0.0
 10
2.9419402942
 20
-6.9342909024
 30
0.0
 10
2.9239812161
 20
-6.9441018354
 30
0.0
 10
2.9171804976
 20
-6.9449793475
 30
0.0
 11
2.8805963484
 21
-6.0863990789
 31
0.0
 11
2.9556209418
 21
-6.1256672873
 31
0.0
 11
2.999185816
 21
-6.1591133619
 31
0.0
 11
3.0427488976
 21
-6.2025123246
 31
0.0
 11
3.0832825535
 21
-6.2564228568
 31
0.0
 11
3.1177591506
 21
-6.3214036394
 31
0.0
 11
3.1317799167
 21
-6.3582199624
 31
0.0
 11
3.1431510557
 21
-6.3980133535
 31
0.0
 11
3.1514941135
 21
-6.4408536476
 31
0.0
 11
3.1544118449
 21
-6.4634382069
 31
0.0
 11
3.1564306358
 21
-6.4868106801
 31
0.0
 11
3.1576329446
 21
-6.5159733533
 31
0.0
 11
3.1574380979
 21
-6.5440972057
 31
0.0
 11
3.1531918292
 21
-6.5972608816
 31
0.0
 11
3.1443616123
 21
-6.646366576
 31
0.0
 11
3.1316172295
 21
-6.6914791573
 31
0.0
 11
3.0970650959
 21
-6.7699844533
 31
0.0
 11
3.0548936879
 21
-6.8332957156
 31
0.0
 11
3.0104612647
 21
-6.8819318902
 31
0.0
 11
2.9890716286
 21
-6.9009089808
 31
0.0
 11
2.9691260857
 21
-6.916411923
 31
0.0
 11
2.9362464101
 21
-6.9372547649
 31
0.0
 11
2.9171804976
 21
-6.9449793475
 31
0.0
  0
SPLINE
  5
2BD
100
AcDbEntity
  8
0
100
AcDbSpline
 62
7
  6
CONTINUOUS
 70
0
 71
3
 72
11
 73
7
 74
5
 42
0.0000001
 43
0.0000001
 44
0.0000000001
 12
0.3761208467
 22
-0.1499781876
 32
0.0
 13
0.1064365191
 23
-0.3906808149
 33
0.0
 40
0.0
 40
0.0
 40
0.0
 40
0.0
 40
0.2518807061
 40
0.5057298026
 40
0.7626272391
 40
1.0
 40
1.0
 40
1.0
 40
1.0
 10
2.9171804976
 20
-6.9550240547
 30
0.0
 10
2.9487596924
 20
-6.9676162586
 30
0.0
 10
3.0061972006
 20
-7.0094755728
 30
0.0
 10
3.060953495
 20
-7.0981478083
 30
0.0
 10
3.0961050085
 20
-7.1931055521
 30
0.0
 10
3.1133046816
 20
-7.2575809915
 30
0.0
 10
3.1217263917
 20
-7.2884933194
 30
0.0
 11
2.9171804976
 21
-6.9550240547
 31
0.0
 11
3.0007330936
 21
-7.0135154728
 31
0.0
 11
3.0576040379
 21
-7.0991378777
 31
0.0
 11
3.0953949781
 21
-7.1960534079
 31
0.0
 11
3.1217263917
 21
-7.2884933194
 31
0.0
  0
SPLINE
  5
2BE
100
AcDbEntity
  8
0
100
AcDbSpline
 62
7
  6
CONTINUOUS
 70
0
 71
3
 72
9
 73
5
 74
3
 42
0.0000001
 43
0.0000001
 44
0.0000000001
 12
0.1250498145
 22
-0.4590019273
 32
0.0
 13
0.1246901954
 23
-0.4590997633
 33
0.0
 40
0.0
 40
0.0
 40
0.0
 40
0.0
 40
0.8019560104
 40
1.0
 40
1.0
 40
1.0
 40
1.0
 10
3.1217263922
 20
-7.2884933193
 30
0.0
 10
3.1551545423
 20
-7.4111931041
 30
0.0
 10
3.194494635
 20
-7.5648203839
 30
0.0
 10
3.234777492
 20
-7.7181976167
 30
0.0
 10
3.2430088733
 20
-7.748504933
 30
0.0
 11
3.1217263922
 21
-7.2884933193
 31
0.0
 11
3.2188589131
 21
-7.6574369313
 31
0.0
 11
3.2430088733
 21
-7.748504933
 31
0.0
  0
SPLINE
  5
2BF
100
AcDbEntity
  8
0
100
AcDbSpline
 62
7
  6
CONTINUOUS
 70
0
 71
3
 72
12
 73
8
 74
6
 42
0.0000001
 43
0.0000001
 44
0.0000000001
 12
-0.1487496823
 22
0.5173829732
 32
0.0
 13
-0.1893274525
 23
0.5039511133
 33
0.0
 40
0.0
 40
0.0
 40
0.0
 40
0.0
 40
0.1342633083
 40
0.4413587159
 40
0.7777549272
 40
0.9121016175
 40
1.0
 40
1.0
 40
1.0
 40
1.0
 10
2.9017055299
 20
-7.748504933
 30
0.0
 10
2.8950483218
 20
-7.7253497498
 30
0.0
 10
2.8730297509
 20
-7.6492709155
 30
0.0
 10
2.8338751625
 20
-7.515313529
 30
0.0
 10
2.7941851665
 20
-7.3814798255
 30
0.0
 10
2.7643548311
 20
-7.2857893614
 30
0.0
 10
2.7520951388
 20
-7.2478163376
 30
0.0
 10
2.7465479465
 20
-7.2330508417
 30
0.0
 11
2.9017055299
 21
-7.748504933
 31
0.0
 11
2.8816334437
 21
-7.6790683452
 31
0.0
 11
2.8352501679
 21
-7.5203861914
 31
0.0
 11
2.7833051773
 21
-7.3468998855
 31
0.0
 11
2.7617312498
 21
-7.2778681174
 31
0.0
 11
2.7465479465
 21
-7.2330508417
 31
0.0
  0
SPLINE
  5
2C0
100
AcDbEntity
  8
0
100
AcDbSpline
 62
7
  6
CONTINUOUS
 70
0
 71
3
 72
10
 73
6
 74
4
 42
0.0000001
 43
0.0000001
 44
0.0000000001
 12
-0.0926634025
 22
0.2469128663
 32
0.0
 13
-0.2637280223
 23
0.0
 33
0.0
 40
0.0
 40
0.0
 40
0.0
 40
0.0
 40
0.3697930287
 40
0.6482659948
 40
1.0
 40
1.0
 40
1.0
 40
1.0
 10
2.7465479465
 20
-7.2330508417
 30
0.0
 10
2.7351258531
 20
-7.2026152894
 30
0.0
 10
2.7069390826
 20
-7.1510977707
 30
0.0
 10
2.6361021973
 20
-7.0957739444
 30
0.0
 10
2.5795063384
 20
-7.0832725304
 30
0.0
 10
2.5485856338
 20
-7.0832725304
 30
0.0
 11
2.7465479465
 21
-7.2330508417
 31
0.0
 11
2.6971977855
 21
-7.1489339877
 31
0.0
 11
2.6389577241
 21
-7.1041936924
 31
0.0
 11
2.5485856338
 21
-7.0832725304
 31
0.0
  0
SPLINE
  5
2C1
100
AcDbEntity
  8
RACCORDO
100
AcDbSpline
 62
7
  6
CONTINUOUS
 70
0
 71
3
 72
22
 73
18
 74
16
 42
0.0000001
 43
0.0000001
 44
0.0000000001
 12
0.200005806
 22
0.0
 32
0.0
 13
0.1788933833
 23
0.0894398115
 33
0.0
 40
0.0
 40
0.0
 40
0.0
 40
0.0
 40
0.1029582649
 40
0.2053786657
 40
0.3055083985
 40
0.4019189898
 40
0.4944028293
 40
0.5818933028
 40
0.662944388
 40
0.736522416
 40
0.8025955709
 40
0.860179721
 40
0.908338058
 40
0.946628354
 40
0.9749490678
 40
0.992810719
 40
1.0
 40
1.0
 40
1.0
 40
1.0
 10
9.6451537545
 20
-2.1533698902
 30
0.0
 10
9.652017838
 20
-2.1533698902
 30
0.0
 10
9.6657101474
 20
-2.1533637467
 30
0.0
 10
9.6860779491
 20
-2.1533360876
 30
0.0
 10
9.7060091936
 20
-2.1532902673
 30
0.0
 10
9.7252779278
 20
-2.1532268745
 30
0.0
 10
9.7437039583
 20
-2.1531465705
 30
0.0
 10
9.7611058712
 20
-2.153049968
 30
0.0
 10
9.7772473409
 20
-2.1529387154
 30
0.0
 10
9.7919604888
 20
-2.1528131459
 30
0.0
 10
9.805109948
 20
-2.1526779366
 30
0.0
 10
9.8165614145
 20
-2.1525242923
 30
0.0
 10
9.8261692159
 20
-2.1523848381
 30
0.0
 10
9.8338016185
 20
-2.1521794049
 30
0.0
 10
9.8394723494
 20
-2.1521209348
 30
0.0
 10
9.8429495404
 20
-2.1517695521
 30
0.0
 10
9.8447059182
 20
-2.151866936
 30
0.0
 10
9.8451346231
 20
-2.1516526
 30
0.0
 11
9.6451537545
 21
-2.1533698902
 31
0.0
 11
9.6657460031
 21
-2.1533606017
 31
0.0
 11
9.6862306588
 21
-2.1533326314
 31
0.0
 11
9.7062571332
 21
-2.153286327
 31
0.0
 11
9.7255397056
 21
-2.1532225088
 31
0.0
 11
9.7440368324
 21
-2.1531413397
 31
0.0
 11
9.7615351617
 21
-2.1530435244
 31
0.0
 11
9.7777454562
 21
-2.1529306313
 31
0.0
 11
9.7924609472
 21
-2.1528043571
 31
0.0
 11
9.8056752244
 21
-2.1526647485
 31
0.0
 11
9.8171913961
 21
-2.1525135437
 31
0.0
 11
9.8268220091
 21
-2.1523532379
 31
0.0
 11
9.8344784583
 21
-2.1521857227
 31
0.0
 11
9.8401400816
 21
-2.1520113755
 31
0.0
 11
9.8437080418
 21
-2.1518326446
 31
0.0
 11
9.8451346231
 21
-2.1516526
 31
0.0
  0
SPLINE
  5
2C2
100
AcDbEntity
  8
RACCORDO
100
AcDbSpline
 62
7
  6
CONTINUOUS
 70
0
 71
3
 72
22
 73
18
 74
16
 42
0.0000001
 43
0.0000001
 44
0.0000000001
 12
0.1788933833
 22
-0.0894398115
 32
0.0
 13
0.200005806
 23
0.0
 33
0.0
 40
0.0
 40
0.0
 40
0.0
 40
0.0
 40
0.007189281
 40
0.0250509322
 40
0.053371646
 40
0.091661942
 40
0.139820279
 40
0.1974044291
 40
0.263477584
 40
0.337055612
 40
0.4181066972
 40
0.5055971707
 40
0.5980810102
 40
0.6944916015
 40
0.7946213343
 40
0.8970417351
 40
1.0
 40
1.0
 40
1.0
 40
1.0
 10
-9.8676779935
 20
-2.1516526
 30
0.0
 10
-9.8672492886
 20
-2.151866936
 30
0.0
 10
-9.8654929108
 20
-2.1517695521
 30
0.0
 10
-9.8620157198
 20
-2.1521209348
 30
0.0
 10
-9.8563449889
 20
-2.1521794049
 30
0.0
 10
-9.8487125862
 20
-2.1523848381
 30
0.0
 10
-9.8391047849
 20
-2.1525242923
 30
0.0
 10
-9.8276533184
 20
-2.1526779366
 30
0.0
 10
-9.8145038591
 20
-2.1528131459
 30
0.0
 10
-9.7997907113
 20
-2.1529387154
 30
0.0
 10
-9.7836492416
 20
-2.153049968
 30
0.0
 10
-9.7662473287
 20
-2.1531465705
 30
0.0
 10
-9.7478212982
 20
-2.1532268745
 30
0.0
 10
-9.728552564
 20
-2.1532902673
 30
0.0
 10
-9.7086213195
 20
-2.1533360876
 30
0.0
 10
-9.6882535178
 20
-2.1533637467
 30
0.0
 10
-9.6745612084
 20
-2.1533698902
 30
0.0
 10
-9.6676971248
 20
-2.1533698902
 30
0.0
 11
-9.8676779935
 21
-2.1516526
 31
0.0
 11
-9.8662514121
 21
-2.1518326446
 31
0.0
 11
-9.862683452
 21
-2.1520113755
 31
0.0
 11
-9.8570218286
 21
-2.1521857227
 31
0.0
 11
-9.8493653794
 21
-2.1523532379
 31
0.0
 11
-9.8397347665
 21
-2.1525135437
 31
0.0
 11
-9.8282185948
 21
-2.1526647485
 31
0.0
 11
-9.8150043176
 21
-2.1528043571
 31
0.0
 11
-9.8002888266
 21
-2.1529306313
 31
0.0
 11
-9.7840785321
 21
-2.1530435244
 31
0.0
 11
-9.7665802028
 21
-2.1531413397
 31
0.0
 11
-9.748083076
 21
-2.1532225088
 31
0.0
 11
-9.7288005036
 21
-2.153286327
 31
0.0
 11
-9.7087740292
 21
-2.1533326314
 31
0.0
 11
-9.6882893735
 21
-2.1533606017
 31
0.0
 11
-9.6676971248
 21
-2.1533698902
 31
0.0
  0
SPLINE
  5
2C3
100
AcDbEntity
  8
RACCORDO
100
AcDbSpline
 62
7
  6
CONTINUOUS
 70
0
 71
3
 72
22
 73
18
 74
16
 42
0.0000001
 43
0.0000001
 44
0.0000000001
 12
-0.199996096
 22
0.0
 32
0.0
 13
-0.1788846808
 23
-0.089435504
 33
0.0
 40
0.0
 40
0.0
 40
0.0
 40
0.0
 40
0.1030244023
 40
0.2055019366
 40
0.3056776769
 40
0.4021216449
 40
0.4946267858
 40
0.5821228241
 40
0.6631644027
 40
0.7367214705
 40
0.8027645996
 40
0.8603121222
 40
0.9084319257
 40
0.9466872733
 40
0.9749788887
 40
0.9928200521
 40
1.0
 40
1.0
 40
1.0
 40
1.0
 10
-9.6648975467
 20
2.1223640852
 30
0.0
 10
-9.6717657061
 20
2.1223640852
 30
0.0
 10
-9.6854655686
 20
2.1223579411
 30
0.0
 10
-9.7058436665
 20
2.1223302803
 30
0.0
 10
-9.7257830444
 20
2.1222844621
 30
0.0
 10
-9.7450575554
 20
2.1222210796
 30
0.0
 10
-9.7634867076
 20
2.1221407991
 30
0.0
 10
-9.7808889331
 20
2.1220442392
 30
0.0
 10
-9.7970279595
 20
2.1219330548
 30
0.0
 10
-9.8117363609
 20
2.1218075826
 30
0.0
 10
-9.8248793419
 20
2.1216725034
 30
0.0
 10
-9.8363232421
 20
2.1215190243
 30
0.0
 10
-9.8459232354
 20
2.1213797604
 30
0.0
 10
-9.8535484434
 20
2.1211745749
 30
0.0
 10
-9.8592132341
 20
2.1211162715
 30
0.0
 10
-9.8626864092
 20
2.1207652984
 30
0.0
 10
-9.8644406237
 20
2.120862669
 30
0.0
 10
-9.8648687512
 20
2.1206486216
 30
0.0
 11
-9.6648975467
 21
2.1223640852
 31
0.0
 11
-9.6855020228
 21
2.1223547952
 31
0.0
 11
-9.7059971105
 21
2.1223268229
 31
0.0
 11
-9.726031814
 21
2.1222805202
 31
0.0
 11
-9.7453201255
 21
2.1222167121
 31
0.0
 11
-9.7638206146
 21
2.1221355651
 31
0.0
 11
-9.7813192075
 21
2.1220377927
 31
0.0
 11
-9.7975268142
 21
2.1219249695
 31
0.0
 11
-9.8122373995
 21
2.1217987944
 31
0.0
 11
-9.825445031
 21
2.1216593186
 31
0.0
 11
-9.8369533198
 21
2.1215082844
 31
0.0
 11
-9.8465757609
 21
2.1213481853
 31
0.0
 11
-9.8542248521
 21
2.1211809037
 31
0.0
 11
-9.859880386
 21
2.1210068168
 31
0.0
 11
-9.863444084
 21
2.1208283685
 31
0.0
 11
-9.8648687512
 21
2.1206486216
 31
0.0
  0
SPLINE
  5
2C4
100
AcDbEntity
  8
RACCORDO
100
AcDbSpline
 62
7
  6
CONTINUOUS
 70
0
 71
3
 72
22
 73
18
 74
16
 42
0.0000001
 43
0.0000001
 44
0.0000000001
 12
-0.1788846808
 22
0.089435504
 32
0.0
 13
-0.199996096
 23
0.0
 33
0.0
 40
0.0
 40
0.0
 40
0.0
 40
0.0
 40
0.0071799479
 40
0.0250211113
 40
0.0533127267
 40
0.0915680743
 40
0.1396878778
 40
0.1972354004
 40
0.2632785295
 40
0.3368355973
 40
0.4178771759
 40
0.5053732142
 40
0.5978783551
 40
0.6943223231
 40
0.7944980634
 40
0.8969755977
 40
1.0
 40
1.0
 40
1.0
 40
1.0
 10
9.8423253809
 20
2.1206486216
 30
0.0
 10
9.8418972533
 20
2.120862669
 30
0.0
 10
9.8401430388
 20
2.1207652984
 30
0.0
 10
9.8366698638
 20
2.1211162715
 30
0.0
 10
9.831005073
 20
2.1211745749
 30
0.0
 10
9.823379865
 20
2.1213797604
 30
0.0
 10
9.8137798717
 20
2.1215190243
 30
0.0
 10
9.8023359715
 20
2.1216725034
 30
0.0
 10
9.7891929905
 20
2.1218075826
 30
0.0
 10
9.7744845891
 20
2.1219330548
 30
0.0
 10
9.7583455627
 20
2.1220442392
 30
0.0
 10
9.7409433372
 20
2.1221407991
 30
0.0
 10
9.722514185
 20
2.1222210796
 30
0.0
 10
9.703239674
 20
2.1222844621
 30
0.0
 10
9.6833002961
 20
2.1223302803
 30
0.0
 10
9.6629221982
 20
2.1223579411
 30
0.0
 10
9.6492223357
 20
2.1223640852
 30
0.0
 10
9.6423541763
 20
2.1223640852
 30
0.0
 11
9.8423253809
 21
2.1206486216
 31
0.0
 11
9.8409007137
 21
2.1208283685
 31
0.0
 11
9.8373370156
 21
2.1210068168
 31
0.0
 11
9.8316814817
 21
2.1211809037
 31
0.0
 11
9.8240323905
 21
2.1213481853
 31
0.0
 11
9.8144099495
 21
2.1215082844
 31
0.0
 11
9.8029016607
 21
2.1216593186
 31
0.0
 11
9.7896940291
 21
2.1217987944
 31
0.0
 11
9.7749834438
 21
2.1219249695
 31
0.0
 11
9.7587758372
 21
2.1220377927
 31
0.0
 11
9.7412772442
 21
2.1221355651
 31
0.0
 11
9.7227767552
 21
2.1222167121
 31
0.0
 11
9.7034884436
 21
2.1222805202
 31
0.0
 11
9.6834537402
 21
2.1223268229
 31
0.0
 11
9.6629586525
 21
2.1223547952
 31
0.0
 11
9.6423541763
 21
2.1223640852
 31
0.0
  0
SPLINE
  5
2C5
100
AcDbEntity
  8
RACCORDO
100
AcDbSpline
 62
253
  6
CONTINUOUS
 70
0
 71
3
 72
13
 73
9
 74
7
 42
0.0000001
 43
0.0000001
 44
0.0000000001
 12
-0.0074136053
 22
-6.9264520011
 32
0.0
 13
-0.0169743506
 23
-6.9264351694
 33
0.0
 40
0.0
 40
0.0
 40
0.0
 40
0.0
 40
0.1671677618
 40
0.3341727519
 40
0.5009870711
 40
0.667582428
 40
0.8339298226
 40
1.0
 40
1.0
 40
1.0
 40
1.0
 10
-9.6676971248
 20
-2.1533698902
 30
0.0
 10
-9.6681102301
 20
-2.5393297163
 30
0.0
 10
-9.6690241346
 20
-3.3108734669
 30
0.0
 10
-9.6706589702
 20
-4.4675606175
 30
0.0
 10
-9.6725569217
 20
-5.622925786
 30
0.0
 10
-9.6747176602
 20
-6.7767722217
 30
0.0
 10
-9.6771408471
 20
-7.928900043
 30
0.0
 10
-9.6789325006
 20
-8.6963898517
 30
0.0
 10
-9.6798721451
 20
-9.0798146241
 30
0.0
 11
-9.6676971248
 21
-2.1533698902
 31
0.0
 11
-9.6690687672
 21
-3.3112492195
 31
0.0
 11
-9.6707038346
 21
-4.4680007738
 31
0.0
 11
-9.6726020555
 21
-5.6234312518
 31
0.0
 11
-9.6747631116
 21
-6.7773446325
 31
0.0
 11
-9.677186629
 21
-7.9295399876
 31
0.0
 11
-9.6798721451
 21
-9.0798146241
 31
0.0
  0
SPLINE
  5
2C6
100
AcDbEntity
  8
RACCORDO
100
AcDbSpline
 62
253
  6
CONTINUOUS
 70
0
 71
3
 72
13
 73
9
 74
7
 42
0.0000001
 43
0.0000001
 44
0.0000000001
 12
-0.0169743506
 22
6.9264351694
 32
0.0
 13
-0.0074136053
 23
6.9264520011
 33
0.0
 40
0.0
 40
0.0
 40
0.0
 40
0.0
 40
0.1660701774
 40
0.332417572
 40
0.4990129289
 40
0.6658272481
 40
0.8328322382
 40
1.0
 40
1.0
 40
1.0
 40
1.0
 10
9.6573287747
 20
-9.0798146241
 30
0.0
 10
9.6563891302
 20
-8.6963898517
 30
0.0
 10
9.6545974767
 20
-7.928900043
 30
0.0
 10
9.6521742899
 20
-6.7767722217
 30
0.0
 10
9.6500135513
 20
-5.622925786
 30
0.0
 10
9.6481155998
 20
-4.4675606175
 30
0.0
 10
9.6464807642
 20
-3.3108734669
 30
0.0
 10
9.6455668597
 20
-2.5393297163
 30
0.0
 10
9.6451537545
 20
-2.1533698902
 30
0.0
 11
9.6573287747
 21
-9.0798146241
 31
0.0
 11
9.6546432587
 21
-7.9295399876
 31
0.0
 11
9.6522197412
 21
-6.7773446325
 31
0.0
 11
9.6500586851
 21
-5.6234312518
 31
0.0
 11
9.6481604642
 21
-4.4680007738
 31
0.0
 11
9.6465253968
 21
-3.3112492195
 31
0.0
 11
9.6451537545
 21
-2.1533698902
 31
0.0
  0
SPLINE
  5
2C7
100
AcDbEntity
  8
RACCORDO
100
AcDbSpline
 62
253
  6
CONTINUOUS
 70
0
 71
3
 72
13
 73
9
 74
7
 42
0.0000001
 43
0.0000001
 44
0.0000000001
 12
-0.016948435
 22
6.9002839653
 32
0.0
 13
-0.0074167117
 23
6.9003007937
 33
0.0
 40
0.0
 40
0.0
 40
0.0
 40
0.0
 40
0.1660695994
 40
0.3324174511
 40
0.4990132317
 40
0.6658276033
 40
0.8328324503
 40
1.0
 40
1.0
 40
1.0
 40
1.0
 10
9.8572983492
 20
-9.0519461256
 30
0.0
 10
9.8563601426
 20
-8.6699703276
 30
0.0
 10
9.854571037
 20
-7.9053785039
 30
0.0
 10
9.8521509605
 20
-6.7575999163
 30
0.0
 10
9.8499925004
 20
-5.6081077516
 30
0.0
 10
9.8480960349
 20
-4.4571039667
 30
0.0
 10
9.8464618835
 20
-3.3047846518
 30
0.0
 10
9.845547901
 20
-2.5361547252
 30
0.0
 10
9.8451346231
 20
-2.1516526
 30
0.0
 11
9.8572983492
 21
-9.0519461256
 31
0.0
 11
9.8546167038
 21
-7.9060184129
 31
0.0
 11
9.8521962716
 21
-6.7581700887
 31
0.0
 11
9.8500374989
 21
-5.6086104546
 31
0.0
 11
9.848140764
 21
-4.4575420117
 31
0.0
 11
9.8465063821
 21
-3.3051588262
 31
0.0
 11
9.8451346231
 21
-2.1516526
 31
0.0
  0
SPLINE
  5
2C8
100
AcDbEntity
  8
RACCORDO
100
AcDbSpline
 62
253
  6
CONTINUOUS
 70
0
 71
3
 72
10
 73
6
 74
4
 42
0.0000001
 43
0.0000001
 44
0.0000000001
 12
-0.0004073777
 22
-7.3881034438
 32
0.0
 13
-0.0023186371
 23
-7.3881030912
 33
0.0
 40
0.0
 40
0.0
 40
0.0
 40
0.0
 40
0.3333506422
 40
0.6666849646
 40
1.0
 40
1.0
 40
1.0
 40
1.0
 10
-9.8635058188
 20
9.5087519327
 30
0.0
 10
-9.8635510853
 20
8.6878089233
 30
0.0
 10
-9.8637123957
 20
7.0459630987
 30
0.0
 10
-9.8641667014
 20
4.5832619862
 30
0.0
 10
-9.864611139
 20
2.9415039028
 30
0.0
 10
-9.8648687512
 20
2.1206486216
 30
0.0
 11
-9.8635058188
 21
9.5087519327
 31
0.0
 11
-9.8637477935
 21
7.0459229128
 31
0.0
 11
-9.8642021059
 21
4.5832144961
 31
0.0
 11
-9.8648687512
 21
2.1206486216
 31
0.0
  0
SPLINE
  5
2C9
100
AcDbEntity
  8
RACCORDO
100
AcDbSpline
 62
253
  6
CONTINUOUS
 70
0
 71
3
 72
21
 73
17
 74
15
 42
0.0000001
 43
0.0000001
 44
0.0000000001
 12
0.0246220351
 22
-0.2035798641
 32
0.0
 13
0.2050601953
 23
-0.0011497694
 33
0.0
 40
0.0
 40
0.0
 40
0.0
 40
0.0
 40
0.0169800872
 40
0.0417087164
 40
0.0763097115
 40
0.1212181087
 40
0.1762627425
 40
0.2409695841
 40
0.314666257
 40
0.3965292744
 40
0.4856119599
 40
0.5808651783
 40
0.6811553194
 40
0.7852813141
 40
0.8919914123
 40
1.0
 40
1.0
 40
1.0
 40
1.0
 10
-9.8798417206
 20
-9.0519461323
 30
0.0
 10
-9.8797023591
 20
-9.0530984002
 30
0.0
 10
-9.8780416908
 20
-9.0556786141
 30
0.0
 10
-9.8736663206
 20
-9.0585548733
 30
0.0
 10
-9.8671248834
 20
-9.0614478325
 30
0.0
 10
-9.8583430584
 20
-9.0642109818
 30
0.0
 10
-9.8473992528
 20
-9.0668664691
 30
0.0
 10
-9.8344077745
 20
-9.069350673
 30
0.0
 10
-9.819523402
 20
-9.0716361272
 30
0.0
 10
-9.802925464
 20
-9.0736886358
 30
0.0
 10
-9.7848166078
 20
-9.0754817784
 30
0.0
 10
-9.7654185557
 20
-9.0769914796
 30
0.0
 10
-9.7449693448
 20
-9.0781996993
 30
0.0
 10
-9.7237200737
 20
-9.0790854414
 30
0.0
 10
-9.7019319953
 20
-9.0796588267
 30
0.0
 10
-9.6872549356
 20
-9.0797732292
 30
0.0
 10
-9.6798721815
 20
-9.0798146241
 30
0.0
 11
-9.8798417206
 21
-9.0519461323
 31
0.0
 11
-9.8782290858
 21
-9.0550321809
 31
0.0
 11
-9.8741765316
 21
-9.0580803295
 31
0.0
 11
-9.8677339072
 21
-9.0610530838
 31
0.0
 11
-9.8589804609
 21
-9.063913877
 31
0.0
 11
-9.8480238657
 21
-9.0666275195
 31
0.0
 11
-9.8349988947
 21
-9.0691606316
 31
0.0
 11
-9.8200657638
 21
-9.0714820545
 31
0.0
 11
-9.80340816
 21
-9.073563233
 31
0.0
 11
-9.7852309827
 21
-9.0753785674
 31
0.0
 11
-9.7657578232
 21
-9.0769057279
 31
0.0
 11
-9.7452282141
 21
-9.0781259292
 31
0.0
 11
-9.723894683
 21
-9.0790241622
 31
0.0
 11
-9.7020196464
 21
-9.0795893781
 31
0.0
 11
-9.6798721815
 21
-9.0798146241
 31
0.0
  0
SPLINE
  5
2CA
100
AcDbEntity
  8
RACCORDO
100
AcDbSpline
 62
253
  6
CONTINUOUS
 70
0
 71
3
 72
22
 73
18
 74
16
 42
0.0000001
 43
0.0000001
 44
0.0000000001
 12
-0.3126114734
 22
0.000660042
 32
0.0
 13
-0.0006697887
 23
0.3126114526
 33
0.0
 40
0.0
 40
0.0
 40
0.0
 40
0.0
 40
0.0668714948
 40
0.1337467486
 40
0.2006147285
 40
0.2674647152
 40
0.3342867654
 40
0.4010721419
 40
0.4678136932
 40
0.5345061659
 40
0.6011464367
 40
0.6677336529
 40
0.7342692752
 40
0.800757019
 40
0.8672026966
 40
0.9336139666
 40
1.0
 40
1.0
 40
1.0
 40
1.0
 10
-9.6798721815
 20
-9.2504553626
 30
0.0
 10
-9.6868404471
 20
-9.25044065
 30
0.0
 10
-9.7007866553
 20
-9.2496867749
 30
0.0
 10
-9.7214670457
 20
-9.2463958016
 30
0.0
 10
-9.7416953966
 20
-9.24098049
 30
0.0
 10
-9.7612478267
 20
-9.2334999637
 30
0.0
 10
-9.7799115624
 20
-9.2240358769
 30
0.0
 10
-9.7974825095
 20
-9.2126915394
 30
0.0
 10
-9.8137687499
 20
-9.1995907949
 30
0.0
 10
-9.8285922961
 20
-9.1848766802
 30
0.0
 10
-9.8417911287
 20
-9.1687098662
 30
0.0
 10
-9.8532209474
 20
-9.1512669376
 30
0.0
 10
-9.8627567618
 20
-9.1327383774
 30
0.0
 10
-9.8702942645
 20
-9.1133268402
 30
0.0
 10
-9.875750985
 20
-9.0932436376
 30
0.0
 10
-9.8790671923
 20
-9.0727112835
 30
0.0
 10
-9.879826899
 20
-9.0588638104
 30
0.0
 10
-9.8798417206
 20
-9.0519461323
 30
0.0
 11
-9.6798721815
 21
-9.2504553626
 31
0.0
 11
-9.7007465379
 21
-9.2493267748
 31
0.0
 11
-9.7213928089
 21
-9.2460414904
 31
0.0
 11
-9.7415854011
 21
-9.2406354063
 31
0.0
 11
-9.7611036786
 21
-9.2331675926
 31
0.0
 11
-9.779734373
 21
-9.223719647
 31
0.0
 11
-9.7972739147
 21
-9.2123948033
 31
0.0
 11
-9.8135306561
 21
-9.1993168033
 31
0.0
 11
-9.8283269668
 21
-9.1846285451
 31
0.0
 11
-9.8415011734
 21
-9.168490521
 31
0.0
 11
-9.8529093269
 21
-9.1510790646
 31
0.0
 11
-9.8624267752
 21
-9.1325844237
 31
0.0
 11
-9.8699495249
 21
-9.1132086815
 31
0.0
 11
-9.8753953782
 21
-9.0931635488
 31
0.0
 11
-9.8787048304
 21
-9.0726680505
 31
0.0
 11
-9.8798417206
 21
-9.0519461323
 31
0.0
  0
SPLINE
  5
2CB
100
AcDbEntity
  8
RACCORDO
100
AcDbSpline
 62
253
  6
CONTINUOUS
 70
0
 71
3
 72
22
 73
18
 74
16
 42
0.0000001
 43
0.0000001
 44
0.0000000001
 12
-0.0006697887
 22
-0.3126114528
 32
0.0
 13
-0.3126114736
 23
-0.000660042
 33
0.0
 40
0.0
 40
0.0
 40
0.0
 40
0.0
 40
0.0663387208
 40
0.1327471601
 40
0.1991945687
 40
0.2656848034
 40
0.3322245465
 40
0.3988155282
 40
0.465459954
 40
0.5321565437
 40
0.5989023093
 40
0.6656919262
 40
0.7325182476
 40
0.7993725233
 40
0.8662447827
 40
0.9331242741
 40
1.0
 40
1.0
 40
1.0
 40
1.0
 10
9.8572983502
 20
-9.0519461323
 30
0.0
 10
9.8572835392
 20
-9.0588588803
 30
0.0
 10
9.8565246423
 20
-9.0727011058
 30
0.0
 10
9.8532108283
 20
-9.0932287307
 30
0.0
 10
9.8477556364
 20
-9.1133124998
 30
0.0
 10
9.8402192648
 20
-9.1327254139
 30
0.0
 10
9.8306842342
 20
-9.1512556014
 30
0.0
 10
9.8192548198
 20
-9.168700303
 30
0.0
 10
9.8060561019
 20
-9.1848688392
 30
0.0
 10
9.7912323605
 20
-9.1995846143
 30
0.0
 10
9.7749456599
 20
-9.2126868882
 30
0.0
 10
9.7573740071
 20
-9.2240325908
 30
0.0
 10
9.7387093577
 20
-9.2334978414
 30
0.0
 10
9.7191558445
 20
-9.2409793011
 30
0.0
 10
9.6989262867
 20
-9.246395293
 30
0.0
 10
9.6782446102
 20
-9.2496866803
 30
0.0
 10
9.6642975176
 20
-9.250440649
 30
0.0
 10
9.6573288112
 20
-9.2504553626
 30
0.0
 11
9.8572983502
 21
-9.0519461323
 31
0.0
 11
9.856163048
 21
-9.0726533249
 31
0.0
 11
9.8528553208
 21
-9.0931482053
 31
0.0
 11
9.84741089
 21
-9.1131942851
 31
0.0
 11
9.8398893031
 21
-9.132571314
 31
0.0
 11
9.8303725449
 21
-9.1510677588
 31
0.0
 11
9.81896484
 21
-9.1684809164
 31
0.0
 11
9.805790723
 21
-9.1846206904
 31
0.0
 11
9.7909942311
 21
-9.1993105929
 31
0.0
 11
9.7747370283
 21
-9.2123901212
 31
0.0
 11
9.7571967869
 21
-9.2237163249
 31
0.0
 11
9.7385651836
 21
-9.2331654307
 31
0.0
 11
9.7190458269
 21
-9.2406341756
 31
0.0
 11
9.6988520315
 21
-9.2460409385
 31
0.0
 11
9.6782044846
 21
-9.2493266348
 31
0.0
 11
9.6573288112
 21
-9.2504553626
 31
0.0
  0
SPLINE
  5
2CC
100
AcDbEntity
  8
RACCORDO
100
AcDbSpline
 62
253
  6
CONTINUOUS
 70
0
 71
3
 72
21
 73
17
 74
15
 42
0.0000001
 43
0.0000001
 44
0.0000000001
 12
0.2050628123
 22
0.0004986867
 32
0.0
 13
0.0252403588
 23
0.2035041276
 33
0.0
 40
0.0
 40
0.0
 40
0.0
 40
0.0
 40
0.1080085877
 40
0.2147186859
 40
0.3188446806
 40
0.4191348217
 40
0.5143880401
 40
0.6034707256
 40
0.685333743
 40
0.7590304159
 40
0.8237372575
 40
0.8787818913
 40
0.9236902885
 40
0.9582912836
 40
0.9830199128
 40
1.0
 40
1.0
 40
1.0
 40
1.0
 10
9.6573288112
 20
-9.0798146241
 30
0.0
 10
9.6647116594
 20
-9.07979667
 30
0.0
 10
9.6793885817
 20
-9.0796480725
 30
0.0
 10
9.7011767146
 20
-9.0790882349
 30
0.0
 10
9.7224259716
 20
-9.0781989875
 30
0.0
 10
9.7428751859
 20
-9.0769916573
 30
0.0
 10
9.7622732378
 20
-9.0754817351
 30
0.0
 10
9.780382092
 20
-9.0736886459
 30
0.0
 10
9.7969800372
 20
-9.0716361256
 30
0.0
 10
9.8118643863
 20
-9.0693506714
 30
0.0
 10
9.8248559367
 20
-9.0668664756
 30
0.0
 10
9.8357995311
 20
-9.0642109626
 30
0.0
 10
9.8445819376
 20
-9.0614478845
 30
0.0
 10
9.8511218975
 20
-9.0585547444
 30
0.0
 10
9.8555006965
 20
-9.0556789051
 30
0.0
 10
9.857155489
 20
-9.0530979716
 30
0.0
 10
9.8572983502
 20
-9.0519461323
 30
0.0
 11
9.6573288112
 21
-9.0798146241
 31
0.0
 11
9.679476276
 21
-9.0795893781
 31
0.0
 11
9.7013513127
 21
-9.0790241622
 31
0.0
 11
9.7226848438
 21
-9.0781259292
 31
0.0
 11
9.7432144529
 21
-9.0769057279
 31
0.0
 11
9.7626876124
 21
-9.0753785674
 31
0.0
 11
9.7808647896
 21
-9.073563233
 31
0.0
 11
9.7975223934
 21
-9.0714820545
 31
0.0
 11
9.8124555244
 21
-9.0691606316
 31
0.0
 11
9.8254804953
 21
-9.0666275195
 31
0.0
 11
9.8364370905
 21
-9.063913877
 31
0.0
 11
9.8451905369
 21
-9.0610530838
 31
0.0
 11
9.8516331613
 21
-9.0580803295
 31
0.0
 11
9.8556857154
 21
-9.0550321809
 31
0.0
 11
9.8572983502
 21
-9.0519461323
 31
0.0
  0
SPLINE
  5
2CD
100
AcDbEntity
  8
RACCORDO
100
AcDbSpline
 62
253
  6
CONTINUOUS
 70
0
 71
3
 72
13
 73
9
 74
7
 42
0.0000001
 43
0.0000001
 44
0.0000000001
 12
-0.0074167117
 22
-6.9003007937
 32
0.0
 13
-0.016948435
 23
-6.9002839653
 33
0.0
 40
0.0
 40
0.0
 40
0.0
 40
0.0
 40
0.1671675497
 40
0.3341723967
 40
0.5009867683
 40
0.6675825489
 40
0.8339304006
 40
1.0
 40
1.0
 40
1.0
 40
1.0
 10
-9.8676779935
 20
-2.1516526
 30
0.0
 10
-9.8680912714
 20
-2.5361547252
 30
0.0
 10
-9.8690052539
 20
-3.3047846518
 30
0.0
 10
-9.8706394053
 20
-4.4571039667
 30
0.0
 10
-9.8725358708
 20
-5.6081077516
 30
0.0
 10
-9.8746943309
 20
-6.7575999163
 30
0.0
 10
-9.8771144074
 20
-7.9053785039
 30
0.0
 10
-9.878903513
 20
-8.6699703276
 30
0.0
 10
-9.8798417196
 20
-9.0519461256
 30
0.0
 11
-9.8676779935
 21
-2.1516526
 31
0.0
 11
-9.8690497525
 21
-3.3051588262
 31
0.0
 11
-9.8706841344
 21
-4.4575420117
 31
0.0
 11
-9.8725808693
 21
-5.6086104546
 31
0.0
 11
-9.8747396419
 21
-6.7581700887
 31
0.0
 11
-9.8771600741
 21
-7.9060184129
 31
0.0
 11
-9.8798417196
 21
-9.0519461256
 31
0.0
  0
SPLINE
  5
2CE
100
AcDbEntity
  8
RACCORDO
100
AcDbSpline
 62
7
  6
CONTINUOUS
 70
0
 71
3
 72
24
 73
20
 74
18
 42
0.0000001
 43
0.0000001
 44
0.0000000001
 12
-0.0004825204
 22
-0.3134742124
 32
0.0
 13
-0.3134745838
 23
0.0
 33
0.0
 40
0.0
 40
0.0
 40
0.0
 40
0.0
 40
0.058622599
 40
0.1172738833
 40
0.1759546759
 40
0.2346652799
 40
0.2934054115
 40
0.3521741383
 40
0.4109698538
 40
0.4697902575
 40
0.5286323715
 40
0.5874925819
 40
0.646366701
 40
0.7052500505
 40
0.7641375622
 40
0.8230239035
 40
0.8819035976
 40
0.9407711601
 40
1.0
 40
1.0
 40
1.0
 40
1.0
 10
9.9162827391
 20
-9.4668613626
 30
0.0
 10
9.9162733102
 20
-9.4729869203
 30
0.0
 10
9.9156870171
 20
-9.4852477112
 30
0.0
 10
9.9131126493
 20
-9.5034775634
 30
0.0
 10
9.9088636979
 20
-9.521402386
 30
0.0
 10
9.9029752221
 20
-9.5388667821
 30
0.0
 10
9.8954964891
 20
-9.5557217629
 30
0.0
 10
9.8864905705
 20
-9.5718227515
 30
0.0
 10
9.8760338069
 20
-9.5870317545
 30
0.0
 10
9.8642151519
 20
-9.60121835
 30
0.0
 10
9.8511353997
 20
-9.6142609128
 30
0.0
 10
9.8369063042
 20
-9.6260476772
 30
0.0
 10
9.8216495898
 20
-9.6364777475
 30
0.0
 10
9.8054958928
 20
-9.6454619483
 30
0.0
 10
9.7885835358
 20
-9.6529237766
 30
0.0
 10
9.7710575432
 20
-9.6587994585
 30
0.0
 10
9.7530674355
 20
-9.6630407927
 30
0.0
 10
9.7347300685
 20
-9.6656125119
 30
0.0
 10
9.7223828825
 20
-9.6662042463
 30
0.0
 10
9.7161939705
 20
-9.6662042463
 30
0.0
 11
9.9162827391
 21
-9.4668613626
 31
0.0
 11
9.9154049175
 21
-9.4852170795
 31
0.0
 11
9.9128344092
 21
-9.5034221879
 31
0.0
 11
9.9085917281
 21
-9.5213211646
 31
0.0
 11
9.9027118544
 21
-9.538760909
 31
0.0
 11
9.8952439567
 21
-9.5555920972
 31
0.0
 11
9.8862509879
 21
-9.5716705019
 31
0.0
 11
9.8758091523
 21
-9.5868582749
 31
0.0
 11
9.8640072547
 21
-9.6010251704
 31
0.0
 11
9.8509459302
 21
-9.6140497064
 31
0.0
 11
9.836736765
 21
-9.6258202486
 31
0.0
 11
9.8215013139
 21
-9.6362360053
 31
0.0
 11
9.805370026
 21
-9.6452079235
 31
0.0
 11
9.7884810866
 21
-9.6526594779
 31
0.0
 11
9.7709791858
 21
-9.6585273444
 31
0.0
 11
9.753014231
 21
-9.6627619479
 31
0.0
 11
9.7347400125
 21
-9.6653278848
 31
0.0
 11
9.7161939705
 21
-9.6662042463
 31
0.0
  0
SPLINE
  5
2CF
100
AcDbEntity
  8
RACCORDO
100
AcDbSpline
 62
7
  6
CONTINUOUS
 70
0
 71
3
 72
24
 73
20
 74
18
 42
0.0000001
 43
0.0000001
 44
0.0000000001
 12
0.0004821549
 22
-0.3132367396
 32
0.0
 13
0.3132371107
 23
-0.0
 33
0.0
 40
0.0
 40
0.0
 40
0.0
 40
0.0
 40
0.0587481465
 40
0.1174946193
 40
0.1762442833
 40
0.2350014787
 40
0.2937699578
 40
0.3525528276
 40
0.4113525255
 40
0.4701708025
 40
0.5290087404
 40
0.5878667924
 40
0.6467448443
 40
0.705642295
 40
0.7645581543
 40
0.8234911648
 40
0.8824399185
 40
0.9414029908
 40
1.0
 40
1.0
 40
1.0
 40
1.0
 10
-9.9388261094
 20
-9.4668613626
 30
0.0
 10
-9.9388166675
 20
-9.4729953886
 30
0.0
 10
-9.9382289279
 20
-9.4852699731
 30
0.0
 10
-9.9356492062
 20
-9.5035156052
 30
0.0
 10
-9.9313943187
 20
-9.5214473381
 30
0.0
 10
-9.925501175
 20
-9.5389112956
 30
0.0
 10
-9.9180203549
 20
-9.5557602416
 30
0.0
 10
-9.9090156911
 20
-9.5718514545
 30
0.0
 10
-9.8985637413
 20
-9.587048785
 30
0.0
 10
-9.8867531603
 20
-9.6012235306
 30
0.0
 10
-9.8736839743
 20
-9.6142555584
 30
0.0
 10
-9.859466765
 20
-9.6260342694
 30
0.0
 10
-9.844221761
 20
-9.6364595446
 30
0.0
 10
-9.828077872
 20
-9.64544247
 30
0.0
 10
-9.8111715731
 20
-9.6529064673
 30
0.0
 10
-9.7936460137
 20
-9.6587864805
 30
0.0
 10
-9.7756490013
 20
-9.663034954
 30
0.0
 10
-9.7573741847
 20
-9.6655964659
 30
0.0
 10
-9.7450933353
 20
-9.6662042463
 30
0.0
 10
-9.7389750826
 20
-9.6662042463
 30
0.0
 11
-9.9388261094
 21
-9.4668613626
 31
0.0
 11
-9.9379458985
 21
-9.4852423991
 31
0.0
 11
-9.9353701103
 21
-9.5034628078
 31
0.0
 11
-9.9311216046
 21
-9.5213682529
 31
0.0
 11
-9.9252372053
 21
-9.538807159
 31
0.0
 11
-9.9177673887
 21
-9.5556319489
 31
0.0
 11
-9.9087758656
 21
-9.5717002471
 31
0.0
 11
-9.8983390558
 21
-9.586876045
 31
0.0
 11
-9.886545465
 21
-9.6010308134
 31
0.0
 11
-9.8734949615
 21
-9.6140445591
 31
0.0
 11
-9.8592979611
 21
-9.6258068155
 31
0.0
 11
-9.8440745254
 21
-9.636217557
 31
0.0
 11
-9.8279533808
 21
-9.6451880308
 31
0.0
 11
-9.8110708653
 21
-9.6526414978
 31
0.0
 11
-9.7935698093
 21
-9.6585138787
 31
0.0
 11
-9.7755983657
 21
-9.6627542942
 31
0.0
 11
-9.7573087932
 21
-9.6653255002
 31
0.0
 11
-9.7389750826
 21
-9.6662042463
 31
0.0
  0
SPLINE
  5
2D0
100
AcDbEntity
  8
RACCORDO
100
AcDbSpline
 62
253
  6
CONTINUOUS
 70
0
 71
3
 72
21
 73
17
 74
15
 42
0.0000001
 43
0.0000001
 44
0.0000000001
 12
-0.1989707445
 22
-0.0199941845
 32
0.0
 13
-0.1999718702
 23
0.0006129561
 33
0.0
 40
0.0
 40
0.0
 40
0.0
 40
0.0
 40
0.0080891516
 40
0.0283720379
 40
0.060602711
 40
0.104385444
 40
0.1591820372
 40
0.2243187222
 40
0.2989945199
 40
0.3822911155
 40
0.4731841635
 40
0.5705558896
 40
0.6732088403
 40
0.7798806108
 40
0.8892593713
 40
1.0
 40
1.0
 40
1.0
 40
1.0
 10
9.8409624482
 20
9.5087519325
 30
0.0
 10
9.8404259467
 20
9.5086980205
 30
0.0
 10
9.8385320613
 20
9.5086712754
 30
0.0
 10
9.8344956625
 20
9.5085905668
 30
0.0
 10
9.8280755777
 20
9.5085386185
 30
0.0
 10
9.8193569498
 20
9.5084716091
 30
0.0
 10
9.8084439549
 20
9.508413515
 30
0.0
 10
9.7954719833
 20
9.5083566613
 30
0.0
 10
9.7806001281
 20
9.5083051304
 30
0.0
 10
9.764011427
 20
9.5082585696
 30
0.0
 10
9.7459098391
 20
9.5082180422
 30
0.0
 10
9.7265179908
 20
9.5081836454
 30
0.0
 10
9.7060743594
 20
9.508157212
 30
0.0
 10
9.6848303531
 20
9.5081336919
 30
0.0
 10
9.6630472608
 20
9.5081343735
 30
0.0
 10
9.6483745794
 20
9.5080975196
 30
0.0
 10
9.6409929092
 20
9.508120146
 30
0.0
 11
9.8409624482
 21
9.5087519325
 31
0.0
 11
9.8393463557
 21
9.5086818725
 31
0.0
 11
9.8352909201
 21
9.5086126854
 31
0.0
 11
9.8288460149
 21
9.5085452221
 31
0.0
 11
9.8200908994
 21
9.5084803122
 31
0.0
 11
9.8091332436
 21
9.508418754
 31
0.0
 11
9.7961078044
 21
9.5083613045
 31
0.0
 11
9.7811747681
 21
9.5083086703
 31
0.0
 11
9.7645177806
 21
9.5082614986
 31
0.0
 11
9.746341689
 21
9.5082203695
 31
0.0
 11
9.726870022
 21
9.5081857889
 31
0.0
 11
9.7063422416
 21
9.508158182
 31
0.0
 11
9.6850107976
 21
9.5081378883
 31
0.0
 11
9.6631380233
 21
9.5081251575
 31
0.0
 11
9.6409929092
 21
9.508120146
 31
0.0
  0
SPLINE
  5
2D1
100
AcDbEntity
  8
RACCORDO
100
AcDbSpline
 62
253
  6
CONTINUOUS
 70
0
 71
3
 72
21
 73
17
 74
15
 42
0.0000001
 43
0.0000001
 44
0.0000000001
 12
-0.1999728094
 22
0.00001015
 32
0.0
 13
-0.1967657628
 23
0.0356701441
 33
0.0
 40
0.0
 40
0.0
 40
0.0
 40
0.0
 40
0.1107406287
 40
0.2201193892
 40
0.3267911597
 40
0.4294441104
 40
0.5268158365
 40
0.6177088845
 40
0.7010054801
 40
0.7756812778
 40
0.8408179628
 40
0.895614556
 40
0.939397289
 40
0.9716279621
 40
0.9919108484
 40
1.0
 40
1.0
 40
1.0
 40
1.0
 10
-9.6635362796
 20
9.508120146
 30
0.0
 10
-9.6709179844
 20
9.5081205206
 30
0.0
 10
-9.6855906153
 20
9.508123824
 30
0.0
 10
-9.7073737276
 20
9.50813643
 30
0.0
 10
-9.7286177286
 20
9.5081565165
 30
0.0
 10
-9.7490613621
 20
9.508183814
 30
0.0
 10
-9.768453207
 20
9.5082180172
 30
0.0
 10
-9.7865548055
 20
9.5082585218
 30
0.0
 10
-9.8031434721
 20
9.5083053156
 30
0.0
 10
-9.8180154364
 20
9.5083560733
 30
0.0
 10
-9.8309870767
 20
9.5084152827
 30
0.0
 10
-9.841901025
 20
9.5084665988
 30
0.0
 10
-9.8506171125
 20
9.5085516682
 30
0.0
 10
-9.857043193
 20
9.508560991
 30
0.0
 10
-9.8610683414
 20
9.5087216829
 30
0.0
 10
-9.8629752626
 20
9.5086557521
 30
0.0
 10
-9.8635058186
 20
9.5087519325
 30
0.0
 11
-9.6635362796
 21
9.508120146
 31
0.0
 11
-9.6856813937
 21
9.5081251575
 31
0.0
 11
-9.707554168
 21
9.5081378883
 31
0.0
 11
-9.728885612
 21
9.508158182
 31
0.0
 11
-9.7494133924
 21
9.5081857889
 31
0.0
 11
-9.7688850593
 21
9.5082203695
 31
0.0
 11
-9.787061151
 21
9.5082614986
 31
0.0
 11
-9.8037181385
 21
9.5083086703
 31
0.0
 11
-9.8186511748
 21
9.5083613045
 31
0.0
 11
-9.831676614
 21
9.508418754
 31
0.0
 11
-9.8426342698
 21
9.5084803122
 31
0.0
 11
-9.8513893853
 21
9.5085452221
 31
0.0
 11
-9.8578342905
 21
9.5086126854
 31
0.0
 11
-9.8618897261
 21
9.5086818725
 31
0.0
 11
-9.8635058186
 21
9.5087519325
 31
0.0
  0
SPLINE
  5
2D2
100
AcDbEntity
  8
RACCORDO
100
AcDbSpline
 62
253
  6
CONTINUOUS
 70
0
 71
3
 72
10
 73
6
 74
4
 42
0.0000001
 43
0.0000001
 44
0.0000000001
 12
-0.0023155984
 22
7.3857558415
 32
0.0
 13
-0.0004070849
 23
7.3857561932
 33
0.0
 40
0.0
 40
0.0
 40
0.0
 40
0.0
 40
0.3333153793
 40
0.6666494225
 40
1.0
 40
1.0
 40
1.0
 40
1.0
 10
9.6423541763
 20
2.1223640852
 30
0.0
 10
9.6420969015
 20
2.9429594217
 30
0.0
 10
9.6416530373
 20
4.5841960669
 30
0.0
 10
9.6411992868
 20
7.0461147627
 30
0.0
 10
9.6410381436
 20
8.6874381152
 30
0.0
 10
9.6409929096
 20
9.508120146
 30
0.0
 11
9.6423541763
 21
2.1223640852
 31
0.0
 11
9.6416883907
 21
4.5841501256
 31
0.0
 11
9.6412346339
 21
7.0460740619
 31
0.0
 11
9.6409929096
 21
9.508120146
 31
0.0
  0
SPLINE
  5
2D3
100
AcDbEntity
  8
RACCORDO
100
AcDbSpline
 62
253
  6
CONTINUOUS
 70
0
 71
3
 72
10
 73
6
 74
4
 42
0.0000001
 43
0.0000001
 44
0.0000000001
 12
-0.0004070849
 22
-7.3857561932
 32
0.0
 13
-0.0023155984
 23
-7.3857558415
 33
0.0
 40
0.0
 40
0.0
 40
0.0
 40
0.0
 40
0.3333505775
 40
0.6666846207
 40
1.0
 40
1.0
 40
1.0
 40
1.0
 10
-9.6635362799
 20
9.508120146
 30
0.0
 10
-9.6635815139
 20
8.6874381152
 30
0.0
 10
-9.6637426572
 20
7.0461147627
 30
0.0
 10
-9.6641964077
 20
4.5841960669
 30
0.0
 10
-9.6646402718
 20
2.9429594217
 30
0.0
 10
-9.6648975467
 20
2.1223640852
 30
0.0
 11
-9.6635362799
 21
9.508120146
 31
0.0
 11
-9.6637780042
 21
7.0460740619
 31
0.0
 11
-9.664231761
 21
4.5841501256
 31
0.0
 11
-9.6648975467
 21
2.1223640852
 31
0.0
  0
SPLINE
  5
2D4
100
AcDbEntity
  8
RACCORDO
100
AcDbSpline
 62
253
  6
CONTINUOUS
 70
0
 71
3
 72
10
 73
6
 74
4
 42
0.0000001
 43
0.0000001
 44
0.0000000001
 12
-0.0023186371
 22
7.3881030912
 32
0.0
 13
-0.0004073777
 23
7.3881034438
 33
0.0
 40
0.0
 40
0.0
 40
0.0
 40
0.0
 40
0.3333150354
 40
0.6666493578
 40
1.0
 40
1.0
 40
1.0
 40
1.0
 10
9.8423253809
 20
2.1206486216
 30
0.0
 10
9.8420677687
 20
2.9415039028
 30
0.0
 10
9.841623331
 20
4.5832619862
 30
0.0
 10
9.8411690253
 20
7.0459630987
 30
0.0
 10
9.8410077149
 20
8.6878089233
 30
0.0
 10
9.8409624484
 20
9.5087519327
 30
0.0
 11
9.8423253809
 21
2.1206486216
 31
0.0
 11
9.8416587356
 21
4.5832144961
 31
0.0
 11
9.8412044231
 21
7.0459229128
 31
0.0
 11
9.8409624484
 21
9.5087519327
 31
0.0
  0
ELLIPSE
  5
2D5
100
AcDbEntity
  8
RACCORDO
100
AcDbEllipse
 62
7
  6
CONTINUOUS
 10
-10.6111955212
 20
-10.6655180733
 30
0.0
 11
-0.1582391023
 21
-0.4751033573
 31
0.0
 40
0.9984778551
 41
-1.2488325878
 42
0.3210503505
  0
ELLIPSE
  5
2D6
100
AcDbEntity
  8
RACCORDO
100
AcDbEllipse
 62
7
  6
CONTINUOUS
 10
10.5886521508
 20
-10.6655180733
 30
0.0
 11
-0.1582391023
 21
0.4751033573
 31
0.0
 40
0.9984778551
 41
2.8205423031
 42
4.3904252414
  0
ELLIPSE
  5
2D7
100
AcDbEntity
  8
RACCORDO
100
AcDbEllipse
 62
7
  6
CONTINUOUS
 10
-3.976741739
 20
-11.0456663539
 30
0.0
 11
0.2
 21
-0.0
 31
0.0
 40
0.0524077793
 41
0.5235987756
 42
1.5707963268
  0
ELLIPSE
  5
2D8
100
AcDbEntity
  8
RACCORDO
100
AcDbEllipse
 62
7
  6
CONTINUOUS
 10
-7.2458016313
 20
-11.0456663539
 30
0.0
 11
0.2
 21
0.0
 31
0.0
 40
0.0524077793
 41
1.5707963268
 42
2.617993878
  0
ELLIPSE
  5
2D9
100
AcDbEntity
  8
RACCORDO
100
AcDbEllipse
 62
7
  6
CONTINUOUS
 10
3.9541983687
 20
-11.0456663539
 30
0.0
 11
0.2
 21
-0.0
 31
0.0
 40
0.0524077793
 41
1.5707963268
 42
2.617993878
  0
ELLIPSE
  5
2DA
100
AcDbEntity
  8
RACCORDO
100
AcDbEllipse
 62
7
  6
CONTINUOUS
 10
7.223258261
 20
-11.0456663539
 30
0.0
 11
0.2
 21
0.0
 31
0.0
 40
0.0524077793
 41
0.5235987756
 42
1.5707963268
  0
ELLIPSE
  5
2DB
100
AcDbEntity
  8
RACCORDO
100
AcDbEllipse
 62
7
  6
CONTINUOUS
 10
10.7985435835
 20
10.7250593663
 30
0.0
 11
-0.2236527791
 21
-0.1118178731
 31
0.0
 40
0.9998096356
 41
2.6780516535
 42
4.2486956813
  0
ELLIPSE
  5
2DC
100
AcDbEntity
  8
RACCORDO
100
AcDbEllipse
 62
7
  6
CONTINUOUS
 10
-10.8210869538
 20
10.7250593663
 30
0.0
 11
-0.2236527791
 21
0.1118178731
 31
0.0
 40
0.9998096356
 41
-1.1071030277
 42
0.4635410001
  0
ELLIPSE
  5
2DD
100
AcDbEntity
  8
RACCORDO
100
AcDbEllipse
 62
7
  6
CONTINUOUS
 10
-3.976741739
 20
-9.5434196854
 30
0.0
 11
0.2
 21
0.0
 31
0.0
 40
0.1227845609
 41
0.5235987756
 42
1.5707963268
  0
ELLIPSE
  5
2DE
100
AcDbEntity
  8
RACCORDO
100
AcDbEllipse
 62
7
  6
CONTINUOUS
 10
-7.2458016313
 20
-9.5434196854
 30
0.0
 11
0.2
 21
-0.0
 31
0.0
 40
0.1227845609
 41
1.5707963268
 42
2.617993878
  0
ELLIPSE
  5
2DF
100
AcDbEntity
  8
RACCORDO
100
AcDbEllipse
 62
7
  6
CONTINUOUS
 10
3.9541983687
 20
-9.5434196854
 30
0.0
 11
0.2
 21
0.0
 31
0.0
 40
0.1227845609
 41
1.5707963268
 42
2.617993878
  0
ELLIPSE
  5
2E0
100
AcDbEntity
  8
RACCORDO
100
AcDbEllipse
 62
7
  6
CONTINUOUS
 10
7.223258261
 20
-9.5434196854
 30
0.0
 11
0.2
 21
0.0
 31
0.0
 40
0.1227845609
 41
0.5235987756
 42
1.5707963268
  0
ELLIPSE
  5
2E1
100
AcDbEntity
  8
RACCORDO
100
AcDbEllipse
 62
7
  6
CONTINUOUS
 10
9.7386978492
 20
-9.5359145153
 30
0.0
 11
-0.0617723213
 21
0.1905579802
 31
0.0
 40
0.9984017958
 41
-3.4546006943
 42
-1.8847427532
  0
ELLIPSE
  5
2E2
100
AcDbEntity
  8
RACCORDO
100
AcDbEllipse
 62
7
  6
CONTINUOUS
 10
-9.7612412196
 20
-9.5359145153
 30
0.0
 11
0.0617723213
 21
0.1905579802
 31
0.0
 40
0.9984017958
 41
-4.398442554
 42
-2.8285846129
  0
ELLIPSE
  5
2E3
100
AcDbEntity
  8
RACCORDO
100
AcDbEllipse
 62
7
  6
CONTINUOUS
 10
-9.7210945702
 20
9.5663102232
 30
0.0
 11
0.1414644378
 21
-0.1414644378
 31
0.0
 40
0.9996954599
 41
2.3563467834
 42
3.9268385237
  0
ELLIPSE
  5
2E4
100
AcDbEntity
  8
RACCORDO
100
AcDbEllipse
 62
7
  6
CONTINUOUS
 10
9.6985511999
 20
9.5663102232
 30
0.0
 11
0.1414644378
 21
0.1414644378
 31
0.0
 40
0.9996954599
 41
-0.7852458702
 42
0.7852458701
  0
ELLIPSE
  5
2E5
100
AcDbEntity
  8
0
100
AcDbEllipse
 62
7
  6
CONTINUOUS
 10
-10.1713086674
 20
2.0528467011
 30
0.0
 11
0.7
 21
-0.0
 31
0.0
 40
0.0087268678
 41
-3.0368728985
 42
-1.5707963268
  0
ELLIPSE
  5
2E6
100
AcDbEntity
  8
0
100
AcDbEllipse
 62
7
  6
CONTINUOUS
 10
10.148765297
 20
2.0528467011
 30
0.0
 11
0.7
 21
-0.0
 31
0.0
 40
0.0087268678
 41
-1.5707963268
 42
-0.1047197551
  0
ELLIPSE
  5
2E7
100
AcDbEntity
  8
0
100
AcDbEllipse
 62
7
  6
CONTINUOUS
 10
-10.1713086674
 20
-2.0852551937
 30
0.0
 11
0.7
 21
0.0
 31
0.0
 40
0.0087268678
 41
1.5707963268
 42
3.0368728985
  0
ELLIPSE
  5
2E8
100
AcDbEntity
  8
0
100
AcDbEllipse
 62
7
  6
CONTINUOUS
 10
10.148765297
 20
-2.0852551937
 30
0.0
 11
0.7
 21
0.0
 31
0.0
 40
0.0087268678
 41
0.1047197551
 42
1.5707963268
  0
ENDSEC
  0
SECTION
  2
OBJECTS
  0
DICTIONARY
  5
C
100
AcDbDictionary
280
0
281
1
  3
ACAD_GROUP
350
D
  3
ACAD_MLINESTYLE
350
17
  3
ACAD_LAYOUT
350
1A
  3
ACAD_PLOTSETTINGS
350
19
  3
ACAD_PLOTSTYLENAME
350
E
  0
DICTIONARY
  5
D
102
{ACAD_REACTORS
330
C
102
}
100
AcDbDictionary
280
0
281
1
  0
ACDBDICTIONARYWDFLT
  5
E
102
{ACAD_REACTORS
330
C
102
}
100
AcDbDictionary
281
1
  3
Normal
350
F
100
AcDbDictionaryWithDefault
340
F
  0
DICTIONARY
  5
17
102
{ACAD_REACTORS
330
C
102
}
100
AcDbDictionary
280
0
281
1
  3
Standard
350
18
  0
DICTIONARY
  5
19
102
{ACAD_REACTORS
330
C
102
}
100
AcDbDictionary
281
1
  0
DICTIONARY
  5
1A
102
{ACAD_REACTORS
330
C
102
}
100
AcDbDictionary
281
1
  3
Model
350
2E9
  3
Layout1
350
2EA
  0
ACDBPLACEHOLDER
  5
F
102
{ACAD_REACTORS
330
E
102
}
  0
MLINESTYLE
  5
18
102
{ACAD_REACTORS
330
17
102
}
100
AcDbMlineStyle
  2
STANDARD
 70
0
  3

 62
256
 51
90.0
 52
90.0
 71
2
 49
0.5
 62
256
  6
BYLAYER
 49
-0.5
 62
256
  6
BYLAYER
  0
LAYOUT
  5
2E9
102
{ACAD_REACTORS
330
1A
102
}
100
AcDbPlotSettings
  1

  2
none_device
  4
ISO_A4_(297.00_x_210.00_MM)
  6

 40
0.0
 41
0.0
 42
0.0
 43
0.0
 44
297.0
 45
210.0
 46
0.0
 47
0.0
 48
0.0
 49
0.0
140
0.0
141
0.0
142
1.0
143
1.0
 70
1024
 72
1
 73
0
 74
0
  7

 75
0
147
1.0
148
0.0
149
0.0
100
AcDbLayout
  1
Model
 70
0
 71
0
 10
0.0
 20
0.0
 11
297.0
 21
210.0
 12
0.0
 22
0.0
 32
0.0
 14
0.0
 24
0.0
 34
0.0
 15
0.0
 25
0.0
 35
0.0
146
0.0
 13
0.0
 23
0.0
 33
0.0
 16
1.0
 26
0.0
 36
0.0
 17
0.0
 27
1.0
 37
0.0
 76
0
330
210
345
0
346
0
  0
LAYOUT
  5
2EA
102
{ACAD_REACTORS
330
1A
102
}
100
AcDbPlotSettings
  1

  2
none_device
  4
ISO_A4_(297.00_x_210.00_MM)
  6

 40
0.0
 41
0.0
 42
0.0
 43
0.0
 44
297.0
 45
210.0
 46
0.0
 47
0.0
 48
0.0
 49
0.0
140
0.0
141
0.0
142
1.0
143
1.0
 70
0
 72
1
 73
0
 74
0
  7

 75
0
147
1.0
148
0.0
149
0.0
100
AcDbLayout
  1
Layout1
 70
0
 71
1
 10
0.0
 20
0.0
 11
297.0
 21
210.0
 12
0.0
 22
0.0
 32
0.0
 14
0.0
 24
0.0
 34
0.0
 15
0.0
 25
0.0
 35
0.0
146
0.0
 13
0.0
 23
0.0
 33
0.0
 16
1.0
 26
0.0
 36
0.0
 17
0.0
 27
1.0
 37
0.0
 76
0
330
211
345
0
346
0
  0
ENDSEC
  0
EOF
